  0
SECTION
  2
HEADER
  9
$ACADVER
  1
AC1021
  9
$ACADMAINTVER
 70
    25
  9
$DWGCODEPAGE
  3
ANSI_1256
  9
$INSBASE
 10
0.0
 20
0.0
 30
0.0
  9
$EXTMIN
 10
-187.7018
 20
-115.3414
 30
0.0
  9
$EXTMAX
 10
41.0299
 20
131.9306
 30
0.0
  9
$LIMMIN
 10
0.0
 20
0.0
  9
$LIMMAX
 10
12.0
 20
9.0
  9
$ORTHOMODE
 70
     0
  9
$REGENMODE
 70
     1
  9
$FILLMODE
 70
     1
  9
$QTEXTMODE
 70
     0
  9
$MIRRTEXT
 70
     1
  9
$LTSCALE
 40
1.0
  9
$ATTMODE
 70
     1
  9
$TEXTSIZE
 40
0.2
  9
$TRACEWID
 40
0.05
  9
$TEXTSTYLE
  7
Standard
  9
$CLAYER
  8
0
  9
$CELTYPE
  6
ByLayer
  9
$CECOLOR
 62
   256
  9
$CELTSCALE
 40
1.0
  9
$DISPSILH
 70
     0
  9
$DIMSCALE
 40
1.0
  9
$DIMASZ
 40
0.18
  9
$DIMEXO
 40
0.0625
  9
$DIMDLI
 40
0.38
  9
$DIMRND
 40
0.0
  9
$DIMDLE
 40
0.0
  9
$DIMEXE
 40
0.18
  9
$DIMTP
 40
0.0
  9
$DIMTM
 40
0.0
  9
$DIMTXT
 40
0.18
  9
$DIMCEN
 40
0.09
  9
$DIMTSZ
 40
0.0
  9
$DIMTOL
 70
     0
  9
$DIMLIM
 70
     0
  9
$DIMTIH
 70
     1
  9
$DIMTOH
 70
     1
  9
$DIMSE1
 70
     0
  9
$DIMSE2
 70
     0
  9
$DIMTAD
 70
     0
  9
$DIMZIN
 70
     0
  9
$DIMBLK
  1

  9
$DIMASO
 70
     1
  9
$DIMSHO
 70
     1
  9
$DIMPOST
  1

  9
$DIMAPOST
  1

  9
$DIMALT
 70
     0
  9
$DIMALTD
 70
     2
  9
$DIMALTF
 40
25.4
  9
$DIMLFAC
 40
1.0
  9
$DIMTOFL
 70
     0
  9
$DIMTVP
 40
0.0
  9
$DIMTIX
 70
     0
  9
$DIMSOXD
 70
     0
  9
$DIMSAH
 70
     0
  9
$DIMBLK1
  1

  9
$DIMBLK2
  1

  9
$DIMSTYLE
  2
Standard
  9
$DIMCLRD
 70
     0
  9
$DIMCLRE
 70
     0
  9
$DIMCLRT
 70
     0
  9
$DIMTFAC
 40
1.0
  9
$DIMGAP
 40
0.09
  9
$DIMJUST
 70
     0
  9
$DIMSD1
 70
     0
  9
$DIMSD2
 70
     0
  9
$DIMTOLJ
 70
     1
  9
$DIMTZIN
 70
     0
  9
$DIMALTZ
 70
     0
  9
$DIMALTTZ
 70
     0
  9
$DIMUPT
 70
     0
  9
$DIMDEC
 70
     4
  9
$DIMTDEC
 70
     4
  9
$DIMALTU
 70
     2
  9
$DIMALTTD
 70
     2
  9
$DIMTXSTY
  7
Standard
  9
$DIMAUNIT
 70
     0
  9
$DIMADEC
 70
     0
  9
$DIMALTRND
 40
0.0
  9
$DIMAZIN
 70
     0
  9
$DIMDSEP
 70
    46
  9
$DIMATFIT
 70
     3
  9
$DIMFRAC
 70
     0
  9
$DIMLDRBLK
  1

  9
$DIMLUNIT
 70
     2
  9
$DIMLWD
 70
    -2
  9
$DIMLWE
 70
    -2
  9
$DIMTMOVE
 70
     0
  9
$DIMFXL
 40
1.0
  9
$DIMFXLON
 70
     0
  9
$DIMJOGANG
 40
0.7853981633974483
  9
$DIMTFILL
 70
     0
  9
$DIMTFILLCLR
 70
     0
  9
$DIMARCSYM
 70
     0
  9
$DIMLTYPE
  6

  9
$DIMLTEX1
  6

  9
$DIMLTEX2
  6

  9
$LUNITS
 70
     2
  9
$LUPREC
 70
     4
  9
$SKETCHINC
 40
0.1
  9
$FILLETRAD
 40
0.5
  9
$AUNITS
 70
     0
  9
$AUPREC
 70
     0
  9
$MENU
  1
.
  9
$ELEVATION
 40
0.0
  9
$PELEVATION
 40
0.0
  9
$THICKNESS
 40
0.0
  9
$LIMCHECK
 70
     0
  9
$CHAMFERA
 40
0.5
  9
$CHAMFERB
 40
0.5
  9
$CHAMFERC
 40
1.0
  9
$CHAMFERD
 40
0.0
  9
$SKPOLY
 70
     0
  9
$TDCREATE
 40
2458493.251415614
  9
$TDUCREATE
 40
2458493.084748947
  9
$TDUPDATE
 40
2458493.251415903
  9
$TDUUPDATE
 40
2458493.084749236
  9
$TDINDWG
 40
0.0000000116
  9
$TDUSRTIMER
 40
0.0000000116
  9
$USRTIMER
 70
     1
  9
$ANGBASE
 50
0.0
  9
$ANGDIR
 70
     0
  9
$PDMODE
 70
     0
  9
$PDSIZE
 40
0.0
  9
$PLINEWID
 40
0.0
  9
$SPLFRAME
 70
     0
  9
$SPLINETYPE
 70
     6
  9
$SPLINESEGS
 70
     8
  9
$HANDSEED
  5
13B
  9
$SURFTAB1
 70
     6
  9
$SURFTAB2
 70
     6
  9
$SURFTYPE
 70
     6
  9
$SURFU
 70
     6
  9
$SURFV
 70
     6
  9
$UCSBASE
  2

  9
$UCSNAME
  2

  9
$UCSORG
 10
0.0
 20
0.0
 30
0.0
  9
$UCSXDIR
 10
1.0
 20
0.0
 30
0.0
  9
$UCSYDIR
 10
0.0
 20
1.0
 30
0.0
  9
$UCSORTHOREF
  2

  9
$UCSORTHOVIEW
 70
     0
  9
$UCSORGTOP
 10
0.0
 20
0.0
 30
0.0
  9
$UCSORGBOTTOM
 10
0.0
 20
0.0
 30
0.0
  9
$UCSORGLEFT
 10
0.0
 20
0.0
 30
0.0
  9
$UCSORGRIGHT
 10
0.0
 20
0.0
 30
0.0
  9
$UCSORGFRONT
 10
0.0
 20
0.0
 30
0.0
  9
$UCSORGBACK
 10
0.0
 20
0.0
 30
0.0
  9
$PUCSBASE
  2

  9
$PUCSNAME
  2

  9
$PUCSORG
 10
0.0
 20
0.0
 30
0.0
  9
$PUCSXDIR
 10
1.0
 20
0.0
 30
0.0
  9
$PUCSYDIR
 10
0.0
 20
1.0
 30
0.0
  9
$PUCSORTHOREF
  2

  9
$PUCSORTHOVIEW
 70
     0
  9
$PUCSORGTOP
 10
0.0
 20
0.0
 30
0.0
  9
$PUCSORGBOTTOM
 10
0.0
 20
0.0
 30
0.0
  9
$PUCSORGLEFT
 10
0.0
 20
0.0
 30
0.0
  9
$PUCSORGRIGHT
 10
0.0
 20
0.0
 30
0.0
  9
$PUCSORGFRONT
 10
0.0
 20
0.0
 30
0.0
  9
$PUCSORGBACK
 10
0.0
 20
0.0
 30
0.0
  9
$USERI1
 70
     0
  9
$USERI2
 70
     0
  9
$USERI3
 70
     0
  9
$USERI4
 70
     0
  9
$USERI5
 70
     0
  9
$USERR1
 40
0.0
  9
$USERR2
 40
0.0
  9
$USERR3
 40
0.0
  9
$USERR4
 40
0.0
  9
$USERR5
 40
0.0
  9
$WORLDVIEW
 70
     1
  9
$SHADEDGE
 70
     3
  9
$SHADEDIF
 70
    70
  9
$TILEMODE
 70
     1
  9
$MAXACTVP
 70
    64
  9
$PINSBASE
 10
0.0
 20
0.0
 30
0.0
  9
$PLIMCHECK
 70
     0
  9
$PEXTMIN
 10
1.000000000000000E+20
 20
1.000000000000000E+20
 30
1.000000000000000E+20
  9
$PEXTMAX
 10
-1.000000000000000E+20
 20
-1.000000000000000E+20
 30
-1.000000000000000E+20
  9
$PLIMMIN
 10
0.0
 20
0.0
  9
$PLIMMAX
 10
12.0
 20
9.0
  9
$UNITMODE
 70
     0
  9
$VISRETAIN
 70
     1
  9
$PLINEGEN
 70
     0
  9
$PSLTSCALE
 70
     1
  9
$TREEDEPTH
 70
  3020
  9
$CMLSTYLE
  2
Standard
  9
$CMLJUST
 70
     0
  9
$CMLSCALE
 40
1.0
  9
$PROXYGRAPHICS
 70
     1
  9
$MEASUREMENT
 70
     0
  9
$CELWEIGHT
370
    -1
  9
$ENDCAPS
280
     0
  9
$JOINSTYLE
280
     0
  9
$LWDISPLAY
290
     0
  9
$INSUNITS
 70
     4
  9
$HYPERLINKBASE
  1

  9
$STYLESHEET
  1

  9
$XEDIT
290
     1
  9
$CEPSNTYPE
380
     0
  9
$PSTYLEMODE
290
     1
  9
$FINGERPRINTGUID
  2
{863F6392-2A2E-4507-812B-0637B0F0A761}
  9
$VERSIONGUID
  2
{FAEB1C32-E019-11D5-929B-00C0DF256EC4}
  9
$EXTNAMES
290
     1
  9
$PSVPSCALE
 40
0.0
  9
$OLESTARTUP
290
     0
  9
$SORTENTS
280
   127
  9
$INDEXCTL
280
     0
  9
$HIDETEXT
280
     1
  9
$XCLIPFRAME
290
     0
  9
$HALOGAP
280
     0
  9
$OBSCOLOR
 70
   257
  9
$OBSLTYPE
280
     0
  9
$INTERSECTIONDISPLAY
280
     0
  9
$INTERSECTIONCOLOR
 70
   257
  9
$DIMASSOC
280
     2
  9
$PROJECTNAME
  1

  9
$CAMERADISPLAY
290
     0
  9
$LENSLENGTH
 40
50.0
  9
$CAMERAHEIGHT
 40
0.0
  9
$STEPSPERSEC
 40
2.0
  9
$STEPSIZE
 40
6.0
  9
$3DDWFPREC
 40
2.0
  9
$PSOLWIDTH
 40
0.25
  9
$PSOLHEIGHT
 40
4.0
  9
$LOFTANG1
 40
1.570796326794897
  9
$LOFTANG2
 40
1.570796326794897
  9
$LOFTMAG1
 40
0.0
  9
$LOFTMAG2
 40
0.0
  9
$LOFTPARAM
 70
     7
  9
$LOFTNORMALS
280
     1
  9
$LATITUDE
 40
37.795
  9
$LONGITUDE
 40
-122.394
  9
$NORTHDIRECTION
 40
0.0
  9
$TIMEZONE
 70
 -8000
  9
$LIGHTGLYPHDISPLAY
280
     1
  9
$TILEMODELIGHTSYNCH
280
     1
  9
$SOLIDHIST
280
     1
  9
$SHOWHIST
280
     1
  9
$DWFFRAME
280
     2
  9
$DGNFRAME
280
     2
  9
$REALWORLDSCALE
290
     1
  9
$INTERFERECOLOR
 62
   256
  9
$CSHADOW
280
     0
  9
$SHADOWPLANELOCATION
 40
0.0
  0
ENDSEC
  0
SECTION
  2
CLASSES
  0
CLASS
  1
ACDBDICTIONARYWDFLT
  2
AcDbDictionaryWithDefault
  3
ObjectDBX Classes
 90
        0
 91
        4
280
     0
281
     0
  0
CLASS
  1
VISUALSTYLE
  2
AcDbVisualStyle
  3
ObjectDBX Classes
 90
     4095
 91
        4
280
     0
281
     0
  0
CLASS
  1
MATERIAL
  2
AcDbMaterial
  3
ObjectDBX Classes
 90
     1153
 91
        4
280
     0
281
     0
  0
ENDSEC
  0
SECTION
  2
TABLES
  0
TABLE
  2
VPORT
  5
8
330
0
100
AcDbSymbolTable
 70
     1
  0
VPORT
  5
29
330
8
100
AcDbSymbolTableRecord
100
AcDbViewportTableRecord
  2
*Active
 70
     0
 10
0.0
 20
0.0
 11
1.0
 21
1.0
 12
10.42990654205607
 22
4.5
 13
0.0
 23
0.0
 14
0.5
 24
0.5
 15
0.5
 25
0.5
 16
0.0
 26
0.0
 36
1.0
 17
0.0
 27
0.0
 37
0.0
 40
9.0
 41
1.972972972850329
 42
50.0
 43
0.0
 44
0.0
 50
0.0
 51
0.0
 71
     0
 72
   100
 73
     1
 74
     3
 75
     0
 76
     0
 77
     0
 78
     0
281
     0
 65
     1
110
0.0
120
0.0
130
0.0
111
1.0
121
0.0
131
0.0
112
0.0
122
1.0
132
0.0
 79
     0
146
0.0
 60
     3
 61
     5
292
     1
282
     1
141
0.0
142
0.0
 63
   250
  0
ENDTAB
  0
TABLE
  2
LTYPE
  5
5
330
0
100
AcDbSymbolTable
 70
     1
  0
LTYPE
  5
14
330
5
100
AcDbSymbolTableRecord
100
AcDbLinetypeTableRecord
  2
ByBlock
 70
     0
  3

 72
    65
 73
     0
 40
0.0
  0
LTYPE
  5
15
330
5
100
AcDbSymbolTableRecord
100
AcDbLinetypeTableRecord
  2
ByLayer
 70
     0
  3

 72
    65
 73
     0
 40
0.0
  0
LTYPE
  5
16
330
5
100
AcDbSymbolTableRecord
100
AcDbLinetypeTableRecord
  2
Continuous
 70
     0
  3
Solid line
 72
    65
 73
     0
 40
0.0
  0
ENDTAB
  0
TABLE
  2
LAYER
  5
2
330
0
100
AcDbSymbolTable
 70
     3
  0
LAYER
  5
10
330
2
100
AcDbSymbolTableRecord
100
AcDbLayerTableRecord
  2
0
 70
     0
 62
     7
  6
Continuous
370
    -3
390
F
347
3E
  0
LAYER
  5
40
330
2
100
AcDbSymbolTableRecord
100
AcDbLayerTableRecord
  2
layer 1
 70
     0
 62
     7
  6
Continuous
370
    -3
390
F
347
3E
  0
LAYER
  5
118
330
2
100
AcDbSymbolTableRecord
100
AcDbLayerTableRecord
  2
Master Guides
 70
     0
 62
     7
  6
Continuous
370
    -3
390
F
347
3E
  0
ENDTAB
  0
TABLE
  2
STYLE
  5
3
330
0
100
AcDbSymbolTable
 70
     1
  0
STYLE
  5
11
330
3
100
AcDbSymbolTableRecord
100
AcDbTextStyleTableRecord
  2
Standard
 70
     0
 40
0.0
 41
1.0
 50
0.0
 71
     0
 42
0.2
  3
txt
  4

  0
ENDTAB
  0
TABLE
  2
VIEW
  5
6
330
0
100
AcDbSymbolTable
 70
     0
  0
ENDTAB
  0
TABLE
  2
UCS
  5
7
330
0
100
AcDbSymbolTable
 70
     0
  0
ENDTAB
  0
TABLE
  2
APPID
  5
9
330
0
100
AcDbSymbolTable
 70
     2
  0
APPID
  5
12
330
9
100
AcDbSymbolTableRecord
100
AcDbRegAppTableRecord
  2
ACAD
 70
     0
  0
APPID
  5
3F
330
9
100
AcDbSymbolTableRecord
100
AcDbRegAppTableRecord
  2
ODA
 70
     0
  0
ENDTAB
  0
TABLE
  2
DIMSTYLE
  5
A
330
0
100
AcDbSymbolTable
 70
     1
100
AcDbDimStyleTable
  0
DIMSTYLE
105
27
330
A
100
AcDbSymbolTableRecord
100
AcDbDimStyleTableRecord
  2
Standard
 70
     0
178
     0
340
11
  0
ENDTAB
  0
TABLE
  2
BLOCK_RECORD
  5
1
330
0
100
AcDbSymbolTable
 70
     1
  0
BLOCK_RECORD
  5
1F
330
1
100
AcDbSymbolTableRecord
100
AcDbBlockTableRecord
  2
*Model_Space
340
22
 70
     0
280
     1
281
     0
  0
BLOCK_RECORD
  5
1B
330
1
100
AcDbSymbolTableRecord
100
AcDbBlockTableRecord
  2
*Paper_Space
340
1E
 70
     0
280
     1
281
     0
  0
BLOCK_RECORD
  5
23
330
1
100
AcDbSymbolTableRecord
100
AcDbBlockTableRecord
  2
*Paper_Space0
340
26
 70
     0
280
     1
281
     0
  0
ENDTAB
  0
ENDSEC
  0
SECTION
  2
BLOCKS
  0
BLOCK
  5
20
330
1F
100
AcDbEntity
  8
0
100
AcDbBlockBegin
  2
*Model_Space
 70
     0
 10
0.0
 20
0.0
 30
0.0
  3
*Model_Space
  1

  0
ENDBLK
  5
21
330
1F
100
AcDbEntity
  8
0
100
AcDbBlockEnd
  0
BLOCK
  5
1C
330
1B
100
AcDbEntity
 67
     1
  8
0
100
AcDbBlockBegin
  2
*Paper_Space
 70
     0
 10
0.0
 20
0.0
 30
0.0
  3
*Paper_Space
  1

  0
ENDBLK
  5
1D
330
1B
100
AcDbEntity
 67
     1
  8
0
100
AcDbBlockEnd
  0
BLOCK
  5
24
330
23
100
AcDbEntity
  8
0
100
AcDbBlockBegin
  2
*Paper_Space0
 70
     0
 10
0.0
 20
0.0
 30
0.0
  3
*Paper_Space0
  1

  0
ENDBLK
  5
25
330
23
100
AcDbEntity
  8
0
100
AcDbBlockEnd
  0
ENDSEC
  0
SECTION
  2
ENTITIES
  0
SPLINE
  5
41
330
1F
100
AcDbEntity
  8
layer 1
100
AcDbSpline
210
0.0
220
0.0
230
1.0
 70
    11
 71
     3
 72
    20
 73
    16
 74
     0
 42
0.0000000001
 43
0.0000000001
 12
1.0
 22
0.0
 32
0.0
 13
1.0
 23
0.0
 33
0.0
 40
0.0
 40
0.0
 40
0.0
 40
0.0
 40
0.2
 40
0.2
 40
0.2
 40
0.2
 40
0.4
 40
0.4
 40
0.4
 40
0.4
 40
0.6
 40
0.6
 40
0.6
 40
0.6
 40
1.0
 40
1.0
 40
1.0
 40
1.0
 10
-114.7018
 20
95.3599
 30
0.0
 10
-114.7018
 20
75.1997
 30
0.0
 10
-131.0454
 20
58.8602
 30
0.0
 10
-151.2025
 20
58.8602
 30
0.0
 10
-151.2025
 20
58.8602
 30
0.0
 10
-171.3632
 20
58.8605
 30
0.0
 10
-187.7018
 20
75.1997
 30
0.0
 10
-187.7018
 20
95.3596
 30
0.0
 10
-187.7018
 20
95.3596
 30
0.0
 10
-187.7018
 20
115.5171
 30
0.0
 10
-171.3635
 20
131.8602
 30
0.0
 10
-151.2025
 20
131.8602
 30
0.0
 10
-151.2025
 20
131.8602
 30
0.0
 10
-131.0451
 20
131.8605
 30
0.0
 10
-114.702
 20
115.5168
 30
0.0
 10
-114.7018
 20
95.3599
 30
0.0
  0
SPLINE
  5
42
330
1F
100
AcDbEntity
  8
layer 1
 62
     7
100
AcDbSpline
210
0.0
220
0.0
230
1.0
 70
    11
 71
     3
 72
    20
 73
    16
 74
     0
 42
0.0000000001
 43
0.0000000001
 12
1.0
 22
0.0
 32
0.0
 13
1.0
 23
0.0
 33
0.0
 40
0.0
 40
0.0
 40
0.0
 40
0.0
 40
0.2
 40
0.2
 40
0.2
 40
0.2
 40
0.4
 40
0.4
 40
0.4
 40
0.4
 40
0.6
 40
0.6
 40
0.6
 40
0.6
 40
1.0
 40
1.0
 40
1.0
 40
1.0
 10
-177.5848
 20
115.4043
 30
0.0
 10
-176.0728
 20
117.3719
 30
0.0
 10
-175.1922
 20
118.2138
 30
0.0
 10
-173.5256
 20
119.8733
 30
0.0
 10
-173.5256
 20
119.8733
 30
0.0
 10
-173.5256
 20
119.8733
 30
0.0
 10
-173.5256
 20
96.3223
 30
0.0
 10
-173.5256
 20
96.3223
 30
0.0
 10
-173.5256
 20
96.3223
 30
0.0
 10
-173.5256
 20
96.3223
 30
0.0
 10
-177.5848
 20
96.3223
 30
0.0
 10
-177.5848
 20
96.3223
 30
0.0
 10
-177.5848
 20
96.3223
 30
0.0
 10
-177.5848
 20
96.3223
 30
0.0
 10
-177.5848
 20
115.4043
 30
0.0
 10
-177.5848
 20
115.4043
 30
0.0
  0
SPLINE
  5
43
330
1F
100
AcDbEntity
  8
layer 1
 62
     7
100
AcDbSpline
210
0.0
220
0.0
230
1.0
 70
    11
 71
     3
 72
    16
 73
    12
 74
     0
 42
0.0000000001
 43
0.0000000001
 12
1.0
 22
0.0
 32
0.0
 13
1.0
 23
0.0
 33
0.0
 40
0.0
 40
0.0
 40
0.0
 40
0.0
 40
0.25
 40
0.25
 40
0.25
 40
0.25
 40
0.5
 40
0.5
 40
0.5
 40
0.5
 40
1.0
 40
1.0
 40
1.0
 40
1.0
 10
-152.3822
 20
114.438
 30
0.0
 10
-152.3822
 20
114.438
 30
0.0
 10
-152.4059
 20
96.3223
 30
0.0
 10
-152.4059
 20
96.3223
 30
0.0
 10
-152.4059
 20
96.3223
 30
0.0
 10
-152.4059
 20
96.3223
 30
0.0
 10
-170.0698
 20
96.3223
 30
0.0
 10
-170.0698
 20
96.3223
 30
0.0
 10
-170.0698
 20
96.3223
 30
0.0
 10
-169.5123
 20
106.0743
 30
0.0
 10
-161.8139
 20
113.8463
 30
0.0
 10
-152.3822
 20
114.438
 30
0.0
  0
SPLINE
  5
44
330
1F
100
AcDbEntity
  8
layer 1
 62
     7
100
AcDbSpline
210
0.0
220
0.0
230
1.0
 70
    11
 71
     3
 72
    20
 73
    16
 74
     0
 42
0.0000000001
 43
0.0000000001
 12
1.0
 22
0.0
 32
0.0
 13
1.0
 23
0.0
 33
0.0
 40
0.0
 40
0.0
 40
0.0
 40
0.0
 40
0.2
 40
0.2
 40
0.2
 40
0.2
 40
0.4
 40
0.4
 40
0.4
 40
0.4
 40
0.6
 40
0.6
 40
0.6
 40
0.6
 40
1.0
 40
1.0
 40
1.0
 40
1.0
 10
-170.0888
 20
122.647
 30
0.0
 10
-168.6633
 20
123.6365
 30
0.0
 10
-167.8729
 20
123.9944
 30
0.0
 10
-166.0257
 20
125.0037
 30
0.0
 10
-166.0257
 20
125.0037
 30
0.0
 10
-166.0257
 20
125.0037
 30
0.0
 10
-166.0257
 20
111.9954
 30
0.0
 10
-166.0257
 20
111.9954
 30
0.0
 10
-166.0257
 20
111.9954
 30
0.0
 10
-167.7361
 20
110.0826
 30
0.0
 10
-168.7954
 20
108.766
 30
0.0
 10
-170.0888
 20
106.4401
 30
0.0
 10
-170.0888
 20
106.4401
 30
0.0
 10
-170.0888
 20
106.4401
 30
0.0
 10
-170.0888
 20
122.647
 30
0.0
 10
-170.0888
 20
122.647
 30
0.0
  0
SPLINE
  5
45
330
1F
100
AcDbEntity
  8
layer 1
 62
     7
100
AcDbSpline
210
0.0
220
0.0
230
1.0
 70
    11
 71
     3
 72
    20
 73
    16
 74
     0
 42
0.0000000001
 43
0.0000000001
 12
1.0
 22
0.0
 32
0.0
 13
1.0
 23
0.0
 33
0.0
 40
0.0
 40
0.0
 40
0.0
 40
0.0
 40
0.2
 40
0.2
 40
0.2
 40
0.2
 40
0.4
 40
0.4
 40
0.4
 40
0.4
 40
0.6
 40
0.6
 40
0.6
 40
0.6
 40
1.0
 40
1.0
 40
1.0
 40
1.0
 10
-163.6181
 20
125.9621
 30
0.0
 10
-162.2857
 20
126.5665
 30
0.0
 10
-161.3472
 20
126.8896
 30
0.0
 10
-159.559
 20
127.3643
 30
0.0
 10
-159.559
 20
127.3643
 30
0.0
 10
-159.559
 20
127.3643
 30
0.0
 10
-159.559
 20
115.9301
 30
0.0
 10
-159.559
 20
115.9301
 30
0.0
 10
-159.559
 20
115.9301
 30
0.0
 10
-161.5614
 20
115.0263
 30
0.0
 10
-162.208
 20
114.6523
 30
0.0
 10
-163.6181
 20
113.6549
 30
0.0
 10
-163.6181
 20
113.6549
 30
0.0
 10
-163.6181
 20
113.6549
 30
0.0
 10
-163.6181
 20
125.9621
 30
0.0
 10
-163.6181
 20
125.9621
 30
0.0
  0
SPLINE
  5
46
330
1F
100
AcDbEntity
  8
layer 1
 62
     7
100
AcDbSpline
210
0.0
220
0.0
230
1.0
 70
    11
 71
     3
 72
    20
 73
    16
 74
     0
 42
0.0000000001
 43
0.0000000001
 12
1.0
 22
0.0
 32
0.0
 13
1.0
 23
0.0
 33
0.0
 40
0.0
 40
0.0
 40
0.0
 40
0.0
 40
0.2
 40
0.2
 40
0.2
 40
0.2
 40
0.4
 40
0.4
 40
0.4
 40
0.4
 40
0.6
 40
0.6
 40
0.6
 40
0.6
 40
1.0
 40
1.0
 40
1.0
 40
1.0
 10
-156.4693
 20
128.1403
 30
0.0
 10
-154.8364
 20
128.4208
 30
0.0
 10
-154.0776
 20
128.4165
 30
0.0
 10
-152.4062
 20
128.5101
 30
0.0
 10
-152.4062
 20
128.5101
 30
0.0
 10
-152.4062
 20
128.5101
 30
0.0
 10
-152.4059
 20
117.6643
 30
0.0
 10
-152.4059
 20
117.6643
 30
0.0
 10
-152.4059
 20
117.6643
 30
0.0
 10
-154.2331
 20
117.4969
 30
0.0
 10
-155.0552
 20
117.3601
 30
0.0
 10
-156.4693
 20
116.986
 30
0.0
 10
-156.4693
 20
116.986
 30
0.0
 10
-156.4693
 20
116.986
 30
0.0
 10
-156.4693
 20
128.1403
 30
0.0
 10
-156.4693
 20
128.1403
 30
0.0
  0
SPLINE
  5
47
330
1F
100
AcDbEntity
  8
layer 1
 62
     7
100
AcDbSpline
210
0.0
220
0.0
230
1.0
 70
    11
 71
     3
 72
    16
 73
    12
 74
     0
 42
0.0000000001
 43
0.0000000001
 12
1.0
 22
0.0
 32
0.0
 13
1.0
 23
0.0
 33
0.0
 40
0.0
 40
0.0
 40
0.0
 40
0.0
 40
0.25
 40
0.25
 40
0.25
 40
0.25
 40
0.5
 40
0.5
 40
0.5
 40
0.5
 40
1.0
 40
1.0
 40
1.0
 40
1.0
 10
-180.6705
 20
110.5852
 30
0.0
 10
-180.6705
 20
110.5852
 30
0.0
 10
-180.4212
 20
96.3223
 30
0.0
 10
-180.4212
 20
96.3223
 30
0.0
 10
-180.4212
 20
96.3223
 30
0.0
 10
-180.4212
 20
96.3223
 30
0.0
 10
-184.2897
 20
96.3223
 30
0.0
 10
-184.2897
 20
96.3223
 30
0.0
 10
-184.2897
 20
96.3223
 30
0.0
 10
-183.8999
 20
103.6119
 30
0.0
 10
-182.1816
 20
107.6052
 30
0.0
 10
-180.6705
 20
110.5852
 30
0.0
  0
SPLINE
  5
48
330
1F
100
AcDbEntity
  8
layer 1
 62
     7
100
AcDbSpline
210
0.0
220
0.0
230
1.0
 70
    11
 71
     3
 72
    16
 73
    12
 74
     0
 42
0.0000000001
 43
0.0000000001
 12
1.0
 22
0.0
 32
0.0
 13
1.0
 23
0.0
 33
0.0
 40
0.0
 40
0.0
 40
0.0
 40
0.0
 40
0.25
 40
0.25
 40
0.25
 40
0.25
 40
0.5
 40
0.5
 40
0.5
 40
0.5
 40
1.0
 40
1.0
 40
1.0
 40
1.0
 10
-150.1771
 20
114.438
 30
0.0
 10
-150.1771
 20
114.438
 30
0.0
 10
-150.1542
 20
96.3223
 30
0.0
 10
-150.1542
 20
96.3223
 30
0.0
 10
-150.1542
 20
96.3223
 30
0.0
 10
-150.1542
 20
96.3223
 30
0.0
 10
-132.4903
 20
96.3223
 30
0.0
 10
-132.4903
 20
96.3223
 30
0.0
 10
-132.4903
 20
96.3223
 30
0.0
 10
-133.0478
 20
106.0743
 30
0.0
 10
-140.7454
 20
113.8463
 30
0.0
 10
-150.1771
 20
114.438
 30
0.0
  0
SPLINE
  5
49
330
1F
100
AcDbEntity
  8
layer 1
 62
     7
100
AcDbSpline
210
0.0
220
0.0
230
1.0
 70
    11
 71
     3
 72
    16
 73
    12
 74
     0
 42
0.0000000001
 43
0.0000000001
 12
1.0
 22
0.0
 32
0.0
 13
1.0
 23
0.0
 33
0.0
 40
0.0
 40
0.0
 40
0.0
 40
0.0
 40
0.25
 40
0.25
 40
0.25
 40
0.25
 40
0.5
 40
0.5
 40
0.5
 40
0.5
 40
1.0
 40
1.0
 40
1.0
 40
1.0
 10
-152.3822
 20
114.438
 30
0.0
 10
-152.3822
 20
114.438
 30
0.0
 10
-152.4059
 20
96.3223
 30
0.0
 10
-152.4059
 20
96.3223
 30
0.0
 10
-152.4059
 20
96.3223
 30
0.0
 10
-152.4059
 20
96.3223
 30
0.0
 10
-170.0698
 20
96.3223
 30
0.0
 10
-170.0698
 20
96.3223
 30
0.0
 10
-170.0698
 20
96.3223
 30
0.0
 10
-169.5123
 20
106.0743
 30
0.0
 10
-161.8139
 20
113.8463
 30
0.0
 10
-152.3822
 20
114.438
 30
0.0
  0
SPLINE
  5
4A
330
1F
100
AcDbEntity
  8
layer 1
 62
     7
100
AcDbSpline
210
0.0
220
0.0
230
1.0
 70
    11
 71
     3
 72
    20
 73
    16
 74
     0
 42
0.0000000001
 43
0.0000000001
 12
1.0
 22
0.0
 32
0.0
 13
1.0
 23
0.0
 33
0.0
 40
0.0
 40
0.0
 40
0.0
 40
0.0
 40
0.2
 40
0.2
 40
0.2
 40
0.2
 40
0.4
 40
0.4
 40
0.4
 40
0.4
 40
0.6
 40
0.6
 40
0.6
 40
0.6
 40
1.0
 40
1.0
 40
1.0
 40
1.0
 10
-131.139
 20
121.8093
 30
0.0
 10
-129.1753
 20
120.2971
 30
0.0
 10
-128.3297
 20
119.4176
 30
0.0
 10
-126.6742
 20
117.746
 30
0.0
 10
-126.6742
 20
117.746
 30
0.0
 10
-126.6742
 20
117.746
 30
0.0
 10
-150.2198
 20
117.746
 30
0.0
 10
-150.2198
 20
117.746
 30
0.0
 10
-150.2198
 20
117.746
 30
0.0
 10
-150.2198
 20
117.746
 30
0.0
 10
-150.2198
 20
121.8093
 30
0.0
 10
-150.2198
 20
121.8093
 30
0.0
 10
-150.2198
 20
121.8093
 30
0.0
 10
-150.2198
 20
121.8093
 30
0.0
 10
-131.139
 20
121.8093
 30
0.0
 10
-131.139
 20
121.8093
 30
0.0
  0
SPLINE
  5
4B
330
1F
100
AcDbEntity
  8
layer 1
 62
     7
100
AcDbSpline
210
0.0
220
0.0
230
1.0
 70
    11
 71
     3
 72
    20
 73
    16
 74
     0
 42
0.0000000001
 43
0.0000000001
 12
1.0
 22
0.0
 32
0.0
 13
1.0
 23
0.0
 33
0.0
 40
0.0
 40
0.0
 40
0.0
 40
0.0
 40
0.2
 40
0.2
 40
0.2
 40
0.2
 40
0.4
 40
0.4
 40
0.4
 40
0.4
 40
0.6
 40
0.6
 40
0.6
 40
0.6
 40
1.0
 40
1.0
 40
1.0
 40
1.0
 10
-123.9002
 20
114.3133
 30
0.0
 10
-122.911
 20
112.8879
 30
0.0
 10
-122.548
 20
112.0971
 30
0.0
 10
-121.5399
 20
110.2499
 30
0.0
 10
-121.5399
 20
110.2499
 30
0.0
 10
-121.5399
 20
110.2499
 30
0.0
 10
-134.5507
 20
110.2502
 30
0.0
 10
-134.5507
 20
110.2502
 30
0.0
 10
-134.5507
 20
110.2502
 30
0.0
 10
-136.4607
 20
111.9606
 30
0.0
 10
-137.7815
 20
113.0165
 30
0.0
 10
-140.1031
 20
114.313
 30
0.0
 10
-140.1031
 20
114.313
 30
0.0
 10
-140.1031
 20
114.313
 30
0.0
 10
-123.9002
 20
114.3133
 30
0.0
 10
-123.9002
 20
114.3133
 30
0.0
  0
SPLINE
  5
4C
330
1F
100
AcDbEntity
  8
layer 1
 62
     7
100
AcDbSpline
210
0.0
220
0.0
230
1.0
 70
    11
 71
     3
 72
    20
 73
    16
 74
     0
 42
0.0000000001
 43
0.0000000001
 12
1.0
 22
0.0
 32
0.0
 13
1.0
 23
0.0
 33
0.0
 40
0.0
 40
0.0
 40
0.0
 40
0.0
 40
0.2
 40
0.2
 40
0.2
 40
0.2
 40
0.4
 40
0.4
 40
0.4
 40
0.4
 40
0.6
 40
0.6
 40
0.6
 40
0.6
 40
1.0
 40
1.0
 40
1.0
 40
1.0
 10
-120.5812
 20
107.8427
 30
0.0
 10
-119.9768
 20
106.506
 30
0.0
 10
-119.6539
 20
105.5714
 30
0.0
 10
-119.1781
 20
103.7832
 30
0.0
 10
-119.1781
 20
103.7832
 30
0.0
 10
-119.1781
 20
103.7832
 30
0.0
 10
-130.6123
 20
103.7835
 30
0.0
 10
-130.6123
 20
103.7835
 30
0.0
 10
-130.6123
 20
103.7835
 30
0.0
 10
-131.52
 20
105.786
 30
0.0
 10
-131.8941
 20
106.4283
 30
0.0
 10
-132.8884
 20
107.8424
 30
0.0
 10
-132.8884
 20
107.8424
 30
0.0
 10
-132.8884
 20
107.8424
 30
0.0
 10
-120.5812
 20
107.8427
 30
0.0
 10
-120.5812
 20
107.8427
 30
0.0
  0
SPLINE
  5
4D
330
1F
100
AcDbEntity
  8
layer 1
 62
     7
100
AcDbSpline
210
0.0
220
0.0
230
1.0
 70
    11
 71
     3
 72
    20
 73
    16
 74
     0
 42
0.0000000001
 43
0.0000000001
 12
1.0
 22
0.0
 32
0.0
 13
1.0
 23
0.0
 33
0.0
 40
0.0
 40
0.0
 40
0.0
 40
0.0
 40
0.2
 40
0.2
 40
0.2
 40
0.2
 40
0.4
 40
0.4
 40
0.4
 40
0.4
 40
0.6
 40
0.6
 40
0.6
 40
0.6
 40
1.0
 40
1.0
 40
1.0
 40
1.0
 10
-118.4069
 20
100.6896
 30
0.0
 10
-118.1268
 20
99.0609
 30
0.0
 10
-118.127
 20
98.2978
 30
0.0
 10
-118.0371
 20
96.6304
 30
0.0
 10
-118.0371
 20
96.6304
 30
0.0
 10
-118.0371
 20
96.6304
 30
0.0
 10
-128.879
 20
96.6304
 30
0.0
 10
-128.879
 20
96.6304
 30
0.0
 10
-128.879
 20
96.6304
 30
0.0
 10
-129.0466
 20
98.4576
 30
0.0
 10
-129.1874
 20
99.2794
 30
0.0
 10
-129.5612
 20
100.6896
 30
0.0
 10
-129.5612
 20
100.6896
 30
0.0
 10
-129.5612
 20
100.6896
 30
0.0
 10
-118.4069
 20
100.6896
 30
0.0
 10
-118.4069
 20
100.6896
 30
0.0
  0
SPLINE
  5
4E
330
1F
100
AcDbEntity
  8
layer 1
 62
     7
100
AcDbSpline
210
0.0
220
0.0
230
1.0
 70
    11
 71
     3
 72
    16
 73
    12
 74
     0
 42
0.0000000001
 43
0.0000000001
 12
1.0
 22
0.0
 32
0.0
 13
1.0
 23
0.0
 33
0.0
 40
0.0
 40
0.0
 40
0.0
 40
0.0
 40
0.25
 40
0.25
 40
0.25
 40
0.25
 40
0.5
 40
0.5
 40
0.5
 40
0.5
 40
1.0
 40
1.0
 40
1.0
 40
1.0
 10
-135.958
 20
124.8951
 30
0.0
 10
-135.958
 20
124.8951
 30
0.0
 10
-150.2198
 20
124.6458
 30
0.0
 10
-150.2198
 20
124.6458
 30
0.0
 10
-150.2198
 20
124.6458
 30
0.0
 10
-150.2198
 20
124.6458
 30
0.0
 10
-150.2198
 20
128.5144
 30
0.0
 10
-150.2198
 20
128.5144
 30
0.0
 10
-150.2198
 20
128.5144
 30
0.0
 10
-142.9355
 20
128.1245
 30
0.0
 10
-138.9383
 20
126.4059
 30
0.0
 10
-135.958
 20
124.8951
 30
0.0
  0
SPLINE
  5
4F
330
1F
100
AcDbEntity
  8
layer 1
 62
     7
100
AcDbSpline
210
0.0
220
0.0
230
1.0
 70
    11
 71
     3
 72
    20
 73
    16
 74
     0
 42
0.0000000001
 43
0.0000000001
 12
1.0
 22
0.0
 32
0.0
 13
1.0
 23
0.0
 33
0.0
 40
0.0
 40
0.0
 40
0.0
 40
0.0
 40
0.2
 40
0.2
 40
0.2
 40
0.2
 40
0.4
 40
0.4
 40
0.4
 40
0.4
 40
0.6
 40
0.6
 40
0.6
 40
0.6
 40
1.0
 40
1.0
 40
1.0
 40
1.0
 10
-124.7998
 20
75.2616
 30
0.0
 10
-126.312
 20
73.2979
 30
0.0
 10
-127.1926
 20
72.4531
 30
0.0
 10
-128.8632
 20
70.7973
 30
0.0
 10
-128.8632
 20
70.7973
 30
0.0
 10
-128.8632
 20
70.7973
 30
0.0
 10
-128.8632
 20
94.3436
 30
0.0
 10
-128.8632
 20
94.3436
 30
0.0
 10
-128.8632
 20
94.3436
 30
0.0
 10
-128.8632
 20
94.3436
 30
0.0
 10
-124.7998
 20
94.3436
 30
0.0
 10
-124.7998
 20
94.3436
 30
0.0
 10
-124.7998
 20
94.3436
 30
0.0
 10
-124.7998
 20
94.3436
 30
0.0
 10
-124.7998
 20
75.2616
 30
0.0
 10
-124.7998
 20
75.2616
 30
0.0
  0
SPLINE
  5
50
330
1F
100
AcDbEntity
  8
layer 1
 62
     7
100
AcDbSpline
210
0.0
220
0.0
230
1.0
 70
    11
 71
     3
 72
    20
 73
    16
 74
     0
 42
0.0000000001
 43
0.0000000001
 12
1.0
 22
0.0
 32
0.0
 13
1.0
 23
0.0
 33
0.0
 40
0.0
 40
0.0
 40
0.0
 40
0.0
 40
0.2
 40
0.2
 40
0.2
 40
0.2
 40
0.4
 40
0.4
 40
0.4
 40
0.4
 40
0.6
 40
0.6
 40
0.6
 40
0.6
 40
1.0
 40
1.0
 40
1.0
 40
1.0
 10
-132.2958
 20
68.0231
 30
0.0
 10
-133.7212
 20
67.0336
 30
0.0
 10
-134.5119
 20
66.6714
 30
0.0
 10
-136.3592
 20
65.6622
 30
0.0
 10
-136.3592
 20
65.6622
 30
0.0
 10
-136.3592
 20
65.6622
 30
0.0
 10
-136.3589
 20
78.6744
 30
0.0
 10
-136.3589
 20
78.6744
 30
0.0
 10
-136.3589
 20
78.6744
 30
0.0
 10
-134.6488
 20
80.5833
 30
0.0
 10
-133.5934
 20
81.9038
 30
0.0
 10
-132.2961
 20
84.2254
 30
0.0
 10
-132.2961
 20
84.2254
 30
0.0
 10
-132.2961
 20
84.2254
 30
0.0
 10
-132.2958
 20
68.0231
 30
0.0
 10
-132.2958
 20
68.0231
 30
0.0
  0
SPLINE
  5
51
330
1F
100
AcDbEntity
  8
layer 1
 62
     7
100
AcDbSpline
210
0.0
220
0.0
230
1.0
 70
    11
 71
     3
 72
    20
 73
    16
 74
     0
 42
0.0000000001
 43
0.0000000001
 12
1.0
 22
0.0
 32
0.0
 13
1.0
 23
0.0
 33
0.0
 40
0.0
 40
0.0
 40
0.0
 40
0.0
 40
0.2
 40
0.2
 40
0.2
 40
0.2
 40
0.4
 40
0.4
 40
0.4
 40
0.4
 40
0.6
 40
0.6
 40
0.6
 40
0.6
 40
1.0
 40
1.0
 40
1.0
 40
1.0
 10
-138.7664
 20
64.7038
 30
0.0
 10
-140.1031
 20
64.1005
 30
0.0
 10
-141.0377
 20
63.7762
 30
0.0
 10
-142.8258
 20
63.3016
 30
0.0
 10
-142.8258
 20
63.3016
 30
0.0
 10
-142.8258
 20
63.3016
 30
0.0
 10
-142.8258
 20
74.736
 30
0.0
 10
-142.8258
 20
74.736
 30
0.0
 10
-142.8258
 20
74.736
 30
0.0
 10
-140.824
 20
75.6438
 30
0.0
 10
-140.1768
 20
76.0175
 30
0.0
 10
-138.7667
 20
77.0107
 30
0.0
 10
-138.7667
 20
77.0107
 30
0.0
 10
-138.7667
 20
77.0107
 30
0.0
 10
-138.7664
 20
64.7038
 30
0.0
 10
-138.7664
 20
64.7038
 30
0.0
  0
SPLINE
  5
52
330
1F
100
AcDbEntity
  8
layer 1
 62
     7
100
AcDbSpline
210
0.0
220
0.0
230
1.0
 70
    11
 71
     3
 72
    20
 73
    16
 74
     0
 42
0.0000000001
 43
0.0000000001
 12
1.0
 22
0.0
 32
0.0
 13
1.0
 23
0.0
 33
0.0
 40
0.0
 40
0.0
 40
0.0
 40
0.0
 40
0.2
 40
0.2
 40
0.2
 40
0.2
 40
0.4
 40
0.4
 40
0.4
 40
0.4
 40
0.6
 40
0.6
 40
0.6
 40
0.6
 40
1.0
 40
1.0
 40
1.0
 40
1.0
 10
-145.9195
 20
62.5298
 30
0.0
 10
-147.5479
 20
62.2493
 30
0.0
 10
-148.3112
 20
62.2493
 30
0.0
 10
-149.9786
 20
62.1594
 30
0.0
 10
-149.9786
 20
62.1594
 30
0.0
 10
-149.9786
 20
62.1594
 30
0.0
 10
-149.9786
 20
73.0016
 30
0.0
 10
-149.9786
 20
73.0016
 30
0.0
 10
-149.9786
 20
73.0016
 30
0.0
 10
-148.1515
 20
73.1692
 30
0.0
 10
-147.3296
 20
73.3097
 30
0.0
 10
-145.9195
 20
73.6838
 30
0.0
 10
-145.9195
 20
73.6838
 30
0.0
 10
-145.9195
 20
73.6838
 30
0.0
 10
-145.9195
 20
62.5298
 30
0.0
 10
-145.9195
 20
62.5298
 30
0.0
  0
SPLINE
  5
53
330
1F
100
AcDbEntity
  8
layer 1
 62
     7
100
AcDbSpline
210
0.0
220
0.0
230
1.0
 70
    11
 71
     3
 72
    16
 73
    12
 74
     0
 42
0.0000000001
 43
0.0000000001
 12
1.0
 22
0.0
 32
0.0
 13
1.0
 23
0.0
 33
0.0
 40
0.0
 40
0.0
 40
0.0
 40
0.0
 40
0.25
 40
0.25
 40
0.25
 40
0.25
 40
0.5
 40
0.5
 40
0.5
 40
0.5
 40
1.0
 40
1.0
 40
1.0
 40
1.0
 10
-121.7143
 20
80.0806
 30
0.0
 10
-121.7143
 20
80.0806
 30
0.0
 10
-121.9634
 20
94.3436
 30
0.0
 10
-121.9634
 20
94.3436
 30
0.0
 10
-121.9634
 20
94.3436
 30
0.0
 10
-121.9634
 20
94.3436
 30
0.0
 10
-118.0948
 20
94.3436
 30
0.0
 10
-118.0948
 20
94.3436
 30
0.0
 10
-118.0948
 20
94.3436
 30
0.0
 10
-118.4849
 20
87.0582
 30
0.0
 10
-120.2032
 20
83.0607
 30
0.0
 10
-121.7143
 20
80.0806
 30
0.0
  0
SPLINE
  5
54
330
1F
100
AcDbEntity
  8
layer 1
 62
     7
100
AcDbSpline
210
0.0
220
0.0
230
1.0
 70
    11
 71
     3
 72
    20
 73
    16
 74
     0
 42
0.0000000001
 43
0.0000000001
 12
1.0
 22
0.0
 32
0.0
 13
1.0
 23
0.0
 33
0.0
 40
0.0
 40
0.0
 40
0.0
 40
0.0
 40
0.2
 40
0.2
 40
0.2
 40
0.2
 40
0.4
 40
0.4
 40
0.4
 40
0.4
 40
0.6
 40
0.6
 40
0.6
 40
0.6
 40
1.0
 40
1.0
 40
1.0
 40
1.0
 10
-171.4921
 20
69.0162
 30
0.0
 10
-173.4547
 20
70.5282
 30
0.0
 10
-174.2966
 20
71.4088
 30
0.0
 10
-175.9561
 20
73.0762
 30
0.0
 10
-175.9561
 20
73.0762
 30
0.0
 10
-175.9561
 20
73.0762
 30
0.0
 10
-152.4059
 20
73.0765
 30
0.0
 10
-152.4059
 20
73.0765
 30
0.0
 10
-152.4059
 20
73.0765
 30
0.0
 10
-152.4059
 20
73.0765
 30
0.0
 10
-152.4059
 20
69.0162
 30
0.0
 10
-152.4059
 20
69.0162
 30
0.0
 10
-152.4059
 20
69.0162
 30
0.0
 10
-152.4059
 20
69.0162
 30
0.0
 10
-171.4921
 20
69.0162
 30
0.0
 10
-171.4921
 20
69.0162
 30
0.0
  0
SPLINE
  5
55
330
1F
100
AcDbEntity
  8
layer 1
 62
     7
100
AcDbSpline
210
0.0
220
0.0
230
1.0
 70
    11
 71
     3
 72
    20
 73
    16
 74
     0
 42
0.0000000001
 43
0.0000000001
 12
1.0
 22
0.0
 32
0.0
 13
1.0
 23
0.0
 33
0.0
 40
0.0
 40
0.0
 40
0.0
 40
0.0
 40
0.2
 40
0.2
 40
0.2
 40
0.2
 40
0.4
 40
0.4
 40
0.4
 40
0.4
 40
0.6
 40
0.6
 40
0.6
 40
0.6
 40
1.0
 40
1.0
 40
1.0
 40
1.0
 10
-178.7297
 20
76.5123
 30
0.0
 10
-179.7201
 20
77.9385
 30
0.0
 10
-180.0822
 20
78.7293
 30
0.0
 10
-181.0875
 20
80.5714
 30
0.0
 10
-181.0875
 20
80.5714
 30
0.0
 10
-181.0875
 20
80.5714
 30
0.0
 10
-168.0793
 20
80.5714
 30
0.0
 10
-168.0793
 20
80.5714
 30
0.0
 10
-168.0793
 20
80.5714
 30
0.0
 10
-166.1701
 20
78.865
 30
0.0
 10
-164.8488
 20
77.8057
 30
0.0
 10
-162.5232
 20
76.5123
 30
0.0
 10
-162.5232
 20
76.5123
 30
0.0
 10
-162.5232
 20
76.5123
 30
0.0
 10
-178.7297
 20
76.5123
 30
0.0
 10
-178.7297
 20
76.5123
 30
0.0
  0
SPLINE
  5
56
330
1F
100
AcDbEntity
  8
layer 1
 62
     7
100
AcDbSpline
210
0.0
220
0.0
230
1.0
 70
    11
 71
     3
 72
    20
 73
    16
 74
     0
 42
0.0000000001
 43
0.0000000001
 12
1.0
 22
0.0
 32
0.0
 13
1.0
 23
0.0
 33
0.0
 40
0.0
 40
0.0
 40
0.0
 40
0.0
 40
0.2
 40
0.2
 40
0.2
 40
0.2
 40
0.4
 40
0.4
 40
0.4
 40
0.4
 40
0.6
 40
0.6
 40
0.6
 40
0.6
 40
1.0
 40
1.0
 40
1.0
 40
1.0
 10
-182.0459
 20
82.9829
 30
0.0
 10
-182.6532
 20
84.3153
 30
0.0
 10
-182.9723
 20
85.2548
 30
0.0
 10
-183.4521
 20
87.0429
 30
0.0
 10
-183.4521
 20
87.0429
 30
0.0
 10
-183.4521
 20
87.0429
 30
0.0
 10
-172.0134
 20
87.0432
 30
0.0
 10
-172.0134
 20
87.0432
 30
0.0
 10
-172.0134
 20
87.0432
 30
0.0
 10
-171.1099
 20
85.0405
 30
0.0
 10
-170.7362
 20
84.3931
 30
0.0
 10
-169.7427
 20
82.9829
 30
0.0
 10
-169.7427
 20
82.9829
 30
0.0
 10
-169.7427
 20
82.9829
 30
0.0
 10
-182.0459
 20
82.9829
 30
0.0
 10
-182.0459
 20
82.9829
 30
0.0
  0
SPLINE
  5
57
330
1F
100
AcDbEntity
  8
layer 1
 62
     7
100
AcDbSpline
210
0.0
220
0.0
230
1.0
 70
    11
 71
     3
 72
    20
 73
    16
 74
     0
 42
0.0000000001
 43
0.0000000001
 12
1.0
 22
0.0
 32
0.0
 13
1.0
 23
0.0
 33
0.0
 40
0.0
 40
0.0
 40
0.0
 40
0.0
 40
0.2
 40
0.2
 40
0.2
 40
0.2
 40
0.4
 40
0.4
 40
0.4
 40
0.4
 40
0.6
 40
0.6
 40
0.6
 40
0.6
 40
1.0
 40
1.0
 40
1.0
 40
1.0
 10
-184.223
 20
90.1318
 30
0.0
 10
-184.5032
 20
91.7647
 30
0.0
 10
-184.5004
 20
92.5243
 30
0.0
 10
-184.5931
 20
94.1949
 30
0.0
 10
-184.5931
 20
94.1949
 30
0.0
 10
-184.5931
 20
94.1949
 30
0.0
 10
-173.747
 20
94.1949
 30
0.0
 10
-173.747
 20
94.1949
 30
0.0
 10
-173.747
 20
94.1949
 30
0.0
 10
-173.5794
 20
92.368
 30
0.0
 10
-173.4439
 20
91.5459
 30
0.0
 10
-173.0699
 20
90.1318
 30
0.0
 10
-173.0699
 20
90.1318
 30
0.0
 10
-173.0699
 20
90.1318
 30
0.0
 10
-184.223
 20
90.1318
 30
0.0
 10
-184.223
 20
90.1318
 30
0.0
  0
SPLINE
  5
58
330
1F
100
AcDbEntity
  8
layer 1
 62
     7
100
AcDbSpline
210
0.0
220
0.0
230
1.0
 70
    11
 71
     3
 72
    16
 73
    12
 74
     0
 42
0.0000000001
 43
0.0000000001
 12
1.0
 22
0.0
 32
0.0
 13
1.0
 23
0.0
 33
0.0
 40
0.0
 40
0.0
 40
0.0
 40
0.0
 40
0.25
 40
0.25
 40
0.25
 40
0.25
 40
0.5
 40
0.5
 40
0.5
 40
0.5
 40
1.0
 40
1.0
 40
1.0
 40
1.0
 10
-166.6728
 20
65.9316
 30
0.0
 10
-166.6728
 20
65.9316
 30
0.0
 10
-152.4059
 20
66.1807
 30
0.0
 10
-152.4059
 20
66.1807
 30
0.0
 10
-152.4059
 20
66.1807
 30
0.0
 10
-152.4059
 20
66.1807
 30
0.0
 10
-152.4059
 20
62.3081
 30
0.0
 10
-152.4059
 20
62.3081
 30
0.0
 10
-152.4059
 20
62.3081
 30
0.0
 10
-159.6944
 20
62.7011
 30
0.0
 10
-163.6919
 20
64.4194
 30
0.0
 10
-166.6728
 20
65.9316
 30
0.0
  0
SPLINE
  5
59
330
1F
100
AcDbEntity
  8
layer 1
 62
     7
100
AcDbSpline
210
0.0
220
0.0
230
1.0
 70
    11
 71
     3
 72
    16
 73
    12
 74
     0
 42
0.0000000001
 43
0.0000000001
 12
1.0
 22
0.0
 32
0.0
 13
1.0
 23
0.0
 33
0.0
 40
0.0
 40
0.0
 40
0.0
 40
0.0
 40
0.25
 40
0.25
 40
0.25
 40
0.25
 40
0.5
 40
0.5
 40
0.5
 40
0.5
 40
1.0
 40
1.0
 40
1.0
 40
1.0
 10
-150.1771
 20
75.8889
 30
0.0
 10
-150.1771
 20
75.8889
 30
0.0
 10
-150.1542
 20
94.0043
 30
0.0
 10
-150.1542
 20
94.0043
 30
0.0
 10
-150.1542
 20
94.0043
 30
0.0
 10
-150.1542
 20
94.0043
 30
0.0
 10
-132.4903
 20
94.0043
 30
0.0
 10
-132.4903
 20
94.0043
 30
0.0
 10
-132.4903
 20
94.0043
 30
0.0
 10
-133.0478
 20
84.2537
 30
0.0
 10
-140.7454
 20
76.4812
 30
0.0
 10
-150.1771
 20
75.8889
 30
0.0
  0
SPLINE
  5
5A
330
1F
100
AcDbEntity
  8
layer 1
 62
     7
100
AcDbSpline
210
0.0
220
0.0
230
1.0
 70
    11
 71
     3
 72
    16
 73
    12
 74
     0
 42
0.0000000001
 43
0.0000000001
 12
1.0
 22
0.0
 32
0.0
 13
1.0
 23
0.0
 33
0.0
 40
0.0
 40
0.0
 40
0.0
 40
0.0
 40
0.25
 40
0.25
 40
0.25
 40
0.25
 40
0.5
 40
0.5
 40
0.5
 40
0.5
 40
1.0
 40
1.0
 40
1.0
 40
1.0
 10
-152.3822
 20
75.8889
 30
0.0
 10
-152.3822
 20
75.8889
 30
0.0
 10
-152.4059
 20
94.0043
 30
0.0
 10
-152.4059
 20
94.0043
 30
0.0
 10
-152.4059
 20
94.0043
 30
0.0
 10
-152.4059
 20
94.0043
 30
0.0
 10
-170.0698
 20
94.0043
 30
0.0
 10
-170.0698
 20
94.0043
 30
0.0
 10
-170.0698
 20
94.0043
 30
0.0
 10
-169.5123
 20
84.2537
 30
0.0
 10
-161.8139
 20
76.4812
 30
0.0
 10
-152.3822
 20
75.8889
 30
0.0
  0
SPLINE
  5
5B
330
1F
100
AcDbEntity
  8
layer 1
100
AcDbSpline
210
0.0
220
0.0
230
1.0
 70
    11
 71
     3
 72
    20
 73
    16
 74
     0
 42
0.0000000001
 43
0.0000000001
 12
1.0
 22
0.0
 32
0.0
 13
1.0
 23
0.0
 33
0.0
 40
0.0
 40
0.0
 40
0.0
 40
0.0
 40
0.2
 40
0.2
 40
0.2
 40
0.2
 40
0.4
 40
0.4
 40
0.4
 40
0.4
 40
0.6
 40
0.6
 40
0.6
 40
0.6
 40
1.0
 40
1.0
 40
1.0
 40
1.0
 10
-37.1059
 20
95.3986
 30
0.0
 10
-37.1059
 20
75.2401
 30
0.0
 10
-53.4474
 20
58.8986
 30
0.0
 10
-73.6057
 20
58.8986
 30
0.0
 10
-73.6057
 20
58.8986
 30
0.0
 10
-93.7644
 20
58.8986
 30
0.0
 10
-110.1058
 20
75.2401
 30
0.0
 10
-110.1058
 20
95.3986
 30
0.0
 10
-110.1058
 20
95.3986
 30
0.0
 10
-110.1058
 20
115.5567
 30
0.0
 10
-93.7644
 20
131.8986
 30
0.0
 10
-73.6057
 20
131.8986
 30
0.0
 10
-73.6057
 20
131.8986
 30
0.0
 10
-53.4474
 20
131.8986
 30
0.0
 10
-37.1059
 20
115.5567
 30
0.0
 10
-37.1059
 20
95.3986
 30
0.0
  0
SPLINE
  5
5C
330
1F
100
AcDbEntity
  8
layer 1
 62
     7
100
AcDbSpline
210
0.0
220
0.0
230
1.0
 70
    11
 71
     3
 72
    20
 73
    16
 74
     0
 42
0.0000000001
 43
0.0000000001
 12
1.0
 22
0.0
 32
0.0
 13
1.0
 23
0.0
 33
0.0
 40
0.0
 40
0.0
 40
0.0
 40
0.0
 40
0.2
 40
0.2
 40
0.2
 40
0.2
 40
0.4
 40
0.4
 40
0.4
 40
0.4
 40
0.6
 40
0.6
 40
0.6
 40
0.6
 40
1.0
 40
1.0
 40
1.0
 40
1.0
 10
-72.0724
 20
98.5888
 30
0.0
 10
-72.0724
 20
98.5888
 30
0.0
 10
-61.0749
 20
98.5888
 30
0.0
 10
-61.0749
 20
98.5888
 30
0.0
 10
-61.0749
 20
98.5888
 30
0.0
 10
-61.0749
 20
98.5888
 30
0.0
 10
-61.0749
 20
92.7661
 30
0.0
 10
-61.0749
 20
92.7661
 30
0.0
 10
-61.0749
 20
92.7661
 30
0.0
 10
-61.0749
 20
92.7661
 30
0.0
 10
-72.0024
 20
92.8337
 30
0.0
 10
-72.0024
 20
92.8337
 30
0.0
 10
-72.0024
 20
92.8337
 30
0.0
 10
-72.0024
 20
92.8337
 30
0.0
 10
-72.0724
 20
98.5888
 30
0.0
 10
-72.0724
 20
98.5888
 30
0.0
  0
SPLINE
  5
5D
330
1F
100
AcDbEntity
  8
layer 1
 62
     7
100
AcDbSpline
210
0.0
220
0.0
230
1.0
 70
    11
 71
     3
 72
    56
 73
    52
 74
     0
 42
0.0000000001
 43
0.0000000001
 12
1.0
 22
0.0
 32
0.0
 13
1.0
 23
0.0
 33
0.0
 40
0.0
 40
0.0
 40
0.0
 40
0.0
 40
0.0714285714285714
 40
0.0714285714285714
 40
0.0714285714285714
 40
0.0714285714285714
 40
0.1428571428571428
 40
0.1428571428571428
 40
0.1428571428571428
 40
0.1428571428571428
 40
0.2142857142857143
 40
0.2142857142857143
 40
0.2142857142857143
 40
0.2142857142857143
 40
0.2857142857142857
 40
0.2857142857142857
 40
0.2857142857142857
 40
0.2857142857142857
 40
0.3571428571428572
 40
0.3571428571428572
 40
0.3571428571428572
 40
0.3571428571428572
 40
0.4285714285714285
 40
0.4285714285714285
 40
0.4285714285714285
 40
0.4285714285714285
 40
0.5
 40
0.5
 40
0.5
 40
0.5
 40
0.5714285714285714
 40
0.5714285714285714
 40
0.5714285714285714
 40
0.5714285714285714
 40
0.6428571428571429
 40
0.6428571428571429
 40
0.6428571428571429
 40
0.6428571428571429
 40
0.7142857142857143
 40
0.7142857142857143
 40
0.7142857142857143
 40
0.7142857142857143
 40
0.7857142857142857
 40
0.7857142857142857
 40
0.7857142857142857
 40
0.7857142857142857
 40
0.8571428571428571
 40
0.8571428571428571
 40
0.8571428571428571
 40
0.8571428571428571
 40
1.0
 40
1.0
 40
1.0
 40
1.0
 10
-48.6597
 20
81.9601
 30
0.0
 10
-44.2453
 20
90.2681
 30
0.0
 10
-44.3728
 20
99.0086
 30
0.0
 10
-47.7745
 20
106.8344
 30
0.0
 10
-47.7745
 20
106.8344
 30
0.0
 10
-51.4059
 20
115.1898
 30
0.0
 10
-59.2329
 20
121.3761
 30
0.0
 10
-67.2549
 20
122.913
 30
0.0
 10
-67.2549
 20
122.913
 30
0.0
 10
-67.2549
 20
122.913
 30
0.0
 10
-67.2178
 20
119.3933
 30
0.0
 10
-67.2178
 20
119.3933
 30
0.0
 10
-67.2178
 20
119.3933
 30
0.0
 10
-61.1001
 20
117.7136
 30
0.0
 10
-55.4764
 20
113.4596
 30
0.0
 10
-52.5401
 20
108.6434
 30
0.0
 10
-52.5401
 20
108.6434
 30
0.0
 10
-52.5401
 20
108.6434
 30
0.0
 10
-72.0673
 20
108.5468
 30
0.0
 10
-72.0673
 20
108.5468
 30
0.0
 10
-72.0673
 20
108.5468
 30
0.0
 10
-72.0673
 20
108.5468
 30
0.0
 10
-72.0673
 20
113.7197
 30
0.0
 10
-72.0673
 20
113.7197
 30
0.0
 10
-72.0673
 20
113.7197
 30
0.0
 10
-72.0673
 20
113.7197
 30
0.0
 10
-62.2386
 20
113.7197
 30
0.0
 10
-62.2386
 20
113.7197
 30
0.0
 10
-62.2386
 20
113.7197
 30
0.0
 10
-62.2386
 20
113.7197
 30
0.0
 10
-62.2386
 20
116.5644
 30
0.0
 10
-62.2386
 20
116.5644
 30
0.0
 10
-62.2386
 20
116.5644
 30
0.0
 10
-62.2386
 20
116.5644
 30
0.0
 10
-72.0673
 20
116.5644
 30
0.0
 10
-72.0673
 20
116.5644
 30
0.0
 10
-72.0673
 20
116.5644
 30
0.0
 10
-72.0673
 20
116.5644
 30
0.0
 10
-72.0673
 20
128.8879
 30
0.0
 10
-72.0673
 20
128.8879
 30
0.0
 10
-72.0673
 20
128.8879
 30
0.0
 10
-60.3234
 20
128.4509
 30
0.0
 10
-49.8911
 20
121.9185
 30
0.0
 10
-44.412
 20
112.0318
 30
0.0
 10
-44.412
 20
112.0318
 30
0.0
 10
-40.1584
 20
105.0612
 30
0.0
 10
-36.8919
 20
90.8504
 30
0.0
 10
-44.8691
 20
78.1561
 30
0.0
 10
-44.8691
 20
78.1561
 30
0.0
 10
-46.0979
 20
79.5158
 30
0.0
 10
-47.4354
 20
80.3245
 30
0.0
 10
-48.6597
 20
81.9601
 30
0.0
  0
SPLINE
  5
5E
330
1F
100
AcDbEntity
  8
layer 1
 62
     7
100
AcDbSpline
210
0.0
220
0.0
230
1.0
 70
    11
 71
     3
 72
    28
 73
    24
 74
     0
 42
0.0000000001
 43
0.0000000001
 12
1.0
 22
0.0
 32
0.0
 13
1.0
 23
0.0
 33
0.0
 40
0.0
 40
0.0
 40
0.0
 40
0.0
 40
0.1428571428571428
 40
0.1428571428571428
 40
0.1428571428571428
 40
0.1428571428571428
 40
0.2857142857142857
 40
0.2857142857142857
 40
0.2857142857142857
 40
0.2857142857142857
 40
0.4285714285714285
 40
0.4285714285714285
 40
0.4285714285714285
 40
0.4285714285714285
 40
0.5714285714285714
 40
0.5714285714285714
 40
0.5714285714285714
 40
0.5714285714285714
 40
0.7142857142857143
 40
0.7142857142857143
 40
0.7142857142857143
 40
0.7142857142857143
 40
1.0
 40
1.0
 40
1.0
 40
1.0
 10
-74.8894
 20
76.087
 30
0.0
 10
-74.8894
 20
76.087
 30
0.0
 10
-79.6745
 20
76.087
 30
0.0
 10
-79.6745
 20
76.087
 30
0.0
 10
-79.6745
 20
76.087
 30
0.0
 10
-79.6745
 20
76.087
 30
0.0
 10
-79.6853
 20
67.9392
 30
0.0
 10
-79.6853
 20
67.9392
 30
0.0
 10
-79.6853
 20
67.9392
 30
0.0
 10
-87.5616
 20
69.461
 30
0.0
 10
-93.556
 20
75.0369
 30
0.0
 10
-96.7202
 20
79.32
 30
0.0
 10
-96.7202
 20
79.32
 30
0.0
 10
-97.8883
 20
78.0835
 30
0.0
 10
-99.9003
 20
76.3319
 30
0.0
 10
-100.4824
 20
75.5558
 30
0.0
 10
-100.4824
 20
75.5558
 30
0.0
 10
-94.2139
 20
67.1455
 30
0.0
 10
-83.8675
 20
61.8772
 30
0.0
 10
-74.8894
 20
61.9909
 30
0.0
 10
-74.8894
 20
61.9909
 30
0.0
 10
-74.8894
 20
61.9909
 30
0.0
 10
-74.8894
 20
76.087
 30
0.0
 10
-74.8894
 20
76.087
 30
0.0
  0
SPLINE
  5
5F
330
1F
100
AcDbEntity
  8
layer 1
 62
     7
100
AcDbSpline
210
0.0
220
0.0
230
1.0
 70
    11
 71
     3
 72
    24
 73
    20
 74
     0
 42
0.0000000001
 43
0.0000000001
 12
1.0
 22
0.0
 32
0.0
 13
1.0
 23
0.0
 33
0.0
 40
0.0
 40
0.0
 40
0.0
 40
0.0
 40
0.1666666666666667
 40
0.1666666666666667
 40
0.1666666666666667
 40
0.1666666666666667
 40
0.3333333333333333
 40
0.3333333333333333
 40
0.3333333333333333
 40
0.3333333333333333
 40
0.5
 40
0.5
 40
0.5
 40
0.5
 40
0.6666666666666666
 40
0.6666666666666666
 40
0.6666666666666666
 40
0.6666666666666666
 40
1.0
 40
1.0
 40
1.0
 40
1.0
 10
-82.6253
 20
78.9594
 30
0.0
 10
-82.6253
 20
78.9594
 30
0.0
 10
-74.9537
 20
78.9967
 30
0.0
 10
-74.9537
 20
78.9967
 30
0.0
 10
-74.9537
 20
78.9967
 30
0.0
 10
-74.9537
 20
78.9967
 30
0.0
 10
-74.8824
 20
82.6824
 30
0.0
 10
-74.8824
 20
82.6824
 30
0.0
 10
-74.8824
 20
82.6824
 30
0.0
 10
-74.8824
 20
82.6824
 30
0.0
 10
-94.805
 20
82.577
 30
0.0
 10
-94.805
 20
82.577
 30
0.0
 10
-94.805
 20
82.577
 30
0.0
 10
-92.7319
 20
78.8951
 30
0.0
 10
-88.3123
 20
74.2071
 30
0.0
 10
-82.5875
 20
72.2414
 30
0.0
 10
-82.5875
 20
72.2414
 30
0.0
 10
-82.5875
 20
72.2414
 30
0.0
 10
-82.6253
 20
78.9594
 30
0.0
 10
-82.6253
 20
78.9594
 30
0.0
  0
SPLINE
  5
60
330
1F
100
AcDbEntity
  8
layer 1
 62
     7
100
AcDbSpline
210
0.0
220
0.0
230
1.0
 70
    11
 71
     3
 72
    56
 73
    52
 74
     0
 42
0.0000000001
 43
0.0000000001
 12
1.0
 22
0.0
 32
0.0
 13
1.0
 23
0.0
 33
0.0
 40
0.0
 40
0.0
 40
0.0
 40
0.0
 40
0.0714285714285714
 40
0.0714285714285714
 40
0.0714285714285714
 40
0.0714285714285714
 40
0.1428571428571428
 40
0.1428571428571428
 40
0.1428571428571428
 40
0.1428571428571428
 40
0.2142857142857143
 40
0.2142857142857143
 40
0.2142857142857143
 40
0.2142857142857143
 40
0.2857142857142857
 40
0.2857142857142857
 40
0.2857142857142857
 40
0.2857142857142857
 40
0.3571428571428572
 40
0.3571428571428572
 40
0.3571428571428572
 40
0.3571428571428572
 40
0.4285714285714285
 40
0.4285714285714285
 40
0.4285714285714285
 40
0.4285714285714285
 40
0.5
 40
0.5
 40
0.5
 40
0.5
 40
0.5714285714285714
 40
0.5714285714285714
 40
0.5714285714285714
 40
0.5714285714285714
 40
0.6428571428571429
 40
0.6428571428571429
 40
0.6428571428571429
 40
0.6428571428571429
 40
0.7142857142857143
 40
0.7142857142857143
 40
0.7142857142857143
 40
0.7142857142857143
 40
0.7857142857142857
 40
0.7857142857142857
 40
0.7857142857142857
 40
0.7857142857142857
 40
0.8571428571428571
 40
0.8571428571428571
 40
0.8571428571428571
 40
0.8571428571428571
 40
1.0
 40
1.0
 40
1.0
 40
1.0
 10
-98.297
 20
81.9601
 30
0.0
 10
-102.7115
 20
90.2681
 30
0.0
 10
-102.5832
 20
99.0086
 30
0.0
 10
-99.1822
 20
106.8344
 30
0.0
 10
-99.1822
 20
106.8344
 30
0.0
 10
-95.5507
 20
115.1898
 30
0.0
 10
-87.7232
 20
121.3761
 30
0.0
 10
-79.7017
 20
122.913
 30
0.0
 10
-79.7017
 20
122.913
 30
0.0
 10
-79.7017
 20
122.913
 30
0.0
 10
-79.739
 20
119.3933
 30
0.0
 10
-79.739
 20
119.3933
 30
0.0
 10
-79.739
 20
119.3933
 30
0.0
 10
-85.856
 20
117.7136
 30
0.0
 10
-91.4804
 20
113.4596
 30
0.0
 10
-94.4166
 20
108.6434
 30
0.0
 10
-94.4166
 20
108.6434
 30
0.0
 10
-94.4166
 20
108.6434
 30
0.0
 10
-74.8894
 20
108.5468
 30
0.0
 10
-74.8894
 20
108.5468
 30
0.0
 10
-74.8894
 20
108.5468
 30
0.0
 10
-74.8894
 20
108.5468
 30
0.0
 10
-74.8894
 20
113.7197
 30
0.0
 10
-74.8894
 20
113.7197
 30
0.0
 10
-74.8894
 20
113.7197
 30
0.0
 10
-74.8894
 20
113.7197
 30
0.0
 10
-84.7181
 20
113.7197
 30
0.0
 10
-84.7181
 20
113.7197
 30
0.0
 10
-84.7181
 20
113.7197
 30
0.0
 10
-84.7181
 20
113.7197
 30
0.0
 10
-84.7181
 20
116.5644
 30
0.0
 10
-84.7181
 20
116.5644
 30
0.0
 10
-84.7181
 20
116.5644
 30
0.0
 10
-84.7181
 20
116.5644
 30
0.0
 10
-74.8894
 20
116.5644
 30
0.0
 10
-74.8894
 20
116.5644
 30
0.0
 10
-74.8894
 20
116.5644
 30
0.0
 10
-74.8894
 20
116.5644
 30
0.0
 10
-74.8894
 20
128.8879
 30
0.0
 10
-74.8894
 20
128.8879
 30
0.0
 10
-74.8894
 20
128.8879
 30
0.0
 10
-86.6332
 20
128.4509
 30
0.0
 10
-97.0657
 20
121.9185
 30
0.0
 10
-102.5448
 20
112.0318
 30
0.0
 10
-102.5448
 20
112.0318
 30
0.0
 10
-106.7977
 20
105.0612
 30
0.0
 10
-110.0643
 20
90.8504
 30
0.0
 10
-102.0876
 20
78.1561
 30
0.0
 10
-102.0876
 20
78.1561
 30
0.0
 10
-100.8587
 20
79.5158
 30
0.0
 10
-99.5214
 20
80.3245
 30
0.0
 10
-98.297
 20
81.9601
 30
0.0
  0
SPLINE
  5
61
330
1F
100
AcDbEntity
  8
layer 1
 62
     7
100
AcDbSpline
210
0.0
220
0.0
230
1.0
 70
    11
 71
     3
 72
    28
 73
    24
 74
     0
 42
0.0000000001
 43
0.0000000001
 12
1.0
 22
0.0
 32
0.0
 13
1.0
 23
0.0
 33
0.0
 40
0.0
 40
0.0
 40
0.0
 40
0.0
 40
0.1428571428571428
 40
0.1428571428571428
 40
0.1428571428571428
 40
0.1428571428571428
 40
0.2857142857142857
 40
0.2857142857142857
 40
0.2857142857142857
 40
0.2857142857142857
 40
0.4285714285714285
 40
0.4285714285714285
 40
0.4285714285714285
 40
0.4285714285714285
 40
0.5714285714285714
 40
0.5714285714285714
 40
0.5714285714285714
 40
0.5714285714285714
 40
0.7142857142857143
 40
0.7142857142857143
 40
0.7142857142857143
 40
0.7142857142857143
 40
1.0
 40
1.0
 40
1.0
 40
1.0
 10
-74.8831
 20
89.9239
 30
0.0
 10
-74.8831
 20
89.9239
 30
0.0
 10
-97.7521
 20
89.9239
 30
0.0
 10
-97.7521
 20
89.9239
 30
0.0
 10
-97.7521
 20
89.9239
 30
0.0
 10
-97.7521
 20
89.9239
 30
0.0
 10
-97.6352
 20
89.4055
 30
0.0
 10
-97.6352
 20
89.4055
 30
0.0
 10
-97.6352
 20
89.4055
 30
0.0
 10
-97.4905
 20
88.7602
 30
0.0
 10
-96.8017
 20
86.6007
 30
0.0
 10
-96.546
 20
85.9875
 30
0.0
 10
-96.546
 20
85.9875
 30
0.0
 10
-96.546
 20
85.9875
 30
0.0
 10
-96.3552
 20
85.5315
 30
0.0
 10
-96.3552
 20
85.5315
 30
0.0
 10
-96.3552
 20
85.5315
 30
0.0
 10
-96.3552
 20
85.5315
 30
0.0
 10
-74.9537
 20
85.5922
 30
0.0
 10
-74.9537
 20
85.5922
 30
0.0
 10
-74.9537
 20
85.5922
 30
0.0
 10
-74.9537
 20
85.5922
 30
0.0
 10
-74.8831
 20
89.9239
 30
0.0
 10
-74.8831
 20
89.9239
 30
0.0
  0
SPLINE
  5
62
330
1F
100
AcDbEntity
  8
layer 1
 62
     7
100
AcDbSpline
210
0.0
220
0.0
230
1.0
 70
    11
 71
     3
 72
    20
 73
    16
 74
     0
 42
0.0000000001
 43
0.0000000001
 12
1.0
 22
0.0
 32
0.0
 13
1.0
 23
0.0
 33
0.0
 40
0.0
 40
0.0
 40
0.0
 40
0.0
 40
0.2
 40
0.2
 40
0.2
 40
0.2
 40
0.4
 40
0.4
 40
0.4
 40
0.4
 40
0.6
 40
0.6
 40
0.6
 40
0.6
 40
1.0
 40
1.0
 40
1.0
 40
1.0
 10
-88.7916
 20
98.5243
 30
0.0
 10
-88.7916
 20
98.5243
 30
0.0
 10
-98.0897
 20
98.4594
 30
0.0
 10
-98.0897
 20
98.4594
 30
0.0
 10
-98.0897
 20
98.4594
 30
0.0
 10
-98.2988
 20
96.9856
 30
0.0
 10
-98.3664
 20
94.7148
 30
0.0
 10
-98.1619
 20
92.7661
 30
0.0
 10
-98.1619
 20
92.7661
 30
0.0
 10
-98.1619
 20
92.7661
 30
0.0
 10
-88.7916
 20
92.8337
 30
0.0
 10
-88.7916
 20
92.8337
 30
0.0
 10
-88.7916
 20
92.8337
 30
0.0
 10
-88.7916
 20
92.8337
 30
0.0
 10
-88.7916
 20
98.5243
 30
0.0
 10
-88.7916
 20
98.5243
 30
0.0
  0
SPLINE
  5
63
330
1F
100
AcDbEntity
  8
layer 1
 62
     7
100
AcDbSpline
210
0.0
220
0.0
230
1.0
 70
    11
 71
     3
 72
    20
 73
    16
 74
     0
 42
0.0000000001
 43
0.0000000001
 12
1.0
 22
0.0
 32
0.0
 13
1.0
 23
0.0
 33
0.0
 40
0.0
 40
0.0
 40
0.0
 40
0.0
 40
0.2
 40
0.2
 40
0.2
 40
0.2
 40
0.4
 40
0.4
 40
0.4
 40
0.4
 40
0.6
 40
0.6
 40
0.6
 40
0.6
 40
1.0
 40
1.0
 40
1.0
 40
1.0
 10
-74.8844
 20
98.5888
 30
0.0
 10
-74.8844
 20
98.5888
 30
0.0
 10
-85.8818
 20
98.5888
 30
0.0
 10
-85.8818
 20
98.5888
 30
0.0
 10
-85.8818
 20
98.5888
 30
0.0
 10
-85.8818
 20
98.5888
 30
0.0
 10
-85.8818
 20
92.7661
 30
0.0
 10
-85.8818
 20
92.7661
 30
0.0
 10
-85.8818
 20
92.7661
 30
0.0
 10
-85.8818
 20
92.7661
 30
0.0
 10
-74.9537
 20
92.8337
 30
0.0
 10
-74.9537
 20
92.8337
 30
0.0
 10
-74.9537
 20
92.8337
 30
0.0
 10
-74.9537
 20
92.8337
 30
0.0
 10
-74.8844
 20
98.5888
 30
0.0
 10
-74.8844
 20
98.5888
 30
0.0
  0
SPLINE
  5
64
330
1F
100
AcDbEntity
  8
layer 1
 62
     7
100
AcDbSpline
210
0.0
220
0.0
230
1.0
 70
    11
 71
     3
 72
    20
 73
    16
 74
     0
 42
0.0000000001
 43
0.0000000001
 12
1.0
 22
0.0
 32
0.0
 13
1.0
 23
0.0
 33
0.0
 40
0.0
 40
0.0
 40
0.0
 40
0.0
 40
0.2
 40
0.2
 40
0.2
 40
0.2
 40
0.4
 40
0.4
 40
0.4
 40
0.4
 40
0.6
 40
0.6
 40
0.6
 40
0.6
 40
1.0
 40
1.0
 40
1.0
 40
1.0
 10
-74.8894
 20
105.7016
 30
0.0
 10
-74.8894
 20
105.7016
 30
0.0
 10
-96.0628
 20
105.7016
 30
0.0
 10
-96.0628
 20
105.7016
 30
0.0
 10
-96.0628
 20
105.7016
 30
0.0
 10
-96.6659
 20
104.4329
 30
0.0
 10
-97.2215
 20
102.9345
 30
0.0
 10
-97.5209
 20
101.5396
 30
0.0
 10
-97.5209
 20
101.5396
 30
0.0
 10
-89.5518
 20
101.3786
 30
0.0
 10
-83.4759
 20
101.4341
 30
0.0
 10
-74.8894
 20
101.4341
 30
0.0
 10
-74.8894
 20
101.4341
 30
0.0
 10
-74.8894
 20
101.4341
 30
0.0
 10
-74.8894
 20
105.7016
 30
0.0
 10
-74.8894
 20
105.7016
 30
0.0
  0
SPLINE
  5
65
330
1F
100
AcDbEntity
  8
layer 1
 62
     7
100
AcDbSpline
210
0.0
220
0.0
230
1.0
 70
    11
 71
     3
 72
    28
 73
    24
 74
     0
 42
0.0000000001
 43
0.0000000001
 12
1.0
 22
0.0
 32
0.0
 13
1.0
 23
0.0
 33
0.0
 40
0.0
 40
0.0
 40
0.0
 40
0.0
 40
0.1428571428571428
 40
0.1428571428571428
 40
0.1428571428571428
 40
0.1428571428571428
 40
0.2857142857142857
 40
0.2857142857142857
 40
0.2857142857142857
 40
0.2857142857142857
 40
0.4285714285714285
 40
0.4285714285714285
 40
0.4285714285714285
 40
0.4285714285714285
 40
0.5714285714285714
 40
0.5714285714285714
 40
0.5714285714285714
 40
0.5714285714285714
 40
0.7142857142857143
 40
0.7142857142857143
 40
0.7142857142857143
 40
0.7142857142857143
 40
1.0
 40
1.0
 40
1.0
 40
1.0
 10
-72.0673
 20
76.087
 30
0.0
 10
-72.0673
 20
76.087
 30
0.0
 10
-67.2821
 20
76.087
 30
0.0
 10
-67.2821
 20
76.087
 30
0.0
 10
-67.2821
 20
76.087
 30
0.0
 10
-67.2821
 20
76.087
 30
0.0
 10
-67.2714
 20
67.9392
 30
0.0
 10
-67.2714
 20
67.9392
 30
0.0
 10
-67.2714
 20
67.9392
 30
0.0
 10
-59.3952
 20
69.461
 30
0.0
 10
-53.4001
 20
75.0369
 30
0.0
 10
-50.2365
 20
79.32
 30
0.0
 10
-50.2365
 20
79.32
 30
0.0
 10
-49.0682
 20
78.0835
 30
0.0
 10
-47.0558
 20
76.3319
 30
0.0
 10
-46.4743
 20
75.5558
 30
0.0
 10
-46.4743
 20
75.5558
 30
0.0
 10
-52.7428
 20
67.1455
 30
0.0
 10
-63.0893
 20
61.8772
 30
0.0
 10
-72.0674
 20
61.9909
 30
0.0
 10
-72.0674
 20
61.9909
 30
0.0
 10
-72.0674
 20
61.9909
 30
0.0
 10
-72.0673
 20
76.087
 30
0.0
 10
-72.0673
 20
76.087
 30
0.0
  0
SPLINE
  5
66
330
1F
100
AcDbEntity
  8
layer 1
 62
     7
100
AcDbSpline
210
0.0
220
0.0
230
1.0
 70
    11
 71
     3
 72
    24
 73
    20
 74
     0
 42
0.0000000001
 43
0.0000000001
 12
1.0
 22
0.0
 32
0.0
 13
1.0
 23
0.0
 33
0.0
 40
0.0
 40
0.0
 40
0.0
 40
0.0
 40
0.1666666666666667
 40
0.1666666666666667
 40
0.1666666666666667
 40
0.1666666666666667
 40
0.3333333333333333
 40
0.3333333333333333
 40
0.3333333333333333
 40
0.3333333333333333
 40
0.5
 40
0.5
 40
0.5
 40
0.5
 40
0.6666666666666666
 40
0.6666666666666666
 40
0.6666666666666666
 40
0.6666666666666666
 40
1.0
 40
1.0
 40
1.0
 40
1.0
 10
-64.3313
 20
78.9594
 30
0.0
 10
-64.3313
 20
78.9594
 30
0.0
 10
-72.0024
 20
78.9967
 30
0.0
 10
-72.0024
 20
78.9967
 30
0.0
 10
-72.0024
 20
78.9967
 30
0.0
 10
-72.0024
 20
78.9967
 30
0.0
 10
-72.0743
 20
82.6824
 30
0.0
 10
-72.0743
 20
82.6824
 30
0.0
 10
-72.0743
 20
82.6824
 30
0.0
 10
-72.0743
 20
82.6824
 30
0.0
 10
-52.1518
 20
82.577
 30
0.0
 10
-52.1518
 20
82.577
 30
0.0
 10
-52.1518
 20
82.577
 30
0.0
 10
-54.2248
 20
78.8951
 30
0.0
 10
-58.6445
 20
74.2071
 30
0.0
 10
-64.3686
 20
72.2414
 30
0.0
 10
-64.3686
 20
72.2414
 30
0.0
 10
-64.3686
 20
72.2414
 30
0.0
 10
-64.3313
 20
78.9594
 30
0.0
 10
-64.3313
 20
78.9594
 30
0.0
  0
SPLINE
  5
67
330
1F
100
AcDbEntity
  8
layer 1
 62
     7
100
AcDbSpline
210
0.0
220
0.0
230
1.0
 70
    11
 71
     3
 72
    28
 73
    24
 74
     0
 42
0.0000000001
 43
0.0000000001
 12
1.0
 22
0.0
 32
0.0
 13
1.0
 23
0.0
 33
0.0
 40
0.0
 40
0.0
 40
0.0
 40
0.0
 40
0.1428571428571428
 40
0.1428571428571428
 40
0.1428571428571428
 40
0.1428571428571428
 40
0.2857142857142857
 40
0.2857142857142857
 40
0.2857142857142857
 40
0.2857142857142857
 40
0.4285714285714285
 40
0.4285714285714285
 40
0.4285714285714285
 40
0.4285714285714285
 40
0.5714285714285714
 40
0.5714285714285714
 40
0.5714285714285714
 40
0.5714285714285714
 40
0.7142857142857143
 40
0.7142857142857143
 40
0.7142857142857143
 40
0.7142857142857143
 40
1.0
 40
1.0
 40
1.0
 40
1.0
 10
-72.0737
 20
89.9239
 30
0.0
 10
-72.0737
 20
89.9239
 30
0.0
 10
-49.2047
 20
89.9239
 30
0.0
 10
-49.2047
 20
89.9239
 30
0.0
 10
-49.2047
 20
89.9239
 30
0.0
 10
-49.2047
 20
89.9239
 30
0.0
 10
-49.3209
 20
89.4055
 30
0.0
 10
-49.3209
 20
89.4055
 30
0.0
 10
-49.3209
 20
89.4055
 30
0.0
 10
-49.466
 20
88.7602
 30
0.0
 10
-50.1544
 20
86.6007
 30
0.0
 10
-50.4108
 20
85.9875
 30
0.0
 10
-50.4108
 20
85.9875
 30
0.0
 10
-50.4108
 20
85.9875
 30
0.0
 10
-50.6015
 20
85.5315
 30
0.0
 10
-50.6015
 20
85.5315
 30
0.0
 10
-50.6015
 20
85.5315
 30
0.0
 10
-50.6015
 20
85.5315
 30
0.0
 10
-72.0024
 20
85.5922
 30
0.0
 10
-72.0024
 20
85.5922
 30
0.0
 10
-72.0024
 20
85.5922
 30
0.0
 10
-72.0024
 20
85.5922
 30
0.0
 10
-72.0737
 20
89.9239
 30
0.0
 10
-72.0737
 20
89.9239
 30
0.0
  0
SPLINE
  5
68
330
1F
100
AcDbEntity
  8
layer 1
 62
     7
100
AcDbSpline
210
0.0
220
0.0
230
1.0
 70
    11
 71
     3
 72
    20
 73
    16
 74
     0
 42
0.0000000001
 43
0.0000000001
 12
1.0
 22
0.0
 32
0.0
 13
1.0
 23
0.0
 33
0.0
 40
0.0
 40
0.0
 40
0.0
 40
0.0
 40
0.2
 40
0.2
 40
0.2
 40
0.2
 40
0.4
 40
0.4
 40
0.4
 40
0.4
 40
0.6
 40
0.6
 40
0.6
 40
0.6
 40
1.0
 40
1.0
 40
1.0
 40
1.0
 10
-58.1651
 20
98.5243
 30
0.0
 10
-58.1651
 20
98.5243
 30
0.0
 10
-48.8668
 20
98.4594
 30
0.0
 10
-48.8668
 20
98.4594
 30
0.0
 10
-48.8668
 20
98.4594
 30
0.0
 10
-48.6578
 20
96.9856
 30
0.0
 10
-48.5902
 20
94.7148
 30
0.0
 10
-48.7949
 20
92.7661
 30
0.0
 10
-48.7949
 20
92.7661
 30
0.0
 10
-48.7949
 20
92.7661
 30
0.0
 10
-58.1651
 20
92.8337
 30
0.0
 10
-58.1651
 20
92.8337
 30
0.0
 10
-58.1651
 20
92.8337
 30
0.0
 10
-58.1651
 20
92.8337
 30
0.0
 10
-58.1651
 20
98.5243
 30
0.0
 10
-58.1651
 20
98.5243
 30
0.0
  0
SPLINE
  5
69
330
1F
100
AcDbEntity
  8
layer 1
 62
     7
100
AcDbSpline
210
0.0
220
0.0
230
1.0
 70
    11
 71
     3
 72
    20
 73
    16
 74
     0
 42
0.0000000001
 43
0.0000000001
 12
1.0
 22
0.0
 32
0.0
 13
1.0
 23
0.0
 33
0.0
 40
0.0
 40
0.0
 40
0.0
 40
0.0
 40
0.2
 40
0.2
 40
0.2
 40
0.2
 40
0.4
 40
0.4
 40
0.4
 40
0.4
 40
0.6
 40
0.6
 40
0.6
 40
0.6
 40
1.0
 40
1.0
 40
1.0
 40
1.0
 10
-72.0673
 20
105.7016
 30
0.0
 10
-72.0673
 20
105.7016
 30
0.0
 10
-50.8938
 20
105.7016
 30
0.0
 10
-50.8938
 20
105.7016
 30
0.0
 10
-50.8938
 20
105.7016
 30
0.0
 10
-50.2908
 20
104.4329
 30
0.0
 10
-49.7351
 20
102.9345
 30
0.0
 10
-49.4358
 20
101.5396
 30
0.0
 10
-49.4358
 20
101.5396
 30
0.0
 10
-57.4042
 20
101.3786
 30
0.0
 10
-63.4808
 20
101.4341
 30
0.0
 10
-72.0674
 20
101.4341
 30
0.0
 10
-72.0674
 20
101.4341
 30
0.0
 10
-72.0674
 20
101.4341
 30
0.0
 10
-72.0673
 20
105.7016
 30
0.0
 10
-72.0673
 20
105.7016
 30
0.0
  0
SPLINE
  5
6A
330
1F
100
AcDbEntity
  8
layer 1
100
AcDbSpline
210
0.0
220
0.0
230
1.0
 70
    11
 71
     3
 72
    20
 73
    16
 74
     0
 42
0.0000000001
 43
0.0000000001
 12
1.0
 22
0.0
 32
0.0
 13
1.0
 23
0.0
 33
0.0
 40
0.0
 40
0.0
 40
0.0
 40
0.0
 40
0.2
 40
0.2
 40
0.2
 40
0.2
 40
0.4
 40
0.4
 40
0.4
 40
0.4
 40
0.6
 40
0.6
 40
0.6
 40
0.6
 40
1.0
 40
1.0
 40
1.0
 40
1.0
 10
40.4201
 20
95.4308
 30
0.0
 10
40.4201
 20
75.2721
 30
0.0
 10
24.0786
 20
58.9305
 30
0.0
 10
3.9201
 20
58.9305
 30
0.0
 10
3.9201
 20
58.9305
 30
0.0
 10
-16.2378
 20
58.9305
 30
0.0
 10
-32.5799
 20
75.2721
 30
0.0
 10
-32.5799
 20
95.4308
 30
0.0
 10
-32.5799
 20
95.4308
 30
0.0
 10
-32.5799
 20
115.589
 30
0.0
 10
-16.2378
 20
131.9306
 30
0.0
 10
3.9201
 20
131.9306
 30
0.0
 10
3.9201
 20
131.9306
 30
0.0
 10
24.0786
 20
131.9306
 30
0.0
 10
40.42
 20
115.589
 30
0.0
 10
40.4201
 20
95.4308
 30
0.0
  0
SPLINE
  5
6B
330
1F
100
AcDbEntity
  8
layer 1
 62
     7
100
AcDbSpline
210
0.0
220
0.0
230
1.0
 70
    11
 71
     3
 72
    64
 73
    60
 74
     0
 42
0.0000000001
 43
0.0000000001
 12
1.0
 22
0.0
 32
0.0
 13
1.0
 23
0.0
 33
0.0
 40
0.0
 40
0.0
 40
0.0
 40
0.0
 40
0.0625
 40
0.0625
 40
0.0625
 40
0.0625
 40
0.125
 40
0.125
 40
0.125
 40
0.125
 40
0.1875
 40
0.1875
 40
0.1875
 40
0.1875
 40
0.25
 40
0.25
 40
0.25
 40
0.25
 40
0.3125
 40
0.3125
 40
0.3125
 40
0.3125
 40
0.375
 40
0.375
 40
0.375
 40
0.375
 40
0.4375
 40
0.4375
 40
0.4375
 40
0.4375
 40
0.5
 40
0.5
 40
0.5
 40
0.5
 40
0.5625
 40
0.5625
 40
0.5625
 40
0.5625
 40
0.625
 40
0.625
 40
0.625
 40
0.625
 40
0.6875
 40
0.6875
 40
0.6875
 40
0.6875
 40
0.75
 40
0.75
 40
0.75
 40
0.75
 40
0.8125
 40
0.8125
 40
0.8125
 40
0.8125
 40
0.875
 40
0.875
 40
0.875
 40
0.875
 40
1.0
 40
1.0
 40
1.0
 40
1.0
 10
-17.43
 20
78.0505
 30
0.0
 10
-19.7253
 20
80.6502
 30
0.0
 10
-21.5919
 20
84.1177
 30
0.0
 10
-22.6268
 20
87.8653
 30
0.0
 10
-22.6268
 20
87.8653
 30
0.0
 10
-22.6268
 20
87.8653
 30
0.0
 10
-22.6268
 20
91.0795
 30
0.0
 10
-22.6268
 20
91.0795
 30
0.0
 10
-22.6268
 20
91.0795
 30
0.0
 10
-22.6268
 20
91.0795
 30
0.0
 10
2.4615
 20
91.0795
 30
0.0
 10
2.4615
 20
91.0795
 30
0.0
 10
2.4615
 20
91.0795
 30
0.0
 10
2.4615
 20
91.0795
 30
0.0
 10
2.4615
 20
94.0542
 30
0.0
 10
2.4615
 20
94.0542
 30
0.0
 10
2.4615
 20
94.0542
 30
0.0
 10
2.4615
 20
94.0542
 30
0.0
 10
-23.4029
 20
94.0542
 30
0.0
 10
-23.4029
 20
94.0542
 30
0.0
 10
-23.4029
 20
94.0542
 30
0.0
 10
-23.4029
 20
94.0542
 30
0.0
 10
-23.4029
 20
96.899
 30
0.0
 10
-23.4029
 20
96.899
 30
0.0
 10
-23.4029
 20
96.899
 30
0.0
 10
-23.4029
 20
96.899
 30
0.0
 10
2.4615
 20
96.899
 30
0.0
 10
2.4615
 20
96.899
 30
0.0
 10
2.4615
 20
96.899
 30
0.0
 10
2.4615
 20
96.899
 30
0.0
 10
2.4615
 20
99.8738
 30
0.0
 10
2.4615
 20
99.8738
 30
0.0
 10
2.4615
 20
99.8738
 30
0.0
 10
2.4615
 20
99.8738
 30
0.0
 10
-22.6268
 20
99.8738
 30
0.0
 10
-22.6268
 20
99.8738
 30
0.0
 10
-22.6268
 20
99.8738
 30
0.0
 10
-22.6268
 20
99.8738
 30
0.0
 10
-22.6268
 20
102.8372
 30
0.0
 10
-22.6268
 20
102.8372
 30
0.0
 10
-22.6268
 20
102.8372
 30
0.0
 10
-21.7585
 20
106.7977
 30
0.0
 10
-19.9135
 20
109.8194
 30
0.0
 10
-17.4565
 20
112.8699
 30
0.0
 10
-17.4565
 20
112.8699
 30
0.0
 10
-17.4565
 20
112.8699
 30
0.0
 10
-21.6569
 20
117.0862
 30
0.0
 10
-21.6569
 20
117.0862
 30
0.0
 10
-21.6569
 20
117.0862
 30
0.0
 10
-26.4067
 20
111.7553
 30
0.0
 10
-29.6361
 20
103.6928
 30
0.0
 10
-29.5261
 20
96.135
 30
0.0
 10
-29.5261
 20
96.135
 30
0.0
 10
-29.3979
 20
87.2863
 30
0.0
 10
-27.8389
 20
81.6998
 30
0.0
 10
-21.6084
 20
73.8652
 30
0.0
 10
-21.6084
 20
73.8652
 30
0.0
 10
-21.6084
 20
73.8652
 30
0.0
 10
-17.43
 20
78.0505
 30
0.0
 10
-17.43
 20
78.0505
 30
0.0
  0
SPLINE
  5
6C
330
1F
100
AcDbEntity
  8
layer 1
 62
     7
100
AcDbSpline
210
0.0
220
0.0
230
1.0
 70
    11
 71
     3
 72
    56
 73
    52
 74
     0
 42
0.0000000001
 43
0.0000000001
 12
1.0
 22
0.0
 32
0.0
 13
1.0
 23
0.0
 33
0.0
 40
0.0
 40
0.0
 40
0.0
 40
0.0
 40
0.0714285714285714
 40
0.0714285714285714
 40
0.0714285714285714
 40
0.0714285714285714
 40
0.1428571428571428
 40
0.1428571428571428
 40
0.1428571428571428
 40
0.1428571428571428
 40
0.2142857142857143
 40
0.2142857142857143
 40
0.2142857142857143
 40
0.2142857142857143
 40
0.2857142857142857
 40
0.2857142857142857
 40
0.2857142857142857
 40
0.2857142857142857
 40
0.3571428571428572
 40
0.3571428571428572
 40
0.3571428571428572
 40
0.3571428571428572
 40
0.4285714285714285
 40
0.4285714285714285
 40
0.4285714285714285
 40
0.4285714285714285
 40
0.5
 40
0.5
 40
0.5
 40
0.5
 40
0.5714285714285714
 40
0.5714285714285714
 40
0.5714285714285714
 40
0.5714285714285714
 40
0.6428571428571429
 40
0.6428571428571429
 40
0.6428571428571429
 40
0.6428571428571429
 40
0.7142857142857143
 40
0.7142857142857143
 40
0.7142857142857143
 40
0.7142857142857143
 40
0.7857142857142857
 40
0.7857142857142857
 40
0.7857142857142857
 40
0.7857142857142857
 40
0.8571428571428571
 40
0.8571428571428571
 40
0.8571428571428571
 40
0.8571428571428571
 40
1.0
 40
1.0
 40
1.0
 40
1.0
 10
2.4615
 20
128.9969
 30
0.0
 10
-6.9428
 20
128.5826
 30
0.0
 10
-14.4425
 20
124.3486
 30
0.0
 10
-19.6892
 20
119.247
 30
0.0
 10
-19.6892
 20
119.247
 30
0.0
 10
-19.6892
 20
119.247
 30
0.0
 10
-15.4649
 20
115.0169
 30
0.0
 10
-15.4649
 20
115.0169
 30
0.0
 10
-15.4649
 20
115.0169
 30
0.0
 10
-11.4393
 20
118.8233
 30
0.0
 10
-7.2579
 20
121.2772
 30
0.0
 10
-0.7375
 20
123.3459
 30
0.0
 10
-0.7375
 20
123.3459
 30
0.0
 10
-0.7375
 20
123.3459
 30
0.0
 10
-0.7716
 20
105.1756
 30
0.0
 10
-0.7716
 20
105.1756
 30
0.0
 10
-0.7716
 20
105.1756
 30
0.0
 10
-0.7716
 20
105.1756
 30
0.0
 10
-14.4887
 20
105.1756
 30
0.0
 10
-14.4887
 20
105.1756
 30
0.0
 10
-14.4887
 20
105.1756
 30
0.0
 10
-14.4887
 20
105.1756
 30
0.0
 10
-14.5442
 20
108.0538
 30
0.0
 10
-14.5442
 20
108.0538
 30
0.0
 10
-14.5442
 20
108.0538
 30
0.0
 10
-14.5442
 20
108.0538
 30
0.0
 10
-9.0487
 20
111.5224
 30
0.0
 10
-9.0487
 20
111.5224
 30
0.0
 10
-9.0487
 20
111.5224
 30
0.0
 10
-9.0487
 20
111.5224
 30
0.0
 10
-8.9837
 20
108.0853
 30
0.0
 10
-8.9837
 20
108.0853
 30
0.0
 10
-8.9837
 20
108.0853
 30
0.0
 10
-8.9837
 20
108.0853
 30
0.0
 10
-3.617
 20
108.016
 30
0.0
 10
-3.617
 20
108.016
 30
0.0
 10
-3.617
 20
108.016
 30
0.0
 10
-3.617
 20
108.016
 30
0.0
 10
-3.617
 20
119.6638
 30
0.0
 10
-3.617
 20
119.6638
 30
0.0
 10
-3.617
 20
119.6638
 30
0.0
 10
-10.2339
 20
116.4535
 30
0.0
 10
-16.8017
 20
111.1365
 30
0.0
 10
-19.762
 20
102.848
 30
0.0
 10
-19.762
 20
102.848
 30
0.0
 10
-19.762
 20
102.848
 30
0.0
 10
2.4615
 20
102.8481
 30
0.0
 10
2.4615
 20
102.8481
 30
0.0
 10
2.4615
 20
102.8481
 30
0.0
 10
2.4615
 20
102.8481
 30
0.0
 10
2.4615
 20
128.9969
 30
0.0
 10
2.4615
 20
128.9969
 30
0.0
  0
SPLINE
  5
6D
330
1F
100
AcDbEntity
  8
layer 1
 62
     7
100
AcDbSpline
210
0.0
220
0.0
230
1.0
 70
    11
 71
     3
 72
    56
 73
    52
 74
     0
 42
0.0000000001
 43
0.0000000001
 12
1.0
 22
0.0
 32
0.0
 13
1.0
 23
0.0
 33
0.0
 40
0.0
 40
0.0
 40
0.0
 40
0.0
 40
0.0714285714285714
 40
0.0714285714285714
 40
0.0714285714285714
 40
0.0714285714285714
 40
0.1428571428571428
 40
0.1428571428571428
 40
0.1428571428571428
 40
0.1428571428571428
 40
0.2142857142857143
 40
0.2142857142857143
 40
0.2142857142857143
 40
0.2142857142857143
 40
0.2857142857142857
 40
0.2857142857142857
 40
0.2857142857142857
 40
0.2857142857142857
 40
0.3571428571428572
 40
0.3571428571428572
 40
0.3571428571428572
 40
0.3571428571428572
 40
0.4285714285714285
 40
0.4285714285714285
 40
0.4285714285714285
 40
0.4285714285714285
 40
0.5
 40
0.5
 40
0.5
 40
0.5
 40
0.5714285714285714
 40
0.5714285714285714
 40
0.5714285714285714
 40
0.5714285714285714
 40
0.6428571428571429
 40
0.6428571428571429
 40
0.6428571428571429
 40
0.6428571428571429
 40
0.7142857142857143
 40
0.7142857142857143
 40
0.7142857142857143
 40
0.7142857142857143
 40
0.7857142857142857
 40
0.7857142857142857
 40
0.7857142857142857
 40
0.7857142857142857
 40
0.8571428571428571
 40
0.8571428571428571
 40
0.8571428571428571
 40
0.8571428571428571
 40
1.0
 40
1.0
 40
1.0
 40
1.0
 10
2.4615
 20
61.8644
 30
0.0
 10
-6.9428
 20
62.2786
 30
0.0
 10
-14.4425
 20
66.5131
 30
0.0
 10
-19.6892
 20
71.6147
 30
0.0
 10
-19.6892
 20
71.6147
 30
0.0
 10
-19.6892
 20
71.6147
 30
0.0
 10
-15.4649
 20
75.8442
 30
0.0
 10
-15.4649
 20
75.8442
 30
0.0
 10
-15.4649
 20
75.8442
 30
0.0
 10
-11.4393
 20
72.0378
 30
0.0
 10
-7.2579
 20
69.5838
 30
0.0
 10
-0.7375
 20
67.5158
 30
0.0
 10
-0.7375
 20
67.5158
 30
0.0
 10
-0.7375
 20
67.5158
 30
0.0
 10
-0.7716
 20
85.6856
 30
0.0
 10
-0.7716
 20
85.6856
 30
0.0
 10
-0.7716
 20
85.6856
 30
0.0
 10
-0.7716
 20
85.6856
 30
0.0
 10
-14.4887
 20
85.6856
 30
0.0
 10
-14.4887
 20
85.6856
 30
0.0
 10
-14.4887
 20
85.6856
 30
0.0
 10
-14.4887
 20
85.6856
 30
0.0
 10
-14.5442
 20
82.8073
 30
0.0
 10
-14.5442
 20
82.8073
 30
0.0
 10
-14.5442
 20
82.8073
 30
0.0
 10
-14.5442
 20
82.8073
 30
0.0
 10
-9.0487
 20
79.3387
 30
0.0
 10
-9.0487
 20
79.3387
 30
0.0
 10
-9.0487
 20
79.3387
 30
0.0
 10
-9.0487
 20
79.3387
 30
0.0
 10
-8.9837
 20
82.7758
 30
0.0
 10
-8.9837
 20
82.7758
 30
0.0
 10
-8.9837
 20
82.7758
 30
0.0
 10
-8.9837
 20
82.7758
 30
0.0
 10
-3.617
 20
82.846
 30
0.0
 10
-3.617
 20
82.846
 30
0.0
 10
-3.617
 20
82.846
 30
0.0
 10
-3.617
 20
82.846
 30
0.0
 10
-3.617
 20
71.198
 30
0.0
 10
-3.617
 20
71.198
 30
0.0
 10
-3.617
 20
71.198
 30
0.0
 10
-10.2339
 20
74.4076
 30
0.0
 10
-16.8017
 20
79.7252
 30
0.0
 10
-19.762
 20
88.013
 30
0.0
 10
-19.762
 20
88.013
 30
0.0
 10
-19.762
 20
88.013
 30
0.0
 10
2.4615
 20
88.0131
 30
0.0
 10
2.4615
 20
88.0131
 30
0.0
 10
2.4615
 20
88.0131
 30
0.0
 10
2.4615
 20
88.0131
 30
0.0
 10
2.4615
 20
61.8644
 30
0.0
 10
2.4615
 20
61.8644
 30
0.0
  0
SPLINE
  5
6E
330
1F
100
AcDbEntity
  8
layer 1
 62
     7
100
AcDbSpline
210
0.0
220
0.0
230
1.0
 70
    11
 71
     3
 72
    64
 73
    60
 74
     0
 42
0.0000000001
 43
0.0000000001
 12
1.0
 22
0.0
 32
0.0
 13
1.0
 23
0.0
 33
0.0
 40
0.0
 40
0.0
 40
0.0
 40
0.0
 40
0.0625
 40
0.0625
 40
0.0625
 40
0.0625
 40
0.125
 40
0.125
 40
0.125
 40
0.125
 40
0.1875
 40
0.1875
 40
0.1875
 40
0.1875
 40
0.25
 40
0.25
 40
0.25
 40
0.25
 40
0.3125
 40
0.3125
 40
0.3125
 40
0.3125
 40
0.375
 40
0.375
 40
0.375
 40
0.375
 40
0.4375
 40
0.4375
 40
0.4375
 40
0.4375
 40
0.5
 40
0.5
 40
0.5
 40
0.5
 40
0.5625
 40
0.5625
 40
0.5625
 40
0.5625
 40
0.625
 40
0.625
 40
0.625
 40
0.625
 40
0.6875
 40
0.6875
 40
0.6875
 40
0.6875
 40
0.75
 40
0.75
 40
0.75
 40
0.75
 40
0.8125
 40
0.8125
 40
0.8125
 40
0.8125
 40
0.875
 40
0.875
 40
0.875
 40
0.875
 40
1.0
 40
1.0
 40
1.0
 40
1.0
 10
25.2703
 20
78.0505
 30
0.0
 10
27.5656
 20
80.6502
 30
0.0
 10
29.4322
 20
84.1177
 30
0.0
 10
30.4671
 20
87.8653
 30
0.0
 10
30.4671
 20
87.8653
 30
0.0
 10
30.4671
 20
87.8653
 30
0.0
 10
30.4671
 20
91.0795
 30
0.0
 10
30.4671
 20
91.0795
 30
0.0
 10
30.4671
 20
91.0795
 30
0.0
 10
30.4671
 20
91.0795
 30
0.0
 10
5.3788
 20
91.0795
 30
0.0
 10
5.3788
 20
91.0795
 30
0.0
 10
5.3788
 20
91.0795
 30
0.0
 10
5.3788
 20
91.0795
 30
0.0
 10
5.3788
 20
94.0542
 30
0.0
 10
5.3788
 20
94.0542
 30
0.0
 10
5.3788
 20
94.0542
 30
0.0
 10
5.3788
 20
94.0542
 30
0.0
 10
31.2432
 20
94.0542
 30
0.0
 10
31.2432
 20
94.0542
 30
0.0
 10
31.2432
 20
94.0542
 30
0.0
 10
31.2432
 20
94.0542
 30
0.0
 10
31.2432
 20
96.899
 30
0.0
 10
31.2432
 20
96.899
 30
0.0
 10
31.2432
 20
96.899
 30
0.0
 10
31.2432
 20
96.899
 30
0.0
 10
5.3788
 20
96.899
 30
0.0
 10
5.3788
 20
96.899
 30
0.0
 10
5.3788
 20
96.899
 30
0.0
 10
5.3788
 20
96.899
 30
0.0
 10
5.3788
 20
99.8738
 30
0.0
 10
5.3788
 20
99.8738
 30
0.0
 10
5.3788
 20
99.8738
 30
0.0
 10
5.3788
 20
99.8738
 30
0.0
 10
30.4671
 20
99.8738
 30
0.0
 10
30.4671
 20
99.8738
 30
0.0
 10
30.4671
 20
99.8738
 30
0.0
 10
30.4671
 20
99.8738
 30
0.0
 10
30.4671
 20
102.8372
 30
0.0
 10
30.4671
 20
102.8372
 30
0.0
 10
30.4671
 20
102.8372
 30
0.0
 10
29.5989
 20
106.7977
 30
0.0
 10
27.7538
 20
109.8194
 30
0.0
 10
25.2968
 20
112.8699
 30
0.0
 10
25.2968
 20
112.8699
 30
0.0
 10
25.2968
 20
112.8699
 30
0.0
 10
29.4972
 20
117.0862
 30
0.0
 10
29.4972
 20
117.0862
 30
0.0
 10
29.4972
 20
117.0862
 30
0.0
 10
34.247
 20
111.7553
 30
0.0
 10
37.4762
 20
103.6928
 30
0.0
 10
37.3664
 20
96.135
 30
0.0
 10
37.3664
 20
96.135
 30
0.0
 10
37.2383
 20
87.2863
 30
0.0
 10
35.6791
 20
81.6998
 30
0.0
 10
29.4485
 20
73.8652
 30
0.0
 10
29.4485
 20
73.8652
 30
0.0
 10
29.4485
 20
73.8652
 30
0.0
 10
25.2703
 20
78.0505
 30
0.0
 10
25.2703
 20
78.0505
 30
0.0
  0
SPLINE
  5
6F
330
1F
100
AcDbEntity
  8
layer 1
 62
     7
100
AcDbSpline
210
0.0
220
0.0
230
1.0
 70
    11
 71
     3
 72
    56
 73
    52
 74
     0
 42
0.0000000001
 43
0.0000000001
 12
1.0
 22
0.0
 32
0.0
 13
1.0
 23
0.0
 33
0.0
 40
0.0
 40
0.0
 40
0.0
 40
0.0
 40
0.0714285714285714
 40
0.0714285714285714
 40
0.0714285714285714
 40
0.0714285714285714
 40
0.1428571428571428
 40
0.1428571428571428
 40
0.1428571428571428
 40
0.1428571428571428
 40
0.2142857142857143
 40
0.2142857142857143
 40
0.2142857142857143
 40
0.2142857142857143
 40
0.2857142857142857
 40
0.2857142857142857
 40
0.2857142857142857
 40
0.2857142857142857
 40
0.3571428571428572
 40
0.3571428571428572
 40
0.3571428571428572
 40
0.3571428571428572
 40
0.4285714285714285
 40
0.4285714285714285
 40
0.4285714285714285
 40
0.4285714285714285
 40
0.5
 40
0.5
 40
0.5
 40
0.5
 40
0.5714285714285714
 40
0.5714285714285714
 40
0.5714285714285714
 40
0.5714285714285714
 40
0.6428571428571429
 40
0.6428571428571429
 40
0.6428571428571429
 40
0.6428571428571429
 40
0.7142857142857143
 40
0.7142857142857143
 40
0.7142857142857143
 40
0.7142857142857143
 40
0.7857142857142857
 40
0.7857142857142857
 40
0.7857142857142857
 40
0.7857142857142857
 40
0.8571428571428571
 40
0.8571428571428571
 40
0.8571428571428571
 40
0.8571428571428571
 40
1.0
 40
1.0
 40
1.0
 40
1.0
 10
5.3788
 20
128.9969
 30
0.0
 10
14.7831
 20
128.5826
 30
0.0
 10
22.2828
 20
124.3486
 30
0.0
 10
27.5296
 20
119.247
 30
0.0
 10
27.5296
 20
119.247
 30
0.0
 10
27.5296
 20
119.247
 30
0.0
 10
23.3051
 20
115.0169
 30
0.0
 10
23.3051
 20
115.0169
 30
0.0
 10
23.3051
 20
115.0169
 30
0.0
 10
19.2797
 20
118.8233
 30
0.0
 10
15.0982
 20
121.2772
 30
0.0
 10
8.5777
 20
123.3459
 30
0.0
 10
8.5777
 20
123.3459
 30
0.0
 10
8.5777
 20
123.3459
 30
0.0
 10
8.6119
 20
105.1756
 30
0.0
 10
8.6119
 20
105.1756
 30
0.0
 10
8.6119
 20
105.1756
 30
0.0
 10
8.6119
 20
105.1756
 30
0.0
 10
22.3289
 20
105.1756
 30
0.0
 10
22.3289
 20
105.1756
 30
0.0
 10
22.3289
 20
105.1756
 30
0.0
 10
22.3289
 20
105.1756
 30
0.0
 10
22.3845
 20
108.0538
 30
0.0
 10
22.3845
 20
108.0538
 30
0.0
 10
22.3845
 20
108.0538
 30
0.0
 10
22.3845
 20
108.0538
 30
0.0
 10
16.8889
 20
111.5224
 30
0.0
 10
16.8889
 20
111.5224
 30
0.0
 10
16.8889
 20
111.5224
 30
0.0
 10
16.8889
 20
111.5224
 30
0.0
 10
16.824
 20
108.0853
 30
0.0
 10
16.824
 20
108.0853
 30
0.0
 10
16.824
 20
108.0853
 30
0.0
 10
16.824
 20
108.0853
 30
0.0
 10
11.4572
 20
108.016
 30
0.0
 10
11.4572
 20
108.016
 30
0.0
 10
11.4572
 20
108.016
 30
0.0
 10
11.4572
 20
108.016
 30
0.0
 10
11.4572
 20
119.6638
 30
0.0
 10
11.4572
 20
119.6638
 30
0.0
 10
11.4572
 20
119.6638
 30
0.0
 10
18.0749
 20
116.4535
 30
0.0
 10
24.642
 20
111.1365
 30
0.0
 10
27.6021
 20
102.848
 30
0.0
 10
27.6021
 20
102.848
 30
0.0
 10
27.6021
 20
102.848
 30
0.0
 10
5.3788
 20
102.8481
 30
0.0
 10
5.3788
 20
102.8481
 30
0.0
 10
5.3788
 20
102.8481
 30
0.0
 10
5.3788
 20
102.8481
 30
0.0
 10
5.3788
 20
128.9969
 30
0.0
 10
5.3788
 20
128.9969
 30
0.0
  0
SPLINE
  5
70
330
1F
100
AcDbEntity
  8
layer 1
 62
     7
100
AcDbSpline
210
0.0
220
0.0
230
1.0
 70
    11
 71
     3
 72
    56
 73
    52
 74
     0
 42
0.0000000001
 43
0.0000000001
 12
1.0
 22
0.0
 32
0.0
 13
1.0
 23
0.0
 33
0.0
 40
0.0
 40
0.0
 40
0.0
 40
0.0
 40
0.0714285714285714
 40
0.0714285714285714
 40
0.0714285714285714
 40
0.0714285714285714
 40
0.1428571428571428
 40
0.1428571428571428
 40
0.1428571428571428
 40
0.1428571428571428
 40
0.2142857142857143
 40
0.2142857142857143
 40
0.2142857142857143
 40
0.2142857142857143
 40
0.2857142857142857
 40
0.2857142857142857
 40
0.2857142857142857
 40
0.2857142857142857
 40
0.3571428571428572
 40
0.3571428571428572
 40
0.3571428571428572
 40
0.3571428571428572
 40
0.4285714285714285
 40
0.4285714285714285
 40
0.4285714285714285
 40
0.4285714285714285
 40
0.5
 40
0.5
 40
0.5
 40
0.5
 40
0.5714285714285714
 40
0.5714285714285714
 40
0.5714285714285714
 40
0.5714285714285714
 40
0.6428571428571429
 40
0.6428571428571429
 40
0.6428571428571429
 40
0.6428571428571429
 40
0.7142857142857143
 40
0.7142857142857143
 40
0.7142857142857143
 40
0.7142857142857143
 40
0.7857142857142857
 40
0.7857142857142857
 40
0.7857142857142857
 40
0.7857142857142857
 40
0.8571428571428571
 40
0.8571428571428571
 40
0.8571428571428571
 40
0.8571428571428571
 40
1.0
 40
1.0
 40
1.0
 40
1.0
 10
5.3788
 20
61.8644
 30
0.0
 10
14.7831
 20
62.2786
 30
0.0
 10
22.2828
 20
66.5131
 30
0.0
 10
27.5296
 20
71.6147
 30
0.0
 10
27.5296
 20
71.6147
 30
0.0
 10
27.5296
 20
71.6147
 30
0.0
 10
23.3051
 20
75.8442
 30
0.0
 10
23.3051
 20
75.8442
 30
0.0
 10
23.3051
 20
75.8442
 30
0.0
 10
19.2797
 20
72.0378
 30
0.0
 10
15.0982
 20
69.5838
 30
0.0
 10
8.5777
 20
67.5158
 30
0.0
 10
8.5777
 20
67.5158
 30
0.0
 10
8.5777
 20
67.5158
 30
0.0
 10
8.6119
 20
85.6856
 30
0.0
 10
8.6119
 20
85.6856
 30
0.0
 10
8.6119
 20
85.6856
 30
0.0
 10
8.6119
 20
85.6856
 30
0.0
 10
22.3289
 20
85.6856
 30
0.0
 10
22.3289
 20
85.6856
 30
0.0
 10
22.3289
 20
85.6856
 30
0.0
 10
22.3289
 20
85.6856
 30
0.0
 10
22.3845
 20
82.8073
 30
0.0
 10
22.3845
 20
82.8073
 30
0.0
 10
22.3845
 20
82.8073
 30
0.0
 10
22.3845
 20
82.8073
 30
0.0
 10
16.8889
 20
79.3387
 30
0.0
 10
16.8889
 20
79.3387
 30
0.0
 10
16.8889
 20
79.3387
 30
0.0
 10
16.8889
 20
79.3387
 30
0.0
 10
16.824
 20
82.7758
 30
0.0
 10
16.824
 20
82.7758
 30
0.0
 10
16.824
 20
82.7758
 30
0.0
 10
16.824
 20
82.7758
 30
0.0
 10
11.4572
 20
82.846
 30
0.0
 10
11.4572
 20
82.846
 30
0.0
 10
11.4572
 20
82.846
 30
0.0
 10
11.4572
 20
82.846
 30
0.0
 10
11.4572
 20
71.198
 30
0.0
 10
11.4572
 20
71.198
 30
0.0
 10
11.4572
 20
71.198
 30
0.0
 10
18.0749
 20
74.4076
 30
0.0
 10
24.642
 20
79.7252
 30
0.0
 10
27.6021
 20
88.013
 30
0.0
 10
27.6021
 20
88.013
 30
0.0
 10
27.6021
 20
88.013
 30
0.0
 10
5.3788
 20
88.0131
 30
0.0
 10
5.3788
 20
88.0131
 30
0.0
 10
5.3788
 20
88.0131
 30
0.0
 10
5.3788
 20
88.0131
 30
0.0
 10
5.3788
 20
61.8644
 30
0.0
 10
5.3788
 20
61.8644
 30
0.0
  0
SPLINE
  5
71
330
1F
100
AcDbEntity
  8
layer 1
 62
   250
100
AcDbSpline
210
0.0
220
0.0
230
1.0
 70
    11
 71
     3
 72
    20
 73
    16
 74
     0
 42
0.0000000001
 43
0.0000000001
 12
1.0
 22
0.0
 32
0.0
 13
1.0
 23
0.0
 33
0.0
 40
0.0
 40
0.0
 40
0.0
 40
0.0
 40
0.2
 40
0.2
 40
0.2
 40
0.2
 40
0.4
 40
0.4
 40
0.4
 40
0.4
 40
0.6
 40
0.6
 40
0.6
 40
0.6
 40
1.0
 40
1.0
 40
1.0
 40
1.0
 10
-114.2976
 20
8.7736
 30
0.0
 10
-114.2976
 20
-11.383
 30
0.0
 10
-130.6377
 20
-27.7254
 30
0.0
 10
-150.7976
 20
-27.7254
 30
0.0
 10
-150.7976
 20
-27.7254
 30
0.0
 10
-170.9553
 20
-27.7254
 30
0.0
 10
-187.2975
 20
-11.383
 30
0.0
 10
-187.2975
 20
8.7736
 30
0.0
 10
-187.2975
 20
8.7736
 30
0.0
 10
-187.2975
 20
28.933
 30
0.0
 10
-170.9553
 20
45.2746
 30
0.0
 10
-150.7976
 20
45.2746
 30
0.0
 10
-150.7976
 20
45.2746
 30
0.0
 10
-130.6377
 20
45.2746
 30
0.0
 10
-114.2978
 20
28.933
 30
0.0
 10
-114.2976
 20
8.7736
 30
0.0
  0
SPLINE
  5
72
330
1F
100
AcDbEntity
  8
layer 1
 62
     7
100
AcDbSpline
210
0.0
220
0.0
230
1.0
 70
    11
 71
     3
 72
    28
 73
    24
 74
     0
 42
0.0000000001
 43
0.0000000001
 12
1.0
 22
0.0
 32
0.0
 13
1.0
 23
0.0
 33
0.0
 40
0.0
 40
0.0
 40
0.0
 40
0.0
 40
0.1428571428571428
 40
0.1428571428571428
 40
0.1428571428571428
 40
0.1428571428571428
 40
0.2857142857142857
 40
0.2857142857142857
 40
0.2857142857142857
 40
0.2857142857142857
 40
0.4285714285714285
 40
0.4285714285714285
 40
0.4285714285714285
 40
0.4285714285714285
 40
0.5714285714285714
 40
0.5714285714285714
 40
0.5714285714285714
 40
0.5714285714285714
 40
0.7142857142857143
 40
0.7142857142857143
 40
0.7142857142857143
 40
0.7142857142857143
 40
1.0
 40
1.0
 40
1.0
 40
1.0
 10
-160.4981
 20
40.0799
 30
0.0
 10
-157.6995
 20
40.8623
 30
0.0
 10
-155.148
 20
41.2127
 30
0.0
 10
-152.3797
 20
41.408
 30
0.0
 10
-152.3797
 20
41.408
 30
0.0
 10
-152.3797
 20
41.408
 30
0.0
 10
-152.3795
 20
30.6052
 30
0.0
 10
-152.3795
 20
30.6052
 30
0.0
 10
-152.3795
 20
30.6052
 30
0.0
 10
-152.3795
 20
30.6052
 30
0.0
 10
-155.866
 20
30.6052
 30
0.0
 10
-155.866
 20
30.6052
 30
0.0
 10
-155.866
 20
30.6052
 30
0.0
 10
-155.866
 20
30.6052
 30
0.0
 10
-155.866
 20
37.6125
 30
0.0
 10
-155.866
 20
37.6125
 30
0.0
 10
-155.866
 20
37.6125
 30
0.0
 10
-156.9879
 20
37.4381
 30
0.0
 10
-158.0176
 20
37.2318
 30
0.0
 10
-159.1395
 20
36.8108
 30
0.0
 10
-159.1395
 20
36.8108
 30
0.0
 10
-159.1395
 20
36.8108
 30
0.0
 10
-160.4981
 20
40.0799
 30
0.0
 10
-160.4981
 20
40.0799
 30
0.0
  0
SPLINE
  5
73
330
1F
100
AcDbEntity
  8
layer 1
 62
     7
100
AcDbSpline
210
0.0
220
0.0
230
1.0
 70
    11
 71
     3
 72
    20
 73
    16
 74
     0
 42
0.0000000001
 43
0.0000000001
 12
1.0
 22
0.0
 32
0.0
 13
1.0
 23
0.0
 33
0.0
 40
0.0
 40
0.0
 40
0.0
 40
0.0
 40
0.2
 40
0.2
 40
0.2
 40
0.2
 40
0.4
 40
0.4
 40
0.4
 40
0.4
 40
0.6
 40
0.6
 40
0.6
 40
0.6
 40
1.0
 40
1.0
 40
1.0
 40
1.0
 10
-155.866
 20
13.7605
 30
0.0
 10
-155.866
 20
13.7605
 30
0.0
 10
-152.3795
 20
13.7605
 30
0.0
 10
-152.3795
 20
13.7605
 30
0.0
 10
-152.3795
 20
13.7605
 30
0.0
 10
-152.3795
 20
13.7605
 30
0.0
 10
-152.3795
 20
10.2741
 30
0.0
 10
-152.3795
 20
10.2741
 30
0.0
 10
-152.3795
 20
10.2741
 30
0.0
 10
-152.3795
 20
10.2741
 30
0.0
 10
-155.866
 20
10.2741
 30
0.0
 10
-155.866
 20
10.2741
 30
0.0
 10
-155.866
 20
10.2741
 30
0.0
 10
-155.866
 20
10.2741
 30
0.0
 10
-155.866
 20
13.7605
 30
0.0
 10
-155.866
 20
13.7605
 30
0.0
  0
SPLINE
  5
74
330
1F
100
AcDbEntity
  8
layer 1
 62
     7
100
AcDbSpline
210
0.0
220
0.0
230
1.0
 70
    11
 71
     3
 72
    20
 73
    16
 74
     0
 42
0.0000000001
 43
0.0000000001
 12
1.0
 22
0.0
 32
0.0
 13
1.0
 23
0.0
 33
0.0
 40
0.0
 40
0.0
 40
0.0
 40
0.0
 40
0.2
 40
0.2
 40
0.2
 40
0.2
 40
0.4
 40
0.4
 40
0.4
 40
0.4
 40
0.6
 40
0.6
 40
0.6
 40
0.6
 40
1.0
 40
1.0
 40
1.0
 40
1.0
 10
-162.686
 20
20.7095
 30
0.0
 10
-162.686
 20
20.7095
 30
0.0
 10
-159.2017
 20
20.7095
 30
0.0
 10
-159.2017
 20
20.7095
 30
0.0
 10
-159.2017
 20
20.7095
 30
0.0
 10
-159.2017
 20
20.7095
 30
0.0
 10
-159.2017
 20
17.2255
 30
0.0
 10
-159.2017
 20
17.2255
 30
0.0
 10
-159.2017
 20
17.2255
 30
0.0
 10
-159.2017
 20
17.2255
 30
0.0
 10
-162.6859
 20
17.2255
 30
0.0
 10
-162.6859
 20
17.2255
 30
0.0
 10
-162.6859
 20
17.2255
 30
0.0
 10
-162.6859
 20
17.2255
 30
0.0
 10
-162.686
 20
20.7095
 30
0.0
 10
-162.686
 20
20.7095
 30
0.0
  0
SPLINE
  5
75
330
1F
100
AcDbEntity
  8
layer 1
 62
     7
100
AcDbSpline
210
0.0
220
0.0
230
1.0
 70
    11
 71
     3
 72
    20
 73
    16
 74
     0
 42
0.0000000001
 43
0.0000000001
 12
1.0
 22
0.0
 32
0.0
 13
1.0
 23
0.0
 33
0.0
 40
0.0
 40
0.0
 40
0.0
 40
0.0
 40
0.2
 40
0.2
 40
0.2
 40
0.2
 40
0.4
 40
0.4
 40
0.4
 40
0.4
 40
0.6
 40
0.6
 40
0.6
 40
0.6
 40
1.0
 40
1.0
 40
1.0
 40
1.0
 10
-155.866
 20
27.3487
 30
0.0
 10
-155.866
 20
27.3487
 30
0.0
 10
-152.3795
 20
27.3487
 30
0.0
 10
-152.3795
 20
27.3487
 30
0.0
 10
-152.3795
 20
27.3487
 30
0.0
 10
-152.3795
 20
27.3487
 30
0.0
 10
-152.3795
 20
17.2253
 30
0.0
 10
-152.3795
 20
17.2253
 30
0.0
 10
-152.3795
 20
17.2253
 30
0.0
 10
-152.3795
 20
17.2253
 30
0.0
 10
-155.866
 20
17.2253
 30
0.0
 10
-155.866
 20
17.2253
 30
0.0
 10
-155.866
 20
17.2253
 30
0.0
 10
-155.866
 20
17.2253
 30
0.0
 10
-155.866
 20
27.3487
 30
0.0
 10
-155.866
 20
27.3487
 30
0.0
  0
SPLINE
  5
76
330
1F
100
AcDbEntity
  8
layer 1
 62
     7
100
AcDbSpline
210
0.0
220
0.0
230
1.0
 70
    11
 71
     3
 72
    20
 73
    16
 74
     0
 42
0.0000000001
 43
0.0000000001
 12
1.0
 22
0.0
 32
0.0
 13
1.0
 23
0.0
 33
0.0
 40
0.0
 40
0.0
 40
0.0
 40
0.0
 40
0.2
 40
0.2
 40
0.2
 40
0.2
 40
0.4
 40
0.4
 40
0.4
 40
0.4
 40
0.6
 40
0.6
 40
0.6
 40
0.6
 40
1.0
 40
1.0
 40
1.0
 40
1.0
 10
-162.686
 20
31.4888
 30
0.0
 10
-161.6179
 20
32.3529
 30
0.0
 10
-160.4872
 20
32.9096
 30
0.0
 10
-159.2017
 20
33.3415
 30
0.0
 10
-159.2017
 20
33.3415
 30
0.0
 10
-159.2017
 20
33.3415
 30
0.0
 10
-159.2017
 20
23.9572
 30
0.0
 10
-159.2017
 20
23.9572
 30
0.0
 10
-159.2017
 20
23.9572
 30
0.0
 10
-159.2017
 20
23.9572
 30
0.0
 10
-162.686
 20
23.9572
 30
0.0
 10
-162.686
 20
23.9572
 30
0.0
 10
-162.686
 20
23.9572
 30
0.0
 10
-162.686
 20
23.9572
 30
0.0
 10
-162.686
 20
31.4888
 30
0.0
 10
-162.686
 20
31.4888
 30
0.0
  0
SPLINE
  5
77
330
1F
100
AcDbEntity
  8
layer 1
 62
     7
100
AcDbSpline
210
0.0
220
0.0
230
1.0
 70
    11
 71
     3
 72
    20
 73
    16
 74
     0
 42
0.0000000001
 43
0.0000000001
 12
1.0
 22
0.0
 32
0.0
 13
1.0
 23
0.0
 33
0.0
 40
0.0
 40
0.0
 40
0.0
 40
0.0
 40
0.2
 40
0.2
 40
0.2
 40
0.2
 40
0.4
 40
0.4
 40
0.4
 40
0.4
 40
0.6
 40
0.6
 40
0.6
 40
0.6
 40
1.0
 40
1.0
 40
1.0
 40
1.0
 10
-171.5765
 20
23.955
 30
0.0
 10
-170.3682
 20
25.937
 30
0.0
 10
-168.4038
 20
27.987
 30
0.0
 10
-166.0223
 20
29.5112
 30
0.0
 10
-166.0223
 20
29.5112
 30
0.0
 10
-166.0223
 20
29.5112
 30
0.0
 10
-166.0223
 20
23.9572
 30
0.0
 10
-166.0223
 20
23.9572
 30
0.0
 10
-166.0223
 20
23.9572
 30
0.0
 10
-166.0223
 20
23.9572
 30
0.0
 10
-169.5064
 20
23.9572
 30
0.0
 10
-169.5064
 20
23.9572
 30
0.0
 10
-169.5064
 20
23.9572
 30
0.0
 10
-169.5064
 20
23.9572
 30
0.0
 10
-171.5765
 20
23.955
 30
0.0
 10
-171.5765
 20
23.955
 30
0.0
  0
SPLINE
  5
78
330
1F
100
AcDbEntity
  8
layer 1
 62
     7
100
AcDbSpline
210
0.0
220
0.0
230
1.0
 70
    11
 71
     3
 72
    20
 73
    16
 74
     0
 42
0.0000000001
 43
0.0000000001
 12
1.0
 22
0.0
 32
0.0
 13
1.0
 23
0.0
 33
0.0
 40
0.0
 40
0.0
 40
0.0
 40
0.0
 40
0.2
 40
0.2
 40
0.2
 40
0.2
 40
0.4
 40
0.4
 40
0.4
 40
0.4
 40
0.6
 40
0.6
 40
0.6
 40
0.6
 40
1.0
 40
1.0
 40
1.0
 40
1.0
 10
-172.7089
 20
33.0554
 30
0.0
 10
-170.3747
 20
35.0115
 30
0.0
 10
-167.267
 20
37.1223
 30
0.0
 10
-163.6362
 20
38.6761
 30
0.0
 10
-163.6362
 20
38.6761
 30
0.0
 10
-163.6362
 20
38.6761
 30
0.0
 10
-162.3656
 20
35.5898
 30
0.0
 10
-162.3656
 20
35.5898
 30
0.0
 10
-162.3656
 20
35.5898
 30
0.0
 10
-165.4334
 20
34.1795
 30
0.0
 10
-167.8513
 20
32.8018
 30
0.0
 10
-170.3643
 20
30.5259
 30
0.0
 10
-170.3643
 20
30.5259
 30
0.0
 10
-170.3643
 20
30.5259
 30
0.0
 10
-172.7089
 20
33.0554
 30
0.0
 10
-172.7089
 20
33.0554
 30
0.0
  0
SPLINE
  5
79
330
1F
100
AcDbEntity
  8
layer 1
 62
     7
100
AcDbSpline
210
0.0
220
0.0
230
1.0
 70
    11
 71
     3
 72
    20
 73
    16
 74
     0
 42
0.0000000001
 43
0.0000000001
 12
1.0
 22
0.0
 32
0.0
 13
1.0
 23
0.0
 33
0.0
 40
0.0
 40
0.0
 40
0.0
 40
0.0
 40
0.2
 40
0.2
 40
0.2
 40
0.2
 40
0.4
 40
0.4
 40
0.4
 40
0.4
 40
0.6
 40
0.6
 40
0.6
 40
0.6
 40
1.0
 40
1.0
 40
1.0
 40
1.0
 10
-169.3128
 20
10.2933
 30
0.0
 10
-169.3128
 20
10.2933
 30
0.0
 10
-169.3128
 20
13.7775
 30
0.0
 10
-169.3128
 20
13.7775
 30
0.0
 10
-169.3128
 20
13.7775
 30
0.0
 10
-169.3128
 20
13.7775
 30
0.0
 10
-159.1891
 20
13.7775
 30
0.0
 10
-159.1891
 20
13.7775
 30
0.0
 10
-159.1891
 20
13.7775
 30
0.0
 10
-159.1891
 20
13.7775
 30
0.0
 10
-159.1891
 20
10.2933
 30
0.0
 10
-159.1891
 20
10.2933
 30
0.0
 10
-159.1891
 20
10.2933
 30
0.0
 10
-159.1891
 20
10.2933
 30
0.0
 10
-169.3128
 20
10.2933
 30
0.0
 10
-169.3128
 20
10.2933
 30
0.0
  0
SPLINE
  5
7A
330
1F
100
AcDbEntity
  8
layer 1
 62
     7
100
AcDbSpline
210
0.0
220
0.0
230
1.0
 70
    11
 71
     3
 72
    28
 73
    24
 74
     0
 42
0.0000000001
 43
0.0000000001
 12
1.0
 22
0.0
 32
0.0
 13
1.0
 23
0.0
 33
0.0
 40
0.0
 40
0.0
 40
0.0
 40
0.0
 40
0.1428571428571428
 40
0.1428571428571428
 40
0.1428571428571428
 40
0.1428571428571428
 40
0.2857142857142857
 40
0.2857142857142857
 40
0.2857142857142857
 40
0.2857142857142857
 40
0.4285714285714285
 40
0.4285714285714285
 40
0.4285714285714285
 40
0.4285714285714285
 40
0.5714285714285714
 40
0.5714285714285714
 40
0.5714285714285714
 40
0.5714285714285714
 40
0.7142857142857143
 40
0.7142857142857143
 40
0.7142857142857143
 40
0.7142857142857143
 40
1.0
 40
1.0
 40
1.0
 40
1.0
 10
-182.1284
 20
18.3539
 30
0.0
 10
-182.9103
 20
15.5576
 30
0.0
 10
-183.2608
 20
13.006
 30
0.0
 10
-183.4567
 20
10.2378
 30
0.0
 10
-183.4567
 20
10.2378
 30
0.0
 10
-183.4567
 20
10.2378
 30
0.0
 10
-172.6534
 20
10.2378
 30
0.0
 10
-172.6534
 20
10.2378
 30
0.0
 10
-172.6534
 20
10.2378
 30
0.0
 10
-172.6534
 20
10.2378
 30
0.0
 10
-172.6534
 20
13.7241
 30
0.0
 10
-172.6534
 20
13.7241
 30
0.0
 10
-172.6534
 20
13.7241
 30
0.0
 10
-172.6534
 20
13.7241
 30
0.0
 10
-179.6603
 20
13.7241
 30
0.0
 10
-179.6603
 20
13.7241
 30
0.0
 10
-179.6603
 20
13.7241
 30
0.0
 10
-179.4866
 20
14.8461
 30
0.0
 10
-179.2802
 20
15.8733
 30
0.0
 10
-178.8566
 20
16.9954
 30
0.0
 10
-178.8566
 20
16.9954
 30
0.0
 10
-178.8566
 20
16.9954
 30
0.0
 10
-182.1284
 20
18.3539
 30
0.0
 10
-182.1284
 20
18.3539
 30
0.0
  0
SPLINE
  5
7B
330
1F
100
AcDbEntity
  8
layer 1
 62
     7
100
AcDbSpline
210
0.0
220
0.0
230
1.0
 70
    11
 71
     3
 72
    20
 73
    16
 74
     0
 42
0.0000000001
 43
0.0000000001
 12
1.0
 22
0.0
 32
0.0
 13
1.0
 23
0.0
 33
0.0
 40
0.0
 40
0.0
 40
0.0
 40
0.0
 40
0.2
 40
0.2
 40
0.2
 40
0.2
 40
0.4
 40
0.4
 40
0.4
 40
0.4
 40
0.6
 40
0.6
 40
0.6
 40
0.6
 40
1.0
 40
1.0
 40
1.0
 40
1.0
 10
-173.5712
 20
20.6964
 30
0.0
 10
-174.4352
 20
19.6283
 30
0.0
 10
-174.992
 20
18.4953
 30
0.0
 10
-175.4239
 20
17.2099
 30
0.0
 10
-175.4239
 20
17.2099
 30
0.0
 10
-175.4239
 20
17.2099
 30
0.0
 10
-166.0414
 20
17.21
 30
0.0
 10
-166.0414
 20
17.21
 30
0.0
 10
-166.0414
 20
17.21
 30
0.0
 10
-166.0414
 20
17.21
 30
0.0
 10
-166.0414
 20
20.6964
 30
0.0
 10
-166.0414
 20
20.6964
 30
0.0
 10
-166.0414
 20
20.6964
 30
0.0
 10
-166.0414
 20
20.6964
 30
0.0
 10
-173.5712
 20
20.6964
 30
0.0
 10
-173.5712
 20
20.6964
 30
0.0
  0
SPLINE
  5
7C
330
1F
100
AcDbEntity
  8
layer 1
 62
     7
100
AcDbSpline
210
0.0
220
0.0
230
1.0
 70
    11
 71
     3
 72
    20
 73
    16
 74
     0
 42
0.0000000001
 43
0.0000000001
 12
1.0
 22
0.0
 32
0.0
 13
1.0
 23
0.0
 33
0.0
 40
0.0
 40
0.0
 40
0.0
 40
0.0
 40
0.2
 40
0.2
 40
0.2
 40
0.2
 40
0.4
 40
0.4
 40
0.4
 40
0.4
 40
0.6
 40
0.6
 40
0.6
 40
0.6
 40
1.0
 40
1.0
 40
1.0
 40
1.0
 10
-181.0382
 20
21.5415
 30
0.0
 10
-179.7424
 20
24.2966
 30
0.0
 10
-177.8099
 20
27.5187
 30
0.0
 10
-175.1681
 20
30.4572
 30
0.0
 10
-175.1681
 20
30.4572
 30
0.0
 10
-175.1681
 20
30.4572
 30
0.0
 10
-172.72
 20
28.1913
 30
0.0
 10
-172.72
 20
28.1913
 30
0.0
 10
-172.72
 20
28.1913
 30
0.0
 10
-174.9078
 20
25.6211
 30
0.0
 10
-176.5245
 20
23.3534
 30
0.0
 10
-177.8463
 20
20.2324
 30
0.0
 10
-177.8463
 20
20.2324
 30
0.0
 10
-177.8463
 20
20.2324
 30
0.0
 10
-181.0382
 20
21.5415
 30
0.0
 10
-181.0382
 20
21.5415
 30
0.0
  0
SPLINE
  5
7D
330
1F
100
AcDbEntity
  8
layer 1
 62
     7
100
AcDbSpline
210
0.0
220
0.0
230
1.0
 70
    11
 71
     3
 72
    20
 73
    16
 74
     0
 42
0.0000000001
 43
0.0000000001
 12
1.0
 22
0.0
 32
0.0
 13
1.0
 23
0.0
 33
0.0
 40
0.0
 40
0.0
 40
0.0
 40
0.0
 40
0.2
 40
0.2
 40
0.2
 40
0.2
 40
0.4
 40
0.4
 40
0.4
 40
0.4
 40
0.6
 40
0.6
 40
0.6
 40
0.6
 40
1.0
 40
1.0
 40
1.0
 40
1.0
 10
-149.2265
 20
13.7605
 30
0.0
 10
-149.2265
 20
13.7605
 30
0.0
 10
-145.7423
 20
13.7605
 30
0.0
 10
-145.7423
 20
13.7605
 30
0.0
 10
-145.7423
 20
13.7605
 30
0.0
 10
-145.7423
 20
13.7605
 30
0.0
 10
-145.7423
 20
10.2741
 30
0.0
 10
-145.7423
 20
10.2741
 30
0.0
 10
-145.7423
 20
10.2741
 30
0.0
 10
-145.7423
 20
10.2741
 30
0.0
 10
-149.2265
 20
10.2741
 30
0.0
 10
-149.2265
 20
10.2741
 30
0.0
 10
-149.2265
 20
10.2741
 30
0.0
 10
-149.2265
 20
10.2741
 30
0.0
 10
-149.2265
 20
13.7605
 30
0.0
 10
-149.2265
 20
13.7605
 30
0.0
  0
SPLINE
  5
7E
330
1F
100
AcDbEntity
  8
layer 1
 62
     7
100
AcDbSpline
210
0.0
220
0.0
230
1.0
 70
    11
 71
     3
 72
    20
 73
    16
 74
     0
 42
0.0000000001
 43
0.0000000001
 12
1.0
 22
0.0
 32
0.0
 13
1.0
 23
0.0
 33
0.0
 40
0.0
 40
0.0
 40
0.0
 40
0.0
 40
0.2
 40
0.2
 40
0.2
 40
0.2
 40
0.4
 40
0.4
 40
0.4
 40
0.4
 40
0.6
 40
0.6
 40
0.6
 40
0.6
 40
1.0
 40
1.0
 40
1.0
 40
1.0
 10
-142.406
 20
20.7095
 30
0.0
 10
-142.406
 20
20.7095
 30
0.0
 10
-138.9196
 20
20.7095
 30
0.0
 10
-138.9196
 20
20.7095
 30
0.0
 10
-138.9196
 20
20.7095
 30
0.0
 10
-138.9196
 20
20.7095
 30
0.0
 10
-138.9196
 20
17.2255
 30
0.0
 10
-138.9196
 20
17.2255
 30
0.0
 10
-138.9196
 20
17.2255
 30
0.0
 10
-138.9196
 20
17.2255
 30
0.0
 10
-142.406
 20
17.2255
 30
0.0
 10
-142.406
 20
17.2255
 30
0.0
 10
-142.406
 20
17.2255
 30
0.0
 10
-142.406
 20
17.2255
 30
0.0
 10
-142.406
 20
20.7095
 30
0.0
 10
-142.406
 20
20.7095
 30
0.0
  0
SPLINE
  5
7F
330
1F
100
AcDbEntity
  8
layer 1
 62
     7
100
AcDbSpline
210
0.0
220
0.0
230
1.0
 70
    11
 71
     3
 72
    20
 73
    16
 74
     0
 42
0.0000000001
 43
0.0000000001
 12
1.0
 22
0.0
 32
0.0
 13
1.0
 23
0.0
 33
0.0
 40
0.0
 40
0.0
 40
0.0
 40
0.0
 40
0.2
 40
0.2
 40
0.2
 40
0.2
 40
0.4
 40
0.4
 40
0.4
 40
0.4
 40
0.6
 40
0.6
 40
0.6
 40
0.6
 40
1.0
 40
1.0
 40
1.0
 40
1.0
 10
-149.2265
 20
27.3487
 30
0.0
 10
-149.2265
 20
27.3487
 30
0.0
 10
-145.7423
 20
27.3487
 30
0.0
 10
-145.7423
 20
27.3487
 30
0.0
 10
-145.7423
 20
27.3487
 30
0.0
 10
-145.7423
 20
27.3487
 30
0.0
 10
-145.7423
 20
17.2253
 30
0.0
 10
-145.7423
 20
17.2253
 30
0.0
 10
-145.7423
 20
17.2253
 30
0.0
 10
-145.7423
 20
17.2253
 30
0.0
 10
-149.2265
 20
17.2253
 30
0.0
 10
-149.2265
 20
17.2253
 30
0.0
 10
-149.2265
 20
17.2253
 30
0.0
 10
-149.2265
 20
17.2253
 30
0.0
 10
-149.2265
 20
27.3487
 30
0.0
 10
-149.2265
 20
27.3487
 30
0.0
  0
SPLINE
  5
80
330
1F
100
AcDbEntity
  8
layer 1
 62
     7
100
AcDbSpline
210
0.0
220
0.0
230
1.0
 70
    11
 71
     3
 72
    20
 73
    16
 74
     0
 42
0.0000000001
 43
0.0000000001
 12
1.0
 22
0.0
 32
0.0
 13
1.0
 23
0.0
 33
0.0
 40
0.0
 40
0.0
 40
0.0
 40
0.0
 40
0.2
 40
0.2
 40
0.2
 40
0.2
 40
0.4
 40
0.4
 40
0.4
 40
0.4
 40
0.6
 40
0.6
 40
0.6
 40
0.6
 40
1.0
 40
1.0
 40
1.0
 40
1.0
 10
-138.9196
 20
31.4888
 30
0.0
 10
-139.9899
 20
32.3529
 30
0.0
 10
-141.1208
 20
32.9096
 30
0.0
 10
-142.4062
 20
33.3415
 30
0.0
 10
-142.4062
 20
33.3415
 30
0.0
 10
-142.4062
 20
33.3415
 30
0.0
 10
-142.406
 20
23.9572
 30
0.0
 10
-142.406
 20
23.9572
 30
0.0
 10
-142.406
 20
23.9572
 30
0.0
 10
-142.406
 20
23.9572
 30
0.0
 10
-138.9196
 20
23.9572
 30
0.0
 10
-138.9196
 20
23.9572
 30
0.0
 10
-138.9196
 20
23.9572
 30
0.0
 10
-138.9196
 20
23.9572
 30
0.0
 10
-138.9196
 20
31.4888
 30
0.0
 10
-138.9196
 20
31.4888
 30
0.0
  0
SPLINE
  5
81
330
1F
100
AcDbEntity
  8
layer 1
 62
     7
100
AcDbSpline
210
0.0
220
0.0
230
1.0
 70
    11
 71
     3
 72
    20
 73
    16
 74
     0
 42
0.0000000001
 43
0.0000000001
 12
1.0
 22
0.0
 32
0.0
 13
1.0
 23
0.0
 33
0.0
 40
0.0
 40
0.0
 40
0.0
 40
0.0
 40
0.2
 40
0.2
 40
0.2
 40
0.2
 40
0.4
 40
0.4
 40
0.4
 40
0.4
 40
0.6
 40
0.6
 40
0.6
 40
0.6
 40
1.0
 40
1.0
 40
1.0
 40
1.0
 10
-130.0319
 20
23.955
 30
0.0
 10
-131.2396
 20
25.937
 30
0.0
 10
-133.2042
 20
27.987
 30
0.0
 10
-135.5857
 20
29.5112
 30
0.0
 10
-135.5857
 20
29.5112
 30
0.0
 10
-135.5857
 20
29.5112
 30
0.0
 10
-135.5857
 20
23.9572
 30
0.0
 10
-135.5857
 20
23.9572
 30
0.0
 10
-135.5857
 20
23.9572
 30
0.0
 10
-135.5857
 20
23.9572
 30
0.0
 10
-132.0997
 20
23.9572
 30
0.0
 10
-132.0997
 20
23.9572
 30
0.0
 10
-132.0997
 20
23.9572
 30
0.0
 10
-132.0997
 20
23.9572
 30
0.0
 10
-130.0319
 20
23.955
 30
0.0
 10
-130.0319
 20
23.955
 30
0.0
  0
SPLINE
  5
82
330
1F
100
AcDbEntity
  8
layer 1
 62
     7
100
AcDbSpline
210
0.0
220
0.0
230
1.0
 70
    11
 71
     3
 72
    28
 73
    24
 74
     0
 42
0.0000000001
 43
0.0000000001
 12
1.0
 22
0.0
 32
0.0
 13
1.0
 23
0.0
 33
0.0
 40
0.0
 40
0.0
 40
0.0
 40
0.0
 40
0.1428571428571428
 40
0.1428571428571428
 40
0.1428571428571428
 40
0.1428571428571428
 40
0.2857142857142857
 40
0.2857142857142857
 40
0.2857142857142857
 40
0.2857142857142857
 40
0.4285714285714285
 40
0.4285714285714285
 40
0.4285714285714285
 40
0.4285714285714285
 40
0.5714285714285714
 40
0.5714285714285714
 40
0.5714285714285714
 40
0.5714285714285714
 40
0.7142857142857143
 40
0.7142857142857143
 40
0.7142857142857143
 40
0.7142857142857143
 40
1.0
 40
1.0
 40
1.0
 40
1.0
 10
-141.1102
 20
40.0799
 30
0.0
 10
-143.9083
 20
40.8623
 30
0.0
 10
-146.4599
 20
41.2127
 30
0.0
 10
-149.2265
 20
41.408
 30
0.0
 10
-149.2265
 20
41.408
 30
0.0
 10
-149.2265
 20
41.408
 30
0.0
 10
-149.2265
 20
30.6052
 30
0.0
 10
-149.2265
 20
30.6052
 30
0.0
 10
-149.2265
 20
30.6052
 30
0.0
 10
-149.2265
 20
30.6052
 30
0.0
 10
-145.7424
 20
30.6052
 30
0.0
 10
-145.7424
 20
30.6052
 30
0.0
 10
-145.7424
 20
30.6052
 30
0.0
 10
-145.7424
 20
30.6052
 30
0.0
 10
-145.7424
 20
37.6125
 30
0.0
 10
-145.7424
 20
37.6125
 30
0.0
 10
-145.7424
 20
37.6125
 30
0.0
 10
-144.6199
 20
37.4381
 30
0.0
 10
-143.5902
 20
37.2318
 30
0.0
 10
-142.4683
 20
36.8108
 30
0.0
 10
-142.4683
 20
36.8108
 30
0.0
 10
-142.4683
 20
36.8108
 30
0.0
 10
-141.1102
 20
40.0799
 30
0.0
 10
-141.1102
 20
40.0799
 30
0.0
  0
SPLINE
  5
83
330
1F
100
AcDbEntity
  8
layer 1
 62
     7
100
AcDbSpline
210
0.0
220
0.0
230
1.0
 70
    11
 71
     3
 72
    20
 73
    16
 74
     0
 42
0.0000000001
 43
0.0000000001
 12
1.0
 22
0.0
 32
0.0
 13
1.0
 23
0.0
 33
0.0
 40
0.0
 40
0.0
 40
0.0
 40
0.0
 40
0.2
 40
0.2
 40
0.2
 40
0.2
 40
0.4
 40
0.4
 40
0.4
 40
0.4
 40
0.6
 40
0.6
 40
0.6
 40
0.6
 40
1.0
 40
1.0
 40
1.0
 40
1.0
 10
-128.8967
 20
33.0554
 30
0.0
 10
-131.2331
 20
35.0115
 30
0.0
 10
-134.3392
 20
37.1223
 30
0.0
 10
-137.9715
 20
38.6761
 30
0.0
 10
-137.9715
 20
38.6761
 30
0.0
 10
-137.9715
 20
38.6761
 30
0.0
 10
-139.2421
 20
35.5898
 30
0.0
 10
-139.2421
 20
35.5898
 30
0.0
 10
-139.2421
 20
35.5898
 30
0.0
 10
-136.175
 20
34.1795
 30
0.0
 10
-133.7543
 20
32.8018
 30
0.0
 10
-131.2441
 20
30.5259
 30
0.0
 10
-131.2441
 20
30.5259
 30
0.0
 10
-131.2441
 20
30.5259
 30
0.0
 10
-128.8967
 20
33.0554
 30
0.0
 10
-128.8967
 20
33.0554
 30
0.0
  0
SPLINE
  5
84
330
1F
100
AcDbEntity
  8
layer 1
 62
     7
100
AcDbSpline
210
0.0
220
0.0
230
1.0
 70
    11
 71
     3
 72
    20
 73
    16
 74
     0
 42
0.0000000001
 43
0.0000000001
 12
1.0
 22
0.0
 32
0.0
 13
1.0
 23
0.0
 33
0.0
 40
0.0
 40
0.0
 40
0.0
 40
0.0
 40
0.2
 40
0.2
 40
0.2
 40
0.2
 40
0.4
 40
0.4
 40
0.4
 40
0.4
 40
0.6
 40
0.6
 40
0.6
 40
0.6
 40
1.0
 40
1.0
 40
1.0
 40
1.0
 10
-132.2928
 20
10.2933
 30
0.0
 10
-132.2928
 20
10.2933
 30
0.0
 10
-132.2928
 20
13.7775
 30
0.0
 10
-132.2928
 20
13.7775
 30
0.0
 10
-132.2928
 20
13.7775
 30
0.0
 10
-132.2928
 20
13.7775
 30
0.0
 10
-142.4171
 20
13.7775
 30
0.0
 10
-142.4171
 20
13.7775
 30
0.0
 10
-142.4171
 20
13.7775
 30
0.0
 10
-142.4171
 20
13.7775
 30
0.0
 10
-142.4171
 20
10.2933
 30
0.0
 10
-142.4171
 20
10.2933
 30
0.0
 10
-142.4171
 20
10.2933
 30
0.0
 10
-142.4171
 20
10.2933
 30
0.0
 10
-132.2928
 20
10.2933
 30
0.0
 10
-132.2928
 20
10.2933
 30
0.0
  0
SPLINE
  5
85
330
1F
100
AcDbEntity
  8
layer 1
 62
     7
100
AcDbSpline
210
0.0
220
0.0
230
1.0
 70
    11
 71
     3
 72
    28
 73
    24
 74
     0
 42
0.0000000001
 43
0.0000000001
 12
1.0
 22
0.0
 32
0.0
 13
1.0
 23
0.0
 33
0.0
 40
0.0
 40
0.0
 40
0.0
 40
0.0
 40
0.1428571428571428
 40
0.1428571428571428
 40
0.1428571428571428
 40
0.1428571428571428
 40
0.2857142857142857
 40
0.2857142857142857
 40
0.2857142857142857
 40
0.2857142857142857
 40
0.4285714285714285
 40
0.4285714285714285
 40
0.4285714285714285
 40
0.4285714285714285
 40
0.5714285714285714
 40
0.5714285714285714
 40
0.5714285714285714
 40
0.5714285714285714
 40
0.7142857142857143
 40
0.7142857142857143
 40
0.7142857142857143
 40
0.7142857142857143
 40
1.0
 40
1.0
 40
1.0
 40
1.0
 10
-119.4778
 20
18.3539
 30
0.0
 10
-118.6953
 20
15.5576
 30
0.0
 10
-118.3471
 20
13.006
 30
0.0
 10
-118.1517
 20
10.2378
 30
0.0
 10
-118.1517
 20
10.2378
 30
0.0
 10
-118.1517
 20
10.2378
 30
0.0
 10
-128.955
 20
10.2378
 30
0.0
 10
-128.955
 20
10.2378
 30
0.0
 10
-128.955
 20
10.2378
 30
0.0
 10
-128.955
 20
10.2378
 30
0.0
 10
-128.955
 20
13.7241
 30
0.0
 10
-128.955
 20
13.7241
 30
0.0
 10
-128.955
 20
13.7241
 30
0.0
 10
-128.955
 20
13.7241
 30
0.0
 10
-121.9475
 20
13.7241
 30
0.0
 10
-121.9475
 20
13.7241
 30
0.0
 10
-121.9475
 20
13.7241
 30
0.0
 10
-122.1218
 20
14.8461
 30
0.0
 10
-122.3282
 20
15.8733
 30
0.0
 10
-122.7492
 20
16.9954
 30
0.0
 10
-122.7492
 20
16.9954
 30
0.0
 10
-122.7492
 20
16.9954
 30
0.0
 10
-119.4778
 20
18.3539
 30
0.0
 10
-119.4778
 20
18.3539
 30
0.0
  0
SPLINE
  5
86
330
1F
100
AcDbEntity
  8
layer 1
 62
     7
100
AcDbSpline
210
0.0
220
0.0
230
1.0
 70
    11
 71
     3
 72
    20
 73
    16
 74
     0
 42
0.0000000001
 43
0.0000000001
 12
1.0
 22
0.0
 32
0.0
 13
1.0
 23
0.0
 33
0.0
 40
0.0
 40
0.0
 40
0.0
 40
0.0
 40
0.2
 40
0.2
 40
0.2
 40
0.2
 40
0.4
 40
0.4
 40
0.4
 40
0.4
 40
0.6
 40
0.6
 40
0.6
 40
0.6
 40
1.0
 40
1.0
 40
1.0
 40
1.0
 10
-128.0349
 20
20.6964
 30
0.0
 10
-127.1711
 20
19.6283
 30
0.0
 10
-126.6164
 20
18.4953
 30
0.0
 10
-126.1823
 20
17.2099
 30
0.0
 10
-126.1823
 20
17.2099
 30
0.0
 10
-126.1823
 20
17.2099
 30
0.0
 10
-135.5663
 20
17.21
 30
0.0
 10
-135.5663
 20
17.21
 30
0.0
 10
-135.5663
 20
17.21
 30
0.0
 10
-135.5663
 20
17.21
 30
0.0
 10
-135.5663
 20
20.6964
 30
0.0
 10
-135.5663
 20
20.6964
 30
0.0
 10
-135.5663
 20
20.6964
 30
0.0
 10
-135.5663
 20
20.6964
 30
0.0
 10
-128.0349
 20
20.6964
 30
0.0
 10
-128.0349
 20
20.6964
 30
0.0
  0
SPLINE
  5
87
330
1F
100
AcDbEntity
  8
layer 1
 62
     7
100
AcDbSpline
210
0.0
220
0.0
230
1.0
 70
    11
 71
     3
 72
    20
 73
    16
 74
     0
 42
0.0000000001
 43
0.0000000001
 12
1.0
 22
0.0
 32
0.0
 13
1.0
 23
0.0
 33
0.0
 40
0.0
 40
0.0
 40
0.0
 40
0.0
 40
0.2
 40
0.2
 40
0.2
 40
0.2
 40
0.4
 40
0.4
 40
0.4
 40
0.4
 40
0.6
 40
0.6
 40
0.6
 40
0.6
 40
1.0
 40
1.0
 40
1.0
 40
1.0
 10
-120.5678
 20
21.5415
 30
0.0
 10
-121.8637
 20
24.2966
 30
0.0
 10
-123.7963
 20
27.5187
 30
0.0
 10
-126.4375
 20
30.4572
 30
0.0
 10
-126.4375
 20
30.4572
 30
0.0
 10
-126.4375
 20
30.4572
 30
0.0
 10
-128.8884
 20
28.1913
 30
0.0
 10
-128.8884
 20
28.1913
 30
0.0
 10
-128.8884
 20
28.1913
 30
0.0
 10
-126.6978
 20
25.6211
 30
0.0
 10
-125.0839
 20
23.3534
 30
0.0
 10
-123.7617
 20
20.2324
 30
0.0
 10
-123.7617
 20
20.2324
 30
0.0
 10
-123.7617
 20
20.2324
 30
0.0
 10
-120.5678
 20
21.5415
 30
0.0
 10
-120.5678
 20
21.5415
 30
0.0
  0
SPLINE
  5
88
330
1F
100
AcDbEntity
  8
layer 1
 62
     7
100
AcDbSpline
210
0.0
220
0.0
230
1.0
 70
    11
 71
     3
 72
    28
 73
    24
 74
     0
 42
0.0000000001
 43
0.0000000001
 12
1.0
 22
0.0
 32
0.0
 13
1.0
 23
0.0
 33
0.0
 40
0.0
 40
0.0
 40
0.0
 40
0.0
 40
0.1428571428571428
 40
0.1428571428571428
 40
0.1428571428571428
 40
0.1428571428571428
 40
0.2857142857142857
 40
0.2857142857142857
 40
0.2857142857142857
 40
0.2857142857142857
 40
0.4285714285714285
 40
0.4285714285714285
 40
0.4285714285714285
 40
0.4285714285714285
 40
0.5714285714285714
 40
0.5714285714285714
 40
0.5714285714285714
 40
0.5714285714285714
 40
0.7142857142857143
 40
0.7142857142857143
 40
0.7142857142857143
 40
0.7142857142857143
 40
1.0
 40
1.0
 40
1.0
 40
1.0
 10
-160.4981
 20
-22.5751
 30
0.0
 10
-157.6995
 20
-23.3574
 30
0.0
 10
-155.148
 20
-23.7081
 30
0.0
 10
-152.3797
 20
-23.9033
 30
0.0
 10
-152.3797
 20
-23.9033
 30
0.0
 10
-152.3797
 20
-23.9033
 30
0.0
 10
-152.3795
 20
-13.1003
 30
0.0
 10
-152.3795
 20
-13.1003
 30
0.0
 10
-152.3795
 20
-13.1003
 30
0.0
 10
-152.3795
 20
-13.1003
 30
0.0
 10
-155.866
 20
-13.1003
 30
0.0
 10
-155.866
 20
-13.1003
 30
0.0
 10
-155.866
 20
-13.1003
 30
0.0
 10
-155.866
 20
-13.1003
 30
0.0
 10
-155.866
 20
-20.1077
 30
0.0
 10
-155.866
 20
-20.1077
 30
0.0
 10
-155.866
 20
-20.1077
 30
0.0
 10
-156.9879
 20
-19.9333
 30
0.0
 10
-158.0176
 20
-19.7269
 30
0.0
 10
-159.1395
 20
-19.3061
 30
0.0
 10
-159.1395
 20
-19.3061
 30
0.0
 10
-159.1395
 20
-19.3061
 30
0.0
 10
-160.4981
 20
-22.5751
 30
0.0
 10
-160.4981
 20
-22.5751
 30
0.0
  0
SPLINE
  5
89
330
1F
100
AcDbEntity
  8
layer 1
 62
     7
100
AcDbSpline
210
0.0
220
0.0
230
1.0
 70
    11
 71
     3
 72
    20
 73
    16
 74
     0
 42
0.0000000001
 43
0.0000000001
 12
1.0
 22
0.0
 32
0.0
 13
1.0
 23
0.0
 33
0.0
 40
0.0
 40
0.0
 40
0.0
 40
0.0
 40
0.2
 40
0.2
 40
0.2
 40
0.2
 40
0.4
 40
0.4
 40
0.4
 40
0.4
 40
0.6
 40
0.6
 40
0.6
 40
0.6
 40
1.0
 40
1.0
 40
1.0
 40
1.0
 10
-155.866
 20
7.2307
 30
0.0
 10
-155.866
 20
7.2307
 30
0.0
 10
-152.3795
 20
7.2307
 30
0.0
 10
-152.3795
 20
7.2307
 30
0.0
 10
-152.3795
 20
7.2307
 30
0.0
 10
-152.3795
 20
7.2307
 30
0.0
 10
-152.3795
 20
3.7444
 30
0.0
 10
-152.3795
 20
3.7444
 30
0.0
 10
-152.3795
 20
3.7444
 30
0.0
 10
-152.3795
 20
3.7444
 30
0.0
 10
-155.866
 20
3.7444
 30
0.0
 10
-155.866
 20
3.7444
 30
0.0
 10
-155.866
 20
3.7444
 30
0.0
 10
-155.866
 20
3.7444
 30
0.0
 10
-155.866
 20
7.2307
 30
0.0
 10
-155.866
 20
7.2307
 30
0.0
  0
SPLINE
  5
8A
330
1F
100
AcDbEntity
  8
layer 1
 62
     7
100
AcDbSpline
210
0.0
220
0.0
230
1.0
 70
    11
 71
     3
 72
    20
 73
    16
 74
     0
 42
0.0000000001
 43
0.0000000001
 12
1.0
 22
0.0
 32
0.0
 13
1.0
 23
0.0
 33
0.0
 40
0.0
 40
0.0
 40
0.0
 40
0.0
 40
0.2
 40
0.2
 40
0.2
 40
0.2
 40
0.4
 40
0.4
 40
0.4
 40
0.4
 40
0.6
 40
0.6
 40
0.6
 40
0.6
 40
1.0
 40
1.0
 40
1.0
 40
1.0
 10
-162.686
 20
0.2794
 30
0.0
 10
-162.686
 20
0.2794
 30
0.0
 10
-159.2017
 20
0.2794
 30
0.0
 10
-159.2017
 20
0.2794
 30
0.0
 10
-159.2017
 20
0.2794
 30
0.0
 10
-159.2017
 20
0.2794
 30
0.0
 10
-159.2017
 20
-3.2046
 30
0.0
 10
-159.2017
 20
-3.2046
 30
0.0
 10
-159.2017
 20
-3.2046
 30
0.0
 10
-159.2017
 20
-3.2046
 30
0.0
 10
-162.6859
 20
-3.2046
 30
0.0
 10
-162.6859
 20
-3.2046
 30
0.0
 10
-162.6859
 20
-3.2046
 30
0.0
 10
-162.6859
 20
-3.2046
 30
0.0
 10
-162.686
 20
0.2794
 30
0.0
 10
-162.686
 20
0.2794
 30
0.0
  0
SPLINE
  5
8B
330
1F
100
AcDbEntity
  8
layer 1
 62
     7
100
AcDbSpline
210
0.0
220
0.0
230
1.0
 70
    11
 71
     3
 72
    20
 73
    16
 74
     0
 42
0.0000000001
 43
0.0000000001
 12
1.0
 22
0.0
 32
0.0
 13
1.0
 23
0.0
 33
0.0
 40
0.0
 40
0.0
 40
0.0
 40
0.0
 40
0.2
 40
0.2
 40
0.2
 40
0.2
 40
0.4
 40
0.4
 40
0.4
 40
0.4
 40
0.6
 40
0.6
 40
0.6
 40
0.6
 40
1.0
 40
1.0
 40
1.0
 40
1.0
 10
-155.866
 20
0.2794
 30
0.0
 10
-155.866
 20
0.2794
 30
0.0
 10
-152.3795
 20
0.2794
 30
0.0
 10
-152.3795
 20
0.2794
 30
0.0
 10
-152.3795
 20
0.2794
 30
0.0
 10
-152.3795
 20
0.2794
 30
0.0
 10
-152.3795
 20
-9.844
 30
0.0
 10
-152.3795
 20
-9.844
 30
0.0
 10
-152.3795
 20
-9.844
 30
0.0
 10
-152.3795
 20
-9.844
 30
0.0
 10
-155.866
 20
-9.844
 30
0.0
 10
-155.866
 20
-9.844
 30
0.0
 10
-155.866
 20
-9.844
 30
0.0
 10
-155.866
 20
-9.844
 30
0.0
 10
-155.866
 20
0.2794
 30
0.0
 10
-155.866
 20
0.2794
 30
0.0
  0
SPLINE
  5
8C
330
1F
100
AcDbEntity
  8
layer 1
 62
     7
100
AcDbSpline
210
0.0
220
0.0
230
1.0
 70
    11
 71
     3
 72
    20
 73
    16
 74
     0
 42
0.0000000001
 43
0.0000000001
 12
1.0
 22
0.0
 32
0.0
 13
1.0
 23
0.0
 33
0.0
 40
0.0
 40
0.0
 40
0.0
 40
0.0
 40
0.2
 40
0.2
 40
0.2
 40
0.2
 40
0.4
 40
0.4
 40
0.4
 40
0.4
 40
0.6
 40
0.6
 40
0.6
 40
0.6
 40
1.0
 40
1.0
 40
1.0
 40
1.0
 10
-162.686
 20
-13.9841
 30
0.0
 10
-161.6179
 20
-14.848
 30
0.0
 10
-160.4872
 20
-15.4049
 30
0.0
 10
-159.2017
 20
-15.8368
 30
0.0
 10
-159.2017
 20
-15.8368
 30
0.0
 10
-159.2017
 20
-15.8368
 30
0.0
 10
-159.2017
 20
-6.4545
 30
0.0
 10
-159.2017
 20
-6.4545
 30
0.0
 10
-159.2017
 20
-6.4545
 30
0.0
 10
-159.2017
 20
-6.4545
 30
0.0
 10
-162.686
 20
-6.4545
 30
0.0
 10
-162.686
 20
-6.4545
 30
0.0
 10
-162.686
 20
-6.4545
 30
0.0
 10
-162.686
 20
-6.4545
 30
0.0
 10
-162.686
 20
-13.9841
 30
0.0
 10
-162.686
 20
-13.9841
 30
0.0
  0
SPLINE
  5
8D
330
1F
100
AcDbEntity
  8
layer 1
 62
     7
100
AcDbSpline
210
0.0
220
0.0
230
1.0
 70
    11
 71
     3
 72
    20
 73
    16
 74
     0
 42
0.0000000001
 43
0.0000000001
 12
1.0
 22
0.0
 32
0.0
 13
1.0
 23
0.0
 33
0.0
 40
0.0
 40
0.0
 40
0.0
 40
0.0
 40
0.2
 40
0.2
 40
0.2
 40
0.2
 40
0.4
 40
0.4
 40
0.4
 40
0.4
 40
0.6
 40
0.6
 40
0.6
 40
0.6
 40
1.0
 40
1.0
 40
1.0
 40
1.0
 10
-171.5765
 20
-6.4506
 30
0.0
 10
-170.3682
 20
-8.432
 30
0.0
 10
-168.4038
 20
-10.4851
 30
0.0
 10
-166.0223
 20
-12.0087
 30
0.0
 10
-166.0223
 20
-12.0087
 30
0.0
 10
-166.0223
 20
-12.0087
 30
0.0
 10
-166.0223
 20
-6.4545
 30
0.0
 10
-166.0223
 20
-6.4545
 30
0.0
 10
-166.0223
 20
-6.4545
 30
0.0
 10
-166.0223
 20
-6.4545
 30
0.0
 10
-169.5064
 20
-6.4545
 30
0.0
 10
-169.5064
 20
-6.4545
 30
0.0
 10
-169.5064
 20
-6.4545
 30
0.0
 10
-169.5064
 20
-6.4545
 30
0.0
 10
-171.5765
 20
-6.4506
 30
0.0
 10
-171.5765
 20
-6.4506
 30
0.0
  0
SPLINE
  5
8E
330
1F
100
AcDbEntity
  8
layer 1
 62
     7
100
AcDbSpline
210
0.0
220
0.0
230
1.0
 70
    11
 71
     3
 72
    20
 73
    16
 74
     0
 42
0.0000000001
 43
0.0000000001
 12
1.0
 22
0.0
 32
0.0
 13
1.0
 23
0.0
 33
0.0
 40
0.0
 40
0.0
 40
0.0
 40
0.0
 40
0.2
 40
0.2
 40
0.2
 40
0.2
 40
0.4
 40
0.4
 40
0.4
 40
0.4
 40
0.6
 40
0.6
 40
0.6
 40
0.6
 40
1.0
 40
1.0
 40
1.0
 40
1.0
 10
-172.7089
 20
-15.5512
 30
0.0
 10
-170.3747
 20
-17.5066
 30
0.0
 10
-167.267
 20
-19.6174
 30
0.0
 10
-163.6362
 20
-21.1714
 30
0.0
 10
-163.6362
 20
-21.1714
 30
0.0
 10
-163.6362
 20
-21.1714
 30
0.0
 10
-162.3656
 20
-18.085
 30
0.0
 10
-162.3656
 20
-18.085
 30
0.0
 10
-162.3656
 20
-18.085
 30
0.0
 10
-165.4334
 20
-16.6753
 30
0.0
 10
-167.8513
 20
-15.2976
 30
0.0
 10
-170.3643
 20
-13.0211
 30
0.0
 10
-170.3643
 20
-13.0211
 30
0.0
 10
-170.3643
 20
-13.0211
 30
0.0
 10
-172.7089
 20
-15.5512
 30
0.0
 10
-172.7089
 20
-15.5512
 30
0.0
  0
SPLINE
  5
8F
330
1F
100
AcDbEntity
  8
layer 1
 62
     7
100
AcDbSpline
210
0.0
220
0.0
230
1.0
 70
    11
 71
     3
 72
    20
 73
    16
 74
     0
 42
0.0000000001
 43
0.0000000001
 12
1.0
 22
0.0
 32
0.0
 13
1.0
 23
0.0
 33
0.0
 40
0.0
 40
0.0
 40
0.0
 40
0.0
 40
0.2
 40
0.2
 40
0.2
 40
0.2
 40
0.4
 40
0.4
 40
0.4
 40
0.4
 40
0.6
 40
0.6
 40
0.6
 40
0.6
 40
1.0
 40
1.0
 40
1.0
 40
1.0
 10
-169.3128
 20
7.2114
 30
0.0
 10
-169.3128
 20
7.2114
 30
0.0
 10
-169.3128
 20
3.7272
 30
0.0
 10
-169.3128
 20
3.7272
 30
0.0
 10
-169.3128
 20
3.7272
 30
0.0
 10
-169.3128
 20
3.7272
 30
0.0
 10
-159.1891
 20
3.7272
 30
0.0
 10
-159.1891
 20
3.7272
 30
0.0
 10
-159.1891
 20
3.7272
 30
0.0
 10
-159.1891
 20
3.7272
 30
0.0
 10
-159.1891
 20
7.2114
 30
0.0
 10
-159.1891
 20
7.2114
 30
0.0
 10
-159.1891
 20
7.2114
 30
0.0
 10
-159.1891
 20
7.2114
 30
0.0
 10
-169.3128
 20
7.2114
 30
0.0
 10
-169.3128
 20
7.2114
 30
0.0
  0
SPLINE
  5
90
330
1F
100
AcDbEntity
  8
layer 1
 62
     7
100
AcDbSpline
210
0.0
220
0.0
230
1.0
 70
    11
 71
     3
 72
    28
 73
    24
 74
     0
 42
0.0000000001
 43
0.0000000001
 12
1.0
 22
0.0
 32
0.0
 13
1.0
 23
0.0
 33
0.0
 40
0.0
 40
0.0
 40
0.0
 40
0.0
 40
0.1428571428571428
 40
0.1428571428571428
 40
0.1428571428571428
 40
0.1428571428571428
 40
0.2857142857142857
 40
0.2857142857142857
 40
0.2857142857142857
 40
0.2857142857142857
 40
0.4285714285714285
 40
0.4285714285714285
 40
0.4285714285714285
 40
0.4285714285714285
 40
0.5714285714285714
 40
0.5714285714285714
 40
0.5714285714285714
 40
0.5714285714285714
 40
0.7142857142857143
 40
0.7142857142857143
 40
0.7142857142857143
 40
0.7142857142857143
 40
1.0
 40
1.0
 40
1.0
 40
1.0
 10
-182.1284
 20
-0.8513
 30
0.0
 10
-182.9103
 20
1.9472
 30
0.0
 10
-183.2608
 20
4.4987
 30
0.0
 10
-183.4567
 20
7.2669
 30
0.0
 10
-183.4567
 20
7.2669
 30
0.0
 10
-183.4567
 20
7.2669
 30
0.0
 10
-172.6534
 20
7.2671
 30
0.0
 10
-172.6534
 20
7.2671
 30
0.0
 10
-172.6534
 20
7.2671
 30
0.0
 10
-172.6534
 20
7.2671
 30
0.0
 10
-172.6534
 20
3.7807
 30
0.0
 10
-172.6534
 20
3.7807
 30
0.0
 10
-172.6534
 20
3.7807
 30
0.0
 10
-172.6534
 20
3.7807
 30
0.0
 10
-179.6603
 20
3.7807
 30
0.0
 10
-179.6603
 20
3.7807
 30
0.0
 10
-179.6603
 20
3.7807
 30
0.0
 10
-179.4866
 20
2.6588
 30
0.0
 10
-179.2802
 20
1.6292
 30
0.0
 10
-178.8566
 20
0.5073
 30
0.0
 10
-178.8566
 20
0.5073
 30
0.0
 10
-178.8566
 20
0.5073
 30
0.0
 10
-182.1284
 20
-0.8513
 30
0.0
 10
-182.1284
 20
-0.8513
 30
0.0
  0
SPLINE
  5
91
330
1F
100
AcDbEntity
  8
layer 1
 62
     7
100
AcDbSpline
210
0.0
220
0.0
230
1.0
 70
    11
 71
     3
 72
    20
 73
    16
 74
     0
 42
0.0000000001
 43
0.0000000001
 12
1.0
 22
0.0
 32
0.0
 13
1.0
 23
0.0
 33
0.0
 40
0.0
 40
0.0
 40
0.0
 40
0.0
 40
0.2
 40
0.2
 40
0.2
 40
0.2
 40
0.4
 40
0.4
 40
0.4
 40
0.4
 40
0.6
 40
0.6
 40
0.6
 40
0.6
 40
1.0
 40
1.0
 40
1.0
 40
1.0
 10
-173.5712
 20
-3.192
 30
0.0
 10
-174.4352
 20
-2.1234
 30
0.0
 10
-174.992
 20
-0.9934
 30
0.0
 10
-175.4239
 20
0.292
 30
0.0
 10
-175.4239
 20
0.292
 30
0.0
 10
-175.4239
 20
0.292
 30
0.0
 10
-166.0414
 20
0.2922
 30
0.0
 10
-166.0414
 20
0.2922
 30
0.0
 10
-166.0414
 20
0.2922
 30
0.0
 10
-166.0414
 20
0.2922
 30
0.0
 10
-166.0414
 20
-3.192
 30
0.0
 10
-166.0414
 20
-3.192
 30
0.0
 10
-166.0414
 20
-3.192
 30
0.0
 10
-166.0414
 20
-3.192
 30
0.0
 10
-173.5712
 20
-3.192
 30
0.0
 10
-173.5712
 20
-3.192
 30
0.0
  0
SPLINE
  5
92
330
1F
100
AcDbEntity
  8
layer 1
 62
     7
100
AcDbSpline
210
0.0
220
0.0
230
1.0
 70
    11
 71
     3
 72
    20
 73
    16
 74
     0
 42
0.0000000001
 43
0.0000000001
 12
1.0
 22
0.0
 32
0.0
 13
1.0
 23
0.0
 33
0.0
 40
0.0
 40
0.0
 40
0.0
 40
0.0
 40
0.2
 40
0.2
 40
0.2
 40
0.2
 40
0.4
 40
0.4
 40
0.4
 40
0.4
 40
0.6
 40
0.6
 40
0.6
 40
0.6
 40
1.0
 40
1.0
 40
1.0
 40
1.0
 10
-181.0382
 20
-4.0366
 30
0.0
 10
-179.7424
 20
-6.7946
 30
0.0
 10
-177.8099
 20
-10.0141
 30
0.0
 10
-175.1681
 20
-12.9523
 30
0.0
 10
-175.1681
 20
-12.9523
 30
0.0
 10
-175.1681
 20
-12.9523
 30
0.0
 10
-172.72
 20
-10.6869
 30
0.0
 10
-172.72
 20
-10.6869
 30
0.0
 10
-172.72
 20
-10.6869
 30
0.0
 10
-174.9078
 20
-8.1185
 30
0.0
 10
-176.5245
 20
-5.8487
 30
0.0
 10
-177.8463
 20
-2.7299
 30
0.0
 10
-177.8463
 20
-2.7299
 30
0.0
 10
-177.8463
 20
-2.7299
 30
0.0
 10
-181.0382
 20
-4.0366
 30
0.0
 10
-181.0382
 20
-4.0366
 30
0.0
  0
SPLINE
  5
93
330
1F
100
AcDbEntity
  8
layer 1
 62
     7
100
AcDbSpline
210
0.0
220
0.0
230
1.0
 70
    11
 71
     3
 72
    20
 73
    16
 74
     0
 42
0.0000000001
 43
0.0000000001
 12
1.0
 22
0.0
 32
0.0
 13
1.0
 23
0.0
 33
0.0
 40
0.0
 40
0.0
 40
0.0
 40
0.0
 40
0.2
 40
0.2
 40
0.2
 40
0.2
 40
0.4
 40
0.4
 40
0.4
 40
0.4
 40
0.6
 40
0.6
 40
0.6
 40
0.6
 40
1.0
 40
1.0
 40
1.0
 40
1.0
 10
-149.2265
 20
7.2307
 30
0.0
 10
-149.2265
 20
7.2307
 30
0.0
 10
-145.7423
 20
7.2307
 30
0.0
 10
-145.7423
 20
7.2307
 30
0.0
 10
-145.7423
 20
7.2307
 30
0.0
 10
-145.7423
 20
7.2307
 30
0.0
 10
-145.7423
 20
3.7444
 30
0.0
 10
-145.7423
 20
3.7444
 30
0.0
 10
-145.7423
 20
3.7444
 30
0.0
 10
-145.7423
 20
3.7444
 30
0.0
 10
-149.2265
 20
3.7444
 30
0.0
 10
-149.2265
 20
3.7444
 30
0.0
 10
-149.2265
 20
3.7444
 30
0.0
 10
-149.2265
 20
3.7444
 30
0.0
 10
-149.2265
 20
7.2307
 30
0.0
 10
-149.2265
 20
7.2307
 30
0.0
  0
SPLINE
  5
94
330
1F
100
AcDbEntity
  8
layer 1
 62
     7
100
AcDbSpline
210
0.0
220
0.0
230
1.0
 70
    11
 71
     3
 72
    20
 73
    16
 74
     0
 42
0.0000000001
 43
0.0000000001
 12
1.0
 22
0.0
 32
0.0
 13
1.0
 23
0.0
 33
0.0
 40
0.0
 40
0.0
 40
0.0
 40
0.0
 40
0.2
 40
0.2
 40
0.2
 40
0.2
 40
0.4
 40
0.4
 40
0.4
 40
0.4
 40
0.6
 40
0.6
 40
0.6
 40
0.6
 40
1.0
 40
1.0
 40
1.0
 40
1.0
 10
-142.406
 20
0.2794
 30
0.0
 10
-142.406
 20
0.2794
 30
0.0
 10
-138.9196
 20
0.2794
 30
0.0
 10
-138.9196
 20
0.2794
 30
0.0
 10
-138.9196
 20
0.2794
 30
0.0
 10
-138.9196
 20
0.2794
 30
0.0
 10
-138.9196
 20
-3.2046
 30
0.0
 10
-138.9196
 20
-3.2046
 30
0.0
 10
-138.9196
 20
-3.2046
 30
0.0
 10
-138.9196
 20
-3.2046
 30
0.0
 10
-142.406
 20
-3.2046
 30
0.0
 10
-142.406
 20
-3.2046
 30
0.0
 10
-142.406
 20
-3.2046
 30
0.0
 10
-142.406
 20
-3.2046
 30
0.0
 10
-142.406
 20
0.2794
 30
0.0
 10
-142.406
 20
0.2794
 30
0.0
  0
SPLINE
  5
95
330
1F
100
AcDbEntity
  8
layer 1
 62
     7
100
AcDbSpline
210
0.0
220
0.0
230
1.0
 70
    11
 71
     3
 72
    20
 73
    16
 74
     0
 42
0.0000000001
 43
0.0000000001
 12
1.0
 22
0.0
 32
0.0
 13
1.0
 23
0.0
 33
0.0
 40
0.0
 40
0.0
 40
0.0
 40
0.0
 40
0.2
 40
0.2
 40
0.2
 40
0.2
 40
0.4
 40
0.4
 40
0.4
 40
0.4
 40
0.6
 40
0.6
 40
0.6
 40
0.6
 40
1.0
 40
1.0
 40
1.0
 40
1.0
 10
-149.2265
 20
0.2794
 30
0.0
 10
-149.2265
 20
0.2794
 30
0.0
 10
-145.7423
 20
0.2794
 30
0.0
 10
-145.7423
 20
0.2794
 30
0.0
 10
-145.7423
 20
0.2794
 30
0.0
 10
-145.7423
 20
0.2794
 30
0.0
 10
-145.7423
 20
-9.844
 30
0.0
 10
-145.7423
 20
-9.844
 30
0.0
 10
-145.7423
 20
-9.844
 30
0.0
 10
-145.7423
 20
-9.844
 30
0.0
 10
-149.2265
 20
-9.844
 30
0.0
 10
-149.2265
 20
-9.844
 30
0.0
 10
-149.2265
 20
-9.844
 30
0.0
 10
-149.2265
 20
-9.844
 30
0.0
 10
-149.2265
 20
0.2794
 30
0.0
 10
-149.2265
 20
0.2794
 30
0.0
  0
SPLINE
  5
96
330
1F
100
AcDbEntity
  8
layer 1
 62
     7
100
AcDbSpline
210
0.0
220
0.0
230
1.0
 70
    11
 71
     3
 72
    20
 73
    16
 74
     0
 42
0.0000000001
 43
0.0000000001
 12
1.0
 22
0.0
 32
0.0
 13
1.0
 23
0.0
 33
0.0
 40
0.0
 40
0.0
 40
0.0
 40
0.0
 40
0.2
 40
0.2
 40
0.2
 40
0.2
 40
0.4
 40
0.4
 40
0.4
 40
0.4
 40
0.6
 40
0.6
 40
0.6
 40
0.6
 40
1.0
 40
1.0
 40
1.0
 40
1.0
 10
-138.9196
 20
-13.9841
 30
0.0
 10
-139.9899
 20
-14.848
 30
0.0
 10
-141.1208
 20
-15.4049
 30
0.0
 10
-142.4062
 20
-15.8368
 30
0.0
 10
-142.4062
 20
-15.8368
 30
0.0
 10
-142.4062
 20
-15.8368
 30
0.0
 10
-142.406
 20
-6.4545
 30
0.0
 10
-142.406
 20
-6.4545
 30
0.0
 10
-142.406
 20
-6.4545
 30
0.0
 10
-142.406
 20
-6.4545
 30
0.0
 10
-138.9196
 20
-6.4545
 30
0.0
 10
-138.9196
 20
-6.4545
 30
0.0
 10
-138.9196
 20
-6.4545
 30
0.0
 10
-138.9196
 20
-6.4545
 30
0.0
 10
-138.9196
 20
-13.9841
 30
0.0
 10
-138.9196
 20
-13.9841
 30
0.0
  0
SPLINE
  5
97
330
1F
100
AcDbEntity
  8
layer 1
 62
     7
100
AcDbSpline
210
0.0
220
0.0
230
1.0
 70
    11
 71
     3
 72
    20
 73
    16
 74
     0
 42
0.0000000001
 43
0.0000000001
 12
1.0
 22
0.0
 32
0.0
 13
1.0
 23
0.0
 33
0.0
 40
0.0
 40
0.0
 40
0.0
 40
0.0
 40
0.2
 40
0.2
 40
0.2
 40
0.2
 40
0.4
 40
0.4
 40
0.4
 40
0.4
 40
0.6
 40
0.6
 40
0.6
 40
0.6
 40
1.0
 40
1.0
 40
1.0
 40
1.0
 10
-130.0319
 20
-6.4506
 30
0.0
 10
-131.2396
 20
-8.432
 30
0.0
 10
-133.2042
 20
-10.4851
 30
0.0
 10
-135.5857
 20
-12.0087
 30
0.0
 10
-135.5857
 20
-12.0087
 30
0.0
 10
-135.5857
 20
-12.0087
 30
0.0
 10
-135.5857
 20
-6.4545
 30
0.0
 10
-135.5857
 20
-6.4545
 30
0.0
 10
-135.5857
 20
-6.4545
 30
0.0
 10
-135.5857
 20
-6.4545
 30
0.0
 10
-132.0997
 20
-6.4545
 30
0.0
 10
-132.0997
 20
-6.4545
 30
0.0
 10
-132.0997
 20
-6.4545
 30
0.0
 10
-132.0997
 20
-6.4545
 30
0.0
 10
-130.0319
 20
-6.4506
 30
0.0
 10
-130.0319
 20
-6.4506
 30
0.0
  0
SPLINE
  5
98
330
1F
100
AcDbEntity
  8
layer 1
 62
     7
100
AcDbSpline
210
0.0
220
0.0
230
1.0
 70
    11
 71
     3
 72
    28
 73
    24
 74
     0
 42
0.0000000001
 43
0.0000000001
 12
1.0
 22
0.0
 32
0.0
 13
1.0
 23
0.0
 33
0.0
 40
0.0
 40
0.0
 40
0.0
 40
0.0
 40
0.1428571428571428
 40
0.1428571428571428
 40
0.1428571428571428
 40
0.1428571428571428
 40
0.2857142857142857
 40
0.2857142857142857
 40
0.2857142857142857
 40
0.2857142857142857
 40
0.4285714285714285
 40
0.4285714285714285
 40
0.4285714285714285
 40
0.4285714285714285
 40
0.5714285714285714
 40
0.5714285714285714
 40
0.5714285714285714
 40
0.5714285714285714
 40
0.7142857142857143
 40
0.7142857142857143
 40
0.7142857142857143
 40
0.7142857142857143
 40
1.0
 40
1.0
 40
1.0
 40
1.0
 10
-141.1102
 20
-22.5751
 30
0.0
 10
-143.9083
 20
-23.3574
 30
0.0
 10
-146.4599
 20
-23.7081
 30
0.0
 10
-149.2265
 20
-23.9033
 30
0.0
 10
-149.2265
 20
-23.9033
 30
0.0
 10
-149.2265
 20
-23.9033
 30
0.0
 10
-149.2265
 20
-13.1003
 30
0.0
 10
-149.2265
 20
-13.1003
 30
0.0
 10
-149.2265
 20
-13.1003
 30
0.0
 10
-149.2265
 20
-13.1003
 30
0.0
 10
-145.7424
 20
-13.1003
 30
0.0
 10
-145.7424
 20
-13.1003
 30
0.0
 10
-145.7424
 20
-13.1003
 30
0.0
 10
-145.7424
 20
-13.1003
 30
0.0
 10
-145.7424
 20
-20.1077
 30
0.0
 10
-145.7424
 20
-20.1077
 30
0.0
 10
-145.7424
 20
-20.1077
 30
0.0
 10
-144.6199
 20
-19.9333
 30
0.0
 10
-143.5902
 20
-19.7269
 30
0.0
 10
-142.4683
 20
-19.3061
 30
0.0
 10
-142.4683
 20
-19.3061
 30
0.0
 10
-142.4683
 20
-19.3061
 30
0.0
 10
-141.1102
 20
-22.5751
 30
0.0
 10
-141.1102
 20
-22.5751
 30
0.0
  0
SPLINE
  5
99
330
1F
100
AcDbEntity
  8
layer 1
 62
     7
100
AcDbSpline
210
0.0
220
0.0
230
1.0
 70
    11
 71
     3
 72
    20
 73
    16
 74
     0
 42
0.0000000001
 43
0.0000000001
 12
1.0
 22
0.0
 32
0.0
 13
1.0
 23
0.0
 33
0.0
 40
0.0
 40
0.0
 40
0.0
 40
0.0
 40
0.2
 40
0.2
 40
0.2
 40
0.2
 40
0.4
 40
0.4
 40
0.4
 40
0.4
 40
0.6
 40
0.6
 40
0.6
 40
0.6
 40
1.0
 40
1.0
 40
1.0
 40
1.0
 10
-128.8967
 20
-15.5512
 30
0.0
 10
-131.2331
 20
-17.5066
 30
0.0
 10
-134.3392
 20
-19.6174
 30
0.0
 10
-137.9715
 20
-21.1714
 30
0.0
 10
-137.9715
 20
-21.1714
 30
0.0
 10
-137.9715
 20
-21.1714
 30
0.0
 10
-139.2421
 20
-18.085
 30
0.0
 10
-139.2421
 20
-18.085
 30
0.0
 10
-139.2421
 20
-18.085
 30
0.0
 10
-136.175
 20
-16.6753
 30
0.0
 10
-133.7543
 20
-15.2976
 30
0.0
 10
-131.2441
 20
-13.0211
 30
0.0
 10
-131.2441
 20
-13.0211
 30
0.0
 10
-131.2441
 20
-13.0211
 30
0.0
 10
-128.8967
 20
-15.5512
 30
0.0
 10
-128.8967
 20
-15.5512
 30
0.0
  0
SPLINE
  5
9A
330
1F
100
AcDbEntity
  8
layer 1
 62
     7
100
AcDbSpline
210
0.0
220
0.0
230
1.0
 70
    11
 71
     3
 72
    20
 73
    16
 74
     0
 42
0.0000000001
 43
0.0000000001
 12
1.0
 22
0.0
 32
0.0
 13
1.0
 23
0.0
 33
0.0
 40
0.0
 40
0.0
 40
0.0
 40
0.0
 40
0.2
 40
0.2
 40
0.2
 40
0.2
 40
0.4
 40
0.4
 40
0.4
 40
0.4
 40
0.6
 40
0.6
 40
0.6
 40
0.6
 40
1.0
 40
1.0
 40
1.0
 40
1.0
 10
-132.2928
 20
7.2114
 30
0.0
 10
-132.2928
 20
7.2114
 30
0.0
 10
-132.2928
 20
3.7272
 30
0.0
 10
-132.2928
 20
3.7272
 30
0.0
 10
-132.2928
 20
3.7272
 30
0.0
 10
-132.2928
 20
3.7272
 30
0.0
 10
-142.4171
 20
3.7272
 30
0.0
 10
-142.4171
 20
3.7272
 30
0.0
 10
-142.4171
 20
3.7272
 30
0.0
 10
-142.4171
 20
3.7272
 30
0.0
 10
-142.4171
 20
7.2114
 30
0.0
 10
-142.4171
 20
7.2114
 30
0.0
 10
-142.4171
 20
7.2114
 30
0.0
 10
-142.4171
 20
7.2114
 30
0.0
 10
-132.2928
 20
7.2114
 30
0.0
 10
-132.2928
 20
7.2114
 30
0.0
  0
SPLINE
  5
9B
330
1F
100
AcDbEntity
  8
layer 1
 62
     7
100
AcDbSpline
210
0.0
220
0.0
230
1.0
 70
    11
 71
     3
 72
    28
 73
    24
 74
     0
 42
0.0000000001
 43
0.0000000001
 12
1.0
 22
0.0
 32
0.0
 13
1.0
 23
0.0
 33
0.0
 40
0.0
 40
0.0
 40
0.0
 40
0.0
 40
0.1428571428571428
 40
0.1428571428571428
 40
0.1428571428571428
 40
0.1428571428571428
 40
0.2857142857142857
 40
0.2857142857142857
 40
0.2857142857142857
 40
0.2857142857142857
 40
0.4285714285714285
 40
0.4285714285714285
 40
0.4285714285714285
 40
0.4285714285714285
 40
0.5714285714285714
 40
0.5714285714285714
 40
0.5714285714285714
 40
0.5714285714285714
 40
0.7142857142857143
 40
0.7142857142857143
 40
0.7142857142857143
 40
0.7142857142857143
 40
1.0
 40
1.0
 40
1.0
 40
1.0
 10
-119.4778
 20
-0.8513
 30
0.0
 10
-118.6953
 20
1.9472
 30
0.0
 10
-118.3471
 20
4.4987
 30
0.0
 10
-118.1517
 20
7.2669
 30
0.0
 10
-118.1517
 20
7.2669
 30
0.0
 10
-118.1517
 20
7.2669
 30
0.0
 10
-128.955
 20
7.2671
 30
0.0
 10
-128.955
 20
7.2671
 30
0.0
 10
-128.955
 20
7.2671
 30
0.0
 10
-128.955
 20
7.2671
 30
0.0
 10
-128.955
 20
3.7807
 30
0.0
 10
-128.955
 20
3.7807
 30
0.0
 10
-128.955
 20
3.7807
 30
0.0
 10
-128.955
 20
3.7807
 30
0.0
 10
-121.9475
 20
3.7807
 30
0.0
 10
-121.9475
 20
3.7807
 30
0.0
 10
-121.9475
 20
3.7807
 30
0.0
 10
-122.1218
 20
2.6588
 30
0.0
 10
-122.3282
 20
1.6292
 30
0.0
 10
-122.7492
 20
0.5073
 30
0.0
 10
-122.7492
 20
0.5073
 30
0.0
 10
-122.7492
 20
0.5073
 30
0.0
 10
-119.4778
 20
-0.8513
 30
0.0
 10
-119.4778
 20
-0.8513
 30
0.0
  0
SPLINE
  5
9C
330
1F
100
AcDbEntity
  8
layer 1
 62
     7
100
AcDbSpline
210
0.0
220
0.0
230
1.0
 70
    11
 71
     3
 72
    20
 73
    16
 74
     0
 42
0.0000000001
 43
0.0000000001
 12
1.0
 22
0.0
 32
0.0
 13
1.0
 23
0.0
 33
0.0
 40
0.0
 40
0.0
 40
0.0
 40
0.0
 40
0.2
 40
0.2
 40
0.2
 40
0.2
 40
0.4
 40
0.4
 40
0.4
 40
0.4
 40
0.6
 40
0.6
 40
0.6
 40
0.6
 40
1.0
 40
1.0
 40
1.0
 40
1.0
 10
-128.0349
 20
-3.192
 30
0.0
 10
-127.1711
 20
-2.1234
 30
0.0
 10
-126.6164
 20
-0.9934
 30
0.0
 10
-126.1823
 20
0.292
 30
0.0
 10
-126.1823
 20
0.292
 30
0.0
 10
-126.1823
 20
0.292
 30
0.0
 10
-135.5663
 20
0.2922
 30
0.0
 10
-135.5663
 20
0.2922
 30
0.0
 10
-135.5663
 20
0.2922
 30
0.0
 10
-135.5663
 20
0.2922
 30
0.0
 10
-135.5663
 20
-3.192
 30
0.0
 10
-135.5663
 20
-3.192
 30
0.0
 10
-135.5663
 20
-3.192
 30
0.0
 10
-135.5663
 20
-3.192
 30
0.0
 10
-128.0349
 20
-3.192
 30
0.0
 10
-128.0349
 20
-3.192
 30
0.0
  0
SPLINE
  5
9D
330
1F
100
AcDbEntity
  8
layer 1
 62
     7
100
AcDbSpline
210
0.0
220
0.0
230
1.0
 70
    11
 71
     3
 72
    20
 73
    16
 74
     0
 42
0.0000000001
 43
0.0000000001
 12
1.0
 22
0.0
 32
0.0
 13
1.0
 23
0.0
 33
0.0
 40
0.0
 40
0.0
 40
0.0
 40
0.0
 40
0.2
 40
0.2
 40
0.2
 40
0.2
 40
0.4
 40
0.4
 40
0.4
 40
0.4
 40
0.6
 40
0.6
 40
0.6
 40
0.6
 40
1.0
 40
1.0
 40
1.0
 40
1.0
 10
-120.5678
 20
-4.0366
 30
0.0
 10
-121.8637
 20
-6.7946
 30
0.0
 10
-123.7963
 20
-10.0141
 30
0.0
 10
-126.4375
 20
-12.9523
 30
0.0
 10
-126.4375
 20
-12.9523
 30
0.0
 10
-126.4375
 20
-12.9523
 30
0.0
 10
-128.8884
 20
-10.6869
 30
0.0
 10
-128.8884
 20
-10.6869
 30
0.0
 10
-128.8884
 20
-10.6869
 30
0.0
 10
-126.6978
 20
-8.1185
 30
0.0
 10
-125.0839
 20
-5.8487
 30
0.0
 10
-123.7617
 20
-2.7299
 30
0.0
 10
-123.7617
 20
-2.7299
 30
0.0
 10
-123.7617
 20
-2.7299
 30
0.0
 10
-120.5678
 20
-4.0366
 30
0.0
 10
-120.5678
 20
-4.0366
 30
0.0
  0
SPLINE
  5
9E
330
1F
100
AcDbEntity
  8
layer 1
 62
   250
100
AcDbSpline
210
0.0
220
0.0
230
1.0
 70
    11
 71
     3
 72
    20
 73
    16
 74
     0
 42
0.0000000001
 43
0.0000000001
 12
1.0
 22
0.0
 32
0.0
 13
1.0
 23
0.0
 33
0.0
 40
0.0
 40
0.0
 40
0.0
 40
0.0
 40
0.2
 40
0.2
 40
0.2
 40
0.2
 40
0.4
 40
0.4
 40
0.4
 40
0.4
 40
0.6
 40
0.6
 40
0.6
 40
0.6
 40
1.0
 40
1.0
 40
1.0
 40
1.0
 10
-36.7431
 20
8.7747
 30
0.0
 10
-36.7431
 20
-11.383
 30
0.0
 10
-53.0853
 20
-27.7254
 30
0.0
 10
-73.243
 20
-27.7254
 30
0.0
 10
-73.243
 20
-27.7254
 30
0.0
 10
-93.4029
 20
-27.7254
 30
0.0
 10
-109.743
 20
-11.3832
 30
0.0
 10
-109.743
 20
8.7746
 30
0.0
 10
-109.743
 20
8.7746
 30
0.0
 10
-109.743
 20
28.934
 30
0.0
 10
-93.4029
 20
45.2746
 30
0.0
 10
-73.243
 20
45.2746
 30
0.0
 10
-73.243
 20
45.2746
 30
0.0
 10
-53.0853
 20
45.2748
 30
0.0
 10
-36.7432
 20
28.934
 30
0.0
 10
-36.7431
 20
8.7747
 30
0.0
  0
SPLINE
  5
9F
330
1F
100
AcDbEntity
  8
layer 1
 62
     7
100
AcDbSpline
210
0.0
220
0.0
230
1.0
 70
    11
 71
     3
 72
    44
 73
    40
 74
     0
 42
0.0000000001
 43
0.0000000001
 12
1.0
 22
0.0
 32
0.0
 13
1.0
 23
0.0
 33
0.0
 40
0.0
 40
0.0
 40
0.0
 40
0.0
 40
0.0909090909090909
 40
0.0909090909090909
 40
0.0909090909090909
 40
0.0909090909090909
 40
0.1818181818181818
 40
0.1818181818181818
 40
0.1818181818181818
 40
0.1818181818181818
 40
0.2727272727272727
 40
0.2727272727272727
 40
0.2727272727272727
 40
0.2727272727272727
 40
0.3636363636363636
 40
0.3636363636363636
 40
0.3636363636363636
 40
0.3636363636363636
 40
0.4545454545454545
 40
0.4545454545454545
 40
0.4545454545454545
 40
0.4545454545454545
 40
0.5454545454545454
 40
0.5454545454545454
 40
0.5454545454545454
 40
0.5454545454545454
 40
0.6363636363636364
 40
0.6363636363636364
 40
0.6363636363636364
 40
0.6363636363636364
 40
0.7272727272727273
 40
0.7272727272727273
 40
0.7272727272727273
 40
0.7272727272727273
 40
0.8181818181818182
 40
0.8181818181818182
 40
0.8181818181818182
 40
0.8181818181818182
 40
1.0
 40
1.0
 40
1.0
 40
1.0
 10
-88.7405
 20
27.3586
 30
0.0
 10
-90.1097
 20
26.0347
 30
0.0
 10
-91.415
 20
24.6376
 30
0.0
 10
-92.9216
 20
23.296
 30
0.0
 10
-92.9216
 20
23.296
 30
0.0
 10
-92.4681
 20
22.6644
 30
0.0
 10
-91.8293
 20
22.0602
 30
0.0
 10
-90.716
 20
21.9121
 30
0.0
 10
-90.716
 20
21.9121
 30
0.0
 10
-90.716
 20
21.9121
 30
0.0
 10
-90.9054
 20
19.2015
 30
0.0
 10
-90.9054
 20
19.2015
 30
0.0
 10
-90.9054
 20
19.2015
 30
0.0
 10
-90.9054
 20
19.2015
 30
0.0
 10
-98.2046
 20
19.1993
 30
0.0
 10
-98.2046
 20
19.1993
 30
0.0
 10
-98.2046
 20
19.1993
 30
0.0
 10
-94.6862
 20
26.432
 30
0.0
 10
-90.8129
 20
30.2948
 30
0.0
 10
-83.7625
 20
33.6245
 30
0.0
 10
-83.7625
 20
33.6245
 30
0.0
 10
-83.7625
 20
33.6245
 30
0.0
 10
-83.7625
 20
12.3211
 30
0.0
 10
-83.7625
 20
12.3211
 30
0.0
 10
-83.7625
 20
12.3211
 30
0.0
 10
-83.7625
 20
12.3211
 30
0.0
 10
-92.9837
 20
12.3211
 30
0.0
 10
-92.9837
 20
12.3211
 30
0.0
 10
-92.9837
 20
12.3211
 30
0.0
 10
-92.9837
 20
12.3211
 30
0.0
 10
-92.9837
 20
17.1056
 30
0.0
 10
-92.9837
 20
17.1056
 30
0.0
 10
-92.9837
 20
17.1056
 30
0.0
 10
-92.9837
 20
17.1056
 30
0.0
 10
-88.788
 20
17.0562
 30
0.0
 10
-88.788
 20
17.0562
 30
0.0
 10
-88.788
 20
17.0562
 30
0.0
 10
-88.788
 20
17.0562
 30
0.0
 10
-88.7405
 20
27.3586
 30
0.0
 10
-88.7405
 20
27.3586
 30
0.0
  0
SPLINE
  5
A0
330
1F
100
AcDbEntity
  8
layer 1
 62
     7
100
AcDbSpline
210
0.0
220
0.0
230
1.0
 70
    11
 71
     3
 72
    20
 73
    16
 74
     0
 42
0.0000000001
 43
0.0000000001
 12
1.0
 22
0.0
 32
0.0
 13
1.0
 23
0.0
 33
0.0
 40
0.0
 40
0.0
 40
0.0
 40
0.0
 40
0.2
 40
0.2
 40
0.2
 40
0.2
 40
0.4
 40
0.4
 40
0.4
 40
0.4
 40
0.6
 40
0.6
 40
0.6
 40
0.6
 40
1.0
 40
1.0
 40
1.0
 40
1.0
 10
-74.4641
 20
42.6929
 30
0.0
 10
-74.4641
 20
42.6929
 30
0.0
 10
-71.8614
 20
42.6929
 30
0.0
 10
-71.8614
 20
42.6929
 30
0.0
 10
-71.8614
 20
42.6929
 30
0.0
 10
-71.8614
 20
42.6929
 30
0.0
 10
-71.8614
 20
19.4161
 30
0.0
 10
-71.8614
 20
19.4161
 30
0.0
 10
-71.8614
 20
19.4161
 30
0.0
 10
-71.8614
 20
19.4161
 30
0.0
 10
-74.4641
 20
19.4161
 30
0.0
 10
-74.4641
 20
19.4161
 30
0.0
 10
-74.4641
 20
19.4161
 30
0.0
 10
-74.4641
 20
19.4161
 30
0.0
 10
-74.4641
 20
42.6929
 30
0.0
 10
-74.4641
 20
42.6929
 30
0.0
  0
SPLINE
  5
A1
330
1F
100
AcDbEntity
  8
layer 1
 62
     7
100
AcDbSpline
210
0.0
220
0.0
230
1.0
 70
    11
 71
     3
 72
    20
 73
    16
 74
     0
 42
0.0000000001
 43
0.0000000001
 12
1.0
 22
0.0
 32
0.0
 13
1.0
 23
0.0
 33
0.0
 40
0.0
 40
0.0
 40
0.0
 40
0.0
 40
0.2
 40
0.2
 40
0.2
 40
0.2
 40
0.4
 40
0.4
 40
0.4
 40
0.4
 40
0.6
 40
0.6
 40
0.6
 40
0.6
 40
1.0
 40
1.0
 40
1.0
 40
1.0
 10
-93.059
 20
30.5249
 30
0.0
 10
-93.059
 20
30.5249
 30
0.0
 10
-96.2424
 20
33.7599
 30
0.0
 10
-96.2424
 20
33.7599
 30
0.0
 10
-96.2424
 20
33.7599
 30
0.0
 10
-90.8255
 20
38.02
 30
0.0
 10
-86.4901
 20
41.2461
 30
0.0
 10
-76.8501
 20
42.5877
 30
0.0
 10
-76.8501
 20
42.5877
 30
0.0
 10
-76.8501
 20
42.5877
 30
0.0
 10
-76.8501
 20
38.0288
 30
0.0
 10
-76.8501
 20
38.0288
 30
0.0
 10
-76.8501
 20
38.0288
 30
0.0
 10
-85.9337
 20
36.8722
 30
0.0
 10
-90.5053
 20
32.5344
 30
0.0
 10
-93.059
 20
30.5249
 30
0.0
  0
SPLINE
  5
A2
330
1F
100
AcDbEntity
  8
layer 1
 62
     7
100
AcDbSpline
210
0.0
220
0.0
230
1.0
 70
    11
 71
     3
 72
    32
 73
    28
 74
     0
 42
0.0000000001
 43
0.0000000001
 12
1.0
 22
0.0
 32
0.0
 13
1.0
 23
0.0
 33
0.0
 40
0.0
 40
0.0
 40
0.0
 40
0.0
 40
0.125
 40
0.125
 40
0.125
 40
0.125
 40
0.25
 40
0.25
 40
0.25
 40
0.25
 40
0.375
 40
0.375
 40
0.375
 40
0.375
 40
0.5
 40
0.5
 40
0.5
 40
0.5
 40
0.625
 40
0.625
 40
0.625
 40
0.625
 40
0.75
 40
0.75
 40
0.75
 40
0.75
 40
1.0
 40
1.0
 40
1.0
 40
1.0
 10
-102.4756
 20
12.3382
 30
0.0
 10
-102.4756
 20
12.3382
 30
0.0
 10
-107.0153
 20
12.3766
 30
0.0
 10
-107.0153
 20
12.3766
 30
0.0
 10
-107.0153
 20
12.3766
 30
0.0
 10
-105.9666
 20
19.4486
 30
0.0
 10
-103.8409
 20
25.1685
 30
0.0
 10
-97.973
 20
31.9605
 30
0.0
 10
-97.973
 20
31.9605
 30
0.0
 10
-97.973
 20
31.9605
 30
0.0
 10
-94.7484
 20
28.7366
 30
0.0
 10
-94.7484
 20
28.7366
 30
0.0
 10
-94.7484
 20
28.7366
 30
0.0
 10
-98.5529
 20
24.4675
 30
0.0
 10
-100.4853
 20
20.3104
 30
0.0
 10
-101.4055
 20
17.0952
 30
0.0
 10
-101.4055
 20
17.0952
 30
0.0
 10
-101.4055
 20
17.0952
 30
0.0
 10
-95.6575
 20
17.1012
 30
0.0
 10
-95.6575
 20
17.1012
 30
0.0
 10
-95.6575
 20
17.1012
 30
0.0
 10
-95.6575
 20
17.1012
 30
0.0
 10
-95.7224
 20
12.3382
 30
0.0
 10
-95.7224
 20
12.3382
 30
0.0
 10
-95.7224
 20
12.3382
 30
0.0
 10
-95.7224
 20
12.3382
 30
0.0
 10
-102.4756
 20
12.3382
 30
0.0
 10
-102.4756
 20
12.3382
 30
0.0
  0
SPLINE
  5
A3
330
1F
100
AcDbEntity
  8
layer 1
 62
     7
100
AcDbSpline
210
0.0
220
0.0
230
1.0
 70
    11
 71
     3
 72
    20
 73
    16
 74
     0
 42
0.0000000001
 43
0.0000000001
 12
1.0
 22
0.0
 32
0.0
 13
1.0
 23
0.0
 33
0.0
 40
0.0
 40
0.0
 40
0.0
 40
0.0
 40
0.2
 40
0.2
 40
0.2
 40
0.2
 40
0.4
 40
0.4
 40
0.4
 40
0.4
 40
0.6
 40
0.6
 40
0.6
 40
0.6
 40
1.0
 40
1.0
 40
1.0
 40
1.0
 10
-107.1766
 20
10.0105
 30
0.0
 10
-107.1766
 20
10.0105
 30
0.0
 10
-107.1766
 20
7.4094
 30
0.0
 10
-107.1766
 20
7.4094
 30
0.0
 10
-107.1766
 20
7.4094
 30
0.0
 10
-107.1766
 20
7.4094
 30
0.0
 10
-83.8999
 20
7.4094
 30
0.0
 10
-83.8999
 20
7.4094
 30
0.0
 10
-83.8999
 20
7.4094
 30
0.0
 10
-83.8999
 20
7.4094
 30
0.0
 10
-83.8999
 20
10.0105
 30
0.0
 10
-83.8999
 20
10.0105
 30
0.0
 10
-83.8999
 20
10.0105
 30
0.0
 10
-83.8999
 20
10.0105
 30
0.0
 10
-107.1766
 20
10.0105
 30
0.0
 10
-107.1766
 20
10.0105
 30
0.0
  0
SPLINE
  5
A4
330
1F
100
AcDbEntity
  8
layer 1
 62
     7
100
AcDbSpline
210
0.0
220
0.0
230
1.0
 70
    11
 71
     3
 72
    52
 73
    48
 74
     0
 42
0.0000000001
 43
0.0000000001
 12
1.0
 22
0.0
 32
0.0
 13
1.0
 23
0.0
 33
0.0
 40
0.0
 40
0.0
 40
0.0
 40
0.0
 40
0.0769230769230769
 40
0.0769230769230769
 40
0.0769230769230769
 40
0.0769230769230769
 40
0.1538461538461539
 40
0.1538461538461539
 40
0.1538461538461539
 40
0.1538461538461539
 40
0.2307692307692308
 40
0.2307692307692308
 40
0.2307692307692308
 40
0.2307692307692308
 40
0.3076923076923077
 40
0.3076923076923077
 40
0.3076923076923077
 40
0.3076923076923077
 40
0.3846153846153846
 40
0.3846153846153846
 40
0.3846153846153846
 40
0.3846153846153846
 40
0.4615384615384616
 40
0.4615384615384616
 40
0.4615384615384616
 40
0.4615384615384616
 40
0.5384615384615384
 40
0.5384615384615384
 40
0.5384615384615384
 40
0.5384615384615384
 40
0.6153846153846154
 40
0.6153846153846154
 40
0.6153846153846154
 40
0.6153846153846154
 40
0.6923076923076923
 40
0.6923076923076923
 40
0.6923076923076923
 40
0.6923076923076923
 40
0.7692307692307693
 40
0.7692307692307693
 40
0.7692307692307693
 40
0.7692307692307693
 40
0.8461538461538461
 40
0.8461538461538461
 40
0.8461538461538461
 40
0.8461538461538461
 40
1.0
 40
1.0
 40
1.0
 40
1.0
 10
-65.3028
 20
7.3946
 30
0.0
 10
-65.3028
 20
7.3946
 30
0.0
 10
-65.3028
 20
10.0254
 30
0.0
 10
-65.3028
 20
10.0254
 30
0.0
 10
-65.3028
 20
10.0254
 30
0.0
 10
-65.3028
 20
10.0254
 30
0.0
 10
-71.8932
 20
10.0276
 30
0.0
 10
-71.8932
 20
10.0276
 30
0.0
 10
-71.8932
 20
10.0276
 30
0.0
 10
-71.8932
 20
10.0276
 30
0.0
 10
-71.8888
 20
16.6071
 30
0.0
 10
-71.8888
 20
16.6071
 30
0.0
 10
-71.8888
 20
16.6071
 30
0.0
 10
-71.8888
 20
16.6071
 30
0.0
 10
-74.5196
 20
16.6071
 30
0.0
 10
-74.5196
 20
16.6071
 30
0.0
 10
-74.5196
 20
16.6071
 30
0.0
 10
-74.5196
 20
16.6071
 30
0.0
 10
-74.5219
 20
10.021
 30
0.0
 10
-74.5219
 20
10.021
 30
0.0
 10
-74.5219
 20
10.021
 30
0.0
 10
-74.5219
 20
10.021
 30
0.0
 10
-81.1057
 20
10.0254
 30
0.0
 10
-81.1057
 20
10.0254
 30
0.0
 10
-81.1057
 20
10.0254
 30
0.0
 10
-81.1057
 20
10.0254
 30
0.0
 10
-81.1057
 20
7.3946
 30
0.0
 10
-81.1057
 20
7.3946
 30
0.0
 10
-81.1057
 20
7.3946
 30
0.0
 10
-81.1057
 20
7.3946
 30
0.0
 10
-74.5219
 20
7.3968
 30
0.0
 10
-74.5219
 20
7.3968
 30
0.0
 10
-74.5219
 20
7.3968
 30
0.0
 10
-74.5219
 20
7.3968
 30
0.0
 10
-74.5196
 20
0.8063
 30
0.0
 10
-74.5196
 20
0.8063
 30
0.0
 10
-74.5196
 20
0.8063
 30
0.0
 10
-74.5196
 20
0.8063
 30
0.0
 10
-71.8888
 20
0.8063
 30
0.0
 10
-71.8888
 20
0.8063
 30
0.0
 10
-71.8888
 20
0.8063
 30
0.0
 10
-71.8888
 20
0.8063
 30
0.0
 10
-71.8932
 20
7.3968
 30
0.0
 10
-71.8932
 20
7.3968
 30
0.0
 10
-71.8932
 20
7.3968
 30
0.0
 10
-71.8932
 20
7.3968
 30
0.0
 10
-65.3028
 20
7.3946
 30
0.0
 10
-65.3028
 20
7.3946
 30
0.0
  0
SPLINE
  5
A5
330
1F
100
AcDbEntity
  8
layer 1
 62
     7
100
AcDbSpline
210
0.0
220
0.0
230
1.0
 70
    11
 71
     3
 72
    44
 73
    40
 74
     0
 42
0.0000000001
 43
0.0000000001
 12
1.0
 22
0.0
 32
0.0
 13
1.0
 23
0.0
 33
0.0
 40
0.0
 40
0.0
 40
0.0
 40
0.0
 40
0.0909090909090909
 40
0.0909090909090909
 40
0.0909090909090909
 40
0.0909090909090909
 40
0.1818181818181818
 40
0.1818181818181818
 40
0.1818181818181818
 40
0.1818181818181818
 40
0.2727272727272727
 40
0.2727272727272727
 40
0.2727272727272727
 40
0.2727272727272727
 40
0.3636363636363636
 40
0.3636363636363636
 40
0.3636363636363636
 40
0.3636363636363636
 40
0.4545454545454545
 40
0.4545454545454545
 40
0.4545454545454545
 40
0.4545454545454545
 40
0.5454545454545454
 40
0.5454545454545454
 40
0.5454545454545454
 40
0.5454545454545454
 40
0.6363636363636364
 40
0.6363636363636364
 40
0.6363636363636364
 40
0.6363636363636364
 40
0.7272727272727273
 40
0.7272727272727273
 40
0.7272727272727273
 40
0.7272727272727273
 40
0.8181818181818182
 40
0.8181818181818182
 40
0.8181818181818182
 40
0.8181818181818182
 40
1.0
 40
1.0
 40
1.0
 40
1.0
 10
-57.5821
 20
27.3586
 30
0.0
 10
-56.213
 20
26.0347
 30
0.0
 10
-54.9084
 20
24.6376
 30
0.0
 10
-53.4018
 20
23.296
 30
0.0
 10
-53.4018
 20
23.296
 30
0.0
 10
-53.8551
 20
22.6644
 30
0.0
 10
-54.4935
 20
22.0602
 30
0.0
 10
-55.6066
 20
21.9121
 30
0.0
 10
-55.6066
 20
21.9121
 30
0.0
 10
-55.6066
 20
21.9121
 30
0.0
 10
-55.4179
 20
19.2015
 30
0.0
 10
-55.4179
 20
19.2015
 30
0.0
 10
-55.4179
 20
19.2015
 30
0.0
 10
-55.4179
 20
19.2015
 30
0.0
 10
-48.1182
 20
19.1993
 30
0.0
 10
-48.1182
 20
19.1993
 30
0.0
 10
-48.1182
 20
19.1993
 30
0.0
 10
-51.6364
 20
26.432
 30
0.0
 10
-55.5104
 20
30.2948
 30
0.0
 10
-62.5603
 20
33.6245
 30
0.0
 10
-62.5603
 20
33.6245
 30
0.0
 10
-62.5603
 20
33.6245
 30
0.0
 10
-62.5603
 20
12.3211
 30
0.0
 10
-62.5603
 20
12.3211
 30
0.0
 10
-62.5603
 20
12.3211
 30
0.0
 10
-62.5603
 20
12.3211
 30
0.0
 10
-53.339
 20
12.3211
 30
0.0
 10
-53.339
 20
12.3211
 30
0.0
 10
-53.339
 20
12.3211
 30
0.0
 10
-53.339
 20
12.3211
 30
0.0
 10
-53.339
 20
17.1056
 30
0.0
 10
-53.339
 20
17.1056
 30
0.0
 10
-53.339
 20
17.1056
 30
0.0
 10
-53.339
 20
17.1056
 30
0.0
 10
-57.5348
 20
17.0562
 30
0.0
 10
-57.5348
 20
17.0562
 30
0.0
 10
-57.5348
 20
17.0562
 30
0.0
 10
-57.5348
 20
17.0562
 30
0.0
 10
-57.5821
 20
27.3586
 30
0.0
 10
-57.5821
 20
27.3586
 30
0.0
  0
SPLINE
  5
A6
330
1F
100
AcDbEntity
  8
layer 1
 62
     7
100
AcDbSpline
210
0.0
220
0.0
230
1.0
 70
    11
 71
     3
 72
    20
 73
    16
 74
     0
 42
0.0000000001
 43
0.0000000001
 12
1.0
 22
0.0
 32
0.0
 13
1.0
 23
0.0
 33
0.0
 40
0.0
 40
0.0
 40
0.0
 40
0.0
 40
0.2
 40
0.2
 40
0.2
 40
0.2
 40
0.4
 40
0.4
 40
0.4
 40
0.4
 40
0.6
 40
0.6
 40
0.6
 40
0.6
 40
1.0
 40
1.0
 40
1.0
 40
1.0
 10
-53.2641
 20
30.5249
 30
0.0
 10
-53.2641
 20
30.5249
 30
0.0
 10
-50.0804
 20
33.7599
 30
0.0
 10
-50.0804
 20
33.7599
 30
0.0
 10
-50.0804
 20
33.7599
 30
0.0
 10
-55.4971
 20
38.02
 30
0.0
 10
-59.8327
 20
41.2461
 30
0.0
 10
-69.4732
 20
42.5877
 30
0.0
 10
-69.4732
 20
42.5877
 30
0.0
 10
-69.4732
 20
42.5877
 30
0.0
 10
-69.4732
 20
38.0288
 30
0.0
 10
-69.4732
 20
38.0288
 30
0.0
 10
-69.4732
 20
38.0288
 30
0.0
 10
-60.3896
 20
36.8722
 30
0.0
 10
-55.8175
 20
32.5344
 30
0.0
 10
-53.2641
 20
30.5249
 30
0.0
  0
SPLINE
  5
A7
330
1F
100
AcDbEntity
  8
layer 1
 62
     7
100
AcDbSpline
210
0.0
220
0.0
230
1.0
 70
    11
 71
     3
 72
    32
 73
    28
 74
     0
 42
0.0000000001
 43
0.0000000001
 12
1.0
 22
0.0
 32
0.0
 13
1.0
 23
0.0
 33
0.0
 40
0.0
 40
0.0
 40
0.0
 40
0.0
 40
0.125
 40
0.125
 40
0.125
 40
0.125
 40
0.25
 40
0.25
 40
0.25
 40
0.25
 40
0.375
 40
0.375
 40
0.375
 40
0.375
 40
0.5
 40
0.5
 40
0.5
 40
0.5
 40
0.625
 40
0.625
 40
0.625
 40
0.625
 40
0.75
 40
0.75
 40
0.75
 40
0.75
 40
1.0
 40
1.0
 40
1.0
 40
1.0
 10
-43.847
 20
12.3382
 30
0.0
 10
-43.847
 20
12.3382
 30
0.0
 10
-39.3074
 20
12.3766
 30
0.0
 10
-39.3074
 20
12.3766
 30
0.0
 10
-39.3074
 20
12.3766
 30
0.0
 10
-40.3562
 20
19.4486
 30
0.0
 10
-42.4823
 20
25.1685
 30
0.0
 10
-48.3504
 20
31.9605
 30
0.0
 10
-48.3504
 20
31.9605
 30
0.0
 10
-48.3504
 20
31.9605
 30
0.0
 10
-51.5744
 20
28.7366
 30
0.0
 10
-51.5744
 20
28.7366
 30
0.0
 10
-51.5744
 20
28.7366
 30
0.0
 10
-47.7699
 20
24.4675
 30
0.0
 10
-45.8373
 20
20.3104
 30
0.0
 10
-44.9178
 20
17.0952
 30
0.0
 10
-44.9178
 20
17.0952
 30
0.0
 10
-44.9178
 20
17.0952
 30
0.0
 10
-50.6653
 20
17.1012
 30
0.0
 10
-50.6653
 20
17.1012
 30
0.0
 10
-50.6653
 20
17.1012
 30
0.0
 10
-50.6653
 20
17.1012
 30
0.0
 10
-50.5987
 20
12.3382
 30
0.0
 10
-50.5987
 20
12.3382
 30
0.0
 10
-50.5987
 20
12.3382
 30
0.0
 10
-50.5987
 20
12.3382
 30
0.0
 10
-43.847
 20
12.3382
 30
0.0
 10
-43.847
 20
12.3382
 30
0.0
  0
SPLINE
  5
A8
330
1F
100
AcDbEntity
  8
layer 1
 62
     7
100
AcDbSpline
210
0.0
220
0.0
230
1.0
 70
    11
 71
     3
 72
    20
 73
    16
 74
     0
 42
0.0000000001
 43
0.0000000001
 12
1.0
 22
0.0
 32
0.0
 13
1.0
 23
0.0
 33
0.0
 40
0.0
 40
0.0
 40
0.0
 40
0.0
 40
0.2
 40
0.2
 40
0.2
 40
0.2
 40
0.4
 40
0.4
 40
0.4
 40
0.4
 40
0.6
 40
0.6
 40
0.6
 40
0.6
 40
1.0
 40
1.0
 40
1.0
 40
1.0
 10
-39.1461
 20
10.0105
 30
0.0
 10
-39.1461
 20
10.0105
 30
0.0
 10
-39.1461
 20
7.4094
 30
0.0
 10
-39.1461
 20
7.4094
 30
0.0
 10
-39.1461
 20
7.4094
 30
0.0
 10
-39.1461
 20
7.4094
 30
0.0
 10
-62.4227
 20
7.4094
 30
0.0
 10
-62.4227
 20
7.4094
 30
0.0
 10
-62.4227
 20
7.4094
 30
0.0
 10
-62.4227
 20
7.4094
 30
0.0
 10
-62.4227
 20
10.0105
 30
0.0
 10
-62.4227
 20
10.0105
 30
0.0
 10
-62.4227
 20
10.0105
 30
0.0
 10
-62.4227
 20
10.0105
 30
0.0
 10
-39.1461
 20
10.0105
 30
0.0
 10
-39.1461
 20
10.0105
 30
0.0
  0
SPLINE
  5
A9
330
1F
100
AcDbEntity
  8
layer 1
 62
     7
100
AcDbSpline
210
0.0
220
0.0
230
1.0
 70
    11
 71
     3
 72
    44
 73
    40
 74
     0
 42
0.0000000001
 43
0.0000000001
 12
1.0
 22
0.0
 32
0.0
 13
1.0
 23
0.0
 33
0.0
 40
0.0
 40
0.0
 40
0.0
 40
0.0
 40
0.0909090909090909
 40
0.0909090909090909
 40
0.0909090909090909
 40
0.0909090909090909
 40
0.1818181818181818
 40
0.1818181818181818
 40
0.1818181818181818
 40
0.1818181818181818
 40
0.2727272727272727
 40
0.2727272727272727
 40
0.2727272727272727
 40
0.2727272727272727
 40
0.3636363636363636
 40
0.3636363636363636
 40
0.3636363636363636
 40
0.3636363636363636
 40
0.4545454545454545
 40
0.4545454545454545
 40
0.4545454545454545
 40
0.4545454545454545
 40
0.5454545454545454
 40
0.5454545454545454
 40
0.5454545454545454
 40
0.5454545454545454
 40
0.6363636363636364
 40
0.6363636363636364
 40
0.6363636363636364
 40
0.6363636363636364
 40
0.7272727272727273
 40
0.7272727272727273
 40
0.7272727272727273
 40
0.7272727272727273
 40
0.8181818181818182
 40
0.8181818181818182
 40
0.8181818181818182
 40
0.8181818181818182
 40
1.0
 40
1.0
 40
1.0
 40
1.0
 10
-88.7405
 20
-9.9408
 30
0.0
 10
-90.1097
 20
-8.6191
 30
0.0
 10
-91.415
 20
-7.2221
 30
0.0
 10
-92.9216
 20
-5.8805
 30
0.0
 10
-92.9216
 20
-5.8805
 30
0.0
 10
-92.4681
 20
-5.2466
 30
0.0
 10
-91.8293
 20
-4.6447
 30
0.0
 10
-90.716
 20
-4.4967
 30
0.0
 10
-90.716
 20
-4.4967
 30
0.0
 10
-90.716
 20
-4.4967
 30
0.0
 10
-90.9054
 20
-1.7859
 30
0.0
 10
-90.9054
 20
-1.7859
 30
0.0
 10
-90.9054
 20
-1.7859
 30
0.0
 10
-90.9054
 20
-1.7859
 30
0.0
 10
-98.2046
 20
-1.7837
 30
0.0
 10
-98.2046
 20
-1.7837
 30
0.0
 10
-98.2046
 20
-1.7837
 30
0.0
 10
-94.6862
 20
-9.0163
 30
0.0
 10
-90.8129
 20
-12.8793
 30
0.0
 10
-83.7625
 20
-16.2089
 30
0.0
 10
-83.7625
 20
-16.2089
 30
0.0
 10
-83.7625
 20
-16.2089
 30
0.0
 10
-83.7625
 20
5.0945
 30
0.0
 10
-83.7625
 20
5.0945
 30
0.0
 10
-83.7625
 20
5.0945
 30
0.0
 10
-83.7625
 20
5.0945
 30
0.0
 10
-92.9837
 20
5.0945
 30
0.0
 10
-92.9837
 20
5.0945
 30
0.0
 10
-92.9837
 20
5.0945
 30
0.0
 10
-92.9837
 20
5.0945
 30
0.0
 10
-92.9837
 20
0.31
 30
0.0
 10
-92.9837
 20
0.31
 30
0.0
 10
-92.9837
 20
0.31
 30
0.0
 10
-92.9837
 20
0.31
 30
0.0
 10
-88.788
 20
0.3616
 30
0.0
 10
-88.788
 20
0.3616
 30
0.0
 10
-88.788
 20
0.3616
 30
0.0
 10
-88.788
 20
0.3616
 30
0.0
 10
-88.7405
 20
-9.9408
 30
0.0
 10
-88.7405
 20
-9.9408
 30
0.0
  0
SPLINE
  5
AA
330
1F
100
AcDbEntity
  8
layer 1
 62
     7
100
AcDbSpline
210
0.0
220
0.0
230
1.0
 70
    11
 71
     3
 72
    20
 73
    16
 74
     0
 42
0.0000000001
 43
0.0000000001
 12
1.0
 22
0.0
 32
0.0
 13
1.0
 23
0.0
 33
0.0
 40
0.0
 40
0.0
 40
0.0
 40
0.0
 40
0.2
 40
0.2
 40
0.2
 40
0.2
 40
0.4
 40
0.4
 40
0.4
 40
0.4
 40
0.6
 40
0.6
 40
0.6
 40
0.6
 40
1.0
 40
1.0
 40
1.0
 40
1.0
 10
-74.4641
 20
-2.0005
 30
0.0
 10
-74.4641
 20
-2.0005
 30
0.0
 10
-71.8614
 20
-2.0005
 30
0.0
 10
-71.8614
 20
-2.0005
 30
0.0
 10
-71.8614
 20
-2.0005
 30
0.0
 10
-71.8614
 20
-2.0005
 30
0.0
 10
-71.8614
 20
-25.2773
 30
0.0
 10
-71.8614
 20
-25.2773
 30
0.0
 10
-71.8614
 20
-25.2773
 30
0.0
 10
-71.8614
 20
-25.2773
 30
0.0
 10
-74.4641
 20
-25.2773
 30
0.0
 10
-74.4641
 20
-25.2773
 30
0.0
 10
-74.4641
 20
-25.2773
 30
0.0
 10
-74.4641
 20
-25.2773
 30
0.0
 10
-74.4641
 20
-2.0005
 30
0.0
 10
-74.4641
 20
-2.0005
 30
0.0
  0
SPLINE
  5
AB
330
1F
100
AcDbEntity
  8
layer 1
 62
     7
100
AcDbSpline
210
0.0
220
0.0
230
1.0
 70
    11
 71
     3
 72
    20
 73
    16
 74
     0
 42
0.0000000001
 43
0.0000000001
 12
1.0
 22
0.0
 32
0.0
 13
1.0
 23
0.0
 33
0.0
 40
0.0
 40
0.0
 40
0.0
 40
0.0
 40
0.2
 40
0.2
 40
0.2
 40
0.2
 40
0.4
 40
0.4
 40
0.4
 40
0.4
 40
0.6
 40
0.6
 40
0.6
 40
0.6
 40
1.0
 40
1.0
 40
1.0
 40
1.0
 10
-93.059
 20
-13.1071
 30
0.0
 10
-93.059
 20
-13.1071
 30
0.0
 10
-96.2424
 20
-16.3443
 30
0.0
 10
-96.2424
 20
-16.3443
 30
0.0
 10
-96.2424
 20
-16.3443
 30
0.0
 10
-90.8255
 20
-20.6044
 30
0.0
 10
-86.4901
 20
-23.8307
 30
0.0
 10
-76.8501
 20
-25.1699
 30
0.0
 10
-76.8501
 20
-25.1699
 30
0.0
 10
-76.8501
 20
-25.1699
 30
0.0
 10
-76.8501
 20
-20.6131
 30
0.0
 10
-76.8501
 20
-20.6131
 30
0.0
 10
-76.8501
 20
-20.6131
 30
0.0
 10
-85.9337
 20
-19.4566
 30
0.0
 10
-90.5053
 20
-15.1189
 30
0.0
 10
-93.059
 20
-13.1071
 30
0.0
  0
SPLINE
  5
AC
330
1F
100
AcDbEntity
  8
layer 1
 62
     7
100
AcDbSpline
210
0.0
220
0.0
230
1.0
 70
    11
 71
     3
 72
    32
 73
    28
 74
     0
 42
0.0000000001
 43
0.0000000001
 12
1.0
 22
0.0
 32
0.0
 13
1.0
 23
0.0
 33
0.0
 40
0.0
 40
0.0
 40
0.0
 40
0.0
 40
0.125
 40
0.125
 40
0.125
 40
0.125
 40
0.25
 40
0.25
 40
0.25
 40
0.25
 40
0.375
 40
0.375
 40
0.375
 40
0.375
 40
0.5
 40
0.5
 40
0.5
 40
0.5
 40
0.625
 40
0.625
 40
0.625
 40
0.625
 40
0.75
 40
0.75
 40
0.75
 40
0.75
 40
1.0
 40
1.0
 40
1.0
 40
1.0
 10
-102.4756
 20
5.0774
 30
0.0
 10
-102.4756
 20
5.0774
 30
0.0
 10
-107.0153
 20
5.0406
 30
0.0
 10
-107.0153
 20
5.0406
 30
0.0
 10
-107.0153
 20
5.0406
 30
0.0
 10
-105.9666
 20
-2.033
 30
0.0
 10
-103.8409
 20
-7.7509
 30
0.0
 10
-97.973
 20
-14.5427
 30
0.0
 10
-97.973
 20
-14.5427
 30
0.0
 10
-97.973
 20
-14.5427
 30
0.0
 10
-94.7484
 20
-11.321
 30
0.0
 10
-94.7484
 20
-11.321
 30
0.0
 10
-94.7484
 20
-11.321
 30
0.0
 10
-98.5529
 20
-7.0498
 30
0.0
 10
-100.4853
 20
-2.8948
 30
0.0
 10
-101.4055
 20
0.3226
 30
0.0
 10
-101.4055
 20
0.3226
 30
0.0
 10
-101.4055
 20
0.3226
 30
0.0
 10
-95.6575
 20
0.3144
 30
0.0
 10
-95.6575
 20
0.3144
 30
0.0
 10
-95.6575
 20
0.3144
 30
0.0
 10
-95.6575
 20
0.3144
 30
0.0
 10
-95.7224
 20
5.0774
 30
0.0
 10
-95.7224
 20
5.0774
 30
0.0
 10
-95.7224
 20
5.0774
 30
0.0
 10
-95.7224
 20
5.0774
 30
0.0
 10
-102.4756
 20
5.0774
 30
0.0
 10
-102.4756
 20
5.0774
 30
0.0
  0
SPLINE
  5
AD
330
1F
100
AcDbEntity
  8
layer 1
 62
     7
100
AcDbSpline
210
0.0
220
0.0
230
1.0
 70
    11
 71
     3
 72
    20
 73
    16
 74
     0
 42
0.0000000001
 43
0.0000000001
 12
1.0
 22
0.0
 32
0.0
 13
1.0
 23
0.0
 33
0.0
 40
0.0
 40
0.0
 40
0.0
 40
0.0
 40
0.2
 40
0.2
 40
0.2
 40
0.2
 40
0.4
 40
0.4
 40
0.4
 40
0.4
 40
0.6
 40
0.6
 40
0.6
 40
0.6
 40
1.0
 40
1.0
 40
1.0
 40
1.0
 10
-107.1766
 20
7.4051
 30
0.0
 10
-107.1766
 20
7.4051
 30
0.0
 10
-107.1766
 20
10.0084
 30
0.0
 10
-107.1766
 20
10.0084
 30
0.0
 10
-107.1766
 20
10.0084
 30
0.0
 10
-107.1766
 20
10.0084
 30
0.0
 10
-83.8999
 20
10.0084
 30
0.0
 10
-83.8999
 20
10.0084
 30
0.0
 10
-83.8999
 20
10.0084
 30
0.0
 10
-83.8999
 20
10.0084
 30
0.0
 10
-83.8999
 20
7.4051
 30
0.0
 10
-83.8999
 20
7.4051
 30
0.0
 10
-83.8999
 20
7.4051
 30
0.0
 10
-83.8999
 20
7.4051
 30
0.0
 10
-107.1766
 20
7.4051
 30
0.0
 10
-107.1766
 20
7.4051
 30
0.0
  0
SPLINE
  5
AE
330
1F
100
AcDbEntity
  8
layer 1
 62
     7
100
AcDbSpline
210
0.0
220
0.0
230
1.0
 70
    11
 71
     3
 72
    44
 73
    40
 74
     0
 42
0.0000000001
 43
0.0000000001
 12
1.0
 22
0.0
 32
0.0
 13
1.0
 23
0.0
 33
0.0
 40
0.0
 40
0.0
 40
0.0
 40
0.0
 40
0.0909090909090909
 40
0.0909090909090909
 40
0.0909090909090909
 40
0.0909090909090909
 40
0.1818181818181818
 40
0.1818181818181818
 40
0.1818181818181818
 40
0.1818181818181818
 40
0.2727272727272727
 40
0.2727272727272727
 40
0.2727272727272727
 40
0.2727272727272727
 40
0.3636363636363636
 40
0.3636363636363636
 40
0.3636363636363636
 40
0.3636363636363636
 40
0.4545454545454545
 40
0.4545454545454545
 40
0.4545454545454545
 40
0.4545454545454545
 40
0.5454545454545454
 40
0.5454545454545454
 40
0.5454545454545454
 40
0.5454545454545454
 40
0.6363636363636364
 40
0.6363636363636364
 40
0.6363636363636364
 40
0.6363636363636364
 40
0.7272727272727273
 40
0.7272727272727273
 40
0.7272727272727273
 40
0.7272727272727273
 40
0.8181818181818182
 40
0.8181818181818182
 40
0.8181818181818182
 40
0.8181818181818182
 40
1.0
 40
1.0
 40
1.0
 40
1.0
 10
-57.5821
 20
-9.9408
 30
0.0
 10
-56.213
 20
-8.6191
 30
0.0
 10
-54.9084
 20
-7.2221
 30
0.0
 10
-53.4018
 20
-5.8805
 30
0.0
 10
-53.4018
 20
-5.8805
 30
0.0
 10
-53.8551
 20
-5.2466
 30
0.0
 10
-54.4935
 20
-4.6447
 30
0.0
 10
-55.6066
 20
-4.4967
 30
0.0
 10
-55.6066
 20
-4.4967
 30
0.0
 10
-55.6066
 20
-4.4967
 30
0.0
 10
-55.4179
 20
-1.7859
 30
0.0
 10
-55.4179
 20
-1.7859
 30
0.0
 10
-55.4179
 20
-1.7859
 30
0.0
 10
-55.4179
 20
-1.7859
 30
0.0
 10
-48.1182
 20
-1.7837
 30
0.0
 10
-48.1182
 20
-1.7837
 30
0.0
 10
-48.1182
 20
-1.7837
 30
0.0
 10
-51.6364
 20
-9.0163
 30
0.0
 10
-55.5104
 20
-12.8793
 30
0.0
 10
-62.5603
 20
-16.2089
 30
0.0
 10
-62.5603
 20
-16.2089
 30
0.0
 10
-62.5603
 20
-16.2089
 30
0.0
 10
-62.5603
 20
5.0945
 30
0.0
 10
-62.5603
 20
5.0945
 30
0.0
 10
-62.5603
 20
5.0945
 30
0.0
 10
-62.5603
 20
5.0945
 30
0.0
 10
-53.339
 20
5.0945
 30
0.0
 10
-53.339
 20
5.0945
 30
0.0
 10
-53.339
 20
5.0945
 30
0.0
 10
-53.339
 20
5.0945
 30
0.0
 10
-53.339
 20
0.31
 30
0.0
 10
-53.339
 20
0.31
 30
0.0
 10
-53.339
 20
0.31
 30
0.0
 10
-53.339
 20
0.31
 30
0.0
 10
-57.5348
 20
0.3616
 30
0.0
 10
-57.5348
 20
0.3616
 30
0.0
 10
-57.5348
 20
0.3616
 30
0.0
 10
-57.5348
 20
0.3616
 30
0.0
 10
-57.5821
 20
-9.9408
 30
0.0
 10
-57.5821
 20
-9.9408
 30
0.0
  0
SPLINE
  5
AF
330
1F
100
AcDbEntity
  8
layer 1
 62
     7
100
AcDbSpline
210
0.0
220
0.0
230
1.0
 70
    11
 71
     3
 72
    20
 73
    16
 74
     0
 42
0.0000000001
 43
0.0000000001
 12
1.0
 22
0.0
 32
0.0
 13
1.0
 23
0.0
 33
0.0
 40
0.0
 40
0.0
 40
0.0
 40
0.0
 40
0.2
 40
0.2
 40
0.2
 40
0.2
 40
0.4
 40
0.4
 40
0.4
 40
0.4
 40
0.6
 40
0.6
 40
0.6
 40
0.6
 40
1.0
 40
1.0
 40
1.0
 40
1.0
 10
-53.2641
 20
-13.1071
 30
0.0
 10
-53.2641
 20
-13.1071
 30
0.0
 10
-50.0804
 20
-16.3443
 30
0.0
 10
-50.0804
 20
-16.3443
 30
0.0
 10
-50.0804
 20
-16.3443
 30
0.0
 10
-55.4971
 20
-20.6044
 30
0.0
 10
-59.8327
 20
-23.8307
 30
0.0
 10
-69.4732
 20
-25.1699
 30
0.0
 10
-69.4732
 20
-25.1699
 30
0.0
 10
-69.4732
 20
-25.1699
 30
0.0
 10
-69.4732
 20
-20.6131
 30
0.0
 10
-69.4732
 20
-20.6131
 30
0.0
 10
-69.4732
 20
-20.6131
 30
0.0
 10
-60.3896
 20
-19.4566
 30
0.0
 10
-55.8175
 20
-15.1189
 30
0.0
 10
-53.2641
 20
-13.1071
 30
0.0
  0
SPLINE
  5
B0
330
1F
100
AcDbEntity
  8
layer 1
 62
     7
100
AcDbSpline
210
0.0
220
0.0
230
1.0
 70
    11
 71
     3
 72
    32
 73
    28
 74
     0
 42
0.0000000001
 43
0.0000000001
 12
1.0
 22
0.0
 32
0.0
 13
1.0
 23
0.0
 33
0.0
 40
0.0
 40
0.0
 40
0.0
 40
0.0
 40
0.125
 40
0.125
 40
0.125
 40
0.125
 40
0.25
 40
0.25
 40
0.25
 40
0.25
 40
0.375
 40
0.375
 40
0.375
 40
0.375
 40
0.5
 40
0.5
 40
0.5
 40
0.5
 40
0.625
 40
0.625
 40
0.625
 40
0.625
 40
0.75
 40
0.75
 40
0.75
 40
0.75
 40
1.0
 40
1.0
 40
1.0
 40
1.0
 10
-43.847
 20
5.0774
 30
0.0
 10
-43.847
 20
5.0774
 30
0.0
 10
-39.3074
 20
5.0406
 30
0.0
 10
-39.3074
 20
5.0406
 30
0.0
 10
-39.3074
 20
5.0406
 30
0.0
 10
-40.3562
 20
-2.033
 30
0.0
 10
-42.4823
 20
-7.7509
 30
0.0
 10
-48.3504
 20
-14.5427
 30
0.0
 10
-48.3504
 20
-14.5427
 30
0.0
 10
-48.3504
 20
-14.5427
 30
0.0
 10
-51.5744
 20
-11.321
 30
0.0
 10
-51.5744
 20
-11.321
 30
0.0
 10
-51.5744
 20
-11.321
 30
0.0
 10
-47.7699
 20
-7.0498
 30
0.0
 10
-45.8373
 20
-2.8948
 30
0.0
 10
-44.9178
 20
0.3226
 30
0.0
 10
-44.9178
 20
0.3226
 30
0.0
 10
-44.9178
 20
0.3226
 30
0.0
 10
-50.6653
 20
0.3144
 30
0.0
 10
-50.6653
 20
0.3144
 30
0.0
 10
-50.6653
 20
0.3144
 30
0.0
 10
-50.6653
 20
0.3144
 30
0.0
 10
-50.5987
 20
5.0774
 30
0.0
 10
-50.5987
 20
5.0774
 30
0.0
 10
-50.5987
 20
5.0774
 30
0.0
 10
-50.5987
 20
5.0774
 30
0.0
 10
-43.847
 20
5.0774
 30
0.0
 10
-43.847
 20
5.0774
 30
0.0
  0
SPLINE
  5
B1
330
1F
100
AcDbEntity
  8
layer 1
 62
     7
100
AcDbSpline
210
0.0
220
0.0
230
1.0
 70
    11
 71
     3
 72
    20
 73
    16
 74
     0
 42
0.0000000001
 43
0.0000000001
 12
1.0
 22
0.0
 32
0.0
 13
1.0
 23
0.0
 33
0.0
 40
0.0
 40
0.0
 40
0.0
 40
0.0
 40
0.2
 40
0.2
 40
0.2
 40
0.2
 40
0.4
 40
0.4
 40
0.4
 40
0.4
 40
0.6
 40
0.6
 40
0.6
 40
0.6
 40
1.0
 40
1.0
 40
1.0
 40
1.0
 10
-39.1461
 20
7.4051
 30
0.0
 10
-39.1461
 20
7.4051
 30
0.0
 10
-39.1461
 20
10.0084
 30
0.0
 10
-39.1461
 20
10.0084
 30
0.0
 10
-39.1461
 20
10.0084
 30
0.0
 10
-39.1461
 20
10.0084
 30
0.0
 10
-62.4227
 20
10.0084
 30
0.0
 10
-62.4227
 20
10.0084
 30
0.0
 10
-62.4227
 20
10.0084
 30
0.0
 10
-62.4227
 20
10.0084
 30
0.0
 10
-62.4227
 20
7.4051
 30
0.0
 10
-62.4227
 20
7.4051
 30
0.0
 10
-62.4227
 20
7.4051
 30
0.0
 10
-62.4227
 20
7.4051
 30
0.0
 10
-39.1461
 20
7.4051
 30
0.0
 10
-39.1461
 20
7.4051
 30
0.0
  0
SPLINE
  5
B2
330
1F
100
AcDbEntity
  8
layer 1
 62
     7
100
AcDbSpline
210
0.0
220
0.0
230
1.0
 70
    11
 71
     3
 72
    20
 73
    16
 74
     0
 42
0.0000000001
 43
0.0000000001
 12
1.0
 22
0.0
 32
0.0
 13
1.0
 23
0.0
 33
0.0
 40
0.0
 40
0.0
 40
0.0
 40
0.0
 40
0.2
 40
0.2
 40
0.2
 40
0.2
 40
0.4
 40
0.4
 40
0.4
 40
0.4
 40
0.6
 40
0.6
 40
0.6
 40
0.6
 40
1.0
 40
1.0
 40
1.0
 40
1.0
 10
-81.1442
 20
34.5897
 30
0.0
 10
-79.5194
 20
35.0386
 30
0.0
 10
-78.4943
 20
35.305
 30
0.0
 10
-76.6971
 20
35.5075
 30
0.0
 10
-76.6971
 20
35.5075
 30
0.0
 10
-76.6971
 20
35.5075
 30
0.0
 10
-76.6971
 20
12.3189
 30
0.0
 10
-76.6971
 20
12.3189
 30
0.0
 10
-76.6971
 20
12.3189
 30
0.0
 10
-76.6971
 20
12.3189
 30
0.0
 10
-81.1442
 20
12.3189
 30
0.0
 10
-81.1442
 20
12.3189
 30
0.0
 10
-81.1442
 20
12.3189
 30
0.0
 10
-81.1442
 20
12.3189
 30
0.0
 10
-81.1442
 20
34.5897
 30
0.0
 10
-81.1442
 20
34.5897
 30
0.0
  0
SPLINE
  5
B3
330
1F
100
AcDbEntity
  8
layer 1
 62
     7
100
AcDbSpline
210
0.0
220
0.0
230
1.0
 70
    11
 71
     3
 72
    20
 73
    16
 74
     0
 42
0.0000000001
 43
0.0000000001
 12
1.0
 22
0.0
 32
0.0
 13
1.0
 23
0.0
 33
0.0
 40
0.0
 40
0.0
 40
0.0
 40
0.0
 40
0.2
 40
0.2
 40
0.2
 40
0.2
 40
0.4
 40
0.4
 40
0.4
 40
0.4
 40
0.6
 40
0.6
 40
0.6
 40
0.6
 40
1.0
 40
1.0
 40
1.0
 40
1.0
 10
-65.1415
 20
34.5897
 30
0.0
 10
-66.7686
 20
35.0386
 30
0.0
 10
-67.7944
 20
35.305
 30
0.0
 10
-69.5909
 20
35.5075
 30
0.0
 10
-69.5909
 20
35.5075
 30
0.0
 10
-69.5909
 20
35.5075
 30
0.0
 10
-69.5909
 20
12.3189
 30
0.0
 10
-69.5909
 20
12.3189
 30
0.0
 10
-69.5909
 20
12.3189
 30
0.0
 10
-69.5909
 20
12.3189
 30
0.0
 10
-65.1415
 20
12.3189
 30
0.0
 10
-65.1415
 20
12.3189
 30
0.0
 10
-65.1415
 20
12.3189
 30
0.0
 10
-65.1415
 20
12.3189
 30
0.0
 10
-65.1415
 20
34.5897
 30
0.0
 10
-65.1415
 20
34.5897
 30
0.0
  0
SPLINE
  5
B4
330
1F
100
AcDbEntity
  8
layer 1
 62
     7
100
AcDbSpline
210
0.0
220
0.0
230
1.0
 70
    11
 71
     3
 72
    20
 73
    16
 74
     0
 42
0.0000000001
 43
0.0000000001
 12
1.0
 22
0.0
 32
0.0
 13
1.0
 23
0.0
 33
0.0
 40
0.0
 40
0.0
 40
0.0
 40
0.0
 40
0.2
 40
0.2
 40
0.2
 40
0.2
 40
0.4
 40
0.4
 40
0.4
 40
0.4
 40
0.6
 40
0.6
 40
0.6
 40
0.6
 40
1.0
 40
1.0
 40
1.0
 40
1.0
 10
-81.1442
 20
-17.0662
 30
0.0
 10
-79.5194
 20
-17.5158
 30
0.0
 10
-78.4943
 20
-17.7821
 30
0.0
 10
-76.6971
 20
-17.9841
 30
0.0
 10
-76.6971
 20
-17.9841
 30
0.0
 10
-76.6971
 20
-17.9841
 30
0.0
 10
-76.6971
 20
5.204
 30
0.0
 10
-76.6971
 20
5.204
 30
0.0
 10
-76.6971
 20
5.204
 30
0.0
 10
-76.6971
 20
5.204
 30
0.0
 10
-81.1442
 20
5.204
 30
0.0
 10
-81.1442
 20
5.204
 30
0.0
 10
-81.1442
 20
5.204
 30
0.0
 10
-81.1442
 20
5.204
 30
0.0
 10
-81.1442
 20
-17.0662
 30
0.0
 10
-81.1442
 20
-17.0662
 30
0.0
  0
SPLINE
  5
B5
330
1F
100
AcDbEntity
  8
layer 1
 62
     7
100
AcDbSpline
210
0.0
220
0.0
230
1.0
 70
    11
 71
     3
 72
    20
 73
    16
 74
     0
 42
0.0000000001
 43
0.0000000001
 12
1.0
 22
0.0
 32
0.0
 13
1.0
 23
0.0
 33
0.0
 40
0.0
 40
0.0
 40
0.0
 40
0.0
 40
0.2
 40
0.2
 40
0.2
 40
0.2
 40
0.4
 40
0.4
 40
0.4
 40
0.4
 40
0.6
 40
0.6
 40
0.6
 40
0.6
 40
1.0
 40
1.0
 40
1.0
 40
1.0
 10
-65.1415
 20
-17.0662
 30
0.0
 10
-66.7686
 20
-17.5158
 30
0.0
 10
-67.7944
 20
-17.7821
 30
0.0
 10
-69.5909
 20
-17.9841
 30
0.0
 10
-69.5909
 20
-17.9841
 30
0.0
 10
-69.5909
 20
-17.9841
 30
0.0
 10
-69.5909
 20
5.204
 30
0.0
 10
-69.5909
 20
5.204
 30
0.0
 10
-69.5909
 20
5.204
 30
0.0
 10
-69.5909
 20
5.204
 30
0.0
 10
-65.1415
 20
5.204
 30
0.0
 10
-65.1415
 20
5.204
 30
0.0
 10
-65.1415
 20
5.204
 30
0.0
 10
-65.1415
 20
5.204
 30
0.0
 10
-65.1415
 20
-17.0662
 30
0.0
 10
-65.1415
 20
-17.0662
 30
0.0
  0
SPLINE
  5
B6
330
1F
100
AcDbEntity
  8
layer 1
 62
   250
100
AcDbSpline
210
0.0
220
0.0
230
1.0
 70
    11
 71
     3
 72
    20
 73
    16
 74
     0
 42
0.0000000001
 43
0.0000000001
 12
1.0
 22
0.0
 32
0.0
 13
1.0
 23
0.0
 33
0.0
 40
0.0
 40
0.0
 40
0.0
 40
0.0
 40
0.2
 40
0.2
 40
0.2
 40
0.2
 40
0.4
 40
0.4
 40
0.4
 40
0.4
 40
0.6
 40
0.6
 40
0.6
 40
0.6
 40
1.0
 40
1.0
 40
1.0
 40
1.0
 10
40.8115
 20
8.7746
 30
0.0
 10
40.8115
 20
-11.3838
 30
0.0
 10
24.4703
 20
-27.7253
 30
0.0
 10
4.3119
 20
-27.7253
 30
0.0
 10
4.3119
 20
-27.7253
 30
0.0
 10
-15.8466
 20
-27.7253
 30
0.0
 10
-32.1885
 20
-11.3838
 30
0.0
 10
-32.1885
 20
8.7746
 30
0.0
 10
-32.1885
 20
8.7746
 30
0.0
 10
-32.1885
 20
28.933
 30
0.0
 10
-15.8466
 20
45.2747
 30
0.0
 10
4.3119
 20
45.2747
 30
0.0
 10
4.3119
 20
45.2747
 30
0.0
 10
24.4704
 20
45.2747
 30
0.0
 10
40.8115
 20
28.9329
 30
0.0
 10
40.8115
 20
8.7746
 30
0.0
  0
SPLINE
  5
B7
330
1F
100
AcDbEntity
  8
layer 1
 62
     7
100
AcDbSpline
210
0.0
220
0.0
230
1.0
 70
    11
 71
     3
 72
    12
 73
     8
 74
     0
 42
0.0000000001
 43
0.0000000001
 12
1.0
 22
0.0
 32
0.0
 13
1.0
 23
0.0
 33
0.0
 40
0.0
 40
0.0
 40
0.0
 40
0.0
 40
0.3333333333333333
 40
0.3333333333333333
 40
0.3333333333333333
 40
0.3333333333333333
 40
1.0
 40
1.0
 40
1.0
 40
1.0
 10
13.1001
 20
41.161
 30
0.0
 10
12.916
 20
32.574
 30
0.0
 10
20.0277
 20
28.4906
 30
0.0
 10
30.5906
 20
29.5435
 30
0.0
 10
30.5906
 20
29.5435
 30
0.0
 10
27.836
 20
32.9959
 30
0.0
 10
23.02
 20
38.2855
 30
0.0
 10
13.1001
 20
41.161
 30
0.0
  0
SPLINE
  5
B8
330
1F
100
AcDbEntity
  8
layer 1
 62
     7
100
AcDbSpline
210
0.0
220
0.0
230
1.0
 70
    11
 71
     3
 72
    36
 73
    32
 74
     0
 42
0.0000000001
 43
0.0000000001
 12
1.0
 22
0.0
 32
0.0
 13
1.0
 23
0.0
 33
0.0
 40
0.0
 40
0.0
 40
0.0
 40
0.0
 40
0.1111111111111111
 40
0.1111111111111111
 40
0.1111111111111111
 40
0.1111111111111111
 40
0.2222222222222222
 40
0.2222222222222222
 40
0.2222222222222222
 40
0.2222222222222222
 40
0.3333333333333333
 40
0.3333333333333333
 40
0.3333333333333333
 40
0.3333333333333333
 40
0.4444444444444444
 40
0.4444444444444444
 40
0.4444444444444444
 40
0.4444444444444444
 40
0.5555555555555556
 40
0.5555555555555556
 40
0.5555555555555556
 40
0.5555555555555556
 40
0.6666666666666666
 40
0.6666666666666666
 40
0.6666666666666666
 40
0.6666666666666666
 40
0.7777777777777778
 40
0.7777777777777778
 40
0.7777777777777778
 40
0.7777777777777778
 40
1.0
 40
1.0
 40
1.0
 40
1.0
 10
10.2401
 20
41.7841
 30
0.0
 10
9.8815
 20
35.4472
 30
0.0
 10
13.1942
 20
28.9945
 30
0.0
 10
21.8023
 20
27.1856
 30
0.0
 10
21.8023
 20
27.1856
 30
0.0
 10
19.0267
 20
25.748
 30
0.0
 10
15.023
 20
23.4944
 30
0.0
 10
11.4708
 20
20.5409
 30
0.0
 10
11.4708
 20
20.5409
 30
0.0
 10
9.7709
 20
22.1234
 30
0.0
 10
7.1497
 20
24.3735
 30
0.0
 10
4.317
 20
25.9424
 30
0.0
 10
4.317
 20
25.9424
 30
0.0
 10
1.4837
 20
24.3735
 30
0.0
 10
-1.1375
 20
22.1234
 30
0.0
 10
-2.8376
 20
20.5409
 30
0.0
 10
-2.8376
 20
20.5409
 30
0.0
 10
-6.3897
 20
23.4944
 30
0.0
 10
-10.3933
 20
25.748
 30
0.0
 10
-13.169
 20
27.1856
 30
0.0
 10
-13.169
 20
27.1856
 30
0.0
 10
-4.5608
 20
28.9945
 30
0.0
 10
-1.2481
 20
35.4472
 30
0.0
 10
-1.6067
 20
41.7841
 30
0.0
 10
-1.6067
 20
41.7841
 30
0.0
 10
1.1736
 20
42.2441
 30
0.0
 10
2.7897
 20
42.2994
 30
0.0
 10
4.317
 20
42.3057
 30
0.0
 10
4.317
 20
42.3057
 30
0.0
 10
5.8437
 20
42.2995
 30
0.0
 10
7.4598
 20
42.2441
 30
0.0
 10
10.2401
 20
41.7841
 30
0.0
  0
SPLINE
  5
B9
330
1F
100
AcDbEntity
  8
layer 1
 62
     7
100
AcDbSpline
210
0.0
220
0.0
230
1.0
 70
    11
 71
     3
 72
    12
 73
     8
 74
     0
 42
0.0000000001
 43
0.0000000001
 12
1.0
 22
0.0
 32
0.0
 13
1.0
 23
0.0
 33
0.0
 40
0.0
 40
0.0
 40
0.0
 40
0.0
 40
0.3333333333333333
 40
0.3333333333333333
 40
0.3333333333333333
 40
0.3333333333333333
 40
1.0
 40
1.0
 40
1.0
 40
1.0
 10
4.317
 20
-2.5099
 30
0.0
 10
-0.8223
 20
2.2655
 30
0.0
 10
-1.3268
 20
8.1891
 30
0.0
 10
4.317
 20
14.2958
 30
0.0
 10
4.317
 20
14.2958
 30
0.0
 10
9.9602
 20
8.1891
 30
0.0
 10
9.4556
 20
2.2655
 30
0.0
 10
4.317
 20
-2.5099
 30
0.0
  0
SPLINE
  5
BA
330
1F
100
AcDbEntity
  8
layer 1
 62
     7
100
AcDbSpline
210
0.0
220
0.0
230
1.0
 70
    11
 71
     3
 72
    28
 73
    24
 74
     0
 42
0.0000000001
 43
0.0000000001
 12
1.0
 22
0.0
 32
0.0
 13
1.0
 23
0.0
 33
0.0
 40
0.0
 40
0.0
 40
0.0
 40
0.0
 40
0.1428571428571428
 40
0.1428571428571428
 40
0.1428571428571428
 40
0.1428571428571428
 40
0.2857142857142857
 40
0.2857142857142857
 40
0.2857142857142857
 40
0.2857142857142857
 40
0.4285714285714285
 40
0.4285714285714285
 40
0.4285714285714285
 40
0.4285714285714285
 40
0.5714285714285714
 40
0.5714285714285714
 40
0.5714285714285714
 40
0.5714285714285714
 40
0.7142857142857143
 40
0.7142857142857143
 40
0.7142857142857143
 40
0.7142857142857143
 40
1.0
 40
1.0
 40
1.0
 40
1.0
 10
13.1269
 20
-14.2107
 30
0.0
 10
14.3953
 20
-13.4679
 30
0.0
 10
15.6471
 20
-12.8283
 30
0.0
 10
17.4423
 20
-12.3066
 30
0.0
 10
17.4423
 20
-12.3066
 30
0.0
 10
14.4729
 20
-9.6
 30
0.0
 10
9.052
 20
-6.3163
 30
0.0
 10
4.317
 20
-6.5866
 30
0.0
 10
4.317
 20
-6.5866
 30
0.0
 10
-0.4186
 20
-6.3163
 30
0.0
 10
-5.8396
 20
-9.6
 30
0.0
 10
-8.8091
 20
-12.3066
 30
0.0
 10
-8.8091
 20
-12.3066
 30
0.0
 10
-7.0139
 20
-12.8283
 30
0.0
 10
-5.7621
 20
-13.4679
 30
0.0
 10
-4.4935
 20
-14.2107
 30
0.0
 10
-4.4935
 20
-14.2107
 30
0.0
 10
-2.6636
 20
-11.4447
 30
0.0
 10
1.1883
 20
-9.1115
 30
0.0
 10
4.317
 20
-9.2066
 30
0.0
 10
4.317
 20
-9.2066
 30
0.0
 10
7.4449
 20
-9.1115
 30
0.0
 10
11.2975
 20
-11.4447
 30
0.0
 10
13.1269
 20
-14.2107
 30
0.0
  0
SPLINE
  5
BB
330
1F
100
AcDbEntity
  8
layer 1
 62
     7
100
AcDbSpline
210
0.0
220
0.0
230
1.0
 70
    11
 71
     3
 72
    12
 73
     8
 74
     0
 42
0.0000000001
 43
0.0000000001
 12
1.0
 22
0.0
 32
0.0
 13
1.0
 23
0.0
 33
0.0
 40
0.0
 40
0.0
 40
0.0
 40
0.0
 40
0.3333333333333333
 40
0.3333333333333333
 40
0.3333333333333333
 40
0.3333333333333333
 40
1.0
 40
1.0
 40
1.0
 40
1.0
 10
9.3764
 20
-24.3854
 30
0.0
 10
10.8917
 20
-17.4168
 30
0.0
 10
17.6185
 20
-12.5895
 30
0.0
 10
28.3633
 20
-14.6177
 30
0.0
 10
28.3633
 20
-14.6177
 30
0.0
 10
25.1652
 20
-17.6642
 30
0.0
 10
19.7016
 20
-22.6997
 30
0.0
 10
9.3764
 20
-24.3854
 30
0.0
  0
SPLINE
  5
BC
330
1F
100
AcDbEntity
  8
layer 1
 62
     7
100
AcDbSpline
210
0.0
220
0.0
230
1.0
 70
    11
 71
     3
 72
    28
 73
    24
 74
     0
 42
0.0000000001
 43
0.0000000001
 12
1.0
 22
0.0
 32
0.0
 13
1.0
 23
0.0
 33
0.0
 40
0.0
 40
0.0
 40
0.0
 40
0.0
 40
0.1428571428571428
 40
0.1428571428571428
 40
0.1428571428571428
 40
0.1428571428571428
 40
0.2857142857142857
 40
0.2857142857142857
 40
0.2857142857142857
 40
0.2857142857142857
 40
0.4285714285714285
 40
0.4285714285714285
 40
0.4285714285714285
 40
0.4285714285714285
 40
0.5714285714285714
 40
0.5714285714285714
 40
0.5714285714285714
 40
0.5714285714285714
 40
0.7142857142857143
 40
0.7142857142857143
 40
0.7142857142857143
 40
0.7142857142857143
 40
1.0
 40
1.0
 40
1.0
 40
1.0
 10
13.4581
 20
-6.1294
 30
0.0
 10
14.1883
 20
-6.6048
 30
0.0
 10
15.0378
 20
-7.0266
 30
0.0
 10
15.9527
 20
-7.6994
 30
0.0
 10
15.9527
 20
-7.6994
 30
0.0
 10
27.8348
 20
-1.7181
 30
0.0
 10
38.1259
 20
9.132
 30
0.0
 10
30.7554
 20
26.6116
 30
0.0
 10
30.7554
 20
26.6116
 30
0.0
 10
24.8505
 20
26.6647
 30
0.0
 10
17.3511
 20
21.7311
 30
0.0
 10
13.3811
 20
18.28
 30
0.0
 10
13.3811
 20
18.28
 30
0.0
 10
14.1456
 20
17.5058
 30
0.0
 10
15.7326
 20
15.0066
 30
0.0
 10
16.113
 20
14.2951
 30
0.0
 10
16.113
 20
14.2951
 30
0.0
 10
19.8396
 20
18.8808
 30
0.0
 10
26.3236
 20
21.0738
 30
0.0
 10
27.9574
 20
21.7027
 30
0.0
 10
27.9574
 20
21.7027
 30
0.0
 10
33.1942
 20
7.6465
 30
0.0
 10
23.5496
 20
-1.0027
 30
0.0
 10
13.4581
 20
-6.1294
 30
0.0
  0
SPLINE
  5
BD
330
1F
100
AcDbEntity
  8
layer 1
 62
     7
100
AcDbSpline
210
0.0
220
0.0
230
1.0
 70
    11
 71
     3
 72
    16
 73
    12
 74
     0
 42
0.0000000001
 43
0.0000000001
 12
1.0
 22
0.0
 32
0.0
 13
1.0
 23
0.0
 33
0.0
 40
0.0
 40
0.0
 40
0.0
 40
0.0
 40
0.25
 40
0.25
 40
0.25
 40
0.25
 40
0.5
 40
0.5
 40
0.5
 40
0.5
 40
1.0
 40
1.0
 40
1.0
 40
1.0
 10
26.3123
 20
18.0081
 30
0.0
 10
21.3247
 20
16.2985
 30
0.0
 10
18.0563
 20
12.4219
 30
0.0
 10
17.2246
 20
11.1928
 30
0.0
 10
17.2246
 20
11.1928
 30
0.0
 10
17.9891
 20
10.4182
 30
0.0
 10
18.9064
 20
3.4062
 30
0.0
 10
15.6192
 20
-1.713
 30
0.0
 10
15.6192
 20
-1.713
 30
0.0
 10
22.1232
 20
1.981
 30
0.0
 10
28.4305
 20
8.5563
 30
0.0
 10
26.3123
 20
18.0081
 30
0.0
  0
SPLINE
  5
BE
330
1F
100
AcDbEntity
  8
layer 1
 62
     7
100
AcDbSpline
210
0.0
220
0.0
230
1.0
 70
    11
 71
     3
 72
    24
 73
    20
 74
     0
 42
0.0000000001
 43
0.0000000001
 12
1.0
 22
0.0
 32
0.0
 13
1.0
 23
0.0
 33
0.0
 40
0.0
 40
0.0
 40
0.0
 40
0.0
 40
0.1666666666666667
 40
0.1666666666666667
 40
0.1666666666666667
 40
0.1666666666666667
 40
0.3333333333333333
 40
0.3333333333333333
 40
0.3333333333333333
 40
0.3333333333333333
 40
0.5
 40
0.5
 40
0.5
 40
0.5
 40
0.6666666666666666
 40
0.6666666666666666
 40
0.6666666666666666
 40
0.6666666666666666
 40
1.0
 40
1.0
 40
1.0
 40
1.0
 10
35.304
 20
21.4285
 30
0.0
 10
38.1442
 20
11.397
 30
0.0
 10
33.8178
 20
-1.4354
 30
0.0
 10
18.4941
 20
-9.5407
 30
0.0
 10
18.4941
 20
-9.5407
 30
0.0
 10
19.0836
 20
-10.0623
 30
0.0
 10
19.9678
 20
-10.503
 30
0.0
 10
20.95
 20
-11.5554
 30
0.0
 10
20.95
 20
-11.5554
 30
0.0
 10
25.2964
 20
-11.1472
 30
0.0
 10
27.03
 20
-11.4151
 30
0.0
 10
30.57
 20
-12.0091
 30
0.0
 10
30.57
 20
-12.0091
 30
0.0
 10
32.5899
 20
-9.6587
 30
0.0
 10
34.7561
 20
-6.0217
 30
0.0
 10
36.0057
 20
-2.2677
 30
0.0
 10
36.0057
 20
-2.2677
 30
0.0
 10
38.5357
 20
5.3301
 30
0.0
 10
38.6098
 20
13.9593
 30
0.0
 10
35.304
 20
21.4285
 30
0.0
  0
SPLINE
  5
BF
330
1F
100
AcDbEntity
  8
layer 1
 62
     7
100
AcDbSpline
210
0.0
220
0.0
230
1.0
 70
    11
 71
     3
 72
    12
 73
     8
 74
     0
 42
0.0000000001
 43
0.0000000001
 12
1.0
 22
0.0
 32
0.0
 13
1.0
 23
0.0
 33
0.0
 40
0.0
 40
0.0
 40
0.0
 40
0.0
 40
0.3333333333333333
 40
0.3333333333333333
 40
0.3333333333333333
 40
0.3333333333333333
 40
1.0
 40
1.0
 40
1.0
 40
1.0
 10
-4.4668
 20
41.161
 30
0.0
 10
-4.2826
 20
32.574
 30
0.0
 10
-11.3943
 20
28.4906
 30
0.0
 10
-21.9572
 20
29.5435
 30
0.0
 10
-21.9572
 20
29.5435
 30
0.0
 10
-19.2026
 20
32.9959
 30
0.0
 10
-14.3867
 20
38.2855
 30
0.0
 10
-4.4668
 20
41.161
 30
0.0
  0
SPLINE
  5
C0
330
1F
100
AcDbEntity
  8
layer 1
 62
     7
100
AcDbSpline
210
0.0
220
0.0
230
1.0
 70
    11
 71
     3
 72
    28
 73
    24
 74
     0
 42
0.0000000001
 43
0.0000000001
 12
1.0
 22
0.0
 32
0.0
 13
1.0
 23
0.0
 33
0.0
 40
0.0
 40
0.0
 40
0.0
 40
0.0
 40
0.1428571428571428
 40
0.1428571428571428
 40
0.1428571428571428
 40
0.1428571428571428
 40
0.2857142857142857
 40
0.2857142857142857
 40
0.2857142857142857
 40
0.2857142857142857
 40
0.4285714285714285
 40
0.4285714285714285
 40
0.4285714285714285
 40
0.4285714285714285
 40
0.5714285714285714
 40
0.5714285714285714
 40
0.5714285714285714
 40
0.5714285714285714
 40
0.7142857142857143
 40
0.7142857142857143
 40
0.7142857142857143
 40
0.7142857142857143
 40
1.0
 40
1.0
 40
1.0
 40
1.0
 10
1.8753
 20
-4.0058
 30
0.0
 10
0.5106
 20
-4.255
 30
0.0
 10
-0.0043
 20
-4.2932
 30
0.0
 10
-1.4255
 20
-4.7822
 30
0.0
 10
-1.4255
 20
-4.7822
 30
0.0
 10
-8.5251
 20
3.2756
 30
0.0
 10
-9.6403
 20
13.2343
 30
0.0
 10
4.317
 20
22.5236
 30
0.0
 10
4.317
 20
22.5236
 30
0.0
 10
18.2736
 20
13.2343
 30
0.0
 10
17.1585
 20
3.2756
 30
0.0
 10
10.0588
 20
-4.7822
 30
0.0
 10
10.0588
 20
-4.7822
 30
0.0
 10
8.6375
 20
-4.2932
 30
0.0
 10
8.1228
 20
-4.255
 30
0.0
 10
6.758
 20
-4.0058
 30
0.0
 10
6.758
 20
-4.0058
 30
0.0
 10
14.706
 20
3.9108
 30
0.0
 10
10.7628
 20
13.1231
 30
0.0
 10
4.317
 20
18.1905
 30
0.0
 10
4.317
 20
18.1905
 30
0.0
 10
-2.1294
 20
13.1231
 30
0.0
 10
-6.0727
 20
3.9108
 30
0.0
 10
1.8753
 20
-4.0058
 30
0.0
  0
SPLINE
  5
C1
330
1F
100
AcDbEntity
  8
layer 1
 62
     7
100
AcDbSpline
210
0.0
220
0.0
230
1.0
 70
    11
 71
     3
 72
    28
 73
    24
 74
     0
 42
0.0000000001
 43
0.0000000001
 12
1.0
 22
0.0
 32
0.0
 13
1.0
 23
0.0
 33
0.0
 40
0.0
 40
0.0
 40
0.0
 40
0.0
 40
0.1428571428571428
 40
0.1428571428571428
 40
0.1428571428571428
 40
0.1428571428571428
 40
0.2857142857142857
 40
0.2857142857142857
 40
0.2857142857142857
 40
0.2857142857142857
 40
0.4285714285714285
 40
0.4285714285714285
 40
0.4285714285714285
 40
0.4285714285714285
 40
0.5714285714285714
 40
0.5714285714285714
 40
0.5714285714285714
 40
0.5714285714285714
 40
0.7142857142857143
 40
0.7142857142857143
 40
0.7142857142857143
 40
0.7142857142857143
 40
1.0
 40
1.0
 40
1.0
 40
1.0
 10
2.2458
 20
-24.7291
 30
0.0
 10
1.4302
 20
-20.823
 30
0.0
 10
-0.4335
 20
-17.4824
 30
0.0
 10
-2.4345
 20
-16.0526
 30
0.0
 10
-2.4345
 20
-16.0526
 30
0.0
 10
-0.6809
 20
-13.6725
 30
0.0
 10
1.962
 20
-11.9948
 30
0.0
 10
4.317
 20
-11.9218
 30
0.0
 10
4.317
 20
-11.9218
 30
0.0
 10
6.6714
 20
-11.9948
 30
0.0
 10
9.3142
 20
-13.6725
 30
0.0
 10
11.0678
 20
-16.0526
 30
0.0
 10
11.0678
 20
-16.0526
 30
0.0
 10
9.0669
 20
-17.4824
 30
0.0
 10
7.2032
 20
-20.823
 30
0.0
 10
6.3874
 20
-24.7291
 30
0.0
 10
6.3874
 20
-24.7291
 30
0.0
 10
5.3664
 20
-24.7691
 30
0.0
 10
4.9144
 20
-24.7707
 30
0.0
 10
4.317
 20
-24.7581
 30
0.0
 10
4.317
 20
-24.7581
 30
0.0
 10
3.7189
 20
-24.7707
 30
0.0
 10
3.2668
 20
-24.7691
 30
0.0
 10
2.2458
 20
-24.7291
 30
0.0
  0
SPLINE
  5
C2
330
1F
100
AcDbEntity
  8
layer 1
 62
     7
100
AcDbSpline
210
0.0
220
0.0
230
1.0
 70
    11
 71
     3
 72
    12
 73
     8
 74
     0
 42
0.0000000001
 43
0.0000000001
 12
1.0
 22
0.0
 32
0.0
 13
1.0
 23
0.0
 33
0.0
 40
0.0
 40
0.0
 40
0.0
 40
0.0
 40
0.3333333333333333
 40
0.3333333333333333
 40
0.3333333333333333
 40
0.3333333333333333
 40
1.0
 40
1.0
 40
1.0
 40
1.0
 10
-0.7431
 20
-24.3854
 30
0.0
 10
-2.2583
 20
-17.4168
 30
0.0
 10
-8.9853
 20
-12.5895
 30
0.0
 10
-19.7301
 20
-14.6177
 30
0.0
 10
-19.7301
 20
-14.6177
 30
0.0
 10
-16.5319
 20
-17.6642
 30
0.0
 10
-11.0683
 20
-22.6997
 30
0.0
 10
-0.7431
 20
-24.3854
 30
0.0
  0
SPLINE
  5
C3
330
1F
100
AcDbEntity
  8
layer 1
 62
     7
100
AcDbSpline
210
0.0
220
0.0
230
1.0
 70
    11
 71
     3
 72
    28
 73
    24
 74
     0
 42
0.0000000001
 43
0.0000000001
 12
1.0
 22
0.0
 32
0.0
 13
1.0
 23
0.0
 33
0.0
 40
0.0
 40
0.0
 40
0.0
 40
0.0
 40
0.1428571428571428
 40
0.1428571428571428
 40
0.1428571428571428
 40
0.1428571428571428
 40
0.2857142857142857
 40
0.2857142857142857
 40
0.2857142857142857
 40
0.2857142857142857
 40
0.4285714285714285
 40
0.4285714285714285
 40
0.4285714285714285
 40
0.4285714285714285
 40
0.5714285714285714
 40
0.5714285714285714
 40
0.5714285714285714
 40
0.5714285714285714
 40
0.7142857142857143
 40
0.7142857142857143
 40
0.7142857142857143
 40
0.7142857142857143
 40
1.0
 40
1.0
 40
1.0
 40
1.0
 10
-4.8248
 20
-6.1294
 30
0.0
 10
-5.5551
 20
-6.6048
 30
0.0
 10
-6.4045
 20
-7.0266
 30
0.0
 10
-7.3195
 20
-7.6994
 30
0.0
 10
-7.3195
 20
-7.6994
 30
0.0
 10
-19.2016
 20
-1.7181
 30
0.0
 10
-29.4925
 20
9.132
 30
0.0
 10
-22.122
 20
26.6116
 30
0.0
 10
-22.122
 20
26.6116
 30
0.0
 10
-16.2171
 20
26.6647
 30
0.0
 10
-8.7179
 20
21.7311
 30
0.0
 10
-4.7479
 20
18.28
 30
0.0
 10
-4.7479
 20
18.28
 30
0.0
 10
-5.5123
 20
17.5058
 30
0.0
 10
-7.0994
 20
15.0066
 30
0.0
 10
-7.4796
 20
14.2951
 30
0.0
 10
-7.4796
 20
14.2951
 30
0.0
 10
-11.2062
 20
18.8808
 30
0.0
 10
-17.6903
 20
21.0738
 30
0.0
 10
-19.324
 20
21.7027
 30
0.0
 10
-19.324
 20
21.7027
 30
0.0
 10
-24.5608
 20
7.6465
 30
0.0
 10
-14.9163
 20
-1.0027
 30
0.0
 10
-4.8248
 20
-6.1294
 30
0.0
  0
SPLINE
  5
C4
330
1F
100
AcDbEntity
  8
layer 1
 62
     7
100
AcDbSpline
210
0.0
220
0.0
230
1.0
 70
    11
 71
     3
 72
    16
 73
    12
 74
     0
 42
0.0000000001
 43
0.0000000001
 12
1.0
 22
0.0
 32
0.0
 13
1.0
 23
0.0
 33
0.0
 40
0.0
 40
0.0
 40
0.0
 40
0.0
 40
0.25
 40
0.25
 40
0.25
 40
0.25
 40
0.5
 40
0.5
 40
0.5
 40
0.5
 40
1.0
 40
1.0
 40
1.0
 40
1.0
 10
-17.6789
 20
18.0081
 30
0.0
 10
-12.6912
 20
16.2985
 30
0.0
 10
-9.4231
 20
12.4219
 30
0.0
 10
-8.5912
 20
11.1928
 30
0.0
 10
-8.5912
 20
11.1928
 30
0.0
 10
-9.3558
 20
10.4182
 30
0.0
 10
-10.273
 20
3.4062
 30
0.0
 10
-6.9859
 20
-1.713
 30
0.0
 10
-6.9859
 20
-1.713
 30
0.0
 10
-13.49
 20
1.981
 30
0.0
 10
-19.7973
 20
8.5563
 30
0.0
 10
-17.6789
 20
18.0081
 30
0.0
  0
SPLINE
  5
C5
330
1F
100
AcDbEntity
  8
layer 1
 62
     7
100
AcDbSpline
210
0.0
220
0.0
230
1.0
 70
    11
 71
     3
 72
    24
 73
    20
 74
     0
 42
0.0000000001
 43
0.0000000001
 12
1.0
 22
0.0
 32
0.0
 13
1.0
 23
0.0
 33
0.0
 40
0.0
 40
0.0
 40
0.0
 40
0.0
 40
0.1666666666666667
 40
0.1666666666666667
 40
0.1666666666666667
 40
0.1666666666666667
 40
0.3333333333333333
 40
0.3333333333333333
 40
0.3333333333333333
 40
0.3333333333333333
 40
0.5
 40
0.5
 40
0.5
 40
0.5
 40
0.6666666666666666
 40
0.6666666666666666
 40
0.6666666666666666
 40
0.6666666666666666
 40
1.0
 40
1.0
 40
1.0
 40
1.0
 10
-26.6707
 20
21.4285
 30
0.0
 10
-29.5108
 20
11.397
 30
0.0
 10
-25.1845
 20
-1.4354
 30
0.0
 10
-9.8609
 20
-9.5407
 30
0.0
 10
-9.8609
 20
-9.5407
 30
0.0
 10
-10.4503
 20
-10.0623
 30
0.0
 10
-11.3345
 20
-10.503
 30
0.0
 10
-12.3168
 20
-11.5554
 30
0.0
 10
-12.3168
 20
-11.5554
 30
0.0
 10
-16.663
 20
-11.1472
 30
0.0
 10
-18.3966
 20
-11.4151
 30
0.0
 10
-21.9368
 20
-12.0091
 30
0.0
 10
-21.9368
 20
-12.0091
 30
0.0
 10
-23.9566
 20
-9.6587
 30
0.0
 10
-26.1228
 20
-6.0217
 30
0.0
 10
-27.3725
 20
-2.2677
 30
0.0
 10
-27.3725
 20
-2.2677
 30
0.0
 10
-29.9025
 20
5.3301
 30
0.0
 10
-29.9766
 20
13.9593
 30
0.0
 10
-26.6707
 20
21.4285
 30
0.0
  0
SPLINE
  5
C6
330
1F
100
AcDbEntity
  8
layer 1
100
AcDbSpline
210
0.0
220
0.0
230
1.0
 70
    11
 71
     3
 72
    20
 73
    16
 74
     0
 42
0.0000000001
 43
0.0000000001
 12
1.0
 22
0.0
 32
0.0
 13
1.0
 23
0.0
 33
0.0
 40
0.0
 40
0.0
 40
0.0
 40
0.0
 40
0.2
 40
0.2
 40
0.2
 40
0.2
 40
0.4
 40
0.4
 40
0.4
 40
0.4
 40
0.6
 40
0.6
 40
0.6
 40
0.6
 40
1.0
 40
1.0
 40
1.0
 40
1.0
 10
41.0299
 20
-78.5102
 30
0.0
 10
41.0299
 20
-98.6696
 30
0.0
 10
24.6887
 20
-115.0108
 30
0.0
 10
4.529
 20
-115.0108
 30
0.0
 10
4.529
 20
-115.0108
 30
0.0
 10
-15.629
 20
-115.0108
 30
0.0
 10
-31.9701
 20
-98.6696
 30
0.0
 10
-31.9701
 20
-78.5103
 30
0.0
 10
-31.9701
 20
-78.5103
 30
0.0
 10
-31.9701
 20
-58.3519
 30
0.0
 10
-15.629
 20
-42.0108
 30
0.0
 10
4.529
 20
-42.0108
 30
0.0
 10
4.529
 20
-42.0108
 30
0.0
 10
24.6887
 20
-42.0108
 30
0.0
 10
41.0298
 20
-58.352
 30
0.0
 10
41.0299
 20
-78.5102
 30
0.0
  0
SPLINE
  5
C7
330
1F
100
AcDbEntity
  8
layer 1
 62
     7
100
AcDbSpline
210
0.0
220
0.0
230
1.0
 70
    11
 71
     3
 72
    16
 73
    12
 74
     0
 42
0.0000000001
 43
0.0000000001
 12
1.0
 22
0.0
 32
0.0
 13
1.0
 23
0.0
 33
0.0
 40
0.0
 40
0.0
 40
0.0
 40
0.0
 40
0.25
 40
0.25
 40
0.25
 40
0.25
 40
0.5
 40
0.5
 40
0.5
 40
0.5
 40
1.0
 40
1.0
 40
1.0
 40
1.0
 10
-16.6434
 20
-53.5087
 30
0.0
 10
-14.6992
 20
-56.062
 30
0.0
 10
-13.8186
 20
-60.6773
 30
0.0
 10
-17.0338
 20
-63.4267
 30
0.0
 10
-17.0338
 20
-63.4267
 30
0.0
 10
-20.4089
 20
-66.1182
 30
0.0
 10
-23.2516
 20
-66.3154
 30
0.0
 10
-25.6551
 20
-65.8194
 30
0.0
 10
-25.6551
 20
-65.8194
 30
0.0
 10
-24.8188
 20
-62.0543
 30
0.0
 10
-19.1471
 20
-55.4283
 30
0.0
 10
-16.6434
 20
-53.5087
 30
0.0
  0
SPLINE
  5
C8
330
1F
100
AcDbEntity
  8
layer 1
 62
     7
100
AcDbSpline
210
0.0
220
0.0
230
1.0
 70
    11
 71
     3
 72
    20
 73
    16
 74
     0
 42
0.0000000001
 43
0.0000000001
 12
1.0
 22
0.0
 32
0.0
 13
1.0
 23
0.0
 33
0.0
 40
0.0
 40
0.0
 40
0.0
 40
0.0
 40
0.2
 40
0.2
 40
0.2
 40
0.2
 40
0.4
 40
0.4
 40
0.4
 40
0.4
 40
0.6
 40
0.6
 40
0.6
 40
0.6
 40
1.0
 40
1.0
 40
1.0
 40
1.0
 10
-27.3157
 20
-70.8253
 30
0.0
 10
-25.8444
 20
-71.875
 30
0.0
 10
-23.684
 20
-71.1144
 30
0.0
 10
-23.803
 20
-67.8909
 30
0.0
 10
-23.803
 20
-67.8909
 30
0.0
 10
-21.5018
 20
-69.373
 30
0.0
 10
-19.3606
 20
-71.3157
 30
0.0
 10
-18.6484
 20
-73.8544
 30
0.0
 10
-18.6484
 20
-73.8544
 30
0.0
 10
-21.2629
 20
-72.0967
 30
0.0
 10
-25.6783
 20
-72.8925
 30
0.0
 10
-28.0278
 20
-75.1622
 30
0.0
 10
-28.0278
 20
-75.1622
 30
0.0
 10
-28.006
 20
-74.0543
 30
0.0
 10
-27.8656
 20
-72.7992
 30
0.0
 10
-27.3157
 20
-70.8253
 30
0.0
  0
SPLINE
  5
C9
330
1F
100
AcDbEntity
  8
layer 1
 62
     7
100
AcDbSpline
210
0.0
220
0.0
230
1.0
 70
    11
 71
     3
 72
    28
 73
    24
 74
     0
 42
0.0000000001
 43
0.0000000001
 12
1.0
 22
0.0
 32
0.0
 13
1.0
 23
0.0
 33
0.0
 40
0.0
 40
0.0
 40
0.0
 40
0.0
 40
0.1428571428571428
 40
0.1428571428571428
 40
0.1428571428571428
 40
0.1428571428571428
 40
0.2857142857142857
 40
0.2857142857142857
 40
0.2857142857142857
 40
0.2857142857142857
 40
0.4285714285714285
 40
0.4285714285714285
 40
0.4285714285714285
 40
0.4285714285714285
 40
0.5714285714285714
 40
0.5714285714285714
 40
0.5714285714285714
 40
0.5714285714285714
 40
0.7142857142857143
 40
0.7142857142857143
 40
0.7142857142857143
 40
0.7142857142857143
 40
1.0
 40
1.0
 40
1.0
 40
1.0
 10
-28.2464
 20
-78.8413
 30
0.0
 10
-23.4232
 20
-74.8191
 30
0.0
 10
-19.2146
 20
-79.3006
 30
0.0
 10
-23.7691
 20
-80.957
 30
0.0
 10
-23.7691
 20
-80.957
 30
0.0
 10
-21.883
 20
-82.9429
 30
0.0
 10
-20.0416
 20
-81.6069
 30
0.0
 10
-19.7455
 20
-79.8031
 30
0.0
 10
-19.7455
 20
-79.8031
 30
0.0
 10
-19.601
 20
-81.407
 30
0.0
 10
-18.5553
 20
-82.2619
 30
0.0
 10
-18.3866
 20
-82.4674
 30
0.0
 10
-18.3866
 20
-82.4674
 30
0.0
 10
-18.7459
 20
-84.6481
 30
0.0
 10
-20.6496
 20
-86.5086
 30
0.0
 10
-23.7435
 20
-88.2082
 30
0.0
 10
-23.7435
 20
-88.2082
 30
0.0
 10
-23.9568
 20
-85.3278
 30
0.0
 10
-25.6755
 20
-84.4483
 30
0.0
 10
-27.4008
 20
-85.8006
 30
0.0
 10
-27.4008
 20
-85.8006
 30
0.0
 10
-27.9075
 20
-83.6524
 30
0.0
 10
-28.3263
 20
-80.5098
 30
0.0
 10
-28.2464
 20
-78.8413
 30
0.0
  0
SPLINE
  5
CA
330
1F
100
AcDbEntity
  8
layer 1
 62
     7
100
AcDbSpline
210
0.0
220
0.0
230
1.0
 70
    11
 71
     3
 72
    16
 73
    12
 74
     0
 42
0.0000000001
 43
0.0000000001
 12
1.0
 22
0.0
 32
0.0
 13
1.0
 23
0.0
 33
0.0
 40
0.0
 40
0.0
 40
0.0
 40
0.0
 40
0.25
 40
0.25
 40
0.25
 40
0.25
 40
0.5
 40
0.5
 40
0.5
 40
0.5
 40
1.0
 40
1.0
 40
1.0
 40
1.0
 10
-25.624
 20
-91.0725
 30
0.0
 10
-22.6543
 20
-89.855
 30
0.0
 10
-17.6242
 20
-90.7345
 30
0.0
 10
-15.8004
 20
-94.553
 30
0.0
 10
-15.8004
 20
-94.553
 30
0.0
 10
-14.0753
 20
-98.5074
 30
0.0
 10
-15.7652
 20
-101.0381
 30
0.0
 10
-16.8665
 20
-103.2306
 30
0.0
 10
-16.8665
 20
-103.2306
 30
0.0
 10
-20.5172
 20
-100.4557
 30
0.0
 10
-24.8755
 20
-93.9882
 30
0.0
 10
-25.624
 20
-91.0725
 30
0.0
  0
SPLINE
  5
CB
330
1F
100
AcDbEntity
  8
layer 1
 62
     7
100
AcDbSpline
210
0.0
220
0.0
230
1.0
 70
    11
 71
     3
 72
    24
 73
    20
 74
     0
 42
0.0000000001
 43
0.0000000001
 12
1.0
 22
0.0
 32
0.0
 13
1.0
 23
0.0
 33
0.0
 40
0.0
 40
0.0
 40
0.0
 40
0.0
 40
0.1666666666666667
 40
0.1666666666666667
 40
0.1666666666666667
 40
0.1666666666666667
 40
0.3333333333333333
 40
0.3333333333333333
 40
0.3333333333333333
 40
0.3333333333333333
 40
0.5
 40
0.5
 40
0.5
 40
0.5
 40
0.6666666666666666
 40
0.6666666666666666
 40
0.6666666666666666
 40
0.6666666666666666
 40
1.0
 40
1.0
 40
1.0
 40
1.0
 10
-14.9303
 20
-52.1671
 30
0.0
 10
-13.9209
 20
-51.4334
 30
0.0
 10
-13.1455
 20
-50.8468
 30
0.0
 10
-12.2162
 20
-50.3053
 30
0.0
 10
-12.2162
 20
-50.3053
 30
0.0
 10
-11.9108
 20
-51.0146
 30
0.0
 10
-11.7419
 20
-51.4726
 30
0.0
 10
-11.4407
 20
-52.2266
 30
0.0
 10
-11.4407
 20
-52.2266
 30
0.0
 10
-12.0027
 20
-52.0979
 30
0.0
 10
-12.489
 20
-52.0575
 30
0.0
 10
-13.2279
 20
-51.9844
 30
0.0
 10
-13.2279
 20
-51.9844
 30
0.0
 10
-13.3914
 20
-52.6561
 30
0.0
 10
-13.5132
 20
-52.9425
 30
0.0
 10
-13.7591
 20
-53.6477
 30
0.0
 10
-13.7591
 20
-53.6477
 30
0.0
 10
-14.2361
 20
-52.9885
 30
0.0
 10
-14.4574
 20
-52.6441
 30
0.0
 10
-14.9303
 20
-52.1671
 30
0.0
  0
SPLINE
  5
CC
330
1F
100
AcDbEntity
  8
layer 1
 62
     7
100
AcDbSpline
210
0.0
220
0.0
230
1.0
 70
    11
 71
     3
 72
    24
 73
    20
 74
     0
 42
0.0000000001
 43
0.0000000001
 12
1.0
 22
0.0
 32
0.0
 13
1.0
 23
0.0
 33
0.0
 40
0.0
 40
0.0
 40
0.0
 40
0.0
 40
0.1666666666666667
 40
0.1666666666666667
 40
0.1666666666666667
 40
0.1666666666666667
 40
0.3333333333333333
 40
0.3333333333333333
 40
0.3333333333333333
 40
0.3333333333333333
 40
0.5
 40
0.5
 40
0.5
 40
0.5
 40
0.6666666666666666
 40
0.6666666666666666
 40
0.6666666666666666
 40
0.6666666666666666
 40
1.0
 40
1.0
 40
1.0
 40
1.0
 10
-12.3106
 20
-106.5461
 30
0.0
 10
-13.3724
 20
-105.8911
 30
0.0
 10
-14.2088
 20
-105.3965
 30
0.0
 10
-15.0628
 20
-104.7414
 30
0.0
 10
-15.0628
 20
-104.7414
 30
0.0
 10
-14.5238
 20
-104.1914
 30
0.0
 10
-14.1645
 20
-103.8591
 30
0.0
 10
-13.5793
 20
-103.2956
 30
0.0
 10
-13.5793
 20
-103.2956
 30
0.0
 10
-13.4862
 20
-103.8643
 30
0.0
 10
-13.3375
 20
-104.3291
 30
0.0
 10
-13.1255
 20
-105.0413
 30
0.0
 10
-13.1255
 20
-105.0413
 30
0.0
 10
-12.4417
 20
-104.9372
 30
0.0
 10
-12.1311
 20
-104.9399
 30
0.0
 10
-11.3851
 20
-104.9005
 30
0.0
 10
-11.3851
 20
-104.9005
 30
0.0
 10
-11.8136
 20
-105.5923
 30
0.0
 10
-12.0484
 20
-105.9288
 30
0.0
 10
-12.3106
 20
-106.5461
 30
0.0
  0
SPLINE
  5
CD
330
1F
100
AcDbEntity
  8
layer 1
 62
     7
100
AcDbSpline
210
0.0
220
0.0
230
1.0
 70
    11
 71
     3
 72
    24
 73
    20
 74
     0
 42
0.0000000001
 43
0.0000000001
 12
1.0
 22
0.0
 32
0.0
 13
1.0
 23
0.0
 33
0.0
 40
0.0
 40
0.0
 40
0.0
 40
0.0
 40
0.1666666666666667
 40
0.1666666666666667
 40
0.1666666666666667
 40
0.1666666666666667
 40
0.3333333333333333
 40
0.3333333333333333
 40
0.3333333333333333
 40
0.3333333333333333
 40
0.5
 40
0.5
 40
0.5
 40
0.5
 40
0.6666666666666666
 40
0.6666666666666666
 40
0.6666666666666666
 40
0.6666666666666666
 40
1.0
 40
1.0
 40
1.0
 40
1.0
 10
0.1502
 20
-46.9097
 30
0.0
 10
0.3464
 20
-46.41
 30
0.0
 10
0.6895
 20
-45.9507
 30
0.0
 10
0.6895
 20
-45.9507
 30
0.0
 10
0.6895
 20
-45.9507
 30
0.0
 10
3.0674
 20
-45.667
 30
0.0
 10
5.6949
 20
-45.7466
 30
0.0
 10
8.3703
 20
-45.9507
 30
0.0
 10
8.3703
 20
-45.9507
 30
0.0
 10
8.3703
 20
-45.9507
 30
0.0
 10
8.7134
 20
-46.41
 30
0.0
 10
8.9092
 20
-46.9098
 30
0.0
 10
8.9092
 20
-46.9098
 30
0.0
 10
7.1853
 20
-46.8153
 30
0.0
 10
5.0844
 20
-47.9882
 30
0.0
 10
4.529
 20
-50.5349
 30
0.0
 10
4.529
 20
-50.5349
 30
0.0
 10
3.9739
 20
-47.9882
 30
0.0
 10
1.8744
 20
-46.8154
 30
0.0
 10
0.1502
 20
-46.9097
 30
0.0
  0
SPLINE
  5
CE
330
1F
100
AcDbEntity
  8
layer 1
 62
     7
100
AcDbSpline
210
0.0
220
0.0
230
1.0
 70
    11
 71
     3
 72
    72
 73
    68
 74
     0
 42
0.0000000001
 43
0.0000000001
 12
1.0
 22
0.0
 32
0.0
 13
1.0
 23
0.0
 33
0.0
 40
0.0
 40
0.0
 40
0.0
 40
0.0
 40
0.0555555555555556
 40
0.0555555555555556
 40
0.0555555555555556
 40
0.0555555555555556
 40
0.1111111111111111
 40
0.1111111111111111
 40
0.1111111111111111
 40
0.1111111111111111
 40
0.1666666666666667
 40
0.1666666666666667
 40
0.1666666666666667
 40
0.1666666666666667
 40
0.2222222222222222
 40
0.2222222222222222
 40
0.2222222222222222
 40
0.2222222222222222
 40
0.2777777777777778
 40
0.2777777777777778
 40
0.2777777777777778
 40
0.2777777777777778
 40
0.3333333333333333
 40
0.3333333333333333
 40
0.3333333333333333
 40
0.3333333333333333
 40
0.3888888888888889
 40
0.3888888888888889
 40
0.3888888888888889
 40
0.3888888888888889
 40
0.4444444444444444
 40
0.4444444444444444
 40
0.4444444444444444
 40
0.4444444444444444
 40
0.5
 40
0.5
 40
0.5
 40
0.5
 40
0.5555555555555556
 40
0.5555555555555556
 40
0.5555555555555556
 40
0.5555555555555556
 40
0.6111111111111112
 40
0.6111111111111112
 40
0.6111111111111112
 40
0.6111111111111112
 40
0.6666666666666666
 40
0.6666666666666666
 40
0.6666666666666666
 40
0.6666666666666666
 40
0.7222222222222222
 40
0.7222222222222222
 40
0.7222222222222222
 40
0.7222222222222222
 40
0.7777777777777778
 40
0.7777777777777778
 40
0.7777777777777778
 40
0.7777777777777778
 40
0.8333333333333334
 40
0.8333333333333334
 40
0.8333333333333334
 40
0.8333333333333334
 40
0.8888888888888888
 40
0.8888888888888888
 40
0.8888888888888888
 40
0.8888888888888888
 40
1.0
 40
1.0
 40
1.0
 40
1.0
 10
-14.2468
 20
-64.2523
 30
0.0
 10
-14.2468
 20
-64.2523
 30
0.0
 10
-15.3007
 20
-66.2912
 30
0.0
 10
-20.3159
 20
-67.1071
 30
0.0
 10
-20.3159
 20
-67.1071
 30
0.0
 10
-20.1211
 20
-67.0964
 30
0.0
 10
-15.0236
 20
-67.4409
 30
0.0
 10
-14.8289
 20
-68.8379
 30
0.0
 10
-14.8289
 20
-68.8379
 30
0.0
 10
-14.6913
 20
-69.8281
 30
0.0
 10
-17.3313
 20
-69.2311
 30
0.0
 10
-16.9609
 20
-69.6338
 30
0.0
 10
-16.9609
 20
-69.6338
 30
0.0
 10
-16.0505
 20
-70.6226
 30
0.0
 10
-13.351
 20
-70.632
 30
0.0
 10
-13.628
 20
-73.9963
 30
0.0
 10
-13.628
 20
-73.9963
 30
0.0
 10
-13.6508
 20
-74.2812
 30
0.0
 10
-14.794
 20
-74.1501
 30
0.0
 10
-16.3286
 20
-73.8447
 30
0.0
 10
-16.3286
 20
-73.8447
 30
0.0
 10
-15.7721
 20
-74.954
 30
0.0
 10
-13.6954
 20
-75.4323
 30
0.0
 10
-14.8373
 20
-77.9009
 30
0.0
 10
-14.8373
 20
-77.9009
 30
0.0
 10
-14.2008
 20
-79.4154
 30
0.0
 10
-11.0326
 20
-82.8942
 30
0.0
 10
-10.288
 20
-78.7952
 30
0.0
 10
-10.288
 20
-78.7952
 30
0.0
 10
-8.7737
 20
-80.1099
 30
0.0
 10
-9.6086
 20
-84.6263
 30
0.0
 10
-14.0089
 20
-84.0764
 30
0.0
 10
-14.0089
 20
-84.0764
 30
0.0
 10
-13.7968
 20
-85.564
 30
0.0
 10
-15.0005
 20
-86.0209
 30
0.0
 10
-16.7503
 20
-86.7694
 30
0.0
 10
-16.7503
 20
-86.7694
 30
0.0
 10
-14.7749
 20
-86.5342
 30
0.0
 10
-12.808
 20
-88.5704
 30
0.0
 10
-20.1657
 20
-89.351
 30
0.0
 10
-20.1657
 20
-89.351
 30
0.0
 10
-18.8673
 20
-89.5388
 30
0.0
 10
-16.7679
 20
-90.1226
 30
0.0
 10
-14.105
 20
-92.322
 30
0.0
 10
-14.105
 20
-92.322
 30
0.0
 10
-13.8023
 20
-93.2099
 30
0.0
 10
-13.9915
 20
-88.4853
 30
0.0
 10
-8.7858
 20
-95.5498
 30
0.0
 10
-8.7858
 20
-95.5498
 30
0.0
 10
-9.3641
 20
-91.8047
 30
0.0
 10
-2.5033
 20
-93.3708
 30
0.0
 10
-7.9318
 20
-87.1827
 30
0.0
 10
-7.9318
 20
-87.1827
 30
0.0
 10
-9.0196
 20
-85.9425
 30
0.0
 10
-10.1935
 20
-82.2606
 30
0.0
 10
-5.4446
 20
-79.5196
 30
0.0
 10
-5.4446
 20
-79.5196
 30
0.0
 10
-6.9927
 20
-79.3518
 30
0.0
 10
-9.7476
 20
-77.9009
 30
0.0
 10
-11.0475
 20
-76.2998
 30
0.0
 10
-11.0475
 20
-76.2998
 30
0.0
 10
-12.3701
 20
-74.2408
 30
0.0
 10
-10.1098
 20
-72.7438
 30
0.0
 10
-12.7484
 20
-64.759
 30
0.0
 10
-12.7484
 20
-64.759
 30
0.0
 10
-13.7117
 20
-64.8645
 30
0.0
 10
-14.2468
 20
-64.2523
 30
0.0
 10
-14.2468
 20
-64.2523
 30
0.0
  0
SPLINE
  5
CF
330
1F
100
AcDbEntity
  8
layer 1
 62
     7
100
AcDbSpline
210
0.0
220
0.0
230
1.0
 70
    11
 71
     3
 72
   120
 73
   116
 74
     0
 42
0.0000000001
 43
0.0000000001
 12
1.0
 22
0.0
 32
0.0
 13
1.0
 23
0.0
 33
0.0
 40
0.0
 40
0.0
 40
0.0
 40
0.0
 40
0.0333333333333333
 40
0.0333333333333333
 40
0.0333333333333333
 40
0.0333333333333333
 40
0.0666666666666667
 40
0.0666666666666667
 40
0.0666666666666667
 40
0.0666666666666667
 40
0.1
 40
0.1
 40
0.1
 40
0.1
 40
0.1333333333333333
 40
0.1333333333333333
 40
0.1333333333333333
 40
0.1333333333333333
 40
0.1666666666666667
 40
0.1666666666666667
 40
0.1666666666666667
 40
0.1666666666666667
 40
0.2
 40
0.2
 40
0.2
 40
0.2
 40
0.2333333333333333
 40
0.2333333333333333
 40
0.2333333333333333
 40
0.2333333333333333
 40
0.2666666666666667
 40
0.2666666666666667
 40
0.2666666666666667
 40
0.2666666666666667
 40
0.3
 40
0.3
 40
0.3
 40
0.3
 40
0.3333333333333333
 40
0.3333333333333333
 40
0.3333333333333333
 40
0.3333333333333333
 40
0.3666666666666666
 40
0.3666666666666666
 40
0.3666666666666666
 40
0.3666666666666666
 40
0.4
 40
0.4
 40
0.4
 40
0.4
 40
0.4333333333333333
 40
0.4333333333333333
 40
0.4333333333333333
 40
0.4333333333333333
 40
0.4666666666666667
 40
0.4666666666666667
 40
0.4666666666666667
 40
0.4666666666666667
 40
0.5
 40
0.5
 40
0.5
 40
0.5
 40
0.5333333333333333
 40
0.5333333333333333
 40
0.5333333333333333
 40
0.5333333333333333
 40
0.5666666666666667
 40
0.5666666666666667
 40
0.5666666666666667
 40
0.5666666666666667
 40
0.6
 40
0.6
 40
0.6
 40
0.6
 40
0.6333333333333333
 40
0.6333333333333333
 40
0.6333333333333333
 40
0.6333333333333333
 40
0.6666666666666666
 40
0.6666666666666666
 40
0.6666666666666666
 40
0.6666666666666666
 40
0.7
 40
0.7
 40
0.7
 40
0.7
 40
0.7333333333333333
 40
0.7333333333333333
 40
0.7333333333333333
 40
0.7333333333333333
 40
0.7666666666666667
 40
0.7666666666666667
 40
0.7666666666666667
 40
0.7666666666666667
 40
0.8
 40
0.8
 40
0.8
 40
0.8
 40
0.8333333333333334
 40
0.8333333333333334
 40
0.8333333333333334
 40
0.8333333333333334
 40
0.8666666666666667
 40
0.8666666666666667
 40
0.8666666666666667
 40
0.8666666666666667
 40
0.9
 40
0.9
 40
0.9
 40
0.9
 40
0.9333333333333333
 40
0.9333333333333333
 40
0.9333333333333333
 40
0.9333333333333333
 40
1.0
 40
1.0
 40
1.0
 40
1.0
 10
4.5415
 20
-73.3989
 30
0.0
 10
5.2924
 20
-71.4928
 30
0.0
 10
6.2666
 20
-69.1471
 30
0.0
 10
8.9728
 20
-65.6939
 30
0.0
 10
8.9728
 20
-65.6939
 30
0.0
 10
9.4335
 20
-65.6507
 30
0.0
 10
9.8468
 20
-65.991
 30
0.0
 10
9.7673
 20
-66.5005
 30
0.0
 10
9.7673
 20
-66.5005
 30
0.0
 10
8.3256
 20
-67.9718
 30
0.0
 10
6.3787
 20
-70.5604
 30
0.0
 10
5.1886
 20
-74.0219
 30
0.0
 10
5.1886
 20
-74.0219
 30
0.0
 10
4.9696
 20
-75.046
 30
0.0
 10
5.5912
 20
-75.3946
 30
0.0
 10
5.8883
 20
-74.6123
 30
0.0
 10
5.8883
 20
-74.6123
 30
0.0
 10
7.1165
 20
-71.0062
 30
0.0
 10
13.6462
 20
-63.6227
 30
0.0
 10
19.8585
 20
-63.308
 30
0.0
 10
19.8585
 20
-63.308
 30
0.0
 10
20.0747
 20
-63.1634
 30
0.0
 10
18.5587
 20
-59.9911
 30
0.0
 10
15.5593
 20
-60.8893
 30
0.0
 10
15.5593
 20
-60.8893
 30
0.0
 10
18.2737
 20
-61.4787
 30
0.0
 10
16.8051
 20
-64.116
 30
0.0
 10
15.231
 20
-63.7144
 30
0.0
 10
15.231
 20
-63.7144
 30
0.0
 10
12.5613
 20
-63.0337
 30
0.0
 10
13.2381
 20
-59.1845
 30
0.0
 10
15.0716
 20
-58.5481
 30
0.0
 10
15.0716
 20
-58.5481
 30
0.0
 10
16.4523
 20
-57.8387
 30
0.0
 10
18.5694
 20
-58.1888
 30
0.0
 10
21.0379
 20
-60.8666
 30
0.0
 10
21.0379
 20
-60.8666
 30
0.0
 10
18.9167
 20
-51.5441
 30
0.0
 10
13.7866
 20
-49.6336
 30
0.0
 10
12.5166
 20
-49.0812
 30
0.0
 10
12.5166
 20
-49.0812
 30
0.0
 10
10.4158
 20
-48.1677
 30
0.0
 10
4.5415
 20
-48.8623
 30
0.0
 10
7.653
 20
-53.4897
 30
0.0
 10
7.653
 20
-53.4897
 30
0.0
 10
8.2081
 20
-50.8565
 30
0.0
 10
10.6305
 20
-52.1318
 30
0.0
 10
10.2889
 20
-53.6938
 30
0.0
 10
10.2889
 20
-53.6938
 30
0.0
 10
9.9551
 20
-55.2135
 30
0.0
 10
8.1649
 20
-56.5566
 30
0.0
 10
5.7898
 20
-54.4246
 30
0.0
 10
5.7898
 20
-54.4246
 30
0.0
 10
5.2114
 20
-53.8273
 30
0.0
 10
4.6857
 20
-53.1518
 30
0.0
 10
4.529
 20
-52.4428
 30
0.0
 10
4.529
 20
-52.4428
 30
0.0
 10
4.3737
 20
-53.1517
 30
0.0
 10
3.8483
 20
-53.8273
 30
0.0
 10
3.27
 20
-54.4246
 30
0.0
 10
3.27
 20
-54.4246
 30
0.0
 10
0.8949
 20
-56.5566
 30
0.0
 10
-0.8967
 20
-55.2136
 30
0.0
 10
-1.2292
 20
-53.6938
 30
0.0
 10
-1.2292
 20
-53.6938
 30
0.0
 10
-1.5722
 20
-52.1318
 30
0.0
 10
0.8502
 20
-50.8565
 30
0.0
 10
1.4068
 20
-53.4897
 30
0.0
 10
1.4068
 20
-53.4897
 30
0.0
 10
4.5183
 20
-48.8623
 30
0.0
 10
-1.356
 20
-48.1677
 30
0.0
 10
-3.4569
 20
-49.0812
 30
0.0
 10
-3.4569
 20
-49.0812
 30
0.0
 10
-4.7269
 20
-49.6336
 30
0.0
 10
-9.857
 20
-51.5441
 30
0.0
 10
-11.9796
 20
-60.8666
 30
0.0
 10
-11.9796
 20
-60.8666
 30
0.0
 10
-9.5097
 20
-58.1887
 30
0.0
 10
-7.3926
 20
-57.8387
 30
0.0
 10
-6.0133
 20
-58.5481
 30
0.0
 10
-6.0133
 20
-58.5481
 30
0.0
 10
-4.1784
 20
-59.1845
 30
0.0
 10
-3.5015
 20
-63.0338
 30
0.0
 10
-6.1713
 20
-63.7144
 30
0.0
 10
-6.1713
 20
-63.7144
 30
0.0
 10
-7.7454
 20
-64.116
 30
0.0
 10
-9.214
 20
-61.4787
 30
0.0
 10
-6.5009
 20
-60.8893
 30
0.0
 10
-6.5009
 20
-60.8893
 30
0.0
 10
-9.499
 20
-59.9911
 30
0.0
 10
-11.0149
 20
-63.1635
 30
0.0
 10
-10.7988
 20
-63.308
 30
0.0
 10
-10.7988
 20
-63.308
 30
0.0
 10
-4.5879
 20
-63.6227
 30
0.0
 10
1.9432
 20
-71.0062
 30
0.0
 10
3.1714
 20
-74.6123
 30
0.0
 10
3.1714
 20
-74.6123
 30
0.0
 10
3.4686
 20
-75.3946
 30
0.0
 10
4.0901
 20
-75.046
 30
0.0
 10
3.8711
 20
-74.0219
 30
0.0
 10
3.8711
 20
-74.0219
 30
0.0
 10
2.681
 20
-70.5604
 30
0.0
 10
0.7341
 20
-67.9718
 30
0.0
 10
-0.7089
 20
-66.5005
 30
0.0
 10
-0.7089
 20
-66.5005
 30
0.0
 10
-0.7875
 20
-65.991
 30
0.0
 10
-0.3737
 20
-65.6507
 30
0.0
 10
0.087
 20
-65.6939
 30
0.0
 10
0.087
 20
-65.6939
 30
0.0
 10
2.7931
 20
-69.1471
 30
0.0
 10
3.7657
 20
-71.4929
 30
0.0
 10
4.5182
 20
-73.3989
 30
0.0
 10
4.5182
 20
-73.3989
 30
0.0
 10
4.5182
 20
-73.3989
 30
0.0
 10
4.5415
 20
-73.3989
 30
0.0
 10
4.5415
 20
-73.3989
 30
0.0
  0
SPLINE
  5
D0
330
1F
100
AcDbEntity
  8
layer 1
 62
     7
100
AcDbSpline
210
0.0
220
0.0
230
1.0
 70
    11
 71
     3
 72
    16
 73
    12
 74
     0
 42
0.0000000001
 43
0.0000000001
 12
1.0
 22
0.0
 32
0.0
 13
1.0
 23
0.0
 33
0.0
 40
0.0
 40
0.0
 40
0.0
 40
0.0
 40
0.25
 40
0.25
 40
0.25
 40
0.25
 40
0.5
 40
0.5
 40
0.5
 40
0.5
 40
1.0
 40
1.0
 40
1.0
 40
1.0
 10
25.7017
 20
-53.5087
 30
0.0
 10
23.7589
 20
-56.062
 30
0.0
 10
22.878
 20
-60.6773
 30
0.0
 10
26.0936
 20
-63.4267
 30
0.0
 10
26.0936
 20
-63.4267
 30
0.0
 10
29.4673
 20
-66.1182
 30
0.0
 10
32.3099
 20
-66.3154
 30
0.0
 10
34.7135
 20
-65.8194
 30
0.0
 10
34.7135
 20
-65.8194
 30
0.0
 10
33.8785
 20
-62.0543
 30
0.0
 10
28.2052
 20
-55.4283
 30
0.0
 10
25.7017
 20
-53.5087
 30
0.0
  0
SPLINE
  5
D1
330
1F
100
AcDbEntity
  8
layer 1
 62
     7
100
AcDbSpline
210
0.0
220
0.0
230
1.0
 70
    11
 71
     3
 72
    20
 73
    16
 74
     0
 42
0.0000000001
 43
0.0000000001
 12
1.0
 22
0.0
 32
0.0
 13
1.0
 23
0.0
 33
0.0
 40
0.0
 40
0.0
 40
0.0
 40
0.0
 40
0.2
 40
0.2
 40
0.2
 40
0.2
 40
0.4
 40
0.4
 40
0.4
 40
0.4
 40
0.6
 40
0.6
 40
0.6
 40
0.6
 40
1.0
 40
1.0
 40
1.0
 40
1.0
 10
36.374
 20
-70.8253
 30
0.0
 10
34.9041
 20
-71.875
 30
0.0
 10
32.7437
 20
-71.1144
 30
0.0
 10
32.8609
 20
-67.8909
 30
0.0
 10
32.8609
 20
-67.8909
 30
0.0
 10
30.5616
 20
-69.373
 30
0.0
 10
28.4203
 20
-71.3157
 30
0.0
 10
27.7081
 20
-73.8544
 30
0.0
 10
27.7081
 20
-73.8544
 30
0.0
 10
30.3226
 20
-72.0967
 30
0.0
 10
34.7377
 20
-72.8925
 30
0.0
 10
37.0872
 20
-75.1622
 30
0.0
 10
37.0872
 20
-75.1622
 30
0.0
 10
37.0658
 20
-74.0543
 30
0.0
 10
36.925
 20
-72.7992
 30
0.0
 10
36.374
 20
-70.8253
 30
0.0
  0
SPLINE
  5
D2
330
1F
100
AcDbEntity
  8
layer 1
 62
     7
100
AcDbSpline
210
0.0
220
0.0
230
1.0
 70
    11
 71
     3
 72
    28
 73
    24
 74
     0
 42
0.0000000001
 43
0.0000000001
 12
1.0
 22
0.0
 32
0.0
 13
1.0
 23
0.0
 33
0.0
 40
0.0
 40
0.0
 40
0.0
 40
0.0
 40
0.1428571428571428
 40
0.1428571428571428
 40
0.1428571428571428
 40
0.1428571428571428
 40
0.2857142857142857
 40
0.2857142857142857
 40
0.2857142857142857
 40
0.2857142857142857
 40
0.4285714285714285
 40
0.4285714285714285
 40
0.4285714285714285
 40
0.4285714285714285
 40
0.5714285714285714
 40
0.5714285714285714
 40
0.5714285714285714
 40
0.5714285714285714
 40
0.7142857142857143
 40
0.7142857142857143
 40
0.7142857142857143
 40
0.7142857142857143
 40
1.0
 40
1.0
 40
1.0
 40
1.0
 10
37.3048
 20
-78.8413
 30
0.0
 10
32.483
 20
-74.8191
 30
0.0
 10
28.2743
 20
-79.3006
 30
0.0
 10
32.8288
 20
-80.957
 30
0.0
 10
32.8288
 20
-80.957
 30
0.0
 10
30.9427
 20
-82.9429
 30
0.0
 10
29.101
 20
-81.6069
 30
0.0
 10
28.8038
 20
-79.8031
 30
0.0
 10
28.8038
 20
-79.8031
 30
0.0
 10
28.6607
 20
-81.407
 30
0.0
 10
27.6148
 20
-82.2619
 30
0.0
 10
27.4459
 20
-82.4674
 30
0.0
 10
27.4459
 20
-82.4674
 30
0.0
 10
27.8053
 20
-84.6481
 30
0.0
 10
29.7076
 20
-86.5086
 30
0.0
 10
32.8029
 20
-88.2082
 30
0.0
 10
32.8029
 20
-88.2082
 30
0.0
 10
33.0153
 20
-85.3278
 30
0.0
 10
34.7349
 20
-84.4483
 30
0.0
 10
36.4591
 20
-85.8006
 30
0.0
 10
36.4591
 20
-85.8006
 30
0.0
 10
36.9672
 20
-83.6524
 30
0.0
 10
37.3857
 20
-80.5098
 30
0.0
 10
37.3048
 20
-78.8413
 30
0.0
  0
SPLINE
  5
D3
330
1F
100
AcDbEntity
  8
layer 1
 62
     7
100
AcDbSpline
210
0.0
220
0.0
230
1.0
 70
    11
 71
     3
 72
    16
 73
    12
 74
     0
 42
0.0000000001
 43
0.0000000001
 12
1.0
 22
0.0
 32
0.0
 13
1.0
 23
0.0
 33
0.0
 40
0.0
 40
0.0
 40
0.0
 40
0.0
 40
0.25
 40
0.25
 40
0.25
 40
0.25
 40
0.5
 40
0.5
 40
0.5
 40
0.5
 40
1.0
 40
1.0
 40
1.0
 40
1.0
 10
34.6824
 20
-91.0725
 30
0.0
 10
31.7127
 20
-89.855
 30
0.0
 10
26.684
 20
-90.7345
 30
0.0
 10
24.8602
 20
-94.553
 30
0.0
 10
24.8602
 20
-94.553
 30
0.0
 10
23.1347
 20
-98.5074
 30
0.0
 10
24.8249
 20
-101.0381
 30
0.0
 10
25.9262
 20
-103.2306
 30
0.0
 10
25.9262
 20
-103.2306
 30
0.0
 10
29.5766
 20
-100.4557
 30
0.0
 10
33.9352
 20
-93.9882
 30
0.0
 10
34.6824
 20
-91.0725
 30
0.0
  0
SPLINE
  5
D4
330
1F
100
AcDbEntity
  8
layer 1
 62
     7
100
AcDbSpline
210
0.0
220
0.0
230
1.0
 70
    11
 71
     3
 72
    24
 73
    20
 74
     0
 42
0.0000000001
 43
0.0000000001
 12
1.0
 22
0.0
 32
0.0
 13
1.0
 23
0.0
 33
0.0
 40
0.0
 40
0.0
 40
0.0
 40
0.0
 40
0.1666666666666667
 40
0.1666666666666667
 40
0.1666666666666667
 40
0.1666666666666667
 40
0.3333333333333333
 40
0.3333333333333333
 40
0.3333333333333333
 40
0.3333333333333333
 40
0.5
 40
0.5
 40
0.5
 40
0.5
 40
0.6666666666666666
 40
0.6666666666666666
 40
0.6666666666666666
 40
0.6666666666666666
 40
1.0
 40
1.0
 40
1.0
 40
1.0
 10
23.99
 20
-52.1671
 30
0.0
 10
22.9807
 20
-51.4334
 30
0.0
 10
22.2052
 20
-50.8468
 30
0.0
 10
21.2756
 20
-50.3053
 30
0.0
 10
21.2756
 20
-50.3053
 30
0.0
 10
20.9705
 20
-51.0146
 30
0.0
 10
20.8
 20
-51.4726
 30
0.0
 10
20.5002
 20
-52.2266
 30
0.0
 10
20.5002
 20
-52.2266
 30
0.0
 10
21.0621
 20
-52.0979
 30
0.0
 10
21.5484
 20
-52.0575
 30
0.0
 10
22.2876
 20
-51.9844
 30
0.0
 10
22.2876
 20
-51.9844
 30
0.0
 10
22.4512
 20
-52.6561
 30
0.0
 10
22.5712
 20
-52.9425
 30
0.0
 10
22.8185
 20
-53.6477
 30
0.0
 10
22.8185
 20
-53.6477
 30
0.0
 10
23.2955
 20
-52.9885
 30
0.0
 10
23.5171
 20
-52.6441
 30
0.0
 10
23.99
 20
-52.1671
 30
0.0
  0
SPLINE
  5
D5
330
1F
100
AcDbEntity
  8
layer 1
 62
     7
100
AcDbSpline
210
0.0
220
0.0
230
1.0
 70
    11
 71
     3
 72
    24
 73
    20
 74
     0
 42
0.0000000001
 43
0.0000000001
 12
1.0
 22
0.0
 32
0.0
 13
1.0
 23
0.0
 33
0.0
 40
0.0
 40
0.0
 40
0.0
 40
0.0
 40
0.1666666666666667
 40
0.1666666666666667
 40
0.1666666666666667
 40
0.1666666666666667
 40
0.3333333333333333
 40
0.3333333333333333
 40
0.3333333333333333
 40
0.3333333333333333
 40
0.5
 40
0.5
 40
0.5
 40
0.5
 40
0.6666666666666666
 40
0.6666666666666666
 40
0.6666666666666666
 40
0.6666666666666666
 40
1.0
 40
1.0
 40
1.0
 40
1.0
 10
21.3704
 20
-106.5461
 30
0.0
 10
22.4322
 20
-105.8911
 30
0.0
 10
23.2685
 20
-105.3965
 30
0.0
 10
24.1225
 20
-104.7414
 30
0.0
 10
24.1225
 20
-104.7414
 30
0.0
 10
23.5832
 20
-104.1914
 30
0.0
 10
23.2225
 20
-103.8591
 30
0.0
 10
22.639
 20
-103.2956
 30
0.0
 10
22.639
 20
-103.2956
 30
0.0
 10
22.5443
 20
-103.8643
 30
0.0
 10
22.3972
 20
-104.3291
 30
0.0
 10
22.1835
 20
-105.0413
 30
0.0
 10
22.1835
 20
-105.0413
 30
0.0
 10
21.5015
 20
-104.9372
 30
0.0
 10
21.1905
 20
-104.9399
 30
0.0
 10
20.4448
 20
-104.9005
 30
0.0
 10
20.4448
 20
-104.9005
 30
0.0
 10
20.873
 20
-105.5923
 30
0.0
 10
21.1081
 20
-105.9288
 30
0.0
 10
21.3704
 20
-106.5461
 30
0.0
  0
SPLINE
  5
D6
330
1F
100
AcDbEntity
  8
layer 1
 62
     7
100
AcDbSpline
210
0.0
220
0.0
230
1.0
 70
    11
 71
     3
 72
    16
 73
    12
 74
     0
 42
0.0000000001
 43
0.0000000001
 12
1.0
 22
0.0
 32
0.0
 13
1.0
 23
0.0
 33
0.0
 40
0.0
 40
0.0
 40
0.0
 40
0.0
 40
0.25
 40
0.25
 40
0.25
 40
0.25
 40
0.5
 40
0.5
 40
0.5
 40
0.5
 40
1.0
 40
1.0
 40
1.0
 40
1.0
 10
9.5348
 20
-110.8426
 30
0.0
 10
6.4015
 20
-110.1482
 30
0.0
 10
5.1575
 20
-108.6135
 30
0.0
 10
4.529
 20
-106.5261
 30
0.0
 10
4.529
 20
-106.5261
 30
0.0
 10
3.9009
 20
-108.6135
 30
0.0
 10
2.6564
 20
-110.1482
 30
0.0
 10
-0.4751
 20
-110.8426
 30
0.0
 10
-0.4751
 20
-110.8426
 30
0.0
 10
2.993
 20
-111.5181
 30
0.0
 10
6.5164
 20
-111.248
 30
0.0
 10
9.5348
 20
-110.8426
 30
0.0
  0
SPLINE
  5
D7
330
1F
100
AcDbEntity
  8
layer 1
 62
     7
100
AcDbSpline
210
0.0
220
0.0
230
1.0
 70
    11
 71
     3
 72
    68
 73
    64
 74
     0
 42
0.0000000001
 43
0.0000000001
 12
1.0
 22
0.0
 32
0.0
 13
1.0
 23
0.0
 33
0.0
 40
0.0
 40
0.0
 40
0.0
 40
0.0
 40
0.0588235294117647
 40
0.0588235294117647
 40
0.0588235294117647
 40
0.0588235294117647
 40
0.1176470588235294
 40
0.1176470588235294
 40
0.1176470588235294
 40
0.1176470588235294
 40
0.1764705882352941
 40
0.1764705882352941
 40
0.1764705882352941
 40
0.1764705882352941
 40
0.2352941176470588
 40
0.2352941176470588
 40
0.2352941176470588
 40
0.2352941176470588
 40
0.2941176470588235
 40
0.2941176470588235
 40
0.2941176470588235
 40
0.2941176470588235
 40
0.3529411764705883
 40
0.3529411764705883
 40
0.3529411764705883
 40
0.3529411764705883
 40
0.4117647058823529
 40
0.4117647058823529
 40
0.4117647058823529
 40
0.4117647058823529
 40
0.4705882352941176
 40
0.4705882352941176
 40
0.4705882352941176
 40
0.4705882352941176
 40
0.5294117647058824
 40
0.5294117647058824
 40
0.5294117647058824
 40
0.5294117647058824
 40
0.5882352941176471
 40
0.5882352941176471
 40
0.5882352941176471
 40
0.5882352941176471
 40
0.6470588235294118
 40
0.6470588235294118
 40
0.6470588235294118
 40
0.6470588235294118
 40
0.7058823529411765
 40
0.7058823529411765
 40
0.7058823529411765
 40
0.7058823529411765
 40
0.7647058823529411
 40
0.7647058823529411
 40
0.7647058823529411
 40
0.7647058823529411
 40
0.8235294117647058
 40
0.8235294117647058
 40
0.8235294117647058
 40
0.8235294117647058
 40
0.8823529411764706
 40
0.8823529411764706
 40
0.8823529411764706
 40
0.8823529411764706
 40
1.0
 40
1.0
 40
1.0
 40
1.0
 10
9.1675
 20
-101.154
 30
0.0
 10
12.4534
 20
-102.9795
 30
0.0
 10
8.5823
 20
-107.0557
 30
0.0
 10
7.7553
 20
-103.0037
 30
0.0
 10
7.7553
 20
-103.0037
 30
0.0
 10
5.5127
 20
-103.6481
 30
0.0
 10
6.9691
 20
-108.9863
 30
0.0
 10
11.5492
 20
-107.5744
 30
0.0
 10
11.5492
 20
-107.5744
 30
0.0
 10
19.483
 20
-104.9831
 30
0.0
 10
20.315
 20
-97.3861
 30
0.0
 10
21.077
 20
-96.1686
 30
0.0
 10
21.077
 20
-96.1686
 30
0.0
 10
13.6352
 20
-101.8187
 30
0.0
 10
12.0479
 20
-93.8515
 30
0.0
 10
14.723
 20
-93.1408
 30
0.0
 10
14.723
 20
-93.1408
 30
0.0
 10
14.4338
 20
-92.6679
 30
0.0
 10
14.3664
 20
-92.3667
 30
0.0
 10
13.8122
 20
-91.944
 30
0.0
 10
13.8122
 20
-91.944
 30
0.0
 10
5.879
 20
-93.4721
 30
0.0
 10
6.3909
 20
-86.3329
 30
0.0
 10
5.4235
 20
-82.85
 30
0.0
 10
5.4235
 20
-82.85
 30
0.0
 10
5.291
 20
-83.8835
 30
0.0
 10
4.9614
 20
-85.121
 30
0.0
 10
4.529
 20
-85.3831
 30
0.0
 10
4.529
 20
-85.3831
 30
0.0
 10
4.0966
 20
-85.121
 30
0.0
 10
3.7684
 20
-83.8835
 30
0.0
 10
3.6346
 20
-82.85
 30
0.0
 10
3.6346
 20
-82.85
 30
0.0
 10
2.6686
 20
-86.3329
 30
0.0
 10
3.1808
 20
-93.4721
 30
0.0
 10
-4.7529
 20
-91.944
 30
0.0
 10
-4.7529
 20
-91.944
 30
0.0
 10
-5.3066
 20
-92.3667
 30
0.0
 10
-5.3741
 20
-92.6679
 30
0.0
 10
-5.6633
 20
-93.1408
 30
0.0
 10
-5.6633
 20
-93.1408
 30
0.0
 10
-2.9896
 20
-93.8515
 30
0.0
 10
-4.5758
 20
-101.8188
 30
0.0
 10
-12.0173
 20
-96.1686
 30
0.0
 10
-12.0173
 20
-96.1686
 30
0.0
 10
-11.2553
 20
-97.386
 30
0.0
 10
-10.4232
 20
-104.9831
 30
0.0
 10
-2.4898
 20
-107.5744
 30
0.0
 10
-2.4898
 20
-107.5744
 30
0.0
 10
2.0906
 20
-108.9863
 30
0.0
 10
3.547
 20
-103.6481
 30
0.0
 10
1.3041
 20
-103.0037
 30
0.0
 10
1.3041
 20
-103.0037
 30
0.0
 10
0.4775
 20
-107.0557
 30
0.0
 10
-3.3936
 20
-102.9795
 30
0.0
 10
-0.1092
 20
-101.154
 30
0.0
 10
-0.1092
 20
-101.154
 30
0.0
 10
1.8215
 20
-100.0814
 30
0.0
 10
4.2333
 20
-102.1014
 30
0.0
 10
4.529
 20
-103.7508
 30
0.0
 10
4.529
 20
-103.7508
 30
0.0
 10
4.8265
 20
-102.1014
 30
0.0
 10
7.2365
 20
-100.0815
 30
0.0
 10
9.1675
 20
-101.154
 30
0.0
  0
SPLINE
  5
D8
330
1F
100
AcDbEntity
  8
layer 1
 62
     7
100
AcDbSpline
210
0.0
220
0.0
230
1.0
 70
    11
 71
     3
 72
    72
 73
    68
 74
     0
 42
0.0000000001
 43
0.0000000001
 12
1.0
 22
0.0
 32
0.0
 13
1.0
 23
0.0
 33
0.0
 40
0.0
 40
0.0
 40
0.0
 40
0.0
 40
0.0555555555555556
 40
0.0555555555555556
 40
0.0555555555555556
 40
0.0555555555555556
 40
0.1111111111111111
 40
0.1111111111111111
 40
0.1111111111111111
 40
0.1111111111111111
 40
0.1666666666666667
 40
0.1666666666666667
 40
0.1666666666666667
 40
0.1666666666666667
 40
0.2222222222222222
 40
0.2222222222222222
 40
0.2222222222222222
 40
0.2222222222222222
 40
0.2777777777777778
 40
0.2777777777777778
 40
0.2777777777777778
 40
0.2777777777777778
 40
0.3333333333333333
 40
0.3333333333333333
 40
0.3333333333333333
 40
0.3333333333333333
 40
0.3888888888888889
 40
0.3888888888888889
 40
0.3888888888888889
 40
0.3888888888888889
 40
0.4444444444444444
 40
0.4444444444444444
 40
0.4444444444444444
 40
0.4444444444444444
 40
0.5
 40
0.5
 40
0.5
 40
0.5
 40
0.5555555555555556
 40
0.5555555555555556
 40
0.5555555555555556
 40
0.5555555555555556
 40
0.6111111111111112
 40
0.6111111111111112
 40
0.6111111111111112
 40
0.6111111111111112
 40
0.6666666666666666
 40
0.6666666666666666
 40
0.6666666666666666
 40
0.6666666666666666
 40
0.7222222222222222
 40
0.7222222222222222
 40
0.7222222222222222
 40
0.7222222222222222
 40
0.7777777777777778
 40
0.7777777777777778
 40
0.7777777777777778
 40
0.7777777777777778
 40
0.8333333333333334
 40
0.8333333333333334
 40
0.8333333333333334
 40
0.8333333333333334
 40
0.8888888888888888
 40
0.8888888888888888
 40
0.8888888888888888
 40
0.8888888888888888
 40
1.0
 40
1.0
 40
1.0
 40
1.0
 10
23.3062
 20
-64.2523
 30
0.0
 10
23.3062
 20
-64.2523
 30
0.0
 10
24.3601
 20
-66.2912
 30
0.0
 10
29.3752
 20
-67.1071
 30
0.0
 10
29.3752
 20
-67.1071
 30
0.0
 10
29.1809
 20
-67.0964
 30
0.0
 10
24.0833
 20
-67.4409
 30
0.0
 10
23.8886
 20
-68.8379
 30
0.0
 10
23.8886
 20
-68.8379
 30
0.0
 10
23.7496
 20
-69.8281
 30
0.0
 10
26.3907
 20
-69.2311
 30
0.0
 10
26.0192
 20
-69.6338
 30
0.0
 10
26.0192
 20
-69.6338
 30
0.0
 10
25.1099
 20
-70.6226
 30
0.0
 10
22.4107
 20
-70.632
 30
0.0
 10
22.6874
 20
-73.9963
 30
0.0
 10
22.6874
 20
-73.9963
 30
0.0
 10
22.7105
 20
-74.2812
 30
0.0
 10
23.8533
 20
-74.1501
 30
0.0
 10
25.3869
 20
-73.8447
 30
0.0
 10
25.3869
 20
-73.8447
 30
0.0
 10
24.8305
 20
-74.954
 30
0.0
 10
22.7552
 20
-75.4323
 30
0.0
 10
23.8956
 20
-77.9009
 30
0.0
 10
23.8956
 20
-77.9009
 30
0.0
 10
23.2606
 20
-79.4154
 30
0.0
 10
20.0909
 20
-82.8942
 30
0.0
 10
19.3477
 20
-78.7952
 30
0.0
 10
19.3477
 20
-78.7952
 30
0.0
 10
17.8317
 20
-80.1099
 30
0.0
 10
18.6666
 20
-84.6263
 30
0.0
 10
23.0686
 20
-84.0764
 30
0.0
 10
23.0686
 20
-84.0764
 30
0.0
 10
22.8565
 20
-85.564
 30
0.0
 10
24.0602
 20
-86.0209
 30
0.0
 10
25.81
 20
-86.7694
 30
0.0
 10
25.81
 20
-86.7694
 30
0.0
 10
23.8347
 20
-86.5342
 30
0.0
 10
21.8674
 20
-88.5704
 30
0.0
 10
29.2255
 20
-89.351
 30
0.0
 10
29.2255
 20
-89.351
 30
0.0
 10
27.9257
 20
-89.5388
 30
0.0
 10
25.8262
 20
-90.1226
 30
0.0
 10
23.1644
 20
-92.322
 30
0.0
 10
23.1644
 20
-92.322
 30
0.0
 10
22.8617
 20
-93.2099
 30
0.0
 10
23.0509
 20
-88.4853
 30
0.0
 10
17.8451
 20
-95.5498
 30
0.0
 10
17.8451
 20
-95.5498
 30
0.0
 10
18.4235
 20
-91.8047
 30
0.0
 10
11.5614
 20
-93.3708
 30
0.0
 10
16.9916
 20
-87.1827
 30
0.0
 10
16.9916
 20
-87.1827
 30
0.0
 10
18.079
 20
-85.9425
 30
0.0
 10
19.2532
 20
-82.2606
 30
0.0
 10
14.504
 20
-79.5196
 30
0.0
 10
14.504
 20
-79.5196
 30
0.0
 10
16.0525
 20
-79.3518
 30
0.0
 10
18.8074
 20
-77.9009
 30
0.0
 10
20.1068
 20
-76.2998
 30
0.0
 10
20.1068
 20
-76.2998
 30
0.0
 10
21.4298
 20
-74.2408
 30
0.0
 10
19.1692
 20
-72.7438
 30
0.0
 10
21.8079
 20
-64.759
 30
0.0
 10
21.8079
 20
-64.759
 30
0.0
 10
22.7701
 20
-64.8645
 30
0.0
 10
23.3061
 20
-64.2523
 30
0.0
 10
23.3062
 20
-64.2523
 30
0.0
  0
SPLINE
  5
D9
330
1F
100
AcDbEntity
  8
layer 1
100
AcDbSpline
210
0.0
220
0.0
230
1.0
 70
    11
 71
     3
 72
    20
 73
    16
 74
     0
 42
0.0000000001
 43
0.0000000001
 12
1.0
 22
0.0
 32
0.0
 13
1.0
 23
0.0
 33
0.0
 40
0.0
 40
0.0
 40
0.0
 40
0.0
 40
0.2
 40
0.2
 40
0.2
 40
0.2
 40
0.4
 40
0.4
 40
0.4
 40
0.4
 40
0.6
 40
0.6
 40
0.6
 40
0.6
 40
1.0
 40
1.0
 40
1.0
 40
1.0
 10
-114.1493
 20
-78.67
 30
0.0
 10
-114.1493
 20
-98.8279
 30
0.0
 10
-130.4899
 20
-115.1702
 30
0.0
 10
-150.6495
 20
-115.1702
 30
0.0
 10
-150.6495
 20
-115.1702
 30
0.0
 10
-170.807
 20
-115.1702
 30
0.0
 10
-187.1493
 20
-98.8279
 30
0.0
 10
-187.1493
 20
-78.6701
 30
0.0
 10
-187.1493
 20
-78.6701
 30
0.0
 10
-187.1493
 20
-58.5109
 30
0.0
 10
-170.807
 20
-42.1704
 30
0.0
 10
-150.6495
 20
-42.1704
 30
0.0
 10
-150.6495
 20
-42.1704
 30
0.0
 10
-130.4899
 20
-42.1704
 30
0.0
 10
-114.1493
 20
-58.511
 30
0.0
 10
-114.1493
 20
-78.67
 30
0.0
  0
SPLINE
  5
DA
330
1F
100
AcDbEntity
  8
layer 1
370
    30
100
AcDbSpline
210
0.0
220
0.0
230
1.0
 70
    11
 71
     3
 72
    20
 73
    16
 74
     0
 42
0.0000000001
 43
0.0000000001
 12
1.0
 22
0.0
 32
0.0
 13
1.0
 23
0.0
 33
0.0
 40
0.0
 40
0.0
 40
0.0
 40
0.0
 40
0.2
 40
0.2
 40
0.2
 40
0.2
 40
0.4
 40
0.4
 40
0.4
 40
0.4
 40
0.6
 40
0.6
 40
0.6
 40
0.6
 40
1.0
 40
1.0
 40
1.0
 40
1.0
 10
-114.1493
 20
-78.6702
 30
0.0
 10
-114.1493
 20
-98.8281
 30
0.0
 10
-130.4899
 20
-115.17
 30
0.0
 10
-150.6495
 20
-115.17
 30
0.0
 10
-150.6495
 20
-115.17
 30
0.0
 10
-170.807
 20
-115.17
 30
0.0
 10
-187.1493
 20
-98.8281
 30
0.0
 10
-187.1493
 20
-78.6703
 30
0.0
 10
-187.1493
 20
-78.6703
 30
0.0
 10
-187.1493
 20
-58.5107
 30
0.0
 10
-170.807
 20
-42.1702
 30
0.0
 10
-150.6495
 20
-42.1702
 30
0.0
 10
-150.6495
 20
-42.1702
 30
0.0
 10
-130.4899
 20
-42.1702
 30
0.0
 10
-114.1493
 20
-58.5107
 30
0.0
 10
-114.1493
 20
-78.6702
 30
0.0
  0
SPLINE
  5
DB
330
1F
100
AcDbEntity
  8
layer 1
 62
     7
100
AcDbSpline
210
0.0
220
0.0
230
1.0
 70
    11
 71
     3
 72
    16
 73
    12
 74
     0
 42
0.0000000001
 43
0.0000000001
 12
1.0
 22
0.0
 32
0.0
 13
1.0
 23
0.0
 33
0.0
 40
0.0
 40
0.0
 40
0.0
 40
0.0
 40
0.25
 40
0.25
 40
0.25
 40
0.25
 40
0.5
 40
0.5
 40
0.5
 40
0.5
 40
1.0
 40
1.0
 40
1.0
 40
1.0
 10
-142.32
 20
-46.0478
 30
0.0
 10
-144.807
 20
-45.4652
 30
0.0
 10
-146.0071
 20
-45.2379
 30
0.0
 10
-146.9273
 20
-45.2851
 30
0.0
 10
-146.9273
 20
-45.2851
 30
0.0
 10
-148.5823
 20
-45.3702
 30
0.0
 10
-149.2537
 20
-47.467
 30
0.0
 10
-149.225
 20
-49.8168
 30
0.0
 10
-149.225
 20
-49.8168
 30
0.0
 10
-147.9967
 20
-47.7346
 30
0.0
 10
-145.3358
 20
-46.3711
 30
0.0
 10
-142.32
 20
-46.0478
 30
0.0
  0
SPLINE
  5
DC
330
1F
100
AcDbEntity
  8
layer 1
 62
     7
100
AcDbSpline
210
0.0
220
0.0
230
1.0
 70
    11
 71
     3
 72
    28
 73
    24
 74
     0
 42
0.0000000001
 43
0.0000000001
 12
1.0
 22
0.0
 32
0.0
 13
1.0
 23
0.0
 33
0.0
 40
0.0
 40
0.0
 40
0.0
 40
0.0
 40
0.1428571428571428
 40
0.1428571428571428
 40
0.1428571428571428
 40
0.1428571428571428
 40
0.2857142857142857
 40
0.2857142857142857
 40
0.2857142857142857
 40
0.2857142857142857
 40
0.4285714285714285
 40
0.4285714285714285
 40
0.4285714285714285
 40
0.4285714285714285
 40
0.5714285714285714
 40
0.5714285714285714
 40
0.5714285714285714
 40
0.5714285714285714
 40
0.7142857142857143
 40
0.7142857142857143
 40
0.7142857142857143
 40
0.7142857142857143
 40
1.0
 40
1.0
 40
1.0
 40
1.0
 10
-140.5511
 20
-46.5583
 30
0.0
 10
-139.6826
 20
-46.3541
 30
0.0
 10
-136.7706
 20
-49.0102
 30
0.0
 10
-136.5029
 20
-51.283
 30
0.0
 10
-136.5029
 20
-51.283
 30
0.0
 10
-136.523
 20
-52.5261
 30
0.0
 10
-135.5908
 20
-54.0057
 30
0.0
 10
-138.9398
 20
-55.6405
 30
0.0
 10
-138.9398
 20
-55.6405
 30
0.0
 10
-142.2952
 20
-57.8113
 30
0.0
 10
-139.9873
 20
-63.257
 30
0.0
 10
-135.1674
 20
-60.8737
 30
0.0
 10
-135.1674
 20
-60.8737
 30
0.0
 10
-133.7866
 20
-59.9684
 30
0.0
 10
-132.9366
 20
-58.9608
 30
0.0
 10
-132.1166
 20
-57.8298
 30
0.0
 10
-132.1166
 20
-57.8298
 30
0.0
 10
-133.6929
 20
-56.1275
 30
0.0
 10
-132.0863
 20
-51.8888
 30
0.0
 10
-128.5418
 20
-53.6025
 30
0.0
 10
-128.5418
 20
-53.6025
 30
0.0
 10
-129.7718
 20
-51.5203
 30
0.0
 10
-137.5336
 20
-46.8796
 30
0.0
 10
-140.5511
 20
-46.5583
 30
0.0
  0
SPLINE
  5
DD
330
1F
100
AcDbEntity
  8
layer 1
 62
     7
100
AcDbSpline
210
0.0
220
0.0
230
1.0
 70
    11
 71
     3
 72
    28
 73
    24
 74
     0
 42
0.0000000001
 43
0.0000000001
 12
1.0
 22
0.0
 32
0.0
 13
1.0
 23
0.0
 33
0.0
 40
0.0
 40
0.0
 40
0.0
 40
0.0
 40
0.1428571428571428
 40
0.1428571428571428
 40
0.1428571428571428
 40
0.1428571428571428
 40
0.2857142857142857
 40
0.2857142857142857
 40
0.2857142857142857
 40
0.2857142857142857
 40
0.4285714285714285
 40
0.4285714285714285
 40
0.4285714285714285
 40
0.4285714285714285
 40
0.5714285714285714
 40
0.5714285714285714
 40
0.5714285714285714
 40
0.5714285714285714
 40
0.7142857142857143
 40
0.7142857142857143
 40
0.7142857142857143
 40
0.7142857142857143
 40
1.0
 40
1.0
 40
1.0
 40
1.0
 10
-149.0964
 20
-54.8055
 30
0.0
 10
-148.4067
 20
-47.5958
 30
0.0
 10
-138.6917
 20
-46.5098
 30
0.0
 10
-139.4385
 20
-53.0699
 30
0.0
 10
-139.4385
 20
-53.0699
 30
0.0
 10
-140.578
 20
-53.3041
 30
0.0
 10
-143.4348
 20
-55.4717
 30
0.0
 10
-143.2891
 20
-58.5427
 30
0.0
 10
-143.2891
 20
-58.5427
 30
0.0
 10
-143.2857
 20
-61.2686
 30
0.0
 10
-140.6046
 20
-64.1725
 30
0.0
 10
-136.3975
 20
-62.7815
 30
0.0
 10
-136.3975
 20
-62.7815
 30
0.0
 10
-138.3219
 20
-64.2492
 30
0.0
 10
-140.3506
 20
-66.7564
 30
0.0
 10
-142.9696
 20
-69.1093
 30
0.0
 10
-142.9696
 20
-69.1093
 30
0.0
 10
-143.0128
 20
-66.214
 30
0.0
 10
-147.5066
 20
-64.7163
 30
0.0
 10
-149.282
 20
-67.0692
 30
0.0
 10
-149.282
 20
-67.0692
 30
0.0
 10
-149.2786
 20
-63.6722
 30
0.0
 10
-149.3274
 20
-57.9922
 30
0.0
 10
-149.0964
 20
-54.8055
 30
0.0
  0
SPLINE
  5
DE
330
1F
100
AcDbEntity
  8
layer 1
 62
     7
100
AcDbSpline
210
0.0
220
0.0
230
1.0
 70
    11
 71
     3
 72
    16
 73
    12
 74
     0
 42
0.0000000001
 43
0.0000000001
 12
1.0
 22
0.0
 32
0.0
 13
1.0
 23
0.0
 33
0.0
 40
0.0
 40
0.0
 40
0.0
 40
0.0
 40
0.25
 40
0.25
 40
0.25
 40
0.25
 40
0.5
 40
0.5
 40
0.5
 40
0.5
 40
1.0
 40
1.0
 40
1.0
 40
1.0
 10
-145.7209
 20
-69.8607
 30
0.0
 10
-145.0616
 20
-67.6214
 30
0.0
 10
-146.8519
 20
-67.0474
 30
0.0
 10
-147.863
 20
-68.9285
 30
0.0
 10
-147.863
 20
-68.9285
 30
0.0
 10
-148.1791
 20
-69.5176
 30
0.0
 10
-148.4452
 20
-71.3654
 30
0.0
 10
-148.5022
 20
-73.4189
 30
0.0
 10
-148.5022
 20
-73.4189
 30
0.0
 10
-147.3154
 20
-72.1451
 30
0.0
 10
-146.1022
 20
-70.7361
 30
0.0
 10
-145.7209
 20
-69.8607
 30
0.0
  0
SPLINE
  5
DF
330
1F
100
AcDbEntity
  8
layer 1
 62
     7
100
AcDbSpline
210
0.0
220
0.0
230
1.0
 70
    11
 71
     3
 72
    16
 73
    12
 74
     0
 42
0.0000000001
 43
0.0000000001
 12
1.0
 22
0.0
 32
0.0
 13
1.0
 23
0.0
 33
0.0
 40
0.0
 40
0.0
 40
0.0
 40
0.0
 40
0.25
 40
0.25
 40
0.25
 40
0.25
 40
0.5
 40
0.5
 40
0.5
 40
0.5
 40
1.0
 40
1.0
 40
1.0
 40
1.0
 10
-142.1093
 20
-74.0311
 30
0.0
 10
-139.8232
 20
-73.5525
 30
0.0
 10
-139.3931
 20
-75.3819
 30
0.0
 10
-141.3496
 20
-76.2405
 30
0.0
 10
-141.3496
 20
-76.2405
 30
0.0
 10
-141.9618
 20
-76.5082
 30
0.0
 10
-143.8247
 20
-76.6252
 30
0.0
 10
-145.8764
 20
-76.5181
 30
0.0
 10
-145.8764
 20
-76.5181
 30
0.0
 10
-144.5123
 20
-75.4372
 30
0.0
 10
-143.0111
 20
-74.3409
 30
0.0
 10
-142.1093
 20
-74.0311
 30
0.0
  0
SPLINE
  5
E0
330
1F
100
AcDbEntity
  8
layer 1
 62
     7
100
AcDbSpline
210
0.0
220
0.0
230
1.0
 70
    11
 71
     3
 72
    20
 73
    16
 74
     0
 42
0.0000000001
 43
0.0000000001
 12
1.0
 22
0.0
 32
0.0
 13
1.0
 23
0.0
 33
0.0
 40
0.0
 40
0.0
 40
0.0
 40
0.0
 40
0.2
 40
0.2
 40
0.2
 40
0.2
 40
0.4
 40
0.4
 40
0.4
 40
0.4
 40
0.6
 40
0.6
 40
0.6
 40
0.6
 40
1.0
 40
1.0
 40
1.0
 40
1.0
 10
-127.1413
 20
-56.7534
 30
0.0
 10
-127.1413
 20
-57.6926
 30
0.0
 10
-127.9027
 20
-58.4557
 30
0.0
 10
-128.8413
 20
-58.4557
 30
0.0
 10
-128.8413
 20
-58.4557
 30
0.0
 10
-129.7804
 20
-58.4556
 30
0.0
 10
-130.5418
 20
-57.6927
 30
0.0
 10
-130.5418
 20
-56.7536
 30
0.0
 10
-130.5418
 20
-56.7536
 30
0.0
 10
-130.5418
 20
-55.8148
 30
0.0
 10
-129.7804
 20
-55.0531
 30
0.0
 10
-128.8413
 20
-55.0531
 30
0.0
 10
-128.8413
 20
-55.0531
 30
0.0
 10
-127.9027
 20
-55.053
 30
0.0
 10
-127.1413
 20
-55.8148
 30
0.0
 10
-127.1413
 20
-56.7534
 30
0.0
  0
SPLINE
  5
E1
330
1F
100
AcDbEntity
  8
layer 1
 62
     7
100
AcDbSpline
210
0.0
220
0.0
230
1.0
 70
    11
 71
     3
 72
    16
 73
    12
 74
     0
 42
0.0000000001
 43
0.0000000001
 12
1.0
 22
0.0
 32
0.0
 13
1.0
 23
0.0
 33
0.0
 40
0.0
 40
0.0
 40
0.0
 40
0.0
 40
0.25
 40
0.25
 40
0.25
 40
0.25
 40
0.5
 40
0.5
 40
0.5
 40
0.5
 40
1.0
 40
1.0
 40
1.0
 40
1.0
 10
-117.9314
 20
-70.2425
 30
0.0
 10
-117.3492
 20
-72.729
 30
0.0
 10
-117.1235
 20
-73.9308
 30
0.0
 10
-117.1702
 20
-74.8511
 30
0.0
 10
-117.1702
 20
-74.8511
 30
0.0
 10
-117.2536
 20
-76.5065
 30
0.0
 10
-119.3509
 20
-77.1774
 30
0.0
 10
-121.7003
 20
-77.1491
 30
0.0
 10
-121.7003
 20
-77.1491
 30
0.0
 10
-119.6203
 20
-75.9192
 30
0.0
 10
-118.2545
 20
-73.2594
 30
0.0
 10
-117.9314
 20
-70.2425
 30
0.0
  0
SPLINE
  5
E2
330
1F
100
AcDbEntity
  8
layer 1
 62
     7
100
AcDbSpline
210
0.0
220
0.0
230
1.0
 70
    11
 71
     3
 72
    28
 73
    24
 74
     0
 42
0.0000000001
 43
0.0000000001
 12
1.0
 22
0.0
 32
0.0
 13
1.0
 23
0.0
 33
0.0
 40
0.0
 40
0.0
 40
0.0
 40
0.0
 40
0.1428571428571428
 40
0.1428571428571428
 40
0.1428571428571428
 40
0.1428571428571428
 40
0.2857142857142857
 40
0.2857142857142857
 40
0.2857142857142857
 40
0.2857142857142857
 40
0.4285714285714285
 40
0.4285714285714285
 40
0.4285714285714285
 40
0.4285714285714285
 40
0.5714285714285714
 40
0.5714285714285714
 40
0.5714285714285714
 40
0.5714285714285714
 40
0.7142857142857143
 40
0.7142857142857143
 40
0.7142857142857143
 40
0.7142857142857143
 40
1.0
 40
1.0
 40
1.0
 40
1.0
 10
-118.4387
 20
-68.6723
 30
0.0
 10
-118.236
 20
-67.8021
 30
0.0
 10
-120.8923
 20
-64.8919
 30
0.0
 10
-123.1647
 20
-64.6241
 30
0.0
 10
-123.1647
 20
-64.6241
 30
0.0
 10
-124.4067
 20
-64.6442
 30
0.0
 10
-125.8861
 20
-63.7103
 30
0.0
 10
-127.521
 20
-67.0611
 30
0.0
 10
-127.521
 20
-67.0611
 30
0.0
 10
-129.6935
 20
-70.4146
 30
0.0
 10
-135.1375
 20
-68.1085
 30
0.0
 10
-132.7541
 20
-63.2887
 30
0.0
 10
-132.7541
 20
-63.2887
 30
0.0
 10
-131.8489
 20
-61.9079
 30
0.0
 10
-130.8412
 20
-61.0579
 30
0.0
 10
-129.7119
 20
-60.2379
 30
0.0
 10
-129.7119
 20
-60.2379
 30
0.0
 10
-128.0098
 20
-61.8145
 30
0.0
 10
-123.7704
 20
-60.2079
 30
0.0
 10
-125.4824
 20
-56.6631
 30
0.0
 10
-125.4824
 20
-56.6631
 30
0.0
 10
-123.4008
 20
-57.8931
 30
0.0
 10
-118.7617
 20
-65.6549
 30
0.0
 10
-118.4387
 20
-68.6723
 30
0.0
  0
SPLINE
  5
E3
330
1F
100
AcDbEntity
  8
layer 1
 62
     7
100
AcDbSpline
210
0.0
220
0.0
230
1.0
 70
    11
 71
     3
 72
    28
 73
    24
 74
     0
 42
0.0000000001
 43
0.0000000001
 12
1.0
 22
0.0
 32
0.0
 13
1.0
 23
0.0
 33
0.0
 40
0.0
 40
0.0
 40
0.0
 40
0.0
 40
0.1428571428571428
 40
0.1428571428571428
 40
0.1428571428571428
 40
0.1428571428571428
 40
0.2857142857142857
 40
0.2857142857142857
 40
0.2857142857142857
 40
0.2857142857142857
 40
0.4285714285714285
 40
0.4285714285714285
 40
0.4285714285714285
 40
0.4285714285714285
 40
0.5714285714285714
 40
0.5714285714285714
 40
0.5714285714285714
 40
0.5714285714285714
 40
0.7142857142857143
 40
0.7142857142857143
 40
0.7142857142857143
 40
0.7142857142857143
 40
1.0
 40
1.0
 40
1.0
 40
1.0
 10
-127.0659
 20
-77.4854
 30
0.0
 10
-119.8546
 20
-76.7957
 30
0.0
 10
-118.7687
 20
-67.0811
 30
0.0
 10
-125.3287
 20
-67.8275
 30
0.0
 10
-125.3287
 20
-67.8275
 30
0.0
 10
-125.5648
 20
-68.967
 30
0.0
 10
-127.7305
 20
-71.8255
 30
0.0
 10
-130.8026
 20
-71.6781
 30
0.0
 10
-130.8026
 20
-71.6781
 30
0.0
 10
-133.5292
 20
-71.6747
 30
0.0
 10
-136.4309
 20
-68.9953
 30
0.0
 10
-135.042
 20
-64.7866
 30
0.0
 10
-135.042
 20
-64.7866
 30
0.0
 10
-136.508
 20
-66.7127
 30
0.0
 10
-139.0165
 20
-68.7414
 30
0.0
 10
-141.3681
 20
-71.3603
 30
0.0
 10
-141.3681
 20
-71.3603
 30
0.0
 10
-138.4745
 20
-71.4022
 30
0.0
 10
-136.9767
 20
-75.8973
 30
0.0
 10
-139.328
 20
-77.671
 30
0.0
 10
-139.328
 20
-77.671
 30
0.0
 10
-135.9305
 20
-77.6692
 30
0.0
 10
-130.2521
 20
-77.7164
 30
0.0
 10
-127.0659
 20
-77.4854
 30
0.0
  0
SPLINE
  5
E4
330
1F
100
AcDbEntity
  8
layer 1
 62
     7
100
AcDbSpline
210
0.0
220
0.0
230
1.0
 70
    11
 71
     3
 72
    16
 73
    12
 74
     0
 42
0.0000000001
 43
0.0000000001
 12
1.0
 22
0.0
 32
0.0
 13
1.0
 23
0.0
 33
0.0
 40
0.0
 40
0.0
 40
0.0
 40
0.0
 40
0.25
 40
0.25
 40
0.25
 40
0.25
 40
0.5
 40
0.5
 40
0.5
 40
0.5
 40
1.0
 40
1.0
 40
1.0
 40
1.0
 10
-158.9751
 20
-46.0478
 30
0.0
 10
-156.4886
 20
-45.4652
 30
0.0
 10
-155.2884
 20
-45.2379
 30
0.0
 10
-154.3678
 20
-45.2851
 30
0.0
 10
-154.3678
 20
-45.2851
 30
0.0
 10
-152.7127
 20
-45.3702
 30
0.0
 10
-152.0419
 20
-47.467
 30
0.0
 10
-152.0702
 20
-49.8168
 30
0.0
 10
-152.0702
 20
-49.8168
 30
0.0
 10
-153.2985
 20
-47.7346
 30
0.0
 10
-155.9577
 20
-46.3711
 30
0.0
 10
-158.9751
 20
-46.0478
 30
0.0
  0
SPLINE
  5
E5
330
1F
100
AcDbEntity
  8
layer 1
 62
     7
100
AcDbSpline
210
0.0
220
0.0
230
1.0
 70
    11
 71
     3
 72
    28
 73
    24
 74
     0
 42
0.0000000001
 43
0.0000000001
 12
1.0
 22
0.0
 32
0.0
 13
1.0
 23
0.0
 33
0.0
 40
0.0
 40
0.0
 40
0.0
 40
0.0
 40
0.1428571428571428
 40
0.1428571428571428
 40
0.1428571428571428
 40
0.1428571428571428
 40
0.2857142857142857
 40
0.2857142857142857
 40
0.2857142857142857
 40
0.2857142857142857
 40
0.4285714285714285
 40
0.4285714285714285
 40
0.4285714285714285
 40
0.4285714285714285
 40
0.5714285714285714
 40
0.5714285714285714
 40
0.5714285714285714
 40
0.5714285714285714
 40
0.7142857142857143
 40
0.7142857142857143
 40
0.7142857142857143
 40
0.7142857142857143
 40
1.0
 40
1.0
 40
1.0
 40
1.0
 10
-160.7441
 20
-46.5583
 30
0.0
 10
-161.6125
 20
-46.3541
 30
0.0
 10
-164.5245
 20
-49.0102
 30
0.0
 10
-164.7906
 20
-51.283
 30
0.0
 10
-164.7906
 20
-51.283
 30
0.0
 10
-164.7709
 20
-52.5261
 30
0.0
 10
-165.7044
 20
-54.0057
 30
0.0
 10
-162.3542
 20
-55.6405
 30
0.0
 10
-162.3542
 20
-55.6405
 30
0.0
 10
-159.0004
 20
-57.8113
 30
0.0
 10
-161.3083
 20
-63.257
 30
0.0
 10
-166.1264
 20
-60.8737
 30
0.0
 10
-166.1264
 20
-60.8737
 30
0.0
 10
-167.5085
 20
-59.9684
 30
0.0
 10
-168.3572
 20
-58.9608
 30
0.0
 10
-169.1789
 20
-57.8298
 30
0.0
 10
-169.1789
 20
-57.8298
 30
0.0
 10
-167.6023
 20
-56.1275
 30
0.0
 10
-169.2089
 20
-51.8888
 30
0.0
 10
-172.7516
 20
-53.6025
 30
0.0
 10
-172.7516
 20
-53.6025
 30
0.0
 10
-171.5233
 20
-51.5203
 30
0.0
 10
-163.7614
 20
-46.8796
 30
0.0
 10
-160.7441
 20
-46.5583
 30
0.0
  0
SPLINE
  5
E6
330
1F
100
AcDbEntity
  8
layer 1
 62
     7
100
AcDbSpline
210
0.0
220
0.0
230
1.0
 70
    11
 71
     3
 72
    28
 73
    24
 74
     0
 42
0.0000000001
 43
0.0000000001
 12
1.0
 22
0.0
 32
0.0
 13
1.0
 23
0.0
 33
0.0
 40
0.0
 40
0.0
 40
0.0
 40
0.0
 40
0.1428571428571428
 40
0.1428571428571428
 40
0.1428571428571428
 40
0.1428571428571428
 40
0.2857142857142857
 40
0.2857142857142857
 40
0.2857142857142857
 40
0.2857142857142857
 40
0.4285714285714285
 40
0.4285714285714285
 40
0.4285714285714285
 40
0.4285714285714285
 40
0.5714285714285714
 40
0.5714285714285714
 40
0.5714285714285714
 40
0.5714285714285714
 40
0.7142857142857143
 40
0.7142857142857143
 40
0.7142857142857143
 40
0.7142857142857143
 40
1.0
 40
1.0
 40
1.0
 40
1.0
 10
-152.199
 20
-54.8055
 30
0.0
 10
-152.8885
 20
-47.5958
 30
0.0
 10
-162.6035
 20
-46.5098
 30
0.0
 10
-161.8571
 20
-53.0699
 30
0.0
 10
-161.8571
 20
-53.0699
 30
0.0
 10
-160.7175
 20
-53.3041
 30
0.0
 10
-157.8607
 20
-55.4717
 30
0.0
 10
-158.006
 20
-58.5427
 30
0.0
 10
-158.006
 20
-58.5427
 30
0.0
 10
-158.0094
 20
-61.2686
 30
0.0
 10
-160.6888
 20
-64.1725
 30
0.0
 10
-164.8977
 20
-62.7815
 30
0.0
 10
-164.8977
 20
-62.7815
 30
0.0
 10
-162.9715
 20
-64.2492
 30
0.0
 10
-160.9433
 20
-66.7564
 30
0.0
 10
-158.326
 20
-69.1093
 30
0.0
 10
-158.326
 20
-69.1093
 30
0.0
 10
-158.2823
 20
-66.214
 30
0.0
 10
-153.7873
 20
-64.7163
 30
0.0
 10
-152.0132
 20
-67.0692
 30
0.0
 10
-152.0132
 20
-67.0692
 30
0.0
 10
-152.0149
 20
-63.6722
 30
0.0
 10
-151.9682
 20
-57.9922
 30
0.0
 10
-152.199
 20
-54.8055
 30
0.0
  0
SPLINE
  5
E7
330
1F
100
AcDbEntity
  8
layer 1
 62
     7
100
AcDbSpline
210
0.0
220
0.0
230
1.0
 70
    11
 71
     3
 72
    16
 73
    12
 74
     0
 42
0.0000000001
 43
0.0000000001
 12
1.0
 22
0.0
 32
0.0
 13
1.0
 23
0.0
 33
0.0
 40
0.0
 40
0.0
 40
0.0
 40
0.0
 40
0.25
 40
0.25
 40
0.25
 40
0.25
 40
0.5
 40
0.5
 40
0.5
 40
0.5
 40
1.0
 40
1.0
 40
1.0
 40
1.0
 10
-155.573
 20
-69.8607
 30
0.0
 10
-156.234
 20
-67.6214
 30
0.0
 10
-154.4432
 20
-67.0474
 30
0.0
 10
-153.4325
 20
-68.9285
 30
0.0
 10
-153.4325
 20
-68.9285
 30
0.0
 10
-153.1159
 20
-69.5176
 30
0.0
 10
-152.8499
 20
-71.3654
 30
0.0
 10
-152.7934
 20
-73.4189
 30
0.0
 10
-152.7934
 20
-73.4189
 30
0.0
 10
-153.9796
 20
-72.1451
 30
0.0
 10
-155.193
 20
-70.7361
 30
0.0
 10
-155.573
 20
-69.8607
 30
0.0
  0
SPLINE
  5
E8
330
1F
100
AcDbEntity
  8
layer 1
 62
     7
100
AcDbSpline
210
0.0
220
0.0
230
1.0
 70
    11
 71
     3
 72
    16
 73
    12
 74
     0
 42
0.0000000001
 43
0.0000000001
 12
1.0
 22
0.0
 32
0.0
 13
1.0
 23
0.0
 33
0.0
 40
0.0
 40
0.0
 40
0.0
 40
0.0
 40
0.25
 40
0.25
 40
0.25
 40
0.25
 40
0.5
 40
0.5
 40
0.5
 40
0.5
 40
1.0
 40
1.0
 40
1.0
 40
1.0
 10
-159.1858
 20
-74.0311
 30
0.0
 10
-161.472
 20
-73.5525
 30
0.0
 10
-161.9004
 20
-75.3819
 30
0.0
 10
-159.9442
 20
-76.2405
 30
0.0
 10
-159.9442
 20
-76.2405
 30
0.0
 10
-159.3332
 20
-76.5082
 30
0.0
 10
-157.4692
 20
-76.6252
 30
0.0
 10
-155.4188
 20
-76.5181
 30
0.0
 10
-155.4188
 20
-76.5181
 30
0.0
 10
-156.7828
 20
-75.4372
 30
0.0
 10
-158.2841
 20
-74.3409
 30
0.0
 10
-159.1858
 20
-74.0311
 30
0.0
  0
SPLINE
  5
E9
330
1F
100
AcDbEntity
  8
layer 1
 62
     7
100
AcDbSpline
210
0.0
220
0.0
230
1.0
 70
    11
 71
     3
 72
    20
 73
    16
 74
     0
 42
0.0000000001
 43
0.0000000001
 12
1.0
 22
0.0
 32
0.0
 13
1.0
 23
0.0
 33
0.0
 40
0.0
 40
0.0
 40
0.0
 40
0.0
 40
0.2
 40
0.2
 40
0.2
 40
0.2
 40
0.4
 40
0.4
 40
0.4
 40
0.4
 40
0.6
 40
0.6
 40
0.6
 40
0.6
 40
1.0
 40
1.0
 40
1.0
 40
1.0
 10
-174.1542
 20
-56.7534
 30
0.0
 10
-174.1542
 20
-57.6926
 30
0.0
 10
-173.3929
 20
-58.4557
 30
0.0
 10
-172.4538
 20
-58.4557
 30
0.0
 10
-172.4538
 20
-58.4557
 30
0.0
 10
-171.5134
 20
-58.4556
 30
0.0
 10
-170.7517
 20
-57.6927
 30
0.0
 10
-170.7517
 20
-56.7536
 30
0.0
 10
-170.7517
 20
-56.7536
 30
0.0
 10
-170.7516
 20
-55.8148
 30
0.0
 10
-171.5134
 20
-55.0531
 30
0.0
 10
-172.4538
 20
-55.0531
 30
0.0
 10
-172.4538
 20
-55.0531
 30
0.0
 10
-173.3929
 20
-55.053
 30
0.0
 10
-174.1542
 20
-55.8148
 30
0.0
 10
-174.1542
 20
-56.7534
 30
0.0
  0
SPLINE
  5
EA
330
1F
100
AcDbEntity
  8
layer 1
 62
     7
100
AcDbSpline
210
0.0
220
0.0
230
1.0
 70
    11
 71
     3
 72
    16
 73
    12
 74
     0
 42
0.0000000001
 43
0.0000000001
 12
1.0
 22
0.0
 32
0.0
 13
1.0
 23
0.0
 33
0.0
 40
0.0
 40
0.0
 40
0.0
 40
0.0
 40
0.25
 40
0.25
 40
0.25
 40
0.25
 40
0.5
 40
0.5
 40
0.5
 40
0.5
 40
1.0
 40
1.0
 40
1.0
 40
1.0
 10
-183.3637
 20
-70.2425
 30
0.0
 10
-183.9442
 20
-72.729
 30
0.0
 10
-184.1721
 20
-73.9308
 30
0.0
 10
-184.125
 20
-74.8511
 30
0.0
 10
-184.125
 20
-74.8511
 30
0.0
 10
-184.0414
 20
-76.5065
 30
0.0
 10
-181.9443
 20
-77.1774
 30
0.0
 10
-179.5931
 20
-77.1491
 30
0.0
 10
-179.5931
 20
-77.1491
 30
0.0
 10
-181.6752
 20
-75.9192
 30
0.0
 10
-183.0406
 20
-73.2594
 30
0.0
 10
-183.3637
 20
-70.2425
 30
0.0
  0
SPLINE
  5
EB
330
1F
100
AcDbEntity
  8
layer 1
 62
     7
100
AcDbSpline
210
0.0
220
0.0
230
1.0
 70
    11
 71
     3
 72
    28
 73
    24
 74
     0
 42
0.0000000001
 43
0.0000000001
 12
1.0
 22
0.0
 32
0.0
 13
1.0
 23
0.0
 33
0.0
 40
0.0
 40
0.0
 40
0.0
 40
0.0
 40
0.1428571428571428
 40
0.1428571428571428
 40
0.1428571428571428
 40
0.1428571428571428
 40
0.2857142857142857
 40
0.2857142857142857
 40
0.2857142857142857
 40
0.2857142857142857
 40
0.4285714285714285
 40
0.4285714285714285
 40
0.4285714285714285
 40
0.4285714285714285
 40
0.5714285714285714
 40
0.5714285714285714
 40
0.5714285714285714
 40
0.5714285714285714
 40
0.7142857142857143
 40
0.7142857142857143
 40
0.7142857142857143
 40
0.7142857142857143
 40
1.0
 40
1.0
 40
1.0
 40
1.0
 10
-182.8547
 20
-68.6723
 30
0.0
 10
-183.0591
 20
-67.8021
 30
0.0
 10
-180.4032
 20
-64.8919
 30
0.0
 10
-178.1305
 20
-64.6241
 30
0.0
 10
-178.1305
 20
-64.6241
 30
0.0
 10
-176.8889
 20
-64.6442
 30
0.0
 10
-175.4079
 20
-63.7103
 30
0.0
 10
-173.7742
 20
-67.0611
 30
0.0
 10
-173.7742
 20
-67.0611
 30
0.0
 10
-171.6021
 20
-70.4146
 30
0.0
 10
-166.1581
 20
-68.1085
 30
0.0
 10
-168.541
 20
-63.2887
 30
0.0
 10
-168.541
 20
-63.2887
 30
0.0
 10
-169.445
 20
-61.9079
 30
0.0
 10
-170.454
 20
-61.0579
 30
0.0
 10
-171.5838
 20
-60.2379
 30
0.0
 10
-171.5838
 20
-60.2379
 30
0.0
 10
-173.2858
 20
-61.8145
 30
0.0
 10
-177.5247
 20
-60.2079
 30
0.0
 10
-175.8127
 20
-56.6631
 30
0.0
 10
-175.8127
 20
-56.6631
 30
0.0
 10
-177.8926
 20
-57.8931
 30
0.0
 10
-182.5334
 20
-65.6549
 30
0.0
 10
-182.8547
 20
-68.6723
 30
0.0
  0
SPLINE
  5
EC
330
1F
100
AcDbEntity
  8
layer 1
 62
     7
100
AcDbSpline
210
0.0
220
0.0
230
1.0
 70
    11
 71
     3
 72
    28
 73
    24
 74
     0
 42
0.0000000001
 43
0.0000000001
 12
1.0
 22
0.0
 32
0.0
 13
1.0
 23
0.0
 33
0.0
 40
0.0
 40
0.0
 40
0.0
 40
0.0
 40
0.1428571428571428
 40
0.1428571428571428
 40
0.1428571428571428
 40
0.1428571428571428
 40
0.2857142857142857
 40
0.2857142857142857
 40
0.2857142857142857
 40
0.2857142857142857
 40
0.4285714285714285
 40
0.4285714285714285
 40
0.4285714285714285
 40
0.4285714285714285
 40
0.5714285714285714
 40
0.5714285714285714
 40
0.5714285714285714
 40
0.5714285714285714
 40
0.7142857142857143
 40
0.7142857142857143
 40
0.7142857142857143
 40
0.7142857142857143
 40
1.0
 40
1.0
 40
1.0
 40
1.0
 10
-174.2296
 20
-77.4854
 30
0.0
 10
-181.441
 20
-76.7957
 30
0.0
 10
-182.527
 20
-67.0811
 30
0.0
 10
-175.9648
 20
-67.8275
 30
0.0
 10
-175.9648
 20
-67.8275
 30
0.0
 10
-175.7308
 20
-68.967
 30
0.0
 10
-173.5634
 20
-71.8255
 30
0.0
 10
-170.4925
 20
-71.6781
 30
0.0
 10
-170.4925
 20
-71.6781
 30
0.0
 10
-167.7664
 20
-71.6747
 30
0.0
 10
-164.8626
 20
-68.9953
 30
0.0
 10
-166.2532
 20
-64.7866
 30
0.0
 10
-166.2532
 20
-64.7866
 30
0.0
 10
-164.7858
 20
-66.7127
 30
0.0
 10
-162.2787
 20
-68.7414
 30
0.0
 10
-159.9258
 20
-71.3603
 30
0.0
 10
-159.9258
 20
-71.3603
 30
0.0
 10
-162.8211
 20
-71.4022
 30
0.0
 10
-164.3189
 20
-75.8973
 30
0.0
 10
-161.9659
 20
-77.671
 30
0.0
 10
-161.9659
 20
-77.671
 30
0.0
 10
-165.3629
 20
-77.6692
 30
0.0
 10
-171.043
 20
-77.7164
 30
0.0
 10
-174.2296
 20
-77.4854
 30
0.0
  0
SPLINE
  5
ED
330
1F
100
AcDbEntity
  8
layer 1
 62
     7
100
AcDbSpline
210
0.0
220
0.0
230
1.0
 70
    11
 71
     3
 72
    16
 73
    12
 74
     0
 42
0.0000000001
 43
0.0000000001
 12
1.0
 22
0.0
 32
0.0
 13
1.0
 23
0.0
 33
0.0
 40
0.0
 40
0.0
 40
0.0
 40
0.0
 40
0.25
 40
0.25
 40
0.25
 40
0.25
 40
0.5
 40
0.5
 40
0.5
 40
0.5
 40
1.0
 40
1.0
 40
1.0
 40
1.0
 10
-142.32
 20
-111.4313
 30
0.0
 10
-144.807
 20
-112.0138
 30
0.0
 10
-146.0071
 20
-112.2397
 30
0.0
 10
-146.9273
 20
-112.1926
 30
0.0
 10
-146.9273
 20
-112.1926
 30
0.0
 10
-148.5823
 20
-112.1091
 30
0.0
 10
-149.2537
 20
-110.0123
 30
0.0
 10
-149.225
 20
-107.6625
 30
0.0
 10
-149.225
 20
-107.6625
 30
0.0
 10
-147.9967
 20
-109.7429
 30
0.0
 10
-145.3358
 20
-111.1082
 30
0.0
 10
-142.32
 20
-111.4313
 30
0.0
  0
SPLINE
  5
EE
330
1F
100
AcDbEntity
  8
layer 1
 62
     7
100
AcDbSpline
210
0.0
220
0.0
230
1.0
 70
    11
 71
     3
 72
    28
 73
    24
 74
     0
 42
0.0000000001
 43
0.0000000001
 12
1.0
 22
0.0
 32
0.0
 13
1.0
 23
0.0
 33
0.0
 40
0.0
 40
0.0
 40
0.0
 40
0.0
 40
0.1428571428571428
 40
0.1428571428571428
 40
0.1428571428571428
 40
0.1428571428571428
 40
0.2857142857142857
 40
0.2857142857142857
 40
0.2857142857142857
 40
0.2857142857142857
 40
0.4285714285714285
 40
0.4285714285714285
 40
0.4285714285714285
 40
0.4285714285714285
 40
0.5714285714285714
 40
0.5714285714285714
 40
0.5714285714285714
 40
0.5714285714285714
 40
0.7142857142857143
 40
0.7142857142857143
 40
0.7142857142857143
 40
0.7142857142857143
 40
1.0
 40
1.0
 40
1.0
 40
1.0
 10
-140.5511
 20
-110.921
 30
0.0
 10
-139.6826
 20
-111.125
 30
0.0
 10
-136.7706
 20
-108.4692
 30
0.0
 10
-136.5029
 20
-106.1946
 30
0.0
 10
-136.5029
 20
-106.1946
 30
0.0
 10
-136.523
 20
-104.953
 30
0.0
 10
-135.5908
 20
-103.4737
 30
0.0
 10
-138.9398
 20
-101.8388
 30
0.0
 10
-138.9398
 20
-101.8388
 30
0.0
 10
-142.2952
 20
-99.668
 30
0.0
 10
-139.9873
 20
-94.2224
 30
0.0
 10
-135.1674
 20
-96.6057
 30
0.0
 10
-135.1674
 20
-96.6057
 30
0.0
 10
-133.7866
 20
-97.511
 30
0.0
 10
-132.9366
 20
-98.5186
 30
0.0
 10
-132.1166
 20
-99.6496
 30
0.0
 10
-132.1166
 20
-99.6496
 30
0.0
 10
-133.6929
 20
-101.35
 30
0.0
 10
-132.0863
 20
-105.5889
 30
0.0
 10
-128.5418
 20
-103.8769
 30
0.0
 10
-128.5418
 20
-103.8769
 30
0.0
 10
-129.7718
 20
-105.959
 30
0.0
 10
-137.5336
 20
-110.5981
 30
0.0
 10
-140.5511
 20
-110.921
 30
0.0
  0
SPLINE
  5
EF
330
1F
100
AcDbEntity
  8
layer 1
 62
     7
100
AcDbSpline
210
0.0
220
0.0
230
1.0
 70
    11
 71
     3
 72
    28
 73
    24
 74
     0
 42
0.0000000001
 43
0.0000000001
 12
1.0
 22
0.0
 32
0.0
 13
1.0
 23
0.0
 33
0.0
 40
0.0
 40
0.0
 40
0.0
 40
0.0
 40
0.1428571428571428
 40
0.1428571428571428
 40
0.1428571428571428
 40
0.1428571428571428
 40
0.2857142857142857
 40
0.2857142857142857
 40
0.2857142857142857
 40
0.2857142857142857
 40
0.4285714285714285
 40
0.4285714285714285
 40
0.4285714285714285
 40
0.4285714285714285
 40
0.5714285714285714
 40
0.5714285714285714
 40
0.5714285714285714
 40
0.5714285714285714
 40
0.7142857142857143
 40
0.7142857142857143
 40
0.7142857142857143
 40
0.7142857142857143
 40
1.0
 40
1.0
 40
1.0
 40
1.0
 10
-149.0964
 20
-102.6739
 30
0.0
 10
-148.4067
 20
-109.8834
 30
0.0
 10
-138.6917
 20
-110.9694
 30
0.0
 10
-139.4385
 20
-104.4094
 30
0.0
 10
-139.4385
 20
-104.4094
 30
0.0
 10
-140.578
 20
-104.1733
 30
0.0
 10
-143.4348
 20
-102.0076
 30
0.0
 10
-143.2891
 20
-98.9367
 30
0.0
 10
-143.2891
 20
-98.9367
 30
0.0
 10
-143.2857
 20
-96.2107
 30
0.0
 10
-140.6046
 20
-93.3068
 30
0.0
 10
-136.3975
 20
-94.6961
 30
0.0
 10
-136.3975
 20
-94.6961
 30
0.0
 10
-138.3219
 20
-93.2301
 30
0.0
 10
-140.3506
 20
-90.7213
 30
0.0
 10
-142.9696
 20
-88.37
 30
0.0
 10
-142.9696
 20
-88.37
 30
0.0
 10
-143.0128
 20
-91.2654
 30
0.0
 10
-147.5066
 20
-92.7631
 30
0.0
 10
-149.282
 20
-90.4102
 30
0.0
 10
-149.282
 20
-90.4102
 30
0.0
 10
-149.2786
 20
-93.8072
 30
0.0
 10
-149.3274
 20
-99.4855
 30
0.0
 10
-149.0964
 20
-102.6739
 30
0.0
  0
SPLINE
  5
F0
330
1F
100
AcDbEntity
  8
layer 1
 62
     7
100
AcDbSpline
210
0.0
220
0.0
230
1.0
 70
    11
 71
     3
 72
    16
 73
    12
 74
     0
 42
0.0000000001
 43
0.0000000001
 12
1.0
 22
0.0
 32
0.0
 13
1.0
 23
0.0
 33
0.0
 40
0.0
 40
0.0
 40
0.0
 40
0.0
 40
0.25
 40
0.25
 40
0.25
 40
0.25
 40
0.5
 40
0.5
 40
0.5
 40
0.5
 40
1.0
 40
1.0
 40
1.0
 40
1.0
 10
-145.7209
 20
-87.6168
 30
0.0
 10
-145.0616
 20
-89.858
 30
0.0
 10
-146.8519
 20
-90.432
 30
0.0
 10
-147.863
 20
-88.5509
 30
0.0
 10
-147.863
 20
-88.5509
 30
0.0
 10
-148.1791
 20
-87.9617
 30
0.0
 10
-148.4452
 20
-86.114
 30
0.0
 10
-148.5022
 20
-84.0605
 30
0.0
 10
-148.5022
 20
-84.0605
 30
0.0
 10
-147.3154
 20
-85.3342
 30
0.0
 10
-146.1022
 20
-86.7433
 30
0.0
 10
-145.7209
 20
-87.6168
 30
0.0
  0
SPLINE
  5
F1
330
1F
100
AcDbEntity
  8
layer 1
 62
     7
100
AcDbSpline
210
0.0
220
0.0
230
1.0
 70
    11
 71
     3
 72
    16
 73
    12
 74
     0
 42
0.0000000001
 43
0.0000000001
 12
1.0
 22
0.0
 32
0.0
 13
1.0
 23
0.0
 33
0.0
 40
0.0
 40
0.0
 40
0.0
 40
0.0
 40
0.25
 40
0.25
 40
0.25
 40
0.25
 40
0.5
 40
0.5
 40
0.5
 40
0.5
 40
1.0
 40
1.0
 40
1.0
 40
1.0
 10
-142.1093
 20
-83.4482
 30
0.0
 10
-139.8232
 20
-83.9268
 30
0.0
 10
-139.3931
 20
-82.0958
 30
0.0
 10
-141.3496
 20
-81.2389
 30
0.0
 10
-141.3496
 20
-81.2389
 30
0.0
 10
-141.9618
 20
-80.9711
 30
0.0
 10
-143.8247
 20
-80.8541
 30
0.0
 10
-145.8764
 20
-80.9613
 30
0.0
 10
-145.8764
 20
-80.9613
 30
0.0
 10
-144.5123
 20
-82.0422
 30
0.0
 10
-143.0111
 20
-83.1385
 30
0.0
 10
-142.1093
 20
-83.4482
 30
0.0
  0
SPLINE
  5
F2
330
1F
100
AcDbEntity
  8
layer 1
 62
     7
100
AcDbSpline
210
0.0
220
0.0
230
1.0
 70
    11
 71
     3
 72
    20
 73
    16
 74
     0
 42
0.0000000001
 43
0.0000000001
 12
1.0
 22
0.0
 32
0.0
 13
1.0
 23
0.0
 33
0.0
 40
0.0
 40
0.0
 40
0.0
 40
0.0
 40
0.2
 40
0.2
 40
0.2
 40
0.2
 40
0.4
 40
0.4
 40
0.4
 40
0.4
 40
0.6
 40
0.6
 40
0.6
 40
0.6
 40
1.0
 40
1.0
 40
1.0
 40
1.0
 10
-127.1413
 20
-100.7258
 30
0.0
 10
-127.1413
 20
-99.7853
 30
0.0
 10
-127.9027
 20
-99.0237
 30
0.0
 10
-128.8413
 20
-99.0237
 30
0.0
 10
-128.8413
 20
-99.0237
 30
0.0
 10
-129.7804
 20
-99.0237
 30
0.0
 10
-130.5418
 20
-99.7855
 30
0.0
 10
-130.5418
 20
-100.7258
 30
0.0
 10
-130.5418
 20
-100.7258
 30
0.0
 10
-130.5418
 20
-101.6644
 30
0.0
 10
-129.7804
 20
-102.4263
 30
0.0
 10
-128.8413
 20
-102.4263
 30
0.0
 10
-128.8413
 20
-102.4263
 30
0.0
 10
-127.9027
 20
-102.4263
 30
0.0
 10
-127.1413
 20
-101.6646
 30
0.0
 10
-127.1413
 20
-100.7258
 30
0.0
  0
SPLINE
  5
F3
330
1F
100
AcDbEntity
  8
layer 1
 62
     7
100
AcDbSpline
210
0.0
220
0.0
230
1.0
 70
    11
 71
     3
 72
    16
 73
    12
 74
     0
 42
0.0000000001
 43
0.0000000001
 12
1.0
 22
0.0
 32
0.0
 13
1.0
 23
0.0
 33
0.0
 40
0.0
 40
0.0
 40
0.0
 40
0.0
 40
0.25
 40
0.25
 40
0.25
 40
0.25
 40
0.5
 40
0.5
 40
0.5
 40
0.5
 40
1.0
 40
1.0
 40
1.0
 40
1.0
 10
-117.9314
 20
-87.2355
 30
0.0
 10
-117.3492
 20
-84.7503
 30
0.0
 10
-117.1235
 20
-83.5485
 30
0.0
 10
-117.1702
 20
-82.6283
 30
0.0
 10
-117.1702
 20
-82.6283
 30
0.0
 10
-117.2536
 20
-80.9728
 30
0.0
 10
-119.3509
 20
-80.3019
 30
0.0
 10
-121.7003
 20
-80.3302
 30
0.0
 10
-121.7003
 20
-80.3302
 30
0.0
 10
-119.6203
 20
-81.5602
 30
0.0
 10
-118.2545
 20
-84.2199
 30
0.0
 10
-117.9314
 20
-87.2355
 30
0.0
  0
SPLINE
  5
F4
330
1F
100
AcDbEntity
  8
layer 1
 62
     7
100
AcDbSpline
210
0.0
220
0.0
230
1.0
 70
    11
 71
     3
 72
    28
 73
    24
 74
     0
 42
0.0000000001
 43
0.0000000001
 12
1.0
 22
0.0
 32
0.0
 13
1.0
 23
0.0
 33
0.0
 40
0.0
 40
0.0
 40
0.0
 40
0.0
 40
0.1428571428571428
 40
0.1428571428571428
 40
0.1428571428571428
 40
0.1428571428571428
 40
0.2857142857142857
 40
0.2857142857142857
 40
0.2857142857142857
 40
0.2857142857142857
 40
0.4285714285714285
 40
0.4285714285714285
 40
0.4285714285714285
 40
0.4285714285714285
 40
0.5714285714285714
 40
0.5714285714285714
 40
0.5714285714285714
 40
0.5714285714285714
 40
0.7142857142857143
 40
0.7142857142857143
 40
0.7142857142857143
 40
0.7142857142857143
 40
1.0
 40
1.0
 40
1.0
 40
1.0
 10
-118.4387
 20
-88.807
 30
0.0
 10
-118.236
 20
-89.6754
 30
0.0
 10
-120.8923
 20
-92.5875
 30
0.0
 10
-123.1647
 20
-92.8552
 30
0.0
 10
-123.1647
 20
-92.8552
 30
0.0
 10
-124.4067
 20
-92.835
 30
0.0
 10
-125.8861
 20
-93.7673
 30
0.0
 10
-127.521
 20
-90.4183
 30
0.0
 10
-127.521
 20
-90.4183
 30
0.0
 10
-129.6935
 20
-87.0628
 30
0.0
 10
-135.1375
 20
-89.3708
 30
0.0
 10
-132.7541
 20
-94.1907
 30
0.0
 10
-132.7541
 20
-94.1907
 30
0.0
 10
-131.8489
 20
-95.5714
 30
0.0
 10
-130.8412
 20
-96.4215
 30
0.0
 10
-129.7119
 20
-97.2415
 30
0.0
 10
-129.7119
 20
-97.2415
 30
0.0
 10
-128.0098
 20
-95.6648
 30
0.0
 10
-123.7704
 20
-97.2715
 30
0.0
 10
-125.4824
 20
-100.8163
 30
0.0
 10
-125.4824
 20
-100.8163
 30
0.0
 10
-123.4008
 20
-99.5862
 30
0.0
 10
-118.7617
 20
-91.8245
 30
0.0
 10
-118.4387
 20
-88.807
 30
0.0
  0
SPLINE
  5
F5
330
1F
100
AcDbEntity
  8
layer 1
 62
     7
100
AcDbSpline
210
0.0
220
0.0
230
1.0
 70
    11
 71
     3
 72
    28
 73
    24
 74
     0
 42
0.0000000001
 43
0.0000000001
 12
1.0
 22
0.0
 32
0.0
 13
1.0
 23
0.0
 33
0.0
 40
0.0
 40
0.0
 40
0.0
 40
0.0
 40
0.1428571428571428
 40
0.1428571428571428
 40
0.1428571428571428
 40
0.1428571428571428
 40
0.2857142857142857
 40
0.2857142857142857
 40
0.2857142857142857
 40
0.2857142857142857
 40
0.4285714285714285
 40
0.4285714285714285
 40
0.4285714285714285
 40
0.4285714285714285
 40
0.5714285714285714
 40
0.5714285714285714
 40
0.5714285714285714
 40
0.5714285714285714
 40
0.7142857142857143
 40
0.7142857142857143
 40
0.7142857142857143
 40
0.7142857142857143
 40
1.0
 40
1.0
 40
1.0
 40
1.0
 10
-127.0659
 20
-79.9921
 30
0.0
 10
-119.8546
 20
-80.6836
 30
0.0
 10
-118.7687
 20
-90.3966
 30
0.0
 10
-125.3287
 20
-89.6519
 30
0.0
 10
-125.3287
 20
-89.6519
 30
0.0
 10
-125.5648
 20
-88.5122
 30
0.0
 10
-127.7305
 20
-85.6538
 30
0.0
 10
-130.8026
 20
-85.8013
 30
0.0
 10
-130.8026
 20
-85.8013
 30
0.0
 10
-133.5292
 20
-85.8047
 30
0.0
 10
-136.4309
 20
-88.4841
 30
0.0
 10
-135.042
 20
-92.6928
 30
0.0
 10
-135.042
 20
-92.6928
 30
0.0
 10
-136.508
 20
-90.7666
 30
0.0
 10
-139.0165
 20
-88.7381
 30
0.0
 10
-141.3681
 20
-86.1191
 30
0.0
 10
-141.3681
 20
-86.1191
 30
0.0
 10
-138.4745
 20
-86.0757
 30
0.0
 10
-136.9767
 20
-81.5821
 30
0.0
 10
-139.328
 20
-79.8084
 30
0.0
 10
-139.328
 20
-79.8084
 30
0.0
 10
-135.9305
 20
-79.81
 30
0.0
 10
-130.2521
 20
-79.763
 30
0.0
 10
-127.0659
 20
-79.9921
 30
0.0
  0
SPLINE
  5
F6
330
1F
100
AcDbEntity
  8
layer 1
 62
     7
100
AcDbSpline
210
0.0
220
0.0
230
1.0
 70
    11
 71
     3
 72
    16
 73
    12
 74
     0
 42
0.0000000001
 43
0.0000000001
 12
1.0
 22
0.0
 32
0.0
 13
1.0
 23
0.0
 33
0.0
 40
0.0
 40
0.0
 40
0.0
 40
0.0
 40
0.25
 40
0.25
 40
0.25
 40
0.25
 40
0.5
 40
0.5
 40
0.5
 40
0.5
 40
1.0
 40
1.0
 40
1.0
 40
1.0
 10
-158.9751
 20
-111.4313
 30
0.0
 10
-156.4886
 20
-112.0138
 30
0.0
 10
-155.2884
 20
-112.2397
 30
0.0
 10
-154.3678
 20
-112.1926
 30
0.0
 10
-154.3678
 20
-112.1926
 30
0.0
 10
-152.7127
 20
-112.1091
 30
0.0
 10
-152.0419
 20
-110.0123
 30
0.0
 10
-152.0702
 20
-107.6625
 30
0.0
 10
-152.0702
 20
-107.6625
 30
0.0
 10
-153.2985
 20
-109.7429
 30
0.0
 10
-155.9577
 20
-111.1082
 30
0.0
 10
-158.9751
 20
-111.4313
 30
0.0
  0
SPLINE
  5
F7
330
1F
100
AcDbEntity
  8
layer 1
 62
     7
100
AcDbSpline
210
0.0
220
0.0
230
1.0
 70
    11
 71
     3
 72
    28
 73
    24
 74
     0
 42
0.0000000001
 43
0.0000000001
 12
1.0
 22
0.0
 32
0.0
 13
1.0
 23
0.0
 33
0.0
 40
0.0
 40
0.0
 40
0.0
 40
0.0
 40
0.1428571428571428
 40
0.1428571428571428
 40
0.1428571428571428
 40
0.1428571428571428
 40
0.2857142857142857
 40
0.2857142857142857
 40
0.2857142857142857
 40
0.2857142857142857
 40
0.4285714285714285
 40
0.4285714285714285
 40
0.4285714285714285
 40
0.4285714285714285
 40
0.5714285714285714
 40
0.5714285714285714
 40
0.5714285714285714
 40
0.5714285714285714
 40
0.7142857142857143
 40
0.7142857142857143
 40
0.7142857142857143
 40
0.7142857142857143
 40
1.0
 40
1.0
 40
1.0
 40
1.0
 10
-160.7441
 20
-110.921
 30
0.0
 10
-161.6125
 20
-111.125
 30
0.0
 10
-164.5245
 20
-108.4692
 30
0.0
 10
-164.7906
 20
-106.1946
 30
0.0
 10
-164.7906
 20
-106.1946
 30
0.0
 10
-164.7709
 20
-104.953
 30
0.0
 10
-165.7044
 20
-103.4737
 30
0.0
 10
-162.3542
 20
-101.8388
 30
0.0
 10
-162.3542
 20
-101.8388
 30
0.0
 10
-159.0004
 20
-99.668
 30
0.0
 10
-161.3083
 20
-94.2224
 30
0.0
 10
-166.1264
 20
-96.6057
 30
0.0
 10
-166.1264
 20
-96.6057
 30
0.0
 10
-167.5085
 20
-97.511
 30
0.0
 10
-168.3572
 20
-98.5186
 30
0.0
 10
-169.1789
 20
-99.6496
 30
0.0
 10
-169.1789
 20
-99.6496
 30
0.0
 10
-167.6023
 20
-101.35
 30
0.0
 10
-169.2089
 20
-105.5889
 30
0.0
 10
-172.7516
 20
-103.8769
 30
0.0
 10
-172.7516
 20
-103.8769
 30
0.0
 10
-171.5233
 20
-105.959
 30
0.0
 10
-163.7614
 20
-110.5981
 30
0.0
 10
-160.7441
 20
-110.921
 30
0.0
  0
SPLINE
  5
F8
330
1F
100
AcDbEntity
  8
layer 1
 62
     7
100
AcDbSpline
210
0.0
220
0.0
230
1.0
 70
    11
 71
     3
 72
    28
 73
    24
 74
     0
 42
0.0000000001
 43
0.0000000001
 12
1.0
 22
0.0
 32
0.0
 13
1.0
 23
0.0
 33
0.0
 40
0.0
 40
0.0
 40
0.0
 40
0.0
 40
0.1428571428571428
 40
0.1428571428571428
 40
0.1428571428571428
 40
0.1428571428571428
 40
0.2857142857142857
 40
0.2857142857142857
 40
0.2857142857142857
 40
0.2857142857142857
 40
0.4285714285714285
 40
0.4285714285714285
 40
0.4285714285714285
 40
0.4285714285714285
 40
0.5714285714285714
 40
0.5714285714285714
 40
0.5714285714285714
 40
0.5714285714285714
 40
0.7142857142857143
 40
0.7142857142857143
 40
0.7142857142857143
 40
0.7142857142857143
 40
1.0
 40
1.0
 40
1.0
 40
1.0
 10
-152.199
 20
-102.6739
 30
0.0
 10
-152.8885
 20
-109.8834
 30
0.0
 10
-162.6035
 20
-110.9694
 30
0.0
 10
-161.8571
 20
-104.4094
 30
0.0
 10
-161.8571
 20
-104.4094
 30
0.0
 10
-160.7175
 20
-104.1733
 30
0.0
 10
-157.8607
 20
-102.0076
 30
0.0
 10
-158.006
 20
-98.9367
 30
0.0
 10
-158.006
 20
-98.9367
 30
0.0
 10
-158.0094
 20
-96.2107
 30
0.0
 10
-160.6888
 20
-93.3068
 30
0.0
 10
-164.8977
 20
-94.6961
 30
0.0
 10
-164.8977
 20
-94.6961
 30
0.0
 10
-162.9715
 20
-93.2301
 30
0.0
 10
-160.9433
 20
-90.7213
 30
0.0
 10
-158.326
 20
-88.37
 30
0.0
 10
-158.326
 20
-88.37
 30
0.0
 10
-158.2823
 20
-91.2654
 30
0.0
 10
-153.7873
 20
-92.7631
 30
0.0
 10
-152.0132
 20
-90.4102
 30
0.0
 10
-152.0132
 20
-90.4102
 30
0.0
 10
-152.0149
 20
-93.8072
 30
0.0
 10
-151.9682
 20
-99.4855
 30
0.0
 10
-152.199
 20
-102.6739
 30
0.0
  0
SPLINE
  5
F9
330
1F
100
AcDbEntity
  8
layer 1
 62
     7
100
AcDbSpline
210
0.0
220
0.0
230
1.0
 70
    11
 71
     3
 72
    16
 73
    12
 74
     0
 42
0.0000000001
 43
0.0000000001
 12
1.0
 22
0.0
 32
0.0
 13
1.0
 23
0.0
 33
0.0
 40
0.0
 40
0.0
 40
0.0
 40
0.0
 40
0.25
 40
0.25
 40
0.25
 40
0.25
 40
0.5
 40
0.5
 40
0.5
 40
0.5
 40
1.0
 40
1.0
 40
1.0
 40
1.0
 10
-155.573
 20
-87.6168
 30
0.0
 10
-156.234
 20
-89.858
 30
0.0
 10
-154.4432
 20
-90.432
 30
0.0
 10
-153.4325
 20
-88.5509
 30
0.0
 10
-153.4325
 20
-88.5509
 30
0.0
 10
-153.1159
 20
-87.9617
 30
0.0
 10
-152.8499
 20
-86.114
 30
0.0
 10
-152.7934
 20
-84.0605
 30
0.0
 10
-152.7934
 20
-84.0605
 30
0.0
 10
-153.9796
 20
-85.3342
 30
0.0
 10
-155.193
 20
-86.7433
 30
0.0
 10
-155.573
 20
-87.6168
 30
0.0
  0
SPLINE
  5
FA
330
1F
100
AcDbEntity
  8
layer 1
 62
     7
100
AcDbSpline
210
0.0
220
0.0
230
1.0
 70
    11
 71
     3
 72
    16
 73
    12
 74
     0
 42
0.0000000001
 43
0.0000000001
 12
1.0
 22
0.0
 32
0.0
 13
1.0
 23
0.0
 33
0.0
 40
0.0
 40
0.0
 40
0.0
 40
0.0
 40
0.25
 40
0.25
 40
0.25
 40
0.25
 40
0.5
 40
0.5
 40
0.5
 40
0.5
 40
1.0
 40
1.0
 40
1.0
 40
1.0
 10
-159.1858
 20
-83.4482
 30
0.0
 10
-161.472
 20
-83.9268
 30
0.0
 10
-161.9004
 20
-82.0958
 30
0.0
 10
-159.9442
 20
-81.2389
 30
0.0
 10
-159.9442
 20
-81.2389
 30
0.0
 10
-159.3332
 20
-80.9711
 30
0.0
 10
-157.4692
 20
-80.8541
 30
0.0
 10
-155.4188
 20
-80.9613
 30
0.0
 10
-155.4188
 20
-80.9613
 30
0.0
 10
-156.7828
 20
-82.0422
 30
0.0
 10
-158.2841
 20
-83.1385
 30
0.0
 10
-159.1858
 20
-83.4482
 30
0.0
  0
SPLINE
  5
FB
330
1F
100
AcDbEntity
  8
layer 1
 62
     7
100
AcDbSpline
210
0.0
220
0.0
230
1.0
 70
    11
 71
     3
 72
    20
 73
    16
 74
     0
 42
0.0000000001
 43
0.0000000001
 12
1.0
 22
0.0
 32
0.0
 13
1.0
 23
0.0
 33
0.0
 40
0.0
 40
0.0
 40
0.0
 40
0.0
 40
0.2
 40
0.2
 40
0.2
 40
0.2
 40
0.4
 40
0.4
 40
0.4
 40
0.4
 40
0.6
 40
0.6
 40
0.6
 40
0.6
 40
1.0
 40
1.0
 40
1.0
 40
1.0
 10
-174.1542
 20
-100.7258
 30
0.0
 10
-174.1542
 20
-99.7853
 30
0.0
 10
-173.3929
 20
-99.0237
 30
0.0
 10
-172.4538
 20
-99.0237
 30
0.0
 10
-172.4538
 20
-99.0237
 30
0.0
 10
-171.5134
 20
-99.0237
 30
0.0
 10
-170.7517
 20
-99.7855
 30
0.0
 10
-170.7517
 20
-100.7258
 30
0.0
 10
-170.7517
 20
-100.7258
 30
0.0
 10
-170.7516
 20
-101.6644
 30
0.0
 10
-171.5134
 20
-102.4263
 30
0.0
 10
-172.4538
 20
-102.4263
 30
0.0
 10
-172.4538
 20
-102.4263
 30
0.0
 10
-173.3929
 20
-102.4263
 30
0.0
 10
-174.1542
 20
-101.6646
 30
0.0
 10
-174.1542
 20
-100.7258
 30
0.0
  0
SPLINE
  5
FC
330
1F
100
AcDbEntity
  8
layer 1
 62
     7
100
AcDbSpline
210
0.0
220
0.0
230
1.0
 70
    11
 71
     3
 72
    16
 73
    12
 74
     0
 42
0.0000000001
 43
0.0000000001
 12
1.0
 22
0.0
 32
0.0
 13
1.0
 23
0.0
 33
0.0
 40
0.0
 40
0.0
 40
0.0
 40
0.0
 40
0.25
 40
0.25
 40
0.25
 40
0.25
 40
0.5
 40
0.5
 40
0.5
 40
0.5
 40
1.0
 40
1.0
 40
1.0
 40
1.0
 10
-183.3637
 20
-87.2355
 30
0.0
 10
-183.9442
 20
-84.7503
 30
0.0
 10
-184.1721
 20
-83.5485
 30
0.0
 10
-184.125
 20
-82.6283
 30
0.0
 10
-184.125
 20
-82.6283
 30
0.0
 10
-184.0414
 20
-80.9728
 30
0.0
 10
-181.9443
 20
-80.3019
 30
0.0
 10
-179.5931
 20
-80.3302
 30
0.0
 10
-179.5931
 20
-80.3302
 30
0.0
 10
-181.6752
 20
-81.5602
 30
0.0
 10
-183.0406
 20
-84.2199
 30
0.0
 10
-183.3637
 20
-87.2355
 30
0.0
  0
SPLINE
  5
FD
330
1F
100
AcDbEntity
  8
layer 1
 62
     7
100
AcDbSpline
210
0.0
220
0.0
230
1.0
 70
    11
 71
     3
 72
    28
 73
    24
 74
     0
 42
0.0000000001
 43
0.0000000001
 12
1.0
 22
0.0
 32
0.0
 13
1.0
 23
0.0
 33
0.0
 40
0.0
 40
0.0
 40
0.0
 40
0.0
 40
0.1428571428571428
 40
0.1428571428571428
 40
0.1428571428571428
 40
0.1428571428571428
 40
0.2857142857142857
 40
0.2857142857142857
 40
0.2857142857142857
 40
0.2857142857142857
 40
0.4285714285714285
 40
0.4285714285714285
 40
0.4285714285714285
 40
0.4285714285714285
 40
0.5714285714285714
 40
0.5714285714285714
 40
0.5714285714285714
 40
0.5714285714285714
 40
0.7142857142857143
 40
0.7142857142857143
 40
0.7142857142857143
 40
0.7142857142857143
 40
1.0
 40
1.0
 40
1.0
 40
1.0
 10
-182.8547
 20
-88.807
 30
0.0
 10
-183.0591
 20
-89.6754
 30
0.0
 10
-180.4032
 20
-92.5875
 30
0.0
 10
-178.1305
 20
-92.8552
 30
0.0
 10
-178.1305
 20
-92.8552
 30
0.0
 10
-176.8889
 20
-92.835
 30
0.0
 10
-175.4079
 20
-93.7673
 30
0.0
 10
-173.7742
 20
-90.4183
 30
0.0
 10
-173.7742
 20
-90.4183
 30
0.0
 10
-171.6021
 20
-87.0628
 30
0.0
 10
-166.1581
 20
-89.3708
 30
0.0
 10
-168.541
 20
-94.1907
 30
0.0
 10
-168.541
 20
-94.1907
 30
0.0
 10
-169.445
 20
-95.5714
 30
0.0
 10
-170.454
 20
-96.4215
 30
0.0
 10
-171.5838
 20
-97.2415
 30
0.0
 10
-171.5838
 20
-97.2415
 30
0.0
 10
-173.2858
 20
-95.6648
 30
0.0
 10
-177.5247
 20
-97.2715
 30
0.0
 10
-175.8127
 20
-100.8163
 30
0.0
 10
-175.8127
 20
-100.8163
 30
0.0
 10
-177.8926
 20
-99.5862
 30
0.0
 10
-182.5334
 20
-91.8245
 30
0.0
 10
-182.8547
 20
-88.807
 30
0.0
  0
SPLINE
  5
FE
330
1F
100
AcDbEntity
  8
layer 1
 62
     7
100
AcDbSpline
210
0.0
220
0.0
230
1.0
 70
    11
 71
     3
 72
    28
 73
    24
 74
     0
 42
0.0000000001
 43
0.0000000001
 12
1.0
 22
0.0
 32
0.0
 13
1.0
 23
0.0
 33
0.0
 40
0.0
 40
0.0
 40
0.0
 40
0.0
 40
0.1428571428571428
 40
0.1428571428571428
 40
0.1428571428571428
 40
0.1428571428571428
 40
0.2857142857142857
 40
0.2857142857142857
 40
0.2857142857142857
 40
0.2857142857142857
 40
0.4285714285714285
 40
0.4285714285714285
 40
0.4285714285714285
 40
0.4285714285714285
 40
0.5714285714285714
 40
0.5714285714285714
 40
0.5714285714285714
 40
0.5714285714285714
 40
0.7142857142857143
 40
0.7142857142857143
 40
0.7142857142857143
 40
0.7142857142857143
 40
1.0
 40
1.0
 40
1.0
 40
1.0
 10
-174.2296
 20
-79.9921
 30
0.0
 10
-181.441
 20
-80.6836
 30
0.0
 10
-182.527
 20
-90.3966
 30
0.0
 10
-175.9648
 20
-89.6519
 30
0.0
 10
-175.9648
 20
-89.6519
 30
0.0
 10
-175.7308
 20
-88.5122
 30
0.0
 10
-173.5634
 20
-85.6538
 30
0.0
 10
-170.4925
 20
-85.8013
 30
0.0
 10
-170.4925
 20
-85.8013
 30
0.0
 10
-167.7664
 20
-85.8047
 30
0.0
 10
-164.8626
 20
-88.4841
 30
0.0
 10
-166.2532
 20
-92.6928
 30
0.0
 10
-166.2532
 20
-92.6928
 30
0.0
 10
-164.7858
 20
-90.7666
 30
0.0
 10
-162.2787
 20
-88.7381
 30
0.0
 10
-159.9258
 20
-86.1191
 30
0.0
 10
-159.9258
 20
-86.1191
 30
0.0
 10
-162.8211
 20
-86.0757
 30
0.0
 10
-164.3189
 20
-81.5821
 30
0.0
 10
-161.9659
 20
-79.8084
 30
0.0
 10
-161.9659
 20
-79.8084
 30
0.0
 10
-165.3629
 20
-79.81
 30
0.0
 10
-171.043
 20
-79.763
 30
0.0
 10
-174.2296
 20
-79.9921
 30
0.0
  0
SPLINE
  5
FF
330
1F
100
AcDbEntity
  8
layer 1
 62
   250
100
AcDbSpline
210
0.0
220
0.0
230
1.0
 70
    11
 71
     3
 72
    20
 73
    16
 74
     0
 42
0.0000000001
 43
0.0000000001
 12
1.0
 22
0.0
 32
0.0
 13
1.0
 23
0.0
 33
0.0
 40
0.0
 40
0.0
 40
0.0
 40
0.0
 40
0.2
 40
0.2
 40
0.2
 40
0.2
 40
0.4
 40
0.4
 40
0.4
 40
0.4
 40
0.6
 40
0.6
 40
0.6
 40
0.6
 40
1.0
 40
1.0
 40
1.0
 40
1.0
 10
-36.5597
 20
-78.7228
 30
0.0
 10
-36.5597
 20
-98.8813
 30
0.0
 10
-52.9022
 20
-115.2235
 30
0.0
 10
-73.0604
 20
-115.2235
 30
0.0
 10
-73.0604
 20
-115.2235
 30
0.0
 10
-93.2172
 20
-115.2235
 30
0.0
 10
-109.5597
 20
-98.8815
 30
0.0
 10
-109.5597
 20
-78.7228
 30
0.0
 10
-109.5597
 20
-78.7228
 30
0.0
 10
-109.5597
 20
-58.566
 30
0.0
 10
-93.2172
 20
-42.2235
 30
0.0
 10
-73.0604
 20
-42.2235
 30
0.0
 10
-73.0604
 20
-42.2235
 30
0.0
 10
-52.9022
 20
-42.2234
 30
0.0
 10
-36.5597
 20
-58.5661
 30
0.0
 10
-36.5597
 20
-78.7228
 30
0.0
  0
SPLINE
  5
100
330
1F
100
AcDbEntity
  8
layer 1
 62
     7
100
AcDbSpline
210
0.0
220
0.0
230
1.0
 70
    11
 71
     3
 72
    40
 73
    36
 74
     0
 42
0.0000000001
 43
0.0000000001
 12
1.0
 22
0.0
 32
0.0
 13
1.0
 23
0.0
 33
0.0
 40
0.0
 40
0.0
 40
0.0
 40
0.0
 40
0.1
 40
0.1
 40
0.1
 40
0.1
 40
0.2
 40
0.2
 40
0.2
 40
0.2
 40
0.3
 40
0.3
 40
0.3
 40
0.3
 40
0.4
 40
0.4
 40
0.4
 40
0.4
 40
0.5
 40
0.5
 40
0.5
 40
0.5
 40
0.6
 40
0.6
 40
0.6
 40
0.6
 40
0.7
 40
0.7
 40
0.7
 40
0.7
 40
0.8
 40
0.8
 40
0.8
 40
0.8
 40
1.0
 40
1.0
 40
1.0
 40
1.0
 10
-85.1651
 20
-57.9857
 30
0.0
 10
-85.0418
 20
-55.3742
 30
0.0
 10
-86.2342
 20
-53.2891
 30
0.0
 10
-87.0811
 20
-53.0068
 30
0.0
 10
-87.0811
 20
-53.0068
 30
0.0
 10
-88.2598
 20
-53.7903
 30
0.0
 10
-88.6813
 20
-56.0766
 30
0.0
 10
-88.8457
 20
-56.941
 30
0.0
 10
-88.8457
 20
-56.941
 30
0.0
 10
-90.1016
 20
-55.1593
 30
0.0
 10
-93.4855
 20
-54.8612
 30
0.0
 10
-94.8738
 20
-55.2315
 30
0.0
 10
-94.8738
 20
-55.2315
 30
0.0
 10
-89.5741
 20
-49.9707
 30
0.0
 10
-81.6192
 20
-46.6786
 30
0.0
 10
-73.9638
 20
-46.4687
 30
0.0
 10
-73.9638
 20
-46.4687
 30
0.0
 10
-75.16
 20
-47.1248
 30
0.0
 10
-76.5273
 20
-48.9455
 30
0.0
 10
-76.132
 20
-51.089
 30
0.0
 10
-76.132
 20
-51.089
 30
0.0
 10
-76.8624
 20
-50.602
 30
0.0
 10
-78.6514
 20
-49.8894
 30
0.0
 10
-80.0348
 20
-50.1821
 30
0.0
 10
-80.0348
 20
-50.1821
 30
0.0
 10
-80.4263
 20
-50.9869
 30
0.0
 10
-80.07
 20
-53.4796
 30
0.0
 10
-78.1189
 20
-55.2193
 30
0.0
 10
-78.1189
 20
-55.2193
 30
0.0
 10
-80.1563
 20
-54.1253
 30
0.0
 10
-81.7601
 20
-55.4149
 30
0.0
 10
-81.2909
 20
-57.4388
 30
0.0
 10
-81.2909
 20
-57.4388
 30
0.0
 10
-82.4782
 20
-55.5211
 30
0.0
 10
-84.521
 20
-55.7645
 30
0.0
 10
-85.1651
 20
-57.9857
 30
0.0
  0
SPLINE
  5
101
330
1F
100
AcDbEntity
  8
layer 1
 62
     7
100
AcDbSpline
210
0.0
220
0.0
230
1.0
 70
    11
 71
     3
 72
    16
 73
    12
 74
     0
 42
0.0000000001
 43
0.0000000001
 12
1.0
 22
0.0
 32
0.0
 13
1.0
 23
0.0
 33
0.0
 40
0.0
 40
0.0
 40
0.0
 40
0.0
 40
0.25
 40
0.25
 40
0.25
 40
0.25
 40
0.5
 40
0.5
 40
0.5
 40
0.5
 40
1.0
 40
1.0
 40
1.0
 40
1.0
 10
-81.4408
 20
-62.3608
 30
0.0
 10
-79.8072
 20
-65.5807
 30
0.0
 10
-75.1547
 20
-71.6162
 30
0.0
 10
-74.1173
 20
-72.7579
 30
0.0
 10
-74.1173
 20
-72.7579
 30
0.0
 10
-75.0526
 20
-66.4962
 30
0.0
 10
-76.9316
 20
-62.1351
 30
0.0
 10
-78.3235
 20
-59.8167
 30
0.0
 10
-78.3235
 20
-59.8167
 30
0.0
 10
-79.8903
 20
-57.4156
 30
0.0
 10
-83.0003
 20
-58.4866
 30
0.0
 10
-81.4408
 20
-62.3608
 30
0.0
  0
SPLINE
  5
102
330
1F
100
AcDbEntity
  8
layer 1
 62
     7
100
AcDbSpline
210
0.0
220
0.0
230
1.0
 70
    11
 71
     3
 72
    20
 73
    16
 74
     0
 42
0.0000000001
 43
0.0000000001
 12
1.0
 22
0.0
 32
0.0
 13
1.0
 23
0.0
 33
0.0
 40
0.0
 40
0.0
 40
0.0
 40
0.0
 40
0.2
 40
0.2
 40
0.2
 40
0.2
 40
0.4
 40
0.4
 40
0.4
 40
0.4
 40
0.6
 40
0.6
 40
0.6
 40
0.6
 40
1.0
 40
1.0
 40
1.0
 40
1.0
 10
-87.8149
 20
-63.4298
 30
0.0
 10
-88.1469
 20
-65.5119
 30
0.0
 10
-81.2872
 20
-69.7215
 30
0.0
 10
-78.5281
 20
-72.3112
 30
0.0
 10
-78.5281
 20
-72.3112
 30
0.0
 10
-83.3214
 20
-66.2545
 30
0.0
 10
-85.7174
 20
-62.8234
 30
0.0
 10
-87.4554
 20
-63.125
 30
0.0
 10
-87.4554
 20
-63.125
 30
0.0
 10
-87.5169
 20
-59.8858
 30
0.0
 10
-91.6225
 20
-57.5408
 30
0.0
 10
-92.3879
 20
-58.3281
 30
0.0
 10
-92.3879
 20
-58.3281
 30
0.0
 10
-92.9701
 20
-58.926
 30
0.0
 10
-91.2114
 20
-63.462
 30
0.0
 10
-87.8149
 20
-63.4298
 30
0.0
  0
SPLINE
  5
103
330
1F
100
AcDbEntity
  8
layer 1
 62
     7
100
AcDbSpline
210
0.0
220
0.0
230
1.0
 70
    11
 71
     3
 72
    40
 73
    36
 74
     0
 42
0.0000000001
 43
0.0000000001
 12
1.0
 22
0.0
 32
0.0
 13
1.0
 23
0.0
 33
0.0
 40
0.0
 40
0.0
 40
0.0
 40
0.0
 40
0.1
 40
0.1
 40
0.1
 40
0.1
 40
0.2
 40
0.2
 40
0.2
 40
0.2
 40
0.3
 40
0.3
 40
0.3
 40
0.3
 40
0.4
 40
0.4
 40
0.4
 40
0.4
 40
0.5
 40
0.5
 40
0.5
 40
0.5
 40
0.6
 40
0.6
 40
0.6
 40
0.6
 40
0.7
 40
0.7
 40
0.7
 40
0.7
 40
0.8
 40
0.8
 40
0.8
 40
0.8
 40
1.0
 40
1.0
 40
1.0
 40
1.0
 10
-60.9137
 20
-57.9857
 30
0.0
 10
-61.037
 20
-55.3742
 30
0.0
 10
-59.8464
 20
-53.2891
 30
0.0
 10
-58.9977
 20
-53.0068
 30
0.0
 10
-58.9977
 20
-53.0068
 30
0.0
 10
-57.8207
 20
-53.7903
 30
0.0
 10
-57.3975
 20
-56.0766
 30
0.0
 10
-57.2331
 20
-56.941
 30
0.0
 10
-57.2331
 20
-56.941
 30
0.0
 10
-55.9789
 20
-55.1593
 30
0.0
 10
-52.5933
 20
-54.8612
 30
0.0
 10
-51.2068
 20
-55.2315
 30
0.0
 10
-51.2068
 20
-55.2315
 30
0.0
 10
-56.5065
 20
-49.9707
 30
0.0
 10
-64.4596
 20
-46.6786
 30
0.0
 10
-72.115
 20
-46.4687
 30
0.0
 10
-72.115
 20
-46.4687
 30
0.0
 10
-70.9186
 20
-47.1248
 30
0.0
 10
-69.5533
 20
-48.9455
 30
0.0
 10
-69.9486
 20
-51.089
 30
0.0
 10
-69.9486
 20
-51.089
 30
0.0
 10
-69.2164
 20
-50.602
 30
0.0
 10
-67.4292
 20
-49.8894
 30
0.0
 10
-66.044
 20
-50.1821
 30
0.0
 10
-66.044
 20
-50.1821
 30
0.0
 10
-65.6543
 20
-50.9869
 30
0.0
 10
-66.0088
 20
-53.4796
 30
0.0
 10
-67.9617
 20
-55.2193
 30
0.0
 10
-67.9617
 20
-55.2193
 30
0.0
 10
-65.9243
 20
-54.1253
 30
0.0
 10
-64.3205
 20
-55.4149
 30
0.0
 10
-64.7897
 20
-57.4388
 30
0.0
 10
-64.7897
 20
-57.4388
 30
0.0
 10
-63.6024
 20
-55.5211
 30
0.0
 10
-61.5578
 20
-55.7645
 30
0.0
 10
-60.9137
 20
-57.9857
 30
0.0
  0
SPLINE
  5
104
330
1F
100
AcDbEntity
  8
layer 1
 62
     7
100
AcDbSpline
210
0.0
220
0.0
230
1.0
 70
    11
 71
     3
 72
    16
 73
    12
 74
     0
 42
0.0000000001
 43
0.0000000001
 12
1.0
 22
0.0
 32
0.0
 13
1.0
 23
0.0
 33
0.0
 40
0.0
 40
0.0
 40
0.0
 40
0.0
 40
0.25
 40
0.25
 40
0.25
 40
0.25
 40
0.5
 40
0.5
 40
0.5
 40
0.5
 40
1.0
 40
1.0
 40
1.0
 40
1.0
 10
-64.6398
 20
-62.3608
 30
0.0
 10
-66.2734
 20
-65.5807
 30
0.0
 10
-70.9259
 20
-71.6162
 30
0.0
 10
-71.9633
 20
-72.7579
 30
0.0
 10
-71.9633
 20
-72.7579
 30
0.0
 10
-71.028
 20
-66.4962
 30
0.0
 10
-69.149
 20
-62.1351
 30
0.0
 10
-67.7571
 20
-59.8167
 30
0.0
 10
-67.7571
 20
-59.8167
 30
0.0
 10
-66.1903
 20
-57.4156
 30
0.0
 10
-63.0785
 20
-58.4866
 30
0.0
 10
-64.6398
 20
-62.3608
 30
0.0
  0
SPLINE
  5
105
330
1F
100
AcDbEntity
  8
layer 1
 62
     7
100
AcDbSpline
210
0.0
220
0.0
230
1.0
 70
    11
 71
     3
 72
    20
 73
    16
 74
     0
 42
0.0000000001
 43
0.0000000001
 12
1.0
 22
0.0
 32
0.0
 13
1.0
 23
0.0
 33
0.0
 40
0.0
 40
0.0
 40
0.0
 40
0.0
 40
0.2
 40
0.2
 40
0.2
 40
0.2
 40
0.4
 40
0.4
 40
0.4
 40
0.4
 40
0.6
 40
0.6
 40
0.6
 40
0.6
 40
1.0
 40
1.0
 40
1.0
 40
1.0
 10
-58.2656
 20
-63.4298
 30
0.0
 10
-57.9336
 20
-65.5119
 30
0.0
 10
-64.7915
 20
-69.7215
 30
0.0
 10
-67.5507
 20
-72.3112
 30
0.0
 10
-67.5507
 20
-72.3112
 30
0.0
 10
-62.7573
 20
-66.2545
 30
0.0
 10
-60.3612
 20
-62.8234
 30
0.0
 10
-58.6252
 20
-63.125
 30
0.0
 10
-58.6252
 20
-63.125
 30
0.0
 10
-58.5619
 20
-59.8858
 30
0.0
 10
-54.4564
 20
-57.5408
 30
0.0
 10
-53.6927
 20
-58.3281
 30
0.0
 10
-53.6927
 20
-58.3281
 30
0.0
 10
-53.1104
 20
-58.926
 30
0.0
 10
-54.8674
 20
-63.462
 30
0.0
 10
-58.2656
 20
-63.4298
 30
0.0
  0
SPLINE
  5
106
330
1F
100
AcDbEntity
  8
layer 1
 62
     7
100
AcDbSpline
210
0.0
220
0.0
230
1.0
 70
    11
 71
     3
 72
    40
 73
    36
 74
     0
 42
0.0000000001
 43
0.0000000001
 12
1.0
 22
0.0
 32
0.0
 13
1.0
 23
0.0
 33
0.0
 40
0.0
 40
0.0
 40
0.0
 40
0.0
 40
0.1
 40
0.1
 40
0.1
 40
0.1
 40
0.2
 40
0.2
 40
0.2
 40
0.2
 40
0.3
 40
0.3
 40
0.3
 40
0.3
 40
0.4
 40
0.4
 40
0.4
 40
0.4
 40
0.5
 40
0.5
 40
0.5
 40
0.5
 40
0.6
 40
0.6
 40
0.6
 40
0.6
 40
0.7
 40
0.7
 40
0.7
 40
0.7
 40
0.8
 40
0.8
 40
0.8
 40
0.8
 40
1.0
 40
1.0
 40
1.0
 40
1.0
 10
-96.2361
 20
-73.1724
 30
0.0
 10
-98.0462
 20
-71.2864
 30
0.0
 10
-100.3804
 20
-70.7182
 30
0.0
 10
-101.169
 20
-71.1382
 30
0.0
 10
-101.169
 20
-71.1382
 30
0.0
 10
-101.4089
 20
-72.5319
 30
0.0
 10
-100.0417
 20
-74.4128
 30
0.0
 10
-99.5264
 20
-75.1255
 30
0.0
 10
-99.5264
 20
-75.1255
 30
0.0
 10
-101.6839
 20
-74.8097
 30
0.0
 10
-104.228
 20
-77.0626
 30
0.0
 10
-104.9127
 20
-78.324
 30
0.0
 10
-104.9127
 20
-78.324
 30
0.0
 10
-105.0875
 20
-70.8595
 30
0.0
 10
-102.0032
 20
-62.8216
 30
0.0
 10
-96.8923
 20
-57.1195
 30
0.0
 10
-96.8923
 20
-57.1195
 30
0.0
 10
-97.2365
 20
-58.4409
 30
0.0
 10
-96.8552
 20
-60.683
 30
0.0
 10
-95.0275
 20
-61.8721
 30
0.0
 10
-95.0275
 20
-61.8721
 30
0.0
 10
-95.8851
 20
-62.0681
 30
0.0
 10
-97.6317
 20
-62.8762
 30
0.0
 10
-98.3705
 20
-64.0812
 30
0.0
 10
-98.3705
 20
-64.0812
 30
0.0
 10
-98.0566
 20
-64.919
 30
0.0
 10
-96.0011
 20
-66.3747
 30
0.0
 10
-93.3974
 20
-66.1543
 30
0.0
 10
-93.3974
 20
-66.1543
 30
0.0
 10
-95.5919
 20
-66.8809
 30
0.0
 10
-95.7595
 20
-68.9328
 30
0.0
 10
-93.9669
 20
-69.9843
 30
0.0
 10
-93.9669
 20
-69.9843
 30
0.0
 10
-96.1759
 20
-69.5257
 30
0.0
 10
-97.4058
 20
-71.1771
 30
0.0
 10
-96.2361
 20
-73.1724
 30
0.0
  0
SPLINE
  5
107
330
1F
100
AcDbEntity
  8
layer 1
 62
     7
100
AcDbSpline
210
0.0
220
0.0
230
1.0
 70
    11
 71
     3
 72
    16
 73
    12
 74
     0
 42
0.0000000001
 43
0.0000000001
 12
1.0
 22
0.0
 32
0.0
 13
1.0
 23
0.0
 33
0.0
 40
0.0
 40
0.0
 40
0.0
 40
0.0
 40
0.25
 40
0.25
 40
0.25
 40
0.25
 40
0.5
 40
0.5
 40
0.5
 40
0.5
 40
1.0
 40
1.0
 40
1.0
 40
1.0
 10
-90.1071
 20
-73.2271
 30
0.0
 10
-86.7671
 20
-74.5978
 30
0.0
 10
-79.3026
 20
-76.1313
 30
0.0
 10
-77.7712
 20
-76.3182
 30
0.0
 10
-77.7712
 20
-76.3182
 30
0.0
 10
-82.5699
 20
-72.1861
 30
0.0
 10
-86.8413
 20
-70.1094
 30
0.0
 10
-89.4084
 20
-69.2625
 30
0.0
 10
-89.4084
 20
-69.2625
 30
0.0
 10
-92.1621
 20
-68.4689
 30
0.0
 10
-93.8206
 20
-71.3112
 30
0.0
 10
-90.1071
 20
-73.2271
 30
0.0
  0
SPLINE
  5
108
330
1F
100
AcDbEntity
  8
layer 1
 62
     7
100
AcDbSpline
210
0.0
220
0.0
230
1.0
 70
    11
 71
     3
 72
    20
 73
    16
 74
     0
 42
0.0000000001
 43
0.0000000001
 12
1.0
 22
0.0
 32
0.0
 13
1.0
 23
0.0
 33
0.0
 40
0.0
 40
0.0
 40
0.0
 40
0.0
 40
0.2
 40
0.2
 40
0.2
 40
0.2
 40
0.4
 40
0.4
 40
0.4
 40
0.4
 40
0.6
 40
0.6
 40
0.6
 40
0.6
 40
1.0
 40
1.0
 40
1.0
 40
1.0
 10
-94.1064
 20
-78.8411
 30
0.0
 10
-92.8239
 20
-80.5137
 30
0.0
 10
-84.8707
 20
-78.9504
 30
0.0
 10
-81.0935
 20
-78.7283
 30
0.0
 10
-81.0935
 20
-78.7283
 30
0.0
 10
-88.5155
 20
-77.6375
 30
0.0
 10
-93.1042
 20
-76.9023
 30
0.0
 10
-94.0816
 20
-78.3683
 30
0.0
 10
-94.0816
 20
-78.3683
 30
0.0
 10
-96.4758
 20
-76.186
 30
0.0
 10
-101.0014
 20
-77.553
 30
0.0
 10
-100.9554
 20
-78.6506
 30
0.0
 10
-100.9554
 20
-78.6506
 30
0.0
 10
-100.9219
 20
-79.4847
 30
0.0
 10
-96.4212
 20
-81.3266
 30
0.0
 10
-94.1064
 20
-78.8411
 30
0.0
  0
SPLINE
  5
109
330
1F
100
AcDbEntity
  8
layer 1
 62
     7
100
AcDbSpline
210
0.0
220
0.0
230
1.0
 70
    11
 71
     3
 72
    40
 73
    36
 74
     0
 42
0.0000000001
 43
0.0000000001
 12
1.0
 22
0.0
 32
0.0
 13
1.0
 23
0.0
 33
0.0
 40
0.0
 40
0.0
 40
0.0
 40
0.0
 40
0.1
 40
0.1
 40
0.1
 40
0.1
 40
0.2
 40
0.2
 40
0.2
 40
0.2
 40
0.3
 40
0.3
 40
0.3
 40
0.3
 40
0.4
 40
0.4
 40
0.4
 40
0.4
 40
0.5
 40
0.5
 40
0.5
 40
0.5
 40
0.6
 40
0.6
 40
0.6
 40
0.6
 40
0.7
 40
0.7
 40
0.7
 40
0.7
 40
0.8
 40
0.8
 40
0.8
 40
0.8
 40
1.0
 40
1.0
 40
1.0
 40
1.0
 10
-49.9575
 20
-73.0504
 30
0.0
 10
-48.1509
 20
-71.1613
 30
0.0
 10
-45.8204
 20
-70.5877
 30
0.0
 10
-45.0299
 20
-71.0078
 30
0.0
 10
-45.0299
 20
-71.0078
 30
0.0
 10
-44.7864
 20
-72.3997
 30
0.0
 10
-46.1519
 20
-74.284
 30
0.0
 10
-46.6636
 20
-74.9967
 30
0.0
 10
-46.6636
 20
-74.9967
 30
0.0
 10
-44.5077
 20
-74.6773
 30
0.0
 10
-41.9583
 20
-76.9248
 30
0.0
 10
-41.2704
 20
-78.1845
 30
0.0
 10
-41.2704
 20
-78.1845
 30
0.0
 10
-41.1132
 20
-70.7182
 30
0.0
 10
-44.2111
 20
-62.6874
 30
0.0
 10
-49.3364
 20
-56.9957
 30
0.0
 10
-49.3364
 20
-56.9957
 30
0.0
 10
-48.9873
 20
-58.3172
 30
0.0
 10
-49.365
 20
-60.5615
 30
0.0
 10
-51.1891
 20
-61.7526
 30
0.0
 10
-51.1891
 20
-61.7526
 30
0.0
 10
-50.3314
 20
-61.9461
 30
0.0
 10
-48.5849
 20
-62.751
 30
0.0
 10
-47.8419
 20
-63.9556
 30
0.0
 10
-47.8419
 20
-63.9556
 30
0.0
 10
-48.1545
 20
-64.792
 30
0.0
 10
-50.2064
 20
-66.2545
 30
0.0
 10
-52.812
 20
-66.0395
 30
0.0
 10
-52.812
 20
-66.0395
 30
0.0
 10
-50.6137
 20
-66.7607
 30
0.0
 10
-50.4444
 20
-68.8109
 30
0.0
 10
-52.2334
 20
-69.866
 30
0.0
 10
-52.2334
 20
-69.866
 30
0.0
 10
-50.0247
 20
-69.4058
 30
0.0
 10
-48.7932
 20
-71.0533
 30
0.0
 10
-49.9575
 20
-73.0504
 30
0.0
  0
SPLINE
  5
10A
330
1F
100
AcDbEntity
  8
layer 1
 62
     7
100
AcDbSpline
210
0.0
220
0.0
230
1.0
 70
    11
 71
     3
 72
    16
 73
    12
 74
     0
 42
0.0000000001
 43
0.0000000001
 12
1.0
 22
0.0
 32
0.0
 13
1.0
 23
0.0
 33
0.0
 40
0.0
 40
0.0
 40
0.0
 40
0.0
 40
0.25
 40
0.25
 40
0.25
 40
0.25
 40
0.5
 40
0.5
 40
0.5
 40
0.5
 40
1.0
 40
1.0
 40
1.0
 40
1.0
 10
-56.3583
 20
-73.6679
 30
0.0
 10
-59.7353
 20
-74.9456
 30
0.0
 10
-67.2404
 20
-76.2685
 30
0.0
 10
-68.777
 20
-76.4136
 30
0.0
 10
-68.777
 20
-76.4136
 30
0.0
 10
-63.8634
 20
-72.4172
 30
0.0
 10
-59.5357
 20
-70.4608
 30
0.0
 10
-56.9458
 20
-69.6861
 30
0.0
 10
-56.9458
 20
-69.6861
 30
0.0
 10
-54.1705
 20
-68.9698
 30
0.0
 10
-52.5933
 20
-71.8582
 30
0.0
 10
-56.3583
 20
-73.6679
 30
0.0
  0
SPLINE
  5
10B
330
1F
100
AcDbEntity
  8
layer 1
 62
     7
100
AcDbSpline
210
0.0
220
0.0
230
1.0
 70
    11
 71
     3
 72
    20
 73
    16
 74
     0
 42
0.0000000001
 43
0.0000000001
 12
1.0
 22
0.0
 32
0.0
 13
1.0
 23
0.0
 33
0.0
 40
0.0
 40
0.0
 40
0.0
 40
0.0
 40
0.2
 40
0.2
 40
0.2
 40
0.2
 40
0.4
 40
0.4
 40
0.4
 40
0.4
 40
0.6
 40
0.6
 40
0.6
 40
0.6
 40
1.0
 40
1.0
 40
1.0
 40
1.0
 10
-52.0621
 20
-78.9803
 30
0.0
 10
-53.2992
 20
-80.6861
 30
0.0
 10
-61.1254
 20
-78.8145
 30
0.0
 10
-64.9081
 20
-78.6944
 30
0.0
 10
-64.9081
 20
-78.6944
 30
0.0
 10
-57.2367
 20
-77.8019
 30
0.0
 10
-53.1154
 20
-77.0699
 30
0.0
 10
-52.101
 20
-78.5093
 30
0.0
 10
-52.101
 20
-78.5093
 30
0.0
 10
-49.765
 20
-76.2632
 30
0.0
 10
-45.2047
 20
-77.5089
 30
0.0
 10
-45.2206
 20
-78.6063
 30
0.0
 10
-45.2206
 20
-78.6063
 30
0.0
 10
-45.2326
 20
-79.4409
 30
0.0
 10
-49.6825
 20
-81.4043
 30
0.0
 10
-52.0621
 20
-78.9803
 30
0.0
  0
SPLINE
  5
10C
330
1F
100
AcDbEntity
  8
layer 1
 62
     7
100
AcDbSpline
210
0.0
220
0.0
230
1.0
 70
    11
 71
     3
 72
    40
 73
    36
 74
     0
 42
0.0000000001
 43
0.0000000001
 12
1.0
 22
0.0
 32
0.0
 13
1.0
 23
0.0
 33
0.0
 40
0.0
 40
0.0
 40
0.0
 40
0.0
 40
0.1
 40
0.1
 40
0.1
 40
0.1
 40
0.2
 40
0.2
 40
0.2
 40
0.2
 40
0.3
 40
0.3
 40
0.3
 40
0.3
 40
0.4
 40
0.4
 40
0.4
 40
0.4
 40
0.5
 40
0.5
 40
0.5
 40
0.5
 40
0.6
 40
0.6
 40
0.6
 40
0.6
 40
0.7
 40
0.7
 40
0.7
 40
0.7
 40
0.8
 40
0.8
 40
0.8
 40
0.8
 40
1.0
 40
1.0
 40
1.0
 40
1.0
 10
-85.1001
 20
-99.4618
 30
0.0
 10
-84.9763
 20
-102.0727
 30
0.0
 10
-86.1673
 20
-104.1581
 30
0.0
 10
-87.016
 20
-104.4403
 30
0.0
 10
-87.016
 20
-104.4403
 30
0.0
 10
-88.1944
 20
-103.6571
 30
0.0
 10
-88.6162
 20
-101.3704
 30
0.0
 10
-88.7801
 20
-100.506
 30
0.0
 10
-88.7801
 20
-100.506
 30
0.0
 10
-90.0344
 20
-102.2881
 30
0.0
 10
-93.4205
 20
-102.5863
 30
0.0
 10
-94.807
 20
-102.2155
 30
0.0
 10
-94.807
 20
-102.2155
 30
0.0
 10
-89.5086
 20
-107.4768
 30
0.0
 10
-81.5537
 20
-110.7689
 30
0.0
 10
-73.8987
 20
-110.9789
 30
0.0
 10
-73.8987
 20
-110.9789
 30
0.0
 10
-75.0946
 20
-110.3208
 30
0.0
 10
-76.4604
 20
-108.5016
 30
0.0
 10
-76.067
 20
-106.358
 30
0.0
 10
-76.067
 20
-106.358
 30
0.0
 10
-76.7974
 20
-106.8449
 30
0.0
 10
-78.5845
 20
-107.5581
 30
0.0
 10
-79.9693
 20
-107.2631
 30
0.0
 10
-79.9693
 20
-107.2631
 30
0.0
 10
-80.3609
 20
-106.4605
 30
0.0
 10
-80.0046
 20
-103.9657
 30
0.0
 10
-78.0535
 20
-102.2281
 30
0.0
 10
-78.0535
 20
-102.2281
 30
0.0
 10
-80.0913
 20
-103.3221
 30
0.0
 10
-81.6933
 20
-102.0321
 30
0.0
 10
-81.2259
 20
-100.0087
 30
0.0
 10
-81.2259
 20
-100.0087
 30
0.0
 10
-82.4127
 20
-101.9263
 30
0.0
 10
-84.456
 20
-101.683
 30
0.0
 10
-85.1001
 20
-99.4618
 30
0.0
  0
SPLINE
  5
10D
330
1F
100
AcDbEntity
  8
layer 1
 62
     7
100
AcDbSpline
210
0.0
220
0.0
230
1.0
 70
    11
 71
     3
 72
    16
 73
    12
 74
     0
 42
0.0000000001
 43
0.0000000001
 12
1.0
 22
0.0
 32
0.0
 13
1.0
 23
0.0
 33
0.0
 40
0.0
 40
0.0
 40
0.0
 40
0.0
 40
0.25
 40
0.25
 40
0.25
 40
0.25
 40
0.5
 40
0.5
 40
0.5
 40
0.5
 40
1.0
 40
1.0
 40
1.0
 40
1.0
 10
-81.374
 20
-95.0862
 30
0.0
 10
-79.7416
 20
-91.8663
 30
0.0
 10
-75.0896
 20
-85.8309
 30
0.0
 10
-74.0522
 20
-84.6879
 30
0.0
 10
-74.0522
 20
-84.6879
 30
0.0
 10
-74.9872
 20
-90.9508
 30
0.0
 10
-76.866
 20
-95.3121
 30
0.0
 10
-78.2581
 20
-97.6304
 30
0.0
 10
-78.2581
 20
-97.6304
 30
0.0
 10
-79.8229
 20
-100.0313
 30
0.0
 10
-82.9353
 20
-98.9605
 30
0.0
 10
-81.374
 20
-95.0862
 30
0.0
  0
SPLINE
  5
10E
330
1F
100
AcDbEntity
  8
layer 1
 62
     7
100
AcDbSpline
210
0.0
220
0.0
230
1.0
 70
    11
 71
     3
 72
    20
 73
    16
 74
     0
 42
0.0000000001
 43
0.0000000001
 12
1.0
 22
0.0
 32
0.0
 13
1.0
 23
0.0
 33
0.0
 40
0.0
 40
0.0
 40
0.0
 40
0.0
 40
0.2
 40
0.2
 40
0.2
 40
0.2
 40
0.4
 40
0.4
 40
0.4
 40
0.4
 40
0.6
 40
0.6
 40
0.6
 40
0.6
 40
1.0
 40
1.0
 40
1.0
 40
1.0
 10
-87.7499
 20
-94.0171
 30
0.0
 10
-88.0796
 20
-91.9353
 30
0.0
 10
-81.2221
 20
-87.7256
 30
0.0
 10
-78.4626
 20
-85.1358
 30
0.0
 10
-78.4626
 20
-85.1358
 30
0.0
 10
-83.2564
 20
-91.1925
 30
0.0
 10
-85.652
 20
-94.6242
 30
0.0
 10
-87.3882
 20
-94.3224
 30
0.0
 10
-87.3882
 20
-94.3224
 30
0.0
 10
-87.4518
 20
-97.5616
 30
0.0
 10
-91.5574
 20
-99.9062
 30
0.0
 10
-92.3229
 20
-99.1195
 30
0.0
 10
-92.3229
 20
-99.1195
 30
0.0
 10
-92.9032
 20
-98.5197
 30
0.0
 10
-91.1459
 20
-93.9854
 30
0.0
 10
-87.7499
 20
-94.0171
 30
0.0
  0
SPLINE
  5
10F
330
1F
100
AcDbEntity
  8
layer 1
 62
     7
100
AcDbSpline
210
0.0
220
0.0
230
1.0
 70
    11
 71
     3
 72
    40
 73
    36
 74
     0
 42
0.0000000001
 43
0.0000000001
 12
1.0
 22
0.0
 32
0.0
 13
1.0
 23
0.0
 33
0.0
 40
0.0
 40
0.0
 40
0.0
 40
0.0
 40
0.1
 40
0.1
 40
0.1
 40
0.1
 40
0.2
 40
0.2
 40
0.2
 40
0.2
 40
0.3
 40
0.3
 40
0.3
 40
0.3
 40
0.4
 40
0.4
 40
0.4
 40
0.4
 40
0.5
 40
0.5
 40
0.5
 40
0.5
 40
0.6
 40
0.6
 40
0.6
 40
0.6
 40
0.7
 40
0.7
 40
0.7
 40
0.7
 40
0.8
 40
0.8
 40
0.8
 40
0.8
 40
1.0
 40
1.0
 40
1.0
 40
1.0
 10
-60.8481
 20
-99.4618
 30
0.0
 10
-60.9719
 20
-102.0727
 30
0.0
 10
-59.7809
 20
-104.1581
 30
0.0
 10
-58.9323
 20
-104.4403
 30
0.0
 10
-58.9323
 20
-104.4403
 30
0.0
 10
-57.7538
 20
-103.6571
 30
0.0
 10
-57.3321
 20
-101.3704
 30
0.0
 10
-57.1681
 20
-100.506
 30
0.0
 10
-57.1681
 20
-100.506
 30
0.0
 10
-55.912
 20
-102.2881
 30
0.0
 10
-52.5279
 20
-102.5863
 30
0.0
 10
-51.1412
 20
-102.2155
 30
0.0
 10
-51.1412
 20
-102.2155
 30
0.0
 10
-56.4396
 20
-107.4768
 30
0.0
 10
-64.3945
 20
-110.7689
 30
0.0
 10
-72.0496
 20
-110.9789
 30
0.0
 10
-72.0496
 20
-110.9789
 30
0.0
 10
-70.8536
 20
-110.3208
 30
0.0
 10
-69.4878
 20
-108.5016
 30
0.0
 10
-69.8812
 20
-106.358
 30
0.0
 10
-69.8812
 20
-106.358
 30
0.0
 10
-69.1508
 20
-106.8449
 30
0.0
 10
-67.3619
 20
-107.5581
 30
0.0
 10
-65.9789
 20
-107.2631
 30
0.0
 10
-65.9789
 20
-107.2631
 30
0.0
 10
-65.5873
 20
-106.4605
 30
0.0
 10
-65.9437
 20
-103.9657
 30
0.0
 10
-67.8949
 20
-102.2281
 30
0.0
 10
-67.8949
 20
-102.2281
 30
0.0
 10
-65.8569
 20
-103.3221
 30
0.0
 10
-64.2549
 20
-102.0321
 30
0.0
 10
-64.7225
 20
-100.0087
 30
0.0
 10
-64.7225
 20
-100.0087
 30
0.0
 10
-63.5354
 20
-101.9263
 30
0.0
 10
-61.4922
 20
-101.683
 30
0.0
 10
-60.8481
 20
-99.4618
 30
0.0
  0
SPLINE
  5
110
330
1F
100
AcDbEntity
  8
layer 1
 62
     7
100
AcDbSpline
210
0.0
220
0.0
230
1.0
 70
    11
 71
     3
 72
    16
 73
    12
 74
     0
 42
0.0000000001
 43
0.0000000001
 12
1.0
 22
0.0
 32
0.0
 13
1.0
 23
0.0
 33
0.0
 40
0.0
 40
0.0
 40
0.0
 40
0.0
 40
0.25
 40
0.25
 40
0.25
 40
0.25
 40
0.5
 40
0.5
 40
0.5
 40
0.5
 40
1.0
 40
1.0
 40
1.0
 40
1.0
 10
-64.5742
 20
-95.0862
 30
0.0
 10
-66.2066
 20
-91.8663
 30
0.0
 10
-70.8586
 20
-85.8309
 30
0.0
 10
-71.896
 20
-84.6879
 30
0.0
 10
-71.896
 20
-84.6879
 30
0.0
 10
-70.9611
 20
-90.9508
 30
0.0
 10
-69.0822
 20
-95.3121
 30
0.0
 10
-67.6903
 20
-97.6304
 30
0.0
 10
-67.6903
 20
-97.6304
 30
0.0
 10
-66.1253
 20
-100.0313
 30
0.0
 10
-63.0129
 20
-98.9605
 30
0.0
 10
-64.5742
 20
-95.0862
 30
0.0
  0
SPLINE
  5
111
330
1F
100
AcDbEntity
  8
layer 1
 62
     7
100
AcDbSpline
210
0.0
220
0.0
230
1.0
 70
    11
 71
     3
 72
    20
 73
    16
 74
     0
 42
0.0000000001
 43
0.0000000001
 12
1.0
 22
0.0
 32
0.0
 13
1.0
 23
0.0
 33
0.0
 40
0.0
 40
0.0
 40
0.0
 40
0.0
 40
0.2
 40
0.2
 40
0.2
 40
0.2
 40
0.4
 40
0.4
 40
0.4
 40
0.4
 40
0.6
 40
0.6
 40
0.6
 40
0.6
 40
1.0
 40
1.0
 40
1.0
 40
1.0
 10
-58.1983
 20
-94.0171
 30
0.0
 10
-57.8685
 20
-91.9353
 30
0.0
 10
-64.7261
 20
-87.7256
 30
0.0
 10
-67.4857
 20
-85.1358
 30
0.0
 10
-67.4857
 20
-85.1358
 30
0.0
 10
-62.6918
 20
-91.1925
 30
0.0
 10
-60.2962
 20
-94.6242
 30
0.0
 10
-58.5601
 20
-94.3224
 30
0.0
 10
-58.5601
 20
-94.3224
 30
0.0
 10
-58.4964
 20
-97.5616
 30
0.0
 10
-54.3909
 20
-99.9062
 30
0.0
 10
-53.6253
 20
-99.1195
 30
0.0
 10
-53.6253
 20
-99.1195
 30
0.0
 10
-53.045
 20
-98.5197
 30
0.0
 10
-54.8024
 20
-93.9854
 30
0.0
 10
-58.1983
 20
-94.0171
 30
0.0
  0
SPLINE
  5
112
330
1F
100
AcDbEntity
  8
layer 1
 62
     7
100
AcDbSpline
210
0.0
220
0.0
230
1.0
 70
    11
 71
     3
 72
    40
 73
    36
 74
     0
 42
0.0000000001
 43
0.0000000001
 12
1.0
 22
0.0
 32
0.0
 13
1.0
 23
0.0
 33
0.0
 40
0.0
 40
0.0
 40
0.0
 40
0.0
 40
0.1
 40
0.1
 40
0.1
 40
0.1
 40
0.2
 40
0.2
 40
0.2
 40
0.2
 40
0.3
 40
0.3
 40
0.3
 40
0.3
 40
0.4
 40
0.4
 40
0.4
 40
0.4
 40
0.5
 40
0.5
 40
0.5
 40
0.5
 40
0.6
 40
0.6
 40
0.6
 40
0.6
 40
0.7
 40
0.7
 40
0.7
 40
0.7
 40
0.8
 40
0.8
 40
0.8
 40
0.8
 40
1.0
 40
1.0
 40
1.0
 40
1.0
 10
-96.1705
 20
-84.275
 30
0.0
 10
-97.9807
 20
-86.1611
 30
0.0
 10
-100.3131
 20
-86.7289
 30
0.0
 10
-101.1017
 20
-86.3092
 30
0.0
 10
-101.1017
 20
-86.3092
 30
0.0
 10
-101.3438
 20
-84.9154
 30
0.0
 10
-99.9743
 20
-83.0348
 30
0.0
 10
-99.4613
 20
-82.322
 30
0.0
 10
-99.4613
 20
-82.322
 30
0.0
 10
-101.617
 20
-82.636
 30
0.0
 10
-104.163
 20
-80.3845
 30
0.0
 10
-104.8472
 20
-79.1234
 30
0.0
 10
-104.8472
 20
-79.1234
 30
0.0
 10
-105.0201
 20
-86.5879
 30
0.0
 10
-101.9381
 20
-94.626
 30
0.0
 10
-96.8255
 20
-100.328
 30
0.0
 10
-96.8255
 20
-100.328
 30
0.0
 10
-97.1709
 20
-99.0065
 30
0.0
 10
-96.7898
 20
-96.764
 30
0.0
 10
-94.9624
 20
-95.5749
 30
0.0
 10
-94.9624
 20
-95.5749
 30
0.0
 10
-95.8196
 20
-95.3793
 30
0.0
 10
-97.5661
 20
-94.5713
 30
0.0
 10
-98.3055
 20
-93.3663
 30
0.0
 10
-98.3055
 20
-93.3663
 30
0.0
 10
-97.9916
 20
-92.528
 30
0.0
 10
-95.9361
 20
-91.071
 30
0.0
 10
-93.3319
 20
-91.2932
 30
0.0
 10
-93.3319
 20
-91.2932
 30
0.0
 10
-95.5269
 20
-90.5661
 30
0.0
 10
-95.6945
 20
-88.5142
 30
0.0
 10
-93.9019
 20
-87.4627
 30
0.0
 10
-93.9019
 20
-87.4627
 30
0.0
 10
-96.1108
 20
-87.9198
 30
0.0
 10
-97.3403
 20
-86.2704
 30
0.0
 10
-96.1705
 20
-84.275
 30
0.0
  0
SPLINE
  5
113
330
1F
100
AcDbEntity
  8
layer 1
 62
     7
100
AcDbSpline
210
0.0
220
0.0
230
1.0
 70
    11
 71
     3
 72
    16
 73
    12
 74
     0
 42
0.0000000001
 43
0.0000000001
 12
1.0
 22
0.0
 32
0.0
 13
1.0
 23
0.0
 33
0.0
 40
0.0
 40
0.0
 40
0.0
 40
0.0
 40
0.25
 40
0.25
 40
0.25
 40
0.25
 40
0.5
 40
0.5
 40
0.5
 40
0.5
 40
1.0
 40
1.0
 40
1.0
 40
1.0
 10
-90.0416
 20
-84.2203
 30
0.0
 10
-86.7021
 20
-82.8495
 30
0.0
 10
-79.2372
 20
-81.3163
 30
0.0
 10
-77.7061
 20
-81.1292
 30
0.0
 10
-77.7061
 20
-81.1292
 30
0.0
 10
-82.5049
 20
-85.2609
 30
0.0
 10
-86.7762
 20
-87.3376
 30
0.0
 10
-89.3429
 20
-88.1827
 30
0.0
 10
-89.3429
 20
-88.1827
 30
0.0
 10
-92.0971
 20
-88.9784
 30
0.0
 10
-93.7555
 20
-86.1344
 30
0.0
 10
-90.0416
 20
-84.2203
 30
0.0
  0
SPLINE
  5
114
330
1F
100
AcDbEntity
  8
layer 1
 62
     7
100
AcDbSpline
210
0.0
220
0.0
230
1.0
 70
    11
 71
     3
 72
    40
 73
    36
 74
     0
 42
0.0000000001
 43
0.0000000001
 12
1.0
 22
0.0
 32
0.0
 13
1.0
 23
0.0
 33
0.0
 40
0.0
 40
0.0
 40
0.0
 40
0.0
 40
0.1
 40
0.1
 40
0.1
 40
0.1
 40
0.2
 40
0.2
 40
0.2
 40
0.2
 40
0.3
 40
0.3
 40
0.3
 40
0.3
 40
0.4
 40
0.4
 40
0.4
 40
0.4
 40
0.5
 40
0.5
 40
0.5
 40
0.5
 40
0.6
 40
0.6
 40
0.6
 40
0.6
 40
0.7
 40
0.7
 40
0.7
 40
0.7
 40
0.8
 40
0.8
 40
0.8
 40
0.8
 40
1.0
 40
1.0
 40
1.0
 40
1.0
 10
-49.8924
 20
-84.3965
 30
0.0
 10
-48.0857
 20
-86.2861
 30
0.0
 10
-45.7548
 20
-86.8593
 30
0.0
 10
-44.9644
 20
-86.4398
 30
0.0
 10
-44.9644
 20
-86.4398
 30
0.0
 10
-44.721
 20
-85.0459
 30
0.0
 10
-46.085
 20
-83.1634
 30
0.0
 10
-46.5985
 20
-82.4508
 30
0.0
 10
-46.5985
 20
-82.4508
 30
0.0
 10
-44.4423
 20
-82.7701
 30
0.0
 10
-41.8933
 20
-80.5222
 30
0.0
 10
-41.2049
 20
-79.2626
 30
0.0
 10
-41.2049
 20
-79.2626
 30
0.0
 10
-41.0464
 20
-86.7269
 30
0.0
 10
-44.146
 20
-94.7601
 30
0.0
 10
-49.2696
 20
-100.4513
 30
0.0
 10
-49.2696
 20
-100.4513
 30
0.0
 10
-48.9219
 20
-99.1297
 30
0.0
 10
-49.2994
 20
-96.886
 30
0.0
 10
-51.1237
 20
-95.695
 30
0.0
 10
-51.1237
 20
-95.695
 30
0.0
 10
-50.2664
 20
-95.5008
 30
0.0
 10
-48.5181
 20
-94.6964
 30
0.0
 10
-47.7769
 20
-93.4914
 30
0.0
 10
-47.7769
 20
-93.4914
 30
0.0
 10
-48.0889
 20
-92.6536
 30
0.0
 10
-50.1408
 20
-91.1925
 30
0.0
 10
-52.7469
 20
-91.4079
 30
0.0
 10
-52.7469
 20
-91.4079
 30
0.0
 10
-50.5487
 20
-90.6862
 30
0.0
 10
-50.3775
 20
-88.6361
 30
0.0
 10
-52.1684
 20
-87.5811
 30
0.0
 10
-52.1684
 20
-87.5811
 30
0.0
 10
-49.9593
 20
-88.0418
 30
0.0
 10
-48.7276
 20
-86.3937
 30
0.0
 10
-49.8924
 20
-84.3965
 30
0.0
  0
SPLINE
  5
115
330
1F
100
AcDbEntity
  8
layer 1
 62
     7
100
AcDbSpline
210
0.0
220
0.0
230
1.0
 70
    11
 71
     3
 72
    16
 73
    12
 74
     0
 42
0.0000000001
 43
0.0000000001
 12
1.0
 22
0.0
 32
0.0
 13
1.0
 23
0.0
 33
0.0
 40
0.0
 40
0.0
 40
0.0
 40
0.0
 40
0.25
 40
0.25
 40
0.25
 40
0.25
 40
0.5
 40
0.5
 40
0.5
 40
0.5
 40
1.0
 40
1.0
 40
1.0
 40
1.0
 10
-56.2928
 20
-83.7791
 30
0.0
 10
-59.6698
 20
-82.5018
 30
0.0
 10
-67.175
 20
-81.1785
 30
0.0
 10
-68.71
 20
-81.034
 30
0.0
 10
-68.71
 20
-81.034
 30
0.0
 10
-63.7984
 20
-85.0302
 30
0.0
 10
-59.4707
 20
-86.9849
 30
0.0
 10
-56.8804
 20
-87.7595
 30
0.0
 10
-56.8804
 20
-87.7595
 30
0.0
 10
-54.1054
 20
-88.4772
 30
0.0
 10
-52.5279
 20
-85.5893
 30
0.0
 10
-56.2928
 20
-83.7791
 30
0.0
  0
SPLINE
  5
116
330
1F
100
AcDbEntity
  8
layer 1
 62
     7
100
AcDbSpline
210
0.0
220
0.0
230
1.0
 70
    11
 71
     3
 72
    20
 73
    16
 74
     0
 42
0.0000000001
 43
0.0000000001
 12
1.0
 22
0.0
 32
0.0
 13
1.0
 23
0.0
 33
0.0
 40
0.0
 40
0.0
 40
0.0
 40
0.0
 40
0.2
 40
0.2
 40
0.2
 40
0.2
 40
0.4
 40
0.4
 40
0.4
 40
0.4
 40
0.6
 40
0.6
 40
0.6
 40
0.6
 40
1.0
 40
1.0
 40
1.0
 40
1.0
 10
-72.5558
 20
-56.7522
 30
0.0
 10
-70.85
 20
-57.9907
 30
0.0
 10
-72.7216
 20
-65.8174
 30
0.0
 10
-72.8436
 20
-69.6
 30
0.0
 10
-72.8436
 20
-69.6
 30
0.0
 10
-73.7347
 20
-61.9268
 30
0.0
 10
-74.4668
 20
-57.8073
 30
0.0
 10
-73.027
 20
-56.7911
 30
0.0
 10
-73.027
 20
-56.7911
 30
0.0
 10
-75.273
 20
-54.4569
 30
0.0
 10
-74.0274
 20
-49.8966
 30
0.0
 10
-72.9298
 20
-49.9125
 30
0.0
 10
-72.9298
 20
-49.9125
 30
0.0
 10
-72.0956
 20
-49.9246
 30
0.0
 10
-70.1319
 20
-54.3743
 30
0.0
 10
-72.5558
 20
-56.7522
 30
0.0
  0
SPLINE
  5
117
330
1F
100
AcDbEntity
  8
layer 1
 62
     7
100
AcDbSpline
210
0.0
220
0.0
230
1.0
 70
    11
 71
     3
 72
    20
 73
    16
 74
     0
 42
0.0000000001
 43
0.0000000001
 12
1.0
 22
0.0
 32
0.0
 13
1.0
 23
0.0
 33
0.0
 40
0.0
 40
0.0
 40
0.0
 40
0.0
 40
0.2
 40
0.2
 40
0.2
 40
0.2
 40
0.4
 40
0.4
 40
0.4
 40
0.4
 40
0.6
 40
0.6
 40
0.6
 40
0.6
 40
1.0
 40
1.0
 40
1.0
 40
1.0
 10
-72.5558
 20
-99.6505
 30
0.0
 10
-70.85
 20
-98.4121
 30
0.0
 10
-72.7216
 20
-90.5854
 30
0.0
 10
-72.8436
 20
-86.8029
 30
0.0
 10
-72.8436
 20
-86.8029
 30
0.0
 10
-73.7347
 20
-94.4759
 30
0.0
 10
-74.4668
 20
-98.5956
 30
0.0
 10
-73.027
 20
-99.6117
 30
0.0
 10
-73.027
 20
-99.6117
 30
0.0
 10
-75.273
 20
-101.9458
 30
0.0
 10
-74.0274
 20
-106.5061
 30
0.0
 10
-72.9298
 20
-106.4904
 30
0.0
 10
-72.9298
 20
-106.4904
 30
0.0
 10
-72.0956
 20
-106.48
 30
0.0
 10
-70.1319
 20
-102.0303
 30
0.0
 10
-72.5558
 20
-99.6505
 30
0.0
  0
ENDSEC
  0
SECTION
  2
OBJECTS
  0
DICTIONARY
  5
C
330
0
100
AcDbDictionary
281
     1
  3
ACAD_GROUP
350
D
  3
ACAD_LAYOUT
350
1A
  3
ACAD_MATERIAL
350
3B
  3
ACAD_MLEADERSTYLE
350
13A
  3
ACAD_MLINESTYLE
350
17
  3
ACAD_PLOTSETTINGS
350
19
  3
ACAD_PLOTSTYLENAME
350
E
  3
ACAD_TABLESTYLE
350
139
  3
ACAD_VISUALSTYLE
350
2A
  0
DICTIONARY
  5
D
102
{ACAD_REACTORS
330
C
102
}
330
C
100
AcDbDictionary
281
     1
  0
DICTIONARY
  5
1A
102
{ACAD_REACTORS
330
C
102
}
330
C
100
AcDbDictionary
281
     1
  3
Layout1
350
1E
  3
Layout2
350
26
  3
Model
350
22
  0
DICTIONARY
  5
3B
102
{ACAD_REACTORS
330
C
102
}
330
C
100
AcDbDictionary
281
     1
  3
ByBlock
350
3D
  3
ByLayer
350
3C
  3
Global
350
3E
  0
DICTIONARY
  5
13A
102
{ACAD_REACTORS
330
C
102
}
330
C
100
AcDbDictionary
281
     1
  0
DICTIONARY
  5
17
102
{ACAD_REACTORS
330
C
102
}
330
C
100
AcDbDictionary
281
     1
  3
Standard
350
18
  0
DICTIONARY
  5
19
102
{ACAD_REACTORS
330
C
102
}
330
C
100
AcDbDictionary
281
     1
  0
ACDBDICTIONARYWDFLT
  5
E
102
{ACAD_REACTORS
330
C
102
}
330
C
100
AcDbDictionary
281
     1
  3
Normal
350
F
100
AcDbDictionaryWithDefault
340
F
  0
DICTIONARY
  5
139
102
{ACAD_REACTORS
330
C
102
}
330
C
100
AcDbDictionary
281
     1
  0
DICTIONARY
  5
2A
102
{ACAD_REACTORS
330
C
102
}
330
C
100
AcDbDictionary
281
     1
  3
2dWireframe
350
2F
  3
3D Hidden
350
31
  3
3dWireframe
350
30
  3
Basic
350
32
  3
Brighten
350
36
  3
ColorChange
350
3A
  3
Conceptual
350
34
  3
Dim
350
35
  3
Facepattern
350
39
  3
Flat
350
2B
  3
FlatWithEdges
350
2C
  3
Gouraud
350
2D
  3
GouraudWithEdges
350
2E
  3
Linepattern
350
38
  3
Realistic
350
33
  3
Thicken
350
37
  0
LAYOUT
  5
1E
102
{ACAD_REACTORS
330
1A
102
}
330
1A
100
AcDbPlotSettings
  1

  2
none_device
  4

  6

 40
0.0
 41
0.0
 42
0.0
 43
0.0
 44
0.0
 45
0.0
 46
0.0
 47
0.0
 48
0.0
 49
0.0
140
0.0
141
0.0
142
1.0
143
1.0
 70
   688
 72
     0
 73
     0
 74
     5
  7

 75
    16
 76
     0
 77
     2
 78
   300
147
1.0
148
0.0
149
0.0
100
AcDbLayout
  1
Layout1
 70
     1
 71
     1
 10
0.0
 20
0.0
 11
12.0
 21
9.0
 12
0.0
 22
0.0
 32
0.0
 14
1.000000000000000E+20
 24
1.000000000000000E+20
 34
1.000000000000000E+20
 15
-1.000000000000000E+20
 25
-1.000000000000000E+20
 35
-1.000000000000000E+20
146
0.0
 13
0.0
 23
0.0
 33
0.0
 16
1.0
 26
0.0
 36
0.0
 17
0.0
 27
1.0
 37
0.0
 76
     0
330
1B
  0
LAYOUT
  5
26
102
{ACAD_REACTORS
330
1A
102
}
330
1A
100
AcDbPlotSettings
  1

  2
none_device
  4

  6

 40
0.0
 41
0.0
 42
0.0
 43
0.0
 44
0.0
 45
0.0
 46
0.0
 47
0.0
 48
0.0
 49
0.0
140
0.0
141
0.0
142
1.0
143
1.0
 70
   688
 72
     0
 73
     0
 74
     5
  7

 75
    16
 76
     0
 77
     2
 78
   300
147
1.0
148
0.0
149
0.0
100
AcDbLayout
  1
Layout2
 70
     1
 71
     2
 10
0.0
 20
0.0
 11
0.0
 21
0.0
 12
0.0
 22
0.0
 32
0.0
 14
0.0
 24
0.0
 34
0.0
 15
0.0
 25
0.0
 35
0.0
146
0.0
 13
0.0
 23
0.0
 33
0.0
 16
1.0
 26
0.0
 36
0.0
 17
0.0
 27
1.0
 37
0.0
 76
     0
330
23
  0
LAYOUT
  5
22
102
{ACAD_REACTORS
330
1A
102
}
330
1A
100
AcDbPlotSettings
  1

  2
none_device
  4

  6

 40
0.0
 41
0.0
 42
0.0
 43
0.0
 44
0.0
 45
0.0
 46
0.0
 47
0.0
 48
0.0
 49
0.0
140
0.0
141
0.0
142
1.0
143
1.0
 70
  1712
 72
     0
 73
     0
 74
     0
  7

 75
     0
 76
     0
 77
     2
 78
   300
147
1.0
148
0.0
149
0.0
100
AcDbLayout
  1
Model
 70
     1
 71
     0
 10
0.0
 20
0.0
 11
12.0
 21
9.0
 12
0.0
 22
0.0
 32
0.0
 14
-187.7018
 24
-115.3414
 34
0.0
 15
41.0299
 25
131.9306
 35
0.0
146
0.0
 13
0.0
 23
0.0
 33
0.0
 16
1.0
 26
0.0
 36
0.0
 17
0.0
 27
1.0
 37
0.0
 76
     0
330
1F
331
29
  0
MATERIAL
  5
3D
102
{ACAD_REACTORS
330
3B
102
}
330
3B
100
AcDbMaterial
  1
ByBlock
 72
     1
 94
      127
  0
MATERIAL
  5
3C
102
{ACAD_REACTORS
330
3B
102
}
330
3B
100
AcDbMaterial
  1
ByLayer
 72
     1
 94
      127
  0
MATERIAL
  5
3E
102
{ACAD_REACTORS
330
3B
102
}
330
3B
100
AcDbMaterial
  1
Global
 72
     1
 94
      127
  0
MLINESTYLE
  5
18
102
{ACAD_REACTORS
330
17
102
}
330
17
100
AcDbMlineStyle
  2
Standard
 70
     0
  3

 62
   256
 51
90.0
 52
90.0
 71
     2
 49
0.5
 62
   256
  6
BYLAYER
 49
-0.5
 62
   256
  6
BYLAYER
  0
ACDBPLACEHOLDER
  5
F
102
{ACAD_REACTORS
330
E
102
}
330
E
  0
VISUALSTYLE
  5
2F
102
{ACAD_REACTORS
330
2A
102
}
102
{ACAD_XDICTIONARY
360
121
102
}
330
2A
100
AcDbVisualStyle
  2
2dWireframe
 70
     4
 71
     0
 72
     2
 73
     0
 90
        0
 40
-0.6
 41
-30.0
 62
     5
 63
     7
421
 16777215
 74
     1
 91
        4
 64
     7
 65
   257
 75
     1
175
     1
 42
1.0
 92
        0
 66
   257
 43
1.0
 76
     1
 77
     6
 78
     2
 67
     7
 79
     5
170
     0
171
     0
290
     0
174
     0
 93
        1
 44
0.0
173
     0
291
     0
 45
0.0
  0
VISUALSTYLE
  5
31
102
{ACAD_REACTORS
330
2A
102
}
102
{ACAD_XDICTIONARY
360
125
102
}
330
2A
100
AcDbVisualStyle
  2
3D Hidden
 70
     6
 71
     1
 72
     2
 73
     2
 90
        0
 40
-0.6
 41
-30.0
 62
     5
 63
     7
421
 16777215
 74
     2
 91
        2
 64
     7
 65
   257
 75
     2
175
     1
 42
40.0
 92
        0
 66
   257
 43
1.0
 76
     1
 77
     6
 78
     2
 67
     7
 79
     3
170
     0
171
     0
290
     0
174
     0
 93
        1
 44
0.0
173
     0
291
     0
 45
0.0
  0
VISUALSTYLE
  5
30
102
{ACAD_REACTORS
330
2A
102
}
102
{ACAD_XDICTIONARY
360
123
102
}
330
2A
100
AcDbVisualStyle
  2
3dWireframe
 70
     5
 71
     0
 72
     2
 73
     0
 90
        0
 40
-0.6
 41
-30.0
 62
     5
 63
     7
421
 16777215
 74
     1
 91
        4
 64
     7
 65
   257
 75
     1
175
     1
 42
1.0
 92
        0
 66
   257
 43
1.0
 76
     1
 77
     6
 78
     2
 67
     7
 79
     5
170
     0
171
     0
290
     0
174
     0
 93
        1
 44
0.0
173
     0
291
     0
 45
0.0
  0
VISUALSTYLE
  5
32
102
{ACAD_REACTORS
330
2A
102
}
102
{ACAD_XDICTIONARY
360
127
102
}
330
2A
100
AcDbVisualStyle
  2
Basic
 70
     7
 71
     1
 72
     0
 73
     1
 90
        0
 40
-0.6
 41
-30.0
 62
     5
 63
     7
421
 16777215
 74
     0
 91
        4
 64
     7
 65
   257
 75
     1
175
     1
 42
1.0
 92
        8
 66
     7
 43
1.0
 76
     1
 77
     6
 78
     2
 67
     7
 79
     5
170
     0
171
     0
290
     0
174
     0
 93
        1
 44
0.0
173
     0
291
     1
 45
0.0
  0
VISUALSTYLE
  5
36
102
{ACAD_REACTORS
330
2A
102
}
102
{ACAD_XDICTIONARY
360
12F
102
}
330
2A
100
AcDbVisualStyle
  2
Brighten
 70
    12
 71
     2
 72
     2
 73
     0
 90
        0
 40
-0.6
 41
-30.0
 62
     5
 63
     7
421
 16777215
 74
     1
 91
        4
 64
     7
 65
   257
 75
     1
175
     1
 42
1.0
 92
        8
 66
     7
 43
1.0
 76
     1
 77
     6
 78
     2
 67
     7
 79
     5
170
     0
171
     0
290
     0
174
     0
 93
        1
 44
50.0
173
     0
291
     1
 45
0.0
  0
VISUALSTYLE
  5
3A
102
{ACAD_REACTORS
330
2A
102
}
102
{ACAD_XDICTIONARY
360
137
102
}
330
2A
100
AcDbVisualStyle
  2
ColorChange
 70
    16
 71
     2
 72
     2
 73
     3
 90
        0
 40
-0.6
 41
-30.0
 62
     5
 63
     8
421
  8421504
 74
     1
 91
        4
 64
     7
 65
   257
 75
     1
175
     1
 42
1.0
 92
        8
 66
     8
424
  8421504
 43
1.0
 76
     1
 77
     6
 78
     2
 67
     7
 79
     5
170
     0
171
     0
290
     0
174
     0
 93
        1
 44
0.0
173
     0
291
     1
 45
0.0
  0
VISUALSTYLE
  5
34
102
{ACAD_REACTORS
330
2A
102
}
102
{ACAD_XDICTIONARY
360
12B
102
}
330
2A
100
AcDbVisualStyle
  2
Conceptual
 70
     9
 71
     3
 72
     2
 73
     0
 90
        0
 40
-0.6
 41
-30.0
 62
     5
 63
     7
421
 16777215
 74
     2
 91
        2
 64
     7
 65
   257
 75
     1
175
     1
 42
40.0
 92
        8
 66
     7
 43
1.0
 76
     1
 77
     6
 78
     2
 67
     7
 79
     3
170
     0
171
     0
290
     0
174
     0
 93
        1
 44
0.0
173
     0
291
     0
 45
0.0
  0
VISUALSTYLE
  5
35
102
{ACAD_REACTORS
330
2A
102
}
102
{ACAD_XDICTIONARY
360
12D
102
}
330
2A
100
AcDbVisualStyle
  2
Dim
 70
    11
 71
     2
 72
     2
 73
     0
 90
        0
 40
-0.6
 41
-30.0
 62
     5
 63
     7
421
 16777215
 74
     1
 91
        4
 64
     7
 65
   257
 75
     1
175
     1
 42
1.0
 92
        8
 66
     7
 43
1.0
 76
     1
 77
     6
 78
     2
 67
     7
 79
     5
170
     0
171
     0
290
     0
174
     0
 93
        1
 44
-50.0
173
     0
291
     1
 45
0.0
  0
VISUALSTYLE
  5
39
102
{ACAD_REACTORS
330
2A
102
}
102
{ACAD_XDICTIONARY
360
135
102
}
330
2A
100
AcDbVisualStyle
  2
Facepattern
 70
    15
 71
     2
 72
     2
 73
     0
 90
        0
 40
-0.6
 41
-30.0
 62
     5
 63
     7
421
 16777215
 74
     1
 91
        4
 64
     7
 65
   257
 75
     1
175
     1
 42
1.0
 92
        8
 66
     7
 43
1.0
 76
     1
 77
     6
 78
     2
 67
     7
 79
     5
170
     0
171
     0
290
     0
174
     0
 93
        1
 44
0.0
173
     0
291
     1
 45
0.0
  0
VISUALSTYLE
  5
2B
102
{ACAD_REACTORS
330
2A
102
}
102
{ACAD_XDICTIONARY
360
119
102
}
330
2A
100
AcDbVisualStyle
  2
Flat
 70
     0
 71
     2
 72
     1
 73
     1
 90
        2
 40
-0.6
 41
30.0
 62
     5
 63
     7
421
 16777215
 74
     0
 91
        4
 64
     7
 65
   257
 75
     1
175
     1
 42
1.0
 92
        8
 66
     7
 43
1.0
 76
     1
 77
     6
 78
     2
 67
     7
 79
     5
170
     0
171
     0
290
     0
174
     0
 93
       13
 44
0.0
173
     0
291
     1
 45
0.0
  0
VISUALSTYLE
  5
2C
102
{ACAD_REACTORS
330
2A
102
}
102
{ACAD_XDICTIONARY
360
11B
102
}
330
2A
100
AcDbVisualStyle
  2
FlatWithEdges
 70
     1
 71
     2
 72
     1
 73
     1
 90
        2
 40
-0.6
 41
30.0
 62
     5
 63
     7
421
 16777215
 74
     1
 91
        4
 64
     7
 65
   257
 75
     1
175
     1
 42
1.0
 92
        0
 66
   257
 43
1.0
 76
     1
 77
     6
 78
     2
 67
     7
 79
     5
170
     0
171
     0
290
     0
174
     0
 93
       13
 44
0.0
173
     0
291
     1
 45
0.0
  0
VISUALSTYLE
  5
2D
102
{ACAD_REACTORS
330
2A
102
}
102
{ACAD_XDICTIONARY
360
11D
102
}
330
2A
100
AcDbVisualStyle
  2
Gouraud
 70
     2
 71
     2
 72
     2
 73
     1
 90
        2
 40
-0.6
 41
30.0
 62
     5
 63
     7
421
 16777215
 74
     0
 91
        4
 64
     7
 65
   257
 75
     1
175
     1
 42
1.0
 92
        0
 66
     7
 43
1.0
 76
     1
 77
     6
 78
     2
 67
     7
 79
     5
170
     0
171
     0
290
     0
174
     0
 93
       13
 44
0.0
173
     0
291
     1
 45
0.0
  0
VISUALSTYLE
  5
2E
102
{ACAD_REACTORS
330
2A
102
}
102
{ACAD_XDICTIONARY
360
11F
102
}
330
2A
100
AcDbVisualStyle
  2
GouraudWithEdges
 70
     3
 71
     2
 72
     2
 73
     1
 90
        2
 40
-0.6
 41
30.0
 62
     5
 63
     7
421
 16777215
 74
     1
 91
        4
 64
     7
 65
   257
 75
     1
175
     1
 42
1.0
 92
        0
 66
   257
 43
1.0
 76
     1
 77
     6
 78
     2
 67
     7
 79
     5
170
     0
171
     0
290
     0
174
     0
 93
       13
 44
0.0
173
     0
291
     1
 45
0.0
  0
VISUALSTYLE
  5
38
102
{ACAD_REACTORS
330
2A
102
}
102
{ACAD_XDICTIONARY
360
133
102
}
330
2A
100
AcDbVisualStyle
  2
Linepattern
 70
    14
 71
     2
 72
     2
 73
     0
 90
        0
 40
-0.6
 41
-30.0
 62
     5
 63
     7
421
 16777215
 74
     1
 91
        4
 64
     7
 65
   257
 75
     7
175
     7
 42
1.0
 92
        8
 66
     7
 43
1.0
 76
     1
 77
     6
 78
     2
 67
     7
 79
     5
170
     0
171
     0
290
     0
174
     0
 93
        1
 44
0.0
173
     0
291
     1
 45
0.0
  0
VISUALSTYLE
  5
33
102
{ACAD_REACTORS
330
2A
102
}
102
{ACAD_XDICTIONARY
360
129
102
}
330
2A
100
AcDbVisualStyle
  2
Realistic
 70
     8
 71
     2
 72
     2
 73
     0
 90
        0
 40
-0.6
 41
-30.0
 62
     5
 63
     7
421
 16777215
 74
     1
 91
        0
 64
     7
 65
   257
 75
     1
175
     1
 42
1.0
 92
        8
 66
     8
424
  7895160
 43
1.0
 76
     1
 77
     6
 78
     2
 67
     7
 79
     5
170
     0
171
     0
290
     0
174
     0
 93
       13
 44
0.0
173
     0
291
     0
 45
0.0
  0
VISUALSTYLE
  5
37
102
{ACAD_REACTORS
330
2A
102
}
102
{ACAD_XDICTIONARY
360
131
102
}
330
2A
100
AcDbVisualStyle
  2
Thicken
 70
    13
 71
     2
 72
     2
 73
     0
 90
        0
 40
-0.6
 41
-30.0
 62
     5
 63
     7
421
 16777215
 74
     1
 91
        4
 64
     7
 65
   257
 75
     1
175
     1
 42
1.0
 92
       12
 66
     7
 43
1.0
 76
     1
 77
     6
 78
     2
 67
     7
 79
     5
170
     0
171
     0
290
     0
174
     0
 93
        1
 44
0.0
173
     0
291
     1
 45
0.0
  0
DICTIONARY
  5
121
330
2F
100
AcDbDictionary
280
     1
281
     1
  3
ACAD_XREC_ROUNDTRIP
360
122
  0
DICTIONARY
  5
125
330
31
100
AcDbDictionary
280
     1
281
     1
  3
ACAD_XREC_ROUNDTRIP
360
126
  0
DICTIONARY
  5
123
330
30
100
AcDbDictionary
280
     1
281
     1
  3
ACAD_XREC_ROUNDTRIP
360
124
  0
DICTIONARY
  5
127
330
32
100
AcDbDictionary
280
     1
281
     1
  3
ACAD_XREC_ROUNDTRIP
360
128
  0
DICTIONARY
  5
12F
330
36
100
AcDbDictionary
280
     1
281
     1
  3
ACAD_XREC_ROUNDTRIP
360
130
  0
DICTIONARY
  5
137
330
3A
100
AcDbDictionary
280
     1
281
     1
  3
ACAD_XREC_ROUNDTRIP
360
138
  0
DICTIONARY
  5
12B
330
34
100
AcDbDictionary
280
     1
281
     1
  3
ACAD_XREC_ROUNDTRIP
360
12C
  0
DICTIONARY
  5
12D
330
35
100
AcDbDictionary
280
     1
281
     1
  3
ACAD_XREC_ROUNDTRIP
360
12E
  0
DICTIONARY
  5
135
330
39
100
AcDbDictionary
280
     1
281
     1
  3
ACAD_XREC_ROUNDTRIP
360
136
  0
DICTIONARY
  5
119
330
2B
100
AcDbDictionary
280
     1
281
     1
  3
ACAD_XREC_ROUNDTRIP
360
11A
  0
DICTIONARY
  5
11B
330
2C
100
AcDbDictionary
280
     1
281
     1
  3
ACAD_XREC_ROUNDTRIP
360
11C
  0
DICTIONARY
  5
11D
330
2D
100
AcDbDictionary
280
     1
281
     1
  3
ACAD_XREC_ROUNDTRIP
360
11E
  0
DICTIONARY
  5
11F
330
2E
100
AcDbDictionary
280
     1
281
     1
  3
ACAD_XREC_ROUNDTRIP
360
120
  0
DICTIONARY
  5
133
330
38
100
AcDbDictionary
280
     1
281
     1
  3
ACAD_XREC_ROUNDTRIP
360
134
  0
DICTIONARY
  5
129
330
33
100
AcDbDictionary
280
     1
281
     1
  3
ACAD_XREC_ROUNDTRIP
360
12A
  0
DICTIONARY
  5
131
330
37
100
AcDbDictionary
280
     1
281
     1
  3
ACAD_XREC_ROUNDTRIP
360
132
  0
XRECORD
  5
122
102
{ACAD_REACTORS
330
121
102
}
330
121
100
AcDbXrecord
280
     1
102
RTVSPropertyOp0
 70
     1
102
RTVSPropertyOp1
 70
     1
102
RTVSPropertyOp2
 70
     1
102
RTVSPropertyOp3
 70
     1
102
RTVSPropertyOp4
 70
     1
102
RTVSPropertyOp5
 70
     1
102
RTVSPropertyOp6
 70
     1
102
RTVSPropertyOp7
 70
     1
102
RTVSPropertyOp8
 70
     1
102
RTVSPropertyOp9
 70
     1
102
RTVSPropertyOp10
 70
     1
102
RTVSPropertyOp11
 70
     1
102
RTVSPropertyOp12
 70
     1
102
RTVSPropertyOp13
 70
     1
102
RTVSPropertyOp14
 70
     1
102
RTVSPropertyOp15
 70
     1
102
RTVSPropertyOp16
 70
     1
102
RTVSPropertyOp17
 70
     1
102
RTVSPropertyOp18
 70
     1
102
RTVSPropertyOp19
 70
     1
102
RTVSPropertyOp20
 70
     1
102
RTVSPropertyOp21
 70
     1
102
RTVSPropertyOp22
 70
     1
102
RTVSPropertyOp23
 70
     1
102
RTVSPropertyOp24
 70
     1
102
RTVSPropertyOp25
 70
     1
102
RTVSPropertyOp26
 70
     1
102
RTVSPropertyOp27
 70
     1
102
RTVSPropertyOp28
 70
     1
102
RTVSPropertyOp29
 70
     1
102
RTVSPropertyOp30
 70
     1
102
RTVSPropertyOp31
 70
     1
102
RTVSPropertyOp32
 70
     1
  0
XRECORD
  5
126
102
{ACAD_REACTORS
330
125
102
}
330
125
100
AcDbXrecord
280
     1
102
RTVSPropertyOp0
 70
     1
102
RTVSPropertyOp1
 70
     1
102
RTVSPropertyOp2
 70
     1
102
RTVSPropertyOp3
 70
     1
102
RTVSPropertyOp4
 70
     1
102
RTVSPropertyOp5
 70
     1
102
RTVSPropertyOp6
 70
     1
102
RTVSPropertyOp7
 70
     1
102
RTVSPropertyOp8
 70
     1
102
RTVSPropertyOp9
 70
     1
102
RTVSPropertyOp10
 70
     1
102
RTVSPropertyOp11
 70
     1
102
RTVSPropertyOp12
 70
     1
102
RTVSPropertyOp13
 70
     1
102
RTVSPropertyOp14
 70
     1
102
RTVSPropertyOp15
 70
     1
102
RTVSPropertyOp16
 70
     1
102
RTVSPropertyOp17
 70
     1
102
RTVSPropertyOp18
 70
     1
102
RTVSPropertyOp19
 70
     1
102
RTVSPropertyOp20
 70
     1
102
RTVSPropertyOp21
 70
     1
102
RTVSPropertyOp22
 70
     1
102
RTVSPropertyOp23
 70
     1
102
RTVSPropertyOp24
 70
     1
102
RTVSPropertyOp25
 70
     1
102
RTVSPropertyOp26
 70
     1
102
RTVSPropertyOp27
 70
     1
102
RTVSPropertyOp28
 70
     1
102
RTVSPropertyOp29
 70
     1
102
RTVSPropertyOp30
 70
     1
102
RTVSPropertyOp31
 70
     1
102
RTVSPropertyOp32
 70
     1
  0
XRECORD
  5
124
102
{ACAD_REACTORS
330
123
102
}
330
123
100
AcDbXrecord
280
     1
102
RTVSPropertyOp0
 70
     1
102
RTVSPropertyOp1
 70
     1
102
RTVSPropertyOp2
 70
     1
102
RTVSPropertyOp3
 70
     1
102
RTVSPropertyOp4
 70
     1
102
RTVSPropertyOp5
 70
     1
102
RTVSPropertyOp6
 70
     1
102
RTVSPropertyOp7
 70
     1
102
RTVSPropertyOp8
 70
     1
102
RTVSPropertyOp9
 70
     1
102
RTVSPropertyOp10
 70
     1
102
RTVSPropertyOp11
 70
     1
102
RTVSPropertyOp12
 70
     1
102
RTVSPropertyOp13
 70
     1
102
RTVSPropertyOp14
 70
     1
102
RTVSPropertyOp15
 70
     1
102
RTVSPropertyOp16
 70
     1
102
RTVSPropertyOp17
 70
     1
102
RTVSPropertyOp18
 70
     1
102
RTVSPropertyOp19
 70
     1
102
RTVSPropertyOp20
 70
     1
102
RTVSPropertyOp21
 70
     1
102
RTVSPropertyOp22
 70
     1
102
RTVSPropertyOp23
 70
     1
102
RTVSPropertyOp24
 70
     1
102
RTVSPropertyOp25
 70
     1
102
RTVSPropertyOp26
 70
     1
102
RTVSPropertyOp27
 70
     1
102
RTVSPropertyOp28
 70
     1
102
RTVSPropertyOp29
 70
     1
102
RTVSPropertyOp30
 70
     1
102
RTVSPropertyOp31
 70
     1
102
RTVSPropertyOp32
 70
     1
  0
XRECORD
  5
128
102
{ACAD_REACTORS
330
127
102
}
330
127
100
AcDbXrecord
280
     1
102
RTVSPropertyOp0
 70
     1
102
RTVSPropertyOp1
 70
     1
102
RTVSPropertyOp2
 70
     1
102
RTVSPropertyOp3
 70
     1
102
RTVSPropertyOp4
 70
     1
102
RTVSPropertyOp5
 70
     1
102
RTVSPropertyOp6
 70
     1
102
RTVSPropertyOp7
 70
     1
102
RTVSPropertyOp8
 70
     1
102
RTVSPropertyOp9
 70
     1
102
RTVSPropertyOp10
 70
     1
102
RTVSPropertyOp11
 70
     1
102
RTVSPropertyOp12
 70
     1
102
RTVSPropertyOp13
 70
     1
102
RTVSPropertyOp14
 70
     1
102
RTVSPropertyOp15
 70
     1
102
RTVSPropertyOp16
 70
     1
102
RTVSPropertyOp17
 70
     1
102
RTVSPropertyOp18
 70
     1
102
RTVSPropertyOp19
 70
     1
102
RTVSPropertyOp20
 70
     1
102
RTVSPropertyOp21
 70
     1
102
RTVSPropertyOp22
 70
     1
102
RTVSPropertyOp23
 70
     1
102
RTVSPropertyOp24
 70
     1
102
RTVSPropertyOp25
 70
     1
102
RTVSPropertyOp26
 70
     1
102
RTVSPropertyOp27
 70
     1
102
RTVSPropertyOp28
 70
     1
102
RTVSPropertyOp29
 70
     1
102
RTVSPropertyOp30
 70
     1
102
RTVSPropertyOp31
 70
     1
102
RTVSPropertyOp32
 70
     1
  0
XRECORD
  5
130
102
{ACAD_REACTORS
330
12F
102
}
330
12F
100
AcDbXrecord
280
     1
102
RTVSPropertyOp0
 70
     1
102
RTVSPropertyOp1
 70
     1
102
RTVSPropertyOp2
 70
     1
102
RTVSPropertyOp3
 70
     1
102
RTVSPropertyOp4
 70
     1
102
RTVSPropertyOp5
 70
     1
102
RTVSPropertyOp6
 70
     1
102
RTVSPropertyOp7
 70
     1
102
RTVSPropertyOp8
 70
     1
102
RTVSPropertyOp9
 70
     1
102
RTVSPropertyOp10
 70
     1
102
RTVSPropertyOp11
 70
     1
102
RTVSPropertyOp12
 70
     1
102
RTVSPropertyOp13
 70
     1
102
RTVSPropertyOp14
 70
     1
102
RTVSPropertyOp15
 70
     1
102
RTVSPropertyOp16
 70
     1
102
RTVSPropertyOp17
 70
     1
102
RTVSPropertyOp18
 70
     1
102
RTVSPropertyOp19
 70
     1
102
RTVSPropertyOp20
 70
     1
102
RTVSPropertyOp21
 70
     1
102
RTVSPropertyOp22
 70
     1
102
RTVSPropertyOp23
 70
     1
102
RTVSPropertyOp24
 70
     1
102
RTVSPropertyOp25
 70
     1
102
RTVSPropertyOp26
 70
     1
102
RTVSPropertyOp27
 70
     1
102
RTVSPropertyOp28
 70
     1
102
RTVSPropertyOp29
 70
     1
102
RTVSPropertyOp30
 70
     1
102
RTVSPropertyOp31
 70
     1
102
RTVSPropertyOp32
 70
     1
  0
XRECORD
  5
138
102
{ACAD_REACTORS
330
137
102
}
330
137
100
AcDbXrecord
280
     1
102
RTVSPropertyOp0
 70
     1
102
RTVSPropertyOp1
 70
     1
102
RTVSPropertyOp2
 70
     1
102
RTVSPropertyOp3
 70
     1
102
RTVSPropertyOp4
 70
     1
102
RTVSPropertyOp5
 70
     1
102
RTVSPropertyOp6
 70
     1
102
RTVSPropertyOp7
 70
     1
102
RTVSPropertyOp8
 70
     1
102
RTVSPropertyOp9
 70
     1
102
RTVSPropertyOp10
 70
     1
102
RTVSPropertyOp11
 70
     1
102
RTVSPropertyOp12
 70
     1
102
RTVSPropertyOp13
 70
     1
102
RTVSPropertyOp14
 70
     1
102
RTVSPropertyOp15
 70
     1
102
RTVSPropertyOp16
 70
     1
102
RTVSPropertyOp17
 70
     1
102
RTVSPropertyOp18
 70
     1
102
RTVSPropertyOp19
 70
     1
102
RTVSPropertyOp20
 70
     1
102
RTVSPropertyOp21
 70
     1
102
RTVSPropertyOp22
 70
     1
102
RTVSPropertyOp23
 70
     1
102
RTVSPropertyOp24
 70
     1
102
RTVSPropertyOp25
 70
     1
102
RTVSPropertyOp26
 70
     1
102
RTVSPropertyOp27
 70
     1
102
RTVSPropertyOp28
 70
     1
102
RTVSPropertyOp29
 70
     1
102
RTVSPropertyOp30
 70
     1
102
RTVSPropertyOp31
 70
     1
102
RTVSPropertyOp32
 70
     1
  0
XRECORD
  5
12C
102
{ACAD_REACTORS
330
12B
102
}
330
12B
100
AcDbXrecord
280
     1
102
RTVSPropertyOp0
 70
     1
102
RTVSPropertyOp1
 70
     1
102
RTVSPropertyOp2
 70
     1
102
RTVSPropertyOp3
 70
     1
102
RTVSPropertyOp4
 70
     1
102
RTVSPropertyOp5
 70
     1
102
RTVSPropertyOp6
 70
     1
102
RTVSPropertyOp7
 70
     1
102
RTVSPropertyOp8
 70
     1
102
RTVSPropertyOp9
 70
     1
102
RTVSPropertyOp10
 70
     1
102
RTVSPropertyOp11
 70
     1
102
RTVSPropertyOp12
 70
     1
102
RTVSPropertyOp13
 70
     1
102
RTVSPropertyOp14
 70
     1
102
RTVSPropertyOp15
 70
     1
102
RTVSPropertyOp16
 70
     1
102
RTVSPropertyOp17
 70
     1
102
RTVSPropertyOp18
 70
     1
102
RTVSPropertyOp19
 70
     1
102
RTVSPropertyOp20
 70
     1
102
RTVSPropertyOp21
 70
     1
102
RTVSPropertyOp22
 70
     1
102
RTVSPropertyOp23
 70
     1
102
RTVSPropertyOp24
 70
     1
102
RTVSPropertyOp25
 70
     1
102
RTVSPropertyOp26
 70
     1
102
RTVSPropertyOp27
 70
     1
102
RTVSPropertyOp28
 70
     1
102
RTVSPropertyOp29
 70
     1
102
RTVSPropertyOp30
 70
     1
102
RTVSPropertyOp31
 70
     1
102
RTVSPropertyOp32
 70
     1
  0
XRECORD
  5
12E
102
{ACAD_REACTORS
330
12D
102
}
330
12D
100
AcDbXrecord
280
     1
102
RTVSPropertyOp0
 70
     1
102
RTVSPropertyOp1
 70
     1
102
RTVSPropertyOp2
 70
     1
102
RTVSPropertyOp3
 70
     1
102
RTVSPropertyOp4
 70
     1
102
RTVSPropertyOp5
 70
     1
102
RTVSPropertyOp6
 70
     1
102
RTVSPropertyOp7
 70
     1
102
RTVSPropertyOp8
 70
     1
102
RTVSPropertyOp9
 70
     1
102
RTVSPropertyOp10
 70
     1
102
RTVSPropertyOp11
 70
     1
102
RTVSPropertyOp12
 70
     1
102
RTVSPropertyOp13
 70
     1
102
RTVSPropertyOp14
 70
     1
102
RTVSPropertyOp15
 70
     1
102
RTVSPropertyOp16
 70
     1
102
RTVSPropertyOp17
 70
     1
102
RTVSPropertyOp18
 70
     1
102
RTVSPropertyOp19
 70
     1
102
RTVSPropertyOp20
 70
     1
102
RTVSPropertyOp21
 70
     1
102
RTVSPropertyOp22
 70
     1
102
RTVSPropertyOp23
 70
     1
102
RTVSPropertyOp24
 70
     1
102
RTVSPropertyOp25
 70
     1
102
RTVSPropertyOp26
 70
     1
102
RTVSPropertyOp27
 70
     1
102
RTVSPropertyOp28
 70
     1
102
RTVSPropertyOp29
 70
     1
102
RTVSPropertyOp30
 70
     1
102
RTVSPropertyOp31
 70
     1
102
RTVSPropertyOp32
 70
     1
  0
XRECORD
  5
136
102
{ACAD_REACTORS
330
135
102
}
330
135
100
AcDbXrecord
280
     1
102
RTVSPropertyOp0
 70
     1
102
RTVSPropertyOp1
 70
     1
102
RTVSPropertyOp2
 70
     1
102
RTVSPropertyOp3
 70
     1
102
RTVSPropertyOp4
 70
     1
102
RTVSPropertyOp5
 70
     1
102
RTVSPropertyOp6
 70
     1
102
RTVSPropertyOp7
 70
     1
102
RTVSPropertyOp8
 70
     1
102
RTVSPropertyOp9
 70
     1
102
RTVSPropertyOp10
 70
     1
102
RTVSPropertyOp11
 70
     1
102
RTVSPropertyOp12
 70
     1
102
RTVSPropertyOp13
 70
     1
102
RTVSPropertyOp14
 70
     1
102
RTVSPropertyOp15
 70
     1
102
RTVSPropertyOp16
 70
     1
102
RTVSPropertyOp17
 70
     1
102
RTVSPropertyOp18
 70
     1
102
RTVSPropertyOp19
 70
     1
102
RTVSPropertyOp20
 70
     1
102
RTVSPropertyOp21
 70
     1
102
RTVSPropertyOp22
 70
     1
102
RTVSPropertyOp23
 70
     1
102
RTVSPropertyOp24
 70
     1
102
RTVSPropertyOp25
 70
     1
102
RTVSPropertyOp26
 70
     1
102
RTVSPropertyOp27
 70
     1
102
RTVSPropertyOp28
 70
     1
102
RTVSPropertyOp29
 70
     1
102
RTVSPropertyOp30
 70
     1
102
RTVSPropertyOp31
 70
     1
102
RTVSPropertyOp32
 70
     1
  0
XRECORD
  5
11A
102
{ACAD_REACTORS
330
119
102
}
330
119
100
AcDbXrecord
280
     1
102
RTVSPropertyOp0
 70
     1
102
RTVSPropertyOp1
 70
     1
102
RTVSPropertyOp2
 70
     1
102
RTVSPropertyOp3
 70
     1
102
RTVSPropertyOp4
 70
     1
102
RTVSPropertyOp5
 70
     1
102
RTVSPropertyOp6
 70
     1
102
RTVSPropertyOp7
 70
     1
102
RTVSPropertyOp8
 70
     1
102
RTVSPropertyOp9
 70
     1
102
RTVSPropertyOp10
 70
     1
102
RTVSPropertyOp11
 70
     1
102
RTVSPropertyOp12
 70
     1
102
RTVSPropertyOp13
 70
     1
102
RTVSPropertyOp14
 70
     1
102
RTVSPropertyOp15
 70
     1
102
RTVSPropertyOp16
 70
     1
102
RTVSPropertyOp17
 70
     1
102
RTVSPropertyOp18
 70
     1
102
RTVSPropertyOp19
 70
     1
102
RTVSPropertyOp20
 70
     1
102
RTVSPropertyOp21
 70
     1
102
RTVSPropertyOp22
 70
     1
102
RTVSPropertyOp23
 70
     1
102
RTVSPropertyOp24
 70
     1
102
RTVSPropertyOp25
 70
     1
102
RTVSPropertyOp26
 70
     1
102
RTVSPropertyOp27
 70
     1
102
RTVSPropertyOp28
 70
     1
102
RTVSPropertyOp29
 70
     1
102
RTVSPropertyOp30
 70
     1
102
RTVSPropertyOp31
 70
     1
102
RTVSPropertyOp32
 70
     1
  0
XRECORD
  5
11C
102
{ACAD_REACTORS
330
11B
102
}
330
11B
100
AcDbXrecord
280
     1
102
RTVSPropertyOp0
 70
     1
102
RTVSPropertyOp1
 70
     1
102
RTVSPropertyOp2
 70
     1
102
RTVSPropertyOp3
 70
     1
102
RTVSPropertyOp4
 70
     1
102
RTVSPropertyOp5
 70
     1
102
RTVSPropertyOp6
 70
     1
102
RTVSPropertyOp7
 70
     1
102
RTVSPropertyOp8
 70
     1
102
RTVSPropertyOp9
 70
     1
102
RTVSPropertyOp10
 70
     1
102
RTVSPropertyOp11
 70
     1
102
RTVSPropertyOp12
 70
     1
102
RTVSPropertyOp13
 70
     1
102
RTVSPropertyOp14
 70
     1
102
RTVSPropertyOp15
 70
     1
102
RTVSPropertyOp16
 70
     1
102
RTVSPropertyOp17
 70
     1
102
RTVSPropertyOp18
 70
     1
102
RTVSPropertyOp19
 70
     1
102
RTVSPropertyOp20
 70
     1
102
RTVSPropertyOp21
 70
     1
102
RTVSPropertyOp22
 70
     1
102
RTVSPropertyOp23
 70
     1
102
RTVSPropertyOp24
 70
     1
102
RTVSPropertyOp25
 70
     1
102
RTVSPropertyOp26
 70
     1
102
RTVSPropertyOp27
 70
     1
102
RTVSPropertyOp28
 70
     1
102
RTVSPropertyOp29
 70
     1
102
RTVSPropertyOp30
 70
     1
102
RTVSPropertyOp31
 70
     1
102
RTVSPropertyOp32
 70
     1
  0
XRECORD
  5
11E
102
{ACAD_REACTORS
330
11D
102
}
330
11D
100
AcDbXrecord
280
     1
102
RTVSPropertyOp0
 70
     1
102
RTVSPropertyOp1
 70
     1
102
RTVSPropertyOp2
 70
     1
102
RTVSPropertyOp3
 70
     1
102
RTVSPropertyOp4
 70
     1
102
RTVSPropertyOp5
 70
     1
102
RTVSPropertyOp6
 70
     1
102
RTVSPropertyOp7
 70
     1
102
RTVSPropertyOp8
 70
     1
102
RTVSPropertyOp9
 70
     1
102
RTVSPropertyOp10
 70
     1
102
RTVSPropertyOp11
 70
     1
102
RTVSPropertyOp12
 70
     1
102
RTVSPropertyOp13
 70
     1
102
RTVSPropertyOp14
 70
     1
102
RTVSPropertyOp15
 70
     1
102
RTVSPropertyOp16
 70
     1
102
RTVSPropertyOp17
 70
     1
102
RTVSPropertyOp18
 70
     1
102
RTVSPropertyOp19
 70
     1
102
RTVSPropertyOp20
 70
     1
102
RTVSPropertyOp21
 70
     1
102
RTVSPropertyOp22
 70
     1
102
RTVSPropertyOp23
 70
     1
102
RTVSPropertyOp24
 70
     1
102
RTVSPropertyOp25
 70
     1
102
RTVSPropertyOp26
 70
     1
102
RTVSPropertyOp27
 70
     1
102
RTVSPropertyOp28
 70
     1
102
RTVSPropertyOp29
 70
     1
102
RTVSPropertyOp30
 70
     1
102
RTVSPropertyOp31
 70
     1
102
RTVSPropertyOp32
 70
     1
  0
XRECORD
  5
120
102
{ACAD_REACTORS
330
11F
102
}
330
11F
100
AcDbXrecord
280
     1
102
RTVSPropertyOp0
 70
     1
102
RTVSPropertyOp1
 70
     1
102
RTVSPropertyOp2
 70
     1
102
RTVSPropertyOp3
 70
     1
102
RTVSPropertyOp4
 70
     1
102
RTVSPropertyOp5
 70
     1
102
RTVSPropertyOp6
 70
     1
102
RTVSPropertyOp7
 70
     1
102
RTVSPropertyOp8
 70
     1
102
RTVSPropertyOp9
 70
     1
102
RTVSPropertyOp10
 70
     1
102
RTVSPropertyOp11
 70
     1
102
RTVSPropertyOp12
 70
     1
102
RTVSPropertyOp13
 70
     1
102
RTVSPropertyOp14
 70
     1
102
RTVSPropertyOp15
 70
     1
102
RTVSPropertyOp16
 70
     1
102
RTVSPropertyOp17
 70
     1
102
RTVSPropertyOp18
 70
     1
102
RTVSPropertyOp19
 70
     1
102
RTVSPropertyOp20
 70
     1
102
RTVSPropertyOp21
 70
     1
102
RTVSPropertyOp22
 70
     1
102
RTVSPropertyOp23
 70
     1
102
RTVSPropertyOp24
 70
     1
102
RTVSPropertyOp25
 70
     1
102
RTVSPropertyOp26
 70
     1
102
RTVSPropertyOp27
 70
     1
102
RTVSPropertyOp28
 70
     1
102
RTVSPropertyOp29
 70
     1
102
RTVSPropertyOp30
 70
     1
102
RTVSPropertyOp31
 70
     1
102
RTVSPropertyOp32
 70
     1
  0
XRECORD
  5
134
102
{ACAD_REACTORS
330
133
102
}
330
133
100
AcDbXrecord
280
     1
102
RTVSPropertyOp0
 70
     1
102
RTVSPropertyOp1
 70
     1
102
RTVSPropertyOp2
 70
     1
102
RTVSPropertyOp3
 70
     1
102
RTVSPropertyOp4
 70
     1
102
RTVSPropertyOp5
 70
     1
102
RTVSPropertyOp6
 70
     1
102
RTVSPropertyOp7
 70
     1
102
RTVSPropertyOp8
 70
     1
102
RTVSPropertyOp9
 70
     1
102
RTVSPropertyOp10
 70
     1
102
RTVSPropertyOp11
 70
     1
102
RTVSPropertyOp12
 70
     1
102
RTVSPropertyOp13
 70
     1
102
RTVSPropertyOp14
 70
     1
102
RTVSPropertyOp15
 70
     1
102
RTVSPropertyOp16
 70
     1
102
RTVSPropertyOp17
 70
     1
102
RTVSPropertyOp18
 70
     1
102
RTVSPropertyOp19
 70
     1
102
RTVSPropertyOp20
 70
     1
102
RTVSPropertyOp21
 70
     1
102
RTVSPropertyOp22
 70
     1
102
RTVSPropertyOp23
 70
     1
102
RTVSPropertyOp24
 70
     1
102
RTVSPropertyOp25
 70
     1
102
RTVSPropertyOp26
 70
     1
102
RTVSPropertyOp27
 70
     1
102
RTVSPropertyOp28
 70
     1
102
RTVSPropertyOp29
 70
     1
102
RTVSPropertyOp30
 70
     1
102
RTVSPropertyOp31
 70
     1
102
RTVSPropertyOp32
 70
     1
  0
XRECORD
  5
12A
102
{ACAD_REACTORS
330
129
102
}
330
129
100
AcDbXrecord
280
     1
102
RTVSPropertyOp0
 70
     1
102
RTVSPropertyOp1
 70
     1
102
RTVSPropertyOp2
 70
     1
102
RTVSPropertyOp3
 70
     1
102
RTVSPropertyOp4
 70
     1
102
RTVSPropertyOp5
 70
     1
102
RTVSPropertyOp6
 70
     1
102
RTVSPropertyOp7
 70
     1
102
RTVSPropertyOp8
 70
     1
102
RTVSPropertyOp9
 70
     1
102
RTVSPropertyOp10
 70
     1
102
RTVSPropertyOp11
 70
     1
102
RTVSPropertyOp12
 70
     1
102
RTVSPropertyOp13
 70
     1
102
RTVSPropertyOp14
 70
     1
102
RTVSPropertyOp15
 70
     1
102
RTVSPropertyOp16
 70
     1
102
RTVSPropertyOp17
 70
     1
102
RTVSPropertyOp18
 70
     1
102
RTVSPropertyOp19
 70
     1
102
RTVSPropertyOp20
 70
     1
102
RTVSPropertyOp21
 70
     1
102
RTVSPropertyOp22
 70
     1
102
RTVSPropertyOp23
 70
     1
102
RTVSPropertyOp24
 70
     1
102
RTVSPropertyOp25
 70
     1
102
RTVSPropertyOp26
 70
     1
102
RTVSPropertyOp27
 70
     1
102
RTVSPropertyOp28
 70
     1
102
RTVSPropertyOp29
 70
     1
102
RTVSPropertyOp30
 70
     1
102
RTVSPropertyOp31
 70
     1
102
RTVSPropertyOp32
 70
     1
  0
XRECORD
  5
132
102
{ACAD_REACTORS
330
131
102
}
330
131
100
AcDbXrecord
280
     1
102
RTVSPropertyOp0
 70
     1
102
RTVSPropertyOp1
 70
     1
102
RTVSPropertyOp2
 70
     1
102
RTVSPropertyOp3
 70
     1
102
RTVSPropertyOp4
 70
     1
102
RTVSPropertyOp5
 70
     1
102
RTVSPropertyOp6
 70
     1
102
RTVSPropertyOp7
 70
     1
102
RTVSPropertyOp8
 70
     1
102
RTVSPropertyOp9
 70
     1
102
RTVSPropertyOp10
 70
     1
102
RTVSPropertyOp11
 70
     1
102
RTVSPropertyOp12
 70
     1
102
RTVSPropertyOp13
 70
     1
102
RTVSPropertyOp14
 70
     1
102
RTVSPropertyOp15
 70
     1
102
RTVSPropertyOp16
 70
     1
102
RTVSPropertyOp17
 70
     1
102
RTVSPropertyOp18
 70
     1
102
RTVSPropertyOp19
 70
     1
102
RTVSPropertyOp20
 70
     1
102
RTVSPropertyOp21
 70
     1
102
RTVSPropertyOp22
 70
     1
102
RTVSPropertyOp23
 70
     1
102
RTVSPropertyOp24
 70
     1
102
RTVSPropertyOp25
 70
     1
102
RTVSPropertyOp26
 70
     1
102
RTVSPropertyOp27
 70
     1
102
RTVSPropertyOp28
 70
     1
102
RTVSPropertyOp29
 70
     1
102
RTVSPropertyOp30
 70
     1
102
RTVSPropertyOp31
 70
     1
102
RTVSPropertyOp32
 70
     1
  0
ENDSEC
  0
EOF
