  0
SECTION
  2
HEADER
  9
$ACADVER
  1
AC1021
  9
$ACADMAINTVER
 70
    25
  9
$DWGCODEPAGE
  3
ANSI_1256
  9
$INSBASE
 10
0.0
 20
0.0
 30
0.0
  9
$EXTMIN
 10
16.2034
 20
-83.6076
 30
0.0
  9
$EXTMAX
 10
217.4651
 20
101.5336
 30
0.0
  9
$LIMMIN
 10
0.0
 20
0.0
  9
$LIMMAX
 10
12.0
 20
9.0
  9
$ORTHOMODE
 70
     0
  9
$REGENMODE
 70
     1
  9
$FILLMODE
 70
     1
  9
$QTEXTMODE
 70
     0
  9
$MIRRTEXT
 70
     1
  9
$LTSCALE
 40
1.0
  9
$ATTMODE
 70
     1
  9
$TEXTSIZE
 40
0.2
  9
$TRACEWID
 40
0.05
  9
$TEXTSTYLE
  7
Standard
  9
$CLAYER
  8
0
  9
$CELTYPE
  6
ByLayer
  9
$CECOLOR
 62
   256
  9
$CELTSCALE
 40
1.0
  9
$DISPSILH
 70
     0
  9
$DIMSCALE
 40
1.0
  9
$DIMASZ
 40
0.18
  9
$DIMEXO
 40
0.0625
  9
$DIMDLI
 40
0.38
  9
$DIMRND
 40
0.0
  9
$DIMDLE
 40
0.0
  9
$DIMEXE
 40
0.18
  9
$DIMTP
 40
0.0
  9
$DIMTM
 40
0.0
  9
$DIMTXT
 40
0.18
  9
$DIMCEN
 40
0.09
  9
$DIMTSZ
 40
0.0
  9
$DIMTOL
 70
     0
  9
$DIMLIM
 70
     0
  9
$DIMTIH
 70
     1
  9
$DIMTOH
 70
     1
  9
$DIMSE1
 70
     0
  9
$DIMSE2
 70
     0
  9
$DIMTAD
 70
     0
  9
$DIMZIN
 70
     0
  9
$DIMBLK
  1

  9
$DIMASO
 70
     1
  9
$DIMSHO
 70
     1
  9
$DIMPOST
  1

  9
$DIMAPOST
  1

  9
$DIMALT
 70
     0
  9
$DIMALTD
 70
     2
  9
$DIMALTF
 40
25.4
  9
$DIMLFAC
 40
1.0
  9
$DIMTOFL
 70
     0
  9
$DIMTVP
 40
0.0
  9
$DIMTIX
 70
     0
  9
$DIMSOXD
 70
     0
  9
$DIMSAH
 70
     0
  9
$DIMBLK1
  1

  9
$DIMBLK2
  1

  9
$DIMSTYLE
  2
Standard
  9
$DIMCLRD
 70
     0
  9
$DIMCLRE
 70
     0
  9
$DIMCLRT
 70
     0
  9
$DIMTFAC
 40
1.0
  9
$DIMGAP
 40
0.09
  9
$DIMJUST
 70
     0
  9
$DIMSD1
 70
     0
  9
$DIMSD2
 70
     0
  9
$DIMTOLJ
 70
     1
  9
$DIMTZIN
 70
     0
  9
$DIMALTZ
 70
     0
  9
$DIMALTTZ
 70
     0
  9
$DIMUPT
 70
     0
  9
$DIMDEC
 70
     4
  9
$DIMTDEC
 70
     4
  9
$DIMALTU
 70
     2
  9
$DIMALTTD
 70
     2
  9
$DIMTXSTY
  7
Standard
  9
$DIMAUNIT
 70
     0
  9
$DIMADEC
 70
     0
  9
$DIMALTRND
 40
0.0
  9
$DIMAZIN
 70
     0
  9
$DIMDSEP
 70
    46
  9
$DIMATFIT
 70
     3
  9
$DIMFRAC
 70
     0
  9
$DIMLDRBLK
  1

  9
$DIMLUNIT
 70
     2
  9
$DIMLWD
 70
    -2
  9
$DIMLWE
 70
    -2
  9
$DIMTMOVE
 70
     0
  9
$DIMFXL
 40
1.0
  9
$DIMFXLON
 70
     0
  9
$DIMJOGANG
 40
0.7853981633974483
  9
$DIMTFILL
 70
     0
  9
$DIMTFILLCLR
 70
     0
  9
$DIMARCSYM
 70
     0
  9
$DIMLTYPE
  6

  9
$DIMLTEX1
  6

  9
$DIMLTEX2
  6

  9
$LUNITS
 70
     2
  9
$LUPREC
 70
     4
  9
$SKETCHINC
 40
0.1
  9
$FILLETRAD
 40
0.5
  9
$AUNITS
 70
     0
  9
$AUPREC
 70
     0
  9
$MENU
  1
.
  9
$ELEVATION
 40
0.0
  9
$PELEVATION
 40
0.0
  9
$THICKNESS
 40
0.0
  9
$LIMCHECK
 70
     0
  9
$CHAMFERA
 40
0.5
  9
$CHAMFERB
 40
0.5
  9
$CHAMFERC
 40
1.0
  9
$CHAMFERD
 40
0.0
  9
$SKPOLY
 70
     0
  9
$TDCREATE
 40
2458479.284593032
  9
$TDUCREATE
 40
2458479.117926366
  9
$TDUPDATE
 40
2458479.284593183
  9
$TDUUPDATE
 40
2458479.117926516
  9
$TDINDWG
 40
0.0000000116
  9
$TDUSRTIMER
 40
0.0000000116
  9
$USRTIMER
 70
     1
  9
$ANGBASE
 50
0.0
  9
$ANGDIR
 70
     0
  9
$PDMODE
 70
     0
  9
$PDSIZE
 40
0.0
  9
$PLINEWID
 40
0.0
  9
$SPLFRAME
 70
     0
  9
$SPLINETYPE
 70
     6
  9
$SPLINESEGS
 70
     8
  9
$HANDSEED
  5
EB
  9
$SURFTAB1
 70
     6
  9
$SURFTAB2
 70
     6
  9
$SURFTYPE
 70
     6
  9
$SURFU
 70
     6
  9
$SURFV
 70
     6
  9
$UCSBASE
  2

  9
$UCSNAME
  2

  9
$UCSORG
 10
0.0
 20
0.0
 30
0.0
  9
$UCSXDIR
 10
1.0
 20
0.0
 30
0.0
  9
$UCSYDIR
 10
0.0
 20
1.0
 30
0.0
  9
$UCSORTHOREF
  2

  9
$UCSORTHOVIEW
 70
     0
  9
$UCSORGTOP
 10
0.0
 20
0.0
 30
0.0
  9
$UCSORGBOTTOM
 10
0.0
 20
0.0
 30
0.0
  9
$UCSORGLEFT
 10
0.0
 20
0.0
 30
0.0
  9
$UCSORGRIGHT
 10
0.0
 20
0.0
 30
0.0
  9
$UCSORGFRONT
 10
0.0
 20
0.0
 30
0.0
  9
$UCSORGBACK
 10
0.0
 20
0.0
 30
0.0
  9
$PUCSBASE
  2

  9
$PUCSNAME
  2

  9
$PUCSORG
 10
0.0
 20
0.0
 30
0.0
  9
$PUCSXDIR
 10
1.0
 20
0.0
 30
0.0
  9
$PUCSYDIR
 10
0.0
 20
1.0
 30
0.0
  9
$PUCSORTHOREF
  2

  9
$PUCSORTHOVIEW
 70
     0
  9
$PUCSORGTOP
 10
0.0
 20
0.0
 30
0.0
  9
$PUCSORGBOTTOM
 10
0.0
 20
0.0
 30
0.0
  9
$PUCSORGLEFT
 10
0.0
 20
0.0
 30
0.0
  9
$PUCSORGRIGHT
 10
0.0
 20
0.0
 30
0.0
  9
$PUCSORGFRONT
 10
0.0
 20
0.0
 30
0.0
  9
$PUCSORGBACK
 10
0.0
 20
0.0
 30
0.0
  9
$USERI1
 70
     0
  9
$USERI2
 70
     0
  9
$USERI3
 70
     0
  9
$USERI4
 70
     0
  9
$USERI5
 70
     0
  9
$USERR1
 40
0.0
  9
$USERR2
 40
0.0
  9
$USERR3
 40
0.0
  9
$USERR4
 40
0.0
  9
$USERR5
 40
0.0
  9
$WORLDVIEW
 70
     1
  9
$SHADEDGE
 70
     3
  9
$SHADEDIF
 70
    70
  9
$TILEMODE
 70
     1
  9
$MAXACTVP
 70
    64
  9
$PINSBASE
 10
0.0
 20
0.0
 30
0.0
  9
$PLIMCHECK
 70
     0
  9
$PEXTMIN
 10
1.000000000000000E+20
 20
1.000000000000000E+20
 30
1.000000000000000E+20
  9
$PEXTMAX
 10
-1.000000000000000E+20
 20
-1.000000000000000E+20
 30
-1.000000000000000E+20
  9
$PLIMMIN
 10
0.0
 20
0.0
  9
$PLIMMAX
 10
12.0
 20
9.0
  9
$UNITMODE
 70
     0
  9
$VISRETAIN
 70
     1
  9
$PLINEGEN
 70
     0
  9
$PSLTSCALE
 70
     1
  9
$TREEDEPTH
 70
  3020
  9
$CMLSTYLE
  2
Standard
  9
$CMLJUST
 70
     0
  9
$CMLSCALE
 40
1.0
  9
$PROXYGRAPHICS
 70
     1
  9
$MEASUREMENT
 70
     0
  9
$CELWEIGHT
370
    -1
  9
$ENDCAPS
280
     0
  9
$JOINSTYLE
280
     0
  9
$LWDISPLAY
290
     0
  9
$INSUNITS
 70
     4
  9
$HYPERLINKBASE
  1

  9
$STYLESHEET
  1

  9
$XEDIT
290
     1
  9
$CEPSNTYPE
380
     0
  9
$PSTYLEMODE
290
     1
  9
$FINGERPRINTGUID
  2
{32106201-C809-4430-8048-C7AC82A72B5E}
  9
$VERSIONGUID
  2
{FAEB1C32-E019-11D5-929B-00C0DF256EC4}
  9
$EXTNAMES
290
     1
  9
$PSVPSCALE
 40
0.0
  9
$OLESTARTUP
290
     0
  9
$SORTENTS
280
   127
  9
$INDEXCTL
280
     0
  9
$HIDETEXT
280
     1
  9
$XCLIPFRAME
290
     0
  9
$HALOGAP
280
     0
  9
$OBSCOLOR
 70
   257
  9
$OBSLTYPE
280
     0
  9
$INTERSECTIONDISPLAY
280
     0
  9
$INTERSECTIONCOLOR
 70
   257
  9
$DIMASSOC
280
     2
  9
$PROJECTNAME
  1

  9
$CAMERADISPLAY
290
     0
  9
$LENSLENGTH
 40
50.0
  9
$CAMERAHEIGHT
 40
0.0
  9
$STEPSPERSEC
 40
2.0
  9
$STEPSIZE
 40
6.0
  9
$3DDWFPREC
 40
2.0
  9
$PSOLWIDTH
 40
0.25
  9
$PSOLHEIGHT
 40
4.0
  9
$LOFTANG1
 40
1.570796326794897
  9
$LOFTANG2
 40
1.570796326794897
  9
$LOFTMAG1
 40
0.0
  9
$LOFTMAG2
 40
0.0
  9
$LOFTPARAM
 70
     7
  9
$LOFTNORMALS
280
     1
  9
$LATITUDE
 40
37.795
  9
$LONGITUDE
 40
-122.394
  9
$NORTHDIRECTION
 40
0.0
  9
$TIMEZONE
 70
 -8000
  9
$LIGHTGLYPHDISPLAY
280
     1
  9
$TILEMODELIGHTSYNCH
280
     1
  9
$SOLIDHIST
280
     1
  9
$SHOWHIST
280
     1
  9
$DWFFRAME
280
     2
  9
$DGNFRAME
280
     2
  9
$REALWORLDSCALE
290
     1
  9
$INTERFERECOLOR
 62
   256
  9
$CSHADOW
280
     0
  9
$SHADOWPLANELOCATION
 40
0.0
  0
ENDSEC
  0
SECTION
  2
CLASSES
  0
CLASS
  1
ACDBDICTIONARYWDFLT
  2
AcDbDictionaryWithDefault
  3
ObjectDBX Classes
 90
        0
 91
        4
280
     0
281
     0
  0
CLASS
  1
VISUALSTYLE
  2
AcDbVisualStyle
  3
ObjectDBX Classes
 90
     4095
 91
        4
280
     0
281
     0
  0
CLASS
  1
MATERIAL
  2
AcDbMaterial
  3
ObjectDBX Classes
 90
     1153
 91
        4
280
     0
281
     0
  0
ENDSEC
  0
SECTION
  2
TABLES
  0
TABLE
  2
VPORT
  5
8
330
0
100
AcDbSymbolTable
 70
     1
  0
VPORT
  5
29
330
8
100
AcDbSymbolTableRecord
100
AcDbViewportTableRecord
  2
*Active
 70
     0
 10
0.0
 20
0.0
 11
1.0
 21
1.0
 12
10.42990654205607
 22
4.5
 13
0.0
 23
0.0
 14
0.5
 24
0.5
 15
0.5
 25
0.5
 16
0.0
 26
0.0
 36
1.0
 17
0.0
 27
0.0
 37
0.0
 40
9.0
 41
1.972972972850329
 42
50.0
 43
0.0
 44
0.0
 50
0.0
 51
0.0
 71
     0
 72
   100
 73
     1
 74
     3
 75
     0
 76
     0
 77
     0
 78
     0
281
     0
 65
     1
110
0.0
120
0.0
130
0.0
111
1.0
121
0.0
131
0.0
112
0.0
122
1.0
132
0.0
 79
     0
146
0.0
 60
     3
 61
     5
292
     1
282
     1
141
0.0
142
0.0
 63
   250
  0
ENDTAB
  0
TABLE
  2
LTYPE
  5
5
330
0
100
AcDbSymbolTable
 70
     1
  0
LTYPE
  5
14
330
5
100
AcDbSymbolTableRecord
100
AcDbLinetypeTableRecord
  2
ByBlock
 70
     0
  3

 72
    65
 73
     0
 40
0.0
  0
LTYPE
  5
15
330
5
100
AcDbSymbolTableRecord
100
AcDbLinetypeTableRecord
  2
ByLayer
 70
     0
  3

 72
    65
 73
     0
 40
0.0
  0
LTYPE
  5
16
330
5
100
AcDbSymbolTableRecord
100
AcDbLinetypeTableRecord
  2
Continuous
 70
     0
  3
Solid line
 72
    65
 73
     0
 40
0.0
  0
ENDTAB
  0
TABLE
  2
LAYER
  5
2
330
0
100
AcDbSymbolTable
 70
     3
  0
LAYER
  5
10
330
2
100
AcDbSymbolTableRecord
100
AcDbLayerTableRecord
  2
0
 70
     0
 62
     7
  6
Continuous
370
    -3
390
F
347
3E
  0
LAYER
  5
40
330
2
100
AcDbSymbolTableRecord
100
AcDbLayerTableRecord
  2
layer 1
 70
     0
 62
     7
  6
Continuous
370
    -3
390
F
347
3E
  0
LAYER
  5
C8
330
2
100
AcDbSymbolTableRecord
100
AcDbLayerTableRecord
  2
Master Guides
 70
     0
 62
     7
  6
Continuous
370
    -3
390
F
347
3E
  0
ENDTAB
  0
TABLE
  2
STYLE
  5
3
330
0
100
AcDbSymbolTable
 70
     1
  0
STYLE
  5
11
330
3
100
AcDbSymbolTableRecord
100
AcDbTextStyleTableRecord
  2
Standard
 70
     0
 40
0.0
 41
1.0
 50
0.0
 71
     0
 42
0.2
  3
txt
  4

  0
ENDTAB
  0
TABLE
  2
VIEW
  5
6
330
0
100
AcDbSymbolTable
 70
     0
  0
ENDTAB
  0
TABLE
  2
UCS
  5
7
330
0
100
AcDbSymbolTable
 70
     0
  0
ENDTAB
  0
TABLE
  2
APPID
  5
9
330
0
100
AcDbSymbolTable
 70
     2
  0
APPID
  5
12
330
9
100
AcDbSymbolTableRecord
100
AcDbRegAppTableRecord
  2
ACAD
 70
     0
  0
APPID
  5
3F
330
9
100
AcDbSymbolTableRecord
100
AcDbRegAppTableRecord
  2
ODA
 70
     0
  0
ENDTAB
  0
TABLE
  2
DIMSTYLE
  5
A
330
0
100
AcDbSymbolTable
 70
     1
100
AcDbDimStyleTable
  0
DIMSTYLE
105
27
330
A
100
AcDbSymbolTableRecord
100
AcDbDimStyleTableRecord
  2
Standard
 70
     0
178
     0
340
11
  0
ENDTAB
  0
TABLE
  2
BLOCK_RECORD
  5
1
330
0
100
AcDbSymbolTable
 70
     1
  0
BLOCK_RECORD
  5
1F
330
1
100
AcDbSymbolTableRecord
100
AcDbBlockTableRecord
  2
*Model_Space
340
22
 70
     0
280
     1
281
     0
  0
BLOCK_RECORD
  5
1B
330
1
100
AcDbSymbolTableRecord
100
AcDbBlockTableRecord
  2
*Paper_Space
340
1E
 70
     0
280
     1
281
     0
  0
BLOCK_RECORD
  5
23
330
1
100
AcDbSymbolTableRecord
100
AcDbBlockTableRecord
  2
*Paper_Space0
340
26
 70
     0
280
     1
281
     0
  0
ENDTAB
  0
ENDSEC
  0
SECTION
  2
BLOCKS
  0
BLOCK
  5
20
330
1F
100
AcDbEntity
  8
0
100
AcDbBlockBegin
  2
*Model_Space
 70
     0
 10
0.0
 20
0.0
 30
0.0
  3
*Model_Space
  1

  0
ENDBLK
  5
21
330
1F
100
AcDbEntity
  8
0
100
AcDbBlockEnd
  0
BLOCK
  5
1C
330
1B
100
AcDbEntity
 67
     1
  8
0
100
AcDbBlockBegin
  2
*Paper_Space
 70
     0
 10
0.0
 20
0.0
 30
0.0
  3
*Paper_Space
  1

  0
ENDBLK
  5
1D
330
1B
100
AcDbEntity
 67
     1
  8
0
100
AcDbBlockEnd
  0
BLOCK
  5
24
330
23
100
AcDbEntity
  8
0
100
AcDbBlockBegin
  2
*Paper_Space0
 70
     0
 10
0.0
 20
0.0
 30
0.0
  3
*Paper_Space0
  1

  0
ENDBLK
  5
25
330
23
100
AcDbEntity
  8
0
100
AcDbBlockEnd
  0
ENDSEC
  0
SECTION
  2
ENTITIES
  0
SPLINE
  5
41
330
1F
100
AcDbEntity
  8
layer 1
100
AcDbSpline
210
0.0
220
0.0
230
1.0
 70
    11
 71
     3
 72
    20
 73
    16
 74
     0
 42
0.0000000001
 43
0.0000000001
 12
1.0
 22
0.0
 32
0.0
 13
1.0
 23
0.0
 33
0.0
 40
0.0
 40
0.0
 40
0.0
 40
0.0
 40
0.2
 40
0.2
 40
0.2
 40
0.2
 40
0.4
 40
0.4
 40
0.4
 40
0.4
 40
0.6
 40
0.6
 40
0.6
 40
0.6
 40
1.0
 40
1.0
 40
1.0
 40
1.0
 10
16.2034
 20
101.5336
 30
0.0
 10
16.2034
 20
101.5336
 30
0.0
 10
196.5379
 20
101.5336
 30
0.0
 10
196.5379
 20
101.5336
 30
0.0
 10
196.5379
 20
101.5336
 30
0.0
 10
196.5379
 20
101.5336
 30
0.0
 10
196.5379
 20
-73.4664
 30
0.0
 10
196.5379
 20
-73.4664
 30
0.0
 10
196.5379
 20
-73.4664
 30
0.0
 10
196.5379
 20
-73.4664
 30
0.0
 10
16.2034
 20
-73.4664
 30
0.0
 10
16.2034
 20
-73.4664
 30
0.0
 10
16.2034
 20
-73.4664
 30
0.0
 10
16.2034
 20
-73.4664
 30
0.0
 10
16.2034
 20
101.5336
 30
0.0
 10
16.2034
 20
101.5336
 30
0.0
  0
SPLINE
  5
42
330
1F
100
AcDbEntity
  8
layer 1
 62
     7
100
AcDbSpline
210
0.0
220
0.0
230
1.0
 70
    11
 71
     3
 72
    24
 73
    20
 74
     0
 42
0.0000000001
 43
0.0000000001
 12
1.0
 22
0.0
 32
0.0
 13
1.0
 23
0.0
 33
0.0
 40
0.0
 40
0.0
 40
0.0
 40
0.0
 40
0.1666666666666667
 40
0.1666666666666667
 40
0.1666666666666667
 40
0.1666666666666667
 40
0.3333333333333333
 40
0.3333333333333333
 40
0.3333333333333333
 40
0.3333333333333333
 40
0.5
 40
0.5
 40
0.5
 40
0.5
 40
0.6666666666666666
 40
0.6666666666666666
 40
0.6666666666666666
 40
0.6666666666666666
 40
1.0
 40
1.0
 40
1.0
 40
1.0
 10
94.7973
 20
45.8719
 30
0.0
 10
94.491
 20
47.8345
 30
0.0
 10
95.6844
 20
49.0194
 30
0.0
 10
97.8777
 20
50.7599
 30
0.0
 10
97.8777
 20
50.7599
 30
0.0
 10
100.8453
 20
45.6361
 30
0.0
 10
103.7117
 20
42.151
 30
0.0
 10
103.321
 20
38.8478
 30
0.0
 10
103.321
 20
38.8478
 30
0.0
 10
99.6123
 20
38.3238
 30
0.0
 10
94.2447
 20
38.953
 30
0.0
 10
93.4087
 20
41.4029
 30
0.0
 10
93.4087
 20
41.4029
 30
0.0
 10
98.039
 20
39.1904
 30
0.0
 10
98.4816
 20
46.0816
 30
0.0
 10
94.7974
 20
45.8719
 30
0.0
 10
94.7974
 20
45.8719
 30
0.0
 10
94.7974
 20
45.8719
 30
0.0
 10
94.7973
 20
45.8719
 30
0.0
 10
94.7973
 20
45.8719
 30
0.0
  0
SPLINE
  5
43
330
1F
100
AcDbEntity
  8
layer 1
 62
     7
100
AcDbSpline
210
0.0
220
0.0
230
1.0
 70
    11
 71
     3
 72
    16
 73
    12
 74
     0
 42
0.0000000001
 43
0.0000000001
 12
1.0
 22
0.0
 32
0.0
 13
1.0
 23
0.0
 33
0.0
 40
0.0
 40
0.0
 40
0.0
 40
0.0
 40
0.25
 40
0.25
 40
0.25
 40
0.25
 40
0.5
 40
0.5
 40
0.5
 40
0.5
 40
1.0
 40
1.0
 40
1.0
 40
1.0
 10
98.8029
 20
52.0624
 30
0.0
 10
99.6093
 20
52.002
 30
0.0
 10
101.8143
 20
52.2361
 30
0.0
 10
102.4902
 20
53.3493
 30
0.0
 10
102.4902
 20
53.3493
 30
0.0
 10
102.7469
 20
48.3064
 30
0.0
 10
104.9458
 20
48.6651
 30
0.0
 10
104.3124
 20
44.0471
 30
0.0
 10
104.3124
 20
44.0471
 30
0.0
 10
101.9489
 20
47.5679
 30
0.0
 10
100.3186
 20
49.6654
 30
0.0
 10
98.8029
 20
52.0624
 30
0.0
  0
SPLINE
  5
44
330
1F
100
AcDbEntity
  8
layer 1
 62
     7
100
AcDbSpline
210
0.0
220
0.0
230
1.0
 70
    11
 71
     3
 72
    36
 73
    32
 74
     0
 42
0.0000000001
 43
0.0000000001
 12
1.0
 22
0.0
 32
0.0
 13
1.0
 23
0.0
 33
0.0
 40
0.0
 40
0.0
 40
0.0
 40
0.0
 40
0.1111111111111111
 40
0.1111111111111111
 40
0.1111111111111111
 40
0.1111111111111111
 40
0.2222222222222222
 40
0.2222222222222222
 40
0.2222222222222222
 40
0.2222222222222222
 40
0.3333333333333333
 40
0.3333333333333333
 40
0.3333333333333333
 40
0.3333333333333333
 40
0.4444444444444444
 40
0.4444444444444444
 40
0.4444444444444444
 40
0.4444444444444444
 40
0.5555555555555556
 40
0.5555555555555556
 40
0.5555555555555556
 40
0.5555555555555556
 40
0.6666666666666666
 40
0.6666666666666666
 40
0.6666666666666666
 40
0.6666666666666666
 40
0.7777777777777778
 40
0.7777777777777778
 40
0.7777777777777778
 40
0.7777777777777778
 40
1.0
 40
1.0
 40
1.0
 40
1.0
 10
92.1391
 20
51.9214
 30
0.0
 10
89.7899
 20
52.3103
 30
0.0
 10
88.3669
 20
53.233
 30
0.0
 10
86.731
 20
54.8094
 30
0.0
 10
86.731
 20
54.8094
 30
0.0
 10
86.9107
 20
48.3743
 30
0.0
 10
84.0115
 20
43.3811
 30
0.0
 10
79.8779
 20
40.832
 30
0.0
 10
79.8779
 20
40.832
 30
0.0
 10
81.1994
 20
40.8594
 30
0.0
 10
82.2193
 20
39.7892
 30
0.0
 10
81.4589
 20
36.5879
 30
0.0
 10
81.4589
 20
36.5879
 30
0.0
 10
82.1371
 20
37.9711
 30
0.0
 10
83.2518
 20
39.1516
 30
0.0
 10
85.1228
 20
38.6633
 30
0.0
 10
85.1228
 20
38.6633
 30
0.0
 10
84.595
 20
32.4218
 30
0.0
 10
94.468
 20
34.9863
 30
0.0
 10
96.3629
 20
37.1714
 30
0.0
 10
96.3629
 20
37.1714
 30
0.0
 10
87.4666
 20
37.3526
 30
0.0
 10
87.7381
 20
46.1766
 30
0.0
 10
94.3473
 20
48.6326
 30
0.0
 10
94.3473
 20
48.6326
 30
0.0
 10
92.219
 20
48.534
 30
0.0
 10
90.6066
 20
48.893
 30
0.0
 10
90.0396
 20
49.907
 30
0.0
 10
90.0396
 20
49.907
 30
0.0
 10
90.6554
 20
50.7978
 30
0.0
 10
91.076
 20
51.4432
 30
0.0
 10
92.1391
 20
51.9214
 30
0.0
  0
SPLINE
  5
45
330
1F
100
AcDbEntity
  8
layer 1
 62
     7
100
AcDbSpline
210
0.0
220
0.0
230
1.0
 70
    11
 71
     3
 72
    28
 73
    24
 74
     0
 42
0.0000000001
 43
0.0000000001
 12
1.0
 22
0.0
 32
0.0
 13
1.0
 23
0.0
 33
0.0
 40
0.0
 40
0.0
 40
0.0
 40
0.0
 40
0.1428571428571428
 40
0.1428571428571428
 40
0.1428571428571428
 40
0.1428571428571428
 40
0.2857142857142857
 40
0.2857142857142857
 40
0.2857142857142857
 40
0.2857142857142857
 40
0.4285714285714285
 40
0.4285714285714285
 40
0.4285714285714285
 40
0.4285714285714285
 40
0.5714285714285714
 40
0.5714285714285714
 40
0.5714285714285714
 40
0.5714285714285714
 40
0.7142857142857143
 40
0.7142857142857143
 40
0.7142857142857143
 40
0.7142857142857143
 40
1.0
 40
1.0
 40
1.0
 40
1.0
 10
70.8976
 20
38.8889
 30
0.0
 10
72.624
 20
38.5238
 30
0.0
 10
75.9156
 20
38.9876
 30
0.0
 10
77.3548
 20
40.1379
 30
0.0
 10
77.3548
 20
40.1379
 30
0.0
 10
76.7406
 20
36.9975
 30
0.0
 10
78.3129
 20
34.544
 30
0.0
 10
80.3083
 20
34.0242
 30
0.0
 10
80.3083
 20
34.0242
 30
0.0
 10
78.8553
 20
33.9158
 30
0.0
 10
77.5882
 20
33.2906
 30
0.0
 10
76.8571
 20
31.9201
 30
0.0
 10
76.8571
 20
31.9201
 30
0.0
 10
75.9836
 20
32.7267
 30
0.0
 10
73.5907
 20
33.5438
 30
0.0
 10
71.181
 20
31.2727
 30
0.0
 10
71.181
 20
31.2727
 30
0.0
 10
72.1395
 20
32.8304
 30
0.0
 10
72.1559
 20
36.8366
 30
0.0
 10
70.8976
 20
38.889
 30
0.0
 10
70.8976
 20
38.889
 30
0.0
 10
70.8976
 20
38.889
 30
0.0
 10
70.8976
 20
38.8889
 30
0.0
 10
70.8976
 20
38.8889
 30
0.0
  0
SPLINE
  5
46
330
1F
100
AcDbEntity
  8
layer 1
 62
     7
100
AcDbSpline
210
0.0
220
0.0
230
1.0
 70
    11
 71
     3
 72
    28
 73
    24
 74
     0
 42
0.0000000001
 43
0.0000000001
 12
1.0
 22
0.0
 32
0.0
 13
1.0
 23
0.0
 33
0.0
 40
0.0
 40
0.0
 40
0.0
 40
0.0
 40
0.1428571428571428
 40
0.1428571428571428
 40
0.1428571428571428
 40
0.1428571428571428
 40
0.2857142857142857
 40
0.2857142857142857
 40
0.2857142857142857
 40
0.2857142857142857
 40
0.4285714285714285
 40
0.4285714285714285
 40
0.4285714285714285
 40
0.4285714285714285
 40
0.5714285714285714
 40
0.5714285714285714
 40
0.5714285714285714
 40
0.5714285714285714
 40
0.7142857142857143
 40
0.7142857142857143
 40
0.7142857142857143
 40
0.7142857142857143
 40
1.0
 40
1.0
 40
1.0
 40
1.0
 10
77.7252
 20
30.5448
 30
0.0
 10
79.606
 20
31.8745
 30
0.0
 10
82.8468
 20
29.2406
 30
0.0
 10
87.085
 20
30.2119
 30
0.0
 10
87.085
 20
30.2119
 30
0.0
 10
84.6285
 20
27.2781
 30
0.0
 10
82.7953
 20
24.2211
 30
0.0
 10
82.3042
 20
20.4609
 30
0.0
 10
82.3042
 20
20.4609
 30
0.0
 10
82.2222
 20
19.2489
 30
0.0
 10
81.0248
 20
18.8837
 30
0.0
 10
79.9903
 20
19.3483
 30
0.0
 10
79.9903
 20
19.3483
 30
0.0
 10
76.0689
 20
20.6946
 30
0.0
 10
72.7351
 20
25.5624
 30
0.0
 10
73.715
 20
27.6935
 30
0.0
 10
73.715
 20
27.6935
 30
0.0
 10
74.495
 20
26.5169
 30
0.0
 10
78.594
 20
26.7797
 30
0.0
 10
77.7253
 20
30.5449
 30
0.0
 10
77.7253
 20
30.5449
 30
0.0
 10
77.7253
 20
30.5449
 30
0.0
 10
77.7252
 20
30.5448
 30
0.0
 10
77.7252
 20
30.5448
 30
0.0
  0
SPLINE
  5
47
330
1F
100
AcDbEntity
  8
layer 1
 62
     7
100
AcDbSpline
210
0.0
220
0.0
230
1.0
 70
    11
 71
     3
 72
    32
 73
    28
 74
     0
 42
0.0000000001
 43
0.0000000001
 12
1.0
 22
0.0
 32
0.0
 13
1.0
 23
0.0
 33
0.0
 40
0.0
 40
0.0
 40
0.0
 40
0.0
 40
0.125
 40
0.125
 40
0.125
 40
0.125
 40
0.25
 40
0.25
 40
0.25
 40
0.25
 40
0.375
 40
0.375
 40
0.375
 40
0.375
 40
0.5
 40
0.5
 40
0.5
 40
0.5
 40
0.625
 40
0.625
 40
0.625
 40
0.625
 40
0.75
 40
0.75
 40
0.75
 40
0.75
 40
1.0
 40
1.0
 40
1.0
 40
1.0
 10
89.9242
 20
72.5449
 30
0.0
 10
87.2437
 20
69.3388
 30
0.0
 10
83.1113
 20
68.6968
 30
0.0
 10
77.7743
 20
68.8919
 30
0.0
 10
77.7743
 20
68.8919
 30
0.0
 10
82.6363
 20
65.8601
 30
0.0
 10
85.7126
 20
61.9169
 30
0.0
 10
86.5993
 20
56.2196
 30
0.0
 10
86.5993
 20
56.2196
 30
0.0
 10
88.181
 20
57.2081
 30
0.0
 10
90.2145
 20
57.6017
 30
0.0
 10
91.9959
 20
57.0786
 30
0.0
 10
91.9959
 20
57.0786
 30
0.0
 10
87.9181
 20
61.3484
 30
0.0
 10
90.0576
 20
63.2435
 30
0.0
 10
92.2948
 20
62.0552
 30
0.0
 10
92.2948
 20
62.0552
 30
0.0
 10
91.1497
 20
64.9567
 30
0.0
 10
92.8077
 20
66.5139
 30
0.0
 10
93.2037
 20
67.2639
 30
0.0
 10
93.2037
 20
67.2639
 30
0.0
 10
90.7533
 20
67.1792
 30
0.0
 10
89.1792
 20
70.4341
 30
0.0
 10
89.9241
 20
72.5447
 30
0.0
 10
89.9241
 20
72.5447
 30
0.0
 10
89.9241
 20
72.5447
 30
0.0
 10
89.9242
 20
72.5449
 30
0.0
 10
89.9242
 20
72.5449
 30
0.0
  0
SPLINE
  5
48
330
1F
100
AcDbEntity
  8
layer 1
 62
     7
100
AcDbSpline
210
0.0
220
0.0
230
1.0
 70
    11
 71
     3
 72
    52
 73
    48
 74
     0
 42
0.0000000001
 43
0.0000000001
 12
1.0
 22
0.0
 32
0.0
 13
1.0
 23
0.0
 33
0.0
 40
0.0
 40
0.0
 40
0.0
 40
0.0
 40
0.0769230769230769
 40
0.0769230769230769
 40
0.0769230769230769
 40
0.0769230769230769
 40
0.1538461538461539
 40
0.1538461538461539
 40
0.1538461538461539
 40
0.1538461538461539
 40
0.2307692307692308
 40
0.2307692307692308
 40
0.2307692307692308
 40
0.2307692307692308
 40
0.3076923076923077
 40
0.3076923076923077
 40
0.3076923076923077
 40
0.3076923076923077
 40
0.3846153846153846
 40
0.3846153846153846
 40
0.3846153846153846
 40
0.3846153846153846
 40
0.4615384615384616
 40
0.4615384615384616
 40
0.4615384615384616
 40
0.4615384615384616
 40
0.5384615384615384
 40
0.5384615384615384
 40
0.5384615384615384
 40
0.5384615384615384
 40
0.6153846153846154
 40
0.6153846153846154
 40
0.6153846153846154
 40
0.6153846153846154
 40
0.6923076923076923
 40
0.6923076923076923
 40
0.6923076923076923
 40
0.6923076923076923
 40
0.7692307692307693
 40
0.7692307692307693
 40
0.7692307692307693
 40
0.7692307692307693
 40
0.8461538461538461
 40
0.8461538461538461
 40
0.8461538461538461
 40
0.8461538461538461
 40
1.0
 40
1.0
 40
1.0
 40
1.0
 10
101.5959
 20
68.3389
 30
0.0
 10
99.4078
 20
72.1531
 30
0.0
 10
96.7396
 20
74.0873
 30
0.0
 10
93.2601
 20
72.4261
 30
0.0
 10
93.2601
 20
72.4261
 30
0.0
 10
92.5725
 20
72.045
 30
0.0
 10
92.8023
 20
71.0653
 30
0.0
 10
93.4419
 20
71.3806
 30
0.0
 10
93.4419
 20
71.3806
 30
0.0
 10
97.2607
 20
73.1936
 30
0.0
 10
96.4291
 20
69.3823
 30
0.0
 10
96.2031
 20
67.9967
 30
0.0
 10
96.2031
 20
67.9967
 30
0.0
 10
96.0231
 20
66.9221
 30
0.0
 10
95.7684
 20
65.5979
 30
0.0
 10
96.6225
 20
64.1941
 30
0.0
 10
96.6225
 20
64.1941
 30
0.0
 10
96.8624
 20
63.4848
 30
0.0
 10
97.408
 20
63.2581
 30
0.0
 10
97.9233
 20
63.4673
 30
0.0
 10
97.9233
 20
63.4673
 30
0.0
 10
98.8721
 20
63.8523
 30
0.0
 10
99.3808
 20
64.7764
 30
0.0
 10
99.7719
 20
64.2212
 30
0.0
 10
99.7719
 20
64.2212
 30
0.0
 10
99.8099
 20
63.6098
 30
0.0
 10
99.5224
 20
59.0219
 30
0.0
 10
99.8402
 20
58.6593
 30
0.0
 10
99.8402
 20
58.6593
 30
0.0
 10
100.1029
 20
58.4795
 30
0.0
 10
100.2712
 20
58.7167
 30
0.0
 10
100.3454
 20
58.8866
 30
0.0
 10
100.3454
 20
58.8866
 30
0.0
 10
101.1115
 20
60.641
 30
0.0
 10
101.4502
 20
60.4997
 30
0.0
 10
102.3354
 20
60.3253
 30
0.0
 10
102.3354
 20
60.3253
 30
0.0
 10
102.9744
 20
59.9574
 30
0.0
 10
102.8411
 20
60.9061
 30
0.0
 10
102.9829
 20
61.4808
 30
0.0
 10
102.9829
 20
61.4808
 30
0.0
 10
103.036
 20
63.9458
 30
0.0
 10
102.7055
 20
66.321
 30
0.0
 10
101.596
 20
68.3389
 30
0.0
 10
101.596
 20
68.3389
 30
0.0
 10
101.596
 20
68.3389
 30
0.0
 10
101.5959
 20
68.3389
 30
0.0
 10
101.5959
 20
68.3389
 30
0.0
  0
SPLINE
  5
49
330
1F
100
AcDbEntity
  8
layer 1
 62
     7
100
AcDbSpline
210
0.0
220
0.0
230
1.0
 70
    11
 71
     3
 72
    28
 73
    24
 74
     0
 42
0.0000000001
 43
0.0000000001
 12
1.0
 22
0.0
 32
0.0
 13
1.0
 23
0.0
 33
0.0
 40
0.0
 40
0.0
 40
0.0
 40
0.0
 40
0.1428571428571428
 40
0.1428571428571428
 40
0.1428571428571428
 40
0.1428571428571428
 40
0.2857142857142857
 40
0.2857142857142857
 40
0.2857142857142857
 40
0.2857142857142857
 40
0.4285714285714285
 40
0.4285714285714285
 40
0.4285714285714285
 40
0.4285714285714285
 40
0.5714285714285714
 40
0.5714285714285714
 40
0.5714285714285714
 40
0.5714285714285714
 40
0.7142857142857143
 40
0.7142857142857143
 40
0.7142857142857143
 40
0.7142857142857143
 40
1.0
 40
1.0
 40
1.0
 40
1.0
 10
64.0817
 20
94.5186
 30
0.0
 10
64.0817
 20
94.5186
 30
0.0
 10
80.0952
 20
94.5186
 30
0.0
 10
80.0952
 20
94.5186
 30
0.0
 10
80.0952
 20
94.5186
 30
0.0
 10
76.4138
 20
93.2811
 30
0.0
 10
74.8385
 20
92.3347
 30
0.0
 10
71.8922
 20
90.2959
 30
0.0
 10
71.8922
 20
90.2959
 30
0.0
 10
68.9815
 20
88.2817
 30
0.0
 10
64.072
 20
86.39
 30
0.0
 10
62.3724
 20
90.2846
 30
0.0
 10
62.3724
 20
90.2846
 30
0.0
 10
64.0349
 20
88.7902
 30
0.0
 10
66.0179
 20
89.7293
 30
0.0
 10
66.382
 20
90.9476
 30
0.0
 10
66.382
 20
90.9476
 30
0.0
 10
66.7448
 20
92.1619
 30
0.0
 10
66.3746
 20
93.8135
 30
0.0
 10
64.0818
 20
94.5186
 30
0.0
 10
64.0818
 20
94.5186
 30
0.0
 10
64.0818
 20
94.5186
 30
0.0
 10
64.0817
 20
94.5186
 30
0.0
 10
64.0817
 20
94.5186
 30
0.0
  0
SPLINE
  5
4A
330
1F
100
AcDbEntity
  8
layer 1
 62
     7
100
AcDbSpline
210
0.0
220
0.0
230
1.0
 70
    11
 71
     3
 72
    40
 73
    36
 74
     0
 42
0.0000000001
 43
0.0000000001
 12
1.0
 22
0.0
 32
0.0
 13
1.0
 23
0.0
 33
0.0
 40
0.0
 40
0.0
 40
0.0
 40
0.0
 40
0.1
 40
0.1
 40
0.1
 40
0.1
 40
0.2
 40
0.2
 40
0.2
 40
0.2
 40
0.3
 40
0.3
 40
0.3
 40
0.3
 40
0.4
 40
0.4
 40
0.4
 40
0.4
 40
0.5
 40
0.5
 40
0.5
 40
0.5
 40
0.6
 40
0.6
 40
0.6
 40
0.6
 40
0.7
 40
0.7
 40
0.7
 40
0.7
 40
0.8
 40
0.8
 40
0.8
 40
0.8
 40
1.0
 40
1.0
 40
1.0
 40
1.0
 10
85.7723
 20
94.5186
 30
0.0
 10
85.7723
 20
94.5186
 30
0.0
 10
105.5284
 20
94.5186
 30
0.0
 10
105.5284
 20
94.5186
 30
0.0
 10
105.5284
 20
94.5186
 30
0.0
 10
105.0042
 20
93.0434
 30
0.0
 10
102.4786
 20
92.5471
 30
0.0
 10
102.6945
 20
90.7072
 30
0.0
 10
102.6945
 20
90.7072
 30
0.0
 10
102.7038
 20
89.7517
 30
0.0
 10
102.4031
 20
89.0243
 30
0.0
 10
101.6056
 20
89.2795
 30
0.0
 10
101.6056
 20
89.2795
 30
0.0
 10
98.9929
 20
90.7592
 30
0.0
 10
100.7612
 20
86.2995
 30
0.0
 10
100.8136
 20
84.1749
 30
0.0
 10
100.8136
 20
84.1749
 30
0.0
 10
99.7706
 20
85.2656
 30
0.0
 10
95.3634
 20
89.864
 30
0.0
 10
96.1827
 20
93.6
 30
0.0
 10
96.1827
 20
93.6
 30
0.0
 10
95.2438
 20
94.5202
 30
0.0
 10
93.8999
 20
93.9207
 30
0.0
 10
93.0015
 20
92.2397
 30
0.0
 10
93.0015
 20
92.2397
 30
0.0
 10
92.7226
 20
91.6319
 30
0.0
 10
92.0153
 20
91.6916
 30
0.0
 10
91.5288
 20
91.9869
 30
0.0
 10
91.5288
 20
91.9869
 30
0.0
 10
89.184
 20
93.4225
 30
0.0
 10
87.1803
 20
93.9995
 30
0.0
 10
85.7724
 20
94.5185
 30
0.0
 10
85.7724
 20
94.5185
 30
0.0
 10
85.7724
 20
94.5185
 30
0.0
 10
85.7723
 20
94.5186
 30
0.0
 10
85.7723
 20
94.5186
 30
0.0
  0
SPLINE
  5
4B
330
1F
100
AcDbEntity
  8
layer 1
 62
     7
100
AcDbSpline
210
0.0
220
0.0
230
1.0
 70
    11
 71
     3
 72
    24
 73
    20
 74
     0
 42
0.0000000001
 43
0.0000000001
 12
1.0
 22
0.0
 32
0.0
 13
1.0
 23
0.0
 33
0.0
 40
0.0
 40
0.0
 40
0.0
 40
0.0
 40
0.1666666666666667
 40
0.1666666666666667
 40
0.1666666666666667
 40
0.1666666666666667
 40
0.3333333333333333
 40
0.3333333333333333
 40
0.3333333333333333
 40
0.3333333333333333
 40
0.5
 40
0.5
 40
0.5
 40
0.5
 40
0.6666666666666666
 40
0.6666666666666666
 40
0.6666666666666666
 40
0.6666666666666666
 40
1.0
 40
1.0
 40
1.0
 40
1.0
 10
46.0268
 20
94.5186
 30
0.0
 10
46.0268
 20
94.5186
 30
0.0
 10
61.0581
 20
94.5186
 30
0.0
 10
61.0581
 20
94.5186
 30
0.0
 10
61.0581
 20
94.5186
 30
0.0
 10
59.3504
 20
94.1164
 30
0.0
 10
58.8729
 20
91.4895
 30
0.0
 10
60.0319
 20
88.8359
 30
0.0
 10
60.0319
 20
88.8359
 30
0.0
 10
58.8271
 20
90.7796
 30
0.0
 10
54.8406
 20
91.652
 30
0.0
 10
53.0993
 20
89.2755
 30
0.0
 10
53.0993
 20
89.2755
 30
0.0
 10
51.2148
 20
92.6977
 30
0.0
 10
48.4849
 20
94.2007
 30
0.0
 10
46.0269
 20
94.5186
 30
0.0
 10
46.0269
 20
94.5186
 30
0.0
 10
46.0269
 20
94.5186
 30
0.0
 10
46.0268
 20
94.5186
 30
0.0
 10
46.0268
 20
94.5186
 30
0.0
  0
SPLINE
  5
4C
330
1F
100
AcDbEntity
  8
layer 1
 62
     7
100
AcDbSpline
210
0.0
220
0.0
230
1.0
 70
    11
 71
     3
 72
    20
 73
    16
 74
     0
 42
0.0000000001
 43
0.0000000001
 12
1.0
 22
0.0
 32
0.0
 13
1.0
 23
0.0
 33
0.0
 40
0.0
 40
0.0
 40
0.0
 40
0.0
 40
0.2
 40
0.2
 40
0.2
 40
0.2
 40
0.4
 40
0.4
 40
0.4
 40
0.4
 40
0.6
 40
0.6
 40
0.6
 40
0.6
 40
1.0
 40
1.0
 40
1.0
 40
1.0
 10
27.3368
 20
94.5186
 30
0.0
 10
27.3368
 20
94.5186
 30
0.0
 10
41.0215
 20
94.5186
 30
0.0
 10
41.0215
 20
94.5186
 30
0.0
 10
41.0215
 20
94.5186
 30
0.0
 10
37.0833
 20
93.7075
 30
0.0
 10
32.7219
 20
90.8625
 30
0.0
 10
30.9428
 20
86.3184
 30
0.0
 10
30.9428
 20
86.3184
 30
0.0
 10
29.9837
 20
90.2273
 30
0.0
 10
28.3904
 20
93.0455
 30
0.0
 10
27.3367
 20
94.5186
 30
0.0
 10
27.3367
 20
94.5186
 30
0.0
 10
27.3367
 20
94.5186
 30
0.0
 10
27.3368
 20
94.5186
 30
0.0
 10
27.3368
 20
94.5186
 30
0.0
  0
SPLINE
  5
4D
330
1F
100
AcDbEntity
  8
layer 1
 62
     7
100
AcDbSpline
210
0.0
220
0.0
230
1.0
 70
    11
 71
     3
 72
    16
 73
    12
 74
     0
 42
0.0000000001
 43
0.0000000001
 12
1.0
 22
0.0
 32
0.0
 13
1.0
 23
0.0
 33
0.0
 40
0.0
 40
0.0
 40
0.0
 40
0.0
 40
0.25
 40
0.25
 40
0.25
 40
0.25
 40
0.5
 40
0.5
 40
0.5
 40
0.5
 40
1.0
 40
1.0
 40
1.0
 40
1.0
 10
60.1068
 20
70.4695
 30
0.0
 10
63.5956
 20
74.9335
 30
0.0
 10
66.266
 20
78.1702
 30
0.0
 10
67.3818
 20
82.1433
 30
0.0
 10
67.3818
 20
82.1433
 30
0.0
 10
67.1258
 20
78.1683
 30
0.0
 10
68.6285
 20
74.5869
 30
0.0
 10
72.659
 20
70.8611
 30
0.0
 10
72.659
 20
70.8611
 30
0.0
 10
68.2634
 20
72.288
 30
0.0
 10
63.9425
 20
71.915
 30
0.0
 10
60.1068
 20
70.4695
 30
0.0
  0
SPLINE
  5
4E
330
1F
100
AcDbEntity
  8
layer 1
 62
     7
100
AcDbSpline
210
0.0
220
0.0
230
1.0
 70
    11
 71
     3
 72
    24
 73
    20
 74
     0
 42
0.0000000001
 43
0.0000000001
 12
1.0
 22
0.0
 32
0.0
 13
1.0
 23
0.0
 33
0.0
 40
0.0
 40
0.0
 40
0.0
 40
0.0
 40
0.1666666666666667
 40
0.1666666666666667
 40
0.1666666666666667
 40
0.1666666666666667
 40
0.3333333333333333
 40
0.3333333333333333
 40
0.3333333333333333
 40
0.3333333333333333
 40
0.5
 40
0.5
 40
0.5
 40
0.5
 40
0.6666666666666666
 40
0.6666666666666666
 40
0.6666666666666666
 40
0.6666666666666666
 40
1.0
 40
1.0
 40
1.0
 40
1.0
 10
42.605
 20
66.8217
 30
0.0
 10
47.9599
 20
66.1617
 30
0.0
 10
49.7753
 20
66.4346
 30
0.0
 10
53.7341
 20
67.9494
 30
0.0
 10
53.7341
 20
67.9494
 30
0.0
 10
54.5449
 20
68.2596
 30
0.0
 10
55.0377
 20
67.8088
 30
0.0
 10
54.2263
 20
67.3191
 30
0.0
 10
54.2263
 20
67.3191
 30
0.0
 10
49.818
 20
64.78
 30
0.0
 10
49.1864
 20
60.3448
 30
0.0
 10
47.163
 20
59.219
 30
0.0
 10
47.163
 20
59.219
 30
0.0
 10
46.3763
 20
64.2161
 30
0.0
 10
43.957
 20
64.5416
 30
0.0
 10
42.6049
 20
66.8217
 30
0.0
 10
42.6049
 20
66.8217
 30
0.0
 10
42.6049
 20
66.8217
 30
0.0
 10
42.605
 20
66.8217
 30
0.0
 10
42.605
 20
66.8217
 30
0.0
  0
SPLINE
  5
4F
330
1F
100
AcDbEntity
  8
layer 1
 62
     7
100
AcDbSpline
210
0.0
220
0.0
230
1.0
 70
    11
 71
     3
 72
    16
 73
    12
 74
     0
 42
0.0000000001
 43
0.0000000001
 12
1.0
 22
0.0
 32
0.0
 13
1.0
 23
0.0
 33
0.0
 40
0.0
 40
0.0
 40
0.0
 40
0.0
 40
0.25
 40
0.25
 40
0.25
 40
0.25
 40
0.5
 40
0.5
 40
0.5
 40
0.5
 40
1.0
 40
1.0
 40
1.0
 40
1.0
 10
22.9685
 20
60.9101
 30
0.0
 10
22.9685
 20
60.9101
 30
0.0
 10
22.9685
 20
50.5059
 30
0.0
 10
22.9685
 20
50.5059
 30
0.0
 10
22.9685
 20
50.5059
 30
0.0
 10
25.2611
 20
50.264
 30
0.0
 10
27.7357
 20
52.5618
 30
0.0
 10
30.0046
 20
55.4521
 30
0.0
 10
30.0046
 20
55.4521
 30
0.0
 10
25.8312
 20
55.4587
 30
0.0
 10
23.9654
 20
56.7875
 30
0.0
 10
22.9685
 20
60.9101
 30
0.0
  0
SPLINE
  5
50
330
1F
100
AcDbEntity
  8
layer 1
 62
     7
100
AcDbSpline
210
0.0
220
0.0
230
1.0
 70
    11
 71
     3
 72
    28
 73
    24
 74
     0
 42
0.0000000001
 43
0.0000000001
 12
1.0
 22
0.0
 32
0.0
 13
1.0
 23
0.0
 33
0.0
 40
0.0
 40
0.0
 40
0.0
 40
0.0
 40
0.1428571428571428
 40
0.1428571428571428
 40
0.1428571428571428
 40
0.1428571428571428
 40
0.2857142857142857
 40
0.2857142857142857
 40
0.2857142857142857
 40
0.2857142857142857
 40
0.4285714285714285
 40
0.4285714285714285
 40
0.4285714285714285
 40
0.4285714285714285
 40
0.5714285714285714
 40
0.5714285714285714
 40
0.5714285714285714
 40
0.5714285714285714
 40
0.7142857142857143
 40
0.7142857142857143
 40
0.7142857142857143
 40
0.7142857142857143
 40
1.0
 40
1.0
 40
1.0
 40
1.0
 10
22.9685
 20
77.4717
 30
0.0
 10
22.9685
 20
77.4717
 30
0.0
 10
22.9685
 20
62.2525
 30
0.0
 10
22.9685
 20
62.2525
 30
0.0
 10
22.9685
 20
62.2525
 30
0.0
 10
23.9383
 20
66.6669
 30
0.0
 10
26.6775
 20
67.6948
 30
0.0
 10
28.3114
 20
67.622
 30
0.0
 10
28.3114
 20
67.622
 30
0.0
 10
26.5958
 20
61.7493
 30
0.0
 10
30.9928
 20
59.3848
 30
0.0
 10
36.6923
 20
56.0125
 30
0.0
 10
36.6923
 20
56.0125
 30
0.0
 10
34.1218
 20
61.1078
 30
0.0
 10
37.7027
 20
65.2081
 30
0.0
 10
40.2906
 20
66.8396
 30
0.0
 10
40.2906
 20
66.8396
 30
0.0
 10
33.4518
 20
67.2118
 30
0.0
 10
26.1614
 20
69.1713
 30
0.0
 10
22.9685
 20
77.4716
 30
0.0
 10
22.9685
 20
77.4716
 30
0.0
 10
22.9685
 20
77.4716
 30
0.0
 10
22.9685
 20
77.4717
 30
0.0
 10
22.9685
 20
77.4717
 30
0.0
  0
SPLINE
  5
51
330
1F
100
AcDbEntity
  8
layer 1
 62
     7
100
AcDbSpline
210
0.0
220
0.0
230
1.0
 70
    11
 71
     3
 72
    44
 73
    40
 74
     0
 42
0.0000000001
 43
0.0000000001
 12
1.0
 22
0.0
 32
0.0
 13
1.0
 23
0.0
 33
0.0
 40
0.0
 40
0.0
 40
0.0
 40
0.0
 40
0.0909090909090909
 40
0.0909090909090909
 40
0.0909090909090909
 40
0.0909090909090909
 40
0.1818181818181818
 40
0.1818181818181818
 40
0.1818181818181818
 40
0.1818181818181818
 40
0.2727272727272727
 40
0.2727272727272727
 40
0.2727272727272727
 40
0.2727272727272727
 40
0.3636363636363636
 40
0.3636363636363636
 40
0.3636363636363636
 40
0.3636363636363636
 40
0.4545454545454545
 40
0.4545454545454545
 40
0.4545454545454545
 40
0.4545454545454545
 40
0.5454545454545454
 40
0.5454545454545454
 40
0.5454545454545454
 40
0.5454545454545454
 40
0.6363636363636364
 40
0.6363636363636364
 40
0.6363636363636364
 40
0.6363636363636364
 40
0.7272727272727273
 40
0.7272727272727273
 40
0.7272727272727273
 40
0.7272727272727273
 40
0.8181818181818182
 40
0.8181818181818182
 40
0.8181818181818182
 40
0.8181818181818182
 40
1.0
 40
1.0
 40
1.0
 40
1.0
 10
22.9685
 20
48.8461
 30
0.0
 10
22.9685
 20
48.8461
 30
0.0
 10
22.9685
 20
22.6741
 30
0.0
 10
22.9685
 20
22.6741
 30
0.0
 10
22.9685
 20
22.6741
 30
0.0
 10
24.0103
 20
22.6729
 30
0.0
 10
25.9062
 20
23.3024
 30
0.0
 10
24.5201
 20
25.2069
 30
0.0
 10
24.5201
 20
25.2069
 30
0.0
 10
25.1519
 20
25.8639
 30
0.0
 10
25.8723
 20
26.7804
 30
0.0
 10
28.5039
 20
27.3886
 30
0.0
 10
28.5039
 20
27.3886
 30
0.0
 10
27.2616
 20
27.7849
 30
0.0
 10
26.2296
 20
29.4507
 30
0.0
 10
26.055
 20
30.7838
 30
0.0
 10
26.055
 20
30.7838
 30
0.0
 10
26.5562
 20
31.4475
 30
0.0
 10
30.1541
 20
31.5621
 30
0.0
 10
31.9082
 20
31.2777
 30
0.0
 10
31.9082
 20
31.2777
 30
0.0
 10
30.8223
 20
33.722
 30
0.0
 10
31.1221
 20
35.5318
 30
0.0
 10
31.9843
 20
36.75
 30
0.0
 10
31.9843
 20
36.75
 30
0.0
 10
33.0061
 20
35.8952
 30
0.0
 10
33.9231
 20
35.2827
 30
0.0
 10
34.8377
 20
35.1476
 30
0.0
 10
34.8377
 20
35.1476
 30
0.0
 10
31.6212
 20
39.9853
 30
0.0
 10
35.0102
 20
44.4286
 30
0.0
 10
37.1476
 20
46.3513
 30
0.0
 10
37.1476
 20
46.3513
 30
0.0
 10
32.6566
 20
44.0298
 30
0.0
 10
29.8913
 20
46.6814
 30
0.0
 10
22.9683
 20
48.8462
 30
0.0
 10
22.9683
 20
48.8462
 30
0.0
 10
22.9683
 20
48.8462
 30
0.0
 10
22.9685
 20
48.8461
 30
0.0
 10
22.9685
 20
48.8461
 30
0.0
  0
SPLINE
  5
52
330
1F
100
AcDbEntity
  8
layer 1
 62
     7
100
AcDbSpline
210
0.0
220
0.0
230
1.0
 70
    11
 71
     3
 72
   124
 73
   120
 74
     0
 42
0.0000000001
 43
0.0000000001
 12
1.0
 22
0.0
 32
0.0
 13
1.0
 23
0.0
 33
0.0
 40
0.0
 40
0.0
 40
0.0
 40
0.0
 40
0.032258064516129
 40
0.032258064516129
 40
0.032258064516129
 40
0.032258064516129
 40
0.0645161290322581
 40
0.0645161290322581
 40
0.0645161290322581
 40
0.0645161290322581
 40
0.0967741935483871
 40
0.0967741935483871
 40
0.0967741935483871
 40
0.0967741935483871
 40
0.1290322580645161
 40
0.1290322580645161
 40
0.1290322580645161
 40
0.1290322580645161
 40
0.1612903225806452
 40
0.1612903225806452
 40
0.1612903225806452
 40
0.1612903225806452
 40
0.1935483870967742
 40
0.1935483870967742
 40
0.1935483870967742
 40
0.1935483870967742
 40
0.2258064516129032
 40
0.2258064516129032
 40
0.2258064516129032
 40
0.2258064516129032
 40
0.2580645161290323
 40
0.2580645161290323
 40
0.2580645161290323
 40
0.2580645161290323
 40
0.2903225806451613
 40
0.2903225806451613
 40
0.2903225806451613
 40
0.2903225806451613
 40
0.3225806451612903
 40
0.3225806451612903
 40
0.3225806451612903
 40
0.3225806451612903
 40
0.3548387096774194
 40
0.3548387096774194
 40
0.3548387096774194
 40
0.3548387096774194
 40
0.3870967741935484
 40
0.3870967741935484
 40
0.3870967741935484
 40
0.3870967741935484
 40
0.4193548387096774
 40
0.4193548387096774
 40
0.4193548387096774
 40
0.4193548387096774
 40
0.4516129032258064
 40
0.4516129032258064
 40
0.4516129032258064
 40
0.4516129032258064
 40
0.4838709677419355
 40
0.4838709677419355
 40
0.4838709677419355
 40
0.4838709677419355
 40
0.5161290322580645
 40
0.5161290322580645
 40
0.5161290322580645
 40
0.5161290322580645
 40
0.5483870967741935
 40
0.5483870967741935
 40
0.5483870967741935
 40
0.5483870967741935
 40
0.5806451612903226
 40
0.5806451612903226
 40
0.5806451612903226
 40
0.5806451612903226
 40
0.6129032258064516
 40
0.6129032258064516
 40
0.6129032258064516
 40
0.6129032258064516
 40
0.6451612903225806
 40
0.6451612903225806
 40
0.6451612903225806
 40
0.6451612903225806
 40
0.6774193548387096
 40
0.6774193548387096
 40
0.6774193548387096
 40
0.6774193548387096
 40
0.7096774193548387
 40
0.7096774193548387
 40
0.7096774193548387
 40
0.7096774193548387
 40
0.7419354838709677
 40
0.7419354838709677
 40
0.7419354838709677
 40
0.7419354838709677
 40
0.7741935483870968
 40
0.7741935483870968
 40
0.7741935483870968
 40
0.7741935483870968
 40
0.8064516129032258
 40
0.8064516129032258
 40
0.8064516129032258
 40
0.8064516129032258
 40
0.8387096774193549
 40
0.8387096774193549
 40
0.8387096774193549
 40
0.8387096774193549
 40
0.8709677419354839
 40
0.8709677419354839
 40
0.8709677419354839
 40
0.8709677419354839
 40
0.9032258064516129
 40
0.9032258064516129
 40
0.9032258064516129
 40
0.9032258064516129
 40
0.9354838709677419
 40
0.9354838709677419
 40
0.9354838709677419
 40
0.9354838709677419
 40
1.0
 40
1.0
 40
1.0
 40
1.0
 10
51.5759
 20
16.7523
 30
0.0
 10
59.9249
 20
17.2041
 30
0.0
 10
58.0737
 20
20.5654
 30
0.0
 10
67.2296
 20
17.563
 30
0.0
 10
67.2296
 20
17.563
 30
0.0
 10
67.8192
 20
17.3769
 30
0.0
 10
68.0043
 20
17.9375
 30
0.0
 10
67.4695
 20
18.1648
 30
0.0
 10
67.4695
 20
18.1648
 30
0.0
 10
60.1819
 20
21.358
 30
0.0
 10
51.3903
 20
25.466
 30
0.0
 10
43.9296
 20
26.2497
 30
0.0
 10
43.9296
 20
26.2497
 30
0.0
 10
45.0936
 20
24.923
 30
0.0
 10
45.4648
 20
23.0366
 30
0.0
 10
44.3253
 20
21.0831
 30
0.0
 10
44.3253
 20
21.0831
 30
0.0
 10
43.7394
 20
21.1459
 30
0.0
 10
43.3989
 20
21.5845
 30
0.0
 10
42.9187
 20
22.2676
 30
0.0
 10
42.9187
 20
22.2676
 30
0.0
 10
43.0392
 20
20.164
 30
0.0
 10
41.4164
 20
17.7539
 30
0.0
 10
39.7819
 20
16.6749
 30
0.0
 10
39.7819
 20
16.6749
 30
0.0
 10
38.2139
 20
17.047
 30
0.0
 10
36.9796
 20
19.3958
 30
0.0
 10
37.264
 20
21.1501
 30
0.0
 10
37.264
 20
21.1501
 30
0.0
 10
36.4131
 20
19.7627
 30
0.0
 10
35.68
 20
18.5121
 30
0.0
 10
33.902
 20
18.3838
 30
0.0
 10
33.902
 20
18.3838
 30
0.0
 10
32.6895
 20
18.975
 30
0.0
 10
32.7421
 20
20.9686
 30
0.0
 10
32.8774
 20
21.8833
 30
0.0
 10
32.8774
 20
21.8833
 30
0.0
 10
32.1581
 20
20.6349
 30
0.0
 10
31.0163
 20
19.5637
 30
0.0
 10
29.3647
 20
18.6721
 30
0.0
 10
29.3647
 20
18.6721
 30
0.0
 10
28.6405
 20
18.9928
 30
0.0
 10
27.7363
 20
20.3132
 30
0.0
 10
27.2291
 20
20.877
 30
0.0
 10
27.2291
 20
20.877
 30
0.0
 10
27.197
 20
20.3362
 30
0.0
 10
27.7206
 20
18.726
 30
0.0
 10
26.4274
 20
18.2255
 30
0.0
 10
26.4274
 20
18.2255
 30
0.0
 10
25.3287
 20
17.8003
 30
0.0
 10
23.4198
 20
17.3129
 30
0.0
 10
22.9685
 20
17.292
 30
0.0
 10
22.9685
 20
17.292
 30
0.0
 10
22.9685
 20
17.292
 30
0.0
 10
22.9685
 20
14.4066
 30
0.0
 10
22.9685
 20
14.4066
 30
0.0
 10
22.9685
 20
14.4066
 30
0.0
 10
22.9685
 20
14.4066
 30
0.0
 10
22.9685
 20
11.5212
 30
0.0
 10
22.9685
 20
11.5212
 30
0.0
 10
22.9685
 20
11.5212
 30
0.0
 10
23.4198
 20
11.5003
 30
0.0
 10
25.3287
 20
11.0129
 30
0.0
 10
26.4274
 20
10.5877
 30
0.0
 10
26.4274
 20
10.5877
 30
0.0
 10
27.7206
 20
10.0872
 30
0.0
 10
27.197
 20
8.4769
 30
0.0
 10
27.2291
 20
7.9362
 30
0.0
 10
27.2291
 20
7.9362
 30
0.0
 10
27.7363
 20
8.5
 30
0.0
 10
28.6405
 20
9.8203
 30
0.0
 10
29.3647
 20
10.1411
 30
0.0
 10
29.3647
 20
10.1411
 30
0.0
 10
31.0162
 20
9.2495
 30
0.0
 10
32.158
 20
8.1784
 30
0.0
 10
32.8774
 20
6.9299
 30
0.0
 10
32.8774
 20
6.9299
 30
0.0
 10
32.7421
 20
7.8446
 30
0.0
 10
32.6895
 20
9.8383
 30
0.0
 10
33.902
 20
10.4294
 30
0.0
 10
33.902
 20
10.4294
 30
0.0
 10
35.68
 20
10.3011
 30
0.0
 10
36.4131
 20
9.0505
 30
0.0
 10
37.264
 20
7.6631
 30
0.0
 10
37.264
 20
7.6631
 30
0.0
 10
36.9796
 20
9.4173
 30
0.0
 10
38.2138
 20
11.7662
 30
0.0
 10
39.7819
 20
12.1383
 30
0.0
 10
39.7819
 20
12.1383
 30
0.0
 10
41.4164
 20
11.0592
 30
0.0
 10
43.0392
 20
8.6492
 30
0.0
 10
42.9187
 20
6.5456
 30
0.0
 10
42.9187
 20
6.5456
 30
0.0
 10
43.3989
 20
7.2286
 30
0.0
 10
43.7394
 20
7.6673
 30
0.0
 10
44.3253
 20
7.7301
 30
0.0
 10
44.3253
 20
7.7301
 30
0.0
 10
45.4649
 20
5.7766
 30
0.0
 10
45.0936
 20
3.8902
 30
0.0
 10
43.9296
 20
2.5634
 30
0.0
 10
43.9296
 20
2.5634
 30
0.0
 10
51.3903
 20
3.3472
 30
0.0
 10
60.1819
 20
7.4552
 30
0.0
 10
67.4695
 20
10.6484
 30
0.0
 10
67.4695
 20
10.6484
 30
0.0
 10
68.0043
 20
10.8757
 30
0.0
 10
67.8192
 20
11.4363
 30
0.0
 10
67.2296
 20
11.2502
 30
0.0
 10
67.2296
 20
11.2502
 30
0.0
 10
58.0737
 20
8.2478
 30
0.0
 10
59.9249
 20
11.609
 30
0.0
 10
51.5759
 20
12.0609
 30
0.0
 10
51.5759
 20
12.0609
 30
0.0
 10
49.9146
 20
12.1508
 30
0.0
 10
49.1529
 20
13.1366
 30
0.0
 10
49.2119
 20
14.4066
 30
0.0
 10
49.2119
 20
14.4066
 30
0.0
 10
49.1529
 20
15.6766
 30
0.0
 10
49.9146
 20
16.6624
 30
0.0
 10
51.5759
 20
16.7523
 30
0.0
  0
SPLINE
  5
53
330
1F
100
AcDbEntity
  8
layer 1
 62
     7
100
AcDbSpline
210
0.0
220
0.0
230
1.0
 70
    11
 71
     3
 72
    24
 73
    20
 74
     0
 42
0.0000000001
 43
0.0000000001
 12
1.0
 22
0.0
 32
0.0
 13
1.0
 23
0.0
 33
0.0
 40
0.0
 40
0.0
 40
0.0
 40
0.0
 40
0.1666666666666667
 40
0.1666666666666667
 40
0.1666666666666667
 40
0.1666666666666667
 40
0.3333333333333333
 40
0.3333333333333333
 40
0.3333333333333333
 40
0.3333333333333333
 40
0.5
 40
0.5
 40
0.5
 40
0.5
 40
0.6666666666666666
 40
0.6666666666666666
 40
0.6666666666666666
 40
0.6666666666666666
 40
1.0
 40
1.0
 40
1.0
 40
1.0
 10
44.2366
 20
40.4191
 30
0.0
 10
45.8707
 20
35.3861
 30
0.0
 10
49.4131
 20
30.9969
 30
0.0
 10
54.5016
 20
26.867
 30
0.0
 10
54.5016
 20
26.867
 30
0.0
 10
50.1252
 20
29.5829
 30
0.0
 10
44.8912
 20
29.7073
 30
0.0
 10
42.8917
 20
29.4301
 30
0.0
 10
42.8917
 20
29.4301
 30
0.0
 10
44.9764
 20
31.7012
 30
0.0
 10
40.4604
 20
32.4879
 30
0.0
 10
40.0841
 20
35.5305
 30
0.0
 10
40.0841
 20
35.5305
 30
0.0
 10
39.0699
 20
35.5056
 30
0.0
 10
38.9997
 20
35.1076
 30
0.0
 10
38.1695
 20
34.4961
 30
0.0
 10
38.1695
 20
34.4961
 30
0.0
 10
36.8925
 20
37.5156
 30
0.0
 10
42.116
 20
38.0252
 30
0.0
 10
44.2366
 20
40.4191
 30
0.0
  0
SPLINE
  5
54
330
1F
100
AcDbEntity
  8
layer 1
 62
     7
100
AcDbSpline
210
0.0
220
0.0
230
1.0
 70
    11
 71
     3
 72
    20
 73
    16
 74
     0
 42
0.0000000001
 43
0.0000000001
 12
1.0
 22
0.0
 32
0.0
 13
1.0
 23
0.0
 33
0.0
 40
0.0
 40
0.0
 40
0.0
 40
0.0
 40
0.2
 40
0.2
 40
0.2
 40
0.2
 40
0.4
 40
0.4
 40
0.4
 40
0.4
 40
0.6
 40
0.6
 40
0.6
 40
0.6
 40
1.0
 40
1.0
 40
1.0
 40
1.0
 10
47.4456
 20
41.4035
 30
0.0
 10
49.6032
 20
38.5665
 30
0.0
 10
51.0837
 20
40.4115
 30
0.0
 10
54.7206
 20
38.939
 30
0.0
 10
54.7206
 20
38.939
 30
0.0
 10
53.4763
 20
38.1911
 30
0.0
 10
51.5303
 20
36.2029
 30
0.0
 10
52.6565
 20
32.8199
 30
0.0
 10
52.6565
 20
32.8199
 30
0.0
 10
50.9835
 20
35.3158
 30
0.0
 10
47.8123
 20
38.8756
 30
0.0
 10
47.4456
 20
41.4034
 30
0.0
 10
47.4456
 20
41.4034
 30
0.0
 10
47.4456
 20
41.4034
 30
0.0
 10
47.4456
 20
41.4035
 30
0.0
 10
47.4456
 20
41.4035
 30
0.0
  0
SPLINE
  5
55
330
1F
100
AcDbEntity
  8
layer 1
 62
     7
100
AcDbSpline
210
0.0
220
0.0
230
1.0
 70
    11
 71
     3
 72
    40
 73
    36
 74
     0
 42
0.0000000001
 43
0.0000000001
 12
1.0
 22
0.0
 32
0.0
 13
1.0
 23
0.0
 33
0.0
 40
0.0
 40
0.0
 40
0.0
 40
0.0
 40
0.1
 40
0.1
 40
0.1
 40
0.1
 40
0.2
 40
0.2
 40
0.2
 40
0.2
 40
0.3
 40
0.3
 40
0.3
 40
0.3
 40
0.4
 40
0.4
 40
0.4
 40
0.4
 40
0.5
 40
0.5
 40
0.5
 40
0.5
 40
0.6
 40
0.6
 40
0.6
 40
0.6
 40
0.7
 40
0.7
 40
0.7
 40
0.7
 40
0.8
 40
0.8
 40
0.8
 40
0.8
 40
1.0
 40
1.0
 40
1.0
 40
1.0
 10
22.9685
 20
84.6024
 30
0.0
 10
22.9685
 20
84.6024
 30
0.0
 10
22.9685
 20
80.6295
 30
0.0
 10
22.9685
 20
80.6295
 30
0.0
 10
22.9685
 20
80.6295
 30
0.0
 10
25.3712
 20
82.1
 30
0.0
 10
26.6179
 20
81.1017
 30
0.0
 10
27.5138
 20
79.4098
 30
0.0
 10
27.5138
 20
79.4098
 30
0.0
 10
28.365
 20
76.3987
 30
0.0
 10
29.751
 20
77.0543
 30
0.0
 10
28.7999
 20
75.0705
 30
0.0
 10
28.7999
 20
75.0705
 30
0.0
 10
28.3955
 20
73.4976
 30
0.0
 10
29.0803
 20
74.0
 30
0.0
 10
30.7365
 20
73.4156
 30
0.0
 10
30.7365
 20
73.4156
 30
0.0
 10
31.0842
 20
73.293
 30
0.0
 10
31.3648
 20
72.6599
 30
0.0
 10
31.7971
 20
72.3427
 30
0.0
 10
31.7971
 20
72.3427
 30
0.0
 10
32.2886
 20
71.9821
 30
0.0
 10
32.9074
 20
71.7393
 30
0.0
 10
33.5419
 20
71.5688
 30
0.0
 10
33.5419
 20
71.5688
 30
0.0
 10
27.9675
 20
79.4115
 30
0.0
 10
30.0831
 20
87.6147
 30
0.0
 10
25.7473
 20
88.9166
 30
0.0
 10
25.7473
 20
88.9166
 30
0.0
 10
27.9935
 20
86.4315
 30
0.0
 10
25.9415
 20
83.2989
 30
0.0
 10
22.9684
 20
84.6024
 30
0.0
 10
22.9684
 20
84.6024
 30
0.0
 10
22.9684
 20
84.6024
 30
0.0
 10
22.9685
 20
84.6024
 30
0.0
 10
22.9685
 20
84.6024
 30
0.0
  0
SPLINE
  5
56
330
1F
100
AcDbEntity
  8
layer 1
 62
     7
100
AcDbSpline
210
0.0
220
0.0
230
1.0
 70
    11
 71
     3
 72
    28
 73
    24
 74
     0
 42
0.0000000001
 43
0.0000000001
 12
1.0
 22
0.0
 32
0.0
 13
1.0
 23
0.0
 33
0.0
 40
0.0
 40
0.0
 40
0.0
 40
0.0
 40
0.1428571428571428
 40
0.1428571428571428
 40
0.1428571428571428
 40
0.1428571428571428
 40
0.2857142857142857
 40
0.2857142857142857
 40
0.2857142857142857
 40
0.2857142857142857
 40
0.4285714285714285
 40
0.4285714285714285
 40
0.4285714285714285
 40
0.4285714285714285
 40
0.5714285714285714
 40
0.5714285714285714
 40
0.5714285714285714
 40
0.5714285714285714
 40
0.7142857142857143
 40
0.7142857142857143
 40
0.7142857142857143
 40
0.7142857142857143
 40
1.0
 40
1.0
 40
1.0
 40
1.0
 10
75.1317
 20
87.3079
 30
0.0
 10
77.2236
 20
92.387
 30
0.0
 10
83.876
 20
92.5831
 30
0.0
 10
87.6045
 20
91.2956
 30
0.0
 10
87.6045
 20
91.2956
 30
0.0
 10
88.425
 20
91.0122
 30
0.0
 10
88.4092
 20
90.5599
 30
0.0
 10
87.5977
 20
90.0703
 30
0.0
 10
87.5977
 20
90.0703
 30
0.0
 10
86.7769
 20
89.5609
 30
0.0
 10
87.0546
 20
88.941
 30
0.0
 10
86.9589
 20
88.3379
 30
0.0
 10
86.9589
 20
88.3379
 30
0.0
 10
86.7821
 20
87.5909
 30
0.0
 10
85.917
 20
88.0182
 30
0.0
 10
85.3138
 20
88.2275
 30
0.0
 10
85.3138
 20
88.2275
 30
0.0
 10
80.9186
 20
89.5201
 30
0.0
 10
77.0405
 20
86.3906
 30
0.0
 10
75.1318
 20
87.3079
 30
0.0
 10
75.1318
 20
87.3079
 30
0.0
 10
75.1318
 20
87.3079
 30
0.0
 10
75.1317
 20
87.3079
 30
0.0
 10
75.1317
 20
87.3079
 30
0.0
  0
SPLINE
  5
57
330
1F
100
AcDbEntity
  8
layer 1
 62
     7
100
AcDbSpline
210
0.0
220
0.0
230
1.0
 70
    11
 71
     3
 72
    28
 73
    24
 74
     0
 42
0.0000000001
 43
0.0000000001
 12
1.0
 22
0.0
 32
0.0
 13
1.0
 23
0.0
 33
0.0
 40
0.0
 40
0.0
 40
0.0
 40
0.0
 40
0.1428571428571428
 40
0.1428571428571428
 40
0.1428571428571428
 40
0.1428571428571428
 40
0.2857142857142857
 40
0.2857142857142857
 40
0.2857142857142857
 40
0.2857142857142857
 40
0.4285714285714285
 40
0.4285714285714285
 40
0.4285714285714285
 40
0.4285714285714285
 40
0.5714285714285714
 40
0.5714285714285714
 40
0.5714285714285714
 40
0.5714285714285714
 40
0.7142857142857143
 40
0.7142857142857143
 40
0.7142857142857143
 40
0.7142857142857143
 40
1.0
 40
1.0
 40
1.0
 40
1.0
 10
79.0041
 20
71.991
 30
0.0
 10
70.9415
 20
71.6457
 30
0.0
 10
68.7185
 20
80.9231
 30
0.0
 10
71.4284
 20
85.6053
 30
0.0
 10
71.4284
 20
85.6053
 30
0.0
 10
71.7777
 20
83.8544
 30
0.0
 10
74.1617
 20
82.4025
 30
0.0
 10
75.8811
 20
83.4354
 30
0.0
 10
75.8811
 20
83.4354
 30
0.0
 10
73.3462
 20
80.4753
 30
0.0
 10
73.6568
 20
76.2529
 30
0.0
 10
76.3426
 20
75.2334
 30
0.0
 10
76.3426
 20
75.2334
 30
0.0
 10
77.3666
 20
75.0452
 30
0.0
 10
77.8904
 20
74.8472
 30
0.0
 10
77.9025
 20
74.0445
 30
0.0
 10
77.9025
 20
74.0445
 30
0.0
 10
77.9558
 20
73.0032
 30
0.0
 10
78.382
 20
72.3771
 30
0.0
 10
79.0042
 20
71.991
 30
0.0
 10
79.0042
 20
71.991
 30
0.0
 10
79.0042
 20
71.991
 30
0.0
 10
79.0041
 20
71.991
 30
0.0
 10
79.0041
 20
71.991
 30
0.0
  0
SPLINE
  5
58
330
1F
100
AcDbEntity
  8
layer 1
 62
     7
100
AcDbSpline
210
0.0
220
0.0
230
1.0
 70
    11
 71
     3
 72
    48
 73
    44
 74
     0
 42
0.0000000001
 43
0.0000000001
 12
1.0
 22
0.0
 32
0.0
 13
1.0
 23
0.0
 33
0.0
 40
0.0
 40
0.0
 40
0.0
 40
0.0
 40
0.0833333333333333
 40
0.0833333333333333
 40
0.0833333333333333
 40
0.0833333333333333
 40
0.1666666666666667
 40
0.1666666666666667
 40
0.1666666666666667
 40
0.1666666666666667
 40
0.25
 40
0.25
 40
0.25
 40
0.25
 40
0.3333333333333333
 40
0.3333333333333333
 40
0.3333333333333333
 40
0.3333333333333333
 40
0.4166666666666667
 40
0.4166666666666667
 40
0.4166666666666667
 40
0.4166666666666667
 40
0.5
 40
0.5
 40
0.5
 40
0.5
 40
0.5833333333333334
 40
0.5833333333333334
 40
0.5833333333333334
 40
0.5833333333333334
 40
0.6666666666666666
 40
0.6666666666666666
 40
0.6666666666666666
 40
0.6666666666666666
 40
0.75
 40
0.75
 40
0.75
 40
0.75
 40
0.8333333333333334
 40
0.8333333333333334
 40
0.8333333333333334
 40
0.8333333333333334
 40
1.0
 40
1.0
 40
1.0
 40
1.0
 10
48.1353
 20
78.0943
 30
0.0
 10
52.9806
 20
79.9506
 30
0.0
 10
54.8758
 20
83.4244
 30
0.0
 10
53.3918
 20
88.2028
 30
0.0
 10
53.3918
 20
88.2028
 30
0.0
 10
56.2135
 20
88.3512
 30
0.0
 10
56.5286
 20
86.6426
 30
0.0
 10
56.7913
 20
85.976
 30
0.0
 10
56.7913
 20
85.976
 30
0.0
 10
57.131
 20
85.2049
 30
0.0
 10
57.4959
 20
83.8418
 30
0.0
 10
59.2432
 20
84.1846
 30
0.0
 10
59.2432
 20
84.1846
 30
0.0
 10
59.9228
 20
84.318
 30
0.0
 10
60.6803
 20
84.8392
 30
0.0
 10
60.571
 20
82.8603
 30
0.0
 10
60.571
 20
82.8603
 30
0.0
 10
60.5
 20
81.574
 30
0.0
 10
60.7287
 20
81.0102
 30
0.0
 10
62.0891
 20
81.3381
 30
0.0
 10
62.0891
 20
81.3381
 30
0.0
 10
63.4879
 20
81.6752
 30
0.0
 10
64.9397
 20
82.5971
 30
0.0
 10
64.7248
 20
82.4674
 30
0.0
 10
64.7248
 20
82.4674
 30
0.0
 10
63.1308
 20
77.6411
 30
0.0
 10
54.646
 20
69.9982
 30
0.0
 10
48.0427
 20
72.6812
 30
0.0
 10
48.0427
 20
72.6812
 30
0.0
 10
46.896
 20
73.0919
 30
0.0
 10
46.2575
 20
74.8947
 30
0.0
 10
47.8758
 20
75.5107
 30
0.0
 10
47.8758
 20
75.5107
 30
0.0
 10
49.0813
 20
76.0211
 30
0.0
 10
49.343
 20
76.5397
 30
0.0
 10
49.0926
 20
77.3319
 30
0.0
 10
49.0926
 20
77.3319
 30
0.0
 10
48.916
 20
77.6724
 30
0.0
 10
48.3659
 20
77.3934
 30
0.0
 10
48.1352
 20
78.0944
 30
0.0
 10
48.1352
 20
78.0944
 30
0.0
 10
48.1352
 20
78.0944
 30
0.0
 10
48.1353
 20
78.0943
 30
0.0
 10
48.1353
 20
78.0943
 30
0.0
  0
SPLINE
  5
59
330
1F
100
AcDbEntity
  8
layer 1
 62
     7
100
AcDbSpline
210
0.0
220
0.0
230
1.0
 70
    11
 71
     3
 72
    48
 73
    44
 74
     0
 42
0.0000000001
 43
0.0000000001
 12
1.0
 22
0.0
 32
0.0
 13
1.0
 23
0.0
 33
0.0
 40
0.0
 40
0.0
 40
0.0
 40
0.0
 40
0.0833333333333333
 40
0.0833333333333333
 40
0.0833333333333333
 40
0.0833333333333333
 40
0.1666666666666667
 40
0.1666666666666667
 40
0.1666666666666667
 40
0.1666666666666667
 40
0.25
 40
0.25
 40
0.25
 40
0.25
 40
0.3333333333333333
 40
0.3333333333333333
 40
0.3333333333333333
 40
0.3333333333333333
 40
0.4166666666666667
 40
0.4166666666666667
 40
0.4166666666666667
 40
0.4166666666666667
 40
0.5
 40
0.5
 40
0.5
 40
0.5
 40
0.5833333333333334
 40
0.5833333333333334
 40
0.5833333333333334
 40
0.5833333333333334
 40
0.6666666666666666
 40
0.6666666666666666
 40
0.6666666666666666
 40
0.6666666666666666
 40
0.75
 40
0.75
 40
0.75
 40
0.75
 40
0.8333333333333334
 40
0.8333333333333334
 40
0.8333333333333334
 40
0.8333333333333334
 40
1.0
 40
1.0
 40
1.0
 40
1.0
 10
48.8287
 20
87.7296
 30
0.0
 10
49.8601
 20
85.0343
 30
0.0
 10
48.3523
 20
82.4314
 30
0.0
 10
45.6462
 20
83.8476
 30
0.0
 10
45.6462
 20
83.8476
 30
0.0
 10
44.2754
 20
87.438
 30
0.0
 10
40.8433
 20
86.4714
 30
0.0
 10
39.5091
 20
84.1293
 30
0.0
 10
39.5091
 20
84.1293
 30
0.0
 10
38.3957
 20
82.1745
 30
0.0
 10
38.8926
 20
79.1377
 30
0.0
 10
41.8655
 20
78.1616
 30
0.0
 10
41.8655
 20
78.1616
 30
0.0
 10
40.8128
 20
77.7116
 30
0.0
 10
40.6489
 20
77.1986
 30
0.0
 10
40.8045
 20
76.3639
 30
0.0
 10
40.8045
 20
76.3639
 30
0.0
 10
40.8948
 20
75.8799
 30
0.0
 10
40.7892
 20
74.9397
 30
0.0
 10
39.6902
 20
75.0929
 30
0.0
 10
39.6902
 20
75.0929
 30
0.0
 10
38.9029
 20
75.2026
 30
0.0
 10
38.0007
 20
75.6927
 30
0.0
 10
37.7008
 20
75.2226
 30
0.0
 10
37.7008
 20
75.2226
 30
0.0
 10
37.2754
 20
74.5558
 30
0.0
 10
39.0714
 20
72.1805
 30
0.0
 10
39.2198
 20
71.8437
 30
0.0
 10
39.2198
 20
71.8437
 30
0.0
 10
39.5701
 20
71.0494
 30
0.0
 10
39.1034
 20
70.821
 30
0.0
 10
38.6148
 20
71.3207
 30
0.0
 10
38.6148
 20
71.3207
 30
0.0
 10
35.6548
 20
73.8791
 30
0.0
 10
30.1302
 20
80.67
 30
0.0
 10
36.6766
 20
87.9113
 30
0.0
 10
36.6766
 20
87.9113
 30
0.0
 10
41.9556
 20
92.8727
 30
0.0
 10
47.4776
 20
90.5194
 30
0.0
 10
48.8286
 20
87.7295
 30
0.0
 10
48.8286
 20
87.7295
 30
0.0
 10
48.8286
 20
87.7295
 30
0.0
 10
48.8287
 20
87.7296
 30
0.0
 10
48.8287
 20
87.7296
 30
0.0
  0
SPLINE
  5
5A
330
1F
100
AcDbEntity
  8
layer 1
 62
     7
100
AcDbSpline
210
0.0
220
0.0
230
1.0
 70
    11
 71
     3
 72
    44
 73
    40
 74
     0
 42
0.0000000001
 43
0.0000000001
 12
1.0
 22
0.0
 32
0.0
 13
1.0
 23
0.0
 33
0.0
 40
0.0
 40
0.0
 40
0.0
 40
0.0
 40
0.0909090909090909
 40
0.0909090909090909
 40
0.0909090909090909
 40
0.0909090909090909
 40
0.1818181818181818
 40
0.1818181818181818
 40
0.1818181818181818
 40
0.1818181818181818
 40
0.2727272727272727
 40
0.2727272727272727
 40
0.2727272727272727
 40
0.2727272727272727
 40
0.3636363636363636
 40
0.3636363636363636
 40
0.3636363636363636
 40
0.3636363636363636
 40
0.4545454545454545
 40
0.4545454545454545
 40
0.4545454545454545
 40
0.4545454545454545
 40
0.5454545454545454
 40
0.5454545454545454
 40
0.5454545454545454
 40
0.5454545454545454
 40
0.6363636363636364
 40
0.6363636363636364
 40
0.6363636363636364
 40
0.6363636363636364
 40
0.7272727272727273
 40
0.7272727272727273
 40
0.7272727272727273
 40
0.7272727272727273
 40
0.8181818181818182
 40
0.8181818181818182
 40
0.8181818181818182
 40
0.8181818181818182
 40
1.0
 40
1.0
 40
1.0
 40
1.0
 10
91.7411
 20
74.6775
 30
0.0
 10
93.5866
 20
79.1932
 30
0.0
 10
92.0528
 20
84.8802
 30
0.0
 10
88.3611
 20
86.8807
 30
0.0
 10
88.3611
 20
86.8807
 30
0.0
 10
89.8132
 20
86.3446
 30
0.0
 10
90.9634
 20
85.5592
 30
0.0
 10
92.2209
 20
85.7915
 30
0.0
 10
92.2209
 20
85.7915
 30
0.0
 10
93.287
 20
85.7711
 30
0.0
 10
92.9684
 20
84.6059
 30
0.0
 10
92.9684
 20
84.6059
 30
0.0
 10
92.9684
 20
84.6059
 30
0.0
 10
92.5993
 20
83.0983
 30
0.0
 10
93.527
 20
83.0979
 30
0.0
 10
94.5678
 20
83.3676
 30
0.0
 10
94.5678
 20
83.3676
 30
0.0
 10
95.6295
 20
83.657
 30
0.0
 10
96.3671
 20
83.5061
 30
0.0
 10
96.9725
 20
83.1974
 30
0.0
 10
96.9725
 20
83.1974
 30
0.0
 10
99.4977
 20
82.1756
 30
0.0
 10
101.8855
 20
79.8374
 30
0.0
 10
103.5984
 20
75.5869
 30
0.0
 10
103.5984
 20
75.5869
 30
0.0
 10
101.0705
 20
76.3773
 30
0.0
 10
100.0847
 20
78.7941
 30
0.0
 10
99.4815
 20
79.0034
 30
0.0
 10
99.4815
 20
79.0034
 30
0.0
 10
98.2815
 20
79.0902
 30
0.0
 10
97.8098
 20
76.6842
 30
0.0
 10
98.6743
 20
74.979
 30
0.0
 10
98.6743
 20
74.979
 30
0.0
 10
96.4637
 20
76.3053
 30
0.0
 10
93.3188
 20
75.8833
 30
0.0
 10
91.7412
 20
74.6776
 30
0.0
 10
91.7412
 20
74.6776
 30
0.0
 10
91.7412
 20
74.6776
 30
0.0
 10
91.7411
 20
74.6775
 30
0.0
 10
91.7411
 20
74.6775
 30
0.0
  0
SPLINE
  5
5B
330
1F
100
AcDbEntity
  8
layer 1
 62
     7
100
AcDbSpline
210
0.0
220
0.0
230
1.0
 70
    11
 71
     3
 72
    44
 73
    40
 74
     0
 42
0.0000000001
 43
0.0000000001
 12
1.0
 22
0.0
 32
0.0
 13
1.0
 23
0.0
 33
0.0
 40
0.0
 40
0.0
 40
0.0
 40
0.0
 40
0.0909090909090909
 40
0.0909090909090909
 40
0.0909090909090909
 40
0.0909090909090909
 40
0.1818181818181818
 40
0.1818181818181818
 40
0.1818181818181818
 40
0.1818181818181818
 40
0.2727272727272727
 40
0.2727272727272727
 40
0.2727272727272727
 40
0.2727272727272727
 40
0.3636363636363636
 40
0.3636363636363636
 40
0.3636363636363636
 40
0.3636363636363636
 40
0.4545454545454545
 40
0.4545454545454545
 40
0.4545454545454545
 40
0.4545454545454545
 40
0.5454545454545454
 40
0.5454545454545454
 40
0.5454545454545454
 40
0.5454545454545454
 40
0.6363636363636364
 40
0.6363636363636364
 40
0.6363636363636364
 40
0.6363636363636364
 40
0.7272727272727273
 40
0.7272727272727273
 40
0.7272727272727273
 40
0.7272727272727273
 40
0.8181818181818182
 40
0.8181818181818182
 40
0.8181818181818182
 40
0.8181818181818182
 40
1.0
 40
1.0
 40
1.0
 40
1.0
 10
77.6962
 20
62.4401
 30
0.0
 10
75.802
 20
66.4685
 30
0.0
 10
70.4509
 20
69.7584
 30
0.0
 10
64.6027
 20
69.1278
 30
0.0
 10
64.6027
 20
69.1278
 30
0.0
 10
69.3073
 20
67.7475
 30
0.0
 10
69.3956
 20
65.4161
 30
0.0
 10
66.7042
 20
65.5774
 30
0.0
 10
66.7042
 20
65.5774
 30
0.0
 10
68.05
 20
64.0494
 30
0.0
 10
69.4545
 20
59.9608
 30
0.0
 10
67.2253
 20
60.6173
 30
0.0
 10
67.2253
 20
60.6173
 30
0.0
 10
67.095
 20
61.4319
 30
0.0
 10
66.3042
 20
61.3299
 30
0.0
 10
66.1485
 20
60.6278
 30
0.0
 10
66.1485
 20
60.6278
 30
0.0
 10
65.9135
 20
59.5681
 30
0.0
 10
65.3949
 20
58.7841
 30
0.0
 10
64.3136
 20
58.567
 30
0.0
 10
64.3136
 20
58.567
 30
0.0
 10
65.9719
 20
57.517
 30
0.0
 10
66.4332
 20
56.1154
 30
0.0
 10
66.8165
 20
54.2703
 30
0.0
 10
66.8165
 20
54.2703
 30
0.0
 10
67.6145
 20
57.4367
 30
0.0
 10
69.9879
 20
58.7286
 30
0.0
 10
72.2726
 20
58.1223
 30
0.0
 10
72.2726
 20
58.1223
 30
0.0
 10
72.998
 20
57.9298
 30
0.0
 10
73.1918
 20
57.8307
 30
0.0
 10
74.0163
 20
58.0636
 30
0.0
 10
74.0163
 20
58.0636
 30
0.0
 10
69.718
 20
60.8491
 30
0.0
 10
74.4742
 20
65.8341
 30
0.0
 10
77.6961
 20
62.4401
 30
0.0
 10
77.6961
 20
62.4401
 30
0.0
 10
77.6961
 20
62.4401
 30
0.0
 10
77.6962
 20
62.4401
 30
0.0
 10
77.6962
 20
62.4401
 30
0.0
  0
SPLINE
  5
5C
330
1F
100
AcDbEntity
  8
layer 1
 62
     7
100
AcDbSpline
210
0.0
220
0.0
230
1.0
 70
    11
 71
     3
 72
    40
 73
    36
 74
     0
 42
0.0000000001
 43
0.0000000001
 12
1.0
 22
0.0
 32
0.0
 13
1.0
 23
0.0
 33
0.0
 40
0.0
 40
0.0
 40
0.0
 40
0.0
 40
0.1
 40
0.1
 40
0.1
 40
0.1
 40
0.2
 40
0.2
 40
0.2
 40
0.2
 40
0.3
 40
0.3
 40
0.3
 40
0.3
 40
0.4
 40
0.4
 40
0.4
 40
0.4
 40
0.5
 40
0.5
 40
0.5
 40
0.5
 40
0.6
 40
0.6
 40
0.6
 40
0.6
 40
0.7
 40
0.7
 40
0.7
 40
0.7
 40
0.8
 40
0.8
 40
0.8
 40
0.8
 40
1.0
 40
1.0
 40
1.0
 40
1.0
 10
81.51
 20
60.3562
 30
0.0
 10
81.5032
 20
58.0545
 30
0.0
 10
82.089
 20
52.1831
 30
0.0
 10
76.9093
 20
52.1817
 30
0.0
 10
76.9093
 20
52.1817
 30
0.0
 10
76.9351
 20
53.2784
 30
0.0
 10
76.7481
 20
54.1712
 30
0.0
 10
76.1013
 20
54.5684
 30
0.0
 10
76.1013
 20
54.5684
 30
0.0
 10
75.3633
 20
52.8045
 30
0.0
 10
73.9762
 20
52.8442
 30
0.0
 10
71.747
 20
53.5008
 30
0.0
 10
71.747
 20
53.5008
 30
0.0
 10
70.2594
 20
54.063
 30
0.0
 10
68.5684
 20
53.7933
 30
0.0
 10
67.8916
 20
53.1804
 30
0.0
 10
67.8916
 20
53.1804
 30
0.0
 10
65.8933
 20
50.4791
 30
0.0
 10
67.2196
 20
43.1797
 30
0.0
 10
71.4168
 20
43.4971
 30
0.0
 10
71.4168
 20
43.4971
 30
0.0
 10
69.6592
 20
44.6189
 30
0.0
 10
68.258
 20
46.6185
 30
0.0
 10
69.1272
 20
47.703
 30
0.0
 10
69.1272
 20
47.703
 30
0.0
 10
69.9589
 20
46.9927
 30
0.0
 10
70.5283
 20
46.786
 30
0.0
 10
70.7036
 20
48.6047
 30
0.0
 10
70.7036
 20
48.6047
 30
0.0
 10
70.8238
 20
51.9936
 30
0.0
 10
78.2993
 20
51.5468
 30
0.0
 10
78.4825
 20
46.8701
 30
0.0
 10
78.4825
 20
46.8701
 30
0.0
 10
84.542
 20
50.8224
 30
0.0
 10
82.8731
 20
57.5515
 30
0.0
 10
81.51
 20
60.3562
 30
0.0
  0
SPLINE
  5
5D
330
1F
100
AcDbEntity
  8
layer 1
 62
     7
100
AcDbSpline
210
0.0
220
0.0
230
1.0
 70
    11
 71
     3
 72
    40
 73
    36
 74
     0
 42
0.0000000001
 43
0.0000000001
 12
1.0
 22
0.0
 32
0.0
 13
1.0
 23
0.0
 33
0.0
 40
0.0
 40
0.0
 40
0.0
 40
0.0
 40
0.1
 40
0.1
 40
0.1
 40
0.1
 40
0.2
 40
0.2
 40
0.2
 40
0.2
 40
0.3
 40
0.3
 40
0.3
 40
0.3
 40
0.4
 40
0.4
 40
0.4
 40
0.4
 40
0.5
 40
0.5
 40
0.5
 40
0.5
 40
0.6
 40
0.6
 40
0.6
 40
0.6
 40
0.7
 40
0.7
 40
0.7
 40
0.7
 40
0.8
 40
0.8
 40
0.8
 40
0.8
 40
1.0
 40
1.0
 40
1.0
 40
1.0
 10
61.6145
 20
59.6914
 30
0.0
 10
59.3992
 20
61.142
 30
0.0
 10
61.1781
 20
62.7426
 30
0.0
 10
62.104
 20
63.4542
 30
0.0
 10
62.104
 20
63.4542
 30
0.0
 10
62.8207
 20
64.1674
 30
0.0
 10
62.102
 20
64.679
 30
0.0
 10
61.3276
 20
64.7851
 30
0.0
 10
61.3276
 20
64.7851
 30
0.0
 10
59.5254
 20
64.9148
 30
0.0
 10
55.2001
 20
64.7237
 30
0.0
 10
53.4618
 20
62.656
 30
0.0
 10
53.4618
 20
62.656
 30
0.0
 10
52.9183
 20
61.8419
 30
0.0
 10
53.3403
 20
61.6199
 30
0.0
 10
54.0774
 20
61.8587
 30
0.0
 10
54.0774
 20
61.8587
 30
0.0
 10
55.2687
 20
62.2728
 30
0.0
 10
55.4795
 20
61.638
 30
0.0
 10
56.8992
 20
62.0934
 30
0.0
 10
56.8992
 20
62.0934
 30
0.0
 10
57.9275
 20
60.9899
 30
0.0
 10
57.9464
 20
58.5421
 30
0.0
 10
57.0994
 20
55.9572
 30
0.0
 10
57.0994
 20
55.9572
 30
0.0
 10
58.3992
 20
56.9869
 30
0.0
 10
60.9992
 20
57.4839
 30
0.0
 10
62.2046
 20
55.6773
 30
0.0
 10
62.2046
 20
55.6773
 30
0.0
 10
63.0048
 20
55.7977
 30
0.0
 10
63.2032
 20
58.5063
 30
0.0
 10
61.6144
 20
59.6913
 30
0.0
 10
61.6144
 20
59.6913
 30
0.0
 10
61.6144
 20
59.6913
 30
0.0
 10
61.6145
 20
59.6914
 30
0.0
 10
61.6145
 20
59.6914
 30
0.0
  0
SPLINE
  5
5E
330
1F
100
AcDbEntity
  8
layer 1
 62
     7
100
AcDbSpline
210
0.0
220
0.0
230
1.0
 70
    11
 71
     3
 72
    40
 73
    36
 74
     0
 42
0.0000000001
 43
0.0000000001
 12
1.0
 22
0.0
 32
0.0
 13
1.0
 23
0.0
 33
0.0
 40
0.0
 40
0.0
 40
0.0
 40
0.0
 40
0.1
 40
0.1
 40
0.1
 40
0.1
 40
0.2
 40
0.2
 40
0.2
 40
0.2
 40
0.3
 40
0.3
 40
0.3
 40
0.3
 40
0.4
 40
0.4
 40
0.4
 40
0.4
 40
0.5
 40
0.5
 40
0.5
 40
0.5
 40
0.6
 40
0.6
 40
0.6
 40
0.6
 40
0.7
 40
0.7
 40
0.7
 40
0.7
 40
0.8
 40
0.8
 40
0.8
 40
0.8
 40
1.0
 40
1.0
 40
1.0
 40
1.0
 10
45.189
 20
46.7695
 30
0.0
 10
48.4946
 20
47.7562
 30
0.0
 10
47.629
 20
50.7718
 30
0.0
 10
45.8409
 20
50.7643
 30
0.0
 10
45.8409
 20
50.7643
 30
0.0
 10
42.3821
 20
49.9232
 30
0.0
 10
42.3361
 20
52.917
 30
0.0
 10
45.1805
 20
54.554
 30
0.0
 10
45.1805
 20
54.554
 30
0.0
 10
43.0767
 20
56.4699
 30
0.0
 10
39.7953
 20
54.1912
 30
0.0
 10
41.5829
 20
51.6596
 30
0.0
 10
41.5829
 20
51.6596
 30
0.0
 10
41.9441
 20
51.1703
 30
0.0
 10
42.5517
 20
50.6234
 30
0.0
 10
41.4331
 20
49.8416
 30
0.0
 10
41.4331
 20
49.8416
 30
0.0
 10
40.3741
 20
49.4902
 30
0.0
 10
39.3323
 20
49.4586
 30
0.0
 10
38.3859
 20
50.517
 30
0.0
 10
38.3859
 20
50.517
 30
0.0
 10
38.2776
 20
49.5064
 30
0.0
 10
38.9691
 20
48.1952
 30
0.0
 10
39.7924
 20
47.3269
 30
0.0
 10
39.7924
 20
47.3269
 30
0.0
 10
41.7417
 20
47.1503
 30
0.0
 10
43.1818
 20
49.0392
 30
0.0
 10
42.7171
 20
50.1323
 30
0.0
 10
42.7171
 20
50.1323
 30
0.0
 10
44.8859
 20
50.4615
 30
0.0
 10
46.6153
 20
48.5307
 30
0.0
 10
45.189
 20
46.7696
 30
0.0
 10
45.189
 20
46.7696
 30
0.0
 10
45.189
 20
46.7696
 30
0.0
 10
45.189
 20
46.7695
 30
0.0
 10
45.189
 20
46.7695
 30
0.0
  0
SPLINE
  5
5F
330
1F
100
AcDbEntity
  8
layer 1
 62
     7
100
AcDbSpline
210
0.0
220
0.0
230
1.0
 70
    11
 71
     3
 72
    72
 73
    68
 74
     0
 42
0.0000000001
 43
0.0000000001
 12
1.0
 22
0.0
 32
0.0
 13
1.0
 23
0.0
 33
0.0
 40
0.0
 40
0.0
 40
0.0
 40
0.0
 40
0.0555555555555556
 40
0.0555555555555556
 40
0.0555555555555556
 40
0.0555555555555556
 40
0.1111111111111111
 40
0.1111111111111111
 40
0.1111111111111111
 40
0.1111111111111111
 40
0.1666666666666667
 40
0.1666666666666667
 40
0.1666666666666667
 40
0.1666666666666667
 40
0.2222222222222222
 40
0.2222222222222222
 40
0.2222222222222222
 40
0.2222222222222222
 40
0.2777777777777778
 40
0.2777777777777778
 40
0.2777777777777778
 40
0.2777777777777778
 40
0.3333333333333333
 40
0.3333333333333333
 40
0.3333333333333333
 40
0.3333333333333333
 40
0.3888888888888889
 40
0.3888888888888889
 40
0.3888888888888889
 40
0.3888888888888889
 40
0.4444444444444444
 40
0.4444444444444444
 40
0.4444444444444444
 40
0.4444444444444444
 40
0.5
 40
0.5
 40
0.5
 40
0.5
 40
0.5555555555555556
 40
0.5555555555555556
 40
0.5555555555555556
 40
0.5555555555555556
 40
0.6111111111111112
 40
0.6111111111111112
 40
0.6111111111111112
 40
0.6111111111111112
 40
0.6666666666666666
 40
0.6666666666666666
 40
0.6666666666666666
 40
0.6666666666666666
 40
0.7222222222222222
 40
0.7222222222222222
 40
0.7222222222222222
 40
0.7222222222222222
 40
0.7777777777777778
 40
0.7777777777777778
 40
0.7777777777777778
 40
0.7777777777777778
 40
0.8333333333333334
 40
0.8333333333333334
 40
0.8333333333333334
 40
0.8333333333333334
 40
0.8888888888888888
 40
0.8888888888888888
 40
0.8888888888888888
 40
0.8888888888888888
 40
1.0
 40
1.0
 40
1.0
 40
1.0
 10
68.6395
 20
37.0799
 30
0.0
 10
69.281
 20
37.4456
 30
0.0
 10
69.6418
 20
38.4682
 30
0.0
 10
69.5764
 20
39.2019
 30
0.0
 10
69.5764
 20
39.2019
 30
0.0
 10
65.1454
 20
39.4765
 30
0.0
 10
60.8431
 20
43.4836
 30
0.0
 10
59.2281
 20
47.6533
 30
0.0
 10
59.2281
 20
47.6533
 30
0.0
 10
58.9502
 20
48.4524
 30
0.0
 10
58.5578
 20
49.4155
 30
0.0
 10
59.8858
 20
49.0824
 30
0.0
 10
59.8858
 20
49.0824
 30
0.0
 10
60.7659
 20
49.037
 30
0.0
 10
60.4373
 20
49.7866
 30
0.0
 10
59.9512
 20
50.0448
 30
0.0
 10
59.9512
 20
50.0448
 30
0.0
 10
59.3425
 20
50.3791
 30
0.0
 10
58.9085
 20
50.7596
 30
0.0
 10
58.2942
 20
51.349
 30
0.0
 10
58.2942
 20
51.349
 30
0.0
 10
55.2952
 20
50.8902
 30
0.0
 10
54.689
 20
51.0631
 30
0.0
 10
54.9272
 20
53.2942
 30
0.0
 10
54.9272
 20
53.2942
 30
0.0
 10
54.0752
 20
52.3799
 30
0.0
 10
52.7838
 20
51.5537
 30
0.0
 10
50.4292
 20
51.097
 30
0.0
 10
50.4292
 20
51.097
 30
0.0
 10
56.5561
 20
50.0535
 30
0.0
 10
59.2604
 20
43.3036
 30
0.0
 10
57.1102
 20
39.2297
 30
0.0
 10
57.1102
 20
39.2297
 30
0.0
 10
62.2565
 20
38.5409
 30
0.0
 10
60.3629
 20
29.857
 30
0.0
 10
55.7251
 20
33.9127
 30
0.0
 10
55.7251
 20
33.9127
 30
0.0
 10
55.3313
 20
34.2815
 30
0.0
 10
54.5333
 20
34.242
 30
0.0
 10
55.0996
 20
32.891
 30
0.0
 10
55.0996
 20
32.891
 30
0.0
 10
56.8521
 20
28.5822
 30
0.0
 10
64.8832
 20
23.6538
 30
0.0
 10
73.4161
 20
19.5726
 30
0.0
 10
73.4161
 20
19.5726
 30
0.0
 10
65.0644
 20
24.9645
 30
0.0
 10
63.9006
 20
27.7054
 30
0.0
 10
62.0338
 20
30.0958
 30
0.0
 10
62.0338
 20
30.0958
 30
0.0
 10
61.2934
 20
31.4448
 30
0.0
 10
62.1983
 20
31.7063
 30
0.0
 10
62.8543
 20
31.4227
 30
0.0
 10
62.8543
 20
31.4227
 30
0.0
 10
65.4102
 20
30.7726
 30
0.0
 10
64.518
 20
32.1254
 30
0.0
 10
64.1794
 20
33.2402
 30
0.0
 10
64.1794
 20
33.2402
 30
0.0
 10
62.443
 20
37.13
 30
0.0
 10
62.81
 20
38.8253
 30
0.0
 10
63.1666
 20
39.3374
 30
0.0
 10
63.1666
 20
39.3374
 30
0.0
 10
64.7345
 20
40.5079
 30
0.0
 10
68.0028
 20
38.8408
 30
0.0
 10
68.6396
 20
37.0798
 30
0.0
 10
68.6396
 20
37.0798
 30
0.0
 10
68.6396
 20
37.0798
 30
0.0
 10
68.6395
 20
37.0799
 30
0.0
 10
68.6395
 20
37.0799
 30
0.0
  0
SPLINE
  5
60
330
1F
100
AcDbEntity
  8
layer 1
 62
     7
100
AcDbSpline
210
0.0
220
0.0
230
1.0
 70
    11
 71
     3
 72
    20
 73
    16
 74
     0
 42
0.0000000001
 43
0.0000000001
 12
1.0
 22
0.0
 32
0.0
 13
1.0
 23
0.0
 33
0.0
 40
0.0
 40
0.0
 40
0.0
 40
0.0
 40
0.2
 40
0.2
 40
0.2
 40
0.2
 40
0.4
 40
0.4
 40
0.4
 40
0.4
 40
0.6
 40
0.6
 40
0.6
 40
0.6
 40
1.0
 40
1.0
 40
1.0
 40
1.0
 10
89.8922
 20
26.4038
 30
0.0
 10
90.9576
 20
28.0349
 30
0.0
 10
93.2868
 20
30.4182
 30
0.0
 10
94.7439
 20
31.2511
 30
0.0
 10
94.7439
 20
31.2511
 30
0.0
 10
94.1465
 20
29.5971
 30
0.0
 10
94.3523
 20
28.1319
 30
0.0
 10
94.7989
 20
26.6587
 30
0.0
 10
94.7989
 20
26.6587
 30
0.0
 10
92.69
 20
27.2323
 30
0.0
 10
91.7824
 20
27.303
 30
0.0
 10
89.8921
 20
26.4037
 30
0.0
 10
89.8921
 20
26.4037
 30
0.0
 10
89.8921
 20
26.4037
 30
0.0
 10
89.8922
 20
26.4038
 30
0.0
 10
89.8922
 20
26.4038
 30
0.0
  0
SPLINE
  5
61
330
1F
100
AcDbEntity
  8
layer 1
 62
     7
100
AcDbSpline
210
0.0
220
0.0
230
1.0
 70
    11
 71
     3
 72
    44
 73
    40
 74
     0
 42
0.0000000001
 43
0.0000000001
 12
1.0
 22
0.0
 32
0.0
 13
1.0
 23
0.0
 33
0.0
 40
0.0
 40
0.0
 40
0.0
 40
0.0
 40
0.0909090909090909
 40
0.0909090909090909
 40
0.0909090909090909
 40
0.0909090909090909
 40
0.1818181818181818
 40
0.1818181818181818
 40
0.1818181818181818
 40
0.1818181818181818
 40
0.2727272727272727
 40
0.2727272727272727
 40
0.2727272727272727
 40
0.2727272727272727
 40
0.3636363636363636
 40
0.3636363636363636
 40
0.3636363636363636
 40
0.3636363636363636
 40
0.4545454545454545
 40
0.4545454545454545
 40
0.4545454545454545
 40
0.4545454545454545
 40
0.5454545454545454
 40
0.5454545454545454
 40
0.5454545454545454
 40
0.5454545454545454
 40
0.6363636363636364
 40
0.6363636363636364
 40
0.6363636363636364
 40
0.6363636363636364
 40
0.7272727272727273
 40
0.7272727272727273
 40
0.7272727272727273
 40
0.7272727272727273
 40
0.8181818181818182
 40
0.8181818181818182
 40
0.8181818181818182
 40
0.8181818181818182
 40
1.0
 40
1.0
 40
1.0
 40
1.0
 10
103.9128
 20
19.0354
 30
0.0
 10
103.2328
 20
20.63
 30
0.0
 10
102.9688
 20
21.8868
 30
0.0
 10
101.8985
 20
22.6206
 30
0.0
 10
101.8985
 20
22.6206
 30
0.0
 10
100.5432
 20
23.55
 30
0.0
 10
98.8261
 20
23.3826
 30
0.0
 10
98.5215
 20
24.9358
 30
0.0
 10
98.5215
 20
24.9358
 30
0.0
 10
104.4361
 20
24.237
 30
0.0
 10
103.9186
 20
32.6837
 30
0.0
 10
98.9452
 20
30.9716
 30
0.0
 10
98.9452
 20
30.9716
 30
0.0
 10
98.6688
 20
30.8764
 30
0.0
 10
97.8464
 20
30.0546
 30
0.0
 10
98.6644
 20
29.8623
 30
0.0
 10
98.6644
 20
29.8623
 30
0.0
 10
101.7777
 20
29.7622
 30
0.0
 10
99.8789
 20
25.086
 30
0.0
 10
96.7622
 20
27.715
 30
0.0
 10
96.7622
 20
27.715
 30
0.0
 10
94.7393
 20
29.2603
 30
0.0
 10
96.2103
 20
33.7758
 30
0.0
 10
99.8518
 20
33.1658
 30
0.0
 10
99.8518
 20
33.1658
 30
0.0
 10
101.3136
 20
32.8531
 30
0.0
 10
102.938
 20
32.1264
 30
0.0
 10
104.1423
 20
29.8949
 30
0.0
 10
104.1423
 20
29.8949
 30
0.0
 10
105.4585
 20
27.0446
 30
0.0
 10
105.9061
 20
23.5856
 30
0.0
 10
104.8685
 20
19.0696
 30
0.0
 10
104.8685
 20
19.0696
 30
0.0
 10
104.7206
 20
18.3983
 30
0.0
 10
104.0949
 20
18.4097
 30
0.0
 10
103.9128
 20
19.0355
 30
0.0
 10
103.9128
 20
19.0355
 30
0.0
 10
103.9128
 20
19.0355
 30
0.0
 10
103.9128
 20
19.0354
 30
0.0
 10
103.9128
 20
19.0354
 30
0.0
  0
SPLINE
  5
62
330
1F
100
AcDbEntity
  8
layer 1
 62
     7
100
AcDbSpline
210
0.0
220
0.0
230
1.0
 70
    11
 71
     3
 72
    44
 73
    40
 74
     0
 42
0.0000000001
 43
0.0000000001
 12
1.0
 22
0.0
 32
0.0
 13
1.0
 23
0.0
 33
0.0
 40
0.0
 40
0.0
 40
0.0
 40
0.0
 40
0.0909090909090909
 40
0.0909090909090909
 40
0.0909090909090909
 40
0.0909090909090909
 40
0.1818181818181818
 40
0.1818181818181818
 40
0.1818181818181818
 40
0.1818181818181818
 40
0.2727272727272727
 40
0.2727272727272727
 40
0.2727272727272727
 40
0.2727272727272727
 40
0.3636363636363636
 40
0.3636363636363636
 40
0.3636363636363636
 40
0.3636363636363636
 40
0.4545454545454545
 40
0.4545454545454545
 40
0.4545454545454545
 40
0.4545454545454545
 40
0.5454545454545454
 40
0.5454545454545454
 40
0.5454545454545454
 40
0.5454545454545454
 40
0.6363636363636364
 40
0.6363636363636364
 40
0.6363636363636364
 40
0.6363636363636364
 40
0.7272727272727273
 40
0.7272727272727273
 40
0.7272727272727273
 40
0.7272727272727273
 40
0.8181818181818182
 40
0.8181818181818182
 40
0.8181818181818182
 40
0.8181818181818182
 40
1.0
 40
1.0
 40
1.0
 40
1.0
 10
102.2743
 20
17.4172
 30
0.0
 10
100.6902
 20
18.1212
 30
0.0
 10
99.4376
 20
18.4043
 30
0.0
 10
98.72
 20
19.4856
 30
0.0
 10
98.72
 20
19.4856
 30
0.0
 10
97.8114
 20
20.8548
 30
0.0
 10
98.0048
 20
22.5691
 30
0.0
 10
96.4563
 20
22.8974
 30
0.0
 10
96.4563
 20
22.8974
 30
0.0
 10
97.0654
 20
16.9729
 30
0.0
 10
88.6275
 20
17.6184
 30
0.0
 10
90.4148
 20
22.5652
 30
0.0
 10
90.4148
 20
22.5652
 30
0.0
 10
90.5141
 20
22.84
 30
0.0
 10
91.3483
 20
23.6499
 30
0.0
 10
91.5282
 20
22.8292
 30
0.0
 10
91.5282
 20
22.8292
 30
0.0
 10
91.5812
 20
19.7147
 30
0.0
 10
96.2857
 20
21.5425
 30
0.0
 10
93.7042
 20
24.6986
 30
0.0
 10
93.7042
 20
24.6986
 30
0.0
 10
92.1896
 20
26.7447
 30
0.0
 10
87.6524
 20
25.3422
 30
0.0
 10
88.2072
 20
21.6918
 30
0.0
 10
88.2072
 20
21.6918
 30
0.0
 10
88.4977
 20
20.2255
 30
0.0
 10
89.1997
 20
18.5903
 30
0.0
 10
91.4127
 20
17.3523
 30
0.0
 10
91.4127
 20
17.3523
 30
0.0
 10
94.2427
 20
15.9931
 30
0.0
 10
97.6946
 20
15.4931
 30
0.0
 10
102.2258
 20
16.4621
 30
0.0
 10
102.2258
 20
16.4621
 30
0.0
 10
102.8992
 20
16.5999
 30
0.0
 10
102.8974
 20
17.2257
 30
0.0
 10
102.2744
 20
17.4172
 30
0.0
 10
102.2744
 20
17.4172
 30
0.0
 10
102.2744
 20
17.4172
 30
0.0
 10
102.2743
 20
17.4172
 30
0.0
 10
102.2743
 20
17.4172
 30
0.0
  0
SPLINE
  5
63
330
1F
100
AcDbEntity
  8
layer 1
 62
     7
100
AcDbSpline
210
0.0
220
0.0
230
1.0
 70
    11
 71
     3
 72
    44
 73
    40
 74
     0
 42
0.0000000001
 43
0.0000000001
 12
1.0
 22
0.0
 32
0.0
 13
1.0
 23
0.0
 33
0.0
 40
0.0
 40
0.0
 40
0.0
 40
0.0
 40
0.0909090909090909
 40
0.0909090909090909
 40
0.0909090909090909
 40
0.0909090909090909
 40
0.1818181818181818
 40
0.1818181818181818
 40
0.1818181818181818
 40
0.1818181818181818
 40
0.2727272727272727
 40
0.2727272727272727
 40
0.2727272727272727
 40
0.2727272727272727
 40
0.3636363636363636
 40
0.3636363636363636
 40
0.3636363636363636
 40
0.3636363636363636
 40
0.4545454545454545
 40
0.4545454545454545
 40
0.4545454545454545
 40
0.4545454545454545
 40
0.5454545454545454
 40
0.5454545454545454
 40
0.5454545454545454
 40
0.5454545454545454
 40
0.6363636363636364
 40
0.6363636363636364
 40
0.6363636363636364
 40
0.6363636363636364
 40
0.7272727272727273
 40
0.7272727272727273
 40
0.7272727272727273
 40
0.7272727272727273
 40
0.8181818181818182
 40
0.8181818181818182
 40
0.8181818181818182
 40
0.8181818181818182
 40
1.0
 40
1.0
 40
1.0
 40
1.0
 10
79.4713
 20
76.2032
 30
0.0
 10
78.9875
 20
75.9569
 30
0.0
 10
78.3337
 20
76.3384
 30
0.0
 10
78.8087
 20
76.9931
 30
0.0
 10
78.8087
 20
76.9931
 30
0.0
 10
78.915
 20
77.544
 30
0.0
 10
79.7805
 20
78.3115
 30
0.0
 10
80.3911
 20
78.6213
 30
0.0
 10
80.3911
 20
78.6213
 30
0.0
 10
81.0874
 20
78.1035
 30
0.0
 10
81.2853
 20
78.5271
 30
0.0
 10
81.4492
 20
78.8851
 30
0.0
 10
81.4492
 20
78.8851
 30
0.0
 10
81.96
 20
79.7844
 30
0.0
 10
82.7583
 20
78.8263
 30
0.0
 10
83.2296
 20
77.9832
 30
0.0
 10
83.2296
 20
77.9832
 30
0.0
 10
84.3431
 20
76.254
 30
0.0
 10
86.0383
 20
76.5172
 30
0.0
 10
86.4885
 20
77.8906
 30
0.0
 10
86.4885
 20
77.8906
 30
0.0
 10
87.2278
 20
79.3533
 30
0.0
 10
89.9521
 20
79.0856
 30
0.0
 10
89.3099
 20
76.3362
 30
0.0
 10
89.3099
 20
76.3362
 30
0.0
 10
88.8006
 20
73.8914
 30
0.0
 10
85.8997
 20
71.5721
 30
0.0
 10
83.9766
 20
71.7815
 30
0.0
 10
83.9766
 20
71.7815
 30
0.0
 10
83.2425
 20
71.8165
 30
0.0
 10
83.1589
 20
72.2056
 30
0.0
 10
83.3764
 20
72.4673
 30
0.0
 10
83.3764
 20
72.4673
 30
0.0
 10
84.4009
 20
75.9159
 30
0.0
 10
81.0488
 20
77.409
 30
0.0
 10
79.4713
 20
76.2033
 30
0.0
 10
79.4713
 20
76.2033
 30
0.0
 10
79.4713
 20
76.2033
 30
0.0
 10
79.4713
 20
76.2032
 30
0.0
 10
79.4713
 20
76.2032
 30
0.0
  0
SPLINE
  5
64
330
1F
100
AcDbEntity
  8
layer 1
 62
     7
100
AcDbSpline
210
0.0
220
0.0
230
1.0
 70
    11
 71
     3
 72
    24
 73
    20
 74
     0
 42
0.0000000001
 43
0.0000000001
 12
1.0
 22
0.0
 32
0.0
 13
1.0
 23
0.0
 33
0.0
 40
0.0
 40
0.0
 40
0.0
 40
0.0
 40
0.1666666666666667
 40
0.1666666666666667
 40
0.1666666666666667
 40
0.1666666666666667
 40
0.3333333333333333
 40
0.3333333333333333
 40
0.3333333333333333
 40
0.3333333333333333
 40
0.5
 40
0.5
 40
0.5
 40
0.5
 40
0.6666666666666666
 40
0.6666666666666666
 40
0.6666666666666666
 40
0.6666666666666666
 40
1.0
 40
1.0
 40
1.0
 40
1.0
 10
118.2914
 20
45.8719
 30
0.0
 10
118.5976
 20
47.8345
 30
0.0
 10
117.4042
 20
49.0194
 30
0.0
 10
115.2109
 20
50.7599
 30
0.0
 10
115.2109
 20
50.7599
 30
0.0
 10
112.2433
 20
45.6361
 30
0.0
 10
109.3769
 20
42.151
 30
0.0
 10
109.7676
 20
38.8478
 30
0.0
 10
109.7676
 20
38.8478
 30
0.0
 10
113.4764
 20
38.3238
 30
0.0
 10
118.8439
 20
38.953
 30
0.0
 10
119.6799
 20
41.4029
 30
0.0
 10
119.6799
 20
41.4029
 30
0.0
 10
115.0497
 20
39.1904
 30
0.0
 10
114.607
 20
46.0816
 30
0.0
 10
118.2913
 20
45.8719
 30
0.0
 10
118.2913
 20
45.8719
 30
0.0
 10
118.2913
 20
45.8719
 30
0.0
 10
118.2914
 20
45.8719
 30
0.0
 10
118.2914
 20
45.8719
 30
0.0
  0
SPLINE
  5
65
330
1F
100
AcDbEntity
  8
layer 1
 62
     7
100
AcDbSpline
210
0.0
220
0.0
230
1.0
 70
    11
 71
     3
 72
    16
 73
    12
 74
     0
 42
0.0000000001
 43
0.0000000001
 12
1.0
 22
0.0
 32
0.0
 13
1.0
 23
0.0
 33
0.0
 40
0.0
 40
0.0
 40
0.0
 40
0.0
 40
0.25
 40
0.25
 40
0.25
 40
0.25
 40
0.5
 40
0.5
 40
0.5
 40
0.5
 40
1.0
 40
1.0
 40
1.0
 40
1.0
 10
114.2858
 20
52.0624
 30
0.0
 10
113.4794
 20
52.002
 30
0.0
 10
111.2745
 20
52.2361
 30
0.0
 10
110.5985
 20
53.3493
 30
0.0
 10
110.5985
 20
53.3493
 30
0.0
 10
110.3418
 20
48.3064
 30
0.0
 10
108.1429
 20
48.6651
 30
0.0
 10
108.7764
 20
44.0471
 30
0.0
 10
108.7764
 20
44.0471
 30
0.0
 10
111.1398
 20
47.5679
 30
0.0
 10
112.7701
 20
49.6654
 30
0.0
 10
114.2858
 20
52.0624
 30
0.0
  0
SPLINE
  5
66
330
1F
100
AcDbEntity
  8
layer 1
 62
     7
100
AcDbSpline
210
0.0
220
0.0
230
1.0
 70
    11
 71
     3
 72
    36
 73
    32
 74
     0
 42
0.0000000001
 43
0.0000000001
 12
1.0
 22
0.0
 32
0.0
 13
1.0
 23
0.0
 33
0.0
 40
0.0
 40
0.0
 40
0.0
 40
0.0
 40
0.1111111111111111
 40
0.1111111111111111
 40
0.1111111111111111
 40
0.1111111111111111
 40
0.2222222222222222
 40
0.2222222222222222
 40
0.2222222222222222
 40
0.2222222222222222
 40
0.3333333333333333
 40
0.3333333333333333
 40
0.3333333333333333
 40
0.3333333333333333
 40
0.4444444444444444
 40
0.4444444444444444
 40
0.4444444444444444
 40
0.4444444444444444
 40
0.5555555555555556
 40
0.5555555555555556
 40
0.5555555555555556
 40
0.5555555555555556
 40
0.6666666666666666
 40
0.6666666666666666
 40
0.6666666666666666
 40
0.6666666666666666
 40
0.7777777777777778
 40
0.7777777777777778
 40
0.7777777777777778
 40
0.7777777777777778
 40
1.0
 40
1.0
 40
1.0
 40
1.0
 10
120.9496
 20
51.9214
 30
0.0
 10
123.2988
 20
52.3103
 30
0.0
 10
124.7218
 20
53.233
 30
0.0
 10
126.3577
 20
54.8094
 30
0.0
 10
126.3577
 20
54.8094
 30
0.0
 10
126.178
 20
48.3743
 30
0.0
 10
129.0772
 20
43.3811
 30
0.0
 10
133.2108
 20
40.832
 30
0.0
 10
133.2108
 20
40.832
 30
0.0
 10
131.8893
 20
40.8594
 30
0.0
 10
130.8694
 20
39.7892
 30
0.0
 10
131.6299
 20
36.5879
 30
0.0
 10
131.6299
 20
36.5879
 30
0.0
 10
130.9516
 20
37.9711
 30
0.0
 10
129.837
 20
39.1516
 30
0.0
 10
127.966
 20
38.6633
 30
0.0
 10
127.966
 20
38.6633
 30
0.0
 10
128.4938
 20
32.4218
 30
0.0
 10
118.6208
 20
34.9863
 30
0.0
 10
116.7258
 20
37.1714
 30
0.0
 10
116.7258
 20
37.1714
 30
0.0
 10
125.6222
 20
37.3526
 30
0.0
 10
125.3506
 20
46.1766
 30
0.0
 10
118.7414
 20
48.6326
 30
0.0
 10
118.7414
 20
48.6326
 30
0.0
 10
120.8697
 20
48.534
 30
0.0
 10
122.4821
 20
48.893
 30
0.0
 10
123.0491
 20
49.907
 30
0.0
 10
123.0491
 20
49.907
 30
0.0
 10
122.4334
 20
50.7978
 30
0.0
 10
122.0127
 20
51.4432
 30
0.0
 10
120.9496
 20
51.9214
 30
0.0
  0
SPLINE
  5
67
330
1F
100
AcDbEntity
  8
layer 1
 62
     7
100
AcDbSpline
210
0.0
220
0.0
230
1.0
 70
    11
 71
     3
 72
    28
 73
    24
 74
     0
 42
0.0000000001
 43
0.0000000001
 12
1.0
 22
0.0
 32
0.0
 13
1.0
 23
0.0
 33
0.0
 40
0.0
 40
0.0
 40
0.0
 40
0.0
 40
0.1428571428571428
 40
0.1428571428571428
 40
0.1428571428571428
 40
0.1428571428571428
 40
0.2857142857142857
 40
0.2857142857142857
 40
0.2857142857142857
 40
0.2857142857142857
 40
0.4285714285714285
 40
0.4285714285714285
 40
0.4285714285714285
 40
0.4285714285714285
 40
0.5714285714285714
 40
0.5714285714285714
 40
0.5714285714285714
 40
0.5714285714285714
 40
0.7142857142857143
 40
0.7142857142857143
 40
0.7142857142857143
 40
0.7142857142857143
 40
1.0
 40
1.0
 40
1.0
 40
1.0
 10
142.1911
 20
38.8889
 30
0.0
 10
140.4648
 20
38.5238
 30
0.0
 10
137.1731
 20
38.9876
 30
0.0
 10
135.7339
 20
40.1379
 30
0.0
 10
135.7339
 20
40.1379
 30
0.0
 10
136.3481
 20
36.9975
 30
0.0
 10
134.7759
 20
34.544
 30
0.0
 10
132.7804
 20
34.0242
 30
0.0
 10
132.7804
 20
34.0242
 30
0.0
 10
134.2334
 20
33.9158
 30
0.0
 10
135.5006
 20
33.2906
 30
0.0
 10
136.2316
 20
31.9201
 30
0.0
 10
136.2316
 20
31.9201
 30
0.0
 10
137.1051
 20
32.7267
 30
0.0
 10
139.4981
 20
33.5438
 30
0.0
 10
141.9077
 20
31.2727
 30
0.0
 10
141.9077
 20
31.2727
 30
0.0
 10
140.9493
 20
32.8304
 30
0.0
 10
140.9328
 20
36.8366
 30
0.0
 10
142.1911
 20
38.889
 30
0.0
 10
142.1911
 20
38.889
 30
0.0
 10
142.1911
 20
38.889
 30
0.0
 10
142.1911
 20
38.8889
 30
0.0
 10
142.1911
 20
38.8889
 30
0.0
  0
SPLINE
  5
68
330
1F
100
AcDbEntity
  8
layer 1
 62
     7
100
AcDbSpline
210
0.0
220
0.0
230
1.0
 70
    11
 71
     3
 72
    28
 73
    24
 74
     0
 42
0.0000000001
 43
0.0000000001
 12
1.0
 22
0.0
 32
0.0
 13
1.0
 23
0.0
 33
0.0
 40
0.0
 40
0.0
 40
0.0
 40
0.0
 40
0.1428571428571428
 40
0.1428571428571428
 40
0.1428571428571428
 40
0.1428571428571428
 40
0.2857142857142857
 40
0.2857142857142857
 40
0.2857142857142857
 40
0.2857142857142857
 40
0.4285714285714285
 40
0.4285714285714285
 40
0.4285714285714285
 40
0.4285714285714285
 40
0.5714285714285714
 40
0.5714285714285714
 40
0.5714285714285714
 40
0.5714285714285714
 40
0.7142857142857143
 40
0.7142857142857143
 40
0.7142857142857143
 40
0.7142857142857143
 40
1.0
 40
1.0
 40
1.0
 40
1.0
 10
135.3636
 20
30.5448
 30
0.0
 10
133.4827
 20
31.8745
 30
0.0
 10
130.2419
 20
29.2406
 30
0.0
 10
126.0037
 20
30.2119
 30
0.0
 10
126.0037
 20
30.2119
 30
0.0
 10
128.4602
 20
27.2781
 30
0.0
 10
130.2934
 20
24.2211
 30
0.0
 10
130.7845
 20
20.4609
 30
0.0
 10
130.7845
 20
20.4609
 30
0.0
 10
130.8665
 20
19.2489
 30
0.0
 10
132.0639
 20
18.8837
 30
0.0
 10
133.0984
 20
19.3483
 30
0.0
 10
133.0984
 20
19.3483
 30
0.0
 10
137.0198
 20
20.6946
 30
0.0
 10
140.3536
 20
25.5624
 30
0.0
 10
139.3737
 20
27.6935
 30
0.0
 10
139.3737
 20
27.6935
 30
0.0
 10
138.5937
 20
26.5169
 30
0.0
 10
134.4948
 20
26.7797
 30
0.0
 10
135.3635
 20
30.5449
 30
0.0
 10
135.3635
 20
30.5449
 30
0.0
 10
135.3635
 20
30.5449
 30
0.0
 10
135.3636
 20
30.5448
 30
0.0
 10
135.3636
 20
30.5448
 30
0.0
  0
SPLINE
  5
69
330
1F
100
AcDbEntity
  8
layer 1
 62
     7
100
AcDbSpline
210
0.0
220
0.0
230
1.0
 70
    11
 71
     3
 72
    32
 73
    28
 74
     0
 42
0.0000000001
 43
0.0000000001
 12
1.0
 22
0.0
 32
0.0
 13
1.0
 23
0.0
 33
0.0
 40
0.0
 40
0.0
 40
0.0
 40
0.0
 40
0.125
 40
0.125
 40
0.125
 40
0.125
 40
0.25
 40
0.25
 40
0.25
 40
0.25
 40
0.375
 40
0.375
 40
0.375
 40
0.375
 40
0.5
 40
0.5
 40
0.5
 40
0.5
 40
0.625
 40
0.625
 40
0.625
 40
0.625
 40
0.75
 40
0.75
 40
0.75
 40
0.75
 40
1.0
 40
1.0
 40
1.0
 40
1.0
 10
123.1646
 20
72.5449
 30
0.0
 10
125.845
 20
69.3388
 30
0.0
 10
129.9774
 20
68.6968
 30
0.0
 10
135.3144
 20
68.8919
 30
0.0
 10
135.3144
 20
68.8919
 30
0.0
 10
130.4525
 20
65.8601
 30
0.0
 10
127.3761
 20
61.9169
 30
0.0
 10
126.4894
 20
56.2196
 30
0.0
 10
126.4894
 20
56.2196
 30
0.0
 10
124.9077
 20
57.2081
 30
0.0
 10
122.8742
 20
57.6017
 30
0.0
 10
121.0929
 20
57.0786
 30
0.0
 10
121.0929
 20
57.0786
 30
0.0
 10
125.1706
 20
61.3484
 30
0.0
 10
123.0312
 20
63.2435
 30
0.0
 10
120.7939
 20
62.0552
 30
0.0
 10
120.7939
 20
62.0552
 30
0.0
 10
121.939
 20
64.9567
 30
0.0
 10
120.2811
 20
66.5139
 30
0.0
 10
119.8851
 20
67.2639
 30
0.0
 10
119.8851
 20
67.2639
 30
0.0
 10
122.3355
 20
67.1792
 30
0.0
 10
123.9095
 20
70.4341
 30
0.0
 10
123.1647
 20
72.5447
 30
0.0
 10
123.1647
 20
72.5447
 30
0.0
 10
123.1647
 20
72.5447
 30
0.0
 10
123.1646
 20
72.5449
 30
0.0
 10
123.1646
 20
72.5449
 30
0.0
  0
SPLINE
  5
6A
330
1F
100
AcDbEntity
  8
layer 1
 62
     7
100
AcDbSpline
210
0.0
220
0.0
230
1.0
 70
    11
 71
     3
 72
    52
 73
    48
 74
     0
 42
0.0000000001
 43
0.0000000001
 12
1.0
 22
0.0
 32
0.0
 13
1.0
 23
0.0
 33
0.0
 40
0.0
 40
0.0
 40
0.0
 40
0.0
 40
0.0769230769230769
 40
0.0769230769230769
 40
0.0769230769230769
 40
0.0769230769230769
 40
0.1538461538461539
 40
0.1538461538461539
 40
0.1538461538461539
 40
0.1538461538461539
 40
0.2307692307692308
 40
0.2307692307692308
 40
0.2307692307692308
 40
0.2307692307692308
 40
0.3076923076923077
 40
0.3076923076923077
 40
0.3076923076923077
 40
0.3076923076923077
 40
0.3846153846153846
 40
0.3846153846153846
 40
0.3846153846153846
 40
0.3846153846153846
 40
0.4615384615384616
 40
0.4615384615384616
 40
0.4615384615384616
 40
0.4615384615384616
 40
0.5384615384615384
 40
0.5384615384615384
 40
0.5384615384615384
 40
0.5384615384615384
 40
0.6153846153846154
 40
0.6153846153846154
 40
0.6153846153846154
 40
0.6153846153846154
 40
0.6923076923076923
 40
0.6923076923076923
 40
0.6923076923076923
 40
0.6923076923076923
 40
0.7692307692307693
 40
0.7692307692307693
 40
0.7692307692307693
 40
0.7692307692307693
 40
0.8461538461538461
 40
0.8461538461538461
 40
0.8461538461538461
 40
0.8461538461538461
 40
1.0
 40
1.0
 40
1.0
 40
1.0
 10
111.4927
 20
68.3389
 30
0.0
 10
113.6808
 20
72.1531
 30
0.0
 10
116.349
 20
74.0873
 30
0.0
 10
119.8286
 20
72.4261
 30
0.0
 10
119.8286
 20
72.4261
 30
0.0
 10
120.5161
 20
72.045
 30
0.0
 10
120.2863
 20
71.0653
 30
0.0
 10
119.6468
 20
71.3806
 30
0.0
 10
119.6468
 20
71.3806
 30
0.0
 10
115.8279
 20
73.1936
 30
0.0
 10
116.6595
 20
69.3823
 30
0.0
 10
116.8855
 20
67.9967
 30
0.0
 10
116.8855
 20
67.9967
 30
0.0
 10
117.0655
 20
66.9221
 30
0.0
 10
117.3202
 20
65.5979
 30
0.0
 10
116.4661
 20
64.1941
 30
0.0
 10
116.4661
 20
64.1941
 30
0.0
 10
116.2263
 20
63.4848
 30
0.0
 10
115.6806
 20
63.2581
 30
0.0
 10
115.1653
 20
63.4673
 30
0.0
 10
115.1653
 20
63.4673
 30
0.0
 10
114.2166
 20
63.8523
 30
0.0
 10
113.7079
 20
64.7764
 30
0.0
 10
113.3167
 20
64.2212
 30
0.0
 10
113.3167
 20
64.2212
 30
0.0
 10
113.2787
 20
63.6098
 30
0.0
 10
113.5662
 20
59.0219
 30
0.0
 10
113.2485
 20
58.6593
 30
0.0
 10
113.2485
 20
58.6593
 30
0.0
 10
112.9857
 20
58.4795
 30
0.0
 10
112.8174
 20
58.7167
 30
0.0
 10
112.7433
 20
58.8866
 30
0.0
 10
112.7433
 20
58.8866
 30
0.0
 10
111.9772
 20
60.641
 30
0.0
 10
111.6384
 20
60.4997
 30
0.0
 10
110.7532
 20
60.3253
 30
0.0
 10
110.7532
 20
60.3253
 30
0.0
 10
110.1143
 20
59.9574
 30
0.0
 10
110.2475
 20
60.9061
 30
0.0
 10
110.1058
 20
61.4808
 30
0.0
 10
110.1058
 20
61.4808
 30
0.0
 10
110.0527
 20
63.9458
 30
0.0
 10
110.3831
 20
66.321
 30
0.0
 10
111.4926
 20
68.3389
 30
0.0
 10
111.4926
 20
68.3389
 30
0.0
 10
111.4926
 20
68.3389
 30
0.0
 10
111.4927
 20
68.3389
 30
0.0
 10
111.4927
 20
68.3389
 30
0.0
  0
SPLINE
  5
6B
330
1F
100
AcDbEntity
  8
layer 1
 62
     7
100
AcDbSpline
210
0.0
220
0.0
230
1.0
 70
    11
 71
     3
 72
    24
 73
    20
 74
     0
 42
0.0000000001
 43
0.0000000001
 12
1.0
 22
0.0
 32
0.0
 13
1.0
 23
0.0
 33
0.0
 40
0.0
 40
0.0
 40
0.0
 40
0.0
 40
0.1666666666666667
 40
0.1666666666666667
 40
0.1666666666666667
 40
0.1666666666666667
 40
0.3333333333333333
 40
0.3333333333333333
 40
0.3333333333333333
 40
0.3333333333333333
 40
0.5
 40
0.5
 40
0.5
 40
0.5
 40
0.6666666666666666
 40
0.6666666666666666
 40
0.6666666666666666
 40
0.6666666666666666
 40
1.0
 40
1.0
 40
1.0
 40
1.0
 10
149.0069
 20
94.5186
 30
0.0
 10
149.0069
 20
94.5186
 30
0.0
 10
132.9936
 20
94.5186
 30
0.0
 10
132.9936
 20
94.5186
 30
0.0
 10
132.9936
 20
94.5186
 30
0.0
 10
136.6749
 20
93.2811
 30
0.0
 10
138.2502
 20
92.3347
 30
0.0
 10
141.1965
 20
90.2959
 30
0.0
 10
141.1965
 20
90.2959
 30
0.0
 10
144.1073
 20
88.2817
 30
0.0
 10
149.0168
 20
86.39
 30
0.0
 10
150.7164
 20
90.2846
 30
0.0
 10
150.7164
 20
90.2846
 30
0.0
 10
149.0538
 20
88.7902
 30
0.0
 10
147.0708
 20
89.7293
 30
0.0
 10
146.7068
 20
90.9476
 30
0.0
 10
146.7068
 20
90.9476
 30
0.0
 10
146.344
 20
92.1619
 30
0.0
 10
146.7141
 20
93.8135
 30
0.0
 10
149.0069
 20
94.5186
 30
0.0
  0
SPLINE
  5
6C
330
1F
100
AcDbEntity
  8
layer 1
 62
     7
100
AcDbSpline
210
0.0
220
0.0
230
1.0
 70
    11
 71
     3
 72
    40
 73
    36
 74
     0
 42
0.0000000001
 43
0.0000000001
 12
1.0
 22
0.0
 32
0.0
 13
1.0
 23
0.0
 33
0.0
 40
0.0
 40
0.0
 40
0.0
 40
0.0
 40
0.1
 40
0.1
 40
0.1
 40
0.1
 40
0.2
 40
0.2
 40
0.2
 40
0.2
 40
0.3
 40
0.3
 40
0.3
 40
0.3
 40
0.4
 40
0.4
 40
0.4
 40
0.4
 40
0.5
 40
0.5
 40
0.5
 40
0.5
 40
0.6
 40
0.6
 40
0.6
 40
0.6
 40
0.7
 40
0.7
 40
0.7
 40
0.7
 40
0.8
 40
0.8
 40
0.8
 40
0.8
 40
1.0
 40
1.0
 40
1.0
 40
1.0
 10
127.3164
 20
94.5186
 30
0.0
 10
127.3164
 20
94.5186
 30
0.0
 10
107.5602
 20
94.5186
 30
0.0
 10
107.5602
 20
94.5186
 30
0.0
 10
107.5602
 20
94.5186
 30
0.0
 10
108.0844
 20
93.0434
 30
0.0
 10
110.61
 20
92.5471
 30
0.0
 10
110.3941
 20
90.7072
 30
0.0
 10
110.3941
 20
90.7072
 30
0.0
 10
110.3848
 20
89.7517
 30
0.0
 10
110.6855
 20
89.0243
 30
0.0
 10
111.483
 20
89.2795
 30
0.0
 10
111.483
 20
89.2795
 30
0.0
 10
114.0957
 20
90.7592
 30
0.0
 10
112.3274
 20
86.2995
 30
0.0
 10
112.2751
 20
84.1749
 30
0.0
 10
112.2751
 20
84.1749
 30
0.0
 10
113.318
 20
85.2656
 30
0.0
 10
117.7252
 20
89.864
 30
0.0
 10
116.9059
 20
93.6
 30
0.0
 10
116.9059
 20
93.6
 30
0.0
 10
117.8448
 20
94.5202
 30
0.0
 10
119.1887
 20
93.9207
 30
0.0
 10
120.0872
 20
92.2397
 30
0.0
 10
120.0872
 20
92.2397
 30
0.0
 10
120.366
 20
91.6319
 30
0.0
 10
121.0733
 20
91.6916
 30
0.0
 10
121.5598
 20
91.9869
 30
0.0
 10
121.5598
 20
91.9869
 30
0.0
 10
123.9047
 20
93.4225
 30
0.0
 10
125.9084
 20
93.9995
 30
0.0
 10
127.3163
 20
94.5185
 30
0.0
 10
127.3163
 20
94.5185
 30
0.0
 10
127.3163
 20
94.5185
 30
0.0
 10
127.3164
 20
94.5186
 30
0.0
 10
127.3164
 20
94.5186
 30
0.0
  0
SPLINE
  5
6D
330
1F
100
AcDbEntity
  8
layer 1
 62
     7
100
AcDbSpline
210
0.0
220
0.0
230
1.0
 70
    11
 71
     3
 72
    24
 73
    20
 74
     0
 42
0.0000000001
 43
0.0000000001
 12
1.0
 22
0.0
 32
0.0
 13
1.0
 23
0.0
 33
0.0
 40
0.0
 40
0.0
 40
0.0
 40
0.0
 40
0.1666666666666667
 40
0.1666666666666667
 40
0.1666666666666667
 40
0.1666666666666667
 40
0.3333333333333333
 40
0.3333333333333333
 40
0.3333333333333333
 40
0.3333333333333333
 40
0.5
 40
0.5
 40
0.5
 40
0.5
 40
0.6666666666666666
 40
0.6666666666666666
 40
0.6666666666666666
 40
0.6666666666666666
 40
1.0
 40
1.0
 40
1.0
 40
1.0
 10
167.0619
 20
94.5186
 30
0.0
 10
167.0619
 20
94.5186
 30
0.0
 10
152.0306
 20
94.5186
 30
0.0
 10
152.0306
 20
94.5186
 30
0.0
 10
152.0306
 20
94.5186
 30
0.0
 10
153.7382
 20
94.1164
 30
0.0
 10
154.2158
 20
91.4895
 30
0.0
 10
153.0567
 20
88.8359
 30
0.0
 10
153.0567
 20
88.8359
 30
0.0
 10
154.2615
 20
90.7796
 30
0.0
 10
158.248
 20
91.652
 30
0.0
 10
159.9893
 20
89.2755
 30
0.0
 10
159.9893
 20
89.2755
 30
0.0
 10
161.8738
 20
92.6977
 30
0.0
 10
164.6037
 20
94.2007
 30
0.0
 10
167.0618
 20
94.5186
 30
0.0
 10
167.0618
 20
94.5186
 30
0.0
 10
167.0618
 20
94.5186
 30
0.0
 10
167.0619
 20
94.5186
 30
0.0
 10
167.0619
 20
94.5186
 30
0.0
  0
SPLINE
  5
6E
330
1F
100
AcDbEntity
  8
layer 1
 62
     7
100
AcDbSpline
210
0.0
220
0.0
230
1.0
 70
    11
 71
     3
 72
    16
 73
    12
 74
     0
 42
0.0000000001
 43
0.0000000001
 12
1.0
 22
0.0
 32
0.0
 13
1.0
 23
0.0
 33
0.0
 40
0.0
 40
0.0
 40
0.0
 40
0.0
 40
0.25
 40
0.25
 40
0.25
 40
0.25
 40
0.5
 40
0.5
 40
0.5
 40
0.5
 40
1.0
 40
1.0
 40
1.0
 40
1.0
 10
185.7519
 20
94.5186
 30
0.0
 10
185.7519
 20
94.5186
 30
0.0
 10
172.0672
 20
94.5186
 30
0.0
 10
172.0672
 20
94.5186
 30
0.0
 10
172.0672
 20
94.5186
 30
0.0
 10
176.0053
 20
93.7075
 30
0.0
 10
180.3667
 20
90.8625
 30
0.0
 10
182.1459
 20
86.3184
 30
0.0
 10
182.1459
 20
86.3184
 30
0.0
 10
183.1049
 20
90.2273
 30
0.0
 10
184.6982
 20
93.0455
 30
0.0
 10
185.7519
 20
94.5186
 30
0.0
  0
SPLINE
  5
6F
330
1F
100
AcDbEntity
  8
layer 1
 62
     7
100
AcDbSpline
210
0.0
220
0.0
230
1.0
 70
    11
 71
     3
 72
    16
 73
    12
 74
     0
 42
0.0000000001
 43
0.0000000001
 12
1.0
 22
0.0
 32
0.0
 13
1.0
 23
0.0
 33
0.0
 40
0.0
 40
0.0
 40
0.0
 40
0.0
 40
0.25
 40
0.25
 40
0.25
 40
0.25
 40
0.5
 40
0.5
 40
0.5
 40
0.5
 40
1.0
 40
1.0
 40
1.0
 40
1.0
 10
152.9819
 20
70.4695
 30
0.0
 10
149.4931
 20
74.9335
 30
0.0
 10
146.8226
 20
78.1702
 30
0.0
 10
145.7068
 20
82.1433
 30
0.0
 10
145.7068
 20
82.1433
 30
0.0
 10
145.9628
 20
78.1683
 30
0.0
 10
144.4601
 20
74.5869
 30
0.0
 10
140.4296
 20
70.8611
 30
0.0
 10
140.4296
 20
70.8611
 30
0.0
 10
144.8253
 20
72.288
 30
0.0
 10
149.1461
 20
71.915
 30
0.0
 10
152.9819
 20
70.4695
 30
0.0
  0
SPLINE
  5
70
330
1F
100
AcDbEntity
  8
layer 1
 62
     7
100
AcDbSpline
210
0.0
220
0.0
230
1.0
 70
    11
 71
     3
 72
    24
 73
    20
 74
     0
 42
0.0000000001
 43
0.0000000001
 12
1.0
 22
0.0
 32
0.0
 13
1.0
 23
0.0
 33
0.0
 40
0.0
 40
0.0
 40
0.0
 40
0.0
 40
0.1666666666666667
 40
0.1666666666666667
 40
0.1666666666666667
 40
0.1666666666666667
 40
0.3333333333333333
 40
0.3333333333333333
 40
0.3333333333333333
 40
0.3333333333333333
 40
0.5
 40
0.5
 40
0.5
 40
0.5
 40
0.6666666666666666
 40
0.6666666666666666
 40
0.6666666666666666
 40
0.6666666666666666
 40
1.0
 40
1.0
 40
1.0
 40
1.0
 10
170.4838
 20
66.8217
 30
0.0
 10
165.1289
 20
66.1617
 30
0.0
 10
163.3134
 20
66.4346
 30
0.0
 10
159.3547
 20
67.9494
 30
0.0
 10
159.3547
 20
67.9494
 30
0.0
 10
158.5439
 20
68.2596
 30
0.0
 10
158.051
 20
67.8088
 30
0.0
 10
158.8624
 20
67.3191
 30
0.0
 10
158.8624
 20
67.3191
 30
0.0
 10
163.2707
 20
64.78
 30
0.0
 10
163.9024
 20
60.3448
 30
0.0
 10
165.9258
 20
59.219
 30
0.0
 10
165.9258
 20
59.219
 30
0.0
 10
166.7125
 20
64.2161
 30
0.0
 10
169.1318
 20
64.5416
 30
0.0
 10
170.4839
 20
66.8217
 30
0.0
 10
170.4839
 20
66.8217
 30
0.0
 10
170.4839
 20
66.8217
 30
0.0
 10
170.4838
 20
66.8217
 30
0.0
 10
170.4838
 20
66.8217
 30
0.0
  0
SPLINE
  5
71
330
1F
100
AcDbEntity
  8
layer 1
 62
     7
100
AcDbSpline
210
0.0
220
0.0
230
1.0
 70
    11
 71
     3
 72
    16
 73
    12
 74
     0
 42
0.0000000001
 43
0.0000000001
 12
1.0
 22
0.0
 32
0.0
 13
1.0
 23
0.0
 33
0.0
 40
0.0
 40
0.0
 40
0.0
 40
0.0
 40
0.25
 40
0.25
 40
0.25
 40
0.25
 40
0.5
 40
0.5
 40
0.5
 40
0.5
 40
1.0
 40
1.0
 40
1.0
 40
1.0
 10
190.1202
 20
60.9101
 30
0.0
 10
190.1202
 20
60.9101
 30
0.0
 10
190.1202
 20
50.5059
 30
0.0
 10
190.1202
 20
50.5059
 30
0.0
 10
190.1202
 20
50.5059
 30
0.0
 10
187.8276
 20
50.264
 30
0.0
 10
185.353
 20
52.5618
 30
0.0
 10
183.0841
 20
55.4521
 30
0.0
 10
183.0841
 20
55.4521
 30
0.0
 10
187.2576
 20
55.4587
 30
0.0
 10
189.1234
 20
56.7875
 30
0.0
 10
190.1202
 20
60.9101
 30
0.0
  0
SPLINE
  5
72
330
1F
100
AcDbEntity
  8
layer 1
 62
     7
100
AcDbSpline
210
0.0
220
0.0
230
1.0
 70
    11
 71
     3
 72
    28
 73
    24
 74
     0
 42
0.0000000001
 43
0.0000000001
 12
1.0
 22
0.0
 32
0.0
 13
1.0
 23
0.0
 33
0.0
 40
0.0
 40
0.0
 40
0.0
 40
0.0
 40
0.1428571428571428
 40
0.1428571428571428
 40
0.1428571428571428
 40
0.1428571428571428
 40
0.2857142857142857
 40
0.2857142857142857
 40
0.2857142857142857
 40
0.2857142857142857
 40
0.4285714285714285
 40
0.4285714285714285
 40
0.4285714285714285
 40
0.4285714285714285
 40
0.5714285714285714
 40
0.5714285714285714
 40
0.5714285714285714
 40
0.5714285714285714
 40
0.7142857142857143
 40
0.7142857142857143
 40
0.7142857142857143
 40
0.7142857142857143
 40
1.0
 40
1.0
 40
1.0
 40
1.0
 10
190.1202
 20
77.4717
 30
0.0
 10
190.1202
 20
77.4717
 30
0.0
 10
190.1202
 20
62.2525
 30
0.0
 10
190.1202
 20
62.2525
 30
0.0
 10
190.1202
 20
62.2525
 30
0.0
 10
189.1504
 20
66.6669
 30
0.0
 10
186.4113
 20
67.6948
 30
0.0
 10
184.7773
 20
67.622
 30
0.0
 10
184.7773
 20
67.622
 30
0.0
 10
186.4929
 20
61.7493
 30
0.0
 10
182.0959
 20
59.3848
 30
0.0
 10
176.3964
 20
56.0125
 30
0.0
 10
176.3964
 20
56.0125
 30
0.0
 10
178.9669
 20
61.1078
 30
0.0
 10
175.386
 20
65.2081
 30
0.0
 10
172.7981
 20
66.8396
 30
0.0
 10
172.7981
 20
66.8396
 30
0.0
 10
179.6369
 20
67.2118
 30
0.0
 10
186.9273
 20
69.1713
 30
0.0
 10
190.1202
 20
77.4716
 30
0.0
 10
190.1202
 20
77.4716
 30
0.0
 10
190.1202
 20
77.4716
 30
0.0
 10
190.1202
 20
77.4717
 30
0.0
 10
190.1202
 20
77.4717
 30
0.0
  0
SPLINE
  5
73
330
1F
100
AcDbEntity
  8
layer 1
 62
     7
100
AcDbSpline
210
0.0
220
0.0
230
1.0
 70
    11
 71
     3
 72
    44
 73
    40
 74
     0
 42
0.0000000001
 43
0.0000000001
 12
1.0
 22
0.0
 32
0.0
 13
1.0
 23
0.0
 33
0.0
 40
0.0
 40
0.0
 40
0.0
 40
0.0
 40
0.0909090909090909
 40
0.0909090909090909
 40
0.0909090909090909
 40
0.0909090909090909
 40
0.1818181818181818
 40
0.1818181818181818
 40
0.1818181818181818
 40
0.1818181818181818
 40
0.2727272727272727
 40
0.2727272727272727
 40
0.2727272727272727
 40
0.2727272727272727
 40
0.3636363636363636
 40
0.3636363636363636
 40
0.3636363636363636
 40
0.3636363636363636
 40
0.4545454545454545
 40
0.4545454545454545
 40
0.4545454545454545
 40
0.4545454545454545
 40
0.5454545454545454
 40
0.5454545454545454
 40
0.5454545454545454
 40
0.5454545454545454
 40
0.6363636363636364
 40
0.6363636363636364
 40
0.6363636363636364
 40
0.6363636363636364
 40
0.7272727272727273
 40
0.7272727272727273
 40
0.7272727272727273
 40
0.7272727272727273
 40
0.8181818181818182
 40
0.8181818181818182
 40
0.8181818181818182
 40
0.8181818181818182
 40
1.0
 40
1.0
 40
1.0
 40
1.0
 10
190.1202
 20
48.8461
 30
0.0
 10
190.1202
 20
48.8461
 30
0.0
 10
190.1202
 20
22.6741
 30
0.0
 10
190.1202
 20
22.6741
 30
0.0
 10
190.1202
 20
22.6741
 30
0.0
 10
189.0784
 20
22.6729
 30
0.0
 10
187.1825
 20
23.3024
 30
0.0
 10
188.5687
 20
25.2069
 30
0.0
 10
188.5687
 20
25.2069
 30
0.0
 10
187.9368
 20
25.8639
 30
0.0
 10
187.2165
 20
26.7804
 30
0.0
 10
184.5848
 20
27.3886
 30
0.0
 10
184.5848
 20
27.3886
 30
0.0
 10
185.8271
 20
27.7849
 30
0.0
 10
186.8591
 20
29.4507
 30
0.0
 10
187.0337
 20
30.7838
 30
0.0
 10
187.0337
 20
30.7838
 30
0.0
 10
186.5325
 20
31.4475
 30
0.0
 10
182.9347
 20
31.5621
 30
0.0
 10
181.1805
 20
31.2777
 30
0.0
 10
181.1805
 20
31.2777
 30
0.0
 10
182.2664
 20
33.722
 30
0.0
 10
181.9666
 20
35.5318
 30
0.0
 10
181.1045
 20
36.75
 30
0.0
 10
181.1045
 20
36.75
 30
0.0
 10
180.0826
 20
35.8952
 30
0.0
 10
179.1656
 20
35.2827
 30
0.0
 10
178.251
 20
35.1476
 30
0.0
 10
178.251
 20
35.1476
 30
0.0
 10
181.4676
 20
39.9853
 30
0.0
 10
178.0785
 20
44.4286
 30
0.0
 10
175.9412
 20
46.3513
 30
0.0
 10
175.9412
 20
46.3513
 30
0.0
 10
180.4321
 20
44.0298
 30
0.0
 10
183.1974
 20
46.6814
 30
0.0
 10
190.1204
 20
48.8462
 30
0.0
 10
190.1204
 20
48.8462
 30
0.0
 10
190.1204
 20
48.8462
 30
0.0
 10
190.1202
 20
48.8461
 30
0.0
 10
190.1202
 20
48.8461
 30
0.0
  0
SPLINE
  5
74
330
1F
100
AcDbEntity
  8
layer 1
 62
     7
100
AcDbSpline
210
0.0
220
0.0
230
1.0
 70
    11
 71
     3
 72
   124
 73
   120
 74
     0
 42
0.0000000001
 43
0.0000000001
 12
1.0
 22
0.0
 32
0.0
 13
1.0
 23
0.0
 33
0.0
 40
0.0
 40
0.0
 40
0.0
 40
0.0
 40
0.032258064516129
 40
0.032258064516129
 40
0.032258064516129
 40
0.032258064516129
 40
0.0645161290322581
 40
0.0645161290322581
 40
0.0645161290322581
 40
0.0645161290322581
 40
0.0967741935483871
 40
0.0967741935483871
 40
0.0967741935483871
 40
0.0967741935483871
 40
0.1290322580645161
 40
0.1290322580645161
 40
0.1290322580645161
 40
0.1290322580645161
 40
0.1612903225806452
 40
0.1612903225806452
 40
0.1612903225806452
 40
0.1612903225806452
 40
0.1935483870967742
 40
0.1935483870967742
 40
0.1935483870967742
 40
0.1935483870967742
 40
0.2258064516129032
 40
0.2258064516129032
 40
0.2258064516129032
 40
0.2258064516129032
 40
0.2580645161290323
 40
0.2580645161290323
 40
0.2580645161290323
 40
0.2580645161290323
 40
0.2903225806451613
 40
0.2903225806451613
 40
0.2903225806451613
 40
0.2903225806451613
 40
0.3225806451612903
 40
0.3225806451612903
 40
0.3225806451612903
 40
0.3225806451612903
 40
0.3548387096774194
 40
0.3548387096774194
 40
0.3548387096774194
 40
0.3548387096774194
 40
0.3870967741935484
 40
0.3870967741935484
 40
0.3870967741935484
 40
0.3870967741935484
 40
0.4193548387096774
 40
0.4193548387096774
 40
0.4193548387096774
 40
0.4193548387096774
 40
0.4516129032258064
 40
0.4516129032258064
 40
0.4516129032258064
 40
0.4516129032258064
 40
0.4838709677419355
 40
0.4838709677419355
 40
0.4838709677419355
 40
0.4838709677419355
 40
0.5161290322580645
 40
0.5161290322580645
 40
0.5161290322580645
 40
0.5161290322580645
 40
0.5483870967741935
 40
0.5483870967741935
 40
0.5483870967741935
 40
0.5483870967741935
 40
0.5806451612903226
 40
0.5806451612903226
 40
0.5806451612903226
 40
0.5806451612903226
 40
0.6129032258064516
 40
0.6129032258064516
 40
0.6129032258064516
 40
0.6129032258064516
 40
0.6451612903225806
 40
0.6451612903225806
 40
0.6451612903225806
 40
0.6451612903225806
 40
0.6774193548387096
 40
0.6774193548387096
 40
0.6774193548387096
 40
0.6774193548387096
 40
0.7096774193548387
 40
0.7096774193548387
 40
0.7096774193548387
 40
0.7096774193548387
 40
0.7419354838709677
 40
0.7419354838709677
 40
0.7419354838709677
 40
0.7419354838709677
 40
0.7741935483870968
 40
0.7741935483870968
 40
0.7741935483870968
 40
0.7741935483870968
 40
0.8064516129032258
 40
0.8064516129032258
 40
0.8064516129032258
 40
0.8064516129032258
 40
0.8387096774193549
 40
0.8387096774193549
 40
0.8387096774193549
 40
0.8387096774193549
 40
0.8709677419354839
 40
0.8709677419354839
 40
0.8709677419354839
 40
0.8709677419354839
 40
0.9032258064516129
 40
0.9032258064516129
 40
0.9032258064516129
 40
0.9032258064516129
 40
0.9354838709677419
 40
0.9354838709677419
 40
0.9354838709677419
 40
0.9354838709677419
 40
1.0
 40
1.0
 40
1.0
 40
1.0
 10
161.5128
 20
16.7523
 30
0.0
 10
153.1638
 20
17.2041
 30
0.0
 10
155.015
 20
20.5654
 30
0.0
 10
145.8591
 20
17.563
 30
0.0
 10
145.8591
 20
17.563
 30
0.0
 10
145.2696
 20
17.3769
 30
0.0
 10
145.0845
 20
17.9375
 30
0.0
 10
145.6192
 20
18.1648
 30
0.0
 10
145.6192
 20
18.1648
 30
0.0
 10
152.9068
 20
21.358
 30
0.0
 10
161.6985
 20
25.466
 30
0.0
 10
169.1592
 20
26.2497
 30
0.0
 10
169.1592
 20
26.2497
 30
0.0
 10
167.9951
 20
24.923
 30
0.0
 10
167.624
 20
23.0366
 30
0.0
 10
168.7635
 20
21.0831
 30
0.0
 10
168.7635
 20
21.0831
 30
0.0
 10
169.3494
 20
21.1459
 30
0.0
 10
169.6898
 20
21.5845
 30
0.0
 10
170.17
 20
22.2676
 30
0.0
 10
170.17
 20
22.2676
 30
0.0
 10
170.0495
 20
20.164
 30
0.0
 10
171.6723
 20
17.7539
 30
0.0
 10
173.3068
 20
16.6749
 30
0.0
 10
173.3068
 20
16.6749
 30
0.0
 10
174.8748
 20
17.047
 30
0.0
 10
176.1092
 20
19.3958
 30
0.0
 10
175.8248
 20
21.1501
 30
0.0
 10
175.8248
 20
21.1501
 30
0.0
 10
176.6756
 20
19.7627
 30
0.0
 10
177.4087
 20
18.5121
 30
0.0
 10
179.1868
 20
18.3838
 30
0.0
 10
179.1868
 20
18.3838
 30
0.0
 10
180.3992
 20
18.975
 30
0.0
 10
180.3466
 20
20.9686
 30
0.0
 10
180.2114
 20
21.8833
 30
0.0
 10
180.2114
 20
21.8833
 30
0.0
 10
180.9306
 20
20.6349
 30
0.0
 10
182.0725
 20
19.5637
 30
0.0
 10
183.7241
 20
18.6721
 30
0.0
 10
183.7241
 20
18.6721
 30
0.0
 10
184.4482
 20
18.9928
 30
0.0
 10
185.3525
 20
20.3132
 30
0.0
 10
185.8597
 20
20.877
 30
0.0
 10
185.8597
 20
20.877
 30
0.0
 10
185.8918
 20
20.3362
 30
0.0
 10
185.3681
 20
18.726
 30
0.0
 10
186.6614
 20
18.2255
 30
0.0
 10
186.6614
 20
18.2255
 30
0.0
 10
187.76
 20
17.8003
 30
0.0
 10
189.6689
 20
17.3129
 30
0.0
 10
190.1202
 20
17.292
 30
0.0
 10
190.1202
 20
17.292
 30
0.0
 10
190.1202
 20
17.292
 30
0.0
 10
190.1202
 20
14.4066
 30
0.0
 10
190.1202
 20
14.4066
 30
0.0
 10
190.1202
 20
14.4066
 30
0.0
 10
190.1202
 20
14.4066
 30
0.0
 10
190.1202
 20
11.5212
 30
0.0
 10
190.1202
 20
11.5212
 30
0.0
 10
190.1202
 20
11.5212
 30
0.0
 10
189.6689
 20
11.5003
 30
0.0
 10
187.76
 20
11.0129
 30
0.0
 10
186.6614
 20
10.5877
 30
0.0
 10
186.6614
 20
10.5877
 30
0.0
 10
185.3681
 20
10.0872
 30
0.0
 10
185.8918
 20
8.4769
 30
0.0
 10
185.8597
 20
7.9362
 30
0.0
 10
185.8597
 20
7.9362
 30
0.0
 10
185.3525
 20
8.5
 30
0.0
 10
184.4482
 20
9.8203
 30
0.0
 10
183.7241
 20
10.1411
 30
0.0
 10
183.7241
 20
10.1411
 30
0.0
 10
182.0726
 20
9.2495
 30
0.0
 10
180.9307
 20
8.1784
 30
0.0
 10
180.2114
 20
6.9299
 30
0.0
 10
180.2114
 20
6.9299
 30
0.0
 10
180.3466
 20
7.8446
 30
0.0
 10
180.3992
 20
9.8383
 30
0.0
 10
179.1868
 20
10.4294
 30
0.0
 10
179.1868
 20
10.4294
 30
0.0
 10
177.4087
 20
10.3011
 30
0.0
 10
176.6756
 20
9.0505
 30
0.0
 10
175.8248
 20
7.6631
 30
0.0
 10
175.8248
 20
7.6631
 30
0.0
 10
176.1092
 20
9.4173
 30
0.0
 10
174.8749
 20
11.7662
 30
0.0
 10
173.3068
 20
12.1383
 30
0.0
 10
173.3068
 20
12.1383
 30
0.0
 10
171.6723
 20
11.0592
 30
0.0
 10
170.0495
 20
8.6492
 30
0.0
 10
170.17
 20
6.5456
 30
0.0
 10
170.17
 20
6.5456
 30
0.0
 10
169.6898
 20
7.2286
 30
0.0
 10
169.3494
 20
7.6673
 30
0.0
 10
168.7635
 20
7.7301
 30
0.0
 10
168.7635
 20
7.7301
 30
0.0
 10
167.6239
 20
5.7766
 30
0.0
 10
167.9951
 20
3.8902
 30
0.0
 10
169.1592
 20
2.5634
 30
0.0
 10
169.1592
 20
2.5634
 30
0.0
 10
161.6985
 20
3.3472
 30
0.0
 10
152.9068
 20
7.4552
 30
0.0
 10
145.6192
 20
10.6484
 30
0.0
 10
145.6192
 20
10.6484
 30
0.0
 10
145.0845
 20
10.8757
 30
0.0
 10
145.2696
 20
11.4363
 30
0.0
 10
145.8591
 20
11.2502
 30
0.0
 10
145.8591
 20
11.2502
 30
0.0
 10
155.015
 20
8.2478
 30
0.0
 10
153.1638
 20
11.609
 30
0.0
 10
161.5128
 20
12.0609
 30
0.0
 10
161.5128
 20
12.0609
 30
0.0
 10
163.1742
 20
12.1508
 30
0.0
 10
163.9358
 20
13.1366
 30
0.0
 10
163.8768
 20
14.4066
 30
0.0
 10
163.8768
 20
14.4066
 30
0.0
 10
163.9358
 20
15.6766
 30
0.0
 10
163.1742
 20
16.6624
 30
0.0
 10
161.5128
 20
16.7523
 30
0.0
  0
SPLINE
  5
75
330
1F
100
AcDbEntity
  8
layer 1
 62
     7
100
AcDbSpline
210
0.0
220
0.0
230
1.0
 70
    11
 71
     3
 72
    24
 73
    20
 74
     0
 42
0.0000000001
 43
0.0000000001
 12
1.0
 22
0.0
 32
0.0
 13
1.0
 23
0.0
 33
0.0
 40
0.0
 40
0.0
 40
0.0
 40
0.0
 40
0.1666666666666667
 40
0.1666666666666667
 40
0.1666666666666667
 40
0.1666666666666667
 40
0.3333333333333333
 40
0.3333333333333333
 40
0.3333333333333333
 40
0.3333333333333333
 40
0.5
 40
0.5
 40
0.5
 40
0.5
 40
0.6666666666666666
 40
0.6666666666666666
 40
0.6666666666666666
 40
0.6666666666666666
 40
1.0
 40
1.0
 40
1.0
 40
1.0
 10
168.8521
 20
40.4191
 30
0.0
 10
167.2181
 20
35.3861
 30
0.0
 10
163.6756
 20
30.9969
 30
0.0
 10
158.5871
 20
26.867
 30
0.0
 10
158.5871
 20
26.867
 30
0.0
 10
162.9635
 20
29.5829
 30
0.0
 10
168.1975
 20
29.7073
 30
0.0
 10
170.197
 20
29.4301
 30
0.0
 10
170.197
 20
29.4301
 30
0.0
 10
168.1124
 20
31.7012
 30
0.0
 10
172.6283
 20
32.4879
 30
0.0
 10
173.0047
 20
35.5305
 30
0.0
 10
173.0047
 20
35.5305
 30
0.0
 10
174.0189
 20
35.5056
 30
0.0
 10
174.0891
 20
35.1076
 30
0.0
 10
174.9192
 20
34.4961
 30
0.0
 10
174.9192
 20
34.4961
 30
0.0
 10
176.1962
 20
37.5156
 30
0.0
 10
170.9727
 20
38.0252
 30
0.0
 10
168.8521
 20
40.4191
 30
0.0
  0
SPLINE
  5
76
330
1F
100
AcDbEntity
  8
layer 1
 62
     7
100
AcDbSpline
210
0.0
220
0.0
230
1.0
 70
    11
 71
     3
 72
    20
 73
    16
 74
     0
 42
0.0000000001
 43
0.0000000001
 12
1.0
 22
0.0
 32
0.0
 13
1.0
 23
0.0
 33
0.0
 40
0.0
 40
0.0
 40
0.0
 40
0.0
 40
0.2
 40
0.2
 40
0.2
 40
0.2
 40
0.4
 40
0.4
 40
0.4
 40
0.4
 40
0.6
 40
0.6
 40
0.6
 40
0.6
 40
1.0
 40
1.0
 40
1.0
 40
1.0
 10
165.6431
 20
41.4035
 30
0.0
 10
163.4855
 20
38.5665
 30
0.0
 10
162.0049
 20
40.4115
 30
0.0
 10
158.368
 20
38.939
 30
0.0
 10
158.368
 20
38.939
 30
0.0
 10
159.6123
 20
38.1911
 30
0.0
 10
161.5584
 20
36.2029
 30
0.0
 10
160.4322
 20
32.8199
 30
0.0
 10
160.4322
 20
32.8199
 30
0.0
 10
162.1051
 20
35.3158
 30
0.0
 10
165.2764
 20
38.8756
 30
0.0
 10
165.6431
 20
41.4034
 30
0.0
 10
165.6431
 20
41.4034
 30
0.0
 10
165.6431
 20
41.4034
 30
0.0
 10
165.6431
 20
41.4035
 30
0.0
 10
165.6431
 20
41.4035
 30
0.0
  0
SPLINE
  5
77
330
1F
100
AcDbEntity
  8
layer 1
 62
     7
100
AcDbSpline
210
0.0
220
0.0
230
1.0
 70
    11
 71
     3
 72
    40
 73
    36
 74
     0
 42
0.0000000001
 43
0.0000000001
 12
1.0
 22
0.0
 32
0.0
 13
1.0
 23
0.0
 33
0.0
 40
0.0
 40
0.0
 40
0.0
 40
0.0
 40
0.1
 40
0.1
 40
0.1
 40
0.1
 40
0.2
 40
0.2
 40
0.2
 40
0.2
 40
0.3
 40
0.3
 40
0.3
 40
0.3
 40
0.4
 40
0.4
 40
0.4
 40
0.4
 40
0.5
 40
0.5
 40
0.5
 40
0.5
 40
0.6
 40
0.6
 40
0.6
 40
0.6
 40
0.7
 40
0.7
 40
0.7
 40
0.7
 40
0.8
 40
0.8
 40
0.8
 40
0.8
 40
1.0
 40
1.0
 40
1.0
 40
1.0
 10
190.1202
 20
84.6024
 30
0.0
 10
190.1202
 20
84.6024
 30
0.0
 10
190.1202
 20
80.6295
 30
0.0
 10
190.1202
 20
80.6295
 30
0.0
 10
190.1202
 20
80.6295
 30
0.0
 10
187.7175
 20
82.1
 30
0.0
 10
186.4709
 20
81.1017
 30
0.0
 10
185.575
 20
79.4098
 30
0.0
 10
185.575
 20
79.4098
 30
0.0
 10
184.7237
 20
76.3987
 30
0.0
 10
183.3377
 20
77.0543
 30
0.0
 10
184.2888
 20
75.0705
 30
0.0
 10
184.2888
 20
75.0705
 30
0.0
 10
184.6932
 20
73.4976
 30
0.0
 10
184.0085
 20
74.0
 30
0.0
 10
182.3522
 20
73.4156
 30
0.0
 10
182.3522
 20
73.4156
 30
0.0
 10
182.0045
 20
73.293
 30
0.0
 10
181.7239
 20
72.6599
 30
0.0
 10
181.2916
 20
72.3427
 30
0.0
 10
181.2916
 20
72.3427
 30
0.0
 10
180.8001
 20
71.9821
 30
0.0
 10
180.1813
 20
71.7393
 30
0.0
 10
179.5469
 20
71.5688
 30
0.0
 10
179.5469
 20
71.5688
 30
0.0
 10
185.1212
 20
79.4115
 30
0.0
 10
183.0056
 20
87.6147
 30
0.0
 10
187.3415
 20
88.9166
 30
0.0
 10
187.3415
 20
88.9166
 30
0.0
 10
185.0953
 20
86.4315
 30
0.0
 10
187.1472
 20
83.2989
 30
0.0
 10
190.1203
 20
84.6024
 30
0.0
 10
190.1203
 20
84.6024
 30
0.0
 10
190.1203
 20
84.6024
 30
0.0
 10
190.1202
 20
84.6024
 30
0.0
 10
190.1202
 20
84.6024
 30
0.0
  0
SPLINE
  5
78
330
1F
100
AcDbEntity
  8
layer 1
 62
     7
100
AcDbSpline
210
0.0
220
0.0
230
1.0
 70
    11
 71
     3
 72
    28
 73
    24
 74
     0
 42
0.0000000001
 43
0.0000000001
 12
1.0
 22
0.0
 32
0.0
 13
1.0
 23
0.0
 33
0.0
 40
0.0
 40
0.0
 40
0.0
 40
0.0
 40
0.1428571428571428
 40
0.1428571428571428
 40
0.1428571428571428
 40
0.1428571428571428
 40
0.2857142857142857
 40
0.2857142857142857
 40
0.2857142857142857
 40
0.2857142857142857
 40
0.4285714285714285
 40
0.4285714285714285
 40
0.4285714285714285
 40
0.4285714285714285
 40
0.5714285714285714
 40
0.5714285714285714
 40
0.5714285714285714
 40
0.5714285714285714
 40
0.7142857142857143
 40
0.7142857142857143
 40
0.7142857142857143
 40
0.7142857142857143
 40
1.0
 40
1.0
 40
1.0
 40
1.0
 10
137.9569
 20
87.3079
 30
0.0
 10
135.8651
 20
92.387
 30
0.0
 10
129.2126
 20
92.5831
 30
0.0
 10
125.4841
 20
91.2956
 30
0.0
 10
125.4841
 20
91.2956
 30
0.0
 10
124.6636
 20
91.0122
 30
0.0
 10
124.6795
 20
90.5599
 30
0.0
 10
125.4909
 20
90.0703
 30
0.0
 10
125.4909
 20
90.0703
 30
0.0
 10
126.3117
 20
89.5609
 30
0.0
 10
126.034
 20
88.941
 30
0.0
 10
126.1297
 20
88.3379
 30
0.0
 10
126.1297
 20
88.3379
 30
0.0
 10
126.3065
 20
87.5909
 30
0.0
 10
127.1716
 20
88.0182
 30
0.0
 10
127.7748
 20
88.2275
 30
0.0
 10
127.7748
 20
88.2275
 30
0.0
 10
132.17
 20
89.5201
 30
0.0
 10
136.0481
 20
86.3906
 30
0.0
 10
137.9568
 20
87.3079
 30
0.0
 10
137.9568
 20
87.3079
 30
0.0
 10
137.9568
 20
87.3079
 30
0.0
 10
137.9569
 20
87.3079
 30
0.0
 10
137.9569
 20
87.3079
 30
0.0
  0
SPLINE
  5
79
330
1F
100
AcDbEntity
  8
layer 1
 62
     7
100
AcDbSpline
210
0.0
220
0.0
230
1.0
 70
    11
 71
     3
 72
    28
 73
    24
 74
     0
 42
0.0000000001
 43
0.0000000001
 12
1.0
 22
0.0
 32
0.0
 13
1.0
 23
0.0
 33
0.0
 40
0.0
 40
0.0
 40
0.0
 40
0.0
 40
0.1428571428571428
 40
0.1428571428571428
 40
0.1428571428571428
 40
0.1428571428571428
 40
0.2857142857142857
 40
0.2857142857142857
 40
0.2857142857142857
 40
0.2857142857142857
 40
0.4285714285714285
 40
0.4285714285714285
 40
0.4285714285714285
 40
0.4285714285714285
 40
0.5714285714285714
 40
0.5714285714285714
 40
0.5714285714285714
 40
0.5714285714285714
 40
0.7142857142857143
 40
0.7142857142857143
 40
0.7142857142857143
 40
0.7142857142857143
 40
1.0
 40
1.0
 40
1.0
 40
1.0
 10
134.0846
 20
71.991
 30
0.0
 10
142.1473
 20
71.6457
 30
0.0
 10
144.3702
 20
80.9231
 30
0.0
 10
141.6604
 20
85.6053
 30
0.0
 10
141.6604
 20
85.6053
 30
0.0
 10
141.3111
 20
83.8544
 30
0.0
 10
138.927
 20
82.4025
 30
0.0
 10
137.2076
 20
83.4354
 30
0.0
 10
137.2076
 20
83.4354
 30
0.0
 10
139.7425
 20
80.4753
 30
0.0
 10
139.4319
 20
76.2529
 30
0.0
 10
136.7462
 20
75.2334
 30
0.0
 10
136.7462
 20
75.2334
 30
0.0
 10
135.7221
 20
75.0452
 30
0.0
 10
135.1983
 20
74.8472
 30
0.0
 10
135.1862
 20
74.0445
 30
0.0
 10
135.1862
 20
74.0445
 30
0.0
 10
135.1329
 20
73.0032
 30
0.0
 10
134.7067
 20
72.3771
 30
0.0
 10
134.0845
 20
71.991
 30
0.0
 10
134.0845
 20
71.991
 30
0.0
 10
134.0845
 20
71.991
 30
0.0
 10
134.0846
 20
71.991
 30
0.0
 10
134.0846
 20
71.991
 30
0.0
  0
SPLINE
  5
7A
330
1F
100
AcDbEntity
  8
layer 1
 62
     7
100
AcDbSpline
210
0.0
220
0.0
230
1.0
 70
    11
 71
     3
 72
    48
 73
    44
 74
     0
 42
0.0000000001
 43
0.0000000001
 12
1.0
 22
0.0
 32
0.0
 13
1.0
 23
0.0
 33
0.0
 40
0.0
 40
0.0
 40
0.0
 40
0.0
 40
0.0833333333333333
 40
0.0833333333333333
 40
0.0833333333333333
 40
0.0833333333333333
 40
0.1666666666666667
 40
0.1666666666666667
 40
0.1666666666666667
 40
0.1666666666666667
 40
0.25
 40
0.25
 40
0.25
 40
0.25
 40
0.3333333333333333
 40
0.3333333333333333
 40
0.3333333333333333
 40
0.3333333333333333
 40
0.4166666666666667
 40
0.4166666666666667
 40
0.4166666666666667
 40
0.4166666666666667
 40
0.5
 40
0.5
 40
0.5
 40
0.5
 40
0.5833333333333334
 40
0.5833333333333334
 40
0.5833333333333334
 40
0.5833333333333334
 40
0.6666666666666666
 40
0.6666666666666666
 40
0.6666666666666666
 40
0.6666666666666666
 40
0.75
 40
0.75
 40
0.75
 40
0.75
 40
0.8333333333333334
 40
0.8333333333333334
 40
0.8333333333333334
 40
0.8333333333333334
 40
1.0
 40
1.0
 40
1.0
 40
1.0
 10
164.9534
 20
78.0943
 30
0.0
 10
160.1082
 20
79.9506
 30
0.0
 10
158.2129
 20
83.4244
 30
0.0
 10
159.6969
 20
88.2028
 30
0.0
 10
159.6969
 20
88.2028
 30
0.0
 10
156.8753
 20
88.3512
 30
0.0
 10
156.5601
 20
86.6426
 30
0.0
 10
156.2975
 20
85.976
 30
0.0
 10
156.2975
 20
85.976
 30
0.0
 10
155.9577
 20
85.2049
 30
0.0
 10
155.5928
 20
83.8418
 30
0.0
 10
153.8456
 20
84.1846
 30
0.0
 10
153.8456
 20
84.1846
 30
0.0
 10
153.1659
 20
84.318
 30
0.0
 10
152.4084
 20
84.8392
 30
0.0
 10
152.5178
 20
82.8603
 30
0.0
 10
152.5178
 20
82.8603
 30
0.0
 10
152.5887
 20
81.574
 30
0.0
 10
152.3601
 20
81.0102
 30
0.0
 10
150.9996
 20
81.3381
 30
0.0
 10
150.9996
 20
81.3381
 30
0.0
 10
149.6008
 20
81.6752
 30
0.0
 10
148.149
 20
82.5971
 30
0.0
 10
148.364
 20
82.4674
 30
0.0
 10
148.364
 20
82.4674
 30
0.0
 10
149.9579
 20
77.6411
 30
0.0
 10
158.4428
 20
69.9982
 30
0.0
 10
165.046
 20
72.6812
 30
0.0
 10
165.046
 20
72.6812
 30
0.0
 10
166.1927
 20
73.0919
 30
0.0
 10
166.8312
 20
74.8947
 30
0.0
 10
165.213
 20
75.5107
 30
0.0
 10
165.213
 20
75.5107
 30
0.0
 10
164.0074
 20
76.0211
 30
0.0
 10
163.7457
 20
76.5397
 30
0.0
 10
163.9961
 20
77.3319
 30
0.0
 10
163.9961
 20
77.3319
 30
0.0
 10
164.1728
 20
77.6724
 30
0.0
 10
164.7229
 20
77.3934
 30
0.0
 10
164.9535
 20
78.0944
 30
0.0
 10
164.9535
 20
78.0944
 30
0.0
 10
164.9535
 20
78.0944
 30
0.0
 10
164.9534
 20
78.0943
 30
0.0
 10
164.9534
 20
78.0943
 30
0.0
  0
SPLINE
  5
7B
330
1F
100
AcDbEntity
  8
layer 1
 62
     7
100
AcDbSpline
210
0.0
220
0.0
230
1.0
 70
    11
 71
     3
 72
    48
 73
    44
 74
     0
 42
0.0000000001
 43
0.0000000001
 12
1.0
 22
0.0
 32
0.0
 13
1.0
 23
0.0
 33
0.0
 40
0.0
 40
0.0
 40
0.0
 40
0.0
 40
0.0833333333333333
 40
0.0833333333333333
 40
0.0833333333333333
 40
0.0833333333333333
 40
0.1666666666666667
 40
0.1666666666666667
 40
0.1666666666666667
 40
0.1666666666666667
 40
0.25
 40
0.25
 40
0.25
 40
0.25
 40
0.3333333333333333
 40
0.3333333333333333
 40
0.3333333333333333
 40
0.3333333333333333
 40
0.4166666666666667
 40
0.4166666666666667
 40
0.4166666666666667
 40
0.4166666666666667
 40
0.5
 40
0.5
 40
0.5
 40
0.5
 40
0.5833333333333334
 40
0.5833333333333334
 40
0.5833333333333334
 40
0.5833333333333334
 40
0.6666666666666666
 40
0.6666666666666666
 40
0.6666666666666666
 40
0.6666666666666666
 40
0.75
 40
0.75
 40
0.75
 40
0.75
 40
0.8333333333333334
 40
0.8333333333333334
 40
0.8333333333333334
 40
0.8333333333333334
 40
1.0
 40
1.0
 40
1.0
 40
1.0
 10
164.26
 20
87.7296
 30
0.0
 10
163.2286
 20
85.0343
 30
0.0
 10
164.7363
 20
82.4314
 30
0.0
 10
167.4425
 20
83.8476
 30
0.0
 10
167.4425
 20
83.8476
 30
0.0
 10
168.8133
 20
87.438
 30
0.0
 10
172.2454
 20
86.4714
 30
0.0
 10
173.5795
 20
84.1293
 30
0.0
 10
173.5795
 20
84.1293
 30
0.0
 10
174.6929
 20
82.1745
 30
0.0
 10
174.196
 20
79.1377
 30
0.0
 10
171.2231
 20
78.1616
 30
0.0
 10
171.2231
 20
78.1616
 30
0.0
 10
172.2759
 20
77.7116
 30
0.0
 10
172.4397
 20
77.1986
 30
0.0
 10
172.2841
 20
76.3639
 30
0.0
 10
172.2841
 20
76.3639
 30
0.0
 10
172.1939
 20
75.8799
 30
0.0
 10
172.2994
 20
74.9397
 30
0.0
 10
173.3985
 20
75.0929
 30
0.0
 10
173.3985
 20
75.0929
 30
0.0
 10
174.1857
 20
75.2026
 30
0.0
 10
175.088
 20
75.6927
 30
0.0
 10
175.3879
 20
75.2226
 30
0.0
 10
175.3879
 20
75.2226
 30
0.0
 10
175.8132
 20
74.5558
 30
0.0
 10
174.0173
 20
72.1805
 30
0.0
 10
173.8688
 20
71.8437
 30
0.0
 10
173.8688
 20
71.8437
 30
0.0
 10
173.5186
 20
71.0494
 30
0.0
 10
173.9852
 20
70.821
 30
0.0
 10
174.4738
 20
71.3207
 30
0.0
 10
174.4738
 20
71.3207
 30
0.0
 10
177.4339
 20
73.8791
 30
0.0
 10
182.9585
 20
80.67
 30
0.0
 10
176.412
 20
87.9113
 30
0.0
 10
176.412
 20
87.9113
 30
0.0
 10
171.1331
 20
92.8727
 30
0.0
 10
165.611
 20
90.5194
 30
0.0
 10
164.2601
 20
87.7295
 30
0.0
 10
164.2601
 20
87.7295
 30
0.0
 10
164.2601
 20
87.7295
 30
0.0
 10
164.26
 20
87.7296
 30
0.0
 10
164.26
 20
87.7296
 30
0.0
  0
SPLINE
  5
7C
330
1F
100
AcDbEntity
  8
layer 1
 62
     7
100
AcDbSpline
210
0.0
220
0.0
230
1.0
 70
    11
 71
     3
 72
    44
 73
    40
 74
     0
 42
0.0000000001
 43
0.0000000001
 12
1.0
 22
0.0
 32
0.0
 13
1.0
 23
0.0
 33
0.0
 40
0.0
 40
0.0
 40
0.0
 40
0.0
 40
0.0909090909090909
 40
0.0909090909090909
 40
0.0909090909090909
 40
0.0909090909090909
 40
0.1818181818181818
 40
0.1818181818181818
 40
0.1818181818181818
 40
0.1818181818181818
 40
0.2727272727272727
 40
0.2727272727272727
 40
0.2727272727272727
 40
0.2727272727272727
 40
0.3636363636363636
 40
0.3636363636363636
 40
0.3636363636363636
 40
0.3636363636363636
 40
0.4545454545454545
 40
0.4545454545454545
 40
0.4545454545454545
 40
0.4545454545454545
 40
0.5454545454545454
 40
0.5454545454545454
 40
0.5454545454545454
 40
0.5454545454545454
 40
0.6363636363636364
 40
0.6363636363636364
 40
0.6363636363636364
 40
0.6363636363636364
 40
0.7272727272727273
 40
0.7272727272727273
 40
0.7272727272727273
 40
0.7272727272727273
 40
0.8181818181818182
 40
0.8181818181818182
 40
0.8181818181818182
 40
0.8181818181818182
 40
1.0
 40
1.0
 40
1.0
 40
1.0
 10
121.3476
 20
74.6775
 30
0.0
 10
119.5021
 20
79.1932
 30
0.0
 10
121.0359
 20
84.8802
 30
0.0
 10
124.7277
 20
86.8807
 30
0.0
 10
124.7277
 20
86.8807
 30
0.0
 10
123.2755
 20
86.3446
 30
0.0
 10
122.1253
 20
85.5592
 30
0.0
 10
120.8678
 20
85.7915
 30
0.0
 10
120.8678
 20
85.7915
 30
0.0
 10
119.8017
 20
85.7711
 30
0.0
 10
120.1203
 20
84.6059
 30
0.0
 10
120.1203
 20
84.6059
 30
0.0
 10
120.1203
 20
84.6059
 30
0.0
 10
120.4894
 20
83.0983
 30
0.0
 10
119.5617
 20
83.0979
 30
0.0
 10
118.521
 20
83.3676
 30
0.0
 10
118.521
 20
83.3676
 30
0.0
 10
117.4592
 20
83.657
 30
0.0
 10
116.7216
 20
83.5061
 30
0.0
 10
116.1162
 20
83.1974
 30
0.0
 10
116.1162
 20
83.1974
 30
0.0
 10
113.5911
 20
82.1756
 30
0.0
 10
111.2032
 20
79.8374
 30
0.0
 10
109.4903
 20
75.5869
 30
0.0
 10
109.4903
 20
75.5869
 30
0.0
 10
112.0183
 20
76.3773
 30
0.0
 10
113.004
 20
78.7941
 30
0.0
 10
113.6072
 20
79.0034
 30
0.0
 10
113.6072
 20
79.0034
 30
0.0
 10
114.8072
 20
79.0902
 30
0.0
 10
115.279
 20
76.6842
 30
0.0
 10
114.4144
 20
74.979
 30
0.0
 10
114.4144
 20
74.979
 30
0.0
 10
116.625
 20
76.3053
 30
0.0
 10
119.77
 20
75.8833
 30
0.0
 10
121.3475
 20
74.6776
 30
0.0
 10
121.3475
 20
74.6776
 30
0.0
 10
121.3475
 20
74.6776
 30
0.0
 10
121.3476
 20
74.6775
 30
0.0
 10
121.3476
 20
74.6775
 30
0.0
  0
SPLINE
  5
7D
330
1F
100
AcDbEntity
  8
layer 1
 62
     7
100
AcDbSpline
210
0.0
220
0.0
230
1.0
 70
    11
 71
     3
 72
    44
 73
    40
 74
     0
 42
0.0000000001
 43
0.0000000001
 12
1.0
 22
0.0
 32
0.0
 13
1.0
 23
0.0
 33
0.0
 40
0.0
 40
0.0
 40
0.0
 40
0.0
 40
0.0909090909090909
 40
0.0909090909090909
 40
0.0909090909090909
 40
0.0909090909090909
 40
0.1818181818181818
 40
0.1818181818181818
 40
0.1818181818181818
 40
0.1818181818181818
 40
0.2727272727272727
 40
0.2727272727272727
 40
0.2727272727272727
 40
0.2727272727272727
 40
0.3636363636363636
 40
0.3636363636363636
 40
0.3636363636363636
 40
0.3636363636363636
 40
0.4545454545454545
 40
0.4545454545454545
 40
0.4545454545454545
 40
0.4545454545454545
 40
0.5454545454545454
 40
0.5454545454545454
 40
0.5454545454545454
 40
0.5454545454545454
 40
0.6363636363636364
 40
0.6363636363636364
 40
0.6363636363636364
 40
0.6363636363636364
 40
0.7272727272727273
 40
0.7272727272727273
 40
0.7272727272727273
 40
0.7272727272727273
 40
0.8181818181818182
 40
0.8181818181818182
 40
0.8181818181818182
 40
0.8181818181818182
 40
1.0
 40
1.0
 40
1.0
 40
1.0
 10
135.3926
 20
62.4401
 30
0.0
 10
137.2867
 20
66.4685
 30
0.0
 10
142.6378
 20
69.7584
 30
0.0
 10
148.486
 20
69.1278
 30
0.0
 10
148.486
 20
69.1278
 30
0.0
 10
143.7814
 20
67.7475
 30
0.0
 10
143.6931
 20
65.4161
 30
0.0
 10
146.3845
 20
65.5774
 30
0.0
 10
146.3845
 20
65.5774
 30
0.0
 10
145.0387
 20
64.0494
 30
0.0
 10
143.6343
 20
59.9608
 30
0.0
 10
145.8634
 20
60.6173
 30
0.0
 10
145.8634
 20
60.6173
 30
0.0
 10
145.9937
 20
61.4319
 30
0.0
 10
146.7845
 20
61.3299
 30
0.0
 10
146.9403
 20
60.6278
 30
0.0
 10
146.9403
 20
60.6278
 30
0.0
 10
147.1752
 20
59.5681
 30
0.0
 10
147.6939
 20
58.7841
 30
0.0
 10
148.7752
 20
58.567
 30
0.0
 10
148.7752
 20
58.567
 30
0.0
 10
147.1168
 20
57.517
 30
0.0
 10
146.6556
 20
56.1154
 30
0.0
 10
146.2722
 20
54.2703
 30
0.0
 10
146.2722
 20
54.2703
 30
0.0
 10
145.4742
 20
57.4367
 30
0.0
 10
143.1008
 20
58.7286
 30
0.0
 10
140.8161
 20
58.1223
 30
0.0
 10
140.8161
 20
58.1223
 30
0.0
 10
140.0907
 20
57.9298
 30
0.0
 10
139.8969
 20
57.8307
 30
0.0
 10
139.0724
 20
58.0636
 30
0.0
 10
139.0724
 20
58.0636
 30
0.0
 10
143.3708
 20
60.8491
 30
0.0
 10
138.6145
 20
65.8341
 30
0.0
 10
135.3927
 20
62.4401
 30
0.0
 10
135.3927
 20
62.4401
 30
0.0
 10
135.3927
 20
62.4401
 30
0.0
 10
135.3926
 20
62.4401
 30
0.0
 10
135.3926
 20
62.4401
 30
0.0
  0
SPLINE
  5
7E
330
1F
100
AcDbEntity
  8
layer 1
 62
     7
100
AcDbSpline
210
0.0
220
0.0
230
1.0
 70
    11
 71
     3
 72
    40
 73
    36
 74
     0
 42
0.0000000001
 43
0.0000000001
 12
1.0
 22
0.0
 32
0.0
 13
1.0
 23
0.0
 33
0.0
 40
0.0
 40
0.0
 40
0.0
 40
0.0
 40
0.1
 40
0.1
 40
0.1
 40
0.1
 40
0.2
 40
0.2
 40
0.2
 40
0.2
 40
0.3
 40
0.3
 40
0.3
 40
0.3
 40
0.4
 40
0.4
 40
0.4
 40
0.4
 40
0.5
 40
0.5
 40
0.5
 40
0.5
 40
0.6
 40
0.6
 40
0.6
 40
0.6
 40
0.7
 40
0.7
 40
0.7
 40
0.7
 40
0.8
 40
0.8
 40
0.8
 40
0.8
 40
1.0
 40
1.0
 40
1.0
 40
1.0
 10
131.5786
 20
60.3562
 30
0.0
 10
131.5854
 20
58.0545
 30
0.0
 10
130.9996
 20
52.1831
 30
0.0
 10
136.1793
 20
52.1817
 30
0.0
 10
136.1793
 20
52.1817
 30
0.0
 10
136.1536
 20
53.2784
 30
0.0
 10
136.3405
 20
54.1712
 30
0.0
 10
136.9873
 20
54.5684
 30
0.0
 10
136.9873
 20
54.5684
 30
0.0
 10
137.7253
 20
52.8045
 30
0.0
 10
139.1125
 20
52.8442
 30
0.0
 10
141.3417
 20
53.5008
 30
0.0
 10
141.3417
 20
53.5008
 30
0.0
 10
142.8293
 20
54.063
 30
0.0
 10
144.5203
 20
53.7933
 30
0.0
 10
145.1971
 20
53.1804
 30
0.0
 10
145.1971
 20
53.1804
 30
0.0
 10
147.1954
 20
50.4791
 30
0.0
 10
145.8691
 20
43.1797
 30
0.0
 10
141.6718
 20
43.4971
 30
0.0
 10
141.6718
 20
43.4971
 30
0.0
 10
143.4294
 20
44.6189
 30
0.0
 10
144.8307
 20
46.6185
 30
0.0
 10
143.9615
 20
47.703
 30
0.0
 10
143.9615
 20
47.703
 30
0.0
 10
143.1297
 20
46.9927
 30
0.0
 10
142.5604
 20
46.786
 30
0.0
 10
142.3851
 20
48.6047
 30
0.0
 10
142.3851
 20
48.6047
 30
0.0
 10
142.2648
 20
51.9936
 30
0.0
 10
134.7894
 20
51.5468
 30
0.0
 10
134.6062
 20
46.8701
 30
0.0
 10
134.6062
 20
46.8701
 30
0.0
 10
128.5467
 20
50.8224
 30
0.0
 10
130.2156
 20
57.5515
 30
0.0
 10
131.5786
 20
60.3562
 30
0.0
  0
SPLINE
  5
7F
330
1F
100
AcDbEntity
  8
layer 1
 62
     7
100
AcDbSpline
210
0.0
220
0.0
230
1.0
 70
    11
 71
     3
 72
    40
 73
    36
 74
     0
 42
0.0000000001
 43
0.0000000001
 12
1.0
 22
0.0
 32
0.0
 13
1.0
 23
0.0
 33
0.0
 40
0.0
 40
0.0
 40
0.0
 40
0.0
 40
0.1
 40
0.1
 40
0.1
 40
0.1
 40
0.2
 40
0.2
 40
0.2
 40
0.2
 40
0.3
 40
0.3
 40
0.3
 40
0.3
 40
0.4
 40
0.4
 40
0.4
 40
0.4
 40
0.5
 40
0.5
 40
0.5
 40
0.5
 40
0.6
 40
0.6
 40
0.6
 40
0.6
 40
0.7
 40
0.7
 40
0.7
 40
0.7
 40
0.8
 40
0.8
 40
0.8
 40
0.8
 40
1.0
 40
1.0
 40
1.0
 40
1.0
 10
151.4742
 20
59.6914
 30
0.0
 10
153.6895
 20
61.142
 30
0.0
 10
151.9106
 20
62.7426
 30
0.0
 10
150.9846
 20
63.4542
 30
0.0
 10
150.9846
 20
63.4542
 30
0.0
 10
150.2679
 20
64.1674
 30
0.0
 10
150.9866
 20
64.679
 30
0.0
 10
151.761
 20
64.7851
 30
0.0
 10
151.761
 20
64.7851
 30
0.0
 10
153.5632
 20
64.9148
 30
0.0
 10
157.8885
 20
64.7237
 30
0.0
 10
159.6269
 20
62.656
 30
0.0
 10
159.6269
 20
62.656
 30
0.0
 10
160.1704
 20
61.8419
 30
0.0
 10
159.7484
 20
61.6199
 30
0.0
 10
159.0112
 20
61.8587
 30
0.0
 10
159.0112
 20
61.8587
 30
0.0
 10
157.8199
 20
62.2728
 30
0.0
 10
157.6091
 20
61.638
 30
0.0
 10
156.1895
 20
62.0934
 30
0.0
 10
156.1895
 20
62.0934
 30
0.0
 10
155.1611
 20
60.9899
 30
0.0
 10
155.1422
 20
58.5421
 30
0.0
 10
155.9893
 20
55.9572
 30
0.0
 10
155.9893
 20
55.9572
 30
0.0
 10
154.6894
 20
56.9869
 30
0.0
 10
152.0894
 20
57.4839
 30
0.0
 10
150.884
 20
55.6773
 30
0.0
 10
150.884
 20
55.6773
 30
0.0
 10
150.0838
 20
55.7977
 30
0.0
 10
149.8855
 20
58.5063
 30
0.0
 10
151.4743
 20
59.6913
 30
0.0
 10
151.4743
 20
59.6913
 30
0.0
 10
151.4743
 20
59.6913
 30
0.0
 10
151.4742
 20
59.6914
 30
0.0
 10
151.4742
 20
59.6914
 30
0.0
  0
SPLINE
  5
80
330
1F
100
AcDbEntity
  8
layer 1
 62
     7
100
AcDbSpline
210
0.0
220
0.0
230
1.0
 70
    11
 71
     3
 72
    40
 73
    36
 74
     0
 42
0.0000000001
 43
0.0000000001
 12
1.0
 22
0.0
 32
0.0
 13
1.0
 23
0.0
 33
0.0
 40
0.0
 40
0.0
 40
0.0
 40
0.0
 40
0.1
 40
0.1
 40
0.1
 40
0.1
 40
0.2
 40
0.2
 40
0.2
 40
0.2
 40
0.3
 40
0.3
 40
0.3
 40
0.3
 40
0.4
 40
0.4
 40
0.4
 40
0.4
 40
0.5
 40
0.5
 40
0.5
 40
0.5
 40
0.6
 40
0.6
 40
0.6
 40
0.6
 40
0.7
 40
0.7
 40
0.7
 40
0.7
 40
0.8
 40
0.8
 40
0.8
 40
0.8
 40
1.0
 40
1.0
 40
1.0
 40
1.0
 10
167.8998
 20
46.7695
 30
0.0
 10
164.5942
 20
47.7562
 30
0.0
 10
165.4598
 20
50.7718
 30
0.0
 10
167.2478
 20
50.7643
 30
0.0
 10
167.2478
 20
50.7643
 30
0.0
 10
170.7067
 20
49.9232
 30
0.0
 10
170.7526
 20
52.917
 30
0.0
 10
167.9083
 20
54.554
 30
0.0
 10
167.9083
 20
54.554
 30
0.0
 10
170.012
 20
56.4699
 30
0.0
 10
173.2934
 20
54.1912
 30
0.0
 10
171.5058
 20
51.6596
 30
0.0
 10
171.5058
 20
51.6596
 30
0.0
 10
171.1446
 20
51.1703
 30
0.0
 10
170.5371
 20
50.6234
 30
0.0
 10
171.6557
 20
49.8416
 30
0.0
 10
171.6557
 20
49.8416
 30
0.0
 10
172.7146
 20
49.4902
 30
0.0
 10
173.7564
 20
49.4586
 30
0.0
 10
174.7029
 20
50.517
 30
0.0
 10
174.7029
 20
50.517
 30
0.0
 10
174.8111
 20
49.5064
 30
0.0
 10
174.1196
 20
48.1952
 30
0.0
 10
173.2963
 20
47.3269
 30
0.0
 10
173.2963
 20
47.3269
 30
0.0
 10
171.347
 20
47.1503
 30
0.0
 10
169.9069
 20
49.0392
 30
0.0
 10
170.3716
 20
50.1323
 30
0.0
 10
170.3716
 20
50.1323
 30
0.0
 10
168.2028
 20
50.4615
 30
0.0
 10
166.4734
 20
48.5307
 30
0.0
 10
167.8998
 20
46.7696
 30
0.0
 10
167.8998
 20
46.7696
 30
0.0
 10
167.8998
 20
46.7696
 30
0.0
 10
167.8998
 20
46.7695
 30
0.0
 10
167.8998
 20
46.7695
 30
0.0
  0
SPLINE
  5
81
330
1F
100
AcDbEntity
  8
layer 1
 62
     7
100
AcDbSpline
210
0.0
220
0.0
230
1.0
 70
    11
 71
     3
 72
    72
 73
    68
 74
     0
 42
0.0000000001
 43
0.0000000001
 12
1.0
 22
0.0
 32
0.0
 13
1.0
 23
0.0
 33
0.0
 40
0.0
 40
0.0
 40
0.0
 40
0.0
 40
0.0555555555555556
 40
0.0555555555555556
 40
0.0555555555555556
 40
0.0555555555555556
 40
0.1111111111111111
 40
0.1111111111111111
 40
0.1111111111111111
 40
0.1111111111111111
 40
0.1666666666666667
 40
0.1666666666666667
 40
0.1666666666666667
 40
0.1666666666666667
 40
0.2222222222222222
 40
0.2222222222222222
 40
0.2222222222222222
 40
0.2222222222222222
 40
0.2777777777777778
 40
0.2777777777777778
 40
0.2777777777777778
 40
0.2777777777777778
 40
0.3333333333333333
 40
0.3333333333333333
 40
0.3333333333333333
 40
0.3333333333333333
 40
0.3888888888888889
 40
0.3888888888888889
 40
0.3888888888888889
 40
0.3888888888888889
 40
0.4444444444444444
 40
0.4444444444444444
 40
0.4444444444444444
 40
0.4444444444444444
 40
0.5
 40
0.5
 40
0.5
 40
0.5
 40
0.5555555555555556
 40
0.5555555555555556
 40
0.5555555555555556
 40
0.5555555555555556
 40
0.6111111111111112
 40
0.6111111111111112
 40
0.6111111111111112
 40
0.6111111111111112
 40
0.6666666666666666
 40
0.6666666666666666
 40
0.6666666666666666
 40
0.6666666666666666
 40
0.7222222222222222
 40
0.7222222222222222
 40
0.7222222222222222
 40
0.7222222222222222
 40
0.7777777777777778
 40
0.7777777777777778
 40
0.7777777777777778
 40
0.7777777777777778
 40
0.8333333333333334
 40
0.8333333333333334
 40
0.8333333333333334
 40
0.8333333333333334
 40
0.8888888888888888
 40
0.8888888888888888
 40
0.8888888888888888
 40
0.8888888888888888
 40
1.0
 40
1.0
 40
1.0
 40
1.0
 10
144.4492
 20
37.0799
 30
0.0
 10
143.8078
 20
37.4456
 30
0.0
 10
143.4469
 20
38.4682
 30
0.0
 10
143.5123
 20
39.2019
 30
0.0
 10
143.5123
 20
39.2019
 30
0.0
 10
147.9433
 20
39.4765
 30
0.0
 10
152.2456
 20
43.4836
 30
0.0
 10
153.8607
 20
47.6533
 30
0.0
 10
153.8607
 20
47.6533
 30
0.0
 10
154.1386
 20
48.4524
 30
0.0
 10
154.531
 20
49.4155
 30
0.0
 10
153.203
 20
49.0824
 30
0.0
 10
153.203
 20
49.0824
 30
0.0
 10
152.3228
 20
49.037
 30
0.0
 10
152.6515
 20
49.7866
 30
0.0
 10
153.1376
 20
50.0448
 30
0.0
 10
153.1376
 20
50.0448
 30
0.0
 10
153.7463
 20
50.3791
 30
0.0
 10
154.1802
 20
50.7596
 30
0.0
 10
154.7945
 20
51.349
 30
0.0
 10
154.7945
 20
51.349
 30
0.0
 10
157.7936
 20
50.8902
 30
0.0
 10
158.3997
 20
51.0631
 30
0.0
 10
158.1615
 20
53.2942
 30
0.0
 10
158.1615
 20
53.2942
 30
0.0
 10
159.0136
 20
52.3799
 30
0.0
 10
160.3049
 20
51.5537
 30
0.0
 10
162.6595
 20
51.097
 30
0.0
 10
162.6595
 20
51.097
 30
0.0
 10
156.5326
 20
50.0535
 30
0.0
 10
153.8284
 20
43.3036
 30
0.0
 10
155.9785
 20
39.2297
 30
0.0
 10
155.9785
 20
39.2297
 30
0.0
 10
150.8322
 20
38.5409
 30
0.0
 10
152.7258
 20
29.857
 30
0.0
 10
157.3637
 20
33.9127
 30
0.0
 10
157.3637
 20
33.9127
 30
0.0
 10
157.7575
 20
34.2815
 30
0.0
 10
158.5554
 20
34.242
 30
0.0
 10
157.9891
 20
32.891
 30
0.0
 10
157.9891
 20
32.891
 30
0.0
 10
156.2366
 20
28.5822
 30
0.0
 10
148.2055
 20
23.6538
 30
0.0
 10
139.6726
 20
19.5726
 30
0.0
 10
139.6726
 20
19.5726
 30
0.0
 10
148.0244
 20
24.9645
 30
0.0
 10
149.1882
 20
27.7054
 30
0.0
 10
151.0549
 20
30.0958
 30
0.0
 10
151.0549
 20
30.0958
 30
0.0
 10
151.7953
 20
31.4448
 30
0.0
 10
150.8904
 20
31.7063
 30
0.0
 10
150.2344
 20
31.4227
 30
0.0
 10
150.2344
 20
31.4227
 30
0.0
 10
147.6786
 20
30.7726
 30
0.0
 10
148.5707
 20
32.1254
 30
0.0
 10
148.9093
 20
33.2402
 30
0.0
 10
148.9093
 20
33.2402
 30
0.0
 10
150.6457
 20
37.13
 30
0.0
 10
150.2787
 20
38.8253
 30
0.0
 10
149.9221
 20
39.3374
 30
0.0
 10
149.9221
 20
39.3374
 30
0.0
 10
148.3542
 20
40.5079
 30
0.0
 10
145.086
 20
38.8408
 30
0.0
 10
144.4491
 20
37.0798
 30
0.0
 10
144.4491
 20
37.0798
 30
0.0
 10
144.4491
 20
37.0798
 30
0.0
 10
144.4492
 20
37.0799
 30
0.0
 10
144.4492
 20
37.0799
 30
0.0
  0
SPLINE
  5
82
330
1F
100
AcDbEntity
  8
layer 1
 62
     7
100
AcDbSpline
210
0.0
220
0.0
230
1.0
 70
    11
 71
     3
 72
    20
 73
    16
 74
     0
 42
0.0000000001
 43
0.0000000001
 12
1.0
 22
0.0
 32
0.0
 13
1.0
 23
0.0
 33
0.0
 40
0.0
 40
0.0
 40
0.0
 40
0.0
 40
0.2
 40
0.2
 40
0.2
 40
0.2
 40
0.4
 40
0.4
 40
0.4
 40
0.4
 40
0.6
 40
0.6
 40
0.6
 40
0.6
 40
1.0
 40
1.0
 40
1.0
 40
1.0
 10
123.1965
 20
26.4038
 30
0.0
 10
122.1311
 20
28.0349
 30
0.0
 10
119.8019
 20
30.4182
 30
0.0
 10
118.3449
 20
31.2511
 30
0.0
 10
118.3449
 20
31.2511
 30
0.0
 10
118.9422
 20
29.5971
 30
0.0
 10
118.7364
 20
28.1319
 30
0.0
 10
118.2899
 20
26.6587
 30
0.0
 10
118.2899
 20
26.6587
 30
0.0
 10
120.3987
 20
27.2323
 30
0.0
 10
121.3063
 20
27.303
 30
0.0
 10
123.1966
 20
26.4037
 30
0.0
 10
123.1966
 20
26.4037
 30
0.0
 10
123.1966
 20
26.4037
 30
0.0
 10
123.1965
 20
26.4038
 30
0.0
 10
123.1965
 20
26.4038
 30
0.0
  0
SPLINE
  5
83
330
1F
100
AcDbEntity
  8
layer 1
 62
     7
100
AcDbSpline
210
0.0
220
0.0
230
1.0
 70
    11
 71
     3
 72
    44
 73
    40
 74
     0
 42
0.0000000001
 43
0.0000000001
 12
1.0
 22
0.0
 32
0.0
 13
1.0
 23
0.0
 33
0.0
 40
0.0
 40
0.0
 40
0.0
 40
0.0
 40
0.0909090909090909
 40
0.0909090909090909
 40
0.0909090909090909
 40
0.0909090909090909
 40
0.1818181818181818
 40
0.1818181818181818
 40
0.1818181818181818
 40
0.1818181818181818
 40
0.2727272727272727
 40
0.2727272727272727
 40
0.2727272727272727
 40
0.2727272727272727
 40
0.3636363636363636
 40
0.3636363636363636
 40
0.3636363636363636
 40
0.3636363636363636
 40
0.4545454545454545
 40
0.4545454545454545
 40
0.4545454545454545
 40
0.4545454545454545
 40
0.5454545454545454
 40
0.5454545454545454
 40
0.5454545454545454
 40
0.5454545454545454
 40
0.6363636363636364
 40
0.6363636363636364
 40
0.6363636363636364
 40
0.6363636363636364
 40
0.7272727272727273
 40
0.7272727272727273
 40
0.7272727272727273
 40
0.7272727272727273
 40
0.8181818181818182
 40
0.8181818181818182
 40
0.8181818181818182
 40
0.8181818181818182
 40
1.0
 40
1.0
 40
1.0
 40
1.0
 10
109.1759
 20
19.0354
 30
0.0
 10
109.856
 20
20.63
 30
0.0
 10
110.1199
 20
21.8868
 30
0.0
 10
111.1902
 20
22.6206
 30
0.0
 10
111.1902
 20
22.6206
 30
0.0
 10
112.5455
 20
23.55
 30
0.0
 10
114.2626
 20
23.3826
 30
0.0
 10
114.5672
 20
24.9358
 30
0.0
 10
114.5672
 20
24.9358
 30
0.0
 10
108.6527
 20
24.237
 30
0.0
 10
109.1702
 20
32.6837
 30
0.0
 10
114.1435
 20
30.9716
 30
0.0
 10
114.1435
 20
30.9716
 30
0.0
 10
114.4199
 20
30.8764
 30
0.0
 10
115.2423
 20
30.0546
 30
0.0
 10
114.4243
 20
29.8623
 30
0.0
 10
114.4243
 20
29.8623
 30
0.0
 10
111.311
 20
29.7622
 30
0.0
 10
113.2098
 20
25.086
 30
0.0
 10
116.3265
 20
27.715
 30
0.0
 10
116.3265
 20
27.715
 30
0.0
 10
118.3495
 20
29.2603
 30
0.0
 10
116.8784
 20
33.7758
 30
0.0
 10
113.2369
 20
33.1658
 30
0.0
 10
113.2369
 20
33.1658
 30
0.0
 10
111.7752
 20
32.8531
 30
0.0
 10
110.1508
 20
32.1264
 30
0.0
 10
108.9464
 20
29.8949
 30
0.0
 10
108.9464
 20
29.8949
 30
0.0
 10
107.6302
 20
27.0446
 30
0.0
 10
107.1827
 20
23.5856
 30
0.0
 10
108.2202
 20
19.0696
 30
0.0
 10
108.2202
 20
19.0696
 30
0.0
 10
108.3681
 20
18.3983
 30
0.0
 10
108.9939
 20
18.4097
 30
0.0
 10
109.1759
 20
19.0355
 30
0.0
 10
109.1759
 20
19.0355
 30
0.0
 10
109.1759
 20
19.0355
 30
0.0
 10
109.1759
 20
19.0354
 30
0.0
 10
109.1759
 20
19.0354
 30
0.0
  0
SPLINE
  5
84
330
1F
100
AcDbEntity
  8
layer 1
 62
     7
100
AcDbSpline
210
0.0
220
0.0
230
1.0
 70
    11
 71
     3
 72
    44
 73
    40
 74
     0
 42
0.0000000001
 43
0.0000000001
 12
1.0
 22
0.0
 32
0.0
 13
1.0
 23
0.0
 33
0.0
 40
0.0
 40
0.0
 40
0.0
 40
0.0
 40
0.0909090909090909
 40
0.0909090909090909
 40
0.0909090909090909
 40
0.0909090909090909
 40
0.1818181818181818
 40
0.1818181818181818
 40
0.1818181818181818
 40
0.1818181818181818
 40
0.2727272727272727
 40
0.2727272727272727
 40
0.2727272727272727
 40
0.2727272727272727
 40
0.3636363636363636
 40
0.3636363636363636
 40
0.3636363636363636
 40
0.3636363636363636
 40
0.4545454545454545
 40
0.4545454545454545
 40
0.4545454545454545
 40
0.4545454545454545
 40
0.5454545454545454
 40
0.5454545454545454
 40
0.5454545454545454
 40
0.5454545454545454
 40
0.6363636363636364
 40
0.6363636363636364
 40
0.6363636363636364
 40
0.6363636363636364
 40
0.7272727272727273
 40
0.7272727272727273
 40
0.7272727272727273
 40
0.7272727272727273
 40
0.8181818181818182
 40
0.8181818181818182
 40
0.8181818181818182
 40
0.8181818181818182
 40
1.0
 40
1.0
 40
1.0
 40
1.0
 10
110.8143
 20
17.4172
 30
0.0
 10
112.3985
 20
18.1212
 30
0.0
 10
113.6511
 20
18.4043
 30
0.0
 10
114.3686
 20
19.4856
 30
0.0
 10
114.3686
 20
19.4856
 30
0.0
 10
115.2773
 20
20.8548
 30
0.0
 10
115.0839
 20
22.5691
 30
0.0
 10
116.6324
 20
22.8974
 30
0.0
 10
116.6324
 20
22.8974
 30
0.0
 10
116.0232
 20
16.9729
 30
0.0
 10
124.4611
 20
17.6184
 30
0.0
 10
122.6738
 20
22.5652
 30
0.0
 10
122.6738
 20
22.5652
 30
0.0
 10
122.5745
 20
22.84
 30
0.0
 10
121.7403
 20
23.6499
 30
0.0
 10
121.5604
 20
22.8292
 30
0.0
 10
121.5604
 20
22.8292
 30
0.0
 10
121.5075
 20
19.7147
 30
0.0
 10
116.8029
 20
21.5425
 30
0.0
 10
119.3845
 20
24.6986
 30
0.0
 10
119.3845
 20
24.6986
 30
0.0
 10
120.899
 20
26.7447
 30
0.0
 10
125.4362
 20
25.3422
 30
0.0
 10
124.8815
 20
21.6918
 30
0.0
 10
124.8815
 20
21.6918
 30
0.0
 10
124.5909
 20
20.2255
 30
0.0
 10
123.8889
 20
18.5903
 30
0.0
 10
121.676
 20
17.3523
 30
0.0
 10
121.676
 20
17.3523
 30
0.0
 10
118.8459
 20
15.9931
 30
0.0
 10
115.3941
 20
15.4931
 30
0.0
 10
110.8628
 20
16.4621
 30
0.0
 10
110.8628
 20
16.4621
 30
0.0
 10
110.1894
 20
16.5999
 30
0.0
 10
110.1913
 20
17.2257
 30
0.0
 10
110.8142
 20
17.4172
 30
0.0
 10
110.8142
 20
17.4172
 30
0.0
 10
110.8142
 20
17.4172
 30
0.0
 10
110.8143
 20
17.4172
 30
0.0
 10
110.8143
 20
17.4172
 30
0.0
  0
SPLINE
  5
85
330
1F
100
AcDbEntity
  8
layer 1
 62
     7
100
AcDbSpline
210
0.0
220
0.0
230
1.0
 70
    11
 71
     3
 72
    44
 73
    40
 74
     0
 42
0.0000000001
 43
0.0000000001
 12
1.0
 22
0.0
 32
0.0
 13
1.0
 23
0.0
 33
0.0
 40
0.0
 40
0.0
 40
0.0
 40
0.0
 40
0.0909090909090909
 40
0.0909090909090909
 40
0.0909090909090909
 40
0.0909090909090909
 40
0.1818181818181818
 40
0.1818181818181818
 40
0.1818181818181818
 40
0.1818181818181818
 40
0.2727272727272727
 40
0.2727272727272727
 40
0.2727272727272727
 40
0.2727272727272727
 40
0.3636363636363636
 40
0.3636363636363636
 40
0.3636363636363636
 40
0.3636363636363636
 40
0.4545454545454545
 40
0.4545454545454545
 40
0.4545454545454545
 40
0.4545454545454545
 40
0.5454545454545454
 40
0.5454545454545454
 40
0.5454545454545454
 40
0.5454545454545454
 40
0.6363636363636364
 40
0.6363636363636364
 40
0.6363636363636364
 40
0.6363636363636364
 40
0.7272727272727273
 40
0.7272727272727273
 40
0.7272727272727273
 40
0.7272727272727273
 40
0.8181818181818182
 40
0.8181818181818182
 40
0.8181818181818182
 40
0.8181818181818182
 40
1.0
 40
1.0
 40
1.0
 40
1.0
 10
133.6175
 20
76.2032
 30
0.0
 10
134.1012
 20
75.9569
 30
0.0
 10
134.7551
 20
76.3384
 30
0.0
 10
134.28
 20
76.9931
 30
0.0
 10
134.28
 20
76.9931
 30
0.0
 10
134.1737
 20
77.544
 30
0.0
 10
133.3082
 20
78.3115
 30
0.0
 10
132.6976
 20
78.6213
 30
0.0
 10
132.6976
 20
78.6213
 30
0.0
 10
132.0014
 20
78.1035
 30
0.0
 10
131.8034
 20
78.5271
 30
0.0
 10
131.6396
 20
78.8851
 30
0.0
 10
131.6396
 20
78.8851
 30
0.0
 10
131.1287
 20
79.7844
 30
0.0
 10
130.3304
 20
78.8263
 30
0.0
 10
129.8591
 20
77.9832
 30
0.0
 10
129.8591
 20
77.9832
 30
0.0
 10
128.7457
 20
76.254
 30
0.0
 10
127.0504
 20
76.5172
 30
0.0
 10
126.6003
 20
77.8906
 30
0.0
 10
126.6003
 20
77.8906
 30
0.0
 10
125.8609
 20
79.3533
 30
0.0
 10
123.1366
 20
79.0856
 30
0.0
 10
123.7788
 20
76.3362
 30
0.0
 10
123.7788
 20
76.3362
 30
0.0
 10
124.2881
 20
73.8914
 30
0.0
 10
127.189
 20
71.5721
 30
0.0
 10
129.1122
 20
71.7815
 30
0.0
 10
129.1122
 20
71.7815
 30
0.0
 10
129.8462
 20
71.8165
 30
0.0
 10
129.9299
 20
72.2056
 30
0.0
 10
129.7124
 20
72.4673
 30
0.0
 10
129.7124
 20
72.4673
 30
0.0
 10
128.6878
 20
75.9159
 30
0.0
 10
132.0399
 20
77.409
 30
0.0
 10
133.6175
 20
76.2033
 30
0.0
 10
133.6175
 20
76.2033
 30
0.0
 10
133.6175
 20
76.2033
 30
0.0
 10
133.6175
 20
76.2032
 30
0.0
 10
133.6175
 20
76.2032
 30
0.0
  0
SPLINE
  5
86
330
1F
100
AcDbEntity
  8
layer 1
 62
     7
100
AcDbSpline
210
0.0
220
0.0
230
1.0
 70
    11
 71
     3
 72
    24
 73
    20
 74
     0
 42
0.0000000001
 43
0.0000000001
 12
1.0
 22
0.0
 32
0.0
 13
1.0
 23
0.0
 33
0.0
 40
0.0
 40
0.0
 40
0.0
 40
0.0
 40
0.1666666666666667
 40
0.1666666666666667
 40
0.1666666666666667
 40
0.1666666666666667
 40
0.3333333333333333
 40
0.3333333333333333
 40
0.3333333333333333
 40
0.3333333333333333
 40
0.5
 40
0.5
 40
0.5
 40
0.5
 40
0.6666666666666666
 40
0.6666666666666666
 40
0.6666666666666666
 40
0.6666666666666666
 40
1.0
 40
1.0
 40
1.0
 40
1.0
 10
94.7973
 20
-17.0587
 30
0.0
 10
94.491
 20
-19.0213
 30
0.0
 10
95.6844
 20
-20.2062
 30
0.0
 10
97.8777
 20
-21.9467
 30
0.0
 10
97.8777
 20
-21.9467
 30
0.0
 10
100.8453
 20
-16.8229
 30
0.0
 10
103.7117
 20
-13.3378
 30
0.0
 10
103.321
 20
-10.0346
 30
0.0
 10
103.321
 20
-10.0346
 30
0.0
 10
99.6123
 20
-9.5106
 30
0.0
 10
94.2447
 20
-10.1398
 30
0.0
 10
93.4087
 20
-12.5897
 30
0.0
 10
93.4087
 20
-12.5897
 30
0.0
 10
98.039
 20
-10.3772
 30
0.0
 10
98.4816
 20
-17.2684
 30
0.0
 10
94.7974
 20
-17.0587
 30
0.0
 10
94.7974
 20
-17.0587
 30
0.0
 10
94.7974
 20
-17.0587
 30
0.0
 10
94.7973
 20
-17.0587
 30
0.0
 10
94.7973
 20
-17.0587
 30
0.0
  0
SPLINE
  5
87
330
1F
100
AcDbEntity
  8
layer 1
 62
     7
100
AcDbSpline
210
0.0
220
0.0
230
1.0
 70
    11
 71
     3
 72
    16
 73
    12
 74
     0
 42
0.0000000001
 43
0.0000000001
 12
1.0
 22
0.0
 32
0.0
 13
1.0
 23
0.0
 33
0.0
 40
0.0
 40
0.0
 40
0.0
 40
0.0
 40
0.25
 40
0.25
 40
0.25
 40
0.25
 40
0.5
 40
0.5
 40
0.5
 40
0.5
 40
1.0
 40
1.0
 40
1.0
 40
1.0
 10
98.8029
 20
-23.2493
 30
0.0
 10
99.6093
 20
-23.1888
 30
0.0
 10
101.8143
 20
-23.4229
 30
0.0
 10
102.4902
 20
-24.5362
 30
0.0
 10
102.4902
 20
-24.5362
 30
0.0
 10
102.7469
 20
-19.4932
 30
0.0
 10
104.9458
 20
-19.8519
 30
0.0
 10
104.3124
 20
-15.2339
 30
0.0
 10
104.3124
 20
-15.2339
 30
0.0
 10
101.9489
 20
-18.7547
 30
0.0
 10
100.3186
 20
-20.8522
 30
0.0
 10
98.8029
 20
-23.2493
 30
0.0
  0
SPLINE
  5
88
330
1F
100
AcDbEntity
  8
layer 1
 62
     7
100
AcDbSpline
210
0.0
220
0.0
230
1.0
 70
    11
 71
     3
 72
    36
 73
    32
 74
     0
 42
0.0000000001
 43
0.0000000001
 12
1.0
 22
0.0
 32
0.0
 13
1.0
 23
0.0
 33
0.0
 40
0.0
 40
0.0
 40
0.0
 40
0.0
 40
0.1111111111111111
 40
0.1111111111111111
 40
0.1111111111111111
 40
0.1111111111111111
 40
0.2222222222222222
 40
0.2222222222222222
 40
0.2222222222222222
 40
0.2222222222222222
 40
0.3333333333333333
 40
0.3333333333333333
 40
0.3333333333333333
 40
0.3333333333333333
 40
0.4444444444444444
 40
0.4444444444444444
 40
0.4444444444444444
 40
0.4444444444444444
 40
0.5555555555555556
 40
0.5555555555555556
 40
0.5555555555555556
 40
0.5555555555555556
 40
0.6666666666666666
 40
0.6666666666666666
 40
0.6666666666666666
 40
0.6666666666666666
 40
0.7777777777777778
 40
0.7777777777777778
 40
0.7777777777777778
 40
0.7777777777777778
 40
1.0
 40
1.0
 40
1.0
 40
1.0
 10
92.1391
 20
-23.1082
 30
0.0
 10
89.7899
 20
-23.4971
 30
0.0
 10
88.3669
 20
-24.4198
 30
0.0
 10
86.731
 20
-25.9962
 30
0.0
 10
86.731
 20
-25.9962
 30
0.0
 10
86.9107
 20
-19.5611
 30
0.0
 10
84.0115
 20
-14.5679
 30
0.0
 10
79.8779
 20
-12.0188
 30
0.0
 10
79.8779
 20
-12.0188
 30
0.0
 10
81.1994
 20
-12.0462
 30
0.0
 10
82.2193
 20
-10.976
 30
0.0
 10
81.4589
 20
-7.7747
 30
0.0
 10
81.4589
 20
-7.7747
 30
0.0
 10
82.1371
 20
-9.1579
 30
0.0
 10
83.2518
 20
-10.3384
 30
0.0
 10
85.1228
 20
-9.8501
 30
0.0
 10
85.1228
 20
-9.8501
 30
0.0
 10
84.595
 20
-3.6086
 30
0.0
 10
94.468
 20
-6.1731
 30
0.0
 10
96.3629
 20
-8.3582
 30
0.0
 10
96.3629
 20
-8.3582
 30
0.0
 10
87.4666
 20
-8.5394
 30
0.0
 10
87.7381
 20
-17.3634
 30
0.0
 10
94.3473
 20
-19.8194
 30
0.0
 10
94.3473
 20
-19.8194
 30
0.0
 10
92.219
 20
-19.7208
 30
0.0
 10
90.6066
 20
-20.0798
 30
0.0
 10
90.0396
 20
-21.0938
 30
0.0
 10
90.0396
 20
-21.0938
 30
0.0
 10
90.6554
 20
-21.9847
 30
0.0
 10
91.076
 20
-22.63
 30
0.0
 10
92.1391
 20
-23.1082
 30
0.0
  0
SPLINE
  5
89
330
1F
100
AcDbEntity
  8
layer 1
 62
     7
100
AcDbSpline
210
0.0
220
0.0
230
1.0
 70
    11
 71
     3
 72
    28
 73
    24
 74
     0
 42
0.0000000001
 43
0.0000000001
 12
1.0
 22
0.0
 32
0.0
 13
1.0
 23
0.0
 33
0.0
 40
0.0
 40
0.0
 40
0.0
 40
0.0
 40
0.1428571428571428
 40
0.1428571428571428
 40
0.1428571428571428
 40
0.1428571428571428
 40
0.2857142857142857
 40
0.2857142857142857
 40
0.2857142857142857
 40
0.2857142857142857
 40
0.4285714285714285
 40
0.4285714285714285
 40
0.4285714285714285
 40
0.4285714285714285
 40
0.5714285714285714
 40
0.5714285714285714
 40
0.5714285714285714
 40
0.5714285714285714
 40
0.7142857142857143
 40
0.7142857142857143
 40
0.7142857142857143
 40
0.7142857142857143
 40
1.0
 40
1.0
 40
1.0
 40
1.0
 10
70.8976
 20
-10.0757
 30
0.0
 10
72.624
 20
-9.7106
 30
0.0
 10
75.9156
 20
-10.1744
 30
0.0
 10
77.3548
 20
-11.3247
 30
0.0
 10
77.3548
 20
-11.3247
 30
0.0
 10
76.7406
 20
-8.1843
 30
0.0
 10
78.3129
 20
-5.7308
 30
0.0
 10
80.3083
 20
-5.211
 30
0.0
 10
80.3083
 20
-5.211
 30
0.0
 10
78.8553
 20
-5.1026
 30
0.0
 10
77.5882
 20
-4.4774
 30
0.0
 10
76.8571
 20
-3.1069
 30
0.0
 10
76.8571
 20
-3.1069
 30
0.0
 10
75.9836
 20
-3.9135
 30
0.0
 10
73.5907
 20
-4.7306
 30
0.0
 10
71.181
 20
-2.4595
 30
0.0
 10
71.181
 20
-2.4595
 30
0.0
 10
72.1395
 20
-4.0172
 30
0.0
 10
72.1559
 20
-8.0234
 30
0.0
 10
70.8976
 20
-10.0758
 30
0.0
 10
70.8976
 20
-10.0758
 30
0.0
 10
70.8976
 20
-10.0758
 30
0.0
 10
70.8976
 20
-10.0757
 30
0.0
 10
70.8976
 20
-10.0757
 30
0.0
  0
SPLINE
  5
8A
330
1F
100
AcDbEntity
  8
layer 1
 62
     7
100
AcDbSpline
210
0.0
220
0.0
230
1.0
 70
    11
 71
     3
 72
    28
 73
    24
 74
     0
 42
0.0000000001
 43
0.0000000001
 12
1.0
 22
0.0
 32
0.0
 13
1.0
 23
0.0
 33
0.0
 40
0.0
 40
0.0
 40
0.0
 40
0.0
 40
0.1428571428571428
 40
0.1428571428571428
 40
0.1428571428571428
 40
0.1428571428571428
 40
0.2857142857142857
 40
0.2857142857142857
 40
0.2857142857142857
 40
0.2857142857142857
 40
0.4285714285714285
 40
0.4285714285714285
 40
0.4285714285714285
 40
0.4285714285714285
 40
0.5714285714285714
 40
0.5714285714285714
 40
0.5714285714285714
 40
0.5714285714285714
 40
0.7142857142857143
 40
0.7142857142857143
 40
0.7142857142857143
 40
0.7142857142857143
 40
1.0
 40
1.0
 40
1.0
 40
1.0
 10
77.7252
 20
-1.7316
 30
0.0
 10
79.606
 20
-3.0613
 30
0.0
 10
82.8468
 20
-0.4274
 30
0.0
 10
87.085
 20
-1.3987
 30
0.0
 10
87.085
 20
-1.3987
 30
0.0
 10
84.6285
 20
1.5351
 30
0.0
 10
82.7953
 20
4.5921
 30
0.0
 10
82.3042
 20
8.3523
 30
0.0
 10
82.3042
 20
8.3523
 30
0.0
 10
82.2222
 20
9.5643
 30
0.0
 10
81.0248
 20
9.9295
 30
0.0
 10
79.9903
 20
9.4649
 30
0.0
 10
79.9903
 20
9.4649
 30
0.0
 10
76.0689
 20
8.1186
 30
0.0
 10
72.7351
 20
3.2508
 30
0.0
 10
73.715
 20
1.1197
 30
0.0
 10
73.715
 20
1.1197
 30
0.0
 10
74.495
 20
2.2963
 30
0.0
 10
78.594
 20
2.0335
 30
0.0
 10
77.7253
 20
-1.7317
 30
0.0
 10
77.7253
 20
-1.7317
 30
0.0
 10
77.7253
 20
-1.7317
 30
0.0
 10
77.7252
 20
-1.7316
 30
0.0
 10
77.7252
 20
-1.7316
 30
0.0
  0
SPLINE
  5
8B
330
1F
100
AcDbEntity
  8
layer 1
 62
     7
100
AcDbSpline
210
0.0
220
0.0
230
1.0
 70
    11
 71
     3
 72
    32
 73
    28
 74
     0
 42
0.0000000001
 43
0.0000000001
 12
1.0
 22
0.0
 32
0.0
 13
1.0
 23
0.0
 33
0.0
 40
0.0
 40
0.0
 40
0.0
 40
0.0
 40
0.125
 40
0.125
 40
0.125
 40
0.125
 40
0.25
 40
0.25
 40
0.25
 40
0.25
 40
0.375
 40
0.375
 40
0.375
 40
0.375
 40
0.5
 40
0.5
 40
0.5
 40
0.5
 40
0.625
 40
0.625
 40
0.625
 40
0.625
 40
0.75
 40
0.75
 40
0.75
 40
0.75
 40
1.0
 40
1.0
 40
1.0
 40
1.0
 10
89.9242
 20
-43.7316
 30
0.0
 10
87.2437
 20
-40.5255
 30
0.0
 10
83.1113
 20
-39.8835
 30
0.0
 10
77.7743
 20
-40.0786
 30
0.0
 10
77.7743
 20
-40.0786
 30
0.0
 10
82.6363
 20
-37.0468
 30
0.0
 10
85.7126
 20
-33.1036
 30
0.0
 10
86.5993
 20
-27.4064
 30
0.0
 10
86.5993
 20
-27.4064
 30
0.0
 10
88.181
 20
-28.3948
 30
0.0
 10
90.2145
 20
-28.7884
 30
0.0
 10
91.9959
 20
-28.2653
 30
0.0
 10
91.9959
 20
-28.2653
 30
0.0
 10
87.9181
 20
-32.5351
 30
0.0
 10
90.0576
 20
-34.4302
 30
0.0
 10
92.2948
 20
-33.2419
 30
0.0
 10
92.2948
 20
-33.2419
 30
0.0
 10
91.1497
 20
-36.1434
 30
0.0
 10
92.8077
 20
-37.7006
 30
0.0
 10
93.2037
 20
-38.4506
 30
0.0
 10
93.2037
 20
-38.4506
 30
0.0
 10
90.7533
 20
-38.3659
 30
0.0
 10
89.1792
 20
-41.6208
 30
0.0
 10
89.9241
 20
-43.7314
 30
0.0
 10
89.9241
 20
-43.7314
 30
0.0
 10
89.9241
 20
-43.7314
 30
0.0
 10
89.9242
 20
-43.7316
 30
0.0
 10
89.9242
 20
-43.7316
 30
0.0
  0
SPLINE
  5
8C
330
1F
100
AcDbEntity
  8
layer 1
 62
     7
100
AcDbSpline
210
0.0
220
0.0
230
1.0
 70
    11
 71
     3
 72
    52
 73
    48
 74
     0
 42
0.0000000001
 43
0.0000000001
 12
1.0
 22
0.0
 32
0.0
 13
1.0
 23
0.0
 33
0.0
 40
0.0
 40
0.0
 40
0.0
 40
0.0
 40
0.0769230769230769
 40
0.0769230769230769
 40
0.0769230769230769
 40
0.0769230769230769
 40
0.1538461538461539
 40
0.1538461538461539
 40
0.1538461538461539
 40
0.1538461538461539
 40
0.2307692307692308
 40
0.2307692307692308
 40
0.2307692307692308
 40
0.2307692307692308
 40
0.3076923076923077
 40
0.3076923076923077
 40
0.3076923076923077
 40
0.3076923076923077
 40
0.3846153846153846
 40
0.3846153846153846
 40
0.3846153846153846
 40
0.3846153846153846
 40
0.4615384615384616
 40
0.4615384615384616
 40
0.4615384615384616
 40
0.4615384615384616
 40
0.5384615384615384
 40
0.5384615384615384
 40
0.5384615384615384
 40
0.5384615384615384
 40
0.6153846153846154
 40
0.6153846153846154
 40
0.6153846153846154
 40
0.6153846153846154
 40
0.6923076923076923
 40
0.6923076923076923
 40
0.6923076923076923
 40
0.6923076923076923
 40
0.7692307692307693
 40
0.7692307692307693
 40
0.7692307692307693
 40
0.7692307692307693
 40
0.8461538461538461
 40
0.8461538461538461
 40
0.8461538461538461
 40
0.8461538461538461
 40
1.0
 40
1.0
 40
1.0
 40
1.0
 10
101.5959
 20
-39.5256
 30
0.0
 10
99.4078
 20
-43.3398
 30
0.0
 10
96.7396
 20
-45.274
 30
0.0
 10
93.2601
 20
-43.6128
 30
0.0
 10
93.2601
 20
-43.6128
 30
0.0
 10
92.5725
 20
-43.2317
 30
0.0
 10
92.8023
 20
-42.252
 30
0.0
 10
93.4419
 20
-42.5673
 30
0.0
 10
93.4419
 20
-42.5673
 30
0.0
 10
97.2607
 20
-44.3803
 30
0.0
 10
96.4291
 20
-40.569
 30
0.0
 10
96.2031
 20
-39.1835
 30
0.0
 10
96.2031
 20
-39.1835
 30
0.0
 10
96.0231
 20
-38.1088
 30
0.0
 10
95.7684
 20
-36.7846
 30
0.0
 10
96.6225
 20
-35.3808
 30
0.0
 10
96.6225
 20
-35.3808
 30
0.0
 10
96.8624
 20
-34.6716
 30
0.0
 10
97.408
 20
-34.4448
 30
0.0
 10
97.9233
 20
-34.654
 30
0.0
 10
97.9233
 20
-34.654
 30
0.0
 10
98.8721
 20
-35.039
 30
0.0
 10
99.3808
 20
-35.9631
 30
0.0
 10
99.7719
 20
-35.4079
 30
0.0
 10
99.7719
 20
-35.4079
 30
0.0
 10
99.8099
 20
-34.7965
 30
0.0
 10
99.5224
 20
-30.2086
 30
0.0
 10
99.8402
 20
-29.846
 30
0.0
 10
99.8402
 20
-29.846
 30
0.0
 10
100.1029
 20
-29.6662
 30
0.0
 10
100.2712
 20
-29.9034
 30
0.0
 10
100.3454
 20
-30.0733
 30
0.0
 10
100.3454
 20
-30.0733
 30
0.0
 10
101.1115
 20
-31.8277
 30
0.0
 10
101.4502
 20
-31.6864
 30
0.0
 10
102.3354
 20
-31.512
 30
0.0
 10
102.3354
 20
-31.512
 30
0.0
 10
102.9744
 20
-31.1441
 30
0.0
 10
102.8411
 20
-32.0929
 30
0.0
 10
102.9829
 20
-32.6675
 30
0.0
 10
102.9829
 20
-32.6675
 30
0.0
 10
103.036
 20
-35.1326
 30
0.0
 10
102.7055
 20
-37.5077
 30
0.0
 10
101.596
 20
-39.5256
 30
0.0
 10
101.596
 20
-39.5256
 30
0.0
 10
101.596
 20
-39.5256
 30
0.0
 10
101.5959
 20
-39.5256
 30
0.0
 10
101.5959
 20
-39.5256
 30
0.0
  0
SPLINE
  5
8D
330
1F
100
AcDbEntity
  8
layer 1
 62
     7
100
AcDbSpline
210
0.0
220
0.0
230
1.0
 70
    11
 71
     3
 72
    28
 73
    24
 74
     0
 42
0.0000000001
 43
0.0000000001
 12
1.0
 22
0.0
 32
0.0
 13
1.0
 23
0.0
 33
0.0
 40
0.0
 40
0.0
 40
0.0
 40
0.0
 40
0.1428571428571428
 40
0.1428571428571428
 40
0.1428571428571428
 40
0.1428571428571428
 40
0.2857142857142857
 40
0.2857142857142857
 40
0.2857142857142857
 40
0.2857142857142857
 40
0.4285714285714285
 40
0.4285714285714285
 40
0.4285714285714285
 40
0.4285714285714285
 40
0.5714285714285714
 40
0.5714285714285714
 40
0.5714285714285714
 40
0.5714285714285714
 40
0.7142857142857143
 40
0.7142857142857143
 40
0.7142857142857143
 40
0.7142857142857143
 40
1.0
 40
1.0
 40
1.0
 40
1.0
 10
64.0817
 20
-65.7053
 30
0.0
 10
64.0817
 20
-65.7053
 30
0.0
 10
80.0952
 20
-65.7053
 30
0.0
 10
80.0952
 20
-65.7053
 30
0.0
 10
80.0952
 20
-65.7053
 30
0.0
 10
76.4138
 20
-64.4678
 30
0.0
 10
74.8385
 20
-63.5214
 30
0.0
 10
71.8922
 20
-61.4826
 30
0.0
 10
71.8922
 20
-61.4826
 30
0.0
 10
68.9815
 20
-59.4684
 30
0.0
 10
64.072
 20
-57.5767
 30
0.0
 10
62.3724
 20
-61.4713
 30
0.0
 10
62.3724
 20
-61.4713
 30
0.0
 10
64.0349
 20
-59.9769
 30
0.0
 10
66.0179
 20
-60.916
 30
0.0
 10
66.382
 20
-62.1343
 30
0.0
 10
66.382
 20
-62.1343
 30
0.0
 10
66.7448
 20
-63.3486
 30
0.0
 10
66.3746
 20
-65.0002
 30
0.0
 10
64.0818
 20
-65.7053
 30
0.0
 10
64.0818
 20
-65.7053
 30
0.0
 10
64.0818
 20
-65.7053
 30
0.0
 10
64.0817
 20
-65.7053
 30
0.0
 10
64.0817
 20
-65.7053
 30
0.0
  0
SPLINE
  5
8E
330
1F
100
AcDbEntity
  8
layer 1
 62
     7
100
AcDbSpline
210
0.0
220
0.0
230
1.0
 70
    11
 71
     3
 72
    40
 73
    36
 74
     0
 42
0.0000000001
 43
0.0000000001
 12
1.0
 22
0.0
 32
0.0
 13
1.0
 23
0.0
 33
0.0
 40
0.0
 40
0.0
 40
0.0
 40
0.0
 40
0.1
 40
0.1
 40
0.1
 40
0.1
 40
0.2
 40
0.2
 40
0.2
 40
0.2
 40
0.3
 40
0.3
 40
0.3
 40
0.3
 40
0.4
 40
0.4
 40
0.4
 40
0.4
 40
0.5
 40
0.5
 40
0.5
 40
0.5
 40
0.6
 40
0.6
 40
0.6
 40
0.6
 40
0.7
 40
0.7
 40
0.7
 40
0.7
 40
0.8
 40
0.8
 40
0.8
 40
0.8
 40
1.0
 40
1.0
 40
1.0
 40
1.0
 10
85.7723
 20
-65.7053
 30
0.0
 10
85.7723
 20
-65.7053
 30
0.0
 10
105.5284
 20
-65.7053
 30
0.0
 10
105.5284
 20
-65.7053
 30
0.0
 10
105.5284
 20
-65.7053
 30
0.0
 10
105.0042
 20
-64.2301
 30
0.0
 10
102.4786
 20
-63.7338
 30
0.0
 10
102.6945
 20
-61.8939
 30
0.0
 10
102.6945
 20
-61.8939
 30
0.0
 10
102.7038
 20
-60.9384
 30
0.0
 10
102.4031
 20
-60.211
 30
0.0
 10
101.6056
 20
-60.4662
 30
0.0
 10
101.6056
 20
-60.4662
 30
0.0
 10
98.9929
 20
-61.9459
 30
0.0
 10
100.7612
 20
-57.4862
 30
0.0
 10
100.8136
 20
-55.3616
 30
0.0
 10
100.8136
 20
-55.3616
 30
0.0
 10
99.7706
 20
-56.4523
 30
0.0
 10
95.3634
 20
-61.0507
 30
0.0
 10
96.1827
 20
-64.7867
 30
0.0
 10
96.1827
 20
-64.7867
 30
0.0
 10
95.2438
 20
-65.7069
 30
0.0
 10
93.8999
 20
-65.1074
 30
0.0
 10
93.0015
 20
-63.4265
 30
0.0
 10
93.0015
 20
-63.4265
 30
0.0
 10
92.7226
 20
-62.8186
 30
0.0
 10
92.0153
 20
-62.8783
 30
0.0
 10
91.5288
 20
-63.1736
 30
0.0
 10
91.5288
 20
-63.1736
 30
0.0
 10
89.184
 20
-64.6092
 30
0.0
 10
87.1803
 20
-65.1862
 30
0.0
 10
85.7724
 20
-65.7052
 30
0.0
 10
85.7724
 20
-65.7052
 30
0.0
 10
85.7724
 20
-65.7052
 30
0.0
 10
85.7723
 20
-65.7053
 30
0.0
 10
85.7723
 20
-65.7053
 30
0.0
  0
SPLINE
  5
8F
330
1F
100
AcDbEntity
  8
layer 1
 62
     7
100
AcDbSpline
210
0.0
220
0.0
230
1.0
 70
    11
 71
     3
 72
    24
 73
    20
 74
     0
 42
0.0000000001
 43
0.0000000001
 12
1.0
 22
0.0
 32
0.0
 13
1.0
 23
0.0
 33
0.0
 40
0.0
 40
0.0
 40
0.0
 40
0.0
 40
0.1666666666666667
 40
0.1666666666666667
 40
0.1666666666666667
 40
0.1666666666666667
 40
0.3333333333333333
 40
0.3333333333333333
 40
0.3333333333333333
 40
0.3333333333333333
 40
0.5
 40
0.5
 40
0.5
 40
0.5
 40
0.6666666666666666
 40
0.6666666666666666
 40
0.6666666666666666
 40
0.6666666666666666
 40
1.0
 40
1.0
 40
1.0
 40
1.0
 10
46.0268
 20
-65.7053
 30
0.0
 10
46.0268
 20
-65.7053
 30
0.0
 10
61.0581
 20
-65.7053
 30
0.0
 10
61.0581
 20
-65.7053
 30
0.0
 10
61.0581
 20
-65.7053
 30
0.0
 10
59.3504
 20
-65.3031
 30
0.0
 10
58.8729
 20
-62.6762
 30
0.0
 10
60.0319
 20
-60.0226
 30
0.0
 10
60.0319
 20
-60.0226
 30
0.0
 10
58.8271
 20
-61.9663
 30
0.0
 10
54.8406
 20
-62.8388
 30
0.0
 10
53.0993
 20
-60.4622
 30
0.0
 10
53.0993
 20
-60.4622
 30
0.0
 10
51.2148
 20
-63.8844
 30
0.0
 10
48.4849
 20
-65.3874
 30
0.0
 10
46.0269
 20
-65.7053
 30
0.0
 10
46.0269
 20
-65.7053
 30
0.0
 10
46.0269
 20
-65.7053
 30
0.0
 10
46.0268
 20
-65.7053
 30
0.0
 10
46.0268
 20
-65.7053
 30
0.0
  0
SPLINE
  5
90
330
1F
100
AcDbEntity
  8
layer 1
 62
     7
100
AcDbSpline
210
0.0
220
0.0
230
1.0
 70
    11
 71
     3
 72
    20
 73
    16
 74
     0
 42
0.0000000001
 43
0.0000000001
 12
1.0
 22
0.0
 32
0.0
 13
1.0
 23
0.0
 33
0.0
 40
0.0
 40
0.0
 40
0.0
 40
0.0
 40
0.2
 40
0.2
 40
0.2
 40
0.2
 40
0.4
 40
0.4
 40
0.4
 40
0.4
 40
0.6
 40
0.6
 40
0.6
 40
0.6
 40
1.0
 40
1.0
 40
1.0
 40
1.0
 10
27.3368
 20
-65.7053
 30
0.0
 10
27.3368
 20
-65.7053
 30
0.0
 10
41.0215
 20
-65.7053
 30
0.0
 10
41.0215
 20
-65.7053
 30
0.0
 10
41.0215
 20
-65.7053
 30
0.0
 10
37.0833
 20
-64.8942
 30
0.0
 10
32.7219
 20
-62.0492
 30
0.0
 10
30.9428
 20
-57.5051
 30
0.0
 10
30.9428
 20
-57.5051
 30
0.0
 10
29.9837
 20
-61.414
 30
0.0
 10
28.3904
 20
-64.2322
 30
0.0
 10
27.3367
 20
-65.7053
 30
0.0
 10
27.3367
 20
-65.7053
 30
0.0
 10
27.3367
 20
-65.7053
 30
0.0
 10
27.3368
 20
-65.7053
 30
0.0
 10
27.3368
 20
-65.7053
 30
0.0
  0
SPLINE
  5
91
330
1F
100
AcDbEntity
  8
layer 1
 62
     7
100
AcDbSpline
210
0.0
220
0.0
230
1.0
 70
    11
 71
     3
 72
    16
 73
    12
 74
     0
 42
0.0000000001
 43
0.0000000001
 12
1.0
 22
0.0
 32
0.0
 13
1.0
 23
0.0
 33
0.0
 40
0.0
 40
0.0
 40
0.0
 40
0.0
 40
0.25
 40
0.25
 40
0.25
 40
0.25
 40
0.5
 40
0.5
 40
0.5
 40
0.5
 40
1.0
 40
1.0
 40
1.0
 40
1.0
 10
60.1068
 20
-41.6563
 30
0.0
 10
63.5956
 20
-46.1203
 30
0.0
 10
66.266
 20
-49.357
 30
0.0
 10
67.3818
 20
-53.3301
 30
0.0
 10
67.3818
 20
-53.3301
 30
0.0
 10
67.1258
 20
-49.3551
 30
0.0
 10
68.6285
 20
-45.7737
 30
0.0
 10
72.659
 20
-42.0479
 30
0.0
 10
72.659
 20
-42.0479
 30
0.0
 10
68.2634
 20
-43.4748
 30
0.0
 10
63.9425
 20
-43.1018
 30
0.0
 10
60.1068
 20
-41.6563
 30
0.0
  0
SPLINE
  5
92
330
1F
100
AcDbEntity
  8
layer 1
 62
     7
100
AcDbSpline
210
0.0
220
0.0
230
1.0
 70
    11
 71
     3
 72
    24
 73
    20
 74
     0
 42
0.0000000001
 43
0.0000000001
 12
1.0
 22
0.0
 32
0.0
 13
1.0
 23
0.0
 33
0.0
 40
0.0
 40
0.0
 40
0.0
 40
0.0
 40
0.1666666666666667
 40
0.1666666666666667
 40
0.1666666666666667
 40
0.1666666666666667
 40
0.3333333333333333
 40
0.3333333333333333
 40
0.3333333333333333
 40
0.3333333333333333
 40
0.5
 40
0.5
 40
0.5
 40
0.5
 40
0.6666666666666666
 40
0.6666666666666666
 40
0.6666666666666666
 40
0.6666666666666666
 40
1.0
 40
1.0
 40
1.0
 40
1.0
 10
42.605
 20
-38.0085
 30
0.0
 10
47.9599
 20
-37.3485
 30
0.0
 10
49.7753
 20
-37.6214
 30
0.0
 10
53.7341
 20
-39.1362
 30
0.0
 10
53.7341
 20
-39.1362
 30
0.0
 10
54.5449
 20
-39.4464
 30
0.0
 10
55.0377
 20
-38.9956
 30
0.0
 10
54.2263
 20
-38.5059
 30
0.0
 10
54.2263
 20
-38.5059
 30
0.0
 10
49.818
 20
-35.9668
 30
0.0
 10
49.1864
 20
-31.5316
 30
0.0
 10
47.163
 20
-30.4058
 30
0.0
 10
47.163
 20
-30.4058
 30
0.0
 10
46.3763
 20
-35.4029
 30
0.0
 10
43.957
 20
-35.7284
 30
0.0
 10
42.6049
 20
-38.0085
 30
0.0
 10
42.6049
 20
-38.0085
 30
0.0
 10
42.6049
 20
-38.0085
 30
0.0
 10
42.605
 20
-38.0085
 30
0.0
 10
42.605
 20
-38.0085
 30
0.0
  0
SPLINE
  5
93
330
1F
100
AcDbEntity
  8
layer 1
 62
     7
100
AcDbSpline
210
0.0
220
0.0
230
1.0
 70
    11
 71
     3
 72
    16
 73
    12
 74
     0
 42
0.0000000001
 43
0.0000000001
 12
1.0
 22
0.0
 32
0.0
 13
1.0
 23
0.0
 33
0.0
 40
0.0
 40
0.0
 40
0.0
 40
0.0
 40
0.25
 40
0.25
 40
0.25
 40
0.25
 40
0.5
 40
0.5
 40
0.5
 40
0.5
 40
1.0
 40
1.0
 40
1.0
 40
1.0
 10
22.9685
 20
-32.0969
 30
0.0
 10
22.9685
 20
-32.0969
 30
0.0
 10
22.9685
 20
-21.6927
 30
0.0
 10
22.9685
 20
-21.6927
 30
0.0
 10
22.9685
 20
-21.6927
 30
0.0
 10
25.2611
 20
-21.4508
 30
0.0
 10
27.7357
 20
-23.7486
 30
0.0
 10
30.0046
 20
-26.6389
 30
0.0
 10
30.0046
 20
-26.6389
 30
0.0
 10
25.8312
 20
-26.6455
 30
0.0
 10
23.9654
 20
-27.9743
 30
0.0
 10
22.9685
 20
-32.0969
 30
0.0
  0
SPLINE
  5
94
330
1F
100
AcDbEntity
  8
layer 1
 62
     7
100
AcDbSpline
210
0.0
220
0.0
230
1.0
 70
    11
 71
     3
 72
    28
 73
    24
 74
     0
 42
0.0000000001
 43
0.0000000001
 12
1.0
 22
0.0
 32
0.0
 13
1.0
 23
0.0
 33
0.0
 40
0.0
 40
0.0
 40
0.0
 40
0.0
 40
0.1428571428571428
 40
0.1428571428571428
 40
0.1428571428571428
 40
0.1428571428571428
 40
0.2857142857142857
 40
0.2857142857142857
 40
0.2857142857142857
 40
0.2857142857142857
 40
0.4285714285714285
 40
0.4285714285714285
 40
0.4285714285714285
 40
0.4285714285714285
 40
0.5714285714285714
 40
0.5714285714285714
 40
0.5714285714285714
 40
0.5714285714285714
 40
0.7142857142857143
 40
0.7142857142857143
 40
0.7142857142857143
 40
0.7142857142857143
 40
1.0
 40
1.0
 40
1.0
 40
1.0
 10
22.9685
 20
-48.6584
 30
0.0
 10
22.9685
 20
-48.6584
 30
0.0
 10
22.9685
 20
-33.4392
 30
0.0
 10
22.9685
 20
-33.4392
 30
0.0
 10
22.9685
 20
-33.4392
 30
0.0
 10
23.9383
 20
-37.8536
 30
0.0
 10
26.6775
 20
-38.8815
 30
0.0
 10
28.3114
 20
-38.8087
 30
0.0
 10
28.3114
 20
-38.8087
 30
0.0
 10
26.5958
 20
-32.936
 30
0.0
 10
30.9928
 20
-30.5715
 30
0.0
 10
36.6923
 20
-27.1992
 30
0.0
 10
36.6923
 20
-27.1992
 30
0.0
 10
34.1218
 20
-32.2945
 30
0.0
 10
37.7027
 20
-36.3948
 30
0.0
 10
40.2906
 20
-38.0263
 30
0.0
 10
40.2906
 20
-38.0263
 30
0.0
 10
33.4518
 20
-38.3986
 30
0.0
 10
26.1614
 20
-40.358
 30
0.0
 10
22.9685
 20
-48.6583
 30
0.0
 10
22.9685
 20
-48.6583
 30
0.0
 10
22.9685
 20
-48.6583
 30
0.0
 10
22.9685
 20
-48.6584
 30
0.0
 10
22.9685
 20
-48.6584
 30
0.0
  0
SPLINE
  5
95
330
1F
100
AcDbEntity
  8
layer 1
 62
     7
100
AcDbSpline
210
0.0
220
0.0
230
1.0
 70
    11
 71
     3
 72
    44
 73
    40
 74
     0
 42
0.0000000001
 43
0.0000000001
 12
1.0
 22
0.0
 32
0.0
 13
1.0
 23
0.0
 33
0.0
 40
0.0
 40
0.0
 40
0.0
 40
0.0
 40
0.0909090909090909
 40
0.0909090909090909
 40
0.0909090909090909
 40
0.0909090909090909
 40
0.1818181818181818
 40
0.1818181818181818
 40
0.1818181818181818
 40
0.1818181818181818
 40
0.2727272727272727
 40
0.2727272727272727
 40
0.2727272727272727
 40
0.2727272727272727
 40
0.3636363636363636
 40
0.3636363636363636
 40
0.3636363636363636
 40
0.3636363636363636
 40
0.4545454545454545
 40
0.4545454545454545
 40
0.4545454545454545
 40
0.4545454545454545
 40
0.5454545454545454
 40
0.5454545454545454
 40
0.5454545454545454
 40
0.5454545454545454
 40
0.6363636363636364
 40
0.6363636363636364
 40
0.6363636363636364
 40
0.6363636363636364
 40
0.7272727272727273
 40
0.7272727272727273
 40
0.7272727272727273
 40
0.7272727272727273
 40
0.8181818181818182
 40
0.8181818181818182
 40
0.8181818181818182
 40
0.8181818181818182
 40
1.0
 40
1.0
 40
1.0
 40
1.0
 10
22.9685
 20
-20.033
 30
0.0
 10
22.9685
 20
-20.033
 30
0.0
 10
22.9685
 20
6.1391
 30
0.0
 10
22.9685
 20
6.1391
 30
0.0
 10
22.9685
 20
6.1391
 30
0.0
 10
24.0103
 20
6.1403
 30
0.0
 10
25.9062
 20
5.5107
 30
0.0
 10
24.5201
 20
3.6063
 30
0.0
 10
24.5201
 20
3.6063
 30
0.0
 10
25.1519
 20
2.9493
 30
0.0
 10
25.8723
 20
2.0328
 30
0.0
 10
28.5039
 20
1.4246
 30
0.0
 10
28.5039
 20
1.4246
 30
0.0
 10
27.2616
 20
1.0283
 30
0.0
 10
26.2296
 20
-0.6375
 30
0.0
 10
26.055
 20
-1.9706
 30
0.0
 10
26.055
 20
-1.9706
 30
0.0
 10
26.5562
 20
-2.6343
 30
0.0
 10
30.1541
 20
-2.7489
 30
0.0
 10
31.9082
 20
-2.4645
 30
0.0
 10
31.9082
 20
-2.4645
 30
0.0
 10
30.8223
 20
-4.9088
 30
0.0
 10
31.1221
 20
-6.7186
 30
0.0
 10
31.9843
 20
-7.9368
 30
0.0
 10
31.9843
 20
-7.9368
 30
0.0
 10
33.0061
 20
-7.0821
 30
0.0
 10
33.9231
 20
-6.4695
 30
0.0
 10
34.8377
 20
-6.3344
 30
0.0
 10
34.8377
 20
-6.3344
 30
0.0
 10
31.6212
 20
-11.1721
 30
0.0
 10
35.0102
 20
-15.6154
 30
0.0
 10
37.1476
 20
-17.5381
 30
0.0
 10
37.1476
 20
-17.5381
 30
0.0
 10
32.6566
 20
-15.2166
 30
0.0
 10
29.8913
 20
-17.8682
 30
0.0
 10
22.9683
 20
-20.033
 30
0.0
 10
22.9683
 20
-20.033
 30
0.0
 10
22.9683
 20
-20.033
 30
0.0
 10
22.9685
 20
-20.033
 30
0.0
 10
22.9685
 20
-20.033
 30
0.0
  0
SPLINE
  5
96
330
1F
100
AcDbEntity
  8
layer 1
 62
     7
100
AcDbSpline
210
0.0
220
0.0
230
1.0
 70
    11
 71
     3
 72
    24
 73
    20
 74
     0
 42
0.0000000001
 43
0.0000000001
 12
1.0
 22
0.0
 32
0.0
 13
1.0
 23
0.0
 33
0.0
 40
0.0
 40
0.0
 40
0.0
 40
0.0
 40
0.1666666666666667
 40
0.1666666666666667
 40
0.1666666666666667
 40
0.1666666666666667
 40
0.3333333333333333
 40
0.3333333333333333
 40
0.3333333333333333
 40
0.3333333333333333
 40
0.5
 40
0.5
 40
0.5
 40
0.5
 40
0.6666666666666666
 40
0.6666666666666666
 40
0.6666666666666666
 40
0.6666666666666666
 40
1.0
 40
1.0
 40
1.0
 40
1.0
 10
44.2366
 20
-11.6059
 30
0.0
 10
45.8707
 20
-6.5729
 30
0.0
 10
49.4131
 20
-2.1837
 30
0.0
 10
54.5016
 20
1.9462
 30
0.0
 10
54.5016
 20
1.9462
 30
0.0
 10
50.1252
 20
-0.7697
 30
0.0
 10
44.8912
 20
-0.8941
 30
0.0
 10
42.8917
 20
-0.6169
 30
0.0
 10
42.8917
 20
-0.6169
 30
0.0
 10
44.9764
 20
-2.888
 30
0.0
 10
40.4604
 20
-3.6747
 30
0.0
 10
40.0841
 20
-6.7173
 30
0.0
 10
40.0841
 20
-6.7173
 30
0.0
 10
39.0699
 20
-6.6924
 30
0.0
 10
38.9997
 20
-6.2944
 30
0.0
 10
38.1695
 20
-5.6829
 30
0.0
 10
38.1695
 20
-5.6829
 30
0.0
 10
36.8925
 20
-8.7024
 30
0.0
 10
42.116
 20
-9.212
 30
0.0
 10
44.2366
 20
-11.6059
 30
0.0
  0
SPLINE
  5
97
330
1F
100
AcDbEntity
  8
layer 1
 62
     7
100
AcDbSpline
210
0.0
220
0.0
230
1.0
 70
    11
 71
     3
 72
    20
 73
    16
 74
     0
 42
0.0000000001
 43
0.0000000001
 12
1.0
 22
0.0
 32
0.0
 13
1.0
 23
0.0
 33
0.0
 40
0.0
 40
0.0
 40
0.0
 40
0.0
 40
0.2
 40
0.2
 40
0.2
 40
0.2
 40
0.4
 40
0.4
 40
0.4
 40
0.4
 40
0.6
 40
0.6
 40
0.6
 40
0.6
 40
1.0
 40
1.0
 40
1.0
 40
1.0
 10
47.4456
 20
-12.5903
 30
0.0
 10
49.6032
 20
-9.7533
 30
0.0
 10
51.0837
 20
-11.5983
 30
0.0
 10
54.7206
 20
-10.1258
 30
0.0
 10
54.7206
 20
-10.1258
 30
0.0
 10
53.4763
 20
-9.3779
 30
0.0
 10
51.5303
 20
-7.3897
 30
0.0
 10
52.6565
 20
-4.0067
 30
0.0
 10
52.6565
 20
-4.0067
 30
0.0
 10
50.9835
 20
-6.5026
 30
0.0
 10
47.8123
 20
-10.0624
 30
0.0
 10
47.4456
 20
-12.5902
 30
0.0
 10
47.4456
 20
-12.5902
 30
0.0
 10
47.4456
 20
-12.5902
 30
0.0
 10
47.4456
 20
-12.5903
 30
0.0
 10
47.4456
 20
-12.5903
 30
0.0
  0
SPLINE
  5
98
330
1F
100
AcDbEntity
  8
layer 1
 62
     7
100
AcDbSpline
210
0.0
220
0.0
230
1.0
 70
    11
 71
     3
 72
    40
 73
    36
 74
     0
 42
0.0000000001
 43
0.0000000001
 12
1.0
 22
0.0
 32
0.0
 13
1.0
 23
0.0
 33
0.0
 40
0.0
 40
0.0
 40
0.0
 40
0.0
 40
0.1
 40
0.1
 40
0.1
 40
0.1
 40
0.2
 40
0.2
 40
0.2
 40
0.2
 40
0.3
 40
0.3
 40
0.3
 40
0.3
 40
0.4
 40
0.4
 40
0.4
 40
0.4
 40
0.5
 40
0.5
 40
0.5
 40
0.5
 40
0.6
 40
0.6
 40
0.6
 40
0.6
 40
0.7
 40
0.7
 40
0.7
 40
0.7
 40
0.8
 40
0.8
 40
0.8
 40
0.8
 40
1.0
 40
1.0
 40
1.0
 40
1.0
 10
22.9685
 20
-55.7891
 30
0.0
 10
22.9685
 20
-55.7891
 30
0.0
 10
22.9685
 20
-51.8162
 30
0.0
 10
22.9685
 20
-51.8162
 30
0.0
 10
22.9685
 20
-51.8162
 30
0.0
 10
25.3712
 20
-53.2867
 30
0.0
 10
26.6179
 20
-52.2884
 30
0.0
 10
27.5138
 20
-50.5965
 30
0.0
 10
27.5138
 20
-50.5965
 30
0.0
 10
28.365
 20
-47.5854
 30
0.0
 10
29.751
 20
-48.2411
 30
0.0
 10
28.7999
 20
-46.2572
 30
0.0
 10
28.7999
 20
-46.2572
 30
0.0
 10
28.3955
 20
-44.6843
 30
0.0
 10
29.0803
 20
-45.1867
 30
0.0
 10
30.7365
 20
-44.6023
 30
0.0
 10
30.7365
 20
-44.6023
 30
0.0
 10
31.0842
 20
-44.4797
 30
0.0
 10
31.3648
 20
-43.8466
 30
0.0
 10
31.7971
 20
-43.5294
 30
0.0
 10
31.7971
 20
-43.5294
 30
0.0
 10
32.2886
 20
-43.1688
 30
0.0
 10
32.9074
 20
-42.926
 30
0.0
 10
33.5419
 20
-42.7555
 30
0.0
 10
33.5419
 20
-42.7555
 30
0.0
 10
27.9675
 20
-50.5982
 30
0.0
 10
30.0831
 20
-58.8014
 30
0.0
 10
25.7473
 20
-60.1033
 30
0.0
 10
25.7473
 20
-60.1033
 30
0.0
 10
27.9935
 20
-57.6182
 30
0.0
 10
25.9415
 20
-54.4856
 30
0.0
 10
22.9684
 20
-55.7891
 30
0.0
 10
22.9684
 20
-55.7891
 30
0.0
 10
22.9684
 20
-55.7891
 30
0.0
 10
22.9685
 20
-55.7891
 30
0.0
 10
22.9685
 20
-55.7891
 30
0.0
  0
SPLINE
  5
99
330
1F
100
AcDbEntity
  8
layer 1
 62
     7
100
AcDbSpline
210
0.0
220
0.0
230
1.0
 70
    11
 71
     3
 72
    28
 73
    24
 74
     0
 42
0.0000000001
 43
0.0000000001
 12
1.0
 22
0.0
 32
0.0
 13
1.0
 23
0.0
 33
0.0
 40
0.0
 40
0.0
 40
0.0
 40
0.0
 40
0.1428571428571428
 40
0.1428571428571428
 40
0.1428571428571428
 40
0.1428571428571428
 40
0.2857142857142857
 40
0.2857142857142857
 40
0.2857142857142857
 40
0.2857142857142857
 40
0.4285714285714285
 40
0.4285714285714285
 40
0.4285714285714285
 40
0.4285714285714285
 40
0.5714285714285714
 40
0.5714285714285714
 40
0.5714285714285714
 40
0.5714285714285714
 40
0.7142857142857143
 40
0.7142857142857143
 40
0.7142857142857143
 40
0.7142857142857143
 40
1.0
 40
1.0
 40
1.0
 40
1.0
 10
75.1317
 20
-58.4947
 30
0.0
 10
77.2236
 20
-63.5738
 30
0.0
 10
83.876
 20
-63.7699
 30
0.0
 10
87.6045
 20
-62.4824
 30
0.0
 10
87.6045
 20
-62.4824
 30
0.0
 10
88.425
 20
-62.199
 30
0.0
 10
88.4092
 20
-61.7467
 30
0.0
 10
87.5977
 20
-61.2571
 30
0.0
 10
87.5977
 20
-61.2571
 30
0.0
 10
86.7769
 20
-60.7477
 30
0.0
 10
87.0546
 20
-60.1278
 30
0.0
 10
86.9589
 20
-59.5247
 30
0.0
 10
86.9589
 20
-59.5247
 30
0.0
 10
86.7821
 20
-58.7777
 30
0.0
 10
85.917
 20
-59.205
 30
0.0
 10
85.3138
 20
-59.4143
 30
0.0
 10
85.3138
 20
-59.4143
 30
0.0
 10
80.9186
 20
-60.7069
 30
0.0
 10
77.0405
 20
-57.5774
 30
0.0
 10
75.1318
 20
-58.4947
 30
0.0
 10
75.1318
 20
-58.4947
 30
0.0
 10
75.1318
 20
-58.4947
 30
0.0
 10
75.1317
 20
-58.4947
 30
0.0
 10
75.1317
 20
-58.4947
 30
0.0
  0
SPLINE
  5
9A
330
1F
100
AcDbEntity
  8
layer 1
 62
     7
100
AcDbSpline
210
0.0
220
0.0
230
1.0
 70
    11
 71
     3
 72
    28
 73
    24
 74
     0
 42
0.0000000001
 43
0.0000000001
 12
1.0
 22
0.0
 32
0.0
 13
1.0
 23
0.0
 33
0.0
 40
0.0
 40
0.0
 40
0.0
 40
0.0
 40
0.1428571428571428
 40
0.1428571428571428
 40
0.1428571428571428
 40
0.1428571428571428
 40
0.2857142857142857
 40
0.2857142857142857
 40
0.2857142857142857
 40
0.2857142857142857
 40
0.4285714285714285
 40
0.4285714285714285
 40
0.4285714285714285
 40
0.4285714285714285
 40
0.5714285714285714
 40
0.5714285714285714
 40
0.5714285714285714
 40
0.5714285714285714
 40
0.7142857142857143
 40
0.7142857142857143
 40
0.7142857142857143
 40
0.7142857142857143
 40
1.0
 40
1.0
 40
1.0
 40
1.0
 10
79.0041
 20
-43.1778
 30
0.0
 10
70.9415
 20
-42.8325
 30
0.0
 10
68.7185
 20
-52.1099
 30
0.0
 10
71.4284
 20
-56.7921
 30
0.0
 10
71.4284
 20
-56.7921
 30
0.0
 10
71.7777
 20
-55.0412
 30
0.0
 10
74.1617
 20
-53.5893
 30
0.0
 10
75.8811
 20
-54.6222
 30
0.0
 10
75.8811
 20
-54.6222
 30
0.0
 10
73.3462
 20
-51.6621
 30
0.0
 10
73.6568
 20
-47.4397
 30
0.0
 10
76.3426
 20
-46.4202
 30
0.0
 10
76.3426
 20
-46.4202
 30
0.0
 10
77.3666
 20
-46.232
 30
0.0
 10
77.8904
 20
-46.034
 30
0.0
 10
77.9025
 20
-45.2313
 30
0.0
 10
77.9025
 20
-45.2313
 30
0.0
 10
77.9558
 20
-44.19
 30
0.0
 10
78.382
 20
-43.5639
 30
0.0
 10
79.0042
 20
-43.1778
 30
0.0
 10
79.0042
 20
-43.1778
 30
0.0
 10
79.0042
 20
-43.1778
 30
0.0
 10
79.0041
 20
-43.1778
 30
0.0
 10
79.0041
 20
-43.1778
 30
0.0
  0
SPLINE
  5
9B
330
1F
100
AcDbEntity
  8
layer 1
 62
     7
100
AcDbSpline
210
0.0
220
0.0
230
1.0
 70
    11
 71
     3
 72
    48
 73
    44
 74
     0
 42
0.0000000001
 43
0.0000000001
 12
1.0
 22
0.0
 32
0.0
 13
1.0
 23
0.0
 33
0.0
 40
0.0
 40
0.0
 40
0.0
 40
0.0
 40
0.0833333333333333
 40
0.0833333333333333
 40
0.0833333333333333
 40
0.0833333333333333
 40
0.1666666666666667
 40
0.1666666666666667
 40
0.1666666666666667
 40
0.1666666666666667
 40
0.25
 40
0.25
 40
0.25
 40
0.25
 40
0.3333333333333333
 40
0.3333333333333333
 40
0.3333333333333333
 40
0.3333333333333333
 40
0.4166666666666667
 40
0.4166666666666667
 40
0.4166666666666667
 40
0.4166666666666667
 40
0.5
 40
0.5
 40
0.5
 40
0.5
 40
0.5833333333333334
 40
0.5833333333333334
 40
0.5833333333333334
 40
0.5833333333333334
 40
0.6666666666666666
 40
0.6666666666666666
 40
0.6666666666666666
 40
0.6666666666666666
 40
0.75
 40
0.75
 40
0.75
 40
0.75
 40
0.8333333333333334
 40
0.8333333333333334
 40
0.8333333333333334
 40
0.8333333333333334
 40
1.0
 40
1.0
 40
1.0
 40
1.0
 10
48.1353
 20
-49.2811
 30
0.0
 10
52.9806
 20
-51.1374
 30
0.0
 10
54.8758
 20
-54.6112
 30
0.0
 10
53.3918
 20
-59.3896
 30
0.0
 10
53.3918
 20
-59.3896
 30
0.0
 10
56.2135
 20
-59.538
 30
0.0
 10
56.5286
 20
-57.8294
 30
0.0
 10
56.7913
 20
-57.1628
 30
0.0
 10
56.7913
 20
-57.1628
 30
0.0
 10
57.131
 20
-56.3917
 30
0.0
 10
57.4959
 20
-55.0286
 30
0.0
 10
59.2432
 20
-55.3714
 30
0.0
 10
59.2432
 20
-55.3714
 30
0.0
 10
59.9228
 20
-55.5048
 30
0.0
 10
60.6803
 20
-56.026
 30
0.0
 10
60.571
 20
-54.0471
 30
0.0
 10
60.571
 20
-54.0471
 30
0.0
 10
60.5
 20
-52.7608
 30
0.0
 10
60.7287
 20
-52.197
 30
0.0
 10
62.0891
 20
-52.5249
 30
0.0
 10
62.0891
 20
-52.5249
 30
0.0
 10
63.4879
 20
-52.862
 30
0.0
 10
64.9397
 20
-53.7839
 30
0.0
 10
64.7248
 20
-53.6542
 30
0.0
 10
64.7248
 20
-53.6542
 30
0.0
 10
63.1308
 20
-48.8279
 30
0.0
 10
54.646
 20
-41.185
 30
0.0
 10
48.0427
 20
-43.868
 30
0.0
 10
48.0427
 20
-43.868
 30
0.0
 10
46.896
 20
-44.2787
 30
0.0
 10
46.2575
 20
-46.0815
 30
0.0
 10
47.8758
 20
-46.6975
 30
0.0
 10
47.8758
 20
-46.6975
 30
0.0
 10
49.0813
 20
-47.208
 30
0.0
 10
49.343
 20
-47.7265
 30
0.0
 10
49.0926
 20
-48.5187
 30
0.0
 10
49.0926
 20
-48.5187
 30
0.0
 10
48.916
 20
-48.8592
 30
0.0
 10
48.3659
 20
-48.5802
 30
0.0
 10
48.1352
 20
-49.2812
 30
0.0
 10
48.1352
 20
-49.2812
 30
0.0
 10
48.1352
 20
-49.2812
 30
0.0
 10
48.1353
 20
-49.2811
 30
0.0
 10
48.1353
 20
-49.2811
 30
0.0
  0
SPLINE
  5
9C
330
1F
100
AcDbEntity
  8
layer 1
 62
     7
100
AcDbSpline
210
0.0
220
0.0
230
1.0
 70
    11
 71
     3
 72
    48
 73
    44
 74
     0
 42
0.0000000001
 43
0.0000000001
 12
1.0
 22
0.0
 32
0.0
 13
1.0
 23
0.0
 33
0.0
 40
0.0
 40
0.0
 40
0.0
 40
0.0
 40
0.0833333333333333
 40
0.0833333333333333
 40
0.0833333333333333
 40
0.0833333333333333
 40
0.1666666666666667
 40
0.1666666666666667
 40
0.1666666666666667
 40
0.1666666666666667
 40
0.25
 40
0.25
 40
0.25
 40
0.25
 40
0.3333333333333333
 40
0.3333333333333333
 40
0.3333333333333333
 40
0.3333333333333333
 40
0.4166666666666667
 40
0.4166666666666667
 40
0.4166666666666667
 40
0.4166666666666667
 40
0.5
 40
0.5
 40
0.5
 40
0.5
 40
0.5833333333333334
 40
0.5833333333333334
 40
0.5833333333333334
 40
0.5833333333333334
 40
0.6666666666666666
 40
0.6666666666666666
 40
0.6666666666666666
 40
0.6666666666666666
 40
0.75
 40
0.75
 40
0.75
 40
0.75
 40
0.8333333333333334
 40
0.8333333333333334
 40
0.8333333333333334
 40
0.8333333333333334
 40
1.0
 40
1.0
 40
1.0
 40
1.0
 10
48.8287
 20
-58.9163
 30
0.0
 10
49.8601
 20
-56.221
 30
0.0
 10
48.3523
 20
-53.6182
 30
0.0
 10
45.6462
 20
-55.0343
 30
0.0
 10
45.6462
 20
-55.0343
 30
0.0
 10
44.2754
 20
-58.6247
 30
0.0
 10
40.8433
 20
-57.6581
 30
0.0
 10
39.5091
 20
-55.316
 30
0.0
 10
39.5091
 20
-55.316
 30
0.0
 10
38.3957
 20
-53.3613
 30
0.0
 10
38.8926
 20
-50.3244
 30
0.0
 10
41.8655
 20
-49.3483
 30
0.0
 10
41.8655
 20
-49.3483
 30
0.0
 10
40.8128
 20
-48.8983
 30
0.0
 10
40.6489
 20
-48.3853
 30
0.0
 10
40.8045
 20
-47.5507
 30
0.0
 10
40.8045
 20
-47.5507
 30
0.0
 10
40.8948
 20
-47.0666
 30
0.0
 10
40.7892
 20
-46.1264
 30
0.0
 10
39.6902
 20
-46.2796
 30
0.0
 10
39.6902
 20
-46.2796
 30
0.0
 10
38.9029
 20
-46.3893
 30
0.0
 10
38.0007
 20
-46.8794
 30
0.0
 10
37.7008
 20
-46.4093
 30
0.0
 10
37.7008
 20
-46.4093
 30
0.0
 10
37.2754
 20
-45.7425
 30
0.0
 10
39.0714
 20
-43.3672
 30
0.0
 10
39.2198
 20
-43.0304
 30
0.0
 10
39.2198
 20
-43.0304
 30
0.0
 10
39.5701
 20
-42.2361
 30
0.0
 10
39.1034
 20
-42.0077
 30
0.0
 10
38.6148
 20
-42.5074
 30
0.0
 10
38.6148
 20
-42.5074
 30
0.0
 10
35.6548
 20
-45.0658
 30
0.0
 10
30.1302
 20
-51.8568
 30
0.0
 10
36.6766
 20
-59.0981
 30
0.0
 10
36.6766
 20
-59.0981
 30
0.0
 10
41.9556
 20
-64.0594
 30
0.0
 10
47.4776
 20
-61.7062
 30
0.0
 10
48.8286
 20
-58.9162
 30
0.0
 10
48.8286
 20
-58.9162
 30
0.0
 10
48.8286
 20
-58.9162
 30
0.0
 10
48.8287
 20
-58.9163
 30
0.0
 10
48.8287
 20
-58.9163
 30
0.0
  0
SPLINE
  5
9D
330
1F
100
AcDbEntity
  8
layer 1
 62
     7
100
AcDbSpline
210
0.0
220
0.0
230
1.0
 70
    11
 71
     3
 72
    44
 73
    40
 74
     0
 42
0.0000000001
 43
0.0000000001
 12
1.0
 22
0.0
 32
0.0
 13
1.0
 23
0.0
 33
0.0
 40
0.0
 40
0.0
 40
0.0
 40
0.0
 40
0.0909090909090909
 40
0.0909090909090909
 40
0.0909090909090909
 40
0.0909090909090909
 40
0.1818181818181818
 40
0.1818181818181818
 40
0.1818181818181818
 40
0.1818181818181818
 40
0.2727272727272727
 40
0.2727272727272727
 40
0.2727272727272727
 40
0.2727272727272727
 40
0.3636363636363636
 40
0.3636363636363636
 40
0.3636363636363636
 40
0.3636363636363636
 40
0.4545454545454545
 40
0.4545454545454545
 40
0.4545454545454545
 40
0.4545454545454545
 40
0.5454545454545454
 40
0.5454545454545454
 40
0.5454545454545454
 40
0.5454545454545454
 40
0.6363636363636364
 40
0.6363636363636364
 40
0.6363636363636364
 40
0.6363636363636364
 40
0.7272727272727273
 40
0.7272727272727273
 40
0.7272727272727273
 40
0.7272727272727273
 40
0.8181818181818182
 40
0.8181818181818182
 40
0.8181818181818182
 40
0.8181818181818182
 40
1.0
 40
1.0
 40
1.0
 40
1.0
 10
91.7411
 20
-45.8643
 30
0.0
 10
93.5866
 20
-50.38
 30
0.0
 10
92.0528
 20
-56.067
 30
0.0
 10
88.3611
 20
-58.0675
 30
0.0
 10
88.3611
 20
-58.0675
 30
0.0
 10
89.8132
 20
-57.5314
 30
0.0
 10
90.9634
 20
-56.746
 30
0.0
 10
92.2209
 20
-56.9783
 30
0.0
 10
92.2209
 20
-56.9783
 30
0.0
 10
93.287
 20
-56.9579
 30
0.0
 10
92.9684
 20
-55.7928
 30
0.0
 10
92.9684
 20
-55.7928
 30
0.0
 10
92.9684
 20
-55.7928
 30
0.0
 10
92.5993
 20
-54.2851
 30
0.0
 10
93.527
 20
-54.2847
 30
0.0
 10
94.5678
 20
-54.5544
 30
0.0
 10
94.5678
 20
-54.5544
 30
0.0
 10
95.6295
 20
-54.8438
 30
0.0
 10
96.3671
 20
-54.6929
 30
0.0
 10
96.9725
 20
-54.3842
 30
0.0
 10
96.9725
 20
-54.3842
 30
0.0
 10
99.4977
 20
-53.3624
 30
0.0
 10
101.8855
 20
-51.0242
 30
0.0
 10
103.5984
 20
-46.7737
 30
0.0
 10
103.5984
 20
-46.7737
 30
0.0
 10
101.0705
 20
-47.5641
 30
0.0
 10
100.0847
 20
-49.9809
 30
0.0
 10
99.4815
 20
-50.1902
 30
0.0
 10
99.4815
 20
-50.1902
 30
0.0
 10
98.2815
 20
-50.277
 30
0.0
 10
97.8098
 20
-47.8711
 30
0.0
 10
98.6743
 20
-46.1658
 30
0.0
 10
98.6743
 20
-46.1658
 30
0.0
 10
96.4637
 20
-47.4921
 30
0.0
 10
93.3188
 20
-47.0701
 30
0.0
 10
91.7412
 20
-45.8644
 30
0.0
 10
91.7412
 20
-45.8644
 30
0.0
 10
91.7412
 20
-45.8644
 30
0.0
 10
91.7411
 20
-45.8643
 30
0.0
 10
91.7411
 20
-45.8643
 30
0.0
  0
SPLINE
  5
9E
330
1F
100
AcDbEntity
  8
layer 1
 62
     7
100
AcDbSpline
210
0.0
220
0.0
230
1.0
 70
    11
 71
     3
 72
    44
 73
    40
 74
     0
 42
0.0000000001
 43
0.0000000001
 12
1.0
 22
0.0
 32
0.0
 13
1.0
 23
0.0
 33
0.0
 40
0.0
 40
0.0
 40
0.0
 40
0.0
 40
0.0909090909090909
 40
0.0909090909090909
 40
0.0909090909090909
 40
0.0909090909090909
 40
0.1818181818181818
 40
0.1818181818181818
 40
0.1818181818181818
 40
0.1818181818181818
 40
0.2727272727272727
 40
0.2727272727272727
 40
0.2727272727272727
 40
0.2727272727272727
 40
0.3636363636363636
 40
0.3636363636363636
 40
0.3636363636363636
 40
0.3636363636363636
 40
0.4545454545454545
 40
0.4545454545454545
 40
0.4545454545454545
 40
0.4545454545454545
 40
0.5454545454545454
 40
0.5454545454545454
 40
0.5454545454545454
 40
0.5454545454545454
 40
0.6363636363636364
 40
0.6363636363636364
 40
0.6363636363636364
 40
0.6363636363636364
 40
0.7272727272727273
 40
0.7272727272727273
 40
0.7272727272727273
 40
0.7272727272727273
 40
0.8181818181818182
 40
0.8181818181818182
 40
0.8181818181818182
 40
0.8181818181818182
 40
1.0
 40
1.0
 40
1.0
 40
1.0
 10
77.6962
 20
-33.6268
 30
0.0
 10
75.802
 20
-37.6552
 30
0.0
 10
70.4509
 20
-40.9451
 30
0.0
 10
64.6027
 20
-40.3145
 30
0.0
 10
64.6027
 20
-40.3145
 30
0.0
 10
69.3073
 20
-38.9342
 30
0.0
 10
69.3956
 20
-36.6029
 30
0.0
 10
66.7042
 20
-36.7641
 30
0.0
 10
66.7042
 20
-36.7641
 30
0.0
 10
68.05
 20
-35.2361
 30
0.0
 10
69.4545
 20
-31.1475
 30
0.0
 10
67.2253
 20
-31.804
 30
0.0
 10
67.2253
 20
-31.804
 30
0.0
 10
67.095
 20
-32.6186
 30
0.0
 10
66.3042
 20
-32.5166
 30
0.0
 10
66.1485
 20
-31.8145
 30
0.0
 10
66.1485
 20
-31.8145
 30
0.0
 10
65.9135
 20
-30.7548
 30
0.0
 10
65.3949
 20
-29.9708
 30
0.0
 10
64.3136
 20
-29.7537
 30
0.0
 10
64.3136
 20
-29.7537
 30
0.0
 10
65.9719
 20
-28.7037
 30
0.0
 10
66.4332
 20
-27.3021
 30
0.0
 10
66.8165
 20
-25.457
 30
0.0
 10
66.8165
 20
-25.457
 30
0.0
 10
67.6145
 20
-28.6234
 30
0.0
 10
69.9879
 20
-29.9153
 30
0.0
 10
72.2726
 20
-29.309
 30
0.0
 10
72.2726
 20
-29.309
 30
0.0
 10
72.998
 20
-29.1165
 30
0.0
 10
73.1918
 20
-29.0174
 30
0.0
 10
74.0163
 20
-29.2503
 30
0.0
 10
74.0163
 20
-29.2503
 30
0.0
 10
69.718
 20
-32.0358
 30
0.0
 10
74.4742
 20
-37.0209
 30
0.0
 10
77.6961
 20
-33.6268
 30
0.0
 10
77.6961
 20
-33.6268
 30
0.0
 10
77.6961
 20
-33.6268
 30
0.0
 10
77.6962
 20
-33.6268
 30
0.0
 10
77.6962
 20
-33.6268
 30
0.0
  0
SPLINE
  5
9F
330
1F
100
AcDbEntity
  8
layer 1
 62
     7
100
AcDbSpline
210
0.0
220
0.0
230
1.0
 70
    11
 71
     3
 72
    40
 73
    36
 74
     0
 42
0.0000000001
 43
0.0000000001
 12
1.0
 22
0.0
 32
0.0
 13
1.0
 23
0.0
 33
0.0
 40
0.0
 40
0.0
 40
0.0
 40
0.0
 40
0.1
 40
0.1
 40
0.1
 40
0.1
 40
0.2
 40
0.2
 40
0.2
 40
0.2
 40
0.3
 40
0.3
 40
0.3
 40
0.3
 40
0.4
 40
0.4
 40
0.4
 40
0.4
 40
0.5
 40
0.5
 40
0.5
 40
0.5
 40
0.6
 40
0.6
 40
0.6
 40
0.6
 40
0.7
 40
0.7
 40
0.7
 40
0.7
 40
0.8
 40
0.8
 40
0.8
 40
0.8
 40
1.0
 40
1.0
 40
1.0
 40
1.0
 10
81.51
 20
-31.5429
 30
0.0
 10
81.5032
 20
-29.2412
 30
0.0
 10
82.089
 20
-23.3698
 30
0.0
 10
76.9093
 20
-23.3684
 30
0.0
 10
76.9093
 20
-23.3684
 30
0.0
 10
76.9351
 20
-24.4651
 30
0.0
 10
76.7481
 20
-25.3579
 30
0.0
 10
76.1013
 20
-25.7551
 30
0.0
 10
76.1013
 20
-25.7551
 30
0.0
 10
75.3633
 20
-23.9913
 30
0.0
 10
73.9762
 20
-24.0309
 30
0.0
 10
71.747
 20
-24.6875
 30
0.0
 10
71.747
 20
-24.6875
 30
0.0
 10
70.2594
 20
-25.2497
 30
0.0
 10
68.5684
 20
-24.98
 30
0.0
 10
67.8916
 20
-24.3671
 30
0.0
 10
67.8916
 20
-24.3671
 30
0.0
 10
65.8933
 20
-21.6658
 30
0.0
 10
67.2196
 20
-14.3664
 30
0.0
 10
71.4168
 20
-14.6838
 30
0.0
 10
71.4168
 20
-14.6838
 30
0.0
 10
69.6592
 20
-15.8057
 30
0.0
 10
68.258
 20
-17.8053
 30
0.0
 10
69.1272
 20
-18.8897
 30
0.0
 10
69.1272
 20
-18.8897
 30
0.0
 10
69.9589
 20
-18.1794
 30
0.0
 10
70.5283
 20
-17.9727
 30
0.0
 10
70.7036
 20
-19.7914
 30
0.0
 10
70.7036
 20
-19.7914
 30
0.0
 10
70.8238
 20
-23.1803
 30
0.0
 10
78.2993
 20
-22.7335
 30
0.0
 10
78.4825
 20
-18.0568
 30
0.0
 10
78.4825
 20
-18.0568
 30
0.0
 10
84.542
 20
-22.0091
 30
0.0
 10
82.8731
 20
-28.7382
 30
0.0
 10
81.51
 20
-31.5429
 30
0.0
  0
SPLINE
  5
A0
330
1F
100
AcDbEntity
  8
layer 1
 62
     7
100
AcDbSpline
210
0.0
220
0.0
230
1.0
 70
    11
 71
     3
 72
    40
 73
    36
 74
     0
 42
0.0000000001
 43
0.0000000001
 12
1.0
 22
0.0
 32
0.0
 13
1.0
 23
0.0
 33
0.0
 40
0.0
 40
0.0
 40
0.0
 40
0.0
 40
0.1
 40
0.1
 40
0.1
 40
0.1
 40
0.2
 40
0.2
 40
0.2
 40
0.2
 40
0.3
 40
0.3
 40
0.3
 40
0.3
 40
0.4
 40
0.4
 40
0.4
 40
0.4
 40
0.5
 40
0.5
 40
0.5
 40
0.5
 40
0.6
 40
0.6
 40
0.6
 40
0.6
 40
0.7
 40
0.7
 40
0.7
 40
0.7
 40
0.8
 40
0.8
 40
0.8
 40
0.8
 40
1.0
 40
1.0
 40
1.0
 40
1.0
 10
61.6145
 20
-30.8782
 30
0.0
 10
59.3992
 20
-32.3288
 30
0.0
 10
61.1781
 20
-33.9294
 30
0.0
 10
62.104
 20
-34.641
 30
0.0
 10
62.104
 20
-34.641
 30
0.0
 10
62.8207
 20
-35.3542
 30
0.0
 10
62.102
 20
-35.8658
 30
0.0
 10
61.3276
 20
-35.9719
 30
0.0
 10
61.3276
 20
-35.9719
 30
0.0
 10
59.5254
 20
-36.1016
 30
0.0
 10
55.2001
 20
-35.9106
 30
0.0
 10
53.4618
 20
-33.8428
 30
0.0
 10
53.4618
 20
-33.8428
 30
0.0
 10
52.9183
 20
-33.0287
 30
0.0
 10
53.3403
 20
-32.8067
 30
0.0
 10
54.0774
 20
-33.0455
 30
0.0
 10
54.0774
 20
-33.0455
 30
0.0
 10
55.2687
 20
-33.4596
 30
0.0
 10
55.4795
 20
-32.8248
 30
0.0
 10
56.8992
 20
-33.2802
 30
0.0
 10
56.8992
 20
-33.2802
 30
0.0
 10
57.9275
 20
-32.1768
 30
0.0
 10
57.9464
 20
-29.7289
 30
0.0
 10
57.0994
 20
-27.144
 30
0.0
 10
57.0994
 20
-27.144
 30
0.0
 10
58.3992
 20
-28.1737
 30
0.0
 10
60.9992
 20
-28.6707
 30
0.0
 10
62.2046
 20
-26.8641
 30
0.0
 10
62.2046
 20
-26.8641
 30
0.0
 10
63.0048
 20
-26.9845
 30
0.0
 10
63.2032
 20
-29.6931
 30
0.0
 10
61.6144
 20
-30.8781
 30
0.0
 10
61.6144
 20
-30.8781
 30
0.0
 10
61.6144
 20
-30.8781
 30
0.0
 10
61.6145
 20
-30.8782
 30
0.0
 10
61.6145
 20
-30.8782
 30
0.0
  0
SPLINE
  5
A1
330
1F
100
AcDbEntity
  8
layer 1
 62
     7
100
AcDbSpline
210
0.0
220
0.0
230
1.0
 70
    11
 71
     3
 72
    40
 73
    36
 74
     0
 42
0.0000000001
 43
0.0000000001
 12
1.0
 22
0.0
 32
0.0
 13
1.0
 23
0.0
 33
0.0
 40
0.0
 40
0.0
 40
0.0
 40
0.0
 40
0.1
 40
0.1
 40
0.1
 40
0.1
 40
0.2
 40
0.2
 40
0.2
 40
0.2
 40
0.3
 40
0.3
 40
0.3
 40
0.3
 40
0.4
 40
0.4
 40
0.4
 40
0.4
 40
0.5
 40
0.5
 40
0.5
 40
0.5
 40
0.6
 40
0.6
 40
0.6
 40
0.6
 40
0.7
 40
0.7
 40
0.7
 40
0.7
 40
0.8
 40
0.8
 40
0.8
 40
0.8
 40
1.0
 40
1.0
 40
1.0
 40
1.0
 10
45.189
 20
-17.9563
 30
0.0
 10
48.4946
 20
-18.943
 30
0.0
 10
47.629
 20
-21.9586
 30
0.0
 10
45.8409
 20
-21.9511
 30
0.0
 10
45.8409
 20
-21.9511
 30
0.0
 10
42.3821
 20
-21.11
 30
0.0
 10
42.3361
 20
-24.1038
 30
0.0
 10
45.1805
 20
-25.7408
 30
0.0
 10
45.1805
 20
-25.7408
 30
0.0
 10
43.0767
 20
-27.6567
 30
0.0
 10
39.7953
 20
-25.378
 30
0.0
 10
41.5829
 20
-22.8464
 30
0.0
 10
41.5829
 20
-22.8464
 30
0.0
 10
41.9441
 20
-22.3571
 30
0.0
 10
42.5517
 20
-21.8102
 30
0.0
 10
41.4331
 20
-21.0284
 30
0.0
 10
41.4331
 20
-21.0284
 30
0.0
 10
40.3741
 20
-20.677
 30
0.0
 10
39.3323
 20
-20.6454
 30
0.0
 10
38.3859
 20
-21.7038
 30
0.0
 10
38.3859
 20
-21.7038
 30
0.0
 10
38.2776
 20
-20.6932
 30
0.0
 10
38.9691
 20
-19.382
 30
0.0
 10
39.7924
 20
-18.5137
 30
0.0
 10
39.7924
 20
-18.5137
 30
0.0
 10
41.7417
 20
-18.3371
 30
0.0
 10
43.1818
 20
-20.226
 30
0.0
 10
42.7171
 20
-21.3191
 30
0.0
 10
42.7171
 20
-21.3191
 30
0.0
 10
44.8859
 20
-21.6483
 30
0.0
 10
46.6153
 20
-19.7175
 30
0.0
 10
45.189
 20
-17.9564
 30
0.0
 10
45.189
 20
-17.9564
 30
0.0
 10
45.189
 20
-17.9564
 30
0.0
 10
45.189
 20
-17.9563
 30
0.0
 10
45.189
 20
-17.9563
 30
0.0
  0
SPLINE
  5
A2
330
1F
100
AcDbEntity
  8
layer 1
 62
     7
100
AcDbSpline
210
0.0
220
0.0
230
1.0
 70
    11
 71
     3
 72
    72
 73
    68
 74
     0
 42
0.0000000001
 43
0.0000000001
 12
1.0
 22
0.0
 32
0.0
 13
1.0
 23
0.0
 33
0.0
 40
0.0
 40
0.0
 40
0.0
 40
0.0
 40
0.0555555555555556
 40
0.0555555555555556
 40
0.0555555555555556
 40
0.0555555555555556
 40
0.1111111111111111
 40
0.1111111111111111
 40
0.1111111111111111
 40
0.1111111111111111
 40
0.1666666666666667
 40
0.1666666666666667
 40
0.1666666666666667
 40
0.1666666666666667
 40
0.2222222222222222
 40
0.2222222222222222
 40
0.2222222222222222
 40
0.2222222222222222
 40
0.2777777777777778
 40
0.2777777777777778
 40
0.2777777777777778
 40
0.2777777777777778
 40
0.3333333333333333
 40
0.3333333333333333
 40
0.3333333333333333
 40
0.3333333333333333
 40
0.3888888888888889
 40
0.3888888888888889
 40
0.3888888888888889
 40
0.3888888888888889
 40
0.4444444444444444
 40
0.4444444444444444
 40
0.4444444444444444
 40
0.4444444444444444
 40
0.5
 40
0.5
 40
0.5
 40
0.5
 40
0.5555555555555556
 40
0.5555555555555556
 40
0.5555555555555556
 40
0.5555555555555556
 40
0.6111111111111112
 40
0.6111111111111112
 40
0.6111111111111112
 40
0.6111111111111112
 40
0.6666666666666666
 40
0.6666666666666666
 40
0.6666666666666666
 40
0.6666666666666666
 40
0.7222222222222222
 40
0.7222222222222222
 40
0.7222222222222222
 40
0.7222222222222222
 40
0.7777777777777778
 40
0.7777777777777778
 40
0.7777777777777778
 40
0.7777777777777778
 40
0.8333333333333334
 40
0.8333333333333334
 40
0.8333333333333334
 40
0.8333333333333334
 40
0.8888888888888888
 40
0.8888888888888888
 40
0.8888888888888888
 40
0.8888888888888888
 40
1.0
 40
1.0
 40
1.0
 40
1.0
 10
68.6395
 20
-8.2667
 30
0.0
 10
69.281
 20
-8.6324
 30
0.0
 10
69.6418
 20
-9.655
 30
0.0
 10
69.5764
 20
-10.3887
 30
0.0
 10
69.5764
 20
-10.3887
 30
0.0
 10
65.1454
 20
-10.6633
 30
0.0
 10
60.8431
 20
-14.6704
 30
0.0
 10
59.2281
 20
-18.8401
 30
0.0
 10
59.2281
 20
-18.8401
 30
0.0
 10
58.9502
 20
-19.6392
 30
0.0
 10
58.5578
 20
-20.6023
 30
0.0
 10
59.8858
 20
-20.2692
 30
0.0
 10
59.8858
 20
-20.2692
 30
0.0
 10
60.7659
 20
-20.2238
 30
0.0
 10
60.4373
 20
-20.9734
 30
0.0
 10
59.9512
 20
-21.2316
 30
0.0
 10
59.9512
 20
-21.2316
 30
0.0
 10
59.3425
 20
-21.5659
 30
0.0
 10
58.9085
 20
-21.9464
 30
0.0
 10
58.2942
 20
-22.5358
 30
0.0
 10
58.2942
 20
-22.5358
 30
0.0
 10
55.2952
 20
-22.077
 30
0.0
 10
54.689
 20
-22.2499
 30
0.0
 10
54.9272
 20
-24.481
 30
0.0
 10
54.9272
 20
-24.481
 30
0.0
 10
54.0752
 20
-23.5667
 30
0.0
 10
52.7838
 20
-22.7405
 30
0.0
 10
50.4292
 20
-22.2838
 30
0.0
 10
50.4292
 20
-22.2838
 30
0.0
 10
56.5561
 20
-21.2403
 30
0.0
 10
59.2604
 20
-14.4904
 30
0.0
 10
57.1102
 20
-10.4166
 30
0.0
 10
57.1102
 20
-10.4166
 30
0.0
 10
62.2565
 20
-9.7278
 30
0.0
 10
60.3629
 20
-1.0438
 30
0.0
 10
55.7251
 20
-5.0995
 30
0.0
 10
55.7251
 20
-5.0995
 30
0.0
 10
55.3313
 20
-5.4683
 30
0.0
 10
54.5333
 20
-5.4288
 30
0.0
 10
55.0996
 20
-4.0778
 30
0.0
 10
55.0996
 20
-4.0778
 30
0.0
 10
56.8521
 20
0.231
 30
0.0
 10
64.8832
 20
5.1594
 30
0.0
 10
73.4161
 20
9.2406
 30
0.0
 10
73.4161
 20
9.2406
 30
0.0
 10
65.0644
 20
3.8487
 30
0.0
 10
63.9006
 20
1.1078
 30
0.0
 10
62.0338
 20
-1.2826
 30
0.0
 10
62.0338
 20
-1.2826
 30
0.0
 10
61.2934
 20
-2.6316
 30
0.0
 10
62.1983
 20
-2.8931
 30
0.0
 10
62.8543
 20
-2.6095
 30
0.0
 10
62.8543
 20
-2.6095
 30
0.0
 10
65.4102
 20
-1.9594
 30
0.0
 10
64.518
 20
-3.3123
 30
0.0
 10
64.1794
 20
-4.427
 30
0.0
 10
64.1794
 20
-4.427
 30
0.0
 10
62.443
 20
-8.3168
 30
0.0
 10
62.81
 20
-10.0121
 30
0.0
 10
63.1666
 20
-10.5242
 30
0.0
 10
63.1666
 20
-10.5242
 30
0.0
 10
64.7345
 20
-11.6947
 30
0.0
 10
68.0028
 20
-10.0276
 30
0.0
 10
68.6396
 20
-8.2666
 30
0.0
 10
68.6396
 20
-8.2666
 30
0.0
 10
68.6396
 20
-8.2666
 30
0.0
 10
68.6395
 20
-8.2667
 30
0.0
 10
68.6395
 20
-8.2667
 30
0.0
  0
SPLINE
  5
A3
330
1F
100
AcDbEntity
  8
layer 1
 62
     7
100
AcDbSpline
210
0.0
220
0.0
230
1.0
 70
    11
 71
     3
 72
    20
 73
    16
 74
     0
 42
0.0000000001
 43
0.0000000001
 12
1.0
 22
0.0
 32
0.0
 13
1.0
 23
0.0
 33
0.0
 40
0.0
 40
0.0
 40
0.0
 40
0.0
 40
0.2
 40
0.2
 40
0.2
 40
0.2
 40
0.4
 40
0.4
 40
0.4
 40
0.4
 40
0.6
 40
0.6
 40
0.6
 40
0.6
 40
1.0
 40
1.0
 40
1.0
 40
1.0
 10
89.8922
 20
2.4094
 30
0.0
 10
90.9576
 20
0.7783
 30
0.0
 10
93.2868
 20
-1.605
 30
0.0
 10
94.7439
 20
-2.4379
 30
0.0
 10
94.7439
 20
-2.4379
 30
0.0
 10
94.1465
 20
-0.7839
 30
0.0
 10
94.3523
 20
0.6813
 30
0.0
 10
94.7989
 20
2.1545
 30
0.0
 10
94.7989
 20
2.1545
 30
0.0
 10
92.69
 20
1.5809
 30
0.0
 10
91.7824
 20
1.5102
 30
0.0
 10
89.8921
 20
2.4095
 30
0.0
 10
89.8921
 20
2.4095
 30
0.0
 10
89.8921
 20
2.4095
 30
0.0
 10
89.8922
 20
2.4094
 30
0.0
 10
89.8922
 20
2.4094
 30
0.0
  0
SPLINE
  5
A4
330
1F
100
AcDbEntity
  8
layer 1
 62
     7
100
AcDbSpline
210
0.0
220
0.0
230
1.0
 70
    11
 71
     3
 72
    44
 73
    40
 74
     0
 42
0.0000000001
 43
0.0000000001
 12
1.0
 22
0.0
 32
0.0
 13
1.0
 23
0.0
 33
0.0
 40
0.0
 40
0.0
 40
0.0
 40
0.0
 40
0.0909090909090909
 40
0.0909090909090909
 40
0.0909090909090909
 40
0.0909090909090909
 40
0.1818181818181818
 40
0.1818181818181818
 40
0.1818181818181818
 40
0.1818181818181818
 40
0.2727272727272727
 40
0.2727272727272727
 40
0.2727272727272727
 40
0.2727272727272727
 40
0.3636363636363636
 40
0.3636363636363636
 40
0.3636363636363636
 40
0.3636363636363636
 40
0.4545454545454545
 40
0.4545454545454545
 40
0.4545454545454545
 40
0.4545454545454545
 40
0.5454545454545454
 40
0.5454545454545454
 40
0.5454545454545454
 40
0.5454545454545454
 40
0.6363636363636364
 40
0.6363636363636364
 40
0.6363636363636364
 40
0.6363636363636364
 40
0.7272727272727273
 40
0.7272727272727273
 40
0.7272727272727273
 40
0.7272727272727273
 40
0.8181818181818182
 40
0.8181818181818182
 40
0.8181818181818182
 40
0.8181818181818182
 40
1.0
 40
1.0
 40
1.0
 40
1.0
 10
103.9128
 20
9.7779
 30
0.0
 10
103.2328
 20
8.1833
 30
0.0
 10
102.9688
 20
6.9265
 30
0.0
 10
101.8985
 20
6.1927
 30
0.0
 10
101.8985
 20
6.1927
 30
0.0
 10
100.5432
 20
5.2633
 30
0.0
 10
98.8261
 20
5.4307
 30
0.0
 10
98.5215
 20
3.8775
 30
0.0
 10
98.5215
 20
3.8775
 30
0.0
 10
104.4361
 20
4.5763
 30
0.0
 10
103.9186
 20
-3.8704
 30
0.0
 10
98.9452
 20
-2.1583
 30
0.0
 10
98.9452
 20
-2.1583
 30
0.0
 10
98.6688
 20
-2.0631
 30
0.0
 10
97.8464
 20
-1.2413
 30
0.0
 10
98.6644
 20
-1.049
 30
0.0
 10
98.6644
 20
-1.049
 30
0.0
 10
101.7777
 20
-0.9489
 30
0.0
 10
99.8789
 20
3.7273
 30
0.0
 10
96.7622
 20
1.0983
 30
0.0
 10
96.7622
 20
1.0983
 30
0.0
 10
94.7393
 20
-0.4471
 30
0.0
 10
96.2103
 20
-4.9625
 30
0.0
 10
99.8518
 20
-4.3525
 30
0.0
 10
99.8518
 20
-4.3525
 30
0.0
 10
101.3136
 20
-4.0398
 30
0.0
 10
102.938
 20
-3.3131
 30
0.0
 10
104.1423
 20
-1.0816
 30
0.0
 10
104.1423
 20
-1.0816
 30
0.0
 10
105.4585
 20
1.7687
 30
0.0
 10
105.9061
 20
5.2277
 30
0.0
 10
104.8685
 20
9.7437
 30
0.0
 10
104.8685
 20
9.7437
 30
0.0
 10
104.7206
 20
10.4149
 30
0.0
 10
104.0949
 20
10.4036
 30
0.0
 10
103.9128
 20
9.7778
 30
0.0
 10
103.9128
 20
9.7778
 30
0.0
 10
103.9128
 20
9.7778
 30
0.0
 10
103.9128
 20
9.7779
 30
0.0
 10
103.9128
 20
9.7779
 30
0.0
  0
SPLINE
  5
A5
330
1F
100
AcDbEntity
  8
layer 1
 62
     7
100
AcDbSpline
210
0.0
220
0.0
230
1.0
 70
    11
 71
     3
 72
    44
 73
    40
 74
     0
 42
0.0000000001
 43
0.0000000001
 12
1.0
 22
0.0
 32
0.0
 13
1.0
 23
0.0
 33
0.0
 40
0.0
 40
0.0
 40
0.0
 40
0.0
 40
0.0909090909090909
 40
0.0909090909090909
 40
0.0909090909090909
 40
0.0909090909090909
 40
0.1818181818181818
 40
0.1818181818181818
 40
0.1818181818181818
 40
0.1818181818181818
 40
0.2727272727272727
 40
0.2727272727272727
 40
0.2727272727272727
 40
0.2727272727272727
 40
0.3636363636363636
 40
0.3636363636363636
 40
0.3636363636363636
 40
0.3636363636363636
 40
0.4545454545454545
 40
0.4545454545454545
 40
0.4545454545454545
 40
0.4545454545454545
 40
0.5454545454545454
 40
0.5454545454545454
 40
0.5454545454545454
 40
0.5454545454545454
 40
0.6363636363636364
 40
0.6363636363636364
 40
0.6363636363636364
 40
0.6363636363636364
 40
0.7272727272727273
 40
0.7272727272727273
 40
0.7272727272727273
 40
0.7272727272727273
 40
0.8181818181818182
 40
0.8181818181818182
 40
0.8181818181818182
 40
0.8181818181818182
 40
1.0
 40
1.0
 40
1.0
 40
1.0
 10
102.2743
 20
11.396
 30
0.0
 10
100.6902
 20
10.692
 30
0.0
 10
99.4376
 20
10.4089
 30
0.0
 10
98.72
 20
9.3276
 30
0.0
 10
98.72
 20
9.3276
 30
0.0
 10
97.8114
 20
7.9584
 30
0.0
 10
98.0048
 20
6.2441
 30
0.0
 10
96.4563
 20
5.9158
 30
0.0
 10
96.4563
 20
5.9158
 30
0.0
 10
97.0654
 20
11.8403
 30
0.0
 10
88.6275
 20
11.1948
 30
0.0
 10
90.4148
 20
6.248
 30
0.0
 10
90.4148
 20
6.248
 30
0.0
 10
90.5141
 20
5.9732
 30
0.0
 10
91.3483
 20
5.1633
 30
0.0
 10
91.5282
 20
5.984
 30
0.0
 10
91.5282
 20
5.984
 30
0.0
 10
91.5812
 20
9.0985
 30
0.0
 10
96.2857
 20
7.2707
 30
0.0
 10
93.7042
 20
4.1146
 30
0.0
 10
93.7042
 20
4.1146
 30
0.0
 10
92.1896
 20
2.0685
 30
0.0
 10
87.6524
 20
3.471
 30
0.0
 10
88.2072
 20
7.1214
 30
0.0
 10
88.2072
 20
7.1214
 30
0.0
 10
88.4977
 20
8.5877
 30
0.0
 10
89.1997
 20
10.2229
 30
0.0
 10
91.4127
 20
11.4609
 30
0.0
 10
91.4127
 20
11.4609
 30
0.0
 10
94.2427
 20
12.8201
 30
0.0
 10
97.6946
 20
13.3201
 30
0.0
 10
102.2258
 20
12.3511
 30
0.0
 10
102.2258
 20
12.3511
 30
0.0
 10
102.8992
 20
12.2133
 30
0.0
 10
102.8974
 20
11.5875
 30
0.0
 10
102.2744
 20
11.396
 30
0.0
 10
102.2744
 20
11.396
 30
0.0
 10
102.2744
 20
11.396
 30
0.0
 10
102.2743
 20
11.396
 30
0.0
 10
102.2743
 20
11.396
 30
0.0
  0
SPLINE
  5
A6
330
1F
100
AcDbEntity
  8
layer 1
 62
     7
100
AcDbSpline
210
0.0
220
0.0
230
1.0
 70
    11
 71
     3
 72
    44
 73
    40
 74
     0
 42
0.0000000001
 43
0.0000000001
 12
1.0
 22
0.0
 32
0.0
 13
1.0
 23
0.0
 33
0.0
 40
0.0
 40
0.0
 40
0.0
 40
0.0
 40
0.0909090909090909
 40
0.0909090909090909
 40
0.0909090909090909
 40
0.0909090909090909
 40
0.1818181818181818
 40
0.1818181818181818
 40
0.1818181818181818
 40
0.1818181818181818
 40
0.2727272727272727
 40
0.2727272727272727
 40
0.2727272727272727
 40
0.2727272727272727
 40
0.3636363636363636
 40
0.3636363636363636
 40
0.3636363636363636
 40
0.3636363636363636
 40
0.4545454545454545
 40
0.4545454545454545
 40
0.4545454545454545
 40
0.4545454545454545
 40
0.5454545454545454
 40
0.5454545454545454
 40
0.5454545454545454
 40
0.5454545454545454
 40
0.6363636363636364
 40
0.6363636363636364
 40
0.6363636363636364
 40
0.6363636363636364
 40
0.7272727272727273
 40
0.7272727272727273
 40
0.7272727272727273
 40
0.7272727272727273
 40
0.8181818181818182
 40
0.8181818181818182
 40
0.8181818181818182
 40
0.8181818181818182
 40
1.0
 40
1.0
 40
1.0
 40
1.0
 10
79.4713
 20
-47.3899
 30
0.0
 10
78.9875
 20
-47.1436
 30
0.0
 10
78.3337
 20
-47.5251
 30
0.0
 10
78.8087
 20
-48.1798
 30
0.0
 10
78.8087
 20
-48.1798
 30
0.0
 10
78.915
 20
-48.7307
 30
0.0
 10
79.7805
 20
-49.4982
 30
0.0
 10
80.3911
 20
-49.808
 30
0.0
 10
80.3911
 20
-49.808
 30
0.0
 10
81.0874
 20
-49.2902
 30
0.0
 10
81.2853
 20
-49.7138
 30
0.0
 10
81.4492
 20
-50.0718
 30
0.0
 10
81.4492
 20
-50.0718
 30
0.0
 10
81.96
 20
-50.9711
 30
0.0
 10
82.7583
 20
-50.0131
 30
0.0
 10
83.2296
 20
-49.17
 30
0.0
 10
83.2296
 20
-49.17
 30
0.0
 10
84.3431
 20
-47.4407
 30
0.0
 10
86.0383
 20
-47.7039
 30
0.0
 10
86.4885
 20
-49.0773
 30
0.0
 10
86.4885
 20
-49.0773
 30
0.0
 10
87.2278
 20
-50.54
 30
0.0
 10
89.9521
 20
-50.2723
 30
0.0
 10
89.3099
 20
-47.5229
 30
0.0
 10
89.3099
 20
-47.5229
 30
0.0
 10
88.8006
 20
-45.0781
 30
0.0
 10
85.8997
 20
-42.7588
 30
0.0
 10
83.9766
 20
-42.9682
 30
0.0
 10
83.9766
 20
-42.9682
 30
0.0
 10
83.2425
 20
-43.0032
 30
0.0
 10
83.1589
 20
-43.3923
 30
0.0
 10
83.3764
 20
-43.6541
 30
0.0
 10
83.3764
 20
-43.6541
 30
0.0
 10
84.4009
 20
-47.1026
 30
0.0
 10
81.0488
 20
-48.5958
 30
0.0
 10
79.4713
 20
-47.39
 30
0.0
 10
79.4713
 20
-47.39
 30
0.0
 10
79.4713
 20
-47.39
 30
0.0
 10
79.4713
 20
-47.3899
 30
0.0
 10
79.4713
 20
-47.3899
 30
0.0
  0
SPLINE
  5
A7
330
1F
100
AcDbEntity
  8
layer 1
 62
     7
100
AcDbSpline
210
0.0
220
0.0
230
1.0
 70
    11
 71
     3
 72
    24
 73
    20
 74
     0
 42
0.0000000001
 43
0.0000000001
 12
1.0
 22
0.0
 32
0.0
 13
1.0
 23
0.0
 33
0.0
 40
0.0
 40
0.0
 40
0.0
 40
0.0
 40
0.1666666666666667
 40
0.1666666666666667
 40
0.1666666666666667
 40
0.1666666666666667
 40
0.3333333333333333
 40
0.3333333333333333
 40
0.3333333333333333
 40
0.3333333333333333
 40
0.5
 40
0.5
 40
0.5
 40
0.5
 40
0.6666666666666666
 40
0.6666666666666666
 40
0.6666666666666666
 40
0.6666666666666666
 40
1.0
 40
1.0
 40
1.0
 40
1.0
 10
118.2914
 20
-17.0587
 30
0.0
 10
118.5976
 20
-19.0213
 30
0.0
 10
117.4042
 20
-20.2062
 30
0.0
 10
115.2109
 20
-21.9467
 30
0.0
 10
115.2109
 20
-21.9467
 30
0.0
 10
112.2433
 20
-16.8229
 30
0.0
 10
109.3769
 20
-13.3378
 30
0.0
 10
109.7676
 20
-10.0346
 30
0.0
 10
109.7676
 20
-10.0346
 30
0.0
 10
113.4764
 20
-9.5106
 30
0.0
 10
118.8439
 20
-10.1398
 30
0.0
 10
119.6799
 20
-12.5897
 30
0.0
 10
119.6799
 20
-12.5897
 30
0.0
 10
115.0497
 20
-10.3772
 30
0.0
 10
114.607
 20
-17.2684
 30
0.0
 10
118.2913
 20
-17.0587
 30
0.0
 10
118.2913
 20
-17.0587
 30
0.0
 10
118.2913
 20
-17.0587
 30
0.0
 10
118.2914
 20
-17.0587
 30
0.0
 10
118.2914
 20
-17.0587
 30
0.0
  0
SPLINE
  5
A8
330
1F
100
AcDbEntity
  8
layer 1
 62
     7
100
AcDbSpline
210
0.0
220
0.0
230
1.0
 70
    11
 71
     3
 72
    16
 73
    12
 74
     0
 42
0.0000000001
 43
0.0000000001
 12
1.0
 22
0.0
 32
0.0
 13
1.0
 23
0.0
 33
0.0
 40
0.0
 40
0.0
 40
0.0
 40
0.0
 40
0.25
 40
0.25
 40
0.25
 40
0.25
 40
0.5
 40
0.5
 40
0.5
 40
0.5
 40
1.0
 40
1.0
 40
1.0
 40
1.0
 10
114.2858
 20
-23.2493
 30
0.0
 10
113.4794
 20
-23.1888
 30
0.0
 10
111.2745
 20
-23.4229
 30
0.0
 10
110.5985
 20
-24.5362
 30
0.0
 10
110.5985
 20
-24.5362
 30
0.0
 10
110.3418
 20
-19.4932
 30
0.0
 10
108.1429
 20
-19.8519
 30
0.0
 10
108.7764
 20
-15.2339
 30
0.0
 10
108.7764
 20
-15.2339
 30
0.0
 10
111.1398
 20
-18.7547
 30
0.0
 10
112.7701
 20
-20.8522
 30
0.0
 10
114.2858
 20
-23.2493
 30
0.0
  0
SPLINE
  5
A9
330
1F
100
AcDbEntity
  8
layer 1
 62
     7
100
AcDbSpline
210
0.0
220
0.0
230
1.0
 70
    11
 71
     3
 72
    36
 73
    32
 74
     0
 42
0.0000000001
 43
0.0000000001
 12
1.0
 22
0.0
 32
0.0
 13
1.0
 23
0.0
 33
0.0
 40
0.0
 40
0.0
 40
0.0
 40
0.0
 40
0.1111111111111111
 40
0.1111111111111111
 40
0.1111111111111111
 40
0.1111111111111111
 40
0.2222222222222222
 40
0.2222222222222222
 40
0.2222222222222222
 40
0.2222222222222222
 40
0.3333333333333333
 40
0.3333333333333333
 40
0.3333333333333333
 40
0.3333333333333333
 40
0.4444444444444444
 40
0.4444444444444444
 40
0.4444444444444444
 40
0.4444444444444444
 40
0.5555555555555556
 40
0.5555555555555556
 40
0.5555555555555556
 40
0.5555555555555556
 40
0.6666666666666666
 40
0.6666666666666666
 40
0.6666666666666666
 40
0.6666666666666666
 40
0.7777777777777778
 40
0.7777777777777778
 40
0.7777777777777778
 40
0.7777777777777778
 40
1.0
 40
1.0
 40
1.0
 40
1.0
 10
120.9496
 20
-23.1082
 30
0.0
 10
123.2988
 20
-23.4971
 30
0.0
 10
124.7218
 20
-24.4198
 30
0.0
 10
126.3577
 20
-25.9962
 30
0.0
 10
126.3577
 20
-25.9962
 30
0.0
 10
126.178
 20
-19.5611
 30
0.0
 10
129.0772
 20
-14.5679
 30
0.0
 10
133.2108
 20
-12.0188
 30
0.0
 10
133.2108
 20
-12.0188
 30
0.0
 10
131.8893
 20
-12.0462
 30
0.0
 10
130.8694
 20
-10.976
 30
0.0
 10
131.6299
 20
-7.7747
 30
0.0
 10
131.6299
 20
-7.7747
 30
0.0
 10
130.9516
 20
-9.1579
 30
0.0
 10
129.837
 20
-10.3384
 30
0.0
 10
127.966
 20
-9.8501
 30
0.0
 10
127.966
 20
-9.8501
 30
0.0
 10
128.4938
 20
-3.6086
 30
0.0
 10
118.6208
 20
-6.1731
 30
0.0
 10
116.7258
 20
-8.3582
 30
0.0
 10
116.7258
 20
-8.3582
 30
0.0
 10
125.6222
 20
-8.5394
 30
0.0
 10
125.3506
 20
-17.3634
 30
0.0
 10
118.7414
 20
-19.8194
 30
0.0
 10
118.7414
 20
-19.8194
 30
0.0
 10
120.8697
 20
-19.7208
 30
0.0
 10
122.4821
 20
-20.0798
 30
0.0
 10
123.0491
 20
-21.0938
 30
0.0
 10
123.0491
 20
-21.0938
 30
0.0
 10
122.4334
 20
-21.9847
 30
0.0
 10
122.0127
 20
-22.63
 30
0.0
 10
120.9496
 20
-23.1082
 30
0.0
  0
SPLINE
  5
AA
330
1F
100
AcDbEntity
  8
layer 1
 62
     7
100
AcDbSpline
210
0.0
220
0.0
230
1.0
 70
    11
 71
     3
 72
    28
 73
    24
 74
     0
 42
0.0000000001
 43
0.0000000001
 12
1.0
 22
0.0
 32
0.0
 13
1.0
 23
0.0
 33
0.0
 40
0.0
 40
0.0
 40
0.0
 40
0.0
 40
0.1428571428571428
 40
0.1428571428571428
 40
0.1428571428571428
 40
0.1428571428571428
 40
0.2857142857142857
 40
0.2857142857142857
 40
0.2857142857142857
 40
0.2857142857142857
 40
0.4285714285714285
 40
0.4285714285714285
 40
0.4285714285714285
 40
0.4285714285714285
 40
0.5714285714285714
 40
0.5714285714285714
 40
0.5714285714285714
 40
0.5714285714285714
 40
0.7142857142857143
 40
0.7142857142857143
 40
0.7142857142857143
 40
0.7142857142857143
 40
1.0
 40
1.0
 40
1.0
 40
1.0
 10
142.1911
 20
-10.0757
 30
0.0
 10
140.4648
 20
-9.7106
 30
0.0
 10
137.1731
 20
-10.1744
 30
0.0
 10
135.7339
 20
-11.3247
 30
0.0
 10
135.7339
 20
-11.3247
 30
0.0
 10
136.3481
 20
-8.1843
 30
0.0
 10
134.7759
 20
-5.7308
 30
0.0
 10
132.7804
 20
-5.211
 30
0.0
 10
132.7804
 20
-5.211
 30
0.0
 10
134.2334
 20
-5.1026
 30
0.0
 10
135.5006
 20
-4.4774
 30
0.0
 10
136.2316
 20
-3.1069
 30
0.0
 10
136.2316
 20
-3.1069
 30
0.0
 10
137.1051
 20
-3.9135
 30
0.0
 10
139.4981
 20
-4.7306
 30
0.0
 10
141.9077
 20
-2.4595
 30
0.0
 10
141.9077
 20
-2.4595
 30
0.0
 10
140.9493
 20
-4.0172
 30
0.0
 10
140.9328
 20
-8.0234
 30
0.0
 10
142.1911
 20
-10.0758
 30
0.0
 10
142.1911
 20
-10.0758
 30
0.0
 10
142.1911
 20
-10.0758
 30
0.0
 10
142.1911
 20
-10.0757
 30
0.0
 10
142.1911
 20
-10.0757
 30
0.0
  0
SPLINE
  5
AB
330
1F
100
AcDbEntity
  8
layer 1
 62
     7
100
AcDbSpline
210
0.0
220
0.0
230
1.0
 70
    11
 71
     3
 72
    28
 73
    24
 74
     0
 42
0.0000000001
 43
0.0000000001
 12
1.0
 22
0.0
 32
0.0
 13
1.0
 23
0.0
 33
0.0
 40
0.0
 40
0.0
 40
0.0
 40
0.0
 40
0.1428571428571428
 40
0.1428571428571428
 40
0.1428571428571428
 40
0.1428571428571428
 40
0.2857142857142857
 40
0.2857142857142857
 40
0.2857142857142857
 40
0.2857142857142857
 40
0.4285714285714285
 40
0.4285714285714285
 40
0.4285714285714285
 40
0.4285714285714285
 40
0.5714285714285714
 40
0.5714285714285714
 40
0.5714285714285714
 40
0.5714285714285714
 40
0.7142857142857143
 40
0.7142857142857143
 40
0.7142857142857143
 40
0.7142857142857143
 40
1.0
 40
1.0
 40
1.0
 40
1.0
 10
135.3636
 20
-1.7316
 30
0.0
 10
133.4827
 20
-3.0613
 30
0.0
 10
130.2419
 20
-0.4274
 30
0.0
 10
126.0037
 20
-1.3987
 30
0.0
 10
126.0037
 20
-1.3987
 30
0.0
 10
128.4602
 20
1.5351
 30
0.0
 10
130.2934
 20
4.5921
 30
0.0
 10
130.7845
 20
8.3523
 30
0.0
 10
130.7845
 20
8.3523
 30
0.0
 10
130.8665
 20
9.5643
 30
0.0
 10
132.0639
 20
9.9295
 30
0.0
 10
133.0984
 20
9.4649
 30
0.0
 10
133.0984
 20
9.4649
 30
0.0
 10
137.0198
 20
8.1186
 30
0.0
 10
140.3536
 20
3.2508
 30
0.0
 10
139.3737
 20
1.1197
 30
0.0
 10
139.3737
 20
1.1197
 30
0.0
 10
138.5937
 20
2.2963
 30
0.0
 10
134.4948
 20
2.0335
 30
0.0
 10
135.3635
 20
-1.7317
 30
0.0
 10
135.3635
 20
-1.7317
 30
0.0
 10
135.3635
 20
-1.7317
 30
0.0
 10
135.3636
 20
-1.7316
 30
0.0
 10
135.3636
 20
-1.7316
 30
0.0
  0
SPLINE
  5
AC
330
1F
100
AcDbEntity
  8
layer 1
 62
     7
100
AcDbSpline
210
0.0
220
0.0
230
1.0
 70
    11
 71
     3
 72
    32
 73
    28
 74
     0
 42
0.0000000001
 43
0.0000000001
 12
1.0
 22
0.0
 32
0.0
 13
1.0
 23
0.0
 33
0.0
 40
0.0
 40
0.0
 40
0.0
 40
0.0
 40
0.125
 40
0.125
 40
0.125
 40
0.125
 40
0.25
 40
0.25
 40
0.25
 40
0.25
 40
0.375
 40
0.375
 40
0.375
 40
0.375
 40
0.5
 40
0.5
 40
0.5
 40
0.5
 40
0.625
 40
0.625
 40
0.625
 40
0.625
 40
0.75
 40
0.75
 40
0.75
 40
0.75
 40
1.0
 40
1.0
 40
1.0
 40
1.0
 10
123.1646
 20
-43.7316
 30
0.0
 10
125.845
 20
-40.5255
 30
0.0
 10
129.9774
 20
-39.8835
 30
0.0
 10
135.3144
 20
-40.0786
 30
0.0
 10
135.3144
 20
-40.0786
 30
0.0
 10
130.4525
 20
-37.0468
 30
0.0
 10
127.3761
 20
-33.1036
 30
0.0
 10
126.4894
 20
-27.4064
 30
0.0
 10
126.4894
 20
-27.4064
 30
0.0
 10
124.9077
 20
-28.3948
 30
0.0
 10
122.8742
 20
-28.7884
 30
0.0
 10
121.0929
 20
-28.2653
 30
0.0
 10
121.0929
 20
-28.2653
 30
0.0
 10
125.1706
 20
-32.5351
 30
0.0
 10
123.0312
 20
-34.4302
 30
0.0
 10
120.7939
 20
-33.2419
 30
0.0
 10
120.7939
 20
-33.2419
 30
0.0
 10
121.939
 20
-36.1434
 30
0.0
 10
120.2811
 20
-37.7006
 30
0.0
 10
119.8851
 20
-38.4506
 30
0.0
 10
119.8851
 20
-38.4506
 30
0.0
 10
122.3355
 20
-38.3659
 30
0.0
 10
123.9095
 20
-41.6208
 30
0.0
 10
123.1647
 20
-43.7314
 30
0.0
 10
123.1647
 20
-43.7314
 30
0.0
 10
123.1647
 20
-43.7314
 30
0.0
 10
123.1646
 20
-43.7316
 30
0.0
 10
123.1646
 20
-43.7316
 30
0.0
  0
SPLINE
  5
AD
330
1F
100
AcDbEntity
  8
layer 1
 62
     7
100
AcDbSpline
210
0.0
220
0.0
230
1.0
 70
    11
 71
     3
 72
    52
 73
    48
 74
     0
 42
0.0000000001
 43
0.0000000001
 12
1.0
 22
0.0
 32
0.0
 13
1.0
 23
0.0
 33
0.0
 40
0.0
 40
0.0
 40
0.0
 40
0.0
 40
0.0769230769230769
 40
0.0769230769230769
 40
0.0769230769230769
 40
0.0769230769230769
 40
0.1538461538461539
 40
0.1538461538461539
 40
0.1538461538461539
 40
0.1538461538461539
 40
0.2307692307692308
 40
0.2307692307692308
 40
0.2307692307692308
 40
0.2307692307692308
 40
0.3076923076923077
 40
0.3076923076923077
 40
0.3076923076923077
 40
0.3076923076923077
 40
0.3846153846153846
 40
0.3846153846153846
 40
0.3846153846153846
 40
0.3846153846153846
 40
0.4615384615384616
 40
0.4615384615384616
 40
0.4615384615384616
 40
0.4615384615384616
 40
0.5384615384615384
 40
0.5384615384615384
 40
0.5384615384615384
 40
0.5384615384615384
 40
0.6153846153846154
 40
0.6153846153846154
 40
0.6153846153846154
 40
0.6153846153846154
 40
0.6923076923076923
 40
0.6923076923076923
 40
0.6923076923076923
 40
0.6923076923076923
 40
0.7692307692307693
 40
0.7692307692307693
 40
0.7692307692307693
 40
0.7692307692307693
 40
0.8461538461538461
 40
0.8461538461538461
 40
0.8461538461538461
 40
0.8461538461538461
 40
1.0
 40
1.0
 40
1.0
 40
1.0
 10
111.4927
 20
-39.5256
 30
0.0
 10
113.6808
 20
-43.3398
 30
0.0
 10
116.349
 20
-45.274
 30
0.0
 10
119.8286
 20
-43.6128
 30
0.0
 10
119.8286
 20
-43.6128
 30
0.0
 10
120.5161
 20
-43.2317
 30
0.0
 10
120.2863
 20
-42.252
 30
0.0
 10
119.6468
 20
-42.5673
 30
0.0
 10
119.6468
 20
-42.5673
 30
0.0
 10
115.8279
 20
-44.3803
 30
0.0
 10
116.6595
 20
-40.569
 30
0.0
 10
116.8855
 20
-39.1835
 30
0.0
 10
116.8855
 20
-39.1835
 30
0.0
 10
117.0655
 20
-38.1088
 30
0.0
 10
117.3202
 20
-36.7846
 30
0.0
 10
116.4661
 20
-35.3808
 30
0.0
 10
116.4661
 20
-35.3808
 30
0.0
 10
116.2263
 20
-34.6716
 30
0.0
 10
115.6806
 20
-34.4448
 30
0.0
 10
115.1653
 20
-34.654
 30
0.0
 10
115.1653
 20
-34.654
 30
0.0
 10
114.2166
 20
-35.039
 30
0.0
 10
113.7079
 20
-35.9631
 30
0.0
 10
113.3167
 20
-35.4079
 30
0.0
 10
113.3167
 20
-35.4079
 30
0.0
 10
113.2787
 20
-34.7965
 30
0.0
 10
113.5662
 20
-30.2086
 30
0.0
 10
113.2485
 20
-29.846
 30
0.0
 10
113.2485
 20
-29.846
 30
0.0
 10
112.9857
 20
-29.6662
 30
0.0
 10
112.8174
 20
-29.9034
 30
0.0
 10
112.7433
 20
-30.0733
 30
0.0
 10
112.7433
 20
-30.0733
 30
0.0
 10
111.9772
 20
-31.8277
 30
0.0
 10
111.6384
 20
-31.6864
 30
0.0
 10
110.7532
 20
-31.512
 30
0.0
 10
110.7532
 20
-31.512
 30
0.0
 10
110.1143
 20
-31.1441
 30
0.0
 10
110.2475
 20
-32.0929
 30
0.0
 10
110.1058
 20
-32.6675
 30
0.0
 10
110.1058
 20
-32.6675
 30
0.0
 10
110.0527
 20
-35.1326
 30
0.0
 10
110.3831
 20
-37.5077
 30
0.0
 10
111.4926
 20
-39.5256
 30
0.0
 10
111.4926
 20
-39.5256
 30
0.0
 10
111.4926
 20
-39.5256
 30
0.0
 10
111.4927
 20
-39.5256
 30
0.0
 10
111.4927
 20
-39.5256
 30
0.0
  0
SPLINE
  5
AE
330
1F
100
AcDbEntity
  8
layer 1
 62
     7
100
AcDbSpline
210
0.0
220
0.0
230
1.0
 70
    11
 71
     3
 72
    24
 73
    20
 74
     0
 42
0.0000000001
 43
0.0000000001
 12
1.0
 22
0.0
 32
0.0
 13
1.0
 23
0.0
 33
0.0
 40
0.0
 40
0.0
 40
0.0
 40
0.0
 40
0.1666666666666667
 40
0.1666666666666667
 40
0.1666666666666667
 40
0.1666666666666667
 40
0.3333333333333333
 40
0.3333333333333333
 40
0.3333333333333333
 40
0.3333333333333333
 40
0.5
 40
0.5
 40
0.5
 40
0.5
 40
0.6666666666666666
 40
0.6666666666666666
 40
0.6666666666666666
 40
0.6666666666666666
 40
1.0
 40
1.0
 40
1.0
 40
1.0
 10
149.0069
 20
-65.7053
 30
0.0
 10
149.0069
 20
-65.7053
 30
0.0
 10
132.9936
 20
-65.7053
 30
0.0
 10
132.9936
 20
-65.7053
 30
0.0
 10
132.9936
 20
-65.7053
 30
0.0
 10
136.6749
 20
-64.4678
 30
0.0
 10
138.2502
 20
-63.5214
 30
0.0
 10
141.1965
 20
-61.4826
 30
0.0
 10
141.1965
 20
-61.4826
 30
0.0
 10
144.1073
 20
-59.4684
 30
0.0
 10
149.0168
 20
-57.5767
 30
0.0
 10
150.7164
 20
-61.4713
 30
0.0
 10
150.7164
 20
-61.4713
 30
0.0
 10
149.0538
 20
-59.9769
 30
0.0
 10
147.0708
 20
-60.916
 30
0.0
 10
146.7068
 20
-62.1343
 30
0.0
 10
146.7068
 20
-62.1343
 30
0.0
 10
146.344
 20
-63.3486
 30
0.0
 10
146.7141
 20
-65.0002
 30
0.0
 10
149.0069
 20
-65.7053
 30
0.0
  0
SPLINE
  5
AF
330
1F
100
AcDbEntity
  8
layer 1
 62
     7
100
AcDbSpline
210
0.0
220
0.0
230
1.0
 70
    11
 71
     3
 72
    40
 73
    36
 74
     0
 42
0.0000000001
 43
0.0000000001
 12
1.0
 22
0.0
 32
0.0
 13
1.0
 23
0.0
 33
0.0
 40
0.0
 40
0.0
 40
0.0
 40
0.0
 40
0.1
 40
0.1
 40
0.1
 40
0.1
 40
0.2
 40
0.2
 40
0.2
 40
0.2
 40
0.3
 40
0.3
 40
0.3
 40
0.3
 40
0.4
 40
0.4
 40
0.4
 40
0.4
 40
0.5
 40
0.5
 40
0.5
 40
0.5
 40
0.6
 40
0.6
 40
0.6
 40
0.6
 40
0.7
 40
0.7
 40
0.7
 40
0.7
 40
0.8
 40
0.8
 40
0.8
 40
0.8
 40
1.0
 40
1.0
 40
1.0
 40
1.0
 10
127.3164
 20
-65.7053
 30
0.0
 10
127.3164
 20
-65.7053
 30
0.0
 10
107.5602
 20
-65.7053
 30
0.0
 10
107.5602
 20
-65.7053
 30
0.0
 10
107.5602
 20
-65.7053
 30
0.0
 10
108.0844
 20
-64.2301
 30
0.0
 10
110.61
 20
-63.7338
 30
0.0
 10
110.3941
 20
-61.8939
 30
0.0
 10
110.3941
 20
-61.8939
 30
0.0
 10
110.3848
 20
-60.9384
 30
0.0
 10
110.6855
 20
-60.211
 30
0.0
 10
111.483
 20
-60.4662
 30
0.0
 10
111.483
 20
-60.4662
 30
0.0
 10
114.0957
 20
-61.9459
 30
0.0
 10
112.3274
 20
-57.4862
 30
0.0
 10
112.2751
 20
-55.3616
 30
0.0
 10
112.2751
 20
-55.3616
 30
0.0
 10
113.318
 20
-56.4523
 30
0.0
 10
117.7252
 20
-61.0507
 30
0.0
 10
116.9059
 20
-64.7867
 30
0.0
 10
116.9059
 20
-64.7867
 30
0.0
 10
117.8448
 20
-65.7069
 30
0.0
 10
119.1887
 20
-65.1074
 30
0.0
 10
120.0872
 20
-63.4265
 30
0.0
 10
120.0872
 20
-63.4265
 30
0.0
 10
120.366
 20
-62.8186
 30
0.0
 10
121.0733
 20
-62.8783
 30
0.0
 10
121.5598
 20
-63.1736
 30
0.0
 10
121.5598
 20
-63.1736
 30
0.0
 10
123.9047
 20
-64.6092
 30
0.0
 10
125.9084
 20
-65.1862
 30
0.0
 10
127.3163
 20
-65.7052
 30
0.0
 10
127.3163
 20
-65.7052
 30
0.0
 10
127.3163
 20
-65.7052
 30
0.0
 10
127.3164
 20
-65.7053
 30
0.0
 10
127.3164
 20
-65.7053
 30
0.0
  0
SPLINE
  5
B0
330
1F
100
AcDbEntity
  8
layer 1
 62
     7
100
AcDbSpline
210
0.0
220
0.0
230
1.0
 70
    11
 71
     3
 72
    24
 73
    20
 74
     0
 42
0.0000000001
 43
0.0000000001
 12
1.0
 22
0.0
 32
0.0
 13
1.0
 23
0.0
 33
0.0
 40
0.0
 40
0.0
 40
0.0
 40
0.0
 40
0.1666666666666667
 40
0.1666666666666667
 40
0.1666666666666667
 40
0.1666666666666667
 40
0.3333333333333333
 40
0.3333333333333333
 40
0.3333333333333333
 40
0.3333333333333333
 40
0.5
 40
0.5
 40
0.5
 40
0.5
 40
0.6666666666666666
 40
0.6666666666666666
 40
0.6666666666666666
 40
0.6666666666666666
 40
1.0
 40
1.0
 40
1.0
 40
1.0
 10
167.0619
 20
-65.7053
 30
0.0
 10
167.0619
 20
-65.7053
 30
0.0
 10
152.0306
 20
-65.7053
 30
0.0
 10
152.0306
 20
-65.7053
 30
0.0
 10
152.0306
 20
-65.7053
 30
0.0
 10
153.7382
 20
-65.3031
 30
0.0
 10
154.2158
 20
-62.6762
 30
0.0
 10
153.0567
 20
-60.0226
 30
0.0
 10
153.0567
 20
-60.0226
 30
0.0
 10
154.2615
 20
-61.9663
 30
0.0
 10
158.248
 20
-62.8388
 30
0.0
 10
159.9893
 20
-60.4622
 30
0.0
 10
159.9893
 20
-60.4622
 30
0.0
 10
161.8738
 20
-63.8844
 30
0.0
 10
164.6037
 20
-65.3874
 30
0.0
 10
167.0618
 20
-65.7053
 30
0.0
 10
167.0618
 20
-65.7053
 30
0.0
 10
167.0618
 20
-65.7053
 30
0.0
 10
167.0619
 20
-65.7053
 30
0.0
 10
167.0619
 20
-65.7053
 30
0.0
  0
SPLINE
  5
B1
330
1F
100
AcDbEntity
  8
layer 1
 62
     7
100
AcDbSpline
210
0.0
220
0.0
230
1.0
 70
    11
 71
     3
 72
    16
 73
    12
 74
     0
 42
0.0000000001
 43
0.0000000001
 12
1.0
 22
0.0
 32
0.0
 13
1.0
 23
0.0
 33
0.0
 40
0.0
 40
0.0
 40
0.0
 40
0.0
 40
0.25
 40
0.25
 40
0.25
 40
0.25
 40
0.5
 40
0.5
 40
0.5
 40
0.5
 40
1.0
 40
1.0
 40
1.0
 40
1.0
 10
185.7519
 20
-65.7053
 30
0.0
 10
185.7519
 20
-65.7053
 30
0.0
 10
172.0672
 20
-65.7053
 30
0.0
 10
172.0672
 20
-65.7053
 30
0.0
 10
172.0672
 20
-65.7053
 30
0.0
 10
176.0053
 20
-64.8942
 30
0.0
 10
180.3667
 20
-62.0492
 30
0.0
 10
182.1459
 20
-57.5051
 30
0.0
 10
182.1459
 20
-57.5051
 30
0.0
 10
183.1049
 20
-61.414
 30
0.0
 10
184.6982
 20
-64.2322
 30
0.0
 10
185.7519
 20
-65.7053
 30
0.0
  0
SPLINE
  5
B2
330
1F
100
AcDbEntity
  8
layer 1
 62
     7
100
AcDbSpline
210
0.0
220
0.0
230
1.0
 70
    11
 71
     3
 72
    16
 73
    12
 74
     0
 42
0.0000000001
 43
0.0000000001
 12
1.0
 22
0.0
 32
0.0
 13
1.0
 23
0.0
 33
0.0
 40
0.0
 40
0.0
 40
0.0
 40
0.0
 40
0.25
 40
0.25
 40
0.25
 40
0.25
 40
0.5
 40
0.5
 40
0.5
 40
0.5
 40
1.0
 40
1.0
 40
1.0
 40
1.0
 10
152.9819
 20
-41.6563
 30
0.0
 10
149.4931
 20
-46.1203
 30
0.0
 10
146.8226
 20
-49.357
 30
0.0
 10
145.7068
 20
-53.3301
 30
0.0
 10
145.7068
 20
-53.3301
 30
0.0
 10
145.9628
 20
-49.3551
 30
0.0
 10
144.4601
 20
-45.7737
 30
0.0
 10
140.4296
 20
-42.0479
 30
0.0
 10
140.4296
 20
-42.0479
 30
0.0
 10
144.8253
 20
-43.4748
 30
0.0
 10
149.1461
 20
-43.1018
 30
0.0
 10
152.9819
 20
-41.6563
 30
0.0
  0
SPLINE
  5
B3
330
1F
100
AcDbEntity
  8
layer 1
 62
     7
100
AcDbSpline
210
0.0
220
0.0
230
1.0
 70
    11
 71
     3
 72
    24
 73
    20
 74
     0
 42
0.0000000001
 43
0.0000000001
 12
1.0
 22
0.0
 32
0.0
 13
1.0
 23
0.0
 33
0.0
 40
0.0
 40
0.0
 40
0.0
 40
0.0
 40
0.1666666666666667
 40
0.1666666666666667
 40
0.1666666666666667
 40
0.1666666666666667
 40
0.3333333333333333
 40
0.3333333333333333
 40
0.3333333333333333
 40
0.3333333333333333
 40
0.5
 40
0.5
 40
0.5
 40
0.5
 40
0.6666666666666666
 40
0.6666666666666666
 40
0.6666666666666666
 40
0.6666666666666666
 40
1.0
 40
1.0
 40
1.0
 40
1.0
 10
170.4838
 20
-38.0085
 30
0.0
 10
165.1289
 20
-37.3485
 30
0.0
 10
163.3134
 20
-37.6214
 30
0.0
 10
159.3547
 20
-39.1362
 30
0.0
 10
159.3547
 20
-39.1362
 30
0.0
 10
158.5439
 20
-39.4464
 30
0.0
 10
158.051
 20
-38.9956
 30
0.0
 10
158.8624
 20
-38.5059
 30
0.0
 10
158.8624
 20
-38.5059
 30
0.0
 10
163.2707
 20
-35.9668
 30
0.0
 10
163.9024
 20
-31.5316
 30
0.0
 10
165.9258
 20
-30.4058
 30
0.0
 10
165.9258
 20
-30.4058
 30
0.0
 10
166.7125
 20
-35.4029
 30
0.0
 10
169.1318
 20
-35.7284
 30
0.0
 10
170.4839
 20
-38.0085
 30
0.0
 10
170.4839
 20
-38.0085
 30
0.0
 10
170.4839
 20
-38.0085
 30
0.0
 10
170.4838
 20
-38.0085
 30
0.0
 10
170.4838
 20
-38.0085
 30
0.0
  0
SPLINE
  5
B4
330
1F
100
AcDbEntity
  8
layer 1
 62
     7
100
AcDbSpline
210
0.0
220
0.0
230
1.0
 70
    11
 71
     3
 72
    16
 73
    12
 74
     0
 42
0.0000000001
 43
0.0000000001
 12
1.0
 22
0.0
 32
0.0
 13
1.0
 23
0.0
 33
0.0
 40
0.0
 40
0.0
 40
0.0
 40
0.0
 40
0.25
 40
0.25
 40
0.25
 40
0.25
 40
0.5
 40
0.5
 40
0.5
 40
0.5
 40
1.0
 40
1.0
 40
1.0
 40
1.0
 10
190.1202
 20
-32.0969
 30
0.0
 10
190.1202
 20
-32.0969
 30
0.0
 10
190.1202
 20
-21.6927
 30
0.0
 10
190.1202
 20
-21.6927
 30
0.0
 10
190.1202
 20
-21.6927
 30
0.0
 10
187.8276
 20
-21.4508
 30
0.0
 10
185.353
 20
-23.7486
 30
0.0
 10
183.0841
 20
-26.6389
 30
0.0
 10
183.0841
 20
-26.6389
 30
0.0
 10
187.2576
 20
-26.6455
 30
0.0
 10
189.1234
 20
-27.9743
 30
0.0
 10
190.1202
 20
-32.0969
 30
0.0
  0
SPLINE
  5
B5
330
1F
100
AcDbEntity
  8
layer 1
 62
     7
100
AcDbSpline
210
0.0
220
0.0
230
1.0
 70
    11
 71
     3
 72
    28
 73
    24
 74
     0
 42
0.0000000001
 43
0.0000000001
 12
1.0
 22
0.0
 32
0.0
 13
1.0
 23
0.0
 33
0.0
 40
0.0
 40
0.0
 40
0.0
 40
0.0
 40
0.1428571428571428
 40
0.1428571428571428
 40
0.1428571428571428
 40
0.1428571428571428
 40
0.2857142857142857
 40
0.2857142857142857
 40
0.2857142857142857
 40
0.2857142857142857
 40
0.4285714285714285
 40
0.4285714285714285
 40
0.4285714285714285
 40
0.4285714285714285
 40
0.5714285714285714
 40
0.5714285714285714
 40
0.5714285714285714
 40
0.5714285714285714
 40
0.7142857142857143
 40
0.7142857142857143
 40
0.7142857142857143
 40
0.7142857142857143
 40
1.0
 40
1.0
 40
1.0
 40
1.0
 10
190.1202
 20
-48.6584
 30
0.0
 10
190.1202
 20
-48.6584
 30
0.0
 10
190.1202
 20
-33.4392
 30
0.0
 10
190.1202
 20
-33.4392
 30
0.0
 10
190.1202
 20
-33.4392
 30
0.0
 10
189.1504
 20
-37.8536
 30
0.0
 10
186.4113
 20
-38.8815
 30
0.0
 10
184.7773
 20
-38.8087
 30
0.0
 10
184.7773
 20
-38.8087
 30
0.0
 10
186.4929
 20
-32.936
 30
0.0
 10
182.0959
 20
-30.5715
 30
0.0
 10
176.3964
 20
-27.1992
 30
0.0
 10
176.3964
 20
-27.1992
 30
0.0
 10
178.9669
 20
-32.2945
 30
0.0
 10
175.386
 20
-36.3948
 30
0.0
 10
172.7981
 20
-38.0263
 30
0.0
 10
172.7981
 20
-38.0263
 30
0.0
 10
179.6369
 20
-38.3986
 30
0.0
 10
186.9273
 20
-40.358
 30
0.0
 10
190.1202
 20
-48.6583
 30
0.0
 10
190.1202
 20
-48.6583
 30
0.0
 10
190.1202
 20
-48.6583
 30
0.0
 10
190.1202
 20
-48.6584
 30
0.0
 10
190.1202
 20
-48.6584
 30
0.0
  0
SPLINE
  5
B6
330
1F
100
AcDbEntity
  8
layer 1
 62
     7
100
AcDbSpline
210
0.0
220
0.0
230
1.0
 70
    11
 71
     3
 72
    44
 73
    40
 74
     0
 42
0.0000000001
 43
0.0000000001
 12
1.0
 22
0.0
 32
0.0
 13
1.0
 23
0.0
 33
0.0
 40
0.0
 40
0.0
 40
0.0
 40
0.0
 40
0.0909090909090909
 40
0.0909090909090909
 40
0.0909090909090909
 40
0.0909090909090909
 40
0.1818181818181818
 40
0.1818181818181818
 40
0.1818181818181818
 40
0.1818181818181818
 40
0.2727272727272727
 40
0.2727272727272727
 40
0.2727272727272727
 40
0.2727272727272727
 40
0.3636363636363636
 40
0.3636363636363636
 40
0.3636363636363636
 40
0.3636363636363636
 40
0.4545454545454545
 40
0.4545454545454545
 40
0.4545454545454545
 40
0.4545454545454545
 40
0.5454545454545454
 40
0.5454545454545454
 40
0.5454545454545454
 40
0.5454545454545454
 40
0.6363636363636364
 40
0.6363636363636364
 40
0.6363636363636364
 40
0.6363636363636364
 40
0.7272727272727273
 40
0.7272727272727273
 40
0.7272727272727273
 40
0.7272727272727273
 40
0.8181818181818182
 40
0.8181818181818182
 40
0.8181818181818182
 40
0.8181818181818182
 40
1.0
 40
1.0
 40
1.0
 40
1.0
 10
190.1202
 20
-20.033
 30
0.0
 10
190.1202
 20
-20.033
 30
0.0
 10
190.1202
 20
6.1391
 30
0.0
 10
190.1202
 20
6.1391
 30
0.0
 10
190.1202
 20
6.1391
 30
0.0
 10
189.0784
 20
6.1403
 30
0.0
 10
187.1825
 20
5.5107
 30
0.0
 10
188.5687
 20
3.6063
 30
0.0
 10
188.5687
 20
3.6063
 30
0.0
 10
187.9368
 20
2.9493
 30
0.0
 10
187.2165
 20
2.0328
 30
0.0
 10
184.5848
 20
1.4246
 30
0.0
 10
184.5848
 20
1.4246
 30
0.0
 10
185.8271
 20
1.0283
 30
0.0
 10
186.8591
 20
-0.6375
 30
0.0
 10
187.0337
 20
-1.9706
 30
0.0
 10
187.0337
 20
-1.9706
 30
0.0
 10
186.5325
 20
-2.6343
 30
0.0
 10
182.9347
 20
-2.7489
 30
0.0
 10
181.1805
 20
-2.4645
 30
0.0
 10
181.1805
 20
-2.4645
 30
0.0
 10
182.2664
 20
-4.9088
 30
0.0
 10
181.9666
 20
-6.7186
 30
0.0
 10
181.1045
 20
-7.9368
 30
0.0
 10
181.1045
 20
-7.9368
 30
0.0
 10
180.0826
 20
-7.0821
 30
0.0
 10
179.1656
 20
-6.4695
 30
0.0
 10
178.251
 20
-6.3344
 30
0.0
 10
178.251
 20
-6.3344
 30
0.0
 10
181.4676
 20
-11.1721
 30
0.0
 10
178.0785
 20
-15.6154
 30
0.0
 10
175.9412
 20
-17.5381
 30
0.0
 10
175.9412
 20
-17.5381
 30
0.0
 10
180.4321
 20
-15.2166
 30
0.0
 10
183.1974
 20
-17.8682
 30
0.0
 10
190.1204
 20
-20.033
 30
0.0
 10
190.1204
 20
-20.033
 30
0.0
 10
190.1204
 20
-20.033
 30
0.0
 10
190.1202
 20
-20.033
 30
0.0
 10
190.1202
 20
-20.033
 30
0.0
  0
SPLINE
  5
B7
330
1F
100
AcDbEntity
  8
layer 1
 62
     7
100
AcDbSpline
210
0.0
220
0.0
230
1.0
 70
    11
 71
     3
 72
    24
 73
    20
 74
     0
 42
0.0000000001
 43
0.0000000001
 12
1.0
 22
0.0
 32
0.0
 13
1.0
 23
0.0
 33
0.0
 40
0.0
 40
0.0
 40
0.0
 40
0.0
 40
0.1666666666666667
 40
0.1666666666666667
 40
0.1666666666666667
 40
0.1666666666666667
 40
0.3333333333333333
 40
0.3333333333333333
 40
0.3333333333333333
 40
0.3333333333333333
 40
0.5
 40
0.5
 40
0.5
 40
0.5
 40
0.6666666666666666
 40
0.6666666666666666
 40
0.6666666666666666
 40
0.6666666666666666
 40
1.0
 40
1.0
 40
1.0
 40
1.0
 10
168.8521
 20
-11.6059
 30
0.0
 10
167.2181
 20
-6.5729
 30
0.0
 10
163.6756
 20
-2.1837
 30
0.0
 10
158.5871
 20
1.9462
 30
0.0
 10
158.5871
 20
1.9462
 30
0.0
 10
162.9635
 20
-0.7697
 30
0.0
 10
168.1975
 20
-0.8941
 30
0.0
 10
170.197
 20
-0.6169
 30
0.0
 10
170.197
 20
-0.6169
 30
0.0
 10
168.1124
 20
-2.888
 30
0.0
 10
172.6283
 20
-3.6747
 30
0.0
 10
173.0047
 20
-6.7173
 30
0.0
 10
173.0047
 20
-6.7173
 30
0.0
 10
174.0189
 20
-6.6924
 30
0.0
 10
174.0891
 20
-6.2944
 30
0.0
 10
174.9192
 20
-5.6829
 30
0.0
 10
174.9192
 20
-5.6829
 30
0.0
 10
176.1962
 20
-8.7024
 30
0.0
 10
170.9727
 20
-9.212
 30
0.0
 10
168.8521
 20
-11.6059
 30
0.0
  0
SPLINE
  5
B8
330
1F
100
AcDbEntity
  8
layer 1
 62
     7
100
AcDbSpline
210
0.0
220
0.0
230
1.0
 70
    11
 71
     3
 72
    20
 73
    16
 74
     0
 42
0.0000000001
 43
0.0000000001
 12
1.0
 22
0.0
 32
0.0
 13
1.0
 23
0.0
 33
0.0
 40
0.0
 40
0.0
 40
0.0
 40
0.0
 40
0.2
 40
0.2
 40
0.2
 40
0.2
 40
0.4
 40
0.4
 40
0.4
 40
0.4
 40
0.6
 40
0.6
 40
0.6
 40
0.6
 40
1.0
 40
1.0
 40
1.0
 40
1.0
 10
165.6431
 20
-12.5903
 30
0.0
 10
163.4855
 20
-9.7533
 30
0.0
 10
162.0049
 20
-11.5983
 30
0.0
 10
158.368
 20
-10.1258
 30
0.0
 10
158.368
 20
-10.1258
 30
0.0
 10
159.6123
 20
-9.3779
 30
0.0
 10
161.5584
 20
-7.3897
 30
0.0
 10
160.4322
 20
-4.0067
 30
0.0
 10
160.4322
 20
-4.0067
 30
0.0
 10
162.1051
 20
-6.5026
 30
0.0
 10
165.2764
 20
-10.0624
 30
0.0
 10
165.6431
 20
-12.5902
 30
0.0
 10
165.6431
 20
-12.5902
 30
0.0
 10
165.6431
 20
-12.5902
 30
0.0
 10
165.6431
 20
-12.5903
 30
0.0
 10
165.6431
 20
-12.5903
 30
0.0
  0
SPLINE
  5
B9
330
1F
100
AcDbEntity
  8
layer 1
 62
     7
100
AcDbSpline
210
0.0
220
0.0
230
1.0
 70
    11
 71
     3
 72
    40
 73
    36
 74
     0
 42
0.0000000001
 43
0.0000000001
 12
1.0
 22
0.0
 32
0.0
 13
1.0
 23
0.0
 33
0.0
 40
0.0
 40
0.0
 40
0.0
 40
0.0
 40
0.1
 40
0.1
 40
0.1
 40
0.1
 40
0.2
 40
0.2
 40
0.2
 40
0.2
 40
0.3
 40
0.3
 40
0.3
 40
0.3
 40
0.4
 40
0.4
 40
0.4
 40
0.4
 40
0.5
 40
0.5
 40
0.5
 40
0.5
 40
0.6
 40
0.6
 40
0.6
 40
0.6
 40
0.7
 40
0.7
 40
0.7
 40
0.7
 40
0.8
 40
0.8
 40
0.8
 40
0.8
 40
1.0
 40
1.0
 40
1.0
 40
1.0
 10
190.1202
 20
-55.7891
 30
0.0
 10
190.1202
 20
-55.7891
 30
0.0
 10
190.1202
 20
-51.8162
 30
0.0
 10
190.1202
 20
-51.8162
 30
0.0
 10
190.1202
 20
-51.8162
 30
0.0
 10
187.7175
 20
-53.2867
 30
0.0
 10
186.4709
 20
-52.2884
 30
0.0
 10
185.575
 20
-50.5965
 30
0.0
 10
185.575
 20
-50.5965
 30
0.0
 10
184.7237
 20
-47.5854
 30
0.0
 10
183.3377
 20
-48.2411
 30
0.0
 10
184.2888
 20
-46.2572
 30
0.0
 10
184.2888
 20
-46.2572
 30
0.0
 10
184.6932
 20
-44.6843
 30
0.0
 10
184.0085
 20
-45.1867
 30
0.0
 10
182.3522
 20
-44.6023
 30
0.0
 10
182.3522
 20
-44.6023
 30
0.0
 10
182.0045
 20
-44.4797
 30
0.0
 10
181.7239
 20
-43.8466
 30
0.0
 10
181.2916
 20
-43.5294
 30
0.0
 10
181.2916
 20
-43.5294
 30
0.0
 10
180.8001
 20
-43.1688
 30
0.0
 10
180.1813
 20
-42.926
 30
0.0
 10
179.5469
 20
-42.7555
 30
0.0
 10
179.5469
 20
-42.7555
 30
0.0
 10
185.1212
 20
-50.5982
 30
0.0
 10
183.0056
 20
-58.8014
 30
0.0
 10
187.3415
 20
-60.1033
 30
0.0
 10
187.3415
 20
-60.1033
 30
0.0
 10
185.0953
 20
-57.6182
 30
0.0
 10
187.1472
 20
-54.4856
 30
0.0
 10
190.1203
 20
-55.7891
 30
0.0
 10
190.1203
 20
-55.7891
 30
0.0
 10
190.1203
 20
-55.7891
 30
0.0
 10
190.1202
 20
-55.7891
 30
0.0
 10
190.1202
 20
-55.7891
 30
0.0
  0
SPLINE
  5
BA
330
1F
100
AcDbEntity
  8
layer 1
 62
     7
100
AcDbSpline
210
0.0
220
0.0
230
1.0
 70
    11
 71
     3
 72
    28
 73
    24
 74
     0
 42
0.0000000001
 43
0.0000000001
 12
1.0
 22
0.0
 32
0.0
 13
1.0
 23
0.0
 33
0.0
 40
0.0
 40
0.0
 40
0.0
 40
0.0
 40
0.1428571428571428
 40
0.1428571428571428
 40
0.1428571428571428
 40
0.1428571428571428
 40
0.2857142857142857
 40
0.2857142857142857
 40
0.2857142857142857
 40
0.2857142857142857
 40
0.4285714285714285
 40
0.4285714285714285
 40
0.4285714285714285
 40
0.4285714285714285
 40
0.5714285714285714
 40
0.5714285714285714
 40
0.5714285714285714
 40
0.5714285714285714
 40
0.7142857142857143
 40
0.7142857142857143
 40
0.7142857142857143
 40
0.7142857142857143
 40
1.0
 40
1.0
 40
1.0
 40
1.0
 10
137.9569
 20
-58.4947
 30
0.0
 10
135.8651
 20
-63.5738
 30
0.0
 10
129.2126
 20
-63.7699
 30
0.0
 10
125.4841
 20
-62.4824
 30
0.0
 10
125.4841
 20
-62.4824
 30
0.0
 10
124.6636
 20
-62.199
 30
0.0
 10
124.6795
 20
-61.7467
 30
0.0
 10
125.4909
 20
-61.2571
 30
0.0
 10
125.4909
 20
-61.2571
 30
0.0
 10
126.3117
 20
-60.7477
 30
0.0
 10
126.034
 20
-60.1278
 30
0.0
 10
126.1297
 20
-59.5247
 30
0.0
 10
126.1297
 20
-59.5247
 30
0.0
 10
126.3065
 20
-58.7777
 30
0.0
 10
127.1716
 20
-59.205
 30
0.0
 10
127.7748
 20
-59.4143
 30
0.0
 10
127.7748
 20
-59.4143
 30
0.0
 10
132.17
 20
-60.7069
 30
0.0
 10
136.0481
 20
-57.5774
 30
0.0
 10
137.9568
 20
-58.4947
 30
0.0
 10
137.9568
 20
-58.4947
 30
0.0
 10
137.9568
 20
-58.4947
 30
0.0
 10
137.9569
 20
-58.4947
 30
0.0
 10
137.9569
 20
-58.4947
 30
0.0
  0
SPLINE
  5
BB
330
1F
100
AcDbEntity
  8
layer 1
 62
     7
100
AcDbSpline
210
0.0
220
0.0
230
1.0
 70
    11
 71
     3
 72
    28
 73
    24
 74
     0
 42
0.0000000001
 43
0.0000000001
 12
1.0
 22
0.0
 32
0.0
 13
1.0
 23
0.0
 33
0.0
 40
0.0
 40
0.0
 40
0.0
 40
0.0
 40
0.1428571428571428
 40
0.1428571428571428
 40
0.1428571428571428
 40
0.1428571428571428
 40
0.2857142857142857
 40
0.2857142857142857
 40
0.2857142857142857
 40
0.2857142857142857
 40
0.4285714285714285
 40
0.4285714285714285
 40
0.4285714285714285
 40
0.4285714285714285
 40
0.5714285714285714
 40
0.5714285714285714
 40
0.5714285714285714
 40
0.5714285714285714
 40
0.7142857142857143
 40
0.7142857142857143
 40
0.7142857142857143
 40
0.7142857142857143
 40
1.0
 40
1.0
 40
1.0
 40
1.0
 10
134.0846
 20
-43.1778
 30
0.0
 10
142.1473
 20
-42.8325
 30
0.0
 10
144.3702
 20
-52.1099
 30
0.0
 10
141.6604
 20
-56.7921
 30
0.0
 10
141.6604
 20
-56.7921
 30
0.0
 10
141.3111
 20
-55.0412
 30
0.0
 10
138.927
 20
-53.5893
 30
0.0
 10
137.2076
 20
-54.6222
 30
0.0
 10
137.2076
 20
-54.6222
 30
0.0
 10
139.7425
 20
-51.6621
 30
0.0
 10
139.4319
 20
-47.4397
 30
0.0
 10
136.7462
 20
-46.4202
 30
0.0
 10
136.7462
 20
-46.4202
 30
0.0
 10
135.7221
 20
-46.232
 30
0.0
 10
135.1983
 20
-46.034
 30
0.0
 10
135.1862
 20
-45.2313
 30
0.0
 10
135.1862
 20
-45.2313
 30
0.0
 10
135.1329
 20
-44.19
 30
0.0
 10
134.7067
 20
-43.5639
 30
0.0
 10
134.0845
 20
-43.1778
 30
0.0
 10
134.0845
 20
-43.1778
 30
0.0
 10
134.0845
 20
-43.1778
 30
0.0
 10
134.0846
 20
-43.1778
 30
0.0
 10
134.0846
 20
-43.1778
 30
0.0
  0
SPLINE
  5
BC
330
1F
100
AcDbEntity
  8
layer 1
 62
     7
100
AcDbSpline
210
0.0
220
0.0
230
1.0
 70
    11
 71
     3
 72
    48
 73
    44
 74
     0
 42
0.0000000001
 43
0.0000000001
 12
1.0
 22
0.0
 32
0.0
 13
1.0
 23
0.0
 33
0.0
 40
0.0
 40
0.0
 40
0.0
 40
0.0
 40
0.0833333333333333
 40
0.0833333333333333
 40
0.0833333333333333
 40
0.0833333333333333
 40
0.1666666666666667
 40
0.1666666666666667
 40
0.1666666666666667
 40
0.1666666666666667
 40
0.25
 40
0.25
 40
0.25
 40
0.25
 40
0.3333333333333333
 40
0.3333333333333333
 40
0.3333333333333333
 40
0.3333333333333333
 40
0.4166666666666667
 40
0.4166666666666667
 40
0.4166666666666667
 40
0.4166666666666667
 40
0.5
 40
0.5
 40
0.5
 40
0.5
 40
0.5833333333333334
 40
0.5833333333333334
 40
0.5833333333333334
 40
0.5833333333333334
 40
0.6666666666666666
 40
0.6666666666666666
 40
0.6666666666666666
 40
0.6666666666666666
 40
0.75
 40
0.75
 40
0.75
 40
0.75
 40
0.8333333333333334
 40
0.8333333333333334
 40
0.8333333333333334
 40
0.8333333333333334
 40
1.0
 40
1.0
 40
1.0
 40
1.0
 10
164.9534
 20
-49.2811
 30
0.0
 10
160.1082
 20
-51.1374
 30
0.0
 10
158.2129
 20
-54.6112
 30
0.0
 10
159.6969
 20
-59.3896
 30
0.0
 10
159.6969
 20
-59.3896
 30
0.0
 10
156.8753
 20
-59.538
 30
0.0
 10
156.5601
 20
-57.8294
 30
0.0
 10
156.2975
 20
-57.1628
 30
0.0
 10
156.2975
 20
-57.1628
 30
0.0
 10
155.9577
 20
-56.3917
 30
0.0
 10
155.5928
 20
-55.0286
 30
0.0
 10
153.8456
 20
-55.3714
 30
0.0
 10
153.8456
 20
-55.3714
 30
0.0
 10
153.1659
 20
-55.5048
 30
0.0
 10
152.4084
 20
-56.026
 30
0.0
 10
152.5178
 20
-54.0471
 30
0.0
 10
152.5178
 20
-54.0471
 30
0.0
 10
152.5887
 20
-52.7608
 30
0.0
 10
152.3601
 20
-52.197
 30
0.0
 10
150.9996
 20
-52.5249
 30
0.0
 10
150.9996
 20
-52.5249
 30
0.0
 10
149.6008
 20
-52.862
 30
0.0
 10
148.149
 20
-53.7839
 30
0.0
 10
148.364
 20
-53.6542
 30
0.0
 10
148.364
 20
-53.6542
 30
0.0
 10
149.9579
 20
-48.8279
 30
0.0
 10
158.4428
 20
-41.185
 30
0.0
 10
165.046
 20
-43.868
 30
0.0
 10
165.046
 20
-43.868
 30
0.0
 10
166.1927
 20
-44.2787
 30
0.0
 10
166.8312
 20
-46.0815
 30
0.0
 10
165.213
 20
-46.6975
 30
0.0
 10
165.213
 20
-46.6975
 30
0.0
 10
164.0074
 20
-47.208
 30
0.0
 10
163.7457
 20
-47.7265
 30
0.0
 10
163.9961
 20
-48.5187
 30
0.0
 10
163.9961
 20
-48.5187
 30
0.0
 10
164.1728
 20
-48.8592
 30
0.0
 10
164.7229
 20
-48.5802
 30
0.0
 10
164.9535
 20
-49.2812
 30
0.0
 10
164.9535
 20
-49.2812
 30
0.0
 10
164.9535
 20
-49.2812
 30
0.0
 10
164.9534
 20
-49.2811
 30
0.0
 10
164.9534
 20
-49.2811
 30
0.0
  0
SPLINE
  5
BD
330
1F
100
AcDbEntity
  8
layer 1
 62
     7
100
AcDbSpline
210
0.0
220
0.0
230
1.0
 70
    11
 71
     3
 72
    48
 73
    44
 74
     0
 42
0.0000000001
 43
0.0000000001
 12
1.0
 22
0.0
 32
0.0
 13
1.0
 23
0.0
 33
0.0
 40
0.0
 40
0.0
 40
0.0
 40
0.0
 40
0.0833333333333333
 40
0.0833333333333333
 40
0.0833333333333333
 40
0.0833333333333333
 40
0.1666666666666667
 40
0.1666666666666667
 40
0.1666666666666667
 40
0.1666666666666667
 40
0.25
 40
0.25
 40
0.25
 40
0.25
 40
0.3333333333333333
 40
0.3333333333333333
 40
0.3333333333333333
 40
0.3333333333333333
 40
0.4166666666666667
 40
0.4166666666666667
 40
0.4166666666666667
 40
0.4166666666666667
 40
0.5
 40
0.5
 40
0.5
 40
0.5
 40
0.5833333333333334
 40
0.5833333333333334
 40
0.5833333333333334
 40
0.5833333333333334
 40
0.6666666666666666
 40
0.6666666666666666
 40
0.6666666666666666
 40
0.6666666666666666
 40
0.75
 40
0.75
 40
0.75
 40
0.75
 40
0.8333333333333334
 40
0.8333333333333334
 40
0.8333333333333334
 40
0.8333333333333334
 40
1.0
 40
1.0
 40
1.0
 40
1.0
 10
164.26
 20
-58.9163
 30
0.0
 10
163.2286
 20
-56.221
 30
0.0
 10
164.7363
 20
-53.6182
 30
0.0
 10
167.4425
 20
-55.0343
 30
0.0
 10
167.4425
 20
-55.0343
 30
0.0
 10
168.8133
 20
-58.6247
 30
0.0
 10
172.2454
 20
-57.6581
 30
0.0
 10
173.5795
 20
-55.316
 30
0.0
 10
173.5795
 20
-55.316
 30
0.0
 10
174.6929
 20
-53.3613
 30
0.0
 10
174.196
 20
-50.3244
 30
0.0
 10
171.2231
 20
-49.3483
 30
0.0
 10
171.2231
 20
-49.3483
 30
0.0
 10
172.2759
 20
-48.8983
 30
0.0
 10
172.4397
 20
-48.3853
 30
0.0
 10
172.2841
 20
-47.5507
 30
0.0
 10
172.2841
 20
-47.5507
 30
0.0
 10
172.1939
 20
-47.0666
 30
0.0
 10
172.2994
 20
-46.1264
 30
0.0
 10
173.3985
 20
-46.2796
 30
0.0
 10
173.3985
 20
-46.2796
 30
0.0
 10
174.1857
 20
-46.3893
 30
0.0
 10
175.088
 20
-46.8794
 30
0.0
 10
175.3879
 20
-46.4093
 30
0.0
 10
175.3879
 20
-46.4093
 30
0.0
 10
175.8132
 20
-45.7425
 30
0.0
 10
174.0173
 20
-43.3672
 30
0.0
 10
173.8688
 20
-43.0304
 30
0.0
 10
173.8688
 20
-43.0304
 30
0.0
 10
173.5186
 20
-42.2361
 30
0.0
 10
173.9852
 20
-42.0077
 30
0.0
 10
174.4738
 20
-42.5074
 30
0.0
 10
174.4738
 20
-42.5074
 30
0.0
 10
177.4339
 20
-45.0658
 30
0.0
 10
182.9585
 20
-51.8568
 30
0.0
 10
176.412
 20
-59.0981
 30
0.0
 10
176.412
 20
-59.0981
 30
0.0
 10
171.1331
 20
-64.0594
 30
0.0
 10
165.611
 20
-61.7062
 30
0.0
 10
164.2601
 20
-58.9162
 30
0.0
 10
164.2601
 20
-58.9162
 30
0.0
 10
164.2601
 20
-58.9162
 30
0.0
 10
164.26
 20
-58.9163
 30
0.0
 10
164.26
 20
-58.9163
 30
0.0
  0
SPLINE
  5
BE
330
1F
100
AcDbEntity
  8
layer 1
 62
     7
100
AcDbSpline
210
0.0
220
0.0
230
1.0
 70
    11
 71
     3
 72
    44
 73
    40
 74
     0
 42
0.0000000001
 43
0.0000000001
 12
1.0
 22
0.0
 32
0.0
 13
1.0
 23
0.0
 33
0.0
 40
0.0
 40
0.0
 40
0.0
 40
0.0
 40
0.0909090909090909
 40
0.0909090909090909
 40
0.0909090909090909
 40
0.0909090909090909
 40
0.1818181818181818
 40
0.1818181818181818
 40
0.1818181818181818
 40
0.1818181818181818
 40
0.2727272727272727
 40
0.2727272727272727
 40
0.2727272727272727
 40
0.2727272727272727
 40
0.3636363636363636
 40
0.3636363636363636
 40
0.3636363636363636
 40
0.3636363636363636
 40
0.4545454545454545
 40
0.4545454545454545
 40
0.4545454545454545
 40
0.4545454545454545
 40
0.5454545454545454
 40
0.5454545454545454
 40
0.5454545454545454
 40
0.5454545454545454
 40
0.6363636363636364
 40
0.6363636363636364
 40
0.6363636363636364
 40
0.6363636363636364
 40
0.7272727272727273
 40
0.7272727272727273
 40
0.7272727272727273
 40
0.7272727272727273
 40
0.8181818181818182
 40
0.8181818181818182
 40
0.8181818181818182
 40
0.8181818181818182
 40
1.0
 40
1.0
 40
1.0
 40
1.0
 10
121.3476
 20
-45.8643
 30
0.0
 10
119.5021
 20
-50.38
 30
0.0
 10
121.0359
 20
-56.067
 30
0.0
 10
124.7277
 20
-58.0675
 30
0.0
 10
124.7277
 20
-58.0675
 30
0.0
 10
123.2755
 20
-57.5314
 30
0.0
 10
122.1253
 20
-56.746
 30
0.0
 10
120.8678
 20
-56.9783
 30
0.0
 10
120.8678
 20
-56.9783
 30
0.0
 10
119.8017
 20
-56.9579
 30
0.0
 10
120.1203
 20
-55.7928
 30
0.0
 10
120.1203
 20
-55.7928
 30
0.0
 10
120.1203
 20
-55.7928
 30
0.0
 10
120.4894
 20
-54.2851
 30
0.0
 10
119.5617
 20
-54.2847
 30
0.0
 10
118.521
 20
-54.5544
 30
0.0
 10
118.521
 20
-54.5544
 30
0.0
 10
117.4592
 20
-54.8438
 30
0.0
 10
116.7216
 20
-54.6929
 30
0.0
 10
116.1162
 20
-54.3842
 30
0.0
 10
116.1162
 20
-54.3842
 30
0.0
 10
113.5911
 20
-53.3624
 30
0.0
 10
111.2032
 20
-51.0242
 30
0.0
 10
109.4903
 20
-46.7737
 30
0.0
 10
109.4903
 20
-46.7737
 30
0.0
 10
112.0183
 20
-47.5641
 30
0.0
 10
113.004
 20
-49.9809
 30
0.0
 10
113.6072
 20
-50.1902
 30
0.0
 10
113.6072
 20
-50.1902
 30
0.0
 10
114.8072
 20
-50.277
 30
0.0
 10
115.279
 20
-47.8711
 30
0.0
 10
114.4144
 20
-46.1658
 30
0.0
 10
114.4144
 20
-46.1658
 30
0.0
 10
116.625
 20
-47.4921
 30
0.0
 10
119.77
 20
-47.0701
 30
0.0
 10
121.3475
 20
-45.8644
 30
0.0
 10
121.3475
 20
-45.8644
 30
0.0
 10
121.3475
 20
-45.8644
 30
0.0
 10
121.3476
 20
-45.8643
 30
0.0
 10
121.3476
 20
-45.8643
 30
0.0
  0
SPLINE
  5
BF
330
1F
100
AcDbEntity
  8
layer 1
 62
     7
100
AcDbSpline
210
0.0
220
0.0
230
1.0
 70
    11
 71
     3
 72
    44
 73
    40
 74
     0
 42
0.0000000001
 43
0.0000000001
 12
1.0
 22
0.0
 32
0.0
 13
1.0
 23
0.0
 33
0.0
 40
0.0
 40
0.0
 40
0.0
 40
0.0
 40
0.0909090909090909
 40
0.0909090909090909
 40
0.0909090909090909
 40
0.0909090909090909
 40
0.1818181818181818
 40
0.1818181818181818
 40
0.1818181818181818
 40
0.1818181818181818
 40
0.2727272727272727
 40
0.2727272727272727
 40
0.2727272727272727
 40
0.2727272727272727
 40
0.3636363636363636
 40
0.3636363636363636
 40
0.3636363636363636
 40
0.3636363636363636
 40
0.4545454545454545
 40
0.4545454545454545
 40
0.4545454545454545
 40
0.4545454545454545
 40
0.5454545454545454
 40
0.5454545454545454
 40
0.5454545454545454
 40
0.5454545454545454
 40
0.6363636363636364
 40
0.6363636363636364
 40
0.6363636363636364
 40
0.6363636363636364
 40
0.7272727272727273
 40
0.7272727272727273
 40
0.7272727272727273
 40
0.7272727272727273
 40
0.8181818181818182
 40
0.8181818181818182
 40
0.8181818181818182
 40
0.8181818181818182
 40
1.0
 40
1.0
 40
1.0
 40
1.0
 10
135.3926
 20
-33.6268
 30
0.0
 10
137.2867
 20
-37.6552
 30
0.0
 10
142.6378
 20
-40.9451
 30
0.0
 10
148.486
 20
-40.3145
 30
0.0
 10
148.486
 20
-40.3145
 30
0.0
 10
143.7814
 20
-38.9342
 30
0.0
 10
143.6931
 20
-36.6029
 30
0.0
 10
146.3845
 20
-36.7641
 30
0.0
 10
146.3845
 20
-36.7641
 30
0.0
 10
145.0387
 20
-35.2361
 30
0.0
 10
143.6343
 20
-31.1475
 30
0.0
 10
145.8634
 20
-31.804
 30
0.0
 10
145.8634
 20
-31.804
 30
0.0
 10
145.9937
 20
-32.6186
 30
0.0
 10
146.7845
 20
-32.5166
 30
0.0
 10
146.9403
 20
-31.8145
 30
0.0
 10
146.9403
 20
-31.8145
 30
0.0
 10
147.1752
 20
-30.7548
 30
0.0
 10
147.6939
 20
-29.9708
 30
0.0
 10
148.7752
 20
-29.7537
 30
0.0
 10
148.7752
 20
-29.7537
 30
0.0
 10
147.1168
 20
-28.7037
 30
0.0
 10
146.6556
 20
-27.3021
 30
0.0
 10
146.2722
 20
-25.457
 30
0.0
 10
146.2722
 20
-25.457
 30
0.0
 10
145.4742
 20
-28.6234
 30
0.0
 10
143.1008
 20
-29.9153
 30
0.0
 10
140.8161
 20
-29.309
 30
0.0
 10
140.8161
 20
-29.309
 30
0.0
 10
140.0907
 20
-29.1165
 30
0.0
 10
139.8969
 20
-29.0174
 30
0.0
 10
139.0724
 20
-29.2503
 30
0.0
 10
139.0724
 20
-29.2503
 30
0.0
 10
143.3708
 20
-32.0358
 30
0.0
 10
138.6145
 20
-37.0209
 30
0.0
 10
135.3927
 20
-33.6268
 30
0.0
 10
135.3927
 20
-33.6268
 30
0.0
 10
135.3927
 20
-33.6268
 30
0.0
 10
135.3926
 20
-33.6268
 30
0.0
 10
135.3926
 20
-33.6268
 30
0.0
  0
SPLINE
  5
C0
330
1F
100
AcDbEntity
  8
layer 1
 62
     7
100
AcDbSpline
210
0.0
220
0.0
230
1.0
 70
    11
 71
     3
 72
    40
 73
    36
 74
     0
 42
0.0000000001
 43
0.0000000001
 12
1.0
 22
0.0
 32
0.0
 13
1.0
 23
0.0
 33
0.0
 40
0.0
 40
0.0
 40
0.0
 40
0.0
 40
0.1
 40
0.1
 40
0.1
 40
0.1
 40
0.2
 40
0.2
 40
0.2
 40
0.2
 40
0.3
 40
0.3
 40
0.3
 40
0.3
 40
0.4
 40
0.4
 40
0.4
 40
0.4
 40
0.5
 40
0.5
 40
0.5
 40
0.5
 40
0.6
 40
0.6
 40
0.6
 40
0.6
 40
0.7
 40
0.7
 40
0.7
 40
0.7
 40
0.8
 40
0.8
 40
0.8
 40
0.8
 40
1.0
 40
1.0
 40
1.0
 40
1.0
 10
131.5786
 20
-31.5429
 30
0.0
 10
131.5854
 20
-29.2412
 30
0.0
 10
130.9996
 20
-23.3698
 30
0.0
 10
136.1793
 20
-23.3684
 30
0.0
 10
136.1793
 20
-23.3684
 30
0.0
 10
136.1536
 20
-24.4651
 30
0.0
 10
136.3405
 20
-25.3579
 30
0.0
 10
136.9873
 20
-25.7551
 30
0.0
 10
136.9873
 20
-25.7551
 30
0.0
 10
137.7253
 20
-23.9913
 30
0.0
 10
139.1125
 20
-24.0309
 30
0.0
 10
141.3417
 20
-24.6875
 30
0.0
 10
141.3417
 20
-24.6875
 30
0.0
 10
142.8293
 20
-25.2497
 30
0.0
 10
144.5203
 20
-24.98
 30
0.0
 10
145.1971
 20
-24.3671
 30
0.0
 10
145.1971
 20
-24.3671
 30
0.0
 10
147.1954
 20
-21.6658
 30
0.0
 10
145.8691
 20
-14.3664
 30
0.0
 10
141.6718
 20
-14.6838
 30
0.0
 10
141.6718
 20
-14.6838
 30
0.0
 10
143.4294
 20
-15.8057
 30
0.0
 10
144.8307
 20
-17.8053
 30
0.0
 10
143.9615
 20
-18.8897
 30
0.0
 10
143.9615
 20
-18.8897
 30
0.0
 10
143.1297
 20
-18.1794
 30
0.0
 10
142.5604
 20
-17.9727
 30
0.0
 10
142.3851
 20
-19.7914
 30
0.0
 10
142.3851
 20
-19.7914
 30
0.0
 10
142.2648
 20
-23.1803
 30
0.0
 10
134.7894
 20
-22.7335
 30
0.0
 10
134.6062
 20
-18.0568
 30
0.0
 10
134.6062
 20
-18.0568
 30
0.0
 10
128.5467
 20
-22.0091
 30
0.0
 10
130.2156
 20
-28.7382
 30
0.0
 10
131.5786
 20
-31.5429
 30
0.0
  0
SPLINE
  5
C1
330
1F
100
AcDbEntity
  8
layer 1
 62
     7
100
AcDbSpline
210
0.0
220
0.0
230
1.0
 70
    11
 71
     3
 72
    40
 73
    36
 74
     0
 42
0.0000000001
 43
0.0000000001
 12
1.0
 22
0.0
 32
0.0
 13
1.0
 23
0.0
 33
0.0
 40
0.0
 40
0.0
 40
0.0
 40
0.0
 40
0.1
 40
0.1
 40
0.1
 40
0.1
 40
0.2
 40
0.2
 40
0.2
 40
0.2
 40
0.3
 40
0.3
 40
0.3
 40
0.3
 40
0.4
 40
0.4
 40
0.4
 40
0.4
 40
0.5
 40
0.5
 40
0.5
 40
0.5
 40
0.6
 40
0.6
 40
0.6
 40
0.6
 40
0.7
 40
0.7
 40
0.7
 40
0.7
 40
0.8
 40
0.8
 40
0.8
 40
0.8
 40
1.0
 40
1.0
 40
1.0
 40
1.0
 10
151.4742
 20
-30.8782
 30
0.0
 10
153.6895
 20
-32.3288
 30
0.0
 10
151.9106
 20
-33.9294
 30
0.0
 10
150.9846
 20
-34.641
 30
0.0
 10
150.9846
 20
-34.641
 30
0.0
 10
150.2679
 20
-35.3542
 30
0.0
 10
150.9866
 20
-35.8658
 30
0.0
 10
151.761
 20
-35.9719
 30
0.0
 10
151.761
 20
-35.9719
 30
0.0
 10
153.5632
 20
-36.1016
 30
0.0
 10
157.8885
 20
-35.9106
 30
0.0
 10
159.6269
 20
-33.8428
 30
0.0
 10
159.6269
 20
-33.8428
 30
0.0
 10
160.1704
 20
-33.0287
 30
0.0
 10
159.7484
 20
-32.8067
 30
0.0
 10
159.0112
 20
-33.0455
 30
0.0
 10
159.0112
 20
-33.0455
 30
0.0
 10
157.8199
 20
-33.4596
 30
0.0
 10
157.6091
 20
-32.8248
 30
0.0
 10
156.1895
 20
-33.2802
 30
0.0
 10
156.1895
 20
-33.2802
 30
0.0
 10
155.1611
 20
-32.1768
 30
0.0
 10
155.1422
 20
-29.7289
 30
0.0
 10
155.9893
 20
-27.144
 30
0.0
 10
155.9893
 20
-27.144
 30
0.0
 10
154.6894
 20
-28.1737
 30
0.0
 10
152.0894
 20
-28.6707
 30
0.0
 10
150.884
 20
-26.8641
 30
0.0
 10
150.884
 20
-26.8641
 30
0.0
 10
150.0838
 20
-26.9845
 30
0.0
 10
149.8855
 20
-29.6931
 30
0.0
 10
151.4743
 20
-30.8781
 30
0.0
 10
151.4743
 20
-30.8781
 30
0.0
 10
151.4743
 20
-30.8781
 30
0.0
 10
151.4742
 20
-30.8782
 30
0.0
 10
151.4742
 20
-30.8782
 30
0.0
  0
SPLINE
  5
C2
330
1F
100
AcDbEntity
  8
layer 1
 62
     7
100
AcDbSpline
210
0.0
220
0.0
230
1.0
 70
    11
 71
     3
 72
    40
 73
    36
 74
     0
 42
0.0000000001
 43
0.0000000001
 12
1.0
 22
0.0
 32
0.0
 13
1.0
 23
0.0
 33
0.0
 40
0.0
 40
0.0
 40
0.0
 40
0.0
 40
0.1
 40
0.1
 40
0.1
 40
0.1
 40
0.2
 40
0.2
 40
0.2
 40
0.2
 40
0.3
 40
0.3
 40
0.3
 40
0.3
 40
0.4
 40
0.4
 40
0.4
 40
0.4
 40
0.5
 40
0.5
 40
0.5
 40
0.5
 40
0.6
 40
0.6
 40
0.6
 40
0.6
 40
0.7
 40
0.7
 40
0.7
 40
0.7
 40
0.8
 40
0.8
 40
0.8
 40
0.8
 40
1.0
 40
1.0
 40
1.0
 40
1.0
 10
167.8998
 20
-17.9563
 30
0.0
 10
164.5942
 20
-18.943
 30
0.0
 10
165.4598
 20
-21.9586
 30
0.0
 10
167.2478
 20
-21.9511
 30
0.0
 10
167.2478
 20
-21.9511
 30
0.0
 10
170.7067
 20
-21.11
 30
0.0
 10
170.7526
 20
-24.1038
 30
0.0
 10
167.9083
 20
-25.7408
 30
0.0
 10
167.9083
 20
-25.7408
 30
0.0
 10
170.012
 20
-27.6567
 30
0.0
 10
173.2934
 20
-25.378
 30
0.0
 10
171.5058
 20
-22.8464
 30
0.0
 10
171.5058
 20
-22.8464
 30
0.0
 10
171.1446
 20
-22.3571
 30
0.0
 10
170.5371
 20
-21.8102
 30
0.0
 10
171.6557
 20
-21.0284
 30
0.0
 10
171.6557
 20
-21.0284
 30
0.0
 10
172.7146
 20
-20.677
 30
0.0
 10
173.7564
 20
-20.6454
 30
0.0
 10
174.7029
 20
-21.7038
 30
0.0
 10
174.7029
 20
-21.7038
 30
0.0
 10
174.8111
 20
-20.6932
 30
0.0
 10
174.1196
 20
-19.382
 30
0.0
 10
173.2963
 20
-18.5137
 30
0.0
 10
173.2963
 20
-18.5137
 30
0.0
 10
171.347
 20
-18.3371
 30
0.0
 10
169.9069
 20
-20.226
 30
0.0
 10
170.3716
 20
-21.3191
 30
0.0
 10
170.3716
 20
-21.3191
 30
0.0
 10
168.2028
 20
-21.6483
 30
0.0
 10
166.4734
 20
-19.7175
 30
0.0
 10
167.8998
 20
-17.9564
 30
0.0
 10
167.8998
 20
-17.9564
 30
0.0
 10
167.8998
 20
-17.9564
 30
0.0
 10
167.8998
 20
-17.9563
 30
0.0
 10
167.8998
 20
-17.9563
 30
0.0
  0
SPLINE
  5
C3
330
1F
100
AcDbEntity
  8
layer 1
 62
     7
100
AcDbSpline
210
0.0
220
0.0
230
1.0
 70
    11
 71
     3
 72
    72
 73
    68
 74
     0
 42
0.0000000001
 43
0.0000000001
 12
1.0
 22
0.0
 32
0.0
 13
1.0
 23
0.0
 33
0.0
 40
0.0
 40
0.0
 40
0.0
 40
0.0
 40
0.0555555555555556
 40
0.0555555555555556
 40
0.0555555555555556
 40
0.0555555555555556
 40
0.1111111111111111
 40
0.1111111111111111
 40
0.1111111111111111
 40
0.1111111111111111
 40
0.1666666666666667
 40
0.1666666666666667
 40
0.1666666666666667
 40
0.1666666666666667
 40
0.2222222222222222
 40
0.2222222222222222
 40
0.2222222222222222
 40
0.2222222222222222
 40
0.2777777777777778
 40
0.2777777777777778
 40
0.2777777777777778
 40
0.2777777777777778
 40
0.3333333333333333
 40
0.3333333333333333
 40
0.3333333333333333
 40
0.3333333333333333
 40
0.3888888888888889
 40
0.3888888888888889
 40
0.3888888888888889
 40
0.3888888888888889
 40
0.4444444444444444
 40
0.4444444444444444
 40
0.4444444444444444
 40
0.4444444444444444
 40
0.5
 40
0.5
 40
0.5
 40
0.5
 40
0.5555555555555556
 40
0.5555555555555556
 40
0.5555555555555556
 40
0.5555555555555556
 40
0.6111111111111112
 40
0.6111111111111112
 40
0.6111111111111112
 40
0.6111111111111112
 40
0.6666666666666666
 40
0.6666666666666666
 40
0.6666666666666666
 40
0.6666666666666666
 40
0.7222222222222222
 40
0.7222222222222222
 40
0.7222222222222222
 40
0.7222222222222222
 40
0.7777777777777778
 40
0.7777777777777778
 40
0.7777777777777778
 40
0.7777777777777778
 40
0.8333333333333334
 40
0.8333333333333334
 40
0.8333333333333334
 40
0.8333333333333334
 40
0.8888888888888888
 40
0.8888888888888888
 40
0.8888888888888888
 40
0.8888888888888888
 40
1.0
 40
1.0
 40
1.0
 40
1.0
 10
144.4492
 20
-8.2667
 30
0.0
 10
143.8078
 20
-8.6324
 30
0.0
 10
143.4469
 20
-9.655
 30
0.0
 10
143.5123
 20
-10.3887
 30
0.0
 10
143.5123
 20
-10.3887
 30
0.0
 10
147.9433
 20
-10.6633
 30
0.0
 10
152.2456
 20
-14.6704
 30
0.0
 10
153.8607
 20
-18.8401
 30
0.0
 10
153.8607
 20
-18.8401
 30
0.0
 10
154.1386
 20
-19.6392
 30
0.0
 10
154.531
 20
-20.6023
 30
0.0
 10
153.203
 20
-20.2692
 30
0.0
 10
153.203
 20
-20.2692
 30
0.0
 10
152.3228
 20
-20.2238
 30
0.0
 10
152.6515
 20
-20.9734
 30
0.0
 10
153.1376
 20
-21.2316
 30
0.0
 10
153.1376
 20
-21.2316
 30
0.0
 10
153.7463
 20
-21.5659
 30
0.0
 10
154.1802
 20
-21.9464
 30
0.0
 10
154.7945
 20
-22.5358
 30
0.0
 10
154.7945
 20
-22.5358
 30
0.0
 10
157.7936
 20
-22.077
 30
0.0
 10
158.3997
 20
-22.2499
 30
0.0
 10
158.1615
 20
-24.481
 30
0.0
 10
158.1615
 20
-24.481
 30
0.0
 10
159.0136
 20
-23.5667
 30
0.0
 10
160.3049
 20
-22.7405
 30
0.0
 10
162.6595
 20
-22.2838
 30
0.0
 10
162.6595
 20
-22.2838
 30
0.0
 10
156.5326
 20
-21.2403
 30
0.0
 10
153.8284
 20
-14.4904
 30
0.0
 10
155.9785
 20
-10.4166
 30
0.0
 10
155.9785
 20
-10.4166
 30
0.0
 10
150.8322
 20
-9.7278
 30
0.0
 10
152.7258
 20
-1.0438
 30
0.0
 10
157.3637
 20
-5.0995
 30
0.0
 10
157.3637
 20
-5.0995
 30
0.0
 10
157.7575
 20
-5.4683
 30
0.0
 10
158.5554
 20
-5.4288
 30
0.0
 10
157.9891
 20
-4.0778
 30
0.0
 10
157.9891
 20
-4.0778
 30
0.0
 10
156.2366
 20
0.231
 30
0.0
 10
148.2055
 20
5.1594
 30
0.0
 10
139.6726
 20
9.2406
 30
0.0
 10
139.6726
 20
9.2406
 30
0.0
 10
148.0244
 20
3.8487
 30
0.0
 10
149.1882
 20
1.1078
 30
0.0
 10
151.0549
 20
-1.2826
 30
0.0
 10
151.0549
 20
-1.2826
 30
0.0
 10
151.7953
 20
-2.6316
 30
0.0
 10
150.8904
 20
-2.8931
 30
0.0
 10
150.2344
 20
-2.6095
 30
0.0
 10
150.2344
 20
-2.6095
 30
0.0
 10
147.6786
 20
-1.9594
 30
0.0
 10
148.5707
 20
-3.3123
 30
0.0
 10
148.9093
 20
-4.427
 30
0.0
 10
148.9093
 20
-4.427
 30
0.0
 10
150.6457
 20
-8.3168
 30
0.0
 10
150.2787
 20
-10.0121
 30
0.0
 10
149.9221
 20
-10.5242
 30
0.0
 10
149.9221
 20
-10.5242
 30
0.0
 10
148.3542
 20
-11.6947
 30
0.0
 10
145.086
 20
-10.0276
 30
0.0
 10
144.4491
 20
-8.2666
 30
0.0
 10
144.4491
 20
-8.2666
 30
0.0
 10
144.4491
 20
-8.2666
 30
0.0
 10
144.4492
 20
-8.2667
 30
0.0
 10
144.4492
 20
-8.2667
 30
0.0
  0
SPLINE
  5
C4
330
1F
100
AcDbEntity
  8
layer 1
 62
     7
100
AcDbSpline
210
0.0
220
0.0
230
1.0
 70
    11
 71
     3
 72
    20
 73
    16
 74
     0
 42
0.0000000001
 43
0.0000000001
 12
1.0
 22
0.0
 32
0.0
 13
1.0
 23
0.0
 33
0.0
 40
0.0
 40
0.0
 40
0.0
 40
0.0
 40
0.2
 40
0.2
 40
0.2
 40
0.2
 40
0.4
 40
0.4
 40
0.4
 40
0.4
 40
0.6
 40
0.6
 40
0.6
 40
0.6
 40
1.0
 40
1.0
 40
1.0
 40
1.0
 10
123.1965
 20
2.4094
 30
0.0
 10
122.1311
 20
0.7783
 30
0.0
 10
119.8019
 20
-1.605
 30
0.0
 10
118.3449
 20
-2.4379
 30
0.0
 10
118.3449
 20
-2.4379
 30
0.0
 10
118.9422
 20
-0.7839
 30
0.0
 10
118.7364
 20
0.6813
 30
0.0
 10
118.2899
 20
2.1545
 30
0.0
 10
118.2899
 20
2.1545
 30
0.0
 10
120.3987
 20
1.5809
 30
0.0
 10
121.3063
 20
1.5102
 30
0.0
 10
123.1966
 20
2.4095
 30
0.0
 10
123.1966
 20
2.4095
 30
0.0
 10
123.1966
 20
2.4095
 30
0.0
 10
123.1965
 20
2.4094
 30
0.0
 10
123.1965
 20
2.4094
 30
0.0
  0
SPLINE
  5
C5
330
1F
100
AcDbEntity
  8
layer 1
 62
     7
100
AcDbSpline
210
0.0
220
0.0
230
1.0
 70
    11
 71
     3
 72
    44
 73
    40
 74
     0
 42
0.0000000001
 43
0.0000000001
 12
1.0
 22
0.0
 32
0.0
 13
1.0
 23
0.0
 33
0.0
 40
0.0
 40
0.0
 40
0.0
 40
0.0
 40
0.0909090909090909
 40
0.0909090909090909
 40
0.0909090909090909
 40
0.0909090909090909
 40
0.1818181818181818
 40
0.1818181818181818
 40
0.1818181818181818
 40
0.1818181818181818
 40
0.2727272727272727
 40
0.2727272727272727
 40
0.2727272727272727
 40
0.2727272727272727
 40
0.3636363636363636
 40
0.3636363636363636
 40
0.3636363636363636
 40
0.3636363636363636
 40
0.4545454545454545
 40
0.4545454545454545
 40
0.4545454545454545
 40
0.4545454545454545
 40
0.5454545454545454
 40
0.5454545454545454
 40
0.5454545454545454
 40
0.5454545454545454
 40
0.6363636363636364
 40
0.6363636363636364
 40
0.6363636363636364
 40
0.6363636363636364
 40
0.7272727272727273
 40
0.7272727272727273
 40
0.7272727272727273
 40
0.7272727272727273
 40
0.8181818181818182
 40
0.8181818181818182
 40
0.8181818181818182
 40
0.8181818181818182
 40
1.0
 40
1.0
 40
1.0
 40
1.0
 10
109.1759
 20
9.7779
 30
0.0
 10
109.856
 20
8.1833
 30
0.0
 10
110.1199
 20
6.9265
 30
0.0
 10
111.1902
 20
6.1927
 30
0.0
 10
111.1902
 20
6.1927
 30
0.0
 10
112.5455
 20
5.2633
 30
0.0
 10
114.2626
 20
5.4307
 30
0.0
 10
114.5672
 20
3.8775
 30
0.0
 10
114.5672
 20
3.8775
 30
0.0
 10
108.6527
 20
4.5763
 30
0.0
 10
109.1702
 20
-3.8704
 30
0.0
 10
114.1435
 20
-2.1583
 30
0.0
 10
114.1435
 20
-2.1583
 30
0.0
 10
114.4199
 20
-2.0631
 30
0.0
 10
115.2423
 20
-1.2413
 30
0.0
 10
114.4243
 20
-1.049
 30
0.0
 10
114.4243
 20
-1.049
 30
0.0
 10
111.311
 20
-0.9489
 30
0.0
 10
113.2098
 20
3.7273
 30
0.0
 10
116.3265
 20
1.0983
 30
0.0
 10
116.3265
 20
1.0983
 30
0.0
 10
118.3495
 20
-0.4471
 30
0.0
 10
116.8784
 20
-4.9625
 30
0.0
 10
113.2369
 20
-4.3525
 30
0.0
 10
113.2369
 20
-4.3525
 30
0.0
 10
111.7752
 20
-4.0398
 30
0.0
 10
110.1508
 20
-3.3131
 30
0.0
 10
108.9464
 20
-1.0816
 30
0.0
 10
108.9464
 20
-1.0816
 30
0.0
 10
107.6302
 20
1.7687
 30
0.0
 10
107.1827
 20
5.2277
 30
0.0
 10
108.2202
 20
9.7437
 30
0.0
 10
108.2202
 20
9.7437
 30
0.0
 10
108.3681
 20
10.4149
 30
0.0
 10
108.9939
 20
10.4036
 30
0.0
 10
109.1759
 20
9.7778
 30
0.0
 10
109.1759
 20
9.7778
 30
0.0
 10
109.1759
 20
9.7778
 30
0.0
 10
109.1759
 20
9.7779
 30
0.0
 10
109.1759
 20
9.7779
 30
0.0
  0
SPLINE
  5
C6
330
1F
100
AcDbEntity
  8
layer 1
 62
     7
100
AcDbSpline
210
0.0
220
0.0
230
1.0
 70
    11
 71
     3
 72
    44
 73
    40
 74
     0
 42
0.0000000001
 43
0.0000000001
 12
1.0
 22
0.0
 32
0.0
 13
1.0
 23
0.0
 33
0.0
 40
0.0
 40
0.0
 40
0.0
 40
0.0
 40
0.0909090909090909
 40
0.0909090909090909
 40
0.0909090909090909
 40
0.0909090909090909
 40
0.1818181818181818
 40
0.1818181818181818
 40
0.1818181818181818
 40
0.1818181818181818
 40
0.2727272727272727
 40
0.2727272727272727
 40
0.2727272727272727
 40
0.2727272727272727
 40
0.3636363636363636
 40
0.3636363636363636
 40
0.3636363636363636
 40
0.3636363636363636
 40
0.4545454545454545
 40
0.4545454545454545
 40
0.4545454545454545
 40
0.4545454545454545
 40
0.5454545454545454
 40
0.5454545454545454
 40
0.5454545454545454
 40
0.5454545454545454
 40
0.6363636363636364
 40
0.6363636363636364
 40
0.6363636363636364
 40
0.6363636363636364
 40
0.7272727272727273
 40
0.7272727272727273
 40
0.7272727272727273
 40
0.7272727272727273
 40
0.8181818181818182
 40
0.8181818181818182
 40
0.8181818181818182
 40
0.8181818181818182
 40
1.0
 40
1.0
 40
1.0
 40
1.0
 10
110.8143
 20
11.396
 30
0.0
 10
112.3985
 20
10.692
 30
0.0
 10
113.6511
 20
10.4089
 30
0.0
 10
114.3686
 20
9.3276
 30
0.0
 10
114.3686
 20
9.3276
 30
0.0
 10
115.2773
 20
7.9584
 30
0.0
 10
115.0839
 20
6.2441
 30
0.0
 10
116.6324
 20
5.9158
 30
0.0
 10
116.6324
 20
5.9158
 30
0.0
 10
116.0232
 20
11.8403
 30
0.0
 10
124.4611
 20
11.1948
 30
0.0
 10
122.6738
 20
6.248
 30
0.0
 10
122.6738
 20
6.248
 30
0.0
 10
122.5745
 20
5.9732
 30
0.0
 10
121.7403
 20
5.1633
 30
0.0
 10
121.5604
 20
5.984
 30
0.0
 10
121.5604
 20
5.984
 30
0.0
 10
121.5075
 20
9.0985
 30
0.0
 10
116.8029
 20
7.2707
 30
0.0
 10
119.3845
 20
4.1146
 30
0.0
 10
119.3845
 20
4.1146
 30
0.0
 10
120.899
 20
2.0685
 30
0.0
 10
125.4362
 20
3.471
 30
0.0
 10
124.8815
 20
7.1214
 30
0.0
 10
124.8815
 20
7.1214
 30
0.0
 10
124.5909
 20
8.5877
 30
0.0
 10
123.8889
 20
10.2229
 30
0.0
 10
121.676
 20
11.4609
 30
0.0
 10
121.676
 20
11.4609
 30
0.0
 10
118.8459
 20
12.8201
 30
0.0
 10
115.3941
 20
13.3201
 30
0.0
 10
110.8628
 20
12.3511
 30
0.0
 10
110.8628
 20
12.3511
 30
0.0
 10
110.1894
 20
12.2133
 30
0.0
 10
110.1913
 20
11.5875
 30
0.0
 10
110.8142
 20
11.396
 30
0.0
 10
110.8142
 20
11.396
 30
0.0
 10
110.8142
 20
11.396
 30
0.0
 10
110.8143
 20
11.396
 30
0.0
 10
110.8143
 20
11.396
 30
0.0
  0
SPLINE
  5
C7
330
1F
100
AcDbEntity
  8
layer 1
 62
     7
100
AcDbSpline
210
0.0
220
0.0
230
1.0
 70
    11
 71
     3
 72
    44
 73
    40
 74
     0
 42
0.0000000001
 43
0.0000000001
 12
1.0
 22
0.0
 32
0.0
 13
1.0
 23
0.0
 33
0.0
 40
0.0
 40
0.0
 40
0.0
 40
0.0
 40
0.0909090909090909
 40
0.0909090909090909
 40
0.0909090909090909
 40
0.0909090909090909
 40
0.1818181818181818
 40
0.1818181818181818
 40
0.1818181818181818
 40
0.1818181818181818
 40
0.2727272727272727
 40
0.2727272727272727
 40
0.2727272727272727
 40
0.2727272727272727
 40
0.3636363636363636
 40
0.3636363636363636
 40
0.3636363636363636
 40
0.3636363636363636
 40
0.4545454545454545
 40
0.4545454545454545
 40
0.4545454545454545
 40
0.4545454545454545
 40
0.5454545454545454
 40
0.5454545454545454
 40
0.5454545454545454
 40
0.5454545454545454
 40
0.6363636363636364
 40
0.6363636363636364
 40
0.6363636363636364
 40
0.6363636363636364
 40
0.7272727272727273
 40
0.7272727272727273
 40
0.7272727272727273
 40
0.7272727272727273
 40
0.8181818181818182
 40
0.8181818181818182
 40
0.8181818181818182
 40
0.8181818181818182
 40
1.0
 40
1.0
 40
1.0
 40
1.0
 10
133.6175
 20
-47.3899
 30
0.0
 10
134.1012
 20
-47.1436
 30
0.0
 10
134.7551
 20
-47.5251
 30
0.0
 10
134.28
 20
-48.1798
 30
0.0
 10
134.28
 20
-48.1798
 30
0.0
 10
134.1737
 20
-48.7307
 30
0.0
 10
133.3082
 20
-49.4982
 30
0.0
 10
132.6976
 20
-49.808
 30
0.0
 10
132.6976
 20
-49.808
 30
0.0
 10
132.0014
 20
-49.2902
 30
0.0
 10
131.8034
 20
-49.7138
 30
0.0
 10
131.6396
 20
-50.0718
 30
0.0
 10
131.6396
 20
-50.0718
 30
0.0
 10
131.1287
 20
-50.9711
 30
0.0
 10
130.3304
 20
-50.0131
 30
0.0
 10
129.8591
 20
-49.17
 30
0.0
 10
129.8591
 20
-49.17
 30
0.0
 10
128.7457
 20
-47.4407
 30
0.0
 10
127.0504
 20
-47.7039
 30
0.0
 10
126.6003
 20
-49.0773
 30
0.0
 10
126.6003
 20
-49.0773
 30
0.0
 10
125.8609
 20
-50.54
 30
0.0
 10
123.1366
 20
-50.2723
 30
0.0
 10
123.7788
 20
-47.5229
 30
0.0
 10
123.7788
 20
-47.5229
 30
0.0
 10
124.2881
 20
-45.0781
 30
0.0
 10
127.189
 20
-42.7588
 30
0.0
 10
129.1122
 20
-42.9682
 30
0.0
 10
129.1122
 20
-42.9682
 30
0.0
 10
129.8462
 20
-43.0032
 30
0.0
 10
129.9299
 20
-43.3923
 30
0.0
 10
129.7124
 20
-43.6541
 30
0.0
 10
129.7124
 20
-43.6541
 30
0.0
 10
128.6878
 20
-47.1026
 30
0.0
 10
132.0399
 20
-48.5958
 30
0.0
 10
133.6175
 20
-47.39
 30
0.0
 10
133.6175
 20
-47.39
 30
0.0
 10
133.6175
 20
-47.39
 30
0.0
 10
133.6175
 20
-47.3899
 30
0.0
 10
133.6175
 20
-47.3899
 30
0.0
  0
ENDSEC
  0
SECTION
  2
OBJECTS
  0
DICTIONARY
  5
C
330
0
100
AcDbDictionary
281
     1
  3
ACAD_GROUP
350
D
  3
ACAD_LAYOUT
350
1A
  3
ACAD_MATERIAL
350
3B
  3
ACAD_MLEADERSTYLE
350
EA
  3
ACAD_MLINESTYLE
350
17
  3
ACAD_PLOTSETTINGS
350
19
  3
ACAD_PLOTSTYLENAME
350
E
  3
ACAD_TABLESTYLE
350
E9
  3
ACAD_VISUALSTYLE
350
2A
  0
DICTIONARY
  5
D
102
{ACAD_REACTORS
330
C
102
}
330
C
100
AcDbDictionary
281
     1
  0
DICTIONARY
  5
1A
102
{ACAD_REACTORS
330
C
102
}
330
C
100
AcDbDictionary
281
     1
  3
Layout1
350
1E
  3
Layout2
350
26
  3
Model
350
22
  0
DICTIONARY
  5
3B
102
{ACAD_REACTORS
330
C
102
}
330
C
100
AcDbDictionary
281
     1
  3
ByBlock
350
3D
  3
ByLayer
350
3C
  3
Global
350
3E
  0
DICTIONARY
  5
EA
102
{ACAD_REACTORS
330
C
102
}
330
C
100
AcDbDictionary
281
     1
  0
DICTIONARY
  5
17
102
{ACAD_REACTORS
330
C
102
}
330
C
100
AcDbDictionary
281
     1
  3
Standard
350
18
  0
DICTIONARY
  5
19
102
{ACAD_REACTORS
330
C
102
}
330
C
100
AcDbDictionary
281
     1
  0
ACDBDICTIONARYWDFLT
  5
E
102
{ACAD_REACTORS
330
C
102
}
330
C
100
AcDbDictionary
281
     1
  3
Normal
350
F
100
AcDbDictionaryWithDefault
340
F
  0
DICTIONARY
  5
E9
102
{ACAD_REACTORS
330
C
102
}
330
C
100
AcDbDictionary
281
     1
  0
DICTIONARY
  5
2A
102
{ACAD_REACTORS
330
C
102
}
330
C
100
AcDbDictionary
281
     1
  3
2dWireframe
350
2F
  3
3D Hidden
350
31
  3
3dWireframe
350
30
  3
Basic
350
32
  3
Brighten
350
36
  3
ColorChange
350
3A
  3
Conceptual
350
34
  3
Dim
350
35
  3
Facepattern
350
39
  3
Flat
350
2B
  3
FlatWithEdges
350
2C
  3
Gouraud
350
2D
  3
GouraudWithEdges
350
2E
  3
Linepattern
350
38
  3
Realistic
350
33
  3
Thicken
350
37
  0
LAYOUT
  5
1E
102
{ACAD_REACTORS
330
1A
102
}
330
1A
100
AcDbPlotSettings
  1

  2
none_device
  4

  6

 40
0.0
 41
0.0
 42
0.0
 43
0.0
 44
0.0
 45
0.0
 46
0.0
 47
0.0
 48
0.0
 49
0.0
140
0.0
141
0.0
142
1.0
143
1.0
 70
   688
 72
     0
 73
     0
 74
     5
  7

 75
    16
 76
     0
 77
     2
 78
   300
147
1.0
148
0.0
149
0.0
100
AcDbLayout
  1
Layout1
 70
     1
 71
     1
 10
0.0
 20
0.0
 11
12.0
 21
9.0
 12
0.0
 22
0.0
 32
0.0
 14
1.000000000000000E+20
 24
1.000000000000000E+20
 34
1.000000000000000E+20
 15
-1.000000000000000E+20
 25
-1.000000000000000E+20
 35
-1.000000000000000E+20
146
0.0
 13
0.0
 23
0.0
 33
0.0
 16
1.0
 26
0.0
 36
0.0
 17
0.0
 27
1.0
 37
0.0
 76
     0
330
1B
  0
LAYOUT
  5
26
102
{ACAD_REACTORS
330
1A
102
}
330
1A
100
AcDbPlotSettings
  1

  2
none_device
  4

  6

 40
0.0
 41
0.0
 42
0.0
 43
0.0
 44
0.0
 45
0.0
 46
0.0
 47
0.0
 48
0.0
 49
0.0
140
0.0
141
0.0
142
1.0
143
1.0
 70
   688
 72
     0
 73
     0
 74
     5
  7

 75
    16
 76
     0
 77
     2
 78
   300
147
1.0
148
0.0
149
0.0
100
AcDbLayout
  1
Layout2
 70
     1
 71
     2
 10
0.0
 20
0.0
 11
0.0
 21
0.0
 12
0.0
 22
0.0
 32
0.0
 14
0.0
 24
0.0
 34
0.0
 15
0.0
 25
0.0
 35
0.0
146
0.0
 13
0.0
 23
0.0
 33
0.0
 16
1.0
 26
0.0
 36
0.0
 17
0.0
 27
1.0
 37
0.0
 76
     0
330
23
  0
LAYOUT
  5
22
102
{ACAD_REACTORS
330
1A
102
}
330
1A
100
AcDbPlotSettings
  1

  2
none_device
  4

  6

 40
0.0
 41
0.0
 42
0.0
 43
0.0
 44
0.0
 45
0.0
 46
0.0
 47
0.0
 48
0.0
 49
0.0
140
0.0
141
0.0
142
1.0
143
1.0
 70
  1712
 72
     0
 73
     0
 74
     0
  7

 75
     0
 76
     0
 77
     2
 78
   300
147
1.0
148
0.0
149
0.0
100
AcDbLayout
  1
Model
 70
     1
 71
     0
 10
0.0
 20
0.0
 11
12.0
 21
9.0
 12
0.0
 22
0.0
 32
0.0
 14
16.2034
 24
-83.6076
 34
0.0
 15
217.4651
 25
101.5336
 35
0.0
146
0.0
 13
0.0
 23
0.0
 33
0.0
 16
1.0
 26
0.0
 36
0.0
 17
0.0
 27
1.0
 37
0.0
 76
     0
330
1F
331
29
  0
MATERIAL
  5
3D
102
{ACAD_REACTORS
330
3B
102
}
330
3B
100
AcDbMaterial
  1
ByBlock
 72
     1
 94
      127
  0
MATERIAL
  5
3C
102
{ACAD_REACTORS
330
3B
102
}
330
3B
100
AcDbMaterial
  1
ByLayer
 72
     1
 94
      127
  0
MATERIAL
  5
3E
102
{ACAD_REACTORS
330
3B
102
}
330
3B
100
AcDbMaterial
  1
Global
 72
     1
 94
      127
  0
MLINESTYLE
  5
18
102
{ACAD_REACTORS
330
17
102
}
330
17
100
AcDbMlineStyle
  2
Standard
 70
     0
  3

 62
   256
 51
90.0
 52
90.0
 71
     2
 49
0.5
 62
   256
  6
BYLAYER
 49
-0.5
 62
   256
  6
BYLAYER
  0
ACDBPLACEHOLDER
  5
F
102
{ACAD_REACTORS
330
E
102
}
330
E
  0
VISUALSTYLE
  5
2F
102
{ACAD_REACTORS
330
2A
102
}
102
{ACAD_XDICTIONARY
360
D1
102
}
330
2A
100
AcDbVisualStyle
  2
2dWireframe
 70
     4
 71
     0
 72
     2
 73
     0
 90
        0
 40
-0.6
 41
-30.0
 62
     5
 63
     7
421
 16777215
 74
     1
 91
        4
 64
     7
 65
   257
 75
     1
175
     1
 42
1.0
 92
        0
 66
   257
 43
1.0
 76
     1
 77
     6
 78
     2
 67
     7
 79
     5
170
     0
171
     0
290
     0
174
     0
 93
        1
 44
0.0
173
     0
291
     0
 45
0.0
  0
VISUALSTYLE
  5
31
102
{ACAD_REACTORS
330
2A
102
}
102
{ACAD_XDICTIONARY
360
D5
102
}
330
2A
100
AcDbVisualStyle
  2
3D Hidden
 70
     6
 71
     1
 72
     2
 73
     2
 90
        0
 40
-0.6
 41
-30.0
 62
     5
 63
     7
421
 16777215
 74
     2
 91
        2
 64
     7
 65
   257
 75
     2
175
     1
 42
40.0
 92
        0
 66
   257
 43
1.0
 76
     1
 77
     6
 78
     2
 67
     7
 79
     3
170
     0
171
     0
290
     0
174
     0
 93
        1
 44
0.0
173
     0
291
     0
 45
0.0
  0
VISUALSTYLE
  5
30
102
{ACAD_REACTORS
330
2A
102
}
102
{ACAD_XDICTIONARY
360
D3
102
}
330
2A
100
AcDbVisualStyle
  2
3dWireframe
 70
     5
 71
     0
 72
     2
 73
     0
 90
        0
 40
-0.6
 41
-30.0
 62
     5
 63
     7
421
 16777215
 74
     1
 91
        4
 64
     7
 65
   257
 75
     1
175
     1
 42
1.0
 92
        0
 66
   257
 43
1.0
 76
     1
 77
     6
 78
     2
 67
     7
 79
     5
170
     0
171
     0
290
     0
174
     0
 93
        1
 44
0.0
173
     0
291
     0
 45
0.0
  0
VISUALSTYLE
  5
32
102
{ACAD_REACTORS
330
2A
102
}
102
{ACAD_XDICTIONARY
360
D7
102
}
330
2A
100
AcDbVisualStyle
  2
Basic
 70
     7
 71
     1
 72
     0
 73
     1
 90
        0
 40
-0.6
 41
-30.0
 62
     5
 63
     7
421
 16777215
 74
     0
 91
        4
 64
     7
 65
   257
 75
     1
175
     1
 42
1.0
 92
        8
 66
     7
 43
1.0
 76
     1
 77
     6
 78
     2
 67
     7
 79
     5
170
     0
171
     0
290
     0
174
     0
 93
        1
 44
0.0
173
     0
291
     1
 45
0.0
  0
VISUALSTYLE
  5
36
102
{ACAD_REACTORS
330
2A
102
}
102
{ACAD_XDICTIONARY
360
DF
102
}
330
2A
100
AcDbVisualStyle
  2
Brighten
 70
    12
 71
     2
 72
     2
 73
     0
 90
        0
 40
-0.6
 41
-30.0
 62
     5
 63
     7
421
 16777215
 74
     1
 91
        4
 64
     7
 65
   257
 75
     1
175
     1
 42
1.0
 92
        8
 66
     7
 43
1.0
 76
     1
 77
     6
 78
     2
 67
     7
 79
     5
170
     0
171
     0
290
     0
174
     0
 93
        1
 44
50.0
173
     0
291
     1
 45
0.0
  0
VISUALSTYLE
  5
3A
102
{ACAD_REACTORS
330
2A
102
}
102
{ACAD_XDICTIONARY
360
E7
102
}
330
2A
100
AcDbVisualStyle
  2
ColorChange
 70
    16
 71
     2
 72
     2
 73
     3
 90
        0
 40
-0.6
 41
-30.0
 62
     5
 63
     8
421
  8421504
 74
     1
 91
        4
 64
     7
 65
   257
 75
     1
175
     1
 42
1.0
 92
        8
 66
     8
424
  8421504
 43
1.0
 76
     1
 77
     6
 78
     2
 67
     7
 79
     5
170
     0
171
     0
290
     0
174
     0
 93
        1
 44
0.0
173
     0
291
     1
 45
0.0
  0
VISUALSTYLE
  5
34
102
{ACAD_REACTORS
330
2A
102
}
102
{ACAD_XDICTIONARY
360
DB
102
}
330
2A
100
AcDbVisualStyle
  2
Conceptual
 70
     9
 71
     3
 72
     2
 73
     0
 90
        0
 40
-0.6
 41
-30.0
 62
     5
 63
     7
421
 16777215
 74
     2
 91
        2
 64
     7
 65
   257
 75
     1
175
     1
 42
40.0
 92
        8
 66
     7
 43
1.0
 76
     1
 77
     6
 78
     2
 67
     7
 79
     3
170
     0
171
     0
290
     0
174
     0
 93
        1
 44
0.0
173
     0
291
     0
 45
0.0
  0
VISUALSTYLE
  5
35
102
{ACAD_REACTORS
330
2A
102
}
102
{ACAD_XDICTIONARY
360
DD
102
}
330
2A
100
AcDbVisualStyle
  2
Dim
 70
    11
 71
     2
 72
     2
 73
     0
 90
        0
 40
-0.6
 41
-30.0
 62
     5
 63
     7
421
 16777215
 74
     1
 91
        4
 64
     7
 65
   257
 75
     1
175
     1
 42
1.0
 92
        8
 66
     7
 43
1.0
 76
     1
 77
     6
 78
     2
 67
     7
 79
     5
170
     0
171
     0
290
     0
174
     0
 93
        1
 44
-50.0
173
     0
291
     1
 45
0.0
  0
VISUALSTYLE
  5
39
102
{ACAD_REACTORS
330
2A
102
}
102
{ACAD_XDICTIONARY
360
E5
102
}
330
2A
100
AcDbVisualStyle
  2
Facepattern
 70
    15
 71
     2
 72
     2
 73
     0
 90
        0
 40
-0.6
 41
-30.0
 62
     5
 63
     7
421
 16777215
 74
     1
 91
        4
 64
     7
 65
   257
 75
     1
175
     1
 42
1.0
 92
        8
 66
     7
 43
1.0
 76
     1
 77
     6
 78
     2
 67
     7
 79
     5
170
     0
171
     0
290
     0
174
     0
 93
        1
 44
0.0
173
     0
291
     1
 45
0.0
  0
VISUALSTYLE
  5
2B
102
{ACAD_REACTORS
330
2A
102
}
102
{ACAD_XDICTIONARY
360
C9
102
}
330
2A
100
AcDbVisualStyle
  2
Flat
 70
     0
 71
     2
 72
     1
 73
     1
 90
        2
 40
-0.6
 41
30.0
 62
     5
 63
     7
421
 16777215
 74
     0
 91
        4
 64
     7
 65
   257
 75
     1
175
     1
 42
1.0
 92
        8
 66
     7
 43
1.0
 76
     1
 77
     6
 78
     2
 67
     7
 79
     5
170
     0
171
     0
290
     0
174
     0
 93
       13
 44
0.0
173
     0
291
     1
 45
0.0
  0
VISUALSTYLE
  5
2C
102
{ACAD_REACTORS
330
2A
102
}
102
{ACAD_XDICTIONARY
360
CB
102
}
330
2A
100
AcDbVisualStyle
  2
FlatWithEdges
 70
     1
 71
     2
 72
     1
 73
     1
 90
        2
 40
-0.6
 41
30.0
 62
     5
 63
     7
421
 16777215
 74
     1
 91
        4
 64
     7
 65
   257
 75
     1
175
     1
 42
1.0
 92
        0
 66
   257
 43
1.0
 76
     1
 77
     6
 78
     2
 67
     7
 79
     5
170
     0
171
     0
290
     0
174
     0
 93
       13
 44
0.0
173
     0
291
     1
 45
0.0
  0
VISUALSTYLE
  5
2D
102
{ACAD_REACTORS
330
2A
102
}
102
{ACAD_XDICTIONARY
360
CD
102
}
330
2A
100
AcDbVisualStyle
  2
Gouraud
 70
     2
 71
     2
 72
     2
 73
     1
 90
        2
 40
-0.6
 41
30.0
 62
     5
 63
     7
421
 16777215
 74
     0
 91
        4
 64
     7
 65
   257
 75
     1
175
     1
 42
1.0
 92
        0
 66
     7
 43
1.0
 76
     1
 77
     6
 78
     2
 67
     7
 79
     5
170
     0
171
     0
290
     0
174
     0
 93
       13
 44
0.0
173
     0
291
     1
 45
0.0
  0
VISUALSTYLE
  5
2E
102
{ACAD_REACTORS
330
2A
102
}
102
{ACAD_XDICTIONARY
360
CF
102
}
330
2A
100
AcDbVisualStyle
  2
GouraudWithEdges
 70
     3
 71
     2
 72
     2
 73
     1
 90
        2
 40
-0.6
 41
30.0
 62
     5
 63
     7
421
 16777215
 74
     1
 91
        4
 64
     7
 65
   257
 75
     1
175
     1
 42
1.0
 92
        0
 66
   257
 43
1.0
 76
     1
 77
     6
 78
     2
 67
     7
 79
     5
170
     0
171
     0
290
     0
174
     0
 93
       13
 44
0.0
173
     0
291
     1
 45
0.0
  0
VISUALSTYLE
  5
38
102
{ACAD_REACTORS
330
2A
102
}
102
{ACAD_XDICTIONARY
360
E3
102
}
330
2A
100
AcDbVisualStyle
  2
Linepattern
 70
    14
 71
     2
 72
     2
 73
     0
 90
        0
 40
-0.6
 41
-30.0
 62
     5
 63
     7
421
 16777215
 74
     1
 91
        4
 64
     7
 65
   257
 75
     7
175
     7
 42
1.0
 92
        8
 66
     7
 43
1.0
 76
     1
 77
     6
 78
     2
 67
     7
 79
     5
170
     0
171
     0
290
     0
174
     0
 93
        1
 44
0.0
173
     0
291
     1
 45
0.0
  0
VISUALSTYLE
  5
33
102
{ACAD_REACTORS
330
2A
102
}
102
{ACAD_XDICTIONARY
360
D9
102
}
330
2A
100
AcDbVisualStyle
  2
Realistic
 70
     8
 71
     2
 72
     2
 73
     0
 90
        0
 40
-0.6
 41
-30.0
 62
     5
 63
     7
421
 16777215
 74
     1
 91
        0
 64
     7
 65
   257
 75
     1
175
     1
 42
1.0
 92
        8
 66
     8
424
  7895160
 43
1.0
 76
     1
 77
     6
 78
     2
 67
     7
 79
     5
170
     0
171
     0
290
     0
174
     0
 93
       13
 44
0.0
173
     0
291
     0
 45
0.0
  0
VISUALSTYLE
  5
37
102
{ACAD_REACTORS
330
2A
102
}
102
{ACAD_XDICTIONARY
360
E1
102
}
330
2A
100
AcDbVisualStyle
  2
Thicken
 70
    13
 71
     2
 72
     2
 73
     0
 90
        0
 40
-0.6
 41
-30.0
 62
     5
 63
     7
421
 16777215
 74
     1
 91
        4
 64
     7
 65
   257
 75
     1
175
     1
 42
1.0
 92
       12
 66
     7
 43
1.0
 76
     1
 77
     6
 78
     2
 67
     7
 79
     5
170
     0
171
     0
290
     0
174
     0
 93
        1
 44
0.0
173
     0
291
     1
 45
0.0
  0
DICTIONARY
  5
D1
330
2F
100
AcDbDictionary
280
     1
281
     1
  3
ACAD_XREC_ROUNDTRIP
360
D2
  0
DICTIONARY
  5
D5
330
31
100
AcDbDictionary
280
     1
281
     1
  3
ACAD_XREC_ROUNDTRIP
360
D6
  0
DICTIONARY
  5
D3
330
30
100
AcDbDictionary
280
     1
281
     1
  3
ACAD_XREC_ROUNDTRIP
360
D4
  0
DICTIONARY
  5
D7
330
32
100
AcDbDictionary
280
     1
281
     1
  3
ACAD_XREC_ROUNDTRIP
360
D8
  0
DICTIONARY
  5
DF
330
36
100
AcDbDictionary
280
     1
281
     1
  3
ACAD_XREC_ROUNDTRIP
360
E0
  0
DICTIONARY
  5
E7
330
3A
100
AcDbDictionary
280
     1
281
     1
  3
ACAD_XREC_ROUNDTRIP
360
E8
  0
DICTIONARY
  5
DB
330
34
100
AcDbDictionary
280
     1
281
     1
  3
ACAD_XREC_ROUNDTRIP
360
DC
  0
DICTIONARY
  5
DD
330
35
100
AcDbDictionary
280
     1
281
     1
  3
ACAD_XREC_ROUNDTRIP
360
DE
  0
DICTIONARY
  5
E5
330
39
100
AcDbDictionary
280
     1
281
     1
  3
ACAD_XREC_ROUNDTRIP
360
E6
  0
DICTIONARY
  5
C9
330
2B
100
AcDbDictionary
280
     1
281
     1
  3
ACAD_XREC_ROUNDTRIP
360
CA
  0
DICTIONARY
  5
CB
330
2C
100
AcDbDictionary
280
     1
281
     1
  3
ACAD_XREC_ROUNDTRIP
360
CC
  0
DICTIONARY
  5
CD
330
2D
100
AcDbDictionary
280
     1
281
     1
  3
ACAD_XREC_ROUNDTRIP
360
CE
  0
DICTIONARY
  5
CF
330
2E
100
AcDbDictionary
280
     1
281
     1
  3
ACAD_XREC_ROUNDTRIP
360
D0
  0
DICTIONARY
  5
E3
330
38
100
AcDbDictionary
280
     1
281
     1
  3
ACAD_XREC_ROUNDTRIP
360
E4
  0
DICTIONARY
  5
D9
330
33
100
AcDbDictionary
280
     1
281
     1
  3
ACAD_XREC_ROUNDTRIP
360
DA
  0
DICTIONARY
  5
E1
330
37
100
AcDbDictionary
280
     1
281
     1
  3
ACAD_XREC_ROUNDTRIP
360
E2
  0
XRECORD
  5
D2
102
{ACAD_REACTORS
330
D1
102
}
330
D1
100
AcDbXrecord
280
     1
102
RTVSPropertyOp0
 70
     1
102
RTVSPropertyOp1
 70
     1
102
RTVSPropertyOp2
 70
     1
102
RTVSPropertyOp3
 70
     1
102
RTVSPropertyOp4
 70
     1
102
RTVSPropertyOp5
 70
     1
102
RTVSPropertyOp6
 70
     1
102
RTVSPropertyOp7
 70
     1
102
RTVSPropertyOp8
 70
     1
102
RTVSPropertyOp9
 70
     1
102
RTVSPropertyOp10
 70
     1
102
RTVSPropertyOp11
 70
     1
102
RTVSPropertyOp12
 70
     1
102
RTVSPropertyOp13
 70
     1
102
RTVSPropertyOp14
 70
     1
102
RTVSPropertyOp15
 70
     1
102
RTVSPropertyOp16
 70
     1
102
RTVSPropertyOp17
 70
     1
102
RTVSPropertyOp18
 70
     1
102
RTVSPropertyOp19
 70
     1
102
RTVSPropertyOp20
 70
     1
102
RTVSPropertyOp21
 70
     1
102
RTVSPropertyOp22
 70
     1
102
RTVSPropertyOp23
 70
     1
102
RTVSPropertyOp24
 70
     1
102
RTVSPropertyOp25
 70
     1
102
RTVSPropertyOp26
 70
     1
102
RTVSPropertyOp27
 70
     1
102
RTVSPropertyOp28
 70
     1
102
RTVSPropertyOp29
 70
     1
102
RTVSPropertyOp30
 70
     1
102
RTVSPropertyOp31
 70
     1
102
RTVSPropertyOp32
 70
     1
  0
XRECORD
  5
D6
102
{ACAD_REACTORS
330
D5
102
}
330
D5
100
AcDbXrecord
280
     1
102
RTVSPropertyOp0
 70
     1
102
RTVSPropertyOp1
 70
     1
102
RTVSPropertyOp2
 70
     1
102
RTVSPropertyOp3
 70
     1
102
RTVSPropertyOp4
 70
     1
102
RTVSPropertyOp5
 70
     1
102
RTVSPropertyOp6
 70
     1
102
RTVSPropertyOp7
 70
     1
102
RTVSPropertyOp8
 70
     1
102
RTVSPropertyOp9
 70
     1
102
RTVSPropertyOp10
 70
     1
102
RTVSPropertyOp11
 70
     1
102
RTVSPropertyOp12
 70
     1
102
RTVSPropertyOp13
 70
     1
102
RTVSPropertyOp14
 70
     1
102
RTVSPropertyOp15
 70
     1
102
RTVSPropertyOp16
 70
     1
102
RTVSPropertyOp17
 70
     1
102
RTVSPropertyOp18
 70
     1
102
RTVSPropertyOp19
 70
     1
102
RTVSPropertyOp20
 70
     1
102
RTVSPropertyOp21
 70
     1
102
RTVSPropertyOp22
 70
     1
102
RTVSPropertyOp23
 70
     1
102
RTVSPropertyOp24
 70
     1
102
RTVSPropertyOp25
 70
     1
102
RTVSPropertyOp26
 70
     1
102
RTVSPropertyOp27
 70
     1
102
RTVSPropertyOp28
 70
     1
102
RTVSPropertyOp29
 70
     1
102
RTVSPropertyOp30
 70
     1
102
RTVSPropertyOp31
 70
     1
102
RTVSPropertyOp32
 70
     1
  0
XRECORD
  5
D4
102
{ACAD_REACTORS
330
D3
102
}
330
D3
100
AcDbXrecord
280
     1
102
RTVSPropertyOp0
 70
     1
102
RTVSPropertyOp1
 70
     1
102
RTVSPropertyOp2
 70
     1
102
RTVSPropertyOp3
 70
     1
102
RTVSPropertyOp4
 70
     1
102
RTVSPropertyOp5
 70
     1
102
RTVSPropertyOp6
 70
     1
102
RTVSPropertyOp7
 70
     1
102
RTVSPropertyOp8
 70
     1
102
RTVSPropertyOp9
 70
     1
102
RTVSPropertyOp10
 70
     1
102
RTVSPropertyOp11
 70
     1
102
RTVSPropertyOp12
 70
     1
102
RTVSPropertyOp13
 70
     1
102
RTVSPropertyOp14
 70
     1
102
RTVSPropertyOp15
 70
     1
102
RTVSPropertyOp16
 70
     1
102
RTVSPropertyOp17
 70
     1
102
RTVSPropertyOp18
 70
     1
102
RTVSPropertyOp19
 70
     1
102
RTVSPropertyOp20
 70
     1
102
RTVSPropertyOp21
 70
     1
102
RTVSPropertyOp22
 70
     1
102
RTVSPropertyOp23
 70
     1
102
RTVSPropertyOp24
 70
     1
102
RTVSPropertyOp25
 70
     1
102
RTVSPropertyOp26
 70
     1
102
RTVSPropertyOp27
 70
     1
102
RTVSPropertyOp28
 70
     1
102
RTVSPropertyOp29
 70
     1
102
RTVSPropertyOp30
 70
     1
102
RTVSPropertyOp31
 70
     1
102
RTVSPropertyOp32
 70
     1
  0
XRECORD
  5
D8
102
{ACAD_REACTORS
330
D7
102
}
330
D7
100
AcDbXrecord
280
     1
102
RTVSPropertyOp0
 70
     1
102
RTVSPropertyOp1
 70
     1
102
RTVSPropertyOp2
 70
     1
102
RTVSPropertyOp3
 70
     1
102
RTVSPropertyOp4
 70
     1
102
RTVSPropertyOp5
 70
     1
102
RTVSPropertyOp6
 70
     1
102
RTVSPropertyOp7
 70
     1
102
RTVSPropertyOp8
 70
     1
102
RTVSPropertyOp9
 70
     1
102
RTVSPropertyOp10
 70
     1
102
RTVSPropertyOp11
 70
     1
102
RTVSPropertyOp12
 70
     1
102
RTVSPropertyOp13
 70
     1
102
RTVSPropertyOp14
 70
     1
102
RTVSPropertyOp15
 70
     1
102
RTVSPropertyOp16
 70
     1
102
RTVSPropertyOp17
 70
     1
102
RTVSPropertyOp18
 70
     1
102
RTVSPropertyOp19
 70
     1
102
RTVSPropertyOp20
 70
     1
102
RTVSPropertyOp21
 70
     1
102
RTVSPropertyOp22
 70
     1
102
RTVSPropertyOp23
 70
     1
102
RTVSPropertyOp24
 70
     1
102
RTVSPropertyOp25
 70
     1
102
RTVSPropertyOp26
 70
     1
102
RTVSPropertyOp27
 70
     1
102
RTVSPropertyOp28
 70
     1
102
RTVSPropertyOp29
 70
     1
102
RTVSPropertyOp30
 70
     1
102
RTVSPropertyOp31
 70
     1
102
RTVSPropertyOp32
 70
     1
  0
XRECORD
  5
E0
102
{ACAD_REACTORS
330
DF
102
}
330
DF
100
AcDbXrecord
280
     1
102
RTVSPropertyOp0
 70
     1
102
RTVSPropertyOp1
 70
     1
102
RTVSPropertyOp2
 70
     1
102
RTVSPropertyOp3
 70
     1
102
RTVSPropertyOp4
 70
     1
102
RTVSPropertyOp5
 70
     1
102
RTVSPropertyOp6
 70
     1
102
RTVSPropertyOp7
 70
     1
102
RTVSPropertyOp8
 70
     1
102
RTVSPropertyOp9
 70
     1
102
RTVSPropertyOp10
 70
     1
102
RTVSPropertyOp11
 70
     1
102
RTVSPropertyOp12
 70
     1
102
RTVSPropertyOp13
 70
     1
102
RTVSPropertyOp14
 70
     1
102
RTVSPropertyOp15
 70
     1
102
RTVSPropertyOp16
 70
     1
102
RTVSPropertyOp17
 70
     1
102
RTVSPropertyOp18
 70
     1
102
RTVSPropertyOp19
 70
     1
102
RTVSPropertyOp20
 70
     1
102
RTVSPropertyOp21
 70
     1
102
RTVSPropertyOp22
 70
     1
102
RTVSPropertyOp23
 70
     1
102
RTVSPropertyOp24
 70
     1
102
RTVSPropertyOp25
 70
     1
102
RTVSPropertyOp26
 70
     1
102
RTVSPropertyOp27
 70
     1
102
RTVSPropertyOp28
 70
     1
102
RTVSPropertyOp29
 70
     1
102
RTVSPropertyOp30
 70
     1
102
RTVSPropertyOp31
 70
     1
102
RTVSPropertyOp32
 70
     1
  0
XRECORD
  5
E8
102
{ACAD_REACTORS
330
E7
102
}
330
E7
100
AcDbXrecord
280
     1
102
RTVSPropertyOp0
 70
     1
102
RTVSPropertyOp1
 70
     1
102
RTVSPropertyOp2
 70
     1
102
RTVSPropertyOp3
 70
     1
102
RTVSPropertyOp4
 70
     1
102
RTVSPropertyOp5
 70
     1
102
RTVSPropertyOp6
 70
     1
102
RTVSPropertyOp7
 70
     1
102
RTVSPropertyOp8
 70
     1
102
RTVSPropertyOp9
 70
     1
102
RTVSPropertyOp10
 70
     1
102
RTVSPropertyOp11
 70
     1
102
RTVSPropertyOp12
 70
     1
102
RTVSPropertyOp13
 70
     1
102
RTVSPropertyOp14
 70
     1
102
RTVSPropertyOp15
 70
     1
102
RTVSPropertyOp16
 70
     1
102
RTVSPropertyOp17
 70
     1
102
RTVSPropertyOp18
 70
     1
102
RTVSPropertyOp19
 70
     1
102
RTVSPropertyOp20
 70
     1
102
RTVSPropertyOp21
 70
     1
102
RTVSPropertyOp22
 70
     1
102
RTVSPropertyOp23
 70
     1
102
RTVSPropertyOp24
 70
     1
102
RTVSPropertyOp25
 70
     1
102
RTVSPropertyOp26
 70
     1
102
RTVSPropertyOp27
 70
     1
102
RTVSPropertyOp28
 70
     1
102
RTVSPropertyOp29
 70
     1
102
RTVSPropertyOp30
 70
     1
102
RTVSPropertyOp31
 70
     1
102
RTVSPropertyOp32
 70
     1
  0
XRECORD
  5
DC
102
{ACAD_REACTORS
330
DB
102
}
330
DB
100
AcDbXrecord
280
     1
102
RTVSPropertyOp0
 70
     1
102
RTVSPropertyOp1
 70
     1
102
RTVSPropertyOp2
 70
     1
102
RTVSPropertyOp3
 70
     1
102
RTVSPropertyOp4
 70
     1
102
RTVSPropertyOp5
 70
     1
102
RTVSPropertyOp6
 70
     1
102
RTVSPropertyOp7
 70
     1
102
RTVSPropertyOp8
 70
     1
102
RTVSPropertyOp9
 70
     1
102
RTVSPropertyOp10
 70
     1
102
RTVSPropertyOp11
 70
     1
102
RTVSPropertyOp12
 70
     1
102
RTVSPropertyOp13
 70
     1
102
RTVSPropertyOp14
 70
     1
102
RTVSPropertyOp15
 70
     1
102
RTVSPropertyOp16
 70
     1
102
RTVSPropertyOp17
 70
     1
102
RTVSPropertyOp18
 70
     1
102
RTVSPropertyOp19
 70
     1
102
RTVSPropertyOp20
 70
     1
102
RTVSPropertyOp21
 70
     1
102
RTVSPropertyOp22
 70
     1
102
RTVSPropertyOp23
 70
     1
102
RTVSPropertyOp24
 70
     1
102
RTVSPropertyOp25
 70
     1
102
RTVSPropertyOp26
 70
     1
102
RTVSPropertyOp27
 70
     1
102
RTVSPropertyOp28
 70
     1
102
RTVSPropertyOp29
 70
     1
102
RTVSPropertyOp30
 70
     1
102
RTVSPropertyOp31
 70
     1
102
RTVSPropertyOp32
 70
     1
  0
XRECORD
  5
DE
102
{ACAD_REACTORS
330
DD
102
}
330
DD
100
AcDbXrecord
280
     1
102
RTVSPropertyOp0
 70
     1
102
RTVSPropertyOp1
 70
     1
102
RTVSPropertyOp2
 70
     1
102
RTVSPropertyOp3
 70
     1
102
RTVSPropertyOp4
 70
     1
102
RTVSPropertyOp5
 70
     1
102
RTVSPropertyOp6
 70
     1
102
RTVSPropertyOp7
 70
     1
102
RTVSPropertyOp8
 70
     1
102
RTVSPropertyOp9
 70
     1
102
RTVSPropertyOp10
 70
     1
102
RTVSPropertyOp11
 70
     1
102
RTVSPropertyOp12
 70
     1
102
RTVSPropertyOp13
 70
     1
102
RTVSPropertyOp14
 70
     1
102
RTVSPropertyOp15
 70
     1
102
RTVSPropertyOp16
 70
     1
102
RTVSPropertyOp17
 70
     1
102
RTVSPropertyOp18
 70
     1
102
RTVSPropertyOp19
 70
     1
102
RTVSPropertyOp20
 70
     1
102
RTVSPropertyOp21
 70
     1
102
RTVSPropertyOp22
 70
     1
102
RTVSPropertyOp23
 70
     1
102
RTVSPropertyOp24
 70
     1
102
RTVSPropertyOp25
 70
     1
102
RTVSPropertyOp26
 70
     1
102
RTVSPropertyOp27
 70
     1
102
RTVSPropertyOp28
 70
     1
102
RTVSPropertyOp29
 70
     1
102
RTVSPropertyOp30
 70
     1
102
RTVSPropertyOp31
 70
     1
102
RTVSPropertyOp32
 70
     1
  0
XRECORD
  5
E6
102
{ACAD_REACTORS
330
E5
102
}
330
E5
100
AcDbXrecord
280
     1
102
RTVSPropertyOp0
 70
     1
102
RTVSPropertyOp1
 70
     1
102
RTVSPropertyOp2
 70
     1
102
RTVSPropertyOp3
 70
     1
102
RTVSPropertyOp4
 70
     1
102
RTVSPropertyOp5
 70
     1
102
RTVSPropertyOp6
 70
     1
102
RTVSPropertyOp7
 70
     1
102
RTVSPropertyOp8
 70
     1
102
RTVSPropertyOp9
 70
     1
102
RTVSPropertyOp10
 70
     1
102
RTVSPropertyOp11
 70
     1
102
RTVSPropertyOp12
 70
     1
102
RTVSPropertyOp13
 70
     1
102
RTVSPropertyOp14
 70
     1
102
RTVSPropertyOp15
 70
     1
102
RTVSPropertyOp16
 70
     1
102
RTVSPropertyOp17
 70
     1
102
RTVSPropertyOp18
 70
     1
102
RTVSPropertyOp19
 70
     1
102
RTVSPropertyOp20
 70
     1
102
RTVSPropertyOp21
 70
     1
102
RTVSPropertyOp22
 70
     1
102
RTVSPropertyOp23
 70
     1
102
RTVSPropertyOp24
 70
     1
102
RTVSPropertyOp25
 70
     1
102
RTVSPropertyOp26
 70
     1
102
RTVSPropertyOp27
 70
     1
102
RTVSPropertyOp28
 70
     1
102
RTVSPropertyOp29
 70
     1
102
RTVSPropertyOp30
 70
     1
102
RTVSPropertyOp31
 70
     1
102
RTVSPropertyOp32
 70
     1
  0
XRECORD
  5
CA
102
{ACAD_REACTORS
330
C9
102
}
330
C9
100
AcDbXrecord
280
     1
102
RTVSPropertyOp0
 70
     1
102
RTVSPropertyOp1
 70
     1
102
RTVSPropertyOp2
 70
     1
102
RTVSPropertyOp3
 70
     1
102
RTVSPropertyOp4
 70
     1
102
RTVSPropertyOp5
 70
     1
102
RTVSPropertyOp6
 70
     1
102
RTVSPropertyOp7
 70
     1
102
RTVSPropertyOp8
 70
     1
102
RTVSPropertyOp9
 70
     1
102
RTVSPropertyOp10
 70
     1
102
RTVSPropertyOp11
 70
     1
102
RTVSPropertyOp12
 70
     1
102
RTVSPropertyOp13
 70
     1
102
RTVSPropertyOp14
 70
     1
102
RTVSPropertyOp15
 70
     1
102
RTVSPropertyOp16
 70
     1
102
RTVSPropertyOp17
 70
     1
102
RTVSPropertyOp18
 70
     1
102
RTVSPropertyOp19
 70
     1
102
RTVSPropertyOp20
 70
     1
102
RTVSPropertyOp21
 70
     1
102
RTVSPropertyOp22
 70
     1
102
RTVSPropertyOp23
 70
     1
102
RTVSPropertyOp24
 70
     1
102
RTVSPropertyOp25
 70
     1
102
RTVSPropertyOp26
 70
     1
102
RTVSPropertyOp27
 70
     1
102
RTVSPropertyOp28
 70
     1
102
RTVSPropertyOp29
 70
     1
102
RTVSPropertyOp30
 70
     1
102
RTVSPropertyOp31
 70
     1
102
RTVSPropertyOp32
 70
     1
  0
XRECORD
  5
CC
102
{ACAD_REACTORS
330
CB
102
}
330
CB
100
AcDbXrecord
280
     1
102
RTVSPropertyOp0
 70
     1
102
RTVSPropertyOp1
 70
     1
102
RTVSPropertyOp2
 70
     1
102
RTVSPropertyOp3
 70
     1
102
RTVSPropertyOp4
 70
     1
102
RTVSPropertyOp5
 70
     1
102
RTVSPropertyOp6
 70
     1
102
RTVSPropertyOp7
 70
     1
102
RTVSPropertyOp8
 70
     1
102
RTVSPropertyOp9
 70
     1
102
RTVSPropertyOp10
 70
     1
102
RTVSPropertyOp11
 70
     1
102
RTVSPropertyOp12
 70
     1
102
RTVSPropertyOp13
 70
     1
102
RTVSPropertyOp14
 70
     1
102
RTVSPropertyOp15
 70
     1
102
RTVSPropertyOp16
 70
     1
102
RTVSPropertyOp17
 70
     1
102
RTVSPropertyOp18
 70
     1
102
RTVSPropertyOp19
 70
     1
102
RTVSPropertyOp20
 70
     1
102
RTVSPropertyOp21
 70
     1
102
RTVSPropertyOp22
 70
     1
102
RTVSPropertyOp23
 70
     1
102
RTVSPropertyOp24
 70
     1
102
RTVSPropertyOp25
 70
     1
102
RTVSPropertyOp26
 70
     1
102
RTVSPropertyOp27
 70
     1
102
RTVSPropertyOp28
 70
     1
102
RTVSPropertyOp29
 70
     1
102
RTVSPropertyOp30
 70
     1
102
RTVSPropertyOp31
 70
     1
102
RTVSPropertyOp32
 70
     1
  0
XRECORD
  5
CE
102
{ACAD_REACTORS
330
CD
102
}
330
CD
100
AcDbXrecord
280
     1
102
RTVSPropertyOp0
 70
     1
102
RTVSPropertyOp1
 70
     1
102
RTVSPropertyOp2
 70
     1
102
RTVSPropertyOp3
 70
     1
102
RTVSPropertyOp4
 70
     1
102
RTVSPropertyOp5
 70
     1
102
RTVSPropertyOp6
 70
     1
102
RTVSPropertyOp7
 70
     1
102
RTVSPropertyOp8
 70
     1
102
RTVSPropertyOp9
 70
     1
102
RTVSPropertyOp10
 70
     1
102
RTVSPropertyOp11
 70
     1
102
RTVSPropertyOp12
 70
     1
102
RTVSPropertyOp13
 70
     1
102
RTVSPropertyOp14
 70
     1
102
RTVSPropertyOp15
 70
     1
102
RTVSPropertyOp16
 70
     1
102
RTVSPropertyOp17
 70
     1
102
RTVSPropertyOp18
 70
     1
102
RTVSPropertyOp19
 70
     1
102
RTVSPropertyOp20
 70
     1
102
RTVSPropertyOp21
 70
     1
102
RTVSPropertyOp22
 70
     1
102
RTVSPropertyOp23
 70
     1
102
RTVSPropertyOp24
 70
     1
102
RTVSPropertyOp25
 70
     1
102
RTVSPropertyOp26
 70
     1
102
RTVSPropertyOp27
 70
     1
102
RTVSPropertyOp28
 70
     1
102
RTVSPropertyOp29
 70
     1
102
RTVSPropertyOp30
 70
     1
102
RTVSPropertyOp31
 70
     1
102
RTVSPropertyOp32
 70
     1
  0
XRECORD
  5
D0
102
{ACAD_REACTORS
330
CF
102
}
330
CF
100
AcDbXrecord
280
     1
102
RTVSPropertyOp0
 70
     1
102
RTVSPropertyOp1
 70
     1
102
RTVSPropertyOp2
 70
     1
102
RTVSPropertyOp3
 70
     1
102
RTVSPropertyOp4
 70
     1
102
RTVSPropertyOp5
 70
     1
102
RTVSPropertyOp6
 70
     1
102
RTVSPropertyOp7
 70
     1
102
RTVSPropertyOp8
 70
     1
102
RTVSPropertyOp9
 70
     1
102
RTVSPropertyOp10
 70
     1
102
RTVSPropertyOp11
 70
     1
102
RTVSPropertyOp12
 70
     1
102
RTVSPropertyOp13
 70
     1
102
RTVSPropertyOp14
 70
     1
102
RTVSPropertyOp15
 70
     1
102
RTVSPropertyOp16
 70
     1
102
RTVSPropertyOp17
 70
     1
102
RTVSPropertyOp18
 70
     1
102
RTVSPropertyOp19
 70
     1
102
RTVSPropertyOp20
 70
     1
102
RTVSPropertyOp21
 70
     1
102
RTVSPropertyOp22
 70
     1
102
RTVSPropertyOp23
 70
     1
102
RTVSPropertyOp24
 70
     1
102
RTVSPropertyOp25
 70
     1
102
RTVSPropertyOp26
 70
     1
102
RTVSPropertyOp27
 70
     1
102
RTVSPropertyOp28
 70
     1
102
RTVSPropertyOp29
 70
     1
102
RTVSPropertyOp30
 70
     1
102
RTVSPropertyOp31
 70
     1
102
RTVSPropertyOp32
 70
     1
  0
XRECORD
  5
E4
102
{ACAD_REACTORS
330
E3
102
}
330
E3
100
AcDbXrecord
280
     1
102
RTVSPropertyOp0
 70
     1
102
RTVSPropertyOp1
 70
     1
102
RTVSPropertyOp2
 70
     1
102
RTVSPropertyOp3
 70
     1
102
RTVSPropertyOp4
 70
     1
102
RTVSPropertyOp5
 70
     1
102
RTVSPropertyOp6
 70
     1
102
RTVSPropertyOp7
 70
     1
102
RTVSPropertyOp8
 70
     1
102
RTVSPropertyOp9
 70
     1
102
RTVSPropertyOp10
 70
     1
102
RTVSPropertyOp11
 70
     1
102
RTVSPropertyOp12
 70
     1
102
RTVSPropertyOp13
 70
     1
102
RTVSPropertyOp14
 70
     1
102
RTVSPropertyOp15
 70
     1
102
RTVSPropertyOp16
 70
     1
102
RTVSPropertyOp17
 70
     1
102
RTVSPropertyOp18
 70
     1
102
RTVSPropertyOp19
 70
     1
102
RTVSPropertyOp20
 70
     1
102
RTVSPropertyOp21
 70
     1
102
RTVSPropertyOp22
 70
     1
102
RTVSPropertyOp23
 70
     1
102
RTVSPropertyOp24
 70
     1
102
RTVSPropertyOp25
 70
     1
102
RTVSPropertyOp26
 70
     1
102
RTVSPropertyOp27
 70
     1
102
RTVSPropertyOp28
 70
     1
102
RTVSPropertyOp29
 70
     1
102
RTVSPropertyOp30
 70
     1
102
RTVSPropertyOp31
 70
     1
102
RTVSPropertyOp32
 70
     1
  0
XRECORD
  5
DA
102
{ACAD_REACTORS
330
D9
102
}
330
D9
100
AcDbXrecord
280
     1
102
RTVSPropertyOp0
 70
     1
102
RTVSPropertyOp1
 70
     1
102
RTVSPropertyOp2
 70
     1
102
RTVSPropertyOp3
 70
     1
102
RTVSPropertyOp4
 70
     1
102
RTVSPropertyOp5
 70
     1
102
RTVSPropertyOp6
 70
     1
102
RTVSPropertyOp7
 70
     1
102
RTVSPropertyOp8
 70
     1
102
RTVSPropertyOp9
 70
     1
102
RTVSPropertyOp10
 70
     1
102
RTVSPropertyOp11
 70
     1
102
RTVSPropertyOp12
 70
     1
102
RTVSPropertyOp13
 70
     1
102
RTVSPropertyOp14
 70
     1
102
RTVSPropertyOp15
 70
     1
102
RTVSPropertyOp16
 70
     1
102
RTVSPropertyOp17
 70
     1
102
RTVSPropertyOp18
 70
     1
102
RTVSPropertyOp19
 70
     1
102
RTVSPropertyOp20
 70
     1
102
RTVSPropertyOp21
 70
     1
102
RTVSPropertyOp22
 70
     1
102
RTVSPropertyOp23
 70
     1
102
RTVSPropertyOp24
 70
     1
102
RTVSPropertyOp25
 70
     1
102
RTVSPropertyOp26
 70
     1
102
RTVSPropertyOp27
 70
     1
102
RTVSPropertyOp28
 70
     1
102
RTVSPropertyOp29
 70
     1
102
RTVSPropertyOp30
 70
     1
102
RTVSPropertyOp31
 70
     1
102
RTVSPropertyOp32
 70
     1
  0
XRECORD
  5
E2
102
{ACAD_REACTORS
330
E1
102
}
330
E1
100
AcDbXrecord
280
     1
102
RTVSPropertyOp0
 70
     1
102
RTVSPropertyOp1
 70
     1
102
RTVSPropertyOp2
 70
     1
102
RTVSPropertyOp3
 70
     1
102
RTVSPropertyOp4
 70
     1
102
RTVSPropertyOp5
 70
     1
102
RTVSPropertyOp6
 70
     1
102
RTVSPropertyOp7
 70
     1
102
RTVSPropertyOp8
 70
     1
102
RTVSPropertyOp9
 70
     1
102
RTVSPropertyOp10
 70
     1
102
RTVSPropertyOp11
 70
     1
102
RTVSPropertyOp12
 70
     1
102
RTVSPropertyOp13
 70
     1
102
RTVSPropertyOp14
 70
     1
102
RTVSPropertyOp15
 70
     1
102
RTVSPropertyOp16
 70
     1
102
RTVSPropertyOp17
 70
     1
102
RTVSPropertyOp18
 70
     1
102
RTVSPropertyOp19
 70
     1
102
RTVSPropertyOp20
 70
     1
102
RTVSPropertyOp21
 70
     1
102
RTVSPropertyOp22
 70
     1
102
RTVSPropertyOp23
 70
     1
102
RTVSPropertyOp24
 70
     1
102
RTVSPropertyOp25
 70
     1
102
RTVSPropertyOp26
 70
     1
102
RTVSPropertyOp27
 70
     1
102
RTVSPropertyOp28
 70
     1
102
RTVSPropertyOp29
 70
     1
102
RTVSPropertyOp30
 70
     1
102
RTVSPropertyOp31
 70
     1
102
RTVSPropertyOp32
 70
     1
  0
ENDSEC
  0
EOF
