  0
SECTION
  2
HEADER
  9
$ACADVER
  1
AC1021
  9
$ACADMAINTVER
 70
    25
  9
$DWGCODEPAGE
  3
ANSI_1252
  9
$INSBASE
 10
0.0
 20
0.0
 30
0.0
  9
$EXTMIN
 10
-23.91
 20
-115.0653
 30
0.0
  9
$EXTMAX
 10
61.971
 20
132.0755
 30
0.0
  9
$LIMMIN
 10
0.0
 20
0.0
  9
$LIMMAX
 10
12.0
 20
9.0
  9
$ORTHOMODE
 70
     0
  9
$REGENMODE
 70
     1
  9
$FILLMODE
 70
     1
  9
$QTEXTMODE
 70
     0
  9
$MIRRTEXT
 70
     1
  9
$LTSCALE
 40
1.0
  9
$ATTMODE
 70
     1
  9
$TEXTSIZE
 40
0.2
  9
$TRACEWID
 40
0.05
  9
$TEXTSTYLE
  7
Standard
  9
$CLAYER
  8
0
  9
$CELTYPE
  6
ByLayer
  9
$CECOLOR
 62
   256
  9
$CELTSCALE
 40
1.0
  9
$DISPSILH
 70
     0
  9
$DIMSCALE
 40
1.0
  9
$DIMASZ
 40
0.18
  9
$DIMEXO
 40
0.0625
  9
$DIMDLI
 40
0.38
  9
$DIMRND
 40
0.0
  9
$DIMDLE
 40
0.0
  9
$DIMEXE
 40
0.18
  9
$DIMTP
 40
0.0
  9
$DIMTM
 40
0.0
  9
$DIMTXT
 40
0.18
  9
$DIMCEN
 40
0.09
  9
$DIMTSZ
 40
0.0
  9
$DIMTOL
 70
     0
  9
$DIMLIM
 70
     0
  9
$DIMTIH
 70
     1
  9
$DIMTOH
 70
     1
  9
$DIMSE1
 70
     0
  9
$DIMSE2
 70
     0
  9
$DIMTAD
 70
     0
  9
$DIMZIN
 70
     0
  9
$DIMBLK
  1

  9
$DIMASO
 70
     1
  9
$DIMSHO
 70
     1
  9
$DIMPOST
  1

  9
$DIMAPOST
  1

  9
$DIMALT
 70
     0
  9
$DIMALTD
 70
     2
  9
$DIMALTF
 40
25.4
  9
$DIMLFAC
 40
1.0
  9
$DIMTOFL
 70
     0
  9
$DIMTVP
 40
0.0
  9
$DIMTIX
 70
     0
  9
$DIMSOXD
 70
     0
  9
$DIMSAH
 70
     0
  9
$DIMBLK1
  1

  9
$DIMBLK2
  1

  9
$DIMSTYLE
  2
Standard
  9
$DIMCLRD
 70
     0
  9
$DIMCLRE
 70
     0
  9
$DIMCLRT
 70
     0
  9
$DIMTFAC
 40
1.0
  9
$DIMGAP
 40
0.09
  9
$DIMJUST
 70
     0
  9
$DIMSD1
 70
     0
  9
$DIMSD2
 70
     0
  9
$DIMTOLJ
 70
     1
  9
$DIMTZIN
 70
     0
  9
$DIMALTZ
 70
     0
  9
$DIMALTTZ
 70
     0
  9
$DIMUPT
 70
     0
  9
$DIMDEC
 70
     4
  9
$DIMTDEC
 70
     4
  9
$DIMALTU
 70
     2
  9
$DIMALTTD
 70
     2
  9
$DIMTXSTY
  7
Standard
  9
$DIMAUNIT
 70
     0
  9
$DIMADEC
 70
     0
  9
$DIMALTRND
 40
0.0
  9
$DIMAZIN
 70
     0
  9
$DIMDSEP
 70
    46
  9
$DIMATFIT
 70
     3
  9
$DIMFRAC
 70
     0
  9
$DIMLDRBLK
  1

  9
$DIMLUNIT
 70
     2
  9
$DIMLWD
 70
    -2
  9
$DIMLWE
 70
    -2
  9
$DIMTMOVE
 70
     0
  9
$DIMFXL
 40
1.0
  9
$DIMFXLON
 70
     0
  9
$DIMJOGANG
 40
0.7853981633974483
  9
$DIMTFILL
 70
     0
  9
$DIMTFILLCLR
 70
     0
  9
$DIMARCSYM
 70
     0
  9
$DIMLTYPE
  6

  9
$DIMLTEX1
  6

  9
$DIMLTEX2
  6

  9
$LUNITS
 70
     2
  9
$LUPREC
 70
     4
  9
$SKETCHINC
 40
0.1
  9
$FILLETRAD
 40
0.5
  9
$AUNITS
 70
     0
  9
$AUPREC
 70
     0
  9
$MENU
  1
.
  9
$ELEVATION
 40
0.0
  9
$PELEVATION
 40
0.0
  9
$THICKNESS
 40
0.0
  9
$LIMCHECK
 70
     0
  9
$CHAMFERA
 40
0.5
  9
$CHAMFERB
 40
0.5
  9
$CHAMFERC
 40
1.0
  9
$CHAMFERD
 40
0.0
  9
$SKPOLY
 70
     0
  9
$TDCREATE
 40
2458492.636921389
  9
$TDUCREATE
 40
2458492.636921389
  9
$TDUPDATE
 40
2458492.63692162
  9
$TDUUPDATE
 40
2458492.63692162
  9
$TDINDWG
 40
0.0000000116
  9
$TDUSRTIMER
 40
0.0000000116
  9
$USRTIMER
 70
     1
  9
$ANGBASE
 50
0.0
  9
$ANGDIR
 70
     0
  9
$PDMODE
 70
     0
  9
$PDSIZE
 40
0.0
  9
$PLINEWID
 40
0.0
  9
$SPLFRAME
 70
     0
  9
$SPLINETYPE
 70
     6
  9
$SPLINESEGS
 70
     8
  9
$HANDSEED
  5
D2
  9
$SURFTAB1
 70
     6
  9
$SURFTAB2
 70
     6
  9
$SURFTYPE
 70
     6
  9
$SURFU
 70
     6
  9
$SURFV
 70
     6
  9
$UCSBASE
  2

  9
$UCSNAME
  2

  9
$UCSORG
 10
0.0
 20
0.0
 30
0.0
  9
$UCSXDIR
 10
1.0
 20
0.0
 30
0.0
  9
$UCSYDIR
 10
0.0
 20
1.0
 30
0.0
  9
$UCSORTHOREF
  2

  9
$UCSORTHOVIEW
 70
     0
  9
$UCSORGTOP
 10
0.0
 20
0.0
 30
0.0
  9
$UCSORGBOTTOM
 10
0.0
 20
0.0
 30
0.0
  9
$UCSORGLEFT
 10
0.0
 20
0.0
 30
0.0
  9
$UCSORGRIGHT
 10
0.0
 20
0.0
 30
0.0
  9
$UCSORGFRONT
 10
0.0
 20
0.0
 30
0.0
  9
$UCSORGBACK
 10
0.0
 20
0.0
 30
0.0
  9
$PUCSBASE
  2

  9
$PUCSNAME
  2

  9
$PUCSORG
 10
0.0
 20
0.0
 30
0.0
  9
$PUCSXDIR
 10
1.0
 20
0.0
 30
0.0
  9
$PUCSYDIR
 10
0.0
 20
1.0
 30
0.0
  9
$PUCSORTHOREF
  2

  9
$PUCSORTHOVIEW
 70
     0
  9
$PUCSORGTOP
 10
0.0
 20
0.0
 30
0.0
  9
$PUCSORGBOTTOM
 10
0.0
 20
0.0
 30
0.0
  9
$PUCSORGLEFT
 10
0.0
 20
0.0
 30
0.0
  9
$PUCSORGRIGHT
 10
0.0
 20
0.0
 30
0.0
  9
$PUCSORGFRONT
 10
0.0
 20
0.0
 30
0.0
  9
$PUCSORGBACK
 10
0.0
 20
0.0
 30
0.0
  9
$USERI1
 70
     0
  9
$USERI2
 70
     0
  9
$USERI3
 70
     0
  9
$USERI4
 70
     0
  9
$USERI5
 70
     0
  9
$USERR1
 40
0.0
  9
$USERR2
 40
0.0
  9
$USERR3
 40
0.0
  9
$USERR4
 40
0.0
  9
$USERR5
 40
0.0
  9
$WORLDVIEW
 70
     1
  9
$SHADEDGE
 70
     3
  9
$SHADEDIF
 70
    70
  9
$TILEMODE
 70
     1
  9
$MAXACTVP
 70
    64
  9
$PINSBASE
 10
0.0
 20
0.0
 30
0.0
  9
$PLIMCHECK
 70
     0
  9
$PEXTMIN
 10
1.000000000000000E+20
 20
1.000000000000000E+20
 30
1.000000000000000E+20
  9
$PEXTMAX
 10
-1.000000000000000E+20
 20
-1.000000000000000E+20
 30
-1.000000000000000E+20
  9
$PLIMMIN
 10
0.0
 20
0.0
  9
$PLIMMAX
 10
12.0
 20
9.0
  9
$UNITMODE
 70
     0
  9
$VISRETAIN
 70
     1
  9
$PLINEGEN
 70
     0
  9
$PSLTSCALE
 70
     1
  9
$TREEDEPTH
 70
  3020
  9
$CMLSTYLE
  2
Standard
  9
$CMLJUST
 70
     0
  9
$CMLSCALE
 40
1.0
  9
$PROXYGRAPHICS
 70
     1
  9
$MEASUREMENT
 70
     0
  9
$CELWEIGHT
370
    -1
  9
$ENDCAPS
280
     0
  9
$JOINSTYLE
280
     0
  9
$LWDISPLAY
290
     0
  9
$INSUNITS
 70
     4
  9
$HYPERLINKBASE
  1

  9
$STYLESHEET
  1

  9
$XEDIT
290
     1
  9
$CEPSNTYPE
380
     0
  9
$PSTYLEMODE
290
     1
  9
$FINGERPRINTGUID
  2
{477F53AC-BB3E-48D1-AAA4-BAC820C62156}
  9
$VERSIONGUID
  2
{FAEB1C32-E019-11D5-929B-00C0DF256EC4}
  9
$EXTNAMES
290
     1
  9
$PSVPSCALE
 40
0.0
  9
$OLESTARTUP
290
     0
  9
$SORTENTS
280
   127
  9
$INDEXCTL
280
     0
  9
$HIDETEXT
280
     1
  9
$XCLIPFRAME
290
     0
  9
$HALOGAP
280
     0
  9
$OBSCOLOR
 70
   257
  9
$OBSLTYPE
280
     0
  9
$INTERSECTIONDISPLAY
280
     0
  9
$INTERSECTIONCOLOR
 70
   257
  9
$DIMASSOC
280
     2
  9
$PROJECTNAME
  1

  9
$CAMERADISPLAY
290
     0
  9
$LENSLENGTH
 40
50.0
  9
$CAMERAHEIGHT
 40
0.0
  9
$STEPSPERSEC
 40
2.0
  9
$STEPSIZE
 40
6.0
  9
$3DDWFPREC
 40
2.0
  9
$PSOLWIDTH
 40
0.25
  9
$PSOLHEIGHT
 40
4.0
  9
$LOFTANG1
 40
1.570796326794897
  9
$LOFTANG2
 40
1.570796326794897
  9
$LOFTMAG1
 40
0.0
  9
$LOFTMAG2
 40
0.0
  9
$LOFTPARAM
 70
     7
  9
$LOFTNORMALS
280
     1
  9
$LATITUDE
 40
37.795
  9
$LONGITUDE
 40
-122.394
  9
$NORTHDIRECTION
 40
0.0
  9
$TIMEZONE
 70
 -8000
  9
$LIGHTGLYPHDISPLAY
280
     1
  9
$TILEMODELIGHTSYNCH
280
     1
  9
$SOLIDHIST
280
     1
  9
$SHOWHIST
280
     1
  9
$DWFFRAME
280
     2
  9
$DGNFRAME
280
     2
  9
$REALWORLDSCALE
290
     1
  9
$INTERFERECOLOR
 62
   256
  9
$CSHADOW
280
     0
  9
$SHADOWPLANELOCATION
 40
0.0
  0
ENDSEC
  0
SECTION
  2
CLASSES
  0
CLASS
  1
ACDBDICTIONARYWDFLT
  2
AcDbDictionaryWithDefault
  3
ObjectDBX Classes
 90
        0
 91
        4
280
     0
281
     0
  0
CLASS
  1
VISUALSTYLE
  2
AcDbVisualStyle
  3
ObjectDBX Classes
 90
     4095
 91
        4
280
     0
281
     0
  0
CLASS
  1
MATERIAL
  2
AcDbMaterial
  3
ObjectDBX Classes
 90
     1153
 91
        4
280
     0
281
     0
  0
ENDSEC
  0
SECTION
  2
TABLES
  0
TABLE
  2
VPORT
  5
8
330
0
100
AcDbSymbolTable
 70
     1
  0
VPORT
  5
29
330
8
100
AcDbSymbolTableRecord
100
AcDbViewportTableRecord
  2
*Active
 70
     0
 10
0.0
 20
0.0
 11
1.0
 21
1.0
 12
10.42990654205607
 22
4.5
 13
0.0
 23
0.0
 14
0.5
 24
0.5
 15
0.5
 25
0.5
 16
0.0
 26
0.0
 36
1.0
 17
0.0
 27
0.0
 37
0.0
 40
9.0
 41
1.972972972850329
 42
50.0
 43
0.0
 44
0.0
 50
0.0
 51
0.0
 71
     0
 72
   100
 73
     1
 74
     3
 75
     0
 76
     0
 77
     0
 78
     0
281
     0
 65
     1
110
0.0
120
0.0
130
0.0
111
1.0
121
0.0
131
0.0
112
0.0
122
1.0
132
0.0
 79
     0
146
0.0
 60
     3
 61
     5
292
     1
282
     1
141
0.0
142
0.0
 63
   250
  0
ENDTAB
  0
TABLE
  2
LTYPE
  5
5
330
0
100
AcDbSymbolTable
 70
     1
  0
LTYPE
  5
14
330
5
100
AcDbSymbolTableRecord
100
AcDbLinetypeTableRecord
  2
ByBlock
 70
     0
  3

 72
    65
 73
     0
 40
0.0
  0
LTYPE
  5
15
330
5
100
AcDbSymbolTableRecord
100
AcDbLinetypeTableRecord
  2
ByLayer
 70
     0
  3

 72
    65
 73
     0
 40
0.0
  0
LTYPE
  5
16
330
5
100
AcDbSymbolTableRecord
100
AcDbLinetypeTableRecord
  2
Continuous
 70
     0
  3
Solid line
 72
    65
 73
     0
 40
0.0
  0
ENDTAB
  0
TABLE
  2
LAYER
  5
2
330
0
100
AcDbSymbolTable
 70
     3
  0
LAYER
  5
10
330
2
100
AcDbSymbolTableRecord
100
AcDbLayerTableRecord
  2
0
 70
     0
 62
     7
  6
Continuous
370
    -3
390
F
347
3E
  0
LAYER
  5
40
330
2
100
AcDbSymbolTableRecord
100
AcDbLayerTableRecord
  2
layer 1
 70
     0
 62
     7
  6
Continuous
370
    -3
390
F
347
3E
  0
LAYER
  5
AF
330
2
100
AcDbSymbolTableRecord
100
AcDbLayerTableRecord
  2
Master Guides
 70
     0
 62
     7
  6
Continuous
370
    -3
390
F
347
3E
  0
ENDTAB
  0
TABLE
  2
STYLE
  5
3
330
0
100
AcDbSymbolTable
 70
     1
  0
STYLE
  5
11
330
3
100
AcDbSymbolTableRecord
100
AcDbTextStyleTableRecord
  2
Standard
 70
     0
 40
0.0
 41
1.0
 50
0.0
 71
     0
 42
0.2
  3
txt
  4

  0
ENDTAB
  0
TABLE
  2
VIEW
  5
6
330
0
100
AcDbSymbolTable
 70
     0
  0
ENDTAB
  0
TABLE
  2
UCS
  5
7
330
0
100
AcDbSymbolTable
 70
     0
  0
ENDTAB
  0
TABLE
  2
APPID
  5
9
330
0
100
AcDbSymbolTable
 70
     2
  0
APPID
  5
12
330
9
100
AcDbSymbolTableRecord
100
AcDbRegAppTableRecord
  2
ACAD
 70
     0
  0
APPID
  5
3F
330
9
100
AcDbSymbolTableRecord
100
AcDbRegAppTableRecord
  2
ODA
 70
     0
  0
ENDTAB
  0
TABLE
  2
DIMSTYLE
  5
A
330
0
100
AcDbSymbolTable
 70
     1
100
AcDbDimStyleTable
  0
DIMSTYLE
105
27
330
A
100
AcDbSymbolTableRecord
100
AcDbDimStyleTableRecord
  2
Standard
 70
     0
178
     0
340
11
  0
ENDTAB
  0
TABLE
  2
BLOCK_RECORD
  5
1
330
0
100
AcDbSymbolTable
 70
     1
  0
BLOCK_RECORD
  5
1F
330
1
100
AcDbSymbolTableRecord
100
AcDbBlockTableRecord
  2
*Model_Space
340
22
 70
     0
280
     1
281
     0
  0
BLOCK_RECORD
  5
1B
330
1
100
AcDbSymbolTableRecord
100
AcDbBlockTableRecord
  2
*Paper_Space
340
1E
 70
     0
280
     1
281
     0
  0
BLOCK_RECORD
  5
23
330
1
100
AcDbSymbolTableRecord
100
AcDbBlockTableRecord
  2
*Paper_Space0
340
26
 70
     0
280
     1
281
     0
  0
ENDTAB
  0
ENDSEC
  0
SECTION
  2
BLOCKS
  0
BLOCK
  5
20
330
1F
100
AcDbEntity
  8
0
100
AcDbBlockBegin
  2
*Model_Space
 70
     0
 10
0.0
 20
0.0
 30
0.0
  3
*Model_Space
  1

  0
ENDBLK
  5
21
330
1F
100
AcDbEntity
  8
0
100
AcDbBlockEnd
  0
BLOCK
  5
1C
330
1B
100
AcDbEntity
 67
     1
  8
0
100
AcDbBlockBegin
  2
*Paper_Space
 70
     0
 10
0.0
 20
0.0
 30
0.0
  3
*Paper_Space
  1

  0
ENDBLK
  5
1D
330
1B
100
AcDbEntity
 67
     1
  8
0
100
AcDbBlockEnd
  0
BLOCK
  5
24
330
23
100
AcDbEntity
  8
0
100
AcDbBlockBegin
  2
*Paper_Space0
 70
     0
 10
0.0
 20
0.0
 30
0.0
  3
*Paper_Space0
  1

  0
ENDBLK
  5
25
330
23
100
AcDbEntity
  8
0
100
AcDbBlockEnd
  0
ENDSEC
  0
SECTION
  2
ENTITIES
  0
SPLINE
  5
41
330
1F
100
AcDbEntity
  8
layer 1
 62
   250
100
AcDbSpline
210
0.0
220
0.0
230
1.0
 70
    11
 71
     3
 72
    20
 73
    16
 74
     0
 42
0.0000000001
 43
0.0000000001
 12
1.0
 22
0.0
 32
0.0
 13
1.0
 23
0.0
 33
0.0
 40
0.0
 40
0.0
 40
0.0
 40
0.0
 40
0.2
 40
0.2
 40
0.2
 40
0.2
 40
0.4
 40
0.4
 40
0.4
 40
0.4
 40
0.6
 40
0.6
 40
0.6
 40
0.6
 40
1.0
 40
1.0
 40
1.0
 40
1.0
 10
-23.91
 20
132.0755
 30
0.0
 10
-23.91
 20
132.0755
 30
0.0
 10
61.971
 20
132.0755
 30
0.0
 10
61.971
 20
132.0755
 30
0.0
 10
61.971
 20
132.0755
 30
0.0
 10
61.971
 20
132.0755
 30
0.0
 10
61.971
 20
-115.0653
 30
0.0
 10
61.971
 20
-115.0653
 30
0.0
 10
61.971
 20
-115.0653
 30
0.0
 10
61.971
 20
-115.0653
 30
0.0
 10
-23.91
 20
-115.0653
 30
0.0
 10
-23.91
 20
-115.0653
 30
0.0
 10
-23.91
 20
-115.0653
 30
0.0
 10
-23.91
 20
-115.0653
 30
0.0
 10
-23.91
 20
132.0755
 30
0.0
 10
-23.91
 20
132.0755
 30
0.0
  0
SPLINE
  5
42
330
1F
100
AcDbEntity
  8
layer 1
 62
     7
100
AcDbSpline
210
0.0
220
0.0
230
1.0
 70
    11
 71
     3
 72
    20
 73
    16
 74
     0
 42
0.0000000001
 43
0.0000000001
 12
1.0
 22
0.0
 32
0.0
 13
1.0
 23
0.0
 33
0.0
 40
0.0
 40
0.0
 40
0.0
 40
0.0
 40
0.2
 40
0.2
 40
0.2
 40
0.2
 40
0.4
 40
0.4
 40
0.4
 40
0.4
 40
0.6
 40
0.6
 40
0.6
 40
0.6
 40
1.0
 40
1.0
 40
1.0
 40
1.0
 10
-15.9365
 20
117.1532
 30
0.0
 10
-15.9365
 20
117.1532
 30
0.0
 10
-15.9851
 20
117.1853
 30
0.0
 10
-15.9851
 20
117.1853
 30
0.0
 10
-15.9851
 20
117.1853
 30
0.0
 10
-14.1876
 20
118.0478
 30
0.0
 10
-12.4579
 20
116.7098
 30
0.0
 10
-13.3648
 20
114.961
 30
0.0
 10
-13.3648
 20
114.961
 30
0.0
 10
-13.8745
 20
113.9777
 30
0.0
 10
-15.2347
 20
114.1846
 30
0.0
 10
-15.3485
 20
115.2752
 30
0.0
 10
-15.3485
 20
115.2752
 30
0.0
 10
-15.3693
 20
115.4726
 30
0.0
 10
-13.3776
 20
117.9425
 30
0.0
 10
-15.9365
 20
117.1532
 30
0.0
  0
SPLINE
  5
43
330
1F
100
AcDbEntity
  8
layer 1
 62
     7
100
AcDbSpline
210
0.0
220
0.0
230
1.0
 70
    11
 71
     3
 72
    20
 73
    16
 74
     0
 42
0.0000000001
 43
0.0000000001
 12
1.0
 22
0.0
 32
0.0
 13
1.0
 23
0.0
 33
0.0
 40
0.0
 40
0.0
 40
0.0
 40
0.0
 40
0.2
 40
0.2
 40
0.2
 40
0.2
 40
0.4
 40
0.4
 40
0.4
 40
0.4
 40
0.6
 40
0.6
 40
0.6
 40
0.6
 40
1.0
 40
1.0
 40
1.0
 40
1.0
 10
-15.9365
 20
96.398
 30
0.0
 10
-15.9365
 20
96.398
 30
0.0
 10
-15.9851
 20
96.3662
 30
0.0
 10
-15.9851
 20
96.3662
 30
0.0
 10
-15.9851
 20
96.3662
 30
0.0
 10
-14.1876
 20
95.5036
 30
0.0
 10
-12.4579
 20
96.8416
 30
0.0
 10
-13.3648
 20
98.5904
 30
0.0
 10
-13.3648
 20
98.5904
 30
0.0
 10
-13.8745
 20
99.5737
 30
0.0
 10
-15.2347
 20
99.3667
 30
0.0
 10
-15.3485
 20
98.2762
 30
0.0
 10
-15.3485
 20
98.2762
 30
0.0
 10
-15.3693
 20
98.0788
 30
0.0
 10
-13.3776
 20
95.609
 30
0.0
 10
-15.9365
 20
96.398
 30
0.0
  0
SPLINE
  5
44
330
1F
100
AcDbEntity
  8
layer 1
 62
     7
100
AcDbSpline
210
0.0
220
0.0
230
1.0
 70
    11
 71
     3
 72
    32
 73
    28
 74
     0
 42
0.0000000001
 43
0.0000000001
 12
1.0
 22
0.0
 32
0.0
 13
1.0
 23
0.0
 33
0.0
 40
0.0
 40
0.0
 40
0.0
 40
0.0
 40
0.125
 40
0.125
 40
0.125
 40
0.125
 40
0.25
 40
0.25
 40
0.25
 40
0.25
 40
0.375
 40
0.375
 40
0.375
 40
0.375
 40
0.5
 40
0.5
 40
0.5
 40
0.5
 40
0.625
 40
0.625
 40
0.625
 40
0.625
 40
0.75
 40
0.75
 40
0.75
 40
0.75
 40
1.0
 40
1.0
 40
1.0
 40
1.0
 10
-12.4236
 20
109.3058
 30
0.0
 10
-11.9919
 20
109.8465
 30
0.0
 10
-11.7859
 20
113.7679
 30
0.0
 10
-11.7051
 20
114.6962
 30
0.0
 10
-11.7051
 20
114.6962
 30
0.0
 10
-11.7051
 20
114.6962
 30
0.0
 10
-11.7051
 20
114.6962
 30
0.0
 10
-11.7051
 20
114.6962
 30
0.0
 10
-11.7051
 20
114.6962
 30
0.0
 10
-11.7051
 20
114.6962
 30
0.0
 10
-11.7057
 20
114.6969
 30
0.0
 10
-11.7057
 20
114.6969
 30
0.0
 10
-11.7057
 20
114.6969
 30
0.0
 10
-13.0615
 20
110.9428
 30
0.0
 10
-19.0796
 20
113.3549
 30
0.0
 10
-17.1326
 20
116.273
 30
0.0
 10
-17.1326
 20
116.273
 30
0.0
 10
-17.1326
 20
116.273
 30
0.0
 10
-17.1644
 20
116.302
 30
0.0
 10
-17.1644
 20
116.302
 30
0.0
 10
-17.1644
 20
116.302
 30
0.0
 10
-18.8769
 20
114.578
 30
0.0
 10
-19.0213
 20
112.0988
 30
0.0
 10
-19.3658
 20
109.8999
 30
0.0
 10
-19.3658
 20
109.8999
 30
0.0
 10
-17.4478
 20
112.4822
 30
0.0
 10
-13.7234
 20
112.2551
 30
0.0
 10
-12.4236
 20
109.3058
 30
0.0
  0
SPLINE
  5
45
330
1F
100
AcDbEntity
  8
layer 1
 62
     7
100
AcDbSpline
210
0.0
220
0.0
230
1.0
 70
    11
 71
     3
 72
    20
 73
    16
 74
     0
 42
0.0000000001
 43
0.0000000001
 12
1.0
 22
0.0
 32
0.0
 13
1.0
 23
0.0
 33
0.0
 40
0.0
 40
0.0
 40
0.0
 40
0.0
 40
0.2
 40
0.2
 40
0.2
 40
0.2
 40
0.4
 40
0.4
 40
0.4
 40
0.4
 40
0.6
 40
0.6
 40
0.6
 40
0.6
 40
1.0
 40
1.0
 40
1.0
 40
1.0
 10
3.2553
 20
103.7343
 30
0.0
 10
4.0417
 20
104.2351
 30
0.0
 10
4.8416
 20
104.7816
 30
0.0
 10
5.6448
 20
105.371
 30
0.0
 10
5.6448
 20
105.371
 30
0.0
 10
10.3391
 20
101.4921
 30
0.0
 10
15.5776
 20
95.6751
 30
0.0
 10
17.514
 20
88.6494
 30
0.0
 10
17.514
 20
88.6494
 30
0.0
 10
15.1327
 20
90.6207
 30
0.0
 10
11.6609
 20
90.9461
 30
0.0
 10
8.7858
 20
89.7581
 30
0.0
 10
8.7858
 20
89.7581
 30
0.0
 10
11.9715
 20
95.9828
 30
0.0
 10
8.8008
 20
102.6207
 30
0.0
 10
3.2553
 20
103.7343
 30
0.0
  0
SPLINE
  5
46
330
1F
100
AcDbEntity
  8
layer 1
 62
     7
100
AcDbSpline
210
0.0
220
0.0
230
1.0
 70
    11
 71
     3
 72
    20
 73
    16
 74
     0
 42
0.0000000001
 43
0.0000000001
 12
1.0
 22
0.0
 32
0.0
 13
1.0
 23
0.0
 33
0.0
 40
0.0
 40
0.0
 40
0.0
 40
0.0
 40
0.2
 40
0.2
 40
0.2
 40
0.2
 40
0.4
 40
0.4
 40
0.4
 40
0.4
 40
0.6
 40
0.6
 40
0.6
 40
0.6
 40
1.0
 40
1.0
 40
1.0
 40
1.0
 10
3.2553
 20
109.817
 30
0.0
 10
8.8008
 20
110.9308
 30
0.0
 10
11.9715
 20
117.5687
 30
0.0
 10
8.7858
 20
123.7929
 30
0.0
 10
8.7858
 20
123.7929
 30
0.0
 10
11.6609
 20
122.6054
 30
0.0
 10
15.1327
 20
122.9307
 30
0.0
 10
17.514
 20
124.9016
 30
0.0
 10
17.514
 20
124.9016
 30
0.0
 10
15.5776
 20
117.8763
 30
0.0
 10
10.3391
 20
112.0592
 30
0.0
 10
5.6448
 20
108.1801
 30
0.0
 10
5.6448
 20
108.1801
 30
0.0
 10
4.8416
 20
108.7696
 30
0.0
 10
4.0417
 20
109.3163
 30
0.0
 10
3.2553
 20
109.817
 30
0.0
  0
SPLINE
  5
47
330
1F
100
AcDbEntity
  8
layer 1
 62
     7
100
AcDbSpline
210
0.0
220
0.0
230
1.0
 70
    11
 71
     3
 72
   132
 73
   128
 74
     0
 42
0.0000000001
 43
0.0000000001
 12
1.0
 22
0.0
 32
0.0
 13
1.0
 23
0.0
 33
0.0
 40
0.0
 40
0.0
 40
0.0
 40
0.0
 40
0.0303030303030303
 40
0.0303030303030303
 40
0.0303030303030303
 40
0.0303030303030303
 40
0.0606060606060606
 40
0.0606060606060606
 40
0.0606060606060606
 40
0.0606060606060606
 40
0.0909090909090909
 40
0.0909090909090909
 40
0.0909090909090909
 40
0.0909090909090909
 40
0.1212121212121212
 40
0.1212121212121212
 40
0.1212121212121212
 40
0.1212121212121212
 40
0.1515151515151515
 40
0.1515151515151515
 40
0.1515151515151515
 40
0.1515151515151515
 40
0.1818181818181818
 40
0.1818181818181818
 40
0.1818181818181818
 40
0.1818181818181818
 40
0.2121212121212121
 40
0.2121212121212121
 40
0.2121212121212121
 40
0.2121212121212121
 40
0.2424242424242424
 40
0.2424242424242424
 40
0.2424242424242424
 40
0.2424242424242424
 40
0.2727272727272727
 40
0.2727272727272727
 40
0.2727272727272727
 40
0.2727272727272727
 40
0.303030303030303
 40
0.303030303030303
 40
0.303030303030303
 40
0.303030303030303
 40
0.3333333333333333
 40
0.3333333333333333
 40
0.3333333333333333
 40
0.3333333333333333
 40
0.3636363636363636
 40
0.3636363636363636
 40
0.3636363636363636
 40
0.3636363636363636
 40
0.3939393939393939
 40
0.3939393939393939
 40
0.3939393939393939
 40
0.3939393939393939
 40
0.4242424242424243
 40
0.4242424242424243
 40
0.4242424242424243
 40
0.4242424242424243
 40
0.4545454545454545
 40
0.4545454545454545
 40
0.4545454545454545
 40
0.4545454545454545
 40
0.4848484848484849
 40
0.4848484848484849
 40
0.4848484848484849
 40
0.4848484848484849
 40
0.5151515151515151
 40
0.5151515151515151
 40
0.5151515151515151
 40
0.5151515151515151
 40
0.5454545454545454
 40
0.5454545454545454
 40
0.5454545454545454
 40
0.5454545454545454
 40
0.5757575757575758
 40
0.5757575757575758
 40
0.5757575757575758
 40
0.5757575757575758
 40
0.6060606060606061
 40
0.6060606060606061
 40
0.6060606060606061
 40
0.6060606060606061
 40
0.6363636363636364
 40
0.6363636363636364
 40
0.6363636363636364
 40
0.6363636363636364
 40
0.6666666666666666
 40
0.6666666666666666
 40
0.6666666666666666
 40
0.6666666666666666
 40
0.696969696969697
 40
0.696969696969697
 40
0.696969696969697
 40
0.696969696969697
 40
0.7272727272727273
 40
0.7272727272727273
 40
0.7272727272727273
 40
0.7272727272727273
 40
0.7575757575757576
 40
0.7575757575757576
 40
0.7575757575757576
 40
0.7575757575757576
 40
0.7878787878787878
 40
0.7878787878787878
 40
0.7878787878787878
 40
0.7878787878787878
 40
0.8181818181818182
 40
0.8181818181818182
 40
0.8181818181818182
 40
0.8181818181818182
 40
0.8484848484848485
 40
0.8484848484848485
 40
0.8484848484848485
 40
0.8484848484848485
 40
0.8787878787878788
 40
0.8787878787878788
 40
0.8787878787878788
 40
0.8787878787878788
 40
0.9090909090909091
 40
0.9090909090909091
 40
0.9090909090909091
 40
0.9090909090909091
 40
0.9393939393939394
 40
0.9393939393939394
 40
0.9393939393939394
 40
0.9393939393939394
 40
1.0
 40
1.0
 40
1.0
 40
1.0
 10
-10.9563
 20
106.7757
 30
0.0
 10
-10.4221
 20
109.7108
 30
0.0
 10
-9.7908
 20
112.6193
 30
0.0
 10
-9.5235
 20
115.6073
 30
0.0
 10
-9.5235
 20
115.6073
 30
0.0
 10
-8.5824
 20
126.1314
 30
0.0
 10
1.2966
 20
125.6502
 30
0.0
 10
0.7701
 20
119.3295
 30
0.0
 10
0.7701
 20
119.3295
 30
0.0
 10
0.6655
 20
118.0728
 30
0.0
 10
-0.0613
 20
117.4803
 30
0.0
 10
-0.9877
 20
116.7043
 30
0.0
 10
-0.9877
 20
116.7043
 30
0.0
 10
-2.7442
 20
115.2335
 30
0.0
 10
0.8462
 20
113.8415
 30
0.0
 10
3.2867
 20
116.3032
 30
0.0
 10
3.2867
 20
116.3032
 30
0.0
 10
6.5342
 20
119.5794
 30
0.0
 10
3.9629
 20
124.7957
 30
0.0
 10
-0.9684
 20
125.906
 30
0.0
 10
-0.9684
 20
125.906
 30
0.0
 10
-4.951
 20
126.8021
 30
0.0
 10
-9.1697
 20
123.9655
 30
0.0
 10
-10.5913
 20
120.6332
 30
0.0
 10
-10.5913
 20
120.6332
 30
0.0
 10
-11.1654
 20
119.2869
 30
0.0
 10
-11.4039
 20
117.7886
 30
0.0
 10
-11.5577
 20
116.3073
 30
0.0
 10
-11.5577
 20
116.3073
 30
0.0
 10
-11.5577
 20
116.3073
 30
0.0
 10
-11.5586
 20
116.3073
 30
0.0
 10
-11.5586
 20
116.3073
 30
0.0
 10
-11.5586
 20
116.3073
 30
0.0
 10
-11.9157
 20
118.7595
 30
0.0
 10
-14.8397
 20
119.4531
 30
0.0
 10
-17.0152
 20
118.1012
 30
0.0
 10
-17.0152
 20
118.1012
 30
0.0
 10
-15.2203
 20
122.0524
 30
0.0
 10
-12.2267
 20
125.7802
 30
0.0
 10
-7.8394
 20
127.4697
 30
0.0
 10
-7.8394
 20
127.4697
 30
0.0
 10
4.5777
 20
132.2519
 30
0.0
 10
11.8804
 20
119.2894
 30
0.0
 10
5.0403
 20
113.7642
 30
0.0
 10
5.0403
 20
113.7642
 30
0.0
 10
3.1409
 20
112.2301
 30
0.0
 10
0.447
 20
112.5724
 30
0.0
 10
-1.4099
 20
114.0064
 30
0.0
 10
-1.4099
 20
114.0064
 30
0.0
 10
-4.5042
 20
116.3963
 30
0.0
 10
-3.1748
 20
119.2847
 30
0.0
 10
-4.5115
 20
119.7318
 30
0.0
 10
-4.5115
 20
119.7318
 30
0.0
 10
-6.8637
 20
120.518
 30
0.0
 10
-8.5821
 20
113.0435
 30
0.0
 10
-1.9028
 20
110.3401
 30
0.0
 10
-1.9028
 20
110.3401
 30
0.0
 10
-1.9028
 20
110.3401
 30
0.0
 10
-1.9028
 20
110.3401
 30
0.0
 10
-1.9028
 20
110.3401
 30
0.0
 10
-1.9028
 20
110.3401
 30
0.0
 10
-0.6923
 20
109.8242
 30
0.0
 10
1.4324
 20
108.5971
 30
0.0
 10
3.8616
 20
106.7757
 30
0.0
 10
3.8616
 20
106.7757
 30
0.0
 10
1.4324
 20
104.9542
 30
0.0
 10
-0.6923
 20
103.7272
 30
0.0
 10
-1.9028
 20
103.2114
 30
0.0
 10
-1.9028
 20
103.2114
 30
0.0
 10
-1.9028
 20
103.2114
 30
0.0
 10
-1.9028
 20
103.2114
 30
0.0
 10
-1.9028
 20
103.2114
 30
0.0
 10
-1.9028
 20
103.2114
 30
0.0
 10
-8.5821
 20
100.5079
 30
0.0
 10
-6.8637
 20
93.0334
 30
0.0
 10
-4.5115
 20
93.8197
 30
0.0
 10
-4.5115
 20
93.8197
 30
0.0
 10
-3.1748
 20
94.2663
 30
0.0
 10
-4.5042
 20
97.1552
 30
0.0
 10
-1.4099
 20
99.545
 30
0.0
 10
-1.4099
 20
99.545
 30
0.0
 10
0.447
 20
100.979
 30
0.0
 10
3.1409
 20
101.3213
 30
0.0
 10
5.0403
 20
99.7871
 30
0.0
 10
5.0403
 20
99.7871
 30
0.0
 10
11.8804
 20
94.2617
 30
0.0
 10
4.5777
 20
81.2995
 30
0.0
 10
-7.8394
 20
86.0817
 30
0.0
 10
-7.8394
 20
86.0817
 30
0.0
 10
-12.2267
 20
87.7712
 30
0.0
 10
-15.2203
 20
91.499
 30
0.0
 10
-17.0152
 20
95.4502
 30
0.0
 10
-17.0152
 20
95.4502
 30
0.0
 10
-14.8397
 20
94.0983
 30
0.0
 10
-11.9157
 20
94.7918
 30
0.0
 10
-11.5586
 20
97.2441
 30
0.0
 10
-11.5586
 20
97.2441
 30
0.0
 10
-11.5586
 20
97.2441
 30
0.0
 10
-11.5577
 20
97.2441
 30
0.0
 10
-11.5577
 20
97.2441
 30
0.0
 10
-11.5577
 20
97.2441
 30
0.0
 10
-11.4039
 20
95.7628
 30
0.0
 10
-11.1654
 20
94.2645
 30
0.0
 10
-10.5913
 20
92.9182
 30
0.0
 10
-10.5913
 20
92.9182
 30
0.0
 10
-9.1697
 20
89.5858
 30
0.0
 10
-4.951
 20
86.7493
 30
0.0
 10
-0.9684
 20
87.6455
 30
0.0
 10
-0.9684
 20
87.6455
 30
0.0
 10
3.9629
 20
88.7557
 30
0.0
 10
6.5342
 20
93.9716
 30
0.0
 10
3.2867
 20
97.2481
 30
0.0
 10
3.2867
 20
97.2481
 30
0.0
 10
0.8462
 20
99.7099
 30
0.0
 10
-2.7442
 20
98.3179
 30
0.0
 10
-0.9877
 20
96.8471
 30
0.0
 10
-0.9877
 20
96.8471
 30
0.0
 10
3.531
 20
93.0628
 30
0.0
 10
-1.2341
 20
87.1849
 30
0.0
 10
-6.2892
 20
90.9501
 30
0.0
 10
-6.2892
 20
90.9501
 30
0.0
 10
-8.8527
 20
92.8592
 30
0.0
 10
-9.2664
 20
95.0689
 30
0.0
 10
-9.5235
 20
97.9441
 30
0.0
 10
-9.5235
 20
97.9441
 30
0.0
 10
-9.7908
 20
100.932
 30
0.0
 10
-10.4221
 20
103.8406
 30
0.0
 10
-10.9563
 20
106.7757
 30
0.0
  0
SPLINE
  5
48
330
1F
100
AcDbEntity
  8
layer 1
 62
     7
100
AcDbSpline
210
0.0
220
0.0
230
1.0
 70
    11
 71
     3
 72
    32
 73
    28
 74
     0
 42
0.0000000001
 43
0.0000000001
 12
1.0
 22
0.0
 32
0.0
 13
1.0
 23
0.0
 33
0.0
 40
0.0
 40
0.0
 40
0.0
 40
0.0
 40
0.125
 40
0.125
 40
0.125
 40
0.125
 40
0.25
 40
0.25
 40
0.25
 40
0.25
 40
0.375
 40
0.375
 40
0.375
 40
0.375
 40
0.5
 40
0.5
 40
0.5
 40
0.5
 40
0.625
 40
0.625
 40
0.625
 40
0.625
 40
0.75
 40
0.75
 40
0.75
 40
0.75
 40
1.0
 40
1.0
 40
1.0
 40
1.0
 10
-12.4236
 20
104.2456
 30
0.0
 10
-11.9919
 20
103.705
 30
0.0
 10
-11.7859
 20
99.7835
 30
0.0
 10
-11.7051
 20
98.8551
 30
0.0
 10
-11.7051
 20
98.8551
 30
0.0
 10
-11.7051
 20
98.8551
 30
0.0
 10
-11.7051
 20
98.8551
 30
0.0
 10
-11.7051
 20
98.8551
 30
0.0
 10
-11.7051
 20
98.8551
 30
0.0
 10
-11.7051
 20
98.8551
 30
0.0
 10
-11.7057
 20
98.8546
 30
0.0
 10
-11.7057
 20
98.8546
 30
0.0
 10
-11.7057
 20
98.8546
 30
0.0
 10
-13.0615
 20
102.6086
 30
0.0
 10
-19.0796
 20
100.1965
 30
0.0
 10
-17.1326
 20
97.2783
 30
0.0
 10
-17.1326
 20
97.2783
 30
0.0
 10
-17.1326
 20
97.2783
 30
0.0
 10
-17.1644
 20
97.249
 30
0.0
 10
-17.1644
 20
97.249
 30
0.0
 10
-17.1644
 20
97.249
 30
0.0
 10
-18.8769
 20
98.9735
 30
0.0
 10
-19.0213
 20
101.4526
 30
0.0
 10
-19.3658
 20
103.6515
 30
0.0
 10
-19.3658
 20
103.6515
 30
0.0
 10
-17.4478
 20
101.0692
 30
0.0
 10
-13.7234
 20
101.2963
 30
0.0
 10
-12.4236
 20
104.2456
 30
0.0
  0
SPLINE
  5
49
330
1F
100
AcDbEntity
  8
layer 1
 62
     7
100
AcDbSpline
210
0.0
220
0.0
230
1.0
 70
    11
 71
     3
 72
    12
 73
     8
 74
     0
 42
0.0000000001
 43
0.0000000001
 12
1.0
 22
0.0
 32
0.0
 13
1.0
 23
0.0
 33
0.0
 40
0.0
 40
0.0
 40
0.0
 40
0.0
 40
0.3333333333333333
 40
0.3333333333333333
 40
0.3333333333333333
 40
0.3333333333333333
 40
1.0
 40
1.0
 40
1.0
 40
1.0
 10
-17.4585
 20
109.6398
 30
0.0
 10
-14.449
 20
112.2041
 30
0.0
 10
-11.2798
 20
106.3973
 30
0.0
 10
-14.666
 20
103.7383
 30
0.0
 10
-14.666
 20
103.7383
 30
0.0
 10
-17.4937
 20
101.5178
 30
0.0
 10
-20.2858
 20
107.231
 30
0.0
 10
-17.4585
 20
109.6398
 30
0.0
  0
SPLINE
  5
4A
330
1F
100
AcDbEntity
  8
layer 1
 62
     7
100
AcDbSpline
210
0.0
220
0.0
230
1.0
 70
    11
 71
     3
 72
    20
 73
    16
 74
     0
 42
0.0000000001
 43
0.0000000001
 12
1.0
 22
0.0
 32
0.0
 13
1.0
 23
0.0
 33
0.0
 40
0.0
 40
0.0
 40
0.0
 40
0.0
 40
0.2
 40
0.2
 40
0.2
 40
0.2
 40
0.4
 40
0.4
 40
0.4
 40
0.4
 40
0.6
 40
0.6
 40
0.6
 40
0.6
 40
1.0
 40
1.0
 40
1.0
 40
1.0
 10
-15.9365
 20
18.8714
 30
0.0
 10
-15.9365
 20
18.8714
 30
0.0
 10
-15.9851
 20
18.9035
 30
0.0
 10
-15.9851
 20
18.9035
 30
0.0
 10
-15.9851
 20
18.9035
 30
0.0
 10
-14.1876
 20
19.766
 30
0.0
 10
-12.4579
 20
18.4278
 30
0.0
 10
-13.3648
 20
16.6789
 30
0.0
 10
-13.3648
 20
16.6789
 30
0.0
 10
-13.8745
 20
15.6959
 30
0.0
 10
-15.2347
 20
15.903
 30
0.0
 10
-15.3485
 20
16.9932
 30
0.0
 10
-15.3485
 20
16.9932
 30
0.0
 10
-15.3693
 20
17.1908
 30
0.0
 10
-13.3776
 20
19.6607
 30
0.0
 10
-15.9365
 20
18.8714
 30
0.0
  0
SPLINE
  5
4B
330
1F
100
AcDbEntity
  8
layer 1
 62
     7
100
AcDbSpline
210
0.0
220
0.0
230
1.0
 70
    11
 71
     3
 72
    20
 73
    16
 74
     0
 42
0.0000000001
 43
0.0000000001
 12
1.0
 22
0.0
 32
0.0
 13
1.0
 23
0.0
 33
0.0
 40
0.0
 40
0.0
 40
0.0
 40
0.0
 40
0.2
 40
0.2
 40
0.2
 40
0.2
 40
0.4
 40
0.4
 40
0.4
 40
0.4
 40
0.6
 40
0.6
 40
0.6
 40
0.6
 40
1.0
 40
1.0
 40
1.0
 40
1.0
 10
-15.9365
 20
-1.8838
 30
0.0
 10
-15.9365
 20
-1.8838
 30
0.0
 10
-15.9851
 20
-1.9156
 30
0.0
 10
-15.9851
 20
-1.9156
 30
0.0
 10
-15.9851
 20
-1.9156
 30
0.0
 10
-14.1876
 20
-2.7785
 30
0.0
 10
-12.4579
 20
-1.4402
 30
0.0
 10
-13.3648
 20
0.3086
 30
0.0
 10
-13.3648
 20
0.3086
 30
0.0
 10
-13.8745
 20
1.292
 30
0.0
 10
-15.2347
 20
1.0847
 30
0.0
 10
-15.3485
 20
-0.0055
 30
0.0
 10
-15.3485
 20
-0.0055
 30
0.0
 10
-15.3693
 20
-0.2032
 30
0.0
 10
-13.3776
 20
-2.6731
 30
0.0
 10
-15.9365
 20
-1.8838
 30
0.0
  0
SPLINE
  5
4C
330
1F
100
AcDbEntity
  8
layer 1
 62
     7
100
AcDbSpline
210
0.0
220
0.0
230
1.0
 70
    11
 71
     3
 72
    32
 73
    28
 74
     0
 42
0.0000000001
 43
0.0000000001
 12
1.0
 22
0.0
 32
0.0
 13
1.0
 23
0.0
 33
0.0
 40
0.0
 40
0.0
 40
0.0
 40
0.0
 40
0.125
 40
0.125
 40
0.125
 40
0.125
 40
0.25
 40
0.25
 40
0.25
 40
0.25
 40
0.375
 40
0.375
 40
0.375
 40
0.375
 40
0.5
 40
0.5
 40
0.5
 40
0.5
 40
0.625
 40
0.625
 40
0.625
 40
0.625
 40
0.75
 40
0.75
 40
0.75
 40
0.75
 40
1.0
 40
1.0
 40
1.0
 40
1.0
 10
-12.4236
 20
11.0241
 30
0.0
 10
-11.9919
 20
11.5647
 30
0.0
 10
-11.7859
 20
15.4862
 30
0.0
 10
-11.7051
 20
16.4142
 30
0.0
 10
-11.7051
 20
16.4142
 30
0.0
 10
-11.7051
 20
16.4142
 30
0.0
 10
-11.7051
 20
16.4142
 30
0.0
 10
-11.7051
 20
16.4142
 30
0.0
 10
-11.7051
 20
16.4142
 30
0.0
 10
-11.7051
 20
16.4142
 30
0.0
 10
-11.7057
 20
16.4151
 30
0.0
 10
-11.7057
 20
16.4151
 30
0.0
 10
-11.7057
 20
16.4151
 30
0.0
 10
-13.0615
 20
12.6608
 30
0.0
 10
-19.0796
 20
15.0731
 30
0.0
 10
-17.1326
 20
17.991
 30
0.0
 10
-17.1326
 20
17.991
 30
0.0
 10
-17.1326
 20
17.991
 30
0.0
 10
-17.1644
 20
18.0203
 30
0.0
 10
-17.1644
 20
18.0203
 30
0.0
 10
-17.1644
 20
18.0203
 30
0.0
 10
-18.8769
 20
16.2962
 30
0.0
 10
-19.0213
 20
13.8171
 30
0.0
 10
-19.3658
 20
11.6181
 30
0.0
 10
-19.3658
 20
11.6181
 30
0.0
 10
-17.4478
 20
14.2001
 30
0.0
 10
-13.7234
 20
13.9734
 30
0.0
 10
-12.4236
 20
11.0241
 30
0.0
  0
SPLINE
  5
4D
330
1F
100
AcDbEntity
  8
layer 1
 62
     7
100
AcDbSpline
210
0.0
220
0.0
230
1.0
 70
    11
 71
     3
 72
    20
 73
    16
 74
     0
 42
0.0000000001
 43
0.0000000001
 12
1.0
 22
0.0
 32
0.0
 13
1.0
 23
0.0
 33
0.0
 40
0.0
 40
0.0
 40
0.0
 40
0.0
 40
0.2
 40
0.2
 40
0.2
 40
0.2
 40
0.4
 40
0.4
 40
0.4
 40
0.4
 40
0.6
 40
0.6
 40
0.6
 40
0.6
 40
1.0
 40
1.0
 40
1.0
 40
1.0
 10
3.2553
 20
5.4523
 30
0.0
 10
4.0417
 20
5.9534
 30
0.0
 10
4.8416
 20
6.4999
 30
0.0
 10
5.6448
 20
7.0893
 30
0.0
 10
5.6448
 20
7.0893
 30
0.0
 10
10.3391
 20
3.2101
 30
0.0
 10
15.5776
 20
-2.6067
 30
0.0
 10
17.514
 20
-9.6322
 30
0.0
 10
17.514
 20
-9.6322
 30
0.0
 10
15.1327
 20
-7.6613
 30
0.0
 10
11.6609
 20
-7.336
 30
0.0
 10
8.7858
 20
-8.5235
 30
0.0
 10
8.7858
 20
-8.5235
 30
0.0
 10
11.9715
 20
-2.2992
 30
0.0
 10
8.8008
 20
4.3386
 30
0.0
 10
3.2553
 20
5.4523
 30
0.0
  0
SPLINE
  5
4E
330
1F
100
AcDbEntity
  8
layer 1
 62
     7
100
AcDbSpline
210
0.0
220
0.0
230
1.0
 70
    11
 71
     3
 72
    20
 73
    16
 74
     0
 42
0.0000000001
 43
0.0000000001
 12
1.0
 22
0.0
 32
0.0
 13
1.0
 23
0.0
 33
0.0
 40
0.0
 40
0.0
 40
0.0
 40
0.0
 40
0.2
 40
0.2
 40
0.2
 40
0.2
 40
0.4
 40
0.4
 40
0.4
 40
0.4
 40
0.6
 40
0.6
 40
0.6
 40
0.6
 40
1.0
 40
1.0
 40
1.0
 40
1.0
 10
3.2553
 20
11.5354
 30
0.0
 10
8.8008
 20
12.649
 30
0.0
 10
11.9715
 20
19.2869
 30
0.0
 10
8.7858
 20
25.5112
 30
0.0
 10
8.7858
 20
25.5112
 30
0.0
 10
11.6609
 20
24.3236
 30
0.0
 10
15.1327
 20
24.6487
 30
0.0
 10
17.514
 20
26.6199
 30
0.0
 10
17.514
 20
26.6199
 30
0.0
 10
15.5776
 20
19.5943
 30
0.0
 10
10.3391
 20
13.7776
 30
0.0
 10
5.6448
 20
9.8983
 30
0.0
 10
5.6448
 20
9.8983
 30
0.0
 10
4.8416
 20
10.4878
 30
0.0
 10
4.0417
 20
11.0343
 30
0.0
 10
3.2553
 20
11.5354
 30
0.0
  0
SPLINE
  5
4F
330
1F
100
AcDbEntity
  8
layer 1
 62
     7
100
AcDbSpline
210
0.0
220
0.0
230
1.0
 70
    11
 71
     3
 72
   132
 73
   128
 74
     0
 42
0.0000000001
 43
0.0000000001
 12
1.0
 22
0.0
 32
0.0
 13
1.0
 23
0.0
 33
0.0
 40
0.0
 40
0.0
 40
0.0
 40
0.0
 40
0.0303030303030303
 40
0.0303030303030303
 40
0.0303030303030303
 40
0.0303030303030303
 40
0.0606060606060606
 40
0.0606060606060606
 40
0.0606060606060606
 40
0.0606060606060606
 40
0.0909090909090909
 40
0.0909090909090909
 40
0.0909090909090909
 40
0.0909090909090909
 40
0.1212121212121212
 40
0.1212121212121212
 40
0.1212121212121212
 40
0.1212121212121212
 40
0.1515151515151515
 40
0.1515151515151515
 40
0.1515151515151515
 40
0.1515151515151515
 40
0.1818181818181818
 40
0.1818181818181818
 40
0.1818181818181818
 40
0.1818181818181818
 40
0.2121212121212121
 40
0.2121212121212121
 40
0.2121212121212121
 40
0.2121212121212121
 40
0.2424242424242424
 40
0.2424242424242424
 40
0.2424242424242424
 40
0.2424242424242424
 40
0.2727272727272727
 40
0.2727272727272727
 40
0.2727272727272727
 40
0.2727272727272727
 40
0.303030303030303
 40
0.303030303030303
 40
0.303030303030303
 40
0.303030303030303
 40
0.3333333333333333
 40
0.3333333333333333
 40
0.3333333333333333
 40
0.3333333333333333
 40
0.3636363636363636
 40
0.3636363636363636
 40
0.3636363636363636
 40
0.3636363636363636
 40
0.3939393939393939
 40
0.3939393939393939
 40
0.3939393939393939
 40
0.3939393939393939
 40
0.4242424242424243
 40
0.4242424242424243
 40
0.4242424242424243
 40
0.4242424242424243
 40
0.4545454545454545
 40
0.4545454545454545
 40
0.4545454545454545
 40
0.4545454545454545
 40
0.4848484848484849
 40
0.4848484848484849
 40
0.4848484848484849
 40
0.4848484848484849
 40
0.5151515151515151
 40
0.5151515151515151
 40
0.5151515151515151
 40
0.5151515151515151
 40
0.5454545454545454
 40
0.5454545454545454
 40
0.5454545454545454
 40
0.5454545454545454
 40
0.5757575757575758
 40
0.5757575757575758
 40
0.5757575757575758
 40
0.5757575757575758
 40
0.6060606060606061
 40
0.6060606060606061
 40
0.6060606060606061
 40
0.6060606060606061
 40
0.6363636363636364
 40
0.6363636363636364
 40
0.6363636363636364
 40
0.6363636363636364
 40
0.6666666666666666
 40
0.6666666666666666
 40
0.6666666666666666
 40
0.6666666666666666
 40
0.696969696969697
 40
0.696969696969697
 40
0.696969696969697
 40
0.696969696969697
 40
0.7272727272727273
 40
0.7272727272727273
 40
0.7272727272727273
 40
0.7272727272727273
 40
0.7575757575757576
 40
0.7575757575757576
 40
0.7575757575757576
 40
0.7575757575757576
 40
0.7878787878787878
 40
0.7878787878787878
 40
0.7878787878787878
 40
0.7878787878787878
 40
0.8181818181818182
 40
0.8181818181818182
 40
0.8181818181818182
 40
0.8181818181818182
 40
0.8484848484848485
 40
0.8484848484848485
 40
0.8484848484848485
 40
0.8484848484848485
 40
0.8787878787878788
 40
0.8787878787878788
 40
0.8787878787878788
 40
0.8787878787878788
 40
0.9090909090909091
 40
0.9090909090909091
 40
0.9090909090909091
 40
0.9090909090909091
 40
0.9393939393939394
 40
0.9393939393939394
 40
0.9393939393939394
 40
0.9393939393939394
 40
1.0
 40
1.0
 40
1.0
 40
1.0
 10
-10.9563
 20
8.494
 30
0.0
 10
-10.4221
 20
11.4288
 30
0.0
 10
-9.7908
 20
14.3377
 30
0.0
 10
-9.5235
 20
17.3256
 30
0.0
 10
-9.5235
 20
17.3256
 30
0.0
 10
-8.5824
 20
27.8498
 30
0.0
 10
1.2966
 20
27.3684
 30
0.0
 10
0.7701
 20
21.0478
 30
0.0
 10
0.7701
 20
21.0478
 30
0.0
 10
0.6655
 20
19.7908
 30
0.0
 10
-0.0613
 20
19.1986
 30
0.0
 10
-0.9877
 20
18.4226
 30
0.0
 10
-0.9877
 20
18.4226
 30
0.0
 10
-2.7442
 20
16.9518
 30
0.0
 10
0.8462
 20
15.5594
 30
0.0
 10
3.2867
 20
18.0216
 30
0.0
 10
3.2867
 20
18.0216
 30
0.0
 10
6.5342
 20
21.2977
 30
0.0
 10
3.9629
 20
26.5139
 30
0.0
 10
-0.9684
 20
27.6239
 30
0.0
 10
-0.9684
 20
27.6239
 30
0.0
 10
-4.951
 20
28.5204
 30
0.0
 10
-9.1697
 20
25.6839
 30
0.0
 10
-10.5913
 20
22.3511
 30
0.0
 10
-10.5913
 20
22.3511
 30
0.0
 10
-11.1654
 20
21.0051
 30
0.0
 10
-11.4039
 20
19.5069
 30
0.0
 10
-11.5577
 20
18.0256
 30
0.0
 10
-11.5577
 20
18.0256
 30
0.0
 10
-11.5577
 20
18.0256
 30
0.0
 10
-11.5586
 20
18.0252
 30
0.0
 10
-11.5586
 20
18.0252
 30
0.0
 10
-11.5586
 20
18.0252
 30
0.0
 10
-11.9157
 20
20.4775
 30
0.0
 10
-14.8397
 20
21.1714
 30
0.0
 10
-17.0152
 20
19.8192
 30
0.0
 10
-17.0152
 20
19.8192
 30
0.0
 10
-15.2203
 20
23.7706
 30
0.0
 10
-12.2267
 20
27.4985
 30
0.0
 10
-7.8394
 20
29.1879
 30
0.0
 10
-7.8394
 20
29.1879
 30
0.0
 10
4.5777
 20
33.9702
 30
0.0
 10
11.8804
 20
21.0076
 30
0.0
 10
5.0403
 20
15.4825
 30
0.0
 10
5.0403
 20
15.4825
 30
0.0
 10
3.1409
 20
13.948
 30
0.0
 10
0.447
 20
14.2904
 30
0.0
 10
-1.4099
 20
15.7247
 30
0.0
 10
-1.4099
 20
15.7247
 30
0.0
 10
-4.5042
 20
18.1143
 30
0.0
 10
-3.1748
 20
21.003
 30
0.0
 10
-4.5115
 20
21.45
 30
0.0
 10
-4.5115
 20
21.45
 30
0.0
 10
-6.8637
 20
22.2362
 30
0.0
 10
-8.5821
 20
14.7615
 30
0.0
 10
-1.9028
 20
12.0583
 30
0.0
 10
-1.9028
 20
12.0583
 30
0.0
 10
-1.9028
 20
12.0583
 30
0.0
 10
-1.9028
 20
12.0583
 30
0.0
 10
-1.9028
 20
12.0583
 30
0.0
 10
-1.9028
 20
12.0583
 30
0.0
 10
-0.6923
 20
11.5425
 30
0.0
 10
1.4324
 20
10.3151
 30
0.0
 10
3.8616
 20
8.494
 30
0.0
 10
3.8616
 20
8.494
 30
0.0
 10
1.4324
 20
6.6722
 30
0.0
 10
-0.6923
 20
5.4452
 30
0.0
 10
-1.9028
 20
4.9296
 30
0.0
 10
-1.9028
 20
4.9296
 30
0.0
 10
-1.9028
 20
4.9296
 30
0.0
 10
-1.9028
 20
4.9292
 30
0.0
 10
-1.9028
 20
4.9292
 30
0.0
 10
-1.9028
 20
4.9292
 30
0.0
 10
-8.5821
 20
2.2262
 30
0.0
 10
-6.8637
 20
-5.2482
 30
0.0
 10
-4.5115
 20
-4.4621
 30
0.0
 10
-4.5115
 20
-4.4621
 30
0.0
 10
-3.1748
 20
-4.0154
 30
0.0
 10
-4.5042
 20
-1.1266
 30
0.0
 10
-1.4099
 20
1.2633
 30
0.0
 10
-1.4099
 20
1.2633
 30
0.0
 10
0.447
 20
2.6973
 30
0.0
 10
3.1409
 20
3.0395
 30
0.0
 10
5.0403
 20
1.5055
 30
0.0
 10
5.0403
 20
1.5055
 30
0.0
 10
11.8804
 20
-4.02
 30
0.0
 10
4.5777
 20
-16.9825
 30
0.0
 10
-7.8394
 20
-12.2004
 30
0.0
 10
-7.8394
 20
-12.2004
 30
0.0
 10
-12.2267
 20
-10.5105
 30
0.0
 10
-15.2203
 20
-6.7831
 30
0.0
 10
-17.0152
 20
-2.8319
 30
0.0
 10
-17.0152
 20
-2.8319
 30
0.0
 10
-14.8397
 20
-4.1835
 30
0.0
 10
-11.9157
 20
-3.4902
 30
0.0
 10
-11.5586
 20
-1.0376
 30
0.0
 10
-11.5586
 20
-1.0376
 30
0.0
 10
-11.5586
 20
-1.0376
 30
0.0
 10
-11.5577
 20
-1.0379
 30
0.0
 10
-11.5577
 20
-1.0379
 30
0.0
 10
-11.5577
 20
-1.0379
 30
0.0
 10
-11.4039
 20
-2.5189
 30
0.0
 10
-11.1654
 20
-4.0173
 30
0.0
 10
-10.5913
 20
-5.3638
 30
0.0
 10
-10.5913
 20
-5.3638
 30
0.0
 10
-9.1697
 20
-8.6959
 30
0.0
 10
-4.951
 20
-11.5328
 30
0.0
 10
-0.9684
 20
-10.6363
 30
0.0
 10
-0.9684
 20
-10.6363
 30
0.0
 10
3.9629
 20
-9.5263
 30
0.0
 10
6.5342
 20
-4.3101
 30
0.0
 10
3.2867
 20
-1.0339
 30
0.0
 10
3.2867
 20
-1.0339
 30
0.0
 10
0.8462
 20
1.4282
 30
0.0
 10
-2.7442
 20
0.0359
 30
0.0
 10
-0.9877
 20
-1.4349
 30
0.0
 10
-0.9877
 20
-1.4349
 30
0.0
 10
3.531
 20
-5.2189
 30
0.0
 10
-1.2341
 20
-11.0971
 30
0.0
 10
-6.2892
 20
-7.332
 30
0.0
 10
-6.2892
 20
-7.332
 30
0.0
 10
-8.8527
 20
-5.4225
 30
0.0
 10
-9.2664
 20
-3.2127
 30
0.0
 10
-9.5235
 20
-0.3376
 30
0.0
 10
-9.5235
 20
-0.3376
 30
0.0
 10
-9.7908
 20
2.65
 30
0.0
 10
-10.4221
 20
5.5588
 30
0.0
 10
-10.9563
 20
8.494
 30
0.0
  0
SPLINE
  5
50
330
1F
100
AcDbEntity
  8
layer 1
 62
     7
100
AcDbSpline
210
0.0
220
0.0
230
1.0
 70
    11
 71
     3
 72
    32
 73
    28
 74
     0
 42
0.0000000001
 43
0.0000000001
 12
1.0
 22
0.0
 32
0.0
 13
1.0
 23
0.0
 33
0.0
 40
0.0
 40
0.0
 40
0.0
 40
0.0
 40
0.125
 40
0.125
 40
0.125
 40
0.125
 40
0.25
 40
0.25
 40
0.25
 40
0.25
 40
0.375
 40
0.375
 40
0.375
 40
0.375
 40
0.5
 40
0.5
 40
0.5
 40
0.5
 40
0.625
 40
0.625
 40
0.625
 40
0.625
 40
0.75
 40
0.75
 40
0.75
 40
0.75
 40
1.0
 40
1.0
 40
1.0
 40
1.0
 10
-12.4236
 20
5.9639
 30
0.0
 10
-11.9919
 20
5.4233
 30
0.0
 10
-11.7859
 20
1.5015
 30
0.0
 10
-11.7051
 20
0.5731
 30
0.0
 10
-11.7051
 20
0.5731
 30
0.0
 10
-11.7051
 20
0.5731
 30
0.0
 10
-11.7051
 20
0.5731
 30
0.0
 10
-11.7051
 20
0.5731
 30
0.0
 10
-11.7051
 20
0.5731
 30
0.0
 10
-11.7051
 20
0.5731
 30
0.0
 10
-11.7057
 20
0.5725
 30
0.0
 10
-11.7057
 20
0.5725
 30
0.0
 10
-11.7057
 20
0.5725
 30
0.0
 10
-13.0615
 20
4.3269
 30
0.0
 10
-19.0796
 20
1.9144
 30
0.0
 10
-17.1326
 20
-1.0033
 30
0.0
 10
-17.1326
 20
-1.0033
 30
0.0
 10
-17.1326
 20
-1.0033
 30
0.0
 10
-17.1644
 20
-1.0327
 30
0.0
 10
-17.1644
 20
-1.0327
 30
0.0
 10
-17.1644
 20
-1.0327
 30
0.0
 10
-18.8769
 20
0.6915
 30
0.0
 10
-19.0213
 20
3.1708
 30
0.0
 10
-19.3658
 20
5.3698
 30
0.0
 10
-19.3658
 20
5.3698
 30
0.0
 10
-17.4478
 20
2.7875
 30
0.0
 10
-13.7234
 20
3.0142
 30
0.0
 10
-12.4236
 20
5.9639
 30
0.0
  0
SPLINE
  5
51
330
1F
100
AcDbEntity
  8
layer 1
 62
     7
100
AcDbSpline
210
0.0
220
0.0
230
1.0
 70
    11
 71
     3
 72
    12
 73
     8
 74
     0
 42
0.0000000001
 43
0.0000000001
 12
1.0
 22
0.0
 32
0.0
 13
1.0
 23
0.0
 33
0.0
 40
0.0
 40
0.0
 40
0.0
 40
0.0
 40
0.3333333333333333
 40
0.3333333333333333
 40
0.3333333333333333
 40
0.3333333333333333
 40
1.0
 40
1.0
 40
1.0
 40
1.0
 10
-17.4585
 20
11.358
 30
0.0
 10
-14.449
 20
13.9225
 30
0.0
 10
-11.2798
 20
8.1153
 30
0.0
 10
-14.666
 20
5.4563
 30
0.0
 10
-14.666
 20
5.4563
 30
0.0
 10
-17.4937
 20
3.2361
 30
0.0
 10
-20.2858
 20
8.9494
 30
0.0
 10
-17.4585
 20
11.358
 30
0.0
  0
SPLINE
  5
52
330
1F
100
AcDbEntity
  8
layer 1
 62
     7
100
AcDbSpline
210
0.0
220
0.0
230
1.0
 70
    11
 71
     3
 72
    20
 73
    16
 74
     0
 42
0.0000000001
 43
0.0000000001
 12
1.0
 22
0.0
 32
0.0
 13
1.0
 23
0.0
 33
0.0
 40
0.0
 40
0.0
 40
0.0
 40
0.0
 40
0.2
 40
0.2
 40
0.2
 40
0.2
 40
0.4
 40
0.4
 40
0.4
 40
0.4
 40
0.6
 40
0.6
 40
0.6
 40
0.6
 40
1.0
 40
1.0
 40
1.0
 40
1.0
 10
-15.9365
 20
47.2571
 30
0.0
 10
-15.9365
 20
47.2571
 30
0.0
 10
-15.9851
 20
47.2253
 30
0.0
 10
-15.9851
 20
47.2253
 30
0.0
 10
-15.9851
 20
47.2253
 30
0.0
 10
-14.1876
 20
46.3624
 30
0.0
 10
-12.4579
 20
47.7007
 30
0.0
 10
-13.3648
 20
49.4495
 30
0.0
 10
-13.3648
 20
49.4495
 30
0.0
 10
-13.8745
 20
50.4329
 30
0.0
 10
-15.2347
 20
50.2256
 30
0.0
 10
-15.3485
 20
49.1351
 30
0.0
 10
-15.3485
 20
49.1351
 30
0.0
 10
-15.3693
 20
48.9376
 30
0.0
 10
-13.3776
 20
46.4677
 30
0.0
 10
-15.9365
 20
47.2571
 30
0.0
  0
SPLINE
  5
53
330
1F
100
AcDbEntity
  8
layer 1
 62
     7
100
AcDbSpline
210
0.0
220
0.0
230
1.0
 70
    11
 71
     3
 72
    20
 73
    16
 74
     0
 42
0.0000000001
 43
0.0000000001
 12
1.0
 22
0.0
 32
0.0
 13
1.0
 23
0.0
 33
0.0
 40
0.0
 40
0.0
 40
0.0
 40
0.0
 40
0.2
 40
0.2
 40
0.2
 40
0.2
 40
0.4
 40
0.4
 40
0.4
 40
0.4
 40
0.6
 40
0.6
 40
0.6
 40
0.6
 40
1.0
 40
1.0
 40
1.0
 40
1.0
 10
-15.9365
 20
68.0123
 30
0.0
 10
-15.9365
 20
68.0123
 30
0.0
 10
-15.9851
 20
68.0444
 30
0.0
 10
-15.9851
 20
68.0444
 30
0.0
 10
-15.9851
 20
68.0444
 30
0.0
 10
-14.1876
 20
68.9069
 30
0.0
 10
-12.4579
 20
67.5686
 30
0.0
 10
-13.3648
 20
65.8198
 30
0.0
 10
-13.3648
 20
65.8198
 30
0.0
 10
-13.8745
 20
64.8368
 30
0.0
 10
-15.2347
 20
65.0439
 30
0.0
 10
-15.3485
 20
66.1341
 30
0.0
 10
-15.3485
 20
66.1341
 30
0.0
 10
-15.3693
 20
66.3317
 30
0.0
 10
-13.3776
 20
68.8016
 30
0.0
 10
-15.9365
 20
68.0123
 30
0.0
  0
SPLINE
  5
54
330
1F
100
AcDbEntity
  8
layer 1
 62
     7
100
AcDbSpline
210
0.0
220
0.0
230
1.0
 70
    11
 71
     3
 72
    32
 73
    28
 74
     0
 42
0.0000000001
 43
0.0000000001
 12
1.0
 22
0.0
 32
0.0
 13
1.0
 23
0.0
 33
0.0
 40
0.0
 40
0.0
 40
0.0
 40
0.0
 40
0.125
 40
0.125
 40
0.125
 40
0.125
 40
0.25
 40
0.25
 40
0.25
 40
0.25
 40
0.375
 40
0.375
 40
0.375
 40
0.375
 40
0.5
 40
0.5
 40
0.5
 40
0.5
 40
0.625
 40
0.625
 40
0.625
 40
0.625
 40
0.75
 40
0.75
 40
0.75
 40
0.75
 40
1.0
 40
1.0
 40
1.0
 40
1.0
 10
-12.4236
 20
55.1048
 30
0.0
 10
-11.9919
 20
54.5641
 30
0.0
 10
-11.7859
 20
50.6423
 30
0.0
 10
-11.7051
 20
49.714
 30
0.0
 10
-11.7051
 20
49.714
 30
0.0
 10
-11.7051
 20
49.714
 30
0.0
 10
-11.7051
 20
49.714
 30
0.0
 10
-11.7051
 20
49.714
 30
0.0
 10
-11.7051
 20
49.714
 30
0.0
 10
-11.7051
 20
49.714
 30
0.0
 10
-11.7057
 20
49.7133
 30
0.0
 10
-11.7057
 20
49.7133
 30
0.0
 10
-11.7057
 20
49.7133
 30
0.0
 10
-13.0615
 20
53.4677
 30
0.0
 10
-19.0796
 20
51.0553
 30
0.0
 10
-17.1326
 20
48.1376
 30
0.0
 10
-17.1326
 20
48.1376
 30
0.0
 10
-17.1326
 20
48.1376
 30
0.0
 10
-17.1644
 20
48.1082
 30
0.0
 10
-17.1644
 20
48.1082
 30
0.0
 10
-17.1644
 20
48.1082
 30
0.0
 10
-18.8769
 20
49.8323
 30
0.0
 10
-19.0213
 20
52.3117
 30
0.0
 10
-19.3658
 20
54.5106
 30
0.0
 10
-19.3658
 20
54.5106
 30
0.0
 10
-17.4478
 20
51.9283
 30
0.0
 10
-13.7234
 20
52.1551
 30
0.0
 10
-12.4236
 20
55.1048
 30
0.0
  0
SPLINE
  5
55
330
1F
100
AcDbEntity
  8
layer 1
 62
     7
100
AcDbSpline
210
0.0
220
0.0
230
1.0
 70
    11
 71
     3
 72
    20
 73
    16
 74
     0
 42
0.0000000001
 43
0.0000000001
 12
1.0
 22
0.0
 32
0.0
 13
1.0
 23
0.0
 33
0.0
 40
0.0
 40
0.0
 40
0.0
 40
0.0
 40
0.2
 40
0.2
 40
0.2
 40
0.2
 40
0.4
 40
0.4
 40
0.4
 40
0.4
 40
0.6
 40
0.6
 40
0.6
 40
0.6
 40
1.0
 40
1.0
 40
1.0
 40
1.0
 10
3.2553
 20
60.6763
 30
0.0
 10
4.0417
 20
60.1752
 30
0.0
 10
4.8416
 20
59.6287
 30
0.0
 10
5.6448
 20
59.0392
 30
0.0
 10
5.6448
 20
59.0392
 30
0.0
 10
10.3391
 20
62.9185
 30
0.0
 10
15.5776
 20
68.7351
 30
0.0
 10
17.514
 20
75.7608
 30
0.0
 10
17.514
 20
75.7608
 30
0.0
 10
15.1327
 20
73.7898
 30
0.0
 10
11.6609
 20
73.4645
 30
0.0
 10
8.7858
 20
74.6521
 30
0.0
 10
8.7858
 20
74.6521
 30
0.0
 10
11.9715
 20
68.4278
 30
0.0
 10
8.8008
 20
61.7899
 30
0.0
 10
3.2553
 20
60.6763
 30
0.0
  0
SPLINE
  5
56
330
1F
100
AcDbEntity
  8
layer 1
 62
     7
100
AcDbSpline
210
0.0
220
0.0
230
1.0
 70
    11
 71
     3
 72
    20
 73
    16
 74
     0
 42
0.0000000001
 43
0.0000000001
 12
1.0
 22
0.0
 32
0.0
 13
1.0
 23
0.0
 33
0.0
 40
0.0
 40
0.0
 40
0.0
 40
0.0
 40
0.2
 40
0.2
 40
0.2
 40
0.2
 40
0.4
 40
0.4
 40
0.4
 40
0.4
 40
0.6
 40
0.6
 40
0.6
 40
0.6
 40
1.0
 40
1.0
 40
1.0
 40
1.0
 10
3.2553
 20
54.5932
 30
0.0
 10
8.8008
 20
53.4795
 30
0.0
 10
11.9715
 20
46.8415
 30
0.0
 10
8.7858
 20
40.6174
 30
0.0
 10
8.7858
 20
40.6174
 30
0.0
 10
11.6609
 20
41.8048
 30
0.0
 10
15.1327
 20
41.4796
 30
0.0
 10
17.514
 20
39.5087
 30
0.0
 10
17.514
 20
39.5087
 30
0.0
 10
15.5776
 20
46.5342
 30
0.0
 10
10.3391
 20
52.351
 30
0.0
 10
5.6448
 20
56.2301
 30
0.0
 10
5.6448
 20
56.2301
 30
0.0
 10
4.8416
 20
55.6407
 30
0.0
 10
4.0417
 20
55.0942
 30
0.0
 10
3.2553
 20
54.5932
 30
0.0
  0
SPLINE
  5
57
330
1F
100
AcDbEntity
  8
layer 1
 62
     7
100
AcDbSpline
210
0.0
220
0.0
230
1.0
 70
    11
 71
     3
 72
   132
 73
   128
 74
     0
 42
0.0000000001
 43
0.0000000001
 12
1.0
 22
0.0
 32
0.0
 13
1.0
 23
0.0
 33
0.0
 40
0.0
 40
0.0
 40
0.0
 40
0.0
 40
0.0303030303030303
 40
0.0303030303030303
 40
0.0303030303030303
 40
0.0303030303030303
 40
0.0606060606060606
 40
0.0606060606060606
 40
0.0606060606060606
 40
0.0606060606060606
 40
0.0909090909090909
 40
0.0909090909090909
 40
0.0909090909090909
 40
0.0909090909090909
 40
0.1212121212121212
 40
0.1212121212121212
 40
0.1212121212121212
 40
0.1212121212121212
 40
0.1515151515151515
 40
0.1515151515151515
 40
0.1515151515151515
 40
0.1515151515151515
 40
0.1818181818181818
 40
0.1818181818181818
 40
0.1818181818181818
 40
0.1818181818181818
 40
0.2121212121212121
 40
0.2121212121212121
 40
0.2121212121212121
 40
0.2121212121212121
 40
0.2424242424242424
 40
0.2424242424242424
 40
0.2424242424242424
 40
0.2424242424242424
 40
0.2727272727272727
 40
0.2727272727272727
 40
0.2727272727272727
 40
0.2727272727272727
 40
0.303030303030303
 40
0.303030303030303
 40
0.303030303030303
 40
0.303030303030303
 40
0.3333333333333333
 40
0.3333333333333333
 40
0.3333333333333333
 40
0.3333333333333333
 40
0.3636363636363636
 40
0.3636363636363636
 40
0.3636363636363636
 40
0.3636363636363636
 40
0.3939393939393939
 40
0.3939393939393939
 40
0.3939393939393939
 40
0.3939393939393939
 40
0.4242424242424243
 40
0.4242424242424243
 40
0.4242424242424243
 40
0.4242424242424243
 40
0.4545454545454545
 40
0.4545454545454545
 40
0.4545454545454545
 40
0.4545454545454545
 40
0.4848484848484849
 40
0.4848484848484849
 40
0.4848484848484849
 40
0.4848484848484849
 40
0.5151515151515151
 40
0.5151515151515151
 40
0.5151515151515151
 40
0.5151515151515151
 40
0.5454545454545454
 40
0.5454545454545454
 40
0.5454545454545454
 40
0.5454545454545454
 40
0.5757575757575758
 40
0.5757575757575758
 40
0.5757575757575758
 40
0.5757575757575758
 40
0.6060606060606061
 40
0.6060606060606061
 40
0.6060606060606061
 40
0.6060606060606061
 40
0.6363636363636364
 40
0.6363636363636364
 40
0.6363636363636364
 40
0.6363636363636364
 40
0.6666666666666666
 40
0.6666666666666666
 40
0.6666666666666666
 40
0.6666666666666666
 40
0.696969696969697
 40
0.696969696969697
 40
0.696969696969697
 40
0.696969696969697
 40
0.7272727272727273
 40
0.7272727272727273
 40
0.7272727272727273
 40
0.7272727272727273
 40
0.7575757575757576
 40
0.7575757575757576
 40
0.7575757575757576
 40
0.7575757575757576
 40
0.7878787878787878
 40
0.7878787878787878
 40
0.7878787878787878
 40
0.7878787878787878
 40
0.8181818181818182
 40
0.8181818181818182
 40
0.8181818181818182
 40
0.8181818181818182
 40
0.8484848484848485
 40
0.8484848484848485
 40
0.8484848484848485
 40
0.8484848484848485
 40
0.8787878787878788
 40
0.8787878787878788
 40
0.8787878787878788
 40
0.8787878787878788
 40
0.9090909090909091
 40
0.9090909090909091
 40
0.9090909090909091
 40
0.9090909090909091
 40
0.9393939393939394
 40
0.9393939393939394
 40
0.9393939393939394
 40
0.9393939393939394
 40
1.0
 40
1.0
 40
1.0
 40
1.0
 10
-10.9563
 20
57.6349
 30
0.0
 10
-10.4221
 20
54.6997
 30
0.0
 10
-9.7908
 20
51.7909
 30
0.0
 10
-9.5235
 20
48.8033
 30
0.0
 10
-9.5235
 20
48.8033
 30
0.0
 10
-8.5824
 20
38.2788
 30
0.0
 10
1.2966
 20
38.76
 30
0.0
 10
0.7701
 20
45.0807
 30
0.0
 10
0.7701
 20
45.0807
 30
0.0
 10
0.6655
 20
46.3374
 30
0.0
 10
-0.0613
 20
46.9302
 30
0.0
 10
-0.9877
 20
47.706
 30
0.0
 10
-0.9877
 20
47.706
 30
0.0
 10
-2.7442
 20
49.1768
 30
0.0
 10
0.8462
 20
50.5691
 30
0.0
 10
3.2867
 20
48.107
 30
0.0
 10
3.2867
 20
48.107
 30
0.0
 10
6.5342
 20
44.8308
 30
0.0
 10
3.9629
 20
39.6148
 30
0.0
 10
-0.9684
 20
38.5046
 30
0.0
 10
-0.9684
 20
38.5046
 30
0.0
 10
-4.951
 20
37.6081
 30
0.0
 10
-9.1697
 20
40.4447
 30
0.0
 10
-10.5913
 20
43.7771
 30
0.0
 10
-10.5913
 20
43.7771
 30
0.0
 10
-11.1654
 20
45.1233
 30
0.0
 10
-11.4039
 20
46.6219
 30
0.0
 10
-11.5577
 20
48.103
 30
0.0
 10
-11.5577
 20
48.103
 30
0.0
 10
-11.5577
 20
48.103
 30
0.0
 10
-11.5586
 20
48.1032
 30
0.0
 10
-11.5586
 20
48.1032
 30
0.0
 10
-11.5586
 20
48.1032
 30
0.0
 10
-11.9157
 20
45.6507
 30
0.0
 10
-14.8397
 20
44.9574
 30
0.0
 10
-17.0152
 20
46.309
 30
0.0
 10
-17.0152
 20
46.309
 30
0.0
 10
-15.2203
 20
42.3578
 30
0.0
 10
-12.2267
 20
38.6303
 30
0.0
 10
-7.8394
 20
36.9405
 30
0.0
 10
-7.8394
 20
36.9405
 30
0.0
 10
4.5777
 20
32.1584
 30
0.0
 10
11.8804
 20
45.1208
 30
0.0
 10
5.0403
 20
50.6464
 30
0.0
 10
5.0403
 20
50.6464
 30
0.0
 10
3.1409
 20
52.1804
 30
0.0
 10
0.447
 20
51.8382
 30
0.0
 10
-1.4099
 20
50.4041
 30
0.0
 10
-1.4099
 20
50.4041
 30
0.0
 10
-4.5042
 20
48.0143
 30
0.0
 10
-3.1748
 20
45.1255
 30
0.0
 10
-4.5115
 20
44.6788
 30
0.0
 10
-4.5115
 20
44.6788
 30
0.0
 10
-6.8637
 20
43.8925
 30
0.0
 10
-8.5821
 20
51.367
 30
0.0
 10
-1.9028
 20
54.0701
 30
0.0
 10
-1.9028
 20
54.0701
 30
0.0
 10
-1.9028
 20
54.0701
 30
0.0
 10
-1.9028
 20
54.0705
 30
0.0
 10
-1.9028
 20
54.0705
 30
0.0
 10
-1.9028
 20
54.0705
 30
0.0
 10
-0.6923
 20
54.5861
 30
0.0
 10
1.4324
 20
55.8135
 30
0.0
 10
3.8616
 20
57.6349
 30
0.0
 10
3.8616
 20
57.6349
 30
0.0
 10
1.4324
 20
59.456
 30
0.0
 10
-0.6923
 20
60.6833
 30
0.0
 10
-1.9028
 20
61.1992
 30
0.0
 10
-1.9028
 20
61.1992
 30
0.0
 10
-1.9028
 20
61.1992
 30
0.0
 10
-1.9028
 20
61.1992
 30
0.0
 10
-1.9028
 20
61.1992
 30
0.0
 10
-1.9028
 20
61.1992
 30
0.0
 10
-8.5821
 20
63.9023
 30
0.0
 10
-6.8637
 20
71.3771
 30
0.0
 10
-4.5115
 20
70.5909
 30
0.0
 10
-4.5115
 20
70.5909
 30
0.0
 10
-3.1748
 20
70.1439
 30
0.0
 10
-4.5042
 20
67.2554
 30
0.0
 10
-1.4099
 20
64.8656
 30
0.0
 10
-1.4099
 20
64.8656
 30
0.0
 10
0.447
 20
63.4313
 30
0.0
 10
3.1409
 20
63.0889
 30
0.0
 10
5.0403
 20
64.6231
 30
0.0
 10
5.0403
 20
64.6231
 30
0.0
 10
11.8804
 20
70.1485
 30
0.0
 10
4.5777
 20
83.1111
 30
0.0
 10
-7.8394
 20
78.3288
 30
0.0
 10
-7.8394
 20
78.3288
 30
0.0
 10
-12.2267
 20
76.639
 30
0.0
 10
-15.2203
 20
72.9115
 30
0.0
 10
-17.0152
 20
68.9603
 30
0.0
 10
-17.0152
 20
68.9603
 30
0.0
 10
-14.8397
 20
70.3119
 30
0.0
 10
-11.9157
 20
69.6184
 30
0.0
 10
-11.5586
 20
67.1661
 30
0.0
 10
-11.5586
 20
67.1661
 30
0.0
 10
-11.5586
 20
67.1661
 30
0.0
 10
-11.5577
 20
67.1665
 30
0.0
 10
-11.5577
 20
67.1665
 30
0.0
 10
-11.5577
 20
67.1665
 30
0.0
 10
-11.4039
 20
68.6478
 30
0.0
 10
-11.1654
 20
70.146
 30
0.0
 10
-10.5913
 20
71.492
 30
0.0
 10
-10.5913
 20
71.492
 30
0.0
 10
-9.1697
 20
74.8248
 30
0.0
 10
-4.951
 20
77.6613
 30
0.0
 10
-0.9684
 20
76.7648
 30
0.0
 10
-0.9684
 20
76.7648
 30
0.0
 10
3.9629
 20
75.6548
 30
0.0
 10
6.5342
 20
70.4386
 30
0.0
 10
3.2867
 20
67.1625
 30
0.0
 10
3.2867
 20
67.1625
 30
0.0
 10
0.8462
 20
64.7003
 30
0.0
 10
-2.7442
 20
66.0926
 30
0.0
 10
-0.9877
 20
67.5634
 30
0.0
 10
-0.9877
 20
67.5634
 30
0.0
 10
3.531
 20
71.3478
 30
0.0
 10
-1.2341
 20
77.2257
 30
0.0
 10
-6.2892
 20
73.4605
 30
0.0
 10
-6.2892
 20
73.4605
 30
0.0
 10
-8.8527
 20
71.551
 30
0.0
 10
-9.2664
 20
69.3413
 30
0.0
 10
-9.5235
 20
66.4664
 30
0.0
 10
-9.5235
 20
66.4664
 30
0.0
 10
-9.7908
 20
63.4784
 30
0.0
 10
-10.4221
 20
60.5699
 30
0.0
 10
-10.9563
 20
57.6349
 30
0.0
  0
SPLINE
  5
58
330
1F
100
AcDbEntity
  8
layer 1
 62
     7
100
AcDbSpline
210
0.0
220
0.0
230
1.0
 70
    11
 71
     3
 72
    32
 73
    28
 74
     0
 42
0.0000000001
 43
0.0000000001
 12
1.0
 22
0.0
 32
0.0
 13
1.0
 23
0.0
 33
0.0
 40
0.0
 40
0.0
 40
0.0
 40
0.0
 40
0.125
 40
0.125
 40
0.125
 40
0.125
 40
0.25
 40
0.25
 40
0.25
 40
0.25
 40
0.375
 40
0.375
 40
0.375
 40
0.375
 40
0.5
 40
0.5
 40
0.5
 40
0.5
 40
0.625
 40
0.625
 40
0.625
 40
0.625
 40
0.75
 40
0.75
 40
0.75
 40
0.75
 40
1.0
 40
1.0
 40
1.0
 40
1.0
 10
-12.4236
 20
60.1647
 30
0.0
 10
-11.9919
 20
60.7053
 30
0.0
 10
-11.7859
 20
64.6271
 30
0.0
 10
-11.7051
 20
65.5551
 30
0.0
 10
-11.7051
 20
65.5551
 30
0.0
 10
-11.7051
 20
65.5551
 30
0.0
 10
-11.7051
 20
65.5551
 30
0.0
 10
-11.7051
 20
65.5551
 30
0.0
 10
-11.7051
 20
65.5551
 30
0.0
 10
-11.7051
 20
65.5551
 30
0.0
 10
-11.7057
 20
65.556
 30
0.0
 10
-11.7057
 20
65.556
 30
0.0
 10
-11.7057
 20
65.556
 30
0.0
 10
-13.0615
 20
61.8016
 30
0.0
 10
-19.0796
 20
64.214
 30
0.0
 10
-17.1326
 20
67.1319
 30
0.0
 10
-17.1326
 20
67.1319
 30
0.0
 10
-17.1326
 20
67.1319
 30
0.0
 10
-17.1644
 20
67.1612
 30
0.0
 10
-17.1644
 20
67.1612
 30
0.0
 10
-17.1644
 20
67.1612
 30
0.0
 10
-18.8769
 20
65.4371
 30
0.0
 10
-19.0213
 20
62.9579
 30
0.0
 10
-19.3658
 20
60.759
 30
0.0
 10
-19.3658
 20
60.759
 30
0.0
 10
-17.4478
 20
63.341
 30
0.0
 10
-13.7234
 20
63.1142
 30
0.0
 10
-12.4236
 20
60.1647
 30
0.0
  0
SPLINE
  5
59
330
1F
100
AcDbEntity
  8
layer 1
 62
     7
100
AcDbSpline
210
0.0
220
0.0
230
1.0
 70
    11
 71
     3
 72
    12
 73
     8
 74
     0
 42
0.0000000001
 43
0.0000000001
 12
1.0
 22
0.0
 32
0.0
 13
1.0
 23
0.0
 33
0.0
 40
0.0
 40
0.0
 40
0.0
 40
0.0
 40
0.3333333333333333
 40
0.3333333333333333
 40
0.3333333333333333
 40
0.3333333333333333
 40
1.0
 40
1.0
 40
1.0
 40
1.0
 10
-17.4585
 20
54.7705
 30
0.0
 10
-14.449
 20
52.2061
 30
0.0
 10
-11.2798
 20
58.0133
 30
0.0
 10
-14.666
 20
60.6719
 30
0.0
 10
-14.666
 20
60.6719
 30
0.0
 10
-17.4937
 20
62.8925
 30
0.0
 10
-20.2858
 20
57.1795
 30
0.0
 10
-17.4585
 20
54.7705
 30
0.0
  0
SPLINE
  5
5A
330
1F
100
AcDbEntity
  8
layer 1
 62
     7
100
AcDbSpline
210
0.0
220
0.0
230
1.0
 70
    11
 71
     3
 72
    12
 73
     8
 74
     0
 42
0.0000000001
 43
0.0000000001
 12
1.0
 22
0.0
 32
0.0
 13
1.0
 23
0.0
 33
0.0
 40
0.0
 40
0.0
 40
0.0
 40
0.0
 40
0.3333333333333333
 40
0.3333333333333333
 40
0.3333333333333333
 40
0.3333333333333333
 40
1.0
 40
1.0
 40
1.0
 40
1.0
 10
12.3476
 20
33.0644
 30
0.0
 10
13.9289
 20
31.2035
 30
0.0
 10
17.6638
 20
32.4555
 30
0.0
 10
16.4604
 20
33.4515
 30
0.0
 10
16.4604
 20
33.4515
 30
0.0
 10
15.1615
 20
34.5263
 30
0.0
 10
13.3089
 20
34.1956
 30
0.0
 10
12.3476
 20
33.0644
 30
0.0
  0
SPLINE
  5
5B
330
1F
100
AcDbEntity
  8
layer 1
 62
     7
100
AcDbSpline
210
0.0
220
0.0
230
1.0
 70
    11
 71
     3
 72
    20
 73
    16
 74
     0
 42
0.0000000001
 43
0.0000000001
 12
1.0
 22
0.0
 32
0.0
 13
1.0
 23
0.0
 33
0.0
 40
0.0
 40
0.0
 40
0.0
 40
0.0
 40
0.2
 40
0.2
 40
0.2
 40
0.2
 40
0.4
 40
0.4
 40
0.4
 40
0.4
 40
0.6
 40
0.6
 40
0.6
 40
0.6
 40
1.0
 40
1.0
 40
1.0
 40
1.0
 10
12.3476
 20
82.2053
 30
0.0
 10
12.3476
 20
82.2053
 30
0.0
 10
12.3476
 20
82.2053
 30
0.0
 10
12.3476
 20
82.2053
 30
0.0
 10
12.3476
 20
82.2053
 30
0.0
 10
13.9289
 20
84.0662
 30
0.0
 10
17.6638
 20
82.8141
 30
0.0
 10
16.4604
 20
81.8179
 30
0.0
 10
16.4604
 20
81.8179
 30
0.0
 10
15.1615
 20
80.7432
 30
0.0
 10
13.3089
 20
81.0737
 30
0.0
 10
12.3476
 20
82.2053
 30
0.0
 10
12.3476
 20
82.2053
 30
0.0
 10
12.3476
 20
82.2053
 30
0.0
 10
12.3476
 20
82.2053
 30
0.0
 10
12.3476
 20
82.2053
 30
0.0
  0
SPLINE
  5
5C
330
1F
100
AcDbEntity
  8
layer 1
 62
     7
100
AcDbSpline
210
0.0
220
0.0
230
1.0
 70
    11
 71
     3
 72
    20
 73
    16
 74
     0
 42
0.0000000001
 43
0.0000000001
 12
1.0
 22
0.0
 32
0.0
 13
1.0
 23
0.0
 33
0.0
 40
0.0
 40
0.0
 40
0.0
 40
0.0
 40
0.2
 40
0.2
 40
0.2
 40
0.2
 40
0.4
 40
0.4
 40
0.4
 40
0.4
 40
0.6
 40
0.6
 40
0.6
 40
0.6
 40
1.0
 40
1.0
 40
1.0
 40
1.0
 10
-15.9365
 20
-51.0249
 30
0.0
 10
-15.9365
 20
-51.0249
 30
0.0
 10
-15.9851
 20
-51.0567
 30
0.0
 10
-15.9851
 20
-51.0567
 30
0.0
 10
-15.9851
 20
-51.0567
 30
0.0
 10
-14.1876
 20
-51.9192
 30
0.0
 10
-12.4579
 20
-50.5813
 30
0.0
 10
-13.3648
 20
-48.8321
 30
0.0
 10
-13.3648
 20
-48.8321
 30
0.0
 10
-13.8745
 20
-47.8492
 30
0.0
 10
-15.2347
 20
-48.0562
 30
0.0
 10
-15.3485
 20
-49.1467
 30
0.0
 10
-15.3485
 20
-49.1467
 30
0.0
 10
-15.3693
 20
-49.3441
 30
0.0
 10
-13.3776
 20
-51.8139
 30
0.0
 10
-15.9365
 20
-51.0249
 30
0.0
  0
SPLINE
  5
5D
330
1F
100
AcDbEntity
  8
layer 1
 62
     7
100
AcDbSpline
210
0.0
220
0.0
230
1.0
 70
    11
 71
     3
 72
    20
 73
    16
 74
     0
 42
0.0000000001
 43
0.0000000001
 12
1.0
 22
0.0
 32
0.0
 13
1.0
 23
0.0
 33
0.0
 40
0.0
 40
0.0
 40
0.0
 40
0.0
 40
0.2
 40
0.2
 40
0.2
 40
0.2
 40
0.4
 40
0.4
 40
0.4
 40
0.4
 40
0.6
 40
0.6
 40
0.6
 40
0.6
 40
1.0
 40
1.0
 40
1.0
 40
1.0
 10
-15.9365
 20
-30.2694
 30
0.0
 10
-15.9365
 20
-30.2694
 30
0.0
 10
-15.9851
 20
-30.2376
 30
0.0
 10
-15.9851
 20
-30.2376
 30
0.0
 10
-15.9851
 20
-30.2376
 30
0.0
 10
-14.1876
 20
-29.3751
 30
0.0
 10
-12.4579
 20
-30.7131
 30
0.0
 10
-13.3648
 20
-32.4619
 30
0.0
 10
-13.3648
 20
-32.4619
 30
0.0
 10
-13.8745
 20
-33.4452
 30
0.0
 10
-15.2347
 20
-33.2379
 30
0.0
 10
-15.3485
 20
-32.1477
 30
0.0
 10
-15.3485
 20
-32.1477
 30
0.0
 10
-15.3693
 20
-31.9501
 30
0.0
 10
-13.3776
 20
-29.4804
 30
0.0
 10
-15.9365
 20
-30.2694
 30
0.0
  0
SPLINE
  5
5E
330
1F
100
AcDbEntity
  8
layer 1
 62
     7
100
AcDbSpline
210
0.0
220
0.0
230
1.0
 70
    11
 71
     3
 72
    32
 73
    28
 74
     0
 42
0.0000000001
 43
0.0000000001
 12
1.0
 22
0.0
 32
0.0
 13
1.0
 23
0.0
 33
0.0
 40
0.0
 40
0.0
 40
0.0
 40
0.0
 40
0.125
 40
0.125
 40
0.125
 40
0.125
 40
0.25
 40
0.25
 40
0.25
 40
0.25
 40
0.375
 40
0.375
 40
0.375
 40
0.375
 40
0.5
 40
0.5
 40
0.5
 40
0.5
 40
0.625
 40
0.625
 40
0.625
 40
0.625
 40
0.75
 40
0.75
 40
0.75
 40
0.75
 40
1.0
 40
1.0
 40
1.0
 40
1.0
 10
-12.4236
 20
-43.177
 30
0.0
 10
-11.9919
 20
-43.7176
 30
0.0
 10
-11.7859
 20
-47.6394
 30
0.0
 10
-11.7051
 20
-48.5678
 30
0.0
 10
-11.7051
 20
-48.5678
 30
0.0
 10
-11.7051
 20
-48.5678
 30
0.0
 10
-11.7051
 20
-48.5678
 30
0.0
 10
-11.7051
 20
-48.5678
 30
0.0
 10
-11.7051
 20
-48.5678
 30
0.0
 10
-11.7051
 20
-48.5678
 30
0.0
 10
-11.7057
 20
-48.5683
 30
0.0
 10
-11.7057
 20
-48.5683
 30
0.0
 10
-11.7057
 20
-48.5683
 30
0.0
 10
-13.0615
 20
-44.814
 30
0.0
 10
-19.0796
 20
-47.2264
 30
0.0
 10
-17.1326
 20
-50.1442
 30
0.0
 10
-17.1326
 20
-50.1442
 30
0.0
 10
-17.1326
 20
-50.1442
 30
0.0
 10
-17.1644
 20
-50.1736
 30
0.0
 10
-17.1644
 20
-50.1736
 30
0.0
 10
-17.1644
 20
-50.1736
 30
0.0
 10
-18.8769
 20
-48.4494
 30
0.0
 10
-19.0213
 20
-45.9703
 30
0.0
 10
-19.3658
 20
-43.7714
 30
0.0
 10
-19.3658
 20
-43.7714
 30
0.0
 10
-17.4478
 20
-46.3537
 30
0.0
 10
-13.7234
 20
-46.1266
 30
0.0
 10
-12.4236
 20
-43.177
 30
0.0
  0
SPLINE
  5
5F
330
1F
100
AcDbEntity
  8
layer 1
 62
     7
100
AcDbSpline
210
0.0
220
0.0
230
1.0
 70
    11
 71
     3
 72
    20
 73
    16
 74
     0
 42
0.0000000001
 43
0.0000000001
 12
1.0
 22
0.0
 32
0.0
 13
1.0
 23
0.0
 33
0.0
 40
0.0
 40
0.0
 40
0.0
 40
0.0
 40
0.2
 40
0.2
 40
0.2
 40
0.2
 40
0.4
 40
0.4
 40
0.4
 40
0.4
 40
0.6
 40
0.6
 40
0.6
 40
0.6
 40
1.0
 40
1.0
 40
1.0
 40
1.0
 10
3.2553
 20
-37.6059
 30
0.0
 10
4.0417
 20
-38.1066
 30
0.0
 10
4.8416
 20
-38.6533
 30
0.0
 10
5.6448
 20
-39.2426
 30
0.0
 10
5.6448
 20
-39.2426
 30
0.0
 10
10.3391
 20
-35.3633
 30
0.0
 10
15.5776
 20
-29.5465
 30
0.0
 10
17.514
 20
-22.521
 30
0.0
 10
17.514
 20
-22.521
 30
0.0
 10
15.1327
 20
-24.4922
 30
0.0
 10
11.6609
 20
-24.8175
 30
0.0
 10
8.7858
 20
-23.6297
 30
0.0
 10
8.7858
 20
-23.6297
 30
0.0
 10
11.9715
 20
-29.854
 30
0.0
 10
8.8008
 20
-36.4918
 30
0.0
 10
3.2553
 20
-37.6059
 30
0.0
  0
SPLINE
  5
60
330
1F
100
AcDbEntity
  8
layer 1
 62
     7
100
AcDbSpline
210
0.0
220
0.0
230
1.0
 70
    11
 71
     3
 72
    20
 73
    16
 74
     0
 42
0.0000000001
 43
0.0000000001
 12
1.0
 22
0.0
 32
0.0
 13
1.0
 23
0.0
 33
0.0
 40
0.0
 40
0.0
 40
0.0
 40
0.0
 40
0.2
 40
0.2
 40
0.2
 40
0.2
 40
0.4
 40
0.4
 40
0.4
 40
0.4
 40
0.6
 40
0.6
 40
0.6
 40
0.6
 40
1.0
 40
1.0
 40
1.0
 40
1.0
 10
3.2553
 20
-43.6886
 30
0.0
 10
8.8008
 20
-44.8022
 30
0.0
 10
11.9715
 20
-51.4401
 30
0.0
 10
8.7858
 20
-57.6644
 30
0.0
 10
8.7858
 20
-57.6644
 30
0.0
 10
11.6609
 20
-56.4768
 30
0.0
 10
15.1327
 20
-56.8022
 30
0.0
 10
17.514
 20
-58.7731
 30
0.0
 10
17.514
 20
-58.7731
 30
0.0
 10
15.5776
 20
-51.7478
 30
0.0
 10
10.3391
 20
-45.9308
 30
0.0
 10
5.6448
 20
-42.0516
 30
0.0
 10
5.6448
 20
-42.0516
 30
0.0
 10
4.8416
 20
-42.641
 30
0.0
 10
4.0417
 20
-43.1875
 30
0.0
 10
3.2553
 20
-43.6886
 30
0.0
  0
SPLINE
  5
61
330
1F
100
AcDbEntity
  8
layer 1
 62
     7
100
AcDbSpline
210
0.0
220
0.0
230
1.0
 70
    11
 71
     3
 72
   132
 73
   128
 74
     0
 42
0.0000000001
 43
0.0000000001
 12
1.0
 22
0.0
 32
0.0
 13
1.0
 23
0.0
 33
0.0
 40
0.0
 40
0.0
 40
0.0
 40
0.0
 40
0.0303030303030303
 40
0.0303030303030303
 40
0.0303030303030303
 40
0.0303030303030303
 40
0.0606060606060606
 40
0.0606060606060606
 40
0.0606060606060606
 40
0.0606060606060606
 40
0.0909090909090909
 40
0.0909090909090909
 40
0.0909090909090909
 40
0.0909090909090909
 40
0.1212121212121212
 40
0.1212121212121212
 40
0.1212121212121212
 40
0.1212121212121212
 40
0.1515151515151515
 40
0.1515151515151515
 40
0.1515151515151515
 40
0.1515151515151515
 40
0.1818181818181818
 40
0.1818181818181818
 40
0.1818181818181818
 40
0.1818181818181818
 40
0.2121212121212121
 40
0.2121212121212121
 40
0.2121212121212121
 40
0.2121212121212121
 40
0.2424242424242424
 40
0.2424242424242424
 40
0.2424242424242424
 40
0.2424242424242424
 40
0.2727272727272727
 40
0.2727272727272727
 40
0.2727272727272727
 40
0.2727272727272727
 40
0.303030303030303
 40
0.303030303030303
 40
0.303030303030303
 40
0.303030303030303
 40
0.3333333333333333
 40
0.3333333333333333
 40
0.3333333333333333
 40
0.3333333333333333
 40
0.3636363636363636
 40
0.3636363636363636
 40
0.3636363636363636
 40
0.3636363636363636
 40
0.3939393939393939
 40
0.3939393939393939
 40
0.3939393939393939
 40
0.3939393939393939
 40
0.4242424242424243
 40
0.4242424242424243
 40
0.4242424242424243
 40
0.4242424242424243
 40
0.4545454545454545
 40
0.4545454545454545
 40
0.4545454545454545
 40
0.4545454545454545
 40
0.4848484848484849
 40
0.4848484848484849
 40
0.4848484848484849
 40
0.4848484848484849
 40
0.5151515151515151
 40
0.5151515151515151
 40
0.5151515151515151
 40
0.5151515151515151
 40
0.5454545454545454
 40
0.5454545454545454
 40
0.5454545454545454
 40
0.5454545454545454
 40
0.5757575757575758
 40
0.5757575757575758
 40
0.5757575757575758
 40
0.5757575757575758
 40
0.6060606060606061
 40
0.6060606060606061
 40
0.6060606060606061
 40
0.6060606060606061
 40
0.6363636363636364
 40
0.6363636363636364
 40
0.6363636363636364
 40
0.6363636363636364
 40
0.6666666666666666
 40
0.6666666666666666
 40
0.6666666666666666
 40
0.6666666666666666
 40
0.696969696969697
 40
0.696969696969697
 40
0.696969696969697
 40
0.696969696969697
 40
0.7272727272727273
 40
0.7272727272727273
 40
0.7272727272727273
 40
0.7272727272727273
 40
0.7575757575757576
 40
0.7575757575757576
 40
0.7575757575757576
 40
0.7575757575757576
 40
0.7878787878787878
 40
0.7878787878787878
 40
0.7878787878787878
 40
0.7878787878787878
 40
0.8181818181818182
 40
0.8181818181818182
 40
0.8181818181818182
 40
0.8181818181818182
 40
0.8484848484848485
 40
0.8484848484848485
 40
0.8484848484848485
 40
0.8484848484848485
 40
0.8787878787878788
 40
0.8787878787878788
 40
0.8787878787878788
 40
0.8787878787878788
 40
0.9090909090909091
 40
0.9090909090909091
 40
0.9090909090909091
 40
0.9090909090909091
 40
0.9393939393939394
 40
0.9393939393939394
 40
0.9393939393939394
 40
0.9393939393939394
 40
1.0
 40
1.0
 40
1.0
 40
1.0
 10
-10.9563
 20
-40.6472
 30
0.0
 10
-10.4221
 20
-43.5823
 30
0.0
 10
-9.7908
 20
-46.4909
 30
0.0
 10
-9.5235
 20
-49.4788
 30
0.0
 10
-9.5235
 20
-49.4788
 30
0.0
 10
-8.5824
 20
-60.003
 30
0.0
 10
1.2966
 20
-59.5216
 30
0.0
 10
0.7701
 20
-53.201
 30
0.0
 10
0.7701
 20
-53.201
 30
0.0
 10
0.6655
 20
-51.9443
 30
0.0
 10
-0.0613
 20
-51.3518
 30
0.0
 10
-0.9877
 20
-50.5758
 30
0.0
 10
-0.9877
 20
-50.5758
 30
0.0
 10
-2.7442
 20
-49.105
 30
0.0
 10
0.8462
 20
-47.7126
 30
0.0
 10
3.2867
 20
-50.1748
 30
0.0
 10
3.2867
 20
-50.1748
 30
0.0
 10
6.5342
 20
-53.451
 30
0.0
 10
3.9629
 20
-58.6672
 30
0.0
 10
-0.9684
 20
-59.7771
 30
0.0
 10
-0.9684
 20
-59.7771
 30
0.0
 10
-4.951
 20
-60.6736
 30
0.0
 10
-9.1697
 20
-57.8371
 30
0.0
 10
-10.5913
 20
-54.5047
 30
0.0
 10
-10.5913
 20
-54.5047
 30
0.0
 10
-11.1654
 20
-53.1584
 30
0.0
 10
-11.4039
 20
-51.6601
 30
0.0
 10
-11.5577
 20
-50.1788
 30
0.0
 10
-11.5577
 20
-50.1788
 30
0.0
 10
-11.5577
 20
-50.1788
 30
0.0
 10
-11.5586
 20
-50.1785
 30
0.0
 10
-11.5586
 20
-50.1785
 30
0.0
 10
-11.5586
 20
-50.1785
 30
0.0
 10
-11.9157
 20
-52.6311
 30
0.0
 10
-14.8397
 20
-53.3246
 30
0.0
 10
-17.0152
 20
-51.9727
 30
0.0
 10
-17.0152
 20
-51.9727
 30
0.0
 10
-15.2203
 20
-55.9239
 30
0.0
 10
-12.2267
 20
-59.6514
 30
0.0
 10
-7.8394
 20
-61.3412
 30
0.0
 10
-7.8394
 20
-61.3412
 30
0.0
 10
4.5777
 20
-66.1234
 30
0.0
 10
11.8804
 20
-53.1612
 30
0.0
 10
5.0403
 20
-47.6354
 30
0.0
 10
5.0403
 20
-47.6354
 30
0.0
 10
3.1409
 20
-46.1012
 30
0.0
 10
0.447
 20
-46.4439
 30
0.0
 10
-1.4099
 20
-47.8779
 30
0.0
 10
-1.4099
 20
-47.8779
 30
0.0
 10
-4.5042
 20
-50.2677
 30
0.0
 10
-3.1748
 20
-53.1566
 30
0.0
 10
-4.5115
 20
-53.6032
 30
0.0
 10
-4.5115
 20
-53.6032
 30
0.0
 10
-6.8637
 20
-54.3895
 30
0.0
 10
-8.5821
 20
-46.9147
 30
0.0
 10
-1.9028
 20
-44.2115
 30
0.0
 10
-1.9028
 20
-44.2115
 30
0.0
 10
-1.9028
 20
-44.2115
 30
0.0
 10
-1.9028
 20
-44.2115
 30
0.0
 10
-1.9028
 20
-44.2115
 30
0.0
 10
-1.9028
 20
-44.2115
 30
0.0
 10
-0.6923
 20
-43.6957
 30
0.0
 10
1.4324
 20
-42.4687
 30
0.0
 10
3.8616
 20
-40.6472
 30
0.0
 10
3.8616
 20
-40.6472
 30
0.0
 10
1.4324
 20
-38.8258
 30
0.0
 10
-0.6923
 20
-37.5984
 30
0.0
 10
-1.9028
 20
-37.0828
 30
0.0
 10
-1.9028
 20
-37.0828
 30
0.0
 10
-1.9028
 20
-37.0828
 30
0.0
 10
-1.9028
 20
-37.0825
 30
0.0
 10
-1.9028
 20
-37.0825
 30
0.0
 10
-1.9028
 20
-37.0825
 30
0.0
 10
-8.5821
 20
-34.3794
 30
0.0
 10
-6.8637
 20
-26.9049
 30
0.0
 10
-4.5115
 20
-27.6911
 30
0.0
 10
-4.5115
 20
-27.6911
 30
0.0
 10
-3.1748
 20
-28.1379
 30
0.0
 10
-4.5042
 20
-31.0266
 30
0.0
 10
-1.4099
 20
-33.4165
 30
0.0
 10
-1.4099
 20
-33.4165
 30
0.0
 10
0.447
 20
-34.8505
 30
0.0
 10
3.1409
 20
-35.1931
 30
0.0
 10
5.0403
 20
-33.6587
 30
0.0
 10
5.0403
 20
-33.6587
 30
0.0
 10
11.8804
 20
-28.1332
 30
0.0
 10
4.5777
 20
-15.171
 30
0.0
 10
-7.8394
 20
-19.9528
 30
0.0
 10
-7.8394
 20
-19.9528
 30
0.0
 10
-12.2267
 20
-21.6427
 30
0.0
 10
-15.2203
 20
-25.3701
 30
0.0
 10
-17.0152
 20
-29.3217
 30
0.0
 10
-17.0152
 20
-29.3217
 30
0.0
 10
-14.8397
 20
-27.9698
 30
0.0
 10
-11.9157
 20
-28.6634
 30
0.0
 10
-11.5586
 20
-31.1156
 30
0.0
 10
-11.5586
 20
-31.1156
 30
0.0
 10
-11.5586
 20
-31.1156
 30
0.0
 10
-11.5577
 20
-31.1156
 30
0.0
 10
-11.5577
 20
-31.1156
 30
0.0
 10
-11.5577
 20
-31.1156
 30
0.0
 10
-11.4039
 20
-29.6343
 30
0.0
 10
-11.1654
 20
-28.136
 30
0.0
 10
-10.5913
 20
-26.7896
 30
0.0
 10
-10.5913
 20
-26.7896
 30
0.0
 10
-9.1697
 20
-23.4574
 30
0.0
 10
-4.951
 20
-20.6205
 30
0.0
 10
-0.9684
 20
-21.5169
 30
0.0
 10
-0.9684
 20
-21.5169
 30
0.0
 10
3.9629
 20
-22.6272
 30
0.0
 10
6.5342
 20
-27.8435
 30
0.0
 10
3.2867
 20
-31.1193
 30
0.0
 10
3.2867
 20
-31.1193
 30
0.0
 10
0.8462
 20
-33.5814
 30
0.0
 10
-2.7442
 20
-32.1891
 30
0.0
 10
-0.9877
 20
-30.7183
 30
0.0
 10
-0.9877
 20
-30.7183
 30
0.0
 10
3.531
 20
-26.9343
 30
0.0
 10
-1.2341
 20
-21.0563
 30
0.0
 10
-6.2892
 20
-24.8212
 30
0.0
 10
-6.2892
 20
-24.8212
 30
0.0
 10
-8.8527
 20
-26.7307
 30
0.0
 10
-9.2664
 20
-28.9405
 30
0.0
 10
-9.5235
 20
-31.8156
 30
0.0
 10
-9.5235
 20
-31.8156
 30
0.0
 10
-9.7908
 20
-34.8036
 30
0.0
 10
-10.4221
 20
-37.7121
 30
0.0
 10
-10.9563
 20
-40.6472
 30
0.0
  0
SPLINE
  5
62
330
1F
100
AcDbEntity
  8
layer 1
 62
     7
100
AcDbSpline
210
0.0
220
0.0
230
1.0
 70
    11
 71
     3
 72
    32
 73
    28
 74
     0
 42
0.0000000001
 43
0.0000000001
 12
1.0
 22
0.0
 32
0.0
 13
1.0
 23
0.0
 33
0.0
 40
0.0
 40
0.0
 40
0.0
 40
0.0
 40
0.125
 40
0.125
 40
0.125
 40
0.125
 40
0.25
 40
0.25
 40
0.25
 40
0.25
 40
0.375
 40
0.375
 40
0.375
 40
0.375
 40
0.5
 40
0.5
 40
0.5
 40
0.5
 40
0.625
 40
0.625
 40
0.625
 40
0.625
 40
0.75
 40
0.75
 40
0.75
 40
0.75
 40
1.0
 40
1.0
 40
1.0
 40
1.0
 10
-12.4236
 20
-38.1171
 30
0.0
 10
-11.9919
 20
-37.5764
 30
0.0
 10
-11.7859
 20
-33.655
 30
0.0
 10
-11.7051
 20
-32.7267
 30
0.0
 10
-11.7051
 20
-32.7267
 30
0.0
 10
-11.7051
 20
-32.7267
 30
0.0
 10
-11.7051
 20
-32.7267
 30
0.0
 10
-11.7051
 20
-32.7267
 30
0.0
 10
-11.7051
 20
-32.7267
 30
0.0
 10
-11.7051
 20
-32.7267
 30
0.0
 10
-11.7057
 20
-32.726
 30
0.0
 10
-11.7057
 20
-32.726
 30
0.0
 10
-11.7057
 20
-32.726
 30
0.0
 10
-13.0615
 20
-36.4801
 30
0.0
 10
-19.0796
 20
-34.0677
 30
0.0
 10
-17.1326
 20
-31.1502
 30
0.0
 10
-17.1326
 20
-31.1502
 30
0.0
 10
-17.1326
 20
-31.1502
 30
0.0
 10
-17.1644
 20
-31.1209
 30
0.0
 10
-17.1644
 20
-31.1209
 30
0.0
 10
-17.1644
 20
-31.1209
 30
0.0
 10
-18.8769
 20
-32.8447
 30
0.0
 10
-19.0213
 20
-35.3241
 30
0.0
 10
-19.3658
 20
-37.523
 30
0.0
 10
-19.3658
 20
-37.523
 30
0.0
 10
-17.4478
 20
-34.9407
 30
0.0
 10
-13.7234
 20
-35.1674
 30
0.0
 10
-12.4236
 20
-38.1171
 30
0.0
  0
SPLINE
  5
63
330
1F
100
AcDbEntity
  8
layer 1
 62
     7
100
AcDbSpline
210
0.0
220
0.0
230
1.0
 70
    11
 71
     3
 72
    12
 73
     8
 74
     0
 42
0.0000000001
 43
0.0000000001
 12
1.0
 22
0.0
 32
0.0
 13
1.0
 23
0.0
 33
0.0
 40
0.0
 40
0.0
 40
0.0
 40
0.0
 40
0.3333333333333333
 40
0.3333333333333333
 40
0.3333333333333333
 40
0.3333333333333333
 40
1.0
 40
1.0
 40
1.0
 40
1.0
 10
-17.4585
 20
-43.5112
 30
0.0
 10
-14.449
 20
-46.0757
 30
0.0
 10
-11.2798
 20
-40.2685
 30
0.0
 10
-14.666
 20
-37.6099
 30
0.0
 10
-14.666
 20
-37.6099
 30
0.0
 10
-17.4937
 20
-35.3893
 30
0.0
 10
-20.2858
 20
-41.1026
 30
0.0
 10
-17.4585
 20
-43.5112
 30
0.0
  0
SPLINE
  5
64
330
1F
100
AcDbEntity
  8
layer 1
 62
     7
100
AcDbSpline
210
0.0
220
0.0
230
1.0
 70
    11
 71
     3
 72
    20
 73
    16
 74
     0
 42
0.0000000001
 43
0.0000000001
 12
1.0
 22
0.0
 32
0.0
 13
1.0
 23
0.0
 33
0.0
 40
0.0
 40
0.0
 40
0.0
 40
0.0
 40
0.2
 40
0.2
 40
0.2
 40
0.2
 40
0.4
 40
0.4
 40
0.4
 40
0.4
 40
0.6
 40
0.6
 40
0.6
 40
0.6
 40
1.0
 40
1.0
 40
1.0
 40
1.0
 10
-15.9365
 20
-79.4103
 30
0.0
 10
-15.9365
 20
-79.4103
 30
0.0
 10
-15.9851
 20
-79.3785
 30
0.0
 10
-15.9851
 20
-79.3785
 30
0.0
 10
-15.9851
 20
-79.3785
 30
0.0
 10
-14.1876
 20
-78.516
 30
0.0
 10
-12.4579
 20
-79.8539
 30
0.0
 10
-13.3648
 20
-81.6027
 30
0.0
 10
-13.3648
 20
-81.6027
 30
0.0
 10
-13.8745
 20
-82.5861
 30
0.0
 10
-15.2347
 20
-82.3788
 30
0.0
 10
-15.3485
 20
-81.2886
 30
0.0
 10
-15.3485
 20
-81.2886
 30
0.0
 10
-15.3693
 20
-81.0908
 30
0.0
 10
-13.3776
 20
-78.6213
 30
0.0
 10
-15.9365
 20
-79.4103
 30
0.0
  0
SPLINE
  5
65
330
1F
100
AcDbEntity
  8
layer 1
 62
     7
100
AcDbSpline
210
0.0
220
0.0
230
1.0
 70
    11
 71
     3
 72
    20
 73
    16
 74
     0
 42
0.0000000001
 43
0.0000000001
 12
1.0
 22
0.0
 32
0.0
 13
1.0
 23
0.0
 33
0.0
 40
0.0
 40
0.0
 40
0.0
 40
0.0
 40
0.2
 40
0.2
 40
0.2
 40
0.2
 40
0.4
 40
0.4
 40
0.4
 40
0.4
 40
0.6
 40
0.6
 40
0.6
 40
0.6
 40
1.0
 40
1.0
 40
1.0
 40
1.0
 10
-15.9365
 20
-100.1658
 30
0.0
 10
-15.9365
 20
-100.1658
 30
0.0
 10
-15.9851
 20
-100.1976
 30
0.0
 10
-15.9851
 20
-100.1976
 30
0.0
 10
-15.9851
 20
-100.1976
 30
0.0
 10
-14.1876
 20
-101.0601
 30
0.0
 10
-12.4579
 20
-99.7222
 30
0.0
 10
-13.3648
 20
-97.973
 30
0.0
 10
-13.3648
 20
-97.973
 30
0.0
 10
-13.8745
 20
-96.99
 30
0.0
 10
-15.2347
 20
-97.1971
 30
0.0
 10
-15.3485
 20
-98.2875
 30
0.0
 10
-15.3485
 20
-98.2875
 30
0.0
 10
-15.3693
 20
-98.485
 30
0.0
 10
-13.3776
 20
-100.9548
 30
0.0
 10
-15.9365
 20
-100.1658
 30
0.0
  0
SPLINE
  5
66
330
1F
100
AcDbEntity
  8
layer 1
 62
     7
100
AcDbSpline
210
0.0
220
0.0
230
1.0
 70
    11
 71
     3
 72
    32
 73
    28
 74
     0
 42
0.0000000001
 43
0.0000000001
 12
1.0
 22
0.0
 32
0.0
 13
1.0
 23
0.0
 33
0.0
 40
0.0
 40
0.0
 40
0.0
 40
0.0
 40
0.125
 40
0.125
 40
0.125
 40
0.125
 40
0.25
 40
0.25
 40
0.25
 40
0.25
 40
0.375
 40
0.375
 40
0.375
 40
0.375
 40
0.5
 40
0.5
 40
0.5
 40
0.5
 40
0.625
 40
0.625
 40
0.625
 40
0.625
 40
0.75
 40
0.75
 40
0.75
 40
0.75
 40
1.0
 40
1.0
 40
1.0
 40
1.0
 10
-12.4236
 20
-87.258
 30
0.0
 10
-11.9919
 20
-86.7173
 30
0.0
 10
-11.7859
 20
-82.7955
 30
0.0
 10
-11.7051
 20
-81.8675
 30
0.0
 10
-11.7051
 20
-81.8675
 30
0.0
 10
-11.7051
 20
-81.8675
 30
0.0
 10
-11.7051
 20
-81.8675
 30
0.0
 10
-11.7051
 20
-81.8675
 30
0.0
 10
-11.7051
 20
-81.8675
 30
0.0
 10
-11.7051
 20
-81.8675
 30
0.0
 10
-11.7057
 20
-81.8666
 30
0.0
 10
-11.7057
 20
-81.8666
 30
0.0
 10
-11.7057
 20
-81.8666
 30
0.0
 10
-13.0615
 20
-85.621
 30
0.0
 10
-19.0796
 20
-83.2089
 30
0.0
 10
-17.1326
 20
-80.2908
 30
0.0
 10
-17.1326
 20
-80.2908
 30
0.0
 10
-17.1326
 20
-80.2908
 30
0.0
 10
-17.1644
 20
-80.2617
 30
0.0
 10
-17.1644
 20
-80.2617
 30
0.0
 10
-17.1644
 20
-80.2617
 30
0.0
 10
-18.8769
 20
-81.9855
 30
0.0
 10
-19.0213
 20
-84.465
 30
0.0
 10
-19.3658
 20
-86.6639
 30
0.0
 10
-19.3658
 20
-86.6639
 30
0.0
 10
-17.4478
 20
-84.0815
 30
0.0
 10
-13.7234
 20
-84.3083
 30
0.0
 10
-12.4236
 20
-87.258
 30
0.0
  0
SPLINE
  5
67
330
1F
100
AcDbEntity
  8
layer 1
 62
     7
100
AcDbSpline
210
0.0
220
0.0
230
1.0
 70
    11
 71
     3
 72
    20
 73
    16
 74
     0
 42
0.0000000001
 43
0.0000000001
 12
1.0
 22
0.0
 32
0.0
 13
1.0
 23
0.0
 33
0.0
 40
0.0
 40
0.0
 40
0.0
 40
0.0
 40
0.2
 40
0.2
 40
0.2
 40
0.2
 40
0.4
 40
0.4
 40
0.4
 40
0.4
 40
0.6
 40
0.6
 40
0.6
 40
0.6
 40
1.0
 40
1.0
 40
1.0
 40
1.0
 10
3.2553
 20
-92.8295
 30
0.0
 10
4.0417
 20
-92.3284
 30
0.0
 10
4.8416
 20
-91.7819
 30
0.0
 10
5.6448
 20
-91.1924
 30
0.0
 10
5.6448
 20
-91.1924
 30
0.0
 10
10.3391
 20
-95.0716
 30
0.0
 10
15.5776
 20
-100.8887
 30
0.0
 10
17.514
 20
-107.914
 30
0.0
 10
17.514
 20
-107.914
 30
0.0
 10
15.1327
 20
-105.943
 30
0.0
 10
11.6609
 20
-105.6177
 30
0.0
 10
8.7858
 20
-106.8055
 30
0.0
 10
8.7858
 20
-106.8055
 30
0.0
 10
11.9715
 20
-100.581
 30
0.0
 10
8.8008
 20
-93.9431
 30
0.0
 10
3.2553
 20
-92.8295
 30
0.0
  0
SPLINE
  5
68
330
1F
100
AcDbEntity
  8
layer 1
 62
     7
100
AcDbSpline
210
0.0
220
0.0
230
1.0
 70
    11
 71
     3
 72
    20
 73
    16
 74
     0
 42
0.0000000001
 43
0.0000000001
 12
1.0
 22
0.0
 32
0.0
 13
1.0
 23
0.0
 33
0.0
 40
0.0
 40
0.0
 40
0.0
 40
0.0
 40
0.2
 40
0.2
 40
0.2
 40
0.2
 40
0.4
 40
0.4
 40
0.4
 40
0.4
 40
0.6
 40
0.6
 40
0.6
 40
0.6
 40
1.0
 40
1.0
 40
1.0
 40
1.0
 10
3.2553
 20
-86.7466
 30
0.0
 10
8.8008
 20
-85.6327
 30
0.0
 10
11.9715
 20
-78.9948
 30
0.0
 10
8.7858
 20
-72.7706
 30
0.0
 10
8.7858
 20
-72.7706
 30
0.0
 10
11.6609
 20
-73.9581
 30
0.0
 10
15.1327
 20
-73.6331
 30
0.0
 10
17.514
 20
-71.6621
 30
0.0
 10
17.514
 20
-71.6621
 30
0.0
 10
15.5776
 20
-78.6874
 30
0.0
 10
10.3391
 20
-84.5042
 30
0.0
 10
5.6448
 20
-88.3837
 30
0.0
 10
5.6448
 20
-88.3837
 30
0.0
 10
4.8416
 20
-87.7942
 30
0.0
 10
4.0417
 20
-87.2474
 30
0.0
 10
3.2553
 20
-86.7466
 30
0.0
  0
SPLINE
  5
69
330
1F
100
AcDbEntity
  8
layer 1
 62
     7
100
AcDbSpline
210
0.0
220
0.0
230
1.0
 70
    11
 71
     3
 72
   132
 73
   128
 74
     0
 42
0.0000000001
 43
0.0000000001
 12
1.0
 22
0.0
 32
0.0
 13
1.0
 23
0.0
 33
0.0
 40
0.0
 40
0.0
 40
0.0
 40
0.0
 40
0.0303030303030303
 40
0.0303030303030303
 40
0.0303030303030303
 40
0.0303030303030303
 40
0.0606060606060606
 40
0.0606060606060606
 40
0.0606060606060606
 40
0.0606060606060606
 40
0.0909090909090909
 40
0.0909090909090909
 40
0.0909090909090909
 40
0.0909090909090909
 40
0.1212121212121212
 40
0.1212121212121212
 40
0.1212121212121212
 40
0.1212121212121212
 40
0.1515151515151515
 40
0.1515151515151515
 40
0.1515151515151515
 40
0.1515151515151515
 40
0.1818181818181818
 40
0.1818181818181818
 40
0.1818181818181818
 40
0.1818181818181818
 40
0.2121212121212121
 40
0.2121212121212121
 40
0.2121212121212121
 40
0.2121212121212121
 40
0.2424242424242424
 40
0.2424242424242424
 40
0.2424242424242424
 40
0.2424242424242424
 40
0.2727272727272727
 40
0.2727272727272727
 40
0.2727272727272727
 40
0.2727272727272727
 40
0.303030303030303
 40
0.303030303030303
 40
0.303030303030303
 40
0.303030303030303
 40
0.3333333333333333
 40
0.3333333333333333
 40
0.3333333333333333
 40
0.3333333333333333
 40
0.3636363636363636
 40
0.3636363636363636
 40
0.3636363636363636
 40
0.3636363636363636
 40
0.3939393939393939
 40
0.3939393939393939
 40
0.3939393939393939
 40
0.3939393939393939
 40
0.4242424242424243
 40
0.4242424242424243
 40
0.4242424242424243
 40
0.4242424242424243
 40
0.4545454545454545
 40
0.4545454545454545
 40
0.4545454545454545
 40
0.4545454545454545
 40
0.4848484848484849
 40
0.4848484848484849
 40
0.4848484848484849
 40
0.4848484848484849
 40
0.5151515151515151
 40
0.5151515151515151
 40
0.5151515151515151
 40
0.5151515151515151
 40
0.5454545454545454
 40
0.5454545454545454
 40
0.5454545454545454
 40
0.5454545454545454
 40
0.5757575757575758
 40
0.5757575757575758
 40
0.5757575757575758
 40
0.5757575757575758
 40
0.6060606060606061
 40
0.6060606060606061
 40
0.6060606060606061
 40
0.6060606060606061
 40
0.6363636363636364
 40
0.6363636363636364
 40
0.6363636363636364
 40
0.6363636363636364
 40
0.6666666666666666
 40
0.6666666666666666
 40
0.6666666666666666
 40
0.6666666666666666
 40
0.696969696969697
 40
0.696969696969697
 40
0.696969696969697
 40
0.696969696969697
 40
0.7272727272727273
 40
0.7272727272727273
 40
0.7272727272727273
 40
0.7272727272727273
 40
0.7575757575757576
 40
0.7575757575757576
 40
0.7575757575757576
 40
0.7575757575757576
 40
0.7878787878787878
 40
0.7878787878787878
 40
0.7878787878787878
 40
0.7878787878787878
 40
0.8181818181818182
 40
0.8181818181818182
 40
0.8181818181818182
 40
0.8181818181818182
 40
0.8484848484848485
 40
0.8484848484848485
 40
0.8484848484848485
 40
0.8484848484848485
 40
0.8787878787878788
 40
0.8787878787878788
 40
0.8787878787878788
 40
0.8787878787878788
 40
0.9090909090909091
 40
0.9090909090909091
 40
0.9090909090909091
 40
0.9090909090909091
 40
0.9393939393939394
 40
0.9393939393939394
 40
0.9393939393939394
 40
0.9393939393939394
 40
1.0
 40
1.0
 40
1.0
 40
1.0
 10
-10.9563
 20
-89.788
 30
0.0
 10
-10.4221
 20
-86.853
 30
0.0
 10
-9.7908
 20
-83.9445
 30
0.0
 10
-9.5235
 20
-80.9565
 30
0.0
 10
-9.5235
 20
-80.9565
 30
0.0
 10
-8.5824
 20
-70.432
 30
0.0
 10
1.2966
 20
-70.9136
 30
0.0
 10
0.7701
 20
-77.2339
 30
0.0
 10
0.7701
 20
-77.2339
 30
0.0
 10
0.6655
 20
-78.491
 30
0.0
 10
-0.0613
 20
-79.0835
 30
0.0
 10
-0.9877
 20
-79.8592
 30
0.0
 10
-0.9877
 20
-79.8592
 30
0.0
 10
-2.7442
 20
-81.3303
 30
0.0
 10
0.8462
 20
-82.7223
 30
0.0
 10
3.2867
 20
-80.2602
 30
0.0
 10
3.2867
 20
-80.2602
 30
0.0
 10
6.5342
 20
-76.9843
 30
0.0
 10
3.9629
 20
-71.7681
 30
0.0
 10
-0.9684
 20
-70.6578
 30
0.0
 10
-0.9684
 20
-70.6578
 30
0.0
 10
-4.951
 20
-69.7614
 30
0.0
 10
-9.1697
 20
-72.5979
 30
0.0
 10
-10.5913
 20
-75.9305
 30
0.0
 10
-10.5913
 20
-75.9305
 30
0.0
 10
-11.1654
 20
-77.2769
 30
0.0
 10
-11.4039
 20
-78.7751
 30
0.0
 10
-11.5577
 20
-80.2564
 30
0.0
 10
-11.5577
 20
-80.2564
 30
0.0
 10
-11.5577
 20
-80.2564
 30
0.0
 10
-11.5586
 20
-80.2564
 30
0.0
 10
-11.5586
 20
-80.2564
 30
0.0
 10
-11.5586
 20
-80.2564
 30
0.0
 10
-11.9157
 20
-77.8042
 30
0.0
 10
-14.8397
 20
-77.1106
 30
0.0
 10
-17.0152
 20
-78.4626
 30
0.0
 10
-17.0152
 20
-78.4626
 30
0.0
 10
-15.2203
 20
-74.511
 30
0.0
 10
-12.2267
 20
-70.7835
 30
0.0
 10
-7.8394
 20
-69.0937
 30
0.0
 10
-7.8394
 20
-69.0937
 30
0.0
 10
4.5777
 20
-64.3118
 30
0.0
 10
11.8804
 20
-77.2741
 30
0.0
 10
5.0403
 20
-82.7995
 30
0.0
 10
5.0403
 20
-82.7995
 30
0.0
 10
3.1409
 20
-84.3337
 30
0.0
 10
0.447
 20
-83.9914
 30
0.0
 10
-1.4099
 20
-82.5573
 30
0.0
 10
-1.4099
 20
-82.5573
 30
0.0
 10
-4.5042
 20
-80.1675
 30
0.0
 10
-3.1748
 20
-77.2788
 30
0.0
 10
-4.5115
 20
-76.832
 30
0.0
 10
-4.5115
 20
-76.832
 30
0.0
 10
-6.8637
 20
-76.0458
 30
0.0
 10
-8.5821
 20
-83.5202
 30
0.0
 10
-1.9028
 20
-86.2237
 30
0.0
 10
-1.9028
 20
-86.2237
 30
0.0
 10
-1.9028
 20
-86.2237
 30
0.0
 10
-1.9028
 20
-86.2237
 30
0.0
 10
-1.9028
 20
-86.2237
 30
0.0
 10
-1.9028
 20
-86.2237
 30
0.0
 10
-0.6923
 20
-86.7393
 30
0.0
 10
1.4324
 20
-87.9666
 30
0.0
 10
3.8616
 20
-89.788
 30
0.0
 10
3.8616
 20
-89.788
 30
0.0
 10
1.4324
 20
-91.6094
 30
0.0
 10
-0.6923
 20
-92.8365
 30
0.0
 10
-1.9028
 20
-93.3521
 30
0.0
 10
-1.9028
 20
-93.3521
 30
0.0
 10
-1.9028
 20
-93.3521
 30
0.0
 10
-1.9028
 20
-93.3524
 30
0.0
 10
-1.9028
 20
-93.3524
 30
0.0
 10
-1.9028
 20
-93.3524
 30
0.0
 10
-8.5821
 20
-96.0556
 30
0.0
 10
-6.8637
 20
-103.5304
 30
0.0
 10
-4.5115
 20
-102.7441
 30
0.0
 10
-4.5115
 20
-102.7441
 30
0.0
 10
-3.1748
 20
-102.2971
 30
0.0
 10
-4.5042
 20
-99.4083
 30
0.0
 10
-1.4099
 20
-97.0188
 30
0.0
 10
-1.4099
 20
-97.0188
 30
0.0
 10
0.447
 20
-95.5847
 30
0.0
 10
3.1409
 20
-95.2421
 30
0.0
 10
5.0403
 20
-96.7765
 30
0.0
 10
5.0403
 20
-96.7765
 30
0.0
 10
11.8804
 20
-102.3017
 30
0.0
 10
4.5777
 20
-115.2643
 30
0.0
 10
-7.8394
 20
-110.4821
 30
0.0
 10
-7.8394
 20
-110.4821
 30
0.0
 10
-12.2267
 20
-108.7926
 30
0.0
 10
-15.2203
 20
-105.0648
 30
0.0
 10
-17.0152
 20
-101.1136
 30
0.0
 10
-17.0152
 20
-101.1136
 30
0.0
 10
-14.8397
 20
-102.4655
 30
0.0
 10
-11.9157
 20
-101.772
 30
0.0
 10
-11.5586
 20
-99.3194
 30
0.0
 10
-11.5586
 20
-99.3194
 30
0.0
 10
-11.5586
 20
-99.3194
 30
0.0
 10
-11.5577
 20
-99.3197
 30
0.0
 10
-11.5577
 20
-99.3197
 30
0.0
 10
-11.5577
 20
-99.3197
 30
0.0
 10
-11.4039
 20
-100.8007
 30
0.0
 10
-11.1654
 20
-102.2993
 30
0.0
 10
-10.5913
 20
-103.6456
 30
0.0
 10
-10.5913
 20
-103.6456
 30
0.0
 10
-9.1697
 20
-106.978
 30
0.0
 10
-4.951
 20
-109.8145
 30
0.0
 10
-0.9684
 20
-108.918
 30
0.0
 10
-0.9684
 20
-108.918
 30
0.0
 10
3.9629
 20
-107.808
 30
0.0
 10
6.5342
 20
-102.5918
 30
0.0
 10
3.2867
 20
-99.3157
 30
0.0
 10
3.2867
 20
-99.3157
 30
0.0
 10
0.8462
 20
-96.8535
 30
0.0
 10
-2.7442
 20
-98.2458
 30
0.0
 10
-0.9877
 20
-99.7166
 30
0.0
 10
-0.9877
 20
-99.7166
 30
0.0
 10
3.531
 20
-103.501
 30
0.0
 10
-1.2341
 20
-109.3789
 30
0.0
 10
-6.2892
 20
-105.6137
 30
0.0
 10
-6.2892
 20
-105.6137
 30
0.0
 10
-8.8527
 20
-103.7046
 30
0.0
 10
-9.2664
 20
-101.4945
 30
0.0
 10
-9.5235
 20
-98.6196
 30
0.0
 10
-9.5235
 20
-98.6196
 30
0.0
 10
-9.7908
 20
-95.6317
 30
0.0
 10
-10.4221
 20
-92.7232
 30
0.0
 10
-10.9563
 20
-89.788
 30
0.0
  0
SPLINE
  5
6A
330
1F
100
AcDbEntity
  8
layer 1
 62
     7
100
AcDbSpline
210
0.0
220
0.0
230
1.0
 70
    11
 71
     3
 72
    32
 73
    28
 74
     0
 42
0.0000000001
 43
0.0000000001
 12
1.0
 22
0.0
 32
0.0
 13
1.0
 23
0.0
 33
0.0
 40
0.0
 40
0.0
 40
0.0
 40
0.0
 40
0.125
 40
0.125
 40
0.125
 40
0.125
 40
0.25
 40
0.25
 40
0.25
 40
0.25
 40
0.375
 40
0.375
 40
0.375
 40
0.375
 40
0.5
 40
0.5
 40
0.5
 40
0.5
 40
0.625
 40
0.625
 40
0.625
 40
0.625
 40
0.75
 40
0.75
 40
0.75
 40
0.75
 40
1.0
 40
1.0
 40
1.0
 40
1.0
 10
-12.4236
 20
-92.3181
 30
0.0
 10
-11.9919
 20
-92.8585
 30
0.0
 10
-11.7859
 20
-96.7803
 30
0.0
 10
-11.7051
 20
-97.7087
 30
0.0
 10
-11.7051
 20
-97.7087
 30
0.0
 10
-11.7051
 20
-97.7087
 30
0.0
 10
-11.7051
 20
-97.7087
 30
0.0
 10
-11.7051
 20
-97.7087
 30
0.0
 10
-11.7051
 20
-97.7087
 30
0.0
 10
-11.7051
 20
-97.7087
 30
0.0
 10
-11.7057
 20
-97.7092
 30
0.0
 10
-11.7057
 20
-97.7092
 30
0.0
 10
-11.7057
 20
-97.7092
 30
0.0
 10
-13.0615
 20
-93.9548
 30
0.0
 10
-19.0796
 20
-96.3672
 30
0.0
 10
-17.1326
 20
-99.285
 30
0.0
 10
-17.1326
 20
-99.285
 30
0.0
 10
-17.1326
 20
-99.285
 30
0.0
 10
-17.1644
 20
-99.3145
 30
0.0
 10
-17.1644
 20
-99.3145
 30
0.0
 10
-17.1644
 20
-99.3145
 30
0.0
 10
-18.8769
 20
-97.5903
 30
0.0
 10
-19.0213
 20
-95.1112
 30
0.0
 10
-19.3658
 20
-92.9122
 30
0.0
 10
-19.3658
 20
-92.9122
 30
0.0
 10
-17.4478
 20
-95.4946
 30
0.0
 10
-13.7234
 20
-95.2675
 30
0.0
 10
-12.4236
 20
-92.3181
 30
0.0
  0
SPLINE
  5
6B
330
1F
100
AcDbEntity
  8
layer 1
 62
     7
100
AcDbSpline
210
0.0
220
0.0
230
1.0
 70
    11
 71
     3
 72
    12
 73
     8
 74
     0
 42
0.0000000001
 43
0.0000000001
 12
1.0
 22
0.0
 32
0.0
 13
1.0
 23
0.0
 33
0.0
 40
0.0
 40
0.0
 40
0.0
 40
0.0
 40
0.3333333333333333
 40
0.3333333333333333
 40
0.3333333333333333
 40
0.3333333333333333
 40
1.0
 40
1.0
 40
1.0
 40
1.0
 10
-17.4585
 20
-86.924
 30
0.0
 10
-14.449
 20
-84.3596
 30
0.0
 10
-11.2798
 20
-90.1665
 30
0.0
 10
-14.666
 20
-92.8255
 30
0.0
 10
-14.666
 20
-92.8255
 30
0.0
 10
-17.4937
 20
-95.046
 30
0.0
 10
-20.2858
 20
-89.3326
 30
0.0
 10
-17.4585
 20
-86.924
 30
0.0
  0
SPLINE
  5
6C
330
1F
100
AcDbEntity
  8
layer 1
 62
     7
100
AcDbSpline
210
0.0
220
0.0
230
1.0
 70
    11
 71
     3
 72
    12
 73
     8
 74
     0
 42
0.0000000001
 43
0.0000000001
 12
1.0
 22
0.0
 32
0.0
 13
1.0
 23
0.0
 33
0.0
 40
0.0
 40
0.0
 40
0.0
 40
0.0
 40
0.3333333333333333
 40
0.3333333333333333
 40
0.3333333333333333
 40
0.3333333333333333
 40
1.0
 40
1.0
 40
1.0
 40
1.0
 10
12.3476
 20
-65.2176
 30
0.0
 10
13.9289
 20
-63.3567
 30
0.0
 10
17.6638
 20
-64.6088
 30
0.0
 10
16.4604
 20
-65.6047
 30
0.0
 10
16.4604
 20
-65.6047
 30
0.0
 10
15.1615
 20
-66.6795
 30
0.0
 10
13.3089
 20
-66.3489
 30
0.0
 10
12.3476
 20
-65.2176
 30
0.0
  0
SPLINE
  5
6D
330
1F
100
AcDbEntity
  8
layer 1
 62
     7
100
AcDbSpline
210
0.0
220
0.0
230
1.0
 70
    11
 71
     3
 72
    20
 73
    16
 74
     0
 42
0.0000000001
 43
0.0000000001
 12
1.0
 22
0.0
 32
0.0
 13
1.0
 23
0.0
 33
0.0
 40
0.0
 40
0.0
 40
0.0
 40
0.0
 40
0.2
 40
0.2
 40
0.2
 40
0.2
 40
0.4
 40
0.4
 40
0.4
 40
0.4
 40
0.6
 40
0.6
 40
0.6
 40
0.6
 40
1.0
 40
1.0
 40
1.0
 40
1.0
 10
12.3476
 20
-16.0765
 30
0.0
 10
12.3476
 20
-16.0765
 30
0.0
 10
12.3476
 20
-16.0765
 30
0.0
 10
12.3476
 20
-16.0765
 30
0.0
 10
12.3476
 20
-16.0765
 30
0.0
 10
13.9289
 20
-14.2158
 30
0.0
 10
17.6638
 20
-15.4675
 30
0.0
 10
16.4604
 20
-16.4641
 30
0.0
 10
16.4604
 20
-16.4641
 30
0.0
 10
15.1615
 20
-17.5386
 30
0.0
 10
13.3089
 20
-17.2081
 30
0.0
 10
12.3476
 20
-16.0767
 30
0.0
 10
12.3476
 20
-16.0767
 30
0.0
 10
12.3476
 20
-16.0767
 30
0.0
 10
12.3476
 20
-16.0765
 30
0.0
 10
12.3476
 20
-16.0765
 30
0.0
  0
SPLINE
  5
6E
330
1F
100
AcDbEntity
  8
layer 1
 62
     7
100
AcDbSpline
210
0.0
220
0.0
230
1.0
 70
    11
 71
     3
 72
    20
 73
    16
 74
     0
 42
0.0000000001
 43
0.0000000001
 12
1.0
 22
0.0
 32
0.0
 13
1.0
 23
0.0
 33
0.0
 40
0.0
 40
0.0
 40
0.0
 40
0.0
 40
0.2
 40
0.2
 40
0.2
 40
0.2
 40
0.4
 40
0.4
 40
0.4
 40
0.4
 40
0.6
 40
0.6
 40
0.6
 40
0.6
 40
1.0
 40
1.0
 40
1.0
 40
1.0
 10
53.9975
 20
117.1532
 30
0.0
 10
53.9975
 20
117.1532
 30
0.0
 10
54.0461
 20
117.1853
 30
0.0
 10
54.0461
 20
117.1853
 30
0.0
 10
54.0461
 20
117.1853
 30
0.0
 10
52.2486
 20
118.0478
 30
0.0
 10
50.519
 20
116.7098
 30
0.0
 10
51.4258
 20
114.961
 30
0.0
 10
51.4258
 20
114.961
 30
0.0
 10
51.9355
 20
113.9777
 30
0.0
 10
53.2962
 20
114.1846
 30
0.0
 10
53.4096
 20
115.2752
 30
0.0
 10
53.4096
 20
115.2752
 30
0.0
 10
53.4304
 20
115.4726
 30
0.0
 10
51.4386
 20
117.9425
 30
0.0
 10
53.9975
 20
117.1532
 30
0.0
  0
SPLINE
  5
6F
330
1F
100
AcDbEntity
  8
layer 1
 62
     7
100
AcDbSpline
210
0.0
220
0.0
230
1.0
 70
    11
 71
     3
 72
    20
 73
    16
 74
     0
 42
0.0000000001
 43
0.0000000001
 12
1.0
 22
0.0
 32
0.0
 13
1.0
 23
0.0
 33
0.0
 40
0.0
 40
0.0
 40
0.0
 40
0.0
 40
0.2
 40
0.2
 40
0.2
 40
0.2
 40
0.4
 40
0.4
 40
0.4
 40
0.4
 40
0.6
 40
0.6
 40
0.6
 40
0.6
 40
1.0
 40
1.0
 40
1.0
 40
1.0
 10
53.9975
 20
96.398
 30
0.0
 10
53.9975
 20
96.398
 30
0.0
 10
54.0461
 20
96.3662
 30
0.0
 10
54.0461
 20
96.3662
 30
0.0
 10
54.0461
 20
96.3662
 30
0.0
 10
52.2486
 20
95.5036
 30
0.0
 10
50.519
 20
96.8416
 30
0.0
 10
51.4258
 20
98.5904
 30
0.0
 10
51.4258
 20
98.5904
 30
0.0
 10
51.9355
 20
99.5737
 30
0.0
 10
53.2962
 20
99.3667
 30
0.0
 10
53.4096
 20
98.2762
 30
0.0
 10
53.4096
 20
98.2762
 30
0.0
 10
53.4304
 20
98.0788
 30
0.0
 10
51.4386
 20
95.609
 30
0.0
 10
53.9975
 20
96.398
 30
0.0
  0
SPLINE
  5
70
330
1F
100
AcDbEntity
  8
layer 1
 62
     7
100
AcDbSpline
210
0.0
220
0.0
230
1.0
 70
    11
 71
     3
 72
    32
 73
    28
 74
     0
 42
0.0000000001
 43
0.0000000001
 12
1.0
 22
0.0
 32
0.0
 13
1.0
 23
0.0
 33
0.0
 40
0.0
 40
0.0
 40
0.0
 40
0.0
 40
0.125
 40
0.125
 40
0.125
 40
0.125
 40
0.25
 40
0.25
 40
0.25
 40
0.25
 40
0.375
 40
0.375
 40
0.375
 40
0.375
 40
0.5
 40
0.5
 40
0.5
 40
0.5
 40
0.625
 40
0.625
 40
0.625
 40
0.625
 40
0.75
 40
0.75
 40
0.75
 40
0.75
 40
1.0
 40
1.0
 40
1.0
 40
1.0
 10
50.4847
 20
109.3058
 30
0.0
 10
50.053
 20
109.8465
 30
0.0
 10
49.8472
 20
113.7679
 30
0.0
 10
49.7662
 20
114.6962
 30
0.0
 10
49.7662
 20
114.6962
 30
0.0
 10
49.7662
 20
114.6962
 30
0.0
 10
49.7664
 20
114.6962
 30
0.0
 10
49.7664
 20
114.6962
 30
0.0
 10
49.7664
 20
114.6962
 30
0.0
 10
49.7664
 20
114.6962
 30
0.0
 10
49.7671
 20
114.6969
 30
0.0
 10
49.7671
 20
114.6969
 30
0.0
 10
49.7671
 20
114.6969
 30
0.0
 10
51.1225
 20
110.9428
 30
0.0
 10
57.141
 20
113.3549
 30
0.0
 10
55.1937
 20
116.273
 30
0.0
 10
55.1937
 20
116.273
 30
0.0
 10
55.1937
 20
116.273
 30
0.0
 10
55.2255
 20
116.302
 30
0.0
 10
55.2255
 20
116.302
 30
0.0
 10
55.2255
 20
116.302
 30
0.0
 10
56.938
 20
114.578
 30
0.0
 10
57.0824
 20
112.0988
 30
0.0
 10
57.427
 20
109.8999
 30
0.0
 10
57.427
 20
109.8999
 30
0.0
 10
55.5089
 20
112.4822
 30
0.0
 10
51.7844
 20
112.2551
 30
0.0
 10
50.4847
 20
109.3058
 30
0.0
  0
SPLINE
  5
71
330
1F
100
AcDbEntity
  8
layer 1
 62
     7
100
AcDbSpline
210
0.0
220
0.0
230
1.0
 70
    11
 71
     3
 72
    20
 73
    16
 74
     0
 42
0.0000000001
 43
0.0000000001
 12
1.0
 22
0.0
 32
0.0
 13
1.0
 23
0.0
 33
0.0
 40
0.0
 40
0.0
 40
0.0
 40
0.0
 40
0.2
 40
0.2
 40
0.2
 40
0.2
 40
0.4
 40
0.4
 40
0.4
 40
0.4
 40
0.6
 40
0.6
 40
0.6
 40
0.6
 40
1.0
 40
1.0
 40
1.0
 40
1.0
 10
34.8057
 20
103.7343
 30
0.0
 10
34.0194
 20
104.2351
 30
0.0
 10
33.2196
 20
104.7816
 30
0.0
 10
32.4163
 20
105.371
 30
0.0
 10
32.4163
 20
105.371
 30
0.0
 10
27.722
 20
101.4921
 30
0.0
 10
22.4834
 20
95.6751
 30
0.0
 10
20.5471
 20
88.6494
 30
0.0
 10
20.5471
 20
88.6494
 30
0.0
 10
22.9283
 20
90.6207
 30
0.0
 10
26.4003
 20
90.9461
 30
0.0
 10
29.2753
 20
89.7581
 30
0.0
 10
29.2753
 20
89.7581
 30
0.0
 10
26.0896
 20
95.9828
 30
0.0
 10
29.2602
 20
102.6207
 30
0.0
 10
34.8057
 20
103.7343
 30
0.0
  0
SPLINE
  5
72
330
1F
100
AcDbEntity
  8
layer 1
 62
     7
100
AcDbSpline
210
0.0
220
0.0
230
1.0
 70
    11
 71
     3
 72
    20
 73
    16
 74
     0
 42
0.0000000001
 43
0.0000000001
 12
1.0
 22
0.0
 32
0.0
 13
1.0
 23
0.0
 33
0.0
 40
0.0
 40
0.0
 40
0.0
 40
0.0
 40
0.2
 40
0.2
 40
0.2
 40
0.2
 40
0.4
 40
0.4
 40
0.4
 40
0.4
 40
0.6
 40
0.6
 40
0.6
 40
0.6
 40
1.0
 40
1.0
 40
1.0
 40
1.0
 10
34.8057
 20
109.817
 30
0.0
 10
29.2602
 20
110.9308
 30
0.0
 10
26.0896
 20
117.5687
 30
0.0
 10
29.2753
 20
123.7929
 30
0.0
 10
29.2753
 20
123.7929
 30
0.0
 10
26.4003
 20
122.6054
 30
0.0
 10
22.9283
 20
122.9307
 30
0.0
 10
20.5471
 20
124.9016
 30
0.0
 10
20.5471
 20
124.9016
 30
0.0
 10
22.4834
 20
117.8763
 30
0.0
 10
27.722
 20
112.0592
 30
0.0
 10
32.4163
 20
108.1801
 30
0.0
 10
32.4163
 20
108.1801
 30
0.0
 10
33.2196
 20
108.7696
 30
0.0
 10
34.0194
 20
109.3163
 30
0.0
 10
34.8057
 20
109.817
 30
0.0
  0
SPLINE
  5
73
330
1F
100
AcDbEntity
  8
layer 1
 62
     7
100
AcDbSpline
210
0.0
220
0.0
230
1.0
 70
    11
 71
     3
 72
   132
 73
   128
 74
     0
 42
0.0000000001
 43
0.0000000001
 12
1.0
 22
0.0
 32
0.0
 13
1.0
 23
0.0
 33
0.0
 40
0.0
 40
0.0
 40
0.0
 40
0.0
 40
0.0303030303030303
 40
0.0303030303030303
 40
0.0303030303030303
 40
0.0303030303030303
 40
0.0606060606060606
 40
0.0606060606060606
 40
0.0606060606060606
 40
0.0606060606060606
 40
0.0909090909090909
 40
0.0909090909090909
 40
0.0909090909090909
 40
0.0909090909090909
 40
0.1212121212121212
 40
0.1212121212121212
 40
0.1212121212121212
 40
0.1212121212121212
 40
0.1515151515151515
 40
0.1515151515151515
 40
0.1515151515151515
 40
0.1515151515151515
 40
0.1818181818181818
 40
0.1818181818181818
 40
0.1818181818181818
 40
0.1818181818181818
 40
0.2121212121212121
 40
0.2121212121212121
 40
0.2121212121212121
 40
0.2121212121212121
 40
0.2424242424242424
 40
0.2424242424242424
 40
0.2424242424242424
 40
0.2424242424242424
 40
0.2727272727272727
 40
0.2727272727272727
 40
0.2727272727272727
 40
0.2727272727272727
 40
0.303030303030303
 40
0.303030303030303
 40
0.303030303030303
 40
0.303030303030303
 40
0.3333333333333333
 40
0.3333333333333333
 40
0.3333333333333333
 40
0.3333333333333333
 40
0.3636363636363636
 40
0.3636363636363636
 40
0.3636363636363636
 40
0.3636363636363636
 40
0.3939393939393939
 40
0.3939393939393939
 40
0.3939393939393939
 40
0.3939393939393939
 40
0.4242424242424243
 40
0.4242424242424243
 40
0.4242424242424243
 40
0.4242424242424243
 40
0.4545454545454545
 40
0.4545454545454545
 40
0.4545454545454545
 40
0.4545454545454545
 40
0.4848484848484849
 40
0.4848484848484849
 40
0.4848484848484849
 40
0.4848484848484849
 40
0.5151515151515151
 40
0.5151515151515151
 40
0.5151515151515151
 40
0.5151515151515151
 40
0.5454545454545454
 40
0.5454545454545454
 40
0.5454545454545454
 40
0.5454545454545454
 40
0.5757575757575758
 40
0.5757575757575758
 40
0.5757575757575758
 40
0.5757575757575758
 40
0.6060606060606061
 40
0.6060606060606061
 40
0.6060606060606061
 40
0.6060606060606061
 40
0.6363636363636364
 40
0.6363636363636364
 40
0.6363636363636364
 40
0.6363636363636364
 40
0.6666666666666666
 40
0.6666666666666666
 40
0.6666666666666666
 40
0.6666666666666666
 40
0.696969696969697
 40
0.696969696969697
 40
0.696969696969697
 40
0.696969696969697
 40
0.7272727272727273
 40
0.7272727272727273
 40
0.7272727272727273
 40
0.7272727272727273
 40
0.7575757575757576
 40
0.7575757575757576
 40
0.7575757575757576
 40
0.7575757575757576
 40
0.7878787878787878
 40
0.7878787878787878
 40
0.7878787878787878
 40
0.7878787878787878
 40
0.8181818181818182
 40
0.8181818181818182
 40
0.8181818181818182
 40
0.8181818181818182
 40
0.8484848484848485
 40
0.8484848484848485
 40
0.8484848484848485
 40
0.8484848484848485
 40
0.8787878787878788
 40
0.8787878787878788
 40
0.8787878787878788
 40
0.8787878787878788
 40
0.9090909090909091
 40
0.9090909090909091
 40
0.9090909090909091
 40
0.9090909090909091
 40
0.9393939393939394
 40
0.9393939393939394
 40
0.9393939393939394
 40
0.9393939393939394
 40
1.0
 40
1.0
 40
1.0
 40
1.0
 10
49.0174
 20
106.7757
 30
0.0
 10
48.4835
 20
109.7108
 30
0.0
 10
47.8519
 20
112.6193
 30
0.0
 10
47.5846
 20
115.6073
 30
0.0
 10
47.5846
 20
115.6073
 30
0.0
 10
46.6434
 20
126.1314
 30
0.0
 10
36.7645
 20
125.6502
 30
0.0
 10
37.291
 20
119.3295
 30
0.0
 10
37.291
 20
119.3295
 30
0.0
 10
37.3955
 20
118.0728
 30
0.0
 10
38.1223
 20
117.4803
 30
0.0
 10
39.0487
 20
116.7043
 30
0.0
 10
39.0487
 20
116.7043
 30
0.0
 10
40.8053
 20
115.2335
 30
0.0
 10
37.2148
 20
113.8415
 30
0.0
 10
34.7743
 20
116.3032
 30
0.0
 10
34.7743
 20
116.3032
 30
0.0
 10
31.5269
 20
119.5794
 30
0.0
 10
34.0986
 20
124.7957
 30
0.0
 10
39.0295
 20
125.906
 30
0.0
 10
39.0295
 20
125.906
 30
0.0
 10
43.0119
 20
126.8021
 30
0.0
 10
47.2309
 20
123.9655
 30
0.0
 10
48.6523
 20
120.6332
 30
0.0
 10
48.6523
 20
120.6332
 30
0.0
 10
49.2265
 20
119.2869
 30
0.0
 10
49.4654
 20
117.7886
 30
0.0
 10
49.6191
 20
116.3073
 30
0.0
 10
49.6191
 20
116.3073
 30
0.0
 10
49.6191
 20
116.3073
 30
0.0
 10
49.6197
 20
116.3073
 30
0.0
 10
49.6197
 20
116.3073
 30
0.0
 10
49.6197
 20
116.3073
 30
0.0
 10
49.9772
 20
118.7595
 30
0.0
 10
52.9008
 20
119.4531
 30
0.0
 10
55.0762
 20
118.1012
 30
0.0
 10
55.0762
 20
118.1012
 30
0.0
 10
53.2814
 20
122.0524
 30
0.0
 10
50.2878
 20
125.7802
 30
0.0
 10
45.9005
 20
127.4697
 30
0.0
 10
45.9005
 20
127.4697
 30
0.0
 10
33.4837
 20
132.2519
 30
0.0
 10
26.1807
 20
119.2894
 30
0.0
 10
33.0208
 20
113.7642
 30
0.0
 10
33.0208
 20
113.7642
 30
0.0
 10
34.9202
 20
112.2301
 30
0.0
 10
37.6142
 20
112.5724
 30
0.0
 10
39.4711
 20
114.0064
 30
0.0
 10
39.4711
 20
114.0064
 30
0.0
 10
42.5653
 20
116.3963
 30
0.0
 10
41.2361
 20
119.2847
 30
0.0
 10
42.5729
 20
119.7318
 30
0.0
 10
42.5729
 20
119.7318
 30
0.0
 10
44.9251
 20
120.518
 30
0.0
 10
46.6432
 20
113.0435
 30
0.0
 10
39.9642
 20
110.3401
 30
0.0
 10
39.9642
 20
110.3401
 30
0.0
 10
39.9642
 20
110.3401
 30
0.0
 10
39.9642
 20
110.3401
 30
0.0
 10
39.9642
 20
110.3401
 30
0.0
 10
39.9642
 20
110.3401
 30
0.0
 10
38.7534
 20
109.8242
 30
0.0
 10
36.6287
 20
108.5971
 30
0.0
 10
34.1994
 20
106.7757
 30
0.0
 10
34.1994
 20
106.7757
 30
0.0
 10
36.6287
 20
104.9542
 30
0.0
 10
38.7534
 20
103.7272
 30
0.0
 10
39.9642
 20
103.2114
 30
0.0
 10
39.9642
 20
103.2114
 30
0.0
 10
39.9642
 20
103.2114
 30
0.0
 10
39.9642
 20
103.2114
 30
0.0
 10
39.9642
 20
103.2114
 30
0.0
 10
39.9642
 20
103.2114
 30
0.0
 10
46.6432
 20
100.5079
 30
0.0
 10
44.9251
 20
93.0334
 30
0.0
 10
42.5729
 20
93.8197
 30
0.0
 10
42.5729
 20
93.8197
 30
0.0
 10
41.2361
 20
94.2663
 30
0.0
 10
42.5653
 20
97.1552
 30
0.0
 10
39.4711
 20
99.545
 30
0.0
 10
39.4711
 20
99.545
 30
0.0
 10
37.6142
 20
100.979
 30
0.0
 10
34.9202
 20
101.3213
 30
0.0
 10
33.0208
 20
99.7871
 30
0.0
 10
33.0208
 20
99.7871
 30
0.0
 10
26.1807
 20
94.2617
 30
0.0
 10
33.4837
 20
81.2995
 30
0.0
 10
45.9005
 20
86.0817
 30
0.0
 10
45.9005
 20
86.0817
 30
0.0
 10
50.2878
 20
87.7712
 30
0.0
 10
53.2814
 20
91.499
 30
0.0
 10
55.0762
 20
95.4502
 30
0.0
 10
55.0762
 20
95.4502
 30
0.0
 10
52.9008
 20
94.0983
 30
0.0
 10
49.9772
 20
94.7918
 30
0.0
 10
49.6197
 20
97.2441
 30
0.0
 10
49.6197
 20
97.2441
 30
0.0
 10
49.6197
 20
97.2441
 30
0.0
 10
49.6191
 20
97.2441
 30
0.0
 10
49.6191
 20
97.2441
 30
0.0
 10
49.6191
 20
97.2441
 30
0.0
 10
49.4654
 20
95.7628
 30
0.0
 10
49.2265
 20
94.2645
 30
0.0
 10
48.6523
 20
92.9182
 30
0.0
 10
48.6523
 20
92.9182
 30
0.0
 10
47.2309
 20
89.5858
 30
0.0
 10
43.0119
 20
86.7493
 30
0.0
 10
39.0295
 20
87.6455
 30
0.0
 10
39.0295
 20
87.6455
 30
0.0
 10
34.0986
 20
88.7557
 30
0.0
 10
31.5269
 20
93.9716
 30
0.0
 10
34.7743
 20
97.2481
 30
0.0
 10
34.7743
 20
97.2481
 30
0.0
 10
37.2148
 20
99.7099
 30
0.0
 10
40.8053
 20
98.3179
 30
0.0
 10
39.0487
 20
96.8471
 30
0.0
 10
39.0487
 20
96.8471
 30
0.0
 10
34.5303
 20
93.0628
 30
0.0
 10
39.2952
 20
87.1849
 30
0.0
 10
44.3506
 20
90.9501
 30
0.0
 10
44.3506
 20
90.9501
 30
0.0
 10
46.9137
 20
92.8592
 30
0.0
 10
47.3275
 20
95.0689
 30
0.0
 10
47.5846
 20
97.9441
 30
0.0
 10
47.5846
 20
97.9441
 30
0.0
 10
47.8519
 20
100.932
 30
0.0
 10
48.4835
 20
103.8406
 30
0.0
 10
49.0174
 20
106.7757
 30
0.0
  0
SPLINE
  5
74
330
1F
100
AcDbEntity
  8
layer 1
 62
     7
100
AcDbSpline
210
0.0
220
0.0
230
1.0
 70
    11
 71
     3
 72
    32
 73
    28
 74
     0
 42
0.0000000001
 43
0.0000000001
 12
1.0
 22
0.0
 32
0.0
 13
1.0
 23
0.0
 33
0.0
 40
0.0
 40
0.0
 40
0.0
 40
0.0
 40
0.125
 40
0.125
 40
0.125
 40
0.125
 40
0.25
 40
0.25
 40
0.25
 40
0.25
 40
0.375
 40
0.375
 40
0.375
 40
0.375
 40
0.5
 40
0.5
 40
0.5
 40
0.5
 40
0.625
 40
0.625
 40
0.625
 40
0.625
 40
0.75
 40
0.75
 40
0.75
 40
0.75
 40
1.0
 40
1.0
 40
1.0
 40
1.0
 10
50.4847
 20
104.2456
 30
0.0
 10
50.053
 20
103.705
 30
0.0
 10
49.8472
 20
99.7835
 30
0.0
 10
49.7662
 20
98.8551
 30
0.0
 10
49.7662
 20
98.8551
 30
0.0
 10
49.7662
 20
98.8551
 30
0.0
 10
49.7664
 20
98.8551
 30
0.0
 10
49.7664
 20
98.8551
 30
0.0
 10
49.7664
 20
98.8551
 30
0.0
 10
49.7664
 20
98.8551
 30
0.0
 10
49.7671
 20
98.8546
 30
0.0
 10
49.7671
 20
98.8546
 30
0.0
 10
49.7671
 20
98.8546
 30
0.0
 10
51.1225
 20
102.6086
 30
0.0
 10
57.141
 20
100.1965
 30
0.0
 10
55.1937
 20
97.2783
 30
0.0
 10
55.1937
 20
97.2783
 30
0.0
 10
55.1937
 20
97.2783
 30
0.0
 10
55.2255
 20
97.249
 30
0.0
 10
55.2255
 20
97.249
 30
0.0
 10
55.2255
 20
97.249
 30
0.0
 10
56.938
 20
98.9735
 30
0.0
 10
57.0824
 20
101.4526
 30
0.0
 10
57.427
 20
103.6515
 30
0.0
 10
57.427
 20
103.6515
 30
0.0
 10
55.5089
 20
101.0692
 30
0.0
 10
51.7844
 20
101.2963
 30
0.0
 10
50.4847
 20
104.2456
 30
0.0
  0
SPLINE
  5
75
330
1F
100
AcDbEntity
  8
layer 1
 62
     7
100
AcDbSpline
210
0.0
220
0.0
230
1.0
 70
    11
 71
     3
 72
    12
 73
     8
 74
     0
 42
0.0000000001
 43
0.0000000001
 12
1.0
 22
0.0
 32
0.0
 13
1.0
 23
0.0
 33
0.0
 40
0.0
 40
0.0
 40
0.0
 40
0.0
 40
0.3333333333333333
 40
0.3333333333333333
 40
0.3333333333333333
 40
0.3333333333333333
 40
1.0
 40
1.0
 40
1.0
 40
1.0
 10
55.5199
 20
109.6398
 30
0.0
 10
52.5101
 20
112.2041
 30
0.0
 10
49.3409
 20
106.3973
 30
0.0
 10
52.7271
 20
103.7383
 30
0.0
 10
52.7271
 20
103.7383
 30
0.0
 10
55.5548
 20
101.5178
 30
0.0
 10
58.3469
 20
107.231
 30
0.0
 10
55.5199
 20
109.6398
 30
0.0
  0
SPLINE
  5
76
330
1F
100
AcDbEntity
  8
layer 1
 62
     7
100
AcDbSpline
210
0.0
220
0.0
230
1.0
 70
    11
 71
     3
 72
    20
 73
    16
 74
     0
 42
0.0000000001
 43
0.0000000001
 12
1.0
 22
0.0
 32
0.0
 13
1.0
 23
0.0
 33
0.0
 40
0.0
 40
0.0
 40
0.0
 40
0.0
 40
0.2
 40
0.2
 40
0.2
 40
0.2
 40
0.4
 40
0.4
 40
0.4
 40
0.4
 40
0.6
 40
0.6
 40
0.6
 40
0.6
 40
1.0
 40
1.0
 40
1.0
 40
1.0
 10
53.9975
 20
18.8714
 30
0.0
 10
53.9975
 20
18.8714
 30
0.0
 10
54.0461
 20
18.9035
 30
0.0
 10
54.0461
 20
18.9035
 30
0.0
 10
54.0461
 20
18.9035
 30
0.0
 10
52.2486
 20
19.766
 30
0.0
 10
50.519
 20
18.4278
 30
0.0
 10
51.4258
 20
16.6789
 30
0.0
 10
51.4258
 20
16.6789
 30
0.0
 10
51.9355
 20
15.6959
 30
0.0
 10
53.2962
 20
15.903
 30
0.0
 10
53.4096
 20
16.9932
 30
0.0
 10
53.4096
 20
16.9932
 30
0.0
 10
53.4304
 20
17.1908
 30
0.0
 10
51.4386
 20
19.6607
 30
0.0
 10
53.9975
 20
18.8714
 30
0.0
  0
SPLINE
  5
77
330
1F
100
AcDbEntity
  8
layer 1
 62
     7
100
AcDbSpline
210
0.0
220
0.0
230
1.0
 70
    11
 71
     3
 72
    20
 73
    16
 74
     0
 42
0.0000000001
 43
0.0000000001
 12
1.0
 22
0.0
 32
0.0
 13
1.0
 23
0.0
 33
0.0
 40
0.0
 40
0.0
 40
0.0
 40
0.0
 40
0.2
 40
0.2
 40
0.2
 40
0.2
 40
0.4
 40
0.4
 40
0.4
 40
0.4
 40
0.6
 40
0.6
 40
0.6
 40
0.6
 40
1.0
 40
1.0
 40
1.0
 40
1.0
 10
53.9975
 20
-1.8838
 30
0.0
 10
53.9975
 20
-1.8838
 30
0.0
 10
54.0461
 20
-1.9156
 30
0.0
 10
54.0461
 20
-1.9156
 30
0.0
 10
54.0461
 20
-1.9156
 30
0.0
 10
52.2486
 20
-2.7785
 30
0.0
 10
50.519
 20
-1.4402
 30
0.0
 10
51.4258
 20
0.3086
 30
0.0
 10
51.4258
 20
0.3086
 30
0.0
 10
51.9355
 20
1.292
 30
0.0
 10
53.2962
 20
1.0847
 30
0.0
 10
53.4096
 20
-0.0055
 30
0.0
 10
53.4096
 20
-0.0055
 30
0.0
 10
53.4304
 20
-0.2032
 30
0.0
 10
51.4386
 20
-2.6731
 30
0.0
 10
53.9975
 20
-1.8838
 30
0.0
  0
SPLINE
  5
78
330
1F
100
AcDbEntity
  8
layer 1
 62
     7
100
AcDbSpline
210
0.0
220
0.0
230
1.0
 70
    11
 71
     3
 72
    32
 73
    28
 74
     0
 42
0.0000000001
 43
0.0000000001
 12
1.0
 22
0.0
 32
0.0
 13
1.0
 23
0.0
 33
0.0
 40
0.0
 40
0.0
 40
0.0
 40
0.0
 40
0.125
 40
0.125
 40
0.125
 40
0.125
 40
0.25
 40
0.25
 40
0.25
 40
0.25
 40
0.375
 40
0.375
 40
0.375
 40
0.375
 40
0.5
 40
0.5
 40
0.5
 40
0.5
 40
0.625
 40
0.625
 40
0.625
 40
0.625
 40
0.75
 40
0.75
 40
0.75
 40
0.75
 40
1.0
 40
1.0
 40
1.0
 40
1.0
 10
50.4847
 20
11.0241
 30
0.0
 10
50.053
 20
11.5647
 30
0.0
 10
49.8472
 20
15.4862
 30
0.0
 10
49.7662
 20
16.4142
 30
0.0
 10
49.7662
 20
16.4142
 30
0.0
 10
49.7662
 20
16.4142
 30
0.0
 10
49.7664
 20
16.4142
 30
0.0
 10
49.7664
 20
16.4142
 30
0.0
 10
49.7664
 20
16.4142
 30
0.0
 10
49.7664
 20
16.4142
 30
0.0
 10
49.7671
 20
16.4151
 30
0.0
 10
49.7671
 20
16.4151
 30
0.0
 10
49.7671
 20
16.4151
 30
0.0
 10
51.1225
 20
12.6608
 30
0.0
 10
57.141
 20
15.0731
 30
0.0
 10
55.1937
 20
17.991
 30
0.0
 10
55.1937
 20
17.991
 30
0.0
 10
55.1937
 20
17.991
 30
0.0
 10
55.2255
 20
18.0203
 30
0.0
 10
55.2255
 20
18.0203
 30
0.0
 10
55.2255
 20
18.0203
 30
0.0
 10
56.938
 20
16.2962
 30
0.0
 10
57.0824
 20
13.8171
 30
0.0
 10
57.427
 20
11.6181
 30
0.0
 10
57.427
 20
11.6181
 30
0.0
 10
55.5089
 20
14.2001
 30
0.0
 10
51.7844
 20
13.9734
 30
0.0
 10
50.4847
 20
11.0241
 30
0.0
  0
SPLINE
  5
79
330
1F
100
AcDbEntity
  8
layer 1
 62
     7
100
AcDbSpline
210
0.0
220
0.0
230
1.0
 70
    11
 71
     3
 72
    20
 73
    16
 74
     0
 42
0.0000000001
 43
0.0000000001
 12
1.0
 22
0.0
 32
0.0
 13
1.0
 23
0.0
 33
0.0
 40
0.0
 40
0.0
 40
0.0
 40
0.0
 40
0.2
 40
0.2
 40
0.2
 40
0.2
 40
0.4
 40
0.4
 40
0.4
 40
0.4
 40
0.6
 40
0.6
 40
0.6
 40
0.6
 40
1.0
 40
1.0
 40
1.0
 40
1.0
 10
34.8057
 20
5.4523
 30
0.0
 10
34.0194
 20
5.9534
 30
0.0
 10
33.2196
 20
6.4999
 30
0.0
 10
32.4163
 20
7.0893
 30
0.0
 10
32.4163
 20
7.0893
 30
0.0
 10
27.722
 20
3.2101
 30
0.0
 10
22.4834
 20
-2.6067
 30
0.0
 10
20.5471
 20
-9.6322
 30
0.0
 10
20.5471
 20
-9.6322
 30
0.0
 10
22.9283
 20
-7.6613
 30
0.0
 10
26.4003
 20
-7.336
 30
0.0
 10
29.2753
 20
-8.5235
 30
0.0
 10
29.2753
 20
-8.5235
 30
0.0
 10
26.0896
 20
-2.2992
 30
0.0
 10
29.2602
 20
4.3386
 30
0.0
 10
34.8057
 20
5.4523
 30
0.0
  0
SPLINE
  5
7A
330
1F
100
AcDbEntity
  8
layer 1
 62
     7
100
AcDbSpline
210
0.0
220
0.0
230
1.0
 70
    11
 71
     3
 72
    20
 73
    16
 74
     0
 42
0.0000000001
 43
0.0000000001
 12
1.0
 22
0.0
 32
0.0
 13
1.0
 23
0.0
 33
0.0
 40
0.0
 40
0.0
 40
0.0
 40
0.0
 40
0.2
 40
0.2
 40
0.2
 40
0.2
 40
0.4
 40
0.4
 40
0.4
 40
0.4
 40
0.6
 40
0.6
 40
0.6
 40
0.6
 40
1.0
 40
1.0
 40
1.0
 40
1.0
 10
34.8057
 20
11.5354
 30
0.0
 10
29.2602
 20
12.649
 30
0.0
 10
26.0896
 20
19.2869
 30
0.0
 10
29.2753
 20
25.5112
 30
0.0
 10
29.2753
 20
25.5112
 30
0.0
 10
26.4003
 20
24.3236
 30
0.0
 10
22.9283
 20
24.6487
 30
0.0
 10
20.5471
 20
26.6199
 30
0.0
 10
20.5471
 20
26.6199
 30
0.0
 10
22.4834
 20
19.5943
 30
0.0
 10
27.722
 20
13.7776
 30
0.0
 10
32.4163
 20
9.8983
 30
0.0
 10
32.4163
 20
9.8983
 30
0.0
 10
33.2196
 20
10.4878
 30
0.0
 10
34.0194
 20
11.0343
 30
0.0
 10
34.8057
 20
11.5354
 30
0.0
  0
SPLINE
  5
7B
330
1F
100
AcDbEntity
  8
layer 1
 62
     7
100
AcDbSpline
210
0.0
220
0.0
230
1.0
 70
    11
 71
     3
 72
   132
 73
   128
 74
     0
 42
0.0000000001
 43
0.0000000001
 12
1.0
 22
0.0
 32
0.0
 13
1.0
 23
0.0
 33
0.0
 40
0.0
 40
0.0
 40
0.0
 40
0.0
 40
0.0303030303030303
 40
0.0303030303030303
 40
0.0303030303030303
 40
0.0303030303030303
 40
0.0606060606060606
 40
0.0606060606060606
 40
0.0606060606060606
 40
0.0606060606060606
 40
0.0909090909090909
 40
0.0909090909090909
 40
0.0909090909090909
 40
0.0909090909090909
 40
0.1212121212121212
 40
0.1212121212121212
 40
0.1212121212121212
 40
0.1212121212121212
 40
0.1515151515151515
 40
0.1515151515151515
 40
0.1515151515151515
 40
0.1515151515151515
 40
0.1818181818181818
 40
0.1818181818181818
 40
0.1818181818181818
 40
0.1818181818181818
 40
0.2121212121212121
 40
0.2121212121212121
 40
0.2121212121212121
 40
0.2121212121212121
 40
0.2424242424242424
 40
0.2424242424242424
 40
0.2424242424242424
 40
0.2424242424242424
 40
0.2727272727272727
 40
0.2727272727272727
 40
0.2727272727272727
 40
0.2727272727272727
 40
0.303030303030303
 40
0.303030303030303
 40
0.303030303030303
 40
0.303030303030303
 40
0.3333333333333333
 40
0.3333333333333333
 40
0.3333333333333333
 40
0.3333333333333333
 40
0.3636363636363636
 40
0.3636363636363636
 40
0.3636363636363636
 40
0.3636363636363636
 40
0.3939393939393939
 40
0.3939393939393939
 40
0.3939393939393939
 40
0.3939393939393939
 40
0.4242424242424243
 40
0.4242424242424243
 40
0.4242424242424243
 40
0.4242424242424243
 40
0.4545454545454545
 40
0.4545454545454545
 40
0.4545454545454545
 40
0.4545454545454545
 40
0.4848484848484849
 40
0.4848484848484849
 40
0.4848484848484849
 40
0.4848484848484849
 40
0.5151515151515151
 40
0.5151515151515151
 40
0.5151515151515151
 40
0.5151515151515151
 40
0.5454545454545454
 40
0.5454545454545454
 40
0.5454545454545454
 40
0.5454545454545454
 40
0.5757575757575758
 40
0.5757575757575758
 40
0.5757575757575758
 40
0.5757575757575758
 40
0.6060606060606061
 40
0.6060606060606061
 40
0.6060606060606061
 40
0.6060606060606061
 40
0.6363636363636364
 40
0.6363636363636364
 40
0.6363636363636364
 40
0.6363636363636364
 40
0.6666666666666666
 40
0.6666666666666666
 40
0.6666666666666666
 40
0.6666666666666666
 40
0.696969696969697
 40
0.696969696969697
 40
0.696969696969697
 40
0.696969696969697
 40
0.7272727272727273
 40
0.7272727272727273
 40
0.7272727272727273
 40
0.7272727272727273
 40
0.7575757575757576
 40
0.7575757575757576
 40
0.7575757575757576
 40
0.7575757575757576
 40
0.7878787878787878
 40
0.7878787878787878
 40
0.7878787878787878
 40
0.7878787878787878
 40
0.8181818181818182
 40
0.8181818181818182
 40
0.8181818181818182
 40
0.8181818181818182
 40
0.8484848484848485
 40
0.8484848484848485
 40
0.8484848484848485
 40
0.8484848484848485
 40
0.8787878787878788
 40
0.8787878787878788
 40
0.8787878787878788
 40
0.8787878787878788
 40
0.9090909090909091
 40
0.9090909090909091
 40
0.9090909090909091
 40
0.9090909090909091
 40
0.9393939393939394
 40
0.9393939393939394
 40
0.9393939393939394
 40
0.9393939393939394
 40
1.0
 40
1.0
 40
1.0
 40
1.0
 10
49.0174
 20
8.494
 30
0.0
 10
48.4835
 20
11.4288
 30
0.0
 10
47.8519
 20
14.3377
 30
0.0
 10
47.5846
 20
17.3256
 30
0.0
 10
47.5846
 20
17.3256
 30
0.0
 10
46.6434
 20
27.8498
 30
0.0
 10
36.7645
 20
27.3684
 30
0.0
 10
37.291
 20
21.0478
 30
0.0
 10
37.291
 20
21.0478
 30
0.0
 10
37.3955
 20
19.7908
 30
0.0
 10
38.1223
 20
19.1986
 30
0.0
 10
39.0487
 20
18.4226
 30
0.0
 10
39.0487
 20
18.4226
 30
0.0
 10
40.8053
 20
16.9518
 30
0.0
 10
37.2148
 20
15.5594
 30
0.0
 10
34.7743
 20
18.0216
 30
0.0
 10
34.7743
 20
18.0216
 30
0.0
 10
31.5269
 20
21.2977
 30
0.0
 10
34.0986
 20
26.5139
 30
0.0
 10
39.0295
 20
27.6239
 30
0.0
 10
39.0295
 20
27.6239
 30
0.0
 10
43.0119
 20
28.5204
 30
0.0
 10
47.2309
 20
25.6839
 30
0.0
 10
48.6523
 20
22.3511
 30
0.0
 10
48.6523
 20
22.3511
 30
0.0
 10
49.2265
 20
21.0051
 30
0.0
 10
49.4654
 20
19.5069
 30
0.0
 10
49.6191
 20
18.0256
 30
0.0
 10
49.6191
 20
18.0256
 30
0.0
 10
49.6191
 20
18.0256
 30
0.0
 10
49.6197
 20
18.0252
 30
0.0
 10
49.6197
 20
18.0252
 30
0.0
 10
49.6197
 20
18.0252
 30
0.0
 10
49.9772
 20
20.4775
 30
0.0
 10
52.9008
 20
21.1714
 30
0.0
 10
55.0762
 20
19.8192
 30
0.0
 10
55.0762
 20
19.8192
 30
0.0
 10
53.2814
 20
23.7706
 30
0.0
 10
50.2878
 20
27.4985
 30
0.0
 10
45.9005
 20
29.1879
 30
0.0
 10
45.9005
 20
29.1879
 30
0.0
 10
33.4837
 20
33.9702
 30
0.0
 10
26.1807
 20
21.0076
 30
0.0
 10
33.0208
 20
15.4825
 30
0.0
 10
33.0208
 20
15.4825
 30
0.0
 10
34.9202
 20
13.948
 30
0.0
 10
37.6142
 20
14.2904
 30
0.0
 10
39.4711
 20
15.7247
 30
0.0
 10
39.4711
 20
15.7247
 30
0.0
 10
42.5653
 20
18.1143
 30
0.0
 10
41.2361
 20
21.003
 30
0.0
 10
42.5729
 20
21.45
 30
0.0
 10
42.5729
 20
21.45
 30
0.0
 10
44.9251
 20
22.2362
 30
0.0
 10
46.6432
 20
14.7615
 30
0.0
 10
39.9642
 20
12.0583
 30
0.0
 10
39.9642
 20
12.0583
 30
0.0
 10
39.9642
 20
12.0583
 30
0.0
 10
39.9642
 20
12.0583
 30
0.0
 10
39.9642
 20
12.0583
 30
0.0
 10
39.9642
 20
12.0583
 30
0.0
 10
38.7534
 20
11.5425
 30
0.0
 10
36.6287
 20
10.3151
 30
0.0
 10
34.1994
 20
8.494
 30
0.0
 10
34.1994
 20
8.494
 30
0.0
 10
36.6287
 20
6.6722
 30
0.0
 10
38.7534
 20
5.4452
 30
0.0
 10
39.9642
 20
4.9296
 30
0.0
 10
39.9642
 20
4.9296
 30
0.0
 10
39.9642
 20
4.9296
 30
0.0
 10
39.9642
 20
4.9292
 30
0.0
 10
39.9642
 20
4.9292
 30
0.0
 10
39.9642
 20
4.9292
 30
0.0
 10
46.6432
 20
2.2262
 30
0.0
 10
44.9251
 20
-5.2482
 30
0.0
 10
42.5729
 20
-4.4621
 30
0.0
 10
42.5729
 20
-4.4621
 30
0.0
 10
41.2361
 20
-4.0154
 30
0.0
 10
42.5653
 20
-1.1266
 30
0.0
 10
39.4711
 20
1.2633
 30
0.0
 10
39.4711
 20
1.2633
 30
0.0
 10
37.6142
 20
2.6973
 30
0.0
 10
34.9202
 20
3.0395
 30
0.0
 10
33.0208
 20
1.5055
 30
0.0
 10
33.0208
 20
1.5055
 30
0.0
 10
26.1807
 20
-4.02
 30
0.0
 10
33.4837
 20
-16.9825
 30
0.0
 10
45.9005
 20
-12.2004
 30
0.0
 10
45.9005
 20
-12.2004
 30
0.0
 10
50.2878
 20
-10.5105
 30
0.0
 10
53.2814
 20
-6.7831
 30
0.0
 10
55.0762
 20
-2.8319
 30
0.0
 10
55.0762
 20
-2.8319
 30
0.0
 10
52.9008
 20
-4.1835
 30
0.0
 10
49.9772
 20
-3.4902
 30
0.0
 10
49.6197
 20
-1.0376
 30
0.0
 10
49.6197
 20
-1.0376
 30
0.0
 10
49.6197
 20
-1.0376
 30
0.0
 10
49.6191
 20
-1.0379
 30
0.0
 10
49.6191
 20
-1.0379
 30
0.0
 10
49.6191
 20
-1.0379
 30
0.0
 10
49.4654
 20
-2.5189
 30
0.0
 10
49.2265
 20
-4.0173
 30
0.0
 10
48.6523
 20
-5.3638
 30
0.0
 10
48.6523
 20
-5.3638
 30
0.0
 10
47.2309
 20
-8.6959
 30
0.0
 10
43.0119
 20
-11.5328
 30
0.0
 10
39.0295
 20
-10.6363
 30
0.0
 10
39.0295
 20
-10.6363
 30
0.0
 10
34.0986
 20
-9.5263
 30
0.0
 10
31.5269
 20
-4.3101
 30
0.0
 10
34.7743
 20
-1.0339
 30
0.0
 10
34.7743
 20
-1.0339
 30
0.0
 10
37.2148
 20
1.4282
 30
0.0
 10
40.8053
 20
0.0359
 30
0.0
 10
39.0487
 20
-1.4349
 30
0.0
 10
39.0487
 20
-1.4349
 30
0.0
 10
34.5303
 20
-5.2189
 30
0.0
 10
39.2952
 20
-11.0971
 30
0.0
 10
44.3506
 20
-7.332
 30
0.0
 10
44.3506
 20
-7.332
 30
0.0
 10
46.9137
 20
-5.4225
 30
0.0
 10
47.3275
 20
-3.2127
 30
0.0
 10
47.5846
 20
-0.3376
 30
0.0
 10
47.5846
 20
-0.3376
 30
0.0
 10
47.8519
 20
2.65
 30
0.0
 10
48.4835
 20
5.5588
 30
0.0
 10
49.0174
 20
8.494
 30
0.0
  0
SPLINE
  5
7C
330
1F
100
AcDbEntity
  8
layer 1
 62
     7
100
AcDbSpline
210
0.0
220
0.0
230
1.0
 70
    11
 71
     3
 72
    32
 73
    28
 74
     0
 42
0.0000000001
 43
0.0000000001
 12
1.0
 22
0.0
 32
0.0
 13
1.0
 23
0.0
 33
0.0
 40
0.0
 40
0.0
 40
0.0
 40
0.0
 40
0.125
 40
0.125
 40
0.125
 40
0.125
 40
0.25
 40
0.25
 40
0.25
 40
0.25
 40
0.375
 40
0.375
 40
0.375
 40
0.375
 40
0.5
 40
0.5
 40
0.5
 40
0.5
 40
0.625
 40
0.625
 40
0.625
 40
0.625
 40
0.75
 40
0.75
 40
0.75
 40
0.75
 40
1.0
 40
1.0
 40
1.0
 40
1.0
 10
50.4847
 20
5.9639
 30
0.0
 10
50.053
 20
5.4233
 30
0.0
 10
49.8472
 20
1.5015
 30
0.0
 10
49.7662
 20
0.5731
 30
0.0
 10
49.7662
 20
0.5731
 30
0.0
 10
49.7662
 20
0.5731
 30
0.0
 10
49.7664
 20
0.5731
 30
0.0
 10
49.7664
 20
0.5731
 30
0.0
 10
49.7664
 20
0.5731
 30
0.0
 10
49.7664
 20
0.5731
 30
0.0
 10
49.7671
 20
0.5725
 30
0.0
 10
49.7671
 20
0.5725
 30
0.0
 10
49.7671
 20
0.5725
 30
0.0
 10
51.1225
 20
4.3269
 30
0.0
 10
57.141
 20
1.9144
 30
0.0
 10
55.1937
 20
-1.0033
 30
0.0
 10
55.1937
 20
-1.0033
 30
0.0
 10
55.1937
 20
-1.0033
 30
0.0
 10
55.2255
 20
-1.0327
 30
0.0
 10
55.2255
 20
-1.0327
 30
0.0
 10
55.2255
 20
-1.0327
 30
0.0
 10
56.938
 20
0.6915
 30
0.0
 10
57.0824
 20
3.1708
 30
0.0
 10
57.427
 20
5.3698
 30
0.0
 10
57.427
 20
5.3698
 30
0.0
 10
55.5089
 20
2.7875
 30
0.0
 10
51.7844
 20
3.0142
 30
0.0
 10
50.4847
 20
5.9639
 30
0.0
  0
SPLINE
  5
7D
330
1F
100
AcDbEntity
  8
layer 1
 62
     7
100
AcDbSpline
210
0.0
220
0.0
230
1.0
 70
    11
 71
     3
 72
    12
 73
     8
 74
     0
 42
0.0000000001
 43
0.0000000001
 12
1.0
 22
0.0
 32
0.0
 13
1.0
 23
0.0
 33
0.0
 40
0.0
 40
0.0
 40
0.0
 40
0.0
 40
0.3333333333333333
 40
0.3333333333333333
 40
0.3333333333333333
 40
0.3333333333333333
 40
1.0
 40
1.0
 40
1.0
 40
1.0
 10
55.5199
 20
11.358
 30
0.0
 10
52.5101
 20
13.9225
 30
0.0
 10
49.3409
 20
8.1153
 30
0.0
 10
52.7271
 20
5.4563
 30
0.0
 10
52.7271
 20
5.4563
 30
0.0
 10
55.5548
 20
3.2361
 30
0.0
 10
58.3469
 20
8.9494
 30
0.0
 10
55.5199
 20
11.358
 30
0.0
  0
SPLINE
  5
7E
330
1F
100
AcDbEntity
  8
layer 1
 62
     7
100
AcDbSpline
210
0.0
220
0.0
230
1.0
 70
    11
 71
     3
 72
    20
 73
    16
 74
     0
 42
0.0000000001
 43
0.0000000001
 12
1.0
 22
0.0
 32
0.0
 13
1.0
 23
0.0
 33
0.0
 40
0.0
 40
0.0
 40
0.0
 40
0.0
 40
0.2
 40
0.2
 40
0.2
 40
0.2
 40
0.4
 40
0.4
 40
0.4
 40
0.4
 40
0.6
 40
0.6
 40
0.6
 40
0.6
 40
1.0
 40
1.0
 40
1.0
 40
1.0
 10
53.9975
 20
47.2571
 30
0.0
 10
53.9975
 20
47.2571
 30
0.0
 10
54.0461
 20
47.2253
 30
0.0
 10
54.0461
 20
47.2253
 30
0.0
 10
54.0461
 20
47.2253
 30
0.0
 10
52.2486
 20
46.3624
 30
0.0
 10
50.519
 20
47.7007
 30
0.0
 10
51.4258
 20
49.4495
 30
0.0
 10
51.4258
 20
49.4495
 30
0.0
 10
51.9355
 20
50.4329
 30
0.0
 10
53.2962
 20
50.2256
 30
0.0
 10
53.4096
 20
49.1351
 30
0.0
 10
53.4096
 20
49.1351
 30
0.0
 10
53.4304
 20
48.9376
 30
0.0
 10
51.4386
 20
46.4677
 30
0.0
 10
53.9975
 20
47.2571
 30
0.0
  0
SPLINE
  5
7F
330
1F
100
AcDbEntity
  8
layer 1
 62
     7
100
AcDbSpline
210
0.0
220
0.0
230
1.0
 70
    11
 71
     3
 72
    20
 73
    16
 74
     0
 42
0.0000000001
 43
0.0000000001
 12
1.0
 22
0.0
 32
0.0
 13
1.0
 23
0.0
 33
0.0
 40
0.0
 40
0.0
 40
0.0
 40
0.0
 40
0.2
 40
0.2
 40
0.2
 40
0.2
 40
0.4
 40
0.4
 40
0.4
 40
0.4
 40
0.6
 40
0.6
 40
0.6
 40
0.6
 40
1.0
 40
1.0
 40
1.0
 40
1.0
 10
53.9975
 20
68.0123
 30
0.0
 10
53.9975
 20
68.0123
 30
0.0
 10
54.0461
 20
68.0444
 30
0.0
 10
54.0461
 20
68.0444
 30
0.0
 10
54.0461
 20
68.0444
 30
0.0
 10
52.2486
 20
68.9069
 30
0.0
 10
50.519
 20
67.5686
 30
0.0
 10
51.4258
 20
65.8198
 30
0.0
 10
51.4258
 20
65.8198
 30
0.0
 10
51.9355
 20
64.8368
 30
0.0
 10
53.2962
 20
65.0439
 30
0.0
 10
53.4096
 20
66.1341
 30
0.0
 10
53.4096
 20
66.1341
 30
0.0
 10
53.4304
 20
66.3317
 30
0.0
 10
51.4386
 20
68.8016
 30
0.0
 10
53.9975
 20
68.0123
 30
0.0
  0
SPLINE
  5
80
330
1F
100
AcDbEntity
  8
layer 1
 62
     7
100
AcDbSpline
210
0.0
220
0.0
230
1.0
 70
    11
 71
     3
 72
    32
 73
    28
 74
     0
 42
0.0000000001
 43
0.0000000001
 12
1.0
 22
0.0
 32
0.0
 13
1.0
 23
0.0
 33
0.0
 40
0.0
 40
0.0
 40
0.0
 40
0.0
 40
0.125
 40
0.125
 40
0.125
 40
0.125
 40
0.25
 40
0.25
 40
0.25
 40
0.25
 40
0.375
 40
0.375
 40
0.375
 40
0.375
 40
0.5
 40
0.5
 40
0.5
 40
0.5
 40
0.625
 40
0.625
 40
0.625
 40
0.625
 40
0.75
 40
0.75
 40
0.75
 40
0.75
 40
1.0
 40
1.0
 40
1.0
 40
1.0
 10
50.4847
 20
55.1048
 30
0.0
 10
50.053
 20
54.5641
 30
0.0
 10
49.8472
 20
50.6423
 30
0.0
 10
49.7662
 20
49.714
 30
0.0
 10
49.7662
 20
49.714
 30
0.0
 10
49.7662
 20
49.714
 30
0.0
 10
49.7664
 20
49.714
 30
0.0
 10
49.7664
 20
49.714
 30
0.0
 10
49.7664
 20
49.714
 30
0.0
 10
49.7664
 20
49.714
 30
0.0
 10
49.7671
 20
49.7133
 30
0.0
 10
49.7671
 20
49.7133
 30
0.0
 10
49.7671
 20
49.7133
 30
0.0
 10
51.1225
 20
53.4677
 30
0.0
 10
57.141
 20
51.0553
 30
0.0
 10
55.1937
 20
48.1376
 30
0.0
 10
55.1937
 20
48.1376
 30
0.0
 10
55.1937
 20
48.1376
 30
0.0
 10
55.2255
 20
48.1082
 30
0.0
 10
55.2255
 20
48.1082
 30
0.0
 10
55.2255
 20
48.1082
 30
0.0
 10
56.938
 20
49.8323
 30
0.0
 10
57.0824
 20
52.3117
 30
0.0
 10
57.427
 20
54.5106
 30
0.0
 10
57.427
 20
54.5106
 30
0.0
 10
55.5089
 20
51.9283
 30
0.0
 10
51.7844
 20
52.1551
 30
0.0
 10
50.4847
 20
55.1048
 30
0.0
  0
SPLINE
  5
81
330
1F
100
AcDbEntity
  8
layer 1
 62
     7
100
AcDbSpline
210
0.0
220
0.0
230
1.0
 70
    11
 71
     3
 72
    20
 73
    16
 74
     0
 42
0.0000000001
 43
0.0000000001
 12
1.0
 22
0.0
 32
0.0
 13
1.0
 23
0.0
 33
0.0
 40
0.0
 40
0.0
 40
0.0
 40
0.0
 40
0.2
 40
0.2
 40
0.2
 40
0.2
 40
0.4
 40
0.4
 40
0.4
 40
0.4
 40
0.6
 40
0.6
 40
0.6
 40
0.6
 40
1.0
 40
1.0
 40
1.0
 40
1.0
 10
34.8057
 20
60.6763
 30
0.0
 10
34.0194
 20
60.1752
 30
0.0
 10
33.2196
 20
59.6287
 30
0.0
 10
32.4163
 20
59.0392
 30
0.0
 10
32.4163
 20
59.0392
 30
0.0
 10
27.722
 20
62.9185
 30
0.0
 10
22.4834
 20
68.7351
 30
0.0
 10
20.5471
 20
75.7608
 30
0.0
 10
20.5471
 20
75.7608
 30
0.0
 10
22.9283
 20
73.7898
 30
0.0
 10
26.4003
 20
73.4645
 30
0.0
 10
29.2753
 20
74.6521
 30
0.0
 10
29.2753
 20
74.6521
 30
0.0
 10
26.0896
 20
68.4278
 30
0.0
 10
29.2602
 20
61.7899
 30
0.0
 10
34.8057
 20
60.6763
 30
0.0
  0
SPLINE
  5
82
330
1F
100
AcDbEntity
  8
layer 1
 62
     7
100
AcDbSpline
210
0.0
220
0.0
230
1.0
 70
    11
 71
     3
 72
    20
 73
    16
 74
     0
 42
0.0000000001
 43
0.0000000001
 12
1.0
 22
0.0
 32
0.0
 13
1.0
 23
0.0
 33
0.0
 40
0.0
 40
0.0
 40
0.0
 40
0.0
 40
0.2
 40
0.2
 40
0.2
 40
0.2
 40
0.4
 40
0.4
 40
0.4
 40
0.4
 40
0.6
 40
0.6
 40
0.6
 40
0.6
 40
1.0
 40
1.0
 40
1.0
 40
1.0
 10
34.8057
 20
54.5932
 30
0.0
 10
29.2602
 20
53.4795
 30
0.0
 10
26.0896
 20
46.8415
 30
0.0
 10
29.2753
 20
40.6174
 30
0.0
 10
29.2753
 20
40.6174
 30
0.0
 10
26.4003
 20
41.8048
 30
0.0
 10
22.9283
 20
41.4796
 30
0.0
 10
20.5471
 20
39.5087
 30
0.0
 10
20.5471
 20
39.5087
 30
0.0
 10
22.4834
 20
46.5342
 30
0.0
 10
27.722
 20
52.351
 30
0.0
 10
32.4163
 20
56.2301
 30
0.0
 10
32.4163
 20
56.2301
 30
0.0
 10
33.2196
 20
55.6407
 30
0.0
 10
34.0194
 20
55.0942
 30
0.0
 10
34.8057
 20
54.5932
 30
0.0
  0
SPLINE
  5
83
330
1F
100
AcDbEntity
  8
layer 1
 62
     7
100
AcDbSpline
210
0.0
220
0.0
230
1.0
 70
    11
 71
     3
 72
   132
 73
   128
 74
     0
 42
0.0000000001
 43
0.0000000001
 12
1.0
 22
0.0
 32
0.0
 13
1.0
 23
0.0
 33
0.0
 40
0.0
 40
0.0
 40
0.0
 40
0.0
 40
0.0303030303030303
 40
0.0303030303030303
 40
0.0303030303030303
 40
0.0303030303030303
 40
0.0606060606060606
 40
0.0606060606060606
 40
0.0606060606060606
 40
0.0606060606060606
 40
0.0909090909090909
 40
0.0909090909090909
 40
0.0909090909090909
 40
0.0909090909090909
 40
0.1212121212121212
 40
0.1212121212121212
 40
0.1212121212121212
 40
0.1212121212121212
 40
0.1515151515151515
 40
0.1515151515151515
 40
0.1515151515151515
 40
0.1515151515151515
 40
0.1818181818181818
 40
0.1818181818181818
 40
0.1818181818181818
 40
0.1818181818181818
 40
0.2121212121212121
 40
0.2121212121212121
 40
0.2121212121212121
 40
0.2121212121212121
 40
0.2424242424242424
 40
0.2424242424242424
 40
0.2424242424242424
 40
0.2424242424242424
 40
0.2727272727272727
 40
0.2727272727272727
 40
0.2727272727272727
 40
0.2727272727272727
 40
0.303030303030303
 40
0.303030303030303
 40
0.303030303030303
 40
0.303030303030303
 40
0.3333333333333333
 40
0.3333333333333333
 40
0.3333333333333333
 40
0.3333333333333333
 40
0.3636363636363636
 40
0.3636363636363636
 40
0.3636363636363636
 40
0.3636363636363636
 40
0.3939393939393939
 40
0.3939393939393939
 40
0.3939393939393939
 40
0.3939393939393939
 40
0.4242424242424243
 40
0.4242424242424243
 40
0.4242424242424243
 40
0.4242424242424243
 40
0.4545454545454545
 40
0.4545454545454545
 40
0.4545454545454545
 40
0.4545454545454545
 40
0.4848484848484849
 40
0.4848484848484849
 40
0.4848484848484849
 40
0.4848484848484849
 40
0.5151515151515151
 40
0.5151515151515151
 40
0.5151515151515151
 40
0.5151515151515151
 40
0.5454545454545454
 40
0.5454545454545454
 40
0.5454545454545454
 40
0.5454545454545454
 40
0.5757575757575758
 40
0.5757575757575758
 40
0.5757575757575758
 40
0.5757575757575758
 40
0.6060606060606061
 40
0.6060606060606061
 40
0.6060606060606061
 40
0.6060606060606061
 40
0.6363636363636364
 40
0.6363636363636364
 40
0.6363636363636364
 40
0.6363636363636364
 40
0.6666666666666666
 40
0.6666666666666666
 40
0.6666666666666666
 40
0.6666666666666666
 40
0.696969696969697
 40
0.696969696969697
 40
0.696969696969697
 40
0.696969696969697
 40
0.7272727272727273
 40
0.7272727272727273
 40
0.7272727272727273
 40
0.7272727272727273
 40
0.7575757575757576
 40
0.7575757575757576
 40
0.7575757575757576
 40
0.7575757575757576
 40
0.7878787878787878
 40
0.7878787878787878
 40
0.7878787878787878
 40
0.7878787878787878
 40
0.8181818181818182
 40
0.8181818181818182
 40
0.8181818181818182
 40
0.8181818181818182
 40
0.8484848484848485
 40
0.8484848484848485
 40
0.8484848484848485
 40
0.8484848484848485
 40
0.8787878787878788
 40
0.8787878787878788
 40
0.8787878787878788
 40
0.8787878787878788
 40
0.9090909090909091
 40
0.9090909090909091
 40
0.9090909090909091
 40
0.9090909090909091
 40
0.9393939393939394
 40
0.9393939393939394
 40
0.9393939393939394
 40
0.9393939393939394
 40
1.0
 40
1.0
 40
1.0
 40
1.0
 10
49.0174
 20
57.6349
 30
0.0
 10
48.4835
 20
54.6997
 30
0.0
 10
47.8519
 20
51.7909
 30
0.0
 10
47.5846
 20
48.8033
 30
0.0
 10
47.5846
 20
48.8033
 30
0.0
 10
46.6434
 20
38.2788
 30
0.0
 10
36.7645
 20
38.76
 30
0.0
 10
37.291
 20
45.0807
 30
0.0
 10
37.291
 20
45.0807
 30
0.0
 10
37.3955
 20
46.3374
 30
0.0
 10
38.1223
 20
46.9302
 30
0.0
 10
39.0487
 20
47.706
 30
0.0
 10
39.0487
 20
47.706
 30
0.0
 10
40.8053
 20
49.1768
 30
0.0
 10
37.2148
 20
50.5691
 30
0.0
 10
34.7743
 20
48.107
 30
0.0
 10
34.7743
 20
48.107
 30
0.0
 10
31.5269
 20
44.8308
 30
0.0
 10
34.0986
 20
39.6148
 30
0.0
 10
39.0295
 20
38.5046
 30
0.0
 10
39.0295
 20
38.5046
 30
0.0
 10
43.0119
 20
37.6081
 30
0.0
 10
47.2309
 20
40.4447
 30
0.0
 10
48.6523
 20
43.7771
 30
0.0
 10
48.6523
 20
43.7771
 30
0.0
 10
49.2265
 20
45.1233
 30
0.0
 10
49.4654
 20
46.6219
 30
0.0
 10
49.6191
 20
48.103
 30
0.0
 10
49.6191
 20
48.103
 30
0.0
 10
49.6191
 20
48.103
 30
0.0
 10
49.6197
 20
48.1032
 30
0.0
 10
49.6197
 20
48.1032
 30
0.0
 10
49.6197
 20
48.1032
 30
0.0
 10
49.9772
 20
45.6507
 30
0.0
 10
52.9008
 20
44.9574
 30
0.0
 10
55.0762
 20
46.309
 30
0.0
 10
55.0762
 20
46.309
 30
0.0
 10
53.2814
 20
42.3578
 30
0.0
 10
50.2878
 20
38.6303
 30
0.0
 10
45.9005
 20
36.9405
 30
0.0
 10
45.9005
 20
36.9405
 30
0.0
 10
33.4837
 20
32.1584
 30
0.0
 10
26.1807
 20
45.1208
 30
0.0
 10
33.0208
 20
50.6464
 30
0.0
 10
33.0208
 20
50.6464
 30
0.0
 10
34.9202
 20
52.1804
 30
0.0
 10
37.6142
 20
51.8382
 30
0.0
 10
39.4711
 20
50.4041
 30
0.0
 10
39.4711
 20
50.4041
 30
0.0
 10
42.5653
 20
48.0143
 30
0.0
 10
41.2361
 20
45.1255
 30
0.0
 10
42.5729
 20
44.6788
 30
0.0
 10
42.5729
 20
44.6788
 30
0.0
 10
44.9251
 20
43.8925
 30
0.0
 10
46.6432
 20
51.367
 30
0.0
 10
39.9642
 20
54.0701
 30
0.0
 10
39.9642
 20
54.0701
 30
0.0
 10
39.9642
 20
54.0701
 30
0.0
 10
39.9642
 20
54.0705
 30
0.0
 10
39.9642
 20
54.0705
 30
0.0
 10
39.9642
 20
54.0705
 30
0.0
 10
38.7534
 20
54.5861
 30
0.0
 10
36.6287
 20
55.8135
 30
0.0
 10
34.1994
 20
57.6349
 30
0.0
 10
34.1994
 20
57.6349
 30
0.0
 10
36.6287
 20
59.456
 30
0.0
 10
38.7534
 20
60.6833
 30
0.0
 10
39.9642
 20
61.1992
 30
0.0
 10
39.9642
 20
61.1992
 30
0.0
 10
39.9642
 20
61.1992
 30
0.0
 10
39.9642
 20
61.1992
 30
0.0
 10
39.9642
 20
61.1992
 30
0.0
 10
39.9642
 20
61.1992
 30
0.0
 10
46.6432
 20
63.9023
 30
0.0
 10
44.9251
 20
71.3771
 30
0.0
 10
42.5729
 20
70.5909
 30
0.0
 10
42.5729
 20
70.5909
 30
0.0
 10
41.2361
 20
70.1439
 30
0.0
 10
42.5653
 20
67.2554
 30
0.0
 10
39.4711
 20
64.8656
 30
0.0
 10
39.4711
 20
64.8656
 30
0.0
 10
37.6142
 20
63.4313
 30
0.0
 10
34.9202
 20
63.0889
 30
0.0
 10
33.0208
 20
64.6231
 30
0.0
 10
33.0208
 20
64.6231
 30
0.0
 10
26.1807
 20
70.1485
 30
0.0
 10
33.4837
 20
83.1111
 30
0.0
 10
45.9005
 20
78.3288
 30
0.0
 10
45.9005
 20
78.3288
 30
0.0
 10
50.2878
 20
76.639
 30
0.0
 10
53.2814
 20
72.9115
 30
0.0
 10
55.0762
 20
68.9603
 30
0.0
 10
55.0762
 20
68.9603
 30
0.0
 10
52.9008
 20
70.3119
 30
0.0
 10
49.9772
 20
69.6184
 30
0.0
 10
49.6197
 20
67.1661
 30
0.0
 10
49.6197
 20
67.1661
 30
0.0
 10
49.6197
 20
67.1661
 30
0.0
 10
49.6191
 20
67.1665
 30
0.0
 10
49.6191
 20
67.1665
 30
0.0
 10
49.6191
 20
67.1665
 30
0.0
 10
49.4654
 20
68.6478
 30
0.0
 10
49.2265
 20
70.146
 30
0.0
 10
48.6523
 20
71.492
 30
0.0
 10
48.6523
 20
71.492
 30
0.0
 10
47.2309
 20
74.8248
 30
0.0
 10
43.0119
 20
77.6613
 30
0.0
 10
39.0295
 20
76.7648
 30
0.0
 10
39.0295
 20
76.7648
 30
0.0
 10
34.0986
 20
75.6548
 30
0.0
 10
31.5269
 20
70.4386
 30
0.0
 10
34.7743
 20
67.1625
 30
0.0
 10
34.7743
 20
67.1625
 30
0.0
 10
37.2148
 20
64.7003
 30
0.0
 10
40.8053
 20
66.0926
 30
0.0
 10
39.0487
 20
67.5634
 30
0.0
 10
39.0487
 20
67.5634
 30
0.0
 10
34.5303
 20
71.3478
 30
0.0
 10
39.2952
 20
77.2257
 30
0.0
 10
44.3506
 20
73.4605
 30
0.0
 10
44.3506
 20
73.4605
 30
0.0
 10
46.9137
 20
71.551
 30
0.0
 10
47.3275
 20
69.3413
 30
0.0
 10
47.5846
 20
66.4664
 30
0.0
 10
47.5846
 20
66.4664
 30
0.0
 10
47.8519
 20
63.4784
 30
0.0
 10
48.4835
 20
60.5699
 30
0.0
 10
49.0174
 20
57.6349
 30
0.0
  0
SPLINE
  5
84
330
1F
100
AcDbEntity
  8
layer 1
 62
     7
100
AcDbSpline
210
0.0
220
0.0
230
1.0
 70
    11
 71
     3
 72
    32
 73
    28
 74
     0
 42
0.0000000001
 43
0.0000000001
 12
1.0
 22
0.0
 32
0.0
 13
1.0
 23
0.0
 33
0.0
 40
0.0
 40
0.0
 40
0.0
 40
0.0
 40
0.125
 40
0.125
 40
0.125
 40
0.125
 40
0.25
 40
0.25
 40
0.25
 40
0.25
 40
0.375
 40
0.375
 40
0.375
 40
0.375
 40
0.5
 40
0.5
 40
0.5
 40
0.5
 40
0.625
 40
0.625
 40
0.625
 40
0.625
 40
0.75
 40
0.75
 40
0.75
 40
0.75
 40
1.0
 40
1.0
 40
1.0
 40
1.0
 10
50.4847
 20
60.1647
 30
0.0
 10
50.053
 20
60.7053
 30
0.0
 10
49.8472
 20
64.6271
 30
0.0
 10
49.7662
 20
65.5551
 30
0.0
 10
49.7662
 20
65.5551
 30
0.0
 10
49.7662
 20
65.5551
 30
0.0
 10
49.7664
 20
65.5551
 30
0.0
 10
49.7664
 20
65.5551
 30
0.0
 10
49.7664
 20
65.5551
 30
0.0
 10
49.7664
 20
65.5551
 30
0.0
 10
49.7671
 20
65.556
 30
0.0
 10
49.7671
 20
65.556
 30
0.0
 10
49.7671
 20
65.556
 30
0.0
 10
51.1225
 20
61.8016
 30
0.0
 10
57.141
 20
64.214
 30
0.0
 10
55.1937
 20
67.1319
 30
0.0
 10
55.1937
 20
67.1319
 30
0.0
 10
55.1937
 20
67.1319
 30
0.0
 10
55.2255
 20
67.1612
 30
0.0
 10
55.2255
 20
67.1612
 30
0.0
 10
55.2255
 20
67.1612
 30
0.0
 10
56.938
 20
65.4371
 30
0.0
 10
57.0824
 20
62.9579
 30
0.0
 10
57.427
 20
60.759
 30
0.0
 10
57.427
 20
60.759
 30
0.0
 10
55.5089
 20
63.341
 30
0.0
 10
51.7844
 20
63.1142
 30
0.0
 10
50.4847
 20
60.1647
 30
0.0
  0
SPLINE
  5
85
330
1F
100
AcDbEntity
  8
layer 1
 62
     7
100
AcDbSpline
210
0.0
220
0.0
230
1.0
 70
    11
 71
     3
 72
    12
 73
     8
 74
     0
 42
0.0000000001
 43
0.0000000001
 12
1.0
 22
0.0
 32
0.0
 13
1.0
 23
0.0
 33
0.0
 40
0.0
 40
0.0
 40
0.0
 40
0.0
 40
0.3333333333333333
 40
0.3333333333333333
 40
0.3333333333333333
 40
0.3333333333333333
 40
1.0
 40
1.0
 40
1.0
 40
1.0
 10
55.5199
 20
54.7705
 30
0.0
 10
52.5101
 20
52.2061
 30
0.0
 10
49.3409
 20
58.0133
 30
0.0
 10
52.7271
 20
60.6719
 30
0.0
 10
52.7271
 20
60.6719
 30
0.0
 10
55.5548
 20
62.8925
 30
0.0
 10
58.3469
 20
57.1795
 30
0.0
 10
55.5199
 20
54.7705
 30
0.0
  0
SPLINE
  5
86
330
1F
100
AcDbEntity
  8
layer 1
 62
     7
100
AcDbSpline
210
0.0
220
0.0
230
1.0
 70
    11
 71
     3
 72
    12
 73
     8
 74
     0
 42
0.0000000001
 43
0.0000000001
 12
1.0
 22
0.0
 32
0.0
 13
1.0
 23
0.0
 33
0.0
 40
0.0
 40
0.0
 40
0.0
 40
0.0
 40
0.3333333333333333
 40
0.3333333333333333
 40
0.3333333333333333
 40
0.3333333333333333
 40
1.0
 40
1.0
 40
1.0
 40
1.0
 10
25.7134
 20
33.0644
 30
0.0
 10
24.1321
 20
31.2035
 30
0.0
 10
20.3973
 20
32.4555
 30
0.0
 10
21.6007
 20
33.4515
 30
0.0
 10
21.6007
 20
33.4515
 30
0.0
 10
22.8996
 20
34.5263
 30
0.0
 10
24.7522
 20
34.1956
 30
0.0
 10
25.7134
 20
33.0644
 30
0.0
  0
SPLINE
  5
87
330
1F
100
AcDbEntity
  8
layer 1
 62
     7
100
AcDbSpline
210
0.0
220
0.0
230
1.0
 70
    11
 71
     3
 72
    20
 73
    16
 74
     0
 42
0.0000000001
 43
0.0000000001
 12
1.0
 22
0.0
 32
0.0
 13
1.0
 23
0.0
 33
0.0
 40
0.0
 40
0.0
 40
0.0
 40
0.0
 40
0.2
 40
0.2
 40
0.2
 40
0.2
 40
0.4
 40
0.4
 40
0.4
 40
0.4
 40
0.6
 40
0.6
 40
0.6
 40
0.6
 40
1.0
 40
1.0
 40
1.0
 40
1.0
 10
25.7134
 20
82.2053
 30
0.0
 10
25.7134
 20
82.2053
 30
0.0
 10
25.7134
 20
82.2053
 30
0.0
 10
25.7134
 20
82.2053
 30
0.0
 10
25.7134
 20
82.2053
 30
0.0
 10
24.1321
 20
84.0662
 30
0.0
 10
20.3973
 20
82.8141
 30
0.0
 10
21.6007
 20
81.8179
 30
0.0
 10
21.6007
 20
81.8179
 30
0.0
 10
22.8996
 20
80.7432
 30
0.0
 10
24.7522
 20
81.0737
 30
0.0
 10
25.7134
 20
82.2053
 30
0.0
 10
25.7134
 20
82.2053
 30
0.0
 10
25.7134
 20
82.2053
 30
0.0
 10
25.7134
 20
82.2053
 30
0.0
 10
25.7134
 20
82.2053
 30
0.0
  0
SPLINE
  5
88
330
1F
100
AcDbEntity
  8
layer 1
 62
     7
100
AcDbSpline
210
0.0
220
0.0
230
1.0
 70
    11
 71
     3
 72
    20
 73
    16
 74
     0
 42
0.0000000001
 43
0.0000000001
 12
1.0
 22
0.0
 32
0.0
 13
1.0
 23
0.0
 33
0.0
 40
0.0
 40
0.0
 40
0.0
 40
0.0
 40
0.2
 40
0.2
 40
0.2
 40
0.2
 40
0.4
 40
0.4
 40
0.4
 40
0.4
 40
0.6
 40
0.6
 40
0.6
 40
0.6
 40
1.0
 40
1.0
 40
1.0
 40
1.0
 10
53.9975
 20
-51.0249
 30
0.0
 10
53.9975
 20
-51.0249
 30
0.0
 10
54.0461
 20
-51.0567
 30
0.0
 10
54.0461
 20
-51.0567
 30
0.0
 10
54.0461
 20
-51.0567
 30
0.0
 10
52.2486
 20
-51.9192
 30
0.0
 10
50.519
 20
-50.5813
 30
0.0
 10
51.4258
 20
-48.8321
 30
0.0
 10
51.4258
 20
-48.8321
 30
0.0
 10
51.9355
 20
-47.8492
 30
0.0
 10
53.2962
 20
-48.0562
 30
0.0
 10
53.4096
 20
-49.1467
 30
0.0
 10
53.4096
 20
-49.1467
 30
0.0
 10
53.4304
 20
-49.3441
 30
0.0
 10
51.4386
 20
-51.8139
 30
0.0
 10
53.9975
 20
-51.0249
 30
0.0
  0
SPLINE
  5
89
330
1F
100
AcDbEntity
  8
layer 1
 62
     7
100
AcDbSpline
210
0.0
220
0.0
230
1.0
 70
    11
 71
     3
 72
    20
 73
    16
 74
     0
 42
0.0000000001
 43
0.0000000001
 12
1.0
 22
0.0
 32
0.0
 13
1.0
 23
0.0
 33
0.0
 40
0.0
 40
0.0
 40
0.0
 40
0.0
 40
0.2
 40
0.2
 40
0.2
 40
0.2
 40
0.4
 40
0.4
 40
0.4
 40
0.4
 40
0.6
 40
0.6
 40
0.6
 40
0.6
 40
1.0
 40
1.0
 40
1.0
 40
1.0
 10
53.9975
 20
-30.2694
 30
0.0
 10
53.9975
 20
-30.2694
 30
0.0
 10
54.0461
 20
-30.2376
 30
0.0
 10
54.0461
 20
-30.2376
 30
0.0
 10
54.0461
 20
-30.2376
 30
0.0
 10
52.2486
 20
-29.3751
 30
0.0
 10
50.519
 20
-30.7131
 30
0.0
 10
51.4258
 20
-32.4619
 30
0.0
 10
51.4258
 20
-32.4619
 30
0.0
 10
51.9355
 20
-33.4452
 30
0.0
 10
53.2962
 20
-33.2379
 30
0.0
 10
53.4096
 20
-32.1477
 30
0.0
 10
53.4096
 20
-32.1477
 30
0.0
 10
53.4304
 20
-31.9501
 30
0.0
 10
51.4386
 20
-29.4804
 30
0.0
 10
53.9975
 20
-30.2694
 30
0.0
  0
SPLINE
  5
8A
330
1F
100
AcDbEntity
  8
layer 1
 62
     7
100
AcDbSpline
210
0.0
220
0.0
230
1.0
 70
    11
 71
     3
 72
    32
 73
    28
 74
     0
 42
0.0000000001
 43
0.0000000001
 12
1.0
 22
0.0
 32
0.0
 13
1.0
 23
0.0
 33
0.0
 40
0.0
 40
0.0
 40
0.0
 40
0.0
 40
0.125
 40
0.125
 40
0.125
 40
0.125
 40
0.25
 40
0.25
 40
0.25
 40
0.25
 40
0.375
 40
0.375
 40
0.375
 40
0.375
 40
0.5
 40
0.5
 40
0.5
 40
0.5
 40
0.625
 40
0.625
 40
0.625
 40
0.625
 40
0.75
 40
0.75
 40
0.75
 40
0.75
 40
1.0
 40
1.0
 40
1.0
 40
1.0
 10
50.4847
 20
-43.177
 30
0.0
 10
50.053
 20
-43.7176
 30
0.0
 10
49.8472
 20
-47.6394
 30
0.0
 10
49.7662
 20
-48.5678
 30
0.0
 10
49.7662
 20
-48.5678
 30
0.0
 10
49.7662
 20
-48.5678
 30
0.0
 10
49.7664
 20
-48.5678
 30
0.0
 10
49.7664
 20
-48.5678
 30
0.0
 10
49.7664
 20
-48.5678
 30
0.0
 10
49.7664
 20
-48.5678
 30
0.0
 10
49.7671
 20
-48.5683
 30
0.0
 10
49.7671
 20
-48.5683
 30
0.0
 10
49.7671
 20
-48.5683
 30
0.0
 10
51.1225
 20
-44.814
 30
0.0
 10
57.141
 20
-47.2264
 30
0.0
 10
55.1937
 20
-50.1442
 30
0.0
 10
55.1937
 20
-50.1442
 30
0.0
 10
55.1937
 20
-50.1442
 30
0.0
 10
55.2255
 20
-50.1736
 30
0.0
 10
55.2255
 20
-50.1736
 30
0.0
 10
55.2255
 20
-50.1736
 30
0.0
 10
56.938
 20
-48.4494
 30
0.0
 10
57.0824
 20
-45.9703
 30
0.0
 10
57.427
 20
-43.7714
 30
0.0
 10
57.427
 20
-43.7714
 30
0.0
 10
55.5089
 20
-46.3537
 30
0.0
 10
51.7844
 20
-46.1266
 30
0.0
 10
50.4847
 20
-43.177
 30
0.0
  0
SPLINE
  5
8B
330
1F
100
AcDbEntity
  8
layer 1
 62
     7
100
AcDbSpline
210
0.0
220
0.0
230
1.0
 70
    11
 71
     3
 72
    20
 73
    16
 74
     0
 42
0.0000000001
 43
0.0000000001
 12
1.0
 22
0.0
 32
0.0
 13
1.0
 23
0.0
 33
0.0
 40
0.0
 40
0.0
 40
0.0
 40
0.0
 40
0.2
 40
0.2
 40
0.2
 40
0.2
 40
0.4
 40
0.4
 40
0.4
 40
0.4
 40
0.6
 40
0.6
 40
0.6
 40
0.6
 40
1.0
 40
1.0
 40
1.0
 40
1.0
 10
34.8057
 20
-37.6059
 30
0.0
 10
34.0194
 20
-38.1066
 30
0.0
 10
33.2196
 20
-38.6533
 30
0.0
 10
32.4163
 20
-39.2426
 30
0.0
 10
32.4163
 20
-39.2426
 30
0.0
 10
27.722
 20
-35.3633
 30
0.0
 10
22.4834
 20
-29.5465
 30
0.0
 10
20.5471
 20
-22.521
 30
0.0
 10
20.5471
 20
-22.521
 30
0.0
 10
22.9283
 20
-24.4922
 30
0.0
 10
26.4003
 20
-24.8175
 30
0.0
 10
29.2753
 20
-23.6297
 30
0.0
 10
29.2753
 20
-23.6297
 30
0.0
 10
26.0896
 20
-29.854
 30
0.0
 10
29.2602
 20
-36.4918
 30
0.0
 10
34.8057
 20
-37.6059
 30
0.0
  0
SPLINE
  5
8C
330
1F
100
AcDbEntity
  8
layer 1
 62
     7
100
AcDbSpline
210
0.0
220
0.0
230
1.0
 70
    11
 71
     3
 72
    20
 73
    16
 74
     0
 42
0.0000000001
 43
0.0000000001
 12
1.0
 22
0.0
 32
0.0
 13
1.0
 23
0.0
 33
0.0
 40
0.0
 40
0.0
 40
0.0
 40
0.0
 40
0.2
 40
0.2
 40
0.2
 40
0.2
 40
0.4
 40
0.4
 40
0.4
 40
0.4
 40
0.6
 40
0.6
 40
0.6
 40
0.6
 40
1.0
 40
1.0
 40
1.0
 40
1.0
 10
34.8057
 20
-43.6886
 30
0.0
 10
29.2602
 20
-44.8022
 30
0.0
 10
26.0896
 20
-51.4401
 30
0.0
 10
29.2753
 20
-57.6644
 30
0.0
 10
29.2753
 20
-57.6644
 30
0.0
 10
26.4003
 20
-56.4768
 30
0.0
 10
22.9283
 20
-56.8022
 30
0.0
 10
20.5471
 20
-58.7731
 30
0.0
 10
20.5471
 20
-58.7731
 30
0.0
 10
22.4834
 20
-51.7478
 30
0.0
 10
27.722
 20
-45.9308
 30
0.0
 10
32.4163
 20
-42.0516
 30
0.0
 10
32.4163
 20
-42.0516
 30
0.0
 10
33.2196
 20
-42.641
 30
0.0
 10
34.0194
 20
-43.1875
 30
0.0
 10
34.8057
 20
-43.6886
 30
0.0
  0
SPLINE
  5
8D
330
1F
100
AcDbEntity
  8
layer 1
 62
     7
100
AcDbSpline
210
0.0
220
0.0
230
1.0
 70
    11
 71
     3
 72
   132
 73
   128
 74
     0
 42
0.0000000001
 43
0.0000000001
 12
1.0
 22
0.0
 32
0.0
 13
1.0
 23
0.0
 33
0.0
 40
0.0
 40
0.0
 40
0.0
 40
0.0
 40
0.0303030303030303
 40
0.0303030303030303
 40
0.0303030303030303
 40
0.0303030303030303
 40
0.0606060606060606
 40
0.0606060606060606
 40
0.0606060606060606
 40
0.0606060606060606
 40
0.0909090909090909
 40
0.0909090909090909
 40
0.0909090909090909
 40
0.0909090909090909
 40
0.1212121212121212
 40
0.1212121212121212
 40
0.1212121212121212
 40
0.1212121212121212
 40
0.1515151515151515
 40
0.1515151515151515
 40
0.1515151515151515
 40
0.1515151515151515
 40
0.1818181818181818
 40
0.1818181818181818
 40
0.1818181818181818
 40
0.1818181818181818
 40
0.2121212121212121
 40
0.2121212121212121
 40
0.2121212121212121
 40
0.2121212121212121
 40
0.2424242424242424
 40
0.2424242424242424
 40
0.2424242424242424
 40
0.2424242424242424
 40
0.2727272727272727
 40
0.2727272727272727
 40
0.2727272727272727
 40
0.2727272727272727
 40
0.303030303030303
 40
0.303030303030303
 40
0.303030303030303
 40
0.303030303030303
 40
0.3333333333333333
 40
0.3333333333333333
 40
0.3333333333333333
 40
0.3333333333333333
 40
0.3636363636363636
 40
0.3636363636363636
 40
0.3636363636363636
 40
0.3636363636363636
 40
0.3939393939393939
 40
0.3939393939393939
 40
0.3939393939393939
 40
0.3939393939393939
 40
0.4242424242424243
 40
0.4242424242424243
 40
0.4242424242424243
 40
0.4242424242424243
 40
0.4545454545454545
 40
0.4545454545454545
 40
0.4545454545454545
 40
0.4545454545454545
 40
0.4848484848484849
 40
0.4848484848484849
 40
0.4848484848484849
 40
0.4848484848484849
 40
0.5151515151515151
 40
0.5151515151515151
 40
0.5151515151515151
 40
0.5151515151515151
 40
0.5454545454545454
 40
0.5454545454545454
 40
0.5454545454545454
 40
0.5454545454545454
 40
0.5757575757575758
 40
0.5757575757575758
 40
0.5757575757575758
 40
0.5757575757575758
 40
0.6060606060606061
 40
0.6060606060606061
 40
0.6060606060606061
 40
0.6060606060606061
 40
0.6363636363636364
 40
0.6363636363636364
 40
0.6363636363636364
 40
0.6363636363636364
 40
0.6666666666666666
 40
0.6666666666666666
 40
0.6666666666666666
 40
0.6666666666666666
 40
0.696969696969697
 40
0.696969696969697
 40
0.696969696969697
 40
0.696969696969697
 40
0.7272727272727273
 40
0.7272727272727273
 40
0.7272727272727273
 40
0.7272727272727273
 40
0.7575757575757576
 40
0.7575757575757576
 40
0.7575757575757576
 40
0.7575757575757576
 40
0.7878787878787878
 40
0.7878787878787878
 40
0.7878787878787878
 40
0.7878787878787878
 40
0.8181818181818182
 40
0.8181818181818182
 40
0.8181818181818182
 40
0.8181818181818182
 40
0.8484848484848485
 40
0.8484848484848485
 40
0.8484848484848485
 40
0.8484848484848485
 40
0.8787878787878788
 40
0.8787878787878788
 40
0.8787878787878788
 40
0.8787878787878788
 40
0.9090909090909091
 40
0.9090909090909091
 40
0.9090909090909091
 40
0.9090909090909091
 40
0.9393939393939394
 40
0.9393939393939394
 40
0.9393939393939394
 40
0.9393939393939394
 40
1.0
 40
1.0
 40
1.0
 40
1.0
 10
49.0174
 20
-40.6472
 30
0.0
 10
48.4835
 20
-43.5823
 30
0.0
 10
47.8519
 20
-46.4909
 30
0.0
 10
47.5846
 20
-49.4788
 30
0.0
 10
47.5846
 20
-49.4788
 30
0.0
 10
46.6434
 20
-60.003
 30
0.0
 10
36.7645
 20
-59.5216
 30
0.0
 10
37.291
 20
-53.201
 30
0.0
 10
37.291
 20
-53.201
 30
0.0
 10
37.3955
 20
-51.9443
 30
0.0
 10
38.1223
 20
-51.3518
 30
0.0
 10
39.0487
 20
-50.5758
 30
0.0
 10
39.0487
 20
-50.5758
 30
0.0
 10
40.8053
 20
-49.105
 30
0.0
 10
37.2148
 20
-47.7126
 30
0.0
 10
34.7743
 20
-50.1748
 30
0.0
 10
34.7743
 20
-50.1748
 30
0.0
 10
31.5269
 20
-53.451
 30
0.0
 10
34.0986
 20
-58.6672
 30
0.0
 10
39.0295
 20
-59.7771
 30
0.0
 10
39.0295
 20
-59.7771
 30
0.0
 10
43.0119
 20
-60.6736
 30
0.0
 10
47.2309
 20
-57.8371
 30
0.0
 10
48.6523
 20
-54.5047
 30
0.0
 10
48.6523
 20
-54.5047
 30
0.0
 10
49.2265
 20
-53.1584
 30
0.0
 10
49.4654
 20
-51.6601
 30
0.0
 10
49.6191
 20
-50.1788
 30
0.0
 10
49.6191
 20
-50.1788
 30
0.0
 10
49.6191
 20
-50.1788
 30
0.0
 10
49.6197
 20
-50.1785
 30
0.0
 10
49.6197
 20
-50.1785
 30
0.0
 10
49.6197
 20
-50.1785
 30
0.0
 10
49.9772
 20
-52.6311
 30
0.0
 10
52.9008
 20
-53.3246
 30
0.0
 10
55.0762
 20
-51.9727
 30
0.0
 10
55.0762
 20
-51.9727
 30
0.0
 10
53.2814
 20
-55.9239
 30
0.0
 10
50.2878
 20
-59.6514
 30
0.0
 10
45.9005
 20
-61.3412
 30
0.0
 10
45.9005
 20
-61.3412
 30
0.0
 10
33.4837
 20
-66.1234
 30
0.0
 10
26.1807
 20
-53.1612
 30
0.0
 10
33.0208
 20
-47.6354
 30
0.0
 10
33.0208
 20
-47.6354
 30
0.0
 10
34.9202
 20
-46.1012
 30
0.0
 10
37.6142
 20
-46.4439
 30
0.0
 10
39.4711
 20
-47.8779
 30
0.0
 10
39.4711
 20
-47.8779
 30
0.0
 10
42.5653
 20
-50.2677
 30
0.0
 10
41.2361
 20
-53.1566
 30
0.0
 10
42.5729
 20
-53.6032
 30
0.0
 10
42.5729
 20
-53.6032
 30
0.0
 10
44.9251
 20
-54.3895
 30
0.0
 10
46.6432
 20
-46.9147
 30
0.0
 10
39.9642
 20
-44.2115
 30
0.0
 10
39.9642
 20
-44.2115
 30
0.0
 10
39.9642
 20
-44.2115
 30
0.0
 10
39.9642
 20
-44.2115
 30
0.0
 10
39.9642
 20
-44.2115
 30
0.0
 10
39.9642
 20
-44.2115
 30
0.0
 10
38.7534
 20
-43.6957
 30
0.0
 10
36.6287
 20
-42.4687
 30
0.0
 10
34.1994
 20
-40.6472
 30
0.0
 10
34.1994
 20
-40.6472
 30
0.0
 10
36.6287
 20
-38.8258
 30
0.0
 10
38.7534
 20
-37.5984
 30
0.0
 10
39.9642
 20
-37.0828
 30
0.0
 10
39.9642
 20
-37.0828
 30
0.0
 10
39.9642
 20
-37.0828
 30
0.0
 10
39.9642
 20
-37.0825
 30
0.0
 10
39.9642
 20
-37.0825
 30
0.0
 10
39.9642
 20
-37.0825
 30
0.0
 10
46.6432
 20
-34.3794
 30
0.0
 10
44.9251
 20
-26.9049
 30
0.0
 10
42.5729
 20
-27.6911
 30
0.0
 10
42.5729
 20
-27.6911
 30
0.0
 10
41.2361
 20
-28.1379
 30
0.0
 10
42.5653
 20
-31.0266
 30
0.0
 10
39.4711
 20
-33.4165
 30
0.0
 10
39.4711
 20
-33.4165
 30
0.0
 10
37.6142
 20
-34.8505
 30
0.0
 10
34.9202
 20
-35.1931
 30
0.0
 10
33.0208
 20
-33.6587
 30
0.0
 10
33.0208
 20
-33.6587
 30
0.0
 10
26.1807
 20
-28.1332
 30
0.0
 10
33.4837
 20
-15.171
 30
0.0
 10
45.9005
 20
-19.9528
 30
0.0
 10
45.9005
 20
-19.9528
 30
0.0
 10
50.2878
 20
-21.6427
 30
0.0
 10
53.2814
 20
-25.3701
 30
0.0
 10
55.0762
 20
-29.3217
 30
0.0
 10
55.0762
 20
-29.3217
 30
0.0
 10
52.9008
 20
-27.9698
 30
0.0
 10
49.9772
 20
-28.6634
 30
0.0
 10
49.6197
 20
-31.1156
 30
0.0
 10
49.6197
 20
-31.1156
 30
0.0
 10
49.6197
 20
-31.1156
 30
0.0
 10
49.6191
 20
-31.1156
 30
0.0
 10
49.6191
 20
-31.1156
 30
0.0
 10
49.6191
 20
-31.1156
 30
0.0
 10
49.4654
 20
-29.6343
 30
0.0
 10
49.2265
 20
-28.136
 30
0.0
 10
48.6523
 20
-26.7896
 30
0.0
 10
48.6523
 20
-26.7896
 30
0.0
 10
47.2309
 20
-23.4574
 30
0.0
 10
43.0119
 20
-20.6205
 30
0.0
 10
39.0295
 20
-21.5169
 30
0.0
 10
39.0295
 20
-21.5169
 30
0.0
 10
34.0986
 20
-22.6272
 30
0.0
 10
31.5269
 20
-27.8435
 30
0.0
 10
34.7743
 20
-31.1193
 30
0.0
 10
34.7743
 20
-31.1193
 30
0.0
 10
37.2148
 20
-33.5814
 30
0.0
 10
40.8053
 20
-32.1891
 30
0.0
 10
39.0487
 20
-30.7183
 30
0.0
 10
39.0487
 20
-30.7183
 30
0.0
 10
34.5303
 20
-26.9343
 30
0.0
 10
39.2952
 20
-21.0563
 30
0.0
 10
44.3506
 20
-24.8212
 30
0.0
 10
44.3506
 20
-24.8212
 30
0.0
 10
46.9137
 20
-26.7307
 30
0.0
 10
47.3275
 20
-28.9405
 30
0.0
 10
47.5846
 20
-31.8156
 30
0.0
 10
47.5846
 20
-31.8156
 30
0.0
 10
47.8519
 20
-34.8036
 30
0.0
 10
48.4835
 20
-37.7121
 30
0.0
 10
49.0174
 20
-40.6472
 30
0.0
  0
SPLINE
  5
8E
330
1F
100
AcDbEntity
  8
layer 1
 62
     7
100
AcDbSpline
210
0.0
220
0.0
230
1.0
 70
    11
 71
     3
 72
    32
 73
    28
 74
     0
 42
0.0000000001
 43
0.0000000001
 12
1.0
 22
0.0
 32
0.0
 13
1.0
 23
0.0
 33
0.0
 40
0.0
 40
0.0
 40
0.0
 40
0.0
 40
0.125
 40
0.125
 40
0.125
 40
0.125
 40
0.25
 40
0.25
 40
0.25
 40
0.25
 40
0.375
 40
0.375
 40
0.375
 40
0.375
 40
0.5
 40
0.5
 40
0.5
 40
0.5
 40
0.625
 40
0.625
 40
0.625
 40
0.625
 40
0.75
 40
0.75
 40
0.75
 40
0.75
 40
1.0
 40
1.0
 40
1.0
 40
1.0
 10
50.4847
 20
-38.1171
 30
0.0
 10
50.053
 20
-37.5764
 30
0.0
 10
49.8472
 20
-33.655
 30
0.0
 10
49.7662
 20
-32.7267
 30
0.0
 10
49.7662
 20
-32.7267
 30
0.0
 10
49.7662
 20
-32.7267
 30
0.0
 10
49.7664
 20
-32.7267
 30
0.0
 10
49.7664
 20
-32.7267
 30
0.0
 10
49.7664
 20
-32.7267
 30
0.0
 10
49.7664
 20
-32.7267
 30
0.0
 10
49.7671
 20
-32.726
 30
0.0
 10
49.7671
 20
-32.726
 30
0.0
 10
49.7671
 20
-32.726
 30
0.0
 10
51.1225
 20
-36.4801
 30
0.0
 10
57.141
 20
-34.0677
 30
0.0
 10
55.1937
 20
-31.1502
 30
0.0
 10
55.1937
 20
-31.1502
 30
0.0
 10
55.1937
 20
-31.1502
 30
0.0
 10
55.2255
 20
-31.1209
 30
0.0
 10
55.2255
 20
-31.1209
 30
0.0
 10
55.2255
 20
-31.1209
 30
0.0
 10
56.938
 20
-32.8447
 30
0.0
 10
57.0824
 20
-35.3241
 30
0.0
 10
57.427
 20
-37.523
 30
0.0
 10
57.427
 20
-37.523
 30
0.0
 10
55.5089
 20
-34.9407
 30
0.0
 10
51.7844
 20
-35.1674
 30
0.0
 10
50.4847
 20
-38.1171
 30
0.0
  0
SPLINE
  5
8F
330
1F
100
AcDbEntity
  8
layer 1
 62
     7
100
AcDbSpline
210
0.0
220
0.0
230
1.0
 70
    11
 71
     3
 72
    12
 73
     8
 74
     0
 42
0.0000000001
 43
0.0000000001
 12
1.0
 22
0.0
 32
0.0
 13
1.0
 23
0.0
 33
0.0
 40
0.0
 40
0.0
 40
0.0
 40
0.0
 40
0.3333333333333333
 40
0.3333333333333333
 40
0.3333333333333333
 40
0.3333333333333333
 40
1.0
 40
1.0
 40
1.0
 40
1.0
 10
55.5199
 20
-43.5112
 30
0.0
 10
52.5101
 20
-46.0757
 30
0.0
 10
49.3409
 20
-40.2685
 30
0.0
 10
52.7271
 20
-37.6099
 30
0.0
 10
52.7271
 20
-37.6099
 30
0.0
 10
55.5548
 20
-35.3893
 30
0.0
 10
58.3469
 20
-41.1026
 30
0.0
 10
55.5199
 20
-43.5112
 30
0.0
  0
SPLINE
  5
90
330
1F
100
AcDbEntity
  8
layer 1
 62
     7
100
AcDbSpline
210
0.0
220
0.0
230
1.0
 70
    11
 71
     3
 72
    20
 73
    16
 74
     0
 42
0.0000000001
 43
0.0000000001
 12
1.0
 22
0.0
 32
0.0
 13
1.0
 23
0.0
 33
0.0
 40
0.0
 40
0.0
 40
0.0
 40
0.0
 40
0.2
 40
0.2
 40
0.2
 40
0.2
 40
0.4
 40
0.4
 40
0.4
 40
0.4
 40
0.6
 40
0.6
 40
0.6
 40
0.6
 40
1.0
 40
1.0
 40
1.0
 40
1.0
 10
53.9975
 20
-79.4103
 30
0.0
 10
53.9975
 20
-79.4103
 30
0.0
 10
54.0461
 20
-79.3785
 30
0.0
 10
54.0461
 20
-79.3785
 30
0.0
 10
54.0461
 20
-79.3785
 30
0.0
 10
52.2486
 20
-78.516
 30
0.0
 10
50.519
 20
-79.8539
 30
0.0
 10
51.4258
 20
-81.6027
 30
0.0
 10
51.4258
 20
-81.6027
 30
0.0
 10
51.9355
 20
-82.5861
 30
0.0
 10
53.2962
 20
-82.3788
 30
0.0
 10
53.4096
 20
-81.2886
 30
0.0
 10
53.4096
 20
-81.2886
 30
0.0
 10
53.4304
 20
-81.0908
 30
0.0
 10
51.4386
 20
-78.6213
 30
0.0
 10
53.9975
 20
-79.4103
 30
0.0
  0
SPLINE
  5
91
330
1F
100
AcDbEntity
  8
layer 1
 62
     7
100
AcDbSpline
210
0.0
220
0.0
230
1.0
 70
    11
 71
     3
 72
    20
 73
    16
 74
     0
 42
0.0000000001
 43
0.0000000001
 12
1.0
 22
0.0
 32
0.0
 13
1.0
 23
0.0
 33
0.0
 40
0.0
 40
0.0
 40
0.0
 40
0.0
 40
0.2
 40
0.2
 40
0.2
 40
0.2
 40
0.4
 40
0.4
 40
0.4
 40
0.4
 40
0.6
 40
0.6
 40
0.6
 40
0.6
 40
1.0
 40
1.0
 40
1.0
 40
1.0
 10
53.9975
 20
-100.1658
 30
0.0
 10
53.9975
 20
-100.1658
 30
0.0
 10
54.0461
 20
-100.1976
 30
0.0
 10
54.0461
 20
-100.1976
 30
0.0
 10
54.0461
 20
-100.1976
 30
0.0
 10
52.2486
 20
-101.0601
 30
0.0
 10
50.519
 20
-99.7222
 30
0.0
 10
51.4258
 20
-97.973
 30
0.0
 10
51.4258
 20
-97.973
 30
0.0
 10
51.9355
 20
-96.99
 30
0.0
 10
53.2962
 20
-97.1971
 30
0.0
 10
53.4096
 20
-98.2875
 30
0.0
 10
53.4096
 20
-98.2875
 30
0.0
 10
53.4304
 20
-98.485
 30
0.0
 10
51.4386
 20
-100.9548
 30
0.0
 10
53.9975
 20
-100.1658
 30
0.0
  0
SPLINE
  5
92
330
1F
100
AcDbEntity
  8
layer 1
 62
     7
100
AcDbSpline
210
0.0
220
0.0
230
1.0
 70
    11
 71
     3
 72
    32
 73
    28
 74
     0
 42
0.0000000001
 43
0.0000000001
 12
1.0
 22
0.0
 32
0.0
 13
1.0
 23
0.0
 33
0.0
 40
0.0
 40
0.0
 40
0.0
 40
0.0
 40
0.125
 40
0.125
 40
0.125
 40
0.125
 40
0.25
 40
0.25
 40
0.25
 40
0.25
 40
0.375
 40
0.375
 40
0.375
 40
0.375
 40
0.5
 40
0.5
 40
0.5
 40
0.5
 40
0.625
 40
0.625
 40
0.625
 40
0.625
 40
0.75
 40
0.75
 40
0.75
 40
0.75
 40
1.0
 40
1.0
 40
1.0
 40
1.0
 10
50.4847
 20
-87.258
 30
0.0
 10
50.053
 20
-86.7173
 30
0.0
 10
49.8472
 20
-82.7955
 30
0.0
 10
49.7662
 20
-81.8675
 30
0.0
 10
49.7662
 20
-81.8675
 30
0.0
 10
49.7662
 20
-81.8675
 30
0.0
 10
49.7664
 20
-81.8675
 30
0.0
 10
49.7664
 20
-81.8675
 30
0.0
 10
49.7664
 20
-81.8675
 30
0.0
 10
49.7664
 20
-81.8675
 30
0.0
 10
49.7671
 20
-81.8666
 30
0.0
 10
49.7671
 20
-81.8666
 30
0.0
 10
49.7671
 20
-81.8666
 30
0.0
 10
51.1225
 20
-85.621
 30
0.0
 10
57.141
 20
-83.2089
 30
0.0
 10
55.1937
 20
-80.2908
 30
0.0
 10
55.1937
 20
-80.2908
 30
0.0
 10
55.1937
 20
-80.2908
 30
0.0
 10
55.2255
 20
-80.2617
 30
0.0
 10
55.2255
 20
-80.2617
 30
0.0
 10
55.2255
 20
-80.2617
 30
0.0
 10
56.938
 20
-81.9855
 30
0.0
 10
57.0824
 20
-84.465
 30
0.0
 10
57.427
 20
-86.6639
 30
0.0
 10
57.427
 20
-86.6639
 30
0.0
 10
55.5089
 20
-84.0815
 30
0.0
 10
51.7844
 20
-84.3083
 30
0.0
 10
50.4847
 20
-87.258
 30
0.0
  0
SPLINE
  5
93
330
1F
100
AcDbEntity
  8
layer 1
 62
     7
100
AcDbSpline
210
0.0
220
0.0
230
1.0
 70
    11
 71
     3
 72
    20
 73
    16
 74
     0
 42
0.0000000001
 43
0.0000000001
 12
1.0
 22
0.0
 32
0.0
 13
1.0
 23
0.0
 33
0.0
 40
0.0
 40
0.0
 40
0.0
 40
0.0
 40
0.2
 40
0.2
 40
0.2
 40
0.2
 40
0.4
 40
0.4
 40
0.4
 40
0.4
 40
0.6
 40
0.6
 40
0.6
 40
0.6
 40
1.0
 40
1.0
 40
1.0
 40
1.0
 10
34.8057
 20
-92.8295
 30
0.0
 10
34.0194
 20
-92.3284
 30
0.0
 10
33.2196
 20
-91.7819
 30
0.0
 10
32.4163
 20
-91.1924
 30
0.0
 10
32.4163
 20
-91.1924
 30
0.0
 10
27.722
 20
-95.0716
 30
0.0
 10
22.4834
 20
-100.8887
 30
0.0
 10
20.5471
 20
-107.914
 30
0.0
 10
20.5471
 20
-107.914
 30
0.0
 10
22.9283
 20
-105.943
 30
0.0
 10
26.4003
 20
-105.6177
 30
0.0
 10
29.2753
 20
-106.8055
 30
0.0
 10
29.2753
 20
-106.8055
 30
0.0
 10
26.0896
 20
-100.581
 30
0.0
 10
29.2602
 20
-93.9431
 30
0.0
 10
34.8057
 20
-92.8295
 30
0.0
  0
SPLINE
  5
94
330
1F
100
AcDbEntity
  8
layer 1
 62
     7
100
AcDbSpline
210
0.0
220
0.0
230
1.0
 70
    11
 71
     3
 72
    20
 73
    16
 74
     0
 42
0.0000000001
 43
0.0000000001
 12
1.0
 22
0.0
 32
0.0
 13
1.0
 23
0.0
 33
0.0
 40
0.0
 40
0.0
 40
0.0
 40
0.0
 40
0.2
 40
0.2
 40
0.2
 40
0.2
 40
0.4
 40
0.4
 40
0.4
 40
0.4
 40
0.6
 40
0.6
 40
0.6
 40
0.6
 40
1.0
 40
1.0
 40
1.0
 40
1.0
 10
34.8057
 20
-86.7466
 30
0.0
 10
29.2602
 20
-85.6327
 30
0.0
 10
26.0896
 20
-78.9948
 30
0.0
 10
29.2753
 20
-72.7706
 30
0.0
 10
29.2753
 20
-72.7706
 30
0.0
 10
26.4003
 20
-73.9581
 30
0.0
 10
22.9283
 20
-73.6331
 30
0.0
 10
20.5471
 20
-71.6621
 30
0.0
 10
20.5471
 20
-71.6621
 30
0.0
 10
22.4834
 20
-78.6874
 30
0.0
 10
27.722
 20
-84.5042
 30
0.0
 10
32.4163
 20
-88.3837
 30
0.0
 10
32.4163
 20
-88.3837
 30
0.0
 10
33.2196
 20
-87.7942
 30
0.0
 10
34.0194
 20
-87.2474
 30
0.0
 10
34.8057
 20
-86.7466
 30
0.0
  0
SPLINE
  5
95
330
1F
100
AcDbEntity
  8
layer 1
 62
     7
100
AcDbSpline
210
0.0
220
0.0
230
1.0
 70
    11
 71
     3
 72
   132
 73
   128
 74
     0
 42
0.0000000001
 43
0.0000000001
 12
1.0
 22
0.0
 32
0.0
 13
1.0
 23
0.0
 33
0.0
 40
0.0
 40
0.0
 40
0.0
 40
0.0
 40
0.0303030303030303
 40
0.0303030303030303
 40
0.0303030303030303
 40
0.0303030303030303
 40
0.0606060606060606
 40
0.0606060606060606
 40
0.0606060606060606
 40
0.0606060606060606
 40
0.0909090909090909
 40
0.0909090909090909
 40
0.0909090909090909
 40
0.0909090909090909
 40
0.1212121212121212
 40
0.1212121212121212
 40
0.1212121212121212
 40
0.1212121212121212
 40
0.1515151515151515
 40
0.1515151515151515
 40
0.1515151515151515
 40
0.1515151515151515
 40
0.1818181818181818
 40
0.1818181818181818
 40
0.1818181818181818
 40
0.1818181818181818
 40
0.2121212121212121
 40
0.2121212121212121
 40
0.2121212121212121
 40
0.2121212121212121
 40
0.2424242424242424
 40
0.2424242424242424
 40
0.2424242424242424
 40
0.2424242424242424
 40
0.2727272727272727
 40
0.2727272727272727
 40
0.2727272727272727
 40
0.2727272727272727
 40
0.303030303030303
 40
0.303030303030303
 40
0.303030303030303
 40
0.303030303030303
 40
0.3333333333333333
 40
0.3333333333333333
 40
0.3333333333333333
 40
0.3333333333333333
 40
0.3636363636363636
 40
0.3636363636363636
 40
0.3636363636363636
 40
0.3636363636363636
 40
0.3939393939393939
 40
0.3939393939393939
 40
0.3939393939393939
 40
0.3939393939393939
 40
0.4242424242424243
 40
0.4242424242424243
 40
0.4242424242424243
 40
0.4242424242424243
 40
0.4545454545454545
 40
0.4545454545454545
 40
0.4545454545454545
 40
0.4545454545454545
 40
0.4848484848484849
 40
0.4848484848484849
 40
0.4848484848484849
 40
0.4848484848484849
 40
0.5151515151515151
 40
0.5151515151515151
 40
0.5151515151515151
 40
0.5151515151515151
 40
0.5454545454545454
 40
0.5454545454545454
 40
0.5454545454545454
 40
0.5454545454545454
 40
0.5757575757575758
 40
0.5757575757575758
 40
0.5757575757575758
 40
0.5757575757575758
 40
0.6060606060606061
 40
0.6060606060606061
 40
0.6060606060606061
 40
0.6060606060606061
 40
0.6363636363636364
 40
0.6363636363636364
 40
0.6363636363636364
 40
0.6363636363636364
 40
0.6666666666666666
 40
0.6666666666666666
 40
0.6666666666666666
 40
0.6666666666666666
 40
0.696969696969697
 40
0.696969696969697
 40
0.696969696969697
 40
0.696969696969697
 40
0.7272727272727273
 40
0.7272727272727273
 40
0.7272727272727273
 40
0.7272727272727273
 40
0.7575757575757576
 40
0.7575757575757576
 40
0.7575757575757576
 40
0.7575757575757576
 40
0.7878787878787878
 40
0.7878787878787878
 40
0.7878787878787878
 40
0.7878787878787878
 40
0.8181818181818182
 40
0.8181818181818182
 40
0.8181818181818182
 40
0.8181818181818182
 40
0.8484848484848485
 40
0.8484848484848485
 40
0.8484848484848485
 40
0.8484848484848485
 40
0.8787878787878788
 40
0.8787878787878788
 40
0.8787878787878788
 40
0.8787878787878788
 40
0.9090909090909091
 40
0.9090909090909091
 40
0.9090909090909091
 40
0.9090909090909091
 40
0.9393939393939394
 40
0.9393939393939394
 40
0.9393939393939394
 40
0.9393939393939394
 40
1.0
 40
1.0
 40
1.0
 40
1.0
 10
49.0174
 20
-89.788
 30
0.0
 10
48.4835
 20
-86.853
 30
0.0
 10
47.8519
 20
-83.9445
 30
0.0
 10
47.5846
 20
-80.9565
 30
0.0
 10
47.5846
 20
-80.9565
 30
0.0
 10
46.6434
 20
-70.432
 30
0.0
 10
36.7645
 20
-70.9136
 30
0.0
 10
37.291
 20
-77.2339
 30
0.0
 10
37.291
 20
-77.2339
 30
0.0
 10
37.3955
 20
-78.491
 30
0.0
 10
38.1223
 20
-79.0835
 30
0.0
 10
39.0487
 20
-79.8592
 30
0.0
 10
39.0487
 20
-79.8592
 30
0.0
 10
40.8053
 20
-81.3303
 30
0.0
 10
37.2148
 20
-82.7223
 30
0.0
 10
34.7743
 20
-80.2602
 30
0.0
 10
34.7743
 20
-80.2602
 30
0.0
 10
31.5269
 20
-76.9843
 30
0.0
 10
34.0986
 20
-71.7681
 30
0.0
 10
39.0295
 20
-70.6578
 30
0.0
 10
39.0295
 20
-70.6578
 30
0.0
 10
43.0119
 20
-69.7614
 30
0.0
 10
47.2309
 20
-72.5979
 30
0.0
 10
48.6523
 20
-75.9305
 30
0.0
 10
48.6523
 20
-75.9305
 30
0.0
 10
49.2265
 20
-77.2769
 30
0.0
 10
49.4654
 20
-78.7751
 30
0.0
 10
49.6191
 20
-80.2564
 30
0.0
 10
49.6191
 20
-80.2564
 30
0.0
 10
49.6191
 20
-80.2564
 30
0.0
 10
49.6197
 20
-80.2564
 30
0.0
 10
49.6197
 20
-80.2564
 30
0.0
 10
49.6197
 20
-80.2564
 30
0.0
 10
49.9772
 20
-77.8042
 30
0.0
 10
52.9008
 20
-77.1106
 30
0.0
 10
55.0762
 20
-78.4626
 30
0.0
 10
55.0762
 20
-78.4626
 30
0.0
 10
53.2814
 20
-74.511
 30
0.0
 10
50.2878
 20
-70.7835
 30
0.0
 10
45.9005
 20
-69.0937
 30
0.0
 10
45.9005
 20
-69.0937
 30
0.0
 10
33.4837
 20
-64.3118
 30
0.0
 10
26.1807
 20
-77.2741
 30
0.0
 10
33.0208
 20
-82.7995
 30
0.0
 10
33.0208
 20
-82.7995
 30
0.0
 10
34.9202
 20
-84.3337
 30
0.0
 10
37.6142
 20
-83.9914
 30
0.0
 10
39.4711
 20
-82.5573
 30
0.0
 10
39.4711
 20
-82.5573
 30
0.0
 10
42.5653
 20
-80.1675
 30
0.0
 10
41.2361
 20
-77.2788
 30
0.0
 10
42.5729
 20
-76.832
 30
0.0
 10
42.5729
 20
-76.832
 30
0.0
 10
44.9251
 20
-76.0458
 30
0.0
 10
46.6432
 20
-83.5202
 30
0.0
 10
39.9642
 20
-86.2237
 30
0.0
 10
39.9642
 20
-86.2237
 30
0.0
 10
39.9642
 20
-86.2237
 30
0.0
 10
39.9642
 20
-86.2237
 30
0.0
 10
39.9642
 20
-86.2237
 30
0.0
 10
39.9642
 20
-86.2237
 30
0.0
 10
38.7534
 20
-86.7393
 30
0.0
 10
36.6287
 20
-87.9666
 30
0.0
 10
34.1994
 20
-89.788
 30
0.0
 10
34.1994
 20
-89.788
 30
0.0
 10
36.6287
 20
-91.6094
 30
0.0
 10
38.7534
 20
-92.8365
 30
0.0
 10
39.9642
 20
-93.3521
 30
0.0
 10
39.9642
 20
-93.3521
 30
0.0
 10
39.9642
 20
-93.3521
 30
0.0
 10
39.9642
 20
-93.3524
 30
0.0
 10
39.9642
 20
-93.3524
 30
0.0
 10
39.9642
 20
-93.3524
 30
0.0
 10
46.6432
 20
-96.0556
 30
0.0
 10
44.9251
 20
-103.5304
 30
0.0
 10
42.5729
 20
-102.7441
 30
0.0
 10
42.5729
 20
-102.7441
 30
0.0
 10
41.2361
 20
-102.2971
 30
0.0
 10
42.5653
 20
-99.4083
 30
0.0
 10
39.4711
 20
-97.0188
 30
0.0
 10
39.4711
 20
-97.0188
 30
0.0
 10
37.6142
 20
-95.5847
 30
0.0
 10
34.9202
 20
-95.2421
 30
0.0
 10
33.0208
 20
-96.7765
 30
0.0
 10
33.0208
 20
-96.7765
 30
0.0
 10
26.1807
 20
-102.3017
 30
0.0
 10
33.4837
 20
-115.2643
 30
0.0
 10
45.9005
 20
-110.4821
 30
0.0
 10
45.9005
 20
-110.4821
 30
0.0
 10
50.2878
 20
-108.7926
 30
0.0
 10
53.2814
 20
-105.0648
 30
0.0
 10
55.0762
 20
-101.1136
 30
0.0
 10
55.0762
 20
-101.1136
 30
0.0
 10
52.9008
 20
-102.4655
 30
0.0
 10
49.9772
 20
-101.772
 30
0.0
 10
49.6197
 20
-99.3194
 30
0.0
 10
49.6197
 20
-99.3194
 30
0.0
 10
49.6197
 20
-99.3194
 30
0.0
 10
49.6191
 20
-99.3197
 30
0.0
 10
49.6191
 20
-99.3197
 30
0.0
 10
49.6191
 20
-99.3197
 30
0.0
 10
49.4654
 20
-100.8007
 30
0.0
 10
49.2265
 20
-102.2993
 30
0.0
 10
48.6523
 20
-103.6456
 30
0.0
 10
48.6523
 20
-103.6456
 30
0.0
 10
47.2309
 20
-106.978
 30
0.0
 10
43.0119
 20
-109.8145
 30
0.0
 10
39.0295
 20
-108.918
 30
0.0
 10
39.0295
 20
-108.918
 30
0.0
 10
34.0986
 20
-107.808
 30
0.0
 10
31.5269
 20
-102.5918
 30
0.0
 10
34.7743
 20
-99.3157
 30
0.0
 10
34.7743
 20
-99.3157
 30
0.0
 10
37.2148
 20
-96.8535
 30
0.0
 10
40.8053
 20
-98.2458
 30
0.0
 10
39.0487
 20
-99.7166
 30
0.0
 10
39.0487
 20
-99.7166
 30
0.0
 10
34.5303
 20
-103.501
 30
0.0
 10
39.2952
 20
-109.3789
 30
0.0
 10
44.3506
 20
-105.6137
 30
0.0
 10
44.3506
 20
-105.6137
 30
0.0
 10
46.9137
 20
-103.7046
 30
0.0
 10
47.3275
 20
-101.4945
 30
0.0
 10
47.5846
 20
-98.6196
 30
0.0
 10
47.5846
 20
-98.6196
 30
0.0
 10
47.8519
 20
-95.6317
 30
0.0
 10
48.4835
 20
-92.7232
 30
0.0
 10
49.0174
 20
-89.788
 30
0.0
  0
SPLINE
  5
96
330
1F
100
AcDbEntity
  8
layer 1
 62
     7
100
AcDbSpline
210
0.0
220
0.0
230
1.0
 70
    11
 71
     3
 72
    32
 73
    28
 74
     0
 42
0.0000000001
 43
0.0000000001
 12
1.0
 22
0.0
 32
0.0
 13
1.0
 23
0.0
 33
0.0
 40
0.0
 40
0.0
 40
0.0
 40
0.0
 40
0.125
 40
0.125
 40
0.125
 40
0.125
 40
0.25
 40
0.25
 40
0.25
 40
0.25
 40
0.375
 40
0.375
 40
0.375
 40
0.375
 40
0.5
 40
0.5
 40
0.5
 40
0.5
 40
0.625
 40
0.625
 40
0.625
 40
0.625
 40
0.75
 40
0.75
 40
0.75
 40
0.75
 40
1.0
 40
1.0
 40
1.0
 40
1.0
 10
50.4847
 20
-92.3181
 30
0.0
 10
50.053
 20
-92.8585
 30
0.0
 10
49.8472
 20
-96.7803
 30
0.0
 10
49.7662
 20
-97.7087
 30
0.0
 10
49.7662
 20
-97.7087
 30
0.0
 10
49.7662
 20
-97.7087
 30
0.0
 10
49.7664
 20
-97.7087
 30
0.0
 10
49.7664
 20
-97.7087
 30
0.0
 10
49.7664
 20
-97.7087
 30
0.0
 10
49.7664
 20
-97.7087
 30
0.0
 10
49.7671
 20
-97.7092
 30
0.0
 10
49.7671
 20
-97.7092
 30
0.0
 10
49.7671
 20
-97.7092
 30
0.0
 10
51.1225
 20
-93.9548
 30
0.0
 10
57.141
 20
-96.3672
 30
0.0
 10
55.1937
 20
-99.285
 30
0.0
 10
55.1937
 20
-99.285
 30
0.0
 10
55.1937
 20
-99.285
 30
0.0
 10
55.2255
 20
-99.3145
 30
0.0
 10
55.2255
 20
-99.3145
 30
0.0
 10
55.2255
 20
-99.3145
 30
0.0
 10
56.938
 20
-97.5903
 30
0.0
 10
57.0824
 20
-95.1112
 30
0.0
 10
57.427
 20
-92.9122
 30
0.0
 10
57.427
 20
-92.9122
 30
0.0
 10
55.5089
 20
-95.4946
 30
0.0
 10
51.7844
 20
-95.2675
 30
0.0
 10
50.4847
 20
-92.3181
 30
0.0
  0
SPLINE
  5
97
330
1F
100
AcDbEntity
  8
layer 1
 62
     7
100
AcDbSpline
210
0.0
220
0.0
230
1.0
 70
    11
 71
     3
 72
    12
 73
     8
 74
     0
 42
0.0000000001
 43
0.0000000001
 12
1.0
 22
0.0
 32
0.0
 13
1.0
 23
0.0
 33
0.0
 40
0.0
 40
0.0
 40
0.0
 40
0.0
 40
0.3333333333333333
 40
0.3333333333333333
 40
0.3333333333333333
 40
0.3333333333333333
 40
1.0
 40
1.0
 40
1.0
 40
1.0
 10
55.5199
 20
-86.924
 30
0.0
 10
52.5101
 20
-84.3596
 30
0.0
 10
49.3409
 20
-90.1665
 30
0.0
 10
52.7271
 20
-92.8255
 30
0.0
 10
52.7271
 20
-92.8255
 30
0.0
 10
55.5548
 20
-95.046
 30
0.0
 10
58.3469
 20
-89.3326
 30
0.0
 10
55.5199
 20
-86.924
 30
0.0
  0
SPLINE
  5
98
330
1F
100
AcDbEntity
  8
layer 1
 62
     7
100
AcDbSpline
210
0.0
220
0.0
230
1.0
 70
    11
 71
     3
 72
    12
 73
     8
 74
     0
 42
0.0000000001
 43
0.0000000001
 12
1.0
 22
0.0
 32
0.0
 13
1.0
 23
0.0
 33
0.0
 40
0.0
 40
0.0
 40
0.0
 40
0.0
 40
0.3333333333333333
 40
0.3333333333333333
 40
0.3333333333333333
 40
0.3333333333333333
 40
1.0
 40
1.0
 40
1.0
 40
1.0
 10
25.7134
 20
-65.2176
 30
0.0
 10
24.1321
 20
-63.3567
 30
0.0
 10
20.3973
 20
-64.6088
 30
0.0
 10
21.6007
 20
-65.6047
 30
0.0
 10
21.6007
 20
-65.6047
 30
0.0
 10
22.8996
 20
-66.6795
 30
0.0
 10
24.7522
 20
-66.3489
 30
0.0
 10
25.7134
 20
-65.2176
 30
0.0
  0
SPLINE
  5
99
330
1F
100
AcDbEntity
  8
layer 1
 62
     7
100
AcDbSpline
210
0.0
220
0.0
230
1.0
 70
    11
 71
     3
 72
    20
 73
    16
 74
     0
 42
0.0000000001
 43
0.0000000001
 12
1.0
 22
0.0
 32
0.0
 13
1.0
 23
0.0
 33
0.0
 40
0.0
 40
0.0
 40
0.0
 40
0.0
 40
0.2
 40
0.2
 40
0.2
 40
0.2
 40
0.4
 40
0.4
 40
0.4
 40
0.4
 40
0.6
 40
0.6
 40
0.6
 40
0.6
 40
1.0
 40
1.0
 40
1.0
 40
1.0
 10
25.7134
 20
-16.0765
 30
0.0
 10
25.7134
 20
-16.0765
 30
0.0
 10
25.7134
 20
-16.0765
 30
0.0
 10
25.7134
 20
-16.0765
 30
0.0
 10
25.7134
 20
-16.0765
 30
0.0
 10
24.1321
 20
-14.2158
 30
0.0
 10
20.3973
 20
-15.4675
 30
0.0
 10
21.6007
 20
-16.4641
 30
0.0
 10
21.6007
 20
-16.4641
 30
0.0
 10
22.8996
 20
-17.5386
 30
0.0
 10
24.7522
 20
-17.2081
 30
0.0
 10
25.7134
 20
-16.0767
 30
0.0
 10
25.7134
 20
-16.0767
 30
0.0
 10
25.7134
 20
-16.0767
 30
0.0
 10
25.7134
 20
-16.0765
 30
0.0
 10
25.7134
 20
-16.0765
 30
0.0
  0
SPLINE
  5
9A
330
1F
100
AcDbEntity
  8
layer 1
 62
     7
100
AcDbSpline
210
0.0
220
0.0
230
1.0
 70
    11
 71
     3
 72
    20
 73
    16
 74
     0
 42
0.0000000001
 43
0.0000000001
 12
1.0
 22
0.0
 32
0.0
 13
1.0
 23
0.0
 33
0.0
 40
0.0
 40
0.0
 40
0.0
 40
0.0
 40
0.2
 40
0.2
 40
0.2
 40
0.2
 40
0.4
 40
0.4
 40
0.4
 40
0.4
 40
0.6
 40
0.6
 40
0.6
 40
0.6
 40
1.0
 40
1.0
 40
1.0
 40
1.0
 10
19.0306
 20
92.1922
 30
0.0
 10
16.5252
 20
97.9898
 30
0.0
 10
12.0583
 20
103.0436
 30
0.0
 10
7.4628
 20
106.7757
 30
0.0
 10
7.4628
 20
106.7757
 30
0.0
 10
12.0583
 20
110.5075
 30
0.0
 10
16.5252
 20
115.5615
 30
0.0
 10
19.0306
 20
121.3591
 30
0.0
 10
19.0306
 20
121.3591
 30
0.0
 10
21.5359
 20
115.5615
 30
0.0
 10
26.0027
 20
110.5075
 30
0.0
 10
30.5983
 20
106.7757
 30
0.0
 10
30.5983
 20
106.7757
 30
0.0
 10
26.0027
 20
103.0436
 30
0.0
 10
21.5359
 20
97.9898
 30
0.0
 10
19.0306
 20
92.1922
 30
0.0
  0
SPLINE
  5
9B
330
1F
100
AcDbEntity
  8
layer 1
 62
     7
100
AcDbSpline
210
0.0
220
0.0
230
1.0
 70
    11
 71
     3
 72
    20
 73
    16
 74
     0
 42
0.0000000001
 43
0.0000000001
 12
1.0
 22
0.0
 32
0.0
 13
1.0
 23
0.0
 33
0.0
 40
0.0
 40
0.0
 40
0.0
 40
0.0
 40
0.2
 40
0.2
 40
0.2
 40
0.2
 40
0.4
 40
0.4
 40
0.4
 40
0.4
 40
0.6
 40
0.6
 40
0.6
 40
0.6
 40
1.0
 40
1.0
 40
1.0
 40
1.0
 10
19.0306
 20
43.0513
 30
0.0
 10
16.5252
 20
48.8487
 30
0.0
 10
12.0583
 20
53.9027
 30
0.0
 10
7.4628
 20
57.6349
 30
0.0
 10
7.4628
 20
57.6349
 30
0.0
 10
12.0583
 20
61.3666
 30
0.0
 10
16.5252
 20
66.4207
 30
0.0
 10
19.0306
 20
72.218
 30
0.0
 10
19.0306
 20
72.218
 30
0.0
 10
21.5359
 20
66.4207
 30
0.0
 10
26.0027
 20
61.3666
 30
0.0
 10
30.5983
 20
57.6349
 30
0.0
 10
30.5983
 20
57.6349
 30
0.0
 10
26.0027
 20
53.9027
 30
0.0
 10
21.5359
 20
48.8487
 30
0.0
 10
19.0306
 20
43.0513
 30
0.0
  0
SPLINE
  5
9C
330
1F
100
AcDbEntity
  8
layer 1
 62
     7
100
AcDbSpline
210
0.0
220
0.0
230
1.0
 70
    11
 71
     3
 72
    20
 73
    16
 74
     0
 42
0.0000000001
 43
0.0000000001
 12
1.0
 22
0.0
 32
0.0
 13
1.0
 23
0.0
 33
0.0
 40
0.0
 40
0.0
 40
0.0
 40
0.0
 40
0.2
 40
0.2
 40
0.2
 40
0.2
 40
0.4
 40
0.4
 40
0.4
 40
0.4
 40
0.6
 40
0.6
 40
0.6
 40
0.6
 40
1.0
 40
1.0
 40
1.0
 40
1.0
 10
19.0306
 20
-6.0895
 30
0.0
 10
16.5252
 20
-0.2922
 30
0.0
 10
12.0583
 20
4.7618
 30
0.0
 10
7.4628
 20
8.494
 30
0.0
 10
7.4628
 20
8.494
 30
0.0
 10
12.0583
 20
12.2258
 30
0.0
 10
16.5252
 20
17.2799
 30
0.0
 10
19.0306
 20
23.0771
 30
0.0
 10
19.0306
 20
23.0771
 30
0.0
 10
21.5359
 20
17.2799
 30
0.0
 10
26.0027
 20
12.2258
 30
0.0
 10
30.5983
 20
8.494
 30
0.0
 10
30.5983
 20
8.494
 30
0.0
 10
26.0027
 20
4.7618
 30
0.0
 10
21.5359
 20
-0.2922
 30
0.0
 10
19.0306
 20
-6.0895
 30
0.0
  0
SPLINE
  5
9D
330
1F
100
AcDbEntity
  8
layer 1
 62
     7
100
AcDbSpline
210
0.0
220
0.0
230
1.0
 70
    11
 71
     3
 72
    20
 73
    16
 74
     0
 42
0.0000000001
 43
0.0000000001
 12
1.0
 22
0.0
 32
0.0
 13
1.0
 23
0.0
 33
0.0
 40
0.0
 40
0.0
 40
0.0
 40
0.0
 40
0.2
 40
0.2
 40
0.2
 40
0.2
 40
0.4
 40
0.4
 40
0.4
 40
0.4
 40
0.6
 40
0.6
 40
0.6
 40
0.6
 40
1.0
 40
1.0
 40
1.0
 40
1.0
 10
19.0306
 20
-55.2303
 30
0.0
 10
16.5252
 20
-49.4331
 30
0.0
 10
12.0583
 20
-44.379
 30
0.0
 10
7.4628
 20
-40.6472
 30
0.0
 10
7.4628
 20
-40.6472
 30
0.0
 10
12.0583
 20
-36.915
 30
0.0
 10
16.5252
 20
-31.861
 30
0.0
 10
19.0306
 20
-26.064
 30
0.0
 10
19.0306
 20
-26.064
 30
0.0
 10
21.5359
 20
-31.861
 30
0.0
 10
26.0027
 20
-36.915
 30
0.0
 10
30.5983
 20
-40.6472
 30
0.0
 10
30.5983
 20
-40.6472
 30
0.0
 10
26.0027
 20
-44.379
 30
0.0
 10
21.5359
 20
-49.4331
 30
0.0
 10
19.0306
 20
-55.2303
 30
0.0
  0
SPLINE
  5
9E
330
1F
100
AcDbEntity
  8
layer 1
 62
     7
100
AcDbSpline
210
0.0
220
0.0
230
1.0
 70
    11
 71
     3
 72
    20
 73
    16
 74
     0
 42
0.0000000001
 43
0.0000000001
 12
1.0
 22
0.0
 32
0.0
 13
1.0
 23
0.0
 33
0.0
 40
0.0
 40
0.0
 40
0.0
 40
0.0
 40
0.2
 40
0.2
 40
0.2
 40
0.2
 40
0.4
 40
0.4
 40
0.4
 40
0.4
 40
0.6
 40
0.6
 40
0.6
 40
0.6
 40
1.0
 40
1.0
 40
1.0
 40
1.0
 10
19.0306
 20
-104.3712
 30
0.0
 10
16.5252
 20
-98.5739
 30
0.0
 10
12.0583
 20
-93.5199
 30
0.0
 10
7.4628
 20
-89.788
 30
0.0
 10
7.4628
 20
-89.788
 30
0.0
 10
12.0583
 20
-86.0559
 30
0.0
 10
16.5252
 20
-81.0019
 30
0.0
 10
19.0306
 20
-75.2046
 30
0.0
 10
19.0306
 20
-75.2046
 30
0.0
 10
21.5359
 20
-81.0019
 30
0.0
 10
26.0027
 20
-86.0559
 30
0.0
 10
30.5983
 20
-89.788
 30
0.0
 10
30.5983
 20
-89.788
 30
0.0
 10
26.0027
 20
-93.5199
 30
0.0
 10
21.5359
 20
-98.5739
 30
0.0
 10
19.0306
 20
-104.3712
 30
0.0
  0
SPLINE
  5
9F
330
1F
100
AcDbEntity
  8
layer 1
 62
     7
100
AcDbSpline
210
0.0
220
0.0
230
1.0
 70
    11
 71
     3
 72
    64
 73
    60
 74
     0
 42
0.0000000001
 43
0.0000000001
 12
1.0
 22
0.0
 32
0.0
 13
1.0
 23
0.0
 33
0.0
 40
0.0
 40
0.0
 40
0.0
 40
0.0
 40
0.0625
 40
0.0625
 40
0.0625
 40
0.0625
 40
0.125
 40
0.125
 40
0.125
 40
0.125
 40
0.1875
 40
0.1875
 40
0.1875
 40
0.1875
 40
0.25
 40
0.25
 40
0.25
 40
0.25
 40
0.3125
 40
0.3125
 40
0.3125
 40
0.3125
 40
0.375
 40
0.375
 40
0.375
 40
0.375
 40
0.4375
 40
0.4375
 40
0.4375
 40
0.4375
 40
0.5
 40
0.5
 40
0.5
 40
0.5
 40
0.5625
 40
0.5625
 40
0.5625
 40
0.5625
 40
0.625
 40
0.625
 40
0.625
 40
0.625
 40
0.6875
 40
0.6875
 40
0.6875
 40
0.6875
 40
0.75
 40
0.75
 40
0.75
 40
0.75
 40
0.8125
 40
0.8125
 40
0.8125
 40
0.8125
 40
0.875
 40
0.875
 40
0.875
 40
0.875
 40
1.0
 40
1.0
 40
1.0
 40
1.0
 10
-20.2721
 20
-49.1176
 30
0.0
 10
-17.9817
 20
-56.7221
 30
0.0
 10
-12.4212
 20
-63.9059
 30
0.0
 10
-3.1928
 20
-64.4162
 30
0.0
 10
-3.1928
 20
-64.4162
 30
0.0
 10
4.7404
 20
-64.8553
 30
0.0
 10
6.2496
 20
-59.2795
 30
0.0
 10
11.382
 20
-58.8058
 30
0.0
 10
11.382
 20
-58.8058
 30
0.0
 10
14.6242
 20
-58.5065
 30
0.0
 10
17.7421
 20
-60.5745
 30
0.0
 10
17.5488
 20
-63.1448
 30
0.0
 10
17.5488
 20
-63.1448
 30
0.0
 10
15.9809
 20
-61.9983
 30
0.0
 10
13.84
 20
-61.5784
 30
0.0
 10
11.955
 20
-62.0734
 30
0.0
 10
11.955
 20
-62.0734
 30
0.0
 10
12.421
 20
-61.2615
 30
0.0
 10
13.1686
 20
-60.6588
 30
0.0
 10
12.9491
 20
-60.1195
 30
0.0
 10
12.9491
 20
-60.1195
 30
0.0
 10
12.5348
 20
-59.1009
 30
0.0
 10
9.2839
 20
-59.4716
 30
0.0
 10
8.2651
 20
-62.4942
 30
0.0
 10
8.2651
 20
-62.4942
 30
0.0
 10
7.9416
 20
-63.454
 30
0.0
 10
7.9799
 20
-64.3867
 30
0.0
 10
8.2905
 20
-65.2176
 30
0.0
 10
8.2905
 20
-65.2176
 30
0.0
 10
7.9799
 20
-66.0483
 30
0.0
 10
7.9416
 20
-66.9813
 30
0.0
 10
8.2651
 20
-67.9408
 30
0.0
 10
8.2651
 20
-67.9408
 30
0.0
 10
9.2839
 20
-70.9633
 30
0.0
 10
12.5348
 20
-71.3344
 30
0.0
 10
12.9491
 20
-70.3158
 30
0.0
 10
12.9491
 20
-70.3158
 30
0.0
 10
13.1686
 20
-69.7764
 30
0.0
 10
12.421
 20
-69.1737
 30
0.0
 10
11.955
 20
-68.3618
 30
0.0
 10
11.955
 20
-68.3618
 30
0.0
 10
13.84
 20
-68.8565
 30
0.0
 10
15.9809
 20
-68.4367
 30
0.0
 10
17.5488
 20
-67.2903
 30
0.0
 10
17.5488
 20
-67.2903
 30
0.0
 10
17.7421
 20
-69.8608
 30
0.0
 10
14.6242
 20
-71.9287
 30
0.0
 10
11.382
 20
-71.6294
 30
0.0
 10
11.382
 20
-71.6294
 30
0.0
 10
6.2496
 20
-71.1558
 30
0.0
 10
4.7404
 20
-65.58
 30
0.0
 10
-3.1928
 20
-66.0187
 30
0.0
 10
-3.1928
 20
-66.0187
 30
0.0
 10
-12.4212
 20
-66.529
 30
0.0
 10
-17.9817
 20
-73.7128
 30
0.0
 10
-20.2721
 20
-81.3173
 30
0.0
 10
-20.2721
 20
-81.3173
 30
0.0
 10
-20.2721
 20
-81.3173
 30
0.0
 10
-20.2721
 20
-49.1176
 30
0.0
 10
-20.2721
 20
-49.1176
 30
0.0
  0
SPLINE
  5
A0
330
1F
100
AcDbEntity
  8
layer 1
 62
     7
100
AcDbSpline
210
0.0
220
0.0
230
1.0
 70
    11
 71
     3
 72
    60
 73
    56
 74
     0
 42
0.0000000001
 43
0.0000000001
 12
1.0
 22
0.0
 32
0.0
 13
1.0
 23
0.0
 33
0.0
 40
0.0
 40
0.0
 40
0.0
 40
0.0
 40
0.0666666666666667
 40
0.0666666666666667
 40
0.0666666666666667
 40
0.0666666666666667
 40
0.1333333333333333
 40
0.1333333333333333
 40
0.1333333333333333
 40
0.1333333333333333
 40
0.2
 40
0.2
 40
0.2
 40
0.2
 40
0.2666666666666667
 40
0.2666666666666667
 40
0.2666666666666667
 40
0.2666666666666667
 40
0.3333333333333333
 40
0.3333333333333333
 40
0.3333333333333333
 40
0.3333333333333333
 40
0.4
 40
0.4
 40
0.4
 40
0.4
 40
0.4666666666666667
 40
0.4666666666666667
 40
0.4666666666666667
 40
0.4666666666666667
 40
0.5333333333333333
 40
0.5333333333333333
 40
0.5333333333333333
 40
0.5333333333333333
 40
0.6
 40
0.6
 40
0.6
 40
0.6
 40
0.6666666666666666
 40
0.6666666666666666
 40
0.6666666666666666
 40
0.6666666666666666
 40
0.7333333333333333
 40
0.7333333333333333
 40
0.7333333333333333
 40
0.7333333333333333
 40
0.8
 40
0.8
 40
0.8
 40
0.8
 40
0.8666666666666667
 40
0.8666666666666667
 40
0.8666666666666667
 40
0.8666666666666667
 40
1.0
 40
1.0
 40
1.0
 40
1.0
 10
-20.2721
 20
0.0235
 30
0.0
 10
-17.9817
 20
-7.5814
 30
0.0
 10
-12.4212
 20
-14.7651
 30
0.0
 10
-3.1928
 20
-15.2754
 30
0.0
 10
-3.1928
 20
-15.2754
 30
0.0
 10
4.7404
 20
-15.7141
 30
0.0
 10
6.2496
 20
-10.1386
 30
0.0
 10
11.382
 20
-9.6647
 30
0.0
 10
11.382
 20
-9.6647
 30
0.0
 10
14.6242
 20
-9.3656
 30
0.0
 10
17.7421
 20
-11.4333
 30
0.0
 10
17.5488
 20
-14.0039
 30
0.0
 10
17.5488
 20
-14.0039
 30
0.0
 10
15.9809
 20
-12.8574
 30
0.0
 10
13.84
 20
-12.4377
 30
0.0
 10
11.955
 20
-12.9322
 30
0.0
 10
11.955
 20
-12.9322
 30
0.0
 10
12.421
 20
-12.1206
 30
0.0
 10
13.1686
 20
-11.5179
 30
0.0
 10
12.9491
 20
-10.9786
 30
0.0
 10
12.9491
 20
-10.9786
 30
0.0
 10
12.3755
 20
-9.5683
 30
0.0
 10
7.3405
 20
-10.8488
 30
0.0
 10
8.2905
 20
-16.0765
 30
0.0
 10
8.2905
 20
-16.0765
 30
0.0
 10
8.4045
 20
-16.7048
 30
0.0
 10
7.8322
 20
-17.5157
 30
0.0
 10
8.2651
 20
-18.7999
 30
0.0
 10
8.2651
 20
-18.7999
 30
0.0
 10
9.2839
 20
-21.8224
 30
0.0
 10
12.5348
 20
-22.1935
 30
0.0
 10
12.9491
 20
-21.175
 30
0.0
 10
12.9491
 20
-21.175
 30
0.0
 10
13.1686
 20
-20.6355
 30
0.0
 10
12.421
 20
-20.0329
 30
0.0
 10
11.955
 20
-19.221
 30
0.0
 10
11.955
 20
-19.221
 30
0.0
 10
13.84
 20
-19.7156
 30
0.0
 10
15.9809
 20
-19.2958
 30
0.0
 10
17.5488
 20
-18.1494
 30
0.0
 10
17.5488
 20
-18.1494
 30
0.0
 10
17.7421
 20
-20.72
 30
0.0
 10
14.6242
 20
-22.7878
 30
0.0
 10
11.382
 20
-22.4885
 30
0.0
 10
11.382
 20
-22.4885
 30
0.0
 10
6.2496
 20
-22.015
 30
0.0
 10
4.7404
 20
-16.4392
 30
0.0
 10
-3.1928
 20
-16.8778
 30
0.0
 10
-3.1928
 20
-16.8778
 30
0.0
 10
-12.4212
 20
-17.3881
 30
0.0
 10
-17.9817
 20
-24.5719
 30
0.0
 10
-20.2721
 20
-32.1764
 30
0.0
 10
-20.2721
 20
-32.1764
 30
0.0
 10
-20.2721
 20
-32.1764
 30
0.0
 10
-20.2721
 20
0.0235
 30
0.0
 10
-20.2721
 20
0.0235
 30
0.0
  0
SPLINE
  5
A1
330
1F
100
AcDbEntity
  8
layer 1
 62
     7
100
AcDbSpline
210
0.0
220
0.0
230
1.0
 70
    11
 71
     3
 72
    64
 73
    60
 74
     0
 42
0.0000000001
 43
0.0000000001
 12
1.0
 22
0.0
 32
0.0
 13
1.0
 23
0.0
 33
0.0
 40
0.0
 40
0.0
 40
0.0
 40
0.0
 40
0.0625
 40
0.0625
 40
0.0625
 40
0.0625
 40
0.125
 40
0.125
 40
0.125
 40
0.125
 40
0.1875
 40
0.1875
 40
0.1875
 40
0.1875
 40
0.25
 40
0.25
 40
0.25
 40
0.25
 40
0.3125
 40
0.3125
 40
0.3125
 40
0.3125
 40
0.375
 40
0.375
 40
0.375
 40
0.375
 40
0.4375
 40
0.4375
 40
0.4375
 40
0.4375
 40
0.5
 40
0.5
 40
0.5
 40
0.5
 40
0.5625
 40
0.5625
 40
0.5625
 40
0.5625
 40
0.625
 40
0.625
 40
0.625
 40
0.625
 40
0.6875
 40
0.6875
 40
0.6875
 40
0.6875
 40
0.75
 40
0.75
 40
0.75
 40
0.75
 40
0.8125
 40
0.8125
 40
0.8125
 40
0.8125
 40
0.875
 40
0.875
 40
0.875
 40
0.875
 40
1.0
 40
1.0
 40
1.0
 40
1.0
 10
-20.2721
 20
49.1641
 30
0.0
 10
-17.9817
 20
41.5595
 30
0.0
 10
-12.4212
 20
34.3758
 30
0.0
 10
-3.1928
 20
33.8654
 30
0.0
 10
-3.1928
 20
33.8654
 30
0.0
 10
4.7404
 20
33.4268
 30
0.0
 10
6.2496
 20
39.0023
 30
0.0
 10
11.382
 20
39.4762
 30
0.0
 10
11.382
 20
39.4762
 30
0.0
 10
14.6242
 20
39.7753
 30
0.0
 10
17.7421
 20
37.7075
 30
0.0
 10
17.5488
 20
35.137
 30
0.0
 10
17.5488
 20
35.137
 30
0.0
 10
15.9809
 20
36.2835
 30
0.0
 10
13.84
 20
36.7032
 30
0.0
 10
11.955
 20
36.2086
 30
0.0
 10
11.955
 20
36.2086
 30
0.0
 10
12.421
 20
37.0203
 30
0.0
 10
13.1686
 20
37.6232
 30
0.0
 10
12.9491
 20
38.1623
 30
0.0
 10
12.9491
 20
38.1623
 30
0.0
 10
12.5348
 20
39.1808
 30
0.0
 10
9.2839
 20
38.8101
 30
0.0
 10
8.2651
 20
35.7876
 30
0.0
 10
8.2651
 20
35.7876
 30
0.0
 10
7.9416
 20
34.8278
 30
0.0
 10
7.9799
 20
33.8951
 30
0.0
 10
8.2905
 20
33.0644
 30
0.0
 10
8.2905
 20
33.0644
 30
0.0
 10
7.9799
 20
32.2334
 30
0.0
 10
7.9416
 20
31.3007
 30
0.0
 10
8.2651
 20
30.341
 30
0.0
 10
8.2651
 20
30.341
 30
0.0
 10
9.2839
 20
27.3183
 30
0.0
 10
12.5348
 20
26.9473
 30
0.0
 10
12.9491
 20
27.9659
 30
0.0
 10
12.9491
 20
27.9659
 30
0.0
 10
13.1686
 20
28.5056
 30
0.0
 10
12.421
 20
29.1083
 30
0.0
 10
11.955
 20
29.9202
 30
0.0
 10
11.955
 20
29.9202
 30
0.0
 10
13.84
 20
29.4252
 30
0.0
 10
15.9809
 20
29.8451
 30
0.0
 10
17.5488
 20
30.9915
 30
0.0
 10
17.5488
 20
30.9915
 30
0.0
 10
17.7421
 20
28.4209
 30
0.0
 10
14.6242
 20
26.3533
 30
0.0
 10
11.382
 20
26.6524
 30
0.0
 10
11.382
 20
26.6524
 30
0.0
 10
6.2496
 20
27.1262
 30
0.0
 10
4.7404
 20
32.7017
 30
0.0
 10
-3.1928
 20
32.263
 30
0.0
 10
-3.1928
 20
32.263
 30
0.0
 10
-12.4212
 20
31.7528
 30
0.0
 10
-17.9817
 20
24.5689
 30
0.0
 10
-20.2721
 20
16.9644
 30
0.0
 10
-20.2721
 20
16.9644
 30
0.0
 10
-20.2721
 20
16.9644
 30
0.0
 10
-20.2721
 20
49.1641
 30
0.0
 10
-20.2721
 20
49.1641
 30
0.0
  0
SPLINE
  5
A2
330
1F
100
AcDbEntity
  8
layer 1
 62
     7
100
AcDbSpline
210
0.0
220
0.0
230
1.0
 70
    11
 71
     3
 72
    60
 73
    56
 74
     0
 42
0.0000000001
 43
0.0000000001
 12
1.0
 22
0.0
 32
0.0
 13
1.0
 23
0.0
 33
0.0
 40
0.0
 40
0.0
 40
0.0
 40
0.0
 40
0.0666666666666667
 40
0.0666666666666667
 40
0.0666666666666667
 40
0.0666666666666667
 40
0.1333333333333333
 40
0.1333333333333333
 40
0.1333333333333333
 40
0.1333333333333333
 40
0.2
 40
0.2
 40
0.2
 40
0.2
 40
0.2666666666666667
 40
0.2666666666666667
 40
0.2666666666666667
 40
0.2666666666666667
 40
0.3333333333333333
 40
0.3333333333333333
 40
0.3333333333333333
 40
0.3333333333333333
 40
0.4
 40
0.4
 40
0.4
 40
0.4
 40
0.4666666666666667
 40
0.4666666666666667
 40
0.4666666666666667
 40
0.4666666666666667
 40
0.5333333333333333
 40
0.5333333333333333
 40
0.5333333333333333
 40
0.5333333333333333
 40
0.6
 40
0.6
 40
0.6
 40
0.6
 40
0.6666666666666666
 40
0.6666666666666666
 40
0.6666666666666666
 40
0.6666666666666666
 40
0.7333333333333333
 40
0.7333333333333333
 40
0.7333333333333333
 40
0.7333333333333333
 40
0.8
 40
0.8
 40
0.8
 40
0.8
 40
0.8666666666666667
 40
0.8666666666666667
 40
0.8666666666666667
 40
0.8666666666666667
 40
1.0
 40
1.0
 40
1.0
 40
1.0
 10
-20.2721
 20
98.3053
 30
0.0
 10
-17.9817
 20
90.7008
 30
0.0
 10
-12.4212
 20
83.5167
 30
0.0
 10
-3.1928
 20
83.0063
 30
0.0
 10
-3.1928
 20
83.0063
 30
0.0
 10
4.7404
 20
82.5679
 30
0.0
 10
6.2496
 20
88.1434
 30
0.0
 10
11.382
 20
88.6171
 30
0.0
 10
11.382
 20
88.6171
 30
0.0
 10
14.6242
 20
88.9164
 30
0.0
 10
17.7421
 20
86.8488
 30
0.0
 10
17.5488
 20
84.2781
 30
0.0
 10
17.5488
 20
84.2781
 30
0.0
 10
15.9809
 20
85.4246
 30
0.0
 10
13.84
 20
85.8444
 30
0.0
 10
11.955
 20
85.3495
 30
0.0
 10
11.955
 20
85.3495
 30
0.0
 10
12.421
 20
86.1614
 30
0.0
 10
13.1686
 20
86.7641
 30
0.0
 10
12.9491
 20
87.3034
 30
0.0
 10
12.9491
 20
87.3034
 30
0.0
 10
12.3755
 20
88.7135
 30
0.0
 10
7.3405
 20
87.4332
 30
0.0
 10
8.2905
 20
82.2053
 30
0.0
 10
8.2905
 20
82.2053
 30
0.0
 10
8.4045
 20
81.5769
 30
0.0
 10
7.8322
 20
80.7663
 30
0.0
 10
8.2651
 20
79.4817
 30
0.0
 10
8.2651
 20
79.4817
 30
0.0
 10
9.2839
 20
76.4592
 30
0.0
 10
12.5348
 20
76.0882
 30
0.0
 10
12.9491
 20
77.1068
 30
0.0
 10
12.9491
 20
77.1068
 30
0.0
 10
13.1686
 20
77.6461
 30
0.0
 10
12.421
 20
78.2489
 30
0.0
 10
11.955
 20
79.0611
 30
0.0
 10
11.955
 20
79.0611
 30
0.0
 10
13.84
 20
78.5661
 30
0.0
 10
15.9809
 20
78.986
 30
0.0
 10
17.5488
 20
80.1324
 30
0.0
 10
17.5488
 20
80.1324
 30
0.0
 10
17.7421
 20
77.5618
 30
0.0
 10
14.6242
 20
75.4942
 30
0.0
 10
11.382
 20
75.7933
 30
0.0
 10
11.382
 20
75.7933
 30
0.0
 10
6.2496
 20
76.2668
 30
0.0
 10
4.7404
 20
81.8426
 30
0.0
 10
-3.1928
 20
81.4039
 30
0.0
 10
-3.1928
 20
81.4039
 30
0.0
 10
-12.4212
 20
80.8935
 30
0.0
 10
-17.9817
 20
73.7098
 30
0.0
 10
-20.2721
 20
66.1053
 30
0.0
 10
-20.2721
 20
66.1053
 30
0.0
 10
-20.2721
 20
66.1053
 30
0.0
 10
-20.2721
 20
98.3053
 30
0.0
 10
-20.2721
 20
98.3053
 30
0.0
  0
SPLINE
  5
A3
330
1F
100
AcDbEntity
  8
layer 1
 62
     7
100
AcDbSpline
210
0.0
220
0.0
230
1.0
 70
    11
 71
     3
 72
    16
 73
    12
 74
     0
 42
0.0000000001
 43
0.0000000001
 12
1.0
 22
0.0
 32
0.0
 13
1.0
 23
0.0
 33
0.0
 40
0.0
 40
0.0
 40
0.0
 40
0.0
 40
0.25
 40
0.25
 40
0.25
 40
0.25
 40
0.5
 40
0.5
 40
0.5
 40
0.5
 40
1.0
 40
1.0
 40
1.0
 40
1.0
 10
-9.5572
 20
128.9489
 30
0.0
 10
-15.0494
 20
126.3338
 30
0.0
 10
-18.5666
 20
120.9078
 30
0.0
 10
-20.2721
 20
115.2477
 30
0.0
 10
-20.2721
 20
115.2477
 30
0.0
 10
-20.2721
 20
115.2477
 30
0.0
 10
-20.2721
 20
128.9489
 30
0.0
 10
-20.2721
 20
128.9489
 30
0.0
 10
-20.2721
 20
128.9489
 30
0.0
 10
-20.2721
 20
128.9489
 30
0.0
 10
-9.5572
 20
128.9489
 30
0.0
 10
-9.5572
 20
128.9489
 30
0.0
  0
SPLINE
  5
A4
330
1F
100
AcDbEntity
  8
layer 1
 62
     7
100
AcDbSpline
210
0.0
220
0.0
230
1.0
 70
    11
 71
     3
 72
    36
 73
    32
 74
     0
 42
0.0000000001
 43
0.0000000001
 12
1.0
 22
0.0
 32
0.0
 13
1.0
 23
0.0
 33
0.0
 40
0.0
 40
0.0
 40
0.0
 40
0.0
 40
0.1111111111111111
 40
0.1111111111111111
 40
0.1111111111111111
 40
0.1111111111111111
 40
0.2222222222222222
 40
0.2222222222222222
 40
0.2222222222222222
 40
0.2222222222222222
 40
0.3333333333333333
 40
0.3333333333333333
 40
0.3333333333333333
 40
0.3333333333333333
 40
0.4444444444444444
 40
0.4444444444444444
 40
0.4444444444444444
 40
0.4444444444444444
 40
0.5555555555555556
 40
0.5555555555555556
 40
0.5555555555555556
 40
0.5555555555555556
 40
0.6666666666666666
 40
0.6666666666666666
 40
0.6666666666666666
 40
0.6666666666666666
 40
0.7777777777777778
 40
0.7777777777777778
 40
0.7777777777777778
 40
0.7777777777777778
 40
1.0
 40
1.0
 40
1.0
 40
1.0
 10
17.5549
 20
128.9489
 30
0.0
 10
17.4764
 20
126.5316
 30
0.0
 10
14.4864
 20
124.6477
 30
0.0
 10
11.382
 20
124.934
 30
0.0
 10
11.382
 20
124.934
 30
0.0
 10
8.2673
 20
125.2217
 30
0.0
 10
6.4865
 20
127.3879
 30
0.0
 10
3.795
 20
128.9489
 30
0.0
 10
3.795
 20
128.9489
 30
0.0
 10
3.795
 20
128.9489
 30
0.0
 10
8.1685
 20
128.9489
 30
0.0
 10
8.1685
 20
128.9489
 30
0.0
 10
8.1685
 20
128.9489
 30
0.0
 10
8.196
 20
128.8405
 30
0.0
 10
8.2282
 20
128.7317
 30
0.0
 10
8.2651
 20
128.6226
 30
0.0
 10
8.2651
 20
128.6226
 30
0.0
 10
9.2839
 20
125.6004
 30
0.0
 10
12.5348
 20
125.2294
 30
0.0
 10
12.9491
 20
126.2479
 30
0.0
 10
12.9491
 20
126.2479
 30
0.0
 10
13.1686
 20
126.7874
 30
0.0
 10
12.421
 20
127.39
 30
0.0
 10
11.955
 20
128.2018
 30
0.0
 10
11.955
 20
128.2018
 30
0.0
 10
13.6498
 20
127.757
 30
0.0
 10
15.5507
 20
128.052
 30
0.0
 10
17.0569
 20
128.9489
 30
0.0
 10
17.0569
 20
128.9489
 30
0.0
 10
17.0569
 20
128.9489
 30
0.0
 10
17.5549
 20
128.9489
 30
0.0
 10
17.5549
 20
128.9489
 30
0.0
  0
SPLINE
  5
A5
330
1F
100
AcDbEntity
  8
layer 1
 62
     7
100
AcDbSpline
210
0.0
220
0.0
230
1.0
 70
    11
 71
     3
 72
    36
 73
    32
 74
     0
 42
0.0000000001
 43
0.0000000001
 12
1.0
 22
0.0
 32
0.0
 13
1.0
 23
0.0
 33
0.0
 40
0.0
 40
0.0
 40
0.0
 40
0.0
 40
0.1111111111111111
 40
0.1111111111111111
 40
0.1111111111111111
 40
0.1111111111111111
 40
0.2222222222222222
 40
0.2222222222222222
 40
0.2222222222222222
 40
0.2222222222222222
 40
0.3333333333333333
 40
0.3333333333333333
 40
0.3333333333333333
 40
0.3333333333333333
 40
0.4444444444444444
 40
0.4444444444444444
 40
0.4444444444444444
 40
0.4444444444444444
 40
0.5555555555555556
 40
0.5555555555555556
 40
0.5555555555555556
 40
0.5555555555555556
 40
0.6666666666666666
 40
0.6666666666666666
 40
0.6666666666666666
 40
0.6666666666666666
 40
0.7777777777777778
 40
0.7777777777777778
 40
0.7777777777777778
 40
0.7777777777777778
 40
1.0
 40
1.0
 40
1.0
 40
1.0
 10
34.2661
 20
128.9489
 30
0.0
 10
31.5745
 20
127.3879
 30
0.0
 10
29.7941
 20
125.2217
 30
0.0
 10
26.679
 20
124.934
 30
0.0
 10
26.679
 20
124.934
 30
0.0
 10
23.5747
 20
124.6477
 30
0.0
 10
20.5847
 20
126.5316
 30
0.0
 10
20.5062
 20
128.9489
 30
0.0
 10
20.5062
 20
128.9489
 30
0.0
 10
20.5062
 20
128.9489
 30
0.0
 10
21.0042
 20
128.9489
 30
0.0
 10
21.0042
 20
128.9489
 30
0.0
 10
21.0042
 20
128.9489
 30
0.0
 10
22.5103
 20
128.052
 30
0.0
 10
24.4113
 20
127.757
 30
0.0
 10
26.1061
 20
128.2018
 30
0.0
 10
26.1061
 20
128.2018
 30
0.0
 10
25.6401
 20
127.39
 30
0.0
 10
24.8925
 20
126.7874
 30
0.0
 10
25.112
 20
126.2479
 30
0.0
 10
25.112
 20
126.2479
 30
0.0
 10
25.5264
 20
125.2294
 30
0.0
 10
28.7772
 20
125.6004
 30
0.0
 10
29.7959
 20
128.6226
 30
0.0
 10
29.7959
 20
128.6226
 30
0.0
 10
29.8329
 20
128.7317
 30
0.0
 10
29.8651
 20
128.8405
 30
0.0
 10
29.8925
 20
128.9489
 30
0.0
 10
29.8925
 20
128.9489
 30
0.0
 10
29.8925
 20
128.9489
 30
0.0
 10
34.2661
 20
128.9489
 30
0.0
 10
34.2661
 20
128.9489
 30
0.0
  0
SPLINE
  5
A6
330
1F
100
AcDbEntity
  8
layer 1
 62
     7
100
AcDbSpline
210
0.0
220
0.0
230
1.0
 70
    11
 71
     3
 72
    16
 73
    12
 74
     0
 42
0.0000000001
 43
0.0000000001
 12
1.0
 22
0.0
 32
0.0
 13
1.0
 23
0.0
 33
0.0
 40
0.0
 40
0.0
 40
0.0
 40
0.0
 40
0.25
 40
0.25
 40
0.25
 40
0.25
 40
0.5
 40
0.5
 40
0.5
 40
0.5
 40
1.0
 40
1.0
 40
1.0
 40
1.0
 10
58.3332
 20
115.2477
 30
0.0
 10
56.6277
 20
120.9078
 30
0.0
 10
53.1106
 20
126.3338
 30
0.0
 10
47.6183
 20
128.9489
 30
0.0
 10
47.6183
 20
128.9489
 30
0.0
 10
47.6183
 20
128.9489
 30
0.0
 10
58.3332
 20
128.9489
 30
0.0
 10
58.3332
 20
128.9489
 30
0.0
 10
58.3332
 20
128.9489
 30
0.0
 10
58.3332
 20
128.9489
 30
0.0
 10
58.3332
 20
115.2477
 30
0.0
 10
58.3332
 20
115.2477
 30
0.0
  0
SPLINE
  5
A7
330
1F
100
AcDbEntity
  8
layer 1
 62
     7
100
AcDbSpline
210
0.0
220
0.0
230
1.0
 70
    11
 71
     3
 72
    60
 73
    56
 74
     0
 42
0.0000000001
 43
0.0000000001
 12
1.0
 22
0.0
 32
0.0
 13
1.0
 23
0.0
 33
0.0
 40
0.0
 40
0.0
 40
0.0
 40
0.0
 40
0.0666666666666667
 40
0.0666666666666667
 40
0.0666666666666667
 40
0.0666666666666667
 40
0.1333333333333333
 40
0.1333333333333333
 40
0.1333333333333333
 40
0.1333333333333333
 40
0.2
 40
0.2
 40
0.2
 40
0.2
 40
0.2666666666666667
 40
0.2666666666666667
 40
0.2666666666666667
 40
0.2666666666666667
 40
0.3333333333333333
 40
0.3333333333333333
 40
0.3333333333333333
 40
0.3333333333333333
 40
0.4
 40
0.4
 40
0.4
 40
0.4
 40
0.4666666666666667
 40
0.4666666666666667
 40
0.4666666666666667
 40
0.4666666666666667
 40
0.5333333333333333
 40
0.5333333333333333
 40
0.5333333333333333
 40
0.5333333333333333
 40
0.6
 40
0.6
 40
0.6
 40
0.6
 40
0.6666666666666666
 40
0.6666666666666666
 40
0.6666666666666666
 40
0.6666666666666666
 40
0.7333333333333333
 40
0.7333333333333333
 40
0.7333333333333333
 40
0.7333333333333333
 40
0.8
 40
0.8
 40
0.8
 40
0.8
 40
0.8666666666666667
 40
0.8666666666666667
 40
0.8666666666666667
 40
0.8666666666666667
 40
1.0
 40
1.0
 40
1.0
 40
1.0
 10
58.3332
 20
66.1053
 30
0.0
 10
56.0427
 20
73.7098
 30
0.0
 10
50.4823
 20
80.8935
 30
0.0
 10
41.2542
 20
81.4039
 30
0.0
 10
41.2542
 20
81.4039
 30
0.0
 10
33.3211
 20
81.8426
 30
0.0
 10
31.8115
 20
76.2668
 30
0.0
 10
26.679
 20
75.7933
 30
0.0
 10
26.679
 20
75.7933
 30
0.0
 10
23.4368
 20
75.4942
 30
0.0
 10
20.319
 20
77.5618
 30
0.0
 10
20.5125
 20
80.1324
 30
0.0
 10
20.5125
 20
80.1324
 30
0.0
 10
22.0805
 20
78.986
 30
0.0
 10
24.2211
 20
78.5661
 30
0.0
 10
26.1061
 20
79.0611
 30
0.0
 10
26.1061
 20
79.0611
 30
0.0
 10
25.6401
 20
78.2489
 30
0.0
 10
24.8925
 20
77.6461
 30
0.0
 10
25.112
 20
77.1068
 30
0.0
 10
25.112
 20
77.1068
 30
0.0
 10
25.5264
 20
76.0882
 30
0.0
 10
28.7772
 20
76.4592
 30
0.0
 10
29.7959
 20
79.4817
 30
0.0
 10
29.7959
 20
79.4817
 30
0.0
 10
30.2292
 20
80.7663
 30
0.0
 10
29.6565
 20
81.5769
 30
0.0
 10
29.7709
 20
82.2053
 30
0.0
 10
29.7709
 20
82.2053
 30
0.0
 10
30.7209
 20
87.4332
 30
0.0
 10
25.6856
 20
88.7135
 30
0.0
 10
25.112
 20
87.3034
 30
0.0
 10
25.112
 20
87.3034
 30
0.0
 10
24.8925
 20
86.7641
 30
0.0
 10
25.6401
 20
86.1614
 30
0.0
 10
26.1061
 20
85.3495
 30
0.0
 10
26.1061
 20
85.3495
 30
0.0
 10
24.2211
 20
85.8444
 30
0.0
 10
22.0805
 20
85.4246
 30
0.0
 10
20.5125
 20
84.2781
 30
0.0
 10
20.5125
 20
84.2781
 30
0.0
 10
20.319
 20
86.8488
 30
0.0
 10
23.4368
 20
88.9164
 30
0.0
 10
26.679
 20
88.6171
 30
0.0
 10
26.679
 20
88.6171
 30
0.0
 10
31.8115
 20
88.1434
 30
0.0
 10
33.3211
 20
82.5679
 30
0.0
 10
41.2542
 20
83.0063
 30
0.0
 10
41.2542
 20
83.0063
 30
0.0
 10
50.4823
 20
83.5167
 30
0.0
 10
56.0427
 20
90.7008
 30
0.0
 10
58.3332
 20
98.3053
 30
0.0
 10
58.3332
 20
98.3053
 30
0.0
 10
58.3332
 20
98.3053
 30
0.0
 10
58.3332
 20
66.1053
 30
0.0
 10
58.3332
 20
66.1053
 30
0.0
  0
SPLINE
  5
A8
330
1F
100
AcDbEntity
  8
layer 1
 62
     7
100
AcDbSpline
210
0.0
220
0.0
230
1.0
 70
    11
 71
     3
 72
    64
 73
    60
 74
     0
 42
0.0000000001
 43
0.0000000001
 12
1.0
 22
0.0
 32
0.0
 13
1.0
 23
0.0
 33
0.0
 40
0.0
 40
0.0
 40
0.0
 40
0.0
 40
0.0625
 40
0.0625
 40
0.0625
 40
0.0625
 40
0.125
 40
0.125
 40
0.125
 40
0.125
 40
0.1875
 40
0.1875
 40
0.1875
 40
0.1875
 40
0.25
 40
0.25
 40
0.25
 40
0.25
 40
0.3125
 40
0.3125
 40
0.3125
 40
0.3125
 40
0.375
 40
0.375
 40
0.375
 40
0.375
 40
0.4375
 40
0.4375
 40
0.4375
 40
0.4375
 40
0.5
 40
0.5
 40
0.5
 40
0.5
 40
0.5625
 40
0.5625
 40
0.5625
 40
0.5625
 40
0.625
 40
0.625
 40
0.625
 40
0.625
 40
0.6875
 40
0.6875
 40
0.6875
 40
0.6875
 40
0.75
 40
0.75
 40
0.75
 40
0.75
 40
0.8125
 40
0.8125
 40
0.8125
 40
0.8125
 40
0.875
 40
0.875
 40
0.875
 40
0.875
 40
1.0
 40
1.0
 40
1.0
 40
1.0
 10
58.3332
 20
16.9644
 30
0.0
 10
56.0427
 20
24.5689
 30
0.0
 10
50.4823
 20
31.7528
 30
0.0
 10
41.2542
 20
32.263
 30
0.0
 10
41.2542
 20
32.263
 30
0.0
 10
33.3211
 20
32.7017
 30
0.0
 10
31.8115
 20
27.1262
 30
0.0
 10
26.679
 20
26.6524
 30
0.0
 10
26.679
 20
26.6524
 30
0.0
 10
23.4368
 20
26.3533
 30
0.0
 10
20.319
 20
28.4209
 30
0.0
 10
20.5125
 20
30.9915
 30
0.0
 10
20.5125
 20
30.9915
 30
0.0
 10
22.0805
 20
29.8451
 30
0.0
 10
24.2211
 20
29.4252
 30
0.0
 10
26.1061
 20
29.9202
 30
0.0
 10
26.1061
 20
29.9202
 30
0.0
 10
25.6401
 20
29.1083
 30
0.0
 10
24.8925
 20
28.5056
 30
0.0
 10
25.112
 20
27.9659
 30
0.0
 10
25.112
 20
27.9659
 30
0.0
 10
25.5264
 20
26.9473
 30
0.0
 10
28.7772
 20
27.3183
 30
0.0
 10
29.7959
 20
30.341
 30
0.0
 10
29.7959
 20
30.341
 30
0.0
 10
30.1197
 20
31.3007
 30
0.0
 10
30.0815
 20
32.2334
 30
0.0
 10
29.7709
 20
33.0644
 30
0.0
 10
29.7709
 20
33.0644
 30
0.0
 10
30.0815
 20
33.8951
 30
0.0
 10
30.1197
 20
34.8278
 30
0.0
 10
29.7959
 20
35.7876
 30
0.0
 10
29.7959
 20
35.7876
 30
0.0
 10
28.7772
 20
38.8101
 30
0.0
 10
25.5264
 20
39.1808
 30
0.0
 10
25.112
 20
38.1623
 30
0.0
 10
25.112
 20
38.1623
 30
0.0
 10
24.8925
 20
37.6232
 30
0.0
 10
25.6401
 20
37.0203
 30
0.0
 10
26.1061
 20
36.2086
 30
0.0
 10
26.1061
 20
36.2086
 30
0.0
 10
24.2211
 20
36.7032
 30
0.0
 10
22.0805
 20
36.2835
 30
0.0
 10
20.5125
 20
35.137
 30
0.0
 10
20.5125
 20
35.137
 30
0.0
 10
20.319
 20
37.7075
 30
0.0
 10
23.4368
 20
39.7753
 30
0.0
 10
26.679
 20
39.4762
 30
0.0
 10
26.679
 20
39.4762
 30
0.0
 10
31.8115
 20
39.0023
 30
0.0
 10
33.3211
 20
33.4268
 30
0.0
 10
41.2542
 20
33.8654
 30
0.0
 10
41.2542
 20
33.8654
 30
0.0
 10
50.4823
 20
34.3758
 30
0.0
 10
56.0427
 20
41.5595
 30
0.0
 10
58.3332
 20
49.1641
 30
0.0
 10
58.3332
 20
49.1641
 30
0.0
 10
58.3332
 20
49.1641
 30
0.0
 10
58.3332
 20
16.9644
 30
0.0
 10
58.3332
 20
16.9644
 30
0.0
  0
SPLINE
  5
A9
330
1F
100
AcDbEntity
  8
layer 1
 62
     7
100
AcDbSpline
210
0.0
220
0.0
230
1.0
 70
    11
 71
     3
 72
    60
 73
    56
 74
     0
 42
0.0000000001
 43
0.0000000001
 12
1.0
 22
0.0
 32
0.0
 13
1.0
 23
0.0
 33
0.0
 40
0.0
 40
0.0
 40
0.0
 40
0.0
 40
0.0666666666666667
 40
0.0666666666666667
 40
0.0666666666666667
 40
0.0666666666666667
 40
0.1333333333333333
 40
0.1333333333333333
 40
0.1333333333333333
 40
0.1333333333333333
 40
0.2
 40
0.2
 40
0.2
 40
0.2
 40
0.2666666666666667
 40
0.2666666666666667
 40
0.2666666666666667
 40
0.2666666666666667
 40
0.3333333333333333
 40
0.3333333333333333
 40
0.3333333333333333
 40
0.3333333333333333
 40
0.4
 40
0.4
 40
0.4
 40
0.4
 40
0.4666666666666667
 40
0.4666666666666667
 40
0.4666666666666667
 40
0.4666666666666667
 40
0.5333333333333333
 40
0.5333333333333333
 40
0.5333333333333333
 40
0.5333333333333333
 40
0.6
 40
0.6
 40
0.6
 40
0.6
 40
0.6666666666666666
 40
0.6666666666666666
 40
0.6666666666666666
 40
0.6666666666666666
 40
0.7333333333333333
 40
0.7333333333333333
 40
0.7333333333333333
 40
0.7333333333333333
 40
0.8
 40
0.8
 40
0.8
 40
0.8
 40
0.8666666666666667
 40
0.8666666666666667
 40
0.8666666666666667
 40
0.8666666666666667
 40
1.0
 40
1.0
 40
1.0
 40
1.0
 10
58.3332
 20
-32.1764
 30
0.0
 10
56.0427
 20
-24.5719
 30
0.0
 10
50.4823
 20
-17.3881
 30
0.0
 10
41.2542
 20
-16.8778
 30
0.0
 10
41.2542
 20
-16.8778
 30
0.0
 10
33.3211
 20
-16.4392
 30
0.0
 10
31.8115
 20
-22.015
 30
0.0
 10
26.679
 20
-22.4885
 30
0.0
 10
26.679
 20
-22.4885
 30
0.0
 10
23.4368
 20
-22.7878
 30
0.0
 10
20.319
 20
-20.72
 30
0.0
 10
20.5125
 20
-18.1494
 30
0.0
 10
20.5125
 20
-18.1494
 30
0.0
 10
22.0805
 20
-19.2958
 30
0.0
 10
24.2211
 20
-19.7156
 30
0.0
 10
26.1061
 20
-19.221
 30
0.0
 10
26.1061
 20
-19.221
 30
0.0
 10
25.6401
 20
-20.0329
 30
0.0
 10
24.8925
 20
-20.6355
 30
0.0
 10
25.112
 20
-21.175
 30
0.0
 10
25.112
 20
-21.175
 30
0.0
 10
25.5264
 20
-22.1935
 30
0.0
 10
28.7772
 20
-21.8224
 30
0.0
 10
29.7959
 20
-18.7999
 30
0.0
 10
29.7959
 20
-18.7999
 30
0.0
 10
30.2292
 20
-17.5157
 30
0.0
 10
29.6565
 20
-16.7048
 30
0.0
 10
29.7709
 20
-16.0765
 30
0.0
 10
29.7709
 20
-16.0765
 30
0.0
 10
30.7209
 20
-10.8488
 30
0.0
 10
25.6856
 20
-9.5683
 30
0.0
 10
25.112
 20
-10.9786
 30
0.0
 10
25.112
 20
-10.9786
 30
0.0
 10
24.8925
 20
-11.5179
 30
0.0
 10
25.6401
 20
-12.1206
 30
0.0
 10
26.1061
 20
-12.9322
 30
0.0
 10
26.1061
 20
-12.9322
 30
0.0
 10
24.2211
 20
-12.4377
 30
0.0
 10
22.0805
 20
-12.8574
 30
0.0
 10
20.5125
 20
-14.0039
 30
0.0
 10
20.5125
 20
-14.0039
 30
0.0
 10
20.319
 20
-11.4333
 30
0.0
 10
23.4368
 20
-9.3656
 30
0.0
 10
26.679
 20
-9.6647
 30
0.0
 10
26.679
 20
-9.6647
 30
0.0
 10
31.8115
 20
-10.1386
 30
0.0
 10
33.3211
 20
-15.7141
 30
0.0
 10
41.2542
 20
-15.2754
 30
0.0
 10
41.2542
 20
-15.2754
 30
0.0
 10
50.4823
 20
-14.7651
 30
0.0
 10
56.0427
 20
-7.5814
 30
0.0
 10
58.3332
 20
0.0235
 30
0.0
 10
58.3332
 20
0.0235
 30
0.0
 10
58.3332
 20
0.0235
 30
0.0
 10
58.3332
 20
-32.1764
 30
0.0
 10
58.3332
 20
-32.1764
 30
0.0
  0
SPLINE
  5
AA
330
1F
100
AcDbEntity
  8
layer 1
 62
     7
100
AcDbSpline
210
0.0
220
0.0
230
1.0
 70
    11
 71
     3
 72
    64
 73
    60
 74
     0
 42
0.0000000001
 43
0.0000000001
 12
1.0
 22
0.0
 32
0.0
 13
1.0
 23
0.0
 33
0.0
 40
0.0
 40
0.0
 40
0.0
 40
0.0
 40
0.0625
 40
0.0625
 40
0.0625
 40
0.0625
 40
0.125
 40
0.125
 40
0.125
 40
0.125
 40
0.1875
 40
0.1875
 40
0.1875
 40
0.1875
 40
0.25
 40
0.25
 40
0.25
 40
0.25
 40
0.3125
 40
0.3125
 40
0.3125
 40
0.3125
 40
0.375
 40
0.375
 40
0.375
 40
0.375
 40
0.4375
 40
0.4375
 40
0.4375
 40
0.4375
 40
0.5
 40
0.5
 40
0.5
 40
0.5
 40
0.5625
 40
0.5625
 40
0.5625
 40
0.5625
 40
0.625
 40
0.625
 40
0.625
 40
0.625
 40
0.6875
 40
0.6875
 40
0.6875
 40
0.6875
 40
0.75
 40
0.75
 40
0.75
 40
0.75
 40
0.8125
 40
0.8125
 40
0.8125
 40
0.8125
 40
0.875
 40
0.875
 40
0.875
 40
0.875
 40
1.0
 40
1.0
 40
1.0
 40
1.0
 10
58.3332
 20
-81.3173
 30
0.0
 10
56.0427
 20
-73.7128
 30
0.0
 10
50.4823
 20
-66.529
 30
0.0
 10
41.2542
 20
-66.0187
 30
0.0
 10
41.2542
 20
-66.0187
 30
0.0
 10
33.3211
 20
-65.58
 30
0.0
 10
31.8115
 20
-71.1558
 30
0.0
 10
26.679
 20
-71.6294
 30
0.0
 10
26.679
 20
-71.6294
 30
0.0
 10
23.4368
 20
-71.9287
 30
0.0
 10
20.319
 20
-69.8608
 30
0.0
 10
20.5125
 20
-67.2903
 30
0.0
 10
20.5125
 20
-67.2903
 30
0.0
 10
22.0805
 20
-68.4367
 30
0.0
 10
24.2211
 20
-68.8565
 30
0.0
 10
26.1061
 20
-68.3618
 30
0.0
 10
26.1061
 20
-68.3618
 30
0.0
 10
25.6401
 20
-69.1737
 30
0.0
 10
24.8925
 20
-69.7764
 30
0.0
 10
25.112
 20
-70.3158
 30
0.0
 10
25.112
 20
-70.3158
 30
0.0
 10
25.5264
 20
-71.3344
 30
0.0
 10
28.7772
 20
-70.9633
 30
0.0
 10
29.7959
 20
-67.9408
 30
0.0
 10
29.7959
 20
-67.9408
 30
0.0
 10
30.1197
 20
-66.9813
 30
0.0
 10
30.0815
 20
-66.0483
 30
0.0
 10
29.7709
 20
-65.2176
 30
0.0
 10
29.7709
 20
-65.2176
 30
0.0
 10
30.0815
 20
-64.3867
 30
0.0
 10
30.1197
 20
-63.454
 30
0.0
 10
29.7959
 20
-62.4942
 30
0.0
 10
29.7959
 20
-62.4942
 30
0.0
 10
28.7772
 20
-59.4716
 30
0.0
 10
25.5264
 20
-59.1009
 30
0.0
 10
25.112
 20
-60.1195
 30
0.0
 10
25.112
 20
-60.1195
 30
0.0
 10
24.8925
 20
-60.6588
 30
0.0
 10
25.6401
 20
-61.2615
 30
0.0
 10
26.1061
 20
-62.0734
 30
0.0
 10
26.1061
 20
-62.0734
 30
0.0
 10
24.2211
 20
-61.5784
 30
0.0
 10
22.0805
 20
-61.9983
 30
0.0
 10
20.5125
 20
-63.1448
 30
0.0
 10
20.5125
 20
-63.1448
 30
0.0
 10
20.319
 20
-60.5745
 30
0.0
 10
23.4368
 20
-58.5065
 30
0.0
 10
26.679
 20
-58.8058
 30
0.0
 10
26.679
 20
-58.8058
 30
0.0
 10
31.8115
 20
-59.2795
 30
0.0
 10
33.3211
 20
-64.8553
 30
0.0
 10
41.2542
 20
-64.4162
 30
0.0
 10
41.2542
 20
-64.4162
 30
0.0
 10
50.4823
 20
-63.9059
 30
0.0
 10
56.0427
 20
-56.7221
 30
0.0
 10
58.3332
 20
-49.1176
 30
0.0
 10
58.3332
 20
-49.1176
 30
0.0
 10
58.3332
 20
-49.1176
 30
0.0
 10
58.3332
 20
-81.3173
 30
0.0
 10
58.3332
 20
-81.3173
 30
0.0
  0
SPLINE
  5
AB
330
1F
100
AcDbEntity
  8
layer 1
 62
     7
100
AcDbSpline
210
0.0
220
0.0
230
1.0
 70
    11
 71
     3
 72
    16
 73
    12
 74
     0
 42
0.0000000001
 43
0.0000000001
 12
1.0
 22
0.0
 32
0.0
 13
1.0
 23
0.0
 33
0.0
 40
0.0
 40
0.0
 40
0.0
 40
0.0
 40
0.25
 40
0.25
 40
0.25
 40
0.25
 40
0.5
 40
0.5
 40
0.5
 40
0.5
 40
1.0
 40
1.0
 40
1.0
 40
1.0
 10
47.6641
 20
-111.9387
 30
0.0
 10
53.1304
 20
-109.3152
 30
0.0
 10
56.6328
 20
-103.9042
 30
0.0
 10
58.3332
 20
-98.2597
 30
0.0
 10
58.3332
 20
-98.2597
 30
0.0
 10
58.3332
 20
-98.2597
 30
0.0
 10
58.3332
 20
-111.9387
 30
0.0
 10
58.3332
 20
-111.9387
 30
0.0
 10
58.3332
 20
-111.9387
 30
0.0
 10
58.3332
 20
-111.9387
 30
0.0
 10
47.6641
 20
-111.9387
 30
0.0
 10
47.6641
 20
-111.9387
 30
0.0
  0
SPLINE
  5
AC
330
1F
100
AcDbEntity
  8
layer 1
 62
     7
100
AcDbSpline
210
0.0
220
0.0
230
1.0
 70
    11
 71
     3
 72
    32
 73
    28
 74
     0
 42
0.0000000001
 43
0.0000000001
 12
1.0
 22
0.0
 32
0.0
 13
1.0
 23
0.0
 33
0.0
 40
0.0
 40
0.0
 40
0.0
 40
0.0
 40
0.125
 40
0.125
 40
0.125
 40
0.125
 40
0.25
 40
0.25
 40
0.25
 40
0.25
 40
0.375
 40
0.375
 40
0.375
 40
0.375
 40
0.5
 40
0.5
 40
0.5
 40
0.5
 40
0.625
 40
0.625
 40
0.625
 40
0.625
 40
0.75
 40
0.75
 40
0.75
 40
0.75
 40
1.0
 40
1.0
 40
1.0
 40
1.0
 10
20.5067
 20
-111.9387
 30
0.0
 10
20.603
 20
-109.5321
 30
0.0
 10
23.5842
 20
-107.6607
 30
0.0
 10
26.679
 20
-107.9467
 30
0.0
 10
26.679
 20
-107.9467
 30
0.0
 10
29.7792
 20
-108.2325
 30
0.0
 10
31.5578
 20
-110.3795
 30
0.0
 10
34.2275
 20
-111.9387
 30
0.0
 10
34.2275
 20
-111.9387
 30
0.0
 10
34.2275
 20
-111.9387
 30
0.0
 10
29.7681
 20
-111.9387
 30
0.0
 10
29.7681
 20
-111.9387
 30
0.0
 10
29.7681
 20
-111.9387
 30
0.0
 10
29.0713
 20
-108.761
 30
0.0
 10
25.5835
 20
-108.1009
 30
0.0
 10
25.112
 20
-109.2602
 30
0.0
 10
25.112
 20
-109.2602
 30
0.0
 10
24.8925
 20
-109.7997
 30
0.0
 10
25.6401
 20
-110.4024
 30
0.0
 10
26.1061
 20
-111.2143
 30
0.0
 10
26.1061
 20
-111.2143
 30
0.0
 10
24.4257
 20
-110.7731
 30
0.0
 10
22.5415
 20
-111.0589
 30
0.0
 10
21.0418
 20
-111.9387
 30
0.0
 10
21.0418
 20
-111.9387
 30
0.0
 10
21.0418
 20
-111.9387
 30
0.0
 10
20.5067
 20
-111.9387
 30
0.0
 10
20.5067
 20
-111.9387
 30
0.0
  0
SPLINE
  5
AD
330
1F
100
AcDbEntity
  8
layer 1
 62
     7
100
AcDbSpline
210
0.0
220
0.0
230
1.0
 70
    11
 71
     3
 72
    32
 73
    28
 74
     0
 42
0.0000000001
 43
0.0000000001
 12
1.0
 22
0.0
 32
0.0
 13
1.0
 23
0.0
 33
0.0
 40
0.0
 40
0.0
 40
0.0
 40
0.0
 40
0.125
 40
0.125
 40
0.125
 40
0.125
 40
0.25
 40
0.25
 40
0.25
 40
0.25
 40
0.375
 40
0.375
 40
0.375
 40
0.375
 40
0.5
 40
0.5
 40
0.5
 40
0.5
 40
0.625
 40
0.625
 40
0.625
 40
0.625
 40
0.75
 40
0.75
 40
0.75
 40
0.75
 40
1.0
 40
1.0
 40
1.0
 40
1.0
 10
3.8335
 20
-111.9387
 30
0.0
 10
6.5033
 20
-110.3795
 30
0.0
 10
8.2819
 20
-108.2325
 30
0.0
 10
11.382
 20
-107.9467
 30
0.0
 10
11.382
 20
-107.9467
 30
0.0
 10
14.4772
 20
-107.6607
 30
0.0
 10
17.458
 20
-109.5321
 30
0.0
 10
17.5544
 20
-111.9387
 30
0.0
 10
17.5544
 20
-111.9387
 30
0.0
 10
17.5544
 20
-111.9387
 30
0.0
 10
17.0193
 20
-111.9387
 30
0.0
 10
17.0193
 20
-111.9387
 30
0.0
 10
17.0193
 20
-111.9387
 30
0.0
 10
15.5196
 20
-111.0589
 30
0.0
 10
13.6358
 20
-110.7731
 30
0.0
 10
11.955
 20
-111.2143
 30
0.0
 10
11.955
 20
-111.2143
 30
0.0
 10
12.421
 20
-110.4024
 30
0.0
 10
13.1686
 20
-109.7997
 30
0.0
 10
12.9491
 20
-109.2602
 30
0.0
 10
12.9491
 20
-109.2602
 30
0.0
 10
12.4775
 20
-108.1009
 30
0.0
 10
8.9897
 20
-108.761
 30
0.0
 10
8.293
 20
-111.9387
 30
0.0
 10
8.293
 20
-111.9387
 30
0.0
 10
8.293
 20
-111.9387
 30
0.0
 10
3.8335
 20
-111.9387
 30
0.0
 10
3.8335
 20
-111.9387
 30
0.0
  0
SPLINE
  5
AE
330
1F
100
AcDbEntity
  8
layer 1
 62
     7
100
AcDbSpline
210
0.0
220
0.0
230
1.0
 70
    11
 71
     3
 72
    16
 73
    12
 74
     0
 42
0.0000000001
 43
0.0000000001
 12
1.0
 22
0.0
 32
0.0
 13
1.0
 23
0.0
 33
0.0
 40
0.0
 40
0.0
 40
0.0
 40
0.0
 40
0.25
 40
0.25
 40
0.25
 40
0.25
 40
0.5
 40
0.5
 40
0.5
 40
0.5
 40
1.0
 40
1.0
 40
1.0
 40
1.0
 10
-20.2721
 20
-98.2597
 30
0.0
 10
-18.5718
 20
-103.9042
 30
0.0
 10
-15.0691
 20
-109.3152
 30
0.0
 10
-9.603
 20
-111.9387
 30
0.0
 10
-9.603
 20
-111.9387
 30
0.0
 10
-9.603
 20
-111.9387
 30
0.0
 10
-20.2721
 20
-111.9387
 30
0.0
 10
-20.2721
 20
-111.9387
 30
0.0
 10
-20.2721
 20
-111.9387
 30
0.0
 10
-20.2721
 20
-111.9387
 30
0.0
 10
-20.2721
 20
-98.2597
 30
0.0
 10
-20.2721
 20
-98.2597
 30
0.0
  0
ENDSEC
  0
SECTION
  2
OBJECTS
  0
DICTIONARY
  5
C
330
0
100
AcDbDictionary
281
     1
  3
ACAD_GROUP
350
D
  3
ACAD_LAYOUT
350
1A
  3
ACAD_MATERIAL
350
3B
  3
ACAD_MLEADERSTYLE
350
D1
  3
ACAD_MLINESTYLE
350
17
  3
ACAD_PLOTSETTINGS
350
19
  3
ACAD_PLOTSTYLENAME
350
E
  3
ACAD_TABLESTYLE
350
D0
  3
ACAD_VISUALSTYLE
350
2A
  0
DICTIONARY
  5
D
102
{ACAD_REACTORS
330
C
102
}
330
C
100
AcDbDictionary
281
     1
  0
DICTIONARY
  5
1A
102
{ACAD_REACTORS
330
C
102
}
330
C
100
AcDbDictionary
281
     1
  3
Layout1
350
1E
  3
Layout2
350
26
  3
Model
350
22
  0
DICTIONARY
  5
3B
102
{ACAD_REACTORS
330
C
102
}
330
C
100
AcDbDictionary
281
     1
  3
ByBlock
350
3D
  3
ByLayer
350
3C
  3
Global
350
3E
  0
DICTIONARY
  5
D1
102
{ACAD_REACTORS
330
C
102
}
330
C
100
AcDbDictionary
281
     1
  0
DICTIONARY
  5
17
102
{ACAD_REACTORS
330
C
102
}
330
C
100
AcDbDictionary
281
     1
  3
Standard
350
18
  0
DICTIONARY
  5
19
102
{ACAD_REACTORS
330
C
102
}
330
C
100
AcDbDictionary
281
     1
  0
ACDBDICTIONARYWDFLT
  5
E
102
{ACAD_REACTORS
330
C
102
}
330
C
100
AcDbDictionary
281
     1
  3
Normal
350
F
100
AcDbDictionaryWithDefault
340
F
  0
DICTIONARY
  5
D0
102
{ACAD_REACTORS
330
C
102
}
330
C
100
AcDbDictionary
281
     1
  0
DICTIONARY
  5
2A
102
{ACAD_REACTORS
330
C
102
}
330
C
100
AcDbDictionary
281
     1
  3
2dWireframe
350
2F
  3
3D Hidden
350
31
  3
3dWireframe
350
30
  3
Basic
350
32
  3
Brighten
350
36
  3
ColorChange
350
3A
  3
Conceptual
350
34
  3
Dim
350
35
  3
Facepattern
350
39
  3
Flat
350
2B
  3
FlatWithEdges
350
2C
  3
Gouraud
350
2D
  3
GouraudWithEdges
350
2E
  3
Linepattern
350
38
  3
Realistic
350
33
  3
Thicken
350
37
  0
LAYOUT
  5
1E
102
{ACAD_REACTORS
330
1A
102
}
330
1A
100
AcDbPlotSettings
  1

  2
none_device
  4

  6

 40
0.0
 41
0.0
 42
0.0
 43
0.0
 44
0.0
 45
0.0
 46
0.0
 47
0.0
 48
0.0
 49
0.0
140
0.0
141
0.0
142
1.0
143
1.0
 70
   688
 72
     0
 73
     0
 74
     5
  7

 75
    16
 76
     0
 77
     2
 78
   300
147
1.0
148
0.0
149
0.0
100
AcDbLayout
  1
Layout1
 70
     1
 71
     1
 10
0.0
 20
0.0
 11
12.0
 21
9.0
 12
0.0
 22
0.0
 32
0.0
 14
1.000000000000000E+20
 24
1.000000000000000E+20
 34
1.000000000000000E+20
 15
-1.000000000000000E+20
 25
-1.000000000000000E+20
 35
-1.000000000000000E+20
146
0.0
 13
0.0
 23
0.0
 33
0.0
 16
1.0
 26
0.0
 36
0.0
 17
0.0
 27
1.0
 37
0.0
 76
     0
330
1B
  0
LAYOUT
  5
26
102
{ACAD_REACTORS
330
1A
102
}
330
1A
100
AcDbPlotSettings
  1

  2
none_device
  4

  6

 40
0.0
 41
0.0
 42
0.0
 43
0.0
 44
0.0
 45
0.0
 46
0.0
 47
0.0
 48
0.0
 49
0.0
140
0.0
141
0.0
142
1.0
143
1.0
 70
   688
 72
     0
 73
     0
 74
     5
  7

 75
    16
 76
     0
 77
     2
 78
   300
147
1.0
148
0.0
149
0.0
100
AcDbLayout
  1
Layout2
 70
     1
 71
     2
 10
0.0
 20
0.0
 11
0.0
 21
0.0
 12
0.0
 22
0.0
 32
0.0
 14
0.0
 24
0.0
 34
0.0
 15
0.0
 25
0.0
 35
0.0
146
0.0
 13
0.0
 23
0.0
 33
0.0
 16
1.0
 26
0.0
 36
0.0
 17
0.0
 27
1.0
 37
0.0
 76
     0
330
23
  0
LAYOUT
  5
22
102
{ACAD_REACTORS
330
1A
102
}
330
1A
100
AcDbPlotSettings
  1

  2
none_device
  4

  6

 40
0.0
 41
0.0
 42
0.0
 43
0.0
 44
0.0
 45
0.0
 46
0.0
 47
0.0
 48
0.0
 49
0.0
140
0.0
141
0.0
142
1.0
143
1.0
 70
  1712
 72
     0
 73
     0
 74
     0
  7

 75
     0
 76
     0
 77
     2
 78
   300
147
1.0
148
0.0
149
0.0
100
AcDbLayout
  1
Model
 70
     1
 71
     0
 10
0.0
 20
0.0
 11
12.0
 21
9.0
 12
0.0
 22
0.0
 32
0.0
 14
-23.91
 24
-115.0653
 34
0.0
 15
61.971
 25
132.0755
 35
0.0
146
0.0
 13
0.0
 23
0.0
 33
0.0
 16
1.0
 26
0.0
 36
0.0
 17
0.0
 27
1.0
 37
0.0
 76
     0
330
1F
331
29
  0
MATERIAL
  5
3D
102
{ACAD_REACTORS
330
3B
102
}
330
3B
100
AcDbMaterial
  1
ByBlock
 72
     1
 94
      127
  0
MATERIAL
  5
3C
102
{ACAD_REACTORS
330
3B
102
}
330
3B
100
AcDbMaterial
  1
ByLayer
 72
     1
 94
      127
  0
MATERIAL
  5
3E
102
{ACAD_REACTORS
330
3B
102
}
330
3B
100
AcDbMaterial
  1
Global
 72
     1
 94
      127
  0
MLINESTYLE
  5
18
102
{ACAD_REACTORS
330
17
102
}
330
17
100
AcDbMlineStyle
  2
Standard
 70
     0
  3

 62
   256
 51
90.0
 52
90.0
 71
     2
 49
0.5
 62
   256
  6
BYLAYER
 49
-0.5
 62
   256
  6
BYLAYER
  0
ACDBPLACEHOLDER
  5
F
102
{ACAD_REACTORS
330
E
102
}
330
E
  0
VISUALSTYLE
  5
2F
102
{ACAD_REACTORS
330
2A
102
}
102
{ACAD_XDICTIONARY
360
B8
102
}
330
2A
100
AcDbVisualStyle
  2
2dWireframe
 70
     4
 71
     0
 72
     2
 73
     0
 90
        0
 40
-0.6
 41
-30.0
 62
     5
 63
     7
421
 16777215
 74
     1
 91
        4
 64
     7
 65
   257
 75
     1
175
     1
 42
1.0
 92
        0
 66
   257
 43
1.0
 76
     1
 77
     6
 78
     2
 67
     7
 79
     5
170
     0
171
     0
290
     0
174
     0
 93
        1
 44
0.0
173
     0
291
     0
 45
0.0
  0
VISUALSTYLE
  5
31
102
{ACAD_REACTORS
330
2A
102
}
102
{ACAD_XDICTIONARY
360
BC
102
}
330
2A
100
AcDbVisualStyle
  2
3D Hidden
 70
     6
 71
     1
 72
     2
 73
     2
 90
        0
 40
-0.6
 41
-30.0
 62
     5
 63
     7
421
 16777215
 74
     2
 91
        2
 64
     7
 65
   257
 75
     2
175
     1
 42
40.0
 92
        0
 66
   257
 43
1.0
 76
     1
 77
     6
 78
     2
 67
     7
 79
     3
170
     0
171
     0
290
     0
174
     0
 93
        1
 44
0.0
173
     0
291
     0
 45
0.0
  0
VISUALSTYLE
  5
30
102
{ACAD_REACTORS
330
2A
102
}
102
{ACAD_XDICTIONARY
360
BA
102
}
330
2A
100
AcDbVisualStyle
  2
3dWireframe
 70
     5
 71
     0
 72
     2
 73
     0
 90
        0
 40
-0.6
 41
-30.0
 62
     5
 63
     7
421
 16777215
 74
     1
 91
        4
 64
     7
 65
   257
 75
     1
175
     1
 42
1.0
 92
        0
 66
   257
 43
1.0
 76
     1
 77
     6
 78
     2
 67
     7
 79
     5
170
     0
171
     0
290
     0
174
     0
 93
        1
 44
0.0
173
     0
291
     0
 45
0.0
  0
VISUALSTYLE
  5
32
102
{ACAD_REACTORS
330
2A
102
}
102
{ACAD_XDICTIONARY
360
BE
102
}
330
2A
100
AcDbVisualStyle
  2
Basic
 70
     7
 71
     1
 72
     0
 73
     1
 90
        0
 40
-0.6
 41
-30.0
 62
     5
 63
     7
421
 16777215
 74
     0
 91
        4
 64
     7
 65
   257
 75
     1
175
     1
 42
1.0
 92
        8
 66
     7
 43
1.0
 76
     1
 77
     6
 78
     2
 67
     7
 79
     5
170
     0
171
     0
290
     0
174
     0
 93
        1
 44
0.0
173
     0
291
     1
 45
0.0
  0
VISUALSTYLE
  5
36
102
{ACAD_REACTORS
330
2A
102
}
102
{ACAD_XDICTIONARY
360
C6
102
}
330
2A
100
AcDbVisualStyle
  2
Brighten
 70
    12
 71
     2
 72
     2
 73
     0
 90
        0
 40
-0.6
 41
-30.0
 62
     5
 63
     7
421
 16777215
 74
     1
 91
        4
 64
     7
 65
   257
 75
     1
175
     1
 42
1.0
 92
        8
 66
     7
 43
1.0
 76
     1
 77
     6
 78
     2
 67
     7
 79
     5
170
     0
171
     0
290
     0
174
     0
 93
        1
 44
50.0
173
     0
291
     1
 45
0.0
  0
VISUALSTYLE
  5
3A
102
{ACAD_REACTORS
330
2A
102
}
102
{ACAD_XDICTIONARY
360
CE
102
}
330
2A
100
AcDbVisualStyle
  2
ColorChange
 70
    16
 71
     2
 72
     2
 73
     3
 90
        0
 40
-0.6
 41
-30.0
 62
     5
 63
     8
421
  8421504
 74
     1
 91
        4
 64
     7
 65
   257
 75
     1
175
     1
 42
1.0
 92
        8
 66
     8
424
  8421504
 43
1.0
 76
     1
 77
     6
 78
     2
 67
     7
 79
     5
170
     0
171
     0
290
     0
174
     0
 93
        1
 44
0.0
173
     0
291
     1
 45
0.0
  0
VISUALSTYLE
  5
34
102
{ACAD_REACTORS
330
2A
102
}
102
{ACAD_XDICTIONARY
360
C2
102
}
330
2A
100
AcDbVisualStyle
  2
Conceptual
 70
     9
 71
     3
 72
     2
 73
     0
 90
        0
 40
-0.6
 41
-30.0
 62
     5
 63
     7
421
 16777215
 74
     2
 91
        2
 64
     7
 65
   257
 75
     1
175
     1
 42
40.0
 92
        8
 66
     7
 43
1.0
 76
     1
 77
     6
 78
     2
 67
     7
 79
     3
170
     0
171
     0
290
     0
174
     0
 93
        1
 44
0.0
173
     0
291
     0
 45
0.0
  0
VISUALSTYLE
  5
35
102
{ACAD_REACTORS
330
2A
102
}
102
{ACAD_XDICTIONARY
360
C4
102
}
330
2A
100
AcDbVisualStyle
  2
Dim
 70
    11
 71
     2
 72
     2
 73
     0
 90
        0
 40
-0.6
 41
-30.0
 62
     5
 63
     7
421
 16777215
 74
     1
 91
        4
 64
     7
 65
   257
 75
     1
175
     1
 42
1.0
 92
        8
 66
     7
 43
1.0
 76
     1
 77
     6
 78
     2
 67
     7
 79
     5
170
     0
171
     0
290
     0
174
     0
 93
        1
 44
-50.0
173
     0
291
     1
 45
0.0
  0
VISUALSTYLE
  5
39
102
{ACAD_REACTORS
330
2A
102
}
102
{ACAD_XDICTIONARY
360
CC
102
}
330
2A
100
AcDbVisualStyle
  2
Facepattern
 70
    15
 71
     2
 72
     2
 73
     0
 90
        0
 40
-0.6
 41
-30.0
 62
     5
 63
     7
421
 16777215
 74
     1
 91
        4
 64
     7
 65
   257
 75
     1
175
     1
 42
1.0
 92
        8
 66
     7
 43
1.0
 76
     1
 77
     6
 78
     2
 67
     7
 79
     5
170
     0
171
     0
290
     0
174
     0
 93
        1
 44
0.0
173
     0
291
     1
 45
0.0
  0
VISUALSTYLE
  5
2B
102
{ACAD_REACTORS
330
2A
102
}
102
{ACAD_XDICTIONARY
360
B0
102
}
330
2A
100
AcDbVisualStyle
  2
Flat
 70
     0
 71
     2
 72
     1
 73
     1
 90
        2
 40
-0.6
 41
30.0
 62
     5
 63
     7
421
 16777215
 74
     0
 91
        4
 64
     7
 65
   257
 75
     1
175
     1
 42
1.0
 92
        8
 66
     7
 43
1.0
 76
     1
 77
     6
 78
     2
 67
     7
 79
     5
170
     0
171
     0
290
     0
174
     0
 93
       13
 44
0.0
173
     0
291
     1
 45
0.0
  0
VISUALSTYLE
  5
2C
102
{ACAD_REACTORS
330
2A
102
}
102
{ACAD_XDICTIONARY
360
B2
102
}
330
2A
100
AcDbVisualStyle
  2
FlatWithEdges
 70
     1
 71
     2
 72
     1
 73
     1
 90
        2
 40
-0.6
 41
30.0
 62
     5
 63
     7
421
 16777215
 74
     1
 91
        4
 64
     7
 65
   257
 75
     1
175
     1
 42
1.0
 92
        0
 66
   257
 43
1.0
 76
     1
 77
     6
 78
     2
 67
     7
 79
     5
170
     0
171
     0
290
     0
174
     0
 93
       13
 44
0.0
173
     0
291
     1
 45
0.0
  0
VISUALSTYLE
  5
2D
102
{ACAD_REACTORS
330
2A
102
}
102
{ACAD_XDICTIONARY
360
B4
102
}
330
2A
100
AcDbVisualStyle
  2
Gouraud
 70
     2
 71
     2
 72
     2
 73
     1
 90
        2
 40
-0.6
 41
30.0
 62
     5
 63
     7
421
 16777215
 74
     0
 91
        4
 64
     7
 65
   257
 75
     1
175
     1
 42
1.0
 92
        0
 66
     7
 43
1.0
 76
     1
 77
     6
 78
     2
 67
     7
 79
     5
170
     0
171
     0
290
     0
174
     0
 93
       13
 44
0.0
173
     0
291
     1
 45
0.0
  0
VISUALSTYLE
  5
2E
102
{ACAD_REACTORS
330
2A
102
}
102
{ACAD_XDICTIONARY
360
B6
102
}
330
2A
100
AcDbVisualStyle
  2
GouraudWithEdges
 70
     3
 71
     2
 72
     2
 73
     1
 90
        2
 40
-0.6
 41
30.0
 62
     5
 63
     7
421
 16777215
 74
     1
 91
        4
 64
     7
 65
   257
 75
     1
175
     1
 42
1.0
 92
        0
 66
   257
 43
1.0
 76
     1
 77
     6
 78
     2
 67
     7
 79
     5
170
     0
171
     0
290
     0
174
     0
 93
       13
 44
0.0
173
     0
291
     1
 45
0.0
  0
VISUALSTYLE
  5
38
102
{ACAD_REACTORS
330
2A
102
}
102
{ACAD_XDICTIONARY
360
CA
102
}
330
2A
100
AcDbVisualStyle
  2
Linepattern
 70
    14
 71
     2
 72
     2
 73
     0
 90
        0
 40
-0.6
 41
-30.0
 62
     5
 63
     7
421
 16777215
 74
     1
 91
        4
 64
     7
 65
   257
 75
     7
175
     7
 42
1.0
 92
        8
 66
     7
 43
1.0
 76
     1
 77
     6
 78
     2
 67
     7
 79
     5
170
     0
171
     0
290
     0
174
     0
 93
        1
 44
0.0
173
     0
291
     1
 45
0.0
  0
VISUALSTYLE
  5
33
102
{ACAD_REACTORS
330
2A
102
}
102
{ACAD_XDICTIONARY
360
C0
102
}
330
2A
100
AcDbVisualStyle
  2
Realistic
 70
     8
 71
     2
 72
     2
 73
     0
 90
        0
 40
-0.6
 41
-30.0
 62
     5
 63
     7
421
 16777215
 74
     1
 91
        0
 64
     7
 65
   257
 75
     1
175
     1
 42
1.0
 92
        8
 66
     8
424
  7895160
 43
1.0
 76
     1
 77
     6
 78
     2
 67
     7
 79
     5
170
     0
171
     0
290
     0
174
     0
 93
       13
 44
0.0
173
     0
291
     0
 45
0.0
  0
VISUALSTYLE
  5
37
102
{ACAD_REACTORS
330
2A
102
}
102
{ACAD_XDICTIONARY
360
C8
102
}
330
2A
100
AcDbVisualStyle
  2
Thicken
 70
    13
 71
     2
 72
     2
 73
     0
 90
        0
 40
-0.6
 41
-30.0
 62
     5
 63
     7
421
 16777215
 74
     1
 91
        4
 64
     7
 65
   257
 75
     1
175
     1
 42
1.0
 92
       12
 66
     7
 43
1.0
 76
     1
 77
     6
 78
     2
 67
     7
 79
     5
170
     0
171
     0
290
     0
174
     0
 93
        1
 44
0.0
173
     0
291
     1
 45
0.0
  0
DICTIONARY
  5
B8
330
2F
100
AcDbDictionary
280
     1
281
     1
  3
ACAD_XREC_ROUNDTRIP
360
B9
  0
DICTIONARY
  5
BC
330
31
100
AcDbDictionary
280
     1
281
     1
  3
ACAD_XREC_ROUNDTRIP
360
BD
  0
DICTIONARY
  5
BA
330
30
100
AcDbDictionary
280
     1
281
     1
  3
ACAD_XREC_ROUNDTRIP
360
BB
  0
DICTIONARY
  5
BE
330
32
100
AcDbDictionary
280
     1
281
     1
  3
ACAD_XREC_ROUNDTRIP
360
BF
  0
DICTIONARY
  5
C6
330
36
100
AcDbDictionary
280
     1
281
     1
  3
ACAD_XREC_ROUNDTRIP
360
C7
  0
DICTIONARY
  5
CE
330
3A
100
AcDbDictionary
280
     1
281
     1
  3
ACAD_XREC_ROUNDTRIP
360
CF
  0
DICTIONARY
  5
C2
330
34
100
AcDbDictionary
280
     1
281
     1
  3
ACAD_XREC_ROUNDTRIP
360
C3
  0
DICTIONARY
  5
C4
330
35
100
AcDbDictionary
280
     1
281
     1
  3
ACAD_XREC_ROUNDTRIP
360
C5
  0
DICTIONARY
  5
CC
330
39
100
AcDbDictionary
280
     1
281
     1
  3
ACAD_XREC_ROUNDTRIP
360
CD
  0
DICTIONARY
  5
B0
330
2B
100
AcDbDictionary
280
     1
281
     1
  3
ACAD_XREC_ROUNDTRIP
360
B1
  0
DICTIONARY
  5
B2
330
2C
100
AcDbDictionary
280
     1
281
     1
  3
ACAD_XREC_ROUNDTRIP
360
B3
  0
DICTIONARY
  5
B4
330
2D
100
AcDbDictionary
280
     1
281
     1
  3
ACAD_XREC_ROUNDTRIP
360
B5
  0
DICTIONARY
  5
B6
330
2E
100
AcDbDictionary
280
     1
281
     1
  3
ACAD_XREC_ROUNDTRIP
360
B7
  0
DICTIONARY
  5
CA
330
38
100
AcDbDictionary
280
     1
281
     1
  3
ACAD_XREC_ROUNDTRIP
360
CB
  0
DICTIONARY
  5
C0
330
33
100
AcDbDictionary
280
     1
281
     1
  3
ACAD_XREC_ROUNDTRIP
360
C1
  0
DICTIONARY
  5
C8
330
37
100
AcDbDictionary
280
     1
281
     1
  3
ACAD_XREC_ROUNDTRIP
360
C9
  0
XRECORD
  5
B9
102
{ACAD_REACTORS
330
B8
102
}
330
B8
100
AcDbXrecord
280
     1
102
RTVSPropertyOp0
 70
     1
102
RTVSPropertyOp1
 70
     1
102
RTVSPropertyOp2
 70
     1
102
RTVSPropertyOp3
 70
     1
102
RTVSPropertyOp4
 70
     1
102
RTVSPropertyOp5
 70
     1
102
RTVSPropertyOp6
 70
     1
102
RTVSPropertyOp7
 70
     1
102
RTVSPropertyOp8
 70
     1
102
RTVSPropertyOp9
 70
     1
102
RTVSPropertyOp10
 70
     1
102
RTVSPropertyOp11
 70
     1
102
RTVSPropertyOp12
 70
     1
102
RTVSPropertyOp13
 70
     1
102
RTVSPropertyOp14
 70
     1
102
RTVSPropertyOp15
 70
     1
102
RTVSPropertyOp16
 70
     1
102
RTVSPropertyOp17
 70
     1
102
RTVSPropertyOp18
 70
     1
102
RTVSPropertyOp19
 70
     1
102
RTVSPropertyOp20
 70
     1
102
RTVSPropertyOp21
 70
     1
102
RTVSPropertyOp22
 70
     1
102
RTVSPropertyOp23
 70
     1
102
RTVSPropertyOp24
 70
     1
102
RTVSPropertyOp25
 70
     1
102
RTVSPropertyOp26
 70
     1
102
RTVSPropertyOp27
 70
     1
102
RTVSPropertyOp28
 70
     1
102
RTVSPropertyOp29
 70
     1
102
RTVSPropertyOp30
 70
     1
102
RTVSPropertyOp31
 70
     1
102
RTVSPropertyOp32
 70
     1
  0
XRECORD
  5
BD
102
{ACAD_REACTORS
330
BC
102
}
330
BC
100
AcDbXrecord
280
     1
102
RTVSPropertyOp0
 70
     1
102
RTVSPropertyOp1
 70
     1
102
RTVSPropertyOp2
 70
     1
102
RTVSPropertyOp3
 70
     1
102
RTVSPropertyOp4
 70
     1
102
RTVSPropertyOp5
 70
     1
102
RTVSPropertyOp6
 70
     1
102
RTVSPropertyOp7
 70
     1
102
RTVSPropertyOp8
 70
     1
102
RTVSPropertyOp9
 70
     1
102
RTVSPropertyOp10
 70
     1
102
RTVSPropertyOp11
 70
     1
102
RTVSPropertyOp12
 70
     1
102
RTVSPropertyOp13
 70
     1
102
RTVSPropertyOp14
 70
     1
102
RTVSPropertyOp15
 70
     1
102
RTVSPropertyOp16
 70
     1
102
RTVSPropertyOp17
 70
     1
102
RTVSPropertyOp18
 70
     1
102
RTVSPropertyOp19
 70
     1
102
RTVSPropertyOp20
 70
     1
102
RTVSPropertyOp21
 70
     1
102
RTVSPropertyOp22
 70
     1
102
RTVSPropertyOp23
 70
     1
102
RTVSPropertyOp24
 70
     1
102
RTVSPropertyOp25
 70
     1
102
RTVSPropertyOp26
 70
     1
102
RTVSPropertyOp27
 70
     1
102
RTVSPropertyOp28
 70
     1
102
RTVSPropertyOp29
 70
     1
102
RTVSPropertyOp30
 70
     1
102
RTVSPropertyOp31
 70
     1
102
RTVSPropertyOp32
 70
     1
  0
XRECORD
  5
BB
102
{ACAD_REACTORS
330
BA
102
}
330
BA
100
AcDbXrecord
280
     1
102
RTVSPropertyOp0
 70
     1
102
RTVSPropertyOp1
 70
     1
102
RTVSPropertyOp2
 70
     1
102
RTVSPropertyOp3
 70
     1
102
RTVSPropertyOp4
 70
     1
102
RTVSPropertyOp5
 70
     1
102
RTVSPropertyOp6
 70
     1
102
RTVSPropertyOp7
 70
     1
102
RTVSPropertyOp8
 70
     1
102
RTVSPropertyOp9
 70
     1
102
RTVSPropertyOp10
 70
     1
102
RTVSPropertyOp11
 70
     1
102
RTVSPropertyOp12
 70
     1
102
RTVSPropertyOp13
 70
     1
102
RTVSPropertyOp14
 70
     1
102
RTVSPropertyOp15
 70
     1
102
RTVSPropertyOp16
 70
     1
102
RTVSPropertyOp17
 70
     1
102
RTVSPropertyOp18
 70
     1
102
RTVSPropertyOp19
 70
     1
102
RTVSPropertyOp20
 70
     1
102
RTVSPropertyOp21
 70
     1
102
RTVSPropertyOp22
 70
     1
102
RTVSPropertyOp23
 70
     1
102
RTVSPropertyOp24
 70
     1
102
RTVSPropertyOp25
 70
     1
102
RTVSPropertyOp26
 70
     1
102
RTVSPropertyOp27
 70
     1
102
RTVSPropertyOp28
 70
     1
102
RTVSPropertyOp29
 70
     1
102
RTVSPropertyOp30
 70
     1
102
RTVSPropertyOp31
 70
     1
102
RTVSPropertyOp32
 70
     1
  0
XRECORD
  5
BF
102
{ACAD_REACTORS
330
BE
102
}
330
BE
100
AcDbXrecord
280
     1
102
RTVSPropertyOp0
 70
     1
102
RTVSPropertyOp1
 70
     1
102
RTVSPropertyOp2
 70
     1
102
RTVSPropertyOp3
 70
     1
102
RTVSPropertyOp4
 70
     1
102
RTVSPropertyOp5
 70
     1
102
RTVSPropertyOp6
 70
     1
102
RTVSPropertyOp7
 70
     1
102
RTVSPropertyOp8
 70
     1
102
RTVSPropertyOp9
 70
     1
102
RTVSPropertyOp10
 70
     1
102
RTVSPropertyOp11
 70
     1
102
RTVSPropertyOp12
 70
     1
102
RTVSPropertyOp13
 70
     1
102
RTVSPropertyOp14
 70
     1
102
RTVSPropertyOp15
 70
     1
102
RTVSPropertyOp16
 70
     1
102
RTVSPropertyOp17
 70
     1
102
RTVSPropertyOp18
 70
     1
102
RTVSPropertyOp19
 70
     1
102
RTVSPropertyOp20
 70
     1
102
RTVSPropertyOp21
 70
     1
102
RTVSPropertyOp22
 70
     1
102
RTVSPropertyOp23
 70
     1
102
RTVSPropertyOp24
 70
     1
102
RTVSPropertyOp25
 70
     1
102
RTVSPropertyOp26
 70
     1
102
RTVSPropertyOp27
 70
     1
102
RTVSPropertyOp28
 70
     1
102
RTVSPropertyOp29
 70
     1
102
RTVSPropertyOp30
 70
     1
102
RTVSPropertyOp31
 70
     1
102
RTVSPropertyOp32
 70
     1
  0
XRECORD
  5
C7
102
{ACAD_REACTORS
330
C6
102
}
330
C6
100
AcDbXrecord
280
     1
102
RTVSPropertyOp0
 70
     1
102
RTVSPropertyOp1
 70
     1
102
RTVSPropertyOp2
 70
     1
102
RTVSPropertyOp3
 70
     1
102
RTVSPropertyOp4
 70
     1
102
RTVSPropertyOp5
 70
     1
102
RTVSPropertyOp6
 70
     1
102
RTVSPropertyOp7
 70
     1
102
RTVSPropertyOp8
 70
     1
102
RTVSPropertyOp9
 70
     1
102
RTVSPropertyOp10
 70
     1
102
RTVSPropertyOp11
 70
     1
102
RTVSPropertyOp12
 70
     1
102
RTVSPropertyOp13
 70
     1
102
RTVSPropertyOp14
 70
     1
102
RTVSPropertyOp15
 70
     1
102
RTVSPropertyOp16
 70
     1
102
RTVSPropertyOp17
 70
     1
102
RTVSPropertyOp18
 70
     1
102
RTVSPropertyOp19
 70
     1
102
RTVSPropertyOp20
 70
     1
102
RTVSPropertyOp21
 70
     1
102
RTVSPropertyOp22
 70
     1
102
RTVSPropertyOp23
 70
     1
102
RTVSPropertyOp24
 70
     1
102
RTVSPropertyOp25
 70
     1
102
RTVSPropertyOp26
 70
     1
102
RTVSPropertyOp27
 70
     1
102
RTVSPropertyOp28
 70
     1
102
RTVSPropertyOp29
 70
     1
102
RTVSPropertyOp30
 70
     1
102
RTVSPropertyOp31
 70
     1
102
RTVSPropertyOp32
 70
     1
  0
XRECORD
  5
CF
102
{ACAD_REACTORS
330
CE
102
}
330
CE
100
AcDbXrecord
280
     1
102
RTVSPropertyOp0
 70
     1
102
RTVSPropertyOp1
 70
     1
102
RTVSPropertyOp2
 70
     1
102
RTVSPropertyOp3
 70
     1
102
RTVSPropertyOp4
 70
     1
102
RTVSPropertyOp5
 70
     1
102
RTVSPropertyOp6
 70
     1
102
RTVSPropertyOp7
 70
     1
102
RTVSPropertyOp8
 70
     1
102
RTVSPropertyOp9
 70
     1
102
RTVSPropertyOp10
 70
     1
102
RTVSPropertyOp11
 70
     1
102
RTVSPropertyOp12
 70
     1
102
RTVSPropertyOp13
 70
     1
102
RTVSPropertyOp14
 70
     1
102
RTVSPropertyOp15
 70
     1
102
RTVSPropertyOp16
 70
     1
102
RTVSPropertyOp17
 70
     1
102
RTVSPropertyOp18
 70
     1
102
RTVSPropertyOp19
 70
     1
102
RTVSPropertyOp20
 70
     1
102
RTVSPropertyOp21
 70
     1
102
RTVSPropertyOp22
 70
     1
102
RTVSPropertyOp23
 70
     1
102
RTVSPropertyOp24
 70
     1
102
RTVSPropertyOp25
 70
     1
102
RTVSPropertyOp26
 70
     1
102
RTVSPropertyOp27
 70
     1
102
RTVSPropertyOp28
 70
     1
102
RTVSPropertyOp29
 70
     1
102
RTVSPropertyOp30
 70
     1
102
RTVSPropertyOp31
 70
     1
102
RTVSPropertyOp32
 70
     1
  0
XRECORD
  5
C3
102
{ACAD_REACTORS
330
C2
102
}
330
C2
100
AcDbXrecord
280
     1
102
RTVSPropertyOp0
 70
     1
102
RTVSPropertyOp1
 70
     1
102
RTVSPropertyOp2
 70
     1
102
RTVSPropertyOp3
 70
     1
102
RTVSPropertyOp4
 70
     1
102
RTVSPropertyOp5
 70
     1
102
RTVSPropertyOp6
 70
     1
102
RTVSPropertyOp7
 70
     1
102
RTVSPropertyOp8
 70
     1
102
RTVSPropertyOp9
 70
     1
102
RTVSPropertyOp10
 70
     1
102
RTVSPropertyOp11
 70
     1
102
RTVSPropertyOp12
 70
     1
102
RTVSPropertyOp13
 70
     1
102
RTVSPropertyOp14
 70
     1
102
RTVSPropertyOp15
 70
     1
102
RTVSPropertyOp16
 70
     1
102
RTVSPropertyOp17
 70
     1
102
RTVSPropertyOp18
 70
     1
102
RTVSPropertyOp19
 70
     1
102
RTVSPropertyOp20
 70
     1
102
RTVSPropertyOp21
 70
     1
102
RTVSPropertyOp22
 70
     1
102
RTVSPropertyOp23
 70
     1
102
RTVSPropertyOp24
 70
     1
102
RTVSPropertyOp25
 70
     1
102
RTVSPropertyOp26
 70
     1
102
RTVSPropertyOp27
 70
     1
102
RTVSPropertyOp28
 70
     1
102
RTVSPropertyOp29
 70
     1
102
RTVSPropertyOp30
 70
     1
102
RTVSPropertyOp31
 70
     1
102
RTVSPropertyOp32
 70
     1
  0
XRECORD
  5
C5
102
{ACAD_REACTORS
330
C4
102
}
330
C4
100
AcDbXrecord
280
     1
102
RTVSPropertyOp0
 70
     1
102
RTVSPropertyOp1
 70
     1
102
RTVSPropertyOp2
 70
     1
102
RTVSPropertyOp3
 70
     1
102
RTVSPropertyOp4
 70
     1
102
RTVSPropertyOp5
 70
     1
102
RTVSPropertyOp6
 70
     1
102
RTVSPropertyOp7
 70
     1
102
RTVSPropertyOp8
 70
     1
102
RTVSPropertyOp9
 70
     1
102
RTVSPropertyOp10
 70
     1
102
RTVSPropertyOp11
 70
     1
102
RTVSPropertyOp12
 70
     1
102
RTVSPropertyOp13
 70
     1
102
RTVSPropertyOp14
 70
     1
102
RTVSPropertyOp15
 70
     1
102
RTVSPropertyOp16
 70
     1
102
RTVSPropertyOp17
 70
     1
102
RTVSPropertyOp18
 70
     1
102
RTVSPropertyOp19
 70
     1
102
RTVSPropertyOp20
 70
     1
102
RTVSPropertyOp21
 70
     1
102
RTVSPropertyOp22
 70
     1
102
RTVSPropertyOp23
 70
     1
102
RTVSPropertyOp24
 70
     1
102
RTVSPropertyOp25
 70
     1
102
RTVSPropertyOp26
 70
     1
102
RTVSPropertyOp27
 70
     1
102
RTVSPropertyOp28
 70
     1
102
RTVSPropertyOp29
 70
     1
102
RTVSPropertyOp30
 70
     1
102
RTVSPropertyOp31
 70
     1
102
RTVSPropertyOp32
 70
     1
  0
XRECORD
  5
CD
102
{ACAD_REACTORS
330
CC
102
}
330
CC
100
AcDbXrecord
280
     1
102
RTVSPropertyOp0
 70
     1
102
RTVSPropertyOp1
 70
     1
102
RTVSPropertyOp2
 70
     1
102
RTVSPropertyOp3
 70
     1
102
RTVSPropertyOp4
 70
     1
102
RTVSPropertyOp5
 70
     1
102
RTVSPropertyOp6
 70
     1
102
RTVSPropertyOp7
 70
     1
102
RTVSPropertyOp8
 70
     1
102
RTVSPropertyOp9
 70
     1
102
RTVSPropertyOp10
 70
     1
102
RTVSPropertyOp11
 70
     1
102
RTVSPropertyOp12
 70
     1
102
RTVSPropertyOp13
 70
     1
102
RTVSPropertyOp14
 70
     1
102
RTVSPropertyOp15
 70
     1
102
RTVSPropertyOp16
 70
     1
102
RTVSPropertyOp17
 70
     1
102
RTVSPropertyOp18
 70
     1
102
RTVSPropertyOp19
 70
     1
102
RTVSPropertyOp20
 70
     1
102
RTVSPropertyOp21
 70
     1
102
RTVSPropertyOp22
 70
     1
102
RTVSPropertyOp23
 70
     1
102
RTVSPropertyOp24
 70
     1
102
RTVSPropertyOp25
 70
     1
102
RTVSPropertyOp26
 70
     1
102
RTVSPropertyOp27
 70
     1
102
RTVSPropertyOp28
 70
     1
102
RTVSPropertyOp29
 70
     1
102
RTVSPropertyOp30
 70
     1
102
RTVSPropertyOp31
 70
     1
102
RTVSPropertyOp32
 70
     1
  0
XRECORD
  5
B1
102
{ACAD_REACTORS
330
B0
102
}
330
B0
100
AcDbXrecord
280
     1
102
RTVSPropertyOp0
 70
     1
102
RTVSPropertyOp1
 70
     1
102
RTVSPropertyOp2
 70
     1
102
RTVSPropertyOp3
 70
     1
102
RTVSPropertyOp4
 70
     1
102
RTVSPropertyOp5
 70
     1
102
RTVSPropertyOp6
 70
     1
102
RTVSPropertyOp7
 70
     1
102
RTVSPropertyOp8
 70
     1
102
RTVSPropertyOp9
 70
     1
102
RTVSPropertyOp10
 70
     1
102
RTVSPropertyOp11
 70
     1
102
RTVSPropertyOp12
 70
     1
102
RTVSPropertyOp13
 70
     1
102
RTVSPropertyOp14
 70
     1
102
RTVSPropertyOp15
 70
     1
102
RTVSPropertyOp16
 70
     1
102
RTVSPropertyOp17
 70
     1
102
RTVSPropertyOp18
 70
     1
102
RTVSPropertyOp19
 70
     1
102
RTVSPropertyOp20
 70
     1
102
RTVSPropertyOp21
 70
     1
102
RTVSPropertyOp22
 70
     1
102
RTVSPropertyOp23
 70
     1
102
RTVSPropertyOp24
 70
     1
102
RTVSPropertyOp25
 70
     1
102
RTVSPropertyOp26
 70
     1
102
RTVSPropertyOp27
 70
     1
102
RTVSPropertyOp28
 70
     1
102
RTVSPropertyOp29
 70
     1
102
RTVSPropertyOp30
 70
     1
102
RTVSPropertyOp31
 70
     1
102
RTVSPropertyOp32
 70
     1
  0
XRECORD
  5
B3
102
{ACAD_REACTORS
330
B2
102
}
330
B2
100
AcDbXrecord
280
     1
102
RTVSPropertyOp0
 70
     1
102
RTVSPropertyOp1
 70
     1
102
RTVSPropertyOp2
 70
     1
102
RTVSPropertyOp3
 70
     1
102
RTVSPropertyOp4
 70
     1
102
RTVSPropertyOp5
 70
     1
102
RTVSPropertyOp6
 70
     1
102
RTVSPropertyOp7
 70
     1
102
RTVSPropertyOp8
 70
     1
102
RTVSPropertyOp9
 70
     1
102
RTVSPropertyOp10
 70
     1
102
RTVSPropertyOp11
 70
     1
102
RTVSPropertyOp12
 70
     1
102
RTVSPropertyOp13
 70
     1
102
RTVSPropertyOp14
 70
     1
102
RTVSPropertyOp15
 70
     1
102
RTVSPropertyOp16
 70
     1
102
RTVSPropertyOp17
 70
     1
102
RTVSPropertyOp18
 70
     1
102
RTVSPropertyOp19
 70
     1
102
RTVSPropertyOp20
 70
     1
102
RTVSPropertyOp21
 70
     1
102
RTVSPropertyOp22
 70
     1
102
RTVSPropertyOp23
 70
     1
102
RTVSPropertyOp24
 70
     1
102
RTVSPropertyOp25
 70
     1
102
RTVSPropertyOp26
 70
     1
102
RTVSPropertyOp27
 70
     1
102
RTVSPropertyOp28
 70
     1
102
RTVSPropertyOp29
 70
     1
102
RTVSPropertyOp30
 70
     1
102
RTVSPropertyOp31
 70
     1
102
RTVSPropertyOp32
 70
     1
  0
XRECORD
  5
B5
102
{ACAD_REACTORS
330
B4
102
}
330
B4
100
AcDbXrecord
280
     1
102
RTVSPropertyOp0
 70
     1
102
RTVSPropertyOp1
 70
     1
102
RTVSPropertyOp2
 70
     1
102
RTVSPropertyOp3
 70
     1
102
RTVSPropertyOp4
 70
     1
102
RTVSPropertyOp5
 70
     1
102
RTVSPropertyOp6
 70
     1
102
RTVSPropertyOp7
 70
     1
102
RTVSPropertyOp8
 70
     1
102
RTVSPropertyOp9
 70
     1
102
RTVSPropertyOp10
 70
     1
102
RTVSPropertyOp11
 70
     1
102
RTVSPropertyOp12
 70
     1
102
RTVSPropertyOp13
 70
     1
102
RTVSPropertyOp14
 70
     1
102
RTVSPropertyOp15
 70
     1
102
RTVSPropertyOp16
 70
     1
102
RTVSPropertyOp17
 70
     1
102
RTVSPropertyOp18
 70
     1
102
RTVSPropertyOp19
 70
     1
102
RTVSPropertyOp20
 70
     1
102
RTVSPropertyOp21
 70
     1
102
RTVSPropertyOp22
 70
     1
102
RTVSPropertyOp23
 70
     1
102
RTVSPropertyOp24
 70
     1
102
RTVSPropertyOp25
 70
     1
102
RTVSPropertyOp26
 70
     1
102
RTVSPropertyOp27
 70
     1
102
RTVSPropertyOp28
 70
     1
102
RTVSPropertyOp29
 70
     1
102
RTVSPropertyOp30
 70
     1
102
RTVSPropertyOp31
 70
     1
102
RTVSPropertyOp32
 70
     1
  0
XRECORD
  5
B7
102
{ACAD_REACTORS
330
B6
102
}
330
B6
100
AcDbXrecord
280
     1
102
RTVSPropertyOp0
 70
     1
102
RTVSPropertyOp1
 70
     1
102
RTVSPropertyOp2
 70
     1
102
RTVSPropertyOp3
 70
     1
102
RTVSPropertyOp4
 70
     1
102
RTVSPropertyOp5
 70
     1
102
RTVSPropertyOp6
 70
     1
102
RTVSPropertyOp7
 70
     1
102
RTVSPropertyOp8
 70
     1
102
RTVSPropertyOp9
 70
     1
102
RTVSPropertyOp10
 70
     1
102
RTVSPropertyOp11
 70
     1
102
RTVSPropertyOp12
 70
     1
102
RTVSPropertyOp13
 70
     1
102
RTVSPropertyOp14
 70
     1
102
RTVSPropertyOp15
 70
     1
102
RTVSPropertyOp16
 70
     1
102
RTVSPropertyOp17
 70
     1
102
RTVSPropertyOp18
 70
     1
102
RTVSPropertyOp19
 70
     1
102
RTVSPropertyOp20
 70
     1
102
RTVSPropertyOp21
 70
     1
102
RTVSPropertyOp22
 70
     1
102
RTVSPropertyOp23
 70
     1
102
RTVSPropertyOp24
 70
     1
102
RTVSPropertyOp25
 70
     1
102
RTVSPropertyOp26
 70
     1
102
RTVSPropertyOp27
 70
     1
102
RTVSPropertyOp28
 70
     1
102
RTVSPropertyOp29
 70
     1
102
RTVSPropertyOp30
 70
     1
102
RTVSPropertyOp31
 70
     1
102
RTVSPropertyOp32
 70
     1
  0
XRECORD
  5
CB
102
{ACAD_REACTORS
330
CA
102
}
330
CA
100
AcDbXrecord
280
     1
102
RTVSPropertyOp0
 70
     1
102
RTVSPropertyOp1
 70
     1
102
RTVSPropertyOp2
 70
     1
102
RTVSPropertyOp3
 70
     1
102
RTVSPropertyOp4
 70
     1
102
RTVSPropertyOp5
 70
     1
102
RTVSPropertyOp6
 70
     1
102
RTVSPropertyOp7
 70
     1
102
RTVSPropertyOp8
 70
     1
102
RTVSPropertyOp9
 70
     1
102
RTVSPropertyOp10
 70
     1
102
RTVSPropertyOp11
 70
     1
102
RTVSPropertyOp12
 70
     1
102
RTVSPropertyOp13
 70
     1
102
RTVSPropertyOp14
 70
     1
102
RTVSPropertyOp15
 70
     1
102
RTVSPropertyOp16
 70
     1
102
RTVSPropertyOp17
 70
     1
102
RTVSPropertyOp18
 70
     1
102
RTVSPropertyOp19
 70
     1
102
RTVSPropertyOp20
 70
     1
102
RTVSPropertyOp21
 70
     1
102
RTVSPropertyOp22
 70
     1
102
RTVSPropertyOp23
 70
     1
102
RTVSPropertyOp24
 70
     1
102
RTVSPropertyOp25
 70
     1
102
RTVSPropertyOp26
 70
     1
102
RTVSPropertyOp27
 70
     1
102
RTVSPropertyOp28
 70
     1
102
RTVSPropertyOp29
 70
     1
102
RTVSPropertyOp30
 70
     1
102
RTVSPropertyOp31
 70
     1
102
RTVSPropertyOp32
 70
     1
  0
XRECORD
  5
C1
102
{ACAD_REACTORS
330
C0
102
}
330
C0
100
AcDbXrecord
280
     1
102
RTVSPropertyOp0
 70
     1
102
RTVSPropertyOp1
 70
     1
102
RTVSPropertyOp2
 70
     1
102
RTVSPropertyOp3
 70
     1
102
RTVSPropertyOp4
 70
     1
102
RTVSPropertyOp5
 70
     1
102
RTVSPropertyOp6
 70
     1
102
RTVSPropertyOp7
 70
     1
102
RTVSPropertyOp8
 70
     1
102
RTVSPropertyOp9
 70
     1
102
RTVSPropertyOp10
 70
     1
102
RTVSPropertyOp11
 70
     1
102
RTVSPropertyOp12
 70
     1
102
RTVSPropertyOp13
 70
     1
102
RTVSPropertyOp14
 70
     1
102
RTVSPropertyOp15
 70
     1
102
RTVSPropertyOp16
 70
     1
102
RTVSPropertyOp17
 70
     1
102
RTVSPropertyOp18
 70
     1
102
RTVSPropertyOp19
 70
     1
102
RTVSPropertyOp20
 70
     1
102
RTVSPropertyOp21
 70
     1
102
RTVSPropertyOp22
 70
     1
102
RTVSPropertyOp23
 70
     1
102
RTVSPropertyOp24
 70
     1
102
RTVSPropertyOp25
 70
     1
102
RTVSPropertyOp26
 70
     1
102
RTVSPropertyOp27
 70
     1
102
RTVSPropertyOp28
 70
     1
102
RTVSPropertyOp29
 70
     1
102
RTVSPropertyOp30
 70
     1
102
RTVSPropertyOp31
 70
     1
102
RTVSPropertyOp32
 70
     1
  0
XRECORD
  5
C9
102
{ACAD_REACTORS
330
C8
102
}
330
C8
100
AcDbXrecord
280
     1
102
RTVSPropertyOp0
 70
     1
102
RTVSPropertyOp1
 70
     1
102
RTVSPropertyOp2
 70
     1
102
RTVSPropertyOp3
 70
     1
102
RTVSPropertyOp4
 70
     1
102
RTVSPropertyOp5
 70
     1
102
RTVSPropertyOp6
 70
     1
102
RTVSPropertyOp7
 70
     1
102
RTVSPropertyOp8
 70
     1
102
RTVSPropertyOp9
 70
     1
102
RTVSPropertyOp10
 70
     1
102
RTVSPropertyOp11
 70
     1
102
RTVSPropertyOp12
 70
     1
102
RTVSPropertyOp13
 70
     1
102
RTVSPropertyOp14
 70
     1
102
RTVSPropertyOp15
 70
     1
102
RTVSPropertyOp16
 70
     1
102
RTVSPropertyOp17
 70
     1
102
RTVSPropertyOp18
 70
     1
102
RTVSPropertyOp19
 70
     1
102
RTVSPropertyOp20
 70
     1
102
RTVSPropertyOp21
 70
     1
102
RTVSPropertyOp22
 70
     1
102
RTVSPropertyOp23
 70
     1
102
RTVSPropertyOp24
 70
     1
102
RTVSPropertyOp25
 70
     1
102
RTVSPropertyOp26
 70
     1
102
RTVSPropertyOp27
 70
     1
102
RTVSPropertyOp28
 70
     1
102
RTVSPropertyOp29
 70
     1
102
RTVSPropertyOp30
 70
     1
102
RTVSPropertyOp31
 70
     1
102
RTVSPropertyOp32
 70
     1
  0
ENDSEC
  0
EOF
