  0
SECTION
  2
HEADER
  9
$ACADVER
  1
AC1021
  9
$ACADMAINTVER
 70
    25
  9
$DWGCODEPAGE
  3
ANSI_1252
  9
$INSBASE
 10
0.0
 20
0.0
 30
0.0
  9
$EXTMIN
 10
-43.8907
 20
-115.0905
 30
0.0
  9
$EXTMAX
 10
34.0217
 20
131.7742
 30
0.0
  9
$LIMMIN
 10
0.0
 20
0.0
  9
$LIMMAX
 10
12.0
 20
9.0
  9
$ORTHOMODE
 70
     0
  9
$REGENMODE
 70
     1
  9
$FILLMODE
 70
     1
  9
$QTEXTMODE
 70
     0
  9
$MIRRTEXT
 70
     1
  9
$LTSCALE
 40
1.0
  9
$ATTMODE
 70
     1
  9
$TEXTSIZE
 40
0.2
  9
$TRACEWID
 40
0.05
  9
$TEXTSTYLE
  7
Standard
  9
$CLAYER
  8
0
  9
$CELTYPE
  6
ByLayer
  9
$CECOLOR
 62
   256
  9
$CELTSCALE
 40
1.0
  9
$DISPSILH
 70
     0
  9
$DIMSCALE
 40
1.0
  9
$DIMASZ
 40
0.18
  9
$DIMEXO
 40
0.0625
  9
$DIMDLI
 40
0.38
  9
$DIMRND
 40
0.0
  9
$DIMDLE
 40
0.0
  9
$DIMEXE
 40
0.18
  9
$DIMTP
 40
0.0
  9
$DIMTM
 40
0.0
  9
$DIMTXT
 40
0.18
  9
$DIMCEN
 40
0.09
  9
$DIMTSZ
 40
0.0
  9
$DIMTOL
 70
     0
  9
$DIMLIM
 70
     0
  9
$DIMTIH
 70
     1
  9
$DIMTOH
 70
     1
  9
$DIMSE1
 70
     0
  9
$DIMSE2
 70
     0
  9
$DIMTAD
 70
     0
  9
$DIMZIN
 70
     0
  9
$DIMBLK
  1

  9
$DIMASO
 70
     1
  9
$DIMSHO
 70
     1
  9
$DIMPOST
  1

  9
$DIMAPOST
  1

  9
$DIMALT
 70
     0
  9
$DIMALTD
 70
     2
  9
$DIMALTF
 40
25.4
  9
$DIMLFAC
 40
1.0
  9
$DIMTOFL
 70
     0
  9
$DIMTVP
 40
0.0
  9
$DIMTIX
 70
     0
  9
$DIMSOXD
 70
     0
  9
$DIMSAH
 70
     0
  9
$DIMBLK1
  1

  9
$DIMBLK2
  1

  9
$DIMSTYLE
  2
Standard
  9
$DIMCLRD
 70
     0
  9
$DIMCLRE
 70
     0
  9
$DIMCLRT
 70
     0
  9
$DIMTFAC
 40
1.0
  9
$DIMGAP
 40
0.09
  9
$DIMJUST
 70
     0
  9
$DIMSD1
 70
     0
  9
$DIMSD2
 70
     0
  9
$DIMTOLJ
 70
     1
  9
$DIMTZIN
 70
     0
  9
$DIMALTZ
 70
     0
  9
$DIMALTTZ
 70
     0
  9
$DIMUPT
 70
     0
  9
$DIMDEC
 70
     4
  9
$DIMTDEC
 70
     4
  9
$DIMALTU
 70
     2
  9
$DIMALTTD
 70
     2
  9
$DIMTXSTY
  7
Standard
  9
$DIMAUNIT
 70
     0
  9
$DIMADEC
 70
     0
  9
$DIMALTRND
 40
0.0
  9
$DIMAZIN
 70
     0
  9
$DIMDSEP
 70
    46
  9
$DIMATFIT
 70
     3
  9
$DIMFRAC
 70
     0
  9
$DIMLDRBLK
  1

  9
$DIMLUNIT
 70
     2
  9
$DIMLWD
 70
    -2
  9
$DIMLWE
 70
    -2
  9
$DIMTMOVE
 70
     0
  9
$DIMFXL
 40
1.0
  9
$DIMFXLON
 70
     0
  9
$DIMJOGANG
 40
0.7853981633974483
  9
$DIMTFILL
 70
     0
  9
$DIMTFILLCLR
 70
     0
  9
$DIMARCSYM
 70
     0
  9
$DIMLTYPE
  6

  9
$DIMLTEX1
  6

  9
$DIMLTEX2
  6

  9
$LUNITS
 70
     2
  9
$LUPREC
 70
     4
  9
$SKETCHINC
 40
0.1
  9
$FILLETRAD
 40
0.5
  9
$AUNITS
 70
     0
  9
$AUPREC
 70
     0
  9
$MENU
  1
.
  9
$ELEVATION
 40
0.0
  9
$PELEVATION
 40
0.0
  9
$THICKNESS
 40
0.0
  9
$LIMCHECK
 70
     0
  9
$CHAMFERA
 40
0.5
  9
$CHAMFERB
 40
0.5
  9
$CHAMFERC
 40
1.0
  9
$CHAMFERD
 40
0.0
  9
$SKPOLY
 70
     0
  9
$TDCREATE
 40
2458492.635410185
  9
$TDUCREATE
 40
2458492.635410185
  9
$TDUPDATE
 40
2458492.635410289
  9
$TDUUPDATE
 40
2458492.635410289
  9
$TDINDWG
 40
0.0000000116
  9
$TDUSRTIMER
 40
0.0000000116
  9
$USRTIMER
 70
     1
  9
$ANGBASE
 50
0.0
  9
$ANGDIR
 70
     0
  9
$PDMODE
 70
     0
  9
$PDSIZE
 40
0.0
  9
$PLINEWID
 40
0.0
  9
$SPLFRAME
 70
     0
  9
$SPLINETYPE
 70
     6
  9
$SPLINESEGS
 70
     8
  9
$HANDSEED
  5
C1
  9
$SURFTAB1
 70
     6
  9
$SURFTAB2
 70
     6
  9
$SURFTYPE
 70
     6
  9
$SURFU
 70
     6
  9
$SURFV
 70
     6
  9
$UCSBASE
  2

  9
$UCSNAME
  2

  9
$UCSORG
 10
0.0
 20
0.0
 30
0.0
  9
$UCSXDIR
 10
1.0
 20
0.0
 30
0.0
  9
$UCSYDIR
 10
0.0
 20
1.0
 30
0.0
  9
$UCSORTHOREF
  2

  9
$UCSORTHOVIEW
 70
     0
  9
$UCSORGTOP
 10
0.0
 20
0.0
 30
0.0
  9
$UCSORGBOTTOM
 10
0.0
 20
0.0
 30
0.0
  9
$UCSORGLEFT
 10
0.0
 20
0.0
 30
0.0
  9
$UCSORGRIGHT
 10
0.0
 20
0.0
 30
0.0
  9
$UCSORGFRONT
 10
0.0
 20
0.0
 30
0.0
  9
$UCSORGBACK
 10
0.0
 20
0.0
 30
0.0
  9
$PUCSBASE
  2

  9
$PUCSNAME
  2

  9
$PUCSORG
 10
0.0
 20
0.0
 30
0.0
  9
$PUCSXDIR
 10
1.0
 20
0.0
 30
0.0
  9
$PUCSYDIR
 10
0.0
 20
1.0
 30
0.0
  9
$PUCSORTHOREF
  2

  9
$PUCSORTHOVIEW
 70
     0
  9
$PUCSORGTOP
 10
0.0
 20
0.0
 30
0.0
  9
$PUCSORGBOTTOM
 10
0.0
 20
0.0
 30
0.0
  9
$PUCSORGLEFT
 10
0.0
 20
0.0
 30
0.0
  9
$PUCSORGRIGHT
 10
0.0
 20
0.0
 30
0.0
  9
$PUCSORGFRONT
 10
0.0
 20
0.0
 30
0.0
  9
$PUCSORGBACK
 10
0.0
 20
0.0
 30
0.0
  9
$USERI1
 70
     0
  9
$USERI2
 70
     0
  9
$USERI3
 70
     0
  9
$USERI4
 70
     0
  9
$USERI5
 70
     0
  9
$USERR1
 40
0.0
  9
$USERR2
 40
0.0
  9
$USERR3
 40
0.0
  9
$USERR4
 40
0.0
  9
$USERR5
 40
0.0
  9
$WORLDVIEW
 70
     1
  9
$SHADEDGE
 70
     3
  9
$SHADEDIF
 70
    70
  9
$TILEMODE
 70
     1
  9
$MAXACTVP
 70
    64
  9
$PINSBASE
 10
0.0
 20
0.0
 30
0.0
  9
$PLIMCHECK
 70
     0
  9
$PEXTMIN
 10
1.000000000000000E+20
 20
1.000000000000000E+20
 30
1.000000000000000E+20
  9
$PEXTMAX
 10
-1.000000000000000E+20
 20
-1.000000000000000E+20
 30
-1.000000000000000E+20
  9
$PLIMMIN
 10
0.0
 20
0.0
  9
$PLIMMAX
 10
12.0
 20
9.0
  9
$UNITMODE
 70
     0
  9
$VISRETAIN
 70
     1
  9
$PLINEGEN
 70
     0
  9
$PSLTSCALE
 70
     1
  9
$TREEDEPTH
 70
  3020
  9
$CMLSTYLE
  2
Standard
  9
$CMLJUST
 70
     0
  9
$CMLSCALE
 40
1.0
  9
$PROXYGRAPHICS
 70
     1
  9
$MEASUREMENT
 70
     0
  9
$CELWEIGHT
370
    -1
  9
$ENDCAPS
280
     0
  9
$JOINSTYLE
280
     0
  9
$LWDISPLAY
290
     0
  9
$INSUNITS
 70
     4
  9
$HYPERLINKBASE
  1

  9
$STYLESHEET
  1

  9
$XEDIT
290
     1
  9
$CEPSNTYPE
380
     0
  9
$PSTYLEMODE
290
     1
  9
$FINGERPRINTGUID
  2
{4F4554DB-6D67-47AF-9F05-07C82E91DF53}
  9
$VERSIONGUID
  2
{FAEB1C32-E019-11D5-929B-00C0DF256EC4}
  9
$EXTNAMES
290
     1
  9
$PSVPSCALE
 40
0.0
  9
$OLESTARTUP
290
     0
  9
$SORTENTS
280
   127
  9
$INDEXCTL
280
     0
  9
$HIDETEXT
280
     1
  9
$XCLIPFRAME
290
     0
  9
$HALOGAP
280
     0
  9
$OBSCOLOR
 70
   257
  9
$OBSLTYPE
280
     0
  9
$INTERSECTIONDISPLAY
280
     0
  9
$INTERSECTIONCOLOR
 70
   257
  9
$DIMASSOC
280
     2
  9
$PROJECTNAME
  1

  9
$CAMERADISPLAY
290
     0
  9
$LENSLENGTH
 40
50.0
  9
$CAMERAHEIGHT
 40
0.0
  9
$STEPSPERSEC
 40
2.0
  9
$STEPSIZE
 40
6.0
  9
$3DDWFPREC
 40
2.0
  9
$PSOLWIDTH
 40
0.25
  9
$PSOLHEIGHT
 40
4.0
  9
$LOFTANG1
 40
1.570796326794897
  9
$LOFTANG2
 40
1.570796326794897
  9
$LOFTMAG1
 40
0.0
  9
$LOFTMAG2
 40
0.0
  9
$LOFTPARAM
 70
     7
  9
$LOFTNORMALS
280
     1
  9
$LATITUDE
 40
37.795
  9
$LONGITUDE
 40
-122.394
  9
$NORTHDIRECTION
 40
0.0
  9
$TIMEZONE
 70
 -8000
  9
$LIGHTGLYPHDISPLAY
280
     1
  9
$TILEMODELIGHTSYNCH
280
     1
  9
$SOLIDHIST
280
     1
  9
$SHOWHIST
280
     1
  9
$DWFFRAME
280
     2
  9
$DGNFRAME
280
     2
  9
$REALWORLDSCALE
290
     1
  9
$INTERFERECOLOR
 62
   256
  9
$CSHADOW
280
     0
  9
$SHADOWPLANELOCATION
 40
0.0
  0
ENDSEC
  0
SECTION
  2
CLASSES
  0
CLASS
  1
ACDBDICTIONARYWDFLT
  2
AcDbDictionaryWithDefault
  3
ObjectDBX Classes
 90
        0
 91
        4
280
     0
281
     0
  0
CLASS
  1
VISUALSTYLE
  2
AcDbVisualStyle
  3
ObjectDBX Classes
 90
     4095
 91
        4
280
     0
281
     0
  0
CLASS
  1
MATERIAL
  2
AcDbMaterial
  3
ObjectDBX Classes
 90
     1153
 91
        4
280
     0
281
     0
  0
ENDSEC
  0
SECTION
  2
TABLES
  0
TABLE
  2
VPORT
  5
8
330
0
100
AcDbSymbolTable
 70
     1
  0
VPORT
  5
29
330
8
100
AcDbSymbolTableRecord
100
AcDbViewportTableRecord
  2
*Active
 70
     0
 10
0.0
 20
0.0
 11
1.0
 21
1.0
 12
10.42990654205607
 22
4.5
 13
0.0
 23
0.0
 14
0.5
 24
0.5
 15
0.5
 25
0.5
 16
0.0
 26
0.0
 36
1.0
 17
0.0
 27
0.0
 37
0.0
 40
9.0
 41
1.972972972850329
 42
50.0
 43
0.0
 44
0.0
 50
0.0
 51
0.0
 71
     0
 72
   100
 73
     1
 74
     3
 75
     0
 76
     0
 77
     0
 78
     0
281
     0
 65
     1
110
0.0
120
0.0
130
0.0
111
1.0
121
0.0
131
0.0
112
0.0
122
1.0
132
0.0
 79
     0
146
0.0
 60
     3
 61
     5
292
     1
282
     1
141
0.0
142
0.0
 63
   250
  0
ENDTAB
  0
TABLE
  2
LTYPE
  5
5
330
0
100
AcDbSymbolTable
 70
     1
  0
LTYPE
  5
14
330
5
100
AcDbSymbolTableRecord
100
AcDbLinetypeTableRecord
  2
ByBlock
 70
     0
  3

 72
    65
 73
     0
 40
0.0
  0
LTYPE
  5
15
330
5
100
AcDbSymbolTableRecord
100
AcDbLinetypeTableRecord
  2
ByLayer
 70
     0
  3

 72
    65
 73
     0
 40
0.0
  0
LTYPE
  5
16
330
5
100
AcDbSymbolTableRecord
100
AcDbLinetypeTableRecord
  2
Continuous
 70
     0
  3
Solid line
 72
    65
 73
     0
 40
0.0
  0
ENDTAB
  0
TABLE
  2
LAYER
  5
2
330
0
100
AcDbSymbolTable
 70
     3
  0
LAYER
  5
10
330
2
100
AcDbSymbolTableRecord
100
AcDbLayerTableRecord
  2
0
 70
     0
 62
     7
  6
Continuous
370
    -3
390
F
347
3E
  0
LAYER
  5
40
330
2
100
AcDbSymbolTableRecord
100
AcDbLayerTableRecord
  2
layer 1
 70
     0
 62
     7
  6
Continuous
370
    -3
390
F
347
3E
  0
LAYER
  5
9E
330
2
100
AcDbSymbolTableRecord
100
AcDbLayerTableRecord
  2
Master Guides
 70
     0
 62
     7
  6
Continuous
370
    -3
390
F
347
3E
  0
ENDTAB
  0
TABLE
  2
STYLE
  5
3
330
0
100
AcDbSymbolTable
 70
     1
  0
STYLE
  5
11
330
3
100
AcDbSymbolTableRecord
100
AcDbTextStyleTableRecord
  2
Standard
 70
     0
 40
0.0
 41
1.0
 50
0.0
 71
     0
 42
0.2
  3
txt
  4

  0
ENDTAB
  0
TABLE
  2
VIEW
  5
6
330
0
100
AcDbSymbolTable
 70
     0
  0
ENDTAB
  0
TABLE
  2
UCS
  5
7
330
0
100
AcDbSymbolTable
 70
     0
  0
ENDTAB
  0
TABLE
  2
APPID
  5
9
330
0
100
AcDbSymbolTable
 70
     2
  0
APPID
  5
12
330
9
100
AcDbSymbolTableRecord
100
AcDbRegAppTableRecord
  2
ACAD
 70
     0
  0
APPID
  5
3F
330
9
100
AcDbSymbolTableRecord
100
AcDbRegAppTableRecord
  2
ODA
 70
     0
  0
ENDTAB
  0
TABLE
  2
DIMSTYLE
  5
A
330
0
100
AcDbSymbolTable
 70
     1
100
AcDbDimStyleTable
  0
DIMSTYLE
105
27
330
A
100
AcDbSymbolTableRecord
100
AcDbDimStyleTableRecord
  2
Standard
 70
     0
178
     0
340
11
  0
ENDTAB
  0
TABLE
  2
BLOCK_RECORD
  5
1
330
0
100
AcDbSymbolTable
 70
     1
  0
BLOCK_RECORD
  5
1F
330
1
100
AcDbSymbolTableRecord
100
AcDbBlockTableRecord
  2
*Model_Space
340
22
 70
     0
280
     1
281
     0
  0
BLOCK_RECORD
  5
1B
330
1
100
AcDbSymbolTableRecord
100
AcDbBlockTableRecord
  2
*Paper_Space
340
1E
 70
     0
280
     1
281
     0
  0
BLOCK_RECORD
  5
23
330
1
100
AcDbSymbolTableRecord
100
AcDbBlockTableRecord
  2
*Paper_Space0
340
26
 70
     0
280
     1
281
     0
  0
ENDTAB
  0
ENDSEC
  0
SECTION
  2
BLOCKS
  0
BLOCK
  5
20
330
1F
100
AcDbEntity
  8
0
100
AcDbBlockBegin
  2
*Model_Space
 70
     0
 10
0.0
 20
0.0
 30
0.0
  3
*Model_Space
  1

  0
ENDBLK
  5
21
330
1F
100
AcDbEntity
  8
0
100
AcDbBlockEnd
  0
BLOCK
  5
1C
330
1B
100
AcDbEntity
 67
     1
  8
0
100
AcDbBlockBegin
  2
*Paper_Space
 70
     0
 10
0.0
 20
0.0
 30
0.0
  3
*Paper_Space
  1

  0
ENDBLK
  5
1D
330
1B
100
AcDbEntity
 67
     1
  8
0
100
AcDbBlockEnd
  0
BLOCK
  5
24
330
23
100
AcDbEntity
  8
0
100
AcDbBlockBegin
  2
*Paper_Space0
 70
     0
 10
0.0
 20
0.0
 30
0.0
  3
*Paper_Space0
  1

  0
ENDBLK
  5
25
330
23
100
AcDbEntity
  8
0
100
AcDbBlockEnd
  0
ENDSEC
  0
SECTION
  2
ENTITIES
  0
SPLINE
  5
41
330
1F
100
AcDbEntity
  8
layer 1
 62
   250
100
AcDbSpline
210
0.0
220
0.0
230
1.0
 70
    11
 71
     3
 72
    20
 73
    16
 74
     0
 42
0.0000000001
 43
0.0000000001
 12
1.0
 22
0.0
 32
0.0
 13
1.0
 23
0.0
 33
0.0
 40
0.0
 40
0.0
 40
0.0
 40
0.0
 40
0.2
 40
0.2
 40
0.2
 40
0.2
 40
0.4
 40
0.4
 40
0.4
 40
0.4
 40
0.6
 40
0.6
 40
0.6
 40
0.6
 40
1.0
 40
1.0
 40
1.0
 40
1.0
 10
-43.8907
 20
131.7742
 30
0.0
 10
-43.8907
 20
131.7742
 30
0.0
 10
34.0217
 20
131.7742
 30
0.0
 10
34.0217
 20
131.7742
 30
0.0
 10
34.0217
 20
131.7742
 30
0.0
 10
34.0217
 20
131.7742
 30
0.0
 10
34.0217
 20
-115.0905
 30
0.0
 10
34.0217
 20
-115.0905
 30
0.0
 10
34.0217
 20
-115.0905
 30
0.0
 10
34.0217
 20
-115.0905
 30
0.0
 10
-43.8907
 20
-115.0905
 30
0.0
 10
-43.8907
 20
-115.0905
 30
0.0
 10
-43.8907
 20
-115.0905
 30
0.0
 10
-43.8907
 20
-115.0905
 30
0.0
 10
-43.8907
 20
131.7742
 30
0.0
 10
-43.8907
 20
131.7742
 30
0.0
  0
SPLINE
  5
42
330
1F
100
AcDbEntity
  8
layer 1
 62
   250
100
AcDbSpline
210
0.0
220
0.0
230
1.0
 70
    11
 71
     3
 72
    88
 73
    84
 74
     0
 42
0.0000000001
 43
0.0000000001
 12
1.0
 22
0.0
 32
0.0
 13
1.0
 23
0.0
 33
0.0
 40
0.0
 40
0.0
 40
0.0
 40
0.0
 40
0.0454545454545455
 40
0.0454545454545455
 40
0.0454545454545455
 40
0.0454545454545455
 40
0.0909090909090909
 40
0.0909090909090909
 40
0.0909090909090909
 40
0.0909090909090909
 40
0.1363636363636364
 40
0.1363636363636364
 40
0.1363636363636364
 40
0.1363636363636364
 40
0.1818181818181818
 40
0.1818181818181818
 40
0.1818181818181818
 40
0.1818181818181818
 40
0.2272727272727273
 40
0.2272727272727273
 40
0.2272727272727273
 40
0.2272727272727273
 40
0.2727272727272727
 40
0.2727272727272727
 40
0.2727272727272727
 40
0.2727272727272727
 40
0.3181818181818182
 40
0.3181818181818182
 40
0.3181818181818182
 40
0.3181818181818182
 40
0.3636363636363636
 40
0.3636363636363636
 40
0.3636363636363636
 40
0.3636363636363636
 40
0.4090909090909091
 40
0.4090909090909091
 40
0.4090909090909091
 40
0.4090909090909091
 40
0.4545454545454545
 40
0.4545454545454545
 40
0.4545454545454545
 40
0.4545454545454545
 40
0.5
 40
0.5
 40
0.5
 40
0.5
 40
0.5454545454545454
 40
0.5454545454545454
 40
0.5454545454545454
 40
0.5454545454545454
 40
0.5909090909090909
 40
0.5909090909090909
 40
0.5909090909090909
 40
0.5909090909090909
 40
0.6363636363636364
 40
0.6363636363636364
 40
0.6363636363636364
 40
0.6363636363636364
 40
0.6818181818181818
 40
0.6818181818181818
 40
0.6818181818181818
 40
0.6818181818181818
 40
0.7272727272727273
 40
0.7272727272727273
 40
0.7272727272727273
 40
0.7272727272727273
 40
0.7727272727272727
 40
0.7727272727272727
 40
0.7727272727272727
 40
0.7727272727272727
 40
0.8181818181818182
 40
0.8181818181818182
 40
0.8181818181818182
 40
0.8181818181818182
 40
0.8636363636363636
 40
0.8636363636363636
 40
0.8636363636363636
 40
0.8636363636363636
 40
0.9090909090909091
 40
0.9090909090909091
 40
0.9090909090909091
 40
0.9090909090909091
 40
1.0
 40
1.0
 40
1.0
 40
1.0
 10
-32.0533
 20
109.3974
 30
0.0
 10
-32.0533
 20
109.3974
 30
0.0
 10
-33.2056
 20
104.7006
 30
0.0
 10
-36.0289
 20
105.7512
 30
0.0
 10
-36.0289
 20
105.7512
 30
0.0
 10
-38.8521
 20
106.8018
 30
0.0
 10
-41.1568
 20
116.1337
 30
0.0
 10
-36.317
 20
121.8194
 30
0.0
 10
-36.317
 20
121.8194
 30
0.0
 10
-31.4771
 20
127.5051
 30
0.0
 10
-22.4888
 20
126.8253
 30
0.0
 10
-22.4888
 20
126.8253
 30
0.0
 10
-22.4888
 20
126.8253
 30
0.0
 10
-22.4888
 20
126.8253
 30
0.0
 10
-24.4478
 20
123.8588
 30
0.0
 10
-25.0816
 20
121.1396
 30
0.0
 10
-25.0816
 20
121.1396
 30
0.0
 10
-25.7154
 20
118.4203
 30
0.0
 10
-27.4439
 20
116.3809
 30
0.0
 10
-27.9625
 20
112.3021
 30
0.0
 10
-27.9625
 20
112.3021
 30
0.0
 10
-28.481
 20
108.2232
 30
0.0
 10
-25.6578
 20
107.5434
 30
0.0
 10
-27.4439
 20
104.6388
 30
0.0
 10
-27.4439
 20
104.6388
 30
0.0
 10
-27.4439
 20
104.6388
 30
0.0
 10
-23.1802
 20
102.1667
 30
0.0
 10
-22.7769
 20
109.5828
 30
0.0
 10
-22.7769
 20
109.5828
 30
0.0
 10
-22.7769
 20
109.5828
 30
0.0
 10
-21.6245
 20
107.358
 30
0.0
 10
-22.2007
 20
104.5151
 30
0.0
 10
-22.2007
 20
104.5151
 30
0.0
 10
-22.7769
 20
101.6723
 30
0.0
 10
-22.2007
 20
101.5487
 30
0.0
 10
-21.106
 20
100.9307
 30
0.0
 10
-21.106
 20
100.9307
 30
0.0
 10
-20.0113
 20
100.3127
 30
0.0
 10
-19.3775
 20
97.5934
 30
0.0
 10
-19.3775
 20
96.0484
 30
0.0
 10
-19.3775
 20
96.0484
 30
0.0
 10
-19.3775
 20
96.0484
 30
0.0
 10
-25.5425
 20
90.6099
 30
0.0
 10
-30.3248
 20
88.4469
 30
0.0
 10
-30.3248
 20
88.4469
 30
0.0
 10
-35.009
 20
86.3282
 30
0.0
 10
-38.8085
 20
84.8019
 30
0.0
 10
-40.7491
 20
80.0359
 30
0.0
 10
-40.7491
 20
80.0359
 30
0.0
 10
-40.7491
 20
80.0359
 30
0.0
 10
-40.7491
 20
95.5095
 30
0.0
 10
-40.7491
 20
95.5095
 30
0.0
 10
-40.7491
 20
95.5095
 30
0.0
 10
-40.2236
 20
94.1627
 30
0.0
 10
-38.704
 20
93.3656
 30
0.0
 10
-36.9508
 20
94.0708
 30
0.0
 10
-36.9508
 20
94.0708
 30
0.0
 10
-34.6461
 20
94.9978
 30
0.0
 10
-33.7242
 20
99.8801
 30
0.0
 10
-33.7242
 20
99.8801
 30
0.0
 10
-33.7242
 20
99.8801
 30
0.0
 10
-33.7242
 20
99.8801
 30
0.0
 10
-31.9381
 20
96.481
 30
0.0
 10
-31.2466
 20
96.6664
 30
0.0
 10
-31.2466
 20
96.6664
 30
0.0
 10
-30.5552
 20
96.8518
 30
0.0
 10
-30.9586
 20
99.0149
 30
0.0
 10
-29.8638
 20
99.1385
 30
0.0
 10
-29.8638
 20
99.1385
 30
0.0
 10
-28.7691
 20
99.2621
 30
0.0
 10
-29.7486
 20
100.4981
 30
0.0
 10
-28.8843
 20
101.6105
 30
0.0
 10
-28.8843
 20
101.6105
 30
0.0
 10
-28.0201
 20
102.7229
 30
0.0
 10
-29.0572
 20
103.4645
 30
0.0
 10
-29.9791
 20
103.3409
 30
0.0
 10
-29.9791
 20
103.3409
 30
0.0
 10
-30.901
 20
103.2173
 30
0.0
 10
-31.0162
 20
104.0207
 30
0.0
 10
-30.4976
 20
105.4422
 30
0.0
 10
-30.4976
 20
105.4422
 30
0.0
 10
-29.9791
 20
106.8636
 30
0.0
 10
-30.2095
 20
108.903
 30
0.0
 10
-32.0533
 20
109.3974
 30
0.0
  0
SPLINE
  5
43
330
1F
100
AcDbEntity
  8
layer 1
 62
   250
100
AcDbSpline
210
0.0
220
0.0
230
1.0
 70
    11
 71
     3
 72
    16
 73
    12
 74
     0
 42
0.0000000001
 43
0.0000000001
 12
1.0
 22
0.0
 32
0.0
 13
1.0
 23
0.0
 33
0.0
 40
0.0
 40
0.0
 40
0.0
 40
0.0
 40
0.25
 40
0.25
 40
0.25
 40
0.25
 40
0.5
 40
0.5
 40
0.5
 40
0.5
 40
1.0
 40
1.0
 40
1.0
 40
1.0
 10
-40.7491
 20
71.816
 30
0.0
 10
-40.0106
 20
69.969
 30
0.0
 10
-38.8436
 20
68.4811
 30
0.0
 10
-37.5846
 20
67.6818
 30
0.0
 10
-37.5846
 20
67.6818
 30
0.0
 10
-37.5846
 20
67.6818
 30
0.0
 10
-39.7961
 20
66.4472
 30
0.0
 10
-40.7491
 20
63.8994
 30
0.0
 10
-40.7491
 20
63.8994
 30
0.0
 10
-40.7491
 20
63.8994
 30
0.0
 10
-40.7491
 20
71.816
 30
0.0
 10
-40.7491
 20
71.816
 30
0.0
  0
SPLINE
  5
44
330
1F
100
AcDbEntity
  8
layer 1
 62
   250
100
AcDbSpline
210
0.0
220
0.0
230
1.0
 70
    11
 71
     3
 72
    40
 73
    36
 74
     0
 42
0.0000000001
 43
0.0000000001
 12
1.0
 22
0.0
 32
0.0
 13
1.0
 23
0.0
 33
0.0
 40
0.0
 40
0.0
 40
0.0
 40
0.0
 40
0.1
 40
0.1
 40
0.1
 40
0.1
 40
0.2
 40
0.2
 40
0.2
 40
0.2
 40
0.3
 40
0.3
 40
0.3
 40
0.3
 40
0.4
 40
0.4
 40
0.4
 40
0.4
 40
0.5
 40
0.5
 40
0.5
 40
0.5
 40
0.6
 40
0.6
 40
0.6
 40
0.6
 40
0.7
 40
0.7
 40
0.7
 40
0.7
 40
0.8
 40
0.8
 40
0.8
 40
0.8
 40
1.0
 40
1.0
 40
1.0
 40
1.0
 10
-40.7491
 20
58.5048
 30
0.0
 10
-40.3377
 20
57.5003
 30
0.0
 10
-39.7165
 20
56.8049
 30
0.0
 10
-39.1402
 20
56.3104
 30
0.0
 10
-39.1402
 20
56.3104
 30
0.0
 10
-37.9879
 20
55.3216
 30
0.0
 10
-39.2555
 20
50.1922
 30
0.0
 10
-34.4156
 20
48.5235
 30
0.0
 10
-34.4156
 20
48.5235
 30
0.0
 10
-34.4156
 20
48.5235
 30
0.0
 10
-33.3209
 20
50.0686
 30
0.0
 10
-33.9547
 20
52.6642
 30
0.0
 10
-33.9547
 20
52.6642
 30
0.0
 10
-33.9547
 20
52.6642
 30
0.0
 10
-31.7076
 20
51.9844
 30
0.0
 10
-30.0367
 20
54.0856
 30
0.0
 10
-30.0367
 20
54.0856
 30
0.0
 10
-30.0367
 20
54.0856
 30
0.0
 10
-32.399
 20
48.3999
 30
0.0
 10
-33.7242
 20
46.3605
 30
0.0
 10
-33.7242
 20
46.3605
 30
0.0
 10
-33.7242
 20
46.3605
 30
0.0
 10
-36.1441
 20
46.7313
 30
0.0
 10
-37.5269
 20
44.3829
 30
0.0
 10
-37.5269
 20
44.3829
 30
0.0
 10
-38.9098
 20
42.0344
 30
0.0
 10
-36.8355
 20
39.8096
 30
0.0
 10
-36.8355
 20
39.8096
 30
0.0
 10
-36.8355
 20
39.8096
 30
0.0
 10
-36.8355
 20
39.8096
 30
0.0
 10
-37.5502
 20
36.2149
 30
0.0
 10
-40.7491
 20
32.2479
 30
0.0
 10
-40.7491
 20
32.2479
 30
0.0
 10
-40.7491
 20
32.2479
 30
0.0
 10
-40.7491
 20
58.5048
 30
0.0
 10
-40.7491
 20
58.5048
 30
0.0
  0
SPLINE
  5
45
330
1F
100
AcDbEntity
  8
layer 1
 62
   250
100
AcDbSpline
210
0.0
220
0.0
230
1.0
 70
    11
 71
     3
 72
    52
 73
    48
 74
     0
 42
0.0000000001
 43
0.0000000001
 12
1.0
 22
0.0
 32
0.0
 13
1.0
 23
0.0
 33
0.0
 40
0.0
 40
0.0
 40
0.0
 40
0.0
 40
0.0769230769230769
 40
0.0769230769230769
 40
0.0769230769230769
 40
0.0769230769230769
 40
0.1538461538461539
 40
0.1538461538461539
 40
0.1538461538461539
 40
0.1538461538461539
 40
0.2307692307692308
 40
0.2307692307692308
 40
0.2307692307692308
 40
0.2307692307692308
 40
0.3076923076923077
 40
0.3076923076923077
 40
0.3076923076923077
 40
0.3076923076923077
 40
0.3846153846153846
 40
0.3846153846153846
 40
0.3846153846153846
 40
0.3846153846153846
 40
0.4615384615384616
 40
0.4615384615384616
 40
0.4615384615384616
 40
0.4615384615384616
 40
0.5384615384615384
 40
0.5384615384615384
 40
0.5384615384615384
 40
0.5384615384615384
 40
0.6153846153846154
 40
0.6153846153846154
 40
0.6153846153846154
 40
0.6153846153846154
 40
0.6923076923076923
 40
0.6923076923076923
 40
0.6923076923076923
 40
0.6923076923076923
 40
0.7692307692307693
 40
0.7692307692307693
 40
0.7692307692307693
 40
0.7692307692307693
 40
0.8461538461538461
 40
0.8461538461538461
 40
0.8461538461538461
 40
0.8461538461538461
 40
1.0
 40
1.0
 40
1.0
 40
1.0
 10
-40.7491
 20
18.1752
 30
0.0
 10
-33.9914
 20
32.0989
 30
0.0
 10
-23.1831
 20
23.7616
 30
0.0
 10
-23.1831
 20
23.7616
 30
0.0
 10
-23.1831
 20
23.7616
 30
0.0
 10
-23.1831
 20
23.7616
 30
0.0
 10
-23.1683
 20
23.7649
 30
0.0
 10
-23.1427
 20
23.772
 30
0.0
 10
-23.1427
 20
23.772
 30
0.0
 10
-23.1427
 20
23.772
 30
0.0
 10
-20.0086
 20
20.2029
 30
0.0
 10
-20.0086
 20
20.2029
 30
0.0
 10
-20.0086
 20
20.2029
 30
0.0
 10
-20.0086
 20
20.2029
 30
0.0
 10
-23.3051
 20
16.4489
 30
0.0
 10
-23.3051
 20
16.4489
 30
0.0
 10
-23.3051
 20
16.4489
 30
0.0
 10
-26.4284
 20
20.0525
 30
0.0
 10
-31.1956
 20
22.1656
 30
0.0
 10
-34.649
 20
19.59
 30
0.0
 10
-34.649
 20
19.59
 30
0.0
 10
-38.3365
 20
16.8399
 30
0.0
 10
-38.1349
 20
10.2513
 30
0.0
 10
-38.1349
 20
10.2513
 30
0.0
 10
-38.1349
 20
10.2513
 30
0.0
 10
-38.1349
 20
10.2513
 30
0.0
 10
-38.3365
 20
3.6627
 30
0.0
 10
-34.649
 20
0.9125
 30
0.0
 10
-34.649
 20
0.9125
 30
0.0
 10
-31.2586
 20
-1.616
 30
0.0
 10
-26.602
 20
0.3746
 30
0.0
 10
-23.4778
 20
3.8579
 30
0.0
 10
-23.4778
 20
3.8579
 30
0.0
 10
-23.4778
 20
3.8579
 30
0.0
 10
-19.8425
 20
-0.2818
 30
0.0
 10
-19.8425
 20
-0.2818
 30
0.0
 10
-19.8425
 20
-0.2818
 30
0.0
 10
-21.6479
 20
-1.782
 30
0.0
 10
-27.2264
 20
-6.0155
 30
0.0
 10
-32.6324
 20
-5.9646
 30
0.0
 10
-32.6324
 20
-5.9646
 30
0.0
 10
-38.0378
 20
-5.9138
 30
0.0
 10
-40.1651
 20
-0.4228
 30
0.0
 10
-40.7491
 20
1.5203
 30
0.0
 10
-40.7491
 20
1.5203
 30
0.0
 10
-40.7491
 20
1.5203
 30
0.0
 10
-40.7491
 20
18.1752
 30
0.0
 10
-40.7491
 20
18.1752
 30
0.0
  0
SPLINE
  5
46
330
1F
100
AcDbEntity
  8
layer 1
 62
   250
100
AcDbSpline
210
0.0
220
0.0
230
1.0
 70
    11
 71
     3
 72
    60
 73
    56
 74
     0
 42
0.0000000001
 43
0.0000000001
 12
1.0
 22
0.0
 32
0.0
 13
1.0
 23
0.0
 33
0.0
 40
0.0
 40
0.0
 40
0.0
 40
0.0
 40
0.0666666666666667
 40
0.0666666666666667
 40
0.0666666666666667
 40
0.0666666666666667
 40
0.1333333333333333
 40
0.1333333333333333
 40
0.1333333333333333
 40
0.1333333333333333
 40
0.2
 40
0.2
 40
0.2
 40
0.2
 40
0.2666666666666667
 40
0.2666666666666667
 40
0.2666666666666667
 40
0.2666666666666667
 40
0.3333333333333333
 40
0.3333333333333333
 40
0.3333333333333333
 40
0.3333333333333333
 40
0.4
 40
0.4
 40
0.4
 40
0.4
 40
0.4666666666666667
 40
0.4666666666666667
 40
0.4666666666666667
 40
0.4666666666666667
 40
0.5333333333333333
 40
0.5333333333333333
 40
0.5333333333333333
 40
0.5333333333333333
 40
0.6
 40
0.6
 40
0.6
 40
0.6
 40
0.6666666666666666
 40
0.6666666666666666
 40
0.6666666666666666
 40
0.6666666666666666
 40
0.7333333333333333
 40
0.7333333333333333
 40
0.7333333333333333
 40
0.7333333333333333
 40
0.8
 40
0.8
 40
0.8
 40
0.8
 40
0.8666666666666667
 40
0.8666666666666667
 40
0.8666666666666667
 40
0.8666666666666667
 40
1.0
 40
1.0
 40
1.0
 40
1.0
 10
-40.7491
 20
-13.2566
 30
0.0
 10
-38.6537
 20
-15.1747
 30
0.0
 10
-36.2984
 20
-18.3098
 30
0.0
 10
-36.5504
 20
-19.9316
 30
0.0
 10
-36.5504
 20
-19.9316
 30
0.0
 10
-36.8384
 20
-21.7857
 30
0.0
 10
-39.1432
 20
-23.0835
 30
0.0
 10
-38.106
 20
-25.5555
 30
0.0
 10
-38.106
 20
-25.5555
 30
0.0
 10
-37.0689
 20
-28.0276
 30
0.0
 10
-34.4185
 20
-27.595
 30
0.0
 10
-34.4185
 20
-27.595
 30
0.0
 10
-34.4185
 20
-27.595
 30
0.0
 10
-34.0728
 20
-30.067
 30
0.0
 10
-32.7476
 20
-32.0446
 30
0.0
 10
-29.8668
 20
-35.3201
 30
0.0
 10
-29.8668
 20
-35.3201
 30
0.0
 10
-26.9859
 20
-38.5955
 30
0.0
 10
-27.9654
 20
-44.1267
 30
0.0
 10
-32.3731
 20
-46.506
 30
0.0
 10
-32.3731
 20
-46.506
 30
0.0
 10
-36.7808
 20
-48.8854
 30
0.0
 10
-40.1226
 20
-45.6408
 30
0.0
 10
-39.6905
 20
-42.7362
 30
0.0
 10
-39.6905
 20
-42.7362
 30
0.0
 10
-39.2584
 20
-39.8315
 30
0.0
 10
-36.2623
 20
-39.6461
 30
0.0
 10
-36.2623
 20
-39.6461
 30
0.0
 10
-36.2623
 20
-39.6461
 30
0.0
 10
-36.2623
 20
-39.6461
 30
0.0
 10
-35.3404
 20
-42.2109
 30
0.0
 10
-33.4678
 20
-42.6126
 30
0.0
 10
-33.4678
 20
-42.6126
 30
0.0
 10
-31.5953
 20
-43.0143
 30
0.0
 10
-29.521
 20
-42.0564
 30
0.0
 10
-29.6363
 20
-38.9972
 30
0.0
 10
-29.6363
 20
-38.9972
 30
0.0
 10
-29.7515
 20
-35.9381
 30
0.0
 10
-33.6407
 20
-35.4437
 30
0.0
 10
-33.6407
 20
-35.4437
 30
0.0
 10
-33.6407
 20
-35.4437
 30
0.0
 10
-32.7764
 20
-32.4772
 30
0.0
 10
-34.6778
 20
-31.0558
 30
0.0
 10
-36.6944
 20
-32.6317
 30
0.0
 10
-36.6944
 20
-32.6317
 30
0.0
 10
-38.711
 20
-34.2077
 30
0.0
 10
-37.8468
 20
-36.6797
 30
0.0
 10
-39.1143
 20
-37.4522
 30
0.0
 10
-39.1143
 20
-37.4522
 30
0.0
 10
-39.6392
 20
-37.7721
 30
0.0
 10
-40.2332
 20
-38.2509
 30
0.0
 10
-40.7491
 20
-38.7022
 30
0.0
 10
-40.7491
 20
-38.7022
 30
0.0
 10
-40.7491
 20
-38.7022
 30
0.0
 10
-40.7491
 20
-13.2566
 30
0.0
 10
-40.7491
 20
-13.2566
 30
0.0
  0
SPLINE
  5
47
330
1F
100
AcDbEntity
  8
layer 1
 62
   250
100
AcDbSpline
210
0.0
220
0.0
230
1.0
 70
    11
 71
     3
 72
    16
 73
    12
 74
     0
 42
0.0000000001
 43
0.0000000001
 12
1.0
 22
0.0
 32
0.0
 13
1.0
 23
0.0
 33
0.0
 40
0.0
 40
0.0
 40
0.0
 40
0.0
 40
0.25
 40
0.25
 40
0.25
 40
0.25
 40
0.5
 40
0.5
 40
0.5
 40
0.5
 40
1.0
 40
1.0
 40
1.0
 40
1.0
 10
-40.7491
 20
-47.1506
 30
0.0
 10
-39.5559
 20
-48.88
 30
0.0
 10
-38.567
 20
-49.4725
 30
0.0
 10
-38.567
 20
-49.4725
 30
0.0
 10
-38.567
 20
-49.4725
 30
0.0
 10
-39.5108
 20
-50.2123
 30
0.0
 10
-40.2201
 20
-51.0073
 30
0.0
 10
-40.7491
 20
-51.7493
 30
0.0
 10
-40.7491
 20
-51.7493
 30
0.0
 10
-40.7491
 20
-51.7493
 30
0.0
 10
-40.7491
 20
-47.1506
 30
0.0
 10
-40.7491
 20
-47.1506
 30
0.0
  0
SPLINE
  5
48
330
1F
100
AcDbEntity
  8
layer 1
 62
   250
100
AcDbSpline
210
0.0
220
0.0
230
1.0
 70
    11
 71
     3
 72
    96
 73
    92
 74
     0
 42
0.0000000001
 43
0.0000000001
 12
1.0
 22
0.0
 32
0.0
 13
1.0
 23
0.0
 33
0.0
 40
0.0
 40
0.0
 40
0.0
 40
0.0
 40
0.0416666666666667
 40
0.0416666666666667
 40
0.0416666666666667
 40
0.0416666666666667
 40
0.0833333333333333
 40
0.0833333333333333
 40
0.0833333333333333
 40
0.0833333333333333
 40
0.125
 40
0.125
 40
0.125
 40
0.125
 40
0.1666666666666667
 40
0.1666666666666667
 40
0.1666666666666667
 40
0.1666666666666667
 40
0.2083333333333333
 40
0.2083333333333333
 40
0.2083333333333333
 40
0.2083333333333333
 40
0.25
 40
0.25
 40
0.25
 40
0.25
 40
0.2916666666666667
 40
0.2916666666666667
 40
0.2916666666666667
 40
0.2916666666666667
 40
0.3333333333333333
 40
0.3333333333333333
 40
0.3333333333333333
 40
0.3333333333333333
 40
0.375
 40
0.375
 40
0.375
 40
0.375
 40
0.4166666666666667
 40
0.4166666666666667
 40
0.4166666666666667
 40
0.4166666666666667
 40
0.4583333333333333
 40
0.4583333333333333
 40
0.4583333333333333
 40
0.4583333333333333
 40
0.5
 40
0.5
 40
0.5
 40
0.5
 40
0.5416666666666666
 40
0.5416666666666666
 40
0.5416666666666666
 40
0.5416666666666666
 40
0.5833333333333334
 40
0.5833333333333334
 40
0.5833333333333334
 40
0.5833333333333334
 40
0.625
 40
0.625
 40
0.625
 40
0.625
 40
0.6666666666666666
 40
0.6666666666666666
 40
0.6666666666666666
 40
0.6666666666666666
 40
0.7083333333333334
 40
0.7083333333333334
 40
0.7083333333333334
 40
0.7083333333333334
 40
0.75
 40
0.75
 40
0.75
 40
0.75
 40
0.7916666666666666
 40
0.7916666666666666
 40
0.7916666666666666
 40
0.7916666666666666
 40
0.8333333333333334
 40
0.8333333333333334
 40
0.8333333333333334
 40
0.8333333333333334
 40
0.875
 40
0.875
 40
0.875
 40
0.875
 40
0.9166666666666666
 40
0.9166666666666666
 40
0.9166666666666666
 40
0.9166666666666666
 40
1.0
 40
1.0
 40
1.0
 40
1.0
 10
-40.7491
 20
-63.7524
 30
0.0
 10
-37.1738
 20
-68.9599
 30
0.0
 10
-30.9615
 20
-69.6814
 30
0.0
 10
-30.9615
 20
-69.6814
 30
0.0
 10
-30.9615
 20
-69.6814
 30
0.0
 10
-24.0474
 20
-75.9233
 30
0.0
 10
-19.4956
 20
-77.1593
 30
0.0
 10
-19.294
 20
-77.9318
 30
0.0
 10
-19.294
 20
-77.9318
 30
0.0
 10
-19.0923
 20
-78.7043
 30
0.0
 10
-19.8989
 20
-81.3926
 30
0.0
 10
-19.8989
 20
-81.3926
 30
0.0
 10
-19.8989
 20
-81.3926
 30
0.0
 10
-21.8003
 20
-82.4433
 30
0.0
 10
-22.1748
 20
-84.2046
 30
0.0
 10
-21.5986
 20
-86.4603
 30
0.0
 10
-21.5986
 20
-86.4603
 30
0.0
 10
-21.0225
 20
-88.716
 30
0.0
 10
-22.4917
 20
-89.8903
 30
0.0
 10
-22.4917
 20
-89.8903
 30
0.0
 10
-22.4917
 20
-89.8903
 30
0.0
 10
-22.4341
 20
-88.8087
 30
0.0
 10
-23.3272
 20
-86.3367
 30
0.0
 10
-25.1133
 20
-85.9041
 30
0.0
 10
-25.1133
 20
-85.9041
 30
0.0
 10
-26.8995
 20
-85.4715
 30
0.0
 10
-27.3316
 20
-86.6766
 30
0.0
 10
-26.3521
 20
-88.098
 30
0.0
 10
-26.3521
 20
-88.098
 30
0.0
 10
-25.3726
 20
-89.5194
 30
0.0
 10
-27.3316
 20
-90.8173
 30
0.0
 10
-27.1587
 20
-94.7107
 30
0.0
 10
-27.1587
 20
-94.7107
 30
0.0
 10
-26.9859
 20
-98.6042
 30
0.0
 10
-23.9898
 20
-102.1268
 30
0.0
 10
-23.9898
 20
-102.1268
 30
0.0
 10
-23.9898
 20
-102.1268
 30
0.0
 10
-24.1626
 20
-106.8855
 30
0.0
 10
-21.8579
 20
-108.7395
 30
0.0
 10
-21.8579
 20
-108.7395
 30
0.0
 10
-21.8579
 20
-108.7395
 30
0.0
 10
-37.7255
 20
-112.3306
 30
0.0
 10
-40.1226
 20
-98.6042
 30
0.0
 10
-39.1432
 20
-93.5983
 30
0.0
 10
-39.1432
 20
-93.5983
 30
0.0
 10
-38.1637
 20
-88.5924
 30
0.0
 10
-33.8135
 20
-88.2216
 30
0.0
 10
-33.295
 20
-89.5503
 30
0.0
 10
-33.295
 20
-89.5503
 30
0.0
 10
-32.7764
 20
-90.8791
 30
0.0
 10
-31.9698
 20
-92.455
 30
0.0
 10
-31.1631
 20
-92.0533
 30
0.0
 10
-31.1631
 20
-92.0533
 30
0.0
 10
-30.3565
 20
-91.6516
 30
0.0
 10
-30.1548
 20
-89.4268
 30
0.0
 10
-31.0191
 20
-87.7272
 30
0.0
 10
-31.0191
 20
-87.7272
 30
0.0
 10
-31.8834
 20
-86.0277
 30
0.0
 10
-30.8751
 20
-85.008
 30
0.0
 10
-30.1548
 20
-85.626
 30
0.0
 10
-30.1548
 20
-85.626
 30
0.0
 10
-29.4346
 20
-86.244
 30
0.0
 10
-29.0601
 20
-86.862
 30
0.0
 10
-28.7144
 20
-85.9659
 30
0.0
 10
-28.7144
 20
-85.9659
 30
0.0
 10
-28.3687
 20
-85.0698
 30
0.0
 10
-29.6363
 20
-83.8956
 30
0.0
 10
-29.6363
 20
-83.8956
 30
0.0
 10
-29.6363
 20
-83.8956
 30
0.0
 10
-28.2246
 20
-81.7325
 30
0.0
 10
-30.5005
 20
-81.7943
 30
0.0
 10
-30.5005
 20
-81.7943
 30
0.0
 10
-30.5005
 20
-81.7943
 30
0.0
 10
-29.9532
 20
-79.2605
 30
0.0
 10
-31.5376
 20
-79.415
 30
0.0
 10
-32.1138
 20
-80.7128
 30
0.0
 10
-32.1138
 20
-80.7128
 30
0.0
 10
-32.69
 20
-82.0106
 30
0.0
 10
-33.8712
 20
-82.5359
 30
0.0
 10
-33.8712
 20
-82.5359
 30
0.0
 10
-33.8712
 20
-82.5359
 30
0.0
 10
-33.9
 20
-79.724
 30
0.0
 10
-35.5997
 20
-77.1284
 30
0.0
 10
-39.2584
 20
-77.2829
 30
0.0
 10
-39.2584
 20
-77.2829
 30
0.0
 10
-39.8032
 20
-77.3059
 30
0.0
 10
-40.3023
 20
-77.3958
 30
0.0
 10
-40.7491
 20
-77.537
 30
0.0
 10
-40.7491
 20
-77.537
 30
0.0
 10
-40.7491
 20
-77.537
 30
0.0
 10
-40.7491
 20
-63.7524
 30
0.0
 10
-40.7491
 20
-63.7524
 30
0.0
  0
SPLINE
  5
49
330
1F
100
AcDbEntity
  8
layer 1
 62
   250
100
AcDbSpline
210
0.0
220
0.0
230
1.0
 70
    11
 71
     3
 72
    20
 73
    16
 74
     0
 42
0.0000000001
 43
0.0000000001
 12
1.0
 22
0.0
 32
0.0
 13
1.0
 23
0.0
 33
0.0
 40
0.0
 40
0.0
 40
0.0
 40
0.0
 40
0.2
 40
0.2
 40
0.2
 40
0.2
 40
0.4
 40
0.4
 40
0.4
 40
0.4
 40
0.6
 40
0.6
 40
0.6
 40
0.6
 40
1.0
 40
1.0
 40
1.0
 40
1.0
 10
-40.7491
 20
-82.628
 30
0.0
 10
-38.754
 20
-82.6817
 30
0.0
 10
-37.4701
 20
-79.563
 30
0.0
 10
-36.8096
 20
-80.7437
 30
0.0
 10
-36.8096
 20
-80.7437
 30
0.0
 10
-36.0318
 20
-82.1342
 30
0.0
 10
-37.9908
 20
-85.8114
 30
0.0
 10
-39.8346
 20
-87.2637
 30
0.0
 10
-39.8346
 20
-87.2637
 30
0.0
 10
-40.1185
 20
-87.4874
 30
0.0
 10
-40.4326
 20
-87.7516
 30
0.0
 10
-40.7491
 20
-88.072
 30
0.0
 10
-40.7491
 20
-88.072
 30
0.0
 10
-40.7491
 20
-88.072
 30
0.0
 10
-40.7491
 20
-82.628
 30
0.0
 10
-40.7491
 20
-82.628
 30
0.0
  0
SPLINE
  5
4A
330
1F
100
AcDbEntity
  8
layer 1
 62
   250
100
AcDbSpline
210
0.0
220
0.0
230
1.0
 70
    11
 71
     3
 72
    16
 73
    12
 74
     0
 42
0.0000000001
 43
0.0000000001
 12
1.0
 22
0.0
 32
0.0
 13
1.0
 23
0.0
 33
0.0
 40
0.0
 40
0.0
 40
0.0
 40
0.0
 40
0.25
 40
0.25
 40
0.25
 40
0.25
 40
0.5
 40
0.5
 40
0.5
 40
0.5
 40
1.0
 40
1.0
 40
1.0
 40
1.0
 10
-40.7491
 20
-103.2173
 30
0.0
 10
-38.2551
 20
-108.1427
 30
0.0
 10
-33.7977
 20
-110.5737
 30
0.0
 10
-31.0306
 20
-111.6624
 30
0.0
 10
-31.0306
 20
-111.6624
 30
0.0
 10
-31.0306
 20
-111.6624
 30
0.0
 10
-40.7491
 20
-111.6624
 30
0.0
 10
-40.7491
 20
-111.6624
 30
0.0
 10
-40.7491
 20
-111.6624
 30
0.0
 10
-40.7491
 20
-111.6624
 30
0.0
 10
-40.7491
 20
-103.2173
 30
0.0
 10
-40.7491
 20
-103.2173
 30
0.0
  0
SPLINE
  5
4B
330
1F
100
AcDbEntity
  8
layer 1
 62
   250
100
AcDbSpline
210
0.0
220
0.0
230
1.0
 70
    11
 71
     3
 72
    24
 73
    20
 74
     0
 42
0.0000000001
 43
0.0000000001
 12
1.0
 22
0.0
 32
0.0
 13
1.0
 23
0.0
 33
0.0
 40
0.0
 40
0.0
 40
0.0
 40
0.0
 40
0.1666666666666667
 40
0.1666666666666667
 40
0.1666666666666667
 40
0.1666666666666667
 40
0.3333333333333333
 40
0.3333333333333333
 40
0.3333333333333333
 40
0.3333333333333333
 40
0.5
 40
0.5
 40
0.5
 40
0.5
 40
0.6666666666666666
 40
0.6666666666666666
 40
0.6666666666666666
 40
0.6666666666666666
 40
1.0
 40
1.0
 40
1.0
 40
1.0
 10
-16.4926
 20
-111.6624
 30
0.0
 10
-15.5038
 20
-111.4813
 30
0.0
 10
-14.5175
 20
-111.2616
 30
0.0
 10
-13.561
 20
-110.9953
 30
0.0
 10
-13.561
 20
-110.9953
 30
0.0
 10
-7.1109
 20
-109.1994
 30
0.0
 10
-5.1093
 20
-103.4488
 30
0.0
 10
-4.9345
 20
-102.9093
 30
0.0
 10
-4.9345
 20
-102.9093
 30
0.0
 10
-4.7597
 20
-103.4488
 30
0.0
 10
-2.7581
 20
-109.1994
 30
0.0
 10
3.6921
 20
-110.9953
 30
0.0
 10
3.6921
 20
-110.9953
 30
0.0
 10
4.6485
 20
-111.2616
 30
0.0
 10
5.6349
 20
-111.4813
 30
0.0
 10
6.6236
 20
-111.6624
 30
0.0
 10
6.6236
 20
-111.6624
 30
0.0
 10
6.6236
 20
-111.6624
 30
0.0
 10
-16.4926
 20
-111.6624
 30
0.0
 10
-16.4926
 20
-111.6624
 30
0.0
  0
SPLINE
  5
4C
330
1F
100
AcDbEntity
  8
layer 1
 62
   250
100
AcDbSpline
210
0.0
220
0.0
230
1.0
 70
    11
 71
     3
 72
    16
 73
    12
 74
     0
 42
0.0000000001
 43
0.0000000001
 12
1.0
 22
0.0
 32
0.0
 13
1.0
 23
0.0
 33
0.0
 40
0.0
 40
0.0
 40
0.0
 40
0.0
 40
0.25
 40
0.25
 40
0.25
 40
0.25
 40
0.5
 40
0.5
 40
0.5
 40
0.5
 40
1.0
 40
1.0
 40
1.0
 40
1.0
 10
21.1616
 20
-111.6624
 30
0.0
 10
23.9286
 20
-110.5736
 30
0.0
 10
28.386
 20
-108.1428
 30
0.0
 10
30.8801
 20
-103.2173
 30
0.0
 10
30.8801
 20
-103.2173
 30
0.0
 10
30.8801
 20
-103.2173
 30
0.0
 10
30.8801
 20
-111.6624
 30
0.0
 10
30.8801
 20
-111.6624
 30
0.0
 10
30.8801
 20
-111.6624
 30
0.0
 10
30.8801
 20
-111.6624
 30
0.0
 10
21.1616
 20
-111.6624
 30
0.0
 10
21.1616
 20
-111.6624
 30
0.0
  0
SPLINE
  5
4D
330
1F
100
AcDbEntity
  8
layer 1
 62
   250
100
AcDbSpline
210
0.0
220
0.0
230
1.0
 70
    11
 71
     3
 72
    20
 73
    16
 74
     0
 42
0.0000000001
 43
0.0000000001
 12
1.0
 22
0.0
 32
0.0
 13
1.0
 23
0.0
 33
0.0
 40
0.0
 40
0.0
 40
0.0
 40
0.0
 40
0.2
 40
0.2
 40
0.2
 40
0.2
 40
0.4
 40
0.4
 40
0.4
 40
0.4
 40
0.6
 40
0.6
 40
0.6
 40
0.6
 40
1.0
 40
1.0
 40
1.0
 40
1.0
 10
30.8801
 20
-88.072
 30
0.0
 10
30.5636
 20
-87.7516
 30
0.0
 10
30.2496
 20
-87.4874
 30
0.0
 10
29.9656
 20
-87.2637
 30
0.0
 10
29.9656
 20
-87.2637
 30
0.0
 10
28.1218
 20
-85.8114
 30
0.0
 10
26.1628
 20
-82.1342
 30
0.0
 10
26.9407
 20
-80.7437
 30
0.0
 10
26.9407
 20
-80.7437
 30
0.0
 10
27.6012
 20
-79.563
 30
0.0
 10
28.885
 20
-82.6817
 30
0.0
 10
30.8801
 20
-82.628
 30
0.0
 10
30.8801
 20
-82.628
 30
0.0
 10
30.8801
 20
-82.628
 30
0.0
 10
30.8801
 20
-88.072
 30
0.0
 10
30.8801
 20
-88.072
 30
0.0
  0
SPLINE
  5
4E
330
1F
100
AcDbEntity
  8
layer 1
 62
   250
100
AcDbSpline
210
0.0
220
0.0
230
1.0
 70
    11
 71
     3
 72
    96
 73
    92
 74
     0
 42
0.0000000001
 43
0.0000000001
 12
1.0
 22
0.0
 32
0.0
 13
1.0
 23
0.0
 33
0.0
 40
0.0
 40
0.0
 40
0.0
 40
0.0
 40
0.0416666666666667
 40
0.0416666666666667
 40
0.0416666666666667
 40
0.0416666666666667
 40
0.0833333333333333
 40
0.0833333333333333
 40
0.0833333333333333
 40
0.0833333333333333
 40
0.125
 40
0.125
 40
0.125
 40
0.125
 40
0.1666666666666667
 40
0.1666666666666667
 40
0.1666666666666667
 40
0.1666666666666667
 40
0.2083333333333333
 40
0.2083333333333333
 40
0.2083333333333333
 40
0.2083333333333333
 40
0.25
 40
0.25
 40
0.25
 40
0.25
 40
0.2916666666666667
 40
0.2916666666666667
 40
0.2916666666666667
 40
0.2916666666666667
 40
0.3333333333333333
 40
0.3333333333333333
 40
0.3333333333333333
 40
0.3333333333333333
 40
0.375
 40
0.375
 40
0.375
 40
0.375
 40
0.4166666666666667
 40
0.4166666666666667
 40
0.4166666666666667
 40
0.4166666666666667
 40
0.4583333333333333
 40
0.4583333333333333
 40
0.4583333333333333
 40
0.4583333333333333
 40
0.5
 40
0.5
 40
0.5
 40
0.5
 40
0.5416666666666666
 40
0.5416666666666666
 40
0.5416666666666666
 40
0.5416666666666666
 40
0.5833333333333334
 40
0.5833333333333334
 40
0.5833333333333334
 40
0.5833333333333334
 40
0.625
 40
0.625
 40
0.625
 40
0.625
 40
0.6666666666666666
 40
0.6666666666666666
 40
0.6666666666666666
 40
0.6666666666666666
 40
0.7083333333333334
 40
0.7083333333333334
 40
0.7083333333333334
 40
0.7083333333333334
 40
0.75
 40
0.75
 40
0.75
 40
0.75
 40
0.7916666666666666
 40
0.7916666666666666
 40
0.7916666666666666
 40
0.7916666666666666
 40
0.8333333333333334
 40
0.8333333333333334
 40
0.8333333333333334
 40
0.8333333333333334
 40
0.875
 40
0.875
 40
0.875
 40
0.875
 40
0.9166666666666666
 40
0.9166666666666666
 40
0.9166666666666666
 40
0.9166666666666666
 40
1.0
 40
1.0
 40
1.0
 40
1.0
 10
30.8801
 20
-77.5369
 30
0.0
 10
30.4333
 20
-77.3958
 30
0.0
 10
29.9343
 20
-77.3059
 30
0.0
 10
29.3894
 20
-77.2829
 30
0.0
 10
29.3894
 20
-77.2829
 30
0.0
 10
25.7307
 20
-77.1284
 30
0.0
 10
24.031
 20
-79.724
 30
0.0
 10
24.0022
 20
-82.5359
 30
0.0
 10
24.0022
 20
-82.5359
 30
0.0
 10
24.0022
 20
-82.5359
 30
0.0
 10
22.821
 20
-82.0106
 30
0.0
 10
22.2449
 20
-80.7128
 30
0.0
 10
22.2449
 20
-80.7128
 30
0.0
 10
21.6687
 20
-79.415
 30
0.0
 10
20.0842
 20
-79.2605
 30
0.0
 10
20.6316
 20
-81.7943
 30
0.0
 10
20.6316
 20
-81.7943
 30
0.0
 10
20.6316
 20
-81.7943
 30
0.0
 10
18.3557
 20
-81.7325
 30
0.0
 10
19.7673
 20
-83.8956
 30
0.0
 10
19.7673
 20
-83.8956
 30
0.0
 10
19.7673
 20
-83.8956
 30
0.0
 10
18.4997
 20
-85.0698
 30
0.0
 10
18.8454
 20
-85.9659
 30
0.0
 10
18.8454
 20
-85.9659
 30
0.0
 10
19.1911
 20
-86.862
 30
0.0
 10
19.5657
 20
-86.244
 30
0.0
 10
20.2859
 20
-85.626
 30
0.0
 10
20.2859
 20
-85.626
 30
0.0
 10
21.0061
 20
-85.008
 30
0.0
 10
22.0144
 20
-86.0277
 30
0.0
 10
21.1501
 20
-87.7272
 30
0.0
 10
21.1501
 20
-87.7272
 30
0.0
 10
20.2859
 20
-89.4268
 30
0.0
 10
20.4875
 20
-91.6516
 30
0.0
 10
21.2942
 20
-92.0533
 30
0.0
 10
21.2942
 20
-92.0533
 30
0.0
 10
22.1008
 20
-92.455
 30
0.0
 10
22.9075
 20
-90.8791
 30
0.0
 10
23.426
 20
-89.5503
 30
0.0
 10
23.426
 20
-89.5503
 30
0.0
 10
23.9446
 20
-88.2216
 30
0.0
 10
28.2947
 20
-88.5924
 30
0.0
 10
29.2742
 20
-93.5983
 30
0.0
 10
29.2742
 20
-93.5983
 30
0.0
 10
30.2537
 20
-98.6042
 30
0.0
 10
27.8566
 20
-112.3306
 30
0.0
 10
11.989
 20
-108.7395
 30
0.0
 10
11.989
 20
-108.7395
 30
0.0
 10
11.989
 20
-108.7395
 30
0.0
 10
14.2937
 20
-106.8855
 30
0.0
 10
14.1208
 20
-102.1268
 30
0.0
 10
14.1208
 20
-102.1268
 30
0.0
 10
14.1208
 20
-102.1268
 30
0.0
 10
17.1169
 20
-98.6042
 30
0.0
 10
17.2898
 20
-94.7107
 30
0.0
 10
17.2898
 20
-94.7107
 30
0.0
 10
17.4626
 20
-90.8173
 30
0.0
 10
15.5036
 20
-89.5194
 30
0.0
 10
16.4831
 20
-88.098
 30
0.0
 10
16.4831
 20
-88.098
 30
0.0
 10
17.4626
 20
-86.6766
 30
0.0
 10
17.0305
 20
-85.4715
 30
0.0
 10
15.2444
 20
-85.9041
 30
0.0
 10
15.2444
 20
-85.9041
 30
0.0
 10
13.4582
 20
-86.3367
 30
0.0
 10
12.5651
 20
-88.8087
 30
0.0
 10
12.6227
 20
-89.8903
 30
0.0
 10
12.6227
 20
-89.8903
 30
0.0
 10
12.6227
 20
-89.8903
 30
0.0
 10
11.1535
 20
-88.716
 30
0.0
 10
11.7297
 20
-86.4603
 30
0.0
 10
11.7297
 20
-86.4603
 30
0.0
 10
12.3059
 20
-84.2046
 30
0.0
 10
11.9313
 20
-82.4433
 30
0.0
 10
10.03
 20
-81.3926
 30
0.0
 10
10.03
 20
-81.3926
 30
0.0
 10
10.03
 20
-81.3926
 30
0.0
 10
9.2233
 20
-78.7043
 30
0.0
 10
9.425
 20
-77.9318
 30
0.0
 10
9.425
 20
-77.9318
 30
0.0
 10
9.6266
 20
-77.1593
 30
0.0
 10
14.1784
 20
-75.9233
 30
0.0
 10
21.0925
 20
-69.6814
 30
0.0
 10
21.0925
 20
-69.6814
 30
0.0
 10
21.0925
 20
-69.6814
 30
0.0
 10
27.3048
 20
-68.9599
 30
0.0
 10
30.8801
 20
-63.7524
 30
0.0
 10
30.8801
 20
-63.7524
 30
0.0
 10
30.8801
 20
-63.7524
 30
0.0
 10
30.8801
 20
-77.5369
 30
0.0
 10
30.8801
 20
-77.5369
 30
0.0
  0
SPLINE
  5
4F
330
1F
100
AcDbEntity
  8
layer 1
 62
   250
100
AcDbSpline
210
0.0
220
0.0
230
1.0
 70
    11
 71
     3
 72
    16
 73
    12
 74
     0
 42
0.0000000001
 43
0.0000000001
 12
1.0
 22
0.0
 32
0.0
 13
1.0
 23
0.0
 33
0.0
 40
0.0
 40
0.0
 40
0.0
 40
0.0
 40
0.25
 40
0.25
 40
0.25
 40
0.25
 40
0.5
 40
0.5
 40
0.5
 40
0.5
 40
1.0
 40
1.0
 40
1.0
 40
1.0
 10
30.8801
 20
-51.7493
 30
0.0
 10
30.3511
 20
-51.0073
 30
0.0
 10
29.6419
 20
-50.2123
 30
0.0
 10
28.698
 20
-49.4725
 30
0.0
 10
28.698
 20
-49.4725
 30
0.0
 10
28.698
 20
-49.4725
 30
0.0
 10
29.6869
 20
-48.88
 30
0.0
 10
30.8801
 20
-47.1506
 30
0.0
 10
30.8801
 20
-47.1506
 30
0.0
 10
30.8801
 20
-47.1506
 30
0.0
 10
30.8801
 20
-51.7493
 30
0.0
 10
30.8801
 20
-51.7493
 30
0.0
  0
SPLINE
  5
50
330
1F
100
AcDbEntity
  8
layer 1
 62
   250
100
AcDbSpline
210
0.0
220
0.0
230
1.0
 70
    11
 71
     3
 72
    60
 73
    56
 74
     0
 42
0.0000000001
 43
0.0000000001
 12
1.0
 22
0.0
 32
0.0
 13
1.0
 23
0.0
 33
0.0
 40
0.0
 40
0.0
 40
0.0
 40
0.0
 40
0.0666666666666667
 40
0.0666666666666667
 40
0.0666666666666667
 40
0.0666666666666667
 40
0.1333333333333333
 40
0.1333333333333333
 40
0.1333333333333333
 40
0.1333333333333333
 40
0.2
 40
0.2
 40
0.2
 40
0.2
 40
0.2666666666666667
 40
0.2666666666666667
 40
0.2666666666666667
 40
0.2666666666666667
 40
0.3333333333333333
 40
0.3333333333333333
 40
0.3333333333333333
 40
0.3333333333333333
 40
0.4
 40
0.4
 40
0.4
 40
0.4
 40
0.4666666666666667
 40
0.4666666666666667
 40
0.4666666666666667
 40
0.4666666666666667
 40
0.5333333333333333
 40
0.5333333333333333
 40
0.5333333333333333
 40
0.5333333333333333
 40
0.6
 40
0.6
 40
0.6
 40
0.6
 40
0.6666666666666666
 40
0.6666666666666666
 40
0.6666666666666666
 40
0.6666666666666666
 40
0.7333333333333333
 40
0.7333333333333333
 40
0.7333333333333333
 40
0.7333333333333333
 40
0.8
 40
0.8
 40
0.8
 40
0.8
 40
0.8666666666666667
 40
0.8666666666666667
 40
0.8666666666666667
 40
0.8666666666666667
 40
1.0
 40
1.0
 40
1.0
 40
1.0
 10
30.8801
 20
-38.7022
 30
0.0
 10
30.3642
 20
-38.2509
 30
0.0
 10
29.7703
 20
-37.7721
 30
0.0
 10
29.2454
 20
-37.4522
 30
0.0
 10
29.2454
 20
-37.4522
 30
0.0
 10
27.9778
 20
-36.6797
 30
0.0
 10
28.842
 20
-34.2077
 30
0.0
 10
26.8254
 20
-32.6317
 30
0.0
 10
26.8254
 20
-32.6317
 30
0.0
 10
24.8088
 20
-31.0558
 30
0.0
 10
22.9075
 20
-32.4772
 30
0.0
 10
23.7717
 20
-35.4437
 30
0.0
 10
23.7717
 20
-35.4437
 30
0.0
 10
23.7717
 20
-35.4437
 30
0.0
 10
19.8825
 20
-35.9381
 30
0.0
 10
19.7673
 20
-38.9972
 30
0.0
 10
19.7673
 20
-38.9972
 30
0.0
 10
19.6521
 20
-42.0564
 30
0.0
 10
21.7263
 20
-43.0143
 30
0.0
 10
23.5989
 20
-42.6126
 30
0.0
 10
23.5989
 20
-42.6126
 30
0.0
 10
25.4714
 20
-42.2109
 30
0.0
 10
26.3933
 20
-39.6461
 30
0.0
 10
26.3933
 20
-39.6461
 30
0.0
 10
26.3933
 20
-39.6461
 30
0.0
 10
26.3933
 20
-39.6461
 30
0.0
 10
29.3894
 20
-39.8315
 30
0.0
 10
29.8215
 20
-42.7362
 30
0.0
 10
29.8215
 20
-42.7362
 30
0.0
 10
30.2537
 20
-45.6408
 30
0.0
 10
26.9119
 20
-48.8854
 30
0.0
 10
22.5041
 20
-46.506
 30
0.0
 10
22.5041
 20
-46.506
 30
0.0
 10
18.0964
 20
-44.1267
 30
0.0
 10
17.1169
 20
-38.5955
 30
0.0
 10
19.9978
 20
-35.3201
 30
0.0
 10
19.9978
 20
-35.3201
 30
0.0
 10
22.8787
 20
-32.0446
 30
0.0
 10
24.2039
 20
-30.067
 30
0.0
 10
24.5496
 20
-27.595
 30
0.0
 10
24.5496
 20
-27.595
 30
0.0
 10
24.5496
 20
-27.595
 30
0.0
 10
27.2
 20
-28.0276
 30
0.0
 10
28.2371
 20
-25.5555
 30
0.0
 10
28.2371
 20
-25.5555
 30
0.0
 10
29.2742
 20
-23.0835
 30
0.0
 10
26.9695
 20
-21.7857
 30
0.0
 10
26.6814
 20
-19.9316
 30
0.0
 10
26.6814
 20
-19.9316
 30
0.0
 10
26.4294
 20
-18.3098
 30
0.0
 10
28.7847
 20
-15.1747
 30
0.0
 10
30.8801
 20
-13.2566
 30
0.0
 10
30.8801
 20
-13.2566
 30
0.0
 10
30.8801
 20
-13.2566
 30
0.0
 10
30.8801
 20
-38.7022
 30
0.0
 10
30.8801
 20
-38.7022
 30
0.0
  0
SPLINE
  5
51
330
1F
100
AcDbEntity
  8
layer 1
 62
   250
100
AcDbSpline
210
0.0
220
0.0
230
1.0
 70
    11
 71
     3
 72
    52
 73
    48
 74
     0
 42
0.0000000001
 43
0.0000000001
 12
1.0
 22
0.0
 32
0.0
 13
1.0
 23
0.0
 33
0.0
 40
0.0
 40
0.0
 40
0.0
 40
0.0
 40
0.0769230769230769
 40
0.0769230769230769
 40
0.0769230769230769
 40
0.0769230769230769
 40
0.1538461538461539
 40
0.1538461538461539
 40
0.1538461538461539
 40
0.1538461538461539
 40
0.2307692307692308
 40
0.2307692307692308
 40
0.2307692307692308
 40
0.2307692307692308
 40
0.3076923076923077
 40
0.3076923076923077
 40
0.3076923076923077
 40
0.3076923076923077
 40
0.3846153846153846
 40
0.3846153846153846
 40
0.3846153846153846
 40
0.3846153846153846
 40
0.4615384615384616
 40
0.4615384615384616
 40
0.4615384615384616
 40
0.4615384615384616
 40
0.5384615384615384
 40
0.5384615384615384
 40
0.5384615384615384
 40
0.5384615384615384
 40
0.6153846153846154
 40
0.6153846153846154
 40
0.6153846153846154
 40
0.6153846153846154
 40
0.6923076923076923
 40
0.6923076923076923
 40
0.6923076923076923
 40
0.6923076923076923
 40
0.7692307692307693
 40
0.7692307692307693
 40
0.7692307692307693
 40
0.7692307692307693
 40
0.8461538461538461
 40
0.8461538461538461
 40
0.8461538461538461
 40
0.8461538461538461
 40
1.0
 40
1.0
 40
1.0
 40
1.0
 10
30.8801
 20
1.5203
 30
0.0
 10
30.2961
 20
-0.4228
 30
0.0
 10
28.1688
 20
-5.9138
 30
0.0
 10
22.7634
 20
-5.9646
 30
0.0
 10
22.7634
 20
-5.9646
 30
0.0
 10
17.3574
 20
-6.0155
 30
0.0
 10
11.779
 20
-1.782
 30
0.0
 10
9.9735
 20
-0.2818
 30
0.0
 10
9.9735
 20
-0.2818
 30
0.0
 10
9.9735
 20
-0.2818
 30
0.0
 10
13.6088
 20
3.8579
 30
0.0
 10
13.6088
 20
3.8579
 30
0.0
 10
13.6088
 20
3.8579
 30
0.0
 10
16.7331
 20
0.3746
 30
0.0
 10
21.3896
 20
-1.616
 30
0.0
 10
24.78
 20
0.9125
 30
0.0
 10
24.78
 20
0.9125
 30
0.0
 10
28.4675
 20
3.6627
 30
0.0
 10
28.2659
 20
10.2513
 30
0.0
 10
28.2659
 20
10.2513
 30
0.0
 10
28.2659
 20
10.2513
 30
0.0
 10
28.2659
 20
10.2513
 30
0.0
 10
28.4675
 20
16.8399
 30
0.0
 10
24.78
 20
19.59
 30
0.0
 10
24.78
 20
19.59
 30
0.0
 10
21.3266
 20
22.1656
 30
0.0
 10
16.5594
 20
20.0525
 30
0.0
 10
13.4361
 20
16.4489
 30
0.0
 10
13.4361
 20
16.4489
 30
0.0
 10
13.4361
 20
16.4489
 30
0.0
 10
10.1396
 20
20.2029
 30
0.0
 10
10.1396
 20
20.2029
 30
0.0
 10
10.1396
 20
20.2029
 30
0.0
 10
10.1396
 20
20.2029
 30
0.0
 10
13.2737
 20
23.772
 30
0.0
 10
13.2737
 20
23.772
 30
0.0
 10
13.2737
 20
23.772
 30
0.0
 10
13.2994
 20
23.7649
 30
0.0
 10
13.3142
 20
23.7616
 30
0.0
 10
13.3142
 20
23.7616
 30
0.0
 10
13.3142
 20
23.7616
 30
0.0
 10
13.3142
 20
23.7616
 30
0.0
 10
24.1224
 20
32.0989
 30
0.0
 10
30.8801
 20
18.1752
 30
0.0
 10
30.8801
 20
18.1752
 30
0.0
 10
30.8801
 20
18.1752
 30
0.0
 10
30.8801
 20
1.5203
 30
0.0
 10
30.8801
 20
1.5203
 30
0.0
  0
SPLINE
  5
52
330
1F
100
AcDbEntity
  8
layer 1
 62
   250
100
AcDbSpline
210
0.0
220
0.0
230
1.0
 70
    11
 71
     3
 72
    40
 73
    36
 74
     0
 42
0.0000000001
 43
0.0000000001
 12
1.0
 22
0.0
 32
0.0
 13
1.0
 23
0.0
 33
0.0
 40
0.0
 40
0.0
 40
0.0
 40
0.0
 40
0.1
 40
0.1
 40
0.1
 40
0.1
 40
0.2
 40
0.2
 40
0.2
 40
0.2
 40
0.3
 40
0.3
 40
0.3
 40
0.3
 40
0.4
 40
0.4
 40
0.4
 40
0.4
 40
0.5
 40
0.5
 40
0.5
 40
0.5
 40
0.6
 40
0.6
 40
0.6
 40
0.6
 40
0.7
 40
0.7
 40
0.7
 40
0.7
 40
0.8
 40
0.8
 40
0.8
 40
0.8
 40
1.0
 40
1.0
 40
1.0
 40
1.0
 10
30.8801
 20
32.2479
 30
0.0
 10
27.6813
 20
36.2149
 30
0.0
 10
26.9666
 20
39.8096
 30
0.0
 10
26.9666
 20
39.8096
 30
0.0
 10
26.9666
 20
39.8096
 30
0.0
 10
26.9666
 20
39.8096
 30
0.0
 10
29.0408
 20
42.0344
 30
0.0
 10
27.658
 20
44.3829
 30
0.0
 10
27.658
 20
44.3829
 30
0.0
 10
26.2752
 20
46.7313
 30
0.0
 10
23.8552
 20
46.3605
 30
0.0
 10
23.8552
 20
46.3605
 30
0.0
 10
23.8552
 20
46.3605
 30
0.0
 10
22.53
 20
48.3999
 30
0.0
 10
20.1677
 20
54.0856
 30
0.0
 10
20.1677
 20
54.0856
 30
0.0
 10
20.1677
 20
54.0856
 30
0.0
 10
21.8386
 20
51.9844
 30
0.0
 10
24.0857
 20
52.6642
 30
0.0
 10
24.0857
 20
52.6642
 30
0.0
 10
24.0857
 20
52.6642
 30
0.0
 10
23.4519
 20
50.0686
 30
0.0
 10
24.5466
 20
48.5235
 30
0.0
 10
24.5466
 20
48.5235
 30
0.0
 10
24.5466
 20
48.5235
 30
0.0
 10
29.3865
 20
50.1922
 30
0.0
 10
28.1189
 20
55.3216
 30
0.0
 10
29.2713
 20
56.3104
 30
0.0
 10
29.2713
 20
56.3104
 30
0.0
 10
29.8475
 20
56.8049
 30
0.0
 10
30.4687
 20
57.5003
 30
0.0
 10
30.8801
 20
58.5048
 30
0.0
 10
30.8801
 20
58.5048
 30
0.0
 10
30.8801
 20
58.5048
 30
0.0
 10
30.8801
 20
32.2479
 30
0.0
 10
30.8801
 20
32.2479
 30
0.0
  0
SPLINE
  5
53
330
1F
100
AcDbEntity
  8
layer 1
 62
   250
100
AcDbSpline
210
0.0
220
0.0
230
1.0
 70
    11
 71
     3
 72
    16
 73
    12
 74
     0
 42
0.0000000001
 43
0.0000000001
 12
1.0
 22
0.0
 32
0.0
 13
1.0
 23
0.0
 33
0.0
 40
0.0
 40
0.0
 40
0.0
 40
0.0
 40
0.25
 40
0.25
 40
0.25
 40
0.25
 40
0.5
 40
0.5
 40
0.5
 40
0.5
 40
1.0
 40
1.0
 40
1.0
 40
1.0
 10
30.8801
 20
63.8994
 30
0.0
 10
29.9271
 20
66.4472
 30
0.0
 10
27.7156
 20
67.6818
 30
0.0
 10
27.7156
 20
67.6818
 30
0.0
 10
27.7156
 20
67.6818
 30
0.0
 10
28.9747
 20
68.4811
 30
0.0
 10
30.1417
 20
69.969
 30
0.0
 10
30.8801
 20
71.816
 30
0.0
 10
30.8801
 20
71.816
 30
0.0
 10
30.8801
 20
71.816
 30
0.0
 10
30.8801
 20
63.8994
 30
0.0
 10
30.8801
 20
63.8994
 30
0.0
  0
SPLINE
  5
54
330
1F
100
AcDbEntity
  8
layer 1
 62
   250
100
AcDbSpline
210
0.0
220
0.0
230
1.0
 70
    11
 71
     3
 72
    88
 73
    84
 74
     0
 42
0.0000000001
 43
0.0000000001
 12
1.0
 22
0.0
 32
0.0
 13
1.0
 23
0.0
 33
0.0
 40
0.0
 40
0.0
 40
0.0
 40
0.0
 40
0.0454545454545455
 40
0.0454545454545455
 40
0.0454545454545455
 40
0.0454545454545455
 40
0.0909090909090909
 40
0.0909090909090909
 40
0.0909090909090909
 40
0.0909090909090909
 40
0.1363636363636364
 40
0.1363636363636364
 40
0.1363636363636364
 40
0.1363636363636364
 40
0.1818181818181818
 40
0.1818181818181818
 40
0.1818181818181818
 40
0.1818181818181818
 40
0.2272727272727273
 40
0.2272727272727273
 40
0.2272727272727273
 40
0.2272727272727273
 40
0.2727272727272727
 40
0.2727272727272727
 40
0.2727272727272727
 40
0.2727272727272727
 40
0.3181818181818182
 40
0.3181818181818182
 40
0.3181818181818182
 40
0.3181818181818182
 40
0.3636363636363636
 40
0.3636363636363636
 40
0.3636363636363636
 40
0.3636363636363636
 40
0.4090909090909091
 40
0.4090909090909091
 40
0.4090909090909091
 40
0.4090909090909091
 40
0.4545454545454545
 40
0.4545454545454545
 40
0.4545454545454545
 40
0.4545454545454545
 40
0.5
 40
0.5
 40
0.5
 40
0.5
 40
0.5454545454545454
 40
0.5454545454545454
 40
0.5454545454545454
 40
0.5454545454545454
 40
0.5909090909090909
 40
0.5909090909090909
 40
0.5909090909090909
 40
0.5909090909090909
 40
0.6363636363636364
 40
0.6363636363636364
 40
0.6363636363636364
 40
0.6363636363636364
 40
0.6818181818181818
 40
0.6818181818181818
 40
0.6818181818181818
 40
0.6818181818181818
 40
0.7272727272727273
 40
0.7272727272727273
 40
0.7272727272727273
 40
0.7272727272727273
 40
0.7727272727272727
 40
0.7727272727272727
 40
0.7727272727272727
 40
0.7727272727272727
 40
0.8181818181818182
 40
0.8181818181818182
 40
0.8181818181818182
 40
0.8181818181818182
 40
0.8636363636363636
 40
0.8636363636363636
 40
0.8636363636363636
 40
0.8636363636363636
 40
0.9090909090909091
 40
0.9090909090909091
 40
0.9090909090909091
 40
0.9090909090909091
 40
1.0
 40
1.0
 40
1.0
 40
1.0
 10
30.8801
 20
80.036
 30
0.0
 10
28.9395
 20
84.8019
 30
0.0
 10
25.14
 20
86.3282
 30
0.0
 10
20.4558
 20
88.4469
 30
0.0
 10
20.4558
 20
88.4469
 30
0.0
 10
15.6736
 20
90.6099
 30
0.0
 10
9.5085
 20
96.0484
 30
0.0
 10
9.5085
 20
96.0484
 30
0.0
 10
9.5085
 20
96.0484
 30
0.0
 10
9.5085
 20
97.5934
 30
0.0
 10
10.1423
 20
100.3127
 30
0.0
 10
11.237
 20
100.9307
 30
0.0
 10
11.237
 20
100.9307
 30
0.0
 10
12.3318
 20
101.5487
 30
0.0
 10
12.9079
 20
101.6723
 30
0.0
 10
12.3317
 20
104.5151
 30
0.0
 10
12.3317
 20
104.5151
 30
0.0
 10
11.7556
 20
107.358
 30
0.0
 10
12.9079
 20
109.5828
 30
0.0
 10
12.9079
 20
109.5828
 30
0.0
 10
12.9079
 20
109.5828
 30
0.0
 10
13.3113
 20
102.1667
 30
0.0
 10
17.5749
 20
104.6388
 30
0.0
 10
17.5749
 20
104.6388
 30
0.0
 10
17.5749
 20
104.6388
 30
0.0
 10
15.7888
 20
107.5434
 30
0.0
 10
18.612
 20
108.2232
 30
0.0
 10
18.0935
 20
112.3021
 30
0.0
 10
18.0935
 20
112.3021
 30
0.0
 10
17.5749
 20
116.3809
 30
0.0
 10
15.8464
 20
118.4203
 30
0.0
 10
15.2126
 20
121.1396
 30
0.0
 10
15.2126
 20
121.1396
 30
0.0
 10
14.5788
 20
123.8588
 30
0.0
 10
12.6198
 20
126.8253
 30
0.0
 10
12.6198
 20
126.8253
 30
0.0
 10
12.6198
 20
126.8253
 30
0.0
 10
12.6198
 20
126.8253
 30
0.0
 10
21.6081
 20
127.5051
 30
0.0
 10
26.448
 20
121.8194
 30
0.0
 10
26.448
 20
121.8194
 30
0.0
 10
31.2879
 20
116.1337
 30
0.0
 10
28.9832
 20
106.8018
 30
0.0
 10
26.1599
 20
105.7512
 30
0.0
 10
26.1599
 20
105.7512
 30
0.0
 10
23.3367
 20
104.7006
 30
0.0
 10
22.1843
 20
109.3974
 30
0.0
 10
22.1843
 20
109.3974
 30
0.0
 10
22.1843
 20
109.3974
 30
0.0
 10
20.3406
 20
108.903
 30
0.0
 10
20.1101
 20
106.8636
 30
0.0
 10
20.6287
 20
105.4422
 30
0.0
 10
20.6287
 20
105.4422
 30
0.0
 10
21.1472
 20
104.0207
 30
0.0
 10
21.032
 20
103.2173
 30
0.0
 10
20.1101
 20
103.3409
 30
0.0
 10
20.1101
 20
103.3409
 30
0.0
 10
19.1882
 20
103.4645
 30
0.0
 10
18.1511
 20
102.7229
 30
0.0
 10
19.0154
 20
101.6105
 30
0.0
 10
19.0154
 20
101.6105
 30
0.0
 10
19.8796
 20
100.4981
 30
0.0
 10
18.9001
 20
99.2621
 30
0.0
 10
19.9949
 20
99.1385
 30
0.0
 10
19.9949
 20
99.1385
 30
0.0
 10
21.0896
 20
99.0149
 30
0.0
 10
20.6863
 20
96.8518
 30
0.0
 10
21.3777
 20
96.6664
 30
0.0
 10
21.3777
 20
96.6664
 30
0.0
 10
22.0691
 20
96.481
 30
0.0
 10
23.8552
 20
99.8801
 30
0.0
 10
23.8552
 20
99.8801
 30
0.0
 10
23.8552
 20
99.8801
 30
0.0
 10
23.8552
 20
99.8801
 30
0.0
 10
24.7771
 20
94.9978
 30
0.0
 10
27.0818
 20
94.0708
 30
0.0
 10
27.0818
 20
94.0708
 30
0.0
 10
28.8351
 20
93.3656
 30
0.0
 10
30.3546
 20
94.1626
 30
0.0
 10
30.8801
 20
95.5094
 30
0.0
 10
30.8801
 20
95.5094
 30
0.0
 10
30.8801
 20
95.5094
 30
0.0
 10
30.8801
 20
80.036
 30
0.0
 10
30.8801
 20
80.036
 30
0.0
  0
SPLINE
  5
55
330
1F
100
AcDbEntity
  8
layer 1
 62
   250
100
AcDbSpline
210
0.0
220
0.0
230
1.0
 70
    11
 71
     3
 72
    24
 73
    20
 74
     0
 42
0.0000000001
 43
0.0000000001
 12
1.0
 22
0.0
 32
0.0
 13
1.0
 23
0.0
 33
0.0
 40
0.0
 40
0.0
 40
0.0
 40
0.0
 40
0.1666666666666667
 40
0.1666666666666667
 40
0.1666666666666667
 40
0.1666666666666667
 40
0.3333333333333333
 40
0.3333333333333333
 40
0.3333333333333333
 40
0.3333333333333333
 40
0.5
 40
0.5
 40
0.5
 40
0.5
 40
0.6666666666666666
 40
0.6666666666666666
 40
0.6666666666666666
 40
0.6666666666666666
 40
1.0
 40
1.0
 40
1.0
 40
1.0
 10
30.8801
 20
97.6415
 30
0.0
 10
30.3002
 20
99.1034
 30
0.0
 10
28.6375
 20
99.3283
 30
0.0
 10
28.6375
 20
98.5204
 30
0.0
 10
28.6375
 20
98.5204
 30
0.0
 10
28.6375
 20
97.5934
 30
0.0
 10
28.2918
 20
96.172
 30
0.0
 10
27.3123
 20
97.5316
 30
0.0
 10
27.3123
 20
97.5316
 30
0.0
 10
26.3328
 20
98.8913
 30
0.0
 10
27.0242
 20
101.2397
 30
0.0
 10
28.9256
 20
102.9701
 30
0.0
 10
28.9256
 20
102.9701
 30
0.0
 10
29.5862
 20
103.5714
 30
0.0
 10
30.3093
 20
104.4267
 30
0.0
 10
30.8801
 20
105.6443
 30
0.0
 10
30.8801
 20
105.6443
 30
0.0
 10
30.8801
 20
105.6443
 30
0.0
 10
30.8801
 20
97.6415
 30
0.0
 10
30.8801
 20
97.6415
 30
0.0
  0
SPLINE
  5
56
330
1F
100
AcDbEntity
  8
layer 1
 62
   250
100
AcDbSpline
210
0.0
220
0.0
230
1.0
 70
    11
 71
     3
 72
    16
 73
    12
 74
     0
 42
0.0000000001
 43
0.0000000001
 12
1.0
 22
0.0
 32
0.0
 13
1.0
 23
0.0
 33
0.0
 40
0.0
 40
0.0
 40
0.0
 40
0.0
 40
0.25
 40
0.25
 40
0.25
 40
0.25
 40
0.5
 40
0.5
 40
0.5
 40
0.5
 40
1.0
 40
1.0
 40
1.0
 40
1.0
 10
30.8801
 20
117.6989
 30
0.0
 10
28.8142
 20
124.6822
 30
0.0
 10
23.3366
 20
127.6809
 30
0.0
 10
21.9376
 20
128.3461
 30
0.0
 10
21.9376
 20
128.3461
 30
0.0
 10
21.9376
 20
128.3461
 30
0.0
 10
30.8801
 20
128.3461
 30
0.0
 10
30.8801
 20
128.3461
 30
0.0
 10
30.8801
 20
128.3461
 30
0.0
 10
30.8801
 20
128.3461
 30
0.0
 10
30.8801
 20
117.6989
 30
0.0
 10
30.8801
 20
117.6989
 30
0.0
  0
SPLINE
  5
57
330
1F
100
AcDbEntity
  8
layer 1
 62
   250
100
AcDbSpline
210
0.0
220
0.0
230
1.0
 70
    11
 71
     3
 72
    24
 73
    20
 74
     0
 42
0.0000000001
 43
0.0000000001
 12
1.0
 22
0.0
 32
0.0
 13
1.0
 23
0.0
 33
0.0
 40
0.0
 40
0.0
 40
0.0
 40
0.0
 40
0.1666666666666667
 40
0.1666666666666667
 40
0.1666666666666667
 40
0.1666666666666667
 40
0.3333333333333333
 40
0.3333333333333333
 40
0.3333333333333333
 40
0.3333333333333333
 40
0.5
 40
0.5
 40
0.5
 40
0.5
 40
0.6666666666666666
 40
0.6666666666666666
 40
0.6666666666666666
 40
0.6666666666666666
 40
1.0
 40
1.0
 40
1.0
 40
1.0
 10
2.113
 20
128.3461
 30
0.0
 10
1.9132
 20
128.2769
 30
0.0
 10
1.7262
 20
128.2031
 30
0.0
 10
1.5573
 20
128.1231
 30
0.0
 10
1.5573
 20
128.1231
 30
0.0
 10
-2.6784
 20
126.117
 30
0.0
 10
-4.7552
 20
119.6609
 30
0.0
 10
-4.9345
 20
119.0806
 30
0.0
 10
-4.9345
 20
119.0806
 30
0.0
 10
-5.1138
 20
119.6609
 30
0.0
 10
-7.1905
 20
126.117
 30
0.0
 10
-11.4263
 20
128.1231
 30
0.0
 10
-11.4263
 20
128.1231
 30
0.0
 10
-11.5952
 20
128.2031
 30
0.0
 10
-11.7821
 20
128.2769
 30
0.0
 10
-11.982
 20
128.3461
 30
0.0
 10
-11.982
 20
128.3461
 30
0.0
 10
-11.982
 20
128.3461
 30
0.0
 10
2.113
 20
128.3461
 30
0.0
 10
2.113
 20
128.3461
 30
0.0
  0
SPLINE
  5
58
330
1F
100
AcDbEntity
  8
layer 1
 62
   250
100
AcDbSpline
210
0.0
220
0.0
230
1.0
 70
    11
 71
     3
 72
    16
 73
    12
 74
     0
 42
0.0000000001
 43
0.0000000001
 12
1.0
 22
0.0
 32
0.0
 13
1.0
 23
0.0
 33
0.0
 40
0.0
 40
0.0
 40
0.0
 40
0.0
 40
0.25
 40
0.25
 40
0.25
 40
0.25
 40
0.5
 40
0.5
 40
0.5
 40
0.5
 40
1.0
 40
1.0
 40
1.0
 40
1.0
 10
-31.8066
 20
128.3461
 30
0.0
 10
-33.2056
 20
127.6809
 30
0.0
 10
-38.6832
 20
124.6822
 30
0.0
 10
-40.7491
 20
117.6989
 30
0.0
 10
-40.7491
 20
117.6989
 30
0.0
 10
-40.7491
 20
117.6989
 30
0.0
 10
-40.7491
 20
128.3461
 30
0.0
 10
-40.7491
 20
128.3461
 30
0.0
 10
-40.7491
 20
128.3461
 30
0.0
 10
-40.7491
 20
128.3461
 30
0.0
 10
-31.8066
 20
128.3461
 30
0.0
 10
-31.8066
 20
128.3461
 30
0.0
  0
SPLINE
  5
59
330
1F
100
AcDbEntity
  8
layer 1
 62
   250
100
AcDbSpline
210
0.0
220
0.0
230
1.0
 70
    11
 71
     3
 72
    24
 73
    20
 74
     0
 42
0.0000000001
 43
0.0000000001
 12
1.0
 22
0.0
 32
0.0
 13
1.0
 23
0.0
 33
0.0
 40
0.0
 40
0.0
 40
0.0
 40
0.0
 40
0.1666666666666667
 40
0.1666666666666667
 40
0.1666666666666667
 40
0.1666666666666667
 40
0.3333333333333333
 40
0.3333333333333333
 40
0.3333333333333333
 40
0.3333333333333333
 40
0.5
 40
0.5
 40
0.5
 40
0.5
 40
0.6666666666666666
 40
0.6666666666666666
 40
0.6666666666666666
 40
0.6666666666666666
 40
1.0
 40
1.0
 40
1.0
 40
1.0
 10
-40.7491
 20
105.6443
 30
0.0
 10
-40.1783
 20
104.4268
 30
0.0
 10
-39.4552
 20
103.5714
 30
0.0
 10
-38.7945
 20
102.9701
 30
0.0
 10
-38.7945
 20
102.9701
 30
0.0
 10
-36.8932
 20
101.2397
 30
0.0
 10
-36.2018
 20
98.8913
 30
0.0
 10
-37.1812
 20
97.5316
 30
0.0
 10
-37.1812
 20
97.5316
 30
0.0
 10
-38.1607
 20
96.172
 30
0.0
 10
-38.5065
 20
97.5934
 30
0.0
 10
-38.5065
 20
98.5204
 30
0.0
 10
-38.5065
 20
98.5204
 30
0.0
 10
-38.5065
 20
99.3283
 30
0.0
 10
-40.1691
 20
99.1034
 30
0.0
 10
-40.7491
 20
97.6415
 30
0.0
 10
-40.7491
 20
97.6415
 30
0.0
 10
-40.7491
 20
97.6415
 30
0.0
 10
-40.7491
 20
105.6443
 30
0.0
 10
-40.7491
 20
105.6443
 30
0.0
  0
SPLINE
  5
5A
330
1F
100
AcDbEntity
  8
layer 1
 62
   250
100
AcDbSpline
210
0.0
220
0.0
230
1.0
 70
    11
 71
     3
 72
    20
 73
    16
 74
     0
 42
0.0000000001
 43
0.0000000001
 12
1.0
 22
0.0
 32
0.0
 13
1.0
 23
0.0
 33
0.0
 40
0.0
 40
0.0
 40
0.0
 40
0.0
 40
0.2
 40
0.2
 40
0.2
 40
0.2
 40
0.4
 40
0.4
 40
0.4
 40
0.4
 40
0.6
 40
0.6
 40
0.6
 40
0.6
 40
1.0
 40
1.0
 40
1.0
 40
1.0
 10
-4.9345
 20
-92.258
 30
0.0
 10
-5.1933
 20
-90.2837
 30
0.0
 10
-6.269
 20
-89.1631
 30
0.0
 10
-6.0708
 20
-88.2216
 30
0.0
 10
-6.0708
 20
-88.2216
 30
0.0
 10
-5.8829
 20
-87.3292
 30
0.0
 10
-5.0478
 20
-87.4559
 30
0.0
 10
-4.9345
 20
-87.4774
 30
0.0
 10
-4.9345
 20
-87.4774
 30
0.0
 10
-4.8212
 20
-87.4559
 30
0.0
 10
-3.9861
 20
-87.3292
 30
0.0
 10
-3.7982
 20
-88.2216
 30
0.0
 10
-3.7982
 20
-88.2216
 30
0.0
 10
-3.6
 20
-89.1631
 30
0.0
 10
-4.6756
 20
-90.2837
 30
0.0
 10
-4.9345
 20
-92.258
 30
0.0
  0
SPLINE
  5
5B
330
1F
100
AcDbEntity
  8
layer 1
 62
   250
100
AcDbSpline
210
0.0
220
0.0
230
1.0
 70
    11
 71
     3
 72
    28
 73
    24
 74
     0
 42
0.0000000001
 43
0.0000000001
 12
1.0
 22
0.0
 32
0.0
 13
1.0
 23
0.0
 33
0.0
 40
0.0
 40
0.0
 40
0.0
 40
0.0
 40
0.1428571428571428
 40
0.1428571428571428
 40
0.1428571428571428
 40
0.1428571428571428
 40
0.2857142857142857
 40
0.2857142857142857
 40
0.2857142857142857
 40
0.2857142857142857
 40
0.4285714285714285
 40
0.4285714285714285
 40
0.4285714285714285
 40
0.4285714285714285
 40
0.5714285714285714
 40
0.5714285714285714
 40
0.5714285714285714
 40
0.5714285714285714
 40
0.7142857142857143
 40
0.7142857142857143
 40
0.7142857142857143
 40
0.7142857142857143
 40
1.0
 40
1.0
 40
1.0
 40
1.0
 10
-4.9345
 20
-13.5792
 30
0.0
 10
-4.9345
 20
-13.5792
 30
0.0
 10
-5.5244
 20
-14.1751
 30
0.0
 10
-5.5244
 20
-14.1751
 30
0.0
 10
-5.5244
 20
-14.1751
 30
0.0
 10
-5.5244
 20
-14.1751
 30
0.0
 10
-8.5289
 20
-10.7536
 30
0.0
 10
-8.5289
 20
-10.7536
 30
0.0
 10
-8.5289
 20
-10.7536
 30
0.0
 10
-8.5289
 20
-10.7536
 30
0.0
 10
-4.9345
 20
-7.0497
 30
0.0
 10
-4.9345
 20
-7.0497
 30
0.0
 10
-4.9345
 20
-7.0497
 30
0.0
 10
-4.9345
 20
-7.0497
 30
0.0
 10
-1.3401
 20
-10.7536
 30
0.0
 10
-1.3401
 20
-10.7536
 30
0.0
 10
-1.3401
 20
-10.7536
 30
0.0
 10
-1.3401
 20
-10.7536
 30
0.0
 10
-4.3446
 20
-14.1751
 30
0.0
 10
-4.3446
 20
-14.1751
 30
0.0
 10
-4.3446
 20
-14.1751
 30
0.0
 10
-4.3446
 20
-14.1751
 30
0.0
 10
-4.9345
 20
-13.5792
 30
0.0
 10
-4.9345
 20
-13.5792
 30
0.0
  0
SPLINE
  5
5C
330
1F
100
AcDbEntity
  8
layer 1
 62
   250
100
AcDbSpline
210
0.0
220
0.0
230
1.0
 70
    11
 71
     3
 72
    20
 73
    16
 74
     0
 42
0.0000000001
 43
0.0000000001
 12
1.0
 22
0.0
 32
0.0
 13
1.0
 23
0.0
 33
0.0
 40
0.0
 40
0.0
 40
0.0
 40
0.0
 40
0.2
 40
0.2
 40
0.2
 40
0.2
 40
0.4
 40
0.4
 40
0.4
 40
0.4
 40
0.6
 40
0.6
 40
0.6
 40
0.6
 40
1.0
 40
1.0
 40
1.0
 40
1.0
 10
-4.9345
 20
-3.4058
 30
0.0
 10
-4.9345
 20
-3.4058
 30
0.0
 10
-8.2642
 20
-0.0031
 30
0.0
 10
-8.2642
 20
-0.0031
 30
0.0
 10
-8.2642
 20
-0.0031
 30
0.0
 10
-8.2642
 20
-0.0031
 30
0.0
 10
-4.9345
 20
3.3995
 30
0.0
 10
-4.9345
 20
3.3995
 30
0.0
 10
-4.9345
 20
3.3995
 30
0.0
 10
-4.9345
 20
3.3995
 30
0.0
 10
-1.6048
 20
-0.0031
 30
0.0
 10
-1.6048
 20
-0.0031
 30
0.0
 10
-1.6048
 20
-0.0031
 30
0.0
 10
-1.6048
 20
-0.0031
 30
0.0
 10
-4.9345
 20
-3.4058
 30
0.0
 10
-4.9345
 20
-3.4058
 30
0.0
  0
SPLINE
  5
5D
330
1F
100
AcDbEntity
  8
layer 1
 62
   250
100
AcDbSpline
210
0.0
220
0.0
230
1.0
 70
    11
 71
     3
 72
    20
 73
    16
 74
     0
 42
0.0000000001
 43
0.0000000001
 12
1.0
 22
0.0
 32
0.0
 13
1.0
 23
0.0
 33
0.0
 40
0.0
 40
0.0
 40
0.0
 40
0.0
 40
0.2
 40
0.2
 40
0.2
 40
0.2
 40
0.4
 40
0.4
 40
0.4
 40
0.4
 40
0.6
 40
0.6
 40
0.6
 40
0.6
 40
1.0
 40
1.0
 40
1.0
 40
1.0
 10
-4.9345
 20
7.0435
 30
0.0
 10
-4.9345
 20
7.0435
 30
0.0
 10
-8.2641
 20
10.446
 30
0.0
 10
-8.2641
 20
10.446
 30
0.0
 10
-8.2641
 20
10.446
 30
0.0
 10
-8.2641
 20
10.446
 30
0.0
 10
-4.9345
 20
13.8485
 30
0.0
 10
-4.9345
 20
13.8485
 30
0.0
 10
-4.9345
 20
13.8485
 30
0.0
 10
-4.9345
 20
13.8485
 30
0.0
 10
-1.6049
 20
10.446
 30
0.0
 10
-1.6049
 20
10.446
 30
0.0
 10
-1.6049
 20
10.446
 30
0.0
 10
-1.6049
 20
10.446
 30
0.0
 10
-4.9345
 20
7.0435
 30
0.0
 10
-4.9345
 20
7.0435
 30
0.0
  0
SPLINE
  5
5E
330
1F
100
AcDbEntity
  8
layer 1
 62
   250
100
AcDbSpline
210
0.0
220
0.0
230
1.0
 70
    11
 71
     3
 72
    20
 73
    16
 74
     0
 42
0.0000000001
 43
0.0000000001
 12
1.0
 22
0.0
 32
0.0
 13
1.0
 23
0.0
 33
0.0
 40
0.0
 40
0.0
 40
0.0
 40
0.0
 40
0.2
 40
0.2
 40
0.2
 40
0.2
 40
0.4
 40
0.4
 40
0.4
 40
0.4
 40
0.6
 40
0.6
 40
0.6
 40
0.6
 40
1.0
 40
1.0
 40
1.0
 40
1.0
 10
-4.9345
 20
17.4925
 30
0.0
 10
-4.9345
 20
17.4925
 30
0.0
 10
-8.264
 20
20.8951
 30
0.0
 10
-8.264
 20
20.8951
 30
0.0
 10
-8.264
 20
20.8951
 30
0.0
 10
-8.264
 20
20.8951
 30
0.0
 10
-4.9345
 20
24.2666
 30
0.0
 10
-4.9345
 20
24.2666
 30
0.0
 10
-4.9345
 20
24.2666
 30
0.0
 10
-4.9345
 20
24.2666
 30
0.0
 10
-1.6049
 20
20.8951
 30
0.0
 10
-1.6049
 20
20.8951
 30
0.0
 10
-1.6049
 20
20.8951
 30
0.0
 10
-1.6049
 20
20.8951
 30
0.0
 10
-4.9345
 20
17.4925
 30
0.0
 10
-4.9345
 20
17.4925
 30
0.0
  0
SPLINE
  5
5F
330
1F
100
AcDbEntity
  8
layer 1
 62
   250
100
AcDbSpline
210
0.0
220
0.0
230
1.0
 70
    11
 71
     3
 72
    20
 73
    16
 74
     0
 42
0.0000000001
 43
0.0000000001
 12
1.0
 22
0.0
 32
0.0
 13
1.0
 23
0.0
 33
0.0
 40
0.0
 40
0.0
 40
0.0
 40
0.0
 40
0.2
 40
0.2
 40
0.2
 40
0.2
 40
0.4
 40
0.4
 40
0.4
 40
0.4
 40
0.6
 40
0.6
 40
0.6
 40
0.6
 40
1.0
 40
1.0
 40
1.0
 40
1.0
 10
-4.9345
 20
27.9106
 30
0.0
 10
-4.9345
 20
27.9106
 30
0.0
 10
-8.1858
 20
31.2546
 30
0.0
 10
-8.1858
 20
31.2546
 30
0.0
 10
-8.1858
 20
31.2546
 30
0.0
 10
-8.1858
 20
31.2546
 30
0.0
 10
-4.9345
 20
34.9571
 30
0.0
 10
-4.9345
 20
34.9571
 30
0.0
 10
-4.9345
 20
34.9571
 30
0.0
 10
-4.9345
 20
34.9571
 30
0.0
 10
-1.6832
 20
31.2546
 30
0.0
 10
-1.6832
 20
31.2546
 30
0.0
 10
-1.6832
 20
31.2546
 30
0.0
 10
-1.6832
 20
31.2546
 30
0.0
 10
-4.9345
 20
27.9106
 30
0.0
 10
-4.9345
 20
27.9106
 30
0.0
  0
SPLINE
  5
60
330
1F
100
AcDbEntity
  8
layer 1
 62
   250
100
AcDbSpline
210
0.0
220
0.0
230
1.0
 70
    11
 71
     3
 72
    36
 73
    32
 74
     0
 42
0.0000000001
 43
0.0000000001
 12
1.0
 22
0.0
 32
0.0
 13
1.0
 23
0.0
 33
0.0
 40
0.0
 40
0.0
 40
0.0
 40
0.0
 40
0.1111111111111111
 40
0.1111111111111111
 40
0.1111111111111111
 40
0.1111111111111111
 40
0.2222222222222222
 40
0.2222222222222222
 40
0.2222222222222222
 40
0.2222222222222222
 40
0.3333333333333333
 40
0.3333333333333333
 40
0.3333333333333333
 40
0.3333333333333333
 40
0.4444444444444444
 40
0.4444444444444444
 40
0.4444444444444444
 40
0.4444444444444444
 40
0.5555555555555556
 40
0.5555555555555556
 40
0.5555555555555556
 40
0.5555555555555556
 40
0.6666666666666666
 40
0.6666666666666666
 40
0.6666666666666666
 40
0.6666666666666666
 40
0.7777777777777778
 40
0.7777777777777778
 40
0.7777777777777778
 40
0.7777777777777778
 40
1.0
 40
1.0
 40
1.0
 40
1.0
 10
-4.9345
 20
37.3689
 30
0.0
 10
-4.9345
 20
37.3689
 30
0.0
 10
-5.483
 20
36.7442
 30
0.0
 10
-5.483
 20
36.7442
 30
0.0
 10
-5.483
 20
36.7442
 30
0.0
 10
-5.483
 20
36.7442
 30
0.0
 10
-9.4389
 20
32.2393
 30
0.0
 10
-9.4389
 20
32.2393
 30
0.0
 10
-9.4389
 20
32.2393
 30
0.0
 10
-10.3635
 20
33.2446
 30
0.0
 10
-12.4788
 20
35.8371
 30
0.0
 10
-12.7256
 20
38.7483
 30
0.0
 10
-12.7256
 20
38.7483
 30
0.0
 10
-13.042
 20
42.4815
 30
0.0
 10
-7.7069
 20
44.2123
 30
0.0
 10
-4.9345
 20
44.2176
 30
0.0
 10
-4.9345
 20
44.2176
 30
0.0
 10
-2.162
 20
44.2123
 30
0.0
 10
3.173
 20
42.4815
 30
0.0
 10
2.8566
 20
38.7483
 30
0.0
 10
2.8566
 20
38.7483
 30
0.0
 10
2.6099
 20
35.8371
 30
0.0
 10
0.4945
 20
33.2446
 30
0.0
 10
-0.43
 20
32.2393
 30
0.0
 10
-0.43
 20
32.2393
 30
0.0
 10
-0.43
 20
32.2393
 30
0.0
 10
-4.3859
 20
36.7442
 30
0.0
 10
-4.3859
 20
36.7442
 30
0.0
 10
-4.3859
 20
36.7442
 30
0.0
 10
-4.3859
 20
36.7442
 30
0.0
 10
-4.9345
 20
37.3689
 30
0.0
 10
-4.9345
 20
37.3689
 30
0.0
  0
SPLINE
  5
61
330
1F
100
AcDbEntity
  8
layer 1
 62
   250
100
AcDbSpline
210
0.0
220
0.0
230
1.0
 70
    11
 71
     3
 72
    60
 73
    56
 74
     0
 42
0.0000000001
 43
0.0000000001
 12
1.0
 22
0.0
 32
0.0
 13
1.0
 23
0.0
 33
0.0
 40
0.0
 40
0.0
 40
0.0
 40
0.0
 40
0.0666666666666667
 40
0.0666666666666667
 40
0.0666666666666667
 40
0.0666666666666667
 40
0.1333333333333333
 40
0.1333333333333333
 40
0.1333333333333333
 40
0.1333333333333333
 40
0.2
 40
0.2
 40
0.2
 40
0.2
 40
0.2666666666666667
 40
0.2666666666666667
 40
0.2666666666666667
 40
0.2666666666666667
 40
0.3333333333333333
 40
0.3333333333333333
 40
0.3333333333333333
 40
0.3333333333333333
 40
0.4
 40
0.4
 40
0.4
 40
0.4
 40
0.4666666666666667
 40
0.4666666666666667
 40
0.4666666666666667
 40
0.4666666666666667
 40
0.5333333333333333
 40
0.5333333333333333
 40
0.5333333333333333
 40
0.5333333333333333
 40
0.6
 40
0.6
 40
0.6
 40
0.6
 40
0.6666666666666666
 40
0.6666666666666666
 40
0.6666666666666666
 40
0.6666666666666666
 40
0.7333333333333333
 40
0.7333333333333333
 40
0.7333333333333333
 40
0.7333333333333333
 40
0.8
 40
0.8
 40
0.8
 40
0.8
 40
0.8666666666666667
 40
0.8666666666666667
 40
0.8666666666666667
 40
0.8666666666666667
 40
1.0
 40
1.0
 40
1.0
 40
1.0
 10
-4.9345
 20
46.5665
 30
0.0
 10
-5.2549
 20
46.5753
 30
0.0
 10
-12.1103
 20
46.7162
 30
0.0
 10
-14.0796
 20
42.6727
 30
0.0
 10
-14.0796
 20
42.6727
 30
0.0
 10
-16.0067
 20
38.7158
 30
0.0
 10
-13.4614
 20
33.6023
 30
0.0
 10
-10.7177
 20
30.7831
 30
0.0
 10
-10.7177
 20
30.7831
 30
0.0
 10
-10.7177
 20
30.7831
 30
0.0
 10
-13.8323
 20
27.2362
 30
0.0
 10
-13.8323
 20
27.2362
 30
0.0
 10
-13.8323
 20
27.2362
 30
0.0
 10
-13.8323
 20
27.2362
 30
0.0
 10
-17.4911
 20
31.4028
 30
0.0
 10
-17.4911
 20
31.4028
 30
0.0
 10
-17.4911
 20
31.4028
 30
0.0
 10
-17.4911
 20
31.4028
 30
0.0
 10
-17.5381
 20
31.3554
 30
0.0
 10
-17.5381
 20
31.3554
 30
0.0
 10
-17.5381
 20
31.3554
 30
0.0
 10
-18.313
 20
32.6467
 30
0.0
 10
-20.3355
 20
36.5286
 30
0.0
 10
-19.7261
 20
41.004
 30
0.0
 10
-19.7261
 20
41.004
 30
0.0
 10
-18.9775
 20
46.501
 30
0.0
 10
-12.0776
 20
48.7264
 30
0.0
 10
-4.9345
 20
48.7291
 30
0.0
 10
-4.9345
 20
48.7291
 30
0.0
 10
2.2087
 20
48.7264
 30
0.0
 10
9.1085
 20
46.501
 30
0.0
 10
9.8571
 20
41.004
 30
0.0
 10
9.8571
 20
41.004
 30
0.0
 10
10.4666
 20
36.5286
 30
0.0
 10
8.4441
 20
32.6467
 30
0.0
 10
7.6691
 20
31.3554
 30
0.0
 10
7.6691
 20
31.3554
 30
0.0
 10
7.6691
 20
31.3554
 30
0.0
 10
7.6221
 20
31.4028
 30
0.0
 10
7.6221
 20
31.4028
 30
0.0
 10
7.6221
 20
31.4028
 30
0.0
 10
7.6221
 20
31.4028
 30
0.0
 10
3.9634
 20
27.2362
 30
0.0
 10
3.9634
 20
27.2362
 30
0.0
 10
3.9634
 20
27.2362
 30
0.0
 10
3.9634
 20
27.2362
 30
0.0
 10
0.8487
 20
30.7831
 30
0.0
 10
0.8487
 20
30.7831
 30
0.0
 10
0.8487
 20
30.7831
 30
0.0
 10
3.5925
 20
33.6023
 30
0.0
 10
6.1377
 20
38.7158
 30
0.0
 10
4.2106
 20
42.6727
 30
0.0
 10
4.2106
 20
42.6727
 30
0.0
 10
2.2413
 20
46.7162
 30
0.0
 10
-4.6141
 20
46.5753
 30
0.0
 10
-4.9345
 20
46.5665
 30
0.0
  0
SPLINE
  5
62
330
1F
100
AcDbEntity
  8
layer 1
 62
   250
100
AcDbSpline
210
0.0
220
0.0
230
1.0
 70
    11
 71
     3
 72
    20
 73
    16
 74
     0
 42
0.0000000001
 43
0.0000000001
 12
1.0
 22
0.0
 32
0.0
 13
1.0
 23
0.0
 33
0.0
 40
0.0
 40
0.0
 40
0.0
 40
0.0
 40
0.2
 40
0.2
 40
0.2
 40
0.2
 40
0.4
 40
0.4
 40
0.4
 40
0.4
 40
0.6
 40
0.6
 40
0.6
 40
0.6
 40
1.0
 40
1.0
 40
1.0
 40
1.0
 10
-4.9345
 20
75.9833
 30
0.0
 10
-4.9345
 20
75.9833
 30
0.0
 10
-8.9321
 20
79.7532
 30
0.0
 10
-8.9321
 20
79.7532
 30
0.0
 10
-8.9321
 20
79.7532
 30
0.0
 10
-8.9321
 20
79.7532
 30
0.0
 10
-4.9345
 20
83.5231
 30
0.0
 10
-4.9345
 20
83.5231
 30
0.0
 10
-4.9345
 20
83.5231
 30
0.0
 10
-4.9345
 20
83.5231
 30
0.0
 10
-0.9369
 20
79.7532
 30
0.0
 10
-0.9369
 20
79.7532
 30
0.0
 10
-0.9369
 20
79.7532
 30
0.0
 10
-0.9369
 20
79.7532
 30
0.0
 10
-4.9345
 20
75.9833
 30
0.0
 10
-4.9345
 20
75.9833
 30
0.0
  0
SPLINE
  5
63
330
1F
100
AcDbEntity
  8
layer 1
 62
   250
100
AcDbSpline
210
0.0
220
0.0
230
1.0
 70
    11
 71
     3
 72
    60
 73
    56
 74
     0
 42
0.0000000001
 43
0.0000000001
 12
1.0
 22
0.0
 32
0.0
 13
1.0
 23
0.0
 33
0.0
 40
0.0
 40
0.0
 40
0.0
 40
0.0
 40
0.0666666666666667
 40
0.0666666666666667
 40
0.0666666666666667
 40
0.0666666666666667
 40
0.1333333333333333
 40
0.1333333333333333
 40
0.1333333333333333
 40
0.1333333333333333
 40
0.2
 40
0.2
 40
0.2
 40
0.2
 40
0.2666666666666667
 40
0.2666666666666667
 40
0.2666666666666667
 40
0.2666666666666667
 40
0.3333333333333333
 40
0.3333333333333333
 40
0.3333333333333333
 40
0.3333333333333333
 40
0.4
 40
0.4
 40
0.4
 40
0.4
 40
0.4666666666666667
 40
0.4666666666666667
 40
0.4666666666666667
 40
0.4666666666666667
 40
0.5333333333333333
 40
0.5333333333333333
 40
0.5333333333333333
 40
0.5333333333333333
 40
0.6
 40
0.6
 40
0.6
 40
0.6
 40
0.6666666666666666
 40
0.6666666666666666
 40
0.6666666666666666
 40
0.6666666666666666
 40
0.7333333333333333
 40
0.7333333333333333
 40
0.7333333333333333
 40
0.7333333333333333
 40
0.8
 40
0.8
 40
0.8
 40
0.8
 40
0.8666666666666667
 40
0.8666666666666667
 40
0.8666666666666667
 40
0.8666666666666667
 40
1.0
 40
1.0
 40
1.0
 40
1.0
 10
-4.9345
 20
86.1805
 30
0.0
 10
-4.9345
 20
86.1805
 30
0.0
 10
-12.6962
 20
86.1805
 30
0.0
 10
-12.6962
 20
86.1805
 30
0.0
 10
-12.6962
 20
86.1805
 30
0.0
 10
-12.5612
 20
86.6947
 30
0.0
 10
-12.5786
 20
87.1935
 30
0.0
 10
-12.5786
 20
87.4581
 30
0.0
 10
-12.5786
 20
87.4581
 30
0.0
 10
-12.5786
 20
88.1379
 30
0.0
 10
-13.9614
 20
88.6323
 30
0.0
 10
-13.7886
 20
89.6211
 30
0.0
 10
-13.7886
 20
89.6211
 30
0.0
 10
-13.6157
 20
90.6099
 30
0.0
 10
-11.7144
 20
89.6829
 30
0.0
 10
-11.1958
 20
90.919
 30
0.0
 10
-11.1958
 20
90.919
 30
0.0
 10
-10.6772
 20
92.155
 30
0.0
 10
-12.9819
 20
92.4022
 30
0.0
 10
-14.1919
 20
93.1438
 30
0.0
 10
-14.1919
 20
93.1438
 30
0.0
 10
-15.4019
 20
93.8854
 30
0.0
 10
-15.9204
 20
95.863
 30
0.0
 10
-14.9985
 20
96.6046
 30
0.0
 10
-14.9985
 20
96.6046
 30
0.0
 10
-14.0792
 20
97.3442
 30
0.0
 10
-6.4116
 20
103.9223
 30
0.0
 10
-4.9345
 20
111.3133
 30
0.0
 10
-4.9345
 20
111.3133
 30
0.0
 10
-3.4573
 20
103.9223
 30
0.0
 10
4.2102
 20
97.3442
 30
0.0
 10
5.1296
 20
96.6046
 30
0.0
 10
5.1296
 20
96.6046
 30
0.0
 10
6.0515
 20
95.863
 30
0.0
 10
5.5329
 20
93.8854
 30
0.0
 10
4.3229
 20
93.1438
 30
0.0
 10
4.3229
 20
93.1438
 30
0.0
 10
3.113
 20
92.4022
 30
0.0
 10
0.8083
 20
92.155
 30
0.0
 10
1.3268
 20
90.919
 30
0.0
 10
1.3268
 20
90.919
 30
0.0
 10
1.8454
 20
89.6829
 30
0.0
 10
3.7468
 20
90.6099
 30
0.0
 10
3.9196
 20
89.6211
 30
0.0
 10
3.9196
 20
89.6211
 30
0.0
 10
4.0925
 20
88.6323
 30
0.0
 10
2.7097
 20
88.1379
 30
0.0
 10
2.7097
 20
87.4581
 30
0.0
 10
2.7097
 20
87.4581
 30
0.0
 10
2.7097
 20
87.1935
 30
0.0
 10
2.6922
 20
86.6947
 30
0.0
 10
2.8273
 20
86.1805
 30
0.0
 10
2.8273
 20
86.1805
 30
0.0
 10
2.8273
 20
86.1805
 30
0.0
 10
-4.9345
 20
86.1805
 30
0.0
 10
-4.9345
 20
86.1805
 30
0.0
  0
SPLINE
  5
64
330
1F
100
AcDbEntity
  8
layer 1
 62
   250
100
AcDbSpline
210
0.0
220
0.0
230
1.0
 70
    11
 71
     3
 72
   160
 73
   156
 74
     0
 42
0.0000000001
 43
0.0000000001
 12
1.0
 22
0.0
 32
0.0
 13
1.0
 23
0.0
 33
0.0
 40
0.0
 40
0.0
 40
0.0
 40
0.0
 40
0.025
 40
0.025
 40
0.025
 40
0.025
 40
0.05
 40
0.05
 40
0.05
 40
0.05
 40
0.075
 40
0.075
 40
0.075
 40
0.075
 40
0.1
 40
0.1
 40
0.1
 40
0.1
 40
0.125
 40
0.125
 40
0.125
 40
0.125
 40
0.15
 40
0.15
 40
0.15
 40
0.15
 40
0.175
 40
0.175
 40
0.175
 40
0.175
 40
0.2
 40
0.2
 40
0.2
 40
0.2
 40
0.225
 40
0.225
 40
0.225
 40
0.225
 40
0.25
 40
0.25
 40
0.25
 40
0.25
 40
0.275
 40
0.275
 40
0.275
 40
0.275
 40
0.3
 40
0.3
 40
0.3
 40
0.3
 40
0.325
 40
0.325
 40
0.325
 40
0.325
 40
0.35
 40
0.35
 40
0.35
 40
0.35
 40
0.375
 40
0.375
 40
0.375
 40
0.375
 40
0.4
 40
0.4
 40
0.4
 40
0.4
 40
0.425
 40
0.425
 40
0.425
 40
0.425
 40
0.45
 40
0.45
 40
0.45
 40
0.45
 40
0.475
 40
0.475
 40
0.475
 40
0.475
 40
0.5
 40
0.5
 40
0.5
 40
0.5
 40
0.525
 40
0.525
 40
0.525
 40
0.525
 40
0.55
 40
0.55
 40
0.55
 40
0.55
 40
0.575
 40
0.575
 40
0.575
 40
0.575
 40
0.6
 40
0.6
 40
0.6
 40
0.6
 40
0.625
 40
0.625
 40
0.625
 40
0.625
 40
0.65
 40
0.65
 40
0.65
 40
0.65
 40
0.675
 40
0.675
 40
0.675
 40
0.675
 40
0.7
 40
0.7
 40
0.7
 40
0.7
 40
0.725
 40
0.725
 40
0.725
 40
0.725
 40
0.75
 40
0.75
 40
0.75
 40
0.75
 40
0.775
 40
0.775
 40
0.775
 40
0.775
 40
0.8
 40
0.8
 40
0.8
 40
0.8
 40
0.825
 40
0.825
 40
0.825
 40
0.825
 40
0.85
 40
0.85
 40
0.85
 40
0.85
 40
0.875
 40
0.875
 40
0.875
 40
0.875
 40
0.9
 40
0.9
 40
0.9
 40
0.9
 40
0.925
 40
0.925
 40
0.925
 40
0.925
 40
0.95
 40
0.95
 40
0.95
 40
0.95
 40
1.0
 40
1.0
 40
1.0
 40
1.0
 10
-3.8532
 20
50.9931
 30
0.0
 10
-1.4927
 20
51.0085
 30
0.0
 10
4.2198
 20
50.6695
 30
0.0
 10
8.5895
 20
47.3695
 30
0.0
 10
8.5895
 20
47.3695
 30
0.0
 10
14.0808
 20
43.2225
 30
0.0
 10
12.5423
 20
34.6923
 30
0.0
 10
9.5918
 20
30.4748
 30
0.0
 10
9.5918
 20
30.4748
 30
0.0
 10
9.5918
 20
30.4748
 30
0.0
 10
13.3193
 20
26.2301
 30
0.0
 10
13.3193
 20
26.2301
 30
0.0
 10
13.3193
 20
26.2301
 30
0.0
 10
15.1755
 20
27.8273
 30
0.0
 10
19.5815
 20
30.1893
 30
0.0
 10
23.6853
 20
28.9529
 30
0.0
 10
23.6853
 20
28.9529
 30
0.0
 10
27.4032
 20
27.8327
 30
0.0
 10
29.2127
 20
24.9749
 30
0.0
 10
29.9268
 20
23.4877
 30
0.0
 10
29.9268
 20
23.4877
 30
0.0
 10
30.0085
 20
24.8629
 30
0.0
 10
29.9724
 20
27.5455
 30
0.0
 10
28.6375
 20
28.9327
 30
0.0
 10
28.6375
 20
28.9327
 30
0.0
 10
26.7937
 20
30.8485
 30
0.0
 10
22.3572
 20
34.3093
 30
0.0
 10
20.9168
 20
38.5118
 30
0.0
 10
20.9168
 20
38.5118
 30
0.0
 10
19.4763
 20
42.7142
 30
0.0
 10
22.0115
 20
43.8267
 30
0.0
 10
20.6863
 20
46.1751
 30
0.0
 10
20.6863
 20
46.1751
 30
0.0
 10
19.3611
 20
48.5235
 30
0.0
 10
14.9245
 20
53.7148
 30
0.0
 10
13.2536
 20
55.6306
 30
0.0
 10
13.2536
 20
55.6306
 30
0.0
 10
11.5827
 20
57.5465
 30
0.0
 10
11.8132
 20
59.6477
 30
0.0
 10
11.8132
 20
59.6477
 30
0.0
 10
11.8132
 20
59.6477
 30
0.0
 10
11.8132
 20
59.6477
 30
0.0
 10
8.9899
 20
57.6083
 30
0.0
 10
5.7634
 20
58.7207
 30
0.0
 10
5.7634
 20
58.7207
 30
0.0
 10
2.5368
 20
59.8331
 30
0.0
 10
1.3268
 20
59.4005
 30
0.0
 10
1.2116
 20
57.9791
 30
0.0
 10
1.2116
 20
57.9791
 30
0.0
 10
1.0964
 20
56.5577
 30
0.0
 10
2.8825
 20
56.4959
 30
0.0
 10
3.5739
 20
56.6195
 30
0.0
 10
3.5739
 20
56.6195
 30
0.0
 10
4.2653
 20
56.743
 30
0.0
 10
3.9196
 20
53.7766
 30
0.0
 10
1.154
 20
53.2822
 30
0.0
 10
1.154
 20
53.2822
 30
0.0
 10
-1.6117
 20
52.7878
 30
0.0
 10
-2.1878
 20
56.743
 30
0.0
 10
-1.2083
 20
58.7825
 30
0.0
 10
-1.2083
 20
58.7825
 30
0.0
 10
-0.2288
 20
60.8219
 30
0.0
 10
0.2897
 20
62.0579
 30
0.0
 10
-0.2288
 20
62.4287
 30
0.0
 10
-0.2288
 20
62.4287
 30
0.0
 10
-0.7474
 20
62.7995
 30
0.0
 10
-2.5912
 20
61.8725
 30
0.0
 10
-2.2455
 20
63.4794
 30
0.0
 10
-2.2455
 20
63.4794
 30
0.0
 10
-1.8997
 20
65.0862
 30
0.0
 10
0.2321
 20
68.6706
 30
0.0
 10
1.0964
 20
69.1032
 30
0.0
 10
1.0964
 20
69.1032
 30
0.0
 10
1.9606
 20
69.5358
 30
0.0
 10
2.2487
 20
67.8054
 30
0.0
 10
2.5368
 20
66.8784
 30
0.0
 10
2.5368
 20
66.8784
 30
0.0
 10
2.8249
 20
65.9514
 30
0.0
 10
4.1501
 20
65.8278
 30
0.0
 10
4.0925
 20
67.5582
 30
0.0
 10
4.0925
 20
67.5582
 30
0.0
 10
4.0348
 20
69.2886
 30
0.0
 10
6.3972
 20
69.8448
 30
0.0
 10
6.8005
 20
69.4122
 30
0.0
 10
6.8005
 20
69.4122
 30
0.0
 10
7.2038
 20
68.9796
 30
0.0
 10
5.6481
 20
65.2716
 30
0.0
 10
7.4343
 20
63.4794
 30
0.0
 10
7.4343
 20
63.4794
 30
0.0
 10
9.2204
 20
61.6871
 30
0.0
 10
10.0271
 20
62.5523
 30
0.0
 10
10.0271
 20
62.5523
 30
0.0
 10
10.0271
 20
62.5523
 30
0.0
 10
10.0271
 20
62.5523
 30
0.0
 10
6.8581
 20
69.2268
 30
0.0
 10
8.8171
 20
77.5082
 30
0.0
 10
8.8171
 20
77.5082
 30
0.0
 10
10.7761
 20
85.7895
 30
0.0
 10
17.9783
 20
87.2727
 30
0.0
 10
17.9783
 20
87.2727
 30
0.0
 10
17.9783
 20
87.2727
 30
0.0
 10
17.9783
 20
87.2727
 30
0.0
 10
13.3113
 20
89.6829
 30
0.0
 10
9.2204
 20
93.5146
 30
0.0
 10
9.2204
 20
93.5146
 30
0.0
 10
9.2204
 20
93.5146
 30
0.0
 10
9.3933
 20
91.9078
 30
0.0
 10
9.1628
 20
91.0426
 30
0.0
 10
9.1628
 20
91.0426
 30
0.0
 10
9.1628
 20
91.0426
 30
0.0
 10
11.1218
 20
91.1662
 30
0.0
 10
11.237
 20
89.9919
 30
0.0
 10
11.237
 20
89.9919
 30
0.0
 10
11.3523
 20
88.8177
 30
0.0
 10
10.5456
 20
87.3345
 30
0.0
 10
8.6442
 20
88.4469
 30
0.0
 10
8.6442
 20
88.4469
 30
0.0
 10
8.6442
 20
88.4469
 30
0.0
 10
8.0398
 20
85.2075
 30
0.0
 10
5.9968
 20
84.5919
 30
0.0
 10
5.9968
 20
84.5919
 30
0.0
 10
5.9968
 20
84.5919
 30
0.0
 10
5.9968
 20
83.6467
 30
0.0
 10
5.9968
 20
83.6467
 30
0.0
 10
5.9968
 20
83.6467
 30
0.0
 10
5.9968
 20
83.6467
 30
0.0
 10
5.9968
 20
83.5353
 30
0.0
 10
5.9968
 20
83.5353
 30
0.0
 10
5.9968
 20
83.5353
 30
0.0
 10
5.9968
 20
83.5353
 30
0.0
 10
5.9968
 20
75.9711
 30
0.0
 10
5.9968
 20
75.9711
 30
0.0
 10
5.9968
 20
75.9711
 30
0.0
 10
5.9968
 20
75.9711
 30
0.0
 10
5.9968
 20
75.8597
 30
0.0
 10
5.9968
 20
75.8597
 30
0.0
 10
5.9968
 20
75.8597
 30
0.0
 10
5.9968
 20
75.8597
 30
0.0
 10
5.9968
 20
74.5928
 30
0.0
 10
5.9968
 20
74.5928
 30
0.0
 10
5.9968
 20
74.5928
 30
0.0
 10
5.9968
 20
74.5928
 30
0.0
 10
5.9968
 20
73.3259
 30
0.0
 10
5.9968
 20
73.3259
 30
0.0
 10
5.9968
 20
73.3259
 30
0.0
 10
5.9968
 20
73.3259
 30
0.0
 10
4.6716
 20
73.3259
 30
0.0
 10
4.6716
 20
73.3259
 30
0.0
 10
4.6716
 20
73.3259
 30
0.0
 10
4.6716
 20
73.3259
 30
0.0
 10
-2.994
 20
73.3259
 30
0.0
 10
-2.994
 20
73.3259
 30
0.0
 10
-2.994
 20
73.3259
 30
0.0
 10
-2.994
 20
73.3259
 30
0.0
 10
-3.8532
 20
50.9931
 30
0.0
 10
-3.8532
 20
50.9931
 30
0.0
  0
SPLINE
  5
65
330
1F
100
AcDbEntity
  8
layer 1
 62
   250
100
AcDbSpline
210
0.0
220
0.0
230
1.0
 70
    11
 71
     3
 72
    16
 73
    12
 74
     0
 42
0.0000000001
 43
0.0000000001
 12
1.0
 22
0.0
 32
0.0
 13
1.0
 23
0.0
 33
0.0
 40
0.0
 40
0.0
 40
0.0
 40
0.0
 40
0.25
 40
0.25
 40
0.25
 40
0.25
 40
0.5
 40
0.5
 40
0.5
 40
0.5
 40
1.0
 40
1.0
 40
1.0
 40
1.0
 10
-2.1424
 20
75.8597
 30
0.0
 10
-2.1424
 20
75.8597
 30
0.0
 10
3.1918
 20
75.8597
 30
0.0
 10
3.1918
 20
75.8597
 30
0.0
 10
3.1918
 20
75.8597
 30
0.0
 10
3.1918
 20
75.8597
 30
0.0
 10
0.5247
 20
78.3749
 30
0.0
 10
0.5247
 20
78.3749
 30
0.0
 10
0.5247
 20
78.3749
 30
0.0
 10
0.5247
 20
78.3749
 30
0.0
 10
-2.1424
 20
75.8597
 30
0.0
 10
-2.1424
 20
75.8597
 30
0.0
  0
SPLINE
  5
66
330
1F
100
AcDbEntity
  8
layer 1
 62
   250
100
AcDbSpline
210
0.0
220
0.0
230
1.0
 70
    11
 71
     3
 72
    16
 73
    12
 74
     0
 42
0.0000000001
 43
0.0000000001
 12
1.0
 22
0.0
 32
0.0
 13
1.0
 23
0.0
 33
0.0
 40
0.0
 40
0.0
 40
0.0
 40
0.0
 40
0.25
 40
0.25
 40
0.25
 40
0.25
 40
0.5
 40
0.5
 40
0.5
 40
0.5
 40
1.0
 40
1.0
 40
1.0
 40
1.0
 10
4.6716
 20
77.2208
 30
0.0
 10
4.6716
 20
77.2208
 30
0.0
 10
4.6716
 20
82.2855
 30
0.0
 10
4.6716
 20
82.2855
 30
0.0
 10
4.6716
 20
82.2855
 30
0.0
 10
4.6716
 20
82.2855
 30
0.0
 10
1.9863
 20
79.7532
 30
0.0
 10
1.9863
 20
79.7532
 30
0.0
 10
1.9863
 20
79.7532
 30
0.0
 10
1.9863
 20
79.7532
 30
0.0
 10
4.6716
 20
77.2208
 30
0.0
 10
4.6716
 20
77.2208
 30
0.0
  0
SPLINE
  5
67
330
1F
100
AcDbEntity
  8
layer 1
 62
   250
100
AcDbSpline
210
0.0
220
0.0
230
1.0
 70
    11
 71
     3
 72
    16
 73
    12
 74
     0
 42
0.0000000001
 43
0.0000000001
 12
1.0
 22
0.0
 32
0.0
 13
1.0
 23
0.0
 33
0.0
 40
0.0
 40
0.0
 40
0.0
 40
0.0
 40
0.25
 40
0.25
 40
0.25
 40
0.25
 40
0.5
 40
0.5
 40
0.5
 40
0.5
 40
1.0
 40
1.0
 40
1.0
 40
1.0
 10
3.1918
 20
83.6467
 30
0.0
 10
3.1918
 20
83.6467
 30
0.0
 10
-2.1424
 20
83.6467
 30
0.0
 10
-2.1424
 20
83.6467
 30
0.0
 10
-2.1424
 20
83.6467
 30
0.0
 10
-2.1424
 20
83.6467
 30
0.0
 10
0.5247
 20
81.1315
 30
0.0
 10
0.5247
 20
81.1315
 30
0.0
 10
0.5247
 20
81.1315
 30
0.0
 10
0.5247
 20
81.1315
 30
0.0
 10
3.1918
 20
83.6467
 30
0.0
 10
3.1918
 20
83.6467
 30
0.0
  0
SPLINE
  5
68
330
1F
100
AcDbEntity
  8
layer 1
 62
   250
100
AcDbSpline
210
0.0
220
0.0
230
1.0
 70
    11
 71
     3
 72
    84
 73
    80
 74
     0
 42
0.0000000001
 43
0.0000000001
 12
1.0
 22
0.0
 32
0.0
 13
1.0
 23
0.0
 33
0.0
 40
0.0
 40
0.0
 40
0.0
 40
0.0
 40
0.0476190476190476
 40
0.0476190476190476
 40
0.0476190476190476
 40
0.0476190476190476
 40
0.0952380952380952
 40
0.0952380952380952
 40
0.0952380952380952
 40
0.0952380952380952
 40
0.1428571428571428
 40
0.1428571428571428
 40
0.1428571428571428
 40
0.1428571428571428
 40
0.1904761904761905
 40
0.1904761904761905
 40
0.1904761904761905
 40
0.1904761904761905
 40
0.2380952380952381
 40
0.2380952380952381
 40
0.2380952380952381
 40
0.2380952380952381
 40
0.2857142857142857
 40
0.2857142857142857
 40
0.2857142857142857
 40
0.2857142857142857
 40
0.3333333333333333
 40
0.3333333333333333
 40
0.3333333333333333
 40
0.3333333333333333
 40
0.3809523809523809
 40
0.3809523809523809
 40
0.3809523809523809
 40
0.3809523809523809
 40
0.4285714285714285
 40
0.4285714285714285
 40
0.4285714285714285
 40
0.4285714285714285
 40
0.4761904761904762
 40
0.4761904761904762
 40
0.4761904761904762
 40
0.4761904761904762
 40
0.5238095238095238
 40
0.5238095238095238
 40
0.5238095238095238
 40
0.5238095238095238
 40
0.5714285714285714
 40
0.5714285714285714
 40
0.5714285714285714
 40
0.5714285714285714
 40
0.6190476190476191
 40
0.6190476190476191
 40
0.6190476190476191
 40
0.6190476190476191
 40
0.6666666666666666
 40
0.6666666666666666
 40
0.6666666666666666
 40
0.6666666666666666
 40
0.7142857142857143
 40
0.7142857142857143
 40
0.7142857142857143
 40
0.7142857142857143
 40
0.7619047619047619
 40
0.7619047619047619
 40
0.7619047619047619
 40
0.7619047619047619
 40
0.8095238095238095
 40
0.8095238095238095
 40
0.8095238095238095
 40
0.8095238095238095
 40
0.8571428571428571
 40
0.8571428571428571
 40
0.8571428571428571
 40
0.8571428571428571
 40
0.9047619047619048
 40
0.9047619047619048
 40
0.9047619047619048
 40
0.9047619047619048
 40
1.0
 40
1.0
 40
1.0
 40
1.0
 10
-2.2714
 20
-58.8662
 30
0.0
 10
-2.2714
 20
-58.8662
 30
0.0
 10
-2.2714
 20
-84.8226
 30
0.0
 10
-2.2714
 20
-84.8226
 30
0.0
 10
-2.2714
 20
-84.8226
 30
0.0
 10
-2.2714
 20
-84.8226
 30
0.0
 10
6.0544
 20
-77.5301
 30
0.0
 10
5.7087
 20
-76.0778
 30
0.0
 10
5.7087
 20
-76.0778
 30
0.0
 10
5.363
 20
-74.6254
 30
0.0
 10
3.3175
 20
-74.1001
 30
0.0
 10
1.9923
 20
-73.7911
 30
0.0
 10
1.9923
 20
-73.7911
 30
0.0
 10
0.6671
 20
-73.4821
 30
0.0
 10
1.0993
 20
-71.5045
 30
0.0
 10
2.194
 20
-71.1646
 30
0.0
 10
2.194
 20
-71.1646
 30
0.0
 10
3.2887
 20
-70.8247
 30
0.0
 10
5.1613
 20
-72.9259
 30
0.0
 10
5.1613
 20
-72.9259
 30
0.0
 10
5.1613
 20
-72.9259
 30
0.0
 10
5.5934
 20
-71.4427
 30
0.0
 10
2.1076
 20
-69.6196
 30
0.0
 10
2.05
 20
-68.3217
 30
0.0
 10
2.05
 20
-68.3217
 30
0.0
 10
1.9923
 20
-67.0239
 30
0.0
 10
4.2394
 20
-64.7373
 30
0.0
 10
6.2272
 20
-65.2935
 30
0.0
 10
6.2272
 20
-65.2935
 30
0.0
 10
8.215
 20
-65.8497
 30
0.0
 10
7.7253
 20
-70.3303
 30
0.0
 10
7.7253
 20
-70.3303
 30
0.0
 10
7.7253
 20
-70.3303
 30
0.0
 10
10.7502
 20
-67.5492
 30
0.0
 10
12.4787
 20
-69.0943
 30
0.0
 10
10.6349
 20
-70.8556
 30
0.0
 10
10.6349
 20
-70.8556
 30
0.0
 10
8.7912
 20
-72.6169
 30
0.0
 10
8.676
 20
-74.7181
 30
0.0
 10
8.9929
 20
-74.7181
 30
0.0
 10
8.9929
 20
-74.7181
 30
0.0
 10
9.3098
 20
-74.7181
 30
0.0
 10
17.4626
 20
-68.4454
 30
0.0
 10
17.4626
 20
-68.4454
 30
0.0
 10
17.4626
 20
-68.4454
 30
0.0
 10
6.1696
 20
-63.9339
 30
0.0
 10
7.4372
 20
-51.481
 30
0.0
 10
7.4372
 20
-49.1635
 30
0.0
 10
7.4372
 20
-49.1635
 30
0.0
 10
7.4372
 20
-46.8459
 30
0.0
 10
1.9923
 20
-45.3627
 30
0.0
 10
0.9264
 20
-47.124
 30
0.0
 10
0.9264
 20
-47.124
 30
0.0
 10
-0.1395
 20
-48.8854
 30
0.0
 10
-1.1478
 20
-49.3798
 30
0.0
 10
-1.1478
 20
-49.3798
 30
0.0
 10
-1.1478
 20
-49.3798
 30
0.0
 10
-2.7323
 20
-47.8657
 30
0.0
 10
-1.6087
 20
-44.8683
 30
0.0
 10
-1.8104
 20
-44.4048
 30
0.0
 10
-1.8104
 20
-44.4048
 30
0.0
 10
-2.0121
 20
-43.9413
 30
0.0
 10
-3.5677
 20
-44.7447
 30
0.0
 10
-3.5677
 20
-44.7447
 30
0.0
 10
-3.5677
 20
-44.7447
 30
0.0
 10
-3.5677
 20
-44.7447
 30
0.0
 10
-3.8846
 20
-43.7868
 30
0.0
 10
-3.7982
 20
-42.8289
 30
0.0
 10
-3.7982
 20
-42.8289
 30
0.0
 10
-3.7584
 20
-42.3879
 30
0.0
 10
-3.9987
 20
-42.0452
 30
0.0
 10
-4.2697
 20
-41.7585
 30
0.0
 10
-4.2697
 20
-41.7585
 30
0.0
 10
-4.352
 20
-44.4063
 30
0.0
 10
-4.383
 20
-47.2305
 30
0.0
 10
-4.2303
 20
-48.8545
 30
0.0
 10
-4.2303
 20
-48.8545
 30
0.0
 10
-3.8846
 20
-52.5316
 30
0.0
 10
-2.2714
 20
-57.8156
 30
0.0
 10
-2.2714
 20
-58.8662
 30
0.0
  0
SPLINE
  5
69
330
1F
100
AcDbEntity
  8
layer 1
 62
   250
100
AcDbSpline
210
0.0
220
0.0
230
1.0
 70
    11
 71
     3
 72
   160
 73
   156
 74
     0
 42
0.0000000001
 43
0.0000000001
 12
1.0
 22
0.0
 32
0.0
 13
1.0
 23
0.0
 33
0.0
 40
0.0
 40
0.0
 40
0.0
 40
0.0
 40
0.025
 40
0.025
 40
0.025
 40
0.025
 40
0.05
 40
0.05
 40
0.05
 40
0.05
 40
0.075
 40
0.075
 40
0.075
 40
0.075
 40
0.1
 40
0.1
 40
0.1
 40
0.1
 40
0.125
 40
0.125
 40
0.125
 40
0.125
 40
0.15
 40
0.15
 40
0.15
 40
0.15
 40
0.175
 40
0.175
 40
0.175
 40
0.175
 40
0.2
 40
0.2
 40
0.2
 40
0.2
 40
0.225
 40
0.225
 40
0.225
 40
0.225
 40
0.25
 40
0.25
 40
0.25
 40
0.25
 40
0.275
 40
0.275
 40
0.275
 40
0.275
 40
0.3
 40
0.3
 40
0.3
 40
0.3
 40
0.325
 40
0.325
 40
0.325
 40
0.325
 40
0.35
 40
0.35
 40
0.35
 40
0.35
 40
0.375
 40
0.375
 40
0.375
 40
0.375
 40
0.4
 40
0.4
 40
0.4
 40
0.4
 40
0.425
 40
0.425
 40
0.425
 40
0.425
 40
0.45
 40
0.45
 40
0.45
 40
0.45
 40
0.475
 40
0.475
 40
0.475
 40
0.475
 40
0.5
 40
0.5
 40
0.5
 40
0.5
 40
0.525
 40
0.525
 40
0.525
 40
0.525
 40
0.55
 40
0.55
 40
0.55
 40
0.55
 40
0.575
 40
0.575
 40
0.575
 40
0.575
 40
0.6
 40
0.6
 40
0.6
 40
0.6
 40
0.625
 40
0.625
 40
0.625
 40
0.625
 40
0.65
 40
0.65
 40
0.65
 40
0.65
 40
0.675
 40
0.675
 40
0.675
 40
0.675
 40
0.7
 40
0.7
 40
0.7
 40
0.7
 40
0.725
 40
0.725
 40
0.725
 40
0.725
 40
0.75
 40
0.75
 40
0.75
 40
0.75
 40
0.775
 40
0.775
 40
0.775
 40
0.775
 40
0.8
 40
0.8
 40
0.8
 40
0.8
 40
0.825
 40
0.825
 40
0.825
 40
0.825
 40
0.85
 40
0.85
 40
0.85
 40
0.85
 40
0.875
 40
0.875
 40
0.875
 40
0.875
 40
0.9
 40
0.9
 40
0.9
 40
0.9
 40
0.925
 40
0.925
 40
0.925
 40
0.925
 40
0.95
 40
0.95
 40
0.95
 40
0.95
 40
1.0
 40
1.0
 40
1.0
 40
1.0
 10
-3.98
 20
-24.9122
 30
0.0
 10
-3.98
 20
-24.9122
 30
0.0
 10
-2.3676
 20
-23.4485
 30
0.0
 10
-2.3676
 20
-23.4485
 30
0.0
 10
-2.3676
 20
-23.4485
 30
0.0
 10
-2.3676
 20
-23.4485
 30
0.0
 10
-2.1924
 20
-25.7064
 30
0.0
 10
-2.1924
 20
-25.7064
 30
0.0
 10
-2.1924
 20
-25.7064
 30
0.0
 10
-2.1924
 20
-25.7064
 30
0.0
 10
-0.1806
 20
-25.0159
 30
0.0
 10
-0.1806
 20
-25.0159
 30
0.0
 10
-0.1806
 20
-25.0159
 30
0.0
 10
-0.1806
 20
-25.0159
 30
0.0
 10
-0.8243
 20
-27.1738
 30
0.0
 10
-0.8243
 20
-27.1738
 30
0.0
 10
-0.8243
 20
-27.1738
 30
0.0
 10
-0.8243
 20
-27.1738
 30
0.0
 10
1.2807
 20
-27.3617
 30
0.0
 10
1.2807
 20
-27.3617
 30
0.0
 10
1.2807
 20
-27.3617
 30
0.0
 10
1.2807
 20
-27.3617
 30
0.0
 10
-0.0839
 20
-29.0912
 30
0.0
 10
-0.0839
 20
-29.0912
 30
0.0
 10
-0.0839
 20
-29.0912
 30
0.0
 10
-0.0839
 20
-29.0912
 30
0.0
 10
1.7939
 20
-30.1288
 30
0.0
 10
1.7939
 20
-30.1288
 30
0.0
 10
1.7939
 20
-30.1288
 30
0.0
 10
1.7939
 20
-30.1288
 30
0.0
 10
-0.0839
 20
-31.1664
 30
0.0
 10
-0.0839
 20
-31.1664
 30
0.0
 10
-0.0839
 20
-31.1664
 30
0.0
 10
-0.0839
 20
-31.1664
 30
0.0
 10
1.2807
 20
-32.8959
 30
0.0
 10
1.2807
 20
-32.8959
 30
0.0
 10
1.2807
 20
-32.8959
 30
0.0
 10
1.2807
 20
-32.8959
 30
0.0
 10
-0.8243
 20
-33.0838
 30
0.0
 10
-0.8243
 20
-33.0838
 30
0.0
 10
-0.8243
 20
-33.0838
 30
0.0
 10
-0.8243
 20
-33.0838
 30
0.0
 10
-0.1806
 20
-35.2417
 30
0.0
 10
-0.1806
 20
-35.2417
 30
0.0
 10
-0.1806
 20
-35.2417
 30
0.0
 10
-0.1806
 20
-35.2417
 30
0.0
 10
-2.1924
 20
-34.5513
 30
0.0
 10
-2.1924
 20
-34.5513
 30
0.0
 10
-2.1924
 20
-34.5513
 30
0.0
 10
-2.1924
 20
-34.5513
 30
0.0
 10
-2.3676
 20
-36.8091
 30
0.0
 10
-2.3676
 20
-36.8091
 30
0.0
 10
-2.3676
 20
-36.8091
 30
0.0
 10
-2.3676
 20
-36.8091
 30
0.0
 10
-3.98
 20
-35.3454
 30
0.0
 10
-3.98
 20
-35.3454
 30
0.0
 10
-3.98
 20
-35.3454
 30
0.0
 10
-3.98
 20
-35.3454
 30
0.0
 10
-4.1114
 20
-37.5142
 30
0.0
 10
-4.2151
 20
-40.1955
 30
0.0
 10
-4.2151
 20
-40.1955
 30
0.0
 10
-3.9487
 20
-40.05
 30
0.0
 10
-3.7118
 20
-39.9551
 30
0.0
 10
-3.7118
 20
-39.9551
 30
0.0
 10
-3.7118
 20
-39.9551
 30
0.0
 10
-3.9134
 20
-38.1938
 30
0.0
 10
-2.329
 20
-37.6067
 30
0.0
 10
-2.329
 20
-37.6067
 30
0.0
 10
-2.329
 20
-37.6067
 30
0.0
 10
-2.329
 20
-37.6067
 30
0.0
 10
-1.9544
 20
-39.9551
 30
0.0
 10
-0.7445
 20
-39.986
 30
0.0
 10
-0.7445
 20
-39.986
 30
0.0
 10
0.4655
 20
-40.0169
 30
0.0
 10
-0.1683
 20
-37.6067
 30
0.0
 10
0.5519
 20
-35.0111
 30
0.0
 10
0.5519
 20
-35.0111
 30
0.0
 10
1.2721
 20
-32.4154
 30
0.0
 10
4.3835
 20
-32.2609
 30
0.0
 10
5.6222
 20
-34.3313
 30
0.0
 10
5.6222
 20
-34.3313
 30
0.0
 10
6.861
 20
-36.4016
 30
0.0
 10
5.4494
 20
-38.6573
 30
0.0
 10
5.4494
 20
-38.6573
 30
0.0
 10
5.4494
 20
-38.6573
 30
0.0
 10
3.3752
 20
-34.1149
 30
0.0
 10
0.7824
 20
-36.5252
 30
0.0
 10
2.3957
 20
-39.9242
 30
0.0
 10
2.3957
 20
-39.9242
 30
0.0
 10
4.0089
 20
-43.3233
 30
0.0
 10
9.1081
 20
-45.6408
 30
0.0
 10
9.1081
 20
-45.6408
 30
0.0
 10
9.1081
 20
-45.6408
 30
0.0
 10
10.3181
 20
-40.1405
 30
0.0
 10
15.9646
 20
-32.2609
 30
0.0
 10
15.9646
 20
-32.2609
 30
0.0
 10
15.9646
 20
-32.2609
 30
0.0
 10
15.9646
 20
-32.2609
 30
0.0
 10
11.0959
 20
-33.5896
 30
0.0
 10
7.1491
 20
-31.612
 30
0.0
 10
7.1491
 20
-31.612
 30
0.0
 10
3.2023
 20
-29.6344
 30
0.0
 10
3.9801
 20
-23.6706
 30
0.0
 10
5.9968
 20
-21.3222
 30
0.0
 10
5.9968
 20
-21.3222
 30
0.0
 10
8.0134
 20
-18.9737
 30
0.0
 10
12.7668
 20
-20.1479
 30
0.0
 10
12.8244
 20
-23.7633
 30
0.0
 10
12.8244
 20
-23.7633
 30
0.0
 10
12.882
 20
-27.3787
 30
0.0
 10
9.3098
 20
-28.6147
 30
0.0
 10
8.7912
 20
-27.6877
 30
0.0
 10
8.7912
 20
-27.6877
 30
0.0
 10
8.2726
 20
-26.7606
 30
0.0
 10
9.3674
 20
-26.2044
 30
0.0
 10
9.7995
 20
-24.474
 30
0.0
 10
9.7995
 20
-24.474
 30
0.0
 10
10.2316
 20
-22.7436
 30
0.0
 10
7.5524
 20
-21.9093
 30
0.0
 10
6.861
 20
-23.8869
 30
0.0
 10
6.861
 20
-23.8869
 30
0.0
 10
6.1696
 20
-25.8645
 30
0.0
 10
6.112
 20
-29.8816
 30
0.0
 10
12.2194
 20
-29.9434
 30
0.0
 10
12.2194
 20
-29.9434
 30
0.0
 10
18.3269
 20
-30.0052
 30
0.0
 10
20.7468
 20
-24.8139
 30
0.0
 10
20.7468
 20
-24.8139
 30
0.0
 10
20.7468
 20
-24.8139
 30
0.0
 10
18.5574
 20
-17.8922
 30
0.0
 10
23.9158
 20
-17.027
 30
0.0
 10
26.6814
 20
-13.628
 30
0.0
 10
26.6814
 20
-13.628
 30
0.0
 10
29.447
 20
-10.2289
 30
0.0
 10
29.2166
 20
-5.7174
 30
0.0
 10
29.2166
 20
-5.7174
 30
0.0
 10
29.2166
 20
-5.7174
 30
0.0
 10
20.4587
 20
-12.5155
 30
0.0
 10
15.5612
 20
-6.459
 30
0.0
 10
15.5612
 20
-6.459
 30
0.0
 10
15.5612
 20
-6.459
 30
0.0
 10
14.4665
 20
-9.9199
 30
0.0
 10
11.4128
 20
-9.9199
 30
0.0
 10
11.4128
 20
-9.9199
 30
0.0
 10
11.4128
 20
-9.9199
 30
0.0
 10
6.3887
 20
-17.3932
 30
0.0
 10
1.31
 20
-13.6005
 30
0.0
 10
-0.334
 20
-12.0197
 30
0.0
 10
-0.334
 20
-12.0197
 30
0.0
 10
-0.334
 20
-12.0197
 30
0.0
 10
-3.8073
 20
-15.975
 30
0.0
 10
-3.8073
 20
-15.975
 30
0.0
 10
-3.8073
 20
-15.975
 30
0.0
 10
-3.8073
 20
-15.975
 30
0.0
 10
-3.98
 20
-24.9122
 30
0.0
 10
-3.98
 20
-24.9122
 30
0.0
  0
SPLINE
  5
6A
330
1F
100
AcDbEntity
  8
layer 1
 62
   250
100
AcDbSpline
210
0.0
220
0.0
230
1.0
 70
    11
 71
     3
 72
    20
 73
    16
 74
     0
 42
0.0000000001
 43
0.0000000001
 12
1.0
 22
0.0
 32
0.0
 13
1.0
 23
0.0
 33
0.0
 40
0.0
 40
0.0
 40
0.0
 40
0.0
 40
0.2
 40
0.2
 40
0.2
 40
0.2
 40
0.4
 40
0.4
 40
0.4
 40
0.4
 40
0.6
 40
0.6
 40
0.6
 40
0.6
 40
1.0
 40
1.0
 40
1.0
 40
1.0
 10
8.5887
 20
-1.8589
 30
0.0
 10
8.5887
 20
-1.8589
 30
0.0
 10
5.5368
 20
-5.3343
 30
0.0
 10
5.5368
 20
-5.3343
 30
0.0
 10
5.5368
 20
-5.3343
 30
0.0
 10
6.4853
 20
-6.1276
 30
0.0
 10
8.4475
 20
-7.536
 30
0.0
 10
10.4909
 20
-7.6024
 30
0.0
 10
10.4909
 20
-7.6024
 30
0.0
 10
13.343
 20
-7.6951
 30
0.0
 10
13.7463
 20
-5.0067
 30
0.0
 10
13.7463
 20
-5.0067
 30
0.0
 10
13.7463
 20
-5.0067
 30
0.0
 10
11.8492
 20
-4.3511
 30
0.0
 10
9.6385
 20
-2.6985
 30
0.0
 10
8.5887
 20
-1.8589
 30
0.0
  0
SPLINE
  5
6B
330
1F
100
AcDbEntity
  8
layer 1
 62
   250
100
AcDbSpline
210
0.0
220
0.0
230
1.0
 70
    11
 71
     3
 72
    16
 73
    12
 74
     0
 42
0.0000000001
 43
0.0000000001
 12
1.0
 22
0.0
 32
0.0
 13
1.0
 23
0.0
 33
0.0
 40
0.0
 40
0.0
 40
0.0
 40
0.0
 40
0.25
 40
0.25
 40
0.25
 40
0.25
 40
0.5
 40
0.5
 40
0.5
 40
0.5
 40
1.0
 40
1.0
 40
1.0
 40
1.0
 10
4.3171
 20
-6.7232
 30
0.0
 10
4.3171
 20
-6.7232
 30
0.0
 10
1.0271
 20
-10.4698
 30
0.0
 10
1.0271
 20
-10.4698
 30
0.0
 10
1.0271
 20
-10.4698
 30
0.0
 10
6.3455
 20
-14.4565
 30
0.0
 10
8.8488
 20
-9.1783
 30
0.0
 10
8.8488
 20
-9.1783
 30
0.0
 10
8.8488
 20
-9.1783
 30
0.0
 10
6.437
 20
-8.6445
 30
0.0
 10
5.0061
 20
-7.4589
 30
0.0
 10
4.3171
 20
-6.7232
 30
0.0
  0
SPLINE
  5
6C
330
1F
100
AcDbEntity
  8
layer 1
 62
   250
100
AcDbSpline
210
0.0
220
0.0
230
1.0
 70
    11
 71
     3
 72
    28
 73
    24
 74
     0
 42
0.0000000001
 43
0.0000000001
 12
1.0
 22
0.0
 32
0.0
 13
1.0
 23
0.0
 33
0.0
 40
0.0
 40
0.0
 40
0.0
 40
0.0
 40
0.1428571428571428
 40
0.1428571428571428
 40
0.1428571428571428
 40
0.1428571428571428
 40
0.2857142857142857
 40
0.2857142857142857
 40
0.2857142857142857
 40
0.2857142857142857
 40
0.4285714285714285
 40
0.4285714285714285
 40
0.4285714285714285
 40
0.4285714285714285
 40
0.5714285714285714
 40
0.5714285714285714
 40
0.5714285714285714
 40
0.5714285714285714
 40
0.7142857142857143
 40
0.7142857142857143
 40
0.7142857142857143
 40
0.7142857142857143
 40
1.0
 40
1.0
 40
1.0
 40
1.0
 10
20.1706
 20
-48.2365
 30
0.0
 10
20.1706
 20
-48.2365
 30
0.0
 10
17.2898
 20
-48.1129
 30
0.0
 10
15.6189
 20
-52.4389
 30
0.0
 10
15.6189
 20
-52.4389
 30
0.0
 10
15.6189
 20
-52.4389
 30
0.0
 10
13.3718
 20
-53.0569
 30
0.0
 10
11.7009
 20
-51.6355
 30
0.0
 10
11.7009
 20
-51.6355
 30
0.0
 10
11.7009
 20
-51.6355
 30
0.0
 10
12.738
 20
-50.2141
 30
0.0
 10
14.2937
 20
-49.2253
 30
0.0
 10
14.2937
 20
-49.2253
 30
0.0
 10
14.2937
 20
-49.2253
 30
0.0
 10
12.738
 20
-47.742
 30
0.0
 10
11.0095
 20
-47.0004
 30
0.0
 10
11.0095
 20
-47.0004
 30
0.0
 10
11.0095
 20
-47.0004
 30
0.0
 10
14.1784
 20
-38.5955
 30
0.0
 10
17.8083
 20
-34.1459
 30
0.0
 10
17.8083
 20
-34.1459
 30
0.0
 10
17.8083
 20
-34.1459
 30
0.0
 10
14.1208
 20
-43.2306
 30
0.0
 10
20.1706
 20
-48.2365
 30
0.0
  0
SPLINE
  5
6D
330
1F
100
AcDbEntity
  8
layer 1
 62
   250
100
AcDbSpline
210
0.0
220
0.0
230
1.0
 70
    11
 71
     3
 72
    64
 73
    60
 74
     0
 42
0.0000000001
 43
0.0000000001
 12
1.0
 22
0.0
 32
0.0
 13
1.0
 23
0.0
 33
0.0
 40
0.0
 40
0.0
 40
0.0
 40
0.0
 40
0.0625
 40
0.0625
 40
0.0625
 40
0.0625
 40
0.125
 40
0.125
 40
0.125
 40
0.125
 40
0.1875
 40
0.1875
 40
0.1875
 40
0.1875
 40
0.25
 40
0.25
 40
0.25
 40
0.25
 40
0.3125
 40
0.3125
 40
0.3125
 40
0.3125
 40
0.375
 40
0.375
 40
0.375
 40
0.375
 40
0.4375
 40
0.4375
 40
0.4375
 40
0.4375
 40
0.5
 40
0.5
 40
0.5
 40
0.5
 40
0.5625
 40
0.5625
 40
0.5625
 40
0.5625
 40
0.625
 40
0.625
 40
0.625
 40
0.625
 40
0.6875
 40
0.6875
 40
0.6875
 40
0.6875
 40
0.75
 40
0.75
 40
0.75
 40
0.75
 40
0.8125
 40
0.8125
 40
0.8125
 40
0.8125
 40
0.875
 40
0.875
 40
0.875
 40
0.875
 40
1.0
 40
1.0
 40
1.0
 40
1.0
 10
9.6843
 20
-53.9839
 30
0.0
 10
9.6843
 20
-53.9839
 30
0.0
 10
10.5535
 20
-64.0877
 30
0.0
 10
18.8454
 20
-65.7261
 30
0.0
 10
18.8454
 20
-65.7261
 30
0.0
 10
27.1374
 20
-67.3645
 30
0.0
 10
31.406
 20
-59.6078
 30
0.0
 10
29.1013
 20
-54.2929
 30
0.0
 10
29.1013
 20
-54.2929
 30
0.0
 10
26.7966
 20
-48.9781
 30
0.0
 10
21.6111
 20
-50.0905
 30
0.0
 10
20.862
 20
-52.8715
 30
0.0
 10
20.862
 20
-52.8715
 30
0.0
 10
20.113
 20
-55.6526
 30
0.0
 10
20.8044
 20
-55.529
 30
0.0
 10
21.9568
 20
-56.8268
 30
0.0
 10
21.9568
 20
-56.8268
 30
0.0
 10
23.1091
 20
-58.1246
 30
0.0
 10
22.3601
 20
-59.7314
 30
0.0
 10
20.7468
 20
-59.7932
 30
0.0
 10
20.7468
 20
-59.7932
 30
0.0
 10
19.1335
 20
-59.855
 30
0.0
 10
18.154
 20
-57.9392
 30
0.0
 10
18.154
 20
-57.383
 30
0.0
 10
18.154
 20
-57.383
 30
0.0
 10
18.154
 20
-56.8268
 30
0.0
 10
17.5779
 20
-58.1864
 30
0.0
 10
18.2981
 20
-59.2061
 30
0.0
 10
18.2981
 20
-59.2061
 30
0.0
 10
19.0183
 20
-60.2258
 30
0.0
 10
18.5862
 20
-61.5854
 30
0.0
 10
17.2898
 20
-61.5236
 30
0.0
 10
17.2898
 20
-61.5236
 30
0.0
 10
15.9934
 20
-61.4618
 30
0.0
 10
15.7341
 20
-60.2876
 30
0.0
 10
14.9274
 20
-60.8129
 30
0.0
 10
14.9274
 20
-60.8129
 30
0.0
 10
14.1208
 20
-61.3382
 30
0.0
 10
13.4582
 20
-60.5348
 30
0.0
 10
13.4006
 20
-59.5151
 30
0.0
 10
13.4006
 20
-59.5151
 30
0.0
 10
13.343
 20
-58.4954
 30
0.0
 10
12.2194
 20
-58.4954
 30
0.0
 10
11.9602
 20
-59.1134
 30
0.0
 10
11.9602
 20
-59.1134
 30
0.0
 10
11.9602
 20
-59.1134
 30
0.0
 10
11.4128
 20
-58.619
 30
0.0
 10
11.9025
 20
-57.5993
 30
0.0
 10
11.9025
 20
-57.5993
 30
0.0
 10
12.3923
 20
-56.5796
 30
0.0
 10
13.4294
 20
-57.4139
 30
0.0
 10
13.4294
 20
-57.4139
 30
0.0
 10
13.4294
 20
-57.4139
 30
0.0
 10
13.4294
 20
-57.4139
 30
0.0
 10
13.2854
 20
-55.838
 30
0.0
 10
13.4582
 20
-55.4363
 30
0.0
 10
13.4582
 20
-55.4363
 30
0.0
 10
13.6311
 20
-55.0345
 30
0.0
 10
11.7009
 20
-56.1161
 30
0.0
 10
9.6843
 20
-53.9839
 30
0.0
  0
SPLINE
  5
6E
330
1F
100
AcDbEntity
  8
layer 1
 62
   250
100
AcDbSpline
210
0.0
220
0.0
230
1.0
 70
    11
 71
     3
 72
    40
 73
    36
 74
     0
 42
0.0000000001
 43
0.0000000001
 12
1.0
 22
0.0
 32
0.0
 13
1.0
 23
0.0
 33
0.0
 40
0.0
 40
0.0
 40
0.0
 40
0.0
 40
0.1
 40
0.1
 40
0.1
 40
0.1
 40
0.2
 40
0.2
 40
0.2
 40
0.2
 40
0.3
 40
0.3
 40
0.3
 40
0.3
 40
0.4
 40
0.4
 40
0.4
 40
0.4
 40
0.5
 40
0.5
 40
0.5
 40
0.5
 40
0.6
 40
0.6
 40
0.6
 40
0.6
 40
0.7
 40
0.7
 40
0.7
 40
0.7
 40
0.8
 40
0.8
 40
0.8
 40
0.8
 40
1.0
 40
1.0
 40
1.0
 40
1.0
 10
-0.6581
 20
-87.7581
 30
0.0
 10
-0.6581
 20
-87.7581
 30
0.0
 10
3.8361
 20
-83.2776
 30
0.0
 10
5.2477
 20
-81.2999
 30
0.0
 10
5.2477
 20
-81.2999
 30
0.0
 10
6.6594
 20
-79.3223
 30
0.0
 10
6.9474
 20
-79.8785
 30
0.0
 10
7.2931
 20
-80.8982
 30
0.0
 10
7.2931
 20
-80.8982
 30
0.0
 10
7.6389
 20
-81.9179
 30
0.0
 10
6.3425
 20
-82.6286
 30
0.0
 10
6.3136
 20
-84.4827
 30
0.0
 10
6.3136
 20
-84.4827
 30
0.0
 10
6.2848
 20
-86.3367
 30
0.0
 10
8.0998
 20
-88.2216
 30
0.0
 10
8.6472
 20
-89.1795
 30
0.0
 10
8.6472
 20
-89.1795
 30
0.0
 10
9.1945
 20
-90.1375
 30
0.0
 10
8.7912
 20
-90.5083
 30
0.0
 10
8.7912
 20
-90.5083
 30
0.0
 10
8.7912
 20
-90.5083
 30
0.0
 10
8.7912
 20
-90.5083
 30
0.0
 10
6.9186
 20
-88.6233
 30
0.0
 10
5.4206
 20
-88.5924
 30
0.0
 10
5.4206
 20
-88.5924
 30
0.0
 10
3.9225
 20
-88.5615
 30
0.0
 10
3.3175
 20
-89.7976
 30
0.0
 10
3.0006
 20
-89.3032
 30
0.0
 10
3.0006
 20
-89.3032
 30
0.0
 10
2.6838
 20
-88.8087
 30
0.0
 10
1.7907
 20
-87.8508
 30
0.0
 10
0.6383
 20
-88.0671
 30
0.0
 10
0.6383
 20
-88.0671
 30
0.0
 10
-0.514
 20
-88.2834
 30
0.0
 10
-0.6581
 20
-87.7581
 30
0.0
 10
-0.6581
 20
-87.7581
 30
0.0
  0
SPLINE
  5
6F
330
1F
100
AcDbEntity
  8
layer 1
 62
   250
100
AcDbSpline
210
0.0
220
0.0
230
1.0
 70
    11
 71
     3
 72
    64
 73
    60
 74
     0
 42
0.0000000001
 43
0.0000000001
 12
1.0
 22
0.0
 32
0.0
 13
1.0
 23
0.0
 33
0.0
 40
0.0
 40
0.0
 40
0.0
 40
0.0
 40
0.0625
 40
0.0625
 40
0.0625
 40
0.0625
 40
0.125
 40
0.125
 40
0.125
 40
0.125
 40
0.1875
 40
0.1875
 40
0.1875
 40
0.1875
 40
0.25
 40
0.25
 40
0.25
 40
0.25
 40
0.3125
 40
0.3125
 40
0.3125
 40
0.3125
 40
0.375
 40
0.375
 40
0.375
 40
0.375
 40
0.4375
 40
0.4375
 40
0.4375
 40
0.4375
 40
0.5
 40
0.5
 40
0.5
 40
0.5
 40
0.5625
 40
0.5625
 40
0.5625
 40
0.5625
 40
0.625
 40
0.625
 40
0.625
 40
0.625
 40
0.6875
 40
0.6875
 40
0.6875
 40
0.6875
 40
0.75
 40
0.75
 40
0.75
 40
0.75
 40
0.8125
 40
0.8125
 40
0.8125
 40
0.8125
 40
0.875
 40
0.875
 40
0.875
 40
0.875
 40
1.0
 40
1.0
 40
1.0
 40
1.0
 10
4.3835
 20
-91.6207
 30
0.0
 10
4.3835
 20
-91.6207
 30
0.0
 10
4.1818
 20
-95.1433
 30
0.0
 10
1.5314
 20
-95.9159
 30
0.0
 10
1.5314
 20
-95.9159
 30
0.0
 10
-1.119
 20
-96.6884
 30
0.0
 10
-1.7816
 20
-94.5253
 30
0.0
 10
-0.975
 20
-93.5674
 30
0.0
 10
-0.975
 20
-93.5674
 30
0.0
 10
-0.1683
 20
-92.6095
 30
0.0
 10
2.0788
 20
-93.7528
 30
0.0
 10
2.1652
 20
-92.4859
 30
0.0
 10
2.1652
 20
-92.4859
 30
0.0
 10
2.2516
 20
-91.219
 30
0.0
 10
0.4079
 20
-90.3229
 30
0.0
 10
-1.2054
 20
-91.2499
 30
0.0
 10
-1.2054
 20
-91.2499
 30
0.0
 10
-2.8187
 20
-92.1769
 30
0.0
 10
-2.9627
 20
-93.4747
 30
0.0
 10
-2.6747
 20
-94.5871
 30
0.0
 10
-2.6747
 20
-94.5871
 30
0.0
 10
-2.3866
 20
-95.6995
 30
0.0
 10
-2.4154
 20
-97.1828
 30
0.0
 10
-3.078
 20
-99.3767
 30
0.0
 10
-3.078
 20
-99.3767
 30
0.0
 10
-3.7406
 20
-101.5706
 30
0.0
 10
-1.9833
 20
-104.5371
 30
0.0
 10
0.2062
 20
-104.5989
 30
0.0
 10
0.2062
 20
-104.5989
 30
0.0
 10
2.3957
 20
-104.6607
 30
0.0
 10
3.0006
 20
-102.2195
 30
0.0
 10
1.1569
 20
-101.9414
 30
0.0
 10
1.1569
 20
-101.9414
 30
0.0
 10
-0.6869
 20
-101.6633
 30
0.0
 10
-1.2054
 20
-100.7672
 30
0.0
 10
-0.7445
 20
-99.3767
 30
0.0
 10
-0.7445
 20
-99.3767
 30
0.0
 10
-0.2835
 20
-97.9862
 30
0.0
 10
2.7126
 20
-98.2025
 30
0.0
 10
3.8937
 20
-100.3037
 30
0.0
 10
3.8937
 20
-100.3037
 30
0.0
 10
5.0749
 20
-102.4049
 30
0.0
 10
4.4123
 20
-106.2675
 30
0.0
 10
1.3297
 20
-106.8855
 30
0.0
 10
1.3297
 20
-106.8855
 30
0.0
 10
1.3297
 20
-106.8855
 30
0.0
 10
2.1652
 20
-109.7901
 30
0.0
 10
6.2272
 20
-108.8013
 30
0.0
 10
6.2272
 20
-108.8013
 30
0.0
 10
10.2892
 20
-107.8125
 30
0.0
 10
12.3059
 20
-105.1242
 30
0.0
 10
11.2687
 20
-101.9723
 30
0.0
 10
11.2687
 20
-101.9723
 30
0.0
 10
10.2316
 20
-98.8205
 30
0.0
 10
8.3591
 20
-100.1492
 30
0.0
 10
6.7746
 20
-97.5536
 30
0.0
 10
6.7746
 20
-97.5536
 30
0.0
 10
5.1901
 20
-94.9579
 30
0.0
 10
6.7746
 20
-92.455
 30
0.0
 10
4.3835
 20
-91.6207
 30
0.0
  0
SPLINE
  5
70
330
1F
100
AcDbEntity
  8
layer 1
 62
   250
100
AcDbSpline
210
0.0
220
0.0
230
1.0
 70
    11
 71
     3
 72
    36
 73
    32
 74
     0
 42
0.0000000001
 43
0.0000000001
 12
1.0
 22
0.0
 32
0.0
 13
1.0
 23
0.0
 33
0.0
 40
0.0
 40
0.0
 40
0.0
 40
0.0
 40
0.1111111111111111
 40
0.1111111111111111
 40
0.1111111111111111
 40
0.1111111111111111
 40
0.2222222222222222
 40
0.2222222222222222
 40
0.2222222222222222
 40
0.2222222222222222
 40
0.3333333333333333
 40
0.3333333333333333
 40
0.3333333333333333
 40
0.3333333333333333
 40
0.4444444444444444
 40
0.4444444444444444
 40
0.4444444444444444
 40
0.4444444444444444
 40
0.5555555555555556
 40
0.5555555555555556
 40
0.5555555555555556
 40
0.5555555555555556
 40
0.6666666666666666
 40
0.6666666666666666
 40
0.6666666666666666
 40
0.6666666666666666
 40
0.7777777777777778
 40
0.7777777777777778
 40
0.7777777777777778
 40
0.7777777777777778
 40
1.0
 40
1.0
 40
1.0
 40
1.0
 10
25.6731
 20
10.2513
 30
0.0
 10
25.6731
 20
14.2924
 30
0.0
 10
23.8005
 20
18.4467
 30
0.0
 10
20.7756
 20
18.354
 30
0.0
 10
20.7756
 20
18.354
 30
0.0
 10
18.2953
 20
18.278
 30
0.0
 10
15.7185
 20
15.73
 30
0.0
 10
14.871
 20
14.815
 30
0.0
 10
14.871
 20
14.815
 30
0.0
 10
14.871
 20
14.815
 30
0.0
 10
18.5533
 20
10.6217
 30
0.0
 10
18.5533
 20
10.6217
 30
0.0
 10
18.5533
 20
10.6217
 30
0.0
 10
18.5533
 20
10.6217
 30
0.0
 10
19.0508
 20
10.0551
 30
0.0
 10
19.0508
 20
10.0551
 30
0.0
 10
19.0508
 20
10.0551
 30
0.0
 10
19.0508
 20
10.0551
 30
0.0
 10
18.5533
 20
9.4885
 30
0.0
 10
18.5533
 20
9.4885
 30
0.0
 10
18.5533
 20
9.4885
 30
0.0
 10
18.5533
 20
9.4885
 30
0.0
 10
15.0493
 20
5.4983
 30
0.0
 10
15.0493
 20
5.4983
 30
0.0
 10
15.0493
 20
5.4983
 30
0.0
 10
16.0397
 20
4.4642
 30
0.0
 10
18.4501
 20
2.2198
 30
0.0
 10
20.7756
 20
2.1485
 30
0.0
 10
20.7756
 20
2.1485
 30
0.0
 10
23.8005
 20
2.0558
 30
0.0
 10
25.6731
 20
6.2101
 30
0.0
 10
25.6731
 20
10.2513
 30
0.0
  0
SPLINE
  5
71
330
1F
100
AcDbEntity
  8
layer 1
 62
   250
100
AcDbSpline
210
0.0
220
0.0
230
1.0
 70
    11
 71
     3
 72
    20
 73
    16
 74
     0
 42
0.0000000001
 43
0.0000000001
 12
1.0
 22
0.0
 32
0.0
 13
1.0
 23
0.0
 33
0.0
 40
0.0
 40
0.0
 40
0.0
 40
0.0
 40
0.2
 40
0.2
 40
0.2
 40
0.2
 40
0.4
 40
0.4
 40
0.4
 40
0.4
 40
0.6
 40
0.6
 40
0.6
 40
0.6
 40
1.0
 40
1.0
 40
1.0
 40
1.0
 10
8.729
 20
29.0456
 30
0.0
 10
8.729
 20
29.0456
 30
0.0
 10
11.7284
 20
25.6299
 30
0.0
 10
11.7284
 20
25.6299
 30
0.0
 10
11.7284
 20
25.6299
 30
0.0
 10
11.7284
 20
25.6299
 30
0.0
 10
8.5512
 20
22.0117
 30
0.0
 10
8.5512
 20
22.0117
 30
0.0
 10
8.5512
 20
22.0117
 30
0.0
 10
8.5512
 20
22.0117
 30
0.0
 10
5.5518
 20
25.4274
 30
0.0
 10
5.5518
 20
25.4274
 30
0.0
 10
5.5518
 20
25.4274
 30
0.0
 10
5.5518
 20
25.4274
 30
0.0
 10
8.729
 20
29.0456
 30
0.0
 10
8.729
 20
29.0456
 30
0.0
  0
SPLINE
  5
72
330
1F
100
AcDbEntity
  8
layer 1
 62
   250
100
AcDbSpline
210
0.0
220
0.0
230
1.0
 70
    11
 71
     3
 72
    20
 73
    16
 74
     0
 42
0.0000000001
 43
0.0000000001
 12
1.0
 22
0.0
 32
0.0
 13
1.0
 23
0.0
 33
0.0
 40
0.0
 40
0.0
 40
0.0
 40
0.0
 40
0.2
 40
0.2
 40
0.2
 40
0.2
 40
0.4
 40
0.4
 40
0.4
 40
0.4
 40
0.6
 40
0.6
 40
0.6
 40
0.6
 40
1.0
 40
1.0
 40
1.0
 40
1.0
 10
0.2483
 20
-8.9448
 30
0.0
 10
0.2483
 20
-8.9448
 30
0.0
 10
-3.3589
 20
-5.2277
 30
0.0
 10
-3.3589
 20
-5.2277
 30
0.0
 10
-3.3589
 20
-5.2277
 30
0.0
 10
-3.3589
 20
-5.2277
 30
0.0
 10
-0.0164
 20
-1.812
 30
0.0
 10
-0.0164
 20
-1.812
 30
0.0
 10
-0.0164
 20
-1.812
 30
0.0
 10
-0.0164
 20
-1.812
 30
0.0
 10
3.2478
 20
-5.5291
 30
0.0
 10
3.2478
 20
-5.5291
 30
0.0
 10
3.2478
 20
-5.5291
 30
0.0
 10
3.2478
 20
-5.5291
 30
0.0
 10
0.2483
 20
-8.9448
 30
0.0
 10
0.2483
 20
-8.9448
 30
0.0
  0
SPLINE
  5
73
330
1F
100
AcDbEntity
  8
layer 1
 62
   250
100
AcDbSpline
210
0.0
220
0.0
230
1.0
 70
    11
 71
     3
 72
    20
 73
    16
 74
     0
 42
0.0000000001
 43
0.0000000001
 12
1.0
 22
0.0
 32
0.0
 13
1.0
 23
0.0
 33
0.0
 40
0.0
 40
0.0
 40
0.0
 40
0.0
 40
0.2
 40
0.2
 40
0.2
 40
0.2
 40
0.4
 40
0.4
 40
0.4
 40
0.4
 40
0.6
 40
0.6
 40
0.6
 40
0.6
 40
1.0
 40
1.0
 40
1.0
 40
1.0
 10
4.8362
 20
-3.7203
 30
0.0
 10
4.8362
 20
-3.7203
 30
0.0
 10
1.572
 20
-0.0031
 30
0.0
 10
1.572
 20
-0.0031
 30
0.0
 10
1.572
 20
-0.0031
 30
0.0
 10
1.572
 20
-0.0031
 30
0.0
 10
4.5715
 20
3.4125
 30
0.0
 10
4.5715
 20
3.4125
 30
0.0
 10
4.5715
 20
3.4125
 30
0.0
 10
4.5715
 20
3.4125
 30
0.0
 10
7.8356
 20
-0.3046
 30
0.0
 10
7.8356
 20
-0.3046
 30
0.0
 10
7.8356
 20
-0.3046
 30
0.0
 10
7.8356
 20
-0.3046
 30
0.0
 10
4.8362
 20
-3.7203
 30
0.0
 10
4.8362
 20
-3.7203
 30
0.0
  0
SPLINE
  5
74
330
1F
100
AcDbEntity
  8
layer 1
 62
   250
100
AcDbSpline
210
0.0
220
0.0
230
1.0
 70
    11
 71
     3
 72
    20
 73
    16
 74
     0
 42
0.0000000001
 43
0.0000000001
 12
1.0
 22
0.0
 32
0.0
 13
1.0
 23
0.0
 33
0.0
 40
0.0
 40
0.0
 40
0.0
 40
0.0
 40
0.2
 40
0.2
 40
0.2
 40
0.2
 40
0.4
 40
0.4
 40
0.4
 40
0.4
 40
0.6
 40
0.6
 40
0.6
 40
0.6
 40
1.0
 40
1.0
 40
1.0
 40
1.0
 10
9.424
 20
1.5042
 30
0.0
 10
9.424
 20
1.5042
 30
0.0
 10
6.1599
 20
5.2214
 30
0.0
 10
6.1599
 20
5.2214
 30
0.0
 10
6.1599
 20
5.2214
 30
0.0
 10
6.1599
 20
5.2214
 30
0.0
 10
9.1593
 20
8.6371
 30
0.0
 10
9.1593
 20
8.6371
 30
0.0
 10
9.1593
 20
8.6371
 30
0.0
 10
9.1593
 20
8.6371
 30
0.0
 10
12.4235
 20
4.9199
 30
0.0
 10
12.4235
 20
4.9199
 30
0.0
 10
12.4235
 20
4.9199
 30
0.0
 10
12.4235
 20
4.9199
 30
0.0
 10
9.424
 20
1.5042
 30
0.0
 10
9.424
 20
1.5042
 30
0.0
  0
SPLINE
  5
75
330
1F
100
AcDbEntity
  8
layer 1
 62
   250
100
AcDbSpline
210
0.0
220
0.0
230
1.0
 70
    11
 71
     3
 72
    20
 73
    16
 74
     0
 42
0.0000000001
 43
0.0000000001
 12
1.0
 22
0.0
 32
0.0
 13
1.0
 23
0.0
 33
0.0
 40
0.0
 40
0.0
 40
0.0
 40
0.0
 40
0.2
 40
0.2
 40
0.2
 40
0.2
 40
0.4
 40
0.4
 40
0.4
 40
0.4
 40
0.6
 40
0.6
 40
0.6
 40
0.6
 40
1.0
 40
1.0
 40
1.0
 40
1.0
 10
14.0119
 20
6.7287
 30
0.0
 10
14.0119
 20
6.7287
 30
0.0
 10
10.7477
 20
10.4459
 30
0.0
 10
10.7477
 20
10.4459
 30
0.0
 10
10.7477
 20
10.4459
 30
0.0
 10
10.7477
 20
10.4459
 30
0.0
 10
13.6687
 20
13.7723
 30
0.0
 10
13.6687
 20
13.7723
 30
0.0
 10
13.6687
 20
13.7723
 30
0.0
 10
13.6687
 20
13.7723
 30
0.0
 10
16.9329
 20
10.0551
 30
0.0
 10
16.9329
 20
10.0551
 30
0.0
 10
16.9329
 20
10.0551
 30
0.0
 10
16.9329
 20
10.0551
 30
0.0
 10
14.0119
 20
6.7287
 30
0.0
 10
14.0119
 20
6.7287
 30
0.0
  0
SPLINE
  5
76
330
1F
100
AcDbEntity
  8
layer 1
 62
   250
100
AcDbSpline
210
0.0
220
0.0
230
1.0
 70
    11
 71
     3
 72
    20
 73
    16
 74
     0
 42
0.0000000001
 43
0.0000000001
 12
1.0
 22
0.0
 32
0.0
 13
1.0
 23
0.0
 33
0.0
 40
0.0
 40
0.0
 40
0.0
 40
0.0
 40
0.2
 40
0.2
 40
0.2
 40
0.2
 40
0.4
 40
0.4
 40
0.4
 40
0.4
 40
0.6
 40
0.6
 40
0.6
 40
0.6
 40
1.0
 40
1.0
 40
1.0
 40
1.0
 10
12.0803
 20
15.5811
 30
0.0
 10
12.0803
 20
15.5811
 30
0.0
 10
9.1593
 20
12.2547
 30
0.0
 10
9.1593
 20
12.2547
 30
0.0
 10
9.1593
 20
12.2547
 30
0.0
 10
9.1593
 20
12.2547
 30
0.0
 10
6.1597
 20
15.6706
 30
0.0
 10
6.1597
 20
15.6706
 30
0.0
 10
6.1597
 20
15.6706
 30
0.0
 10
6.1597
 20
15.6706
 30
0.0
 10
9.0807
 20
18.997
 30
0.0
 10
9.0807
 20
18.997
 30
0.0
 10
9.0807
 20
18.997
 30
0.0
 10
9.0807
 20
18.997
 30
0.0
 10
12.0803
 20
15.5811
 30
0.0
 10
12.0803
 20
15.5811
 30
0.0
  0
SPLINE
  5
77
330
1F
100
AcDbEntity
  8
layer 1
 62
   250
100
AcDbSpline
210
0.0
220
0.0
230
1.0
 70
    11
 71
     3
 72
    20
 73
    16
 74
     0
 42
0.0000000001
 43
0.0000000001
 12
1.0
 22
0.0
 32
0.0
 13
1.0
 23
0.0
 33
0.0
 40
0.0
 40
0.0
 40
0.0
 40
0.0
 40
0.2
 40
0.2
 40
0.2
 40
0.2
 40
0.4
 40
0.4
 40
0.4
 40
0.4
 40
0.6
 40
0.6
 40
0.6
 40
0.6
 40
1.0
 40
1.0
 40
1.0
 40
1.0
 10
7.4923
 20
20.8058
 30
0.0
 10
7.4923
 20
20.8058
 30
0.0
 10
4.5713
 20
17.4794
 30
0.0
 10
4.5713
 20
17.4794
 30
0.0
 10
4.5713
 20
17.4794
 30
0.0
 10
4.5713
 20
17.4794
 30
0.0
 10
1.5719
 20
20.8951
 30
0.0
 10
1.5719
 20
20.8951
 30
0.0
 10
1.5719
 20
20.8951
 30
0.0
 10
1.5719
 20
20.8951
 30
0.0
 10
4.4928
 20
24.2215
 30
0.0
 10
4.4928
 20
24.2215
 30
0.0
 10
4.4928
 20
24.2215
 30
0.0
 10
4.4928
 20
24.2215
 30
0.0
 10
7.4923
 20
20.8058
 30
0.0
 10
7.4923
 20
20.8058
 30
0.0
  0
SPLINE
  5
78
330
1F
100
AcDbEntity
  8
layer 1
 62
   250
100
AcDbSpline
210
0.0
220
0.0
230
1.0
 70
    11
 71
     3
 72
    20
 73
    16
 74
     0
 42
0.0000000001
 43
0.0000000001
 12
1.0
 22
0.0
 32
0.0
 13
1.0
 23
0.0
 33
0.0
 40
0.0
 40
0.0
 40
0.0
 40
0.0
 40
0.2
 40
0.2
 40
0.2
 40
0.2
 40
0.4
 40
0.4
 40
0.4
 40
0.4
 40
0.6
 40
0.6
 40
0.6
 40
0.6
 40
1.0
 40
1.0
 40
1.0
 40
1.0
 10
2.9044
 20
26.0303
 30
0.0
 10
2.9044
 20
26.0303
 30
0.0
 10
-0.0166
 20
22.7039
 30
0.0
 10
-0.0166
 20
22.7039
 30
0.0
 10
-0.0166
 20
22.7039
 30
0.0
 10
-0.0166
 20
22.7039
 30
0.0
 10
-3.359
 20
26.0885
 30
0.0
 10
-3.359
 20
26.0885
 30
0.0
 10
-3.359
 20
26.0885
 30
0.0
 10
-3.359
 20
26.0885
 30
0.0
 10
-0.0948
 20
29.4458
 30
0.0
 10
-0.0948
 20
29.4458
 30
0.0
 10
-0.0948
 20
29.4458
 30
0.0
 10
-0.0948
 20
29.4458
 30
0.0
 10
2.9044
 20
26.0303
 30
0.0
 10
2.9044
 20
26.0303
 30
0.0
  0
SPLINE
  5
79
330
1F
100
AcDbEntity
  8
layer 1
 62
   250
100
AcDbSpline
210
0.0
220
0.0
230
1.0
 70
    11
 71
     3
 72
    20
 73
    16
 74
     0
 42
0.0000000001
 43
0.0000000001
 12
1.0
 22
0.0
 32
0.0
 13
1.0
 23
0.0
 33
0.0
 40
0.0
 40
0.0
 40
0.0
 40
0.0
 40
0.2
 40
0.2
 40
0.2
 40
0.2
 40
0.4
 40
0.4
 40
0.4
 40
0.4
 40
0.6
 40
0.6
 40
0.6
 40
0.6
 40
1.0
 40
1.0
 40
1.0
 40
1.0
 10
-0.0165
 20
19.0863
 30
0.0
 10
-0.0165
 20
19.0863
 30
0.0
 10
2.9829
 20
15.6706
 30
0.0
 10
2.9829
 20
15.6706
 30
0.0
 10
2.9829
 20
15.6706
 30
0.0
 10
2.9829
 20
15.6706
 30
0.0
 10
-0.0165
 20
12.2548
 30
0.0
 10
-0.0165
 20
12.2548
 30
0.0
 10
-0.0165
 20
12.2548
 30
0.0
 10
-0.0165
 20
12.2548
 30
0.0
 10
-3.359
 20
15.6705
 30
0.0
 10
-3.359
 20
15.6705
 30
0.0
 10
-3.359
 20
15.6705
 30
0.0
 10
-3.359
 20
15.6705
 30
0.0
 10
-0.0165
 20
19.0863
 30
0.0
 10
-0.0165
 20
19.0863
 30
0.0
  0
SPLINE
  5
7A
330
1F
100
AcDbEntity
  8
layer 1
 62
   250
100
AcDbSpline
210
0.0
220
0.0
230
1.0
 70
    11
 71
     3
 72
    20
 73
    16
 74
     0
 42
0.0000000001
 43
0.0000000001
 12
1.0
 22
0.0
 32
0.0
 13
1.0
 23
0.0
 33
0.0
 40
0.0
 40
0.0
 40
0.0
 40
0.0
 40
0.2
 40
0.2
 40
0.2
 40
0.2
 40
0.4
 40
0.4
 40
0.4
 40
0.4
 40
0.6
 40
0.6
 40
0.6
 40
0.6
 40
1.0
 40
1.0
 40
1.0
 40
1.0
 10
4.5713
 20
13.8617
 30
0.0
 10
4.5713
 20
13.8617
 30
0.0
 10
7.5709
 20
10.4459
 30
0.0
 10
7.5709
 20
10.4459
 30
0.0
 10
7.5709
 20
10.4459
 30
0.0
 10
7.5709
 20
10.4459
 30
0.0
 10
4.5715
 20
7.0302
 30
0.0
 10
4.5715
 20
7.0302
 30
0.0
 10
4.5715
 20
7.0302
 30
0.0
 10
4.5715
 20
7.0302
 30
0.0
 10
1.5719
 20
10.446
 30
0.0
 10
1.5719
 20
10.446
 30
0.0
 10
1.5719
 20
10.446
 30
0.0
 10
1.5719
 20
10.446
 30
0.0
 10
4.5713
 20
13.8617
 30
0.0
 10
4.5713
 20
13.8617
 30
0.0
  0
SPLINE
  5
7B
330
1F
100
AcDbEntity
  8
layer 1
 62
   250
100
AcDbSpline
210
0.0
220
0.0
230
1.0
 70
    11
 71
     3
 72
    20
 73
    16
 74
     0
 42
0.0000000001
 43
0.0000000001
 12
1.0
 22
0.0
 32
0.0
 13
1.0
 23
0.0
 33
0.0
 40
0.0
 40
0.0
 40
0.0
 40
0.0
 40
0.2
 40
0.2
 40
0.2
 40
0.2
 40
0.4
 40
0.4
 40
0.4
 40
0.4
 40
0.6
 40
0.6
 40
0.6
 40
0.6
 40
1.0
 40
1.0
 40
1.0
 40
1.0
 10
-0.0165
 20
8.6372
 30
0.0
 10
-0.0165
 20
8.6372
 30
0.0
 10
2.9831
 20
5.2214
 30
0.0
 10
2.9831
 20
5.2214
 30
0.0
 10
2.9831
 20
5.2214
 30
0.0
 10
2.9831
 20
5.2214
 30
0.0
 10
-0.0164
 20
1.8057
 30
0.0
 10
-0.0164
 20
1.8057
 30
0.0
 10
-0.0164
 20
1.8057
 30
0.0
 10
-0.0164
 20
1.8057
 30
0.0
 10
-3.359
 20
5.2215
 30
0.0
 10
-3.359
 20
5.2215
 30
0.0
 10
-3.359
 20
5.2215
 30
0.0
 10
-3.359
 20
5.2215
 30
0.0
 10
-0.0165
 20
8.6372
 30
0.0
 10
-0.0165
 20
8.6372
 30
0.0
  0
SPLINE
  5
7C
330
1F
100
AcDbEntity
  8
layer 1
 62
   250
100
AcDbSpline
210
0.0
220
0.0
230
1.0
 70
    11
 71
     3
 72
    28
 73
    24
 74
     0
 42
0.0000000001
 43
0.0000000001
 12
1.0
 22
0.0
 32
0.0
 13
1.0
 23
0.0
 33
0.0
 40
0.0
 40
0.0
 40
0.0
 40
0.0
 40
0.1428571428571428
 40
0.1428571428571428
 40
0.1428571428571428
 40
0.1428571428571428
 40
0.2857142857142857
 40
0.2857142857142857
 40
0.2857142857142857
 40
0.2857142857142857
 40
0.4285714285714285
 40
0.4285714285714285
 40
0.4285714285714285
 40
0.4285714285714285
 40
0.5714285714285714
 40
0.5714285714285714
 40
0.5714285714285714
 40
0.5714285714285714
 40
0.7142857142857143
 40
0.7142857142857143
 40
0.7142857142857143
 40
0.7142857142857143
 40
1.0
 40
1.0
 40
1.0
 40
1.0
 10
0.1169
 20
106.431
 30
0.0
 10
0.1169
 20
106.431
 30
0.0
 10
2.652
 20
105.3804
 30
0.0
 10
4.8127
 20
108.0378
 30
0.0
 10
4.8127
 20
108.0378
 30
0.0
 10
4.8127
 20
108.0378
 30
0.0
 10
7.4055
 20
107.1108
 30
0.0
 10
8.9899
 20
109.212
 30
0.0
 10
8.9899
 20
109.212
 30
0.0
 10
8.9899
 20
109.212
 30
0.0
 10
9.739
 20
108.1614
 30
0.0
 10
8.8747
 20
107.0181
 30
0.0
 10
8.8747
 20
107.0181
 30
0.0
 10
8.0105
 20
105.8748
 30
0.0
 10
7.0886
 20
104.6696
 30
0.0
 10
7.5495
 20
102.692
 30
0.0
 10
7.5495
 20
102.692
 30
0.0
 10
8.0105
 20
100.7144
 30
0.0
 10
7.5495
 20
98.675
 30
0.0
 10
6.8869
 20
97.8715
 30
0.0
 10
6.8869
 20
97.8715
 30
0.0
 10
6.8869
 20
97.8715
 30
0.0
 10
1.3556
 20
101.456
 30
0.0
 10
0.1169
 20
106.431
 30
0.0
  0
SPLINE
  5
7D
330
1F
100
AcDbEntity
  8
layer 1
 62
   250
100
AcDbSpline
210
0.0
220
0.0
230
1.0
 70
    11
 71
     3
 72
    60
 73
    56
 74
     0
 42
0.0000000001
 43
0.0000000001
 12
1.0
 22
0.0
 32
0.0
 13
1.0
 23
0.0
 33
0.0
 40
0.0
 40
0.0
 40
0.0
 40
0.0
 40
0.0666666666666667
 40
0.0666666666666667
 40
0.0666666666666667
 40
0.0666666666666667
 40
0.1333333333333333
 40
0.1333333333333333
 40
0.1333333333333333
 40
0.1333333333333333
 40
0.2
 40
0.2
 40
0.2
 40
0.2
 40
0.2666666666666667
 40
0.2666666666666667
 40
0.2666666666666667
 40
0.2666666666666667
 40
0.3333333333333333
 40
0.3333333333333333
 40
0.3333333333333333
 40
0.3333333333333333
 40
0.4
 40
0.4
 40
0.4
 40
0.4
 40
0.4666666666666667
 40
0.4666666666666667
 40
0.4666666666666667
 40
0.4666666666666667
 40
0.5333333333333333
 40
0.5333333333333333
 40
0.5333333333333333
 40
0.5333333333333333
 40
0.6
 40
0.6
 40
0.6
 40
0.6
 40
0.6666666666666666
 40
0.6666666666666666
 40
0.6666666666666666
 40
0.6666666666666666
 40
0.7333333333333333
 40
0.7333333333333333
 40
0.7333333333333333
 40
0.7333333333333333
 40
0.8
 40
0.8
 40
0.8
 40
0.8
 40
0.8666666666666667
 40
0.8666666666666667
 40
0.8666666666666667
 40
0.8666666666666667
 40
1.0
 40
1.0
 40
1.0
 40
1.0
 10
4.8703
 20
109.6446
 30
0.0
 10
4.8703
 20
109.6446
 30
0.0
 10
5.8498
 20
109.9845
 30
0.0
 10
6.1667
 20
112.1785
 30
0.0
 10
6.1667
 20
112.1785
 30
0.0
 10
6.4836
 20
114.3724
 30
0.0
 10
8.0681
 20
116.9371
 30
0.0
 10
10.7473
 20
118.9148
 30
0.0
 10
10.7473
 20
118.9148
 30
0.0
 10
13.4265
 20
120.8924
 30
0.0
 10
12.1301
 20
123.4571
 30
0.0
 10
10.488
 20
125.2493
 30
0.0
 10
10.488
 20
125.2493
 30
0.0
 10
8.8459
 20
127.0416
 30
0.0
 10
4.9855
 20
128.4939
 30
0.0
 10
1.4997
 20
125.5893
 30
0.0
 10
1.4997
 20
125.5893
 30
0.0
 10
1.4997
 20
125.5893
 30
0.0
 10
4.5246
 20
124.5386
 30
0.0
 10
4.9279
 20
121.4795
 30
0.0
 10
4.9279
 20
121.4795
 30
0.0
 10
5.3312
 20
118.4203
 30
0.0
 10
2.9401
 20
116.8753
 30
0.0
 10
1.3845
 20
117.0298
 30
0.0
 10
1.3845
 20
117.0298
 30
0.0
 10
-0.1712
 20
117.1843
 30
0.0
 10
-0.0272
 20
118.9766
 30
0.0
 10
0.6066
 20
119.4401
 30
0.0
 10
0.6066
 20
119.4401
 30
0.0
 10
1.2404
 20
119.9036
 30
0.0
 10
3.0842
 20
119.1311
 30
0.0
 10
2.8825
 20
120.707
 30
0.0
 10
2.8825
 20
120.707
 30
0.0
 10
2.6808
 20
122.2829
 30
0.0
 10
-0.5169
 20
123.0245
 30
0.0
 10
-1.7557
 20
119.3783
 30
0.0
 10
-1.7557
 20
119.3783
 30
0.0
 10
-2.9945
 20
115.732
 30
0.0
 10
-2.2166
 20
111.0042
 30
0.0
 10
-0.3441
 20
109.3665
 30
0.0
 10
-0.3441
 20
109.3665
 30
0.0
 10
1.5285
 20
107.7288
 30
0.0
 10
2.9401
 20
109.1193
 30
0.0
 10
2.7673
 20
109.9845
 30
0.0
 10
2.7673
 20
109.9845
 30
0.0
 10
2.5944
 20
110.8497
 30
0.0
 10
-0.0848
 20
109.8918
 30
0.0
 10
-0.2288
 20
112.1476
 30
0.0
 10
-0.2288
 20
112.1476
 30
0.0
 10
-0.3729
 20
114.4033
 30
0.0
 10
2.7961
 20
113.7853
 30
0.0
 10
3.8332
 20
112.8583
 30
0.0
 10
3.8332
 20
112.8583
 30
0.0
 10
4.8703
 20
111.9313
 30
0.0
 10
4.8703
 20
109.6446
 30
0.0
 10
4.8703
 20
109.6446
 30
0.0
  0
SPLINE
  5
7E
330
1F
100
AcDbEntity
  8
layer 1
 62
   250
100
AcDbSpline
210
0.0
220
0.0
230
1.0
 70
    11
 71
     3
 72
    56
 73
    52
 74
     0
 42
0.0000000001
 43
0.0000000001
 12
1.0
 22
0.0
 32
0.0
 13
1.0
 23
0.0
 33
0.0
 40
0.0
 40
0.0
 40
0.0
 40
0.0
 40
0.0714285714285714
 40
0.0714285714285714
 40
0.0714285714285714
 40
0.0714285714285714
 40
0.1428571428571428
 40
0.1428571428571428
 40
0.1428571428571428
 40
0.1428571428571428
 40
0.2142857142857143
 40
0.2142857142857143
 40
0.2142857142857143
 40
0.2142857142857143
 40
0.2857142857142857
 40
0.2857142857142857
 40
0.2857142857142857
 40
0.2857142857142857
 40
0.3571428571428572
 40
0.3571428571428572
 40
0.3571428571428572
 40
0.3571428571428572
 40
0.4285714285714285
 40
0.4285714285714285
 40
0.4285714285714285
 40
0.4285714285714285
 40
0.5
 40
0.5
 40
0.5
 40
0.5
 40
0.5714285714285714
 40
0.5714285714285714
 40
0.5714285714285714
 40
0.5714285714285714
 40
0.6428571428571429
 40
0.6428571428571429
 40
0.6428571428571429
 40
0.6428571428571429
 40
0.7142857142857143
 40
0.7142857142857143
 40
0.7142857142857143
 40
0.7142857142857143
 40
0.7857142857142857
 40
0.7857142857142857
 40
0.7857142857142857
 40
0.7857142857142857
 40
0.8571428571428571
 40
0.8571428571428571
 40
0.8571428571428571
 40
0.8571428571428571
 40
1.0
 40
1.0
 40
1.0
 40
1.0
 10
10.6032
 20
73.4911
 30
0.0
 10
10.6032
 20
73.4911
 30
0.0
 10
10.1423
 20
73.8619
 30
0.0
 10
10.1423
 20
73.8619
 30
0.0
 10
10.1423
 20
73.8619
 30
0.0
 10
10.1423
 20
73.8619
 30
0.0
 10
10.7209
 20
81.0361
 30
0.0
 10
17.6902
 20
83.75
 30
0.0
 10
17.6902
 20
83.75
 30
0.0
 10
24.6594
 20
86.464
 30
0.0
 10
29.3289
 20
80.1038
 30
0.0
 10
29.0408
 20
74.9743
 30
0.0
 10
29.0408
 20
74.9743
 30
0.0
 10
28.7527
 20
69.8448
 30
0.0
 10
24.1433
 20
67.9908
 30
0.0
 10
21.3201
 20
69.6594
 30
0.0
 10
21.3201
 20
69.6594
 30
0.0
 10
18.4968
 20
71.3281
 30
0.0
 10
20.8015
 20
75.1597
 30
0.0
 10
23.0486
 20
75.5305
 30
0.0
 10
23.0486
 20
75.5305
 30
0.0
 10
23.0486
 20
75.5305
 30
0.0
 10
22.2996
 20
79.2386
 30
0.0
 10
18.6697
 20
76.3339
 30
0.0
 10
18.6697
 20
76.3339
 30
0.0
 10
18.6697
 20
76.3339
 30
0.0
 10
17.8054
 20
77.2918
 30
0.0
 10
18.7849
 20
78.6206
 30
0.0
 10
18.7849
 20
78.6206
 30
0.0
 10
19.7644
 20
79.9493
 30
0.0
 10
19.0442
 20
80.5982
 30
0.0
 10
18.0647
 20
80.1965
 30
0.0
 10
18.0647
 20
80.1965
 30
0.0
 10
17.0852
 20
79.7948
 30
0.0
 10
15.6159
 20
78.9296
 30
0.0
 10
15.904
 20
79.6712
 30
0.0
 10
15.904
 20
79.6712
 30
0.0
 10
16.1921
 20
80.4128
 30
0.0
 10
15.1262
 20
81.0617
 30
0.0
 10
14.2908
 20
78.7133
 30
0.0
 10
14.2908
 20
78.7133
 30
0.0
 10
14.2908
 20
78.7133
 30
0.0
 10
13.1384
 20
79.2386
 30
0.0
 10
12.8503
 20
78.2807
 30
0.0
 10
12.8503
 20
78.2807
 30
0.0
 10
12.5622
 20
77.3227
 30
0.0
 10
13.6281
 20
75.4996
 30
0.0
 10
13.6281
 20
75.4996
 30
0.0
 10
13.6281
 20
75.4996
 30
0.0
 10
13.6281
 20
75.4996
 30
0.0
 10
11.6115
 20
75.5305
 30
0.0
 10
10.6032
 20
73.4911
 30
0.0
  0
SPLINE
  5
7F
330
1F
100
AcDbEntity
  8
layer 1
 62
   250
100
AcDbSpline
210
0.0
220
0.0
230
1.0
 70
    11
 71
     3
 72
    28
 73
    24
 74
     0
 42
0.0000000001
 43
0.0000000001
 12
1.0
 22
0.0
 32
0.0
 13
1.0
 23
0.0
 33
0.0
 40
0.0
 40
0.0
 40
0.0
 40
0.0
 40
0.1428571428571428
 40
0.1428571428571428
 40
0.1428571428571428
 40
0.1428571428571428
 40
0.2857142857142857
 40
0.2857142857142857
 40
0.2857142857142857
 40
0.2857142857142857
 40
0.4285714285714285
 40
0.4285714285714285
 40
0.4285714285714285
 40
0.4285714285714285
 40
0.5714285714285714
 40
0.5714285714285714
 40
0.5714285714285714
 40
0.5714285714285714
 40
0.7142857142857143
 40
0.7142857142857143
 40
0.7142857142857143
 40
0.7142857142857143
 40
1.0
 40
1.0
 40
1.0
 40
1.0
 10
11.9284
 20
72.0079
 30
0.0
 10
11.9284
 20
72.0079
 30
0.0
 10
13.4553
 20
71.4826
 30
0.0
 10
14.55
 20
71.9461
 30
0.0
 10
14.55
 20
71.9461
 30
0.0
 10
15.6448
 20
72.4096
 30
0.0
 10
16.1633
 20
68.5779
 30
0.0
 10
19.3899
 20
66.5076
 30
0.0
 10
19.3899
 20
66.5076
 30
0.0
 10
19.3899
 20
66.5076
 30
0.0
 10
15.6159
 20
60.5747
 30
0.0
 10
17.6326
 20
53.9002
 30
0.0
 10
17.6326
 20
53.9002
 30
0.0
 10
17.6326
 20
53.9002
 30
0.0
 10
11.8132
 20
60.1421
 30
0.0
 10
10.5456
 20
67.4964
 30
0.0
 10
10.5456
 20
67.4964
 30
0.0
 10
10.5456
 20
67.4964
 30
0.0
 10
12.3029
 20
66.9711
 30
0.0
 10
13.657
 20
67.8363
 30
0.0
 10
13.657
 20
67.8363
 30
0.0
 10
13.657
 20
67.8363
 30
0.0
 10
11.5827
 20
69.783
 30
0.0
 10
11.9284
 20
72.0079
 30
0.0
  0
SPLINE
  5
80
330
1F
100
AcDbEntity
  8
layer 1
 62
   250
100
AcDbSpline
210
0.0
220
0.0
230
1.0
 70
    11
 71
     3
 72
    24
 73
    20
 74
     0
 42
0.0000000001
 43
0.0000000001
 12
1.0
 22
0.0
 32
0.0
 13
1.0
 23
0.0
 33
0.0
 40
0.0
 40
0.0
 40
0.0
 40
0.0
 40
0.1666666666666667
 40
0.1666666666666667
 40
0.1666666666666667
 40
0.1666666666666667
 40
0.3333333333333333
 40
0.3333333333333333
 40
0.3333333333333333
 40
0.3333333333333333
 40
0.5
 40
0.5
 40
0.5
 40
0.5
 40
0.6666666666666666
 40
0.6666666666666666
 40
0.6666666666666666
 40
0.6666666666666666
 40
1.0
 40
1.0
 40
1.0
 40
1.0
 10
19.3611
 20
56.8976
 30
0.0
 10
19.3611
 20
56.8976
 30
0.0
 10
18.1799
 20
61.8725
 30
0.0
 10
21.4929
 20
64.4064
 30
0.0
 10
21.4929
 20
64.4064
 30
0.0
 10
24.8059
 20
66.9402
 30
0.0
 10
28.8103
 20
64.6536
 30
0.0
 10
28.9544
 20
61.2236
 30
0.0
 10
28.9544
 20
61.2236
 30
0.0
 10
29.0984
 20
57.7937
 30
0.0
 10
26.2464
 20
56.3104
 30
0.0
 10
25.3533
 20
57.5156
 30
0.0
 10
25.3533
 20
57.5156
 30
0.0
 10
24.4602
 20
58.7207
 30
0.0
 10
23.8264
 20
59.864
 30
0.0
 10
22.0691
 20
59.9567
 30
0.0
 10
22.0691
 20
59.9567
 30
0.0
 10
20.3118
 20
60.0494
 30
0.0
 10
19.4187
 20
58.2881
 30
0.0
 10
19.3611
 20
56.8976
 30
0.0
  0
SPLINE
  5
81
330
1F
100
AcDbEntity
  8
layer 1
 62
   250
100
AcDbSpline
210
0.0
220
0.0
230
1.0
 70
    11
 71
     3
 72
   160
 73
   156
 74
     0
 42
0.0000000001
 43
0.0000000001
 12
1.0
 22
0.0
 32
0.0
 13
1.0
 23
0.0
 33
0.0
 40
0.0
 40
0.0
 40
0.0
 40
0.0
 40
0.025
 40
0.025
 40
0.025
 40
0.025
 40
0.05
 40
0.05
 40
0.05
 40
0.05
 40
0.075
 40
0.075
 40
0.075
 40
0.075
 40
0.1
 40
0.1
 40
0.1
 40
0.1
 40
0.125
 40
0.125
 40
0.125
 40
0.125
 40
0.15
 40
0.15
 40
0.15
 40
0.15
 40
0.175
 40
0.175
 40
0.175
 40
0.175
 40
0.2
 40
0.2
 40
0.2
 40
0.2
 40
0.225
 40
0.225
 40
0.225
 40
0.225
 40
0.25
 40
0.25
 40
0.25
 40
0.25
 40
0.275
 40
0.275
 40
0.275
 40
0.275
 40
0.3
 40
0.3
 40
0.3
 40
0.3
 40
0.325
 40
0.325
 40
0.325
 40
0.325
 40
0.35
 40
0.35
 40
0.35
 40
0.35
 40
0.375
 40
0.375
 40
0.375
 40
0.375
 40
0.4
 40
0.4
 40
0.4
 40
0.4
 40
0.425
 40
0.425
 40
0.425
 40
0.425
 40
0.45
 40
0.45
 40
0.45
 40
0.45
 40
0.475
 40
0.475
 40
0.475
 40
0.475
 40
0.5
 40
0.5
 40
0.5
 40
0.5
 40
0.525
 40
0.525
 40
0.525
 40
0.525
 40
0.55
 40
0.55
 40
0.55
 40
0.55
 40
0.575
 40
0.575
 40
0.575
 40
0.575
 40
0.6
 40
0.6
 40
0.6
 40
0.6
 40
0.625
 40
0.625
 40
0.625
 40
0.625
 40
0.65
 40
0.65
 40
0.65
 40
0.65
 40
0.675
 40
0.675
 40
0.675
 40
0.675
 40
0.7
 40
0.7
 40
0.7
 40
0.7
 40
0.725
 40
0.725
 40
0.725
 40
0.725
 40
0.75
 40
0.75
 40
0.75
 40
0.75
 40
0.775
 40
0.775
 40
0.775
 40
0.775
 40
0.8
 40
0.8
 40
0.8
 40
0.8
 40
0.825
 40
0.825
 40
0.825
 40
0.825
 40
0.85
 40
0.85
 40
0.85
 40
0.85
 40
0.875
 40
0.875
 40
0.875
 40
0.875
 40
0.9
 40
0.9
 40
0.9
 40
0.9
 40
0.925
 40
0.925
 40
0.925
 40
0.925
 40
0.95
 40
0.95
 40
0.95
 40
0.95
 40
1.0
 40
1.0
 40
1.0
 40
1.0
 10
-6.0158
 20
50.9931
 30
0.0
 10
-8.3763
 20
51.0085
 30
0.0
 10
-14.0888
 20
50.6695
 30
0.0
 10
-18.4585
 20
47.3695
 30
0.0
 10
-18.4585
 20
47.3695
 30
0.0
 10
-23.9498
 20
43.2225
 30
0.0
 10
-22.4113
 20
34.6923
 30
0.0
 10
-19.4608
 20
30.4748
 30
0.0
 10
-19.4608
 20
30.4748
 30
0.0
 10
-19.4608
 20
30.4748
 30
0.0
 10
-23.1882
 20
26.2301
 30
0.0
 10
-23.1882
 20
26.2301
 30
0.0
 10
-23.1882
 20
26.2301
 30
0.0
 10
-25.0444
 20
27.8273
 30
0.0
 10
-29.4505
 20
30.1893
 30
0.0
 10
-33.5543
 20
28.9529
 30
0.0
 10
-33.5543
 20
28.9529
 30
0.0
 10
-37.2722
 20
27.8327
 30
0.0
 10
-39.0816
 20
24.9749
 30
0.0
 10
-39.7958
 20
23.4877
 30
0.0
 10
-39.7958
 20
23.4877
 30
0.0
 10
-39.8775
 20
24.8629
 30
0.0
 10
-39.8414
 20
27.5455
 30
0.0
 10
-38.5064
 20
28.9327
 30
0.0
 10
-38.5064
 20
28.9327
 30
0.0
 10
-36.6627
 20
30.8485
 30
0.0
 10
-32.2262
 20
34.3093
 30
0.0
 10
-30.7857
 20
38.5118
 30
0.0
 10
-30.7857
 20
38.5118
 30
0.0
 10
-29.3453
 20
42.7142
 30
0.0
 10
-31.8805
 20
43.8267
 30
0.0
 10
-30.5552
 20
46.1751
 30
0.0
 10
-30.5552
 20
46.1751
 30
0.0
 10
-29.23
 20
48.5235
 30
0.0
 10
-24.7935
 20
53.7148
 30
0.0
 10
-23.1226
 20
55.6306
 30
0.0
 10
-23.1226
 20
55.6306
 30
0.0
 10
-21.4517
 20
57.5465
 30
0.0
 10
-21.6822
 20
59.6477
 30
0.0
 10
-21.6822
 20
59.6477
 30
0.0
 10
-21.6822
 20
59.6477
 30
0.0
 10
-21.6822
 20
59.6477
 30
0.0
 10
-18.8589
 20
57.6083
 30
0.0
 10
-15.6323
 20
58.7207
 30
0.0
 10
-15.6323
 20
58.7207
 30
0.0
 10
-12.4058
 20
59.8331
 30
0.0
 10
-11.1958
 20
59.4005
 30
0.0
 10
-11.0806
 20
57.9791
 30
0.0
 10
-11.0806
 20
57.9791
 30
0.0
 10
-10.9653
 20
56.5577
 30
0.0
 10
-12.7515
 20
56.4959
 30
0.0
 10
-13.4429
 20
56.6195
 30
0.0
 10
-13.4429
 20
56.6195
 30
0.0
 10
-14.1343
 20
56.743
 30
0.0
 10
-13.7886
 20
53.7766
 30
0.0
 10
-11.0229
 20
53.2822
 30
0.0
 10
-11.0229
 20
53.2822
 30
0.0
 10
-8.2573
 20
52.7878
 30
0.0
 10
-7.6811
 20
56.743
 30
0.0
 10
-8.6606
 20
58.7825
 30
0.0
 10
-8.6606
 20
58.7825
 30
0.0
 10
-9.6401
 20
60.8219
 30
0.0
 10
-10.1587
 20
62.0579
 30
0.0
 10
-9.6401
 20
62.4287
 30
0.0
 10
-9.6401
 20
62.4287
 30
0.0
 10
-9.1216
 20
62.7995
 30
0.0
 10
-7.2778
 20
61.8725
 30
0.0
 10
-7.6235
 20
63.4794
 30
0.0
 10
-7.6235
 20
63.4794
 30
0.0
 10
-7.9692
 20
65.0862
 30
0.0
 10
-10.1011
 20
68.6706
 30
0.0
 10
-10.9653
 20
69.1032
 30
0.0
 10
-10.9653
 20
69.1032
 30
0.0
 10
-11.8296
 20
69.5358
 30
0.0
 10
-12.1177
 20
67.8054
 30
0.0
 10
-12.4058
 20
66.8784
 30
0.0
 10
-12.4058
 20
66.8784
 30
0.0
 10
-12.6939
 20
65.9514
 30
0.0
 10
-14.0191
 20
65.8278
 30
0.0
 10
-13.9614
 20
67.5582
 30
0.0
 10
-13.9614
 20
67.5582
 30
0.0
 10
-13.9038
 20
69.2886
 30
0.0
 10
-16.2661
 20
69.8448
 30
0.0
 10
-16.6695
 20
69.4122
 30
0.0
 10
-16.6695
 20
69.4122
 30
0.0
 10
-17.0728
 20
68.9796
 30
0.0
 10
-15.5171
 20
65.2716
 30
0.0
 10
-17.3032
 20
63.4794
 30
0.0
 10
-17.3032
 20
63.4794
 30
0.0
 10
-19.0894
 20
61.6871
 30
0.0
 10
-19.896
 20
62.5523
 30
0.0
 10
-19.896
 20
62.5523
 30
0.0
 10
-19.896
 20
62.5523
 30
0.0
 10
-19.896
 20
62.5523
 30
0.0
 10
-16.7271
 20
69.2268
 30
0.0
 10
-18.6861
 20
77.5082
 30
0.0
 10
-18.6861
 20
77.5082
 30
0.0
 10
-20.645
 20
85.7895
 30
0.0
 10
-27.8472
 20
87.2727
 30
0.0
 10
-27.8472
 20
87.2727
 30
0.0
 10
-27.8472
 20
87.2727
 30
0.0
 10
-27.8472
 20
87.2727
 30
0.0
 10
-23.1802
 20
89.6829
 30
0.0
 10
-19.0894
 20
93.5146
 30
0.0
 10
-19.0894
 20
93.5146
 30
0.0
 10
-19.0894
 20
93.5146
 30
0.0
 10
-19.2622
 20
91.9078
 30
0.0
 10
-19.0318
 20
91.0426
 30
0.0
 10
-19.0318
 20
91.0426
 30
0.0
 10
-19.0318
 20
91.0426
 30
0.0
 10
-20.9907
 20
91.1662
 30
0.0
 10
-21.106
 20
89.9919
 30
0.0
 10
-21.106
 20
89.9919
 30
0.0
 10
-21.2212
 20
88.8177
 30
0.0
 10
-20.4146
 20
87.3345
 30
0.0
 10
-18.5132
 20
88.4469
 30
0.0
 10
-18.5132
 20
88.4469
 30
0.0
 10
-18.5132
 20
88.4469
 30
0.0
 10
-17.9087
 20
85.2075
 30
0.0
 10
-15.8657
 20
84.5919
 30
0.0
 10
-15.8657
 20
84.5919
 30
0.0
 10
-15.8657
 20
84.5919
 30
0.0
 10
-15.8657
 20
83.6467
 30
0.0
 10
-15.8657
 20
83.6467
 30
0.0
 10
-15.8657
 20
83.6467
 30
0.0
 10
-15.8657
 20
83.6467
 30
0.0
 10
-15.8657
 20
83.5353
 30
0.0
 10
-15.8657
 20
83.5353
 30
0.0
 10
-15.8657
 20
83.5353
 30
0.0
 10
-15.8657
 20
83.5353
 30
0.0
 10
-15.8657
 20
75.9711
 30
0.0
 10
-15.8657
 20
75.9711
 30
0.0
 10
-15.8657
 20
75.9711
 30
0.0
 10
-15.8657
 20
75.9711
 30
0.0
 10
-15.8657
 20
75.8597
 30
0.0
 10
-15.8657
 20
75.8597
 30
0.0
 10
-15.8657
 20
75.8597
 30
0.0
 10
-15.8657
 20
75.8597
 30
0.0
 10
-15.8657
 20
74.5928
 30
0.0
 10
-15.8657
 20
74.5928
 30
0.0
 10
-15.8657
 20
74.5928
 30
0.0
 10
-15.8657
 20
74.5928
 30
0.0
 10
-15.8657
 20
73.3259
 30
0.0
 10
-15.8657
 20
73.3259
 30
0.0
 10
-15.8657
 20
73.3259
 30
0.0
 10
-15.8657
 20
73.3259
 30
0.0
 10
-14.5405
 20
73.3259
 30
0.0
 10
-14.5405
 20
73.3259
 30
0.0
 10
-14.5405
 20
73.3259
 30
0.0
 10
-14.5405
 20
73.3259
 30
0.0
 10
-6.8749
 20
73.3259
 30
0.0
 10
-6.8749
 20
73.3259
 30
0.0
 10
-6.8749
 20
73.3259
 30
0.0
 10
-6.8749
 20
73.3259
 30
0.0
 10
-6.0158
 20
50.9931
 30
0.0
 10
-6.0158
 20
50.9931
 30
0.0
  0
SPLINE
  5
82
330
1F
100
AcDbEntity
  8
layer 1
 62
   250
100
AcDbSpline
210
0.0
220
0.0
230
1.0
 70
    11
 71
     3
 72
    16
 73
    12
 74
     0
 42
0.0000000001
 43
0.0000000001
 12
1.0
 22
0.0
 32
0.0
 13
1.0
 23
0.0
 33
0.0
 40
0.0
 40
0.0
 40
0.0
 40
0.0
 40
0.25
 40
0.25
 40
0.25
 40
0.25
 40
0.5
 40
0.5
 40
0.5
 40
0.5
 40
1.0
 40
1.0
 40
1.0
 40
1.0
 10
-7.7266
 20
75.8597
 30
0.0
 10
-7.7266
 20
75.8597
 30
0.0
 10
-13.0607
 20
75.8597
 30
0.0
 10
-13.0607
 20
75.8597
 30
0.0
 10
-13.0607
 20
75.8597
 30
0.0
 10
-13.0607
 20
75.8597
 30
0.0
 10
-10.3937
 20
78.3749
 30
0.0
 10
-10.3937
 20
78.3749
 30
0.0
 10
-10.3937
 20
78.3749
 30
0.0
 10
-10.3937
 20
78.3749
 30
0.0
 10
-7.7266
 20
75.8597
 30
0.0
 10
-7.7266
 20
75.8597
 30
0.0
  0
SPLINE
  5
83
330
1F
100
AcDbEntity
  8
layer 1
 62
   250
100
AcDbSpline
210
0.0
220
0.0
230
1.0
 70
    11
 71
     3
 72
    16
 73
    12
 74
     0
 42
0.0000000001
 43
0.0000000001
 12
1.0
 22
0.0
 32
0.0
 13
1.0
 23
0.0
 33
0.0
 40
0.0
 40
0.0
 40
0.0
 40
0.0
 40
0.25
 40
0.25
 40
0.25
 40
0.25
 40
0.5
 40
0.5
 40
0.5
 40
0.5
 40
1.0
 40
1.0
 40
1.0
 40
1.0
 10
-14.5405
 20
77.2208
 30
0.0
 10
-14.5405
 20
77.2208
 30
0.0
 10
-14.5405
 20
82.2855
 30
0.0
 10
-14.5405
 20
82.2855
 30
0.0
 10
-14.5405
 20
82.2855
 30
0.0
 10
-14.5405
 20
82.2855
 30
0.0
 10
-11.8552
 20
79.7532
 30
0.0
 10
-11.8552
 20
79.7532
 30
0.0
 10
-11.8552
 20
79.7532
 30
0.0
 10
-11.8552
 20
79.7532
 30
0.0
 10
-14.5405
 20
77.2208
 30
0.0
 10
-14.5405
 20
77.2208
 30
0.0
  0
SPLINE
  5
84
330
1F
100
AcDbEntity
  8
layer 1
 62
   250
100
AcDbSpline
210
0.0
220
0.0
230
1.0
 70
    11
 71
     3
 72
    16
 73
    12
 74
     0
 42
0.0000000001
 43
0.0000000001
 12
1.0
 22
0.0
 32
0.0
 13
1.0
 23
0.0
 33
0.0
 40
0.0
 40
0.0
 40
0.0
 40
0.0
 40
0.25
 40
0.25
 40
0.25
 40
0.25
 40
0.5
 40
0.5
 40
0.5
 40
0.5
 40
1.0
 40
1.0
 40
1.0
 40
1.0
 10
-13.0607
 20
83.6467
 30
0.0
 10
-13.0607
 20
83.6467
 30
0.0
 10
-7.7266
 20
83.6467
 30
0.0
 10
-7.7266
 20
83.6467
 30
0.0
 10
-7.7266
 20
83.6467
 30
0.0
 10
-7.7266
 20
83.6467
 30
0.0
 10
-10.3937
 20
81.1315
 30
0.0
 10
-10.3937
 20
81.1315
 30
0.0
 10
-10.3937
 20
81.1315
 30
0.0
 10
-10.3937
 20
81.1315
 30
0.0
 10
-13.0607
 20
83.6467
 30
0.0
 10
-13.0607
 20
83.6467
 30
0.0
  0
SPLINE
  5
85
330
1F
100
AcDbEntity
  8
layer 1
 62
   250
100
AcDbSpline
210
0.0
220
0.0
230
1.0
 70
    11
 71
     3
 72
    84
 73
    80
 74
     0
 42
0.0000000001
 43
0.0000000001
 12
1.0
 22
0.0
 32
0.0
 13
1.0
 23
0.0
 33
0.0
 40
0.0
 40
0.0
 40
0.0
 40
0.0
 40
0.0476190476190476
 40
0.0476190476190476
 40
0.0476190476190476
 40
0.0476190476190476
 40
0.0952380952380952
 40
0.0952380952380952
 40
0.0952380952380952
 40
0.0952380952380952
 40
0.1428571428571428
 40
0.1428571428571428
 40
0.1428571428571428
 40
0.1428571428571428
 40
0.1904761904761905
 40
0.1904761904761905
 40
0.1904761904761905
 40
0.1904761904761905
 40
0.2380952380952381
 40
0.2380952380952381
 40
0.2380952380952381
 40
0.2380952380952381
 40
0.2857142857142857
 40
0.2857142857142857
 40
0.2857142857142857
 40
0.2857142857142857
 40
0.3333333333333333
 40
0.3333333333333333
 40
0.3333333333333333
 40
0.3333333333333333
 40
0.3809523809523809
 40
0.3809523809523809
 40
0.3809523809523809
 40
0.3809523809523809
 40
0.4285714285714285
 40
0.4285714285714285
 40
0.4285714285714285
 40
0.4285714285714285
 40
0.4761904761904762
 40
0.4761904761904762
 40
0.4761904761904762
 40
0.4761904761904762
 40
0.5238095238095238
 40
0.5238095238095238
 40
0.5238095238095238
 40
0.5238095238095238
 40
0.5714285714285714
 40
0.5714285714285714
 40
0.5714285714285714
 40
0.5714285714285714
 40
0.6190476190476191
 40
0.6190476190476191
 40
0.6190476190476191
 40
0.6190476190476191
 40
0.6666666666666666
 40
0.6666666666666666
 40
0.6666666666666666
 40
0.6666666666666666
 40
0.7142857142857143
 40
0.7142857142857143
 40
0.7142857142857143
 40
0.7142857142857143
 40
0.7619047619047619
 40
0.7619047619047619
 40
0.7619047619047619
 40
0.7619047619047619
 40
0.8095238095238095
 40
0.8095238095238095
 40
0.8095238095238095
 40
0.8095238095238095
 40
0.8571428571428571
 40
0.8571428571428571
 40
0.8571428571428571
 40
0.8571428571428571
 40
0.9047619047619048
 40
0.9047619047619048
 40
0.9047619047619048
 40
0.9047619047619048
 40
1.0
 40
1.0
 40
1.0
 40
1.0
 10
-7.5976
 20
-58.8662
 30
0.0
 10
-7.5976
 20
-58.8662
 30
0.0
 10
-7.5976
 20
-84.8226
 30
0.0
 10
-7.5976
 20
-84.8226
 30
0.0
 10
-7.5976
 20
-84.8226
 30
0.0
 10
-7.5976
 20
-84.8226
 30
0.0
 10
-15.9233
 20
-77.5301
 30
0.0
 10
-15.5776
 20
-76.0778
 30
0.0
 10
-15.5776
 20
-76.0778
 30
0.0
 10
-15.2319
 20
-74.6254
 30
0.0
 10
-13.1865
 20
-74.1001
 30
0.0
 10
-11.8613
 20
-73.7911
 30
0.0
 10
-11.8613
 20
-73.7911
 30
0.0
 10
-10.5361
 20
-73.4821
 30
0.0
 10
-10.9682
 20
-71.5045
 30
0.0
 10
-12.063
 20
-71.1646
 30
0.0
 10
-12.063
 20
-71.1646
 30
0.0
 10
-13.1577
 20
-70.8247
 30
0.0
 10
-15.0303
 20
-72.9259
 30
0.0
 10
-15.0303
 20
-72.9259
 30
0.0
 10
-15.0303
 20
-72.9259
 30
0.0
 10
-15.4624
 20
-71.4427
 30
0.0
 10
-11.9765
 20
-69.6196
 30
0.0
 10
-11.9189
 20
-68.3217
 30
0.0
 10
-11.9189
 20
-68.3217
 30
0.0
 10
-11.8613
 20
-67.0239
 30
0.0
 10
-14.1084
 20
-64.7373
 30
0.0
 10
-16.0962
 20
-65.2935
 30
0.0
 10
-16.0962
 20
-65.2935
 30
0.0
 10
-18.084
 20
-65.8497
 30
0.0
 10
-17.5942
 20
-70.3303
 30
0.0
 10
-17.5942
 20
-70.3303
 30
0.0
 10
-17.5942
 20
-70.3303
 30
0.0
 10
-20.6192
 20
-67.5492
 30
0.0
 10
-22.3477
 20
-69.0943
 30
0.0
 10
-20.5039
 20
-70.8556
 30
0.0
 10
-20.5039
 20
-70.8556
 30
0.0
 10
-18.6602
 20
-72.6169
 30
0.0
 10
-18.5449
 20
-74.7181
 30
0.0
 10
-18.8618
 20
-74.7181
 30
0.0
 10
-18.8618
 20
-74.7181
 30
0.0
 10
-19.1787
 20
-74.7181
 30
0.0
 10
-27.3316
 20
-68.4454
 30
0.0
 10
-27.3316
 20
-68.4454
 30
0.0
 10
-27.3316
 20
-68.4454
 30
0.0
 10
-16.0386
 20
-63.9339
 30
0.0
 10
-17.3062
 20
-51.481
 30
0.0
 10
-17.3062
 20
-49.1635
 30
0.0
 10
-17.3062
 20
-49.1635
 30
0.0
 10
-17.3062
 20
-46.8459
 30
0.0
 10
-11.8613
 20
-45.3627
 30
0.0
 10
-10.7954
 20
-47.124
 30
0.0
 10
-10.7954
 20
-47.124
 30
0.0
 10
-9.7295
 20
-48.8854
 30
0.0
 10
-8.7212
 20
-49.3798
 30
0.0
 10
-8.7212
 20
-49.3798
 30
0.0
 10
-8.7212
 20
-49.3798
 30
0.0
 10
-7.1367
 20
-47.8657
 30
0.0
 10
-8.2602
 20
-44.8683
 30
0.0
 10
-8.0586
 20
-44.4048
 30
0.0
 10
-8.0586
 20
-44.4048
 30
0.0
 10
-7.8569
 20
-43.9413
 30
0.0
 10
-6.3012
 20
-44.7447
 30
0.0
 10
-6.3012
 20
-44.7447
 30
0.0
 10
-6.3012
 20
-44.7447
 30
0.0
 10
-6.3012
 20
-44.7447
 30
0.0
 10
-5.9843
 20
-43.7868
 30
0.0
 10
-6.0708
 20
-42.8289
 30
0.0
 10
-6.0708
 20
-42.8289
 30
0.0
 10
-6.1105
 20
-42.3879
 30
0.0
 10
-5.8702
 20
-42.0452
 30
0.0
 10
-5.5992
 20
-41.7585
 30
0.0
 10
-5.5992
 20
-41.7585
 30
0.0
 10
-5.517
 20
-44.4063
 30
0.0
 10
-5.486
 20
-47.2305
 30
0.0
 10
-5.6386
 20
-48.8545
 30
0.0
 10
-5.6386
 20
-48.8545
 30
0.0
 10
-5.9843
 20
-52.5316
 30
0.0
 10
-7.5976
 20
-57.8156
 30
0.0
 10
-7.5976
 20
-58.8662
 30
0.0
  0
SPLINE
  5
86
330
1F
100
AcDbEntity
  8
layer 1
 62
   250
100
AcDbSpline
210
0.0
220
0.0
230
1.0
 70
    11
 71
     3
 72
   160
 73
   156
 74
     0
 42
0.0000000001
 43
0.0000000001
 12
1.0
 22
0.0
 32
0.0
 13
1.0
 23
0.0
 33
0.0
 40
0.0
 40
0.0
 40
0.0
 40
0.0
 40
0.025
 40
0.025
 40
0.025
 40
0.025
 40
0.05
 40
0.05
 40
0.05
 40
0.05
 40
0.075
 40
0.075
 40
0.075
 40
0.075
 40
0.1
 40
0.1
 40
0.1
 40
0.1
 40
0.125
 40
0.125
 40
0.125
 40
0.125
 40
0.15
 40
0.15
 40
0.15
 40
0.15
 40
0.175
 40
0.175
 40
0.175
 40
0.175
 40
0.2
 40
0.2
 40
0.2
 40
0.2
 40
0.225
 40
0.225
 40
0.225
 40
0.225
 40
0.25
 40
0.25
 40
0.25
 40
0.25
 40
0.275
 40
0.275
 40
0.275
 40
0.275
 40
0.3
 40
0.3
 40
0.3
 40
0.3
 40
0.325
 40
0.325
 40
0.325
 40
0.325
 40
0.35
 40
0.35
 40
0.35
 40
0.35
 40
0.375
 40
0.375
 40
0.375
 40
0.375
 40
0.4
 40
0.4
 40
0.4
 40
0.4
 40
0.425
 40
0.425
 40
0.425
 40
0.425
 40
0.45
 40
0.45
 40
0.45
 40
0.45
 40
0.475
 40
0.475
 40
0.475
 40
0.475
 40
0.5
 40
0.5
 40
0.5
 40
0.5
 40
0.525
 40
0.525
 40
0.525
 40
0.525
 40
0.55
 40
0.55
 40
0.55
 40
0.55
 40
0.575
 40
0.575
 40
0.575
 40
0.575
 40
0.6
 40
0.6
 40
0.6
 40
0.6
 40
0.625
 40
0.625
 40
0.625
 40
0.625
 40
0.65
 40
0.65
 40
0.65
 40
0.65
 40
0.675
 40
0.675
 40
0.675
 40
0.675
 40
0.7
 40
0.7
 40
0.7
 40
0.7
 40
0.725
 40
0.725
 40
0.725
 40
0.725
 40
0.75
 40
0.75
 40
0.75
 40
0.75
 40
0.775
 40
0.775
 40
0.775
 40
0.775
 40
0.8
 40
0.8
 40
0.8
 40
0.8
 40
0.825
 40
0.825
 40
0.825
 40
0.825
 40
0.85
 40
0.85
 40
0.85
 40
0.85
 40
0.875
 40
0.875
 40
0.875
 40
0.875
 40
0.9
 40
0.9
 40
0.9
 40
0.9
 40
0.925
 40
0.925
 40
0.925
 40
0.925
 40
0.95
 40
0.95
 40
0.95
 40
0.95
 40
1.0
 40
1.0
 40
1.0
 40
1.0
 10
-5.889
 20
-24.9122
 30
0.0
 10
-5.889
 20
-24.9122
 30
0.0
 10
-7.5014
 20
-23.4485
 30
0.0
 10
-7.5014
 20
-23.4485
 30
0.0
 10
-7.5014
 20
-23.4485
 30
0.0
 10
-7.5014
 20
-23.4485
 30
0.0
 10
-7.6766
 20
-25.7064
 30
0.0
 10
-7.6766
 20
-25.7064
 30
0.0
 10
-7.6766
 20
-25.7064
 30
0.0
 10
-7.6766
 20
-25.7064
 30
0.0
 10
-9.6884
 20
-25.0159
 30
0.0
 10
-9.6884
 20
-25.0159
 30
0.0
 10
-9.6884
 20
-25.0159
 30
0.0
 10
-9.6884
 20
-25.0159
 30
0.0
 10
-9.0447
 20
-27.1738
 30
0.0
 10
-9.0447
 20
-27.1738
 30
0.0
 10
-9.0447
 20
-27.1738
 30
0.0
 10
-9.0447
 20
-27.1738
 30
0.0
 10
-11.1497
 20
-27.3617
 30
0.0
 10
-11.1497
 20
-27.3617
 30
0.0
 10
-11.1497
 20
-27.3617
 30
0.0
 10
-11.1497
 20
-27.3617
 30
0.0
 10
-9.7851
 20
-29.0912
 30
0.0
 10
-9.7851
 20
-29.0912
 30
0.0
 10
-9.7851
 20
-29.0912
 30
0.0
 10
-9.7851
 20
-29.0912
 30
0.0
 10
-11.6628
 20
-30.1288
 30
0.0
 10
-11.6628
 20
-30.1288
 30
0.0
 10
-11.6628
 20
-30.1288
 30
0.0
 10
-11.6628
 20
-30.1288
 30
0.0
 10
-9.7851
 20
-31.1664
 30
0.0
 10
-9.7851
 20
-31.1664
 30
0.0
 10
-9.7851
 20
-31.1664
 30
0.0
 10
-9.7851
 20
-31.1664
 30
0.0
 10
-11.1497
 20
-32.8959
 30
0.0
 10
-11.1497
 20
-32.8959
 30
0.0
 10
-11.1497
 20
-32.8959
 30
0.0
 10
-11.1497
 20
-32.8959
 30
0.0
 10
-9.0447
 20
-33.0838
 30
0.0
 10
-9.0447
 20
-33.0838
 30
0.0
 10
-9.0447
 20
-33.0838
 30
0.0
 10
-9.0447
 20
-33.0838
 30
0.0
 10
-9.6884
 20
-35.2417
 30
0.0
 10
-9.6884
 20
-35.2417
 30
0.0
 10
-9.6884
 20
-35.2417
 30
0.0
 10
-9.6884
 20
-35.2417
 30
0.0
 10
-7.6766
 20
-34.5513
 30
0.0
 10
-7.6766
 20
-34.5513
 30
0.0
 10
-7.6766
 20
-34.5513
 30
0.0
 10
-7.6766
 20
-34.5513
 30
0.0
 10
-7.5014
 20
-36.8091
 30
0.0
 10
-7.5014
 20
-36.8091
 30
0.0
 10
-7.5014
 20
-36.8091
 30
0.0
 10
-7.5014
 20
-36.8091
 30
0.0
 10
-5.889
 20
-35.3454
 30
0.0
 10
-5.889
 20
-35.3454
 30
0.0
 10
-5.889
 20
-35.3454
 30
0.0
 10
-5.889
 20
-35.3454
 30
0.0
 10
-5.7575
 20
-37.5142
 30
0.0
 10
-5.6539
 20
-40.1955
 30
0.0
 10
-5.6539
 20
-40.1955
 30
0.0
 10
-5.9203
 20
-40.05
 30
0.0
 10
-6.1572
 20
-39.9551
 30
0.0
 10
-6.1572
 20
-39.9551
 30
0.0
 10
-6.1572
 20
-39.9551
 30
0.0
 10
-5.9555
 20
-38.1938
 30
0.0
 10
-7.54
 20
-37.6067
 30
0.0
 10
-7.54
 20
-37.6067
 30
0.0
 10
-7.54
 20
-37.6067
 30
0.0
 10
-7.54
 20
-37.6067
 30
0.0
 10
-7.9145
 20
-39.9551
 30
0.0
 10
-9.1245
 20
-39.986
 30
0.0
 10
-9.1245
 20
-39.986
 30
0.0
 10
-10.3345
 20
-40.0169
 30
0.0
 10
-9.7007
 20
-37.6067
 30
0.0
 10
-10.4209
 20
-35.0111
 30
0.0
 10
-10.4209
 20
-35.0111
 30
0.0
 10
-11.1411
 20
-32.4154
 30
0.0
 10
-14.2524
 20
-32.2609
 30
0.0
 10
-15.4912
 20
-34.3313
 30
0.0
 10
-15.4912
 20
-34.3313
 30
0.0
 10
-16.73
 20
-36.4016
 30
0.0
 10
-15.3183
 20
-38.6573
 30
0.0
 10
-15.3183
 20
-38.6573
 30
0.0
 10
-15.3183
 20
-38.6573
 30
0.0
 10
-13.2441
 20
-34.1149
 30
0.0
 10
-10.6513
 20
-36.5252
 30
0.0
 10
-12.2646
 20
-39.9242
 30
0.0
 10
-12.2646
 20
-39.9242
 30
0.0
 10
-13.8779
 20
-43.3233
 30
0.0
 10
-18.9771
 20
-45.6408
 30
0.0
 10
-18.9771
 20
-45.6408
 30
0.0
 10
-18.9771
 20
-45.6408
 30
0.0
 10
-20.187
 20
-40.1405
 30
0.0
 10
-25.8335
 20
-32.2609
 30
0.0
 10
-25.8335
 20
-32.2609
 30
0.0
 10
-25.8335
 20
-32.2609
 30
0.0
 10
-25.8335
 20
-32.2609
 30
0.0
 10
-20.9649
 20
-33.5896
 30
0.0
 10
-17.0181
 20
-31.612
 30
0.0
 10
-17.0181
 20
-31.612
 30
0.0
 10
-13.0713
 20
-29.6344
 30
0.0
 10
-13.8491
 20
-23.6706
 30
0.0
 10
-15.8657
 20
-21.3222
 30
0.0
 10
-15.8657
 20
-21.3222
 30
0.0
 10
-17.8823
 20
-18.9737
 30
0.0
 10
-22.6358
 20
-20.1479
 30
0.0
 10
-22.6934
 20
-23.7633
 30
0.0
 10
-22.6934
 20
-23.7633
 30
0.0
 10
-22.751
 20
-27.3787
 30
0.0
 10
-19.1787
 20
-28.6147
 30
0.0
 10
-18.6602
 20
-27.6877
 30
0.0
 10
-18.6602
 20
-27.6877
 30
0.0
 10
-18.1416
 20
-26.7606
 30
0.0
 10
-19.2363
 20
-26.2044
 30
0.0
 10
-19.6685
 20
-24.474
 30
0.0
 10
-19.6685
 20
-24.474
 30
0.0
 10
-20.1006
 20
-22.7436
 30
0.0
 10
-17.4214
 20
-21.9093
 30
0.0
 10
-16.73
 20
-23.8869
 30
0.0
 10
-16.73
 20
-23.8869
 30
0.0
 10
-16.0386
 20
-25.8645
 30
0.0
 10
-15.981
 20
-29.8816
 30
0.0
 10
-22.0884
 20
-29.9434
 30
0.0
 10
-22.0884
 20
-29.9434
 30
0.0
 10
-28.1958
 20
-30.0052
 30
0.0
 10
-30.6158
 20
-24.8139
 30
0.0
 10
-30.6158
 20
-24.8139
 30
0.0
 10
-30.6158
 20
-24.8139
 30
0.0
 10
-28.4263
 20
-17.8922
 30
0.0
 10
-33.7847
 20
-17.027
 30
0.0
 10
-36.5504
 20
-13.628
 30
0.0
 10
-36.5504
 20
-13.628
 30
0.0
 10
-39.316
 20
-10.2289
 30
0.0
 10
-39.0855
 20
-5.7174
 30
0.0
 10
-39.0855
 20
-5.7174
 30
0.0
 10
-39.0855
 20
-5.7174
 30
0.0
 10
-30.3277
 20
-12.5155
 30
0.0
 10
-25.4302
 20
-6.459
 30
0.0
 10
-25.4302
 20
-6.459
 30
0.0
 10
-25.4302
 20
-6.459
 30
0.0
 10
-24.3355
 20
-9.9199
 30
0.0
 10
-21.2818
 20
-9.9199
 30
0.0
 10
-21.2818
 20
-9.9199
 30
0.0
 10
-21.2818
 20
-9.9199
 30
0.0
 10
-16.2577
 20
-17.3932
 30
0.0
 10
-11.179
 20
-13.6005
 30
0.0
 10
-9.535
 20
-12.0197
 30
0.0
 10
-9.535
 20
-12.0197
 30
0.0
 10
-9.535
 20
-12.0197
 30
0.0
 10
-6.0617
 20
-15.975
 30
0.0
 10
-6.0617
 20
-15.975
 30
0.0
 10
-6.0617
 20
-15.975
 30
0.0
 10
-6.0617
 20
-15.975
 30
0.0
 10
-5.889
 20
-24.9122
 30
0.0
 10
-5.889
 20
-24.9122
 30
0.0
  0
SPLINE
  5
87
330
1F
100
AcDbEntity
  8
layer 1
 62
   250
100
AcDbSpline
210
0.0
220
0.0
230
1.0
 70
    11
 71
     3
 72
    20
 73
    16
 74
     0
 42
0.0000000001
 43
0.0000000001
 12
1.0
 22
0.0
 32
0.0
 13
1.0
 23
0.0
 33
0.0
 40
0.0
 40
0.0
 40
0.0
 40
0.0
 40
0.2
 40
0.2
 40
0.2
 40
0.2
 40
0.4
 40
0.4
 40
0.4
 40
0.4
 40
0.6
 40
0.6
 40
0.6
 40
0.6
 40
1.0
 40
1.0
 40
1.0
 40
1.0
 10
-18.4576
 20
-1.8589
 30
0.0
 10
-18.4576
 20
-1.8589
 30
0.0
 10
-15.4057
 20
-5.3343
 30
0.0
 10
-15.4057
 20
-5.3343
 30
0.0
 10
-15.4057
 20
-5.3343
 30
0.0
 10
-16.3542
 20
-6.1276
 30
0.0
 10
-18.3164
 20
-7.536
 30
0.0
 10
-20.3599
 20
-7.6024
 30
0.0
 10
-20.3599
 20
-7.6024
 30
0.0
 10
-23.2119
 20
-7.6951
 30
0.0
 10
-23.6153
 20
-5.0067
 30
0.0
 10
-23.6153
 20
-5.0067
 30
0.0
 10
-23.6153
 20
-5.0067
 30
0.0
 10
-21.7181
 20
-4.3511
 30
0.0
 10
-19.5075
 20
-2.6985
 30
0.0
 10
-18.4576
 20
-1.8589
 30
0.0
  0
SPLINE
  5
88
330
1F
100
AcDbEntity
  8
layer 1
 62
   250
100
AcDbSpline
210
0.0
220
0.0
230
1.0
 70
    11
 71
     3
 72
    16
 73
    12
 74
     0
 42
0.0000000001
 43
0.0000000001
 12
1.0
 22
0.0
 32
0.0
 13
1.0
 23
0.0
 33
0.0
 40
0.0
 40
0.0
 40
0.0
 40
0.0
 40
0.25
 40
0.25
 40
0.25
 40
0.25
 40
0.5
 40
0.5
 40
0.5
 40
0.5
 40
1.0
 40
1.0
 40
1.0
 40
1.0
 10
-14.186
 20
-6.7232
 30
0.0
 10
-14.186
 20
-6.7232
 30
0.0
 10
-10.896
 20
-10.4698
 30
0.0
 10
-10.896
 20
-10.4698
 30
0.0
 10
-10.896
 20
-10.4698
 30
0.0
 10
-16.2145
 20
-14.4565
 30
0.0
 10
-18.7178
 20
-9.1783
 30
0.0
 10
-18.7178
 20
-9.1783
 30
0.0
 10
-18.7178
 20
-9.1783
 30
0.0
 10
-16.306
 20
-8.6445
 30
0.0
 10
-14.875
 20
-7.4589
 30
0.0
 10
-14.186
 20
-6.7232
 30
0.0
  0
SPLINE
  5
89
330
1F
100
AcDbEntity
  8
layer 1
 62
   250
100
AcDbSpline
210
0.0
220
0.0
230
1.0
 70
    11
 71
     3
 72
    28
 73
    24
 74
     0
 42
0.0000000001
 43
0.0000000001
 12
1.0
 22
0.0
 32
0.0
 13
1.0
 23
0.0
 33
0.0
 40
0.0
 40
0.0
 40
0.0
 40
0.0
 40
0.1428571428571428
 40
0.1428571428571428
 40
0.1428571428571428
 40
0.1428571428571428
 40
0.2857142857142857
 40
0.2857142857142857
 40
0.2857142857142857
 40
0.2857142857142857
 40
0.4285714285714285
 40
0.4285714285714285
 40
0.4285714285714285
 40
0.4285714285714285
 40
0.5714285714285714
 40
0.5714285714285714
 40
0.5714285714285714
 40
0.5714285714285714
 40
0.7142857142857143
 40
0.7142857142857143
 40
0.7142857142857143
 40
0.7142857142857143
 40
1.0
 40
1.0
 40
1.0
 40
1.0
 10
-30.0396
 20
-48.2365
 30
0.0
 10
-30.0396
 20
-48.2365
 30
0.0
 10
-27.1587
 20
-48.1129
 30
0.0
 10
-25.4878
 20
-52.4389
 30
0.0
 10
-25.4878
 20
-52.4389
 30
0.0
 10
-25.4878
 20
-52.4389
 30
0.0
 10
-23.2408
 20
-53.0569
 30
0.0
 10
-21.5698
 20
-51.6355
 30
0.0
 10
-21.5698
 20
-51.6355
 30
0.0
 10
-21.5698
 20
-51.6355
 30
0.0
 10
-22.607
 20
-50.2141
 30
0.0
 10
-24.1626
 20
-49.2253
 30
0.0
 10
-24.1626
 20
-49.2253
 30
0.0
 10
-24.1626
 20
-49.2253
 30
0.0
 10
-22.607
 20
-47.742
 30
0.0
 10
-20.8784
 20
-47.0004
 30
0.0
 10
-20.8784
 20
-47.0004
 30
0.0
 10
-20.8784
 20
-47.0004
 30
0.0
 10
-24.0474
 20
-38.5955
 30
0.0
 10
-27.6773
 20
-34.1459
 30
0.0
 10
-27.6773
 20
-34.1459
 30
0.0
 10
-27.6773
 20
-34.1459
 30
0.0
 10
-23.9898
 20
-43.2306
 30
0.0
 10
-30.0396
 20
-48.2365
 30
0.0
  0
SPLINE
  5
8A
330
1F
100
AcDbEntity
  8
layer 1
 62
   250
100
AcDbSpline
210
0.0
220
0.0
230
1.0
 70
    11
 71
     3
 72
    64
 73
    60
 74
     0
 42
0.0000000001
 43
0.0000000001
 12
1.0
 22
0.0
 32
0.0
 13
1.0
 23
0.0
 33
0.0
 40
0.0
 40
0.0
 40
0.0
 40
0.0
 40
0.0625
 40
0.0625
 40
0.0625
 40
0.0625
 40
0.125
 40
0.125
 40
0.125
 40
0.125
 40
0.1875
 40
0.1875
 40
0.1875
 40
0.1875
 40
0.25
 40
0.25
 40
0.25
 40
0.25
 40
0.3125
 40
0.3125
 40
0.3125
 40
0.3125
 40
0.375
 40
0.375
 40
0.375
 40
0.375
 40
0.4375
 40
0.4375
 40
0.4375
 40
0.4375
 40
0.5
 40
0.5
 40
0.5
 40
0.5
 40
0.5625
 40
0.5625
 40
0.5625
 40
0.5625
 40
0.625
 40
0.625
 40
0.625
 40
0.625
 40
0.6875
 40
0.6875
 40
0.6875
 40
0.6875
 40
0.75
 40
0.75
 40
0.75
 40
0.75
 40
0.8125
 40
0.8125
 40
0.8125
 40
0.8125
 40
0.875
 40
0.875
 40
0.875
 40
0.875
 40
1.0
 40
1.0
 40
1.0
 40
1.0
 10
-19.5532
 20
-53.9839
 30
0.0
 10
-19.5532
 20
-53.9839
 30
0.0
 10
-20.4225
 20
-64.0877
 30
0.0
 10
-28.7144
 20
-65.7261
 30
0.0
 10
-28.7144
 20
-65.7261
 30
0.0
 10
-37.0063
 20
-67.3645
 30
0.0
 10
-41.275
 20
-59.6078
 30
0.0
 10
-38.9703
 20
-54.2929
 30
0.0
 10
-38.9703
 20
-54.2929
 30
0.0
 10
-36.6656
 20
-48.9781
 30
0.0
 10
-31.48
 20
-50.0905
 30
0.0
 10
-30.731
 20
-52.8715
 30
0.0
 10
-30.731
 20
-52.8715
 30
0.0
 10
-29.982
 20
-55.6526
 30
0.0
 10
-30.6734
 20
-55.529
 30
0.0
 10
-31.8257
 20
-56.8268
 30
0.0
 10
-31.8257
 20
-56.8268
 30
0.0
 10
-32.9781
 20
-58.1246
 30
0.0
 10
-32.2291
 20
-59.7314
 30
0.0
 10
-30.6158
 20
-59.7932
 30
0.0
 10
-30.6158
 20
-59.7932
 30
0.0
 10
-29.0025
 20
-59.855
 30
0.0
 10
-28.023
 20
-57.9392
 30
0.0
 10
-28.023
 20
-57.383
 30
0.0
 10
-28.023
 20
-57.383
 30
0.0
 10
-28.023
 20
-56.8268
 30
0.0
 10
-27.4468
 20
-58.1864
 30
0.0
 10
-28.167
 20
-59.2061
 30
0.0
 10
-28.167
 20
-59.2061
 30
0.0
 10
-28.8873
 20
-60.2258
 30
0.0
 10
-28.4551
 20
-61.5854
 30
0.0
 10
-27.1587
 20
-61.5236
 30
0.0
 10
-27.1587
 20
-61.5236
 30
0.0
 10
-25.8623
 20
-61.4618
 30
0.0
 10
-25.6031
 20
-60.2876
 30
0.0
 10
-24.7964
 20
-60.8129
 30
0.0
 10
-24.7964
 20
-60.8129
 30
0.0
 10
-23.9898
 20
-61.3382
 30
0.0
 10
-23.3272
 20
-60.5348
 30
0.0
 10
-23.2696
 20
-59.5151
 30
0.0
 10
-23.2696
 20
-59.5151
 30
0.0
 10
-23.2119
 20
-58.4954
 30
0.0
 10
-22.0884
 20
-58.4954
 30
0.0
 10
-21.8291
 20
-59.1134
 30
0.0
 10
-21.8291
 20
-59.1134
 30
0.0
 10
-21.8291
 20
-59.1134
 30
0.0
 10
-21.2818
 20
-58.619
 30
0.0
 10
-21.7715
 20
-57.5993
 30
0.0
 10
-21.7715
 20
-57.5993
 30
0.0
 10
-22.2613
 20
-56.5796
 30
0.0
 10
-23.2984
 20
-57.4139
 30
0.0
 10
-23.2984
 20
-57.4139
 30
0.0
 10
-23.2984
 20
-57.4139
 30
0.0
 10
-23.2984
 20
-57.4139
 30
0.0
 10
-23.1543
 20
-55.838
 30
0.0
 10
-23.3272
 20
-55.4363
 30
0.0
 10
-23.3272
 20
-55.4363
 30
0.0
 10
-23.5
 20
-55.0345
 30
0.0
 10
-21.5698
 20
-56.1161
 30
0.0
 10
-19.5532
 20
-53.9839
 30
0.0
  0
SPLINE
  5
8B
330
1F
100
AcDbEntity
  8
layer 1
 62
   250
100
AcDbSpline
210
0.0
220
0.0
230
1.0
 70
    11
 71
     3
 72
    40
 73
    36
 74
     0
 42
0.0000000001
 43
0.0000000001
 12
1.0
 22
0.0
 32
0.0
 13
1.0
 23
0.0
 33
0.0
 40
0.0
 40
0.0
 40
0.0
 40
0.0
 40
0.1
 40
0.1
 40
0.1
 40
0.1
 40
0.2
 40
0.2
 40
0.2
 40
0.2
 40
0.3
 40
0.3
 40
0.3
 40
0.3
 40
0.4
 40
0.4
 40
0.4
 40
0.4
 40
0.5
 40
0.5
 40
0.5
 40
0.5
 40
0.6
 40
0.6
 40
0.6
 40
0.6
 40
0.7
 40
0.7
 40
0.7
 40
0.7
 40
0.8
 40
0.8
 40
0.8
 40
0.8
 40
1.0
 40
1.0
 40
1.0
 40
1.0
 10
-9.2109
 20
-87.7581
 30
0.0
 10
-9.2109
 20
-87.7581
 30
0.0
 10
-13.7051
 20
-83.2776
 30
0.0
 10
-15.1167
 20
-81.2999
 30
0.0
 10
-15.1167
 20
-81.2999
 30
0.0
 10
-16.5283
 20
-79.3223
 30
0.0
 10
-16.8164
 20
-79.8785
 30
0.0
 10
-17.1621
 20
-80.8982
 30
0.0
 10
-17.1621
 20
-80.8982
 30
0.0
 10
-17.5078
 20
-81.9179
 30
0.0
 10
-16.2114
 20
-82.6286
 30
0.0
 10
-16.1826
 20
-84.4827
 30
0.0
 10
-16.1826
 20
-84.4827
 30
0.0
 10
-16.1538
 20
-86.3367
 30
0.0
 10
-17.9688
 20
-88.2216
 30
0.0
 10
-18.5161
 20
-89.1795
 30
0.0
 10
-18.5161
 20
-89.1795
 30
0.0
 10
-19.0635
 20
-90.1375
 30
0.0
 10
-18.6602
 20
-90.5083
 30
0.0
 10
-18.6602
 20
-90.5083
 30
0.0
 10
-18.6602
 20
-90.5083
 30
0.0
 10
-18.6602
 20
-90.5083
 30
0.0
 10
-16.7876
 20
-88.6233
 30
0.0
 10
-15.2895
 20
-88.5924
 30
0.0
 10
-15.2895
 20
-88.5924
 30
0.0
 10
-13.7915
 20
-88.5615
 30
0.0
 10
-13.1865
 20
-89.7976
 30
0.0
 10
-12.8696
 20
-89.3032
 30
0.0
 10
-12.8696
 20
-89.3032
 30
0.0
 10
-12.5527
 20
-88.8087
 30
0.0
 10
-11.6597
 20
-87.8508
 30
0.0
 10
-10.5073
 20
-88.0671
 30
0.0
 10
-10.5073
 20
-88.0671
 30
0.0
 10
-9.355
 20
-88.2834
 30
0.0
 10
-9.2109
 20
-87.7581
 30
0.0
 10
-9.2109
 20
-87.7581
 30
0.0
  0
SPLINE
  5
8C
330
1F
100
AcDbEntity
  8
layer 1
 62
   250
100
AcDbSpline
210
0.0
220
0.0
230
1.0
 70
    11
 71
     3
 72
    64
 73
    60
 74
     0
 42
0.0000000001
 43
0.0000000001
 12
1.0
 22
0.0
 32
0.0
 13
1.0
 23
0.0
 33
0.0
 40
0.0
 40
0.0
 40
0.0
 40
0.0
 40
0.0625
 40
0.0625
 40
0.0625
 40
0.0625
 40
0.125
 40
0.125
 40
0.125
 40
0.125
 40
0.1875
 40
0.1875
 40
0.1875
 40
0.1875
 40
0.25
 40
0.25
 40
0.25
 40
0.25
 40
0.3125
 40
0.3125
 40
0.3125
 40
0.3125
 40
0.375
 40
0.375
 40
0.375
 40
0.375
 40
0.4375
 40
0.4375
 40
0.4375
 40
0.4375
 40
0.5
 40
0.5
 40
0.5
 40
0.5
 40
0.5625
 40
0.5625
 40
0.5625
 40
0.5625
 40
0.625
 40
0.625
 40
0.625
 40
0.625
 40
0.6875
 40
0.6875
 40
0.6875
 40
0.6875
 40
0.75
 40
0.75
 40
0.75
 40
0.75
 40
0.8125
 40
0.8125
 40
0.8125
 40
0.8125
 40
0.875
 40
0.875
 40
0.875
 40
0.875
 40
1.0
 40
1.0
 40
1.0
 40
1.0
 10
-14.2524
 20
-91.6207
 30
0.0
 10
-14.2524
 20
-91.6207
 30
0.0
 10
-14.0508
 20
-95.1433
 30
0.0
 10
-11.4004
 20
-95.9159
 30
0.0
 10
-11.4004
 20
-95.9159
 30
0.0
 10
-8.75
 20
-96.6884
 30
0.0
 10
-8.0874
 20
-94.5253
 30
0.0
 10
-8.894
 20
-93.5674
 30
0.0
 10
-8.894
 20
-93.5674
 30
0.0
 10
-9.7007
 20
-92.6095
 30
0.0
 10
-11.9477
 20
-93.7528
 30
0.0
 10
-12.0342
 20
-92.4859
 30
0.0
 10
-12.0342
 20
-92.4859
 30
0.0
 10
-12.1206
 20
-91.219
 30
0.0
 10
-10.2768
 20
-90.3229
 30
0.0
 10
-8.6635
 20
-91.2499
 30
0.0
 10
-8.6635
 20
-91.2499
 30
0.0
 10
-7.0503
 20
-92.1769
 30
0.0
 10
-6.9062
 20
-93.4747
 30
0.0
 10
-7.1943
 20
-94.5871
 30
0.0
 10
-7.1943
 20
-94.5871
 30
0.0
 10
-7.4824
 20
-95.6995
 30
0.0
 10
-7.4536
 20
-97.1828
 30
0.0
 10
-6.791
 20
-99.3767
 30
0.0
 10
-6.791
 20
-99.3767
 30
0.0
 10
-6.1284
 20
-101.5706
 30
0.0
 10
-7.8857
 20
-104.5371
 30
0.0
 10
-10.0752
 20
-104.5989
 30
0.0
 10
-10.0752
 20
-104.5989
 30
0.0
 10
-12.2646
 20
-104.6607
 30
0.0
 10
-12.8696
 20
-102.2195
 30
0.0
 10
-11.0259
 20
-101.9414
 30
0.0
 10
-11.0259
 20
-101.9414
 30
0.0
 10
-9.1821
 20
-101.6633
 30
0.0
 10
-8.6635
 20
-100.7672
 30
0.0
 10
-9.1245
 20
-99.3767
 30
0.0
 10
-9.1245
 20
-99.3767
 30
0.0
 10
-9.5854
 20
-97.9862
 30
0.0
 10
-12.5815
 20
-98.2025
 30
0.0
 10
-13.7627
 20
-100.3037
 30
0.0
 10
-13.7627
 20
-100.3037
 30
0.0
 10
-14.9438
 20
-102.4049
 30
0.0
 10
-14.2812
 20
-106.2675
 30
0.0
 10
-11.1987
 20
-106.8855
 30
0.0
 10
-11.1987
 20
-106.8855
 30
0.0
 10
-11.1987
 20
-106.8855
 30
0.0
 10
-12.0342
 20
-109.7901
 30
0.0
 10
-16.0962
 20
-108.8013
 30
0.0
 10
-16.0962
 20
-108.8013
 30
0.0
 10
-20.1582
 20
-107.8125
 30
0.0
 10
-22.1748
 20
-105.1242
 30
0.0
 10
-21.1377
 20
-101.9723
 30
0.0
 10
-21.1377
 20
-101.9723
 30
0.0
 10
-20.1006
 20
-98.8205
 30
0.0
 10
-18.228
 20
-100.1492
 30
0.0
 10
-16.6436
 20
-97.5536
 30
0.0
 10
-16.6436
 20
-97.5536
 30
0.0
 10
-15.0591
 20
-94.9579
 30
0.0
 10
-16.6436
 20
-92.455
 30
0.0
 10
-14.2524
 20
-91.6207
 30
0.0
  0
SPLINE
  5
8D
330
1F
100
AcDbEntity
  8
layer 1
 62
   250
100
AcDbSpline
210
0.0
220
0.0
230
1.0
 70
    11
 71
     3
 72
    36
 73
    32
 74
     0
 42
0.0000000001
 43
0.0000000001
 12
1.0
 22
0.0
 32
0.0
 13
1.0
 23
0.0
 33
0.0
 40
0.0
 40
0.0
 40
0.0
 40
0.0
 40
0.1111111111111111
 40
0.1111111111111111
 40
0.1111111111111111
 40
0.1111111111111111
 40
0.2222222222222222
 40
0.2222222222222222
 40
0.2222222222222222
 40
0.2222222222222222
 40
0.3333333333333333
 40
0.3333333333333333
 40
0.3333333333333333
 40
0.3333333333333333
 40
0.4444444444444444
 40
0.4444444444444444
 40
0.4444444444444444
 40
0.4444444444444444
 40
0.5555555555555556
 40
0.5555555555555556
 40
0.5555555555555556
 40
0.5555555555555556
 40
0.6666666666666666
 40
0.6666666666666666
 40
0.6666666666666666
 40
0.6666666666666666
 40
0.7777777777777778
 40
0.7777777777777778
 40
0.7777777777777778
 40
0.7777777777777778
 40
1.0
 40
1.0
 40
1.0
 40
1.0
 10
-35.5421
 20
10.2513
 30
0.0
 10
-35.5421
 20
14.2924
 30
0.0
 10
-33.6695
 20
18.4467
 30
0.0
 10
-30.6446
 20
18.354
 30
0.0
 10
-30.6446
 20
18.354
 30
0.0
 10
-28.1642
 20
18.278
 30
0.0
 10
-25.5875
 20
15.73
 30
0.0
 10
-24.74
 20
14.815
 30
0.0
 10
-24.74
 20
14.815
 30
0.0
 10
-24.74
 20
14.815
 30
0.0
 10
-28.4222
 20
10.6217
 30
0.0
 10
-28.4222
 20
10.6217
 30
0.0
 10
-28.4222
 20
10.6217
 30
0.0
 10
-28.4222
 20
10.6217
 30
0.0
 10
-28.9198
 20
10.0551
 30
0.0
 10
-28.9198
 20
10.0551
 30
0.0
 10
-28.9198
 20
10.0551
 30
0.0
 10
-28.9198
 20
10.0551
 30
0.0
 10
-28.4222
 20
9.4885
 30
0.0
 10
-28.4222
 20
9.4885
 30
0.0
 10
-28.4222
 20
9.4885
 30
0.0
 10
-28.4222
 20
9.4885
 30
0.0
 10
-24.9182
 20
5.4983
 30
0.0
 10
-24.9182
 20
5.4983
 30
0.0
 10
-24.9182
 20
5.4983
 30
0.0
 10
-25.9086
 20
4.4642
 30
0.0
 10
-28.319
 20
2.2198
 30
0.0
 10
-30.6446
 20
2.1485
 30
0.0
 10
-30.6446
 20
2.1485
 30
0.0
 10
-33.6695
 20
2.0558
 30
0.0
 10
-35.5421
 20
6.2101
 30
0.0
 10
-35.5421
 20
10.2513
 30
0.0
  0
SPLINE
  5
8E
330
1F
100
AcDbEntity
  8
layer 1
 62
   250
100
AcDbSpline
210
0.0
220
0.0
230
1.0
 70
    11
 71
     3
 72
    20
 73
    16
 74
     0
 42
0.0000000001
 43
0.0000000001
 12
1.0
 22
0.0
 32
0.0
 13
1.0
 23
0.0
 33
0.0
 40
0.0
 40
0.0
 40
0.0
 40
0.0
 40
0.2
 40
0.2
 40
0.2
 40
0.2
 40
0.4
 40
0.4
 40
0.4
 40
0.4
 40
0.6
 40
0.6
 40
0.6
 40
0.6
 40
1.0
 40
1.0
 40
1.0
 40
1.0
 10
-18.598
 20
29.0456
 30
0.0
 10
-18.598
 20
29.0456
 30
0.0
 10
-21.5974
 20
25.6299
 30
0.0
 10
-21.5974
 20
25.6299
 30
0.0
 10
-21.5974
 20
25.6299
 30
0.0
 10
-21.5974
 20
25.6299
 30
0.0
 10
-18.4202
 20
22.0117
 30
0.0
 10
-18.4202
 20
22.0117
 30
0.0
 10
-18.4202
 20
22.0117
 30
0.0
 10
-18.4202
 20
22.0117
 30
0.0
 10
-15.4207
 20
25.4274
 30
0.0
 10
-15.4207
 20
25.4274
 30
0.0
 10
-15.4207
 20
25.4274
 30
0.0
 10
-15.4207
 20
25.4274
 30
0.0
 10
-18.598
 20
29.0456
 30
0.0
 10
-18.598
 20
29.0456
 30
0.0
  0
SPLINE
  5
8F
330
1F
100
AcDbEntity
  8
layer 1
 62
   250
100
AcDbSpline
210
0.0
220
0.0
230
1.0
 70
    11
 71
     3
 72
    20
 73
    16
 74
     0
 42
0.0000000001
 43
0.0000000001
 12
1.0
 22
0.0
 32
0.0
 13
1.0
 23
0.0
 33
0.0
 40
0.0
 40
0.0
 40
0.0
 40
0.0
 40
0.2
 40
0.2
 40
0.2
 40
0.2
 40
0.4
 40
0.4
 40
0.4
 40
0.4
 40
0.6
 40
0.6
 40
0.6
 40
0.6
 40
1.0
 40
1.0
 40
1.0
 40
1.0
 10
-10.1173
 20
-8.9448
 30
0.0
 10
-10.1173
 20
-8.9448
 30
0.0
 10
-6.5101
 20
-5.2277
 30
0.0
 10
-6.5101
 20
-5.2277
 30
0.0
 10
-6.5101
 20
-5.2277
 30
0.0
 10
-6.5101
 20
-5.2277
 30
0.0
 10
-9.8526
 20
-1.812
 30
0.0
 10
-9.8526
 20
-1.812
 30
0.0
 10
-9.8526
 20
-1.812
 30
0.0
 10
-9.8526
 20
-1.812
 30
0.0
 10
-13.1168
 20
-5.5291
 30
0.0
 10
-13.1168
 20
-5.5291
 30
0.0
 10
-13.1168
 20
-5.5291
 30
0.0
 10
-13.1168
 20
-5.5291
 30
0.0
 10
-10.1173
 20
-8.9448
 30
0.0
 10
-10.1173
 20
-8.9448
 30
0.0
  0
SPLINE
  5
90
330
1F
100
AcDbEntity
  8
layer 1
 62
   250
100
AcDbSpline
210
0.0
220
0.0
230
1.0
 70
    11
 71
     3
 72
    20
 73
    16
 74
     0
 42
0.0000000001
 43
0.0000000001
 12
1.0
 22
0.0
 32
0.0
 13
1.0
 23
0.0
 33
0.0
 40
0.0
 40
0.0
 40
0.0
 40
0.0
 40
0.2
 40
0.2
 40
0.2
 40
0.2
 40
0.4
 40
0.4
 40
0.4
 40
0.4
 40
0.6
 40
0.6
 40
0.6
 40
0.6
 40
1.0
 40
1.0
 40
1.0
 40
1.0
 10
-14.7052
 20
-3.7203
 30
0.0
 10
-14.7052
 20
-3.7203
 30
0.0
 10
-11.441
 20
-0.0031
 30
0.0
 10
-11.441
 20
-0.0031
 30
0.0
 10
-11.441
 20
-0.0031
 30
0.0
 10
-11.441
 20
-0.0031
 30
0.0
 10
-14.4404
 20
3.4125
 30
0.0
 10
-14.4404
 20
3.4125
 30
0.0
 10
-14.4404
 20
3.4125
 30
0.0
 10
-14.4404
 20
3.4125
 30
0.0
 10
-17.7046
 20
-0.3046
 30
0.0
 10
-17.7046
 20
-0.3046
 30
0.0
 10
-17.7046
 20
-0.3046
 30
0.0
 10
-17.7046
 20
-0.3046
 30
0.0
 10
-14.7052
 20
-3.7203
 30
0.0
 10
-14.7052
 20
-3.7203
 30
0.0
  0
SPLINE
  5
91
330
1F
100
AcDbEntity
  8
layer 1
 62
   250
100
AcDbSpline
210
0.0
220
0.0
230
1.0
 70
    11
 71
     3
 72
    20
 73
    16
 74
     0
 42
0.0000000001
 43
0.0000000001
 12
1.0
 22
0.0
 32
0.0
 13
1.0
 23
0.0
 33
0.0
 40
0.0
 40
0.0
 40
0.0
 40
0.0
 40
0.2
 40
0.2
 40
0.2
 40
0.2
 40
0.4
 40
0.4
 40
0.4
 40
0.4
 40
0.6
 40
0.6
 40
0.6
 40
0.6
 40
1.0
 40
1.0
 40
1.0
 40
1.0
 10
-19.293
 20
1.5042
 30
0.0
 10
-19.293
 20
1.5042
 30
0.0
 10
-16.0288
 20
5.2214
 30
0.0
 10
-16.0288
 20
5.2214
 30
0.0
 10
-16.0288
 20
5.2214
 30
0.0
 10
-16.0288
 20
5.2214
 30
0.0
 10
-19.0283
 20
8.6371
 30
0.0
 10
-19.0283
 20
8.6371
 30
0.0
 10
-19.0283
 20
8.6371
 30
0.0
 10
-19.0283
 20
8.6371
 30
0.0
 10
-22.2924
 20
4.9199
 30
0.0
 10
-22.2924
 20
4.9199
 30
0.0
 10
-22.2924
 20
4.9199
 30
0.0
 10
-22.2924
 20
4.9199
 30
0.0
 10
-19.293
 20
1.5042
 30
0.0
 10
-19.293
 20
1.5042
 30
0.0
  0
SPLINE
  5
92
330
1F
100
AcDbEntity
  8
layer 1
 62
   250
100
AcDbSpline
210
0.0
220
0.0
230
1.0
 70
    11
 71
     3
 72
    20
 73
    16
 74
     0
 42
0.0000000001
 43
0.0000000001
 12
1.0
 22
0.0
 32
0.0
 13
1.0
 23
0.0
 33
0.0
 40
0.0
 40
0.0
 40
0.0
 40
0.0
 40
0.2
 40
0.2
 40
0.2
 40
0.2
 40
0.4
 40
0.4
 40
0.4
 40
0.4
 40
0.6
 40
0.6
 40
0.6
 40
0.6
 40
1.0
 40
1.0
 40
1.0
 40
1.0
 10
-23.8809
 20
6.7287
 30
0.0
 10
-23.8809
 20
6.7287
 30
0.0
 10
-20.6167
 20
10.4459
 30
0.0
 10
-20.6167
 20
10.4459
 30
0.0
 10
-20.6167
 20
10.4459
 30
0.0
 10
-20.6167
 20
10.4459
 30
0.0
 10
-23.5377
 20
13.7723
 30
0.0
 10
-23.5377
 20
13.7723
 30
0.0
 10
-23.5377
 20
13.7723
 30
0.0
 10
-23.5377
 20
13.7723
 30
0.0
 10
-26.8019
 20
10.0551
 30
0.0
 10
-26.8019
 20
10.0551
 30
0.0
 10
-26.8019
 20
10.0551
 30
0.0
 10
-26.8019
 20
10.0551
 30
0.0
 10
-23.8809
 20
6.7287
 30
0.0
 10
-23.8809
 20
6.7287
 30
0.0
  0
SPLINE
  5
93
330
1F
100
AcDbEntity
  8
layer 1
 62
   250
100
AcDbSpline
210
0.0
220
0.0
230
1.0
 70
    11
 71
     3
 72
    20
 73
    16
 74
     0
 42
0.0000000001
 43
0.0000000001
 12
1.0
 22
0.0
 32
0.0
 13
1.0
 23
0.0
 33
0.0
 40
0.0
 40
0.0
 40
0.0
 40
0.0
 40
0.2
 40
0.2
 40
0.2
 40
0.2
 40
0.4
 40
0.4
 40
0.4
 40
0.4
 40
0.6
 40
0.6
 40
0.6
 40
0.6
 40
1.0
 40
1.0
 40
1.0
 40
1.0
 10
-21.9493
 20
15.5811
 30
0.0
 10
-21.9493
 20
15.5811
 30
0.0
 10
-19.0283
 20
12.2547
 30
0.0
 10
-19.0283
 20
12.2547
 30
0.0
 10
-19.0283
 20
12.2547
 30
0.0
 10
-19.0283
 20
12.2547
 30
0.0
 10
-16.0287
 20
15.6706
 30
0.0
 10
-16.0287
 20
15.6706
 30
0.0
 10
-16.0287
 20
15.6706
 30
0.0
 10
-16.0287
 20
15.6706
 30
0.0
 10
-18.9497
 20
18.997
 30
0.0
 10
-18.9497
 20
18.997
 30
0.0
 10
-18.9497
 20
18.997
 30
0.0
 10
-18.9497
 20
18.997
 30
0.0
 10
-21.9493
 20
15.5811
 30
0.0
 10
-21.9493
 20
15.5811
 30
0.0
  0
SPLINE
  5
94
330
1F
100
AcDbEntity
  8
layer 1
 62
   250
100
AcDbSpline
210
0.0
220
0.0
230
1.0
 70
    11
 71
     3
 72
    20
 73
    16
 74
     0
 42
0.0000000001
 43
0.0000000001
 12
1.0
 22
0.0
 32
0.0
 13
1.0
 23
0.0
 33
0.0
 40
0.0
 40
0.0
 40
0.0
 40
0.0
 40
0.2
 40
0.2
 40
0.2
 40
0.2
 40
0.4
 40
0.4
 40
0.4
 40
0.4
 40
0.6
 40
0.6
 40
0.6
 40
0.6
 40
1.0
 40
1.0
 40
1.0
 40
1.0
 10
-17.3613
 20
20.8058
 30
0.0
 10
-17.3613
 20
20.8058
 30
0.0
 10
-14.4403
 20
17.4794
 30
0.0
 10
-14.4403
 20
17.4794
 30
0.0
 10
-14.4403
 20
17.4794
 30
0.0
 10
-14.4403
 20
17.4794
 30
0.0
 10
-11.4408
 20
20.8951
 30
0.0
 10
-11.4408
 20
20.8951
 30
0.0
 10
-11.4408
 20
20.8951
 30
0.0
 10
-11.4408
 20
20.8951
 30
0.0
 10
-14.3618
 20
24.2215
 30
0.0
 10
-14.3618
 20
24.2215
 30
0.0
 10
-14.3618
 20
24.2215
 30
0.0
 10
-14.3618
 20
24.2215
 30
0.0
 10
-17.3613
 20
20.8058
 30
0.0
 10
-17.3613
 20
20.8058
 30
0.0
  0
SPLINE
  5
95
330
1F
100
AcDbEntity
  8
layer 1
 62
   250
100
AcDbSpline
210
0.0
220
0.0
230
1.0
 70
    11
 71
     3
 72
    20
 73
    16
 74
     0
 42
0.0000000001
 43
0.0000000001
 12
1.0
 22
0.0
 32
0.0
 13
1.0
 23
0.0
 33
0.0
 40
0.0
 40
0.0
 40
0.0
 40
0.0
 40
0.2
 40
0.2
 40
0.2
 40
0.2
 40
0.4
 40
0.4
 40
0.4
 40
0.4
 40
0.6
 40
0.6
 40
0.6
 40
0.6
 40
1.0
 40
1.0
 40
1.0
 40
1.0
 10
-12.7734
 20
26.0303
 30
0.0
 10
-12.7734
 20
26.0303
 30
0.0
 10
-9.8524
 20
22.7039
 30
0.0
 10
-9.8524
 20
22.7039
 30
0.0
 10
-9.8524
 20
22.7039
 30
0.0
 10
-9.8524
 20
22.7039
 30
0.0
 10
-6.51
 20
26.0885
 30
0.0
 10
-6.51
 20
26.0885
 30
0.0
 10
-6.51
 20
26.0885
 30
0.0
 10
-6.51
 20
26.0885
 30
0.0
 10
-9.7742
 20
29.4458
 30
0.0
 10
-9.7742
 20
29.4458
 30
0.0
 10
-9.7742
 20
29.4458
 30
0.0
 10
-9.7742
 20
29.4458
 30
0.0
 10
-12.7734
 20
26.0303
 30
0.0
 10
-12.7734
 20
26.0303
 30
0.0
  0
SPLINE
  5
96
330
1F
100
AcDbEntity
  8
layer 1
 62
   250
100
AcDbSpline
210
0.0
220
0.0
230
1.0
 70
    11
 71
     3
 72
    20
 73
    16
 74
     0
 42
0.0000000001
 43
0.0000000001
 12
1.0
 22
0.0
 32
0.0
 13
1.0
 23
0.0
 33
0.0
 40
0.0
 40
0.0
 40
0.0
 40
0.0
 40
0.2
 40
0.2
 40
0.2
 40
0.2
 40
0.4
 40
0.4
 40
0.4
 40
0.4
 40
0.6
 40
0.6
 40
0.6
 40
0.6
 40
1.0
 40
1.0
 40
1.0
 40
1.0
 10
-9.8524
 20
19.0863
 30
0.0
 10
-9.8524
 20
19.0863
 30
0.0
 10
-12.8519
 20
15.6706
 30
0.0
 10
-12.8519
 20
15.6706
 30
0.0
 10
-12.8519
 20
15.6706
 30
0.0
 10
-12.8519
 20
15.6706
 30
0.0
 10
-9.8524
 20
12.2548
 30
0.0
 10
-9.8524
 20
12.2548
 30
0.0
 10
-9.8524
 20
12.2548
 30
0.0
 10
-9.8524
 20
12.2548
 30
0.0
 10
-6.51
 20
15.6705
 30
0.0
 10
-6.51
 20
15.6705
 30
0.0
 10
-6.51
 20
15.6705
 30
0.0
 10
-6.51
 20
15.6705
 30
0.0
 10
-9.8524
 20
19.0863
 30
0.0
 10
-9.8524
 20
19.0863
 30
0.0
  0
SPLINE
  5
97
330
1F
100
AcDbEntity
  8
layer 1
 62
   250
100
AcDbSpline
210
0.0
220
0.0
230
1.0
 70
    11
 71
     3
 72
    20
 73
    16
 74
     0
 42
0.0000000001
 43
0.0000000001
 12
1.0
 22
0.0
 32
0.0
 13
1.0
 23
0.0
 33
0.0
 40
0.0
 40
0.0
 40
0.0
 40
0.0
 40
0.2
 40
0.2
 40
0.2
 40
0.2
 40
0.4
 40
0.4
 40
0.4
 40
0.4
 40
0.6
 40
0.6
 40
0.6
 40
0.6
 40
1.0
 40
1.0
 40
1.0
 40
1.0
 10
-14.4403
 20
13.8617
 30
0.0
 10
-14.4403
 20
13.8617
 30
0.0
 10
-17.4399
 20
10.4459
 30
0.0
 10
-17.4399
 20
10.4459
 30
0.0
 10
-17.4399
 20
10.4459
 30
0.0
 10
-17.4399
 20
10.4459
 30
0.0
 10
-14.4404
 20
7.0302
 30
0.0
 10
-14.4404
 20
7.0302
 30
0.0
 10
-14.4404
 20
7.0302
 30
0.0
 10
-14.4404
 20
7.0302
 30
0.0
 10
-11.4409
 20
10.446
 30
0.0
 10
-11.4409
 20
10.446
 30
0.0
 10
-11.4409
 20
10.446
 30
0.0
 10
-11.4409
 20
10.446
 30
0.0
 10
-14.4403
 20
13.8617
 30
0.0
 10
-14.4403
 20
13.8617
 30
0.0
  0
SPLINE
  5
98
330
1F
100
AcDbEntity
  8
layer 1
 62
   250
100
AcDbSpline
210
0.0
220
0.0
230
1.0
 70
    11
 71
     3
 72
    20
 73
    16
 74
     0
 42
0.0000000001
 43
0.0000000001
 12
1.0
 22
0.0
 32
0.0
 13
1.0
 23
0.0
 33
0.0
 40
0.0
 40
0.0
 40
0.0
 40
0.0
 40
0.2
 40
0.2
 40
0.2
 40
0.2
 40
0.4
 40
0.4
 40
0.4
 40
0.4
 40
0.6
 40
0.6
 40
0.6
 40
0.6
 40
1.0
 40
1.0
 40
1.0
 40
1.0
 10
-9.8525
 20
8.6372
 30
0.0
 10
-9.8525
 20
8.6372
 30
0.0
 10
-12.852
 20
5.2214
 30
0.0
 10
-12.852
 20
5.2214
 30
0.0
 10
-12.852
 20
5.2214
 30
0.0
 10
-12.852
 20
5.2214
 30
0.0
 10
-9.8526
 20
1.8057
 30
0.0
 10
-9.8526
 20
1.8057
 30
0.0
 10
-9.8526
 20
1.8057
 30
0.0
 10
-9.8526
 20
1.8057
 30
0.0
 10
-6.51
 20
5.2215
 30
0.0
 10
-6.51
 20
5.2215
 30
0.0
 10
-6.51
 20
5.2215
 30
0.0
 10
-6.51
 20
5.2215
 30
0.0
 10
-9.8525
 20
8.6372
 30
0.0
 10
-9.8525
 20
8.6372
 30
0.0
  0
SPLINE
  5
99
330
1F
100
AcDbEntity
  8
layer 1
 62
   250
100
AcDbSpline
210
0.0
220
0.0
230
1.0
 70
    11
 71
     3
 72
    28
 73
    24
 74
     0
 42
0.0000000001
 43
0.0000000001
 12
1.0
 22
0.0
 32
0.0
 13
1.0
 23
0.0
 33
0.0
 40
0.0
 40
0.0
 40
0.0
 40
0.0
 40
0.1428571428571428
 40
0.1428571428571428
 40
0.1428571428571428
 40
0.1428571428571428
 40
0.2857142857142857
 40
0.2857142857142857
 40
0.2857142857142857
 40
0.2857142857142857
 40
0.4285714285714285
 40
0.4285714285714285
 40
0.4285714285714285
 40
0.4285714285714285
 40
0.5714285714285714
 40
0.5714285714285714
 40
0.5714285714285714
 40
0.5714285714285714
 40
0.7142857142857143
 40
0.7142857142857143
 40
0.7142857142857143
 40
0.7142857142857143
 40
1.0
 40
1.0
 40
1.0
 40
1.0
 10
-9.9858
 20
106.431
 30
0.0
 10
-9.9858
 20
106.431
 30
0.0
 10
-12.521
 20
105.3804
 30
0.0
 10
-14.6817
 20
108.0378
 30
0.0
 10
-14.6817
 20
108.0378
 30
0.0
 10
-14.6817
 20
108.0378
 30
0.0
 10
-17.2744
 20
107.1108
 30
0.0
 10
-18.8589
 20
109.212
 30
0.0
 10
-18.8589
 20
109.212
 30
0.0
 10
-18.8589
 20
109.212
 30
0.0
 10
-19.6079
 20
108.1614
 30
0.0
 10
-18.7437
 20
107.0181
 30
0.0
 10
-18.7437
 20
107.0181
 30
0.0
 10
-17.8794
 20
105.8748
 30
0.0
 10
-16.9575
 20
104.6696
 30
0.0
 10
-17.4185
 20
102.692
 30
0.0
 10
-17.4185
 20
102.692
 30
0.0
 10
-17.8794
 20
100.7144
 30
0.0
 10
-17.4185
 20
98.675
 30
0.0
 10
-16.7559
 20
97.8715
 30
0.0
 10
-16.7559
 20
97.8715
 30
0.0
 10
-16.7559
 20
97.8715
 30
0.0
 10
-11.2246
 20
101.456
 30
0.0
 10
-9.9858
 20
106.431
 30
0.0
  0
SPLINE
  5
9A
330
1F
100
AcDbEntity
  8
layer 1
 62
   250
100
AcDbSpline
210
0.0
220
0.0
230
1.0
 70
    11
 71
     3
 72
    60
 73
    56
 74
     0
 42
0.0000000001
 43
0.0000000001
 12
1.0
 22
0.0
 32
0.0
 13
1.0
 23
0.0
 33
0.0
 40
0.0
 40
0.0
 40
0.0
 40
0.0
 40
0.0666666666666667
 40
0.0666666666666667
 40
0.0666666666666667
 40
0.0666666666666667
 40
0.1333333333333333
 40
0.1333333333333333
 40
0.1333333333333333
 40
0.1333333333333333
 40
0.2
 40
0.2
 40
0.2
 40
0.2
 40
0.2666666666666667
 40
0.2666666666666667
 40
0.2666666666666667
 40
0.2666666666666667
 40
0.3333333333333333
 40
0.3333333333333333
 40
0.3333333333333333
 40
0.3333333333333333
 40
0.4
 40
0.4
 40
0.4
 40
0.4
 40
0.4666666666666667
 40
0.4666666666666667
 40
0.4666666666666667
 40
0.4666666666666667
 40
0.5333333333333333
 40
0.5333333333333333
 40
0.5333333333333333
 40
0.5333333333333333
 40
0.6
 40
0.6
 40
0.6
 40
0.6
 40
0.6666666666666666
 40
0.6666666666666666
 40
0.6666666666666666
 40
0.6666666666666666
 40
0.7333333333333333
 40
0.7333333333333333
 40
0.7333333333333333
 40
0.7333333333333333
 40
0.8
 40
0.8
 40
0.8
 40
0.8
 40
0.8666666666666667
 40
0.8666666666666667
 40
0.8666666666666667
 40
0.8666666666666667
 40
1.0
 40
1.0
 40
1.0
 40
1.0
 10
-14.7393
 20
109.6446
 30
0.0
 10
-14.7393
 20
109.6446
 30
0.0
 10
-15.7188
 20
109.9845
 30
0.0
 10
-16.0357
 20
112.1785
 30
0.0
 10
-16.0357
 20
112.1785
 30
0.0
 10
-16.3526
 20
114.3724
 30
0.0
 10
-17.937
 20
116.9371
 30
0.0
 10
-20.6162
 20
118.9148
 30
0.0
 10
-20.6162
 20
118.9148
 30
0.0
 10
-23.2955
 20
120.8924
 30
0.0
 10
-21.9991
 20
123.4571
 30
0.0
 10
-20.357
 20
125.2493
 30
0.0
 10
-20.357
 20
125.2493
 30
0.0
 10
-18.7149
 20
127.0416
 30
0.0
 10
-14.8545
 20
128.4939
 30
0.0
 10
-11.3687
 20
125.5893
 30
0.0
 10
-11.3687
 20
125.5893
 30
0.0
 10
-11.3687
 20
125.5893
 30
0.0
 10
-14.3936
 20
124.5386
 30
0.0
 10
-14.7969
 20
121.4795
 30
0.0
 10
-14.7969
 20
121.4795
 30
0.0
 10
-15.2002
 20
118.4203
 30
0.0
 10
-12.8091
 20
116.8753
 30
0.0
 10
-11.2534
 20
117.0298
 30
0.0
 10
-11.2534
 20
117.0298
 30
0.0
 10
-9.6977
 20
117.1843
 30
0.0
 10
-9.8418
 20
118.9766
 30
0.0
 10
-10.4756
 20
119.4401
 30
0.0
 10
-10.4756
 20
119.4401
 30
0.0
 10
-11.1094
 20
119.9036
 30
0.0
 10
-12.9531
 20
119.1311
 30
0.0
 10
-12.7515
 20
120.707
 30
0.0
 10
-12.7515
 20
120.707
 30
0.0
 10
-12.5498
 20
122.2829
 30
0.0
 10
-9.352
 20
123.0245
 30
0.0
 10
-8.1133
 20
119.3783
 30
0.0
 10
-8.1133
 20
119.3783
 30
0.0
 10
-6.8745
 20
115.732
 30
0.0
 10
-7.6523
 20
111.0042
 30
0.0
 10
-9.5249
 20
109.3665
 30
0.0
 10
-9.5249
 20
109.3665
 30
0.0
 10
-11.3975
 20
107.7288
 30
0.0
 10
-12.8091
 20
109.1193
 30
0.0
 10
-12.6362
 20
109.9845
 30
0.0
 10
-12.6362
 20
109.9845
 30
0.0
 10
-12.4634
 20
110.8497
 30
0.0
 10
-9.7842
 20
109.8918
 30
0.0
 10
-9.6401
 20
112.1476
 30
0.0
 10
-9.6401
 20
112.1476
 30
0.0
 10
-9.4961
 20
114.4033
 30
0.0
 10
-12.665
 20
113.7853
 30
0.0
 10
-13.7022
 20
112.8583
 30
0.0
 10
-13.7022
 20
112.8583
 30
0.0
 10
-14.7393
 20
111.9313
 30
0.0
 10
-14.7393
 20
109.6446
 30
0.0
 10
-14.7393
 20
109.6446
 30
0.0
  0
SPLINE
  5
9B
330
1F
100
AcDbEntity
  8
layer 1
 62
   250
100
AcDbSpline
210
0.0
220
0.0
230
1.0
 70
    11
 71
     3
 72
    56
 73
    52
 74
     0
 42
0.0000000001
 43
0.0000000001
 12
1.0
 22
0.0
 32
0.0
 13
1.0
 23
0.0
 33
0.0
 40
0.0
 40
0.0
 40
0.0
 40
0.0
 40
0.0714285714285714
 40
0.0714285714285714
 40
0.0714285714285714
 40
0.0714285714285714
 40
0.1428571428571428
 40
0.1428571428571428
 40
0.1428571428571428
 40
0.1428571428571428
 40
0.2142857142857143
 40
0.2142857142857143
 40
0.2142857142857143
 40
0.2142857142857143
 40
0.2857142857142857
 40
0.2857142857142857
 40
0.2857142857142857
 40
0.2857142857142857
 40
0.3571428571428572
 40
0.3571428571428572
 40
0.3571428571428572
 40
0.3571428571428572
 40
0.4285714285714285
 40
0.4285714285714285
 40
0.4285714285714285
 40
0.4285714285714285
 40
0.5
 40
0.5
 40
0.5
 40
0.5
 40
0.5714285714285714
 40
0.5714285714285714
 40
0.5714285714285714
 40
0.5714285714285714
 40
0.6428571428571429
 40
0.6428571428571429
 40
0.6428571428571429
 40
0.6428571428571429
 40
0.7142857142857143
 40
0.7142857142857143
 40
0.7142857142857143
 40
0.7142857142857143
 40
0.7857142857142857
 40
0.7857142857142857
 40
0.7857142857142857
 40
0.7857142857142857
 40
0.8571428571428571
 40
0.8571428571428571
 40
0.8571428571428571
 40
0.8571428571428571
 40
1.0
 40
1.0
 40
1.0
 40
1.0
 10
-20.4722
 20
73.4911
 30
0.0
 10
-20.4722
 20
73.4911
 30
0.0
 10
-20.0113
 20
73.8619
 30
0.0
 10
-20.0113
 20
73.8619
 30
0.0
 10
-20.0113
 20
73.8619
 30
0.0
 10
-20.0113
 20
73.8619
 30
0.0
 10
-20.5899
 20
81.0361
 30
0.0
 10
-27.5591
 20
83.75
 30
0.0
 10
-27.5591
 20
83.75
 30
0.0
 10
-34.5284
 20
86.464
 30
0.0
 10
-39.1979
 20
80.1038
 30
0.0
 10
-38.9098
 20
74.9743
 30
0.0
 10
-38.9098
 20
74.9743
 30
0.0
 10
-38.6217
 20
69.8448
 30
0.0
 10
-34.0123
 20
67.9908
 30
0.0
 10
-31.189
 20
69.6594
 30
0.0
 10
-31.189
 20
69.6594
 30
0.0
 10
-28.3658
 20
71.3281
 30
0.0
 10
-30.6705
 20
75.1597
 30
0.0
 10
-32.9176
 20
75.5305
 30
0.0
 10
-32.9176
 20
75.5305
 30
0.0
 10
-32.9176
 20
75.5305
 30
0.0
 10
-32.1685
 20
79.2386
 30
0.0
 10
-28.5386
 20
76.3339
 30
0.0
 10
-28.5386
 20
76.3339
 30
0.0
 10
-28.5386
 20
76.3339
 30
0.0
 10
-27.6744
 20
77.2918
 30
0.0
 10
-28.6539
 20
78.6206
 30
0.0
 10
-28.6539
 20
78.6206
 30
0.0
 10
-29.6334
 20
79.9493
 30
0.0
 10
-28.9132
 20
80.5982
 30
0.0
 10
-27.9337
 20
80.1965
 30
0.0
 10
-27.9337
 20
80.1965
 30
0.0
 10
-26.9542
 20
79.7948
 30
0.0
 10
-25.4849
 20
78.9296
 30
0.0
 10
-25.773
 20
79.6712
 30
0.0
 10
-25.773
 20
79.6712
 30
0.0
 10
-26.0611
 20
80.4128
 30
0.0
 10
-24.9952
 20
81.0617
 30
0.0
 10
-24.1597
 20
78.7133
 30
0.0
 10
-24.1597
 20
78.7133
 30
0.0
 10
-24.1597
 20
78.7133
 30
0.0
 10
-23.0074
 20
79.2386
 30
0.0
 10
-22.7193
 20
78.2807
 30
0.0
 10
-22.7193
 20
78.2807
 30
0.0
 10
-22.4312
 20
77.3227
 30
0.0
 10
-23.4971
 20
75.4996
 30
0.0
 10
-23.4971
 20
75.4996
 30
0.0
 10
-23.4971
 20
75.4996
 30
0.0
 10
-23.4971
 20
75.4996
 30
0.0
 10
-21.4805
 20
75.5305
 30
0.0
 10
-20.4722
 20
73.4911
 30
0.0
  0
SPLINE
  5
9C
330
1F
100
AcDbEntity
  8
layer 1
 62
   250
100
AcDbSpline
210
0.0
220
0.0
230
1.0
 70
    11
 71
     3
 72
    28
 73
    24
 74
     0
 42
0.0000000001
 43
0.0000000001
 12
1.0
 22
0.0
 32
0.0
 13
1.0
 23
0.0
 33
0.0
 40
0.0
 40
0.0
 40
0.0
 40
0.0
 40
0.1428571428571428
 40
0.1428571428571428
 40
0.1428571428571428
 40
0.1428571428571428
 40
0.2857142857142857
 40
0.2857142857142857
 40
0.2857142857142857
 40
0.2857142857142857
 40
0.4285714285714285
 40
0.4285714285714285
 40
0.4285714285714285
 40
0.4285714285714285
 40
0.5714285714285714
 40
0.5714285714285714
 40
0.5714285714285714
 40
0.5714285714285714
 40
0.7142857142857143
 40
0.7142857142857143
 40
0.7142857142857143
 40
0.7142857142857143
 40
1.0
 40
1.0
 40
1.0
 40
1.0
 10
-21.7974
 20
72.0079
 30
0.0
 10
-21.7974
 20
72.0079
 30
0.0
 10
-23.3243
 20
71.4826
 30
0.0
 10
-24.419
 20
71.9461
 30
0.0
 10
-24.419
 20
71.9461
 30
0.0
 10
-25.5137
 20
72.4096
 30
0.0
 10
-26.0323
 20
68.5779
 30
0.0
 10
-29.2589
 20
66.5076
 30
0.0
 10
-29.2589
 20
66.5076
 30
0.0
 10
-29.2589
 20
66.5076
 30
0.0
 10
-25.4849
 20
60.5747
 30
0.0
 10
-27.5015
 20
53.9002
 30
0.0
 10
-27.5015
 20
53.9002
 30
0.0
 10
-27.5015
 20
53.9002
 30
0.0
 10
-21.6822
 20
60.1421
 30
0.0
 10
-20.4146
 20
67.4964
 30
0.0
 10
-20.4146
 20
67.4964
 30
0.0
 10
-20.4146
 20
67.4964
 30
0.0
 10
-22.1719
 20
66.9711
 30
0.0
 10
-23.5259
 20
67.8363
 30
0.0
 10
-23.5259
 20
67.8363
 30
0.0
 10
-23.5259
 20
67.8363
 30
0.0
 10
-21.4517
 20
69.783
 30
0.0
 10
-21.7974
 20
72.0079
 30
0.0
  0
SPLINE
  5
9D
330
1F
100
AcDbEntity
  8
layer 1
 62
   250
100
AcDbSpline
210
0.0
220
0.0
230
1.0
 70
    11
 71
     3
 72
    24
 73
    20
 74
     0
 42
0.0000000001
 43
0.0000000001
 12
1.0
 22
0.0
 32
0.0
 13
1.0
 23
0.0
 33
0.0
 40
0.0
 40
0.0
 40
0.0
 40
0.0
 40
0.1666666666666667
 40
0.1666666666666667
 40
0.1666666666666667
 40
0.1666666666666667
 40
0.3333333333333333
 40
0.3333333333333333
 40
0.3333333333333333
 40
0.3333333333333333
 40
0.5
 40
0.5
 40
0.5
 40
0.5
 40
0.6666666666666666
 40
0.6666666666666666
 40
0.6666666666666666
 40
0.6666666666666666
 40
1.0
 40
1.0
 40
1.0
 40
1.0
 10
-29.23
 20
56.8976
 30
0.0
 10
-29.23
 20
56.8976
 30
0.0
 10
-28.0489
 20
61.8725
 30
0.0
 10
-31.3619
 20
64.4064
 30
0.0
 10
-31.3619
 20
64.4064
 30
0.0
 10
-34.6749
 20
66.9402
 30
0.0
 10
-38.6793
 20
64.6536
 30
0.0
 10
-38.8233
 20
61.2236
 30
0.0
 10
-38.8233
 20
61.2236
 30
0.0
 10
-38.9674
 20
57.7937
 30
0.0
 10
-36.1153
 20
56.3104
 30
0.0
 10
-35.2223
 20
57.5156
 30
0.0
 10
-35.2223
 20
57.5156
 30
0.0
 10
-34.3292
 20
58.7207
 30
0.0
 10
-33.6954
 20
59.864
 30
0.0
 10
-31.9381
 20
59.9567
 30
0.0
 10
-31.9381
 20
59.9567
 30
0.0
 10
-30.1807
 20
60.0494
 30
0.0
 10
-29.2877
 20
58.2881
 30
0.0
 10
-29.23
 20
56.8976
 30
0.0
  0
ENDSEC
  0
SECTION
  2
OBJECTS
  0
DICTIONARY
  5
C
330
0
100
AcDbDictionary
281
     1
  3
ACAD_GROUP
350
D
  3
ACAD_LAYOUT
350
1A
  3
ACAD_MATERIAL
350
3B
  3
ACAD_MLEADERSTYLE
350
C0
  3
ACAD_MLINESTYLE
350
17
  3
ACAD_PLOTSETTINGS
350
19
  3
ACAD_PLOTSTYLENAME
350
E
  3
ACAD_TABLESTYLE
350
BF
  3
ACAD_VISUALSTYLE
350
2A
  0
DICTIONARY
  5
D
102
{ACAD_REACTORS
330
C
102
}
330
C
100
AcDbDictionary
281
     1
  0
DICTIONARY
  5
1A
102
{ACAD_REACTORS
330
C
102
}
330
C
100
AcDbDictionary
281
     1
  3
Layout1
350
1E
  3
Layout2
350
26
  3
Model
350
22
  0
DICTIONARY
  5
3B
102
{ACAD_REACTORS
330
C
102
}
330
C
100
AcDbDictionary
281
     1
  3
ByBlock
350
3D
  3
ByLayer
350
3C
  3
Global
350
3E
  0
DICTIONARY
  5
C0
102
{ACAD_REACTORS
330
C
102
}
330
C
100
AcDbDictionary
281
     1
  0
DICTIONARY
  5
17
102
{ACAD_REACTORS
330
C
102
}
330
C
100
AcDbDictionary
281
     1
  3
Standard
350
18
  0
DICTIONARY
  5
19
102
{ACAD_REACTORS
330
C
102
}
330
C
100
AcDbDictionary
281
     1
  0
ACDBDICTIONARYWDFLT
  5
E
102
{ACAD_REACTORS
330
C
102
}
330
C
100
AcDbDictionary
281
     1
  3
Normal
350
F
100
AcDbDictionaryWithDefault
340
F
  0
DICTIONARY
  5
BF
102
{ACAD_REACTORS
330
C
102
}
330
C
100
AcDbDictionary
281
     1
  0
DICTIONARY
  5
2A
102
{ACAD_REACTORS
330
C
102
}
330
C
100
AcDbDictionary
281
     1
  3
2dWireframe
350
2F
  3
3D Hidden
350
31
  3
3dWireframe
350
30
  3
Basic
350
32
  3
Brighten
350
36
  3
ColorChange
350
3A
  3
Conceptual
350
34
  3
Dim
350
35
  3
Facepattern
350
39
  3
Flat
350
2B
  3
FlatWithEdges
350
2C
  3
Gouraud
350
2D
  3
GouraudWithEdges
350
2E
  3
Linepattern
350
38
  3
Realistic
350
33
  3
Thicken
350
37
  0
LAYOUT
  5
1E
102
{ACAD_REACTORS
330
1A
102
}
330
1A
100
AcDbPlotSettings
  1

  2
none_device
  4

  6

 40
0.0
 41
0.0
 42
0.0
 43
0.0
 44
0.0
 45
0.0
 46
0.0
 47
0.0
 48
0.0
 49
0.0
140
0.0
141
0.0
142
1.0
143
1.0
 70
   688
 72
     0
 73
     0
 74
     5
  7

 75
    16
 76
     0
 77
     2
 78
   300
147
1.0
148
0.0
149
0.0
100
AcDbLayout
  1
Layout1
 70
     1
 71
     1
 10
0.0
 20
0.0
 11
12.0
 21
9.0
 12
0.0
 22
0.0
 32
0.0
 14
1.000000000000000E+20
 24
1.000000000000000E+20
 34
1.000000000000000E+20
 15
-1.000000000000000E+20
 25
-1.000000000000000E+20
 35
-1.000000000000000E+20
146
0.0
 13
0.0
 23
0.0
 33
0.0
 16
1.0
 26
0.0
 36
0.0
 17
0.0
 27
1.0
 37
0.0
 76
     0
330
1B
  0
LAYOUT
  5
26
102
{ACAD_REACTORS
330
1A
102
}
330
1A
100
AcDbPlotSettings
  1

  2
none_device
  4

  6

 40
0.0
 41
0.0
 42
0.0
 43
0.0
 44
0.0
 45
0.0
 46
0.0
 47
0.0
 48
0.0
 49
0.0
140
0.0
141
0.0
142
1.0
143
1.0
 70
   688
 72
     0
 73
     0
 74
     5
  7

 75
    16
 76
     0
 77
     2
 78
   300
147
1.0
148
0.0
149
0.0
100
AcDbLayout
  1
Layout2
 70
     1
 71
     2
 10
0.0
 20
0.0
 11
0.0
 21
0.0
 12
0.0
 22
0.0
 32
0.0
 14
0.0
 24
0.0
 34
0.0
 15
0.0
 25
0.0
 35
0.0
146
0.0
 13
0.0
 23
0.0
 33
0.0
 16
1.0
 26
0.0
 36
0.0
 17
0.0
 27
1.0
 37
0.0
 76
     0
330
23
  0
LAYOUT
  5
22
102
{ACAD_REACTORS
330
1A
102
}
330
1A
100
AcDbPlotSettings
  1

  2
none_device
  4

  6

 40
0.0
 41
0.0
 42
0.0
 43
0.0
 44
0.0
 45
0.0
 46
0.0
 47
0.0
 48
0.0
 49
0.0
140
0.0
141
0.0
142
1.0
143
1.0
 70
  1712
 72
     0
 73
     0
 74
     0
  7

 75
     0
 76
     0
 77
     2
 78
   300
147
1.0
148
0.0
149
0.0
100
AcDbLayout
  1
Model
 70
     1
 71
     0
 10
0.0
 20
0.0
 11
12.0
 21
9.0
 12
0.0
 22
0.0
 32
0.0
 14
-43.8907
 24
-115.0905
 34
0.0
 15
34.0217
 25
131.7742
 35
0.0
146
0.0
 13
0.0
 23
0.0
 33
0.0
 16
1.0
 26
0.0
 36
0.0
 17
0.0
 27
1.0
 37
0.0
 76
     0
330
1F
331
29
  0
MATERIAL
  5
3D
102
{ACAD_REACTORS
330
3B
102
}
330
3B
100
AcDbMaterial
  1
ByBlock
 72
     1
 94
      127
  0
MATERIAL
  5
3C
102
{ACAD_REACTORS
330
3B
102
}
330
3B
100
AcDbMaterial
  1
ByLayer
 72
     1
 94
      127
  0
MATERIAL
  5
3E
102
{ACAD_REACTORS
330
3B
102
}
330
3B
100
AcDbMaterial
  1
Global
 72
     1
 94
      127
  0
MLINESTYLE
  5
18
102
{ACAD_REACTORS
330
17
102
}
330
17
100
AcDbMlineStyle
  2
Standard
 70
     0
  3

 62
   256
 51
90.0
 52
90.0
 71
     2
 49
0.5
 62
   256
  6
BYLAYER
 49
-0.5
 62
   256
  6
BYLAYER
  0
ACDBPLACEHOLDER
  5
F
102
{ACAD_REACTORS
330
E
102
}
330
E
  0
VISUALSTYLE
  5
2F
102
{ACAD_REACTORS
330
2A
102
}
102
{ACAD_XDICTIONARY
360
A7
102
}
330
2A
100
AcDbVisualStyle
  2
2dWireframe
 70
     4
 71
     0
 72
     2
 73
     0
 90
        0
 40
-0.6
 41
-30.0
 62
     5
 63
     7
421
 16777215
 74
     1
 91
        4
 64
     7
 65
   257
 75
     1
175
     1
 42
1.0
 92
        0
 66
   257
 43
1.0
 76
     1
 77
     6
 78
     2
 67
     7
 79
     5
170
     0
171
     0
290
     0
174
     0
 93
        1
 44
0.0
173
     0
291
     0
 45
0.0
  0
VISUALSTYLE
  5
31
102
{ACAD_REACTORS
330
2A
102
}
102
{ACAD_XDICTIONARY
360
AB
102
}
330
2A
100
AcDbVisualStyle
  2
3D Hidden
 70
     6
 71
     1
 72
     2
 73
     2
 90
        0
 40
-0.6
 41
-30.0
 62
     5
 63
     7
421
 16777215
 74
     2
 91
        2
 64
     7
 65
   257
 75
     2
175
     1
 42
40.0
 92
        0
 66
   257
 43
1.0
 76
     1
 77
     6
 78
     2
 67
     7
 79
     3
170
     0
171
     0
290
     0
174
     0
 93
        1
 44
0.0
173
     0
291
     0
 45
0.0
  0
VISUALSTYLE
  5
30
102
{ACAD_REACTORS
330
2A
102
}
102
{ACAD_XDICTIONARY
360
A9
102
}
330
2A
100
AcDbVisualStyle
  2
3dWireframe
 70
     5
 71
     0
 72
     2
 73
     0
 90
        0
 40
-0.6
 41
-30.0
 62
     5
 63
     7
421
 16777215
 74
     1
 91
        4
 64
     7
 65
   257
 75
     1
175
     1
 42
1.0
 92
        0
 66
   257
 43
1.0
 76
     1
 77
     6
 78
     2
 67
     7
 79
     5
170
     0
171
     0
290
     0
174
     0
 93
        1
 44
0.0
173
     0
291
     0
 45
0.0
  0
VISUALSTYLE
  5
32
102
{ACAD_REACTORS
330
2A
102
}
102
{ACAD_XDICTIONARY
360
AD
102
}
330
2A
100
AcDbVisualStyle
  2
Basic
 70
     7
 71
     1
 72
     0
 73
     1
 90
        0
 40
-0.6
 41
-30.0
 62
     5
 63
     7
421
 16777215
 74
     0
 91
        4
 64
     7
 65
   257
 75
     1
175
     1
 42
1.0
 92
        8
 66
     7
 43
1.0
 76
     1
 77
     6
 78
     2
 67
     7
 79
     5
170
     0
171
     0
290
     0
174
     0
 93
        1
 44
0.0
173
     0
291
     1
 45
0.0
  0
VISUALSTYLE
  5
36
102
{ACAD_REACTORS
330
2A
102
}
102
{ACAD_XDICTIONARY
360
B5
102
}
330
2A
100
AcDbVisualStyle
  2
Brighten
 70
    12
 71
     2
 72
     2
 73
     0
 90
        0
 40
-0.6
 41
-30.0
 62
     5
 63
     7
421
 16777215
 74
     1
 91
        4
 64
     7
 65
   257
 75
     1
175
     1
 42
1.0
 92
        8
 66
     7
 43
1.0
 76
     1
 77
     6
 78
     2
 67
     7
 79
     5
170
     0
171
     0
290
     0
174
     0
 93
        1
 44
50.0
173
     0
291
     1
 45
0.0
  0
VISUALSTYLE
  5
3A
102
{ACAD_REACTORS
330
2A
102
}
102
{ACAD_XDICTIONARY
360
BD
102
}
330
2A
100
AcDbVisualStyle
  2
ColorChange
 70
    16
 71
     2
 72
     2
 73
     3
 90
        0
 40
-0.6
 41
-30.0
 62
     5
 63
     8
421
  8421504
 74
     1
 91
        4
 64
     7
 65
   257
 75
     1
175
     1
 42
1.0
 92
        8
 66
     8
424
  8421504
 43
1.0
 76
     1
 77
     6
 78
     2
 67
     7
 79
     5
170
     0
171
     0
290
     0
174
     0
 93
        1
 44
0.0
173
     0
291
     1
 45
0.0
  0
VISUALSTYLE
  5
34
102
{ACAD_REACTORS
330
2A
102
}
102
{ACAD_XDICTIONARY
360
B1
102
}
330
2A
100
AcDbVisualStyle
  2
Conceptual
 70
     9
 71
     3
 72
     2
 73
     0
 90
        0
 40
-0.6
 41
-30.0
 62
     5
 63
     7
421
 16777215
 74
     2
 91
        2
 64
     7
 65
   257
 75
     1
175
     1
 42
40.0
 92
        8
 66
     7
 43
1.0
 76
     1
 77
     6
 78
     2
 67
     7
 79
     3
170
     0
171
     0
290
     0
174
     0
 93
        1
 44
0.0
173
     0
291
     0
 45
0.0
  0
VISUALSTYLE
  5
35
102
{ACAD_REACTORS
330
2A
102
}
102
{ACAD_XDICTIONARY
360
B3
102
}
330
2A
100
AcDbVisualStyle
  2
Dim
 70
    11
 71
     2
 72
     2
 73
     0
 90
        0
 40
-0.6
 41
-30.0
 62
     5
 63
     7
421
 16777215
 74
     1
 91
        4
 64
     7
 65
   257
 75
     1
175
     1
 42
1.0
 92
        8
 66
     7
 43
1.0
 76
     1
 77
     6
 78
     2
 67
     7
 79
     5
170
     0
171
     0
290
     0
174
     0
 93
        1
 44
-50.0
173
     0
291
     1
 45
0.0
  0
VISUALSTYLE
  5
39
102
{ACAD_REACTORS
330
2A
102
}
102
{ACAD_XDICTIONARY
360
BB
102
}
330
2A
100
AcDbVisualStyle
  2
Facepattern
 70
    15
 71
     2
 72
     2
 73
     0
 90
        0
 40
-0.6
 41
-30.0
 62
     5
 63
     7
421
 16777215
 74
     1
 91
        4
 64
     7
 65
   257
 75
     1
175
     1
 42
1.0
 92
        8
 66
     7
 43
1.0
 76
     1
 77
     6
 78
     2
 67
     7
 79
     5
170
     0
171
     0
290
     0
174
     0
 93
        1
 44
0.0
173
     0
291
     1
 45
0.0
  0
VISUALSTYLE
  5
2B
102
{ACAD_REACTORS
330
2A
102
}
102
{ACAD_XDICTIONARY
360
9F
102
}
330
2A
100
AcDbVisualStyle
  2
Flat
 70
     0
 71
     2
 72
     1
 73
     1
 90
        2
 40
-0.6
 41
30.0
 62
     5
 63
     7
421
 16777215
 74
     0
 91
        4
 64
     7
 65
   257
 75
     1
175
     1
 42
1.0
 92
        8
 66
     7
 43
1.0
 76
     1
 77
     6
 78
     2
 67
     7
 79
     5
170
     0
171
     0
290
     0
174
     0
 93
       13
 44
0.0
173
     0
291
     1
 45
0.0
  0
VISUALSTYLE
  5
2C
102
{ACAD_REACTORS
330
2A
102
}
102
{ACAD_XDICTIONARY
360
A1
102
}
330
2A
100
AcDbVisualStyle
  2
FlatWithEdges
 70
     1
 71
     2
 72
     1
 73
     1
 90
        2
 40
-0.6
 41
30.0
 62
     5
 63
     7
421
 16777215
 74
     1
 91
        4
 64
     7
 65
   257
 75
     1
175
     1
 42
1.0
 92
        0
 66
   257
 43
1.0
 76
     1
 77
     6
 78
     2
 67
     7
 79
     5
170
     0
171
     0
290
     0
174
     0
 93
       13
 44
0.0
173
     0
291
     1
 45
0.0
  0
VISUALSTYLE
  5
2D
102
{ACAD_REACTORS
330
2A
102
}
102
{ACAD_XDICTIONARY
360
A3
102
}
330
2A
100
AcDbVisualStyle
  2
Gouraud
 70
     2
 71
     2
 72
     2
 73
     1
 90
        2
 40
-0.6
 41
30.0
 62
     5
 63
     7
421
 16777215
 74
     0
 91
        4
 64
     7
 65
   257
 75
     1
175
     1
 42
1.0
 92
        0
 66
     7
 43
1.0
 76
     1
 77
     6
 78
     2
 67
     7
 79
     5
170
     0
171
     0
290
     0
174
     0
 93
       13
 44
0.0
173
     0
291
     1
 45
0.0
  0
VISUALSTYLE
  5
2E
102
{ACAD_REACTORS
330
2A
102
}
102
{ACAD_XDICTIONARY
360
A5
102
}
330
2A
100
AcDbVisualStyle
  2
GouraudWithEdges
 70
     3
 71
     2
 72
     2
 73
     1
 90
        2
 40
-0.6
 41
30.0
 62
     5
 63
     7
421
 16777215
 74
     1
 91
        4
 64
     7
 65
   257
 75
     1
175
     1
 42
1.0
 92
        0
 66
   257
 43
1.0
 76
     1
 77
     6
 78
     2
 67
     7
 79
     5
170
     0
171
     0
290
     0
174
     0
 93
       13
 44
0.0
173
     0
291
     1
 45
0.0
  0
VISUALSTYLE
  5
38
102
{ACAD_REACTORS
330
2A
102
}
102
{ACAD_XDICTIONARY
360
B9
102
}
330
2A
100
AcDbVisualStyle
  2
Linepattern
 70
    14
 71
     2
 72
     2
 73
     0
 90
        0
 40
-0.6
 41
-30.0
 62
     5
 63
     7
421
 16777215
 74
     1
 91
        4
 64
     7
 65
   257
 75
     7
175
     7
 42
1.0
 92
        8
 66
     7
 43
1.0
 76
     1
 77
     6
 78
     2
 67
     7
 79
     5
170
     0
171
     0
290
     0
174
     0
 93
        1
 44
0.0
173
     0
291
     1
 45
0.0
  0
VISUALSTYLE
  5
33
102
{ACAD_REACTORS
330
2A
102
}
102
{ACAD_XDICTIONARY
360
AF
102
}
330
2A
100
AcDbVisualStyle
  2
Realistic
 70
     8
 71
     2
 72
     2
 73
     0
 90
        0
 40
-0.6
 41
-30.0
 62
     5
 63
     7
421
 16777215
 74
     1
 91
        0
 64
     7
 65
   257
 75
     1
175
     1
 42
1.0
 92
        8
 66
     8
424
  7895160
 43
1.0
 76
     1
 77
     6
 78
     2
 67
     7
 79
     5
170
     0
171
     0
290
     0
174
     0
 93
       13
 44
0.0
173
     0
291
     0
 45
0.0
  0
VISUALSTYLE
  5
37
102
{ACAD_REACTORS
330
2A
102
}
102
{ACAD_XDICTIONARY
360
B7
102
}
330
2A
100
AcDbVisualStyle
  2
Thicken
 70
    13
 71
     2
 72
     2
 73
     0
 90
        0
 40
-0.6
 41
-30.0
 62
     5
 63
     7
421
 16777215
 74
     1
 91
        4
 64
     7
 65
   257
 75
     1
175
     1
 42
1.0
 92
       12
 66
     7
 43
1.0
 76
     1
 77
     6
 78
     2
 67
     7
 79
     5
170
     0
171
     0
290
     0
174
     0
 93
        1
 44
0.0
173
     0
291
     1
 45
0.0
  0
DICTIONARY
  5
A7
330
2F
100
AcDbDictionary
280
     1
281
     1
  3
ACAD_XREC_ROUNDTRIP
360
A8
  0
DICTIONARY
  5
AB
330
31
100
AcDbDictionary
280
     1
281
     1
  3
ACAD_XREC_ROUNDTRIP
360
AC
  0
DICTIONARY
  5
A9
330
30
100
AcDbDictionary
280
     1
281
     1
  3
ACAD_XREC_ROUNDTRIP
360
AA
  0
DICTIONARY
  5
AD
330
32
100
AcDbDictionary
280
     1
281
     1
  3
ACAD_XREC_ROUNDTRIP
360
AE
  0
DICTIONARY
  5
B5
330
36
100
AcDbDictionary
280
     1
281
     1
  3
ACAD_XREC_ROUNDTRIP
360
B6
  0
DICTIONARY
  5
BD
330
3A
100
AcDbDictionary
280
     1
281
     1
  3
ACAD_XREC_ROUNDTRIP
360
BE
  0
DICTIONARY
  5
B1
330
34
100
AcDbDictionary
280
     1
281
     1
  3
ACAD_XREC_ROUNDTRIP
360
B2
  0
DICTIONARY
  5
B3
330
35
100
AcDbDictionary
280
     1
281
     1
  3
ACAD_XREC_ROUNDTRIP
360
B4
  0
DICTIONARY
  5
BB
330
39
100
AcDbDictionary
280
     1
281
     1
  3
ACAD_XREC_ROUNDTRIP
360
BC
  0
DICTIONARY
  5
9F
330
2B
100
AcDbDictionary
280
     1
281
     1
  3
ACAD_XREC_ROUNDTRIP
360
A0
  0
DICTIONARY
  5
A1
330
2C
100
AcDbDictionary
280
     1
281
     1
  3
ACAD_XREC_ROUNDTRIP
360
A2
  0
DICTIONARY
  5
A3
330
2D
100
AcDbDictionary
280
     1
281
     1
  3
ACAD_XREC_ROUNDTRIP
360
A4
  0
DICTIONARY
  5
A5
330
2E
100
AcDbDictionary
280
     1
281
     1
  3
ACAD_XREC_ROUNDTRIP
360
A6
  0
DICTIONARY
  5
B9
330
38
100
AcDbDictionary
280
     1
281
     1
  3
ACAD_XREC_ROUNDTRIP
360
BA
  0
DICTIONARY
  5
AF
330
33
100
AcDbDictionary
280
     1
281
     1
  3
ACAD_XREC_ROUNDTRIP
360
B0
  0
DICTIONARY
  5
B7
330
37
100
AcDbDictionary
280
     1
281
     1
  3
ACAD_XREC_ROUNDTRIP
360
B8
  0
XRECORD
  5
A8
102
{ACAD_REACTORS
330
A7
102
}
330
A7
100
AcDbXrecord
280
     1
102
RTVSPropertyOp0
 70
     1
102
RTVSPropertyOp1
 70
     1
102
RTVSPropertyOp2
 70
     1
102
RTVSPropertyOp3
 70
     1
102
RTVSPropertyOp4
 70
     1
102
RTVSPropertyOp5
 70
     1
102
RTVSPropertyOp6
 70
     1
102
RTVSPropertyOp7
 70
     1
102
RTVSPropertyOp8
 70
     1
102
RTVSPropertyOp9
 70
     1
102
RTVSPropertyOp10
 70
     1
102
RTVSPropertyOp11
 70
     1
102
RTVSPropertyOp12
 70
     1
102
RTVSPropertyOp13
 70
     1
102
RTVSPropertyOp14
 70
     1
102
RTVSPropertyOp15
 70
     1
102
RTVSPropertyOp16
 70
     1
102
RTVSPropertyOp17
 70
     1
102
RTVSPropertyOp18
 70
     1
102
RTVSPropertyOp19
 70
     1
102
RTVSPropertyOp20
 70
     1
102
RTVSPropertyOp21
 70
     1
102
RTVSPropertyOp22
 70
     1
102
RTVSPropertyOp23
 70
     1
102
RTVSPropertyOp24
 70
     1
102
RTVSPropertyOp25
 70
     1
102
RTVSPropertyOp26
 70
     1
102
RTVSPropertyOp27
 70
     1
102
RTVSPropertyOp28
 70
     1
102
RTVSPropertyOp29
 70
     1
102
RTVSPropertyOp30
 70
     1
102
RTVSPropertyOp31
 70
     1
102
RTVSPropertyOp32
 70
     1
  0
XRECORD
  5
AC
102
{ACAD_REACTORS
330
AB
102
}
330
AB
100
AcDbXrecord
280
     1
102
RTVSPropertyOp0
 70
     1
102
RTVSPropertyOp1
 70
     1
102
RTVSPropertyOp2
 70
     1
102
RTVSPropertyOp3
 70
     1
102
RTVSPropertyOp4
 70
     1
102
RTVSPropertyOp5
 70
     1
102
RTVSPropertyOp6
 70
     1
102
RTVSPropertyOp7
 70
     1
102
RTVSPropertyOp8
 70
     1
102
RTVSPropertyOp9
 70
     1
102
RTVSPropertyOp10
 70
     1
102
RTVSPropertyOp11
 70
     1
102
RTVSPropertyOp12
 70
     1
102
RTVSPropertyOp13
 70
     1
102
RTVSPropertyOp14
 70
     1
102
RTVSPropertyOp15
 70
     1
102
RTVSPropertyOp16
 70
     1
102
RTVSPropertyOp17
 70
     1
102
RTVSPropertyOp18
 70
     1
102
RTVSPropertyOp19
 70
     1
102
RTVSPropertyOp20
 70
     1
102
RTVSPropertyOp21
 70
     1
102
RTVSPropertyOp22
 70
     1
102
RTVSPropertyOp23
 70
     1
102
RTVSPropertyOp24
 70
     1
102
RTVSPropertyOp25
 70
     1
102
RTVSPropertyOp26
 70
     1
102
RTVSPropertyOp27
 70
     1
102
RTVSPropertyOp28
 70
     1
102
RTVSPropertyOp29
 70
     1
102
RTVSPropertyOp30
 70
     1
102
RTVSPropertyOp31
 70
     1
102
RTVSPropertyOp32
 70
     1
  0
XRECORD
  5
AA
102
{ACAD_REACTORS
330
A9
102
}
330
A9
100
AcDbXrecord
280
     1
102
RTVSPropertyOp0
 70
     1
102
RTVSPropertyOp1
 70
     1
102
RTVSPropertyOp2
 70
     1
102
RTVSPropertyOp3
 70
     1
102
RTVSPropertyOp4
 70
     1
102
RTVSPropertyOp5
 70
     1
102
RTVSPropertyOp6
 70
     1
102
RTVSPropertyOp7
 70
     1
102
RTVSPropertyOp8
 70
     1
102
RTVSPropertyOp9
 70
     1
102
RTVSPropertyOp10
 70
     1
102
RTVSPropertyOp11
 70
     1
102
RTVSPropertyOp12
 70
     1
102
RTVSPropertyOp13
 70
     1
102
RTVSPropertyOp14
 70
     1
102
RTVSPropertyOp15
 70
     1
102
RTVSPropertyOp16
 70
     1
102
RTVSPropertyOp17
 70
     1
102
RTVSPropertyOp18
 70
     1
102
RTVSPropertyOp19
 70
     1
102
RTVSPropertyOp20
 70
     1
102
RTVSPropertyOp21
 70
     1
102
RTVSPropertyOp22
 70
     1
102
RTVSPropertyOp23
 70
     1
102
RTVSPropertyOp24
 70
     1
102
RTVSPropertyOp25
 70
     1
102
RTVSPropertyOp26
 70
     1
102
RTVSPropertyOp27
 70
     1
102
RTVSPropertyOp28
 70
     1
102
RTVSPropertyOp29
 70
     1
102
RTVSPropertyOp30
 70
     1
102
RTVSPropertyOp31
 70
     1
102
RTVSPropertyOp32
 70
     1
  0
XRECORD
  5
AE
102
{ACAD_REACTORS
330
AD
102
}
330
AD
100
AcDbXrecord
280
     1
102
RTVSPropertyOp0
 70
     1
102
RTVSPropertyOp1
 70
     1
102
RTVSPropertyOp2
 70
     1
102
RTVSPropertyOp3
 70
     1
102
RTVSPropertyOp4
 70
     1
102
RTVSPropertyOp5
 70
     1
102
RTVSPropertyOp6
 70
     1
102
RTVSPropertyOp7
 70
     1
102
RTVSPropertyOp8
 70
     1
102
RTVSPropertyOp9
 70
     1
102
RTVSPropertyOp10
 70
     1
102
RTVSPropertyOp11
 70
     1
102
RTVSPropertyOp12
 70
     1
102
RTVSPropertyOp13
 70
     1
102
RTVSPropertyOp14
 70
     1
102
RTVSPropertyOp15
 70
     1
102
RTVSPropertyOp16
 70
     1
102
RTVSPropertyOp17
 70
     1
102
RTVSPropertyOp18
 70
     1
102
RTVSPropertyOp19
 70
     1
102
RTVSPropertyOp20
 70
     1
102
RTVSPropertyOp21
 70
     1
102
RTVSPropertyOp22
 70
     1
102
RTVSPropertyOp23
 70
     1
102
RTVSPropertyOp24
 70
     1
102
RTVSPropertyOp25
 70
     1
102
RTVSPropertyOp26
 70
     1
102
RTVSPropertyOp27
 70
     1
102
RTVSPropertyOp28
 70
     1
102
RTVSPropertyOp29
 70
     1
102
RTVSPropertyOp30
 70
     1
102
RTVSPropertyOp31
 70
     1
102
RTVSPropertyOp32
 70
     1
  0
XRECORD
  5
B6
102
{ACAD_REACTORS
330
B5
102
}
330
B5
100
AcDbXrecord
280
     1
102
RTVSPropertyOp0
 70
     1
102
RTVSPropertyOp1
 70
     1
102
RTVSPropertyOp2
 70
     1
102
RTVSPropertyOp3
 70
     1
102
RTVSPropertyOp4
 70
     1
102
RTVSPropertyOp5
 70
     1
102
RTVSPropertyOp6
 70
     1
102
RTVSPropertyOp7
 70
     1
102
RTVSPropertyOp8
 70
     1
102
RTVSPropertyOp9
 70
     1
102
RTVSPropertyOp10
 70
     1
102
RTVSPropertyOp11
 70
     1
102
RTVSPropertyOp12
 70
     1
102
RTVSPropertyOp13
 70
     1
102
RTVSPropertyOp14
 70
     1
102
RTVSPropertyOp15
 70
     1
102
RTVSPropertyOp16
 70
     1
102
RTVSPropertyOp17
 70
     1
102
RTVSPropertyOp18
 70
     1
102
RTVSPropertyOp19
 70
     1
102
RTVSPropertyOp20
 70
     1
102
RTVSPropertyOp21
 70
     1
102
RTVSPropertyOp22
 70
     1
102
RTVSPropertyOp23
 70
     1
102
RTVSPropertyOp24
 70
     1
102
RTVSPropertyOp25
 70
     1
102
RTVSPropertyOp26
 70
     1
102
RTVSPropertyOp27
 70
     1
102
RTVSPropertyOp28
 70
     1
102
RTVSPropertyOp29
 70
     1
102
RTVSPropertyOp30
 70
     1
102
RTVSPropertyOp31
 70
     1
102
RTVSPropertyOp32
 70
     1
  0
XRECORD
  5
BE
102
{ACAD_REACTORS
330
BD
102
}
330
BD
100
AcDbXrecord
280
     1
102
RTVSPropertyOp0
 70
     1
102
RTVSPropertyOp1
 70
     1
102
RTVSPropertyOp2
 70
     1
102
RTVSPropertyOp3
 70
     1
102
RTVSPropertyOp4
 70
     1
102
RTVSPropertyOp5
 70
     1
102
RTVSPropertyOp6
 70
     1
102
RTVSPropertyOp7
 70
     1
102
RTVSPropertyOp8
 70
     1
102
RTVSPropertyOp9
 70
     1
102
RTVSPropertyOp10
 70
     1
102
RTVSPropertyOp11
 70
     1
102
RTVSPropertyOp12
 70
     1
102
RTVSPropertyOp13
 70
     1
102
RTVSPropertyOp14
 70
     1
102
RTVSPropertyOp15
 70
     1
102
RTVSPropertyOp16
 70
     1
102
RTVSPropertyOp17
 70
     1
102
RTVSPropertyOp18
 70
     1
102
RTVSPropertyOp19
 70
     1
102
RTVSPropertyOp20
 70
     1
102
RTVSPropertyOp21
 70
     1
102
RTVSPropertyOp22
 70
     1
102
RTVSPropertyOp23
 70
     1
102
RTVSPropertyOp24
 70
     1
102
RTVSPropertyOp25
 70
     1
102
RTVSPropertyOp26
 70
     1
102
RTVSPropertyOp27
 70
     1
102
RTVSPropertyOp28
 70
     1
102
RTVSPropertyOp29
 70
     1
102
RTVSPropertyOp30
 70
     1
102
RTVSPropertyOp31
 70
     1
102
RTVSPropertyOp32
 70
     1
  0
XRECORD
  5
B2
102
{ACAD_REACTORS
330
B1
102
}
330
B1
100
AcDbXrecord
280
     1
102
RTVSPropertyOp0
 70
     1
102
RTVSPropertyOp1
 70
     1
102
RTVSPropertyOp2
 70
     1
102
RTVSPropertyOp3
 70
     1
102
RTVSPropertyOp4
 70
     1
102
RTVSPropertyOp5
 70
     1
102
RTVSPropertyOp6
 70
     1
102
RTVSPropertyOp7
 70
     1
102
RTVSPropertyOp8
 70
     1
102
RTVSPropertyOp9
 70
     1
102
RTVSPropertyOp10
 70
     1
102
RTVSPropertyOp11
 70
     1
102
RTVSPropertyOp12
 70
     1
102
RTVSPropertyOp13
 70
     1
102
RTVSPropertyOp14
 70
     1
102
RTVSPropertyOp15
 70
     1
102
RTVSPropertyOp16
 70
     1
102
RTVSPropertyOp17
 70
     1
102
RTVSPropertyOp18
 70
     1
102
RTVSPropertyOp19
 70
     1
102
RTVSPropertyOp20
 70
     1
102
RTVSPropertyOp21
 70
     1
102
RTVSPropertyOp22
 70
     1
102
RTVSPropertyOp23
 70
     1
102
RTVSPropertyOp24
 70
     1
102
RTVSPropertyOp25
 70
     1
102
RTVSPropertyOp26
 70
     1
102
RTVSPropertyOp27
 70
     1
102
RTVSPropertyOp28
 70
     1
102
RTVSPropertyOp29
 70
     1
102
RTVSPropertyOp30
 70
     1
102
RTVSPropertyOp31
 70
     1
102
RTVSPropertyOp32
 70
     1
  0
XRECORD
  5
B4
102
{ACAD_REACTORS
330
B3
102
}
330
B3
100
AcDbXrecord
280
     1
102
RTVSPropertyOp0
 70
     1
102
RTVSPropertyOp1
 70
     1
102
RTVSPropertyOp2
 70
     1
102
RTVSPropertyOp3
 70
     1
102
RTVSPropertyOp4
 70
     1
102
RTVSPropertyOp5
 70
     1
102
RTVSPropertyOp6
 70
     1
102
RTVSPropertyOp7
 70
     1
102
RTVSPropertyOp8
 70
     1
102
RTVSPropertyOp9
 70
     1
102
RTVSPropertyOp10
 70
     1
102
RTVSPropertyOp11
 70
     1
102
RTVSPropertyOp12
 70
     1
102
RTVSPropertyOp13
 70
     1
102
RTVSPropertyOp14
 70
     1
102
RTVSPropertyOp15
 70
     1
102
RTVSPropertyOp16
 70
     1
102
RTVSPropertyOp17
 70
     1
102
RTVSPropertyOp18
 70
     1
102
RTVSPropertyOp19
 70
     1
102
RTVSPropertyOp20
 70
     1
102
RTVSPropertyOp21
 70
     1
102
RTVSPropertyOp22
 70
     1
102
RTVSPropertyOp23
 70
     1
102
RTVSPropertyOp24
 70
     1
102
RTVSPropertyOp25
 70
     1
102
RTVSPropertyOp26
 70
     1
102
RTVSPropertyOp27
 70
     1
102
RTVSPropertyOp28
 70
     1
102
RTVSPropertyOp29
 70
     1
102
RTVSPropertyOp30
 70
     1
102
RTVSPropertyOp31
 70
     1
102
RTVSPropertyOp32
 70
     1
  0
XRECORD
  5
BC
102
{ACAD_REACTORS
330
BB
102
}
330
BB
100
AcDbXrecord
280
     1
102
RTVSPropertyOp0
 70
     1
102
RTVSPropertyOp1
 70
     1
102
RTVSPropertyOp2
 70
     1
102
RTVSPropertyOp3
 70
     1
102
RTVSPropertyOp4
 70
     1
102
RTVSPropertyOp5
 70
     1
102
RTVSPropertyOp6
 70
     1
102
RTVSPropertyOp7
 70
     1
102
RTVSPropertyOp8
 70
     1
102
RTVSPropertyOp9
 70
     1
102
RTVSPropertyOp10
 70
     1
102
RTVSPropertyOp11
 70
     1
102
RTVSPropertyOp12
 70
     1
102
RTVSPropertyOp13
 70
     1
102
RTVSPropertyOp14
 70
     1
102
RTVSPropertyOp15
 70
     1
102
RTVSPropertyOp16
 70
     1
102
RTVSPropertyOp17
 70
     1
102
RTVSPropertyOp18
 70
     1
102
RTVSPropertyOp19
 70
     1
102
RTVSPropertyOp20
 70
     1
102
RTVSPropertyOp21
 70
     1
102
RTVSPropertyOp22
 70
     1
102
RTVSPropertyOp23
 70
     1
102
RTVSPropertyOp24
 70
     1
102
RTVSPropertyOp25
 70
     1
102
RTVSPropertyOp26
 70
     1
102
RTVSPropertyOp27
 70
     1
102
RTVSPropertyOp28
 70
     1
102
RTVSPropertyOp29
 70
     1
102
RTVSPropertyOp30
 70
     1
102
RTVSPropertyOp31
 70
     1
102
RTVSPropertyOp32
 70
     1
  0
XRECORD
  5
A0
102
{ACAD_REACTORS
330
9F
102
}
330
9F
100
AcDbXrecord
280
     1
102
RTVSPropertyOp0
 70
     1
102
RTVSPropertyOp1
 70
     1
102
RTVSPropertyOp2
 70
     1
102
RTVSPropertyOp3
 70
     1
102
RTVSPropertyOp4
 70
     1
102
RTVSPropertyOp5
 70
     1
102
RTVSPropertyOp6
 70
     1
102
RTVSPropertyOp7
 70
     1
102
RTVSPropertyOp8
 70
     1
102
RTVSPropertyOp9
 70
     1
102
RTVSPropertyOp10
 70
     1
102
RTVSPropertyOp11
 70
     1
102
RTVSPropertyOp12
 70
     1
102
RTVSPropertyOp13
 70
     1
102
RTVSPropertyOp14
 70
     1
102
RTVSPropertyOp15
 70
     1
102
RTVSPropertyOp16
 70
     1
102
RTVSPropertyOp17
 70
     1
102
RTVSPropertyOp18
 70
     1
102
RTVSPropertyOp19
 70
     1
102
RTVSPropertyOp20
 70
     1
102
RTVSPropertyOp21
 70
     1
102
RTVSPropertyOp22
 70
     1
102
RTVSPropertyOp23
 70
     1
102
RTVSPropertyOp24
 70
     1
102
RTVSPropertyOp25
 70
     1
102
RTVSPropertyOp26
 70
     1
102
RTVSPropertyOp27
 70
     1
102
RTVSPropertyOp28
 70
     1
102
RTVSPropertyOp29
 70
     1
102
RTVSPropertyOp30
 70
     1
102
RTVSPropertyOp31
 70
     1
102
RTVSPropertyOp32
 70
     1
  0
XRECORD
  5
A2
102
{ACAD_REACTORS
330
A1
102
}
330
A1
100
AcDbXrecord
280
     1
102
RTVSPropertyOp0
 70
     1
102
RTVSPropertyOp1
 70
     1
102
RTVSPropertyOp2
 70
     1
102
RTVSPropertyOp3
 70
     1
102
RTVSPropertyOp4
 70
     1
102
RTVSPropertyOp5
 70
     1
102
RTVSPropertyOp6
 70
     1
102
RTVSPropertyOp7
 70
     1
102
RTVSPropertyOp8
 70
     1
102
RTVSPropertyOp9
 70
     1
102
RTVSPropertyOp10
 70
     1
102
RTVSPropertyOp11
 70
     1
102
RTVSPropertyOp12
 70
     1
102
RTVSPropertyOp13
 70
     1
102
RTVSPropertyOp14
 70
     1
102
RTVSPropertyOp15
 70
     1
102
RTVSPropertyOp16
 70
     1
102
RTVSPropertyOp17
 70
     1
102
RTVSPropertyOp18
 70
     1
102
RTVSPropertyOp19
 70
     1
102
RTVSPropertyOp20
 70
     1
102
RTVSPropertyOp21
 70
     1
102
RTVSPropertyOp22
 70
     1
102
RTVSPropertyOp23
 70
     1
102
RTVSPropertyOp24
 70
     1
102
RTVSPropertyOp25
 70
     1
102
RTVSPropertyOp26
 70
     1
102
RTVSPropertyOp27
 70
     1
102
RTVSPropertyOp28
 70
     1
102
RTVSPropertyOp29
 70
     1
102
RTVSPropertyOp30
 70
     1
102
RTVSPropertyOp31
 70
     1
102
RTVSPropertyOp32
 70
     1
  0
XRECORD
  5
A4
102
{ACAD_REACTORS
330
A3
102
}
330
A3
100
AcDbXrecord
280
     1
102
RTVSPropertyOp0
 70
     1
102
RTVSPropertyOp1
 70
     1
102
RTVSPropertyOp2
 70
     1
102
RTVSPropertyOp3
 70
     1
102
RTVSPropertyOp4
 70
     1
102
RTVSPropertyOp5
 70
     1
102
RTVSPropertyOp6
 70
     1
102
RTVSPropertyOp7
 70
     1
102
RTVSPropertyOp8
 70
     1
102
RTVSPropertyOp9
 70
     1
102
RTVSPropertyOp10
 70
     1
102
RTVSPropertyOp11
 70
     1
102
RTVSPropertyOp12
 70
     1
102
RTVSPropertyOp13
 70
     1
102
RTVSPropertyOp14
 70
     1
102
RTVSPropertyOp15
 70
     1
102
RTVSPropertyOp16
 70
     1
102
RTVSPropertyOp17
 70
     1
102
RTVSPropertyOp18
 70
     1
102
RTVSPropertyOp19
 70
     1
102
RTVSPropertyOp20
 70
     1
102
RTVSPropertyOp21
 70
     1
102
RTVSPropertyOp22
 70
     1
102
RTVSPropertyOp23
 70
     1
102
RTVSPropertyOp24
 70
     1
102
RTVSPropertyOp25
 70
     1
102
RTVSPropertyOp26
 70
     1
102
RTVSPropertyOp27
 70
     1
102
RTVSPropertyOp28
 70
     1
102
RTVSPropertyOp29
 70
     1
102
RTVSPropertyOp30
 70
     1
102
RTVSPropertyOp31
 70
     1
102
RTVSPropertyOp32
 70
     1
  0
XRECORD
  5
A6
102
{ACAD_REACTORS
330
A5
102
}
330
A5
100
AcDbXrecord
280
     1
102
RTVSPropertyOp0
 70
     1
102
RTVSPropertyOp1
 70
     1
102
RTVSPropertyOp2
 70
     1
102
RTVSPropertyOp3
 70
     1
102
RTVSPropertyOp4
 70
     1
102
RTVSPropertyOp5
 70
     1
102
RTVSPropertyOp6
 70
     1
102
RTVSPropertyOp7
 70
     1
102
RTVSPropertyOp8
 70
     1
102
RTVSPropertyOp9
 70
     1
102
RTVSPropertyOp10
 70
     1
102
RTVSPropertyOp11
 70
     1
102
RTVSPropertyOp12
 70
     1
102
RTVSPropertyOp13
 70
     1
102
RTVSPropertyOp14
 70
     1
102
RTVSPropertyOp15
 70
     1
102
RTVSPropertyOp16
 70
     1
102
RTVSPropertyOp17
 70
     1
102
RTVSPropertyOp18
 70
     1
102
RTVSPropertyOp19
 70
     1
102
RTVSPropertyOp20
 70
     1
102
RTVSPropertyOp21
 70
     1
102
RTVSPropertyOp22
 70
     1
102
RTVSPropertyOp23
 70
     1
102
RTVSPropertyOp24
 70
     1
102
RTVSPropertyOp25
 70
     1
102
RTVSPropertyOp26
 70
     1
102
RTVSPropertyOp27
 70
     1
102
RTVSPropertyOp28
 70
     1
102
RTVSPropertyOp29
 70
     1
102
RTVSPropertyOp30
 70
     1
102
RTVSPropertyOp31
 70
     1
102
RTVSPropertyOp32
 70
     1
  0
XRECORD
  5
BA
102
{ACAD_REACTORS
330
B9
102
}
330
B9
100
AcDbXrecord
280
     1
102
RTVSPropertyOp0
 70
     1
102
RTVSPropertyOp1
 70
     1
102
RTVSPropertyOp2
 70
     1
102
RTVSPropertyOp3
 70
     1
102
RTVSPropertyOp4
 70
     1
102
RTVSPropertyOp5
 70
     1
102
RTVSPropertyOp6
 70
     1
102
RTVSPropertyOp7
 70
     1
102
RTVSPropertyOp8
 70
     1
102
RTVSPropertyOp9
 70
     1
102
RTVSPropertyOp10
 70
     1
102
RTVSPropertyOp11
 70
     1
102
RTVSPropertyOp12
 70
     1
102
RTVSPropertyOp13
 70
     1
102
RTVSPropertyOp14
 70
     1
102
RTVSPropertyOp15
 70
     1
102
RTVSPropertyOp16
 70
     1
102
RTVSPropertyOp17
 70
     1
102
RTVSPropertyOp18
 70
     1
102
RTVSPropertyOp19
 70
     1
102
RTVSPropertyOp20
 70
     1
102
RTVSPropertyOp21
 70
     1
102
RTVSPropertyOp22
 70
     1
102
RTVSPropertyOp23
 70
     1
102
RTVSPropertyOp24
 70
     1
102
RTVSPropertyOp25
 70
     1
102
RTVSPropertyOp26
 70
     1
102
RTVSPropertyOp27
 70
     1
102
RTVSPropertyOp28
 70
     1
102
RTVSPropertyOp29
 70
     1
102
RTVSPropertyOp30
 70
     1
102
RTVSPropertyOp31
 70
     1
102
RTVSPropertyOp32
 70
     1
  0
XRECORD
  5
B0
102
{ACAD_REACTORS
330
AF
102
}
330
AF
100
AcDbXrecord
280
     1
102
RTVSPropertyOp0
 70
     1
102
RTVSPropertyOp1
 70
     1
102
RTVSPropertyOp2
 70
     1
102
RTVSPropertyOp3
 70
     1
102
RTVSPropertyOp4
 70
     1
102
RTVSPropertyOp5
 70
     1
102
RTVSPropertyOp6
 70
     1
102
RTVSPropertyOp7
 70
     1
102
RTVSPropertyOp8
 70
     1
102
RTVSPropertyOp9
 70
     1
102
RTVSPropertyOp10
 70
     1
102
RTVSPropertyOp11
 70
     1
102
RTVSPropertyOp12
 70
     1
102
RTVSPropertyOp13
 70
     1
102
RTVSPropertyOp14
 70
     1
102
RTVSPropertyOp15
 70
     1
102
RTVSPropertyOp16
 70
     1
102
RTVSPropertyOp17
 70
     1
102
RTVSPropertyOp18
 70
     1
102
RTVSPropertyOp19
 70
     1
102
RTVSPropertyOp20
 70
     1
102
RTVSPropertyOp21
 70
     1
102
RTVSPropertyOp22
 70
     1
102
RTVSPropertyOp23
 70
     1
102
RTVSPropertyOp24
 70
     1
102
RTVSPropertyOp25
 70
     1
102
RTVSPropertyOp26
 70
     1
102
RTVSPropertyOp27
 70
     1
102
RTVSPropertyOp28
 70
     1
102
RTVSPropertyOp29
 70
     1
102
RTVSPropertyOp30
 70
     1
102
RTVSPropertyOp31
 70
     1
102
RTVSPropertyOp32
 70
     1
  0
XRECORD
  5
B8
102
{ACAD_REACTORS
330
B7
102
}
330
B7
100
AcDbXrecord
280
     1
102
RTVSPropertyOp0
 70
     1
102
RTVSPropertyOp1
 70
     1
102
RTVSPropertyOp2
 70
     1
102
RTVSPropertyOp3
 70
     1
102
RTVSPropertyOp4
 70
     1
102
RTVSPropertyOp5
 70
     1
102
RTVSPropertyOp6
 70
     1
102
RTVSPropertyOp7
 70
     1
102
RTVSPropertyOp8
 70
     1
102
RTVSPropertyOp9
 70
     1
102
RTVSPropertyOp10
 70
     1
102
RTVSPropertyOp11
 70
     1
102
RTVSPropertyOp12
 70
     1
102
RTVSPropertyOp13
 70
     1
102
RTVSPropertyOp14
 70
     1
102
RTVSPropertyOp15
 70
     1
102
RTVSPropertyOp16
 70
     1
102
RTVSPropertyOp17
 70
     1
102
RTVSPropertyOp18
 70
     1
102
RTVSPropertyOp19
 70
     1
102
RTVSPropertyOp20
 70
     1
102
RTVSPropertyOp21
 70
     1
102
RTVSPropertyOp22
 70
     1
102
RTVSPropertyOp23
 70
     1
102
RTVSPropertyOp24
 70
     1
102
RTVSPropertyOp25
 70
     1
102
RTVSPropertyOp26
 70
     1
102
RTVSPropertyOp27
 70
     1
102
RTVSPropertyOp28
 70
     1
102
RTVSPropertyOp29
 70
     1
102
RTVSPropertyOp30
 70
     1
102
RTVSPropertyOp31
 70
     1
102
RTVSPropertyOp32
 70
     1
  0
ENDSEC
  0
EOF
