  0
SECTION
  2
HEADER
  9
$ACADVER
  1
AC1021
  9
$ACADMAINTVER
 70
    25
  9
$DWGCODEPAGE
  3
ANSI_1252
  9
$INSBASE
 10
0.0
 20
0.0
 30
0.0
  9
$EXTMIN
 10
-187.4392
 20
-114.7096
 30
0.0
  9
$EXTMAX
 10
-48.6144
 20
131.7265
 30
0.0
  9
$LIMMIN
 10
0.0
 20
0.0
  9
$LIMMAX
 10
12.0
 20
9.0
  9
$ORTHOMODE
 70
     0
  9
$REGENMODE
 70
     1
  9
$FILLMODE
 70
     1
  9
$QTEXTMODE
 70
     0
  9
$MIRRTEXT
 70
     1
  9
$LTSCALE
 40
1.0
  9
$ATTMODE
 70
     1
  9
$TEXTSIZE
 40
0.2
  9
$TRACEWID
 40
0.05
  9
$TEXTSTYLE
  7
Standard
  9
$CLAYER
  8
0
  9
$CELTYPE
  6
ByLayer
  9
$CECOLOR
 62
   256
  9
$CELTSCALE
 40
1.0
  9
$DISPSILH
 70
     0
  9
$DIMSCALE
 40
1.0
  9
$DIMASZ
 40
0.18
  9
$DIMEXO
 40
0.0625
  9
$DIMDLI
 40
0.38
  9
$DIMRND
 40
0.0
  9
$DIMDLE
 40
0.0
  9
$DIMEXE
 40
0.18
  9
$DIMTP
 40
0.0
  9
$DIMTM
 40
0.0
  9
$DIMTXT
 40
0.18
  9
$DIMCEN
 40
0.09
  9
$DIMTSZ
 40
0.0
  9
$DIMTOL
 70
     0
  9
$DIMLIM
 70
     0
  9
$DIMTIH
 70
     1
  9
$DIMTOH
 70
     1
  9
$DIMSE1
 70
     0
  9
$DIMSE2
 70
     0
  9
$DIMTAD
 70
     0
  9
$DIMZIN
 70
     0
  9
$DIMBLK
  1

  9
$DIMASO
 70
     1
  9
$DIMSHO
 70
     1
  9
$DIMPOST
  1

  9
$DIMAPOST
  1

  9
$DIMALT
 70
     0
  9
$DIMALTD
 70
     2
  9
$DIMALTF
 40
25.4
  9
$DIMLFAC
 40
1.0
  9
$DIMTOFL
 70
     0
  9
$DIMTVP
 40
0.0
  9
$DIMTIX
 70
     0
  9
$DIMSOXD
 70
     0
  9
$DIMSAH
 70
     0
  9
$DIMBLK1
  1

  9
$DIMBLK2
  1

  9
$DIMSTYLE
  2
Standard
  9
$DIMCLRD
 70
     0
  9
$DIMCLRE
 70
     0
  9
$DIMCLRT
 70
     0
  9
$DIMTFAC
 40
1.0
  9
$DIMGAP
 40
0.09
  9
$DIMJUST
 70
     0
  9
$DIMSD1
 70
     0
  9
$DIMSD2
 70
     0
  9
$DIMTOLJ
 70
     1
  9
$DIMTZIN
 70
     0
  9
$DIMALTZ
 70
     0
  9
$DIMALTTZ
 70
     0
  9
$DIMUPT
 70
     0
  9
$DIMDEC
 70
     4
  9
$DIMTDEC
 70
     4
  9
$DIMALTU
 70
     2
  9
$DIMALTTD
 70
     2
  9
$DIMTXSTY
  7
Standard
  9
$DIMAUNIT
 70
     0
  9
$DIMADEC
 70
     0
  9
$DIMALTRND
 40
0.0
  9
$DIMAZIN
 70
     0
  9
$DIMDSEP
 70
    46
  9
$DIMATFIT
 70
     3
  9
$DIMFRAC
 70
     0
  9
$DIMLDRBLK
  1

  9
$DIMLUNIT
 70
     2
  9
$DIMLWD
 70
    -2
  9
$DIMLWE
 70
    -2
  9
$DIMTMOVE
 70
     0
  9
$DIMFXL
 40
1.0
  9
$DIMFXLON
 70
     0
  9
$DIMJOGANG
 40
0.7853981633974483
  9
$DIMTFILL
 70
     0
  9
$DIMTFILLCLR
 70
     0
  9
$DIMARCSYM
 70
     0
  9
$DIMLTYPE
  6

  9
$DIMLTEX1
  6

  9
$DIMLTEX2
  6

  9
$LUNITS
 70
     2
  9
$LUPREC
 70
     4
  9
$SKETCHINC
 40
0.1
  9
$FILLETRAD
 40
0.5
  9
$AUNITS
 70
     0
  9
$AUPREC
 70
     0
  9
$MENU
  1
.
  9
$ELEVATION
 40
0.0
  9
$PELEVATION
 40
0.0
  9
$THICKNESS
 40
0.0
  9
$LIMCHECK
 70
     0
  9
$CHAMFERA
 40
0.5
  9
$CHAMFERB
 40
0.5
  9
$CHAMFERC
 40
1.0
  9
$CHAMFERD
 40
0.0
  9
$SKPOLY
 70
     0
  9
$TDCREATE
 40
2458492.634884468
  9
$TDUCREATE
 40
2458492.634884468
  9
$TDUPDATE
 40
2458492.63488456
  9
$TDUUPDATE
 40
2458492.63488456
  9
$TDINDWG
 40
0.0000000116
  9
$TDUSRTIMER
 40
0.0000000116
  9
$USRTIMER
 70
     1
  9
$ANGBASE
 50
0.0
  9
$ANGDIR
 70
     0
  9
$PDMODE
 70
     0
  9
$PDSIZE
 40
0.0
  9
$PLINEWID
 40
0.0
  9
$SPLFRAME
 70
     0
  9
$SPLINETYPE
 70
     6
  9
$SPLINESEGS
 70
     8
  9
$HANDSEED
  5
99
  9
$SURFTAB1
 70
     6
  9
$SURFTAB2
 70
     6
  9
$SURFTYPE
 70
     6
  9
$SURFU
 70
     6
  9
$SURFV
 70
     6
  9
$UCSBASE
  2

  9
$UCSNAME
  2

  9
$UCSORG
 10
0.0
 20
0.0
 30
0.0
  9
$UCSXDIR
 10
1.0
 20
0.0
 30
0.0
  9
$UCSYDIR
 10
0.0
 20
1.0
 30
0.0
  9
$UCSORTHOREF
  2

  9
$UCSORTHOVIEW
 70
     0
  9
$UCSORGTOP
 10
0.0
 20
0.0
 30
0.0
  9
$UCSORGBOTTOM
 10
0.0
 20
0.0
 30
0.0
  9
$UCSORGLEFT
 10
0.0
 20
0.0
 30
0.0
  9
$UCSORGRIGHT
 10
0.0
 20
0.0
 30
0.0
  9
$UCSORGFRONT
 10
0.0
 20
0.0
 30
0.0
  9
$UCSORGBACK
 10
0.0
 20
0.0
 30
0.0
  9
$PUCSBASE
  2

  9
$PUCSNAME
  2

  9
$PUCSORG
 10
0.0
 20
0.0
 30
0.0
  9
$PUCSXDIR
 10
1.0
 20
0.0
 30
0.0
  9
$PUCSYDIR
 10
0.0
 20
1.0
 30
0.0
  9
$PUCSORTHOREF
  2

  9
$PUCSORTHOVIEW
 70
     0
  9
$PUCSORGTOP
 10
0.0
 20
0.0
 30
0.0
  9
$PUCSORGBOTTOM
 10
0.0
 20
0.0
 30
0.0
  9
$PUCSORGLEFT
 10
0.0
 20
0.0
 30
0.0
  9
$PUCSORGRIGHT
 10
0.0
 20
0.0
 30
0.0
  9
$PUCSORGFRONT
 10
0.0
 20
0.0
 30
0.0
  9
$PUCSORGBACK
 10
0.0
 20
0.0
 30
0.0
  9
$USERI1
 70
     0
  9
$USERI2
 70
     0
  9
$USERI3
 70
     0
  9
$USERI4
 70
     0
  9
$USERI5
 70
     0
  9
$USERR1
 40
0.0
  9
$USERR2
 40
0.0
  9
$USERR3
 40
0.0
  9
$USERR4
 40
0.0
  9
$USERR5
 40
0.0
  9
$WORLDVIEW
 70
     1
  9
$SHADEDGE
 70
     3
  9
$SHADEDIF
 70
    70
  9
$TILEMODE
 70
     1
  9
$MAXACTVP
 70
    64
  9
$PINSBASE
 10
0.0
 20
0.0
 30
0.0
  9
$PLIMCHECK
 70
     0
  9
$PEXTMIN
 10
1.000000000000000E+20
 20
1.000000000000000E+20
 30
1.000000000000000E+20
  9
$PEXTMAX
 10
-1.000000000000000E+20
 20
-1.000000000000000E+20
 30
-1.000000000000000E+20
  9
$PLIMMIN
 10
0.0
 20
0.0
  9
$PLIMMAX
 10
12.0
 20
9.0
  9
$UNITMODE
 70
     0
  9
$VISRETAIN
 70
     1
  9
$PLINEGEN
 70
     0
  9
$PSLTSCALE
 70
     1
  9
$TREEDEPTH
 70
  3020
  9
$CMLSTYLE
  2
Standard
  9
$CMLJUST
 70
     0
  9
$CMLSCALE
 40
1.0
  9
$PROXYGRAPHICS
 70
     1
  9
$MEASUREMENT
 70
     0
  9
$CELWEIGHT
370
    -1
  9
$ENDCAPS
280
     0
  9
$JOINSTYLE
280
     0
  9
$LWDISPLAY
290
     0
  9
$INSUNITS
 70
     4
  9
$HYPERLINKBASE
  1

  9
$STYLESHEET
  1

  9
$XEDIT
290
     1
  9
$CEPSNTYPE
380
     0
  9
$PSTYLEMODE
290
     1
  9
$FINGERPRINTGUID
  2
{ADF1D6B7-14A4-4537-83B2-A4E14DA5B8C5}
  9
$VERSIONGUID
  2
{FAEB1C32-E019-11D5-929B-00C0DF256EC4}
  9
$EXTNAMES
290
     1
  9
$PSVPSCALE
 40
0.0
  9
$OLESTARTUP
290
     0
  9
$SORTENTS
280
   127
  9
$INDEXCTL
280
     0
  9
$HIDETEXT
280
     1
  9
$XCLIPFRAME
290
     0
  9
$HALOGAP
280
     0
  9
$OBSCOLOR
 70
   257
  9
$OBSLTYPE
280
     0
  9
$INTERSECTIONDISPLAY
280
     0
  9
$INTERSECTIONCOLOR
 70
   257
  9
$DIMASSOC
280
     2
  9
$PROJECTNAME
  1

  9
$CAMERADISPLAY
290
     0
  9
$LENSLENGTH
 40
50.0
  9
$CAMERAHEIGHT
 40
0.0
  9
$STEPSPERSEC
 40
2.0
  9
$STEPSIZE
 40
6.0
  9
$3DDWFPREC
 40
2.0
  9
$PSOLWIDTH
 40
0.25
  9
$PSOLHEIGHT
 40
4.0
  9
$LOFTANG1
 40
1.570796326794897
  9
$LOFTANG2
 40
1.570796326794897
  9
$LOFTMAG1
 40
0.0
  9
$LOFTMAG2
 40
0.0
  9
$LOFTPARAM
 70
     7
  9
$LOFTNORMALS
280
     1
  9
$LATITUDE
 40
37.795
  9
$LONGITUDE
 40
-122.394
  9
$NORTHDIRECTION
 40
0.0
  9
$TIMEZONE
 70
 -8000
  9
$LIGHTGLYPHDISPLAY
280
     1
  9
$TILEMODELIGHTSYNCH
280
     1
  9
$SOLIDHIST
280
     1
  9
$SHOWHIST
280
     1
  9
$DWFFRAME
280
     2
  9
$DGNFRAME
280
     2
  9
$REALWORLDSCALE
290
     1
  9
$INTERFERECOLOR
 62
   256
  9
$CSHADOW
280
     0
  9
$SHADOWPLANELOCATION
 40
0.0
  0
ENDSEC
  0
SECTION
  2
CLASSES
  0
CLASS
  1
ACDBDICTIONARYWDFLT
  2
AcDbDictionaryWithDefault
  3
ObjectDBX Classes
 90
        0
 91
        4
280
     0
281
     0
  0
CLASS
  1
VISUALSTYLE
  2
AcDbVisualStyle
  3
ObjectDBX Classes
 90
     4095
 91
        4
280
     0
281
     0
  0
CLASS
  1
MATERIAL
  2
AcDbMaterial
  3
ObjectDBX Classes
 90
     1153
 91
        4
280
     0
281
     0
  0
ENDSEC
  0
SECTION
  2
TABLES
  0
TABLE
  2
VPORT
  5
8
330
0
100
AcDbSymbolTable
 70
     1
  0
VPORT
  5
29
330
8
100
AcDbSymbolTableRecord
100
AcDbViewportTableRecord
  2
*Active
 70
     0
 10
0.0
 20
0.0
 11
1.0
 21
1.0
 12
10.42990654205607
 22
4.5
 13
0.0
 23
0.0
 14
0.5
 24
0.5
 15
0.5
 25
0.5
 16
0.0
 26
0.0
 36
1.0
 17
0.0
 27
0.0
 37
0.0
 40
9.0
 41
1.972972972850329
 42
50.0
 43
0.0
 44
0.0
 50
0.0
 51
0.0
 71
     0
 72
   100
 73
     1
 74
     3
 75
     0
 76
     0
 77
     0
 78
     0
281
     0
 65
     1
110
0.0
120
0.0
130
0.0
111
1.0
121
0.0
131
0.0
112
0.0
122
1.0
132
0.0
 79
     0
146
0.0
 60
     3
 61
     5
292
     1
282
     1
141
0.0
142
0.0
 63
   250
  0
ENDTAB
  0
TABLE
  2
LTYPE
  5
5
330
0
100
AcDbSymbolTable
 70
     1
  0
LTYPE
  5
14
330
5
100
AcDbSymbolTableRecord
100
AcDbLinetypeTableRecord
  2
ByBlock
 70
     0
  3

 72
    65
 73
     0
 40
0.0
  0
LTYPE
  5
15
330
5
100
AcDbSymbolTableRecord
100
AcDbLinetypeTableRecord
  2
ByLayer
 70
     0
  3

 72
    65
 73
     0
 40
0.0
  0
LTYPE
  5
16
330
5
100
AcDbSymbolTableRecord
100
AcDbLinetypeTableRecord
  2
Continuous
 70
     0
  3
Solid line
 72
    65
 73
     0
 40
0.0
  0
ENDTAB
  0
TABLE
  2
LAYER
  5
2
330
0
100
AcDbSymbolTable
 70
     3
  0
LAYER
  5
10
330
2
100
AcDbSymbolTableRecord
100
AcDbLayerTableRecord
  2
0
 70
     0
 62
     7
  6
Continuous
370
    -3
390
F
347
3E
  0
LAYER
  5
40
330
2
100
AcDbSymbolTableRecord
100
AcDbLayerTableRecord
  2
layer 1
 70
     0
 62
     7
  6
Continuous
370
    -3
390
F
347
3E
  0
LAYER
  5
76
330
2
100
AcDbSymbolTableRecord
100
AcDbLayerTableRecord
  2
Master Guides
 70
     0
 62
     7
  6
Continuous
370
    -3
390
F
347
3E
  0
ENDTAB
  0
TABLE
  2
STYLE
  5
3
330
0
100
AcDbSymbolTable
 70
     1
  0
STYLE
  5
11
330
3
100
AcDbSymbolTableRecord
100
AcDbTextStyleTableRecord
  2
Standard
 70
     0
 40
0.0
 41
1.0
 50
0.0
 71
     0
 42
0.2
  3
txt
  4

  0
ENDTAB
  0
TABLE
  2
VIEW
  5
6
330
0
100
AcDbSymbolTable
 70
     0
  0
ENDTAB
  0
TABLE
  2
UCS
  5
7
330
0
100
AcDbSymbolTable
 70
     0
  0
ENDTAB
  0
TABLE
  2
APPID
  5
9
330
0
100
AcDbSymbolTable
 70
     2
  0
APPID
  5
12
330
9
100
AcDbSymbolTableRecord
100
AcDbRegAppTableRecord
  2
ACAD
 70
     0
  0
APPID
  5
3F
330
9
100
AcDbSymbolTableRecord
100
AcDbRegAppTableRecord
  2
ODA
 70
     0
  0
ENDTAB
  0
TABLE
  2
DIMSTYLE
  5
A
330
0
100
AcDbSymbolTable
 70
     1
100
AcDbDimStyleTable
  0
DIMSTYLE
105
27
330
A
100
AcDbSymbolTableRecord
100
AcDbDimStyleTableRecord
  2
Standard
 70
     0
178
     0
340
11
  0
ENDTAB
  0
TABLE
  2
BLOCK_RECORD
  5
1
330
0
100
AcDbSymbolTable
 70
     1
  0
BLOCK_RECORD
  5
1F
330
1
100
AcDbSymbolTableRecord
100
AcDbBlockTableRecord
  2
*Model_Space
340
22
 70
     0
280
     1
281
     0
  0
BLOCK_RECORD
  5
1B
330
1
100
AcDbSymbolTableRecord
100
AcDbBlockTableRecord
  2
*Paper_Space
340
1E
 70
     0
280
     1
281
     0
  0
BLOCK_RECORD
  5
23
330
1
100
AcDbSymbolTableRecord
100
AcDbBlockTableRecord
  2
*Paper_Space0
340
26
 70
     0
280
     1
281
     0
  0
ENDTAB
  0
ENDSEC
  0
SECTION
  2
BLOCKS
  0
BLOCK
  5
20
330
1F
100
AcDbEntity
  8
0
100
AcDbBlockBegin
  2
*Model_Space
 70
     0
 10
0.0
 20
0.0
 30
0.0
  3
*Model_Space
  1

  0
ENDBLK
  5
21
330
1F
100
AcDbEntity
  8
0
100
AcDbBlockEnd
  0
BLOCK
  5
1C
330
1B
100
AcDbEntity
 67
     1
  8
0
100
AcDbBlockBegin
  2
*Paper_Space
 70
     0
 10
0.0
 20
0.0
 30
0.0
  3
*Paper_Space
  1

  0
ENDBLK
  5
1D
330
1B
100
AcDbEntity
 67
     1
  8
0
100
AcDbBlockEnd
  0
BLOCK
  5
24
330
23
100
AcDbEntity
  8
0
100
AcDbBlockBegin
  2
*Paper_Space0
 70
     0
 10
0.0
 20
0.0
 30
0.0
  3
*Paper_Space0
  1

  0
ENDBLK
  5
25
330
23
100
AcDbEntity
  8
0
100
AcDbBlockEnd
  0
ENDSEC
  0
SECTION
  2
ENTITIES
  0
SPLINE
  5
41
330
1F
100
AcDbEntity
  8
layer 1
100
AcDbSpline
210
0.0
220
0.0
230
1.0
 70
    11
 71
     3
 72
    20
 73
    16
 74
     0
 42
0.0000000001
 43
0.0000000001
 12
1.0
 22
0.0
 32
0.0
 13
1.0
 23
0.0
 33
0.0
 40
0.0
 40
0.0
 40
0.0
 40
0.0
 40
0.2
 40
0.2
 40
0.2
 40
0.2
 40
0.4
 40
0.4
 40
0.4
 40
0.4
 40
0.6
 40
0.6
 40
0.6
 40
0.6
 40
1.0
 40
1.0
 40
1.0
 40
1.0
 10
-187.4392
 20
131.7265
 30
0.0
 10
-187.4392
 20
131.7265
 30
0.0
 10
-48.6144
 20
131.7265
 30
0.0
 10
-48.6144
 20
131.7265
 30
0.0
 10
-48.6144
 20
131.7265
 30
0.0
 10
-48.6144
 20
131.7265
 30
0.0
 10
-48.6144
 20
-114.7096
 30
0.0
 10
-48.6144
 20
-114.7096
 30
0.0
 10
-48.6144
 20
-114.7096
 30
0.0
 10
-48.6144
 20
-114.7096
 30
0.0
 10
-187.4392
 20
-114.7096
 30
0.0
 10
-187.4392
 20
-114.7096
 30
0.0
 10
-187.4392
 20
-114.7096
 30
0.0
 10
-187.4392
 20
-114.7096
 30
0.0
 10
-187.4392
 20
131.7265
 30
0.0
 10
-187.4392
 20
131.7265
 30
0.0
  0
SPLINE
  5
42
330
1F
100
AcDbEntity
  8
layer 1
 62
     7
100
AcDbSpline
210
0.0
220
0.0
230
1.0
 70
    11
 71
     3
 72
    24
 73
    20
 74
     0
 42
0.0000000001
 43
0.0000000001
 12
1.0
 22
0.0
 32
0.0
 13
1.0
 23
0.0
 33
0.0
 40
0.0
 40
0.0
 40
0.0
 40
0.0
 40
0.1666666666666667
 40
0.1666666666666667
 40
0.1666666666666667
 40
0.1666666666666667
 40
0.3333333333333333
 40
0.3333333333333333
 40
0.3333333333333333
 40
0.3333333333333333
 40
0.5
 40
0.5
 40
0.5
 40
0.5
 40
0.6666666666666666
 40
0.6666666666666666
 40
0.6666666666666666
 40
0.6666666666666666
 40
1.0
 40
1.0
 40
1.0
 40
1.0
 10
-79.0898
 20
36.6275
 30
0.0
 10
-78.8465
 20
40.6539
 30
0.0
 10
-69.2128
 20
46.5906
 30
0.0
 10
-65.7713
 20
42.5197
 30
0.0
 10
-65.7713
 20
42.5197
 30
0.0
 10
-67.3129
 20
39.2549
 30
0.0
 10
-63.7345
 20
36.8407
 30
0.0
 10
-61.6909
 20
40.2942
 30
0.0
 10
-61.6909
 20
40.2942
 30
0.0
 10
-61.6909
 20
40.2942
 30
0.0
 10
-61.6909
 20
18.6237
 30
0.0
 10
-61.6909
 20
18.6237
 30
0.0
 10
-61.6909
 20
18.6237
 30
0.0
 10
-63.1174
 20
21.079
 30
0.0
 10
-64.889
 20
21.9238
 30
0.0
 10
-67.7146
 20
21.8922
 30
0.0
 10
-67.7146
 20
21.8922
 30
0.0
 10
-63.4492
 20
29.0173
 30
0.0
 10
-68.2447
 20
38.38
 30
0.0
 10
-79.0898
 20
36.6275
 30
0.0
  0
SPLINE
  5
43
330
1F
100
AcDbEntity
  8
layer 1
 62
     7
100
AcDbSpline
210
0.0
220
0.0
230
1.0
 70
    11
 71
     3
 72
    16
 73
    12
 74
     0
 42
0.0000000001
 43
0.0000000001
 12
1.0
 22
0.0
 32
0.0
 13
1.0
 23
0.0
 33
0.0
 40
0.0
 40
0.0
 40
0.0
 40
0.0
 40
0.25
 40
0.25
 40
0.25
 40
0.25
 40
0.5
 40
0.5
 40
0.5
 40
0.5
 40
1.0
 40
1.0
 40
1.0
 40
1.0
 10
-61.6909
 20
-37.3547
 30
0.0
 10
-61.6909
 20
-37.3547
 30
0.0
 10
-61.6909
 20
-59.3834
 30
0.0
 10
-61.6909
 20
-59.3834
 30
0.0
 10
-61.6909
 20
-59.3834
 30
0.0
 10
-64.7499
 20
-52.4132
 30
0.0
 10
-69.249
 20
-46.8407
 30
0.0
 10
-74.052
 20
-45.0982
 30
0.0
 10
-74.052
 20
-45.0982
 30
0.0
 10
-68.2131
 20
-43.6025
 30
0.0
 10
-63.2423
 20
-41.504
 30
0.0
 10
-61.6909
 20
-37.3547
 30
0.0
  0
SPLINE
  5
44
330
1F
100
AcDbEntity
  8
layer 1
 62
     7
100
AcDbSpline
210
0.0
220
0.0
230
1.0
 70
    11
 71
     3
 72
    24
 73
    20
 74
     0
 42
0.0000000001
 43
0.0000000001
 12
1.0
 22
0.0
 32
0.0
 13
1.0
 23
0.0
 33
0.0
 40
0.0
 40
0.0
 40
0.0
 40
0.0
 40
0.1666666666666667
 40
0.1666666666666667
 40
0.1666666666666667
 40
0.1666666666666667
 40
0.3333333333333333
 40
0.3333333333333333
 40
0.3333333333333333
 40
0.3333333333333333
 40
0.5
 40
0.5
 40
0.5
 40
0.5
 40
0.6666666666666666
 40
0.6666666666666666
 40
0.6666666666666666
 40
0.6666666666666666
 40
1.0
 40
1.0
 40
1.0
 40
1.0
 10
-101.2045
 20
-60.5138
 30
0.0
 10
-94.9748
 20
-60.9469
 30
0.0
 10
-93.9654
 20
-67.778
 30
0.0
 10
-95.6875
 20
-70.0797
 30
0.0
 10
-95.6875
 20
-70.0797
 30
0.0
 10
-97.2606
 20
-72.1816
 30
0.0
 10
-102.273
 20
-72.9937
 30
0.0
 10
-102.9759
 20
-68.3564
 30
0.0
 10
-102.9759
 20
-68.3564
 30
0.0
 10
-105.124
 20
-68.4933
 30
0.0
 10
-105.3139
 20
-73.4292
 30
0.0
 10
-103.2544
 20
-74.3973
 30
0.0
 10
-103.2544
 20
-74.3973
 30
0.0
 10
-107.584
 20
-74.0779
 30
0.0
 10
-110.6407
 20
-76.4546
 30
0.0
 10
-110.8513
 20
-81.8637
 30
0.0
 10
-110.8513
 20
-81.8637
 30
0.0
 10
-117.2323
 20
-75.2201
 30
0.0
 10
-114.5387
 20
-59.6365
 30
0.0
 10
-101.2045
 20
-60.5138
 30
0.0
  0
SPLINE
  5
45
330
1F
100
AcDbEntity
  8
layer 1
 62
     7
100
AcDbSpline
210
0.0
220
0.0
230
1.0
 70
    11
 71
     3
 72
    28
 73
    24
 74
     0
 42
0.0000000001
 43
0.0000000001
 12
1.0
 22
0.0
 32
0.0
 13
1.0
 23
0.0
 33
0.0
 40
0.0
 40
0.0
 40
0.0
 40
0.0
 40
0.1428571428571428
 40
0.1428571428571428
 40
0.1428571428571428
 40
0.1428571428571428
 40
0.2857142857142857
 40
0.2857142857142857
 40
0.2857142857142857
 40
0.2857142857142857
 40
0.4285714285714285
 40
0.4285714285714285
 40
0.4285714285714285
 40
0.4285714285714285
 40
0.5714285714285714
 40
0.5714285714285714
 40
0.5714285714285714
 40
0.5714285714285714
 40
0.7142857142857143
 40
0.7142857142857143
 40
0.7142857142857143
 40
0.7142857142857143
 40
1.0
 40
1.0
 40
1.0
 40
1.0
 10
-115.3311
 20
-90.0574
 30
0.0
 10
-117.8457
 20
-99.2252
 30
0.0
 10
-103.6221
 20
-100.2633
 30
0.0
 10
-101.3728
 20
-92.2076
 30
0.0
 10
-101.3728
 20
-92.2076
 30
0.0
 10
-108.5558
 20
-91.2615
 30
0.0
 10
-114.9381
 20
-86.8458
 30
0.0
 10
-118.3649
 20
-78.5614
 30
0.0
 10
-118.3649
 20
-78.5614
 30
0.0
 10
-121.793
 20
-86.8458
 30
0.0
 10
-128.174
 20
-91.2615
 30
0.0
 10
-135.3574
 20
-92.2076
 30
0.0
 10
-135.3574
 20
-92.2076
 30
0.0
 10
-133.1077
 20
-100.2633
 30
0.0
 10
-118.8841
 20
-99.2252
 30
0.0
 10
-121.3986
 20
-90.0574
 30
0.0
 10
-121.3986
 20
-90.0574
 30
0.0
 10
-119.9114
 20
-89.9982
 30
0.0
 10
-118.8974
 20
-90.8863
 30
0.0
 10
-118.3649
 20
-92.2029
 30
0.0
 10
-118.3649
 20
-92.2029
 30
0.0
 10
-117.8324
 20
-90.8863
 30
0.0
 10
-116.8184
 20
-89.9982
 30
0.0
 10
-115.3311
 20
-90.0574
 30
0.0
  0
SPLINE
  5
46
330
1F
100
AcDbEntity
  8
layer 1
 62
     7
100
AcDbSpline
210
0.0
220
0.0
230
1.0
 70
    11
 71
     3
 72
    16
 73
    12
 74
     0
 42
0.0000000001
 43
0.0000000001
 12
1.0
 22
0.0
 32
0.0
 13
1.0
 23
0.0
 33
0.0
 40
0.0
 40
0.0
 40
0.0
 40
0.0
 40
0.25
 40
0.25
 40
0.25
 40
0.25
 40
0.5
 40
0.5
 40
0.5
 40
0.5
 40
1.0
 40
1.0
 40
1.0
 40
1.0
 10
-114.9876
 20
-101.0548
 30
0.0
 10
-114.9876
 20
-101.0548
 30
0.0
 10
-121.7423
 20
-101.0548
 30
0.0
 10
-121.7423
 20
-101.0548
 30
0.0
 10
-121.7423
 20
-101.0548
 30
0.0
 10
-120.0409
 20
-100.3095
 30
0.0
 10
-119.0112
 20
-99.8773
 30
0.0
 10
-118.3649
 20
-97.9194
 30
0.0
 10
-118.3649
 20
-97.9194
 30
0.0
 10
-117.7187
 20
-99.8773
 30
0.0
 10
-116.689
 20
-100.3095
 30
0.0
 10
-114.9876
 20
-101.0548
 30
0.0
  0
SPLINE
  5
47
330
1F
100
AcDbEntity
  8
layer 1
 62
     7
100
AcDbSpline
210
0.0
220
0.0
230
1.0
 70
    11
 71
     3
 72
    16
 73
    12
 74
     0
 42
0.0000000001
 43
0.0000000001
 12
1.0
 22
0.0
 32
0.0
 13
1.0
 23
0.0
 33
0.0
 40
0.0
 40
0.0
 40
0.0
 40
0.0
 40
0.25
 40
0.25
 40
0.25
 40
0.25
 40
0.5
 40
0.5
 40
0.5
 40
0.5
 40
1.0
 40
1.0
 40
1.0
 40
1.0
 10
-89.7291
 20
-94.7441
 30
0.0
 10
-90.432
 20
-96.7819
 30
0.0
 10
-91.0287
 20
-99.7794
 30
0.0
 10
-90.3629
 20
-101.0548
 30
0.0
 10
-90.3629
 20
-101.0548
 30
0.0
 10
-90.3629
 20
-101.0548
 30
0.0
 10
-106.2095
 20
-101.0548
 30
0.0
 10
-106.2095
 20
-101.0548
 30
0.0
 10
-106.2095
 20
-101.0548
 30
0.0
 10
-102.5899
 20
-98.6456
 30
0.0
 10
-96.7402
 20
-94.9582
 30
0.0
 10
-89.7291
 20
-94.7441
 30
0.0
  0
SPLINE
  5
48
330
1F
100
AcDbEntity
  8
layer 1
 62
     7
100
AcDbSpline
210
0.0
220
0.0
230
1.0
 70
    11
 71
     3
 72
    16
 73
    12
 74
     0
 42
0.0000000001
 43
0.0000000001
 12
1.0
 22
0.0
 32
0.0
 13
1.0
 23
0.0
 33
0.0
 40
0.0
 40
0.0
 40
0.0
 40
0.0
 40
0.25
 40
0.25
 40
0.25
 40
0.25
 40
0.5
 40
0.5
 40
0.5
 40
0.5
 40
1.0
 40
1.0
 40
1.0
 40
1.0
 10
-84.696
 20
-95.8259
 30
0.0
 10
-84.7408
 20
-98.9288
 30
0.0
 10
-83.4826
 20
-99.5846
 30
0.0
 10
-82.236
 20
-101.0548
 30
0.0
 10
-82.236
 20
-101.0548
 30
0.0
 10
-82.236
 20
-101.0548
 30
0.0
 10
-86.8369
 20
-101.0548
 30
0.0
 10
-86.8369
 20
-101.0548
 30
0.0
 10
-86.8369
 20
-101.0548
 30
0.0
 10
-87.6015
 20
-98.7739
 30
0.0
 10
-86.4205
 20
-96.8569
 30
0.0
 10
-84.696
 20
-95.8259
 30
0.0
  0
SPLINE
  5
49
330
1F
100
AcDbEntity
  8
layer 1
 62
     7
100
AcDbSpline
210
0.0
220
0.0
230
1.0
 70
    11
 71
     3
 72
    24
 73
    20
 74
     0
 42
0.0000000001
 43
0.0000000001
 12
1.0
 22
0.0
 32
0.0
 13
1.0
 23
0.0
 33
0.0
 40
0.0
 40
0.0
 40
0.0
 40
0.0
 40
0.1666666666666667
 40
0.1666666666666667
 40
0.1666666666666667
 40
0.1666666666666667
 40
0.3333333333333333
 40
0.3333333333333333
 40
0.3333333333333333
 40
0.3333333333333333
 40
0.5
 40
0.5
 40
0.5
 40
0.5
 40
0.6666666666666666
 40
0.6666666666666666
 40
0.6666666666666666
 40
0.6666666666666666
 40
1.0
 40
1.0
 40
1.0
 40
1.0
 10
-61.6909
 20
-75.6693
 30
0.0
 10
-61.6909
 20
-75.6693
 30
0.0
 10
-61.6909
 20
-101.0548
 30
0.0
 10
-61.6909
 20
-101.0548
 30
0.0
 10
-61.6909
 20
-101.0548
 30
0.0
 10
-64.6759
 20
-93.3609
 30
0.0
 10
-71.2301
 20
-97.2732
 30
0.0
 10
-72.4813
 20
-101.0548
 30
0.0
 10
-72.4813
 20
-101.0548
 30
0.0
 10
-72.4813
 20
-101.0548
 30
0.0
 10
-79.3258
 20
-101.0548
 30
0.0
 10
-79.3258
 20
-101.0548
 30
0.0
 10
-79.3258
 20
-101.0548
 30
0.0
 10
-82.4866
 20
-98.2812
 30
0.0
 10
-81.0946
 20
-94.1162
 30
0.0
 10
-75.1641
 20
-91.1283
 30
0.0
 10
-75.1641
 20
-91.1283
 30
0.0
 10
-66.7466
 20
-86.8869
 30
0.0
 10
-63.4575
 20
-80.9052
 30
0.0
 10
-61.6909
 20
-75.6693
 30
0.0
  0
SPLINE
  5
4A
330
1F
100
AcDbEntity
  8
layer 1
 62
     7
100
AcDbSpline
210
0.0
220
0.0
230
1.0
 70
    11
 71
     3
 72
    16
 73
    12
 74
     0
 42
0.0000000001
 43
0.0000000001
 12
1.0
 22
0.0
 32
0.0
 13
1.0
 23
0.0
 33
0.0
 40
0.0
 40
0.0
 40
0.0
 40
0.0
 40
0.25
 40
0.25
 40
0.25
 40
0.25
 40
0.5
 40
0.5
 40
0.5
 40
0.5
 40
1.0
 40
1.0
 40
1.0
 40
1.0
 10
-61.7283
 20
64.8644
 30
0.0
 10
-61.7283
 20
54.6789
 30
0.0
 10
-61.6909
 20
55.0624
 30
0.0
 10
-61.6909
 20
44.8769
 30
0.0
 10
-61.6909
 20
44.8769
 30
0.0
 10
-62.6032
 20
47.1857
 30
0.0
 10
-65.4107
 20
49.2359
 30
0.0
 10
-69.8565
 20
48.3378
 30
0.0
 10
-69.8565
 20
48.3378
 30
0.0
 10
-65.4675
 20
52.2901
 30
0.0
 10
-63.0049
 20
57.9895
 30
0.0
 10
-61.7283
 20
64.8644
 30
0.0
  0
SPLINE
  5
4B
330
1F
100
AcDbEntity
  8
layer 1
 62
     7
100
AcDbSpline
210
0.0
220
0.0
230
1.0
 70
    11
 71
     3
 72
    16
 73
    12
 74
     0
 42
0.0000000001
 43
0.0000000001
 12
1.0
 22
0.0
 32
0.0
 13
1.0
 23
0.0
 33
0.0
 40
0.0
 40
0.0
 40
0.0
 40
0.0
 40
0.25
 40
0.25
 40
0.25
 40
0.25
 40
0.5
 40
0.5
 40
0.5
 40
0.5
 40
1.0
 40
1.0
 40
1.0
 40
1.0
 10
-61.6909
 20
115.0271
 30
0.0
 10
-61.6909
 20
115.0271
 30
0.0
 10
-61.6909
 20
103.2431
 30
0.0
 10
-61.6909
 20
103.2431
 30
0.0
 10
-61.6909
 20
103.2431
 30
0.0
 10
-62.417
 20
105.1173
 30
0.0
 10
-64.1716
 20
107.2774
 30
0.0
 10
-67.5623
 20
107.0609
 30
0.0
 10
-67.5623
 20
107.0609
 30
0.0
 10
-63.9476
 20
110.2567
 30
0.0
 10
-62.7834
 20
112.0924
 30
0.0
 10
-61.6909
 20
115.0271
 30
0.0
  0
SPLINE
  5
4C
330
1F
100
AcDbEntity
  8
layer 1
 62
     7
100
AcDbSpline
210
0.0
220
0.0
230
1.0
 70
    11
 71
     3
 72
    20
 73
    16
 74
     0
 42
0.0000000001
 43
0.0000000001
 12
1.0
 22
0.0
 32
0.0
 13
1.0
 23
0.0
 33
0.0
 40
0.0
 40
0.0
 40
0.0
 40
0.0
 40
0.2
 40
0.2
 40
0.2
 40
0.2
 40
0.4
 40
0.4
 40
0.4
 40
0.4
 40
0.6
 40
0.6
 40
0.6
 40
0.6
 40
1.0
 40
1.0
 40
1.0
 40
1.0
 10
-61.6909
 20
96.6356
 30
0.0
 10
-61.6909
 20
96.6356
 30
0.0
 10
-61.6909
 20
79.2091
 30
0.0
 10
-61.6909
 20
79.2091
 30
0.0
 10
-61.6909
 20
79.2091
 30
0.0
 10
-62.7785
 20
81.478
 30
0.0
 10
-68.4358
 20
87.7837
 30
0.0
 10
-69.9556
 20
94.5266
 30
0.0
 10
-69.9556
 20
94.5266
 30
0.0
 10
-71.5774
 20
101.7291
 30
0.0
 10
-67.4932
 20
103.739
 30
0.0
 10
-65.517
 20
101.1919
 30
0.0
 10
-65.517
 20
101.1919
 30
0.0
 10
-67.7908
 20
98.2499
 30
0.0
 10
-65.1397
 20
94.4441
 30
0.0
 10
-61.6909
 20
96.6356
 30
0.0
  0
SPLINE
  5
4D
330
1F
100
AcDbEntity
  8
layer 1
 62
     7
100
AcDbSpline
210
0.0
220
0.0
230
1.0
 70
    11
 71
     3
 72
    28
 73
    24
 74
     0
 42
0.0000000001
 43
0.0000000001
 12
1.0
 22
0.0
 32
0.0
 13
1.0
 23
0.0
 33
0.0
 40
0.0
 40
0.0
 40
0.0
 40
0.0
 40
0.1428571428571428
 40
0.1428571428571428
 40
0.1428571428571428
 40
0.1428571428571428
 40
0.2857142857142857
 40
0.2857142857142857
 40
0.2857142857142857
 40
0.2857142857142857
 40
0.4285714285714285
 40
0.4285714285714285
 40
0.4285714285714285
 40
0.4285714285714285
 40
0.5714285714285714
 40
0.5714285714285714
 40
0.5714285714285714
 40
0.5714285714285714
 40
0.7142857142857143
 40
0.7142857142857143
 40
0.7142857142857143
 40
0.7142857142857143
 40
1.0
 40
1.0
 40
1.0
 40
1.0
 10
-113.8172
 20
76.0338
 30
0.0
 10
-119.3851
 20
85.3928
 30
0.0
 10
-115.3928
 20
97.9196
 30
0.0
 10
-108.5134
 20
102.3679
 30
0.0
 10
-108.5134
 20
102.3679
 30
0.0
 10
-113.9663
 20
101.9819
 30
0.0
 10
-118.3733
 20
106.8818
 30
0.0
 10
-118.3649
 20
110.2095
 30
0.0
 10
-118.3649
 20
110.2095
 30
0.0
 10
-118.3566
 20
106.8818
 30
0.0
 10
-122.7636
 20
101.9819
 30
0.0
 10
-128.2165
 20
102.3679
 30
0.0
 10
-128.2165
 20
102.3679
 30
0.0
 10
-121.337
 20
97.9196
 30
0.0
 10
-117.3448
 20
85.3928
 30
0.0
 10
-122.9126
 20
76.0338
 30
0.0
 10
-122.9126
 20
76.0338
 30
0.0
 10
-120.1112
 20
76.8566
 30
0.0
 10
-119.1939
 20
75.7602
 30
0.0
 10
-118.3649
 20
74.9458
 30
0.0
 10
-118.3649
 20
74.9458
 30
0.0
 10
-117.536
 20
75.7602
 30
0.0
 10
-116.6187
 20
76.8566
 30
0.0
 10
-113.8172
 20
76.0338
 30
0.0
  0
SPLINE
  5
4E
330
1F
100
AcDbEntity
  8
layer 1
 62
     7
100
AcDbSpline
210
0.0
220
0.0
230
1.0
 70
    11
 71
     3
 72
    24
 73
    20
 74
     0
 42
0.0000000001
 43
0.0000000001
 12
1.0
 22
0.0
 32
0.0
 13
1.0
 23
0.0
 33
0.0
 40
0.0
 40
0.0
 40
0.0
 40
0.0
 40
0.1666666666666667
 40
0.1666666666666667
 40
0.1666666666666667
 40
0.1666666666666667
 40
0.3333333333333333
 40
0.3333333333333333
 40
0.3333333333333333
 40
0.3333333333333333
 40
0.5
 40
0.5
 40
0.5
 40
0.5
 40
0.6666666666666666
 40
0.6666666666666666
 40
0.6666666666666666
 40
0.6666666666666666
 40
1.0
 40
1.0
 40
1.0
 40
1.0
 10
-89.9236
 20
119.457
 30
0.0
 10
-89.9236
 20
119.457
 30
0.0
 10
-83.6203
 20
119.457
 30
0.0
 10
-83.6203
 20
119.457
 30
0.0
 10
-83.6203
 20
119.457
 30
0.0
 10
-84.3282
 20
113.9391
 30
0.0
 10
-75.8574
 20
113.2579
 30
0.0
 10
-75.6857
 20
119.457
 30
0.0
 10
-75.6857
 20
119.457
 30
0.0
 10
-75.6857
 20
119.457
 30
0.0
 10
-64.376
 20
119.457
 30
0.0
 10
-64.376
 20
119.457
 30
0.0
 10
-64.376
 20
119.457
 30
0.0
 10
-65.5691
 20
112.717
 30
0.0
 10
-70.1458
 20
106.8719
 30
0.0
 10
-78.113
 20
106.4558
 30
0.0
 10
-78.113
 20
106.4558
 30
0.0
 10
-85.2768
 20
106.6616
 30
0.0
 10
-91.5766
 20
112.66
 30
0.0
 10
-89.9236
 20
119.457
 30
0.0
  0
SPLINE
  5
4F
330
1F
100
AcDbEntity
  8
layer 1
 62
     7
100
AcDbSpline
210
0.0
220
0.0
230
1.0
 70
    11
 71
     3
 72
    28
 73
    24
 74
     0
 42
0.0000000001
 43
0.0000000001
 12
1.0
 22
0.0
 32
0.0
 13
1.0
 23
0.0
 33
0.0
 40
0.0
 40
0.0
 40
0.0
 40
0.0
 40
0.1428571428571428
 40
0.1428571428571428
 40
0.1428571428571428
 40
0.1428571428571428
 40
0.2857142857142857
 40
0.2857142857142857
 40
0.2857142857142857
 40
0.2857142857142857
 40
0.4285714285714285
 40
0.4285714285714285
 40
0.4285714285714285
 40
0.4285714285714285
 40
0.5714285714285714
 40
0.5714285714285714
 40
0.5714285714285714
 40
0.5714285714285714
 40
0.7142857142857143
 40
0.7142857142857143
 40
0.7142857142857143
 40
0.7142857142857143
 40
1.0
 40
1.0
 40
1.0
 40
1.0
 10
-89.4639
 20
106.5537
 30
0.0
 10
-96.8421
 20
107.7758
 30
0.0
 10
-101.1813
 20
106.5671
 30
0.0
 10
-103.6609
 20
104.5643
 30
0.0
 10
-103.6609
 20
104.5643
 30
0.0
 10
-101.4245
 20
108.743
 30
0.0
 10
-103.9694
 20
110.7675
 30
0.0
 10
-105.7581
 20
111.1173
 30
0.0
 10
-105.7581
 20
111.1173
 30
0.0
 10
-107.8576
 20
111.5273
 30
0.0
 10
-110.8622
 20
110.0509
 30
0.0
 10
-109.4465
 20
106.1811
 30
0.0
 10
-109.4465
 20
106.1811
 30
0.0
 10
-111.9464
 20
107.1662
 30
0.0
 10
-113.5644
 20
109.8161
 30
0.0
 10
-113.7955
 20
111.7718
 30
0.0
 10
-113.7955
 20
111.7718
 30
0.0
 10
-114.4588
 20
117.4001
 30
0.0
 10
-108.4854
 20
121.4648
 30
0.0
 10
-102.1556
 20
118.5496
 30
0.0
 10
-102.1556
 20
118.5496
 30
0.0
 10
-97.3622
 20
115.9806
 30
0.0
 10
-95.3923
 20
110.3149
 30
0.0
 10
-89.4639
 20
106.5537
 30
0.0
  0
SPLINE
  5
50
330
1F
100
AcDbEntity
  8
layer 1
 62
     7
100
AcDbSpline
210
0.0
220
0.0
230
1.0
 70
    11
 71
     3
 72
    16
 73
    12
 74
     0
 42
0.0000000001
 43
0.0000000001
 12
1.0
 22
0.0
 32
0.0
 13
1.0
 23
0.0
 33
0.0
 40
0.0
 40
0.0
 40
0.0
 40
0.0
 40
0.25
 40
0.25
 40
0.25
 40
0.25
 40
0.5
 40
0.5
 40
0.5
 40
0.5
 40
1.0
 40
1.0
 40
1.0
 40
1.0
 10
-98.4041
 20
119.457
 30
0.0
 10
-98.4041
 20
119.457
 30
0.0
 10
-93.2213
 20
119.457
 30
0.0
 10
-93.2213
 20
119.457
 30
0.0
 10
-93.2213
 20
119.457
 30
0.0
 10
-93.4199
 20
118.6404
 30
0.0
 10
-93.6777
 20
117.4413
 30
0.0
 10
-93.1318
 20
116.0252
 30
0.0
 10
-93.1318
 20
116.0252
 30
0.0
 10
-94.4738
 20
116.7163
 30
0.0
 10
-95.9149
 20
117.2622
 30
0.0
 10
-98.4041
 20
119.457
 30
0.0
  0
SPLINE
  5
51
330
1F
100
AcDbEntity
  8
layer 1
 62
     7
100
AcDbSpline
210
0.0
220
0.0
230
1.0
 70
    11
 71
     3
 72
    56
 73
    52
 74
     0
 42
0.0000000001
 43
0.0000000001
 12
1.0
 22
0.0
 32
0.0
 13
1.0
 23
0.0
 33
0.0
 40
0.0
 40
0.0
 40
0.0
 40
0.0
 40
0.0714285714285714
 40
0.0714285714285714
 40
0.0714285714285714
 40
0.0714285714285714
 40
0.1428571428571428
 40
0.1428571428571428
 40
0.1428571428571428
 40
0.1428571428571428
 40
0.2142857142857143
 40
0.2142857142857143
 40
0.2142857142857143
 40
0.2142857142857143
 40
0.2857142857142857
 40
0.2857142857142857
 40
0.2857142857142857
 40
0.2857142857142857
 40
0.3571428571428572
 40
0.3571428571428572
 40
0.3571428571428572
 40
0.3571428571428572
 40
0.4285714285714285
 40
0.4285714285714285
 40
0.4285714285714285
 40
0.4285714285714285
 40
0.5
 40
0.5
 40
0.5
 40
0.5
 40
0.5714285714285714
 40
0.5714285714285714
 40
0.5714285714285714
 40
0.5714285714285714
 40
0.6428571428571429
 40
0.6428571428571429
 40
0.6428571428571429
 40
0.6428571428571429
 40
0.7142857142857143
 40
0.7142857142857143
 40
0.7142857142857143
 40
0.7142857142857143
 40
0.7857142857142857
 40
0.7857142857142857
 40
0.7857142857142857
 40
0.7857142857142857
 40
0.8571428571428571
 40
0.8571428571428571
 40
0.8571428571428571
 40
0.8571428571428571
 40
1.0
 40
1.0
 40
1.0
 40
1.0
 10
-78.5789
 20
94.0606
 30
0.0
 10
-82.8301
 20
94.6053
 30
0.0
 10
-87.0668
 20
93.0742
 30
0.0
 10
-87.7055
 20
89.358
 30
0.0
 10
-87.7055
 20
89.358
 30
0.0
 10
-90.5035
 20
96.4639
 30
0.0
 10
-99.4763
 20
95.4801
 30
0.0
 10
-100.5025
 20
88.6781
 30
0.0
 10
-100.5025
 20
88.6781
 30
0.0
 10
-101.5843
 20
82.5526
 30
0.0
 10
-92.88
 20
81.6437
 30
0.0
 10
-93.1209
 20
87.5368
 30
0.0
 10
-93.1209
 20
87.5368
 30
0.0
 10
-87.7808
 20
84.4535
 30
0.0
 10
-87.7734
 20
75.846
 30
0.0
 10
-94.7024
 20
72.562
 30
0.0
 10
-94.7024
 20
72.562
 30
0.0
 10
-98.7383
 20
70.9027
 30
0.0
 10
-105.7715
 20
70.794
 30
0.0
 10
-107.813
 20
74.0635
 30
0.0
 10
-107.813
 20
74.0635
 30
0.0
 10
-105.5221
 20
73.5214
 30
0.0
 10
-100.1819
 20
74.1097
 30
0.0
 10
-100.4688
 20
79.0613
 30
0.0
 10
-100.4688
 20
79.0613
 30
0.0
 10
-101.15
 20
82.9907
 30
0.0
 10
-106.0483
 20
82.1072
 30
0.0
 10
-105.3443
 20
78.1744
 30
0.0
 10
-105.3443
 20
78.1744
 30
0.0
 10
-105.6612
 20
76.8082
 30
0.0
 10
-108.6403
 20
76.7137
 30
0.0
 10
-109.7188
 20
76.9932
 30
0.0
 10
-109.7188
 20
76.9932
 30
0.0
 10
-111.3584
 20
78.8882
 30
0.0
 10
-113.4616
 20
84.2186
 30
0.0
 10
-112.3532
 20
87.6338
 30
0.0
 10
-112.3532
 20
87.6338
 30
0.0
 10
-110.8767
 20
84.847
 30
0.0
 10
-105.4155
 20
84.2648
 30
0.0
 10
-103.3731
 20
87.7995
 30
0.0
 10
-103.3731
 20
87.7995
 30
0.0
 10
-101.778
 20
91.0173
 30
0.0
 10
-106.6292
 20
93.9857
 30
0.0
 10
-108.6416
 20
89.1366
 30
0.0
 10
-108.6416
 20
89.1366
 30
0.0
 10
-114.311
 20
94.2821
 30
0.0
 10
-104.479
 20
102.9599
 30
0.0
 10
-97.436
 20
102.5689
 30
0.0
 10
-97.436
 20
102.5689
 30
0.0
 10
-89.2303
 20
102.5616
 30
0.0
 10
-82.6861
 20
99.9537
 30
0.0
 10
-78.5789
 20
94.0606
 30
0.0
  0
SPLINE
  5
52
330
1F
100
AcDbEntity
  8
layer 1
 62
     7
100
AcDbSpline
210
0.0
220
0.0
230
1.0
 70
    11
 71
     3
 72
    76
 73
    72
 74
     0
 42
0.0000000001
 43
0.0000000001
 12
1.0
 22
0.0
 32
0.0
 13
1.0
 23
0.0
 33
0.0
 40
0.0
 40
0.0
 40
0.0
 40
0.0
 40
0.0526315789473684
 40
0.0526315789473684
 40
0.0526315789473684
 40
0.0526315789473684
 40
0.1052631578947368
 40
0.1052631578947368
 40
0.1052631578947368
 40
0.1052631578947368
 40
0.1578947368421053
 40
0.1578947368421053
 40
0.1578947368421053
 40
0.1578947368421053
 40
0.2105263157894737
 40
0.2105263157894737
 40
0.2105263157894737
 40
0.2105263157894737
 40
0.2631578947368421
 40
0.2631578947368421
 40
0.2631578947368421
 40
0.2631578947368421
 40
0.3157894736842105
 40
0.3157894736842105
 40
0.3157894736842105
 40
0.3157894736842105
 40
0.3684210526315789
 40
0.3684210526315789
 40
0.3684210526315789
 40
0.3684210526315789
 40
0.4210526315789473
 40
0.4210526315789473
 40
0.4210526315789473
 40
0.4210526315789473
 40
0.4736842105263158
 40
0.4736842105263158
 40
0.4736842105263158
 40
0.4736842105263158
 40
0.5263157894736842
 40
0.5263157894736842
 40
0.5263157894736842
 40
0.5263157894736842
 40
0.5789473684210527
 40
0.5789473684210527
 40
0.5789473684210527
 40
0.5789473684210527
 40
0.631578947368421
 40
0.631578947368421
 40
0.631578947368421
 40
0.631578947368421
 40
0.6842105263157895
 40
0.6842105263157895
 40
0.6842105263157895
 40
0.6842105263157895
 40
0.7368421052631579
 40
0.7368421052631579
 40
0.7368421052631579
 40
0.7368421052631579
 40
0.7894736842105263
 40
0.7894736842105263
 40
0.7894736842105263
 40
0.7894736842105263
 40
0.8421052631578947
 40
0.8421052631578947
 40
0.8421052631578947
 40
0.8421052631578947
 40
0.8947368421052632
 40
0.8947368421052632
 40
0.8947368421052632
 40
0.8947368421052632
 40
1.0
 40
1.0
 40
1.0
 40
1.0
 10
-112.2261
 20
-27.1159
 30
0.0
 10
-106.057
 20
-26.6404
 30
0.0
 10
-107.9679
 20
-18.5931
 30
0.0
 10
-113.0706
 20
-12.9989
 30
0.0
 10
-113.0706
 20
-12.9989
 30
0.0
 10
-122.8097
 20
4.5744
 30
0.0
 10
-113.2584
 20
15.337
 30
0.0
 10
-109.7925
 20
18.6007
 30
0.0
 10
-109.7925
 20
18.6007
 30
0.0
 10
-99.4242
 20
26.0526
 30
0.0
 10
-103.0499
 20
36.2732
 30
0.0
 10
-108.6478
 20
40.8376
 30
0.0
 10
-108.6478
 20
40.8376
 30
0.0
 10
-106.553
 20
43.8617
 30
0.0
 10
-99.2913
 20
42.1966
 30
0.0
 10
-99.3092
 20
33.7416
 30
0.0
 10
-99.3092
 20
33.7416
 30
0.0
 10
-95.7408
 20
39.0455
 30
0.0
 10
-95.1563
 20
48.0076
 30
0.0
 10
-98.6038
 20
53.0875
 30
0.0
 10
-98.6038
 20
53.0875
 30
0.0
 10
-104.4815
 20
61.2873
 30
0.0
 10
-114.9923
 20
58.0175
 30
0.0
 10
-113.9892
 20
49.0157
 30
0.0
 10
-113.9892
 20
49.0157
 30
0.0
 10
-108.1261
 20
50.7086
 30
0.0
 10
-107.111
 20
41.5516
 30
0.0
 10
-113.7061
 20
41.657
 30
0.0
 10
-113.7061
 20
41.657
 30
0.0
 10
-116.0211
 20
42.0671
 30
0.0
 10
-117.8191
 20
43.3063
 30
0.0
 10
-118.3649
 20
45.6526
 30
0.0
 10
-118.3649
 20
45.6526
 30
0.0
 10
-118.912
 20
43.3063
 30
0.0
 10
-120.7088
 20
42.0671
 30
0.0
 10
-123.0238
 20
41.657
 30
0.0
 10
-123.0238
 20
41.657
 30
0.0
 10
-129.6189
 20
41.5516
 30
0.0
 10
-128.605
 20
50.7086
 30
0.0
 10
-122.7407
 20
49.0157
 30
0.0
 10
-122.7407
 20
49.0157
 30
0.0
 10
-121.7376
 20
58.0175
 30
0.0
 10
-132.2484
 20
61.2873
 30
0.0
 10
-138.1272
 20
53.0875
 30
0.0
 10
-138.1272
 20
53.0875
 30
0.0
 10
-141.5748
 20
48.0076
 30
0.0
 10
-140.9903
 20
39.0455
 30
0.0
 10
-137.4219
 20
33.7416
 30
0.0
 10
-137.4219
 20
33.7416
 30
0.0
 10
-137.4385
 20
42.1966
 30
0.0
 10
-130.1769
 20
43.8617
 30
0.0
 10
-128.0833
 20
40.8376
 30
0.0
 10
-128.0833
 20
40.8376
 30
0.0
 10
-133.6802
 20
36.2732
 30
0.0
 10
-137.3057
 20
26.0526
 30
0.0
 10
-126.9374
 20
18.6007
 30
0.0
 10
-126.9374
 20
18.6007
 30
0.0
 10
-123.4715
 20
15.337
 30
0.0
 10
-113.9201
 20
4.5744
 30
0.0
 10
-123.6592
 20
-12.9989
 30
0.0
 10
-123.6592
 20
-12.9989
 30
0.0
 10
-128.7624
 20
-18.5931
 30
0.0
 10
-130.6731
 20
-26.6404
 30
0.0
 10
-124.5036
 20
-27.1159
 30
0.0
 10
-124.5036
 20
-27.1159
 30
0.0
 10
-125.3885
 20
-21.8012
 30
0.0
 10
-119.0669
 20
-22.3771
 30
0.0
 10
-118.3649
 20
-25.7351
 30
0.0
 10
-118.3649
 20
-25.7351
 30
0.0
 10
-117.6629
 20
-22.3771
 30
0.0
 10
-111.3414
 20
-21.8012
 30
0.0
 10
-112.2261
 20
-27.1159
 30
0.0
  0
SPLINE
  5
53
330
1F
100
AcDbEntity
  8
layer 1
 62
     7
100
AcDbSpline
210
0.0
220
0.0
230
1.0
 70
    11
 71
     3
 72
    28
 73
    24
 74
     0
 42
0.0000000001
 43
0.0000000001
 12
1.0
 22
0.0
 32
0.0
 13
1.0
 23
0.0
 33
0.0
 40
0.0
 40
0.0
 40
0.0
 40
0.0
 40
0.1428571428571428
 40
0.1428571428571428
 40
0.1428571428571428
 40
0.1428571428571428
 40
0.2857142857142857
 40
0.2857142857142857
 40
0.2857142857142857
 40
0.2857142857142857
 40
0.4285714285714285
 40
0.4285714285714285
 40
0.4285714285714285
 40
0.4285714285714285
 40
0.5714285714285714
 40
0.5714285714285714
 40
0.5714285714285714
 40
0.5714285714285714
 40
0.7142857142857143
 40
0.7142857142857143
 40
0.7142857142857143
 40
0.7142857142857143
 40
1.0
 40
1.0
 40
1.0
 40
1.0
 10
-91.1352
 20
69.8027
 30
0.0
 10
-81.9553
 20
75.8872
 30
0.0
 10
-81.5064
 20
64.2835
 30
0.0
 10
-85.8422
 20
66.216
 30
0.0
 10
-85.8422
 20
66.216
 30
0.0
 10
-88.9134
 20
69.0211
 30
0.0
 10
-93.1668
 20
65.0313
 30
0.0
 10
-89.6841
 20
59.5531
 30
0.0
 10
-89.6841
 20
59.5531
 30
0.0
 10
-91.7824
 20
59.9635
 30
0.0
 10
-94.0828
 20
59.0063
 30
0.0
 10
-95.3765
 20
55.3589
 30
0.0
 10
-95.3765
 20
55.3589
 30
0.0
 10
-97.8765
 20
58.906
 30
0.0
 10
-100.8436
 20
59.7975
 30
0.0
 10
-105.9251
 20
60.8384
 30
0.0
 10
-105.9251
 20
60.8384
 30
0.0
 10
-111.9718
 20
62.1234
 30
0.0
 10
-113.0889
 20
68.1558
 30
0.0
 10
-113.0694
 20
73.3339
 30
0.0
 10
-113.0694
 20
73.3339
 30
0.0
 10
-108.4988
 20
68.6846
 30
0.0
 10
-98.9561
 20
65.3957
 30
0.0
 10
-91.1352
 20
69.8027
 30
0.0
  0
SPLINE
  5
54
330
1F
100
AcDbEntity
  8
layer 1
 62
     7
100
AcDbSpline
210
0.0
220
0.0
230
1.0
 70
    11
 71
     3
 72
    52
 73
    48
 74
     0
 42
0.0000000001
 43
0.0000000001
 12
1.0
 22
0.0
 32
0.0
 13
1.0
 23
0.0
 33
0.0
 40
0.0
 40
0.0
 40
0.0
 40
0.0
 40
0.0769230769230769
 40
0.0769230769230769
 40
0.0769230769230769
 40
0.0769230769230769
 40
0.1538461538461539
 40
0.1538461538461539
 40
0.1538461538461539
 40
0.1538461538461539
 40
0.2307692307692308
 40
0.2307692307692308
 40
0.2307692307692308
 40
0.2307692307692308
 40
0.3076923076923077
 40
0.3076923076923077
 40
0.3076923076923077
 40
0.3076923076923077
 40
0.3846153846153846
 40
0.3846153846153846
 40
0.3846153846153846
 40
0.3846153846153846
 40
0.4615384615384616
 40
0.4615384615384616
 40
0.4615384615384616
 40
0.4615384615384616
 40
0.5384615384615384
 40
0.5384615384615384
 40
0.5384615384615384
 40
0.5384615384615384
 40
0.6153846153846154
 40
0.6153846153846154
 40
0.6153846153846154
 40
0.6153846153846154
 40
0.6923076923076923
 40
0.6923076923076923
 40
0.6923076923076923
 40
0.6923076923076923
 40
0.7692307692307693
 40
0.7692307692307693
 40
0.7692307692307693
 40
0.7692307692307693
 40
0.8461538461538461
 40
0.8461538461538461
 40
0.8461538461538461
 40
0.8461538461538461
 40
1.0
 40
1.0
 40
1.0
 40
1.0
 10
-86.5355
 20
58.4242
 30
0.0
 10
-82.4841
 20
58.2618
 30
0.0
 10
-79.5957
 20
60.9317
 30
0.0
 10
-79.0752
 20
65.1801
 30
0.0
 10
-79.0752
 20
65.1801
 30
0.0
 10
-78.6056
 20
69.0236
 30
0.0
 10
-80.6665
 20
74.9421
 30
0.0
 10
-88.1161
 20
73.6146
 30
0.0
 10
-88.1161
 20
73.6146
 30
0.0
 10
-84.5823
 20
77.8052
 30
0.0
 10
-85.7539
 20
83.679
 30
0.0
 10
-86.3431
 20
86.3438
 30
0.0
 10
-86.3431
 20
86.3438
 30
0.0
 10
-86.0562
 20
87.6083
 30
0.0
 10
-85.2684
 20
88.6526
 30
0.0
 10
-84.2108
 20
89.3992
 30
0.0
 10
-84.2108
 20
89.3992
 30
0.0
 10
-81.2099
 20
91.5182
 30
0.0
 10
-76.0306
 20
91.2363
 30
0.0
 10
-73.9116
 20
86.7577
 30
0.0
 10
-73.9116
 20
86.7577
 30
0.0
 10
-80.9497
 20
87.3131
 30
0.0
 10
-80.1703
 20
79.6822
 30
0.0
 10
-78.1629
 20
79.5985
 30
0.0
 10
-78.1629
 20
79.5985
 30
0.0
 10
-77.1694
 20
85.3357
 30
0.0
 10
-70.614
 20
82.1109
 30
0.0
 10
-69.3881
 20
80.1431
 30
0.0
 10
-69.3881
 20
80.1431
 30
0.0
 10
-65.8122
 20
75.8872
 30
0.0
 10
-63.7224
 20
66.3842
 30
0.0
 10
-70.5984
 20
55.3904
 30
0.0
 10
-70.5984
 20
55.3904
 30
0.0
 10
-79.3983
 20
39.6179
 30
0.0
 10
-92.2145
 20
33.0954
 30
0.0
 10
-96.0335
 20
31.4581
 30
0.0
 10
-96.0335
 20
31.4581
 30
0.0
 10
-92.4518
 20
37.6855
 30
0.0
 10
-92.4818
 20
47.5962
 30
0.0
 10
-93.8517
 20
51.7288
 30
0.0
 10
-93.8517
 20
51.7288
 30
0.0
 10
-94.0757
 20
56.4152
 30
0.0
 10
-87.2566
 20
56.2629
 30
0.0
 10
-87.2882
 20
50.7207
 30
0.0
 10
-87.2882
 20
50.7207
 30
0.0
 10
-83.8007
 20
52.3604
 30
0.0
 10
-84.3586
 20
57.0073
 30
0.0
 10
-86.5355
 20
58.4242
 30
0.0
  0
SPLINE
  5
55
330
1F
100
AcDbEntity
  8
layer 1
 62
     7
100
AcDbSpline
210
0.0
220
0.0
230
1.0
 70
    11
 71
     3
 72
    32
 73
    28
 74
     0
 42
0.0000000001
 43
0.0000000001
 12
1.0
 22
0.0
 32
0.0
 13
1.0
 23
0.0
 33
0.0
 40
0.0
 40
0.0
 40
0.0
 40
0.0
 40
0.125
 40
0.125
 40
0.125
 40
0.125
 40
0.25
 40
0.25
 40
0.25
 40
0.25
 40
0.375
 40
0.375
 40
0.375
 40
0.375
 40
0.5
 40
0.5
 40
0.5
 40
0.5
 40
0.625
 40
0.625
 40
0.625
 40
0.625
 40
0.75
 40
0.75
 40
0.75
 40
0.75
 40
1.0
 40
1.0
 40
1.0
 40
1.0
 10
-83.9385
 20
21.5436
 30
0.0
 10
-77.8432
 20
19.553
 30
0.0
 10
-77.8444
 20
28.5406
 30
0.0
 10
-83.7269
 20
26.8537
 30
0.0
 10
-83.7269
 20
26.8537
 30
0.0
 10
-82.7865
 20
34.1409
 30
0.0
 10
-73.9433
 20
33.8227
 30
0.0
 10
-70.7967
 20
30.196
 30
0.0
 10
-70.7967
 20
30.196
 30
0.0
 10
-68.4191
 20
27.455
 30
0.0
 10
-69.5201
 20
19.8436
 30
0.0
 10
-73.8766
 20
21.8256
 30
0.0
 10
-73.8766
 20
21.8256
 30
0.0
 10
-72.3106
 20
25.4885
 30
0.0
 10
-77.174
 20
26.2959
 30
0.0
 10
-77.5033
 20
22.8699
 30
0.0
 10
-77.5033
 20
22.8699
 30
0.0
 10
-77.727
 20
19.565
 30
0.0
 10
-74.6437
 20
18.2776
 30
0.0
 10
-73.4386
 20
18.4083
 30
0.0
 10
-73.4386
 20
18.4083
 30
0.0
 10
-75.6129
 20
15.8538
 30
0.0
 10
-75.0055
 20
13.4117
 30
0.0
 10
-74.6086
 20
12.2064
 30
0.0
 10
-74.6086
 20
12.2064
 30
0.0
 10
-81.5027
 20
14.2445
 30
0.0
 10
-83.7799
 20
19.1174
 30
0.0
 10
-83.9385
 20
21.5436
 30
0.0
  0
SPLINE
  5
56
330
1F
100
AcDbEntity
  8
layer 1
 62
     7
100
AcDbSpline
210
0.0
220
0.0
230
1.0
 70
    11
 71
     3
 72
    28
 73
    24
 74
     0
 42
0.0000000001
 43
0.0000000001
 12
1.0
 22
0.0
 32
0.0
 13
1.0
 23
0.0
 33
0.0
 40
0.0
 40
0.0
 40
0.0
 40
0.0
 40
0.1428571428571428
 40
0.1428571428571428
 40
0.1428571428571428
 40
0.1428571428571428
 40
0.2857142857142857
 40
0.2857142857142857
 40
0.2857142857142857
 40
0.2857142857142857
 40
0.4285714285714285
 40
0.4285714285714285
 40
0.4285714285714285
 40
0.4285714285714285
 40
0.5714285714285714
 40
0.5714285714285714
 40
0.5714285714285714
 40
0.5714285714285714
 40
0.7142857142857143
 40
0.7142857142857143
 40
0.7142857142857143
 40
0.7142857142857143
 40
1.0
 40
1.0
 40
1.0
 40
1.0
 10
-110.4824
 20
1.019
 30
0.0
 10
-101.8313
 20
-3.6932
 30
0.0
 10
-99.6894
 20
7.7678
 30
0.0
 10
-104.0868
 20
8.471
 30
0.0
 10
-104.0868
 20
8.471
 30
0.0
 10
-103.2302
 20
4.2996
 30
0.0
 10
-108.7289
 20
3.4877
 30
0.0
 10
-109.7042
 20
8.4335
 30
0.0
 10
-109.7042
 20
8.4335
 30
0.0
 10
-111.3609
 20
13.6345
 30
0.0
 10
-98.3898
 20
24.5362
 30
0.0
 10
-85.7465
 20
31.7729
 30
0.0
 10
-85.7465
 20
31.7729
 30
0.0
 10
-89.4326
 20
25.583
 30
0.0
 10
-88.1619
 20
19.8448
 30
0.0
 10
-85.8856
 20
16.9247
 30
0.0
 10
-85.8856
 20
16.9247
 30
0.0
 10
-90.2046
 20
15.9359
 30
0.0
 10
-100.7253
 20
12.5877
 30
0.0
 10
-99.3372
 20
-1.4773
 30
0.0
 10
-99.3372
 20
-1.4773
 30
0.0
 10
-101.2045
 20
-6.3639
 30
0.0
 10
-109.5809
 20
-5.5299
 30
0.0
 10
-110.4824
 20
1.019
 30
0.0
  0
SPLINE
  5
57
330
1F
100
AcDbEntity
  8
layer 1
 62
     7
100
AcDbSpline
210
0.0
220
0.0
230
1.0
 70
    11
 71
     3
 72
    44
 73
    40
 74
     0
 42
0.0000000001
 43
0.0000000001
 12
1.0
 22
0.0
 32
0.0
 13
1.0
 23
0.0
 33
0.0
 40
0.0
 40
0.0
 40
0.0
 40
0.0
 40
0.0909090909090909
 40
0.0909090909090909
 40
0.0909090909090909
 40
0.0909090909090909
 40
0.1818181818181818
 40
0.1818181818181818
 40
0.1818181818181818
 40
0.1818181818181818
 40
0.2727272727272727
 40
0.2727272727272727
 40
0.2727272727272727
 40
0.2727272727272727
 40
0.3636363636363636
 40
0.3636363636363636
 40
0.3636363636363636
 40
0.3636363636363636
 40
0.4545454545454545
 40
0.4545454545454545
 40
0.4545454545454545
 40
0.4545454545454545
 40
0.5454545454545454
 40
0.5454545454545454
 40
0.5454545454545454
 40
0.5454545454545454
 40
0.6363636363636364
 40
0.6363636363636364
 40
0.6363636363636364
 40
0.6363636363636364
 40
0.7272727272727273
 40
0.7272727272727273
 40
0.7272727272727273
 40
0.7272727272727273
 40
0.8181818181818182
 40
0.8181818181818182
 40
0.8181818181818182
 40
0.8181818181818182
 40
1.0
 40
1.0
 40
1.0
 40
1.0
 10
-93.3362
 20
-20.1664
 30
0.0
 10
-100.5122
 20
-21.9923
 30
0.0
 10
-110.9821
 20
-11.1098
 30
0.0
 10
-110.0224
 20
-9.2523
 30
0.0
 10
-110.0224
 20
-9.2523
 30
0.0
 10
-106.4443
 20
-11.5274
 30
0.0
 10
-98.5072
 20
-9.7012
 30
0.0
 10
-98.3291
 20
-4.2607
 30
0.0
 10
-98.3291
 20
-4.2607
 30
0.0
 10
-96.2334
 20
-7.8824
 30
0.0
 10
-91.0141
 20
-6.9363
 30
0.0
 10
-89.9202
 20
-4.5947
 30
0.0
 10
-89.9202
 20
-4.5947
 30
0.0
 10
-87.3437
 20
0.9174
 30
0.0
 10
-92.4989
 20
2.8985
 30
0.0
 10
-95.2266
 20
2.7569
 30
0.0
 10
-95.2266
 20
2.7569
 30
0.0
 10
-94.5441
 20
13.7953
 30
0.0
 10
-77.1161
 20
15.5574
 30
0.0
 10
-73.1093
 20
4.4775
 30
0.0
 10
-73.1093
 20
4.4775
 30
0.0
 10
-75.4436
 20
6.7247
 30
0.0
 10
-78.8333
 20
6.536
 30
0.0
 10
-80.0771
 20
2.5438
 30
0.0
 10
-80.0771
 20
2.5438
 30
0.0
 10
-63.978
 20
1.918
 30
0.0
 10
-71.841
 20
-20.4121
 30
0.0
 10
-86.5971
 20
-21.2191
 30
0.0
 10
-86.5971
 20
-21.2191
 30
0.0
 10
-83.4847
 20
-18.2265
 30
0.0
 10
-83.2186
 20
-12.4277
 30
0.0
 10
-86.2087
 20
-9.5441
 30
0.0
 10
-86.2087
 20
-9.5441
 30
0.0
 10
-89.1263
 20
-6.849
 30
0.0
 10
-93.7696
 20
-11.8093
 30
0.0
 10
-89.528
 20
-14.5841
 30
0.0
 10
-89.528
 20
-14.5841
 30
0.0
 10
-88.3446
 20
-18.4818
 30
0.0
 10
-90.7866
 20
-19.2963
 30
0.0
 10
-93.3362
 20
-20.1664
 30
0.0
  0
SPLINE
  5
58
330
1F
100
AcDbEntity
  8
layer 1
 62
     7
100
AcDbSpline
210
0.0
220
0.0
230
1.0
 70
    11
 71
     3
 72
    48
 73
    44
 74
     0
 42
0.0000000001
 43
0.0000000001
 12
1.0
 22
0.0
 32
0.0
 13
1.0
 23
0.0
 33
0.0
 40
0.0
 40
0.0
 40
0.0
 40
0.0
 40
0.0833333333333333
 40
0.0833333333333333
 40
0.0833333333333333
 40
0.0833333333333333
 40
0.1666666666666667
 40
0.1666666666666667
 40
0.1666666666666667
 40
0.1666666666666667
 40
0.25
 40
0.25
 40
0.25
 40
0.25
 40
0.3333333333333333
 40
0.3333333333333333
 40
0.3333333333333333
 40
0.3333333333333333
 40
0.4166666666666667
 40
0.4166666666666667
 40
0.4166666666666667
 40
0.4166666666666667
 40
0.5
 40
0.5
 40
0.5
 40
0.5
 40
0.5833333333333334
 40
0.5833333333333334
 40
0.5833333333333334
 40
0.5833333333333334
 40
0.6666666666666666
 40
0.6666666666666666
 40
0.6666666666666666
 40
0.6666666666666666
 40
0.75
 40
0.75
 40
0.75
 40
0.75
 40
0.8333333333333334
 40
0.8333333333333334
 40
0.8333333333333334
 40
0.8333333333333334
 40
1.0
 40
1.0
 40
1.0
 40
1.0
 10
-67.0551
 20
-31.5824
 30
0.0
 10
-63.4938
 20
-34.6633
 30
0.0
 10
-68.0706
 20
-38.1958
 30
0.0
 10
-72.9798
 20
-39.0573
 30
0.0
 10
-72.9798
 20
-39.0573
 30
0.0
 10
-76.7821
 20
-39.7252
 30
0.0
 10
-80.4255
 20
-39.0403
 30
0.0
 10
-82.9221
 20
-36.412
 30
0.0
 10
-82.9221
 20
-36.412
 30
0.0
 10
-77.2868
 20
-34.5678
 30
0.0
 10
-75.8794
 20
-26.725
 30
0.0
 10
-81.1966
 20
-24.1209
 30
0.0
 10
-81.1966
 20
-24.1209
 30
0.0
 10
-76.0801
 20
-22.93
 30
0.0
 10
-72.2744
 20
-20.211
 30
0.0
 10
-69.8565
 20
-17.9313
 30
0.0
 10
-69.8565
 20
-17.9313
 30
0.0
 10
-64.5976
 20
-13.7551
 30
0.0
 10
-63.2589
 20
2.4409
 30
0.0
 10
-67.0443
 20
7.5803
 30
0.0
 10
-67.0443
 20
7.5803
 30
0.0
 10
-72.5417
 20
13.1082
 30
0.0
 10
-71.8339
 20
16.408
 30
0.0
 10
-68.741
 20
18.2064
 30
0.0
 10
-68.741
 20
18.2064
 30
0.0
 10
-63.1053
 20
20.198
 30
0.0
 10
-60.7419
 20
11.2033
 30
0.0
 10
-66.1307
 20
11.1936
 30
0.0
 10
-66.1307
 20
11.1936
 30
0.0
 10
-65.6066
 20
9.0964
 30
0.0
 10
-64.0047
 20
7.7593
 30
0.0
 10
-61.6909
 20
8.6983
 30
0.0
 10
-61.6909
 20
8.6983
 30
0.0
 10
-61.6909
 20
8.6983
 30
0.0
 10
-61.6909
 20
-27.9861
 30
0.0
 10
-61.6909
 20
-27.9861
 30
0.0
 10
-61.6909
 20
-27.9861
 30
0.0
 10
-63.7456
 20
-24.4526
 30
0.0
 10
-69.5892
 20
-21.6026
 30
0.0
 10
-73.1784
 20
-26.7832
 30
0.0
 10
-73.1784
 20
-26.7832
 30
0.0
 10
-75.4981
 20
-29.5821
 30
0.0
 10
-71.3122
 20
-35.7429
 30
0.0
 10
-67.0551
 20
-31.5824
 30
0.0
  0
SPLINE
  5
59
330
1F
100
AcDbEntity
  8
layer 1
 62
     7
100
AcDbSpline
210
0.0
220
0.0
230
1.0
 70
    11
 71
     3
 72
    40
 73
    36
 74
     0
 42
0.0000000001
 43
0.0000000001
 12
1.0
 22
0.0
 32
0.0
 13
1.0
 23
0.0
 33
0.0
 40
0.0
 40
0.0
 40
0.0
 40
0.0
 40
0.1
 40
0.1
 40
0.1
 40
0.1
 40
0.2
 40
0.2
 40
0.2
 40
0.2
 40
0.3
 40
0.3
 40
0.3
 40
0.3
 40
0.4
 40
0.4
 40
0.4
 40
0.4
 40
0.5
 40
0.5
 40
0.5
 40
0.5
 40
0.6
 40
0.6
 40
0.6
 40
0.6
 40
0.7
 40
0.7
 40
0.7
 40
0.7
 40
0.8
 40
0.8
 40
0.8
 40
0.8
 40
1.0
 40
1.0
 40
1.0
 40
1.0
 10
-77.1694
 20
-74.2848
 30
0.0
 10
-77.0469
 20
-75.9899
 30
0.0
 10
-74.144
 20
-78.7017
 30
0.0
 10
-71.7298
 20
-79.211
 30
0.0
 10
-71.7298
 20
-79.211
 30
0.0
 10
-72.1145
 20
-87.0102
 30
0.0
 10
-87.4453
 20
-92.3021
 30
0.0
 10
-92.6551
 20
-81.4245
 30
0.0
 10
-92.6551
 20
-81.4245
 30
0.0
 10
-93.5082
 20
-81.9012
 30
0.0
 10
-95.6113
 20
-84.9254
 30
0.0
 10
-93.1535
 20
-87.2825
 30
0.0
 10
-93.1535
 20
-87.2825
 30
0.0
 10
-93.9267
 20
-88.1394
 30
0.0
 10
-100.0329
 20
-90.6103
 30
0.0
 10
-104.444
 20
-87.0865
 30
0.0
 10
-104.444
 20
-87.0865
 30
0.0
 10
-108.7832
 20
-82.2944
 30
0.0
 10
-102.3408
 20
-77.4952
 30
0.0
 10
-98.9982
 20
-82.6308
 30
0.0
 10
-98.9982
 20
-82.6308
 30
0.0
 10
-97.6224
 20
-81.7463
 30
0.0
 10
-97.0357
 20
-79.6928
 30
0.0
 10
-97.9393
 20
-78.2962
 30
0.0
 10
-97.9393
 20
-78.2962
 30
0.0
 10
-92.4698
 20
-79.1482
 30
0.0
 10
-86.3514
 20
-73.0444
 30
0.0
 10
-88.5008
 20
-65.6108
 30
0.0
 10
-88.5008
 20
-65.6108
 30
0.0
 10
-81.6563
 20
-70.4208
 30
0.0
 10
-69.0796
 20
-64.7213
 30
0.0
 10
-74.7065
 20
-50.24
 30
0.0
 10
-74.7065
 20
-50.24
 30
0.0
 10
-66.6195
 20
-55.0863
 30
0.0
 10
-65.7214
 20
-71.0295
 30
0.0
 10
-77.1694
 20
-74.2848
 30
0.0
  0
SPLINE
  5
5A
330
1F
100
AcDbEntity
  8
layer 1
 62
     7
100
AcDbSpline
210
0.0
220
0.0
230
1.0
 70
    11
 71
     3
 72
    20
 73
    16
 74
     0
 42
0.0000000001
 43
0.0000000001
 12
1.0
 22
0.0
 32
0.0
 13
1.0
 23
0.0
 33
0.0
 40
0.0
 40
0.0
 40
0.0
 40
0.0
 40
0.2
 40
0.2
 40
0.2
 40
0.2
 40
0.4
 40
0.4
 40
0.4
 40
0.4
 40
0.6
 40
0.6
 40
0.6
 40
0.6
 40
1.0
 40
1.0
 40
1.0
 40
1.0
 10
-86.0779
 20
-32.8349
 30
0.0
 10
-80.0166
 20
-33.8755
 30
0.0
 10
-81.5256
 20
-24.2624
 30
0.0
 10
-86.7207
 20
-27.5527
 30
0.0
 10
-86.7207
 20
-27.5527
 30
0.0
 10
-87.9695
 20
-26.6974
 30
0.0
 10
-87.621
 20
-24.7247
 30
0.0
 10
-86.2802
 20
-24.1172
 30
0.0
 10
-86.2802
 20
-24.1172
 30
0.0
 10
-90.2505
 20
-24.8857
 30
0.0
 10
-96.001
 20
-24.3944
 30
0.0
 10
-99.0856
 20
-22.8467
 30
0.0
 10
-99.0856
 20
-22.8467
 30
0.0
 10
-94.9772
 20
-27.6943
 30
0.0
 10
-89.3356
 20
-31.7144
 30
0.0
 10
-86.0779
 20
-32.8349
 30
0.0
  0
SPLINE
  5
5B
330
1F
100
AcDbEntity
  8
layer 1
 62
     7
100
AcDbSpline
210
0.0
220
0.0
230
1.0
 70
    11
 71
     3
 72
    40
 73
    36
 74
     0
 42
0.0000000001
 43
0.0000000001
 12
1.0
 22
0.0
 32
0.0
 13
1.0
 23
0.0
 33
0.0
 40
0.0
 40
0.0
 40
0.0
 40
0.0
 40
0.1
 40
0.1
 40
0.1
 40
0.1
 40
0.2
 40
0.2
 40
0.2
 40
0.2
 40
0.3
 40
0.3
 40
0.3
 40
0.3
 40
0.4
 40
0.4
 40
0.4
 40
0.4
 40
0.5
 40
0.5
 40
0.5
 40
0.5
 40
0.6
 40
0.6
 40
0.6
 40
0.6
 40
0.7
 40
0.7
 40
0.7
 40
0.7
 40
0.8
 40
0.8
 40
0.8
 40
0.8
 40
1.0
 40
1.0
 40
1.0
 40
1.0
 10
-77.6495
 20
-51.2468
 30
0.0
 10
-74.3326
 20
-63.3431
 30
0.0
 10
-84.8171
 20
-64.3766
 30
0.0
 10
-87.2167
 20
-60.2728
 30
0.0
 10
-87.2167
 20
-60.2728
 30
0.0
 10
-81.0343
 20
-61.1793
 30
0.0
 10
-80.4788
 20
-51.1331
 30
0.0
 10
-86.9831
 20
-51.4912
 30
0.0
 10
-86.9831
 20
-51.4912
 30
0.0
 10
-91.59
 20
-51.744
 30
0.0
 10
-91.6579
 20
-57.4039
 30
0.0
 10
-91.4063
 20
-58.5086
 30
0.0
 10
-91.4063
 20
-58.5086
 30
0.0
 10
-94.4413
 20
-54.3193
 30
0.0
 10
-97.7532
 20
-54.7087
 30
0.0
 10
-103.217
 20
-54.9327
 30
0.0
 10
-103.217
 20
-54.9327
 30
0.0
 10
-109.364
 20
-55.1846
 30
0.0
 10
-113.285
 20
-53.328
 30
0.0
 10
-112.088
 20
-48.2918
 30
0.0
 10
-112.088
 20
-48.2918
 30
0.0
 10
-111.7336
 20
-47.1276
 30
0.0
 10
-110.1872
 20
-46.8903
 30
0.0
 10
-109.6484
 20
-48.1935
 30
0.0
 10
-109.6484
 20
-48.1935
 30
0.0
 10
-106.7841
 20
-53.6294
 30
0.0
 10
-100.4867
 20
-49.0455
 30
0.0
 10
-99.0165
 20
-45.7382
 30
0.0
 10
-99.0165
 20
-45.7382
 30
0.0
 10
-96.8663
 20
-40.4538
 30
0.0
 10
-96.1293
 20
-35.7054
 30
0.0
 10
-97.1507
 20
-29.0121
 30
0.0
 10
-97.1507
 20
-29.0121
 30
0.0
 10
-90.3341
 20
-32.1329
 30
0.0
 10
-79.7951
 20
-41.9833
 30
0.0
 10
-77.6495
 20
-51.2468
 30
0.0
  0
SPLINE
  5
5C
330
1F
100
AcDbEntity
  8
layer 1
 62
     7
100
AcDbSpline
210
0.0
220
0.0
230
1.0
 70
    11
 71
     3
 72
    24
 73
    20
 74
     0
 42
0.0000000001
 43
0.0000000001
 12
1.0
 22
0.0
 32
0.0
 13
1.0
 23
0.0
 33
0.0
 40
0.0
 40
0.0
 40
0.0
 40
0.0
 40
0.1666666666666667
 40
0.1666666666666667
 40
0.1666666666666667
 40
0.1666666666666667
 40
0.3333333333333333
 40
0.3333333333333333
 40
0.3333333333333333
 40
0.3333333333333333
 40
0.5
 40
0.5
 40
0.5
 40
0.5
 40
0.6666666666666666
 40
0.6666666666666666
 40
0.6666666666666666
 40
0.6666666666666666
 40
1.0
 40
1.0
 40
1.0
 40
1.0
 10
-157.6401
 20
36.6275
 30
0.0
 10
-157.8833
 20
40.6539
 30
0.0
 10
-167.5183
 20
46.5906
 30
0.0
 10
-170.9588
 20
42.5197
 30
0.0
 10
-170.9588
 20
42.5197
 30
0.0
 10
-169.417
 20
39.2549
 30
0.0
 10
-172.9953
 20
36.8407
 30
0.0
 10
-175.039
 20
40.2942
 30
0.0
 10
-175.039
 20
40.2942
 30
0.0
 10
-175.039
 20
40.2942
 30
0.0
 10
-175.039
 20
18.6237
 30
0.0
 10
-175.039
 20
18.6237
 30
0.0
 10
-175.039
 20
18.6237
 30
0.0
 10
-173.6137
 20
21.079
 30
0.0
 10
-171.8407
 20
21.9238
 30
0.0
 10
-169.0152
 20
21.8922
 30
0.0
 10
-169.0152
 20
21.8922
 30
0.0
 10
-173.2822
 20
29.0173
 30
0.0
 10
-168.4864
 20
38.38
 30
0.0
 10
-157.6401
 20
36.6275
 30
0.0
  0
SPLINE
  5
5D
330
1F
100
AcDbEntity
  8
layer 1
 62
     7
100
AcDbSpline
210
0.0
220
0.0
230
1.0
 70
    11
 71
     3
 72
    16
 73
    12
 74
     0
 42
0.0000000001
 43
0.0000000001
 12
1.0
 22
0.0
 32
0.0
 13
1.0
 23
0.0
 33
0.0
 40
0.0
 40
0.0
 40
0.0
 40
0.0
 40
0.25
 40
0.25
 40
0.25
 40
0.25
 40
0.5
 40
0.5
 40
0.5
 40
0.5
 40
1.0
 40
1.0
 40
1.0
 40
1.0
 10
-175.039
 20
-37.3547
 30
0.0
 10
-175.039
 20
-37.3547
 30
0.0
 10
-175.039
 20
-59.3834
 30
0.0
 10
-175.039
 20
-59.3834
 30
0.0
 10
-175.039
 20
-59.3834
 30
0.0
 10
-171.9798
 20
-52.4132
 30
0.0
 10
-167.4808
 20
-46.8407
 30
0.0
 10
-162.6791
 20
-45.0982
 30
0.0
 10
-162.6791
 20
-45.0982
 30
0.0
 10
-168.518
 20
-43.6025
 30
0.0
 10
-173.488
 20
-41.504
 30
0.0
 10
-175.039
 20
-37.3547
 30
0.0
  0
SPLINE
  5
5E
330
1F
100
AcDbEntity
  8
layer 1
 62
     7
100
AcDbSpline
210
0.0
220
0.0
230
1.0
 70
    11
 71
     3
 72
    36
 73
    32
 74
     0
 42
0.0000000001
 43
0.0000000001
 12
1.0
 22
0.0
 32
0.0
 13
1.0
 23
0.0
 33
0.0
 40
0.0
 40
0.0
 40
0.0
 40
0.0
 40
0.1111111111111111
 40
0.1111111111111111
 40
0.1111111111111111
 40
0.1111111111111111
 40
0.2222222222222222
 40
0.2222222222222222
 40
0.2222222222222222
 40
0.2222222222222222
 40
0.3333333333333333
 40
0.3333333333333333
 40
0.3333333333333333
 40
0.3333333333333333
 40
0.4444444444444444
 40
0.4444444444444444
 40
0.4444444444444444
 40
0.4444444444444444
 40
0.5555555555555556
 40
0.5555555555555556
 40
0.5555555555555556
 40
0.5555555555555556
 40
0.6666666666666666
 40
0.6666666666666666
 40
0.6666666666666666
 40
0.6666666666666666
 40
0.7777777777777778
 40
0.7777777777777778
 40
0.7777777777777778
 40
0.7777777777777778
 40
1.0
 40
1.0
 40
1.0
 40
1.0
 10
-118.365
 20
-36.1701
 30
0.0
 10
-121.7992
 20
-36.4071
 30
0.0
 10
-120.9157
 20
-38.5394
 30
0.0
 10
-122.811
 20
-41.6181
 30
0.0
 10
-122.811
 20
-41.6181
 30
0.0
 10
-125.2976
 20
-46.4959
 30
0.0
 10
-131.0674
 20
-43.2831
 30
0.0
 10
-132.5073
 20
-39.3392
 30
0.0
 10
-132.5073
 20
-39.3392
 30
0.0
 10
-133.8955
 20
-35.8724
 30
0.0
 10
-134.2173
 20
-30.9374
 30
0.0
 10
-131.6121
 20
-27.9558
 30
0.0
 10
-131.6121
 20
-27.9558
 30
0.0
 10
-131.1595
 20
-32.8216
 30
0.0
 10
-122.7756
 20
-37.7103
 30
0.0
 10
-118.365
 20
-30.9907
 30
0.0
 10
-118.365
 20
-30.9907
 30
0.0
 10
-113.9542
 20
-37.7103
 30
0.0
 10
-105.5716
 20
-32.8216
 30
0.0
 10
-105.1178
 20
-27.9558
 30
0.0
 10
-105.1178
 20
-27.9558
 30
0.0
 10
-102.5125
 20
-30.9374
 30
0.0
 10
-102.8344
 20
-35.8724
 30
0.0
 10
-104.2238
 20
-39.3392
 30
0.0
 10
-104.2238
 20
-39.3392
 30
0.0
 10
-105.6624
 20
-43.2831
 30
0.0
 10
-111.4322
 20
-46.4959
 30
0.0
 10
-113.9192
 20
-41.6181
 30
0.0
 10
-113.9192
 20
-41.6181
 30
0.0
 10
-115.8142
 20
-38.5394
 30
0.0
 10
-114.9307
 20
-36.4071
 30
0.0
 10
-118.365
 20
-36.1701
 30
0.0
  0
SPLINE
  5
5F
330
1F
100
AcDbEntity
  8
layer 1
 62
     7
100
AcDbSpline
210
0.0
220
0.0
230
1.0
 70
    11
 71
     3
 72
    32
 73
    28
 74
     0
 42
0.0000000001
 43
0.0000000001
 12
1.0
 22
0.0
 32
0.0
 13
1.0
 23
0.0
 33
0.0
 40
0.0
 40
0.0
 40
0.0
 40
0.0
 40
0.125
 40
0.125
 40
0.125
 40
0.125
 40
0.25
 40
0.25
 40
0.25
 40
0.25
 40
0.375
 40
0.375
 40
0.375
 40
0.375
 40
0.5
 40
0.5
 40
0.5
 40
0.5
 40
0.625
 40
0.625
 40
0.625
 40
0.625
 40
0.75
 40
0.75
 40
0.75
 40
0.75
 40
1.0
 40
1.0
 40
1.0
 40
1.0
 10
-119.3792
 20
-67.714
 30
0.0
 10
-119.229
 20
-63.6009
 30
0.0
 10
-122.1901
 20
-61.2858
 30
0.0
 10
-124.2254
 20
-59.7636
 30
0.0
 10
-124.2254
 20
-59.7636
 30
0.0
 10
-119.7927
 20
-56.1103
 30
0.0
 10
-118.3566
 20
-47.1797
 30
0.0
 10
-120.6799
 20
-42.034
 30
0.0
 10
-120.6799
 20
-42.034
 30
0.0
 10
-120.1058
 20
-41.2319
 30
0.0
 10
-119.4954
 20
-40.6505
 30
0.0
 10
-118.365
 20
-40.683
 30
0.0
 10
-118.365
 20
-40.683
 30
0.0
 10
-117.2348
 20
-40.7188
 30
0.0
 10
-116.6787
 20
-41.0818
 30
0.0
 10
-116.0499
 20
-42.034
 30
0.0
 10
-116.0499
 20
-42.034
 30
0.0
 10
-118.3733
 20
-47.1797
 30
0.0
 10
-116.9384
 20
-56.1103
 30
0.0
 10
-112.5056
 20
-59.7636
 30
0.0
 10
-112.5056
 20
-59.7636
 30
0.0
 10
-114.5409
 20
-61.2858
 30
0.0
 10
-117.5022
 20
-63.6009
 30
0.0
 10
-117.3523
 20
-67.714
 30
0.0
 10
-117.3523
 20
-67.714
 30
0.0
 10
-117.3523
 20
-67.714
 30
0.0
 10
-119.3792
 20
-67.714
 30
0.0
 10
-119.3792
 20
-67.714
 30
0.0
  0
SPLINE
  5
60
330
1F
100
AcDbEntity
  8
layer 1
 62
     7
100
AcDbSpline
210
0.0
220
0.0
230
1.0
 70
    11
 71
     3
 72
    24
 73
    20
 74
     0
 42
0.0000000001
 43
0.0000000001
 12
1.0
 22
0.0
 32
0.0
 13
1.0
 23
0.0
 33
0.0
 40
0.0
 40
0.0
 40
0.0
 40
0.0
 40
0.1666666666666667
 40
0.1666666666666667
 40
0.1666666666666667
 40
0.1666666666666667
 40
0.3333333333333333
 40
0.3333333333333333
 40
0.3333333333333333
 40
0.3333333333333333
 40
0.5
 40
0.5
 40
0.5
 40
0.5
 40
0.6666666666666666
 40
0.6666666666666666
 40
0.6666666666666666
 40
0.6666666666666666
 40
1.0
 40
1.0
 40
1.0
 40
1.0
 10
-135.5256
 20
-60.5138
 30
0.0
 10
-141.7551
 20
-60.9469
 30
0.0
 10
-142.7644
 20
-67.778
 30
0.0
 10
-141.0423
 20
-70.0797
 30
0.0
 10
-141.0423
 20
-70.0797
 30
0.0
 10
-139.4692
 20
-72.1816
 30
0.0
 10
-134.4568
 20
-72.9937
 30
0.0
 10
-133.754
 20
-68.3564
 30
0.0
 10
-133.754
 20
-68.3564
 30
0.0
 10
-131.6059
 20
-68.4933
 30
0.0
 10
-131.416
 20
-73.4292
 30
0.0
 10
-133.4754
 20
-74.3973
 30
0.0
 10
-133.4754
 20
-74.3973
 30
0.0
 10
-129.1458
 20
-74.0779
 30
0.0
 10
-126.0891
 20
-76.4546
 30
0.0
 10
-125.8785
 20
-81.8637
 30
0.0
 10
-125.8785
 20
-81.8637
 30
0.0
 10
-119.4975
 20
-75.2201
 30
0.0
 10
-122.1926
 20
-59.6365
 30
0.0
 10
-135.5256
 20
-60.5138
 30
0.0
  0
SPLINE
  5
61
330
1F
100
AcDbEntity
  8
layer 1
 62
     7
100
AcDbSpline
210
0.0
220
0.0
230
1.0
 70
    11
 71
     3
 72
    16
 73
    12
 74
     0
 42
0.0000000001
 43
0.0000000001
 12
1.0
 22
0.0
 32
0.0
 13
1.0
 23
0.0
 33
0.0
 40
0.0
 40
0.0
 40
0.0
 40
0.0
 40
0.25
 40
0.25
 40
0.25
 40
0.25
 40
0.5
 40
0.5
 40
0.5
 40
0.5
 40
1.0
 40
1.0
 40
1.0
 40
1.0
 10
-147.0011
 20
-94.7441
 30
0.0
 10
-146.2991
 20
-96.7819
 30
0.0
 10
-145.7012
 20
-99.7794
 30
0.0
 10
-146.3669
 20
-101.0548
 30
0.0
 10
-146.3669
 20
-101.0548
 30
0.0
 10
-146.3669
 20
-101.0548
 30
0.0
 10
-130.5204
 20
-101.0548
 30
0.0
 10
-130.5204
 20
-101.0548
 30
0.0
 10
-130.5204
 20
-101.0548
 30
0.0
 10
-134.1399
 20
-98.6456
 30
0.0
 10
-139.9896
 20
-94.9582
 30
0.0
 10
-147.0011
 20
-94.7441
 30
0.0
  0
SPLINE
  5
62
330
1F
100
AcDbEntity
  8
layer 1
 62
     7
100
AcDbSpline
210
0.0
220
0.0
230
1.0
 70
    11
 71
     3
 72
    16
 73
    12
 74
     0
 42
0.0000000001
 43
0.0000000001
 12
1.0
 22
0.0
 32
0.0
 13
1.0
 23
0.0
 33
0.0
 40
0.0
 40
0.0
 40
0.0
 40
0.0
 40
0.25
 40
0.25
 40
0.25
 40
0.25
 40
0.5
 40
0.5
 40
0.5
 40
0.5
 40
1.0
 40
1.0
 40
1.0
 40
1.0
 10
-152.0339
 20
-95.8259
 30
0.0
 10
-151.9902
 20
-98.9288
 30
0.0
 10
-153.2477
 20
-99.5846
 30
0.0
 10
-154.4951
 20
-101.0548
 30
0.0
 10
-154.4951
 20
-101.0548
 30
0.0
 10
-154.4951
 20
-101.0548
 30
0.0
 10
-149.8933
 20
-101.0548
 30
0.0
 10
-149.8933
 20
-101.0548
 30
0.0
 10
-149.8933
 20
-101.0548
 30
0.0
 10
-149.1284
 20
-98.7739
 30
0.0
 10
-150.3093
 20
-96.8569
 30
0.0
 10
-152.0339
 20
-95.8259
 30
0.0
  0
SPLINE
  5
63
330
1F
100
AcDbEntity
  8
layer 1
 62
     7
100
AcDbSpline
210
0.0
220
0.0
230
1.0
 70
    11
 71
     3
 72
    24
 73
    20
 74
     0
 42
0.0000000001
 43
0.0000000001
 12
1.0
 22
0.0
 32
0.0
 13
1.0
 23
0.0
 33
0.0
 40
0.0
 40
0.0
 40
0.0
 40
0.0
 40
0.1666666666666667
 40
0.1666666666666667
 40
0.1666666666666667
 40
0.1666666666666667
 40
0.3333333333333333
 40
0.3333333333333333
 40
0.3333333333333333
 40
0.3333333333333333
 40
0.5
 40
0.5
 40
0.5
 40
0.5
 40
0.6666666666666666
 40
0.6666666666666666
 40
0.6666666666666666
 40
0.6666666666666666
 40
1.0
 40
1.0
 40
1.0
 40
1.0
 10
-175.039
 20
-75.6693
 30
0.0
 10
-175.039
 20
-75.6693
 30
0.0
 10
-175.039
 20
-101.0548
 30
0.0
 10
-175.039
 20
-101.0548
 30
0.0
 10
-175.039
 20
-101.0548
 30
0.0
 10
-172.0552
 20
-93.3609
 30
0.0
 10
-165.5009
 20
-97.2732
 30
0.0
 10
-164.2485
 20
-101.0548
 30
0.0
 10
-164.2485
 20
-101.0548
 30
0.0
 10
-164.2485
 20
-101.0548
 30
0.0
 10
-157.4056
 20
-101.0548
 30
0.0
 10
-157.4056
 20
-101.0548
 30
0.0
 10
-157.4056
 20
-101.0548
 30
0.0
 10
-154.2433
 20
-98.2812
 30
0.0
 10
-155.6351
 20
-94.1162
 30
0.0
 10
-161.5657
 20
-91.1283
 30
0.0
 10
-161.5657
 20
-91.1283
 30
0.0
 10
-169.9833
 20
-86.8869
 30
0.0
 10
-173.2723
 20
-80.9052
 30
0.0
 10
-175.039
 20
-75.6693
 30
0.0
  0
SPLINE
  5
64
330
1F
100
AcDbEntity
  8
layer 1
 62
     7
100
AcDbSpline
210
0.0
220
0.0
230
1.0
 70
    11
 71
     3
 72
    16
 73
    12
 74
     0
 42
0.0000000001
 43
0.0000000001
 12
1.0
 22
0.0
 32
0.0
 13
1.0
 23
0.0
 33
0.0
 40
0.0
 40
0.0
 40
0.0
 40
0.0
 40
0.25
 40
0.25
 40
0.25
 40
0.25
 40
0.5
 40
0.5
 40
0.5
 40
0.5
 40
1.0
 40
1.0
 40
1.0
 40
1.0
 10
-175.0015
 20
64.8644
 30
0.0
 10
-175.0015
 20
54.6789
 30
0.0
 10
-175.039
 20
55.0624
 30
0.0
 10
-175.039
 20
44.8769
 30
0.0
 10
-175.039
 20
44.8769
 30
0.0
 10
-174.1267
 20
47.1857
 30
0.0
 10
-171.3194
 20
49.2359
 30
0.0
 10
-166.8733
 20
48.3378
 30
0.0
 10
-166.8733
 20
48.3378
 30
0.0
 10
-171.2624
 20
52.2901
 30
0.0
 10
-173.7249
 20
57.9895
 30
0.0
 10
-175.0015
 20
64.8644
 30
0.0
  0
SPLINE
  5
65
330
1F
100
AcDbEntity
  8
layer 1
 62
     7
100
AcDbSpline
210
0.0
220
0.0
230
1.0
 70
    11
 71
     3
 72
    16
 73
    12
 74
     0
 42
0.0000000001
 43
0.0000000001
 12
1.0
 22
0.0
 32
0.0
 13
1.0
 23
0.0
 33
0.0
 40
0.0
 40
0.0
 40
0.0
 40
0.0
 40
0.25
 40
0.25
 40
0.25
 40
0.25
 40
0.5
 40
0.5
 40
0.5
 40
0.5
 40
1.0
 40
1.0
 40
1.0
 40
1.0
 10
-175.039
 20
115.0271
 30
0.0
 10
-175.039
 20
115.0271
 30
0.0
 10
-175.039
 20
103.2431
 30
0.0
 10
-175.039
 20
103.2431
 30
0.0
 10
-175.039
 20
103.2431
 30
0.0
 10
-174.3132
 20
105.1173
 30
0.0
 10
-172.5585
 20
107.2774
 30
0.0
 10
-169.1676
 20
107.0609
 30
0.0
 10
-169.1676
 20
107.0609
 30
0.0
 10
-172.7822
 20
110.2567
 30
0.0
 10
-173.9464
 20
112.0924
 30
0.0
 10
-175.039
 20
115.0271
 30
0.0
  0
SPLINE
  5
66
330
1F
100
AcDbEntity
  8
layer 1
 62
     7
100
AcDbSpline
210
0.0
220
0.0
230
1.0
 70
    11
 71
     3
 72
    20
 73
    16
 74
     0
 42
0.0000000001
 43
0.0000000001
 12
1.0
 22
0.0
 32
0.0
 13
1.0
 23
0.0
 33
0.0
 40
0.0
 40
0.0
 40
0.0
 40
0.0
 40
0.2
 40
0.2
 40
0.2
 40
0.2
 40
0.4
 40
0.4
 40
0.4
 40
0.4
 40
0.6
 40
0.6
 40
0.6
 40
0.6
 40
1.0
 40
1.0
 40
1.0
 40
1.0
 10
-175.039
 20
96.6356
 30
0.0
 10
-175.039
 20
96.6356
 30
0.0
 10
-175.039
 20
79.2091
 30
0.0
 10
-175.039
 20
79.2091
 30
0.0
 10
-175.039
 20
79.2091
 30
0.0
 10
-173.9526
 20
81.478
 30
0.0
 10
-168.294
 20
87.7837
 30
0.0
 10
-166.7742
 20
94.5266
 30
0.0
 10
-166.7742
 20
94.5266
 30
0.0
 10
-165.1525
 20
101.7291
 30
0.0
 10
-169.2367
 20
103.739
 30
0.0
 10
-171.2129
 20
101.1919
 30
0.0
 10
-171.2129
 20
101.1919
 30
0.0
 10
-168.939
 20
98.2499
 30
0.0
 10
-171.5905
 20
94.4441
 30
0.0
 10
-175.039
 20
96.6356
 30
0.0
  0
SPLINE
  5
67
330
1F
100
AcDbEntity
  8
layer 1
 62
     7
100
AcDbSpline
210
0.0
220
0.0
230
1.0
 70
    11
 71
     3
 72
    16
 73
    12
 74
     0
 42
0.0000000001
 43
0.0000000001
 12
1.0
 22
0.0
 32
0.0
 13
1.0
 23
0.0
 33
0.0
 40
0.0
 40
0.0
 40
0.0
 40
0.0
 40
0.25
 40
0.25
 40
0.25
 40
0.25
 40
0.5
 40
0.5
 40
0.5
 40
0.5
 40
1.0
 40
1.0
 40
1.0
 40
1.0
 10
-121.9083
 20
119.457
 30
0.0
 10
-120.3835
 20
118.4081
 30
0.0
 10
-119.2364
 20
117.4484
 30
0.0
 10
-118.3649
 20
115.3343
 30
0.0
 10
-118.3649
 20
115.3343
 30
0.0
 10
-117.4938
 20
117.4484
 30
0.0
 10
-116.3464
 20
118.4081
 30
0.0
 10
-114.8228
 20
119.457
 30
0.0
 10
-114.8228
 20
119.457
 30
0.0
 10
-114.8228
 20
119.457
 30
0.0
 10
-121.9083
 20
119.457
 30
0.0
 10
-121.9083
 20
119.457
 30
0.0
  0
SPLINE
  5
68
330
1F
100
AcDbEntity
  8
layer 1
 62
     7
100
AcDbSpline
210
0.0
220
0.0
230
1.0
 70
    11
 71
     3
 72
    24
 73
    20
 74
     0
 42
0.0000000001
 43
0.0000000001
 12
1.0
 22
0.0
 32
0.0
 13
1.0
 23
0.0
 33
0.0
 40
0.0
 40
0.0
 40
0.0
 40
0.0
 40
0.1666666666666667
 40
0.1666666666666667
 40
0.1666666666666667
 40
0.1666666666666667
 40
0.3333333333333333
 40
0.3333333333333333
 40
0.3333333333333333
 40
0.3333333333333333
 40
0.5
 40
0.5
 40
0.5
 40
0.5
 40
0.6666666666666666
 40
0.6666666666666666
 40
0.6666666666666666
 40
0.6666666666666666
 40
1.0
 40
1.0
 40
1.0
 40
1.0
 10
-146.8075
 20
119.457
 30
0.0
 10
-146.8075
 20
119.457
 30
0.0
 10
-153.1094
 20
119.457
 30
0.0
 10
-153.1094
 20
119.457
 30
0.0
 10
-153.1094
 20
119.457
 30
0.0
 10
-152.4016
 20
113.9391
 30
0.0
 10
-160.8724
 20
113.2579
 30
0.0
 10
-161.0456
 20
119.457
 30
0.0
 10
-161.0456
 20
119.457
 30
0.0
 10
-161.0456
 20
119.457
 30
0.0
 10
-172.3538
 20
119.457
 30
0.0
 10
-172.3538
 20
119.457
 30
0.0
 10
-172.3538
 20
119.457
 30
0.0
 10
-171.1608
 20
112.717
 30
0.0
 10
-166.584
 20
106.8719
 30
0.0
 10
-158.6169
 20
106.4558
 30
0.0
 10
-158.6169
 20
106.4558
 30
0.0
 10
-151.4542
 20
106.6616
 30
0.0
 10
-145.1532
 20
112.66
 30
0.0
 10
-146.8075
 20
119.457
 30
0.0
  0
SPLINE
  5
69
330
1F
100
AcDbEntity
  8
layer 1
 62
     7
100
AcDbSpline
210
0.0
220
0.0
230
1.0
 70
    11
 71
     3
 72
    28
 73
    24
 74
     0
 42
0.0000000001
 43
0.0000000001
 12
1.0
 22
0.0
 32
0.0
 13
1.0
 23
0.0
 33
0.0
 40
0.0
 40
0.0
 40
0.0
 40
0.0
 40
0.1428571428571428
 40
0.1428571428571428
 40
0.1428571428571428
 40
0.1428571428571428
 40
0.2857142857142857
 40
0.2857142857142857
 40
0.2857142857142857
 40
0.2857142857142857
 40
0.4285714285714285
 40
0.4285714285714285
 40
0.4285714285714285
 40
0.4285714285714285
 40
0.5714285714285714
 40
0.5714285714285714
 40
0.5714285714285714
 40
0.5714285714285714
 40
0.7142857142857143
 40
0.7142857142857143
 40
0.7142857142857143
 40
0.7142857142857143
 40
1.0
 40
1.0
 40
1.0
 40
1.0
 10
-147.266
 20
106.5537
 30
0.0
 10
-139.888
 20
107.7758
 30
0.0
 10
-135.5485
 20
106.5671
 30
0.0
 10
-133.069
 20
104.5643
 30
0.0
 10
-133.069
 20
104.5643
 30
0.0
 10
-135.3066
 20
108.743
 30
0.0
 10
-132.7604
 20
110.7675
 30
0.0
 10
-130.9717
 20
111.1173
 30
0.0
 10
-130.9717
 20
111.1173
 30
0.0
 10
-128.8723
 20
111.5273
 30
0.0
 10
-125.8677
 20
110.0509
 30
0.0
 10
-127.2834
 20
106.1811
 30
0.0
 10
-127.2834
 20
106.1811
 30
0.0
 10
-124.7847
 20
107.1662
 30
0.0
 10
-123.1654
 20
109.8161
 30
0.0
 10
-122.9356
 20
111.7718
 30
0.0
 10
-122.9356
 20
111.7718
 30
0.0
 10
-122.2711
 20
117.4001
 30
0.0
 10
-128.2443
 20
121.4648
 30
0.0
 10
-134.5755
 20
118.5496
 30
0.0
 10
-134.5755
 20
118.5496
 30
0.0
 10
-139.3676
 20
115.9806
 30
0.0
 10
-141.3376
 20
110.3149
 30
0.0
 10
-147.266
 20
106.5537
 30
0.0
  0
SPLINE
  5
6A
330
1F
100
AcDbEntity
  8
layer 1
 62
     7
100
AcDbSpline
210
0.0
220
0.0
230
1.0
 70
    11
 71
     3
 72
    16
 73
    12
 74
     0
 42
0.0000000001
 43
0.0000000001
 12
1.0
 22
0.0
 32
0.0
 13
1.0
 23
0.0
 33
0.0
 40
0.0
 40
0.0
 40
0.0
 40
0.0
 40
0.25
 40
0.25
 40
0.25
 40
0.25
 40
0.5
 40
0.5
 40
0.5
 40
0.5
 40
1.0
 40
1.0
 40
1.0
 40
1.0
 10
-138.327
 20
119.457
 30
0.0
 10
-138.327
 20
119.457
 30
0.0
 10
-143.5085
 20
119.457
 30
0.0
 10
-143.5085
 20
119.457
 30
0.0
 10
-143.5085
 20
119.457
 30
0.0
 10
-143.3103
 20
118.6404
 30
0.0
 10
-143.0522
 20
117.4413
 30
0.0
 10
-143.5981
 20
116.0252
 30
0.0
 10
-143.5981
 20
116.0252
 30
0.0
 10
-142.2561
 20
116.7163
 30
0.0
 10
-140.8149
 20
117.2622
 30
0.0
 10
-138.327
 20
119.457
 30
0.0
  0
SPLINE
  5
6B
330
1F
100
AcDbEntity
  8
layer 1
 62
     7
100
AcDbSpline
210
0.0
220
0.0
230
1.0
 70
    11
 71
     3
 72
    56
 73
    52
 74
     0
 42
0.0000000001
 43
0.0000000001
 12
1.0
 22
0.0
 32
0.0
 13
1.0
 23
0.0
 33
0.0
 40
0.0
 40
0.0
 40
0.0
 40
0.0
 40
0.0714285714285714
 40
0.0714285714285714
 40
0.0714285714285714
 40
0.0714285714285714
 40
0.1428571428571428
 40
0.1428571428571428
 40
0.1428571428571428
 40
0.1428571428571428
 40
0.2142857142857143
 40
0.2142857142857143
 40
0.2142857142857143
 40
0.2142857142857143
 40
0.2857142857142857
 40
0.2857142857142857
 40
0.2857142857142857
 40
0.2857142857142857
 40
0.3571428571428572
 40
0.3571428571428572
 40
0.3571428571428572
 40
0.3571428571428572
 40
0.4285714285714285
 40
0.4285714285714285
 40
0.4285714285714285
 40
0.4285714285714285
 40
0.5
 40
0.5
 40
0.5
 40
0.5
 40
0.5714285714285714
 40
0.5714285714285714
 40
0.5714285714285714
 40
0.5714285714285714
 40
0.6428571428571429
 40
0.6428571428571429
 40
0.6428571428571429
 40
0.6428571428571429
 40
0.7142857142857143
 40
0.7142857142857143
 40
0.7142857142857143
 40
0.7142857142857143
 40
0.7857142857142857
 40
0.7857142857142857
 40
0.7857142857142857
 40
0.7857142857142857
 40
0.8571428571428571
 40
0.8571428571428571
 40
0.8571428571428571
 40
0.8571428571428571
 40
1.0
 40
1.0
 40
1.0
 40
1.0
 10
-158.1509
 20
94.0606
 30
0.0
 10
-153.8998
 20
94.6053
 30
0.0
 10
-149.6643
 20
93.0742
 30
0.0
 10
-149.0243
 20
89.358
 30
0.0
 10
-149.0243
 20
89.358
 30
0.0
 10
-146.2266
 20
96.4639
 30
0.0
 10
-137.2536
 20
95.4801
 30
0.0
 10
-136.2273
 20
88.6781
 30
0.0
 10
-136.2273
 20
88.6781
 30
0.0
 10
-135.1468
 20
82.5526
 30
0.0
 10
-143.8499
 20
81.6437
 30
0.0
 10
-143.6102
 20
87.5368
 30
0.0
 10
-143.6102
 20
87.5368
 30
0.0
 10
-148.9493
 20
84.4535
 30
0.0
 10
-148.9565
 20
75.846
 30
0.0
 10
-142.0287
 20
72.562
 30
0.0
 10
-142.0287
 20
72.562
 30
0.0
 10
-137.9918
 20
70.9027
 30
0.0
 10
-130.9584
 20
70.794
 30
0.0
 10
-128.9181
 20
74.0635
 30
0.0
 10
-128.9181
 20
74.0635
 30
0.0
 10
-131.2078
 20
73.5214
 30
0.0
 10
-136.5479
 20
74.1097
 30
0.0
 10
-136.2614
 20
79.0613
 30
0.0
 10
-136.2614
 20
79.0613
 30
0.0
 10
-135.5798
 20
82.9907
 30
0.0
 10
-130.6814
 20
82.1072
 30
0.0
 10
-131.3856
 20
78.1744
 30
0.0
 10
-131.3856
 20
78.1744
 30
0.0
 10
-131.0699
 20
76.8082
 30
0.0
 10
-128.0894
 20
76.7137
 30
0.0
 10
-127.0111
 20
76.9932
 30
0.0
 10
-127.0111
 20
76.9932
 30
0.0
 10
-125.3727
 20
78.8882
 30
0.0
 10
-123.2695
 20
84.2186
 30
0.0
 10
-124.3767
 20
87.6338
 30
0.0
 10
-124.3767
 20
87.6338
 30
0.0
 10
-125.8543
 20
84.847
 30
0.0
 10
-131.3144
 20
84.2648
 30
0.0
 10
-133.3584
 20
87.7995
 30
0.0
 10
-133.3584
 20
87.7995
 30
0.0
 10
-134.9519
 20
91.0173
 30
0.0
 10
-130.1006
 20
93.9857
 30
0.0
 10
-128.0882
 20
89.1366
 30
0.0
 10
-128.0882
 20
89.1366
 30
0.0
 10
-122.42
 20
94.2821
 30
0.0
 10
-132.2508
 20
102.9599
 30
0.0
 10
-139.2951
 20
102.5689
 30
0.0
 10
-139.2951
 20
102.5689
 30
0.0
 10
-147.4995
 20
102.5616
 30
0.0
 10
-154.0438
 20
99.9537
 30
0.0
 10
-158.1509
 20
94.0606
 30
0.0
  0
SPLINE
  5
6C
330
1F
100
AcDbEntity
  8
layer 1
 62
     7
100
AcDbSpline
210
0.0
220
0.0
230
1.0
 70
    11
 71
     3
 72
    12
 73
     8
 74
     0
 42
0.0000000001
 43
0.0000000001
 12
1.0
 22
0.0
 32
0.0
 13
1.0
 23
0.0
 33
0.0
 40
0.0
 40
0.0
 40
0.0
 40
0.0
 40
0.3333333333333333
 40
0.3333333333333333
 40
0.3333333333333333
 40
0.3333333333333333
 40
1.0
 40
1.0
 40
1.0
 40
1.0
 10
-118.3649
 20
73.2599
 30
0.0
 10
-113.6781
 20
69.5608
 30
0.0
 10
-113.2547
 20
58.4059
 30
0.0
 10
-118.3649
 20
53.3272
 30
0.0
 10
-118.3649
 20
53.3272
 30
0.0
 10
-123.4752
 20
58.4059
 30
0.0
 10
-123.0517
 20
69.5608
 30
0.0
 10
-118.3649
 20
73.2599
 30
0.0
  0
SPLINE
  5
6D
330
1F
100
AcDbEntity
  8
layer 1
 62
     7
100
AcDbSpline
210
0.0
220
0.0
230
1.0
 70
    11
 71
     3
 72
    28
 73
    24
 74
     0
 42
0.0000000001
 43
0.0000000001
 12
1.0
 22
0.0
 32
0.0
 13
1.0
 23
0.0
 33
0.0
 40
0.0
 40
0.0
 40
0.0
 40
0.0
 40
0.1428571428571428
 40
0.1428571428571428
 40
0.1428571428571428
 40
0.1428571428571428
 40
0.2857142857142857
 40
0.2857142857142857
 40
0.2857142857142857
 40
0.2857142857142857
 40
0.4285714285714285
 40
0.4285714285714285
 40
0.4285714285714285
 40
0.4285714285714285
 40
0.5714285714285714
 40
0.5714285714285714
 40
0.5714285714285714
 40
0.5714285714285714
 40
0.7142857142857143
 40
0.7142857142857143
 40
0.7142857142857143
 40
0.7142857142857143
 40
1.0
 40
1.0
 40
1.0
 40
1.0
 10
-145.5949
 20
69.8027
 30
0.0
 10
-154.7746
 20
75.8872
 30
0.0
 10
-155.2247
 20
64.2835
 30
0.0
 10
-150.8877
 20
66.216
 30
0.0
 10
-150.8877
 20
66.216
 30
0.0
 10
-147.8165
 20
69.0211
 30
0.0
 10
-143.563
 20
65.0313
 30
0.0
 10
-147.0457
 20
59.5531
 30
0.0
 10
-147.0457
 20
59.5531
 30
0.0
 10
-144.9475
 20
59.9635
 30
0.0
 10
-142.6483
 20
59.0063
 30
0.0
 10
-141.3534
 20
55.3589
 30
0.0
 10
-141.3534
 20
55.3589
 30
0.0
 10
-138.8546
 20
58.906
 30
0.0
 10
-135.8862
 20
59.7975
 30
0.0
 10
-130.8047
 20
60.8384
 30
0.0
 10
-130.8047
 20
60.8384
 30
0.0
 10
-124.758
 20
62.1234
 30
0.0
 10
-123.6409
 20
68.1558
 30
0.0
 10
-123.6605
 20
73.3339
 30
0.0
 10
-123.6605
 20
73.3339
 30
0.0
 10
-128.2311
 20
68.6846
 30
0.0
 10
-137.7737
 20
65.3957
 30
0.0
 10
-145.5949
 20
69.8027
 30
0.0
  0
SPLINE
  5
6E
330
1F
100
AcDbEntity
  8
layer 1
 62
     7
100
AcDbSpline
210
0.0
220
0.0
230
1.0
 70
    11
 71
     3
 72
    52
 73
    48
 74
     0
 42
0.0000000001
 43
0.0000000001
 12
1.0
 22
0.0
 32
0.0
 13
1.0
 23
0.0
 33
0.0
 40
0.0
 40
0.0
 40
0.0
 40
0.0
 40
0.0769230769230769
 40
0.0769230769230769
 40
0.0769230769230769
 40
0.0769230769230769
 40
0.1538461538461539
 40
0.1538461538461539
 40
0.1538461538461539
 40
0.1538461538461539
 40
0.2307692307692308
 40
0.2307692307692308
 40
0.2307692307692308
 40
0.2307692307692308
 40
0.3076923076923077
 40
0.3076923076923077
 40
0.3076923076923077
 40
0.3076923076923077
 40
0.3846153846153846
 40
0.3846153846153846
 40
0.3846153846153846
 40
0.3846153846153846
 40
0.4615384615384616
 40
0.4615384615384616
 40
0.4615384615384616
 40
0.4615384615384616
 40
0.5384615384615384
 40
0.5384615384615384
 40
0.5384615384615384
 40
0.5384615384615384
 40
0.6153846153846154
 40
0.6153846153846154
 40
0.6153846153846154
 40
0.6153846153846154
 40
0.6923076923076923
 40
0.6923076923076923
 40
0.6923076923076923
 40
0.6923076923076923
 40
0.7692307692307693
 40
0.7692307692307693
 40
0.7692307692307693
 40
0.7692307692307693
 40
0.8461538461538461
 40
0.8461538461538461
 40
0.8461538461538461
 40
0.8461538461538461
 40
1.0
 40
1.0
 40
1.0
 40
1.0
 10
-150.1944
 20
58.4242
 30
0.0
 10
-154.2457
 20
58.2618
 30
0.0
 10
-157.1354
 20
60.9317
 30
0.0
 10
-157.6547
 20
65.1801
 30
0.0
 10
-157.6547
 20
65.1801
 30
0.0
 10
-158.1243
 20
69.0236
 30
0.0
 10
-156.0633
 20
74.9421
 30
0.0
 10
-148.6142
 20
73.6146
 30
0.0
 10
-148.6142
 20
73.6146
 30
0.0
 10
-152.1476
 20
77.8052
 30
0.0
 10
-150.9763
 20
83.679
 30
0.0
 10
-150.3868
 20
86.3438
 30
0.0
 10
-150.3868
 20
86.3438
 30
0.0
 10
-150.6736
 20
87.6083
 30
0.0
 10
-151.4614
 20
88.6526
 30
0.0
 10
-152.519
 20
89.3992
 30
0.0
 10
-152.519
 20
89.3992
 30
0.0
 10
-155.5202
 20
91.5182
 30
0.0
 10
-160.6993
 20
91.2363
 30
0.0
 10
-162.8182
 20
86.7577
 30
0.0
 10
-162.8182
 20
86.7577
 30
0.0
 10
-155.7801
 20
87.3131
 30
0.0
 10
-156.5608
 20
79.6822
 30
0.0
 10
-158.5673
 20
79.5985
 30
0.0
 10
-158.5673
 20
79.5985
 30
0.0
 10
-159.5608
 20
85.3357
 30
0.0
 10
-166.1171
 20
82.1109
 30
0.0
 10
-167.3417
 20
80.1431
 30
0.0
 10
-167.3417
 20
80.1431
 30
0.0
 10
-170.9176
 20
75.8872
 30
0.0
 10
-173.0074
 20
66.3842
 30
0.0
 10
-166.1314
 20
55.3904
 30
0.0
 10
-166.1314
 20
55.3904
 30
0.0
 10
-157.3328
 20
39.6179
 30
0.0
 10
-144.5166
 20
33.0954
 30
0.0
 10
-140.6963
 20
31.4581
 30
0.0
 10
-140.6963
 20
31.4581
 30
0.0
 10
-144.2784
 20
37.6855
 30
0.0
 10
-144.248
 20
47.5962
 30
0.0
 10
-142.8781
 20
51.7288
 30
0.0
 10
-142.8781
 20
51.7288
 30
0.0
 10
-142.6541
 20
56.4152
 30
0.0
 10
-149.4744
 20
56.2629
 30
0.0
 10
-149.4415
 20
50.7207
 30
0.0
 10
-149.4415
 20
50.7207
 30
0.0
 10
-152.9304
 20
52.3604
 30
0.0
 10
-152.3715
 20
57.0073
 30
0.0
 10
-150.1944
 20
58.4242
 30
0.0
  0
SPLINE
  5
6F
330
1F
100
AcDbEntity
  8
layer 1
 62
     7
100
AcDbSpline
210
0.0
220
0.0
230
1.0
 70
    11
 71
     3
 72
    32
 73
    28
 74
     0
 42
0.0000000001
 43
0.0000000001
 12
1.0
 22
0.0
 32
0.0
 13
1.0
 23
0.0
 33
0.0
 40
0.0
 40
0.0
 40
0.0
 40
0.0
 40
0.125
 40
0.125
 40
0.125
 40
0.125
 40
0.25
 40
0.25
 40
0.25
 40
0.25
 40
0.375
 40
0.375
 40
0.375
 40
0.375
 40
0.5
 40
0.5
 40
0.5
 40
0.5
 40
0.625
 40
0.625
 40
0.625
 40
0.625
 40
0.75
 40
0.75
 40
0.75
 40
0.75
 40
1.0
 40
1.0
 40
1.0
 40
1.0
 10
-152.7913
 20
21.5436
 30
0.0
 10
-158.8867
 20
19.553
 30
0.0
 10
-158.8855
 20
28.5406
 30
0.0
 10
-153.0032
 20
26.8537
 30
0.0
 10
-153.0032
 20
26.8537
 30
0.0
 10
-153.9434
 20
34.1409
 30
0.0
 10
-162.787
 20
33.8227
 30
0.0
 10
-165.9332
 20
30.196
 30
0.0
 10
-165.9332
 20
30.196
 30
0.0
 10
-168.3111
 20
27.455
 30
0.0
 10
-167.2098
 20
19.8436
 30
0.0
 10
-162.8533
 20
21.8256
 30
0.0
 10
-162.8533
 20
21.8256
 30
0.0
 10
-164.4205
 20
25.4885
 30
0.0
 10
-159.5571
 20
26.2959
 30
0.0
 10
-159.2265
 20
22.8699
 30
0.0
 10
-159.2265
 20
22.8699
 30
0.0
 10
-159.0029
 20
19.565
 30
0.0
 10
-162.0862
 20
18.2776
 30
0.0
 10
-163.2915
 20
18.4083
 30
0.0
 10
-163.2915
 20
18.4083
 30
0.0
 10
-161.1168
 20
15.8538
 30
0.0
 10
-161.7243
 20
13.4117
 30
0.0
 10
-162.1224
 20
12.2064
 30
0.0
 10
-162.1224
 20
12.2064
 30
0.0
 10
-155.2272
 20
14.2445
 30
0.0
 10
-152.95
 20
19.1174
 30
0.0
 10
-152.7913
 20
21.5436
 30
0.0
  0
SPLINE
  5
70
330
1F
100
AcDbEntity
  8
layer 1
 62
     7
100
AcDbSpline
210
0.0
220
0.0
230
1.0
 70
    11
 71
     3
 72
    28
 73
    24
 74
     0
 42
0.0000000001
 43
0.0000000001
 12
1.0
 22
0.0
 32
0.0
 13
1.0
 23
0.0
 33
0.0
 40
0.0
 40
0.0
 40
0.0
 40
0.0
 40
0.1428571428571428
 40
0.1428571428571428
 40
0.1428571428571428
 40
0.1428571428571428
 40
0.2857142857142857
 40
0.2857142857142857
 40
0.2857142857142857
 40
0.2857142857142857
 40
0.4285714285714285
 40
0.4285714285714285
 40
0.4285714285714285
 40
0.4285714285714285
 40
0.5714285714285714
 40
0.5714285714285714
 40
0.5714285714285714
 40
0.5714285714285714
 40
0.7142857142857143
 40
0.7142857142857143
 40
0.7142857142857143
 40
0.7142857142857143
 40
1.0
 40
1.0
 40
1.0
 40
1.0
 10
-126.2487
 20
1.019
 30
0.0
 10
-134.8998
 20
-3.6932
 30
0.0
 10
-137.0417
 20
7.7678
 30
0.0
 10
-132.643
 20
8.471
 30
0.0
 10
-132.643
 20
8.471
 30
0.0
 10
-133.5009
 20
4.2996
 30
0.0
 10
-128.0012
 20
3.4877
 30
0.0
 10
-127.0257
 20
8.4335
 30
0.0
 10
-127.0257
 20
8.4335
 30
0.0
 10
-125.3689
 20
13.6345
 30
0.0
 10
-138.3404
 20
24.5362
 30
0.0
 10
-150.9834
 20
31.7729
 30
0.0
 10
-150.9834
 20
31.7729
 30
0.0
 10
-147.2976
 20
25.583
 30
0.0
 10
-148.568
 20
19.8448
 30
0.0
 10
-150.8443
 20
16.9247
 30
0.0
 10
-150.8443
 20
16.9247
 30
0.0
 10
-146.5265
 20
15.9359
 30
0.0
 10
-136.0058
 20
12.5877
 30
0.0
 10
-137.3927
 20
-1.4773
 30
0.0
 10
-137.3927
 20
-1.4773
 30
0.0
 10
-135.5268
 20
-6.3639
 30
0.0
 10
-127.1493
 20
-5.5299
 30
0.0
 10
-126.2487
 20
1.019
 30
0.0
  0
SPLINE
  5
71
330
1F
100
AcDbEntity
  8
layer 1
 62
     7
100
AcDbSpline
210
0.0
220
0.0
230
1.0
 70
    11
 71
     3
 72
    44
 73
    40
 74
     0
 42
0.0000000001
 43
0.0000000001
 12
1.0
 22
0.0
 32
0.0
 13
1.0
 23
0.0
 33
0.0
 40
0.0
 40
0.0
 40
0.0
 40
0.0
 40
0.0909090909090909
 40
0.0909090909090909
 40
0.0909090909090909
 40
0.0909090909090909
 40
0.1818181818181818
 40
0.1818181818181818
 40
0.1818181818181818
 40
0.1818181818181818
 40
0.2727272727272727
 40
0.2727272727272727
 40
0.2727272727272727
 40
0.2727272727272727
 40
0.3636363636363636
 40
0.3636363636363636
 40
0.3636363636363636
 40
0.3636363636363636
 40
0.4545454545454545
 40
0.4545454545454545
 40
0.4545454545454545
 40
0.4545454545454545
 40
0.5454545454545454
 40
0.5454545454545454
 40
0.5454545454545454
 40
0.5454545454545454
 40
0.6363636363636364
 40
0.6363636363636364
 40
0.6363636363636364
 40
0.6363636363636364
 40
0.7272727272727273
 40
0.7272727272727273
 40
0.7272727272727273
 40
0.7272727272727273
 40
0.8181818181818182
 40
0.8181818181818182
 40
0.8181818181818182
 40
0.8181818181818182
 40
1.0
 40
1.0
 40
1.0
 40
1.0
 10
-143.3949
 20
-20.1664
 30
0.0
 10
-136.2189
 20
-21.9923
 30
0.0
 10
-125.7478
 20
-11.1098
 30
0.0
 10
-126.7075
 20
-9.2523
 30
0.0
 10
-126.7075
 20
-9.2523
 30
0.0
 10
-130.2858
 20
-11.5274
 30
0.0
 10
-138.2229
 20
-9.7012
 30
0.0
 10
-138.4007
 20
-4.2607
 30
0.0
 10
-138.4007
 20
-4.2607
 30
0.0
 10
-140.4965
 20
-7.8824
 30
0.0
 10
-145.7158
 20
-6.9363
 30
0.0
 10
-146.8096
 20
-4.5947
 30
0.0
 10
-146.8096
 20
-4.5947
 30
0.0
 10
-149.3861
 20
0.9174
 30
0.0
 10
-144.2322
 20
2.8985
 30
0.0
 10
-141.5033
 20
2.7569
 30
0.0
 10
-141.5033
 20
2.7569
 30
0.0
 10
-142.1872
 20
13.7953
 30
0.0
 10
-159.6138
 20
15.5574
 30
0.0
 10
-163.6218
 20
4.4775
 30
0.0
 10
-163.6218
 20
4.4775
 30
0.0
 10
-161.2863
 20
6.7247
 30
0.0
 10
-157.8978
 20
6.536
 30
0.0
 10
-156.6528
 20
2.5438
 30
0.0
 10
-156.6528
 20
2.5438
 30
0.0
 10
-172.7522
 20
1.918
 30
0.0
 10
-164.8901
 20
-20.4121
 30
0.0
 10
-150.1327
 20
-21.2191
 30
0.0
 10
-150.1327
 20
-21.2191
 30
0.0
 10
-153.2464
 20
-18.2265
 30
0.0
 10
-153.5113
 20
-12.4277
 30
0.0
 10
-150.5212
 20
-9.5441
 30
0.0
 10
-150.5212
 20
-9.5441
 30
0.0
 10
-147.6036
 20
-6.849
 30
0.0
 10
-142.9618
 20
-11.8093
 30
0.0
 10
-147.2019
 20
-14.5841
 30
0.0
 10
-147.2019
 20
-14.5841
 30
0.0
 10
-148.3852
 20
-18.4818
 30
0.0
 10
-145.9435
 20
-19.2963
 30
0.0
 10
-143.3949
 20
-20.1664
 30
0.0
  0
SPLINE
  5
72
330
1F
100
AcDbEntity
  8
layer 1
 62
     7
100
AcDbSpline
210
0.0
220
0.0
230
1.0
 70
    11
 71
     3
 72
    48
 73
    44
 74
     0
 42
0.0000000001
 43
0.0000000001
 12
1.0
 22
0.0
 32
0.0
 13
1.0
 23
0.0
 33
0.0
 40
0.0
 40
0.0
 40
0.0
 40
0.0
 40
0.0833333333333333
 40
0.0833333333333333
 40
0.0833333333333333
 40
0.0833333333333333
 40
0.1666666666666667
 40
0.1666666666666667
 40
0.1666666666666667
 40
0.1666666666666667
 40
0.25
 40
0.25
 40
0.25
 40
0.25
 40
0.3333333333333333
 40
0.3333333333333333
 40
0.3333333333333333
 40
0.3333333333333333
 40
0.4166666666666667
 40
0.4166666666666667
 40
0.4166666666666667
 40
0.4166666666666667
 40
0.5
 40
0.5
 40
0.5
 40
0.5
 40
0.5833333333333334
 40
0.5833333333333334
 40
0.5833333333333334
 40
0.5833333333333334
 40
0.6666666666666666
 40
0.6666666666666666
 40
0.6666666666666666
 40
0.6666666666666666
 40
0.75
 40
0.75
 40
0.75
 40
0.75
 40
0.8333333333333334
 40
0.8333333333333334
 40
0.8333333333333334
 40
0.8333333333333334
 40
1.0
 40
1.0
 40
1.0
 40
1.0
 10
-169.6747
 20
-31.5824
 30
0.0
 10
-173.2361
 20
-34.6633
 30
0.0
 10
-168.6596
 20
-38.1958
 30
0.0
 10
-163.7513
 20
-39.0573
 30
0.0
 10
-163.7513
 20
-39.0573
 30
0.0
 10
-159.948
 20
-39.7252
 30
0.0
 10
-156.3055
 20
-39.0403
 30
0.0
 10
-153.8077
 20
-36.412
 30
0.0
 10
-153.8077
 20
-36.412
 30
0.0
 10
-159.4434
 20
-34.5678
 30
0.0
 10
-160.8508
 20
-26.725
 30
0.0
 10
-155.5335
 20
-24.1209
 30
0.0
 10
-155.5335
 20
-24.1209
 30
0.0
 10
-160.651
 20
-22.93
 30
0.0
 10
-164.4554
 20
-20.211
 30
0.0
 10
-166.8733
 20
-17.9313
 30
0.0
 10
-166.8733
 20
-17.9313
 30
0.0
 10
-172.1326
 20
-13.7551
 30
0.0
 10
-173.4709
 20
2.4409
 30
0.0
 10
-169.6856
 20
7.5803
 30
0.0
 10
-169.6856
 20
7.5803
 30
0.0
 10
-164.1881
 20
13.1082
 30
0.0
 10
-164.896
 20
16.408
 30
0.0
 10
-167.9892
 20
18.2064
 30
0.0
 10
-167.9892
 20
18.2064
 30
0.0
 10
-173.6245
 20
20.198
 30
0.0
 10
-175.9879
 20
11.2033
 30
0.0
 10
-170.5991
 20
11.1936
 30
0.0
 10
-170.5991
 20
11.1936
 30
0.0
 10
-171.1233
 20
9.0964
 30
0.0
 10
-172.7256
 20
7.7593
 30
0.0
 10
-175.039
 20
8.6983
 30
0.0
 10
-175.039
 20
8.6983
 30
0.0
 10
-175.039
 20
8.6983
 30
0.0
 10
-175.039
 20
-27.9861
 30
0.0
 10
-175.039
 20
-27.9861
 30
0.0
 10
-175.039
 20
-27.9861
 30
0.0
 10
-172.9845
 20
-24.4526
 30
0.0
 10
-167.1407
 20
-21.6026
 30
0.0
 10
-163.5515
 20
-26.7832
 30
0.0
 10
-163.5515
 20
-26.7832
 30
0.0
 10
-161.2318
 20
-29.5821
 30
0.0
 10
-165.4176
 20
-35.7429
 30
0.0
 10
-169.6747
 20
-31.5824
 30
0.0
  0
SPLINE
  5
73
330
1F
100
AcDbEntity
  8
layer 1
 62
     7
100
AcDbSpline
210
0.0
220
0.0
230
1.0
 70
    11
 71
     3
 72
    40
 73
    36
 74
     0
 42
0.0000000001
 43
0.0000000001
 12
1.0
 22
0.0
 32
0.0
 13
1.0
 23
0.0
 33
0.0
 40
0.0
 40
0.0
 40
0.0
 40
0.0
 40
0.1
 40
0.1
 40
0.1
 40
0.1
 40
0.2
 40
0.2
 40
0.2
 40
0.2
 40
0.3
 40
0.3
 40
0.3
 40
0.3
 40
0.4
 40
0.4
 40
0.4
 40
0.4
 40
0.5
 40
0.5
 40
0.5
 40
0.5
 40
0.6
 40
0.6
 40
0.6
 40
0.6
 40
0.7
 40
0.7
 40
0.7
 40
0.7
 40
0.8
 40
0.8
 40
0.8
 40
0.8
 40
1.0
 40
1.0
 40
1.0
 40
1.0
 10
-159.5608
 20
-74.2848
 30
0.0
 10
-159.6841
 20
-75.9899
 30
0.0
 10
-162.5871
 20
-78.7017
 30
0.0
 10
-165.0013
 20
-79.211
 30
0.0
 10
-165.0013
 20
-79.211
 30
0.0
 10
-164.6153
 20
-87.0102
 30
0.0
 10
-149.2845
 20
-92.3021
 30
0.0
 10
-144.0748
 20
-81.4245
 30
0.0
 10
-144.0748
 20
-81.4245
 30
0.0
 10
-143.2229
 20
-81.9012
 30
0.0
 10
-141.1185
 20
-84.9254
 30
0.0
 10
-143.5776
 20
-87.2825
 30
0.0
 10
-143.5776
 20
-87.2825
 30
0.0
 10
-142.8032
 20
-88.1394
 30
0.0
 10
-136.6969
 20
-90.6103
 30
0.0
 10
-132.2861
 20
-87.0865
 30
0.0
 10
-132.2861
 20
-87.0865
 30
0.0
 10
-127.9479
 20
-82.2944
 30
0.0
 10
-134.3905
 20
-77.4952
 30
0.0
 10
-137.7316
 20
-82.6308
 30
0.0
 10
-137.7316
 20
-82.6308
 30
0.0
 10
-139.1073
 20
-81.7463
 30
0.0
 10
-139.6957
 20
-79.6928
 30
0.0
 10
-138.7904
 20
-78.2962
 30
0.0
 10
-138.7904
 20
-78.2962
 30
0.0
 10
-144.2613
 20
-79.1482
 30
0.0
 10
-150.3783
 20
-73.0444
 30
0.0
 10
-148.2291
 20
-65.6108
 30
0.0
 10
-148.2291
 20
-65.6108
 30
0.0
 10
-155.0735
 20
-70.4208
 30
0.0
 10
-167.6503
 20
-64.7213
 30
0.0
 10
-162.0233
 20
-50.24
 30
0.0
 10
-162.0233
 20
-50.24
 30
0.0
 10
-170.1103
 20
-55.0863
 30
0.0
 10
-171.0084
 20
-71.0295
 30
0.0
 10
-159.5608
 20
-74.2848
 30
0.0
  0
SPLINE
  5
74
330
1F
100
AcDbEntity
  8
layer 1
 62
     7
100
AcDbSpline
210
0.0
220
0.0
230
1.0
 70
    11
 71
     3
 72
    20
 73
    16
 74
     0
 42
0.0000000001
 43
0.0000000001
 12
1.0
 22
0.0
 32
0.0
 13
1.0
 23
0.0
 33
0.0
 40
0.0
 40
0.0
 40
0.0
 40
0.0
 40
0.2
 40
0.2
 40
0.2
 40
0.2
 40
0.4
 40
0.4
 40
0.4
 40
0.4
 40
0.6
 40
0.6
 40
0.6
 40
0.6
 40
1.0
 40
1.0
 40
1.0
 40
1.0
 10
-150.6532
 20
-32.8349
 30
0.0
 10
-156.7132
 20
-33.8755
 30
0.0
 10
-155.2042
 20
-24.2624
 30
0.0
 10
-150.0103
 20
-27.5527
 30
0.0
 10
-150.0103
 20
-27.5527
 30
0.0
 10
-148.7604
 20
-26.6974
 30
0.0
 10
-149.1089
 20
-24.7247
 30
0.0
 10
-150.4509
 20
-24.1172
 30
0.0
 10
-150.4509
 20
-24.1172
 30
0.0
 10
-146.4794
 20
-24.8857
 30
0.0
 10
-140.7288
 20
-24.3944
 30
0.0
 10
-137.6443
 20
-22.8467
 30
0.0
 10
-137.6443
 20
-22.8467
 30
0.0
 10
-141.7539
 20
-27.6943
 30
0.0
 10
-147.3942
 20
-31.7144
 30
0.0
 10
-150.6532
 20
-32.8349
 30
0.0
  0
SPLINE
  5
75
330
1F
100
AcDbEntity
  8
layer 1
 62
     7
100
AcDbSpline
210
0.0
220
0.0
230
1.0
 70
    11
 71
     3
 72
    40
 73
    36
 74
     0
 42
0.0000000001
 43
0.0000000001
 12
1.0
 22
0.0
 32
0.0
 13
1.0
 23
0.0
 33
0.0
 40
0.0
 40
0.0
 40
0.0
 40
0.0
 40
0.1
 40
0.1
 40
0.1
 40
0.1
 40
0.2
 40
0.2
 40
0.2
 40
0.2
 40
0.3
 40
0.3
 40
0.3
 40
0.3
 40
0.4
 40
0.4
 40
0.4
 40
0.4
 40
0.5
 40
0.5
 40
0.5
 40
0.5
 40
0.6
 40
0.6
 40
0.6
 40
0.6
 40
0.7
 40
0.7
 40
0.7
 40
0.7
 40
0.8
 40
0.8
 40
0.8
 40
0.8
 40
1.0
 40
1.0
 40
1.0
 40
1.0
 10
-159.0816
 20
-51.2468
 30
0.0
 10
-162.3972
 20
-63.3431
 30
0.0
 10
-151.9128
 20
-64.3766
 30
0.0
 10
-149.5131
 20
-60.2728
 30
0.0
 10
-149.5131
 20
-60.2728
 30
0.0
 10
-155.6956
 20
-61.1793
 30
0.0
 10
-156.2511
 20
-51.1331
 30
0.0
 10
-149.7479
 20
-51.4912
 30
0.0
 10
-149.7479
 20
-51.4912
 30
0.0
 10
-145.1399
 20
-51.744
 30
0.0
 10
-145.0732
 20
-57.4039
 30
0.0
 10
-145.3239
 20
-58.5086
 30
0.0
 10
-145.3239
 20
-58.5086
 30
0.0
 10
-142.2889
 20
-54.3193
 30
0.0
 10
-138.9779
 20
-54.7087
 30
0.0
 10
-133.5133
 20
-54.9327
 30
0.0
 10
-133.5133
 20
-54.9327
 30
0.0
 10
-127.3671
 20
-55.1846
 30
0.0
 10
-123.446
 20
-53.328
 30
0.0
 10
-124.6431
 20
-48.2918
 30
0.0
 10
-124.6431
 20
-48.2918
 30
0.0
 10
-124.9975
 20
-47.1276
 30
0.0
 10
-126.543
 20
-46.8903
 30
0.0
 10
-127.0827
 20
-48.1935
 30
0.0
 10
-127.0827
 20
-48.1935
 30
0.0
 10
-129.947
 20
-53.6294
 30
0.0
 10
-136.243
 20
-49.0455
 30
0.0
 10
-137.7145
 20
-45.7382
 30
0.0
 10
-137.7145
 20
-45.7382
 30
0.0
 10
-139.8639
 20
-40.4538
 30
0.0
 10
-140.6005
 20
-35.7054
 30
0.0
 10
-139.5804
 20
-29.0121
 30
0.0
 10
-139.5804
 20
-29.0121
 30
0.0
 10
-146.397
 20
-32.1329
 30
0.0
 10
-156.9347
 20
-41.9833
 30
0.0
 10
-159.0816
 20
-51.2468
 30
0.0
  0
ENDSEC
  0
SECTION
  2
OBJECTS
  0
DICTIONARY
  5
C
330
0
100
AcDbDictionary
281
     1
  3
ACAD_GROUP
350
D
  3
ACAD_LAYOUT
350
1A
  3
ACAD_MATERIAL
350
3B
  3
ACAD_MLEADERSTYLE
350
98
  3
ACAD_MLINESTYLE
350
17
  3
ACAD_PLOTSETTINGS
350
19
  3
ACAD_PLOTSTYLENAME
350
E
  3
ACAD_TABLESTYLE
350
97
  3
ACAD_VISUALSTYLE
350
2A
  0
DICTIONARY
  5
D
102
{ACAD_REACTORS
330
C
102
}
330
C
100
AcDbDictionary
281
     1
  0
DICTIONARY
  5
1A
102
{ACAD_REACTORS
330
C
102
}
330
C
100
AcDbDictionary
281
     1
  3
Layout1
350
1E
  3
Layout2
350
26
  3
Model
350
22
  0
DICTIONARY
  5
3B
102
{ACAD_REACTORS
330
C
102
}
330
C
100
AcDbDictionary
281
     1
  3
ByBlock
350
3D
  3
ByLayer
350
3C
  3
Global
350
3E
  0
DICTIONARY
  5
98
102
{ACAD_REACTORS
330
C
102
}
330
C
100
AcDbDictionary
281
     1
  0
DICTIONARY
  5
17
102
{ACAD_REACTORS
330
C
102
}
330
C
100
AcDbDictionary
281
     1
  3
Standard
350
18
  0
DICTIONARY
  5
19
102
{ACAD_REACTORS
330
C
102
}
330
C
100
AcDbDictionary
281
     1
  0
ACDBDICTIONARYWDFLT
  5
E
102
{ACAD_REACTORS
330
C
102
}
330
C
100
AcDbDictionary
281
     1
  3
Normal
350
F
100
AcDbDictionaryWithDefault
340
F
  0
DICTIONARY
  5
97
102
{ACAD_REACTORS
330
C
102
}
330
C
100
AcDbDictionary
281
     1
  0
DICTIONARY
  5
2A
102
{ACAD_REACTORS
330
C
102
}
330
C
100
AcDbDictionary
281
     1
  3
2dWireframe
350
2F
  3
3D Hidden
350
31
  3
3dWireframe
350
30
  3
Basic
350
32
  3
Brighten
350
36
  3
ColorChange
350
3A
  3
Conceptual
350
34
  3
Dim
350
35
  3
Facepattern
350
39
  3
Flat
350
2B
  3
FlatWithEdges
350
2C
  3
Gouraud
350
2D
  3
GouraudWithEdges
350
2E
  3
Linepattern
350
38
  3
Realistic
350
33
  3
Thicken
350
37
  0
LAYOUT
  5
1E
102
{ACAD_REACTORS
330
1A
102
}
330
1A
100
AcDbPlotSettings
  1

  2
none_device
  4

  6

 40
0.0
 41
0.0
 42
0.0
 43
0.0
 44
0.0
 45
0.0
 46
0.0
 47
0.0
 48
0.0
 49
0.0
140
0.0
141
0.0
142
1.0
143
1.0
 70
   688
 72
     0
 73
     0
 74
     5
  7

 75
    16
 76
     0
 77
     2
 78
   300
147
1.0
148
0.0
149
0.0
100
AcDbLayout
  1
Layout1
 70
     1
 71
     1
 10
0.0
 20
0.0
 11
12.0
 21
9.0
 12
0.0
 22
0.0
 32
0.0
 14
1.000000000000000E+20
 24
1.000000000000000E+20
 34
1.000000000000000E+20
 15
-1.000000000000000E+20
 25
-1.000000000000000E+20
 35
-1.000000000000000E+20
146
0.0
 13
0.0
 23
0.0
 33
0.0
 16
1.0
 26
0.0
 36
0.0
 17
0.0
 27
1.0
 37
0.0
 76
     0
330
1B
  0
LAYOUT
  5
26
102
{ACAD_REACTORS
330
1A
102
}
330
1A
100
AcDbPlotSettings
  1

  2
none_device
  4

  6

 40
0.0
 41
0.0
 42
0.0
 43
0.0
 44
0.0
 45
0.0
 46
0.0
 47
0.0
 48
0.0
 49
0.0
140
0.0
141
0.0
142
1.0
143
1.0
 70
   688
 72
     0
 73
     0
 74
     5
  7

 75
    16
 76
     0
 77
     2
 78
   300
147
1.0
148
0.0
149
0.0
100
AcDbLayout
  1
Layout2
 70
     1
 71
     2
 10
0.0
 20
0.0
 11
0.0
 21
0.0
 12
0.0
 22
0.0
 32
0.0
 14
0.0
 24
0.0
 34
0.0
 15
0.0
 25
0.0
 35
0.0
146
0.0
 13
0.0
 23
0.0
 33
0.0
 16
1.0
 26
0.0
 36
0.0
 17
0.0
 27
1.0
 37
0.0
 76
     0
330
23
  0
LAYOUT
  5
22
102
{ACAD_REACTORS
330
1A
102
}
330
1A
100
AcDbPlotSettings
  1

  2
none_device
  4

  6

 40
0.0
 41
0.0
 42
0.0
 43
0.0
 44
0.0
 45
0.0
 46
0.0
 47
0.0
 48
0.0
 49
0.0
140
0.0
141
0.0
142
1.0
143
1.0
 70
  1712
 72
     0
 73
     0
 74
     0
  7

 75
     0
 76
     0
 77
     2
 78
   300
147
1.0
148
0.0
149
0.0
100
AcDbLayout
  1
Model
 70
     1
 71
     0
 10
0.0
 20
0.0
 11
12.0
 21
9.0
 12
0.0
 22
0.0
 32
0.0
 14
-187.4392
 24
-114.7096
 34
0.0
 15
-48.6144
 25
131.7265
 35
0.0
146
0.0
 13
0.0
 23
0.0
 33
0.0
 16
1.0
 26
0.0
 36
0.0
 17
0.0
 27
1.0
 37
0.0
 76
     0
330
1F
331
29
  0
MATERIAL
  5
3D
102
{ACAD_REACTORS
330
3B
102
}
330
3B
100
AcDbMaterial
  1
ByBlock
 72
     1
 94
      127
  0
MATERIAL
  5
3C
102
{ACAD_REACTORS
330
3B
102
}
330
3B
100
AcDbMaterial
  1
ByLayer
 72
     1
 94
      127
  0
MATERIAL
  5
3E
102
{ACAD_REACTORS
330
3B
102
}
330
3B
100
AcDbMaterial
  1
Global
 72
     1
 94
      127
  0
MLINESTYLE
  5
18
102
{ACAD_REACTORS
330
17
102
}
330
17
100
AcDbMlineStyle
  2
Standard
 70
     0
  3

 62
   256
 51
90.0
 52
90.0
 71
     2
 49
0.5
 62
   256
  6
BYLAYER
 49
-0.5
 62
   256
  6
BYLAYER
  0
ACDBPLACEHOLDER
  5
F
102
{ACAD_REACTORS
330
E
102
}
330
E
  0
VISUALSTYLE
  5
2F
102
{ACAD_REACTORS
330
2A
102
}
102
{ACAD_XDICTIONARY
360
7F
102
}
330
2A
100
AcDbVisualStyle
  2
2dWireframe
 70
     4
 71
     0
 72
     2
 73
     0
 90
        0
 40
-0.6
 41
-30.0
 62
     5
 63
     7
421
 16777215
 74
     1
 91
        4
 64
     7
 65
   257
 75
     1
175
     1
 42
1.0
 92
        0
 66
   257
 43
1.0
 76
     1
 77
     6
 78
     2
 67
     7
 79
     5
170
     0
171
     0
290
     0
174
     0
 93
        1
 44
0.0
173
     0
291
     0
 45
0.0
  0
VISUALSTYLE
  5
31
102
{ACAD_REACTORS
330
2A
102
}
102
{ACAD_XDICTIONARY
360
83
102
}
330
2A
100
AcDbVisualStyle
  2
3D Hidden
 70
     6
 71
     1
 72
     2
 73
     2
 90
        0
 40
-0.6
 41
-30.0
 62
     5
 63
     7
421
 16777215
 74
     2
 91
        2
 64
     7
 65
   257
 75
     2
175
     1
 42
40.0
 92
        0
 66
   257
 43
1.0
 76
     1
 77
     6
 78
     2
 67
     7
 79
     3
170
     0
171
     0
290
     0
174
     0
 93
        1
 44
0.0
173
     0
291
     0
 45
0.0
  0
VISUALSTYLE
  5
30
102
{ACAD_REACTORS
330
2A
102
}
102
{ACAD_XDICTIONARY
360
81
102
}
330
2A
100
AcDbVisualStyle
  2
3dWireframe
 70
     5
 71
     0
 72
     2
 73
     0
 90
        0
 40
-0.6
 41
-30.0
 62
     5
 63
     7
421
 16777215
 74
     1
 91
        4
 64
     7
 65
   257
 75
     1
175
     1
 42
1.0
 92
        0
 66
   257
 43
1.0
 76
     1
 77
     6
 78
     2
 67
     7
 79
     5
170
     0
171
     0
290
     0
174
     0
 93
        1
 44
0.0
173
     0
291
     0
 45
0.0
  0
VISUALSTYLE
  5
32
102
{ACAD_REACTORS
330
2A
102
}
102
{ACAD_XDICTIONARY
360
85
102
}
330
2A
100
AcDbVisualStyle
  2
Basic
 70
     7
 71
     1
 72
     0
 73
     1
 90
        0
 40
-0.6
 41
-30.0
 62
     5
 63
     7
421
 16777215
 74
     0
 91
        4
 64
     7
 65
   257
 75
     1
175
     1
 42
1.0
 92
        8
 66
     7
 43
1.0
 76
     1
 77
     6
 78
     2
 67
     7
 79
     5
170
     0
171
     0
290
     0
174
     0
 93
        1
 44
0.0
173
     0
291
     1
 45
0.0
  0
VISUALSTYLE
  5
36
102
{ACAD_REACTORS
330
2A
102
}
102
{ACAD_XDICTIONARY
360
8D
102
}
330
2A
100
AcDbVisualStyle
  2
Brighten
 70
    12
 71
     2
 72
     2
 73
     0
 90
        0
 40
-0.6
 41
-30.0
 62
     5
 63
     7
421
 16777215
 74
     1
 91
        4
 64
     7
 65
   257
 75
     1
175
     1
 42
1.0
 92
        8
 66
     7
 43
1.0
 76
     1
 77
     6
 78
     2
 67
     7
 79
     5
170
     0
171
     0
290
     0
174
     0
 93
        1
 44
50.0
173
     0
291
     1
 45
0.0
  0
VISUALSTYLE
  5
3A
102
{ACAD_REACTORS
330
2A
102
}
102
{ACAD_XDICTIONARY
360
95
102
}
330
2A
100
AcDbVisualStyle
  2
ColorChange
 70
    16
 71
     2
 72
     2
 73
     3
 90
        0
 40
-0.6
 41
-30.0
 62
     5
 63
     8
421
  8421504
 74
     1
 91
        4
 64
     7
 65
   257
 75
     1
175
     1
 42
1.0
 92
        8
 66
     8
424
  8421504
 43
1.0
 76
     1
 77
     6
 78
     2
 67
     7
 79
     5
170
     0
171
     0
290
     0
174
     0
 93
        1
 44
0.0
173
     0
291
     1
 45
0.0
  0
VISUALSTYLE
  5
34
102
{ACAD_REACTORS
330
2A
102
}
102
{ACAD_XDICTIONARY
360
89
102
}
330
2A
100
AcDbVisualStyle
  2
Conceptual
 70
     9
 71
     3
 72
     2
 73
     0
 90
        0
 40
-0.6
 41
-30.0
 62
     5
 63
     7
421
 16777215
 74
     2
 91
        2
 64
     7
 65
   257
 75
     1
175
     1
 42
40.0
 92
        8
 66
     7
 43
1.0
 76
     1
 77
     6
 78
     2
 67
     7
 79
     3
170
     0
171
     0
290
     0
174
     0
 93
        1
 44
0.0
173
     0
291
     0
 45
0.0
  0
VISUALSTYLE
  5
35
102
{ACAD_REACTORS
330
2A
102
}
102
{ACAD_XDICTIONARY
360
8B
102
}
330
2A
100
AcDbVisualStyle
  2
Dim
 70
    11
 71
     2
 72
     2
 73
     0
 90
        0
 40
-0.6
 41
-30.0
 62
     5
 63
     7
421
 16777215
 74
     1
 91
        4
 64
     7
 65
   257
 75
     1
175
     1
 42
1.0
 92
        8
 66
     7
 43
1.0
 76
     1
 77
     6
 78
     2
 67
     7
 79
     5
170
     0
171
     0
290
     0
174
     0
 93
        1
 44
-50.0
173
     0
291
     1
 45
0.0
  0
VISUALSTYLE
  5
39
102
{ACAD_REACTORS
330
2A
102
}
102
{ACAD_XDICTIONARY
360
93
102
}
330
2A
100
AcDbVisualStyle
  2
Facepattern
 70
    15
 71
     2
 72
     2
 73
     0
 90
        0
 40
-0.6
 41
-30.0
 62
     5
 63
     7
421
 16777215
 74
     1
 91
        4
 64
     7
 65
   257
 75
     1
175
     1
 42
1.0
 92
        8
 66
     7
 43
1.0
 76
     1
 77
     6
 78
     2
 67
     7
 79
     5
170
     0
171
     0
290
     0
174
     0
 93
        1
 44
0.0
173
     0
291
     1
 45
0.0
  0
VISUALSTYLE
  5
2B
102
{ACAD_REACTORS
330
2A
102
}
102
{ACAD_XDICTIONARY
360
77
102
}
330
2A
100
AcDbVisualStyle
  2
Flat
 70
     0
 71
     2
 72
     1
 73
     1
 90
        2
 40
-0.6
 41
30.0
 62
     5
 63
     7
421
 16777215
 74
     0
 91
        4
 64
     7
 65
   257
 75
     1
175
     1
 42
1.0
 92
        8
 66
     7
 43
1.0
 76
     1
 77
     6
 78
     2
 67
     7
 79
     5
170
     0
171
     0
290
     0
174
     0
 93
       13
 44
0.0
173
     0
291
     1
 45
0.0
  0
VISUALSTYLE
  5
2C
102
{ACAD_REACTORS
330
2A
102
}
102
{ACAD_XDICTIONARY
360
79
102
}
330
2A
100
AcDbVisualStyle
  2
FlatWithEdges
 70
     1
 71
     2
 72
     1
 73
     1
 90
        2
 40
-0.6
 41
30.0
 62
     5
 63
     7
421
 16777215
 74
     1
 91
        4
 64
     7
 65
   257
 75
     1
175
     1
 42
1.0
 92
        0
 66
   257
 43
1.0
 76
     1
 77
     6
 78
     2
 67
     7
 79
     5
170
     0
171
     0
290
     0
174
     0
 93
       13
 44
0.0
173
     0
291
     1
 45
0.0
  0
VISUALSTYLE
  5
2D
102
{ACAD_REACTORS
330
2A
102
}
102
{ACAD_XDICTIONARY
360
7B
102
}
330
2A
100
AcDbVisualStyle
  2
Gouraud
 70
     2
 71
     2
 72
     2
 73
     1
 90
        2
 40
-0.6
 41
30.0
 62
     5
 63
     7
421
 16777215
 74
     0
 91
        4
 64
     7
 65
   257
 75
     1
175
     1
 42
1.0
 92
        0
 66
     7
 43
1.0
 76
     1
 77
     6
 78
     2
 67
     7
 79
     5
170
     0
171
     0
290
     0
174
     0
 93
       13
 44
0.0
173
     0
291
     1
 45
0.0
  0
VISUALSTYLE
  5
2E
102
{ACAD_REACTORS
330
2A
102
}
102
{ACAD_XDICTIONARY
360
7D
102
}
330
2A
100
AcDbVisualStyle
  2
GouraudWithEdges
 70
     3
 71
     2
 72
     2
 73
     1
 90
        2
 40
-0.6
 41
30.0
 62
     5
 63
     7
421
 16777215
 74
     1
 91
        4
 64
     7
 65
   257
 75
     1
175
     1
 42
1.0
 92
        0
 66
   257
 43
1.0
 76
     1
 77
     6
 78
     2
 67
     7
 79
     5
170
     0
171
     0
290
     0
174
     0
 93
       13
 44
0.0
173
     0
291
     1
 45
0.0
  0
VISUALSTYLE
  5
38
102
{ACAD_REACTORS
330
2A
102
}
102
{ACAD_XDICTIONARY
360
91
102
}
330
2A
100
AcDbVisualStyle
  2
Linepattern
 70
    14
 71
     2
 72
     2
 73
     0
 90
        0
 40
-0.6
 41
-30.0
 62
     5
 63
     7
421
 16777215
 74
     1
 91
        4
 64
     7
 65
   257
 75
     7
175
     7
 42
1.0
 92
        8
 66
     7
 43
1.0
 76
     1
 77
     6
 78
     2
 67
     7
 79
     5
170
     0
171
     0
290
     0
174
     0
 93
        1
 44
0.0
173
     0
291
     1
 45
0.0
  0
VISUALSTYLE
  5
33
102
{ACAD_REACTORS
330
2A
102
}
102
{ACAD_XDICTIONARY
360
87
102
}
330
2A
100
AcDbVisualStyle
  2
Realistic
 70
     8
 71
     2
 72
     2
 73
     0
 90
        0
 40
-0.6
 41
-30.0
 62
     5
 63
     7
421
 16777215
 74
     1
 91
        0
 64
     7
 65
   257
 75
     1
175
     1
 42
1.0
 92
        8
 66
     8
424
  7895160
 43
1.0
 76
     1
 77
     6
 78
     2
 67
     7
 79
     5
170
     0
171
     0
290
     0
174
     0
 93
       13
 44
0.0
173
     0
291
     0
 45
0.0
  0
VISUALSTYLE
  5
37
102
{ACAD_REACTORS
330
2A
102
}
102
{ACAD_XDICTIONARY
360
8F
102
}
330
2A
100
AcDbVisualStyle
  2
Thicken
 70
    13
 71
     2
 72
     2
 73
     0
 90
        0
 40
-0.6
 41
-30.0
 62
     5
 63
     7
421
 16777215
 74
     1
 91
        4
 64
     7
 65
   257
 75
     1
175
     1
 42
1.0
 92
       12
 66
     7
 43
1.0
 76
     1
 77
     6
 78
     2
 67
     7
 79
     5
170
     0
171
     0
290
     0
174
     0
 93
        1
 44
0.0
173
     0
291
     1
 45
0.0
  0
DICTIONARY
  5
7F
330
2F
100
AcDbDictionary
280
     1
281
     1
  3
ACAD_XREC_ROUNDTRIP
360
80
  0
DICTIONARY
  5
83
330
31
100
AcDbDictionary
280
     1
281
     1
  3
ACAD_XREC_ROUNDTRIP
360
84
  0
DICTIONARY
  5
81
330
30
100
AcDbDictionary
280
     1
281
     1
  3
ACAD_XREC_ROUNDTRIP
360
82
  0
DICTIONARY
  5
85
330
32
100
AcDbDictionary
280
     1
281
     1
  3
ACAD_XREC_ROUNDTRIP
360
86
  0
DICTIONARY
  5
8D
330
36
100
AcDbDictionary
280
     1
281
     1
  3
ACAD_XREC_ROUNDTRIP
360
8E
  0
DICTIONARY
  5
95
330
3A
100
AcDbDictionary
280
     1
281
     1
  3
ACAD_XREC_ROUNDTRIP
360
96
  0
DICTIONARY
  5
89
330
34
100
AcDbDictionary
280
     1
281
     1
  3
ACAD_XREC_ROUNDTRIP
360
8A
  0
DICTIONARY
  5
8B
330
35
100
AcDbDictionary
280
     1
281
     1
  3
ACAD_XREC_ROUNDTRIP
360
8C
  0
DICTIONARY
  5
93
330
39
100
AcDbDictionary
280
     1
281
     1
  3
ACAD_XREC_ROUNDTRIP
360
94
  0
DICTIONARY
  5
77
330
2B
100
AcDbDictionary
280
     1
281
     1
  3
ACAD_XREC_ROUNDTRIP
360
78
  0
DICTIONARY
  5
79
330
2C
100
AcDbDictionary
280
     1
281
     1
  3
ACAD_XREC_ROUNDTRIP
360
7A
  0
DICTIONARY
  5
7B
330
2D
100
AcDbDictionary
280
     1
281
     1
  3
ACAD_XREC_ROUNDTRIP
360
7C
  0
DICTIONARY
  5
7D
330
2E
100
AcDbDictionary
280
     1
281
     1
  3
ACAD_XREC_ROUNDTRIP
360
7E
  0
DICTIONARY
  5
91
330
38
100
AcDbDictionary
280
     1
281
     1
  3
ACAD_XREC_ROUNDTRIP
360
92
  0
DICTIONARY
  5
87
330
33
100
AcDbDictionary
280
     1
281
     1
  3
ACAD_XREC_ROUNDTRIP
360
88
  0
DICTIONARY
  5
8F
330
37
100
AcDbDictionary
280
     1
281
     1
  3
ACAD_XREC_ROUNDTRIP
360
90
  0
XRECORD
  5
80
102
{ACAD_REACTORS
330
7F
102
}
330
7F
100
AcDbXrecord
280
     1
102
RTVSPropertyOp0
 70
     1
102
RTVSPropertyOp1
 70
     1
102
RTVSPropertyOp2
 70
     1
102
RTVSPropertyOp3
 70
     1
102
RTVSPropertyOp4
 70
     1
102
RTVSPropertyOp5
 70
     1
102
RTVSPropertyOp6
 70
     1
102
RTVSPropertyOp7
 70
     1
102
RTVSPropertyOp8
 70
     1
102
RTVSPropertyOp9
 70
     1
102
RTVSPropertyOp10
 70
     1
102
RTVSPropertyOp11
 70
     1
102
RTVSPropertyOp12
 70
     1
102
RTVSPropertyOp13
 70
     1
102
RTVSPropertyOp14
 70
     1
102
RTVSPropertyOp15
 70
     1
102
RTVSPropertyOp16
 70
     1
102
RTVSPropertyOp17
 70
     1
102
RTVSPropertyOp18
 70
     1
102
RTVSPropertyOp19
 70
     1
102
RTVSPropertyOp20
 70
     1
102
RTVSPropertyOp21
 70
     1
102
RTVSPropertyOp22
 70
     1
102
RTVSPropertyOp23
 70
     1
102
RTVSPropertyOp24
 70
     1
102
RTVSPropertyOp25
 70
     1
102
RTVSPropertyOp26
 70
     1
102
RTVSPropertyOp27
 70
     1
102
RTVSPropertyOp28
 70
     1
102
RTVSPropertyOp29
 70
     1
102
RTVSPropertyOp30
 70
     1
102
RTVSPropertyOp31
 70
     1
102
RTVSPropertyOp32
 70
     1
  0
XRECORD
  5
84
102
{ACAD_REACTORS
330
83
102
}
330
83
100
AcDbXrecord
280
     1
102
RTVSPropertyOp0
 70
     1
102
RTVSPropertyOp1
 70
     1
102
RTVSPropertyOp2
 70
     1
102
RTVSPropertyOp3
 70
     1
102
RTVSPropertyOp4
 70
     1
102
RTVSPropertyOp5
 70
     1
102
RTVSPropertyOp6
 70
     1
102
RTVSPropertyOp7
 70
     1
102
RTVSPropertyOp8
 70
     1
102
RTVSPropertyOp9
 70
     1
102
RTVSPropertyOp10
 70
     1
102
RTVSPropertyOp11
 70
     1
102
RTVSPropertyOp12
 70
     1
102
RTVSPropertyOp13
 70
     1
102
RTVSPropertyOp14
 70
     1
102
RTVSPropertyOp15
 70
     1
102
RTVSPropertyOp16
 70
     1
102
RTVSPropertyOp17
 70
     1
102
RTVSPropertyOp18
 70
     1
102
RTVSPropertyOp19
 70
     1
102
RTVSPropertyOp20
 70
     1
102
RTVSPropertyOp21
 70
     1
102
RTVSPropertyOp22
 70
     1
102
RTVSPropertyOp23
 70
     1
102
RTVSPropertyOp24
 70
     1
102
RTVSPropertyOp25
 70
     1
102
RTVSPropertyOp26
 70
     1
102
RTVSPropertyOp27
 70
     1
102
RTVSPropertyOp28
 70
     1
102
RTVSPropertyOp29
 70
     1
102
RTVSPropertyOp30
 70
     1
102
RTVSPropertyOp31
 70
     1
102
RTVSPropertyOp32
 70
     1
  0
XRECORD
  5
82
102
{ACAD_REACTORS
330
81
102
}
330
81
100
AcDbXrecord
280
     1
102
RTVSPropertyOp0
 70
     1
102
RTVSPropertyOp1
 70
     1
102
RTVSPropertyOp2
 70
     1
102
RTVSPropertyOp3
 70
     1
102
RTVSPropertyOp4
 70
     1
102
RTVSPropertyOp5
 70
     1
102
RTVSPropertyOp6
 70
     1
102
RTVSPropertyOp7
 70
     1
102
RTVSPropertyOp8
 70
     1
102
RTVSPropertyOp9
 70
     1
102
RTVSPropertyOp10
 70
     1
102
RTVSPropertyOp11
 70
     1
102
RTVSPropertyOp12
 70
     1
102
RTVSPropertyOp13
 70
     1
102
RTVSPropertyOp14
 70
     1
102
RTVSPropertyOp15
 70
     1
102
RTVSPropertyOp16
 70
     1
102
RTVSPropertyOp17
 70
     1
102
RTVSPropertyOp18
 70
     1
102
RTVSPropertyOp19
 70
     1
102
RTVSPropertyOp20
 70
     1
102
RTVSPropertyOp21
 70
     1
102
RTVSPropertyOp22
 70
     1
102
RTVSPropertyOp23
 70
     1
102
RTVSPropertyOp24
 70
     1
102
RTVSPropertyOp25
 70
     1
102
RTVSPropertyOp26
 70
     1
102
RTVSPropertyOp27
 70
     1
102
RTVSPropertyOp28
 70
     1
102
RTVSPropertyOp29
 70
     1
102
RTVSPropertyOp30
 70
     1
102
RTVSPropertyOp31
 70
     1
102
RTVSPropertyOp32
 70
     1
  0
XRECORD
  5
86
102
{ACAD_REACTORS
330
85
102
}
330
85
100
AcDbXrecord
280
     1
102
RTVSPropertyOp0
 70
     1
102
RTVSPropertyOp1
 70
     1
102
RTVSPropertyOp2
 70
     1
102
RTVSPropertyOp3
 70
     1
102
RTVSPropertyOp4
 70
     1
102
RTVSPropertyOp5
 70
     1
102
RTVSPropertyOp6
 70
     1
102
RTVSPropertyOp7
 70
     1
102
RTVSPropertyOp8
 70
     1
102
RTVSPropertyOp9
 70
     1
102
RTVSPropertyOp10
 70
     1
102
RTVSPropertyOp11
 70
     1
102
RTVSPropertyOp12
 70
     1
102
RTVSPropertyOp13
 70
     1
102
RTVSPropertyOp14
 70
     1
102
RTVSPropertyOp15
 70
     1
102
RTVSPropertyOp16
 70
     1
102
RTVSPropertyOp17
 70
     1
102
RTVSPropertyOp18
 70
     1
102
RTVSPropertyOp19
 70
     1
102
RTVSPropertyOp20
 70
     1
102
RTVSPropertyOp21
 70
     1
102
RTVSPropertyOp22
 70
     1
102
RTVSPropertyOp23
 70
     1
102
RTVSPropertyOp24
 70
     1
102
RTVSPropertyOp25
 70
     1
102
RTVSPropertyOp26
 70
     1
102
RTVSPropertyOp27
 70
     1
102
RTVSPropertyOp28
 70
     1
102
RTVSPropertyOp29
 70
     1
102
RTVSPropertyOp30
 70
     1
102
RTVSPropertyOp31
 70
     1
102
RTVSPropertyOp32
 70
     1
  0
XRECORD
  5
8E
102
{ACAD_REACTORS
330
8D
102
}
330
8D
100
AcDbXrecord
280
     1
102
RTVSPropertyOp0
 70
     1
102
RTVSPropertyOp1
 70
     1
102
RTVSPropertyOp2
 70
     1
102
RTVSPropertyOp3
 70
     1
102
RTVSPropertyOp4
 70
     1
102
RTVSPropertyOp5
 70
     1
102
RTVSPropertyOp6
 70
     1
102
RTVSPropertyOp7
 70
     1
102
RTVSPropertyOp8
 70
     1
102
RTVSPropertyOp9
 70
     1
102
RTVSPropertyOp10
 70
     1
102
RTVSPropertyOp11
 70
     1
102
RTVSPropertyOp12
 70
     1
102
RTVSPropertyOp13
 70
     1
102
RTVSPropertyOp14
 70
     1
102
RTVSPropertyOp15
 70
     1
102
RTVSPropertyOp16
 70
     1
102
RTVSPropertyOp17
 70
     1
102
RTVSPropertyOp18
 70
     1
102
RTVSPropertyOp19
 70
     1
102
RTVSPropertyOp20
 70
     1
102
RTVSPropertyOp21
 70
     1
102
RTVSPropertyOp22
 70
     1
102
RTVSPropertyOp23
 70
     1
102
RTVSPropertyOp24
 70
     1
102
RTVSPropertyOp25
 70
     1
102
RTVSPropertyOp26
 70
     1
102
RTVSPropertyOp27
 70
     1
102
RTVSPropertyOp28
 70
     1
102
RTVSPropertyOp29
 70
     1
102
RTVSPropertyOp30
 70
     1
102
RTVSPropertyOp31
 70
     1
102
RTVSPropertyOp32
 70
     1
  0
XRECORD
  5
96
102
{ACAD_REACTORS
330
95
102
}
330
95
100
AcDbXrecord
280
     1
102
RTVSPropertyOp0
 70
     1
102
RTVSPropertyOp1
 70
     1
102
RTVSPropertyOp2
 70
     1
102
RTVSPropertyOp3
 70
     1
102
RTVSPropertyOp4
 70
     1
102
RTVSPropertyOp5
 70
     1
102
RTVSPropertyOp6
 70
     1
102
RTVSPropertyOp7
 70
     1
102
RTVSPropertyOp8
 70
     1
102
RTVSPropertyOp9
 70
     1
102
RTVSPropertyOp10
 70
     1
102
RTVSPropertyOp11
 70
     1
102
RTVSPropertyOp12
 70
     1
102
RTVSPropertyOp13
 70
     1
102
RTVSPropertyOp14
 70
     1
102
RTVSPropertyOp15
 70
     1
102
RTVSPropertyOp16
 70
     1
102
RTVSPropertyOp17
 70
     1
102
RTVSPropertyOp18
 70
     1
102
RTVSPropertyOp19
 70
     1
102
RTVSPropertyOp20
 70
     1
102
RTVSPropertyOp21
 70
     1
102
RTVSPropertyOp22
 70
     1
102
RTVSPropertyOp23
 70
     1
102
RTVSPropertyOp24
 70
     1
102
RTVSPropertyOp25
 70
     1
102
RTVSPropertyOp26
 70
     1
102
RTVSPropertyOp27
 70
     1
102
RTVSPropertyOp28
 70
     1
102
RTVSPropertyOp29
 70
     1
102
RTVSPropertyOp30
 70
     1
102
RTVSPropertyOp31
 70
     1
102
RTVSPropertyOp32
 70
     1
  0
XRECORD
  5
8A
102
{ACAD_REACTORS
330
89
102
}
330
89
100
AcDbXrecord
280
     1
102
RTVSPropertyOp0
 70
     1
102
RTVSPropertyOp1
 70
     1
102
RTVSPropertyOp2
 70
     1
102
RTVSPropertyOp3
 70
     1
102
RTVSPropertyOp4
 70
     1
102
RTVSPropertyOp5
 70
     1
102
RTVSPropertyOp6
 70
     1
102
RTVSPropertyOp7
 70
     1
102
RTVSPropertyOp8
 70
     1
102
RTVSPropertyOp9
 70
     1
102
RTVSPropertyOp10
 70
     1
102
RTVSPropertyOp11
 70
     1
102
RTVSPropertyOp12
 70
     1
102
RTVSPropertyOp13
 70
     1
102
RTVSPropertyOp14
 70
     1
102
RTVSPropertyOp15
 70
     1
102
RTVSPropertyOp16
 70
     1
102
RTVSPropertyOp17
 70
     1
102
RTVSPropertyOp18
 70
     1
102
RTVSPropertyOp19
 70
     1
102
RTVSPropertyOp20
 70
     1
102
RTVSPropertyOp21
 70
     1
102
RTVSPropertyOp22
 70
     1
102
RTVSPropertyOp23
 70
     1
102
RTVSPropertyOp24
 70
     1
102
RTVSPropertyOp25
 70
     1
102
RTVSPropertyOp26
 70
     1
102
RTVSPropertyOp27
 70
     1
102
RTVSPropertyOp28
 70
     1
102
RTVSPropertyOp29
 70
     1
102
RTVSPropertyOp30
 70
     1
102
RTVSPropertyOp31
 70
     1
102
RTVSPropertyOp32
 70
     1
  0
XRECORD
  5
8C
102
{ACAD_REACTORS
330
8B
102
}
330
8B
100
AcDbXrecord
280
     1
102
RTVSPropertyOp0
 70
     1
102
RTVSPropertyOp1
 70
     1
102
RTVSPropertyOp2
 70
     1
102
RTVSPropertyOp3
 70
     1
102
RTVSPropertyOp4
 70
     1
102
RTVSPropertyOp5
 70
     1
102
RTVSPropertyOp6
 70
     1
102
RTVSPropertyOp7
 70
     1
102
RTVSPropertyOp8
 70
     1
102
RTVSPropertyOp9
 70
     1
102
RTVSPropertyOp10
 70
     1
102
RTVSPropertyOp11
 70
     1
102
RTVSPropertyOp12
 70
     1
102
RTVSPropertyOp13
 70
     1
102
RTVSPropertyOp14
 70
     1
102
RTVSPropertyOp15
 70
     1
102
RTVSPropertyOp16
 70
     1
102
RTVSPropertyOp17
 70
     1
102
RTVSPropertyOp18
 70
     1
102
RTVSPropertyOp19
 70
     1
102
RTVSPropertyOp20
 70
     1
102
RTVSPropertyOp21
 70
     1
102
RTVSPropertyOp22
 70
     1
102
RTVSPropertyOp23
 70
     1
102
RTVSPropertyOp24
 70
     1
102
RTVSPropertyOp25
 70
     1
102
RTVSPropertyOp26
 70
     1
102
RTVSPropertyOp27
 70
     1
102
RTVSPropertyOp28
 70
     1
102
RTVSPropertyOp29
 70
     1
102
RTVSPropertyOp30
 70
     1
102
RTVSPropertyOp31
 70
     1
102
RTVSPropertyOp32
 70
     1
  0
XRECORD
  5
94
102
{ACAD_REACTORS
330
93
102
}
330
93
100
AcDbXrecord
280
     1
102
RTVSPropertyOp0
 70
     1
102
RTVSPropertyOp1
 70
     1
102
RTVSPropertyOp2
 70
     1
102
RTVSPropertyOp3
 70
     1
102
RTVSPropertyOp4
 70
     1
102
RTVSPropertyOp5
 70
     1
102
RTVSPropertyOp6
 70
     1
102
RTVSPropertyOp7
 70
     1
102
RTVSPropertyOp8
 70
     1
102
RTVSPropertyOp9
 70
     1
102
RTVSPropertyOp10
 70
     1
102
RTVSPropertyOp11
 70
     1
102
RTVSPropertyOp12
 70
     1
102
RTVSPropertyOp13
 70
     1
102
RTVSPropertyOp14
 70
     1
102
RTVSPropertyOp15
 70
     1
102
RTVSPropertyOp16
 70
     1
102
RTVSPropertyOp17
 70
     1
102
RTVSPropertyOp18
 70
     1
102
RTVSPropertyOp19
 70
     1
102
RTVSPropertyOp20
 70
     1
102
RTVSPropertyOp21
 70
     1
102
RTVSPropertyOp22
 70
     1
102
RTVSPropertyOp23
 70
     1
102
RTVSPropertyOp24
 70
     1
102
RTVSPropertyOp25
 70
     1
102
RTVSPropertyOp26
 70
     1
102
RTVSPropertyOp27
 70
     1
102
RTVSPropertyOp28
 70
     1
102
RTVSPropertyOp29
 70
     1
102
RTVSPropertyOp30
 70
     1
102
RTVSPropertyOp31
 70
     1
102
RTVSPropertyOp32
 70
     1
  0
XRECORD
  5
78
102
{ACAD_REACTORS
330
77
102
}
330
77
100
AcDbXrecord
280
     1
102
RTVSPropertyOp0
 70
     1
102
RTVSPropertyOp1
 70
     1
102
RTVSPropertyOp2
 70
     1
102
RTVSPropertyOp3
 70
     1
102
RTVSPropertyOp4
 70
     1
102
RTVSPropertyOp5
 70
     1
102
RTVSPropertyOp6
 70
     1
102
RTVSPropertyOp7
 70
     1
102
RTVSPropertyOp8
 70
     1
102
RTVSPropertyOp9
 70
     1
102
RTVSPropertyOp10
 70
     1
102
RTVSPropertyOp11
 70
     1
102
RTVSPropertyOp12
 70
     1
102
RTVSPropertyOp13
 70
     1
102
RTVSPropertyOp14
 70
     1
102
RTVSPropertyOp15
 70
     1
102
RTVSPropertyOp16
 70
     1
102
RTVSPropertyOp17
 70
     1
102
RTVSPropertyOp18
 70
     1
102
RTVSPropertyOp19
 70
     1
102
RTVSPropertyOp20
 70
     1
102
RTVSPropertyOp21
 70
     1
102
RTVSPropertyOp22
 70
     1
102
RTVSPropertyOp23
 70
     1
102
RTVSPropertyOp24
 70
     1
102
RTVSPropertyOp25
 70
     1
102
RTVSPropertyOp26
 70
     1
102
RTVSPropertyOp27
 70
     1
102
RTVSPropertyOp28
 70
     1
102
RTVSPropertyOp29
 70
     1
102
RTVSPropertyOp30
 70
     1
102
RTVSPropertyOp31
 70
     1
102
RTVSPropertyOp32
 70
     1
  0
XRECORD
  5
7A
102
{ACAD_REACTORS
330
79
102
}
330
79
100
AcDbXrecord
280
     1
102
RTVSPropertyOp0
 70
     1
102
RTVSPropertyOp1
 70
     1
102
RTVSPropertyOp2
 70
     1
102
RTVSPropertyOp3
 70
     1
102
RTVSPropertyOp4
 70
     1
102
RTVSPropertyOp5
 70
     1
102
RTVSPropertyOp6
 70
     1
102
RTVSPropertyOp7
 70
     1
102
RTVSPropertyOp8
 70
     1
102
RTVSPropertyOp9
 70
     1
102
RTVSPropertyOp10
 70
     1
102
RTVSPropertyOp11
 70
     1
102
RTVSPropertyOp12
 70
     1
102
RTVSPropertyOp13
 70
     1
102
RTVSPropertyOp14
 70
     1
102
RTVSPropertyOp15
 70
     1
102
RTVSPropertyOp16
 70
     1
102
RTVSPropertyOp17
 70
     1
102
RTVSPropertyOp18
 70
     1
102
RTVSPropertyOp19
 70
     1
102
RTVSPropertyOp20
 70
     1
102
RTVSPropertyOp21
 70
     1
102
RTVSPropertyOp22
 70
     1
102
RTVSPropertyOp23
 70
     1
102
RTVSPropertyOp24
 70
     1
102
RTVSPropertyOp25
 70
     1
102
RTVSPropertyOp26
 70
     1
102
RTVSPropertyOp27
 70
     1
102
RTVSPropertyOp28
 70
     1
102
RTVSPropertyOp29
 70
     1
102
RTVSPropertyOp30
 70
     1
102
RTVSPropertyOp31
 70
     1
102
RTVSPropertyOp32
 70
     1
  0
XRECORD
  5
7C
102
{ACAD_REACTORS
330
7B
102
}
330
7B
100
AcDbXrecord
280
     1
102
RTVSPropertyOp0
 70
     1
102
RTVSPropertyOp1
 70
     1
102
RTVSPropertyOp2
 70
     1
102
RTVSPropertyOp3
 70
     1
102
RTVSPropertyOp4
 70
     1
102
RTVSPropertyOp5
 70
     1
102
RTVSPropertyOp6
 70
     1
102
RTVSPropertyOp7
 70
     1
102
RTVSPropertyOp8
 70
     1
102
RTVSPropertyOp9
 70
     1
102
RTVSPropertyOp10
 70
     1
102
RTVSPropertyOp11
 70
     1
102
RTVSPropertyOp12
 70
     1
102
RTVSPropertyOp13
 70
     1
102
RTVSPropertyOp14
 70
     1
102
RTVSPropertyOp15
 70
     1
102
RTVSPropertyOp16
 70
     1
102
RTVSPropertyOp17
 70
     1
102
RTVSPropertyOp18
 70
     1
102
RTVSPropertyOp19
 70
     1
102
RTVSPropertyOp20
 70
     1
102
RTVSPropertyOp21
 70
     1
102
RTVSPropertyOp22
 70
     1
102
RTVSPropertyOp23
 70
     1
102
RTVSPropertyOp24
 70
     1
102
RTVSPropertyOp25
 70
     1
102
RTVSPropertyOp26
 70
     1
102
RTVSPropertyOp27
 70
     1
102
RTVSPropertyOp28
 70
     1
102
RTVSPropertyOp29
 70
     1
102
RTVSPropertyOp30
 70
     1
102
RTVSPropertyOp31
 70
     1
102
RTVSPropertyOp32
 70
     1
  0
XRECORD
  5
7E
102
{ACAD_REACTORS
330
7D
102
}
330
7D
100
AcDbXrecord
280
     1
102
RTVSPropertyOp0
 70
     1
102
RTVSPropertyOp1
 70
     1
102
RTVSPropertyOp2
 70
     1
102
RTVSPropertyOp3
 70
     1
102
RTVSPropertyOp4
 70
     1
102
RTVSPropertyOp5
 70
     1
102
RTVSPropertyOp6
 70
     1
102
RTVSPropertyOp7
 70
     1
102
RTVSPropertyOp8
 70
     1
102
RTVSPropertyOp9
 70
     1
102
RTVSPropertyOp10
 70
     1
102
RTVSPropertyOp11
 70
     1
102
RTVSPropertyOp12
 70
     1
102
RTVSPropertyOp13
 70
     1
102
RTVSPropertyOp14
 70
     1
102
RTVSPropertyOp15
 70
     1
102
RTVSPropertyOp16
 70
     1
102
RTVSPropertyOp17
 70
     1
102
RTVSPropertyOp18
 70
     1
102
RTVSPropertyOp19
 70
     1
102
RTVSPropertyOp20
 70
     1
102
RTVSPropertyOp21
 70
     1
102
RTVSPropertyOp22
 70
     1
102
RTVSPropertyOp23
 70
     1
102
RTVSPropertyOp24
 70
     1
102
RTVSPropertyOp25
 70
     1
102
RTVSPropertyOp26
 70
     1
102
RTVSPropertyOp27
 70
     1
102
RTVSPropertyOp28
 70
     1
102
RTVSPropertyOp29
 70
     1
102
RTVSPropertyOp30
 70
     1
102
RTVSPropertyOp31
 70
     1
102
RTVSPropertyOp32
 70
     1
  0
XRECORD
  5
92
102
{ACAD_REACTORS
330
91
102
}
330
91
100
AcDbXrecord
280
     1
102
RTVSPropertyOp0
 70
     1
102
RTVSPropertyOp1
 70
     1
102
RTVSPropertyOp2
 70
     1
102
RTVSPropertyOp3
 70
     1
102
RTVSPropertyOp4
 70
     1
102
RTVSPropertyOp5
 70
     1
102
RTVSPropertyOp6
 70
     1
102
RTVSPropertyOp7
 70
     1
102
RTVSPropertyOp8
 70
     1
102
RTVSPropertyOp9
 70
     1
102
RTVSPropertyOp10
 70
     1
102
RTVSPropertyOp11
 70
     1
102
RTVSPropertyOp12
 70
     1
102
RTVSPropertyOp13
 70
     1
102
RTVSPropertyOp14
 70
     1
102
RTVSPropertyOp15
 70
     1
102
RTVSPropertyOp16
 70
     1
102
RTVSPropertyOp17
 70
     1
102
RTVSPropertyOp18
 70
     1
102
RTVSPropertyOp19
 70
     1
102
RTVSPropertyOp20
 70
     1
102
RTVSPropertyOp21
 70
     1
102
RTVSPropertyOp22
 70
     1
102
RTVSPropertyOp23
 70
     1
102
RTVSPropertyOp24
 70
     1
102
RTVSPropertyOp25
 70
     1
102
RTVSPropertyOp26
 70
     1
102
RTVSPropertyOp27
 70
     1
102
RTVSPropertyOp28
 70
     1
102
RTVSPropertyOp29
 70
     1
102
RTVSPropertyOp30
 70
     1
102
RTVSPropertyOp31
 70
     1
102
RTVSPropertyOp32
 70
     1
  0
XRECORD
  5
88
102
{ACAD_REACTORS
330
87
102
}
330
87
100
AcDbXrecord
280
     1
102
RTVSPropertyOp0
 70
     1
102
RTVSPropertyOp1
 70
     1
102
RTVSPropertyOp2
 70
     1
102
RTVSPropertyOp3
 70
     1
102
RTVSPropertyOp4
 70
     1
102
RTVSPropertyOp5
 70
     1
102
RTVSPropertyOp6
 70
     1
102
RTVSPropertyOp7
 70
     1
102
RTVSPropertyOp8
 70
     1
102
RTVSPropertyOp9
 70
     1
102
RTVSPropertyOp10
 70
     1
102
RTVSPropertyOp11
 70
     1
102
RTVSPropertyOp12
 70
     1
102
RTVSPropertyOp13
 70
     1
102
RTVSPropertyOp14
 70
     1
102
RTVSPropertyOp15
 70
     1
102
RTVSPropertyOp16
 70
     1
102
RTVSPropertyOp17
 70
     1
102
RTVSPropertyOp18
 70
     1
102
RTVSPropertyOp19
 70
     1
102
RTVSPropertyOp20
 70
     1
102
RTVSPropertyOp21
 70
     1
102
RTVSPropertyOp22
 70
     1
102
RTVSPropertyOp23
 70
     1
102
RTVSPropertyOp24
 70
     1
102
RTVSPropertyOp25
 70
     1
102
RTVSPropertyOp26
 70
     1
102
RTVSPropertyOp27
 70
     1
102
RTVSPropertyOp28
 70
     1
102
RTVSPropertyOp29
 70
     1
102
RTVSPropertyOp30
 70
     1
102
RTVSPropertyOp31
 70
     1
102
RTVSPropertyOp32
 70
     1
  0
XRECORD
  5
90
102
{ACAD_REACTORS
330
8F
102
}
330
8F
100
AcDbXrecord
280
     1
102
RTVSPropertyOp0
 70
     1
102
RTVSPropertyOp1
 70
     1
102
RTVSPropertyOp2
 70
     1
102
RTVSPropertyOp3
 70
     1
102
RTVSPropertyOp4
 70
     1
102
RTVSPropertyOp5
 70
     1
102
RTVSPropertyOp6
 70
     1
102
RTVSPropertyOp7
 70
     1
102
RTVSPropertyOp8
 70
     1
102
RTVSPropertyOp9
 70
     1
102
RTVSPropertyOp10
 70
     1
102
RTVSPropertyOp11
 70
     1
102
RTVSPropertyOp12
 70
     1
102
RTVSPropertyOp13
 70
     1
102
RTVSPropertyOp14
 70
     1
102
RTVSPropertyOp15
 70
     1
102
RTVSPropertyOp16
 70
     1
102
RTVSPropertyOp17
 70
     1
102
RTVSPropertyOp18
 70
     1
102
RTVSPropertyOp19
 70
     1
102
RTVSPropertyOp20
 70
     1
102
RTVSPropertyOp21
 70
     1
102
RTVSPropertyOp22
 70
     1
102
RTVSPropertyOp23
 70
     1
102
RTVSPropertyOp24
 70
     1
102
RTVSPropertyOp25
 70
     1
102
RTVSPropertyOp26
 70
     1
102
RTVSPropertyOp27
 70
     1
102
RTVSPropertyOp28
 70
     1
102
RTVSPropertyOp29
 70
     1
102
RTVSPropertyOp30
 70
     1
102
RTVSPropertyOp31
 70
     1
102
RTVSPropertyOp32
 70
     1
  0
ENDSEC
  0
EOF
