  0
SECTION
  2
HEADER
  9
$ACADVER
  1
AC1021
  9
$ACADMAINTVER
 70
    25
  9
$DWGCODEPAGE
  3
ANSI_1252
  9
$INSBASE
 10
0.0
 20
0.0
 30
0.0
  9
$EXTMIN
 10
22.5537
 20
-114.9766
 30
0.0
  9
$EXTMAX
 10
196.423
 20
132.0089
 30
0.0
  9
$LIMMIN
 10
0.0
 20
0.0
  9
$LIMMAX
 10
12.0
 20
9.0
  9
$ORTHOMODE
 70
     0
  9
$REGENMODE
 70
     1
  9
$FILLMODE
 70
     1
  9
$QTEXTMODE
 70
     0
  9
$MIRRTEXT
 70
     1
  9
$LTSCALE
 40
1.0
  9
$ATTMODE
 70
     1
  9
$TEXTSIZE
 40
0.2
  9
$TRACEWID
 40
0.05
  9
$TEXTSTYLE
  7
Standard
  9
$CLAYER
  8
0
  9
$CELTYPE
  6
ByLayer
  9
$CECOLOR
 62
   256
  9
$CELTSCALE
 40
1.0
  9
$DISPSILH
 70
     0
  9
$DIMSCALE
 40
1.0
  9
$DIMASZ
 40
0.18
  9
$DIMEXO
 40
0.0625
  9
$DIMDLI
 40
0.38
  9
$DIMRND
 40
0.0
  9
$DIMDLE
 40
0.0
  9
$DIMEXE
 40
0.18
  9
$DIMTP
 40
0.0
  9
$DIMTM
 40
0.0
  9
$DIMTXT
 40
0.18
  9
$DIMCEN
 40
0.09
  9
$DIMTSZ
 40
0.0
  9
$DIMTOL
 70
     0
  9
$DIMLIM
 70
     0
  9
$DIMTIH
 70
     1
  9
$DIMTOH
 70
     1
  9
$DIMSE1
 70
     0
  9
$DIMSE2
 70
     0
  9
$DIMTAD
 70
     0
  9
$DIMZIN
 70
     0
  9
$DIMBLK
  1

  9
$DIMASO
 70
     1
  9
$DIMSHO
 70
     1
  9
$DIMPOST
  1

  9
$DIMAPOST
  1

  9
$DIMALT
 70
     0
  9
$DIMALTD
 70
     2
  9
$DIMALTF
 40
25.4
  9
$DIMLFAC
 40
1.0
  9
$DIMTOFL
 70
     0
  9
$DIMTVP
 40
0.0
  9
$DIMTIX
 70
     0
  9
$DIMSOXD
 70
     0
  9
$DIMSAH
 70
     0
  9
$DIMBLK1
  1

  9
$DIMBLK2
  1

  9
$DIMSTYLE
  2
Standard
  9
$DIMCLRD
 70
     0
  9
$DIMCLRE
 70
     0
  9
$DIMCLRT
 70
     0
  9
$DIMTFAC
 40
1.0
  9
$DIMGAP
 40
0.09
  9
$DIMJUST
 70
     0
  9
$DIMSD1
 70
     0
  9
$DIMSD2
 70
     0
  9
$DIMTOLJ
 70
     1
  9
$DIMTZIN
 70
     0
  9
$DIMALTZ
 70
     0
  9
$DIMALTTZ
 70
     0
  9
$DIMUPT
 70
     0
  9
$DIMDEC
 70
     4
  9
$DIMTDEC
 70
     4
  9
$DIMALTU
 70
     2
  9
$DIMALTTD
 70
     2
  9
$DIMTXSTY
  7
Standard
  9
$DIMAUNIT
 70
     0
  9
$DIMADEC
 70
     0
  9
$DIMALTRND
 40
0.0
  9
$DIMAZIN
 70
     0
  9
$DIMDSEP
 70
    46
  9
$DIMATFIT
 70
     3
  9
$DIMFRAC
 70
     0
  9
$DIMLDRBLK
  1

  9
$DIMLUNIT
 70
     2
  9
$DIMLWD
 70
    -2
  9
$DIMLWE
 70
    -2
  9
$DIMTMOVE
 70
     0
  9
$DIMFXL
 40
1.0
  9
$DIMFXLON
 70
     0
  9
$DIMJOGANG
 40
0.7853981633974483
  9
$DIMTFILL
 70
     0
  9
$DIMTFILLCLR
 70
     0
  9
$DIMARCSYM
 70
     0
  9
$DIMLTYPE
  6

  9
$DIMLTEX1
  6

  9
$DIMLTEX2
  6

  9
$LUNITS
 70
     2
  9
$LUPREC
 70
     4
  9
$SKETCHINC
 40
0.1
  9
$FILLETRAD
 40
0.5
  9
$AUNITS
 70
     0
  9
$AUPREC
 70
     0
  9
$MENU
  1
.
  9
$ELEVATION
 40
0.0
  9
$PELEVATION
 40
0.0
  9
$THICKNESS
 40
0.0
  9
$LIMCHECK
 70
     0
  9
$CHAMFERA
 40
0.5
  9
$CHAMFERB
 40
0.5
  9
$CHAMFERC
 40
1.0
  9
$CHAMFERD
 40
0.0
  9
$SKPOLY
 70
     0
  9
$TDCREATE
 40
2458492.632990231
  9
$TDUCREATE
 40
2458492.632990231
  9
$TDUPDATE
 40
2458492.632990347
  9
$TDUUPDATE
 40
2458492.632990347
  9
$TDINDWG
 40
0.0000000116
  9
$TDUSRTIMER
 40
0.0000000116
  9
$USRTIMER
 70
     1
  9
$ANGBASE
 50
0.0
  9
$ANGDIR
 70
     0
  9
$PDMODE
 70
     0
  9
$PDSIZE
 40
0.0
  9
$PLINEWID
 40
0.0
  9
$SPLFRAME
 70
     0
  9
$SPLINETYPE
 70
     6
  9
$SPLINESEGS
 70
     8
  9
$HANDSEED
  5
A9
  9
$SURFTAB1
 70
     6
  9
$SURFTAB2
 70
     6
  9
$SURFTYPE
 70
     6
  9
$SURFU
 70
     6
  9
$SURFV
 70
     6
  9
$UCSBASE
  2

  9
$UCSNAME
  2

  9
$UCSORG
 10
0.0
 20
0.0
 30
0.0
  9
$UCSXDIR
 10
1.0
 20
0.0
 30
0.0
  9
$UCSYDIR
 10
0.0
 20
1.0
 30
0.0
  9
$UCSORTHOREF
  2

  9
$UCSORTHOVIEW
 70
     0
  9
$UCSORGTOP
 10
0.0
 20
0.0
 30
0.0
  9
$UCSORGBOTTOM
 10
0.0
 20
0.0
 30
0.0
  9
$UCSORGLEFT
 10
0.0
 20
0.0
 30
0.0
  9
$UCSORGRIGHT
 10
0.0
 20
0.0
 30
0.0
  9
$UCSORGFRONT
 10
0.0
 20
0.0
 30
0.0
  9
$UCSORGBACK
 10
0.0
 20
0.0
 30
0.0
  9
$PUCSBASE
  2

  9
$PUCSNAME
  2

  9
$PUCSORG
 10
0.0
 20
0.0
 30
0.0
  9
$PUCSXDIR
 10
1.0
 20
0.0
 30
0.0
  9
$PUCSYDIR
 10
0.0
 20
1.0
 30
0.0
  9
$PUCSORTHOREF
  2

  9
$PUCSORTHOVIEW
 70
     0
  9
$PUCSORGTOP
 10
0.0
 20
0.0
 30
0.0
  9
$PUCSORGBOTTOM
 10
0.0
 20
0.0
 30
0.0
  9
$PUCSORGLEFT
 10
0.0
 20
0.0
 30
0.0
  9
$PUCSORGRIGHT
 10
0.0
 20
0.0
 30
0.0
  9
$PUCSORGFRONT
 10
0.0
 20
0.0
 30
0.0
  9
$PUCSORGBACK
 10
0.0
 20
0.0
 30
0.0
  9
$USERI1
 70
     0
  9
$USERI2
 70
     0
  9
$USERI3
 70
     0
  9
$USERI4
 70
     0
  9
$USERI5
 70
     0
  9
$USERR1
 40
0.0
  9
$USERR2
 40
0.0
  9
$USERR3
 40
0.0
  9
$USERR4
 40
0.0
  9
$USERR5
 40
0.0
  9
$WORLDVIEW
 70
     1
  9
$SHADEDGE
 70
     3
  9
$SHADEDIF
 70
    70
  9
$TILEMODE
 70
     1
  9
$MAXACTVP
 70
    64
  9
$PINSBASE
 10
0.0
 20
0.0
 30
0.0
  9
$PLIMCHECK
 70
     0
  9
$PEXTMIN
 10
1.000000000000000E+20
 20
1.000000000000000E+20
 30
1.000000000000000E+20
  9
$PEXTMAX
 10
-1.000000000000000E+20
 20
-1.000000000000000E+20
 30
-1.000000000000000E+20
  9
$PLIMMIN
 10
0.0
 20
0.0
  9
$PLIMMAX
 10
12.0
 20
9.0
  9
$UNITMODE
 70
     0
  9
$VISRETAIN
 70
     1
  9
$PLINEGEN
 70
     0
  9
$PSLTSCALE
 70
     1
  9
$TREEDEPTH
 70
  3020
  9
$CMLSTYLE
  2
Standard
  9
$CMLJUST
 70
     0
  9
$CMLSCALE
 40
1.0
  9
$PROXYGRAPHICS
 70
     1
  9
$MEASUREMENT
 70
     0
  9
$CELWEIGHT
370
    -1
  9
$ENDCAPS
280
     0
  9
$JOINSTYLE
280
     0
  9
$LWDISPLAY
290
     0
  9
$INSUNITS
 70
     4
  9
$HYPERLINKBASE
  1

  9
$STYLESHEET
  1

  9
$XEDIT
290
     1
  9
$CEPSNTYPE
380
     0
  9
$PSTYLEMODE
290
     1
  9
$FINGERPRINTGUID
  2
{C49983C6-F7F0-4D99-908A-B1C3F87441CE}
  9
$VERSIONGUID
  2
{FAEB1C32-E019-11D5-929B-00C0DF256EC4}
  9
$EXTNAMES
290
     1
  9
$PSVPSCALE
 40
0.0
  9
$OLESTARTUP
290
     0
  9
$SORTENTS
280
   127
  9
$INDEXCTL
280
     0
  9
$HIDETEXT
280
     1
  9
$XCLIPFRAME
290
     0
  9
$HALOGAP
280
     0
  9
$OBSCOLOR
 70
   257
  9
$OBSLTYPE
280
     0
  9
$INTERSECTIONDISPLAY
280
     0
  9
$INTERSECTIONCOLOR
 70
   257
  9
$DIMASSOC
280
     2
  9
$PROJECTNAME
  1

  9
$CAMERADISPLAY
290
     0
  9
$LENSLENGTH
 40
50.0
  9
$CAMERAHEIGHT
 40
0.0
  9
$STEPSPERSEC
 40
2.0
  9
$STEPSIZE
 40
6.0
  9
$3DDWFPREC
 40
2.0
  9
$PSOLWIDTH
 40
0.25
  9
$PSOLHEIGHT
 40
4.0
  9
$LOFTANG1
 40
1.570796326794897
  9
$LOFTANG2
 40
1.570796326794897
  9
$LOFTMAG1
 40
0.0
  9
$LOFTMAG2
 40
0.0
  9
$LOFTPARAM
 70
     7
  9
$LOFTNORMALS
280
     1
  9
$LATITUDE
 40
37.795
  9
$LONGITUDE
 40
-122.394
  9
$NORTHDIRECTION
 40
0.0
  9
$TIMEZONE
 70
 -8000
  9
$LIGHTGLYPHDISPLAY
280
     1
  9
$TILEMODELIGHTSYNCH
280
     1
  9
$SOLIDHIST
280
     1
  9
$SHOWHIST
280
     1
  9
$DWFFRAME
280
     2
  9
$DGNFRAME
280
     2
  9
$REALWORLDSCALE
290
     1
  9
$INTERFERECOLOR
 62
   256
  9
$CSHADOW
280
     0
  9
$SHADOWPLANELOCATION
 40
0.0
  0
ENDSEC
  0
SECTION
  2
CLASSES
  0
CLASS
  1
ACDBDICTIONARYWDFLT
  2
AcDbDictionaryWithDefault
  3
ObjectDBX Classes
 90
        0
 91
        4
280
     0
281
     0
  0
CLASS
  1
VISUALSTYLE
  2
AcDbVisualStyle
  3
ObjectDBX Classes
 90
     4095
 91
        4
280
     0
281
     0
  0
CLASS
  1
MATERIAL
  2
AcDbMaterial
  3
ObjectDBX Classes
 90
     1153
 91
        4
280
     0
281
     0
  0
ENDSEC
  0
SECTION
  2
TABLES
  0
TABLE
  2
VPORT
  5
8
330
0
100
AcDbSymbolTable
 70
     1
  0
VPORT
  5
29
330
8
100
AcDbSymbolTableRecord
100
AcDbViewportTableRecord
  2
*Active
 70
     0
 10
0.0
 20
0.0
 11
1.0
 21
1.0
 12
10.42990654205607
 22
4.5
 13
0.0
 23
0.0
 14
0.5
 24
0.5
 15
0.5
 25
0.5
 16
0.0
 26
0.0
 36
1.0
 17
0.0
 27
0.0
 37
0.0
 40
9.0
 41
1.972972972850329
 42
50.0
 43
0.0
 44
0.0
 50
0.0
 51
0.0
 71
     0
 72
   100
 73
     1
 74
     3
 75
     0
 76
     0
 77
     0
 78
     0
281
     0
 65
     1
110
0.0
120
0.0
130
0.0
111
1.0
121
0.0
131
0.0
112
0.0
122
1.0
132
0.0
 79
     0
146
0.0
 60
     3
 61
     5
292
     1
282
     1
141
0.0
142
0.0
 63
   250
  0
ENDTAB
  0
TABLE
  2
LTYPE
  5
5
330
0
100
AcDbSymbolTable
 70
     1
  0
LTYPE
  5
14
330
5
100
AcDbSymbolTableRecord
100
AcDbLinetypeTableRecord
  2
ByBlock
 70
     0
  3

 72
    65
 73
     0
 40
0.0
  0
LTYPE
  5
15
330
5
100
AcDbSymbolTableRecord
100
AcDbLinetypeTableRecord
  2
ByLayer
 70
     0
  3

 72
    65
 73
     0
 40
0.0
  0
LTYPE
  5
16
330
5
100
AcDbSymbolTableRecord
100
AcDbLinetypeTableRecord
  2
Continuous
 70
     0
  3
Solid line
 72
    65
 73
     0
 40
0.0
  0
ENDTAB
  0
TABLE
  2
LAYER
  5
2
330
0
100
AcDbSymbolTable
 70
     3
  0
LAYER
  5
10
330
2
100
AcDbSymbolTableRecord
100
AcDbLayerTableRecord
  2
0
 70
     0
 62
     7
  6
Continuous
370
    -3
390
F
347
3E
  0
LAYER
  5
40
330
2
100
AcDbSymbolTableRecord
100
AcDbLayerTableRecord
  2
layer 1
 70
     0
 62
     7
  6
Continuous
370
    -3
390
F
347
3E
  0
LAYER
  5
86
330
2
100
AcDbSymbolTableRecord
100
AcDbLayerTableRecord
  2
Master Guides
 70
     0
 62
     7
  6
Continuous
370
    -3
390
F
347
3E
  0
ENDTAB
  0
TABLE
  2
STYLE
  5
3
330
0
100
AcDbSymbolTable
 70
     1
  0
STYLE
  5
11
330
3
100
AcDbSymbolTableRecord
100
AcDbTextStyleTableRecord
  2
Standard
 70
     0
 40
0.0
 41
1.0
 50
0.0
 71
     0
 42
0.2
  3
txt
  4

  0
ENDTAB
  0
TABLE
  2
VIEW
  5
6
330
0
100
AcDbSymbolTable
 70
     0
  0
ENDTAB
  0
TABLE
  2
UCS
  5
7
330
0
100
AcDbSymbolTable
 70
     0
  0
ENDTAB
  0
TABLE
  2
APPID
  5
9
330
0
100
AcDbSymbolTable
 70
     2
  0
APPID
  5
12
330
9
100
AcDbSymbolTableRecord
100
AcDbRegAppTableRecord
  2
ACAD
 70
     0
  0
APPID
  5
3F
330
9
100
AcDbSymbolTableRecord
100
AcDbRegAppTableRecord
  2
ODA
 70
     0
  0
ENDTAB
  0
TABLE
  2
DIMSTYLE
  5
A
330
0
100
AcDbSymbolTable
 70
     1
100
AcDbDimStyleTable
  0
DIMSTYLE
105
27
330
A
100
AcDbSymbolTableRecord
100
AcDbDimStyleTableRecord
  2
Standard
 70
     0
178
     0
340
11
  0
ENDTAB
  0
TABLE
  2
BLOCK_RECORD
  5
1
330
0
100
AcDbSymbolTable
 70
     1
  0
BLOCK_RECORD
  5
1F
330
1
100
AcDbSymbolTableRecord
100
AcDbBlockTableRecord
  2
*Model_Space
340
22
 70
     0
280
     1
281
     0
  0
BLOCK_RECORD
  5
1B
330
1
100
AcDbSymbolTableRecord
100
AcDbBlockTableRecord
  2
*Paper_Space
340
1E
 70
     0
280
     1
281
     0
  0
BLOCK_RECORD
  5
23
330
1
100
AcDbSymbolTableRecord
100
AcDbBlockTableRecord
  2
*Paper_Space0
340
26
 70
     0
280
     1
281
     0
  0
ENDTAB
  0
ENDSEC
  0
SECTION
  2
BLOCKS
  0
BLOCK
  5
20
330
1F
100
AcDbEntity
  8
0
100
AcDbBlockBegin
  2
*Model_Space
 70
     0
 10
0.0
 20
0.0
 30
0.0
  3
*Model_Space
  1

  0
ENDBLK
  5
21
330
1F
100
AcDbEntity
  8
0
100
AcDbBlockEnd
  0
BLOCK
  5
1C
330
1B
100
AcDbEntity
 67
     1
  8
0
100
AcDbBlockBegin
  2
*Paper_Space
 70
     0
 10
0.0
 20
0.0
 30
0.0
  3
*Paper_Space
  1

  0
ENDBLK
  5
1D
330
1B
100
AcDbEntity
 67
     1
  8
0
100
AcDbBlockEnd
  0
BLOCK
  5
24
330
23
100
AcDbEntity
  8
0
100
AcDbBlockBegin
  2
*Paper_Space0
 70
     0
 10
0.0
 20
0.0
 30
0.0
  3
*Paper_Space0
  1

  0
ENDBLK
  5
25
330
23
100
AcDbEntity
  8
0
100
AcDbBlockEnd
  0
ENDSEC
  0
SECTION
  2
ENTITIES
  0
SPLINE
  5
41
330
1F
100
AcDbEntity
  8
layer 1
100
AcDbSpline
210
0.0
220
0.0
230
1.0
 70
    11
 71
     3
 72
    20
 73
    16
 74
     0
 42
0.0000000001
 43
0.0000000001
 12
1.0
 22
0.0
 32
0.0
 13
1.0
 23
0.0
 33
0.0
 40
0.0
 40
0.0
 40
0.0
 40
0.0
 40
0.2
 40
0.2
 40
0.2
 40
0.2
 40
0.4
 40
0.4
 40
0.4
 40
0.4
 40
0.6
 40
0.6
 40
0.6
 40
0.6
 40
1.0
 40
1.0
 40
1.0
 40
1.0
 10
22.5537
 20
-114.9766
 30
0.0
 10
22.5537
 20
-114.9766
 30
0.0
 10
22.5537
 20
132.0089
 30
0.0
 10
22.5537
 20
132.0089
 30
0.0
 10
22.5537
 20
132.0089
 30
0.0
 10
22.5537
 20
132.0089
 30
0.0
 10
196.423
 20
132.0089
 30
0.0
 10
196.423
 20
132.0089
 30
0.0
 10
196.423
 20
132.0089
 30
0.0
 10
196.423
 20
132.0089
 30
0.0
 10
196.423
 20
-114.9766
 30
0.0
 10
196.423
 20
-114.9766
 30
0.0
 10
196.423
 20
-114.9766
 30
0.0
 10
196.423
 20
-114.9766
 30
0.0
 10
22.5537
 20
-114.9766
 30
0.0
 10
22.5537
 20
-114.9766
 30
0.0
  0
SPLINE
  5
42
330
1F
100
AcDbEntity
  8
layer 1
 62
     7
100
AcDbSpline
210
0.0
220
0.0
230
1.0
 70
    11
 71
     3
 72
    20
 73
    16
 74
     0
 42
0.0000000001
 43
0.0000000001
 12
1.0
 22
0.0
 32
0.0
 13
1.0
 23
0.0
 33
0.0
 40
0.0
 40
0.0
 40
0.0
 40
0.0
 40
0.2
 40
0.2
 40
0.2
 40
0.2
 40
0.4
 40
0.4
 40
0.4
 40
0.4
 40
0.6
 40
0.6
 40
0.6
 40
0.6
 40
1.0
 40
1.0
 40
1.0
 40
1.0
 10
78.4724
 20
-26.0108
 30
0.0
 10
78.4724
 20
-26.0108
 30
0.0
 10
59.1039
 20
-45.4171
 30
0.0
 10
59.1039
 20
-45.4171
 30
0.0
 10
59.1039
 20
-45.4171
 30
0.0
 10
69.555
 20
-54.6201
 30
0.0
 10
83.2493
 20
-63.504
 30
0.0
 10
105.0236
 20
-65.2912
 30
0.0
 10
105.0236
 20
-65.2912
 30
0.0
 10
97.6596
 20
-58.188
 30
0.0
 10
91.4096
 20
-55.5211
 30
0.0
 10
86.8456
 20
-49.7063
 30
0.0
 10
86.8456
 20
-49.7063
 30
0.0
 10
82.1982
 20
-43.7853
 30
0.0
 10
78.5988
 20
-36.9319
 30
0.0
 10
78.4724
 20
-26.0108
 30
0.0
  0
SPLINE
  5
43
330
1F
100
AcDbEntity
  8
layer 1
 62
     7
100
AcDbSpline
210
0.0
220
0.0
230
1.0
 70
    11
 71
     3
 72
    20
 73
    16
 74
     0
 42
0.0000000001
 43
0.0000000001
 12
1.0
 22
0.0
 32
0.0
 13
1.0
 23
0.0
 33
0.0
 40
0.0
 40
0.0
 40
0.0
 40
0.0
 40
0.2
 40
0.2
 40
0.2
 40
0.2
 40
0.4
 40
0.4
 40
0.4
 40
0.4
 40
0.6
 40
0.6
 40
0.6
 40
0.6
 40
1.0
 40
1.0
 40
1.0
 40
1.0
 10
107.6898
 20
-61.9561
 30
0.0
 10
107.6898
 20
-61.9561
 30
0.0
 10
107.6898
 20
-47.8699
 30
0.0
 10
107.6898
 20
-47.8699
 30
0.0
 10
107.6898
 20
-47.8699
 30
0.0
 10
107.6898
 20
-47.8699
 30
0.0
 10
82.6361
 20
-22.5656
 30
0.0
 10
82.6361
 20
-22.5656
 30
0.0
 10
82.6361
 20
-22.5656
 30
0.0
 10
83.081
 20
-35.8289
 30
0.0
 10
85.9741
 20
-41.4133
 30
0.0
 10
90.0154
 20
-46.5662
 30
0.0
 10
90.0154
 20
-46.5662
 30
0.0
 10
95.0111
 20
-52.9362
 30
0.0
 10
102.1107
 20
-56.7593
 30
0.0
 10
107.6898
 20
-61.9561
 30
0.0
  0
SPLINE
  5
44
330
1F
100
AcDbEntity
  8
layer 1
 62
     7
100
AcDbSpline
210
0.0
220
0.0
230
1.0
 70
    11
 71
     3
 72
    28
 73
    24
 74
     0
 42
0.0000000001
 43
0.0000000001
 12
1.0
 22
0.0
 32
0.0
 13
1.0
 23
0.0
 33
0.0
 40
0.0
 40
0.0
 40
0.0
 40
0.0
 40
0.1428571428571428
 40
0.1428571428571428
 40
0.1428571428571428
 40
0.1428571428571428
 40
0.2857142857142857
 40
0.2857142857142857
 40
0.2857142857142857
 40
0.2857142857142857
 40
0.4285714285714285
 40
0.4285714285714285
 40
0.4285714285714285
 40
0.4285714285714285
 40
0.5714285714285714
 40
0.5714285714285714
 40
0.5714285714285714
 40
0.5714285714285714
 40
0.7142857142857143
 40
0.7142857142857143
 40
0.7142857142857143
 40
0.7142857142857143
 40
1.0
 40
1.0
 40
1.0
 40
1.0
 10
34.3733
 20
-102.145
 30
0.0
 10
34.3733
 20
-102.145
 30
0.0
 10
34.3733
 20
-85.7348
 30
0.0
 10
34.3733
 20
-85.7348
 30
0.0
 10
34.3733
 20
-85.7348
 30
0.0
 10
34.3733
 20
-85.7348
 30
0.0
 10
42.9439
 20
-85.7348
 30
0.0
 10
42.9439
 20
-85.7348
 30
0.0
 10
42.9439
 20
-85.7348
 30
0.0
 10
42.9439
 20
-85.7348
 30
0.0
 10
42.9084
 20
-93.5535
 30
0.0
 10
42.9084
 20
-93.5535
 30
0.0
 10
42.9084
 20
-93.5535
 30
0.0
 10
42.9084
 20
-93.5535
 30
0.0
 10
50.6953
 20
-93.5535
 30
0.0
 10
50.6953
 20
-93.5535
 30
0.0
 10
50.6953
 20
-93.5535
 30
0.0
 10
50.6953
 20
-93.5535
 30
0.0
 10
50.6953
 20
-102.1453
 30
0.0
 10
50.6953
 20
-102.1453
 30
0.0
 10
50.6953
 20
-102.1453
 30
0.0
 10
50.6953
 20
-102.1453
 30
0.0
 10
34.3733
 20
-102.145
 30
0.0
 10
34.3733
 20
-102.145
 30
0.0
  0
SPLINE
  5
45
330
1F
100
AcDbEntity
  8
layer 1
 62
     7
100
AcDbSpline
210
0.0
220
0.0
230
1.0
 70
    11
 71
     3
 72
    20
 73
    16
 74
     0
 42
0.0000000001
 43
0.0000000001
 12
1.0
 22
0.0
 32
0.0
 13
1.0
 23
0.0
 33
0.0
 40
0.0
 40
0.0
 40
0.0
 40
0.0
 40
0.2
 40
0.2
 40
0.2
 40
0.2
 40
0.4
 40
0.4
 40
0.4
 40
0.4
 40
0.6
 40
0.6
 40
0.6
 40
0.6
 40
1.0
 40
1.0
 40
1.0
 40
1.0
 10
46.722
 20
-89.7963
 30
0.0
 10
46.722
 20
-89.7963
 30
0.0
 10
46.722
 20
-85.7318
 30
0.0
 10
46.722
 20
-85.7318
 30
0.0
 10
46.722
 20
-85.7318
 30
0.0
 10
46.722
 20
-85.7318
 30
0.0
 10
50.7647
 20
-85.7318
 30
0.0
 10
50.7647
 20
-85.7318
 30
0.0
 10
50.7647
 20
-85.7318
 30
0.0
 10
50.7647
 20
-85.7318
 30
0.0
 10
50.7647
 20
-89.7963
 30
0.0
 10
50.7647
 20
-89.7963
 30
0.0
 10
50.7647
 20
-89.7963
 30
0.0
 10
50.7647
 20
-89.7963
 30
0.0
 10
46.722
 20
-89.7963
 30
0.0
 10
46.722
 20
-89.7963
 30
0.0
  0
SPLINE
  5
46
330
1F
100
AcDbEntity
  8
layer 1
 62
     7
100
AcDbSpline
210
0.0
220
0.0
230
1.0
 70
    11
 71
     3
 72
    28
 73
    24
 74
     0
 42
0.0000000001
 43
0.0000000001
 12
1.0
 22
0.0
 32
0.0
 13
1.0
 23
0.0
 33
0.0
 40
0.0
 40
0.0
 40
0.0
 40
0.0
 40
0.1428571428571428
 40
0.1428571428571428
 40
0.1428571428571428
 40
0.1428571428571428
 40
0.2857142857142857
 40
0.2857142857142857
 40
0.2857142857142857
 40
0.2857142857142857
 40
0.4285714285714285
 40
0.4285714285714285
 40
0.4285714285714285
 40
0.4285714285714285
 40
0.5714285714285714
 40
0.5714285714285714
 40
0.5714285714285714
 40
0.5714285714285714
 40
0.7142857142857143
 40
0.7142857142857143
 40
0.7142857142857143
 40
0.7142857142857143
 40
1.0
 40
1.0
 40
1.0
 40
1.0
 10
59.2016
 20
-77.4844
 30
0.0
 10
59.2016
 20
-77.4844
 30
0.0
 10
59.2016
 20
-89.937
 30
0.0
 10
59.2016
 20
-89.937
 30
0.0
 10
59.2016
 20
-89.937
 30
0.0
 10
59.2016
 20
-89.937
 30
0.0
 10
54.6975
 20
-89.937
 30
0.0
 10
54.6975
 20
-89.937
 30
0.0
 10
54.6975
 20
-89.937
 30
0.0
 10
54.6975
 20
-89.937
 30
0.0
 10
54.7076
 20
-82.277
 30
0.0
 10
54.7076
 20
-82.277
 30
0.0
 10
54.7076
 20
-82.277
 30
0.0
 10
54.7076
 20
-82.277
 30
0.0
 10
46.816
 20
-82.3188
 30
0.0
 10
46.816
 20
-82.3188
 30
0.0
 10
46.816
 20
-82.3188
 30
0.0
 10
46.816
 20
-82.3188
 30
0.0
 10
46.816
 20
-77.4844
 30
0.0
 10
46.816
 20
-77.4844
 30
0.0
 10
46.816
 20
-77.4844
 30
0.0
 10
46.816
 20
-77.4844
 30
0.0
 10
59.2016
 20
-77.4844
 30
0.0
 10
59.2016
 20
-77.4844
 30
0.0
  0
SPLINE
  5
47
330
1F
100
AcDbEntity
  8
layer 1
 62
     7
100
AcDbSpline
210
0.0
220
0.0
230
1.0
 70
    11
 71
     3
 72
    40
 73
    36
 74
     0
 42
0.0000000001
 43
0.0000000001
 12
1.0
 22
0.0
 32
0.0
 13
1.0
 23
0.0
 33
0.0
 40
0.0
 40
0.0
 40
0.0
 40
0.0
 40
0.1
 40
0.1
 40
0.1
 40
0.1
 40
0.2
 40
0.2
 40
0.2
 40
0.2
 40
0.3
 40
0.3
 40
0.3
 40
0.3
 40
0.4
 40
0.4
 40
0.4
 40
0.4
 40
0.5
 40
0.5
 40
0.5
 40
0.5
 40
0.6
 40
0.6
 40
0.6
 40
0.6
 40
0.7
 40
0.7
 40
0.7
 40
0.7
 40
0.8
 40
0.8
 40
0.8
 40
0.8
 40
1.0
 40
1.0
 40
1.0
 40
1.0
 10
77.9448
 20
-102.145
 30
0.0
 10
85.1663
 20
-95.5061
 30
0.0
 10
93.5875
 20
-93.4945
 30
0.0
 10
100.2948
 20
-92.5112
 30
0.0
 10
100.2948
 20
-92.5112
 30
0.0
 10
99.7321
 20
-85.5244
 30
0.0
 10
101.5116
 20
-78.3089
 30
0.0
 10
107.6899
 20
-74.4639
 30
0.0
 10
107.6899
 20
-74.4639
 30
0.0
 10
107.6899
 20
-74.4639
 30
0.0
 10
107.6899
 20
-70.1241
 30
0.0
 10
107.6899
 20
-70.1241
 30
0.0
 10
107.6899
 20
-70.1241
 30
0.0
 10
94.0236
 20
-69.7719
 30
0.0
 10
83.3357
 20
-65.9837
 30
0.0
 10
77.02
 20
-63.0444
 30
0.0
 10
77.02
 20
-63.0444
 30
0.0
 10
77.02
 20
-63.0444
 30
0.0
 10
62.9191
 20
-76.423
 30
0.0
 10
62.9191
 20
-76.423
 30
0.0
 10
62.9191
 20
-76.423
 30
0.0
 10
62.9191
 20
-76.423
 30
0.0
 10
62.9545
 20
-93.5534
 30
0.0
 10
62.9545
 20
-93.5534
 30
0.0
 10
62.9545
 20
-93.5534
 30
0.0
 10
62.9545
 20
-93.5534
 30
0.0
 10
54.425
 20
-93.5534
 30
0.0
 10
54.425
 20
-93.5534
 30
0.0
 10
54.425
 20
-93.5534
 30
0.0
 10
54.425
 20
-93.5534
 30
0.0
 10
54.425
 20
-102.1452
 30
0.0
 10
54.425
 20
-102.1452
 30
0.0
 10
54.425
 20
-102.1452
 30
0.0
 10
54.425
 20
-102.1452
 30
0.0
 10
77.9448
 20
-102.145
 30
0.0
 10
77.9448
 20
-102.145
 30
0.0
  0
SPLINE
  5
48
330
1F
100
AcDbEntity
  8
layer 1
 62
     7
100
AcDbSpline
210
0.0
220
0.0
230
1.0
 70
    11
 71
     3
 72
    20
 73
    16
 74
     0
 42
0.0000000001
 43
0.0000000001
 12
1.0
 22
0.0
 32
0.0
 13
1.0
 23
0.0
 33
0.0
 40
0.0
 40
0.0
 40
0.0
 40
0.0
 40
0.2
 40
0.2
 40
0.2
 40
0.2
 40
0.4
 40
0.4
 40
0.4
 40
0.4
 40
0.6
 40
0.6
 40
0.6
 40
0.6
 40
1.0
 40
1.0
 40
1.0
 40
1.0
 10
107.5139
 20
-106.2916
 30
0.0
 10
107.5139
 20
-106.2916
 30
0.0
 10
107.6898
 20
-79.9477
 30
0.0
 10
107.6898
 20
-79.9477
 30
0.0
 10
107.6898
 20
-79.9477
 30
0.0
 10
103.4759
 20
-83.0989
 30
0.0
 10
103.685
 20
-91.3766
 30
0.0
 10
105.0786
 20
-96.5425
 30
0.0
 10
105.0786
 20
-96.5425
 30
0.0
 10
96.2025
 20
-95.4197
 30
0.0
 10
86.0943
 20
-99.8213
 30
0.0
 10
79.9544
 20
-106.2916
 30
0.0
 10
79.9544
 20
-106.2916
 30
0.0
 10
79.9544
 20
-106.2916
 30
0.0
 10
107.5139
 20
-106.2916
 30
0.0
 10
107.5139
 20
-106.2916
 30
0.0
  0
SPLINE
  5
49
330
1F
100
AcDbEntity
  8
layer 1
 62
     7
100
AcDbSpline
210
0.0
220
0.0
230
1.0
 70
    11
 71
     3
 72
    20
 73
    16
 74
     0
 42
0.0000000001
 43
0.0000000001
 12
1.0
 22
0.0
 32
0.0
 13
1.0
 23
0.0
 33
0.0
 40
0.0
 40
0.0
 40
0.0
 40
0.0
 40
0.2
 40
0.2
 40
0.2
 40
0.2
 40
0.4
 40
0.4
 40
0.4
 40
0.4
 40
0.6
 40
0.6
 40
0.6
 40
0.6
 40
1.0
 40
1.0
 40
1.0
 40
1.0
 10
107.5139
 20
-41.9023
 30
0.0
 10
107.5139
 20
-41.9023
 30
0.0
 10
107.6898
 20
-11.6949
 30
0.0
 10
107.6898
 20
-11.6949
 30
0.0
 10
107.6898
 20
-11.6949
 30
0.0
 10
105.1517
 20
-11.4614
 30
0.0
 10
103.6187
 20
-11.0572
 30
0.0
 10
101.5384
 20
-10.2033
 30
0.0
 10
101.5384
 20
-10.2033
 30
0.0
 10
97.4288
 20
-16.8363
 30
0.0
 10
89.4876
 20
-19.1933
 30
0.0
 10
86.0943
 20
-20.6546
 30
0.0
 10
86.0943
 20
-20.6546
 30
0.0
 10
86.0943
 20
-20.6546
 30
0.0
 10
107.5139
 20
-41.9023
 30
0.0
 10
107.5139
 20
-41.9023
 30
0.0
  0
SPLINE
  5
4A
330
1F
100
AcDbEntity
  8
layer 1
 62
     7
100
AcDbSpline
210
0.0
220
0.0
230
1.0
 70
    11
 71
     3
 72
    36
 73
    32
 74
     0
 42
0.0000000001
 43
0.0000000001
 12
1.0
 22
0.0
 32
0.0
 13
1.0
 23
0.0
 33
0.0
 40
0.0
 40
0.0
 40
0.0
 40
0.0
 40
0.1111111111111111
 40
0.1111111111111111
 40
0.1111111111111111
 40
0.1111111111111111
 40
0.2222222222222222
 40
0.2222222222222222
 40
0.2222222222222222
 40
0.2222222222222222
 40
0.3333333333333333
 40
0.3333333333333333
 40
0.3333333333333333
 40
0.3333333333333333
 40
0.4444444444444444
 40
0.4444444444444444
 40
0.4444444444444444
 40
0.4444444444444444
 40
0.5555555555555556
 40
0.5555555555555556
 40
0.5555555555555556
 40
0.5555555555555556
 40
0.6666666666666666
 40
0.6666666666666666
 40
0.6666666666666666
 40
0.6666666666666666
 40
0.7777777777777778
 40
0.7777777777777778
 40
0.7777777777777778
 40
0.7777777777777778
 40
1.0
 40
1.0
 40
1.0
 40
1.0
 10
34.3733
 20
-69.2134
 30
0.0
 10
34.3733
 20
-69.2134
 30
0.0
 10
34.3733
 20
-82.1463
 30
0.0
 10
34.3733
 20
-82.1463
 30
0.0
 10
34.3733
 20
-82.1463
 30
0.0
 10
34.3733
 20
-82.1463
 30
0.0
 10
42.9439
 20
-82.1463
 30
0.0
 10
42.9439
 20
-82.1463
 30
0.0
 10
42.9439
 20
-82.1463
 30
0.0
 10
42.9439
 20
-82.1463
 30
0.0
 10
42.9084
 20
-73.7313
 30
0.0
 10
42.9084
 20
-73.7313
 30
0.0
 10
42.9084
 20
-73.7313
 30
0.0
 10
42.9084
 20
-73.7313
 30
0.0
 10
59.9351
 20
-73.7316
 30
0.0
 10
59.9351
 20
-73.7316
 30
0.0
 10
59.9351
 20
-73.7316
 30
0.0
 10
59.9351
 20
-73.7316
 30
0.0
 10
72.6635
 20
-60.9494
 30
0.0
 10
72.6635
 20
-60.9494
 30
0.0
 10
72.6635
 20
-60.9494
 30
0.0
 10
66.4093
 20
-57.5526
 30
0.0
 10
61.4114
 20
-53.9714
 30
0.0
 10
55.5016
 20
-48.48
 30
0.0
 10
55.5016
 20
-48.48
 30
0.0
 10
48.4332
 20
-55.404
 30
0.0
 10
41.4417
 20
-62.2895
 30
0.0
 10
34.3733
 20
-69.2133
 30
0.0
 10
34.3733
 20
-69.2133
 30
0.0
 10
34.3733
 20
-69.2133
 30
0.0
 10
34.3733
 20
-69.2134
 30
0.0
 10
34.3733
 20
-69.2134
 30
0.0
  0
SPLINE
  5
4B
330
1F
100
AcDbEntity
  8
layer 1
 62
     7
100
AcDbSpline
210
0.0
220
0.0
230
1.0
 70
    11
 71
     3
 72
    20
 73
    16
 74
     0
 42
0.0000000001
 43
0.0000000001
 12
1.0
 22
0.0
 32
0.0
 13
1.0
 23
0.0
 33
0.0
 40
0.0
 40
0.0
 40
0.0
 40
0.0
 40
0.2
 40
0.2
 40
0.2
 40
0.2
 40
0.4
 40
0.4
 40
0.4
 40
0.4
 40
0.6
 40
0.6
 40
0.6
 40
0.6
 40
1.0
 40
1.0
 40
1.0
 40
1.0
 10
30.1384
 20
6.5757
 30
0.0
 10
30.1384
 20
6.5757
 30
0.0
 10
30.1384
 20
-67.7901
 30
0.0
 10
30.1384
 20
-67.7901
 30
0.0
 10
30.1384
 20
-67.7901
 30
0.0
 10
30.1384
 20
-67.7901
 30
0.0
 10
52.4711
 20
-45.4666
 30
0.0
 10
52.4711
 20
-45.4666
 30
0.0
 10
52.4711
 20
-45.4666
 30
0.0
 10
46.3374
 20
-39.0547
 30
0.0
 10
31.7691
 20
-21.1583
 30
0.0
 10
31.1056
 20
6.5238
 30
0.0
 10
31.1056
 20
6.5238
 30
0.0
 10
30.9967
 20
7.0292
 30
0.0
 10
30.2089
 20
6.948
 30
0.0
 10
30.1384
 20
6.5757
 30
0.0
  0
SPLINE
  5
4C
330
1F
100
AcDbEntity
  8
layer 1
 62
     7
100
AcDbSpline
210
0.0
220
0.0
230
1.0
 70
    11
 71
     3
 72
    20
 73
    16
 74
     0
 42
0.0000000001
 43
0.0000000001
 12
1.0
 22
0.0
 32
0.0
 13
1.0
 23
0.0
 33
0.0
 40
0.0
 40
0.0
 40
0.0
 40
0.0
 40
0.2
 40
0.2
 40
0.2
 40
0.2
 40
0.4
 40
0.4
 40
0.4
 40
0.4
 40
0.6
 40
0.6
 40
0.6
 40
0.6
 40
1.0
 40
1.0
 40
1.0
 40
1.0
 10
59.1161
 20
6.4955
 30
0.0
 10
59.1161
 20
6.4955
 30
0.0
 10
89.2758
 20
6.6238
 30
0.0
 10
89.2758
 20
6.6238
 30
0.0
 10
89.2758
 20
6.6238
 30
0.0
 10
89.4617
 20
4.2763
 30
0.0
 10
89.8659
 20
2.648
 30
0.0
 10
90.7674
 20
0.2818
 30
0.0
 10
90.7674
 20
0.2818
 30
0.0
 10
84.1344
 20
-3.8278
 30
0.0
 10
81.8251
 20
-11.5308
 30
0.0
 10
80.3637
 20
-14.924
 30
0.0
 10
80.3637
 20
-14.924
 30
0.0
 10
80.3637
 20
-14.924
 30
0.0
 10
59.1161
 20
6.4955
 30
0.0
 10
59.1161
 20
6.4955
 30
0.0
  0
SPLINE
  5
4D
330
1F
100
AcDbEntity
  8
layer 1
 62
     7
100
AcDbSpline
210
0.0
220
0.0
230
1.0
 70
    11
 71
     3
 72
    20
 73
    16
 74
     0
 42
0.0000000001
 43
0.0000000001
 12
1.0
 22
0.0
 32
0.0
 13
1.0
 23
0.0
 33
0.0
 40
0.0
 40
0.0
 40
0.0
 40
0.0
 40
0.2
 40
0.2
 40
0.2
 40
0.2
 40
0.4
 40
0.4
 40
0.4
 40
0.4
 40
0.6
 40
0.6
 40
0.6
 40
0.6
 40
1.0
 40
1.0
 40
1.0
 40
1.0
 10
74.8942
 20
-22.8052
 30
0.0
 10
74.8942
 20
-22.8052
 30
0.0
 10
55.488
 20
-42.1736
 30
0.0
 10
55.488
 20
-42.1736
 30
0.0
 10
55.488
 20
-42.1736
 30
0.0
 10
46.285
 20
-31.7225
 30
0.0
 10
37.401
 20
-18.0283
 30
0.0
 10
35.6138
 20
3.7461
 30
0.0
 10
35.6138
 20
3.7461
 30
0.0
 10
42.717
 20
-3.6179
 30
0.0
 10
45.384
 20
-9.8679
 30
0.0
 10
51.1988
 20
-14.432
 30
0.0
 10
51.1988
 20
-14.432
 30
0.0
 10
57.1198
 20
-19.0794
 30
0.0
 10
63.9731
 20
-22.6787
 30
0.0
 10
74.8942
 20
-22.8052
 30
0.0
  0
SPLINE
  5
4E
330
1F
100
AcDbEntity
  8
layer 1
 62
     7
100
AcDbSpline
210
0.0
220
0.0
230
1.0
 70
    11
 71
     3
 72
    20
 73
    16
 74
     0
 42
0.0000000001
 43
0.0000000001
 12
1.0
 22
0.0
 32
0.0
 13
1.0
 23
0.0
 33
0.0
 40
0.0
 40
0.0
 40
0.0
 40
0.0
 40
0.2
 40
0.2
 40
0.2
 40
0.2
 40
0.4
 40
0.4
 40
0.4
 40
0.4
 40
0.6
 40
0.6
 40
0.6
 40
0.6
 40
1.0
 40
1.0
 40
1.0
 40
1.0
 10
38.9489
 20
6.4123
 30
0.0
 10
38.9489
 20
6.4123
 30
0.0
 10
53.0351
 20
6.4123
 30
0.0
 10
53.0351
 20
6.4123
 30
0.0
 10
53.0351
 20
6.4123
 30
0.0
 10
53.0351
 20
6.4123
 30
0.0
 10
78.3394
 20
-18.6415
 30
0.0
 10
78.3394
 20
-18.6415
 30
0.0
 10
78.3394
 20
-18.6415
 30
0.0
 10
65.0761
 20
-18.1965
 30
0.0
 10
59.4917
 20
-15.3035
 30
0.0
 10
54.3388
 20
-11.2622
 30
0.0
 10
54.3388
 20
-11.2622
 30
0.0
 10
47.9688
 20
-6.2664
 30
0.0
 10
44.1457
 20
0.8332
 30
0.0
 10
38.9489
 20
6.4123
 30
0.0
  0
SPLINE
  5
4F
330
1F
100
AcDbEntity
  8
layer 1
 62
     7
100
AcDbSpline
210
0.0
220
0.0
230
1.0
 70
    11
 71
     3
 72
    16
 73
    12
 74
     0
 42
0.0000000001
 43
0.0000000001
 12
1.0
 22
0.0
 32
0.0
 13
1.0
 23
0.0
 33
0.0
 40
0.0
 40
0.0
 40
0.0
 40
0.0
 40
0.25
 40
0.25
 40
0.25
 40
0.25
 40
0.5
 40
0.5
 40
0.5
 40
0.5
 40
1.0
 40
1.0
 40
1.0
 40
1.0
 10
107.6898
 20
-8.0246
 30
0.0
 10
107.6898
 20
-8.0246
 30
0.0
 10
107.6898
 20
3.9901
 30
0.0
 10
107.6898
 20
3.9901
 30
0.0
 10
107.6898
 20
3.9901
 30
0.0
 10
107.6898
 20
3.9901
 30
0.0
 10
99.0308
 20
-4.3522
 30
0.0
 10
99.0308
 20
-4.3522
 30
0.0
 10
99.0308
 20
-4.3522
 30
0.0
 10
100.5518
 20
-5.6209
 30
0.0
 10
103.273
 20
-7.5254
 30
0.0
 10
107.6898
 20
-8.0246
 30
0.0
  0
SPLINE
  5
50
330
1F
100
AcDbEntity
  8
layer 1
 62
     7
100
AcDbSpline
210
0.0
220
0.0
230
1.0
 70
    11
 71
     3
 72
    16
 73
    12
 74
     0
 42
0.0000000001
 43
0.0000000001
 12
1.0
 22
0.0
 32
0.0
 13
1.0
 23
0.0
 33
0.0
 40
0.0
 40
0.0
 40
0.0
 40
0.0
 40
0.25
 40
0.25
 40
0.25
 40
0.25
 40
0.5
 40
0.5
 40
0.5
 40
0.5
 40
1.0
 40
1.0
 40
1.0
 40
1.0
 10
96.5723
 20
-7.3189
 30
0.0
 10
96.5723
 20
-7.3189
 30
0.0
 10
88.2135
 20
-15.105
 30
0.0
 10
88.2135
 20
-15.105
 30
0.0
 10
88.2135
 20
-15.105
 30
0.0
 10
91.526
 20
-13.3567
 30
0.0
 10
95.1335
 20
-11.5103
 30
0.0
 10
97.7084
 20
-8.0904
 30
0.0
 10
97.7084
 20
-8.0904
 30
0.0
 10
97.2692
 20
-7.9033
 30
0.0
 10
96.9572
 20
-7.6706
 30
0.0
 10
96.5723
 20
-7.3189
 30
0.0
  0
SPLINE
  5
51
330
1F
100
AcDbEntity
  8
layer 1
 62
     7
100
AcDbSpline
210
0.0
220
0.0
230
1.0
 70
    11
 71
     3
 72
    16
 73
    12
 74
     0
 42
0.0000000001
 43
0.0000000001
 12
1.0
 22
0.0
 32
0.0
 13
1.0
 23
0.0
 33
0.0
 40
0.0
 40
0.0
 40
0.0
 40
0.0
 40
0.25
 40
0.25
 40
0.25
 40
0.25
 40
0.5
 40
0.5
 40
0.5
 40
0.5
 40
1.0
 40
1.0
 40
1.0
 40
1.0
 10
93.4122
 20
-4.0112
 30
0.0
 10
93.4122
 20
-4.0112
 30
0.0
 10
85.6261
 20
-12.37
 30
0.0
 10
85.6261
 20
-12.37
 30
0.0
 10
85.6261
 20
-12.37
 30
0.0
 10
87.3743
 20
-9.0575
 30
0.0
 10
89.2207
 20
-5.45
 30
0.0
 10
92.6407
 20
-2.8751
 30
0.0
 10
92.6407
 20
-2.8751
 30
0.0
 10
92.8277
 20
-3.3144
 30
0.0
 10
93.0604
 20
-3.6263
 30
0.0
 10
93.4122
 20
-4.0112
 30
0.0
  0
SPLINE
  5
52
330
1F
100
AcDbEntity
  8
layer 1
 62
     7
100
AcDbSpline
210
0.0
220
0.0
230
1.0
 70
    11
 71
     3
 72
    16
 73
    12
 74
     0
 42
0.0000000001
 43
0.0000000001
 12
1.0
 22
0.0
 32
0.0
 13
1.0
 23
0.0
 33
0.0
 40
0.0
 40
0.0
 40
0.0
 40
0.0
 40
0.25
 40
0.25
 40
0.25
 40
0.25
 40
0.5
 40
0.5
 40
0.5
 40
0.5
 40
1.0
 40
1.0
 40
1.0
 40
1.0
 10
93.1736
 20
6.4424
 30
0.0
 10
93.1736
 20
6.4424
 30
0.0
 10
104.1557
 20
6.4424
 30
0.0
 10
104.1557
 20
6.4424
 30
0.0
 10
104.1557
 20
6.4424
 30
0.0
 10
104.1557
 20
6.4424
 30
0.0
 10
96.1577
 20
-1.2824
 30
0.0
 10
96.1577
 20
-1.2824
 30
0.0
 10
96.1577
 20
-1.2824
 30
0.0
 10
94.889
 20
0.6812
 30
0.0
 10
93.722
 20
2.4681
 30
0.0
 10
93.1736
 20
6.4424
 30
0.0
  0
SPLINE
  5
53
330
1F
100
AcDbEntity
  8
layer 1
 62
     7
100
AcDbSpline
210
0.0
220
0.0
230
1.0
 70
    11
 71
     3
 72
    20
 73
    16
 74
     0
 42
0.0000000001
 43
0.0000000001
 12
1.0
 22
0.0
 32
0.0
 13
1.0
 23
0.0
 33
0.0
 40
0.0
 40
0.0
 40
0.0
 40
0.0
 40
0.2
 40
0.2
 40
0.2
 40
0.2
 40
0.4
 40
0.4
 40
0.4
 40
0.4
 40
0.6
 40
0.6
 40
0.6
 40
0.6
 40
1.0
 40
1.0
 40
1.0
 40
1.0
 10
78.4724
 20
43.0432
 30
0.0
 10
78.4724
 20
43.0432
 30
0.0
 10
59.1039
 20
62.4495
 30
0.0
 10
59.1039
 20
62.4495
 30
0.0
 10
59.1039
 20
62.4495
 30
0.0
 10
69.555
 20
71.6525
 30
0.0
 10
83.2493
 20
80.5364
 30
0.0
 10
105.0236
 20
82.3236
 30
0.0
 10
105.0236
 20
82.3236
 30
0.0
 10
97.6596
 20
75.2204
 30
0.0
 10
91.4096
 20
72.5535
 30
0.0
 10
86.8456
 20
66.7387
 30
0.0
 10
86.8456
 20
66.7387
 30
0.0
 10
82.1982
 20
60.8177
 30
0.0
 10
78.5988
 20
53.9643
 30
0.0
 10
78.4724
 20
43.0432
 30
0.0
  0
SPLINE
  5
54
330
1F
100
AcDbEntity
  8
layer 1
 62
     7
100
AcDbSpline
210
0.0
220
0.0
230
1.0
 70
    11
 71
     3
 72
    20
 73
    16
 74
     0
 42
0.0000000001
 43
0.0000000001
 12
1.0
 22
0.0
 32
0.0
 13
1.0
 23
0.0
 33
0.0
 40
0.0
 40
0.0
 40
0.0
 40
0.0
 40
0.2
 40
0.2
 40
0.2
 40
0.2
 40
0.4
 40
0.4
 40
0.4
 40
0.4
 40
0.6
 40
0.6
 40
0.6
 40
0.6
 40
1.0
 40
1.0
 40
1.0
 40
1.0
 10
107.6898
 20
78.9884
 30
0.0
 10
107.6898
 20
78.9884
 30
0.0
 10
107.6898
 20
64.9022
 30
0.0
 10
107.6898
 20
64.9022
 30
0.0
 10
107.6898
 20
64.9022
 30
0.0
 10
107.6898
 20
64.9022
 30
0.0
 10
82.6361
 20
39.5979
 30
0.0
 10
82.6361
 20
39.5979
 30
0.0
 10
82.6361
 20
39.5979
 30
0.0
 10
83.081
 20
52.8612
 30
0.0
 10
85.9741
 20
58.4456
 30
0.0
 10
90.0154
 20
63.5985
 30
0.0
 10
90.0154
 20
63.5985
 30
0.0
 10
95.0111
 20
69.9685
 30
0.0
 10
102.1107
 20
73.7916
 30
0.0
 10
107.6898
 20
78.9884
 30
0.0
  0
SPLINE
  5
55
330
1F
100
AcDbEntity
  8
layer 1
 62
     7
100
AcDbSpline
210
0.0
220
0.0
230
1.0
 70
    11
 71
     3
 72
    28
 73
    24
 74
     0
 42
0.0000000001
 43
0.0000000001
 12
1.0
 22
0.0
 32
0.0
 13
1.0
 23
0.0
 33
0.0
 40
0.0
 40
0.0
 40
0.0
 40
0.0
 40
0.1428571428571428
 40
0.1428571428571428
 40
0.1428571428571428
 40
0.1428571428571428
 40
0.2857142857142857
 40
0.2857142857142857
 40
0.2857142857142857
 40
0.2857142857142857
 40
0.4285714285714285
 40
0.4285714285714285
 40
0.4285714285714285
 40
0.4285714285714285
 40
0.5714285714285714
 40
0.5714285714285714
 40
0.5714285714285714
 40
0.5714285714285714
 40
0.7142857142857143
 40
0.7142857142857143
 40
0.7142857142857143
 40
0.7142857142857143
 40
1.0
 40
1.0
 40
1.0
 40
1.0
 10
34.3733
 20
119.1774
 30
0.0
 10
34.3733
 20
119.1774
 30
0.0
 10
34.3733
 20
102.7672
 30
0.0
 10
34.3733
 20
102.7672
 30
0.0
 10
34.3733
 20
102.7672
 30
0.0
 10
34.3733
 20
102.7672
 30
0.0
 10
42.9439
 20
102.7672
 30
0.0
 10
42.9439
 20
102.7672
 30
0.0
 10
42.9439
 20
102.7672
 30
0.0
 10
42.9439
 20
102.7672
 30
0.0
 10
42.9084
 20
110.5859
 30
0.0
 10
42.9084
 20
110.5859
 30
0.0
 10
42.9084
 20
110.5859
 30
0.0
 10
42.9084
 20
110.5859
 30
0.0
 10
50.6953
 20
110.5859
 30
0.0
 10
50.6953
 20
110.5859
 30
0.0
 10
50.6953
 20
110.5859
 30
0.0
 10
50.6953
 20
110.5859
 30
0.0
 10
50.6953
 20
119.1776
 30
0.0
 10
50.6953
 20
119.1776
 30
0.0
 10
50.6953
 20
119.1776
 30
0.0
 10
50.6953
 20
119.1776
 30
0.0
 10
34.3733
 20
119.1774
 30
0.0
 10
34.3733
 20
119.1774
 30
0.0
  0
SPLINE
  5
56
330
1F
100
AcDbEntity
  8
layer 1
 62
     7
100
AcDbSpline
210
0.0
220
0.0
230
1.0
 70
    11
 71
     3
 72
    20
 73
    16
 74
     0
 42
0.0000000001
 43
0.0000000001
 12
1.0
 22
0.0
 32
0.0
 13
1.0
 23
0.0
 33
0.0
 40
0.0
 40
0.0
 40
0.0
 40
0.0
 40
0.2
 40
0.2
 40
0.2
 40
0.2
 40
0.4
 40
0.4
 40
0.4
 40
0.4
 40
0.6
 40
0.6
 40
0.6
 40
0.6
 40
1.0
 40
1.0
 40
1.0
 40
1.0
 10
46.722
 20
106.8286
 30
0.0
 10
46.722
 20
106.8286
 30
0.0
 10
46.722
 20
102.7641
 30
0.0
 10
46.722
 20
102.7641
 30
0.0
 10
46.722
 20
102.7641
 30
0.0
 10
46.722
 20
102.7641
 30
0.0
 10
50.7647
 20
102.7641
 30
0.0
 10
50.7647
 20
102.7641
 30
0.0
 10
50.7647
 20
102.7641
 30
0.0
 10
50.7647
 20
102.7641
 30
0.0
 10
50.7647
 20
106.8286
 30
0.0
 10
50.7647
 20
106.8286
 30
0.0
 10
50.7647
 20
106.8286
 30
0.0
 10
50.7647
 20
106.8286
 30
0.0
 10
46.722
 20
106.8286
 30
0.0
 10
46.722
 20
106.8286
 30
0.0
  0
SPLINE
  5
57
330
1F
100
AcDbEntity
  8
layer 1
 62
     7
100
AcDbSpline
210
0.0
220
0.0
230
1.0
 70
    11
 71
     3
 72
    28
 73
    24
 74
     0
 42
0.0000000001
 43
0.0000000001
 12
1.0
 22
0.0
 32
0.0
 13
1.0
 23
0.0
 33
0.0
 40
0.0
 40
0.0
 40
0.0
 40
0.0
 40
0.1428571428571428
 40
0.1428571428571428
 40
0.1428571428571428
 40
0.1428571428571428
 40
0.2857142857142857
 40
0.2857142857142857
 40
0.2857142857142857
 40
0.2857142857142857
 40
0.4285714285714285
 40
0.4285714285714285
 40
0.4285714285714285
 40
0.4285714285714285
 40
0.5714285714285714
 40
0.5714285714285714
 40
0.5714285714285714
 40
0.5714285714285714
 40
0.7142857142857143
 40
0.7142857142857143
 40
0.7142857142857143
 40
0.7142857142857143
 40
1.0
 40
1.0
 40
1.0
 40
1.0
 10
59.2016
 20
94.5167
 30
0.0
 10
59.2016
 20
94.5167
 30
0.0
 10
59.2016
 20
106.9693
 30
0.0
 10
59.2016
 20
106.9693
 30
0.0
 10
59.2016
 20
106.9693
 30
0.0
 10
59.2016
 20
106.9693
 30
0.0
 10
54.6975
 20
106.9693
 30
0.0
 10
54.6975
 20
106.9693
 30
0.0
 10
54.6975
 20
106.9693
 30
0.0
 10
54.6975
 20
106.9693
 30
0.0
 10
54.7076
 20
99.3093
 30
0.0
 10
54.7076
 20
99.3093
 30
0.0
 10
54.7076
 20
99.3093
 30
0.0
 10
54.7076
 20
99.3093
 30
0.0
 10
46.816
 20
99.3511
 30
0.0
 10
46.816
 20
99.3511
 30
0.0
 10
46.816
 20
99.3511
 30
0.0
 10
46.816
 20
99.3511
 30
0.0
 10
46.816
 20
94.5167
 30
0.0
 10
46.816
 20
94.5167
 30
0.0
 10
46.816
 20
94.5167
 30
0.0
 10
46.816
 20
94.5167
 30
0.0
 10
59.2016
 20
94.5167
 30
0.0
 10
59.2016
 20
94.5167
 30
0.0
  0
SPLINE
  5
58
330
1F
100
AcDbEntity
  8
layer 1
 62
     7
100
AcDbSpline
210
0.0
220
0.0
230
1.0
 70
    11
 71
     3
 72
    40
 73
    36
 74
     0
 42
0.0000000001
 43
0.0000000001
 12
1.0
 22
0.0
 32
0.0
 13
1.0
 23
0.0
 33
0.0
 40
0.0
 40
0.0
 40
0.0
 40
0.0
 40
0.1
 40
0.1
 40
0.1
 40
0.1
 40
0.2
 40
0.2
 40
0.2
 40
0.2
 40
0.3
 40
0.3
 40
0.3
 40
0.3
 40
0.4
 40
0.4
 40
0.4
 40
0.4
 40
0.5
 40
0.5
 40
0.5
 40
0.5
 40
0.6
 40
0.6
 40
0.6
 40
0.6
 40
0.7
 40
0.7
 40
0.7
 40
0.7
 40
0.8
 40
0.8
 40
0.8
 40
0.8
 40
1.0
 40
1.0
 40
1.0
 40
1.0
 10
77.9448
 20
119.1774
 30
0.0
 10
85.1663
 20
112.5385
 30
0.0
 10
93.5875
 20
110.5269
 30
0.0
 10
100.2948
 20
109.5436
 30
0.0
 10
100.2948
 20
109.5436
 30
0.0
 10
99.7321
 20
102.5568
 30
0.0
 10
101.5116
 20
95.3413
 30
0.0
 10
107.6899
 20
91.4963
 30
0.0
 10
107.6899
 20
91.4963
 30
0.0
 10
107.6899
 20
91.4963
 30
0.0
 10
107.6899
 20
87.1565
 30
0.0
 10
107.6899
 20
87.1565
 30
0.0
 10
107.6899
 20
87.1565
 30
0.0
 10
94.0236
 20
86.8043
 30
0.0
 10
83.3357
 20
83.0161
 30
0.0
 10
77.02
 20
80.0768
 30
0.0
 10
77.02
 20
80.0768
 30
0.0
 10
77.02
 20
80.0768
 30
0.0
 10
62.9191
 20
93.4554
 30
0.0
 10
62.9191
 20
93.4554
 30
0.0
 10
62.9191
 20
93.4554
 30
0.0
 10
62.9191
 20
93.4554
 30
0.0
 10
62.9545
 20
110.5858
 30
0.0
 10
62.9545
 20
110.5858
 30
0.0
 10
62.9545
 20
110.5858
 30
0.0
 10
62.9545
 20
110.5858
 30
0.0
 10
54.425
 20
110.5858
 30
0.0
 10
54.425
 20
110.5858
 30
0.0
 10
54.425
 20
110.5858
 30
0.0
 10
54.425
 20
110.5858
 30
0.0
 10
54.425
 20
119.1776
 30
0.0
 10
54.425
 20
119.1776
 30
0.0
 10
54.425
 20
119.1776
 30
0.0
 10
54.425
 20
119.1776
 30
0.0
 10
77.9448
 20
119.1774
 30
0.0
 10
77.9448
 20
119.1774
 30
0.0
  0
SPLINE
  5
59
330
1F
100
AcDbEntity
  8
layer 1
 62
     7
100
AcDbSpline
210
0.0
220
0.0
230
1.0
 70
    11
 71
     3
 72
    20
 73
    16
 74
     0
 42
0.0000000001
 43
0.0000000001
 12
1.0
 22
0.0
 32
0.0
 13
1.0
 23
0.0
 33
0.0
 40
0.0
 40
0.0
 40
0.0
 40
0.0
 40
0.2
 40
0.2
 40
0.2
 40
0.2
 40
0.4
 40
0.4
 40
0.4
 40
0.4
 40
0.6
 40
0.6
 40
0.6
 40
0.6
 40
1.0
 40
1.0
 40
1.0
 40
1.0
 10
107.5139
 20
123.324
 30
0.0
 10
107.5139
 20
123.324
 30
0.0
 10
107.6898
 20
96.9801
 30
0.0
 10
107.6898
 20
96.9801
 30
0.0
 10
107.6898
 20
96.9801
 30
0.0
 10
103.4759
 20
100.1313
 30
0.0
 10
103.685
 20
108.409
 30
0.0
 10
105.0786
 20
113.5749
 30
0.0
 10
105.0786
 20
113.5749
 30
0.0
 10
96.2025
 20
112.4521
 30
0.0
 10
86.0943
 20
116.8537
 30
0.0
 10
79.9544
 20
123.3239
 30
0.0
 10
79.9544
 20
123.3239
 30
0.0
 10
79.9544
 20
123.3239
 30
0.0
 10
107.5139
 20
123.324
 30
0.0
 10
107.5139
 20
123.324
 30
0.0
  0
SPLINE
  5
5A
330
1F
100
AcDbEntity
  8
layer 1
 62
     7
100
AcDbSpline
210
0.0
220
0.0
230
1.0
 70
    11
 71
     3
 72
    20
 73
    16
 74
     0
 42
0.0000000001
 43
0.0000000001
 12
1.0
 22
0.0
 32
0.0
 13
1.0
 23
0.0
 33
0.0
 40
0.0
 40
0.0
 40
0.0
 40
0.0
 40
0.2
 40
0.2
 40
0.2
 40
0.2
 40
0.4
 40
0.4
 40
0.4
 40
0.4
 40
0.6
 40
0.6
 40
0.6
 40
0.6
 40
1.0
 40
1.0
 40
1.0
 40
1.0
 10
107.5139
 20
58.9346
 30
0.0
 10
107.5139
 20
58.9346
 30
0.0
 10
107.6898
 20
28.7272
 30
0.0
 10
107.6898
 20
28.7272
 30
0.0
 10
107.6898
 20
28.7272
 30
0.0
 10
105.1517
 20
28.4937
 30
0.0
 10
103.6187
 20
28.0895
 30
0.0
 10
101.5384
 20
27.2356
 30
0.0
 10
101.5384
 20
27.2356
 30
0.0
 10
97.4288
 20
33.8686
 30
0.0
 10
89.4876
 20
36.2256
 30
0.0
 10
86.0943
 20
37.6869
 30
0.0
 10
86.0943
 20
37.6869
 30
0.0
 10
86.0943
 20
37.6869
 30
0.0
 10
107.5139
 20
58.9346
 30
0.0
 10
107.5139
 20
58.9346
 30
0.0
  0
SPLINE
  5
5B
330
1F
100
AcDbEntity
  8
layer 1
 62
     7
100
AcDbSpline
210
0.0
220
0.0
230
1.0
 70
    11
 71
     3
 72
    36
 73
    32
 74
     0
 42
0.0000000001
 43
0.0000000001
 12
1.0
 22
0.0
 32
0.0
 13
1.0
 23
0.0
 33
0.0
 40
0.0
 40
0.0
 40
0.0
 40
0.0
 40
0.1111111111111111
 40
0.1111111111111111
 40
0.1111111111111111
 40
0.1111111111111111
 40
0.2222222222222222
 40
0.2222222222222222
 40
0.2222222222222222
 40
0.2222222222222222
 40
0.3333333333333333
 40
0.3333333333333333
 40
0.3333333333333333
 40
0.3333333333333333
 40
0.4444444444444444
 40
0.4444444444444444
 40
0.4444444444444444
 40
0.4444444444444444
 40
0.5555555555555556
 40
0.5555555555555556
 40
0.5555555555555556
 40
0.5555555555555556
 40
0.6666666666666666
 40
0.6666666666666666
 40
0.6666666666666666
 40
0.6666666666666666
 40
0.7777777777777778
 40
0.7777777777777778
 40
0.7777777777777778
 40
0.7777777777777778
 40
1.0
 40
1.0
 40
1.0
 40
1.0
 10
34.3733
 20
86.2458
 30
0.0
 10
34.3733
 20
86.2458
 30
0.0
 10
34.3733
 20
99.1787
 30
0.0
 10
34.3733
 20
99.1787
 30
0.0
 10
34.3733
 20
99.1787
 30
0.0
 10
34.3733
 20
99.1787
 30
0.0
 10
42.9439
 20
99.1787
 30
0.0
 10
42.9439
 20
99.1787
 30
0.0
 10
42.9439
 20
99.1787
 30
0.0
 10
42.9439
 20
99.1787
 30
0.0
 10
42.9084
 20
90.7637
 30
0.0
 10
42.9084
 20
90.7637
 30
0.0
 10
42.9084
 20
90.7637
 30
0.0
 10
42.9084
 20
90.7637
 30
0.0
 10
59.9351
 20
90.764
 30
0.0
 10
59.9351
 20
90.764
 30
0.0
 10
59.9351
 20
90.764
 30
0.0
 10
59.9351
 20
90.764
 30
0.0
 10
72.6635
 20
77.9818
 30
0.0
 10
72.6635
 20
77.9818
 30
0.0
 10
72.6635
 20
77.9818
 30
0.0
 10
66.4093
 20
74.5849
 30
0.0
 10
61.4114
 20
71.0038
 30
0.0
 10
55.5016
 20
65.5124
 30
0.0
 10
55.5016
 20
65.5124
 30
0.0
 10
48.4332
 20
72.4363
 30
0.0
 10
41.4417
 20
79.3218
 30
0.0
 10
34.3733
 20
86.2457
 30
0.0
 10
34.3733
 20
86.2457
 30
0.0
 10
34.3733
 20
86.2457
 30
0.0
 10
34.3733
 20
86.2458
 30
0.0
 10
34.3733
 20
86.2458
 30
0.0
  0
SPLINE
  5
5C
330
1F
100
AcDbEntity
  8
layer 1
 62
     7
100
AcDbSpline
210
0.0
220
0.0
230
1.0
 70
    11
 71
     3
 72
    20
 73
    16
 74
     0
 42
0.0000000001
 43
0.0000000001
 12
1.0
 22
0.0
 32
0.0
 13
1.0
 23
0.0
 33
0.0
 40
0.0
 40
0.0
 40
0.0
 40
0.0
 40
0.2
 40
0.2
 40
0.2
 40
0.2
 40
0.4
 40
0.4
 40
0.4
 40
0.4
 40
0.6
 40
0.6
 40
0.6
 40
0.6
 40
1.0
 40
1.0
 40
1.0
 40
1.0
 10
30.1384
 20
10.4567
 30
0.0
 10
30.1384
 20
10.4567
 30
0.0
 10
30.1384
 20
84.8225
 30
0.0
 10
30.1384
 20
84.8225
 30
0.0
 10
30.1384
 20
84.8225
 30
0.0
 10
30.1384
 20
84.8225
 30
0.0
 10
52.4711
 20
62.499
 30
0.0
 10
52.4711
 20
62.499
 30
0.0
 10
52.4711
 20
62.499
 30
0.0
 10
46.3374
 20
56.0871
 30
0.0
 10
31.7691
 20
38.1907
 30
0.0
 10
31.1056
 20
10.5086
 30
0.0
 10
31.1056
 20
10.5086
 30
0.0
 10
30.9967
 20
10.0032
 30
0.0
 10
30.2089
 20
10.0844
 30
0.0
 10
30.1384
 20
10.4567
 30
0.0
  0
SPLINE
  5
5D
330
1F
100
AcDbEntity
  8
layer 1
 62
     7
100
AcDbSpline
210
0.0
220
0.0
230
1.0
 70
    11
 71
     3
 72
    20
 73
    16
 74
     0
 42
0.0000000001
 43
0.0000000001
 12
1.0
 22
0.0
 32
0.0
 13
1.0
 23
0.0
 33
0.0
 40
0.0
 40
0.0
 40
0.0
 40
0.0
 40
0.2
 40
0.2
 40
0.2
 40
0.2
 40
0.4
 40
0.4
 40
0.4
 40
0.4
 40
0.6
 40
0.6
 40
0.6
 40
0.6
 40
1.0
 40
1.0
 40
1.0
 40
1.0
 10
59.1161
 20
10.5369
 30
0.0
 10
59.1161
 20
10.5369
 30
0.0
 10
89.2758
 20
10.4086
 30
0.0
 10
89.2758
 20
10.4086
 30
0.0
 10
89.2758
 20
10.4086
 30
0.0
 10
89.4617
 20
12.7561
 30
0.0
 10
89.8659
 20
14.3844
 30
0.0
 10
90.7674
 20
16.7506
 30
0.0
 10
90.7674
 20
16.7506
 30
0.0
 10
84.1344
 20
20.8601
 30
0.0
 10
81.8251
 20
28.5631
 30
0.0
 10
80.3637
 20
31.9564
 30
0.0
 10
80.3637
 20
31.9564
 30
0.0
 10
80.3637
 20
31.9564
 30
0.0
 10
59.1161
 20
10.5369
 30
0.0
 10
59.1161
 20
10.5369
 30
0.0
  0
SPLINE
  5
5E
330
1F
100
AcDbEntity
  8
layer 1
 62
     7
100
AcDbSpline
210
0.0
220
0.0
230
1.0
 70
    11
 71
     3
 72
    20
 73
    16
 74
     0
 42
0.0000000001
 43
0.0000000001
 12
1.0
 22
0.0
 32
0.0
 13
1.0
 23
0.0
 33
0.0
 40
0.0
 40
0.0
 40
0.0
 40
0.0
 40
0.2
 40
0.2
 40
0.2
 40
0.2
 40
0.4
 40
0.4
 40
0.4
 40
0.4
 40
0.6
 40
0.6
 40
0.6
 40
0.6
 40
1.0
 40
1.0
 40
1.0
 40
1.0
 10
74.8942
 20
39.8376
 30
0.0
 10
74.8942
 20
39.8376
 30
0.0
 10
55.488
 20
59.206
 30
0.0
 10
55.488
 20
59.206
 30
0.0
 10
55.488
 20
59.206
 30
0.0
 10
46.285
 20
48.7549
 30
0.0
 10
37.401
 20
35.0607
 30
0.0
 10
35.6138
 20
13.2863
 30
0.0
 10
35.6138
 20
13.2863
 30
0.0
 10
42.717
 20
20.6503
 30
0.0
 10
45.384
 20
26.9003
 30
0.0
 10
51.1988
 20
31.4644
 30
0.0
 10
51.1988
 20
31.4644
 30
0.0
 10
57.1198
 20
36.1118
 30
0.0
 10
63.9731
 20
39.7111
 30
0.0
 10
74.8942
 20
39.8376
 30
0.0
  0
SPLINE
  5
5F
330
1F
100
AcDbEntity
  8
layer 1
 62
     7
100
AcDbSpline
210
0.0
220
0.0
230
1.0
 70
    11
 71
     3
 72
    24
 73
    20
 74
     0
 42
0.0000000001
 43
0.0000000001
 12
1.0
 22
0.0
 32
0.0
 13
1.0
 23
0.0
 33
0.0
 40
0.0
 40
0.0
 40
0.0
 40
0.0
 40
0.1666666666666667
 40
0.1666666666666667
 40
0.1666666666666667
 40
0.1666666666666667
 40
0.3333333333333333
 40
0.3333333333333333
 40
0.3333333333333333
 40
0.3333333333333333
 40
0.5
 40
0.5
 40
0.5
 40
0.5
 40
0.6666666666666666
 40
0.6666666666666666
 40
0.6666666666666666
 40
0.6666666666666666
 40
1.0
 40
1.0
 40
1.0
 40
1.0
 10
38.9489
 20
10.6201
 30
0.0
 10
38.9489
 20
10.6201
 30
0.0
 10
53.0351
 20
10.6201
 30
0.0
 10
53.0351
 20
10.6201
 30
0.0
 10
53.0351
 20
10.6201
 30
0.0
 10
53.0351
 20
10.6201
 30
0.0
 10
78.3394
 20
35.6739
 30
0.0
 10
78.3394
 20
35.6739
 30
0.0
 10
78.3394
 20
35.6739
 30
0.0
 10
65.0761
 20
35.2289
 30
0.0
 10
59.4917
 20
32.3358
 30
0.0
 10
54.3388
 20
28.2947
 30
0.0
 10
54.3388
 20
28.2947
 30
0.0
 10
47.9688
 20
23.2989
 30
0.0
 10
44.1457
 20
16.1993
 30
0.0
 10
38.9489
 20
10.6202
 30
0.0
 10
38.9489
 20
10.6202
 30
0.0
 10
38.9489
 20
10.6202
 30
0.0
 10
38.9489
 20
10.6201
 30
0.0
 10
38.9489
 20
10.6201
 30
0.0
  0
SPLINE
  5
60
330
1F
100
AcDbEntity
  8
layer 1
 62
     7
100
AcDbSpline
210
0.0
220
0.0
230
1.0
 70
    11
 71
     3
 72
    20
 73
    16
 74
     0
 42
0.0000000001
 43
0.0000000001
 12
1.0
 22
0.0
 32
0.0
 13
1.0
 23
0.0
 33
0.0
 40
0.0
 40
0.0
 40
0.0
 40
0.0
 40
0.2
 40
0.2
 40
0.2
 40
0.2
 40
0.4
 40
0.4
 40
0.4
 40
0.4
 40
0.6
 40
0.6
 40
0.6
 40
0.6
 40
1.0
 40
1.0
 40
1.0
 40
1.0
 10
107.6898
 20
25.0569
 30
0.0
 10
107.6898
 20
25.0569
 30
0.0
 10
107.6898
 20
13.0422
 30
0.0
 10
107.6898
 20
13.0422
 30
0.0
 10
107.6898
 20
13.0422
 30
0.0
 10
107.6898
 20
13.0422
 30
0.0
 10
99.0308
 20
21.3845
 30
0.0
 10
99.0308
 20
21.3845
 30
0.0
 10
99.0308
 20
21.3845
 30
0.0
 10
100.5518
 20
22.6532
 30
0.0
 10
103.273
 20
24.5577
 30
0.0
 10
107.6898
 20
25.057
 30
0.0
 10
107.6898
 20
25.057
 30
0.0
 10
107.6898
 20
25.057
 30
0.0
 10
107.6898
 20
25.0569
 30
0.0
 10
107.6898
 20
25.0569
 30
0.0
  0
SPLINE
  5
61
330
1F
100
AcDbEntity
  8
layer 1
 62
     7
100
AcDbSpline
210
0.0
220
0.0
230
1.0
 70
    11
 71
     3
 72
    16
 73
    12
 74
     0
 42
0.0000000001
 43
0.0000000001
 12
1.0
 22
0.0
 32
0.0
 13
1.0
 23
0.0
 33
0.0
 40
0.0
 40
0.0
 40
0.0
 40
0.0
 40
0.25
 40
0.25
 40
0.25
 40
0.25
 40
0.5
 40
0.5
 40
0.5
 40
0.5
 40
1.0
 40
1.0
 40
1.0
 40
1.0
 10
96.5723
 20
24.3513
 30
0.0
 10
96.5723
 20
24.3513
 30
0.0
 10
88.2135
 20
32.1373
 30
0.0
 10
88.2135
 20
32.1373
 30
0.0
 10
88.2135
 20
32.1373
 30
0.0
 10
91.526
 20
30.3892
 30
0.0
 10
95.1335
 20
28.5427
 30
0.0
 10
97.7084
 20
25.1228
 30
0.0
 10
97.7084
 20
25.1228
 30
0.0
 10
97.2692
 20
24.9357
 30
0.0
 10
96.9572
 20
24.703
 30
0.0
 10
96.5723
 20
24.3513
 30
0.0
  0
SPLINE
  5
62
330
1F
100
AcDbEntity
  8
layer 1
 62
     7
100
AcDbSpline
210
0.0
220
0.0
230
1.0
 70
    11
 71
     3
 72
    16
 73
    12
 74
     0
 42
0.0000000001
 43
0.0000000001
 12
1.0
 22
0.0
 32
0.0
 13
1.0
 23
0.0
 33
0.0
 40
0.0
 40
0.0
 40
0.0
 40
0.0
 40
0.25
 40
0.25
 40
0.25
 40
0.25
 40
0.5
 40
0.5
 40
0.5
 40
0.5
 40
1.0
 40
1.0
 40
1.0
 40
1.0
 10
93.4122
 20
21.0435
 30
0.0
 10
93.4122
 20
21.0435
 30
0.0
 10
85.6261
 20
29.4023
 30
0.0
 10
85.6261
 20
29.4023
 30
0.0
 10
85.6261
 20
29.4023
 30
0.0
 10
87.3743
 20
26.0898
 30
0.0
 10
89.2207
 20
22.4823
 30
0.0
 10
92.6407
 20
19.9074
 30
0.0
 10
92.6407
 20
19.9074
 30
0.0
 10
92.8277
 20
20.3467
 30
0.0
 10
93.0604
 20
20.6586
 30
0.0
 10
93.4122
 20
21.0435
 30
0.0
  0
SPLINE
  5
63
330
1F
100
AcDbEntity
  8
layer 1
 62
     7
100
AcDbSpline
210
0.0
220
0.0
230
1.0
 70
    11
 71
     3
 72
    16
 73
    12
 74
     0
 42
0.0000000001
 43
0.0000000001
 12
1.0
 22
0.0
 32
0.0
 13
1.0
 23
0.0
 33
0.0
 40
0.0
 40
0.0
 40
0.0
 40
0.0
 40
0.25
 40
0.25
 40
0.25
 40
0.25
 40
0.5
 40
0.5
 40
0.5
 40
0.5
 40
1.0
 40
1.0
 40
1.0
 40
1.0
 10
93.1736
 20
10.5899
 30
0.0
 10
93.1736
 20
10.5899
 30
0.0
 10
104.1557
 20
10.5899
 30
0.0
 10
104.1557
 20
10.5899
 30
0.0
 10
104.1557
 20
10.5899
 30
0.0
 10
104.1557
 20
10.5899
 30
0.0
 10
96.1577
 20
18.3147
 30
0.0
 10
96.1577
 20
18.3147
 30
0.0
 10
96.1577
 20
18.3147
 30
0.0
 10
94.889
 20
16.3511
 30
0.0
 10
93.722
 20
14.5642
 30
0.0
 10
93.1736
 20
10.5899
 30
0.0
  0
SPLINE
  5
64
330
1F
100
AcDbEntity
  8
layer 1
 62
     7
100
AcDbSpline
210
0.0
220
0.0
230
1.0
 70
    11
 71
     3
 72
    20
 73
    16
 74
     0
 42
0.0000000001
 43
0.0000000001
 12
1.0
 22
0.0
 32
0.0
 13
1.0
 23
0.0
 33
0.0
 40
0.0
 40
0.0
 40
0.0
 40
0.0
 40
0.2
 40
0.2
 40
0.2
 40
0.2
 40
0.4
 40
0.4
 40
0.4
 40
0.4
 40
0.6
 40
0.6
 40
0.6
 40
0.6
 40
1.0
 40
1.0
 40
1.0
 40
1.0
 10
140.5043
 20
-26.0108
 30
0.0
 10
140.5043
 20
-26.0108
 30
0.0
 10
159.8728
 20
-45.4171
 30
0.0
 10
159.8728
 20
-45.4171
 30
0.0
 10
159.8728
 20
-45.4171
 30
0.0
 10
149.4217
 20
-54.6201
 30
0.0
 10
135.7274
 20
-63.504
 30
0.0
 10
113.9531
 20
-65.2912
 30
0.0
 10
113.9531
 20
-65.2912
 30
0.0
 10
121.317
 20
-58.188
 30
0.0
 10
127.5671
 20
-55.5211
 30
0.0
 10
132.1311
 20
-49.7063
 30
0.0
 10
132.1311
 20
-49.7063
 30
0.0
 10
136.7785
 20
-43.7853
 30
0.0
 10
140.3778
 20
-36.9319
 30
0.0
 10
140.5043
 20
-26.0108
 30
0.0
  0
SPLINE
  5
65
330
1F
100
AcDbEntity
  8
layer 1
 62
     7
100
AcDbSpline
210
0.0
220
0.0
230
1.0
 70
    11
 71
     3
 72
    20
 73
    16
 74
     0
 42
0.0000000001
 43
0.0000000001
 12
1.0
 22
0.0
 32
0.0
 13
1.0
 23
0.0
 33
0.0
 40
0.0
 40
0.0
 40
0.0
 40
0.0
 40
0.2
 40
0.2
 40
0.2
 40
0.2
 40
0.4
 40
0.4
 40
0.4
 40
0.4
 40
0.6
 40
0.6
 40
0.6
 40
0.6
 40
1.0
 40
1.0
 40
1.0
 40
1.0
 10
111.2869
 20
-61.9561
 30
0.0
 10
111.2869
 20
-61.9561
 30
0.0
 10
111.2869
 20
-47.8699
 30
0.0
 10
111.2869
 20
-47.8699
 30
0.0
 10
111.2869
 20
-47.8699
 30
0.0
 10
111.2869
 20
-47.8699
 30
0.0
 10
136.3406
 20
-22.5656
 30
0.0
 10
136.3406
 20
-22.5656
 30
0.0
 10
136.3406
 20
-22.5656
 30
0.0
 10
135.8956
 20
-35.8289
 30
0.0
 10
133.0026
 20
-41.4133
 30
0.0
 10
128.9613
 20
-46.5662
 30
0.0
 10
128.9613
 20
-46.5662
 30
0.0
 10
123.9655
 20
-52.9362
 30
0.0
 10
116.8659
 20
-56.7593
 30
0.0
 10
111.2869
 20
-61.9561
 30
0.0
  0
SPLINE
  5
66
330
1F
100
AcDbEntity
  8
layer 1
 62
     7
100
AcDbSpline
210
0.0
220
0.0
230
1.0
 70
    11
 71
     3
 72
    28
 73
    24
 74
     0
 42
0.0000000001
 43
0.0000000001
 12
1.0
 22
0.0
 32
0.0
 13
1.0
 23
0.0
 33
0.0
 40
0.0
 40
0.0
 40
0.0
 40
0.0
 40
0.1428571428571428
 40
0.1428571428571428
 40
0.1428571428571428
 40
0.1428571428571428
 40
0.2857142857142857
 40
0.2857142857142857
 40
0.2857142857142857
 40
0.2857142857142857
 40
0.4285714285714285
 40
0.4285714285714285
 40
0.4285714285714285
 40
0.4285714285714285
 40
0.5714285714285714
 40
0.5714285714285714
 40
0.5714285714285714
 40
0.5714285714285714
 40
0.7142857142857143
 40
0.7142857142857143
 40
0.7142857142857143
 40
0.7142857142857143
 40
1.0
 40
1.0
 40
1.0
 40
1.0
 10
184.6034
 20
-102.145
 30
0.0
 10
184.6034
 20
-102.145
 30
0.0
 10
184.6034
 20
-85.7348
 30
0.0
 10
184.6034
 20
-85.7348
 30
0.0
 10
184.6034
 20
-85.7348
 30
0.0
 10
184.6034
 20
-85.7348
 30
0.0
 10
176.0329
 20
-85.7348
 30
0.0
 10
176.0329
 20
-85.7348
 30
0.0
 10
176.0329
 20
-85.7348
 30
0.0
 10
176.0329
 20
-85.7348
 30
0.0
 10
176.0683
 20
-93.5535
 30
0.0
 10
176.0683
 20
-93.5535
 30
0.0
 10
176.0683
 20
-93.5535
 30
0.0
 10
176.0683
 20
-93.5535
 30
0.0
 10
168.2815
 20
-93.5535
 30
0.0
 10
168.2815
 20
-93.5535
 30
0.0
 10
168.2815
 20
-93.5535
 30
0.0
 10
168.2815
 20
-93.5535
 30
0.0
 10
168.2815
 20
-102.1453
 30
0.0
 10
168.2815
 20
-102.1453
 30
0.0
 10
168.2815
 20
-102.1453
 30
0.0
 10
168.2815
 20
-102.1453
 30
0.0
 10
184.6034
 20
-102.145
 30
0.0
 10
184.6034
 20
-102.145
 30
0.0
  0
SPLINE
  5
67
330
1F
100
AcDbEntity
  8
layer 1
 62
     7
100
AcDbSpline
210
0.0
220
0.0
230
1.0
 70
    11
 71
     3
 72
    20
 73
    16
 74
     0
 42
0.0000000001
 43
0.0000000001
 12
1.0
 22
0.0
 32
0.0
 13
1.0
 23
0.0
 33
0.0
 40
0.0
 40
0.0
 40
0.0
 40
0.0
 40
0.2
 40
0.2
 40
0.2
 40
0.2
 40
0.4
 40
0.4
 40
0.4
 40
0.4
 40
0.6
 40
0.6
 40
0.6
 40
0.6
 40
1.0
 40
1.0
 40
1.0
 40
1.0
 10
172.2547
 20
-89.7963
 30
0.0
 10
172.2547
 20
-89.7963
 30
0.0
 10
172.2547
 20
-85.7318
 30
0.0
 10
172.2547
 20
-85.7318
 30
0.0
 10
172.2547
 20
-85.7318
 30
0.0
 10
172.2547
 20
-85.7318
 30
0.0
 10
168.212
 20
-85.7318
 30
0.0
 10
168.212
 20
-85.7318
 30
0.0
 10
168.212
 20
-85.7318
 30
0.0
 10
168.212
 20
-85.7318
 30
0.0
 10
168.212
 20
-89.7963
 30
0.0
 10
168.212
 20
-89.7963
 30
0.0
 10
168.212
 20
-89.7963
 30
0.0
 10
168.212
 20
-89.7963
 30
0.0
 10
172.2547
 20
-89.7963
 30
0.0
 10
172.2547
 20
-89.7963
 30
0.0
  0
SPLINE
  5
68
330
1F
100
AcDbEntity
  8
layer 1
 62
     7
100
AcDbSpline
210
0.0
220
0.0
230
1.0
 70
    11
 71
     3
 72
    28
 73
    24
 74
     0
 42
0.0000000001
 43
0.0000000001
 12
1.0
 22
0.0
 32
0.0
 13
1.0
 23
0.0
 33
0.0
 40
0.0
 40
0.0
 40
0.0
 40
0.0
 40
0.1428571428571428
 40
0.1428571428571428
 40
0.1428571428571428
 40
0.1428571428571428
 40
0.2857142857142857
 40
0.2857142857142857
 40
0.2857142857142857
 40
0.2857142857142857
 40
0.4285714285714285
 40
0.4285714285714285
 40
0.4285714285714285
 40
0.4285714285714285
 40
0.5714285714285714
 40
0.5714285714285714
 40
0.5714285714285714
 40
0.5714285714285714
 40
0.7142857142857143
 40
0.7142857142857143
 40
0.7142857142857143
 40
0.7142857142857143
 40
1.0
 40
1.0
 40
1.0
 40
1.0
 10
159.7751
 20
-77.4844
 30
0.0
 10
159.7751
 20
-77.4844
 30
0.0
 10
159.7751
 20
-89.937
 30
0.0
 10
159.7751
 20
-89.937
 30
0.0
 10
159.7751
 20
-89.937
 30
0.0
 10
159.7751
 20
-89.937
 30
0.0
 10
164.2792
 20
-89.937
 30
0.0
 10
164.2792
 20
-89.937
 30
0.0
 10
164.2792
 20
-89.937
 30
0.0
 10
164.2792
 20
-89.937
 30
0.0
 10
164.2691
 20
-82.277
 30
0.0
 10
164.2691
 20
-82.277
 30
0.0
 10
164.2691
 20
-82.277
 30
0.0
 10
164.2691
 20
-82.277
 30
0.0
 10
172.1607
 20
-82.3188
 30
0.0
 10
172.1607
 20
-82.3188
 30
0.0
 10
172.1607
 20
-82.3188
 30
0.0
 10
172.1607
 20
-82.3188
 30
0.0
 10
172.1607
 20
-77.4844
 30
0.0
 10
172.1607
 20
-77.4844
 30
0.0
 10
172.1607
 20
-77.4844
 30
0.0
 10
172.1607
 20
-77.4844
 30
0.0
 10
159.7751
 20
-77.4844
 30
0.0
 10
159.7751
 20
-77.4844
 30
0.0
  0
SPLINE
  5
69
330
1F
100
AcDbEntity
  8
layer 1
 62
     7
100
AcDbSpline
210
0.0
220
0.0
230
1.0
 70
    11
 71
     3
 72
    40
 73
    36
 74
     0
 42
0.0000000001
 43
0.0000000001
 12
1.0
 22
0.0
 32
0.0
 13
1.0
 23
0.0
 33
0.0
 40
0.0
 40
0.0
 40
0.0
 40
0.0
 40
0.1
 40
0.1
 40
0.1
 40
0.1
 40
0.2
 40
0.2
 40
0.2
 40
0.2
 40
0.3
 40
0.3
 40
0.3
 40
0.3
 40
0.4
 40
0.4
 40
0.4
 40
0.4
 40
0.5
 40
0.5
 40
0.5
 40
0.5
 40
0.6
 40
0.6
 40
0.6
 40
0.6
 40
0.7
 40
0.7
 40
0.7
 40
0.7
 40
0.8
 40
0.8
 40
0.8
 40
0.8
 40
1.0
 40
1.0
 40
1.0
 40
1.0
 10
141.0318
 20
-102.145
 30
0.0
 10
133.8103
 20
-95.5061
 30
0.0
 10
125.3892
 20
-93.4945
 30
0.0
 10
118.6818
 20
-92.5112
 30
0.0
 10
118.6818
 20
-92.5112
 30
0.0
 10
119.2446
 20
-85.5244
 30
0.0
 10
117.4651
 20
-78.3089
 30
0.0
 10
111.2868
 20
-74.4639
 30
0.0
 10
111.2868
 20
-74.4639
 30
0.0
 10
111.2868
 20
-74.4639
 30
0.0
 10
111.2868
 20
-70.1241
 30
0.0
 10
111.2868
 20
-70.1241
 30
0.0
 10
111.2868
 20
-70.1241
 30
0.0
 10
124.9531
 20
-69.7719
 30
0.0
 10
135.641
 20
-65.9837
 30
0.0
 10
141.9567
 20
-63.0444
 30
0.0
 10
141.9567
 20
-63.0444
 30
0.0
 10
141.9567
 20
-63.0444
 30
0.0
 10
156.0576
 20
-76.423
 30
0.0
 10
156.0576
 20
-76.423
 30
0.0
 10
156.0576
 20
-76.423
 30
0.0
 10
156.0576
 20
-76.423
 30
0.0
 10
156.0222
 20
-93.5534
 30
0.0
 10
156.0222
 20
-93.5534
 30
0.0
 10
156.0222
 20
-93.5534
 30
0.0
 10
156.0222
 20
-93.5534
 30
0.0
 10
164.5516
 20
-93.5534
 30
0.0
 10
164.5516
 20
-93.5534
 30
0.0
 10
164.5516
 20
-93.5534
 30
0.0
 10
164.5516
 20
-93.5534
 30
0.0
 10
164.5516
 20
-102.1452
 30
0.0
 10
164.5516
 20
-102.1452
 30
0.0
 10
164.5516
 20
-102.1452
 30
0.0
 10
164.5516
 20
-102.1452
 30
0.0
 10
141.0318
 20
-102.145
 30
0.0
 10
141.0318
 20
-102.145
 30
0.0
  0
SPLINE
  5
6A
330
1F
100
AcDbEntity
  8
layer 1
 62
     7
100
AcDbSpline
210
0.0
220
0.0
230
1.0
 70
    11
 71
     3
 72
    20
 73
    16
 74
     0
 42
0.0000000001
 43
0.0000000001
 12
1.0
 22
0.0
 32
0.0
 13
1.0
 23
0.0
 33
0.0
 40
0.0
 40
0.0
 40
0.0
 40
0.0
 40
0.2
 40
0.2
 40
0.2
 40
0.2
 40
0.4
 40
0.4
 40
0.4
 40
0.4
 40
0.6
 40
0.6
 40
0.6
 40
0.6
 40
1.0
 40
1.0
 40
1.0
 40
1.0
 10
111.4629
 20
-106.2916
 30
0.0
 10
111.4629
 20
-106.2916
 30
0.0
 10
111.2869
 20
-79.9477
 30
0.0
 10
111.2869
 20
-79.9477
 30
0.0
 10
111.2869
 20
-79.9477
 30
0.0
 10
115.5009
 20
-83.0989
 30
0.0
 10
115.2917
 20
-91.3766
 30
0.0
 10
113.8981
 20
-96.5425
 30
0.0
 10
113.8981
 20
-96.5425
 30
0.0
 10
122.7743
 20
-95.4197
 30
0.0
 10
132.8824
 20
-99.8213
 30
0.0
 10
139.0224
 20
-106.2916
 30
0.0
 10
139.0224
 20
-106.2916
 30
0.0
 10
139.0224
 20
-106.2916
 30
0.0
 10
111.4629
 20
-106.2916
 30
0.0
 10
111.4629
 20
-106.2916
 30
0.0
  0
SPLINE
  5
6B
330
1F
100
AcDbEntity
  8
layer 1
 62
     7
100
AcDbSpline
210
0.0
220
0.0
230
1.0
 70
    11
 71
     3
 72
    20
 73
    16
 74
     0
 42
0.0000000001
 43
0.0000000001
 12
1.0
 22
0.0
 32
0.0
 13
1.0
 23
0.0
 33
0.0
 40
0.0
 40
0.0
 40
0.0
 40
0.0
 40
0.2
 40
0.2
 40
0.2
 40
0.2
 40
0.4
 40
0.4
 40
0.4
 40
0.4
 40
0.6
 40
0.6
 40
0.6
 40
0.6
 40
1.0
 40
1.0
 40
1.0
 40
1.0
 10
111.4629
 20
-41.9023
 30
0.0
 10
111.4629
 20
-41.9023
 30
0.0
 10
111.2869
 20
-11.6949
 30
0.0
 10
111.2869
 20
-11.6949
 30
0.0
 10
111.2869
 20
-11.6949
 30
0.0
 10
113.825
 20
-11.4614
 30
0.0
 10
115.358
 20
-11.0572
 30
0.0
 10
117.4384
 20
-10.2033
 30
0.0
 10
117.4384
 20
-10.2033
 30
0.0
 10
121.548
 20
-16.8363
 30
0.0
 10
129.4892
 20
-19.1933
 30
0.0
 10
132.8824
 20
-20.6546
 30
0.0
 10
132.8824
 20
-20.6546
 30
0.0
 10
132.8824
 20
-20.6546
 30
0.0
 10
111.4629
 20
-41.9023
 30
0.0
 10
111.4629
 20
-41.9023
 30
0.0
  0
SPLINE
  5
6C
330
1F
100
AcDbEntity
  8
layer 1
 62
     7
100
AcDbSpline
210
0.0
220
0.0
230
1.0
 70
    11
 71
     3
 72
    36
 73
    32
 74
     0
 42
0.0000000001
 43
0.0000000001
 12
1.0
 22
0.0
 32
0.0
 13
1.0
 23
0.0
 33
0.0
 40
0.0
 40
0.0
 40
0.0
 40
0.0
 40
0.1111111111111111
 40
0.1111111111111111
 40
0.1111111111111111
 40
0.1111111111111111
 40
0.2222222222222222
 40
0.2222222222222222
 40
0.2222222222222222
 40
0.2222222222222222
 40
0.3333333333333333
 40
0.3333333333333333
 40
0.3333333333333333
 40
0.3333333333333333
 40
0.4444444444444444
 40
0.4444444444444444
 40
0.4444444444444444
 40
0.4444444444444444
 40
0.5555555555555556
 40
0.5555555555555556
 40
0.5555555555555556
 40
0.5555555555555556
 40
0.6666666666666666
 40
0.6666666666666666
 40
0.6666666666666666
 40
0.6666666666666666
 40
0.7777777777777778
 40
0.7777777777777778
 40
0.7777777777777778
 40
0.7777777777777778
 40
1.0
 40
1.0
 40
1.0
 40
1.0
 10
184.6034
 20
-69.2134
 30
0.0
 10
184.6034
 20
-69.2134
 30
0.0
 10
184.6034
 20
-82.1463
 30
0.0
 10
184.6034
 20
-82.1463
 30
0.0
 10
184.6034
 20
-82.1463
 30
0.0
 10
184.6034
 20
-82.1463
 30
0.0
 10
176.0329
 20
-82.1463
 30
0.0
 10
176.0329
 20
-82.1463
 30
0.0
 10
176.0329
 20
-82.1463
 30
0.0
 10
176.0329
 20
-82.1463
 30
0.0
 10
176.0683
 20
-73.7313
 30
0.0
 10
176.0683
 20
-73.7313
 30
0.0
 10
176.0683
 20
-73.7313
 30
0.0
 10
176.0683
 20
-73.7313
 30
0.0
 10
159.0416
 20
-73.7316
 30
0.0
 10
159.0416
 20
-73.7316
 30
0.0
 10
159.0416
 20
-73.7316
 30
0.0
 10
159.0416
 20
-73.7316
 30
0.0
 10
146.3132
 20
-60.9494
 30
0.0
 10
146.3132
 20
-60.9494
 30
0.0
 10
146.3132
 20
-60.9494
 30
0.0
 10
152.5675
 20
-57.5526
 30
0.0
 10
157.5654
 20
-53.9714
 30
0.0
 10
163.4751
 20
-48.48
 30
0.0
 10
163.4751
 20
-48.48
 30
0.0
 10
170.5436
 20
-55.404
 30
0.0
 10
177.535
 20
-62.2895
 30
0.0
 10
184.6034
 20
-69.2133
 30
0.0
 10
184.6034
 20
-69.2133
 30
0.0
 10
184.6034
 20
-69.2133
 30
0.0
 10
184.6034
 20
-69.2134
 30
0.0
 10
184.6034
 20
-69.2134
 30
0.0
  0
SPLINE
  5
6D
330
1F
100
AcDbEntity
  8
layer 1
 62
     7
100
AcDbSpline
210
0.0
220
0.0
230
1.0
 70
    11
 71
     3
 72
    20
 73
    16
 74
     0
 42
0.0000000001
 43
0.0000000001
 12
1.0
 22
0.0
 32
0.0
 13
1.0
 23
0.0
 33
0.0
 40
0.0
 40
0.0
 40
0.0
 40
0.0
 40
0.2
 40
0.2
 40
0.2
 40
0.2
 40
0.4
 40
0.4
 40
0.4
 40
0.4
 40
0.6
 40
0.6
 40
0.6
 40
0.6
 40
1.0
 40
1.0
 40
1.0
 40
1.0
 10
188.8383
 20
6.5757
 30
0.0
 10
188.8383
 20
6.5757
 30
0.0
 10
188.8383
 20
-67.7901
 30
0.0
 10
188.8383
 20
-67.7901
 30
0.0
 10
188.8383
 20
-67.7901
 30
0.0
 10
188.8383
 20
-67.7901
 30
0.0
 10
166.5056
 20
-45.4666
 30
0.0
 10
166.5056
 20
-45.4666
 30
0.0
 10
166.5056
 20
-45.4666
 30
0.0
 10
172.6392
 20
-39.0547
 30
0.0
 10
187.2076
 20
-21.1583
 30
0.0
 10
187.8711
 20
6.5238
 30
0.0
 10
187.8711
 20
6.5238
 30
0.0
 10
187.98
 20
7.0292
 30
0.0
 10
188.7677
 20
6.948
 30
0.0
 10
188.8383
 20
6.5757
 30
0.0
  0
SPLINE
  5
6E
330
1F
100
AcDbEntity
  8
layer 1
 62
     7
100
AcDbSpline
210
0.0
220
0.0
230
1.0
 70
    11
 71
     3
 72
    20
 73
    16
 74
     0
 42
0.0000000001
 43
0.0000000001
 12
1.0
 22
0.0
 32
0.0
 13
1.0
 23
0.0
 33
0.0
 40
0.0
 40
0.0
 40
0.0
 40
0.0
 40
0.2
 40
0.2
 40
0.2
 40
0.2
 40
0.4
 40
0.4
 40
0.4
 40
0.4
 40
0.6
 40
0.6
 40
0.6
 40
0.6
 40
1.0
 40
1.0
 40
1.0
 40
1.0
 10
159.8606
 20
6.4955
 30
0.0
 10
159.8606
 20
6.4955
 30
0.0
 10
129.7009
 20
6.6238
 30
0.0
 10
129.7009
 20
6.6238
 30
0.0
 10
129.7009
 20
6.6238
 30
0.0
 10
129.515
 20
4.2763
 30
0.0
 10
129.1107
 20
2.648
 30
0.0
 10
128.2092
 20
0.2818
 30
0.0
 10
128.2092
 20
0.2818
 30
0.0
 10
134.8422
 20
-3.8278
 30
0.0
 10
137.1515
 20
-11.5308
 30
0.0
 10
138.6129
 20
-14.924
 30
0.0
 10
138.6129
 20
-14.924
 30
0.0
 10
138.6129
 20
-14.924
 30
0.0
 10
159.8606
 20
6.4955
 30
0.0
 10
159.8606
 20
6.4955
 30
0.0
  0
SPLINE
  5
6F
330
1F
100
AcDbEntity
  8
layer 1
 62
     7
100
AcDbSpline
210
0.0
220
0.0
230
1.0
 70
    11
 71
     3
 72
    20
 73
    16
 74
     0
 42
0.0000000001
 43
0.0000000001
 12
1.0
 22
0.0
 32
0.0
 13
1.0
 23
0.0
 33
0.0
 40
0.0
 40
0.0
 40
0.0
 40
0.0
 40
0.2
 40
0.2
 40
0.2
 40
0.2
 40
0.4
 40
0.4
 40
0.4
 40
0.4
 40
0.6
 40
0.6
 40
0.6
 40
0.6
 40
1.0
 40
1.0
 40
1.0
 40
1.0
 10
144.0825
 20
-22.8052
 30
0.0
 10
144.0825
 20
-22.8052
 30
0.0
 10
163.4887
 20
-42.1736
 30
0.0
 10
163.4887
 20
-42.1736
 30
0.0
 10
163.4887
 20
-42.1736
 30
0.0
 10
172.6917
 20
-31.7225
 30
0.0
 10
181.5757
 20
-18.0283
 30
0.0
 10
183.3628
 20
3.7461
 30
0.0
 10
183.3628
 20
3.7461
 30
0.0
 10
176.2597
 20
-3.6179
 30
0.0
 10
173.5927
 20
-9.8679
 30
0.0
 10
167.7779
 20
-14.432
 30
0.0
 10
167.7779
 20
-14.432
 30
0.0
 10
161.8569
 20
-19.0794
 30
0.0
 10
155.0036
 20
-22.6787
 30
0.0
 10
144.0825
 20
-22.8052
 30
0.0
  0
SPLINE
  5
70
330
1F
100
AcDbEntity
  8
layer 1
 62
     7
100
AcDbSpline
210
0.0
220
0.0
230
1.0
 70
    11
 71
     3
 72
    20
 73
    16
 74
     0
 42
0.0000000001
 43
0.0000000001
 12
1.0
 22
0.0
 32
0.0
 13
1.0
 23
0.0
 33
0.0
 40
0.0
 40
0.0
 40
0.0
 40
0.0
 40
0.2
 40
0.2
 40
0.2
 40
0.2
 40
0.4
 40
0.4
 40
0.4
 40
0.4
 40
0.6
 40
0.6
 40
0.6
 40
0.6
 40
1.0
 40
1.0
 40
1.0
 40
1.0
 10
180.0278
 20
6.4123
 30
0.0
 10
180.0278
 20
6.4123
 30
0.0
 10
165.9416
 20
6.4123
 30
0.0
 10
165.9416
 20
6.4123
 30
0.0
 10
165.9416
 20
6.4123
 30
0.0
 10
165.9416
 20
6.4123
 30
0.0
 10
140.6372
 20
-18.6415
 30
0.0
 10
140.6372
 20
-18.6415
 30
0.0
 10
140.6372
 20
-18.6415
 30
0.0
 10
153.9006
 20
-18.1965
 30
0.0
 10
159.485
 20
-15.3035
 30
0.0
 10
164.6379
 20
-11.2622
 30
0.0
 10
164.6379
 20
-11.2622
 30
0.0
 10
171.0079
 20
-6.2664
 30
0.0
 10
174.8309
 20
0.8332
 30
0.0
 10
180.0278
 20
6.4123
 30
0.0
  0
SPLINE
  5
71
330
1F
100
AcDbEntity
  8
layer 1
 62
     7
100
AcDbSpline
210
0.0
220
0.0
230
1.0
 70
    11
 71
     3
 72
    16
 73
    12
 74
     0
 42
0.0000000001
 43
0.0000000001
 12
1.0
 22
0.0
 32
0.0
 13
1.0
 23
0.0
 33
0.0
 40
0.0
 40
0.0
 40
0.0
 40
0.0
 40
0.25
 40
0.25
 40
0.25
 40
0.25
 40
0.5
 40
0.5
 40
0.5
 40
0.5
 40
1.0
 40
1.0
 40
1.0
 40
1.0
 10
111.2869
 20
-8.0246
 30
0.0
 10
111.2869
 20
-8.0246
 30
0.0
 10
111.2869
 20
3.9901
 30
0.0
 10
111.2869
 20
3.9901
 30
0.0
 10
111.2869
 20
3.9901
 30
0.0
 10
111.2869
 20
3.9901
 30
0.0
 10
119.9459
 20
-4.3522
 30
0.0
 10
119.9459
 20
-4.3522
 30
0.0
 10
119.9459
 20
-4.3522
 30
0.0
 10
118.4249
 20
-5.6209
 30
0.0
 10
115.7037
 20
-7.5254
 30
0.0
 10
111.2869
 20
-8.0246
 30
0.0
  0
SPLINE
  5
72
330
1F
100
AcDbEntity
  8
layer 1
 62
     7
100
AcDbSpline
210
0.0
220
0.0
230
1.0
 70
    11
 71
     3
 72
    16
 73
    12
 74
     0
 42
0.0000000001
 43
0.0000000001
 12
1.0
 22
0.0
 32
0.0
 13
1.0
 23
0.0
 33
0.0
 40
0.0
 40
0.0
 40
0.0
 40
0.0
 40
0.25
 40
0.25
 40
0.25
 40
0.25
 40
0.5
 40
0.5
 40
0.5
 40
0.5
 40
1.0
 40
1.0
 40
1.0
 40
1.0
 10
122.4044
 20
-7.3189
 30
0.0
 10
122.4044
 20
-7.3189
 30
0.0
 10
130.7632
 20
-15.105
 30
0.0
 10
130.7632
 20
-15.105
 30
0.0
 10
130.7632
 20
-15.105
 30
0.0
 10
127.4507
 20
-13.3567
 30
0.0
 10
123.8432
 20
-11.5103
 30
0.0
 10
121.2682
 20
-8.0904
 30
0.0
 10
121.2682
 20
-8.0904
 30
0.0
 10
121.7075
 20
-7.9033
 30
0.0
 10
122.0195
 20
-7.6706
 30
0.0
 10
122.4044
 20
-7.3189
 30
0.0
  0
SPLINE
  5
73
330
1F
100
AcDbEntity
  8
layer 1
 62
     7
100
AcDbSpline
210
0.0
220
0.0
230
1.0
 70
    11
 71
     3
 72
    16
 73
    12
 74
     0
 42
0.0000000001
 43
0.0000000001
 12
1.0
 22
0.0
 32
0.0
 13
1.0
 23
0.0
 33
0.0
 40
0.0
 40
0.0
 40
0.0
 40
0.0
 40
0.25
 40
0.25
 40
0.25
 40
0.25
 40
0.5
 40
0.5
 40
0.5
 40
0.5
 40
1.0
 40
1.0
 40
1.0
 40
1.0
 10
125.5645
 20
-4.0112
 30
0.0
 10
125.5645
 20
-4.0112
 30
0.0
 10
133.3506
 20
-12.37
 30
0.0
 10
133.3506
 20
-12.37
 30
0.0
 10
133.3506
 20
-12.37
 30
0.0
 10
131.6024
 20
-9.0575
 30
0.0
 10
129.7559
 20
-5.45
 30
0.0
 10
126.336
 20
-2.8751
 30
0.0
 10
126.336
 20
-2.8751
 30
0.0
 10
126.149
 20
-3.3144
 30
0.0
 10
125.9163
 20
-3.6263
 30
0.0
 10
125.5645
 20
-4.0112
 30
0.0
  0
SPLINE
  5
74
330
1F
100
AcDbEntity
  8
layer 1
 62
     7
100
AcDbSpline
210
0.0
220
0.0
230
1.0
 70
    11
 71
     3
 72
    16
 73
    12
 74
     0
 42
0.0000000001
 43
0.0000000001
 12
1.0
 22
0.0
 32
0.0
 13
1.0
 23
0.0
 33
0.0
 40
0.0
 40
0.0
 40
0.0
 40
0.0
 40
0.25
 40
0.25
 40
0.25
 40
0.25
 40
0.5
 40
0.5
 40
0.5
 40
0.5
 40
1.0
 40
1.0
 40
1.0
 40
1.0
 10
125.8031
 20
6.4424
 30
0.0
 10
125.8031
 20
6.4424
 30
0.0
 10
114.821
 20
6.4424
 30
0.0
 10
114.821
 20
6.4424
 30
0.0
 10
114.821
 20
6.4424
 30
0.0
 10
114.821
 20
6.4424
 30
0.0
 10
122.819
 20
-1.2824
 30
0.0
 10
122.819
 20
-1.2824
 30
0.0
 10
122.819
 20
-1.2824
 30
0.0
 10
124.0877
 20
0.6812
 30
0.0
 10
125.2547
 20
2.4681
 30
0.0
 10
125.8031
 20
6.4424
 30
0.0
  0
SPLINE
  5
75
330
1F
100
AcDbEntity
  8
layer 1
 62
     7
100
AcDbSpline
210
0.0
220
0.0
230
1.0
 70
    11
 71
     3
 72
    20
 73
    16
 74
     0
 42
0.0000000001
 43
0.0000000001
 12
1.0
 22
0.0
 32
0.0
 13
1.0
 23
0.0
 33
0.0
 40
0.0
 40
0.0
 40
0.0
 40
0.0
 40
0.2
 40
0.2
 40
0.2
 40
0.2
 40
0.4
 40
0.4
 40
0.4
 40
0.4
 40
0.6
 40
0.6
 40
0.6
 40
0.6
 40
1.0
 40
1.0
 40
1.0
 40
1.0
 10
140.5043
 20
43.0432
 30
0.0
 10
140.5043
 20
43.0432
 30
0.0
 10
159.8728
 20
62.4495
 30
0.0
 10
159.8728
 20
62.4495
 30
0.0
 10
159.8728
 20
62.4495
 30
0.0
 10
149.4217
 20
71.6525
 30
0.0
 10
135.7274
 20
80.5364
 30
0.0
 10
113.9531
 20
82.3236
 30
0.0
 10
113.9531
 20
82.3236
 30
0.0
 10
121.317
 20
75.2204
 30
0.0
 10
127.5671
 20
72.5535
 30
0.0
 10
132.1311
 20
66.7387
 30
0.0
 10
132.1311
 20
66.7387
 30
0.0
 10
136.7785
 20
60.8177
 30
0.0
 10
140.3778
 20
53.9643
 30
0.0
 10
140.5043
 20
43.0432
 30
0.0
  0
SPLINE
  5
76
330
1F
100
AcDbEntity
  8
layer 1
 62
     7
100
AcDbSpline
210
0.0
220
0.0
230
1.0
 70
    11
 71
     3
 72
    20
 73
    16
 74
     0
 42
0.0000000001
 43
0.0000000001
 12
1.0
 22
0.0
 32
0.0
 13
1.0
 23
0.0
 33
0.0
 40
0.0
 40
0.0
 40
0.0
 40
0.0
 40
0.2
 40
0.2
 40
0.2
 40
0.2
 40
0.4
 40
0.4
 40
0.4
 40
0.4
 40
0.6
 40
0.6
 40
0.6
 40
0.6
 40
1.0
 40
1.0
 40
1.0
 40
1.0
 10
111.2869
 20
78.9884
 30
0.0
 10
111.2869
 20
78.9884
 30
0.0
 10
111.2869
 20
64.9022
 30
0.0
 10
111.2869
 20
64.9022
 30
0.0
 10
111.2869
 20
64.9022
 30
0.0
 10
111.2869
 20
64.9022
 30
0.0
 10
136.3406
 20
39.5979
 30
0.0
 10
136.3406
 20
39.5979
 30
0.0
 10
136.3406
 20
39.5979
 30
0.0
 10
135.8956
 20
52.8612
 30
0.0
 10
133.0026
 20
58.4456
 30
0.0
 10
128.9613
 20
63.5985
 30
0.0
 10
128.9613
 20
63.5985
 30
0.0
 10
123.9655
 20
69.9685
 30
0.0
 10
116.8659
 20
73.7916
 30
0.0
 10
111.2869
 20
78.9884
 30
0.0
  0
SPLINE
  5
77
330
1F
100
AcDbEntity
  8
layer 1
 62
     7
100
AcDbSpline
210
0.0
220
0.0
230
1.0
 70
    11
 71
     3
 72
    28
 73
    24
 74
     0
 42
0.0000000001
 43
0.0000000001
 12
1.0
 22
0.0
 32
0.0
 13
1.0
 23
0.0
 33
0.0
 40
0.0
 40
0.0
 40
0.0
 40
0.0
 40
0.1428571428571428
 40
0.1428571428571428
 40
0.1428571428571428
 40
0.1428571428571428
 40
0.2857142857142857
 40
0.2857142857142857
 40
0.2857142857142857
 40
0.2857142857142857
 40
0.4285714285714285
 40
0.4285714285714285
 40
0.4285714285714285
 40
0.4285714285714285
 40
0.5714285714285714
 40
0.5714285714285714
 40
0.5714285714285714
 40
0.5714285714285714
 40
0.7142857142857143
 40
0.7142857142857143
 40
0.7142857142857143
 40
0.7142857142857143
 40
1.0
 40
1.0
 40
1.0
 40
1.0
 10
184.6034
 20
119.1774
 30
0.0
 10
184.6034
 20
119.1774
 30
0.0
 10
184.6034
 20
102.7672
 30
0.0
 10
184.6034
 20
102.7672
 30
0.0
 10
184.6034
 20
102.7672
 30
0.0
 10
184.6034
 20
102.7672
 30
0.0
 10
176.0329
 20
102.7672
 30
0.0
 10
176.0329
 20
102.7672
 30
0.0
 10
176.0329
 20
102.7672
 30
0.0
 10
176.0329
 20
102.7672
 30
0.0
 10
176.0683
 20
110.5859
 30
0.0
 10
176.0683
 20
110.5859
 30
0.0
 10
176.0683
 20
110.5859
 30
0.0
 10
176.0683
 20
110.5859
 30
0.0
 10
168.2815
 20
110.5859
 30
0.0
 10
168.2815
 20
110.5859
 30
0.0
 10
168.2815
 20
110.5859
 30
0.0
 10
168.2815
 20
110.5859
 30
0.0
 10
168.2815
 20
119.1776
 30
0.0
 10
168.2815
 20
119.1776
 30
0.0
 10
168.2815
 20
119.1776
 30
0.0
 10
168.2815
 20
119.1776
 30
0.0
 10
184.6034
 20
119.1774
 30
0.0
 10
184.6034
 20
119.1774
 30
0.0
  0
SPLINE
  5
78
330
1F
100
AcDbEntity
  8
layer 1
 62
     7
100
AcDbSpline
210
0.0
220
0.0
230
1.0
 70
    11
 71
     3
 72
    20
 73
    16
 74
     0
 42
0.0000000001
 43
0.0000000001
 12
1.0
 22
0.0
 32
0.0
 13
1.0
 23
0.0
 33
0.0
 40
0.0
 40
0.0
 40
0.0
 40
0.0
 40
0.2
 40
0.2
 40
0.2
 40
0.2
 40
0.4
 40
0.4
 40
0.4
 40
0.4
 40
0.6
 40
0.6
 40
0.6
 40
0.6
 40
1.0
 40
1.0
 40
1.0
 40
1.0
 10
172.2547
 20
106.8286
 30
0.0
 10
172.2547
 20
106.8286
 30
0.0
 10
172.2547
 20
102.7641
 30
0.0
 10
172.2547
 20
102.7641
 30
0.0
 10
172.2547
 20
102.7641
 30
0.0
 10
172.2547
 20
102.7641
 30
0.0
 10
168.212
 20
102.7641
 30
0.0
 10
168.212
 20
102.7641
 30
0.0
 10
168.212
 20
102.7641
 30
0.0
 10
168.212
 20
102.7641
 30
0.0
 10
168.212
 20
106.8286
 30
0.0
 10
168.212
 20
106.8286
 30
0.0
 10
168.212
 20
106.8286
 30
0.0
 10
168.212
 20
106.8286
 30
0.0
 10
172.2547
 20
106.8286
 30
0.0
 10
172.2547
 20
106.8286
 30
0.0
  0
SPLINE
  5
79
330
1F
100
AcDbEntity
  8
layer 1
 62
     7
100
AcDbSpline
210
0.0
220
0.0
230
1.0
 70
    11
 71
     3
 72
    28
 73
    24
 74
     0
 42
0.0000000001
 43
0.0000000001
 12
1.0
 22
0.0
 32
0.0
 13
1.0
 23
0.0
 33
0.0
 40
0.0
 40
0.0
 40
0.0
 40
0.0
 40
0.1428571428571428
 40
0.1428571428571428
 40
0.1428571428571428
 40
0.1428571428571428
 40
0.2857142857142857
 40
0.2857142857142857
 40
0.2857142857142857
 40
0.2857142857142857
 40
0.4285714285714285
 40
0.4285714285714285
 40
0.4285714285714285
 40
0.4285714285714285
 40
0.5714285714285714
 40
0.5714285714285714
 40
0.5714285714285714
 40
0.5714285714285714
 40
0.7142857142857143
 40
0.7142857142857143
 40
0.7142857142857143
 40
0.7142857142857143
 40
1.0
 40
1.0
 40
1.0
 40
1.0
 10
159.7751
 20
94.5167
 30
0.0
 10
159.7751
 20
94.5167
 30
0.0
 10
159.7751
 20
106.9693
 30
0.0
 10
159.7751
 20
106.9693
 30
0.0
 10
159.7751
 20
106.9693
 30
0.0
 10
159.7751
 20
106.9693
 30
0.0
 10
164.2792
 20
106.9693
 30
0.0
 10
164.2792
 20
106.9693
 30
0.0
 10
164.2792
 20
106.9693
 30
0.0
 10
164.2792
 20
106.9693
 30
0.0
 10
164.2691
 20
99.3093
 30
0.0
 10
164.2691
 20
99.3093
 30
0.0
 10
164.2691
 20
99.3093
 30
0.0
 10
164.2691
 20
99.3093
 30
0.0
 10
172.1607
 20
99.3511
 30
0.0
 10
172.1607
 20
99.3511
 30
0.0
 10
172.1607
 20
99.3511
 30
0.0
 10
172.1607
 20
99.3511
 30
0.0
 10
172.1607
 20
94.5167
 30
0.0
 10
172.1607
 20
94.5167
 30
0.0
 10
172.1607
 20
94.5167
 30
0.0
 10
172.1607
 20
94.5167
 30
0.0
 10
159.7751
 20
94.5167
 30
0.0
 10
159.7751
 20
94.5167
 30
0.0
  0
SPLINE
  5
7A
330
1F
100
AcDbEntity
  8
layer 1
 62
     7
100
AcDbSpline
210
0.0
220
0.0
230
1.0
 70
    11
 71
     3
 72
    40
 73
    36
 74
     0
 42
0.0000000001
 43
0.0000000001
 12
1.0
 22
0.0
 32
0.0
 13
1.0
 23
0.0
 33
0.0
 40
0.0
 40
0.0
 40
0.0
 40
0.0
 40
0.1
 40
0.1
 40
0.1
 40
0.1
 40
0.2
 40
0.2
 40
0.2
 40
0.2
 40
0.3
 40
0.3
 40
0.3
 40
0.3
 40
0.4
 40
0.4
 40
0.4
 40
0.4
 40
0.5
 40
0.5
 40
0.5
 40
0.5
 40
0.6
 40
0.6
 40
0.6
 40
0.6
 40
0.7
 40
0.7
 40
0.7
 40
0.7
 40
0.8
 40
0.8
 40
0.8
 40
0.8
 40
1.0
 40
1.0
 40
1.0
 40
1.0
 10
141.0318
 20
119.1774
 30
0.0
 10
133.8103
 20
112.5385
 30
0.0
 10
125.3892
 20
110.5269
 30
0.0
 10
118.6818
 20
109.5436
 30
0.0
 10
118.6818
 20
109.5436
 30
0.0
 10
119.2446
 20
102.5568
 30
0.0
 10
117.4651
 20
95.3413
 30
0.0
 10
111.2868
 20
91.4963
 30
0.0
 10
111.2868
 20
91.4963
 30
0.0
 10
111.2868
 20
91.4963
 30
0.0
 10
111.2868
 20
87.1565
 30
0.0
 10
111.2868
 20
87.1565
 30
0.0
 10
111.2868
 20
87.1565
 30
0.0
 10
124.9531
 20
86.8043
 30
0.0
 10
135.641
 20
83.0161
 30
0.0
 10
141.9567
 20
80.0768
 30
0.0
 10
141.9567
 20
80.0768
 30
0.0
 10
141.9567
 20
80.0768
 30
0.0
 10
156.0576
 20
93.4554
 30
0.0
 10
156.0576
 20
93.4554
 30
0.0
 10
156.0576
 20
93.4554
 30
0.0
 10
156.0576
 20
93.4554
 30
0.0
 10
156.0222
 20
110.5858
 30
0.0
 10
156.0222
 20
110.5858
 30
0.0
 10
156.0222
 20
110.5858
 30
0.0
 10
156.0222
 20
110.5858
 30
0.0
 10
164.5516
 20
110.5858
 30
0.0
 10
164.5516
 20
110.5858
 30
0.0
 10
164.5516
 20
110.5858
 30
0.0
 10
164.5516
 20
110.5858
 30
0.0
 10
164.5516
 20
119.1776
 30
0.0
 10
164.5516
 20
119.1776
 30
0.0
 10
164.5516
 20
119.1776
 30
0.0
 10
164.5516
 20
119.1776
 30
0.0
 10
141.0318
 20
119.1774
 30
0.0
 10
141.0318
 20
119.1774
 30
0.0
  0
SPLINE
  5
7B
330
1F
100
AcDbEntity
  8
layer 1
 62
     7
100
AcDbSpline
210
0.0
220
0.0
230
1.0
 70
    11
 71
     3
 72
    20
 73
    16
 74
     0
 42
0.0000000001
 43
0.0000000001
 12
1.0
 22
0.0
 32
0.0
 13
1.0
 23
0.0
 33
0.0
 40
0.0
 40
0.0
 40
0.0
 40
0.0
 40
0.2
 40
0.2
 40
0.2
 40
0.2
 40
0.4
 40
0.4
 40
0.4
 40
0.4
 40
0.6
 40
0.6
 40
0.6
 40
0.6
 40
1.0
 40
1.0
 40
1.0
 40
1.0
 10
111.4629
 20
123.324
 30
0.0
 10
111.4629
 20
123.324
 30
0.0
 10
111.2869
 20
96.9801
 30
0.0
 10
111.2869
 20
96.9801
 30
0.0
 10
111.2869
 20
96.9801
 30
0.0
 10
115.5009
 20
100.1313
 30
0.0
 10
115.2917
 20
108.409
 30
0.0
 10
113.8981
 20
113.5749
 30
0.0
 10
113.8981
 20
113.5749
 30
0.0
 10
122.7743
 20
112.4521
 30
0.0
 10
132.8824
 20
116.8537
 30
0.0
 10
139.0224
 20
123.3239
 30
0.0
 10
139.0224
 20
123.3239
 30
0.0
 10
139.0224
 20
123.3239
 30
0.0
 10
111.4629
 20
123.324
 30
0.0
 10
111.4629
 20
123.324
 30
0.0
  0
SPLINE
  5
7C
330
1F
100
AcDbEntity
  8
layer 1
 62
     7
100
AcDbSpline
210
0.0
220
0.0
230
1.0
 70
    11
 71
     3
 72
    20
 73
    16
 74
     0
 42
0.0000000001
 43
0.0000000001
 12
1.0
 22
0.0
 32
0.0
 13
1.0
 23
0.0
 33
0.0
 40
0.0
 40
0.0
 40
0.0
 40
0.0
 40
0.2
 40
0.2
 40
0.2
 40
0.2
 40
0.4
 40
0.4
 40
0.4
 40
0.4
 40
0.6
 40
0.6
 40
0.6
 40
0.6
 40
1.0
 40
1.0
 40
1.0
 40
1.0
 10
111.4629
 20
58.9346
 30
0.0
 10
111.4629
 20
58.9346
 30
0.0
 10
111.2869
 20
28.7272
 30
0.0
 10
111.2869
 20
28.7272
 30
0.0
 10
111.2869
 20
28.7272
 30
0.0
 10
113.825
 20
28.4937
 30
0.0
 10
115.358
 20
28.0895
 30
0.0
 10
117.4384
 20
27.2356
 30
0.0
 10
117.4384
 20
27.2356
 30
0.0
 10
121.548
 20
33.8686
 30
0.0
 10
129.4892
 20
36.2256
 30
0.0
 10
132.8824
 20
37.6869
 30
0.0
 10
132.8824
 20
37.6869
 30
0.0
 10
132.8824
 20
37.6869
 30
0.0
 10
111.4629
 20
58.9346
 30
0.0
 10
111.4629
 20
58.9346
 30
0.0
  0
SPLINE
  5
7D
330
1F
100
AcDbEntity
  8
layer 1
 62
     7
100
AcDbSpline
210
0.0
220
0.0
230
1.0
 70
    11
 71
     3
 72
    36
 73
    32
 74
     0
 42
0.0000000001
 43
0.0000000001
 12
1.0
 22
0.0
 32
0.0
 13
1.0
 23
0.0
 33
0.0
 40
0.0
 40
0.0
 40
0.0
 40
0.0
 40
0.1111111111111111
 40
0.1111111111111111
 40
0.1111111111111111
 40
0.1111111111111111
 40
0.2222222222222222
 40
0.2222222222222222
 40
0.2222222222222222
 40
0.2222222222222222
 40
0.3333333333333333
 40
0.3333333333333333
 40
0.3333333333333333
 40
0.3333333333333333
 40
0.4444444444444444
 40
0.4444444444444444
 40
0.4444444444444444
 40
0.4444444444444444
 40
0.5555555555555556
 40
0.5555555555555556
 40
0.5555555555555556
 40
0.5555555555555556
 40
0.6666666666666666
 40
0.6666666666666666
 40
0.6666666666666666
 40
0.6666666666666666
 40
0.7777777777777778
 40
0.7777777777777778
 40
0.7777777777777778
 40
0.7777777777777778
 40
1.0
 40
1.0
 40
1.0
 40
1.0
 10
184.6034
 20
86.2458
 30
0.0
 10
184.6034
 20
86.2458
 30
0.0
 10
184.6034
 20
99.1787
 30
0.0
 10
184.6034
 20
99.1787
 30
0.0
 10
184.6034
 20
99.1787
 30
0.0
 10
184.6034
 20
99.1787
 30
0.0
 10
176.0329
 20
99.1787
 30
0.0
 10
176.0329
 20
99.1787
 30
0.0
 10
176.0329
 20
99.1787
 30
0.0
 10
176.0329
 20
99.1787
 30
0.0
 10
176.0683
 20
90.7637
 30
0.0
 10
176.0683
 20
90.7637
 30
0.0
 10
176.0683
 20
90.7637
 30
0.0
 10
176.0683
 20
90.7637
 30
0.0
 10
159.0416
 20
90.764
 30
0.0
 10
159.0416
 20
90.764
 30
0.0
 10
159.0416
 20
90.764
 30
0.0
 10
159.0416
 20
90.764
 30
0.0
 10
146.3132
 20
77.9818
 30
0.0
 10
146.3132
 20
77.9818
 30
0.0
 10
146.3132
 20
77.9818
 30
0.0
 10
152.5675
 20
74.5849
 30
0.0
 10
157.5654
 20
71.0038
 30
0.0
 10
163.4751
 20
65.5124
 30
0.0
 10
163.4751
 20
65.5124
 30
0.0
 10
170.5436
 20
72.4363
 30
0.0
 10
177.535
 20
79.3218
 30
0.0
 10
184.6034
 20
86.2457
 30
0.0
 10
184.6034
 20
86.2457
 30
0.0
 10
184.6034
 20
86.2457
 30
0.0
 10
184.6034
 20
86.2458
 30
0.0
 10
184.6034
 20
86.2458
 30
0.0
  0
SPLINE
  5
7E
330
1F
100
AcDbEntity
  8
layer 1
 62
     7
100
AcDbSpline
210
0.0
220
0.0
230
1.0
 70
    11
 71
     3
 72
    20
 73
    16
 74
     0
 42
0.0000000001
 43
0.0000000001
 12
1.0
 22
0.0
 32
0.0
 13
1.0
 23
0.0
 33
0.0
 40
0.0
 40
0.0
 40
0.0
 40
0.0
 40
0.2
 40
0.2
 40
0.2
 40
0.2
 40
0.4
 40
0.4
 40
0.4
 40
0.4
 40
0.6
 40
0.6
 40
0.6
 40
0.6
 40
1.0
 40
1.0
 40
1.0
 40
1.0
 10
188.8383
 20
10.4567
 30
0.0
 10
188.8383
 20
10.4567
 30
0.0
 10
188.8383
 20
84.8225
 30
0.0
 10
188.8383
 20
84.8225
 30
0.0
 10
188.8383
 20
84.8225
 30
0.0
 10
188.8383
 20
84.8225
 30
0.0
 10
166.5056
 20
62.499
 30
0.0
 10
166.5056
 20
62.499
 30
0.0
 10
166.5056
 20
62.499
 30
0.0
 10
172.6392
 20
56.0871
 30
0.0
 10
187.2076
 20
38.1907
 30
0.0
 10
187.8711
 20
10.5086
 30
0.0
 10
187.8711
 20
10.5086
 30
0.0
 10
187.98
 20
10.0032
 30
0.0
 10
188.7677
 20
10.0844
 30
0.0
 10
188.8383
 20
10.4567
 30
0.0
  0
SPLINE
  5
7F
330
1F
100
AcDbEntity
  8
layer 1
 62
     7
100
AcDbSpline
210
0.0
220
0.0
230
1.0
 70
    11
 71
     3
 72
    20
 73
    16
 74
     0
 42
0.0000000001
 43
0.0000000001
 12
1.0
 22
0.0
 32
0.0
 13
1.0
 23
0.0
 33
0.0
 40
0.0
 40
0.0
 40
0.0
 40
0.0
 40
0.2
 40
0.2
 40
0.2
 40
0.2
 40
0.4
 40
0.4
 40
0.4
 40
0.4
 40
0.6
 40
0.6
 40
0.6
 40
0.6
 40
1.0
 40
1.0
 40
1.0
 40
1.0
 10
159.8606
 20
10.5369
 30
0.0
 10
159.8606
 20
10.5369
 30
0.0
 10
129.7009
 20
10.4086
 30
0.0
 10
129.7009
 20
10.4086
 30
0.0
 10
129.7009
 20
10.4086
 30
0.0
 10
129.515
 20
12.7561
 30
0.0
 10
129.1107
 20
14.3844
 30
0.0
 10
128.2092
 20
16.7506
 30
0.0
 10
128.2092
 20
16.7506
 30
0.0
 10
134.8422
 20
20.8601
 30
0.0
 10
137.1515
 20
28.5631
 30
0.0
 10
138.6129
 20
31.9564
 30
0.0
 10
138.6129
 20
31.9564
 30
0.0
 10
138.6129
 20
31.9564
 30
0.0
 10
159.8606
 20
10.5369
 30
0.0
 10
159.8606
 20
10.5369
 30
0.0
  0
SPLINE
  5
80
330
1F
100
AcDbEntity
  8
layer 1
 62
     7
100
AcDbSpline
210
0.0
220
0.0
230
1.0
 70
    11
 71
     3
 72
    20
 73
    16
 74
     0
 42
0.0000000001
 43
0.0000000001
 12
1.0
 22
0.0
 32
0.0
 13
1.0
 23
0.0
 33
0.0
 40
0.0
 40
0.0
 40
0.0
 40
0.0
 40
0.2
 40
0.2
 40
0.2
 40
0.2
 40
0.4
 40
0.4
 40
0.4
 40
0.4
 40
0.6
 40
0.6
 40
0.6
 40
0.6
 40
1.0
 40
1.0
 40
1.0
 40
1.0
 10
144.0825
 20
39.8376
 30
0.0
 10
144.0825
 20
39.8376
 30
0.0
 10
163.4887
 20
59.206
 30
0.0
 10
163.4887
 20
59.206
 30
0.0
 10
163.4887
 20
59.206
 30
0.0
 10
172.6917
 20
48.7549
 30
0.0
 10
181.5757
 20
35.0607
 30
0.0
 10
183.3628
 20
13.2863
 30
0.0
 10
183.3628
 20
13.2863
 30
0.0
 10
176.2597
 20
20.6503
 30
0.0
 10
173.5927
 20
26.9003
 30
0.0
 10
167.7779
 20
31.4644
 30
0.0
 10
167.7779
 20
31.4644
 30
0.0
 10
161.8569
 20
36.1118
 30
0.0
 10
155.0036
 20
39.7111
 30
0.0
 10
144.0825
 20
39.8376
 30
0.0
  0
SPLINE
  5
81
330
1F
100
AcDbEntity
  8
layer 1
 62
     7
100
AcDbSpline
210
0.0
220
0.0
230
1.0
 70
    11
 71
     3
 72
    24
 73
    20
 74
     0
 42
0.0000000001
 43
0.0000000001
 12
1.0
 22
0.0
 32
0.0
 13
1.0
 23
0.0
 33
0.0
 40
0.0
 40
0.0
 40
0.0
 40
0.0
 40
0.1666666666666667
 40
0.1666666666666667
 40
0.1666666666666667
 40
0.1666666666666667
 40
0.3333333333333333
 40
0.3333333333333333
 40
0.3333333333333333
 40
0.3333333333333333
 40
0.5
 40
0.5
 40
0.5
 40
0.5
 40
0.6666666666666666
 40
0.6666666666666666
 40
0.6666666666666666
 40
0.6666666666666666
 40
1.0
 40
1.0
 40
1.0
 40
1.0
 10
180.0278
 20
10.6201
 30
0.0
 10
180.0278
 20
10.6201
 30
0.0
 10
165.9416
 20
10.6201
 30
0.0
 10
165.9416
 20
10.6201
 30
0.0
 10
165.9416
 20
10.6201
 30
0.0
 10
165.9416
 20
10.6201
 30
0.0
 10
140.6372
 20
35.6739
 30
0.0
 10
140.6372
 20
35.6739
 30
0.0
 10
140.6372
 20
35.6739
 30
0.0
 10
153.9006
 20
35.2289
 30
0.0
 10
159.485
 20
32.3358
 30
0.0
 10
164.6379
 20
28.2947
 30
0.0
 10
164.6379
 20
28.2947
 30
0.0
 10
171.0079
 20
23.2989
 30
0.0
 10
174.8309
 20
16.1993
 30
0.0
 10
180.0278
 20
10.6202
 30
0.0
 10
180.0278
 20
10.6202
 30
0.0
 10
180.0278
 20
10.6202
 30
0.0
 10
180.0278
 20
10.6201
 30
0.0
 10
180.0278
 20
10.6201
 30
0.0
  0
SPLINE
  5
82
330
1F
100
AcDbEntity
  8
layer 1
 62
     7
100
AcDbSpline
210
0.0
220
0.0
230
1.0
 70
    11
 71
     3
 72
    20
 73
    16
 74
     0
 42
0.0000000001
 43
0.0000000001
 12
1.0
 22
0.0
 32
0.0
 13
1.0
 23
0.0
 33
0.0
 40
0.0
 40
0.0
 40
0.0
 40
0.0
 40
0.2
 40
0.2
 40
0.2
 40
0.2
 40
0.4
 40
0.4
 40
0.4
 40
0.4
 40
0.6
 40
0.6
 40
0.6
 40
0.6
 40
1.0
 40
1.0
 40
1.0
 40
1.0
 10
111.2869
 20
25.0569
 30
0.0
 10
111.2869
 20
25.0569
 30
0.0
 10
111.2869
 20
13.0422
 30
0.0
 10
111.2869
 20
13.0422
 30
0.0
 10
111.2869
 20
13.0422
 30
0.0
 10
111.2869
 20
13.0422
 30
0.0
 10
119.9459
 20
21.3845
 30
0.0
 10
119.9459
 20
21.3845
 30
0.0
 10
119.9459
 20
21.3845
 30
0.0
 10
118.4249
 20
22.6532
 30
0.0
 10
115.7037
 20
24.5577
 30
0.0
 10
111.2869
 20
25.057
 30
0.0
 10
111.2869
 20
25.057
 30
0.0
 10
111.2869
 20
25.057
 30
0.0
 10
111.2869
 20
25.0569
 30
0.0
 10
111.2869
 20
25.0569
 30
0.0
  0
SPLINE
  5
83
330
1F
100
AcDbEntity
  8
layer 1
 62
     7
100
AcDbSpline
210
0.0
220
0.0
230
1.0
 70
    11
 71
     3
 72
    16
 73
    12
 74
     0
 42
0.0000000001
 43
0.0000000001
 12
1.0
 22
0.0
 32
0.0
 13
1.0
 23
0.0
 33
0.0
 40
0.0
 40
0.0
 40
0.0
 40
0.0
 40
0.25
 40
0.25
 40
0.25
 40
0.25
 40
0.5
 40
0.5
 40
0.5
 40
0.5
 40
1.0
 40
1.0
 40
1.0
 40
1.0
 10
122.4044
 20
24.3513
 30
0.0
 10
122.4044
 20
24.3513
 30
0.0
 10
130.7632
 20
32.1373
 30
0.0
 10
130.7632
 20
32.1373
 30
0.0
 10
130.7632
 20
32.1373
 30
0.0
 10
127.4507
 20
30.3892
 30
0.0
 10
123.8432
 20
28.5427
 30
0.0
 10
121.2682
 20
25.1228
 30
0.0
 10
121.2682
 20
25.1228
 30
0.0
 10
121.7075
 20
24.9357
 30
0.0
 10
122.0195
 20
24.703
 30
0.0
 10
122.4044
 20
24.3513
 30
0.0
  0
SPLINE
  5
84
330
1F
100
AcDbEntity
  8
layer 1
 62
     7
100
AcDbSpline
210
0.0
220
0.0
230
1.0
 70
    11
 71
     3
 72
    16
 73
    12
 74
     0
 42
0.0000000001
 43
0.0000000001
 12
1.0
 22
0.0
 32
0.0
 13
1.0
 23
0.0
 33
0.0
 40
0.0
 40
0.0
 40
0.0
 40
0.0
 40
0.25
 40
0.25
 40
0.25
 40
0.25
 40
0.5
 40
0.5
 40
0.5
 40
0.5
 40
1.0
 40
1.0
 40
1.0
 40
1.0
 10
125.5645
 20
21.0435
 30
0.0
 10
125.5645
 20
21.0435
 30
0.0
 10
133.3506
 20
29.4023
 30
0.0
 10
133.3506
 20
29.4023
 30
0.0
 10
133.3506
 20
29.4023
 30
0.0
 10
131.6024
 20
26.0898
 30
0.0
 10
129.7559
 20
22.4823
 30
0.0
 10
126.336
 20
19.9074
 30
0.0
 10
126.336
 20
19.9074
 30
0.0
 10
126.149
 20
20.3467
 30
0.0
 10
125.9163
 20
20.6586
 30
0.0
 10
125.5645
 20
21.0435
 30
0.0
  0
SPLINE
  5
85
330
1F
100
AcDbEntity
  8
layer 1
 62
     7
100
AcDbSpline
210
0.0
220
0.0
230
1.0
 70
    11
 71
     3
 72
    16
 73
    12
 74
     0
 42
0.0000000001
 43
0.0000000001
 12
1.0
 22
0.0
 32
0.0
 13
1.0
 23
0.0
 33
0.0
 40
0.0
 40
0.0
 40
0.0
 40
0.0
 40
0.25
 40
0.25
 40
0.25
 40
0.25
 40
0.5
 40
0.5
 40
0.5
 40
0.5
 40
1.0
 40
1.0
 40
1.0
 40
1.0
 10
125.8031
 20
10.5899
 30
0.0
 10
125.8031
 20
10.5899
 30
0.0
 10
114.821
 20
10.5899
 30
0.0
 10
114.821
 20
10.5899
 30
0.0
 10
114.821
 20
10.5899
 30
0.0
 10
114.821
 20
10.5899
 30
0.0
 10
122.819
 20
18.3147
 30
0.0
 10
122.819
 20
18.3147
 30
0.0
 10
122.819
 20
18.3147
 30
0.0
 10
124.0877
 20
16.3511
 30
0.0
 10
125.2547
 20
14.5642
 30
0.0
 10
125.8031
 20
10.5899
 30
0.0
  0
ENDSEC
  0
SECTION
  2
OBJECTS
  0
DICTIONARY
  5
C
330
0
100
AcDbDictionary
281
     1
  3
ACAD_GROUP
350
D
  3
ACAD_LAYOUT
350
1A
  3
ACAD_MATERIAL
350
3B
  3
ACAD_MLEADERSTYLE
350
A8
  3
ACAD_MLINESTYLE
350
17
  3
ACAD_PLOTSETTINGS
350
19
  3
ACAD_PLOTSTYLENAME
350
E
  3
ACAD_TABLESTYLE
350
A7
  3
ACAD_VISUALSTYLE
350
2A
  0
DICTIONARY
  5
D
102
{ACAD_REACTORS
330
C
102
}
330
C
100
AcDbDictionary
281
     1
  0
DICTIONARY
  5
1A
102
{ACAD_REACTORS
330
C
102
}
330
C
100
AcDbDictionary
281
     1
  3
Layout1
350
1E
  3
Layout2
350
26
  3
Model
350
22
  0
DICTIONARY
  5
3B
102
{ACAD_REACTORS
330
C
102
}
330
C
100
AcDbDictionary
281
     1
  3
ByBlock
350
3D
  3
ByLayer
350
3C
  3
Global
350
3E
  0
DICTIONARY
  5
A8
102
{ACAD_REACTORS
330
C
102
}
330
C
100
AcDbDictionary
281
     1
  0
DICTIONARY
  5
17
102
{ACAD_REACTORS
330
C
102
}
330
C
100
AcDbDictionary
281
     1
  3
Standard
350
18
  0
DICTIONARY
  5
19
102
{ACAD_REACTORS
330
C
102
}
330
C
100
AcDbDictionary
281
     1
  0
ACDBDICTIONARYWDFLT
  5
E
102
{ACAD_REACTORS
330
C
102
}
330
C
100
AcDbDictionary
281
     1
  3
Normal
350
F
100
AcDbDictionaryWithDefault
340
F
  0
DICTIONARY
  5
A7
102
{ACAD_REACTORS
330
C
102
}
330
C
100
AcDbDictionary
281
     1
  0
DICTIONARY
  5
2A
102
{ACAD_REACTORS
330
C
102
}
330
C
100
AcDbDictionary
281
     1
  3
2dWireframe
350
2F
  3
3D Hidden
350
31
  3
3dWireframe
350
30
  3
Basic
350
32
  3
Brighten
350
36
  3
ColorChange
350
3A
  3
Conceptual
350
34
  3
Dim
350
35
  3
Facepattern
350
39
  3
Flat
350
2B
  3
FlatWithEdges
350
2C
  3
Gouraud
350
2D
  3
GouraudWithEdges
350
2E
  3
Linepattern
350
38
  3
Realistic
350
33
  3
Thicken
350
37
  0
LAYOUT
  5
1E
102
{ACAD_REACTORS
330
1A
102
}
330
1A
100
AcDbPlotSettings
  1

  2
none_device
  4

  6

 40
0.0
 41
0.0
 42
0.0
 43
0.0
 44
0.0
 45
0.0
 46
0.0
 47
0.0
 48
0.0
 49
0.0
140
0.0
141
0.0
142
1.0
143
1.0
 70
   688
 72
     0
 73
     0
 74
     5
  7

 75
    16
 76
     0
 77
     2
 78
   300
147
1.0
148
0.0
149
0.0
100
AcDbLayout
  1
Layout1
 70
     1
 71
     1
 10
0.0
 20
0.0
 11
12.0
 21
9.0
 12
0.0
 22
0.0
 32
0.0
 14
1.000000000000000E+20
 24
1.000000000000000E+20
 34
1.000000000000000E+20
 15
-1.000000000000000E+20
 25
-1.000000000000000E+20
 35
-1.000000000000000E+20
146
0.0
 13
0.0
 23
0.0
 33
0.0
 16
1.0
 26
0.0
 36
0.0
 17
0.0
 27
1.0
 37
0.0
 76
     0
330
1B
  0
LAYOUT
  5
26
102
{ACAD_REACTORS
330
1A
102
}
330
1A
100
AcDbPlotSettings
  1

  2
none_device
  4

  6

 40
0.0
 41
0.0
 42
0.0
 43
0.0
 44
0.0
 45
0.0
 46
0.0
 47
0.0
 48
0.0
 49
0.0
140
0.0
141
0.0
142
1.0
143
1.0
 70
   688
 72
     0
 73
     0
 74
     5
  7

 75
    16
 76
     0
 77
     2
 78
   300
147
1.0
148
0.0
149
0.0
100
AcDbLayout
  1
Layout2
 70
     1
 71
     2
 10
0.0
 20
0.0
 11
0.0
 21
0.0
 12
0.0
 22
0.0
 32
0.0
 14
0.0
 24
0.0
 34
0.0
 15
0.0
 25
0.0
 35
0.0
146
0.0
 13
0.0
 23
0.0
 33
0.0
 16
1.0
 26
0.0
 36
0.0
 17
0.0
 27
1.0
 37
0.0
 76
     0
330
23
  0
LAYOUT
  5
22
102
{ACAD_REACTORS
330
1A
102
}
330
1A
100
AcDbPlotSettings
  1

  2
none_device
  4

  6

 40
0.0
 41
0.0
 42
0.0
 43
0.0
 44
0.0
 45
0.0
 46
0.0
 47
0.0
 48
0.0
 49
0.0
140
0.0
141
0.0
142
1.0
143
1.0
 70
  1712
 72
     0
 73
     0
 74
     0
  7

 75
     0
 76
     0
 77
     2
 78
   300
147
1.0
148
0.0
149
0.0
100
AcDbLayout
  1
Model
 70
     1
 71
     0
 10
0.0
 20
0.0
 11
12.0
 21
9.0
 12
0.0
 22
0.0
 32
0.0
 14
22.5537
 24
-114.9766
 34
0.0
 15
196.423
 25
132.0089
 35
0.0
146
0.0
 13
0.0
 23
0.0
 33
0.0
 16
1.0
 26
0.0
 36
0.0
 17
0.0
 27
1.0
 37
0.0
 76
     0
330
1F
331
29
  0
MATERIAL
  5
3D
102
{ACAD_REACTORS
330
3B
102
}
330
3B
100
AcDbMaterial
  1
ByBlock
 72
     1
 94
      127
  0
MATERIAL
  5
3C
102
{ACAD_REACTORS
330
3B
102
}
330
3B
100
AcDbMaterial
  1
ByLayer
 72
     1
 94
      127
  0
MATERIAL
  5
3E
102
{ACAD_REACTORS
330
3B
102
}
330
3B
100
AcDbMaterial
  1
Global
 72
     1
 94
      127
  0
MLINESTYLE
  5
18
102
{ACAD_REACTORS
330
17
102
}
330
17
100
AcDbMlineStyle
  2
Standard
 70
     0
  3

 62
   256
 51
90.0
 52
90.0
 71
     2
 49
0.5
 62
   256
  6
BYLAYER
 49
-0.5
 62
   256
  6
BYLAYER
  0
ACDBPLACEHOLDER
  5
F
102
{ACAD_REACTORS
330
E
102
}
330
E
  0
VISUALSTYLE
  5
2F
102
{ACAD_REACTORS
330
2A
102
}
102
{ACAD_XDICTIONARY
360
8F
102
}
330
2A
100
AcDbVisualStyle
  2
2dWireframe
 70
     4
 71
     0
 72
     2
 73
     0
 90
        0
 40
-0.6
 41
-30.0
 62
     5
 63
     7
421
 16777215
 74
     1
 91
        4
 64
     7
 65
   257
 75
     1
175
     1
 42
1.0
 92
        0
 66
   257
 43
1.0
 76
     1
 77
     6
 78
     2
 67
     7
 79
     5
170
     0
171
     0
290
     0
174
     0
 93
        1
 44
0.0
173
     0
291
     0
 45
0.0
  0
VISUALSTYLE
  5
31
102
{ACAD_REACTORS
330
2A
102
}
102
{ACAD_XDICTIONARY
360
93
102
}
330
2A
100
AcDbVisualStyle
  2
3D Hidden
 70
     6
 71
     1
 72
     2
 73
     2
 90
        0
 40
-0.6
 41
-30.0
 62
     5
 63
     7
421
 16777215
 74
     2
 91
        2
 64
     7
 65
   257
 75
     2
175
     1
 42
40.0
 92
        0
 66
   257
 43
1.0
 76
     1
 77
     6
 78
     2
 67
     7
 79
     3
170
     0
171
     0
290
     0
174
     0
 93
        1
 44
0.0
173
     0
291
     0
 45
0.0
  0
VISUALSTYLE
  5
30
102
{ACAD_REACTORS
330
2A
102
}
102
{ACAD_XDICTIONARY
360
91
102
}
330
2A
100
AcDbVisualStyle
  2
3dWireframe
 70
     5
 71
     0
 72
     2
 73
     0
 90
        0
 40
-0.6
 41
-30.0
 62
     5
 63
     7
421
 16777215
 74
     1
 91
        4
 64
     7
 65
   257
 75
     1
175
     1
 42
1.0
 92
        0
 66
   257
 43
1.0
 76
     1
 77
     6
 78
     2
 67
     7
 79
     5
170
     0
171
     0
290
     0
174
     0
 93
        1
 44
0.0
173
     0
291
     0
 45
0.0
  0
VISUALSTYLE
  5
32
102
{ACAD_REACTORS
330
2A
102
}
102
{ACAD_XDICTIONARY
360
95
102
}
330
2A
100
AcDbVisualStyle
  2
Basic
 70
     7
 71
     1
 72
     0
 73
     1
 90
        0
 40
-0.6
 41
-30.0
 62
     5
 63
     7
421
 16777215
 74
     0
 91
        4
 64
     7
 65
   257
 75
     1
175
     1
 42
1.0
 92
        8
 66
     7
 43
1.0
 76
     1
 77
     6
 78
     2
 67
     7
 79
     5
170
     0
171
     0
290
     0
174
     0
 93
        1
 44
0.0
173
     0
291
     1
 45
0.0
  0
VISUALSTYLE
  5
36
102
{ACAD_REACTORS
330
2A
102
}
102
{ACAD_XDICTIONARY
360
9D
102
}
330
2A
100
AcDbVisualStyle
  2
Brighten
 70
    12
 71
     2
 72
     2
 73
     0
 90
        0
 40
-0.6
 41
-30.0
 62
     5
 63
     7
421
 16777215
 74
     1
 91
        4
 64
     7
 65
   257
 75
     1
175
     1
 42
1.0
 92
        8
 66
     7
 43
1.0
 76
     1
 77
     6
 78
     2
 67
     7
 79
     5
170
     0
171
     0
290
     0
174
     0
 93
        1
 44
50.0
173
     0
291
     1
 45
0.0
  0
VISUALSTYLE
  5
3A
102
{ACAD_REACTORS
330
2A
102
}
102
{ACAD_XDICTIONARY
360
A5
102
}
330
2A
100
AcDbVisualStyle
  2
ColorChange
 70
    16
 71
     2
 72
     2
 73
     3
 90
        0
 40
-0.6
 41
-30.0
 62
     5
 63
     8
421
  8421504
 74
     1
 91
        4
 64
     7
 65
   257
 75
     1
175
     1
 42
1.0
 92
        8
 66
     8
424
  8421504
 43
1.0
 76
     1
 77
     6
 78
     2
 67
     7
 79
     5
170
     0
171
     0
290
     0
174
     0
 93
        1
 44
0.0
173
     0
291
     1
 45
0.0
  0
VISUALSTYLE
  5
34
102
{ACAD_REACTORS
330
2A
102
}
102
{ACAD_XDICTIONARY
360
99
102
}
330
2A
100
AcDbVisualStyle
  2
Conceptual
 70
     9
 71
     3
 72
     2
 73
     0
 90
        0
 40
-0.6
 41
-30.0
 62
     5
 63
     7
421
 16777215
 74
     2
 91
        2
 64
     7
 65
   257
 75
     1
175
     1
 42
40.0
 92
        8
 66
     7
 43
1.0
 76
     1
 77
     6
 78
     2
 67
     7
 79
     3
170
     0
171
     0
290
     0
174
     0
 93
        1
 44
0.0
173
     0
291
     0
 45
0.0
  0
VISUALSTYLE
  5
35
102
{ACAD_REACTORS
330
2A
102
}
102
{ACAD_XDICTIONARY
360
9B
102
}
330
2A
100
AcDbVisualStyle
  2
Dim
 70
    11
 71
     2
 72
     2
 73
     0
 90
        0
 40
-0.6
 41
-30.0
 62
     5
 63
     7
421
 16777215
 74
     1
 91
        4
 64
     7
 65
   257
 75
     1
175
     1
 42
1.0
 92
        8
 66
     7
 43
1.0
 76
     1
 77
     6
 78
     2
 67
     7
 79
     5
170
     0
171
     0
290
     0
174
     0
 93
        1
 44
-50.0
173
     0
291
     1
 45
0.0
  0
VISUALSTYLE
  5
39
102
{ACAD_REACTORS
330
2A
102
}
102
{ACAD_XDICTIONARY
360
A3
102
}
330
2A
100
AcDbVisualStyle
  2
Facepattern
 70
    15
 71
     2
 72
     2
 73
     0
 90
        0
 40
-0.6
 41
-30.0
 62
     5
 63
     7
421
 16777215
 74
     1
 91
        4
 64
     7
 65
   257
 75
     1
175
     1
 42
1.0
 92
        8
 66
     7
 43
1.0
 76
     1
 77
     6
 78
     2
 67
     7
 79
     5
170
     0
171
     0
290
     0
174
     0
 93
        1
 44
0.0
173
     0
291
     1
 45
0.0
  0
VISUALSTYLE
  5
2B
102
{ACAD_REACTORS
330
2A
102
}
102
{ACAD_XDICTIONARY
360
87
102
}
330
2A
100
AcDbVisualStyle
  2
Flat
 70
     0
 71
     2
 72
     1
 73
     1
 90
        2
 40
-0.6
 41
30.0
 62
     5
 63
     7
421
 16777215
 74
     0
 91
        4
 64
     7
 65
   257
 75
     1
175
     1
 42
1.0
 92
        8
 66
     7
 43
1.0
 76
     1
 77
     6
 78
     2
 67
     7
 79
     5
170
     0
171
     0
290
     0
174
     0
 93
       13
 44
0.0
173
     0
291
     1
 45
0.0
  0
VISUALSTYLE
  5
2C
102
{ACAD_REACTORS
330
2A
102
}
102
{ACAD_XDICTIONARY
360
89
102
}
330
2A
100
AcDbVisualStyle
  2
FlatWithEdges
 70
     1
 71
     2
 72
     1
 73
     1
 90
        2
 40
-0.6
 41
30.0
 62
     5
 63
     7
421
 16777215
 74
     1
 91
        4
 64
     7
 65
   257
 75
     1
175
     1
 42
1.0
 92
        0
 66
   257
 43
1.0
 76
     1
 77
     6
 78
     2
 67
     7
 79
     5
170
     0
171
     0
290
     0
174
     0
 93
       13
 44
0.0
173
     0
291
     1
 45
0.0
  0
VISUALSTYLE
  5
2D
102
{ACAD_REACTORS
330
2A
102
}
102
{ACAD_XDICTIONARY
360
8B
102
}
330
2A
100
AcDbVisualStyle
  2
Gouraud
 70
     2
 71
     2
 72
     2
 73
     1
 90
        2
 40
-0.6
 41
30.0
 62
     5
 63
     7
421
 16777215
 74
     0
 91
        4
 64
     7
 65
   257
 75
     1
175
     1
 42
1.0
 92
        0
 66
     7
 43
1.0
 76
     1
 77
     6
 78
     2
 67
     7
 79
     5
170
     0
171
     0
290
     0
174
     0
 93
       13
 44
0.0
173
     0
291
     1
 45
0.0
  0
VISUALSTYLE
  5
2E
102
{ACAD_REACTORS
330
2A
102
}
102
{ACAD_XDICTIONARY
360
8D
102
}
330
2A
100
AcDbVisualStyle
  2
GouraudWithEdges
 70
     3
 71
     2
 72
     2
 73
     1
 90
        2
 40
-0.6
 41
30.0
 62
     5
 63
     7
421
 16777215
 74
     1
 91
        4
 64
     7
 65
   257
 75
     1
175
     1
 42
1.0
 92
        0
 66
   257
 43
1.0
 76
     1
 77
     6
 78
     2
 67
     7
 79
     5
170
     0
171
     0
290
     0
174
     0
 93
       13
 44
0.0
173
     0
291
     1
 45
0.0
  0
VISUALSTYLE
  5
38
102
{ACAD_REACTORS
330
2A
102
}
102
{ACAD_XDICTIONARY
360
A1
102
}
330
2A
100
AcDbVisualStyle
  2
Linepattern
 70
    14
 71
     2
 72
     2
 73
     0
 90
        0
 40
-0.6
 41
-30.0
 62
     5
 63
     7
421
 16777215
 74
     1
 91
        4
 64
     7
 65
   257
 75
     7
175
     7
 42
1.0
 92
        8
 66
     7
 43
1.0
 76
     1
 77
     6
 78
     2
 67
     7
 79
     5
170
     0
171
     0
290
     0
174
     0
 93
        1
 44
0.0
173
     0
291
     1
 45
0.0
  0
VISUALSTYLE
  5
33
102
{ACAD_REACTORS
330
2A
102
}
102
{ACAD_XDICTIONARY
360
97
102
}
330
2A
100
AcDbVisualStyle
  2
Realistic
 70
     8
 71
     2
 72
     2
 73
     0
 90
        0
 40
-0.6
 41
-30.0
 62
     5
 63
     7
421
 16777215
 74
     1
 91
        0
 64
     7
 65
   257
 75
     1
175
     1
 42
1.0
 92
        8
 66
     8
424
  7895160
 43
1.0
 76
     1
 77
     6
 78
     2
 67
     7
 79
     5
170
     0
171
     0
290
     0
174
     0
 93
       13
 44
0.0
173
     0
291
     0
 45
0.0
  0
VISUALSTYLE
  5
37
102
{ACAD_REACTORS
330
2A
102
}
102
{ACAD_XDICTIONARY
360
9F
102
}
330
2A
100
AcDbVisualStyle
  2
Thicken
 70
    13
 71
     2
 72
     2
 73
     0
 90
        0
 40
-0.6
 41
-30.0
 62
     5
 63
     7
421
 16777215
 74
     1
 91
        4
 64
     7
 65
   257
 75
     1
175
     1
 42
1.0
 92
       12
 66
     7
 43
1.0
 76
     1
 77
     6
 78
     2
 67
     7
 79
     5
170
     0
171
     0
290
     0
174
     0
 93
        1
 44
0.0
173
     0
291
     1
 45
0.0
  0
DICTIONARY
  5
8F
330
2F
100
AcDbDictionary
280
     1
281
     1
  3
ACAD_XREC_ROUNDTRIP
360
90
  0
DICTIONARY
  5
93
330
31
100
AcDbDictionary
280
     1
281
     1
  3
ACAD_XREC_ROUNDTRIP
360
94
  0
DICTIONARY
  5
91
330
30
100
AcDbDictionary
280
     1
281
     1
  3
ACAD_XREC_ROUNDTRIP
360
92
  0
DICTIONARY
  5
95
330
32
100
AcDbDictionary
280
     1
281
     1
  3
ACAD_XREC_ROUNDTRIP
360
96
  0
DICTIONARY
  5
9D
330
36
100
AcDbDictionary
280
     1
281
     1
  3
ACAD_XREC_ROUNDTRIP
360
9E
  0
DICTIONARY
  5
A5
330
3A
100
AcDbDictionary
280
     1
281
     1
  3
ACAD_XREC_ROUNDTRIP
360
A6
  0
DICTIONARY
  5
99
330
34
100
AcDbDictionary
280
     1
281
     1
  3
ACAD_XREC_ROUNDTRIP
360
9A
  0
DICTIONARY
  5
9B
330
35
100
AcDbDictionary
280
     1
281
     1
  3
ACAD_XREC_ROUNDTRIP
360
9C
  0
DICTIONARY
  5
A3
330
39
100
AcDbDictionary
280
     1
281
     1
  3
ACAD_XREC_ROUNDTRIP
360
A4
  0
DICTIONARY
  5
87
330
2B
100
AcDbDictionary
280
     1
281
     1
  3
ACAD_XREC_ROUNDTRIP
360
88
  0
DICTIONARY
  5
89
330
2C
100
AcDbDictionary
280
     1
281
     1
  3
ACAD_XREC_ROUNDTRIP
360
8A
  0
DICTIONARY
  5
8B
330
2D
100
AcDbDictionary
280
     1
281
     1
  3
ACAD_XREC_ROUNDTRIP
360
8C
  0
DICTIONARY
  5
8D
330
2E
100
AcDbDictionary
280
     1
281
     1
  3
ACAD_XREC_ROUNDTRIP
360
8E
  0
DICTIONARY
  5
A1
330
38
100
AcDbDictionary
280
     1
281
     1
  3
ACAD_XREC_ROUNDTRIP
360
A2
  0
DICTIONARY
  5
97
330
33
100
AcDbDictionary
280
     1
281
     1
  3
ACAD_XREC_ROUNDTRIP
360
98
  0
DICTIONARY
  5
9F
330
37
100
AcDbDictionary
280
     1
281
     1
  3
ACAD_XREC_ROUNDTRIP
360
A0
  0
XRECORD
  5
90
102
{ACAD_REACTORS
330
8F
102
}
330
8F
100
AcDbXrecord
280
     1
102
RTVSPropertyOp0
 70
     1
102
RTVSPropertyOp1
 70
     1
102
RTVSPropertyOp2
 70
     1
102
RTVSPropertyOp3
 70
     1
102
RTVSPropertyOp4
 70
     1
102
RTVSPropertyOp5
 70
     1
102
RTVSPropertyOp6
 70
     1
102
RTVSPropertyOp7
 70
     1
102
RTVSPropertyOp8
 70
     1
102
RTVSPropertyOp9
 70
     1
102
RTVSPropertyOp10
 70
     1
102
RTVSPropertyOp11
 70
     1
102
RTVSPropertyOp12
 70
     1
102
RTVSPropertyOp13
 70
     1
102
RTVSPropertyOp14
 70
     1
102
RTVSPropertyOp15
 70
     1
102
RTVSPropertyOp16
 70
     1
102
RTVSPropertyOp17
 70
     1
102
RTVSPropertyOp18
 70
     1
102
RTVSPropertyOp19
 70
     1
102
RTVSPropertyOp20
 70
     1
102
RTVSPropertyOp21
 70
     1
102
RTVSPropertyOp22
 70
     1
102
RTVSPropertyOp23
 70
     1
102
RTVSPropertyOp24
 70
     1
102
RTVSPropertyOp25
 70
     1
102
RTVSPropertyOp26
 70
     1
102
RTVSPropertyOp27
 70
     1
102
RTVSPropertyOp28
 70
     1
102
RTVSPropertyOp29
 70
     1
102
RTVSPropertyOp30
 70
     1
102
RTVSPropertyOp31
 70
     1
102
RTVSPropertyOp32
 70
     1
  0
XRECORD
  5
94
102
{ACAD_REACTORS
330
93
102
}
330
93
100
AcDbXrecord
280
     1
102
RTVSPropertyOp0
 70
     1
102
RTVSPropertyOp1
 70
     1
102
RTVSPropertyOp2
 70
     1
102
RTVSPropertyOp3
 70
     1
102
RTVSPropertyOp4
 70
     1
102
RTVSPropertyOp5
 70
     1
102
RTVSPropertyOp6
 70
     1
102
RTVSPropertyOp7
 70
     1
102
RTVSPropertyOp8
 70
     1
102
RTVSPropertyOp9
 70
     1
102
RTVSPropertyOp10
 70
     1
102
RTVSPropertyOp11
 70
     1
102
RTVSPropertyOp12
 70
     1
102
RTVSPropertyOp13
 70
     1
102
RTVSPropertyOp14
 70
     1
102
RTVSPropertyOp15
 70
     1
102
RTVSPropertyOp16
 70
     1
102
RTVSPropertyOp17
 70
     1
102
RTVSPropertyOp18
 70
     1
102
RTVSPropertyOp19
 70
     1
102
RTVSPropertyOp20
 70
     1
102
RTVSPropertyOp21
 70
     1
102
RTVSPropertyOp22
 70
     1
102
RTVSPropertyOp23
 70
     1
102
RTVSPropertyOp24
 70
     1
102
RTVSPropertyOp25
 70
     1
102
RTVSPropertyOp26
 70
     1
102
RTVSPropertyOp27
 70
     1
102
RTVSPropertyOp28
 70
     1
102
RTVSPropertyOp29
 70
     1
102
RTVSPropertyOp30
 70
     1
102
RTVSPropertyOp31
 70
     1
102
RTVSPropertyOp32
 70
     1
  0
XRECORD
  5
92
102
{ACAD_REACTORS
330
91
102
}
330
91
100
AcDbXrecord
280
     1
102
RTVSPropertyOp0
 70
     1
102
RTVSPropertyOp1
 70
     1
102
RTVSPropertyOp2
 70
     1
102
RTVSPropertyOp3
 70
     1
102
RTVSPropertyOp4
 70
     1
102
RTVSPropertyOp5
 70
     1
102
RTVSPropertyOp6
 70
     1
102
RTVSPropertyOp7
 70
     1
102
RTVSPropertyOp8
 70
     1
102
RTVSPropertyOp9
 70
     1
102
RTVSPropertyOp10
 70
     1
102
RTVSPropertyOp11
 70
     1
102
RTVSPropertyOp12
 70
     1
102
RTVSPropertyOp13
 70
     1
102
RTVSPropertyOp14
 70
     1
102
RTVSPropertyOp15
 70
     1
102
RTVSPropertyOp16
 70
     1
102
RTVSPropertyOp17
 70
     1
102
RTVSPropertyOp18
 70
     1
102
RTVSPropertyOp19
 70
     1
102
RTVSPropertyOp20
 70
     1
102
RTVSPropertyOp21
 70
     1
102
RTVSPropertyOp22
 70
     1
102
RTVSPropertyOp23
 70
     1
102
RTVSPropertyOp24
 70
     1
102
RTVSPropertyOp25
 70
     1
102
RTVSPropertyOp26
 70
     1
102
RTVSPropertyOp27
 70
     1
102
RTVSPropertyOp28
 70
     1
102
RTVSPropertyOp29
 70
     1
102
RTVSPropertyOp30
 70
     1
102
RTVSPropertyOp31
 70
     1
102
RTVSPropertyOp32
 70
     1
  0
XRECORD
  5
96
102
{ACAD_REACTORS
330
95
102
}
330
95
100
AcDbXrecord
280
     1
102
RTVSPropertyOp0
 70
     1
102
RTVSPropertyOp1
 70
     1
102
RTVSPropertyOp2
 70
     1
102
RTVSPropertyOp3
 70
     1
102
RTVSPropertyOp4
 70
     1
102
RTVSPropertyOp5
 70
     1
102
RTVSPropertyOp6
 70
     1
102
RTVSPropertyOp7
 70
     1
102
RTVSPropertyOp8
 70
     1
102
RTVSPropertyOp9
 70
     1
102
RTVSPropertyOp10
 70
     1
102
RTVSPropertyOp11
 70
     1
102
RTVSPropertyOp12
 70
     1
102
RTVSPropertyOp13
 70
     1
102
RTVSPropertyOp14
 70
     1
102
RTVSPropertyOp15
 70
     1
102
RTVSPropertyOp16
 70
     1
102
RTVSPropertyOp17
 70
     1
102
RTVSPropertyOp18
 70
     1
102
RTVSPropertyOp19
 70
     1
102
RTVSPropertyOp20
 70
     1
102
RTVSPropertyOp21
 70
     1
102
RTVSPropertyOp22
 70
     1
102
RTVSPropertyOp23
 70
     1
102
RTVSPropertyOp24
 70
     1
102
RTVSPropertyOp25
 70
     1
102
RTVSPropertyOp26
 70
     1
102
RTVSPropertyOp27
 70
     1
102
RTVSPropertyOp28
 70
     1
102
RTVSPropertyOp29
 70
     1
102
RTVSPropertyOp30
 70
     1
102
RTVSPropertyOp31
 70
     1
102
RTVSPropertyOp32
 70
     1
  0
XRECORD
  5
9E
102
{ACAD_REACTORS
330
9D
102
}
330
9D
100
AcDbXrecord
280
     1
102
RTVSPropertyOp0
 70
     1
102
RTVSPropertyOp1
 70
     1
102
RTVSPropertyOp2
 70
     1
102
RTVSPropertyOp3
 70
     1
102
RTVSPropertyOp4
 70
     1
102
RTVSPropertyOp5
 70
     1
102
RTVSPropertyOp6
 70
     1
102
RTVSPropertyOp7
 70
     1
102
RTVSPropertyOp8
 70
     1
102
RTVSPropertyOp9
 70
     1
102
RTVSPropertyOp10
 70
     1
102
RTVSPropertyOp11
 70
     1
102
RTVSPropertyOp12
 70
     1
102
RTVSPropertyOp13
 70
     1
102
RTVSPropertyOp14
 70
     1
102
RTVSPropertyOp15
 70
     1
102
RTVSPropertyOp16
 70
     1
102
RTVSPropertyOp17
 70
     1
102
RTVSPropertyOp18
 70
     1
102
RTVSPropertyOp19
 70
     1
102
RTVSPropertyOp20
 70
     1
102
RTVSPropertyOp21
 70
     1
102
RTVSPropertyOp22
 70
     1
102
RTVSPropertyOp23
 70
     1
102
RTVSPropertyOp24
 70
     1
102
RTVSPropertyOp25
 70
     1
102
RTVSPropertyOp26
 70
     1
102
RTVSPropertyOp27
 70
     1
102
RTVSPropertyOp28
 70
     1
102
RTVSPropertyOp29
 70
     1
102
RTVSPropertyOp30
 70
     1
102
RTVSPropertyOp31
 70
     1
102
RTVSPropertyOp32
 70
     1
  0
XRECORD
  5
A6
102
{ACAD_REACTORS
330
A5
102
}
330
A5
100
AcDbXrecord
280
     1
102
RTVSPropertyOp0
 70
     1
102
RTVSPropertyOp1
 70
     1
102
RTVSPropertyOp2
 70
     1
102
RTVSPropertyOp3
 70
     1
102
RTVSPropertyOp4
 70
     1
102
RTVSPropertyOp5
 70
     1
102
RTVSPropertyOp6
 70
     1
102
RTVSPropertyOp7
 70
     1
102
RTVSPropertyOp8
 70
     1
102
RTVSPropertyOp9
 70
     1
102
RTVSPropertyOp10
 70
     1
102
RTVSPropertyOp11
 70
     1
102
RTVSPropertyOp12
 70
     1
102
RTVSPropertyOp13
 70
     1
102
RTVSPropertyOp14
 70
     1
102
RTVSPropertyOp15
 70
     1
102
RTVSPropertyOp16
 70
     1
102
RTVSPropertyOp17
 70
     1
102
RTVSPropertyOp18
 70
     1
102
RTVSPropertyOp19
 70
     1
102
RTVSPropertyOp20
 70
     1
102
RTVSPropertyOp21
 70
     1
102
RTVSPropertyOp22
 70
     1
102
RTVSPropertyOp23
 70
     1
102
RTVSPropertyOp24
 70
     1
102
RTVSPropertyOp25
 70
     1
102
RTVSPropertyOp26
 70
     1
102
RTVSPropertyOp27
 70
     1
102
RTVSPropertyOp28
 70
     1
102
RTVSPropertyOp29
 70
     1
102
RTVSPropertyOp30
 70
     1
102
RTVSPropertyOp31
 70
     1
102
RTVSPropertyOp32
 70
     1
  0
XRECORD
  5
9A
102
{ACAD_REACTORS
330
99
102
}
330
99
100
AcDbXrecord
280
     1
102
RTVSPropertyOp0
 70
     1
102
RTVSPropertyOp1
 70
     1
102
RTVSPropertyOp2
 70
     1
102
RTVSPropertyOp3
 70
     1
102
RTVSPropertyOp4
 70
     1
102
RTVSPropertyOp5
 70
     1
102
RTVSPropertyOp6
 70
     1
102
RTVSPropertyOp7
 70
     1
102
RTVSPropertyOp8
 70
     1
102
RTVSPropertyOp9
 70
     1
102
RTVSPropertyOp10
 70
     1
102
RTVSPropertyOp11
 70
     1
102
RTVSPropertyOp12
 70
     1
102
RTVSPropertyOp13
 70
     1
102
RTVSPropertyOp14
 70
     1
102
RTVSPropertyOp15
 70
     1
102
RTVSPropertyOp16
 70
     1
102
RTVSPropertyOp17
 70
     1
102
RTVSPropertyOp18
 70
     1
102
RTVSPropertyOp19
 70
     1
102
RTVSPropertyOp20
 70
     1
102
RTVSPropertyOp21
 70
     1
102
RTVSPropertyOp22
 70
     1
102
RTVSPropertyOp23
 70
     1
102
RTVSPropertyOp24
 70
     1
102
RTVSPropertyOp25
 70
     1
102
RTVSPropertyOp26
 70
     1
102
RTVSPropertyOp27
 70
     1
102
RTVSPropertyOp28
 70
     1
102
RTVSPropertyOp29
 70
     1
102
RTVSPropertyOp30
 70
     1
102
RTVSPropertyOp31
 70
     1
102
RTVSPropertyOp32
 70
     1
  0
XRECORD
  5
9C
102
{ACAD_REACTORS
330
9B
102
}
330
9B
100
AcDbXrecord
280
     1
102
RTVSPropertyOp0
 70
     1
102
RTVSPropertyOp1
 70
     1
102
RTVSPropertyOp2
 70
     1
102
RTVSPropertyOp3
 70
     1
102
RTVSPropertyOp4
 70
     1
102
RTVSPropertyOp5
 70
     1
102
RTVSPropertyOp6
 70
     1
102
RTVSPropertyOp7
 70
     1
102
RTVSPropertyOp8
 70
     1
102
RTVSPropertyOp9
 70
     1
102
RTVSPropertyOp10
 70
     1
102
RTVSPropertyOp11
 70
     1
102
RTVSPropertyOp12
 70
     1
102
RTVSPropertyOp13
 70
     1
102
RTVSPropertyOp14
 70
     1
102
RTVSPropertyOp15
 70
     1
102
RTVSPropertyOp16
 70
     1
102
RTVSPropertyOp17
 70
     1
102
RTVSPropertyOp18
 70
     1
102
RTVSPropertyOp19
 70
     1
102
RTVSPropertyOp20
 70
     1
102
RTVSPropertyOp21
 70
     1
102
RTVSPropertyOp22
 70
     1
102
RTVSPropertyOp23
 70
     1
102
RTVSPropertyOp24
 70
     1
102
RTVSPropertyOp25
 70
     1
102
RTVSPropertyOp26
 70
     1
102
RTVSPropertyOp27
 70
     1
102
RTVSPropertyOp28
 70
     1
102
RTVSPropertyOp29
 70
     1
102
RTVSPropertyOp30
 70
     1
102
RTVSPropertyOp31
 70
     1
102
RTVSPropertyOp32
 70
     1
  0
XRECORD
  5
A4
102
{ACAD_REACTORS
330
A3
102
}
330
A3
100
AcDbXrecord
280
     1
102
RTVSPropertyOp0
 70
     1
102
RTVSPropertyOp1
 70
     1
102
RTVSPropertyOp2
 70
     1
102
RTVSPropertyOp3
 70
     1
102
RTVSPropertyOp4
 70
     1
102
RTVSPropertyOp5
 70
     1
102
RTVSPropertyOp6
 70
     1
102
RTVSPropertyOp7
 70
     1
102
RTVSPropertyOp8
 70
     1
102
RTVSPropertyOp9
 70
     1
102
RTVSPropertyOp10
 70
     1
102
RTVSPropertyOp11
 70
     1
102
RTVSPropertyOp12
 70
     1
102
RTVSPropertyOp13
 70
     1
102
RTVSPropertyOp14
 70
     1
102
RTVSPropertyOp15
 70
     1
102
RTVSPropertyOp16
 70
     1
102
RTVSPropertyOp17
 70
     1
102
RTVSPropertyOp18
 70
     1
102
RTVSPropertyOp19
 70
     1
102
RTVSPropertyOp20
 70
     1
102
RTVSPropertyOp21
 70
     1
102
RTVSPropertyOp22
 70
     1
102
RTVSPropertyOp23
 70
     1
102
RTVSPropertyOp24
 70
     1
102
RTVSPropertyOp25
 70
     1
102
RTVSPropertyOp26
 70
     1
102
RTVSPropertyOp27
 70
     1
102
RTVSPropertyOp28
 70
     1
102
RTVSPropertyOp29
 70
     1
102
RTVSPropertyOp30
 70
     1
102
RTVSPropertyOp31
 70
     1
102
RTVSPropertyOp32
 70
     1
  0
XRECORD
  5
88
102
{ACAD_REACTORS
330
87
102
}
330
87
100
AcDbXrecord
280
     1
102
RTVSPropertyOp0
 70
     1
102
RTVSPropertyOp1
 70
     1
102
RTVSPropertyOp2
 70
     1
102
RTVSPropertyOp3
 70
     1
102
RTVSPropertyOp4
 70
     1
102
RTVSPropertyOp5
 70
     1
102
RTVSPropertyOp6
 70
     1
102
RTVSPropertyOp7
 70
     1
102
RTVSPropertyOp8
 70
     1
102
RTVSPropertyOp9
 70
     1
102
RTVSPropertyOp10
 70
     1
102
RTVSPropertyOp11
 70
     1
102
RTVSPropertyOp12
 70
     1
102
RTVSPropertyOp13
 70
     1
102
RTVSPropertyOp14
 70
     1
102
RTVSPropertyOp15
 70
     1
102
RTVSPropertyOp16
 70
     1
102
RTVSPropertyOp17
 70
     1
102
RTVSPropertyOp18
 70
     1
102
RTVSPropertyOp19
 70
     1
102
RTVSPropertyOp20
 70
     1
102
RTVSPropertyOp21
 70
     1
102
RTVSPropertyOp22
 70
     1
102
RTVSPropertyOp23
 70
     1
102
RTVSPropertyOp24
 70
     1
102
RTVSPropertyOp25
 70
     1
102
RTVSPropertyOp26
 70
     1
102
RTVSPropertyOp27
 70
     1
102
RTVSPropertyOp28
 70
     1
102
RTVSPropertyOp29
 70
     1
102
RTVSPropertyOp30
 70
     1
102
RTVSPropertyOp31
 70
     1
102
RTVSPropertyOp32
 70
     1
  0
XRECORD
  5
8A
102
{ACAD_REACTORS
330
89
102
}
330
89
100
AcDbXrecord
280
     1
102
RTVSPropertyOp0
 70
     1
102
RTVSPropertyOp1
 70
     1
102
RTVSPropertyOp2
 70
     1
102
RTVSPropertyOp3
 70
     1
102
RTVSPropertyOp4
 70
     1
102
RTVSPropertyOp5
 70
     1
102
RTVSPropertyOp6
 70
     1
102
RTVSPropertyOp7
 70
     1
102
RTVSPropertyOp8
 70
     1
102
RTVSPropertyOp9
 70
     1
102
RTVSPropertyOp10
 70
     1
102
RTVSPropertyOp11
 70
     1
102
RTVSPropertyOp12
 70
     1
102
RTVSPropertyOp13
 70
     1
102
RTVSPropertyOp14
 70
     1
102
RTVSPropertyOp15
 70
     1
102
RTVSPropertyOp16
 70
     1
102
RTVSPropertyOp17
 70
     1
102
RTVSPropertyOp18
 70
     1
102
RTVSPropertyOp19
 70
     1
102
RTVSPropertyOp20
 70
     1
102
RTVSPropertyOp21
 70
     1
102
RTVSPropertyOp22
 70
     1
102
RTVSPropertyOp23
 70
     1
102
RTVSPropertyOp24
 70
     1
102
RTVSPropertyOp25
 70
     1
102
RTVSPropertyOp26
 70
     1
102
RTVSPropertyOp27
 70
     1
102
RTVSPropertyOp28
 70
     1
102
RTVSPropertyOp29
 70
     1
102
RTVSPropertyOp30
 70
     1
102
RTVSPropertyOp31
 70
     1
102
RTVSPropertyOp32
 70
     1
  0
XRECORD
  5
8C
102
{ACAD_REACTORS
330
8B
102
}
330
8B
100
AcDbXrecord
280
     1
102
RTVSPropertyOp0
 70
     1
102
RTVSPropertyOp1
 70
     1
102
RTVSPropertyOp2
 70
     1
102
RTVSPropertyOp3
 70
     1
102
RTVSPropertyOp4
 70
     1
102
RTVSPropertyOp5
 70
     1
102
RTVSPropertyOp6
 70
     1
102
RTVSPropertyOp7
 70
     1
102
RTVSPropertyOp8
 70
     1
102
RTVSPropertyOp9
 70
     1
102
RTVSPropertyOp10
 70
     1
102
RTVSPropertyOp11
 70
     1
102
RTVSPropertyOp12
 70
     1
102
RTVSPropertyOp13
 70
     1
102
RTVSPropertyOp14
 70
     1
102
RTVSPropertyOp15
 70
     1
102
RTVSPropertyOp16
 70
     1
102
RTVSPropertyOp17
 70
     1
102
RTVSPropertyOp18
 70
     1
102
RTVSPropertyOp19
 70
     1
102
RTVSPropertyOp20
 70
     1
102
RTVSPropertyOp21
 70
     1
102
RTVSPropertyOp22
 70
     1
102
RTVSPropertyOp23
 70
     1
102
RTVSPropertyOp24
 70
     1
102
RTVSPropertyOp25
 70
     1
102
RTVSPropertyOp26
 70
     1
102
RTVSPropertyOp27
 70
     1
102
RTVSPropertyOp28
 70
     1
102
RTVSPropertyOp29
 70
     1
102
RTVSPropertyOp30
 70
     1
102
RTVSPropertyOp31
 70
     1
102
RTVSPropertyOp32
 70
     1
  0
XRECORD
  5
8E
102
{ACAD_REACTORS
330
8D
102
}
330
8D
100
AcDbXrecord
280
     1
102
RTVSPropertyOp0
 70
     1
102
RTVSPropertyOp1
 70
     1
102
RTVSPropertyOp2
 70
     1
102
RTVSPropertyOp3
 70
     1
102
RTVSPropertyOp4
 70
     1
102
RTVSPropertyOp5
 70
     1
102
RTVSPropertyOp6
 70
     1
102
RTVSPropertyOp7
 70
     1
102
RTVSPropertyOp8
 70
     1
102
RTVSPropertyOp9
 70
     1
102
RTVSPropertyOp10
 70
     1
102
RTVSPropertyOp11
 70
     1
102
RTVSPropertyOp12
 70
     1
102
RTVSPropertyOp13
 70
     1
102
RTVSPropertyOp14
 70
     1
102
RTVSPropertyOp15
 70
     1
102
RTVSPropertyOp16
 70
     1
102
RTVSPropertyOp17
 70
     1
102
RTVSPropertyOp18
 70
     1
102
RTVSPropertyOp19
 70
     1
102
RTVSPropertyOp20
 70
     1
102
RTVSPropertyOp21
 70
     1
102
RTVSPropertyOp22
 70
     1
102
RTVSPropertyOp23
 70
     1
102
RTVSPropertyOp24
 70
     1
102
RTVSPropertyOp25
 70
     1
102
RTVSPropertyOp26
 70
     1
102
RTVSPropertyOp27
 70
     1
102
RTVSPropertyOp28
 70
     1
102
RTVSPropertyOp29
 70
     1
102
RTVSPropertyOp30
 70
     1
102
RTVSPropertyOp31
 70
     1
102
RTVSPropertyOp32
 70
     1
  0
XRECORD
  5
A2
102
{ACAD_REACTORS
330
A1
102
}
330
A1
100
AcDbXrecord
280
     1
102
RTVSPropertyOp0
 70
     1
102
RTVSPropertyOp1
 70
     1
102
RTVSPropertyOp2
 70
     1
102
RTVSPropertyOp3
 70
     1
102
RTVSPropertyOp4
 70
     1
102
RTVSPropertyOp5
 70
     1
102
RTVSPropertyOp6
 70
     1
102
RTVSPropertyOp7
 70
     1
102
RTVSPropertyOp8
 70
     1
102
RTVSPropertyOp9
 70
     1
102
RTVSPropertyOp10
 70
     1
102
RTVSPropertyOp11
 70
     1
102
RTVSPropertyOp12
 70
     1
102
RTVSPropertyOp13
 70
     1
102
RTVSPropertyOp14
 70
     1
102
RTVSPropertyOp15
 70
     1
102
RTVSPropertyOp16
 70
     1
102
RTVSPropertyOp17
 70
     1
102
RTVSPropertyOp18
 70
     1
102
RTVSPropertyOp19
 70
     1
102
RTVSPropertyOp20
 70
     1
102
RTVSPropertyOp21
 70
     1
102
RTVSPropertyOp22
 70
     1
102
RTVSPropertyOp23
 70
     1
102
RTVSPropertyOp24
 70
     1
102
RTVSPropertyOp25
 70
     1
102
RTVSPropertyOp26
 70
     1
102
RTVSPropertyOp27
 70
     1
102
RTVSPropertyOp28
 70
     1
102
RTVSPropertyOp29
 70
     1
102
RTVSPropertyOp30
 70
     1
102
RTVSPropertyOp31
 70
     1
102
RTVSPropertyOp32
 70
     1
  0
XRECORD
  5
98
102
{ACAD_REACTORS
330
97
102
}
330
97
100
AcDbXrecord
280
     1
102
RTVSPropertyOp0
 70
     1
102
RTVSPropertyOp1
 70
     1
102
RTVSPropertyOp2
 70
     1
102
RTVSPropertyOp3
 70
     1
102
RTVSPropertyOp4
 70
     1
102
RTVSPropertyOp5
 70
     1
102
RTVSPropertyOp6
 70
     1
102
RTVSPropertyOp7
 70
     1
102
RTVSPropertyOp8
 70
     1
102
RTVSPropertyOp9
 70
     1
102
RTVSPropertyOp10
 70
     1
102
RTVSPropertyOp11
 70
     1
102
RTVSPropertyOp12
 70
     1
102
RTVSPropertyOp13
 70
     1
102
RTVSPropertyOp14
 70
     1
102
RTVSPropertyOp15
 70
     1
102
RTVSPropertyOp16
 70
     1
102
RTVSPropertyOp17
 70
     1
102
RTVSPropertyOp18
 70
     1
102
RTVSPropertyOp19
 70
     1
102
RTVSPropertyOp20
 70
     1
102
RTVSPropertyOp21
 70
     1
102
RTVSPropertyOp22
 70
     1
102
RTVSPropertyOp23
 70
     1
102
RTVSPropertyOp24
 70
     1
102
RTVSPropertyOp25
 70
     1
102
RTVSPropertyOp26
 70
     1
102
RTVSPropertyOp27
 70
     1
102
RTVSPropertyOp28
 70
     1
102
RTVSPropertyOp29
 70
     1
102
RTVSPropertyOp30
 70
     1
102
RTVSPropertyOp31
 70
     1
102
RTVSPropertyOp32
 70
     1
  0
XRECORD
  5
A0
102
{ACAD_REACTORS
330
9F
102
}
330
9F
100
AcDbXrecord
280
     1
102
RTVSPropertyOp0
 70
     1
102
RTVSPropertyOp1
 70
     1
102
RTVSPropertyOp2
 70
     1
102
RTVSPropertyOp3
 70
     1
102
RTVSPropertyOp4
 70
     1
102
RTVSPropertyOp5
 70
     1
102
RTVSPropertyOp6
 70
     1
102
RTVSPropertyOp7
 70
     1
102
RTVSPropertyOp8
 70
     1
102
RTVSPropertyOp9
 70
     1
102
RTVSPropertyOp10
 70
     1
102
RTVSPropertyOp11
 70
     1
102
RTVSPropertyOp12
 70
     1
102
RTVSPropertyOp13
 70
     1
102
RTVSPropertyOp14
 70
     1
102
RTVSPropertyOp15
 70
     1
102
RTVSPropertyOp16
 70
     1
102
RTVSPropertyOp17
 70
     1
102
RTVSPropertyOp18
 70
     1
102
RTVSPropertyOp19
 70
     1
102
RTVSPropertyOp20
 70
     1
102
RTVSPropertyOp21
 70
     1
102
RTVSPropertyOp22
 70
     1
102
RTVSPropertyOp23
 70
     1
102
RTVSPropertyOp24
 70
     1
102
RTVSPropertyOp25
 70
     1
102
RTVSPropertyOp26
 70
     1
102
RTVSPropertyOp27
 70
     1
102
RTVSPropertyOp28
 70
     1
102
RTVSPropertyOp29
 70
     1
102
RTVSPropertyOp30
 70
     1
102
RTVSPropertyOp31
 70
     1
102
RTVSPropertyOp32
 70
     1
  0
ENDSEC
  0
EOF
