  0
SECTION
  2
HEADER
  9
$ACADVER
  1
AC1021
  9
$ACADMAINTVER
 70
    25
  9
$DWGCODEPAGE
  3
ANSI_1252
  9
$INSBASE
 10
0.0
 20
0.0
 30
0.0
  9
$EXTMIN
 10
22.8599
 20
-112.9606
 30
0.0
  9
$EXTMAX
 10
131.9794
 20
129.4131
 30
0.0
  9
$LIMMIN
 10
0.0
 20
0.0
  9
$LIMMAX
 10
12.0
 20
9.0
  9
$ORTHOMODE
 70
     0
  9
$REGENMODE
 70
     1
  9
$FILLMODE
 70
     1
  9
$QTEXTMODE
 70
     0
  9
$MIRRTEXT
 70
     1
  9
$LTSCALE
 40
1.0
  9
$ATTMODE
 70
     1
  9
$TEXTSIZE
 40
0.2
  9
$TRACEWID
 40
0.05
  9
$TEXTSTYLE
  7
Standard
  9
$CLAYER
  8
0
  9
$CELTYPE
  6
ByLayer
  9
$CECOLOR
 62
   256
  9
$CELTSCALE
 40
1.0
  9
$DISPSILH
 70
     0
  9
$DIMSCALE
 40
1.0
  9
$DIMASZ
 40
0.18
  9
$DIMEXO
 40
0.0625
  9
$DIMDLI
 40
0.38
  9
$DIMRND
 40
0.0
  9
$DIMDLE
 40
0.0
  9
$DIMEXE
 40
0.18
  9
$DIMTP
 40
0.0
  9
$DIMTM
 40
0.0
  9
$DIMTXT
 40
0.18
  9
$DIMCEN
 40
0.09
  9
$DIMTSZ
 40
0.0
  9
$DIMTOL
 70
     0
  9
$DIMLIM
 70
     0
  9
$DIMTIH
 70
     1
  9
$DIMTOH
 70
     1
  9
$DIMSE1
 70
     0
  9
$DIMSE2
 70
     0
  9
$DIMTAD
 70
     0
  9
$DIMZIN
 70
     0
  9
$DIMBLK
  1

  9
$DIMASO
 70
     1
  9
$DIMSHO
 70
     1
  9
$DIMPOST
  1

  9
$DIMAPOST
  1

  9
$DIMALT
 70
     0
  9
$DIMALTD
 70
     2
  9
$DIMALTF
 40
25.4
  9
$DIMLFAC
 40
1.0
  9
$DIMTOFL
 70
     0
  9
$DIMTVP
 40
0.0
  9
$DIMTIX
 70
     0
  9
$DIMSOXD
 70
     0
  9
$DIMSAH
 70
     0
  9
$DIMBLK1
  1

  9
$DIMBLK2
  1

  9
$DIMSTYLE
  2
Standard
  9
$DIMCLRD
 70
     0
  9
$DIMCLRE
 70
     0
  9
$DIMCLRT
 70
     0
  9
$DIMTFAC
 40
1.0
  9
$DIMGAP
 40
0.09
  9
$DIMJUST
 70
     0
  9
$DIMSD1
 70
     0
  9
$DIMSD2
 70
     0
  9
$DIMTOLJ
 70
     1
  9
$DIMTZIN
 70
     0
  9
$DIMALTZ
 70
     0
  9
$DIMALTTZ
 70
     0
  9
$DIMUPT
 70
     0
  9
$DIMDEC
 70
     4
  9
$DIMTDEC
 70
     4
  9
$DIMALTU
 70
     2
  9
$DIMALTTD
 70
     2
  9
$DIMTXSTY
  7
Standard
  9
$DIMAUNIT
 70
     0
  9
$DIMADEC
 70
     0
  9
$DIMALTRND
 40
0.0
  9
$DIMAZIN
 70
     0
  9
$DIMDSEP
 70
    46
  9
$DIMATFIT
 70
     3
  9
$DIMFRAC
 70
     0
  9
$DIMLDRBLK
  1

  9
$DIMLUNIT
 70
     2
  9
$DIMLWD
 70
    -2
  9
$DIMLWE
 70
    -2
  9
$DIMTMOVE
 70
     0
  9
$DIMFXL
 40
1.0
  9
$DIMFXLON
 70
     0
  9
$DIMJOGANG
 40
0.7853981633974483
  9
$DIMTFILL
 70
     0
  9
$DIMTFILLCLR
 70
     0
  9
$DIMARCSYM
 70
     0
  9
$DIMLTYPE
  6

  9
$DIMLTEX1
  6

  9
$DIMLTEX2
  6

  9
$LUNITS
 70
     2
  9
$LUPREC
 70
     4
  9
$SKETCHINC
 40
0.1
  9
$FILLETRAD
 40
0.5
  9
$AUNITS
 70
     0
  9
$AUPREC
 70
     0
  9
$MENU
  1
.
  9
$ELEVATION
 40
0.0
  9
$PELEVATION
 40
0.0
  9
$THICKNESS
 40
0.0
  9
$LIMCHECK
 70
     0
  9
$CHAMFERA
 40
0.5
  9
$CHAMFERB
 40
0.5
  9
$CHAMFERC
 40
1.0
  9
$CHAMFERD
 40
0.0
  9
$SKPOLY
 70
     0
  9
$TDCREATE
 40
2458492.628933368
  9
$TDUCREATE
 40
2458492.628933368
  9
$TDUPDATE
 40
2458492.62893346
  9
$TDUUPDATE
 40
2458492.62893346
  9
$TDINDWG
 40
0.0000000116
  9
$TDUSRTIMER
 40
0.0000000116
  9
$USRTIMER
 70
     1
  9
$ANGBASE
 50
0.0
  9
$ANGDIR
 70
     0
  9
$PDMODE
 70
     0
  9
$PDSIZE
 40
0.0
  9
$PLINEWID
 40
0.0
  9
$SPLFRAME
 70
     0
  9
$SPLINETYPE
 70
     6
  9
$SPLINESEGS
 70
     8
  9
$HANDSEED
  5
88
  9
$SURFTAB1
 70
     6
  9
$SURFTAB2
 70
     6
  9
$SURFTYPE
 70
     6
  9
$SURFU
 70
     6
  9
$SURFV
 70
     6
  9
$UCSBASE
  2

  9
$UCSNAME
  2

  9
$UCSORG
 10
0.0
 20
0.0
 30
0.0
  9
$UCSXDIR
 10
1.0
 20
0.0
 30
0.0
  9
$UCSYDIR
 10
0.0
 20
1.0
 30
0.0
  9
$UCSORTHOREF
  2

  9
$UCSORTHOVIEW
 70
     0
  9
$UCSORGTOP
 10
0.0
 20
0.0
 30
0.0
  9
$UCSORGBOTTOM
 10
0.0
 20
0.0
 30
0.0
  9
$UCSORGLEFT
 10
0.0
 20
0.0
 30
0.0
  9
$UCSORGRIGHT
 10
0.0
 20
0.0
 30
0.0
  9
$UCSORGFRONT
 10
0.0
 20
0.0
 30
0.0
  9
$UCSORGBACK
 10
0.0
 20
0.0
 30
0.0
  9
$PUCSBASE
  2

  9
$PUCSNAME
  2

  9
$PUCSORG
 10
0.0
 20
0.0
 30
0.0
  9
$PUCSXDIR
 10
1.0
 20
0.0
 30
0.0
  9
$PUCSYDIR
 10
0.0
 20
1.0
 30
0.0
  9
$PUCSORTHOREF
  2

  9
$PUCSORTHOVIEW
 70
     0
  9
$PUCSORGTOP
 10
0.0
 20
0.0
 30
0.0
  9
$PUCSORGBOTTOM
 10
0.0
 20
0.0
 30
0.0
  9
$PUCSORGLEFT
 10
0.0
 20
0.0
 30
0.0
  9
$PUCSORGRIGHT
 10
0.0
 20
0.0
 30
0.0
  9
$PUCSORGFRONT
 10
0.0
 20
0.0
 30
0.0
  9
$PUCSORGBACK
 10
0.0
 20
0.0
 30
0.0
  9
$USERI1
 70
     0
  9
$USERI2
 70
     0
  9
$USERI3
 70
     0
  9
$USERI4
 70
     0
  9
$USERI5
 70
     0
  9
$USERR1
 40
0.0
  9
$USERR2
 40
0.0
  9
$USERR3
 40
0.0
  9
$USERR4
 40
0.0
  9
$USERR5
 40
0.0
  9
$WORLDVIEW
 70
     1
  9
$SHADEDGE
 70
     3
  9
$SHADEDIF
 70
    70
  9
$TILEMODE
 70
     1
  9
$MAXACTVP
 70
    64
  9
$PINSBASE
 10
0.0
 20
0.0
 30
0.0
  9
$PLIMCHECK
 70
     0
  9
$PEXTMIN
 10
1.000000000000000E+20
 20
1.000000000000000E+20
 30
1.000000000000000E+20
  9
$PEXTMAX
 10
-1.000000000000000E+20
 20
-1.000000000000000E+20
 30
-1.000000000000000E+20
  9
$PLIMMIN
 10
0.0
 20
0.0
  9
$PLIMMAX
 10
12.0
 20
9.0
  9
$UNITMODE
 70
     0
  9
$VISRETAIN
 70
     1
  9
$PLINEGEN
 70
     0
  9
$PSLTSCALE
 70
     1
  9
$TREEDEPTH
 70
  3020
  9
$CMLSTYLE
  2
Standard
  9
$CMLJUST
 70
     0
  9
$CMLSCALE
 40
1.0
  9
$PROXYGRAPHICS
 70
     1
  9
$MEASUREMENT
 70
     0
  9
$CELWEIGHT
370
    -1
  9
$ENDCAPS
280
     0
  9
$JOINSTYLE
280
     0
  9
$LWDISPLAY
290
     0
  9
$INSUNITS
 70
     4
  9
$HYPERLINKBASE
  1

  9
$STYLESHEET
  1

  9
$XEDIT
290
     1
  9
$CEPSNTYPE
380
     0
  9
$PSTYLEMODE
290
     1
  9
$FINGERPRINTGUID
  2
{0D0C9C4F-4D2C-4266-8A4A-F626BDE01192}
  9
$VERSIONGUID
  2
{FAEB1C32-E019-11D5-929B-00C0DF256EC4}
  9
$EXTNAMES
290
     1
  9
$PSVPSCALE
 40
0.0
  9
$OLESTARTUP
290
     0
  9
$SORTENTS
280
   127
  9
$INDEXCTL
280
     0
  9
$HIDETEXT
280
     1
  9
$XCLIPFRAME
290
     0
  9
$HALOGAP
280
     0
  9
$OBSCOLOR
 70
   257
  9
$OBSLTYPE
280
     0
  9
$INTERSECTIONDISPLAY
280
     0
  9
$INTERSECTIONCOLOR
 70
   257
  9
$DIMASSOC
280
     2
  9
$PROJECTNAME
  1

  9
$CAMERADISPLAY
290
     0
  9
$LENSLENGTH
 40
50.0
  9
$CAMERAHEIGHT
 40
0.0
  9
$STEPSPERSEC
 40
2.0
  9
$STEPSIZE
 40
6.0
  9
$3DDWFPREC
 40
2.0
  9
$PSOLWIDTH
 40
0.25
  9
$PSOLHEIGHT
 40
4.0
  9
$LOFTANG1
 40
1.570796326794897
  9
$LOFTANG2
 40
1.570796326794897
  9
$LOFTMAG1
 40
0.0
  9
$LOFTMAG2
 40
0.0
  9
$LOFTPARAM
 70
     7
  9
$LOFTNORMALS
280
     1
  9
$LATITUDE
 40
37.795
  9
$LONGITUDE
 40
-122.394
  9
$NORTHDIRECTION
 40
0.0
  9
$TIMEZONE
 70
 -8000
  9
$LIGHTGLYPHDISPLAY
280
     1
  9
$TILEMODELIGHTSYNCH
280
     1
  9
$SOLIDHIST
280
     1
  9
$SHOWHIST
280
     1
  9
$DWFFRAME
280
     2
  9
$DGNFRAME
280
     2
  9
$REALWORLDSCALE
290
     1
  9
$INTERFERECOLOR
 62
   256
  9
$CSHADOW
280
     0
  9
$SHADOWPLANELOCATION
 40
0.0
  0
ENDSEC
  0
SECTION
  2
CLASSES
  0
CLASS
  1
ACDBDICTIONARYWDFLT
  2
AcDbDictionaryWithDefault
  3
ObjectDBX Classes
 90
        0
 91
        4
280
     0
281
     0
  0
CLASS
  1
VISUALSTYLE
  2
AcDbVisualStyle
  3
ObjectDBX Classes
 90
     4095
 91
        4
280
     0
281
     0
  0
CLASS
  1
MATERIAL
  2
AcDbMaterial
  3
ObjectDBX Classes
 90
     1153
 91
        4
280
     0
281
     0
  0
ENDSEC
  0
SECTION
  2
TABLES
  0
TABLE
  2
VPORT
  5
8
330
0
100
AcDbSymbolTable
 70
     1
  0
VPORT
  5
29
330
8
100
AcDbSymbolTableRecord
100
AcDbViewportTableRecord
  2
*Active
 70
     0
 10
0.0
 20
0.0
 11
1.0
 21
1.0
 12
10.42990654205607
 22
4.5
 13
0.0
 23
0.0
 14
0.5
 24
0.5
 15
0.5
 25
0.5
 16
0.0
 26
0.0
 36
1.0
 17
0.0
 27
0.0
 37
0.0
 40
9.0
 41
1.972972972850329
 42
50.0
 43
0.0
 44
0.0
 50
0.0
 51
0.0
 71
     0
 72
   100
 73
     1
 74
     3
 75
     0
 76
     0
 77
     0
 78
     0
281
     0
 65
     1
110
0.0
120
0.0
130
0.0
111
1.0
121
0.0
131
0.0
112
0.0
122
1.0
132
0.0
 79
     0
146
0.0
 60
     3
 61
     5
292
     1
282
     1
141
0.0
142
0.0
 63
   250
  0
ENDTAB
  0
TABLE
  2
LTYPE
  5
5
330
0
100
AcDbSymbolTable
 70
     1
  0
LTYPE
  5
14
330
5
100
AcDbSymbolTableRecord
100
AcDbLinetypeTableRecord
  2
ByBlock
 70
     0
  3

 72
    65
 73
     0
 40
0.0
  0
LTYPE
  5
15
330
5
100
AcDbSymbolTableRecord
100
AcDbLinetypeTableRecord
  2
ByLayer
 70
     0
  3

 72
    65
 73
     0
 40
0.0
  0
LTYPE
  5
16
330
5
100
AcDbSymbolTableRecord
100
AcDbLinetypeTableRecord
  2
Continuous
 70
     0
  3
Solid line
 72
    65
 73
     0
 40
0.0
  0
ENDTAB
  0
TABLE
  2
LAYER
  5
2
330
0
100
AcDbSymbolTable
 70
     3
  0
LAYER
  5
10
330
2
100
AcDbSymbolTableRecord
100
AcDbLayerTableRecord
  2
0
 70
     0
 62
     7
  6
Continuous
370
    -3
390
F
347
3E
  0
LAYER
  5
40
330
2
100
AcDbSymbolTableRecord
100
AcDbLayerTableRecord
  2
layer 1
 70
     0
 62
     7
  6
Continuous
370
    -3
390
F
347
3E
  0
LAYER
  5
65
330
2
100
AcDbSymbolTableRecord
100
AcDbLayerTableRecord
  2
Master Guides
 70
     0
 62
     7
  6
Continuous
370
    -3
390
F
347
3E
  0
ENDTAB
  0
TABLE
  2
STYLE
  5
3
330
0
100
AcDbSymbolTable
 70
     1
  0
STYLE
  5
11
330
3
100
AcDbSymbolTableRecord
100
AcDbTextStyleTableRecord
  2
Standard
 70
     0
 40
0.0
 41
1.0
 50
0.0
 71
     0
 42
0.2
  3
txt
  4

  0
ENDTAB
  0
TABLE
  2
VIEW
  5
6
330
0
100
AcDbSymbolTable
 70
     0
  0
ENDTAB
  0
TABLE
  2
UCS
  5
7
330
0
100
AcDbSymbolTable
 70
     0
  0
ENDTAB
  0
TABLE
  2
APPID
  5
9
330
0
100
AcDbSymbolTable
 70
     2
  0
APPID
  5
12
330
9
100
AcDbSymbolTableRecord
100
AcDbRegAppTableRecord
  2
ACAD
 70
     0
  0
APPID
  5
3F
330
9
100
AcDbSymbolTableRecord
100
AcDbRegAppTableRecord
  2
ODA
 70
     0
  0
ENDTAB
  0
TABLE
  2
DIMSTYLE
  5
A
330
0
100
AcDbSymbolTable
 70
     1
100
AcDbDimStyleTable
  0
DIMSTYLE
105
27
330
A
100
AcDbSymbolTableRecord
100
AcDbDimStyleTableRecord
  2
Standard
 70
     0
178
     0
340
11
  0
ENDTAB
  0
TABLE
  2
BLOCK_RECORD
  5
1
330
0
100
AcDbSymbolTable
 70
     1
  0
BLOCK_RECORD
  5
1F
330
1
100
AcDbSymbolTableRecord
100
AcDbBlockTableRecord
  2
*Model_Space
340
22
 70
     0
280
     1
281
     0
  0
BLOCK_RECORD
  5
1B
330
1
100
AcDbSymbolTableRecord
100
AcDbBlockTableRecord
  2
*Paper_Space
340
1E
 70
     0
280
     1
281
     0
  0
BLOCK_RECORD
  5
23
330
1
100
AcDbSymbolTableRecord
100
AcDbBlockTableRecord
  2
*Paper_Space0
340
26
 70
     0
280
     1
281
     0
  0
ENDTAB
  0
ENDSEC
  0
SECTION
  2
BLOCKS
  0
BLOCK
  5
20
330
1F
100
AcDbEntity
  8
0
100
AcDbBlockBegin
  2
*Model_Space
 70
     0
 10
0.0
 20
0.0
 30
0.0
  3
*Model_Space
  1

  0
ENDBLK
  5
21
330
1F
100
AcDbEntity
  8
0
100
AcDbBlockEnd
  0
BLOCK
  5
1C
330
1B
100
AcDbEntity
 67
     1
  8
0
100
AcDbBlockBegin
  2
*Paper_Space
 70
     0
 10
0.0
 20
0.0
 30
0.0
  3
*Paper_Space
  1

  0
ENDBLK
  5
1D
330
1B
100
AcDbEntity
 67
     1
  8
0
100
AcDbBlockEnd
  0
BLOCK
  5
24
330
23
100
AcDbEntity
  8
0
100
AcDbBlockBegin
  2
*Paper_Space0
 70
     0
 10
0.0
 20
0.0
 30
0.0
  3
*Paper_Space0
  1

  0
ENDBLK
  5
25
330
23
100
AcDbEntity
  8
0
100
AcDbBlockEnd
  0
ENDSEC
  0
SECTION
  2
ENTITIES
  0
SPLINE
  5
41
330
1F
100
AcDbEntity
  8
layer 1
370
     9
100
AcDbSpline
210
0.0
220
0.0
230
1.0
 70
    11
 71
     3
 72
    36
 73
    32
 74
     0
 42
0.0000000001
 43
0.0000000001
 12
1.0
 22
0.0
 32
0.0
 13
1.0
 23
0.0
 33
0.0
 40
0.0
 40
0.0
 40
0.0
 40
0.0
 40
0.1111111111111111
 40
0.1111111111111111
 40
0.1111111111111111
 40
0.1111111111111111
 40
0.2222222222222222
 40
0.2222222222222222
 40
0.2222222222222222
 40
0.2222222222222222
 40
0.3333333333333333
 40
0.3333333333333333
 40
0.3333333333333333
 40
0.3333333333333333
 40
0.4444444444444444
 40
0.4444444444444444
 40
0.4444444444444444
 40
0.4444444444444444
 40
0.5555555555555556
 40
0.5555555555555556
 40
0.5555555555555556
 40
0.5555555555555556
 40
0.6666666666666666
 40
0.6666666666666666
 40
0.6666666666666666
 40
0.6666666666666666
 40
0.7777777777777778
 40
0.7777777777777778
 40
0.7777777777777778
 40
0.7777777777777778
 40
1.0
 40
1.0
 40
1.0
 40
1.0
 10
131.9413
 20
27.4376
 30
0.0
 10
131.9413
 20
27.4376
 30
0.0
 10
131.9413
 20
-112.9225
 30
0.0
 10
131.9413
 20
-112.9225
 30
0.0
 10
131.9413
 20
-112.9225
 30
0.0
 10
131.9413
 20
-112.9225
 30
0.0
 10
22.898
 20
-112.9225
 30
0.0
 10
22.898
 20
-112.9225
 30
0.0
 10
22.898
 20
-112.9225
 30
0.0
 10
22.898
 20
-112.9225
 30
0.0
 10
22.898
 20
27.4376
 30
0.0
 10
22.898
 20
27.4376
 30
0.0
 10
22.898
 20
27.4376
 30
0.0
 10
22.898
 20
27.4376
 30
0.0
 10
22.898
 20
27.4453
 30
0.0
 10
22.898
 20
27.4453
 30
0.0
 10
22.898
 20
27.4453
 30
0.0
 10
22.898
 20
27.4453
 30
0.0
 10
22.898
 20
129.375
 30
0.0
 10
22.898
 20
129.375
 30
0.0
 10
22.898
 20
129.375
 30
0.0
 10
22.898
 20
129.375
 30
0.0
 10
131.9413
 20
129.375
 30
0.0
 10
131.9413
 20
129.375
 30
0.0
 10
131.9413
 20
129.375
 30
0.0
 10
131.9413
 20
129.375
 30
0.0
 10
131.9413
 20
27.4394
 30
0.0
 10
131.9413
 20
27.4394
 30
0.0
 10
131.9413
 20
27.4394
 30
0.0
 10
131.9413
 20
27.4394
 30
0.0
 10
131.9413
 20
27.4376
 30
0.0
 10
131.9413
 20
27.4376
 30
0.0
  0
SPLINE
  5
42
330
1F
100
AcDbEntity
  8
layer 1
 62
     7
370
     9
100
AcDbSpline
210
0.0
220
0.0
230
1.0
 70
    11
 71
     3
 72
    44
 73
    40
 74
     0
 42
0.0000000001
 43
0.0000000001
 12
1.0
 22
0.0
 32
0.0
 13
1.0
 23
0.0
 33
0.0
 40
0.0
 40
0.0
 40
0.0
 40
0.0
 40
0.0909090909090909
 40
0.0909090909090909
 40
0.0909090909090909
 40
0.0909090909090909
 40
0.1818181818181818
 40
0.1818181818181818
 40
0.1818181818181818
 40
0.1818181818181818
 40
0.2727272727272727
 40
0.2727272727272727
 40
0.2727272727272727
 40
0.2727272727272727
 40
0.3636363636363636
 40
0.3636363636363636
 40
0.3636363636363636
 40
0.3636363636363636
 40
0.4545454545454545
 40
0.4545454545454545
 40
0.4545454545454545
 40
0.4545454545454545
 40
0.5454545454545454
 40
0.5454545454545454
 40
0.5454545454545454
 40
0.5454545454545454
 40
0.6363636363636364
 40
0.6363636363636364
 40
0.6363636363636364
 40
0.6363636363636364
 40
0.7272727272727273
 40
0.7272727272727273
 40
0.7272727272727273
 40
0.7272727272727273
 40
0.8181818181818182
 40
0.8181818181818182
 40
0.8181818181818182
 40
0.8181818181818182
 40
1.0
 40
1.0
 40
1.0
 40
1.0
 10
28.9561
 20
123.8365
 30
0.0
 10
28.9561
 20
123.8365
 30
0.0
 10
42.5553
 20
123.8365
 30
0.0
 10
42.5553
 20
123.8365
 30
0.0
 10
42.5553
 20
123.8365
 30
0.0
 10
43.1541
 20
121.515
 30
0.0
 10
45.0177
 20
119.544
 30
0.0
 10
47.5562
 20
118.3835
 30
0.0
 10
47.5562
 20
118.3835
 30
0.0
 10
47.2434
 20
117.4024
 30
0.0
 10
46.7468
 20
116.4885
 30
0.0
 10
46.1034
 20
115.6981
 30
0.0
 10
46.1034
 20
115.6981
 30
0.0
 10
45.3564
 20
114.7803
 30
0.0
 10
44.4121
 20
114.0263
 30
0.0
 10
43.3285
 20
113.5241
 30
0.0
 10
43.3285
 20
113.5241
 30
0.0
 10
41.8619
 20
112.8443
 30
0.0
 10
40.1245
 20
112.6269
 30
0.0
 10
38.2587
 20
113.0925
 30
0.0
 10
38.2587
 20
113.0925
 30
0.0
 10
38.2587
 20
113.0925
 30
0.0
 10
36.2745
 20
113.5875
 30
0.0
 10
36.2745
 20
113.5875
 30
0.0
 10
36.2745
 20
113.5875
 30
0.0
 10
36.2745
 20
113.5875
 30
0.0
 10
35.6198
 20
111.6449
 30
0.0
 10
35.6198
 20
111.6449
 30
0.0
 10
35.6198
 20
111.6449
 30
0.0
 10
35.1051
 20
110.1177
 30
0.0
 10
34.0783
 20
108.8064
 30
0.0
 10
32.7673
 20
107.8728
 30
0.0
 10
32.7673
 20
107.8728
 30
0.0
 10
31.6527
 20
107.0792
 30
0.0
 10
30.3355
 20
106.5664
 30
0.0
 10
28.9561
 20
106.4338
 30
0.0
 10
28.9561
 20
106.4338
 30
0.0
 10
28.9561
 20
106.4338
 30
0.0
 10
28.9561
 20
123.8365
 30
0.0
 10
28.9561
 20
123.8365
 30
0.0
  0
SPLINE
  5
43
330
1F
100
AcDbEntity
  8
layer 1
 62
     7
370
     9
100
AcDbSpline
210
0.0
220
0.0
230
1.0
 70
    11
 71
     3
 72
    16
 73
    12
 74
     0
 42
0.0000000001
 43
0.0000000001
 12
1.0
 22
0.0
 32
0.0
 13
1.0
 23
0.0
 33
0.0
 40
0.0
 40
0.0
 40
0.0
 40
0.0
 40
0.25
 40
0.25
 40
0.25
 40
0.25
 40
0.5
 40
0.5
 40
0.5
 40
0.5
 40
1.0
 40
1.0
 40
1.0
 40
1.0
 10
48.2126
 20
123.8365
 30
0.0
 10
48.2126
 20
123.8365
 30
0.0
 10
57.4244
 20
123.8365
 30
0.0
 10
57.4244
 20
123.8365
 30
0.0
 10
57.4244
 20
123.8365
 30
0.0
 10
56.7546
 20
121.9408
 30
0.0
 10
54.9411
 20
120.5755
 30
0.0
 10
52.8187
 20
120.5755
 30
0.0
 10
52.8187
 20
120.5755
 30
0.0
 10
50.696
 20
120.5755
 30
0.0
 10
48.8824
 20
121.9408
 30
0.0
 10
48.2126
 20
123.8365
 30
0.0
  0
SPLINE
  5
44
330
1F
100
AcDbEntity
  8
layer 1
 62
     7
370
     9
100
AcDbSpline
210
0.0
220
0.0
230
1.0
 70
    11
 71
     3
 72
    76
 73
    72
 74
     0
 42
0.0000000001
 43
0.0000000001
 12
1.0
 22
0.0
 32
0.0
 13
1.0
 23
0.0
 33
0.0
 40
0.0
 40
0.0
 40
0.0
 40
0.0
 40
0.0526315789473684
 40
0.0526315789473684
 40
0.0526315789473684
 40
0.0526315789473684
 40
0.1052631578947368
 40
0.1052631578947368
 40
0.1052631578947368
 40
0.1052631578947368
 40
0.1578947368421053
 40
0.1578947368421053
 40
0.1578947368421053
 40
0.1578947368421053
 40
0.2105263157894737
 40
0.2105263157894737
 40
0.2105263157894737
 40
0.2105263157894737
 40
0.2631578947368421
 40
0.2631578947368421
 40
0.2631578947368421
 40
0.2631578947368421
 40
0.3157894736842105
 40
0.3157894736842105
 40
0.3157894736842105
 40
0.3157894736842105
 40
0.3684210526315789
 40
0.3684210526315789
 40
0.3684210526315789
 40
0.3684210526315789
 40
0.4210526315789473
 40
0.4210526315789473
 40
0.4210526315789473
 40
0.4210526315789473
 40
0.4736842105263158
 40
0.4736842105263158
 40
0.4736842105263158
 40
0.4736842105263158
 40
0.5263157894736842
 40
0.5263157894736842
 40
0.5263157894736842
 40
0.5263157894736842
 40
0.5789473684210527
 40
0.5789473684210527
 40
0.5789473684210527
 40
0.5789473684210527
 40
0.631578947368421
 40
0.631578947368421
 40
0.631578947368421
 40
0.631578947368421
 40
0.6842105263157895
 40
0.6842105263157895
 40
0.6842105263157895
 40
0.6842105263157895
 40
0.7368421052631579
 40
0.7368421052631579
 40
0.7368421052631579
 40
0.7368421052631579
 40
0.7894736842105263
 40
0.7894736842105263
 40
0.7894736842105263
 40
0.7894736842105263
 40
0.8421052631578947
 40
0.8421052631578947
 40
0.8421052631578947
 40
0.8421052631578947
 40
0.8947368421052632
 40
0.8947368421052632
 40
0.8947368421052632
 40
0.8947368421052632
 40
1.0
 40
1.0
 40
1.0
 40
1.0
 10
63.0818
 20
123.8365
 30
0.0
 10
63.0818
 20
123.8365
 30
0.0
 10
91.7579
 20
123.8365
 30
0.0
 10
91.7579
 20
123.8365
 30
0.0
 10
91.7579
 20
123.8365
 30
0.0
 10
92.3565
 20
121.515
 30
0.0
 10
94.2201
 20
119.544
 30
0.0
 10
96.7587
 20
118.3835
 30
0.0
 10
96.7587
 20
118.3835
 30
0.0
 10
96.4459
 20
117.4024
 30
0.0
 10
95.9493
 20
116.4885
 30
0.0
 10
95.3059
 20
115.6981
 30
0.0
 10
95.3059
 20
115.6981
 30
0.0
 10
94.5589
 20
114.7803
 30
0.0
 10
93.6146
 20
114.0263
 30
0.0
 10
92.531
 20
113.5241
 30
0.0
 10
92.531
 20
113.5241
 30
0.0
 10
91.0645
 20
112.8443
 30
0.0
 10
89.3269
 20
112.6269
 30
0.0
 10
87.461
 20
113.0925
 30
0.0
 10
87.461
 20
113.0925
 30
0.0
 10
87.461
 20
113.0925
 30
0.0
 10
85.4771
 20
113.5875
 30
0.0
 10
85.4771
 20
113.5875
 30
0.0
 10
85.4771
 20
113.5875
 30
0.0
 10
85.4771
 20
113.5875
 30
0.0
 10
84.8224
 20
111.6449
 30
0.0
 10
84.8224
 20
111.6449
 30
0.0
 10
84.8224
 20
111.6449
 30
0.0
 10
84.3077
 20
110.1177
 30
0.0
 10
83.2808
 20
108.8064
 30
0.0
 10
81.9699
 20
107.8728
 30
0.0
 10
81.9699
 20
107.8728
 30
0.0
 10
80.6596
 20
106.9398
 30
0.0
 10
79.0689
 20
106.3946
 30
0.0
 10
77.4267
 20
106.3993
 30
0.0
 10
77.4267
 20
106.3993
 30
0.0
 10
77.4267
 20
106.3993
 30
0.0
 10
77.413
 20
106.3993
 30
0.0
 10
77.413
 20
106.3993
 30
0.0
 10
77.413
 20
106.3993
 30
0.0
 10
75.7708
 20
106.3946
 30
0.0
 10
74.1801
 20
106.9398
 30
0.0
 10
72.8698
 20
107.8728
 30
0.0
 10
72.8698
 20
107.8728
 30
0.0
 10
71.5589
 20
108.8064
 30
0.0
 10
70.532
 20
110.1177
 30
0.0
 10
70.0173
 20
111.6449
 30
0.0
 10
70.0173
 20
111.6449
 30
0.0
 10
70.0173
 20
111.6449
 30
0.0
 10
69.3626
 20
113.5875
 30
0.0
 10
69.3626
 20
113.5875
 30
0.0
 10
69.3626
 20
113.5875
 30
0.0
 10
69.3626
 20
113.5875
 30
0.0
 10
67.3785
 20
113.0925
 30
0.0
 10
67.3785
 20
113.0925
 30
0.0
 10
67.3785
 20
113.0925
 30
0.0
 10
65.5127
 20
112.6269
 30
0.0
 10
63.7751
 20
112.8443
 30
0.0
 10
62.3086
 20
113.5241
 30
0.0
 10
62.3086
 20
113.5241
 30
0.0
 10
61.225
 20
114.0263
 30
0.0
 10
60.2807
 20
114.7803
 30
0.0
 10
59.5336
 20
115.6981
 30
0.0
 10
59.5336
 20
115.6981
 30
0.0
 10
58.8903
 20
116.4885
 30
0.0
 10
58.3937
 20
117.4024
 30
0.0
 10
58.0809
 20
118.3834
 30
0.0
 10
58.0809
 20
118.3834
 30
0.0
 10
60.6196
 20
119.5437
 30
0.0
 10
62.483
 20
121.515
 30
0.0
 10
63.0818
 20
123.8365
 30
0.0
  0
SPLINE
  5
45
330
1F
100
AcDbEntity
  8
layer 1
 62
     7
370
     9
100
AcDbSpline
210
0.0
220
0.0
230
1.0
 70
    11
 71
     3
 72
    16
 73
    12
 74
     0
 42
0.0000000001
 43
0.0000000001
 12
1.0
 22
0.0
 32
0.0
 13
1.0
 23
0.0
 33
0.0
 40
0.0
 40
0.0
 40
0.0
 40
0.0
 40
0.25
 40
0.25
 40
0.25
 40
0.25
 40
0.5
 40
0.5
 40
0.5
 40
0.5
 40
1.0
 40
1.0
 40
1.0
 40
1.0
 10
97.4151
 20
123.8365
 30
0.0
 10
97.4151
 20
123.8365
 30
0.0
 10
106.6268
 20
123.8365
 30
0.0
 10
106.6268
 20
123.8365
 30
0.0
 10
106.6268
 20
123.8365
 30
0.0
 10
105.9572
 20
121.9408
 30
0.0
 10
104.1437
 20
120.5755
 30
0.0
 10
102.021
 20
120.5755
 30
0.0
 10
102.021
 20
120.5755
 30
0.0
 10
99.8985
 20
120.5755
 30
0.0
 10
98.0847
 20
121.9408
 30
0.0
 10
97.4151
 20
123.8365
 30
0.0
  0
SPLINE
  5
46
330
1F
100
AcDbEntity
  8
layer 1
 62
     7
370
     9
100
AcDbSpline
210
0.0
220
0.0
230
1.0
 70
    11
 71
     3
 72
    44
 73
    40
 74
     0
 42
0.0000000001
 43
0.0000000001
 12
1.0
 22
0.0
 32
0.0
 13
1.0
 23
0.0
 33
0.0
 40
0.0
 40
0.0
 40
0.0
 40
0.0
 40
0.0909090909090909
 40
0.0909090909090909
 40
0.0909090909090909
 40
0.0909090909090909
 40
0.1818181818181818
 40
0.1818181818181818
 40
0.1818181818181818
 40
0.1818181818181818
 40
0.2727272727272727
 40
0.2727272727272727
 40
0.2727272727272727
 40
0.2727272727272727
 40
0.3636363636363636
 40
0.3636363636363636
 40
0.3636363636363636
 40
0.3636363636363636
 40
0.4545454545454545
 40
0.4545454545454545
 40
0.4545454545454545
 40
0.4545454545454545
 40
0.5454545454545454
 40
0.5454545454545454
 40
0.5454545454545454
 40
0.5454545454545454
 40
0.6363636363636364
 40
0.6363636363636364
 40
0.6363636363636364
 40
0.6363636363636364
 40
0.7272727272727273
 40
0.7272727272727273
 40
0.7272727272727273
 40
0.7272727272727273
 40
0.8181818181818182
 40
0.8181818181818182
 40
0.8181818181818182
 40
0.8181818181818182
 40
1.0
 40
1.0
 40
1.0
 40
1.0
 10
112.2841
 20
123.8365
 30
0.0
 10
112.2841
 20
123.8365
 30
0.0
 10
125.8834
 20
123.8365
 30
0.0
 10
125.8834
 20
123.8365
 30
0.0
 10
125.8834
 20
123.8365
 30
0.0
 10
125.8834
 20
123.8365
 30
0.0
 10
125.8834
 20
106.4336
 30
0.0
 10
125.8834
 20
106.4336
 30
0.0
 10
125.8834
 20
106.4336
 30
0.0
 10
124.5039
 20
106.5664
 30
0.0
 10
123.1867
 20
107.0792
 30
0.0
 10
122.0722
 20
107.8728
 30
0.0
 10
122.0722
 20
107.8728
 30
0.0
 10
120.7612
 20
108.8064
 30
0.0
 10
119.7344
 20
110.1177
 30
0.0
 10
119.2197
 20
111.6449
 30
0.0
 10
119.2197
 20
111.6449
 30
0.0
 10
119.2197
 20
111.6449
 30
0.0
 10
118.565
 20
113.5875
 30
0.0
 10
118.565
 20
113.5875
 30
0.0
 10
118.565
 20
113.5875
 30
0.0
 10
118.565
 20
113.5875
 30
0.0
 10
116.5809
 20
113.0925
 30
0.0
 10
116.5809
 20
113.0925
 30
0.0
 10
116.5809
 20
113.0925
 30
0.0
 10
114.7151
 20
112.6269
 30
0.0
 10
112.9776
 20
112.8443
 30
0.0
 10
111.5109
 20
113.5241
 30
0.0
 10
111.5109
 20
113.5241
 30
0.0
 10
110.4273
 20
114.0263
 30
0.0
 10
109.483
 20
114.7803
 30
0.0
 10
108.7361
 20
115.6981
 30
0.0
 10
108.7361
 20
115.6981
 30
0.0
 10
108.0926
 20
116.4885
 30
0.0
 10
107.596
 20
117.4023
 30
0.0
 10
107.2832
 20
118.3834
 30
0.0
 10
107.2832
 20
118.3834
 30
0.0
 10
109.822
 20
119.5436
 30
0.0
 10
111.6854
 20
121.5149
 30
0.0
 10
112.2841
 20
123.8365
 30
0.0
  0
SPLINE
  5
47
330
1F
100
AcDbEntity
  8
layer 1
 62
     7
370
     9
100
AcDbSpline
210
0.0
220
0.0
230
1.0
 70
    11
 71
     3
 72
   108
 73
   104
 74
     0
 42
0.0000000001
 43
0.0000000001
 12
1.0
 22
0.0
 32
0.0
 13
1.0
 23
0.0
 33
0.0
 40
0.0
 40
0.0
 40
0.0
 40
0.0
 40
0.037037037037037
 40
0.037037037037037
 40
0.037037037037037
 40
0.037037037037037
 40
0.0740740740740741
 40
0.0740740740740741
 40
0.0740740740740741
 40
0.0740740740740741
 40
0.1111111111111111
 40
0.1111111111111111
 40
0.1111111111111111
 40
0.1111111111111111
 40
0.1481481481481481
 40
0.1481481481481481
 40
0.1481481481481481
 40
0.1481481481481481
 40
0.1851851851851852
 40
0.1851851851851852
 40
0.1851851851851852
 40
0.1851851851851852
 40
0.2222222222222222
 40
0.2222222222222222
 40
0.2222222222222222
 40
0.2222222222222222
 40
0.2592592592592592
 40
0.2592592592592592
 40
0.2592592592592592
 40
0.2592592592592592
 40
0.2962962962962963
 40
0.2962962962962963
 40
0.2962962962962963
 40
0.2962962962962963
 40
0.3333333333333333
 40
0.3333333333333333
 40
0.3333333333333333
 40
0.3333333333333333
 40
0.3703703703703703
 40
0.3703703703703703
 40
0.3703703703703703
 40
0.3703703703703703
 40
0.4074074074074074
 40
0.4074074074074074
 40
0.4074074074074074
 40
0.4074074074074074
 40
0.4444444444444444
 40
0.4444444444444444
 40
0.4444444444444444
 40
0.4444444444444444
 40
0.4814814814814815
 40
0.4814814814814815
 40
0.4814814814814815
 40
0.4814814814814815
 40
0.5185185185185185
 40
0.5185185185185185
 40
0.5185185185185185
 40
0.5185185185185185
 40
0.5555555555555556
 40
0.5555555555555556
 40
0.5555555555555556
 40
0.5555555555555556
 40
0.5925925925925926
 40
0.5925925925925926
 40
0.5925925925925926
 40
0.5925925925925926
 40
0.6296296296296297
 40
0.6296296296296297
 40
0.6296296296296297
 40
0.6296296296296297
 40
0.6666666666666666
 40
0.6666666666666666
 40
0.6666666666666666
 40
0.6666666666666666
 40
0.7037037037037037
 40
0.7037037037037037
 40
0.7037037037037037
 40
0.7037037037037037
 40
0.7407407407407407
 40
0.7407407407407407
 40
0.7407407407407407
 40
0.7407407407407407
 40
0.7777777777777778
 40
0.7777777777777778
 40
0.7777777777777778
 40
0.7777777777777778
 40
0.8148148148148148
 40
0.8148148148148148
 40
0.8148148148148148
 40
0.8148148148148148
 40
0.8518518518518519
 40
0.8518518518518519
 40
0.8518518518518519
 40
0.8518518518518519
 40
0.8888888888888888
 40
0.8888888888888888
 40
0.8888888888888888
 40
0.8888888888888888
 40
0.9259259259259259
 40
0.9259259259259259
 40
0.9259259259259259
 40
0.9259259259259259
 40
1.0
 40
1.0
 40
1.0
 40
1.0
 10
125.8834
 20
101.9829
 30
0.0
 10
125.8834
 20
101.9829
 30
0.0
 10
125.8834
 20
96.0517
 30
0.0
 10
125.8834
 20
96.0517
 30
0.0
 10
125.8834
 20
96.0517
 30
0.0
 10
123.5754
 20
95.9121
 30
0.0
 10
121.3618
 20
95.0885
 30
0.0
 10
119.5069
 20
93.7684
 30
0.0
 10
119.5069
 20
93.7684
 30
0.0
 10
117.9739
 20
92.6775
 30
0.0
 10
116.6841
 20
91.2412
 30
0.0
 10
115.7867
 20
89.5655
 30
0.0
 10
115.7867
 20
89.5655
 30
0.0
 10
113.5675
 20
89.7818
 30
0.0
 10
111.4855
 20
89.3812
 30
0.0
 10
109.6534
 20
88.5321
 30
0.0
 10
109.6534
 20
88.5321
 30
0.0
 10
107.9468
 20
87.741
 30
0.0
 10
106.4651
 20
86.5604
 30
0.0
 10
105.2987
 20
85.1274
 30
0.0
 10
105.2987
 20
85.1274
 30
0.0
 10
104.4986
 20
84.1444
 30
0.0
 10
103.8463
 20
83.0436
 30
0.0
 10
103.3714
 20
81.8696
 30
0.0
 10
103.3714
 20
81.8696
 30
0.0
 10
102.9291
 20
81.9145
 30
0.0
 10
102.4784
 20
81.9376
 30
0.0
 10
102.021
 20
81.9376
 30
0.0
 10
102.021
 20
81.9376
 30
0.0
 10
101.5636
 20
81.9376
 30
0.0
 10
101.1128
 20
81.9144
 30
0.0
 10
100.6704
 20
81.8695
 30
0.0
 10
100.6704
 20
81.8695
 30
0.0
 10
100.1955
 20
83.0435
 30
0.0
 10
99.5433
 20
84.1444
 30
0.0
 10
98.7432
 20
85.1274
 30
0.0
 10
98.7432
 20
85.1274
 30
0.0
 10
97.5768
 20
86.5604
 30
0.0
 10
96.0951
 20
87.741
 30
0.0
 10
94.3885
 20
88.5321
 30
0.0
 10
94.3885
 20
88.5321
 30
0.0
 10
92.5565
 20
89.3812
 30
0.0
 10
90.4749
 20
89.7817
 30
0.0
 10
88.256
 20
89.5656
 30
0.0
 10
88.256
 20
89.5656
 30
0.0
 10
87.3597
 20
91.2407
 30
0.0
 10
86.0733
 20
92.6734
 30
0.0
 10
84.5435
 20
93.7619
 30
0.0
 10
84.5435
 20
93.7619
 30
0.0
 10
83.1032
 20
94.7868
 30
0.0
 10
81.445
 20
95.5119
 30
0.0
 10
79.6915
 20
95.8528
 30
0.0
 10
79.6915
 20
95.8528
 30
0.0
 10
79.6915
 20
95.8528
 30
0.0
 10
79.6915
 20
102.177
 30
0.0
 10
79.6915
 20
102.177
 30
0.0
 10
79.6915
 20
102.177
 30
0.0
 10
81.4419
 20
102.5156
 30
0.0
 10
83.099
 20
103.2417
 30
0.0
 10
84.5391
 20
104.2672
 30
0.0
 10
84.5391
 20
104.2672
 30
0.0
 10
86.0712
 20
105.3582
 30
0.0
 10
87.3597
 20
106.794
 30
0.0
 10
88.2561
 20
108.4688
 30
0.0
 10
88.2561
 20
108.4688
 30
0.0
 10
90.4749
 20
108.2528
 30
0.0
 10
92.5566
 20
108.6535
 30
0.0
 10
94.3885
 20
109.5026
 30
0.0
 10
94.3885
 20
109.5026
 30
0.0
 10
96.0951
 20
110.2934
 30
0.0
 10
97.5768
 20
111.4742
 30
0.0
 10
98.7432
 20
112.9072
 30
0.0
 10
98.7432
 20
112.9072
 30
0.0
 10
99.7974
 20
114.2022
 30
0.0
 10
100.5946
 20
115.702
 30
0.0
 10
101.0681
 20
117.304
 30
0.0
 10
101.0681
 20
117.304
 30
0.0
 10
101.3821
 20
117.2817
 30
0.0
 10
101.6998
 20
117.2696
 30
0.0
 10
102.021
 20
117.2696
 30
0.0
 10
102.021
 20
117.2696
 30
0.0
 10
102.3421
 20
117.2696
 30
0.0
 10
102.6597
 20
117.2817
 30
0.0
 10
102.9736
 20
117.304
 30
0.0
 10
102.9736
 20
117.304
 30
0.0
 10
103.4471
 20
115.7019
 30
0.0
 10
104.2445
 20
114.2022
 30
0.0
 10
105.2988
 20
112.9072
 30
0.0
 10
105.2988
 20
112.9072
 30
0.0
 10
106.4651
 20
111.4742
 30
0.0
 10
107.9468
 20
110.2934
 30
0.0
 10
109.6534
 20
109.5026
 30
0.0
 10
109.6534
 20
109.5026
 30
0.0
 10
111.4854
 20
108.6535
 30
0.0
 10
113.5671
 20
108.2528
 30
0.0
 10
115.7859
 20
108.4688
 30
0.0
 10
115.7859
 20
108.4688
 30
0.0
 10
116.6823
 20
106.794
 30
0.0
 10
117.9708
 20
105.3582
 30
0.0
 10
119.5029
 20
104.2672
 30
0.0
 10
119.5029
 20
104.2672
 30
0.0
 10
121.358
 20
102.9462
 30
0.0
 10
123.5731
 20
102.1223
 30
0.0
 10
125.8834
 20
101.9829
 30
0.0
  0
SPLINE
  5
48
330
1F
100
AcDbEntity
  8
layer 1
 62
     7
370
     9
100
AcDbSpline
210
0.0
220
0.0
230
1.0
 70
    11
 71
     3
 72
    72
 73
    68
 74
     0
 42
0.0000000001
 43
0.0000000001
 12
1.0
 22
0.0
 32
0.0
 13
1.0
 23
0.0
 33
0.0
 40
0.0
 40
0.0
 40
0.0
 40
0.0
 40
0.0555555555555556
 40
0.0555555555555556
 40
0.0555555555555556
 40
0.0555555555555556
 40
0.1111111111111111
 40
0.1111111111111111
 40
0.1111111111111111
 40
0.1111111111111111
 40
0.1666666666666667
 40
0.1666666666666667
 40
0.1666666666666667
 40
0.1666666666666667
 40
0.2222222222222222
 40
0.2222222222222222
 40
0.2222222222222222
 40
0.2222222222222222
 40
0.2777777777777778
 40
0.2777777777777778
 40
0.2777777777777778
 40
0.2777777777777778
 40
0.3333333333333333
 40
0.3333333333333333
 40
0.3333333333333333
 40
0.3333333333333333
 40
0.3888888888888889
 40
0.3888888888888889
 40
0.3888888888888889
 40
0.3888888888888889
 40
0.4444444444444444
 40
0.4444444444444444
 40
0.4444444444444444
 40
0.4444444444444444
 40
0.5
 40
0.5
 40
0.5
 40
0.5
 40
0.5555555555555556
 40
0.5555555555555556
 40
0.5555555555555556
 40
0.5555555555555556
 40
0.6111111111111112
 40
0.6111111111111112
 40
0.6111111111111112
 40
0.6111111111111112
 40
0.6666666666666666
 40
0.6666666666666666
 40
0.6666666666666666
 40
0.6666666666666666
 40
0.7222222222222222
 40
0.7222222222222222
 40
0.7222222222222222
 40
0.7222222222222222
 40
0.7777777777777778
 40
0.7777777777777778
 40
0.7777777777777778
 40
0.7777777777777778
 40
0.8333333333333334
 40
0.8333333333333334
 40
0.8333333333333334
 40
0.8333333333333334
 40
0.8888888888888888
 40
0.8888888888888888
 40
0.8888888888888888
 40
0.8888888888888888
 40
1.0
 40
1.0
 40
1.0
 40
1.0
 10
125.8834
 20
91.6008
 30
0.0
 10
125.8834
 20
91.6008
 30
0.0
 10
125.8834
 20
54.7406
 30
0.0
 10
125.8834
 20
54.7406
 30
0.0
 10
125.8834
 20
54.7406
 30
0.0
 10
124.5039
 20
54.8732
 30
0.0
 10
123.1867
 20
55.386
 30
0.0
 10
122.0722
 20
56.1797
 30
0.0
 10
122.0722
 20
56.1797
 30
0.0
 10
120.7612
 20
57.1133
 30
0.0
 10
119.7344
 20
58.4247
 30
0.0
 10
119.2197
 20
59.9519
 30
0.0
 10
119.2197
 20
59.9519
 30
0.0
 10
119.2197
 20
59.9519
 30
0.0
 10
118.565
 20
61.8945
 30
0.0
 10
118.565
 20
61.8945
 30
0.0
 10
118.565
 20
61.8945
 30
0.0
 10
118.565
 20
61.8945
 30
0.0
 10
116.5809
 20
61.3993
 30
0.0
 10
116.5809
 20
61.3993
 30
0.0
 10
116.5809
 20
61.3993
 30
0.0
 10
114.7151
 20
60.9339
 30
0.0
 10
112.9776
 20
61.1513
 30
0.0
 10
111.5109
 20
61.831
 30
0.0
 10
111.5109
 20
61.831
 30
0.0
 10
110.4273
 20
62.3332
 30
0.0
 10
109.483
 20
63.0873
 30
0.0
 10
108.7361
 20
64.0049
 30
0.0
 10
108.7361
 20
64.0049
 30
0.0
 10
108.0926
 20
64.7954
 30
0.0
 10
107.596
 20
65.7093
 30
0.0
 10
107.2832
 20
66.6905
 30
0.0
 10
107.2832
 20
66.6905
 30
0.0
 10
110.3928
 20
68.1114
 30
0.0
 10
112.4897
 20
70.7491
 30
0.0
 10
112.4897
 20
73.757
 30
0.0
 10
112.4897
 20
73.757
 30
0.0
 10
112.4897
 20
76.6386
 30
0.0
 10
110.5654
 20
79.1805
 30
0.0
 10
107.6701
 20
80.6385
 30
0.0
 10
107.6701
 20
80.6385
 30
0.0
 10
107.9553
 20
81.2472
 30
0.0
 10
108.3141
 20
81.8184
 30
0.0
 10
108.7361
 20
82.3366
 30
0.0
 10
108.7361
 20
82.3366
 30
0.0
 10
109.483
 20
83.2543
 30
0.0
 10
110.4273
 20
84.0084
 30
0.0
 10
111.5109
 20
84.5106
 30
0.0
 10
111.5109
 20
84.5106
 30
0.0
 10
112.9776
 20
85.1903
 30
0.0
 10
114.715
 20
85.4077
 30
0.0
 10
116.5809
 20
84.9421
 30
0.0
 10
116.5809
 20
84.9421
 30
0.0
 10
116.5809
 20
84.9421
 30
0.0
 10
118.5642
 20
84.4473
 30
0.0
 10
118.5642
 20
84.4473
 30
0.0
 10
118.5642
 20
84.4473
 30
0.0
 10
118.5642
 20
84.4473
 30
0.0
 10
119.2197
 20
86.3895
 30
0.0
 10
119.2197
 20
86.3895
 30
0.0
 10
119.2197
 20
86.3895
 30
0.0
 10
119.735
 20
87.9169
 30
0.0
 10
120.7635
 20
89.2287
 30
0.0
 10
122.0762
 20
90.163
 30
0.0
 10
122.0762
 20
90.163
 30
0.0
 10
123.1897
 20
90.9553
 30
0.0
 10
124.5055
 20
91.4677
 30
0.0
 10
125.8834
 20
91.6008
 30
0.0
  0
SPLINE
  5
49
330
1F
100
AcDbEntity
  8
layer 1
 62
     7
370
     9
100
AcDbSpline
210
0.0
220
0.0
230
1.0
 70
    11
 71
     3
 72
   108
 73
   104
 74
     0
 42
0.0000000001
 43
0.0000000001
 12
1.0
 22
0.0
 32
0.0
 13
1.0
 23
0.0
 33
0.0
 40
0.0
 40
0.0
 40
0.0
 40
0.0
 40
0.037037037037037
 40
0.037037037037037
 40
0.037037037037037
 40
0.037037037037037
 40
0.0740740740740741
 40
0.0740740740740741
 40
0.0740740740740741
 40
0.0740740740740741
 40
0.1111111111111111
 40
0.1111111111111111
 40
0.1111111111111111
 40
0.1111111111111111
 40
0.1481481481481481
 40
0.1481481481481481
 40
0.1481481481481481
 40
0.1481481481481481
 40
0.1851851851851852
 40
0.1851851851851852
 40
0.1851851851851852
 40
0.1851851851851852
 40
0.2222222222222222
 40
0.2222222222222222
 40
0.2222222222222222
 40
0.2222222222222222
 40
0.2592592592592592
 40
0.2592592592592592
 40
0.2592592592592592
 40
0.2592592592592592
 40
0.2962962962962963
 40
0.2962962962962963
 40
0.2962962962962963
 40
0.2962962962962963
 40
0.3333333333333333
 40
0.3333333333333333
 40
0.3333333333333333
 40
0.3333333333333333
 40
0.3703703703703703
 40
0.3703703703703703
 40
0.3703703703703703
 40
0.3703703703703703
 40
0.4074074074074074
 40
0.4074074074074074
 40
0.4074074074074074
 40
0.4074074074074074
 40
0.4444444444444444
 40
0.4444444444444444
 40
0.4444444444444444
 40
0.4444444444444444
 40
0.4814814814814815
 40
0.4814814814814815
 40
0.4814814814814815
 40
0.4814814814814815
 40
0.5185185185185185
 40
0.5185185185185185
 40
0.5185185185185185
 40
0.5185185185185185
 40
0.5555555555555556
 40
0.5555555555555556
 40
0.5555555555555556
 40
0.5555555555555556
 40
0.5925925925925926
 40
0.5925925925925926
 40
0.5925925925925926
 40
0.5925925925925926
 40
0.6296296296296297
 40
0.6296296296296297
 40
0.6296296296296297
 40
0.6296296296296297
 40
0.6666666666666666
 40
0.6666666666666666
 40
0.6666666666666666
 40
0.6666666666666666
 40
0.7037037037037037
 40
0.7037037037037037
 40
0.7037037037037037
 40
0.7037037037037037
 40
0.7407407407407407
 40
0.7407407407407407
 40
0.7407407407407407
 40
0.7407407407407407
 40
0.7777777777777778
 40
0.7777777777777778
 40
0.7777777777777778
 40
0.7777777777777778
 40
0.8148148148148148
 40
0.8148148148148148
 40
0.8148148148148148
 40
0.8148148148148148
 40
0.8518518518518519
 40
0.8518518518518519
 40
0.8518518518518519
 40
0.8518518518518519
 40
0.8888888888888888
 40
0.8888888888888888
 40
0.8888888888888888
 40
0.8888888888888888
 40
0.9259259259259259
 40
0.9259259259259259
 40
0.9259259259259259
 40
0.9259259259259259
 40
1.0
 40
1.0
 40
1.0
 40
1.0
 10
125.8834
 20
50.2899
 30
0.0
 10
125.8834
 20
50.2899
 30
0.0
 10
125.8834
 20
44.3585
 30
0.0
 10
125.8834
 20
44.3585
 30
0.0
 10
125.8834
 20
44.3585
 30
0.0
 10
123.5754
 20
44.2189
 30
0.0
 10
121.3618
 20
43.3952
 30
0.0
 10
119.5069
 20
42.0753
 30
0.0
 10
119.5069
 20
42.0753
 30
0.0
 10
117.9739
 20
40.9845
 30
0.0
 10
116.6841
 20
39.5481
 30
0.0
 10
115.7867
 20
37.8725
 30
0.0
 10
115.7867
 20
37.8725
 30
0.0
 10
113.5675
 20
38.0888
 30
0.0
 10
111.4855
 20
37.6881
 30
0.0
 10
109.6534
 20
36.8389
 30
0.0
 10
109.6534
 20
36.8389
 30
0.0
 10
107.9468
 20
36.048
 30
0.0
 10
106.4651
 20
34.8674
 30
0.0
 10
105.2987
 20
33.4344
 30
0.0
 10
105.2987
 20
33.4344
 30
0.0
 10
104.4986
 20
32.4513
 30
0.0
 10
103.8463
 20
31.3506
 30
0.0
 10
103.3714
 20
30.1765
 30
0.0
 10
103.3714
 20
30.1765
 30
0.0
 10
102.9291
 20
30.2214
 30
0.0
 10
102.4784
 20
30.2446
 30
0.0
 10
102.021
 20
30.2446
 30
0.0
 10
102.021
 20
30.2446
 30
0.0
 10
101.5636
 20
30.2446
 30
0.0
 10
101.1128
 20
30.2213
 30
0.0
 10
100.6704
 20
30.1764
 30
0.0
 10
100.6704
 20
30.1764
 30
0.0
 10
100.1955
 20
31.3505
 30
0.0
 10
99.5433
 20
32.4513
 30
0.0
 10
98.7432
 20
33.4344
 30
0.0
 10
98.7432
 20
33.4344
 30
0.0
 10
97.5768
 20
34.8674
 30
0.0
 10
96.0951
 20
36.048
 30
0.0
 10
94.3885
 20
36.8389
 30
0.0
 10
94.3885
 20
36.8389
 30
0.0
 10
92.5565
 20
37.6881
 30
0.0
 10
90.4749
 20
38.0888
 30
0.0
 10
88.256
 20
37.8725
 30
0.0
 10
88.256
 20
37.8725
 30
0.0
 10
87.3597
 20
39.5477
 30
0.0
 10
86.0733
 20
40.9802
 30
0.0
 10
84.5435
 20
42.0687
 30
0.0
 10
84.5435
 20
42.0687
 30
0.0
 10
83.1032
 20
43.0936
 30
0.0
 10
81.445
 20
43.8187
 30
0.0
 10
79.6915
 20
44.1596
 30
0.0
 10
79.6915
 20
44.1596
 30
0.0
 10
79.6915
 20
44.1596
 30
0.0
 10
79.6915
 20
50.4838
 30
0.0
 10
79.6915
 20
50.4838
 30
0.0
 10
79.6915
 20
50.4838
 30
0.0
 10
81.4419
 20
50.8225
 30
0.0
 10
83.099
 20
51.5485
 30
0.0
 10
84.5391
 20
52.5741
 30
0.0
 10
84.5391
 20
52.5741
 30
0.0
 10
86.0712
 20
53.6652
 30
0.0
 10
87.3597
 20
55.101
 30
0.0
 10
88.2561
 20
56.7758
 30
0.0
 10
88.2561
 20
56.7758
 30
0.0
 10
90.4749
 20
56.5598
 30
0.0
 10
92.5566
 20
56.9603
 30
0.0
 10
94.3885
 20
57.8094
 30
0.0
 10
94.3885
 20
57.8094
 30
0.0
 10
96.0951
 20
58.6004
 30
0.0
 10
97.5768
 20
59.781
 30
0.0
 10
98.7432
 20
61.214
 30
0.0
 10
98.7432
 20
61.214
 30
0.0
 10
99.7974
 20
62.5092
 30
0.0
 10
100.5946
 20
64.0089
 30
0.0
 10
101.0681
 20
65.611
 30
0.0
 10
101.0681
 20
65.611
 30
0.0
 10
101.3821
 20
65.5885
 30
0.0
 10
101.6998
 20
65.5765
 30
0.0
 10
102.021
 20
65.5765
 30
0.0
 10
102.021
 20
65.5765
 30
0.0
 10
102.3421
 20
65.5765
 30
0.0
 10
102.6597
 20
65.5885
 30
0.0
 10
102.9736
 20
65.6108
 30
0.0
 10
102.9736
 20
65.6108
 30
0.0
 10
103.4471
 20
64.0089
 30
0.0
 10
104.2445
 20
62.5092
 30
0.0
 10
105.2988
 20
61.214
 30
0.0
 10
105.2988
 20
61.214
 30
0.0
 10
106.4651
 20
59.781
 30
0.0
 10
107.9468
 20
58.6004
 30
0.0
 10
109.6534
 20
57.8094
 30
0.0
 10
109.6534
 20
57.8094
 30
0.0
 10
111.4854
 20
56.9604
 30
0.0
 10
113.5671
 20
56.5598
 30
0.0
 10
115.7859
 20
56.7758
 30
0.0
 10
115.7859
 20
56.7758
 30
0.0
 10
116.6823
 20
55.101
 30
0.0
 10
117.9708
 20
53.6652
 30
0.0
 10
119.5029
 20
52.5741
 30
0.0
 10
119.5029
 20
52.5741
 30
0.0
 10
121.358
 20
51.2532
 30
0.0
 10
123.5731
 20
50.4291
 30
0.0
 10
125.8834
 20
50.2899
 30
0.0
  0
SPLINE
  5
4A
330
1F
100
AcDbEntity
  8
layer 1
 62
     7
370
     9
100
AcDbSpline
210
0.0
220
0.0
230
1.0
 70
    11
 71
     3
 72
    72
 73
    68
 74
     0
 42
0.0000000001
 43
0.0000000001
 12
1.0
 22
0.0
 32
0.0
 13
1.0
 23
0.0
 33
0.0
 40
0.0
 40
0.0
 40
0.0
 40
0.0
 40
0.0555555555555556
 40
0.0555555555555556
 40
0.0555555555555556
 40
0.0555555555555556
 40
0.1111111111111111
 40
0.1111111111111111
 40
0.1111111111111111
 40
0.1111111111111111
 40
0.1666666666666667
 40
0.1666666666666667
 40
0.1666666666666667
 40
0.1666666666666667
 40
0.2222222222222222
 40
0.2222222222222222
 40
0.2222222222222222
 40
0.2222222222222222
 40
0.2777777777777778
 40
0.2777777777777778
 40
0.2777777777777778
 40
0.2777777777777778
 40
0.3333333333333333
 40
0.3333333333333333
 40
0.3333333333333333
 40
0.3333333333333333
 40
0.3888888888888889
 40
0.3888888888888889
 40
0.3888888888888889
 40
0.3888888888888889
 40
0.4444444444444444
 40
0.4444444444444444
 40
0.4444444444444444
 40
0.4444444444444444
 40
0.5
 40
0.5
 40
0.5
 40
0.5
 40
0.5555555555555556
 40
0.5555555555555556
 40
0.5555555555555556
 40
0.5555555555555556
 40
0.6111111111111112
 40
0.6111111111111112
 40
0.6111111111111112
 40
0.6111111111111112
 40
0.6666666666666666
 40
0.6666666666666666
 40
0.6666666666666666
 40
0.6666666666666666
 40
0.7222222222222222
 40
0.7222222222222222
 40
0.7222222222222222
 40
0.7222222222222222
 40
0.7777777777777778
 40
0.7777777777777778
 40
0.7777777777777778
 40
0.7777777777777778
 40
0.8333333333333334
 40
0.8333333333333334
 40
0.8333333333333334
 40
0.8333333333333334
 40
0.8888888888888888
 40
0.8888888888888888
 40
0.8888888888888888
 40
0.8888888888888888
 40
1.0
 40
1.0
 40
1.0
 40
1.0
 10
125.8834
 20
39.9077
 30
0.0
 10
125.8834
 20
39.9077
 30
0.0
 10
125.8834
 20
3.0476
 30
0.0
 10
125.8834
 20
3.0476
 30
0.0
 10
125.8834
 20
3.0476
 30
0.0
 10
124.5039
 20
3.1801
 30
0.0
 10
123.1867
 20
3.6929
 30
0.0
 10
122.0722
 20
4.4867
 30
0.0
 10
122.0722
 20
4.4867
 30
0.0
 10
120.7612
 20
5.4202
 30
0.0
 10
119.7344
 20
6.7315
 30
0.0
 10
119.2197
 20
8.2588
 30
0.0
 10
119.2197
 20
8.2588
 30
0.0
 10
119.2197
 20
8.2588
 30
0.0
 10
118.565
 20
10.2012
 30
0.0
 10
118.565
 20
10.2012
 30
0.0
 10
118.565
 20
10.2012
 30
0.0
 10
118.565
 20
10.2012
 30
0.0
 10
116.5809
 20
9.7062
 30
0.0
 10
116.5809
 20
9.7062
 30
0.0
 10
116.5809
 20
9.7062
 30
0.0
 10
114.7151
 20
9.2407
 30
0.0
 10
112.9776
 20
9.4581
 30
0.0
 10
111.5109
 20
10.138
 30
0.0
 10
111.5109
 20
10.138
 30
0.0
 10
110.4273
 20
10.6401
 30
0.0
 10
109.483
 20
11.3941
 30
0.0
 10
108.7361
 20
12.3118
 30
0.0
 10
108.7361
 20
12.3118
 30
0.0
 10
108.0926
 20
13.1023
 30
0.0
 10
107.596
 20
14.0161
 30
0.0
 10
107.2832
 20
14.9973
 30
0.0
 10
107.2832
 20
14.9973
 30
0.0
 10
110.3928
 20
16.4183
 30
0.0
 10
112.4897
 20
19.0561
 30
0.0
 10
112.4897
 20
22.0639
 30
0.0
 10
112.4897
 20
22.0639
 30
0.0
 10
112.4897
 20
24.9454
 30
0.0
 10
110.5654
 20
27.4875
 30
0.0
 10
107.6701
 20
28.9455
 30
0.0
 10
107.6701
 20
28.9455
 30
0.0
 10
107.9553
 20
29.554
 30
0.0
 10
108.3141
 20
30.1252
 30
0.0
 10
108.7361
 20
30.6435
 30
0.0
 10
108.7361
 20
30.6435
 30
0.0
 10
109.483
 20
31.5612
 30
0.0
 10
110.4273
 20
32.3152
 30
0.0
 10
111.5109
 20
32.8174
 30
0.0
 10
111.5109
 20
32.8174
 30
0.0
 10
112.9776
 20
33.4971
 30
0.0
 10
114.715
 20
33.7147
 30
0.0
 10
116.5809
 20
33.2491
 30
0.0
 10
116.5809
 20
33.2491
 30
0.0
 10
116.5809
 20
33.2491
 30
0.0
 10
118.5642
 20
32.7542
 30
0.0
 10
118.5642
 20
32.7542
 30
0.0
 10
118.5642
 20
32.7542
 30
0.0
 10
118.5642
 20
32.7542
 30
0.0
 10
119.2197
 20
34.6965
 30
0.0
 10
119.2197
 20
34.6965
 30
0.0
 10
119.2197
 20
34.6965
 30
0.0
 10
119.735
 20
36.2237
 30
0.0
 10
120.7635
 20
37.5357
 30
0.0
 10
122.0762
 20
38.4698
 30
0.0
 10
122.0762
 20
38.4698
 30
0.0
 10
123.1897
 20
39.2621
 30
0.0
 10
124.5055
 20
39.7747
 30
0.0
 10
125.8834
 20
39.9077
 30
0.0
  0
SPLINE
  5
4B
330
1F
100
AcDbEntity
  8
layer 1
 62
     7
370
     9
100
AcDbSpline
210
0.0
220
0.0
230
1.0
 70
    11
 71
     3
 72
   108
 73
   104
 74
     0
 42
0.0000000001
 43
0.0000000001
 12
1.0
 22
0.0
 32
0.0
 13
1.0
 23
0.0
 33
0.0
 40
0.0
 40
0.0
 40
0.0
 40
0.0
 40
0.037037037037037
 40
0.037037037037037
 40
0.037037037037037
 40
0.037037037037037
 40
0.0740740740740741
 40
0.0740740740740741
 40
0.0740740740740741
 40
0.0740740740740741
 40
0.1111111111111111
 40
0.1111111111111111
 40
0.1111111111111111
 40
0.1111111111111111
 40
0.1481481481481481
 40
0.1481481481481481
 40
0.1481481481481481
 40
0.1481481481481481
 40
0.1851851851851852
 40
0.1851851851851852
 40
0.1851851851851852
 40
0.1851851851851852
 40
0.2222222222222222
 40
0.2222222222222222
 40
0.2222222222222222
 40
0.2222222222222222
 40
0.2592592592592592
 40
0.2592592592592592
 40
0.2592592592592592
 40
0.2592592592592592
 40
0.2962962962962963
 40
0.2962962962962963
 40
0.2962962962962963
 40
0.2962962962962963
 40
0.3333333333333333
 40
0.3333333333333333
 40
0.3333333333333333
 40
0.3333333333333333
 40
0.3703703703703703
 40
0.3703703703703703
 40
0.3703703703703703
 40
0.3703703703703703
 40
0.4074074074074074
 40
0.4074074074074074
 40
0.4074074074074074
 40
0.4074074074074074
 40
0.4444444444444444
 40
0.4444444444444444
 40
0.4444444444444444
 40
0.4444444444444444
 40
0.4814814814814815
 40
0.4814814814814815
 40
0.4814814814814815
 40
0.4814814814814815
 40
0.5185185185185185
 40
0.5185185185185185
 40
0.5185185185185185
 40
0.5185185185185185
 40
0.5555555555555556
 40
0.5555555555555556
 40
0.5555555555555556
 40
0.5555555555555556
 40
0.5925925925925926
 40
0.5925925925925926
 40
0.5925925925925926
 40
0.5925925925925926
 40
0.6296296296296297
 40
0.6296296296296297
 40
0.6296296296296297
 40
0.6296296296296297
 40
0.6666666666666666
 40
0.6666666666666666
 40
0.6666666666666666
 40
0.6666666666666666
 40
0.7037037037037037
 40
0.7037037037037037
 40
0.7037037037037037
 40
0.7037037037037037
 40
0.7407407407407407
 40
0.7407407407407407
 40
0.7407407407407407
 40
0.7407407407407407
 40
0.7777777777777778
 40
0.7777777777777778
 40
0.7777777777777778
 40
0.7777777777777778
 40
0.8148148148148148
 40
0.8148148148148148
 40
0.8148148148148148
 40
0.8148148148148148
 40
0.8518518518518519
 40
0.8518518518518519
 40
0.8518518518518519
 40
0.8518518518518519
 40
0.8888888888888888
 40
0.8888888888888888
 40
0.8888888888888888
 40
0.8888888888888888
 40
0.9259259259259259
 40
0.9259259259259259
 40
0.9259259259259259
 40
0.9259259259259259
 40
1.0
 40
1.0
 40
1.0
 40
1.0
 10
125.8834
 20
-1.4033
 30
0.0
 10
125.8834
 20
-1.4033
 30
0.0
 10
125.8834
 20
-7.3346
 30
0.0
 10
125.8834
 20
-7.3346
 30
0.0
 10
125.8834
 20
-7.3346
 30
0.0
 10
123.5754
 20
-7.4742
 30
0.0
 10
121.3618
 20
-8.2978
 30
0.0
 10
119.5069
 20
-9.6178
 30
0.0
 10
119.5069
 20
-9.6178
 30
0.0
 10
117.9739
 20
-10.7087
 30
0.0
 10
116.6841
 20
-12.145
 30
0.0
 10
115.7867
 20
-13.8206
 30
0.0
 10
115.7867
 20
-13.8206
 30
0.0
 10
113.5675
 20
-13.6044
 30
0.0
 10
111.4855
 20
-14.0049
 30
0.0
 10
109.6534
 20
-14.8541
 30
0.0
 10
109.6534
 20
-14.8541
 30
0.0
 10
107.9468
 20
-15.645
 30
0.0
 10
106.4651
 20
-16.8256
 30
0.0
 10
105.2987
 20
-18.2588
 30
0.0
 10
105.2987
 20
-18.2588
 30
0.0
 10
104.4986
 20
-19.2417
 30
0.0
 10
103.8463
 20
-20.3425
 30
0.0
 10
103.3714
 20
-21.5165
 30
0.0
 10
103.3714
 20
-21.5165
 30
0.0
 10
102.9291
 20
-21.4718
 30
0.0
 10
102.4784
 20
-21.4484
 30
0.0
 10
102.021
 20
-21.4484
 30
0.0
 10
102.021
 20
-21.4484
 30
0.0
 10
101.5636
 20
-21.4484
 30
0.0
 10
101.1128
 20
-21.4718
 30
0.0
 10
100.6704
 20
-21.5166
 30
0.0
 10
100.6704
 20
-21.5166
 30
0.0
 10
100.1955
 20
-20.3427
 30
0.0
 10
99.5433
 20
-19.2419
 30
0.0
 10
98.7432
 20
-18.2588
 30
0.0
 10
98.7432
 20
-18.2588
 30
0.0
 10
97.5768
 20
-16.8256
 30
0.0
 10
96.0951
 20
-15.645
 30
0.0
 10
94.3885
 20
-14.8541
 30
0.0
 10
94.3885
 20
-14.8541
 30
0.0
 10
92.5565
 20
-14.005
 30
0.0
 10
90.4749
 20
-13.6044
 30
0.0
 10
88.256
 20
-13.8205
 30
0.0
 10
88.256
 20
-13.8205
 30
0.0
 10
87.3597
 20
-12.1453
 30
0.0
 10
86.0733
 20
-10.7129
 30
0.0
 10
84.5435
 20
-9.6243
 30
0.0
 10
84.5435
 20
-9.6243
 30
0.0
 10
83.1032
 20
-8.5994
 30
0.0
 10
81.445
 20
-7.8744
 30
0.0
 10
79.6915
 20
-7.5334
 30
0.0
 10
79.6915
 20
-7.5334
 30
0.0
 10
79.6915
 20
-7.5334
 30
0.0
 10
79.6915
 20
-1.2092
 30
0.0
 10
79.6915
 20
-1.2092
 30
0.0
 10
79.6915
 20
-1.2092
 30
0.0
 10
81.4419
 20
-0.8705
 30
0.0
 10
83.099
 20
-0.1445
 30
0.0
 10
84.5391
 20
0.8811
 30
0.0
 10
84.5391
 20
0.8811
 30
0.0
 10
86.0712
 20
1.972
 30
0.0
 10
87.3597
 20
3.408
 30
0.0
 10
88.2561
 20
5.0826
 30
0.0
 10
88.2561
 20
5.0826
 30
0.0
 10
90.4749
 20
4.8665
 30
0.0
 10
92.5566
 20
5.2672
 30
0.0
 10
94.3885
 20
6.1164
 30
0.0
 10
94.3885
 20
6.1164
 30
0.0
 10
96.0951
 20
6.9073
 30
0.0
 10
97.5768
 20
8.0879
 30
0.0
 10
98.7432
 20
9.521
 30
0.0
 10
98.7432
 20
9.521
 30
0.0
 10
99.7974
 20
10.816
 30
0.0
 10
100.5946
 20
12.3159
 30
0.0
 10
101.0681
 20
13.9178
 30
0.0
 10
101.0681
 20
13.9178
 30
0.0
 10
101.3821
 20
13.8955
 30
0.0
 10
101.6998
 20
13.8834
 30
0.0
 10
102.021
 20
13.8834
 30
0.0
 10
102.021
 20
13.8834
 30
0.0
 10
102.3421
 20
13.8834
 30
0.0
 10
102.6597
 20
13.8955
 30
0.0
 10
102.9736
 20
13.9178
 30
0.0
 10
102.9736
 20
13.9178
 30
0.0
 10
103.4471
 20
12.3159
 30
0.0
 10
104.2445
 20
10.816
 30
0.0
 10
105.2988
 20
9.521
 30
0.0
 10
105.2988
 20
9.521
 30
0.0
 10
106.4651
 20
8.0879
 30
0.0
 10
107.9468
 20
6.9073
 30
0.0
 10
109.6534
 20
6.1164
 30
0.0
 10
109.6534
 20
6.1164
 30
0.0
 10
111.4854
 20
5.2673
 30
0.0
 10
113.5671
 20
4.8666
 30
0.0
 10
115.7859
 20
5.0828
 30
0.0
 10
115.7859
 20
5.0828
 30
0.0
 10
116.6823
 20
3.408
 30
0.0
 10
117.9708
 20
1.972
 30
0.0
 10
119.5029
 20
0.8811
 30
0.0
 10
119.5029
 20
0.8811
 30
0.0
 10
121.358
 20
-0.4398
 30
0.0
 10
123.5731
 20
-1.2639
 30
0.0
 10
125.8834
 20
-1.4033
 30
0.0
  0
SPLINE
  5
4C
330
1F
100
AcDbEntity
  8
layer 1
 62
     7
370
     9
100
AcDbSpline
210
0.0
220
0.0
230
1.0
 70
    11
 71
     3
 72
    72
 73
    68
 74
     0
 42
0.0000000001
 43
0.0000000001
 12
1.0
 22
0.0
 32
0.0
 13
1.0
 23
0.0
 33
0.0
 40
0.0
 40
0.0
 40
0.0
 40
0.0
 40
0.0555555555555556
 40
0.0555555555555556
 40
0.0555555555555556
 40
0.0555555555555556
 40
0.1111111111111111
 40
0.1111111111111111
 40
0.1111111111111111
 40
0.1111111111111111
 40
0.1666666666666667
 40
0.1666666666666667
 40
0.1666666666666667
 40
0.1666666666666667
 40
0.2222222222222222
 40
0.2222222222222222
 40
0.2222222222222222
 40
0.2222222222222222
 40
0.2777777777777778
 40
0.2777777777777778
 40
0.2777777777777778
 40
0.2777777777777778
 40
0.3333333333333333
 40
0.3333333333333333
 40
0.3333333333333333
 40
0.3333333333333333
 40
0.3888888888888889
 40
0.3888888888888889
 40
0.3888888888888889
 40
0.3888888888888889
 40
0.4444444444444444
 40
0.4444444444444444
 40
0.4444444444444444
 40
0.4444444444444444
 40
0.5
 40
0.5
 40
0.5
 40
0.5
 40
0.5555555555555556
 40
0.5555555555555556
 40
0.5555555555555556
 40
0.5555555555555556
 40
0.6111111111111112
 40
0.6111111111111112
 40
0.6111111111111112
 40
0.6111111111111112
 40
0.6666666666666666
 40
0.6666666666666666
 40
0.6666666666666666
 40
0.6666666666666666
 40
0.7222222222222222
 40
0.7222222222222222
 40
0.7222222222222222
 40
0.7222222222222222
 40
0.7777777777777778
 40
0.7777777777777778
 40
0.7777777777777778
 40
0.7777777777777778
 40
0.8333333333333334
 40
0.8333333333333334
 40
0.8333333333333334
 40
0.8333333333333334
 40
0.8888888888888888
 40
0.8888888888888888
 40
0.8888888888888888
 40
0.8888888888888888
 40
1.0
 40
1.0
 40
1.0
 40
1.0
 10
125.8834
 20
-11.7855
 30
0.0
 10
125.8834
 20
-11.7855
 30
0.0
 10
125.8834
 20
-48.6456
 30
0.0
 10
125.8834
 20
-48.6456
 30
0.0
 10
125.8834
 20
-48.6456
 30
0.0
 10
124.5039
 20
-48.5129
 30
0.0
 10
123.1867
 20
-48.0001
 30
0.0
 10
122.0722
 20
-47.2064
 30
0.0
 10
122.0722
 20
-47.2064
 30
0.0
 10
120.7612
 20
-46.2729
 30
0.0
 10
119.7344
 20
-44.9615
 30
0.0
 10
119.2197
 20
-43.4342
 30
0.0
 10
119.2197
 20
-43.4342
 30
0.0
 10
119.2197
 20
-43.4342
 30
0.0
 10
118.565
 20
-41.4918
 30
0.0
 10
118.565
 20
-41.4918
 30
0.0
 10
118.565
 20
-41.4918
 30
0.0
 10
118.565
 20
-41.4918
 30
0.0
 10
116.5809
 20
-41.9868
 30
0.0
 10
116.5809
 20
-41.9868
 30
0.0
 10
116.5809
 20
-41.9868
 30
0.0
 10
114.7151
 20
-42.4524
 30
0.0
 10
112.9776
 20
-42.2349
 30
0.0
 10
111.5109
 20
-41.5552
 30
0.0
 10
111.5109
 20
-41.5552
 30
0.0
 10
110.4273
 20
-41.053
 30
0.0
 10
109.483
 20
-40.299
 30
0.0
 10
108.7361
 20
-39.3812
 30
0.0
 10
108.7361
 20
-39.3812
 30
0.0
 10
108.0926
 20
-38.5907
 30
0.0
 10
107.596
 20
-37.6769
 30
0.0
 10
107.2832
 20
-36.6958
 30
0.0
 10
107.2832
 20
-36.6958
 30
0.0
 10
110.3928
 20
-35.2748
 30
0.0
 10
112.4897
 20
-32.6371
 30
0.0
 10
112.4897
 20
-29.6293
 30
0.0
 10
112.4897
 20
-29.6293
 30
0.0
 10
112.4897
 20
-26.7476
 30
0.0
 10
110.5654
 20
-24.2056
 30
0.0
 10
107.6701
 20
-22.7476
 30
0.0
 10
107.6701
 20
-22.7476
 30
0.0
 10
107.9553
 20
-22.1391
 30
0.0
 10
108.3141
 20
-21.5679
 30
0.0
 10
108.7361
 20
-21.0495
 30
0.0
 10
108.7361
 20
-21.0495
 30
0.0
 10
109.483
 20
-20.1319
 30
0.0
 10
110.4273
 20
-19.3778
 30
0.0
 10
111.5109
 20
-18.8757
 30
0.0
 10
111.5109
 20
-18.8757
 30
0.0
 10
112.9776
 20
-18.1959
 30
0.0
 10
114.715
 20
-17.9785
 30
0.0
 10
116.5809
 20
-18.4441
 30
0.0
 10
116.5809
 20
-18.4441
 30
0.0
 10
116.5809
 20
-18.4441
 30
0.0
 10
118.5642
 20
-18.9389
 30
0.0
 10
118.5642
 20
-18.9389
 30
0.0
 10
118.5642
 20
-18.9389
 30
0.0
 10
118.5642
 20
-18.9389
 30
0.0
 10
119.2197
 20
-16.9967
 30
0.0
 10
119.2197
 20
-16.9967
 30
0.0
 10
119.2197
 20
-16.9967
 30
0.0
 10
119.735
 20
-15.4693
 30
0.0
 10
120.7635
 20
-14.1573
 30
0.0
 10
122.0762
 20
-13.2233
 30
0.0
 10
122.0762
 20
-13.2233
 30
0.0
 10
123.1897
 20
-12.431
 30
0.0
 10
124.5055
 20
-11.9185
 30
0.0
 10
125.8834
 20
-11.7855
 30
0.0
  0
SPLINE
  5
4D
330
1F
100
AcDbEntity
  8
layer 1
 62
     7
370
     9
100
AcDbSpline
210
0.0
220
0.0
230
1.0
 70
    11
 71
     3
 72
   108
 73
   104
 74
     0
 42
0.0000000001
 43
0.0000000001
 12
1.0
 22
0.0
 32
0.0
 13
1.0
 23
0.0
 33
0.0
 40
0.0
 40
0.0
 40
0.0
 40
0.0
 40
0.037037037037037
 40
0.037037037037037
 40
0.037037037037037
 40
0.037037037037037
 40
0.0740740740740741
 40
0.0740740740740741
 40
0.0740740740740741
 40
0.0740740740740741
 40
0.1111111111111111
 40
0.1111111111111111
 40
0.1111111111111111
 40
0.1111111111111111
 40
0.1481481481481481
 40
0.1481481481481481
 40
0.1481481481481481
 40
0.1481481481481481
 40
0.1851851851851852
 40
0.1851851851851852
 40
0.1851851851851852
 40
0.1851851851851852
 40
0.2222222222222222
 40
0.2222222222222222
 40
0.2222222222222222
 40
0.2222222222222222
 40
0.2592592592592592
 40
0.2592592592592592
 40
0.2592592592592592
 40
0.2592592592592592
 40
0.2962962962962963
 40
0.2962962962962963
 40
0.2962962962962963
 40
0.2962962962962963
 40
0.3333333333333333
 40
0.3333333333333333
 40
0.3333333333333333
 40
0.3333333333333333
 40
0.3703703703703703
 40
0.3703703703703703
 40
0.3703703703703703
 40
0.3703703703703703
 40
0.4074074074074074
 40
0.4074074074074074
 40
0.4074074074074074
 40
0.4074074074074074
 40
0.4444444444444444
 40
0.4444444444444444
 40
0.4444444444444444
 40
0.4444444444444444
 40
0.4814814814814815
 40
0.4814814814814815
 40
0.4814814814814815
 40
0.4814814814814815
 40
0.5185185185185185
 40
0.5185185185185185
 40
0.5185185185185185
 40
0.5185185185185185
 40
0.5555555555555556
 40
0.5555555555555556
 40
0.5555555555555556
 40
0.5555555555555556
 40
0.5925925925925926
 40
0.5925925925925926
 40
0.5925925925925926
 40
0.5925925925925926
 40
0.6296296296296297
 40
0.6296296296296297
 40
0.6296296296296297
 40
0.6296296296296297
 40
0.6666666666666666
 40
0.6666666666666666
 40
0.6666666666666666
 40
0.6666666666666666
 40
0.7037037037037037
 40
0.7037037037037037
 40
0.7037037037037037
 40
0.7037037037037037
 40
0.7407407407407407
 40
0.7407407407407407
 40
0.7407407407407407
 40
0.7407407407407407
 40
0.7777777777777778
 40
0.7777777777777778
 40
0.7777777777777778
 40
0.7777777777777778
 40
0.8148148148148148
 40
0.8148148148148148
 40
0.8148148148148148
 40
0.8148148148148148
 40
0.8518518518518519
 40
0.8518518518518519
 40
0.8518518518518519
 40
0.8518518518518519
 40
0.8888888888888888
 40
0.8888888888888888
 40
0.8888888888888888
 40
0.8888888888888888
 40
0.9259259259259259
 40
0.9259259259259259
 40
0.9259259259259259
 40
0.9259259259259259
 40
1.0
 40
1.0
 40
1.0
 40
1.0
 10
125.8834
 20
-53.0963
 30
0.0
 10
125.8834
 20
-53.0963
 30
0.0
 10
125.8834
 20
-59.0276
 30
0.0
 10
125.8834
 20
-59.0276
 30
0.0
 10
125.8834
 20
-59.0276
 30
0.0
 10
123.5754
 20
-59.1673
 30
0.0
 10
121.3618
 20
-59.9908
 30
0.0
 10
119.5069
 20
-61.3108
 30
0.0
 10
119.5069
 20
-61.3108
 30
0.0
 10
117.9739
 20
-62.4017
 30
0.0
 10
116.6841
 20
-63.838
 30
0.0
 10
115.7867
 20
-65.5137
 30
0.0
 10
115.7867
 20
-65.5137
 30
0.0
 10
113.5675
 20
-65.2974
 30
0.0
 10
111.4855
 20
-65.6979
 30
0.0
 10
109.6534
 20
-66.5473
 30
0.0
 10
109.6534
 20
-66.5473
 30
0.0
 10
107.9468
 20
-67.3382
 30
0.0
 10
106.4651
 20
-68.5188
 30
0.0
 10
105.2987
 20
-69.9519
 30
0.0
 10
105.2987
 20
-69.9519
 30
0.0
 10
104.4986
 20
-70.9349
 30
0.0
 10
103.8463
 20
-72.0355
 30
0.0
 10
103.3714
 20
-73.2097
 30
0.0
 10
103.3714
 20
-73.2097
 30
0.0
 10
102.9291
 20
-73.1648
 30
0.0
 10
102.4784
 20
-73.1416
 30
0.0
 10
102.021
 20
-73.1416
 30
0.0
 10
102.021
 20
-73.1416
 30
0.0
 10
101.5636
 20
-73.1416
 30
0.0
 10
101.1128
 20
-73.1649
 30
0.0
 10
100.6704
 20
-73.2098
 30
0.0
 10
100.6704
 20
-73.2098
 30
0.0
 10
100.1955
 20
-72.0357
 30
0.0
 10
99.5433
 20
-70.9349
 30
0.0
 10
98.7432
 20
-69.9519
 30
0.0
 10
98.7432
 20
-69.9519
 30
0.0
 10
97.5768
 20
-68.5188
 30
0.0
 10
96.0951
 20
-67.3382
 30
0.0
 10
94.3885
 20
-66.5473
 30
0.0
 10
94.3885
 20
-66.5473
 30
0.0
 10
92.5565
 20
-65.6981
 30
0.0
 10
90.4749
 20
-65.2975
 30
0.0
 10
88.256
 20
-65.5137
 30
0.0
 10
88.256
 20
-65.5137
 30
0.0
 10
87.3597
 20
-63.8385
 30
0.0
 10
86.0733
 20
-62.406
 30
0.0
 10
84.5435
 20
-61.3175
 30
0.0
 10
84.5435
 20
-61.3175
 30
0.0
 10
83.1032
 20
-60.2925
 30
0.0
 10
81.445
 20
-59.5674
 30
0.0
 10
79.6915
 20
-59.2266
 30
0.0
 10
79.6915
 20
-59.2266
 30
0.0
 10
79.6915
 20
-59.2266
 30
0.0
 10
79.6915
 20
-52.9023
 30
0.0
 10
79.6915
 20
-52.9023
 30
0.0
 10
79.6915
 20
-52.9023
 30
0.0
 10
81.4419
 20
-52.5638
 30
0.0
 10
83.099
 20
-51.8376
 30
0.0
 10
84.5391
 20
-50.8119
 30
0.0
 10
84.5391
 20
-50.8119
 30
0.0
 10
86.0712
 20
-49.7211
 30
0.0
 10
87.3597
 20
-48.2852
 30
0.0
 10
88.2561
 20
-46.6105
 30
0.0
 10
88.2561
 20
-46.6105
 30
0.0
 10
90.4749
 20
-46.8265
 30
0.0
 10
92.5566
 20
-46.4257
 30
0.0
 10
94.3885
 20
-45.5767
 30
0.0
 10
94.3885
 20
-45.5767
 30
0.0
 10
96.0951
 20
-44.7858
 30
0.0
 10
97.5768
 20
-43.6051
 30
0.0
 10
98.7432
 20
-42.1721
 30
0.0
 10
98.7432
 20
-42.1721
 30
0.0
 10
99.7974
 20
-40.877
 30
0.0
 10
100.5946
 20
-39.3772
 30
0.0
 10
101.0681
 20
-37.7752
 30
0.0
 10
101.0681
 20
-37.7752
 30
0.0
 10
101.3821
 20
-37.7976
 30
0.0
 10
101.6998
 20
-37.8098
 30
0.0
 10
102.021
 20
-37.8098
 30
0.0
 10
102.021
 20
-37.8098
 30
0.0
 10
102.3421
 20
-37.8098
 30
0.0
 10
102.6597
 20
-37.7976
 30
0.0
 10
102.9736
 20
-37.7753
 30
0.0
 10
102.9736
 20
-37.7753
 30
0.0
 10
103.4471
 20
-39.3773
 30
0.0
 10
104.2445
 20
-40.877
 30
0.0
 10
105.2988
 20
-42.1721
 30
0.0
 10
105.2988
 20
-42.1721
 30
0.0
 10
106.4651
 20
-43.6051
 30
0.0
 10
107.9468
 20
-44.7858
 30
0.0
 10
109.6534
 20
-45.5767
 30
0.0
 10
109.6534
 20
-45.5767
 30
0.0
 10
111.4854
 20
-46.4257
 30
0.0
 10
113.5671
 20
-46.8264
 30
0.0
 10
115.7859
 20
-46.6104
 30
0.0
 10
115.7859
 20
-46.6104
 30
0.0
 10
116.6823
 20
-48.2852
 30
0.0
 10
117.9708
 20
-49.7211
 30
0.0
 10
119.5029
 20
-50.8119
 30
0.0
 10
119.5029
 20
-50.8119
 30
0.0
 10
121.358
 20
-52.1331
 30
0.0
 10
123.5731
 20
-52.957
 30
0.0
 10
125.8834
 20
-53.0963
 30
0.0
  0
SPLINE
  5
4E
330
1F
100
AcDbEntity
  8
layer 1
 62
     7
370
     9
100
AcDbSpline
210
0.0
220
0.0
230
1.0
 70
    11
 71
     3
 72
    72
 73
    68
 74
     0
 42
0.0000000001
 43
0.0000000001
 12
1.0
 22
0.0
 32
0.0
 13
1.0
 23
0.0
 33
0.0
 40
0.0
 40
0.0
 40
0.0
 40
0.0
 40
0.0555555555555556
 40
0.0555555555555556
 40
0.0555555555555556
 40
0.0555555555555556
 40
0.1111111111111111
 40
0.1111111111111111
 40
0.1111111111111111
 40
0.1111111111111111
 40
0.1666666666666667
 40
0.1666666666666667
 40
0.1666666666666667
 40
0.1666666666666667
 40
0.2222222222222222
 40
0.2222222222222222
 40
0.2222222222222222
 40
0.2222222222222222
 40
0.2777777777777778
 40
0.2777777777777778
 40
0.2777777777777778
 40
0.2777777777777778
 40
0.3333333333333333
 40
0.3333333333333333
 40
0.3333333333333333
 40
0.3333333333333333
 40
0.3888888888888889
 40
0.3888888888888889
 40
0.3888888888888889
 40
0.3888888888888889
 40
0.4444444444444444
 40
0.4444444444444444
 40
0.4444444444444444
 40
0.4444444444444444
 40
0.5
 40
0.5
 40
0.5
 40
0.5
 40
0.5555555555555556
 40
0.5555555555555556
 40
0.5555555555555556
 40
0.5555555555555556
 40
0.6111111111111112
 40
0.6111111111111112
 40
0.6111111111111112
 40
0.6111111111111112
 40
0.6666666666666666
 40
0.6666666666666666
 40
0.6666666666666666
 40
0.6666666666666666
 40
0.7222222222222222
 40
0.7222222222222222
 40
0.7222222222222222
 40
0.7222222222222222
 40
0.7777777777777778
 40
0.7777777777777778
 40
0.7777777777777778
 40
0.7777777777777778
 40
0.8333333333333334
 40
0.8333333333333334
 40
0.8333333333333334
 40
0.8333333333333334
 40
0.8888888888888888
 40
0.8888888888888888
 40
0.8888888888888888
 40
0.8888888888888888
 40
1.0
 40
1.0
 40
1.0
 40
1.0
 10
125.8834
 20
-63.4785
 30
0.0
 10
125.8834
 20
-63.4785
 30
0.0
 10
125.8834
 20
-100.3386
 30
0.0
 10
125.8834
 20
-100.3386
 30
0.0
 10
125.8834
 20
-100.3386
 30
0.0
 10
124.5039
 20
-100.2061
 30
0.0
 10
123.1867
 20
-99.6932
 30
0.0
 10
122.0722
 20
-98.8996
 30
0.0
 10
122.0722
 20
-98.8996
 30
0.0
 10
120.7612
 20
-97.966
 30
0.0
 10
119.7344
 20
-96.6545
 30
0.0
 10
119.2197
 20
-95.1274
 30
0.0
 10
119.2197
 20
-95.1274
 30
0.0
 10
119.2197
 20
-95.1274
 30
0.0
 10
118.565
 20
-93.1849
 30
0.0
 10
118.565
 20
-93.1849
 30
0.0
 10
118.565
 20
-93.1849
 30
0.0
 10
118.565
 20
-93.1849
 30
0.0
 10
116.5809
 20
-93.68
 30
0.0
 10
116.5809
 20
-93.68
 30
0.0
 10
116.5809
 20
-93.68
 30
0.0
 10
114.7151
 20
-94.1456
 30
0.0
 10
112.9776
 20
-93.928
 30
0.0
 10
111.5109
 20
-93.2482
 30
0.0
 10
111.5109
 20
-93.2482
 30
0.0
 10
110.4273
 20
-92.746
 30
0.0
 10
109.483
 20
-91.9921
 30
0.0
 10
108.7361
 20
-91.0744
 30
0.0
 10
108.7361
 20
-91.0744
 30
0.0
 10
108.0926
 20
-90.2839
 30
0.0
 10
107.596
 20
-89.37
 30
0.0
 10
107.2832
 20
-88.389
 30
0.0
 10
107.2832
 20
-88.389
 30
0.0
 10
110.3928
 20
-86.9678
 30
0.0
 10
112.4897
 20
-84.3301
 30
0.0
 10
112.4897
 20
-81.3223
 30
0.0
 10
112.4897
 20
-81.3223
 30
0.0
 10
112.4897
 20
-78.4407
 30
0.0
 10
110.5654
 20
-75.8987
 30
0.0
 10
107.6701
 20
-74.4407
 30
0.0
 10
107.6701
 20
-74.4407
 30
0.0
 10
107.9553
 20
-73.8321
 30
0.0
 10
108.3141
 20
-73.2609
 30
0.0
 10
108.7361
 20
-72.7427
 30
0.0
 10
108.7361
 20
-72.7427
 30
0.0
 10
109.483
 20
-71.825
 30
0.0
 10
110.4273
 20
-71.0709
 30
0.0
 10
111.5109
 20
-70.5688
 30
0.0
 10
111.5109
 20
-70.5688
 30
0.0
 10
112.9776
 20
-69.889
 30
0.0
 10
114.715
 20
-69.6716
 30
0.0
 10
116.5809
 20
-70.1371
 30
0.0
 10
116.5809
 20
-70.1371
 30
0.0
 10
116.5809
 20
-70.1371
 30
0.0
 10
118.5642
 20
-70.632
 30
0.0
 10
118.5642
 20
-70.632
 30
0.0
 10
118.5642
 20
-70.632
 30
0.0
 10
118.5642
 20
-70.632
 30
0.0
 10
119.2197
 20
-68.6897
 30
0.0
 10
119.2197
 20
-68.6897
 30
0.0
 10
119.2197
 20
-68.6897
 30
0.0
 10
119.735
 20
-67.1624
 30
0.0
 10
120.7635
 20
-65.8505
 30
0.0
 10
122.0762
 20
-64.9163
 30
0.0
 10
122.0762
 20
-64.9163
 30
0.0
 10
123.1897
 20
-64.1239
 30
0.0
 10
124.5055
 20
-63.6115
 30
0.0
 10
125.8834
 20
-63.4785
 30
0.0
  0
SPLINE
  5
4F
330
1F
100
AcDbEntity
  8
layer 1
 62
     7
370
     9
100
AcDbSpline
210
0.0
220
0.0
230
1.0
 70
    11
 71
     3
 72
    64
 73
    60
 74
     0
 42
0.0000000001
 43
0.0000000001
 12
1.0
 22
0.0
 32
0.0
 13
1.0
 23
0.0
 33
0.0
 40
0.0
 40
0.0
 40
0.0
 40
0.0
 40
0.0625
 40
0.0625
 40
0.0625
 40
0.0625
 40
0.125
 40
0.125
 40
0.125
 40
0.125
 40
0.1875
 40
0.1875
 40
0.1875
 40
0.1875
 40
0.25
 40
0.25
 40
0.25
 40
0.25
 40
0.3125
 40
0.3125
 40
0.3125
 40
0.3125
 40
0.375
 40
0.375
 40
0.375
 40
0.375
 40
0.4375
 40
0.4375
 40
0.4375
 40
0.4375
 40
0.5
 40
0.5
 40
0.5
 40
0.5
 40
0.5625
 40
0.5625
 40
0.5625
 40
0.5625
 40
0.625
 40
0.625
 40
0.625
 40
0.625
 40
0.6875
 40
0.6875
 40
0.6875
 40
0.6875
 40
0.75
 40
0.75
 40
0.75
 40
0.75
 40
0.8125
 40
0.8125
 40
0.8125
 40
0.8125
 40
0.875
 40
0.875
 40
0.875
 40
0.875
 40
1.0
 40
1.0
 40
1.0
 40
1.0
 10
125.8834
 20
-104.7894
 30
0.0
 10
125.8834
 20
-104.7894
 30
0.0
 10
125.8834
 20
-107.3841
 30
0.0
 10
125.8834
 20
-107.3841
 30
0.0
 10
125.8834
 20
-107.3841
 30
0.0
 10
125.8834
 20
-107.3841
 30
0.0
 10
79.6915
 20
-107.3841
 30
0.0
 10
79.6915
 20
-107.3841
 30
0.0
 10
79.6915
 20
-107.3841
 30
0.0
 10
79.6915
 20
-107.3841
 30
0.0
 10
79.6915
 20
-104.5954
 30
0.0
 10
79.6915
 20
-104.5954
 30
0.0
 10
79.6915
 20
-104.5954
 30
0.0
 10
81.4419
 20
-104.2568
 30
0.0
 10
83.099
 20
-103.5306
 30
0.0
 10
84.5391
 20
-102.5051
 30
0.0
 10
84.5391
 20
-102.5051
 30
0.0
 10
86.0712
 20
-101.4141
 30
0.0
 10
87.3597
 20
-99.9783
 30
0.0
 10
88.2561
 20
-98.3034
 30
0.0
 10
88.2561
 20
-98.3034
 30
0.0
 10
90.4749
 20
-98.5197
 30
0.0
 10
92.5566
 20
-98.1189
 30
0.0
 10
94.3885
 20
-97.2698
 30
0.0
 10
94.3885
 20
-97.2698
 30
0.0
 10
96.0951
 20
-96.4789
 30
0.0
 10
97.5768
 20
-95.2981
 30
0.0
 10
98.7432
 20
-93.8651
 30
0.0
 10
98.7432
 20
-93.8651
 30
0.0
 10
99.7974
 20
-92.5701
 30
0.0
 10
100.5946
 20
-91.0703
 30
0.0
 10
101.0681
 20
-89.4683
 30
0.0
 10
101.0681
 20
-89.4683
 30
0.0
 10
101.3821
 20
-89.4907
 30
0.0
 10
101.6998
 20
-89.5028
 30
0.0
 10
102.021
 20
-89.5028
 30
0.0
 10
102.021
 20
-89.5028
 30
0.0
 10
102.3421
 20
-89.5028
 30
0.0
 10
102.6597
 20
-89.4907
 30
0.0
 10
102.9736
 20
-89.4683
 30
0.0
 10
102.9736
 20
-89.4683
 30
0.0
 10
103.4471
 20
-91.0704
 30
0.0
 10
104.2445
 20
-92.5701
 30
0.0
 10
105.2988
 20
-93.8651
 30
0.0
 10
105.2988
 20
-93.8651
 30
0.0
 10
106.4651
 20
-95.2981
 30
0.0
 10
107.9468
 20
-96.4789
 30
0.0
 10
109.6534
 20
-97.2698
 30
0.0
 10
109.6534
 20
-97.2698
 30
0.0
 10
111.4854
 20
-98.1189
 30
0.0
 10
113.5671
 20
-98.5196
 30
0.0
 10
115.7859
 20
-98.3034
 30
0.0
 10
115.7859
 20
-98.3034
 30
0.0
 10
116.6823
 20
-99.9783
 30
0.0
 10
117.9708
 20
-101.4141
 30
0.0
 10
119.5029
 20
-102.5051
 30
0.0
 10
119.5029
 20
-102.5051
 30
0.0
 10
121.358
 20
-103.8261
 30
0.0
 10
123.5731
 20
-104.6501
 30
0.0
 10
125.8834
 20
-104.7894
 30
0.0
  0
SPLINE
  5
50
330
1F
100
AcDbEntity
  8
layer 1
 62
     7
370
     9
100
AcDbSpline
210
0.0
220
0.0
230
1.0
 70
    11
 71
     3
 72
    64
 73
    60
 74
     0
 42
0.0000000001
 43
0.0000000001
 12
1.0
 22
0.0
 32
0.0
 13
1.0
 23
0.0
 33
0.0
 40
0.0
 40
0.0
 40
0.0
 40
0.0
 40
0.0625
 40
0.0625
 40
0.0625
 40
0.0625
 40
0.125
 40
0.125
 40
0.125
 40
0.125
 40
0.1875
 40
0.1875
 40
0.1875
 40
0.1875
 40
0.25
 40
0.25
 40
0.25
 40
0.25
 40
0.3125
 40
0.3125
 40
0.3125
 40
0.3125
 40
0.375
 40
0.375
 40
0.375
 40
0.375
 40
0.4375
 40
0.4375
 40
0.4375
 40
0.4375
 40
0.5
 40
0.5
 40
0.5
 40
0.5
 40
0.5625
 40
0.5625
 40
0.5625
 40
0.5625
 40
0.625
 40
0.625
 40
0.625
 40
0.625
 40
0.6875
 40
0.6875
 40
0.6875
 40
0.6875
 40
0.75
 40
0.75
 40
0.75
 40
0.75
 40
0.8125
 40
0.8125
 40
0.8125
 40
0.8125
 40
0.875
 40
0.875
 40
0.875
 40
0.875
 40
1.0
 40
1.0
 40
1.0
 40
1.0
 10
28.9561
 20
-107.3841
 30
0.0
 10
28.9561
 20
-107.3841
 30
0.0
 10
28.9561
 20
-104.7894
 30
0.0
 10
28.9561
 20
-104.7894
 30
0.0
 10
28.9561
 20
-104.7894
 30
0.0
 10
31.2665
 20
-104.6499
 30
0.0
 10
33.4814
 20
-103.8261
 30
0.0
 10
35.3365
 20
-102.5051
 30
0.0
 10
35.3365
 20
-102.5051
 30
0.0
 10
36.8685
 20
-101.4141
 30
0.0
 10
38.1573
 20
-99.9783
 30
0.0
 10
39.0536
 20
-98.3034
 30
0.0
 10
39.0536
 20
-98.3034
 30
0.0
 10
41.2724
 20
-98.5197
 30
0.0
 10
43.354
 20
-98.1189
 30
0.0
 10
45.1861
 20
-97.2698
 30
0.0
 10
45.1861
 20
-97.2698
 30
0.0
 10
46.8926
 20
-96.4789
 30
0.0
 10
48.3744
 20
-95.2981
 30
0.0
 10
49.5408
 20
-93.8651
 30
0.0
 10
49.5408
 20
-93.8651
 30
0.0
 10
50.5949
 20
-92.5701
 30
0.0
 10
51.3922
 20
-91.0703
 30
0.0
 10
51.8657
 20
-89.4683
 30
0.0
 10
51.8657
 20
-89.4683
 30
0.0
 10
52.1798
 20
-89.4907
 30
0.0
 10
52.4975
 20
-89.5028
 30
0.0
 10
52.8187
 20
-89.5028
 30
0.0
 10
52.8187
 20
-89.5028
 30
0.0
 10
53.1398
 20
-89.5028
 30
0.0
 10
53.4573
 20
-89.4907
 30
0.0
 10
53.7713
 20
-89.4683
 30
0.0
 10
53.7713
 20
-89.4683
 30
0.0
 10
54.2448
 20
-91.0704
 30
0.0
 10
55.0422
 20
-92.5701
 30
0.0
 10
56.0963
 20
-93.8651
 30
0.0
 10
56.0963
 20
-93.8651
 30
0.0
 10
57.2628
 20
-95.2981
 30
0.0
 10
58.7445
 20
-96.4789
 30
0.0
 10
60.4511
 20
-97.2698
 30
0.0
 10
60.4511
 20
-97.2698
 30
0.0
 10
62.283
 20
-98.1189
 30
0.0
 10
64.3647
 20
-98.5196
 30
0.0
 10
66.5835
 20
-98.3034
 30
0.0
 10
66.5835
 20
-98.3034
 30
0.0
 10
67.4799
 20
-99.9783
 30
0.0
 10
68.7685
 20
-101.4141
 30
0.0
 10
70.3006
 20
-102.5051
 30
0.0
 10
70.3006
 20
-102.5051
 30
0.0
 10
71.7407
 20
-103.5306
 30
0.0
 10
73.3979
 20
-104.2566
 30
0.0
 10
75.1481
 20
-104.5954
 30
0.0
 10
75.1481
 20
-104.5954
 30
0.0
 10
75.1481
 20
-104.5954
 30
0.0
 10
75.1481
 20
-107.3841
 30
0.0
 10
75.1481
 20
-107.3841
 30
0.0
 10
75.1481
 20
-107.3841
 30
0.0
 10
75.1481
 20
-107.3841
 30
0.0
 10
28.9561
 20
-107.3841
 30
0.0
 10
28.9561
 20
-107.3841
 30
0.0
  0
SPLINE
  5
51
330
1F
100
AcDbEntity
  8
layer 1
 62
     7
370
     9
100
AcDbSpline
210
0.0
220
0.0
230
1.0
 70
    11
 71
     3
 72
    72
 73
    68
 74
     0
 42
0.0000000001
 43
0.0000000001
 12
1.0
 22
0.0
 32
0.0
 13
1.0
 23
0.0
 33
0.0
 40
0.0
 40
0.0
 40
0.0
 40
0.0
 40
0.0555555555555556
 40
0.0555555555555556
 40
0.0555555555555556
 40
0.0555555555555556
 40
0.1111111111111111
 40
0.1111111111111111
 40
0.1111111111111111
 40
0.1111111111111111
 40
0.1666666666666667
 40
0.1666666666666667
 40
0.1666666666666667
 40
0.1666666666666667
 40
0.2222222222222222
 40
0.2222222222222222
 40
0.2222222222222222
 40
0.2222222222222222
 40
0.2777777777777778
 40
0.2777777777777778
 40
0.2777777777777778
 40
0.2777777777777778
 40
0.3333333333333333
 40
0.3333333333333333
 40
0.3333333333333333
 40
0.3333333333333333
 40
0.3888888888888889
 40
0.3888888888888889
 40
0.3888888888888889
 40
0.3888888888888889
 40
0.4444444444444444
 40
0.4444444444444444
 40
0.4444444444444444
 40
0.4444444444444444
 40
0.5
 40
0.5
 40
0.5
 40
0.5
 40
0.5555555555555556
 40
0.5555555555555556
 40
0.5555555555555556
 40
0.5555555555555556
 40
0.6111111111111112
 40
0.6111111111111112
 40
0.6111111111111112
 40
0.6111111111111112
 40
0.6666666666666666
 40
0.6666666666666666
 40
0.6666666666666666
 40
0.6666666666666666
 40
0.7222222222222222
 40
0.7222222222222222
 40
0.7222222222222222
 40
0.7222222222222222
 40
0.7777777777777778
 40
0.7777777777777778
 40
0.7777777777777778
 40
0.7777777777777778
 40
0.8333333333333334
 40
0.8333333333333334
 40
0.8333333333333334
 40
0.8333333333333334
 40
0.8888888888888888
 40
0.8888888888888888
 40
0.8888888888888888
 40
0.8888888888888888
 40
1.0
 40
1.0
 40
1.0
 40
1.0
 10
28.9561
 20
-100.3386
 30
0.0
 10
28.9561
 20
-100.3386
 30
0.0
 10
28.9561
 20
-63.4804
 30
0.0
 10
28.9561
 20
-63.4804
 30
0.0
 10
28.9561
 20
-63.4804
 30
0.0
 10
30.3382
 20
-63.6167
 30
0.0
 10
31.6566
 20
-64.1294
 30
0.0
 10
32.7718
 20
-64.923
 30
0.0
 10
32.7718
 20
-64.923
 30
0.0
 10
34.0797
 20
-65.8536
 30
0.0
 10
35.1039
 20
-67.1608
 30
0.0
 10
35.6198
 20
-68.6897
 30
0.0
 10
35.6198
 20
-68.6897
 30
0.0
 10
35.6198
 20
-68.6897
 30
0.0
 10
36.2753
 20
-70.632
 30
0.0
 10
36.2753
 20
-70.632
 30
0.0
 10
36.2753
 20
-70.632
 30
0.0
 10
36.2753
 20
-70.632
 30
0.0
 10
38.2587
 20
-70.1371
 30
0.0
 10
38.2587
 20
-70.1371
 30
0.0
 10
38.2587
 20
-70.1371
 30
0.0
 10
40.1245
 20
-69.6716
 30
0.0
 10
41.8619
 20
-69.889
 30
0.0
 10
43.3285
 20
-70.5688
 30
0.0
 10
43.3285
 20
-70.5688
 30
0.0
 10
44.4121
 20
-71.0709
 30
0.0
 10
45.3564
 20
-71.825
 30
0.0
 10
46.1034
 20
-72.7427
 30
0.0
 10
46.1034
 20
-72.7427
 30
0.0
 10
46.5253
 20
-73.2609
 30
0.0
 10
46.8841
 20
-73.8322
 30
0.0
 10
47.1693
 20
-74.4408
 30
0.0
 10
47.1693
 20
-74.4408
 30
0.0
 10
44.2741
 20
-75.8989
 30
0.0
 10
42.3499
 20
-78.4409
 30
0.0
 10
42.3499
 20
-81.3223
 30
0.0
 10
42.3499
 20
-81.3223
 30
0.0
 10
42.3499
 20
-84.3301
 30
0.0
 10
44.4469
 20
-86.9674
 30
0.0
 10
47.5562
 20
-88.3888
 30
0.0
 10
47.5562
 20
-88.3888
 30
0.0
 10
47.2434
 20
-89.37
 30
0.0
 10
46.7468
 20
-90.2839
 30
0.0
 10
46.1034
 20
-91.0744
 30
0.0
 10
46.1034
 20
-91.0744
 30
0.0
 10
45.3564
 20
-91.9921
 30
0.0
 10
44.4121
 20
-92.746
 30
0.0
 10
43.3285
 20
-93.2482
 30
0.0
 10
43.3285
 20
-93.2482
 30
0.0
 10
41.8619
 20
-93.928
 30
0.0
 10
40.1245
 20
-94.1456
 30
0.0
 10
38.2587
 20
-93.68
 30
0.0
 10
38.2587
 20
-93.68
 30
0.0
 10
38.2587
 20
-93.68
 30
0.0
 10
36.2745
 20
-93.1849
 30
0.0
 10
36.2745
 20
-93.1849
 30
0.0
 10
36.2745
 20
-93.1849
 30
0.0
 10
36.2745
 20
-93.1849
 30
0.0
 10
35.6198
 20
-95.1274
 30
0.0
 10
35.6198
 20
-95.1274
 30
0.0
 10
35.6198
 20
-95.1274
 30
0.0
 10
35.1051
 20
-96.6545
 30
0.0
 10
34.0783
 20
-97.966
 30
0.0
 10
32.7673
 20
-98.8996
 30
0.0
 10
32.7673
 20
-98.8996
 30
0.0
 10
31.6527
 20
-99.6932
 30
0.0
 10
30.3355
 20
-100.2059
 30
0.0
 10
28.9561
 20
-100.3386
 30
0.0
  0
SPLINE
  5
52
330
1F
100
AcDbEntity
  8
layer 1
 62
     7
370
     9
100
AcDbSpline
210
0.0
220
0.0
230
1.0
 70
    11
 71
     3
 72
   108
 73
   104
 74
     0
 42
0.0000000001
 43
0.0000000001
 12
1.0
 22
0.0
 32
0.0
 13
1.0
 23
0.0
 33
0.0
 40
0.0
 40
0.0
 40
0.0
 40
0.0
 40
0.037037037037037
 40
0.037037037037037
 40
0.037037037037037
 40
0.037037037037037
 40
0.0740740740740741
 40
0.0740740740740741
 40
0.0740740740740741
 40
0.0740740740740741
 40
0.1111111111111111
 40
0.1111111111111111
 40
0.1111111111111111
 40
0.1111111111111111
 40
0.1481481481481481
 40
0.1481481481481481
 40
0.1481481481481481
 40
0.1481481481481481
 40
0.1851851851851852
 40
0.1851851851851852
 40
0.1851851851851852
 40
0.1851851851851852
 40
0.2222222222222222
 40
0.2222222222222222
 40
0.2222222222222222
 40
0.2222222222222222
 40
0.2592592592592592
 40
0.2592592592592592
 40
0.2592592592592592
 40
0.2592592592592592
 40
0.2962962962962963
 40
0.2962962962962963
 40
0.2962962962962963
 40
0.2962962962962963
 40
0.3333333333333333
 40
0.3333333333333333
 40
0.3333333333333333
 40
0.3333333333333333
 40
0.3703703703703703
 40
0.3703703703703703
 40
0.3703703703703703
 40
0.3703703703703703
 40
0.4074074074074074
 40
0.4074074074074074
 40
0.4074074074074074
 40
0.4074074074074074
 40
0.4444444444444444
 40
0.4444444444444444
 40
0.4444444444444444
 40
0.4444444444444444
 40
0.4814814814814815
 40
0.4814814814814815
 40
0.4814814814814815
 40
0.4814814814814815
 40
0.5185185185185185
 40
0.5185185185185185
 40
0.5185185185185185
 40
0.5185185185185185
 40
0.5555555555555556
 40
0.5555555555555556
 40
0.5555555555555556
 40
0.5555555555555556
 40
0.5925925925925926
 40
0.5925925925925926
 40
0.5925925925925926
 40
0.5925925925925926
 40
0.6296296296296297
 40
0.6296296296296297
 40
0.6296296296296297
 40
0.6296296296296297
 40
0.6666666666666666
 40
0.6666666666666666
 40
0.6666666666666666
 40
0.6666666666666666
 40
0.7037037037037037
 40
0.7037037037037037
 40
0.7037037037037037
 40
0.7037037037037037
 40
0.7407407407407407
 40
0.7407407407407407
 40
0.7407407407407407
 40
0.7407407407407407
 40
0.7777777777777778
 40
0.7777777777777778
 40
0.7777777777777778
 40
0.7777777777777778
 40
0.8148148148148148
 40
0.8148148148148148
 40
0.8148148148148148
 40
0.8148148148148148
 40
0.8518518518518519
 40
0.8518518518518519
 40
0.8518518518518519
 40
0.8518518518518519
 40
0.8888888888888888
 40
0.8888888888888888
 40
0.8888888888888888
 40
0.8888888888888888
 40
0.9259259259259259
 40
0.9259259259259259
 40
0.9259259259259259
 40
0.9259259259259259
 40
1.0
 40
1.0
 40
1.0
 40
1.0
 10
28.9561
 20
-59.0298
 30
0.0
 10
28.9561
 20
-59.0298
 30
0.0
 10
28.9561
 20
-53.0963
 30
0.0
 10
28.9561
 20
-53.0963
 30
0.0
 10
28.9561
 20
-53.0963
 30
0.0
 10
31.2665
 20
-52.9569
 30
0.0
 10
33.4814
 20
-52.1331
 30
0.0
 10
35.3365
 20
-50.8119
 30
0.0
 10
35.3365
 20
-50.8119
 30
0.0
 10
36.8685
 20
-49.7211
 30
0.0
 10
38.1573
 20
-48.2852
 30
0.0
 10
39.0536
 20
-46.6105
 30
0.0
 10
39.0536
 20
-46.6105
 30
0.0
 10
41.2724
 20
-46.8265
 30
0.0
 10
43.354
 20
-46.4257
 30
0.0
 10
45.1861
 20
-45.5767
 30
0.0
 10
45.1861
 20
-45.5767
 30
0.0
 10
46.8926
 20
-44.7858
 30
0.0
 10
48.3744
 20
-43.6051
 30
0.0
 10
49.5408
 20
-42.1721
 30
0.0
 10
49.5408
 20
-42.1721
 30
0.0
 10
50.5949
 20
-40.877
 30
0.0
 10
51.3922
 20
-39.3772
 30
0.0
 10
51.8657
 20
-37.7752
 30
0.0
 10
51.8657
 20
-37.7752
 30
0.0
 10
52.1798
 20
-37.7976
 30
0.0
 10
52.4975
 20
-37.8098
 30
0.0
 10
52.8187
 20
-37.8098
 30
0.0
 10
52.8187
 20
-37.8098
 30
0.0
 10
53.1398
 20
-37.8098
 30
0.0
 10
53.4573
 20
-37.7976
 30
0.0
 10
53.7713
 20
-37.7753
 30
0.0
 10
53.7713
 20
-37.7753
 30
0.0
 10
54.2448
 20
-39.3773
 30
0.0
 10
55.0422
 20
-40.877
 30
0.0
 10
56.0963
 20
-42.1721
 30
0.0
 10
56.0963
 20
-42.1721
 30
0.0
 10
57.2628
 20
-43.6051
 30
0.0
 10
58.7445
 20
-44.7858
 30
0.0
 10
60.4511
 20
-45.5767
 30
0.0
 10
60.4511
 20
-45.5767
 30
0.0
 10
62.283
 20
-46.4257
 30
0.0
 10
64.3647
 20
-46.8264
 30
0.0
 10
66.5835
 20
-46.6104
 30
0.0
 10
66.5835
 20
-46.6104
 30
0.0
 10
67.4799
 20
-48.2852
 30
0.0
 10
68.7685
 20
-49.7211
 30
0.0
 10
70.3006
 20
-50.8119
 30
0.0
 10
70.3006
 20
-50.8119
 30
0.0
 10
71.7407
 20
-51.8376
 30
0.0
 10
73.3979
 20
-52.5636
 30
0.0
 10
75.1481
 20
-52.9023
 30
0.0
 10
75.1481
 20
-52.9023
 30
0.0
 10
75.1481
 20
-52.9023
 30
0.0
 10
75.1481
 20
-59.2223
 30
0.0
 10
75.1481
 20
-59.2223
 30
0.0
 10
75.1481
 20
-59.2223
 30
0.0
 10
73.3999
 20
-59.5611
 30
0.0
 10
71.7442
 20
-60.2864
 30
0.0
 10
70.3045
 20
-61.3108
 30
0.0
 10
70.3045
 20
-61.3108
 30
0.0
 10
68.7716
 20
-62.4017
 30
0.0
 10
67.4818
 20
-63.838
 30
0.0
 10
66.5842
 20
-65.5137
 30
0.0
 10
66.5842
 20
-65.5137
 30
0.0
 10
64.3651
 20
-65.2974
 30
0.0
 10
62.2832
 20
-65.6979
 30
0.0
 10
60.4511
 20
-66.5473
 30
0.0
 10
60.4511
 20
-66.5473
 30
0.0
 10
58.7445
 20
-67.3382
 30
0.0
 10
57.2628
 20
-68.5188
 30
0.0
 10
56.0963
 20
-69.9519
 30
0.0
 10
56.0963
 20
-69.9519
 30
0.0
 10
55.2962
 20
-70.9349
 30
0.0
 10
54.644
 20
-72.0357
 30
0.0
 10
54.1689
 20
-73.2098
 30
0.0
 10
54.1689
 20
-73.2098
 30
0.0
 10
53.7267
 20
-73.1648
 30
0.0
 10
53.2761
 20
-73.1416
 30
0.0
 10
52.8187
 20
-73.1416
 30
0.0
 10
52.8187
 20
-73.1416
 30
0.0
 10
52.361
 20
-73.1416
 30
0.0
 10
51.9103
 20
-73.1649
 30
0.0
 10
51.4679
 20
-73.2098
 30
0.0
 10
51.4679
 20
-73.2098
 30
0.0
 10
50.993
 20
-72.0357
 30
0.0
 10
50.3409
 20
-70.9349
 30
0.0
 10
49.5408
 20
-69.9519
 30
0.0
 10
49.5408
 20
-69.9519
 30
0.0
 10
48.3743
 20
-68.5188
 30
0.0
 10
46.8926
 20
-67.3382
 30
0.0
 10
45.1861
 20
-66.5473
 30
0.0
 10
45.1861
 20
-66.5473
 30
0.0
 10
43.354
 20
-65.6981
 30
0.0
 10
41.2723
 20
-65.2975
 30
0.0
 10
39.0535
 20
-65.5137
 30
0.0
 10
39.0535
 20
-65.5137
 30
0.0
 10
38.1571
 20
-63.8385
 30
0.0
 10
36.8707
 20
-62.406
 30
0.0
 10
35.341
 20
-61.3175
 30
0.0
 10
35.341
 20
-61.3175
 30
0.0
 10
33.4865
 20
-59.9978
 30
0.0
 10
31.2709
 20
-59.1753
 30
0.0
 10
28.9561
 20
-59.0298
 30
0.0
  0
SPLINE
  5
53
330
1F
100
AcDbEntity
  8
layer 1
 62
     7
370
     9
100
AcDbSpline
210
0.0
220
0.0
230
1.0
 70
    11
 71
     3
 72
    72
 73
    68
 74
     0
 42
0.0000000001
 43
0.0000000001
 12
1.0
 22
0.0
 32
0.0
 13
1.0
 23
0.0
 33
0.0
 40
0.0
 40
0.0
 40
0.0
 40
0.0
 40
0.0555555555555556
 40
0.0555555555555556
 40
0.0555555555555556
 40
0.0555555555555556
 40
0.1111111111111111
 40
0.1111111111111111
 40
0.1111111111111111
 40
0.1111111111111111
 40
0.1666666666666667
 40
0.1666666666666667
 40
0.1666666666666667
 40
0.1666666666666667
 40
0.2222222222222222
 40
0.2222222222222222
 40
0.2222222222222222
 40
0.2222222222222222
 40
0.2777777777777778
 40
0.2777777777777778
 40
0.2777777777777778
 40
0.2777777777777778
 40
0.3333333333333333
 40
0.3333333333333333
 40
0.3333333333333333
 40
0.3333333333333333
 40
0.3888888888888889
 40
0.3888888888888889
 40
0.3888888888888889
 40
0.3888888888888889
 40
0.4444444444444444
 40
0.4444444444444444
 40
0.4444444444444444
 40
0.4444444444444444
 40
0.5
 40
0.5
 40
0.5
 40
0.5
 40
0.5555555555555556
 40
0.5555555555555556
 40
0.5555555555555556
 40
0.5555555555555556
 40
0.6111111111111112
 40
0.6111111111111112
 40
0.6111111111111112
 40
0.6111111111111112
 40
0.6666666666666666
 40
0.6666666666666666
 40
0.6666666666666666
 40
0.6666666666666666
 40
0.7222222222222222
 40
0.7222222222222222
 40
0.7222222222222222
 40
0.7222222222222222
 40
0.7777777777777778
 40
0.7777777777777778
 40
0.7777777777777778
 40
0.7777777777777778
 40
0.8333333333333334
 40
0.8333333333333334
 40
0.8333333333333334
 40
0.8333333333333334
 40
0.8888888888888888
 40
0.8888888888888888
 40
0.8888888888888888
 40
0.8888888888888888
 40
1.0
 40
1.0
 40
1.0
 40
1.0
 10
28.9561
 20
-48.6456
 30
0.0
 10
28.9561
 20
-48.6456
 30
0.0
 10
28.9561
 20
-11.7874
 30
0.0
 10
28.9561
 20
-11.7874
 30
0.0
 10
28.9561
 20
-11.7874
 30
0.0
 10
30.3382
 20
-11.9236
 30
0.0
 10
31.6566
 20
-12.4364
 30
0.0
 10
32.7718
 20
-13.2298
 30
0.0
 10
32.7718
 20
-13.2298
 30
0.0
 10
34.0797
 20
-14.1605
 30
0.0
 10
35.1039
 20
-15.4678
 30
0.0
 10
35.6198
 20
-16.9967
 30
0.0
 10
35.6198
 20
-16.9967
 30
0.0
 10
35.6198
 20
-16.9967
 30
0.0
 10
36.2753
 20
-18.9389
 30
0.0
 10
36.2753
 20
-18.9389
 30
0.0
 10
36.2753
 20
-18.9389
 30
0.0
 10
36.2753
 20
-18.9389
 30
0.0
 10
38.2587
 20
-18.4441
 30
0.0
 10
38.2587
 20
-18.4441
 30
0.0
 10
38.2587
 20
-18.4441
 30
0.0
 10
40.1245
 20
-17.9785
 30
0.0
 10
41.8619
 20
-18.196
 30
0.0
 10
43.3285
 20
-18.8757
 30
0.0
 10
43.3285
 20
-18.8757
 30
0.0
 10
44.4121
 20
-19.3778
 30
0.0
 10
45.3564
 20
-20.1319
 30
0.0
 10
46.1034
 20
-21.0495
 30
0.0
 10
46.1034
 20
-21.0495
 30
0.0
 10
46.5253
 20
-21.5679
 30
0.0
 10
46.8841
 20
-22.1391
 30
0.0
 10
47.1693
 20
-22.7478
 30
0.0
 10
47.1693
 20
-22.7478
 30
0.0
 10
44.2741
 20
-24.2058
 30
0.0
 10
42.3499
 20
-26.7477
 30
0.0
 10
42.3499
 20
-29.6293
 30
0.0
 10
42.3499
 20
-29.6293
 30
0.0
 10
42.3499
 20
-32.637
 30
0.0
 10
44.4469
 20
-35.2746
 30
0.0
 10
47.5562
 20
-36.6957
 30
0.0
 10
47.5562
 20
-36.6957
 30
0.0
 10
47.2434
 20
-37.6769
 30
0.0
 10
46.7468
 20
-38.5907
 30
0.0
 10
46.1034
 20
-39.3812
 30
0.0
 10
46.1034
 20
-39.3812
 30
0.0
 10
45.3564
 20
-40.299
 30
0.0
 10
44.4121
 20
-41.053
 30
0.0
 10
43.3285
 20
-41.5552
 30
0.0
 10
43.3285
 20
-41.5552
 30
0.0
 10
41.8619
 20
-42.2349
 30
0.0
 10
40.1245
 20
-42.4524
 30
0.0
 10
38.2587
 20
-41.9868
 30
0.0
 10
38.2587
 20
-41.9868
 30
0.0
 10
38.2587
 20
-41.9868
 30
0.0
 10
36.2745
 20
-41.4918
 30
0.0
 10
36.2745
 20
-41.4918
 30
0.0
 10
36.2745
 20
-41.4918
 30
0.0
 10
36.2745
 20
-41.4918
 30
0.0
 10
35.6198
 20
-43.4342
 30
0.0
 10
35.6198
 20
-43.4342
 30
0.0
 10
35.6198
 20
-43.4342
 30
0.0
 10
35.1051
 20
-44.9615
 30
0.0
 10
34.0783
 20
-46.2729
 30
0.0
 10
32.7673
 20
-47.2064
 30
0.0
 10
32.7673
 20
-47.2064
 30
0.0
 10
31.6527
 20
-48.0001
 30
0.0
 10
30.3355
 20
-48.5128
 30
0.0
 10
28.9561
 20
-48.6456
 30
0.0
  0
SPLINE
  5
54
330
1F
100
AcDbEntity
  8
layer 1
 62
     7
370
     9
100
AcDbSpline
210
0.0
220
0.0
230
1.0
 70
    11
 71
     3
 72
   108
 73
   104
 74
     0
 42
0.0000000001
 43
0.0000000001
 12
1.0
 22
0.0
 32
0.0
 13
1.0
 23
0.0
 33
0.0
 40
0.0
 40
0.0
 40
0.0
 40
0.0
 40
0.037037037037037
 40
0.037037037037037
 40
0.037037037037037
 40
0.037037037037037
 40
0.0740740740740741
 40
0.0740740740740741
 40
0.0740740740740741
 40
0.0740740740740741
 40
0.1111111111111111
 40
0.1111111111111111
 40
0.1111111111111111
 40
0.1111111111111111
 40
0.1481481481481481
 40
0.1481481481481481
 40
0.1481481481481481
 40
0.1481481481481481
 40
0.1851851851851852
 40
0.1851851851851852
 40
0.1851851851851852
 40
0.1851851851851852
 40
0.2222222222222222
 40
0.2222222222222222
 40
0.2222222222222222
 40
0.2222222222222222
 40
0.2592592592592592
 40
0.2592592592592592
 40
0.2592592592592592
 40
0.2592592592592592
 40
0.2962962962962963
 40
0.2962962962962963
 40
0.2962962962962963
 40
0.2962962962962963
 40
0.3333333333333333
 40
0.3333333333333333
 40
0.3333333333333333
 40
0.3333333333333333
 40
0.3703703703703703
 40
0.3703703703703703
 40
0.3703703703703703
 40
0.3703703703703703
 40
0.4074074074074074
 40
0.4074074074074074
 40
0.4074074074074074
 40
0.4074074074074074
 40
0.4444444444444444
 40
0.4444444444444444
 40
0.4444444444444444
 40
0.4444444444444444
 40
0.4814814814814815
 40
0.4814814814814815
 40
0.4814814814814815
 40
0.4814814814814815
 40
0.5185185185185185
 40
0.5185185185185185
 40
0.5185185185185185
 40
0.5185185185185185
 40
0.5555555555555556
 40
0.5555555555555556
 40
0.5555555555555556
 40
0.5555555555555556
 40
0.5925925925925926
 40
0.5925925925925926
 40
0.5925925925925926
 40
0.5925925925925926
 40
0.6296296296296297
 40
0.6296296296296297
 40
0.6296296296296297
 40
0.6296296296296297
 40
0.6666666666666666
 40
0.6666666666666666
 40
0.6666666666666666
 40
0.6666666666666666
 40
0.7037037037037037
 40
0.7037037037037037
 40
0.7037037037037037
 40
0.7037037037037037
 40
0.7407407407407407
 40
0.7407407407407407
 40
0.7407407407407407
 40
0.7407407407407407
 40
0.7777777777777778
 40
0.7777777777777778
 40
0.7777777777777778
 40
0.7777777777777778
 40
0.8148148148148148
 40
0.8148148148148148
 40
0.8148148148148148
 40
0.8148148148148148
 40
0.8518518518518519
 40
0.8518518518518519
 40
0.8518518518518519
 40
0.8518518518518519
 40
0.8888888888888888
 40
0.8888888888888888
 40
0.8888888888888888
 40
0.8888888888888888
 40
0.9259259259259259
 40
0.9259259259259259
 40
0.9259259259259259
 40
0.9259259259259259
 40
1.0
 40
1.0
 40
1.0
 40
1.0
 10
28.9561
 20
-7.3366
 30
0.0
 10
28.9561
 20
-7.3366
 30
0.0
 10
28.9561
 20
-1.4032
 30
0.0
 10
28.9561
 20
-1.4032
 30
0.0
 10
28.9561
 20
-1.4032
 30
0.0
 10
31.2665
 20
-1.2639
 30
0.0
 10
33.4814
 20
-0.4398
 30
0.0
 10
35.3365
 20
0.8811
 30
0.0
 10
35.3365
 20
0.8811
 30
0.0
 10
36.8685
 20
1.972
 30
0.0
 10
38.1573
 20
3.408
 30
0.0
 10
39.0536
 20
5.0826
 30
0.0
 10
39.0536
 20
5.0826
 30
0.0
 10
41.2724
 20
4.8665
 30
0.0
 10
43.354
 20
5.2672
 30
0.0
 10
45.1861
 20
6.1164
 30
0.0
 10
45.1861
 20
6.1164
 30
0.0
 10
46.8926
 20
6.9073
 30
0.0
 10
48.3744
 20
8.0879
 30
0.0
 10
49.5408
 20
9.521
 30
0.0
 10
49.5408
 20
9.521
 30
0.0
 10
50.5949
 20
10.816
 30
0.0
 10
51.3922
 20
12.3159
 30
0.0
 10
51.8657
 20
13.9178
 30
0.0
 10
51.8657
 20
13.9178
 30
0.0
 10
52.1798
 20
13.8955
 30
0.0
 10
52.4975
 20
13.8834
 30
0.0
 10
52.8187
 20
13.8834
 30
0.0
 10
52.8187
 20
13.8834
 30
0.0
 10
53.1398
 20
13.8834
 30
0.0
 10
53.4573
 20
13.8955
 30
0.0
 10
53.7713
 20
13.9178
 30
0.0
 10
53.7713
 20
13.9178
 30
0.0
 10
54.2448
 20
12.3157
 30
0.0
 10
55.0422
 20
10.816
 30
0.0
 10
56.0963
 20
9.521
 30
0.0
 10
56.0963
 20
9.521
 30
0.0
 10
57.2628
 20
8.0879
 30
0.0
 10
58.7445
 20
6.9073
 30
0.0
 10
60.4511
 20
6.1164
 30
0.0
 10
60.4511
 20
6.1164
 30
0.0
 10
62.283
 20
5.2673
 30
0.0
 10
64.3647
 20
4.8666
 30
0.0
 10
66.5835
 20
5.0828
 30
0.0
 10
66.5835
 20
5.0828
 30
0.0
 10
67.4799
 20
3.408
 30
0.0
 10
68.7685
 20
1.972
 30
0.0
 10
70.3006
 20
0.8811
 30
0.0
 10
70.3006
 20
0.8811
 30
0.0
 10
71.7407
 20
-0.1445
 30
0.0
 10
73.3979
 20
-0.8705
 30
0.0
 10
75.1481
 20
-1.2092
 30
0.0
 10
75.1481
 20
-1.2092
 30
0.0
 10
75.1481
 20
-1.2092
 30
0.0
 10
75.1481
 20
-7.5292
 30
0.0
 10
75.1481
 20
-7.5292
 30
0.0
 10
75.1481
 20
-7.5292
 30
0.0
 10
73.3999
 20
-7.868
 30
0.0
 10
71.7442
 20
-8.5934
 30
0.0
 10
70.3045
 20
-9.6178
 30
0.0
 10
70.3045
 20
-9.6178
 30
0.0
 10
68.7716
 20
-10.7087
 30
0.0
 10
67.4818
 20
-12.145
 30
0.0
 10
66.5842
 20
-13.8206
 30
0.0
 10
66.5842
 20
-13.8206
 30
0.0
 10
64.3651
 20
-13.6044
 30
0.0
 10
62.2832
 20
-14.0049
 30
0.0
 10
60.4511
 20
-14.8541
 30
0.0
 10
60.4511
 20
-14.8541
 30
0.0
 10
58.7445
 20
-15.645
 30
0.0
 10
57.2628
 20
-16.8256
 30
0.0
 10
56.0963
 20
-18.2588
 30
0.0
 10
56.0963
 20
-18.2588
 30
0.0
 10
55.2962
 20
-19.2419
 30
0.0
 10
54.644
 20
-20.3427
 30
0.0
 10
54.1689
 20
-21.5166
 30
0.0
 10
54.1689
 20
-21.5166
 30
0.0
 10
53.7267
 20
-21.4718
 30
0.0
 10
53.2761
 20
-21.4484
 30
0.0
 10
52.8187
 20
-21.4484
 30
0.0
 10
52.8187
 20
-21.4484
 30
0.0
 10
52.361
 20
-21.4484
 30
0.0
 10
51.9103
 20
-21.4718
 30
0.0
 10
51.4679
 20
-21.5166
 30
0.0
 10
51.4679
 20
-21.5166
 30
0.0
 10
50.993
 20
-20.3427
 30
0.0
 10
50.3409
 20
-19.2419
 30
0.0
 10
49.5408
 20
-18.2588
 30
0.0
 10
49.5408
 20
-18.2588
 30
0.0
 10
48.3743
 20
-16.8256
 30
0.0
 10
46.8926
 20
-15.645
 30
0.0
 10
45.1861
 20
-14.8541
 30
0.0
 10
45.1861
 20
-14.8541
 30
0.0
 10
43.354
 20
-14.005
 30
0.0
 10
41.2723
 20
-13.6044
 30
0.0
 10
39.0535
 20
-13.8205
 30
0.0
 10
39.0535
 20
-13.8205
 30
0.0
 10
38.1571
 20
-12.1453
 30
0.0
 10
36.8707
 20
-10.7129
 30
0.0
 10
35.341
 20
-9.6243
 30
0.0
 10
35.341
 20
-9.6243
 30
0.0
 10
33.4865
 20
-8.3047
 30
0.0
 10
31.2709
 20
-7.4821
 30
0.0
 10
28.9561
 20
-7.3366
 30
0.0
  0
SPLINE
  5
55
330
1F
100
AcDbEntity
  8
layer 1
 62
     7
370
     9
100
AcDbSpline
210
0.0
220
0.0
230
1.0
 70
    11
 71
     3
 72
    72
 73
    68
 74
     0
 42
0.0000000001
 43
0.0000000001
 12
1.0
 22
0.0
 32
0.0
 13
1.0
 23
0.0
 33
0.0
 40
0.0
 40
0.0
 40
0.0
 40
0.0
 40
0.0555555555555556
 40
0.0555555555555556
 40
0.0555555555555556
 40
0.0555555555555556
 40
0.1111111111111111
 40
0.1111111111111111
 40
0.1111111111111111
 40
0.1111111111111111
 40
0.1666666666666667
 40
0.1666666666666667
 40
0.1666666666666667
 40
0.1666666666666667
 40
0.2222222222222222
 40
0.2222222222222222
 40
0.2222222222222222
 40
0.2222222222222222
 40
0.2777777777777778
 40
0.2777777777777778
 40
0.2777777777777778
 40
0.2777777777777778
 40
0.3333333333333333
 40
0.3333333333333333
 40
0.3333333333333333
 40
0.3333333333333333
 40
0.3888888888888889
 40
0.3888888888888889
 40
0.3888888888888889
 40
0.3888888888888889
 40
0.4444444444444444
 40
0.4444444444444444
 40
0.4444444444444444
 40
0.4444444444444444
 40
0.5
 40
0.5
 40
0.5
 40
0.5
 40
0.5555555555555556
 40
0.5555555555555556
 40
0.5555555555555556
 40
0.5555555555555556
 40
0.6111111111111112
 40
0.6111111111111112
 40
0.6111111111111112
 40
0.6111111111111112
 40
0.6666666666666666
 40
0.6666666666666666
 40
0.6666666666666666
 40
0.6666666666666666
 40
0.7222222222222222
 40
0.7222222222222222
 40
0.7222222222222222
 40
0.7222222222222222
 40
0.7777777777777778
 40
0.7777777777777778
 40
0.7777777777777778
 40
0.7777777777777778
 40
0.8333333333333334
 40
0.8333333333333334
 40
0.8333333333333334
 40
0.8333333333333334
 40
0.8888888888888888
 40
0.8888888888888888
 40
0.8888888888888888
 40
0.8888888888888888
 40
1.0
 40
1.0
 40
1.0
 40
1.0
 10
28.9561
 20
3.0476
 30
0.0
 10
28.9561
 20
3.0476
 30
0.0
 10
28.9561
 20
39.9056
 30
0.0
 10
28.9561
 20
39.9056
 30
0.0
 10
28.9561
 20
39.9056
 30
0.0
 10
30.3382
 20
39.7694
 30
0.0
 10
31.6566
 20
39.2567
 30
0.0
 10
32.7718
 20
38.4632
 30
0.0
 10
32.7718
 20
38.4632
 30
0.0
 10
34.0797
 20
37.5325
 30
0.0
 10
35.1039
 20
36.2254
 30
0.0
 10
35.6198
 20
34.6965
 30
0.0
 10
35.6198
 20
34.6965
 30
0.0
 10
35.6198
 20
34.6965
 30
0.0
 10
36.2753
 20
32.7542
 30
0.0
 10
36.2753
 20
32.7542
 30
0.0
 10
36.2753
 20
32.7542
 30
0.0
 10
36.2753
 20
32.7542
 30
0.0
 10
38.2587
 20
33.2491
 30
0.0
 10
38.2587
 20
33.2491
 30
0.0
 10
38.2587
 20
33.2491
 30
0.0
 10
40.1245
 20
33.7147
 30
0.0
 10
41.8619
 20
33.4971
 30
0.0
 10
43.3285
 20
32.8174
 30
0.0
 10
43.3285
 20
32.8174
 30
0.0
 10
44.4121
 20
32.3152
 30
0.0
 10
45.3564
 20
31.5612
 30
0.0
 10
46.1034
 20
30.6435
 30
0.0
 10
46.1034
 20
30.6435
 30
0.0
 10
46.5253
 20
30.1251
 30
0.0
 10
46.8841
 20
29.5539
 30
0.0
 10
47.1693
 20
28.9454
 30
0.0
 10
47.1693
 20
28.9454
 30
0.0
 10
44.2741
 20
27.4874
 30
0.0
 10
42.3499
 20
24.9453
 30
0.0
 10
42.3499
 20
22.0639
 30
0.0
 10
42.3499
 20
22.0639
 30
0.0
 10
42.3499
 20
19.0561
 30
0.0
 10
44.4469
 20
16.4186
 30
0.0
 10
47.5562
 20
14.9975
 30
0.0
 10
47.5562
 20
14.9975
 30
0.0
 10
47.2434
 20
14.0161
 30
0.0
 10
46.7468
 20
13.1024
 30
0.0
 10
46.1034
 20
12.3118
 30
0.0
 10
46.1034
 20
12.3118
 30
0.0
 10
45.3564
 20
11.3941
 30
0.0
 10
44.4121
 20
10.6401
 30
0.0
 10
43.3285
 20
10.138
 30
0.0
 10
43.3285
 20
10.138
 30
0.0
 10
41.8619
 20
9.4581
 30
0.0
 10
40.1245
 20
9.2407
 30
0.0
 10
38.2587
 20
9.7062
 30
0.0
 10
38.2587
 20
9.7062
 30
0.0
 10
38.2587
 20
9.7062
 30
0.0
 10
36.2745
 20
10.2012
 30
0.0
 10
36.2745
 20
10.2012
 30
0.0
 10
36.2745
 20
10.2012
 30
0.0
 10
36.2745
 20
10.2012
 30
0.0
 10
35.6198
 20
8.2588
 30
0.0
 10
35.6198
 20
8.2588
 30
0.0
 10
35.6198
 20
8.2588
 30
0.0
 10
35.1051
 20
6.7315
 30
0.0
 10
34.0783
 20
5.4202
 30
0.0
 10
32.7673
 20
4.4867
 30
0.0
 10
32.7673
 20
4.4867
 30
0.0
 10
31.6527
 20
3.693
 30
0.0
 10
30.3355
 20
3.1802
 30
0.0
 10
28.9561
 20
3.0476
 30
0.0
  0
SPLINE
  5
56
330
1F
100
AcDbEntity
  8
layer 1
 62
     7
370
     9
100
AcDbSpline
210
0.0
220
0.0
230
1.0
 70
    11
 71
     3
 72
   108
 73
   104
 74
     0
 42
0.0000000001
 43
0.0000000001
 12
1.0
 22
0.0
 32
0.0
 13
1.0
 23
0.0
 33
0.0
 40
0.0
 40
0.0
 40
0.0
 40
0.0
 40
0.037037037037037
 40
0.037037037037037
 40
0.037037037037037
 40
0.037037037037037
 40
0.0740740740740741
 40
0.0740740740740741
 40
0.0740740740740741
 40
0.0740740740740741
 40
0.1111111111111111
 40
0.1111111111111111
 40
0.1111111111111111
 40
0.1111111111111111
 40
0.1481481481481481
 40
0.1481481481481481
 40
0.1481481481481481
 40
0.1481481481481481
 40
0.1851851851851852
 40
0.1851851851851852
 40
0.1851851851851852
 40
0.1851851851851852
 40
0.2222222222222222
 40
0.2222222222222222
 40
0.2222222222222222
 40
0.2222222222222222
 40
0.2592592592592592
 40
0.2592592592592592
 40
0.2592592592592592
 40
0.2592592592592592
 40
0.2962962962962963
 40
0.2962962962962963
 40
0.2962962962962963
 40
0.2962962962962963
 40
0.3333333333333333
 40
0.3333333333333333
 40
0.3333333333333333
 40
0.3333333333333333
 40
0.3703703703703703
 40
0.3703703703703703
 40
0.3703703703703703
 40
0.3703703703703703
 40
0.4074074074074074
 40
0.4074074074074074
 40
0.4074074074074074
 40
0.4074074074074074
 40
0.4444444444444444
 40
0.4444444444444444
 40
0.4444444444444444
 40
0.4444444444444444
 40
0.4814814814814815
 40
0.4814814814814815
 40
0.4814814814814815
 40
0.4814814814814815
 40
0.5185185185185185
 40
0.5185185185185185
 40
0.5185185185185185
 40
0.5185185185185185
 40
0.5555555555555556
 40
0.5555555555555556
 40
0.5555555555555556
 40
0.5555555555555556
 40
0.5925925925925926
 40
0.5925925925925926
 40
0.5925925925925926
 40
0.5925925925925926
 40
0.6296296296296297
 40
0.6296296296296297
 40
0.6296296296296297
 40
0.6296296296296297
 40
0.6666666666666666
 40
0.6666666666666666
 40
0.6666666666666666
 40
0.6666666666666666
 40
0.7037037037037037
 40
0.7037037037037037
 40
0.7037037037037037
 40
0.7037037037037037
 40
0.7407407407407407
 40
0.7407407407407407
 40
0.7407407407407407
 40
0.7407407407407407
 40
0.7777777777777778
 40
0.7777777777777778
 40
0.7777777777777778
 40
0.7777777777777778
 40
0.8148148148148148
 40
0.8148148148148148
 40
0.8148148148148148
 40
0.8148148148148148
 40
0.8518518518518519
 40
0.8518518518518519
 40
0.8518518518518519
 40
0.8518518518518519
 40
0.8888888888888888
 40
0.8888888888888888
 40
0.8888888888888888
 40
0.8888888888888888
 40
0.9259259259259259
 40
0.9259259259259259
 40
0.9259259259259259
 40
0.9259259259259259
 40
1.0
 40
1.0
 40
1.0
 40
1.0
 10
28.9561
 20
44.3564
 30
0.0
 10
28.9561
 20
44.3564
 30
0.0
 10
28.9561
 20
50.29
 30
0.0
 10
28.9561
 20
50.29
 30
0.0
 10
28.9561
 20
50.29
 30
0.0
 10
31.2665
 20
50.4292
 30
0.0
 10
33.4814
 20
51.2532
 30
0.0
 10
35.3365
 20
52.5741
 30
0.0
 10
35.3365
 20
52.5741
 30
0.0
 10
36.8685
 20
53.6652
 30
0.0
 10
38.1573
 20
55.101
 30
0.0
 10
39.0536
 20
56.7758
 30
0.0
 10
39.0536
 20
56.7758
 30
0.0
 10
41.2724
 20
56.5598
 30
0.0
 10
43.354
 20
56.9603
 30
0.0
 10
45.1861
 20
57.8094
 30
0.0
 10
45.1861
 20
57.8094
 30
0.0
 10
46.8926
 20
58.6004
 30
0.0
 10
48.3744
 20
59.781
 30
0.0
 10
49.5408
 20
61.214
 30
0.0
 10
49.5408
 20
61.214
 30
0.0
 10
50.5949
 20
62.5092
 30
0.0
 10
51.3922
 20
64.0089
 30
0.0
 10
51.8657
 20
65.611
 30
0.0
 10
51.8657
 20
65.611
 30
0.0
 10
52.1798
 20
65.5885
 30
0.0
 10
52.4975
 20
65.5765
 30
0.0
 10
52.8187
 20
65.5765
 30
0.0
 10
52.8187
 20
65.5765
 30
0.0
 10
53.1398
 20
65.5765
 30
0.0
 10
53.4573
 20
65.5887
 30
0.0
 10
53.7713
 20
65.6108
 30
0.0
 10
53.7713
 20
65.6108
 30
0.0
 10
54.2448
 20
64.0087
 30
0.0
 10
55.0422
 20
62.5092
 30
0.0
 10
56.0963
 20
61.214
 30
0.0
 10
56.0963
 20
61.214
 30
0.0
 10
57.2628
 20
59.781
 30
0.0
 10
58.7445
 20
58.6004
 30
0.0
 10
60.4511
 20
57.8094
 30
0.0
 10
60.4511
 20
57.8094
 30
0.0
 10
62.283
 20
56.9604
 30
0.0
 10
64.3647
 20
56.5598
 30
0.0
 10
66.5835
 20
56.7758
 30
0.0
 10
66.5835
 20
56.7758
 30
0.0
 10
67.4799
 20
55.101
 30
0.0
 10
68.7685
 20
53.6652
 30
0.0
 10
70.3006
 20
52.5741
 30
0.0
 10
70.3006
 20
52.5741
 30
0.0
 10
71.7407
 20
51.5487
 30
0.0
 10
73.3979
 20
50.8225
 30
0.0
 10
75.1481
 20
50.4838
 30
0.0
 10
75.1481
 20
50.4838
 30
0.0
 10
75.1481
 20
50.4838
 30
0.0
 10
75.1481
 20
44.1639
 30
0.0
 10
75.1481
 20
44.1639
 30
0.0
 10
75.1481
 20
44.1639
 30
0.0
 10
73.3999
 20
43.8251
 30
0.0
 10
71.7442
 20
43.0998
 30
0.0
 10
70.3045
 20
42.0753
 30
0.0
 10
70.3045
 20
42.0753
 30
0.0
 10
68.7716
 20
40.9845
 30
0.0
 10
67.4818
 20
39.5481
 30
0.0
 10
66.5842
 20
37.8725
 30
0.0
 10
66.5842
 20
37.8725
 30
0.0
 10
64.3651
 20
38.0888
 30
0.0
 10
62.2832
 20
37.6881
 30
0.0
 10
60.4511
 20
36.8389
 30
0.0
 10
60.4511
 20
36.8389
 30
0.0
 10
58.7445
 20
36.048
 30
0.0
 10
57.2628
 20
34.8674
 30
0.0
 10
56.0963
 20
33.4344
 30
0.0
 10
56.0963
 20
33.4344
 30
0.0
 10
55.2962
 20
32.4513
 30
0.0
 10
54.644
 20
31.3505
 30
0.0
 10
54.1689
 20
30.1765
 30
0.0
 10
54.1689
 20
30.1765
 30
0.0
 10
53.7267
 20
30.2214
 30
0.0
 10
53.2761
 20
30.2446
 30
0.0
 10
52.8187
 20
30.2446
 30
0.0
 10
52.8187
 20
30.2446
 30
0.0
 10
52.361
 20
30.2446
 30
0.0
 10
51.9103
 20
30.2214
 30
0.0
 10
51.4679
 20
30.1764
 30
0.0
 10
51.4679
 20
30.1764
 30
0.0
 10
50.993
 20
31.3505
 30
0.0
 10
50.3409
 20
32.4513
 30
0.0
 10
49.5408
 20
33.4344
 30
0.0
 10
49.5408
 20
33.4344
 30
0.0
 10
48.3743
 20
34.8674
 30
0.0
 10
46.8926
 20
36.048
 30
0.0
 10
45.1861
 20
36.8389
 30
0.0
 10
45.1861
 20
36.8389
 30
0.0
 10
43.354
 20
37.6881
 30
0.0
 10
41.2723
 20
38.0888
 30
0.0
 10
39.0535
 20
37.8725
 30
0.0
 10
39.0535
 20
37.8725
 30
0.0
 10
38.1571
 20
39.5477
 30
0.0
 10
36.8707
 20
40.9802
 30
0.0
 10
35.341
 20
42.0687
 30
0.0
 10
35.341
 20
42.0687
 30
0.0
 10
33.4865
 20
43.3883
 30
0.0
 10
31.2709
 20
44.211
 30
0.0
 10
28.9561
 20
44.3564
 30
0.0
  0
SPLINE
  5
57
330
1F
100
AcDbEntity
  8
layer 1
 62
     7
370
     9
100
AcDbSpline
210
0.0
220
0.0
230
1.0
 70
    11
 71
     3
 72
    72
 73
    68
 74
     0
 42
0.0000000001
 43
0.0000000001
 12
1.0
 22
0.0
 32
0.0
 13
1.0
 23
0.0
 33
0.0
 40
0.0
 40
0.0
 40
0.0
 40
0.0
 40
0.0555555555555556
 40
0.0555555555555556
 40
0.0555555555555556
 40
0.0555555555555556
 40
0.1111111111111111
 40
0.1111111111111111
 40
0.1111111111111111
 40
0.1111111111111111
 40
0.1666666666666667
 40
0.1666666666666667
 40
0.1666666666666667
 40
0.1666666666666667
 40
0.2222222222222222
 40
0.2222222222222222
 40
0.2222222222222222
 40
0.2222222222222222
 40
0.2777777777777778
 40
0.2777777777777778
 40
0.2777777777777778
 40
0.2777777777777778
 40
0.3333333333333333
 40
0.3333333333333333
 40
0.3333333333333333
 40
0.3333333333333333
 40
0.3888888888888889
 40
0.3888888888888889
 40
0.3888888888888889
 40
0.3888888888888889
 40
0.4444444444444444
 40
0.4444444444444444
 40
0.4444444444444444
 40
0.4444444444444444
 40
0.5
 40
0.5
 40
0.5
 40
0.5
 40
0.5555555555555556
 40
0.5555555555555556
 40
0.5555555555555556
 40
0.5555555555555556
 40
0.6111111111111112
 40
0.6111111111111112
 40
0.6111111111111112
 40
0.6111111111111112
 40
0.6666666666666666
 40
0.6666666666666666
 40
0.6666666666666666
 40
0.6666666666666666
 40
0.7222222222222222
 40
0.7222222222222222
 40
0.7222222222222222
 40
0.7222222222222222
 40
0.7777777777777778
 40
0.7777777777777778
 40
0.7777777777777778
 40
0.7777777777777778
 40
0.8333333333333334
 40
0.8333333333333334
 40
0.8333333333333334
 40
0.8333333333333334
 40
0.8888888888888888
 40
0.8888888888888888
 40
0.8888888888888888
 40
0.8888888888888888
 40
1.0
 40
1.0
 40
1.0
 40
1.0
 10
28.9561
 20
54.7406
 30
0.0
 10
28.9561
 20
54.7406
 30
0.0
 10
28.9561
 20
91.5988
 30
0.0
 10
28.9561
 20
91.5988
 30
0.0
 10
28.9561
 20
91.5988
 30
0.0
 10
30.3382
 20
91.4626
 30
0.0
 10
31.6566
 20
90.9498
 30
0.0
 10
32.7718
 20
90.1562
 30
0.0
 10
32.7718
 20
90.1562
 30
0.0
 10
34.0797
 20
89.2257
 30
0.0
 10
35.1039
 20
87.9184
 30
0.0
 10
35.6198
 20
86.3895
 30
0.0
 10
35.6198
 20
86.3895
 30
0.0
 10
35.6198
 20
86.3895
 30
0.0
 10
36.2753
 20
84.4473
 30
0.0
 10
36.2753
 20
84.4473
 30
0.0
 10
36.2753
 20
84.4473
 30
0.0
 10
36.2753
 20
84.4473
 30
0.0
 10
38.2587
 20
84.9421
 30
0.0
 10
38.2587
 20
84.9421
 30
0.0
 10
38.2587
 20
84.9421
 30
0.0
 10
40.1245
 20
85.4077
 30
0.0
 10
41.8619
 20
85.1903
 30
0.0
 10
43.3285
 20
84.5106
 30
0.0
 10
43.3285
 20
84.5106
 30
0.0
 10
44.4121
 20
84.0084
 30
0.0
 10
45.3564
 20
83.2543
 30
0.0
 10
46.1034
 20
82.3366
 30
0.0
 10
46.1034
 20
82.3366
 30
0.0
 10
46.5253
 20
81.8182
 30
0.0
 10
46.8841
 20
81.2471
 30
0.0
 10
47.1693
 20
80.6385
 30
0.0
 10
47.1693
 20
80.6385
 30
0.0
 10
44.2741
 20
79.1804
 30
0.0
 10
42.3499
 20
76.6384
 30
0.0
 10
42.3499
 20
73.757
 30
0.0
 10
42.3499
 20
73.757
 30
0.0
 10
42.3499
 20
70.7492
 30
0.0
 10
44.4469
 20
68.1117
 30
0.0
 10
47.5562
 20
66.6905
 30
0.0
 10
47.5562
 20
66.6905
 30
0.0
 10
47.2434
 20
65.7093
 30
0.0
 10
46.7468
 20
64.7954
 30
0.0
 10
46.1034
 20
64.0049
 30
0.0
 10
46.1034
 20
64.0049
 30
0.0
 10
45.3564
 20
63.0873
 30
0.0
 10
44.4121
 20
62.3332
 30
0.0
 10
43.3285
 20
61.831
 30
0.0
 10
43.3285
 20
61.831
 30
0.0
 10
41.8619
 20
61.1513
 30
0.0
 10
40.1245
 20
60.9339
 30
0.0
 10
38.2587
 20
61.3993
 30
0.0
 10
38.2587
 20
61.3993
 30
0.0
 10
38.2587
 20
61.3993
 30
0.0
 10
36.2745
 20
61.8945
 30
0.0
 10
36.2745
 20
61.8945
 30
0.0
 10
36.2745
 20
61.8945
 30
0.0
 10
36.2745
 20
61.8945
 30
0.0
 10
35.6198
 20
59.9519
 30
0.0
 10
35.6198
 20
59.9519
 30
0.0
 10
35.6198
 20
59.9519
 30
0.0
 10
35.1051
 20
58.4247
 30
0.0
 10
34.0783
 20
57.1133
 30
0.0
 10
32.7673
 20
56.1797
 30
0.0
 10
32.7673
 20
56.1797
 30
0.0
 10
31.6527
 20
55.3861
 30
0.0
 10
30.3355
 20
54.8732
 30
0.0
 10
28.9561
 20
54.7406
 30
0.0
  0
SPLINE
  5
58
330
1F
100
AcDbEntity
  8
layer 1
 62
     7
370
     9
100
AcDbSpline
210
0.0
220
0.0
230
1.0
 70
    11
 71
     3
 72
   108
 73
   104
 74
     0
 42
0.0000000001
 43
0.0000000001
 12
1.0
 22
0.0
 32
0.0
 13
1.0
 23
0.0
 33
0.0
 40
0.0
 40
0.0
 40
0.0
 40
0.0
 40
0.037037037037037
 40
0.037037037037037
 40
0.037037037037037
 40
0.037037037037037
 40
0.0740740740740741
 40
0.0740740740740741
 40
0.0740740740740741
 40
0.0740740740740741
 40
0.1111111111111111
 40
0.1111111111111111
 40
0.1111111111111111
 40
0.1111111111111111
 40
0.1481481481481481
 40
0.1481481481481481
 40
0.1481481481481481
 40
0.1481481481481481
 40
0.1851851851851852
 40
0.1851851851851852
 40
0.1851851851851852
 40
0.1851851851851852
 40
0.2222222222222222
 40
0.2222222222222222
 40
0.2222222222222222
 40
0.2222222222222222
 40
0.2592592592592592
 40
0.2592592592592592
 40
0.2592592592592592
 40
0.2592592592592592
 40
0.2962962962962963
 40
0.2962962962962963
 40
0.2962962962962963
 40
0.2962962962962963
 40
0.3333333333333333
 40
0.3333333333333333
 40
0.3333333333333333
 40
0.3333333333333333
 40
0.3703703703703703
 40
0.3703703703703703
 40
0.3703703703703703
 40
0.3703703703703703
 40
0.4074074074074074
 40
0.4074074074074074
 40
0.4074074074074074
 40
0.4074074074074074
 40
0.4444444444444444
 40
0.4444444444444444
 40
0.4444444444444444
 40
0.4444444444444444
 40
0.4814814814814815
 40
0.4814814814814815
 40
0.4814814814814815
 40
0.4814814814814815
 40
0.5185185185185185
 40
0.5185185185185185
 40
0.5185185185185185
 40
0.5185185185185185
 40
0.5555555555555556
 40
0.5555555555555556
 40
0.5555555555555556
 40
0.5555555555555556
 40
0.5925925925925926
 40
0.5925925925925926
 40
0.5925925925925926
 40
0.5925925925925926
 40
0.6296296296296297
 40
0.6296296296296297
 40
0.6296296296296297
 40
0.6296296296296297
 40
0.6666666666666666
 40
0.6666666666666666
 40
0.6666666666666666
 40
0.6666666666666666
 40
0.7037037037037037
 40
0.7037037037037037
 40
0.7037037037037037
 40
0.7037037037037037
 40
0.7407407407407407
 40
0.7407407407407407
 40
0.7407407407407407
 40
0.7407407407407407
 40
0.7777777777777778
 40
0.7777777777777778
 40
0.7777777777777778
 40
0.7777777777777778
 40
0.8148148148148148
 40
0.8148148148148148
 40
0.8148148148148148
 40
0.8148148148148148
 40
0.8518518518518519
 40
0.8518518518518519
 40
0.8518518518518519
 40
0.8518518518518519
 40
0.8888888888888888
 40
0.8888888888888888
 40
0.8888888888888888
 40
0.8888888888888888
 40
0.9259259259259259
 40
0.9259259259259259
 40
0.9259259259259259
 40
0.9259259259259259
 40
1.0
 40
1.0
 40
1.0
 40
1.0
 10
28.9561
 20
96.0495
 30
0.0
 10
28.9561
 20
96.0495
 30
0.0
 10
28.9561
 20
101.983
 30
0.0
 10
28.9561
 20
101.983
 30
0.0
 10
28.9561
 20
101.983
 30
0.0
 10
31.2665
 20
102.1224
 30
0.0
 10
33.4814
 20
102.9462
 30
0.0
 10
35.3365
 20
104.2672
 30
0.0
 10
35.3365
 20
104.2672
 30
0.0
 10
36.8685
 20
105.3582
 30
0.0
 10
38.1573
 20
106.794
 30
0.0
 10
39.0536
 20
108.4688
 30
0.0
 10
39.0536
 20
108.4688
 30
0.0
 10
41.2724
 20
108.2528
 30
0.0
 10
43.354
 20
108.6535
 30
0.0
 10
45.1861
 20
109.5026
 30
0.0
 10
45.1861
 20
109.5026
 30
0.0
 10
46.8926
 20
110.2934
 30
0.0
 10
48.3744
 20
111.4742
 30
0.0
 10
49.5408
 20
112.9072
 30
0.0
 10
49.5408
 20
112.9072
 30
0.0
 10
50.5949
 20
114.2022
 30
0.0
 10
51.3922
 20
115.702
 30
0.0
 10
51.8657
 20
117.304
 30
0.0
 10
51.8657
 20
117.304
 30
0.0
 10
52.1798
 20
117.2817
 30
0.0
 10
52.4975
 20
117.2696
 30
0.0
 10
52.8187
 20
117.2696
 30
0.0
 10
52.8187
 20
117.2696
 30
0.0
 10
53.1398
 20
117.2696
 30
0.0
 10
53.4573
 20
117.2817
 30
0.0
 10
53.7713
 20
117.304
 30
0.0
 10
53.7713
 20
117.304
 30
0.0
 10
54.2448
 20
115.7019
 30
0.0
 10
55.0422
 20
114.2022
 30
0.0
 10
56.0963
 20
112.9072
 30
0.0
 10
56.0963
 20
112.9072
 30
0.0
 10
57.2628
 20
111.4742
 30
0.0
 10
58.7445
 20
110.2934
 30
0.0
 10
60.4511
 20
109.5026
 30
0.0
 10
60.4511
 20
109.5026
 30
0.0
 10
62.283
 20
108.6535
 30
0.0
 10
64.3647
 20
108.2528
 30
0.0
 10
66.5835
 20
108.4688
 30
0.0
 10
66.5835
 20
108.4688
 30
0.0
 10
67.4799
 20
106.794
 30
0.0
 10
68.7685
 20
105.3582
 30
0.0
 10
70.3006
 20
104.2672
 30
0.0
 10
70.3006
 20
104.2672
 30
0.0
 10
71.7407
 20
103.2418
 30
0.0
 10
73.3979
 20
102.5157
 30
0.0
 10
75.1481
 20
102.177
 30
0.0
 10
75.1481
 20
102.177
 30
0.0
 10
75.1481
 20
102.177
 30
0.0
 10
75.1481
 20
95.857
 30
0.0
 10
75.1481
 20
95.857
 30
0.0
 10
75.1481
 20
95.857
 30
0.0
 10
73.3999
 20
95.5183
 30
0.0
 10
71.7442
 20
94.7929
 30
0.0
 10
70.3045
 20
93.7684
 30
0.0
 10
70.3045
 20
93.7684
 30
0.0
 10
68.7716
 20
92.6775
 30
0.0
 10
67.4818
 20
91.2412
 30
0.0
 10
66.5842
 20
89.5655
 30
0.0
 10
66.5842
 20
89.5655
 30
0.0
 10
64.3651
 20
89.7818
 30
0.0
 10
62.2832
 20
89.3812
 30
0.0
 10
60.4511
 20
88.5321
 30
0.0
 10
60.4511
 20
88.5321
 30
0.0
 10
58.7445
 20
87.741
 30
0.0
 10
57.2628
 20
86.5604
 30
0.0
 10
56.0963
 20
85.1274
 30
0.0
 10
56.0963
 20
85.1274
 30
0.0
 10
55.2962
 20
84.1444
 30
0.0
 10
54.644
 20
83.0435
 30
0.0
 10
54.1689
 20
81.8695
 30
0.0
 10
54.1689
 20
81.8695
 30
0.0
 10
53.7267
 20
81.9145
 30
0.0
 10
53.2761
 20
81.9376
 30
0.0
 10
52.8187
 20
81.9376
 30
0.0
 10
52.8187
 20
81.9376
 30
0.0
 10
52.361
 20
81.9376
 30
0.0
 10
51.9103
 20
81.9144
 30
0.0
 10
51.4679
 20
81.8695
 30
0.0
 10
51.4679
 20
81.8695
 30
0.0
 10
50.993
 20
83.0435
 30
0.0
 10
50.3409
 20
84.1444
 30
0.0
 10
49.5408
 20
85.1274
 30
0.0
 10
49.5408
 20
85.1274
 30
0.0
 10
48.3743
 20
86.5604
 30
0.0
 10
46.8926
 20
87.741
 30
0.0
 10
45.1861
 20
88.5321
 30
0.0
 10
45.1861
 20
88.5321
 30
0.0
 10
43.354
 20
89.3812
 30
0.0
 10
41.2723
 20
89.7817
 30
0.0
 10
39.0535
 20
89.5656
 30
0.0
 10
39.0535
 20
89.5656
 30
0.0
 10
38.1571
 20
91.2407
 30
0.0
 10
36.8707
 20
92.6734
 30
0.0
 10
35.341
 20
93.7619
 30
0.0
 10
35.341
 20
93.7619
 30
0.0
 10
33.4865
 20
95.0814
 30
0.0
 10
31.2709
 20
95.904
 30
0.0
 10
28.9561
 20
96.0495
 30
0.0
  0
SPLINE
  5
59
330
1F
100
AcDbEntity
  8
layer 1
 62
     7
370
     9
100
AcDbSpline
210
0.0
220
0.0
230
1.0
 70
    11
 71
     3
 72
   136
 73
   132
 74
     0
 42
0.0000000001
 43
0.0000000001
 12
1.0
 22
0.0
 32
0.0
 13
1.0
 23
0.0
 33
0.0
 40
0.0
 40
0.0
 40
0.0
 40
0.0
 40
0.0294117647058824
 40
0.0294117647058824
 40
0.0294117647058824
 40
0.0294117647058824
 40
0.0588235294117647
 40
0.0588235294117647
 40
0.0588235294117647
 40
0.0588235294117647
 40
0.0882352941176471
 40
0.0882352941176471
 40
0.0882352941176471
 40
0.0882352941176471
 40
0.1176470588235294
 40
0.1176470588235294
 40
0.1176470588235294
 40
0.1176470588235294
 40
0.1470588235294118
 40
0.1470588235294118
 40
0.1470588235294118
 40
0.1470588235294118
 40
0.1764705882352941
 40
0.1764705882352941
 40
0.1764705882352941
 40
0.1764705882352941
 40
0.2058823529411765
 40
0.2058823529411765
 40
0.2058823529411765
 40
0.2058823529411765
 40
0.2352941176470588
 40
0.2352941176470588
 40
0.2352941176470588
 40
0.2352941176470588
 40
0.2647058823529412
 40
0.2647058823529412
 40
0.2647058823529412
 40
0.2647058823529412
 40
0.2941176470588235
 40
0.2941176470588235
 40
0.2941176470588235
 40
0.2941176470588235
 40
0.3235294117647059
 40
0.3235294117647059
 40
0.3235294117647059
 40
0.3235294117647059
 40
0.3529411764705883
 40
0.3529411764705883
 40
0.3529411764705883
 40
0.3529411764705883
 40
0.3823529411764706
 40
0.3823529411764706
 40
0.3823529411764706
 40
0.3823529411764706
 40
0.4117647058823529
 40
0.4117647058823529
 40
0.4117647058823529
 40
0.4117647058823529
 40
0.4411764705882353
 40
0.4411764705882353
 40
0.4411764705882353
 40
0.4411764705882353
 40
0.4705882352941176
 40
0.4705882352941176
 40
0.4705882352941176
 40
0.4705882352941176
 40
0.5
 40
0.5
 40
0.5
 40
0.5
 40
0.5294117647058824
 40
0.5294117647058824
 40
0.5294117647058824
 40
0.5294117647058824
 40
0.5588235294117647
 40
0.5588235294117647
 40
0.5588235294117647
 40
0.5588235294117647
 40
0.5882352941176471
 40
0.5882352941176471
 40
0.5882352941176471
 40
0.5882352941176471
 40
0.6176470588235294
 40
0.6176470588235294
 40
0.6176470588235294
 40
0.6176470588235294
 40
0.6470588235294118
 40
0.6470588235294118
 40
0.6470588235294118
 40
0.6470588235294118
 40
0.6764705882352942
 40
0.6764705882352942
 40
0.6764705882352942
 40
0.6764705882352942
 40
0.7058823529411765
 40
0.7058823529411765
 40
0.7058823529411765
 40
0.7058823529411765
 40
0.7352941176470589
 40
0.7352941176470589
 40
0.7352941176470589
 40
0.7352941176470589
 40
0.7647058823529411
 40
0.7647058823529411
 40
0.7647058823529411
 40
0.7647058823529411
 40
0.7941176470588235
 40
0.7941176470588235
 40
0.7941176470588235
 40
0.7941176470588235
 40
0.8235294117647058
 40
0.8235294117647058
 40
0.8235294117647058
 40
0.8235294117647058
 40
0.8529411764705882
 40
0.8529411764705882
 40
0.8529411764705882
 40
0.8529411764705882
 40
0.8823529411764706
 40
0.8823529411764706
 40
0.8823529411764706
 40
0.8823529411764706
 40
0.9117647058823529
 40
0.9117647058823529
 40
0.9117647058823529
 40
0.9117647058823529
 40
0.9411764705882353
 40
0.9411764705882353
 40
0.9411764705882353
 40
0.9411764705882353
 40
1.0
 40
1.0
 40
1.0
 40
1.0
 10
96.7587
 20
66.6905
 30
0.0
 10
93.6493
 20
68.1117
 30
0.0
 10
91.5524
 20
70.7492
 30
0.0
 10
91.5524
 20
73.757
 30
0.0
 10
91.5524
 20
73.757
 30
0.0
 10
91.5524
 20
76.6384
 30
0.0
 10
93.4765
 20
79.1804
 30
0.0
 10
96.3717
 20
80.6385
 30
0.0
 10
96.3717
 20
80.6385
 30
0.0
 10
96.0865
 20
81.2471
 30
0.0
 10
95.7278
 20
81.8184
 30
0.0
 10
95.3059
 20
82.3366
 30
0.0
 10
95.3059
 20
82.3366
 30
0.0
 10
94.5589
 20
83.2543
 30
0.0
 10
93.6146
 20
84.0084
 30
0.0
 10
92.531
 20
84.5106
 30
0.0
 10
92.531
 20
84.5106
 30
0.0
 10
91.0645
 20
85.1903
 30
0.0
 10
89.3269
 20
85.4077
 30
0.0
 10
87.461
 20
84.9421
 30
0.0
 10
87.461
 20
84.9421
 30
0.0
 10
87.461
 20
84.9421
 30
0.0
 10
85.4778
 20
84.4473
 30
0.0
 10
85.4778
 20
84.4473
 30
0.0
 10
85.4778
 20
84.4473
 30
0.0
 10
85.4778
 20
84.4473
 30
0.0
 10
84.8224
 20
86.3895
 30
0.0
 10
84.8224
 20
86.3895
 30
0.0
 10
84.8224
 20
86.3895
 30
0.0
 10
84.3065
 20
87.9184
 30
0.0
 10
83.2821
 20
89.2257
 30
0.0
 10
81.9742
 20
90.1562
 30
0.0
 10
81.9742
 20
90.1562
 30
0.0
 10
80.6619
 20
91.0903
 30
0.0
 10
79.068
 20
91.6352
 30
0.0
 10
77.4198
 20
91.6352
 30
0.0
 10
77.4198
 20
91.6352
 30
0.0
 10
75.7765
 20
91.6407
 30
0.0
 10
74.185
 20
91.0958
 30
0.0
 10
72.8739
 20
90.163
 30
0.0
 10
72.8739
 20
90.163
 30
0.0
 10
71.5612
 20
89.2287
 30
0.0
 10
70.5327
 20
87.9169
 30
0.0
 10
70.0173
 20
86.3895
 30
0.0
 10
70.0173
 20
86.3895
 30
0.0
 10
70.0173
 20
86.3895
 30
0.0
 10
69.3619
 20
84.4473
 30
0.0
 10
69.3619
 20
84.4473
 30
0.0
 10
69.3619
 20
84.4473
 30
0.0
 10
69.3619
 20
84.4473
 30
0.0
 10
67.3785
 20
84.9421
 30
0.0
 10
67.3785
 20
84.9421
 30
0.0
 10
67.3785
 20
84.9421
 30
0.0
 10
65.5127
 20
85.4077
 30
0.0
 10
63.7751
 20
85.1903
 30
0.0
 10
62.3086
 20
84.5106
 30
0.0
 10
62.3086
 20
84.5106
 30
0.0
 10
61.225
 20
84.0084
 30
0.0
 10
60.2807
 20
83.2543
 30
0.0
 10
59.5336
 20
82.3366
 30
0.0
 10
59.5336
 20
82.3366
 30
0.0
 10
59.1118
 20
81.8184
 30
0.0
 10
58.7529
 20
81.2472
 30
0.0
 10
58.4678
 20
80.6385
 30
0.0
 10
58.4678
 20
80.6385
 30
0.0
 10
61.363
 20
79.1805
 30
0.0
 10
63.2873
 20
76.6386
 30
0.0
 10
63.2873
 20
73.757
 30
0.0
 10
63.2873
 20
73.757
 30
0.0
 10
63.2873
 20
70.7492
 30
0.0
 10
61.1903
 20
68.1114
 30
0.0
 10
58.0809
 20
66.6905
 30
0.0
 10
58.0809
 20
66.6905
 30
0.0
 10
58.3937
 20
65.7093
 30
0.0
 10
58.8903
 20
64.7954
 30
0.0
 10
59.5336
 20
64.0049
 30
0.0
 10
59.5336
 20
64.0049
 30
0.0
 10
60.2807
 20
63.0873
 30
0.0
 10
61.225
 20
62.3332
 30
0.0
 10
62.3086
 20
61.831
 30
0.0
 10
62.3086
 20
61.831
 30
0.0
 10
63.7751
 20
61.1513
 30
0.0
 10
65.5127
 20
60.9339
 30
0.0
 10
67.3785
 20
61.3993
 30
0.0
 10
67.3785
 20
61.3993
 30
0.0
 10
67.3785
 20
61.3993
 30
0.0
 10
69.3626
 20
61.8945
 30
0.0
 10
69.3626
 20
61.8945
 30
0.0
 10
69.3626
 20
61.8945
 30
0.0
 10
69.3626
 20
61.8945
 30
0.0
 10
70.0173
 20
59.9519
 30
0.0
 10
70.0173
 20
59.9519
 30
0.0
 10
70.0173
 20
59.9519
 30
0.0
 10
70.532
 20
58.4247
 30
0.0
 10
71.5589
 20
57.1133
 30
0.0
 10
72.8698
 20
56.1797
 30
0.0
 10
72.8698
 20
56.1797
 30
0.0
 10
74.1801
 20
55.2466
 30
0.0
 10
75.7708
 20
54.7015
 30
0.0
 10
77.413
 20
54.7063
 30
0.0
 10
77.413
 20
54.7063
 30
0.0
 10
77.413
 20
54.7063
 30
0.0
 10
77.4267
 20
54.7063
 30
0.0
 10
77.4267
 20
54.7063
 30
0.0
 10
77.4267
 20
54.7063
 30
0.0
 10
79.0689
 20
54.7015
 30
0.0
 10
80.6596
 20
55.2466
 30
0.0
 10
81.9699
 20
56.1797
 30
0.0
 10
81.9699
 20
56.1797
 30
0.0
 10
83.2808
 20
57.1133
 30
0.0
 10
84.3077
 20
58.4247
 30
0.0
 10
84.8224
 20
59.9519
 30
0.0
 10
84.8224
 20
59.9519
 30
0.0
 10
84.8224
 20
59.9519
 30
0.0
 10
85.4771
 20
61.8945
 30
0.0
 10
85.4771
 20
61.8945
 30
0.0
 10
85.4771
 20
61.8945
 30
0.0
 10
85.4771
 20
61.8945
 30
0.0
 10
87.461
 20
61.3993
 30
0.0
 10
87.461
 20
61.3993
 30
0.0
 10
87.461
 20
61.3993
 30
0.0
 10
89.3269
 20
60.9339
 30
0.0
 10
91.0645
 20
61.1513
 30
0.0
 10
92.531
 20
61.831
 30
0.0
 10
92.531
 20
61.831
 30
0.0
 10
93.6146
 20
62.3332
 30
0.0
 10
94.5589
 20
63.0873
 30
0.0
 10
95.3059
 20
64.0049
 30
0.0
 10
95.3059
 20
64.0049
 30
0.0
 10
95.9493
 20
64.7954
 30
0.0
 10
96.4459
 20
65.7093
 30
0.0
 10
96.7587
 20
66.6905
 30
0.0
  0
SPLINE
  5
5A
330
1F
100
AcDbEntity
  8
layer 1
 62
     7
370
     9
100
AcDbSpline
210
0.0
220
0.0
230
1.0
 70
    11
 71
     3
 72
    20
 73
    16
 74
     0
 42
0.0000000001
 43
0.0000000001
 12
1.0
 22
0.0
 32
0.0
 13
1.0
 23
0.0
 33
0.0
 40
0.0
 40
0.0
 40
0.0
 40
0.0
 40
0.2
 40
0.2
 40
0.2
 40
0.2
 40
0.4
 40
0.4
 40
0.4
 40
0.4
 40
0.6
 40
0.6
 40
0.6
 40
0.6
 40
1.0
 40
1.0
 40
1.0
 40
1.0
 10
52.8187
 20
78.6315
 30
0.0
 10
55.507
 20
78.6315
 30
0.0
 10
57.7006
 20
76.4415
 30
0.0
 10
57.7006
 20
73.757
 30
0.0
 10
57.7006
 20
73.757
 30
0.0
 10
57.7006
 20
71.0726
 30
0.0
 10
55.507
 20
68.8824
 30
0.0
 10
52.8187
 20
68.8824
 30
0.0
 10
52.8187
 20
68.8824
 30
0.0
 10
50.1301
 20
68.8824
 30
0.0
 10
47.9366
 20
71.0726
 30
0.0
 10
47.9366
 20
73.757
 30
0.0
 10
47.9366
 20
73.757
 30
0.0
 10
47.9366
 20
76.4415
 30
0.0
 10
50.1301
 20
78.6315
 30
0.0
 10
52.8187
 20
78.6315
 30
0.0
  0
SPLINE
  5
5B
330
1F
100
AcDbEntity
  8
layer 1
 62
     7
370
     9
100
AcDbSpline
210
0.0
220
0.0
230
1.0
 70
    11
 71
     3
 72
    20
 73
    16
 74
     0
 42
0.0000000001
 43
0.0000000001
 12
1.0
 22
0.0
 32
0.0
 13
1.0
 23
0.0
 33
0.0
 40
0.0
 40
0.0
 40
0.0
 40
0.0
 40
0.2
 40
0.2
 40
0.2
 40
0.2
 40
0.4
 40
0.4
 40
0.4
 40
0.4
 40
0.6
 40
0.6
 40
0.6
 40
0.6
 40
1.0
 40
1.0
 40
1.0
 40
1.0
 10
102.021
 20
78.6315
 30
0.0
 10
104.7096
 20
78.6315
 30
0.0
 10
106.9031
 20
76.4415
 30
0.0
 10
106.9031
 20
73.757
 30
0.0
 10
106.9031
 20
73.757
 30
0.0
 10
106.9031
 20
71.0726
 30
0.0
 10
104.7096
 20
68.8824
 30
0.0
 10
102.021
 20
68.8824
 30
0.0
 10
102.021
 20
68.8824
 30
0.0
 10
99.3324
 20
68.8824
 30
0.0
 10
97.139
 20
71.0726
 30
0.0
 10
97.139
 20
73.757
 30
0.0
 10
97.139
 20
73.757
 30
0.0
 10
97.139
 20
76.4415
 30
0.0
 10
99.3324
 20
78.6315
 30
0.0
 10
102.021
 20
78.6315
 30
0.0
  0
SPLINE
  5
5C
330
1F
100
AcDbEntity
  8
layer 1
 62
     7
370
     9
100
AcDbSpline
210
0.0
220
0.0
230
1.0
 70
    11
 71
     3
 72
   136
 73
   132
 74
     0
 42
0.0000000001
 43
0.0000000001
 12
1.0
 22
0.0
 32
0.0
 13
1.0
 23
0.0
 33
0.0
 40
0.0
 40
0.0
 40
0.0
 40
0.0
 40
0.0294117647058824
 40
0.0294117647058824
 40
0.0294117647058824
 40
0.0294117647058824
 40
0.0588235294117647
 40
0.0588235294117647
 40
0.0588235294117647
 40
0.0588235294117647
 40
0.0882352941176471
 40
0.0882352941176471
 40
0.0882352941176471
 40
0.0882352941176471
 40
0.1176470588235294
 40
0.1176470588235294
 40
0.1176470588235294
 40
0.1176470588235294
 40
0.1470588235294118
 40
0.1470588235294118
 40
0.1470588235294118
 40
0.1470588235294118
 40
0.1764705882352941
 40
0.1764705882352941
 40
0.1764705882352941
 40
0.1764705882352941
 40
0.2058823529411765
 40
0.2058823529411765
 40
0.2058823529411765
 40
0.2058823529411765
 40
0.2352941176470588
 40
0.2352941176470588
 40
0.2352941176470588
 40
0.2352941176470588
 40
0.2647058823529412
 40
0.2647058823529412
 40
0.2647058823529412
 40
0.2647058823529412
 40
0.2941176470588235
 40
0.2941176470588235
 40
0.2941176470588235
 40
0.2941176470588235
 40
0.3235294117647059
 40
0.3235294117647059
 40
0.3235294117647059
 40
0.3235294117647059
 40
0.3529411764705883
 40
0.3529411764705883
 40
0.3529411764705883
 40
0.3529411764705883
 40
0.3823529411764706
 40
0.3823529411764706
 40
0.3823529411764706
 40
0.3823529411764706
 40
0.4117647058823529
 40
0.4117647058823529
 40
0.4117647058823529
 40
0.4117647058823529
 40
0.4411764705882353
 40
0.4411764705882353
 40
0.4411764705882353
 40
0.4411764705882353
 40
0.4705882352941176
 40
0.4705882352941176
 40
0.4705882352941176
 40
0.4705882352941176
 40
0.5
 40
0.5
 40
0.5
 40
0.5
 40
0.5294117647058824
 40
0.5294117647058824
 40
0.5294117647058824
 40
0.5294117647058824
 40
0.5588235294117647
 40
0.5588235294117647
 40
0.5588235294117647
 40
0.5588235294117647
 40
0.5882352941176471
 40
0.5882352941176471
 40
0.5882352941176471
 40
0.5882352941176471
 40
0.6176470588235294
 40
0.6176470588235294
 40
0.6176470588235294
 40
0.6176470588235294
 40
0.6470588235294118
 40
0.6470588235294118
 40
0.6470588235294118
 40
0.6470588235294118
 40
0.6764705882352942
 40
0.6764705882352942
 40
0.6764705882352942
 40
0.6764705882352942
 40
0.7058823529411765
 40
0.7058823529411765
 40
0.7058823529411765
 40
0.7058823529411765
 40
0.7352941176470589
 40
0.7352941176470589
 40
0.7352941176470589
 40
0.7352941176470589
 40
0.7647058823529411
 40
0.7647058823529411
 40
0.7647058823529411
 40
0.7647058823529411
 40
0.7941176470588235
 40
0.7941176470588235
 40
0.7941176470588235
 40
0.7941176470588235
 40
0.8235294117647058
 40
0.8235294117647058
 40
0.8235294117647058
 40
0.8235294117647058
 40
0.8529411764705882
 40
0.8529411764705882
 40
0.8529411764705882
 40
0.8529411764705882
 40
0.8823529411764706
 40
0.8823529411764706
 40
0.8823529411764706
 40
0.8823529411764706
 40
0.9117647058823529
 40
0.9117647058823529
 40
0.9117647058823529
 40
0.9117647058823529
 40
0.9411764705882353
 40
0.9411764705882353
 40
0.9411764705882353
 40
0.9411764705882353
 40
1.0
 40
1.0
 40
1.0
 40
1.0
 10
96.7587
 20
14.9975
 30
0.0
 10
93.6493
 20
16.4186
 30
0.0
 10
91.5524
 20
19.0561
 30
0.0
 10
91.5524
 20
22.0639
 30
0.0
 10
91.5524
 20
22.0639
 30
0.0
 10
91.5524
 20
24.9453
 30
0.0
 10
93.4765
 20
27.4874
 30
0.0
 10
96.3717
 20
28.9454
 30
0.0
 10
96.3717
 20
28.9454
 30
0.0
 10
96.0865
 20
29.5539
 30
0.0
 10
95.7278
 20
30.1252
 30
0.0
 10
95.3059
 20
30.6435
 30
0.0
 10
95.3059
 20
30.6435
 30
0.0
 10
94.5589
 20
31.5612
 30
0.0
 10
93.6146
 20
32.3152
 30
0.0
 10
92.531
 20
32.8174
 30
0.0
 10
92.531
 20
32.8174
 30
0.0
 10
91.0645
 20
33.4971
 30
0.0
 10
89.3269
 20
33.7147
 30
0.0
 10
87.461
 20
33.2491
 30
0.0
 10
87.461
 20
33.2491
 30
0.0
 10
87.461
 20
33.2491
 30
0.0
 10
85.4778
 20
32.7542
 30
0.0
 10
85.4778
 20
32.7542
 30
0.0
 10
85.4778
 20
32.7542
 30
0.0
 10
85.4778
 20
32.7542
 30
0.0
 10
84.8224
 20
34.6965
 30
0.0
 10
84.8224
 20
34.6965
 30
0.0
 10
84.8224
 20
34.6965
 30
0.0
 10
84.3065
 20
36.2254
 30
0.0
 10
83.2821
 20
37.5325
 30
0.0
 10
81.9742
 20
38.4632
 30
0.0
 10
81.9742
 20
38.4632
 30
0.0
 10
80.6619
 20
39.3972
 30
0.0
 10
79.068
 20
39.9421
 30
0.0
 10
77.4198
 20
39.9421
 30
0.0
 10
77.4198
 20
39.9421
 30
0.0
 10
75.7765
 20
39.9477
 30
0.0
 10
74.185
 20
39.4028
 30
0.0
 10
72.8739
 20
38.4698
 30
0.0
 10
72.8739
 20
38.4698
 30
0.0
 10
71.5612
 20
37.5357
 30
0.0
 10
70.5327
 20
36.2237
 30
0.0
 10
70.0173
 20
34.6965
 30
0.0
 10
70.0173
 20
34.6965
 30
0.0
 10
70.0173
 20
34.6965
 30
0.0
 10
69.3619
 20
32.7542
 30
0.0
 10
69.3619
 20
32.7542
 30
0.0
 10
69.3619
 20
32.7542
 30
0.0
 10
69.3619
 20
32.7542
 30
0.0
 10
67.3785
 20
33.2491
 30
0.0
 10
67.3785
 20
33.2491
 30
0.0
 10
67.3785
 20
33.2491
 30
0.0
 10
65.5127
 20
33.7147
 30
0.0
 10
63.7751
 20
33.4971
 30
0.0
 10
62.3086
 20
32.8174
 30
0.0
 10
62.3086
 20
32.8174
 30
0.0
 10
61.225
 20
32.3152
 30
0.0
 10
60.2807
 20
31.5612
 30
0.0
 10
59.5336
 20
30.6435
 30
0.0
 10
59.5336
 20
30.6435
 30
0.0
 10
59.1118
 20
30.1252
 30
0.0
 10
58.7529
 20
29.554
 30
0.0
 10
58.4678
 20
28.9455
 30
0.0
 10
58.4678
 20
28.9455
 30
0.0
 10
61.363
 20
27.4874
 30
0.0
 10
63.2873
 20
24.9454
 30
0.0
 10
63.2873
 20
22.0639
 30
0.0
 10
63.2873
 20
22.0639
 30
0.0
 10
63.2873
 20
19.0561
 30
0.0
 10
61.1903
 20
16.4185
 30
0.0
 10
58.0809
 20
14.9973
 30
0.0
 10
58.0809
 20
14.9973
 30
0.0
 10
58.3937
 20
14.0161
 30
0.0
 10
58.8903
 20
13.1024
 30
0.0
 10
59.5336
 20
12.3118
 30
0.0
 10
59.5336
 20
12.3118
 30
0.0
 10
60.2807
 20
11.3941
 30
0.0
 10
61.225
 20
10.6401
 30
0.0
 10
62.3086
 20
10.138
 30
0.0
 10
62.3086
 20
10.138
 30
0.0
 10
63.7751
 20
9.4581
 30
0.0
 10
65.5127
 20
9.2407
 30
0.0
 10
67.3785
 20
9.7062
 30
0.0
 10
67.3785
 20
9.7062
 30
0.0
 10
67.3785
 20
9.7062
 30
0.0
 10
69.3626
 20
10.2012
 30
0.0
 10
69.3626
 20
10.2012
 30
0.0
 10
69.3626
 20
10.2012
 30
0.0
 10
69.3626
 20
10.2012
 30
0.0
 10
70.0173
 20
8.2588
 30
0.0
 10
70.0173
 20
8.2588
 30
0.0
 10
70.0173
 20
8.2588
 30
0.0
 10
70.532
 20
6.7315
 30
0.0
 10
71.5589
 20
5.4202
 30
0.0
 10
72.8698
 20
4.4867
 30
0.0
 10
72.8698
 20
4.4867
 30
0.0
 10
74.1801
 20
3.5535
 30
0.0
 10
75.7708
 20
3.0084
 30
0.0
 10
77.413
 20
3.0132
 30
0.0
 10
77.413
 20
3.0132
 30
0.0
 10
77.413
 20
3.0132
 30
0.0
 10
77.4267
 20
3.0132
 30
0.0
 10
77.4267
 20
3.0132
 30
0.0
 10
77.4267
 20
3.0132
 30
0.0
 10
79.0689
 20
3.0084
 30
0.0
 10
80.6596
 20
3.5535
 30
0.0
 10
81.9699
 20
4.4867
 30
0.0
 10
81.9699
 20
4.4867
 30
0.0
 10
83.2808
 20
5.4202
 30
0.0
 10
84.3077
 20
6.7315
 30
0.0
 10
84.8224
 20
8.2588
 30
0.0
 10
84.8224
 20
8.2588
 30
0.0
 10
84.8224
 20
8.2588
 30
0.0
 10
85.4771
 20
10.2012
 30
0.0
 10
85.4771
 20
10.2012
 30
0.0
 10
85.4771
 20
10.2012
 30
0.0
 10
85.4771
 20
10.2012
 30
0.0
 10
87.461
 20
9.7062
 30
0.0
 10
87.461
 20
9.7062
 30
0.0
 10
87.461
 20
9.7062
 30
0.0
 10
89.3269
 20
9.2407
 30
0.0
 10
91.0645
 20
9.4581
 30
0.0
 10
92.531
 20
10.138
 30
0.0
 10
92.531
 20
10.138
 30
0.0
 10
93.6146
 20
10.6401
 30
0.0
 10
94.5589
 20
11.3941
 30
0.0
 10
95.3059
 20
12.3118
 30
0.0
 10
95.3059
 20
12.3118
 30
0.0
 10
95.9493
 20
13.1024
 30
0.0
 10
96.4459
 20
14.0161
 30
0.0
 10
96.7587
 20
14.9975
 30
0.0
  0
SPLINE
  5
5D
330
1F
100
AcDbEntity
  8
layer 1
 62
     7
370
     9
100
AcDbSpline
210
0.0
220
0.0
230
1.0
 70
    11
 71
     3
 72
    20
 73
    16
 74
     0
 42
0.0000000001
 43
0.0000000001
 12
1.0
 22
0.0
 32
0.0
 13
1.0
 23
0.0
 33
0.0
 40
0.0
 40
0.0
 40
0.0
 40
0.0
 40
0.2
 40
0.2
 40
0.2
 40
0.2
 40
0.4
 40
0.4
 40
0.4
 40
0.4
 40
0.6
 40
0.6
 40
0.6
 40
0.6
 40
1.0
 40
1.0
 40
1.0
 40
1.0
 10
52.8187
 20
26.9385
 30
0.0
 10
55.507
 20
26.9385
 30
0.0
 10
57.7006
 20
24.7484
 30
0.0
 10
57.7006
 20
22.0639
 30
0.0
 10
57.7006
 20
22.0639
 30
0.0
 10
57.7006
 20
19.3796
 30
0.0
 10
55.507
 20
17.1892
 30
0.0
 10
52.8187
 20
17.1892
 30
0.0
 10
52.8187
 20
17.1892
 30
0.0
 10
50.1301
 20
17.1892
 30
0.0
 10
47.9366
 20
19.3796
 30
0.0
 10
47.9366
 20
22.0639
 30
0.0
 10
47.9366
 20
22.0639
 30
0.0
 10
47.9366
 20
24.7484
 30
0.0
 10
50.1301
 20
26.9385
 30
0.0
 10
52.8187
 20
26.9385
 30
0.0
  0
SPLINE
  5
5E
330
1F
100
AcDbEntity
  8
layer 1
 62
     7
370
     9
100
AcDbSpline
210
0.0
220
0.0
230
1.0
 70
    11
 71
     3
 72
    20
 73
    16
 74
     0
 42
0.0000000001
 43
0.0000000001
 12
1.0
 22
0.0
 32
0.0
 13
1.0
 23
0.0
 33
0.0
 40
0.0
 40
0.0
 40
0.0
 40
0.0
 40
0.2
 40
0.2
 40
0.2
 40
0.2
 40
0.4
 40
0.4
 40
0.4
 40
0.4
 40
0.6
 40
0.6
 40
0.6
 40
0.6
 40
1.0
 40
1.0
 40
1.0
 40
1.0
 10
102.021
 20
26.9385
 30
0.0
 10
104.7096
 20
26.9385
 30
0.0
 10
106.9031
 20
24.7484
 30
0.0
 10
106.9031
 20
22.0639
 30
0.0
 10
106.9031
 20
22.0639
 30
0.0
 10
106.9031
 20
19.3796
 30
0.0
 10
104.7096
 20
17.1892
 30
0.0
 10
102.021
 20
17.1892
 30
0.0
 10
102.021
 20
17.1892
 30
0.0
 10
99.3324
 20
17.1892
 30
0.0
 10
97.139
 20
19.3796
 30
0.0
 10
97.139
 20
22.0639
 30
0.0
 10
97.139
 20
22.0639
 30
0.0
 10
97.139
 20
24.7484
 30
0.0
 10
99.3324
 20
26.9385
 30
0.0
 10
102.021
 20
26.9385
 30
0.0
  0
SPLINE
  5
5F
330
1F
100
AcDbEntity
  8
layer 1
 62
     7
370
     9
100
AcDbSpline
210
0.0
220
0.0
230
1.0
 70
    11
 71
     3
 72
   136
 73
   132
 74
     0
 42
0.0000000001
 43
0.0000000001
 12
1.0
 22
0.0
 32
0.0
 13
1.0
 23
0.0
 33
0.0
 40
0.0
 40
0.0
 40
0.0
 40
0.0
 40
0.0294117647058824
 40
0.0294117647058824
 40
0.0294117647058824
 40
0.0294117647058824
 40
0.0588235294117647
 40
0.0588235294117647
 40
0.0588235294117647
 40
0.0588235294117647
 40
0.0882352941176471
 40
0.0882352941176471
 40
0.0882352941176471
 40
0.0882352941176471
 40
0.1176470588235294
 40
0.1176470588235294
 40
0.1176470588235294
 40
0.1176470588235294
 40
0.1470588235294118
 40
0.1470588235294118
 40
0.1470588235294118
 40
0.1470588235294118
 40
0.1764705882352941
 40
0.1764705882352941
 40
0.1764705882352941
 40
0.1764705882352941
 40
0.2058823529411765
 40
0.2058823529411765
 40
0.2058823529411765
 40
0.2058823529411765
 40
0.2352941176470588
 40
0.2352941176470588
 40
0.2352941176470588
 40
0.2352941176470588
 40
0.2647058823529412
 40
0.2647058823529412
 40
0.2647058823529412
 40
0.2647058823529412
 40
0.2941176470588235
 40
0.2941176470588235
 40
0.2941176470588235
 40
0.2941176470588235
 40
0.3235294117647059
 40
0.3235294117647059
 40
0.3235294117647059
 40
0.3235294117647059
 40
0.3529411764705883
 40
0.3529411764705883
 40
0.3529411764705883
 40
0.3529411764705883
 40
0.3823529411764706
 40
0.3823529411764706
 40
0.3823529411764706
 40
0.3823529411764706
 40
0.4117647058823529
 40
0.4117647058823529
 40
0.4117647058823529
 40
0.4117647058823529
 40
0.4411764705882353
 40
0.4411764705882353
 40
0.4411764705882353
 40
0.4411764705882353
 40
0.4705882352941176
 40
0.4705882352941176
 40
0.4705882352941176
 40
0.4705882352941176
 40
0.5
 40
0.5
 40
0.5
 40
0.5
 40
0.5294117647058824
 40
0.5294117647058824
 40
0.5294117647058824
 40
0.5294117647058824
 40
0.5588235294117647
 40
0.5588235294117647
 40
0.5588235294117647
 40
0.5588235294117647
 40
0.5882352941176471
 40
0.5882352941176471
 40
0.5882352941176471
 40
0.5882352941176471
 40
0.6176470588235294
 40
0.6176470588235294
 40
0.6176470588235294
 40
0.6176470588235294
 40
0.6470588235294118
 40
0.6470588235294118
 40
0.6470588235294118
 40
0.6470588235294118
 40
0.6764705882352942
 40
0.6764705882352942
 40
0.6764705882352942
 40
0.6764705882352942
 40
0.7058823529411765
 40
0.7058823529411765
 40
0.7058823529411765
 40
0.7058823529411765
 40
0.7352941176470589
 40
0.7352941176470589
 40
0.7352941176470589
 40
0.7352941176470589
 40
0.7647058823529411
 40
0.7647058823529411
 40
0.7647058823529411
 40
0.7647058823529411
 40
0.7941176470588235
 40
0.7941176470588235
 40
0.7941176470588235
 40
0.7941176470588235
 40
0.8235294117647058
 40
0.8235294117647058
 40
0.8235294117647058
 40
0.8235294117647058
 40
0.8529411764705882
 40
0.8529411764705882
 40
0.8529411764705882
 40
0.8529411764705882
 40
0.8823529411764706
 40
0.8823529411764706
 40
0.8823529411764706
 40
0.8823529411764706
 40
0.9117647058823529
 40
0.9117647058823529
 40
0.9117647058823529
 40
0.9117647058823529
 40
0.9411764705882353
 40
0.9411764705882353
 40
0.9411764705882353
 40
0.9411764705882353
 40
1.0
 40
1.0
 40
1.0
 40
1.0
 10
96.7587
 20
-36.6957
 30
0.0
 10
93.6493
 20
-35.2746
 30
0.0
 10
91.5524
 20
-32.637
 30
0.0
 10
91.5524
 20
-29.6293
 30
0.0
 10
91.5524
 20
-29.6293
 30
0.0
 10
91.5524
 20
-26.7477
 30
0.0
 10
93.4765
 20
-24.2058
 30
0.0
 10
96.3717
 20
-22.7478
 30
0.0
 10
96.3717
 20
-22.7478
 30
0.0
 10
96.0865
 20
-22.1391
 30
0.0
 10
95.7278
 20
-21.5679
 30
0.0
 10
95.3059
 20
-21.0495
 30
0.0
 10
95.3059
 20
-21.0495
 30
0.0
 10
94.5589
 20
-20.1319
 30
0.0
 10
93.6146
 20
-19.3778
 30
0.0
 10
92.531
 20
-18.8757
 30
0.0
 10
92.531
 20
-18.8757
 30
0.0
 10
91.0645
 20
-18.196
 30
0.0
 10
89.3269
 20
-17.9785
 30
0.0
 10
87.461
 20
-18.4441
 30
0.0
 10
87.461
 20
-18.4441
 30
0.0
 10
87.461
 20
-18.4441
 30
0.0
 10
85.4778
 20
-18.9389
 30
0.0
 10
85.4778
 20
-18.9389
 30
0.0
 10
85.4778
 20
-18.9389
 30
0.0
 10
85.4778
 20
-18.9389
 30
0.0
 10
84.8224
 20
-16.9967
 30
0.0
 10
84.8224
 20
-16.9967
 30
0.0
 10
84.8224
 20
-16.9967
 30
0.0
 10
84.3065
 20
-15.4678
 30
0.0
 10
83.2821
 20
-14.1605
 30
0.0
 10
81.9742
 20
-13.2298
 30
0.0
 10
81.9742
 20
-13.2298
 30
0.0
 10
80.6619
 20
-12.296
 30
0.0
 10
79.068
 20
-11.7509
 30
0.0
 10
77.4198
 20
-11.7509
 30
0.0
 10
77.4198
 20
-11.7509
 30
0.0
 10
75.7765
 20
-11.7454
 30
0.0
 10
74.185
 20
-12.2903
 30
0.0
 10
72.8739
 20
-13.2233
 30
0.0
 10
72.8739
 20
-13.2233
 30
0.0
 10
71.5612
 20
-14.1573
 30
0.0
 10
70.5327
 20
-15.4693
 30
0.0
 10
70.0173
 20
-16.9967
 30
0.0
 10
70.0173
 20
-16.9967
 30
0.0
 10
70.0173
 20
-16.9967
 30
0.0
 10
69.3619
 20
-18.9389
 30
0.0
 10
69.3619
 20
-18.9389
 30
0.0
 10
69.3619
 20
-18.9389
 30
0.0
 10
69.3619
 20
-18.9389
 30
0.0
 10
67.3785
 20
-18.4441
 30
0.0
 10
67.3785
 20
-18.4441
 30
0.0
 10
67.3785
 20
-18.4441
 30
0.0
 10
65.5127
 20
-17.9785
 30
0.0
 10
63.7751
 20
-18.1959
 30
0.0
 10
62.3086
 20
-18.8757
 30
0.0
 10
62.3086
 20
-18.8757
 30
0.0
 10
61.225
 20
-19.3778
 30
0.0
 10
60.2807
 20
-20.1319
 30
0.0
 10
59.5336
 20
-21.0495
 30
0.0
 10
59.5336
 20
-21.0495
 30
0.0
 10
59.1118
 20
-21.5679
 30
0.0
 10
58.7529
 20
-22.1391
 30
0.0
 10
58.4678
 20
-22.7476
 30
0.0
 10
58.4678
 20
-22.7476
 30
0.0
 10
61.363
 20
-24.2056
 30
0.0
 10
63.2873
 20
-26.7476
 30
0.0
 10
63.2873
 20
-29.6293
 30
0.0
 10
63.2873
 20
-29.6293
 30
0.0
 10
63.2873
 20
-32.637
 30
0.0
 10
61.1903
 20
-35.2748
 30
0.0
 10
58.0809
 20
-36.6957
 30
0.0
 10
58.0809
 20
-36.6957
 30
0.0
 10
58.3937
 20
-37.6769
 30
0.0
 10
58.8903
 20
-38.5907
 30
0.0
 10
59.5336
 20
-39.3812
 30
0.0
 10
59.5336
 20
-39.3812
 30
0.0
 10
60.2807
 20
-40.299
 30
0.0
 10
61.225
 20
-41.053
 30
0.0
 10
62.3086
 20
-41.5552
 30
0.0
 10
62.3086
 20
-41.5552
 30
0.0
 10
63.7751
 20
-42.2349
 30
0.0
 10
65.5127
 20
-42.4524
 30
0.0
 10
67.3785
 20
-41.9868
 30
0.0
 10
67.3785
 20
-41.9868
 30
0.0
 10
67.3785
 20
-41.9868
 30
0.0
 10
69.3626
 20
-41.4918
 30
0.0
 10
69.3626
 20
-41.4918
 30
0.0
 10
69.3626
 20
-41.4918
 30
0.0
 10
69.3626
 20
-41.4918
 30
0.0
 10
70.0173
 20
-43.4342
 30
0.0
 10
70.0173
 20
-43.4342
 30
0.0
 10
70.0173
 20
-43.4342
 30
0.0
 10
70.532
 20
-44.9615
 30
0.0
 10
71.5589
 20
-46.2729
 30
0.0
 10
72.8698
 20
-47.2064
 30
0.0
 10
72.8698
 20
-47.2064
 30
0.0
 10
74.1801
 20
-48.1395
 30
0.0
 10
75.7708
 20
-48.6847
 30
0.0
 10
77.413
 20
-48.6799
 30
0.0
 10
77.413
 20
-48.6799
 30
0.0
 10
77.413
 20
-48.6799
 30
0.0
 10
77.4267
 20
-48.6799
 30
0.0
 10
77.4267
 20
-48.6799
 30
0.0
 10
77.4267
 20
-48.6799
 30
0.0
 10
79.0689
 20
-48.6847
 30
0.0
 10
80.6596
 20
-48.1395
 30
0.0
 10
81.9699
 20
-47.2064
 30
0.0
 10
81.9699
 20
-47.2064
 30
0.0
 10
83.2808
 20
-46.2729
 30
0.0
 10
84.3077
 20
-44.9615
 30
0.0
 10
84.8224
 20
-43.4342
 30
0.0
 10
84.8224
 20
-43.4342
 30
0.0
 10
84.8224
 20
-43.4342
 30
0.0
 10
85.4771
 20
-41.4918
 30
0.0
 10
85.4771
 20
-41.4918
 30
0.0
 10
85.4771
 20
-41.4918
 30
0.0
 10
85.4771
 20
-41.4918
 30
0.0
 10
87.461
 20
-41.9868
 30
0.0
 10
87.461
 20
-41.9868
 30
0.0
 10
87.461
 20
-41.9868
 30
0.0
 10
89.3269
 20
-42.4524
 30
0.0
 10
91.0645
 20
-42.2349
 30
0.0
 10
92.531
 20
-41.5552
 30
0.0
 10
92.531
 20
-41.5552
 30
0.0
 10
93.6146
 20
-41.053
 30
0.0
 10
94.5589
 20
-40.299
 30
0.0
 10
95.3059
 20
-39.3812
 30
0.0
 10
95.3059
 20
-39.3812
 30
0.0
 10
95.9493
 20
-38.5907
 30
0.0
 10
96.4459
 20
-37.6769
 30
0.0
 10
96.7587
 20
-36.6957
 30
0.0
  0
SPLINE
  5
60
330
1F
100
AcDbEntity
  8
layer 1
 62
     7
370
     9
100
AcDbSpline
210
0.0
220
0.0
230
1.0
 70
    11
 71
     3
 72
    20
 73
    16
 74
     0
 42
0.0000000001
 43
0.0000000001
 12
1.0
 22
0.0
 32
0.0
 13
1.0
 23
0.0
 33
0.0
 40
0.0
 40
0.0
 40
0.0
 40
0.0
 40
0.2
 40
0.2
 40
0.2
 40
0.2
 40
0.4
 40
0.4
 40
0.4
 40
0.4
 40
0.6
 40
0.6
 40
0.6
 40
0.6
 40
1.0
 40
1.0
 40
1.0
 40
1.0
 10
52.8187
 20
-24.7545
 30
0.0
 10
55.507
 20
-24.7545
 30
0.0
 10
57.7006
 20
-26.9448
 30
0.0
 10
57.7006
 20
-29.6293
 30
0.0
 10
57.7006
 20
-29.6293
 30
0.0
 10
57.7006
 20
-32.3136
 30
0.0
 10
55.507
 20
-34.5038
 30
0.0
 10
52.8187
 20
-34.5038
 30
0.0
 10
52.8187
 20
-34.5038
 30
0.0
 10
50.1301
 20
-34.5038
 30
0.0
 10
47.9366
 20
-32.3136
 30
0.0
 10
47.9366
 20
-29.6293
 30
0.0
 10
47.9366
 20
-29.6293
 30
0.0
 10
47.9366
 20
-26.9448
 30
0.0
 10
50.1301
 20
-24.7545
 30
0.0
 10
52.8187
 20
-24.7545
 30
0.0
  0
SPLINE
  5
61
330
1F
100
AcDbEntity
  8
layer 1
 62
     7
370
     9
100
AcDbSpline
210
0.0
220
0.0
230
1.0
 70
    11
 71
     3
 72
    20
 73
    16
 74
     0
 42
0.0000000001
 43
0.0000000001
 12
1.0
 22
0.0
 32
0.0
 13
1.0
 23
0.0
 33
0.0
 40
0.0
 40
0.0
 40
0.0
 40
0.0
 40
0.2
 40
0.2
 40
0.2
 40
0.2
 40
0.4
 40
0.4
 40
0.4
 40
0.4
 40
0.6
 40
0.6
 40
0.6
 40
0.6
 40
1.0
 40
1.0
 40
1.0
 40
1.0
 10
102.021
 20
-24.7545
 30
0.0
 10
104.7096
 20
-24.7545
 30
0.0
 10
106.9031
 20
-26.9448
 30
0.0
 10
106.9031
 20
-29.6293
 30
0.0
 10
106.9031
 20
-29.6293
 30
0.0
 10
106.9031
 20
-32.3136
 30
0.0
 10
104.7096
 20
-34.5038
 30
0.0
 10
102.021
 20
-34.5038
 30
0.0
 10
102.021
 20
-34.5038
 30
0.0
 10
99.3324
 20
-34.5038
 30
0.0
 10
97.139
 20
-32.3136
 30
0.0
 10
97.139
 20
-29.6293
 30
0.0
 10
97.139
 20
-29.6293
 30
0.0
 10
97.139
 20
-26.9448
 30
0.0
 10
99.3324
 20
-24.7545
 30
0.0
 10
102.021
 20
-24.7545
 30
0.0
  0
SPLINE
  5
62
330
1F
100
AcDbEntity
  8
layer 1
 62
     7
370
     9
100
AcDbSpline
210
0.0
220
0.0
230
1.0
 70
    11
 71
     3
 72
   136
 73
   132
 74
     0
 42
0.0000000001
 43
0.0000000001
 12
1.0
 22
0.0
 32
0.0
 13
1.0
 23
0.0
 33
0.0
 40
0.0
 40
0.0
 40
0.0
 40
0.0
 40
0.0294117647058824
 40
0.0294117647058824
 40
0.0294117647058824
 40
0.0294117647058824
 40
0.0588235294117647
 40
0.0588235294117647
 40
0.0588235294117647
 40
0.0588235294117647
 40
0.0882352941176471
 40
0.0882352941176471
 40
0.0882352941176471
 40
0.0882352941176471
 40
0.1176470588235294
 40
0.1176470588235294
 40
0.1176470588235294
 40
0.1176470588235294
 40
0.1470588235294118
 40
0.1470588235294118
 40
0.1470588235294118
 40
0.1470588235294118
 40
0.1764705882352941
 40
0.1764705882352941
 40
0.1764705882352941
 40
0.1764705882352941
 40
0.2058823529411765
 40
0.2058823529411765
 40
0.2058823529411765
 40
0.2058823529411765
 40
0.2352941176470588
 40
0.2352941176470588
 40
0.2352941176470588
 40
0.2352941176470588
 40
0.2647058823529412
 40
0.2647058823529412
 40
0.2647058823529412
 40
0.2647058823529412
 40
0.2941176470588235
 40
0.2941176470588235
 40
0.2941176470588235
 40
0.2941176470588235
 40
0.3235294117647059
 40
0.3235294117647059
 40
0.3235294117647059
 40
0.3235294117647059
 40
0.3529411764705883
 40
0.3529411764705883
 40
0.3529411764705883
 40
0.3529411764705883
 40
0.3823529411764706
 40
0.3823529411764706
 40
0.3823529411764706
 40
0.3823529411764706
 40
0.4117647058823529
 40
0.4117647058823529
 40
0.4117647058823529
 40
0.4117647058823529
 40
0.4411764705882353
 40
0.4411764705882353
 40
0.4411764705882353
 40
0.4411764705882353
 40
0.4705882352941176
 40
0.4705882352941176
 40
0.4705882352941176
 40
0.4705882352941176
 40
0.5
 40
0.5
 40
0.5
 40
0.5
 40
0.5294117647058824
 40
0.5294117647058824
 40
0.5294117647058824
 40
0.5294117647058824
 40
0.5588235294117647
 40
0.5588235294117647
 40
0.5588235294117647
 40
0.5588235294117647
 40
0.5882352941176471
 40
0.5882352941176471
 40
0.5882352941176471
 40
0.5882352941176471
 40
0.6176470588235294
 40
0.6176470588235294
 40
0.6176470588235294
 40
0.6176470588235294
 40
0.6470588235294118
 40
0.6470588235294118
 40
0.6470588235294118
 40
0.6470588235294118
 40
0.6764705882352942
 40
0.6764705882352942
 40
0.6764705882352942
 40
0.6764705882352942
 40
0.7058823529411765
 40
0.7058823529411765
 40
0.7058823529411765
 40
0.7058823529411765
 40
0.7352941176470589
 40
0.7352941176470589
 40
0.7352941176470589
 40
0.7352941176470589
 40
0.7647058823529411
 40
0.7647058823529411
 40
0.7647058823529411
 40
0.7647058823529411
 40
0.7941176470588235
 40
0.7941176470588235
 40
0.7941176470588235
 40
0.7941176470588235
 40
0.8235294117647058
 40
0.8235294117647058
 40
0.8235294117647058
 40
0.8235294117647058
 40
0.8529411764705882
 40
0.8529411764705882
 40
0.8529411764705882
 40
0.8529411764705882
 40
0.8823529411764706
 40
0.8823529411764706
 40
0.8823529411764706
 40
0.8823529411764706
 40
0.9117647058823529
 40
0.9117647058823529
 40
0.9117647058823529
 40
0.9117647058823529
 40
0.9411764705882353
 40
0.9411764705882353
 40
0.9411764705882353
 40
0.9411764705882353
 40
1.0
 40
1.0
 40
1.0
 40
1.0
 10
96.7587
 20
-88.3888
 30
0.0
 10
93.6493
 20
-86.9674
 30
0.0
 10
91.5524
 20
-84.3301
 30
0.0
 10
91.5524
 20
-81.3223
 30
0.0
 10
91.5524
 20
-81.3223
 30
0.0
 10
91.5524
 20
-78.4409
 30
0.0
 10
93.4765
 20
-75.8988
 30
0.0
 10
96.3717
 20
-74.4408
 30
0.0
 10
96.3717
 20
-74.4408
 30
0.0
 10
96.0865
 20
-73.8322
 30
0.0
 10
95.7278
 20
-73.2609
 30
0.0
 10
95.3059
 20
-72.7427
 30
0.0
 10
95.3059
 20
-72.7427
 30
0.0
 10
94.5589
 20
-71.825
 30
0.0
 10
93.6146
 20
-71.0709
 30
0.0
 10
92.531
 20
-70.5688
 30
0.0
 10
92.531
 20
-70.5688
 30
0.0
 10
91.0645
 20
-69.889
 30
0.0
 10
89.3269
 20
-69.6716
 30
0.0
 10
87.461
 20
-70.1371
 30
0.0
 10
87.461
 20
-70.1371
 30
0.0
 10
87.461
 20
-70.1371
 30
0.0
 10
85.4778
 20
-70.632
 30
0.0
 10
85.4778
 20
-70.632
 30
0.0
 10
85.4778
 20
-70.632
 30
0.0
 10
85.4778
 20
-70.632
 30
0.0
 10
84.8224
 20
-68.6897
 30
0.0
 10
84.8224
 20
-68.6897
 30
0.0
 10
84.8224
 20
-68.6897
 30
0.0
 10
84.3065
 20
-67.1608
 30
0.0
 10
83.2821
 20
-65.8536
 30
0.0
 10
81.9742
 20
-64.923
 30
0.0
 10
81.9742
 20
-64.923
 30
0.0
 10
80.6619
 20
-63.989
 30
0.0
 10
79.068
 20
-63.4441
 30
0.0
 10
77.4198
 20
-63.4441
 30
0.0
 10
77.4198
 20
-63.4441
 30
0.0
 10
75.7765
 20
-63.4384
 30
0.0
 10
74.185
 20
-63.9832
 30
0.0
 10
72.8739
 20
-64.9163
 30
0.0
 10
72.8739
 20
-64.9163
 30
0.0
 10
71.5612
 20
-65.8505
 30
0.0
 10
70.5327
 20
-67.1624
 30
0.0
 10
70.0173
 20
-68.6897
 30
0.0
 10
70.0173
 20
-68.6897
 30
0.0
 10
70.0173
 20
-68.6897
 30
0.0
 10
69.3619
 20
-70.632
 30
0.0
 10
69.3619
 20
-70.632
 30
0.0
 10
69.3619
 20
-70.632
 30
0.0
 10
69.3619
 20
-70.632
 30
0.0
 10
67.3785
 20
-70.1371
 30
0.0
 10
67.3785
 20
-70.1371
 30
0.0
 10
67.3785
 20
-70.1371
 30
0.0
 10
65.5127
 20
-69.6716
 30
0.0
 10
63.7751
 20
-69.889
 30
0.0
 10
62.3086
 20
-70.5688
 30
0.0
 10
62.3086
 20
-70.5688
 30
0.0
 10
61.225
 20
-71.0709
 30
0.0
 10
60.2807
 20
-71.825
 30
0.0
 10
59.5336
 20
-72.7427
 30
0.0
 10
59.5336
 20
-72.7427
 30
0.0
 10
59.1118
 20
-73.2609
 30
0.0
 10
58.7529
 20
-73.8321
 30
0.0
 10
58.4678
 20
-74.4407
 30
0.0
 10
58.4678
 20
-74.4407
 30
0.0
 10
61.363
 20
-75.8988
 30
0.0
 10
63.2873
 20
-78.4407
 30
0.0
 10
63.2873
 20
-81.3223
 30
0.0
 10
63.2873
 20
-81.3223
 30
0.0
 10
63.2873
 20
-84.3301
 30
0.0
 10
61.1903
 20
-86.9678
 30
0.0
 10
58.0809
 20
-88.3888
 30
0.0
 10
58.0809
 20
-88.3888
 30
0.0
 10
58.3937
 20
-89.37
 30
0.0
 10
58.8903
 20
-90.2839
 30
0.0
 10
59.5336
 20
-91.0744
 30
0.0
 10
59.5336
 20
-91.0744
 30
0.0
 10
60.2807
 20
-91.9921
 30
0.0
 10
61.225
 20
-92.746
 30
0.0
 10
62.3086
 20
-93.2482
 30
0.0
 10
62.3086
 20
-93.2482
 30
0.0
 10
63.7751
 20
-93.928
 30
0.0
 10
65.5127
 20
-94.1456
 30
0.0
 10
67.3785
 20
-93.68
 30
0.0
 10
67.3785
 20
-93.68
 30
0.0
 10
67.3785
 20
-93.68
 30
0.0
 10
69.3626
 20
-93.1849
 30
0.0
 10
69.3626
 20
-93.1849
 30
0.0
 10
69.3626
 20
-93.1849
 30
0.0
 10
69.3626
 20
-93.1849
 30
0.0
 10
70.0173
 20
-95.1274
 30
0.0
 10
70.0173
 20
-95.1274
 30
0.0
 10
70.0173
 20
-95.1274
 30
0.0
 10
70.532
 20
-96.6545
 30
0.0
 10
71.5589
 20
-97.966
 30
0.0
 10
72.8698
 20
-98.8996
 30
0.0
 10
72.8698
 20
-98.8996
 30
0.0
 10
74.1801
 20
-99.8325
 30
0.0
 10
75.7708
 20
-100.3777
 30
0.0
 10
77.413
 20
-100.373
 30
0.0
 10
77.413
 20
-100.373
 30
0.0
 10
77.413
 20
-100.373
 30
0.0
 10
77.4267
 20
-100.373
 30
0.0
 10
77.4267
 20
-100.373
 30
0.0
 10
77.4267
 20
-100.373
 30
0.0
 10
79.0689
 20
-100.3777
 30
0.0
 10
80.6596
 20
-99.8325
 30
0.0
 10
81.9699
 20
-98.8996
 30
0.0
 10
81.9699
 20
-98.8996
 30
0.0
 10
83.2808
 20
-97.966
 30
0.0
 10
84.3077
 20
-96.6545
 30
0.0
 10
84.8224
 20
-95.1274
 30
0.0
 10
84.8224
 20
-95.1274
 30
0.0
 10
84.8224
 20
-95.1274
 30
0.0
 10
85.4771
 20
-93.1849
 30
0.0
 10
85.4771
 20
-93.1849
 30
0.0
 10
85.4771
 20
-93.1849
 30
0.0
 10
85.4771
 20
-93.1849
 30
0.0
 10
87.461
 20
-93.68
 30
0.0
 10
87.461
 20
-93.68
 30
0.0
 10
87.461
 20
-93.68
 30
0.0
 10
89.3269
 20
-94.1456
 30
0.0
 10
91.0645
 20
-93.928
 30
0.0
 10
92.531
 20
-93.2482
 30
0.0
 10
92.531
 20
-93.2482
 30
0.0
 10
93.6146
 20
-92.746
 30
0.0
 10
94.5589
 20
-91.9921
 30
0.0
 10
95.3059
 20
-91.0744
 30
0.0
 10
95.3059
 20
-91.0744
 30
0.0
 10
95.9493
 20
-90.2839
 30
0.0
 10
96.4459
 20
-89.37
 30
0.0
 10
96.7587
 20
-88.3888
 30
0.0
  0
SPLINE
  5
63
330
1F
100
AcDbEntity
  8
layer 1
 62
     7
370
     9
100
AcDbSpline
210
0.0
220
0.0
230
1.0
 70
    11
 71
     3
 72
    20
 73
    16
 74
     0
 42
0.0000000001
 43
0.0000000001
 12
1.0
 22
0.0
 32
0.0
 13
1.0
 23
0.0
 33
0.0
 40
0.0
 40
0.0
 40
0.0
 40
0.0
 40
0.2
 40
0.2
 40
0.2
 40
0.2
 40
0.4
 40
0.4
 40
0.4
 40
0.4
 40
0.6
 40
0.6
 40
0.6
 40
0.6
 40
1.0
 40
1.0
 40
1.0
 40
1.0
 10
52.8187
 20
-76.4477
 30
0.0
 10
55.507
 20
-76.4477
 30
0.0
 10
57.7006
 20
-78.6378
 30
0.0
 10
57.7006
 20
-81.3223
 30
0.0
 10
57.7006
 20
-81.3223
 30
0.0
 10
57.7006
 20
-84.0066
 30
0.0
 10
55.507
 20
-86.1968
 30
0.0
 10
52.8187
 20
-86.1968
 30
0.0
 10
52.8187
 20
-86.1968
 30
0.0
 10
50.1301
 20
-86.1968
 30
0.0
 10
47.9366
 20
-84.0066
 30
0.0
 10
47.9366
 20
-81.3223
 30
0.0
 10
47.9366
 20
-81.3223
 30
0.0
 10
47.9366
 20
-78.6378
 30
0.0
 10
50.1301
 20
-76.4477
 30
0.0
 10
52.8187
 20
-76.4477
 30
0.0
  0
SPLINE
  5
64
330
1F
100
AcDbEntity
  8
layer 1
 62
     7
370
     9
100
AcDbSpline
210
0.0
220
0.0
230
1.0
 70
    11
 71
     3
 72
    20
 73
    16
 74
     0
 42
0.0000000001
 43
0.0000000001
 12
1.0
 22
0.0
 32
0.0
 13
1.0
 23
0.0
 33
0.0
 40
0.0
 40
0.0
 40
0.0
 40
0.0
 40
0.2
 40
0.2
 40
0.2
 40
0.2
 40
0.4
 40
0.4
 40
0.4
 40
0.4
 40
0.6
 40
0.6
 40
0.6
 40
0.6
 40
1.0
 40
1.0
 40
1.0
 40
1.0
 10
102.021
 20
-76.4477
 30
0.0
 10
104.7096
 20
-76.4477
 30
0.0
 10
106.9031
 20
-78.6378
 30
0.0
 10
106.9031
 20
-81.3223
 30
0.0
 10
106.9031
 20
-81.3223
 30
0.0
 10
106.9031
 20
-84.0066
 30
0.0
 10
104.7096
 20
-86.1968
 30
0.0
 10
102.021
 20
-86.1968
 30
0.0
 10
102.021
 20
-86.1968
 30
0.0
 10
99.3324
 20
-86.1968
 30
0.0
 10
97.139
 20
-84.0066
 30
0.0
 10
97.139
 20
-81.3223
 30
0.0
 10
97.139
 20
-81.3223
 30
0.0
 10
97.139
 20
-78.6378
 30
0.0
 10
99.3324
 20
-76.4477
 30
0.0
 10
102.021
 20
-76.4477
 30
0.0
  0
ENDSEC
  0
SECTION
  2
OBJECTS
  0
DICTIONARY
  5
C
330
0
100
AcDbDictionary
281
     1
  3
ACAD_GROUP
350
D
  3
ACAD_LAYOUT
350
1A
  3
ACAD_MATERIAL
350
3B
  3
ACAD_MLEADERSTYLE
350
87
  3
ACAD_MLINESTYLE
350
17
  3
ACAD_PLOTSETTINGS
350
19
  3
ACAD_PLOTSTYLENAME
350
E
  3
ACAD_TABLESTYLE
350
86
  3
ACAD_VISUALSTYLE
350
2A
  0
DICTIONARY
  5
D
102
{ACAD_REACTORS
330
C
102
}
330
C
100
AcDbDictionary
281
     1
  0
DICTIONARY
  5
1A
102
{ACAD_REACTORS
330
C
102
}
330
C
100
AcDbDictionary
281
     1
  3
Layout1
350
1E
  3
Layout2
350
26
  3
Model
350
22
  0
DICTIONARY
  5
3B
102
{ACAD_REACTORS
330
C
102
}
330
C
100
AcDbDictionary
281
     1
  3
ByBlock
350
3D
  3
ByLayer
350
3C
  3
Global
350
3E
  0
DICTIONARY
  5
87
102
{ACAD_REACTORS
330
C
102
}
330
C
100
AcDbDictionary
281
     1
  0
DICTIONARY
  5
17
102
{ACAD_REACTORS
330
C
102
}
330
C
100
AcDbDictionary
281
     1
  3
Standard
350
18
  0
DICTIONARY
  5
19
102
{ACAD_REACTORS
330
C
102
}
330
C
100
AcDbDictionary
281
     1
  0
ACDBDICTIONARYWDFLT
  5
E
102
{ACAD_REACTORS
330
C
102
}
330
C
100
AcDbDictionary
281
     1
  3
Normal
350
F
100
AcDbDictionaryWithDefault
340
F
  0
DICTIONARY
  5
86
102
{ACAD_REACTORS
330
C
102
}
330
C
100
AcDbDictionary
281
     1
  0
DICTIONARY
  5
2A
102
{ACAD_REACTORS
330
C
102
}
330
C
100
AcDbDictionary
281
     1
  3
2dWireframe
350
2F
  3
3D Hidden
350
31
  3
3dWireframe
350
30
  3
Basic
350
32
  3
Brighten
350
36
  3
ColorChange
350
3A
  3
Conceptual
350
34
  3
Dim
350
35
  3
Facepattern
350
39
  3
Flat
350
2B
  3
FlatWithEdges
350
2C
  3
Gouraud
350
2D
  3
GouraudWithEdges
350
2E
  3
Linepattern
350
38
  3
Realistic
350
33
  3
Thicken
350
37
  0
LAYOUT
  5
1E
102
{ACAD_REACTORS
330
1A
102
}
330
1A
100
AcDbPlotSettings
  1

  2
none_device
  4

  6

 40
0.0
 41
0.0
 42
0.0
 43
0.0
 44
0.0
 45
0.0
 46
0.0
 47
0.0
 48
0.0
 49
0.0
140
0.0
141
0.0
142
1.0
143
1.0
 70
   688
 72
     0
 73
     0
 74
     5
  7

 75
    16
 76
     0
 77
     2
 78
   300
147
1.0
148
0.0
149
0.0
100
AcDbLayout
  1
Layout1
 70
     1
 71
     1
 10
0.0
 20
0.0
 11
12.0
 21
9.0
 12
0.0
 22
0.0
 32
0.0
 14
1.000000000000000E+20
 24
1.000000000000000E+20
 34
1.000000000000000E+20
 15
-1.000000000000000E+20
 25
-1.000000000000000E+20
 35
-1.000000000000000E+20
146
0.0
 13
0.0
 23
0.0
 33
0.0
 16
1.0
 26
0.0
 36
0.0
 17
0.0
 27
1.0
 37
0.0
 76
     0
330
1B
  0
LAYOUT
  5
26
102
{ACAD_REACTORS
330
1A
102
}
330
1A
100
AcDbPlotSettings
  1

  2
none_device
  4

  6

 40
0.0
 41
0.0
 42
0.0
 43
0.0
 44
0.0
 45
0.0
 46
0.0
 47
0.0
 48
0.0
 49
0.0
140
0.0
141
0.0
142
1.0
143
1.0
 70
   688
 72
     0
 73
     0
 74
     5
  7

 75
    16
 76
     0
 77
     2
 78
   300
147
1.0
148
0.0
149
0.0
100
AcDbLayout
  1
Layout2
 70
     1
 71
     2
 10
0.0
 20
0.0
 11
0.0
 21
0.0
 12
0.0
 22
0.0
 32
0.0
 14
0.0
 24
0.0
 34
0.0
 15
0.0
 25
0.0
 35
0.0
146
0.0
 13
0.0
 23
0.0
 33
0.0
 16
1.0
 26
0.0
 36
0.0
 17
0.0
 27
1.0
 37
0.0
 76
     0
330
23
  0
LAYOUT
  5
22
102
{ACAD_REACTORS
330
1A
102
}
330
1A
100
AcDbPlotSettings
  1

  2
none_device
  4

  6

 40
0.0
 41
0.0
 42
0.0
 43
0.0
 44
0.0
 45
0.0
 46
0.0
 47
0.0
 48
0.0
 49
0.0
140
0.0
141
0.0
142
1.0
143
1.0
 70
  1712
 72
     0
 73
     0
 74
     0
  7

 75
     0
 76
     0
 77
     2
 78
   300
147
1.0
148
0.0
149
0.0
100
AcDbLayout
  1
Model
 70
     1
 71
     0
 10
0.0
 20
0.0
 11
12.0
 21
9.0
 12
0.0
 22
0.0
 32
0.0
 14
22.8599
 24
-112.9606
 34
0.0
 15
131.9794
 25
129.4131
 35
0.0
146
0.0
 13
0.0
 23
0.0
 33
0.0
 16
1.0
 26
0.0
 36
0.0
 17
0.0
 27
1.0
 37
0.0
 76
     0
330
1F
331
29
  0
MATERIAL
  5
3D
102
{ACAD_REACTORS
330
3B
102
}
330
3B
100
AcDbMaterial
  1
ByBlock
 72
     1
 94
      127
  0
MATERIAL
  5
3C
102
{ACAD_REACTORS
330
3B
102
}
330
3B
100
AcDbMaterial
  1
ByLayer
 72
     1
 94
      127
  0
MATERIAL
  5
3E
102
{ACAD_REACTORS
330
3B
102
}
330
3B
100
AcDbMaterial
  1
Global
 72
     1
 94
      127
  0
MLINESTYLE
  5
18
102
{ACAD_REACTORS
330
17
102
}
330
17
100
AcDbMlineStyle
  2
Standard
 70
     0
  3

 62
   256
 51
90.0
 52
90.0
 71
     2
 49
0.5
 62
   256
  6
BYLAYER
 49
-0.5
 62
   256
  6
BYLAYER
  0
ACDBPLACEHOLDER
  5
F
102
{ACAD_REACTORS
330
E
102
}
330
E
  0
VISUALSTYLE
  5
2F
102
{ACAD_REACTORS
330
2A
102
}
102
{ACAD_XDICTIONARY
360
6E
102
}
330
2A
100
AcDbVisualStyle
  2
2dWireframe
 70
     4
 71
     0
 72
     2
 73
     0
 90
        0
 40
-0.6
 41
-30.0
 62
     5
 63
     7
421
 16777215
 74
     1
 91
        4
 64
     7
 65
   257
 75
     1
175
     1
 42
1.0
 92
        0
 66
   257
 43
1.0
 76
     1
 77
     6
 78
     2
 67
     7
 79
     5
170
     0
171
     0
290
     0
174
     0
 93
        1
 44
0.0
173
     0
291
     0
 45
0.0
  0
VISUALSTYLE
  5
31
102
{ACAD_REACTORS
330
2A
102
}
102
{ACAD_XDICTIONARY
360
72
102
}
330
2A
100
AcDbVisualStyle
  2
3D Hidden
 70
     6
 71
     1
 72
     2
 73
     2
 90
        0
 40
-0.6
 41
-30.0
 62
     5
 63
     7
421
 16777215
 74
     2
 91
        2
 64
     7
 65
   257
 75
     2
175
     1
 42
40.0
 92
        0
 66
   257
 43
1.0
 76
     1
 77
     6
 78
     2
 67
     7
 79
     3
170
     0
171
     0
290
     0
174
     0
 93
        1
 44
0.0
173
     0
291
     0
 45
0.0
  0
VISUALSTYLE
  5
30
102
{ACAD_REACTORS
330
2A
102
}
102
{ACAD_XDICTIONARY
360
70
102
}
330
2A
100
AcDbVisualStyle
  2
3dWireframe
 70
     5
 71
     0
 72
     2
 73
     0
 90
        0
 40
-0.6
 41
-30.0
 62
     5
 63
     7
421
 16777215
 74
     1
 91
        4
 64
     7
 65
   257
 75
     1
175
     1
 42
1.0
 92
        0
 66
   257
 43
1.0
 76
     1
 77
     6
 78
     2
 67
     7
 79
     5
170
     0
171
     0
290
     0
174
     0
 93
        1
 44
0.0
173
     0
291
     0
 45
0.0
  0
VISUALSTYLE
  5
32
102
{ACAD_REACTORS
330
2A
102
}
102
{ACAD_XDICTIONARY
360
74
102
}
330
2A
100
AcDbVisualStyle
  2
Basic
 70
     7
 71
     1
 72
     0
 73
     1
 90
        0
 40
-0.6
 41
-30.0
 62
     5
 63
     7
421
 16777215
 74
     0
 91
        4
 64
     7
 65
   257
 75
     1
175
     1
 42
1.0
 92
        8
 66
     7
 43
1.0
 76
     1
 77
     6
 78
     2
 67
     7
 79
     5
170
     0
171
     0
290
     0
174
     0
 93
        1
 44
0.0
173
     0
291
     1
 45
0.0
  0
VISUALSTYLE
  5
36
102
{ACAD_REACTORS
330
2A
102
}
102
{ACAD_XDICTIONARY
360
7C
102
}
330
2A
100
AcDbVisualStyle
  2
Brighten
 70
    12
 71
     2
 72
     2
 73
     0
 90
        0
 40
-0.6
 41
-30.0
 62
     5
 63
     7
421
 16777215
 74
     1
 91
        4
 64
     7
 65
   257
 75
     1
175
     1
 42
1.0
 92
        8
 66
     7
 43
1.0
 76
     1
 77
     6
 78
     2
 67
     7
 79
     5
170
     0
171
     0
290
     0
174
     0
 93
        1
 44
50.0
173
     0
291
     1
 45
0.0
  0
VISUALSTYLE
  5
3A
102
{ACAD_REACTORS
330
2A
102
}
102
{ACAD_XDICTIONARY
360
84
102
}
330
2A
100
AcDbVisualStyle
  2
ColorChange
 70
    16
 71
     2
 72
     2
 73
     3
 90
        0
 40
-0.6
 41
-30.0
 62
     5
 63
     8
421
  8421504
 74
     1
 91
        4
 64
     7
 65
   257
 75
     1
175
     1
 42
1.0
 92
        8
 66
     8
424
  8421504
 43
1.0
 76
     1
 77
     6
 78
     2
 67
     7
 79
     5
170
     0
171
     0
290
     0
174
     0
 93
        1
 44
0.0
173
     0
291
     1
 45
0.0
  0
VISUALSTYLE
  5
34
102
{ACAD_REACTORS
330
2A
102
}
102
{ACAD_XDICTIONARY
360
78
102
}
330
2A
100
AcDbVisualStyle
  2
Conceptual
 70
     9
 71
     3
 72
     2
 73
     0
 90
        0
 40
-0.6
 41
-30.0
 62
     5
 63
     7
421
 16777215
 74
     2
 91
        2
 64
     7
 65
   257
 75
     1
175
     1
 42
40.0
 92
        8
 66
     7
 43
1.0
 76
     1
 77
     6
 78
     2
 67
     7
 79
     3
170
     0
171
     0
290
     0
174
     0
 93
        1
 44
0.0
173
     0
291
     0
 45
0.0
  0
VISUALSTYLE
  5
35
102
{ACAD_REACTORS
330
2A
102
}
102
{ACAD_XDICTIONARY
360
7A
102
}
330
2A
100
AcDbVisualStyle
  2
Dim
 70
    11
 71
     2
 72
     2
 73
     0
 90
        0
 40
-0.6
 41
-30.0
 62
     5
 63
     7
421
 16777215
 74
     1
 91
        4
 64
     7
 65
   257
 75
     1
175
     1
 42
1.0
 92
        8
 66
     7
 43
1.0
 76
     1
 77
     6
 78
     2
 67
     7
 79
     5
170
     0
171
     0
290
     0
174
     0
 93
        1
 44
-50.0
173
     0
291
     1
 45
0.0
  0
VISUALSTYLE
  5
39
102
{ACAD_REACTORS
330
2A
102
}
102
{ACAD_XDICTIONARY
360
82
102
}
330
2A
100
AcDbVisualStyle
  2
Facepattern
 70
    15
 71
     2
 72
     2
 73
     0
 90
        0
 40
-0.6
 41
-30.0
 62
     5
 63
     7
421
 16777215
 74
     1
 91
        4
 64
     7
 65
   257
 75
     1
175
     1
 42
1.0
 92
        8
 66
     7
 43
1.0
 76
     1
 77
     6
 78
     2
 67
     7
 79
     5
170
     0
171
     0
290
     0
174
     0
 93
        1
 44
0.0
173
     0
291
     1
 45
0.0
  0
VISUALSTYLE
  5
2B
102
{ACAD_REACTORS
330
2A
102
}
102
{ACAD_XDICTIONARY
360
66
102
}
330
2A
100
AcDbVisualStyle
  2
Flat
 70
     0
 71
     2
 72
     1
 73
     1
 90
        2
 40
-0.6
 41
30.0
 62
     5
 63
     7
421
 16777215
 74
     0
 91
        4
 64
     7
 65
   257
 75
     1
175
     1
 42
1.0
 92
        8
 66
     7
 43
1.0
 76
     1
 77
     6
 78
     2
 67
     7
 79
     5
170
     0
171
     0
290
     0
174
     0
 93
       13
 44
0.0
173
     0
291
     1
 45
0.0
  0
VISUALSTYLE
  5
2C
102
{ACAD_REACTORS
330
2A
102
}
102
{ACAD_XDICTIONARY
360
68
102
}
330
2A
100
AcDbVisualStyle
  2
FlatWithEdges
 70
     1
 71
     2
 72
     1
 73
     1
 90
        2
 40
-0.6
 41
30.0
 62
     5
 63
     7
421
 16777215
 74
     1
 91
        4
 64
     7
 65
   257
 75
     1
175
     1
 42
1.0
 92
        0
 66
   257
 43
1.0
 76
     1
 77
     6
 78
     2
 67
     7
 79
     5
170
     0
171
     0
290
     0
174
     0
 93
       13
 44
0.0
173
     0
291
     1
 45
0.0
  0
VISUALSTYLE
  5
2D
102
{ACAD_REACTORS
330
2A
102
}
102
{ACAD_XDICTIONARY
360
6A
102
}
330
2A
100
AcDbVisualStyle
  2
Gouraud
 70
     2
 71
     2
 72
     2
 73
     1
 90
        2
 40
-0.6
 41
30.0
 62
     5
 63
     7
421
 16777215
 74
     0
 91
        4
 64
     7
 65
   257
 75
     1
175
     1
 42
1.0
 92
        0
 66
     7
 43
1.0
 76
     1
 77
     6
 78
     2
 67
     7
 79
     5
170
     0
171
     0
290
     0
174
     0
 93
       13
 44
0.0
173
     0
291
     1
 45
0.0
  0
VISUALSTYLE
  5
2E
102
{ACAD_REACTORS
330
2A
102
}
102
{ACAD_XDICTIONARY
360
6C
102
}
330
2A
100
AcDbVisualStyle
  2
GouraudWithEdges
 70
     3
 71
     2
 72
     2
 73
     1
 90
        2
 40
-0.6
 41
30.0
 62
     5
 63
     7
421
 16777215
 74
     1
 91
        4
 64
     7
 65
   257
 75
     1
175
     1
 42
1.0
 92
        0
 66
   257
 43
1.0
 76
     1
 77
     6
 78
     2
 67
     7
 79
     5
170
     0
171
     0
290
     0
174
     0
 93
       13
 44
0.0
173
     0
291
     1
 45
0.0
  0
VISUALSTYLE
  5
38
102
{ACAD_REACTORS
330
2A
102
}
102
{ACAD_XDICTIONARY
360
80
102
}
330
2A
100
AcDbVisualStyle
  2
Linepattern
 70
    14
 71
     2
 72
     2
 73
     0
 90
        0
 40
-0.6
 41
-30.0
 62
     5
 63
     7
421
 16777215
 74
     1
 91
        4
 64
     7
 65
   257
 75
     7
175
     7
 42
1.0
 92
        8
 66
     7
 43
1.0
 76
     1
 77
     6
 78
     2
 67
     7
 79
     5
170
     0
171
     0
290
     0
174
     0
 93
        1
 44
0.0
173
     0
291
     1
 45
0.0
  0
VISUALSTYLE
  5
33
102
{ACAD_REACTORS
330
2A
102
}
102
{ACAD_XDICTIONARY
360
76
102
}
330
2A
100
AcDbVisualStyle
  2
Realistic
 70
     8
 71
     2
 72
     2
 73
     0
 90
        0
 40
-0.6
 41
-30.0
 62
     5
 63
     7
421
 16777215
 74
     1
 91
        0
 64
     7
 65
   257
 75
     1
175
     1
 42
1.0
 92
        8
 66
     8
424
  7895160
 43
1.0
 76
     1
 77
     6
 78
     2
 67
     7
 79
     5
170
     0
171
     0
290
     0
174
     0
 93
       13
 44
0.0
173
     0
291
     0
 45
0.0
  0
VISUALSTYLE
  5
37
102
{ACAD_REACTORS
330
2A
102
}
102
{ACAD_XDICTIONARY
360
7E
102
}
330
2A
100
AcDbVisualStyle
  2
Thicken
 70
    13
 71
     2
 72
     2
 73
     0
 90
        0
 40
-0.6
 41
-30.0
 62
     5
 63
     7
421
 16777215
 74
     1
 91
        4
 64
     7
 65
   257
 75
     1
175
     1
 42
1.0
 92
       12
 66
     7
 43
1.0
 76
     1
 77
     6
 78
     2
 67
     7
 79
     5
170
     0
171
     0
290
     0
174
     0
 93
        1
 44
0.0
173
     0
291
     1
 45
0.0
  0
DICTIONARY
  5
6E
330
2F
100
AcDbDictionary
280
     1
281
     1
  3
ACAD_XREC_ROUNDTRIP
360
6F
  0
DICTIONARY
  5
72
330
31
100
AcDbDictionary
280
     1
281
     1
  3
ACAD_XREC_ROUNDTRIP
360
73
  0
DICTIONARY
  5
70
330
30
100
AcDbDictionary
280
     1
281
     1
  3
ACAD_XREC_ROUNDTRIP
360
71
  0
DICTIONARY
  5
74
330
32
100
AcDbDictionary
280
     1
281
     1
  3
ACAD_XREC_ROUNDTRIP
360
75
  0
DICTIONARY
  5
7C
330
36
100
AcDbDictionary
280
     1
281
     1
  3
ACAD_XREC_ROUNDTRIP
360
7D
  0
DICTIONARY
  5
84
330
3A
100
AcDbDictionary
280
     1
281
     1
  3
ACAD_XREC_ROUNDTRIP
360
85
  0
DICTIONARY
  5
78
330
34
100
AcDbDictionary
280
     1
281
     1
  3
ACAD_XREC_ROUNDTRIP
360
79
  0
DICTIONARY
  5
7A
330
35
100
AcDbDictionary
280
     1
281
     1
  3
ACAD_XREC_ROUNDTRIP
360
7B
  0
DICTIONARY
  5
82
330
39
100
AcDbDictionary
280
     1
281
     1
  3
ACAD_XREC_ROUNDTRIP
360
83
  0
DICTIONARY
  5
66
330
2B
100
AcDbDictionary
280
     1
281
     1
  3
ACAD_XREC_ROUNDTRIP
360
67
  0
DICTIONARY
  5
68
330
2C
100
AcDbDictionary
280
     1
281
     1
  3
ACAD_XREC_ROUNDTRIP
360
69
  0
DICTIONARY
  5
6A
330
2D
100
AcDbDictionary
280
     1
281
     1
  3
ACAD_XREC_ROUNDTRIP
360
6B
  0
DICTIONARY
  5
6C
330
2E
100
AcDbDictionary
280
     1
281
     1
  3
ACAD_XREC_ROUNDTRIP
360
6D
  0
DICTIONARY
  5
80
330
38
100
AcDbDictionary
280
     1
281
     1
  3
ACAD_XREC_ROUNDTRIP
360
81
  0
DICTIONARY
  5
76
330
33
100
AcDbDictionary
280
     1
281
     1
  3
ACAD_XREC_ROUNDTRIP
360
77
  0
DICTIONARY
  5
7E
330
37
100
AcDbDictionary
280
     1
281
     1
  3
ACAD_XREC_ROUNDTRIP
360
7F
  0
XRECORD
  5
6F
102
{ACAD_REACTORS
330
6E
102
}
330
6E
100
AcDbXrecord
280
     1
102
RTVSPropertyOp0
 70
     1
102
RTVSPropertyOp1
 70
     1
102
RTVSPropertyOp2
 70
     1
102
RTVSPropertyOp3
 70
     1
102
RTVSPropertyOp4
 70
     1
102
RTVSPropertyOp5
 70
     1
102
RTVSPropertyOp6
 70
     1
102
RTVSPropertyOp7
 70
     1
102
RTVSPropertyOp8
 70
     1
102
RTVSPropertyOp9
 70
     1
102
RTVSPropertyOp10
 70
     1
102
RTVSPropertyOp11
 70
     1
102
RTVSPropertyOp12
 70
     1
102
RTVSPropertyOp13
 70
     1
102
RTVSPropertyOp14
 70
     1
102
RTVSPropertyOp15
 70
     1
102
RTVSPropertyOp16
 70
     1
102
RTVSPropertyOp17
 70
     1
102
RTVSPropertyOp18
 70
     1
102
RTVSPropertyOp19
 70
     1
102
RTVSPropertyOp20
 70
     1
102
RTVSPropertyOp21
 70
     1
102
RTVSPropertyOp22
 70
     1
102
RTVSPropertyOp23
 70
     1
102
RTVSPropertyOp24
 70
     1
102
RTVSPropertyOp25
 70
     1
102
RTVSPropertyOp26
 70
     1
102
RTVSPropertyOp27
 70
     1
102
RTVSPropertyOp28
 70
     1
102
RTVSPropertyOp29
 70
     1
102
RTVSPropertyOp30
 70
     1
102
RTVSPropertyOp31
 70
     1
102
RTVSPropertyOp32
 70
     1
  0
XRECORD
  5
73
102
{ACAD_REACTORS
330
72
102
}
330
72
100
AcDbXrecord
280
     1
102
RTVSPropertyOp0
 70
     1
102
RTVSPropertyOp1
 70
     1
102
RTVSPropertyOp2
 70
     1
102
RTVSPropertyOp3
 70
     1
102
RTVSPropertyOp4
 70
     1
102
RTVSPropertyOp5
 70
     1
102
RTVSPropertyOp6
 70
     1
102
RTVSPropertyOp7
 70
     1
102
RTVSPropertyOp8
 70
     1
102
RTVSPropertyOp9
 70
     1
102
RTVSPropertyOp10
 70
     1
102
RTVSPropertyOp11
 70
     1
102
RTVSPropertyOp12
 70
     1
102
RTVSPropertyOp13
 70
     1
102
RTVSPropertyOp14
 70
     1
102
RTVSPropertyOp15
 70
     1
102
RTVSPropertyOp16
 70
     1
102
RTVSPropertyOp17
 70
     1
102
RTVSPropertyOp18
 70
     1
102
RTVSPropertyOp19
 70
     1
102
RTVSPropertyOp20
 70
     1
102
RTVSPropertyOp21
 70
     1
102
RTVSPropertyOp22
 70
     1
102
RTVSPropertyOp23
 70
     1
102
RTVSPropertyOp24
 70
     1
102
RTVSPropertyOp25
 70
     1
102
RTVSPropertyOp26
 70
     1
102
RTVSPropertyOp27
 70
     1
102
RTVSPropertyOp28
 70
     1
102
RTVSPropertyOp29
 70
     1
102
RTVSPropertyOp30
 70
     1
102
RTVSPropertyOp31
 70
     1
102
RTVSPropertyOp32
 70
     1
  0
XRECORD
  5
71
102
{ACAD_REACTORS
330
70
102
}
330
70
100
AcDbXrecord
280
     1
102
RTVSPropertyOp0
 70
     1
102
RTVSPropertyOp1
 70
     1
102
RTVSPropertyOp2
 70
     1
102
RTVSPropertyOp3
 70
     1
102
RTVSPropertyOp4
 70
     1
102
RTVSPropertyOp5
 70
     1
102
RTVSPropertyOp6
 70
     1
102
RTVSPropertyOp7
 70
     1
102
RTVSPropertyOp8
 70
     1
102
RTVSPropertyOp9
 70
     1
102
RTVSPropertyOp10
 70
     1
102
RTVSPropertyOp11
 70
     1
102
RTVSPropertyOp12
 70
     1
102
RTVSPropertyOp13
 70
     1
102
RTVSPropertyOp14
 70
     1
102
RTVSPropertyOp15
 70
     1
102
RTVSPropertyOp16
 70
     1
102
RTVSPropertyOp17
 70
     1
102
RTVSPropertyOp18
 70
     1
102
RTVSPropertyOp19
 70
     1
102
RTVSPropertyOp20
 70
     1
102
RTVSPropertyOp21
 70
     1
102
RTVSPropertyOp22
 70
     1
102
RTVSPropertyOp23
 70
     1
102
RTVSPropertyOp24
 70
     1
102
RTVSPropertyOp25
 70
     1
102
RTVSPropertyOp26
 70
     1
102
RTVSPropertyOp27
 70
     1
102
RTVSPropertyOp28
 70
     1
102
RTVSPropertyOp29
 70
     1
102
RTVSPropertyOp30
 70
     1
102
RTVSPropertyOp31
 70
     1
102
RTVSPropertyOp32
 70
     1
  0
XRECORD
  5
75
102
{ACAD_REACTORS
330
74
102
}
330
74
100
AcDbXrecord
280
     1
102
RTVSPropertyOp0
 70
     1
102
RTVSPropertyOp1
 70
     1
102
RTVSPropertyOp2
 70
     1
102
RTVSPropertyOp3
 70
     1
102
RTVSPropertyOp4
 70
     1
102
RTVSPropertyOp5
 70
     1
102
RTVSPropertyOp6
 70
     1
102
RTVSPropertyOp7
 70
     1
102
RTVSPropertyOp8
 70
     1
102
RTVSPropertyOp9
 70
     1
102
RTVSPropertyOp10
 70
     1
102
RTVSPropertyOp11
 70
     1
102
RTVSPropertyOp12
 70
     1
102
RTVSPropertyOp13
 70
     1
102
RTVSPropertyOp14
 70
     1
102
RTVSPropertyOp15
 70
     1
102
RTVSPropertyOp16
 70
     1
102
RTVSPropertyOp17
 70
     1
102
RTVSPropertyOp18
 70
     1
102
RTVSPropertyOp19
 70
     1
102
RTVSPropertyOp20
 70
     1
102
RTVSPropertyOp21
 70
     1
102
RTVSPropertyOp22
 70
     1
102
RTVSPropertyOp23
 70
     1
102
RTVSPropertyOp24
 70
     1
102
RTVSPropertyOp25
 70
     1
102
RTVSPropertyOp26
 70
     1
102
RTVSPropertyOp27
 70
     1
102
RTVSPropertyOp28
 70
     1
102
RTVSPropertyOp29
 70
     1
102
RTVSPropertyOp30
 70
     1
102
RTVSPropertyOp31
 70
     1
102
RTVSPropertyOp32
 70
     1
  0
XRECORD
  5
7D
102
{ACAD_REACTORS
330
7C
102
}
330
7C
100
AcDbXrecord
280
     1
102
RTVSPropertyOp0
 70
     1
102
RTVSPropertyOp1
 70
     1
102
RTVSPropertyOp2
 70
     1
102
RTVSPropertyOp3
 70
     1
102
RTVSPropertyOp4
 70
     1
102
RTVSPropertyOp5
 70
     1
102
RTVSPropertyOp6
 70
     1
102
RTVSPropertyOp7
 70
     1
102
RTVSPropertyOp8
 70
     1
102
RTVSPropertyOp9
 70
     1
102
RTVSPropertyOp10
 70
     1
102
RTVSPropertyOp11
 70
     1
102
RTVSPropertyOp12
 70
     1
102
RTVSPropertyOp13
 70
     1
102
RTVSPropertyOp14
 70
     1
102
RTVSPropertyOp15
 70
     1
102
RTVSPropertyOp16
 70
     1
102
RTVSPropertyOp17
 70
     1
102
RTVSPropertyOp18
 70
     1
102
RTVSPropertyOp19
 70
     1
102
RTVSPropertyOp20
 70
     1
102
RTVSPropertyOp21
 70
     1
102
RTVSPropertyOp22
 70
     1
102
RTVSPropertyOp23
 70
     1
102
RTVSPropertyOp24
 70
     1
102
RTVSPropertyOp25
 70
     1
102
RTVSPropertyOp26
 70
     1
102
RTVSPropertyOp27
 70
     1
102
RTVSPropertyOp28
 70
     1
102
RTVSPropertyOp29
 70
     1
102
RTVSPropertyOp30
 70
     1
102
RTVSPropertyOp31
 70
     1
102
RTVSPropertyOp32
 70
     1
  0
XRECORD
  5
85
102
{ACAD_REACTORS
330
84
102
}
330
84
100
AcDbXrecord
280
     1
102
RTVSPropertyOp0
 70
     1
102
RTVSPropertyOp1
 70
     1
102
RTVSPropertyOp2
 70
     1
102
RTVSPropertyOp3
 70
     1
102
RTVSPropertyOp4
 70
     1
102
RTVSPropertyOp5
 70
     1
102
RTVSPropertyOp6
 70
     1
102
RTVSPropertyOp7
 70
     1
102
RTVSPropertyOp8
 70
     1
102
RTVSPropertyOp9
 70
     1
102
RTVSPropertyOp10
 70
     1
102
RTVSPropertyOp11
 70
     1
102
RTVSPropertyOp12
 70
     1
102
RTVSPropertyOp13
 70
     1
102
RTVSPropertyOp14
 70
     1
102
RTVSPropertyOp15
 70
     1
102
RTVSPropertyOp16
 70
     1
102
RTVSPropertyOp17
 70
     1
102
RTVSPropertyOp18
 70
     1
102
RTVSPropertyOp19
 70
     1
102
RTVSPropertyOp20
 70
     1
102
RTVSPropertyOp21
 70
     1
102
RTVSPropertyOp22
 70
     1
102
RTVSPropertyOp23
 70
     1
102
RTVSPropertyOp24
 70
     1
102
RTVSPropertyOp25
 70
     1
102
RTVSPropertyOp26
 70
     1
102
RTVSPropertyOp27
 70
     1
102
RTVSPropertyOp28
 70
     1
102
RTVSPropertyOp29
 70
     1
102
RTVSPropertyOp30
 70
     1
102
RTVSPropertyOp31
 70
     1
102
RTVSPropertyOp32
 70
     1
  0
XRECORD
  5
79
102
{ACAD_REACTORS
330
78
102
}
330
78
100
AcDbXrecord
280
     1
102
RTVSPropertyOp0
 70
     1
102
RTVSPropertyOp1
 70
     1
102
RTVSPropertyOp2
 70
     1
102
RTVSPropertyOp3
 70
     1
102
RTVSPropertyOp4
 70
     1
102
RTVSPropertyOp5
 70
     1
102
RTVSPropertyOp6
 70
     1
102
RTVSPropertyOp7
 70
     1
102
RTVSPropertyOp8
 70
     1
102
RTVSPropertyOp9
 70
     1
102
RTVSPropertyOp10
 70
     1
102
RTVSPropertyOp11
 70
     1
102
RTVSPropertyOp12
 70
     1
102
RTVSPropertyOp13
 70
     1
102
RTVSPropertyOp14
 70
     1
102
RTVSPropertyOp15
 70
     1
102
RTVSPropertyOp16
 70
     1
102
RTVSPropertyOp17
 70
     1
102
RTVSPropertyOp18
 70
     1
102
RTVSPropertyOp19
 70
     1
102
RTVSPropertyOp20
 70
     1
102
RTVSPropertyOp21
 70
     1
102
RTVSPropertyOp22
 70
     1
102
RTVSPropertyOp23
 70
     1
102
RTVSPropertyOp24
 70
     1
102
RTVSPropertyOp25
 70
     1
102
RTVSPropertyOp26
 70
     1
102
RTVSPropertyOp27
 70
     1
102
RTVSPropertyOp28
 70
     1
102
RTVSPropertyOp29
 70
     1
102
RTVSPropertyOp30
 70
     1
102
RTVSPropertyOp31
 70
     1
102
RTVSPropertyOp32
 70
     1
  0
XRECORD
  5
7B
102
{ACAD_REACTORS
330
7A
102
}
330
7A
100
AcDbXrecord
280
     1
102
RTVSPropertyOp0
 70
     1
102
RTVSPropertyOp1
 70
     1
102
RTVSPropertyOp2
 70
     1
102
RTVSPropertyOp3
 70
     1
102
RTVSPropertyOp4
 70
     1
102
RTVSPropertyOp5
 70
     1
102
RTVSPropertyOp6
 70
     1
102
RTVSPropertyOp7
 70
     1
102
RTVSPropertyOp8
 70
     1
102
RTVSPropertyOp9
 70
     1
102
RTVSPropertyOp10
 70
     1
102
RTVSPropertyOp11
 70
     1
102
RTVSPropertyOp12
 70
     1
102
RTVSPropertyOp13
 70
     1
102
RTVSPropertyOp14
 70
     1
102
RTVSPropertyOp15
 70
     1
102
RTVSPropertyOp16
 70
     1
102
RTVSPropertyOp17
 70
     1
102
RTVSPropertyOp18
 70
     1
102
RTVSPropertyOp19
 70
     1
102
RTVSPropertyOp20
 70
     1
102
RTVSPropertyOp21
 70
     1
102
RTVSPropertyOp22
 70
     1
102
RTVSPropertyOp23
 70
     1
102
RTVSPropertyOp24
 70
     1
102
RTVSPropertyOp25
 70
     1
102
RTVSPropertyOp26
 70
     1
102
RTVSPropertyOp27
 70
     1
102
RTVSPropertyOp28
 70
     1
102
RTVSPropertyOp29
 70
     1
102
RTVSPropertyOp30
 70
     1
102
RTVSPropertyOp31
 70
     1
102
RTVSPropertyOp32
 70
     1
  0
XRECORD
  5
83
102
{ACAD_REACTORS
330
82
102
}
330
82
100
AcDbXrecord
280
     1
102
RTVSPropertyOp0
 70
     1
102
RTVSPropertyOp1
 70
     1
102
RTVSPropertyOp2
 70
     1
102
RTVSPropertyOp3
 70
     1
102
RTVSPropertyOp4
 70
     1
102
RTVSPropertyOp5
 70
     1
102
RTVSPropertyOp6
 70
     1
102
RTVSPropertyOp7
 70
     1
102
RTVSPropertyOp8
 70
     1
102
RTVSPropertyOp9
 70
     1
102
RTVSPropertyOp10
 70
     1
102
RTVSPropertyOp11
 70
     1
102
RTVSPropertyOp12
 70
     1
102
RTVSPropertyOp13
 70
     1
102
RTVSPropertyOp14
 70
     1
102
RTVSPropertyOp15
 70
     1
102
RTVSPropertyOp16
 70
     1
102
RTVSPropertyOp17
 70
     1
102
RTVSPropertyOp18
 70
     1
102
RTVSPropertyOp19
 70
     1
102
RTVSPropertyOp20
 70
     1
102
RTVSPropertyOp21
 70
     1
102
RTVSPropertyOp22
 70
     1
102
RTVSPropertyOp23
 70
     1
102
RTVSPropertyOp24
 70
     1
102
RTVSPropertyOp25
 70
     1
102
RTVSPropertyOp26
 70
     1
102
RTVSPropertyOp27
 70
     1
102
RTVSPropertyOp28
 70
     1
102
RTVSPropertyOp29
 70
     1
102
RTVSPropertyOp30
 70
     1
102
RTVSPropertyOp31
 70
     1
102
RTVSPropertyOp32
 70
     1
  0
XRECORD
  5
67
102
{ACAD_REACTORS
330
66
102
}
330
66
100
AcDbXrecord
280
     1
102
RTVSPropertyOp0
 70
     1
102
RTVSPropertyOp1
 70
     1
102
RTVSPropertyOp2
 70
     1
102
RTVSPropertyOp3
 70
     1
102
RTVSPropertyOp4
 70
     1
102
RTVSPropertyOp5
 70
     1
102
RTVSPropertyOp6
 70
     1
102
RTVSPropertyOp7
 70
     1
102
RTVSPropertyOp8
 70
     1
102
RTVSPropertyOp9
 70
     1
102
RTVSPropertyOp10
 70
     1
102
RTVSPropertyOp11
 70
     1
102
RTVSPropertyOp12
 70
     1
102
RTVSPropertyOp13
 70
     1
102
RTVSPropertyOp14
 70
     1
102
RTVSPropertyOp15
 70
     1
102
RTVSPropertyOp16
 70
     1
102
RTVSPropertyOp17
 70
     1
102
RTVSPropertyOp18
 70
     1
102
RTVSPropertyOp19
 70
     1
102
RTVSPropertyOp20
 70
     1
102
RTVSPropertyOp21
 70
     1
102
RTVSPropertyOp22
 70
     1
102
RTVSPropertyOp23
 70
     1
102
RTVSPropertyOp24
 70
     1
102
RTVSPropertyOp25
 70
     1
102
RTVSPropertyOp26
 70
     1
102
RTVSPropertyOp27
 70
     1
102
RTVSPropertyOp28
 70
     1
102
RTVSPropertyOp29
 70
     1
102
RTVSPropertyOp30
 70
     1
102
RTVSPropertyOp31
 70
     1
102
RTVSPropertyOp32
 70
     1
  0
XRECORD
  5
69
102
{ACAD_REACTORS
330
68
102
}
330
68
100
AcDbXrecord
280
     1
102
RTVSPropertyOp0
 70
     1
102
RTVSPropertyOp1
 70
     1
102
RTVSPropertyOp2
 70
     1
102
RTVSPropertyOp3
 70
     1
102
RTVSPropertyOp4
 70
     1
102
RTVSPropertyOp5
 70
     1
102
RTVSPropertyOp6
 70
     1
102
RTVSPropertyOp7
 70
     1
102
RTVSPropertyOp8
 70
     1
102
RTVSPropertyOp9
 70
     1
102
RTVSPropertyOp10
 70
     1
102
RTVSPropertyOp11
 70
     1
102
RTVSPropertyOp12
 70
     1
102
RTVSPropertyOp13
 70
     1
102
RTVSPropertyOp14
 70
     1
102
RTVSPropertyOp15
 70
     1
102
RTVSPropertyOp16
 70
     1
102
RTVSPropertyOp17
 70
     1
102
RTVSPropertyOp18
 70
     1
102
RTVSPropertyOp19
 70
     1
102
RTVSPropertyOp20
 70
     1
102
RTVSPropertyOp21
 70
     1
102
RTVSPropertyOp22
 70
     1
102
RTVSPropertyOp23
 70
     1
102
RTVSPropertyOp24
 70
     1
102
RTVSPropertyOp25
 70
     1
102
RTVSPropertyOp26
 70
     1
102
RTVSPropertyOp27
 70
     1
102
RTVSPropertyOp28
 70
     1
102
RTVSPropertyOp29
 70
     1
102
RTVSPropertyOp30
 70
     1
102
RTVSPropertyOp31
 70
     1
102
RTVSPropertyOp32
 70
     1
  0
XRECORD
  5
6B
102
{ACAD_REACTORS
330
6A
102
}
330
6A
100
AcDbXrecord
280
     1
102
RTVSPropertyOp0
 70
     1
102
RTVSPropertyOp1
 70
     1
102
RTVSPropertyOp2
 70
     1
102
RTVSPropertyOp3
 70
     1
102
RTVSPropertyOp4
 70
     1
102
RTVSPropertyOp5
 70
     1
102
RTVSPropertyOp6
 70
     1
102
RTVSPropertyOp7
 70
     1
102
RTVSPropertyOp8
 70
     1
102
RTVSPropertyOp9
 70
     1
102
RTVSPropertyOp10
 70
     1
102
RTVSPropertyOp11
 70
     1
102
RTVSPropertyOp12
 70
     1
102
RTVSPropertyOp13
 70
     1
102
RTVSPropertyOp14
 70
     1
102
RTVSPropertyOp15
 70
     1
102
RTVSPropertyOp16
 70
     1
102
RTVSPropertyOp17
 70
     1
102
RTVSPropertyOp18
 70
     1
102
RTVSPropertyOp19
 70
     1
102
RTVSPropertyOp20
 70
     1
102
RTVSPropertyOp21
 70
     1
102
RTVSPropertyOp22
 70
     1
102
RTVSPropertyOp23
 70
     1
102
RTVSPropertyOp24
 70
     1
102
RTVSPropertyOp25
 70
     1
102
RTVSPropertyOp26
 70
     1
102
RTVSPropertyOp27
 70
     1
102
RTVSPropertyOp28
 70
     1
102
RTVSPropertyOp29
 70
     1
102
RTVSPropertyOp30
 70
     1
102
RTVSPropertyOp31
 70
     1
102
RTVSPropertyOp32
 70
     1
  0
XRECORD
  5
6D
102
{ACAD_REACTORS
330
6C
102
}
330
6C
100
AcDbXrecord
280
     1
102
RTVSPropertyOp0
 70
     1
102
RTVSPropertyOp1
 70
     1
102
RTVSPropertyOp2
 70
     1
102
RTVSPropertyOp3
 70
     1
102
RTVSPropertyOp4
 70
     1
102
RTVSPropertyOp5
 70
     1
102
RTVSPropertyOp6
 70
     1
102
RTVSPropertyOp7
 70
     1
102
RTVSPropertyOp8
 70
     1
102
RTVSPropertyOp9
 70
     1
102
RTVSPropertyOp10
 70
     1
102
RTVSPropertyOp11
 70
     1
102
RTVSPropertyOp12
 70
     1
102
RTVSPropertyOp13
 70
     1
102
RTVSPropertyOp14
 70
     1
102
RTVSPropertyOp15
 70
     1
102
RTVSPropertyOp16
 70
     1
102
RTVSPropertyOp17
 70
     1
102
RTVSPropertyOp18
 70
     1
102
RTVSPropertyOp19
 70
     1
102
RTVSPropertyOp20
 70
     1
102
RTVSPropertyOp21
 70
     1
102
RTVSPropertyOp22
 70
     1
102
RTVSPropertyOp23
 70
     1
102
RTVSPropertyOp24
 70
     1
102
RTVSPropertyOp25
 70
     1
102
RTVSPropertyOp26
 70
     1
102
RTVSPropertyOp27
 70
     1
102
RTVSPropertyOp28
 70
     1
102
RTVSPropertyOp29
 70
     1
102
RTVSPropertyOp30
 70
     1
102
RTVSPropertyOp31
 70
     1
102
RTVSPropertyOp32
 70
     1
  0
XRECORD
  5
81
102
{ACAD_REACTORS
330
80
102
}
330
80
100
AcDbXrecord
280
     1
102
RTVSPropertyOp0
 70
     1
102
RTVSPropertyOp1
 70
     1
102
RTVSPropertyOp2
 70
     1
102
RTVSPropertyOp3
 70
     1
102
RTVSPropertyOp4
 70
     1
102
RTVSPropertyOp5
 70
     1
102
RTVSPropertyOp6
 70
     1
102
RTVSPropertyOp7
 70
     1
102
RTVSPropertyOp8
 70
     1
102
RTVSPropertyOp9
 70
     1
102
RTVSPropertyOp10
 70
     1
102
RTVSPropertyOp11
 70
     1
102
RTVSPropertyOp12
 70
     1
102
RTVSPropertyOp13
 70
     1
102
RTVSPropertyOp14
 70
     1
102
RTVSPropertyOp15
 70
     1
102
RTVSPropertyOp16
 70
     1
102
RTVSPropertyOp17
 70
     1
102
RTVSPropertyOp18
 70
     1
102
RTVSPropertyOp19
 70
     1
102
RTVSPropertyOp20
 70
     1
102
RTVSPropertyOp21
 70
     1
102
RTVSPropertyOp22
 70
     1
102
RTVSPropertyOp23
 70
     1
102
RTVSPropertyOp24
 70
     1
102
RTVSPropertyOp25
 70
     1
102
RTVSPropertyOp26
 70
     1
102
RTVSPropertyOp27
 70
     1
102
RTVSPropertyOp28
 70
     1
102
RTVSPropertyOp29
 70
     1
102
RTVSPropertyOp30
 70
     1
102
RTVSPropertyOp31
 70
     1
102
RTVSPropertyOp32
 70
     1
  0
XRECORD
  5
77
102
{ACAD_REACTORS
330
76
102
}
330
76
100
AcDbXrecord
280
     1
102
RTVSPropertyOp0
 70
     1
102
RTVSPropertyOp1
 70
     1
102
RTVSPropertyOp2
 70
     1
102
RTVSPropertyOp3
 70
     1
102
RTVSPropertyOp4
 70
     1
102
RTVSPropertyOp5
 70
     1
102
RTVSPropertyOp6
 70
     1
102
RTVSPropertyOp7
 70
     1
102
RTVSPropertyOp8
 70
     1
102
RTVSPropertyOp9
 70
     1
102
RTVSPropertyOp10
 70
     1
102
RTVSPropertyOp11
 70
     1
102
RTVSPropertyOp12
 70
     1
102
RTVSPropertyOp13
 70
     1
102
RTVSPropertyOp14
 70
     1
102
RTVSPropertyOp15
 70
     1
102
RTVSPropertyOp16
 70
     1
102
RTVSPropertyOp17
 70
     1
102
RTVSPropertyOp18
 70
     1
102
RTVSPropertyOp19
 70
     1
102
RTVSPropertyOp20
 70
     1
102
RTVSPropertyOp21
 70
     1
102
RTVSPropertyOp22
 70
     1
102
RTVSPropertyOp23
 70
     1
102
RTVSPropertyOp24
 70
     1
102
RTVSPropertyOp25
 70
     1
102
RTVSPropertyOp26
 70
     1
102
RTVSPropertyOp27
 70
     1
102
RTVSPropertyOp28
 70
     1
102
RTVSPropertyOp29
 70
     1
102
RTVSPropertyOp30
 70
     1
102
RTVSPropertyOp31
 70
     1
102
RTVSPropertyOp32
 70
     1
  0
XRECORD
  5
7F
102
{ACAD_REACTORS
330
7E
102
}
330
7E
100
AcDbXrecord
280
     1
102
RTVSPropertyOp0
 70
     1
102
RTVSPropertyOp1
 70
     1
102
RTVSPropertyOp2
 70
     1
102
RTVSPropertyOp3
 70
     1
102
RTVSPropertyOp4
 70
     1
102
RTVSPropertyOp5
 70
     1
102
RTVSPropertyOp6
 70
     1
102
RTVSPropertyOp7
 70
     1
102
RTVSPropertyOp8
 70
     1
102
RTVSPropertyOp9
 70
     1
102
RTVSPropertyOp10
 70
     1
102
RTVSPropertyOp11
 70
     1
102
RTVSPropertyOp12
 70
     1
102
RTVSPropertyOp13
 70
     1
102
RTVSPropertyOp14
 70
     1
102
RTVSPropertyOp15
 70
     1
102
RTVSPropertyOp16
 70
     1
102
RTVSPropertyOp17
 70
     1
102
RTVSPropertyOp18
 70
     1
102
RTVSPropertyOp19
 70
     1
102
RTVSPropertyOp20
 70
     1
102
RTVSPropertyOp21
 70
     1
102
RTVSPropertyOp22
 70
     1
102
RTVSPropertyOp23
 70
     1
102
RTVSPropertyOp24
 70
     1
102
RTVSPropertyOp25
 70
     1
102
RTVSPropertyOp26
 70
     1
102
RTVSPropertyOp27
 70
     1
102
RTVSPropertyOp28
 70
     1
102
RTVSPropertyOp29
 70
     1
102
RTVSPropertyOp30
 70
     1
102
RTVSPropertyOp31
 70
     1
102
RTVSPropertyOp32
 70
     1
  0
ENDSEC
  0
EOF
