  0
SECTION
  2
HEADER
  9
$ACADVER
  1
AC1021
  9
$ACADMAINTVER
 70
    25
  9
$DWGCODEPAGE
  3
ANSI_1252
  9
$INSBASE
 10
0.0
 20
0.0
 30
0.0
  9
$EXTMIN
 10
66.1063
 20
-114.8909
 30
0.0
  9
$EXTMAX
 10
196.0129
 20
131.741
 30
0.0
  9
$LIMMIN
 10
0.0
 20
0.0
  9
$LIMMAX
 10
12.0
 20
9.0
  9
$ORTHOMODE
 70
     0
  9
$REGENMODE
 70
     1
  9
$FILLMODE
 70
     1
  9
$QTEXTMODE
 70
     0
  9
$MIRRTEXT
 70
     1
  9
$LTSCALE
 40
1.0
  9
$ATTMODE
 70
     1
  9
$TEXTSIZE
 40
0.2
  9
$TRACEWID
 40
0.05
  9
$TEXTSTYLE
  7
Standard
  9
$CLAYER
  8
0
  9
$CELTYPE
  6
ByLayer
  9
$CECOLOR
 62
   256
  9
$CELTSCALE
 40
1.0
  9
$DISPSILH
 70
     0
  9
$DIMSCALE
 40
1.0
  9
$DIMASZ
 40
0.18
  9
$DIMEXO
 40
0.0625
  9
$DIMDLI
 40
0.38
  9
$DIMRND
 40
0.0
  9
$DIMDLE
 40
0.0
  9
$DIMEXE
 40
0.18
  9
$DIMTP
 40
0.0
  9
$DIMTM
 40
0.0
  9
$DIMTXT
 40
0.18
  9
$DIMCEN
 40
0.09
  9
$DIMTSZ
 40
0.0
  9
$DIMTOL
 70
     0
  9
$DIMLIM
 70
     0
  9
$DIMTIH
 70
     1
  9
$DIMTOH
 70
     1
  9
$DIMSE1
 70
     0
  9
$DIMSE2
 70
     0
  9
$DIMTAD
 70
     0
  9
$DIMZIN
 70
     0
  9
$DIMBLK
  1

  9
$DIMASO
 70
     1
  9
$DIMSHO
 70
     1
  9
$DIMPOST
  1

  9
$DIMAPOST
  1

  9
$DIMALT
 70
     0
  9
$DIMALTD
 70
     2
  9
$DIMALTF
 40
25.4
  9
$DIMLFAC
 40
1.0
  9
$DIMTOFL
 70
     0
  9
$DIMTVP
 40
0.0
  9
$DIMTIX
 70
     0
  9
$DIMSOXD
 70
     0
  9
$DIMSAH
 70
     0
  9
$DIMBLK1
  1

  9
$DIMBLK2
  1

  9
$DIMSTYLE
  2
Standard
  9
$DIMCLRD
 70
     0
  9
$DIMCLRE
 70
     0
  9
$DIMCLRT
 70
     0
  9
$DIMTFAC
 40
1.0
  9
$DIMGAP
 40
0.09
  9
$DIMJUST
 70
     0
  9
$DIMSD1
 70
     0
  9
$DIMSD2
 70
     0
  9
$DIMTOLJ
 70
     1
  9
$DIMTZIN
 70
     0
  9
$DIMALTZ
 70
     0
  9
$DIMALTTZ
 70
     0
  9
$DIMUPT
 70
     0
  9
$DIMDEC
 70
     4
  9
$DIMTDEC
 70
     4
  9
$DIMALTU
 70
     2
  9
$DIMALTTD
 70
     2
  9
$DIMTXSTY
  7
Standard
  9
$DIMAUNIT
 70
     0
  9
$DIMADEC
 70
     0
  9
$DIMALTRND
 40
0.0
  9
$DIMAZIN
 70
     0
  9
$DIMDSEP
 70
    46
  9
$DIMATFIT
 70
     3
  9
$DIMFRAC
 70
     0
  9
$DIMLDRBLK
  1

  9
$DIMLUNIT
 70
     2
  9
$DIMLWD
 70
    -2
  9
$DIMLWE
 70
    -2
  9
$DIMTMOVE
 70
     0
  9
$DIMFXL
 40
1.0
  9
$DIMFXLON
 70
     0
  9
$DIMJOGANG
 40
0.7853981633974483
  9
$DIMTFILL
 70
     0
  9
$DIMTFILLCLR
 70
     0
  9
$DIMARCSYM
 70
     0
  9
$DIMLTYPE
  6

  9
$DIMLTEX1
  6

  9
$DIMLTEX2
  6

  9
$LUNITS
 70
     2
  9
$LUPREC
 70
     4
  9
$SKETCHINC
 40
0.1
  9
$FILLETRAD
 40
0.5
  9
$AUNITS
 70
     0
  9
$AUPREC
 70
     0
  9
$MENU
  1
.
  9
$ELEVATION
 40
0.0
  9
$PELEVATION
 40
0.0
  9
$THICKNESS
 40
0.0
  9
$LIMCHECK
 70
     0
  9
$CHAMFERA
 40
0.5
  9
$CHAMFERB
 40
0.5
  9
$CHAMFERC
 40
1.0
  9
$CHAMFERD
 40
0.0
  9
$SKPOLY
 70
     0
  9
$TDCREATE
 40
2458492.619807442
  9
$TDUCREATE
 40
2458492.619807442
  9
$TDUPDATE
 40
2458492.619807662
  9
$TDUUPDATE
 40
2458492.619807662
  9
$TDINDWG
 40
0.0000000116
  9
$TDUSRTIMER
 40
0.0000000116
  9
$USRTIMER
 70
     1
  9
$ANGBASE
 50
0.0
  9
$ANGDIR
 70
     0
  9
$PDMODE
 70
     0
  9
$PDSIZE
 40
0.0
  9
$PLINEWID
 40
0.0
  9
$SPLFRAME
 70
     0
  9
$SPLINETYPE
 70
     6
  9
$SPLINESEGS
 70
     8
  9
$HANDSEED
  5
BE
  9
$SURFTAB1
 70
     6
  9
$SURFTAB2
 70
     6
  9
$SURFTYPE
 70
     6
  9
$SURFU
 70
     6
  9
$SURFV
 70
     6
  9
$UCSBASE
  2

  9
$UCSNAME
  2

  9
$UCSORG
 10
0.0
 20
0.0
 30
0.0
  9
$UCSXDIR
 10
1.0
 20
0.0
 30
0.0
  9
$UCSYDIR
 10
0.0
 20
1.0
 30
0.0
  9
$UCSORTHOREF
  2

  9
$UCSORTHOVIEW
 70
     0
  9
$UCSORGTOP
 10
0.0
 20
0.0
 30
0.0
  9
$UCSORGBOTTOM
 10
0.0
 20
0.0
 30
0.0
  9
$UCSORGLEFT
 10
0.0
 20
0.0
 30
0.0
  9
$UCSORGRIGHT
 10
0.0
 20
0.0
 30
0.0
  9
$UCSORGFRONT
 10
0.0
 20
0.0
 30
0.0
  9
$UCSORGBACK
 10
0.0
 20
0.0
 30
0.0
  9
$PUCSBASE
  2

  9
$PUCSNAME
  2

  9
$PUCSORG
 10
0.0
 20
0.0
 30
0.0
  9
$PUCSXDIR
 10
1.0
 20
0.0
 30
0.0
  9
$PUCSYDIR
 10
0.0
 20
1.0
 30
0.0
  9
$PUCSORTHOREF
  2

  9
$PUCSORTHOVIEW
 70
     0
  9
$PUCSORGTOP
 10
0.0
 20
0.0
 30
0.0
  9
$PUCSORGBOTTOM
 10
0.0
 20
0.0
 30
0.0
  9
$PUCSORGLEFT
 10
0.0
 20
0.0
 30
0.0
  9
$PUCSORGRIGHT
 10
0.0
 20
0.0
 30
0.0
  9
$PUCSORGFRONT
 10
0.0
 20
0.0
 30
0.0
  9
$PUCSORGBACK
 10
0.0
 20
0.0
 30
0.0
  9
$USERI1
 70
     0
  9
$USERI2
 70
     0
  9
$USERI3
 70
     0
  9
$USERI4
 70
     0
  9
$USERI5
 70
     0
  9
$USERR1
 40
0.0
  9
$USERR2
 40
0.0
  9
$USERR3
 40
0.0
  9
$USERR4
 40
0.0
  9
$USERR5
 40
0.0
  9
$WORLDVIEW
 70
     1
  9
$SHADEDGE
 70
     3
  9
$SHADEDIF
 70
    70
  9
$TILEMODE
 70
     1
  9
$MAXACTVP
 70
    64
  9
$PINSBASE
 10
0.0
 20
0.0
 30
0.0
  9
$PLIMCHECK
 70
     0
  9
$PEXTMIN
 10
1.000000000000000E+20
 20
1.000000000000000E+20
 30
1.000000000000000E+20
  9
$PEXTMAX
 10
-1.000000000000000E+20
 20
-1.000000000000000E+20
 30
-1.000000000000000E+20
  9
$PLIMMIN
 10
0.0
 20
0.0
  9
$PLIMMAX
 10
12.0
 20
9.0
  9
$UNITMODE
 70
     0
  9
$VISRETAIN
 70
     1
  9
$PLINEGEN
 70
     0
  9
$PSLTSCALE
 70
     1
  9
$TREEDEPTH
 70
  3020
  9
$CMLSTYLE
  2
Standard
  9
$CMLJUST
 70
     0
  9
$CMLSCALE
 40
1.0
  9
$PROXYGRAPHICS
 70
     1
  9
$MEASUREMENT
 70
     0
  9
$CELWEIGHT
370
    -1
  9
$ENDCAPS
280
     0
  9
$JOINSTYLE
280
     0
  9
$LWDISPLAY
290
     0
  9
$INSUNITS
 70
     4
  9
$HYPERLINKBASE
  1

  9
$STYLESHEET
  1

  9
$XEDIT
290
     1
  9
$CEPSNTYPE
380
     0
  9
$PSTYLEMODE
290
     1
  9
$FINGERPRINTGUID
  2
{C8EC74E0-8EBC-4AAD-8798-0EC1F6C5BB77}
  9
$VERSIONGUID
  2
{FAEB1C32-E019-11D5-929B-00C0DF256EC4}
  9
$EXTNAMES
290
     1
  9
$PSVPSCALE
 40
0.0
  9
$OLESTARTUP
290
     0
  9
$SORTENTS
280
   127
  9
$INDEXCTL
280
     0
  9
$HIDETEXT
280
     1
  9
$XCLIPFRAME
290
     0
  9
$HALOGAP
280
     0
  9
$OBSCOLOR
 70
   257
  9
$OBSLTYPE
280
     0
  9
$INTERSECTIONDISPLAY
280
     0
  9
$INTERSECTIONCOLOR
 70
   257
  9
$DIMASSOC
280
     2
  9
$PROJECTNAME
  1

  9
$CAMERADISPLAY
290
     0
  9
$LENSLENGTH
 40
50.0
  9
$CAMERAHEIGHT
 40
0.0
  9
$STEPSPERSEC
 40
2.0
  9
$STEPSIZE
 40
6.0
  9
$3DDWFPREC
 40
2.0
  9
$PSOLWIDTH
 40
0.25
  9
$PSOLHEIGHT
 40
4.0
  9
$LOFTANG1
 40
1.570796326794897
  9
$LOFTANG2
 40
1.570796326794897
  9
$LOFTMAG1
 40
0.0
  9
$LOFTMAG2
 40
0.0
  9
$LOFTPARAM
 70
     7
  9
$LOFTNORMALS
280
     1
  9
$LATITUDE
 40
37.795
  9
$LONGITUDE
 40
-122.394
  9
$NORTHDIRECTION
 40
0.0
  9
$TIMEZONE
 70
 -8000
  9
$LIGHTGLYPHDISPLAY
280
     1
  9
$TILEMODELIGHTSYNCH
280
     1
  9
$SOLIDHIST
280
     1
  9
$SHOWHIST
280
     1
  9
$DWFFRAME
280
     2
  9
$DGNFRAME
280
     2
  9
$REALWORLDSCALE
290
     1
  9
$INTERFERECOLOR
 62
   256
  9
$CSHADOW
280
     0
  9
$SHADOWPLANELOCATION
 40
0.0
  0
ENDSEC
  0
SECTION
  2
CLASSES
  0
CLASS
  1
ACDBDICTIONARYWDFLT
  2
AcDbDictionaryWithDefault
  3
ObjectDBX Classes
 90
        0
 91
        4
280
     0
281
     0
  0
CLASS
  1
VISUALSTYLE
  2
AcDbVisualStyle
  3
ObjectDBX Classes
 90
     4095
 91
        4
280
     0
281
     0
  0
CLASS
  1
MATERIAL
  2
AcDbMaterial
  3
ObjectDBX Classes
 90
     1153
 91
        4
280
     0
281
     0
  0
ENDSEC
  0
SECTION
  2
TABLES
  0
TABLE
  2
VPORT
  5
8
330
0
100
AcDbSymbolTable
 70
     1
  0
VPORT
  5
29
330
8
100
AcDbSymbolTableRecord
100
AcDbViewportTableRecord
  2
*Active
 70
     0
 10
0.0
 20
0.0
 11
1.0
 21
1.0
 12
10.42990654205607
 22
4.5
 13
0.0
 23
0.0
 14
0.5
 24
0.5
 15
0.5
 25
0.5
 16
0.0
 26
0.0
 36
1.0
 17
0.0
 27
0.0
 37
0.0
 40
9.0
 41
1.972972972850329
 42
50.0
 43
0.0
 44
0.0
 50
0.0
 51
0.0
 71
     0
 72
   100
 73
     1
 74
     3
 75
     0
 76
     0
 77
     0
 78
     0
281
     0
 65
     1
110
0.0
120
0.0
130
0.0
111
1.0
121
0.0
131
0.0
112
0.0
122
1.0
132
0.0
 79
     0
146
0.0
 60
     3
 61
     5
292
     1
282
     1
141
0.0
142
0.0
 63
   250
  0
ENDTAB
  0
TABLE
  2
LTYPE
  5
5
330
0
100
AcDbSymbolTable
 70
     1
  0
LTYPE
  5
14
330
5
100
AcDbSymbolTableRecord
100
AcDbLinetypeTableRecord
  2
ByBlock
 70
     0
  3

 72
    65
 73
     0
 40
0.0
  0
LTYPE
  5
15
330
5
100
AcDbSymbolTableRecord
100
AcDbLinetypeTableRecord
  2
ByLayer
 70
     0
  3

 72
    65
 73
     0
 40
0.0
  0
LTYPE
  5
16
330
5
100
AcDbSymbolTableRecord
100
AcDbLinetypeTableRecord
  2
Continuous
 70
     0
  3
Solid line
 72
    65
 73
     0
 40
0.0
  0
ENDTAB
  0
TABLE
  2
LAYER
  5
2
330
0
100
AcDbSymbolTable
 70
     3
  0
LAYER
  5
10
330
2
100
AcDbSymbolTableRecord
100
AcDbLayerTableRecord
  2
0
 70
     0
 62
     7
  6
Continuous
370
    -3
390
F
347
3E
  0
LAYER
  5
40
330
2
100
AcDbSymbolTableRecord
100
AcDbLayerTableRecord
  2
layer 1
 70
     0
 62
     7
  6
Continuous
370
    -3
390
F
347
3E
  0
LAYER
  5
9B
330
2
100
AcDbSymbolTableRecord
100
AcDbLayerTableRecord
  2
Master Guides
 70
     0
 62
     7
  6
Continuous
370
    -3
390
F
347
3E
  0
ENDTAB
  0
TABLE
  2
STYLE
  5
3
330
0
100
AcDbSymbolTable
 70
     1
  0
STYLE
  5
11
330
3
100
AcDbSymbolTableRecord
100
AcDbTextStyleTableRecord
  2
Standard
 70
     0
 40
0.0
 41
1.0
 50
0.0
 71
     0
 42
0.2
  3
txt
  4

  0
ENDTAB
  0
TABLE
  2
VIEW
  5
6
330
0
100
AcDbSymbolTable
 70
     0
  0
ENDTAB
  0
TABLE
  2
UCS
  5
7
330
0
100
AcDbSymbolTable
 70
     0
  0
ENDTAB
  0
TABLE
  2
APPID
  5
9
330
0
100
AcDbSymbolTable
 70
     2
  0
APPID
  5
12
330
9
100
AcDbSymbolTableRecord
100
AcDbRegAppTableRecord
  2
ACAD
 70
     0
  0
APPID
  5
3F
330
9
100
AcDbSymbolTableRecord
100
AcDbRegAppTableRecord
  2
ODA
 70
     0
  0
ENDTAB
  0
TABLE
  2
DIMSTYLE
  5
A
330
0
100
AcDbSymbolTable
 70
     1
100
AcDbDimStyleTable
  0
DIMSTYLE
105
27
330
A
100
AcDbSymbolTableRecord
100
AcDbDimStyleTableRecord
  2
Standard
 70
     0
178
     0
340
11
  0
ENDTAB
  0
TABLE
  2
BLOCK_RECORD
  5
1
330
0
100
AcDbSymbolTable
 70
     1
  0
BLOCK_RECORD
  5
1F
330
1
100
AcDbSymbolTableRecord
100
AcDbBlockTableRecord
  2
*Model_Space
340
22
 70
     0
280
     1
281
     0
  0
BLOCK_RECORD
  5
1B
330
1
100
AcDbSymbolTableRecord
100
AcDbBlockTableRecord
  2
*Paper_Space
340
1E
 70
     0
280
     1
281
     0
  0
BLOCK_RECORD
  5
23
330
1
100
AcDbSymbolTableRecord
100
AcDbBlockTableRecord
  2
*Paper_Space0
340
26
 70
     0
280
     1
281
     0
  0
ENDTAB
  0
ENDSEC
  0
SECTION
  2
BLOCKS
  0
BLOCK
  5
20
330
1F
100
AcDbEntity
  8
0
100
AcDbBlockBegin
  2
*Model_Space
 70
     0
 10
0.0
 20
0.0
 30
0.0
  3
*Model_Space
  1

  0
ENDBLK
  5
21
330
1F
100
AcDbEntity
  8
0
100
AcDbBlockEnd
  0
BLOCK
  5
1C
330
1B
100
AcDbEntity
 67
     1
  8
0
100
AcDbBlockBegin
  2
*Paper_Space
 70
     0
 10
0.0
 20
0.0
 30
0.0
  3
*Paper_Space
  1

  0
ENDBLK
  5
1D
330
1B
100
AcDbEntity
 67
     1
  8
0
100
AcDbBlockEnd
  0
BLOCK
  5
24
330
23
100
AcDbEntity
  8
0
100
AcDbBlockBegin
  2
*Paper_Space0
 70
     0
 10
0.0
 20
0.0
 30
0.0
  3
*Paper_Space0
  1

  0
ENDBLK
  5
25
330
23
100
AcDbEntity
  8
0
100
AcDbBlockEnd
  0
ENDSEC
  0
SECTION
  2
ENTITIES
  0
SPLINE
  5
41
330
1F
100
AcDbEntity
  8
layer 1
 62
   250
100
AcDbSpline
210
0.0
220
0.0
230
1.0
 70
    11
 71
     3
 72
    20
 73
    16
 74
     0
 42
0.0000000001
 43
0.0000000001
 12
1.0
 22
0.0
 32
0.0
 13
1.0
 23
0.0
 33
0.0
 40
0.0
 40
0.0
 40
0.0
 40
0.0
 40
0.2
 40
0.2
 40
0.2
 40
0.2
 40
0.4
 40
0.4
 40
0.4
 40
0.4
 40
0.6
 40
0.6
 40
0.6
 40
0.6
 40
1.0
 40
1.0
 40
1.0
 40
1.0
 10
66.1063
 20
-114.8909
 30
0.0
 10
66.1063
 20
-114.8909
 30
0.0
 10
66.1063
 20
131.741
 30
0.0
 10
66.1063
 20
131.741
 30
0.0
 10
66.1063
 20
131.741
 30
0.0
 10
66.1063
 20
131.741
 30
0.0
 10
196.0129
 20
131.741
 30
0.0
 10
196.0129
 20
131.741
 30
0.0
 10
196.0129
 20
131.741
 30
0.0
 10
196.0129
 20
131.741
 30
0.0
 10
196.0129
 20
-114.8909
 30
0.0
 10
196.0129
 20
-114.8909
 30
0.0
 10
196.0129
 20
-114.8909
 30
0.0
 10
196.0129
 20
-114.8909
 30
0.0
 10
66.1063
 20
-114.8909
 30
0.0
 10
66.1063
 20
-114.8909
 30
0.0
  0
SPLINE
  5
42
330
1F
100
AcDbEntity
  8
layer 1
 62
     7
100
AcDbSpline
210
0.0
220
0.0
230
1.0
 70
    11
 71
     3
 72
    24
 73
    20
 74
     0
 42
0.0000000001
 43
0.0000000001
 12
1.0
 22
0.0
 32
0.0
 13
1.0
 23
0.0
 33
0.0
 40
0.0
 40
0.0
 40
0.0
 40
0.0
 40
0.1666666666666667
 40
0.1666666666666667
 40
0.1666666666666667
 40
0.1666666666666667
 40
0.3333333333333333
 40
0.3333333333333333
 40
0.3333333333333333
 40
0.3333333333333333
 40
0.5
 40
0.5
 40
0.5
 40
0.5
 40
0.6666666666666666
 40
0.6666666666666666
 40
0.6666666666666666
 40
0.6666666666666666
 40
1.0
 40
1.0
 40
1.0
 40
1.0
 10
190.0272
 20
-96.9305
 30
0.0
 10
190.356
 20
-97.6823
 30
0.0
 10
190.6851
 20
-98.4344
 30
0.0
 10
191.014
 20
-99.1861
 30
0.0
 10
191.014
 20
-99.1861
 30
0.0
 10
191.0375
 20
-99.1861
 30
0.0
 10
191.061
 20
-99.1861
 30
0.0
 10
191.0843
 20
-99.1861
 30
0.0
 10
191.0843
 20
-99.1861
 30
0.0
 10
191.0843
 20
-97.4946
 30
0.0
 10
191.0843
 20
-95.8025
 30
0.0
 10
191.0843
 20
-94.1111
 30
0.0
 10
191.0843
 20
-94.1111
 30
0.0
 10
191.0375
 20
-94.1346
 30
0.0
 10
190.9905
 20
-94.1581
 30
0.0
 10
190.9434
 20
-94.1816
 30
0.0
 10
190.9434
 20
-94.1816
 30
0.0
 10
190.5317
 20
-95.1976
 30
0.0
 10
190.0323
 20
-95.5251
 30
0.0
 10
190.0272
 20
-96.9305
 30
0.0
  0
SPLINE
  5
43
330
1F
100
AcDbEntity
  8
layer 1
 62
     7
100
AcDbSpline
210
0.0
220
0.0
230
1.0
 70
    11
 71
     3
 72
    20
 73
    16
 74
     0
 42
0.0000000001
 43
0.0000000001
 12
1.0
 22
0.0
 32
0.0
 13
1.0
 23
0.0
 33
0.0
 40
0.0
 40
0.0
 40
0.0
 40
0.0
 40
0.2
 40
0.2
 40
0.2
 40
0.2
 40
0.4
 40
0.4
 40
0.4
 40
0.4
 40
0.6
 40
0.6
 40
0.6
 40
0.6
 40
1.0
 40
1.0
 40
1.0
 40
1.0
 10
191.0843
 20
37.769
 30
0.0
 10
190.4971
 20
37.816
 30
0.0
 10
189.9096
 20
37.8631
 30
0.0
 10
189.3222
 20
37.9099
 30
0.0
 10
189.3222
 20
37.9099
 30
0.0
 10
188.9143
 20
36.497
 30
0.0
 10
187.4268
 20
36.5298
 30
0.0
 10
187.1372
 20
35.725
 30
0.0
 10
187.1372
 20
35.725
 30
0.0
 10
188.0482
 20
33.8007
 30
0.0
 10
189.3222
 20
30.9769
 30
0.0
 10
191.0843
 20
29.6632
 30
0.0
 10
191.0843
 20
29.6632
 30
0.0
 10
191.0843
 20
32.3649
 30
0.0
 10
191.0843
 20
35.0673
 30
0.0
 10
191.0843
 20
37.769
 30
0.0
  0
SPLINE
  5
44
330
1F
100
AcDbEntity
  8
layer 1
 62
     7
100
AcDbSpline
210
0.0
220
0.0
230
1.0
 70
    11
 71
     3
 72
    40
 73
    36
 74
     0
 42
0.0000000001
 43
0.0000000001
 12
1.0
 22
0.0
 32
0.0
 13
1.0
 23
0.0
 33
0.0
 40
0.0
 40
0.0
 40
0.0
 40
0.0
 40
0.1
 40
0.1
 40
0.1
 40
0.1
 40
0.2
 40
0.2
 40
0.2
 40
0.2
 40
0.3
 40
0.3
 40
0.3
 40
0.3
 40
0.4
 40
0.4
 40
0.4
 40
0.4
 40
0.5
 40
0.5
 40
0.5
 40
0.5
 40
0.6
 40
0.6
 40
0.6
 40
0.6
 40
0.7
 40
0.7
 40
0.7
 40
0.7
 40
0.8
 40
0.8
 40
0.8
 40
0.8
 40
1.0
 40
1.0
 40
1.0
 40
1.0
 10
189.7452
 20
-83.2561
 30
0.0
 10
190.3676
 20
-83.2475
 30
0.0
 10
190.7177
 20
-83.3859
 30
0.0
 10
191.0843
 20
-83.6086
 30
0.0
 10
191.0843
 20
-83.6086
 30
0.0
 10
191.061
 20
-71.627
 30
0.0
 10
191.0375
 20
-59.6421
 30
0.0
 10
191.014
 20
-47.6605
 30
0.0
 10
191.014
 20
-47.6605
 30
0.0
 10
190.8016
 20
-49.6123
 30
0.0
 10
189.4143
 20
-51.9862
 30
0.0
 10
188.6879
 20
-54.2157
 30
0.0
 10
188.6879
 20
-54.2157
 30
0.0
 10
188.0065
 20
-57.3639
 30
0.0
 10
187.3252
 20
-60.5128
 30
0.0
 10
186.6438
 20
-63.6609
 30
0.0
 10
186.6438
 20
-63.6609
 30
0.0
 10
185.4179
 20
-69.36
 30
0.0
 10
185.8037
 20
-78.4938
 30
0.0
 10
187.1372
 20
-83.8904
 30
0.0
 10
187.1372
 20
-83.8904
 30
0.0
 10
187.7245
 20
-86.0754
 30
0.0
 10
188.3121
 20
-88.261
 30
0.0
 10
188.8994
 20
-90.4458
 30
0.0
 10
188.8994
 20
-90.4458
 30
0.0
 10
188.9464
 20
-90.4222
 30
0.0
 10
188.9933
 20
-90.3987
 30
0.0
 10
189.0403
 20
-90.3752
 30
0.0
 10
189.0403
 20
-90.3752
 30
0.0
 10
189.382
 20
-89.4026
 30
0.0
 10
189.9258
 20
-88.6559
 30
0.0
 10
190.1682
 20
-87.4148
 30
0.0
 10
190.1682
 20
-87.4148
 30
0.0
 10
190.4899
 20
-85.7659
 30
0.0
 10
189.7211
 20
-84.3213
 30
0.0
 10
189.7452
 20
-83.2561
 30
0.0
  0
SPLINE
  5
45
330
1F
100
AcDbEntity
  8
layer 1
 62
     7
100
AcDbSpline
210
0.0
220
0.0
230
1.0
 70
    11
 71
     3
 72
    32
 73
    28
 74
     0
 42
0.0000000001
 43
0.0000000001
 12
1.0
 22
0.0
 32
0.0
 13
1.0
 23
0.0
 33
0.0
 40
0.0
 40
0.0
 40
0.0
 40
0.0
 40
0.125
 40
0.125
 40
0.125
 40
0.125
 40
0.25
 40
0.25
 40
0.25
 40
0.25
 40
0.375
 40
0.375
 40
0.375
 40
0.375
 40
0.5
 40
0.5
 40
0.5
 40
0.5
 40
0.625
 40
0.625
 40
0.625
 40
0.625
 40
0.75
 40
0.75
 40
0.75
 40
0.75
 40
1.0
 40
1.0
 40
1.0
 40
1.0
 10
184.5998
 20
98.0349
 30
0.0
 10
186.0084
 20
97.2945
 30
0.0
 10
187.8984
 20
96.321
 30
0.0
 10
188.8994
 20
95.145
 30
0.0
 10
188.8994
 20
95.145
 30
0.0
 10
189.6276
 20
94.1818
 30
0.0
 10
190.3561
 20
93.2182
 30
0.0
 10
191.0843
 20
92.255
 30
0.0
 10
191.0843
 20
92.255
 30
0.0
 10
191.0843
 20
103.1088
 30
0.0
 10
191.0843
 20
113.9659
 30
0.0
 10
191.0843
 20
124.8198
 30
0.0
 10
191.0843
 20
124.8198
 30
0.0
 10
190.0351
 20
124.6074
 30
0.0
 10
189.3297
 20
123.7732
 30
0.0
 10
188.6879
 20
123.1282
 30
0.0
 10
188.6879
 20
123.1282
 30
0.0
 10
183.2319
 20
117.6434
 30
0.0
 10
188.5151
 20
113.1616
 30
0.0
 10
187.4191
 20
106.4933
 30
0.0
 10
187.4191
 20
106.4933
 30
0.0
 10
187.0901
 20
104.9663
 30
0.0
 10
186.7612
 20
103.4388
 30
0.0
 10
186.4323
 20
101.9117
 30
0.0
 10
186.4323
 20
101.9117
 30
0.0
 10
185.8215
 20
100.6195
 30
0.0
 10
185.2105
 20
99.327
 30
0.0
 10
184.5998
 20
98.0349
 30
0.0
  0
SPLINE
  5
46
330
1F
100
AcDbEntity
  8
layer 1
 62
     7
100
AcDbSpline
210
0.0
220
0.0
230
1.0
 70
    11
 71
     3
 72
    48
 73
    44
 74
     0
 42
0.0000000001
 43
0.0000000001
 12
1.0
 22
0.0
 32
0.0
 13
1.0
 23
0.0
 33
0.0
 40
0.0
 40
0.0
 40
0.0
 40
0.0
 40
0.0833333333333333
 40
0.0833333333333333
 40
0.0833333333333333
 40
0.0833333333333333
 40
0.1666666666666667
 40
0.1666666666666667
 40
0.1666666666666667
 40
0.1666666666666667
 40
0.25
 40
0.25
 40
0.25
 40
0.25
 40
0.3333333333333333
 40
0.3333333333333333
 40
0.3333333333333333
 40
0.3333333333333333
 40
0.4166666666666667
 40
0.4166666666666667
 40
0.4166666666666667
 40
0.4166666666666667
 40
0.5
 40
0.5
 40
0.5
 40
0.5
 40
0.5833333333333334
 40
0.5833333333333334
 40
0.5833333333333334
 40
0.5833333333333334
 40
0.6666666666666666
 40
0.6666666666666666
 40
0.6666666666666666
 40
0.6666666666666666
 40
0.75
 40
0.75
 40
0.75
 40
0.75
 40
0.8333333333333334
 40
0.8333333333333334
 40
0.8333333333333334
 40
0.8333333333333334
 40
1.0
 40
1.0
 40
1.0
 40
1.0
 10
182.4851
 20
51.8664
 30
0.0
 10
186.0941
 20
51.8461
 30
0.0
 10
186.2668
 20
49.5897
 30
0.0
 10
187.983
 20
47.7781
 30
0.0
 10
187.983
 20
47.7781
 30
0.0
 10
188.8319
 20
46.882
 30
0.0
 10
189.9586
 20
46.9269
 30
0.0
 10
190.45
 20
45.593
 30
0.0
 10
190.45
 20
45.593
 30
0.0
 10
190.9781
 20
44.1595
 30
0.0
 10
189.9405
 20
42.1516
 30
0.0
 10
190.2385
 20
40.5885
 30
0.0
 10
190.2385
 20
40.5885
 30
0.0
 10
190.5204
 20
40.4711
 30
0.0
 10
190.8025
 20
40.3535
 30
0.0
 10
191.0843
 20
40.236
 30
0.0
 10
191.0843
 20
40.236
 30
0.0
 10
191.061
 20
51.9591
 30
0.0
 10
191.0375
 20
63.6856
 30
0.0
 10
191.014
 20
75.4088
 30
0.0
 10
191.014
 20
75.4088
 30
0.0
 10
191.014
 20
75.3618
 30
0.0
 10
191.014
 20
75.3147
 30
0.0
 10
191.014
 20
75.2679
 30
0.0
 10
191.014
 20
75.2679
 30
0.0
 10
190.1179
 20
74.5704
 30
0.0
 10
189.6843
 20
73.5484
 30
0.0
 10
189.0403
 20
72.5893
 30
0.0
 10
189.0403
 20
72.5893
 30
0.0
 10
188.1399
 20
71.2482
 30
0.0
 10
187.2419
 20
69.8361
 30
0.0
 10
186.5029
 20
68.2897
 30
0.0
 10
186.5029
 20
68.2897
 30
0.0
 10
185.9296
 20
67.0902
 30
0.0
 10
185.6641
 20
65.7306
 30
0.0
 10
185.0226
 20
64.4833
 30
0.0
 10
185.0226
 20
64.4833
 30
0.0
 10
184.0965
 20
62.6831
 30
0.0
 10
184.3389
 20
60.5012
 30
0.0
 10
183.6834
 20
58.4921
 30
0.0
 10
183.6834
 20
58.4921
 30
0.0
 10
183.0572
 20
56.573
 30
0.0
 10
182.548
 20
54.1455
 30
0.0
 10
182.4851
 20
51.8664
 30
0.0
  0
SPLINE
  5
47
330
1F
100
AcDbEntity
  8
layer 1
 62
     7
100
AcDbSpline
210
0.0
220
0.0
230
1.0
 70
    11
 71
     3
 72
    28
 73
    24
 74
     0
 42
0.0000000001
 43
0.0000000001
 12
1.0
 22
0.0
 32
0.0
 13
1.0
 23
0.0
 33
0.0
 40
0.0
 40
0.0
 40
0.0
 40
0.0
 40
0.1428571428571428
 40
0.1428571428571428
 40
0.1428571428571428
 40
0.1428571428571428
 40
0.2857142857142857
 40
0.2857142857142857
 40
0.2857142857142857
 40
0.2857142857142857
 40
0.4285714285714285
 40
0.4285714285714285
 40
0.4285714285714285
 40
0.4285714285714285
 40
0.5714285714285714
 40
0.5714285714285714
 40
0.5714285714285714
 40
0.5714285714285714
 40
0.7142857142857143
 40
0.7142857142857143
 40
0.7142857142857143
 40
0.7142857142857143
 40
1.0
 40
1.0
 40
1.0
 40
1.0
 10
181.4982
 20
-48.013
 30
0.0
 10
183.1514
 20
-49.4705
 30
0.0
 10
183.1462
 20
-52.086
 30
0.0
 10
184.1768
 20
-54.2157
 30
0.0
 10
184.1768
 20
-54.2157
 30
0.0
 10
184.2003
 20
-54.1688
 30
0.0
 10
184.2238
 20
-54.1218
 30
0.0
 10
184.2473
 20
-54.0747
 30
0.0
 10
184.2473
 20
-54.0747
 30
0.0
 10
185.6987
 20
-52.572
 30
0.0
 10
186.4587
 20
-47.8126
 30
0.0
 10
186.9962
 20
-45.3344
 30
0.0
 10
186.9962
 20
-45.3344
 30
0.0
 10
187.1656
 20
-44.5538
 30
0.0
 10
187.4864
 20
-42.9586
 30
0.0
 10
187.2077
 20
-42.2331
 30
0.0
 10
187.2077
 20
-42.2331
 30
0.0
 10
186.6357
 20
-44.2118
 30
0.0
 10
185.6793
 20
-46.4481
 30
0.0
 10
184.0358
 20
-47.3785
 30
0.0
 10
184.0358
 20
-47.3785
 30
0.0
 10
183.19
 20
-47.59
 30
0.0
 10
182.344
 20
-47.8015
 30
0.0
 10
181.4982
 20
-48.013
 30
0.0
  0
SPLINE
  5
48
330
1F
100
AcDbEntity
  8
layer 1
 62
     7
100
AcDbSpline
210
0.0
220
0.0
230
1.0
 70
    11
 71
     3
 72
    24
 73
    20
 74
     0
 42
0.0000000001
 43
0.0000000001
 12
1.0
 22
0.0
 32
0.0
 13
1.0
 23
0.0
 33
0.0
 40
0.0
 40
0.0
 40
0.0
 40
0.0
 40
0.1666666666666667
 40
0.1666666666666667
 40
0.1666666666666667
 40
0.1666666666666667
 40
0.3333333333333333
 40
0.3333333333333333
 40
0.3333333333333333
 40
0.3333333333333333
 40
0.5
 40
0.5
 40
0.5
 40
0.5
 40
0.6666666666666666
 40
0.6666666666666666
 40
0.6666666666666666
 40
0.6666666666666666
 40
1.0
 40
1.0
 40
1.0
 40
1.0
 10
180.8639
 20
125.2428
 30
0.0
 10
182.2291
 20
124.9356
 30
0.0
 10
182.9855
 20
123.4635
 30
0.0
 10
183.9653
 20
122.7052
 30
0.0
 10
183.9653
 20
122.7052
 30
0.0
 10
183.9653
 20
122.7522
 30
0.0
 10
183.9653
 20
122.7992
 30
0.0
 10
183.9653
 20
122.8461
 30
0.0
 10
183.9653
 20
122.8461
 30
0.0
 10
184.1513
 20
123.0014
 30
0.0
 10
186.4203
 20
125.3498
 30
0.0
 10
186.4323
 20
125.3837
 30
0.0
 10
186.4323
 20
125.3837
 30
0.0
 10
185.0761
 20
125.0945
 30
0.0
 10
181.7402
 20
125.9426
 30
0.0
 10
180.8639
 20
125.3131
 30
0.0
 10
180.8639
 20
125.3131
 30
0.0
 10
180.8639
 20
125.2896
 30
0.0
 10
180.8639
 20
125.2661
 30
0.0
 10
180.8639
 20
125.2428
 30
0.0
  0
SPLINE
  5
49
330
1F
100
AcDbEntity
  8
layer 1
 62
     7
100
AcDbSpline
210
0.0
220
0.0
230
1.0
 70
    11
 71
     3
 72
    28
 73
    24
 74
     0
 42
0.0000000001
 43
0.0000000001
 12
1.0
 22
0.0
 32
0.0
 13
1.0
 23
0.0
 33
0.0
 40
0.0
 40
0.0
 40
0.0
 40
0.0
 40
0.1428571428571428
 40
0.1428571428571428
 40
0.1428571428571428
 40
0.1428571428571428
 40
0.2857142857142857
 40
0.2857142857142857
 40
0.2857142857142857
 40
0.2857142857142857
 40
0.4285714285714285
 40
0.4285714285714285
 40
0.4285714285714285
 40
0.4285714285714285
 40
0.5714285714285714
 40
0.5714285714285714
 40
0.5714285714285714
 40
0.5714285714285714
 40
0.7142857142857143
 40
0.7142857142857143
 40
0.7142857142857143
 40
0.7142857142857143
 40
1.0
 40
1.0
 40
1.0
 40
1.0
 10
180.0885
 20
79.1445
 30
0.0
 10
180.1355
 20
78.4868
 30
0.0
 10
180.1826
 20
77.8288
 30
0.0
 10
180.2294
 20
77.171
 30
0.0
 10
180.2294
 20
77.171
 30
0.0
 10
180.4664
 20
75.9248
 30
0.0
 10
180.9835
 20
72.2716
 30
0.0
 10
181.6392
 20
71.4615
 30
0.0
 10
181.6392
 20
71.4615
 30
0.0
 10
183.3954
 20
73.0716
 30
0.0
 10
184.2497
 20
75.4907
 30
0.0
 10
185.8684
 20
77.2414
 30
0.0
 10
185.8684
 20
77.2414
 30
0.0
 10
186.9866
 20
78.4508
 30
0.0
 10
188.4661
 20
79.4583
 30
0.0
 10
189.4633
 20
80.7657
 30
0.0
 10
189.4633
 20
80.7657
 30
0.0
 10
189.7965
 20
87.8186
 30
0.0
 10
188.3168
 20
90.682
 30
0.0
 10
182.6965
 20
92.8189
 30
0.0
 10
182.6965
 20
92.8189
 30
0.0
 10
180.8352
 20
91.2496
 30
0.0
 10
180.0648
 20
83.0202
 30
0.0
 10
180.0885
 20
79.1445
 30
0.0
  0
SPLINE
  5
4A
330
1F
100
AcDbEntity
  8
layer 1
 62
     7
100
AcDbSpline
210
0.0
220
0.0
230
1.0
 70
    11
 71
     3
 72
    24
 73
    20
 74
     0
 42
0.0000000001
 43
0.0000000001
 12
1.0
 22
0.0
 32
0.0
 13
1.0
 23
0.0
 33
0.0
 40
0.0
 40
0.0
 40
0.0
 40
0.0
 40
0.1666666666666667
 40
0.1666666666666667
 40
0.1666666666666667
 40
0.1666666666666667
 40
0.3333333333333333
 40
0.3333333333333333
 40
0.3333333333333333
 40
0.3333333333333333
 40
0.5
 40
0.5
 40
0.5
 40
0.5
 40
0.6666666666666666
 40
0.6666666666666666
 40
0.6666666666666666
 40
0.6666666666666666
 40
1.0
 40
1.0
 40
1.0
 40
1.0
 10
177.6214
 20
-106.9397
 30
0.0
 10
178.8272
 20
-106.9452
 30
0.0
 10
184.9761
 20
-107.2341
 30
0.0
 10
186.0799
 20
-106.7282
 30
0.0
 10
186.0799
 20
-106.7282
 30
0.0
 10
186.1318
 20
-105.6405
 30
0.0
 10
186.5018
 20
-104.3205
 30
0.0
 10
186.2914
 20
-102.9923
 30
0.0
 10
186.2914
 20
-102.9923
 30
0.0
 10
186.2443
 20
-102.0761
 30
0.0
 10
186.1973
 20
-101.1596
 30
0.0
 10
186.1504
 20
-100.2434
 30
0.0
 10
186.1504
 20
-100.2434
 30
0.0
 10
184.8583
 20
-101.3946
 30
0.0
 10
183.5658
 20
-102.546
 30
0.0
 10
182.2737
 20
-103.6972
 30
0.0
 10
182.2737
 20
-103.6972
 30
0.0
 10
180.7752
 20
-104.8227
 30
0.0
 10
179.1033
 20
-105.756
 30
0.0
 10
177.6214
 20
-106.9397
 30
0.0
  0
SPLINE
  5
4B
330
1F
100
AcDbEntity
  8
layer 1
 62
     7
100
AcDbSpline
210
0.0
220
0.0
230
1.0
 70
    11
 71
     3
 72
    40
 73
    36
 74
     0
 42
0.0000000001
 43
0.0000000001
 12
1.0
 22
0.0
 32
0.0
 13
1.0
 23
0.0
 33
0.0
 40
0.0
 40
0.0
 40
0.0
 40
0.0
 40
0.1
 40
0.1
 40
0.1
 40
0.1
 40
0.2
 40
0.2
 40
0.2
 40
0.2
 40
0.3
 40
0.3
 40
0.3
 40
0.3
 40
0.4
 40
0.4
 40
0.4
 40
0.4
 40
0.5
 40
0.5
 40
0.5
 40
0.5
 40
0.6
 40
0.6
 40
0.6
 40
0.6
 40
0.7
 40
0.7
 40
0.7
 40
0.7
 40
0.8
 40
0.8
 40
0.8
 40
0.8
 40
1.0
 40
1.0
 40
1.0
 40
1.0
 10
174.7316
 20
-92.067
 30
0.0
 10
175.691
 20
-93.7669
 30
0.0
 10
176.6952
 20
-100.0827
 30
0.0
 10
176.4937
 20
-102.6399
 30
0.0
 10
176.4937
 20
-102.6399
 30
0.0
 10
176.6112
 20
-102.6399
 30
0.0
 10
176.7288
 20
-102.6399
 30
0.0
 10
176.8462
 20
-102.6399
 30
0.0
 10
176.8462
 20
-102.6399
 30
0.0
 10
180.3048
 20
-101.5298
 30
0.0
 10
182.6329
 20
-99.4951
 30
0.0
 10
184.3883
 20
-96.719
 30
0.0
 10
184.3883
 20
-96.719
 30
0.0
 10
183.7539
 20
-93.5475
 30
0.0
 10
183.1195
 20
-90.375
 30
0.0
 10
182.4851
 20
-87.2035
 30
0.0
 10
182.4851
 20
-87.2035
 30
0.0
 10
182.344
 20
-85.5589
 30
0.0
 10
182.2031
 20
-83.9138
 30
0.0
 10
182.0622
 20
-82.2694
 30
0.0
 10
182.0622
 20
-82.2694
 30
0.0
 10
181.7792
 20
-83.4687
 30
0.0
 10
179.9082
 20
-84.3264
 30
0.0
 10
178.6787
 20
-84.6659
 30
0.0
 10
178.6787
 20
-84.6659
 30
0.0
 10
178.5019
 20
-87.1056
 30
0.0
 10
178.2263
 20
-89.6533
 30
0.0
 10
176.9166
 20
-90.6573
 30
0.0
 10
176.9166
 20
-90.6573
 30
0.0
 10
176.2119
 20
-91.033
 30
0.0
 10
175.5068
 20
-91.4092
 30
0.0
 10
174.8021
 20
-91.7849
 30
0.0
 10
174.8021
 20
-91.7849
 30
0.0
 10
174.7786
 20
-91.879
 30
0.0
 10
174.7551
 20
-91.9729
 30
0.0
 10
174.7316
 20
-92.067
 30
0.0
  0
SPLINE
  5
4C
330
1F
100
AcDbEntity
  8
layer 1
 62
     7
100
AcDbSpline
210
0.0
220
0.0
230
1.0
 70
    11
 71
     3
 72
    40
 73
    36
 74
     0
 42
0.0000000001
 43
0.0000000001
 12
1.0
 22
0.0
 32
0.0
 13
1.0
 23
0.0
 33
0.0
 40
0.0
 40
0.0
 40
0.0
 40
0.0
 40
0.1
 40
0.1
 40
0.1
 40
0.1
 40
0.2
 40
0.2
 40
0.2
 40
0.2
 40
0.3
 40
0.3
 40
0.3
 40
0.3
 40
0.4
 40
0.4
 40
0.4
 40
0.4
 40
0.5
 40
0.5
 40
0.5
 40
0.5
 40
0.6
 40
0.6
 40
0.6
 40
0.6
 40
0.7
 40
0.7
 40
0.7
 40
0.7
 40
0.8
 40
0.8
 40
0.8
 40
0.8
 40
1.0
 40
1.0
 40
1.0
 40
1.0
 10
173.3924
 20
-64.2954
 30
0.0
 10
173.4628
 20
-65.2351
 30
0.0
 10
173.5333
 20
-66.175
 30
0.0
 10
173.6037
 20
-67.1147
 30
0.0
 10
173.6037
 20
-67.1147
 30
0.0
 10
174.0502
 20
-67.6786
 30
0.0
 10
174.4966
 20
-68.2425
 30
0.0
 10
174.9431
 20
-68.8065
 30
0.0
 10
174.9431
 20
-68.8065
 30
0.0
 10
176.3252
 20
-70.8771
 30
0.0
 10
177.1853
 20
-73.5405
 30
0.0
 10
177.3396
 20
-76.7713
 30
0.0
 10
177.3396
 20
-76.7713
 30
0.0
 10
178.6322
 20
-76.3047
 30
0.0
 10
180.8851
 20
-75.7747
 30
0.0
 10
182.4146
 20
-76.4189
 30
0.0
 10
182.4146
 20
-76.4189
 30
0.0
 10
182.2972
 20
-74.516
 30
0.0
 10
182.1796
 20
-72.6125
 30
0.0
 10
182.0622
 20
-70.7096
 30
0.0
 10
182.0622
 20
-70.7096
 30
0.0
 10
182.4103
 20
-63.9738
 30
0.0
 10
182.6765
 20
-56.457
 30
0.0
 10
180.2294
 20
-52.1011
 30
0.0
 10
180.2294
 20
-52.1011
 30
0.0
 10
179.55
 20
-50.8915
 30
0.0
 10
179.3245
 20
-49.3755
 30
0.0
 10
178.3263
 20
-48.5063
 30
0.0
 10
178.3263
 20
-48.5063
 30
0.0
 10
177.8906
 20
-49.734
 30
0.0
 10
176.5216
 20
-50.8766
 30
0.0
 10
175.7889
 20
-51.9601
 30
0.0
 10
175.7889
 20
-51.9601
 30
0.0
 10
173.7123
 20
-55.0311
 30
0.0
 10
173.405
 20
-59.5072
 30
0.0
 10
173.3924
 20
-64.2954
 30
0.0
  0
SPLINE
  5
4D
330
1F
100
AcDbEntity
  8
layer 1
 62
     7
100
AcDbSpline
210
0.0
220
0.0
230
1.0
 70
    11
 71
     3
 72
    40
 73
    36
 74
     0
 42
0.0000000001
 43
0.0000000001
 12
1.0
 22
0.0
 32
0.0
 13
1.0
 23
0.0
 33
0.0
 40
0.0
 40
0.0
 40
0.0
 40
0.0
 40
0.1
 40
0.1
 40
0.1
 40
0.1
 40
0.2
 40
0.2
 40
0.2
 40
0.2
 40
0.3
 40
0.3
 40
0.3
 40
0.3
 40
0.4
 40
0.4
 40
0.4
 40
0.4
 40
0.5
 40
0.5
 40
0.5
 40
0.5
 40
0.6
 40
0.6
 40
0.6
 40
0.6
 40
0.7
 40
0.7
 40
0.7
 40
0.7
 40
0.8
 40
0.8
 40
0.8
 40
0.8
 40
1.0
 40
1.0
 40
1.0
 40
1.0
 10
173.1809
 20
27.8304
 30
0.0
 10
177.9811
 20
26.5232
 30
0.0
 10
182.2568
 20
24.5066
 30
0.0
 10
185.8684
 20
21.839
 30
0.0
 10
185.8684
 20
21.839
 30
0.0
 10
186.9122
 20
21.0681
 30
0.0
 10
187.7171
 20
19.9916
 30
0.0
 10
188.6879
 20
19.1607
 30
0.0
 10
188.6879
 20
19.1607
 30
0.0
 10
189.5315
 20
18.4384
 30
0.0
 10
190.5265
 20
17.6825
 30
0.0
 10
191.014
 20
16.6231
 30
0.0
 10
191.014
 20
16.6231
 30
0.0
 10
191.0375
 20
16.6231
 30
0.0
 10
191.061
 20
16.6231
 30
0.0
 10
191.0843
 20
16.6231
 30
0.0
 10
191.0843
 20
16.6231
 30
0.0
 10
191.0843
 20
17.7978
 30
0.0
 10
191.0843
 20
18.9727
 30
0.0
 10
191.0843
 20
20.1474
 30
0.0
 10
191.0843
 20
20.1474
 30
0.0
 10
186.2863
 20
23.8456
 30
0.0
 10
183.8281
 20
30.1052
 30
0.0
 10
181.0048
 20
35.7953
 30
0.0
 10
181.0048
 20
35.7953
 30
0.0
 10
180.9578
 20
35.7953
 30
0.0
 10
180.9109
 20
35.7953
 30
0.0
 10
180.8639
 20
35.7953
 30
0.0
 10
180.8639
 20
35.7953
 30
0.0
 10
179.8459
 20
34.8655
 30
0.0
 10
179.3249
 20
33.4403
 30
0.0
 10
178.2559
 20
32.553
 30
0.0
 10
178.2559
 20
32.553
 30
0.0
 10
175.9129
 20
30.6083
 30
0.0
 10
174.1429
 20
32.0212
 30
0.0
 10
173.1809
 20
27.8304
 30
0.0
  0
SPLINE
  5
4E
330
1F
100
AcDbEntity
  8
layer 1
 62
     7
100
AcDbSpline
210
0.0
220
0.0
230
1.0
 70
    11
 71
     3
 72
    20
 73
    16
 74
     0
 42
0.0000000001
 43
0.0000000001
 12
1.0
 22
0.0
 32
0.0
 13
1.0
 23
0.0
 33
0.0
 40
0.0
 40
0.0
 40
0.0
 40
0.0
 40
0.2
 40
0.2
 40
0.2
 40
0.2
 40
0.4
 40
0.4
 40
0.4
 40
0.4
 40
0.6
 40
0.6
 40
0.6
 40
0.6
 40
1.0
 40
1.0
 40
1.0
 40
1.0
 10
170.8548
 20
-82.4103
 30
0.0
 10
171.818
 20
-84.4307
 30
0.0
 10
172.7816
 20
-86.4517
 30
0.0
 10
173.7448
 20
-88.4721
 30
0.0
 10
173.7448
 20
-88.4721
 30
0.0
 10
173.8622
 20
-88.3547
 30
0.0
 10
173.9797
 20
-88.2373
 30
0.0
 10
174.0973
 20
-88.1197
 30
0.0
 10
174.0973
 20
-88.1197
 30
0.0
 10
177.0406
 20
-86.6201
 30
0.0
 10
174.0615
 20
-82.064
 30
0.0
 10
170.8548
 20
-82.1284
 30
0.0
 10
170.8548
 20
-82.1284
 30
0.0
 10
170.8548
 20
-82.2223
 30
0.0
 10
170.8548
 20
-82.3164
 30
0.0
 10
170.8548
 20
-82.4103
 30
0.0
  0
SPLINE
  5
4F
330
1F
100
AcDbEntity
  8
layer 1
 62
     7
100
AcDbSpline
210
0.0
220
0.0
230
1.0
 70
    11
 71
     3
 72
    16
 73
    12
 74
     0
 42
0.0000000001
 43
0.0000000001
 12
1.0
 22
0.0
 32
0.0
 13
1.0
 23
0.0
 33
0.0
 40
0.0
 40
0.0
 40
0.0
 40
0.0
 40
0.25
 40
0.25
 40
0.25
 40
0.25
 40
0.5
 40
0.5
 40
0.5
 40
0.5
 40
1.0
 40
1.0
 40
1.0
 40
1.0
 10
169.586
 20
-77.4762
 30
0.0
 10
170.9487
 20
-77.4762
 30
0.0
 10
172.3117
 20
-77.4762
 30
0.0
 10
173.6743
 20
-77.4762
 30
0.0
 10
173.6743
 20
-77.4762
 30
0.0
 10
173.9484
 20
-75.255
 30
0.0
 10
174.4677
 20
-72.6669
 30
0.0
 10
172.7579
 20
-71.2735
 30
0.0
 10
172.7579
 20
-71.2735
 30
0.0
 10
172.7444
 20
-74.3472
 30
0.0
 10
171.1555
 20
-75.7961
 30
0.0
 10
169.586
 20
-77.4762
 30
0.0
  0
SPLINE
  5
50
330
1F
100
AcDbEntity
  8
layer 1
 62
     7
100
AcDbSpline
210
0.0
220
0.0
230
1.0
 70
    11
 71
     3
 72
    24
 73
    20
 74
     0
 42
0.0000000001
 43
0.0000000001
 12
1.0
 22
0.0
 32
0.0
 13
1.0
 23
0.0
 33
0.0
 40
0.0
 40
0.0
 40
0.0
 40
0.0
 40
0.1666666666666667
 40
0.1666666666666667
 40
0.1666666666666667
 40
0.1666666666666667
 40
0.3333333333333333
 40
0.3333333333333333
 40
0.3333333333333333
 40
0.3333333333333333
 40
0.5
 40
0.5
 40
0.5
 40
0.5
 40
0.6666666666666666
 40
0.6666666666666666
 40
0.6666666666666666
 40
0.6666666666666666
 40
1.0
 40
1.0
 40
1.0
 40
1.0
 10
166.978
 20
-106.3757
 30
0.0
 10
169.2702
 20
-106.8278
 30
0.0
 10
172.8365
 20
-105.527
 30
0.0
 10
174.0267
 20
-104.2611
 30
0.0
 10
174.0267
 20
-104.2611
 30
0.0
 10
173.5098
 20
-102.2641
 30
0.0
 10
172.9929
 20
-100.2667
 30
0.0
 10
172.476
 20
-98.2697
 30
0.0
 10
172.476
 20
-98.2697
 30
0.0
 10
172.288
 20
-96.9307
 30
0.0
 10
172.1001
 20
-95.5912
 30
0.0
 10
171.9121
 20
-94.252
 30
0.0
 10
171.9121
 20
-94.252
 30
0.0
 10
171.8651
 20
-94.299
 30
0.0
 10
171.8182
 20
-94.3461
 30
0.0
 10
171.7712
 20
-94.3929
 30
0.0
 10
171.7712
 20
-94.3929
 30
0.0
 10
168.2244
 20
-95.3948
 30
0.0
 10
167.7739
 20
-102.8169
 30
0.0
 10
166.978
 20
-106.3757
 30
0.0
  0
SPLINE
  5
51
330
1F
100
AcDbEntity
  8
layer 1
 62
     7
100
AcDbSpline
210
0.0
220
0.0
230
1.0
 70
    11
 71
     3
 72
    32
 73
    28
 74
     0
 42
0.0000000001
 43
0.0000000001
 12
1.0
 22
0.0
 32
0.0
 13
1.0
 23
0.0
 33
0.0
 40
0.0
 40
0.0
 40
0.0
 40
0.0
 40
0.125
 40
0.125
 40
0.125
 40
0.125
 40
0.25
 40
0.25
 40
0.25
 40
0.25
 40
0.375
 40
0.375
 40
0.375
 40
0.375
 40
0.5
 40
0.5
 40
0.5
 40
0.5
 40
0.625
 40
0.625
 40
0.625
 40
0.625
 40
0.75
 40
0.75
 40
0.75
 40
0.75
 40
1.0
 40
1.0
 40
1.0
 40
1.0
 10
165.8503
 20
26.8437
 30
0.0
 10
167.0931
 20
27.1818
 30
0.0
 10
168.0367
 20
27.5288
 30
0.0
 10
169.5156
 20
27.2665
 30
0.0
 10
169.5156
 20
27.2665
 30
0.0
 10
169.5391
 20
27.29
 30
0.0
 10
169.5626
 20
27.3135
 30
0.0
 10
169.586
 20
27.3371
 30
0.0
 10
169.586
 20
27.3371
 30
0.0
 10
169.9855
 20
34.1439
 30
0.0
 10
174.0353
 20
32.1536
 30
0.0
 10
176.4937
 20
35.725
 30
0.0
 10
176.4937
 20
35.725
 30
0.0
 10
178.5441
 20
38.7035
 30
0.0
 10
177.7604
 20
41.862
 30
0.0
 10
177.269
 20
45.5226
 30
0.0
 10
177.269
 20
45.5226
 30
0.0
 10
177.1751
 20
45.593
 30
0.0
 10
177.0812
 20
45.6635
 30
0.0
 10
176.9871
 20
45.7341
 30
0.0
 10
176.9871
 20
45.7341
 30
0.0
 10
174.5377
 20
42.776
 30
0.0
 10
172.2762
 20
39.6574
 30
0.0
 10
170.2909
 20
36.2183
 30
0.0
 10
170.2909
 20
36.2183
 30
0.0
 10
168.8109
 20
33.0938
 30
0.0
 10
167.3304
 20
29.9682
 30
0.0
 10
165.8503
 20
26.8437
 30
0.0
  0
SPLINE
  5
52
330
1F
100
AcDbEntity
  8
layer 1
 62
     7
100
AcDbSpline
210
0.0
220
0.0
230
1.0
 70
    11
 71
     3
 72
    60
 73
    56
 74
     0
 42
0.0000000001
 43
0.0000000001
 12
1.0
 22
0.0
 32
0.0
 13
1.0
 23
0.0
 33
0.0
 40
0.0
 40
0.0
 40
0.0
 40
0.0
 40
0.0666666666666667
 40
0.0666666666666667
 40
0.0666666666666667
 40
0.0666666666666667
 40
0.1333333333333333
 40
0.1333333333333333
 40
0.1333333333333333
 40
0.1333333333333333
 40
0.2
 40
0.2
 40
0.2
 40
0.2
 40
0.2666666666666667
 40
0.2666666666666667
 40
0.2666666666666667
 40
0.2666666666666667
 40
0.3333333333333333
 40
0.3333333333333333
 40
0.3333333333333333
 40
0.3333333333333333
 40
0.4
 40
0.4
 40
0.4
 40
0.4
 40
0.4666666666666667
 40
0.4666666666666667
 40
0.4666666666666667
 40
0.4666666666666667
 40
0.5333333333333333
 40
0.5333333333333333
 40
0.5333333333333333
 40
0.5333333333333333
 40
0.6
 40
0.6
 40
0.6
 40
0.6
 40
0.6666666666666666
 40
0.6666666666666666
 40
0.6666666666666666
 40
0.6666666666666666
 40
0.7333333333333333
 40
0.7333333333333333
 40
0.7333333333333333
 40
0.7333333333333333
 40
0.8
 40
0.8
 40
0.8
 40
0.8
 40
0.8666666666666667
 40
0.8666666666666667
 40
0.8666666666666667
 40
0.8666666666666667
 40
1.0
 40
1.0
 40
1.0
 40
1.0
 10
165.3569
 20
-67.0443
 30
0.0
 10
165.4038
 20
-67.6316
 30
0.0
 10
165.4508
 20
-68.2192
 30
0.0
 10
165.4979
 20
-68.8065
 30
0.0
 10
165.4979
 20
-68.8065
 30
0.0
 10
165.9514
 20
-71.0338
 30
0.0
 10
166.6326
 20
-75.0217
 30
0.0
 10
167.8944
 20
-76.4189
 30
0.0
 10
167.8944
 20
-76.4189
 30
0.0
 10
167.8944
 20
-76.3721
 30
0.0
 10
167.8944
 20
-76.325
 30
0.0
 10
167.8944
 20
-76.278
 30
0.0
 10
167.8944
 20
-76.278
 30
0.0
 10
169.221
 20
-73.9722
 30
0.0
 10
170.1591
 20
-67.0418
 30
0.0
 10
170.2205
 20
-63.5199
 30
0.0
 10
170.2205
 20
-63.5199
 30
0.0
 10
170.2643
 20
-61.0035
 30
0.0
 10
169.956
 20
-57.6828
 30
0.0
 10
170.432
 20
-55.2026
 30
0.0
 10
170.432
 20
-55.2026
 30
0.0
 10
171.0139
 20
-52.17
 30
0.0
 10
172.0685
 20
-49.192
 30
0.0
 10
174.0267
 20
-47.5196
 30
0.0
 10
174.0267
 20
-47.5196
 30
0.0
 10
174.5208
 20
-47.0975
 30
0.0
 10
175.189
 20
-46.8434
 30
0.0
 10
175.5774
 20
-46.3212
 30
0.0
 10
175.5774
 20
-46.3212
 30
0.0
 10
173.9791
 20
-45.8395
 30
0.0
 10
172.3342
 20
-44.1785
 30
0.0
 10
171.4187
 20
-42.8674
 30
0.0
 10
171.4187
 20
-42.8674
 30
0.0
 10
170.9959
 20
-42.2331
 30
0.0
 10
170.5727
 20
-41.5986
 30
0.0
 10
170.1499
 20
-40.9643
 30
0.0
 10
170.1499
 20
-40.9643
 30
0.0
 10
170.3436
 20
-42.9085
 30
0.0
 10
168.9662
 20
-47.8106
 30
0.0
 10
168.1059
 20
-49.7046
 30
0.0
 10
168.1059
 20
-49.7046
 30
0.0
 10
168.6737
 20
-49.6171
 30
0.0
 10
169.4172
 20
-49.394
 30
0.0
 10
169.7975
 20
-49.5636
 30
0.0
 10
169.7975
 20
-49.5636
 30
0.0
 10
169.821
 20
-49.6107
 30
0.0
 10
169.8445
 20
-49.6577
 30
0.0
 10
169.868
 20
-49.7046
 30
0.0
 10
169.868
 20
-49.7046
 30
0.0
 10
169.9106
 20
-51.5621
 30
0.0
 10
167.7572
 20
-54.5437
 30
0.0
 10
167.0486
 20
-55.9779
 30
0.0
 10
167.0486
 20
-55.9779
 30
0.0
 10
165.6207
 20
-58.8677
 30
0.0
 10
165.3814
 20
-62.9529
 30
0.0
 10
165.3569
 20
-67.0443
 30
0.0
  0
SPLINE
  5
53
330
1F
100
AcDbEntity
  8
layer 1
 62
     7
100
AcDbSpline
210
0.0
220
0.0
230
1.0
 70
    11
 71
     3
 72
    64
 73
    60
 74
     0
 42
0.0000000001
 43
0.0000000001
 12
1.0
 22
0.0
 32
0.0
 13
1.0
 23
0.0
 33
0.0
 40
0.0
 40
0.0
 40
0.0
 40
0.0
 40
0.0625
 40
0.0625
 40
0.0625
 40
0.0625
 40
0.125
 40
0.125
 40
0.125
 40
0.125
 40
0.1875
 40
0.1875
 40
0.1875
 40
0.1875
 40
0.25
 40
0.25
 40
0.25
 40
0.25
 40
0.3125
 40
0.3125
 40
0.3125
 40
0.3125
 40
0.375
 40
0.375
 40
0.375
 40
0.375
 40
0.4375
 40
0.4375
 40
0.4375
 40
0.4375
 40
0.5
 40
0.5
 40
0.5
 40
0.5
 40
0.5625
 40
0.5625
 40
0.5625
 40
0.5625
 40
0.625
 40
0.625
 40
0.625
 40
0.625
 40
0.6875
 40
0.6875
 40
0.6875
 40
0.6875
 40
0.75
 40
0.75
 40
0.75
 40
0.75
 40
0.8125
 40
0.8125
 40
0.8125
 40
0.8125
 40
0.875
 40
0.875
 40
0.875
 40
0.875
 40
1.0
 40
1.0
 40
1.0
 40
1.0
 10
164.4406
 20
64.3424
 30
0.0
 10
165.716
 20
63.3465
 30
0.0
 10
165.2525
 20
61.9445
 30
0.0
 10
165.9207
 20
60.2541
 30
0.0
 10
165.9207
 20
60.2541
 30
0.0
 10
165.9677
 20
60.2776
 30
0.0
 10
166.0148
 20
60.3012
 30
0.0
 10
166.0618
 20
60.3247
 30
0.0
 10
166.0618
 20
60.3247
 30
0.0
 10
167.0206
 20
62.7915
 30
0.0
 10
169.0217
 20
65.6656
 30
0.0
 10
171.7006
 20
66.457
 30
0.0
 10
171.7006
 20
66.457
 30
0.0
 10
172.6399
 20
66.7346
 30
0.0
 10
175.1603
 20
66.9854
 30
0.0
 10
175.5774
 20
66.1046
 30
0.0
 10
175.5774
 20
66.1046
 30
0.0
 10
172.292
 20
64.8887
 30
0.0
 10
168.6018
 20
58.3614
 30
0.0
 10
169.586
 20
53.0647
 30
0.0
 10
169.586
 20
53.0647
 30
0.0
 10
170.1506
 20
50.0269
 30
0.0
 10
171.1794
 20
47.318
 30
0.0
 10
171.7006
 20
44.6768
 30
0.0
 10
171.7006
 20
44.6768
 30
0.0
 10
171.7476
 20
44.7001
 30
0.0
 10
171.7947
 20
44.7236
 30
0.0
 10
171.8417
 20
44.7471
 30
0.0
 10
171.8417
 20
44.7471
 30
0.0
 10
172.4925
 20
47.421
 30
0.0
 10
175.0005
 20
49.5974
 30
0.0
 10
177.1281
 20
50.8795
 30
0.0
 10
177.1281
 20
50.8795
 30
0.0
 10
177.3631
 20
52.665
 30
0.0
 10
177.5981
 20
54.4511
 30
0.0
 10
177.8329
 20
56.2366
 30
0.0
 10
177.8329
 20
56.2366
 30
0.0
 10
177.8094
 20
57.4111
 30
0.0
 10
177.7859
 20
58.5862
 30
0.0
 10
177.7626
 20
59.7607
 30
0.0
 10
177.7626
 20
59.7607
 30
0.0
 10
177.692
 20
60.8649
 30
0.0
 10
177.6214
 20
61.9694
 30
0.0
 10
177.5511
 20
63.0736
 30
0.0
 10
177.5511
 20
63.0736
 30
0.0
 10
176.8237
 20
66.7233
 30
0.0
 10
176.0796
 20
69.9083
 30
0.0
 10
174.2382
 20
72.3778
 30
0.0
 10
174.2382
 20
72.3778
 30
0.0
 10
173.6987
 20
73.1016
 30
0.0
 10
171.7392
 20
75.9139
 30
0.0
 10
171.0663
 20
75.7613
 30
0.0
 10
171.0663
 20
75.7613
 30
0.0
 10
170.0621
 20
72.7157
 30
0.0
 10
168.8511
 20
70.0054
 30
0.0
 10
167.2601
 20
67.5849
 30
0.0
 10
167.2601
 20
67.5849
 30
0.0
 10
166.3203
 20
66.504
 30
0.0
 10
165.3803
 20
65.423
 30
0.0
 10
164.4406
 20
64.3424
 30
0.0
  0
SPLINE
  5
54
330
1F
100
AcDbEntity
  8
layer 1
 62
     7
100
AcDbSpline
210
0.0
220
0.0
230
1.0
 70
    11
 71
     3
 72
   180
 73
   176
 74
     0
 42
0.0000000001
 43
0.0000000001
 12
1.0
 22
0.0
 32
0.0
 13
1.0
 23
0.0
 33
0.0
 40
0.0
 40
0.0
 40
0.0
 40
0.0
 40
0.0222222222222222
 40
0.0222222222222222
 40
0.0222222222222222
 40
0.0222222222222222
 40
0.0444444444444444
 40
0.0444444444444444
 40
0.0444444444444444
 40
0.0444444444444444
 40
0.0666666666666667
 40
0.0666666666666667
 40
0.0666666666666667
 40
0.0666666666666667
 40
0.0888888888888889
 40
0.0888888888888889
 40
0.0888888888888889
 40
0.0888888888888889
 40
0.1111111111111111
 40
0.1111111111111111
 40
0.1111111111111111
 40
0.1111111111111111
 40
0.1333333333333333
 40
0.1333333333333333
 40
0.1333333333333333
 40
0.1333333333333333
 40
0.1555555555555556
 40
0.1555555555555556
 40
0.1555555555555556
 40
0.1555555555555556
 40
0.1777777777777778
 40
0.1777777777777778
 40
0.1777777777777778
 40
0.1777777777777778
 40
0.2
 40
0.2
 40
0.2
 40
0.2
 40
0.2222222222222222
 40
0.2222222222222222
 40
0.2222222222222222
 40
0.2222222222222222
 40
0.2444444444444444
 40
0.2444444444444444
 40
0.2444444444444444
 40
0.2444444444444444
 40
0.2666666666666667
 40
0.2666666666666667
 40
0.2666666666666667
 40
0.2666666666666667
 40
0.2888888888888889
 40
0.2888888888888889
 40
0.2888888888888889
 40
0.2888888888888889
 40
0.3111111111111111
 40
0.3111111111111111
 40
0.3111111111111111
 40
0.3111111111111111
 40
0.3333333333333333
 40
0.3333333333333333
 40
0.3333333333333333
 40
0.3333333333333333
 40
0.3555555555555556
 40
0.3555555555555556
 40
0.3555555555555556
 40
0.3555555555555556
 40
0.3777777777777778
 40
0.3777777777777778
 40
0.3777777777777778
 40
0.3777777777777778
 40
0.4
 40
0.4
 40
0.4
 40
0.4
 40
0.4222222222222222
 40
0.4222222222222222
 40
0.4222222222222222
 40
0.4222222222222222
 40
0.4444444444444444
 40
0.4444444444444444
 40
0.4444444444444444
 40
0.4444444444444444
 40
0.4666666666666667
 40
0.4666666666666667
 40
0.4666666666666667
 40
0.4666666666666667
 40
0.4888888888888889
 40
0.4888888888888889
 40
0.4888888888888889
 40
0.4888888888888889
 40
0.5111111111111111
 40
0.5111111111111111
 40
0.5111111111111111
 40
0.5111111111111111
 40
0.5333333333333333
 40
0.5333333333333333
 40
0.5333333333333333
 40
0.5333333333333333
 40
0.5555555555555556
 40
0.5555555555555556
 40
0.5555555555555556
 40
0.5555555555555556
 40
0.5777777777777777
 40
0.5777777777777777
 40
0.5777777777777777
 40
0.5777777777777777
 40
0.6
 40
0.6
 40
0.6
 40
0.6
 40
0.6222222222222222
 40
0.6222222222222222
 40
0.6222222222222222
 40
0.6222222222222222
 40
0.6444444444444445
 40
0.6444444444444445
 40
0.6444444444444445
 40
0.6444444444444445
 40
0.6666666666666666
 40
0.6666666666666666
 40
0.6666666666666666
 40
0.6666666666666666
 40
0.6888888888888889
 40
0.6888888888888889
 40
0.6888888888888889
 40
0.6888888888888889
 40
0.7111111111111111
 40
0.7111111111111111
 40
0.7111111111111111
 40
0.7111111111111111
 40
0.7333333333333333
 40
0.7333333333333333
 40
0.7333333333333333
 40
0.7333333333333333
 40
0.7555555555555555
 40
0.7555555555555555
 40
0.7555555555555555
 40
0.7555555555555555
 40
0.7777777777777778
 40
0.7777777777777778
 40
0.7777777777777778
 40
0.7777777777777778
 40
0.8
 40
0.8
 40
0.8
 40
0.8
 40
0.8222222222222222
 40
0.8222222222222222
 40
0.8222222222222222
 40
0.8222222222222222
 40
0.8444444444444444
 40
0.8444444444444444
 40
0.8444444444444444
 40
0.8444444444444444
 40
0.8666666666666667
 40
0.8666666666666667
 40
0.8666666666666667
 40
0.8666666666666667
 40
0.8888888888888888
 40
0.8888888888888888
 40
0.8888888888888888
 40
0.8888888888888888
 40
0.9111111111111111
 40
0.9111111111111111
 40
0.9111111111111111
 40
0.9111111111111111
 40
0.9333333333333333
 40
0.9333333333333333
 40
0.9333333333333333
 40
0.9333333333333333
 40
0.9555555555555556
 40
0.9555555555555556
 40
0.9555555555555556
 40
0.9555555555555556
 40
1.0
 40
1.0
 40
1.0
 40
1.0
 10
164.0176
 20
7.2484
 30
0.0
 10
164.1352
 20
5.2281
 30
0.0
 10
164.2526
 20
3.207
 30
0.0
 10
164.37
 20
1.1867
 30
0.0
 10
164.37
 20
1.1867
 30
0.0
 10
165.2203
 20
-3.8562
 30
0.0
 10
165.934
 20
-7.8714
 30
0.0
 10
167.2601
 20
-12.1353
 30
0.0
 10
167.2601
 20
-12.1353
 30
0.0
 10
167.5689
 20
-13.1285
 30
0.0
 10
167.761
 20
-14.3304
 30
0.0
 10
168.3877
 20
-15.0254
 30
0.0
 10
168.3877
 20
-15.0254
 30
0.0
 10
168.4238
 20
-13.4483
 30
0.0
 10
169.0377
 20
-11.2511
 30
0.0
 10
169.7975
 20
-10.2322
 30
0.0
 10
169.7975
 20
-10.2322
 30
0.0
 10
170.4248
 20
-9.3909
 30
0.0
 10
171.3652
 20
-8.851
 30
0.0
 10
171.7712
 20
-7.7652
 30
0.0
 10
171.7712
 20
-7.7652
 30
0.0
 10
172.6775
 20
-5.3407
 30
0.0
 10
172.4319
 20
-1.2673
 30
0.0
 10
171.6302
 20
1.1161
 30
0.0
 10
171.6302
 20
1.1161
 30
0.0
 10
171.2543
 20
2.0323
 30
0.0
 10
170.8783
 20
2.9488
 30
0.0
 10
170.5024
 20
3.865
 30
0.0
 10
170.5024
 20
3.865
 30
0.0
 10
175.3136
 20
5.7683
 30
0.0
 10
176.8379
 20
-0.2814
 30
0.0
 10
176.7756
 20
-4.5932
 30
0.0
 10
176.7756
 20
-4.5932
 30
0.0
 10
180.5522
 20
-3.1162
 30
0.0
 10
183.7979
 20
-4.1273
 30
0.0
 10
185.1635
 20
-7.4833
 30
0.0
 10
185.1635
 20
-7.4833
 30
0.0
 10
185.4757
 20
-8.2503
 30
0.0
 10
186.0406
 20
-10.1852
 30
0.0
 10
185.6569
 20
-10.9371
 30
0.0
 10
185.6569
 20
-10.9371
 30
0.0
 10
185.61
 20
-10.9606
 30
0.0
 10
185.563
 20
-10.9841
 30
0.0
 10
185.5159
 20
-11.0076
 30
0.0
 10
185.5159
 20
-11.0076
 30
0.0
 10
184.4102
 20
-10.9773
 30
0.0
 10
183.7254
 20
-10.3498
 30
0.0
 10
182.908
 20
-10.0207
 30
0.0
 10
182.908
 20
-10.0207
 30
0.0
 10
180.4224
 20
-9.0201
 30
0.0
 10
176.8175
 20
-9.3194
 30
0.0
 10
175.0134
 20
-10.6552
 30
0.0
 10
175.0134
 20
-10.6552
 30
0.0
 10
166.722
 20
-16.7945
 30
0.0
 10
170.6435
 20
-38.0773
 30
0.0
 10
177.1281
 20
-42.9379
 30
0.0
 10
177.1281
 20
-42.9379
 30
0.0
 10
177.7155
 20
-40.5477
 30
0.0
 10
179.3533
 20
-38.0913
 30
0.0
 10
181.5688
 20
-37.299
 30
0.0
 10
181.5688
 20
-37.299
 30
0.0
 10
182.2501
 20
-37.2754
 30
0.0
 10
182.9315
 20
-37.2519
 30
0.0
 10
183.6128
 20
-37.2284
 30
0.0
 10
183.6128
 20
-37.2284
 30
0.0
 10
184.0127
 20
-35.4928
 30
0.0
 10
183.5162
 20
-34.1583
 30
0.0
 10
184.6701
 20
-33.0697
 30
0.0
 10
184.6701
 20
-33.0697
 30
0.0
 10
185.0696
 20
-33.1168
 30
0.0
 10
185.4691
 20
-33.1638
 30
0.0
 10
185.8684
 20
-33.2109
 30
0.0
 10
185.8684
 20
-33.2109
 30
0.0
 10
186.5329
 20
-34.0574
 30
0.0
 10
187.0582
 20
-35.5957
 30
0.0
 10
186.5029
 20
-36.876
 30
0.0
 10
186.5029
 20
-36.876
 30
0.0
 10
187.2636
 20
-36.7051
 30
0.0
 10
188.0762
 20
-37.0051
 30
0.0
 10
188.6879
 20
-37.299
 30
0.0
 10
188.6879
 20
-37.299
 30
0.0
 10
188.1006
 20
-34.2448
 30
0.0
 10
187.5131
 20
-31.1898
 30
0.0
 10
186.9257
 20
-28.1358
 30
0.0
 10
186.9257
 20
-28.1358
 30
0.0
 10
186.6522
 20
-26.9584
 30
0.0
 10
186.7734
 20
-25.521
 30
0.0
 10
186.2208
 20
-24.6115
 30
0.0
 10
186.2208
 20
-24.6115
 30
0.0
 10
185.6267
 20
-23.6334
 30
0.0
 10
184.6628
 20
-22.8924
 30
0.0
 10
183.7538
 20
-22.2148
 30
0.0
 10
183.7538
 20
-22.2148
 30
0.0
 10
182.704
 20
-21.4322
 30
0.0
 10
181.1422
 20
-20.2395
 30
0.0
 10
179.1723
 20
-20.6641
 30
0.0
 10
179.1723
 20
-20.6641
 30
0.0
 10
176.4819
 20
-21.2442
 30
0.0
 10
174.7102
 20
-24.2713
 30
0.0
 10
172.7579
 20
-24.5409
 30
0.0
 10
172.7579
 20
-24.5409
 30
0.0
 10
172.7579
 20
-24.3294
 30
0.0
 10
172.7579
 20
-24.1179
 30
0.0
 10
172.7579
 20
-23.9066
 30
0.0
 10
172.7579
 20
-23.9066
 30
0.0
 10
173.062
 20
-22.6944
 30
0.0
 10
173.1012
 20
-21.6789
 30
0.0
 10
173.5333
 20
-20.6641
 30
0.0
 10
173.5333
 20
-20.6641
 30
0.0
 10
175.1625
 20
-16.8382
 30
0.0
 10
180.0481
 20
-13.7774
 30
0.0
 10
185.2341
 20
-16.153
 30
0.0
 10
185.2341
 20
-16.153
 30
0.0
 10
187.2372
 20
-17.0708
 30
0.0
 10
188.3015
 20
-18.691
 30
0.0
 10
189.6042
 20
-20.3117
 30
0.0
 10
189.6042
 20
-20.3117
 30
0.0
 10
189.6042
 20
-20.2648
 30
0.0
 10
189.6042
 20
-20.2178
 30
0.0
 10
189.6042
 20
-20.1708
 30
0.0
 10
189.6042
 20
-20.1708
 30
0.0
 10
190.8432
 20
-18.6472
 30
0.0
 10
191.1298
 20
-14.6663
 30
0.0
 10
190.6615
 20
-11.9944
 30
0.0
 10
190.6615
 20
-11.9944
 30
0.0
 10
189.6906
 20
-6.4542
 30
0.0
 10
186.6034
 20
-3.6864
 30
0.0
 10
184.9522
 20
1.1867
 30
0.0
 10
184.9522
 20
1.1867
 30
0.0
 10
184.2427
 20
3.2804
 30
0.0
 10
183.973
 20
7.4007
 30
0.0
 10
185.1635
 20
9.1516
 30
0.0
 10
185.1635
 20
9.1516
 30
0.0
 10
185.2341
 20
9.1516
 30
0.0
 10
185.3046
 20
9.1516
 30
0.0
 10
185.375
 20
9.1516
 30
0.0
 10
185.375
 20
9.1516
 30
0.0
 10
186.3147
 20
6.7552
 30
0.0
 10
187.2548
 20
4.3582
 30
0.0
 10
188.1945
 20
1.9619
 30
0.0
 10
188.1945
 20
1.9619
 30
0.0
 10
189.1342
 20
0.3175
 30
0.0
 10
190.0743
 20
-1.3276
 30
0.0
 10
191.014
 20
-2.9722
 30
0.0
 10
191.014
 20
-2.9722
 30
0.0
 10
191.0375
 20
-2.9722
 30
0.0
 10
191.061
 20
-2.9722
 30
0.0
 10
191.0843
 20
-2.9722
 30
0.0
 10
191.0843
 20
-2.9722
 30
0.0
 10
191.0843
 20
0.6694
 30
0.0
 10
191.0843
 20
4.3119
 30
0.0
 10
191.0843
 20
7.9533
 30
0.0
 10
191.0843
 20
7.9533
 30
0.0
 10
190.1917
 20
9.0575
 30
0.0
 10
189.2987
 20
10.162
 30
0.0
 10
188.406
 20
11.2662
 30
0.0
 10
188.406
 20
11.2662
 30
0.0
 10
185.5887
 20
15.0043
 30
0.0
 10
182.3543
 20
18.8476
 30
0.0
 10
177.9035
 20
20.9229
 30
0.0
 10
177.9035
 20
20.9229
 30
0.0
 10
175.3991
 20
22.0904
 30
0.0
 10
172.0782
 20
23.1845
 30
0.0
 10
168.5287
 20
22.5439
 30
0.0
 10
168.5287
 20
22.5439
 30
0.0
 10
167.75
 20
22.4035
 30
0.0
 10
166.0731
 20
22.4225
 30
0.0
 10
165.6388
 20
21.9096
 30
0.0
 10
165.6388
 20
21.9096
 30
0.0
 10
165.4273
 20
20.8525
 30
0.0
 10
165.2158
 20
19.795
 30
0.0
 10
165.0045
 20
18.7377
 30
0.0
 10
165.0045
 20
18.7377
 30
0.0
 10
164.1616
 20
15.601
 30
0.0
 10
163.9962
 20
11.0697
 30
0.0
 10
164.0176
 20
7.2484
 30
0.0
  0
SPLINE
  5
55
330
1F
100
AcDbEntity
  8
layer 1
 62
     7
100
AcDbSpline
210
0.0
220
0.0
230
1.0
 70
    11
 71
     3
 72
    32
 73
    28
 74
     0
 42
0.0000000001
 43
0.0000000001
 12
1.0
 22
0.0
 32
0.0
 13
1.0
 23
0.0
 33
0.0
 40
0.0
 40
0.0
 40
0.0
 40
0.0
 40
0.125
 40
0.125
 40
0.125
 40
0.125
 40
0.25
 40
0.25
 40
0.25
 40
0.25
 40
0.375
 40
0.375
 40
0.375
 40
0.375
 40
0.5
 40
0.5
 40
0.5
 40
0.5
 40
0.625
 40
0.625
 40
0.625
 40
0.625
 40
0.75
 40
0.75
 40
0.75
 40
0.75
 40
1.0
 40
1.0
 40
1.0
 40
1.0
 10
164.37
 20
-106.3052
 30
0.0
 10
164.3289
 20
-101.5091
 30
0.0
 10
165.5539
 20
-96.5578
 30
0.0
 10
167.7534
 20
-93.6881
 30
0.0
 10
167.7534
 20
-93.6881
 30
0.0
 10
168.5181
 20
-92.6905
 30
0.0
 10
169.7212
 20
-92.1036
 30
0.0
 10
170.5024
 20
-91.1506
 30
0.0
 10
170.5024
 20
-91.1506
 30
0.0
 10
169.6443
 20
-88.268
 30
0.0
 10
168.6493
 20
-84.9564
 30
0.0
 10
166.2731
 20
-83.6086
 30
0.0
 10
166.2731
 20
-83.6086
 30
0.0
 10
165.7902
 20
-84.7919
 30
0.0
 10
164.9442
 20
-85.9262
 30
0.0
 10
164.4406
 20
-87.2035
 30
0.0
 10
164.4406
 20
-87.2035
 30
0.0
 10
162.9157
 20
-91.0707
 30
0.0
 10
162.3263
 20
-96.012
 30
0.0
 10
162.326
 20
-101.2301
 30
0.0
 10
162.326
 20
-101.2301
 30
0.0
 10
162.3258
 20
-102.9297
 30
0.0
 10
162.1642
 20
-104.8848
 30
0.0
 10
162.6078
 20
-106.2348
 30
0.0
 10
162.6078
 20
-106.2348
 30
0.0
 10
163.1953
 20
-106.2581
 30
0.0
 10
163.7827
 20
-106.2816
 30
0.0
 10
164.37
 20
-106.3052
 30
0.0
  0
SPLINE
  5
56
330
1F
100
AcDbEntity
  8
layer 1
 62
     7
100
AcDbSpline
210
0.0
220
0.0
230
1.0
 70
    11
 71
     3
 72
    32
 73
    28
 74
     0
 42
0.0000000001
 43
0.0000000001
 12
1.0
 22
0.0
 32
0.0
 13
1.0
 23
0.0
 33
0.0
 40
0.0
 40
0.0
 40
0.0
 40
0.0
 40
0.125
 40
0.125
 40
0.125
 40
0.125
 40
0.25
 40
0.25
 40
0.25
 40
0.25
 40
0.375
 40
0.375
 40
0.375
 40
0.375
 40
0.5
 40
0.5
 40
0.5
 40
0.5
 40
0.625
 40
0.625
 40
0.625
 40
0.625
 40
0.75
 40
0.75
 40
0.75
 40
0.75
 40
1.0
 40
1.0
 40
1.0
 40
1.0
 10
161.0572
 20
50.1042
 30
0.0
 10
162.3493
 20
44.4188
 30
0.0
 10
163.6418
 20
38.7319
 30
0.0
 10
164.9339
 20
33.0464
 30
0.0
 10
164.9339
 20
33.0464
 30
0.0
 10
164.9575
 20
33.0464
 30
0.0
 10
164.981
 20
33.0464
 30
0.0
 10
165.0045
 20
33.0464
 30
0.0
 10
165.0045
 20
33.0464
 30
0.0
 10
165.0278
 20
33.0934
 30
0.0
 10
165.0514
 20
33.1405
 30
0.0
 10
165.0749
 20
33.1873
 30
0.0
 10
165.0749
 20
33.1873
 30
0.0
 10
165.8562
 20
33.971
 30
0.0
 10
166.0843
 20
35.2607
 30
0.0
 10
166.5552
 20
36.3593
 30
0.0
 10
166.5552
 20
36.3593
 30
0.0
 10
168.7619
 20
41.5081
 30
0.0
 10
168.3172
 20
46.5314
 30
0.0
 10
163.9472
 20
49.1879
 30
0.0
 10
163.9472
 20
49.1879
 30
0.0
 10
163.0868
 20
49.7109
 30
0.0
 10
162.2708
 20
50.3364
 30
0.0
 10
161.0572
 20
50.527
 30
0.0
 10
161.0572
 20
50.527
 30
0.0
 10
161.0572
 20
50.3861
 30
0.0
 10
161.0572
 20
50.2452
 30
0.0
 10
161.0572
 20
50.1042
 30
0.0
  0
SPLINE
  5
57
330
1F
100
AcDbEntity
  8
layer 1
 62
     7
100
AcDbSpline
210
0.0
220
0.0
230
1.0
 70
    11
 71
     3
 72
   100
 73
    96
 74
     0
 42
0.0000000001
 43
0.0000000001
 12
1.0
 22
0.0
 32
0.0
 13
1.0
 23
0.0
 33
0.0
 40
0.0
 40
0.0
 40
0.0
 40
0.0
 40
0.04
 40
0.04
 40
0.04
 40
0.04
 40
0.08
 40
0.08
 40
0.08
 40
0.08
 40
0.12
 40
0.12
 40
0.12
 40
0.12
 40
0.16
 40
0.16
 40
0.16
 40
0.16
 40
0.2
 40
0.2
 40
0.2
 40
0.2
 40
0.24
 40
0.24
 40
0.24
 40
0.24
 40
0.28
 40
0.28
 40
0.28
 40
0.28
 40
0.32
 40
0.32
 40
0.32
 40
0.32
 40
0.36
 40
0.36
 40
0.36
 40
0.36
 40
0.4
 40
0.4
 40
0.4
 40
0.4
 40
0.44
 40
0.44
 40
0.44
 40
0.44
 40
0.48
 40
0.48
 40
0.48
 40
0.48
 40
0.52
 40
0.52
 40
0.52
 40
0.52
 40
0.56
 40
0.56
 40
0.56
 40
0.56
 40
0.6
 40
0.6
 40
0.6
 40
0.6
 40
0.64
 40
0.64
 40
0.64
 40
0.64
 40
0.68
 40
0.68
 40
0.68
 40
0.68
 40
0.72
 40
0.72
 40
0.72
 40
0.72
 40
0.76
 40
0.76
 40
0.76
 40
0.76
 40
0.8
 40
0.8
 40
0.8
 40
0.8
 40
0.84
 40
0.84
 40
0.84
 40
0.84
 40
0.88
 40
0.88
 40
0.88
 40
0.88
 40
0.92
 40
0.92
 40
0.92
 40
0.92
 40
1.0
 40
1.0
 40
1.0
 40
1.0
 10
156.0527
 20
-107.0806
 30
0.0
 10
157.0628
 20
-107.01
 30
0.0
 10
158.0734
 20
-106.9397
 30
0.0
 10
159.0837
 20
-106.8691
 30
0.0
 10
159.0837
 20
-106.8691
 30
0.0
 10
159.0075
 20
-100.3678
 30
0.0
 10
159.9004
 20
-91.6839
 30
0.0
 10
161.6211
 20
-86.6395
 30
0.0
 10
161.6211
 20
-86.6395
 30
0.0
 10
162.1145
 20
-85.3004
 30
0.0
 10
162.608
 20
-83.9608
 30
0.0
 10
163.1014
 20
-82.6218
 30
0.0
 10
163.1014
 20
-82.6218
 30
0.0
 10
163.5477
 20
-81.7525
 30
0.0
 10
163.9942
 20
-80.883
 30
0.0
 10
164.4406
 20
-80.0138
 30
0.0
 10
164.4406
 20
-80.0138
 30
0.0
 10
164.5237
 20
-79.6942
 30
0.0
 10
162.6272
 20
-74.4817
 30
0.0
 10
162.3963
 20
-73.5291
 30
0.0
 10
162.3963
 20
-73.5291
 30
0.0
 10
161.8148
 20
-71.129
 30
0.0
 10
161.7952
 20
-68.5246
 30
0.0
 10
161.4802
 20
-65.7051
 30
0.0
 10
161.4802
 20
-65.7051
 30
0.0
 10
161.4802
 20
-64.6008
 30
0.0
 10
161.4802
 20
-63.4964
 30
0.0
 10
161.4802
 20
-62.3922
 30
0.0
 10
161.4802
 20
-62.3922
 30
0.0
 10
160.6579
 20
-61.194
 30
0.0
 10
159.8354
 20
-59.9956
 30
0.0
 10
159.0131
 20
-58.7973
 30
0.0
 10
159.0131
 20
-58.7973
 30
0.0
 10
157.9269
 20
-57.1289
 30
0.0
 10
156.9892
 20
-54.9376
 30
0.0
 10
156.4051
 20
-52.8765
 30
0.0
 10
156.4051
 20
-52.8765
 30
0.0
 10
155.8679
 20
-50.9807
 30
0.0
 10
155.8503
 20
-48.8733
 30
0.0
 10
155.4888
 20
-46.7442
 30
0.0
 10
155.4888
 20
-46.7442
 30
0.0
 10
155.4888
 20
-45.1466
 30
0.0
 10
155.4888
 20
-43.5485
 30
0.0
 10
155.4888
 20
-41.951
 30
0.0
 10
155.4888
 20
-41.951
 30
0.0
 10
155.2794
 20
-41.4099
 30
0.0
 10
154.8562
 20
-41.1512
 30
0.0
 10
154.1496
 20
-41.1052
 30
0.0
 10
154.1496
 20
-41.1052
 30
0.0
 10
150.6606
 20
-44.3067
 30
0.0
 10
153.5352
 20
-44.7603
 30
0.0
 10
152.8102
 20
-49.2112
 30
0.0
 10
152.8102
 20
-49.2112
 30
0.0
 10
152.3107
 20
-52.2785
 30
0.0
 10
152.1937
 20
-55.9978
 30
0.0
 10
152.5989
 20
-59.4316
 30
0.0
 10
152.5989
 20
-59.4316
 30
0.0
 10
152.7398
 20
-60.8882
 30
0.0
 10
152.8808
 20
-62.3454
 30
0.0
 10
153.0217
 20
-63.802
 30
0.0
 10
153.0217
 20
-63.802
 30
0.0
 10
153.7424
 20
-66.9493
 30
0.0
 10
154.6153
 20
-69.7191
 30
0.0
 10
155.4888
 20
-72.7536
 30
0.0
 10
155.4888
 20
-72.7536
 30
0.0
 10
155.5827
 20
-74.2573
 30
0.0
 10
155.6767
 20
-75.7613
 30
0.0
 10
155.7706
 20
-77.2647
 30
0.0
 10
155.7706
 20
-77.2647
 30
0.0
 10
155.7473
 20
-77.7581
 30
0.0
 10
155.7238
 20
-78.2516
 30
0.0
 10
155.7003
 20
-78.745
 30
0.0
 10
155.7003
 20
-78.745
 30
0.0
 10
156.0669
 20
-80.1088
 30
0.0
 10
156.8199
 20
-81.2744
 30
0.0
 10
157.1804
 20
-82.6922
 30
0.0
 10
157.1804
 20
-82.6922
 30
0.0
 10
157.3919
 20
-84.5247
 30
0.0
 10
157.6034
 20
-86.3577
 30
0.0
 10
157.8149
 20
-88.1902
 30
0.0
 10
157.8149
 20
-88.1902
 30
0.0
 10
157.7443
 20
-88.613
 30
0.0
 10
157.6739
 20
-89.036
 30
0.0
 10
157.6034
 20
-89.459
 30
0.0
 10
157.6034
 20
-89.459
 30
0.0
 10
157.5095
 20
-90.3987
 30
0.0
 10
157.4154
 20
-91.3386
 30
0.0
 10
157.3215
 20
-92.2785
 30
0.0
 10
157.3215
 20
-92.2785
 30
0.0
 10
156.6637
 20
-93.9699
 30
0.0
 10
156.0057
 20
-95.6619
 30
0.0
 10
155.3478
 20
-97.3533
 30
0.0
 10
155.3478
 20
-97.3533
 30
0.0
 10
155.5827
 20
-100.5955
 30
0.0
 10
155.8177
 20
-103.8385
 30
0.0
 10
156.0527
 20
-107.0806
 30
0.0
  0
SPLINE
  5
58
330
1F
100
AcDbEntity
  8
layer 1
 62
     7
100
AcDbSpline
210
0.0
220
0.0
230
1.0
 70
    11
 71
     3
 72
    36
 73
    32
 74
     0
 42
0.0000000001
 43
0.0000000001
 12
1.0
 22
0.0
 32
0.0
 13
1.0
 23
0.0
 33
0.0
 40
0.0
 40
0.0
 40
0.0
 40
0.0
 40
0.1111111111111111
 40
0.1111111111111111
 40
0.1111111111111111
 40
0.1111111111111111
 40
0.2222222222222222
 40
0.2222222222222222
 40
0.2222222222222222
 40
0.2222222222222222
 40
0.3333333333333333
 40
0.3333333333333333
 40
0.3333333333333333
 40
0.3333333333333333
 40
0.4444444444444444
 40
0.4444444444444444
 40
0.4444444444444444
 40
0.4444444444444444
 40
0.5555555555555556
 40
0.5555555555555556
 40
0.5555555555555556
 40
0.5555555555555556
 40
0.6666666666666666
 40
0.6666666666666666
 40
0.6666666666666666
 40
0.6666666666666666
 40
0.7777777777777778
 40
0.7777777777777778
 40
0.7777777777777778
 40
0.7777777777777778
 40
1.0
 40
1.0
 40
1.0
 40
1.0
 10
151.4005
 20
5.1338
 30
0.0
 10
152.8192
 20
4.2584
 30
0.0
 10
153.8907
 20
2.2057
 30
0.0
 10
154.2905
 20
0.3407
 30
0.0
 10
154.2905
 20
0.3407
 30
0.0
 10
154.3611
 20
-0.5755
 30
0.0
 10
154.4315
 20
-1.4919
 30
0.0
 10
154.502
 20
-2.4082
 30
0.0
 10
154.502
 20
-2.4082
 30
0.0
 10
158.103
 20
-2.7603
 30
0.0
 10
159.5747
 20
-5.0875
 30
0.0
 10
161.9735
 20
-6.285
 30
0.0
 10
161.9735
 20
-6.285
 30
0.0
 10
161.9735
 20
-6.2615
 30
0.0
 10
161.9735
 20
-6.238
 30
0.0
 10
161.9735
 20
-6.2145
 30
0.0
 10
161.9735
 20
-6.2145
 30
0.0
 10
159.6006
 20
0.9858
 30
0.0
 10
160.6724
 20
10.5216
 30
0.0
 10
161.1981
 20
18.3852
 30
0.0
 10
161.1981
 20
18.3852
 30
0.0
 10
161.1748
 20
18.3852
 30
0.0
 10
161.1512
 20
18.3852
 30
0.0
 10
161.1277
 20
18.3852
 30
0.0
 10
161.1277
 20
18.3852
 30
0.0
 10
161.0807
 20
18.3382
 30
0.0
 10
161.0336
 20
18.2913
 30
0.0
 10
160.9868
 20
18.2443
 30
0.0
 10
160.9868
 20
18.2443
 30
0.0
 10
157.7501
 20
17.275
 30
0.0
 10
152.1073
 20
8.907
 30
0.0
 10
151.4005
 20
5.1338
 30
0.0
  0
SPLINE
  5
59
330
1F
100
AcDbEntity
  8
layer 1
 62
     7
100
AcDbSpline
210
0.0
220
0.0
230
1.0
 70
    11
 71
     3
 72
    16
 73
    12
 74
     0
 42
0.0000000001
 43
0.0000000001
 12
1.0
 22
0.0
 32
0.0
 13
1.0
 23
0.0
 33
0.0
 40
0.0
 40
0.0
 40
0.0
 40
0.0
 40
0.25
 40
0.25
 40
0.25
 40
0.25
 40
0.5
 40
0.5
 40
0.5
 40
0.5
 40
1.0
 40
1.0
 40
1.0
 40
1.0
 10
151.4005
 20
-90.0228
 30
0.0
 10
152.3906
 20
-90.5
 30
0.0
 10
152.6113
 20
-91.5796
 30
0.0
 10
153.3038
 20
-92.3489
 30
0.0
 10
153.3038
 20
-92.3489
 30
0.0
 10
152.833
 20
-90.5894
 30
0.0
 10
154.1499
 20
-87.7678
 30
0.0
 10
153.5856
 20
-86.2871
 30
0.0
 10
153.5856
 20
-86.2871
 30
0.0
 10
153.354
 20
-87.9074
 30
0.0
 10
151.8549
 20
-88.6432
 30
0.0
 10
151.4005
 20
-90.0228
 30
0.0
  0
SPLINE
  5
5A
330
1F
100
AcDbEntity
  8
layer 1
 62
     7
100
AcDbSpline
210
0.0
220
0.0
230
1.0
 70
    11
 71
     3
 72
    60
 73
    56
 74
     0
 42
0.0000000001
 43
0.0000000001
 12
1.0
 22
0.0
 32
0.0
 13
1.0
 23
0.0
 33
0.0
 40
0.0
 40
0.0
 40
0.0
 40
0.0
 40
0.0666666666666667
 40
0.0666666666666667
 40
0.0666666666666667
 40
0.0666666666666667
 40
0.1333333333333333
 40
0.1333333333333333
 40
0.1333333333333333
 40
0.1333333333333333
 40
0.2
 40
0.2
 40
0.2
 40
0.2
 40
0.2666666666666667
 40
0.2666666666666667
 40
0.2666666666666667
 40
0.2666666666666667
 40
0.3333333333333333
 40
0.3333333333333333
 40
0.3333333333333333
 40
0.3333333333333333
 40
0.4
 40
0.4
 40
0.4
 40
0.4
 40
0.4666666666666667
 40
0.4666666666666667
 40
0.4666666666666667
 40
0.4666666666666667
 40
0.5333333333333333
 40
0.5333333333333333
 40
0.5333333333333333
 40
0.5333333333333333
 40
0.6
 40
0.6
 40
0.6
 40
0.6
 40
0.6666666666666666
 40
0.6666666666666666
 40
0.6666666666666666
 40
0.6666666666666666
 40
0.7333333333333333
 40
0.7333333333333333
 40
0.7333333333333333
 40
0.7333333333333333
 40
0.8
 40
0.8
 40
0.8
 40
0.8
 40
0.8666666666666667
 40
0.8666666666666667
 40
0.8666666666666667
 40
0.8666666666666667
 40
1.0
 40
1.0
 40
1.0
 40
1.0
 10
151.2595
 20
-17.2809
 30
0.0
 10
152.1518
 20
-19.2645
 30
0.0
 10
152.3472
 20
-21.1923
 30
0.0
 10
153.4447
 20
-22.8493
 30
0.0
 10
153.4447
 20
-22.8493
 30
0.0
 10
154.1677
 20
-23.9409
 30
0.0
 10
155.2367
 20
-25.1532
 30
0.0
 10
156.2642
 20
-25.9507
 30
0.0
 10
156.2642
 20
-25.9507
 30
0.0
 10
156.8044
 20
-26.3266
 30
0.0
 10
157.345
 20
-26.7026
 30
0.0
 10
157.8852
 20
-27.0785
 30
0.0
 10
157.8852
 20
-27.0785
 30
0.0
 10
159.5937
 20
-29.2906
 30
0.0
 10
160.0279
 20
-32.5073
 30
0.0
 10
160.9162
 20
-35.5368
 30
0.0
 10
160.9162
 20
-35.5368
 30
0.0
 10
161.4798
 20
-37.4584
 30
0.0
 10
161.0243
 20
-39.9116
 30
0.0
 10
160.7047
 20
-41.7397
 30
0.0
 10
160.7047
 20
-41.7397
 30
0.0
 10
160.1846
 20
-44.7157
 30
0.0
 10
160.8961
 20
-47.6006
 30
0.0
 10
161.9735
 20
-49.4227
 30
0.0
 10
161.9735
 20
-49.4227
 30
0.0
 10
162.4637
 20
-50.2518
 30
0.0
 10
162.919
 20
-51.1942
 30
0.0
 10
163.9472
 20
-51.4668
 30
0.0
 10
163.9472
 20
-51.4668
 30
0.0
 10
164.4641
 20
-49.4699
 30
0.0
 10
164.981
 20
-47.4724
 30
0.0
 10
165.4979
 20
-45.4754
 30
0.0
 10
165.4979
 20
-45.4754
 30
0.0
 10
165.8268
 20
-43.3141
 30
0.0
 10
166.1557
 20
-41.1521
 30
0.0
 10
166.4846
 20
-38.9906
 30
0.0
 10
166.4846
 20
-38.9906
 30
0.0
 10
167.1464
 20
-36.2399
 30
0.0
 10
166.7083
 20
-30.4506
 30
0.0
 10
166.2028
 20
-27.8538
 30
0.0
 10
166.2028
 20
-27.8538
 30
0.0
 10
164.5975
 20
-19.6104
 30
0.0
 10
161.7961
 20
-13.461
 30
0.0
 10
157.3215
 20
-8.1881
 30
0.0
 10
157.3215
 20
-8.1881
 30
0.0
 10
156.4962
 20
-7.2154
 30
0.0
 10
155.8696
 20
-6.0734
 30
0.0
 10
154.8544
 20
-5.2981
 30
0.0
 10
154.8544
 20
-5.2981
 30
0.0
 10
154.8309
 20
-5.2981
 30
0.0
 10
154.8074
 20
-5.2981
 30
0.0
 10
154.7839
 20
-5.2981
 30
0.0
 10
154.7839
 20
-5.2981
 30
0.0
 10
154.3523
 20
-9.2771
 30
0.0
 10
151.2635
 20
-13.0483
 30
0.0
 10
151.2595
 20
-17.2809
 30
0.0
  0
SPLINE
  5
5B
330
1F
100
AcDbEntity
  8
layer 1
 62
     7
100
AcDbSpline
210
0.0
220
0.0
230
1.0
 70
    11
 71
     3
 72
   164
 73
   160
 74
     0
 42
0.0000000001
 43
0.0000000001
 12
1.0
 22
0.0
 32
0.0
 13
1.0
 23
0.0
 33
0.0
 40
0.0
 40
0.0
 40
0.0
 40
0.0
 40
0.024390243902439
 40
0.024390243902439
 40
0.024390243902439
 40
0.024390243902439
 40
0.0487804878048781
 40
0.0487804878048781
 40
0.0487804878048781
 40
0.0487804878048781
 40
0.0731707317073171
 40
0.0731707317073171
 40
0.0731707317073171
 40
0.0731707317073171
 40
0.0975609756097561
 40
0.0975609756097561
 40
0.0975609756097561
 40
0.0975609756097561
 40
0.1219512195121951
 40
0.1219512195121951
 40
0.1219512195121951
 40
0.1219512195121951
 40
0.1463414634146341
 40
0.1463414634146341
 40
0.1463414634146341
 40
0.1463414634146341
 40
0.1707317073170732
 40
0.1707317073170732
 40
0.1707317073170732
 40
0.1707317073170732
 40
0.1951219512195122
 40
0.1951219512195122
 40
0.1951219512195122
 40
0.1951219512195122
 40
0.2195121951219512
 40
0.2195121951219512
 40
0.2195121951219512
 40
0.2195121951219512
 40
0.2439024390243902
 40
0.2439024390243902
 40
0.2439024390243902
 40
0.2439024390243902
 40
0.2682926829268293
 40
0.2682926829268293
 40
0.2682926829268293
 40
0.2682926829268293
 40
0.2926829268292683
 40
0.2926829268292683
 40
0.2926829268292683
 40
0.2926829268292683
 40
0.3170731707317073
 40
0.3170731707317073
 40
0.3170731707317073
 40
0.3170731707317073
 40
0.3414634146341464
 40
0.3414634146341464
 40
0.3414634146341464
 40
0.3414634146341464
 40
0.3658536585365854
 40
0.3658536585365854
 40
0.3658536585365854
 40
0.3658536585365854
 40
0.3902439024390244
 40
0.3902439024390244
 40
0.3902439024390244
 40
0.3902439024390244
 40
0.4146341463414634
 40
0.4146341463414634
 40
0.4146341463414634
 40
0.4146341463414634
 40
0.4390243902439024
 40
0.4390243902439024
 40
0.4390243902439024
 40
0.4390243902439024
 40
0.4634146341463415
 40
0.4634146341463415
 40
0.4634146341463415
 40
0.4634146341463415
 40
0.4878048780487805
 40
0.4878048780487805
 40
0.4878048780487805
 40
0.4878048780487805
 40
0.5121951219512195
 40
0.5121951219512195
 40
0.5121951219512195
 40
0.5121951219512195
 40
0.5365853658536586
 40
0.5365853658536586
 40
0.5365853658536586
 40
0.5365853658536586
 40
0.5609756097560976
 40
0.5609756097560976
 40
0.5609756097560976
 40
0.5609756097560976
 40
0.5853658536585366
 40
0.5853658536585366
 40
0.5853658536585366
 40
0.5853658536585366
 40
0.6097560975609756
 40
0.6097560975609756
 40
0.6097560975609756
 40
0.6097560975609756
 40
0.6341463414634146
 40
0.6341463414634146
 40
0.6341463414634146
 40
0.6341463414634146
 40
0.6585365853658537
 40
0.6585365853658537
 40
0.6585365853658537
 40
0.6585365853658537
 40
0.6829268292682927
 40
0.6829268292682927
 40
0.6829268292682927
 40
0.6829268292682927
 40
0.7073170731707317
 40
0.7073170731707317
 40
0.7073170731707317
 40
0.7073170731707317
 40
0.7317073170731707
 40
0.7317073170731707
 40
0.7317073170731707
 40
0.7317073170731707
 40
0.7560975609756098
 40
0.7560975609756098
 40
0.7560975609756098
 40
0.7560975609756098
 40
0.7804878048780488
 40
0.7804878048780488
 40
0.7804878048780488
 40
0.7804878048780488
 40
0.8048780487804879
 40
0.8048780487804879
 40
0.8048780487804879
 40
0.8048780487804879
 40
0.8292682926829268
 40
0.8292682926829268
 40
0.8292682926829268
 40
0.8292682926829268
 40
0.8536585365853658
 40
0.8536585365853658
 40
0.8536585365853658
 40
0.8536585365853658
 40
0.8780487804878049
 40
0.8780487804878049
 40
0.8780487804878049
 40
0.8780487804878049
 40
0.9024390243902439
 40
0.9024390243902439
 40
0.9024390243902439
 40
0.9024390243902439
 40
0.926829268292683
 40
0.926829268292683
 40
0.926829268292683
 40
0.926829268292683
 40
0.9512195121951219
 40
0.9512195121951219
 40
0.9512195121951219
 40
0.9512195121951219
 40
1.0
 40
1.0
 40
1.0
 40
1.0
 10
149.7794
 20
118.8989
 30
0.0
 10
152.3572
 20
116.5717
 30
0.0
 10
155.171
 20
113.3257
 30
0.0
 10
155.9118
 20
109.4537
 30
0.0
 10
155.9118
 20
109.4537
 30
0.0
 10
156.1407
 20
108.2568
 30
0.0
 10
156.2006
 20
106.5014
 30
0.0
 10
155.9821
 20
105.2245
 30
0.0
 10
155.9821
 20
105.2245
 30
0.0
 10
155.8882
 20
104.6608
 30
0.0
 10
155.7942
 20
104.0967
 30
0.0
 10
155.7003
 20
103.5329
 30
0.0
 10
155.7003
 20
103.5329
 30
0.0
 10
155.2855
 20
102.5808
 30
0.0
 10
155.0424
 20
101.6307
 30
0.0
 10
154.7135
 20
100.784
 30
0.0
 10
154.7135
 20
100.784
 30
0.0
 10
154.3498
 20
99.848
 30
0.0
 10
152.3626
 20
98.3997
 30
0.0
 10
152.9513
 20
96.6957
 30
0.0
 10
152.9513
 20
96.6957
 30
0.0
 10
154.26
 20
92.9071
 30
0.0
 10
162.9224
 20
90.3677
 30
0.0
 10
166.4846
 20
88.9421
 30
0.0
 10
166.4846
 20
88.9421
 30
0.0
 10
166.5317
 20
88.9656
 30
0.0
 10
166.5787
 20
88.9892
 30
0.0
 10
166.6256
 20
89.0127
 30
0.0
 10
166.6256
 20
89.0127
 30
0.0
 10
165.8965
 20
91.8368
 30
0.0
 10
164.4478
 20
94.657
 30
0.0
 10
162.2554
 20
95.9908
 30
0.0
 10
162.2554
 20
95.9908
 30
0.0
 10
162.326
 20
96.0847
 30
0.0
 10
162.3965
 20
96.1788
 30
0.0
 10
162.4669
 20
96.2727
 30
0.0
 10
162.4669
 20
96.2727
 30
0.0
 10
162.5139
 20
96.2962
 30
0.0
 10
162.561
 20
96.3197
 30
0.0
 10
162.6078
 20
96.3433
 30
0.0
 10
162.6078
 20
96.3433
 30
0.0
 10
167.1631
 20
96.3776
 30
0.0
 10
169.5064
 20
92.2254
 30
0.0
 10
170.8548
 20
88.7308
 30
0.0
 10
170.8548
 20
88.7308
 30
0.0
 10
171.0663
 20
87.7205
 30
0.0
 10
171.2778
 20
86.7101
 30
0.0
 10
171.4893
 20
85.6998
 30
0.0
 10
171.4893
 20
85.6998
 30
0.0
 10
172.1178
 20
84.6845
 30
0.0
 10
173.585
 20
84.3138
 30
0.0
 10
174.4497
 20
83.5147
 30
0.0
 10
174.4497
 20
83.5147
 30
0.0
 10
175.1309
 20
82.7864
 30
0.0
 10
175.8124
 20
82.0579
 30
0.0
 10
176.4937
 20
81.3297
 30
0.0
 10
176.4937
 20
81.3297
 30
0.0
 10
176.5173
 20
81.3297
 30
0.0
 10
176.5408
 20
81.3297
 30
0.0
 10
176.5643
 20
81.3297
 30
0.0
 10
176.5643
 20
81.3297
 30
0.0
 10
176.5298
 20
84.2095
 30
0.0
 10
176.5255
 20
87.215
 30
0.0
 10
177.1281
 20
89.7176
 30
0.0
 10
177.1281
 20
89.7176
 30
0.0
 10
177.645
 20
91.3621
 30
0.0
 10
178.162
 20
93.0071
 30
0.0
 10
178.6787
 20
94.6516
 30
0.0
 10
178.6787
 20
94.6516
 30
0.0
 10
178.6319
 20
94.6516
 30
0.0
 10
178.5848
 20
94.6516
 30
0.0
 10
178.5378
 20
94.6516
 30
0.0
 10
178.5378
 20
94.6516
 30
0.0
 10
176.6223
 20
95.4682
 30
0.0
 10
174.484
 20
95.5606
 30
0.0
 10
172.6875
 20
96.3433
 30
0.0
 10
172.6875
 20
96.3433
 30
0.0
 10
167.529
 20
98.5904
 30
0.0
 10
160.3548
 20
106.372
 30
0.0
 10
164.6521
 20
113.8239
 30
0.0
 10
164.6521
 20
113.8239
 30
0.0
 10
165.7325
 20
115.6977
 30
0.0
 10
167.4322
 20
117.1737
 30
0.0
 10
169.6565
 20
117.9122
 30
0.0
 10
169.6565
 20
117.9122
 30
0.0
 10
171.7701
 20
118.6138
 30
0.0
 10
175.3258
 20
116.5484
 30
0.0
 10
174.8021
 20
115.0927
 30
0.0
 10
174.8021
 20
115.0927
 30
0.0
 10
174.7551
 20
115.0927
 30
0.0
 10
174.7081
 20
115.0927
 30
0.0
 10
174.661
 20
115.0927
 30
0.0
 10
174.661
 20
115.0927
 30
0.0
 10
173.9831
 20
114.9162
 30
0.0
 10
173.4958
 20
115.3281
 30
0.0
 10
172.6875
 20
115.0927
 30
0.0
 10
172.6875
 20
115.0927
 30
0.0
 10
170.8092
 20
114.5455
 30
0.0
 10
169.64
 20
114.4607
 30
0.0
 10
168.8811
 20
112.8372
 30
0.0
 10
168.8811
 20
112.8372
 30
0.0
 10
168.4249
 20
111.8606
 30
0.0
 10
168.3172
 20
110.5956
 30
0.0
 10
168.3174
 20
109.2422
 30
0.0
 10
168.3174
 20
109.2422
 30
0.0
 10
168.3179
 20
103.8458
 30
0.0
 10
171.5509
 20
101.2912
 30
0.0
 10
175.2955
 20
99.7267
 30
0.0
 10
175.2955
 20
99.7267
 30
0.0
 10
176.218
 20
99.3412
 30
0.0
 10
179.952
 20
98.0185
 30
0.0
 10
181.2163
 20
98.6694
 30
0.0
 10
181.2163
 20
98.6694
 30
0.0
 10
181.7779
 20
100.043
 30
0.0
 10
182.8388
 20
101.4081
 30
0.0
 10
183.19
 20
103.0395
 30
0.0
 10
183.19
 20
103.0395
 30
0.0
 10
184.5583
 20
109.3963
 30
0.0
 10
182.785
 20
116.6358
 30
0.0
 10
176.9166
 20
119.8153
 30
0.0
 10
176.9166
 20
119.8153
 30
0.0
 10
176.1067
 20
120.2541
 30
0.0
 10
174.3858
 20
120.6785
 30
0.0
 10
173.1103
 20
120.4496
 30
0.0
 10
173.1103
 20
120.4496
 30
0.0
 10
172.2886
 20
120.3022
 30
0.0
 10
171.0833
 20
119.6498
 30
0.0
 10
170.2909
 20
120.0266
 30
0.0
 10
170.2909
 20
120.0266
 30
0.0
 10
170.832
 20
121.4647
 30
0.0
 10
171.4065
 20
122.8601
 30
0.0
 10
172.476
 20
123.7625
 30
0.0
 10
172.476
 20
123.7625
 30
0.0
 10
173.1574
 20
124.1619
 30
0.0
 10
173.8387
 20
124.5614
 30
0.0
 10
174.5201
 20
124.9607
 30
0.0
 10
174.5201
 20
124.9607
 30
0.0
 10
174.4497
 20
124.9842
 30
0.0
 10
174.3791
 20
125.0077
 30
0.0
 10
174.3086
 20
125.0313
 30
0.0
 10
174.3086
 20
125.0313
 30
0.0
 10
168.9287
 20
125.0548
 30
0.0
 10
163.5472
 20
125.0783
 30
0.0
 10
158.1673
 20
125.1016
 30
0.0
 10
158.1673
 20
125.1016
 30
0.0
 10
157.1841
 20
124.9677
 30
0.0
 10
154.5817
 20
125.6968
 30
0.0
 10
153.7971
 20
124.9607
 30
0.0
 10
153.7971
 20
124.9607
 30
0.0
 10
154.032
 20
123.8095
 30
0.0
 10
154.267
 20
122.6581
 30
0.0
 10
154.502
 20
121.5069
 30
0.0
 10
154.502
 20
121.5069
 30
0.0
 10
153.525
 20
121.7448
 30
0.0
 10
152.7395
 20
123.2395
 30
0.0
 10
151.612
 20
122.9167
 30
0.0
 10
151.612
 20
122.9167
 30
0.0
 10
150.1913
 20
122.6746
 30
0.0
 10
149.8669
 20
120.4848
 30
0.0
 10
149.7794
 20
118.8989
 30
0.0
  0
SPLINE
  5
5C
330
1F
100
AcDbEntity
  8
layer 1
 62
     7
100
AcDbSpline
210
0.0
220
0.0
230
1.0
 70
    11
 71
     3
 72
    56
 73
    52
 74
     0
 42
0.0000000001
 43
0.0000000001
 12
1.0
 22
0.0
 32
0.0
 13
1.0
 23
0.0
 33
0.0
 40
0.0
 40
0.0
 40
0.0
 40
0.0
 40
0.0714285714285714
 40
0.0714285714285714
 40
0.0714285714285714
 40
0.0714285714285714
 40
0.1428571428571428
 40
0.1428571428571428
 40
0.1428571428571428
 40
0.1428571428571428
 40
0.2142857142857143
 40
0.2142857142857143
 40
0.2142857142857143
 40
0.2142857142857143
 40
0.2857142857142857
 40
0.2857142857142857
 40
0.2857142857142857
 40
0.2857142857142857
 40
0.3571428571428572
 40
0.3571428571428572
 40
0.3571428571428572
 40
0.3571428571428572
 40
0.4285714285714285
 40
0.4285714285714285
 40
0.4285714285714285
 40
0.4285714285714285
 40
0.5
 40
0.5
 40
0.5
 40
0.5
 40
0.5714285714285714
 40
0.5714285714285714
 40
0.5714285714285714
 40
0.5714285714285714
 40
0.6428571428571429
 40
0.6428571428571429
 40
0.6428571428571429
 40
0.6428571428571429
 40
0.7142857142857143
 40
0.7142857142857143
 40
0.7142857142857143
 40
0.7142857142857143
 40
0.7857142857142857
 40
0.7857142857142857
 40
0.7857142857142857
 40
0.7857142857142857
 40
0.8571428571428571
 40
0.8571428571428571
 40
0.8571428571428571
 40
0.8571428571428571
 40
1.0
 40
1.0
 40
1.0
 40
1.0
 10
149.0745
 20
82.387
 30
0.0
 10
149.1684
 20
81.5412
 30
0.0
 10
149.2625
 20
80.6952
 30
0.0
 10
149.3564
 20
79.8494
 30
0.0
 10
149.3564
 20
79.8494
 30
0.0
 10
151.7256
 20
80.9422
 30
0.0
 10
155.3898
 20
80.5966
 30
0.0
 10
156.4051
 20
78.2987
 30
0.0
 10
156.4051
 20
78.2987
 30
0.0
 10
156.3581
 20
78.2518
 30
0.0
 10
156.311
 20
78.2048
 30
0.0
 10
156.2642
 20
78.1577
 30
0.0
 10
156.2642
 20
78.1577
 30
0.0
 10
154.0027
 20
78.8068
 30
0.0
 10
151.2385
 20
77.9251
 30
0.0
 10
150.2728
 20
77.1004
 30
0.0
 10
150.2728
 20
77.1004
 30
0.0
 10
150.4595
 20
74.9056
 30
0.0
 10
154.8465
 20
69.5535
 30
0.0
 10
156.1231
 20
67.7258
 30
0.0
 10
156.1231
 20
67.7258
 30
0.0
 10
158.8354
 20
67.803
 30
0.0
 10
160.1173
 20
67.5353
 30
0.0
 10
162.326
 20
66.9504
 30
0.0
 10
162.326
 20
66.9504
 30
0.0
 10
164.9221
 20
69.8113
 30
0.0
 10
168.8418
 20
75.6882
 30
0.0
 10
168.9517
 20
80.8363
 30
0.0
 10
168.9517
 20
80.8363
 30
0.0
 10
167.7998
 20
81.7417
 30
0.0
 10
166.906
 20
82.7997
 30
0.0
 10
165.5683
 20
83.5852
 30
0.0
 10
165.5683
 20
83.5852
 30
0.0
 10
162.178
 20
85.5761
 30
0.0
 10
157.9104
 20
86.3808
 30
0.0
 10
154.7135
 20
88.5193
 30
0.0
 10
154.7135
 20
88.5193
 30
0.0
 10
152.561
 20
89.9589
 30
0.0
 10
151.6055
 20
92.4178
 30
0.0
 10
149.7794
 20
94.1583
 30
0.0
 10
149.7794
 20
94.1583
 30
0.0
 10
149.7324
 20
94.0877
 30
0.0
 10
149.6853
 20
94.0172
 30
0.0
 10
149.6385
 20
93.9468
 30
0.0
 10
149.6385
 20
93.9468
 30
0.0
 10
149.474
 20
93.0071
 30
0.0
 10
149.3094
 20
92.067
 30
0.0
 10
149.1449
 20
91.1273
 30
0.0
 10
149.1449
 20
91.1273
 30
0.0
 10
149.1214
 20
88.2141
 30
0.0
 10
149.0981
 20
85.3002
 30
0.0
 10
149.0745
 20
82.387
 30
0.0
  0
SPLINE
  5
5D
330
1F
100
AcDbEntity
  8
layer 1
 62
     7
100
AcDbSpline
210
0.0
220
0.0
230
1.0
 70
    11
 71
     3
 72
    20
 73
    16
 74
     0
 42
0.0000000001
 43
0.0000000001
 12
1.0
 22
0.0
 32
0.0
 13
1.0
 23
0.0
 33
0.0
 40
0.0
 40
0.0
 40
0.0
 40
0.0
 40
0.2
 40
0.2
 40
0.2
 40
0.2
 40
0.4
 40
0.4
 40
0.4
 40
0.4
 40
0.6
 40
0.6
 40
0.6
 40
0.6
 40
1.0
 40
1.0
 40
1.0
 40
1.0
 10
148.0876
 20
-107.2215
 30
0.0
 10
148.9569
 20
-107.2686
 30
0.0
 10
149.8265
 20
-107.3156
 30
0.0
 10
150.6958
 20
-107.3625
 30
0.0
 10
150.6958
 20
-107.3625
 30
0.0
 10
151.1498
 20
-106.591
 30
0.0
 10
152.0502
 20
-105.5893
 30
0.0
 10
151.6825
 20
-104.2611
 30
0.0
 10
151.6825
 20
-104.2611
 30
0.0
 10
151.612
 20
-104.2611
 30
0.0
 10
151.5416
 20
-104.2611
 30
0.0
 10
151.471
 20
-104.2611
 30
0.0
 10
151.471
 20
-104.2611
 30
0.0
 10
150.2453
 20
-105.3297
 30
0.0
 10
149.0309
 20
-105.8556
 30
0.0
 10
148.0876
 20
-107.2215
 30
0.0
  0
SPLINE
  5
5E
330
1F
100
AcDbEntity
  8
layer 1
 62
     7
100
AcDbSpline
210
0.0
220
0.0
230
1.0
 70
    11
 71
     3
 72
    20
 73
    16
 74
     0
 42
0.0000000001
 43
0.0000000001
 12
1.0
 22
0.0
 32
0.0
 13
1.0
 23
0.0
 33
0.0
 40
0.0
 40
0.0
 40
0.0
 40
0.0
 40
0.2
 40
0.2
 40
0.2
 40
0.2
 40
0.4
 40
0.4
 40
0.4
 40
0.4
 40
0.6
 40
0.6
 40
0.6
 40
0.6
 40
1.0
 40
1.0
 40
1.0
 40
1.0
 10
147.2418
 20
-7.7652
 30
0.0
 10
148.4821
 20
-8.0652
 30
0.0
 10
149.5135
 20
-8.9614
 30
0.0
 10
149.7089
 20
-10.3028
 30
0.0
 10
149.7089
 20
-10.3028
 30
0.0
 10
149.7324
 20
-10.3028
 30
0.0
 10
149.7559
 20
-10.3028
 30
0.0
 10
149.7794
 20
-10.3028
 30
0.0
 10
149.7794
 20
-10.3028
 30
0.0
 10
149.934
 20
-8.9365
 30
0.0
 10
151.0441
 20
-4.483
 30
0.0
 10
150.0613
 20
-3.1131
 30
0.0
 10
150.0613
 20
-3.1131
 30
0.0
 10
149.6615
 20
-4.9866
 30
0.0
 10
148.3731
 20
-6.5613
 30
0.0
 10
147.2418
 20
-7.7652
 30
0.0
  0
SPLINE
  5
5F
330
1F
100
AcDbEntity
  8
layer 1
 62
     7
100
AcDbSpline
210
0.0
220
0.0
230
1.0
 70
    11
 71
     3
 72
    24
 73
    20
 74
     0
 42
0.0000000001
 43
0.0000000001
 12
1.0
 22
0.0
 32
0.0
 13
1.0
 23
0.0
 33
0.0
 40
0.0
 40
0.0
 40
0.0
 40
0.0
 40
0.1666666666666667
 40
0.1666666666666667
 40
0.1666666666666667
 40
0.1666666666666667
 40
0.3333333333333333
 40
0.3333333333333333
 40
0.3333333333333333
 40
0.3333333333333333
 40
0.5
 40
0.5
 40
0.5
 40
0.5
 40
0.6666666666666666
 40
0.6666666666666666
 40
0.6666666666666666
 40
0.6666666666666666
 40
1.0
 40
1.0
 40
1.0
 40
1.0
 10
146.5369
 20
-73.1061
 30
0.0
 10
147.1743
 20
-74.3793
 30
0.0
 10
146.6901
 20
-75.9986
 30
0.0
 10
147.1714
 20
-77.6877
 30
0.0
 10
147.1714
 20
-77.6877
 30
0.0
 10
147.9311
 20
-80.3539
 30
0.0
 10
147.6713
 20
-85.0996
 30
0.0
 10
147.6648
 20
-88.3312
 30
0.0
 10
147.6648
 20
-88.3312
 30
0.0
 10
150.3195
 20
-86.5329
 30
0.0
 10
154.0914
 20
-82.0324
 30
0.0
 10
151.612
 20
-77.9696
 30
0.0
 10
151.612
 20
-77.9696
 30
0.0
 10
150.7491
 20
-76.5557
 30
0.0
 10
149.453
 20
-74.9508
 30
0.0
 10
148.1582
 20
-73.9519
 30
0.0
 10
148.1582
 20
-73.9519
 30
0.0
 10
147.8702
 20
-73.7298
 30
0.0
 10
146.6894
 20
-72.9091
 30
0.0
 10
146.5369
 20
-73.1061
 30
0.0
  0
SPLINE
  5
60
330
1F
100
AcDbEntity
  8
layer 1
 62
     7
100
AcDbSpline
210
0.0
220
0.0
230
1.0
 70
    11
 71
     3
 72
    72
 73
    68
 74
     0
 42
0.0000000001
 43
0.0000000001
 12
1.0
 22
0.0
 32
0.0
 13
1.0
 23
0.0
 33
0.0
 40
0.0
 40
0.0
 40
0.0
 40
0.0
 40
0.0555555555555556
 40
0.0555555555555556
 40
0.0555555555555556
 40
0.0555555555555556
 40
0.1111111111111111
 40
0.1111111111111111
 40
0.1111111111111111
 40
0.1111111111111111
 40
0.1666666666666667
 40
0.1666666666666667
 40
0.1666666666666667
 40
0.1666666666666667
 40
0.2222222222222222
 40
0.2222222222222222
 40
0.2222222222222222
 40
0.2222222222222222
 40
0.2777777777777778
 40
0.2777777777777778
 40
0.2777777777777778
 40
0.2777777777777778
 40
0.3333333333333333
 40
0.3333333333333333
 40
0.3333333333333333
 40
0.3333333333333333
 40
0.3888888888888889
 40
0.3888888888888889
 40
0.3888888888888889
 40
0.3888888888888889
 40
0.4444444444444444
 40
0.4444444444444444
 40
0.4444444444444444
 40
0.4444444444444444
 40
0.5
 40
0.5
 40
0.5
 40
0.5
 40
0.5555555555555556
 40
0.5555555555555556
 40
0.5555555555555556
 40
0.5555555555555556
 40
0.6111111111111112
 40
0.6111111111111112
 40
0.6111111111111112
 40
0.6111111111111112
 40
0.6666666666666666
 40
0.6666666666666666
 40
0.6666666666666666
 40
0.6666666666666666
 40
0.7222222222222222
 40
0.7222222222222222
 40
0.7222222222222222
 40
0.7222222222222222
 40
0.7777777777777778
 40
0.7777777777777778
 40
0.7777777777777778
 40
0.7777777777777778
 40
0.8333333333333334
 40
0.8333333333333334
 40
0.8333333333333334
 40
0.8333333333333334
 40
0.8888888888888888
 40
0.8888888888888888
 40
0.8888888888888888
 40
0.8888888888888888
 40
1.0
 40
1.0
 40
1.0
 40
1.0
 10
146.0436
 20
72.096
 30
0.0
 10
147.2183
 20
70.3455
 30
0.0
 10
147.5242
 20
64.0776
 30
0.0
 10
147.5239
 20
60.6771
 30
0.0
 10
147.5239
 20
60.6771
 30
0.0
 10
147.5237
 20
59.6808
 30
0.0
 10
147.0411
 20
55.5303
 30
0.0
 10
147.1714
 20
55.3906
 30
0.0
 10
147.1714
 20
55.3906
 30
0.0
 10
148.1571
 20
54.1363
 30
0.0
 10
149.7431
 20
53.5648
 30
0.0
 10
150.8367
 20
52.4302
 30
0.0
 10
150.8367
 20
52.4302
 30
0.0
 10
152.6222
 20
50.5777
 30
0.0
 10
154.0476
 20
48.1333
 30
0.0
 10
155.2069
 20
45.875
 30
0.0
 10
155.2069
 20
45.875
 30
0.0
 10
158.7959
 20
38.883
 30
0.0
 10
156.0888
 20
24.7443
 30
0.0
 10
153.0217
 20
18.4558
 30
0.0
 10
153.0217
 20
18.4558
 30
0.0
 10
154.6898
 20
20.0298
 30
0.0
 10
156.3583
 20
21.6044
 30
0.0
 10
158.0264
 20
23.1784
 30
0.0
 10
158.0264
 20
23.1784
 30
0.0
 10
159.1971
 20
24.0467
 30
0.0
 10
160.6058
 20
24.5275
 30
0.0
 10
161.903
 20
25.293
 30
0.0
 10
161.903
 20
25.293
 30
0.0
 10
161.7856
 20
26.7026
 30
0.0
 10
161.6681
 20
28.1125
 30
0.0
 10
161.5505
 20
29.5221
 30
0.0
 10
161.5505
 20
29.5221
 30
0.0
 10
161.5272
 20
30.6264
 30
0.0
 10
161.5037
 20
31.7307
 30
0.0
 10
161.4802
 20
32.8349
 30
0.0
 10
161.4802
 20
32.8349
 30
0.0
 10
160.783
 20
36.9489
 30
0.0
 10
160.5318
 20
41.1124
 30
0.0
 10
159.0837
 20
44.4653
 30
0.0
 10
159.0837
 20
44.4653
 30
0.0
 10
158.4151
 20
46.0129
 30
0.0
 10
158.6921
 20
47.9593
 30
0.0
 10
157.4624
 20
48.9058
 30
0.0
 10
157.4624
 20
48.9058
 30
0.0
 10
157.1172
 20
48.651
 30
0.0
 10
156.9656
 20
48.495
 30
0.0
 10
156.3346
 20
48.483
 30
0.0
 10
156.3346
 20
48.483
 30
0.0
 10
156.0232
 20
48.632
 30
0.0
 10
155.8491
 20
48.7282
 30
0.0
 10
155.7003
 20
49.0469
 30
0.0
 10
155.7003
 20
49.0469
 30
0.0
 10
155.0539
 20
50.3281
 30
0.0
 10
156.3044
 20
51.7449
 30
0.0
 10
156.8985
 20
52.5007
 30
0.0
 10
156.8985
 20
52.5007
 30
0.0
 10
157.0064
 20
57.909
 30
0.0
 10
152.1294
 20
64.6887
 30
0.0
 10
149.9907
 20
68.2897
 30
0.0
 10
149.9907
 20
68.2897
 30
0.0
 10
149.2338
 20
69.5643
 30
0.0
 10
147.7346
 20
72.2014
 30
0.0
 10
146.0436
 20
72.1664
 30
0.0
 10
146.0436
 20
72.1664
 30
0.0
 10
146.0436
 20
72.143
 30
0.0
 10
146.0436
 20
72.1195
 30
0.0
 10
146.0436
 20
72.096
 30
0.0
  0
SPLINE
  5
61
330
1F
100
AcDbEntity
  8
layer 1
 62
     7
100
AcDbSpline
210
0.0
220
0.0
230
1.0
 70
    11
 71
     3
 72
    24
 73
    20
 74
     0
 42
0.0000000001
 43
0.0000000001
 12
1.0
 22
0.0
 32
0.0
 13
1.0
 23
0.0
 33
0.0
 40
0.0
 40
0.0
 40
0.0
 40
0.0
 40
0.1666666666666667
 40
0.1666666666666667
 40
0.1666666666666667
 40
0.1666666666666667
 40
0.3333333333333333
 40
0.3333333333333333
 40
0.3333333333333333
 40
0.3333333333333333
 40
0.5
 40
0.5
 40
0.5
 40
0.5
 40
0.6666666666666666
 40
0.6666666666666666
 40
0.6666666666666666
 40
0.6666666666666666
 40
1.0
 40
1.0
 40
1.0
 40
1.0
 10
144.5634
 20
-102.358
 30
0.0
 10
144.7983
 20
-102.6399
 30
0.0
 10
145.0333
 20
-102.9219
 30
0.0
 10
145.2683
 20
-103.2038
 30
0.0
 10
145.2683
 20
-103.2038
 30
0.0
 10
145.6206
 20
-103.2273
 30
0.0
 10
145.9732
 20
-103.2508
 30
0.0
 10
146.3254
 20
-103.2744
 30
0.0
 10
146.3254
 20
-103.2744
 30
0.0
 10
148.0571
 20
-101.0382
 30
0.0
 10
152.1131
 20
-98.494
 30
0.0
 10
150.1319
 20
-94.7454
 30
0.0
 10
150.1319
 20
-94.7454
 30
0.0
 10
149.7611
 20
-94.0441
 30
0.0
 10
149.5234
 20
-93.3125
 30
0.0
 10
148.863
 20
-92.9128
 30
0.0
 10
148.863
 20
-92.9128
 30
0.0
 10
147.3255
 20
-94.0044
 30
0.0
 10
144.5809
 20
-99.7281
 30
0.0
 10
144.5634
 20
-102.358
 30
0.0
  0
SPLINE
  5
62
330
1F
100
AcDbEntity
  8
layer 1
 62
     7
100
AcDbSpline
210
0.0
220
0.0
230
1.0
 70
    11
 71
     3
 72
    56
 73
    52
 74
     0
 42
0.0000000001
 43
0.0000000001
 12
1.0
 22
0.0
 32
0.0
 13
1.0
 23
0.0
 33
0.0
 40
0.0
 40
0.0
 40
0.0
 40
0.0
 40
0.0714285714285714
 40
0.0714285714285714
 40
0.0714285714285714
 40
0.0714285714285714
 40
0.1428571428571428
 40
0.1428571428571428
 40
0.1428571428571428
 40
0.1428571428571428
 40
0.2142857142857143
 40
0.2142857142857143
 40
0.2142857142857143
 40
0.2142857142857143
 40
0.2857142857142857
 40
0.2857142857142857
 40
0.2857142857142857
 40
0.2857142857142857
 40
0.3571428571428572
 40
0.3571428571428572
 40
0.3571428571428572
 40
0.3571428571428572
 40
0.4285714285714285
 40
0.4285714285714285
 40
0.4285714285714285
 40
0.4285714285714285
 40
0.5
 40
0.5
 40
0.5
 40
0.5
 40
0.5714285714285714
 40
0.5714285714285714
 40
0.5714285714285714
 40
0.5714285714285714
 40
0.6428571428571429
 40
0.6428571428571429
 40
0.6428571428571429
 40
0.6428571428571429
 40
0.7142857142857143
 40
0.7142857142857143
 40
0.7142857142857143
 40
0.7142857142857143
 40
0.7857142857142857
 40
0.7857142857142857
 40
0.7857142857142857
 40
0.7857142857142857
 40
0.8571428571428571
 40
0.8571428571428571
 40
0.8571428571428571
 40
0.8571428571428571
 40
1.0
 40
1.0
 40
1.0
 40
1.0
 10
144.2814
 20
51.2319
 30
0.0
 10
144.3284
 20
50.5506
 30
0.0
 10
144.3755
 20
49.8692
 30
0.0
 10
144.4223
 20
49.1879
 30
0.0
 10
144.4223
 20
49.1879
 30
0.0
 10
144.8924
 20
47.3318
 30
0.0
 10
145.3622
 20
45.4754
 30
0.0
 10
145.8321
 20
43.6195
 30
0.0
 10
145.8321
 20
43.6195
 30
0.0
 10
146.2475
 20
42.5155
 30
0.0
 10
146.8982
 20
41.5819
 30
0.0
 10
147.4533
 20
40.659
 30
0.0
 10
147.4533
 20
40.659
 30
0.0
 10
148.4273
 20
39.0396
 30
0.0
 10
149.1031
 20
36.8178
 30
0.0
 10
149.6385
 20
34.8791
 30
0.0
 10
149.6385
 20
34.8791
 30
0.0
 10
149.9672
 20
33.0701
 30
0.0
 10
150.2963
 20
31.2605
 30
0.0
 10
150.6252
 20
29.4517
 30
0.0
 10
150.6252
 20
29.4517
 30
0.0
 10
150.6956
 20
28.6529
 30
0.0
 10
150.7662
 20
27.854
 30
0.0
 10
150.8367
 20
27.0552
 30
0.0
 10
150.8367
 20
27.0552
 30
0.0
 10
150.8367
 20
27.102
 30
0.0
 10
150.8367
 20
27.1491
 30
0.0
 10
150.8367
 20
27.1961
 30
0.0
 10
150.8367
 20
27.1961
 30
0.0
 10
151.878
 20
28.2401
 30
0.0
 10
151.8698
 20
30.588
 30
0.0
 10
152.3168
 20
32.2006
 30
0.0
 10
152.3168
 20
32.2006
 30
0.0
 10
154.4216
 20
39.7919
 30
0.0
 10
151.4617
 20
46.0815
 30
0.0
 10
147.5239
 20
49.6812
 30
0.0
 10
147.5239
 20
49.6812
 30
0.0
 10
146.4901
 20
50.4565
 30
0.0
 10
145.4561
 20
51.2321
 30
0.0
 10
144.4223
 20
52.0073
 30
0.0
 10
144.4223
 20
52.0073
 30
0.0
 10
144.399
 20
52.0073
 30
0.0
 10
144.3755
 20
52.0073
 30
0.0
 10
144.3519
 20
52.0073
 30
0.0
 10
144.3519
 20
52.0073
 30
0.0
 10
144.3284
 20
51.9838
 30
0.0
 10
144.3049
 20
51.9603
 30
0.0
 10
144.2814
 20
51.9368
 30
0.0
 10
144.2814
 20
51.9368
 30
0.0
 10
144.2814
 20
51.702
 30
0.0
 10
144.2814
 20
51.4669
 30
0.0
 10
144.2814
 20
51.2319
 30
0.0
  0
SPLINE
  5
63
330
1F
100
AcDbEntity
  8
layer 1
 62
     7
100
AcDbSpline
210
0.0
220
0.0
230
1.0
 70
    11
 71
     3
 72
    16
 73
    12
 74
     0
 42
0.0000000001
 43
0.0000000001
 12
1.0
 22
0.0
 32
0.0
 13
1.0
 23
0.0
 33
0.0
 40
0.0
 40
0.0
 40
0.0
 40
0.0
 40
0.25
 40
0.25
 40
0.25
 40
0.25
 40
0.5
 40
0.5
 40
0.5
 40
0.5
 40
1.0
 40
1.0
 40
1.0
 40
1.0
 10
143.5061
 20
56.3069
 30
0.0
 10
145.9306
 20
58.3562
 30
0.0
 10
145.1737
 20
64.8778
 30
0.0
 10
143.6471
 20
67.2324
 30
0.0
 10
143.6471
 20
67.2324
 30
0.0
 10
143.6236
 20
67.2324
 30
0.0
 10
143.6
 20
67.2324
 30
0.0
 10
143.5765
 20
67.2324
 30
0.0
 10
143.5765
 20
67.2324
 30
0.0
 10
143.1273
 20
63.6573
 30
0.0
 10
143.727
 20
59.787
 30
0.0
 10
143.5061
 20
56.3069
 30
0.0
  0
SPLINE
  5
64
330
1F
100
AcDbEntity
  8
layer 1
 62
     7
100
AcDbSpline
210
0.0
220
0.0
230
1.0
 70
    11
 71
     3
 72
   136
 73
   132
 74
     0
 42
0.0000000001
 43
0.0000000001
 12
1.0
 22
0.0
 32
0.0
 13
1.0
 23
0.0
 33
0.0
 40
0.0
 40
0.0
 40
0.0
 40
0.0
 40
0.0294117647058824
 40
0.0294117647058824
 40
0.0294117647058824
 40
0.0294117647058824
 40
0.0588235294117647
 40
0.0588235294117647
 40
0.0588235294117647
 40
0.0588235294117647
 40
0.0882352941176471
 40
0.0882352941176471
 40
0.0882352941176471
 40
0.0882352941176471
 40
0.1176470588235294
 40
0.1176470588235294
 40
0.1176470588235294
 40
0.1176470588235294
 40
0.1470588235294118
 40
0.1470588235294118
 40
0.1470588235294118
 40
0.1470588235294118
 40
0.1764705882352941
 40
0.1764705882352941
 40
0.1764705882352941
 40
0.1764705882352941
 40
0.2058823529411765
 40
0.2058823529411765
 40
0.2058823529411765
 40
0.2058823529411765
 40
0.2352941176470588
 40
0.2352941176470588
 40
0.2352941176470588
 40
0.2352941176470588
 40
0.2647058823529412
 40
0.2647058823529412
 40
0.2647058823529412
 40
0.2647058823529412
 40
0.2941176470588235
 40
0.2941176470588235
 40
0.2941176470588235
 40
0.2941176470588235
 40
0.3235294117647059
 40
0.3235294117647059
 40
0.3235294117647059
 40
0.3235294117647059
 40
0.3529411764705883
 40
0.3529411764705883
 40
0.3529411764705883
 40
0.3529411764705883
 40
0.3823529411764706
 40
0.3823529411764706
 40
0.3823529411764706
 40
0.3823529411764706
 40
0.4117647058823529
 40
0.4117647058823529
 40
0.4117647058823529
 40
0.4117647058823529
 40
0.4411764705882353
 40
0.4411764705882353
 40
0.4411764705882353
 40
0.4411764705882353
 40
0.4705882352941176
 40
0.4705882352941176
 40
0.4705882352941176
 40
0.4705882352941176
 40
0.5
 40
0.5
 40
0.5
 40
0.5
 40
0.5294117647058824
 40
0.5294117647058824
 40
0.5294117647058824
 40
0.5294117647058824
 40
0.5588235294117647
 40
0.5588235294117647
 40
0.5588235294117647
 40
0.5588235294117647
 40
0.5882352941176471
 40
0.5882352941176471
 40
0.5882352941176471
 40
0.5882352941176471
 40
0.6176470588235294
 40
0.6176470588235294
 40
0.6176470588235294
 40
0.6176470588235294
 40
0.6470588235294118
 40
0.6470588235294118
 40
0.6470588235294118
 40
0.6470588235294118
 40
0.6764705882352942
 40
0.6764705882352942
 40
0.6764705882352942
 40
0.6764705882352942
 40
0.7058823529411765
 40
0.7058823529411765
 40
0.7058823529411765
 40
0.7058823529411765
 40
0.7352941176470589
 40
0.7352941176470589
 40
0.7352941176470589
 40
0.7352941176470589
 40
0.7647058823529411
 40
0.7647058823529411
 40
0.7647058823529411
 40
0.7647058823529411
 40
0.7941176470588235
 40
0.7941176470588235
 40
0.7941176470588235
 40
0.7941176470588235
 40
0.8235294117647058
 40
0.8235294117647058
 40
0.8235294117647058
 40
0.8235294117647058
 40
0.8529411764705882
 40
0.8529411764705882
 40
0.8529411764705882
 40
0.8529411764705882
 40
0.8823529411764706
 40
0.8823529411764706
 40
0.8823529411764706
 40
0.8823529411764706
 40
0.9117647058823529
 40
0.9117647058823529
 40
0.9117647058823529
 40
0.9117647058823529
 40
0.9411764705882353
 40
0.9411764705882353
 40
0.9411764705882353
 40
0.9411764705882353
 40
1.0
 40
1.0
 40
1.0
 40
1.0
 10
140.6161
 20
-45.9687
 30
0.0
 10
141.3404
 20
-48.0047
 30
0.0
 10
139.6426
 20
-51.54
 30
0.0
 10
142.3079
 20
-51.6077
 30
0.0
 10
142.3079
 20
-51.6077
 30
0.0
 10
142.6133
 20
-51.5138
 30
0.0
 10
142.9187
 20
-51.4197
 30
0.0
 10
143.2241
 20
-51.3258
 30
0.0
 10
143.2241
 20
-51.3258
 30
0.0
 10
143.2711
 20
-51.3729
 30
0.0
 10
143.3182
 20
-51.4197
 30
0.0
 10
143.3652
 20
-51.4668
 30
0.0
 10
143.3652
 20
-51.4668
 30
0.0
 10
143.5112
 20
-52.8557
 30
0.0
 10
143.8372
 20
-54.311
 30
0.0
 10
143.4356
 20
-55.7664
 30
0.0
 10
143.4356
 20
-55.7664
 30
0.0
 10
143.2318
 20
-56.5052
 30
0.0
 10
142.69
 20
-57.3134
 30
0.0
 10
142.5898
 20
-58.0925
 30
0.0
 10
142.5898
 20
-58.0925
 30
0.0
 10
143.5632
 20
-58.5632
 30
0.0
 10
145.4058
 20
-60.5741
 30
0.0
 10
145.5502
 20
-61.8987
 30
0.0
 10
145.5502
 20
-61.8987
 30
0.0
 10
145.4328
 20
-62.0396
 30
0.0
 10
145.3152
 20
-62.1807
 30
0.0
 10
145.1978
 20
-62.3217
 30
0.0
 10
145.1978
 20
-62.3217
 30
0.0
 10
144.5164
 20
-62.1337
 30
0.0
 10
143.8349
 20
-61.9457
 30
0.0
 10
143.1537
 20
-61.7578
 30
0.0
 10
143.1537
 20
-61.7578
 30
0.0
 10
143.1302
 20
-61.7578
 30
0.0
 10
143.1067
 20
-61.7578
 30
0.0
 10
143.0831
 20
-61.7578
 30
0.0
 10
143.0831
 20
-61.7578
 30
0.0
 10
143.0546
 20
-64.6449
 30
0.0
 10
144.0545
 20
-66.892
 30
0.0
 10
144.9863
 20
-68.8065
 30
0.0
 10
144.9863
 20
-68.8065
 30
0.0
 10
145.0803
 20
-68.7359
 30
0.0
 10
145.1742
 20
-68.6655
 30
0.0
 10
145.2683
 20
-68.595
 30
0.0
 10
145.2683
 20
-68.595
 30
0.0
 10
145.6441
 20
-67.8432
 30
0.0
 10
146.02
 20
-67.0911
 30
0.0
 10
146.396
 20
-66.3394
 30
0.0
 10
146.396
 20
-66.3394
 30
0.0
 10
146.7095
 20
-65.4491
 30
0.0
 10
146.6084
 20
-64.2911
 30
0.0
 10
147.1714
 20
-63.6609
 30
0.0
 10
147.1714
 20
-63.6609
 30
0.0
 10
147.1948
 20
-63.6609
 30
0.0
 10
147.2183
 20
-63.6609
 30
0.0
 10
147.2418
 20
-63.6609
 30
0.0
 10
147.2418
 20
-63.6609
 30
0.0
 10
147.3585
 20
-66.1814
 30
0.0
 10
147.5102
 20
-68.3555
 30
0.0
 10
146.6075
 20
-70.1456
 30
0.0
 10
146.6075
 20
-70.1456
 30
0.0
 10
149.202
 20
-69.9198
 30
0.0
 10
150.834
 20
-70.553
 30
0.0
 10
152.3168
 20
-71.6963
 30
0.0
 10
152.3168
 20
-71.6963
 30
0.0
 10
151.5886
 20
-68.6892
 30
0.0
 10
150.8601
 20
-65.6812
 30
0.0
 10
150.1319
 20
-62.6741
 30
0.0
 10
150.1319
 20
-62.6741
 30
0.0
 10
149.85
 20
-59.3146
 30
0.0
 10
149.5679
 20
-55.954
 30
0.0
 10
149.286
 20
-52.5946
 30
0.0
 10
149.286
 20
-52.5946
 30
0.0
 10
148.9672
 20
-49.9281
 30
0.0
 10
149.6202
 20
-47.2697
 30
0.0
 10
147.9467
 20
-46.0393
 30
0.0
 10
147.9467
 20
-46.0393
 30
0.0
 10
146.0648
 20
-44.6554
 30
0.0
 10
143.7916
 20
-46.2143
 30
0.0
 10
141.8143
 20
-46.6032
 30
0.0
 10
141.8143
 20
-46.6032
 30
0.0
 10
141.7476
 20
-43.9155
 30
0.0
 10
143.0226
 20
-42.3246
 30
0.0
 10
145.1272
 20
-41.8101
 30
0.0
 10
145.1272
 20
-41.8101
 30
0.0
 10
144.6757
 20
-38.6139
 30
0.0
 10
144.3353
 20
-35.8305
 30
0.0
 10
147.1009
 20
-34.268
 30
0.0
 10
147.1009
 20
-34.268
 30
0.0
 10
149.332
 20
-34.6395
 30
0.0
 10
151.1857
 20
-37.0771
 30
0.0
 10
151.4005
 20
-39.4841
 30
0.0
 10
151.4005
 20
-39.4841
 30
0.0
 10
152.8188
 20
-38.8495
 30
0.0
 10
154.9056
 20
-38.7286
 30
0.0
 10
156.6166
 20
-39.1317
 30
0.0
 10
156.6166
 20
-39.1317
 30
0.0
 10
156.6166
 20
-39.1082
 30
0.0
 10
156.6166
 20
-39.0847
 30
0.0
 10
156.6166
 20
-39.0611
 30
0.0
 10
156.6166
 20
-39.0611
 30
0.0
 10
156.1091
 20
-37.4282
 30
0.0
 10
155.801
 20
-35.8066
 30
0.0
 10
155.0659
 20
-34.268
 30
0.0
 10
155.0659
 20
-34.268
 30
0.0
 10
152.9045
 20
-30.932
 30
0.0
 10
150.7425
 20
-27.5951
 30
0.0
 10
148.5812
 20
-24.259
 30
0.0
 10
148.5812
 20
-24.259
 30
0.0
 10
147.9233
 20
-22.8024
 30
0.0
 10
147.2653
 20
-21.3455
 30
0.0
 10
146.6075
 20
-19.8889
 30
0.0
 10
146.6075
 20
-19.8889
 30
0.0
 10
146.349
 20
-19.0666
 30
0.0
 10
146.0906
 20
-18.2441
 30
0.0
 10
145.8321
 20
-17.4218
 30
0.0
 10
145.8321
 20
-17.4218
 30
0.0
 10
145.8086
 20
-17.4218
 30
0.0
 10
145.7852
 20
-17.4218
 30
0.0
 10
145.7617
 20
-17.4218
 30
0.0
 10
145.7617
 20
-17.4218
 30
0.0
 10
145.2448
 20
-18.4321
 30
0.0
 10
144.7277
 20
-19.4426
 30
0.0
 10
144.211
 20
-20.4528
 30
0.0
 10
144.211
 20
-20.4528
 30
0.0
 10
142.9205
 20
-23.1324
 30
0.0
 10
142.1761
 20
-26.4519
 30
0.0
 10
141.4619
 20
-29.5454
 30
0.0
 10
141.4619
 20
-29.5454
 30
0.0
 10
140.3468
 20
-34.3757
 30
0.0
 10
140.64
 20
-40.2443
 30
0.0
 10
140.6161
 20
-45.9687
 30
0.0
  0
SPLINE
  5
65
330
1F
100
AcDbEntity
  8
layer 1
 62
     7
100
AcDbSpline
210
0.0
220
0.0
230
1.0
 70
    11
 71
     3
 72
    28
 73
    24
 74
     0
 42
0.0000000001
 43
0.0000000001
 12
1.0
 22
0.0
 32
0.0
 13
1.0
 23
0.0
 33
0.0
 40
0.0
 40
0.0
 40
0.0
 40
0.0
 40
0.1428571428571428
 40
0.1428571428571428
 40
0.1428571428571428
 40
0.1428571428571428
 40
0.2857142857142857
 40
0.2857142857142857
 40
0.2857142857142857
 40
0.2857142857142857
 40
0.4285714285714285
 40
0.4285714285714285
 40
0.4285714285714285
 40
0.4285714285714285
 40
0.5714285714285714
 40
0.5714285714285714
 40
0.5714285714285714
 40
0.5714285714285714
 40
0.7142857142857143
 40
0.7142857142857143
 40
0.7142857142857143
 40
0.7142857142857143
 40
1.0
 40
1.0
 40
1.0
 40
1.0
 10
135.1183
 20
-82.8333
 30
0.0
 10
135.729
 20
-84.9007
 30
0.0
 10
136.34
 20
-86.9686
 30
0.0
 10
136.9508
 20
-89.036
 30
0.0
 10
136.9508
 20
-89.036
 30
0.0
 10
137.8444
 20
-91.5894
 30
0.0
 10
138.8771
 20
-93.9635
 30
0.0
 10
140.0522
 20
-96.3666
 30
0.0
 10
140.0522
 20
-96.3666
 30
0.0
 10
140.0992
 20
-96.3431
 30
0.0
 10
140.1462
 20
-96.3196
 30
0.0
 10
140.1933
 20
-96.2962
 30
0.0
 10
140.1933
 20
-96.2962
 30
0.0
 10
142.2361
 20
-91.3041
 30
0.0
 10
143.3169
 20
-87.1871
 30
0.0
 10
141.8849
 20
-80.8596
 30
0.0
 10
141.8849
 20
-80.8596
 30
0.0
 10
141.6127
 20
-79.6573
 30
0.0
 10
141.6583
 20
-77.7312
 30
0.0
 10
140.8982
 20
-76.9828
 30
0.0
 10
140.8982
 20
-76.9828
 30
0.0
 10
139.4155
 20
-77.9822
 30
0.0
 10
135.4912
 20
-81.0135
 30
0.0
 10
135.1183
 20
-82.8333
 30
0.0
  0
SPLINE
  5
66
330
1F
100
AcDbEntity
  8
layer 1
 62
     7
100
AcDbSpline
210
0.0
220
0.0
230
1.0
 70
    11
 71
     3
 72
    24
 73
    20
 74
     0
 42
0.0000000001
 43
0.0000000001
 12
1.0
 22
0.0
 32
0.0
 13
1.0
 23
0.0
 33
0.0
 40
0.0
 40
0.0
 40
0.0
 40
0.0
 40
0.1666666666666667
 40
0.1666666666666667
 40
0.1666666666666667
 40
0.1666666666666667
 40
0.3333333333333333
 40
0.3333333333333333
 40
0.3333333333333333
 40
0.3333333333333333
 40
0.5
 40
0.5
 40
0.5
 40
0.5
 40
0.6666666666666666
 40
0.6666666666666666
 40
0.6666666666666666
 40
0.6666666666666666
 40
1.0
 40
1.0
 40
1.0
 40
1.0
 10
134.5543
 20
-77.3353
 30
0.0
 10
135.6114
 20
-76.466
 30
0.0
 10
136.6689
 20
-75.5964
 30
0.0
 10
137.7262
 20
-74.7273
 30
0.0
 10
137.7262
 20
-74.7273
 30
0.0
 10
138.4309
 20
-74.3045
 30
0.0
 10
139.136
 20
-73.8815
 30
0.0
 10
139.8409
 20
-73.4585
 30
0.0
 10
139.8409
 20
-73.4585
 30
0.0
 10
139.2065
 20
-72.0019
 30
0.0
 10
138.572
 20
-70.5449
 30
0.0
 10
137.9376
 20
-69.0883
 30
0.0
 10
137.9376
 20
-69.0883
 30
0.0
 10
137.6088
 20
-67.9606
 30
0.0
 10
137.2797
 20
-66.8326
 30
0.0
 10
136.9508
 20
-65.7051
 30
0.0
 10
136.9508
 20
-65.7051
 30
0.0
 10
136.193
 20
-69.2072
 30
0.0
 10
134.5805
 20
-72.8784
 30
0.0
 10
134.5543
 20
-77.3353
 30
0.0
  0
SPLINE
  5
67
330
1F
100
AcDbEntity
  8
layer 1
 62
     7
100
AcDbSpline
210
0.0
220
0.0
230
1.0
 70
    11
 71
     3
 72
    24
 73
    20
 74
     0
 42
0.0000000001
 43
0.0000000001
 12
1.0
 22
0.0
 32
0.0
 13
1.0
 23
0.0
 33
0.0
 40
0.0
 40
0.0
 40
0.0
 40
0.0
 40
0.1666666666666667
 40
0.1666666666666667
 40
0.1666666666666667
 40
0.1666666666666667
 40
0.3333333333333333
 40
0.3333333333333333
 40
0.3333333333333333
 40
0.3333333333333333
 40
0.5
 40
0.5
 40
0.5
 40
0.5
 40
0.6666666666666666
 40
0.6666666666666666
 40
0.6666666666666666
 40
0.6666666666666666
 40
1.0
 40
1.0
 40
1.0
 40
1.0
 10
134.4838
 20
41.3639
 30
0.0
 10
135.4556
 20
38.8875
 30
0.0
 10
135.6795
 20
37.2546
 30
0.0
 10
139.136
 20
37.2756
 30
0.0
 10
139.136
 20
37.2756
 30
0.0
 10
140.1044
 20
37.2816
 30
0.0
 10
141.0834
 20
37.4365
 30
0.0
 10
141.603
 20
37.9099
 30
0.0
 10
141.603
 20
37.9099
 30
0.0
 10
140.633
 20
40.3231
 30
0.0
 10
140.5064
 20
43.6561
 30
0.0
 10
139.8409
 20
46.2978
 30
0.0
 10
139.8409
 20
46.2978
 30
0.0
 10
139.5979
 20
47.2618
 30
0.0
 10
139.5974
 20
49.0525
 30
0.0
 10
138.9245
 20
49.6107
 30
0.0
 10
138.9245
 20
49.6107
 30
0.0
 10
136.0862
 20
48.4828
 30
0.0
 10
134.4572
 20
45.3797
 30
0.0
 10
134.4838
 20
41.3639
 30
0.0
  0
SPLINE
  5
68
330
1F
100
AcDbEntity
  8
layer 1
 62
     7
100
AcDbSpline
210
0.0
220
0.0
230
1.0
 70
    11
 71
     3
 72
    60
 73
    56
 74
     0
 42
0.0000000001
 43
0.0000000001
 12
1.0
 22
0.0
 32
0.0
 13
1.0
 23
0.0
 33
0.0
 40
0.0
 40
0.0
 40
0.0
 40
0.0
 40
0.0666666666666667
 40
0.0666666666666667
 40
0.0666666666666667
 40
0.0666666666666667
 40
0.1333333333333333
 40
0.1333333333333333
 40
0.1333333333333333
 40
0.1333333333333333
 40
0.2
 40
0.2
 40
0.2
 40
0.2
 40
0.2666666666666667
 40
0.2666666666666667
 40
0.2666666666666667
 40
0.2666666666666667
 40
0.3333333333333333
 40
0.3333333333333333
 40
0.3333333333333333
 40
0.3333333333333333
 40
0.4
 40
0.4
 40
0.4
 40
0.4
 40
0.4666666666666667
 40
0.4666666666666667
 40
0.4666666666666667
 40
0.4666666666666667
 40
0.5333333333333333
 40
0.5333333333333333
 40
0.5333333333333333
 40
0.5333333333333333
 40
0.6
 40
0.6
 40
0.6
 40
0.6
 40
0.6666666666666666
 40
0.6666666666666666
 40
0.6666666666666666
 40
0.6666666666666666
 40
0.7333333333333333
 40
0.7333333333333333
 40
0.7333333333333333
 40
0.7333333333333333
 40
0.8
 40
0.8
 40
0.8
 40
0.8
 40
0.8666666666666667
 40
0.8666666666666667
 40
0.8666666666666667
 40
0.8666666666666667
 40
1.0
 40
1.0
 40
1.0
 40
1.0
 10
130.3957
 20
125.1016
 30
0.0
 10
131.5458
 20
124.2555
 30
0.0
 10
131.9377
 20
122.7621
 30
0.0
 10
132.3692
 20
121.5775
 30
0.0
 10
132.3692
 20
121.5775
 30
0.0
 10
132.5336
 20
121.7419
 30
0.0
 10
132.6982
 20
121.9064
 30
0.0
 10
132.8627
 20
122.0708
 30
0.0
 10
132.8627
 20
122.0708
 30
0.0
 10
133.5204
 20
122.4233
 30
0.0
 10
134.1784
 20
122.7757
 30
0.0
 10
134.8362
 20
123.1282
 30
0.0
 10
134.8362
 20
123.1282
 30
0.0
 10
137.2014
 20
123.9038
 30
0.0
 10
139.009
 20
122.0804
 30
0.0
 10
139.4179
 20
120.3791
 30
0.0
 10
139.4179
 20
120.3791
 30
0.0
 10
135.7775
 20
119.7562
 30
0.0
 10
132.2465
 20
117.0888
 30
0.0
 10
135.2592
 20
113.1896
 30
0.0
 10
135.2592
 20
113.1896
 30
0.0
 10
136.4662
 20
111.6271
 30
0.0
 10
139.1961
 20
111.2224
 30
0.0
 10
141.1095
 20
110.3701
 30
0.0
 10
141.1095
 20
110.3701
 30
0.0
 10
144.1945
 20
108.9961
 30
0.0
 10
150.2825
 20
104.92
 30
0.0
 10
150.3432
 20
100.5725
 30
0.0
 10
150.3432
 20
100.5725
 30
0.0
 10
150.4608
 20
100.596
 30
0.0
 10
150.5782
 20
100.6195
 30
0.0
 10
150.6958
 20
100.6429
 30
0.0
 10
150.6958
 20
100.6429
 30
0.0
 10
151.0012
 20
101.2303
 30
0.0
 10
151.3066
 20
101.8178
 30
0.0
 10
151.612
 20
102.405
 30
0.0
 10
151.612
 20
102.405
 30
0.0
 10
152.4404
 20
104.3661
 30
0.0
 10
152.8975
 20
106.9651
 30
0.0
 10
152.3168
 20
109.0307
 30
0.0
 10
152.3168
 20
109.0307
 30
0.0
 10
151.4371
 20
112.1608
 30
0.0
 10
147.9722
 20
113.0709
 30
0.0
 10
146.6779
 20
115.3042
 30
0.0
 10
146.6779
 20
115.3042
 30
0.0
 10
145.6249
 20
117.1213
 30
0.0
 10
146.0687
 20
121.6276
 30
0.0
 10
146.7484
 20
123.3396
 30
0.0
 10
146.7484
 20
123.3396
 30
0.0
 10
147.1948
 20
124.0679
 30
0.0
 10
147.6413
 20
124.7964
 30
0.0
 10
148.0876
 20
125.5246
 30
0.0
 10
148.0876
 20
125.5246
 30
0.0
 10
142.1908
 20
125.3837
 30
0.0
 10
136.2924
 20
125.2428
 30
0.0
 10
130.3957
 20
125.1016
 30
0.0
  0
SPLINE
  5
69
330
1F
100
AcDbEntity
  8
layer 1
 62
     7
100
AcDbSpline
210
0.0
220
0.0
230
1.0
 70
    11
 71
     3
 72
    24
 73
    20
 74
     0
 42
0.0000000001
 43
0.0000000001
 12
1.0
 22
0.0
 32
0.0
 13
1.0
 23
0.0
 33
0.0
 40
0.0
 40
0.0
 40
0.0
 40
0.0
 40
0.1666666666666667
 40
0.1666666666666667
 40
0.1666666666666667
 40
0.1666666666666667
 40
0.3333333333333333
 40
0.3333333333333333
 40
0.3333333333333333
 40
0.3333333333333333
 40
0.5
 40
0.5
 40
0.5
 40
0.5
 40
0.6666666666666666
 40
0.6666666666666666
 40
0.6666666666666666
 40
0.6666666666666666
 40
1.0
 40
1.0
 40
1.0
 40
1.0
 10
129.9021
 20
84.3606
 30
0.0
 10
135.1542
 20
84.4515
 30
0.0
 10
138.695
 20
82.4345
 30
0.0
 10
141.4619
 20
79.9905
 30
0.0
 10
141.4619
 20
79.9905
 30
0.0
 10
142.2138
 20
79.2386
 30
0.0
 10
142.9657
 20
78.4867
 30
0.0
 10
143.7175
 20
77.7348
 30
0.0
 10
143.7175
 20
77.7348
 30
0.0
 10
143.2819
 20
80.6849
 30
0.0
 10
142.6736
 20
83.3118
 30
0.0
 10
142.9422
 20
86.1228
 30
0.0
 10
142.9422
 20
86.1228
 30
0.0
 10
143.1042
 20
87.8187
 30
0.0
 10
144.1634
 20
90.2052
 30
0.0
 10
143.788
 20
91.8322
 30
0.0
 10
143.788
 20
91.8322
 30
0.0
 10
137.6571
 20
92.3505
 30
0.0
 10
131.1761
 20
89.0393
 30
0.0
 10
129.9021
 20
84.3606
 30
0.0
  0
SPLINE
  5
6A
330
1F
100
AcDbEntity
  8
layer 1
 62
     7
100
AcDbSpline
210
0.0
220
0.0
230
1.0
 70
    11
 71
     3
 72
    24
 73
    20
 74
     0
 42
0.0000000001
 43
0.0000000001
 12
1.0
 22
0.0
 32
0.0
 13
1.0
 23
0.0
 33
0.0
 40
0.0
 40
0.0
 40
0.0
 40
0.0
 40
0.1666666666666667
 40
0.1666666666666667
 40
0.1666666666666667
 40
0.1666666666666667
 40
0.3333333333333333
 40
0.3333333333333333
 40
0.3333333333333333
 40
0.3333333333333333
 40
0.5
 40
0.5
 40
0.5
 40
0.5
 40
0.6666666666666666
 40
0.6666666666666666
 40
0.6666666666666666
 40
0.6666666666666666
 40
1.0
 40
1.0
 40
1.0
 40
1.0
 10
129.2678
 20
-91.9261
 30
0.0
 10
130.8465
 20
-93.5441
 30
0.0
 10
132.2975
 20
-95.2043
 30
0.0
 10
133.497
 20
-97.2124
 30
0.0
 10
133.497
 20
-97.2124
 30
0.0
 10
133.9904
 20
-98.1756
 30
0.0
 10
134.4839
 20
-99.1392
 30
0.0
 10
134.9771
 20
-100.1024
 30
0.0
 10
134.9771
 20
-100.1024
 30
0.0
 10
135.0594
 20
-95.2466
 30
0.0
 10
134.6829
 20
-88.3152
 30
0.0
 10
132.3692
 20
-85.9347
 30
0.0
 10
132.3692
 20
-85.9347
 30
0.0
 10
131.9228
 20
-86.4984
 30
0.0
 10
131.4763
 20
-87.0625
 30
0.0
 10
131.03
 20
-87.6263
 30
0.0
 10
131.03
 20
-87.6263
 30
0.0
 10
130.193
 20
-88.7662
 30
0.0
 10
129.6301
 20
-90.3772
 30
0.0
 10
129.2678
 20
-91.9261
 30
0.0
  0
SPLINE
  5
6B
330
1F
100
AcDbEntity
  8
layer 1
 62
     7
100
AcDbSpline
210
0.0
220
0.0
230
1.0
 70
    11
 71
     3
 72
    28
 73
    24
 74
     0
 42
0.0000000001
 43
0.0000000001
 12
1.0
 22
0.0
 32
0.0
 13
1.0
 23
0.0
 33
0.0
 40
0.0
 40
0.0
 40
0.0
 40
0.0
 40
0.1428571428571428
 40
0.1428571428571428
 40
0.1428571428571428
 40
0.1428571428571428
 40
0.2857142857142857
 40
0.2857142857142857
 40
0.2857142857142857
 40
0.2857142857142857
 40
0.4285714285714285
 40
0.4285714285714285
 40
0.4285714285714285
 40
0.4285714285714285
 40
0.5714285714285714
 40
0.5714285714285714
 40
0.5714285714285714
 40
0.5714285714285714
 40
0.7142857142857143
 40
0.7142857142857143
 40
0.7142857142857143
 40
0.7142857142857143
 40
1.0
 40
1.0
 40
1.0
 40
1.0
 10
127.5056
 20
-99.5385
 30
0.0
 10
127.6701
 20
-100.4077
 30
0.0
 10
127.8345
 20
-101.2774
 30
0.0
 10
127.999
 20
-102.1465
 30
0.0
 10
127.999
 20
-102.1465
 30
0.0
 10
128.61
 20
-103.4151
 30
0.0
 10
129.2209
 20
-104.6841
 30
0.0
 10
129.8317
 20
-105.9527
 30
0.0
 10
129.8317
 20
-105.9527
 30
0.0
 10
129.8788
 20
-105.9527
 30
0.0
 10
129.9256
 20
-105.9527
 30
0.0
 10
129.9727
 20
-105.9527
 30
0.0
 10
129.9727
 20
-105.9527
 30
0.0
 10
130.1606
 20
-105.1304
 30
0.0
 10
130.3486
 20
-104.308
 30
0.0
 10
130.5366
 20
-103.4857
 30
0.0
 10
130.5366
 20
-103.4857
 30
0.0
 10
130.9147
 20
-100.9799
 30
0.0
 10
129.1971
 20
-96.5583
 30
0.0
 10
127.999
 20
-95.4502
 30
0.0
 10
127.999
 20
-95.4502
 30
0.0
 10
127.9155
 20
-96.7492
 30
0.0
 10
127.5676
 20
-98.0237
 30
0.0
 10
127.5056
 20
-99.5385
 30
0.0
  0
SPLINE
  5
6C
330
1F
100
AcDbEntity
  8
layer 1
 62
     7
100
AcDbSpline
210
0.0
220
0.0
230
1.0
 70
    11
 71
     3
 72
    52
 73
    48
 74
     0
 42
0.0000000001
 43
0.0000000001
 12
1.0
 22
0.0
 32
0.0
 13
1.0
 23
0.0
 33
0.0
 40
0.0
 40
0.0
 40
0.0
 40
0.0
 40
0.0769230769230769
 40
0.0769230769230769
 40
0.0769230769230769
 40
0.0769230769230769
 40
0.1538461538461539
 40
0.1538461538461539
 40
0.1538461538461539
 40
0.1538461538461539
 40
0.2307692307692308
 40
0.2307692307692308
 40
0.2307692307692308
 40
0.2307692307692308
 40
0.3076923076923077
 40
0.3076923076923077
 40
0.3076923076923077
 40
0.3076923076923077
 40
0.3846153846153846
 40
0.3846153846153846
 40
0.3846153846153846
 40
0.3846153846153846
 40
0.4615384615384616
 40
0.4615384615384616
 40
0.4615384615384616
 40
0.4615384615384616
 40
0.5384615384615384
 40
0.5384615384615384
 40
0.5384615384615384
 40
0.5384615384615384
 40
0.6153846153846154
 40
0.6153846153846154
 40
0.6153846153846154
 40
0.6153846153846154
 40
0.6923076923076923
 40
0.6923076923076923
 40
0.6923076923076923
 40
0.6923076923076923
 40
0.7692307692307693
 40
0.7692307692307693
 40
0.7692307692307693
 40
0.7692307692307693
 40
0.8461538461538461
 40
0.8461538461538461
 40
0.8461538461538461
 40
0.8461538461538461
 40
1.0
 40
1.0
 40
1.0
 40
1.0
 10
126.9419
 20
76.8889
 30
0.0
 10
127.2941
 20
76.6776
 30
0.0
 10
127.6467
 20
76.4661
 30
0.0
 10
127.999
 20
76.2546
 30
0.0
 10
127.999
 20
76.2546
 30
0.0
 10
128.0696
 20
76.3017
 30
0.0
 10
128.1401
 20
76.3485
 30
0.0
 10
128.2105
 20
76.3956
 30
0.0
 10
128.2105
 20
76.3956
 30
0.0
 10
128.6943
 20
77.8166
 30
0.0
 10
130.1849
 20
78.7441
 30
0.0
 10
131.8054
 20
79.0741
 30
0.0
 10
131.8054
 20
79.0741
 30
0.0
 10
133.7617
 20
79.4725
 30
0.0
 10
136.5352
 20
77.8525
 30
0.0
 10
135.8935
 20
76.2546
 30
0.0
 10
135.8935
 20
76.2546
 30
0.0
 10
133.399
 20
76.2106
 30
0.0
 10
130.3576
 20
75.7675
 30
0.0
 10
129.6908
 20
73.7876
 30
0.0
 10
129.6908
 20
73.7876
 30
0.0
 10
129.257
 20
72.5001
 30
0.0
 10
130.1558
 20
70.4343
 30
0.0
 10
130.466
 20
69.4174
 30
0.0
 10
130.466
 20
69.4174
 30
0.0
 10
131.6702
 20
65.4706
 30
0.0
 10
134.3699
 20
60.6829
 30
0.0
 10
138.0787
 20
59.4083
 30
0.0
 10
138.0787
 20
59.4083
 30
0.0
 10
137.9952
 20
64.788
 30
0.0
 10
139.324
 20
69.9503
 30
0.0
 10
140.8982
 20
74.2106
 30
0.0
 10
140.8982
 20
74.2106
 30
0.0
 10
139.8398
 20
76.5857
 30
0.0
 10
135.9682
 20
81.0237
 30
0.0
 10
132.6512
 20
80.7657
 30
0.0
 10
132.6512
 20
80.7657
 30
0.0
 10
131.5955
 20
80.6837
 30
0.0
 10
128.9391
 20
81.1851
 30
0.0
 10
128.3514
 20
80.4133
 30
0.0
 10
128.3514
 20
80.4133
 30
0.0
 10
128.2105
 20
79.7086
 30
0.0
 10
128.0696
 20
79.0036
 30
0.0
 10
127.9286
 20
78.2987
 30
0.0
 10
127.9286
 20
78.2987
 30
0.0
 10
127.5997
 20
77.8288
 30
0.0
 10
127.2708
 20
77.3588
 30
0.0
 10
126.9419
 20
76.8889
 30
0.0
  0
SPLINE
  5
6D
330
1F
100
AcDbEntity
  8
layer 1
 62
     7
100
AcDbSpline
210
0.0
220
0.0
230
1.0
 70
    11
 71
     3
 72
    36
 73
    32
 74
     0
 42
0.0000000001
 43
0.0000000001
 12
1.0
 22
0.0
 32
0.0
 13
1.0
 23
0.0
 33
0.0
 40
0.0
 40
0.0
 40
0.0
 40
0.0
 40
0.1111111111111111
 40
0.1111111111111111
 40
0.1111111111111111
 40
0.1111111111111111
 40
0.2222222222222222
 40
0.2222222222222222
 40
0.2222222222222222
 40
0.2222222222222222
 40
0.3333333333333333
 40
0.3333333333333333
 40
0.3333333333333333
 40
0.3333333333333333
 40
0.4444444444444444
 40
0.4444444444444444
 40
0.4444444444444444
 40
0.4444444444444444
 40
0.5555555555555556
 40
0.5555555555555556
 40
0.5555555555555556
 40
0.5555555555555556
 40
0.6666666666666666
 40
0.6666666666666666
 40
0.6666666666666666
 40
0.6666666666666666
 40
0.7777777777777778
 40
0.7777777777777778
 40
0.7777777777777778
 40
0.7777777777777778
 40
1.0
 40
1.0
 40
1.0
 40
1.0
 10
120.2456
 20
-95.4502
 30
0.0
 10
121.2769
 20
-97.951
 30
0.0
 10
121.1959
 20
-100.8256
 30
0.0
 10
122.8536
 20
-102.6399
 30
0.0
 10
122.8536
 20
-102.6399
 30
0.0
 10
122.7512
 20
-96.1734
 30
0.0
 10
125.5485
 20
-89.6113
 30
0.0
 10
127.999
 20
-85.4413
 30
0.0
 10
127.999
 20
-85.4413
 30
0.0
 10
128.7699
 20
-84.1294
 30
0.0
 10
130.7088
 20
-82.3209
 30
0.0
 10
131.1005
 20
-80.9302
 30
0.0
 10
131.1005
 20
-80.9302
 30
0.0
 10
129.6105
 20
-79.6095
 30
0.0
 10
128.7457
 20
-78.5303
 30
0.0
 10
126.5189
 20
-77.7583
 30
0.0
 10
126.5189
 20
-77.7583
 30
0.0
 10
126.3779
 20
-77.8287
 30
0.0
 10
126.237
 20
-77.8992
 30
0.0
 10
126.0959
 20
-77.9696
 30
0.0
 10
126.0959
 20
-77.9696
 30
0.0
 10
126.1779
 20
-83.3418
 30
0.0
 10
125.4167
 20
-87.5629
 30
0.0
 10
123.2766
 20
-90.5867
 30
0.0
 10
123.2766
 20
-90.5867
 30
0.0
 10
122.2663
 20
-91.409
 30
0.0
 10
121.2559
 20
-92.2315
 30
0.0
 10
120.2456
 20
-93.0537
 30
0.0
 10
120.2456
 20
-93.0537
 30
0.0
 10
120.2456
 20
-93.8525
 30
0.0
 10
120.2456
 20
-94.6515
 30
0.0
 10
120.2456
 20
-95.4502
 30
0.0
  0
SPLINE
  5
6E
330
1F
100
AcDbEntity
  8
layer 1
 62
     7
100
AcDbSpline
210
0.0
220
0.0
230
1.0
 70
    11
 71
     3
 72
    20
 73
    16
 74
     0
 42
0.0000000001
 43
0.0000000001
 12
1.0
 22
0.0
 32
0.0
 13
1.0
 23
0.0
 33
0.0
 40
0.0
 40
0.0
 40
0.0
 40
0.0
 40
0.2
 40
0.2
 40
0.2
 40
0.2
 40
0.4
 40
0.4
 40
0.4
 40
0.4
 40
0.6
 40
0.6
 40
0.6
 40
0.6
 40
1.0
 40
1.0
 40
1.0
 40
1.0
 10
119.0474
 20
-84.1019
 30
0.0
 10
119.4373
 20
-85.1476
 30
0.0
 10
118.8924
 20
-86.8395
 30
0.0
 10
119.3998
 20
-87.7672
 30
0.0
 10
119.3998
 20
-87.7672
 30
0.0
 10
121.6033
 20
-86.5595
 30
0.0
 10
123.8542
 20
-83.271
 30
0.0
 10
122.6421
 20
-79.4499
 30
0.0
 10
122.6421
 20
-79.4499
 30
0.0
 10
122.6186
 20
-79.4499
 30
0.0
 10
122.595
 20
-79.4499
 30
0.0
 10
122.5717
 20
-79.4499
 30
0.0
 10
122.5717
 20
-79.4499
 30
0.0
 10
121.0456
 20
-80.4795
 30
0.0
 10
119.0134
 20
-81.2789
 30
0.0
 10
119.0474
 20
-84.1019
 30
0.0
  0
SPLINE
  5
6F
330
1F
100
AcDbEntity
  8
layer 1
 62
     7
100
AcDbSpline
210
0.0
220
0.0
230
1.0
 70
    11
 71
     3
 72
   112
 73
   108
 74
     0
 42
0.0000000001
 43
0.0000000001
 12
1.0
 22
0.0
 32
0.0
 13
1.0
 23
0.0
 33
0.0
 40
0.0
 40
0.0
 40
0.0
 40
0.0
 40
0.0357142857142857
 40
0.0357142857142857
 40
0.0357142857142857
 40
0.0357142857142857
 40
0.0714285714285714
 40
0.0714285714285714
 40
0.0714285714285714
 40
0.0714285714285714
 40
0.1071428571428571
 40
0.1071428571428571
 40
0.1071428571428571
 40
0.1071428571428571
 40
0.1428571428571428
 40
0.1428571428571428
 40
0.1428571428571428
 40
0.1428571428571428
 40
0.1785714285714286
 40
0.1785714285714286
 40
0.1785714285714286
 40
0.1785714285714286
 40
0.2142857142857143
 40
0.2142857142857143
 40
0.2142857142857143
 40
0.2142857142857143
 40
0.25
 40
0.25
 40
0.25
 40
0.25
 40
0.2857142857142857
 40
0.2857142857142857
 40
0.2857142857142857
 40
0.2857142857142857
 40
0.3214285714285715
 40
0.3214285714285715
 40
0.3214285714285715
 40
0.3214285714285715
 40
0.3571428571428572
 40
0.3571428571428572
 40
0.3571428571428572
 40
0.3571428571428572
 40
0.3928571428571428
 40
0.3928571428571428
 40
0.3928571428571428
 40
0.3928571428571428
 40
0.4285714285714285
 40
0.4285714285714285
 40
0.4285714285714285
 40
0.4285714285714285
 40
0.4642857142857143
 40
0.4642857142857143
 40
0.4642857142857143
 40
0.4642857142857143
 40
0.5
 40
0.5
 40
0.5
 40
0.5
 40
0.5357142857142857
 40
0.5357142857142857
 40
0.5357142857142857
 40
0.5357142857142857
 40
0.5714285714285714
 40
0.5714285714285714
 40
0.5714285714285714
 40
0.5714285714285714
 40
0.6071428571428571
 40
0.6071428571428571
 40
0.6071428571428571
 40
0.6071428571428571
 40
0.6428571428571429
 40
0.6428571428571429
 40
0.6428571428571429
 40
0.6428571428571429
 40
0.6785714285714286
 40
0.6785714285714286
 40
0.6785714285714286
 40
0.6785714285714286
 40
0.7142857142857143
 40
0.7142857142857143
 40
0.7142857142857143
 40
0.7142857142857143
 40
0.75
 40
0.75
 40
0.75
 40
0.75
 40
0.7857142857142857
 40
0.7857142857142857
 40
0.7857142857142857
 40
0.7857142857142857
 40
0.8214285714285714
 40
0.8214285714285714
 40
0.8214285714285714
 40
0.8214285714285714
 40
0.8571428571428571
 40
0.8571428571428571
 40
0.8571428571428571
 40
0.8571428571428571
 40
0.8928571428571429
 40
0.8928571428571429
 40
0.8928571428571429
 40
0.8928571428571429
 40
0.9285714285714286
 40
0.9285714285714286
 40
0.9285714285714286
 40
0.9285714285714286
 40
1.0
 40
1.0
 40
1.0
 40
1.0
 10
113.9018
 20
-50.48
 30
0.0
 10
115.7577
 20
-50.0852
 30
0.0
 10
117.2222
 20
-50.7798
 30
0.0
 10
117.7786
 20
-51.9601
 30
0.0
 10
117.7786
 20
-51.9601
 30
0.0
 10
120.8767
 20
-51.4935
 30
0.0
 10
121.4575
 20
-49.6311
 30
0.0
 10
123.8403
 20
-52.5241
 30
0.0
 10
123.8403
 20
-52.5241
 30
0.0
 10
123.8168
 20
-52.6415
 30
0.0
 10
123.7935
 20
-52.7591
 30
0.0
 10
123.77
 20
-52.8765
 30
0.0
 10
123.77
 20
-52.8765
 30
0.0
 10
122.8231
 20
-53.5076
 30
0.0
 10
121.6832
 20
-53.7589
 30
0.0
 10
120.8799
 20
-54.4977
 30
0.0
 10
120.8799
 20
-54.4977
 30
0.0
 10
121.6097
 20
-56.145
 30
0.0
 10
121.5318
 20
-59.2783
 30
0.0
 10
120.739
 20
-60.771
 30
0.0
 10
120.739
 20
-60.771
 30
0.0
 10
120.2691
 20
-61.3583
 30
0.0
 10
119.7991
 20
-61.9457
 30
0.0
 10
119.3292
 20
-62.5332
 30
0.0
 10
119.3292
 20
-62.5332
 30
0.0
 10
119.1648
 20
-63.5903
 30
0.0
 10
119.0003
 20
-64.6478
 30
0.0
 10
118.8359
 20
-65.7051
 30
0.0
 10
118.8359
 20
-65.7051
 30
0.0
 10
118.0606
 20
-66.9267
 30
0.0
 10
117.285
 20
-68.1486
 30
0.0
 10
116.5098
 20
-69.3704
 30
0.0
 10
116.5098
 20
-69.3704
 30
0.0
 10
116.05
 20
-70.8256
 30
0.0
 10
117.6516
 20
-75.8334
 30
0.0
 10
117.9901
 20
-77.0534
 30
0.0
 10
117.9901
 20
-77.0534
 30
0.0
 10
118.1963
 20
-77.7972
 30
0.0
 10
118.0624
 20
-78.9046
 30
0.0
 10
118.4834
 20
-79.4499
 30
0.0
 10
118.4834
 20
-79.4499
 30
0.0
 10
118.5069
 20
-79.4499
 30
0.0
 10
118.5305
 20
-79.4499
 30
0.0
 10
118.554
 20
-79.4499
 30
0.0
 10
118.554
 20
-79.4499
 30
0.0
 10
119.2303
 20
-78.0125
 30
0.0
 10
121.0259
 20
-76.9539
 30
0.0
 10
122.2897
 20
-76.0665
 30
0.0
 10
122.2897
 20
-76.0665
 30
0.0
 10
122.4266
 20
-73.2921
 30
0.0
 10
121.3259
 20
-71.9988
 30
0.0
 10
120.4571
 20
-70.0047
 30
0.0
 10
120.4571
 20
-70.0047
 30
0.0
 10
120.598
 20
-69.8873
 30
0.0
 10
120.739
 20
-69.7697
 30
0.0
 10
120.8799
 20
-69.6523
 30
0.0
 10
120.8799
 20
-69.6523
 30
0.0
 10
124.5197
 20
-69.6379
 30
0.0
 10
124.2915
 20
-72.2446
 30
0.0
 10
125.391
 20
-74.7273
 30
0.0
 10
125.391
 20
-74.7273
 30
0.0
 10
128.234
 20
-73.4614
 30
0.0
 10
130.3456
 20
-75.5205
 30
0.0
 10
131.9463
 20
-76.5599
 30
0.0
 10
131.9463
 20
-76.5599
 30
0.0
 10
131.9812
 20
-71.9918
 30
0.0
 10
132.6431
 20
-68.823
 30
0.0
 10
133.638
 20
-65.423
 30
0.0
 10
133.638
 20
-65.423
 30
0.0
 10
134.1277
 20
-63.7494
 30
0.0
 10
134.8937
 20
-60.9166
 30
0.0
 10
133.9904
 20
-59.1498
 30
0.0
 10
133.9904
 20
-59.1498
 30
0.0
 10
133.2539
 20
-57.7091
 30
0.0
 10
131.8074
 20
-57.4264
 30
0.0
 10
130.6775
 20
-56.4008
 30
0.0
 10
130.6775
 20
-56.4008
 30
0.0
 10
131.3761
 20
-54.6755
 30
0.0
 10
133.4545
 20
-54.7633
 30
0.0
 10
135.4707
 20
-55.132
 30
0.0
 10
135.4707
 20
-55.132
 30
0.0
 10
133.3918
 20
-49.1825
 30
0.0
 10
133.129
 20
-34.8833
 30
0.0
 10
135.0477
 20
-28.7701
 30
0.0
 10
135.0477
 20
-28.7701
 30
0.0
 10
135.7958
 20
-26.3868
 30
0.0
 10
136.686
 20
-23.8298
 30
0.0
 10
137.1623
 20
-21.4396
 30
0.0
 10
137.1623
 20
-21.4396
 30
0.0
 10
136.7864
 20
-21.4396
 30
0.0
 10
136.4104
 20
-21.4396
 30
0.0
 10
136.0344
 20
-21.4396
 30
0.0
 10
136.0344
 20
-21.4396
 30
0.0
 10
131.7733
 20
-22.9181
 30
0.0
 10
131.1729
 20
-24.5953
 30
0.0
 10
129.7612
 20
-28.8407
 30
0.0
 10
129.7612
 20
-28.8407
 30
0.0
 10
129.2123
 20
-30.4912
 30
0.0
 10
129.2213
 20
-32.8245
 30
0.0
 10
128.2105
 20
-34.0567
 30
0.0
 10
128.2105
 20
-34.0567
 30
0.0
 10
126.5661
 20
-34.9258
 30
0.0
 10
124.921
 20
-35.7953
 30
0.0
 10
123.2766
 20
-36.6647
 30
0.0
 10
123.2766
 20
-36.6647
 30
0.0
 10
118.843
 20
-39.3328
 30
0.0
 10
113.9438
 20
-43.509
 30
0.0
 10
113.9018
 20
-50.48
 30
0.0
  0
SPLINE
  5
70
330
1F
100
AcDbEntity
  8
layer 1
 62
     7
100
AcDbSpline
210
0.0
220
0.0
230
1.0
 70
    11
 71
     3
 72
    32
 73
    28
 74
     0
 42
0.0000000001
 43
0.0000000001
 12
1.0
 22
0.0
 32
0.0
 13
1.0
 23
0.0
 33
0.0
 40
0.0
 40
0.0
 40
0.0
 40
0.0
 40
0.125
 40
0.125
 40
0.125
 40
0.125
 40
0.25
 40
0.25
 40
0.25
 40
0.25
 40
0.375
 40
0.375
 40
0.375
 40
0.375
 40
0.5
 40
0.5
 40
0.5
 40
0.5
 40
0.625
 40
0.625
 40
0.625
 40
0.625
 40
0.75
 40
0.75
 40
0.75
 40
0.75
 40
1.0
 40
1.0
 40
1.0
 40
1.0
 10
112.9854
 20
-99.9615
 30
0.0
 10
113.3296
 20
-100.9127
 30
0.0
 10
112.9369
 20
-102.2084
 30
0.0
 10
113.479
 20
-102.9219
 30
0.0
 10
113.479
 20
-102.9219
 30
0.0
 10
113.479
 20
-102.8749
 30
0.0
 10
113.479
 20
-102.8279
 30
0.0
 10
113.479
 20
-102.7808
 30
0.0
 10
113.479
 20
-102.7808
 30
0.0
 10
114.1677
 20
-102.0447
 30
0.0
 10
115.1517
 20
-99.5387
 30
0.0
 10
114.2542
 20
-98.1993
 30
0.0
 10
114.2542
 20
-98.1993
 30
0.0
 10
113.9723
 20
-97.9643
 30
0.0
 10
113.6903
 20
-97.7293
 30
0.0
 10
113.4084
 20
-97.4945
 30
0.0
 10
113.4084
 20
-97.4945
 30
0.0
 10
113.3849
 20
-97.4945
 30
0.0
 10
113.3614
 20
-97.4945
 30
0.0
 10
113.3378
 20
-97.4945
 30
0.0
 10
113.3378
 20
-97.4945
 30
0.0
 10
113.291
 20
-97.518
 30
0.0
 10
113.2439
 20
-97.5413
 30
0.0
 10
113.1969
 20
-97.5648
 30
0.0
 10
113.1969
 20
-97.5648
 30
0.0
 10
113.1265
 20
-98.3636
 30
0.0
 10
113.056
 20
-99.1627
 30
0.0
 10
112.9854
 20
-99.9615
 30
0.0
  0
SPLINE
  5
71
330
1F
100
AcDbEntity
  8
layer 1
 62
     7
100
AcDbSpline
210
0.0
220
0.0
230
1.0
 70
    11
 71
     3
 72
    36
 73
    32
 74
     0
 42
0.0000000001
 43
0.0000000001
 12
1.0
 22
0.0
 32
0.0
 13
1.0
 23
0.0
 33
0.0
 40
0.0
 40
0.0
 40
0.0
 40
0.0
 40
0.1111111111111111
 40
0.1111111111111111
 40
0.1111111111111111
 40
0.1111111111111111
 40
0.2222222222222222
 40
0.2222222222222222
 40
0.2222222222222222
 40
0.2222222222222222
 40
0.3333333333333333
 40
0.3333333333333333
 40
0.3333333333333333
 40
0.3333333333333333
 40
0.4444444444444444
 40
0.4444444444444444
 40
0.4444444444444444
 40
0.4444444444444444
 40
0.5555555555555556
 40
0.5555555555555556
 40
0.5555555555555556
 40
0.5555555555555556
 40
0.6666666666666666
 40
0.6666666666666666
 40
0.6666666666666666
 40
0.6666666666666666
 40
0.7777777777777778
 40
0.7777777777777778
 40
0.7777777777777778
 40
0.7777777777777778
 40
1.0
 40
1.0
 40
1.0
 40
1.0
 10
111.7168
 20
-61.0529
 30
0.0
 10
113.1215
 20
-62.6845
 30
0.0
 10
114.4465
 20
-64.6426
 30
0.0
 10
115.3115
 20
-66.7622
 30
0.0
 10
115.3115
 20
-66.7622
 30
0.0
 10
115.3585
 20
-66.7389
 30
0.0
 10
115.4056
 20
-66.7154
 30
0.0
 10
115.4524
 20
-66.6918
 30
0.0
 10
115.4524
 20
-66.6918
 30
0.0
 10
115.9108
 20
-65.704
 30
0.0
 10
117.536
 20
-62.8298
 30
0.0
 10
116.8622
 20
-61.1234
 30
0.0
 10
116.8622
 20
-61.1234
 30
0.0
 10
116.1198
 20
-59.9098
 30
0.0
 10
114.9241
 20
-59.4076
 30
0.0
 10
114.5363
 20
-57.4582
 30
0.0
 10
114.5363
 20
-57.4582
 30
0.0
 10
114.2415
 20
-55.9768
 30
0.0
 10
115.2699
 20
-54.0378
 30
0.0
 10
114.4657
 20
-52.9471
 30
0.0
 10
114.4657
 20
-52.9471
 30
0.0
 10
114.3012
 20
-52.9
 30
0.0
 10
114.1368
 20
-52.853
 30
0.0
 10
113.9723
 20
-52.8059
 30
0.0
 10
113.9723
 20
-52.8059
 30
0.0
 10
113.8777
 20
-54.6696
 30
0.0
 10
113.394
 20
-56.7635
 30
0.0
 10
112.7741
 20
-58.304
 30
0.0
 10
112.7741
 20
-58.304
 30
0.0
 10
112.4306
 20
-59.157
 30
0.0
 10
111.8114
 20
-60.0299
 30
0.0
 10
111.7168
 20
-61.0529
 30
0.0
  0
SPLINE
  5
72
330
1F
100
AcDbEntity
  8
layer 1
 62
     7
100
AcDbSpline
210
0.0
220
0.0
230
1.0
 70
    11
 71
     3
 72
    32
 73
    28
 74
     0
 42
0.0000000001
 43
0.0000000001
 12
1.0
 22
0.0
 32
0.0
 13
1.0
 23
0.0
 33
0.0
 40
0.0
 40
0.0
 40
0.0
 40
0.0
 40
0.125
 40
0.125
 40
0.125
 40
0.125
 40
0.25
 40
0.25
 40
0.25
 40
0.25
 40
0.375
 40
0.375
 40
0.375
 40
0.375
 40
0.5
 40
0.5
 40
0.5
 40
0.5
 40
0.625
 40
0.625
 40
0.625
 40
0.625
 40
0.75
 40
0.75
 40
0.75
 40
0.75
 40
1.0
 40
1.0
 40
1.0
 40
1.0
 10
110.6595
 20
-5.0866
 30
0.0
 10
110.7977
 20
-5.4701
 30
0.0
 10
110.7361
 20
-5.945
 30
0.0
 10
110.9413
 20
-6.2145
 30
0.0
 10
110.9413
 20
-6.2145
 30
0.0
 10
112.7369
 20
-5.8514
 30
0.0
 10
114.0204
 20
-7.1603
 30
0.0
 10
115.0296
 20
-7.8357
 30
0.0
 10
115.0296
 20
-7.8357
 30
0.0
 10
114.7506
 20
-5.5444
 30
0.0
 10
115.7679
 20
-2.8007
 30
0.0
 10
115.3115
 20
0.0588
 30
0.0
 10
115.3115
 20
0.0588
 30
0.0
 10
115.1706
 20
1.5624
 30
0.0
 10
115.0296
 20
3.0664
 30
0.0
 10
114.8885
 20
4.5699
 30
0.0
 10
114.8885
 20
4.5699
 30
0.0
 10
114.4657
 20
6.7782
 30
0.0
 10
114.0427
 20
8.9873
 30
0.0
 10
113.6199
 20
11.1956
 30
0.0
 10
113.6199
 20
11.1956
 30
0.0
 10
112.3426
 20
10.7843
 30
0.0
 10
112.0198
 20
9.0821
 30
0.0
 10
111.6462
 20
7.7418
 30
0.0
 10
111.6462
 20
7.7418
 30
0.0
 10
110.5889
 20
3.9487
 30
0.0
 10
110.6455
 20
-0.4899
 30
0.0
 10
110.6595
 20
-5.0866
 30
0.0
  0
SPLINE
  5
73
330
1F
100
AcDbEntity
  8
layer 1
 62
     7
100
AcDbSpline
210
0.0
220
0.0
230
1.0
 70
    11
 71
     3
 72
    12
 73
     8
 74
     0
 42
0.0000000001
 43
0.0000000001
 12
1.0
 22
0.0
 32
0.0
 13
1.0
 23
0.0
 33
0.0
 40
0.0
 40
0.0
 40
0.0
 40
0.0
 40
0.3333333333333333
 40
0.3333333333333333
 40
0.3333333333333333
 40
0.3333333333333333
 40
1.0
 40
1.0
 40
1.0
 40
1.0
 10
110.5889
 20
-20.3823
 30
0.0
 10
114.1772
 20
-19.2873
 30
0.0
 10
113.9844
 20
-13.4255
 30
0.0
 10
111.0823
 20
-11.7829
 30
0.0
 10
111.0823
 20
-11.7829
 30
0.0
 10
110.9178
 20
-14.649
 30
0.0
 10
110.7534
 20
-17.5161
 30
0.0
 10
110.5889
 20
-20.3823
 30
0.0
  0
SPLINE
  5
74
330
1F
100
AcDbEntity
  8
layer 1
 62
     7
100
AcDbSpline
210
0.0
220
0.0
230
1.0
 70
    11
 71
     3
 72
   160
 73
   156
 74
     0
 42
0.0000000001
 43
0.0000000001
 12
1.0
 22
0.0
 32
0.0
 13
1.0
 23
0.0
 33
0.0
 40
0.0
 40
0.0
 40
0.0
 40
0.0
 40
0.025
 40
0.025
 40
0.025
 40
0.025
 40
0.05
 40
0.05
 40
0.05
 40
0.05
 40
0.075
 40
0.075
 40
0.075
 40
0.075
 40
0.1
 40
0.1
 40
0.1
 40
0.1
 40
0.125
 40
0.125
 40
0.125
 40
0.125
 40
0.15
 40
0.15
 40
0.15
 40
0.15
 40
0.175
 40
0.175
 40
0.175
 40
0.175
 40
0.2
 40
0.2
 40
0.2
 40
0.2
 40
0.225
 40
0.225
 40
0.225
 40
0.225
 40
0.25
 40
0.25
 40
0.25
 40
0.25
 40
0.275
 40
0.275
 40
0.275
 40
0.275
 40
0.3
 40
0.3
 40
0.3
 40
0.3
 40
0.325
 40
0.325
 40
0.325
 40
0.325
 40
0.35
 40
0.35
 40
0.35
 40
0.35
 40
0.375
 40
0.375
 40
0.375
 40
0.375
 40
0.4
 40
0.4
 40
0.4
 40
0.4
 40
0.425
 40
0.425
 40
0.425
 40
0.425
 40
0.45
 40
0.45
 40
0.45
 40
0.45
 40
0.475
 40
0.475
 40
0.475
 40
0.475
 40
0.5
 40
0.5
 40
0.5
 40
0.5
 40
0.525
 40
0.525
 40
0.525
 40
0.525
 40
0.55
 40
0.55
 40
0.55
 40
0.55
 40
0.575
 40
0.575
 40
0.575
 40
0.575
 40
0.6
 40
0.6
 40
0.6
 40
0.6
 40
0.625
 40
0.625
 40
0.625
 40
0.625
 40
0.65
 40
0.65
 40
0.65
 40
0.65
 40
0.675
 40
0.675
 40
0.675
 40
0.675
 40
0.7
 40
0.7
 40
0.7
 40
0.7
 40
0.725
 40
0.725
 40
0.725
 40
0.725
 40
0.75
 40
0.75
 40
0.75
 40
0.75
 40
0.775
 40
0.775
 40
0.775
 40
0.775
 40
0.8
 40
0.8
 40
0.8
 40
0.8
 40
0.825
 40
0.825
 40
0.825
 40
0.825
 40
0.85
 40
0.85
 40
0.85
 40
0.85
 40
0.875
 40
0.875
 40
0.875
 40
0.875
 40
0.9
 40
0.9
 40
0.9
 40
0.9
 40
0.925
 40
0.925
 40
0.925
 40
0.925
 40
0.95
 40
0.95
 40
0.95
 40
0.95
 40
1.0
 40
1.0
 40
1.0
 40
1.0
 10
112.4216
 20
79.0741
 30
0.0
 10
117.2135
 20
78.8102
 30
0.0
 10
123.3615
 20
80.3977
 30
0.0
 10
125.6025
 20
83.0213
 30
0.0
 10
125.6025
 20
83.0213
 30
0.0
 10
125.3632
 20
83.8861
 30
0.0
 10
126.8534
 20
86.9991
 30
0.0
 10
127.2943
 20
87.8848
 30
0.0
 10
127.2943
 20
87.8848
 30
0.0
 10
129.821
 20
92.9611
 30
0.0
 10
133.3358
 20
95.1016
 30
0.0
 10
139.0654
 20
96.7663
 30
0.0
 10
139.0654
 20
96.7663
 30
0.0
 10
140.0252
 20
97.0451
 30
0.0
 10
141.3375
 20
96.9291
 30
0.0
 10
142.2373
 20
96.7663
 30
0.0
 10
142.2373
 20
96.7663
 30
0.0
 10
144.6031
 20
96.3381
 30
0.0
 10
146.5585
 20
97.4525
 30
0.0
 10
147.5239
 20
98.6694
 30
0.0
 10
147.5239
 20
98.6694
 30
0.0
 10
146.1549
 20
102.3648
 30
0.0
 10
143.562
 20
105.1462
 30
0.0
 10
140.1933
 20
106.6343
 30
0.0
 10
140.1933
 20
106.6343
 30
0.0
 10
137.5505
 20
107.8016
 30
0.0
 10
134.7992
 20
108.4776
 30
0.0
 10
132.4397
 20
109.7356
 30
0.0
 10
132.4397
 20
109.7356
 30
0.0
 10
132.2354
 20
109.8446
 30
0.0
 10
130.4465
 20
111.4461
 30
0.0
 10
130.3251
 20
111.6389
 30
0.0
 10
130.3251
 20
111.6389
 30
0.0
 10
130.1517
 20
111.9143
 30
0.0
 10
130.1603
 20
112.5761
 30
0.0
 10
129.7612
 20
112.8372
 30
0.0
 10
129.7612
 20
112.8372
 30
0.0
 10
126.9438
 20
114.186
 30
0.0
 10
124.4429
 20
111.5897
 30
0.0
 10
122.2897
 20
111.2159
 30
0.0
 10
122.2897
 20
111.2159
 30
0.0
 10
122.2753
 20
113.8638
 30
0.0
 10
123.0319
 20
117.0556
 30
0.0
 10
124.9682
 20
117.6301
 30
0.0
 10
124.9682
 20
117.6301
 30
0.0
 10
124.9682
 20
117.5833
 30
0.0
 10
124.9682
 20
117.5362
 30
0.0
 10
124.9682
 20
117.4892
 30
0.0
 10
124.9682
 20
117.4892
 30
0.0
 10
125.0152
 20
117.5127
 30
0.0
 10
125.0621
 20
117.5362
 30
0.0
 10
125.1091
 20
117.5597
 30
0.0
 10
125.1091
 20
117.5597
 30
0.0
 10
125.1547
 20
117.884
 30
0.0
 10
125.3591
 20
118.0709
 30
0.0
 10
125.814
 20
118.1941
 30
0.0
 10
125.814
 20
118.1941
 30
0.0
 10
125.3912
 20
119.4862
 30
0.0
 10
124.9682
 20
120.7787
 30
0.0
 10
124.5452
 20
122.0708
 30
0.0
 10
124.5452
 20
122.0708
 30
0.0
 10
124.4495
 20
122.5515
 30
0.0
 10
124.6278
 20
123.6145
 30
0.0
 10
124.4748
 20
124.1149
 30
0.0
 10
124.4748
 20
124.1149
 30
0.0
 10
124.4357
 20
124.2429
 30
0.0
 10
124.159
 20
124.4993
 30
0.0
 10
123.9814
 20
124.5379
 30
0.0
 10
123.9814
 20
124.5379
 30
0.0
 10
123.6084
 20
123.7623
 30
0.0
 10
122.6371
 20
123.1892
 30
0.0
 10
122.0782
 20
122.5642
 30
0.0
 10
122.0782
 20
122.5642
 30
0.0
 10
121.0469
 20
121.4109
 30
0.0
 10
120.3603
 20
119.8428
 30
0.0
 10
119.8226
 20
118.4759
 30
0.0
 10
119.8226
 20
118.4759
 30
0.0
 10
118.2895
 20
114.5783
 30
0.0
 10
119.0506
 20
110.3258
 30
0.0
 10
118.0604
 20
106.0703
 30
0.0
 10
118.0604
 20
106.0703
 30
0.0
 10
117.2642
 20
102.6481
 30
0.0
 10
116.1085
 20
99.0848
 30
0.0
 10
114.3951
 20
96.3433
 30
0.0
 10
114.3951
 20
96.3433
 30
0.0
 10
113.3791
 20
94.7175
 30
0.0
 10
111.9974
 20
93.3861
 30
0.0
 10
110.871
 20
91.9025
 30
0.0
 10
110.871
 20
91.9025
 30
0.0
 10
110.871
 20
91.8792
 30
0.0
 10
110.871
 20
91.8557
 30
0.0
 10
110.871
 20
91.8322
 30
0.0
 10
110.871
 20
91.8322
 30
0.0
 10
114.7898
 20
91.4988
 30
0.0
 10
115.6785
 20
92.2884
 30
0.0
 10
117.9195
 20
93.8762
 30
0.0
 10
117.9195
 20
93.8762
 30
0.0
 10
117.8981
 20
95.6396
 30
0.0
 10
118.0604
 20
98.2383
 30
0.0
 10
118.9064
 20
99.6561
 30
0.0
 10
118.9064
 20
99.6561
 30
0.0
 10
119.3589
 20
100.4147
 30
0.0
 10
120.5858
 20
101.1343
 30
0.0
 10
120.6684
 20
102.1232
 30
0.0
 10
120.6684
 20
102.1232
 30
0.0
 10
120.9849
 20
103.264
 30
0.0
 10
120.0056
 20
103.7756
 30
0.0
 10
119.3998
 20
104.2378
 30
0.0
 10
119.3998
 20
104.2378
 30
0.0
 10
119.3998
 20
104.3082
 30
0.0
 10
119.3998
 20
104.3787
 30
0.0
 10
119.3998
 20
104.4493
 30
0.0
 10
119.3998
 20
104.4493
 30
0.0
 10
121.4815
 20
106.0125
 30
0.0
 10
124.3035
 20
105.4743
 30
0.0
 10
124.2633
 20
102.4756
 30
0.0
 10
124.2633
 20
102.4756
 30
0.0
 10
126.9629
 20
102.3088
 30
0.0
 10
128.2545
 20
101.0283
 30
0.0
 10
127.9286
 20
98.3169
 30
0.0
 10
127.9286
 20
98.3169
 30
0.0
 10
127.7642
 20
98.3169
 30
0.0
 10
127.5997
 20
98.3169
 30
0.0
 10
127.4352
 20
98.3169
 30
0.0
 10
127.4352
 20
98.3169
 30
0.0
 10
127.0122
 20
98.5047
 30
0.0
 10
126.5893
 20
98.6929
 30
0.0
 10
126.1664
 20
98.8809
 30
0.0
 10
126.1664
 20
98.8809
 30
0.0
 10
126.0961
 20
98.8103
 30
0.0
 10
126.0255
 20
98.7397
 30
0.0
 10
125.9549
 20
98.6694
 30
0.0
 10
125.9549
 20
98.6694
 30
0.0
 10
125.9808
 20
95.0861
 30
0.0
 10
124.0369
 20
91.7557
 30
0.0
 10
121.3733
 20
90.5634
 30
0.0
 10
121.3733
 20
90.5634
 30
0.0
 10
120.7156
 20
90.4224
 30
0.0
 10
120.0576
 20
90.2815
 30
0.0
 10
119.3998
 20
90.1404
 30
0.0
 10
119.3998
 20
90.1404
 30
0.0
 10
118.1595
 20
89.4504
 30
0.0
 10
117.0493
 20
88.3538
 30
0.0
 10
115.523
 20
87.8848
 30
0.0
 10
115.523
 20
87.8848
 30
0.0
 10
115.1821
 20
87.7801
 30
0.0
 10
109.8137
 20
87.1096
 30
0.0
 10
109.8137
 20
87.1096
 30
0.0
 10
109.8137
 20
87.1096
 30
0.0
 10
109.4733
 20
86.7848
 30
0.0
 10
109.3138
 20
85.4246
 30
0.0
 10
109.3907
 20
85.1359
 30
0.0
 10
109.3907
 20
85.1359
 30
0.0
 10
110.6589
 20
82.9033
 30
0.0
 10
112.4033
 20
83.1427
 30
0.0
 10
112.4216
 20
79.0741
 30
0.0
  0
SPLINE
  5
75
330
1F
100
AcDbEntity
  8
layer 1
 62
     7
100
AcDbSpline
210
0.0
220
0.0
230
1.0
 70
    11
 71
     3
 72
    24
 73
    20
 74
     0
 42
0.0000000001
 43
0.0000000001
 12
1.0
 22
0.0
 32
0.0
 13
1.0
 23
0.0
 33
0.0
 40
0.0
 40
0.0
 40
0.0
 40
0.0
 40
0.1666666666666667
 40
0.1666666666666667
 40
0.1666666666666667
 40
0.1666666666666667
 40
0.3333333333333333
 40
0.3333333333333333
 40
0.3333333333333333
 40
0.3333333333333333
 40
0.5
 40
0.5
 40
0.5
 40
0.5
 40
0.6666666666666666
 40
0.6666666666666666
 40
0.6666666666666666
 40
0.6666666666666666
 40
1.0
 40
1.0
 40
1.0
 40
1.0
 10
109.3201
 20
-68.454
 30
0.0
 10
109.4142
 20
-68.6185
 30
0.0
 10
109.5081
 20
-68.7829
 30
0.0
 10
109.6022
 20
-68.9474
 30
0.0
 10
109.6022
 20
-68.9474
 30
0.0
 10
109.7666
 20
-68.9709
 30
0.0
 10
109.9311
 20
-68.9944
 30
0.0
 10
110.0955
 20
-69.018
 30
0.0
 10
110.0955
 20
-69.018
 30
0.0
 10
110.0955
 20
-68.9474
 30
0.0
 10
110.0955
 20
-68.8768
 30
0.0
 10
110.0955
 20
-68.8065
 30
0.0
 10
110.0955
 20
-68.8065
 30
0.0
 10
109.9546
 20
-68.6185
 30
0.0
 10
109.8137
 20
-68.4305
 30
0.0
 10
109.6725
 20
-68.2425
 30
0.0
 10
109.6725
 20
-68.2425
 30
0.0
 10
109.5551
 20
-68.3131
 30
0.0
 10
109.4377
 20
-68.3835
 30
0.0
 10
109.3201
 20
-68.454
 30
0.0
  0
SPLINE
  5
76
330
1F
100
AcDbEntity
  8
layer 1
 62
     7
100
AcDbSpline
210
0.0
220
0.0
230
1.0
 70
    11
 71
     3
 72
    32
 73
    28
 74
     0
 42
0.0000000001
 43
0.0000000001
 12
1.0
 22
0.0
 32
0.0
 13
1.0
 23
0.0
 33
0.0
 40
0.0
 40
0.0
 40
0.0
 40
0.0
 40
0.125
 40
0.125
 40
0.125
 40
0.125
 40
0.25
 40
0.25
 40
0.25
 40
0.25
 40
0.375
 40
0.375
 40
0.375
 40
0.375
 40
0.5
 40
0.5
 40
0.5
 40
0.5
 40
0.625
 40
0.625
 40
0.625
 40
0.625
 40
0.75
 40
0.75
 40
0.75
 40
0.75
 40
1.0
 40
1.0
 40
1.0
 40
1.0
 10
108.8973
 20
124.6083
 30
0.0
 10
109.3995
 20
123.826
 30
0.0
 10
109.4555
 20
122.78
 30
0.0
 10
109.8137
 20
121.8593
 30
0.0
 10
109.8137
 20
121.8593
 30
0.0
 10
110.8606
 20
119.1681
 30
0.0
 10
113.1256
 20
116.1782
 30
0.0
 10
115.523
 20
114.8106
 30
0.0
 10
115.523
 20
114.8106
 30
0.0
 10
115.5934
 20
114.8812
 30
0.0
 10
115.6639
 20
114.9518
 30
0.0
 10
115.7345
 20
115.0221
 30
0.0
 10
115.7345
 20
115.0221
 30
0.0
 10
115.2761
 20
116.9357
 30
0.0
 10
118.0272
 20
122.2382
 30
0.0
 10
118.9768
 20
123.1985
 30
0.0
 10
118.9768
 20
123.1985
 30
0.0
 10
119.4741
 20
123.7014
 30
0.0
 10
120.2162
 20
124.2293
 30
0.0
 10
120.598
 20
124.8198
 30
0.0
 10
120.598
 20
124.8198
 30
0.0
 10
117.6848
 20
124.8198
 30
0.0
 10
114.7709
 20
124.8198
 30
0.0
 10
111.8577
 20
124.8198
 30
0.0
 10
111.8577
 20
124.8198
 30
0.0
 10
110.7088
 20
124.6025
 30
0.0
 10
109.5327
 20
125.1695
 30
0.0
 10
108.8973
 20
124.6083
 30
0.0
  0
SPLINE
  5
77
330
1F
100
AcDbEntity
  8
layer 1
 62
     7
100
AcDbSpline
210
0.0
220
0.0
230
1.0
 70
    11
 71
     3
 72
   304
 73
   300
 74
     0
 42
0.0000000001
 43
0.0000000001
 12
1.0
 22
0.0
 32
0.0
 13
1.0
 23
0.0
 33
0.0
 40
0.0
 40
0.0
 40
0.0
 40
0.0
 40
0.0131578947368421
 40
0.0131578947368421
 40
0.0131578947368421
 40
0.0131578947368421
 40
0.0263157894736842
 40
0.0263157894736842
 40
0.0263157894736842
 40
0.0263157894736842
 40
0.0394736842105263
 40
0.0394736842105263
 40
0.0394736842105263
 40
0.0394736842105263
 40
0.0526315789473684
 40
0.0526315789473684
 40
0.0526315789473684
 40
0.0526315789473684
 40
0.0657894736842105
 40
0.0657894736842105
 40
0.0657894736842105
 40
0.0657894736842105
 40
0.0789473684210526
 40
0.0789473684210526
 40
0.0789473684210526
 40
0.0789473684210526
 40
0.0921052631578947
 40
0.0921052631578947
 40
0.0921052631578947
 40
0.0921052631578947
 40
0.1052631578947368
 40
0.1052631578947368
 40
0.1052631578947368
 40
0.1052631578947368
 40
0.1184210526315789
 40
0.1184210526315789
 40
0.1184210526315789
 40
0.1184210526315789
 40
0.131578947368421
 40
0.131578947368421
 40
0.131578947368421
 40
0.131578947368421
 40
0.1447368421052632
 40
0.1447368421052632
 40
0.1447368421052632
 40
0.1447368421052632
 40
0.1578947368421053
 40
0.1578947368421053
 40
0.1578947368421053
 40
0.1578947368421053
 40
0.1710526315789474
 40
0.1710526315789474
 40
0.1710526315789474
 40
0.1710526315789474
 40
0.1842105263157895
 40
0.1842105263157895
 40
0.1842105263157895
 40
0.1842105263157895
 40
0.1973684210526316
 40
0.1973684210526316
 40
0.1973684210526316
 40
0.1973684210526316
 40
0.2105263157894737
 40
0.2105263157894737
 40
0.2105263157894737
 40
0.2105263157894737
 40
0.2236842105263158
 40
0.2236842105263158
 40
0.2236842105263158
 40
0.2236842105263158
 40
0.2368421052631579
 40
0.2368421052631579
 40
0.2368421052631579
 40
0.2368421052631579
 40
0.25
 40
0.25
 40
0.25
 40
0.25
 40
0.2631578947368421
 40
0.2631578947368421
 40
0.2631578947368421
 40
0.2631578947368421
 40
0.2763157894736842
 40
0.2763157894736842
 40
0.2763157894736842
 40
0.2763157894736842
 40
0.2894736842105263
 40
0.2894736842105263
 40
0.2894736842105263
 40
0.2894736842105263
 40
0.3026315789473684
 40
0.3026315789473684
 40
0.3026315789473684
 40
0.3026315789473684
 40
0.3157894736842105
 40
0.3157894736842105
 40
0.3157894736842105
 40
0.3157894736842105
 40
0.3289473684210527
 40
0.3289473684210527
 40
0.3289473684210527
 40
0.3289473684210527
 40
0.3421052631578947
 40
0.3421052631578947
 40
0.3421052631578947
 40
0.3421052631578947
 40
0.3552631578947368
 40
0.3552631578947368
 40
0.3552631578947368
 40
0.3552631578947368
 40
0.3684210526315789
 40
0.3684210526315789
 40
0.3684210526315789
 40
0.3684210526315789
 40
0.3815789473684211
 40
0.3815789473684211
 40
0.3815789473684211
 40
0.3815789473684211
 40
0.3947368421052632
 40
0.3947368421052632
 40
0.3947368421052632
 40
0.3947368421052632
 40
0.4078947368421053
 40
0.4078947368421053
 40
0.4078947368421053
 40
0.4078947368421053
 40
0.4210526315789473
 40
0.4210526315789473
 40
0.4210526315789473
 40
0.4210526315789473
 40
0.4342105263157895
 40
0.4342105263157895
 40
0.4342105263157895
 40
0.4342105263157895
 40
0.4473684210526316
 40
0.4473684210526316
 40
0.4473684210526316
 40
0.4473684210526316
 40
0.4605263157894737
 40
0.4605263157894737
 40
0.4605263157894737
 40
0.4605263157894737
 40
0.4736842105263158
 40
0.4736842105263158
 40
0.4736842105263158
 40
0.4736842105263158
 40
0.4868421052631579
 40
0.4868421052631579
 40
0.4868421052631579
 40
0.4868421052631579
 40
0.5
 40
0.5
 40
0.5
 40
0.5
 40
0.5131578947368421
 40
0.5131578947368421
 40
0.5131578947368421
 40
0.5131578947368421
 40
0.5263157894736842
 40
0.5263157894736842
 40
0.5263157894736842
 40
0.5263157894736842
 40
0.5394736842105263
 40
0.5394736842105263
 40
0.5394736842105263
 40
0.5394736842105263
 40
0.5526315789473685
 40
0.5526315789473685
 40
0.5526315789473685
 40
0.5526315789473685
 40
0.5657894736842105
 40
0.5657894736842105
 40
0.5657894736842105
 40
0.5657894736842105
 40
0.5789473684210527
 40
0.5789473684210527
 40
0.5789473684210527
 40
0.5789473684210527
 40
0.5921052631578947
 40
0.5921052631578947
 40
0.5921052631578947
 40
0.5921052631578947
 40
0.6052631578947368
 40
0.6052631578947368
 40
0.6052631578947368
 40
0.6052631578947368
 40
0.618421052631579
 40
0.618421052631579
 40
0.618421052631579
 40
0.618421052631579
 40
0.631578947368421
 40
0.631578947368421
 40
0.631578947368421
 40
0.631578947368421
 40
0.6447368421052632
 40
0.6447368421052632
 40
0.6447368421052632
 40
0.6447368421052632
 40
0.6578947368421053
 40
0.6578947368421053
 40
0.6578947368421053
 40
0.6578947368421053
 40
0.6710526315789473
 40
0.6710526315789473
 40
0.6710526315789473
 40
0.6710526315789473
 40
0.6842105263157895
 40
0.6842105263157895
 40
0.6842105263157895
 40
0.6842105263157895
 40
0.6973684210526315
 40
0.6973684210526315
 40
0.6973684210526315
 40
0.6973684210526315
 40
0.7105263157894737
 40
0.7105263157894737
 40
0.7105263157894737
 40
0.7105263157894737
 40
0.7236842105263158
 40
0.7236842105263158
 40
0.7236842105263158
 40
0.7236842105263158
 40
0.7368421052631579
 40
0.7368421052631579
 40
0.7368421052631579
 40
0.7368421052631579
 40
0.75
 40
0.75
 40
0.75
 40
0.75
 40
0.7631578947368421
 40
0.7631578947368421
 40
0.7631578947368421
 40
0.7631578947368421
 40
0.7763157894736842
 40
0.7763157894736842
 40
0.7763157894736842
 40
0.7763157894736842
 40
0.7894736842105263
 40
0.7894736842105263
 40
0.7894736842105263
 40
0.7894736842105263
 40
0.8026315789473685
 40
0.8026315789473685
 40
0.8026315789473685
 40
0.8026315789473685
 40
0.8157894736842105
 40
0.8157894736842105
 40
0.8157894736842105
 40
0.8157894736842105
 40
0.8289473684210527
 40
0.8289473684210527
 40
0.8289473684210527
 40
0.8289473684210527
 40
0.8421052631578947
 40
0.8421052631578947
 40
0.8421052631578947
 40
0.8421052631578947
 40
0.8552631578947368
 40
0.8552631578947368
 40
0.8552631578947368
 40
0.8552631578947368
 40
0.868421052631579
 40
0.868421052631579
 40
0.868421052631579
 40
0.868421052631579
 40
0.881578947368421
 40
0.881578947368421
 40
0.881578947368421
 40
0.881578947368421
 40
0.8947368421052632
 40
0.8947368421052632
 40
0.8947368421052632
 40
0.8947368421052632
 40
0.9078947368421053
 40
0.9078947368421053
 40
0.9078947368421053
 40
0.9078947368421053
 40
0.9210526315789473
 40
0.9210526315789473
 40
0.9210526315789473
 40
0.9210526315789473
 40
0.9342105263157895
 40
0.9342105263157895
 40
0.9342105263157895
 40
0.9342105263157895
 40
0.9473684210526315
 40
0.9473684210526315
 40
0.9473684210526315
 40
0.9473684210526315
 40
0.9605263157894737
 40
0.9605263157894737
 40
0.9605263157894737
 40
0.9605263157894737
 40
0.9736842105263158
 40
0.9736842105263158
 40
0.9736842105263158
 40
0.9736842105263158
 40
1.0
 40
1.0
 40
1.0
 40
1.0
 10
108.8267
 20
38.1214
 30
0.0
 10
108.8973
 20
37.3227
 30
0.0
 10
108.9677
 20
36.5237
 30
0.0
 10
109.0382
 20
35.725
 30
0.0
 10
109.0382
 20
35.725
 30
0.0
 10
109.2824
 20
34.8811
 30
0.0
 10
112.0204
 20
32.1992
 30
0.0
 10
112.7741
 20
31.6367
 30
0.0
 10
112.7741
 20
31.6367
 30
0.0
 10
112.8073
 20
36.0865
 30
0.0
 10
116.0974
 20
43.0868
 30
0.0
 10
118.8359
 20
44.9586
 30
0.0
 10
118.8359
 20
44.9586
 30
0.0
 10
120.9616
 20
46.4117
 30
0.0
 10
124.0658
 20
47.837
 30
0.0
 10
125.6025
 20
49.8927
 30
0.0
 10
125.6025
 20
49.8927
 30
0.0
 10
126.7841
 20
51.4732
 30
0.0
 10
127.1333
 20
53.6006
 30
0.0
 10
127.7171
 20
55.8136
 30
0.0
 10
127.7171
 20
55.8136
 30
0.0
 10
127.8112
 20
56.9177
 30
0.0
 10
127.9051
 20
58.0223
 30
0.0
 10
127.999
 20
59.1264
 30
0.0
 10
127.999
 20
59.1264
 30
0.0
 10
128.3039
 20
59.206
 30
0.0
 10
128.1801
 20
59.1772
 30
0.0
 10
128.3514
 20
59.3379
 30
0.0
 10
128.3514
 20
59.3379
 30
0.0
 10
128.3985
 20
59.3144
 30
0.0
 10
128.4455
 20
59.2909
 30
0.0
 10
128.4925
 20
59.2674
 30
0.0
 10
128.4925
 20
59.2674
 30
0.0
 10
128.9732
 20
57.7844
 30
0.0
 10
129.8184
 20
56.5748
 30
0.0
 10
130.1842
 20
54.8268
 30
0.0
 10
130.1842
 20
54.8268
 30
0.0
 10
131.7923
 20
47.1411
 30
0.0
 10
123.2558
 20
44.327
 30
0.0
 10
120.2456
 20
40.4475
 30
0.0
 10
120.2456
 20
40.4475
 30
0.0
 10
116.4421
 20
35.5456
 30
0.0
 10
114.245
 20
26.88
 30
0.0
 10
116.2983
 20
19.0901
 30
0.0
 10
116.2983
 20
19.0901
 30
0.0
 10
117.4091
 20
19.2086
 30
0.0
 10
118.1515
 20
19.8234
 30
0.0
 10
119.1177
 20
20.0065
 30
0.0
 10
119.1177
 20
20.0065
 30
0.0
 10
120.8392
 20
20.3325
 30
0.0
 10
122.9572
 20
19.9372
 30
0.0
 10
124.4043
 20
19.4426
 30
0.0
 10
124.4043
 20
19.4426
 30
0.0
 10
124.3807
 20
19.372
 30
0.0
 10
124.3572
 20
19.3016
 30
0.0
 10
124.3339
 20
19.2311
 30
0.0
 10
124.3339
 20
19.2311
 30
0.0
 10
122.2665
 20
18.1504
 30
0.0
 10
120.1984
 20
17.0694
 30
0.0
 10
118.131
 20
15.9888
 30
0.0
 10
118.131
 20
15.9888
 30
0.0
 10
117.5613
 20
15.6351
 30
0.0
 10
116.5518
 20
15.5232
 30
0.0
 10
116.4394
 20
14.72
 30
0.0
 10
116.4394
 20
14.72
 30
0.0
 10
117.1441
 20
11.5719
 30
0.0
 10
117.8491
 20
8.4228
 30
0.0
 10
118.554
 20
5.2748
 30
0.0
 10
118.554
 20
5.2748
 30
0.0
 10
118.6008
 20
5.2983
 30
0.0
 10
118.6479
 20
5.3218
 30
0.0
 10
118.6949
 20
5.3453
 30
0.0
 10
118.6949
 20
5.3453
 30
0.0
 10
119.7637
 20
7.6375
 30
0.0
 10
123.6041
 20
10.0685
 30
0.0
 10
126.1664
 20
10.6319
 30
0.0
 10
126.1664
 20
10.6319
 30
0.0
 10
127.2711
 20
10.8746
 30
0.0
 10
128.6218
 20
10.5301
 30
0.0
 10
129.4087
 20
10.3498
 30
0.0
 10
129.4087
 20
10.3498
 30
0.0
 10
131.1178
 20
9.9586
 30
0.0
 10
133.5234
 20
9.9049
 30
0.0
 10
135.2592
 20
10.2794
 30
0.0
 10
135.2592
 20
10.2794
 30
0.0
 10
136.6867
 20
10.5873
 30
0.0
 10
138.1115
 20
11.0728
 30
0.0
 10
139.2064
 20
11.7595
 30
0.0
 10
139.2064
 20
11.7595
 30
0.0
 10
139.8703
 20
12.1759
 30
0.0
 10
140.25
 20
12.8687
 30
0.0
 10
141.1095
 20
13.0987
 30
0.0
 10
141.1095
 20
13.0987
 30
0.0
 10
141.1095
 20
13.0048
 30
0.0
 10
141.1095
 20
12.9107
 30
0.0
 10
141.1095
 20
12.8168
 30
0.0
 10
141.1095
 20
12.8168
 30
0.0
 10
139.443
 20
8.3914
 30
0.0
 10
136.1888
 20
6.7942
 30
0.0
 10
131.03
 20
5.8387
 30
0.0
 10
131.03
 20
5.8387
 30
0.0
 10
128.3692
 20
5.3459
 30
0.0
 10
125.944
 20
6.4572
 30
0.0
 10
123.8403
 20
5.4157
 30
0.0
 10
123.8403
 20
5.4157
 30
0.0
 10
121.5519
 20
4.2828
 30
0.0
 10
119.6265
 20
1.5233
 30
0.0
 10
119.0474
 20
-1.2804
 30
0.0
 10
119.0474
 20
-1.2804
 30
0.0
 10
119.0942
 20
-2.361
 30
0.0
 10
119.1413
 20
-3.442
 30
0.0
 10
119.1883
 20
-4.5229
 30
0.0
 10
119.1883
 20
-4.5229
 30
0.0
 10
119.2822
 20
-6.0734
 30
0.0
 10
119.3763
 20
-7.6244
 30
0.0
 10
119.4702
 20
-9.1749
 30
0.0
 10
119.4702
 20
-9.1749
 30
0.0
 10
121.0656
 20
-8.3382
 30
0.0
 10
121.3052
 20
-6.2165
 30
0.0
 10
121.5848
 20
-4.3114
 30
0.0
 10
121.5848
 20
-4.3114
 30
0.0
 10
121.7058
 20
-3.4871
 30
0.0
 10
121.5684
 20
-2.6084
 30
0.0
 10
122.2897
 20
-2.6197
 30
0.0
 10
122.2897
 20
-2.6197
 30
0.0
 10
123.6392
 20
-7.2102
 30
0.0
 10
122.994
 20
-10.0198
 30
0.0
 10
120.3865
 20
-12.8402
 30
0.0
 10
120.3865
 20
-12.8402
 30
0.0
 10
121.9469
 20
-14.8198
 30
0.0
 10
124.5565
 20
-17.4662
 30
0.0
 10
123.4879
 20
-21.1575
 30
0.0
 10
123.4879
 20
-21.1575
 30
0.0
 10
123.2028
 20
-22.1425
 30
0.0
 10
123.3879
 20
-22.8138
 30
0.0
 10
122.9241
 20
-23.4836
 30
0.0
 10
122.9241
 20
-23.4836
 30
0.0
 10
121.9458
 20
-23.731
 30
0.0
 10
120.0876
 20
-23.5772
 30
0.0
 10
118.7653
 20
-24.0476
 30
0.0
 10
118.7653
 20
-24.0476
 30
0.0
 10
118.4599
 20
-27.4306
 30
0.0
 10
118.1545
 20
-30.8146
 30
0.0
 10
117.8491
 20
-34.1976
 30
0.0
 10
117.8491
 20
-34.1976
 30
0.0
 10
120.6212
 20
-32.7881
 30
0.0
 10
123.3942
 20
-31.378
 30
0.0
 10
126.1664
 20
-29.9684
 30
0.0
 10
126.1664
 20
-29.9684
 30
0.0
 10
127.3557
 20
-25.0856
 30
0.0
 10
128.7233
 20
-20.4437
 30
0.0
 10
133.2151
 20
-18.8316
 30
0.0
 10
133.2151
 20
-18.8316
 30
0.0
 10
134.6759
 20
-18.3073
 30
0.0
 10
136.5397
 20
-18.7052
 30
0.0
 10
138.29
 20
-18.2677
 30
0.0
 10
138.29
 20
-18.2677
 30
0.0
 10
139.1593
 20
-16.0123
 30
0.0
 10
140.0288
 20
-13.7564
 30
0.0
 10
140.8982
 20
-11.501
 30
0.0
 10
140.8982
 20
-11.501
 30
0.0
 10
141.2025
 20
-10.1771
 30
0.0
 10
139.7412
 20
-9.2306
 30
0.0
 10
139.2769
 20
-8.5406
 30
0.0
 10
139.2769
 20
-8.5406
 30
0.0
 10
137.5271
 20
-5.94
 30
0.0
 10
135.0843
 20
-3.6011
 30
0.0
 10
131.9463
 20
-2.6197
 30
0.0
 10
131.9463
 20
-2.6197
 30
0.0
 10
131.0416
 20
-2.3368
 30
0.0
 10
129.6727
 20
-2.0853
 30
0.0
 10
128.4925
 20
-2.2673
 30
0.0
 10
128.4925
 20
-2.2673
 30
0.0
 10
127.6178
 20
-2.4021
 30
0.0
 10
125.7553
 20
-2.9429
 30
0.0
 10
125.2501
 20
-2.6197
 30
0.0
 10
125.2501
 20
-2.6197
 30
0.0
 10
125.2971
 20
-2.5727
 30
0.0
 10
125.3442
 20
-2.5257
 30
0.0
 10
125.391
 20
-2.4786
 30
0.0
 10
125.391
 20
-2.4786
 30
0.0
 10
126.7542
 20
0.3926
 30
0.0
 10
132.6381
 20
3.2162
 30
0.0
 10
137.0917
 20
1.5391
 30
0.0
 10
137.0917
 20
1.5391
 30
0.0
 10
139.6522
 20
0.5748
 30
0.0
 10
140.9949
 20
-1.1538
 30
0.0
 10
142.9422
 20
-2.6197
 30
0.0
 10
142.9422
 20
-2.6197
 30
0.0
 10
143.365
 20
0.0586
 30
0.0
 10
143.788
 20
2.7375
 30
0.0
 10
144.211
 20
5.4157
 30
0.0
 10
144.211
 20
5.4157
 30
0.0
 10
144.3049
 20
6.7314
 30
0.0
 10
144.399
 20
8.0474
 30
0.0
 10
144.4929
 20
9.3631
 30
0.0
 10
144.4929
 20
9.3631
 30
0.0
 10
144.9408
 20
11.9292
 30
0.0
 10
145.3396
 20
15.6022
 30
0.0
 10
144.8453
 20
18.4558
 30
0.0
 10
144.8453
 20
18.4558
 30
0.0
 10
144.8218
 20
19.6774
 30
0.0
 10
144.7983
 20
20.8993
 30
0.0
 10
144.7748
 20
22.1211
 30
0.0
 10
144.7748
 20
22.1211
 30
0.0
 10
144.4076
 20
23.6659
 30
0.0
 10
144.5943
 20
26.4453
 30
0.0
 10
144.211
 20
28.5353
 30
0.0
 10
144.211
 20
28.5353
 30
0.0
 10
143.8586
 20
30.4382
 30
0.0
 10
143.5061
 20
32.3417
 30
0.0
 10
143.1537
 20
34.2447
 30
0.0
 10
143.1537
 20
34.2447
 30
0.0
 10
143.1067
 20
34.2447
 30
0.0
 10
143.0596
 20
34.2447
 30
0.0
 10
143.0128
 20
34.2447
 30
0.0
 10
143.0128
 20
34.2447
 30
0.0
 10
142.2923
 20
33.227
 30
0.0
 10
140.4186
 20
32.408
 30
0.0
 10
138.995
 20
32.13
 30
0.0
 10
138.995
 20
32.13
 30
0.0
 10
138.1963
 20
32.1067
 30
0.0
 10
137.3971
 20
32.0832
 30
0.0
 10
136.5984
 20
32.0597
 30
0.0
 10
136.5984
 20
32.0597
 30
0.0
 10
136.6899
 20
27.2769
 30
0.0
 10
134.557
 20
22.203
 30
0.0
 10
131.03
 20
20.7817
 30
0.0
 10
131.03
 20
20.7817
 30
0.0
 10
129.3077
 20
21.8471
 30
0.0
 10
126.6636
 20
26.8153
 30
0.0
 10
127.2943
 20
29.7336
 30
0.0
 10
127.2943
 20
29.7336
 30
0.0
 10
127.5527
 20
31.0022
 30
0.0
 10
127.8112
 20
32.2712
 30
0.0
 10
128.0696
 20
33.5398
 30
0.0
 10
128.0696
 20
33.5398
 30
0.0
 10
124.9436
 20
33.8813
 30
0.0
 10
122.2311
 20
34.9244
 30
0.0
 10
121.2323
 20
37.3462
 30
0.0
 10
121.2323
 20
37.3462
 30
0.0
 10
121.3968
 20
37.4401
 30
0.0
 10
121.5613
 20
37.5342
 30
0.0
 10
121.7257
 20
37.6281
 30
0.0
 10
121.7257
 20
37.6281
 30
0.0
 10
122.2652
 20
37.3234
 30
0.0
 10
123.1581
 20
37.3535
 30
0.0
 10
123.9814
 20
37.3462
 30
0.0
 10
123.9814
 20
37.3462
 30
0.0
 10
127.8134
 20
37.3115
 30
0.0
 10
130.7811
 20
40.0872
 30
0.0
 10
131.453
 20
43.3374
 30
0.0
 10
131.453
 20
43.3374
 30
0.0
 10
131.4294
 20
43.7604
 30
0.0
 10
131.4059
 20
44.1834
 30
0.0
 10
131.3824
 20
44.6062
 30
0.0
 10
131.3824
 20
44.6062
 30
0.0
 10
131.5698
 20
46.265
 30
0.0
 10
131.8557
 20
47.8821
 30
0.0
 10
132.4397
 20
49.1879
 30
0.0
 10
132.4397
 20
49.1879
 30
0.0
 10
133.355
 20
51.2346
 30
0.0
 10
135.078
 20
53.0284
 30
0.0
 10
136.3869
 20
54.7563
 30
0.0
 10
136.3869
 20
54.7563
 30
0.0
 10
136.34
 20
54.7563
 30
0.0
 10
136.293
 20
54.7563
 30
0.0
 10
136.2459
 20
54.7563
 30
0.0
 10
136.2459
 20
54.7563
 30
0.0
 10
135.5544
 20
55.5322
 30
0.0
 10
134.5999
 20
56.0114
 30
0.0
 10
133.8495
 20
56.7299
 30
0.0
 10
133.8495
 20
56.7299
 30
0.0
 10
130.6253
 20
59.8166
 30
0.0
 10
128.1096
 20
63.1779
 30
0.0
 10
126.1664
 20
67.7258
 30
0.0
 10
126.1664
 20
67.7258
 30
0.0
 10
125.5903
 20
69.0741
 30
0.0
 10
124.7698
 20
70.5279
 30
0.0
 10
124.7567
 20
72.3075
 30
0.0
 10
124.7567
 20
72.3075
 30
0.0
 10
124.6863
 20
72.3308
 30
0.0
 10
124.6158
 20
72.3543
 30
0.0
 10
124.5452
 20
72.3778
 30
0.0
 10
124.5452
 20
72.3778
 30
0.0
 10
122.936
 20
70.9309
 30
0.0
 10
121.6907
 20
69.0515
 30
0.0
 10
119.8932
 20
67.7962
 30
0.0
 10
119.8932
 20
67.7962
 30
0.0
 10
118.6962
 20
66.9604
 30
0.0
 10
117.0161
 20
66.8129
 30
0.0
 10
115.7345
 20
65.9636
 30
0.0
 10
115.7345
 20
65.9636
 30
0.0
 10
119.2987
 20
59.6931
 30
0.0
 10
117.7207
 20
50.1775
 30
0.0
 10
114.3248
 20
45.5226
 30
0.0
 10
114.3248
 20
45.5226
 30
0.0
 10
112.7949
 20
43.4257
 30
0.0
 10
109.1237
 20
40.8564
 30
0.0
 10
108.8267
 20
38.1214
 30
0.0
  0
SPLINE
  5
78
330
1F
100
AcDbEntity
  8
layer 1
 62
     7
100
AcDbSpline
210
0.0
220
0.0
230
1.0
 70
    11
 71
     3
 72
    36
 73
    32
 74
     0
 42
0.0000000001
 43
0.0000000001
 12
1.0
 22
0.0
 32
0.0
 13
1.0
 23
0.0
 33
0.0
 40
0.0
 40
0.0
 40
0.0
 40
0.0
 40
0.1111111111111111
 40
0.1111111111111111
 40
0.1111111111111111
 40
0.1111111111111111
 40
0.2222222222222222
 40
0.2222222222222222
 40
0.2222222222222222
 40
0.2222222222222222
 40
0.3333333333333333
 40
0.3333333333333333
 40
0.3333333333333333
 40
0.3333333333333333
 40
0.4444444444444444
 40
0.4444444444444444
 40
0.4444444444444444
 40
0.4444444444444444
 40
0.5555555555555556
 40
0.5555555555555556
 40
0.5555555555555556
 40
0.5555555555555556
 40
0.6666666666666666
 40
0.6666666666666666
 40
0.6666666666666666
 40
0.6666666666666666
 40
0.7777777777777778
 40
0.7777777777777778
 40
0.7777777777777778
 40
0.7777777777777778
 40
1.0
 40
1.0
 40
1.0
 40
1.0
 10
108.8267
 20
-27.431
 30
0.0
 10
109.756
 20
-29.2975
 30
0.0
 10
110.8536
 20
-31.016
 30
0.0
 10
111.7168
 20
-32.9994
 30
0.0
 10
111.7168
 20
-32.9994
 30
0.0
 10
112.4949
 20
-34.7872
 30
0.0
 10
112.3322
 20
-37.0803
 30
0.0
 10
113.1969
 20
-38.9202
 30
0.0
 10
113.1969
 20
-38.9202
 30
0.0
 10
113.5258
 20
-37.6281
 30
0.0
 10
113.8549
 20
-36.3356
 30
0.0
 10
114.1836
 20
-35.0434
 30
0.0
 10
114.1836
 20
-35.0434
 30
0.0
 10
114.972
 20
-32.4961
 30
0.0
 10
115.451
 20
-25.2738
 30
0.0
 10
114.8885
 20
-22.1444
 30
0.0
 10
114.8885
 20
-22.1444
 30
0.0
 10
114.8652
 20
-22.1444
 30
0.0
 10
114.8417
 20
-22.1444
 30
0.0
 10
114.8181
 20
-22.1444
 30
0.0
 10
114.8181
 20
-22.1444
 30
0.0
 10
113.7843
 20
-22.7552
 30
0.0
 10
112.7504
 20
-23.3662
 30
0.0
 10
111.7168
 20
-23.977
 30
0.0
 10
111.7168
 20
-23.977
 30
0.0
 10
110.9905
 20
-24.2251
 30
0.0
 10
109.8115
 20
-24.1172
 30
0.0
 10
108.9677
 20
-24.5409
 30
0.0
 10
108.9677
 20
-24.5409
 30
0.0
 10
108.9208
 20
-25.5042
 30
0.0
 10
108.8738
 20
-26.4677
 30
0.0
 10
108.8267
 20
-27.431
 30
0.0
  0
SPLINE
  5
79
330
1F
100
AcDbEntity
  8
layer 1
 62
     7
100
AcDbSpline
210
0.0
220
0.0
230
1.0
 70
    11
 71
     3
 72
    44
 73
    40
 74
     0
 42
0.0000000001
 43
0.0000000001
 12
1.0
 22
0.0
 32
0.0
 13
1.0
 23
0.0
 33
0.0
 40
0.0
 40
0.0
 40
0.0
 40
0.0
 40
0.0909090909090909
 40
0.0909090909090909
 40
0.0909090909090909
 40
0.0909090909090909
 40
0.1818181818181818
 40
0.1818181818181818
 40
0.1818181818181818
 40
0.1818181818181818
 40
0.2727272727272727
 40
0.2727272727272727
 40
0.2727272727272727
 40
0.2727272727272727
 40
0.3636363636363636
 40
0.3636363636363636
 40
0.3636363636363636
 40
0.3636363636363636
 40
0.4545454545454545
 40
0.4545454545454545
 40
0.4545454545454545
 40
0.4545454545454545
 40
0.5454545454545454
 40
0.5454545454545454
 40
0.5454545454545454
 40
0.5454545454545454
 40
0.6363636363636364
 40
0.6363636363636364
 40
0.6363636363636364
 40
0.6363636363636364
 40
0.7272727272727273
 40
0.7272727272727273
 40
0.7272727272727273
 40
0.7272727272727273
 40
0.8181818181818182
 40
0.8181818181818182
 40
0.8181818181818182
 40
0.8181818181818182
 40
1.0
 40
1.0
 40
1.0
 40
1.0
 10
108.4743
 20
-77.0534
 30
0.0
 10
109.1239
 20
-78.2001
 30
0.0
 10
108.6362
 20
-79.5138
 30
0.0
 10
109.6022
 20
-80.2957
 30
0.0
 10
109.6022
 20
-80.2957
 30
0.0
 10
110.2566
 20
-79.6411
 30
0.0
 10
110.9988
 20
-78.8168
 30
0.0
 10
112.1396
 20
-78.6745
 30
0.0
 10
112.1396
 20
-78.6745
 30
0.0
 10
112.1396
 20
-78.7921
 30
0.0
 10
112.1396
 20
-78.9095
 30
0.0
 10
112.1396
 20
-79.0269
 30
0.0
 10
112.1396
 20
-79.0269
 30
0.0
 10
111.5846
 20
-80.6652
 30
0.0
 10
110.7361
 20
-81.7701
 30
0.0
 10
109.9546
 20
-83.1152
 30
0.0
 10
109.9546
 20
-83.1152
 30
0.0
 10
110.7821
 20
-85.0623
 30
0.0
 10
111.0945
 20
-87.5692
 30
0.0
 10
111.7168
 20
-89.7409
 30
0.0
 10
111.7168
 20
-89.7409
 30
0.0
 10
111.7403
 20
-90.6806
 30
0.0
 10
111.7636
 20
-91.6207
 30
0.0
 10
111.7872
 20
-92.5604
 30
0.0
 10
111.7872
 20
-92.5604
 30
0.0
 10
111.8342
 20
-92.5133
 30
0.0
 10
111.8812
 20
-92.4663
 30
0.0
 10
111.9281
 20
-92.4194
 30
0.0
 10
111.9281
 20
-92.4194
 30
0.0
 10
112.7035
 20
-91.9731
 30
0.0
 10
113.479
 20
-91.5266
 30
0.0
 10
114.2542
 20
-91.0801
 30
0.0
 10
114.2542
 20
-91.0801
 30
0.0
 10
114.3594
 20
-84.7998
 30
0.0
 10
113.2725
 20
-76.4304
 30
0.0
 10
111.3643
 20
-71.8373
 30
0.0
 10
111.3643
 20
-71.8373
 30
0.0
 10
108.7314
 20
-71.7224
 30
0.0
 10
108.5111
 20
-74.5115
 30
0.0
 10
108.4743
 20
-77.0534
 30
0.0
  0
SPLINE
  5
7A
330
1F
100
AcDbEntity
  8
layer 1
 62
     7
100
AcDbSpline
210
0.0
220
0.0
230
1.0
 70
    11
 71
     3
 72
    20
 73
    16
 74
     0
 42
0.0000000001
 43
0.0000000001
 12
1.0
 22
0.0
 32
0.0
 13
1.0
 23
0.0
 33
0.0
 40
0.0
 40
0.0
 40
0.0
 40
0.0
 40
0.2
 40
0.2
 40
0.2
 40
0.2
 40
0.4
 40
0.4
 40
0.4
 40
0.4
 40
0.6
 40
0.6
 40
0.6
 40
0.6
 40
1.0
 40
1.0
 40
1.0
 40
1.0
 10
108.4039
 20
13.7332
 30
0.0
 10
108.5449
 20
13.7097
 30
0.0
 10
108.6858
 20
13.6862
 30
0.0
 10
108.8267
 20
13.6627
 30
0.0
 10
108.8267
 20
13.6627
 30
0.0
 10
109.084
 20
13.1201
 30
0.0
 10
109.0896
 20
12.1854
 30
0.0
 10
109.3907
 20
11.548
 30
0.0
 10
109.3907
 20
11.548
 30
0.0
 10
109.837
 20
12.6522
 30
0.0
 10
110.2835
 20
13.7567
 30
0.0
 10
110.7299
 20
14.8609
 30
0.0
 10
110.7299
 20
14.8609
 30
0.0
 10
109.9004
 20
14.6345
 30
0.0
 10
108.9885
 20
14.2345
 30
0.0
 10
108.4039
 20
13.7332
 30
0.0
  0
SPLINE
  5
7B
330
1F
100
AcDbEntity
  8
layer 1
 62
     7
100
AcDbSpline
210
0.0
220
0.0
230
1.0
 70
    11
 71
     3
 72
    28
 73
    24
 74
     0
 42
0.0000000001
 43
0.0000000001
 12
1.0
 22
0.0
 32
0.0
 13
1.0
 23
0.0
 33
0.0
 40
0.0
 40
0.0
 40
0.0
 40
0.0
 40
0.1428571428571428
 40
0.1428571428571428
 40
0.1428571428571428
 40
0.1428571428571428
 40
0.2857142857142857
 40
0.2857142857142857
 40
0.2857142857142857
 40
0.2857142857142857
 40
0.4285714285714285
 40
0.4285714285714285
 40
0.4285714285714285
 40
0.4285714285714285
 40
0.5714285714285714
 40
0.5714285714285714
 40
0.5714285714285714
 40
0.5714285714285714
 40
0.7142857142857143
 40
0.7142857142857143
 40
0.7142857142857143
 40
0.7142857142857143
 40
1.0
 40
1.0
 40
1.0
 40
1.0
 10
107.3466
 20
21.6277
 30
0.0
 10
107.4876
 20
19.9126
 30
0.0
 10
107.6285
 20
18.1971
 30
0.0
 10
107.7694
 20
16.4821
 30
0.0
 10
107.7694
 20
16.4821
 30
0.0
 10
108.4978
 20
16.999
 30
0.0
 10
109.2262
 20
17.5159
 30
0.0
 10
109.9546
 20
18.0328
 30
0.0
 10
109.9546
 20
18.0328
 30
0.0
 10
110.7063
 20
18.2443
 30
0.0
 10
111.4584
 20
18.4558
 30
0.0
 10
112.2102
 20
18.6673
 30
0.0
 10
112.2102
 20
18.6673
 30
0.0
 10
112.3392
 20
24.1255
 30
0.0
 10
111.3309
 20
29.9874
 30
0.0
 10
108.0515
 20
32.4121
 30
0.0
 10
108.0515
 20
32.4121
 30
0.0
 10
108.0515
 20
32.3651
 30
0.0
 10
108.0515
 20
32.318
 30
0.0
 10
108.0515
 20
32.2712
 30
0.0
 10
108.0515
 20
32.2712
 30
0.0
 10
106.962
 20
29.9215
 30
0.0
 10
107.3355
 20
25.1961
 30
0.0
 10
107.3466
 20
21.6277
 30
0.0
  0
SPLINE
  5
7C
330
1F
100
AcDbEntity
  8
layer 1
 62
     7
100
AcDbSpline
210
0.0
220
0.0
230
1.0
 70
    11
 71
     3
 72
    32
 73
    28
 74
     0
 42
0.0000000001
 43
0.0000000001
 12
1.0
 22
0.0
 32
0.0
 13
1.0
 23
0.0
 33
0.0
 40
0.0
 40
0.0
 40
0.0
 40
0.0
 40
0.125
 40
0.125
 40
0.125
 40
0.125
 40
0.25
 40
0.25
 40
0.25
 40
0.25
 40
0.375
 40
0.375
 40
0.375
 40
0.375
 40
0.5
 40
0.5
 40
0.5
 40
0.5
 40
0.625
 40
0.625
 40
0.625
 40
0.625
 40
0.75
 40
0.75
 40
0.75
 40
0.75
 40
1.0
 40
1.0
 40
1.0
 40
1.0
 10
107.3466
 20
-38.5678
 30
0.0
 10
107.4405
 20
-39.9773
 30
0.0
 10
107.5346
 20
-41.3873
 30
0.0
 10
107.6285
 20
-42.797
 30
0.0
 10
107.6285
 20
-42.797
 30
0.0
 10
108.0233
 20
-45.2895
 30
0.0
 10
108.1475
 20
-47.8819
 30
0.0
 10
108.6858
 20
-50.198
 30
0.0
 10
108.6858
 20
-50.198
 30
0.0
 10
108.965
 20
-51.3994
 30
0.0
 10
108.7091
 20
-53.3584
 30
0.0
 10
109.3907
 20
-54.2157
 30
0.0
 10
109.3907
 20
-54.2157
 30
0.0
 10
109.66
 20
-53.141
 30
0.0
 10
110.3192
 20
-52.202
 30
0.0
 10
110.5889
 20
-50.9734
 30
0.0
 10
110.5889
 20
-50.9734
 30
0.0
 10
111.5724
 20
-46.4937
 30
0.0
 10
110.3252
 20
-41.1517
 30
0.0
 10
109.2497
 20
-37.6514
 30
0.0
 10
109.2497
 20
-37.6514
 30
0.0
 10
108.845
 20
-36.3343
 30
0.0
 10
108.6844
 20
-34.1177
 30
0.0
 10
107.84
 20
-33.1403
 30
0.0
 10
107.84
 20
-33.1403
 30
0.0
 10
107.1669
 20
-34.4159
 30
0.0
 10
107.3364
 20
-36.6621
 30
0.0
 10
107.3466
 20
-38.5678
 30
0.0
  0
SPLINE
  5
7D
330
1F
100
AcDbEntity
  8
layer 1
 62
     7
100
AcDbSpline
210
0.0
220
0.0
230
1.0
 70
    11
 71
     3
 72
    20
 73
    16
 74
     0
 42
0.0000000001
 43
0.0000000001
 12
1.0
 22
0.0
 32
0.0
 13
1.0
 23
0.0
 33
0.0
 40
0.0
 40
0.0
 40
0.0
 40
0.0
 40
0.2
 40
0.2
 40
0.2
 40
0.2
 40
0.4
 40
0.4
 40
0.4
 40
0.4
 40
0.6
 40
0.6
 40
0.6
 40
0.6
 40
1.0
 40
1.0
 40
1.0
 40
1.0
 10
107.3466
 20
-86.992
 30
0.0
 10
107.7224
 20
-87.6967
 30
0.0
 10
108.0985
 20
-88.4017
 30
0.0
 10
108.4743
 20
-89.1066
 30
0.0
 10
108.4743
 20
-89.1066
 30
0.0
 10
108.4978
 20
-89.1066
 30
0.0
 10
108.5213
 20
-89.1066
 30
0.0
 10
108.5449
 20
-89.1066
 30
0.0
 10
108.5449
 20
-89.1066
 30
0.0
 10
108.3098
 20
-88.2608
 30
0.0
 10
108.0748
 20
-87.4148
 30
0.0
 10
107.84
 20
-86.569
 30
0.0
 10
107.84
 20
-86.569
 30
0.0
 10
107.5567
 20
-86.6943
 30
0.0
 10
107.4834
 20
-86.7133
 30
0.0
 10
107.3466
 20
-86.992
 30
0.0
  0
SPLINE
  5
7E
330
1F
100
AcDbEntity
  8
layer 1
 62
     7
100
AcDbSpline
210
0.0
220
0.0
230
1.0
 70
    11
 71
     3
 72
    20
 73
    16
 74
     0
 42
0.0000000001
 43
0.0000000001
 12
1.0
 22
0.0
 32
0.0
 13
1.0
 23
0.0
 33
0.0
 40
0.0
 40
0.0
 40
0.0
 40
0.0
 40
0.2
 40
0.2
 40
0.2
 40
0.2
 40
0.4
 40
0.4
 40
0.4
 40
0.4
 40
0.6
 40
0.6
 40
0.6
 40
0.6
 40
1.0
 40
1.0
 40
1.0
 40
1.0
 10
111.0823
 20
-108.7018
 30
0.0
 10
110.9413
 20
-106.9632
 30
0.0
 10
110.8004
 20
-105.2242
 30
0.0
 10
110.6595
 20
-103.4857
 30
0.0
 10
110.6595
 20
-103.4857
 30
0.0
 10
110.0955
 20
-104.0026
 30
0.0
 10
109.5316
 20
-104.5196
 30
0.0
 10
108.9677
 20
-105.0365
 30
0.0
 10
108.9677
 20
-105.0365
 30
0.0
 10
108.263
 20
-106.2581
 30
0.0
 10
107.5579
 20
-107.4801
 30
0.0
 10
106.8532
 20
-108.7018
 30
0.0
 10
106.8532
 20
-108.7018
 30
0.0
 10
108.2628
 20
-108.7018
 30
0.0
 10
109.6727
 20
-108.7018
 30
0.0
 10
111.0823
 20
-108.7018
 30
0.0
  0
SPLINE
  5
7F
330
1F
100
AcDbEntity
  8
layer 1
 62
     7
100
AcDbSpline
210
0.0
220
0.0
230
1.0
 70
    11
 71
     3
 72
    24
 73
    20
 74
     0
 42
0.0000000001
 43
0.0000000001
 12
1.0
 22
0.0
 32
0.0
 13
1.0
 23
0.0
 33
0.0
 40
0.0
 40
0.0
 40
0.0
 40
0.0
 40
0.1666666666666667
 40
0.1666666666666667
 40
0.1666666666666667
 40
0.1666666666666667
 40
0.3333333333333333
 40
0.3333333333333333
 40
0.3333333333333333
 40
0.3333333333333333
 40
0.5
 40
0.5
 40
0.5
 40
0.5
 40
0.6666666666666666
 40
0.6666666666666666
 40
0.6666666666666666
 40
0.6666666666666666
 40
1.0
 40
1.0
 40
1.0
 40
1.0
 10
105.7254
 20
-81.9873
 30
0.0
 10
105.9103
 20
-82.5013
 30
0.0
 10
105.7988
 20
-82.9997
 30
0.0
 10
106.1484
 20
-83.3267
 30
0.0
 10
106.1484
 20
-83.3267
 30
0.0
 10
106.1717
 20
-83.3267
 30
0.0
 10
106.1952
 20
-83.3267
 30
0.0
 10
106.2188
 20
-83.3267
 30
0.0
 10
106.2188
 20
-83.3267
 30
0.0
 10
106.3004
 20
-82.4146
 30
0.0
 10
106.3715
 20
-81.2212
 30
0.0
 10
106.0073
 20
-80.5778
 30
0.0
 10
106.0073
 20
-80.5778
 30
0.0
 10
105.9604
 20
-80.6011
 30
0.0
 10
105.9134
 20
-80.6246
 30
0.0
 10
105.8663
 20
-80.6481
 30
0.0
 10
105.8663
 20
-80.6481
 30
0.0
 10
105.8193
 20
-81.0945
 30
0.0
 10
105.7724
 20
-81.541
 30
0.0
 10
105.7254
 20
-81.9873
 30
0.0
  0
SPLINE
  5
80
330
1F
100
AcDbEntity
  8
layer 1
 62
     7
100
AcDbSpline
210
0.0
220
0.0
230
1.0
 70
    11
 71
     3
 72
    28
 73
    24
 74
     0
 42
0.0000000001
 43
0.0000000001
 12
1.0
 22
0.0
 32
0.0
 13
1.0
 23
0.0
 33
0.0
 40
0.0
 40
0.0
 40
0.0
 40
0.0
 40
0.1428571428571428
 40
0.1428571428571428
 40
0.1428571428571428
 40
0.1428571428571428
 40
0.2857142857142857
 40
0.2857142857142857
 40
0.2857142857142857
 40
0.2857142857142857
 40
0.4285714285714285
 40
0.4285714285714285
 40
0.4285714285714285
 40
0.4285714285714285
 40
0.5714285714285714
 40
0.5714285714285714
 40
0.5714285714285714
 40
0.5714285714285714
 40
0.7142857142857143
 40
0.7142857142857143
 40
0.7142857142857143
 40
0.7142857142857143
 40
1.0
 40
1.0
 40
1.0
 40
1.0
 10
104.4566
 20
-96.7896
 30
0.0
 10
104.6681
 20
-98.0582
 30
0.0
 10
104.8796
 20
-99.3272
 30
0.0
 10
105.0911
 20
-100.5958
 30
0.0
 10
105.0911
 20
-100.5958
 30
0.0
 10
105.1614
 20
-100.5488
 30
0.0
 10
105.232
 20
-100.5017
 30
0.0
 10
105.3024
 20
-100.4549
 30
0.0
 10
105.3024
 20
-100.4549
 30
0.0
 10
105.8428
 20
-99.6561
 30
0.0
 10
106.3834
 20
-98.857
 30
0.0
 10
106.9236
 20
-98.0582
 30
0.0
 10
106.9236
 20
-98.0582
 30
0.0
 10
108.5617
 20
-94.6233
 30
0.0
 10
106.0922
 20
-92.6869
 30
0.0
 10
105.0205
 20
-90.6573
 30
0.0
 10
105.0205
 20
-90.6573
 30
0.0
 10
104.997
 20
-90.6573
 30
0.0
 10
104.9735
 20
-90.6573
 30
0.0
 10
104.9499
 20
-90.6573
 30
0.0
 10
104.9499
 20
-90.6573
 30
0.0
 10
104.5223
 20
-92.6771
 30
0.0
 10
104.4851
 20
-94.8068
 30
0.0
 10
104.4566
 20
-96.7896
 30
0.0
  0
SPLINE
  5
81
330
1F
100
AcDbEntity
  8
layer 1
 62
     7
100
AcDbSpline
210
0.0
220
0.0
230
1.0
 70
    11
 71
     3
 72
    36
 73
    32
 74
     0
 42
0.0000000001
 43
0.0000000001
 12
1.0
 22
0.0
 32
0.0
 13
1.0
 23
0.0
 33
0.0
 40
0.0
 40
0.0
 40
0.0
 40
0.0
 40
0.1111111111111111
 40
0.1111111111111111
 40
0.1111111111111111
 40
0.1111111111111111
 40
0.2222222222222222
 40
0.2222222222222222
 40
0.2222222222222222
 40
0.2222222222222222
 40
0.3333333333333333
 40
0.3333333333333333
 40
0.3333333333333333
 40
0.3333333333333333
 40
0.4444444444444444
 40
0.4444444444444444
 40
0.4444444444444444
 40
0.4444444444444444
 40
0.5555555555555556
 40
0.5555555555555556
 40
0.5555555555555556
 40
0.5555555555555556
 40
0.6666666666666666
 40
0.6666666666666666
 40
0.6666666666666666
 40
0.6666666666666666
 40
0.7777777777777778
 40
0.7777777777777778
 40
0.7777777777777778
 40
0.7777777777777778
 40
1.0
 40
1.0
 40
1.0
 40
1.0
 10
103.0468
 20
-1.0689
 30
0.0
 10
103.1878
 20
-3.0894
 30
0.0
 10
103.3289
 20
-5.1103
 30
0.0
 10
103.4698
 20
-7.1308
 30
0.0
 10
103.4698
 20
-7.1308
 30
0.0
 10
103.5169
 20
-7.1073
 30
0.0
 10
103.5637
 20
-7.0838
 30
0.0
 10
103.6108
 20
-7.0603
 30
0.0
 10
103.6108
 20
-7.0603
 30
0.0
 10
104.1214
 20
-6.122
 30
0.0
 10
105.4401
 20
-5.6965
 30
0.0
 10
106.9236
 20
-5.7211
 30
0.0
 10
106.9236
 20
-5.7211
 30
0.0
 10
106.9236
 20
-5.6976
 30
0.0
 10
106.9236
 20
-5.6741
 30
0.0
 10
106.9236
 20
-5.6505
 30
0.0
 10
106.9236
 20
-5.6505
 30
0.0
 10
106.0033
 20
-2.4429
 30
0.0
 10
106.1344
 20
0.747
 30
0.0
 10
105.5139
 20
4.1471
 30
0.0
 10
105.5139
 20
4.1471
 30
0.0
 10
105.4435
 20
5.3687
 30
0.0
 10
105.3729
 20
6.5906
 30
0.0
 10
105.3024
 20
7.8124
 30
0.0
 10
105.3024
 20
7.8124
 30
0.0
 10
105.232
 20
7.8124
 30
0.0
 10
105.1614
 20
7.8124
 30
0.0
 10
105.0911
 20
7.8124
 30
0.0
 10
105.0911
 20
7.8124
 30
0.0
 10
103.3899
 20
5.5548
 30
0.0
 10
103.04
 20
2.9544
 30
0.0
 10
103.0468
 20
-1.0689
 30
0.0
  0
SPLINE
  5
82
330
1F
100
AcDbEntity
  8
layer 1
 62
     7
100
AcDbSpline
210
0.0
220
0.0
230
1.0
 70
    11
 71
     3
 72
    24
 73
    20
 74
     0
 42
0.0000000001
 43
0.0000000001
 12
1.0
 22
0.0
 32
0.0
 13
1.0
 23
0.0
 33
0.0
 40
0.0
 40
0.0
 40
0.0
 40
0.0
 40
0.1666666666666667
 40
0.1666666666666667
 40
0.1666666666666667
 40
0.1666666666666667
 40
0.3333333333333333
 40
0.3333333333333333
 40
0.3333333333333333
 40
0.3333333333333333
 40
0.5
 40
0.5
 40
0.5
 40
0.5
 40
0.6666666666666666
 40
0.6666666666666666
 40
0.6666666666666666
 40
0.6666666666666666
 40
1.0
 40
1.0
 40
1.0
 40
1.0
 10
103.0468
 20
-12.6287
 30
0.0
 10
104.4548
 20
-14.3155
 30
0.0
 10
105.4467
 20
-17.4809
 30
0.0
 10
105.7959
 20
-19.8889
 30
0.0
 10
105.7959
 20
-19.8889
 30
0.0
 10
105.8428
 20
-19.8654
 30
0.0
 10
105.8898
 20
-19.8418
 30
0.0
 10
105.9369
 20
-19.8183
 30
0.0
 10
105.9369
 20
-19.8183
 30
0.0
 10
106.6171
 20
-17.6165
 30
0.0
 10
107.2046
 20
-12.9538
 30
0.0
 10
106.3597
 20
-10.2322
 30
0.0
 10
106.3597
 20
-10.2322
 30
0.0
 10
105.176
 20
-10.8527
 30
0.0
 10
103.8995
 20
-11.2676
 30
0.0
 10
103.0468
 20
-12.4174
 30
0.0
 10
103.0468
 20
-12.4174
 30
0.0
 10
103.0468
 20
-12.4877
 30
0.0
 10
103.0468
 20
-12.5583
 30
0.0
 10
103.0468
 20
-12.6287
 30
0.0
  0
SPLINE
  5
83
330
1F
100
AcDbEntity
  8
layer 1
 62
     7
100
AcDbSpline
210
0.0
220
0.0
230
1.0
 70
    11
 71
     3
 72
    28
 73
    24
 74
     0
 42
0.0000000001
 43
0.0000000001
 12
1.0
 22
0.0
 32
0.0
 13
1.0
 23
0.0
 33
0.0
 40
0.0
 40
0.0
 40
0.0
 40
0.0
 40
0.1428571428571428
 40
0.1428571428571428
 40
0.1428571428571428
 40
0.1428571428571428
 40
0.2857142857142857
 40
0.2857142857142857
 40
0.2857142857142857
 40
0.2857142857142857
 40
0.4285714285714285
 40
0.4285714285714285
 40
0.4285714285714285
 40
0.4285714285714285
 40
0.5714285714285714
 40
0.5714285714285714
 40
0.5714285714285714
 40
0.5714285714285714
 40
0.7142857142857143
 40
0.7142857142857143
 40
0.7142857142857143
 40
0.7142857142857143
 40
1.0
 40
1.0
 40
1.0
 40
1.0
 10
100.3685
 20
-85.4413
 30
0.0
 10
100.838
 20
-85.8593
 30
0.0
 10
101.1075
 20
-86.8017
 30
0.0
 10
101.1437
 20
-87.6263
 30
0.0
 10
101.1437
 20
-87.6263
 30
0.0
 10
101.1908
 20
-87.6028
 30
0.0
 10
101.2378
 20
-87.5792
 30
0.0
 10
101.2847
 20
-87.5559
 30
0.0
 10
101.2847
 20
-87.5559
 30
0.0
 10
101.4491
 20
-87.0625
 30
0.0
 10
101.6138
 20
-86.569
 30
0.0
 10
101.778
 20
-86.0756
 30
0.0
 10
101.778
 20
-86.0756
 30
0.0
 10
101.3317
 20
-85.7937
 30
0.0
 10
100.8852
 20
-85.5117
 30
0.0
 10
100.4389
 20
-85.2298
 30
0.0
 10
100.4389
 20
-85.2298
 30
0.0
 10
100.4153
 20
-85.2298
 30
0.0
 10
100.3918
 20
-85.2298
 30
0.0
 10
100.3685
 20
-85.2298
 30
0.0
 10
100.3685
 20
-85.2298
 30
0.0
 10
100.3685
 20
-85.3002
 30
0.0
 10
100.3685
 20
-85.3707
 30
0.0
 10
100.3685
 20
-85.4413
 30
0.0
  0
SPLINE
  5
84
330
1F
100
AcDbEntity
  8
layer 1
 62
     7
100
AcDbSpline
210
0.0
220
0.0
230
1.0
 70
    11
 71
     3
 72
    44
 73
    40
 74
     0
 42
0.0000000001
 43
0.0000000001
 12
1.0
 22
0.0
 32
0.0
 13
1.0
 23
0.0
 33
0.0
 40
0.0
 40
0.0
 40
0.0
 40
0.0
 40
0.0909090909090909
 40
0.0909090909090909
 40
0.0909090909090909
 40
0.0909090909090909
 40
0.1818181818181818
 40
0.1818181818181818
 40
0.1818181818181818
 40
0.1818181818181818
 40
0.2727272727272727
 40
0.2727272727272727
 40
0.2727272727272727
 40
0.2727272727272727
 40
0.3636363636363636
 40
0.3636363636363636
 40
0.3636363636363636
 40
0.3636363636363636
 40
0.4545454545454545
 40
0.4545454545454545
 40
0.4545454545454545
 40
0.4545454545454545
 40
0.5454545454545454
 40
0.5454545454545454
 40
0.5454545454545454
 40
0.5454545454545454
 40
0.6363636363636364
 40
0.6363636363636364
 40
0.6363636363636364
 40
0.6363636363636364
 40
0.7272727272727273
 40
0.7272727272727273
 40
0.7272727272727273
 40
0.7272727272727273
 40
0.8181818181818182
 40
0.8181818181818182
 40
0.8181818181818182
 40
0.8181818181818182
 40
1.0
 40
1.0
 40
1.0
 40
1.0
 10
96.4211
 20
39.8132
 30
0.0
 10
96.4446
 20
39.0613
 30
0.0
 10
96.4682
 20
38.3094
 30
0.0
 10
96.4917
 20
37.5575
 30
0.0
 10
96.4917
 20
37.5575
 30
0.0
 10
96.6797
 20
36.2655
 30
0.0
 10
96.8676
 20
34.9729
 30
0.0
 10
97.0556
 20
33.6809
 30
0.0
 10
97.0556
 20
33.6809
 30
0.0
 10
98.318
 20
29.5655
 30
0.0
 10
99.6948
 20
25.5334
 30
0.0
 10
102.765
 20
23.2488
 30
0.0
 10
102.765
 20
23.2488
 30
0.0
 10
102.7885
 20
23.2488
 30
0.0
 10
102.812
 20
23.2488
 30
0.0
 10
102.8353
 20
23.2488
 30
0.0
 10
102.8353
 20
23.2488
 30
0.0
 10
103.2819
 20
31.7534
 30
0.0
 10
103.7284
 20
40.2605
 30
0.0
 10
104.1747
 20
48.7649
 30
0.0
 10
104.1747
 20
48.7649
 30
0.0
 10
103.6097
 20
49.1977
 30
0.0
 10
103.1865
 20
49.8066
 30
0.0
 10
102.4831
 20
50.1042
 30
0.0
 10
102.4831
 20
50.1042
 30
0.0
 10
101.4182
 20
50.5547
 30
0.0
 10
100.3541
 20
50.2558
 30
0.0
 10
99.593
 20
49.5403
 30
0.0
 10
99.593
 20
49.5403
 30
0.0
 10
98.2684
 20
48.2948
 30
0.0
 10
97.7239
 20
46.9894
 30
0.0
 10
97.0556
 20
45.0292
 30
0.0
 10
97.0556
 20
45.0292
 30
0.0
 10
96.8676
 20
43.925
 30
0.0
 10
96.6797
 20
42.8205
 30
0.0
 10
96.4917
 20
41.7163
 30
0.0
 10
96.4917
 20
41.7163
 30
0.0
 10
96.3955
 20
41.4154
 30
0.0
 10
96.6105
 20
40.4037
 30
0.0
 10
96.4211
 20
39.8132
 30
0.0
  0
SPLINE
  5
85
330
1F
100
AcDbEntity
  8
layer 1
 62
     7
100
AcDbSpline
210
0.0
220
0.0
230
1.0
 70
    11
 71
     3
 72
    88
 73
    84
 74
     0
 42
0.0000000001
 43
0.0000000001
 12
1.0
 22
0.0
 32
0.0
 13
1.0
 23
0.0
 33
0.0
 40
0.0
 40
0.0
 40
0.0
 40
0.0
 40
0.0454545454545455
 40
0.0454545454545455
 40
0.0454545454545455
 40
0.0454545454545455
 40
0.0909090909090909
 40
0.0909090909090909
 40
0.0909090909090909
 40
0.0909090909090909
 40
0.1363636363636364
 40
0.1363636363636364
 40
0.1363636363636364
 40
0.1363636363636364
 40
0.1818181818181818
 40
0.1818181818181818
 40
0.1818181818181818
 40
0.1818181818181818
 40
0.2272727272727273
 40
0.2272727272727273
 40
0.2272727272727273
 40
0.2272727272727273
 40
0.2727272727272727
 40
0.2727272727272727
 40
0.2727272727272727
 40
0.2727272727272727
 40
0.3181818181818182
 40
0.3181818181818182
 40
0.3181818181818182
 40
0.3181818181818182
 40
0.3636363636363636
 40
0.3636363636363636
 40
0.3636363636363636
 40
0.3636363636363636
 40
0.4090909090909091
 40
0.4090909090909091
 40
0.4090909090909091
 40
0.4090909090909091
 40
0.4545454545454545
 40
0.4545454545454545
 40
0.4545454545454545
 40
0.4545454545454545
 40
0.5
 40
0.5
 40
0.5
 40
0.5
 40
0.5454545454545454
 40
0.5454545454545454
 40
0.5454545454545454
 40
0.5454545454545454
 40
0.5909090909090909
 40
0.5909090909090909
 40
0.5909090909090909
 40
0.5909090909090909
 40
0.6363636363636364
 40
0.6363636363636364
 40
0.6363636363636364
 40
0.6363636363636364
 40
0.6818181818181818
 40
0.6818181818181818
 40
0.6818181818181818
 40
0.6818181818181818
 40
0.7272727272727273
 40
0.7272727272727273
 40
0.7272727272727273
 40
0.7272727272727273
 40
0.7727272727272727
 40
0.7727272727272727
 40
0.7727272727272727
 40
0.7727272727272727
 40
0.8181818181818182
 40
0.8181818181818182
 40
0.8181818181818182
 40
0.8181818181818182
 40
0.8636363636363636
 40
0.8636363636363636
 40
0.8636363636363636
 40
0.8636363636363636
 40
0.9090909090909091
 40
0.9090909090909091
 40
0.9090909090909091
 40
0.9090909090909091
 40
1.0
 40
1.0
 40
1.0
 40
1.0
 10
95.5753
 20
101.4183
 30
0.0
 10
99.2911
 20
101.352
 30
0.0
 10
102.9621
 20
99.2631
 30
0.0
 10
104.809
 20
96.9072
 30
0.0
 10
104.809
 20
96.9072
 30
0.0
 10
105.3729
 20
96.0379
 30
0.0
 10
105.9369
 20
95.1684
 30
0.0
 10
106.5008
 20
94.2992
 30
0.0
 10
106.5008
 20
94.2992
 30
0.0
 10
110.1945
 20
96.3614
 30
0.0
 10
114.091
 20
103.1864
 30
0.0
 10
112.492
 20
109.1013
 30
0.0
 10
112.492
 20
109.1013
 30
0.0
 10
112.2112
 20
110.1405
 30
0.0
 10
112.5105
 20
111.2958
 30
0.0
 10
112.0692
 20
112.2732
 30
0.0
 10
112.0692
 20
112.2732
 30
0.0
 10
111.7498
 20
112.9802
 30
0.0
 10
110.7157
 20
113.3542
 30
0.0
 10
110.307
 20
113.7533
 30
0.0
 10
110.307
 20
113.7533
 30
0.0
 10
110.307
 20
113.9178
 30
0.0
 10
110.307
 20
114.0824
 30
0.0
 10
110.307
 20
114.2469
 30
0.0
 10
110.307
 20
114.2469
 30
0.0
 10
110.1857
 20
114.4537
 30
0.0
 10
109.9024
 20
114.5042
 30
0.0
 10
109.7431
 20
114.6697
 30
0.0
 10
109.7431
 20
114.6697
 30
0.0
 10
109.1792
 20
115.7504
 30
0.0
 10
108.6152
 20
116.8314
 30
0.0
 10
108.0515
 20
117.9122
 30
0.0
 10
108.0515
 20
117.9122
 30
0.0
 10
107.3536
 20
119.4384
 30
0.0
 10
107.3398
 20
121.757
 30
0.0
 10
106.9236
 20
123.3396
 30
0.0
 10
106.9236
 20
123.3396
 30
0.0
 10
106.7823
 20
123.8772
 30
0.0
 10
107.0441
 20
124.2442
 30
0.0
 10
106.8532
 20
124.5379
 30
0.0
 10
106.8532
 20
124.5379
 30
0.0
 10
106.8062
 20
124.6318
 30
0.0
 10
106.7592
 20
124.7259
 30
0.0
 10
106.7121
 20
124.8198
 30
0.0
 10
106.7121
 20
124.8198
 30
0.0
 10
105.8661
 20
124.8934
 30
0.0
 10
104.1654
 20
125.1788
 30
0.0
 10
103.4698
 20
124.8903
 30
0.0
 10
103.4698
 20
124.8903
 30
0.0
 10
103.7463
 20
123.0657
 30
0.0
 10
104.0932
 20
120.5225
 30
0.0
 10
103.6108
 20
118.6171
 30
0.0
 10
103.6108
 20
118.6171
 30
0.0
 10
103.2115
 20
117.5362
 30
0.0
 10
102.8118
 20
116.4552
 30
0.0
 10
102.4125
 20
115.3746
 30
0.0
 10
102.4125
 20
115.3746
 30
0.0
 10
104.972
 20
115.4432
 30
0.0
 10
107.8962
 20
115.0265
 30
0.0
 10
109.1088
 20
113.3305
 30
0.0
 10
109.1088
 20
113.3305
 30
0.0
 10
109.4557
 20
112.8452
 30
0.0
 10
110.8081
 20
109.8344
 30
0.0
 10
109.9546
 20
109.8767
 30
0.0
 10
109.9546
 20
109.8767
 30
0.0
 10
109.0528
 20
109.7931
 30
0.0
 10
107.9326
 20
111.0401
 30
0.0
 10
107.2057
 20
111.4978
 30
0.0
 10
107.2057
 20
111.4978
 30
0.0
 10
105.9424
 20
112.293
 30
0.0
 10
103.6386
 20
112.1176
 30
0.0
 10
102.1305
 20
111.7093
 30
0.0
 10
102.1305
 20
111.7093
 30
0.0
 10
101.5667
 20
111.5448
 30
0.0
 10
101.0028
 20
111.3804
 30
0.0
 10
100.4389
 20
111.2159
 30
0.0
 10
100.4389
 20
111.2159
 30
0.0
 10
100.1241
 20
110.8868
 30
0.0
 10
100.2302
 20
106.5766
 30
0.0
 10
99.9455
 20
105.8588
 30
0.0
 10
99.9455
 20
105.8588
 30
0.0
 10
99.1069
 20
103.7448
 30
0.0
 10
96.9432
 20
102.9943
 30
0.0
 10
95.5753
 20
101.4183
 30
0.0
  0
SPLINE
  5
86
330
1F
100
AcDbEntity
  8
layer 1
 62
     7
100
AcDbSpline
210
0.0
220
0.0
230
1.0
 70
    11
 71
     3
 72
    28
 73
    24
 74
     0
 42
0.0000000001
 43
0.0000000001
 12
1.0
 22
0.0
 32
0.0
 13
1.0
 23
0.0
 33
0.0
 40
0.0
 40
0.0
 40
0.0
 40
0.0
 40
0.1428571428571428
 40
0.1428571428571428
 40
0.1428571428571428
 40
0.1428571428571428
 40
0.2857142857142857
 40
0.2857142857142857
 40
0.2857142857142857
 40
0.2857142857142857
 40
0.4285714285714285
 40
0.4285714285714285
 40
0.4285714285714285
 40
0.4285714285714285
 40
0.5714285714285714
 40
0.5714285714285714
 40
0.5714285714285714
 40
0.5714285714285714
 40
0.7142857142857143
 40
0.7142857142857143
 40
0.7142857142857143
 40
0.7142857142857143
 40
1.0
 40
1.0
 40
1.0
 40
1.0
 10
92.8968
 20
-91.7849
 30
0.0
 10
94.7403
 20
-93.0963
 30
0.0
 10
97.6402
 20
-95.6562
 30
0.0
 10
98.3242
 20
-97.9878
 30
0.0
 10
98.3242
 20
-97.9878
 30
0.0
 10
98.3713
 20
-97.9878
 30
0.0
 10
98.4183
 20
-97.9878
 30
0.0
 10
98.4652
 20
-97.9878
 30
0.0
 10
98.4652
 20
-97.9878
 30
0.0
 10
98.6444
 20
-93.5701
 30
0.0
 10
98.8322
 20
-90.324
 30
0.0
 10
97.4081
 20
-86.8509
 30
0.0
 10
97.4081
 20
-86.8509
 30
0.0
 10
97.1782
 20
-86.2909
 30
0.0
 10
97.0897
 20
-85.5467
 30
0.0
 10
96.5621
 20
-85.3002
 30
0.0
 10
96.5621
 20
-85.3002
 30
0.0
 10
96.0218
 20
-85.8641
 30
0.0
 10
95.4812
 20
-86.428
 30
0.0
 10
94.941
 20
-86.992
 30
0.0
 10
94.941
 20
-86.992
 30
0.0
 10
94.0126
 20
-88.4037
 30
0.0
 10
93.4846
 20
-90.0204
 30
0.0
 10
92.8968
 20
-91.7849
 30
0.0
  0
SPLINE
  5
87
330
1F
100
AcDbEntity
  8
layer 1
 62
     7
100
AcDbSpline
210
0.0
220
0.0
230
1.0
 70
    11
 71
     3
 72
    20
 73
    16
 74
     0
 42
0.0000000001
 43
0.0000000001
 12
1.0
 22
0.0
 32
0.0
 13
1.0
 23
0.0
 33
0.0
 40
0.0
 40
0.0
 40
0.0
 40
0.0
 40
0.2
 40
0.2
 40
0.2
 40
0.2
 40
0.4
 40
0.4
 40
0.4
 40
0.4
 40
0.6
 40
0.6
 40
0.6
 40
0.6
 40
1.0
 40
1.0
 40
1.0
 40
1.0
 10
90.0069
 20
-103.6972
 30
0.0
 10
92.3106
 20
-104.1139
 30
0.0
 10
94.5677
 20
-105.0532
 30
0.0
 10
96.2096
 20
-106.1642
 30
0.0
 10
96.2096
 20
-106.1642
 30
0.0
 10
96.2331
 20
-106.1642
 30
0.0
 10
96.2567
 20
-106.1642
 30
0.0
 10
96.2802
 20
-106.1642
 30
0.0
 10
96.2802
 20
-106.1642
 30
0.0
 10
96.0348
 20
-103.1543
 30
0.0
 10
93.9309
 20
-97.3532
 30
0.0
 10
91.3461
 20
-96.9305
 30
0.0
 10
91.3461
 20
-96.9305
 30
0.0
 10
90.4545
 20
-98.6941
 30
0.0
 10
90.0019
 20
-100.8053
 30
0.0
 10
90.0069
 20
-103.6972
 30
0.0
  0
SPLINE
  5
88
330
1F
100
AcDbEntity
  8
layer 1
 62
     7
100
AcDbSpline
210
0.0
220
0.0
230
1.0
 70
    11
 71
     3
 72
   124
 73
   120
 74
     0
 42
0.0000000001
 43
0.0000000001
 12
1.0
 22
0.0
 32
0.0
 13
1.0
 23
0.0
 33
0.0
 40
0.0
 40
0.0
 40
0.0
 40
0.0
 40
0.032258064516129
 40
0.032258064516129
 40
0.032258064516129
 40
0.032258064516129
 40
0.0645161290322581
 40
0.0645161290322581
 40
0.0645161290322581
 40
0.0645161290322581
 40
0.0967741935483871
 40
0.0967741935483871
 40
0.0967741935483871
 40
0.0967741935483871
 40
0.1290322580645161
 40
0.1290322580645161
 40
0.1290322580645161
 40
0.1290322580645161
 40
0.1612903225806452
 40
0.1612903225806452
 40
0.1612903225806452
 40
0.1612903225806452
 40
0.1935483870967742
 40
0.1935483870967742
 40
0.1935483870967742
 40
0.1935483870967742
 40
0.2258064516129032
 40
0.2258064516129032
 40
0.2258064516129032
 40
0.2258064516129032
 40
0.2580645161290323
 40
0.2580645161290323
 40
0.2580645161290323
 40
0.2580645161290323
 40
0.2903225806451613
 40
0.2903225806451613
 40
0.2903225806451613
 40
0.2903225806451613
 40
0.3225806451612903
 40
0.3225806451612903
 40
0.3225806451612903
 40
0.3225806451612903
 40
0.3548387096774194
 40
0.3548387096774194
 40
0.3548387096774194
 40
0.3548387096774194
 40
0.3870967741935484
 40
0.3870967741935484
 40
0.3870967741935484
 40
0.3870967741935484
 40
0.4193548387096774
 40
0.4193548387096774
 40
0.4193548387096774
 40
0.4193548387096774
 40
0.4516129032258064
 40
0.4516129032258064
 40
0.4516129032258064
 40
0.4516129032258064
 40
0.4838709677419355
 40
0.4838709677419355
 40
0.4838709677419355
 40
0.4838709677419355
 40
0.5161290322580645
 40
0.5161290322580645
 40
0.5161290322580645
 40
0.5161290322580645
 40
0.5483870967741935
 40
0.5483870967741935
 40
0.5483870967741935
 40
0.5483870967741935
 40
0.5806451612903226
 40
0.5806451612903226
 40
0.5806451612903226
 40
0.5806451612903226
 40
0.6129032258064516
 40
0.6129032258064516
 40
0.6129032258064516
 40
0.6129032258064516
 40
0.6451612903225806
 40
0.6451612903225806
 40
0.6451612903225806
 40
0.6451612903225806
 40
0.6774193548387096
 40
0.6774193548387096
 40
0.6774193548387096
 40
0.6774193548387096
 40
0.7096774193548387
 40
0.7096774193548387
 40
0.7096774193548387
 40
0.7096774193548387
 40
0.7419354838709677
 40
0.7419354838709677
 40
0.7419354838709677
 40
0.7419354838709677
 40
0.7741935483870968
 40
0.7741935483870968
 40
0.7741935483870968
 40
0.7741935483870968
 40
0.8064516129032258
 40
0.8064516129032258
 40
0.8064516129032258
 40
0.8064516129032258
 40
0.8387096774193549
 40
0.8387096774193549
 40
0.8387096774193549
 40
0.8387096774193549
 40
0.8709677419354839
 40
0.8709677419354839
 40
0.8709677419354839
 40
0.8709677419354839
 40
0.9032258064516129
 40
0.9032258064516129
 40
0.9032258064516129
 40
0.9032258064516129
 40
0.9354838709677419
 40
0.9354838709677419
 40
0.9354838709677419
 40
0.9354838709677419
 40
1.0
 40
1.0
 40
1.0
 40
1.0
 10
87.8923
 20
-47.026
 30
0.0
 10
88.6593
 20
-47.4138
 30
0.0
 10
89.0853
 20
-48.4674
 30
0.0
 10
89.5839
 20
-49.1406
 30
0.0
 10
89.5839
 20
-49.1406
 30
0.0
 10
91.408
 20
-51.6039
 30
0.0
 10
92.2152
 20
-54.7629
 30
0.0
 10
92.8264
 20
-58.5155
 30
0.0
 10
92.8264
 20
-58.5155
 30
0.0
 10
92.8264
 20
-61.2172
 30
0.0
 10
92.8264
 20
-63.9196
 30
0.0
 10
92.8264
 20
-66.6213
 30
0.0
 10
92.8264
 20
-66.6213
 30
0.0
 10
93.2381
 20
-69.2429
 30
0.0
 10
93.5478
 20
-71.5135
 30
0.0
 10
94.3771
 20
-73.5291
 30
0.0
 10
94.3771
 20
-73.5291
 30
0.0
 10
94.7599
 20
-74.4594
 30
0.0
 10
95.0405
 20
-75.6315
 30
0.0
 10
95.7163
 20
-76.278
 30
0.0
 10
95.7163
 20
-76.278
 30
0.0
 10
95.7398
 20
-76.278
 30
0.0
 10
95.7633
 20
-76.278
 30
0.0
 10
95.7868
 20
-76.278
 30
0.0
 10
95.7868
 20
-76.278
 30
0.0
 10
98.0251
 20
-71.0441
 30
0.0
 10
98.9537
 20
-65.6818
 30
0.0
 10
97.0556
 20
-59.3613
 30
0.0
 10
97.0556
 20
-59.3613
 30
0.0
 10
96.4892
 20
-57.4754
 30
0.0
 10
95.8506
 20
-55.6297
 30
0.0
 10
95.0114
 20
-53.9338
 30
0.0
 10
95.0114
 20
-53.9338
 30
0.0
 10
94.6033
 20
-53.1086
 30
0.0
 10
93.935
 20
-52.2661
 30
0.0
 10
93.7428
 20
-51.2553
 30
0.0
 10
93.7428
 20
-51.2553
 30
0.0
 10
93.6149
 20
-50.5843
 30
0.0
 10
94.0017
 20
-50.4366
 30
0.0
 10
94.2361
 20
-50.1276
 30
0.0
 10
94.2361
 20
-50.1276
 30
0.0
 10
96.0782
 20
-49.9342
 30
0.0
 10
97.9066
 20
-53.234
 30
0.0
 10
98.7472
 20
-54.4977
 30
0.0
 10
98.7472
 20
-54.4977
 30
0.0
 10
101.6209
 20
-58.8185
 30
0.0
 10
103.335
 20
-66.0171
 30
0.0
 10
101.7077
 20
-72.8946
 30
0.0
 10
101.7077
 20
-72.8946
 30
0.0
 10
100.9794
 20
-75.4085
 30
0.0
 10
100.2509
 20
-77.9229
 30
0.0
 10
99.5225
 20
-80.4366
 30
0.0
 10
99.5225
 20
-80.4366
 30
0.0
 10
100.9775
 20
-80.7428
 30
0.0
 10
101.5168
 20
-81.8774
 30
0.0
 10
102.5535
 20
-82.5512
 30
0.0
 10
102.5535
 20
-82.5512
 30
0.0
 10
102.5535
 20
-82.5042
 30
0.0
 10
102.5535
 20
-82.4574
 30
0.0
 10
102.5535
 20
-82.4103
 30
0.0
 10
102.5535
 20
-82.4103
 30
0.0
 10
103.4463
 20
-77.9466
 30
0.0
 10
104.3392
 20
-73.4817
 30
0.0
 10
105.232
 20
-69.018
 30
0.0
 10
105.232
 20
-69.018
 30
0.0
 10
105.6835
 20
-67.7229
 30
0.0
 10
106.8936
 20
-64.5027
 30
0.0
 10
106.5712
 20
-62.8856
 30
0.0
 10
106.5712
 20
-62.8856
 30
0.0
 10
105.7489
 20
-60.1369
 30
0.0
 10
104.9264
 20
-57.3874
 30
0.0
 10
104.1041
 20
-54.6387
 30
0.0
 10
104.1041
 20
-54.6387
 30
0.0
 10
103.1222
 20
-51.514
 30
0.0
 10
103.43
 20
-47.4392
 30
0.0
 10
102.9059
 20
-44.0656
 30
0.0
 10
102.9059
 20
-44.0656
 30
0.0
 10
102.5824
 20
-41.9824
 30
0.0
 10
102.8249
 20
-39.5674
 30
0.0
 10
103.1174
 20
-37.7923
 30
0.0
 10
103.1174
 20
-37.7923
 30
0.0
 10
103.2113
 20
-35.819
 30
0.0
 10
103.3054
 20
-33.845
 30
0.0
 10
103.3993
 20
-31.8715
 30
0.0
 10
103.3993
 20
-31.8715
 30
0.0
 10
103.7517
 20
-29.7571
 30
0.0
 10
104.1041
 20
-27.6421
 30
0.0
 10
104.4566
 20
-25.5277
 30
0.0
 10
104.4566
 20
-25.5277
 30
0.0
 10
102.9994
 20
-24.3208
 30
0.0
 10
100.7793
 20
-19.7122
 30
0.0
 10
100.5094
 20
-17.3513
 30
0.0
 10
100.5094
 20
-17.3513
 30
0.0
 10
100.4624
 20
-17.3748
 30
0.0
 10
100.4153
 20
-17.3983
 30
0.0
 10
100.3685
 20
-17.4218
 30
0.0
 10
100.3685
 20
-17.4218
 30
0.0
 10
99.8216
 20
-19.0792
 30
0.0
 10
98.9524
 20
-20.7403
 30
0.0
 10
98.4652
 20
-22.4969
 30
0.0
 10
98.4652
 20
-22.4969
 30
0.0
 10
98.0528
 20
-23.9838
 30
0.0
 10
98.0844
 20
-25.2975
 30
0.0
 10
97.7603
 20
-26.9374
 30
0.0
 10
97.7603
 20
-26.9374
 30
0.0
 10
97.0404
 20
-30.5813
 30
0.0
 10
96.1039
 20
-34.1603
 30
0.0
 10
94.7295
 20
-37.2284
 30
0.0
 10
94.7295
 20
-37.2284
 30
0.0
 10
93.7218
 20
-39.4782
 30
0.0
 10
92.495
 20
-41.969
 30
0.0
 10
90.9233
 20
-43.7132
 30
0.0
 10
90.9233
 20
-43.7132
 30
0.0
 10
89.9486
 20
-44.7949
 30
0.0
 10
88.7543
 20
-45.6064
 30
0.0
 10
87.8923
 20
-46.8147
 30
0.0
 10
87.8923
 20
-46.8147
 30
0.0
 10
87.8923
 20
-46.8851
 30
0.0
 10
87.8923
 20
-46.9557
 30
0.0
 10
87.8923
 20
-47.026
 30
0.0
  0
SPLINE
  5
89
330
1F
100
AcDbEntity
  8
layer 1
 62
     7
100
AcDbSpline
210
0.0
220
0.0
230
1.0
 70
    11
 71
     3
 72
   196
 73
   192
 74
     0
 42
0.0000000001
 43
0.0000000001
 12
1.0
 22
0.0
 32
0.0
 13
1.0
 23
0.0
 33
0.0
 40
0.0
 40
0.0
 40
0.0
 40
0.0
 40
0.0204081632653061
 40
0.0204081632653061
 40
0.0204081632653061
 40
0.0204081632653061
 40
0.0408163265306122
 40
0.0408163265306122
 40
0.0408163265306122
 40
0.0408163265306122
 40
0.0612244897959184
 40
0.0612244897959184
 40
0.0612244897959184
 40
0.0612244897959184
 40
0.0816326530612245
 40
0.0816326530612245
 40
0.0816326530612245
 40
0.0816326530612245
 40
0.1020408163265306
 40
0.1020408163265306
 40
0.1020408163265306
 40
0.1020408163265306
 40
0.1224489795918367
 40
0.1224489795918367
 40
0.1224489795918367
 40
0.1224489795918367
 40
0.1428571428571428
 40
0.1428571428571428
 40
0.1428571428571428
 40
0.1428571428571428
 40
0.163265306122449
 40
0.163265306122449
 40
0.163265306122449
 40
0.163265306122449
 40
0.1836734693877551
 40
0.1836734693877551
 40
0.1836734693877551
 40
0.1836734693877551
 40
0.2040816326530612
 40
0.2040816326530612
 40
0.2040816326530612
 40
0.2040816326530612
 40
0.2244897959183673
 40
0.2244897959183673
 40
0.2244897959183673
 40
0.2244897959183673
 40
0.2448979591836735
 40
0.2448979591836735
 40
0.2448979591836735
 40
0.2448979591836735
 40
0.2653061224489796
 40
0.2653061224489796
 40
0.2653061224489796
 40
0.2653061224489796
 40
0.2857142857142857
 40
0.2857142857142857
 40
0.2857142857142857
 40
0.2857142857142857
 40
0.3061224489795918
 40
0.3061224489795918
 40
0.3061224489795918
 40
0.3061224489795918
 40
0.3265306122448979
 40
0.3265306122448979
 40
0.3265306122448979
 40
0.3265306122448979
 40
0.3469387755102041
 40
0.3469387755102041
 40
0.3469387755102041
 40
0.3469387755102041
 40
0.3673469387755102
 40
0.3673469387755102
 40
0.3673469387755102
 40
0.3673469387755102
 40
0.3877551020408163
 40
0.3877551020408163
 40
0.3877551020408163
 40
0.3877551020408163
 40
0.4081632653061225
 40
0.4081632653061225
 40
0.4081632653061225
 40
0.4081632653061225
 40
0.4285714285714285
 40
0.4285714285714285
 40
0.4285714285714285
 40
0.4285714285714285
 40
0.4489795918367347
 40
0.4489795918367347
 40
0.4489795918367347
 40
0.4489795918367347
 40
0.4693877551020408
 40
0.4693877551020408
 40
0.4693877551020408
 40
0.4693877551020408
 40
0.4897959183673469
 40
0.4897959183673469
 40
0.4897959183673469
 40
0.4897959183673469
 40
0.5102040816326531
 40
0.5102040816326531
 40
0.5102040816326531
 40
0.5102040816326531
 40
0.5306122448979592
 40
0.5306122448979592
 40
0.5306122448979592
 40
0.5306122448979592
 40
0.5510204081632653
 40
0.5510204081632653
 40
0.5510204081632653
 40
0.5510204081632653
 40
0.5714285714285714
 40
0.5714285714285714
 40
0.5714285714285714
 40
0.5714285714285714
 40
0.5918367346938775
 40
0.5918367346938775
 40
0.5918367346938775
 40
0.5918367346938775
 40
0.6122448979591837
 40
0.6122448979591837
 40
0.6122448979591837
 40
0.6122448979591837
 40
0.6326530612244898
 40
0.6326530612244898
 40
0.6326530612244898
 40
0.6326530612244898
 40
0.6530612244897959
 40
0.6530612244897959
 40
0.6530612244897959
 40
0.6530612244897959
 40
0.673469387755102
 40
0.673469387755102
 40
0.673469387755102
 40
0.673469387755102
 40
0.6938775510204082
 40
0.6938775510204082
 40
0.6938775510204082
 40
0.6938775510204082
 40
0.7142857142857143
 40
0.7142857142857143
 40
0.7142857142857143
 40
0.7142857142857143
 40
0.7346938775510204
 40
0.7346938775510204
 40
0.7346938775510204
 40
0.7346938775510204
 40
0.7551020408163265
 40
0.7551020408163265
 40
0.7551020408163265
 40
0.7551020408163265
 40
0.7755102040816326
 40
0.7755102040816326
 40
0.7755102040816326
 40
0.7755102040816326
 40
0.7959183673469388
 40
0.7959183673469388
 40
0.7959183673469388
 40
0.7959183673469388
 40
0.8163265306122449
 40
0.8163265306122449
 40
0.8163265306122449
 40
0.8163265306122449
 40
0.8367346938775511
 40
0.8367346938775511
 40
0.8367346938775511
 40
0.8367346938775511
 40
0.8571428571428571
 40
0.8571428571428571
 40
0.8571428571428571
 40
0.8571428571428571
 40
0.8775510204081632
 40
0.8775510204081632
 40
0.8775510204081632
 40
0.8775510204081632
 40
0.8979591836734694
 40
0.8979591836734694
 40
0.8979591836734694
 40
0.8979591836734694
 40
0.9183673469387755
 40
0.9183673469387755
 40
0.9183673469387755
 40
0.9183673469387755
 40
0.9387755102040817
 40
0.9387755102040817
 40
0.9387755102040817
 40
0.9387755102040817
 40
0.9591836734693877
 40
0.9591836734693877
 40
0.9591836734693877
 40
0.9591836734693877
 40
1.0
 40
1.0
 40
1.0
 40
1.0
 10
107.0646
 20
88.3078
 30
0.0
 10
103.4226
 20
88.197
 30
0.0
 10
100.3862
 20
86.0151
 30
0.0
 10
98.1833
 20
84.2901
 30
0.0
 10
98.1833
 20
84.2901
 30
0.0
 10
93.0663
 20
80.2833
 30
0.0
 10
89.2861
 20
75.8327
 30
0.0
 10
87.0465
 20
68.9241
 30
0.0
 10
87.0465
 20
68.9241
 30
0.0
 10
86.5359
 20
67.3491
 30
0.0
 10
86.3538
 20
65.5069
 30
0.0
 10
85.9186
 20
63.99
 30
0.0
 10
85.9186
 20
63.99
 30
0.0
 10
85.2069
 20
61.5084
 30
0.0
 10
84.3006
 20
52.5557
 30
0.0
 10
85.5662
 20
50.0337
 30
0.0
 10
85.5662
 20
50.0337
 30
0.0
 10
87.8221
 20
49.5443
 30
0.0
 10
90.3798
 20
47.5765
 30
0.0
 10
91.6985
 20
46.0159
 30
0.0
 10
91.6985
 20
46.0159
 30
0.0
 10
92.2389
 20
45.2407
 30
0.0
 10
92.7794
 20
44.4651
 30
0.0
 10
93.3198
 20
43.6898
 30
0.0
 10
93.3198
 20
43.6898
 30
0.0
 10
93.4842
 20
45.029
 30
0.0
 10
93.6487
 20
46.3686
 30
0.0
 10
93.8131
 20
47.7076
 30
0.0
 10
93.8131
 20
47.7076
 30
0.0
 10
94.7776
 20
53.1614
 30
0.0
 10
93.7749
 20
59.5092
 30
0.0
 10
91.1346
 20
62.5802
 30
0.0
 10
91.1346
 20
62.5802
 30
0.0
 10
90.3753
 20
63.4636
 30
0.0
 10
89.6098
 20
64.6564
 30
0.0
 10
88.3857
 20
65.0473
 30
0.0
 10
88.3857
 20
65.0473
 30
0.0
 10
88.4092
 20
65.1647
 30
0.0
 10
88.4327
 20
65.2823
 30
0.0
 10
88.4562
 20
65.3997
 30
0.0
 10
88.4562
 20
65.3997
 30
0.0
 10
92.6702
 20
66.3125
 30
0.0
 10
95.3706
 20
64.8394
 30
0.0
 10
97.3375
 20
62.4393
 30
0.0
 10
97.3375
 20
62.4393
 30
0.0
 10
97.7603
 20
61.8755
 30
0.0
 10
98.1833
 20
61.3114
 30
0.0
 10
98.6063
 20
60.7477
 30
0.0
 10
98.6063
 20
60.7477
 30
0.0
 10
98.5129
 20
65.9035
 30
0.0
 10
101.6156
 20
68.8765
 30
0.0
 10
106.6417
 20
68.3601
 30
0.0
 10
106.6417
 20
68.3601
 30
0.0
 10
107.0689
 20
64.1451
 30
0.0
 10
107.1463
 20
59.1428
 30
0.0
 10
104.3862
 20
57.3643
 30
0.0
 10
104.3862
 20
57.3643
 30
0.0
 10
103.6241
 20
56.8732
 30
0.0
 10
102.6772
 20
57.0292
 30
0.0
 10
101.7077
 20
56.6594
 30
0.0
 10
101.7077
 20
56.6594
 30
0.0
 10
101.7547
 20
56.6594
 30
0.0
 10
101.8016
 20
56.6594
 30
0.0
 10
101.8486
 20
56.6594
 30
0.0
 10
101.8486
 20
56.6594
 30
0.0
 10
103.3264
 20
55.7615
 30
0.0
 10
104.5275
 20
54.8326
 30
0.0
 10
105.8663
 20
53.699
 30
0.0
 10
105.8663
 20
53.699
 30
0.0
 10
105.8898
 20
53.699
 30
0.0
 10
105.9134
 20
53.699
 30
0.0
 10
105.9369
 20
53.699
 30
0.0
 10
105.9369
 20
53.699
 30
0.0
 10
106.4811
 20
55.7712
 30
0.0
 10
107.6913
 20
57.6806
 30
0.0
 10
109.7431
 20
58.351
 30
0.0
 10
109.7431
 20
58.351
 30
0.0
 10
109.7901
 20
58.3277
 30
0.0
 10
109.837
 20
58.3041
 30
0.0
 10
109.884
 20
58.2806
 30
0.0
 10
109.884
 20
58.2806
 30
0.0
 10
109.4716
 20
55.1943
 30
0.0
 10
108.4633
 20
52.3666
 30
0.0
 10
108.2628
 20
48.9764
 30
0.0
 10
108.2628
 20
48.9764
 30
0.0
 10
108.2071
 20
48.0334
 30
0.0
 10
107.6245
 20
46.2195
 30
0.0
 10
108.0515
 20
45.5226
 30
0.0
 10
108.0515
 20
45.5226
 30
0.0
 10
107.8499
 20
45.0148
 30
0.0
 10
107.7506
 20
43.3677
 30
0.0
 10
107.9104
 20
42.844
 30
0.0
 10
107.9104
 20
42.844
 30
0.0
 10
107.9809
 20
42.8911
 30
0.0
 10
108.0515
 20
42.9381
 30
0.0
 10
108.1219
 20
42.985
 30
0.0
 10
108.1219
 20
42.985
 30
0.0
 10
108.9677
 20
44.1362
 30
0.0
 10
109.8137
 20
45.2877
 30
0.0
 10
110.6595
 20
46.4389
 30
0.0
 10
110.6595
 20
46.4389
 30
0.0
 10
112.5168
 20
49.3243
 30
0.0
 10
115.4706
 20
55.4884
 30
0.0
 10
114.2542
 20
60.3952
 30
0.0
 10
114.2542
 20
60.3952
 30
0.0
 10
113.8854
 20
61.8833
 30
0.0
 10
113.3698
 20
63.6655
 30
0.0
 10
112.633
 20
64.9063
 30
0.0
 10
112.633
 20
64.9063
 30
0.0
 10
111.6807
 20
66.5102
 30
0.0
 10
110.5333
 20
67.5838
 30
0.0
 10
109.8137
 20
69.5584
 30
0.0
 10
109.8137
 20
69.5584
 30
0.0
 10
109.9546
 20
69.7463
 30
0.0
 10
110.0955
 20
69.9343
 30
0.0
 10
110.2365
 20
70.1223
 30
0.0
 10
110.2365
 20
70.1223
 30
0.0
 10
112.2286
 20
70.6516
 30
0.0
 10
112.7536
 20
68.8811
 30
0.0
 10
114.9591
 20
69.347
 30
0.0
 10
114.9591
 20
69.347
 30
0.0
 10
117.1252
 20
69.8045
 30
0.0
 10
118.819
 20
71.5918
 30
0.0
 10
120.316
 20
72.8008
 30
0.0
 10
120.316
 20
72.8008
 30
0.0
 10
120.6763
 20
73.0917
 30
0.0
 10
121.9679
 20
74.0287
 30
0.0
 10
121.6553
 20
74.8449
 30
0.0
 10
121.6553
 20
74.8449
 30
0.0
 10
121.4205
 20
75.4582
 30
0.0
 10
119.8621
 20
75.1331
 30
0.0
 10
119.3998
 20
75.5498
 30
0.0
 10
119.3998
 20
75.5498
 30
0.0
 10
119.9508
 20
76.2564
 30
0.0
 10
120.809
 20
76.8471
 30
0.0
 10
121.7257
 20
77.171
 30
0.0
 10
121.7257
 20
77.171
 30
0.0
 10
122.3983
 20
77.4085
 30
0.0
 10
123.7326
 20
77.42
 30
0.0
 10
124.1224
 20
77.9463
 30
0.0
 10
124.1224
 20
77.9463
 30
0.0
 10
124.2868
 20
78.4867
 30
0.0
 10
124.4513
 20
79.0271
 30
0.0
 10
124.6158
 20
79.5675
 30
0.0
 10
124.6158
 20
79.5675
 30
0.0
 10
124.5452
 20
79.6145
 30
0.0
 10
124.4748
 20
79.6614
 30
0.0
 10
124.4043
 20
79.7084
 30
0.0
 10
124.4043
 20
79.7084
 30
0.0
 10
124.3104
 20
79.6145
 30
0.0
 10
124.2163
 20
79.5205
 30
0.0
 10
124.1224
 20
79.4266
 30
0.0
 10
124.1224
 20
79.4266
 30
0.0
 10
123.1827
 20
78.8626
 30
0.0
 10
122.2426
 20
78.2987
 30
0.0
 10
121.3029
 20
77.7348
 30
0.0
 10
121.3029
 20
77.7348
 30
0.0
 10
118.3208
 20
76.3941
 30
0.0
 10
115.4664
 20
75.8772
 30
0.0
 10
111.2938
 20
76.2546
 30
0.0
 10
111.2938
 20
76.2546
 30
0.0
 10
109.4632
 20
76.4202
 30
0.0
 10
108.0635
 20
75.9512
 30
0.0
 10
106.6417
 20
76.6071
 30
0.0
 10
106.6417
 20
76.6071
 30
0.0
 10
105.5726
 20
77.1003
 30
0.0
 10
104.5905
 20
78.3534
 30
0.0
 10
104.1747
 20
79.4969
 30
0.0
 10
104.1747
 20
79.4969
 30
0.0
 10
103.9456
 20
80.1268
 30
0.0
 10
104.1366
 20
80.6971
 30
0.0
 10
103.7517
 20
81.1182
 30
0.0
 10
103.7517
 20
81.1182
 30
0.0
 10
103.0643
 20
80.7713
 30
0.0
 10
102.5797
 20
80.2781
 30
0.0
 10
101.7077
 20
80.2018
 30
0.0
 10
101.7077
 20
80.2018
 30
0.0
 10
101.6371
 20
80.3194
 30
0.0
 10
101.5667
 20
80.4368
 30
0.0
 10
101.4962
 20
80.5542
 30
0.0
 10
101.4962
 20
80.5542
 30
0.0
 10
101.6619
 20
83.0698
 30
0.0
 10
101.6669
 20
84.3714
 30
0.0
 10
104.3156
 20
85.0655
 30
0.0
 10
104.3156
 20
85.0655
 30
0.0
 10
104.9029
 20
85.1124
 30
0.0
 10
105.4905
 20
85.1594
 30
0.0
 10
106.0778
 20
85.2065
 30
0.0
 10
106.0778
 20
85.2065
 30
0.0
 10
106.3076
 20
86.2356
 30
0.0
 10
106.9486
 20
87.0439
 30
0.0
 10
107.0646
 20
88.3078
 30
0.0
  0
SPLINE
  5
8A
330
1F
100
AcDbEntity
  8
layer 1
 62
     7
100
AcDbSpline
210
0.0
220
0.0
230
1.0
 70
    11
 71
     3
 72
    36
 73
    32
 74
     0
 42
0.0000000001
 43
0.0000000001
 12
1.0
 22
0.0
 32
0.0
 13
1.0
 23
0.0
 33
0.0
 40
0.0
 40
0.0
 40
0.0
 40
0.0
 40
0.1111111111111111
 40
0.1111111111111111
 40
0.1111111111111111
 40
0.1111111111111111
 40
0.2222222222222222
 40
0.2222222222222222
 40
0.2222222222222222
 40
0.2222222222222222
 40
0.3333333333333333
 40
0.3333333333333333
 40
0.3333333333333333
 40
0.3333333333333333
 40
0.4444444444444444
 40
0.4444444444444444
 40
0.4444444444444444
 40
0.4444444444444444
 40
0.5555555555555556
 40
0.5555555555555556
 40
0.5555555555555556
 40
0.5555555555555556
 40
0.6666666666666666
 40
0.6666666666666666
 40
0.6666666666666666
 40
0.6666666666666666
 40
0.7777777777777778
 40
0.7777777777777778
 40
0.7777777777777778
 40
0.7777777777777778
 40
1.0
 40
1.0
 40
1.0
 40
1.0
 10
84.4385
 20
95.0041
 30
0.0
 10
87.0399
 20
92.3984
 30
0.0
 10
87.0991
 20
86.6074
 30
0.0
 10
87.0465
 20
81.823
 30
0.0
 10
87.0465
 20
81.823
 30
0.0
 10
88.0332
 20
82.8802
 30
0.0
 10
89.0202
 20
83.9378
 30
0.0
 10
90.0069
 20
84.995
 30
0.0
 10
90.0069
 20
84.995
 30
0.0
 10
91.8242
 20
86.6356
 30
0.0
 10
94.0273
 20
88.3083
 30
0.0
 10
95.7868
 20
89.5766
 30
0.0
 10
95.7868
 20
89.5766
 30
0.0
 10
97.4079
 20
90.4458
 30
0.0
 10
99.0293
 20
91.3153
 30
0.0
 10
100.6503
 20
92.1846
 30
0.0
 10
100.6503
 20
92.1846
 30
0.0
 10
101.4021
 20
92.49
 30
0.0
 10
102.1542
 20
92.7954
 30
0.0
 10
102.9059
 20
93.101
 30
0.0
 10
102.9059
 20
93.101
 30
0.0
 10
101.6664
 20
95.4599
 30
0.0
 10
97.6725
 20
98.1286
 30
0.0
 10
93.5313
 20
97.1891
 30
0.0
 10
93.5313
 20
97.1891
 30
0.0
 10
91.9337
 20
96.5548
 30
0.0
 10
90.3357
 20
95.9203
 30
0.0
 10
88.7381
 20
95.286
 30
0.0
 10
88.7381
 20
95.286
 30
0.0
 10
88.2315
 20
95.1441
 30
0.0
 10
84.7103
 20
95.2946
 30
0.0
 10
84.4385
 20
95.0041
 30
0.0
  0
SPLINE
  5
8B
330
1F
100
AcDbEntity
  8
layer 1
 62
     7
100
AcDbSpline
210
0.0
220
0.0
230
1.0
 70
    11
 71
     3
 72
    48
 73
    44
 74
     0
 42
0.0000000001
 43
0.0000000001
 12
1.0
 22
0.0
 32
0.0
 13
1.0
 23
0.0
 33
0.0
 40
0.0
 40
0.0
 40
0.0
 40
0.0
 40
0.0833333333333333
 40
0.0833333333333333
 40
0.0833333333333333
 40
0.0833333333333333
 40
0.1666666666666667
 40
0.1666666666666667
 40
0.1666666666666667
 40
0.1666666666666667
 40
0.25
 40
0.25
 40
0.25
 40
0.25
 40
0.3333333333333333
 40
0.3333333333333333
 40
0.3333333333333333
 40
0.3333333333333333
 40
0.4166666666666667
 40
0.4166666666666667
 40
0.4166666666666667
 40
0.4166666666666667
 40
0.5
 40
0.5
 40
0.5
 40
0.5
 40
0.5833333333333334
 40
0.5833333333333334
 40
0.5833333333333334
 40
0.5833333333333334
 40
0.6666666666666666
 40
0.6666666666666666
 40
0.6666666666666666
 40
0.6666666666666666
 40
0.75
 40
0.75
 40
0.75
 40
0.75
 40
0.8333333333333334
 40
0.8333333333333334
 40
0.8333333333333334
 40
0.8333333333333334
 40
1.0
 40
1.0
 40
1.0
 40
1.0
 10
84.2976
 20
38.5444
 30
0.0
 10
85.2656
 20
37.4864
 30
0.0
 10
85.601
 20
35.9436
 30
0.0
 10
86.6235
 20
34.9495
 30
0.0
 10
86.6235
 20
34.9495
 30
0.0
 10
88.0566
 20
33.9394
 30
0.0
 10
89.4902
 20
32.9288
 30
0.0
 10
90.9233
 20
31.9187
 30
0.0
 10
90.9233
 20
31.9187
 30
0.0
 10
92.358
 20
30.8146
 30
0.0
 10
93.3311
 20
29.4745
 30
0.0
 10
94.4476
 20
28.0419
 30
0.0
 10
94.4476
 20
28.0419
 30
0.0
 10
94.471
 20
28.0419
 30
0.0
 10
94.4945
 20
28.0419
 30
0.0
 10
94.518
 20
28.0419
 30
0.0
 10
94.518
 20
28.0419
 30
0.0
 10
94.518
 20
28.1123
 30
0.0
 10
94.518
 20
28.1829
 30
0.0
 10
94.518
 20
28.2534
 30
0.0
 10
94.518
 20
28.2534
 30
0.0
 10
94.9927
 20
30.2662
 30
0.0
 10
93.9047
 20
33.3112
 30
0.0
 10
93.3198
 20
34.8086
 30
0.0
 10
93.3198
 20
34.8086
 30
0.0
 10
91.9217
 20
38.3877
 30
0.0
 10
90.5105
 20
41.5126
 30
0.0
 10
88.3857
 20
44.3243
 30
0.0
 10
88.3857
 20
44.3243
 30
0.0
 10
87.493
 20
45.1935
 30
0.0
 10
86.6
 20
46.063
 30
0.0
 10
85.7071
 20
46.9323
 30
0.0
 10
85.7071
 20
46.9323
 30
0.0
 10
85.6368
 20
46.8853
 30
0.0
 10
85.5662
 20
46.8382
 30
0.0
 10
85.4958
 20
46.7914
 30
0.0
 10
85.4958
 20
46.7914
 30
0.0
 10
85.4723
 20
45.6872
 30
0.0
 10
85.4488
 20
44.5827
 30
0.0
 10
85.4253
 20
43.4783
 30
0.0
 10
85.4253
 20
43.4783
 30
0.0
 10
85.0493
 20
41.8339
 30
0.0
 10
84.6733
 20
40.1888
 30
0.0
 10
84.2976
 20
38.5444
 30
0.0
  0
SPLINE
  5
8C
330
1F
100
AcDbEntity
  8
layer 1
 62
     7
100
AcDbSpline
210
0.0
220
0.0
230
1.0
 70
    11
 71
     3
 72
    64
 73
    60
 74
     0
 42
0.0000000001
 43
0.0000000001
 12
1.0
 22
0.0
 32
0.0
 13
1.0
 23
0.0
 33
0.0
 40
0.0
 40
0.0
 40
0.0
 40
0.0
 40
0.0625
 40
0.0625
 40
0.0625
 40
0.0625
 40
0.125
 40
0.125
 40
0.125
 40
0.125
 40
0.1875
 40
0.1875
 40
0.1875
 40
0.1875
 40
0.25
 40
0.25
 40
0.25
 40
0.25
 40
0.3125
 40
0.3125
 40
0.3125
 40
0.3125
 40
0.375
 40
0.375
 40
0.375
 40
0.375
 40
0.4375
 40
0.4375
 40
0.4375
 40
0.4375
 40
0.5
 40
0.5
 40
0.5
 40
0.5
 40
0.5625
 40
0.5625
 40
0.5625
 40
0.5625
 40
0.625
 40
0.625
 40
0.625
 40
0.625
 40
0.6875
 40
0.6875
 40
0.6875
 40
0.6875
 40
0.75
 40
0.75
 40
0.75
 40
0.75
 40
0.8125
 40
0.8125
 40
0.8125
 40
0.8125
 40
0.875
 40
0.875
 40
0.875
 40
0.875
 40
1.0
 40
1.0
 40
1.0
 40
1.0
 10
89.5839
 20
-70.0751
 30
0.0
 10
89.4678
 20
-72.5946
 30
0.0
 10
88.6261
 20
-76.4904
 30
0.0
 10
90.3593
 20
-78.1811
 30
0.0
 10
90.3593
 20
-78.1811
 30
0.0
 10
91.2533
 20
-77.6502
 30
0.0
 10
92.5903
 20
-78.0692
 30
0.0
 10
93.7428
 20
-77.6172
 30
0.0
 10
93.7428
 20
-77.6172
 30
0.0
 10
90.9858
 20
-76.0491
 30
0.0
 10
90.7588
 20
-71.5934
 30
0.0
 10
89.7954
 20
-68.3835
 30
0.0
 10
89.7954
 20
-68.3835
 30
0.0
 10
89.7954
 20
-66.3631
 30
0.0
 10
89.7954
 20
-64.342
 30
0.0
 10
89.7954
 20
-62.3217
 30
0.0
 10
89.7954
 20
-62.3217
 30
0.0
 10
89.866
 20
-60.5597
 30
0.0
 10
89.9364
 20
-58.7972
 30
0.0
 10
90.0069
 20
-57.0352
 30
0.0
 10
90.0069
 20
-57.0352
 30
0.0
 10
89.4432
 20
-56.3773
 30
0.0
 10
88.879
 20
-55.7193
 30
0.0
 10
88.3153
 20
-55.0615
 30
0.0
 10
88.3153
 20
-55.0615
 30
0.0
 10
87.2034
 20
-53.5851
 30
0.0
 10
86.0522
 20
-51.5876
 30
0.0
 10
85.4253
 20
-49.9161
 30
0.0
 10
85.4253
 20
-49.9161
 30
0.0
 10
85.3078
 20
-50.01
 30
0.0
 10
85.1902
 20
-50.1041
 30
0.0
 10
85.0728
 20
-50.198
 30
0.0
 10
85.0728
 20
-50.198
 30
0.0
 10
84.5794
 20
-51.0673
 30
0.0
 10
84.0861
 20
-51.9368
 30
0.0
 10
83.5927
 20
-52.8059
 30
0.0
 10
83.5927
 20
-52.8059
 30
0.0
 10
83.0288
 20
-54.8265
 30
0.0
 10
82.4648
 20
-56.8474
 30
0.0
 10
81.9009
 20
-58.8679
 30
0.0
 10
81.9009
 20
-58.8679
 30
0.0
 10
81.0178
 20
-61.7403
 30
0.0
 10
81.2522
 20
-65.3923
 30
0.0
 10
80.9847
 20
-68.595
 30
0.0
 10
80.9847
 20
-68.595
 30
0.0
 10
80.945
 20
-69.0693
 30
0.0
 10
81.1775
 20
-69.8844
 30
0.0
 10
81.1257
 20
-70.2162
 30
0.0
 10
81.1257
 20
-70.2162
 30
0.0
 10
80.8036
 20
-72.2728
 30
0.0
 10
80.7879
 20
-74.8352
 30
0.0
 10
81.196
 20
-76.701
 30
0.0
 10
81.196
 20
-76.701
 30
0.0
 10
82.7701
 20
-76.7478
 30
0.0
 10
84.3446
 20
-76.7949
 30
0.0
 10
85.9186
 20
-76.8419
 30
0.0
 10
85.9186
 20
-76.8419
 30
0.0
 10
85.9475
 20
-73.6779
 30
0.0
 10
86.1793
 20
-70.0045
 30
0.0
 10
89.5839
 20
-70.0751
 30
0.0
  0
SPLINE
  5
8D
330
1F
100
AcDbEntity
  8
layer 1
 62
     7
100
AcDbSpline
210
0.0
220
0.0
230
1.0
 70
    11
 71
     3
 72
    64
 73
    60
 74
     0
 42
0.0000000001
 43
0.0000000001
 12
1.0
 22
0.0
 32
0.0
 13
1.0
 23
0.0
 33
0.0
 40
0.0
 40
0.0
 40
0.0
 40
0.0
 40
0.0625
 40
0.0625
 40
0.0625
 40
0.0625
 40
0.125
 40
0.125
 40
0.125
 40
0.125
 40
0.1875
 40
0.1875
 40
0.1875
 40
0.1875
 40
0.25
 40
0.25
 40
0.25
 40
0.25
 40
0.3125
 40
0.3125
 40
0.3125
 40
0.3125
 40
0.375
 40
0.375
 40
0.375
 40
0.375
 40
0.4375
 40
0.4375
 40
0.4375
 40
0.4375
 40
0.5
 40
0.5
 40
0.5
 40
0.5
 40
0.5625
 40
0.5625
 40
0.5625
 40
0.5625
 40
0.625
 40
0.625
 40
0.625
 40
0.625
 40
0.6875
 40
0.6875
 40
0.6875
 40
0.6875
 40
0.75
 40
0.75
 40
0.75
 40
0.75
 40
0.8125
 40
0.8125
 40
0.8125
 40
0.8125
 40
0.875
 40
0.875
 40
0.875
 40
0.875
 40
1.0
 40
1.0
 40
1.0
 40
1.0
 10
79.2929
 20
108.1849
 30
0.0
 10
79.5279
 20
106.6815
 30
0.0
 10
79.763
 20
105.1775
 30
0.0
 10
79.9978
 20
103.6738
 30
0.0
 10
79.9978
 20
103.6738
 30
0.0
 10
80.5953
 20
101.7777
 30
0.0
 10
82.1081
 20
99.7924
 30
0.0
 10
82.5354
 20
98.176
 30
0.0
 10
82.5354
 20
98.176
 30
0.0
 10
87.9898
 20
98.0941
 30
0.0
 10
91.4086
 20
100.3617
 30
0.0
 10
93.7428
 20
104.0263
 30
0.0
 10
93.7428
 20
104.0263
 30
0.0
 10
94.924
 20
105.8811
 30
0.0
 10
95.6225
 20
109.1546
 30
0.0
 10
94.3771
 20
111.4274
 30
0.0
 10
94.3771
 20
111.4274
 30
0.0
 10
93.5578
 20
112.9223
 30
0.0
 10
91.78
 20
114.1316
 30
0.0
 10
90.0069
 20
114.6697
 30
0.0
 10
90.0069
 20
114.6697
 30
0.0
 10
89.2821
 20
114.8896
 30
0.0
 10
87.6038
 20
114.6069
 30
0.0
 10
87.1169
 20
114.9518
 30
0.0
 10
87.1169
 20
114.9518
 30
0.0
 10
89.2579
 20
118.3002
 30
0.0
 10
91.1199
 20
116.6161
 30
0.0
 10
95.1525
 20
116.4319
 30
0.0
 10
95.1525
 20
116.4319
 30
0.0
 10
94.8439
 20
119.0736
 30
0.0
 10
95.1058
 20
121.4218
 30
0.0
 10
96.5621
 20
123.2691
 30
0.0
 10
96.5621
 20
123.2691
 30
0.0
 10
96.9851
 20
123.7389
 30
0.0
 10
97.4081
 20
124.209
 30
0.0
 10
97.8309
 20
124.6788
 30
0.0
 10
97.8309
 20
124.6788
 30
0.0
 10
97.7838
 20
124.7727
 30
0.0
 10
97.737
 20
124.8668
 30
0.0
 10
97.6899
 20
124.9607
 30
0.0
 10
97.6899
 20
124.9607
 30
0.0
 10
94.0956
 20
124.7962
 30
0.0
 10
90.4999
 20
124.6318
 30
0.0
 10
86.9056
 20
124.4673
 30
0.0
 10
86.9056
 20
124.4673
 30
0.0
 10
86.9289
 20
124.4203
 30
0.0
 10
86.9524
 20
124.3734
 30
0.0
 10
86.9759
 20
124.3264
 30
0.0
 10
86.9759
 20
124.3264
 30
0.0
 10
88.2528
 20
123.7463
 30
0.0
 10
91.2192
 20
121.2109
 30
0.0
 10
92.051
 20
120.0972
 30
0.0
 10
92.051
 20
120.0972
 30
0.0
 10
92.0041
 20
120.0501
 30
0.0
 10
91.9571
 20
120.0033
 30
0.0
 10
91.91
 20
119.9562
 30
0.0
 10
91.91
 20
119.9562
 30
0.0
 10
82.7535
 20
122.5475
 30
0.0
 10
79.38
 20
114.8543
 30
0.0
 10
79.2929
 20
108.1849
 30
0.0
  0
SPLINE
  5
8E
330
1F
100
AcDbEntity
  8
layer 1
 62
     7
100
AcDbSpline
210
0.0
220
0.0
230
1.0
 70
    11
 71
     3
 72
    60
 73
    56
 74
     0
 42
0.0000000001
 43
0.0000000001
 12
1.0
 22
0.0
 32
0.0
 13
1.0
 23
0.0
 33
0.0
 40
0.0
 40
0.0
 40
0.0
 40
0.0
 40
0.0666666666666667
 40
0.0666666666666667
 40
0.0666666666666667
 40
0.0666666666666667
 40
0.1333333333333333
 40
0.1333333333333333
 40
0.1333333333333333
 40
0.1333333333333333
 40
0.2
 40
0.2
 40
0.2
 40
0.2
 40
0.2666666666666667
 40
0.2666666666666667
 40
0.2666666666666667
 40
0.2666666666666667
 40
0.3333333333333333
 40
0.3333333333333333
 40
0.3333333333333333
 40
0.3333333333333333
 40
0.4
 40
0.4
 40
0.4
 40
0.4
 40
0.4666666666666667
 40
0.4666666666666667
 40
0.4666666666666667
 40
0.4666666666666667
 40
0.5333333333333333
 40
0.5333333333333333
 40
0.5333333333333333
 40
0.5333333333333333
 40
0.6
 40
0.6
 40
0.6
 40
0.6
 40
0.6666666666666666
 40
0.6666666666666666
 40
0.6666666666666666
 40
0.6666666666666666
 40
0.7333333333333333
 40
0.7333333333333333
 40
0.7333333333333333
 40
0.7333333333333333
 40
0.8
 40
0.8
 40
0.8
 40
0.8
 40
0.8666666666666667
 40
0.8666666666666667
 40
0.8666666666666667
 40
0.8666666666666667
 40
1.0
 40
1.0
 40
1.0
 40
1.0
 10
78.9405
 20
-97.5648
 30
0.0
 10
78.9875
 20
-97.6824
 30
0.0
 10
79.0346
 20
-97.7999
 30
0.0
 10
79.0814
 20
-97.9173
 30
0.0
 10
79.0814
 20
-97.9173
 30
0.0
 10
79.994
 20
-99.6347
 30
0.0
 10
84.4464
 20
-101.8126
 30
0.0
 10
86.5531
 20
-102.4989
 30
0.0
 10
86.5531
 20
-102.4989
 30
0.0
 10
86.8115
 20
-101.4653
 30
0.0
 10
87.07
 20
-100.4312
 30
0.0
 10
87.3284
 20
-99.3976
 30
0.0
 10
87.3284
 20
-99.3976
 30
0.0
 10
88.3112
 20
-95.1355
 30
0.0
 10
88.8864
 20
-91.6778
 30
0.0
 10
90.2888
 20
-88.1902
 30
0.0
 10
90.2888
 20
-88.1902
 30
0.0
 10
91.0172
 20
-86.4753
 30
0.0
 10
91.7456
 20
-84.7598
 30
0.0
 10
92.474
 20
-83.0446
 30
0.0
 10
92.474
 20
-83.0446
 30
0.0
 10
92.3799
 20
-83.0681
 30
0.0
 10
92.286
 20
-83.0917
 30
0.0
 10
92.1919
 20
-83.1152
 30
0.0
 10
92.1919
 20
-83.1152
 30
0.0
 10
89.7561
 20
-82.8218
 30
0.0
 10
87.9358
 20
-86.2038
 30
0.0
 10
87.258
 20
-88.1197
 30
0.0
 10
87.258
 20
-88.1197
 30
0.0
 10
86.923
 20
-89.0665
 30
0.0
 10
87.321
 20
-90.2556
 30
0.0
 10
86.6941
 20
-90.8688
 30
0.0
 10
86.6941
 20
-90.8688
 30
0.0
 10
84.5426
 20
-90.2081
 30
0.0
 10
84.7935
 20
-87.4871
 30
0.0
 10
85.1434
 20
-85.2298
 30
0.0
 10
85.1434
 20
-85.2298
 30
0.0
 10
85.0963
 20
-85.2298
 30
0.0
 10
85.0493
 20
-85.2298
 30
0.0
 10
85.0024
 20
-85.2298
 30
0.0
 10
85.0024
 20
-85.2298
 30
0.0
 10
84.1331
 20
-84.9713
 30
0.0
 10
83.2636
 20
-84.7129
 30
0.0
 10
82.3943
 20
-84.4544
 30
0.0
 10
82.3943
 20
-84.4544
 30
0.0
 10
81.6661
 20
-83.961
 30
0.0
 10
80.9375
 20
-83.4676
 30
0.0
 10
80.2093
 20
-82.9742
 30
0.0
 10
80.2093
 20
-82.9742
 30
0.0
 10
81.0366
 20
-85.5822
 30
0.0
 10
80.0436
 20
-93.0178
 30
0.0
 10
79.4339
 20
-95.0274
 30
0.0
 10
79.4339
 20
-95.0274
 30
0.0
 10
79.1624
 20
-95.9228
 30
0.0
 10
79.3579
 20
-96.8691
 30
0.0
 10
78.9405
 20
-97.5648
 30
0.0
  0
SPLINE
  5
8F
330
1F
100
AcDbEntity
  8
layer 1
 62
     7
100
AcDbSpline
210
0.0
220
0.0
230
1.0
 70
    11
 71
     3
 72
    20
 73
    16
 74
     0
 42
0.0000000001
 43
0.0000000001
 12
1.0
 22
0.0
 32
0.0
 13
1.0
 23
0.0
 33
0.0
 40
0.0
 40
0.0
 40
0.0
 40
0.0
 40
0.2
 40
0.2
 40
0.2
 40
0.2
 40
0.4
 40
0.4
 40
0.4
 40
0.4
 40
0.6
 40
0.6
 40
0.6
 40
0.6
 40
1.0
 40
1.0
 40
1.0
 40
1.0
 10
78.6586
 20
40.377
 30
0.0
 10
77.9661
 20
40.3935
 30
0.0
 10
77.6889
 20
40.2542
 30
0.0
 10
77.2489
 20
40.0951
 30
0.0
 10
77.2489
 20
40.0951
 30
0.0
 10
77.1191
 20
39.2865
 30
0.0
 10
77.3704
 20
38.699
 30
0.0
 10
77.8832
 20
38.3329
 30
0.0
 10
77.8832
 20
38.3329
 30
0.0
 10
77.9302
 20
38.3565
 30
0.0
 10
77.9773
 20
38.38
 30
0.0
 10
78.0241
 20
38.4035
 30
0.0
 10
78.0241
 20
38.4035
 30
0.0
 10
78.2329
 20
39.0908
 30
0.0
 10
78.5832
 20
39.5274
 30
0.0
 10
78.6586
 20
40.377
 30
0.0
  0
SPLINE
  5
90
330
1F
100
AcDbEntity
  8
layer 1
 62
     7
100
AcDbSpline
210
0.0
220
0.0
230
1.0
 70
    11
 71
     3
 72
    36
 73
    32
 74
     0
 42
0.0000000001
 43
0.0000000001
 12
1.0
 22
0.0
 32
0.0
 13
1.0
 23
0.0
 33
0.0
 40
0.0
 40
0.0
 40
0.0
 40
0.0
 40
0.1111111111111111
 40
0.1111111111111111
 40
0.1111111111111111
 40
0.1111111111111111
 40
0.2222222222222222
 40
0.2222222222222222
 40
0.2222222222222222
 40
0.2222222222222222
 40
0.3333333333333333
 40
0.3333333333333333
 40
0.3333333333333333
 40
0.3333333333333333
 40
0.4444444444444444
 40
0.4444444444444444
 40
0.4444444444444444
 40
0.4444444444444444
 40
0.5555555555555556
 40
0.5555555555555556
 40
0.5555555555555556
 40
0.5555555555555556
 40
0.6666666666666666
 40
0.6666666666666666
 40
0.6666666666666666
 40
0.6666666666666666
 40
0.7777777777777778
 40
0.7777777777777778
 40
0.7777777777777778
 40
0.7777777777777778
 40
1.0
 40
1.0
 40
1.0
 40
1.0
 10
77.1783
 20
-106.2348
 30
0.0
 10
77.3428
 20
-106.9395
 30
0.0
 10
77.5074
 20
-107.6445
 30
0.0
 10
77.6717
 20
-108.3494
 30
0.0
 10
77.6717
 20
-108.3494
 30
0.0
 10
77.7187
 20
-108.3727
 30
0.0
 10
77.7658
 20
-108.3963
 30
0.0
 10
77.8128
 20
-108.4198
 30
0.0
 10
77.8128
 20
-108.4198
 30
0.0
 10
80.4204
 20
-108.4903
 30
0.0
 10
83.0289
 20
-108.5607
 30
0.0
 10
85.6368
 20
-108.6313
 30
0.0
 10
85.6368
 20
-108.6313
 30
0.0
 10
85.6368
 20
-108.6078
 30
0.0
 10
85.6368
 20
-108.5842
 30
0.0
 10
85.6368
 20
-108.5607
 30
0.0
 10
85.6368
 20
-108.5607
 30
0.0
 10
85.5662
 20
-108.1144
 30
0.0
 10
85.4958
 20
-107.6679
 30
0.0
 10
85.4253
 20
-107.2215
 30
0.0
 10
85.4253
 20
-107.2215
 30
0.0
 10
82.1102
 20
-106.559
 30
0.0
 10
79.601
 20
-104.7153
 30
0.0
 10
77.3898
 20
-102.9219
 30
0.0
 10
77.3898
 20
-102.9219
 30
0.0
 10
77.3663
 20
-102.9219
 30
0.0
 10
77.3428
 20
-102.9219
 30
0.0
 10
77.3194
 20
-102.9219
 30
0.0
 10
77.3194
 20
-102.9219
 30
0.0
 10
77.2724
 20
-104.0261
 30
0.0
 10
77.2253
 20
-105.1304
 30
0.0
 10
77.1783
 20
-106.2348
 30
0.0
  0
SPLINE
  5
91
330
1F
100
AcDbEntity
  8
layer 1
 62
     7
100
AcDbSpline
210
0.0
220
0.0
230
1.0
 70
    11
 71
     3
 72
    16
 73
    12
 74
     0
 42
0.0000000001
 43
0.0000000001
 12
1.0
 22
0.0
 32
0.0
 13
1.0
 23
0.0
 33
0.0
 40
0.0
 40
0.0
 40
0.0
 40
0.0
 40
0.25
 40
0.25
 40
0.25
 40
0.25
 40
0.5
 40
0.5
 40
0.5
 40
0.5
 40
1.0
 40
1.0
 40
1.0
 40
1.0
 10
76.121
 20
124.1149
 30
0.0
 10
76.5655
 20
123.6757
 30
0.0
 10
77.7521
 20
121.629
 30
0.0
 10
78.2356
 20
121.8593
 30
0.0
 10
78.2356
 20
121.8593
 30
0.0
 10
79.3633
 20
122.7052
 30
0.0
 10
80.4913
 20
123.5511
 30
0.0
 10
81.619
 20
124.3968
 30
0.0
 10
81.619
 20
124.3968
 30
0.0
 10
80.51
 20
124.1275
 30
0.0
 10
76.7514
 20
124.6709
 30
0.0
 10
76.121
 20
124.1149
 30
0.0
  0
SPLINE
  5
92
330
1F
100
AcDbEntity
  8
layer 1
 62
     7
100
AcDbSpline
210
0.0
220
0.0
230
1.0
 70
    11
 71
     3
 72
    28
 73
    24
 74
     0
 42
0.0000000001
 43
0.0000000001
 12
1.0
 22
0.0
 32
0.0
 13
1.0
 23
0.0
 33
0.0
 40
0.0
 40
0.0
 40
0.0
 40
0.0
 40
0.1428571428571428
 40
0.1428571428571428
 40
0.1428571428571428
 40
0.1428571428571428
 40
0.2857142857142857
 40
0.2857142857142857
 40
0.2857142857142857
 40
0.2857142857142857
 40
0.4285714285714285
 40
0.4285714285714285
 40
0.4285714285714285
 40
0.4285714285714285
 40
0.5714285714285714
 40
0.5714285714285714
 40
0.5714285714285714
 40
0.5714285714285714
 40
0.7142857142857143
 40
0.7142857142857143
 40
0.7142857142857143
 40
0.7142857142857143
 40
1.0
 40
1.0
 40
1.0
 40
1.0
 10
75.4867
 20
-44.7705
 30
0.0
 10
75.6276
 20
-45.6869
 30
0.0
 10
75.7687
 20
-46.6032
 30
0.0
 10
75.9097
 20
-47.5196
 30
0.0
 10
75.9097
 20
-47.5196
 30
0.0
 10
76.7456
 20
-50.0495
 30
0.0
 10
77.6886
 20
-53.8974
 30
0.0
 10
79.2929
 20
-55.6254
 30
0.0
 10
79.2929
 20
-55.6254
 30
0.0
 10
79.5315
 20
-52.6822
 30
0.0
 10
80.9219
 20
-50.4735
 30
0.0
 10
82.3239
 20
-48.6473
 30
0.0
 10
82.3239
 20
-48.6473
 30
0.0
 10
78.0721
 20
-48.7394
 30
0.0
 10
76.9966
 20
-46.9903
 30
0.0
 10
75.6982
 20
-43.8543
 30
0.0
 10
75.6982
 20
-43.8543
 30
0.0
 10
75.6276
 20
-43.4078
 30
0.0
 10
75.5573
 20
-42.9613
 30
0.0
 10
75.4867
 20
-42.5149
 30
0.0
 10
75.4867
 20
-42.5149
 30
0.0
 10
75.4867
 20
-43.2668
 30
0.0
 10
75.4867
 20
-44.0188
 30
0.0
 10
75.4867
 20
-44.7705
 30
0.0
  0
SPLINE
  5
93
330
1F
100
AcDbEntity
  8
layer 1
 62
     7
100
AcDbSpline
210
0.0
220
0.0
230
1.0
 70
    11
 71
     3
 72
    20
 73
    16
 74
     0
 42
0.0000000001
 43
0.0000000001
 12
1.0
 22
0.0
 32
0.0
 13
1.0
 23
0.0
 33
0.0
 40
0.0
 40
0.0
 40
0.0
 40
0.0
 40
0.2
 40
0.2
 40
0.2
 40
0.2
 40
0.4
 40
0.4
 40
0.4
 40
0.4
 40
0.6
 40
0.6
 40
0.6
 40
0.6
 40
1.0
 40
1.0
 40
1.0
 40
1.0
 10
71.5395
 20
-100.5958
 30
0.0
 10
72.1738
 20
-99.1863
 30
0.0
 10
72.8083
 20
-97.7762
 30
0.0
 10
73.4426
 20
-96.3666
 30
0.0
 10
73.4426
 20
-96.3666
 30
0.0
 10
72.8787
 20
-95.8497
 30
0.0
 10
72.3148
 20
-95.3328
 30
0.0
 10
71.7508
 20
-94.8159
 30
0.0
 10
71.7508
 20
-94.8159
 30
0.0
 10
71.7275
 20
-94.8159
 30
0.0
 10
71.704
 20
-94.8159
 30
0.0
 10
71.6805
 20
-94.8159
 30
0.0
 10
71.6805
 20
-94.8159
 30
0.0
 10
71.6334
 20
-96.7424
 30
0.0
 10
71.5864
 20
-98.6694
 30
0.0
 10
71.5395
 20
-100.5958
 30
0.0
  0
SPLINE
  5
94
330
1F
100
AcDbEntity
  8
layer 1
 62
     7
100
AcDbSpline
210
0.0
220
0.0
230
1.0
 70
    11
 71
     3
 72
    28
 73
    24
 74
     0
 42
0.0000000001
 43
0.0000000001
 12
1.0
 22
0.0
 32
0.0
 13
1.0
 23
0.0
 33
0.0
 40
0.0
 40
0.0
 40
0.0
 40
0.0
 40
0.1428571428571428
 40
0.1428571428571428
 40
0.1428571428571428
 40
0.1428571428571428
 40
0.2857142857142857
 40
0.2857142857142857
 40
0.2857142857142857
 40
0.2857142857142857
 40
0.4285714285714285
 40
0.4285714285714285
 40
0.4285714285714285
 40
0.4285714285714285
 40
0.5714285714285714
 40
0.5714285714285714
 40
0.5714285714285714
 40
0.5714285714285714
 40
0.7142857142857143
 40
0.7142857142857143
 40
0.7142857142857143
 40
0.7142857142857143
 40
1.0
 40
1.0
 40
1.0
 40
1.0
 10
71.328
 20
16.1297
 30
0.0
 10
72.5967
 20
17.6802
 30
0.0
 10
73.8656
 20
19.2312
 30
0.0
 10
75.1343
 20
20.7817
 30
0.0
 10
75.1343
 20
20.7817
 30
0.0
 10
78.8268
 20
24.3249
 30
0.0
 10
82.7079
 20
28.0299
 30
0.0
 10
89.7954
 20
27.9714
 30
0.0
 10
89.7954
 20
27.9714
 30
0.0
 10
88.9424
 20
29.2386
 30
0.0
 10
88.1128
 20
30.5905
 30
0.0
 10
86.9056
 20
31.4957
 30
0.0
 10
86.9056
 20
31.4957
 30
0.0
 10
85.3357
 20
32.6728
 30
0.0
 10
83.1968
 20
33.3015
 30
0.0
 10
82.183
 20
35.0201
 30
0.0
 10
82.183
 20
35.0201
 30
0.0
 10
80.6454
 20
33.8184
 30
0.0
 10
79.7337
 20
31.9598
 30
0.0
 10
78.6586
 20
30.2975
 30
0.0
 10
78.6586
 20
30.2975
 30
0.0
 10
75.9661
 20
26.1342
 30
0.0
 10
72.3333
 20
21.8586
 30
0.0
 10
71.328
 20
16.1297
 30
0.0
  0
SPLINE
  5
95
330
1F
100
AcDbEntity
  8
layer 1
 62
     7
100
AcDbSpline
210
0.0
220
0.0
230
1.0
 70
    11
 71
     3
 72
    44
 73
    40
 74
     0
 42
0.0000000001
 43
0.0000000001
 12
1.0
 22
0.0
 32
0.0
 13
1.0
 23
0.0
 33
0.0
 40
0.0
 40
0.0
 40
0.0
 40
0.0
 40
0.0909090909090909
 40
0.0909090909090909
 40
0.0909090909090909
 40
0.0909090909090909
 40
0.1818181818181818
 40
0.1818181818181818
 40
0.1818181818181818
 40
0.1818181818181818
 40
0.2727272727272727
 40
0.2727272727272727
 40
0.2727272727272727
 40
0.2727272727272727
 40
0.3636363636363636
 40
0.3636363636363636
 40
0.3636363636363636
 40
0.3636363636363636
 40
0.4545454545454545
 40
0.4545454545454545
 40
0.4545454545454545
 40
0.4545454545454545
 40
0.5454545454545454
 40
0.5454545454545454
 40
0.5454545454545454
 40
0.5454545454545454
 40
0.6363636363636364
 40
0.6363636363636364
 40
0.6363636363636364
 40
0.6363636363636364
 40
0.7272727272727273
 40
0.7272727272727273
 40
0.7272727272727273
 40
0.7272727272727273
 40
0.8181818181818182
 40
0.8181818181818182
 40
0.8181818181818182
 40
0.8181818181818182
 40
1.0
 40
1.0
 40
1.0
 40
1.0
 10
71.328
 20
-48.5769
 30
0.0
 10
71.4925
 20
-60.5583
 30
0.0
 10
71.6569
 20
-72.5434
 30
0.0
 10
71.8214
 20
-84.5249
 30
0.0
 10
71.8214
 20
-84.5249
 30
0.0
 10
72.4956
 20
-84.2481
 30
0.0
 10
72.9943
 20
-84.2976
 30
0.0
 10
73.7245
 20
-84.4544
 30
0.0
 10
73.7245
 20
-84.4544
 30
0.0
 10
73.7245
 20
-84.6659
 30
0.0
 10
73.7245
 20
-84.8774
 30
0.0
 10
73.7245
 20
-85.0889
 30
0.0
 10
73.7245
 20
-85.0889
 30
0.0
 10
72.9611
 20
-87.0105
 30
0.0
 10
73.1469
 20
-89.9089
 30
0.0
 10
74.3588
 20
-91.2212
 30
0.0
 10
74.3588
 20
-91.2212
 30
0.0
 10
74.3823
 20
-91.2212
 30
0.0
 10
74.4059
 20
-91.2212
 30
0.0
 10
74.4294
 20
-91.2212
 30
0.0
 10
74.4294
 20
-91.2212
 30
0.0
 10
74.4294
 20
-91.1742
 30
0.0
 10
74.4294
 20
-91.1271
 30
0.0
 10
74.4294
 20
-91.0801
 30
0.0
 10
74.4294
 20
-91.0801
 30
0.0
 10
75.6926
 20
-88.4676
 30
0.0
 10
75.0154
 20
-84.3696
 30
0.0
 10
75.5573
 20
-81.1415
 30
0.0
 10
75.5573
 20
-81.1415
 30
0.0
 10
76.9013
 20
-73.1344
 30
0.0
 10
76.0246
 20
-61.5297
 30
0.0
 10
73.7245
 20
-55.4139
 30
0.0
 10
73.7245
 20
-55.4139
 30
0.0
 10
72.8906
 20
-53.1964
 30
0.0
 10
72.9103
 20
-50.0811
 30
0.0
 10
71.328
 20
-48.4358
 30
0.0
 10
71.328
 20
-48.4358
 30
0.0
 10
71.328
 20
-48.4828
 30
0.0
 10
71.328
 20
-48.5299
 30
0.0
 10
71.328
 20
-48.5769
 30
0.0
  0
SPLINE
  5
96
330
1F
100
AcDbEntity
  8
layer 1
 62
     7
100
AcDbSpline
210
0.0
220
0.0
230
1.0
 70
    11
 71
     3
 72
    36
 73
    32
 74
     0
 42
0.0000000001
 43
0.0000000001
 12
1.0
 22
0.0
 32
0.0
 13
1.0
 23
0.0
 33
0.0
 40
0.0
 40
0.0
 40
0.0
 40
0.0
 40
0.1111111111111111
 40
0.1111111111111111
 40
0.1111111111111111
 40
0.1111111111111111
 40
0.2222222222222222
 40
0.2222222222222222
 40
0.2222222222222222
 40
0.2222222222222222
 40
0.3333333333333333
 40
0.3333333333333333
 40
0.3333333333333333
 40
0.3333333333333333
 40
0.4444444444444444
 40
0.4444444444444444
 40
0.4444444444444444
 40
0.4444444444444444
 40
0.5555555555555556
 40
0.5555555555555556
 40
0.5555555555555556
 40
0.5555555555555556
 40
0.6666666666666666
 40
0.6666666666666666
 40
0.6666666666666666
 40
0.6666666666666666
 40
0.7777777777777778
 40
0.7777777777777778
 40
0.7777777777777778
 40
0.7777777777777778
 40
1.0
 40
1.0
 40
1.0
 40
1.0
 10
71.2575
 20
79.0741
 30
0.0
 10
72.0798
 20
78.9097
 30
0.0
 10
72.9022
 20
78.7452
 30
0.0
 10
73.7245
 20
78.5807
 30
0.0
 10
73.7245
 20
78.5807
 30
0.0
 10
74.6947
 20
78.3035
 30
0.0
 10
75.8587
 20
77.7432
 30
0.0
 10
76.6146
 20
77.171
 30
0.0
 10
76.6146
 20
77.171
 30
0.0
 10
78.6031
 20
75.6654
 30
0.0
 10
79.6631
 20
73.2702
 30
0.0
 10
81.4781
 20
71.6026
 30
0.0
 10
81.4781
 20
71.6026
 30
0.0
 10
81.4991
 20
78.5741
 30
0.0
 10
83.0184
 20
85.7684
 30
0.0
 10
80.6323
 20
91.4797
 30
0.0
 10
80.6323
 20
91.4797
 30
0.0
 10
80.3034
 20
91.9496
 30
0.0
 10
79.9743
 20
92.4196
 30
0.0
 10
79.6454
 20
92.8895
 30
0.0
 10
79.6454
 20
92.8895
 30
0.0
 10
77.7286
 20
93.0835
 30
0.0
 10
76.3761
 20
91.3997
 30
0.0
 10
75.4867
 20
90.2815
 30
0.0
 10
75.4867
 20
90.2815
 30
0.0
 10
74.1502
 20
88.6014
 30
0.0
 10
72.6078
 20
87.0096
 30
0.0
 10
71.6099
 20
85.1359
 30
0.0
 10
71.6099
 20
85.1359
 30
0.0
 10
71.4925
 20
83.1155
 30
0.0
 10
71.3749
 20
81.0945
 30
0.0
 10
71.2575
 20
79.0741
 30
0.0
  0
SPLINE
  5
97
330
1F
100
AcDbEntity
  8
layer 1
 62
     7
100
AcDbSpline
210
0.0
220
0.0
230
1.0
 70
    11
 71
     3
 72
    32
 73
    28
 74
     0
 42
0.0000000001
 43
0.0000000001
 12
1.0
 22
0.0
 32
0.0
 13
1.0
 23
0.0
 33
0.0
 40
0.0
 40
0.0
 40
0.0
 40
0.0
 40
0.125
 40
0.125
 40
0.125
 40
0.125
 40
0.25
 40
0.25
 40
0.25
 40
0.25
 40
0.375
 40
0.375
 40
0.375
 40
0.375
 40
0.5
 40
0.5
 40
0.5
 40
0.5
 40
0.625
 40
0.625
 40
0.625
 40
0.625
 40
0.75
 40
0.75
 40
0.75
 40
0.75
 40
1.0
 40
1.0
 40
1.0
 40
1.0
 10
71.046
 20
91.4797
 30
0.0
 10
72.4875
 20
93.2202
 30
0.0
 10
73.9726
 20
95.05
 30
0.0
 10
75.9801
 20
96.2023
 30
0.0
 10
75.9801
 20
96.2023
 30
0.0
 10
76.7318
 20
96.5312
 30
0.0
 10
77.4839
 20
96.8602
 30
0.0
 10
78.2356
 20
97.1891
 30
0.0
 10
78.2356
 20
97.1891
 30
0.0
 10
75.3725
 20
102.3171
 30
0.0
 10
74.096
 20
108.8342
 30
0.0
 10
75.2752
 20
115.727
 30
0.0
 10
75.2752
 20
115.727
 30
0.0
 10
75.8558
 20
119.121
 30
0.0
 10
73.9728
 20
124.2487
 30
0.0
 10
71.469
 20
124.5379
 30
0.0
 10
71.469
 20
124.5379
 30
0.0
 10
71.469
 20
124.021
 30
0.0
 10
71.469
 20
123.5039
 30
0.0
 10
71.469
 20
122.9872
 30
0.0
 10
71.469
 20
122.9872
 30
0.0
 10
71.3984
 20
120.2385
 30
0.0
 10
71.328
 20
117.4888
 30
0.0
 10
71.2575
 20
114.7403
 30
0.0
 10
71.2575
 20
114.7403
 30
0.0
 10
70.9625
 20
108.286
 30
0.0
 10
71.0451
 20
99.2943
 30
0.0
 10
71.046
 20
91.4797
 30
0.0
  0
SPLINE
  5
98
330
1F
100
AcDbEntity
  8
layer 1
 62
     7
100
AcDbSpline
210
0.0
220
0.0
230
1.0
 70
    11
 71
     3
 72
    48
 73
    44
 74
     0
 42
0.0000000001
 43
0.0000000001
 12
1.0
 22
0.0
 32
0.0
 13
1.0
 23
0.0
 33
0.0
 40
0.0
 40
0.0
 40
0.0
 40
0.0
 40
0.0833333333333333
 40
0.0833333333333333
 40
0.0833333333333333
 40
0.0833333333333333
 40
0.1666666666666667
 40
0.1666666666666667
 40
0.1666666666666667
 40
0.1666666666666667
 40
0.25
 40
0.25
 40
0.25
 40
0.25
 40
0.3333333333333333
 40
0.3333333333333333
 40
0.3333333333333333
 40
0.3333333333333333
 40
0.4166666666666667
 40
0.4166666666666667
 40
0.4166666666666667
 40
0.4166666666666667
 40
0.5
 40
0.5
 40
0.5
 40
0.5
 40
0.5833333333333334
 40
0.5833333333333334
 40
0.5833333333333334
 40
0.5833333333333334
 40
0.6666666666666666
 40
0.6666666666666666
 40
0.6666666666666666
 40
0.6666666666666666
 40
0.75
 40
0.75
 40
0.75
 40
0.75
 40
0.8333333333333334
 40
0.8333333333333334
 40
0.8333333333333334
 40
0.8333333333333334
 40
1.0
 40
1.0
 40
1.0
 40
1.0
 10
71.046
 20
41.7163
 30
0.0
 10
71.4654
 20
41.3689
 30
0.0
 10
72.5324
 20
40.198
 30
0.0
 10
73.1606
 20
40.8
 30
0.0
 10
73.1606
 20
40.8
 30
0.0
 10
72.2561
 20
42.0038
 30
0.0
 10
70.3736
 20
44.698
 30
0.0
 10
72.6672
 20
45.9454
 30
0.0
 10
72.6672
 20
45.9454
 30
0.0
 10
73.4189
 20
46.2039
 30
0.0
 10
74.171
 20
46.4625
 30
0.0
 10
74.9228
 20
46.7208
 30
0.0
 10
74.9228
 20
46.7208
 30
0.0
 10
75.2987
 20
47.4257
 30
0.0
 10
75.6747
 20
48.1306
 30
0.0
 10
76.0506
 20
48.8354
 30
0.0
 10
76.0506
 20
48.8354
 30
0.0
 10
77.0341
 20
50.1193
 30
0.0
 10
79.0259
 20
50.5446
 30
0.0
 10
79.8569
 20
51.514
 30
0.0
 10
79.8569
 20
51.514
 30
0.0
 10
80.3816
 20
60.4195
 30
0.0
 10
78.7811
 20
65.5566
 30
0.0
 10
74.8524
 20
70.8977
 30
0.0
 10
74.8524
 20
70.8977
 30
0.0
 10
74.0929
 20
71.9301
 30
0.0
 10
73.0082
 20
73.8556
 30
0.0
 10
71.6099
 20
74.281
 30
0.0
 10
71.6099
 20
74.281
 30
0.0
 10
71.5864
 20
74.1871
 30
0.0
 10
71.5629
 20
74.093
 30
0.0
 10
71.5395
 20
73.9991
 30
0.0
 10
71.5395
 20
73.9991
 30
0.0
 10
71.4454
 20
71.1094
 30
0.0
 10
71.3515
 20
68.2188
 30
0.0
 10
71.2575
 20
65.3291
 30
0.0
 10
71.2575
 20
65.3291
 30
0.0
 10
71.1871
 20
63.0504
 30
0.0
 10
71.1165
 20
60.7708
 30
0.0
 10
71.046
 20
58.4921
 30
0.0
 10
71.046
 20
58.4921
 30
0.0
 10
71.046
 20
52.9007
 30
0.0
 10
71.046
 20
47.3076
 30
0.0
 10
71.046
 20
41.7163
 30
0.0
  0
SPLINE
  5
99
330
1F
100
AcDbEntity
  8
layer 1
 62
     7
100
AcDbSpline
210
0.0
220
0.0
230
1.0
 70
    11
 71
     3
 72
    24
 73
    20
 74
     0
 42
0.0000000001
 43
0.0000000001
 12
1.0
 22
0.0
 32
0.0
 13
1.0
 23
0.0
 33
0.0
 40
0.0
 40
0.0
 40
0.0
 40
0.0
 40
0.1666666666666667
 40
0.1666666666666667
 40
0.1666666666666667
 40
0.1666666666666667
 40
0.3333333333333333
 40
0.3333333333333333
 40
0.3333333333333333
 40
0.3333333333333333
 40
0.5
 40
0.5
 40
0.5
 40
0.5
 40
0.6666666666666666
 40
0.6666666666666666
 40
0.6666666666666666
 40
0.6666666666666666
 40
1.0
 40
1.0
 40
1.0
 40
1.0
 10
71.046
 20
37.4166
 30
0.0
 10
71.0695
 20
33.7516
 30
0.0
 10
71.093
 20
30.0856
 30
0.0
 10
71.1165
 20
26.4207
 30
0.0
 10
71.1165
 20
26.4207
 30
0.0
 10
71.4751
 20
30.0556
 30
0.0
 10
74.6608
 20
33.1943
 30
0.0
 10
76.1916
 20
35.7953
 30
0.0
 10
76.1916
 20
35.7953
 30
0.0
 10
76.1445
 20
35.7953
 30
0.0
 10
76.0975
 20
35.7953
 30
0.0
 10
76.0506
 20
35.7953
 30
0.0
 10
76.0506
 20
35.7953
 30
0.0
 10
75.2519
 20
36.5237
 30
0.0
 10
74.4527
 20
37.2523
 30
0.0
 10
73.654
 20
37.9805
 30
0.0
 10
73.654
 20
37.9805
 30
0.0
 10
73.2437
 20
37.4674
 30
0.0
 10
71.9719
 20
37.3936
 30
0.0
 10
71.046
 20
37.4166
 30
0.0
  0
SPLINE
  5
9A
330
1F
100
AcDbEntity
  8
layer 1
 62
     7
100
AcDbSpline
210
0.0
220
0.0
230
1.0
 70
    11
 71
     3
 72
   192
 73
   188
 74
     0
 42
0.0000000001
 43
0.0000000001
 12
1.0
 22
0.0
 32
0.0
 13
1.0
 23
0.0
 33
0.0
 40
0.0
 40
0.0
 40
0.0
 40
0.0
 40
0.0208333333333333
 40
0.0208333333333333
 40
0.0208333333333333
 40
0.0208333333333333
 40
0.0416666666666667
 40
0.0416666666666667
 40
0.0416666666666667
 40
0.0416666666666667
 40
0.0625
 40
0.0625
 40
0.0625
 40
0.0625
 40
0.0833333333333333
 40
0.0833333333333333
 40
0.0833333333333333
 40
0.0833333333333333
 40
0.1041666666666667
 40
0.1041666666666667
 40
0.1041666666666667
 40
0.1041666666666667
 40
0.125
 40
0.125
 40
0.125
 40
0.125
 40
0.1458333333333333
 40
0.1458333333333333
 40
0.1458333333333333
 40
0.1458333333333333
 40
0.1666666666666667
 40
0.1666666666666667
 40
0.1666666666666667
 40
0.1666666666666667
 40
0.1875
 40
0.1875
 40
0.1875
 40
0.1875
 40
0.2083333333333333
 40
0.2083333333333333
 40
0.2083333333333333
 40
0.2083333333333333
 40
0.2291666666666667
 40
0.2291666666666667
 40
0.2291666666666667
 40
0.2291666666666667
 40
0.25
 40
0.25
 40
0.25
 40
0.25
 40
0.2708333333333333
 40
0.2708333333333333
 40
0.2708333333333333
 40
0.2708333333333333
 40
0.2916666666666667
 40
0.2916666666666667
 40
0.2916666666666667
 40
0.2916666666666667
 40
0.3125
 40
0.3125
 40
0.3125
 40
0.3125
 40
0.3333333333333333
 40
0.3333333333333333
 40
0.3333333333333333
 40
0.3333333333333333
 40
0.3541666666666667
 40
0.3541666666666667
 40
0.3541666666666667
 40
0.3541666666666667
 40
0.375
 40
0.375
 40
0.375
 40
0.375
 40
0.3958333333333333
 40
0.3958333333333333
 40
0.3958333333333333
 40
0.3958333333333333
 40
0.4166666666666667
 40
0.4166666666666667
 40
0.4166666666666667
 40
0.4166666666666667
 40
0.4375
 40
0.4375
 40
0.4375
 40
0.4375
 40
0.4583333333333333
 40
0.4583333333333333
 40
0.4583333333333333
 40
0.4583333333333333
 40
0.4791666666666667
 40
0.4791666666666667
 40
0.4791666666666667
 40
0.4791666666666667
 40
0.5
 40
0.5
 40
0.5
 40
0.5
 40
0.5208333333333334
 40
0.5208333333333334
 40
0.5208333333333334
 40
0.5208333333333334
 40
0.5416666666666666
 40
0.5416666666666666
 40
0.5416666666666666
 40
0.5416666666666666
 40
0.5625
 40
0.5625
 40
0.5625
 40
0.5625
 40
0.5833333333333334
 40
0.5833333333333334
 40
0.5833333333333334
 40
0.5833333333333334
 40
0.6041666666666666
 40
0.6041666666666666
 40
0.6041666666666666
 40
0.6041666666666666
 40
0.625
 40
0.625
 40
0.625
 40
0.625
 40
0.6458333333333334
 40
0.6458333333333334
 40
0.6458333333333334
 40
0.6458333333333334
 40
0.6666666666666666
 40
0.6666666666666666
 40
0.6666666666666666
 40
0.6666666666666666
 40
0.6875
 40
0.6875
 40
0.6875
 40
0.6875
 40
0.7083333333333334
 40
0.7083333333333334
 40
0.7083333333333334
 40
0.7083333333333334
 40
0.7291666666666666
 40
0.7291666666666666
 40
0.7291666666666666
 40
0.7291666666666666
 40
0.75
 40
0.75
 40
0.75
 40
0.75
 40
0.7708333333333334
 40
0.7708333333333334
 40
0.7708333333333334
 40
0.7708333333333334
 40
0.7916666666666666
 40
0.7916666666666666
 40
0.7916666666666666
 40
0.7916666666666666
 40
0.8125
 40
0.8125
 40
0.8125
 40
0.8125
 40
0.8333333333333334
 40
0.8333333333333334
 40
0.8333333333333334
 40
0.8333333333333334
 40
0.8541666666666666
 40
0.8541666666666666
 40
0.8541666666666666
 40
0.8541666666666666
 40
0.875
 40
0.875
 40
0.875
 40
0.875
 40
0.8958333333333334
 40
0.8958333333333334
 40
0.8958333333333334
 40
0.8958333333333334
 40
0.9166666666666666
 40
0.9166666666666666
 40
0.9166666666666666
 40
0.9166666666666666
 40
0.9375
 40
0.9375
 40
0.9375
 40
0.9375
 40
0.9583333333333334
 40
0.9583333333333334
 40
0.9583333333333334
 40
0.9583333333333334
 40
1.0
 40
1.0
 40
1.0
 40
1.0
 10
85.8483
 20
-4.5229
 30
0.0
 10
85.8694
 20
-0.5296
 30
0.0
 10
87.3896
 20
1.2709
 30
0.0
 10
90.1479
 20
2.7373
 30
0.0
 10
90.1479
 20
2.7373
 30
0.0
 10
90.9294
 20
3.1528
 30
0.0
 10
91.7601
 20
3.6973
 30
0.0
 10
92.8968
 20
3.7241
 30
0.0
 10
92.8968
 20
3.7241
 30
0.0
 10
92.6589
 20
2.5562
 30
0.0
 10
91.8018
 20
1.4553
 30
0.0
 10
91.2757
 20
0.4818
 30
0.0
 10
91.2757
 20
0.4818
 30
0.0
 10
90.5342
 20
-0.8901
 30
0.0
 10
90.3168
 20
-2.3802
 30
0.0
 10
90.0069
 20
-4.1704
 30
0.0
 10
90.0069
 20
-4.1704
 30
0.0
 10
89.9599
 20
-4.7812
 30
0.0
 10
89.9128
 20
-5.3922
 30
0.0
 10
89.866
 20
-6.003
 30
0.0
 10
89.866
 20
-6.003
 30
0.0
 10
90.6177
 20
-6.8017
 30
0.0
 10
91.3696
 20
-7.6009
 30
0.0
 10
92.1215
 20
-8.3995
 30
0.0
 10
92.1215
 20
-8.3995
 30
0.0
 10
93.3435
 20
-9.9401
 30
0.0
 10
94.5491
 20
-11.7035
 30
0.0
 10
95.3638
 20
-13.6156
 30
0.0
 10
95.3638
 20
-13.6156
 30
0.0
 10
95.661
 20
-14.3124
 30
0.0
 10
96.5463
 20
-17.4777
 30
0.0
 10
96.7736
 20
-17.4922
 30
0.0
 10
96.7736
 20
-17.4922
 30
0.0
 10
97.605
 20
-16.4125
 30
0.0
 10
97.7072
 20
-14.9552
 30
0.0
 10
98.2539
 20
-13.5451
 30
0.0
 10
98.2539
 20
-13.5451
 30
0.0
 10
100.3507
 20
-8.1359
 30
0.0
 10
100.3467
 20
1.2186
 30
0.0
 10
97.549
 20
6.2617
 30
0.0
 10
97.549
 20
6.2617
 30
0.0
 10
96.336
 20
8.4479
 30
0.0
 10
94.443
 20
9.5079
 30
0.0
 10
92.1215
 20
10.6319
 30
0.0
 10
92.1215
 20
10.6319
 30
0.0
 10
92.4574
 20
11.3213
 30
0.0
 10
92.9142
 20
11.4112
 30
0.0
 10
93.6722
 20
11.689
 30
0.0
 10
93.6722
 20
11.689
 30
0.0
 10
96.5402
 20
12.7405
 30
0.0
 10
99.0699
 20
10.9559
 30
0.0
 10
100.5798
 20
9.7859
 30
0.0
 10
100.5798
 20
9.7859
 30
0.0
 10
100.6033
 20
9.7859
 30
0.0
 10
100.6268
 20
9.7859
 30
0.0
 10
100.6503
 20
9.7859
 30
0.0
 10
100.6503
 20
9.7859
 30
0.0
 10
101.0536
 20
11.7333
 30
0.0
 10
102.3639
 20
12.1163
 30
0.0
 10
103.5402
 20
13.2398
 30
0.0
 10
103.5402
 20
13.2398
 30
0.0
 10
103.3993
 20
13.3808
 30
0.0
 10
103.2583
 20
13.5217
 30
0.0
 10
103.1174
 20
13.6627
 30
0.0
 10
103.1174
 20
13.6627
 30
0.0
 10
102.4136
 20
15.1699
 30
0.0
 10
100.6511
 20
16.4758
 30
0.0
 10
99.3815
 20
17.4689
 30
0.0
 10
99.3815
 20
17.4689
 30
0.0
 10
93.681
 20
21.9286
 30
0.0
 10
88.1153
 20
22.7335
 30
0.0
 10
80.9847
 20
18.9492
 30
0.0
 10
80.9847
 20
18.9492
 30
0.0
 10
73.255
 20
14.8469
 30
0.0
 10
70.9986
 20
6.9202
 30
0.0
 10
71.046
 20
-4.6638
 30
0.0
 10
71.046
 20
-4.6638
 30
0.0
 10
73.2972
 20
-2.8461
 30
0.0
 10
75.072
 20
2.1296
 30
0.0
 10
76.3325
 20
4.9929
 30
0.0
 10
76.3325
 20
4.9929
 30
0.0
 10
76.7831
 20
6.0163
 30
0.0
 10
77.0469
 20
7.0425
 30
0.0
 10
77.8832
 20
7.6713
 30
0.0
 10
77.8832
 20
7.6713
 30
0.0
 10
77.9302
 20
7.6713
 30
0.0
 10
77.9773
 20
7.6713
 30
0.0
 10
78.0241
 20
7.6713
 30
0.0
 10
78.0241
 20
7.6713
 30
0.0
 10
78.0476
 20
7.6009
 30
0.0
 10
78.0712
 20
7.5303
 30
0.0
 10
78.0947
 20
7.4599
 30
0.0
 10
78.0947
 20
7.4599
 30
0.0
 10
79.2427
 20
5.2807
 30
0.0
 10
78.26
 20
1.1506
 30
0.0
 10
77.3898
 20
-0.5755
 30
0.0
 10
77.3898
 20
-0.5755
 30
0.0
 10
76.4995
 20
-2.3418
 30
0.0
 10
75.7535
 20
-4.044
 30
0.0
 10
74.6409
 20
-5.7915
 30
0.0
 10
74.6409
 20
-5.7915
 30
0.0
 10
74.0536
 20
-6.5199
 30
0.0
 10
73.466
 20
-7.2483
 30
0.0
 10
72.8787
 20
-7.9767
 30
0.0
 10
72.8787
 20
-7.9767
 30
0.0
 10
72.8317
 20
-8.7989
 30
0.0
 10
72.7846
 20
-9.6214
 30
0.0
 10
72.7378
 20
-10.4437
 30
0.0
 10
72.7378
 20
-10.4437
 30
0.0
 10
72.2381
 20
-13.5434
 30
0.0
 10
72.8056
 20
-19.6743
 30
0.0
 10
74.077
 20
-21.5099
 30
0.0
 10
74.077
 20
-21.5099
 30
0.0
 10
74.1005
 20
-21.5099
 30
0.0
 10
74.124
 20
-21.5099
 30
0.0
 10
74.1475
 20
-21.5099
 30
0.0
 10
74.1475
 20
-21.5099
 30
0.0
 10
75.1603
 20
-18.5853
 30
0.0
 10
80.8156
 20
-15.4252
 30
0.0
 10
85.0024
 20
-17.2809
 30
0.0
 10
85.0024
 20
-17.2809
 30
0.0
 10
87.7645
 20
-18.505
 30
0.0
 10
89.1564
 20
-21.1442
 30
0.0
 10
89.6545
 20
-24.6115
 30
0.0
 10
89.6545
 20
-24.6115
 30
0.0
 10
89.4636
 20
-24.742
 30
0.0
 10
89.3485
 20
-24.8192
 30
0.0
 10
89.2315
 20
-25.0343
 30
0.0
 10
89.2315
 20
-25.0343
 30
0.0
 10
88.9742
 20
-24.9596
 30
0.0
 10
89.0243
 20
-24.977
 30
0.0
 10
88.879
 20
-24.8228
 30
0.0
 10
88.879
 20
-24.8228
 30
0.0
 10
87.1763
 20
-23.9921
 30
0.0
 10
86.2104
 20
-22.3315
 30
0.0
 10
84.0155
 20
-21.792
 30
0.0
 10
84.0155
 20
-21.792
 30
0.0
 10
81.7083
 20
-21.2248
 30
0.0
 10
80.1125
 20
-22.6326
 30
0.0
 10
78.9405
 20
-23.4836
 30
0.0
 10
78.9405
 20
-23.4836
 30
0.0
 10
75.3425
 20
-26.0961
 30
0.0
 10
74.5608
 20
-32.5272
 30
0.0
 10
74.5703
 20
-38.7087
 30
0.0
 10
74.5703
 20
-38.7087
 30
0.0
 10
77.3079
 20
-38.4101
 30
0.0
 10
77.8751
 20
-35.8831
 30
0.0
 10
79.7159
 20
-34.7615
 30
0.0
 10
79.7159
 20
-34.7615
 30
0.0
 10
79.7394
 20
-34.7615
 30
0.0
 10
79.763
 20
-34.7615
 30
0.0
 10
79.7863
 20
-34.7615
 30
0.0
 10
79.7863
 20
-34.7615
 30
0.0
 10
79.6689
 20
-35.7952
 30
0.0
 10
79.5515
 20
-36.8291
 30
0.0
 10
79.4339
 20
-37.8629
 30
0.0
 10
79.4339
 20
-37.8629
 30
0.0
 10
83.6076
 20
-38.1008
 30
0.0
 10
84.7141
 20
-40.0974
 30
0.0
 10
85.9186
 20
-43.2904
 30
0.0
 10
85.9186
 20
-43.2904
 30
0.0
 10
85.9657
 20
-43.2433
 30
0.0
 10
86.0127
 20
-43.1963
 30
0.0
 10
86.0596
 20
-43.1494
 30
0.0
 10
86.0596
 20
-43.1494
 30
0.0
 10
87.4122
 20
-42.5482
 30
0.0
 10
88.1857
 20
-40.9831
 30
0.0
 10
89.0202
 20
-39.8366
 30
0.0
 10
89.0202
 20
-39.8366
 30
0.0
 10
93.4174
 20
-33.7938
 30
0.0
 10
95.5775
 20
-22.8064
 30
0.0
 10
91.2052
 20
-14.7433
 30
0.0
 10
91.2052
 20
-14.7433
 30
0.0
 10
89.7787
 20
-12.1129
 30
0.0
 10
86.8556
 20
-7.7625
 30
0.0
 10
82.1124
 20
-9.1043
 30
0.0
 10
82.1124
 20
-9.1043
 30
0.0
 10
80.0369
 20
-9.6916
 30
0.0
 10
78.9638
 20
-11.1726
 30
0.0
 10
77.3898
 20
-12.2059
 30
0.0
 10
77.3898
 20
-12.2059
 30
0.0
 10
76.8666
 20
-11.2994
 30
0.0
 10
77.3508
 20
-9.6006
 30
0.0
 10
77.6013
 20
-8.7519
 30
0.0
 10
77.6013
 20
-8.7519
 30
0.0
 10
78.8599
 20
-4.487
 30
0.0
 10
80.8418
 20
-4.1083
 30
0.0
 10
85.8483
 20
-4.5229
 30
0.0
  0
ENDSEC
  0
SECTION
  2
OBJECTS
  0
DICTIONARY
  5
C
330
0
100
AcDbDictionary
281
     1
  3
ACAD_GROUP
350
D
  3
ACAD_LAYOUT
350
1A
  3
ACAD_MATERIAL
350
3B
  3
ACAD_MLEADERSTYLE
350
BD
  3
ACAD_MLINESTYLE
350
17
  3
ACAD_PLOTSETTINGS
350
19
  3
ACAD_PLOTSTYLENAME
350
E
  3
ACAD_TABLESTYLE
350
BC
  3
ACAD_VISUALSTYLE
350
2A
  0
DICTIONARY
  5
D
102
{ACAD_REACTORS
330
C
102
}
330
C
100
AcDbDictionary
281
     1
  0
DICTIONARY
  5
1A
102
{ACAD_REACTORS
330
C
102
}
330
C
100
AcDbDictionary
281
     1
  3
Layout1
350
1E
  3
Layout2
350
26
  3
Model
350
22
  0
DICTIONARY
  5
3B
102
{ACAD_REACTORS
330
C
102
}
330
C
100
AcDbDictionary
281
     1
  3
ByBlock
350
3D
  3
ByLayer
350
3C
  3
Global
350
3E
  0
DICTIONARY
  5
BD
102
{ACAD_REACTORS
330
C
102
}
330
C
100
AcDbDictionary
281
     1
  0
DICTIONARY
  5
17
102
{ACAD_REACTORS
330
C
102
}
330
C
100
AcDbDictionary
281
     1
  3
Standard
350
18
  0
DICTIONARY
  5
19
102
{ACAD_REACTORS
330
C
102
}
330
C
100
AcDbDictionary
281
     1
  0
ACDBDICTIONARYWDFLT
  5
E
102
{ACAD_REACTORS
330
C
102
}
330
C
100
AcDbDictionary
281
     1
  3
Normal
350
F
100
AcDbDictionaryWithDefault
340
F
  0
DICTIONARY
  5
BC
102
{ACAD_REACTORS
330
C
102
}
330
C
100
AcDbDictionary
281
     1
  0
DICTIONARY
  5
2A
102
{ACAD_REACTORS
330
C
102
}
330
C
100
AcDbDictionary
281
     1
  3
2dWireframe
350
2F
  3
3D Hidden
350
31
  3
3dWireframe
350
30
  3
Basic
350
32
  3
Brighten
350
36
  3
ColorChange
350
3A
  3
Conceptual
350
34
  3
Dim
350
35
  3
Facepattern
350
39
  3
Flat
350
2B
  3
FlatWithEdges
350
2C
  3
Gouraud
350
2D
  3
GouraudWithEdges
350
2E
  3
Linepattern
350
38
  3
Realistic
350
33
  3
Thicken
350
37
  0
LAYOUT
  5
1E
102
{ACAD_REACTORS
330
1A
102
}
330
1A
100
AcDbPlotSettings
  1

  2
none_device
  4

  6

 40
0.0
 41
0.0
 42
0.0
 43
0.0
 44
0.0
 45
0.0
 46
0.0
 47
0.0
 48
0.0
 49
0.0
140
0.0
141
0.0
142
1.0
143
1.0
 70
   688
 72
     0
 73
     0
 74
     5
  7

 75
    16
 76
     0
 77
     2
 78
   300
147
1.0
148
0.0
149
0.0
100
AcDbLayout
  1
Layout1
 70
     1
 71
     1
 10
0.0
 20
0.0
 11
12.0
 21
9.0
 12
0.0
 22
0.0
 32
0.0
 14
1.000000000000000E+20
 24
1.000000000000000E+20
 34
1.000000000000000E+20
 15
-1.000000000000000E+20
 25
-1.000000000000000E+20
 35
-1.000000000000000E+20
146
0.0
 13
0.0
 23
0.0
 33
0.0
 16
1.0
 26
0.0
 36
0.0
 17
0.0
 27
1.0
 37
0.0
 76
     0
330
1B
  0
LAYOUT
  5
26
102
{ACAD_REACTORS
330
1A
102
}
330
1A
100
AcDbPlotSettings
  1

  2
none_device
  4

  6

 40
0.0
 41
0.0
 42
0.0
 43
0.0
 44
0.0
 45
0.0
 46
0.0
 47
0.0
 48
0.0
 49
0.0
140
0.0
141
0.0
142
1.0
143
1.0
 70
   688
 72
     0
 73
     0
 74
     5
  7

 75
    16
 76
     0
 77
     2
 78
   300
147
1.0
148
0.0
149
0.0
100
AcDbLayout
  1
Layout2
 70
     1
 71
     2
 10
0.0
 20
0.0
 11
0.0
 21
0.0
 12
0.0
 22
0.0
 32
0.0
 14
0.0
 24
0.0
 34
0.0
 15
0.0
 25
0.0
 35
0.0
146
0.0
 13
0.0
 23
0.0
 33
0.0
 16
1.0
 26
0.0
 36
0.0
 17
0.0
 27
1.0
 37
0.0
 76
     0
330
23
  0
LAYOUT
  5
22
102
{ACAD_REACTORS
330
1A
102
}
330
1A
100
AcDbPlotSettings
  1

  2
none_device
  4

  6

 40
0.0
 41
0.0
 42
0.0
 43
0.0
 44
0.0
 45
0.0
 46
0.0
 47
0.0
 48
0.0
 49
0.0
140
0.0
141
0.0
142
1.0
143
1.0
 70
  1712
 72
     0
 73
     0
 74
     0
  7

 75
     0
 76
     0
 77
     2
 78
   300
147
1.0
148
0.0
149
0.0
100
AcDbLayout
  1
Model
 70
     1
 71
     0
 10
0.0
 20
0.0
 11
12.0
 21
9.0
 12
0.0
 22
0.0
 32
0.0
 14
66.1063
 24
-114.8909
 34
0.0
 15
196.0129
 25
131.741
 35
0.0
146
0.0
 13
0.0
 23
0.0
 33
0.0
 16
1.0
 26
0.0
 36
0.0
 17
0.0
 27
1.0
 37
0.0
 76
     0
330
1F
331
29
  0
MATERIAL
  5
3D
102
{ACAD_REACTORS
330
3B
102
}
330
3B
100
AcDbMaterial
  1
ByBlock
 72
     1
 94
      127
  0
MATERIAL
  5
3C
102
{ACAD_REACTORS
330
3B
102
}
330
3B
100
AcDbMaterial
  1
ByLayer
 72
     1
 94
      127
  0
MATERIAL
  5
3E
102
{ACAD_REACTORS
330
3B
102
}
330
3B
100
AcDbMaterial
  1
Global
 72
     1
 94
      127
  0
MLINESTYLE
  5
18
102
{ACAD_REACTORS
330
17
102
}
330
17
100
AcDbMlineStyle
  2
Standard
 70
     0
  3

 62
   256
 51
90.0
 52
90.0
 71
     2
 49
0.5
 62
   256
  6
BYLAYER
 49
-0.5
 62
   256
  6
BYLAYER
  0
ACDBPLACEHOLDER
  5
F
102
{ACAD_REACTORS
330
E
102
}
330
E
  0
VISUALSTYLE
  5
2F
102
{ACAD_REACTORS
330
2A
102
}
102
{ACAD_XDICTIONARY
360
A4
102
}
330
2A
100
AcDbVisualStyle
  2
2dWireframe
 70
     4
 71
     0
 72
     2
 73
     0
 90
        0
 40
-0.6
 41
-30.0
 62
     5
 63
     7
421
 16777215
 74
     1
 91
        4
 64
     7
 65
   257
 75
     1
175
     1
 42
1.0
 92
        0
 66
   257
 43
1.0
 76
     1
 77
     6
 78
     2
 67
     7
 79
     5
170
     0
171
     0
290
     0
174
     0
 93
        1
 44
0.0
173
     0
291
     0
 45
0.0
  0
VISUALSTYLE
  5
31
102
{ACAD_REACTORS
330
2A
102
}
102
{ACAD_XDICTIONARY
360
A8
102
}
330
2A
100
AcDbVisualStyle
  2
3D Hidden
 70
     6
 71
     1
 72
     2
 73
     2
 90
        0
 40
-0.6
 41
-30.0
 62
     5
 63
     7
421
 16777215
 74
     2
 91
        2
 64
     7
 65
   257
 75
     2
175
     1
 42
40.0
 92
        0
 66
   257
 43
1.0
 76
     1
 77
     6
 78
     2
 67
     7
 79
     3
170
     0
171
     0
290
     0
174
     0
 93
        1
 44
0.0
173
     0
291
     0
 45
0.0
  0
VISUALSTYLE
  5
30
102
{ACAD_REACTORS
330
2A
102
}
102
{ACAD_XDICTIONARY
360
A6
102
}
330
2A
100
AcDbVisualStyle
  2
3dWireframe
 70
     5
 71
     0
 72
     2
 73
     0
 90
        0
 40
-0.6
 41
-30.0
 62
     5
 63
     7
421
 16777215
 74
     1
 91
        4
 64
     7
 65
   257
 75
     1
175
     1
 42
1.0
 92
        0
 66
   257
 43
1.0
 76
     1
 77
     6
 78
     2
 67
     7
 79
     5
170
     0
171
     0
290
     0
174
     0
 93
        1
 44
0.0
173
     0
291
     0
 45
0.0
  0
VISUALSTYLE
  5
32
102
{ACAD_REACTORS
330
2A
102
}
102
{ACAD_XDICTIONARY
360
AA
102
}
330
2A
100
AcDbVisualStyle
  2
Basic
 70
     7
 71
     1
 72
     0
 73
     1
 90
        0
 40
-0.6
 41
-30.0
 62
     5
 63
     7
421
 16777215
 74
     0
 91
        4
 64
     7
 65
   257
 75
     1
175
     1
 42
1.0
 92
        8
 66
     7
 43
1.0
 76
     1
 77
     6
 78
     2
 67
     7
 79
     5
170
     0
171
     0
290
     0
174
     0
 93
        1
 44
0.0
173
     0
291
     1
 45
0.0
  0
VISUALSTYLE
  5
36
102
{ACAD_REACTORS
330
2A
102
}
102
{ACAD_XDICTIONARY
360
B2
102
}
330
2A
100
AcDbVisualStyle
  2
Brighten
 70
    12
 71
     2
 72
     2
 73
     0
 90
        0
 40
-0.6
 41
-30.0
 62
     5
 63
     7
421
 16777215
 74
     1
 91
        4
 64
     7
 65
   257
 75
     1
175
     1
 42
1.0
 92
        8
 66
     7
 43
1.0
 76
     1
 77
     6
 78
     2
 67
     7
 79
     5
170
     0
171
     0
290
     0
174
     0
 93
        1
 44
50.0
173
     0
291
     1
 45
0.0
  0
VISUALSTYLE
  5
3A
102
{ACAD_REACTORS
330
2A
102
}
102
{ACAD_XDICTIONARY
360
BA
102
}
330
2A
100
AcDbVisualStyle
  2
ColorChange
 70
    16
 71
     2
 72
     2
 73
     3
 90
        0
 40
-0.6
 41
-30.0
 62
     5
 63
     8
421
  8421504
 74
     1
 91
        4
 64
     7
 65
   257
 75
     1
175
     1
 42
1.0
 92
        8
 66
     8
424
  8421504
 43
1.0
 76
     1
 77
     6
 78
     2
 67
     7
 79
     5
170
     0
171
     0
290
     0
174
     0
 93
        1
 44
0.0
173
     0
291
     1
 45
0.0
  0
VISUALSTYLE
  5
34
102
{ACAD_REACTORS
330
2A
102
}
102
{ACAD_XDICTIONARY
360
AE
102
}
330
2A
100
AcDbVisualStyle
  2
Conceptual
 70
     9
 71
     3
 72
     2
 73
     0
 90
        0
 40
-0.6
 41
-30.0
 62
     5
 63
     7
421
 16777215
 74
     2
 91
        2
 64
     7
 65
   257
 75
     1
175
     1
 42
40.0
 92
        8
 66
     7
 43
1.0
 76
     1
 77
     6
 78
     2
 67
     7
 79
     3
170
     0
171
     0
290
     0
174
     0
 93
        1
 44
0.0
173
     0
291
     0
 45
0.0
  0
VISUALSTYLE
  5
35
102
{ACAD_REACTORS
330
2A
102
}
102
{ACAD_XDICTIONARY
360
B0
102
}
330
2A
100
AcDbVisualStyle
  2
Dim
 70
    11
 71
     2
 72
     2
 73
     0
 90
        0
 40
-0.6
 41
-30.0
 62
     5
 63
     7
421
 16777215
 74
     1
 91
        4
 64
     7
 65
   257
 75
     1
175
     1
 42
1.0
 92
        8
 66
     7
 43
1.0
 76
     1
 77
     6
 78
     2
 67
     7
 79
     5
170
     0
171
     0
290
     0
174
     0
 93
        1
 44
-50.0
173
     0
291
     1
 45
0.0
  0
VISUALSTYLE
  5
39
102
{ACAD_REACTORS
330
2A
102
}
102
{ACAD_XDICTIONARY
360
B8
102
}
330
2A
100
AcDbVisualStyle
  2
Facepattern
 70
    15
 71
     2
 72
     2
 73
     0
 90
        0
 40
-0.6
 41
-30.0
 62
     5
 63
     7
421
 16777215
 74
     1
 91
        4
 64
     7
 65
   257
 75
     1
175
     1
 42
1.0
 92
        8
 66
     7
 43
1.0
 76
     1
 77
     6
 78
     2
 67
     7
 79
     5
170
     0
171
     0
290
     0
174
     0
 93
        1
 44
0.0
173
     0
291
     1
 45
0.0
  0
VISUALSTYLE
  5
2B
102
{ACAD_REACTORS
330
2A
102
}
102
{ACAD_XDICTIONARY
360
9C
102
}
330
2A
100
AcDbVisualStyle
  2
Flat
 70
     0
 71
     2
 72
     1
 73
     1
 90
        2
 40
-0.6
 41
30.0
 62
     5
 63
     7
421
 16777215
 74
     0
 91
        4
 64
     7
 65
   257
 75
     1
175
     1
 42
1.0
 92
        8
 66
     7
 43
1.0
 76
     1
 77
     6
 78
     2
 67
     7
 79
     5
170
     0
171
     0
290
     0
174
     0
 93
       13
 44
0.0
173
     0
291
     1
 45
0.0
  0
VISUALSTYLE
  5
2C
102
{ACAD_REACTORS
330
2A
102
}
102
{ACAD_XDICTIONARY
360
9E
102
}
330
2A
100
AcDbVisualStyle
  2
FlatWithEdges
 70
     1
 71
     2
 72
     1
 73
     1
 90
        2
 40
-0.6
 41
30.0
 62
     5
 63
     7
421
 16777215
 74
     1
 91
        4
 64
     7
 65
   257
 75
     1
175
     1
 42
1.0
 92
        0
 66
   257
 43
1.0
 76
     1
 77
     6
 78
     2
 67
     7
 79
     5
170
     0
171
     0
290
     0
174
     0
 93
       13
 44
0.0
173
     0
291
     1
 45
0.0
  0
VISUALSTYLE
  5
2D
102
{ACAD_REACTORS
330
2A
102
}
102
{ACAD_XDICTIONARY
360
A0
102
}
330
2A
100
AcDbVisualStyle
  2
Gouraud
 70
     2
 71
     2
 72
     2
 73
     1
 90
        2
 40
-0.6
 41
30.0
 62
     5
 63
     7
421
 16777215
 74
     0
 91
        4
 64
     7
 65
   257
 75
     1
175
     1
 42
1.0
 92
        0
 66
     7
 43
1.0
 76
     1
 77
     6
 78
     2
 67
     7
 79
     5
170
     0
171
     0
290
     0
174
     0
 93
       13
 44
0.0
173
     0
291
     1
 45
0.0
  0
VISUALSTYLE
  5
2E
102
{ACAD_REACTORS
330
2A
102
}
102
{ACAD_XDICTIONARY
360
A2
102
}
330
2A
100
AcDbVisualStyle
  2
GouraudWithEdges
 70
     3
 71
     2
 72
     2
 73
     1
 90
        2
 40
-0.6
 41
30.0
 62
     5
 63
     7
421
 16777215
 74
     1
 91
        4
 64
     7
 65
   257
 75
     1
175
     1
 42
1.0
 92
        0
 66
   257
 43
1.0
 76
     1
 77
     6
 78
     2
 67
     7
 79
     5
170
     0
171
     0
290
     0
174
     0
 93
       13
 44
0.0
173
     0
291
     1
 45
0.0
  0
VISUALSTYLE
  5
38
102
{ACAD_REACTORS
330
2A
102
}
102
{ACAD_XDICTIONARY
360
B6
102
}
330
2A
100
AcDbVisualStyle
  2
Linepattern
 70
    14
 71
     2
 72
     2
 73
     0
 90
        0
 40
-0.6
 41
-30.0
 62
     5
 63
     7
421
 16777215
 74
     1
 91
        4
 64
     7
 65
   257
 75
     7
175
     7
 42
1.0
 92
        8
 66
     7
 43
1.0
 76
     1
 77
     6
 78
     2
 67
     7
 79
     5
170
     0
171
     0
290
     0
174
     0
 93
        1
 44
0.0
173
     0
291
     1
 45
0.0
  0
VISUALSTYLE
  5
33
102
{ACAD_REACTORS
330
2A
102
}
102
{ACAD_XDICTIONARY
360
AC
102
}
330
2A
100
AcDbVisualStyle
  2
Realistic
 70
     8
 71
     2
 72
     2
 73
     0
 90
        0
 40
-0.6
 41
-30.0
 62
     5
 63
     7
421
 16777215
 74
     1
 91
        0
 64
     7
 65
   257
 75
     1
175
     1
 42
1.0
 92
        8
 66
     8
424
  7895160
 43
1.0
 76
     1
 77
     6
 78
     2
 67
     7
 79
     5
170
     0
171
     0
290
     0
174
     0
 93
       13
 44
0.0
173
     0
291
     0
 45
0.0
  0
VISUALSTYLE
  5
37
102
{ACAD_REACTORS
330
2A
102
}
102
{ACAD_XDICTIONARY
360
B4
102
}
330
2A
100
AcDbVisualStyle
  2
Thicken
 70
    13
 71
     2
 72
     2
 73
     0
 90
        0
 40
-0.6
 41
-30.0
 62
     5
 63
     7
421
 16777215
 74
     1
 91
        4
 64
     7
 65
   257
 75
     1
175
     1
 42
1.0
 92
       12
 66
     7
 43
1.0
 76
     1
 77
     6
 78
     2
 67
     7
 79
     5
170
     0
171
     0
290
     0
174
     0
 93
        1
 44
0.0
173
     0
291
     1
 45
0.0
  0
DICTIONARY
  5
A4
330
2F
100
AcDbDictionary
280
     1
281
     1
  3
ACAD_XREC_ROUNDTRIP
360
A5
  0
DICTIONARY
  5
A8
330
31
100
AcDbDictionary
280
     1
281
     1
  3
ACAD_XREC_ROUNDTRIP
360
A9
  0
DICTIONARY
  5
A6
330
30
100
AcDbDictionary
280
     1
281
     1
  3
ACAD_XREC_ROUNDTRIP
360
A7
  0
DICTIONARY
  5
AA
330
32
100
AcDbDictionary
280
     1
281
     1
  3
ACAD_XREC_ROUNDTRIP
360
AB
  0
DICTIONARY
  5
B2
330
36
100
AcDbDictionary
280
     1
281
     1
  3
ACAD_XREC_ROUNDTRIP
360
B3
  0
DICTIONARY
  5
BA
330
3A
100
AcDbDictionary
280
     1
281
     1
  3
ACAD_XREC_ROUNDTRIP
360
BB
  0
DICTIONARY
  5
AE
330
34
100
AcDbDictionary
280
     1
281
     1
  3
ACAD_XREC_ROUNDTRIP
360
AF
  0
DICTIONARY
  5
B0
330
35
100
AcDbDictionary
280
     1
281
     1
  3
ACAD_XREC_ROUNDTRIP
360
B1
  0
DICTIONARY
  5
B8
330
39
100
AcDbDictionary
280
     1
281
     1
  3
ACAD_XREC_ROUNDTRIP
360
B9
  0
DICTIONARY
  5
9C
330
2B
100
AcDbDictionary
280
     1
281
     1
  3
ACAD_XREC_ROUNDTRIP
360
9D
  0
DICTIONARY
  5
9E
330
2C
100
AcDbDictionary
280
     1
281
     1
  3
ACAD_XREC_ROUNDTRIP
360
9F
  0
DICTIONARY
  5
A0
330
2D
100
AcDbDictionary
280
     1
281
     1
  3
ACAD_XREC_ROUNDTRIP
360
A1
  0
DICTIONARY
  5
A2
330
2E
100
AcDbDictionary
280
     1
281
     1
  3
ACAD_XREC_ROUNDTRIP
360
A3
  0
DICTIONARY
  5
B6
330
38
100
AcDbDictionary
280
     1
281
     1
  3
ACAD_XREC_ROUNDTRIP
360
B7
  0
DICTIONARY
  5
AC
330
33
100
AcDbDictionary
280
     1
281
     1
  3
ACAD_XREC_ROUNDTRIP
360
AD
  0
DICTIONARY
  5
B4
330
37
100
AcDbDictionary
280
     1
281
     1
  3
ACAD_XREC_ROUNDTRIP
360
B5
  0
XRECORD
  5
A5
102
{ACAD_REACTORS
330
A4
102
}
330
A4
100
AcDbXrecord
280
     1
102
RTVSPropertyOp0
 70
     1
102
RTVSPropertyOp1
 70
     1
102
RTVSPropertyOp2
 70
     1
102
RTVSPropertyOp3
 70
     1
102
RTVSPropertyOp4
 70
     1
102
RTVSPropertyOp5
 70
     1
102
RTVSPropertyOp6
 70
     1
102
RTVSPropertyOp7
 70
     1
102
RTVSPropertyOp8
 70
     1
102
RTVSPropertyOp9
 70
     1
102
RTVSPropertyOp10
 70
     1
102
RTVSPropertyOp11
 70
     1
102
RTVSPropertyOp12
 70
     1
102
RTVSPropertyOp13
 70
     1
102
RTVSPropertyOp14
 70
     1
102
RTVSPropertyOp15
 70
     1
102
RTVSPropertyOp16
 70
     1
102
RTVSPropertyOp17
 70
     1
102
RTVSPropertyOp18
 70
     1
102
RTVSPropertyOp19
 70
     1
102
RTVSPropertyOp20
 70
     1
102
RTVSPropertyOp21
 70
     1
102
RTVSPropertyOp22
 70
     1
102
RTVSPropertyOp23
 70
     1
102
RTVSPropertyOp24
 70
     1
102
RTVSPropertyOp25
 70
     1
102
RTVSPropertyOp26
 70
     1
102
RTVSPropertyOp27
 70
     1
102
RTVSPropertyOp28
 70
     1
102
RTVSPropertyOp29
 70
     1
102
RTVSPropertyOp30
 70
     1
102
RTVSPropertyOp31
 70
     1
102
RTVSPropertyOp32
 70
     1
  0
XRECORD
  5
A9
102
{ACAD_REACTORS
330
A8
102
}
330
A8
100
AcDbXrecord
280
     1
102
RTVSPropertyOp0
 70
     1
102
RTVSPropertyOp1
 70
     1
102
RTVSPropertyOp2
 70
     1
102
RTVSPropertyOp3
 70
     1
102
RTVSPropertyOp4
 70
     1
102
RTVSPropertyOp5
 70
     1
102
RTVSPropertyOp6
 70
     1
102
RTVSPropertyOp7
 70
     1
102
RTVSPropertyOp8
 70
     1
102
RTVSPropertyOp9
 70
     1
102
RTVSPropertyOp10
 70
     1
102
RTVSPropertyOp11
 70
     1
102
RTVSPropertyOp12
 70
     1
102
RTVSPropertyOp13
 70
     1
102
RTVSPropertyOp14
 70
     1
102
RTVSPropertyOp15
 70
     1
102
RTVSPropertyOp16
 70
     1
102
RTVSPropertyOp17
 70
     1
102
RTVSPropertyOp18
 70
     1
102
RTVSPropertyOp19
 70
     1
102
RTVSPropertyOp20
 70
     1
102
RTVSPropertyOp21
 70
     1
102
RTVSPropertyOp22
 70
     1
102
RTVSPropertyOp23
 70
     1
102
RTVSPropertyOp24
 70
     1
102
RTVSPropertyOp25
 70
     1
102
RTVSPropertyOp26
 70
     1
102
RTVSPropertyOp27
 70
     1
102
RTVSPropertyOp28
 70
     1
102
RTVSPropertyOp29
 70
     1
102
RTVSPropertyOp30
 70
     1
102
RTVSPropertyOp31
 70
     1
102
RTVSPropertyOp32
 70
     1
  0
XRECORD
  5
A7
102
{ACAD_REACTORS
330
A6
102
}
330
A6
100
AcDbXrecord
280
     1
102
RTVSPropertyOp0
 70
     1
102
RTVSPropertyOp1
 70
     1
102
RTVSPropertyOp2
 70
     1
102
RTVSPropertyOp3
 70
     1
102
RTVSPropertyOp4
 70
     1
102
RTVSPropertyOp5
 70
     1
102
RTVSPropertyOp6
 70
     1
102
RTVSPropertyOp7
 70
     1
102
RTVSPropertyOp8
 70
     1
102
RTVSPropertyOp9
 70
     1
102
RTVSPropertyOp10
 70
     1
102
RTVSPropertyOp11
 70
     1
102
RTVSPropertyOp12
 70
     1
102
RTVSPropertyOp13
 70
     1
102
RTVSPropertyOp14
 70
     1
102
RTVSPropertyOp15
 70
     1
102
RTVSPropertyOp16
 70
     1
102
RTVSPropertyOp17
 70
     1
102
RTVSPropertyOp18
 70
     1
102
RTVSPropertyOp19
 70
     1
102
RTVSPropertyOp20
 70
     1
102
RTVSPropertyOp21
 70
     1
102
RTVSPropertyOp22
 70
     1
102
RTVSPropertyOp23
 70
     1
102
RTVSPropertyOp24
 70
     1
102
RTVSPropertyOp25
 70
     1
102
RTVSPropertyOp26
 70
     1
102
RTVSPropertyOp27
 70
     1
102
RTVSPropertyOp28
 70
     1
102
RTVSPropertyOp29
 70
     1
102
RTVSPropertyOp30
 70
     1
102
RTVSPropertyOp31
 70
     1
102
RTVSPropertyOp32
 70
     1
  0
XRECORD
  5
AB
102
{ACAD_REACTORS
330
AA
102
}
330
AA
100
AcDbXrecord
280
     1
102
RTVSPropertyOp0
 70
     1
102
RTVSPropertyOp1
 70
     1
102
RTVSPropertyOp2
 70
     1
102
RTVSPropertyOp3
 70
     1
102
RTVSPropertyOp4
 70
     1
102
RTVSPropertyOp5
 70
     1
102
RTVSPropertyOp6
 70
     1
102
RTVSPropertyOp7
 70
     1
102
RTVSPropertyOp8
 70
     1
102
RTVSPropertyOp9
 70
     1
102
RTVSPropertyOp10
 70
     1
102
RTVSPropertyOp11
 70
     1
102
RTVSPropertyOp12
 70
     1
102
RTVSPropertyOp13
 70
     1
102
RTVSPropertyOp14
 70
     1
102
RTVSPropertyOp15
 70
     1
102
RTVSPropertyOp16
 70
     1
102
RTVSPropertyOp17
 70
     1
102
RTVSPropertyOp18
 70
     1
102
RTVSPropertyOp19
 70
     1
102
RTVSPropertyOp20
 70
     1
102
RTVSPropertyOp21
 70
     1
102
RTVSPropertyOp22
 70
     1
102
RTVSPropertyOp23
 70
     1
102
RTVSPropertyOp24
 70
     1
102
RTVSPropertyOp25
 70
     1
102
RTVSPropertyOp26
 70
     1
102
RTVSPropertyOp27
 70
     1
102
RTVSPropertyOp28
 70
     1
102
RTVSPropertyOp29
 70
     1
102
RTVSPropertyOp30
 70
     1
102
RTVSPropertyOp31
 70
     1
102
RTVSPropertyOp32
 70
     1
  0
XRECORD
  5
B3
102
{ACAD_REACTORS
330
B2
102
}
330
B2
100
AcDbXrecord
280
     1
102
RTVSPropertyOp0
 70
     1
102
RTVSPropertyOp1
 70
     1
102
RTVSPropertyOp2
 70
     1
102
RTVSPropertyOp3
 70
     1
102
RTVSPropertyOp4
 70
     1
102
RTVSPropertyOp5
 70
     1
102
RTVSPropertyOp6
 70
     1
102
RTVSPropertyOp7
 70
     1
102
RTVSPropertyOp8
 70
     1
102
RTVSPropertyOp9
 70
     1
102
RTVSPropertyOp10
 70
     1
102
RTVSPropertyOp11
 70
     1
102
RTVSPropertyOp12
 70
     1
102
RTVSPropertyOp13
 70
     1
102
RTVSPropertyOp14
 70
     1
102
RTVSPropertyOp15
 70
     1
102
RTVSPropertyOp16
 70
     1
102
RTVSPropertyOp17
 70
     1
102
RTVSPropertyOp18
 70
     1
102
RTVSPropertyOp19
 70
     1
102
RTVSPropertyOp20
 70
     1
102
RTVSPropertyOp21
 70
     1
102
RTVSPropertyOp22
 70
     1
102
RTVSPropertyOp23
 70
     1
102
RTVSPropertyOp24
 70
     1
102
RTVSPropertyOp25
 70
     1
102
RTVSPropertyOp26
 70
     1
102
RTVSPropertyOp27
 70
     1
102
RTVSPropertyOp28
 70
     1
102
RTVSPropertyOp29
 70
     1
102
RTVSPropertyOp30
 70
     1
102
RTVSPropertyOp31
 70
     1
102
RTVSPropertyOp32
 70
     1
  0
XRECORD
  5
BB
102
{ACAD_REACTORS
330
BA
102
}
330
BA
100
AcDbXrecord
280
     1
102
RTVSPropertyOp0
 70
     1
102
RTVSPropertyOp1
 70
     1
102
RTVSPropertyOp2
 70
     1
102
RTVSPropertyOp3
 70
     1
102
RTVSPropertyOp4
 70
     1
102
RTVSPropertyOp5
 70
     1
102
RTVSPropertyOp6
 70
     1
102
RTVSPropertyOp7
 70
     1
102
RTVSPropertyOp8
 70
     1
102
RTVSPropertyOp9
 70
     1
102
RTVSPropertyOp10
 70
     1
102
RTVSPropertyOp11
 70
     1
102
RTVSPropertyOp12
 70
     1
102
RTVSPropertyOp13
 70
     1
102
RTVSPropertyOp14
 70
     1
102
RTVSPropertyOp15
 70
     1
102
RTVSPropertyOp16
 70
     1
102
RTVSPropertyOp17
 70
     1
102
RTVSPropertyOp18
 70
     1
102
RTVSPropertyOp19
 70
     1
102
RTVSPropertyOp20
 70
     1
102
RTVSPropertyOp21
 70
     1
102
RTVSPropertyOp22
 70
     1
102
RTVSPropertyOp23
 70
     1
102
RTVSPropertyOp24
 70
     1
102
RTVSPropertyOp25
 70
     1
102
RTVSPropertyOp26
 70
     1
102
RTVSPropertyOp27
 70
     1
102
RTVSPropertyOp28
 70
     1
102
RTVSPropertyOp29
 70
     1
102
RTVSPropertyOp30
 70
     1
102
RTVSPropertyOp31
 70
     1
102
RTVSPropertyOp32
 70
     1
  0
XRECORD
  5
AF
102
{ACAD_REACTORS
330
AE
102
}
330
AE
100
AcDbXrecord
280
     1
102
RTVSPropertyOp0
 70
     1
102
RTVSPropertyOp1
 70
     1
102
RTVSPropertyOp2
 70
     1
102
RTVSPropertyOp3
 70
     1
102
RTVSPropertyOp4
 70
     1
102
RTVSPropertyOp5
 70
     1
102
RTVSPropertyOp6
 70
     1
102
RTVSPropertyOp7
 70
     1
102
RTVSPropertyOp8
 70
     1
102
RTVSPropertyOp9
 70
     1
102
RTVSPropertyOp10
 70
     1
102
RTVSPropertyOp11
 70
     1
102
RTVSPropertyOp12
 70
     1
102
RTVSPropertyOp13
 70
     1
102
RTVSPropertyOp14
 70
     1
102
RTVSPropertyOp15
 70
     1
102
RTVSPropertyOp16
 70
     1
102
RTVSPropertyOp17
 70
     1
102
RTVSPropertyOp18
 70
     1
102
RTVSPropertyOp19
 70
     1
102
RTVSPropertyOp20
 70
     1
102
RTVSPropertyOp21
 70
     1
102
RTVSPropertyOp22
 70
     1
102
RTVSPropertyOp23
 70
     1
102
RTVSPropertyOp24
 70
     1
102
RTVSPropertyOp25
 70
     1
102
RTVSPropertyOp26
 70
     1
102
RTVSPropertyOp27
 70
     1
102
RTVSPropertyOp28
 70
     1
102
RTVSPropertyOp29
 70
     1
102
RTVSPropertyOp30
 70
     1
102
RTVSPropertyOp31
 70
     1
102
RTVSPropertyOp32
 70
     1
  0
XRECORD
  5
B1
102
{ACAD_REACTORS
330
B0
102
}
330
B0
100
AcDbXrecord
280
     1
102
RTVSPropertyOp0
 70
     1
102
RTVSPropertyOp1
 70
     1
102
RTVSPropertyOp2
 70
     1
102
RTVSPropertyOp3
 70
     1
102
RTVSPropertyOp4
 70
     1
102
RTVSPropertyOp5
 70
     1
102
RTVSPropertyOp6
 70
     1
102
RTVSPropertyOp7
 70
     1
102
RTVSPropertyOp8
 70
     1
102
RTVSPropertyOp9
 70
     1
102
RTVSPropertyOp10
 70
     1
102
RTVSPropertyOp11
 70
     1
102
RTVSPropertyOp12
 70
     1
102
RTVSPropertyOp13
 70
     1
102
RTVSPropertyOp14
 70
     1
102
RTVSPropertyOp15
 70
     1
102
RTVSPropertyOp16
 70
     1
102
RTVSPropertyOp17
 70
     1
102
RTVSPropertyOp18
 70
     1
102
RTVSPropertyOp19
 70
     1
102
RTVSPropertyOp20
 70
     1
102
RTVSPropertyOp21
 70
     1
102
RTVSPropertyOp22
 70
     1
102
RTVSPropertyOp23
 70
     1
102
RTVSPropertyOp24
 70
     1
102
RTVSPropertyOp25
 70
     1
102
RTVSPropertyOp26
 70
     1
102
RTVSPropertyOp27
 70
     1
102
RTVSPropertyOp28
 70
     1
102
RTVSPropertyOp29
 70
     1
102
RTVSPropertyOp30
 70
     1
102
RTVSPropertyOp31
 70
     1
102
RTVSPropertyOp32
 70
     1
  0
XRECORD
  5
B9
102
{ACAD_REACTORS
330
B8
102
}
330
B8
100
AcDbXrecord
280
     1
102
RTVSPropertyOp0
 70
     1
102
RTVSPropertyOp1
 70
     1
102
RTVSPropertyOp2
 70
     1
102
RTVSPropertyOp3
 70
     1
102
RTVSPropertyOp4
 70
     1
102
RTVSPropertyOp5
 70
     1
102
RTVSPropertyOp6
 70
     1
102
RTVSPropertyOp7
 70
     1
102
RTVSPropertyOp8
 70
     1
102
RTVSPropertyOp9
 70
     1
102
RTVSPropertyOp10
 70
     1
102
RTVSPropertyOp11
 70
     1
102
RTVSPropertyOp12
 70
     1
102
RTVSPropertyOp13
 70
     1
102
RTVSPropertyOp14
 70
     1
102
RTVSPropertyOp15
 70
     1
102
RTVSPropertyOp16
 70
     1
102
RTVSPropertyOp17
 70
     1
102
RTVSPropertyOp18
 70
     1
102
RTVSPropertyOp19
 70
     1
102
RTVSPropertyOp20
 70
     1
102
RTVSPropertyOp21
 70
     1
102
RTVSPropertyOp22
 70
     1
102
RTVSPropertyOp23
 70
     1
102
RTVSPropertyOp24
 70
     1
102
RTVSPropertyOp25
 70
     1
102
RTVSPropertyOp26
 70
     1
102
RTVSPropertyOp27
 70
     1
102
RTVSPropertyOp28
 70
     1
102
RTVSPropertyOp29
 70
     1
102
RTVSPropertyOp30
 70
     1
102
RTVSPropertyOp31
 70
     1
102
RTVSPropertyOp32
 70
     1
  0
XRECORD
  5
9D
102
{ACAD_REACTORS
330
9C
102
}
330
9C
100
AcDbXrecord
280
     1
102
RTVSPropertyOp0
 70
     1
102
RTVSPropertyOp1
 70
     1
102
RTVSPropertyOp2
 70
     1
102
RTVSPropertyOp3
 70
     1
102
RTVSPropertyOp4
 70
     1
102
RTVSPropertyOp5
 70
     1
102
RTVSPropertyOp6
 70
     1
102
RTVSPropertyOp7
 70
     1
102
RTVSPropertyOp8
 70
     1
102
RTVSPropertyOp9
 70
     1
102
RTVSPropertyOp10
 70
     1
102
RTVSPropertyOp11
 70
     1
102
RTVSPropertyOp12
 70
     1
102
RTVSPropertyOp13
 70
     1
102
RTVSPropertyOp14
 70
     1
102
RTVSPropertyOp15
 70
     1
102
RTVSPropertyOp16
 70
     1
102
RTVSPropertyOp17
 70
     1
102
RTVSPropertyOp18
 70
     1
102
RTVSPropertyOp19
 70
     1
102
RTVSPropertyOp20
 70
     1
102
RTVSPropertyOp21
 70
     1
102
RTVSPropertyOp22
 70
     1
102
RTVSPropertyOp23
 70
     1
102
RTVSPropertyOp24
 70
     1
102
RTVSPropertyOp25
 70
     1
102
RTVSPropertyOp26
 70
     1
102
RTVSPropertyOp27
 70
     1
102
RTVSPropertyOp28
 70
     1
102
RTVSPropertyOp29
 70
     1
102
RTVSPropertyOp30
 70
     1
102
RTVSPropertyOp31
 70
     1
102
RTVSPropertyOp32
 70
     1
  0
XRECORD
  5
9F
102
{ACAD_REACTORS
330
9E
102
}
330
9E
100
AcDbXrecord
280
     1
102
RTVSPropertyOp0
 70
     1
102
RTVSPropertyOp1
 70
     1
102
RTVSPropertyOp2
 70
     1
102
RTVSPropertyOp3
 70
     1
102
RTVSPropertyOp4
 70
     1
102
RTVSPropertyOp5
 70
     1
102
RTVSPropertyOp6
 70
     1
102
RTVSPropertyOp7
 70
     1
102
RTVSPropertyOp8
 70
     1
102
RTVSPropertyOp9
 70
     1
102
RTVSPropertyOp10
 70
     1
102
RTVSPropertyOp11
 70
     1
102
RTVSPropertyOp12
 70
     1
102
RTVSPropertyOp13
 70
     1
102
RTVSPropertyOp14
 70
     1
102
RTVSPropertyOp15
 70
     1
102
RTVSPropertyOp16
 70
     1
102
RTVSPropertyOp17
 70
     1
102
RTVSPropertyOp18
 70
     1
102
RTVSPropertyOp19
 70
     1
102
RTVSPropertyOp20
 70
     1
102
RTVSPropertyOp21
 70
     1
102
RTVSPropertyOp22
 70
     1
102
RTVSPropertyOp23
 70
     1
102
RTVSPropertyOp24
 70
     1
102
RTVSPropertyOp25
 70
     1
102
RTVSPropertyOp26
 70
     1
102
RTVSPropertyOp27
 70
     1
102
RTVSPropertyOp28
 70
     1
102
RTVSPropertyOp29
 70
     1
102
RTVSPropertyOp30
 70
     1
102
RTVSPropertyOp31
 70
     1
102
RTVSPropertyOp32
 70
     1
  0
XRECORD
  5
A1
102
{ACAD_REACTORS
330
A0
102
}
330
A0
100
AcDbXrecord
280
     1
102
RTVSPropertyOp0
 70
     1
102
RTVSPropertyOp1
 70
     1
102
RTVSPropertyOp2
 70
     1
102
RTVSPropertyOp3
 70
     1
102
RTVSPropertyOp4
 70
     1
102
RTVSPropertyOp5
 70
     1
102
RTVSPropertyOp6
 70
     1
102
RTVSPropertyOp7
 70
     1
102
RTVSPropertyOp8
 70
     1
102
RTVSPropertyOp9
 70
     1
102
RTVSPropertyOp10
 70
     1
102
RTVSPropertyOp11
 70
     1
102
RTVSPropertyOp12
 70
     1
102
RTVSPropertyOp13
 70
     1
102
RTVSPropertyOp14
 70
     1
102
RTVSPropertyOp15
 70
     1
102
RTVSPropertyOp16
 70
     1
102
RTVSPropertyOp17
 70
     1
102
RTVSPropertyOp18
 70
     1
102
RTVSPropertyOp19
 70
     1
102
RTVSPropertyOp20
 70
     1
102
RTVSPropertyOp21
 70
     1
102
RTVSPropertyOp22
 70
     1
102
RTVSPropertyOp23
 70
     1
102
RTVSPropertyOp24
 70
     1
102
RTVSPropertyOp25
 70
     1
102
RTVSPropertyOp26
 70
     1
102
RTVSPropertyOp27
 70
     1
102
RTVSPropertyOp28
 70
     1
102
RTVSPropertyOp29
 70
     1
102
RTVSPropertyOp30
 70
     1
102
RTVSPropertyOp31
 70
     1
102
RTVSPropertyOp32
 70
     1
  0
XRECORD
  5
A3
102
{ACAD_REACTORS
330
A2
102
}
330
A2
100
AcDbXrecord
280
     1
102
RTVSPropertyOp0
 70
     1
102
RTVSPropertyOp1
 70
     1
102
RTVSPropertyOp2
 70
     1
102
RTVSPropertyOp3
 70
     1
102
RTVSPropertyOp4
 70
     1
102
RTVSPropertyOp5
 70
     1
102
RTVSPropertyOp6
 70
     1
102
RTVSPropertyOp7
 70
     1
102
RTVSPropertyOp8
 70
     1
102
RTVSPropertyOp9
 70
     1
102
RTVSPropertyOp10
 70
     1
102
RTVSPropertyOp11
 70
     1
102
RTVSPropertyOp12
 70
     1
102
RTVSPropertyOp13
 70
     1
102
RTVSPropertyOp14
 70
     1
102
RTVSPropertyOp15
 70
     1
102
RTVSPropertyOp16
 70
     1
102
RTVSPropertyOp17
 70
     1
102
RTVSPropertyOp18
 70
     1
102
RTVSPropertyOp19
 70
     1
102
RTVSPropertyOp20
 70
     1
102
RTVSPropertyOp21
 70
     1
102
RTVSPropertyOp22
 70
     1
102
RTVSPropertyOp23
 70
     1
102
RTVSPropertyOp24
 70
     1
102
RTVSPropertyOp25
 70
     1
102
RTVSPropertyOp26
 70
     1
102
RTVSPropertyOp27
 70
     1
102
RTVSPropertyOp28
 70
     1
102
RTVSPropertyOp29
 70
     1
102
RTVSPropertyOp30
 70
     1
102
RTVSPropertyOp31
 70
     1
102
RTVSPropertyOp32
 70
     1
  0
XRECORD
  5
B7
102
{ACAD_REACTORS
330
B6
102
}
330
B6
100
AcDbXrecord
280
     1
102
RTVSPropertyOp0
 70
     1
102
RTVSPropertyOp1
 70
     1
102
RTVSPropertyOp2
 70
     1
102
RTVSPropertyOp3
 70
     1
102
RTVSPropertyOp4
 70
     1
102
RTVSPropertyOp5
 70
     1
102
RTVSPropertyOp6
 70
     1
102
RTVSPropertyOp7
 70
     1
102
RTVSPropertyOp8
 70
     1
102
RTVSPropertyOp9
 70
     1
102
RTVSPropertyOp10
 70
     1
102
RTVSPropertyOp11
 70
     1
102
RTVSPropertyOp12
 70
     1
102
RTVSPropertyOp13
 70
     1
102
RTVSPropertyOp14
 70
     1
102
RTVSPropertyOp15
 70
     1
102
RTVSPropertyOp16
 70
     1
102
RTVSPropertyOp17
 70
     1
102
RTVSPropertyOp18
 70
     1
102
RTVSPropertyOp19
 70
     1
102
RTVSPropertyOp20
 70
     1
102
RTVSPropertyOp21
 70
     1
102
RTVSPropertyOp22
 70
     1
102
RTVSPropertyOp23
 70
     1
102
RTVSPropertyOp24
 70
     1
102
RTVSPropertyOp25
 70
     1
102
RTVSPropertyOp26
 70
     1
102
RTVSPropertyOp27
 70
     1
102
RTVSPropertyOp28
 70
     1
102
RTVSPropertyOp29
 70
     1
102
RTVSPropertyOp30
 70
     1
102
RTVSPropertyOp31
 70
     1
102
RTVSPropertyOp32
 70
     1
  0
XRECORD
  5
AD
102
{ACAD_REACTORS
330
AC
102
}
330
AC
100
AcDbXrecord
280
     1
102
RTVSPropertyOp0
 70
     1
102
RTVSPropertyOp1
 70
     1
102
RTVSPropertyOp2
 70
     1
102
RTVSPropertyOp3
 70
     1
102
RTVSPropertyOp4
 70
     1
102
RTVSPropertyOp5
 70
     1
102
RTVSPropertyOp6
 70
     1
102
RTVSPropertyOp7
 70
     1
102
RTVSPropertyOp8
 70
     1
102
RTVSPropertyOp9
 70
     1
102
RTVSPropertyOp10
 70
     1
102
RTVSPropertyOp11
 70
     1
102
RTVSPropertyOp12
 70
     1
102
RTVSPropertyOp13
 70
     1
102
RTVSPropertyOp14
 70
     1
102
RTVSPropertyOp15
 70
     1
102
RTVSPropertyOp16
 70
     1
102
RTVSPropertyOp17
 70
     1
102
RTVSPropertyOp18
 70
     1
102
RTVSPropertyOp19
 70
     1
102
RTVSPropertyOp20
 70
     1
102
RTVSPropertyOp21
 70
     1
102
RTVSPropertyOp22
 70
     1
102
RTVSPropertyOp23
 70
     1
102
RTVSPropertyOp24
 70
     1
102
RTVSPropertyOp25
 70
     1
102
RTVSPropertyOp26
 70
     1
102
RTVSPropertyOp27
 70
     1
102
RTVSPropertyOp28
 70
     1
102
RTVSPropertyOp29
 70
     1
102
RTVSPropertyOp30
 70
     1
102
RTVSPropertyOp31
 70
     1
102
RTVSPropertyOp32
 70
     1
  0
XRECORD
  5
B5
102
{ACAD_REACTORS
330
B4
102
}
330
B4
100
AcDbXrecord
280
     1
102
RTVSPropertyOp0
 70
     1
102
RTVSPropertyOp1
 70
     1
102
RTVSPropertyOp2
 70
     1
102
RTVSPropertyOp3
 70
     1
102
RTVSPropertyOp4
 70
     1
102
RTVSPropertyOp5
 70
     1
102
RTVSPropertyOp6
 70
     1
102
RTVSPropertyOp7
 70
     1
102
RTVSPropertyOp8
 70
     1
102
RTVSPropertyOp9
 70
     1
102
RTVSPropertyOp10
 70
     1
102
RTVSPropertyOp11
 70
     1
102
RTVSPropertyOp12
 70
     1
102
RTVSPropertyOp13
 70
     1
102
RTVSPropertyOp14
 70
     1
102
RTVSPropertyOp15
 70
     1
102
RTVSPropertyOp16
 70
     1
102
RTVSPropertyOp17
 70
     1
102
RTVSPropertyOp18
 70
     1
102
RTVSPropertyOp19
 70
     1
102
RTVSPropertyOp20
 70
     1
102
RTVSPropertyOp21
 70
     1
102
RTVSPropertyOp22
 70
     1
102
RTVSPropertyOp23
 70
     1
102
RTVSPropertyOp24
 70
     1
102
RTVSPropertyOp25
 70
     1
102
RTVSPropertyOp26
 70
     1
102
RTVSPropertyOp27
 70
     1
102
RTVSPropertyOp28
 70
     1
102
RTVSPropertyOp29
 70
     1
102
RTVSPropertyOp30
 70
     1
102
RTVSPropertyOp31
 70
     1
102
RTVSPropertyOp32
 70
     1
  0
ENDSEC
  0
EOF
