  0
SECTION
  2
HEADER
  9
$ACADVER
  1
AC1021
  9
$ACADMAINTVER
 70
    25
  9
$DWGCODEPAGE
  3
ANSI_1252
  9
$INSBASE
 10
0.0
 20
0.0
 30
0.0
  9
$EXTMIN
 10
-53.38
 20
-114.8591
 30
0.0
  9
$EXTMAX
 10
50.6535
 20
131.7775
 30
0.0
  9
$LIMMIN
 10
0.0
 20
0.0
  9
$LIMMAX
 10
12.0
 20
9.0
  9
$ORTHOMODE
 70
     0
  9
$REGENMODE
 70
     1
  9
$FILLMODE
 70
     1
  9
$QTEXTMODE
 70
     0
  9
$MIRRTEXT
 70
     1
  9
$LTSCALE
 40
1.0
  9
$ATTMODE
 70
     1
  9
$TEXTSIZE
 40
0.2
  9
$TRACEWID
 40
0.05
  9
$TEXTSTYLE
  7
Standard
  9
$CLAYER
  8
0
  9
$CELTYPE
  6
ByLayer
  9
$CECOLOR
 62
   256
  9
$CELTSCALE
 40
1.0
  9
$DISPSILH
 70
     0
  9
$DIMSCALE
 40
1.0
  9
$DIMASZ
 40
0.18
  9
$DIMEXO
 40
0.0625
  9
$DIMDLI
 40
0.38
  9
$DIMRND
 40
0.0
  9
$DIMDLE
 40
0.0
  9
$DIMEXE
 40
0.18
  9
$DIMTP
 40
0.0
  9
$DIMTM
 40
0.0
  9
$DIMTXT
 40
0.18
  9
$DIMCEN
 40
0.09
  9
$DIMTSZ
 40
0.0
  9
$DIMTOL
 70
     0
  9
$DIMLIM
 70
     0
  9
$DIMTIH
 70
     1
  9
$DIMTOH
 70
     1
  9
$DIMSE1
 70
     0
  9
$DIMSE2
 70
     0
  9
$DIMTAD
 70
     0
  9
$DIMZIN
 70
     0
  9
$DIMBLK
  1

  9
$DIMASO
 70
     1
  9
$DIMSHO
 70
     1
  9
$DIMPOST
  1

  9
$DIMAPOST
  1

  9
$DIMALT
 70
     0
  9
$DIMALTD
 70
     2
  9
$DIMALTF
 40
25.4
  9
$DIMLFAC
 40
1.0
  9
$DIMTOFL
 70
     0
  9
$DIMTVP
 40
0.0
  9
$DIMTIX
 70
     0
  9
$DIMSOXD
 70
     0
  9
$DIMSAH
 70
     0
  9
$DIMBLK1
  1

  9
$DIMBLK2
  1

  9
$DIMSTYLE
  2
Standard
  9
$DIMCLRD
 70
     0
  9
$DIMCLRE
 70
     0
  9
$DIMCLRT
 70
     0
  9
$DIMTFAC
 40
1.0
  9
$DIMGAP
 40
0.09
  9
$DIMJUST
 70
     0
  9
$DIMSD1
 70
     0
  9
$DIMSD2
 70
     0
  9
$DIMTOLJ
 70
     1
  9
$DIMTZIN
 70
     0
  9
$DIMALTZ
 70
     0
  9
$DIMALTTZ
 70
     0
  9
$DIMUPT
 70
     0
  9
$DIMDEC
 70
     4
  9
$DIMTDEC
 70
     4
  9
$DIMALTU
 70
     2
  9
$DIMALTTD
 70
     2
  9
$DIMTXSTY
  7
Standard
  9
$DIMAUNIT
 70
     0
  9
$DIMADEC
 70
     0
  9
$DIMALTRND
 40
0.0
  9
$DIMAZIN
 70
     0
  9
$DIMDSEP
 70
    46
  9
$DIMATFIT
 70
     3
  9
$DIMFRAC
 70
     0
  9
$DIMLDRBLK
  1

  9
$DIMLUNIT
 70
     2
  9
$DIMLWD
 70
    -2
  9
$DIMLWE
 70
    -2
  9
$DIMTMOVE
 70
     0
  9
$DIMFXL
 40
1.0
  9
$DIMFXLON
 70
     0
  9
$DIMJOGANG
 40
0.7853981633974483
  9
$DIMTFILL
 70
     0
  9
$DIMTFILLCLR
 70
     0
  9
$DIMARCSYM
 70
     0
  9
$DIMLTYPE
  6

  9
$DIMLTEX1
  6

  9
$DIMLTEX2
  6

  9
$LUNITS
 70
     2
  9
$LUPREC
 70
     4
  9
$SKETCHINC
 40
0.1
  9
$FILLETRAD
 40
0.5
  9
$AUNITS
 70
     0
  9
$AUPREC
 70
     0
  9
$MENU
  1
.
  9
$ELEVATION
 40
0.0
  9
$PELEVATION
 40
0.0
  9
$THICKNESS
 40
0.0
  9
$LIMCHECK
 70
     0
  9
$CHAMFERA
 40
0.5
  9
$CHAMFERB
 40
0.5
  9
$CHAMFERC
 40
1.0
  9
$CHAMFERD
 40
0.0
  9
$SKPOLY
 70
     0
  9
$TDCREATE
 40
2458492.619524063
  9
$TDUCREATE
 40
2458492.619524063
  9
$TDUPDATE
 40
2458492.619524282
  9
$TDUUPDATE
 40
2458492.619524282
  9
$TDINDWG
 40
0.0000000116
  9
$TDUSRTIMER
 40
0.0000000116
  9
$USRTIMER
 70
     1
  9
$ANGBASE
 50
0.0
  9
$ANGDIR
 70
     0
  9
$PDMODE
 70
     0
  9
$PDSIZE
 40
0.0
  9
$PLINEWID
 40
0.0
  9
$SPLFRAME
 70
     0
  9
$SPLINETYPE
 70
     6
  9
$SPLINESEGS
 70
     8
  9
$HANDSEED
  5
BA
  9
$SURFTAB1
 70
     6
  9
$SURFTAB2
 70
     6
  9
$SURFTYPE
 70
     6
  9
$SURFU
 70
     6
  9
$SURFV
 70
     6
  9
$UCSBASE
  2

  9
$UCSNAME
  2

  9
$UCSORG
 10
0.0
 20
0.0
 30
0.0
  9
$UCSXDIR
 10
1.0
 20
0.0
 30
0.0
  9
$UCSYDIR
 10
0.0
 20
1.0
 30
0.0
  9
$UCSORTHOREF
  2

  9
$UCSORTHOVIEW
 70
     0
  9
$UCSORGTOP
 10
0.0
 20
0.0
 30
0.0
  9
$UCSORGBOTTOM
 10
0.0
 20
0.0
 30
0.0
  9
$UCSORGLEFT
 10
0.0
 20
0.0
 30
0.0
  9
$UCSORGRIGHT
 10
0.0
 20
0.0
 30
0.0
  9
$UCSORGFRONT
 10
0.0
 20
0.0
 30
0.0
  9
$UCSORGBACK
 10
0.0
 20
0.0
 30
0.0
  9
$PUCSBASE
  2

  9
$PUCSNAME
  2

  9
$PUCSORG
 10
0.0
 20
0.0
 30
0.0
  9
$PUCSXDIR
 10
1.0
 20
0.0
 30
0.0
  9
$PUCSYDIR
 10
0.0
 20
1.0
 30
0.0
  9
$PUCSORTHOREF
  2

  9
$PUCSORTHOVIEW
 70
     0
  9
$PUCSORGTOP
 10
0.0
 20
0.0
 30
0.0
  9
$PUCSORGBOTTOM
 10
0.0
 20
0.0
 30
0.0
  9
$PUCSORGLEFT
 10
0.0
 20
0.0
 30
0.0
  9
$PUCSORGRIGHT
 10
0.0
 20
0.0
 30
0.0
  9
$PUCSORGFRONT
 10
0.0
 20
0.0
 30
0.0
  9
$PUCSORGBACK
 10
0.0
 20
0.0
 30
0.0
  9
$USERI1
 70
     0
  9
$USERI2
 70
     0
  9
$USERI3
 70
     0
  9
$USERI4
 70
     0
  9
$USERI5
 70
     0
  9
$USERR1
 40
0.0
  9
$USERR2
 40
0.0
  9
$USERR3
 40
0.0
  9
$USERR4
 40
0.0
  9
$USERR5
 40
0.0
  9
$WORLDVIEW
 70
     1
  9
$SHADEDGE
 70
     3
  9
$SHADEDIF
 70
    70
  9
$TILEMODE
 70
     1
  9
$MAXACTVP
 70
    64
  9
$PINSBASE
 10
0.0
 20
0.0
 30
0.0
  9
$PLIMCHECK
 70
     0
  9
$PEXTMIN
 10
1.000000000000000E+20
 20
1.000000000000000E+20
 30
1.000000000000000E+20
  9
$PEXTMAX
 10
-1.000000000000000E+20
 20
-1.000000000000000E+20
 30
-1.000000000000000E+20
  9
$PLIMMIN
 10
0.0
 20
0.0
  9
$PLIMMAX
 10
12.0
 20
9.0
  9
$UNITMODE
 70
     0
  9
$VISRETAIN
 70
     1
  9
$PLINEGEN
 70
     0
  9
$PSLTSCALE
 70
     1
  9
$TREEDEPTH
 70
  3020
  9
$CMLSTYLE
  2
Standard
  9
$CMLJUST
 70
     0
  9
$CMLSCALE
 40
1.0
  9
$PROXYGRAPHICS
 70
     1
  9
$MEASUREMENT
 70
     0
  9
$CELWEIGHT
370
    -1
  9
$ENDCAPS
280
     0
  9
$JOINSTYLE
280
     0
  9
$LWDISPLAY
290
     0
  9
$INSUNITS
 70
     4
  9
$HYPERLINKBASE
  1

  9
$STYLESHEET
  1

  9
$XEDIT
290
     1
  9
$CEPSNTYPE
380
     0
  9
$PSTYLEMODE
290
     1
  9
$FINGERPRINTGUID
  2
{12369E24-1758-4C3E-8ECA-CDF25C834B74}
  9
$VERSIONGUID
  2
{FAEB1C32-E019-11D5-929B-00C0DF256EC4}
  9
$EXTNAMES
290
     1
  9
$PSVPSCALE
 40
0.0
  9
$OLESTARTUP
290
     0
  9
$SORTENTS
280
   127
  9
$INDEXCTL
280
     0
  9
$HIDETEXT
280
     1
  9
$XCLIPFRAME
290
     0
  9
$HALOGAP
280
     0
  9
$OBSCOLOR
 70
   257
  9
$OBSLTYPE
280
     0
  9
$INTERSECTIONDISPLAY
280
     0
  9
$INTERSECTIONCOLOR
 70
   257
  9
$DIMASSOC
280
     2
  9
$PROJECTNAME
  1

  9
$CAMERADISPLAY
290
     0
  9
$LENSLENGTH
 40
50.0
  9
$CAMERAHEIGHT
 40
0.0
  9
$STEPSPERSEC
 40
2.0
  9
$STEPSIZE
 40
6.0
  9
$3DDWFPREC
 40
2.0
  9
$PSOLWIDTH
 40
0.25
  9
$PSOLHEIGHT
 40
4.0
  9
$LOFTANG1
 40
1.570796326794897
  9
$LOFTANG2
 40
1.570796326794897
  9
$LOFTMAG1
 40
0.0
  9
$LOFTMAG2
 40
0.0
  9
$LOFTPARAM
 70
     7
  9
$LOFTNORMALS
280
     1
  9
$LATITUDE
 40
37.795
  9
$LONGITUDE
 40
-122.394
  9
$NORTHDIRECTION
 40
0.0
  9
$TIMEZONE
 70
 -8000
  9
$LIGHTGLYPHDISPLAY
280
     1
  9
$TILEMODELIGHTSYNCH
280
     1
  9
$SOLIDHIST
280
     1
  9
$SHOWHIST
280
     1
  9
$DWFFRAME
280
     2
  9
$DGNFRAME
280
     2
  9
$REALWORLDSCALE
290
     1
  9
$INTERFERECOLOR
 62
   256
  9
$CSHADOW
280
     0
  9
$SHADOWPLANELOCATION
 40
0.0
  0
ENDSEC
  0
SECTION
  2
CLASSES
  0
CLASS
  1
ACDBDICTIONARYWDFLT
  2
AcDbDictionaryWithDefault
  3
ObjectDBX Classes
 90
        0
 91
        4
280
     0
281
     0
  0
CLASS
  1
VISUALSTYLE
  2
AcDbVisualStyle
  3
ObjectDBX Classes
 90
     4095
 91
        4
280
     0
281
     0
  0
CLASS
  1
MATERIAL
  2
AcDbMaterial
  3
ObjectDBX Classes
 90
     1153
 91
        4
280
     0
281
     0
  0
ENDSEC
  0
SECTION
  2
TABLES
  0
TABLE
  2
VPORT
  5
8
330
0
100
AcDbSymbolTable
 70
     1
  0
VPORT
  5
29
330
8
100
AcDbSymbolTableRecord
100
AcDbViewportTableRecord
  2
*Active
 70
     0
 10
0.0
 20
0.0
 11
1.0
 21
1.0
 12
10.42990654205607
 22
4.5
 13
0.0
 23
0.0
 14
0.5
 24
0.5
 15
0.5
 25
0.5
 16
0.0
 26
0.0
 36
1.0
 17
0.0
 27
0.0
 37
0.0
 40
9.0
 41
1.972972972850329
 42
50.0
 43
0.0
 44
0.0
 50
0.0
 51
0.0
 71
     0
 72
   100
 73
     1
 74
     3
 75
     0
 76
     0
 77
     0
 78
     0
281
     0
 65
     1
110
0.0
120
0.0
130
0.0
111
1.0
121
0.0
131
0.0
112
0.0
122
1.0
132
0.0
 79
     0
146
0.0
 60
     3
 61
     5
292
     1
282
     1
141
0.0
142
0.0
 63
   250
  0
ENDTAB
  0
TABLE
  2
LTYPE
  5
5
330
0
100
AcDbSymbolTable
 70
     1
  0
LTYPE
  5
14
330
5
100
AcDbSymbolTableRecord
100
AcDbLinetypeTableRecord
  2
ByBlock
 70
     0
  3

 72
    65
 73
     0
 40
0.0
  0
LTYPE
  5
15
330
5
100
AcDbSymbolTableRecord
100
AcDbLinetypeTableRecord
  2
ByLayer
 70
     0
  3

 72
    65
 73
     0
 40
0.0
  0
LTYPE
  5
16
330
5
100
AcDbSymbolTableRecord
100
AcDbLinetypeTableRecord
  2
Continuous
 70
     0
  3
Solid line
 72
    65
 73
     0
 40
0.0
  0
ENDTAB
  0
TABLE
  2
LAYER
  5
2
330
0
100
AcDbSymbolTable
 70
     3
  0
LAYER
  5
10
330
2
100
AcDbSymbolTableRecord
100
AcDbLayerTableRecord
  2
0
 70
     0
 62
     7
  6
Continuous
370
    -3
390
F
347
3E
  0
LAYER
  5
40
330
2
100
AcDbSymbolTableRecord
100
AcDbLayerTableRecord
  2
layer 1
 70
     0
 62
     7
  6
Continuous
370
    -3
390
F
347
3E
  0
LAYER
  5
97
330
2
100
AcDbSymbolTableRecord
100
AcDbLayerTableRecord
  2
Master Guides
 70
     0
 62
     7
  6
Continuous
370
    -3
390
F
347
3E
  0
ENDTAB
  0
TABLE
  2
STYLE
  5
3
330
0
100
AcDbSymbolTable
 70
     1
  0
STYLE
  5
11
330
3
100
AcDbSymbolTableRecord
100
AcDbTextStyleTableRecord
  2
Standard
 70
     0
 40
0.0
 41
1.0
 50
0.0
 71
     0
 42
0.2
  3
txt
  4

  0
ENDTAB
  0
TABLE
  2
VIEW
  5
6
330
0
100
AcDbSymbolTable
 70
     0
  0
ENDTAB
  0
TABLE
  2
UCS
  5
7
330
0
100
AcDbSymbolTable
 70
     0
  0
ENDTAB
  0
TABLE
  2
APPID
  5
9
330
0
100
AcDbSymbolTable
 70
     2
  0
APPID
  5
12
330
9
100
AcDbSymbolTableRecord
100
AcDbRegAppTableRecord
  2
ACAD
 70
     0
  0
APPID
  5
3F
330
9
100
AcDbSymbolTableRecord
100
AcDbRegAppTableRecord
  2
ODA
 70
     0
  0
ENDTAB
  0
TABLE
  2
DIMSTYLE
  5
A
330
0
100
AcDbSymbolTable
 70
     1
100
AcDbDimStyleTable
  0
DIMSTYLE
105
27
330
A
100
AcDbSymbolTableRecord
100
AcDbDimStyleTableRecord
  2
Standard
 70
     0
178
     0
340
11
  0
ENDTAB
  0
TABLE
  2
BLOCK_RECORD
  5
1
330
0
100
AcDbSymbolTable
 70
     1
  0
BLOCK_RECORD
  5
1F
330
1
100
AcDbSymbolTableRecord
100
AcDbBlockTableRecord
  2
*Model_Space
340
22
 70
     0
280
     1
281
     0
  0
BLOCK_RECORD
  5
1B
330
1
100
AcDbSymbolTableRecord
100
AcDbBlockTableRecord
  2
*Paper_Space
340
1E
 70
     0
280
     1
281
     0
  0
BLOCK_RECORD
  5
23
330
1
100
AcDbSymbolTableRecord
100
AcDbBlockTableRecord
  2
*Paper_Space0
340
26
 70
     0
280
     1
281
     0
  0
ENDTAB
  0
ENDSEC
  0
SECTION
  2
BLOCKS
  0
BLOCK
  5
20
330
1F
100
AcDbEntity
  8
0
100
AcDbBlockBegin
  2
*Model_Space
 70
     0
 10
0.0
 20
0.0
 30
0.0
  3
*Model_Space
  1

  0
ENDBLK
  5
21
330
1F
100
AcDbEntity
  8
0
100
AcDbBlockEnd
  0
BLOCK
  5
1C
330
1B
100
AcDbEntity
 67
     1
  8
0
100
AcDbBlockBegin
  2
*Paper_Space
 70
     0
 10
0.0
 20
0.0
 30
0.0
  3
*Paper_Space
  1

  0
ENDBLK
  5
1D
330
1B
100
AcDbEntity
 67
     1
  8
0
100
AcDbBlockEnd
  0
BLOCK
  5
24
330
23
100
AcDbEntity
  8
0
100
AcDbBlockBegin
  2
*Paper_Space0
 70
     0
 10
0.0
 20
0.0
 30
0.0
  3
*Paper_Space0
  1

  0
ENDBLK
  5
25
330
23
100
AcDbEntity
  8
0
100
AcDbBlockEnd
  0
ENDSEC
  0
SECTION
  2
ENTITIES
  0
SPLINE
  5
41
330
1F
100
AcDbEntity
  8
layer 1
100
AcDbSpline
210
0.0
220
0.0
230
1.0
 70
    11
 71
     3
 72
    20
 73
    16
 74
     0
 42
0.0000000001
 43
0.0000000001
 12
1.0
 22
0.0
 32
0.0
 13
1.0
 23
0.0
 33
0.0
 40
0.0
 40
0.0
 40
0.0
 40
0.0
 40
0.2
 40
0.2
 40
0.2
 40
0.2
 40
0.4
 40
0.4
 40
0.4
 40
0.4
 40
0.6
 40
0.6
 40
0.6
 40
0.6
 40
1.0
 40
1.0
 40
1.0
 40
1.0
 10
-53.38
 20
131.7775
 30
0.0
 10
-53.38
 20
131.7775
 30
0.0
 10
50.6535
 20
131.7775
 30
0.0
 10
50.6535
 20
131.7775
 30
0.0
 10
50.6535
 20
131.7775
 30
0.0
 10
50.6535
 20
131.7775
 30
0.0
 10
50.6535
 20
-114.8591
 30
0.0
 10
50.6535
 20
-114.8591
 30
0.0
 10
50.6535
 20
-114.8591
 30
0.0
 10
50.6535
 20
-114.8591
 30
0.0
 10
-53.38
 20
-114.8591
 30
0.0
 10
-53.38
 20
-114.8591
 30
0.0
 10
-53.38
 20
-114.8591
 30
0.0
 10
-53.38
 20
-114.8591
 30
0.0
 10
-53.38
 20
131.7775
 30
0.0
 10
-53.38
 20
131.7775
 30
0.0
  0
SPLINE
  5
42
330
1F
100
AcDbEntity
  8
layer 1
 62
     7
100
AcDbSpline
210
0.0
220
0.0
230
1.0
 70
    11
 71
     3
 72
    16
 73
    12
 74
     0
 42
0.0000000001
 43
0.0000000001
 12
1.0
 22
0.0
 32
0.0
 13
1.0
 23
0.0
 33
0.0
 40
0.0
 40
0.0
 40
0.0
 40
0.0
 40
0.25
 40
0.25
 40
0.25
 40
0.25
 40
0.5
 40
0.5
 40
0.5
 40
0.5
 40
1.0
 40
1.0
 40
1.0
 40
1.0
 10
45.7133
 20
74.2749
 30
0.0
 10
45.7133
 20
74.2749
 30
0.0
 10
37.2437
 20
74.2749
 30
0.0
 10
37.2437
 20
74.2749
 30
0.0
 10
37.2437
 20
74.2749
 30
0.0
 10
41.951
 20
73.4016
 30
0.0
 10
45.45
 20
69.3853
 30
0.0
 10
45.7133
 20
64.7842
 30
0.0
 10
45.7133
 20
64.7842
 30
0.0
 10
45.7133
 20
64.7842
 30
0.0
 10
45.7133
 20
74.2749
 30
0.0
 10
45.7133
 20
74.2749
 30
0.0
  0
SPLINE
  5
43
330
1F
100
AcDbEntity
  8
layer 1
 62
     7
100
AcDbSpline
210
0.0
220
0.0
230
1.0
 70
    11
 71
     3
 72
    52
 73
    48
 74
     0
 42
0.0000000001
 43
0.0000000001
 12
1.0
 22
0.0
 32
0.0
 13
1.0
 23
0.0
 33
0.0
 40
0.0
 40
0.0
 40
0.0
 40
0.0
 40
0.0769230769230769
 40
0.0769230769230769
 40
0.0769230769230769
 40
0.0769230769230769
 40
0.1538461538461539
 40
0.1538461538461539
 40
0.1538461538461539
 40
0.1538461538461539
 40
0.2307692307692308
 40
0.2307692307692308
 40
0.2307692307692308
 40
0.2307692307692308
 40
0.3076923076923077
 40
0.3076923076923077
 40
0.3076923076923077
 40
0.3076923076923077
 40
0.3846153846153846
 40
0.3846153846153846
 40
0.3846153846153846
 40
0.3846153846153846
 40
0.4615384615384616
 40
0.4615384615384616
 40
0.4615384615384616
 40
0.4615384615384616
 40
0.5384615384615384
 40
0.5384615384615384
 40
0.5384615384615384
 40
0.5384615384615384
 40
0.6153846153846154
 40
0.6153846153846154
 40
0.6153846153846154
 40
0.6153846153846154
 40
0.6923076923076923
 40
0.6923076923076923
 40
0.6923076923076923
 40
0.6923076923076923
 40
0.7692307692307693
 40
0.7692307692307693
 40
0.7692307692307693
 40
0.7692307692307693
 40
0.8461538461538461
 40
0.8461538461538461
 40
0.8461538461538461
 40
0.8461538461538461
 40
1.0
 40
1.0
 40
1.0
 40
1.0
 10
32.3456
 20
74.2749
 30
0.0
 10
23.4928
 20
72.0615
 30
0.0
 10
21.5244
 20
61.8539
 30
0.0
 10
28.774
 20
56.4168
 30
0.0
 10
28.774
 20
56.4168
 30
0.0
 10
32.9977
 20
54.1453
 30
0.0
 10
37.2251
 20
55.4599
 30
0.0
 10
39.2847
 20
59.7842
 30
0.0
 10
39.2847
 20
59.7842
 30
0.0
 10
40.5023
 20
64.0459
 30
0.0
 10
38.6916
 20
67.4825
 30
0.0
 10
34.3866
 20
68.3558
 30
0.0
 10
34.3866
 20
68.3558
 30
0.0
 10
32.4705
 20
68.355
 30
0.0
 10
32.6476
 20
65.8921
 30
0.0
 10
34.3866
 20
65.8053
 30
0.0
 10
34.3866
 20
65.8053
 30
0.0
 10
38.7488
 20
63.8897
 30
0.0
 10
36.9424
 20
58.2653
 30
0.0
 10
32.5498
 20
58.3556
 30
0.0
 10
32.5498
 20
58.3556
 30
0.0
 10
28.4686
 20
58.6964
 30
0.0
 10
27.2806
 20
62.8242
 30
0.0
 10
27.5489
 20
66.3148
 30
0.0
 10
27.5489
 20
66.3148
 30
0.0
 10
29.1123
 20
70.6299
 30
0.0
 10
31.5103
 20
72.0702
 30
0.0
 10
36.0194
 20
71.7233
 30
0.0
 10
36.0194
 20
71.7233
 30
0.0
 10
40.9343
 20
70.5219
 30
0.0
 10
43.5946
 20
66.4658
 30
0.0
 10
43.2647
 20
61.519
 30
0.0
 10
43.2647
 20
61.519
 30
0.0
 10
42.7271
 20
55.1443
 30
0.0
 10
36.9905
 20
51.3094
 30
0.0
 10
31.1205
 20
50.9061
 30
0.0
 10
31.1205
 20
50.9061
 30
0.0
 10
23.1055
 20
51.668
 30
0.0
 10
19.9972
 20
57.311
 30
0.0
 10
19.9972
 20
64.8864
 30
0.0
 10
19.9972
 20
64.8864
 30
0.0
 10
19.4808
 20
69.2907
 30
0.0
 10
18.3316
 20
71.8043
 30
0.0
 10
14.2825
 20
74.1728
 30
0.0
 10
14.2825
 20
74.1728
 30
0.0
 10
14.2825
 20
74.1728
 30
0.0
 10
32.3456
 20
74.2749
 30
0.0
 10
32.3456
 20
74.2749
 30
0.0
  0
SPLINE
  5
44
330
1F
100
AcDbEntity
  8
layer 1
 62
     7
100
AcDbSpline
210
0.0
220
0.0
230
1.0
 70
    11
 71
     3
 72
    16
 73
    12
 74
     0
 42
0.0000000001
 43
0.0000000001
 12
1.0
 22
0.0
 32
0.0
 13
1.0
 23
0.0
 33
0.0
 40
0.0
 40
0.0
 40
0.0
 40
0.0
 40
0.25
 40
0.25
 40
0.25
 40
0.25
 40
0.5
 40
0.5
 40
0.5
 40
0.5
 40
1.0
 40
1.0
 40
1.0
 40
1.0
 10
44.1827
 20
9.6785
 30
0.0
 10
40.012
 20
11.858
 30
0.0
 10
36.6445
 20
15.314
 30
0.0
 10
35.7131
 20
18.5564
 30
0.0
 10
35.7131
 20
18.5564
 30
0.0
 10
34.3015
 20
15.0542
 30
0.0
 10
31.6588
 20
11.9346
 30
0.0
 10
28.774
 20
9.6785
 30
0.0
 10
28.774
 20
9.6785
 30
0.0
 10
28.774
 20
9.6785
 30
0.0
 10
44.1827
 20
9.6785
 30
0.0
 10
44.1827
 20
9.6785
 30
0.0
  0
SPLINE
  5
45
330
1F
100
AcDbEntity
  8
layer 1
 62
     7
100
AcDbSpline
210
0.0
220
0.0
230
1.0
 70
    11
 71
     3
 72
    84
 73
    80
 74
     0
 42
0.0000000001
 43
0.0000000001
 12
1.0
 22
0.0
 32
0.0
 13
1.0
 23
0.0
 33
0.0
 40
0.0
 40
0.0
 40
0.0
 40
0.0
 40
0.0476190476190476
 40
0.0476190476190476
 40
0.0476190476190476
 40
0.0476190476190476
 40
0.0952380952380952
 40
0.0952380952380952
 40
0.0952380952380952
 40
0.0952380952380952
 40
0.1428571428571428
 40
0.1428571428571428
 40
0.1428571428571428
 40
0.1428571428571428
 40
0.1904761904761905
 40
0.1904761904761905
 40
0.1904761904761905
 40
0.1904761904761905
 40
0.2380952380952381
 40
0.2380952380952381
 40
0.2380952380952381
 40
0.2380952380952381
 40
0.2857142857142857
 40
0.2857142857142857
 40
0.2857142857142857
 40
0.2857142857142857
 40
0.3333333333333333
 40
0.3333333333333333
 40
0.3333333333333333
 40
0.3333333333333333
 40
0.3809523809523809
 40
0.3809523809523809
 40
0.3809523809523809
 40
0.3809523809523809
 40
0.4285714285714285
 40
0.4285714285714285
 40
0.4285714285714285
 40
0.4285714285714285
 40
0.4761904761904762
 40
0.4761904761904762
 40
0.4761904761904762
 40
0.4761904761904762
 40
0.5238095238095238
 40
0.5238095238095238
 40
0.5238095238095238
 40
0.5238095238095238
 40
0.5714285714285714
 40
0.5714285714285714
 40
0.5714285714285714
 40
0.5714285714285714
 40
0.6190476190476191
 40
0.6190476190476191
 40
0.6190476190476191
 40
0.6190476190476191
 40
0.6666666666666666
 40
0.6666666666666666
 40
0.6666666666666666
 40
0.6666666666666666
 40
0.7142857142857143
 40
0.7142857142857143
 40
0.7142857142857143
 40
0.7142857142857143
 40
0.7619047619047619
 40
0.7619047619047619
 40
0.7619047619047619
 40
0.7619047619047619
 40
0.8095238095238095
 40
0.8095238095238095
 40
0.8095238095238095
 40
0.8095238095238095
 40
0.8571428571428571
 40
0.8571428571428571
 40
0.8571428571428571
 40
0.8571428571428571
 40
0.9047619047619048
 40
0.9047619047619048
 40
0.9047619047619048
 40
0.9047619047619048
 40
1.0
 40
1.0
 40
1.0
 40
1.0
 10
28.876
 20
22.5365
 30
0.0
 10
28.6229
 20
28.2039
 30
0.0
 10
21.1362
 20
30.6696
 30
0.0
 10
16.8339
 20
26.7206
 30
0.0
 10
16.8339
 20
26.7206
 30
0.0
 10
20.2411
 20
31.2424
 30
0.0
 10
18.1569
 20
37.9461
 30
0.0
 10
11.936
 20
38.6599
 30
0.0
 10
11.936
 20
38.6599
 30
0.0
 10
8.1517
 20
38.6303
 30
0.0
 10
5.877
 20
35.948
 30
0.0
 10
5.7107
 20
33.1493
 30
0.0
 10
5.7107
 20
33.1493
 30
0.0
 10
5.8111
 20
29.5017
 30
0.0
 10
7.4556
 20
27.535
 30
0.0
 10
11.1191
 20
26.7206
 30
0.0
 10
11.1191
 20
26.7206
 30
0.0
 10
12.4169
 20
27.2397
 30
0.0
 10
12.7232
 20
28.95
 30
0.0
 10
11.1191
 20
29.2714
 30
0.0
 10
11.1191
 20
29.2714
 30
0.0
 10
8.8749
 20
30.1682
 30
0.0
 10
7.761
 20
32.352
 30
0.0
 10
8.874
 20
34.5777
 30
0.0
 10
8.874
 20
34.5777
 30
0.0
 10
10.2418
 20
36.5184
 30
0.0
 10
11.9106
 20
36.7209
 30
0.0
 10
13.977
 20
35.8029
 30
0.0
 10
13.977
 20
35.8029
 30
0.0
 10
16.9175
 20
33.3069
 30
0.0
 10
15.8189
 20
28.8351
 30
0.0
 10
13.6708
 20
26.2102
 30
0.0
 10
13.6708
 20
26.2102
 30
0.0
 10
10.8256
 20
23.0402
 30
0.0
 10
7.2961
 20
23.3255
 30
0.0
 10
3.7719
 20
25.0881
 30
0.0
 10
3.7719
 20
25.0881
 30
0.0
 10
-0.3002
 20
28.107
 30
0.0
 10
-0.6385
 20
31.7773
 30
0.0
 10
1.5265
 20
36.1091
 30
0.0
 10
1.5265
 20
36.1091
 30
0.0
 10
8.1323
 20
46.339
 30
0.0
 10
20.0283
 20
45.7111
 30
0.0
 10
26.5287
 20
41.3135
 30
0.0
 10
26.5287
 20
41.3135
 30
0.0
 10
31.501
 20
37.8439
 30
0.0
 10
34.3866
 20
32.4903
 30
0.0
 10
34.3866
 20
26.4143
 30
0.0
 10
34.3866
 20
26.4143
 30
0.0
 10
34.2769
 20
19.8635
 30
0.0
 10
31.4808
 20
15.0187
 30
0.0
 10
26.4265
 20
11.5154
 30
0.0
 10
26.4265
 20
11.5154
 30
0.0
 10
22.5504
 20
8.8727
 30
0.0
 10
18.487
 20
9.3671
 30
0.0
 10
15.5076
 20
12.7397
 30
0.0
 10
15.5076
 20
12.7397
 30
0.0
 10
13.0759
 20
16.361
 30
0.0
 10
13.2481
 20
19.5023
 30
0.0
 10
15.3033
 20
22.5365
 30
0.0
 10
15.3033
 20
22.5365
 30
0.0
 10
17.8591
 20
25.6331
 30
0.0
 10
20.4638
 20
26.7131
 30
0.0
 10
24.4877
 20
25.5977
 30
0.0
 10
24.4877
 20
25.5977
 30
0.0
 10
26.6149
 20
24.4189
 30
0.0
 10
27.0992
 20
21.9265
 30
0.0
 10
25.712
 20
19.9851
 30
0.0
 10
25.712
 20
19.9851
 30
0.0
 10
23.3824
 20
17.9043
 30
0.0
 10
20.8578
 20
18.4569
 30
0.0
 10
19.5896
 20
21.3121
 30
0.0
 10
19.5896
 20
21.3121
 30
0.0
 10
19.2395
 20
22.7112
 30
0.0
 10
17.0374
 20
22.6842
 30
0.0
 10
17.0382
 20
21.2102
 30
0.0
 10
17.0382
 20
21.2102
 30
0.0
 10
18.0971
 20
14.1217
 30
0.0
 10
28.9065
 20
14.2204
 30
0.0
 10
28.876
 20
22.5365
 30
0.0
  0
SPLINE
  5
46
330
1F
100
AcDbEntity
  8
layer 1
 62
     7
100
AcDbSpline
210
0.0
220
0.0
230
1.0
 70
    11
 71
     3
 72
    16
 73
    12
 74
     0
 42
0.0000000001
 43
0.0000000001
 12
1.0
 22
0.0
 32
0.0
 13
1.0
 23
0.0
 33
0.0
 40
0.0
 40
0.0
 40
0.0
 40
0.0
 40
0.25
 40
0.25
 40
0.25
 40
0.25
 40
0.5
 40
0.5
 40
0.5
 40
0.5
 40
1.0
 40
1.0
 40
1.0
 40
1.0
 10
8.7719
 20
45.4968
 30
0.0
 10
4.6856
 20
47.1058
 30
0.0
 10
1.5747
 20
50.0987
 30
0.0
 10
-0.106
 20
53.9673
 30
0.0
 10
-0.106
 20
53.9673
 30
0.0
 10
-0.106
 20
53.9673
 30
0.0
 10
-0.106
 20
38.5577
 30
0.0
 10
-0.106
 20
38.5577
 30
0.0
 10
-0.106
 20
38.5577
 30
0.0
 10
2.1307
 20
41.5725
 30
0.0
 10
5.1109
 20
44.1375
 30
0.0
 10
8.7719
 20
45.4968
 30
0.0
  0
SPLINE
  5
47
330
1F
100
AcDbEntity
  8
layer 1
 62
     7
100
AcDbSpline
210
0.0
220
0.0
230
1.0
 70
    11
 71
     3
 72
    16
 73
    12
 74
     0
 42
0.0000000001
 43
0.0000000001
 12
1.0
 22
0.0
 32
0.0
 13
1.0
 23
0.0
 33
0.0
 40
0.0
 40
0.0
 40
0.0
 40
0.0
 40
0.25
 40
0.25
 40
0.25
 40
0.25
 40
0.5
 40
0.5
 40
0.5
 40
0.5
 40
1.0
 40
1.0
 40
1.0
 40
1.0
 10
27.5489
 20
43.7621
 30
0.0
 10
23.3215
 20
46.1683
 30
0.0
 10
19.3425
 20
47.1615
 30
0.0
 10
14.4866
 20
46.9261
 30
0.0
 10
14.4866
 20
46.9261
 30
0.0
 10
9.4579
 20
47.1497
 30
0.0
 10
5.4305
 20
49.8101
 30
0.0
 10
2.8538
 20
53.8651
 30
0.0
 10
2.8538
 20
53.8651
 30
0.0
 10
13.0361
 20
52.5792
 30
0.0
 10
19.9871
 20
49.5654
 30
0.0
 10
27.5489
 20
43.7621
 30
0.0
  0
SPLINE
  5
48
330
1F
100
AcDbEntity
  8
layer 1
 62
     7
100
AcDbSpline
210
0.0
220
0.0
230
1.0
 70
    11
 71
     3
 72
    16
 73
    12
 74
     0
 42
0.0000000001
 43
0.0000000001
 12
1.0
 22
0.0
 32
0.0
 13
1.0
 23
0.0
 33
0.0
 40
0.0
 40
0.0
 40
0.0
 40
0.0
 40
0.25
 40
0.25
 40
0.25
 40
0.25
 40
0.5
 40
0.5
 40
0.5
 40
0.5
 40
1.0
 40
1.0
 40
1.0
 40
1.0
 10
45.7133
 20
22.2301
 30
0.0
 10
45.7133
 20
22.2301
 30
0.0
 10
45.7133
 20
59.1716
 30
0.0
 10
45.7133
 20
59.1716
 30
0.0
 10
45.7133
 20
59.1716
 30
0.0
 10
43.0081
 20
50.5542
 30
0.0
 10
35.9004
 20
46.6029
 30
0.0
 10
27.1413
 20
48.3547
 30
0.0
 10
27.1413
 20
48.3547
 30
0.0
 10
36.5998
 20
41.3608
 30
0.0
 10
42.0201
 20
33.3113
 30
0.0
 10
45.7133
 20
22.2301
 30
0.0
  0
SPLINE
  5
49
330
1F
100
AcDbEntity
  8
layer 1
 62
     7
100
AcDbSpline
210
0.0
220
0.0
230
1.0
 70
    11
 71
     3
 72
    44
 73
    40
 74
     0
 42
0.0000000001
 43
0.0000000001
 12
1.0
 22
0.0
 32
0.0
 13
1.0
 23
0.0
 33
0.0
 40
0.0
 40
0.0
 40
0.0
 40
0.0
 40
0.0909090909090909
 40
0.0909090909090909
 40
0.0909090909090909
 40
0.0909090909090909
 40
0.1818181818181818
 40
0.1818181818181818
 40
0.1818181818181818
 40
0.1818181818181818
 40
0.2727272727272727
 40
0.2727272727272727
 40
0.2727272727272727
 40
0.2727272727272727
 40
0.3636363636363636
 40
0.3636363636363636
 40
0.3636363636363636
 40
0.3636363636363636
 40
0.4545454545454545
 40
0.4545454545454545
 40
0.4545454545454545
 40
0.4545454545454545
 40
0.5454545454545454
 40
0.5454545454545454
 40
0.5454545454545454
 40
0.5454545454545454
 40
0.6363636363636364
 40
0.6363636363636364
 40
0.6363636363636364
 40
0.6363636363636364
 40
0.7272727272727273
 40
0.7272727272727273
 40
0.7272727272727273
 40
0.7272727272727273
 40
0.8181818181818182
 40
0.8181818181818182
 40
0.8181818181818182
 40
0.8181818181818182
 40
1.0
 40
1.0
 40
1.0
 40
1.0
 10
7.8539
 20
72.54
 30
0.0
 10
3.5161
 20
72.1831
 30
0.0
 10
0.936
 20
69.5177
 30
0.0
 10
0.8126
 20
65.2946
 30
0.0
 10
0.8126
 20
65.2946
 30
0.0
 10
0.8768
 20
61.2184
 30
0.0
 10
3.8494
 20
58.2653
 30
0.0
 10
7.8539
 20
58.1514
 30
0.0
 10
7.8539
 20
58.1514
 30
0.0
 10
9.4242
 20
58.2081
 30
0.0
 10
10.5176
 20
59.4103
 30
0.0
 10
10.6087
 20
61.1104
 30
0.0
 10
10.6087
 20
61.1104
 30
0.0
 10
10.4299
 20
62.722
 30
0.0
 10
9.4974
 20
63.791
 30
0.0
 10
7.8539
 20
64.0695
 30
0.0
 10
7.8539
 20
64.0695
 30
0.0
 10
6.2558
 20
64.1801
 30
0.0
 10
6.4997
 20
66.5468
 30
0.0
 10
7.8539
 20
66.6211
 30
0.0
 10
7.8539
 20
66.6211
 30
0.0
 10
10.731
 20
66.2811
 30
0.0
 10
12.1908
 20
65.002
 30
0.0
 10
13.1604
 20
62.3348
 30
0.0
 10
13.1604
 20
62.3348
 30
0.0
 10
13.793
 20
59.6609
 30
0.0
 10
12.5536
 20
57.5119
 30
0.0
 10
10.4055
 20
56.0083
 30
0.0
 10
10.4055
 20
56.0083
 30
0.0
 10
15.4824
 20
54.4449
 30
0.0
 10
17.1849
 20
53.9757
 30
0.0
 10
22.3445
 20
51.3137
 30
0.0
 10
22.3445
 20
51.3137
 30
0.0
 10
19.9264
 20
53.0409
 30
0.0
 10
16.5537
 20
57.6199
 30
0.0
 10
16.732
 20
62.3348
 30
0.0
 10
16.732
 20
62.3348
 30
0.0
 10
17.4044
 20
68.3441
 30
0.0
 10
13.5256
 20
72.6143
 30
0.0
 10
7.8539
 20
72.54
 30
0.0
  0
SPLINE
  5
4A
330
1F
100
AcDbEntity
  8
layer 1
 62
     7
100
AcDbSpline
210
0.0
220
0.0
230
1.0
 70
    11
 71
     3
 72
    16
 73
    12
 74
     0
 42
0.0000000001
 43
0.0000000001
 12
1.0
 22
0.0
 32
0.0
 13
1.0
 23
0.0
 33
0.0
 40
0.0
 40
0.0
 40
0.0
 40
0.0
 40
0.25
 40
0.25
 40
0.25
 40
0.25
 40
0.5
 40
0.5
 40
0.5
 40
0.5
 40
1.0
 40
1.0
 40
1.0
 40
1.0
 10
3.976
 20
74.2749
 30
0.0
 10
1.4278
 20
73.0986
 30
0.0
 10
-0.1306
 20
71.5343
 30
0.0
 10
-1.3633
 20
68.9684
 30
0.0
 10
-1.3633
 20
68.9684
 30
0.0
 10
-2.5961
 20
71.5343
 30
0.0
 10
-4.1545
 20
73.0986
 30
0.0
 10
-6.7027
 20
74.2749
 30
0.0
 10
-6.7027
 20
74.2749
 30
0.0
 10
-6.7027
 20
74.2749
 30
0.0
 10
3.976
 20
74.2749
 30
0.0
 10
3.976
 20
74.2749
 30
0.0
  0
SPLINE
  5
4B
330
1F
100
AcDbEntity
  8
layer 1
 62
     7
100
AcDbSpline
210
0.0
220
0.0
230
1.0
 70
    11
 71
     3
 72
    16
 73
    12
 74
     0
 42
0.0000000001
 43
0.0000000001
 12
1.0
 22
0.0
 32
0.0
 13
1.0
 23
0.0
 33
0.0
 40
0.0
 40
0.0
 40
0.0
 40
0.0
 40
0.25
 40
0.25
 40
0.25
 40
0.25
 40
0.5
 40
0.5
 40
0.5
 40
0.5
 40
1.0
 40
1.0
 40
1.0
 40
1.0
 10
37.0394
 20
24.3733
 30
0.0
 10
37.2182
 20
29.0115
 30
0.0
 10
37.0538
 20
31.7487
 30
0.0
 10
33.8762
 20
37.3335
 30
0.0
 10
33.8762
 20
37.3335
 30
0.0
 10
39.1935
 20
30.7353
 30
0.0
 10
43.187
 20
22.0742
 30
0.0
 10
44.0806
 20
12.6376
 30
0.0
 10
44.0806
 20
12.6376
 30
0.0
 10
39.7141
 20
15.6937
 30
0.0
 10
37.7869
 20
19.1405
 30
0.0
 10
37.0394
 20
24.3733
 30
0.0
  0
SPLINE
  5
4C
330
1F
100
AcDbEntity
  8
layer 1
 62
     7
100
AcDbSpline
210
0.0
220
0.0
230
1.0
 70
    11
 71
     3
 72
    20
 73
    16
 74
     0
 42
0.0000000001
 43
0.0000000001
 12
1.0
 22
0.0
 32
0.0
 13
1.0
 23
0.0
 33
0.0
 40
0.0
 40
0.0
 40
0.0
 40
0.0
 40
0.2
 40
0.2
 40
0.2
 40
0.2
 40
0.4
 40
0.4
 40
0.4
 40
0.4
 40
0.6
 40
0.6
 40
0.6
 40
0.6
 40
1.0
 40
1.0
 40
1.0
 40
1.0
 10
45.1016
 20
78.6632
 30
0.0
 10
45.1016
 20
78.6632
 30
0.0
 10
-0.5145
 20
78.6632
 30
0.0
 10
-0.5145
 20
78.6632
 30
0.0
 10
-0.5145
 20
78.6632
 30
0.0
 10
1.087
 20
82.348
 30
0.0
 10
3.6285
 20
85.2553
 30
0.0
 10
6.6296
 20
87.8473
 30
0.0
 10
6.6296
 20
87.8473
 30
0.0
 10
17.1959
 20
82.0525
 30
0.0
 10
27.3042
 20
81.9926
 30
0.0
 10
37.8563
 20
87.9495
 30
0.0
 10
37.8563
 20
87.9495
 30
0.0
 10
41.2624
 20
85.6089
 30
0.0
 10
43.295
 20
82.2763
 30
0.0
 10
45.1016
 20
78.6632
 30
0.0
  0
SPLINE
  5
4D
330
1F
100
AcDbEntity
  8
layer 1
 62
     7
100
AcDbSpline
210
0.0
220
0.0
230
1.0
 70
    11
 71
     3
 72
    12
 73
     8
 74
     0
 42
0.0000000001
 43
0.0000000001
 12
1.0
 22
0.0
 32
0.0
 13
1.0
 23
0.0
 33
0.0
 40
0.0
 40
0.0
 40
0.0
 40
0.0
 40
0.3333333333333333
 40
0.3333333333333333
 40
0.3333333333333333
 40
0.3333333333333333
 40
1.0
 40
1.0
 40
1.0
 40
1.0
 10
9.997
 20
89.9897
 30
0.0
 10
18.7433
 20
94.2887
 30
0.0
 10
25.955
 20
93.9613
 30
0.0
 10
34.692
 20
89.9897
 30
0.0
 10
34.692
 20
89.9897
 30
0.0
 10
25.7541
 20
85.9396
 30
0.0
 10
18.9121
 20
86.09
 30
0.0
 10
9.997
 20
89.9897
 30
0.0
  0
SPLINE
  5
4E
330
1F
100
AcDbEntity
  8
layer 1
 62
     7
100
AcDbSpline
210
0.0
220
0.0
230
1.0
 70
    11
 71
     3
 72
    20
 73
    16
 74
     0
 42
0.0000000001
 43
0.0000000001
 12
1.0
 22
0.0
 32
0.0
 13
1.0
 23
0.0
 33
0.0
 40
0.0
 40
0.0
 40
0.0
 40
0.0
 40
0.2
 40
0.2
 40
0.2
 40
0.2
 40
0.4
 40
0.4
 40
0.4
 40
0.4
 40
0.6
 40
0.6
 40
0.6
 40
0.6
 40
1.0
 40
1.0
 40
1.0
 40
1.0
 10
-0.5145
 20
100.7055
 30
0.0
 10
1.4987
 20
97.586
 30
0.0
 10
3.501
 20
94.4862
 30
0.0
 10
6.5274
 20
92.235
 30
0.0
 10
6.5274
 20
92.235
 30
0.0
 10
17.3065
 20
98.0198
 30
0.0
 10
27.1709
 20
97.8908
 30
0.0
 10
37.8563
 20
92.0309
 30
0.0
 10
37.8563
 20
92.0309
 30
0.0
 10
40.8237
 20
94.6802
 30
0.0
 10
43.2157
 20
97.1305
 30
0.0
 10
45.1016
 20
100.7055
 30
0.0
 10
45.1016
 20
100.7055
 30
0.0
 10
45.1016
 20
100.7055
 30
0.0
 10
-0.5145
 20
100.7055
 30
0.0
 10
-0.5145
 20
100.7055
 30
0.0
  0
SPLINE
  5
4F
330
1F
100
AcDbEntity
  8
layer 1
 62
     7
100
AcDbSpline
210
0.0
220
0.0
230
1.0
 70
    11
 71
     3
 72
    16
 73
    12
 74
     0
 42
0.0000000001
 43
0.0000000001
 12
1.0
 22
0.0
 32
0.0
 13
1.0
 23
0.0
 33
0.0
 40
0.0
 40
0.0
 40
0.0
 40
0.0
 40
0.25
 40
0.25
 40
0.25
 40
0.25
 40
0.5
 40
0.5
 40
0.5
 40
0.5
 40
1.0
 40
1.0
 40
1.0
 40
1.0
 10
40.7131
 20
89.9897
 30
0.0
 10
42.6521
 20
88.5586
 30
0.0
 10
44.105
 20
86.7362
 30
0.0
 10
45.612
 20
84.8875
 30
0.0
 10
45.612
 20
84.8875
 30
0.0
 10
45.612
 20
84.8875
 30
0.0
 10
45.612
 20
95.1949
 30
0.0
 10
45.612
 20
95.1949
 30
0.0
 10
45.612
 20
95.1949
 30
0.0
 10
44.2341
 20
93.2036
 30
0.0
 10
42.4774
 20
91.619
 30
0.0
 10
40.7131
 20
89.9897
 30
0.0
  0
SPLINE
  5
50
330
1F
100
AcDbEntity
  8
layer 1
 62
     7
100
AcDbSpline
210
0.0
220
0.0
230
1.0
 70
    11
 71
     3
 72
    20
 73
    16
 74
     0
 42
0.0000000001
 43
0.0000000001
 12
1.0
 22
0.0
 32
0.0
 13
1.0
 23
0.0
 33
0.0
 40
0.0
 40
0.0
 40
0.0
 40
0.0
 40
0.2
 40
0.2
 40
0.2
 40
0.2
 40
0.4
 40
0.4
 40
0.4
 40
0.4
 40
0.6
 40
0.6
 40
0.6
 40
0.6
 40
1.0
 40
1.0
 40
1.0
 40
1.0
 10
3.4656
 20
116.5225
 30
0.0
 10
1.5602
 20
117.8304
 30
0.0
 10
0.1942
 20
119.5407
 30
0.0
 10
-1.3633
 20
121.3192
 30
0.0
 10
-1.3633
 20
121.3192
 30
0.0
 10
-2.9209
 20
119.5407
 30
0.0
 10
-4.287
 20
117.8304
 30
0.0
 10
-6.1921
 20
116.5225
 30
0.0
 10
-6.1921
 20
116.5225
 30
0.0
 10
-4.4025
 20
115.0772
 30
0.0
 10
-2.7049
 20
113.7399
 30
0.0
 10
-1.3633
 20
111.7266
 30
0.0
 10
-1.3633
 20
111.7266
 30
0.0
 10
-0.0218
 20
113.7399
 30
0.0
 10
1.676
 20
115.0772
 30
0.0
 10
3.4656
 20
116.5225
 30
0.0
  0
SPLINE
  5
51
330
1F
100
AcDbEntity
  8
layer 1
 62
     7
100
AcDbSpline
210
0.0
220
0.0
230
1.0
 70
    11
 71
     3
 72
    20
 73
    16
 74
     0
 42
0.0000000001
 43
0.0000000001
 12
1.0
 22
0.0
 32
0.0
 13
1.0
 23
0.0
 33
0.0
 40
0.0
 40
0.0
 40
0.0
 40
0.0
 40
0.2
 40
0.2
 40
0.2
 40
0.2
 40
0.4
 40
0.4
 40
0.4
 40
0.4
 40
0.6
 40
0.6
 40
0.6
 40
0.6
 40
1.0
 40
1.0
 40
1.0
 40
1.0
 10
45.1016
 20
105.1951
 30
0.0
 10
45.1016
 20
105.1951
 30
0.0
 10
-0.5145
 20
105.1951
 30
0.0
 10
-0.5145
 20
105.1951
 30
0.0
 10
-0.5145
 20
105.1951
 30
0.0
 10
1.087
 20
108.8805
 30
0.0
 10
3.6285
 20
111.7875
 30
0.0
 10
6.6296
 20
114.3795
 30
0.0
 10
6.6296
 20
114.3795
 30
0.0
 10
17.1959
 20
108.5852
 30
0.0
 10
27.3042
 20
108.5246
 30
0.0
 10
37.8563
 20
114.4814
 30
0.0
 10
37.8563
 20
114.4814
 30
0.0
 10
41.2624
 20
112.1417
 30
0.0
 10
43.295
 20
108.8082
 30
0.0
 10
45.1016
 20
105.1951
 30
0.0
  0
SPLINE
  5
52
330
1F
100
AcDbEntity
  8
layer 1
 62
     7
100
AcDbSpline
210
0.0
220
0.0
230
1.0
 70
    11
 71
     3
 72
    12
 73
     8
 74
     0
 42
0.0000000001
 43
0.0000000001
 12
1.0
 22
0.0
 32
0.0
 13
1.0
 23
0.0
 33
0.0
 40
0.0
 40
0.0
 40
0.0
 40
0.0
 40
0.3333333333333333
 40
0.3333333333333333
 40
0.3333333333333333
 40
0.3333333333333333
 40
1.0
 40
1.0
 40
1.0
 40
1.0
 10
9.997
 20
116.5225
 30
0.0
 10
18.7433
 20
120.8215
 30
0.0
 10
25.955
 20
120.4941
 30
0.0
 10
34.692
 20
116.5225
 30
0.0
 10
34.692
 20
116.5225
 30
0.0
 10
25.7541
 20
112.4724
 30
0.0
 10
18.9121
 20
112.6227
 30
0.0
 10
9.997
 20
116.5225
 30
0.0
  0
SPLINE
  5
53
330
1F
100
AcDbEntity
  8
layer 1
 62
     7
100
AcDbSpline
210
0.0
220
0.0
230
1.0
 70
    11
 71
     3
 72
    20
 73
    16
 74
     0
 42
0.0000000001
 43
0.0000000001
 12
1.0
 22
0.0
 32
0.0
 13
1.0
 23
0.0
 33
0.0
 40
0.0
 40
0.0
 40
0.0
 40
0.0
 40
0.2
 40
0.2
 40
0.2
 40
0.2
 40
0.4
 40
0.4
 40
0.4
 40
0.4
 40
0.6
 40
0.6
 40
0.6
 40
0.6
 40
1.0
 40
1.0
 40
1.0
 40
1.0
 10
-0.5145
 20
127.2374
 30
0.0
 10
1.4987
 20
124.1179
 30
0.0
 10
3.501
 20
121.019
 30
0.0
 10
6.5274
 20
118.7678
 30
0.0
 10
6.5274
 20
118.7678
 30
0.0
 10
17.3065
 20
124.5525
 30
0.0
 10
27.1709
 20
124.4236
 30
0.0
 10
37.8563
 20
118.5636
 30
0.0
 10
37.8563
 20
118.5636
 30
0.0
 10
40.8237
 20
121.2129
 30
0.0
 10
43.2157
 20
123.6633
 30
0.0
 10
45.1016
 20
127.2374
 30
0.0
 10
45.1016
 20
127.2374
 30
0.0
 10
45.1016
 20
127.2374
 30
0.0
 10
-0.5145
 20
127.2374
 30
0.0
 10
-0.5145
 20
127.2374
 30
0.0
  0
SPLINE
  5
54
330
1F
100
AcDbEntity
  8
layer 1
 62
     7
100
AcDbSpline
210
0.0
220
0.0
230
1.0
 70
    11
 71
     3
 72
    16
 73
    12
 74
     0
 42
0.0000000001
 43
0.0000000001
 12
1.0
 22
0.0
 32
0.0
 13
1.0
 23
0.0
 33
0.0
 40
0.0
 40
0.0
 40
0.0
 40
0.0
 40
0.25
 40
0.25
 40
0.25
 40
0.25
 40
0.5
 40
0.5
 40
0.5
 40
0.5
 40
1.0
 40
1.0
 40
1.0
 40
1.0
 10
40.7131
 20
116.5225
 30
0.0
 10
42.6521
 20
115.0914
 30
0.0
 10
44.105
 20
113.2691
 30
0.0
 10
45.612
 20
111.4203
 30
0.0
 10
45.612
 20
111.4203
 30
0.0
 10
45.612
 20
111.4203
 30
0.0
 10
45.612
 20
121.7268
 30
0.0
 10
45.612
 20
121.7268
 30
0.0
 10
45.612
 20
121.7268
 30
0.0
 10
44.2341
 20
119.7355
 30
0.0
 10
42.4774
 20
118.1517
 30
0.0
 10
40.7131
 20
116.5225
 30
0.0
  0
SPLINE
  5
55
330
1F
100
AcDbEntity
  8
layer 1
 62
     7
100
AcDbSpline
210
0.0
220
0.0
230
1.0
 70
    11
 71
     3
 72
    20
 73
    16
 74
     0
 42
0.0000000001
 43
0.0000000001
 12
1.0
 22
0.0
 32
0.0
 13
1.0
 23
0.0
 33
0.0
 40
0.0
 40
0.0
 40
0.0
 40
0.0
 40
0.2
 40
0.2
 40
0.2
 40
0.2
 40
0.4
 40
0.4
 40
0.4
 40
0.4
 40
0.6
 40
0.6
 40
0.6
 40
0.6
 40
1.0
 40
1.0
 40
1.0
 40
1.0
 10
9.7929
 20
9.6785
 30
0.0
 10
5.9209
 20
9.6025
 30
0.0
 10
4.7378
 20
13.5909
 30
0.0
 10
7.1393
 20
15.8017
 30
0.0
 10
7.1393
 20
15.8017
 30
0.0
 10
7.1393
 20
15.8017
 30
0.0
 10
10.7109
 20
19.3733
 30
0.0
 10
10.7109
 20
19.3733
 30
0.0
 10
10.7109
 20
19.3733
 30
0.0
 10
10.1346
 20
15.6473
 30
0.0
 10
11.4414
 20
12.0815
 30
0.0
 10
14.4866
 20
9.6785
 30
0.0
 10
14.4866
 20
9.6785
 30
0.0
 10
14.4866
 20
9.6785
 30
0.0
 10
9.7929
 20
9.6785
 30
0.0
 10
9.7929
 20
9.6785
 30
0.0
  0
SPLINE
  5
56
330
1F
100
AcDbEntity
  8
layer 1
 62
     7
100
AcDbSpline
210
0.0
220
0.0
230
1.0
 70
    11
 71
     3
 72
    20
 73
    16
 74
     0
 42
0.0000000001
 43
0.0000000001
 12
1.0
 22
0.0
 32
0.0
 13
1.0
 23
0.0
 33
0.0
 40
0.0
 40
0.0
 40
0.0
 40
0.0
 40
0.2
 40
0.2
 40
0.2
 40
0.2
 40
0.4
 40
0.4
 40
0.4
 40
0.4
 40
0.6
 40
0.6
 40
0.6
 40
0.6
 40
1.0
 40
1.0
 40
1.0
 40
1.0
 10
-0.0041
 20
19.5766
 30
0.0
 10
-0.0041
 20
16.0395
 30
0.0
 10
3.4714
 20
14.4331
 30
0.0
 10
6.1191
 20
16.8217
 30
0.0
 10
6.1191
 20
16.8217
 30
0.0
 10
6.1191
 20
16.8217
 30
0.0
 10
10.0992
 20
20.8017
 30
0.0
 10
10.0992
 20
20.8017
 30
0.0
 10
10.0992
 20
20.8017
 30
0.0
 10
5.8895
 20
19.8855
 30
0.0
 10
2.3821
 20
21.297
 30
0.0
 10
-0.0041
 20
23.7607
 30
0.0
 10
-0.0041
 20
23.7607
 30
0.0
 10
-0.0041
 20
23.7607
 30
0.0
 10
-0.0041
 20
19.5766
 30
0.0
 10
-0.0041
 20
19.5766
 30
0.0
  0
SPLINE
  5
57
330
1F
100
AcDbEntity
  8
layer 1
 62
     7
100
AcDbSpline
210
0.0
220
0.0
230
1.0
 70
    11
 71
     3
 72
    28
 73
    24
 74
     0
 42
0.0000000001
 43
0.0000000001
 12
1.0
 22
0.0
 32
0.0
 13
1.0
 23
0.0
 33
0.0
 40
0.0
 40
0.0
 40
0.0
 40
0.0
 40
0.1428571428571428
 40
0.1428571428571428
 40
0.1428571428571428
 40
0.1428571428571428
 40
0.2857142857142857
 40
0.2857142857142857
 40
0.2857142857142857
 40
0.2857142857142857
 40
0.4285714285714285
 40
0.4285714285714285
 40
0.4285714285714285
 40
0.4285714285714285
 40
0.5714285714285714
 40
0.5714285714285714
 40
0.5714285714285714
 40
0.5714285714285714
 40
0.7142857142857143
 40
0.7142857142857143
 40
0.7142857142857143
 40
0.7142857142857143
 40
1.0
 40
1.0
 40
1.0
 40
1.0
 10
-7.0865
 20
8.4635
 30
0.0
 10
-7.0865
 20
6.9431
 30
0.0
 10
-6.4824
 20
5.4851
 30
0.0
 10
-5.4073
 20
4.4092
 30
0.0
 10
-5.4073
 20
4.4092
 30
0.0
 10
-4.3325
 20
3.3343
 30
0.0
 10
-2.8737
 20
2.7302
 30
0.0
 10
-1.3532
 20
2.7302
 30
0.0
 10
-1.3532
 20
2.7302
 30
0.0
 10
0.1672
 20
2.7302
 30
0.0
 10
1.6261
 20
3.3343
 30
0.0
 10
2.7011
 20
4.4092
 30
0.0
 10
2.7011
 20
4.4092
 30
0.0
 10
3.7768
 20
5.4851
 30
0.0
 10
4.3801
 20
6.9431
 30
0.0
 10
4.3801
 20
8.4635
 30
0.0
 10
4.3801
 20
8.4635
 30
0.0
 10
4.3801
 20
11.6301
 30
0.0
 10
1.8134
 20
14.1977
 30
0.0
 10
-1.3532
 20
14.1977
 30
0.0
 10
-1.3532
 20
14.1977
 30
0.0
 10
-4.5198
 20
14.1977
 30
0.0
 10
-7.0865
 20
11.6301
 30
0.0
 10
-7.0865
 20
8.4635
 30
0.0
  0
SPLINE
  5
58
330
1F
100
AcDbEntity
  8
layer 1
 62
     7
100
AcDbSpline
210
0.0
220
0.0
230
1.0
 70
    11
 71
     3
 72
    16
 73
    12
 74
     0
 42
0.0000000001
 43
0.0000000001
 12
1.0
 22
0.0
 32
0.0
 13
1.0
 23
0.0
 33
0.0
 40
0.0
 40
0.0
 40
0.0
 40
0.0
 40
0.25
 40
0.25
 40
0.25
 40
0.25
 40
0.5
 40
0.5
 40
0.5
 40
0.5
 40
1.0
 40
1.0
 40
1.0
 40
1.0
 10
-48.4407
 20
74.2749
 30
0.0
 10
-48.4407
 20
74.2749
 30
0.0
 10
-39.9702
 20
74.2749
 30
0.0
 10
-39.9702
 20
74.2749
 30
0.0
 10
-39.9702
 20
74.2749
 30
0.0
 10
-44.6775
 20
73.4016
 30
0.0
 10
-48.1766
 20
69.3853
 30
0.0
 10
-48.4407
 20
64.7842
 30
0.0
 10
-48.4407
 20
64.7842
 30
0.0
 10
-48.4407
 20
64.7842
 30
0.0
 10
-48.4407
 20
74.2749
 30
0.0
 10
-48.4407
 20
74.2749
 30
0.0
  0
SPLINE
  5
59
330
1F
100
AcDbEntity
  8
layer 1
 62
     7
100
AcDbSpline
210
0.0
220
0.0
230
1.0
 70
    11
 71
     3
 72
    16
 73
    12
 74
     0
 42
0.0000000001
 43
0.0000000001
 12
1.0
 22
0.0
 32
0.0
 13
1.0
 23
0.0
 33
0.0
 40
0.0
 40
0.0
 40
0.0
 40
0.0
 40
0.25
 40
0.25
 40
0.25
 40
0.25
 40
0.5
 40
0.5
 40
0.5
 40
0.5
 40
1.0
 40
1.0
 40
1.0
 40
1.0
 10
-5.07
 20
57.3348
 30
0.0
 10
-2.5978
 20
57.4832
 30
0.0
 10
-0.1289
 20
57.403
 30
0.0
 10
2.3432
 20
57.3348
 30
0.0
 10
2.3432
 20
57.3348
 30
0.0
 10
0.373
 20
58.699
 30
0.0
 10
-0.3888
 20
59.3471
 30
0.0
 10
-1.3633
 20
61.8252
 30
0.0
 10
-1.3633
 20
61.8252
 30
0.0
 10
-2.3377
 20
59.3471
 30
0.0
 10
-3.0998
 20
58.699
 30
0.0
 10
-5.07
 20
57.3348
 30
0.0
  0
SPLINE
  5
5A
330
1F
100
AcDbEntity
  8
layer 1
 62
     7
100
AcDbSpline
210
0.0
220
0.0
230
1.0
 70
    11
 71
     3
 72
    52
 73
    48
 74
     0
 42
0.0000000001
 43
0.0000000001
 12
1.0
 22
0.0
 32
0.0
 13
1.0
 23
0.0
 33
0.0
 40
0.0
 40
0.0
 40
0.0
 40
0.0
 40
0.0769230769230769
 40
0.0769230769230769
 40
0.0769230769230769
 40
0.0769230769230769
 40
0.1538461538461539
 40
0.1538461538461539
 40
0.1538461538461539
 40
0.1538461538461539
 40
0.2307692307692308
 40
0.2307692307692308
 40
0.2307692307692308
 40
0.2307692307692308
 40
0.3076923076923077
 40
0.3076923076923077
 40
0.3076923076923077
 40
0.3076923076923077
 40
0.3846153846153846
 40
0.3846153846153846
 40
0.3846153846153846
 40
0.3846153846153846
 40
0.4615384615384616
 40
0.4615384615384616
 40
0.4615384615384616
 40
0.4615384615384616
 40
0.5384615384615384
 40
0.5384615384615384
 40
0.5384615384615384
 40
0.5384615384615384
 40
0.6153846153846154
 40
0.6153846153846154
 40
0.6153846153846154
 40
0.6153846153846154
 40
0.6923076923076923
 40
0.6923076923076923
 40
0.6923076923076923
 40
0.6923076923076923
 40
0.7692307692307693
 40
0.7692307692307693
 40
0.7692307692307693
 40
0.7692307692307693
 40
0.8461538461538461
 40
0.8461538461538461
 40
0.8461538461538461
 40
0.8461538461538461
 40
1.0
 40
1.0
 40
1.0
 40
1.0
 10
-35.0721
 20
74.2749
 30
0.0
 10
-26.2195
 20
72.0615
 30
0.0
 10
-24.2511
 20
61.8539
 30
0.0
 10
-31.5006
 20
56.4168
 30
0.0
 10
-31.5006
 20
56.4168
 30
0.0
 10
-35.7245
 20
54.1453
 30
0.0
 10
-39.9516
 20
55.4599
 30
0.0
 10
-42.0112
 20
59.7842
 30
0.0
 10
-42.0112
 20
59.7842
 30
0.0
 10
-43.2288
 20
64.0459
 30
0.0
 10
-41.4181
 20
67.4825
 30
0.0
 10
-37.1134
 20
68.3558
 30
0.0
 10
-37.1134
 20
68.3558
 30
0.0
 10
-35.197
 20
68.355
 30
0.0
 10
-35.3744
 20
65.8921
 30
0.0
 10
-37.1134
 20
65.8053
 30
0.0
 10
-37.1134
 20
65.8053
 30
0.0
 10
-41.4755
 20
63.8897
 30
0.0
 10
-39.6691
 20
58.2653
 30
0.0
 10
-35.2765
 20
58.3556
 30
0.0
 10
-35.2765
 20
58.3556
 30
0.0
 10
-31.1951
 20
58.6964
 30
0.0
 10
-30.0071
 20
62.8242
 30
0.0
 10
-30.2754
 20
66.3148
 30
0.0
 10
-30.2754
 20
66.3148
 30
0.0
 10
-31.8391
 20
70.6299
 30
0.0
 10
-34.2378
 20
72.0702
 30
0.0
 10
-38.7459
 20
71.7233
 30
0.0
 10
-38.7459
 20
71.7233
 30
0.0
 10
-43.6608
 20
70.5219
 30
0.0
 10
-46.3211
 20
66.4658
 30
0.0
 10
-45.9912
 20
61.519
 30
0.0
 10
-45.9912
 20
61.519
 30
0.0
 10
-45.4538
 20
55.1443
 30
0.0
 10
-39.7171
 20
51.3094
 30
0.0
 10
-33.8479
 20
50.9061
 30
0.0
 10
-33.8479
 20
50.9061
 30
0.0
 10
-25.8323
 20
51.668
 30
0.0
 10
-22.7246
 20
57.311
 30
0.0
 10
-22.7246
 20
64.8864
 30
0.0
 10
-22.7246
 20
64.8864
 30
0.0
 10
-22.2075
 20
69.2907
 30
0.0
 10
-21.0591
 20
71.8043
 30
0.0
 10
-17.0099
 20
74.1728
 30
0.0
 10
-17.0099
 20
74.1728
 30
0.0
 10
-17.0099
 20
74.1728
 30
0.0
 10
-35.0721
 20
74.2749
 30
0.0
 10
-35.0721
 20
74.2749
 30
0.0
  0
SPLINE
  5
5B
330
1F
100
AcDbEntity
  8
layer 1
 62
     7
100
AcDbSpline
210
0.0
220
0.0
230
1.0
 70
    11
 71
     3
 72
    16
 73
    12
 74
     0
 42
0.0000000001
 43
0.0000000001
 12
1.0
 22
0.0
 32
0.0
 13
1.0
 23
0.0
 33
0.0
 40
0.0
 40
0.0
 40
0.0
 40
0.0
 40
0.25
 40
0.25
 40
0.25
 40
0.25
 40
0.5
 40
0.5
 40
0.5
 40
0.5
 40
1.0
 40
1.0
 40
1.0
 40
1.0
 10
-46.9093
 20
9.6785
 30
0.0
 10
-42.7387
 20
11.858
 30
0.0
 10
-39.3713
 20
15.314
 30
0.0
 10
-38.4396
 20
18.5564
 30
0.0
 10
-38.4396
 20
18.5564
 30
0.0
 10
-37.028
 20
15.0542
 30
0.0
 10
-34.3855
 20
11.9346
 30
0.0
 10
-31.5006
 20
9.6785
 30
0.0
 10
-31.5006
 20
9.6785
 30
0.0
 10
-31.5006
 20
9.6785
 30
0.0
 10
-46.9093
 20
9.6785
 30
0.0
 10
-46.9093
 20
9.6785
 30
0.0
  0
SPLINE
  5
5C
330
1F
100
AcDbEntity
  8
layer 1
 62
     7
100
AcDbSpline
210
0.0
220
0.0
230
1.0
 70
    11
 71
     3
 72
    84
 73
    80
 74
     0
 42
0.0000000001
 43
0.0000000001
 12
1.0
 22
0.0
 32
0.0
 13
1.0
 23
0.0
 33
0.0
 40
0.0
 40
0.0
 40
0.0
 40
0.0
 40
0.0476190476190476
 40
0.0476190476190476
 40
0.0476190476190476
 40
0.0476190476190476
 40
0.0952380952380952
 40
0.0952380952380952
 40
0.0952380952380952
 40
0.0952380952380952
 40
0.1428571428571428
 40
0.1428571428571428
 40
0.1428571428571428
 40
0.1428571428571428
 40
0.1904761904761905
 40
0.1904761904761905
 40
0.1904761904761905
 40
0.1904761904761905
 40
0.2380952380952381
 40
0.2380952380952381
 40
0.2380952380952381
 40
0.2380952380952381
 40
0.2857142857142857
 40
0.2857142857142857
 40
0.2857142857142857
 40
0.2857142857142857
 40
0.3333333333333333
 40
0.3333333333333333
 40
0.3333333333333333
 40
0.3333333333333333
 40
0.3809523809523809
 40
0.3809523809523809
 40
0.3809523809523809
 40
0.3809523809523809
 40
0.4285714285714285
 40
0.4285714285714285
 40
0.4285714285714285
 40
0.4285714285714285
 40
0.4761904761904762
 40
0.4761904761904762
 40
0.4761904761904762
 40
0.4761904761904762
 40
0.5238095238095238
 40
0.5238095238095238
 40
0.5238095238095238
 40
0.5238095238095238
 40
0.5714285714285714
 40
0.5714285714285714
 40
0.5714285714285714
 40
0.5714285714285714
 40
0.6190476190476191
 40
0.6190476190476191
 40
0.6190476190476191
 40
0.6190476190476191
 40
0.6666666666666666
 40
0.6666666666666666
 40
0.6666666666666666
 40
0.6666666666666666
 40
0.7142857142857143
 40
0.7142857142857143
 40
0.7142857142857143
 40
0.7142857142857143
 40
0.7619047619047619
 40
0.7619047619047619
 40
0.7619047619047619
 40
0.7619047619047619
 40
0.8095238095238095
 40
0.8095238095238095
 40
0.8095238095238095
 40
0.8095238095238095
 40
0.8571428571428571
 40
0.8571428571428571
 40
0.8571428571428571
 40
0.8571428571428571
 40
0.9047619047619048
 40
0.9047619047619048
 40
0.9047619047619048
 40
0.9047619047619048
 40
1.0
 40
1.0
 40
1.0
 40
1.0
 10
-31.6027
 20
22.5365
 30
0.0
 10
-31.3505
 20
28.2039
 30
0.0
 10
-23.863
 20
30.6696
 30
0.0
 10
-19.5607
 20
26.7206
 30
0.0
 10
-19.5607
 20
26.7206
 30
0.0
 10
-22.9676
 20
31.2424
 30
0.0
 10
-20.8836
 20
37.9461
 30
0.0
 10
-14.6626
 20
38.6599
 30
0.0
 10
-14.6626
 20
38.6599
 30
0.0
 10
-10.8791
 20
38.6303
 30
0.0
 10
-8.6035
 20
35.948
 30
0.0
 10
-8.4374
 20
33.1493
 30
0.0
 10
-8.4374
 20
33.1493
 30
0.0
 10
-8.5379
 20
29.5017
 30
0.0
 10
-10.1823
 20
27.535
 30
0.0
 10
-13.8459
 20
26.7206
 30
0.0
 10
-13.8459
 20
26.7206
 30
0.0
 10
-15.1436
 20
27.2397
 30
0.0
 10
-15.4508
 20
28.95
 30
0.0
 10
-13.8459
 20
29.2714
 30
0.0
 10
-13.8459
 20
29.2714
 30
0.0
 10
-11.6014
 20
30.1682
 30
0.0
 10
-10.4877
 20
32.352
 30
0.0
 10
-11.6014
 20
34.5777
 30
0.0
 10
-11.6014
 20
34.5777
 30
0.0
 10
-12.9683
 20
36.5184
 30
0.0
 10
-14.6373
 20
36.7209
 30
0.0
 10
-16.7036
 20
35.8029
 30
0.0
 10
-16.7036
 20
35.8029
 30
0.0
 10
-19.6442
 20
33.3069
 30
0.0
 10
-18.5457
 20
28.8351
 30
0.0
 10
-16.3973
 20
26.2102
 30
0.0
 10
-16.3973
 20
26.2102
 30
0.0
 10
-13.5521
 20
23.0402
 30
0.0
 10
-10.0229
 20
23.3255
 30
0.0
 10
-6.4984
 20
25.0881
 30
0.0
 10
-6.4984
 20
25.0881
 30
0.0
 10
-2.4265
 20
28.107
 30
0.0
 10
-2.088
 20
31.7773
 30
0.0
 10
-4.2541
 20
36.1091
 30
0.0
 10
-4.2541
 20
36.1091
 30
0.0
 10
-10.859
 20
46.339
 30
0.0
 10
-22.7551
 20
45.7111
 30
0.0
 10
-29.2555
 20
41.3135
 30
0.0
 10
-29.2555
 20
41.3135
 30
0.0
 10
-34.2276
 20
37.8439
 30
0.0
 10
-37.1134
 20
32.4903
 30
0.0
 10
-37.1134
 20
26.4143
 30
0.0
 10
-37.1134
 20
26.4143
 30
0.0
 10
-37.0037
 20
19.8635
 30
0.0
 10
-34.2073
 20
15.0187
 30
0.0
 10
-29.1533
 20
11.5154
 30
0.0
 10
-29.1533
 20
11.5154
 30
0.0
 10
-25.2771
 20
8.8727
 30
0.0
 10
-21.2143
 20
9.3671
 30
0.0
 10
-18.2341
 20
12.7397
 30
0.0
 10
-18.2341
 20
12.7397
 30
0.0
 10
-15.8033
 20
16.361
 30
0.0
 10
-15.9746
 20
19.5023
 30
0.0
 10
-18.0301
 20
22.5365
 30
0.0
 10
-18.0301
 20
22.5365
 30
0.0
 10
-20.5858
 20
25.6331
 30
0.0
 10
-23.1906
 20
26.7131
 30
0.0
 10
-27.2142
 20
25.5977
 30
0.0
 10
-27.2142
 20
25.5977
 30
0.0
 10
-29.3414
 20
24.4189
 30
0.0
 10
-29.8257
 20
21.9265
 30
0.0
 10
-28.4385
 20
19.9851
 30
0.0
 10
-28.4385
 20
19.9851
 30
0.0
 10
-26.109
 20
17.9043
 30
0.0
 10
-23.5846
 20
18.4569
 30
0.0
 10
-22.3164
 20
21.3121
 30
0.0
 10
-22.3164
 20
21.3121
 30
0.0
 10
-21.9662
 20
22.7112
 30
0.0
 10
-19.7639
 20
22.6842
 30
0.0
 10
-19.7647
 20
21.2102
 30
0.0
 10
-19.7647
 20
21.2102
 30
0.0
 10
-20.8238
 20
14.1217
 30
0.0
 10
-31.633
 20
14.2204
 30
0.0
 10
-31.6027
 20
22.5365
 30
0.0
  0
SPLINE
  5
5D
330
1F
100
AcDbEntity
  8
layer 1
 62
     7
100
AcDbSpline
210
0.0
220
0.0
230
1.0
 70
    11
 71
     3
 72
    16
 73
    12
 74
     0
 42
0.0000000001
 43
0.0000000001
 12
1.0
 22
0.0
 32
0.0
 13
1.0
 23
0.0
 33
0.0
 40
0.0
 40
0.0
 40
0.0
 40
0.0
 40
0.25
 40
0.25
 40
0.25
 40
0.25
 40
0.5
 40
0.5
 40
0.5
 40
0.5
 40
1.0
 40
1.0
 40
1.0
 40
1.0
 10
-11.4995
 20
45.4968
 30
0.0
 10
-7.4123
 20
47.1058
 30
0.0
 10
-4.3012
 20
50.0987
 30
0.0
 10
-2.6205
 20
53.9673
 30
0.0
 10
-2.6205
 20
53.9673
 30
0.0
 10
-2.6205
 20
53.9673
 30
0.0
 10
-2.6205
 20
38.5577
 30
0.0
 10
-2.6205
 20
38.5577
 30
0.0
 10
-2.6205
 20
38.5577
 30
0.0
 10
-4.858
 20
41.5725
 30
0.0
 10
-7.8374
 20
44.1375
 30
0.0
 10
-11.4995
 20
45.4968
 30
0.0
  0
SPLINE
  5
5E
330
1F
100
AcDbEntity
  8
layer 1
 62
     7
100
AcDbSpline
210
0.0
220
0.0
230
1.0
 70
    11
 71
     3
 72
    16
 73
    12
 74
     0
 42
0.0000000001
 43
0.0000000001
 12
1.0
 22
0.0
 32
0.0
 13
1.0
 23
0.0
 33
0.0
 40
0.0
 40
0.0
 40
0.0
 40
0.0
 40
0.25
 40
0.25
 40
0.25
 40
0.25
 40
0.5
 40
0.5
 40
0.5
 40
0.5
 40
1.0
 40
1.0
 40
1.0
 40
1.0
 10
-30.2754
 20
43.7621
 30
0.0
 10
-26.0482
 20
46.1683
 30
0.0
 10
-22.0691
 20
47.1615
 30
0.0
 10
-17.2142
 20
46.9261
 30
0.0
 10
-17.2142
 20
46.9261
 30
0.0
 10
-12.1844
 20
47.1497
 30
0.0
 10
-8.1582
 20
49.8101
 30
0.0
 10
-5.5804
 20
53.8651
 30
0.0
 10
-5.5804
 20
53.8651
 30
0.0
 10
-15.7629
 20
52.5792
 30
0.0
 10
-22.7138
 20
49.5654
 30
0.0
 10
-30.2754
 20
43.7621
 30
0.0
  0
SPLINE
  5
5F
330
1F
100
AcDbEntity
  8
layer 1
 62
     7
100
AcDbSpline
210
0.0
220
0.0
230
1.0
 70
    11
 71
     3
 72
    16
 73
    12
 74
     0
 42
0.0000000001
 43
0.0000000001
 12
1.0
 22
0.0
 32
0.0
 13
1.0
 23
0.0
 33
0.0
 40
0.0
 40
0.0
 40
0.0
 40
0.0
 40
0.25
 40
0.25
 40
0.25
 40
0.25
 40
0.5
 40
0.5
 40
0.5
 40
0.5
 40
1.0
 40
1.0
 40
1.0
 40
1.0
 10
-48.4407
 20
22.2301
 30
0.0
 10
-48.4407
 20
22.2301
 30
0.0
 10
-48.4407
 20
59.1716
 30
0.0
 10
-48.4407
 20
59.1716
 30
0.0
 10
-48.4407
 20
59.1716
 30
0.0
 10
-45.7349
 20
50.5542
 30
0.0
 10
-38.6269
 20
46.6029
 30
0.0
 10
-29.868
 20
48.3547
 30
0.0
 10
-29.868
 20
48.3547
 30
0.0
 10
-39.3265
 20
41.3608
 30
0.0
 10
-44.7466
 20
33.3113
 30
0.0
 10
-48.4407
 20
22.2301
 30
0.0
  0
SPLINE
  5
60
330
1F
100
AcDbEntity
  8
layer 1
 62
     7
100
AcDbSpline
210
0.0
220
0.0
230
1.0
 70
    11
 71
     3
 72
    44
 73
    40
 74
     0
 42
0.0000000001
 43
0.0000000001
 12
1.0
 22
0.0
 32
0.0
 13
1.0
 23
0.0
 33
0.0
 40
0.0
 40
0.0
 40
0.0
 40
0.0
 40
0.0909090909090909
 40
0.0909090909090909
 40
0.0909090909090909
 40
0.0909090909090909
 40
0.1818181818181818
 40
0.1818181818181818
 40
0.1818181818181818
 40
0.1818181818181818
 40
0.2727272727272727
 40
0.2727272727272727
 40
0.2727272727272727
 40
0.2727272727272727
 40
0.3636363636363636
 40
0.3636363636363636
 40
0.3636363636363636
 40
0.3636363636363636
 40
0.4545454545454545
 40
0.4545454545454545
 40
0.4545454545454545
 40
0.4545454545454545
 40
0.5454545454545454
 40
0.5454545454545454
 40
0.5454545454545454
 40
0.5454545454545454
 40
0.6363636363636364
 40
0.6363636363636364
 40
0.6363636363636364
 40
0.6363636363636364
 40
0.7272727272727273
 40
0.7272727272727273
 40
0.7272727272727273
 40
0.7272727272727273
 40
0.8181818181818182
 40
0.8181818181818182
 40
0.8181818181818182
 40
0.8181818181818182
 40
1.0
 40
1.0
 40
1.0
 40
1.0
 10
-10.5806
 20
72.54
 30
0.0
 10
-6.2429
 20
72.1831
 30
0.0
 10
-3.6625
 20
69.5177
 30
0.0
 10
-3.5394
 20
65.2946
 30
0.0
 10
-3.5394
 20
65.2946
 30
0.0
 10
-3.6044
 20
61.2184
 30
0.0
 10
-6.5768
 20
58.2653
 30
0.0
 10
-10.5806
 20
58.1514
 30
0.0
 10
-10.5806
 20
58.1514
 30
0.0
 10
-12.1507
 20
58.2081
 30
0.0
 10
-13.2443
 20
59.4103
 30
0.0
 10
-13.3361
 20
61.1104
 30
0.0
 10
-13.3361
 20
61.1104
 30
0.0
 10
-13.1564
 20
62.722
 30
0.0
 10
-12.2242
 20
63.791
 30
0.0
 10
-10.5806
 20
64.0695
 30
0.0
 10
-10.5806
 20
64.0695
 30
0.0
 10
-8.9833
 20
64.1801
 30
0.0
 10
-9.2263
 20
66.5468
 30
0.0
 10
-10.5806
 20
66.6211
 30
0.0
 10
-10.5806
 20
66.6211
 30
0.0
 10
-13.4577
 20
66.2811
 30
0.0
 10
-14.9174
 20
65.002
 30
0.0
 10
-15.8869
 20
62.3348
 30
0.0
 10
-15.8869
 20
62.3348
 30
0.0
 10
-16.5198
 20
59.6609
 30
0.0
 10
-15.2802
 20
57.5119
 30
0.0
 10
-13.132
 20
56.0083
 30
0.0
 10
-13.132
 20
56.0083
 30
0.0
 10
-18.2089
 20
54.4449
 30
0.0
 10
-19.9116
 20
53.9757
 30
0.0
 10
-25.0713
 20
51.3137
 30
0.0
 10
-25.0713
 20
51.3137
 30
0.0
 10
-22.6529
 20
53.0409
 30
0.0
 10
-19.2805
 20
57.6199
 30
0.0
 10
-19.4585
 20
62.3348
 30
0.0
 10
-19.4585
 20
62.3348
 30
0.0
 10
-20.1309
 20
68.3441
 30
0.0
 10
-16.2522
 20
72.6143
 30
0.0
 10
-10.5806
 20
72.54
 30
0.0
  0
SPLINE
  5
61
330
1F
100
AcDbEntity
  8
layer 1
 62
     7
100
AcDbSpline
210
0.0
220
0.0
230
1.0
 70
    11
 71
     3
 72
    16
 73
    12
 74
     0
 42
0.0000000001
 43
0.0000000001
 12
1.0
 22
0.0
 32
0.0
 13
1.0
 23
0.0
 33
0.0
 40
0.0
 40
0.0
 40
0.0
 40
0.0
 40
0.25
 40
0.25
 40
0.25
 40
0.25
 40
0.5
 40
0.5
 40
0.5
 40
0.5
 40
1.0
 40
1.0
 40
1.0
 40
1.0
 10
-39.7661
 20
24.3733
 30
0.0
 10
-39.9449
 20
29.0115
 30
0.0
 10
-39.7803
 20
31.7487
 30
0.0
 10
-36.6027
 20
37.3335
 30
0.0
 10
-36.6027
 20
37.3335
 30
0.0
 10
-41.92
 20
30.7353
 30
0.0
 10
-45.9137
 20
22.0742
 30
0.0
 10
-46.808
 20
12.6376
 30
0.0
 10
-46.808
 20
12.6376
 30
0.0
 10
-42.4408
 20
15.6937
 30
0.0
 10
-40.5137
 20
19.1405
 30
0.0
 10
-39.7661
 20
24.3733
 30
0.0
  0
SPLINE
  5
62
330
1F
100
AcDbEntity
  8
layer 1
 62
     7
100
AcDbSpline
210
0.0
220
0.0
230
1.0
 70
    11
 71
     3
 72
    20
 73
    16
 74
     0
 42
0.0000000001
 43
0.0000000001
 12
1.0
 22
0.0
 32
0.0
 13
1.0
 23
0.0
 33
0.0
 40
0.0
 40
0.0
 40
0.0
 40
0.0
 40
0.2
 40
0.2
 40
0.2
 40
0.2
 40
0.4
 40
0.4
 40
0.4
 40
0.4
 40
0.6
 40
0.6
 40
0.6
 40
0.6
 40
1.0
 40
1.0
 40
1.0
 40
1.0
 10
-6.1921
 20
89.9897
 30
0.0
 10
-4.287
 20
91.2976
 30
0.0
 10
-2.9209
 20
93.0078
 30
0.0
 10
-1.3633
 20
94.7864
 30
0.0
 10
-1.3633
 20
94.7864
 30
0.0
 10
0.1942
 20
93.0078
 30
0.0
 10
1.5602
 20
91.2976
 30
0.0
 10
3.4656
 20
89.9897
 30
0.0
 10
3.4656
 20
89.9897
 30
0.0
 10
1.676
 20
88.5444
 30
0.0
 10
-0.0218
 20
87.2071
 30
0.0
 10
-1.3633
 20
85.1938
 30
0.0
 10
-1.3633
 20
85.1938
 30
0.0
 10
-2.7049
 20
87.2071
 30
0.0
 10
-4.4025
 20
88.5444
 30
0.0
 10
-6.1921
 20
89.9897
 30
0.0
  0
SPLINE
  5
63
330
1F
100
AcDbEntity
  8
layer 1
 62
     7
100
AcDbSpline
210
0.0
220
0.0
230
1.0
 70
    11
 71
     3
 72
    20
 73
    16
 74
     0
 42
0.0000000001
 43
0.0000000001
 12
1.0
 22
0.0
 32
0.0
 13
1.0
 23
0.0
 33
0.0
 40
0.0
 40
0.0
 40
0.0
 40
0.0
 40
0.2
 40
0.2
 40
0.2
 40
0.2
 40
0.4
 40
0.4
 40
0.4
 40
0.4
 40
0.6
 40
0.6
 40
0.6
 40
0.6
 40
1.0
 40
1.0
 40
1.0
 40
1.0
 10
-47.8281
 20
78.6632
 30
0.0
 10
-47.8281
 20
78.6632
 30
0.0
 10
-2.2129
 20
78.6632
 30
0.0
 10
-2.2129
 20
78.6632
 30
0.0
 10
-2.2129
 20
78.6632
 30
0.0
 10
-3.8137
 20
82.348
 30
0.0
 10
-6.355
 20
85.2553
 30
0.0
 10
-9.3563
 20
87.8473
 30
0.0
 10
-9.3563
 20
87.8473
 30
0.0
 10
-19.9227
 20
82.0525
 30
0.0
 10
-30.0315
 20
81.9926
 30
0.0
 10
-40.5828
 20
87.9495
 30
0.0
 10
-40.5828
 20
87.9495
 30
0.0
 10
-43.9891
 20
85.6089
 30
0.0
 10
-46.0217
 20
82.2763
 30
0.0
 10
-47.8281
 20
78.6632
 30
0.0
  0
SPLINE
  5
64
330
1F
100
AcDbEntity
  8
layer 1
 62
     7
100
AcDbSpline
210
0.0
220
0.0
230
1.0
 70
    11
 71
     3
 72
    12
 73
     8
 74
     0
 42
0.0000000001
 43
0.0000000001
 12
1.0
 22
0.0
 32
0.0
 13
1.0
 23
0.0
 33
0.0
 40
0.0
 40
0.0
 40
0.0
 40
0.0
 40
0.3333333333333333
 40
0.3333333333333333
 40
0.3333333333333333
 40
0.3333333333333333
 40
1.0
 40
1.0
 40
1.0
 40
1.0
 10
-12.7237
 20
89.9897
 30
0.0
 10
-21.4701
 20
94.2887
 30
0.0
 10
-28.6816
 20
93.9613
 30
0.0
 10
-37.4196
 20
89.9897
 30
0.0
 10
-37.4196
 20
89.9897
 30
0.0
 10
-28.4808
 20
85.9396
 30
0.0
 10
-21.6388
 20
86.09
 30
0.0
 10
-12.7237
 20
89.9897
 30
0.0
  0
SPLINE
  5
65
330
1F
100
AcDbEntity
  8
layer 1
 62
     7
100
AcDbSpline
210
0.0
220
0.0
230
1.0
 70
    11
 71
     3
 72
    20
 73
    16
 74
     0
 42
0.0000000001
 43
0.0000000001
 12
1.0
 22
0.0
 32
0.0
 13
1.0
 23
0.0
 33
0.0
 40
0.0
 40
0.0
 40
0.0
 40
0.0
 40
0.2
 40
0.2
 40
0.2
 40
0.2
 40
0.4
 40
0.4
 40
0.4
 40
0.4
 40
0.6
 40
0.6
 40
0.6
 40
0.6
 40
1.0
 40
1.0
 40
1.0
 40
1.0
 10
-2.2129
 20
100.7055
 30
0.0
 10
-4.2254
 20
97.586
 30
0.0
 10
-6.2275
 20
94.4862
 30
0.0
 10
-9.2541
 20
92.235
 30
0.0
 10
-9.2541
 20
92.235
 30
0.0
 10
-20.033
 20
98.0198
 30
0.0
 10
-29.8974
 20
97.8908
 30
0.0
 10
-40.5828
 20
92.0309
 30
0.0
 10
-40.5828
 20
92.0309
 30
0.0
 10
-43.5502
 20
94.6802
 30
0.0
 10
-45.9424
 20
97.1305
 30
0.0
 10
-47.8281
 20
100.7055
 30
0.0
 10
-47.8281
 20
100.7055
 30
0.0
 10
-47.8281
 20
100.7055
 30
0.0
 10
-2.2129
 20
100.7055
 30
0.0
 10
-2.2129
 20
100.7055
 30
0.0
  0
SPLINE
  5
66
330
1F
100
AcDbEntity
  8
layer 1
 62
     7
100
AcDbSpline
210
0.0
220
0.0
230
1.0
 70
    11
 71
     3
 72
    16
 73
    12
 74
     0
 42
0.0000000001
 43
0.0000000001
 12
1.0
 22
0.0
 32
0.0
 13
1.0
 23
0.0
 33
0.0
 40
0.0
 40
0.0
 40
0.0
 40
0.0
 40
0.25
 40
0.25
 40
0.25
 40
0.25
 40
0.5
 40
0.5
 40
0.5
 40
0.5
 40
1.0
 40
1.0
 40
1.0
 40
1.0
 10
-43.4398
 20
89.9897
 30
0.0
 10
-45.3787
 20
88.5586
 30
0.0
 10
-46.8326
 20
86.7362
 30
0.0
 10
-48.3385
 20
84.8875
 30
0.0
 10
-48.3385
 20
84.8875
 30
0.0
 10
-48.3385
 20
84.8875
 30
0.0
 10
-48.3385
 20
95.1949
 30
0.0
 10
-48.3385
 20
95.1949
 30
0.0
 10
-48.3385
 20
95.1949
 30
0.0
 10
-46.9607
 20
93.2036
 30
0.0
 10
-45.205
 20
91.619
 30
0.0
 10
-43.4398
 20
89.9897
 30
0.0
  0
SPLINE
  5
67
330
1F
100
AcDbEntity
  8
layer 1
 62
     7
100
AcDbSpline
210
0.0
220
0.0
230
1.0
 70
    11
 71
     3
 72
    20
 73
    16
 74
     0
 42
0.0000000001
 43
0.0000000001
 12
1.0
 22
0.0
 32
0.0
 13
1.0
 23
0.0
 33
0.0
 40
0.0
 40
0.0
 40
0.0
 40
0.0
 40
0.2
 40
0.2
 40
0.2
 40
0.2
 40
0.4
 40
0.4
 40
0.4
 40
0.4
 40
0.6
 40
0.6
 40
0.6
 40
0.6
 40
1.0
 40
1.0
 40
1.0
 40
1.0
 10
-47.8281
 20
105.1951
 30
0.0
 10
-47.8281
 20
105.1951
 30
0.0
 10
-2.2129
 20
105.1951
 30
0.0
 10
-2.2129
 20
105.1951
 30
0.0
 10
-2.2129
 20
105.1951
 30
0.0
 10
-3.8137
 20
108.8805
 30
0.0
 10
-6.355
 20
111.7875
 30
0.0
 10
-9.3563
 20
114.3795
 30
0.0
 10
-9.3563
 20
114.3795
 30
0.0
 10
-19.9227
 20
108.5852
 30
0.0
 10
-30.0315
 20
108.5246
 30
0.0
 10
-40.5828
 20
114.4814
 30
0.0
 10
-40.5828
 20
114.4814
 30
0.0
 10
-43.9891
 20
112.1417
 30
0.0
 10
-46.0217
 20
108.8082
 30
0.0
 10
-47.8281
 20
105.1951
 30
0.0
  0
SPLINE
  5
68
330
1F
100
AcDbEntity
  8
layer 1
 62
     7
100
AcDbSpline
210
0.0
220
0.0
230
1.0
 70
    11
 71
     3
 72
    12
 73
     8
 74
     0
 42
0.0000000001
 43
0.0000000001
 12
1.0
 22
0.0
 32
0.0
 13
1.0
 23
0.0
 33
0.0
 40
0.0
 40
0.0
 40
0.0
 40
0.0
 40
0.3333333333333333
 40
0.3333333333333333
 40
0.3333333333333333
 40
0.3333333333333333
 40
1.0
 40
1.0
 40
1.0
 40
1.0
 10
-12.7237
 20
116.5225
 30
0.0
 10
-21.4701
 20
120.8215
 30
0.0
 10
-28.6816
 20
120.4941
 30
0.0
 10
-37.4196
 20
116.5225
 30
0.0
 10
-37.4196
 20
116.5225
 30
0.0
 10
-28.4808
 20
112.4724
 30
0.0
 10
-21.6388
 20
112.6227
 30
0.0
 10
-12.7237
 20
116.5225
 30
0.0
  0
SPLINE
  5
69
330
1F
100
AcDbEntity
  8
layer 1
 62
     7
100
AcDbSpline
210
0.0
220
0.0
230
1.0
 70
    11
 71
     3
 72
    20
 73
    16
 74
     0
 42
0.0000000001
 43
0.0000000001
 12
1.0
 22
0.0
 32
0.0
 13
1.0
 23
0.0
 33
0.0
 40
0.0
 40
0.0
 40
0.0
 40
0.0
 40
0.2
 40
0.2
 40
0.2
 40
0.2
 40
0.4
 40
0.4
 40
0.4
 40
0.4
 40
0.6
 40
0.6
 40
0.6
 40
0.6
 40
1.0
 40
1.0
 40
1.0
 40
1.0
 10
-2.2129
 20
127.2374
 30
0.0
 10
-4.2254
 20
124.1179
 30
0.0
 10
-6.2275
 20
121.019
 30
0.0
 10
-9.2541
 20
118.7678
 30
0.0
 10
-9.2541
 20
118.7678
 30
0.0
 10
-20.033
 20
124.5525
 30
0.0
 10
-29.8974
 20
124.4236
 30
0.0
 10
-40.5828
 20
118.5636
 30
0.0
 10
-40.5828
 20
118.5636
 30
0.0
 10
-43.5502
 20
121.2129
 30
0.0
 10
-45.9424
 20
123.6633
 30
0.0
 10
-47.8281
 20
127.2374
 30
0.0
 10
-47.8281
 20
127.2374
 30
0.0
 10
-47.8281
 20
127.2374
 30
0.0
 10
-2.2129
 20
127.2374
 30
0.0
 10
-2.2129
 20
127.2374
 30
0.0
  0
SPLINE
  5
6A
330
1F
100
AcDbEntity
  8
layer 1
 62
     7
100
AcDbSpline
210
0.0
220
0.0
230
1.0
 70
    11
 71
     3
 72
    16
 73
    12
 74
     0
 42
0.0000000001
 43
0.0000000001
 12
1.0
 22
0.0
 32
0.0
 13
1.0
 23
0.0
 33
0.0
 40
0.0
 40
0.0
 40
0.0
 40
0.0
 40
0.25
 40
0.25
 40
0.25
 40
0.25
 40
0.5
 40
0.5
 40
0.5
 40
0.5
 40
1.0
 40
1.0
 40
1.0
 40
1.0
 10
-43.4398
 20
116.5225
 30
0.0
 10
-45.3787
 20
115.0914
 30
0.0
 10
-46.8326
 20
113.2691
 30
0.0
 10
-48.3385
 20
111.4203
 30
0.0
 10
-48.3385
 20
111.4203
 30
0.0
 10
-48.3385
 20
111.4203
 30
0.0
 10
-48.3385
 20
121.7268
 30
0.0
 10
-48.3385
 20
121.7268
 30
0.0
 10
-48.3385
 20
121.7268
 30
0.0
 10
-46.9607
 20
119.7355
 30
0.0
 10
-45.205
 20
118.1517
 30
0.0
 10
-43.4398
 20
116.5225
 30
0.0
  0
SPLINE
  5
6B
330
1F
100
AcDbEntity
  8
layer 1
 62
     7
100
AcDbSpline
210
0.0
220
0.0
230
1.0
 70
    11
 71
     3
 72
    20
 73
    16
 74
     0
 42
0.0000000001
 43
0.0000000001
 12
1.0
 22
0.0
 32
0.0
 13
1.0
 23
0.0
 33
0.0
 40
0.0
 40
0.0
 40
0.0
 40
0.0
 40
0.2
 40
0.2
 40
0.2
 40
0.2
 40
0.4
 40
0.4
 40
0.4
 40
0.4
 40
0.6
 40
0.6
 40
0.6
 40
0.6
 40
1.0
 40
1.0
 40
1.0
 40
1.0
 10
-12.5194
 20
9.6785
 30
0.0
 10
-8.6474
 20
9.6025
 30
0.0
 10
-7.4646
 20
13.5909
 30
0.0
 10
-9.8658
 20
15.8017
 30
0.0
 10
-9.8658
 20
15.8017
 30
0.0
 10
-9.8658
 20
15.8017
 30
0.0
 10
-13.4383
 20
19.3733
 30
0.0
 10
-13.4383
 20
19.3733
 30
0.0
 10
-13.4383
 20
19.3733
 30
0.0
 10
-12.8611
 20
15.6473
 30
0.0
 10
-14.1682
 20
12.0815
 30
0.0
 10
-17.2142
 20
9.6785
 30
0.0
 10
-17.2142
 20
9.6785
 30
0.0
 10
-17.2142
 20
9.6785
 30
0.0
 10
-12.5194
 20
9.6785
 30
0.0
 10
-12.5194
 20
9.6785
 30
0.0
  0
SPLINE
  5
6C
330
1F
100
AcDbEntity
  8
layer 1
 62
     7
100
AcDbSpline
210
0.0
220
0.0
230
1.0
 70
    11
 71
     3
 72
    20
 73
    16
 74
     0
 42
0.0000000001
 43
0.0000000001
 12
1.0
 22
0.0
 32
0.0
 13
1.0
 23
0.0
 33
0.0
 40
0.0
 40
0.0
 40
0.0
 40
0.0
 40
0.2
 40
0.2
 40
0.2
 40
0.2
 40
0.4
 40
0.4
 40
0.4
 40
0.4
 40
0.6
 40
0.6
 40
0.6
 40
0.6
 40
1.0
 40
1.0
 40
1.0
 40
1.0
 10
-2.7227
 20
19.5766
 30
0.0
 10
-2.7227
 20
16.0395
 30
0.0
 10
-6.1982
 20
14.4331
 30
0.0
 10
-8.8457
 20
16.8217
 30
0.0
 10
-8.8457
 20
16.8217
 30
0.0
 10
-8.8457
 20
16.8217
 30
0.0
 10
-12.8257
 20
20.8017
 30
0.0
 10
-12.8257
 20
20.8017
 30
0.0
 10
-12.8257
 20
20.8017
 30
0.0
 10
-8.6163
 20
19.8855
 30
0.0
 10
-5.1088
 20
21.297
 30
0.0
 10
-2.7227
 20
23.7607
 30
0.0
 10
-2.7227
 20
23.7607
 30
0.0
 10
-2.7227
 20
23.7607
 30
0.0
 10
-2.7227
 20
19.5766
 30
0.0
 10
-2.7227
 20
19.5766
 30
0.0
  0
SPLINE
  5
6D
330
1F
100
AcDbEntity
  8
layer 1
 62
     7
100
AcDbSpline
210
0.0
220
0.0
230
1.0
 70
    11
 71
     3
 72
    16
 73
    12
 74
     0
 42
0.0000000001
 43
0.0000000001
 12
1.0
 22
0.0
 32
0.0
 13
1.0
 23
0.0
 33
0.0
 40
0.0
 40
0.0
 40
0.0
 40
0.0
 40
0.25
 40
0.25
 40
0.25
 40
0.25
 40
0.5
 40
0.5
 40
0.5
 40
0.5
 40
1.0
 40
1.0
 40
1.0
 40
1.0
 10
45.7133
 20
-57.3554
 30
0.0
 10
45.7133
 20
-57.3554
 30
0.0
 10
37.2437
 20
-57.3554
 30
0.0
 10
37.2437
 20
-57.3554
 30
0.0
 10
37.2437
 20
-57.3554
 30
0.0
 10
41.951
 20
-56.483
 30
0.0
 10
45.45
 20
-52.4658
 30
0.0
 10
45.7133
 20
-47.8647
 30
0.0
 10
45.7133
 20
-47.8647
 30
0.0
 10
45.7133
 20
-47.8647
 30
0.0
 10
45.7133
 20
-57.3554
 30
0.0
 10
45.7133
 20
-57.3554
 30
0.0
  0
SPLINE
  5
6E
330
1F
100
AcDbEntity
  8
layer 1
 62
     7
100
AcDbSpline
210
0.0
220
0.0
230
1.0
 70
    11
 71
     3
 72
    52
 73
    48
 74
     0
 42
0.0000000001
 43
0.0000000001
 12
1.0
 22
0.0
 32
0.0
 13
1.0
 23
0.0
 33
0.0
 40
0.0
 40
0.0
 40
0.0
 40
0.0
 40
0.0769230769230769
 40
0.0769230769230769
 40
0.0769230769230769
 40
0.0769230769230769
 40
0.1538461538461539
 40
0.1538461538461539
 40
0.1538461538461539
 40
0.1538461538461539
 40
0.2307692307692308
 40
0.2307692307692308
 40
0.2307692307692308
 40
0.2307692307692308
 40
0.3076923076923077
 40
0.3076923076923077
 40
0.3076923076923077
 40
0.3076923076923077
 40
0.3846153846153846
 40
0.3846153846153846
 40
0.3846153846153846
 40
0.3846153846153846
 40
0.4615384615384616
 40
0.4615384615384616
 40
0.4615384615384616
 40
0.4615384615384616
 40
0.5384615384615384
 40
0.5384615384615384
 40
0.5384615384615384
 40
0.5384615384615384
 40
0.6153846153846154
 40
0.6153846153846154
 40
0.6153846153846154
 40
0.6153846153846154
 40
0.6923076923076923
 40
0.6923076923076923
 40
0.6923076923076923
 40
0.6923076923076923
 40
0.7692307692307693
 40
0.7692307692307693
 40
0.7692307692307693
 40
0.7692307692307693
 40
0.8461538461538461
 40
0.8461538461538461
 40
0.8461538461538461
 40
0.8461538461538461
 40
1.0
 40
1.0
 40
1.0
 40
1.0
 10
32.3456
 20
-57.3554
 30
0.0
 10
23.4928
 20
-55.1422
 30
0.0
 10
21.5244
 20
-44.9344
 30
0.0
 10
28.774
 20
-39.4972
 30
0.0
 10
28.774
 20
-39.4972
 30
0.0
 10
32.9977
 20
-37.226
 30
0.0
 10
37.2251
 20
-38.5406
 30
0.0
 10
39.2847
 20
-42.8647
 30
0.0
 10
39.2847
 20
-42.8647
 30
0.0
 10
40.5023
 20
-47.1273
 30
0.0
 10
38.6916
 20
-50.5641
 30
0.0
 10
34.3866
 20
-51.4366
 30
0.0
 10
34.3866
 20
-51.4366
 30
0.0
 10
32.4705
 20
-51.4356
 30
0.0
 10
32.6476
 20
-48.9734
 30
0.0
 10
34.3866
 20
-48.8858
 30
0.0
 10
34.3866
 20
-48.8858
 30
0.0
 10
38.7488
 20
-46.9705
 30
0.0
 10
36.9424
 20
-41.346
 30
0.0
 10
32.5498
 20
-41.4363
 30
0.0
 10
32.5498
 20
-41.4363
 30
0.0
 10
28.4686
 20
-41.778
 30
0.0
 10
27.2806
 20
-45.9047
 30
0.0
 10
27.5489
 20
-49.3953
 30
0.0
 10
27.5489
 20
-49.3953
 30
0.0
 10
29.1123
 20
-53.7103
 30
0.0
 10
31.5103
 20
-55.1516
 30
0.0
 10
36.0194
 20
-54.8046
 30
0.0
 10
36.0194
 20
-54.8046
 30
0.0
 10
40.9343
 20
-53.6033
 30
0.0
 10
43.5946
 20
-49.5465
 30
0.0
 10
43.2647
 20
-44.5994
 30
0.0
 10
43.2647
 20
-44.5994
 30
0.0
 10
42.7271
 20
-38.225
 30
0.0
 10
36.9905
 20
-34.3901
 30
0.0
 10
31.1205
 20
-33.9866
 30
0.0
 10
31.1205
 20
-33.9866
 30
0.0
 10
23.1055
 20
-34.7496
 30
0.0
 10
19.9972
 20
-40.3917
 30
0.0
 10
19.9972
 20
-47.9669
 30
0.0
 10
19.9972
 20
-47.9669
 30
0.0
 10
19.4808
 20
-52.3714
 30
0.0
 10
18.3316
 20
-54.8848
 30
0.0
 10
14.2825
 20
-57.2532
 30
0.0
 10
14.2825
 20
-57.2532
 30
0.0
 10
14.2825
 20
-57.2532
 30
0.0
 10
32.3456
 20
-57.3554
 30
0.0
 10
32.3456
 20
-57.3554
 30
0.0
  0
SPLINE
  5
6F
330
1F
100
AcDbEntity
  8
layer 1
 62
     7
100
AcDbSpline
210
0.0
220
0.0
230
1.0
 70
    11
 71
     3
 72
    16
 73
    12
 74
     0
 42
0.0000000001
 43
0.0000000001
 12
1.0
 22
0.0
 32
0.0
 13
1.0
 23
0.0
 33
0.0
 40
0.0
 40
0.0
 40
0.0
 40
0.0
 40
0.25
 40
0.25
 40
0.25
 40
0.25
 40
0.5
 40
0.5
 40
0.5
 40
0.5
 40
1.0
 40
1.0
 40
1.0
 40
1.0
 10
44.1827
 20
7.241
 30
0.0
 10
40.012
 20
5.0615
 30
0.0
 10
36.6445
 20
1.6055
 30
0.0
 10
35.7131
 20
-1.6371
 30
0.0
 10
35.7131
 20
-1.6371
 30
0.0
 10
34.3015
 20
1.8653
 30
0.0
 10
31.6588
 20
4.9846
 30
0.0
 10
28.774
 20
7.241
 30
0.0
 10
28.774
 20
7.241
 30
0.0
 10
28.774
 20
7.241
 30
0.0
 10
44.1827
 20
7.241
 30
0.0
 10
44.1827
 20
7.241
 30
0.0
  0
SPLINE
  5
70
330
1F
100
AcDbEntity
  8
layer 1
 62
     7
100
AcDbSpline
210
0.0
220
0.0
230
1.0
 70
    11
 71
     3
 72
    84
 73
    80
 74
     0
 42
0.0000000001
 43
0.0000000001
 12
1.0
 22
0.0
 32
0.0
 13
1.0
 23
0.0
 33
0.0
 40
0.0
 40
0.0
 40
0.0
 40
0.0
 40
0.0476190476190476
 40
0.0476190476190476
 40
0.0476190476190476
 40
0.0476190476190476
 40
0.0952380952380952
 40
0.0952380952380952
 40
0.0952380952380952
 40
0.0952380952380952
 40
0.1428571428571428
 40
0.1428571428571428
 40
0.1428571428571428
 40
0.1428571428571428
 40
0.1904761904761905
 40
0.1904761904761905
 40
0.1904761904761905
 40
0.1904761904761905
 40
0.2380952380952381
 40
0.2380952380952381
 40
0.2380952380952381
 40
0.2380952380952381
 40
0.2857142857142857
 40
0.2857142857142857
 40
0.2857142857142857
 40
0.2857142857142857
 40
0.3333333333333333
 40
0.3333333333333333
 40
0.3333333333333333
 40
0.3333333333333333
 40
0.3809523809523809
 40
0.3809523809523809
 40
0.3809523809523809
 40
0.3809523809523809
 40
0.4285714285714285
 40
0.4285714285714285
 40
0.4285714285714285
 40
0.4285714285714285
 40
0.4761904761904762
 40
0.4761904761904762
 40
0.4761904761904762
 40
0.4761904761904762
 40
0.5238095238095238
 40
0.5238095238095238
 40
0.5238095238095238
 40
0.5238095238095238
 40
0.5714285714285714
 40
0.5714285714285714
 40
0.5714285714285714
 40
0.5714285714285714
 40
0.6190476190476191
 40
0.6190476190476191
 40
0.6190476190476191
 40
0.6190476190476191
 40
0.6666666666666666
 40
0.6666666666666666
 40
0.6666666666666666
 40
0.6666666666666666
 40
0.7142857142857143
 40
0.7142857142857143
 40
0.7142857142857143
 40
0.7142857142857143
 40
0.7619047619047619
 40
0.7619047619047619
 40
0.7619047619047619
 40
0.7619047619047619
 40
0.8095238095238095
 40
0.8095238095238095
 40
0.8095238095238095
 40
0.8095238095238095
 40
0.8571428571428571
 40
0.8571428571428571
 40
0.8571428571428571
 40
0.8571428571428571
 40
0.9047619047619048
 40
0.9047619047619048
 40
0.9047619047619048
 40
0.9047619047619048
 40
1.0
 40
1.0
 40
1.0
 40
1.0
 10
28.876
 20
-5.6172
 30
0.0
 10
28.6229
 20
-11.2855
 30
0.0
 10
21.1362
 20
-13.7501
 30
0.0
 10
16.8339
 20
-9.8013
 30
0.0
 10
16.8339
 20
-9.8013
 30
0.0
 10
20.2411
 20
-14.3229
 30
0.0
 10
18.1569
 20
-21.0265
 30
0.0
 10
11.936
 20
-21.7404
 30
0.0
 10
11.936
 20
-21.7404
 30
0.0
 10
8.1517
 20
-21.7108
 30
0.0
 10
5.877
 20
-19.0294
 30
0.0
 10
5.7107
 20
-16.2297
 30
0.0
 10
5.7107
 20
-16.2297
 30
0.0
 10
5.8111
 20
-12.5823
 30
0.0
 10
7.4556
 20
-10.6154
 30
0.0
 10
11.1191
 20
-9.8013
 30
0.0
 10
11.1191
 20
-9.8013
 30
0.0
 10
12.4169
 20
-10.3202
 30
0.0
 10
12.7232
 20
-12.0305
 30
0.0
 10
11.1191
 20
-12.3519
 30
0.0
 10
11.1191
 20
-12.3519
 30
0.0
 10
8.8749
 20
-13.2489
 30
0.0
 10
7.761
 20
-15.4325
 30
0.0
 10
8.874
 20
-17.6593
 30
0.0
 10
8.874
 20
-17.6593
 30
0.0
 10
10.2418
 20
-19.599
 30
0.0
 10
11.9106
 20
-19.8016
 30
0.0
 10
13.977
 20
-18.8836
 30
0.0
 10
13.977
 20
-18.8836
 30
0.0
 10
16.9175
 20
-16.3885
 30
0.0
 10
15.8189
 20
-11.9167
 30
0.0
 10
13.6708
 20
-9.2907
 30
0.0
 10
13.6708
 20
-9.2907
 30
0.0
 10
10.8256
 20
-6.1209
 30
0.0
 10
7.2961
 20
-6.406
 30
0.0
 10
3.7719
 20
-8.1686
 30
0.0
 10
3.7719
 20
-8.1686
 30
0.0
 10
-0.3002
 20
-11.1877
 30
0.0
 10
-0.6385
 20
-14.858
 30
0.0
 10
1.5265
 20
-19.1899
 30
0.0
 10
1.5265
 20
-19.1899
 30
0.0
 10
8.1323
 20
-29.4195
 30
0.0
 10
20.0283
 20
-28.7927
 30
0.0
 10
26.5287
 20
-24.394
 30
0.0
 10
26.5287
 20
-24.394
 30
0.0
 10
31.501
 20
-20.9246
 30
0.0
 10
34.3866
 20
-15.571
 30
0.0
 10
34.3866
 20
-9.4951
 30
0.0
 10
34.3866
 20
-9.4951
 30
0.0
 10
34.2769
 20
-2.9451
 30
0.0
 10
31.4808
 20
1.8999
 30
0.0
 10
26.4265
 20
5.4041
 30
0.0
 10
26.4265
 20
5.4041
 30
0.0
 10
22.5504
 20
8.0466
 30
0.0
 10
18.487
 20
7.5522
 30
0.0
 10
15.5076
 20
4.1798
 30
0.0
 10
15.5076
 20
4.1798
 30
0.0
 10
13.0759
 20
0.5583
 30
0.0
 10
13.2481
 20
-2.5839
 30
0.0
 10
15.3033
 20
-5.6172
 30
0.0
 10
15.3033
 20
-5.6172
 30
0.0
 10
17.8591
 20
-8.7138
 30
0.0
 10
20.4638
 20
-9.7938
 30
0.0
 10
24.4877
 20
-8.6783
 30
0.0
 10
24.4877
 20
-8.6783
 30
0.0
 10
26.6149
 20
-7.4994
 30
0.0
 10
27.0992
 20
-5.007
 30
0.0
 10
25.712
 20
-3.0664
 30
0.0
 10
25.712
 20
-3.0664
 30
0.0
 10
23.3824
 20
-0.9848
 30
0.0
 10
20.8578
 20
-1.5384
 30
0.0
 10
19.5896
 20
-4.3929
 30
0.0
 10
19.5896
 20
-4.3929
 30
0.0
 10
19.2395
 20
-5.7917
 30
0.0
 10
17.0374
 20
-5.7647
 30
0.0
 10
17.0382
 20
-4.2907
 30
0.0
 10
17.0382
 20
-4.2907
 30
0.0
 10
18.0971
 20
2.7967
 30
0.0
 10
28.9065
 20
2.6989
 30
0.0
 10
28.876
 20
-5.6172
 30
0.0
  0
SPLINE
  5
71
330
1F
100
AcDbEntity
  8
layer 1
 62
     7
100
AcDbSpline
210
0.0
220
0.0
230
1.0
 70
    11
 71
     3
 72
    16
 73
    12
 74
     0
 42
0.0000000001
 43
0.0000000001
 12
1.0
 22
0.0
 32
0.0
 13
1.0
 23
0.0
 33
0.0
 40
0.0
 40
0.0
 40
0.0
 40
0.0
 40
0.25
 40
0.25
 40
0.25
 40
0.25
 40
0.5
 40
0.5
 40
0.5
 40
0.5
 40
1.0
 40
1.0
 40
1.0
 40
1.0
 10
8.7719
 20
-28.5781
 30
0.0
 10
4.6856
 20
-30.1865
 30
0.0
 10
1.5747
 20
-33.1792
 30
0.0
 10
-0.106
 20
-37.0478
 30
0.0
 10
-0.106
 20
-37.0478
 30
0.0
 10
-0.106
 20
-37.0478
 30
0.0
 10
-0.106
 20
-21.6385
 30
0.0
 10
-0.106
 20
-21.6385
 30
0.0
 10
-0.106
 20
-21.6385
 30
0.0
 10
2.1307
 20
-24.6532
 30
0.0
 10
5.1109
 20
-27.2182
 30
0.0
 10
8.7719
 20
-28.5781
 30
0.0
  0
SPLINE
  5
72
330
1F
100
AcDbEntity
  8
layer 1
 62
     7
100
AcDbSpline
210
0.0
220
0.0
230
1.0
 70
    11
 71
     3
 72
    16
 73
    12
 74
     0
 42
0.0000000001
 43
0.0000000001
 12
1.0
 22
0.0
 32
0.0
 13
1.0
 23
0.0
 33
0.0
 40
0.0
 40
0.0
 40
0.0
 40
0.0
 40
0.25
 40
0.25
 40
0.25
 40
0.25
 40
0.5
 40
0.5
 40
0.5
 40
0.5
 40
1.0
 40
1.0
 40
1.0
 40
1.0
 10
27.5489
 20
-26.8435
 30
0.0
 10
23.3215
 20
-29.2491
 30
0.0
 10
19.3425
 20
-30.2422
 30
0.0
 10
14.4866
 20
-30.0068
 30
0.0
 10
14.4866
 20
-30.0068
 30
0.0
 10
9.4579
 20
-30.2312
 30
0.0
 10
5.4305
 20
-32.8907
 30
0.0
 10
2.8538
 20
-36.9458
 30
0.0
 10
2.8538
 20
-36.9458
 30
0.0
 10
13.0361
 20
-35.66
 30
0.0
 10
19.9871
 20
-32.6459
 30
0.0
 10
27.5489
 20
-26.8435
 30
0.0
  0
SPLINE
  5
73
330
1F
100
AcDbEntity
  8
layer 1
 62
     7
100
AcDbSpline
210
0.0
220
0.0
230
1.0
 70
    11
 71
     3
 72
    16
 73
    12
 74
     0
 42
0.0000000001
 43
0.0000000001
 12
1.0
 22
0.0
 32
0.0
 13
1.0
 23
0.0
 33
0.0
 40
0.0
 40
0.0
 40
0.0
 40
0.0
 40
0.25
 40
0.25
 40
0.25
 40
0.25
 40
0.5
 40
0.5
 40
0.5
 40
0.5
 40
1.0
 40
1.0
 40
1.0
 40
1.0
 10
45.7133
 20
-5.3109
 30
0.0
 10
45.7133
 20
-5.3109
 30
0.0
 10
45.7133
 20
-42.2521
 30
0.0
 10
45.7133
 20
-42.2521
 30
0.0
 10
45.7133
 20
-42.2521
 30
0.0
 10
43.0081
 20
-33.635
 30
0.0
 10
35.9004
 20
-29.6837
 30
0.0
 10
27.1413
 20
-31.4352
 30
0.0
 10
27.1413
 20
-31.4352
 30
0.0
 10
36.5998
 20
-24.4413
 30
0.0
 10
42.0201
 20
-16.3918
 30
0.0
 10
45.7133
 20
-5.3109
 30
0.0
  0
SPLINE
  5
74
330
1F
100
AcDbEntity
  8
layer 1
 62
     7
100
AcDbSpline
210
0.0
220
0.0
230
1.0
 70
    11
 71
     3
 72
    44
 73
    40
 74
     0
 42
0.0000000001
 43
0.0000000001
 12
1.0
 22
0.0
 32
0.0
 13
1.0
 23
0.0
 33
0.0
 40
0.0
 40
0.0
 40
0.0
 40
0.0
 40
0.0909090909090909
 40
0.0909090909090909
 40
0.0909090909090909
 40
0.0909090909090909
 40
0.1818181818181818
 40
0.1818181818181818
 40
0.1818181818181818
 40
0.1818181818181818
 40
0.2727272727272727
 40
0.2727272727272727
 40
0.2727272727272727
 40
0.2727272727272727
 40
0.3636363636363636
 40
0.3636363636363636
 40
0.3636363636363636
 40
0.3636363636363636
 40
0.4545454545454545
 40
0.4545454545454545
 40
0.4545454545454545
 40
0.4545454545454545
 40
0.5454545454545454
 40
0.5454545454545454
 40
0.5454545454545454
 40
0.5454545454545454
 40
0.6363636363636364
 40
0.6363636363636364
 40
0.6363636363636364
 40
0.6363636363636364
 40
0.7272727272727273
 40
0.7272727272727273
 40
0.7272727272727273
 40
0.7272727272727273
 40
0.8181818181818182
 40
0.8181818181818182
 40
0.8181818181818182
 40
0.8181818181818182
 40
1.0
 40
1.0
 40
1.0
 40
1.0
 10
7.8539
 20
-55.6207
 30
0.0
 10
3.5161
 20
-55.2637
 30
0.0
 10
0.936
 20
-52.5984
 30
0.0
 10
0.8126
 20
-48.3754
 30
0.0
 10
0.8126
 20
-48.3754
 30
0.0
 10
0.8768
 20
-44.2992
 30
0.0
 10
3.8494
 20
-41.3469
 30
0.0
 10
7.8539
 20
-41.232
 30
0.0
 10
7.8539
 20
-41.232
 30
0.0
 10
9.4242
 20
-41.2886
 30
0.0
 10
10.5176
 20
-42.491
 30
0.0
 10
10.6087
 20
-44.1912
 30
0.0
 10
10.6087
 20
-44.1912
 30
0.0
 10
10.4299
 20
-45.8028
 30
0.0
 10
9.4974
 20
-46.8718
 30
0.0
 10
7.8539
 20
-47.151
 30
0.0
 10
7.8539
 20
-47.151
 30
0.0
 10
6.2558
 20
-47.2608
 30
0.0
 10
6.4997
 20
-49.6275
 30
0.0
 10
7.8539
 20
-49.7016
 30
0.0
 10
7.8539
 20
-49.7016
 30
0.0
 10
10.731
 20
-49.3625
 30
0.0
 10
12.1908
 20
-48.0824
 30
0.0
 10
13.1604
 20
-45.4164
 30
0.0
 10
13.1604
 20
-45.4164
 30
0.0
 10
13.793
 20
-42.7424
 30
0.0
 10
12.5536
 20
-40.5932
 30
0.0
 10
10.4055
 20
-39.089
 30
0.0
 10
10.4055
 20
-39.089
 30
0.0
 10
15.4824
 20
-37.5262
 30
0.0
 10
17.1849
 20
-37.0562
 30
0.0
 10
22.3445
 20
-34.3951
 30
0.0
 10
22.3445
 20
-34.3951
 30
0.0
 10
19.9264
 20
-36.1223
 30
0.0
 10
16.5537
 20
-40.7006
 30
0.0
 10
16.732
 20
-45.4164
 30
0.0
 10
16.732
 20
-45.4164
 30
0.0
 10
17.4044
 20
-51.4255
 30
0.0
 10
13.5256
 20
-55.6948
 30
0.0
 10
7.8539
 20
-55.6207
 30
0.0
  0
SPLINE
  5
75
330
1F
100
AcDbEntity
  8
layer 1
 62
     7
100
AcDbSpline
210
0.0
220
0.0
230
1.0
 70
    11
 71
     3
 72
    16
 73
    12
 74
     0
 42
0.0000000001
 43
0.0000000001
 12
1.0
 22
0.0
 32
0.0
 13
1.0
 23
0.0
 33
0.0
 40
0.0
 40
0.0
 40
0.0
 40
0.0
 40
0.25
 40
0.25
 40
0.25
 40
0.25
 40
0.5
 40
0.5
 40
0.5
 40
0.5
 40
1.0
 40
1.0
 40
1.0
 40
1.0
 10
3.976
 20
-57.3554
 30
0.0
 10
1.4278
 20
-56.1793
 30
0.0
 10
-0.1306
 20
-54.6148
 30
0.0
 10
-1.3633
 20
-52.0491
 30
0.0
 10
-1.3633
 20
-52.0491
 30
0.0
 10
-2.5961
 20
-54.6148
 30
0.0
 10
-4.1545
 20
-56.1793
 30
0.0
 10
-6.7027
 20
-57.3554
 30
0.0
 10
-6.7027
 20
-57.3554
 30
0.0
 10
-6.7027
 20
-57.3554
 30
0.0
 10
3.976
 20
-57.3554
 30
0.0
 10
3.976
 20
-57.3554
 30
0.0
  0
SPLINE
  5
76
330
1F
100
AcDbEntity
  8
layer 1
 62
     7
100
AcDbSpline
210
0.0
220
0.0
230
1.0
 70
    11
 71
     3
 72
    16
 73
    12
 74
     0
 42
0.0000000001
 43
0.0000000001
 12
1.0
 22
0.0
 32
0.0
 13
1.0
 23
0.0
 33
0.0
 40
0.0
 40
0.0
 40
0.0
 40
0.0
 40
0.25
 40
0.25
 40
0.25
 40
0.25
 40
0.5
 40
0.5
 40
0.5
 40
0.5
 40
1.0
 40
1.0
 40
1.0
 40
1.0
 10
37.0394
 20
-7.4541
 30
0.0
 10
37.2182
 20
-12.0929
 30
0.0
 10
37.0538
 20
-14.8301
 30
0.0
 10
33.8762
 20
-20.4142
 30
0.0
 10
33.8762
 20
-20.4142
 30
0.0
 10
39.1935
 20
-13.816
 30
0.0
 10
43.187
 20
-5.1547
 30
0.0
 10
44.0806
 20
4.2817
 30
0.0
 10
44.0806
 20
4.2817
 30
0.0
 10
39.7141
 20
1.2257
 30
0.0
 10
37.7869
 20
-2.221
 30
0.0
 10
37.0394
 20
-7.4541
 30
0.0
  0
SPLINE
  5
77
330
1F
100
AcDbEntity
  8
layer 1
 62
     7
100
AcDbSpline
210
0.0
220
0.0
230
1.0
 70
    11
 71
     3
 72
    20
 73
    16
 74
     0
 42
0.0000000001
 43
0.0000000001
 12
1.0
 22
0.0
 32
0.0
 13
1.0
 23
0.0
 33
0.0
 40
0.0
 40
0.0
 40
0.0
 40
0.0
 40
0.2
 40
0.2
 40
0.2
 40
0.2
 40
0.4
 40
0.4
 40
0.4
 40
0.4
 40
0.6
 40
0.6
 40
0.6
 40
0.6
 40
1.0
 40
1.0
 40
1.0
 40
1.0
 10
45.1016
 20
-61.7437
 30
0.0
 10
45.1016
 20
-61.7437
 30
0.0
 10
-0.5145
 20
-61.7437
 30
0.0
 10
-0.5145
 20
-61.7437
 30
0.0
 10
-0.5145
 20
-61.7437
 30
0.0
 10
1.087
 20
-65.4284
 30
0.0
 10
3.6285
 20
-68.3361
 30
0.0
 10
6.6296
 20
-70.9281
 30
0.0
 10
6.6296
 20
-70.9281
 30
0.0
 10
17.1959
 20
-65.1332
 30
0.0
 10
27.3042
 20
-65.0731
 30
0.0
 10
37.8563
 20
-71.0303
 30
0.0
 10
37.8563
 20
-71.0303
 30
0.0
 10
41.2624
 20
-68.6897
 30
0.0
 10
43.295
 20
-65.3567
 30
0.0
 10
45.1016
 20
-61.7437
 30
0.0
  0
SPLINE
  5
78
330
1F
100
AcDbEntity
  8
layer 1
 62
     7
100
AcDbSpline
210
0.0
220
0.0
230
1.0
 70
    11
 71
     3
 72
    12
 73
     8
 74
     0
 42
0.0000000001
 43
0.0000000001
 12
1.0
 22
0.0
 32
0.0
 13
1.0
 23
0.0
 33
0.0
 40
0.0
 40
0.0
 40
0.0
 40
0.0
 40
0.3333333333333333
 40
0.3333333333333333
 40
0.3333333333333333
 40
0.3333333333333333
 40
1.0
 40
1.0
 40
1.0
 40
1.0
 10
9.997
 20
-73.0713
 30
0.0
 10
18.7433
 20
-77.3692
 30
0.0
 10
25.955
 20
-77.0429
 30
0.0
 10
34.692
 20
-73.0713
 30
0.0
 10
34.692
 20
-73.0713
 30
0.0
 10
25.7541
 20
-69.0204
 30
0.0
 10
18.9121
 20
-69.1705
 30
0.0
 10
9.997
 20
-73.0713
 30
0.0
  0
SPLINE
  5
79
330
1F
100
AcDbEntity
  8
layer 1
 62
     7
100
AcDbSpline
210
0.0
220
0.0
230
1.0
 70
    11
 71
     3
 72
    20
 73
    16
 74
     0
 42
0.0000000001
 43
0.0000000001
 12
1.0
 22
0.0
 32
0.0
 13
1.0
 23
0.0
 33
0.0
 40
0.0
 40
0.0
 40
0.0
 40
0.0
 40
0.2
 40
0.2
 40
0.2
 40
0.2
 40
0.4
 40
0.4
 40
0.4
 40
0.4
 40
0.6
 40
0.6
 40
0.6
 40
0.6
 40
1.0
 40
1.0
 40
1.0
 40
1.0
 10
-0.5145
 20
-83.786
 30
0.0
 10
1.4987
 20
-80.6668
 30
0.0
 10
3.501
 20
-77.5667
 30
0.0
 10
6.5274
 20
-75.3155
 30
0.0
 10
6.5274
 20
-75.3155
 30
0.0
 10
17.3065
 20
-81.1013
 30
0.0
 10
27.1709
 20
-80.9713
 30
0.0
 10
37.8563
 20
-75.1123
 30
0.0
 10
37.8563
 20
-75.1123
 30
0.0
 10
40.8237
 20
-77.7617
 30
0.0
 10
43.2157
 20
-80.2118
 30
0.0
 10
45.1016
 20
-83.786
 30
0.0
 10
45.1016
 20
-83.786
 30
0.0
 10
45.1016
 20
-83.786
 30
0.0
 10
-0.5145
 20
-83.786
 30
0.0
 10
-0.5145
 20
-83.786
 30
0.0
  0
SPLINE
  5
7A
330
1F
100
AcDbEntity
  8
layer 1
 62
     7
100
AcDbSpline
210
0.0
220
0.0
230
1.0
 70
    11
 71
     3
 72
    16
 73
    12
 74
     0
 42
0.0000000001
 43
0.0000000001
 12
1.0
 22
0.0
 32
0.0
 13
1.0
 23
0.0
 33
0.0
 40
0.0
 40
0.0
 40
0.0
 40
0.0
 40
0.25
 40
0.25
 40
0.25
 40
0.25
 40
0.5
 40
0.5
 40
0.5
 40
0.5
 40
1.0
 40
1.0
 40
1.0
 40
1.0
 10
40.7131
 20
-73.0713
 30
0.0
 10
42.6521
 20
-71.6394
 30
0.0
 10
44.105
 20
-69.8168
 30
0.0
 10
45.612
 20
-67.9682
 30
0.0
 10
45.612
 20
-67.9682
 30
0.0
 10
45.612
 20
-67.9682
 30
0.0
 10
45.612
 20
-78.2756
 30
0.0
 10
45.612
 20
-78.2756
 30
0.0
 10
45.612
 20
-78.2756
 30
0.0
 10
44.2341
 20
-76.2842
 30
0.0
 10
42.4774
 20
-74.6997
 30
0.0
 10
40.7131
 20
-73.0713
 30
0.0
  0
SPLINE
  5
7B
330
1F
100
AcDbEntity
  8
layer 1
 62
     7
100
AcDbSpline
210
0.0
220
0.0
230
1.0
 70
    11
 71
     3
 72
    20
 73
    16
 74
     0
 42
0.0000000001
 43
0.0000000001
 12
1.0
 22
0.0
 32
0.0
 13
1.0
 23
0.0
 33
0.0
 40
0.0
 40
0.0
 40
0.0
 40
0.0
 40
0.2
 40
0.2
 40
0.2
 40
0.2
 40
0.4
 40
0.4
 40
0.4
 40
0.4
 40
0.6
 40
0.6
 40
0.6
 40
0.6
 40
1.0
 40
1.0
 40
1.0
 40
1.0
 10
45.1016
 20
-88.2756
 30
0.0
 10
45.1016
 20
-88.2756
 30
0.0
 10
-0.5145
 20
-88.2756
 30
0.0
 10
-0.5145
 20
-88.2756
 30
0.0
 10
-0.5145
 20
-88.2756
 30
0.0
 10
1.087
 20
-91.9613
 30
0.0
 10
3.6285
 20
-94.8688
 30
0.0
 10
6.6296
 20
-97.4608
 30
0.0
 10
6.6296
 20
-97.4608
 30
0.0
 10
17.1959
 20
-91.666
 30
0.0
 10
27.3042
 20
-91.605
 30
0.0
 10
37.8563
 20
-97.5622
 30
0.0
 10
37.8563
 20
-97.5622
 30
0.0
 10
41.2624
 20
-95.2224
 30
0.0
 10
43.295
 20
-91.8895
 30
0.0
 10
45.1016
 20
-88.2756
 30
0.0
  0
SPLINE
  5
7C
330
1F
100
AcDbEntity
  8
layer 1
 62
     7
100
AcDbSpline
210
0.0
220
0.0
230
1.0
 70
    11
 71
     3
 72
    12
 73
     8
 74
     0
 42
0.0000000001
 43
0.0000000001
 12
1.0
 22
0.0
 32
0.0
 13
1.0
 23
0.0
 33
0.0
 40
0.0
 40
0.0
 40
0.0
 40
0.0
 40
0.3333333333333333
 40
0.3333333333333333
 40
0.3333333333333333
 40
0.3333333333333333
 40
1.0
 40
1.0
 40
1.0
 40
1.0
 10
9.997
 20
-99.6032
 30
0.0
 10
18.7433
 20
-103.9021
 30
0.0
 10
25.955
 20
-103.5748
 30
0.0
 10
34.692
 20
-99.6032
 30
0.0
 10
34.692
 20
-99.6032
 30
0.0
 10
25.7541
 20
-95.5531
 30
0.0
 10
18.9121
 20
-95.7033
 30
0.0
 10
9.997
 20
-99.6032
 30
0.0
  0
SPLINE
  5
7D
330
1F
100
AcDbEntity
  8
layer 1
 62
     7
100
AcDbSpline
210
0.0
220
0.0
230
1.0
 70
    11
 71
     3
 72
    20
 73
    16
 74
     0
 42
0.0000000001
 43
0.0000000001
 12
1.0
 22
0.0
 32
0.0
 13
1.0
 23
0.0
 33
0.0
 40
0.0
 40
0.0
 40
0.0
 40
0.0
 40
0.2
 40
0.2
 40
0.2
 40
0.2
 40
0.4
 40
0.4
 40
0.4
 40
0.4
 40
0.6
 40
0.6
 40
0.6
 40
0.6
 40
1.0
 40
1.0
 40
1.0
 40
1.0
 10
-0.5145
 20
-110.3188
 30
0.0
 10
1.4987
 20
-107.1987
 30
0.0
 10
3.501
 20
-104.0995
 30
0.0
 10
6.5274
 20
-101.8483
 30
0.0
 10
6.5274
 20
-101.8483
 30
0.0
 10
17.3065
 20
-107.6332
 30
0.0
 10
27.1709
 20
-107.5041
 30
0.0
 10
37.8563
 20
-101.6442
 30
0.0
 10
37.8563
 20
-101.6442
 30
0.0
 10
40.8237
 20
-104.2936
 30
0.0
 10
43.2157
 20
-106.7437
 30
0.0
 10
45.1016
 20
-110.3188
 30
0.0
 10
45.1016
 20
-110.3188
 30
0.0
 10
45.1016
 20
-110.3188
 30
0.0
 10
-0.5145
 20
-110.3188
 30
0.0
 10
-0.5145
 20
-110.3188
 30
0.0
  0
SPLINE
  5
7E
330
1F
100
AcDbEntity
  8
layer 1
 62
     7
100
AcDbSpline
210
0.0
220
0.0
230
1.0
 70
    11
 71
     3
 72
    16
 73
    12
 74
     0
 42
0.0000000001
 43
0.0000000001
 12
1.0
 22
0.0
 32
0.0
 13
1.0
 23
0.0
 33
0.0
 40
0.0
 40
0.0
 40
0.0
 40
0.0
 40
0.25
 40
0.25
 40
0.25
 40
0.25
 40
0.5
 40
0.5
 40
0.5
 40
0.5
 40
1.0
 40
1.0
 40
1.0
 40
1.0
 10
40.7131
 20
-99.6032
 30
0.0
 10
42.6521
 20
-98.1721
 30
0.0
 10
44.105
 20
-96.3495
 30
0.0
 10
45.612
 20
-94.501
 30
0.0
 10
45.612
 20
-94.501
 30
0.0
 10
45.612
 20
-94.501
 30
0.0
 10
45.612
 20
-104.8082
 30
0.0
 10
45.612
 20
-104.8082
 30
0.0
 10
45.612
 20
-104.8082
 30
0.0
 10
44.2341
 20
-102.8171
 30
0.0
 10
42.4774
 20
-101.2325
 30
0.0
 10
40.7131
 20
-99.6032
 30
0.0
  0
SPLINE
  5
7F
330
1F
100
AcDbEntity
  8
layer 1
 62
     7
100
AcDbSpline
210
0.0
220
0.0
230
1.0
 70
    11
 71
     3
 72
    20
 73
    16
 74
     0
 42
0.0000000001
 43
0.0000000001
 12
1.0
 22
0.0
 32
0.0
 13
1.0
 23
0.0
 33
0.0
 40
0.0
 40
0.0
 40
0.0
 40
0.0
 40
0.2
 40
0.2
 40
0.2
 40
0.2
 40
0.4
 40
0.4
 40
0.4
 40
0.4
 40
0.6
 40
0.6
 40
0.6
 40
0.6
 40
1.0
 40
1.0
 40
1.0
 40
1.0
 10
9.7929
 20
7.241
 30
0.0
 10
5.9209
 20
7.3159
 30
0.0
 10
4.7378
 20
3.3283
 30
0.0
 10
7.1393
 20
1.1177
 30
0.0
 10
7.1393
 20
1.1177
 30
0.0
 10
7.1393
 20
1.1177
 30
0.0
 10
10.7109
 20
-2.4538
 30
0.0
 10
10.7109
 20
-2.4538
 30
0.0
 10
10.7109
 20
-2.4538
 30
0.0
 10
10.1346
 20
1.2722
 30
0.0
 10
11.4414
 20
4.8379
 30
0.0
 10
14.4866
 20
7.241
 30
0.0
 10
14.4866
 20
7.241
 30
0.0
 10
14.4866
 20
7.241
 30
0.0
 10
9.7929
 20
7.241
 30
0.0
 10
9.7929
 20
7.241
 30
0.0
  0
SPLINE
  5
80
330
1F
100
AcDbEntity
  8
layer 1
 62
     7
100
AcDbSpline
210
0.0
220
0.0
230
1.0
 70
    11
 71
     3
 72
    20
 73
    16
 74
     0
 42
0.0000000001
 43
0.0000000001
 12
1.0
 22
0.0
 32
0.0
 13
1.0
 23
0.0
 33
0.0
 40
0.0
 40
0.0
 40
0.0
 40
0.0
 40
0.2
 40
0.2
 40
0.2
 40
0.2
 40
0.4
 40
0.4
 40
0.4
 40
0.4
 40
0.6
 40
0.6
 40
0.6
 40
0.6
 40
1.0
 40
1.0
 40
1.0
 40
1.0
 10
-0.0041
 20
-2.658
 30
0.0
 10
-0.0041
 20
0.8791
 30
0.0
 10
3.4714
 20
2.4855
 30
0.0
 10
6.1191
 20
0.0976
 30
0.0
 10
6.1191
 20
0.0976
 30
0.0
 10
6.1191
 20
0.0976
 30
0.0
 10
10.0992
 20
-3.8823
 30
0.0
 10
10.0992
 20
-3.8823
 30
0.0
 10
10.0992
 20
-3.8823
 30
0.0
 10
5.8895
 20
-2.9669
 30
0.0
 10
2.3821
 20
-4.3784
 30
0.0
 10
-0.0041
 20
-6.8415
 30
0.0
 10
-0.0041
 20
-6.8415
 30
0.0
 10
-0.0041
 20
-6.8415
 30
0.0
 10
-0.0041
 20
-2.658
 30
0.0
 10
-0.0041
 20
-2.658
 30
0.0
  0
SPLINE
  5
81
330
1F
100
AcDbEntity
  8
layer 1
 62
     7
100
AcDbSpline
210
0.0
220
0.0
230
1.0
 70
    11
 71
     3
 72
    16
 73
    12
 74
     0
 42
0.0000000001
 43
0.0000000001
 12
1.0
 22
0.0
 32
0.0
 13
1.0
 23
0.0
 33
0.0
 40
0.0
 40
0.0
 40
0.0
 40
0.0
 40
0.25
 40
0.25
 40
0.25
 40
0.25
 40
0.5
 40
0.5
 40
0.5
 40
0.5
 40
1.0
 40
1.0
 40
1.0
 40
1.0
 10
-48.4407
 20
-57.3554
 30
0.0
 10
-48.4407
 20
-57.3554
 30
0.0
 10
-39.9702
 20
-57.3554
 30
0.0
 10
-39.9702
 20
-57.3554
 30
0.0
 10
-39.9702
 20
-57.3554
 30
0.0
 10
-44.6775
 20
-56.483
 30
0.0
 10
-48.1766
 20
-52.4658
 30
0.0
 10
-48.4407
 20
-47.8647
 30
0.0
 10
-48.4407
 20
-47.8647
 30
0.0
 10
-48.4407
 20
-47.8647
 30
0.0
 10
-48.4407
 20
-57.3554
 30
0.0
 10
-48.4407
 20
-57.3554
 30
0.0
  0
SPLINE
  5
82
330
1F
100
AcDbEntity
  8
layer 1
 62
     7
100
AcDbSpline
210
0.0
220
0.0
230
1.0
 70
    11
 71
     3
 72
    16
 73
    12
 74
     0
 42
0.0000000001
 43
0.0000000001
 12
1.0
 22
0.0
 32
0.0
 13
1.0
 23
0.0
 33
0.0
 40
0.0
 40
0.0
 40
0.0
 40
0.0
 40
0.25
 40
0.25
 40
0.25
 40
0.25
 40
0.5
 40
0.5
 40
0.5
 40
0.5
 40
1.0
 40
1.0
 40
1.0
 40
1.0
 10
-5.07
 20
-40.4152
 30
0.0
 10
-2.5978
 20
-40.5647
 30
0.0
 10
-0.1289
 20
-40.4838
 30
0.0
 10
2.3432
 20
-40.4152
 30
0.0
 10
2.3432
 20
-40.4152
 30
0.0
 10
0.373
 20
-41.7797
 30
0.0
 10
-0.3888
 20
-42.4286
 30
0.0
 10
-1.3633
 20
-44.9057
 30
0.0
 10
-1.3633
 20
-44.9057
 30
0.0
 10
-2.3377
 20
-42.4286
 30
0.0
 10
-3.0998
 20
-41.7797
 30
0.0
 10
-5.07
 20
-40.4152
 30
0.0
  0
SPLINE
  5
83
330
1F
100
AcDbEntity
  8
layer 1
 62
     7
100
AcDbSpline
210
0.0
220
0.0
230
1.0
 70
    11
 71
     3
 72
    52
 73
    48
 74
     0
 42
0.0000000001
 43
0.0000000001
 12
1.0
 22
0.0
 32
0.0
 13
1.0
 23
0.0
 33
0.0
 40
0.0
 40
0.0
 40
0.0
 40
0.0
 40
0.0769230769230769
 40
0.0769230769230769
 40
0.0769230769230769
 40
0.0769230769230769
 40
0.1538461538461539
 40
0.1538461538461539
 40
0.1538461538461539
 40
0.1538461538461539
 40
0.2307692307692308
 40
0.2307692307692308
 40
0.2307692307692308
 40
0.2307692307692308
 40
0.3076923076923077
 40
0.3076923076923077
 40
0.3076923076923077
 40
0.3076923076923077
 40
0.3846153846153846
 40
0.3846153846153846
 40
0.3846153846153846
 40
0.3846153846153846
 40
0.4615384615384616
 40
0.4615384615384616
 40
0.4615384615384616
 40
0.4615384615384616
 40
0.5384615384615384
 40
0.5384615384615384
 40
0.5384615384615384
 40
0.5384615384615384
 40
0.6153846153846154
 40
0.6153846153846154
 40
0.6153846153846154
 40
0.6153846153846154
 40
0.6923076923076923
 40
0.6923076923076923
 40
0.6923076923076923
 40
0.6923076923076923
 40
0.7692307692307693
 40
0.7692307692307693
 40
0.7692307692307693
 40
0.7692307692307693
 40
0.8461538461538461
 40
0.8461538461538461
 40
0.8461538461538461
 40
0.8461538461538461
 40
1.0
 40
1.0
 40
1.0
 40
1.0
 10
-35.0721
 20
-57.3554
 30
0.0
 10
-26.2195
 20
-55.1422
 30
0.0
 10
-24.2511
 20
-44.9344
 30
0.0
 10
-31.5006
 20
-39.4972
 30
0.0
 10
-31.5006
 20
-39.4972
 30
0.0
 10
-35.7245
 20
-37.226
 30
0.0
 10
-39.9516
 20
-38.5406
 30
0.0
 10
-42.0112
 20
-42.8647
 30
0.0
 10
-42.0112
 20
-42.8647
 30
0.0
 10
-43.2288
 20
-47.1273
 30
0.0
 10
-41.4181
 20
-50.5641
 30
0.0
 10
-37.1134
 20
-51.4366
 30
0.0
 10
-37.1134
 20
-51.4366
 30
0.0
 10
-35.197
 20
-51.4356
 30
0.0
 10
-35.3744
 20
-48.9734
 30
0.0
 10
-37.1134
 20
-48.8858
 30
0.0
 10
-37.1134
 20
-48.8858
 30
0.0
 10
-41.4755
 20
-46.9705
 30
0.0
 10
-39.6691
 20
-41.346
 30
0.0
 10
-35.2765
 20
-41.4363
 30
0.0
 10
-35.2765
 20
-41.4363
 30
0.0
 10
-31.1951
 20
-41.778
 30
0.0
 10
-30.0071
 20
-45.9047
 30
0.0
 10
-30.2754
 20
-49.3953
 30
0.0
 10
-30.2754
 20
-49.3953
 30
0.0
 10
-31.8391
 20
-53.7103
 30
0.0
 10
-34.2378
 20
-55.1516
 30
0.0
 10
-38.7459
 20
-54.8046
 30
0.0
 10
-38.7459
 20
-54.8046
 30
0.0
 10
-43.6608
 20
-53.6033
 30
0.0
 10
-46.3211
 20
-49.5465
 30
0.0
 10
-45.9912
 20
-44.5994
 30
0.0
 10
-45.9912
 20
-44.5994
 30
0.0
 10
-45.4538
 20
-38.225
 30
0.0
 10
-39.7171
 20
-34.3901
 30
0.0
 10
-33.8479
 20
-33.9866
 30
0.0
 10
-33.8479
 20
-33.9866
 30
0.0
 10
-25.8323
 20
-34.7496
 30
0.0
 10
-22.7246
 20
-40.3917
 30
0.0
 10
-22.7246
 20
-47.9669
 30
0.0
 10
-22.7246
 20
-47.9669
 30
0.0
 10
-22.2075
 20
-52.3714
 30
0.0
 10
-21.0591
 20
-54.8848
 30
0.0
 10
-17.0099
 20
-57.2532
 30
0.0
 10
-17.0099
 20
-57.2532
 30
0.0
 10
-17.0099
 20
-57.2532
 30
0.0
 10
-35.0721
 20
-57.3554
 30
0.0
 10
-35.0721
 20
-57.3554
 30
0.0
  0
SPLINE
  5
84
330
1F
100
AcDbEntity
  8
layer 1
 62
     7
100
AcDbSpline
210
0.0
220
0.0
230
1.0
 70
    11
 71
     3
 72
    16
 73
    12
 74
     0
 42
0.0000000001
 43
0.0000000001
 12
1.0
 22
0.0
 32
0.0
 13
1.0
 23
0.0
 33
0.0
 40
0.0
 40
0.0
 40
0.0
 40
0.0
 40
0.25
 40
0.25
 40
0.25
 40
0.25
 40
0.5
 40
0.5
 40
0.5
 40
0.5
 40
1.0
 40
1.0
 40
1.0
 40
1.0
 10
-46.9093
 20
7.241
 30
0.0
 10
-42.7387
 20
5.0615
 30
0.0
 10
-39.3713
 20
1.6055
 30
0.0
 10
-38.4396
 20
-1.6371
 30
0.0
 10
-38.4396
 20
-1.6371
 30
0.0
 10
-37.028
 20
1.8653
 30
0.0
 10
-34.3855
 20
4.9846
 30
0.0
 10
-31.5006
 20
7.241
 30
0.0
 10
-31.5006
 20
7.241
 30
0.0
 10
-31.5006
 20
7.241
 30
0.0
 10
-46.9093
 20
7.241
 30
0.0
 10
-46.9093
 20
7.241
 30
0.0
  0
SPLINE
  5
85
330
1F
100
AcDbEntity
  8
layer 1
 62
     7
100
AcDbSpline
210
0.0
220
0.0
230
1.0
 70
    11
 71
     3
 72
    84
 73
    80
 74
     0
 42
0.0000000001
 43
0.0000000001
 12
1.0
 22
0.0
 32
0.0
 13
1.0
 23
0.0
 33
0.0
 40
0.0
 40
0.0
 40
0.0
 40
0.0
 40
0.0476190476190476
 40
0.0476190476190476
 40
0.0476190476190476
 40
0.0476190476190476
 40
0.0952380952380952
 40
0.0952380952380952
 40
0.0952380952380952
 40
0.0952380952380952
 40
0.1428571428571428
 40
0.1428571428571428
 40
0.1428571428571428
 40
0.1428571428571428
 40
0.1904761904761905
 40
0.1904761904761905
 40
0.1904761904761905
 40
0.1904761904761905
 40
0.2380952380952381
 40
0.2380952380952381
 40
0.2380952380952381
 40
0.2380952380952381
 40
0.2857142857142857
 40
0.2857142857142857
 40
0.2857142857142857
 40
0.2857142857142857
 40
0.3333333333333333
 40
0.3333333333333333
 40
0.3333333333333333
 40
0.3333333333333333
 40
0.3809523809523809
 40
0.3809523809523809
 40
0.3809523809523809
 40
0.3809523809523809
 40
0.4285714285714285
 40
0.4285714285714285
 40
0.4285714285714285
 40
0.4285714285714285
 40
0.4761904761904762
 40
0.4761904761904762
 40
0.4761904761904762
 40
0.4761904761904762
 40
0.5238095238095238
 40
0.5238095238095238
 40
0.5238095238095238
 40
0.5238095238095238
 40
0.5714285714285714
 40
0.5714285714285714
 40
0.5714285714285714
 40
0.5714285714285714
 40
0.6190476190476191
 40
0.6190476190476191
 40
0.6190476190476191
 40
0.6190476190476191
 40
0.6666666666666666
 40
0.6666666666666666
 40
0.6666666666666666
 40
0.6666666666666666
 40
0.7142857142857143
 40
0.7142857142857143
 40
0.7142857142857143
 40
0.7142857142857143
 40
0.7619047619047619
 40
0.7619047619047619
 40
0.7619047619047619
 40
0.7619047619047619
 40
0.8095238095238095
 40
0.8095238095238095
 40
0.8095238095238095
 40
0.8095238095238095
 40
0.8571428571428571
 40
0.8571428571428571
 40
0.8571428571428571
 40
0.8571428571428571
 40
0.9047619047619048
 40
0.9047619047619048
 40
0.9047619047619048
 40
0.9047619047619048
 40
1.0
 40
1.0
 40
1.0
 40
1.0
 10
-31.6027
 20
-5.6172
 30
0.0
 10
-31.3505
 20
-11.2855
 30
0.0
 10
-23.863
 20
-13.7501
 30
0.0
 10
-19.5607
 20
-9.8013
 30
0.0
 10
-19.5607
 20
-9.8013
 30
0.0
 10
-22.9676
 20
-14.3229
 30
0.0
 10
-20.8836
 20
-21.0265
 30
0.0
 10
-14.6626
 20
-21.7404
 30
0.0
 10
-14.6626
 20
-21.7404
 30
0.0
 10
-10.8791
 20
-21.7108
 30
0.0
 10
-8.6035
 20
-19.0294
 30
0.0
 10
-8.4374
 20
-16.2297
 30
0.0
 10
-8.4374
 20
-16.2297
 30
0.0
 10
-8.5379
 20
-12.5823
 30
0.0
 10
-10.1823
 20
-10.6154
 30
0.0
 10
-13.8459
 20
-9.8013
 30
0.0
 10
-13.8459
 20
-9.8013
 30
0.0
 10
-15.1436
 20
-10.3202
 30
0.0
 10
-15.4508
 20
-12.0305
 30
0.0
 10
-13.8459
 20
-12.3519
 30
0.0
 10
-13.8459
 20
-12.3519
 30
0.0
 10
-11.6014
 20
-13.2489
 30
0.0
 10
-10.4877
 20
-15.4325
 30
0.0
 10
-11.6014
 20
-17.6593
 30
0.0
 10
-11.6014
 20
-17.6593
 30
0.0
 10
-12.9683
 20
-19.599
 30
0.0
 10
-14.6373
 20
-19.8016
 30
0.0
 10
-16.7036
 20
-18.8836
 30
0.0
 10
-16.7036
 20
-18.8836
 30
0.0
 10
-19.6442
 20
-16.3885
 30
0.0
 10
-18.5457
 20
-11.9167
 30
0.0
 10
-16.3973
 20
-9.2907
 30
0.0
 10
-16.3973
 20
-9.2907
 30
0.0
 10
-13.5521
 20
-6.1209
 30
0.0
 10
-10.0229
 20
-6.406
 30
0.0
 10
-6.4984
 20
-8.1686
 30
0.0
 10
-6.4984
 20
-8.1686
 30
0.0
 10
-2.4265
 20
-11.1877
 30
0.0
 10
-2.088
 20
-14.858
 30
0.0
 10
-4.2541
 20
-19.1899
 30
0.0
 10
-4.2541
 20
-19.1899
 30
0.0
 10
-10.859
 20
-29.4195
 30
0.0
 10
-22.7551
 20
-28.7927
 30
0.0
 10
-29.2555
 20
-24.394
 30
0.0
 10
-29.2555
 20
-24.394
 30
0.0
 10
-34.2276
 20
-20.9246
 30
0.0
 10
-37.1134
 20
-15.571
 30
0.0
 10
-37.1134
 20
-9.4951
 30
0.0
 10
-37.1134
 20
-9.4951
 30
0.0
 10
-37.0037
 20
-2.9451
 30
0.0
 10
-34.2073
 20
1.8999
 30
0.0
 10
-29.1533
 20
5.4041
 30
0.0
 10
-29.1533
 20
5.4041
 30
0.0
 10
-25.2771
 20
8.0466
 30
0.0
 10
-21.2143
 20
7.5522
 30
0.0
 10
-18.2341
 20
4.1798
 30
0.0
 10
-18.2341
 20
4.1798
 30
0.0
 10
-15.8033
 20
0.5583
 30
0.0
 10
-15.9746
 20
-2.5839
 30
0.0
 10
-18.0301
 20
-5.6172
 30
0.0
 10
-18.0301
 20
-5.6172
 30
0.0
 10
-20.5858
 20
-8.7138
 30
0.0
 10
-23.1906
 20
-9.7938
 30
0.0
 10
-27.2142
 20
-8.6783
 30
0.0
 10
-27.2142
 20
-8.6783
 30
0.0
 10
-29.3414
 20
-7.4994
 30
0.0
 10
-29.8257
 20
-5.007
 30
0.0
 10
-28.4385
 20
-3.0664
 30
0.0
 10
-28.4385
 20
-3.0664
 30
0.0
 10
-26.109
 20
-0.9848
 30
0.0
 10
-23.5846
 20
-1.5384
 30
0.0
 10
-22.3164
 20
-4.3929
 30
0.0
 10
-22.3164
 20
-4.3929
 30
0.0
 10
-21.9662
 20
-5.7917
 30
0.0
 10
-19.7639
 20
-5.7647
 30
0.0
 10
-19.7647
 20
-4.2907
 30
0.0
 10
-19.7647
 20
-4.2907
 30
0.0
 10
-20.8238
 20
2.7967
 30
0.0
 10
-31.633
 20
2.6989
 30
0.0
 10
-31.6027
 20
-5.6172
 30
0.0
  0
SPLINE
  5
86
330
1F
100
AcDbEntity
  8
layer 1
 62
     7
100
AcDbSpline
210
0.0
220
0.0
230
1.0
 70
    11
 71
     3
 72
    16
 73
    12
 74
     0
 42
0.0000000001
 43
0.0000000001
 12
1.0
 22
0.0
 32
0.0
 13
1.0
 23
0.0
 33
0.0
 40
0.0
 40
0.0
 40
0.0
 40
0.0
 40
0.25
 40
0.25
 40
0.25
 40
0.25
 40
0.5
 40
0.5
 40
0.5
 40
0.5
 40
1.0
 40
1.0
 40
1.0
 40
1.0
 10
-11.4995
 20
-28.5781
 30
0.0
 10
-7.4123
 20
-30.1865
 30
0.0
 10
-4.3012
 20
-33.1792
 30
0.0
 10
-2.6205
 20
-37.0478
 30
0.0
 10
-2.6205
 20
-37.0478
 30
0.0
 10
-2.6205
 20
-37.0478
 30
0.0
 10
-2.6205
 20
-21.6385
 30
0.0
 10
-2.6205
 20
-21.6385
 30
0.0
 10
-2.6205
 20
-21.6385
 30
0.0
 10
-4.858
 20
-24.6532
 30
0.0
 10
-7.8374
 20
-27.2182
 30
0.0
 10
-11.4995
 20
-28.5781
 30
0.0
  0
SPLINE
  5
87
330
1F
100
AcDbEntity
  8
layer 1
 62
     7
100
AcDbSpline
210
0.0
220
0.0
230
1.0
 70
    11
 71
     3
 72
    16
 73
    12
 74
     0
 42
0.0000000001
 43
0.0000000001
 12
1.0
 22
0.0
 32
0.0
 13
1.0
 23
0.0
 33
0.0
 40
0.0
 40
0.0
 40
0.0
 40
0.0
 40
0.25
 40
0.25
 40
0.25
 40
0.25
 40
0.5
 40
0.5
 40
0.5
 40
0.5
 40
1.0
 40
1.0
 40
1.0
 40
1.0
 10
-30.2754
 20
-26.8435
 30
0.0
 10
-26.0482
 20
-29.2491
 30
0.0
 10
-22.0691
 20
-30.2422
 30
0.0
 10
-17.2142
 20
-30.0068
 30
0.0
 10
-17.2142
 20
-30.0068
 30
0.0
 10
-12.1844
 20
-30.2312
 30
0.0
 10
-8.1582
 20
-32.8907
 30
0.0
 10
-5.5804
 20
-36.9458
 30
0.0
 10
-5.5804
 20
-36.9458
 30
0.0
 10
-15.7629
 20
-35.66
 30
0.0
 10
-22.7138
 20
-32.6459
 30
0.0
 10
-30.2754
 20
-26.8435
 30
0.0
  0
SPLINE
  5
88
330
1F
100
AcDbEntity
  8
layer 1
 62
     7
100
AcDbSpline
210
0.0
220
0.0
230
1.0
 70
    11
 71
     3
 72
    16
 73
    12
 74
     0
 42
0.0000000001
 43
0.0000000001
 12
1.0
 22
0.0
 32
0.0
 13
1.0
 23
0.0
 33
0.0
 40
0.0
 40
0.0
 40
0.0
 40
0.0
 40
0.25
 40
0.25
 40
0.25
 40
0.25
 40
0.5
 40
0.5
 40
0.5
 40
0.5
 40
1.0
 40
1.0
 40
1.0
 40
1.0
 10
-48.4407
 20
-5.3109
 30
0.0
 10
-48.4407
 20
-5.3109
 30
0.0
 10
-48.4407
 20
-42.2521
 30
0.0
 10
-48.4407
 20
-42.2521
 30
0.0
 10
-48.4407
 20
-42.2521
 30
0.0
 10
-45.7349
 20
-33.635
 30
0.0
 10
-38.6269
 20
-29.6837
 30
0.0
 10
-29.868
 20
-31.4352
 30
0.0
 10
-29.868
 20
-31.4352
 30
0.0
 10
-39.3265
 20
-24.4413
 30
0.0
 10
-44.7466
 20
-16.3918
 30
0.0
 10
-48.4407
 20
-5.3109
 30
0.0
  0
SPLINE
  5
89
330
1F
100
AcDbEntity
  8
layer 1
 62
     7
100
AcDbSpline
210
0.0
220
0.0
230
1.0
 70
    11
 71
     3
 72
    44
 73
    40
 74
     0
 42
0.0000000001
 43
0.0000000001
 12
1.0
 22
0.0
 32
0.0
 13
1.0
 23
0.0
 33
0.0
 40
0.0
 40
0.0
 40
0.0
 40
0.0
 40
0.0909090909090909
 40
0.0909090909090909
 40
0.0909090909090909
 40
0.0909090909090909
 40
0.1818181818181818
 40
0.1818181818181818
 40
0.1818181818181818
 40
0.1818181818181818
 40
0.2727272727272727
 40
0.2727272727272727
 40
0.2727272727272727
 40
0.2727272727272727
 40
0.3636363636363636
 40
0.3636363636363636
 40
0.3636363636363636
 40
0.3636363636363636
 40
0.4545454545454545
 40
0.4545454545454545
 40
0.4545454545454545
 40
0.4545454545454545
 40
0.5454545454545454
 40
0.5454545454545454
 40
0.5454545454545454
 40
0.5454545454545454
 40
0.6363636363636364
 40
0.6363636363636364
 40
0.6363636363636364
 40
0.6363636363636364
 40
0.7272727272727273
 40
0.7272727272727273
 40
0.7272727272727273
 40
0.7272727272727273
 40
0.8181818181818182
 40
0.8181818181818182
 40
0.8181818181818182
 40
0.8181818181818182
 40
1.0
 40
1.0
 40
1.0
 40
1.0
 10
-10.5806
 20
-55.6207
 30
0.0
 10
-6.2429
 20
-55.2637
 30
0.0
 10
-3.6625
 20
-52.5984
 30
0.0
 10
-3.5394
 20
-48.3754
 30
0.0
 10
-3.5394
 20
-48.3754
 30
0.0
 10
-3.6044
 20
-44.2992
 30
0.0
 10
-6.5768
 20
-41.3469
 30
0.0
 10
-10.5806
 20
-41.232
 30
0.0
 10
-10.5806
 20
-41.232
 30
0.0
 10
-12.1507
 20
-41.2886
 30
0.0
 10
-13.2443
 20
-42.491
 30
0.0
 10
-13.3361
 20
-44.1912
 30
0.0
 10
-13.3361
 20
-44.1912
 30
0.0
 10
-13.1564
 20
-45.8028
 30
0.0
 10
-12.2242
 20
-46.8718
 30
0.0
 10
-10.5806
 20
-47.151
 30
0.0
 10
-10.5806
 20
-47.151
 30
0.0
 10
-8.9833
 20
-47.2608
 30
0.0
 10
-9.2263
 20
-49.6275
 30
0.0
 10
-10.5806
 20
-49.7016
 30
0.0
 10
-10.5806
 20
-49.7016
 30
0.0
 10
-13.4577
 20
-49.3625
 30
0.0
 10
-14.9174
 20
-48.0824
 30
0.0
 10
-15.8869
 20
-45.4164
 30
0.0
 10
-15.8869
 20
-45.4164
 30
0.0
 10
-16.5198
 20
-42.7424
 30
0.0
 10
-15.2802
 20
-40.5932
 30
0.0
 10
-13.132
 20
-39.089
 30
0.0
 10
-13.132
 20
-39.089
 30
0.0
 10
-18.2089
 20
-37.5262
 30
0.0
 10
-19.9116
 20
-37.0562
 30
0.0
 10
-25.0713
 20
-34.3951
 30
0.0
 10
-25.0713
 20
-34.3951
 30
0.0
 10
-22.6529
 20
-36.1223
 30
0.0
 10
-19.2805
 20
-40.7006
 30
0.0
 10
-19.4585
 20
-45.4164
 30
0.0
 10
-19.4585
 20
-45.4164
 30
0.0
 10
-20.1309
 20
-51.4255
 30
0.0
 10
-16.2522
 20
-55.6948
 30
0.0
 10
-10.5806
 20
-55.6207
 30
0.0
  0
SPLINE
  5
8A
330
1F
100
AcDbEntity
  8
layer 1
 62
     7
100
AcDbSpline
210
0.0
220
0.0
230
1.0
 70
    11
 71
     3
 72
    16
 73
    12
 74
     0
 42
0.0000000001
 43
0.0000000001
 12
1.0
 22
0.0
 32
0.0
 13
1.0
 23
0.0
 33
0.0
 40
0.0
 40
0.0
 40
0.0
 40
0.0
 40
0.25
 40
0.25
 40
0.25
 40
0.25
 40
0.5
 40
0.5
 40
0.5
 40
0.5
 40
1.0
 40
1.0
 40
1.0
 40
1.0
 10
-39.7661
 20
-7.4541
 30
0.0
 10
-39.9449
 20
-12.0929
 30
0.0
 10
-39.7803
 20
-14.8301
 30
0.0
 10
-36.6027
 20
-20.4142
 30
0.0
 10
-36.6027
 20
-20.4142
 30
0.0
 10
-41.92
 20
-13.816
 30
0.0
 10
-45.9137
 20
-5.1547
 30
0.0
 10
-46.808
 20
4.2817
 30
0.0
 10
-46.808
 20
4.2817
 30
0.0
 10
-42.4408
 20
1.2257
 30
0.0
 10
-40.5137
 20
-2.221
 30
0.0
 10
-39.7661
 20
-7.4541
 30
0.0
  0
SPLINE
  5
8B
330
1F
100
AcDbEntity
  8
layer 1
 62
     7
100
AcDbSpline
210
0.0
220
0.0
230
1.0
 70
    11
 71
     3
 72
    20
 73
    16
 74
     0
 42
0.0000000001
 43
0.0000000001
 12
1.0
 22
0.0
 32
0.0
 13
1.0
 23
0.0
 33
0.0
 40
0.0
 40
0.0
 40
0.0
 40
0.0
 40
0.2
 40
0.2
 40
0.2
 40
0.2
 40
0.4
 40
0.4
 40
0.4
 40
0.4
 40
0.6
 40
0.6
 40
0.6
 40
0.6
 40
1.0
 40
1.0
 40
1.0
 40
1.0
 10
-6.1921
 20
-73.0713
 30
0.0
 10
-4.287
 20
-74.3783
 30
0.0
 10
-2.9209
 20
-76.0892
 30
0.0
 10
-1.3633
 20
-77.8671
 30
0.0
 10
-1.3633
 20
-77.8671
 30
0.0
 10
0.1942
 20
-76.0892
 30
0.0
 10
1.5602
 20
-74.3783
 30
0.0
 10
3.4656
 20
-73.0713
 30
0.0
 10
3.4656
 20
-73.0713
 30
0.0
 10
1.676
 20
-71.6249
 30
0.0
 10
-0.0218
 20
-70.2876
 30
0.0
 10
-1.3633
 20
-68.2745
 30
0.0
 10
-1.3633
 20
-68.2745
 30
0.0
 10
-2.7049
 20
-70.2876
 30
0.0
 10
-4.4025
 20
-71.6249
 30
0.0
 10
-6.1921
 20
-73.0713
 30
0.0
  0
SPLINE
  5
8C
330
1F
100
AcDbEntity
  8
layer 1
 62
     7
100
AcDbSpline
210
0.0
220
0.0
230
1.0
 70
    11
 71
     3
 72
    20
 73
    16
 74
     0
 42
0.0000000001
 43
0.0000000001
 12
1.0
 22
0.0
 32
0.0
 13
1.0
 23
0.0
 33
0.0
 40
0.0
 40
0.0
 40
0.0
 40
0.0
 40
0.2
 40
0.2
 40
0.2
 40
0.2
 40
0.4
 40
0.4
 40
0.4
 40
0.4
 40
0.6
 40
0.6
 40
0.6
 40
0.6
 40
1.0
 40
1.0
 40
1.0
 40
1.0
 10
-47.8281
 20
-61.7437
 30
0.0
 10
-47.8281
 20
-61.7437
 30
0.0
 10
-2.2129
 20
-61.7437
 30
0.0
 10
-2.2129
 20
-61.7437
 30
0.0
 10
-2.2129
 20
-61.7437
 30
0.0
 10
-3.8137
 20
-65.4284
 30
0.0
 10
-6.355
 20
-68.3361
 30
0.0
 10
-9.3563
 20
-70.9281
 30
0.0
 10
-9.3563
 20
-70.9281
 30
0.0
 10
-19.9227
 20
-65.1332
 30
0.0
 10
-30.0315
 20
-65.0731
 30
0.0
 10
-40.5828
 20
-71.0303
 30
0.0
 10
-40.5828
 20
-71.0303
 30
0.0
 10
-43.9891
 20
-68.6897
 30
0.0
 10
-46.0217
 20
-65.3567
 30
0.0
 10
-47.8281
 20
-61.7437
 30
0.0
  0
SPLINE
  5
8D
330
1F
100
AcDbEntity
  8
layer 1
 62
     7
100
AcDbSpline
210
0.0
220
0.0
230
1.0
 70
    11
 71
     3
 72
    12
 73
     8
 74
     0
 42
0.0000000001
 43
0.0000000001
 12
1.0
 22
0.0
 32
0.0
 13
1.0
 23
0.0
 33
0.0
 40
0.0
 40
0.0
 40
0.0
 40
0.0
 40
0.3333333333333333
 40
0.3333333333333333
 40
0.3333333333333333
 40
0.3333333333333333
 40
1.0
 40
1.0
 40
1.0
 40
1.0
 10
-12.7237
 20
-73.0713
 30
0.0
 10
-21.4701
 20
-77.3692
 30
0.0
 10
-28.6816
 20
-77.0429
 30
0.0
 10
-37.4196
 20
-73.0713
 30
0.0
 10
-37.4196
 20
-73.0713
 30
0.0
 10
-28.4808
 20
-69.0204
 30
0.0
 10
-21.6388
 20
-69.1705
 30
0.0
 10
-12.7237
 20
-73.0713
 30
0.0
  0
SPLINE
  5
8E
330
1F
100
AcDbEntity
  8
layer 1
 62
     7
100
AcDbSpline
210
0.0
220
0.0
230
1.0
 70
    11
 71
     3
 72
    20
 73
    16
 74
     0
 42
0.0000000001
 43
0.0000000001
 12
1.0
 22
0.0
 32
0.0
 13
1.0
 23
0.0
 33
0.0
 40
0.0
 40
0.0
 40
0.0
 40
0.0
 40
0.2
 40
0.2
 40
0.2
 40
0.2
 40
0.4
 40
0.4
 40
0.4
 40
0.4
 40
0.6
 40
0.6
 40
0.6
 40
0.6
 40
1.0
 40
1.0
 40
1.0
 40
1.0
 10
-2.2129
 20
-83.786
 30
0.0
 10
-4.2254
 20
-80.6668
 30
0.0
 10
-6.2275
 20
-77.5667
 30
0.0
 10
-9.2541
 20
-75.3155
 30
0.0
 10
-9.2541
 20
-75.3155
 30
0.0
 10
-20.033
 20
-81.1013
 30
0.0
 10
-29.8974
 20
-80.9713
 30
0.0
 10
-40.5828
 20
-75.1123
 30
0.0
 10
-40.5828
 20
-75.1123
 30
0.0
 10
-43.5502
 20
-77.7617
 30
0.0
 10
-45.9424
 20
-80.2118
 30
0.0
 10
-47.8281
 20
-83.786
 30
0.0
 10
-47.8281
 20
-83.786
 30
0.0
 10
-47.8281
 20
-83.786
 30
0.0
 10
-2.2129
 20
-83.786
 30
0.0
 10
-2.2129
 20
-83.786
 30
0.0
  0
SPLINE
  5
8F
330
1F
100
AcDbEntity
  8
layer 1
 62
     7
100
AcDbSpline
210
0.0
220
0.0
230
1.0
 70
    11
 71
     3
 72
    16
 73
    12
 74
     0
 42
0.0000000001
 43
0.0000000001
 12
1.0
 22
0.0
 32
0.0
 13
1.0
 23
0.0
 33
0.0
 40
0.0
 40
0.0
 40
0.0
 40
0.0
 40
0.25
 40
0.25
 40
0.25
 40
0.25
 40
0.5
 40
0.5
 40
0.5
 40
0.5
 40
1.0
 40
1.0
 40
1.0
 40
1.0
 10
-43.4398
 20
-73.0713
 30
0.0
 10
-45.3787
 20
-71.6394
 30
0.0
 10
-46.8326
 20
-69.8168
 30
0.0
 10
-48.3385
 20
-67.9682
 30
0.0
 10
-48.3385
 20
-67.9682
 30
0.0
 10
-48.3385
 20
-67.9682
 30
0.0
 10
-48.3385
 20
-78.2756
 30
0.0
 10
-48.3385
 20
-78.2756
 30
0.0
 10
-48.3385
 20
-78.2756
 30
0.0
 10
-46.9607
 20
-76.2842
 30
0.0
 10
-45.205
 20
-74.6997
 30
0.0
 10
-43.4398
 20
-73.0713
 30
0.0
  0
SPLINE
  5
90
330
1F
100
AcDbEntity
  8
layer 1
 62
     7
100
AcDbSpline
210
0.0
220
0.0
230
1.0
 70
    11
 71
     3
 72
    20
 73
    16
 74
     0
 42
0.0000000001
 43
0.0000000001
 12
1.0
 22
0.0
 32
0.0
 13
1.0
 23
0.0
 33
0.0
 40
0.0
 40
0.0
 40
0.0
 40
0.0
 40
0.2
 40
0.2
 40
0.2
 40
0.2
 40
0.4
 40
0.4
 40
0.4
 40
0.4
 40
0.6
 40
0.6
 40
0.6
 40
0.6
 40
1.0
 40
1.0
 40
1.0
 40
1.0
 10
-6.1921
 20
-99.6032
 30
0.0
 10
-4.287
 20
-100.911
 30
0.0
 10
-2.9209
 20
-102.6211
 30
0.0
 10
-1.3633
 20
-104.3999
 30
0.0
 10
-1.3633
 20
-104.3999
 30
0.0
 10
0.1942
 20
-102.6211
 30
0.0
 10
1.5602
 20
-100.911
 30
0.0
 10
3.4656
 20
-99.6032
 30
0.0
 10
3.4656
 20
-99.6032
 30
0.0
 10
1.676
 20
-98.1577
 30
0.0
 10
-0.0218
 20
-96.8204
 30
0.0
 10
-1.3633
 20
-94.8073
 30
0.0
 10
-1.3633
 20
-94.8073
 30
0.0
 10
-2.7049
 20
-96.8204
 30
0.0
 10
-4.4025
 20
-98.1577
 30
0.0
 10
-6.1921
 20
-99.6032
 30
0.0
  0
SPLINE
  5
91
330
1F
100
AcDbEntity
  8
layer 1
 62
     7
100
AcDbSpline
210
0.0
220
0.0
230
1.0
 70
    11
 71
     3
 72
    20
 73
    16
 74
     0
 42
0.0000000001
 43
0.0000000001
 12
1.0
 22
0.0
 32
0.0
 13
1.0
 23
0.0
 33
0.0
 40
0.0
 40
0.0
 40
0.0
 40
0.0
 40
0.2
 40
0.2
 40
0.2
 40
0.2
 40
0.4
 40
0.4
 40
0.4
 40
0.4
 40
0.6
 40
0.6
 40
0.6
 40
0.6
 40
1.0
 40
1.0
 40
1.0
 40
1.0
 10
-47.8281
 20
-88.2756
 30
0.0
 10
-47.8281
 20
-88.2756
 30
0.0
 10
-2.2129
 20
-88.2756
 30
0.0
 10
-2.2129
 20
-88.2756
 30
0.0
 10
-2.2129
 20
-88.2756
 30
0.0
 10
-3.8137
 20
-91.9613
 30
0.0
 10
-6.355
 20
-94.8688
 30
0.0
 10
-9.3563
 20
-97.4608
 30
0.0
 10
-9.3563
 20
-97.4608
 30
0.0
 10
-19.9227
 20
-91.666
 30
0.0
 10
-30.0315
 20
-91.605
 30
0.0
 10
-40.5828
 20
-97.5622
 30
0.0
 10
-40.5828
 20
-97.5622
 30
0.0
 10
-43.9891
 20
-95.2224
 30
0.0
 10
-46.0217
 20
-91.8895
 30
0.0
 10
-47.8281
 20
-88.2756
 30
0.0
  0
SPLINE
  5
92
330
1F
100
AcDbEntity
  8
layer 1
 62
     7
100
AcDbSpline
210
0.0
220
0.0
230
1.0
 70
    11
 71
     3
 72
    12
 73
     8
 74
     0
 42
0.0000000001
 43
0.0000000001
 12
1.0
 22
0.0
 32
0.0
 13
1.0
 23
0.0
 33
0.0
 40
0.0
 40
0.0
 40
0.0
 40
0.0
 40
0.3333333333333333
 40
0.3333333333333333
 40
0.3333333333333333
 40
0.3333333333333333
 40
1.0
 40
1.0
 40
1.0
 40
1.0
 10
-12.7237
 20
-99.6032
 30
0.0
 10
-21.4701
 20
-103.9021
 30
0.0
 10
-28.6816
 20
-103.5748
 30
0.0
 10
-37.4196
 20
-99.6032
 30
0.0
 10
-37.4196
 20
-99.6032
 30
0.0
 10
-28.4808
 20
-95.5531
 30
0.0
 10
-21.6388
 20
-95.7033
 30
0.0
 10
-12.7237
 20
-99.6032
 30
0.0
  0
SPLINE
  5
93
330
1F
100
AcDbEntity
  8
layer 1
 62
     7
100
AcDbSpline
210
0.0
220
0.0
230
1.0
 70
    11
 71
     3
 72
    20
 73
    16
 74
     0
 42
0.0000000001
 43
0.0000000001
 12
1.0
 22
0.0
 32
0.0
 13
1.0
 23
0.0
 33
0.0
 40
0.0
 40
0.0
 40
0.0
 40
0.0
 40
0.2
 40
0.2
 40
0.2
 40
0.2
 40
0.4
 40
0.4
 40
0.4
 40
0.4
 40
0.6
 40
0.6
 40
0.6
 40
0.6
 40
1.0
 40
1.0
 40
1.0
 40
1.0
 10
-2.2129
 20
-110.3188
 30
0.0
 10
-4.2254
 20
-107.1987
 30
0.0
 10
-6.2275
 20
-104.0995
 30
0.0
 10
-9.2541
 20
-101.8483
 30
0.0
 10
-9.2541
 20
-101.8483
 30
0.0
 10
-20.033
 20
-107.6332
 30
0.0
 10
-29.8974
 20
-107.5041
 30
0.0
 10
-40.5828
 20
-101.6442
 30
0.0
 10
-40.5828
 20
-101.6442
 30
0.0
 10
-43.5502
 20
-104.2936
 30
0.0
 10
-45.9424
 20
-106.7437
 30
0.0
 10
-47.8281
 20
-110.3188
 30
0.0
 10
-47.8281
 20
-110.3188
 30
0.0
 10
-47.8281
 20
-110.3188
 30
0.0
 10
-2.2129
 20
-110.3188
 30
0.0
 10
-2.2129
 20
-110.3188
 30
0.0
  0
SPLINE
  5
94
330
1F
100
AcDbEntity
  8
layer 1
 62
     7
100
AcDbSpline
210
0.0
220
0.0
230
1.0
 70
    11
 71
     3
 72
    16
 73
    12
 74
     0
 42
0.0000000001
 43
0.0000000001
 12
1.0
 22
0.0
 32
0.0
 13
1.0
 23
0.0
 33
0.0
 40
0.0
 40
0.0
 40
0.0
 40
0.0
 40
0.25
 40
0.25
 40
0.25
 40
0.25
 40
0.5
 40
0.5
 40
0.5
 40
0.5
 40
1.0
 40
1.0
 40
1.0
 40
1.0
 10
-43.4398
 20
-99.6032
 30
0.0
 10
-45.3787
 20
-98.1721
 30
0.0
 10
-46.8326
 20
-96.3495
 30
0.0
 10
-48.3385
 20
-94.501
 30
0.0
 10
-48.3385
 20
-94.501
 30
0.0
 10
-48.3385
 20
-94.501
 30
0.0
 10
-48.3385
 20
-104.8082
 30
0.0
 10
-48.3385
 20
-104.8082
 30
0.0
 10
-48.3385
 20
-104.8082
 30
0.0
 10
-46.9607
 20
-102.8171
 30
0.0
 10
-45.205
 20
-101.2325
 30
0.0
 10
-43.4398
 20
-99.6032
 30
0.0
  0
SPLINE
  5
95
330
1F
100
AcDbEntity
  8
layer 1
 62
     7
100
AcDbSpline
210
0.0
220
0.0
230
1.0
 70
    11
 71
     3
 72
    20
 73
    16
 74
     0
 42
0.0000000001
 43
0.0000000001
 12
1.0
 22
0.0
 32
0.0
 13
1.0
 23
0.0
 33
0.0
 40
0.0
 40
0.0
 40
0.0
 40
0.0
 40
0.2
 40
0.2
 40
0.2
 40
0.2
 40
0.4
 40
0.4
 40
0.4
 40
0.4
 40
0.6
 40
0.6
 40
0.6
 40
0.6
 40
1.0
 40
1.0
 40
1.0
 40
1.0
 10
-12.5194
 20
7.241
 30
0.0
 10
-8.6474
 20
7.3159
 30
0.0
 10
-7.4646
 20
3.3283
 30
0.0
 10
-9.8658
 20
1.1177
 30
0.0
 10
-9.8658
 20
1.1177
 30
0.0
 10
-9.8658
 20
1.1177
 30
0.0
 10
-13.4383
 20
-2.4538
 30
0.0
 10
-13.4383
 20
-2.4538
 30
0.0
 10
-13.4383
 20
-2.4538
 30
0.0
 10
-12.8611
 20
1.2722
 30
0.0
 10
-14.1682
 20
4.8379
 30
0.0
 10
-17.2142
 20
7.241
 30
0.0
 10
-17.2142
 20
7.241
 30
0.0
 10
-17.2142
 20
7.241
 30
0.0
 10
-12.5194
 20
7.241
 30
0.0
 10
-12.5194
 20
7.241
 30
0.0
  0
SPLINE
  5
96
330
1F
100
AcDbEntity
  8
layer 1
 62
     7
100
AcDbSpline
210
0.0
220
0.0
230
1.0
 70
    11
 71
     3
 72
    20
 73
    16
 74
     0
 42
0.0000000001
 43
0.0000000001
 12
1.0
 22
0.0
 32
0.0
 13
1.0
 23
0.0
 33
0.0
 40
0.0
 40
0.0
 40
0.0
 40
0.0
 40
0.2
 40
0.2
 40
0.2
 40
0.2
 40
0.4
 40
0.4
 40
0.4
 40
0.4
 40
0.6
 40
0.6
 40
0.6
 40
0.6
 40
1.0
 40
1.0
 40
1.0
 40
1.0
 10
-2.7227
 20
-2.658
 30
0.0
 10
-2.7227
 20
0.8791
 30
0.0
 10
-6.1982
 20
2.4855
 30
0.0
 10
-8.8457
 20
0.0976
 30
0.0
 10
-8.8457
 20
0.0976
 30
0.0
 10
-8.8457
 20
0.0976
 30
0.0
 10
-12.8257
 20
-3.8823
 30
0.0
 10
-12.8257
 20
-3.8823
 30
0.0
 10
-12.8257
 20
-3.8823
 30
0.0
 10
-8.6163
 20
-2.9669
 30
0.0
 10
-5.1088
 20
-4.3784
 30
0.0
 10
-2.7227
 20
-6.8415
 30
0.0
 10
-2.7227
 20
-6.8415
 30
0.0
 10
-2.7227
 20
-6.8415
 30
0.0
 10
-2.7227
 20
-2.658
 30
0.0
 10
-2.7227
 20
-2.658
 30
0.0
  0
ENDSEC
  0
SECTION
  2
OBJECTS
  0
DICTIONARY
  5
C
330
0
100
AcDbDictionary
281
     1
  3
ACAD_GROUP
350
D
  3
ACAD_LAYOUT
350
1A
  3
ACAD_MATERIAL
350
3B
  3
ACAD_MLEADERSTYLE
350
B9
  3
ACAD_MLINESTYLE
350
17
  3
ACAD_PLOTSETTINGS
350
19
  3
ACAD_PLOTSTYLENAME
350
E
  3
ACAD_TABLESTYLE
350
B8
  3
ACAD_VISUALSTYLE
350
2A
  0
DICTIONARY
  5
D
102
{ACAD_REACTORS
330
C
102
}
330
C
100
AcDbDictionary
281
     1
  0
DICTIONARY
  5
1A
102
{ACAD_REACTORS
330
C
102
}
330
C
100
AcDbDictionary
281
     1
  3
Layout1
350
1E
  3
Layout2
350
26
  3
Model
350
22
  0
DICTIONARY
  5
3B
102
{ACAD_REACTORS
330
C
102
}
330
C
100
AcDbDictionary
281
     1
  3
ByBlock
350
3D
  3
ByLayer
350
3C
  3
Global
350
3E
  0
DICTIONARY
  5
B9
102
{ACAD_REACTORS
330
C
102
}
330
C
100
AcDbDictionary
281
     1
  0
DICTIONARY
  5
17
102
{ACAD_REACTORS
330
C
102
}
330
C
100
AcDbDictionary
281
     1
  3
Standard
350
18
  0
DICTIONARY
  5
19
102
{ACAD_REACTORS
330
C
102
}
330
C
100
AcDbDictionary
281
     1
  0
ACDBDICTIONARYWDFLT
  5
E
102
{ACAD_REACTORS
330
C
102
}
330
C
100
AcDbDictionary
281
     1
  3
Normal
350
F
100
AcDbDictionaryWithDefault
340
F
  0
DICTIONARY
  5
B8
102
{ACAD_REACTORS
330
C
102
}
330
C
100
AcDbDictionary
281
     1
  0
DICTIONARY
  5
2A
102
{ACAD_REACTORS
330
C
102
}
330
C
100
AcDbDictionary
281
     1
  3
2dWireframe
350
2F
  3
3D Hidden
350
31
  3
3dWireframe
350
30
  3
Basic
350
32
  3
Brighten
350
36
  3
ColorChange
350
3A
  3
Conceptual
350
34
  3
Dim
350
35
  3
Facepattern
350
39
  3
Flat
350
2B
  3
FlatWithEdges
350
2C
  3
Gouraud
350
2D
  3
GouraudWithEdges
350
2E
  3
Linepattern
350
38
  3
Realistic
350
33
  3
Thicken
350
37
  0
LAYOUT
  5
1E
102
{ACAD_REACTORS
330
1A
102
}
330
1A
100
AcDbPlotSettings
  1

  2
none_device
  4

  6

 40
0.0
 41
0.0
 42
0.0
 43
0.0
 44
0.0
 45
0.0
 46
0.0
 47
0.0
 48
0.0
 49
0.0
140
0.0
141
0.0
142
1.0
143
1.0
 70
   688
 72
     0
 73
     0
 74
     5
  7

 75
    16
 76
     0
 77
     2
 78
   300
147
1.0
148
0.0
149
0.0
100
AcDbLayout
  1
Layout1
 70
     1
 71
     1
 10
0.0
 20
0.0
 11
12.0
 21
9.0
 12
0.0
 22
0.0
 32
0.0
 14
1.000000000000000E+20
 24
1.000000000000000E+20
 34
1.000000000000000E+20
 15
-1.000000000000000E+20
 25
-1.000000000000000E+20
 35
-1.000000000000000E+20
146
0.0
 13
0.0
 23
0.0
 33
0.0
 16
1.0
 26
0.0
 36
0.0
 17
0.0
 27
1.0
 37
0.0
 76
     0
330
1B
  0
LAYOUT
  5
26
102
{ACAD_REACTORS
330
1A
102
}
330
1A
100
AcDbPlotSettings
  1

  2
none_device
  4

  6

 40
0.0
 41
0.0
 42
0.0
 43
0.0
 44
0.0
 45
0.0
 46
0.0
 47
0.0
 48
0.0
 49
0.0
140
0.0
141
0.0
142
1.0
143
1.0
 70
   688
 72
     0
 73
     0
 74
     5
  7

 75
    16
 76
     0
 77
     2
 78
   300
147
1.0
148
0.0
149
0.0
100
AcDbLayout
  1
Layout2
 70
     1
 71
     2
 10
0.0
 20
0.0
 11
0.0
 21
0.0
 12
0.0
 22
0.0
 32
0.0
 14
0.0
 24
0.0
 34
0.0
 15
0.0
 25
0.0
 35
0.0
146
0.0
 13
0.0
 23
0.0
 33
0.0
 16
1.0
 26
0.0
 36
0.0
 17
0.0
 27
1.0
 37
0.0
 76
     0
330
23
  0
LAYOUT
  5
22
102
{ACAD_REACTORS
330
1A
102
}
330
1A
100
AcDbPlotSettings
  1

  2
none_device
  4

  6

 40
0.0
 41
0.0
 42
0.0
 43
0.0
 44
0.0
 45
0.0
 46
0.0
 47
0.0
 48
0.0
 49
0.0
140
0.0
141
0.0
142
1.0
143
1.0
 70
  1712
 72
     0
 73
     0
 74
     0
  7

 75
     0
 76
     0
 77
     2
 78
   300
147
1.0
148
0.0
149
0.0
100
AcDbLayout
  1
Model
 70
     1
 71
     0
 10
0.0
 20
0.0
 11
12.0
 21
9.0
 12
0.0
 22
0.0
 32
0.0
 14
-53.38
 24
-114.8591
 34
0.0
 15
50.6535
 25
131.7775
 35
0.0
146
0.0
 13
0.0
 23
0.0
 33
0.0
 16
1.0
 26
0.0
 36
0.0
 17
0.0
 27
1.0
 37
0.0
 76
     0
330
1F
331
29
  0
MATERIAL
  5
3D
102
{ACAD_REACTORS
330
3B
102
}
330
3B
100
AcDbMaterial
  1
ByBlock
 72
     1
 94
      127
  0
MATERIAL
  5
3C
102
{ACAD_REACTORS
330
3B
102
}
330
3B
100
AcDbMaterial
  1
ByLayer
 72
     1
 94
      127
  0
MATERIAL
  5
3E
102
{ACAD_REACTORS
330
3B
102
}
330
3B
100
AcDbMaterial
  1
Global
 72
     1
 94
      127
  0
MLINESTYLE
  5
18
102
{ACAD_REACTORS
330
17
102
}
330
17
100
AcDbMlineStyle
  2
Standard
 70
     0
  3

 62
   256
 51
90.0
 52
90.0
 71
     2
 49
0.5
 62
   256
  6
BYLAYER
 49
-0.5
 62
   256
  6
BYLAYER
  0
ACDBPLACEHOLDER
  5
F
102
{ACAD_REACTORS
330
E
102
}
330
E
  0
VISUALSTYLE
  5
2F
102
{ACAD_REACTORS
330
2A
102
}
102
{ACAD_XDICTIONARY
360
A0
102
}
330
2A
100
AcDbVisualStyle
  2
2dWireframe
 70
     4
 71
     0
 72
     2
 73
     0
 90
        0
 40
-0.6
 41
-30.0
 62
     5
 63
     7
421
 16777215
 74
     1
 91
        4
 64
     7
 65
   257
 75
     1
175
     1
 42
1.0
 92
        0
 66
   257
 43
1.0
 76
     1
 77
     6
 78
     2
 67
     7
 79
     5
170
     0
171
     0
290
     0
174
     0
 93
        1
 44
0.0
173
     0
291
     0
 45
0.0
  0
VISUALSTYLE
  5
31
102
{ACAD_REACTORS
330
2A
102
}
102
{ACAD_XDICTIONARY
360
A4
102
}
330
2A
100
AcDbVisualStyle
  2
3D Hidden
 70
     6
 71
     1
 72
     2
 73
     2
 90
        0
 40
-0.6
 41
-30.0
 62
     5
 63
     7
421
 16777215
 74
     2
 91
        2
 64
     7
 65
   257
 75
     2
175
     1
 42
40.0
 92
        0
 66
   257
 43
1.0
 76
     1
 77
     6
 78
     2
 67
     7
 79
     3
170
     0
171
     0
290
     0
174
     0
 93
        1
 44
0.0
173
     0
291
     0
 45
0.0
  0
VISUALSTYLE
  5
30
102
{ACAD_REACTORS
330
2A
102
}
102
{ACAD_XDICTIONARY
360
A2
102
}
330
2A
100
AcDbVisualStyle
  2
3dWireframe
 70
     5
 71
     0
 72
     2
 73
     0
 90
        0
 40
-0.6
 41
-30.0
 62
     5
 63
     7
421
 16777215
 74
     1
 91
        4
 64
     7
 65
   257
 75
     1
175
     1
 42
1.0
 92
        0
 66
   257
 43
1.0
 76
     1
 77
     6
 78
     2
 67
     7
 79
     5
170
     0
171
     0
290
     0
174
     0
 93
        1
 44
0.0
173
     0
291
     0
 45
0.0
  0
VISUALSTYLE
  5
32
102
{ACAD_REACTORS
330
2A
102
}
102
{ACAD_XDICTIONARY
360
A6
102
}
330
2A
100
AcDbVisualStyle
  2
Basic
 70
     7
 71
     1
 72
     0
 73
     1
 90
        0
 40
-0.6
 41
-30.0
 62
     5
 63
     7
421
 16777215
 74
     0
 91
        4
 64
     7
 65
   257
 75
     1
175
     1
 42
1.0
 92
        8
 66
     7
 43
1.0
 76
     1
 77
     6
 78
     2
 67
     7
 79
     5
170
     0
171
     0
290
     0
174
     0
 93
        1
 44
0.0
173
     0
291
     1
 45
0.0
  0
VISUALSTYLE
  5
36
102
{ACAD_REACTORS
330
2A
102
}
102
{ACAD_XDICTIONARY
360
AE
102
}
330
2A
100
AcDbVisualStyle
  2
Brighten
 70
    12
 71
     2
 72
     2
 73
     0
 90
        0
 40
-0.6
 41
-30.0
 62
     5
 63
     7
421
 16777215
 74
     1
 91
        4
 64
     7
 65
   257
 75
     1
175
     1
 42
1.0
 92
        8
 66
     7
 43
1.0
 76
     1
 77
     6
 78
     2
 67
     7
 79
     5
170
     0
171
     0
290
     0
174
     0
 93
        1
 44
50.0
173
     0
291
     1
 45
0.0
  0
VISUALSTYLE
  5
3A
102
{ACAD_REACTORS
330
2A
102
}
102
{ACAD_XDICTIONARY
360
B6
102
}
330
2A
100
AcDbVisualStyle
  2
ColorChange
 70
    16
 71
     2
 72
     2
 73
     3
 90
        0
 40
-0.6
 41
-30.0
 62
     5
 63
     8
421
  8421504
 74
     1
 91
        4
 64
     7
 65
   257
 75
     1
175
     1
 42
1.0
 92
        8
 66
     8
424
  8421504
 43
1.0
 76
     1
 77
     6
 78
     2
 67
     7
 79
     5
170
     0
171
     0
290
     0
174
     0
 93
        1
 44
0.0
173
     0
291
     1
 45
0.0
  0
VISUALSTYLE
  5
34
102
{ACAD_REACTORS
330
2A
102
}
102
{ACAD_XDICTIONARY
360
AA
102
}
330
2A
100
AcDbVisualStyle
  2
Conceptual
 70
     9
 71
     3
 72
     2
 73
     0
 90
        0
 40
-0.6
 41
-30.0
 62
     5
 63
     7
421
 16777215
 74
     2
 91
        2
 64
     7
 65
   257
 75
     1
175
     1
 42
40.0
 92
        8
 66
     7
 43
1.0
 76
     1
 77
     6
 78
     2
 67
     7
 79
     3
170
     0
171
     0
290
     0
174
     0
 93
        1
 44
0.0
173
     0
291
     0
 45
0.0
  0
VISUALSTYLE
  5
35
102
{ACAD_REACTORS
330
2A
102
}
102
{ACAD_XDICTIONARY
360
AC
102
}
330
2A
100
AcDbVisualStyle
  2
Dim
 70
    11
 71
     2
 72
     2
 73
     0
 90
        0
 40
-0.6
 41
-30.0
 62
     5
 63
     7
421
 16777215
 74
     1
 91
        4
 64
     7
 65
   257
 75
     1
175
     1
 42
1.0
 92
        8
 66
     7
 43
1.0
 76
     1
 77
     6
 78
     2
 67
     7
 79
     5
170
     0
171
     0
290
     0
174
     0
 93
        1
 44
-50.0
173
     0
291
     1
 45
0.0
  0
VISUALSTYLE
  5
39
102
{ACAD_REACTORS
330
2A
102
}
102
{ACAD_XDICTIONARY
360
B4
102
}
330
2A
100
AcDbVisualStyle
  2
Facepattern
 70
    15
 71
     2
 72
     2
 73
     0
 90
        0
 40
-0.6
 41
-30.0
 62
     5
 63
     7
421
 16777215
 74
     1
 91
        4
 64
     7
 65
   257
 75
     1
175
     1
 42
1.0
 92
        8
 66
     7
 43
1.0
 76
     1
 77
     6
 78
     2
 67
     7
 79
     5
170
     0
171
     0
290
     0
174
     0
 93
        1
 44
0.0
173
     0
291
     1
 45
0.0
  0
VISUALSTYLE
  5
2B
102
{ACAD_REACTORS
330
2A
102
}
102
{ACAD_XDICTIONARY
360
98
102
}
330
2A
100
AcDbVisualStyle
  2
Flat
 70
     0
 71
     2
 72
     1
 73
     1
 90
        2
 40
-0.6
 41
30.0
 62
     5
 63
     7
421
 16777215
 74
     0
 91
        4
 64
     7
 65
   257
 75
     1
175
     1
 42
1.0
 92
        8
 66
     7
 43
1.0
 76
     1
 77
     6
 78
     2
 67
     7
 79
     5
170
     0
171
     0
290
     0
174
     0
 93
       13
 44
0.0
173
     0
291
     1
 45
0.0
  0
VISUALSTYLE
  5
2C
102
{ACAD_REACTORS
330
2A
102
}
102
{ACAD_XDICTIONARY
360
9A
102
}
330
2A
100
AcDbVisualStyle
  2
FlatWithEdges
 70
     1
 71
     2
 72
     1
 73
     1
 90
        2
 40
-0.6
 41
30.0
 62
     5
 63
     7
421
 16777215
 74
     1
 91
        4
 64
     7
 65
   257
 75
     1
175
     1
 42
1.0
 92
        0
 66
   257
 43
1.0
 76
     1
 77
     6
 78
     2
 67
     7
 79
     5
170
     0
171
     0
290
     0
174
     0
 93
       13
 44
0.0
173
     0
291
     1
 45
0.0
  0
VISUALSTYLE
  5
2D
102
{ACAD_REACTORS
330
2A
102
}
102
{ACAD_XDICTIONARY
360
9C
102
}
330
2A
100
AcDbVisualStyle
  2
Gouraud
 70
     2
 71
     2
 72
     2
 73
     1
 90
        2
 40
-0.6
 41
30.0
 62
     5
 63
     7
421
 16777215
 74
     0
 91
        4
 64
     7
 65
   257
 75
     1
175
     1
 42
1.0
 92
        0
 66
     7
 43
1.0
 76
     1
 77
     6
 78
     2
 67
     7
 79
     5
170
     0
171
     0
290
     0
174
     0
 93
       13
 44
0.0
173
     0
291
     1
 45
0.0
  0
VISUALSTYLE
  5
2E
102
{ACAD_REACTORS
330
2A
102
}
102
{ACAD_XDICTIONARY
360
9E
102
}
330
2A
100
AcDbVisualStyle
  2
GouraudWithEdges
 70
     3
 71
     2
 72
     2
 73
     1
 90
        2
 40
-0.6
 41
30.0
 62
     5
 63
     7
421
 16777215
 74
     1
 91
        4
 64
     7
 65
   257
 75
     1
175
     1
 42
1.0
 92
        0
 66
   257
 43
1.0
 76
     1
 77
     6
 78
     2
 67
     7
 79
     5
170
     0
171
     0
290
     0
174
     0
 93
       13
 44
0.0
173
     0
291
     1
 45
0.0
  0
VISUALSTYLE
  5
38
102
{ACAD_REACTORS
330
2A
102
}
102
{ACAD_XDICTIONARY
360
B2
102
}
330
2A
100
AcDbVisualStyle
  2
Linepattern
 70
    14
 71
     2
 72
     2
 73
     0
 90
        0
 40
-0.6
 41
-30.0
 62
     5
 63
     7
421
 16777215
 74
     1
 91
        4
 64
     7
 65
   257
 75
     7
175
     7
 42
1.0
 92
        8
 66
     7
 43
1.0
 76
     1
 77
     6
 78
     2
 67
     7
 79
     5
170
     0
171
     0
290
     0
174
     0
 93
        1
 44
0.0
173
     0
291
     1
 45
0.0
  0
VISUALSTYLE
  5
33
102
{ACAD_REACTORS
330
2A
102
}
102
{ACAD_XDICTIONARY
360
A8
102
}
330
2A
100
AcDbVisualStyle
  2
Realistic
 70
     8
 71
     2
 72
     2
 73
     0
 90
        0
 40
-0.6
 41
-30.0
 62
     5
 63
     7
421
 16777215
 74
     1
 91
        0
 64
     7
 65
   257
 75
     1
175
     1
 42
1.0
 92
        8
 66
     8
424
  7895160
 43
1.0
 76
     1
 77
     6
 78
     2
 67
     7
 79
     5
170
     0
171
     0
290
     0
174
     0
 93
       13
 44
0.0
173
     0
291
     0
 45
0.0
  0
VISUALSTYLE
  5
37
102
{ACAD_REACTORS
330
2A
102
}
102
{ACAD_XDICTIONARY
360
B0
102
}
330
2A
100
AcDbVisualStyle
  2
Thicken
 70
    13
 71
     2
 72
     2
 73
     0
 90
        0
 40
-0.6
 41
-30.0
 62
     5
 63
     7
421
 16777215
 74
     1
 91
        4
 64
     7
 65
   257
 75
     1
175
     1
 42
1.0
 92
       12
 66
     7
 43
1.0
 76
     1
 77
     6
 78
     2
 67
     7
 79
     5
170
     0
171
     0
290
     0
174
     0
 93
        1
 44
0.0
173
     0
291
     1
 45
0.0
  0
DICTIONARY
  5
A0
330
2F
100
AcDbDictionary
280
     1
281
     1
  3
ACAD_XREC_ROUNDTRIP
360
A1
  0
DICTIONARY
  5
A4
330
31
100
AcDbDictionary
280
     1
281
     1
  3
ACAD_XREC_ROUNDTRIP
360
A5
  0
DICTIONARY
  5
A2
330
30
100
AcDbDictionary
280
     1
281
     1
  3
ACAD_XREC_ROUNDTRIP
360
A3
  0
DICTIONARY
  5
A6
330
32
100
AcDbDictionary
280
     1
281
     1
  3
ACAD_XREC_ROUNDTRIP
360
A7
  0
DICTIONARY
  5
AE
330
36
100
AcDbDictionary
280
     1
281
     1
  3
ACAD_XREC_ROUNDTRIP
360
AF
  0
DICTIONARY
  5
B6
330
3A
100
AcDbDictionary
280
     1
281
     1
  3
ACAD_XREC_ROUNDTRIP
360
B7
  0
DICTIONARY
  5
AA
330
34
100
AcDbDictionary
280
     1
281
     1
  3
ACAD_XREC_ROUNDTRIP
360
AB
  0
DICTIONARY
  5
AC
330
35
100
AcDbDictionary
280
     1
281
     1
  3
ACAD_XREC_ROUNDTRIP
360
AD
  0
DICTIONARY
  5
B4
330
39
100
AcDbDictionary
280
     1
281
     1
  3
ACAD_XREC_ROUNDTRIP
360
B5
  0
DICTIONARY
  5
98
330
2B
100
AcDbDictionary
280
     1
281
     1
  3
ACAD_XREC_ROUNDTRIP
360
99
  0
DICTIONARY
  5
9A
330
2C
100
AcDbDictionary
280
     1
281
     1
  3
ACAD_XREC_ROUNDTRIP
360
9B
  0
DICTIONARY
  5
9C
330
2D
100
AcDbDictionary
280
     1
281
     1
  3
ACAD_XREC_ROUNDTRIP
360
9D
  0
DICTIONARY
  5
9E
330
2E
100
AcDbDictionary
280
     1
281
     1
  3
ACAD_XREC_ROUNDTRIP
360
9F
  0
DICTIONARY
  5
B2
330
38
100
AcDbDictionary
280
     1
281
     1
  3
ACAD_XREC_ROUNDTRIP
360
B3
  0
DICTIONARY
  5
A8
330
33
100
AcDbDictionary
280
     1
281
     1
  3
ACAD_XREC_ROUNDTRIP
360
A9
  0
DICTIONARY
  5
B0
330
37
100
AcDbDictionary
280
     1
281
     1
  3
ACAD_XREC_ROUNDTRIP
360
B1
  0
XRECORD
  5
A1
102
{ACAD_REACTORS
330
A0
102
}
330
A0
100
AcDbXrecord
280
     1
102
RTVSPropertyOp0
 70
     1
102
RTVSPropertyOp1
 70
     1
102
RTVSPropertyOp2
 70
     1
102
RTVSPropertyOp3
 70
     1
102
RTVSPropertyOp4
 70
     1
102
RTVSPropertyOp5
 70
     1
102
RTVSPropertyOp6
 70
     1
102
RTVSPropertyOp7
 70
     1
102
RTVSPropertyOp8
 70
     1
102
RTVSPropertyOp9
 70
     1
102
RTVSPropertyOp10
 70
     1
102
RTVSPropertyOp11
 70
     1
102
RTVSPropertyOp12
 70
     1
102
RTVSPropertyOp13
 70
     1
102
RTVSPropertyOp14
 70
     1
102
RTVSPropertyOp15
 70
     1
102
RTVSPropertyOp16
 70
     1
102
RTVSPropertyOp17
 70
     1
102
RTVSPropertyOp18
 70
     1
102
RTVSPropertyOp19
 70
     1
102
RTVSPropertyOp20
 70
     1
102
RTVSPropertyOp21
 70
     1
102
RTVSPropertyOp22
 70
     1
102
RTVSPropertyOp23
 70
     1
102
RTVSPropertyOp24
 70
     1
102
RTVSPropertyOp25
 70
     1
102
RTVSPropertyOp26
 70
     1
102
RTVSPropertyOp27
 70
     1
102
RTVSPropertyOp28
 70
     1
102
RTVSPropertyOp29
 70
     1
102
RTVSPropertyOp30
 70
     1
102
RTVSPropertyOp31
 70
     1
102
RTVSPropertyOp32
 70
     1
  0
XRECORD
  5
A5
102
{ACAD_REACTORS
330
A4
102
}
330
A4
100
AcDbXrecord
280
     1
102
RTVSPropertyOp0
 70
     1
102
RTVSPropertyOp1
 70
     1
102
RTVSPropertyOp2
 70
     1
102
RTVSPropertyOp3
 70
     1
102
RTVSPropertyOp4
 70
     1
102
RTVSPropertyOp5
 70
     1
102
RTVSPropertyOp6
 70
     1
102
RTVSPropertyOp7
 70
     1
102
RTVSPropertyOp8
 70
     1
102
RTVSPropertyOp9
 70
     1
102
RTVSPropertyOp10
 70
     1
102
RTVSPropertyOp11
 70
     1
102
RTVSPropertyOp12
 70
     1
102
RTVSPropertyOp13
 70
     1
102
RTVSPropertyOp14
 70
     1
102
RTVSPropertyOp15
 70
     1
102
RTVSPropertyOp16
 70
     1
102
RTVSPropertyOp17
 70
     1
102
RTVSPropertyOp18
 70
     1
102
RTVSPropertyOp19
 70
     1
102
RTVSPropertyOp20
 70
     1
102
RTVSPropertyOp21
 70
     1
102
RTVSPropertyOp22
 70
     1
102
RTVSPropertyOp23
 70
     1
102
RTVSPropertyOp24
 70
     1
102
RTVSPropertyOp25
 70
     1
102
RTVSPropertyOp26
 70
     1
102
RTVSPropertyOp27
 70
     1
102
RTVSPropertyOp28
 70
     1
102
RTVSPropertyOp29
 70
     1
102
RTVSPropertyOp30
 70
     1
102
RTVSPropertyOp31
 70
     1
102
RTVSPropertyOp32
 70
     1
  0
XRECORD
  5
A3
102
{ACAD_REACTORS
330
A2
102
}
330
A2
100
AcDbXrecord
280
     1
102
RTVSPropertyOp0
 70
     1
102
RTVSPropertyOp1
 70
     1
102
RTVSPropertyOp2
 70
     1
102
RTVSPropertyOp3
 70
     1
102
RTVSPropertyOp4
 70
     1
102
RTVSPropertyOp5
 70
     1
102
RTVSPropertyOp6
 70
     1
102
RTVSPropertyOp7
 70
     1
102
RTVSPropertyOp8
 70
     1
102
RTVSPropertyOp9
 70
     1
102
RTVSPropertyOp10
 70
     1
102
RTVSPropertyOp11
 70
     1
102
RTVSPropertyOp12
 70
     1
102
RTVSPropertyOp13
 70
     1
102
RTVSPropertyOp14
 70
     1
102
RTVSPropertyOp15
 70
     1
102
RTVSPropertyOp16
 70
     1
102
RTVSPropertyOp17
 70
     1
102
RTVSPropertyOp18
 70
     1
102
RTVSPropertyOp19
 70
     1
102
RTVSPropertyOp20
 70
     1
102
RTVSPropertyOp21
 70
     1
102
RTVSPropertyOp22
 70
     1
102
RTVSPropertyOp23
 70
     1
102
RTVSPropertyOp24
 70
     1
102
RTVSPropertyOp25
 70
     1
102
RTVSPropertyOp26
 70
     1
102
RTVSPropertyOp27
 70
     1
102
RTVSPropertyOp28
 70
     1
102
RTVSPropertyOp29
 70
     1
102
RTVSPropertyOp30
 70
     1
102
RTVSPropertyOp31
 70
     1
102
RTVSPropertyOp32
 70
     1
  0
XRECORD
  5
A7
102
{ACAD_REACTORS
330
A6
102
}
330
A6
100
AcDbXrecord
280
     1
102
RTVSPropertyOp0
 70
     1
102
RTVSPropertyOp1
 70
     1
102
RTVSPropertyOp2
 70
     1
102
RTVSPropertyOp3
 70
     1
102
RTVSPropertyOp4
 70
     1
102
RTVSPropertyOp5
 70
     1
102
RTVSPropertyOp6
 70
     1
102
RTVSPropertyOp7
 70
     1
102
RTVSPropertyOp8
 70
     1
102
RTVSPropertyOp9
 70
     1
102
RTVSPropertyOp10
 70
     1
102
RTVSPropertyOp11
 70
     1
102
RTVSPropertyOp12
 70
     1
102
RTVSPropertyOp13
 70
     1
102
RTVSPropertyOp14
 70
     1
102
RTVSPropertyOp15
 70
     1
102
RTVSPropertyOp16
 70
     1
102
RTVSPropertyOp17
 70
     1
102
RTVSPropertyOp18
 70
     1
102
RTVSPropertyOp19
 70
     1
102
RTVSPropertyOp20
 70
     1
102
RTVSPropertyOp21
 70
     1
102
RTVSPropertyOp22
 70
     1
102
RTVSPropertyOp23
 70
     1
102
RTVSPropertyOp24
 70
     1
102
RTVSPropertyOp25
 70
     1
102
RTVSPropertyOp26
 70
     1
102
RTVSPropertyOp27
 70
     1
102
RTVSPropertyOp28
 70
     1
102
RTVSPropertyOp29
 70
     1
102
RTVSPropertyOp30
 70
     1
102
RTVSPropertyOp31
 70
     1
102
RTVSPropertyOp32
 70
     1
  0
XRECORD
  5
AF
102
{ACAD_REACTORS
330
AE
102
}
330
AE
100
AcDbXrecord
280
     1
102
RTVSPropertyOp0
 70
     1
102
RTVSPropertyOp1
 70
     1
102
RTVSPropertyOp2
 70
     1
102
RTVSPropertyOp3
 70
     1
102
RTVSPropertyOp4
 70
     1
102
RTVSPropertyOp5
 70
     1
102
RTVSPropertyOp6
 70
     1
102
RTVSPropertyOp7
 70
     1
102
RTVSPropertyOp8
 70
     1
102
RTVSPropertyOp9
 70
     1
102
RTVSPropertyOp10
 70
     1
102
RTVSPropertyOp11
 70
     1
102
RTVSPropertyOp12
 70
     1
102
RTVSPropertyOp13
 70
     1
102
RTVSPropertyOp14
 70
     1
102
RTVSPropertyOp15
 70
     1
102
RTVSPropertyOp16
 70
     1
102
RTVSPropertyOp17
 70
     1
102
RTVSPropertyOp18
 70
     1
102
RTVSPropertyOp19
 70
     1
102
RTVSPropertyOp20
 70
     1
102
RTVSPropertyOp21
 70
     1
102
RTVSPropertyOp22
 70
     1
102
RTVSPropertyOp23
 70
     1
102
RTVSPropertyOp24
 70
     1
102
RTVSPropertyOp25
 70
     1
102
RTVSPropertyOp26
 70
     1
102
RTVSPropertyOp27
 70
     1
102
RTVSPropertyOp28
 70
     1
102
RTVSPropertyOp29
 70
     1
102
RTVSPropertyOp30
 70
     1
102
RTVSPropertyOp31
 70
     1
102
RTVSPropertyOp32
 70
     1
  0
XRECORD
  5
B7
102
{ACAD_REACTORS
330
B6
102
}
330
B6
100
AcDbXrecord
280
     1
102
RTVSPropertyOp0
 70
     1
102
RTVSPropertyOp1
 70
     1
102
RTVSPropertyOp2
 70
     1
102
RTVSPropertyOp3
 70
     1
102
RTVSPropertyOp4
 70
     1
102
RTVSPropertyOp5
 70
     1
102
RTVSPropertyOp6
 70
     1
102
RTVSPropertyOp7
 70
     1
102
RTVSPropertyOp8
 70
     1
102
RTVSPropertyOp9
 70
     1
102
RTVSPropertyOp10
 70
     1
102
RTVSPropertyOp11
 70
     1
102
RTVSPropertyOp12
 70
     1
102
RTVSPropertyOp13
 70
     1
102
RTVSPropertyOp14
 70
     1
102
RTVSPropertyOp15
 70
     1
102
RTVSPropertyOp16
 70
     1
102
RTVSPropertyOp17
 70
     1
102
RTVSPropertyOp18
 70
     1
102
RTVSPropertyOp19
 70
     1
102
RTVSPropertyOp20
 70
     1
102
RTVSPropertyOp21
 70
     1
102
RTVSPropertyOp22
 70
     1
102
RTVSPropertyOp23
 70
     1
102
RTVSPropertyOp24
 70
     1
102
RTVSPropertyOp25
 70
     1
102
RTVSPropertyOp26
 70
     1
102
RTVSPropertyOp27
 70
     1
102
RTVSPropertyOp28
 70
     1
102
RTVSPropertyOp29
 70
     1
102
RTVSPropertyOp30
 70
     1
102
RTVSPropertyOp31
 70
     1
102
RTVSPropertyOp32
 70
     1
  0
XRECORD
  5
AB
102
{ACAD_REACTORS
330
AA
102
}
330
AA
100
AcDbXrecord
280
     1
102
RTVSPropertyOp0
 70
     1
102
RTVSPropertyOp1
 70
     1
102
RTVSPropertyOp2
 70
     1
102
RTVSPropertyOp3
 70
     1
102
RTVSPropertyOp4
 70
     1
102
RTVSPropertyOp5
 70
     1
102
RTVSPropertyOp6
 70
     1
102
RTVSPropertyOp7
 70
     1
102
RTVSPropertyOp8
 70
     1
102
RTVSPropertyOp9
 70
     1
102
RTVSPropertyOp10
 70
     1
102
RTVSPropertyOp11
 70
     1
102
RTVSPropertyOp12
 70
     1
102
RTVSPropertyOp13
 70
     1
102
RTVSPropertyOp14
 70
     1
102
RTVSPropertyOp15
 70
     1
102
RTVSPropertyOp16
 70
     1
102
RTVSPropertyOp17
 70
     1
102
RTVSPropertyOp18
 70
     1
102
RTVSPropertyOp19
 70
     1
102
RTVSPropertyOp20
 70
     1
102
RTVSPropertyOp21
 70
     1
102
RTVSPropertyOp22
 70
     1
102
RTVSPropertyOp23
 70
     1
102
RTVSPropertyOp24
 70
     1
102
RTVSPropertyOp25
 70
     1
102
RTVSPropertyOp26
 70
     1
102
RTVSPropertyOp27
 70
     1
102
RTVSPropertyOp28
 70
     1
102
RTVSPropertyOp29
 70
     1
102
RTVSPropertyOp30
 70
     1
102
RTVSPropertyOp31
 70
     1
102
RTVSPropertyOp32
 70
     1
  0
XRECORD
  5
AD
102
{ACAD_REACTORS
330
AC
102
}
330
AC
100
AcDbXrecord
280
     1
102
RTVSPropertyOp0
 70
     1
102
RTVSPropertyOp1
 70
     1
102
RTVSPropertyOp2
 70
     1
102
RTVSPropertyOp3
 70
     1
102
RTVSPropertyOp4
 70
     1
102
RTVSPropertyOp5
 70
     1
102
RTVSPropertyOp6
 70
     1
102
RTVSPropertyOp7
 70
     1
102
RTVSPropertyOp8
 70
     1
102
RTVSPropertyOp9
 70
     1
102
RTVSPropertyOp10
 70
     1
102
RTVSPropertyOp11
 70
     1
102
RTVSPropertyOp12
 70
     1
102
RTVSPropertyOp13
 70
     1
102
RTVSPropertyOp14
 70
     1
102
RTVSPropertyOp15
 70
     1
102
RTVSPropertyOp16
 70
     1
102
RTVSPropertyOp17
 70
     1
102
RTVSPropertyOp18
 70
     1
102
RTVSPropertyOp19
 70
     1
102
RTVSPropertyOp20
 70
     1
102
RTVSPropertyOp21
 70
     1
102
RTVSPropertyOp22
 70
     1
102
RTVSPropertyOp23
 70
     1
102
RTVSPropertyOp24
 70
     1
102
RTVSPropertyOp25
 70
     1
102
RTVSPropertyOp26
 70
     1
102
RTVSPropertyOp27
 70
     1
102
RTVSPropertyOp28
 70
     1
102
RTVSPropertyOp29
 70
     1
102
RTVSPropertyOp30
 70
     1
102
RTVSPropertyOp31
 70
     1
102
RTVSPropertyOp32
 70
     1
  0
XRECORD
  5
B5
102
{ACAD_REACTORS
330
B4
102
}
330
B4
100
AcDbXrecord
280
     1
102
RTVSPropertyOp0
 70
     1
102
RTVSPropertyOp1
 70
     1
102
RTVSPropertyOp2
 70
     1
102
RTVSPropertyOp3
 70
     1
102
RTVSPropertyOp4
 70
     1
102
RTVSPropertyOp5
 70
     1
102
RTVSPropertyOp6
 70
     1
102
RTVSPropertyOp7
 70
     1
102
RTVSPropertyOp8
 70
     1
102
RTVSPropertyOp9
 70
     1
102
RTVSPropertyOp10
 70
     1
102
RTVSPropertyOp11
 70
     1
102
RTVSPropertyOp12
 70
     1
102
RTVSPropertyOp13
 70
     1
102
RTVSPropertyOp14
 70
     1
102
RTVSPropertyOp15
 70
     1
102
RTVSPropertyOp16
 70
     1
102
RTVSPropertyOp17
 70
     1
102
RTVSPropertyOp18
 70
     1
102
RTVSPropertyOp19
 70
     1
102
RTVSPropertyOp20
 70
     1
102
RTVSPropertyOp21
 70
     1
102
RTVSPropertyOp22
 70
     1
102
RTVSPropertyOp23
 70
     1
102
RTVSPropertyOp24
 70
     1
102
RTVSPropertyOp25
 70
     1
102
RTVSPropertyOp26
 70
     1
102
RTVSPropertyOp27
 70
     1
102
RTVSPropertyOp28
 70
     1
102
RTVSPropertyOp29
 70
     1
102
RTVSPropertyOp30
 70
     1
102
RTVSPropertyOp31
 70
     1
102
RTVSPropertyOp32
 70
     1
  0
XRECORD
  5
99
102
{ACAD_REACTORS
330
98
102
}
330
98
100
AcDbXrecord
280
     1
102
RTVSPropertyOp0
 70
     1
102
RTVSPropertyOp1
 70
     1
102
RTVSPropertyOp2
 70
     1
102
RTVSPropertyOp3
 70
     1
102
RTVSPropertyOp4
 70
     1
102
RTVSPropertyOp5
 70
     1
102
RTVSPropertyOp6
 70
     1
102
RTVSPropertyOp7
 70
     1
102
RTVSPropertyOp8
 70
     1
102
RTVSPropertyOp9
 70
     1
102
RTVSPropertyOp10
 70
     1
102
RTVSPropertyOp11
 70
     1
102
RTVSPropertyOp12
 70
     1
102
RTVSPropertyOp13
 70
     1
102
RTVSPropertyOp14
 70
     1
102
RTVSPropertyOp15
 70
     1
102
RTVSPropertyOp16
 70
     1
102
RTVSPropertyOp17
 70
     1
102
RTVSPropertyOp18
 70
     1
102
RTVSPropertyOp19
 70
     1
102
RTVSPropertyOp20
 70
     1
102
RTVSPropertyOp21
 70
     1
102
RTVSPropertyOp22
 70
     1
102
RTVSPropertyOp23
 70
     1
102
RTVSPropertyOp24
 70
     1
102
RTVSPropertyOp25
 70
     1
102
RTVSPropertyOp26
 70
     1
102
RTVSPropertyOp27
 70
     1
102
RTVSPropertyOp28
 70
     1
102
RTVSPropertyOp29
 70
     1
102
RTVSPropertyOp30
 70
     1
102
RTVSPropertyOp31
 70
     1
102
RTVSPropertyOp32
 70
     1
  0
XRECORD
  5
9B
102
{ACAD_REACTORS
330
9A
102
}
330
9A
100
AcDbXrecord
280
     1
102
RTVSPropertyOp0
 70
     1
102
RTVSPropertyOp1
 70
     1
102
RTVSPropertyOp2
 70
     1
102
RTVSPropertyOp3
 70
     1
102
RTVSPropertyOp4
 70
     1
102
RTVSPropertyOp5
 70
     1
102
RTVSPropertyOp6
 70
     1
102
RTVSPropertyOp7
 70
     1
102
RTVSPropertyOp8
 70
     1
102
RTVSPropertyOp9
 70
     1
102
RTVSPropertyOp10
 70
     1
102
RTVSPropertyOp11
 70
     1
102
RTVSPropertyOp12
 70
     1
102
RTVSPropertyOp13
 70
     1
102
RTVSPropertyOp14
 70
     1
102
RTVSPropertyOp15
 70
     1
102
RTVSPropertyOp16
 70
     1
102
RTVSPropertyOp17
 70
     1
102
RTVSPropertyOp18
 70
     1
102
RTVSPropertyOp19
 70
     1
102
RTVSPropertyOp20
 70
     1
102
RTVSPropertyOp21
 70
     1
102
RTVSPropertyOp22
 70
     1
102
RTVSPropertyOp23
 70
     1
102
RTVSPropertyOp24
 70
     1
102
RTVSPropertyOp25
 70
     1
102
RTVSPropertyOp26
 70
     1
102
RTVSPropertyOp27
 70
     1
102
RTVSPropertyOp28
 70
     1
102
RTVSPropertyOp29
 70
     1
102
RTVSPropertyOp30
 70
     1
102
RTVSPropertyOp31
 70
     1
102
RTVSPropertyOp32
 70
     1
  0
XRECORD
  5
9D
102
{ACAD_REACTORS
330
9C
102
}
330
9C
100
AcDbXrecord
280
     1
102
RTVSPropertyOp0
 70
     1
102
RTVSPropertyOp1
 70
     1
102
RTVSPropertyOp2
 70
     1
102
RTVSPropertyOp3
 70
     1
102
RTVSPropertyOp4
 70
     1
102
RTVSPropertyOp5
 70
     1
102
RTVSPropertyOp6
 70
     1
102
RTVSPropertyOp7
 70
     1
102
RTVSPropertyOp8
 70
     1
102
RTVSPropertyOp9
 70
     1
102
RTVSPropertyOp10
 70
     1
102
RTVSPropertyOp11
 70
     1
102
RTVSPropertyOp12
 70
     1
102
RTVSPropertyOp13
 70
     1
102
RTVSPropertyOp14
 70
     1
102
RTVSPropertyOp15
 70
     1
102
RTVSPropertyOp16
 70
     1
102
RTVSPropertyOp17
 70
     1
102
RTVSPropertyOp18
 70
     1
102
RTVSPropertyOp19
 70
     1
102
RTVSPropertyOp20
 70
     1
102
RTVSPropertyOp21
 70
     1
102
RTVSPropertyOp22
 70
     1
102
RTVSPropertyOp23
 70
     1
102
RTVSPropertyOp24
 70
     1
102
RTVSPropertyOp25
 70
     1
102
RTVSPropertyOp26
 70
     1
102
RTVSPropertyOp27
 70
     1
102
RTVSPropertyOp28
 70
     1
102
RTVSPropertyOp29
 70
     1
102
RTVSPropertyOp30
 70
     1
102
RTVSPropertyOp31
 70
     1
102
RTVSPropertyOp32
 70
     1
  0
XRECORD
  5
9F
102
{ACAD_REACTORS
330
9E
102
}
330
9E
100
AcDbXrecord
280
     1
102
RTVSPropertyOp0
 70
     1
102
RTVSPropertyOp1
 70
     1
102
RTVSPropertyOp2
 70
     1
102
RTVSPropertyOp3
 70
     1
102
RTVSPropertyOp4
 70
     1
102
RTVSPropertyOp5
 70
     1
102
RTVSPropertyOp6
 70
     1
102
RTVSPropertyOp7
 70
     1
102
RTVSPropertyOp8
 70
     1
102
RTVSPropertyOp9
 70
     1
102
RTVSPropertyOp10
 70
     1
102
RTVSPropertyOp11
 70
     1
102
RTVSPropertyOp12
 70
     1
102
RTVSPropertyOp13
 70
     1
102
RTVSPropertyOp14
 70
     1
102
RTVSPropertyOp15
 70
     1
102
RTVSPropertyOp16
 70
     1
102
RTVSPropertyOp17
 70
     1
102
RTVSPropertyOp18
 70
     1
102
RTVSPropertyOp19
 70
     1
102
RTVSPropertyOp20
 70
     1
102
RTVSPropertyOp21
 70
     1
102
RTVSPropertyOp22
 70
     1
102
RTVSPropertyOp23
 70
     1
102
RTVSPropertyOp24
 70
     1
102
RTVSPropertyOp25
 70
     1
102
RTVSPropertyOp26
 70
     1
102
RTVSPropertyOp27
 70
     1
102
RTVSPropertyOp28
 70
     1
102
RTVSPropertyOp29
 70
     1
102
RTVSPropertyOp30
 70
     1
102
RTVSPropertyOp31
 70
     1
102
RTVSPropertyOp32
 70
     1
  0
XRECORD
  5
B3
102
{ACAD_REACTORS
330
B2
102
}
330
B2
100
AcDbXrecord
280
     1
102
RTVSPropertyOp0
 70
     1
102
RTVSPropertyOp1
 70
     1
102
RTVSPropertyOp2
 70
     1
102
RTVSPropertyOp3
 70
     1
102
RTVSPropertyOp4
 70
     1
102
RTVSPropertyOp5
 70
     1
102
RTVSPropertyOp6
 70
     1
102
RTVSPropertyOp7
 70
     1
102
RTVSPropertyOp8
 70
     1
102
RTVSPropertyOp9
 70
     1
102
RTVSPropertyOp10
 70
     1
102
RTVSPropertyOp11
 70
     1
102
RTVSPropertyOp12
 70
     1
102
RTVSPropertyOp13
 70
     1
102
RTVSPropertyOp14
 70
     1
102
RTVSPropertyOp15
 70
     1
102
RTVSPropertyOp16
 70
     1
102
RTVSPropertyOp17
 70
     1
102
RTVSPropertyOp18
 70
     1
102
RTVSPropertyOp19
 70
     1
102
RTVSPropertyOp20
 70
     1
102
RTVSPropertyOp21
 70
     1
102
RTVSPropertyOp22
 70
     1
102
RTVSPropertyOp23
 70
     1
102
RTVSPropertyOp24
 70
     1
102
RTVSPropertyOp25
 70
     1
102
RTVSPropertyOp26
 70
     1
102
RTVSPropertyOp27
 70
     1
102
RTVSPropertyOp28
 70
     1
102
RTVSPropertyOp29
 70
     1
102
RTVSPropertyOp30
 70
     1
102
RTVSPropertyOp31
 70
     1
102
RTVSPropertyOp32
 70
     1
  0
XRECORD
  5
A9
102
{ACAD_REACTORS
330
A8
102
}
330
A8
100
AcDbXrecord
280
     1
102
RTVSPropertyOp0
 70
     1
102
RTVSPropertyOp1
 70
     1
102
RTVSPropertyOp2
 70
     1
102
RTVSPropertyOp3
 70
     1
102
RTVSPropertyOp4
 70
     1
102
RTVSPropertyOp5
 70
     1
102
RTVSPropertyOp6
 70
     1
102
RTVSPropertyOp7
 70
     1
102
RTVSPropertyOp8
 70
     1
102
RTVSPropertyOp9
 70
     1
102
RTVSPropertyOp10
 70
     1
102
RTVSPropertyOp11
 70
     1
102
RTVSPropertyOp12
 70
     1
102
RTVSPropertyOp13
 70
     1
102
RTVSPropertyOp14
 70
     1
102
RTVSPropertyOp15
 70
     1
102
RTVSPropertyOp16
 70
     1
102
RTVSPropertyOp17
 70
     1
102
RTVSPropertyOp18
 70
     1
102
RTVSPropertyOp19
 70
     1
102
RTVSPropertyOp20
 70
     1
102
RTVSPropertyOp21
 70
     1
102
RTVSPropertyOp22
 70
     1
102
RTVSPropertyOp23
 70
     1
102
RTVSPropertyOp24
 70
     1
102
RTVSPropertyOp25
 70
     1
102
RTVSPropertyOp26
 70
     1
102
RTVSPropertyOp27
 70
     1
102
RTVSPropertyOp28
 70
     1
102
RTVSPropertyOp29
 70
     1
102
RTVSPropertyOp30
 70
     1
102
RTVSPropertyOp31
 70
     1
102
RTVSPropertyOp32
 70
     1
  0
XRECORD
  5
B1
102
{ACAD_REACTORS
330
B0
102
}
330
B0
100
AcDbXrecord
280
     1
102
RTVSPropertyOp0
 70
     1
102
RTVSPropertyOp1
 70
     1
102
RTVSPropertyOp2
 70
     1
102
RTVSPropertyOp3
 70
     1
102
RTVSPropertyOp4
 70
     1
102
RTVSPropertyOp5
 70
     1
102
RTVSPropertyOp6
 70
     1
102
RTVSPropertyOp7
 70
     1
102
RTVSPropertyOp8
 70
     1
102
RTVSPropertyOp9
 70
     1
102
RTVSPropertyOp10
 70
     1
102
RTVSPropertyOp11
 70
     1
102
RTVSPropertyOp12
 70
     1
102
RTVSPropertyOp13
 70
     1
102
RTVSPropertyOp14
 70
     1
102
RTVSPropertyOp15
 70
     1
102
RTVSPropertyOp16
 70
     1
102
RTVSPropertyOp17
 70
     1
102
RTVSPropertyOp18
 70
     1
102
RTVSPropertyOp19
 70
     1
102
RTVSPropertyOp20
 70
     1
102
RTVSPropertyOp21
 70
     1
102
RTVSPropertyOp22
 70
     1
102
RTVSPropertyOp23
 70
     1
102
RTVSPropertyOp24
 70
     1
102
RTVSPropertyOp25
 70
     1
102
RTVSPropertyOp26
 70
     1
102
RTVSPropertyOp27
 70
     1
102
RTVSPropertyOp28
 70
     1
102
RTVSPropertyOp29
 70
     1
102
RTVSPropertyOp30
 70
     1
102
RTVSPropertyOp31
 70
     1
102
RTVSPropertyOp32
 70
     1
  0
ENDSEC
  0
EOF
