  0
SECTION
  2
HEADER
  9
$ACADVER
  1
AC1021
  9
$ACADMAINTVER
 70
    25
  9
$DWGCODEPAGE
  3
ANSI_1252
  9
$INSBASE
 10
0.0
 20
0.0
 30
0.0
  9
$EXTMIN
 10
73.0113
 20
-106.7449
 30
0.0
  9
$EXTMAX
 10
196.5493
 20
116.1448
 30
0.0
  9
$LIMMIN
 10
0.0
 20
0.0
  9
$LIMMAX
 10
12.0
 20
9.0
  9
$ORTHOMODE
 70
     0
  9
$REGENMODE
 70
     1
  9
$FILLMODE
 70
     1
  9
$QTEXTMODE
 70
     0
  9
$MIRRTEXT
 70
     1
  9
$LTSCALE
 40
1.0
  9
$ATTMODE
 70
     1
  9
$TEXTSIZE
 40
0.2
  9
$TRACEWID
 40
0.05
  9
$TEXTSTYLE
  7
Standard
  9
$CLAYER
  8
0
  9
$CELTYPE
  6
ByLayer
  9
$CECOLOR
 62
   256
  9
$CELTSCALE
 40
1.0
  9
$DISPSILH
 70
     0
  9
$DIMSCALE
 40
1.0
  9
$DIMASZ
 40
0.18
  9
$DIMEXO
 40
0.0625
  9
$DIMDLI
 40
0.38
  9
$DIMRND
 40
0.0
  9
$DIMDLE
 40
0.0
  9
$DIMEXE
 40
0.18
  9
$DIMTP
 40
0.0
  9
$DIMTM
 40
0.0
  9
$DIMTXT
 40
0.18
  9
$DIMCEN
 40
0.09
  9
$DIMTSZ
 40
0.0
  9
$DIMTOL
 70
     0
  9
$DIMLIM
 70
     0
  9
$DIMTIH
 70
     1
  9
$DIMTOH
 70
     1
  9
$DIMSE1
 70
     0
  9
$DIMSE2
 70
     0
  9
$DIMTAD
 70
     0
  9
$DIMZIN
 70
     0
  9
$DIMBLK
  1

  9
$DIMASO
 70
     1
  9
$DIMSHO
 70
     1
  9
$DIMPOST
  1

  9
$DIMAPOST
  1

  9
$DIMALT
 70
     0
  9
$DIMALTD
 70
     2
  9
$DIMALTF
 40
25.4
  9
$DIMLFAC
 40
1.0
  9
$DIMTOFL
 70
     0
  9
$DIMTVP
 40
0.0
  9
$DIMTIX
 70
     0
  9
$DIMSOXD
 70
     0
  9
$DIMSAH
 70
     0
  9
$DIMBLK1
  1

  9
$DIMBLK2
  1

  9
$DIMSTYLE
  2
Standard
  9
$DIMCLRD
 70
     0
  9
$DIMCLRE
 70
     0
  9
$DIMCLRT
 70
     0
  9
$DIMTFAC
 40
1.0
  9
$DIMGAP
 40
0.09
  9
$DIMJUST
 70
     0
  9
$DIMSD1
 70
     0
  9
$DIMSD2
 70
     0
  9
$DIMTOLJ
 70
     1
  9
$DIMTZIN
 70
     0
  9
$DIMALTZ
 70
     0
  9
$DIMALTTZ
 70
     0
  9
$DIMUPT
 70
     0
  9
$DIMDEC
 70
     4
  9
$DIMTDEC
 70
     4
  9
$DIMALTU
 70
     2
  9
$DIMALTTD
 70
     2
  9
$DIMTXSTY
  7
Standard
  9
$DIMAUNIT
 70
     0
  9
$DIMADEC
 70
     0
  9
$DIMALTRND
 40
0.0
  9
$DIMAZIN
 70
     0
  9
$DIMDSEP
 70
    46
  9
$DIMATFIT
 70
     3
  9
$DIMFRAC
 70
     0
  9
$DIMLDRBLK
  1

  9
$DIMLUNIT
 70
     2
  9
$DIMLWD
 70
    -2
  9
$DIMLWE
 70
    -2
  9
$DIMTMOVE
 70
     0
  9
$DIMFXL
 40
1.0
  9
$DIMFXLON
 70
     0
  9
$DIMJOGANG
 40
0.7853981633974483
  9
$DIMTFILL
 70
     0
  9
$DIMTFILLCLR
 70
     0
  9
$DIMARCSYM
 70
     0
  9
$DIMLTYPE
  6

  9
$DIMLTEX1
  6

  9
$DIMLTEX2
  6

  9
$LUNITS
 70
     2
  9
$LUPREC
 70
     4
  9
$SKETCHINC
 40
0.1
  9
$FILLETRAD
 40
0.5
  9
$AUNITS
 70
     0
  9
$AUPREC
 70
     0
  9
$MENU
  1
.
  9
$ELEVATION
 40
0.0
  9
$PELEVATION
 40
0.0
  9
$THICKNESS
 40
0.0
  9
$LIMCHECK
 70
     0
  9
$CHAMFERA
 40
0.5
  9
$CHAMFERB
 40
0.5
  9
$CHAMFERC
 40
1.0
  9
$CHAMFERD
 40
0.0
  9
$SKPOLY
 70
     0
  9
$TDCREATE
 40
2458492.57990044
  9
$TDUCREATE
 40
2458492.57990044
  9
$TDUPDATE
 40
2458492.579900521
  9
$TDUUPDATE
 40
2458492.579900521
  9
$TDINDWG
 40
0.0000000116
  9
$TDUSRTIMER
 40
0.0000000116
  9
$USRTIMER
 70
     1
  9
$ANGBASE
 50
0.0
  9
$ANGDIR
 70
     0
  9
$PDMODE
 70
     0
  9
$PDSIZE
 40
0.0
  9
$PLINEWID
 40
0.0
  9
$SPLFRAME
 70
     0
  9
$SPLINETYPE
 70
     6
  9
$SPLINESEGS
 70
     8
  9
$HANDSEED
  5
A5
  9
$SURFTAB1
 70
     6
  9
$SURFTAB2
 70
     6
  9
$SURFTYPE
 70
     6
  9
$SURFU
 70
     6
  9
$SURFV
 70
     6
  9
$UCSBASE
  2

  9
$UCSNAME
  2

  9
$UCSORG
 10
0.0
 20
0.0
 30
0.0
  9
$UCSXDIR
 10
1.0
 20
0.0
 30
0.0
  9
$UCSYDIR
 10
0.0
 20
1.0
 30
0.0
  9
$UCSORTHOREF
  2

  9
$UCSORTHOVIEW
 70
     0
  9
$UCSORGTOP
 10
0.0
 20
0.0
 30
0.0
  9
$UCSORGBOTTOM
 10
0.0
 20
0.0
 30
0.0
  9
$UCSORGLEFT
 10
0.0
 20
0.0
 30
0.0
  9
$UCSORGRIGHT
 10
0.0
 20
0.0
 30
0.0
  9
$UCSORGFRONT
 10
0.0
 20
0.0
 30
0.0
  9
$UCSORGBACK
 10
0.0
 20
0.0
 30
0.0
  9
$PUCSBASE
  2

  9
$PUCSNAME
  2

  9
$PUCSORG
 10
0.0
 20
0.0
 30
0.0
  9
$PUCSXDIR
 10
1.0
 20
0.0
 30
0.0
  9
$PUCSYDIR
 10
0.0
 20
1.0
 30
0.0
  9
$PUCSORTHOREF
  2

  9
$PUCSORTHOVIEW
 70
     0
  9
$PUCSORGTOP
 10
0.0
 20
0.0
 30
0.0
  9
$PUCSORGBOTTOM
 10
0.0
 20
0.0
 30
0.0
  9
$PUCSORGLEFT
 10
0.0
 20
0.0
 30
0.0
  9
$PUCSORGRIGHT
 10
0.0
 20
0.0
 30
0.0
  9
$PUCSORGFRONT
 10
0.0
 20
0.0
 30
0.0
  9
$PUCSORGBACK
 10
0.0
 20
0.0
 30
0.0
  9
$USERI1
 70
     0
  9
$USERI2
 70
     0
  9
$USERI3
 70
     0
  9
$USERI4
 70
     0
  9
$USERI5
 70
     0
  9
$USERR1
 40
0.0
  9
$USERR2
 40
0.0
  9
$USERR3
 40
0.0
  9
$USERR4
 40
0.0
  9
$USERR5
 40
0.0
  9
$WORLDVIEW
 70
     1
  9
$SHADEDGE
 70
     3
  9
$SHADEDIF
 70
    70
  9
$TILEMODE
 70
     1
  9
$MAXACTVP
 70
    64
  9
$PINSBASE
 10
0.0
 20
0.0
 30
0.0
  9
$PLIMCHECK
 70
     0
  9
$PEXTMIN
 10
1.000000000000000E+20
 20
1.000000000000000E+20
 30
1.000000000000000E+20
  9
$PEXTMAX
 10
-1.000000000000000E+20
 20
-1.000000000000000E+20
 30
-1.000000000000000E+20
  9
$PLIMMIN
 10
0.0
 20
0.0
  9
$PLIMMAX
 10
12.0
 20
9.0
  9
$UNITMODE
 70
     0
  9
$VISRETAIN
 70
     1
  9
$PLINEGEN
 70
     0
  9
$PSLTSCALE
 70
     1
  9
$TREEDEPTH
 70
  3020
  9
$CMLSTYLE
  2
Standard
  9
$CMLJUST
 70
     0
  9
$CMLSCALE
 40
1.0
  9
$PROXYGRAPHICS
 70
     1
  9
$MEASUREMENT
 70
     0
  9
$CELWEIGHT
370
    -1
  9
$ENDCAPS
280
     0
  9
$JOINSTYLE
280
     0
  9
$LWDISPLAY
290
     0
  9
$INSUNITS
 70
     4
  9
$HYPERLINKBASE
  1

  9
$STYLESHEET
  1

  9
$XEDIT
290
     1
  9
$CEPSNTYPE
380
     0
  9
$PSTYLEMODE
290
     1
  9
$FINGERPRINTGUID
  2
{0025A444-D0B8-4E86-A508-16E9B38EF91F}
  9
$VERSIONGUID
  2
{FAEB1C32-E019-11D5-929B-00C0DF256EC4}
  9
$EXTNAMES
290
     1
  9
$PSVPSCALE
 40
0.0
  9
$OLESTARTUP
290
     0
  9
$SORTENTS
280
   127
  9
$INDEXCTL
280
     0
  9
$HIDETEXT
280
     1
  9
$XCLIPFRAME
290
     0
  9
$HALOGAP
280
     0
  9
$OBSCOLOR
 70
   257
  9
$OBSLTYPE
280
     0
  9
$INTERSECTIONDISPLAY
280
     0
  9
$INTERSECTIONCOLOR
 70
   257
  9
$DIMASSOC
280
     2
  9
$PROJECTNAME
  1

  9
$CAMERADISPLAY
290
     0
  9
$LENSLENGTH
 40
50.0
  9
$CAMERAHEIGHT
 40
0.0
  9
$STEPSPERSEC
 40
2.0
  9
$STEPSIZE
 40
6.0
  9
$3DDWFPREC
 40
2.0
  9
$PSOLWIDTH
 40
0.25
  9
$PSOLHEIGHT
 40
4.0
  9
$LOFTANG1
 40
1.570796326794897
  9
$LOFTANG2
 40
1.570796326794897
  9
$LOFTMAG1
 40
0.0
  9
$LOFTMAG2
 40
0.0
  9
$LOFTPARAM
 70
     7
  9
$LOFTNORMALS
280
     1
  9
$LATITUDE
 40
37.795
  9
$LONGITUDE
 40
-122.394
  9
$NORTHDIRECTION
 40
0.0
  9
$TIMEZONE
 70
 -8000
  9
$LIGHTGLYPHDISPLAY
280
     1
  9
$TILEMODELIGHTSYNCH
280
     1
  9
$SOLIDHIST
280
     1
  9
$SHOWHIST
280
     1
  9
$DWFFRAME
280
     2
  9
$DGNFRAME
280
     2
  9
$REALWORLDSCALE
290
     1
  9
$INTERFERECOLOR
 62
   256
  9
$CSHADOW
280
     0
  9
$SHADOWPLANELOCATION
 40
0.0
  0
ENDSEC
  0
SECTION
  2
CLASSES
  0
CLASS
  1
ACDBDICTIONARYWDFLT
  2
AcDbDictionaryWithDefault
  3
ObjectDBX Classes
 90
        0
 91
        4
280
     0
281
     0
  0
CLASS
  1
VISUALSTYLE
  2
AcDbVisualStyle
  3
ObjectDBX Classes
 90
     4095
 91
        4
280
     0
281
     0
  0
CLASS
  1
MATERIAL
  2
AcDbMaterial
  3
ObjectDBX Classes
 90
     1153
 91
        4
280
     0
281
     0
  0
ENDSEC
  0
SECTION
  2
TABLES
  0
TABLE
  2
VPORT
  5
8
330
0
100
AcDbSymbolTable
 70
     1
  0
VPORT
  5
29
330
8
100
AcDbSymbolTableRecord
100
AcDbViewportTableRecord
  2
*Active
 70
     0
 10
0.0
 20
0.0
 11
1.0
 21
1.0
 12
10.42990654205607
 22
4.5
 13
0.0
 23
0.0
 14
0.5
 24
0.5
 15
0.5
 25
0.5
 16
0.0
 26
0.0
 36
1.0
 17
0.0
 27
0.0
 37
0.0
 40
9.0
 41
1.972972972850329
 42
50.0
 43
0.0
 44
0.0
 50
0.0
 51
0.0
 71
     0
 72
   100
 73
     1
 74
     3
 75
     0
 76
     0
 77
     0
 78
     0
281
     0
 65
     1
110
0.0
120
0.0
130
0.0
111
1.0
121
0.0
131
0.0
112
0.0
122
1.0
132
0.0
 79
     0
146
0.0
 60
     3
 61
     5
292
     1
282
     1
141
0.0
142
0.0
 63
   250
  0
ENDTAB
  0
TABLE
  2
LTYPE
  5
5
330
0
100
AcDbSymbolTable
 70
     1
  0
LTYPE
  5
14
330
5
100
AcDbSymbolTableRecord
100
AcDbLinetypeTableRecord
  2
ByBlock
 70
     0
  3

 72
    65
 73
     0
 40
0.0
  0
LTYPE
  5
15
330
5
100
AcDbSymbolTableRecord
100
AcDbLinetypeTableRecord
  2
ByLayer
 70
     0
  3

 72
    65
 73
     0
 40
0.0
  0
LTYPE
  5
16
330
5
100
AcDbSymbolTableRecord
100
AcDbLinetypeTableRecord
  2
Continuous
 70
     0
  3
Solid line
 72
    65
 73
     0
 40
0.0
  0
ENDTAB
  0
TABLE
  2
LAYER
  5
2
330
0
100
AcDbSymbolTable
 70
     3
  0
LAYER
  5
10
330
2
100
AcDbSymbolTableRecord
100
AcDbLayerTableRecord
  2
0
 70
     0
 62
     7
  6
Continuous
370
    -3
390
F
347
3E
  0
LAYER
  5
40
330
2
100
AcDbSymbolTableRecord
100
AcDbLayerTableRecord
  2
layer 1
 70
     0
 62
     7
  6
Continuous
370
    -3
390
F
347
3E
  0
LAYER
  5
82
330
2
100
AcDbSymbolTableRecord
100
AcDbLayerTableRecord
  2
Master Guides
 70
     0
 62
     7
  6
Continuous
370
    -3
390
F
347
3E
  0
ENDTAB
  0
TABLE
  2
STYLE
  5
3
330
0
100
AcDbSymbolTable
 70
     1
  0
STYLE
  5
11
330
3
100
AcDbSymbolTableRecord
100
AcDbTextStyleTableRecord
  2
Standard
 70
     0
 40
0.0
 41
1.0
 50
0.0
 71
     0
 42
0.2
  3
txt
  4

  0
ENDTAB
  0
TABLE
  2
VIEW
  5
6
330
0
100
AcDbSymbolTable
 70
     0
  0
ENDTAB
  0
TABLE
  2
UCS
  5
7
330
0
100
AcDbSymbolTable
 70
     0
  0
ENDTAB
  0
TABLE
  2
APPID
  5
9
330
0
100
AcDbSymbolTable
 70
     2
  0
APPID
  5
12
330
9
100
AcDbSymbolTableRecord
100
AcDbRegAppTableRecord
  2
ACAD
 70
     0
  0
APPID
  5
3F
330
9
100
AcDbSymbolTableRecord
100
AcDbRegAppTableRecord
  2
ODA
 70
     0
  0
ENDTAB
  0
TABLE
  2
DIMSTYLE
  5
A
330
0
100
AcDbSymbolTable
 70
     1
100
AcDbDimStyleTable
  0
DIMSTYLE
105
27
330
A
100
AcDbSymbolTableRecord
100
AcDbDimStyleTableRecord
  2
Standard
 70
     0
178
     0
340
11
  0
ENDTAB
  0
TABLE
  2
BLOCK_RECORD
  5
1
330
0
100
AcDbSymbolTable
 70
     1
  0
BLOCK_RECORD
  5
1F
330
1
100
AcDbSymbolTableRecord
100
AcDbBlockTableRecord
  2
*Model_Space
340
22
 70
     0
280
     1
281
     0
  0
BLOCK_RECORD
  5
1B
330
1
100
AcDbSymbolTableRecord
100
AcDbBlockTableRecord
  2
*Paper_Space
340
1E
 70
     0
280
     1
281
     0
  0
BLOCK_RECORD
  5
23
330
1
100
AcDbSymbolTableRecord
100
AcDbBlockTableRecord
  2
*Paper_Space0
340
26
 70
     0
280
     1
281
     0
  0
ENDTAB
  0
ENDSEC
  0
SECTION
  2
BLOCKS
  0
BLOCK
  5
20
330
1F
100
AcDbEntity
  8
0
100
AcDbBlockBegin
  2
*Model_Space
 70
     0
 10
0.0
 20
0.0
 30
0.0
  3
*Model_Space
  1

  0
ENDBLK
  5
21
330
1F
100
AcDbEntity
  8
0
100
AcDbBlockEnd
  0
BLOCK
  5
1C
330
1B
100
AcDbEntity
 67
     1
  8
0
100
AcDbBlockBegin
  2
*Paper_Space
 70
     0
 10
0.0
 20
0.0
 30
0.0
  3
*Paper_Space
  1

  0
ENDBLK
  5
1D
330
1B
100
AcDbEntity
 67
     1
  8
0
100
AcDbBlockEnd
  0
BLOCK
  5
24
330
23
100
AcDbEntity
  8
0
100
AcDbBlockBegin
  2
*Paper_Space0
 70
     0
 10
0.0
 20
0.0
 30
0.0
  3
*Paper_Space0
  1

  0
ENDBLK
  5
25
330
23
100
AcDbEntity
  8
0
100
AcDbBlockEnd
  0
ENDSEC
  0
SECTION
  2
ENTITIES
  0
SPLINE
  5
41
330
1F
100
AcDbEntity
  8
layer 1
 62
   250
100
AcDbSpline
210
0.0
220
0.0
230
1.0
 70
    11
 71
     3
 72
    20
 73
    16
 74
     0
 42
0.0000000001
 43
0.0000000001
 12
1.0
 22
0.0
 32
0.0
 13
1.0
 23
0.0
 33
0.0
 40
0.0
 40
0.0
 40
0.0
 40
0.0
 40
0.2
 40
0.2
 40
0.2
 40
0.2
 40
0.4
 40
0.4
 40
0.4
 40
0.4
 40
0.6
 40
0.6
 40
0.6
 40
0.6
 40
1.0
 40
1.0
 40
1.0
 40
1.0
 10
73.0113
 20
116.1448
 30
0.0
 10
73.0113
 20
116.1448
 30
0.0
 10
196.5493
 20
116.1448
 30
0.0
 10
196.5493
 20
116.1448
 30
0.0
 10
196.5493
 20
116.1448
 30
0.0
 10
196.5493
 20
116.1448
 30
0.0
 10
196.5493
 20
-106.7449
 30
0.0
 10
196.5493
 20
-106.7449
 30
0.0
 10
196.5493
 20
-106.7449
 30
0.0
 10
196.5493
 20
-106.7449
 30
0.0
 10
73.0113
 20
-106.7449
 30
0.0
 10
73.0113
 20
-106.7449
 30
0.0
 10
73.0113
 20
-106.7449
 30
0.0
 10
73.0113
 20
-106.7449
 30
0.0
 10
73.0113
 20
116.1448
 30
0.0
 10
73.0113
 20
116.1448
 30
0.0
  0
SPLINE
  5
42
330
1F
100
AcDbEntity
  8
layer 1
 62
   250
100
AcDbSpline
210
0.0
220
0.0
230
1.0
 70
    11
 71
     3
 72
    20
 73
    16
 74
     0
 42
0.0000000001
 43
0.0000000001
 12
1.0
 22
0.0
 32
0.0
 13
1.0
 23
0.0
 33
0.0
 40
0.0
 40
0.0
 40
0.0
 40
0.0
 40
0.2
 40
0.2
 40
0.2
 40
0.2
 40
0.4
 40
0.4
 40
0.4
 40
0.4
 40
0.6
 40
0.6
 40
0.6
 40
0.6
 40
1.0
 40
1.0
 40
1.0
 40
1.0
 10
137.0881
 20
49.63
 30
0.0
 10
137.752
 20
49.5268
 30
0.0
 10
138.4425
 20
50.2939
 30
0.0
 10
138.6303
 20
51.3428
 30
0.0
 10
138.6303
 20
51.3428
 30
0.0
 10
138.8178
 20
52.3919
 30
0.0
 10
138.4315
 20
53.3261
 30
0.0
 10
137.7677
 20
53.4293
 30
0.0
 10
137.7677
 20
53.4293
 30
0.0
 10
137.1036
 20
53.5323
 30
0.0
 10
136.4131
 20
52.7653
 30
0.0
 10
136.2256
 20
51.7163
 30
0.0
 10
136.2256
 20
51.7163
 30
0.0
 10
136.0378
 20
50.6674
 30
0.0
 10
136.4241
 20
49.7331
 30
0.0
 10
137.0881
 20
49.63
 30
0.0
  0
SPLINE
  5
43
330
1F
100
AcDbEntity
  8
layer 1
 62
   250
100
AcDbSpline
210
0.0
220
0.0
230
1.0
 70
    11
 71
     3
 72
    20
 73
    16
 74
     0
 42
0.0000000001
 43
0.0000000001
 12
1.0
 22
0.0
 32
0.0
 13
1.0
 23
0.0
 33
0.0
 40
0.0
 40
0.0
 40
0.0
 40
0.0
 40
0.2
 40
0.2
 40
0.2
 40
0.2
 40
0.4
 40
0.4
 40
0.4
 40
0.4
 40
0.6
 40
0.6
 40
0.6
 40
0.6
 40
1.0
 40
1.0
 40
1.0
 40
1.0
 10
132.1244
 20
49.63
 30
0.0
 10
131.4605
 20
49.5268
 30
0.0
 10
130.7698
 20
50.2939
 30
0.0
 10
130.5822
 20
51.3428
 30
0.0
 10
130.5822
 20
51.3428
 30
0.0
 10
130.3946
 20
52.3919
 30
0.0
 10
130.7809
 20
53.3261
 30
0.0
 10
131.4448
 20
53.4293
 30
0.0
 10
131.4448
 20
53.4293
 30
0.0
 10
132.1086
 20
53.5323
 30
0.0
 10
132.7993
 20
52.7653
 30
0.0
 10
132.9869
 20
51.7163
 30
0.0
 10
132.9869
 20
51.7163
 30
0.0
 10
133.1745
 20
50.6674
 30
0.0
 10
132.7884
 20
49.7331
 30
0.0
 10
132.1244
 20
49.63
 30
0.0
  0
SPLINE
  5
44
330
1F
100
AcDbEntity
  8
layer 1
 62
   250
100
AcDbSpline
210
0.0
220
0.0
230
1.0
 70
    11
 71
     3
 72
    20
 73
    16
 74
     0
 42
0.0000000001
 43
0.0000000001
 12
1.0
 22
0.0
 32
0.0
 13
1.0
 23
0.0
 33
0.0
 40
0.0
 40
0.0
 40
0.0
 40
0.0
 40
0.2
 40
0.2
 40
0.2
 40
0.2
 40
0.4
 40
0.4
 40
0.4
 40
0.4
 40
0.6
 40
0.6
 40
0.6
 40
0.6
 40
1.0
 40
1.0
 40
1.0
 40
1.0
 10
136.8383
 20
-40.019
 30
0.0
 10
137.5022
 20
-39.916
 30
0.0
 10
138.1929
 20
-40.6831
 30
0.0
 10
138.3804
 20
-41.732
 30
0.0
 10
138.3804
 20
-41.732
 30
0.0
 10
138.568
 20
-42.7811
 30
0.0
 10
138.1817
 20
-43.7153
 30
0.0
 10
137.5179
 20
-43.8185
 30
0.0
 10
137.5179
 20
-43.8185
 30
0.0
 10
136.8538
 20
-43.9215
 30
0.0
 10
136.1633
 20
-43.1545
 30
0.0
 10
135.9757
 20
-42.1055
 30
0.0
 10
135.9757
 20
-42.1055
 30
0.0
 10
135.7882
 20
-41.0566
 30
0.0
 10
136.1742
 20
-40.1222
 30
0.0
 10
136.8383
 20
-40.019
 30
0.0
  0
SPLINE
  5
45
330
1F
100
AcDbEntity
  8
layer 1
 62
   250
100
AcDbSpline
210
0.0
220
0.0
230
1.0
 70
    11
 71
     3
 72
    20
 73
    16
 74
     0
 42
0.0000000001
 43
0.0000000001
 12
1.0
 22
0.0
 32
0.0
 13
1.0
 23
0.0
 33
0.0
 40
0.0
 40
0.0
 40
0.0
 40
0.0
 40
0.2
 40
0.2
 40
0.2
 40
0.2
 40
0.4
 40
0.4
 40
0.4
 40
0.4
 40
0.6
 40
0.6
 40
0.6
 40
0.6
 40
1.0
 40
1.0
 40
1.0
 40
1.0
 10
131.8745
 20
-40.019
 30
0.0
 10
131.2107
 20
-39.916
 30
0.0
 10
130.52
 20
-40.6831
 30
0.0
 10
130.3324
 20
-41.732
 30
0.0
 10
130.3324
 20
-41.732
 30
0.0
 10
130.1448
 20
-42.7811
 30
0.0
 10
130.5311
 20
-43.7153
 30
0.0
 10
131.195
 20
-43.8185
 30
0.0
 10
131.195
 20
-43.8185
 30
0.0
 10
131.859
 20
-43.9215
 30
0.0
 10
132.5495
 20
-43.1545
 30
0.0
 10
132.7371
 20
-42.1055
 30
0.0
 10
132.7371
 20
-42.1055
 30
0.0
 10
132.9247
 20
-41.0566
 30
0.0
 10
132.5386
 20
-40.1222
 30
0.0
 10
131.8745
 20
-40.019
 30
0.0
  0
SPLINE
  5
46
330
1F
100
AcDbEntity
  8
layer 1
 62
   250
100
AcDbSpline
210
0.0
220
0.0
230
1.0
 70
    11
 71
     3
 72
    60
 73
    56
 74
     0
 42
0.0000000001
 43
0.0000000001
 12
1.0
 22
0.0
 32
0.0
 13
1.0
 23
0.0
 33
0.0
 40
0.0
 40
0.0
 40
0.0
 40
0.0
 40
0.0666666666666667
 40
0.0666666666666667
 40
0.0666666666666667
 40
0.0666666666666667
 40
0.1333333333333333
 40
0.1333333333333333
 40
0.1333333333333333
 40
0.1333333333333333
 40
0.2
 40
0.2
 40
0.2
 40
0.2
 40
0.2666666666666667
 40
0.2666666666666667
 40
0.2666666666666667
 40
0.2666666666666667
 40
0.3333333333333333
 40
0.3333333333333333
 40
0.3333333333333333
 40
0.3333333333333333
 40
0.4
 40
0.4
 40
0.4
 40
0.4
 40
0.4666666666666667
 40
0.4666666666666667
 40
0.4666666666666667
 40
0.4666666666666667
 40
0.5333333333333333
 40
0.5333333333333333
 40
0.5333333333333333
 40
0.5333333333333333
 40
0.6
 40
0.6
 40
0.6
 40
0.6
 40
0.6666666666666666
 40
0.6666666666666666
 40
0.6666666666666666
 40
0.6666666666666666
 40
0.7333333333333333
 40
0.7333333333333333
 40
0.7333333333333333
 40
0.7333333333333333
 40
0.8
 40
0.8
 40
0.8
 40
0.8
 40
0.8666666666666667
 40
0.8666666666666667
 40
0.8666666666666667
 40
0.8666666666666667
 40
1.0
 40
1.0
 40
1.0
 40
1.0
 10
123.5741
 20
-23.4388
 30
0.0
 10
122.4276
 20
-24.1038
 30
0.0
 10
121.0379
 20
-24.7377
 30
0.0
 10
119.5161
 20
-25.7202
 30
0.0
 10
119.5161
 20
-25.7202
 30
0.0
 10
115.2017
 20
-23.3854
 30
0.0
 10
113.3288
 20
-25.0782
 30
0.0
 10
110.3969
 20
-27.5743
 30
0.0
 10
110.3969
 20
-27.5743
 30
0.0
 10
111.2606
 20
-24.3497
 30
0.0
 10
109.6582
 20
-20.3372
 30
0.0
 10
104.5044
 20
-20.4731
 30
0.0
 10
104.5044
 20
-20.4731
 30
0.0
 10
100.1266
 20
-20.5877
 30
0.0
 10
99.3061
 20
-23.8083
 30
0.0
 10
100.5078
 20
-27.4588
 30
0.0
 10
100.5078
 20
-27.4588
 30
0.0
 10
98.0252
 20
-26.6675
 30
0.0
 10
90.644
 20
-26.5612
 30
0.0
 10
89.8981
 20
-29.7284
 30
0.0
 10
89.8981
 20
-29.7284
 30
0.0
 10
89.5611
 20
-31.16
 30
0.0
 10
89.5007
 20
-32.483
 30
0.0
 10
90.3453
 20
-33.9972
 30
0.0
 10
90.3453
 20
-33.9972
 30
0.0
 10
88.4693
 20
-34.5764
 30
0.0
 10
86.8793
 20
-35.3122
 30
0.0
 10
85.9222
 20
-36.8557
 30
0.0
 10
85.9222
 20
-36.8557
 30
0.0
 10
83.2782
 20
-28.3833
 30
0.0
 10
84.1084
 20
-21.024
 30
0.0
 10
89.9771
 20
-12.7874
 30
0.0
 10
89.9771
 20
-12.7874
 30
0.0
 10
89.759
 20
-15.7906
 30
0.0
 10
89.5906
 20
-19.2747
 30
0.0
 10
90.3453
 20
-22.277
 30
0.0
 10
90.3453
 20
-22.277
 30
0.0
 10
94.5127
 20
-17.6749
 30
0.0
 10
98.8965
 20
-12.5909
 30
0.0
 10
101.3416
 20
-7.0223
 30
0.0
 10
101.3416
 20
-7.0223
 30
0.0
 10
101.9543
 20
-11.1515
 30
0.0
 10
100.7002
 20
-10.5488
 30
0.0
 10
104.9259
 20
-17.3322
 30
0.0
 10
104.9259
 20
-17.3322
 30
0.0
 10
106.4573
 20
-14.7886
 30
0.0
 10
107.9523
 20
-12.2341
 30
0.0
 10
109.1053
 20
-9.3528
 30
0.0
 10
109.1053
 20
-9.3528
 30
0.0
 10
112.1963
 20
-15.5557
 30
0.0
 10
117.28
 20
-20.6338
 30
0.0
 10
123.5736
 20
-23.4385
 30
0.0
 10
123.5736
 20
-23.4385
 30
0.0
 10
123.5736
 20
-23.4385
 30
0.0
 10
123.5741
 20
-23.4388
 30
0.0
 10
123.5741
 20
-23.4388
 30
0.0
  0
SPLINE
  5
47
330
1F
100
AcDbEntity
  8
layer 1
 62
   250
100
AcDbSpline
210
0.0
220
0.0
230
1.0
 70
    11
 71
     3
 72
    60
 73
    56
 74
     0
 42
0.0000000001
 43
0.0000000001
 12
1.0
 22
0.0
 32
0.0
 13
1.0
 23
0.0
 33
0.0
 40
0.0
 40
0.0
 40
0.0
 40
0.0
 40
0.0666666666666667
 40
0.0666666666666667
 40
0.0666666666666667
 40
0.0666666666666667
 40
0.1333333333333333
 40
0.1333333333333333
 40
0.1333333333333333
 40
0.1333333333333333
 40
0.2
 40
0.2
 40
0.2
 40
0.2
 40
0.2666666666666667
 40
0.2666666666666667
 40
0.2666666666666667
 40
0.2666666666666667
 40
0.3333333333333333
 40
0.3333333333333333
 40
0.3333333333333333
 40
0.3333333333333333
 40
0.4
 40
0.4
 40
0.4
 40
0.4
 40
0.4666666666666667
 40
0.4666666666666667
 40
0.4666666666666667
 40
0.4666666666666667
 40
0.5333333333333333
 40
0.5333333333333333
 40
0.5333333333333333
 40
0.5333333333333333
 40
0.6
 40
0.6
 40
0.6
 40
0.6
 40
0.6666666666666666
 40
0.6666666666666666
 40
0.6666666666666666
 40
0.6666666666666666
 40
0.7333333333333333
 40
0.7333333333333333
 40
0.7333333333333333
 40
0.7333333333333333
 40
0.8
 40
0.8
 40
0.8
 40
0.8
 40
0.8666666666666667
 40
0.8666666666666667
 40
0.8666666666666667
 40
0.8666666666666667
 40
1.0
 40
1.0
 40
1.0
 40
1.0
 10
123.8586
 20
-0.1495
 30
0.0
 10
123.5374
 20
-2.6605
 30
0.0
 10
123.3758
 20
-5.1303
 30
0.0
 10
123.3758
 20
-7.5576
 30
0.0
 10
123.3758
 20
-7.5576
 30
0.0
 10
123.3762
 20
-12.5541
 30
0.0
 10
124.9061
 20
-15.3895
 30
0.0
 10
124.9061
 20
-17.3645
 30
0.0
 10
124.9061
 20
-17.3645
 30
0.0
 10
124.9068
 20
-18.315
 30
0.0
 10
124.8129
 20
-19.0036
 30
0.0
 10
124.653
 20
-19.482
 30
0.0
 10
124.653
 20
-19.482
 30
0.0
 10
127.7469
 20
-20.9776
 30
0.0
 10
131.1751
 20
-21.8113
 30
0.0
 10
134.7797
 20
-21.8113
 30
0.0
 10
134.7797
 20
-21.8113
 30
0.0
 10
139.7463
 20
-21.8109
 30
0.0
 10
144.3771
 20
-20.2289
 30
0.0
 10
148.2589
 20
-17.5123
 30
0.0
 10
148.2589
 20
-17.5123
 30
0.0
 10
147.3738
 20
-17.1331
 30
0.0
 10
146.8268
 20
-15.7456
 30
0.0
 10
145.2702
 20
-14.9354
 30
0.0
 10
145.2702
 20
-14.9354
 30
0.0
 10
144.5874
 20
-14.5798
 30
0.0
 10
143.9434
 20
-13.8995
 30
0.0
 10
143.3401
 20
-12.8952
 30
0.0
 10
143.3401
 20
-12.8952
 30
0.0
 10
142.7376
 20
-12.6856
 30
0.0
 10
141.0887
 20
-13.1251
 30
0.0
 10
138.3942
 20
-14.2137
 30
0.0
 10
138.3942
 20
-14.2137
 30
0.0
 10
133.3756
 20
-16.3468
 30
0.0
 10
131.4273
 20
-9.6132
 30
0.0
 10
131.0963
 20
-5.6744
 30
0.0
 10
131.0963
 20
-5.6744
 30
0.0
 10
130.8567
 20
-3.1202
 30
0.0
 10
129.2178
 20
0.0299
 30
0.0
 10
129.2178
 20
2.4839
 30
0.0
 10
129.2178
 20
2.4839
 30
0.0
 10
129.2187
 20
4.6306
 30
0.0
 10
135.1811
 20
6.8096
 30
0.0
 10
136.3433
 20
7.2597
 30
0.0
 10
136.3433
 20
7.2597
 30
0.0
 10
134.6795
 20
9.5431
 30
0.0
 10
133.3378
 20
12.7091
 30
0.0
 10
133.7521
 20
15.4657
 30
0.0
 10
133.7521
 20
15.4657
 30
0.0
 10
129.5489
 20
10.655
 30
0.0
 10
127.3879
 20
5.0691
 30
0.0
 10
123.8584
 20
-0.1493
 30
0.0
 10
123.8584
 20
-0.1493
 30
0.0
 10
123.8584
 20
-0.1493
 30
0.0
 10
123.8586
 20
-0.1495
 30
0.0
 10
123.8586
 20
-0.1495
 30
0.0
  0
SPLINE
  5
48
330
1F
100
AcDbEntity
  8
layer 1
 62
   250
100
AcDbSpline
210
0.0
220
0.0
230
1.0
 70
    11
 71
     3
 72
    64
 73
    60
 74
     0
 42
0.0000000001
 43
0.0000000001
 12
1.0
 22
0.0
 32
0.0
 13
1.0
 23
0.0
 33
0.0
 40
0.0
 40
0.0
 40
0.0
 40
0.0
 40
0.0625
 40
0.0625
 40
0.0625
 40
0.0625
 40
0.125
 40
0.125
 40
0.125
 40
0.125
 40
0.1875
 40
0.1875
 40
0.1875
 40
0.1875
 40
0.25
 40
0.25
 40
0.25
 40
0.25
 40
0.3125
 40
0.3125
 40
0.3125
 40
0.3125
 40
0.375
 40
0.375
 40
0.375
 40
0.375
 40
0.4375
 40
0.4375
 40
0.4375
 40
0.4375
 40
0.5
 40
0.5
 40
0.5
 40
0.5
 40
0.5625
 40
0.5625
 40
0.5625
 40
0.5625
 40
0.625
 40
0.625
 40
0.625
 40
0.625
 40
0.6875
 40
0.6875
 40
0.6875
 40
0.6875
 40
0.75
 40
0.75
 40
0.75
 40
0.75
 40
0.8125
 40
0.8125
 40
0.8125
 40
0.8125
 40
0.875
 40
0.875
 40
0.875
 40
0.875
 40
1.0
 40
1.0
 40
1.0
 40
1.0
 10
120.2666
 20
-16.7479
 30
0.0
 10
120.1491
 20
-16.4621
 30
0.0
 10
120.0808
 20
-16.2175
 30
0.0
 10
120.0808
 20
-16.0465
 30
0.0
 10
120.0808
 20
-16.0465
 30
0.0
 10
120.0817
 20
-14.0229
 30
0.0
 10
120.4867
 20
-13.3899
 30
0.0
 10
120.1791
 20
-8.9707
 30
0.0
 10
120.1791
 20
-8.9707
 30
0.0
 10
120.0996
 20
-7.82
 30
0.0
 10
120.0788
 20
-6.6579
 30
0.0
 10
120.119
 20
-5.486
 30
0.0
 10
120.119
 20
-5.486
 30
0.0
 10
118.6317
 20
-7.8714
 30
0.0
 10
117.4147
 20
-9.0649
 30
0.0
 10
116.4698
 20
-9.0649
 30
0.0
 10
116.4698
 20
-9.0649
 30
0.0
 10
115.5249
 20
-9.0649
 30
0.0
 10
114.7906
 20
-8.3639
 30
0.0
 10
114.2684
 20
-6.9618
 30
0.0
 10
114.2684
 20
-6.9618
 30
0.0
 10
113.6454
 20
-5.2878
 30
0.0
 10
113.1161
 20
-3.6977
 30
0.0
 10
113.7555
 20
-2.6607
 30
0.0
 10
113.7555
 20
-2.6607
 30
0.0
 10
113.9367
 20
-2.3678
 30
0.0
 10
114.3285
 20
-2.0534
 30
0.0
 10
114.9314
 20
-1.719
 30
0.0
 10
114.9314
 20
-1.719
 30
0.0
 10
116.3801
 20
-0.8818
 30
0.0
 10
118.3094
 20
0.7924
 30
0.0
 10
120.7221
 20
3.3042
 30
0.0
 10
120.7221
 20
3.3042
 30
0.0
 10
120.8422
 20
4.8532
 30
0.0
 10
120.9731
 20
5.9726
 30
0.0
 10
121.1139
 20
6.6629
 30
0.0
 10
121.1139
 20
6.6629
 30
0.0
 10
121.2312
 20
7.234
 30
0.0
 10
121.655
 20
9.4733
 30
0.0
 10
120.7221
 20
8.4524
 30
0.0
 10
120.7221
 20
8.4524
 30
0.0
 10
117.9881
 20
5.3137
 30
0.0
 10
115.7359
 20
3.7438
 30
0.0
 10
113.9664
 20
3.7438
 30
0.0
 10
113.9664
 20
3.7438
 30
0.0
 10
112.9571
 20
3.7438
 30
0.0
 10
111.4418
 20
4.2416
 30
0.0
 10
110.0388
 20
4.9756
 30
0.0
 10
110.0388
 20
4.9756
 30
0.0
 10
110.0384
 20
4.8836
 30
0.0
 10
110.0355
 20
4.7922
 30
0.0
 10
110.0355
 20
4.6998
 30
0.0
 10
110.0355
 20
4.6998
 30
0.0
 10
110.0364
 20
-4.1006
 30
0.0
 10
114.0743
 20
-11.9215
 30
0.0
 10
120.2662
 20
-16.748
 30
0.0
 10
120.2662
 20
-16.748
 30
0.0
 10
120.2662
 20
-16.748
 30
0.0
 10
120.2666
 20
-16.7479
 30
0.0
 10
120.2666
 20
-16.7479
 30
0.0
  0
SPLINE
  5
49
330
1F
100
AcDbEntity
  8
layer 1
 62
   250
100
AcDbSpline
210
0.0
220
0.0
230
1.0
 70
    11
 71
     3
 72
    88
 73
    84
 74
     0
 42
0.0000000001
 43
0.0000000001
 12
1.0
 22
0.0
 32
0.0
 13
1.0
 23
0.0
 33
0.0
 40
0.0
 40
0.0
 40
0.0
 40
0.0
 40
0.0454545454545455
 40
0.0454545454545455
 40
0.0454545454545455
 40
0.0454545454545455
 40
0.0909090909090909
 40
0.0909090909090909
 40
0.0909090909090909
 40
0.0909090909090909
 40
0.1363636363636364
 40
0.1363636363636364
 40
0.1363636363636364
 40
0.1363636363636364
 40
0.1818181818181818
 40
0.1818181818181818
 40
0.1818181818181818
 40
0.1818181818181818
 40
0.2272727272727273
 40
0.2272727272727273
 40
0.2272727272727273
 40
0.2272727272727273
 40
0.2727272727272727
 40
0.2727272727272727
 40
0.2727272727272727
 40
0.2727272727272727
 40
0.3181818181818182
 40
0.3181818181818182
 40
0.3181818181818182
 40
0.3181818181818182
 40
0.3636363636363636
 40
0.3636363636363636
 40
0.3636363636363636
 40
0.3636363636363636
 40
0.4090909090909091
 40
0.4090909090909091
 40
0.4090909090909091
 40
0.4090909090909091
 40
0.4545454545454545
 40
0.4545454545454545
 40
0.4545454545454545
 40
0.4545454545454545
 40
0.5
 40
0.5
 40
0.5
 40
0.5
 40
0.5454545454545454
 40
0.5454545454545454
 40
0.5454545454545454
 40
0.5454545454545454
 40
0.5909090909090909
 40
0.5909090909090909
 40
0.5909090909090909
 40
0.5909090909090909
 40
0.6363636363636364
 40
0.6363636363636364
 40
0.6363636363636364
 40
0.6363636363636364
 40
0.6818181818181818
 40
0.6818181818181818
 40
0.6818181818181818
 40
0.6818181818181818
 40
0.7272727272727273
 40
0.7272727272727273
 40
0.7272727272727273
 40
0.7272727272727273
 40
0.7727272727272727
 40
0.7727272727272727
 40
0.7727272727272727
 40
0.7727272727272727
 40
0.8181818181818182
 40
0.8181818181818182
 40
0.8181818181818182
 40
0.8181818181818182
 40
0.8636363636363636
 40
0.8636363636363636
 40
0.8636363636363636
 40
0.8636363636363636
 40
0.9090909090909091
 40
0.9090909090909091
 40
0.9090909090909091
 40
0.9090909090909091
 40
1.0
 40
1.0
 40
1.0
 40
1.0
 10
110.6042
 20
10.3452
 30
0.0
 10
111.9061
 20
10.2969
 30
0.0
 10
113.3124
 20
10.3612
 30
0.0
 10
113.9664
 20
10.9014
 30
0.0
 10
113.9664
 20
10.9014
 30
0.0
 10
114.8984
 20
11.6628
 30
0.0
 10
117.7331
 20
13.3932
 30
0.0
 10
118.9123
 20
13.9777
 30
0.0
 10
118.9123
 20
13.9777
 30
0.0
 10
120.7946
 20
14.9106
 30
0.0
 10
120.4328
 20
15.712
 30
0.0
 10
121.4458
 20
16.0811
 30
0.0
 10
121.4458
 20
16.0811
 30
0.0
 10
124.2921
 20
17.1183
 30
0.0
 10
126.9627
 20
14.5854
 30
0.0
 10
127.779
 20
11.5291
 30
0.0
 10
127.779
 20
11.5291
 30
0.0
 10
129.6384
 20
14.9905
 30
0.0
 10
134.3677
 20
19.4864
 30
0.0
 10
138.7558
 20
22.0147
 30
0.0
 10
138.7558
 20
22.0147
 30
0.0
 10
134.8107
 20
24.4108
 30
0.0
 10
136.0631
 20
24.6196
 30
0.0
 10
135.0468
 20
26.1587
 30
0.0
 10
135.0468
 20
26.1587
 30
0.0
 10
134.3323
 20
27.2416
 30
0.0
 10
134.6957
 20
27.4144
 30
0.0
 10
136.3738
 20
27.4144
 30
0.0
 10
136.3738
 20
27.4144
 30
0.0
 10
137.9444
 20
27.4146
 30
0.0
 10
141.654
 20
28.416
 30
0.0
 10
143.7338
 20
29.4093
 30
0.0
 10
143.7338
 20
29.4093
 30
0.0
 10
140.9557
 20
30.5717
 30
0.0
 10
137.9347
 20
31.2111
 30
0.0
 10
134.7797
 20
31.2111
 30
0.0
 10
134.7797
 20
31.2111
 30
0.0
 10
131.9326
 20
31.2111
 30
0.0
 10
129.1949
 20
30.6894
 30
0.0
 10
126.6454
 20
29.7337
 30
0.0
 10
126.6454
 20
29.7337
 30
0.0
 10
127.4615
 20
28.9384
 30
0.0
 10
128.2885
 20
27.9256
 30
0.0
 10
128.925
 20
27.3202
 30
0.0
 10
128.925
 20
27.3202
 30
0.0
 10
130.092
 20
26.211
 30
0.0
 10
130.6742
 20
24.9864
 30
0.0
 10
130.6742
 20
23.6471
 30
0.0
 10
130.6742
 20
23.6471
 30
0.0
 10
130.6748
 20
21.3575
 30
0.0
 10
129.9042
 20
21.4201
 30
0.0
 10
127.7183
 20
22.046
 30
0.0
 10
127.7183
 20
22.046
 30
0.0
 10
126.1141
 20
22.5056
 30
0.0
 10
125.8462
 20
22.656
 30
0.0
 10
124.4314
 20
21.7632
 30
0.0
 10
124.4314
 20
21.7632
 30
0.0
 10
123.768
 20
21.3447
 30
0.0
 10
122.8735
 20
21.1357
 30
0.0
 10
121.7472
 20
21.1357
 30
0.0
 10
121.7472
 20
21.1357
 30
0.0
 10
118.8525
 20
21.1359
 30
0.0
 10
117.4044
 20
21.4082
 30
0.0
 10
117.4044
 20
21.9518
 30
0.0
 10
117.4044
 20
21.9518
 30
0.0
 10
117.4055
 20
22.421
 30
0.0
 10
119.3316
 20
22.8075
 30
0.0
 10
121.084
 20
24.2123
 30
0.0
 10
121.084
 20
24.2123
 30
0.0
 10
122.2555
 20
25.1507
 30
0.0
 10
123.074
 20
25.4051
 30
0.0
 10
123.074
 20
26.4099
 30
0.0
 10
123.074
 20
26.4099
 30
0.0
 10
123.0749
 20
26.6966
 30
0.0
 10
122.9338
 20
27.2291
 30
0.0
 10
122.7113
 20
27.8289
 30
0.0
 10
122.7113
 20
27.8289
 30
0.0
 10
116.6347
 20
24.1701
 30
0.0
 10
112.131
 20
17.8416
 30
0.0
 10
110.604
 20
10.345
 30
0.0
 10
110.604
 20
10.345
 30
0.0
 10
110.604
 20
10.345
 30
0.0
 10
110.6042
 20
10.3452
 30
0.0
 10
110.6042
 20
10.3452
 30
0.0
  0
SPLINE
  5
4A
330
1F
100
AcDbEntity
  8
layer 1
 62
   250
100
AcDbSpline
210
0.0
220
0.0
230
1.0
 70
    11
 71
     3
 72
    88
 73
    84
 74
     0
 42
0.0000000001
 43
0.0000000001
 12
1.0
 22
0.0
 32
0.0
 13
1.0
 23
0.0
 33
0.0
 40
0.0
 40
0.0
 40
0.0
 40
0.0
 40
0.0454545454545455
 40
0.0454545454545455
 40
0.0454545454545455
 40
0.0454545454545455
 40
0.0909090909090909
 40
0.0909090909090909
 40
0.0909090909090909
 40
0.0909090909090909
 40
0.1363636363636364
 40
0.1363636363636364
 40
0.1363636363636364
 40
0.1363636363636364
 40
0.1818181818181818
 40
0.1818181818181818
 40
0.1818181818181818
 40
0.1818181818181818
 40
0.2272727272727273
 40
0.2272727272727273
 40
0.2272727272727273
 40
0.2272727272727273
 40
0.2727272727272727
 40
0.2727272727272727
 40
0.2727272727272727
 40
0.2727272727272727
 40
0.3181818181818182
 40
0.3181818181818182
 40
0.3181818181818182
 40
0.3181818181818182
 40
0.3636363636363636
 40
0.3636363636363636
 40
0.3636363636363636
 40
0.3636363636363636
 40
0.4090909090909091
 40
0.4090909090909091
 40
0.4090909090909091
 40
0.4090909090909091
 40
0.4545454545454545
 40
0.4545454545454545
 40
0.4545454545454545
 40
0.4545454545454545
 40
0.5
 40
0.5
 40
0.5
 40
0.5
 40
0.5454545454545454
 40
0.5454545454545454
 40
0.5454545454545454
 40
0.5454545454545454
 40
0.5909090909090909
 40
0.5909090909090909
 40
0.5909090909090909
 40
0.5909090909090909
 40
0.6363636363636364
 40
0.6363636363636364
 40
0.6363636363636364
 40
0.6363636363636364
 40
0.6818181818181818
 40
0.6818181818181818
 40
0.6818181818181818
 40
0.6818181818181818
 40
0.7272727272727273
 40
0.7272727272727273
 40
0.7272727272727273
 40
0.7272727272727273
 40
0.7727272727272727
 40
0.7727272727272727
 40
0.7727272727272727
 40
0.7727272727272727
 40
0.8181818181818182
 40
0.8181818181818182
 40
0.8181818181818182
 40
0.8181818181818182
 40
0.8636363636363636
 40
0.8636363636363636
 40
0.8636363636363636
 40
0.8636363636363636
 40
0.9090909090909091
 40
0.9090909090909091
 40
0.9090909090909091
 40
0.9090909090909091
 40
1.0
 40
1.0
 40
1.0
 40
1.0
 10
150.424
 20
25.2137
 30
0.0
 10
149.9903
 20
24.862
 30
0.0
 10
149.3575
 20
24.6303
 30
0.0
 10
148.5272
 20
24.589
 30
0.0
 10
148.5272
 20
24.589
 30
0.0
 10
146.2601
 20
24.4762
 30
0.0
 10
144.0793
 20
22.7126
 30
0.0
 10
141.8322
 20
20.9157
 30
0.0
 10
141.8322
 20
20.9157
 30
0.0
 10
140.3908
 20
19.7624
 30
0.0
 10
138.0328
 20
17.9911
 30
0.0
 10
138.0328
 20
17.4624
 30
0.0
 10
138.0328
 20
17.4624
 30
0.0
 10
138.0328
 20
17.3162
 30
0.0
 10
138.0525
 20
17.1798
 30
0.0
 10
138.0926
 20
17.0542
 30
0.0
 10
138.0926
 20
17.0542
 30
0.0
 10
140.5458
 20
18.1009
 30
0.0
 10
142.2746
 20
19.0112
 30
0.0
 10
143.28
 20
19.7859
 30
0.0
 10
143.28
 20
19.7859
 30
0.0
 10
146.2025
 20
22.0368
 30
0.0
 10
150.3971
 20
21.0828
 30
0.0
 10
150.3971
 20
16.4893
 30
0.0
 10
150.3971
 20
16.4893
 30
0.0
 10
150.398
 20
13.9246
 30
0.0
 10
147.562
 20
13.46
 30
0.0
 10
147.562
 20
11.9057
 30
0.0
 10
147.562
 20
11.9057
 30
0.0
 10
147.5629
 20
10.8965
 30
0.0
 10
147.9848
 20
10.2686
 30
0.0
 10
147.9848
 20
9.8966
 30
0.0
 10
147.9848
 20
9.8966
 30
0.0
 10
147.9855
 20
9.4779
 30
0.0
 10
147.3614
 20
9.0595
 30
0.0
 10
146.1145
 20
8.6408
 30
0.0
 10
146.1145
 20
8.6408
 30
0.0
 10
143.3005
 20
7.7621
 30
0.0
 10
140.7465
 20
6.6526
 30
0.0
 10
138.4549
 20
5.3135
 30
0.0
 10
138.4549
 20
5.3135
 30
0.0
 10
137.809
 20
4.9415
 30
0.0
 10
136.6311
 20
4.6047
 30
0.0
 10
136.3433
 20
5.5018
 30
0.0
 10
136.3433
 20
5.5018
 30
0.0
 10
132.6856
 20
4.5806
 30
0.0
 10
131.2841
 20
3.5255
 30
0.0
 10
131.2841
 20
2.6043
 30
0.0
 10
131.2841
 20
2.6043
 30
0.0
 10
131.2843
 20
1.0269
 30
0.0
 10
132.2881
 20
1.794
 30
0.0
 10
133.3883
 20
-0.8398
 30
0.0
 10
133.3883
 20
-0.8398
 30
0.0
 10
135.3995
 20
1.8808
 30
0.0
 10
138.0627
 20
3.681
 30
0.0
 10
141.38
 20
4.5599
 30
0.0
 10
141.38
 20
4.5599
 30
0.0
 10
146.5654
 20
5.9339
 30
0.0
 10
150.2255
 20
6.6618
 30
0.0
 10
154.4082
 20
4.5599
 30
0.0
 10
154.4082
 20
4.5599
 30
0.0
 10
156.1582
 20
3.6808
 30
0.0
 10
157.0317
 20
2.5088
 30
0.0
 10
157.0317
 20
1.0438
 30
0.0
 10
157.0317
 20
1.0438
 30
0.0
 10
157.0323
 20
-0.7981
 30
0.0
 10
156.5194
 20
-3.6755
 30
0.0
 10
155.4937
 20
-7.5893
 30
0.0
 10
155.4937
 20
-7.5893
 30
0.0
 10
155.0711
 20
-9.2044
 30
0.0
 10
154.6165
 20
-10.6036
 30
0.0
 10
154.1319
 20
-11.7875
 30
0.0
 10
154.1319
 20
-11.7875
 30
0.0
 10
157.5047
 20
-7.2557
 30
0.0
 10
159.5237
 20
-1.5231
 30
0.0
 10
159.5237
 20
4.6998
 30
0.0
 10
159.5237
 20
4.6998
 30
0.0
 10
159.5244
 20
12.953
 30
0.0
 10
155.9721
 20
20.3455
 30
0.0
 10
150.4231
 20
25.2137
 30
0.0
 10
150.4231
 20
25.2137
 30
0.0
 10
150.4231
 20
25.2137
 30
0.0
 10
150.424
 20
25.2137
 30
0.0
 10
150.424
 20
25.2137
 30
0.0
  0
SPLINE
  5
4B
330
1F
100
AcDbEntity
  8
layer 1
 62
   250
100
AcDbSpline
210
0.0
220
0.0
230
1.0
 70
    11
 71
     3
 72
    44
 73
    40
 74
     0
 42
0.0000000001
 43
0.0000000001
 12
1.0
 22
0.0
 32
0.0
 13
1.0
 23
0.0
 33
0.0
 40
0.0
 40
0.0
 40
0.0
 40
0.0
 40
0.0909090909090909
 40
0.0909090909090909
 40
0.0909090909090909
 40
0.0909090909090909
 40
0.1818181818181818
 40
0.1818181818181818
 40
0.1818181818181818
 40
0.1818181818181818
 40
0.2727272727272727
 40
0.2727272727272727
 40
0.2727272727272727
 40
0.2727272727272727
 40
0.3636363636363636
 40
0.3636363636363636
 40
0.3636363636363636
 40
0.3636363636363636
 40
0.4545454545454545
 40
0.4545454545454545
 40
0.4545454545454545
 40
0.4545454545454545
 40
0.5454545454545454
 40
0.5454545454545454
 40
0.5454545454545454
 40
0.5454545454545454
 40
0.6363636363636364
 40
0.6363636363636364
 40
0.6363636363636364
 40
0.6363636363636364
 40
0.7272727272727273
 40
0.7272727272727273
 40
0.7272727272727273
 40
0.7272727272727273
 40
0.8181818181818182
 40
0.8181818181818182
 40
0.8181818181818182
 40
0.8181818181818182
 40
1.0
 40
1.0
 40
1.0
 40
1.0
 10
140.7467
 20
-2.0958
 30
0.0
 10
140.7467
 20
-1.2581
 30
0.0
 10
140.5855
 20
-0.6934
 30
0.0
 10
140.2641
 20
-0.4003
 30
0.0
 10
140.2641
 20
-0.4003
 30
0.0
 10
139.0233
 20
-0.5386
 30
0.0
 10
135.468
 20
-1.2761
 30
0.0
 10
134.8963
 20
-2.3469
 30
0.0
 10
134.8963
 20
-2.3469
 30
0.0
 10
134.1196
 20
-3.8022
 30
0.0
 10
135.2045
 20
-9.6373
 30
0.0
 10
135.62
 20
-10.0694
 30
0.0
 10
135.62
 20
-10.0694
 30
0.0
 10
135.8211
 20
-10.2785
 30
0.0
 10
136.0421
 20
-10.3832
 30
0.0
 10
136.2834
 20
-10.3832
 30
0.0
 10
136.2834
 20
-10.3832
 30
0.0
 10
136.927
 20
-10.383
 30
0.0
 10
138.1129
 20
-9.6718
 30
0.0
 10
139.8418
 20
-8.2488
 30
0.0
 10
139.8418
 20
-8.2488
 30
0.0
 10
139.9632
 20
-8.0389
 30
0.0
 10
140.1233
 20
-7.7045
 30
0.0
 10
140.3246
 20
-7.2445
 30
0.0
 10
140.3246
 20
-7.2445
 30
0.0
 10
139.0919
 20
-7.6286
 30
0.0
 10
137.6013
 20
-7.4186
 30
0.0
 10
136.8864
 20
-6.365
 30
0.0
 10
136.8864
 20
-6.365
 30
0.0
 10
136.2457
 20
-5.4199
 30
0.0
 10
135.5892
 20
-4.0984
 30
0.0
 10
136.9167
 20
-3.822
 30
0.0
 10
136.9167
 20
-3.822
 30
0.0
 10
137.992
 20
-3.5984
 30
0.0
 10
139.84
 20
-2.821
 30
0.0
 10
140.7465
 20
-2.0957
 30
0.0
 10
140.7465
 20
-2.0957
 30
0.0
 10
140.7465
 20
-2.0957
 30
0.0
 10
140.7467
 20
-2.0958
 30
0.0
 10
140.7467
 20
-2.0958
 30
0.0
  0
SPLINE
  5
4C
330
1F
100
AcDbEntity
  8
layer 1
 62
   250
100
AcDbSpline
210
0.0
220
0.0
230
1.0
 70
    11
 71
     3
 72
    40
 73
    36
 74
     0
 42
0.0000000001
 43
0.0000000001
 12
1.0
 22
0.0
 32
0.0
 13
1.0
 23
0.0
 33
0.0
 40
0.0
 40
0.0
 40
0.0
 40
0.0
 40
0.1
 40
0.1
 40
0.1
 40
0.1
 40
0.2
 40
0.2
 40
0.2
 40
0.2
 40
0.3
 40
0.3
 40
0.3
 40
0.3
 40
0.4
 40
0.4
 40
0.4
 40
0.4
 40
0.5
 40
0.5
 40
0.5
 40
0.5
 40
0.6
 40
0.6
 40
0.6
 40
0.6
 40
0.7
 40
0.7
 40
0.7
 40
0.7
 40
0.8
 40
0.8
 40
0.8
 40
0.8
 40
1.0
 40
1.0
 40
1.0
 40
1.0
 10
145.935
 20
-10.1323
 30
0.0
 10
147.4216
 20
-11.7592
 30
0.0
 10
147.8359
 20
-12.0176
 30
0.0
 10
148.9493
 20
-10.1008
 30
0.0
 10
148.9493
 20
-10.1008
 30
0.0
 10
150.1168
 20
-8.0929
 30
0.0
 10
151.5041
 20
0.8725
 30
0.0
 10
150.4273
 20
1.7343
 30
0.0
 10
150.4273
 20
1.7343
 30
0.0
 10
150.1663
 20
1.9438
 30
0.0
 10
149.5728
 20
2.0485
 30
0.0
 10
148.6478
 20
2.0485
 30
0.0
 10
148.6478
 20
2.0485
 30
0.0
 10
146.5176
 20
2.0485
 30
0.0
 10
144.9082
 20
1.7974
 30
0.0
 10
143.8227
 20
1.2948
 30
0.0
 10
143.8227
 20
1.2948
 30
0.0
 10
144.0644
 20
0.7926
 30
0.0
 10
144.2852
 20
0.0604
 30
0.0
 10
144.4861
 20
-0.9026
 30
0.0
 10
144.4861
 20
-0.9026
 30
0.0
 10
146.7006
 20
-0.6594
 30
0.0
 10
148.2744
 20
-4.3344
 30
0.0
 10
146.7174
 20
-5.486
 30
0.0
 10
146.7174
 20
-5.486
 30
0.0
 10
144.9892
 20
-6.7835
 30
0.0
 10
144.0439
 20
-7.9557
 30
0.0
 10
143.8827
 20
-9.0021
 30
0.0
 10
143.8827
 20
-9.0021
 30
0.0
 10
144.7307
 20
-9.442
 30
0.0
 10
145.6738
 20
-8.7806
 30
0.0
 10
145.9339
 20
-10.1323
 30
0.0
 10
145.9339
 20
-10.1323
 30
0.0
 10
145.9339
 20
-10.1323
 30
0.0
 10
145.935
 20
-10.1323
 30
0.0
 10
145.935
 20
-10.1323
 30
0.0
  0
SPLINE
  5
4D
330
1F
100
AcDbEntity
  8
layer 1
 62
   250
100
AcDbSpline
210
0.0
220
0.0
230
1.0
 70
    11
 71
     3
 72
    24
 73
    20
 74
     0
 42
0.0000000001
 43
0.0000000001
 12
1.0
 22
0.0
 32
0.0
 13
1.0
 23
0.0
 33
0.0
 40
0.0
 40
0.0
 40
0.0
 40
0.0
 40
0.1666666666666667
 40
0.1666666666666667
 40
0.1666666666666667
 40
0.1666666666666667
 40
0.3333333333333333
 40
0.3333333333333333
 40
0.3333333333333333
 40
0.3333333333333333
 40
0.5
 40
0.5
 40
0.5
 40
0.5
 40
0.6666666666666666
 40
0.6666666666666666
 40
0.6666666666666666
 40
0.6666666666666666
 40
1.0
 40
1.0
 40
1.0
 40
1.0
 10
138.5759
 20
11.7179
 30
0.0
 10
139.6599
 20
10.3055
 30
0.0
 10
143.7021
 20
13.7151
 30
0.0
 10
143.7021
 20
14.7315
 30
0.0
 10
143.7021
 20
14.7315
 30
0.0
 10
143.7023
 20
14.9407
 30
0.0
 10
143.3519
 20
14.8439
 30
0.0
 10
143.2195
 20
14.7942
 30
0.0
 10
143.2195
 20
14.7942
 30
0.0
 10
141.8923
 20
14.2499
 30
0.0
 10
140.3846
 20
13.8941
 30
0.0
 10
138.6956
 20
13.7267
 30
0.0
 10
138.6956
 20
13.7267
 30
0.0
 10
138.8165
 20
13.1056
 30
0.0
 10
138.7639
 20
12.4392
 30
0.0
 10
138.575
 20
11.7177
 30
0.0
 10
138.575
 20
11.7177
 30
0.0
 10
138.575
 20
11.7177
 30
0.0
 10
138.5759
 20
11.7179
 30
0.0
 10
138.5759
 20
11.7179
 30
0.0
  0
SPLINE
  5
4E
330
1F
100
AcDbEntity
  8
layer 1
 62
   250
100
AcDbSpline
210
0.0
220
0.0
230
1.0
 70
    11
 71
     3
 72
    60
 73
    56
 74
     0
 42
0.0000000001
 43
0.0000000001
 12
1.0
 22
0.0
 32
0.0
 13
1.0
 23
0.0
 33
0.0
 40
0.0
 40
0.0
 40
0.0
 40
0.0
 40
0.0666666666666667
 40
0.0666666666666667
 40
0.0666666666666667
 40
0.0666666666666667
 40
0.1333333333333333
 40
0.1333333333333333
 40
0.1333333333333333
 40
0.1333333333333333
 40
0.2
 40
0.2
 40
0.2
 40
0.2
 40
0.2666666666666667
 40
0.2666666666666667
 40
0.2666666666666667
 40
0.2666666666666667
 40
0.3333333333333333
 40
0.3333333333333333
 40
0.3333333333333333
 40
0.3333333333333333
 40
0.4
 40
0.4
 40
0.4
 40
0.4
 40
0.4666666666666667
 40
0.4666666666666667
 40
0.4666666666666667
 40
0.4666666666666667
 40
0.5333333333333333
 40
0.5333333333333333
 40
0.5333333333333333
 40
0.5333333333333333
 40
0.6
 40
0.6
 40
0.6
 40
0.6
 40
0.6666666666666666
 40
0.6666666666666666
 40
0.6666666666666666
 40
0.6666666666666666
 40
0.7333333333333333
 40
0.7333333333333333
 40
0.7333333333333333
 40
0.7333333333333333
 40
0.8
 40
0.8
 40
0.8
 40
0.8
 40
0.8666666666666667
 40
0.8666666666666667
 40
0.8666666666666667
 40
0.8666666666666667
 40
1.0
 40
1.0
 40
1.0
 40
1.0
 10
109.399
 20
19.9832
 30
0.0
 10
108.2663
 20
22.7223
 30
0.0
 10
106.8296
 20
25.172
 30
0.0
 10
105.3615
 20
27.6113
 30
0.0
 10
105.3615
 20
27.6113
 30
0.0
 10
101.1369
 20
20.8283
 30
0.0
 10
102.3895
 20
21.4312
 30
0.0
 10
101.7774
 20
17.3013
 30
0.0
 10
101.7774
 20
17.3013
 30
0.0
 10
99.3319
 20
22.8698
 30
0.0
 10
94.9481
 20
27.9539
 30
0.0
 10
90.7805
 20
32.5564
 30
0.0
 10
90.7805
 20
32.5564
 30
0.0
 10
90.0265
 20
29.5536
 30
0.0
 10
90.1942
 20
26.07
 30
0.0
 10
90.4126
 20
23.067
 30
0.0
 10
90.4126
 20
23.067
 30
0.0
 10
84.5441
 20
31.3035
 30
0.0
 10
83.7643
 20
38.8333
 30
0.0
 10
86.409
 20
47.3058
 30
0.0
 10
86.409
 20
47.3058
 30
0.0
 10
87.2241
 20
45.7456
 30
0.0
 10
89.0722
 20
44.9585
 30
0.0
 10
91.0096
 20
44.4475
 30
0.0
 10
91.0096
 20
44.4475
 30
0.0
 10
90.1658
 20
42.9334
 30
0.0
 10
89.9966
 20
41.4391
 30
0.0
 10
90.3337
 20
40.0075
 30
0.0
 10
90.3337
 20
40.0075
 30
0.0
 10
91.0797
 20
36.8407
 30
0.0
 10
98.4602
 20
36.9464
 30
0.0
 10
100.9435
 20
37.7379
 30
0.0
 10
100.9435
 20
37.7379
 30
0.0
 10
99.7427
 20
34.0872
 30
0.0
 10
100.5618
 20
30.8677
 30
0.0
 10
104.9403
 20
30.752
 30
0.0
 10
104.9403
 20
30.752
 30
0.0
 10
110.0941
 20
30.6159
 30
0.0
 10
111.6956
 20
34.6286
 30
0.0
 10
110.8322
 20
37.8538
 30
0.0
 10
110.8322
 20
37.8538
 30
0.0
 10
113.7646
 20
35.3572
 30
0.0
 10
115.637
 20
33.6648
 30
0.0
 10
119.9515
 20
35.9996
 30
0.0
 10
119.9515
 20
35.9996
 30
0.0
 10
121.4888
 20
35.0078
 30
0.0
 10
122.8893
 20
34.3711
 30
0.0
 10
124.0414
 20
33.6994
 30
0.0
 10
124.0414
 20
33.6994
 30
0.0
 10
117.7455
 20
31.0238
 30
0.0
 10
112.5859
 20
26.074
 30
0.0
 10
109.3986
 20
19.983
 30
0.0
 10
109.3986
 20
19.983
 30
0.0
 10
109.3986
 20
19.983
 30
0.0
 10
109.399
 20
19.9832
 30
0.0
 10
109.399
 20
19.9832
 30
0.0
  0
SPLINE
  5
4F
330
1F
100
AcDbEntity
  8
layer 1
 62
   250
100
AcDbSpline
210
0.0
220
0.0
230
1.0
 70
    11
 71
     3
 72
    12
 73
     8
 74
     0
 42
0.0000000001
 43
0.0000000001
 12
1.0
 22
0.0
 32
0.0
 13
1.0
 23
0.0
 33
0.0
 40
0.0
 40
0.0
 40
0.0
 40
0.0
 40
0.3333333333333333
 40
0.3333333333333333
 40
0.3333333333333333
 40
0.3333333333333333
 40
1.0
 40
1.0
 40
1.0
 40
1.0
 10
163.1541
 20
-88.6264
 30
0.0
 10
163.8763
 20
-88.5737
 30
0.0
 10
164.5163
 20
-88.629
 30
0.0
 10
165.2387
 20
-88.5759
 30
0.0
 10
165.2387
 20
-88.5759
 30
0.0
 10
165.2387
 20
-88.5759
 30
0.0
 10
163.1541
 20
-88.6264
 30
0.0
 10
163.1541
 20
-88.6264
 30
0.0
  0
SPLINE
  5
50
330
1F
100
AcDbEntity
  8
layer 1
 62
   250
100
AcDbSpline
210
0.0
220
0.0
230
1.0
 70
    11
 71
     3
 72
    60
 73
    56
 74
     0
 42
0.0000000001
 43
0.0000000001
 12
1.0
 22
0.0
 32
0.0
 13
1.0
 23
0.0
 33
0.0
 40
0.0
 40
0.0
 40
0.0
 40
0.0
 40
0.0666666666666667
 40
0.0666666666666667
 40
0.0666666666666667
 40
0.0666666666666667
 40
0.1333333333333333
 40
0.1333333333333333
 40
0.1333333333333333
 40
0.1333333333333333
 40
0.2
 40
0.2
 40
0.2
 40
0.2
 40
0.2666666666666667
 40
0.2666666666666667
 40
0.2666666666666667
 40
0.2666666666666667
 40
0.3333333333333333
 40
0.3333333333333333
 40
0.3333333333333333
 40
0.3333333333333333
 40
0.4
 40
0.4
 40
0.4
 40
0.4
 40
0.4666666666666667
 40
0.4666666666666667
 40
0.4666666666666667
 40
0.4666666666666667
 40
0.5333333333333333
 40
0.5333333333333333
 40
0.5333333333333333
 40
0.5333333333333333
 40
0.6
 40
0.6
 40
0.6
 40
0.6
 40
0.6666666666666666
 40
0.6666666666666666
 40
0.6666666666666666
 40
0.6666666666666666
 40
0.7333333333333333
 40
0.7333333333333333
 40
0.7333333333333333
 40
0.7333333333333333
 40
0.8
 40
0.8
 40
0.8
 40
0.8
 40
0.8666666666666667
 40
0.8666666666666667
 40
0.8666666666666667
 40
0.8666666666666667
 40
1.0
 40
1.0
 40
1.0
 40
1.0
 10
159.7043
 20
-10.6548
 30
0.0
 10
160.7634
 20
-13.0165
 30
0.0
 10
162.0343
 20
-15.1785
 30
0.0
 10
163.3303
 20
-17.3322
 30
0.0
 10
163.3303
 20
-17.3322
 30
0.0
 10
167.5558
 20
-10.549
 30
0.0
 10
166.3017
 20
-11.1517
 30
0.0
 10
166.9142
 20
-7.0223
 30
0.0
 10
166.9142
 20
-7.0223
 30
0.0
 10
169.3598
 20
-12.5905
 30
0.0
 10
174.0654
 20
-17.0797
 30
0.0
 10
178.2326
 20
-21.6824
 30
0.0
 10
178.2326
 20
-21.6824
 30
0.0
 10
178.9882
 20
-18.6795
 30
0.0
 10
178.4975
 20
-15.7906
 30
0.0
 10
178.2787
 20
-12.7874
 30
0.0
 10
178.2787
 20
-12.7874
 30
0.0
 10
184.1485
 20
-21.024
 30
0.0
 10
185.2892
 20
-27.895
 30
0.0
 10
182.6448
 20
-36.3676
 30
0.0
 10
182.6448
 20
-36.3676
 30
0.0
 10
181.2437
 20
-35.0353
 30
0.0
 10
179.711
 20
-34.2938
 30
0.0
 10
178.1389
 20
-33.5703
 30
0.0
 10
178.1389
 20
-33.5703
 30
0.0
 10
178.9833
 20
-32.0562
 30
0.0
 10
178.6955
 20
-31.1599
 30
0.0
 10
178.3582
 20
-29.7284
 30
0.0
 10
178.3582
 20
-29.7284
 30
0.0
 10
177.6129
 20
-26.561
 30
0.0
 10
170.2317
 20
-26.6674
 30
0.0
 10
167.7478
 20
-27.4588
 30
0.0
 10
167.7478
 20
-27.4588
 30
0.0
 10
168.9501
 20
-23.8085
 30
0.0
 10
168.1295
 20
-20.5881
 30
0.0
 10
163.7514
 20
-20.4731
 30
0.0
 10
163.7514
 20
-20.4731
 30
0.0
 10
158.5985
 20
-20.337
 30
0.0
 10
156.9961
 20
-24.3497
 30
0.0
 10
157.8593
 20
-27.5743
 30
0.0
 10
157.8593
 20
-27.5743
 30
0.0
 10
154.9279
 20
-25.078
 30
0.0
 10
153.0543
 20
-23.3856
 30
0.0
 10
148.7399
 20
-25.7202
 30
0.0
 10
148.7399
 20
-25.7202
 30
0.0
 10
147.4496
 20
-24.8865
 30
0.0
 10
146.2529
 20
-24.3041
 30
0.0
 10
145.2205
 20
-23.7406
 30
0.0
 10
145.2205
 20
-23.7406
 30
0.0
 10
151.3071
 20
-21.2185
 30
0.0
 10
156.4056
 20
-16.5673
 30
0.0
 10
159.7034
 20
-10.6552
 30
0.0
 10
159.7034
 20
-10.6552
 30
0.0
 10
159.7034
 20
-10.6552
 30
0.0
 10
159.7043
 20
-10.6548
 30
0.0
 10
159.7043
 20
-10.6548
 30
0.0
  0
SPLINE
  5
51
330
1F
100
AcDbEntity
  8
layer 1
 62
   250
100
AcDbSpline
210
0.0
220
0.0
230
1.0
 70
    11
 71
     3
 72
    16
 73
    12
 74
     0
 42
0.0000000001
 43
0.0000000001
 12
1.0
 22
0.0
 32
0.0
 13
1.0
 23
0.0
 33
0.0
 40
0.0
 40
0.0
 40
0.0
 40
0.0
 40
0.25
 40
0.25
 40
0.25
 40
0.25
 40
0.5
 40
0.5
 40
0.5
 40
0.5
 40
1.0
 40
1.0
 40
1.0
 40
1.0
 10
185.329
 20
-59.8087
 30
0.0
 10
183.8454
 20
-56.5989
 30
0.0
 10
181.2793
 20
-53.3865
 30
0.0
 10
177.8166
 20
-50.3846
 30
0.0
 10
177.8166
 20
-50.3846
 30
0.0
 10
180.5993
 20
-47.7891
 30
0.0
 10
182.6393
 20
-44.7774
 30
0.0
 10
183.938
 20
-41.3502
 30
0.0
 10
183.938
 20
-41.3502
 30
0.0
 10
188.7421
 20
-47.3636
 30
0.0
 10
188.6877
 20
-53.5881
 30
0.0
 10
185.329
 20
-59.8087
 30
0.0
  0
SPLINE
  5
52
330
1F
100
AcDbEntity
  8
layer 1
 62
   250
100
AcDbSpline
210
0.0
220
0.0
230
1.0
 70
    11
 71
     3
 72
    20
 73
    16
 74
     0
 42
0.0000000001
 43
0.0000000001
 12
1.0
 22
0.0
 32
0.0
 13
1.0
 23
0.0
 33
0.0
 40
0.0
 40
0.0
 40
0.0
 40
0.0
 40
0.2
 40
0.2
 40
0.2
 40
0.2
 40
0.4
 40
0.4
 40
0.4
 40
0.4
 40
0.6
 40
0.6
 40
0.6
 40
0.6
 40
1.0
 40
1.0
 40
1.0
 40
1.0
 10
83.3347
 20
-59.8087
 30
0.0
 10
84.8194
 20
-56.5989
 30
0.0
 10
87.3838
 20
-53.3865
 30
0.0
 10
90.8469
 20
-50.3846
 30
0.0
 10
90.8469
 20
-50.3846
 30
0.0
 10
88.0655
 20
-47.7891
 30
0.0
 10
86.024
 20
-44.7774
 30
0.0
 10
84.7255
 20
-41.3502
 30
0.0
 10
84.7255
 20
-41.3502
 30
0.0
 10
79.9218
 20
-47.3636
 30
0.0
 10
79.9753
 20
-53.5881
 30
0.0
 10
83.3343
 20
-59.8087
 30
0.0
 10
83.3343
 20
-59.8087
 30
0.0
 10
83.3343
 20
-59.8087
 30
0.0
 10
83.3347
 20
-59.8087
 30
0.0
 10
83.3347
 20
-59.8087
 30
0.0
  0
SPLINE
  5
53
330
1F
100
AcDbEntity
  8
layer 1
 62
   250
100
AcDbSpline
210
0.0
220
0.0
230
1.0
 70
    11
 71
     3
 72
   104
 73
   100
 74
     0
 42
0.0000000001
 43
0.0000000001
 12
1.0
 22
0.0
 32
0.0
 13
1.0
 23
0.0
 33
0.0
 40
0.0
 40
0.0
 40
0.0
 40
0.0
 40
0.0384615384615385
 40
0.0384615384615385
 40
0.0384615384615385
 40
0.0384615384615385
 40
0.0769230769230769
 40
0.0769230769230769
 40
0.0769230769230769
 40
0.0769230769230769
 40
0.1153846153846154
 40
0.1153846153846154
 40
0.1153846153846154
 40
0.1153846153846154
 40
0.1538461538461539
 40
0.1538461538461539
 40
0.1538461538461539
 40
0.1538461538461539
 40
0.1923076923076923
 40
0.1923076923076923
 40
0.1923076923076923
 40
0.1923076923076923
 40
0.2307692307692308
 40
0.2307692307692308
 40
0.2307692307692308
 40
0.2307692307692308
 40
0.2692307692307692
 40
0.2692307692307692
 40
0.2692307692307692
 40
0.2692307692307692
 40
0.3076923076923077
 40
0.3076923076923077
 40
0.3076923076923077
 40
0.3076923076923077
 40
0.3461538461538461
 40
0.3461538461538461
 40
0.3461538461538461
 40
0.3461538461538461
 40
0.3846153846153846
 40
0.3846153846153846
 40
0.3846153846153846
 40
0.3846153846153846
 40
0.4230769230769231
 40
0.4230769230769231
 40
0.4230769230769231
 40
0.4230769230769231
 40
0.4615384615384616
 40
0.4615384615384616
 40
0.4615384615384616
 40
0.4615384615384616
 40
0.5
 40
0.5
 40
0.5
 40
0.5
 40
0.5384615384615384
 40
0.5384615384615384
 40
0.5384615384615384
 40
0.5384615384615384
 40
0.5769230769230769
 40
0.5769230769230769
 40
0.5769230769230769
 40
0.5769230769230769
 40
0.6153846153846154
 40
0.6153846153846154
 40
0.6153846153846154
 40
0.6153846153846154
 40
0.6538461538461539
 40
0.6538461538461539
 40
0.6538461538461539
 40
0.6538461538461539
 40
0.6923076923076923
 40
0.6923076923076923
 40
0.6923076923076923
 40
0.6923076923076923
 40
0.7307692307692307
 40
0.7307692307692307
 40
0.7307692307692307
 40
0.7307692307692307
 40
0.7692307692307693
 40
0.7692307692307693
 40
0.7692307692307693
 40
0.7692307692307693
 40
0.8076923076923077
 40
0.8076923076923077
 40
0.8076923076923077
 40
0.8076923076923077
 40
0.8461538461538461
 40
0.8461538461538461
 40
0.8461538461538461
 40
0.8461538461538461
 40
0.8846153846153846
 40
0.8846153846153846
 40
0.8846153846153846
 40
0.8846153846153846
 40
0.9230769230769231
 40
0.9230769230769231
 40
0.9230769230769231
 40
0.9230769230769231
 40
1.0
 40
1.0
 40
1.0
 40
1.0
 10
131.7916
 20
-25.6687
 30
0.0
 10
131.7916
 20
-28.6126
 30
0.0
 10
131.7909
 20
-31.293
 30
0.0
 10
131.7909
 20
-34.7147
 30
0.0
 10
131.7909
 20
-34.7147
 30
0.0
 10
124.1658
 20
-33.0642
 30
0.0
 10
126.2635
 20
-44.6726
 30
0.0
 10
122.0754
 20
-46.7785
 30
0.0
 10
122.0754
 20
-46.7785
 30
0.0
 10
124.3547
 20
-47.1441
 30
0.0
 10
126.9086
 20
-46.1766
 30
0.0
 10
128.98
 20
-45.2395
 30
0.0
 10
128.98
 20
-45.2395
 30
0.0
 10
126.0633
 20
-50.492
 30
0.0
 10
127.3217
 20
-55.3195
 30
0.0
 10
132.1912
 20
-59.1167
 30
0.0
 10
132.1912
 20
-59.1167
 30
0.0
 10
131.711
 20
-59.7284
 30
0.0
 10
131.1642
 20
-60.2857
 30
0.0
 10
130.5516
 20
-60.7885
 30
0.0
 10
130.5516
 20
-60.7885
 30
0.0
 10
129.4694
 20
-58.299
 30
0.0
 10
125.0358
 20
-57.6274
 30
0.0
 10
119.4921
 20
-58.2231
 30
0.0
 10
119.4921
 20
-58.2231
 30
0.0
 10
114.0431
 20
-58.5963
 30
0.0
 10
111.3881
 20
-56.4698
 30
0.0
 10
110.0045
 20
-53.2067
 30
0.0
 10
110.0045
 20
-53.2067
 30
0.0
 10
107.2131
 20
-59.0352
 30
0.0
 10
110.9627
 20
-61.6324
 30
0.0
 10
114.9242
 20
-64.125
 30
0.0
 10
114.9242
 20
-64.125
 30
0.0
 10
112.4529
 20
-64.3438
 30
0.0
 10
109.8659
 20
-65.6064
 30
0.0
 10
107.4867
 20
-67.0856
 30
0.0
 10
107.4867
 20
-67.0856
 30
0.0
 10
109.6206
 20
-68.7531
 30
0.0
 10
112.8733
 20
-69.4119
 30
0.0
 10
115.4738
 20
-69.9775
 30
0.0
 10
115.4738
 20
-69.9775
 30
0.0
 10
113.0875
 20
-70.9218
 30
0.0
 10
110.1203
 20
-71.6204
 30
0.0
 10
108.0139
 20
-71.3052
 30
0.0
 10
108.0139
 20
-71.3052
 30
0.0
 10
105.2063
 20
-68.7777
 30
0.0
 10
102.635
 20
-64.7162
 30
0.0
 10
101.4176
 20
-61.0868
 30
0.0
 10
101.4176
 20
-61.0868
 30
0.0
 10
103.2532
 20
-62.1139
 30
0.0
 10
105.9448
 20
-62.9523
 30
0.0
 10
107.7793
 20
-62.3542
 30
0.0
 10
107.7793
 20
-62.3542
 30
0.0
 10
105.0919
 20
-58.2757
 30
0.0
 10
102.6791
 20
-56.4413
 30
0.0
 10
100.5174
 20
-56.6494
 30
0.0
 10
100.5174
 20
-56.6494
 30
0.0
 10
100.745
 20
-55.5672
 30
0.0
 10
100.6421
 20
-54.4854
 30
0.0
 10
99.8145
 20
-53.4034
 30
0.0
 10
99.8145
 20
-53.4034
 30
0.0
 10
98.0003
 20
-52.555
 30
0.0
 10
96.39
 20
-51.4203
 30
0.0
 10
95.0121
 20
-49.9606
 30
0.0
 10
95.0121
 20
-49.9606
 30
0.0
 10
97.1986
 20
-48.0796
 30
0.0
 10
99.3852
 20
-46.5723
 30
0.0
 10
101.5715
 20
-45.7312
 30
0.0
 10
101.5715
 20
-45.7312
 30
0.0
 10
100.8633
 20
-49.855
 30
0.0
 10
102.8164
 20
-52.1279
 30
0.0
 10
107.1935
 20
-52.7148
 30
0.0
 10
107.1935
 20
-52.7148
 30
0.0
 10
112.5603
 20
-52.2527
 30
0.0
 10
114.7956
 20
-49.5441
 30
0.0
 10
113.1672
 20
-44.3542
 30
0.0
 10
113.1672
 20
-44.3542
 30
0.0
 10
117.3776
 20
-46.6114
 30
0.0
 10
120.117
 20
-46.5053
 30
0.0
 10
122.8095
 20
-43.0197
 30
0.0
 10
122.8095
 20
-43.0197
 30
0.0
 10
124.7865
 20
-38.9113
 30
0.0
 10
121.2866
 20
-37.3758
 30
0.0
 10
118.3209
 20
-36.2883
 30
0.0
 10
118.3209
 20
-36.2883
 30
0.0
 10
122.0865
 20
-34.5077
 30
0.0
 10
123.9232
 20
-31.8911
 30
0.0
 10
122.6549
 20
-27.9278
 30
0.0
 10
122.6549
 20
-27.9278
 30
0.0
 10
124.5229
 20
-26.8275
 30
0.0
 10
126.2443
 20
-25.9815
 30
0.0
 10
127.8198
 20
-24.9335
 30
0.0
 10
127.8198
 20
-24.9335
 30
0.0
 10
129.1124
 20
-25.2736
 30
0.0
 10
130.4379
 20
-25.5215
 30
0.0
 10
131.7909
 20
-25.6687
 30
0.0
 10
131.7909
 20
-25.6687
 30
0.0
 10
131.7909
 20
-25.6687
 30
0.0
 10
131.7916
 20
-25.6687
 30
0.0
 10
131.7916
 20
-25.6687
 30
0.0
  0
SPLINE
  5
54
330
1F
100
AcDbEntity
  8
layer 1
 62
   250
100
AcDbSpline
210
0.0
220
0.0
230
1.0
 70
    11
 71
     3
 72
   104
 73
   100
 74
     0
 42
0.0000000001
 43
0.0000000001
 12
1.0
 22
0.0
 32
0.0
 13
1.0
 23
0.0
 33
0.0
 40
0.0
 40
0.0
 40
0.0
 40
0.0
 40
0.0384615384615385
 40
0.0384615384615385
 40
0.0384615384615385
 40
0.0384615384615385
 40
0.0769230769230769
 40
0.0769230769230769
 40
0.0769230769230769
 40
0.0769230769230769
 40
0.1153846153846154
 40
0.1153846153846154
 40
0.1153846153846154
 40
0.1153846153846154
 40
0.1538461538461539
 40
0.1538461538461539
 40
0.1538461538461539
 40
0.1538461538461539
 40
0.1923076923076923
 40
0.1923076923076923
 40
0.1923076923076923
 40
0.1923076923076923
 40
0.2307692307692308
 40
0.2307692307692308
 40
0.2307692307692308
 40
0.2307692307692308
 40
0.2692307692307692
 40
0.2692307692307692
 40
0.2692307692307692
 40
0.2692307692307692
 40
0.3076923076923077
 40
0.3076923076923077
 40
0.3076923076923077
 40
0.3076923076923077
 40
0.3461538461538461
 40
0.3461538461538461
 40
0.3461538461538461
 40
0.3461538461538461
 40
0.3846153846153846
 40
0.3846153846153846
 40
0.3846153846153846
 40
0.3846153846153846
 40
0.4230769230769231
 40
0.4230769230769231
 40
0.4230769230769231
 40
0.4230769230769231
 40
0.4615384615384616
 40
0.4615384615384616
 40
0.4615384615384616
 40
0.4615384615384616
 40
0.5
 40
0.5
 40
0.5
 40
0.5
 40
0.5384615384615384
 40
0.5384615384615384
 40
0.5384615384615384
 40
0.5384615384615384
 40
0.5769230769230769
 40
0.5769230769230769
 40
0.5769230769230769
 40
0.5769230769230769
 40
0.6153846153846154
 40
0.6153846153846154
 40
0.6153846153846154
 40
0.6153846153846154
 40
0.6538461538461539
 40
0.6538461538461539
 40
0.6538461538461539
 40
0.6538461538461539
 40
0.6923076923076923
 40
0.6923076923076923
 40
0.6923076923076923
 40
0.6923076923076923
 40
0.7307692307692307
 40
0.7307692307692307
 40
0.7307692307692307
 40
0.7307692307692307
 40
0.7692307692307693
 40
0.7692307692307693
 40
0.7692307692307693
 40
0.7692307692307693
 40
0.8076923076923077
 40
0.8076923076923077
 40
0.8076923076923077
 40
0.8076923076923077
 40
0.8461538461538461
 40
0.8461538461538461
 40
0.8461538461538461
 40
0.8461538461538461
 40
0.8846153846153846
 40
0.8846153846153846
 40
0.8846153846153846
 40
0.8846153846153846
 40
0.9230769230769231
 40
0.9230769230769231
 40
0.9230769230769231
 40
0.9230769230769231
 40
1.0
 40
1.0
 40
1.0
 40
1.0
 10
136.6922
 20
-25.7576
 30
0.0
 10
136.6922
 20
-28.6668
 30
0.0
 10
136.6916
 20
-31.3273
 30
0.0
 10
136.6916
 20
-34.7147
 30
0.0
 10
136.6916
 20
-34.7147
 30
0.0
 10
144.3179
 20
-33.0642
 30
0.0
 10
142.2194
 20
-44.6726
 30
0.0
 10
146.4073
 20
-46.7785
 30
0.0
 10
146.4073
 20
-46.7785
 30
0.0
 10
144.1288
 20
-47.1441
 30
0.0
 10
141.5741
 20
-46.1766
 30
0.0
 10
139.5026
 20
-45.2395
 30
0.0
 10
139.5026
 20
-45.2395
 30
0.0
 10
142.4205
 20
-50.492
 30
0.0
 10
141.161
 20
-55.3195
 30
0.0
 10
136.2913
 20
-59.1167
 30
0.0
 10
136.2913
 20
-59.1167
 30
0.0
 10
136.7728
 20
-59.7284
 30
0.0
 10
137.3189
 20
-60.2857
 30
0.0
 10
137.9313
 20
-60.7885
 30
0.0
 10
137.9313
 20
-60.7885
 30
0.0
 10
139.0144
 20
-58.299
 30
0.0
 10
143.4466
 20
-57.6274
 30
0.0
 10
148.9902
 20
-58.2231
 30
0.0
 10
148.9902
 20
-58.2231
 30
0.0
 10
154.4407
 20
-58.5963
 30
0.0
 10
157.0946
 20
-56.4692
 30
0.0
 10
158.4779
 20
-53.2067
 30
0.0
 10
158.4779
 20
-53.2067
 30
0.0
 10
161.2707
 20
-59.0352
 30
0.0
 10
157.5195
 20
-61.6324
 30
0.0
 10
153.5585
 20
-64.125
 30
0.0
 10
153.5585
 20
-64.125
 30
0.0
 10
156.0309
 20
-64.3438
 30
0.0
 10
158.6166
 20
-65.6064
 30
0.0
 10
160.9957
 20
-67.0856
 30
0.0
 10
160.9957
 20
-67.0856
 30
0.0
 10
158.8631
 20
-68.7531
 30
0.0
 10
155.6092
 20
-69.4119
 30
0.0
 10
153.0089
 20
-69.9775
 30
0.0
 10
153.0089
 20
-69.9775
 30
0.0
 10
155.3963
 20
-70.9218
 30
0.0
 10
158.3622
 20
-71.6204
 30
0.0
 10
160.4693
 20
-71.3052
 30
0.0
 10
160.4693
 20
-71.3052
 30
0.0
 10
163.2775
 20
-68.7777
 30
0.0
 10
165.8473
 20
-64.7162
 30
0.0
 10
167.0651
 20
-61.0868
 30
0.0
 10
167.0651
 20
-61.0868
 30
0.0
 10
165.2297
 20
-62.1139
 30
0.0
 10
162.5379
 20
-62.9523
 30
0.0
 10
160.7033
 20
-62.3542
 30
0.0
 10
160.7033
 20
-62.3542
 30
0.0
 10
163.3919
 20
-58.2757
 30
0.0
 10
165.8036
 20
-56.4413
 30
0.0
 10
167.9655
 20
-56.6494
 30
0.0
 10
167.9655
 20
-56.6494
 30
0.0
 10
167.7388
 20
-55.5672
 30
0.0
 10
167.8401
 20
-54.485
 30
0.0
 10
168.6682
 20
-53.4034
 30
0.0
 10
168.6682
 20
-53.4034
 30
0.0
 10
170.4824
 20
-52.555
 30
0.0
 10
172.0925
 20
-51.4203
 30
0.0
 10
173.4708
 20
-49.9606
 30
0.0
 10
173.4708
 20
-49.9606
 30
0.0
 10
171.4651
 20
-48.0796
 30
0.0
 10
169.683
 20
-46.4586
 30
0.0
 10
167.5198
 20
-45.447
 30
0.0
 10
167.5198
 20
-45.447
 30
0.0
 10
168.229
 20
-49.5705
 30
0.0
 10
165.6663
 20
-52.1279
 30
0.0
 10
161.2895
 20
-52.7148
 30
0.0
 10
161.2895
 20
-52.7148
 30
0.0
 10
155.9234
 20
-52.2527
 30
0.0
 10
153.6871
 20
-49.5441
 30
0.0
 10
155.3157
 20
-44.3542
 30
0.0
 10
155.3157
 20
-44.3542
 30
0.0
 10
151.1062
 20
-46.6114
 30
0.0
 10
148.3654
 20
-46.5053
 30
0.0
 10
145.6734
 20
-43.0197
 30
0.0
 10
145.6734
 20
-43.0197
 30
0.0
 10
143.6973
 20
-38.9113
 30
0.0
 10
147.1961
 20
-37.3758
 30
0.0
 10
150.1617
 20
-36.2883
 30
0.0
 10
150.1617
 20
-36.2883
 30
0.0
 10
146.3973
 20
-34.5077
 30
0.0
 10
144.559
 20
-31.8911
 30
0.0
 10
145.8277
 20
-27.9278
 30
0.0
 10
145.8277
 20
-27.9278
 30
0.0
 10
144.4839
 20
-26.6973
 30
0.0
 10
143.139
 20
-25.7819
 30
0.0
 10
141.7944
 20
-24.903
 30
0.0
 10
141.7944
 20
-24.903
 30
0.0
 10
140.1451
 20
-25.3439
 30
0.0
 10
138.439
 20
-25.6337
 30
0.0
 10
136.6916
 20
-25.7576
 30
0.0
 10
136.6916
 20
-25.7576
 30
0.0
 10
136.6916
 20
-25.7576
 30
0.0
 10
136.6922
 20
-25.7576
 30
0.0
 10
136.6922
 20
-25.7576
 30
0.0
  0
SPLINE
  5
55
330
1F
100
AcDbEntity
  8
layer 1
 62
   250
100
AcDbSpline
210
0.0
220
0.0
230
1.0
 70
    11
 71
     3
 72
    36
 73
    32
 74
     0
 42
0.0000000001
 43
0.0000000001
 12
1.0
 22
0.0
 32
0.0
 13
1.0
 23
0.0
 33
0.0
 40
0.0
 40
0.0
 40
0.0
 40
0.0
 40
0.1111111111111111
 40
0.1111111111111111
 40
0.1111111111111111
 40
0.1111111111111111
 40
0.2222222222222222
 40
0.2222222222222222
 40
0.2222222222222222
 40
0.2222222222222222
 40
0.3333333333333333
 40
0.3333333333333333
 40
0.3333333333333333
 40
0.3333333333333333
 40
0.4444444444444444
 40
0.4444444444444444
 40
0.4444444444444444
 40
0.4444444444444444
 40
0.5555555555555556
 40
0.5555555555555556
 40
0.5555555555555556
 40
0.5555555555555556
 40
0.6666666666666666
 40
0.6666666666666666
 40
0.6666666666666666
 40
0.6666666666666666
 40
0.7777777777777778
 40
0.7777777777777778
 40
0.7777777777777778
 40
0.7777777777777778
 40
1.0
 40
1.0
 40
1.0
 40
1.0
 10
165.7339
 20
-71.5028
 30
0.0
 10
168.8197
 20
-67.0792
 30
0.0
 10
172.2414
 20
-61.445
 30
0.0
 10
172.1029
 20
-55.5628
 30
0.0
 10
172.1029
 20
-55.5628
 30
0.0
 10
173.5813
 20
-54.7665
 30
0.0
 10
174.9666
 20
-53.8687
 30
0.0
 10
176.0284
 20
-52.605
 30
0.0
 10
176.0284
 20
-52.605
 30
0.0
 10
179.4985
 20
-55.6335
 30
0.0
 10
181.7477
 20
-59.004
 30
0.0
 10
183.9578
 20
-62.3849
 30
0.0
 10
183.9578
 20
-62.3849
 30
0.0
 10
183.1313
 20
-63.8294
 30
0.0
 10
181.9224
 20
-64.873
 30
0.0
 10
180.5414
 20
-65.7339
 30
0.0
 10
180.5414
 20
-65.7339
 30
0.0
 10
180.803
 20
-63.2116
 30
0.0
 10
179.6395
 20
-61.3771
 30
0.0
 10
177.821
 20
-60.0064
 30
0.0
 10
177.821
 20
-60.0064
 30
0.0
 10
178.8093
 20
-63.5547
 30
0.0
 10
170.91
 20
-66.3024
 30
0.0
 10
173.7298
 20
-69.6525
 30
0.0
 10
173.7298
 20
-69.6525
 30
0.0
 10
171.1766
 20
-71.0863
 30
0.0
 10
168.4249
 20
-71.703
 30
0.0
 10
165.7331
 20
-71.503
 30
0.0
 10
165.7331
 20
-71.503
 30
0.0
 10
165.7331
 20
-71.503
 30
0.0
 10
165.7339
 20
-71.5028
 30
0.0
 10
165.7339
 20
-71.5028
 30
0.0
  0
SPLINE
  5
56
330
1F
100
AcDbEntity
  8
layer 1
 62
   250
100
AcDbSpline
210
0.0
220
0.0
230
1.0
 70
    11
 71
     3
 72
    28
 73
    24
 74
     0
 42
0.0000000001
 43
0.0000000001
 12
1.0
 22
0.0
 32
0.0
 13
1.0
 23
0.0
 33
0.0
 40
0.0
 40
0.0
 40
0.0
 40
0.0
 40
0.1428571428571428
 40
0.1428571428571428
 40
0.1428571428571428
 40
0.1428571428571428
 40
0.2857142857142857
 40
0.2857142857142857
 40
0.2857142857142857
 40
0.2857142857142857
 40
0.4285714285714285
 40
0.4285714285714285
 40
0.4285714285714285
 40
0.4285714285714285
 40
0.5714285714285714
 40
0.5714285714285714
 40
0.5714285714285714
 40
0.5714285714285714
 40
0.7142857142857143
 40
0.7142857142857143
 40
0.7142857142857143
 40
0.7142857142857143
 40
1.0
 40
1.0
 40
1.0
 40
1.0
 10
178.1806
 20
-86.844
 30
0.0
 10
183.7091
 20
-81.6791
 30
0.0
 10
186.8268
 20
-75.2055
 30
0.0
 10
184.6431
 20
-65.8501
 30
0.0
 10
184.6431
 20
-65.8501
 30
0.0
 10
182.1497
 20
-68.754
 30
0.0
 10
178.2935
 20
-71.0867
 30
0.0
 10
173.0786
 20
-72.8482
 30
0.0
 10
173.0786
 20
-72.8482
 30
0.0
 10
177.2748
 20
-73.9665
 30
0.0
 10
180.3348
 20
-75.4428
 30
0.0
 10
180.9013
 20
-77.7039
 30
0.0
 10
180.9013
 20
-77.7039
 30
0.0
 10
177.6705
 20
-79.5614
 30
0.0
 10
174.4391
 20
-79.3228
 30
0.0
 10
171.2076
 20
-78.1325
 30
0.0
 10
171.2076
 20
-78.1325
 30
0.0
 10
173.1347
 20
-81.2027
 30
0.0
 10
175.346
 20
-84.1549
 30
0.0
 10
178.1802
 20
-86.8442
 30
0.0
 10
178.1802
 20
-86.8442
 30
0.0
 10
178.1802
 20
-86.8442
 30
0.0
 10
178.1806
 20
-86.844
 30
0.0
 10
178.1806
 20
-86.844
 30
0.0
  0
SPLINE
  5
57
330
1F
100
AcDbEntity
  8
layer 1
 62
   250
100
AcDbSpline
210
0.0
220
0.0
230
1.0
 70
    11
 71
     3
 72
    28
 73
    24
 74
     0
 42
0.0000000001
 43
0.0000000001
 12
1.0
 22
0.0
 32
0.0
 13
1.0
 23
0.0
 33
0.0
 40
0.0
 40
0.0
 40
0.0
 40
0.0
 40
0.1428571428571428
 40
0.1428571428571428
 40
0.1428571428571428
 40
0.1428571428571428
 40
0.2857142857142857
 40
0.2857142857142857
 40
0.2857142857142857
 40
0.2857142857142857
 40
0.4285714285714285
 40
0.4285714285714285
 40
0.4285714285714285
 40
0.4285714285714285
 40
0.5714285714285714
 40
0.5714285714285714
 40
0.5714285714285714
 40
0.5714285714285714
 40
0.7142857142857143
 40
0.7142857142857143
 40
0.7142857142857143
 40
0.7142857142857143
 40
1.0
 40
1.0
 40
1.0
 40
1.0
 10
175.4171
 20
-48.2087
 30
0.0
 10
176.9754
 20
-47.2878
 30
0.0
 10
180.796
 20
-40.628
 30
0.0
 10
181.4536
 20
-38.908
 30
0.0
 10
181.4536
 20
-38.908
 30
0.0
 10
179.8981
 20
-37.4746
 30
0.0
 10
178.1826
 20
-36.3645
 30
0.0
 10
175.8875
 20
-35.5866
 30
0.0
 10
175.8875
 20
-35.5866
 30
0.0
 10
174.7439
 20
-36.0369
 30
0.0
 10
173.6411
 20
-36.5803
 30
0.0
 10
172.351
 20
-36.7233
 30
0.0
 10
172.351
 20
-36.7233
 30
0.0
 10
179.6695
 20
-37.5332
 30
0.0
 10
179.9924
 20
-46.1512
 30
0.0
 10
174.2451
 20
-46.9273
 30
0.0
 10
174.2451
 20
-46.9273
 30
0.0
 10
174.3192
 20
-47.1961
 30
0.0
 10
175.2193
 20
-48.3729
 30
0.0
 10
175.4169
 20
-48.2091
 30
0.0
 10
175.4169
 20
-48.2091
 30
0.0
 10
175.4169
 20
-48.2091
 30
0.0
 10
175.4171
 20
-48.2087
 30
0.0
 10
175.4171
 20
-48.2087
 30
0.0
  0
SPLINE
  5
58
330
1F
100
AcDbEntity
  8
layer 1
 62
   250
100
AcDbSpline
210
0.0
220
0.0
230
1.0
 70
    11
 71
     3
 72
    28
 73
    24
 74
     0
 42
0.0000000001
 43
0.0000000001
 12
1.0
 22
0.0
 32
0.0
 13
1.0
 23
0.0
 33
0.0
 40
0.0
 40
0.0
 40
0.0
 40
0.0
 40
0.1428571428571428
 40
0.1428571428571428
 40
0.1428571428571428
 40
0.1428571428571428
 40
0.2857142857142857
 40
0.2857142857142857
 40
0.2857142857142857
 40
0.2857142857142857
 40
0.4285714285714285
 40
0.4285714285714285
 40
0.4285714285714285
 40
0.4285714285714285
 40
0.5714285714285714
 40
0.5714285714285714
 40
0.5714285714285714
 40
0.5714285714285714
 40
0.7142857142857143
 40
0.7142857142857143
 40
0.7142857142857143
 40
0.7142857142857143
 40
1.0
 40
1.0
 40
1.0
 40
1.0
 10
92.993
 20
-48.2087
 30
0.0
 10
91.4348
 20
-47.2878
 30
0.0
 10
87.7358
 20
-41.0843
 30
0.0
 10
87.0785
 20
-39.3646
 30
0.0
 10
87.0785
 20
-39.3646
 30
0.0
 10
88.5031
 20
-37.9313
 30
0.0
 10
90.2294
 20
-36.7031
 30
0.0
 10
92.6273
 20
-35.9249
 30
0.0
 10
92.6273
 20
-35.9249
 30
0.0
 10
93.7709
 20
-36.3753
 30
0.0
 10
94.7686
 20
-36.5803
 30
0.0
 10
96.0581
 20
-36.7233
 30
0.0
 10
96.0581
 20
-36.7233
 30
0.0
 10
88.7407
 20
-37.5332
 30
0.0
 10
88.4169
 20
-46.1512
 30
0.0
 10
94.1644
 20
-46.9273
 30
0.0
 10
94.1644
 20
-46.9273
 30
0.0
 10
94.1268
 20
-47.1961
 30
0.0
 10
93.19
 20
-48.3729
 30
0.0
 10
92.9922
 20
-48.2091
 30
0.0
 10
92.9922
 20
-48.2091
 30
0.0
 10
92.9922
 20
-48.2091
 30
0.0
 10
92.993
 20
-48.2087
 30
0.0
 10
92.993
 20
-48.2087
 30
0.0
  0
SPLINE
  5
59
330
1F
100
AcDbEntity
  8
layer 1
 62
   250
100
AcDbSpline
210
0.0
220
0.0
230
1.0
 70
    11
 71
     3
 72
    28
 73
    24
 74
     0
 42
0.0000000001
 43
0.0000000001
 12
1.0
 22
0.0
 32
0.0
 13
1.0
 23
0.0
 33
0.0
 40
0.0
 40
0.0
 40
0.0
 40
0.0
 40
0.1428571428571428
 40
0.1428571428571428
 40
0.1428571428571428
 40
0.1428571428571428
 40
0.2857142857142857
 40
0.2857142857142857
 40
0.2857142857142857
 40
0.2857142857142857
 40
0.4285714285714285
 40
0.4285714285714285
 40
0.4285714285714285
 40
0.4285714285714285
 40
0.5714285714285714
 40
0.5714285714285714
 40
0.5714285714285714
 40
0.5714285714285714
 40
0.7142857142857143
 40
0.7142857142857143
 40
0.7142857142857143
 40
0.7142857142857143
 40
1.0
 40
1.0
 40
1.0
 40
1.0
 10
93.4287
 20
58.4885
 30
0.0
 10
91.8704
 20
57.5672
 30
0.0
 10
88.1712
 20
51.3638
 30
0.0
 10
87.5141
 20
49.6438
 30
0.0
 10
87.5141
 20
49.6438
 30
0.0
 10
88.9386
 20
48.2109
 30
0.0
 10
90.6654
 20
46.9824
 30
0.0
 10
93.0625
 20
46.2043
 30
0.0
 10
93.0625
 20
46.2043
 30
0.0
 10
94.2074
 20
46.6546
 30
0.0
 10
95.2043
 20
46.8597
 30
0.0
 10
96.494
 20
47.0028
 30
0.0
 10
96.494
 20
47.0028
 30
0.0
 10
89.1764
 20
47.813
 30
0.0
 10
88.8521
 20
56.4309
 30
0.0
 10
94.5998
 20
57.2067
 30
0.0
 10
94.5998
 20
57.2067
 30
0.0
 10
94.5625
 20
57.4754
 30
0.0
 10
93.6257
 20
58.6518
 30
0.0
 10
93.4276
 20
58.4883
 30
0.0
 10
93.4276
 20
58.4883
 30
0.0
 10
93.4276
 20
58.4883
 30
0.0
 10
93.4287
 20
58.4885
 30
0.0
 10
93.4287
 20
58.4885
 30
0.0
  0
SPLINE
  5
5A
330
1F
100
AcDbEntity
  8
layer 1
 62
   250
100
AcDbSpline
210
0.0
220
0.0
230
1.0
 70
    11
 71
     3
 72
   104
 73
   100
 74
     0
 42
0.0000000001
 43
0.0000000001
 12
1.0
 22
0.0
 32
0.0
 13
1.0
 23
0.0
 33
0.0
 40
0.0
 40
0.0
 40
0.0
 40
0.0
 40
0.0384615384615385
 40
0.0384615384615385
 40
0.0384615384615385
 40
0.0384615384615385
 40
0.0769230769230769
 40
0.0769230769230769
 40
0.0769230769230769
 40
0.0769230769230769
 40
0.1153846153846154
 40
0.1153846153846154
 40
0.1153846153846154
 40
0.1153846153846154
 40
0.1538461538461539
 40
0.1538461538461539
 40
0.1538461538461539
 40
0.1538461538461539
 40
0.1923076923076923
 40
0.1923076923076923
 40
0.1923076923076923
 40
0.1923076923076923
 40
0.2307692307692308
 40
0.2307692307692308
 40
0.2307692307692308
 40
0.2307692307692308
 40
0.2692307692307692
 40
0.2692307692307692
 40
0.2692307692307692
 40
0.2692307692307692
 40
0.3076923076923077
 40
0.3076923076923077
 40
0.3076923076923077
 40
0.3076923076923077
 40
0.3461538461538461
 40
0.3461538461538461
 40
0.3461538461538461
 40
0.3461538461538461
 40
0.3846153846153846
 40
0.3846153846153846
 40
0.3846153846153846
 40
0.3846153846153846
 40
0.4230769230769231
 40
0.4230769230769231
 40
0.4230769230769231
 40
0.4230769230769231
 40
0.4615384615384616
 40
0.4615384615384616
 40
0.4615384615384616
 40
0.4615384615384616
 40
0.5
 40
0.5
 40
0.5
 40
0.5
 40
0.5384615384615384
 40
0.5384615384615384
 40
0.5384615384615384
 40
0.5384615384615384
 40
0.5769230769230769
 40
0.5769230769230769
 40
0.5769230769230769
 40
0.5769230769230769
 40
0.6153846153846154
 40
0.6153846153846154
 40
0.6153846153846154
 40
0.6153846153846154
 40
0.6538461538461539
 40
0.6538461538461539
 40
0.6538461538461539
 40
0.6538461538461539
 40
0.6923076923076923
 40
0.6923076923076923
 40
0.6923076923076923
 40
0.6923076923076923
 40
0.7307692307692307
 40
0.7307692307692307
 40
0.7307692307692307
 40
0.7307692307692307
 40
0.7692307692307693
 40
0.7692307692307693
 40
0.7692307692307693
 40
0.7692307692307693
 40
0.8076923076923077
 40
0.8076923076923077
 40
0.8076923076923077
 40
0.8076923076923077
 40
0.8461538461538461
 40
0.8461538461538461
 40
0.8461538461538461
 40
0.8461538461538461
 40
0.8846153846153846
 40
0.8846153846153846
 40
0.8846153846153846
 40
0.8846153846153846
 40
0.9230769230769231
 40
0.9230769230769231
 40
0.9230769230769231
 40
0.9230769230769231
 40
1.0
 40
1.0
 40
1.0
 40
1.0
 10
132.227
 20
35.7673
 30
0.0
 10
132.227
 20
38.7826
 30
0.0
 10
132.2268
 20
41.5019
 30
0.0
 10
132.2268
 20
44.9941
 30
0.0
 10
132.2268
 20
44.9941
 30
0.0
 10
124.6015
 20
43.3432
 30
0.0
 10
126.6994
 20
54.952
 30
0.0
 10
122.5106
 20
57.058
 30
0.0
 10
122.5106
 20
57.058
 30
0.0
 10
124.7895
 20
57.423
 30
0.0
 10
127.3442
 20
56.456
 30
0.0
 10
129.4153
 20
55.5189
 30
0.0
 10
129.4153
 20
55.5189
 30
0.0
 10
126.4989
 20
60.7713
 30
0.0
 10
127.7576
 20
65.5986
 30
0.0
 10
132.6268
 20
69.3956
 30
0.0
 10
132.6268
 20
69.3956
 30
0.0
 10
132.1466
 20
70.0084
 30
0.0
 10
131.5996
 20
70.5652
 30
0.0
 10
130.9866
 20
71.0682
 30
0.0
 10
130.9866
 20
71.0682
 30
0.0
 10
129.9051
 20
68.5786
 30
0.0
 10
125.4713
 20
67.9069
 30
0.0
 10
119.9279
 20
68.5022
 30
0.0
 10
119.9279
 20
68.5022
 30
0.0
 10
114.4787
 20
68.8752
 30
0.0
 10
111.824
 20
66.7487
 30
0.0
 10
110.4406
 20
63.4856
 30
0.0
 10
110.4406
 20
63.4856
 30
0.0
 10
107.6488
 20
69.3143
 30
0.0
 10
111.3984
 20
71.9112
 30
0.0
 10
115.3601
 20
74.4039
 30
0.0
 10
115.3601
 20
74.4039
 30
0.0
 10
112.8875
 20
74.6234
 30
0.0
 10
110.3015
 20
75.8859
 30
0.0
 10
107.9226
 20
77.3645
 30
0.0
 10
107.9226
 20
77.3645
 30
0.0
 10
110.0563
 20
79.0329
 30
0.0
 10
113.3087
 20
79.6914
 30
0.0
 10
115.909
 20
80.2564
 30
0.0
 10
115.909
 20
80.2564
 30
0.0
 10
113.5229
 20
81.2011
 30
0.0
 10
110.5557
 20
81.8994
 30
0.0
 10
108.4489
 20
81.5845
 30
0.0
 10
108.4489
 20
81.5845
 30
0.0
 10
105.6417
 20
79.0569
 30
0.0
 10
103.0706
 20
74.9956
 30
0.0
 10
101.8532
 20
71.3657
 30
0.0
 10
101.8532
 20
71.3657
 30
0.0
 10
103.6897
 20
72.3935
 30
0.0
 10
106.3807
 20
73.2314
 30
0.0
 10
108.215
 20
72.6337
 30
0.0
 10
108.215
 20
72.6337
 30
0.0
 10
105.5275
 20
68.5549
 30
0.0
 10
103.1145
 20
66.7204
 30
0.0
 10
100.9526
 20
66.9288
 30
0.0
 10
100.9526
 20
66.9288
 30
0.0
 10
101.1806
 20
65.8465
 30
0.0
 10
101.078
 20
64.7645
 30
0.0
 10
100.2499
 20
63.6829
 30
0.0
 10
100.2499
 20
63.6829
 30
0.0
 10
98.4359
 20
62.8345
 30
0.0
 10
96.8259
 20
61.6994
 30
0.0
 10
95.448
 20
60.2404
 30
0.0
 10
95.448
 20
60.2404
 30
0.0
 10
97.6343
 20
58.3592
 30
0.0
 10
99.821
 20
56.8516
 30
0.0
 10
102.0069
 20
56.0103
 30
0.0
 10
102.0069
 20
56.0103
 30
0.0
 10
101.299
 20
60.1348
 30
0.0
 10
103.2523
 20
62.4068
 30
0.0
 10
107.6293
 20
62.9942
 30
0.0
 10
107.6293
 20
62.9942
 30
0.0
 10
112.996
 20
62.5318
 30
0.0
 10
115.2312
 20
59.8234
 30
0.0
 10
113.6031
 20
54.6336
 30
0.0
 10
113.6031
 20
54.6336
 30
0.0
 10
117.8132
 20
56.8901
 30
0.0
 10
120.5525
 20
56.7844
 30
0.0
 10
123.245
 20
53.2991
 30
0.0
 10
123.245
 20
53.2991
 30
0.0
 10
125.2221
 20
49.1908
 30
0.0
 10
121.7225
 20
47.6552
 30
0.0
 10
118.7568
 20
46.5681
 30
0.0
 10
118.7568
 20
46.5681
 30
0.0
 10
122.522
 20
44.7872
 30
0.0
 10
124.3593
 20
42.1704
 30
0.0
 10
123.0902
 20
38.2073
 30
0.0
 10
123.0902
 20
38.2073
 30
0.0
 10
124.5716
 20
36.8522
 30
0.0
 10
126.0519
 20
35.8786
 30
0.0
 10
127.5327
 20
34.9156
 30
0.0
 10
127.5327
 20
34.9156
 30
0.0
 10
129.0536
 20
35.3323
 30
0.0
 10
130.6217
 20
35.6184
 30
0.0
 10
132.2268
 20
35.7669
 30
0.0
 10
132.2268
 20
35.7669
 30
0.0
 10
132.2268
 20
35.7669
 30
0.0
 10
132.227
 20
35.7673
 30
0.0
 10
132.227
 20
35.7673
 30
0.0
  0
SPLINE
  5
5B
330
1F
100
AcDbEntity
  8
layer 1
 62
   250
100
AcDbSpline
210
0.0
220
0.0
230
1.0
 70
    11
 71
     3
 72
   104
 73
   100
 74
     0
 42
0.0000000001
 43
0.0000000001
 12
1.0
 22
0.0
 32
0.0
 13
1.0
 23
0.0
 33
0.0
 40
0.0
 40
0.0
 40
0.0
 40
0.0
 40
0.0384615384615385
 40
0.0384615384615385
 40
0.0384615384615385
 40
0.0384615384615385
 40
0.0769230769230769
 40
0.0769230769230769
 40
0.0769230769230769
 40
0.0769230769230769
 40
0.1153846153846154
 40
0.1153846153846154
 40
0.1153846153846154
 40
0.1153846153846154
 40
0.1538461538461539
 40
0.1538461538461539
 40
0.1538461538461539
 40
0.1538461538461539
 40
0.1923076923076923
 40
0.1923076923076923
 40
0.1923076923076923
 40
0.1923076923076923
 40
0.2307692307692308
 40
0.2307692307692308
 40
0.2307692307692308
 40
0.2307692307692308
 40
0.2692307692307692
 40
0.2692307692307692
 40
0.2692307692307692
 40
0.2692307692307692
 40
0.3076923076923077
 40
0.3076923076923077
 40
0.3076923076923077
 40
0.3076923076923077
 40
0.3461538461538461
 40
0.3461538461538461
 40
0.3461538461538461
 40
0.3461538461538461
 40
0.3846153846153846
 40
0.3846153846153846
 40
0.3846153846153846
 40
0.3846153846153846
 40
0.4230769230769231
 40
0.4230769230769231
 40
0.4230769230769231
 40
0.4230769230769231
 40
0.4615384615384616
 40
0.4615384615384616
 40
0.4615384615384616
 40
0.4615384615384616
 40
0.5
 40
0.5
 40
0.5
 40
0.5
 40
0.5384615384615384
 40
0.5384615384615384
 40
0.5384615384615384
 40
0.5384615384615384
 40
0.5769230769230769
 40
0.5769230769230769
 40
0.5769230769230769
 40
0.5769230769230769
 40
0.6153846153846154
 40
0.6153846153846154
 40
0.6153846153846154
 40
0.6153846153846154
 40
0.6538461538461539
 40
0.6538461538461539
 40
0.6538461538461539
 40
0.6538461538461539
 40
0.6923076923076923
 40
0.6923076923076923
 40
0.6923076923076923
 40
0.6923076923076923
 40
0.7307692307692307
 40
0.7307692307692307
 40
0.7307692307692307
 40
0.7307692307692307
 40
0.7692307692307693
 40
0.7692307692307693
 40
0.7692307692307693
 40
0.7692307692307693
 40
0.8076923076923077
 40
0.8076923076923077
 40
0.8076923076923077
 40
0.8076923076923077
 40
0.8461538461538461
 40
0.8461538461538461
 40
0.8461538461538461
 40
0.8461538461538461
 40
0.8846153846153846
 40
0.8846153846153846
 40
0.8846153846153846
 40
0.8846153846153846
 40
0.9230769230769231
 40
0.9230769230769231
 40
0.9230769230769231
 40
0.9230769230769231
 40
1.0
 40
1.0
 40
1.0
 40
1.0
 10
137.1279
 20
35.7807
 30
0.0
 10
137.1279
 20
38.7903
 30
0.0
 10
137.1274
 20
41.5076
 30
0.0
 10
137.1274
 20
44.9941
 30
0.0
 10
137.1274
 20
44.9941
 30
0.0
 10
144.7534
 20
43.3432
 30
0.0
 10
142.6548
 20
54.952
 30
0.0
 10
146.8429
 20
57.058
 30
0.0
 10
146.8429
 20
57.058
 30
0.0
 10
144.5645
 20
57.423
 30
0.0
 10
142.0098
 20
56.456
 30
0.0
 10
139.9383
 20
55.5189
 30
0.0
 10
139.9383
 20
55.5189
 30
0.0
 10
142.8559
 20
60.7713
 30
0.0
 10
141.5966
 20
65.5986
 30
0.0
 10
136.7272
 20
69.3956
 30
0.0
 10
136.7272
 20
69.3956
 30
0.0
 10
137.2084
 20
70.0084
 30
0.0
 10
137.7544
 20
70.5652
 30
0.0
 10
138.3669
 20
71.0682
 30
0.0
 10
138.3669
 20
71.0682
 30
0.0
 10
139.45
 20
68.5786
 30
0.0
 10
143.8825
 20
67.9069
 30
0.0
 10
149.4261
 20
68.5022
 30
0.0
 10
149.4261
 20
68.5022
 30
0.0
 10
154.8761
 20
68.8752
 30
0.0
 10
157.53
 20
66.7487
 30
0.0
 10
158.9131
 20
63.4856
 30
0.0
 10
158.9131
 20
63.4856
 30
0.0
 10
161.7063
 20
69.3143
 30
0.0
 10
157.9552
 20
71.9112
 30
0.0
 10
153.9939
 20
74.4039
 30
0.0
 10
153.9939
 20
74.4039
 30
0.0
 10
156.4663
 20
74.6234
 30
0.0
 10
159.0525
 20
75.8859
 30
0.0
 10
161.4316
 20
77.3645
 30
0.0
 10
161.4316
 20
77.3645
 30
0.0
 10
159.2986
 20
79.0329
 30
0.0
 10
156.0451
 20
79.6914
 30
0.0
 10
153.4443
 20
80.2564
 30
0.0
 10
153.4443
 20
80.2564
 30
0.0
 10
155.8319
 20
81.2011
 30
0.0
 10
158.9935
 20
82.1551
 30
0.0
 10
161.0997
 20
81.8399
 30
0.0
 10
161.0997
 20
81.8399
 30
0.0
 10
163.9079
 20
79.3127
 30
0.0
 10
166.2834
 20
74.9956
 30
0.0
 10
167.5001
 20
71.3657
 30
0.0
 10
167.5001
 20
71.3657
 30
0.0
 10
165.6652
 20
72.3935
 30
0.0
 10
162.9733
 20
73.2314
 30
0.0
 10
161.1388
 20
72.6337
 30
0.0
 10
161.1388
 20
72.6337
 30
0.0
 10
163.8276
 20
68.5549
 30
0.0
 10
166.2395
 20
66.7204
 30
0.0
 10
168.4009
 20
66.9288
 30
0.0
 10
168.4009
 20
66.9288
 30
0.0
 10
168.1742
 20
65.8465
 30
0.0
 10
168.276
 20
64.7645
 30
0.0
 10
169.1038
 20
63.6829
 30
0.0
 10
169.1038
 20
63.6829
 30
0.0
 10
170.9181
 20
62.8345
 30
0.0
 10
172.5281
 20
61.6994
 30
0.0
 10
173.9065
 20
60.2404
 30
0.0
 10
173.9065
 20
60.2404
 30
0.0
 10
171.7206
 20
58.3592
 30
0.0
 10
169.5327
 20
56.8516
 30
0.0
 10
167.3468
 20
56.0107
 30
0.0
 10
167.3468
 20
56.0107
 30
0.0
 10
168.0559
 20
60.1348
 30
0.0
 10
166.1019
 20
62.4068
 30
0.0
 10
161.7244
 20
62.9942
 30
0.0
 10
161.7244
 20
62.9942
 30
0.0
 10
156.3589
 20
62.5318
 30
0.0
 10
154.1225
 20
59.8234
 30
0.0
 10
155.7511
 20
54.6336
 30
0.0
 10
155.7511
 20
54.6336
 30
0.0
 10
151.5418
 20
56.8901
 30
0.0
 10
148.8011
 20
56.7844
 30
0.0
 10
146.1088
 20
53.2991
 30
0.0
 10
146.1088
 20
53.2991
 30
0.0
 10
144.133
 20
49.1908
 30
0.0
 10
147.6313
 20
47.6552
 30
0.0
 10
150.597
 20
46.5681
 30
0.0
 10
150.597
 20
46.5681
 30
0.0
 10
146.8329
 20
44.7872
 30
0.0
 10
145.0855
 20
42.2339
 30
0.0
 10
146.3534
 20
38.2705
 30
0.0
 10
146.3534
 20
38.2705
 30
0.0
 10
144.8698
 20
36.9125
 30
0.0
 10
143.3647
 20
35.9227
 30
0.0
 10
141.8593
 20
34.9428
 30
0.0
 10
141.8593
 20
34.9428
 30
0.0
 10
140.3261
 20
35.3567
 30
0.0
 10
138.7453
 20
35.6395
 30
0.0
 10
137.1274
 20
35.7803
 30
0.0
 10
137.1274
 20
35.7803
 30
0.0
 10
137.1274
 20
35.7803
 30
0.0
 10
137.1279
 20
35.7807
 30
0.0
 10
137.1279
 20
35.7807
 30
0.0
  0
SPLINE
  5
5C
330
1F
100
AcDbEntity
  8
layer 1
 62
   250
100
AcDbSpline
210
0.0
220
0.0
230
1.0
 70
    11
 71
     3
 72
    60
 73
    56
 74
     0
 42
0.0000000001
 43
0.0000000001
 12
1.0
 22
0.0
 32
0.0
 13
1.0
 23
0.0
 33
0.0
 40
0.0
 40
0.0
 40
0.0
 40
0.0
 40
0.0666666666666667
 40
0.0666666666666667
 40
0.0666666666666667
 40
0.0666666666666667
 40
0.1333333333333333
 40
0.1333333333333333
 40
0.1333333333333333
 40
0.1333333333333333
 40
0.2
 40
0.2
 40
0.2
 40
0.2
 40
0.2666666666666667
 40
0.2666666666666667
 40
0.2666666666666667
 40
0.2666666666666667
 40
0.3333333333333333
 40
0.3333333333333333
 40
0.3333333333333333
 40
0.3333333333333333
 40
0.4
 40
0.4
 40
0.4
 40
0.4
 40
0.4666666666666667
 40
0.4666666666666667
 40
0.4666666666666667
 40
0.4666666666666667
 40
0.5333333333333333
 40
0.5333333333333333
 40
0.5333333333333333
 40
0.5333333333333333
 40
0.6
 40
0.6
 40
0.6
 40
0.6
 40
0.6666666666666666
 40
0.6666666666666666
 40
0.6666666666666666
 40
0.6666666666666666
 40
0.7333333333333333
 40
0.7333333333333333
 40
0.7333333333333333
 40
0.7333333333333333
 40
0.8
 40
0.8
 40
0.8
 40
0.8
 40
0.8666666666666667
 40
0.8666666666666667
 40
0.8666666666666667
 40
0.8666666666666667
 40
1.0
 40
1.0
 40
1.0
 40
1.0
 10
159.8934
 20
20.3723
 30
0.0
 10
160.9981
 20
22.9552
 30
0.0
 10
162.3673
 20
25.2879
 30
0.0
 10
163.7658
 20
27.6113
 30
0.0
 10
163.7658
 20
27.6113
 30
0.0
 10
167.9923
 20
20.8283
 30
0.0
 10
166.7376
 20
21.4312
 30
0.0
 10
167.3501
 20
17.3013
 30
0.0
 10
167.3501
 20
17.3013
 30
0.0
 10
169.7954
 20
22.8698
 30
0.0
 10
174.179
 20
27.9539
 30
0.0
 10
178.3466
 20
32.5564
 30
0.0
 10
178.3466
 20
32.5564
 30
0.0
 10
179.1015
 20
29.5536
 30
0.0
 10
178.9331
 20
26.07
 30
0.0
 10
178.7141
 20
23.067
 30
0.0
 10
178.7141
 20
23.067
 30
0.0
 10
184.5841
 20
31.3035
 30
0.0
 10
185.4133
 20
38.6622
 30
0.0
 10
182.7695
 20
47.1348
 30
0.0
 10
182.7695
 20
47.1348
 30
0.0
 10
181.8126
 20
45.5917
 30
0.0
 10
180.2228
 20
44.8559
 30
0.0
 10
178.3466
 20
44.2767
 30
0.0
 10
178.3466
 20
44.2767
 30
0.0
 10
179.191
 20
42.7624
 30
0.0
 10
179.131
 20
41.4391
 30
0.0
 10
178.7934
 20
40.0075
 30
0.0
 10
178.7934
 20
40.0075
 30
0.0
 10
178.0485
 20
36.8407
 30
0.0
 10
170.6669
 20
36.9464
 30
0.0
 10
168.1834
 20
37.7379
 30
0.0
 10
168.1834
 20
37.7379
 30
0.0
 10
169.3855
 20
34.0872
 30
0.0
 10
168.5653
 20
30.8677
 30
0.0
 10
164.1868
 20
30.752
 30
0.0
 10
164.1868
 20
30.752
 30
0.0
 10
159.0341
 20
30.6159
 30
0.0
 10
157.4313
 20
34.6286
 30
0.0
 10
158.2949
 20
37.8538
 30
0.0
 10
158.2949
 20
37.8538
 30
0.0
 10
155.3635
 20
35.3572
 30
0.0
 10
153.4901
 20
33.6648
 30
0.0
 10
149.1754
 20
35.9996
 30
0.0
 10
149.1754
 20
35.9996
 30
0.0
 10
147.7081
 20
35.0519
 30
0.0
 10
146.363
 20
34.4286
 30
0.0
 10
145.241
 20
33.7886
 30
0.0
 10
145.241
 20
33.7886
 30
0.0
 10
151.4851
 20
31.1966
 30
0.0
 10
156.6622
 20
26.3352
 30
0.0
 10
159.8925
 20
20.3721
 30
0.0
 10
159.8925
 20
20.3721
 30
0.0
 10
159.8925
 20
20.3721
 30
0.0
 10
159.8934
 20
20.3723
 30
0.0
 10
159.8934
 20
20.3723
 30
0.0
  0
SPLINE
  5
5D
330
1F
100
AcDbEntity
  8
layer 1
 62
   250
100
AcDbSpline
210
0.0
220
0.0
230
1.0
 70
    11
 71
     3
 72
    36
 73
    32
 74
     0
 42
0.0000000001
 43
0.0000000001
 12
1.0
 22
0.0
 32
0.0
 13
1.0
 23
0.0
 33
0.0
 40
0.0
 40
0.0
 40
0.0
 40
0.0
 40
0.1111111111111111
 40
0.1111111111111111
 40
0.1111111111111111
 40
0.1111111111111111
 40
0.2222222222222222
 40
0.2222222222222222
 40
0.2222222222222222
 40
0.2222222222222222
 40
0.3333333333333333
 40
0.3333333333333333
 40
0.3333333333333333
 40
0.3333333333333333
 40
0.4444444444444444
 40
0.4444444444444444
 40
0.4444444444444444
 40
0.4444444444444444
 40
0.5555555555555556
 40
0.5555555555555556
 40
0.5555555555555556
 40
0.5555555555555556
 40
0.6666666666666666
 40
0.6666666666666666
 40
0.6666666666666666
 40
0.6666666666666666
 40
0.7777777777777778
 40
0.7777777777777778
 40
0.7777777777777778
 40
0.7777777777777778
 40
1.0
 40
1.0
 40
1.0
 40
1.0
 10
166.1694
 20
81.7821
 30
0.0
 10
169.2543
 20
77.3588
 30
0.0
 10
172.6768
 20
71.7247
 30
0.0
 10
172.5384
 20
65.8419
 30
0.0
 10
172.5384
 20
65.8419
 30
0.0
 10
174.0167
 20
65.0464
 30
0.0
 10
175.5669
 20
63.9473
 30
0.0
 10
176.6291
 20
62.6839
 30
0.0
 10
176.6291
 20
62.6839
 30
0.0
 10
180.099
 20
65.7126
 30
0.0
 10
182.1831
 20
69.283
 30
0.0
 10
184.3933
 20
72.6643
 30
0.0
 10
184.3933
 20
72.6643
 30
0.0
 10
183.5667
 20
74.1092
 30
0.0
 10
182.3583
 20
75.1523
 30
0.0
 10
180.9764
 20
76.0133
 30
0.0
 10
180.9764
 20
76.0133
 30
0.0
 10
181.2387
 20
73.4907
 30
0.0
 10
180.0752
 20
71.6565
 30
0.0
 10
178.2564
 20
70.2861
 30
0.0
 10
178.2564
 20
70.2861
 30
0.0
 10
179.2447
 20
73.8339
 30
0.0
 10
171.3454
 20
76.5815
 30
0.0
 10
174.1657
 20
79.932
 30
0.0
 10
174.1657
 20
79.932
 30
0.0
 10
171.6123
 20
81.3656
 30
0.0
 10
168.8606
 20
81.9821
 30
0.0
 10
166.1692
 20
81.7819
 30
0.0
 10
166.1692
 20
81.7819
 30
0.0
 10
166.1692
 20
81.7819
 30
0.0
 10
166.1694
 20
81.7821
 30
0.0
 10
166.1694
 20
81.7821
 30
0.0
  0
SPLINE
  5
5E
330
1F
100
AcDbEntity
  8
layer 1
 62
   250
100
AcDbSpline
210
0.0
220
0.0
230
1.0
 70
    11
 71
     3
 72
    28
 73
    24
 74
     0
 42
0.0000000001
 43
0.0000000001
 12
1.0
 22
0.0
 32
0.0
 13
1.0
 23
0.0
 33
0.0
 40
0.0
 40
0.0
 40
0.0
 40
0.0
 40
0.1428571428571428
 40
0.1428571428571428
 40
0.1428571428571428
 40
0.1428571428571428
 40
0.2857142857142857
 40
0.2857142857142857
 40
0.2857142857142857
 40
0.2857142857142857
 40
0.4285714285714285
 40
0.4285714285714285
 40
0.4285714285714285
 40
0.4285714285714285
 40
0.5714285714285714
 40
0.5714285714285714
 40
0.5714285714285714
 40
0.5714285714285714
 40
0.7142857142857143
 40
0.7142857142857143
 40
0.7142857142857143
 40
0.7142857142857143
 40
1.0
 40
1.0
 40
1.0
 40
1.0
 10
178.6163
 20
97.1238
 30
0.0
 10
184.1445
 20
91.9587
 30
0.0
 10
187.2618
 20
85.4849
 30
0.0
 10
185.0785
 20
76.1292
 30
0.0
 10
185.0785
 20
76.1292
 30
0.0
 10
182.5843
 20
79.0338
 30
0.0
 10
178.7296
 20
81.366
 30
0.0
 10
173.5136
 20
83.1276
 30
0.0
 10
173.5136
 20
83.1276
 30
0.0
 10
177.7102
 20
84.2459
 30
0.0
 10
180.7705
 20
85.722
 30
0.0
 10
181.3369
 20
87.9833
 30
0.0
 10
181.3369
 20
87.9833
 30
0.0
 10
178.1062
 20
89.8404
 30
0.0
 10
174.8743
 20
89.6021
 30
0.0
 10
171.643
 20
88.4119
 30
0.0
 10
171.643
 20
88.4119
 30
0.0
 10
173.5713
 20
91.4825
 30
0.0
 10
175.7816
 20
94.4337
 30
0.0
 10
178.6158
 20
97.1235
 30
0.0
 10
178.6158
 20
97.1235
 30
0.0
 10
178.6158
 20
97.1235
 30
0.0
 10
178.6163
 20
97.1238
 30
0.0
 10
178.6163
 20
97.1238
 30
0.0
  0
SPLINE
  5
5F
330
1F
100
AcDbEntity
  8
layer 1
 62
   250
100
AcDbSpline
210
0.0
220
0.0
230
1.0
 70
    11
 71
     3
 72
    76
 73
    72
 74
     0
 42
0.0000000001
 43
0.0000000001
 12
1.0
 22
0.0
 32
0.0
 13
1.0
 23
0.0
 33
0.0
 40
0.0
 40
0.0
 40
0.0
 40
0.0
 40
0.0526315789473684
 40
0.0526315789473684
 40
0.0526315789473684
 40
0.0526315789473684
 40
0.1052631578947368
 40
0.1052631578947368
 40
0.1052631578947368
 40
0.1052631578947368
 40
0.1578947368421053
 40
0.1578947368421053
 40
0.1578947368421053
 40
0.1578947368421053
 40
0.2105263157894737
 40
0.2105263157894737
 40
0.2105263157894737
 40
0.2105263157894737
 40
0.2631578947368421
 40
0.2631578947368421
 40
0.2631578947368421
 40
0.2631578947368421
 40
0.3157894736842105
 40
0.3157894736842105
 40
0.3157894736842105
 40
0.3157894736842105
 40
0.3684210526315789
 40
0.3684210526315789
 40
0.3684210526315789
 40
0.3684210526315789
 40
0.4210526315789473
 40
0.4210526315789473
 40
0.4210526315789473
 40
0.4210526315789473
 40
0.4736842105263158
 40
0.4736842105263158
 40
0.4736842105263158
 40
0.4736842105263158
 40
0.5263157894736842
 40
0.5263157894736842
 40
0.5263157894736842
 40
0.5263157894736842
 40
0.5789473684210527
 40
0.5789473684210527
 40
0.5789473684210527
 40
0.5789473684210527
 40
0.631578947368421
 40
0.631578947368421
 40
0.631578947368421
 40
0.631578947368421
 40
0.6842105263157895
 40
0.6842105263157895
 40
0.6842105263157895
 40
0.6842105263157895
 40
0.7368421052631579
 40
0.7368421052631579
 40
0.7368421052631579
 40
0.7368421052631579
 40
0.7894736842105263
 40
0.7894736842105263
 40
0.7894736842105263
 40
0.7894736842105263
 40
0.8421052631578947
 40
0.8421052631578947
 40
0.8421052631578947
 40
0.8421052631578947
 40
0.8947368421052632
 40
0.8947368421052632
 40
0.8947368421052632
 40
0.8947368421052632
 40
1.0
 40
1.0
 40
1.0
 40
1.0
 10
121.6469
 20
81.7228
 30
0.0
 10
121.8417
 20
81.4244
 30
0.0
 10
122.0359
 20
81.1258
 30
0.0
 10
122.2304
 20
80.8272
 30
0.0
 10
122.2304
 20
80.8272
 30
0.0
 10
122.2304
 20
80.8272
 30
0.0
 10
112.7702
 20
85.3098
 30
0.0
 10
112.7702
 20
85.3098
 30
0.0
 10
112.7702
 20
85.3098
 30
0.0
 10
111.384
 20
85.9664
 30
0.0
 10
113.329
 20
86.4854
 30
0.0
 10
120.528
 20
91.2486
 30
0.0
 10
120.528
 20
91.2486
 30
0.0
 10
120.528
 20
91.2486
 30
0.0
 10
132.9692
 20
99.01
 30
0.0
 10
134.7168
 20
103.126
 30
0.0
 10
134.7168
 20
103.126
 30
0.0
 10
134.7182
 20
103.126
 30
0.0
 10
141.0771
 20
96.4815
 30
0.0
 10
145.6904
 20
94.0713
 30
0.0
 10
145.6904
 20
94.0713
 30
0.0
 10
145.6913
 20
94.0714
 30
0.0
 10
156.6969
 20
86.4586
 30
0.0
 10
157.611
 20
85.4049
 30
0.0
 10
157.611
 20
85.4049
 30
0.0
 10
157.611
 20
85.4052
 30
0.0
 10
150.443
 20
82.7809
 30
0.0
 10
148.2761
 20
81.6053
 30
0.0
 10
148.2761
 20
81.6053
 30
0.0
 10
148.277
 20
81.6051
 30
0.0
 10
150.303
 20
84.4863
 30
0.0
 10
150.3733
 20
86.1916
 30
0.0
 10
150.3733
 20
86.1916
 30
0.0
 10
150.3742
 20
86.1919
 30
0.0
 10
145.4107
 20
85.7799
 30
0.0
 10
143.7336
 20
84.1925
 30
0.0
 10
143.7336
 20
84.1925
 30
0.0
 10
143.7342
 20
84.1927
 30
0.0
 10
145.341
 20
86.7794
 30
0.0
 10
145.4107
 20
90.0724
 30
0.0
 10
145.4107
 20
90.0724
 30
0.0
 10
145.4109
 20
90.0726
 30
0.0
 10
140.2383
 20
89.1316
 30
0.0
 10
138.3512
 20
86.2505
 30
0.0
 10
138.3512
 20
86.2505
 30
0.0
 10
138.3521
 20
86.2507
 30
0.0
 10
137.4428
 20
92.4244
 30
0.0
 10
134.647
 20
94.8941
 30
0.0
 10
134.647
 20
94.8941
 30
0.0
 10
134.6476
 20
94.8943
 30
0.0
 10
132.2006
 20
92.0127
 30
0.0
 10
131.7114
 20
86.6619
 30
0.0
 10
131.7114
 20
86.6619
 30
0.0
 10
131.7119
 20
86.6617
 30
0.0
 10
126.9586
 20
89.8371
 30
0.0
 10
124.3722
 20
90.0724
 30
0.0
 10
124.3722
 20
90.0724
 30
0.0
 10
124.3726
 20
90.0726
 30
0.0
 10
124.1626
 20
88.0144
 30
0.0
 10
126.3996
 20
84.31
 30
0.0
 10
126.3996
 20
84.31
 30
0.0
 10
126.4004
 20
84.31
 30
0.0
 10
121.6463
 20
86.7212
 30
0.0
 10
119.4796
 20
86.0741
 30
0.0
 10
119.4796
 20
86.0741
 30
0.0
 10
119.4798
 20
86.0742
 30
0.0
 10
120.2489
 20
83.0753
 30
0.0
 10
121.6463
 20
81.7226
 30
0.0
 10
121.6463
 20
81.7226
 30
0.0
 10
121.6463
 20
81.7226
 30
0.0
 10
121.6469
 20
81.7228
 30
0.0
 10
121.6469
 20
81.7228
 30
0.0
  0
SPLINE
  5
60
330
1F
100
AcDbEntity
  8
layer 1
 62
   250
100
AcDbSpline
210
0.0
220
0.0
230
1.0
 70
    11
 71
     3
 72
    36
 73
    32
 74
     0
 42
0.0000000001
 43
0.0000000001
 12
1.0
 22
0.0
 32
0.0
 13
1.0
 23
0.0
 33
0.0
 40
0.0
 40
0.0
 40
0.0
 40
0.0
 40
0.1111111111111111
 40
0.1111111111111111
 40
0.1111111111111111
 40
0.1111111111111111
 40
0.2222222222222222
 40
0.2222222222222222
 40
0.2222222222222222
 40
0.2222222222222222
 40
0.3333333333333333
 40
0.3333333333333333
 40
0.3333333333333333
 40
0.3333333333333333
 40
0.4444444444444444
 40
0.4444444444444444
 40
0.4444444444444444
 40
0.4444444444444444
 40
0.5555555555555556
 40
0.5555555555555556
 40
0.5555555555555556
 40
0.5555555555555556
 40
0.6666666666666666
 40
0.6666666666666666
 40
0.6666666666666666
 40
0.6666666666666666
 40
0.7777777777777778
 40
0.7777777777777778
 40
0.7777777777777778
 40
0.7777777777777778
 40
1.0
 40
1.0
 40
1.0
 40
1.0
 10
85.4949
 20
72.7022
 30
0.0
 10
87.2977
 20
69.2504
 30
0.0
 10
89.6291
 20
65.7983
 30
0.0
 10
93.1228
 20
62.346
 30
0.0
 10
93.1228
 20
62.346
 30
0.0
 10
94.5216
 20
63.4136
 30
0.0
 10
95.919
 20
64.4813
 30
0.0
 10
97.3181
 20
65.5488
 30
0.0
 10
97.3181
 20
65.5488
 30
0.0
 10
98.1704
 20
71.8945
 30
0.0
 10
100.4587
 20
77.3111
 30
0.0
 10
104.0561
 20
81.8833
 30
0.0
 10
104.0561
 20
81.8833
 30
0.0
 10
100.6048
 20
81.8636
 30
0.0
 10
97.6797
 20
81.2229
 30
0.0
 10
95.284
 20
79.9619
 30
0.0
 10
95.284
 20
79.9619
 30
0.0
 10
98.3285
 20
76.7233
 30
0.0
 10
90.858
 20
74.0835
 30
0.0
 10
91.0886
 20
70.2462
 30
0.0
 10
91.0886
 20
70.2462
 30
0.0
 10
89.4867
 20
72.1614
 30
0.0
 10
88.544
 20
74.132
 30
0.0
 10
89.0543
 20
76.2252
 30
0.0
 10
89.0543
 20
76.2252
 30
0.0
 10
87.8675
 20
75.0507
 30
0.0
 10
86.6813
 20
73.8765
 30
0.0
 10
85.4944
 20
72.7018
 30
0.0
 10
85.4944
 20
72.7018
 30
0.0
 10
85.4944
 20
72.7018
 30
0.0
 10
85.4949
 20
72.7022
 30
0.0
 10
85.4949
 20
72.7022
 30
0.0
  0
SPLINE
  5
61
330
1F
100
AcDbEntity
  8
layer 1
 62
   250
100
AcDbSpline
210
0.0
220
0.0
230
1.0
 70
    11
 71
     3
 72
    28
 73
    24
 74
     0
 42
0.0000000001
 43
0.0000000001
 12
1.0
 22
0.0
 32
0.0
 13
1.0
 23
0.0
 33
0.0
 40
0.0
 40
0.0
 40
0.0
 40
0.0
 40
0.1428571428571428
 40
0.1428571428571428
 40
0.1428571428571428
 40
0.1428571428571428
 40
0.2857142857142857
 40
0.2857142857142857
 40
0.2857142857142857
 40
0.2857142857142857
 40
0.4285714285714285
 40
0.4285714285714285
 40
0.4285714285714285
 40
0.4285714285714285
 40
0.5714285714285714
 40
0.5714285714285714
 40
0.5714285714285714
 40
0.5714285714285714
 40
0.7142857142857143
 40
0.7142857142857143
 40
0.7142857142857143
 40
0.7142857142857143
 40
1.0
 40
1.0
 40
1.0
 40
1.0
 10
91.2159
 20
97.0436
 30
0.0
 10
85.7563
 20
92.1978
 30
0.0
 10
82.0033
 20
86.1672
 30
0.0
 10
84.3506
 20
75.905
 30
0.0
 10
84.3506
 20
75.905
 30
0.0
 10
86.8721
 20
78.7515
 30
0.0
 10
90.4322
 20
81.2791
 30
0.0
 10
95.6655
 20
83.2716
 30
0.0
 10
95.6655
 20
83.2716
 30
0.0
 10
92.0632
 20
84.1437
 30
0.0
 10
89.3934
 20
85.9942
 30
0.0
 10
87.1473
 20
88.2891
 30
0.0
 10
87.1473
 20
88.2891
 30
0.0
 10
90.1778
 20
89.0728
 30
0.0
 10
93.525
 20
89.4996
 30
0.0
 10
97.5725
 20
89.1434
 30
0.0
 10
97.5725
 20
89.1434
 30
0.0
 10
95.0508
 20
91.7771
 30
0.0
 10
93.0583
 20
94.4104
 30
0.0
 10
91.2155
 20
97.0438
 30
0.0
 10
91.2155
 20
97.0438
 30
0.0
 10
91.2155
 20
97.0438
 30
0.0
 10
91.2159
 20
97.0436
 30
0.0
 10
91.2159
 20
97.0436
 30
0.0
  0
SPLINE
  5
62
330
1F
100
AcDbEntity
  8
layer 1
 62
   250
100
AcDbSpline
210
0.0
220
0.0
230
1.0
 70
    11
 71
     3
 72
    80
 73
    76
 74
     0
 42
0.0000000001
 43
0.0000000001
 12
1.0
 22
0.0
 32
0.0
 13
1.0
 23
0.0
 33
0.0
 40
0.0
 40
0.0
 40
0.0
 40
0.0
 40
0.05
 40
0.05
 40
0.05
 40
0.05
 40
0.1
 40
0.1
 40
0.1
 40
0.1
 40
0.15
 40
0.15
 40
0.15
 40
0.15
 40
0.2
 40
0.2
 40
0.2
 40
0.2
 40
0.25
 40
0.25
 40
0.25
 40
0.25
 40
0.3
 40
0.3
 40
0.3
 40
0.3
 40
0.35
 40
0.35
 40
0.35
 40
0.35
 40
0.4
 40
0.4
 40
0.4
 40
0.4
 40
0.45
 40
0.45
 40
0.45
 40
0.45
 40
0.5
 40
0.5
 40
0.5
 40
0.5
 40
0.55
 40
0.55
 40
0.55
 40
0.55
 40
0.6
 40
0.6
 40
0.6
 40
0.6
 40
0.65
 40
0.65
 40
0.65
 40
0.65
 40
0.7
 40
0.7
 40
0.7
 40
0.7
 40
0.75
 40
0.75
 40
0.75
 40
0.75
 40
0.8
 40
0.8
 40
0.8
 40
0.8
 40
0.85
 40
0.85
 40
0.85
 40
0.85
 40
0.9
 40
0.9
 40
0.9
 40
0.9
 40
1.0
 40
1.0
 40
1.0
 40
1.0
 10
128.017
 20
112.5747
 30
0.0
 10
126.5777
 20
108.7117
 30
0.0
 10
120.6798
 20
108.6366
 30
0.0
 10
118.0436
 20
106.6798
 30
0.0
 10
118.0436
 20
106.6798
 30
0.0
 10
117.2365
 20
108.7503
 30
0.0
 10
118.2297
 20
110.695
 30
0.0
 10
120.1596
 20
112.5747
 30
0.0
 10
120.1596
 20
112.5747
 30
0.0
 10
120.1596
 20
112.5747
 30
0.0
 10
104.892
 20
112.5747
 30
0.0
 10
104.892
 20
112.5747
 30
0.0
 10
104.892
 20
112.5747
 30
0.0
 10
105.5006
 20
110.4553
 30
0.0
 10
105.4218
 20
108.053
 30
0.0
 10
104.3856
 20
105.2571
 30
0.0
 10
104.3856
 20
105.2571
 30
0.0
 10
105.4091
 20
104.9312
 30
0.0
 10
106.4322
 20
104.6048
 30
0.0
 10
107.4557
 20
104.2793
 30
0.0
 10
107.4557
 20
104.2793
 30
0.0
 10
104.9318
 20
109.837
 30
0.0
 10
115.6605
 20
109.985
 30
0.0
 10
114.3377
 20
104.8122
 30
0.0
 10
114.3377
 20
104.8122
 30
0.0
 10
118.4079
 20
106.807
 30
0.0
 10
122.2267
 20
104.0857
 30
0.0
 10
117.62
 20
100.6337
 30
0.0
 10
117.62
 20
100.6337
 30
0.0
 10
124.0077
 20
99.1822
 30
0.0
 10
119.384
 20
92.721
 30
0.0
 10
114.8672
 20
95.3881
 30
0.0
 10
114.8672
 20
95.3881
 30
0.0
 10
116.3851
 20
89.8164
 30
0.0
 10
108.1971
 20
89.52
 30
0.0
 10
108.4085
 20
94.2323
 30
0.0
 10
108.4085
 20
94.2323
 30
0.0
 10
102.6564
 20
90.5577
 30
0.0
 10
98.5973
 20
96.5145
 30
0.0
 10
104.1736
 20
98.7667
 30
0.0
 10
104.1736
 20
98.7667
 30
0.0
 10
101.3328
 20
99.167
 30
0.0
 10
100.6262
 20
100.3816
 30
0.0
 10
100.8917
 20
101.9674
 30
0.0
 10
100.8917
 20
101.9674
 30
0.0
 10
99.4433
 20
101.643
 30
0.0
 10
97.8184
 20
101.3177
 30
0.0
 10
96.6564
 20
100.2784
 30
0.0
 10
96.6564
 20
100.2784
 30
0.0
 10
97.8601
 20
95.5727
 30
0.0
 10
99.7071
 20
90.9039
 30
0.0
 10
109.1498
 20
86.6749
 30
0.0
 10
109.1498
 20
86.6749
 30
0.0
 10
113.1809
 20
89.9943
 30
0.0
 10
117.6449
 20
93.3139
 30
0.0
 10
123.6549
 20
96.6326
 30
0.0
 10
123.6549
 20
96.6326
 30
0.0
 10
121.7592
 20
101.6128
 30
0.0
 10
127.1483
 20
104.1783
 30
0.0
 10
128.525
 20
107.4802
 30
0.0
 10
128.525
 20
107.4802
 30
0.0
 10
129.4078
 20
105.3754
 30
0.0
 10
129.5836
 20
103.2711
 30
0.0
 10
129.0543
 20
101.1673
 30
0.0
 10
129.0543
 20
101.1673
 30
0.0
 10
132.2141
 20
103.7752
 30
0.0
 10
133.2365
 20
106.7088
 30
0.0
 10
133.2894
 20
109.7917
 30
0.0
 10
133.2894
 20
109.7917
 30
0.0
 10
130.613
 20
109.6525
 30
0.0
 10
129.7349
 20
111.3245
 30
0.0
 10
130.3488
 20
112.5747
 30
0.0
 10
130.3488
 20
112.5747
 30
0.0
 10
130.3488
 20
112.5747
 30
0.0
 10
128.017
 20
112.5747
 30
0.0
 10
128.017
 20
112.5747
 30
0.0
  0
SPLINE
  5
63
330
1F
100
AcDbEntity
  8
layer 1
 62
   250
100
AcDbSpline
210
0.0
220
0.0
230
1.0
 70
    11
 71
     3
 72
    76
 73
    72
 74
     0
 42
0.0000000001
 43
0.0000000001
 12
1.0
 22
0.0
 32
0.0
 13
1.0
 23
0.0
 33
0.0
 40
0.0
 40
0.0
 40
0.0
 40
0.0
 40
0.0526315789473684
 40
0.0526315789473684
 40
0.0526315789473684
 40
0.0526315789473684
 40
0.1052631578947368
 40
0.1052631578947368
 40
0.1052631578947368
 40
0.1052631578947368
 40
0.1578947368421053
 40
0.1578947368421053
 40
0.1578947368421053
 40
0.1578947368421053
 40
0.2105263157894737
 40
0.2105263157894737
 40
0.2105263157894737
 40
0.2105263157894737
 40
0.2631578947368421
 40
0.2631578947368421
 40
0.2631578947368421
 40
0.2631578947368421
 40
0.3157894736842105
 40
0.3157894736842105
 40
0.3157894736842105
 40
0.3157894736842105
 40
0.3684210526315789
 40
0.3684210526315789
 40
0.3684210526315789
 40
0.3684210526315789
 40
0.4210526315789473
 40
0.4210526315789473
 40
0.4210526315789473
 40
0.4210526315789473
 40
0.4736842105263158
 40
0.4736842105263158
 40
0.4736842105263158
 40
0.4736842105263158
 40
0.5263157894736842
 40
0.5263157894736842
 40
0.5263157894736842
 40
0.5263157894736842
 40
0.5789473684210527
 40
0.5789473684210527
 40
0.5789473684210527
 40
0.5789473684210527
 40
0.631578947368421
 40
0.631578947368421
 40
0.631578947368421
 40
0.631578947368421
 40
0.6842105263157895
 40
0.6842105263157895
 40
0.6842105263157895
 40
0.6842105263157895
 40
0.7368421052631579
 40
0.7368421052631579
 40
0.7368421052631579
 40
0.7368421052631579
 40
0.7894736842105263
 40
0.7894736842105263
 40
0.7894736842105263
 40
0.7894736842105263
 40
0.8421052631578947
 40
0.8421052631578947
 40
0.8421052631578947
 40
0.8421052631578947
 40
0.8947368421052632
 40
0.8947368421052632
 40
0.8947368421052632
 40
0.8947368421052632
 40
1.0
 40
1.0
 40
1.0
 40
1.0
 10
121.2113
 20
-71.4435
 30
0.0
 10
121.4063
 20
-71.1447
 30
0.0
 10
121.6002
 20
-70.8463
 30
0.0
 10
121.795
 20
-70.5483
 30
0.0
 10
121.795
 20
-70.5483
 30
0.0
 10
121.795
 20
-70.5483
 30
0.0
 10
112.3345
 20
-75.0301
 30
0.0
 10
112.3345
 20
-75.0301
 30
0.0
 10
112.3345
 20
-75.0301
 30
0.0
 10
110.9483
 20
-75.687
 30
0.0
 10
112.8936
 20
-76.2063
 30
0.0
 10
120.0928
 20
-80.9691
 30
0.0
 10
120.0928
 20
-80.9691
 30
0.0
 10
120.0935
 20
-80.9693
 30
0.0
 10
132.5338
 20
-88.7305
 30
0.0
 10
134.2812
 20
-92.8471
 30
0.0
 10
134.2812
 20
-92.8471
 30
0.0
 10
134.2816
 20
-92.8473
 30
0.0
 10
140.6417
 20
-86.2026
 30
0.0
 10
145.2545
 20
-83.7918
 30
0.0
 10
145.2545
 20
-83.7918
 30
0.0
 10
145.2547
 20
-83.7918
 30
0.0
 10
156.7174
 20
-76.6177
 30
0.0
 10
157.067
 20
-75.0889
 30
0.0
 10
157.067
 20
-75.0889
 30
0.0
 10
157.067
 20
-75.0889
 30
0.0
 10
150.0074
 20
-72.5016
 30
0.0
 10
147.8409
 20
-71.3258
 30
0.0
 10
147.8409
 20
-71.3258
 30
0.0
 10
147.8413
 20
-71.326
 30
0.0
 10
149.8676
 20
-74.2073
 30
0.0
 10
149.9373
 20
-75.9125
 30
0.0
 10
149.9373
 20
-75.9125
 30
0.0
 10
149.9377
 20
-75.9125
 30
0.0
 10
144.975
 20
-75.501
 30
0.0
 10
143.2975
 20
-73.9131
 30
0.0
 10
143.2975
 20
-73.9131
 30
0.0
 10
143.2975
 20
-73.9131
 30
0.0
 10
144.9053
 20
-76.5001
 30
0.0
 10
144.975
 20
-79.7929
 30
0.0
 10
144.975
 20
-79.7929
 30
0.0
 10
144.9752
 20
-79.7929
 30
0.0
 10
139.8029
 20
-78.8525
 30
0.0
 10
137.9158
 20
-75.9711
 30
0.0
 10
137.9158
 20
-75.9711
 30
0.0
 10
137.9164
 20
-75.9711
 30
0.0
 10
137.0073
 20
-82.145
 30
0.0
 10
134.2115
 20
-84.6147
 30
0.0
 10
134.2115
 20
-84.6147
 30
0.0
 10
134.212
 20
-84.6147
 30
0.0
 10
131.7656
 20
-81.7332
 30
0.0
 10
131.276
 20
-76.3828
 30
0.0
 10
131.276
 20
-76.3828
 30
0.0
 10
131.2764
 20
-76.383
 30
0.0
 10
126.5229
 20
-79.5581
 30
0.0
 10
123.9368
 20
-79.7929
 30
0.0
 10
123.9368
 20
-79.7929
 30
0.0
 10
123.9372
 20
-79.7929
 30
0.0
 10
123.7271
 20
-77.7353
 30
0.0
 10
125.9635
 20
-74.0308
 30
0.0
 10
125.9635
 20
-74.0308
 30
0.0
 10
125.9639
 20
-74.0308
 30
0.0
 10
121.2109
 20
-76.4414
 30
0.0
 10
119.0442
 20
-75.7946
 30
0.0
 10
119.0442
 20
-75.7946
 30
0.0
 10
119.0444
 20
-75.7946
 30
0.0
 10
119.8129
 20
-72.7958
 30
0.0
 10
121.2109
 20
-71.4437
 30
0.0
 10
121.2109
 20
-71.4437
 30
0.0
 10
121.2109
 20
-71.4437
 30
0.0
 10
121.2113
 20
-71.4435
 30
0.0
 10
121.2113
 20
-71.4435
 30
0.0
  0
SPLINE
  5
64
330
1F
100
AcDbEntity
  8
layer 1
 62
   250
100
AcDbSpline
210
0.0
220
0.0
230
1.0
 70
    11
 71
     3
 72
    36
 73
    32
 74
     0
 42
0.0000000001
 43
0.0000000001
 12
1.0
 22
0.0
 32
0.0
 13
1.0
 23
0.0
 33
0.0
 40
0.0
 40
0.0
 40
0.0
 40
0.0
 40
0.1111111111111111
 40
0.1111111111111111
 40
0.1111111111111111
 40
0.1111111111111111
 40
0.2222222222222222
 40
0.2222222222222222
 40
0.2222222222222222
 40
0.2222222222222222
 40
0.3333333333333333
 40
0.3333333333333333
 40
0.3333333333333333
 40
0.3333333333333333
 40
0.4444444444444444
 40
0.4444444444444444
 40
0.4444444444444444
 40
0.4444444444444444
 40
0.5555555555555556
 40
0.5555555555555556
 40
0.5555555555555556
 40
0.5555555555555556
 40
0.6666666666666666
 40
0.6666666666666666
 40
0.6666666666666666
 40
0.6666666666666666
 40
0.7777777777777778
 40
0.7777777777777778
 40
0.7777777777777778
 40
0.7777777777777778
 40
1.0
 40
1.0
 40
1.0
 40
1.0
 10
85.0601
 20
-62.4224
 30
0.0
 10
86.8621
 20
-58.9707
 30
0.0
 10
89.1932
 20
-55.5193
 30
0.0
 10
92.6869
 20
-52.0665
 30
0.0
 10
92.6869
 20
-52.0665
 30
0.0
 10
94.086
 20
-53.1344
 30
0.0
 10
95.4838
 20
-54.2019
 30
0.0
 10
96.8827
 20
-55.2697
 30
0.0
 10
96.8827
 20
-55.2697
 30
0.0
 10
97.7347
 20
-61.6153
 30
0.0
 10
100.023
 20
-67.032
 30
0.0
 10
103.6209
 20
-71.6044
 30
0.0
 10
103.6209
 20
-71.6044
 30
0.0
 10
100.1691
 20
-71.5844
 30
0.0
 10
97.2443
 20
-70.9438
 30
0.0
 10
94.8483
 20
-69.6824
 30
0.0
 10
94.8483
 20
-69.6824
 30
0.0
 10
97.8939
 20
-66.444
 30
0.0
 10
90.4226
 20
-63.804
 30
0.0
 10
90.6528
 20
-59.9671
 30
0.0
 10
90.6528
 20
-59.9671
 30
0.0
 10
89.051
 20
-61.8827
 30
0.0
 10
88.1079
 20
-63.8529
 30
0.0
 10
88.6191
 20
-65.946
 30
0.0
 10
88.6191
 20
-65.946
 30
0.0
 10
87.4329
 20
-64.7714
 30
0.0
 10
86.2452
 20
-63.5969
 30
0.0
 10
85.0592
 20
-62.4224
 30
0.0
 10
85.0592
 20
-62.4224
 30
0.0
 10
85.0592
 20
-62.4224
 30
0.0
 10
85.0601
 20
-62.4224
 30
0.0
 10
85.0601
 20
-62.4224
 30
0.0
  0
SPLINE
  5
65
330
1F
100
AcDbEntity
  8
layer 1
 62
   250
100
AcDbSpline
210
0.0
220
0.0
230
1.0
 70
    11
 71
     3
 72
    28
 73
    24
 74
     0
 42
0.0000000001
 43
0.0000000001
 12
1.0
 22
0.0
 32
0.0
 13
1.0
 23
0.0
 33
0.0
 40
0.0
 40
0.0
 40
0.0
 40
0.0
 40
0.1428571428571428
 40
0.1428571428571428
 40
0.1428571428571428
 40
0.1428571428571428
 40
0.2857142857142857
 40
0.2857142857142857
 40
0.2857142857142857
 40
0.2857142857142857
 40
0.4285714285714285
 40
0.4285714285714285
 40
0.4285714285714285
 40
0.4285714285714285
 40
0.5714285714285714
 40
0.5714285714285714
 40
0.5714285714285714
 40
0.5714285714285714
 40
0.7142857142857143
 40
0.7142857142857143
 40
0.7142857142857143
 40
0.7142857142857143
 40
1.0
 40
1.0
 40
1.0
 40
1.0
 10
90.7803
 20
-86.7643
 30
0.0
 10
85.3197
 20
-81.9187
 30
0.0
 10
81.5679
 20
-75.8877
 30
0.0
 10
83.915
 20
-65.6255
 30
0.0
 10
83.915
 20
-65.6255
 30
0.0
 10
86.4376
 20
-68.4728
 30
0.0
 10
89.9966
 20
-70.9997
 30
0.0
 10
95.2298
 20
-72.9921
 30
0.0
 10
95.2298
 20
-72.9921
 30
0.0
 10
91.6278
 20
-73.8639
 30
0.0
 10
88.9578
 20
-75.7147
 30
0.0
 10
86.7118
 20
-78.01
 30
0.0
 10
86.7118
 20
-78.01
 30
0.0
 10
89.7422
 20
-78.793
 30
0.0
 10
93.0893
 20
-79.2202
 30
0.0
 10
97.1368
 20
-78.8639
 30
0.0
 10
97.1368
 20
-78.8639
 30
0.0
 10
94.6151
 20
-81.498
 30
0.0
 10
92.6227
 20
-84.1312
 30
0.0
 10
90.7803
 20
-86.7642
 30
0.0
 10
90.7803
 20
-86.7642
 30
0.0
 10
90.7803
 20
-86.7642
 30
0.0
 10
90.7803
 20
-86.7643
 30
0.0
 10
90.7803
 20
-86.7643
 30
0.0
  0
SPLINE
  5
66
330
1F
100
AcDbEntity
  8
layer 1
 62
   250
100
AcDbSpline
210
0.0
220
0.0
230
1.0
 70
    11
 71
     3
 72
    84
 73
    80
 74
     0
 42
0.0000000001
 43
0.0000000001
 12
1.0
 22
0.0
 32
0.0
 13
1.0
 23
0.0
 33
0.0
 40
0.0
 40
0.0
 40
0.0
 40
0.0
 40
0.0476190476190476
 40
0.0476190476190476
 40
0.0476190476190476
 40
0.0476190476190476
 40
0.0952380952380952
 40
0.0952380952380952
 40
0.0952380952380952
 40
0.0952380952380952
 40
0.1428571428571428
 40
0.1428571428571428
 40
0.1428571428571428
 40
0.1428571428571428
 40
0.1904761904761905
 40
0.1904761904761905
 40
0.1904761904761905
 40
0.1904761904761905
 40
0.2380952380952381
 40
0.2380952380952381
 40
0.2380952380952381
 40
0.2380952380952381
 40
0.2857142857142857
 40
0.2857142857142857
 40
0.2857142857142857
 40
0.2857142857142857
 40
0.3333333333333333
 40
0.3333333333333333
 40
0.3333333333333333
 40
0.3333333333333333
 40
0.3809523809523809
 40
0.3809523809523809
 40
0.3809523809523809
 40
0.3809523809523809
 40
0.4285714285714285
 40
0.4285714285714285
 40
0.4285714285714285
 40
0.4285714285714285
 40
0.4761904761904762
 40
0.4761904761904762
 40
0.4761904761904762
 40
0.4761904761904762
 40
0.5238095238095238
 40
0.5238095238095238
 40
0.5238095238095238
 40
0.5238095238095238
 40
0.5714285714285714
 40
0.5714285714285714
 40
0.5714285714285714
 40
0.5714285714285714
 40
0.6190476190476191
 40
0.6190476190476191
 40
0.6190476190476191
 40
0.6190476190476191
 40
0.6666666666666666
 40
0.6666666666666666
 40
0.6666666666666666
 40
0.6666666666666666
 40
0.7142857142857143
 40
0.7142857142857143
 40
0.7142857142857143
 40
0.7142857142857143
 40
0.7619047619047619
 40
0.7619047619047619
 40
0.7619047619047619
 40
0.7619047619047619
 40
0.8095238095238095
 40
0.8095238095238095
 40
0.8095238095238095
 40
0.8095238095238095
 40
0.8571428571428571
 40
0.8571428571428571
 40
0.8571428571428571
 40
0.8571428571428571
 40
0.9047619047619048
 40
0.9047619047619048
 40
0.9047619047619048
 40
0.9047619047619048
 40
1.0
 40
1.0
 40
1.0
 40
1.0
 10
141.0142
 20
-103.1749
 30
0.0
 10
141.3961
 20
-98.8388
 30
0.0
 10
147.4601
 20
-98.7204
 30
0.0
 10
151.4803
 20
-96.2314
 30
0.0
 10
151.4803
 20
-96.2314
 30
0.0
 10
152.0867
 20
-99.1376
 30
0.0
 10
150.6786
 20
-101.3961
 30
0.0
 10
148.3576
 20
-103.1681
 30
0.0
 10
148.3576
 20
-103.1681
 30
0.0
 10
148.3576
 20
-103.1681
 30
0.0
 10
149.404
 20
-103.1749
 30
0.0
 10
149.404
 20
-103.1749
 30
0.0
 10
149.404
 20
-103.1749
 30
0.0
 10
149.404
 20
-103.1749
 30
0.0
 10
164.8847
 20
-103.1749
 30
0.0
 10
164.8847
 20
-103.1749
 30
0.0
 10
164.8847
 20
-103.1749
 30
0.0
 10
163.9898
 20
-100.5448
 30
0.0
 10
163.9665
 20
-97.7813
 30
0.0
 10
164.817
 20
-94.8844
 30
0.0
 10
164.817
 20
-94.8844
 30
0.0
 10
163.6634
 20
-94.9095
 30
0.0
 10
162.5095
 20
-94.8636
 30
0.0
 10
161.3563
 20
-93.7504
 30
0.0
 10
161.3563
 20
-93.7504
 30
0.0
 10
166.086
 20
-100.2038
 30
0.0
 10
152.9837
 20
-99.3802
 30
0.0
 10
154.9406
 20
-94.6009
 30
0.0
 10
154.9406
 20
-94.6009
 30
0.0
 10
152.2688
 20
-96.633
 30
0.0
 10
146.6687
 20
-93.6795
 30
0.0
 10
151.8181
 20
-90.2062
 30
0.0
 10
151.8181
 20
-90.2062
 30
0.0
 10
145.0955
 20
-88.8293
 30
0.0
 10
149.6352
 20
-83.0433
 30
0.0
 10
154.5191
 20
-85.1026
 30
0.0
 10
154.5191
 20
-85.1026
 30
0.0
 10
152.8525
 20
-80.034
 30
0.0
 10
160.7999
 20
-78.7589
 30
0.0
 10
161.187
 20
-84.0392
 30
0.0
 10
161.187
 20
-84.0392
 30
0.0
 10
165.6892
 20
-80.7315
 30
0.0
 10
170.4158
 20
-85.5751
 30
0.0
 10
165.2387
 20
-88.5759
 30
0.0
 10
165.2387
 20
-88.5759
 30
0.0
 10
167.3778
 20
-88.7292
 30
0.0
 10
168.2775
 20
-90.0525
 30
0.0
 10
168.6153
 20
-91.9076
 30
0.0
 10
168.6153
 20
-91.9076
 30
0.0
 10
170.3036
 20
-91.7422
 30
0.0
 10
171.7664
 20
-91.1046
 30
0.0
 10
173.0046
 20
-89.9934
 30
0.0
 10
173.0046
 20
-89.9934
 30
0.0
 10
171.4432
 20
-84.0513
 30
0.0
 10
166.9411
 20
-79.6802
 30
0.0
 10
160.4278
 20
-76.3839
 30
0.0
 10
160.4278
 20
-76.3839
 30
0.0
 10
155.5882
 20
-80.2182
 30
0.0
 10
150.7483
 20
-83.5698
 30
0.0
 10
145.9092
 20
-86.5912
 30
0.0
 10
145.9092
 20
-86.5912
 30
0.0
 10
146.7414
 20
-93.511
 30
0.0
 10
142.476
 20
-93.4634
 30
0.0
 10
141.0138
 20
-97.153
 30
0.0
 10
141.0138
 20
-97.153
 30
0.0
 10
140.1202
 20
-95.5831
 30
0.0
 10
139.854
 20
-93.5514
 30
0.0
 10
140.5074
 20
-90.8444
 30
0.0
 10
140.5074
 20
-90.8444
 30
0.0
 10
137.3028
 20
-92.6541
 30
0.0
 10
136.2269
 20
-95.8039
 30
0.0
 10
136.1177
 20
-99.5631
 30
0.0
 10
136.1177
 20
-99.5631
 30
0.0
 10
139.6588
 20
-99.2357
 30
0.0
 10
139.8261
 20
-102.0978
 30
0.0
 10
137.9406
 20
-103.1749
 30
0.0
 10
137.9406
 20
-103.1749
 30
0.0
 10
137.9406
 20
-103.1749
 30
0.0
 10
141.0142
 20
-103.1749
 30
0.0
 10
141.0142
 20
-103.1749
 30
0.0
  0
SPLINE
  5
67
330
1F
100
AcDbEntity
  8
layer 1
 62
   250
100
AcDbSpline
210
0.0
220
0.0
230
1.0
 70
    11
 71
     3
 72
    80
 73
    76
 74
     0
 42
0.0000000001
 43
0.0000000001
 12
1.0
 22
0.0
 32
0.0
 13
1.0
 23
0.0
 33
0.0
 40
0.0
 40
0.0
 40
0.0
 40
0.0
 40
0.05
 40
0.05
 40
0.05
 40
0.05
 40
0.1
 40
0.1
 40
0.1
 40
0.1
 40
0.15
 40
0.15
 40
0.15
 40
0.15
 40
0.2
 40
0.2
 40
0.2
 40
0.2
 40
0.25
 40
0.25
 40
0.25
 40
0.25
 40
0.3
 40
0.3
 40
0.3
 40
0.3
 40
0.35
 40
0.35
 40
0.35
 40
0.35
 40
0.4
 40
0.4
 40
0.4
 40
0.4
 40
0.45
 40
0.45
 40
0.45
 40
0.45
 40
0.5
 40
0.5
 40
0.5
 40
0.5
 40
0.55
 40
0.55
 40
0.55
 40
0.55
 40
0.6
 40
0.6
 40
0.6
 40
0.6
 40
0.65
 40
0.65
 40
0.65
 40
0.65
 40
0.7
 40
0.7
 40
0.7
 40
0.7
 40
0.75
 40
0.75
 40
0.75
 40
0.75
 40
0.8
 40
0.8
 40
0.8
 40
0.8
 40
0.85
 40
0.85
 40
0.85
 40
0.85
 40
0.9
 40
0.9
 40
0.9
 40
0.9
 40
1.0
 40
1.0
 40
1.0
 40
1.0
 10
120.4555
 20
-103.1749
 30
0.0
 10
118.0572
 20
-101.0803
 30
0.0
 10
116.7041
 20
-98.7189
 30
0.0
 10
117.608
 20
-96.4003
 30
0.0
 10
117.608
 20
-96.4003
 30
0.0
 10
120.4315
 20
-98.496
 30
0.0
 10
126.9957
 20
-98.4321
 30
0.0
 10
127.8183
 20
-103.1749
 30
0.0
 10
127.8183
 20
-103.1749
 30
0.0
 10
127.8183
 20
-103.1749
 30
0.0
 10
130.7353
 20
-103.1749
 30
0.0
 10
130.7353
 20
-103.1749
 30
0.0
 10
130.7353
 20
-103.1749
 30
0.0
 10
128.9556
 20
-102.0853
 30
0.0
 10
129.4511
 20
-99.335
 30
0.0
 10
132.8539
 20
-99.5122
 30
0.0
 10
132.8539
 20
-99.5122
 30
0.0
 10
132.802
 20
-96.4299
 30
0.0
 10
131.7778
 20
-93.4955
 30
0.0
 10
128.6189
 20
-90.8881
 30
0.0
 10
128.6189
 20
-90.8881
 30
0.0
 10
129.1482
 20
-92.9918
 30
0.0
 10
128.9713
 20
-95.0959
 30
0.0
 10
128.0895
 20
-97.2004
 30
0.0
 10
128.0895
 20
-97.2004
 30
0.0
 10
126.7127
 20
-93.899
 30
0.0
 10
121.3233
 20
-91.3338
 30
0.0
 10
123.2192
 20
-86.3537
 30
0.0
 10
123.2192
 20
-86.3537
 30
0.0
 10
117.2094
 20
-83.0345
 30
0.0
 10
112.7449
 20
-79.7149
 30
0.0
 10
108.7146
 20
-76.3953
 30
0.0
 10
108.7146
 20
-76.3953
 30
0.0
 10
99.2712
 20
-80.6246
 30
0.0
 10
97.4242
 20
-85.2936
 30
0.0
 10
96.2208
 20
-89.9989
 30
0.0
 10
96.2208
 20
-89.9989
 30
0.0
 10
97.3836
 20
-91.0388
 30
0.0
 10
99.007
 20
-91.3637
 30
0.0
 10
100.4563
 20
-91.6882
 30
0.0
 10
100.4563
 20
-91.6882
 30
0.0
 10
100.1912
 20
-90.1021
 30
0.0
 10
100.8959
 20
-88.8874
 30
0.0
 10
103.7382
 20
-88.4876
 30
0.0
 10
103.7382
 20
-88.4876
 30
0.0
 10
98.1623
 20
-86.2345
 30
0.0
 10
102.2203
 20
-80.2777
 30
0.0
 10
107.9728
 20
-83.9529
 30
0.0
 10
107.9728
 20
-83.9529
 30
0.0
 10
107.7621
 20
-79.2407
 30
0.0
 10
115.949
 20
-79.5373
 30
0.0
 10
114.4316
 20
-85.109
 30
0.0
 10
114.4316
 20
-85.109
 30
0.0
 10
118.949
 20
-82.4412
 30
0.0
 10
123.5719
 20
-88.9026
 30
0.0
 10
117.1845
 20
-90.3546
 30
0.0
 10
117.1845
 20
-90.3546
 30
0.0
 10
121.7922
 20
-93.8068
 30
0.0
 10
117.9722
 20
-96.5274
 30
0.0
 10
113.9027
 20
-94.5333
 30
0.0
 10
113.9027
 20
-94.5333
 30
0.0
 10
115.2255
 20
-99.7056
 30
0.0
 10
104.4961
 20
-99.5581
 30
0.0
 10
107.0201
 20
-93.9998
 30
0.0
 10
107.0201
 20
-93.9998
 30
0.0
 10
105.9979
 20
-94.3258
 30
0.0
 10
104.9735
 20
-94.6519
 30
0.0
 10
103.95
 20
-94.9779
 30
0.0
 10
103.95
 20
-94.9779
 30
0.0
 10
105.3133
 20
-97.4127
 30
0.0
 10
105.2181
 20
-100.1799
 30
0.0
 10
104.1195
 20
-103.1749
 30
0.0
 10
104.1195
 20
-103.1749
 30
0.0
 10
104.1195
 20
-103.1749
 30
0.0
 10
120.4555
 20
-103.1749
 30
0.0
 10
120.4555
 20
-103.1749
 30
0.0
  0
SPLINE
  5
68
330
1F
100
AcDbEntity
  8
layer 1
 62
   250
100
AcDbSpline
210
0.0
220
0.0
230
1.0
 70
    11
 71
     3
 72
    40
 73
    36
 74
     0
 42
0.0000000001
 43
0.0000000001
 12
1.0
 22
0.0
 32
0.0
 13
1.0
 23
0.0
 33
0.0
 40
0.0
 40
0.0
 40
0.0
 40
0.0
 40
0.1
 40
0.1
 40
0.1
 40
0.1
 40
0.2
 40
0.2
 40
0.2
 40
0.2
 40
0.3
 40
0.3
 40
0.3
 40
0.3
 40
0.4
 40
0.4
 40
0.4
 40
0.4
 40
0.5
 40
0.5
 40
0.5
 40
0.5
 40
0.6
 40
0.6
 40
0.6
 40
0.6
 40
0.7
 40
0.7
 40
0.7
 40
0.7
 40
0.8
 40
0.8
 40
0.8
 40
0.8
 40
1.0
 40
1.0
 40
1.0
 40
1.0
 10
77.2566
 20
65.1483
 30
0.0
 10
77.2566
 20
65.1483
 30
0.0
 10
77.7637
 20
65.1483
 30
0.0
 10
77.7637
 20
65.1483
 30
0.0
 10
77.7637
 20
65.1483
 30
0.0
 10
78.5085
 20
68.0189
 30
0.0
 10
80.095
 20
70.9455
 30
0.0
 10
82.384
 20
73.9066
 30
0.0
 10
82.384
 20
73.9066
 30
0.0
 10
79.4484
 20
86.5737
 30
0.0
 10
81.9474
 20
87.0624
 30
0.0
 10
83.057
 20
90.6674
 30
0.0
 10
83.057
 20
90.6674
 30
0.0
 10
78.8149
 20
93.7976
 30
0.0
 10
83.7887
 20
97.979
 30
0.0
 10
81.9359
 20
101.7785
 30
0.0
 10
81.9359
 20
101.7785
 30
0.0
 10
83.809
 20
101.2052
 30
0.0
 10
85.606
 20
100.2167
 30
0.0
 10
86.8695
 20
96.3169
 30
0.0
 10
86.8695
 20
96.3169
 30
0.0
 10
90.5128
 20
100.0826
 30
0.0
 10
93.2985
 20
102.0797
 30
0.0
 10
98.4565
 20
103.7456
 30
0.0
 10
98.4565
 20
103.7456
 30
0.0
 10
97.5653
 20
107.7043
 30
0.0
 10
100.46
 20
109.9108
 30
0.0
 10
102.3906
 20
112.5747
 30
0.0
 10
102.3906
 20
112.5747
 30
0.0
 10
102.3906
 20
112.5747
 30
0.0
 10
77.2566
 20
112.5747
 30
0.0
 10
77.2566
 20
112.5747
 30
0.0
 10
77.2566
 20
112.5747
 30
0.0
 10
77.2566
 20
112.5747
 30
0.0
 10
77.2566
 20
65.1483
 30
0.0
 10
77.2566
 20
65.1483
 30
0.0
  0
SPLINE
  5
69
330
1F
100
AcDbEntity
  8
layer 1
 62
   250
100
AcDbSpline
210
0.0
220
0.0
230
1.0
 70
    11
 71
     3
 72
    44
 73
    40
 74
     0
 42
0.0000000001
 43
0.0000000001
 12
1.0
 22
0.0
 32
0.0
 13
1.0
 23
0.0
 33
0.0
 40
0.0
 40
0.0
 40
0.0
 40
0.0
 40
0.0909090909090909
 40
0.0909090909090909
 40
0.0909090909090909
 40
0.0909090909090909
 40
0.1818181818181818
 40
0.1818181818181818
 40
0.1818181818181818
 40
0.1818181818181818
 40
0.2727272727272727
 40
0.2727272727272727
 40
0.2727272727272727
 40
0.2727272727272727
 40
0.3636363636363636
 40
0.3636363636363636
 40
0.3636363636363636
 40
0.3636363636363636
 40
0.4545454545454545
 40
0.4545454545454545
 40
0.4545454545454545
 40
0.4545454545454545
 40
0.5454545454545454
 40
0.5454545454545454
 40
0.5454545454545454
 40
0.5454545454545454
 40
0.6363636363636364
 40
0.6363636363636364
 40
0.6363636363636364
 40
0.6363636363636364
 40
0.7272727272727273
 40
0.7272727272727273
 40
0.7272727272727273
 40
0.7272727272727273
 40
0.8181818181818182
 40
0.8181818181818182
 40
0.8181818181818182
 40
0.8181818181818182
 40
1.0
 40
1.0
 40
1.0
 40
1.0
 10
191.8419
 20
64.8174
 30
0.0
 10
191.8419
 20
64.8174
 30
0.0
 10
192.3042
 20
64.8174
 30
0.0
 10
192.3042
 20
64.8174
 30
0.0
 10
192.3042
 20
64.8174
 30
0.0
 10
192.3042
 20
64.8174
 30
0.0
 10
192.3042
 20
112.5747
 30
0.0
 10
192.3042
 20
112.5747
 30
0.0
 10
192.3042
 20
112.5747
 30
0.0
 10
192.3042
 20
112.5747
 30
0.0
 10
167.4916
 20
112.5747
 30
0.0
 10
167.4916
 20
112.5747
 30
0.0
 10
167.4916
 20
112.5747
 30
0.0
 10
169.4801
 20
109.9944
 30
0.0
 10
171.8276
 20
107.6984
 30
0.0
 10
171.1607
 20
103.9586
 30
0.0
 10
171.1607
 20
103.9586
 30
0.0
 10
173.6448
 20
103.7946
 30
0.0
 10
181.3706
 20
99.0658
 30
0.0
 10
182.8511
 20
96.694
 30
0.0
 10
182.8511
 20
96.694
 30
0.0
 10
183.5519
 20
99.2638
 30
0.0
 10
184.9732
 20
100.926
 30
0.0
 10
186.8875
 20
101.9667
 30
0.0
 10
186.8875
 20
101.9667
 30
0.0
 10
186.8137
 20
98.3261
 30
0.0
 10
191.1758
 20
94.685
 30
0.0
 10
186.663
 20
91.0442
 30
0.0
 10
186.663
 20
91.0442
 30
0.0
 10
189.3913
 20
85.5321
 30
0.0
 10
189.4634
 20
79.7406
 30
0.0
 10
187.336
 20
73.7184
 30
0.0
 10
187.336
 20
73.7184
 30
0.0
 10
189.7623
 20
70.675
 30
0.0
 10
191.2302
 20
67.688
 30
0.0
 10
191.8408
 20
64.8172
 30
0.0
 10
191.8408
 20
64.8172
 30
0.0
 10
191.8408
 20
64.8172
 30
0.0
 10
191.8419
 20
64.8174
 30
0.0
 10
191.8419
 20
64.8174
 30
0.0
  0
SPLINE
  5
6A
330
1F
100
AcDbEntity
  8
layer 1
 62
   250
100
AcDbSpline
210
0.0
220
0.0
230
1.0
 70
    11
 71
     3
 72
    52
 73
    48
 74
     0
 42
0.0000000001
 43
0.0000000001
 12
1.0
 22
0.0
 32
0.0
 13
1.0
 23
0.0
 33
0.0
 40
0.0
 40
0.0
 40
0.0
 40
0.0
 40
0.0769230769230769
 40
0.0769230769230769
 40
0.0769230769230769
 40
0.0769230769230769
 40
0.1538461538461539
 40
0.1538461538461539
 40
0.1538461538461539
 40
0.1538461538461539
 40
0.2307692307692308
 40
0.2307692307692308
 40
0.2307692307692308
 40
0.2307692307692308
 40
0.3076923076923077
 40
0.3076923076923077
 40
0.3076923076923077
 40
0.3076923076923077
 40
0.3846153846153846
 40
0.3846153846153846
 40
0.3846153846153846
 40
0.3846153846153846
 40
0.4615384615384616
 40
0.4615384615384616
 40
0.4615384615384616
 40
0.4615384615384616
 40
0.5384615384615384
 40
0.5384615384615384
 40
0.5384615384615384
 40
0.5384615384615384
 40
0.6153846153846154
 40
0.6153846153846154
 40
0.6153846153846154
 40
0.6153846153846154
 40
0.6923076923076923
 40
0.6923076923076923
 40
0.6923076923076923
 40
0.6923076923076923
 40
0.7692307692307693
 40
0.7692307692307693
 40
0.7692307692307693
 40
0.7692307692307693
 40
0.8461538461538461
 40
0.8461538461538461
 40
0.8461538461538461
 40
0.8461538461538461
 40
1.0
 40
1.0
 40
1.0
 40
1.0
 10
192.3042
 20
34.6938
 30
0.0
 10
190.3441
 20
30.8286
 30
0.0
 10
190.6773
 20
24.8207
 30
0.0
 10
184.1965
 20
25.9923
 30
0.0
 10
184.1965
 20
25.9923
 30
0.0
 10
181.3631
 20
20.7344
 30
0.0
 10
177.558
 20
16.7824
 30
0.0
 10
173.2081
 20
13.5632
 30
0.0
 10
173.2081
 20
13.5632
 30
0.0
 10
182.0115
 20
15.8638
 30
0.0
 10
189.1411
 20
10.1678
 30
0.0
 10
181.9538
 20
6.2185
 30
0.0
 10
181.9538
 20
6.2185
 30
0.0
 10
177.4427
 20
4.9786
 30
0.0
 10
175.0828
 20
8.5241
 30
0.0
 10
177.4685
 20
11.1152
 30
0.0
 10
177.4685
 20
11.1152
 30
0.0
 10
172.8463
 20
8.4838
 30
0.0
 10
168.3092
 20
6.7332
 30
0.0
 10
163.7204
 20
6.2969
 30
0.0
 10
163.7204
 20
6.2969
 30
0.0
 10
163.749
 20
5.5596
 30
0.0
 10
163.7535
 20
4.8093
 30
0.0
 10
163.7315
 20
4.0705
 30
0.0
 10
163.7315
 20
4.0705
 30
0.0
 10
167.344
 20
3.5859
 30
0.0
 10
171.3375
 20
2.3954
 30
0.0
 10
176.1234
 20
0.0037
 30
0.0
 10
176.1234
 20
0.0037
 30
0.0
 10
174.8304
 20
4.9031
 30
0.0
 10
182.8304
 20
6.0115
 30
0.0
 10
184.4208
 20
1.3222
 30
0.0
 10
184.4208
 20
1.3222
 30
0.0
 10
184.7055
 20
-2.9239
 30
0.0
 10
180.8926
 20
-4.368
 30
0.0
 10
172.9834
 20
-3.0091
 30
0.0
 10
172.9834
 20
-3.0091
 30
0.0
 10
177.5074
 20
-6.3098
 30
0.0
 10
181.4142
 20
-10.2321
 30
0.0
 10
184.4208
 20
-15.0617
 30
0.0
 10
184.4208
 20
-15.0617
 30
0.0
 10
190.7114
 20
-14.6821
 30
0.0
 10
190.5375
 20
-19.9861
 30
0.0
 10
192.3042
 20
-23.4677
 30
0.0
 10
192.3042
 20
-23.4677
 30
0.0
 10
192.3042
 20
-23.4677
 30
0.0
 10
192.3042
 20
34.6938
 30
0.0
 10
192.3042
 20
34.6938
 30
0.0
  0
SPLINE
  5
6B
330
1F
100
AcDbEntity
  8
layer 1
 62
   250
100
AcDbSpline
210
0.0
220
0.0
230
1.0
 70
    11
 71
     3
 72
    48
 73
    44
 74
     0
 42
0.0000000001
 43
0.0000000001
 12
1.0
 22
0.0
 32
0.0
 13
1.0
 23
0.0
 33
0.0
 40
0.0
 40
0.0
 40
0.0
 40
0.0
 40
0.0833333333333333
 40
0.0833333333333333
 40
0.0833333333333333
 40
0.0833333333333333
 40
0.1666666666666667
 40
0.1666666666666667
 40
0.1666666666666667
 40
0.1666666666666667
 40
0.25
 40
0.25
 40
0.25
 40
0.25
 40
0.3333333333333333
 40
0.3333333333333333
 40
0.3333333333333333
 40
0.3333333333333333
 40
0.4166666666666667
 40
0.4166666666666667
 40
0.4166666666666667
 40
0.4166666666666667
 40
0.5
 40
0.5
 40
0.5
 40
0.5
 40
0.5833333333333334
 40
0.5833333333333334
 40
0.5833333333333334
 40
0.5833333333333334
 40
0.6666666666666666
 40
0.6666666666666666
 40
0.6666666666666666
 40
0.6666666666666666
 40
0.75
 40
0.75
 40
0.75
 40
0.75
 40
0.8333333333333334
 40
0.8333333333333334
 40
0.8333333333333334
 40
0.8333333333333334
 40
1.0
 40
1.0
 40
1.0
 40
1.0
 10
77.2566
 20
-23.8386
 30
0.0
 10
79.2552
 20
-20.0605
 30
0.0
 10
79.6532
 20
-14.5855
 30
0.0
 10
85.6377
 20
-15.0617
 30
0.0
 10
85.6377
 20
-15.0617
 30
0.0
 10
87.2728
 20
-10.4748
 30
0.0
 10
91.1668
 20
-6.8849
 30
0.0
 10
95.8395
 20
-3.5747
 30
0.0
 10
95.8395
 20
-3.5747
 30
0.0
 10
87.0918
 20
-4.8493
 30
0.0
 10
83.4249
 20
-1.6962
 30
0.0
 10
85.5239
 20
3.0172
 30
0.0
 10
85.5239
 20
3.0172
 30
0.0
 10
87.2211
 20
5.49
 30
0.0
 10
95.6355
 20
5.1216
 30
0.0
 10
92.2517
 20
-0.561
 30
0.0
 10
92.2517
 20
-0.561
 30
0.0
 10
96.7453
 20
1.6072
 30
0.0
 10
101.2271
 20
3.7502
 30
0.0
 10
105.7581
 20
4.258
 30
0.0
 10
105.7581
 20
4.258
 30
0.0
 10
105.7443
 20
4.8877
 30
0.0
 10
105.7491
 20
5.5251
 30
0.0
 10
105.7703
 20
6.1531
 30
0.0
 10
105.7703
 20
6.1531
 30
0.0
 10
101.4143
 20
6.7971
 30
0.0
 10
97.0567
 20
8.3439
 30
0.0
 10
92.7
 20
10.5499
 30
0.0
 10
92.7
 20
10.5499
 30
0.0
 10
93.4217
 20
-1.858
 30
0.0
 10
72.8193
 20
15.4187
 30
0.0
 10
96.2883
 20
13.5632
 30
0.0
 10
96.2883
 20
13.5632
 30
0.0
 10
91.3343
 20
16.946
 30
0.0
 10
87.7465
 20
20.8376
 30
0.0
 10
85.5239
 20
25.239
 30
0.0
 10
85.5239
 20
25.239
 30
0.0
 10
78.0397
 20
25.1652
 30
0.0
 10
79.1613
 20
31.6998
 30
0.0
 10
77.2566
 20
34.6872
 30
0.0
 10
77.2566
 20
34.6872
 30
0.0
 10
77.2566
 20
34.6872
 30
0.0
 10
77.2566
 20
-23.8386
 30
0.0
 10
77.2566
 20
-23.8386
 30
0.0
  0
SPLINE
  5
6C
330
1F
100
AcDbEntity
  8
layer 1
 62
   250
100
AcDbSpline
210
0.0
220
0.0
230
1.0
 70
    11
 71
     3
 72
    28
 73
    24
 74
     0
 42
0.0000000001
 43
0.0000000001
 12
1.0
 22
0.0
 32
0.0
 13
1.0
 23
0.0
 33
0.0
 40
0.0
 40
0.0
 40
0.0
 40
0.0
 40
0.1428571428571428
 40
0.1428571428571428
 40
0.1428571428571428
 40
0.1428571428571428
 40
0.2857142857142857
 40
0.2857142857142857
 40
0.2857142857142857
 40
0.2857142857142857
 40
0.4285714285714285
 40
0.4285714285714285
 40
0.4285714285714285
 40
0.4285714285714285
 40
0.5714285714285714
 40
0.5714285714285714
 40
0.5714285714285714
 40
0.5714285714285714
 40
0.7142857142857143
 40
0.7142857142857143
 40
0.7142857142857143
 40
0.7142857142857143
 40
1.0
 40
1.0
 40
1.0
 40
1.0
 10
175.8537
 20
58.4885
 30
0.0
 10
177.4111
 20
57.5672
 30
0.0
 10
181.1094
 20
51.3638
 30
0.0
 10
181.7667
 20
49.6438
 30
0.0
 10
181.7667
 20
49.6438
 30
0.0
 10
180.3427
 20
48.2109
 30
0.0
 10
178.5995
 20
46.7574
 30
0.0
 10
176.2024
 20
45.9795
 30
0.0
 10
176.2024
 20
45.9795
 30
0.0
 10
175.075
 20
46.4693
 30
0.0
 10
174.0763
 20
46.8727
 30
0.0
 10
172.7862
 20
47.0028
 30
0.0
 10
172.7862
 20
47.0028
 30
0.0
 10
180.1051
 20
47.813
 30
0.0
 10
180.4281
 20
56.4309
 30
0.0
 10
174.6806
 20
57.2067
 30
0.0
 10
174.6806
 20
57.2067
 30
0.0
 10
174.719
 20
57.4754
 30
0.0
 10
175.6549
 20
58.6518
 30
0.0
 10
175.853
 20
58.4883
 30
0.0
 10
175.853
 20
58.4883
 30
0.0
 10
175.853
 20
58.4883
 30
0.0
 10
175.8537
 20
58.4885
 30
0.0
 10
175.8537
 20
58.4885
 30
0.0
  0
SPLINE
  5
6D
330
1F
100
AcDbEntity
  8
layer 1
 62
   250
100
AcDbSpline
210
0.0
220
0.0
230
1.0
 70
    11
 71
     3
 72
    20
 73
    16
 74
     0
 42
0.0000000001
 43
0.0000000001
 12
1.0
 22
0.0
 32
0.0
 13
1.0
 23
0.0
 33
0.0
 40
0.0
 40
0.0
 40
0.0
 40
0.0
 40
0.2
 40
0.2
 40
0.2
 40
0.2
 40
0.4
 40
0.4
 40
0.4
 40
0.4
 40
0.6
 40
0.6
 40
0.6
 40
0.6
 40
1.0
 40
1.0
 40
1.0
 40
1.0
 10
185.7646
 20
70.0881
 30
0.0
 10
184.2808
 20
66.8783
 30
0.0
 10
181.7149
 20
63.666
 30
0.0
 10
178.2518
 20
60.6639
 30
0.0
 10
178.2518
 20
60.6639
 30
0.0
 10
181.0349
 20
58.0683
 30
0.0
 10
183.075
 20
55.0567
 30
0.0
 10
184.3732
 20
51.6293
 30
0.0
 10
184.3732
 20
51.6293
 30
0.0
 10
189.1775
 20
57.643
 30
0.0
 10
189.1232
 20
63.8672
 30
0.0
 10
185.764
 20
70.0881
 30
0.0
 10
185.764
 20
70.0881
 30
0.0
 10
185.764
 20
70.0881
 30
0.0
 10
185.7646
 20
70.0881
 30
0.0
 10
185.7646
 20
70.0881
 30
0.0
  0
SPLINE
  5
6E
330
1F
100
AcDbEntity
  8
layer 1
 62
   250
100
AcDbSpline
210
0.0
220
0.0
230
1.0
 70
    11
 71
     3
 72
    20
 73
    16
 74
     0
 42
0.0000000001
 43
0.0000000001
 12
1.0
 22
0.0
 32
0.0
 13
1.0
 23
0.0
 33
0.0
 40
0.0
 40
0.0
 40
0.0
 40
0.0
 40
0.2
 40
0.2
 40
0.2
 40
0.2
 40
0.4
 40
0.4
 40
0.4
 40
0.4
 40
0.6
 40
0.6
 40
0.6
 40
0.6
 40
1.0
 40
1.0
 40
1.0
 40
1.0
 10
83.7704
 20
70.0881
 30
0.0
 10
85.254
 20
66.8783
 30
0.0
 10
87.8196
 20
63.666
 30
0.0
 10
91.2823
 20
60.6639
 30
0.0
 10
91.2823
 20
60.6639
 30
0.0
 10
88.5001
 20
58.0683
 30
0.0
 10
86.4598
 20
55.0567
 30
0.0
 10
85.1612
 20
51.6293
 30
0.0
 10
85.1612
 20
51.6293
 30
0.0
 10
80.3573
 20
57.643
 30
0.0
 10
80.4112
 20
63.8672
 30
0.0
 10
83.77
 20
70.0881
 30
0.0
 10
83.77
 20
70.0881
 30
0.0
 10
83.77
 20
70.0881
 30
0.0
 10
83.7704
 20
70.0881
 30
0.0
 10
83.7704
 20
70.0881
 30
0.0
  0
SPLINE
  5
6F
330
1F
100
AcDbEntity
  8
layer 1
 62
   250
100
AcDbSpline
210
0.0
220
0.0
230
1.0
 70
    11
 71
     3
 72
    80
 73
    76
 74
     0
 42
0.0000000001
 43
0.0000000001
 12
1.0
 22
0.0
 32
0.0
 13
1.0
 23
0.0
 33
0.0
 40
0.0
 40
0.0
 40
0.0
 40
0.0
 40
0.05
 40
0.05
 40
0.05
 40
0.05
 40
0.1
 40
0.1
 40
0.1
 40
0.1
 40
0.15
 40
0.15
 40
0.15
 40
0.15
 40
0.2
 40
0.2
 40
0.2
 40
0.2
 40
0.25
 40
0.25
 40
0.25
 40
0.25
 40
0.3
 40
0.3
 40
0.3
 40
0.3
 40
0.35
 40
0.35
 40
0.35
 40
0.35
 40
0.4
 40
0.4
 40
0.4
 40
0.4
 40
0.45
 40
0.45
 40
0.45
 40
0.45
 40
0.5
 40
0.5
 40
0.5
 40
0.5
 40
0.55
 40
0.55
 40
0.55
 40
0.55
 40
0.6
 40
0.6
 40
0.6
 40
0.6
 40
0.65
 40
0.65
 40
0.65
 40
0.65
 40
0.7
 40
0.7
 40
0.7
 40
0.7
 40
0.75
 40
0.75
 40
0.75
 40
0.75
 40
0.8
 40
0.8
 40
0.8
 40
0.8
 40
0.85
 40
0.85
 40
0.85
 40
0.85
 40
0.9
 40
0.9
 40
0.9
 40
0.9
 40
1.0
 40
1.0
 40
1.0
 40
1.0
 10
141.62
 20
112.5747
 30
0.0
 10
142.7007
 20
109.0887
 30
0.0
 10
148.1875
 20
108.8189
 30
0.0
 10
151.9161
 20
106.5106
 30
0.0
 10
151.9161
 20
106.5106
 30
0.0
 10
151.9161
 20
106.5106
 30
0.0
 10
149.1404
 20
112.5747
 30
0.0
 10
149.1404
 20
112.5747
 30
0.0
 10
149.1404
 20
112.5747
 30
0.0
 10
149.1404
 20
112.5747
 30
0.0
 10
165.0548
 20
112.5747
 30
0.0
 10
165.0548
 20
112.5747
 30
0.0
 10
165.0548
 20
112.5747
 30
0.0
 10
164.4305
 20
110.21
 30
0.0
 10
164.496
 20
107.7393
 30
0.0
 10
165.2522
 20
105.1638
 30
0.0
 10
165.2522
 20
105.1638
 30
0.0
 10
164.0999
 20
105.1892
 30
0.0
 10
162.9447
 20
105.1433
 30
0.0
 10
161.7915
 20
104.0297
 30
0.0
 10
161.7915
 20
104.0297
 30
0.0
 10
166.5216
 20
110.4834
 30
0.0
 10
153.4192
 20
109.6596
 30
0.0
 10
155.3766
 20
104.8803
 30
0.0
 10
155.3766
 20
104.8803
 30
0.0
 10
152.7042
 20
106.9126
 30
0.0
 10
147.1041
 20
103.9586
 30
0.0
 10
152.2535
 20
100.4851
 30
0.0
 10
152.2535
 20
100.4851
 30
0.0
 10
145.5312
 20
99.1086
 30
0.0
 10
150.0709
 20
93.3224
 30
0.0
 10
154.9548
 20
95.3819
 30
0.0
 10
154.9548
 20
95.3819
 30
0.0
 10
153.2881
 20
90.314
 30
0.0
 10
161.236
 20
89.038
 30
0.0
 10
161.6229
 20
94.3186
 30
0.0
 10
161.6229
 20
94.3186
 30
0.0
 10
166.1257
 20
91.0104
 30
0.0
 10
170.8512
 20
95.8545
 30
0.0
 10
165.6745
 20
98.8554
 30
0.0
 10
165.6745
 20
98.8554
 30
0.0
 10
167.8133
 20
99.0091
 30
0.0
 10
168.7134
 20
100.3318
 30
0.0
 10
169.0508
 20
102.1867
 30
0.0
 10
169.0508
 20
102.1867
 30
0.0
 10
170.739
 20
102.0214
 30
0.0
 10
172.2792
 20
101.4972
 30
0.0
 10
173.5173
 20
100.3865
 30
0.0
 10
173.5173
 20
100.3865
 30
0.0
 10
171.9564
 20
94.4444
 30
0.0
 10
167.3765
 20
89.9593
 30
0.0
 10
160.8634
 20
86.6633
 30
0.0
 10
160.8634
 20
86.6633
 30
0.0
 10
156.0239
 20
90.4975
 30
0.0
 10
151.1837
 20
93.8489
 30
0.0
 10
146.3448
 20
96.8708
 30
0.0
 10
146.3448
 20
96.8708
 30
0.0
 10
147.1771
 20
103.7908
 30
0.0
 10
142.9114
 20
103.7428
 30
0.0
 10
141.449
 20
107.4319
 30
0.0
 10
141.449
 20
107.4319
 30
0.0
 10
140.5558
 20
105.8628
 30
0.0
 10
140.2894
 20
103.8304
 30
0.0
 10
140.9426
 20
101.1235
 30
0.0
 10
140.9426
 20
101.1235
 30
0.0
 10
137.7384
 20
102.9337
 30
0.0
 10
136.6625
 20
106.0833
 30
0.0
 10
136.5536
 20
109.8422
 30
0.0
 10
136.5536
 20
109.8422
 30
0.0
 10
139.343
 20
109.5843
 30
0.0
 10
140.0383
 20
111.3057
 30
0.0
 10
139.2985
 20
112.5747
 30
0.0
 10
139.2985
 20
112.5747
 30
0.0
 10
139.2985
 20
112.5747
 30
0.0
 10
141.62
 20
112.5747
 30
0.0
 10
141.62
 20
112.5747
 30
0.0
  0
SPLINE
  5
70
330
1F
100
AcDbEntity
  8
layer 1
 62
   250
100
AcDbSpline
210
0.0
220
0.0
230
1.0
 70
    11
 71
     3
 72
    24
 73
    20
 74
     0
 42
0.0000000001
 43
0.0000000001
 12
1.0
 22
0.0
 32
0.0
 13
1.0
 23
0.0
 33
0.0
 40
0.0
 40
0.0
 40
0.0
 40
0.0
 40
0.1666666666666667
 40
0.1666666666666667
 40
0.1666666666666667
 40
0.1666666666666667
 40
0.3333333333333333
 40
0.3333333333333333
 40
0.3333333333333333
 40
0.3333333333333333
 40
0.5
 40
0.5
 40
0.5
 40
0.5
 40
0.6666666666666666
 40
0.6666666666666666
 40
0.6666666666666666
 40
0.6666666666666666
 40
1.0
 40
1.0
 40
1.0
 40
1.0
 10
77.2566
 20
35.7309
 30
0.0
 10
79.2003
 20
35.7267
 30
0.0
 10
81.2257
 20
34.6675
 30
0.0
 10
82.384
 20
33.1486
 30
0.0
 10
82.384
 20
33.1486
 30
0.0
 10
80.3544
 20
41.7305
 30
0.0
 10
82.2695
 20
44.5545
 30
0.0
 10
83.9543
 20
49.2365
 30
0.0
 10
83.9543
 20
49.2365
 30
0.0
 10
80.5542
 20
52.1069
 30
0.0
 10
78.5398
 20
55.0969
 30
0.0
 10
77.7161
 20
58.1778
 30
0.0
 10
77.7161
 20
58.1778
 30
0.0
 10
77.7161
 20
58.1778
 30
0.0
 10
77.2566
 20
58.1776
 30
0.0
 10
77.2566
 20
58.1776
 30
0.0
 10
77.2566
 20
58.1776
 30
0.0
 10
77.2566
 20
58.1776
 30
0.0
 10
77.2566
 20
35.7309
 30
0.0
 10
77.2566
 20
35.7309
 30
0.0
  0
SPLINE
  5
71
330
1F
100
AcDbEntity
  8
layer 1
 62
   250
100
AcDbSpline
210
0.0
220
0.0
230
1.0
 70
    11
 71
     3
 72
    24
 73
    20
 74
     0
 42
0.0000000001
 43
0.0000000001
 12
1.0
 22
0.0
 32
0.0
 13
1.0
 23
0.0
 33
0.0
 40
0.0
 40
0.0
 40
0.0
 40
0.0
 40
0.1666666666666667
 40
0.1666666666666667
 40
0.1666666666666667
 40
0.1666666666666667
 40
0.3333333333333333
 40
0.3333333333333333
 40
0.3333333333333333
 40
0.3333333333333333
 40
0.5
 40
0.5
 40
0.5
 40
0.5
 40
0.6666666666666666
 40
0.6666666666666666
 40
0.6666666666666666
 40
0.6666666666666666
 40
1.0
 40
1.0
 40
1.0
 40
1.0
 10
192.3042
 20
58.319
 30
0.0
 10
192.3042
 20
58.319
 30
0.0
 10
191.7462
 20
58.319
 30
0.0
 10
191.7462
 20
58.319
 30
0.0
 10
191.7462
 20
58.319
 30
0.0
 10
190.907
 20
54.9985
 30
0.0
 10
188.8467
 20
51.9332
 30
0.0
 10
185.7605
 20
49.2398
 30
0.0
 10
185.7605
 20
49.2398
 30
0.0
 10
187.4978
 20
43.5708
 30
0.0
 10
188.2645
 20
39.7048
 30
0.0
 10
186.663
 20
33.5257
 30
0.0
 10
186.663
 20
33.5257
 30
0.0
 10
188.1202
 20
34.5502
 30
0.0
 10
190.3115
 20
35.9559
 30
0.0
 10
192.3042
 20
36.0417
 30
0.0
 10
192.3042
 20
36.0417
 30
0.0
 10
192.3042
 20
36.0417
 30
0.0
 10
192.3042
 20
58.319
 30
0.0
 10
192.3042
 20
58.319
 30
0.0
  0
SPLINE
  5
72
330
1F
100
AcDbEntity
  8
layer 1
 62
   250
100
AcDbSpline
210
0.0
220
0.0
230
1.0
 70
    11
 71
     3
 72
    44
 73
    40
 74
     0
 42
0.0000000001
 43
0.0000000001
 12
1.0
 22
0.0
 32
0.0
 13
1.0
 23
0.0
 33
0.0
 40
0.0
 40
0.0
 40
0.0
 40
0.0
 40
0.0909090909090909
 40
0.0909090909090909
 40
0.0909090909090909
 40
0.0909090909090909
 40
0.1818181818181818
 40
0.1818181818181818
 40
0.1818181818181818
 40
0.1818181818181818
 40
0.2727272727272727
 40
0.2727272727272727
 40
0.2727272727272727
 40
0.2727272727272727
 40
0.3636363636363636
 40
0.3636363636363636
 40
0.3636363636363636
 40
0.3636363636363636
 40
0.4545454545454545
 40
0.4545454545454545
 40
0.4545454545454545
 40
0.4545454545454545
 40
0.5454545454545454
 40
0.5454545454545454
 40
0.5454545454545454
 40
0.5454545454545454
 40
0.6363636363636364
 40
0.6363636363636364
 40
0.6363636363636364
 40
0.6363636363636364
 40
0.7272727272727273
 40
0.7272727272727273
 40
0.7272727272727273
 40
0.7272727272727273
 40
0.8181818181818182
 40
0.8181818181818182
 40
0.8181818181818182
 40
0.8181818181818182
 40
1.0
 40
1.0
 40
1.0
 40
1.0
 10
77.527
 20
-54.371
 30
0.0
 10
77.527
 20
-54.371
 30
0.0
 10
77.2566
 20
-54.371
 30
0.0
 10
77.2566
 20
-54.371
 30
0.0
 10
77.2566
 20
-54.371
 30
0.0
 10
77.2566
 20
-54.371
 30
0.0
 10
77.2566
 20
-103.1749
 30
0.0
 10
77.2566
 20
-103.1749
 30
0.0
 10
77.2566
 20
-103.1749
 30
0.0
 10
77.2566
 20
-103.1749
 30
0.0
 10
102.5398
 20
-103.1749
 30
0.0
 10
102.5398
 20
-103.1749
 30
0.0
 10
102.5398
 20
-103.1749
 30
0.0
 10
100.6923
 20
-100.0868
 30
0.0
 10
97.0331
 20
-97.8509
 30
0.0
 10
98.0208
 20
-93.4662
 30
0.0
 10
98.0208
 20
-93.4662
 30
0.0
 10
93.7709
 20
-92.0935
 30
0.0
 10
88.7366
 20
-90.1183
 30
0.0
 10
86.645
 20
-86.328
 30
0.0
 10
86.645
 20
-86.328
 30
0.0
 10
85.986
 20
-89.1046
 30
0.0
 10
84.4159
 20
-90.8624
 30
0.0
 10
81.9359
 20
-91.6013
 30
0.0
 10
81.9359
 20
-91.6013
 30
0.0
 10
82.2348
 20
-87.897
 30
0.0
 10
78.096
 20
-82.8558
 30
0.0
 10
82.8327
 20
-80.4902
 30
0.0
 10
82.8327
 20
-80.4902
 30
0.0
 10
79.1073
 20
-73.8686
 30
0.0
 10
79.8893
 20
-68.4433
 30
0.0
 10
81.9359
 20
-63.3528
 30
0.0
 10
81.9359
 20
-63.3528
 30
0.0
 10
79.4355
 20
-60.1877
 30
0.0
 10
78.0696
 20
-57.1702
 30
0.0
 10
77.5261
 20
-54.371
 30
0.0
 10
77.5261
 20
-54.371
 30
0.0
 10
77.5261
 20
-54.371
 30
0.0
 10
77.527
 20
-54.371
 30
0.0
 10
77.527
 20
-54.371
 30
0.0
  0
SPLINE
  5
73
330
1F
100
AcDbEntity
  8
layer 1
 62
   250
100
AcDbSpline
210
0.0
220
0.0
230
1.0
 70
    11
 71
     3
 72
    40
 73
    36
 74
     0
 42
0.0000000001
 43
0.0000000001
 12
1.0
 22
0.0
 32
0.0
 13
1.0
 23
0.0
 33
0.0
 40
0.0
 40
0.0
 40
0.0
 40
0.0
 40
0.1
 40
0.1
 40
0.1
 40
0.1
 40
0.2
 40
0.2
 40
0.2
 40
0.2
 40
0.3
 40
0.3
 40
0.3
 40
0.3
 40
0.4
 40
0.4
 40
0.4
 40
0.4
 40
0.5
 40
0.5
 40
0.5
 40
0.5
 40
0.6
 40
0.6
 40
0.6
 40
0.6
 40
0.7
 40
0.7
 40
0.7
 40
0.7
 40
0.8
 40
0.8
 40
0.8
 40
0.8
 40
1.0
 40
1.0
 40
1.0
 40
1.0
 10
192.3042
 20
-55.3296
 30
0.0
 10
192.3042
 20
-55.3296
 30
0.0
 10
191.6348
 20
-55.3296
 30
0.0
 10
191.6348
 20
-55.3296
 30
0.0
 10
191.6348
 20
-55.3296
 30
0.0
 10
190.9101
 20
-58.0551
 30
0.0
 10
189.373
 20
-60.8299
 30
0.0
 10
186.8875
 20
-63.5411
 30
0.0
 10
186.8875
 20
-63.5411
 30
0.0
 10
188.9399
 20
-69.8923
 30
0.0
 10
188.715
 20
-75.4789
 30
0.0
 10
186.2149
 20
-80.302
 30
0.0
 10
186.2149
 20
-80.302
 30
0.0
 10
190.8782
 20
-84.0052
 30
0.0
 10
186.4357
 20
-87.7091
 30
0.0
 10
186.8875
 20
-91.4125
 30
0.0
 10
186.8875
 20
-91.4125
 30
0.0
 10
184.7084
 20
-90.8018
 30
0.0
 10
183.2879
 20
-89.0442
 30
0.0
 10
182.6266
 20
-86.1398
 30
0.0
 10
182.6266
 20
-86.1398
 30
0.0
 10
180.1667
 20
-88.3532
 30
0.0
 10
174.5362
 20
-93.4274
 30
0.0
 10
170.7257
 20
-93.6795
 30
0.0
 10
170.7257
 20
-93.6795
 30
0.0
 10
171.4666
 20
-97.8374
 30
0.0
 10
168.4808
 20
-100.211
 30
0.0
 10
166.4059
 20
-103.1749
 30
0.0
 10
166.4059
 20
-103.1749
 30
0.0
 10
166.4059
 20
-103.1749
 30
0.0
 10
192.3042
 20
-103.1749
 30
0.0
 10
192.3042
 20
-103.1749
 30
0.0
 10
192.3042
 20
-103.1749
 30
0.0
 10
192.3042
 20
-103.1749
 30
0.0
 10
192.3042
 20
-55.3296
 30
0.0
 10
192.3042
 20
-55.3296
 30
0.0
  0
SPLINE
  5
74
330
1F
100
AcDbEntity
  8
layer 1
 62
   250
100
AcDbSpline
210
0.0
220
0.0
230
1.0
 70
    11
 71
     3
 72
    24
 73
    20
 74
     0
 42
0.0000000001
 43
0.0000000001
 12
1.0
 22
0.0
 32
0.0
 13
1.0
 23
0.0
 33
0.0
 40
0.0
 40
0.0
 40
0.0
 40
0.0
 40
0.1666666666666667
 40
0.1666666666666667
 40
0.1666666666666667
 40
0.1666666666666667
 40
0.3333333333333333
 40
0.3333333333333333
 40
0.3333333333333333
 40
0.3333333333333333
 40
0.5
 40
0.5
 40
0.5
 40
0.5
 40
0.6666666666666666
 40
0.6666666666666666
 40
0.6666666666666666
 40
0.6666666666666666
 40
1.0
 40
1.0
 40
1.0
 40
1.0
 10
77.2566
 20
-47.7988
 30
0.0
 10
77.2566
 20
-47.7988
 30
0.0
 10
77.7231
 20
-47.7988
 30
0.0
 10
77.7231
 20
-47.7988
 30
0.0
 10
77.7231
 20
-47.7988
 30
0.0
 10
78.7175
 20
-44.0142
 30
0.0
 10
81.1353
 20
-40.9405
 30
0.0
 10
83.7298
 20
-38.8709
 30
0.0
 10
83.7298
 20
-38.8709
 30
0.0
 10
81.1172
 20
-32.7926
 30
0.0
 10
81.3517
 20
-28.7274
 30
0.0
 10
82.384
 20
-23.1597
 30
0.0
 10
82.384
 20
-23.1597
 30
0.0
 10
81.257
 20
-24.5897
 30
0.0
 10
79.0654
 20
-25.497
 30
0.0
 10
77.2566
 20
-25.6675
 30
0.0
 10
77.2566
 20
-25.6675
 30
0.0
 10
77.2566
 20
-25.6675
 30
0.0
 10
77.2566
 20
-47.7988
 30
0.0
 10
77.2566
 20
-47.7988
 30
0.0
  0
SPLINE
  5
75
330
1F
100
AcDbEntity
  8
layer 1
 62
   250
100
AcDbSpline
210
0.0
220
0.0
230
1.0
 70
    11
 71
     3
 72
    28
 73
    24
 74
     0
 42
0.0000000001
 43
0.0000000001
 12
1.0
 22
0.0
 32
0.0
 13
1.0
 23
0.0
 33
0.0
 40
0.0
 40
0.0
 40
0.0
 40
0.0
 40
0.1428571428571428
 40
0.1428571428571428
 40
0.1428571428571428
 40
0.1428571428571428
 40
0.2857142857142857
 40
0.2857142857142857
 40
0.2857142857142857
 40
0.2857142857142857
 40
0.4285714285714285
 40
0.4285714285714285
 40
0.4285714285714285
 40
0.4285714285714285
 40
0.5714285714285714
 40
0.5714285714285714
 40
0.5714285714285714
 40
0.5714285714285714
 40
0.7142857142857143
 40
0.7142857142857143
 40
0.7142857142857143
 40
0.7142857142857143
 40
1.0
 40
1.0
 40
1.0
 40
1.0
 10
191.7812
 20
-48.3708
 30
0.0
 10
191.7812
 20
-48.3708
 30
0.0
 10
192.3042
 20
-48.3708
 30
0.0
 10
192.3042
 20
-48.3708
 30
0.0
 10
192.3042
 20
-48.3708
 30
0.0
 10
192.3042
 20
-48.3708
 30
0.0
 10
192.3042
 20
-25.1364
 30
0.0
 10
192.3042
 20
-25.1364
 30
0.0
 10
192.3042
 20
-25.1364
 30
0.0
 10
190.4419
 20
-25.3863
 30
0.0
 10
187.6965
 20
-24.1212
 30
0.0
 10
186.663
 20
-22.7831
 30
0.0
 10
186.663
 20
-22.7831
 30
0.0
 10
187.4978
 20
-28.8062
 30
0.0
 10
187.6005
 20
-33.0478
 30
0.0
 10
185.0931
 20
-38.3063
 30
0.0
 10
185.0931
 20
-38.3063
 30
0.0
 10
188.5351
 20
-41.086
 30
0.0
 10
190.9179
 20
-44.5653
 30
0.0
 10
191.7807
 20
-48.3712
 30
0.0
 10
191.7807
 20
-48.3712
 30
0.0
 10
191.7807
 20
-48.3712
 30
0.0
 10
191.7812
 20
-48.3708
 30
0.0
 10
191.7812
 20
-48.3708
 30
0.0
  0
SPLINE
  5
76
330
1F
100
AcDbEntity
  8
layer 1
 62
   250
100
AcDbSpline
210
0.0
220
0.0
230
1.0
 70
    11
 71
     3
 72
    64
 73
    60
 74
     0
 42
0.0000000001
 43
0.0000000001
 12
1.0
 22
0.0
 32
0.0
 13
1.0
 23
0.0
 33
0.0
 40
0.0
 40
0.0
 40
0.0
 40
0.0
 40
0.0625
 40
0.0625
 40
0.0625
 40
0.0625
 40
0.125
 40
0.125
 40
0.125
 40
0.125
 40
0.1875
 40
0.1875
 40
0.1875
 40
0.1875
 40
0.25
 40
0.25
 40
0.25
 40
0.25
 40
0.3125
 40
0.3125
 40
0.3125
 40
0.3125
 40
0.375
 40
0.375
 40
0.375
 40
0.375
 40
0.4375
 40
0.4375
 40
0.4375
 40
0.4375
 40
0.5
 40
0.5
 40
0.5
 40
0.5
 40
0.5625
 40
0.5625
 40
0.5625
 40
0.5625
 40
0.625
 40
0.625
 40
0.625
 40
0.625
 40
0.6875
 40
0.6875
 40
0.6875
 40
0.6875
 40
0.75
 40
0.75
 40
0.75
 40
0.75
 40
0.8125
 40
0.8125
 40
0.8125
 40
0.8125
 40
0.875
 40
0.875
 40
0.875
 40
0.875
 40
1.0
 40
1.0
 40
1.0
 40
1.0
 10
104.4136
 20
51.3419
 30
0.0
 10
103.8685
 20
51.5527
 30
0.0
 10
102.2251
 20
52.1218
 30
0.0
 10
101.0352
 20
51.8431
 30
0.0
 10
101.0352
 20
51.8431
 30
0.0
 10
98.2717
 20
51.4699
 30
0.0
 10
98.4265
 20
47.3249
 30
0.0
 10
101.9462
 20
46.9352
 30
0.0
 10
101.9462
 20
46.9352
 30
0.0
 10
101.3258
 20
46.8663
 30
0.0
 10
100.8459
 20
46.7679
 30
0.0
 10
100.2958
 20
46.5512
 30
0.0
 10
100.2958
 20
46.5512
 30
0.0
 10
99.117
 20
46.0662
 30
0.0
 10
98.7275
 20
44.6564
 30
0.0
 10
98.9832
 20
43.5708
 30
0.0
 10
98.9832
 20
43.5708
 30
0.0
 10
99.3428
 20
42.0481
 30
0.0
 10
102.8918
 20
42.0986
 30
0.0
 10
104.0863
 20
42.4792
 30
0.0
 10
104.0863
 20
42.4792
 30
0.0
 10
103.5087
 20
40.7237
 30
0.0
 10
103.9026
 20
39.1749
 30
0.0
 10
106.0086
 20
39.1194
 30
0.0
 10
106.0086
 20
39.1194
 30
0.0
 10
108.4879
 20
39.054
 30
0.0
 10
109.2577
 20
40.9839
 30
0.0
 10
108.8424
 20
42.5349
 30
0.0
 10
108.8424
 20
42.5349
 30
0.0
 10
110.645
 20
40.9999
 30
0.0
 10
113.2069
 20
40.6135
 30
0.0
 10
114.7379
 20
42.7049
 30
0.0
 10
114.7379
 20
42.7049
 30
0.0
 10
115.3489
 20
44.6116
 30
0.0
 10
114.4643
 20
45.8694
 30
0.0
 10
112.6538
 20
46.7262
 30
0.0
 10
112.6538
 20
46.7262
 30
0.0
 10
114.0808
 20
47.249
 30
0.0
 10
115.7627
 20
47.9876
 30
0.0
 10
114.8124
 20
49.9635
 30
0.0
 10
114.8124
 20
49.9635
 30
0.0
 10
113.5181
 20
51.64
 30
0.0
 10
112.1994
 20
51.6908
 30
0.0
 10
110.1751
 20
50.6053
 30
0.0
 10
110.1751
 20
50.6053
 30
0.0
 10
110.9582
 20
53.1017
 30
0.0
 10
109.8827
 20
54.4041
 30
0.0
 10
107.3018
 20
54.6264
 30
0.0
 10
107.3018
 20
54.6264
 30
0.0
 10
105.1973
 20
54.3444
 30
0.0
 10
104.257
 20
53.2512
 30
0.0
 10
104.5977
 20
51.2675
 30
0.0
 10
104.5977
 20
51.2675
 30
0.0
 10
104.537
 20
51.2914
 30
0.0
 10
104.4747
 20
51.316
 30
0.0
 10
104.4132
 20
51.3419
 30
0.0
 10
104.4132
 20
51.3419
 30
0.0
 10
104.4132
 20
51.3419
 30
0.0
 10
104.4136
 20
51.3419
 30
0.0
 10
104.4136
 20
51.3419
 30
0.0
  0
SPLINE
  5
77
330
1F
100
AcDbEntity
  8
layer 1
 62
   250
100
AcDbSpline
210
0.0
220
0.0
230
1.0
 70
    11
 71
     3
 72
    64
 73
    60
 74
     0
 42
0.0000000001
 43
0.0000000001
 12
1.0
 22
0.0
 32
0.0
 13
1.0
 23
0.0
 33
0.0
 40
0.0
 40
0.0
 40
0.0
 40
0.0
 40
0.0625
 40
0.0625
 40
0.0625
 40
0.0625
 40
0.125
 40
0.125
 40
0.125
 40
0.125
 40
0.1875
 40
0.1875
 40
0.1875
 40
0.1875
 40
0.25
 40
0.25
 40
0.25
 40
0.25
 40
0.3125
 40
0.3125
 40
0.3125
 40
0.3125
 40
0.375
 40
0.375
 40
0.375
 40
0.375
 40
0.4375
 40
0.4375
 40
0.4375
 40
0.4375
 40
0.5
 40
0.5
 40
0.5
 40
0.5
 40
0.5625
 40
0.5625
 40
0.5625
 40
0.5625
 40
0.625
 40
0.625
 40
0.625
 40
0.625
 40
0.6875
 40
0.6875
 40
0.6875
 40
0.6875
 40
0.75
 40
0.75
 40
0.75
 40
0.75
 40
0.8125
 40
0.8125
 40
0.8125
 40
0.8125
 40
0.875
 40
0.875
 40
0.875
 40
0.875
 40
1.0
 40
1.0
 40
1.0
 40
1.0
 10
164.6281
 20
51.3419
 30
0.0
 10
165.174
 20
51.5527
 30
0.0
 10
166.816
 20
52.1218
 30
0.0
 10
168.0061
 20
51.8431
 30
0.0
 10
168.0061
 20
51.8431
 30
0.0
 10
170.7709
 20
51.4699
 30
0.0
 10
170.6147
 20
47.3249
 30
0.0
 10
167.095
 20
46.9352
 30
0.0
 10
167.095
 20
46.9352
 30
0.0
 10
167.7159
 20
46.8663
 30
0.0
 10
168.1952
 20
46.7679
 30
0.0
 10
168.7453
 20
46.5512
 30
0.0
 10
168.7453
 20
46.5512
 30
0.0
 10
169.9247
 20
46.0662
 30
0.0
 10
170.3138
 20
44.6564
 30
0.0
 10
170.0579
 20
43.5708
 30
0.0
 10
170.0579
 20
43.5708
 30
0.0
 10
169.6998
 20
42.0481
 30
0.0
 10
166.1493
 20
42.0986
 30
0.0
 10
164.9548
 20
42.4792
 30
0.0
 10
164.9548
 20
42.4792
 30
0.0
 10
165.533
 20
40.7237
 30
0.0
 10
165.1387
 20
39.1749
 30
0.0
 10
163.0327
 20
39.1194
 30
0.0
 10
163.0327
 20
39.1194
 30
0.0
 10
160.5546
 20
39.054
 30
0.0
 10
159.7834
 20
40.9839
 30
0.0
 10
160.1987
 20
42.5349
 30
0.0
 10
160.1987
 20
42.5349
 30
0.0
 10
158.3967
 20
40.9999
 30
0.0
 10
155.8343
 20
40.6135
 30
0.0
 10
154.3031
 20
42.7049
 30
0.0
 10
154.3031
 20
42.7049
 30
0.0
 10
153.6928
 20
44.6116
 30
0.0
 10
154.5768
 20
45.8694
 30
0.0
 10
156.3875
 20
46.7262
 30
0.0
 10
156.3875
 20
46.7262
 30
0.0
 10
154.9617
 20
47.249
 30
0.0
 10
153.2783
 20
47.9876
 30
0.0
 10
154.2287
 20
49.9635
 30
0.0
 10
154.2287
 20
49.9635
 30
0.0
 10
155.5247
 20
51.64
 30
0.0
 10
156.8415
 20
51.6908
 30
0.0
 10
158.866
 20
50.6053
 30
0.0
 10
158.866
 20
50.6053
 30
0.0
 10
158.0833
 20
53.1017
 30
0.0
 10
159.1584
 20
54.4041
 30
0.0
 10
161.7393
 20
54.6264
 30
0.0
 10
161.7393
 20
54.6264
 30
0.0
 10
163.8455
 20
54.3444
 30
0.0
 10
164.7845
 20
53.2512
 30
0.0
 10
164.4434
 20
51.2675
 30
0.0
 10
164.4434
 20
51.2675
 30
0.0
 10
164.5056
 20
51.2914
 30
0.0
 10
164.5665
 20
51.316
 30
0.0
 10
164.6277
 20
51.3419
 30
0.0
 10
164.6277
 20
51.3419
 30
0.0
 10
164.6277
 20
51.3419
 30
0.0
 10
164.6281
 20
51.3419
 30
0.0
 10
164.6281
 20
51.3419
 30
0.0
  0
SPLINE
  5
78
330
1F
100
AcDbEntity
  8
layer 1
 62
   250
100
AcDbSpline
210
0.0
220
0.0
230
1.0
 70
    11
 71
     3
 72
    64
 73
    60
 74
     0
 42
0.0000000001
 43
0.0000000001
 12
1.0
 22
0.0
 32
0.0
 13
1.0
 23
0.0
 33
0.0
 40
0.0
 40
0.0
 40
0.0
 40
0.0
 40
0.0625
 40
0.0625
 40
0.0625
 40
0.0625
 40
0.125
 40
0.125
 40
0.125
 40
0.125
 40
0.1875
 40
0.1875
 40
0.1875
 40
0.1875
 40
0.25
 40
0.25
 40
0.25
 40
0.25
 40
0.3125
 40
0.3125
 40
0.3125
 40
0.3125
 40
0.375
 40
0.375
 40
0.375
 40
0.375
 40
0.4375
 40
0.4375
 40
0.4375
 40
0.4375
 40
0.5
 40
0.5
 40
0.5
 40
0.5
 40
0.5625
 40
0.5625
 40
0.5625
 40
0.5625
 40
0.625
 40
0.625
 40
0.625
 40
0.625
 40
0.6875
 40
0.6875
 40
0.6875
 40
0.6875
 40
0.75
 40
0.75
 40
0.75
 40
0.75
 40
0.8125
 40
0.8125
 40
0.8125
 40
0.8125
 40
0.875
 40
0.875
 40
0.875
 40
0.875
 40
1.0
 40
1.0
 40
1.0
 40
1.0
 10
104.4136
 20
-41.2525
 30
0.0
 10
103.8685
 20
-41.4633
 30
0.0
 10
102.2251
 20
-42.0326
 30
0.0
 10
101.0352
 20
-41.7539
 30
0.0
 10
101.0352
 20
-41.7539
 30
0.0
 10
98.2717
 20
-41.3803
 30
0.0
 10
98.4265
 20
-37.2358
 30
0.0
 10
101.9462
 20
-36.8462
 30
0.0
 10
101.9462
 20
-36.8462
 30
0.0
 10
101.3258
 20
-36.7773
 30
0.0
 10
100.8459
 20
-36.6789
 30
0.0
 10
100.2958
 20
-36.4622
 30
0.0
 10
100.2958
 20
-36.4622
 30
0.0
 10
99.117
 20
-35.977
 30
0.0
 10
98.7275
 20
-34.5672
 30
0.0
 10
98.9832
 20
-33.4818
 30
0.0
 10
98.9832
 20
-33.4818
 30
0.0
 10
99.3428
 20
-31.9585
 30
0.0
 10
102.8918
 20
-32.0095
 30
0.0
 10
104.0863
 20
-32.39
 30
0.0
 10
104.0863
 20
-32.39
 30
0.0
 10
103.5087
 20
-30.6345
 30
0.0
 10
103.9026
 20
-29.0857
 30
0.0
 10
106.0086
 20
-29.0302
 30
0.0
 10
106.0086
 20
-29.0302
 30
0.0
 10
108.4879
 20
-28.9645
 30
0.0
 10
109.2577
 20
-30.8947
 30
0.0
 10
108.8424
 20
-32.4459
 30
0.0
 10
108.8424
 20
-32.4459
 30
0.0
 10
110.645
 20
-30.911
 30
0.0
 10
113.2069
 20
-30.5245
 30
0.0
 10
114.7379
 20
-32.6159
 30
0.0
 10
114.7379
 20
-32.6159
 30
0.0
 10
115.3489
 20
-34.5221
 30
0.0
 10
114.4643
 20
-35.7803
 30
0.0
 10
112.6538
 20
-36.6372
 30
0.0
 10
112.6538
 20
-36.6372
 30
0.0
 10
114.0808
 20
-37.1598
 30
0.0
 10
115.7627
 20
-37.8986
 30
0.0
 10
114.8124
 20
-39.8745
 30
0.0
 10
114.8124
 20
-39.8745
 30
0.0
 10
113.5181
 20
-41.5506
 30
0.0
 10
112.1994
 20
-41.6016
 30
0.0
 10
110.1751
 20
-40.5163
 30
0.0
 10
110.1751
 20
-40.5163
 30
0.0
 10
110.9582
 20
-43.0123
 30
0.0
 10
109.8827
 20
-44.315
 30
0.0
 10
107.3018
 20
-44.5374
 30
0.0
 10
107.3018
 20
-44.5374
 30
0.0
 10
105.1973
 20
-44.255
 30
0.0
 10
104.257
 20
-43.162
 30
0.0
 10
104.5977
 20
-41.1785
 30
0.0
 10
104.5977
 20
-41.1785
 30
0.0
 10
104.537
 20
-41.2022
 30
0.0
 10
104.4747
 20
-41.227
 30
0.0
 10
104.4132
 20
-41.2527
 30
0.0
 10
104.4132
 20
-41.2527
 30
0.0
 10
104.4132
 20
-41.2527
 30
0.0
 10
104.4136
 20
-41.2525
 30
0.0
 10
104.4136
 20
-41.2525
 30
0.0
  0
SPLINE
  5
79
330
1F
100
AcDbEntity
  8
layer 1
 62
   250
100
AcDbSpline
210
0.0
220
0.0
230
1.0
 70
    11
 71
     3
 72
    64
 73
    60
 74
     0
 42
0.0000000001
 43
0.0000000001
 12
1.0
 22
0.0
 32
0.0
 13
1.0
 23
0.0
 33
0.0
 40
0.0
 40
0.0
 40
0.0
 40
0.0
 40
0.0625
 40
0.0625
 40
0.0625
 40
0.0625
 40
0.125
 40
0.125
 40
0.125
 40
0.125
 40
0.1875
 40
0.1875
 40
0.1875
 40
0.1875
 40
0.25
 40
0.25
 40
0.25
 40
0.25
 40
0.3125
 40
0.3125
 40
0.3125
 40
0.3125
 40
0.375
 40
0.375
 40
0.375
 40
0.375
 40
0.4375
 40
0.4375
 40
0.4375
 40
0.4375
 40
0.5
 40
0.5
 40
0.5
 40
0.5
 40
0.5625
 40
0.5625
 40
0.5625
 40
0.5625
 40
0.625
 40
0.625
 40
0.625
 40
0.625
 40
0.6875
 40
0.6875
 40
0.6875
 40
0.6875
 40
0.75
 40
0.75
 40
0.75
 40
0.75
 40
0.8125
 40
0.8125
 40
0.8125
 40
0.8125
 40
0.875
 40
0.875
 40
0.875
 40
0.875
 40
1.0
 40
1.0
 40
1.0
 40
1.0
 10
164.6281
 20
-41.2525
 30
0.0
 10
165.174
 20
-41.4633
 30
0.0
 10
166.816
 20
-42.0326
 30
0.0
 10
168.0061
 20
-41.7539
 30
0.0
 10
168.0061
 20
-41.7539
 30
0.0
 10
170.7709
 20
-41.3803
 30
0.0
 10
170.6147
 20
-37.2358
 30
0.0
 10
167.095
 20
-36.8462
 30
0.0
 10
167.095
 20
-36.8462
 30
0.0
 10
167.7159
 20
-36.7773
 30
0.0
 10
168.1952
 20
-36.6789
 30
0.0
 10
168.7453
 20
-36.4622
 30
0.0
 10
168.7453
 20
-36.4622
 30
0.0
 10
169.9247
 20
-35.977
 30
0.0
 10
170.3138
 20
-34.5672
 30
0.0
 10
170.0579
 20
-33.4818
 30
0.0
 10
170.0579
 20
-33.4818
 30
0.0
 10
169.6998
 20
-31.9585
 30
0.0
 10
166.1493
 20
-32.0095
 30
0.0
 10
164.9548
 20
-32.39
 30
0.0
 10
164.9548
 20
-32.39
 30
0.0
 10
165.533
 20
-30.6345
 30
0.0
 10
165.1387
 20
-29.0857
 30
0.0
 10
163.0327
 20
-29.0302
 30
0.0
 10
163.0327
 20
-29.0302
 30
0.0
 10
160.5546
 20
-28.9645
 30
0.0
 10
159.7834
 20
-30.8947
 30
0.0
 10
160.1987
 20
-32.4459
 30
0.0
 10
160.1987
 20
-32.4459
 30
0.0
 10
158.3967
 20
-30.911
 30
0.0
 10
155.8343
 20
-30.5245
 30
0.0
 10
154.3031
 20
-32.6159
 30
0.0
 10
154.3031
 20
-32.6159
 30
0.0
 10
153.6928
 20
-34.5221
 30
0.0
 10
154.5768
 20
-35.7803
 30
0.0
 10
156.3875
 20
-36.6372
 30
0.0
 10
156.3875
 20
-36.6372
 30
0.0
 10
154.9617
 20
-37.1598
 30
0.0
 10
153.2783
 20
-37.8986
 30
0.0
 10
154.2287
 20
-39.8745
 30
0.0
 10
154.2287
 20
-39.8745
 30
0.0
 10
155.5247
 20
-41.5506
 30
0.0
 10
156.8415
 20
-41.6016
 30
0.0
 10
158.866
 20
-40.5163
 30
0.0
 10
158.866
 20
-40.5163
 30
0.0
 10
158.0833
 20
-43.0123
 30
0.0
 10
159.1584
 20
-44.315
 30
0.0
 10
161.7393
 20
-44.5374
 30
0.0
 10
161.7393
 20
-44.5374
 30
0.0
 10
163.8455
 20
-44.255
 30
0.0
 10
164.7845
 20
-43.162
 30
0.0
 10
164.4434
 20
-41.1785
 30
0.0
 10
164.4434
 20
-41.1785
 30
0.0
 10
164.5056
 20
-41.2022
 30
0.0
 10
164.5665
 20
-41.227
 30
0.0
 10
164.6277
 20
-41.2527
 30
0.0
 10
164.6277
 20
-41.2527
 30
0.0
 10
164.6277
 20
-41.2527
 30
0.0
 10
164.6281
 20
-41.2525
 30
0.0
 10
164.6281
 20
-41.2525
 30
0.0
  0
SPLINE
  5
7A
330
1F
100
AcDbEntity
  8
layer 1
 62
   250
100
AcDbSpline
210
0.0
220
0.0
230
1.0
 70
    11
 71
     3
 72
    24
 73
    20
 74
     0
 42
0.0000000001
 43
0.0000000001
 12
1.0
 22
0.0
 32
0.0
 13
1.0
 23
0.0
 33
0.0
 40
0.0
 40
0.0
 40
0.0
 40
0.0
 40
0.1666666666666667
 40
0.1666666666666667
 40
0.1666666666666667
 40
0.1666666666666667
 40
0.3333333333333333
 40
0.3333333333333333
 40
0.3333333333333333
 40
0.3333333333333333
 40
0.5
 40
0.5
 40
0.5
 40
0.5
 40
0.6666666666666666
 40
0.6666666666666666
 40
0.6666666666666666
 40
0.6666666666666666
 40
1.0
 40
1.0
 40
1.0
 40
1.0
 10
110.7206
 20
102.23
 30
0.0
 10
112.1258
 20
102.23
 30
0.0
 10
113.2641
 20
101.1684
 30
0.0
 10
113.2641
 20
99.8597
 30
0.0
 10
113.2641
 20
99.8597
 30
0.0
 10
113.2644
 20
98.5509
 30
0.0
 10
112.1251
 20
97.4893
 30
0.0
 10
110.7201
 20
97.4893
 30
0.0
 10
110.7201
 20
97.4893
 30
0.0
 10
109.3164
 20
97.4893
 30
0.0
 10
108.1766
 20
98.5509
 30
0.0
 10
108.1766
 20
99.8597
 30
0.0
 10
108.1766
 20
99.8597
 30
0.0
 10
108.1768
 20
101.1686
 30
0.0
 10
109.3156
 20
102.23
 30
0.0
 10
110.7201
 20
102.23
 30
0.0
 10
110.7201
 20
102.23
 30
0.0
 10
110.7201
 20
102.23
 30
0.0
 10
110.7206
 20
102.23
 30
0.0
 10
110.7206
 20
102.23
 30
0.0
  0
SPLINE
  5
7B
330
1F
100
AcDbEntity
  8
layer 1
 62
   250
100
AcDbSpline
210
0.0
220
0.0
230
1.0
 70
    11
 71
     3
 72
    24
 73
    20
 74
     0
 42
0.0000000001
 43
0.0000000001
 12
1.0
 22
0.0
 32
0.0
 13
1.0
 23
0.0
 33
0.0
 40
0.0
 40
0.0
 40
0.0
 40
0.0
 40
0.1666666666666667
 40
0.1666666666666667
 40
0.1666666666666667
 40
0.1666666666666667
 40
0.3333333333333333
 40
0.3333333333333333
 40
0.3333333333333333
 40
0.3333333333333333
 40
0.5
 40
0.5
 40
0.5
 40
0.5
 40
0.6666666666666666
 40
0.6666666666666666
 40
0.6666666666666666
 40
0.6666666666666666
 40
1.0
 40
1.0
 40
1.0
 40
1.0
 10
159.1245
 20
102.23
 30
0.0
 10
160.5289
 20
102.23
 30
0.0
 10
161.6679
 20
101.1684
 30
0.0
 10
161.6679
 20
99.8597
 30
0.0
 10
161.6679
 20
99.8597
 30
0.0
 10
161.6685
 20
98.5509
 30
0.0
 10
160.5287
 20
97.4893
 30
0.0
 10
159.1241
 20
97.4893
 30
0.0
 10
159.1241
 20
97.4893
 30
0.0
 10
157.7193
 20
97.4893
 30
0.0
 10
156.5803
 20
98.5509
 30
0.0
 10
156.5803
 20
99.8597
 30
0.0
 10
156.5803
 20
99.8597
 30
0.0
 10
156.5807
 20
101.1686
 30
0.0
 10
157.7193
 20
102.23
 30
0.0
 10
159.1241
 20
102.23
 30
0.0
 10
159.1241
 20
102.23
 30
0.0
 10
159.1241
 20
102.23
 30
0.0
 10
159.1245
 20
102.23
 30
0.0
 10
159.1245
 20
102.23
 30
0.0
  0
SPLINE
  5
7C
330
1F
100
AcDbEntity
  8
layer 1
 62
   250
100
AcDbSpline
210
0.0
220
0.0
230
1.0
 70
    11
 71
     3
 72
    24
 73
    20
 74
     0
 42
0.0000000001
 43
0.0000000001
 12
1.0
 22
0.0
 32
0.0
 13
1.0
 23
0.0
 33
0.0
 40
0.0
 40
0.0
 40
0.0
 40
0.0
 40
0.1666666666666667
 40
0.1666666666666667
 40
0.1666666666666667
 40
0.1666666666666667
 40
0.3333333333333333
 40
0.3333333333333333
 40
0.3333333333333333
 40
0.3333333333333333
 40
0.5
 40
0.5
 40
0.5
 40
0.5
 40
0.6666666666666666
 40
0.6666666666666666
 40
0.6666666666666666
 40
0.6666666666666666
 40
1.0
 40
1.0
 40
1.0
 40
1.0
 10
110.7206
 20
-87.3277
 30
0.0
 10
112.1258
 20
-87.3277
 30
0.0
 10
113.2641
 20
-88.3893
 30
0.0
 10
113.2641
 20
-89.6981
 30
0.0
 10
113.2641
 20
-89.6981
 30
0.0
 10
113.2644
 20
-91.0069
 30
0.0
 10
112.1251
 20
-92.0685
 30
0.0
 10
110.7201
 20
-92.0685
 30
0.0
 10
110.7201
 20
-92.0685
 30
0.0
 10
109.3164
 20
-92.0685
 30
0.0
 10
108.1766
 20
-91.0071
 30
0.0
 10
108.1766
 20
-89.6981
 30
0.0
 10
108.1766
 20
-89.6981
 30
0.0
 10
108.1768
 20
-88.3893
 30
0.0
 10
109.3156
 20
-87.3279
 30
0.0
 10
110.7201
 20
-87.3279
 30
0.0
 10
110.7201
 20
-87.3279
 30
0.0
 10
110.7201
 20
-87.3279
 30
0.0
 10
110.7206
 20
-87.3277
 30
0.0
 10
110.7206
 20
-87.3277
 30
0.0
  0
SPLINE
  5
7D
330
1F
100
AcDbEntity
  8
layer 1
 62
   250
100
AcDbSpline
210
0.0
220
0.0
230
1.0
 70
    11
 71
     3
 72
    24
 73
    20
 74
     0
 42
0.0000000001
 43
0.0000000001
 12
1.0
 22
0.0
 32
0.0
 13
1.0
 23
0.0
 33
0.0
 40
0.0
 40
0.0
 40
0.0
 40
0.0
 40
0.1666666666666667
 40
0.1666666666666667
 40
0.1666666666666667
 40
0.1666666666666667
 40
0.3333333333333333
 40
0.3333333333333333
 40
0.3333333333333333
 40
0.3333333333333333
 40
0.5
 40
0.5
 40
0.5
 40
0.5
 40
0.6666666666666666
 40
0.6666666666666666
 40
0.6666666666666666
 40
0.6666666666666666
 40
1.0
 40
1.0
 40
1.0
 40
1.0
 10
159.1245
 20
-87.3277
 30
0.0
 10
160.5289
 20
-87.3277
 30
0.0
 10
161.6679
 20
-88.3893
 30
0.0
 10
161.6679
 20
-89.6981
 30
0.0
 10
161.6679
 20
-89.6981
 30
0.0
 10
161.6685
 20
-91.0069
 30
0.0
 10
160.5287
 20
-92.0685
 30
0.0
 10
159.1241
 20
-92.0685
 30
0.0
 10
159.1241
 20
-92.0685
 30
0.0
 10
157.7193
 20
-92.0685
 30
0.0
 10
156.5803
 20
-91.0071
 30
0.0
 10
156.5803
 20
-89.6981
 30
0.0
 10
156.5803
 20
-89.6981
 30
0.0
 10
156.5807
 20
-88.3893
 30
0.0
 10
157.7193
 20
-87.3279
 30
0.0
 10
159.1241
 20
-87.3279
 30
0.0
 10
159.1241
 20
-87.3279
 30
0.0
 10
159.1241
 20
-87.3279
 30
0.0
 10
159.1245
 20
-87.3277
 30
0.0
 10
159.1245
 20
-87.3277
 30
0.0
  0
SPLINE
  5
7E
330
1F
100
AcDbEntity
  8
layer 1
 62
   250
100
AcDbSpline
210
0.0
220
0.0
230
1.0
 70
    11
 71
     3
 72
    20
 73
    16
 74
     0
 42
0.0000000001
 43
0.0000000001
 12
1.0
 22
0.0
 32
0.0
 13
1.0
 23
0.0
 33
0.0
 40
0.0
 40
0.0
 40
0.0
 40
0.0
 40
0.2
 40
0.2
 40
0.2
 40
0.2
 40
0.4
 40
0.4
 40
0.4
 40
0.4
 40
0.6
 40
0.6
 40
0.6
 40
0.6
 40
1.0
 40
1.0
 40
1.0
 40
1.0
 10
134.3565
 20
-62.1157
 30
0.0
 10
136.1708
 20
-62.1157
 30
0.0
 10
137.6421
 20
-64.4007
 30
0.0
 10
137.6421
 20
-67.2184
 30
0.0
 10
137.6421
 20
-67.2184
 30
0.0
 10
137.6421
 20
-70.0361
 30
0.0
 10
136.1708
 20
-72.3211
 30
0.0
 10
134.3565
 20
-72.3211
 30
0.0
 10
134.3565
 20
-72.3211
 30
0.0
 10
132.5421
 20
-72.3211
 30
0.0
 10
131.0707
 20
-70.0361
 30
0.0
 10
131.0707
 20
-67.2184
 30
0.0
 10
131.0707
 20
-67.2184
 30
0.0
 10
131.0707
 20
-64.4007
 30
0.0
 10
132.5421
 20
-62.1157
 30
0.0
 10
134.3565
 20
-62.1157
 30
0.0
  0
SPLINE
  5
7F
330
1F
100
AcDbEntity
  8
layer 1
 62
   250
100
AcDbSpline
210
0.0
220
0.0
230
1.0
 70
    11
 71
     3
 72
    12
 73
     8
 74
     0
 42
0.0000000001
 43
0.0000000001
 12
1.0
 22
0.0
 32
0.0
 13
1.0
 23
0.0
 33
0.0
 40
0.0
 40
0.0
 40
0.0
 40
0.0
 40
0.3333333333333333
 40
0.3333333333333333
 40
0.3333333333333333
 40
0.3333333333333333
 40
1.0
 40
1.0
 40
1.0
 40
1.0
 10
134.25
 20
-57.3751
 30
0.0
 10
134.25
 20
-57.3751
 30
0.0
 10
126.8658
 20
-51.8115
 30
0.0
 10
134.25
 20
-45.4249
 30
0.0
 10
134.25
 20
-45.4249
 30
0.0
 10
134.25
 20
-45.4249
 30
0.0
 10
140.8568
 20
-50.8239
 30
0.0
 10
134.25
 20
-57.3751
 30
0.0
  0
SPLINE
  5
80
330
1F
100
AcDbEntity
  8
layer 1
 62
   250
100
AcDbSpline
210
0.0
220
0.0
230
1.0
 70
    11
 71
     3
 72
    20
 73
    16
 74
     0
 42
0.0000000001
 43
0.0000000001
 12
1.0
 22
0.0
 32
0.0
 13
1.0
 23
0.0
 33
0.0
 40
0.0
 40
0.0
 40
0.0
 40
0.0
 40
0.2
 40
0.2
 40
0.2
 40
0.2
 40
0.4
 40
0.4
 40
0.4
 40
0.4
 40
0.6
 40
0.6
 40
0.6
 40
0.6
 40
1.0
 40
1.0
 40
1.0
 40
1.0
 10
134.6061
 20
71.8253
 30
0.0
 10
136.4206
 20
71.8253
 30
0.0
 10
137.8919
 20
74.1103
 30
0.0
 10
137.8919
 20
76.928
 30
0.0
 10
137.8919
 20
76.928
 30
0.0
 10
137.8919
 20
79.7457
 30
0.0
 10
136.4206
 20
82.0307
 30
0.0
 10
134.6061
 20
82.0307
 30
0.0
 10
134.6061
 20
82.0307
 30
0.0
 10
132.7919
 20
82.0307
 30
0.0
 10
131.3203
 20
79.7457
 30
0.0
 10
131.3203
 20
76.928
 30
0.0
 10
131.3203
 20
76.928
 30
0.0
 10
131.3203
 20
74.1103
 30
0.0
 10
132.7919
 20
71.8253
 30
0.0
 10
134.6061
 20
71.8253
 30
0.0
  0
SPLINE
  5
81
330
1F
100
AcDbEntity
  8
layer 1
 62
   250
100
AcDbSpline
210
0.0
220
0.0
230
1.0
 70
    11
 71
     3
 72
    12
 73
     8
 74
     0
 42
0.0000000001
 43
0.0000000001
 12
1.0
 22
0.0
 32
0.0
 13
1.0
 23
0.0
 33
0.0
 40
0.0
 40
0.0
 40
0.0
 40
0.0
 40
0.3333333333333333
 40
0.3333333333333333
 40
0.3333333333333333
 40
0.3333333333333333
 40
1.0
 40
1.0
 40
1.0
 40
1.0
 10
134.4998
 20
66.9859
 30
0.0
 10
134.4998
 20
66.9859
 30
0.0
 10
127.1154
 20
61.4223
 30
0.0
 10
134.4998
 20
55.0358
 30
0.0
 10
134.4998
 20
55.0358
 30
0.0
 10
134.4998
 20
55.0358
 30
0.0
 10
141.1066
 20
60.4347
 30
0.0
 10
134.4998
 20
66.9859
 30
0.0
  0
ENDSEC
  0
SECTION
  2
OBJECTS
  0
DICTIONARY
  5
C
330
0
100
AcDbDictionary
281
     1
  3
ACAD_GROUP
350
D
  3
ACAD_LAYOUT
350
1A
  3
ACAD_MATERIAL
350
3B
  3
ACAD_MLEADERSTYLE
350
A4
  3
ACAD_MLINESTYLE
350
17
  3
ACAD_PLOTSETTINGS
350
19
  3
ACAD_PLOTSTYLENAME
350
E
  3
ACAD_TABLESTYLE
350
A3
  3
ACAD_VISUALSTYLE
350
2A
  0
DICTIONARY
  5
D
102
{ACAD_REACTORS
330
C
102
}
330
C
100
AcDbDictionary
281
     1
  0
DICTIONARY
  5
1A
102
{ACAD_REACTORS
330
C
102
}
330
C
100
AcDbDictionary
281
     1
  3
Layout1
350
1E
  3
Layout2
350
26
  3
Model
350
22
  0
DICTIONARY
  5
3B
102
{ACAD_REACTORS
330
C
102
}
330
C
100
AcDbDictionary
281
     1
  3
ByBlock
350
3D
  3
ByLayer
350
3C
  3
Global
350
3E
  0
DICTIONARY
  5
A4
102
{ACAD_REACTORS
330
C
102
}
330
C
100
AcDbDictionary
281
     1
  0
DICTIONARY
  5
17
102
{ACAD_REACTORS
330
C
102
}
330
C
100
AcDbDictionary
281
     1
  3
Standard
350
18
  0
DICTIONARY
  5
19
102
{ACAD_REACTORS
330
C
102
}
330
C
100
AcDbDictionary
281
     1
  0
ACDBDICTIONARYWDFLT
  5
E
102
{ACAD_REACTORS
330
C
102
}
330
C
100
AcDbDictionary
281
     1
  3
Normal
350
F
100
AcDbDictionaryWithDefault
340
F
  0
DICTIONARY
  5
A3
102
{ACAD_REACTORS
330
C
102
}
330
C
100
AcDbDictionary
281
     1
  0
DICTIONARY
  5
2A
102
{ACAD_REACTORS
330
C
102
}
330
C
100
AcDbDictionary
281
     1
  3
2dWireframe
350
2F
  3
3D Hidden
350
31
  3
3dWireframe
350
30
  3
Basic
350
32
  3
Brighten
350
36
  3
ColorChange
350
3A
  3
Conceptual
350
34
  3
Dim
350
35
  3
Facepattern
350
39
  3
Flat
350
2B
  3
FlatWithEdges
350
2C
  3
Gouraud
350
2D
  3
GouraudWithEdges
350
2E
  3
Linepattern
350
38
  3
Realistic
350
33
  3
Thicken
350
37
  0
LAYOUT
  5
1E
102
{ACAD_REACTORS
330
1A
102
}
330
1A
100
AcDbPlotSettings
  1

  2
none_device
  4

  6

 40
0.0
 41
0.0
 42
0.0
 43
0.0
 44
0.0
 45
0.0
 46
0.0
 47
0.0
 48
0.0
 49
0.0
140
0.0
141
0.0
142
1.0
143
1.0
 70
   688
 72
     0
 73
     0
 74
     5
  7

 75
    16
 76
     0
 77
     2
 78
   300
147
1.0
148
0.0
149
0.0
100
AcDbLayout
  1
Layout1
 70
     1
 71
     1
 10
0.0
 20
0.0
 11
12.0
 21
9.0
 12
0.0
 22
0.0
 32
0.0
 14
1.000000000000000E+20
 24
1.000000000000000E+20
 34
1.000000000000000E+20
 15
-1.000000000000000E+20
 25
-1.000000000000000E+20
 35
-1.000000000000000E+20
146
0.0
 13
0.0
 23
0.0
 33
0.0
 16
1.0
 26
0.0
 36
0.0
 17
0.0
 27
1.0
 37
0.0
 76
     0
330
1B
  0
LAYOUT
  5
26
102
{ACAD_REACTORS
330
1A
102
}
330
1A
100
AcDbPlotSettings
  1

  2
none_device
  4

  6

 40
0.0
 41
0.0
 42
0.0
 43
0.0
 44
0.0
 45
0.0
 46
0.0
 47
0.0
 48
0.0
 49
0.0
140
0.0
141
0.0
142
1.0
143
1.0
 70
   688
 72
     0
 73
     0
 74
     5
  7

 75
    16
 76
     0
 77
     2
 78
   300
147
1.0
148
0.0
149
0.0
100
AcDbLayout
  1
Layout2
 70
     1
 71
     2
 10
0.0
 20
0.0
 11
0.0
 21
0.0
 12
0.0
 22
0.0
 32
0.0
 14
0.0
 24
0.0
 34
0.0
 15
0.0
 25
0.0
 35
0.0
146
0.0
 13
0.0
 23
0.0
 33
0.0
 16
1.0
 26
0.0
 36
0.0
 17
0.0
 27
1.0
 37
0.0
 76
     0
330
23
  0
LAYOUT
  5
22
102
{ACAD_REACTORS
330
1A
102
}
330
1A
100
AcDbPlotSettings
  1

  2
none_device
  4

  6

 40
0.0
 41
0.0
 42
0.0
 43
0.0
 44
0.0
 45
0.0
 46
0.0
 47
0.0
 48
0.0
 49
0.0
140
0.0
141
0.0
142
1.0
143
1.0
 70
  1712
 72
     0
 73
     0
 74
     0
  7

 75
     0
 76
     0
 77
     2
 78
   300
147
1.0
148
0.0
149
0.0
100
AcDbLayout
  1
Model
 70
     1
 71
     0
 10
0.0
 20
0.0
 11
12.0
 21
9.0
 12
0.0
 22
0.0
 32
0.0
 14
73.0113
 24
-106.7449
 34
0.0
 15
196.5493
 25
116.1448
 35
0.0
146
0.0
 13
0.0
 23
0.0
 33
0.0
 16
1.0
 26
0.0
 36
0.0
 17
0.0
 27
1.0
 37
0.0
 76
     0
330
1F
331
29
  0
MATERIAL
  5
3D
102
{ACAD_REACTORS
330
3B
102
}
330
3B
100
AcDbMaterial
  1
ByBlock
 72
     1
 94
      127
  0
MATERIAL
  5
3C
102
{ACAD_REACTORS
330
3B
102
}
330
3B
100
AcDbMaterial
  1
ByLayer
 72
     1
 94
      127
  0
MATERIAL
  5
3E
102
{ACAD_REACTORS
330
3B
102
}
330
3B
100
AcDbMaterial
  1
Global
 72
     1
 94
      127
  0
MLINESTYLE
  5
18
102
{ACAD_REACTORS
330
17
102
}
330
17
100
AcDbMlineStyle
  2
Standard
 70
     0
  3

 62
   256
 51
90.0
 52
90.0
 71
     2
 49
0.5
 62
   256
  6
BYLAYER
 49
-0.5
 62
   256
  6
BYLAYER
  0
ACDBPLACEHOLDER
  5
F
102
{ACAD_REACTORS
330
E
102
}
330
E
  0
VISUALSTYLE
  5
2F
102
{ACAD_REACTORS
330
2A
102
}
102
{ACAD_XDICTIONARY
360
8B
102
}
330
2A
100
AcDbVisualStyle
  2
2dWireframe
 70
     4
 71
     0
 72
     2
 73
     0
 90
        0
 40
-0.6
 41
-30.0
 62
     5
 63
     7
421
 16777215
 74
     1
 91
        4
 64
     7
 65
   257
 75
     1
175
     1
 42
1.0
 92
        0
 66
   257
 43
1.0
 76
     1
 77
     6
 78
     2
 67
     7
 79
     5
170
     0
171
     0
290
     0
174
     0
 93
        1
 44
0.0
173
     0
291
     0
 45
0.0
  0
VISUALSTYLE
  5
31
102
{ACAD_REACTORS
330
2A
102
}
102
{ACAD_XDICTIONARY
360
8F
102
}
330
2A
100
AcDbVisualStyle
  2
3D Hidden
 70
     6
 71
     1
 72
     2
 73
     2
 90
        0
 40
-0.6
 41
-30.0
 62
     5
 63
     7
421
 16777215
 74
     2
 91
        2
 64
     7
 65
   257
 75
     2
175
     1
 42
40.0
 92
        0
 66
   257
 43
1.0
 76
     1
 77
     6
 78
     2
 67
     7
 79
     3
170
     0
171
     0
290
     0
174
     0
 93
        1
 44
0.0
173
     0
291
     0
 45
0.0
  0
VISUALSTYLE
  5
30
102
{ACAD_REACTORS
330
2A
102
}
102
{ACAD_XDICTIONARY
360
8D
102
}
330
2A
100
AcDbVisualStyle
  2
3dWireframe
 70
     5
 71
     0
 72
     2
 73
     0
 90
        0
 40
-0.6
 41
-30.0
 62
     5
 63
     7
421
 16777215
 74
     1
 91
        4
 64
     7
 65
   257
 75
     1
175
     1
 42
1.0
 92
        0
 66
   257
 43
1.0
 76
     1
 77
     6
 78
     2
 67
     7
 79
     5
170
     0
171
     0
290
     0
174
     0
 93
        1
 44
0.0
173
     0
291
     0
 45
0.0
  0
VISUALSTYLE
  5
32
102
{ACAD_REACTORS
330
2A
102
}
102
{ACAD_XDICTIONARY
360
91
102
}
330
2A
100
AcDbVisualStyle
  2
Basic
 70
     7
 71
     1
 72
     0
 73
     1
 90
        0
 40
-0.6
 41
-30.0
 62
     5
 63
     7
421
 16777215
 74
     0
 91
        4
 64
     7
 65
   257
 75
     1
175
     1
 42
1.0
 92
        8
 66
     7
 43
1.0
 76
     1
 77
     6
 78
     2
 67
     7
 79
     5
170
     0
171
     0
290
     0
174
     0
 93
        1
 44
0.0
173
     0
291
     1
 45
0.0
  0
VISUALSTYLE
  5
36
102
{ACAD_REACTORS
330
2A
102
}
102
{ACAD_XDICTIONARY
360
99
102
}
330
2A
100
AcDbVisualStyle
  2
Brighten
 70
    12
 71
     2
 72
     2
 73
     0
 90
        0
 40
-0.6
 41
-30.0
 62
     5
 63
     7
421
 16777215
 74
     1
 91
        4
 64
     7
 65
   257
 75
     1
175
     1
 42
1.0
 92
        8
 66
     7
 43
1.0
 76
     1
 77
     6
 78
     2
 67
     7
 79
     5
170
     0
171
     0
290
     0
174
     0
 93
        1
 44
50.0
173
     0
291
     1
 45
0.0
  0
VISUALSTYLE
  5
3A
102
{ACAD_REACTORS
330
2A
102
}
102
{ACAD_XDICTIONARY
360
A1
102
}
330
2A
100
AcDbVisualStyle
  2
ColorChange
 70
    16
 71
     2
 72
     2
 73
     3
 90
        0
 40
-0.6
 41
-30.0
 62
     5
 63
     8
421
  8421504
 74
     1
 91
        4
 64
     7
 65
   257
 75
     1
175
     1
 42
1.0
 92
        8
 66
     8
424
  8421504
 43
1.0
 76
     1
 77
     6
 78
     2
 67
     7
 79
     5
170
     0
171
     0
290
     0
174
     0
 93
        1
 44
0.0
173
     0
291
     1
 45
0.0
  0
VISUALSTYLE
  5
34
102
{ACAD_REACTORS
330
2A
102
}
102
{ACAD_XDICTIONARY
360
95
102
}
330
2A
100
AcDbVisualStyle
  2
Conceptual
 70
     9
 71
     3
 72
     2
 73
     0
 90
        0
 40
-0.6
 41
-30.0
 62
     5
 63
     7
421
 16777215
 74
     2
 91
        2
 64
     7
 65
   257
 75
     1
175
     1
 42
40.0
 92
        8
 66
     7
 43
1.0
 76
     1
 77
     6
 78
     2
 67
     7
 79
     3
170
     0
171
     0
290
     0
174
     0
 93
        1
 44
0.0
173
     0
291
     0
 45
0.0
  0
VISUALSTYLE
  5
35
102
{ACAD_REACTORS
330
2A
102
}
102
{ACAD_XDICTIONARY
360
97
102
}
330
2A
100
AcDbVisualStyle
  2
Dim
 70
    11
 71
     2
 72
     2
 73
     0
 90
        0
 40
-0.6
 41
-30.0
 62
     5
 63
     7
421
 16777215
 74
     1
 91
        4
 64
     7
 65
   257
 75
     1
175
     1
 42
1.0
 92
        8
 66
     7
 43
1.0
 76
     1
 77
     6
 78
     2
 67
     7
 79
     5
170
     0
171
     0
290
     0
174
     0
 93
        1
 44
-50.0
173
     0
291
     1
 45
0.0
  0
VISUALSTYLE
  5
39
102
{ACAD_REACTORS
330
2A
102
}
102
{ACAD_XDICTIONARY
360
9F
102
}
330
2A
100
AcDbVisualStyle
  2
Facepattern
 70
    15
 71
     2
 72
     2
 73
     0
 90
        0
 40
-0.6
 41
-30.0
 62
     5
 63
     7
421
 16777215
 74
     1
 91
        4
 64
     7
 65
   257
 75
     1
175
     1
 42
1.0
 92
        8
 66
     7
 43
1.0
 76
     1
 77
     6
 78
     2
 67
     7
 79
     5
170
     0
171
     0
290
     0
174
     0
 93
        1
 44
0.0
173
     0
291
     1
 45
0.0
  0
VISUALSTYLE
  5
2B
102
{ACAD_REACTORS
330
2A
102
}
102
{ACAD_XDICTIONARY
360
83
102
}
330
2A
100
AcDbVisualStyle
  2
Flat
 70
     0
 71
     2
 72
     1
 73
     1
 90
        2
 40
-0.6
 41
30.0
 62
     5
 63
     7
421
 16777215
 74
     0
 91
        4
 64
     7
 65
   257
 75
     1
175
     1
 42
1.0
 92
        8
 66
     7
 43
1.0
 76
     1
 77
     6
 78
     2
 67
     7
 79
     5
170
     0
171
     0
290
     0
174
     0
 93
       13
 44
0.0
173
     0
291
     1
 45
0.0
  0
VISUALSTYLE
  5
2C
102
{ACAD_REACTORS
330
2A
102
}
102
{ACAD_XDICTIONARY
360
85
102
}
330
2A
100
AcDbVisualStyle
  2
FlatWithEdges
 70
     1
 71
     2
 72
     1
 73
     1
 90
        2
 40
-0.6
 41
30.0
 62
     5
 63
     7
421
 16777215
 74
     1
 91
        4
 64
     7
 65
   257
 75
     1
175
     1
 42
1.0
 92
        0
 66
   257
 43
1.0
 76
     1
 77
     6
 78
     2
 67
     7
 79
     5
170
     0
171
     0
290
     0
174
     0
 93
       13
 44
0.0
173
     0
291
     1
 45
0.0
  0
VISUALSTYLE
  5
2D
102
{ACAD_REACTORS
330
2A
102
}
102
{ACAD_XDICTIONARY
360
87
102
}
330
2A
100
AcDbVisualStyle
  2
Gouraud
 70
     2
 71
     2
 72
     2
 73
     1
 90
        2
 40
-0.6
 41
30.0
 62
     5
 63
     7
421
 16777215
 74
     0
 91
        4
 64
     7
 65
   257
 75
     1
175
     1
 42
1.0
 92
        0
 66
     7
 43
1.0
 76
     1
 77
     6
 78
     2
 67
     7
 79
     5
170
     0
171
     0
290
     0
174
     0
 93
       13
 44
0.0
173
     0
291
     1
 45
0.0
  0
VISUALSTYLE
  5
2E
102
{ACAD_REACTORS
330
2A
102
}
102
{ACAD_XDICTIONARY
360
89
102
}
330
2A
100
AcDbVisualStyle
  2
GouraudWithEdges
 70
     3
 71
     2
 72
     2
 73
     1
 90
        2
 40
-0.6
 41
30.0
 62
     5
 63
     7
421
 16777215
 74
     1
 91
        4
 64
     7
 65
   257
 75
     1
175
     1
 42
1.0
 92
        0
 66
   257
 43
1.0
 76
     1
 77
     6
 78
     2
 67
     7
 79
     5
170
     0
171
     0
290
     0
174
     0
 93
       13
 44
0.0
173
     0
291
     1
 45
0.0
  0
VISUALSTYLE
  5
38
102
{ACAD_REACTORS
330
2A
102
}
102
{ACAD_XDICTIONARY
360
9D
102
}
330
2A
100
AcDbVisualStyle
  2
Linepattern
 70
    14
 71
     2
 72
     2
 73
     0
 90
        0
 40
-0.6
 41
-30.0
 62
     5
 63
     7
421
 16777215
 74
     1
 91
        4
 64
     7
 65
   257
 75
     7
175
     7
 42
1.0
 92
        8
 66
     7
 43
1.0
 76
     1
 77
     6
 78
     2
 67
     7
 79
     5
170
     0
171
     0
290
     0
174
     0
 93
        1
 44
0.0
173
     0
291
     1
 45
0.0
  0
VISUALSTYLE
  5
33
102
{ACAD_REACTORS
330
2A
102
}
102
{ACAD_XDICTIONARY
360
93
102
}
330
2A
100
AcDbVisualStyle
  2
Realistic
 70
     8
 71
     2
 72
     2
 73
     0
 90
        0
 40
-0.6
 41
-30.0
 62
     5
 63
     7
421
 16777215
 74
     1
 91
        0
 64
     7
 65
   257
 75
     1
175
     1
 42
1.0
 92
        8
 66
     8
424
  7895160
 43
1.0
 76
     1
 77
     6
 78
     2
 67
     7
 79
     5
170
     0
171
     0
290
     0
174
     0
 93
       13
 44
0.0
173
     0
291
     0
 45
0.0
  0
VISUALSTYLE
  5
37
102
{ACAD_REACTORS
330
2A
102
}
102
{ACAD_XDICTIONARY
360
9B
102
}
330
2A
100
AcDbVisualStyle
  2
Thicken
 70
    13
 71
     2
 72
     2
 73
     0
 90
        0
 40
-0.6
 41
-30.0
 62
     5
 63
     7
421
 16777215
 74
     1
 91
        4
 64
     7
 65
   257
 75
     1
175
     1
 42
1.0
 92
       12
 66
     7
 43
1.0
 76
     1
 77
     6
 78
     2
 67
     7
 79
     5
170
     0
171
     0
290
     0
174
     0
 93
        1
 44
0.0
173
     0
291
     1
 45
0.0
  0
DICTIONARY
  5
8B
330
2F
100
AcDbDictionary
280
     1
281
     1
  3
ACAD_XREC_ROUNDTRIP
360
8C
  0
DICTIONARY
  5
8F
330
31
100
AcDbDictionary
280
     1
281
     1
  3
ACAD_XREC_ROUNDTRIP
360
90
  0
DICTIONARY
  5
8D
330
30
100
AcDbDictionary
280
     1
281
     1
  3
ACAD_XREC_ROUNDTRIP
360
8E
  0
DICTIONARY
  5
91
330
32
100
AcDbDictionary
280
     1
281
     1
  3
ACAD_XREC_ROUNDTRIP
360
92
  0
DICTIONARY
  5
99
330
36
100
AcDbDictionary
280
     1
281
     1
  3
ACAD_XREC_ROUNDTRIP
360
9A
  0
DICTIONARY
  5
A1
330
3A
100
AcDbDictionary
280
     1
281
     1
  3
ACAD_XREC_ROUNDTRIP
360
A2
  0
DICTIONARY
  5
95
330
34
100
AcDbDictionary
280
     1
281
     1
  3
ACAD_XREC_ROUNDTRIP
360
96
  0
DICTIONARY
  5
97
330
35
100
AcDbDictionary
280
     1
281
     1
  3
ACAD_XREC_ROUNDTRIP
360
98
  0
DICTIONARY
  5
9F
330
39
100
AcDbDictionary
280
     1
281
     1
  3
ACAD_XREC_ROUNDTRIP
360
A0
  0
DICTIONARY
  5
83
330
2B
100
AcDbDictionary
280
     1
281
     1
  3
ACAD_XREC_ROUNDTRIP
360
84
  0
DICTIONARY
  5
85
330
2C
100
AcDbDictionary
280
     1
281
     1
  3
ACAD_XREC_ROUNDTRIP
360
86
  0
DICTIONARY
  5
87
330
2D
100
AcDbDictionary
280
     1
281
     1
  3
ACAD_XREC_ROUNDTRIP
360
88
  0
DICTIONARY
  5
89
330
2E
100
AcDbDictionary
280
     1
281
     1
  3
ACAD_XREC_ROUNDTRIP
360
8A
  0
DICTIONARY
  5
9D
330
38
100
AcDbDictionary
280
     1
281
     1
  3
ACAD_XREC_ROUNDTRIP
360
9E
  0
DICTIONARY
  5
93
330
33
100
AcDbDictionary
280
     1
281
     1
  3
ACAD_XREC_ROUNDTRIP
360
94
  0
DICTIONARY
  5
9B
330
37
100
AcDbDictionary
280
     1
281
     1
  3
ACAD_XREC_ROUNDTRIP
360
9C
  0
XRECORD
  5
8C
102
{ACAD_REACTORS
330
8B
102
}
330
8B
100
AcDbXrecord
280
     1
102
RTVSPropertyOp0
 70
     1
102
RTVSPropertyOp1
 70
     1
102
RTVSPropertyOp2
 70
     1
102
RTVSPropertyOp3
 70
     1
102
RTVSPropertyOp4
 70
     1
102
RTVSPropertyOp5
 70
     1
102
RTVSPropertyOp6
 70
     1
102
RTVSPropertyOp7
 70
     1
102
RTVSPropertyOp8
 70
     1
102
RTVSPropertyOp9
 70
     1
102
RTVSPropertyOp10
 70
     1
102
RTVSPropertyOp11
 70
     1
102
RTVSPropertyOp12
 70
     1
102
RTVSPropertyOp13
 70
     1
102
RTVSPropertyOp14
 70
     1
102
RTVSPropertyOp15
 70
     1
102
RTVSPropertyOp16
 70
     1
102
RTVSPropertyOp17
 70
     1
102
RTVSPropertyOp18
 70
     1
102
RTVSPropertyOp19
 70
     1
102
RTVSPropertyOp20
 70
     1
102
RTVSPropertyOp21
 70
     1
102
RTVSPropertyOp22
 70
     1
102
RTVSPropertyOp23
 70
     1
102
RTVSPropertyOp24
 70
     1
102
RTVSPropertyOp25
 70
     1
102
RTVSPropertyOp26
 70
     1
102
RTVSPropertyOp27
 70
     1
102
RTVSPropertyOp28
 70
     1
102
RTVSPropertyOp29
 70
     1
102
RTVSPropertyOp30
 70
     1
102
RTVSPropertyOp31
 70
     1
102
RTVSPropertyOp32
 70
     1
  0
XRECORD
  5
90
102
{ACAD_REACTORS
330
8F
102
}
330
8F
100
AcDbXrecord
280
     1
102
RTVSPropertyOp0
 70
     1
102
RTVSPropertyOp1
 70
     1
102
RTVSPropertyOp2
 70
     1
102
RTVSPropertyOp3
 70
     1
102
RTVSPropertyOp4
 70
     1
102
RTVSPropertyOp5
 70
     1
102
RTVSPropertyOp6
 70
     1
102
RTVSPropertyOp7
 70
     1
102
RTVSPropertyOp8
 70
     1
102
RTVSPropertyOp9
 70
     1
102
RTVSPropertyOp10
 70
     1
102
RTVSPropertyOp11
 70
     1
102
RTVSPropertyOp12
 70
     1
102
RTVSPropertyOp13
 70
     1
102
RTVSPropertyOp14
 70
     1
102
RTVSPropertyOp15
 70
     1
102
RTVSPropertyOp16
 70
     1
102
RTVSPropertyOp17
 70
     1
102
RTVSPropertyOp18
 70
     1
102
RTVSPropertyOp19
 70
     1
102
RTVSPropertyOp20
 70
     1
102
RTVSPropertyOp21
 70
     1
102
RTVSPropertyOp22
 70
     1
102
RTVSPropertyOp23
 70
     1
102
RTVSPropertyOp24
 70
     1
102
RTVSPropertyOp25
 70
     1
102
RTVSPropertyOp26
 70
     1
102
RTVSPropertyOp27
 70
     1
102
RTVSPropertyOp28
 70
     1
102
RTVSPropertyOp29
 70
     1
102
RTVSPropertyOp30
 70
     1
102
RTVSPropertyOp31
 70
     1
102
RTVSPropertyOp32
 70
     1
  0
XRECORD
  5
8E
102
{ACAD_REACTORS
330
8D
102
}
330
8D
100
AcDbXrecord
280
     1
102
RTVSPropertyOp0
 70
     1
102
RTVSPropertyOp1
 70
     1
102
RTVSPropertyOp2
 70
     1
102
RTVSPropertyOp3
 70
     1
102
RTVSPropertyOp4
 70
     1
102
RTVSPropertyOp5
 70
     1
102
RTVSPropertyOp6
 70
     1
102
RTVSPropertyOp7
 70
     1
102
RTVSPropertyOp8
 70
     1
102
RTVSPropertyOp9
 70
     1
102
RTVSPropertyOp10
 70
     1
102
RTVSPropertyOp11
 70
     1
102
RTVSPropertyOp12
 70
     1
102
RTVSPropertyOp13
 70
     1
102
RTVSPropertyOp14
 70
     1
102
RTVSPropertyOp15
 70
     1
102
RTVSPropertyOp16
 70
     1
102
RTVSPropertyOp17
 70
     1
102
RTVSPropertyOp18
 70
     1
102
RTVSPropertyOp19
 70
     1
102
RTVSPropertyOp20
 70
     1
102
RTVSPropertyOp21
 70
     1
102
RTVSPropertyOp22
 70
     1
102
RTVSPropertyOp23
 70
     1
102
RTVSPropertyOp24
 70
     1
102
RTVSPropertyOp25
 70
     1
102
RTVSPropertyOp26
 70
     1
102
RTVSPropertyOp27
 70
     1
102
RTVSPropertyOp28
 70
     1
102
RTVSPropertyOp29
 70
     1
102
RTVSPropertyOp30
 70
     1
102
RTVSPropertyOp31
 70
     1
102
RTVSPropertyOp32
 70
     1
  0
XRECORD
  5
92
102
{ACAD_REACTORS
330
91
102
}
330
91
100
AcDbXrecord
280
     1
102
RTVSPropertyOp0
 70
     1
102
RTVSPropertyOp1
 70
     1
102
RTVSPropertyOp2
 70
     1
102
RTVSPropertyOp3
 70
     1
102
RTVSPropertyOp4
 70
     1
102
RTVSPropertyOp5
 70
     1
102
RTVSPropertyOp6
 70
     1
102
RTVSPropertyOp7
 70
     1
102
RTVSPropertyOp8
 70
     1
102
RTVSPropertyOp9
 70
     1
102
RTVSPropertyOp10
 70
     1
102
RTVSPropertyOp11
 70
     1
102
RTVSPropertyOp12
 70
     1
102
RTVSPropertyOp13
 70
     1
102
RTVSPropertyOp14
 70
     1
102
RTVSPropertyOp15
 70
     1
102
RTVSPropertyOp16
 70
     1
102
RTVSPropertyOp17
 70
     1
102
RTVSPropertyOp18
 70
     1
102
RTVSPropertyOp19
 70
     1
102
RTVSPropertyOp20
 70
     1
102
RTVSPropertyOp21
 70
     1
102
RTVSPropertyOp22
 70
     1
102
RTVSPropertyOp23
 70
     1
102
RTVSPropertyOp24
 70
     1
102
RTVSPropertyOp25
 70
     1
102
RTVSPropertyOp26
 70
     1
102
RTVSPropertyOp27
 70
     1
102
RTVSPropertyOp28
 70
     1
102
RTVSPropertyOp29
 70
     1
102
RTVSPropertyOp30
 70
     1
102
RTVSPropertyOp31
 70
     1
102
RTVSPropertyOp32
 70
     1
  0
XRECORD
  5
9A
102
{ACAD_REACTORS
330
99
102
}
330
99
100
AcDbXrecord
280
     1
102
RTVSPropertyOp0
 70
     1
102
RTVSPropertyOp1
 70
     1
102
RTVSPropertyOp2
 70
     1
102
RTVSPropertyOp3
 70
     1
102
RTVSPropertyOp4
 70
     1
102
RTVSPropertyOp5
 70
     1
102
RTVSPropertyOp6
 70
     1
102
RTVSPropertyOp7
 70
     1
102
RTVSPropertyOp8
 70
     1
102
RTVSPropertyOp9
 70
     1
102
RTVSPropertyOp10
 70
     1
102
RTVSPropertyOp11
 70
     1
102
RTVSPropertyOp12
 70
     1
102
RTVSPropertyOp13
 70
     1
102
RTVSPropertyOp14
 70
     1
102
RTVSPropertyOp15
 70
     1
102
RTVSPropertyOp16
 70
     1
102
RTVSPropertyOp17
 70
     1
102
RTVSPropertyOp18
 70
     1
102
RTVSPropertyOp19
 70
     1
102
RTVSPropertyOp20
 70
     1
102
RTVSPropertyOp21
 70
     1
102
RTVSPropertyOp22
 70
     1
102
RTVSPropertyOp23
 70
     1
102
RTVSPropertyOp24
 70
     1
102
RTVSPropertyOp25
 70
     1
102
RTVSPropertyOp26
 70
     1
102
RTVSPropertyOp27
 70
     1
102
RTVSPropertyOp28
 70
     1
102
RTVSPropertyOp29
 70
     1
102
RTVSPropertyOp30
 70
     1
102
RTVSPropertyOp31
 70
     1
102
RTVSPropertyOp32
 70
     1
  0
XRECORD
  5
A2
102
{ACAD_REACTORS
330
A1
102
}
330
A1
100
AcDbXrecord
280
     1
102
RTVSPropertyOp0
 70
     1
102
RTVSPropertyOp1
 70
     1
102
RTVSPropertyOp2
 70
     1
102
RTVSPropertyOp3
 70
     1
102
RTVSPropertyOp4
 70
     1
102
RTVSPropertyOp5
 70
     1
102
RTVSPropertyOp6
 70
     1
102
RTVSPropertyOp7
 70
     1
102
RTVSPropertyOp8
 70
     1
102
RTVSPropertyOp9
 70
     1
102
RTVSPropertyOp10
 70
     1
102
RTVSPropertyOp11
 70
     1
102
RTVSPropertyOp12
 70
     1
102
RTVSPropertyOp13
 70
     1
102
RTVSPropertyOp14
 70
     1
102
RTVSPropertyOp15
 70
     1
102
RTVSPropertyOp16
 70
     1
102
RTVSPropertyOp17
 70
     1
102
RTVSPropertyOp18
 70
     1
102
RTVSPropertyOp19
 70
     1
102
RTVSPropertyOp20
 70
     1
102
RTVSPropertyOp21
 70
     1
102
RTVSPropertyOp22
 70
     1
102
RTVSPropertyOp23
 70
     1
102
RTVSPropertyOp24
 70
     1
102
RTVSPropertyOp25
 70
     1
102
RTVSPropertyOp26
 70
     1
102
RTVSPropertyOp27
 70
     1
102
RTVSPropertyOp28
 70
     1
102
RTVSPropertyOp29
 70
     1
102
RTVSPropertyOp30
 70
     1
102
RTVSPropertyOp31
 70
     1
102
RTVSPropertyOp32
 70
     1
  0
XRECORD
  5
96
102
{ACAD_REACTORS
330
95
102
}
330
95
100
AcDbXrecord
280
     1
102
RTVSPropertyOp0
 70
     1
102
RTVSPropertyOp1
 70
     1
102
RTVSPropertyOp2
 70
     1
102
RTVSPropertyOp3
 70
     1
102
RTVSPropertyOp4
 70
     1
102
RTVSPropertyOp5
 70
     1
102
RTVSPropertyOp6
 70
     1
102
RTVSPropertyOp7
 70
     1
102
RTVSPropertyOp8
 70
     1
102
RTVSPropertyOp9
 70
     1
102
RTVSPropertyOp10
 70
     1
102
RTVSPropertyOp11
 70
     1
102
RTVSPropertyOp12
 70
     1
102
RTVSPropertyOp13
 70
     1
102
RTVSPropertyOp14
 70
     1
102
RTVSPropertyOp15
 70
     1
102
RTVSPropertyOp16
 70
     1
102
RTVSPropertyOp17
 70
     1
102
RTVSPropertyOp18
 70
     1
102
RTVSPropertyOp19
 70
     1
102
RTVSPropertyOp20
 70
     1
102
RTVSPropertyOp21
 70
     1
102
RTVSPropertyOp22
 70
     1
102
RTVSPropertyOp23
 70
     1
102
RTVSPropertyOp24
 70
     1
102
RTVSPropertyOp25
 70
     1
102
RTVSPropertyOp26
 70
     1
102
RTVSPropertyOp27
 70
     1
102
RTVSPropertyOp28
 70
     1
102
RTVSPropertyOp29
 70
     1
102
RTVSPropertyOp30
 70
     1
102
RTVSPropertyOp31
 70
     1
102
RTVSPropertyOp32
 70
     1
  0
XRECORD
  5
98
102
{ACAD_REACTORS
330
97
102
}
330
97
100
AcDbXrecord
280
     1
102
RTVSPropertyOp0
 70
     1
102
RTVSPropertyOp1
 70
     1
102
RTVSPropertyOp2
 70
     1
102
RTVSPropertyOp3
 70
     1
102
RTVSPropertyOp4
 70
     1
102
RTVSPropertyOp5
 70
     1
102
RTVSPropertyOp6
 70
     1
102
RTVSPropertyOp7
 70
     1
102
RTVSPropertyOp8
 70
     1
102
RTVSPropertyOp9
 70
     1
102
RTVSPropertyOp10
 70
     1
102
RTVSPropertyOp11
 70
     1
102
RTVSPropertyOp12
 70
     1
102
RTVSPropertyOp13
 70
     1
102
RTVSPropertyOp14
 70
     1
102
RTVSPropertyOp15
 70
     1
102
RTVSPropertyOp16
 70
     1
102
RTVSPropertyOp17
 70
     1
102
RTVSPropertyOp18
 70
     1
102
RTVSPropertyOp19
 70
     1
102
RTVSPropertyOp20
 70
     1
102
RTVSPropertyOp21
 70
     1
102
RTVSPropertyOp22
 70
     1
102
RTVSPropertyOp23
 70
     1
102
RTVSPropertyOp24
 70
     1
102
RTVSPropertyOp25
 70
     1
102
RTVSPropertyOp26
 70
     1
102
RTVSPropertyOp27
 70
     1
102
RTVSPropertyOp28
 70
     1
102
RTVSPropertyOp29
 70
     1
102
RTVSPropertyOp30
 70
     1
102
RTVSPropertyOp31
 70
     1
102
RTVSPropertyOp32
 70
     1
  0
XRECORD
  5
A0
102
{ACAD_REACTORS
330
9F
102
}
330
9F
100
AcDbXrecord
280
     1
102
RTVSPropertyOp0
 70
     1
102
RTVSPropertyOp1
 70
     1
102
RTVSPropertyOp2
 70
     1
102
RTVSPropertyOp3
 70
     1
102
RTVSPropertyOp4
 70
     1
102
RTVSPropertyOp5
 70
     1
102
RTVSPropertyOp6
 70
     1
102
RTVSPropertyOp7
 70
     1
102
RTVSPropertyOp8
 70
     1
102
RTVSPropertyOp9
 70
     1
102
RTVSPropertyOp10
 70
     1
102
RTVSPropertyOp11
 70
     1
102
RTVSPropertyOp12
 70
     1
102
RTVSPropertyOp13
 70
     1
102
RTVSPropertyOp14
 70
     1
102
RTVSPropertyOp15
 70
     1
102
RTVSPropertyOp16
 70
     1
102
RTVSPropertyOp17
 70
     1
102
RTVSPropertyOp18
 70
     1
102
RTVSPropertyOp19
 70
     1
102
RTVSPropertyOp20
 70
     1
102
RTVSPropertyOp21
 70
     1
102
RTVSPropertyOp22
 70
     1
102
RTVSPropertyOp23
 70
     1
102
RTVSPropertyOp24
 70
     1
102
RTVSPropertyOp25
 70
     1
102
RTVSPropertyOp26
 70
     1
102
RTVSPropertyOp27
 70
     1
102
RTVSPropertyOp28
 70
     1
102
RTVSPropertyOp29
 70
     1
102
RTVSPropertyOp30
 70
     1
102
RTVSPropertyOp31
 70
     1
102
RTVSPropertyOp32
 70
     1
  0
XRECORD
  5
84
102
{ACAD_REACTORS
330
83
102
}
330
83
100
AcDbXrecord
280
     1
102
RTVSPropertyOp0
 70
     1
102
RTVSPropertyOp1
 70
     1
102
RTVSPropertyOp2
 70
     1
102
RTVSPropertyOp3
 70
     1
102
RTVSPropertyOp4
 70
     1
102
RTVSPropertyOp5
 70
     1
102
RTVSPropertyOp6
 70
     1
102
RTVSPropertyOp7
 70
     1
102
RTVSPropertyOp8
 70
     1
102
RTVSPropertyOp9
 70
     1
102
RTVSPropertyOp10
 70
     1
102
RTVSPropertyOp11
 70
     1
102
RTVSPropertyOp12
 70
     1
102
RTVSPropertyOp13
 70
     1
102
RTVSPropertyOp14
 70
     1
102
RTVSPropertyOp15
 70
     1
102
RTVSPropertyOp16
 70
     1
102
RTVSPropertyOp17
 70
     1
102
RTVSPropertyOp18
 70
     1
102
RTVSPropertyOp19
 70
     1
102
RTVSPropertyOp20
 70
     1
102
RTVSPropertyOp21
 70
     1
102
RTVSPropertyOp22
 70
     1
102
RTVSPropertyOp23
 70
     1
102
RTVSPropertyOp24
 70
     1
102
RTVSPropertyOp25
 70
     1
102
RTVSPropertyOp26
 70
     1
102
RTVSPropertyOp27
 70
     1
102
RTVSPropertyOp28
 70
     1
102
RTVSPropertyOp29
 70
     1
102
RTVSPropertyOp30
 70
     1
102
RTVSPropertyOp31
 70
     1
102
RTVSPropertyOp32
 70
     1
  0
XRECORD
  5
86
102
{ACAD_REACTORS
330
85
102
}
330
85
100
AcDbXrecord
280
     1
102
RTVSPropertyOp0
 70
     1
102
RTVSPropertyOp1
 70
     1
102
RTVSPropertyOp2
 70
     1
102
RTVSPropertyOp3
 70
     1
102
RTVSPropertyOp4
 70
     1
102
RTVSPropertyOp5
 70
     1
102
RTVSPropertyOp6
 70
     1
102
RTVSPropertyOp7
 70
     1
102
RTVSPropertyOp8
 70
     1
102
RTVSPropertyOp9
 70
     1
102
RTVSPropertyOp10
 70
     1
102
RTVSPropertyOp11
 70
     1
102
RTVSPropertyOp12
 70
     1
102
RTVSPropertyOp13
 70
     1
102
RTVSPropertyOp14
 70
     1
102
RTVSPropertyOp15
 70
     1
102
RTVSPropertyOp16
 70
     1
102
RTVSPropertyOp17
 70
     1
102
RTVSPropertyOp18
 70
     1
102
RTVSPropertyOp19
 70
     1
102
RTVSPropertyOp20
 70
     1
102
RTVSPropertyOp21
 70
     1
102
RTVSPropertyOp22
 70
     1
102
RTVSPropertyOp23
 70
     1
102
RTVSPropertyOp24
 70
     1
102
RTVSPropertyOp25
 70
     1
102
RTVSPropertyOp26
 70
     1
102
RTVSPropertyOp27
 70
     1
102
RTVSPropertyOp28
 70
     1
102
RTVSPropertyOp29
 70
     1
102
RTVSPropertyOp30
 70
     1
102
RTVSPropertyOp31
 70
     1
102
RTVSPropertyOp32
 70
     1
  0
XRECORD
  5
88
102
{ACAD_REACTORS
330
87
102
}
330
87
100
AcDbXrecord
280
     1
102
RTVSPropertyOp0
 70
     1
102
RTVSPropertyOp1
 70
     1
102
RTVSPropertyOp2
 70
     1
102
RTVSPropertyOp3
 70
     1
102
RTVSPropertyOp4
 70
     1
102
RTVSPropertyOp5
 70
     1
102
RTVSPropertyOp6
 70
     1
102
RTVSPropertyOp7
 70
     1
102
RTVSPropertyOp8
 70
     1
102
RTVSPropertyOp9
 70
     1
102
RTVSPropertyOp10
 70
     1
102
RTVSPropertyOp11
 70
     1
102
RTVSPropertyOp12
 70
     1
102
RTVSPropertyOp13
 70
     1
102
RTVSPropertyOp14
 70
     1
102
RTVSPropertyOp15
 70
     1
102
RTVSPropertyOp16
 70
     1
102
RTVSPropertyOp17
 70
     1
102
RTVSPropertyOp18
 70
     1
102
RTVSPropertyOp19
 70
     1
102
RTVSPropertyOp20
 70
     1
102
RTVSPropertyOp21
 70
     1
102
RTVSPropertyOp22
 70
     1
102
RTVSPropertyOp23
 70
     1
102
RTVSPropertyOp24
 70
     1
102
RTVSPropertyOp25
 70
     1
102
RTVSPropertyOp26
 70
     1
102
RTVSPropertyOp27
 70
     1
102
RTVSPropertyOp28
 70
     1
102
RTVSPropertyOp29
 70
     1
102
RTVSPropertyOp30
 70
     1
102
RTVSPropertyOp31
 70
     1
102
RTVSPropertyOp32
 70
     1
  0
XRECORD
  5
8A
102
{ACAD_REACTORS
330
89
102
}
330
89
100
AcDbXrecord
280
     1
102
RTVSPropertyOp0
 70
     1
102
RTVSPropertyOp1
 70
     1
102
RTVSPropertyOp2
 70
     1
102
RTVSPropertyOp3
 70
     1
102
RTVSPropertyOp4
 70
     1
102
RTVSPropertyOp5
 70
     1
102
RTVSPropertyOp6
 70
     1
102
RTVSPropertyOp7
 70
     1
102
RTVSPropertyOp8
 70
     1
102
RTVSPropertyOp9
 70
     1
102
RTVSPropertyOp10
 70
     1
102
RTVSPropertyOp11
 70
     1
102
RTVSPropertyOp12
 70
     1
102
RTVSPropertyOp13
 70
     1
102
RTVSPropertyOp14
 70
     1
102
RTVSPropertyOp15
 70
     1
102
RTVSPropertyOp16
 70
     1
102
RTVSPropertyOp17
 70
     1
102
RTVSPropertyOp18
 70
     1
102
RTVSPropertyOp19
 70
     1
102
RTVSPropertyOp20
 70
     1
102
RTVSPropertyOp21
 70
     1
102
RTVSPropertyOp22
 70
     1
102
RTVSPropertyOp23
 70
     1
102
RTVSPropertyOp24
 70
     1
102
RTVSPropertyOp25
 70
     1
102
RTVSPropertyOp26
 70
     1
102
RTVSPropertyOp27
 70
     1
102
RTVSPropertyOp28
 70
     1
102
RTVSPropertyOp29
 70
     1
102
RTVSPropertyOp30
 70
     1
102
RTVSPropertyOp31
 70
     1
102
RTVSPropertyOp32
 70
     1
  0
XRECORD
  5
9E
102
{ACAD_REACTORS
330
9D
102
}
330
9D
100
AcDbXrecord
280
     1
102
RTVSPropertyOp0
 70
     1
102
RTVSPropertyOp1
 70
     1
102
RTVSPropertyOp2
 70
     1
102
RTVSPropertyOp3
 70
     1
102
RTVSPropertyOp4
 70
     1
102
RTVSPropertyOp5
 70
     1
102
RTVSPropertyOp6
 70
     1
102
RTVSPropertyOp7
 70
     1
102
RTVSPropertyOp8
 70
     1
102
RTVSPropertyOp9
 70
     1
102
RTVSPropertyOp10
 70
     1
102
RTVSPropertyOp11
 70
     1
102
RTVSPropertyOp12
 70
     1
102
RTVSPropertyOp13
 70
     1
102
RTVSPropertyOp14
 70
     1
102
RTVSPropertyOp15
 70
     1
102
RTVSPropertyOp16
 70
     1
102
RTVSPropertyOp17
 70
     1
102
RTVSPropertyOp18
 70
     1
102
RTVSPropertyOp19
 70
     1
102
RTVSPropertyOp20
 70
     1
102
RTVSPropertyOp21
 70
     1
102
RTVSPropertyOp22
 70
     1
102
RTVSPropertyOp23
 70
     1
102
RTVSPropertyOp24
 70
     1
102
RTVSPropertyOp25
 70
     1
102
RTVSPropertyOp26
 70
     1
102
RTVSPropertyOp27
 70
     1
102
RTVSPropertyOp28
 70
     1
102
RTVSPropertyOp29
 70
     1
102
RTVSPropertyOp30
 70
     1
102
RTVSPropertyOp31
 70
     1
102
RTVSPropertyOp32
 70
     1
  0
XRECORD
  5
94
102
{ACAD_REACTORS
330
93
102
}
330
93
100
AcDbXrecord
280
     1
102
RTVSPropertyOp0
 70
     1
102
RTVSPropertyOp1
 70
     1
102
RTVSPropertyOp2
 70
     1
102
RTVSPropertyOp3
 70
     1
102
RTVSPropertyOp4
 70
     1
102
RTVSPropertyOp5
 70
     1
102
RTVSPropertyOp6
 70
     1
102
RTVSPropertyOp7
 70
     1
102
RTVSPropertyOp8
 70
     1
102
RTVSPropertyOp9
 70
     1
102
RTVSPropertyOp10
 70
     1
102
RTVSPropertyOp11
 70
     1
102
RTVSPropertyOp12
 70
     1
102
RTVSPropertyOp13
 70
     1
102
RTVSPropertyOp14
 70
     1
102
RTVSPropertyOp15
 70
     1
102
RTVSPropertyOp16
 70
     1
102
RTVSPropertyOp17
 70
     1
102
RTVSPropertyOp18
 70
     1
102
RTVSPropertyOp19
 70
     1
102
RTVSPropertyOp20
 70
     1
102
RTVSPropertyOp21
 70
     1
102
RTVSPropertyOp22
 70
     1
102
RTVSPropertyOp23
 70
     1
102
RTVSPropertyOp24
 70
     1
102
RTVSPropertyOp25
 70
     1
102
RTVSPropertyOp26
 70
     1
102
RTVSPropertyOp27
 70
     1
102
RTVSPropertyOp28
 70
     1
102
RTVSPropertyOp29
 70
     1
102
RTVSPropertyOp30
 70
     1
102
RTVSPropertyOp31
 70
     1
102
RTVSPropertyOp32
 70
     1
  0
XRECORD
  5
9C
102
{ACAD_REACTORS
330
9B
102
}
330
9B
100
AcDbXrecord
280
     1
102
RTVSPropertyOp0
 70
     1
102
RTVSPropertyOp1
 70
     1
102
RTVSPropertyOp2
 70
     1
102
RTVSPropertyOp3
 70
     1
102
RTVSPropertyOp4
 70
     1
102
RTVSPropertyOp5
 70
     1
102
RTVSPropertyOp6
 70
     1
102
RTVSPropertyOp7
 70
     1
102
RTVSPropertyOp8
 70
     1
102
RTVSPropertyOp9
 70
     1
102
RTVSPropertyOp10
 70
     1
102
RTVSPropertyOp11
 70
     1
102
RTVSPropertyOp12
 70
     1
102
RTVSPropertyOp13
 70
     1
102
RTVSPropertyOp14
 70
     1
102
RTVSPropertyOp15
 70
     1
102
RTVSPropertyOp16
 70
     1
102
RTVSPropertyOp17
 70
     1
102
RTVSPropertyOp18
 70
     1
102
RTVSPropertyOp19
 70
     1
102
RTVSPropertyOp20
 70
     1
102
RTVSPropertyOp21
 70
     1
102
RTVSPropertyOp22
 70
     1
102
RTVSPropertyOp23
 70
     1
102
RTVSPropertyOp24
 70
     1
102
RTVSPropertyOp25
 70
     1
102
RTVSPropertyOp26
 70
     1
102
RTVSPropertyOp27
 70
     1
102
RTVSPropertyOp28
 70
     1
102
RTVSPropertyOp29
 70
     1
102
RTVSPropertyOp30
 70
     1
102
RTVSPropertyOp31
 70
     1
102
RTVSPropertyOp32
 70
     1
  0
ENDSEC
  0
EOF
