  0
SECTION
  2
HEADER
  9
$ACADVER
  1
AC1021
  9
$ACADMAINTVER
 70
    25
  9
$DWGCODEPAGE
  3
ANSI_1252
  9
$INSBASE
 10
0.0
 20
0.0
 30
0.0
  9
$EXTMIN
 10
-32.2562
 20
-106.3433
 30
0.0
  9
$EXTMAX
 10
71.2415
 20
116.7402
 30
0.0
  9
$LIMMIN
 10
0.0
 20
0.0
  9
$LIMMAX
 10
12.0
 20
9.0
  9
$ORTHOMODE
 70
     0
  9
$REGENMODE
 70
     1
  9
$FILLMODE
 70
     1
  9
$QTEXTMODE
 70
     0
  9
$MIRRTEXT
 70
     1
  9
$LTSCALE
 40
1.0
  9
$ATTMODE
 70
     1
  9
$TEXTSIZE
 40
0.2
  9
$TRACEWID
 40
0.05
  9
$TEXTSTYLE
  7
Standard
  9
$CLAYER
  8
0
  9
$CELTYPE
  6
ByLayer
  9
$CECOLOR
 62
   256
  9
$CELTSCALE
 40
1.0
  9
$DISPSILH
 70
     0
  9
$DIMSCALE
 40
1.0
  9
$DIMASZ
 40
0.18
  9
$DIMEXO
 40
0.0625
  9
$DIMDLI
 40
0.38
  9
$DIMRND
 40
0.0
  9
$DIMDLE
 40
0.0
  9
$DIMEXE
 40
0.18
  9
$DIMTP
 40
0.0
  9
$DIMTM
 40
0.0
  9
$DIMTXT
 40
0.18
  9
$DIMCEN
 40
0.09
  9
$DIMTSZ
 40
0.0
  9
$DIMTOL
 70
     0
  9
$DIMLIM
 70
     0
  9
$DIMTIH
 70
     1
  9
$DIMTOH
 70
     1
  9
$DIMSE1
 70
     0
  9
$DIMSE2
 70
     0
  9
$DIMTAD
 70
     0
  9
$DIMZIN
 70
     0
  9
$DIMBLK
  1

  9
$DIMASO
 70
     1
  9
$DIMSHO
 70
     1
  9
$DIMPOST
  1

  9
$DIMAPOST
  1

  9
$DIMALT
 70
     0
  9
$DIMALTD
 70
     2
  9
$DIMALTF
 40
25.4
  9
$DIMLFAC
 40
1.0
  9
$DIMTOFL
 70
     0
  9
$DIMTVP
 40
0.0
  9
$DIMTIX
 70
     0
  9
$DIMSOXD
 70
     0
  9
$DIMSAH
 70
     0
  9
$DIMBLK1
  1

  9
$DIMBLK2
  1

  9
$DIMSTYLE
  2
Standard
  9
$DIMCLRD
 70
     0
  9
$DIMCLRE
 70
     0
  9
$DIMCLRT
 70
     0
  9
$DIMTFAC
 40
1.0
  9
$DIMGAP
 40
0.09
  9
$DIMJUST
 70
     0
  9
$DIMSD1
 70
     0
  9
$DIMSD2
 70
     0
  9
$DIMTOLJ
 70
     1
  9
$DIMTZIN
 70
     0
  9
$DIMALTZ
 70
     0
  9
$DIMALTTZ
 70
     0
  9
$DIMUPT
 70
     0
  9
$DIMDEC
 70
     4
  9
$DIMTDEC
 70
     4
  9
$DIMALTU
 70
     2
  9
$DIMALTTD
 70
     2
  9
$DIMTXSTY
  7
Standard
  9
$DIMAUNIT
 70
     0
  9
$DIMADEC
 70
     0
  9
$DIMALTRND
 40
0.0
  9
$DIMAZIN
 70
     0
  9
$DIMDSEP
 70
    46
  9
$DIMATFIT
 70
     3
  9
$DIMFRAC
 70
     0
  9
$DIMLDRBLK
  1

  9
$DIMLUNIT
 70
     2
  9
$DIMLWD
 70
    -2
  9
$DIMLWE
 70
    -2
  9
$DIMTMOVE
 70
     0
  9
$DIMFXL
 40
1.0
  9
$DIMFXLON
 70
     0
  9
$DIMJOGANG
 40
0.7853981633974483
  9
$DIMTFILL
 70
     0
  9
$DIMTFILLCLR
 70
     0
  9
$DIMARCSYM
 70
     0
  9
$DIMLTYPE
  6

  9
$DIMLTEX1
  6

  9
$DIMLTEX2
  6

  9
$LUNITS
 70
     2
  9
$LUPREC
 70
     4
  9
$SKETCHINC
 40
0.1
  9
$FILLETRAD
 40
0.5
  9
$AUNITS
 70
     0
  9
$AUPREC
 70
     0
  9
$MENU
  1
.
  9
$ELEVATION
 40
0.0
  9
$PELEVATION
 40
0.0
  9
$THICKNESS
 40
0.0
  9
$LIMCHECK
 70
     0
  9
$CHAMFERA
 40
0.5
  9
$CHAMFERB
 40
0.5
  9
$CHAMFERC
 40
1.0
  9
$CHAMFERD
 40
0.0
  9
$SKPOLY
 70
     0
  9
$TDCREATE
 40
2458492.56796309
  9
$TDUCREATE
 40
2458492.56796309
  9
$TDUPDATE
 40
2458492.567963171
  9
$TDUUPDATE
 40
2458492.567963171
  9
$TDINDWG
 40
0.0000000116
  9
$TDUSRTIMER
 40
0.0000000116
  9
$USRTIMER
 70
     1
  9
$ANGBASE
 50
0.0
  9
$ANGDIR
 70
     0
  9
$PDMODE
 70
     0
  9
$PDSIZE
 40
0.0
  9
$PLINEWID
 40
0.0
  9
$SPLFRAME
 70
     0
  9
$SPLINETYPE
 70
     6
  9
$SPLINESEGS
 70
     8
  9
$HANDSEED
  5
B1
  9
$SURFTAB1
 70
     6
  9
$SURFTAB2
 70
     6
  9
$SURFTYPE
 70
     6
  9
$SURFU
 70
     6
  9
$SURFV
 70
     6
  9
$UCSBASE
  2

  9
$UCSNAME
  2

  9
$UCSORG
 10
0.0
 20
0.0
 30
0.0
  9
$UCSXDIR
 10
1.0
 20
0.0
 30
0.0
  9
$UCSYDIR
 10
0.0
 20
1.0
 30
0.0
  9
$UCSORTHOREF
  2

  9
$UCSORTHOVIEW
 70
     0
  9
$UCSORGTOP
 10
0.0
 20
0.0
 30
0.0
  9
$UCSORGBOTTOM
 10
0.0
 20
0.0
 30
0.0
  9
$UCSORGLEFT
 10
0.0
 20
0.0
 30
0.0
  9
$UCSORGRIGHT
 10
0.0
 20
0.0
 30
0.0
  9
$UCSORGFRONT
 10
0.0
 20
0.0
 30
0.0
  9
$UCSORGBACK
 10
0.0
 20
0.0
 30
0.0
  9
$PUCSBASE
  2

  9
$PUCSNAME
  2

  9
$PUCSORG
 10
0.0
 20
0.0
 30
0.0
  9
$PUCSXDIR
 10
1.0
 20
0.0
 30
0.0
  9
$PUCSYDIR
 10
0.0
 20
1.0
 30
0.0
  9
$PUCSORTHOREF
  2

  9
$PUCSORTHOVIEW
 70
     0
  9
$PUCSORGTOP
 10
0.0
 20
0.0
 30
0.0
  9
$PUCSORGBOTTOM
 10
0.0
 20
0.0
 30
0.0
  9
$PUCSORGLEFT
 10
0.0
 20
0.0
 30
0.0
  9
$PUCSORGRIGHT
 10
0.0
 20
0.0
 30
0.0
  9
$PUCSORGFRONT
 10
0.0
 20
0.0
 30
0.0
  9
$PUCSORGBACK
 10
0.0
 20
0.0
 30
0.0
  9
$USERI1
 70
     0
  9
$USERI2
 70
     0
  9
$USERI3
 70
     0
  9
$USERI4
 70
     0
  9
$USERI5
 70
     0
  9
$USERR1
 40
0.0
  9
$USERR2
 40
0.0
  9
$USERR3
 40
0.0
  9
$USERR4
 40
0.0
  9
$USERR5
 40
0.0
  9
$WORLDVIEW
 70
     1
  9
$SHADEDGE
 70
     3
  9
$SHADEDIF
 70
    70
  9
$TILEMODE
 70
     1
  9
$MAXACTVP
 70
    64
  9
$PINSBASE
 10
0.0
 20
0.0
 30
0.0
  9
$PLIMCHECK
 70
     0
  9
$PEXTMIN
 10
1.000000000000000E+20
 20
1.000000000000000E+20
 30
1.000000000000000E+20
  9
$PEXTMAX
 10
-1.000000000000000E+20
 20
-1.000000000000000E+20
 30
-1.000000000000000E+20
  9
$PLIMMIN
 10
0.0
 20
0.0
  9
$PLIMMAX
 10
12.0
 20
9.0
  9
$UNITMODE
 70
     0
  9
$VISRETAIN
 70
     1
  9
$PLINEGEN
 70
     0
  9
$PSLTSCALE
 70
     1
  9
$TREEDEPTH
 70
  3020
  9
$CMLSTYLE
  2
Standard
  9
$CMLJUST
 70
     0
  9
$CMLSCALE
 40
1.0
  9
$PROXYGRAPHICS
 70
     1
  9
$MEASUREMENT
 70
     0
  9
$CELWEIGHT
370
    -1
  9
$ENDCAPS
280
     0
  9
$JOINSTYLE
280
     0
  9
$LWDISPLAY
290
     0
  9
$INSUNITS
 70
     4
  9
$HYPERLINKBASE
  1

  9
$STYLESHEET
  1

  9
$XEDIT
290
     1
  9
$CEPSNTYPE
380
     0
  9
$PSTYLEMODE
290
     1
  9
$FINGERPRINTGUID
  2
{E07C28DB-127C-46F8-BC58-5616EE5373CD}
  9
$VERSIONGUID
  2
{FAEB1C32-E019-11D5-929B-00C0DF256EC4}
  9
$EXTNAMES
290
     1
  9
$PSVPSCALE
 40
0.0
  9
$OLESTARTUP
290
     0
  9
$SORTENTS
280
   127
  9
$INDEXCTL
280
     0
  9
$HIDETEXT
280
     1
  9
$XCLIPFRAME
290
     0
  9
$HALOGAP
280
     0
  9
$OBSCOLOR
 70
   257
  9
$OBSLTYPE
280
     0
  9
$INTERSECTIONDISPLAY
280
     0
  9
$INTERSECTIONCOLOR
 70
   257
  9
$DIMASSOC
280
     2
  9
$PROJECTNAME
  1

  9
$CAMERADISPLAY
290
     0
  9
$LENSLENGTH
 40
50.0
  9
$CAMERAHEIGHT
 40
0.0
  9
$STEPSPERSEC
 40
2.0
  9
$STEPSIZE
 40
6.0
  9
$3DDWFPREC
 40
2.0
  9
$PSOLWIDTH
 40
0.25
  9
$PSOLHEIGHT
 40
4.0
  9
$LOFTANG1
 40
1.570796326794897
  9
$LOFTANG2
 40
1.570796326794897
  9
$LOFTMAG1
 40
0.0
  9
$LOFTMAG2
 40
0.0
  9
$LOFTPARAM
 70
     7
  9
$LOFTNORMALS
280
     1
  9
$LATITUDE
 40
37.795
  9
$LONGITUDE
 40
-122.394
  9
$NORTHDIRECTION
 40
0.0
  9
$TIMEZONE
 70
 -8000
  9
$LIGHTGLYPHDISPLAY
280
     1
  9
$TILEMODELIGHTSYNCH
280
     1
  9
$SOLIDHIST
280
     1
  9
$SHOWHIST
280
     1
  9
$DWFFRAME
280
     2
  9
$DGNFRAME
280
     2
  9
$REALWORLDSCALE
290
     1
  9
$INTERFERECOLOR
 62
   256
  9
$CSHADOW
280
     0
  9
$SHADOWPLANELOCATION
 40
0.0
  0
ENDSEC
  0
SECTION
  2
CLASSES
  0
CLASS
  1
ACDBDICTIONARYWDFLT
  2
AcDbDictionaryWithDefault
  3
ObjectDBX Classes
 90
        0
 91
        4
280
     0
281
     0
  0
CLASS
  1
VISUALSTYLE
  2
AcDbVisualStyle
  3
ObjectDBX Classes
 90
     4095
 91
        4
280
     0
281
     0
  0
CLASS
  1
MATERIAL
  2
AcDbMaterial
  3
ObjectDBX Classes
 90
     1153
 91
        4
280
     0
281
     0
  0
ENDSEC
  0
SECTION
  2
TABLES
  0
TABLE
  2
VPORT
  5
8
330
0
100
AcDbSymbolTable
 70
     1
  0
VPORT
  5
29
330
8
100
AcDbSymbolTableRecord
100
AcDbViewportTableRecord
  2
*Active
 70
     0
 10
0.0
 20
0.0
 11
1.0
 21
1.0
 12
10.42990654205607
 22
4.5
 13
0.0
 23
0.0
 14
0.5
 24
0.5
 15
0.5
 25
0.5
 16
0.0
 26
0.0
 36
1.0
 17
0.0
 27
0.0
 37
0.0
 40
9.0
 41
1.972972972850329
 42
50.0
 43
0.0
 44
0.0
 50
0.0
 51
0.0
 71
     0
 72
   100
 73
     1
 74
     3
 75
     0
 76
     0
 77
     0
 78
     0
281
     0
 65
     1
110
0.0
120
0.0
130
0.0
111
1.0
121
0.0
131
0.0
112
0.0
122
1.0
132
0.0
 79
     0
146
0.0
 60
     3
 61
     5
292
     1
282
     1
141
0.0
142
0.0
 63
   250
  0
ENDTAB
  0
TABLE
  2
LTYPE
  5
5
330
0
100
AcDbSymbolTable
 70
     1
  0
LTYPE
  5
14
330
5
100
AcDbSymbolTableRecord
100
AcDbLinetypeTableRecord
  2
ByBlock
 70
     0
  3

 72
    65
 73
     0
 40
0.0
  0
LTYPE
  5
15
330
5
100
AcDbSymbolTableRecord
100
AcDbLinetypeTableRecord
  2
ByLayer
 70
     0
  3

 72
    65
 73
     0
 40
0.0
  0
LTYPE
  5
16
330
5
100
AcDbSymbolTableRecord
100
AcDbLinetypeTableRecord
  2
Continuous
 70
     0
  3
Solid line
 72
    65
 73
     0
 40
0.0
  0
ENDTAB
  0
TABLE
  2
LAYER
  5
2
330
0
100
AcDbSymbolTable
 70
     3
  0
LAYER
  5
10
330
2
100
AcDbSymbolTableRecord
100
AcDbLayerTableRecord
  2
0
 70
     0
 62
     7
  6
Continuous
370
    -3
390
F
347
3E
  0
LAYER
  5
40
330
2
100
AcDbSymbolTableRecord
100
AcDbLayerTableRecord
  2
layer 1
 70
     0
 62
     7
  6
Continuous
370
    -3
390
F
347
3E
  0
LAYER
  5
8E
330
2
100
AcDbSymbolTableRecord
100
AcDbLayerTableRecord
  2
Master Guides
 70
     0
 62
     7
  6
Continuous
370
    -3
390
F
347
3E
  0
ENDTAB
  0
TABLE
  2
STYLE
  5
3
330
0
100
AcDbSymbolTable
 70
     1
  0
STYLE
  5
11
330
3
100
AcDbSymbolTableRecord
100
AcDbTextStyleTableRecord
  2
Standard
 70
     0
 40
0.0
 41
1.0
 50
0.0
 71
     0
 42
0.2
  3
txt
  4

  0
ENDTAB
  0
TABLE
  2
VIEW
  5
6
330
0
100
AcDbSymbolTable
 70
     0
  0
ENDTAB
  0
TABLE
  2
UCS
  5
7
330
0
100
AcDbSymbolTable
 70
     0
  0
ENDTAB
  0
TABLE
  2
APPID
  5
9
330
0
100
AcDbSymbolTable
 70
     2
  0
APPID
  5
12
330
9
100
AcDbSymbolTableRecord
100
AcDbRegAppTableRecord
  2
ACAD
 70
     0
  0
APPID
  5
3F
330
9
100
AcDbSymbolTableRecord
100
AcDbRegAppTableRecord
  2
ODA
 70
     0
  0
ENDTAB
  0
TABLE
  2
DIMSTYLE
  5
A
330
0
100
AcDbSymbolTable
 70
     1
100
AcDbDimStyleTable
  0
DIMSTYLE
105
27
330
A
100
AcDbSymbolTableRecord
100
AcDbDimStyleTableRecord
  2
Standard
 70
     0
178
     0
340
11
  0
ENDTAB
  0
TABLE
  2
BLOCK_RECORD
  5
1
330
0
100
AcDbSymbolTable
 70
     1
  0
BLOCK_RECORD
  5
1F
330
1
100
AcDbSymbolTableRecord
100
AcDbBlockTableRecord
  2
*Model_Space
340
22
 70
     0
280
     1
281
     0
  0
BLOCK_RECORD
  5
1B
330
1
100
AcDbSymbolTableRecord
100
AcDbBlockTableRecord
  2
*Paper_Space
340
1E
 70
     0
280
     1
281
     0
  0
BLOCK_RECORD
  5
23
330
1
100
AcDbSymbolTableRecord
100
AcDbBlockTableRecord
  2
*Paper_Space0
340
26
 70
     0
280
     1
281
     0
  0
ENDTAB
  0
ENDSEC
  0
SECTION
  2
BLOCKS
  0
BLOCK
  5
20
330
1F
100
AcDbEntity
  8
0
100
AcDbBlockBegin
  2
*Model_Space
 70
     0
 10
0.0
 20
0.0
 30
0.0
  3
*Model_Space
  1

  0
ENDBLK
  5
21
330
1F
100
AcDbEntity
  8
0
100
AcDbBlockEnd
  0
BLOCK
  5
1C
330
1B
100
AcDbEntity
 67
     1
  8
0
100
AcDbBlockBegin
  2
*Paper_Space
 70
     0
 10
0.0
 20
0.0
 30
0.0
  3
*Paper_Space
  1

  0
ENDBLK
  5
1D
330
1B
100
AcDbEntity
 67
     1
  8
0
100
AcDbBlockEnd
  0
BLOCK
  5
24
330
23
100
AcDbEntity
  8
0
100
AcDbBlockBegin
  2
*Paper_Space0
 70
     0
 10
0.0
 20
0.0
 30
0.0
  3
*Paper_Space0
  1

  0
ENDBLK
  5
25
330
23
100
AcDbEntity
  8
0
100
AcDbBlockEnd
  0
ENDSEC
  0
SECTION
  2
ENTITIES
  0
SPLINE
  5
41
330
1F
100
AcDbEntity
  8
layer 1
 62
   250
100
AcDbSpline
210
0.0
220
0.0
230
1.0
 70
    11
 71
     3
 72
    20
 73
    16
 74
     0
 42
0.0000000001
 43
0.0000000001
 12
1.0
 22
0.0
 32
0.0
 13
1.0
 23
0.0
 33
0.0
 40
0.0
 40
0.0
 40
0.0
 40
0.0
 40
0.2
 40
0.2
 40
0.2
 40
0.2
 40
0.4
 40
0.4
 40
0.4
 40
0.4
 40
0.6
 40
0.6
 40
0.6
 40
0.6
 40
1.0
 40
1.0
 40
1.0
 40
1.0
 10
-32.2562
 20
-106.3433
 30
0.0
 10
-32.2562
 20
-106.3433
 30
0.0
 10
-32.2562
 20
116.7402
 30
0.0
 10
-32.2562
 20
116.7402
 30
0.0
 10
-32.2562
 20
116.7402
 30
0.0
 10
-32.2562
 20
116.7402
 30
0.0
 10
71.2415
 20
116.7402
 30
0.0
 10
71.2415
 20
116.7402
 30
0.0
 10
71.2415
 20
116.7402
 30
0.0
 10
71.2415
 20
116.7402
 30
0.0
 10
71.2415
 20
-106.3433
 30
0.0
 10
71.2415
 20
-106.3433
 30
0.0
 10
71.2415
 20
-106.3433
 30
0.0
 10
71.2415
 20
-106.3433
 30
0.0
 10
-32.2562
 20
-106.3433
 30
0.0
 10
-32.2562
 20
-106.3433
 30
0.0
  0
SPLINE
  5
42
330
1F
100
AcDbEntity
  8
layer 1
 62
   250
100
AcDbSpline
210
0.0
220
0.0
230
1.0
 70
    11
 71
     3
 72
    32
 73
    28
 74
     0
 42
0.0000000001
 43
0.0000000001
 12
1.0
 22
0.0
 32
0.0
 13
1.0
 23
0.0
 33
0.0
 40
0.0
 40
0.0
 40
0.0
 40
0.0
 40
0.125
 40
0.125
 40
0.125
 40
0.125
 40
0.25
 40
0.25
 40
0.25
 40
0.25
 40
0.375
 40
0.375
 40
0.375
 40
0.375
 40
0.5
 40
0.5
 40
0.5
 40
0.5
 40
0.625
 40
0.625
 40
0.625
 40
0.625
 40
0.75
 40
0.75
 40
0.75
 40
0.75
 40
1.0
 40
1.0
 40
1.0
 40
1.0
 10
-7.7807
 20
-101.3637
 30
0.0
 10
-9.6208
 20
-100.5973
 30
0.0
 10
-14.2619
 20
-98.2542
 30
0.0
 10
-16.9498
 20
-93.2482
 30
0.0
 10
-16.9498
 20
-93.2482
 30
0.0
 10
-16.9498
 20
-93.2482
 30
0.0
 10
-17.7514
 20
-95.3872
 30
0.0
 10
-18.3527
 20
-95.4585
 30
0.0
 10
-18.3527
 20
-95.4585
 30
0.0
 10
-18.954
 20
-95.5298
 30
0.0
 10
-19.4216
 20
-93.1057
 30
0.0
 10
-19.4216
 20
-93.1057
 30
0.0
 10
-19.4216
 20
-93.1057
 30
0.0
 10
-19.4216
 20
-93.1057
 30
0.0
 10
-21.0249
 20
-95.6724
 30
0.0
 10
-21.6262
 20
-91.751
 30
0.0
 10
-21.6262
 20
-91.751
 30
0.0
 10
-21.6262
 20
-91.751
 30
0.0
 10
-25.2746
 20
-92.0603
 30
0.0
 10
-27.2804
 20
-90.6228
 30
0.0
 10
-27.2804
 20
-90.6228
 30
0.0
 10
-27.2804
 20
-90.6228
 30
0.0
 10
-27.2804
 20
-101.3637
 30
0.0
 10
-27.2804
 20
-101.3637
 30
0.0
 10
-27.2804
 20
-101.3637
 30
0.0
 10
-27.2804
 20
-101.3637
 30
0.0
 10
-7.7807
 20
-101.3637
 30
0.0
 10
-7.7807
 20
-101.3637
 30
0.0
  0
SPLINE
  5
43
330
1F
100
AcDbEntity
  8
layer 1
 62
   250
100
AcDbSpline
210
0.0
220
0.0
230
1.0
 70
    11
 71
     3
 72
    36
 73
    32
 74
     0
 42
0.0000000001
 43
0.0000000001
 12
1.0
 22
0.0
 32
0.0
 13
1.0
 23
0.0
 33
0.0
 40
0.0
 40
0.0
 40
0.0
 40
0.0
 40
0.1111111111111111
 40
0.1111111111111111
 40
0.1111111111111111
 40
0.1111111111111111
 40
0.2222222222222222
 40
0.2222222222222222
 40
0.2222222222222222
 40
0.2222222222222222
 40
0.3333333333333333
 40
0.3333333333333333
 40
0.3333333333333333
 40
0.3333333333333333
 40
0.4444444444444444
 40
0.4444444444444444
 40
0.4444444444444444
 40
0.4444444444444444
 40
0.5555555555555556
 40
0.5555555555555556
 40
0.5555555555555556
 40
0.5555555555555556
 40
0.6666666666666666
 40
0.6666666666666666
 40
0.6666666666666666
 40
0.6666666666666666
 40
0.7777777777777778
 40
0.7777777777777778
 40
0.7777777777777778
 40
0.7777777777777778
 40
1.0
 40
1.0
 40
1.0
 40
1.0
 10
-27.2804
 20
-85.4126
 30
0.0
 10
-26.1727
 20
-84.3465
 30
0.0
 10
-24.7193
 20
-83.9402
 30
0.0
 10
-24.4988
 20
-84.7638
 30
0.0
 10
-24.4988
 20
-84.7638
 30
0.0
 10
-24.098
 20
-86.2611
 30
0.0
 10
-24.0312
 20
-87.7583
 30
0.0
 10
-22.6951
 20
-86.6888
 30
0.0
 10
-22.6951
 20
-86.6888
 30
0.0
 10
-21.359
 20
-85.6194
 30
0.0
 10
-21.8266
 20
-81.9832
 30
0.0
 10
-21.8266
 20
-81.9832
 30
0.0
 10
-21.8266
 20
-81.9832
 30
0.0
 10
-21.8266
 20
-81.9832
 30
0.0
 10
-23.0959
 20
-76.9211
 30
0.0
 10
-22.6951
 20
-72.2867
 30
0.0
 10
-22.6951
 20
-72.2867
 30
0.0
 10
-22.6951
 20
-72.2867
 30
0.0
 10
-24.4158
 20
-73.0114
 30
0.0
 10
-25.3671
 20
-72.762
 30
0.0
 10
-25.3671
 20
-72.762
 30
0.0
 10
-25.3671
 20
-72.762
 30
0.0
 10
-25.751
 20
-71.4617
 30
0.0
 10
-24.3156
 20
-69.627
 30
0.0
 10
-24.3156
 20
-69.627
 30
0.0
 10
-24.3156
 20
-69.627
 30
0.0
 10
-25.7703
 20
-68.8872
 30
0.0
 10
-27.2804
 20
-68.3527
 30
0.0
 10
-27.2804
 20
-68.3527
 30
0.0
 10
-27.2804
 20
-68.3527
 30
0.0
 10
-27.2804
 20
-85.4126
 30
0.0
 10
-27.2804
 20
-85.4126
 30
0.0
  0
SPLINE
  5
44
330
1F
100
AcDbEntity
  8
layer 1
 62
   250
100
AcDbSpline
210
0.0
220
0.0
230
1.0
 70
    11
 71
     3
 72
    28
 73
    24
 74
     0
 42
0.0000000001
 43
0.0000000001
 12
1.0
 22
0.0
 32
0.0
 13
1.0
 23
0.0
 33
0.0
 40
0.0
 40
0.0
 40
0.0
 40
0.0
 40
0.1428571428571428
 40
0.1428571428571428
 40
0.1428571428571428
 40
0.1428571428571428
 40
0.2857142857142857
 40
0.2857142857142857
 40
0.2857142857142857
 40
0.2857142857142857
 40
0.4285714285714285
 40
0.4285714285714285
 40
0.4285714285714285
 40
0.4285714285714285
 40
0.5714285714285714
 40
0.5714285714285714
 40
0.5714285714285714
 40
0.5714285714285714
 40
0.7142857142857143
 40
0.7142857142857143
 40
0.7142857142857143
 40
0.7142857142857143
 40
1.0
 40
1.0
 40
1.0
 40
1.0
 10
-27.2804
 20
-63.3149
 30
0.0
 10
-26.7308
 20
-62.495
 30
0.0
 10
-26.0887
 20
-61.8514
 30
0.0
 10
-25.4619
 20
-61.949
 30
0.0
 10
-25.4619
 20
-61.949
 30
0.0
 10
-23.8589
 20
-62.1985
 30
0.0
 10
-24.2263
 20
-63.2677
 30
0.0
 10
-24.7272
 20
-64.0518
 30
0.0
 10
-24.7272
 20
-64.0518
 30
0.0
 10
-25.2281
 20
-64.8359
 30
0.0
 10
-22.6901
 20
-66.2259
 30
0.0
 10
-21.5881
 20
-64.0518
 30
0.0
 10
-21.5881
 20
-64.0518
 30
0.0
 10
-20.486
 20
-61.8777
 30
0.0
 10
-18.2191
 20
-54.391
 30
0.0
 10
-13.2087
 20
-48.6872
 30
0.0
 10
-13.2087
 20
-48.6872
 30
0.0
 10
-13.2087
 20
-48.6872
 30
0.0
 10
-22.4074
 20
-52.0434
 30
0.0
 10
-27.2804
 20
-46.2879
 30
0.0
 10
-27.2804
 20
-46.2879
 30
0.0
 10
-27.2804
 20
-46.2879
 30
0.0
 10
-27.2804
 20
-63.3149
 30
0.0
 10
-27.2804
 20
-63.3149
 30
0.0
  0
SPLINE
  5
45
330
1F
100
AcDbEntity
  8
layer 1
 62
   250
100
AcDbSpline
210
0.0
220
0.0
230
1.0
 70
    11
 71
     3
 72
    40
 73
    36
 74
     0
 42
0.0000000001
 43
0.0000000001
 12
1.0
 22
0.0
 32
0.0
 13
1.0
 23
0.0
 33
0.0
 40
0.0
 40
0.0
 40
0.0
 40
0.0
 40
0.1
 40
0.1
 40
0.1
 40
0.1
 40
0.2
 40
0.2
 40
0.2
 40
0.2
 40
0.3
 40
0.3
 40
0.3
 40
0.3
 40
0.4
 40
0.4
 40
0.4
 40
0.4
 40
0.5
 40
0.5
 40
0.5
 40
0.5
 40
0.6
 40
0.6
 40
0.6
 40
0.6
 40
0.7
 40
0.7
 40
0.7
 40
0.7
 40
0.8
 40
0.8
 40
0.8
 40
0.8
 40
1.0
 40
1.0
 40
1.0
 40
1.0
 10
-27.2804
 20
-39.7258
 30
0.0
 10
-26.7167
 20
-39.4334
 30
0.0
 10
-26.0773
 20
-39.2783
 30
0.0
 10
-25.3951
 20
-39.4239
 30
0.0
 10
-25.3951
 20
-39.4239
 30
0.0
 10
-23.0574
 20
-39.9229
 30
0.0
 10
-23.3246
 20
-41.8119
 30
0.0
 10
-24.1595
 20
-41.9188
 30
0.0
 10
-24.1595
 20
-41.9188
 30
0.0
 10
-24.9944
 20
-42.0257
 30
0.0
 10
-24.9944
 20
-43.4513
 30
0.0
 10
-22.9906
 20
-43.8077
 30
0.0
 10
-22.9906
 20
-43.8077
 30
0.0
 10
-20.9869
 20
-44.1642
 30
0.0
 10
-18.9832
 20
-42.9167
 30
0.0
 10
-18.549
 20
-42.1683
 30
0.0
 10
-18.549
 20
-42.1683
 30
0.0
 10
-18.549
 20
-42.1683
 30
0.0
 10
-20.0184
 20
-41.6337
 30
0.0
 10
-20.2188
 20
-40.3149
 30
0.0
 10
-20.2188
 20
-40.3149
 30
0.0
 10
-20.4192
 20
-38.9962
 30
0.0
 10
-19.1168
 20
-38.4616
 30
0.0
 10
-18.4488
 20
-38.7824
 30
0.0
 10
-18.4488
 20
-38.7824
 30
0.0
 10
-18.4488
 20
-38.7824
 30
0.0
 10
-20.319
 20
-36.7152
 30
0.0
 10
-19.05
 20
-33.8283
 30
0.0
 10
-19.05
 20
-33.8283
 30
0.0
 10
-19.05
 20
-33.8283
 30
0.0
 10
-24.3576
 20
-33.198
 30
0.0
 10
-27.2804
 20
-27.6645
 30
0.0
 10
-27.2804
 20
-27.6645
 30
0.0
 10
-27.2804
 20
-27.6645
 30
0.0
 10
-27.2804
 20
-39.7258
 30
0.0
 10
-27.2804
 20
-39.7258
 30
0.0
  0
SPLINE
  5
46
330
1F
100
AcDbEntity
  8
layer 1
 62
   250
100
AcDbSpline
210
0.0
220
0.0
230
1.0
 70
    11
 71
     3
 72
   104
 73
   100
 74
     0
 42
0.0000000001
 43
0.0000000001
 12
1.0
 22
0.0
 32
0.0
 13
1.0
 23
0.0
 33
0.0
 40
0.0
 40
0.0
 40
0.0
 40
0.0
 40
0.0384615384615385
 40
0.0384615384615385
 40
0.0384615384615385
 40
0.0384615384615385
 40
0.0769230769230769
 40
0.0769230769230769
 40
0.0769230769230769
 40
0.0769230769230769
 40
0.1153846153846154
 40
0.1153846153846154
 40
0.1153846153846154
 40
0.1153846153846154
 40
0.1538461538461539
 40
0.1538461538461539
 40
0.1538461538461539
 40
0.1538461538461539
 40
0.1923076923076923
 40
0.1923076923076923
 40
0.1923076923076923
 40
0.1923076923076923
 40
0.2307692307692308
 40
0.2307692307692308
 40
0.2307692307692308
 40
0.2307692307692308
 40
0.2692307692307692
 40
0.2692307692307692
 40
0.2692307692307692
 40
0.2692307692307692
 40
0.3076923076923077
 40
0.3076923076923077
 40
0.3076923076923077
 40
0.3076923076923077
 40
0.3461538461538461
 40
0.3461538461538461
 40
0.3461538461538461
 40
0.3461538461538461
 40
0.3846153846153846
 40
0.3846153846153846
 40
0.3846153846153846
 40
0.3846153846153846
 40
0.4230769230769231
 40
0.4230769230769231
 40
0.4230769230769231
 40
0.4230769230769231
 40
0.4615384615384616
 40
0.4615384615384616
 40
0.4615384615384616
 40
0.4615384615384616
 40
0.5
 40
0.5
 40
0.5
 40
0.5
 40
0.5384615384615384
 40
0.5384615384615384
 40
0.5384615384615384
 40
0.5384615384615384
 40
0.5769230769230769
 40
0.5769230769230769
 40
0.5769230769230769
 40
0.5769230769230769
 40
0.6153846153846154
 40
0.6153846153846154
 40
0.6153846153846154
 40
0.6153846153846154
 40
0.6538461538461539
 40
0.6538461538461539
 40
0.6538461538461539
 40
0.6538461538461539
 40
0.6923076923076923
 40
0.6923076923076923
 40
0.6923076923076923
 40
0.6923076923076923
 40
0.7307692307692307
 40
0.7307692307692307
 40
0.7307692307692307
 40
0.7307692307692307
 40
0.7692307692307693
 40
0.7692307692307693
 40
0.7692307692307693
 40
0.7692307692307693
 40
0.8076923076923077
 40
0.8076923076923077
 40
0.8076923076923077
 40
0.8076923076923077
 40
0.8461538461538461
 40
0.8461538461538461
 40
0.8461538461538461
 40
0.8461538461538461
 40
0.8846153846153846
 40
0.8846153846153846
 40
0.8846153846153846
 40
0.8846153846153846
 40
0.9230769230769231
 40
0.9230769230769231
 40
0.9230769230769231
 40
0.9230769230769231
 40
1.0
 40
1.0
 40
1.0
 40
1.0
 10
-27.2804
 20
-15.9927
 30
0.0
 10
-26.6334
 20
-14.5851
 30
0.0
 10
-25.8118
 20
-13.052
 30
0.0
 10
-24.794
 20
-11.5884
 30
0.0
 10
-24.794
 20
-11.5884
 30
0.0
 10
-24.794
 20
-11.5884
 30
0.0
 10
-26.6308
 20
-10.9825
 30
0.0
 10
-26.5306
 20
-9.6638
 30
0.0
 10
-26.5306
 20
-9.6638
 30
0.0
 10
-26.4304
 20
-8.3451
 30
0.0
 10
-24.5602
 20
-7.6322
 30
0.0
 10
-23.5918
 20
-8.3807
 30
0.0
 10
-23.5918
 20
-8.3807
 30
0.0
 10
-23.5918
 20
-8.3807
 30
0.0
 10
-23.2244
 20
-6.4561
 30
0.0
 10
-22.3561
 20
-6.3848
 30
0.0
 10
-22.3561
 20
-6.3848
 30
0.0
 10
-21.4878
 20
-6.3135
 30
0.0
 10
-21.6882
 20
-7.1333
 30
0.0
 10
-21.6882
 20
-7.1333
 30
0.0
 10
-21.6882
 20
-7.1333
 30
0.0
 10
-21.6882
 20
-7.1333
 30
0.0
 10
-20.4192
 20
-5.9928
 30
0.0
 10
-20.4526
 20
-7.7392
 30
0.0
 10
-20.4526
 20
-7.7392
 30
0.0
 10
-20.4526
 20
-7.7392
 30
0.0
 10
-17.1798
 20
-4.2463
 30
0.0
 10
-17.6474
 20
-2.8563
 30
0.0
 10
-17.6474
 20
-2.8563
 30
0.0
 10
-18.1149
 20
-1.4664
 30
0.0
 10
-19.5843
 20
-2.0366
 30
0.0
 10
-19.5843
 20
-2.0366
 30
0.0
 10
-19.5843
 20
-2.0366
 30
0.0
 10
-19.5843
 20
-2.0366
 30
0.0
 10
-20.0852
 20
2.668
 30
0.0
 10
-15.8106
 20
2.0265
 30
0.0
 10
-15.8106
 20
2.0265
 30
0.0
 10
-15.8106
 20
2.0265
 30
0.0
 10
-15.5435
 20
3.8441
 30
0.0
 10
-15.1093
 20
3.9867
 30
0.0
 10
-15.1093
 20
3.9867
 30
0.0
 10
-14.6751
 20
4.1293
 30
0.0
 10
-12.8384
 20
2.7036
 30
0.0
 10
-12.8384
 20
2.7036
 30
0.0
 10
-12.8384
 20
2.7036
 30
0.0
 10
-12.8384
 20
2.7036
 30
0.0
 10
-12.2039
 20
4.7352
 30
0.0
 10
-9.5657
 20
5.1985
 30
0.0
 10
-9.5657
 20
5.1985
 30
0.0
 10
-12.2039
 20
5.6618
 30
0.0
 10
-12.8384
 20
7.6934
 30
0.0
 10
-12.8384
 20
7.6934
 30
0.0
 10
-12.8384
 20
7.6934
 30
0.0
 10
-12.8384
 20
7.6934
 30
0.0
 10
-14.6751
 20
6.2677
 30
0.0
 10
-15.1093
 20
6.4103
 30
0.0
 10
-15.1093
 20
6.4103
 30
0.0
 10
-15.5435
 20
6.5528
 30
0.0
 10
-15.8106
 20
8.3705
 30
0.0
 10
-15.8106
 20
8.3705
 30
0.0
 10
-15.8106
 20
8.3705
 30
0.0
 10
-20.0852
 20
7.729
 30
0.0
 10
-19.5843
 20
12.4336
 30
0.0
 10
-19.5843
 20
12.4336
 30
0.0
 10
-19.5843
 20
12.4336
 30
0.0
 10
-19.5843
 20
12.4336
 30
0.0
 10
-18.1149
 20
11.8633
 30
0.0
 10
-17.6474
 20
13.2534
 30
0.0
 10
-17.6474
 20
13.2534
 30
0.0
 10
-17.1798
 20
14.6433
 30
0.0
 10
-20.4526
 20
18.1362
 30
0.0
 10
-20.4526
 20
18.1362
 30
0.0
 10
-20.4526
 20
18.1362
 30
0.0
 10
-20.4192
 20
16.3897
 30
0.0
 10
-21.6882
 20
17.5302
 30
0.0
 10
-21.6882
 20
17.5302
 30
0.0
 10
-21.6882
 20
17.5302
 30
0.0
 10
-21.6882
 20
17.5302
 30
0.0
 10
-21.4878
 20
16.7105
 30
0.0
 10
-22.3561
 20
16.7818
 30
0.0
 10
-22.3561
 20
16.7818
 30
0.0
 10
-23.2244
 20
16.8531
 30
0.0
 10
-23.5918
 20
18.7777
 30
0.0
 10
-23.5918
 20
18.7777
 30
0.0
 10
-23.5918
 20
18.7777
 30
0.0
 10
-24.5602
 20
18.0292
 30
0.0
 10
-26.4304
 20
18.742
 30
0.0
 10
-26.5306
 20
20.0608
 30
0.0
 10
-26.5306
 20
20.0608
 30
0.0
 10
-26.6308
 20
21.3794
 30
0.0
 10
-24.794
 20
21.9854
 30
0.0
 10
-24.794
 20
21.9854
 30
0.0
 10
-24.794
 20
21.9854
 30
0.0
 10
-25.8118
 20
23.449
 30
0.0
 10
-26.6334
 20
24.982
 30
0.0
 10
-27.2804
 20
26.3897
 30
0.0
 10
-27.2804
 20
26.3897
 30
0.0
 10
-27.2804
 20
26.3897
 30
0.0
 10
-27.2804
 20
-15.9927
 30
0.0
 10
-27.2804
 20
-15.9927
 30
0.0
  0
SPLINE
  5
47
330
1F
100
AcDbEntity
  8
layer 1
 62
   250
100
AcDbSpline
210
0.0
220
0.0
230
1.0
 70
    11
 71
     3
 72
    40
 73
    36
 74
     0
 42
0.0000000001
 43
0.0000000001
 12
1.0
 22
0.0
 32
0.0
 13
1.0
 23
0.0
 33
0.0
 40
0.0
 40
0.0
 40
0.0
 40
0.0
 40
0.1
 40
0.1
 40
0.1
 40
0.1
 40
0.2
 40
0.2
 40
0.2
 40
0.2
 40
0.3
 40
0.3
 40
0.3
 40
0.3
 40
0.4
 40
0.4
 40
0.4
 40
0.4
 40
0.5
 40
0.5
 40
0.5
 40
0.5
 40
0.6
 40
0.6
 40
0.6
 40
0.6
 40
0.7
 40
0.7
 40
0.7
 40
0.7
 40
0.8
 40
0.8
 40
0.8
 40
0.8
 40
1.0
 40
1.0
 40
1.0
 40
1.0
 10
-27.2804
 20
38.0615
 30
0.0
 10
-24.3576
 20
43.595
 30
0.0
 10
-19.05
 20
44.2253
 30
0.0
 10
-19.05
 20
44.2253
 30
0.0
 10
-19.05
 20
44.2253
 30
0.0
 10
-20.319
 20
47.1122
 30
0.0
 10
-18.4488
 20
49.1794
 30
0.0
 10
-18.4488
 20
49.1794
 30
0.0
 10
-18.4488
 20
49.1794
 30
0.0
 10
-19.1168
 20
48.8586
 30
0.0
 10
-20.4192
 20
49.3932
 30
0.0
 10
-20.2188
 20
50.7119
 30
0.0
 10
-20.2188
 20
50.7119
 30
0.0
 10
-20.0184
 20
52.0306
 30
0.0
 10
-18.549
 20
52.5653
 30
0.0
 10
-18.549
 20
52.5653
 30
0.0
 10
-18.549
 20
52.5653
 30
0.0
 10
-18.9832
 20
53.3137
 30
0.0
 10
-20.9869
 20
54.5612
 30
0.0
 10
-22.9906
 20
54.2047
 30
0.0
 10
-22.9906
 20
54.2047
 30
0.0
 10
-24.9944
 20
53.8483
 30
0.0
 10
-24.9944
 20
52.4227
 30
0.0
 10
-24.1595
 20
52.3158
 30
0.0
 10
-24.1595
 20
52.3158
 30
0.0
 10
-23.3246
 20
52.2088
 30
0.0
 10
-23.0574
 20
50.3199
 30
0.0
 10
-25.3951
 20
49.8209
 30
0.0
 10
-25.3951
 20
49.8209
 30
0.0
 10
-26.0773
 20
49.6753
 30
0.0
 10
-26.7167
 20
49.8304
 30
0.0
 10
-27.2804
 20
50.1228
 30
0.0
 10
-27.2804
 20
50.1228
 30
0.0
 10
-27.2804
 20
50.1228
 30
0.0
 10
-27.2804
 20
38.0615
 30
0.0
 10
-27.2804
 20
38.0615
 30
0.0
  0
SPLINE
  5
48
330
1F
100
AcDbEntity
  8
layer 1
 62
   250
100
AcDbSpline
210
0.0
220
0.0
230
1.0
 70
    11
 71
     3
 72
    28
 73
    24
 74
     0
 42
0.0000000001
 43
0.0000000001
 12
1.0
 22
0.0
 32
0.0
 13
1.0
 23
0.0
 33
0.0
 40
0.0
 40
0.0
 40
0.0
 40
0.0
 40
0.1428571428571428
 40
0.1428571428571428
 40
0.1428571428571428
 40
0.1428571428571428
 40
0.2857142857142857
 40
0.2857142857142857
 40
0.2857142857142857
 40
0.2857142857142857
 40
0.4285714285714285
 40
0.4285714285714285
 40
0.4285714285714285
 40
0.4285714285714285
 40
0.5714285714285714
 40
0.5714285714285714
 40
0.5714285714285714
 40
0.5714285714285714
 40
0.7142857142857143
 40
0.7142857142857143
 40
0.7142857142857143
 40
0.7142857142857143
 40
1.0
 40
1.0
 40
1.0
 40
1.0
 10
-27.2804
 20
56.6849
 30
0.0
 10
-22.4074
 20
62.4404
 30
0.0
 10
-13.2087
 20
59.0842
 30
0.0
 10
-13.2087
 20
59.0842
 30
0.0
 10
-13.2087
 20
59.0842
 30
0.0
 10
-18.2191
 20
64.788
 30
0.0
 10
-20.486
 20
72.2747
 30
0.0
 10
-21.5881
 20
74.4488
 30
0.0
 10
-21.5881
 20
74.4488
 30
0.0
 10
-22.6901
 20
76.6229
 30
0.0
 10
-25.2281
 20
75.2329
 30
0.0
 10
-24.7272
 20
74.4488
 30
0.0
 10
-24.7272
 20
74.4488
 30
0.0
 10
-24.2263
 20
73.6647
 30
0.0
 10
-23.8589
 20
72.5954
 30
0.0
 10
-25.4619
 20
72.346
 30
0.0
 10
-25.4619
 20
72.346
 30
0.0
 10
-26.0887
 20
72.2484
 30
0.0
 10
-26.7308
 20
72.8919
 30
0.0
 10
-27.2804
 20
73.7119
 30
0.0
 10
-27.2804
 20
73.7119
 30
0.0
 10
-27.2804
 20
73.7119
 30
0.0
 10
-27.2804
 20
56.6849
 30
0.0
 10
-27.2804
 20
56.6849
 30
0.0
  0
SPLINE
  5
49
330
1F
100
AcDbEntity
  8
layer 1
 62
   250
100
AcDbSpline
210
0.0
220
0.0
230
1.0
 70
    11
 71
     3
 72
    36
 73
    32
 74
     0
 42
0.0000000001
 43
0.0000000001
 12
1.0
 22
0.0
 32
0.0
 13
1.0
 23
0.0
 33
0.0
 40
0.0
 40
0.0
 40
0.0
 40
0.0
 40
0.1111111111111111
 40
0.1111111111111111
 40
0.1111111111111111
 40
0.1111111111111111
 40
0.2222222222222222
 40
0.2222222222222222
 40
0.2222222222222222
 40
0.2222222222222222
 40
0.3333333333333333
 40
0.3333333333333333
 40
0.3333333333333333
 40
0.3333333333333333
 40
0.4444444444444444
 40
0.4444444444444444
 40
0.4444444444444444
 40
0.4444444444444444
 40
0.5555555555555556
 40
0.5555555555555556
 40
0.5555555555555556
 40
0.5555555555555556
 40
0.6666666666666666
 40
0.6666666666666666
 40
0.6666666666666666
 40
0.6666666666666666
 40
0.7777777777777778
 40
0.7777777777777778
 40
0.7777777777777778
 40
0.7777777777777778
 40
1.0
 40
1.0
 40
1.0
 40
1.0
 10
-27.2804
 20
78.7497
 30
0.0
 10
-25.7703
 20
79.2842
 30
0.0
 10
-24.3156
 20
80.024
 30
0.0
 10
-24.3156
 20
80.024
 30
0.0
 10
-24.3156
 20
80.024
 30
0.0
 10
-25.751
 20
81.8587
 30
0.0
 10
-25.3671
 20
83.1589
 30
0.0
 10
-25.3671
 20
83.1589
 30
0.0
 10
-25.3671
 20
83.1589
 30
0.0
 10
-24.4158
 20
83.4083
 30
0.0
 10
-22.6951
 20
82.6837
 30
0.0
 10
-22.6951
 20
82.6837
 30
0.0
 10
-22.6951
 20
82.6837
 30
0.0
 10
-23.0959
 20
87.318
 30
0.0
 10
-21.8266
 20
92.3802
 30
0.0
 10
-21.8266
 20
92.3802
 30
0.0
 10
-21.8266
 20
92.3802
 30
0.0
 10
-21.8266
 20
92.3802
 30
0.0
 10
-21.359
 20
96.0164
 30
0.0
 10
-22.6951
 20
97.0858
 30
0.0
 10
-22.6951
 20
97.0858
 30
0.0
 10
-24.0312
 20
98.1553
 30
0.0
 10
-24.098
 20
96.658
 30
0.0
 10
-24.4988
 20
95.1608
 30
0.0
 10
-24.4988
 20
95.1608
 30
0.0
 10
-24.7193
 20
94.3372
 30
0.0
 10
-26.1727
 20
94.7435
 30
0.0
 10
-27.2804
 20
95.8096
 30
0.0
 10
-27.2804
 20
95.8096
 30
0.0
 10
-27.2804
 20
95.8096
 30
0.0
 10
-27.2804
 20
78.7497
 30
0.0
 10
-27.2804
 20
78.7497
 30
0.0
  0
SPLINE
  5
4A
330
1F
100
AcDbEntity
  8
layer 1
 62
   250
100
AcDbSpline
210
0.0
220
0.0
230
1.0
 70
    11
 71
     3
 72
    32
 73
    28
 74
     0
 42
0.0000000001
 43
0.0000000001
 12
1.0
 22
0.0
 32
0.0
 13
1.0
 23
0.0
 33
0.0
 40
0.0
 40
0.0
 40
0.0
 40
0.0
 40
0.125
 40
0.125
 40
0.125
 40
0.125
 40
0.25
 40
0.25
 40
0.25
 40
0.25
 40
0.375
 40
0.375
 40
0.375
 40
0.375
 40
0.5
 40
0.5
 40
0.5
 40
0.5
 40
0.625
 40
0.625
 40
0.625
 40
0.625
 40
0.75
 40
0.75
 40
0.75
 40
0.75
 40
1.0
 40
1.0
 40
1.0
 40
1.0
 10
-27.2804
 20
101.0198
 30
0.0
 10
-25.2746
 20
102.4572
 30
0.0
 10
-21.6262
 20
102.148
 30
0.0
 10
-21.6262
 20
102.148
 30
0.0
 10
-21.6262
 20
102.148
 30
0.0
 10
-21.0249
 20
106.0693
 30
0.0
 10
-19.4216
 20
103.5026
 30
0.0
 10
-19.4216
 20
103.5026
 30
0.0
 10
-19.4216
 20
103.5026
 30
0.0
 10
-19.4216
 20
103.5026
 30
0.0
 10
-18.954
 20
105.9268
 30
0.0
 10
-18.3527
 20
105.8554
 30
0.0
 10
-18.3527
 20
105.8554
 30
0.0
 10
-17.7514
 20
105.7842
 30
0.0
 10
-16.9498
 20
103.6452
 30
0.0
 10
-16.9498
 20
103.6452
 30
0.0
 10
-16.9498
 20
103.6452
 30
0.0
 10
-14.2619
 20
108.6512
 30
0.0
 10
-9.6207
 20
110.9943
 30
0.0
 10
-7.7807
 20
111.7607
 30
0.0
 10
-7.7807
 20
111.7607
 30
0.0
 10
-7.7807
 20
111.7607
 30
0.0
 10
-27.2804
 20
111.7607
 30
0.0
 10
-27.2804
 20
111.7607
 30
0.0
 10
-27.2804
 20
111.7607
 30
0.0
 10
-27.2804
 20
111.7607
 30
0.0
 10
-27.2804
 20
101.0198
 30
0.0
 10
-27.2804
 20
101.0198
 30
0.0
  0
SPLINE
  5
4B
330
1F
100
AcDbEntity
  8
layer 1
 62
   250
100
AcDbSpline
210
0.0
220
0.0
230
1.0
 70
    11
 71
     3
 72
    16
 73
    12
 74
     0
 42
0.0000000001
 43
0.0000000001
 12
1.0
 22
0.0
 32
0.0
 13
1.0
 23
0.0
 33
0.0
 40
0.0
 40
0.0
 40
0.0
 40
0.0
 40
0.25
 40
0.25
 40
0.25
 40
0.25
 40
0.5
 40
0.5
 40
0.5
 40
0.5
 40
1.0
 40
1.0
 40
1.0
 40
1.0
 10
5.4748
 20
111.7607
 30
0.0
 10
9.8206
 20
109.1616
 30
0.0
 10
14.3154
 20
104.9286
 30
0.0
 10
14.3154
 20
104.9286
 30
0.0
 10
14.3154
 20
104.9286
 30
0.0
 10
14.0393
 20
107.2862
 30
0.0
 10
16.0459
 20
110.1851
 30
0.0
 10
17.3211
 20
111.7607
 30
0.0
 10
17.3211
 20
111.7607
 30
0.0
 10
17.3211
 20
111.7607
 30
0.0
 10
5.4748
 20
111.7607
 30
0.0
 10
5.4748
 20
111.7607
 30
0.0
  0
SPLINE
  5
4C
330
1F
100
AcDbEntity
  8
layer 1
 62
   250
100
AcDbSpline
210
0.0
220
0.0
230
1.0
 70
    11
 71
     3
 72
    24
 73
    20
 74
     0
 42
0.0000000001
 43
0.0000000001
 12
1.0
 22
0.0
 32
0.0
 13
1.0
 23
0.0
 33
0.0
 40
0.0
 40
0.0
 40
0.0
 40
0.0
 40
0.1666666666666667
 40
0.1666666666666667
 40
0.1666666666666667
 40
0.1666666666666667
 40
0.3333333333333333
 40
0.3333333333333333
 40
0.3333333333333333
 40
0.3333333333333333
 40
0.5
 40
0.5
 40
0.5
 40
0.5
 40
0.6666666666666666
 40
0.6666666666666666
 40
0.6666666666666666
 40
0.6666666666666666
 40
1.0
 40
1.0
 40
1.0
 40
1.0
 10
23.4243
 20
111.7607
 30
0.0
 10
23.4648
 20
111.63
 30
0.0
 10
23.502
 20
111.4923
 30
0.0
 10
23.5346
 20
111.3454
 30
0.0
 10
23.5346
 20
111.3454
 30
0.0
 10
24.4699
 20
107.1388
 30
0.0
 10
19.0586
 20
103.7878
 30
0.0
 10
19.0586
 20
103.7878
 30
0.0
 10
19.0586
 20
103.7878
 30
0.0
 10
20.5952
 20
102.5045
 30
0.0
 10
22.733
 20
101.0785
 30
0.0
 10
25.2716
 20
104.7147
 30
0.0
 10
25.2716
 20
104.7147
 30
0.0
 10
26.9003
 20
107.0476
 30
0.0
 10
30.6738
 20
109.9673
 30
0.0
 10
33.1696
 20
111.7607
 30
0.0
 10
33.1696
 20
111.7607
 30
0.0
 10
33.1696
 20
111.7607
 30
0.0
 10
23.4243
 20
111.7607
 30
0.0
 10
23.4243
 20
111.7607
 30
0.0
  0
SPLINE
  5
4D
330
1F
100
AcDbEntity
  8
layer 1
 62
   250
100
AcDbSpline
210
0.0
220
0.0
230
1.0
 70
    11
 71
     3
 72
    20
 73
    16
 74
     0
 42
0.0000000001
 43
0.0000000001
 12
1.0
 22
0.0
 32
0.0
 13
1.0
 23
0.0
 33
0.0
 40
0.0
 40
0.0
 40
0.0
 40
0.0
 40
0.2
 40
0.2
 40
0.2
 40
0.2
 40
0.4
 40
0.4
 40
0.4
 40
0.4
 40
0.6
 40
0.6
 40
0.6
 40
0.6
 40
1.0
 40
1.0
 40
1.0
 40
1.0
 10
48.9214
 20
111.7607
 30
0.0
 10
49.2268
 20
111.6509
 30
0.0
 10
49.5378
 20
111.5367
 30
0.0
 10
49.8561
 20
111.4167
 30
0.0
 10
49.8561
 20
111.4167
 30
0.0
 10
58.1127
 20
108.3036
 30
0.0
 10
63.8437
 20
100.6229
 30
0.0
 10
66.2657
 20
96.8396
 30
0.0
 10
66.2657
 20
96.8396
 30
0.0
 10
66.2657
 20
96.8396
 30
0.0
 10
66.2657
 20
111.7607
 30
0.0
 10
66.2657
 20
111.7607
 30
0.0
 10
66.2657
 20
111.7607
 30
0.0
 10
66.2657
 20
111.7607
 30
0.0
 10
48.9214
 20
111.7607
 30
0.0
 10
48.9214
 20
111.7607
 30
0.0
  0
SPLINE
  5
4E
330
1F
100
AcDbEntity
  8
layer 1
 62
   250
100
AcDbSpline
210
0.0
220
0.0
230
1.0
 70
    11
 71
     3
 72
    28
 73
    24
 74
     0
 42
0.0000000001
 43
0.0000000001
 12
1.0
 22
0.0
 32
0.0
 13
1.0
 23
0.0
 33
0.0
 40
0.0
 40
0.0
 40
0.0
 40
0.0
 40
0.1428571428571428
 40
0.1428571428571428
 40
0.1428571428571428
 40
0.1428571428571428
 40
0.2857142857142857
 40
0.2857142857142857
 40
0.2857142857142857
 40
0.2857142857142857
 40
0.4285714285714285
 40
0.4285714285714285
 40
0.4285714285714285
 40
0.4285714285714285
 40
0.5714285714285714
 40
0.5714285714285714
 40
0.5714285714285714
 40
0.5714285714285714
 40
0.7142857142857143
 40
0.7142857142857143
 40
0.7142857142857143
 40
0.7142857142857143
 40
1.0
 40
1.0
 40
1.0
 40
1.0
 10
66.2657
 20
79.4467
 30
0.0
 10
64.5276
 20
77.8979
 30
0.0
 10
62.5019
 20
77.1931
 30
0.0
 10
62.5019
 20
77.1931
 30
0.0
 10
62.5019
 20
77.1931
 30
0.0
 10
64.3387
 20
75.4111
 30
0.0
 10
61.8674
 20
73.4865
 30
0.0
 10
61.8674
 20
73.4865
 30
0.0
 10
61.8674
 20
73.4865
 30
0.0
 10
63.3368
 20
73.0231
 30
0.0
 10
64.8062
 20
71.3836
 30
0.0
 10
64.706
 20
70.5283
 30
0.0
 10
64.706
 20
70.5283
 30
0.0
 10
64.6058
 20
69.6729
 30
0.0
 10
63.27
 20
68.6749
 30
0.0
 10
63.27
 20
68.6749
 30
0.0
 10
63.27
 20
68.6749
 30
0.0
 10
65.007
 20
66.0797
 30
0.0
 10
65.9141
 20
63.4652
 30
0.0
 10
66.2657
 20
62.2927
 30
0.0
 10
66.2657
 20
62.2927
 30
0.0
 10
66.2657
 20
62.2927
 30
0.0
 10
66.2657
 20
79.4467
 30
0.0
 10
66.2657
 20
79.4467
 30
0.0
  0
SPLINE
  5
4F
330
1F
100
AcDbEntity
  8
layer 1
 62
   250
100
AcDbSpline
210
0.0
220
0.0
230
1.0
 70
    11
 71
     3
 72
    20
 73
    16
 74
     0
 42
0.0000000001
 43
0.0000000001
 12
1.0
 22
0.0
 32
0.0
 13
1.0
 23
0.0
 33
0.0
 40
0.0
 40
0.0
 40
0.0
 40
0.0
 40
0.2
 40
0.2
 40
0.2
 40
0.2
 40
0.4
 40
0.4
 40
0.4
 40
0.4
 40
0.6
 40
0.6
 40
0.6
 40
0.6
 40
1.0
 40
1.0
 40
1.0
 40
1.0
 10
66.2657
 20
61.2368
 30
0.0
 10
64.8391
 20
61.197
 30
0.0
 10
63.0696
 20
61.2973
 30
0.0
 10
63.0696
 20
61.2973
 30
0.0
 10
63.0696
 20
61.2973
 30
0.0
 10
64.0047
 20
58.9806
 30
0.0
 10
63.3368
 20
56.3432
 30
0.0
 10
63.3368
 20
56.3432
 30
0.0
 10
63.3368
 20
56.3432
 30
0.0
 10
64.5428
 20
55.6219
 30
0.0
 10
65.5224
 20
54.3616
 30
0.0
 10
66.2657
 20
53.1039
 30
0.0
 10
66.2657
 20
53.1039
 30
0.0
 10
66.2657
 20
53.1039
 30
0.0
 10
66.2657
 20
61.2368
 30
0.0
 10
66.2657
 20
61.2368
 30
0.0
  0
SPLINE
  5
50
330
1F
100
AcDbEntity
  8
layer 1
 62
   250
100
AcDbSpline
210
0.0
220
0.0
230
1.0
 70
    11
 71
     3
 72
    24
 73
    20
 74
     0
 42
0.0000000001
 43
0.0000000001
 12
1.0
 22
0.0
 32
0.0
 13
1.0
 23
0.0
 33
0.0
 40
0.0
 40
0.0
 40
0.0
 40
0.0
 40
0.1666666666666667
 40
0.1666666666666667
 40
0.1666666666666667
 40
0.1666666666666667
 40
0.3333333333333333
 40
0.3333333333333333
 40
0.3333333333333333
 40
0.3333333333333333
 40
0.5
 40
0.5
 40
0.5
 40
0.5
 40
0.6666666666666666
 40
0.6666666666666666
 40
0.6666666666666666
 40
0.6666666666666666
 40
1.0
 40
1.0
 40
1.0
 40
1.0
 10
66.2657
 20
38.4995
 30
0.0
 10
62.1741
 20
29.9036
 30
0.0
 10
52.6502
 20
29.2917
 30
0.0
 10
52.6502
 20
29.2917
 30
0.0
 10
52.6502
 20
29.2917
 30
0.0
 10
56.6243
 20
23.91
 30
0.0
 10
54.0194
 20
15.4274
 30
0.0
 10
54.0194
 20
15.4274
 30
0.0
 10
54.0194
 20
15.4274
 30
0.0
 10
54.0194
 20
15.4274
 30
0.0
 10
56.4907
 20
16.2472
 30
0.0
 10
59.4629
 20
16.5323
 30
0.0
 10
59.4629
 20
16.5323
 30
0.0
 10
61.7645
 20
16.7531
 30
0.0
 10
64.9466
 20
18.8329
 30
0.0
 10
66.2657
 20
19.7604
 30
0.0
 10
66.2657
 20
19.7604
 30
0.0
 10
66.2657
 20
19.7604
 30
0.0
 10
66.2657
 20
38.4995
 30
0.0
 10
66.2657
 20
38.4995
 30
0.0
  0
SPLINE
  5
51
330
1F
100
AcDbEntity
  8
layer 1
 62
   250
100
AcDbSpline
210
0.0
220
0.0
230
1.0
 70
    11
 71
     3
 72
    20
 73
    16
 74
     0
 42
0.0000000001
 43
0.0000000001
 12
1.0
 22
0.0
 32
0.0
 13
1.0
 23
0.0
 33
0.0
 40
0.0
 40
0.0
 40
0.0
 40
0.0
 40
0.2
 40
0.2
 40
0.2
 40
0.2
 40
0.4
 40
0.4
 40
0.4
 40
0.4
 40
0.6
 40
0.6
 40
0.6
 40
0.6
 40
1.0
 40
1.0
 40
1.0
 40
1.0
 10
66.2657
 20
10.9191
 30
0.0
 10
64.1655
 20
7.9872
 30
0.0
 10
61.2556
 20
5.9774
 30
0.0
 10
61.2556
 20
5.9774
 30
0.0
 10
61.2556
 20
5.9774
 30
0.0
 10
61.7918
 20
5.3313
 30
0.0
 10
61.7918
 20
5.0657
 30
0.0
 10
61.2556
 20
4.4196
 30
0.0
 10
61.2556
 20
4.4196
 30
0.0
 10
61.2556
 20
4.4196
 30
0.0
 10
64.1655
 20
2.4098
 30
0.0
 10
66.2657
 20
-0.5221
 30
0.0
 10
66.2657
 20
-0.5221
 30
0.0
 10
66.2657
 20
-0.5221
 30
0.0
 10
66.2657
 20
10.9191
 30
0.0
 10
66.2657
 20
10.9191
 30
0.0
  0
SPLINE
  5
52
330
1F
100
AcDbEntity
  8
layer 1
 62
   250
100
AcDbSpline
210
0.0
220
0.0
230
1.0
 70
    11
 71
     3
 72
    24
 73
    20
 74
     0
 42
0.0000000001
 43
0.0000000001
 12
1.0
 22
0.0
 32
0.0
 13
1.0
 23
0.0
 33
0.0
 40
0.0
 40
0.0
 40
0.0
 40
0.0
 40
0.1666666666666667
 40
0.1666666666666667
 40
0.1666666666666667
 40
0.1666666666666667
 40
0.3333333333333333
 40
0.3333333333333333
 40
0.3333333333333333
 40
0.3333333333333333
 40
0.5
 40
0.5
 40
0.5
 40
0.5
 40
0.6666666666666666
 40
0.6666666666666666
 40
0.6666666666666666
 40
0.6666666666666666
 40
1.0
 40
1.0
 40
1.0
 40
1.0
 10
66.2657
 20
-9.3634
 30
0.0
 10
64.9466
 20
-8.4359
 30
0.0
 10
61.7645
 20
-6.3561
 30
0.0
 10
59.4629
 20
-6.1353
 30
0.0
 10
59.4629
 20
-6.1353
 30
0.0
 10
56.4907
 20
-5.8502
 30
0.0
 10
54.0194
 20
-5.0305
 30
0.0
 10
54.0194
 20
-5.0305
 30
0.0
 10
54.0194
 20
-5.0305
 30
0.0
 10
54.0194
 20
-5.0305
 30
0.0
 10
56.6243
 20
-13.513
 30
0.0
 10
52.6502
 20
-18.8948
 30
0.0
 10
52.6502
 20
-18.8948
 30
0.0
 10
52.6502
 20
-18.8948
 30
0.0
 10
62.1741
 20
-19.5066
 30
0.0
 10
66.2657
 20
-28.1025
 30
0.0
 10
66.2657
 20
-28.1025
 30
0.0
 10
66.2657
 20
-28.1025
 30
0.0
 10
66.2657
 20
-9.3634
 30
0.0
 10
66.2657
 20
-9.3634
 30
0.0
  0
SPLINE
  5
53
330
1F
100
AcDbEntity
  8
layer 1
 62
   250
100
AcDbSpline
210
0.0
220
0.0
230
1.0
 70
    11
 71
     3
 72
    20
 73
    16
 74
     0
 42
0.0000000001
 43
0.0000000001
 12
1.0
 22
0.0
 32
0.0
 13
1.0
 23
0.0
 33
0.0
 40
0.0
 40
0.0
 40
0.0
 40
0.0
 40
0.2
 40
0.2
 40
0.2
 40
0.2
 40
0.4
 40
0.4
 40
0.4
 40
0.4
 40
0.6
 40
0.6
 40
0.6
 40
0.6
 40
1.0
 40
1.0
 40
1.0
 40
1.0
 10
66.2657
 20
-42.7069
 30
0.0
 10
65.5224
 20
-43.9647
 30
0.0
 10
64.5428
 20
-45.2249
 30
0.0
 10
63.3368
 20
-45.9462
 30
0.0
 10
63.3368
 20
-45.9462
 30
0.0
 10
63.3368
 20
-45.9462
 30
0.0
 10
64.0047
 20
-48.5836
 30
0.0
 10
63.0696
 20
-50.9003
 30
0.0
 10
63.0696
 20
-50.9003
 30
0.0
 10
63.0696
 20
-50.9003
 30
0.0
 10
64.8391
 20
-50.8
 30
0.0
 10
66.2657
 20
-50.8398
 30
0.0
 10
66.2657
 20
-50.8398
 30
0.0
 10
66.2657
 20
-50.8398
 30
0.0
 10
66.2657
 20
-42.7069
 30
0.0
 10
66.2657
 20
-42.7069
 30
0.0
  0
SPLINE
  5
54
330
1F
100
AcDbEntity
  8
layer 1
 62
   250
100
AcDbSpline
210
0.0
220
0.0
230
1.0
 70
    11
 71
     3
 72
    28
 73
    24
 74
     0
 42
0.0000000001
 43
0.0000000001
 12
1.0
 22
0.0
 32
0.0
 13
1.0
 23
0.0
 33
0.0
 40
0.0
 40
0.0
 40
0.0
 40
0.0
 40
0.1428571428571428
 40
0.1428571428571428
 40
0.1428571428571428
 40
0.1428571428571428
 40
0.2857142857142857
 40
0.2857142857142857
 40
0.2857142857142857
 40
0.2857142857142857
 40
0.4285714285714285
 40
0.4285714285714285
 40
0.4285714285714285
 40
0.4285714285714285
 40
0.5714285714285714
 40
0.5714285714285714
 40
0.5714285714285714
 40
0.5714285714285714
 40
0.7142857142857143
 40
0.7142857142857143
 40
0.7142857142857143
 40
0.7142857142857143
 40
1.0
 40
1.0
 40
1.0
 40
1.0
 10
66.2657
 20
-51.8957
 30
0.0
 10
65.9141
 20
-53.0682
 30
0.0
 10
65.007
 20
-55.6827
 30
0.0
 10
63.27
 20
-58.278
 30
0.0
 10
63.27
 20
-58.278
 30
0.0
 10
63.27
 20
-58.278
 30
0.0
 10
64.6058
 20
-59.2759
 30
0.0
 10
64.706
 20
-60.1313
 30
0.0
 10
64.706
 20
-60.1313
 30
0.0
 10
64.8062
 20
-60.9867
 30
0.0
 10
63.3368
 20
-62.6261
 30
0.0
 10
61.8674
 20
-63.0895
 30
0.0
 10
61.8674
 20
-63.0895
 30
0.0
 10
61.8674
 20
-63.0895
 30
0.0
 10
64.3387
 20
-65.0141
 30
0.0
 10
62.5019
 20
-66.7961
 30
0.0
 10
62.5019
 20
-66.7961
 30
0.0
 10
62.5019
 20
-66.7961
 30
0.0
 10
64.5276
 20
-67.5009
 30
0.0
 10
66.2657
 20
-69.0498
 30
0.0
 10
66.2657
 20
-69.0498
 30
0.0
 10
66.2657
 20
-69.0498
 30
0.0
 10
66.2657
 20
-51.8957
 30
0.0
 10
66.2657
 20
-51.8957
 30
0.0
  0
SPLINE
  5
55
330
1F
100
AcDbEntity
  8
layer 1
 62
   250
100
AcDbSpline
210
0.0
220
0.0
230
1.0
 70
    11
 71
     3
 72
    20
 73
    16
 74
     0
 42
0.0000000001
 43
0.0000000001
 12
1.0
 22
0.0
 32
0.0
 13
1.0
 23
0.0
 33
0.0
 40
0.0
 40
0.0
 40
0.0
 40
0.0
 40
0.2
 40
0.2
 40
0.2
 40
0.2
 40
0.4
 40
0.4
 40
0.4
 40
0.4
 40
0.6
 40
0.6
 40
0.6
 40
0.6
 40
1.0
 40
1.0
 40
1.0
 40
1.0
 10
66.2657
 20
-86.4426
 30
0.0
 10
63.8437
 20
-90.2259
 30
0.0
 10
58.1127
 20
-97.9066
 30
0.0
 10
49.8561
 20
-101.0197
 30
0.0
 10
49.8561
 20
-101.0197
 30
0.0
 10
49.5378
 20
-101.1397
 30
0.0
 10
49.2268
 20
-101.2539
 30
0.0
 10
48.9214
 20
-101.3637
 30
0.0
 10
48.9214
 20
-101.3637
 30
0.0
 10
48.9214
 20
-101.3637
 30
0.0
 10
66.2657
 20
-101.3637
 30
0.0
 10
66.2657
 20
-101.3637
 30
0.0
 10
66.2657
 20
-101.3637
 30
0.0
 10
66.2657
 20
-101.3637
 30
0.0
 10
66.2657
 20
-86.4426
 30
0.0
 10
66.2657
 20
-86.4426
 30
0.0
  0
SPLINE
  5
56
330
1F
100
AcDbEntity
  8
layer 1
 62
   250
100
AcDbSpline
210
0.0
220
0.0
230
1.0
 70
    11
 71
     3
 72
    24
 73
    20
 74
     0
 42
0.0000000001
 43
0.0000000001
 12
1.0
 22
0.0
 32
0.0
 13
1.0
 23
0.0
 33
0.0
 40
0.0
 40
0.0
 40
0.0
 40
0.0
 40
0.1666666666666667
 40
0.1666666666666667
 40
0.1666666666666667
 40
0.1666666666666667
 40
0.3333333333333333
 40
0.3333333333333333
 40
0.3333333333333333
 40
0.3333333333333333
 40
0.5
 40
0.5
 40
0.5
 40
0.5
 40
0.6666666666666666
 40
0.6666666666666666
 40
0.6666666666666666
 40
0.6666666666666666
 40
1.0
 40
1.0
 40
1.0
 40
1.0
 10
33.1696
 20
-101.3637
 30
0.0
 10
30.6738
 20
-99.5703
 30
0.0
 10
26.9003
 20
-96.6506
 30
0.0
 10
25.2716
 20
-94.3177
 30
0.0
 10
25.2716
 20
-94.3177
 30
0.0
 10
22.733
 20
-90.6815
 30
0.0
 10
20.5952
 20
-92.1075
 30
0.0
 10
19.0586
 20
-93.3908
 30
0.0
 10
19.0586
 20
-93.3908
 30
0.0
 10
19.0586
 20
-93.3908
 30
0.0
 10
24.4699
 20
-96.7418
 30
0.0
 10
23.5346
 20
-100.9484
 30
0.0
 10
23.5346
 20
-100.9484
 30
0.0
 10
23.502
 20
-101.0953
 30
0.0
 10
23.4648
 20
-101.233
 30
0.0
 10
23.4243
 20
-101.3637
 30
0.0
 10
23.4243
 20
-101.3637
 30
0.0
 10
23.4243
 20
-101.3637
 30
0.0
 10
33.1696
 20
-101.3637
 30
0.0
 10
33.1696
 20
-101.3637
 30
0.0
  0
SPLINE
  5
57
330
1F
100
AcDbEntity
  8
layer 1
 62
   250
100
AcDbSpline
210
0.0
220
0.0
230
1.0
 70
    11
 71
     3
 72
    16
 73
    12
 74
     0
 42
0.0000000001
 43
0.0000000001
 12
1.0
 22
0.0
 32
0.0
 13
1.0
 23
0.0
 33
0.0
 40
0.0
 40
0.0
 40
0.0
 40
0.0
 40
0.25
 40
0.25
 40
0.25
 40
0.25
 40
0.5
 40
0.5
 40
0.5
 40
0.5
 40
1.0
 40
1.0
 40
1.0
 40
1.0
 10
17.3211
 20
-101.3637
 30
0.0
 10
16.0458
 20
-99.7881
 30
0.0
 10
14.0393
 20
-96.8893
 30
0.0
 10
14.3154
 20
-94.5316
 30
0.0
 10
14.3154
 20
-94.5316
 30
0.0
 10
14.3154
 20
-94.5316
 30
0.0
 10
9.8206
 20
-98.7646
 30
0.0
 10
5.4748
 20
-101.3637
 30
0.0
 10
5.4748
 20
-101.3637
 30
0.0
 10
5.4748
 20
-101.3637
 30
0.0
 10
17.3211
 20
-101.3637
 30
0.0
 10
17.3211
 20
-101.3637
 30
0.0
  0
SPLINE
  5
58
330
1F
100
AcDbEntity
  8
layer 1
 62
   250
100
AcDbSpline
210
0.0
220
0.0
230
1.0
 70
    11
 71
     3
 72
    32
 73
    28
 74
     0
 42
0.0000000001
 43
0.0000000001
 12
1.0
 22
0.0
 32
0.0
 13
1.0
 23
0.0
 33
0.0
 40
0.0
 40
0.0
 40
0.0
 40
0.0
 40
0.125
 40
0.125
 40
0.125
 40
0.125
 40
0.25
 40
0.25
 40
0.25
 40
0.25
 40
0.375
 40
0.375
 40
0.375
 40
0.375
 40
0.5
 40
0.5
 40
0.5
 40
0.5
 40
0.625
 40
0.625
 40
0.625
 40
0.625
 40
0.75
 40
0.75
 40
0.75
 40
0.75
 40
1.0
 40
1.0
 40
1.0
 40
1.0
 10
-6.9747
 20
7.4455
 30
0.0
 10
-6.5794
 20
7.7603
 30
0.0
 10
-6.0892
 20
7.9467
 30
0.0
 10
-5.5582
 20
7.9467
 30
0.0
 10
-5.5582
 20
7.9467
 30
0.0
 10
-5.0327
 20
7.9467
 30
0.0
 10
-4.5471
 20
7.764
 30
0.0
 10
-4.154
 20
7.4551
 30
0.0
 10
-4.154
 20
7.4551
 30
0.0
 10
-3.6881
 20
13.3595
 30
0.0
 10
-1.4121
 20
18.6877
 30
0.0
 10
2.0535
 20
22.7479
 30
0.0
 10
2.0535
 20
22.7479
 30
0.0
 10
-1.2367
 20
20.7554
 30
0.0
 10
-8.5638
 20
18.2431
 30
0.0
 10
-8.5638
 20
18.2431
 30
0.0
 10
-8.5638
 20
18.2431
 30
0.0
 10
-5.1574
 20
15.8195
 30
0.0
 10
-8.6306
 20
14.4651
 30
0.0
 10
-8.6306
 20
14.4651
 30
0.0
 10
-8.6306
 20
14.4651
 30
0.0
 10
-6.6268
 20
12.6831
 30
0.0
 10
-8.1964
 20
10.7228
 30
0.0
 10
-8.1964
 20
10.7228
 30
0.0
 10
-8.1964
 20
10.7228
 30
0.0
 10
-7.3743
 20
9.7747
 30
0.0
 10
-7.0577
 20
8.5626
 30
0.0
 10
-6.9747
 20
7.4455
 30
0.0
  0
SPLINE
  5
59
330
1F
100
AcDbEntity
  8
layer 1
 62
   250
100
AcDbSpline
210
0.0
220
0.0
230
1.0
 70
    11
 71
     3
 72
    24
 73
    20
 74
     0
 42
0.0000000001
 43
0.0000000001
 12
1.0
 22
0.0
 32
0.0
 13
1.0
 23
0.0
 33
0.0
 40
0.0
 40
0.0
 40
0.0
 40
0.0
 40
0.1666666666666667
 40
0.1666666666666667
 40
0.1666666666666667
 40
0.1666666666666667
 40
0.3333333333333333
 40
0.3333333333333333
 40
0.3333333333333333
 40
0.3333333333333333
 40
0.5
 40
0.5
 40
0.5
 40
0.5
 40
0.6666666666666666
 40
0.6666666666666666
 40
0.6666666666666666
 40
0.6666666666666666
 40
1.0
 40
1.0
 40
1.0
 40
1.0
 10
9.9285
 20
28.7688
 30
0.0
 10
11.6278
 20
29.5508
 30
0.0
 10
13.4295
 20
30.1128
 30
0.0
 10
15.3056
 20
30.4213
 30
0.0
 10
15.3056
 20
30.4213
 30
0.0
 10
15.6089
 20
31.1968
 30
0.0
 10
15.9242
 20
32.2061
 30
0.0
 10
15.5812
 20
32.3569
 30
0.0
 10
15.5812
 20
32.3569
 30
0.0
 10
15.0135
 20
32.6063
 30
0.0
 10
12.8428
 20
33.1053
 30
0.0
 10
12.8428
 20
33.1053
 30
0.0
 10
12.8428
 20
33.1053
 30
0.0
 10
12.4754
 20
32.2499
 30
0.0
 10
10.3047
 20
29.5056
 30
0.0
 10
10.3047
 20
29.5056
 30
0.0
 10
10.3047
 20
29.5056
 30
0.0
 10
10.3047
 20
29.5056
 30
0.0
 10
9.9285
 20
28.7688
 30
0.0
 10
9.9285
 20
28.7688
 30
0.0
  0
SPLINE
  5
5A
330
1F
100
AcDbEntity
  8
layer 1
 62
   250
100
AcDbSpline
210
0.0
220
0.0
230
1.0
 70
    11
 71
     3
 72
    84
 73
    80
 74
     0
 42
0.0000000001
 43
0.0000000001
 12
1.0
 22
0.0
 32
0.0
 13
1.0
 23
0.0
 33
0.0
 40
0.0
 40
0.0
 40
0.0
 40
0.0
 40
0.0476190476190476
 40
0.0476190476190476
 40
0.0476190476190476
 40
0.0476190476190476
 40
0.0952380952380952
 40
0.0952380952380952
 40
0.0952380952380952
 40
0.0952380952380952
 40
0.1428571428571428
 40
0.1428571428571428
 40
0.1428571428571428
 40
0.1428571428571428
 40
0.1904761904761905
 40
0.1904761904761905
 40
0.1904761904761905
 40
0.1904761904761905
 40
0.2380952380952381
 40
0.2380952380952381
 40
0.2380952380952381
 40
0.2380952380952381
 40
0.2857142857142857
 40
0.2857142857142857
 40
0.2857142857142857
 40
0.2857142857142857
 40
0.3333333333333333
 40
0.3333333333333333
 40
0.3333333333333333
 40
0.3333333333333333
 40
0.3809523809523809
 40
0.3809523809523809
 40
0.3809523809523809
 40
0.3809523809523809
 40
0.4285714285714285
 40
0.4285714285714285
 40
0.4285714285714285
 40
0.4285714285714285
 40
0.4761904761904762
 40
0.4761904761904762
 40
0.4761904761904762
 40
0.4761904761904762
 40
0.5238095238095238
 40
0.5238095238095238
 40
0.5238095238095238
 40
0.5238095238095238
 40
0.5714285714285714
 40
0.5714285714285714
 40
0.5714285714285714
 40
0.5714285714285714
 40
0.6190476190476191
 40
0.6190476190476191
 40
0.6190476190476191
 40
0.6190476190476191
 40
0.6666666666666666
 40
0.6666666666666666
 40
0.6666666666666666
 40
0.6666666666666666
 40
0.7142857142857143
 40
0.7142857142857143
 40
0.7142857142857143
 40
0.7142857142857143
 40
0.7619047619047619
 40
0.7619047619047619
 40
0.7619047619047619
 40
0.7619047619047619
 40
0.8095238095238095
 40
0.8095238095238095
 40
0.8095238095238095
 40
0.8095238095238095
 40
0.8571428571428571
 40
0.8571428571428571
 40
0.8571428571428571
 40
0.8571428571428571
 40
0.9047619047619048
 40
0.9047619047619048
 40
0.9047619047619048
 40
0.9047619047619048
 40
1.0
 40
1.0
 40
1.0
 40
1.0
 10
20.7828
 20
30.5907
 30
0.0
 10
23.5691
 20
30.31
 30
0.0
 10
26.2123
 20
29.4769
 30
0.0
 10
28.6209
 20
28.187
 30
0.0
 10
28.6209
 20
28.187
 30
0.0
 10
28.3861
 20
29.7904
 30
0.0
 10
28.6956
 20
31.4184
 30
0.0
 10
29.7409
 20
32.2499
 30
0.0
 10
29.7409
 20
32.2499
 30
0.0
 10
31.5776
 20
33.7112
 30
0.0
 10
32.6797
 20
31.9648
 30
0.0
 10
32.3123
 20
31.252
 30
0.0
 10
32.3123
 20
31.252
 30
0.0
 10
31.945
 20
30.5392
 30
0.0
 10
32.3457
 20
28.6858
 30
0.0
 10
34.5498
 20
29.862
 30
0.0
 10
34.5498
 20
29.862
 30
0.0
 10
36.754
 20
31.0381
 30
0.0
 10
35.7855
 20
37.0258
 30
0.0
 10
35.7855
 20
37.0258
 30
0.0
 10
35.7855
 20
37.0258
 30
0.0
 10
34.7168
 20
38.6297
 30
0.0
 10
33.1472
 20
42.4076
 30
0.0
 10
32.9135
 20
42.7997
 30
0.0
 10
32.9135
 20
42.7997
 30
0.0
 10
32.6797
 20
43.1917
 30
0.0
 10
30.7427
 20
39.984
 30
0.0
 10
30.7427
 20
39.984
 30
0.0
 10
30.7427
 20
39.984
 30
0.0
 10
30.0414
 20
40.9463
 30
0.0
 10
29.7743
 20
43.4056
 30
0.0
 10
29.7743
 20
43.4056
 30
0.0
 10
29.7743
 20
43.4056
 30
0.0
 10
28.3717
 20
41.2671
 30
0.0
 10
26.7019
 20
42.6927
 30
0.0
 10
26.7019
 20
42.6927
 30
0.0
 10
26.7019
 20
42.6927
 30
0.0
 10
26.7019
 20
42.6927
 30
0.0
 10
24.2974
 20
41.2671
 30
0.0
 10
22.2603
 20
42.4789
 30
0.0
 10
22.2603
 20
42.4789
 30
0.0
 10
20.2232
 20
43.6907
 30
0.0
 10
20.4235
 20
46.7201
 30
0.0
 10
20.4235
 20
46.7201
 30
0.0
 10
20.4235
 20
46.7201
 30
0.0
 10
20.4235
 20
46.7201
 30
0.0
 10
18.687
 20
48.6447
 30
0.0
 10
18.687
 20
48.6447
 30
0.0
 10
18.687
 20
48.6447
 30
0.0
 10
18.353
 20
45.2232
 30
0.0
 10
16.1155
 20
40.1979
 30
0.0
 10
16.1155
 20
40.1979
 30
0.0
 10
16.1155
 20
40.1979
 30
0.0
 10
16.1155
 20
40.1979
 30
0.0
 10
18.6202
 20
41.5166
 30
0.0
 10
19.0543
 20
41.5522
 30
0.0
 10
19.0543
 20
41.5522
 30
0.0
 10
19.4885
 20
41.5879
 30
0.0
 10
19.7556
 20
39.8771
 30
0.0
 10
19.7556
 20
39.8771
 30
0.0
 10
19.7556
 20
39.8771
 30
0.0
 10
19.7556
 20
39.8771
 30
0.0
 10
21.1248
 20
40.8038
 30
0.0
 10
21.4254
 20
40.8038
 30
0.0
 10
21.4254
 20
40.8038
 30
0.0
 10
21.726
 20
40.8038
 30
0.0
 10
22.3939
 20
38.9861
 30
0.0
 10
22.3939
 20
38.9861
 30
0.0
 10
22.3939
 20
38.9861
 30
0.0
 10
22.3939
 20
38.9861
 30
0.0
 10
29.0062
 20
37.2397
 30
0.0
 10
28.5052
 20
35.6358
 30
0.0
 10
28.5052
 20
35.6358
 30
0.0
 10
28.0043
 20
34.032
 30
0.0
 10
21.2584
 20
32.4994
 30
0.0
 10
21.2584
 20
32.4994
 30
0.0
 10
21.2584
 20
32.4994
 30
0.0
 10
21.2418
 20
31.9151
 30
0.0
 10
21.0109
 20
31.1813
 30
0.0
 10
20.7828
 20
30.5907
 30
0.0
  0
SPLINE
  5
5B
330
1F
100
AcDbEntity
  8
layer 1
 62
   250
100
AcDbSpline
210
0.0
220
0.0
230
1.0
 70
    11
 71
     3
 72
    44
 73
    40
 74
     0
 42
0.0000000001
 43
0.0000000001
 12
1.0
 22
0.0
 32
0.0
 13
1.0
 23
0.0
 33
0.0
 40
0.0
 40
0.0
 40
0.0
 40
0.0
 40
0.0909090909090909
 40
0.0909090909090909
 40
0.0909090909090909
 40
0.0909090909090909
 40
0.1818181818181818
 40
0.1818181818181818
 40
0.1818181818181818
 40
0.1818181818181818
 40
0.2727272727272727
 40
0.2727272727272727
 40
0.2727272727272727
 40
0.2727272727272727
 40
0.3636363636363636
 40
0.3636363636363636
 40
0.3636363636363636
 40
0.3636363636363636
 40
0.4545454545454545
 40
0.4545454545454545
 40
0.4545454545454545
 40
0.4545454545454545
 40
0.5454545454545454
 40
0.5454545454545454
 40
0.5454545454545454
 40
0.5454545454545454
 40
0.6363636363636364
 40
0.6363636363636364
 40
0.6363636363636364
 40
0.6363636363636364
 40
0.7272727272727273
 40
0.7272727272727273
 40
0.7272727272727273
 40
0.7272727272727273
 40
0.8181818181818182
 40
0.8181818181818182
 40
0.8181818181818182
 40
0.8181818181818182
 40
1.0
 40
1.0
 40
1.0
 40
1.0
 10
34.3306
 20
23.8402
 30
0.0
 10
38.3934
 20
19.6227
 30
0.0
 10
41.0775
 20
13.784
 30
0.0
 10
41.5458
 20
7.2513
 30
0.0
 10
41.5458
 20
7.2513
 30
0.0
 10
43.3753
 20
9.3771
 30
0.0
 10
45.4034
 20
7.3726
 30
0.0
 10
45.4034
 20
7.3726
 30
0.0
 10
45.4034
 20
7.3726
 30
0.0
 10
45.6371
 20
8.4418
 30
0.0
 10
46.806
 20
8.6557
 30
0.0
 10
46.806
 20
8.6557
 30
0.0
 10
46.806
 20
8.6557
 30
0.0
 10
44.4349
 20
11.6851
 30
0.0
 10
44.4683
 20
16.2115
 30
0.0
 10
45.8375
 20
20.9161
 30
0.0
 10
45.8375
 20
20.9161
 30
0.0
 10
47.2067
 20
25.6207
 30
0.0
 10
45.9711
 20
30.0402
 30
0.0
 10
45.1696
 20
30.4679
 30
0.0
 10
45.1696
 20
30.4679
 30
0.0
 10
44.3681
 20
30.8956
 30
0.0
 10
42.2976
 20
32.1074
 30
0.0
 10
42.2976
 20
32.1074
 30
0.0
 10
42.2976
 20
32.1074
 30
0.0
 10
42.2976
 20
32.1074
 30
0.0
 10
43.0657
 20
27.6879
 30
0.0
 10
42.2308
 20
27.973
 30
0.0
 10
42.2308
 20
27.973
 30
0.0
 10
41.3959
 20
28.2581
 30
0.0
 10
39.9265
 20
29.7907
 30
0.0
 10
39.9265
 20
29.7907
 30
0.0
 10
39.9265
 20
29.7907
 30
0.0
 10
39.7929
 20
27.1889
 30
0.0
 10
36.9543
 20
26.2979
 30
0.0
 10
36.9543
 20
26.2979
 30
0.0
 10
36.9543
 20
26.2979
 30
0.0
 10
36.5382
 20
24.9504
 30
0.0
 10
35.5055
 20
24.1559
 30
0.0
 10
34.3306
 20
23.8402
 30
0.0
  0
SPLINE
  5
5C
330
1F
100
AcDbEntity
  8
layer 1
 62
   250
100
AcDbSpline
210
0.0
220
0.0
230
1.0
 70
    11
 71
     3
 72
    44
 73
    40
 74
     0
 42
0.0000000001
 43
0.0000000001
 12
1.0
 22
0.0
 32
0.0
 13
1.0
 23
0.0
 33
0.0
 40
0.0
 40
0.0
 40
0.0
 40
0.0
 40
0.0909090909090909
 40
0.0909090909090909
 40
0.0909090909090909
 40
0.0909090909090909
 40
0.1818181818181818
 40
0.1818181818181818
 40
0.1818181818181818
 40
0.1818181818181818
 40
0.2727272727272727
 40
0.2727272727272727
 40
0.2727272727272727
 40
0.2727272727272727
 40
0.3636363636363636
 40
0.3636363636363636
 40
0.3636363636363636
 40
0.3636363636363636
 40
0.4545454545454545
 40
0.4545454545454545
 40
0.4545454545454545
 40
0.4545454545454545
 40
0.5454545454545454
 40
0.5454545454545454
 40
0.5454545454545454
 40
0.5454545454545454
 40
0.6363636363636364
 40
0.6363636363636364
 40
0.6363636363636364
 40
0.6363636363636364
 40
0.7272727272727273
 40
0.7272727272727273
 40
0.7272727272727273
 40
0.7272727272727273
 40
0.8181818181818182
 40
0.8181818181818182
 40
0.8181818181818182
 40
0.8181818181818182
 40
1.0
 40
1.0
 40
1.0
 40
1.0
 10
41.5458
 20
3.1457
 30
0.0
 10
41.0773
 20
-3.3869
 30
0.0
 10
38.3937
 20
-9.2259
 30
0.0
 10
34.3306
 20
-13.4432
 30
0.0
 10
34.3306
 20
-13.4432
 30
0.0
 10
35.5055
 20
-13.7589
 30
0.0
 10
36.5382
 20
-14.5534
 30
0.0
 10
36.9543
 20
-15.9009
 30
0.0
 10
36.9543
 20
-15.9009
 30
0.0
 10
36.9543
 20
-15.9009
 30
0.0
 10
39.7929
 20
-16.7919
 30
0.0
 10
39.9265
 20
-19.3937
 30
0.0
 10
39.9265
 20
-19.3937
 30
0.0
 10
39.9265
 20
-19.3937
 30
0.0
 10
41.3959
 20
-17.8612
 30
0.0
 10
42.2308
 20
-17.576
 30
0.0
 10
42.2308
 20
-17.576
 30
0.0
 10
43.0657
 20
-17.2909
 30
0.0
 10
42.2976
 20
-21.7104
 30
0.0
 10
42.2976
 20
-21.7104
 30
0.0
 10
42.2976
 20
-21.7104
 30
0.0
 10
42.2976
 20
-21.7104
 30
0.0
 10
44.3681
 20
-20.4986
 30
0.0
 10
45.1696
 20
-20.0709
 30
0.0
 10
45.1696
 20
-20.0709
 30
0.0
 10
45.9711
 20
-19.6432
 30
0.0
 10
47.2067
 20
-15.2238
 30
0.0
 10
45.8375
 20
-10.5191
 30
0.0
 10
45.8375
 20
-10.5191
 30
0.0
 10
44.4683
 20
-5.8145
 30
0.0
 10
44.4349
 20
-1.2881
 30
0.0
 10
46.806
 20
1.7413
 30
0.0
 10
46.806
 20
1.7413
 30
0.0
 10
46.806
 20
1.7413
 30
0.0
 10
45.6371
 20
1.9552
 30
0.0
 10
45.4034
 20
3.0244
 30
0.0
 10
45.4034
 20
3.0244
 30
0.0
 10
45.4034
 20
3.0244
 30
0.0
 10
43.3753
 20
1.02
 30
0.0
 10
41.5458
 20
3.1457
 30
0.0
  0
SPLINE
  5
5D
330
1F
100
AcDbEntity
  8
layer 1
 62
   250
100
AcDbSpline
210
0.0
220
0.0
230
1.0
 70
    11
 71
     3
 72
    84
 73
    80
 74
     0
 42
0.0000000001
 43
0.0000000001
 12
1.0
 22
0.0
 32
0.0
 13
1.0
 23
0.0
 33
0.0
 40
0.0
 40
0.0
 40
0.0
 40
0.0
 40
0.0476190476190476
 40
0.0476190476190476
 40
0.0476190476190476
 40
0.0476190476190476
 40
0.0952380952380952
 40
0.0952380952380952
 40
0.0952380952380952
 40
0.0952380952380952
 40
0.1428571428571428
 40
0.1428571428571428
 40
0.1428571428571428
 40
0.1428571428571428
 40
0.1904761904761905
 40
0.1904761904761905
 40
0.1904761904761905
 40
0.1904761904761905
 40
0.2380952380952381
 40
0.2380952380952381
 40
0.2380952380952381
 40
0.2380952380952381
 40
0.2857142857142857
 40
0.2857142857142857
 40
0.2857142857142857
 40
0.2857142857142857
 40
0.3333333333333333
 40
0.3333333333333333
 40
0.3333333333333333
 40
0.3333333333333333
 40
0.3809523809523809
 40
0.3809523809523809
 40
0.3809523809523809
 40
0.3809523809523809
 40
0.4285714285714285
 40
0.4285714285714285
 40
0.4285714285714285
 40
0.4285714285714285
 40
0.4761904761904762
 40
0.4761904761904762
 40
0.4761904761904762
 40
0.4761904761904762
 40
0.5238095238095238
 40
0.5238095238095238
 40
0.5238095238095238
 40
0.5238095238095238
 40
0.5714285714285714
 40
0.5714285714285714
 40
0.5714285714285714
 40
0.5714285714285714
 40
0.6190476190476191
 40
0.6190476190476191
 40
0.6190476190476191
 40
0.6190476190476191
 40
0.6666666666666666
 40
0.6666666666666666
 40
0.6666666666666666
 40
0.6666666666666666
 40
0.7142857142857143
 40
0.7142857142857143
 40
0.7142857142857143
 40
0.7142857142857143
 40
0.7619047619047619
 40
0.7619047619047619
 40
0.7619047619047619
 40
0.7619047619047619
 40
0.8095238095238095
 40
0.8095238095238095
 40
0.8095238095238095
 40
0.8095238095238095
 40
0.8571428571428571
 40
0.8571428571428571
 40
0.8571428571428571
 40
0.8571428571428571
 40
0.9047619047619048
 40
0.9047619047619048
 40
0.9047619047619048
 40
0.9047619047619048
 40
1.0
 40
1.0
 40
1.0
 40
1.0
 10
28.6209
 20
-17.79
 30
0.0
 10
26.212
 20
-19.0794
 30
0.0
 10
23.569
 20
-19.9129
 30
0.0
 10
20.7828
 20
-20.1937
 30
0.0
 10
20.7828
 20
-20.1937
 30
0.0
 10
21.0109
 20
-20.7843
 30
0.0
 10
21.2418
 20
-21.5181
 30
0.0
 10
21.2584
 20
-22.1024
 30
0.0
 10
21.2584
 20
-22.1024
 30
0.0
 10
21.2584
 20
-22.1024
 30
0.0
 10
28.0043
 20
-23.635
 30
0.0
 10
28.5052
 20
-25.2388
 30
0.0
 10
28.5052
 20
-25.2388
 30
0.0
 10
29.0062
 20
-26.8427
 30
0.0
 10
22.3939
 20
-28.5891
 30
0.0
 10
22.3939
 20
-28.5891
 30
0.0
 10
22.3939
 20
-28.5891
 30
0.0
 10
22.3939
 20
-28.5891
 30
0.0
 10
21.726
 20
-30.4068
 30
0.0
 10
21.4254
 20
-30.4068
 30
0.0
 10
21.4254
 20
-30.4068
 30
0.0
 10
21.1248
 20
-30.4068
 30
0.0
 10
19.7556
 20
-29.4801
 30
0.0
 10
19.7556
 20
-29.4801
 30
0.0
 10
19.7556
 20
-29.4801
 30
0.0
 10
19.7556
 20
-29.4801
 30
0.0
 10
19.4885
 20
-31.1909
 30
0.0
 10
19.0543
 20
-31.1552
 30
0.0
 10
19.0543
 20
-31.1552
 30
0.0
 10
18.6202
 20
-31.1196
 30
0.0
 10
16.1155
 20
-29.8009
 30
0.0
 10
16.1155
 20
-29.8009
 30
0.0
 10
16.1155
 20
-29.8009
 30
0.0
 10
16.1155
 20
-29.8009
 30
0.0
 10
18.353
 20
-34.8262
 30
0.0
 10
18.687
 20
-38.2478
 30
0.0
 10
18.687
 20
-38.2478
 30
0.0
 10
18.687
 20
-38.2478
 30
0.0
 10
20.4235
 20
-36.3231
 30
0.0
 10
20.4235
 20
-36.3231
 30
0.0
 10
20.4235
 20
-36.3231
 30
0.0
 10
20.4235
 20
-36.3231
 30
0.0
 10
20.2232
 20
-33.2937
 30
0.0
 10
22.2603
 20
-32.0819
 30
0.0
 10
22.2603
 20
-32.0819
 30
0.0
 10
24.2974
 20
-30.8701
 30
0.0
 10
26.7019
 20
-32.2957
 30
0.0
 10
26.7019
 20
-32.2957
 30
0.0
 10
26.7019
 20
-32.2957
 30
0.0
 10
26.7019
 20
-32.2957
 30
0.0
 10
28.3717
 20
-30.8701
 30
0.0
 10
29.7743
 20
-33.0086
 30
0.0
 10
29.7743
 20
-33.0086
 30
0.0
 10
29.7743
 20
-33.0086
 30
0.0
 10
30.0414
 20
-30.5493
 30
0.0
 10
30.7427
 20
-29.587
 30
0.0
 10
30.7427
 20
-29.587
 30
0.0
 10
30.7427
 20
-29.587
 30
0.0
 10
32.6797
 20
-32.7947
 30
0.0
 10
32.9135
 20
-32.4027
 30
0.0
 10
32.9135
 20
-32.4027
 30
0.0
 10
33.1472
 20
-32.0106
 30
0.0
 10
34.7168
 20
-28.2327
 30
0.0
 10
35.7855
 20
-26.6288
 30
0.0
 10
35.7855
 20
-26.6288
 30
0.0
 10
35.7855
 20
-26.6288
 30
0.0
 10
36.754
 20
-20.6412
 30
0.0
 10
34.5498
 20
-19.465
 30
0.0
 10
34.5498
 20
-19.465
 30
0.0
 10
32.3457
 20
-18.2889
 30
0.0
 10
31.945
 20
-20.1422
 30
0.0
 10
32.3123
 20
-20.855
 30
0.0
 10
32.3123
 20
-20.855
 30
0.0
 10
32.6797
 20
-21.5678
 30
0.0
 10
31.5776
 20
-23.3142
 30
0.0
 10
29.7409
 20
-21.853
 30
0.0
 10
29.7409
 20
-21.853
 30
0.0
 10
28.6956
 20
-21.0214
 30
0.0
 10
28.3861
 20
-19.3934
 30
0.0
 10
28.6209
 20
-17.79
 30
0.0
  0
SPLINE
  5
5E
330
1F
100
AcDbEntity
  8
layer 1
 62
   250
100
AcDbSpline
210
0.0
220
0.0
230
1.0
 70
    11
 71
     3
 72
    24
 73
    20
 74
     0
 42
0.0000000001
 43
0.0000000001
 12
1.0
 22
0.0
 32
0.0
 13
1.0
 23
0.0
 33
0.0
 40
0.0
 40
0.0
 40
0.0
 40
0.0
 40
0.1666666666666667
 40
0.1666666666666667
 40
0.1666666666666667
 40
0.1666666666666667
 40
0.3333333333333333
 40
0.3333333333333333
 40
0.3333333333333333
 40
0.3333333333333333
 40
0.5
 40
0.5
 40
0.5
 40
0.5
 40
0.6666666666666666
 40
0.6666666666666666
 40
0.6666666666666666
 40
0.6666666666666666
 40
1.0
 40
1.0
 40
1.0
 40
1.0
 10
15.3057
 20
-20.0247
 30
0.0
 10
13.4297
 20
-19.7158
 30
0.0
 10
11.6277
 20
-19.154
 30
0.0
 10
9.9285
 20
-18.3719
 30
0.0
 10
9.9285
 20
-18.3719
 30
0.0
 10
9.9285
 20
-18.3719
 30
0.0
 10
10.3047
 20
-19.1086
 30
0.0
 10
10.3047
 20
-19.1086
 30
0.0
 10
10.3047
 20
-19.1086
 30
0.0
 10
10.3047
 20
-19.1086
 30
0.0
 10
12.4754
 20
-21.853
 30
0.0
 10
12.8428
 20
-22.7083
 30
0.0
 10
12.8428
 20
-22.7083
 30
0.0
 10
12.8428
 20
-22.7083
 30
0.0
 10
15.0135
 20
-22.2094
 30
0.0
 10
15.5812
 20
-21.9599
 30
0.0
 10
15.5812
 20
-21.9599
 30
0.0
 10
15.9242
 20
-21.8092
 30
0.0
 10
15.609
 20
-20.8001
 30
0.0
 10
15.3057
 20
-20.0247
 30
0.0
  0
SPLINE
  5
5F
330
1F
100
AcDbEntity
  8
layer 1
 62
   250
100
AcDbSpline
210
0.0
220
0.0
230
1.0
 70
    11
 71
     3
 72
    32
 73
    28
 74
     0
 42
0.0000000001
 43
0.0000000001
 12
1.0
 22
0.0
 32
0.0
 13
1.0
 23
0.0
 33
0.0
 40
0.0
 40
0.0
 40
0.0
 40
0.0
 40
0.125
 40
0.125
 40
0.125
 40
0.125
 40
0.25
 40
0.25
 40
0.25
 40
0.25
 40
0.375
 40
0.375
 40
0.375
 40
0.375
 40
0.5
 40
0.5
 40
0.5
 40
0.5
 40
0.625
 40
0.625
 40
0.625
 40
0.625
 40
0.75
 40
0.75
 40
0.75
 40
0.75
 40
1.0
 40
1.0
 40
1.0
 40
1.0
 10
2.0563
 20
-12.3526
 30
0.0
 10
-1.491
 20
-8.1975
 30
0.0
 10
-3.7937
 20
-2.7159
 30
0.0
 10
-4.1842
 20
3.3538
 30
0.0
 10
-4.1842
 20
3.3538
 30
0.0
 10
-4.5719
 20
3.0591
 30
0.0
 10
-5.0461
 20
2.8857
 30
0.0
 10
-5.5582
 20
2.8857
 30
0.0
 10
-5.5582
 20
2.8857
 30
0.0
 10
-6.0799
 20
2.8857
 30
0.0
 10
-6.5623
 20
3.0658
 30
0.0
 10
-6.9539
 20
3.3707
 30
0.0
 10
-6.9539
 20
3.3707
 30
0.0
 10
-6.9856
 20
2.1457
 30
0.0
 10
-7.2702
 20
0.7424
 30
0.0
 10
-8.1964
 20
-0.3259
 30
0.0
 10
-8.1964
 20
-0.3259
 30
0.0
 10
-8.1964
 20
-0.3259
 30
0.0
 10
-6.6268
 20
-2.2861
 30
0.0
 10
-8.6306
 20
-4.0681
 30
0.0
 10
-8.6306
 20
-4.0681
 30
0.0
 10
-8.6306
 20
-4.0681
 30
0.0
 10
-5.1574
 20
-5.4225
 30
0.0
 10
-8.5638
 20
-7.8461
 30
0.0
 10
-8.5638
 20
-7.8461
 30
0.0
 10
-8.5638
 20
-7.8461
 30
0.0
 10
-1.2327
 20
-10.3598
 30
0.0
 10
2.0563
 20
-12.3526
 30
0.0
  0
SPLINE
  5
60
330
1F
100
AcDbEntity
  8
layer 1
 62
   250
100
AcDbSpline
210
0.0
220
0.0
230
1.0
 70
    11
 71
     3
 72
    28
 73
    24
 74
     0
 42
0.0000000001
 43
0.0000000001
 12
1.0
 22
0.0
 32
0.0
 13
1.0
 23
0.0
 33
0.0
 40
0.0
 40
0.0
 40
0.0
 40
0.0
 40
0.1428571428571428
 40
0.1428571428571428
 40
0.1428571428571428
 40
0.1428571428571428
 40
0.2857142857142857
 40
0.2857142857142857
 40
0.2857142857142857
 40
0.2857142857142857
 40
0.4285714285714285
 40
0.4285714285714285
 40
0.4285714285714285
 40
0.4285714285714285
 40
0.5714285714285714
 40
0.5714285714285714
 40
0.5714285714285714
 40
0.5714285714285714
 40
0.7142857142857143
 40
0.7142857142857143
 40
0.7142857142857143
 40
0.7142857142857143
 40
1.0
 40
1.0
 40
1.0
 40
1.0
 10
0.0407
 20
6.8579
 30
0.0
 10
0.1809
 20
8.9323
 30
0.0
 10
0.5827
 20
10.9231
 30
0.0
 10
1.207
 20
12.7887
 30
0.0
 10
1.207
 20
12.7887
 30
0.0
 10
1.2124
 20
12.6398
 30
0.0
 10
1.2276
 20
12.4953
 30
0.0
 10
1.2545
 20
12.3566
 30
0.0
 10
1.2545
 20
12.3566
 30
0.0
 10
1.6617
 20
10.2561
 30
0.0
 10
3.2642
 20
8.3197
 30
0.0
 10
4.972
 20
7.6653
 30
0.0
 10
4.972
 20
7.6653
 30
0.0
 10
4.6175
 20
7.3013
 30
0.0
 10
4.3488
 20
6.8429
 30
0.0
 10
4.2015
 20
6.3279
 30
0.0
 10
4.2015
 20
6.3279
 30
0.0
 10
3.8586
 20
7.2748
 30
0.0
 10
2.9974
 20
7.9467
 30
0.0
 10
1.9892
 20
7.9467
 30
0.0
 10
1.9892
 20
7.9467
 30
0.0
 10
1.1819
 20
7.9467
 30
0.0
 10
0.4689
 20
7.5158
 30
0.0
 10
0.0407
 20
6.8579
 30
0.0
  0
SPLINE
  5
61
330
1F
100
AcDbEntity
  8
layer 1
 62
   250
100
AcDbSpline
210
0.0
220
0.0
230
1.0
 70
    11
 71
     3
 72
    36
 73
    32
 74
     0
 42
0.0000000001
 43
0.0000000001
 12
1.0
 22
0.0
 32
0.0
 13
1.0
 23
0.0
 33
0.0
 40
0.0
 40
0.0
 40
0.0
 40
0.0
 40
0.1111111111111111
 40
0.1111111111111111
 40
0.1111111111111111
 40
0.1111111111111111
 40
0.2222222222222222
 40
0.2222222222222222
 40
0.2222222222222222
 40
0.2222222222222222
 40
0.3333333333333333
 40
0.3333333333333333
 40
0.3333333333333333
 40
0.3333333333333333
 40
0.4444444444444444
 40
0.4444444444444444
 40
0.4444444444444444
 40
0.4444444444444444
 40
0.5555555555555556
 40
0.5555555555555556
 40
0.5555555555555556
 40
0.5555555555555556
 40
0.6666666666666666
 40
0.6666666666666666
 40
0.6666666666666666
 40
0.6666666666666666
 40
0.7777777777777778
 40
0.7777777777777778
 40
0.7777777777777778
 40
0.7777777777777778
 40
1.0
 40
1.0
 40
1.0
 40
1.0
 10
5.5083
 20
20.3208
 30
0.0
 10
7.0495
 20
22.0658
 30
0.0
 10
8.8564
 20
23.5063
 30
0.0
 10
10.8531
 20
24.558
 30
0.0
 10
10.8531
 20
24.558
 30
0.0
 10
10.5907
 20
24.2364
 30
0.0
 10
7.7212
 20
20.6216
 30
0.0
 10
8.1674
 20
16.8117
 30
0.0
 10
8.1674
 20
16.8117
 30
0.0
 10
8.6349
 20
12.8199
 30
0.0
 10
13.0765
 20
11.822
 30
0.0
 10
15.2138
 20
13.2119
 30
0.0
 10
15.2138
 20
13.2119
 30
0.0
 10
15.2138
 20
13.2119
 30
0.0
 10
15.2472
 20
11.1091
 30
0.0
 10
16.6498
 20
9.1132
 30
0.0
 10
16.6498
 20
9.1132
 30
0.0
 10
16.6498
 20
9.1132
 30
0.0
 10
12.24
 20
10.0028
 30
0.0
 10
9.8374
 20
6.166
 30
0.0
 10
9.8374
 20
6.166
 30
0.0
 10
9.6118
 20
7.1416
 30
0.0
 10
8.9561
 20
7.9366
 30
0.0
 10
8.0973
 20
8.3087
 30
0.0
 10
8.0973
 20
8.3087
 30
0.0
 10
9.421
 20
9.869
 30
0.0
 10
8.6349
 20
12.8199
 30
0.0
 10
8.6349
 20
12.8199
 30
0.0
 10
8.6349
 20
12.8199
 30
0.0
 10
4.5249
 20
10.6994
 30
0.0
 10
5.1401
 20
17.6695
 30
0.0
 10
5.5083
 20
20.3208
 30
0.0
  0
SPLINE
  5
62
330
1F
100
AcDbEntity
  8
layer 1
 62
   250
100
AcDbSpline
210
0.0
220
0.0
230
1.0
 70
    11
 71
     3
 72
    20
 73
    16
 74
     0
 42
0.0000000001
 43
0.0000000001
 12
1.0
 22
0.0
 32
0.0
 13
1.0
 23
0.0
 33
0.0
 40
0.0
 40
0.0
 40
0.0
 40
0.0
 40
0.2
 40
0.2
 40
0.2
 40
0.2
 40
0.4
 40
0.4
 40
0.4
 40
0.4
 40
0.6
 40
0.6
 40
0.6
 40
0.6
 40
1.0
 40
1.0
 40
1.0
 40
1.0
 10
16.0447
 20
26.302
 30
0.0
 10
16.8083
 20
26.4252
 30
0.0
 10
17.5866
 20
26.4955
 30
0.0
 10
18.3768
 20
26.5105
 30
0.0
 10
18.3768
 20
26.5105
 30
0.0
 10
16.3606
 20
25.2113
 30
0.0
 10
14.2365
 20
22.6943
 30
0.0
 10
14.7129
 20
17.9166
 30
0.0
 10
14.7129
 20
17.9166
 30
0.0
 10
14.7129
 20
17.9166
 30
0.0
 10
13.0097
 20
16.9899
 30
0.0
 10
12.2416
 20
18.5937
 30
0.0
 10
12.2416
 20
18.5937
 30
0.0
 10
11.5213
 20
20.0978
 30
0.0
 10
12.7982
 20
23.9214
 30
0.0
 10
16.0447
 20
26.302
 30
0.0
  0
SPLINE
  5
63
330
1F
100
AcDbEntity
  8
layer 1
 62
   250
100
AcDbSpline
210
0.0
220
0.0
230
1.0
 70
    11
 71
     3
 72
    32
 73
    28
 74
     0
 42
0.0000000001
 43
0.0000000001
 12
1.0
 22
0.0
 32
0.0
 13
1.0
 23
0.0
 33
0.0
 40
0.0
 40
0.0
 40
0.0
 40
0.0
 40
0.125
 40
0.125
 40
0.125
 40
0.125
 40
0.25
 40
0.25
 40
0.25
 40
0.25
 40
0.375
 40
0.375
 40
0.375
 40
0.375
 40
0.5
 40
0.5
 40
0.5
 40
0.5
 40
0.625
 40
0.625
 40
0.625
 40
0.625
 40
0.75
 40
0.75
 40
0.75
 40
0.75
 40
1.0
 40
1.0
 40
1.0
 40
1.0
 10
25.5537
 20
25.0321
 30
0.0
 10
24.6649
 20
23.6149
 30
0.0
 10
22.9583
 20
19.7736
 30
0.0
 10
25.3661
 20
13.6396
 30
0.0
 10
25.3661
 20
13.6396
 30
0.0
 10
25.3661
 20
13.6396
 30
0.0
 10
19.8558
 20
14.3881
 30
0.0
 10
18.8205
 20
15.1722
 30
0.0
 10
18.8205
 20
15.1722
 30
0.0
 10
18.8205
 20
15.1722
 30
0.0
 10
21.058
 20
15.8494
 30
0.0
 10
21.2584
 20
17.4176
 30
0.0
 10
21.2584
 20
17.4176
 30
0.0
 10
21.4588
 20
18.9858
 30
0.0
 10
21.1916
 20
19.164
 30
0.0
 10
21.1916
 20
19.164
 30
0.0
 10
21.1916
 20
19.164
 30
0.0
 10
21.1916
 20
19.164
 30
0.0
 10
18.6202
 20
18.9501
 30
0.0
 10
18.2194
 20
20.554
 30
0.0
 10
18.2194
 20
20.554
 30
0.0
 10
17.8187
 20
22.1578
 30
0.0
 10
21.6286
 20
24.6582
 30
0.0
 10
25.2687
 20
25.1572
 30
0.0
 10
25.2687
 20
25.1572
 30
0.0
 10
25.3615
 20
25.1265
 30
0.0
 10
25.4621
 20
25.0846
 30
0.0
 10
25.5537
 20
25.0321
 30
0.0
  0
SPLINE
  5
64
330
1F
100
AcDbEntity
  8
layer 1
 62
   250
100
AcDbSpline
210
0.0
220
0.0
230
1.0
 70
    11
 71
     3
 72
    28
 73
    24
 74
     0
 42
0.0000000001
 43
0.0000000001
 12
1.0
 22
0.0
 32
0.0
 13
1.0
 23
0.0
 33
0.0
 40
0.0
 40
0.0
 40
0.0
 40
0.0
 40
0.1428571428571428
 40
0.1428571428571428
 40
0.1428571428571428
 40
0.1428571428571428
 40
0.2857142857142857
 40
0.2857142857142857
 40
0.2857142857142857
 40
0.2857142857142857
 40
0.4285714285714285
 40
0.4285714285714285
 40
0.4285714285714285
 40
0.4285714285714285
 40
0.5714285714285714
 40
0.5714285714285714
 40
0.5714285714285714
 40
0.5714285714285714
 40
0.7142857142857143
 40
0.7142857142857143
 40
0.7142857142857143
 40
0.7142857142857143
 40
1.0
 40
1.0
 40
1.0
 40
1.0
 10
28.1613
 20
23.5793
 30
0.0
 10
33.2351
 20
20.1745
 30
0.0
 10
36.7754
 20
14.1195
 30
0.0
 10
37.3171
 20
7.085
 30
0.0
 10
37.3171
 20
7.085
 30
0.0
 10
36.8825
 20
7.6132
 30
0.0
 10
36.2452
 20
7.9467
 30
0.0
 10
35.535
 20
7.9467
 30
0.0
 10
35.535
 20
7.9467
 30
0.0
 10
35.3539
 20
7.9467
 30
0.0
 10
35.1776
 20
7.9249
 30
0.0
 10
35.0082
 20
7.8839
 30
0.0
 10
35.0082
 20
7.8839
 30
0.0
 10
34.8159
 20
8.9459
 30
0.0
 10
34.5908
 20
10.1779
 30
0.0
 10
34.3829
 20
11.2873
 30
0.0
 10
34.3829
 20
11.2873
 30
0.0
 10
33.8819
 20
13.9604
 30
0.0
 10
29.4069
 20
17.9166
 30
0.0
 10
28.3383
 20
22.835
 30
0.0
 10
28.3383
 20
22.835
 30
0.0
 10
28.2798
 20
23.104
 30
0.0
 10
28.2207
 20
23.3508
 30
0.0
 10
28.1613
 20
23.5793
 30
0.0
  0
SPLINE
  5
65
330
1F
100
AcDbEntity
  8
layer 1
 62
   250
100
AcDbSpline
210
0.0
220
0.0
230
1.0
 70
    11
 71
     3
 72
    28
 73
    24
 74
     0
 42
0.0000000001
 43
0.0000000001
 12
1.0
 22
0.0
 32
0.0
 13
1.0
 23
0.0
 33
0.0
 40
0.0
 40
0.0
 40
0.0
 40
0.0
 40
0.1428571428571428
 40
0.1428571428571428
 40
0.1428571428571428
 40
0.1428571428571428
 40
0.2857142857142857
 40
0.2857142857142857
 40
0.2857142857142857
 40
0.2857142857142857
 40
0.4285714285714285
 40
0.4285714285714285
 40
0.4285714285714285
 40
0.4285714285714285
 40
0.5714285714285714
 40
0.5714285714285714
 40
0.5714285714285714
 40
0.5714285714285714
 40
0.7142857142857143
 40
0.7142857142857143
 40
0.7142857142857143
 40
0.7142857142857143
 40
1.0
 40
1.0
 40
1.0
 40
1.0
 10
37.3491
 20
3.7871
 30
0.0
 10
36.9339
 20
-3.4461
 30
0.0
 10
33.3519
 20
-9.6951
 30
0.0
 10
28.1685
 20
-13.1775
 30
0.0
 10
28.1685
 20
-13.1775
 30
0.0
 10
28.2255
 20
-12.9566
 30
0.0
 10
28.2822
 20
-12.7189
 30
0.0
 10
28.3383
 20
-12.4607
 30
0.0
 10
28.3383
 20
-12.4607
 30
0.0
 10
29.4069
 20
-7.5422
 30
0.0
 10
33.8819
 20
-3.5861
 30
0.0
 10
34.3829
 20
-0.913
 30
0.0
 10
34.3829
 20
-0.913
 30
0.0
 10
34.6202
 20
0.3537
 30
0.0
 10
34.8801
 20
1.7802
 30
0.0
 10
35.0878
 20
2.9309
 30
0.0
 10
35.0878
 20
2.9309
 30
0.0
 10
35.2327
 20
2.9014
 30
0.0
 10
35.3821
 20
2.8857
 30
0.0
 10
35.535
 20
2.8857
 30
0.0
 10
35.535
 20
2.8857
 30
0.0
 10
36.2629
 20
2.8857
 30
0.0
 10
36.9141
 20
3.236
 30
0.0
 10
37.3491
 20
3.7871
 30
0.0
  0
SPLINE
  5
66
330
1F
100
AcDbEntity
  8
layer 1
 62
   250
100
AcDbSpline
210
0.0
220
0.0
230
1.0
 70
    11
 71
     3
 72
    32
 73
    28
 74
     0
 42
0.0000000001
 43
0.0000000001
 12
1.0
 22
0.0
 32
0.0
 13
1.0
 23
0.0
 33
0.0
 40
0.0
 40
0.0
 40
0.0
 40
0.0
 40
0.125
 40
0.125
 40
0.125
 40
0.125
 40
0.25
 40
0.25
 40
0.25
 40
0.25
 40
0.375
 40
0.375
 40
0.375
 40
0.375
 40
0.5
 40
0.5
 40
0.5
 40
0.5
 40
0.625
 40
0.625
 40
0.625
 40
0.625
 40
0.75
 40
0.75
 40
0.75
 40
0.75
 40
1.0
 40
1.0
 40
1.0
 40
1.0
 10
25.5427
 20
-14.6401
 30
0.0
 10
25.3041
 20
-14.7537
 30
0.0
 10
25.2496
 20
-14.7797
 30
0.0
 10
25.2496
 20
-14.7797
 30
0.0
 10
25.2496
 20
-14.7797
 30
0.0
 10
21.6095
 20
-14.2807
 30
0.0
 10
17.8187
 20
-11.7835
 30
0.0
 10
18.2194
 20
-10.1797
 30
0.0
 10
18.2194
 20
-10.1797
 30
0.0
 10
18.6202
 20
-8.5758
 30
0.0
 10
21.1916
 20
-8.7897
 30
0.0
 10
21.1916
 20
-8.7897
 30
0.0
 10
21.1916
 20
-8.7897
 30
0.0
 10
21.1916
 20
-8.7897
 30
0.0
 10
21.4588
 20
-8.6115
 30
0.0
 10
21.2584
 20
-7.0433
 30
0.0
 10
21.2584
 20
-7.0433
 30
0.0
 10
21.058
 20
-5.475
 30
0.0
 10
18.8205
 20
-4.7979
 30
0.0
 10
18.8205
 20
-4.7979
 30
0.0
 10
18.8205
 20
-4.7979
 30
0.0
 10
19.8558
 20
-4.0138
 30
0.0
 10
25.3661
 20
-3.2653
 30
0.0
 10
25.3661
 20
-3.2653
 30
0.0
 10
25.3661
 20
-3.2653
 30
0.0
 10
22.9682
 20
-9.3741
 30
0.0
 10
24.6509
 20
-13.2089
 30
0.0
 10
25.5427
 20
-14.6401
 30
0.0
  0
SPLINE
  5
67
330
1F
100
AcDbEntity
  8
layer 1
 62
   250
100
AcDbSpline
210
0.0
220
0.0
230
1.0
 70
    11
 71
     3
 72
    20
 73
    16
 74
     0
 42
0.0000000001
 43
0.0000000001
 12
1.0
 22
0.0
 32
0.0
 13
1.0
 23
0.0
 33
0.0
 40
0.0
 40
0.0
 40
0.0
 40
0.0
 40
0.2
 40
0.2
 40
0.2
 40
0.2
 40
0.4
 40
0.4
 40
0.4
 40
0.4
 40
0.6
 40
0.6
 40
0.6
 40
0.6
 40
1.0
 40
1.0
 40
1.0
 40
1.0
 10
18.3411
 20
-16.1129
 30
0.0
 10
17.5498
 20
-16.0965
 30
0.0
 10
16.7705
 20
-16.0239
 30
0.0
 10
16.0061
 20
-15.8988
 30
0.0
 10
16.0061
 20
-15.8988
 30
0.0
 10
12.7883
 20
-13.5163
 30
0.0
 10
11.5242
 20
-9.7175
 30
0.0
 10
12.2416
 20
-8.2194
 30
0.0
 10
12.2416
 20
-8.2194
 30
0.0
 10
13.0097
 20
-6.6156
 30
0.0
 10
14.7129
 20
-7.5422
 30
0.0
 10
14.7129
 20
-7.5422
 30
0.0
 10
14.7129
 20
-7.5422
 30
0.0
 10
14.2393
 20
-12.2918
 30
0.0
 10
16.3357
 20
-14.8071
 30
0.0
 10
18.3411
 20
-16.1129
 30
0.0
  0
SPLINE
  5
68
330
1F
100
AcDbEntity
  8
layer 1
 62
   250
100
AcDbSpline
210
0.0
220
0.0
230
1.0
 70
    11
 71
     3
 72
    36
 73
    32
 74
     0
 42
0.0000000001
 43
0.0000000001
 12
1.0
 22
0.0
 32
0.0
 13
1.0
 23
0.0
 33
0.0
 40
0.0
 40
0.0
 40
0.0
 40
0.0
 40
0.1111111111111111
 40
0.1111111111111111
 40
0.1111111111111111
 40
0.1111111111111111
 40
0.2222222222222222
 40
0.2222222222222222
 40
0.2222222222222222
 40
0.2222222222222222
 40
0.3333333333333333
 40
0.3333333333333333
 40
0.3333333333333333
 40
0.3333333333333333
 40
0.4444444444444444
 40
0.4444444444444444
 40
0.4444444444444444
 40
0.4444444444444444
 40
0.5555555555555556
 40
0.5555555555555556
 40
0.5555555555555556
 40
0.5555555555555556
 40
0.6666666666666666
 40
0.6666666666666666
 40
0.6666666666666666
 40
0.6666666666666666
 40
0.7777777777777778
 40
0.7777777777777778
 40
0.7777777777777778
 40
0.7777777777777778
 40
1.0
 40
1.0
 40
1.0
 40
1.0
 10
10.821
 20
-14.1439
 30
0.0
 10
8.8354
 20
-13.093
 30
0.0
 10
7.0385
 20
-11.657
 30
0.0
 10
5.5045
 20
-9.9196
 30
0.0
 10
5.5045
 20
-9.9196
 30
0.0
 10
5.1359
 20
-7.248
 30
0.0
 10
4.539
 20
-0.3323
 30
0.0
 10
8.6349
 20
-2.4456
 30
0.0
 10
8.6349
 20
-2.4456
 30
0.0
 10
8.6349
 20
-2.4456
 30
0.0
 10
9.5473
 20
0.9789
 30
0.0
 10
7.7517
 20
2.4004
 30
0.0
 10
7.7517
 20
2.4004
 30
0.0
 10
8.6788
 20
2.6635
 30
0.0
 10
9.4249
 20
3.4005
 30
0.0
 10
9.7485
 20
4.3536
 30
0.0
 10
9.7485
 20
4.3536
 30
0.0
 10
12.1294
 20
0.349
 30
0.0
 10
16.6498
 20
1.2611
 30
0.0
 10
16.6498
 20
1.2611
 30
0.0
 10
16.6498
 20
1.2611
 30
0.0
 10
15.2472
 20
-0.7348
 30
0.0
 10
15.2138
 20
-2.8376
 30
0.0
 10
15.2138
 20
-2.8376
 30
0.0
 10
15.2138
 20
-2.8376
 30
0.0
 10
13.0765
 20
-1.4476
 30
0.0
 10
8.6349
 20
-2.4456
 30
0.0
 10
8.1674
 20
-6.4373
 30
0.0
 10
8.1674
 20
-6.4373
 30
0.0
 10
7.7351
 20
-10.1284
 30
0.0
 10
10.4148
 20
-13.6363
 30
0.0
 10
10.821
 20
-14.1439
 30
0.0
  0
SPLINE
  5
69
330
1F
100
AcDbEntity
  8
layer 1
 62
   250
100
AcDbSpline
210
0.0
220
0.0
230
1.0
 70
    11
 71
     3
 72
    28
 73
    24
 74
     0
 42
0.0000000001
 43
0.0000000001
 12
1.0
 22
0.0
 32
0.0
 13
1.0
 23
0.0
 33
0.0
 40
0.0
 40
0.0
 40
0.0
 40
0.0
 40
0.1428571428571428
 40
0.1428571428571428
 40
0.1428571428571428
 40
0.1428571428571428
 40
0.2857142857142857
 40
0.2857142857142857
 40
0.2857142857142857
 40
0.2857142857142857
 40
0.4285714285714285
 40
0.4285714285714285
 40
0.4285714285714285
 40
0.4285714285714285
 40
0.5714285714285714
 40
0.5714285714285714
 40
0.5714285714285714
 40
0.5714285714285714
 40
0.7142857142857143
 40
0.7142857142857143
 40
0.7142857142857143
 40
0.7142857142857143
 40
1.0
 40
1.0
 40
1.0
 40
1.0
 10
1.2081
 20
-2.3949
 30
0.0
 10
0.5354
 20
-0.3855
 30
0.0
 10
0.1217
 20
1.7693
 30
0.0
 10
0.0136
 20
4.0169
 30
0.0
 10
0.0136
 20
4.0169
 30
0.0
 10
0.4385
 20
3.3352
 30
0.0
 10
1.1647
 20
2.8857
 30
0.0
 10
1.9892
 20
2.8857
 30
0.0
 10
1.9892
 20
2.8857
 30
0.0
 10
2.9973
 20
2.8857
 30
0.0
 10
3.8586
 20
3.5576
 30
0.0
 10
4.2015
 20
4.5045
 30
0.0
 10
4.2015
 20
4.5045
 30
0.0
 10
4.3982
 20
3.8166
 30
0.0
 10
4.8117
 20
3.2296
 30
0.0
 10
5.3569
 20
2.834
 30
0.0
 10
5.3569
 20
2.834
 30
0.0
 10
3.5108
 20
2.3437
 30
0.0
 10
1.6922
 20
0.2754
 30
0.0
 10
1.2545
 20
-1.9823
 30
0.0
 10
1.2545
 20
-1.9823
 30
0.0
 10
1.2288
 20
-2.1149
 30
0.0
 10
1.2141
 20
-2.2529
 30
0.0
 10
1.2081
 20
-2.3949
 30
0.0
  0
SPLINE
  5
6A
330
1F
100
AcDbEntity
  8
layer 1
 62
   250
100
AcDbSpline
210
0.0
220
0.0
230
1.0
 70
    11
 71
     3
 72
    24
 73
    20
 74
     0
 42
0.0000000001
 43
0.0000000001
 12
1.0
 22
0.0
 32
0.0
 13
1.0
 23
0.0
 33
0.0
 40
0.0
 40
0.0
 40
0.0
 40
0.0
 40
0.1666666666666667
 40
0.1666666666666667
 40
0.1666666666666667
 40
0.1666666666666667
 40
0.3333333333333333
 40
0.3333333333333333
 40
0.3333333333333333
 40
0.3333333333333333
 40
0.5
 40
0.5
 40
0.5
 40
0.5
 40
0.6666666666666666
 40
0.6666666666666666
 40
0.6666666666666666
 40
0.6666666666666666
 40
1.0
 40
1.0
 40
1.0
 40
1.0
 10
6.9318
 20
107.773
 30
0.0
 10
6.9318
 20
107.773
 30
0.0
 10
11.4735
 20
105.1712
 30
0.0
 10
13.4105
 20
102.7833
 30
0.0
 10
13.4105
 20
102.7833
 30
0.0
 10
13.4105
 20
102.7833
 30
0.0
 10
11.3066
 20
102.0348
 30
0.0
 10
10.839
 20
100.0033
 30
0.0
 10
10.839
 20
100.0033
 30
0.0
 10
10.839
 20
100.0033
 30
0.0
 10
10.7054
 20
99.6113
 30
0.0
 10
10.1711
 20
101.0012
 30
0.0
 10
10.1711
 20
101.0012
 30
0.0
 10
9.6368
 20
102.3912
 30
0.0
 10
8.134
 20
104.2446
 30
0.0
 10
8.134
 20
104.2446
 30
0.0
 10
8.134
 20
104.2446
 30
0.0
 10
8.134
 20
104.2446
 30
0.0
 10
8.5347
 20
105.8128
 30
0.0
 10
6.9318
 20
107.773
 30
0.0
  0
SPLINE
  5
6B
330
1F
100
AcDbEntity
  8
layer 1
 62
   250
100
AcDbSpline
210
0.0
220
0.0
230
1.0
 70
    11
 71
     3
 72
    48
 73
    44
 74
     0
 42
0.0000000001
 43
0.0000000001
 12
1.0
 22
0.0
 32
0.0
 13
1.0
 23
0.0
 33
0.0
 40
0.0
 40
0.0
 40
0.0
 40
0.0
 40
0.0833333333333333
 40
0.0833333333333333
 40
0.0833333333333333
 40
0.0833333333333333
 40
0.1666666666666667
 40
0.1666666666666667
 40
0.1666666666666667
 40
0.1666666666666667
 40
0.25
 40
0.25
 40
0.25
 40
0.25
 40
0.3333333333333333
 40
0.3333333333333333
 40
0.3333333333333333
 40
0.3333333333333333
 40
0.4166666666666667
 40
0.4166666666666667
 40
0.4166666666666667
 40
0.4166666666666667
 40
0.5
 40
0.5
 40
0.5
 40
0.5
 40
0.5833333333333334
 40
0.5833333333333334
 40
0.5833333333333334
 40
0.5833333333333334
 40
0.6666666666666666
 40
0.6666666666666666
 40
0.6666666666666666
 40
0.6666666666666666
 40
0.75
 40
0.75
 40
0.75
 40
0.75
 40
0.8333333333333334
 40
0.8333333333333334
 40
0.8333333333333334
 40
0.8333333333333334
 40
1.0
 40
1.0
 40
1.0
 40
1.0
 10
11.4735
 20
90.8792
 30
0.0
 10
11.4735
 20
90.8792
 30
0.0
 10
13.4439
 20
88.028
 30
0.0
 10
11.9411
 20
83.9293
 30
0.0
 10
11.9411
 20
83.9293
 30
0.0
 10
11.9411
 20
83.9293
 30
0.0
 10
13.6776
 20
83.7867
 30
0.0
 10
13.6443
 20
82.7175
 30
0.0
 10
13.6443
 20
82.7175
 30
0.0
 10
13.6108
 20
81.6482
 30
0.0
 10
12.609
 20
81.8264
 30
0.0
 10
12.609
 20
81.8264
 30
0.0
 10
12.609
 20
81.8264
 30
0.0
 10
12.609
 20
81.8264
 30
0.0
 10
13.9114
 20
80.6147
 30
0.0
 10
13.9448
 20
79.0821
 30
0.0
 10
13.9448
 20
79.0821
 30
0.0
 10
13.9782
 20
77.5495
 30
0.0
 10
12.0079
 20
77.8347
 30
0.0
 10
11.5403
 20
77.6565
 30
0.0
 10
11.5403
 20
77.6565
 30
0.0
 10
11.0728
 20
77.4782
 30
0.0
 10
9.8705
 20
76.908
 30
0.0
 10
10.1043
 20
75.3041
 30
0.0
 10
10.1043
 20
75.3041
 30
0.0
 10
10.1043
 20
75.3041
 30
0.0
 10
12.9763
 20
79.0821
 30
0.0
 10
15.7816
 20
74.8765
 30
0.0
 10
15.7816
 20
74.8765
 30
0.0
 10
15.7816
 20
74.8765
 30
0.0
 10
17.3511
 20
79.189
 30
0.0
 10
17.8187
 20
83.2877
 30
0.0
 10
17.8187
 20
83.2877
 30
0.0
 10
18.2862
 20
87.3864
 30
0.0
 10
19.6554
 20
92.8395
 30
0.0
 10
19.6554
 20
92.8395
 30
0.0
 10
19.6554
 20
92.8395
 30
0.0
 10
19.6554
 20
92.8395
 30
0.0
 10
18.6536
 20
95.4413
 30
0.0
 10
15.2806
 20
96.5461
 30
0.0
 10
15.2806
 20
96.5461
 30
0.0
 10
15.2806
 20
96.5461
 30
0.0
 10
14.9467
 20
92.6256
 30
0.0
 10
11.4735
 20
90.8792
 30
0.0
  0
SPLINE
  5
6C
330
1F
100
AcDbEntity
  8
layer 1
 62
   250
100
AcDbSpline
210
0.0
220
0.0
230
1.0
 70
    11
 71
     3
 72
    84
 73
    80
 74
     0
 42
0.0000000001
 43
0.0000000001
 12
1.0
 22
0.0
 32
0.0
 13
1.0
 23
0.0
 33
0.0
 40
0.0
 40
0.0
 40
0.0
 40
0.0
 40
0.0476190476190476
 40
0.0476190476190476
 40
0.0476190476190476
 40
0.0476190476190476
 40
0.0952380952380952
 40
0.0952380952380952
 40
0.0952380952380952
 40
0.0952380952380952
 40
0.1428571428571428
 40
0.1428571428571428
 40
0.1428571428571428
 40
0.1428571428571428
 40
0.1904761904761905
 40
0.1904761904761905
 40
0.1904761904761905
 40
0.1904761904761905
 40
0.2380952380952381
 40
0.2380952380952381
 40
0.2380952380952381
 40
0.2380952380952381
 40
0.2857142857142857
 40
0.2857142857142857
 40
0.2857142857142857
 40
0.2857142857142857
 40
0.3333333333333333
 40
0.3333333333333333
 40
0.3333333333333333
 40
0.3333333333333333
 40
0.3809523809523809
 40
0.3809523809523809
 40
0.3809523809523809
 40
0.3809523809523809
 40
0.4285714285714285
 40
0.4285714285714285
 40
0.4285714285714285
 40
0.4285714285714285
 40
0.4761904761904762
 40
0.4761904761904762
 40
0.4761904761904762
 40
0.4761904761904762
 40
0.5238095238095238
 40
0.5238095238095238
 40
0.5238095238095238
 40
0.5238095238095238
 40
0.5714285714285714
 40
0.5714285714285714
 40
0.5714285714285714
 40
0.5714285714285714
 40
0.6190476190476191
 40
0.6190476190476191
 40
0.6190476190476191
 40
0.6190476190476191
 40
0.6666666666666666
 40
0.6666666666666666
 40
0.6666666666666666
 40
0.6666666666666666
 40
0.7142857142857143
 40
0.7142857142857143
 40
0.7142857142857143
 40
0.7142857142857143
 40
0.7619047619047619
 40
0.7619047619047619
 40
0.7619047619047619
 40
0.7619047619047619
 40
0.8095238095238095
 40
0.8095238095238095
 40
0.8095238095238095
 40
0.8095238095238095
 40
0.8571428571428571
 40
0.8571428571428571
 40
0.8571428571428571
 40
0.8571428571428571
 40
0.9047619047619048
 40
0.9047619047619048
 40
0.9047619047619048
 40
0.9047619047619048
 40
1.0
 40
1.0
 40
1.0
 40
1.0
 10
21.4637
 20
81.6855
 30
0.0
 10
21.4637
 20
81.6855
 30
0.0
 10
25.1657
 20
80.6503
 30
0.0
 10
29.1732
 20
83.2521
 30
0.0
 10
29.1732
 20
83.2521
 30
0.0
 10
29.1732
 20
83.2521
 30
0.0
 10
27.47
 20
86.2459
 30
0.0
 10
31.5776
 20
85.8539
 30
0.0
 10
31.5776
 20
85.8539
 30
0.0
 10
31.5776
 20
85.8539
 30
0.0
 10
30.7093
 20
90.0595
 30
0.0
 10
34.3161
 20
89.7744
 30
0.0
 10
34.3161
 20
89.7744
 30
0.0
 10
34.3161
 20
89.7744
 30
0.0
 10
36.0192
 20
86.0321
 30
0.0
 10
38.8245
 20
86.8162
 30
0.0
 10
38.8245
 20
86.8162
 30
0.0
 10
41.6297
 20
87.6002
 30
0.0
 10
41.1955
 20
88.4556
 30
0.0
 10
40.9284
 20
88.5982
 30
0.0
 10
40.9284
 20
88.5982
 30
0.0
 10
40.6612
 20
88.7408
 30
0.0
 10
36.8541
 20
90.701
 30
0.0
 10
36.6204
 20
93.2315
 30
0.0
 10
36.6204
 20
93.2315
 30
0.0
 10
36.3866
 20
95.762
 30
0.0
 10
39.3254
 20
96.76
 30
0.0
 10
39.6594
 20
96.5461
 30
0.0
 10
39.6594
 20
96.5461
 30
0.0
 10
39.9933
 20
96.3323
 30
0.0
 10
39.3588
 20
93.6592
 30
0.0
 10
41.5295
 20
93.98
 30
0.0
 10
41.5295
 20
93.98
 30
0.0
 10
43.7002
 20
94.3008
 30
0.0
 10
44.6353
 20
99.5756
 30
0.0
 10
41.5963
 20
102.32
 30
0.0
 10
41.5963
 20
102.32
 30
0.0
 10
38.5573
 20
105.0643
 30
0.0
 10
33.4144
 20
104.3871
 30
0.0
 10
31.3439
 20
103.603
 30
0.0
 10
31.3439
 20
103.603
 30
0.0
 10
29.2734
 20
102.8189
 30
0.0
 10
28.6722
 20
100.6805
 30
0.0
 10
29.2734
 20
100.8943
 30
0.0
 10
29.2734
 20
100.8943
 30
0.0
 10
29.8745
 20
101.1082
 30
0.0
 10
30.6092
 20
100.9656
 30
0.0
 10
29.8745
 20
100.0033
 30
0.0
 10
29.8745
 20
100.0033
 30
0.0
 10
29.1398
 20
99.041
 30
0.0
 10
29.2734
 20
98.8628
 30
0.0
 10
29.7075
 20
98.8272
 30
0.0
 10
29.7075
 20
98.8272
 30
0.0
 10
30.1416
 20
98.7915
 30
0.0
 10
30.8763
 20
99.0054
 30
0.0
 10
29.7743
 20
97.1164
 30
0.0
 10
29.7743
 20
97.1164
 30
0.0
 10
28.6722
 20
95.2274
 30
0.0
 10
28.1713
 20
95.4413
 30
0.0
 10
28.1713
 20
95.4413
 30
0.0
 10
28.1713
 20
95.4413
 30
0.0
 10
28.1713
 20
95.4413
 30
0.0
 10
31.1769
 20
94.372
 30
0.0
 10
30.9431
 20
92.0554
 30
0.0
 10
30.9431
 20
92.0554
 30
0.0
 10
30.7093
 20
89.7387
 30
0.0
 10
29.4069
 20
87.7785
 30
0.0
 10
28.1045
 20
87.8498
 30
0.0
 10
28.1045
 20
87.8498
 30
0.0
 10
26.8021
 20
87.921
 30
0.0
 10
26.5349
 20
90.2377
 30
0.0
 10
26.7353
 20
90.4159
 30
0.0
 10
26.7353
 20
90.4159
 30
0.0
 10
26.9357
 20
90.5941
 30
0.0
 10
28.3717
 20
90.6654
 30
0.0
 10
27.3698
 20
91.7703
 30
0.0
 10
27.3698
 20
91.7703
 30
0.0
 10
26.3679
 20
92.8751
 30
0.0
 10
21.6591
 20
90.3446
 30
0.0
 10
21.4637
 20
81.6855
 30
0.0
  0
SPLINE
  5
6D
330
1F
100
AcDbEntity
  8
layer 1
 62
   250
100
AcDbSpline
210
0.0
220
0.0
230
1.0
 70
    11
 71
     3
 72
    84
 73
    80
 74
     0
 42
0.0000000001
 43
0.0000000001
 12
1.0
 22
0.0
 32
0.0
 13
1.0
 23
0.0
 33
0.0
 40
0.0
 40
0.0
 40
0.0
 40
0.0
 40
0.0476190476190476
 40
0.0476190476190476
 40
0.0476190476190476
 40
0.0476190476190476
 40
0.0952380952380952
 40
0.0952380952380952
 40
0.0952380952380952
 40
0.0952380952380952
 40
0.1428571428571428
 40
0.1428571428571428
 40
0.1428571428571428
 40
0.1428571428571428
 40
0.1904761904761905
 40
0.1904761904761905
 40
0.1904761904761905
 40
0.1904761904761905
 40
0.2380952380952381
 40
0.2380952380952381
 40
0.2380952380952381
 40
0.2380952380952381
 40
0.2857142857142857
 40
0.2857142857142857
 40
0.2857142857142857
 40
0.2857142857142857
 40
0.3333333333333333
 40
0.3333333333333333
 40
0.3333333333333333
 40
0.3333333333333333
 40
0.3809523809523809
 40
0.3809523809523809
 40
0.3809523809523809
 40
0.3809523809523809
 40
0.4285714285714285
 40
0.4285714285714285
 40
0.4285714285714285
 40
0.4285714285714285
 40
0.4761904761904762
 40
0.4761904761904762
 40
0.4761904761904762
 40
0.4761904761904762
 40
0.5238095238095238
 40
0.5238095238095238
 40
0.5238095238095238
 40
0.5238095238095238
 40
0.5714285714285714
 40
0.5714285714285714
 40
0.5714285714285714
 40
0.5714285714285714
 40
0.6190476190476191
 40
0.6190476190476191
 40
0.6190476190476191
 40
0.6190476190476191
 40
0.6666666666666666
 40
0.6666666666666666
 40
0.6666666666666666
 40
0.6666666666666666
 40
0.7142857142857143
 40
0.7142857142857143
 40
0.7142857142857143
 40
0.7142857142857143
 40
0.7619047619047619
 40
0.7619047619047619
 40
0.7619047619047619
 40
0.7619047619047619
 40
0.8095238095238095
 40
0.8095238095238095
 40
0.8095238095238095
 40
0.8095238095238095
 40
0.8571428571428571
 40
0.8571428571428571
 40
0.8571428571428571
 40
0.8571428571428571
 40
0.9047619047619048
 40
0.9047619047619048
 40
0.9047619047619048
 40
0.9047619047619048
 40
1.0
 40
1.0
 40
1.0
 40
1.0
 10
20.4569
 20
78.4762
 30
0.0
 10
20.4569
 20
78.4762
 30
0.0
 10
19.4885
 20
71.0272
 30
0.0
 10
15.5812
 20
68.4611
 30
0.0
 10
15.5812
 20
68.4611
 30
0.0
 10
15.5812
 20
68.4611
 30
0.0
 10
20.5237
 20
63.8634
 30
0.0
 10
19.2213
 20
53.385
 30
0.0
 10
19.2213
 20
53.385
 30
0.0
 10
19.2213
 20
53.385
 30
0.0
 10
21.4588
 20
55.4165
 30
0.0
 10
22.9616
 20
54.3117
 30
0.0
 10
22.9616
 20
54.3117
 30
0.0
 10
24.4644
 20
53.2068
 30
0.0
 10
23.8967
 20
52.0306
 30
0.0
 10
22.995
 20
50.9614
 30
0.0
 10
22.995
 20
50.9614
 30
0.0
 10
22.0933
 20
49.8922
 30
0.0
 10
24.8651
 20
46.9696
 30
0.0
 10
27.637
 20
48.5022
 30
0.0
 10
27.637
 20
48.5022
 30
0.0
 10
30.4088
 20
50.0348
 30
0.0
 10
30.5424
 20
55.3809
 30
0.0
 10
30.5424
 20
55.3809
 30
0.0
 10
30.5424
 20
55.3809
 30
0.0
 10
30.5424
 20
55.3809
 30
0.0
 10
29.7075
 20
55.9868
 30
0.0
 10
29.6073
 20
57.2699
 30
0.0
 10
29.6073
 20
57.2699
 30
0.0
 10
29.6073
 20
57.2699
 30
0.0
 10
23.4625
 20
55.7373
 30
0.0
 10
23.5627
 20
60.1568
 30
0.0
 10
23.5627
 20
60.1568
 30
0.0
 10
23.5627
 20
60.1568
 30
0.0
 10
21.4922
 20
63.2575
 30
0.0
 10
23.7631
 20
64.9327
 30
0.0
 10
23.7631
 20
64.9327
 30
0.0
 10
26.034
 20
66.6078
 30
0.0
 10
26.9691
 20
64.7188
 30
0.0
 10
26.3679
 20
63.9704
 30
0.0
 10
26.3679
 20
63.9704
 30
0.0
 10
25.7668
 20
63.2219
 30
0.0
 10
25.1657
 20
61.7606
 30
0.0
 10
26.9357
 20
61.6537
 30
0.0
 10
26.9357
 20
61.6537
 30
0.0
 10
28.7056
 20
61.5468
 30
0.0
 10
29.3401
 20
63.2575
 30
0.0
 10
29.3401
 20
63.2575
 30
0.0
 10
29.3401
 20
63.2575
 30
0.0
 10
29.3401
 20
63.2575
 30
0.0
 10
28.9728
 20
64.6475
 30
0.0
 10
29.24
 20
65.9306
 30
0.0
 10
29.24
 20
65.9306
 30
0.0
 10
29.24
 20
65.9306
 30
0.0
 10
28.0711
 20
66.8573
 30
0.0
 10
28.6722
 20
68.0691
 30
0.0
 10
28.6722
 20
68.0691
 30
0.0
 10
28.6722
 20
68.0691
 30
0.0
 10
28.8058
 20
69.3165
 30
0.0
 10
29.9079
 20
69.7798
 30
0.0
 10
29.9079
 20
69.7798
 30
0.0
 10
29.9079
 20
69.7798
 30
0.0
 10
30.5758
 20
68.0334
 30
0.0
 10
31.6778
 20
69.0313
 30
0.0
 10
31.6778
 20
69.0313
 30
0.0
 10
32.7799
 20
70.0293
 30
0.0
 10
34.2159
 20
74.3062
 30
0.0
 10
34.0489
 20
74.5557
 30
0.0
 10
34.0489
 20
74.5557
 30
0.0
 10
33.8819
 20
74.8052
 30
0.0
 10
32.6463
 20
73.6647
 30
0.0
 10
32.3457
 20
72.8449
 30
0.0
 10
32.3457
 20
72.8449
 30
0.0
 10
32.0452
 20
72.0252
 30
0.0
 10
30.7427
 20
74.7695
 30
0.0
 10
31.2771
 20
76.8367
 30
0.0
 10
31.2771
 20
76.8367
 30
0.0
 10
31.2771
 20
76.8367
 30
0.0
 10
27.4366
 20
75.0903
 30
0.0
 10
20.4569
 20
78.4762
 30
0.0
  0
SPLINE
  5
6E
330
1F
100
AcDbEntity
  8
layer 1
 62
   250
100
AcDbSpline
210
0.0
220
0.0
230
1.0
 70
    11
 71
     3
 72
    64
 73
    60
 74
     0
 42
0.0000000001
 43
0.0000000001
 12
1.0
 22
0.0
 32
0.0
 13
1.0
 23
0.0
 33
0.0
 40
0.0
 40
0.0
 40
0.0
 40
0.0
 40
0.0625
 40
0.0625
 40
0.0625
 40
0.0625
 40
0.125
 40
0.125
 40
0.125
 40
0.125
 40
0.1875
 40
0.1875
 40
0.1875
 40
0.1875
 40
0.25
 40
0.25
 40
0.25
 40
0.25
 40
0.3125
 40
0.3125
 40
0.3125
 40
0.3125
 40
0.375
 40
0.375
 40
0.375
 40
0.375
 40
0.4375
 40
0.4375
 40
0.4375
 40
0.4375
 40
0.5
 40
0.5
 40
0.5
 40
0.5
 40
0.5625
 40
0.5625
 40
0.5625
 40
0.5625
 40
0.625
 40
0.625
 40
0.625
 40
0.625
 40
0.6875
 40
0.6875
 40
0.6875
 40
0.6875
 40
0.75
 40
0.75
 40
0.75
 40
0.75
 40
0.8125
 40
0.8125
 40
0.8125
 40
0.8125
 40
0.875
 40
0.875
 40
0.875
 40
0.875
 40
1.0
 40
1.0
 40
1.0
 40
1.0
 10
-13.075
 20
99.4387
 30
0.0
 10
-13.075
 20
99.4387
 30
0.0
 10
-9.2671
 20
104.2869
 30
0.0
 10
-5.3923
 20
104.8573
 30
0.0
 10
-5.3923
 20
104.8573
 30
0.0
 10
-1.5176
 20
105.4277
 30
0.0
 10
-0.8495
 20
102.5045
 30
0.0
 10
-2.3193
 20
101.7915
 30
0.0
 10
-2.3193
 20
101.7915
 30
0.0
 10
-2.3193
 20
101.7915
 30
0.0
 10
-2.6194
 20
100.1459
 30
0.0
 10
-1.3838
 20
99.8608
 30
0.0
 10
-1.3838
 20
99.8608
 30
0.0
 10
-0.1481
 20
99.5756
 30
0.0
 10
0.3862
 20
101.7497
 30
0.0
 10
0.3862
 20
101.7497
 30
0.0
 10
0.3862
 20
101.7497
 30
0.0
 10
0.3862
 20
101.7497
 30
0.0
 10
0.8871
 20
101.3576
 30
0.0
 10
0.8871
 20
100.6092
 30
0.0
 10
0.8871
 20
100.6092
 30
0.0
 10
0.8871
 20
99.8608
 30
0.0
 10
2.2897
 20
100.5023
 30
0.0
 10
2.4234
 20
101.2507
 30
0.0
 10
2.4234
 20
101.2507
 30
0.0
 10
2.5569
 20
101.9992
 30
0.0
 10
2.9911
 20
100.0389
 30
0.0
 10
3.6256
 20
100.2884
 30
0.0
 10
3.6256
 20
100.2884
 30
0.0
 10
4.2601
 20
100.5379
 30
0.0
 10
4.3269
 20
101.2864
 30
0.0
 10
4.3269
 20
101.2864
 30
0.0
 10
4.3269
 20
101.2864
 30
0.0
 10
4.3269
 20
101.2864
 30
0.0
 10
6.5644
 20
95.6195
 30
0.0
 10
3.8928
 20
92.0197
 30
0.0
 10
3.8928
 20
92.0197
 30
0.0
 10
1.2211
 20
88.42
 30
0.0
 10
-2.0517
 20
90.7367
 30
0.0
 10
-2.4858
 20
91.4495
 30
0.0
 10
-2.4858
 20
91.4495
 30
0.0
 10
-2.9199
 20
92.1623
 30
0.0
 10
-2.6528
 20
93.9443
 30
0.0
 10
-1.0498
 20
93.9087
 30
0.0
 10
-1.0498
 20
93.9087
 30
0.0
 10
0.5532
 20
93.8731
 30
0.0
 10
-0.5488
 20
96.7244
 30
0.0
 10
-3.0535
 20
97.2233
 30
0.0
 10
-3.0535
 20
97.2233
 30
0.0
 10
-5.5582
 20
97.7223
 30
0.0
 10
-7.0944
 20
94.0869
 30
0.0
 10
-7.0944
 20
94.0869
 30
0.0
 10
-7.0944
 20
94.0869
 30
0.0
 10
-7.0944
 20
94.0869
 30
0.0
 10
-7.8291
 20
95.7977
 30
0.0
 10
-8.831
 20
96.3323
 30
0.0
 10
-8.831
 20
96.3323
 30
0.0
 10
-8.831
 20
96.3323
 30
0.0
 10
-6.9942
 20
99.6469
 30
0.0
 10
-13.075
 20
99.4387
 30
0.0
  0
SPLINE
  5
6F
330
1F
100
AcDbEntity
  8
layer 1
 62
   250
100
AcDbSpline
210
0.0
220
0.0
230
1.0
 70
    11
 71
     3
 72
    56
 73
    52
 74
     0
 42
0.0000000001
 43
0.0000000001
 12
1.0
 22
0.0
 32
0.0
 13
1.0
 23
0.0
 33
0.0
 40
0.0
 40
0.0
 40
0.0
 40
0.0
 40
0.0714285714285714
 40
0.0714285714285714
 40
0.0714285714285714
 40
0.0714285714285714
 40
0.1428571428571428
 40
0.1428571428571428
 40
0.1428571428571428
 40
0.1428571428571428
 40
0.2142857142857143
 40
0.2142857142857143
 40
0.2142857142857143
 40
0.2142857142857143
 40
0.2857142857142857
 40
0.2857142857142857
 40
0.2857142857142857
 40
0.2857142857142857
 40
0.3571428571428572
 40
0.3571428571428572
 40
0.3571428571428572
 40
0.3571428571428572
 40
0.4285714285714285
 40
0.4285714285714285
 40
0.4285714285714285
 40
0.4285714285714285
 40
0.5
 40
0.5
 40
0.5
 40
0.5
 40
0.5714285714285714
 40
0.5714285714285714
 40
0.5714285714285714
 40
0.5714285714285714
 40
0.6428571428571429
 40
0.6428571428571429
 40
0.6428571428571429
 40
0.6428571428571429
 40
0.7142857142857143
 40
0.7142857142857143
 40
0.7142857142857143
 40
0.7142857142857143
 40
0.7857142857142857
 40
0.7857142857142857
 40
0.7857142857142857
 40
0.7857142857142857
 40
0.8571428571428571
 40
0.8571428571428571
 40
0.8571428571428571
 40
0.8571428571428571
 40
1.0
 40
1.0
 40
1.0
 40
1.0
 10
-16.8459
 20
91.1287
 30
0.0
 10
-16.8459
 20
91.1287
 30
0.0
 10
-15.51
 20
93.6948
 30
0.0
 10
-12.9386
 20
94.2295
 30
0.0
 10
-12.9386
 20
94.2295
 30
0.0
 10
-10.3671
 20
94.7641
 30
0.0
 10
-8.6973
 20
91.2713
 30
0.0
 10
-10.9349
 20
90.9862
 30
0.0
 10
-10.9349
 20
90.9862
 30
0.0
 10
-10.9349
 20
90.9862
 30
0.0
 10
-10.4005
 20
88.42
 30
0.0
 10
-7.7289
 20
89.81
 30
0.0
 10
-7.7289
 20
89.81
 30
0.0
 10
-7.7289
 20
89.81
 30
0.0
 10
-6.894
 20
86.3885
 30
0.0
 10
-5.291
 20
84.7134
 30
0.0
 10
-5.291
 20
84.7134
 30
0.0
 10
-5.291
 20
84.7134
 30
0.0
 10
-11.1686
 20
83.6798
 30
0.0
 10
-13.4061
 20
75.9813
 30
0.0
 10
-13.4061
 20
75.9813
 30
0.0
 10
-13.4061
 20
75.9813
 30
0.0
 10
-14.3412
 20
77.9416
 30
0.0
 10
-14.8755
 20
77.9059
 30
0.0
 10
-14.8755
 20
77.9059
 30
0.0
 10
-15.4099
 20
77.8703
 30
0.0
 10
-16.178
 20
74.6626
 30
0.0
 10
-15.7772
 20
72.5598
 30
0.0
 10
-15.7772
 20
72.5598
 30
0.0
 10
-15.7772
 20
72.5598
 30
0.0
 10
-18.0147
 20
78.0841
 30
0.0
 10
-17.7142
 20
82.0403
 30
0.0
 10
-17.7142
 20
82.0403
 30
0.0
 10
-17.4136
 20
85.9964
 30
0.0
 10
-15.4766
 20
85.64
 30
0.0
 10
-14.7086
 20
84.1787
 30
0.0
 10
-14.7086
 20
84.1787
 30
0.0
 10
-14.7086
 20
84.1787
 30
0.0
 10
-13.0722
 20
84.2857
 30
0.0
 10
-12.9052
 20
86.2103
 30
0.0
 10
-12.9052
 20
86.2103
 30
0.0
 10
-12.7382
 20
88.1349
 30
0.0
 10
-14.8755
 20
88.0993
 30
0.0
 10
-14.8755
 20
88.0993
 30
0.0
 10
-14.8755
 20
88.0993
 30
0.0
 10
-14.8755
 20
88.0993
 30
0.0
 10
-14.6084
 20
91.2356
 30
0.0
 10
-14.9757
 20
91.1644
 30
0.0
 10
-14.9757
 20
91.1644
 30
0.0
 10
-15.3431
 20
91.0931
 30
0.0
 10
-16.5453
 20
90.7367
 30
0.0
 10
-16.8459
 20
91.1287
 30
0.0
  0
SPLINE
  5
70
330
1F
100
AcDbEntity
  8
layer 1
 62
   250
100
AcDbSpline
210
0.0
220
0.0
230
1.0
 70
    11
 71
     3
 72
   104
 73
   100
 74
     0
 42
0.0000000001
 43
0.0000000001
 12
1.0
 22
0.0
 32
0.0
 13
1.0
 23
0.0
 33
0.0
 40
0.0
 40
0.0
 40
0.0
 40
0.0
 40
0.0384615384615385
 40
0.0384615384615385
 40
0.0384615384615385
 40
0.0384615384615385
 40
0.0769230769230769
 40
0.0769230769230769
 40
0.0769230769230769
 40
0.0769230769230769
 40
0.1153846153846154
 40
0.1153846153846154
 40
0.1153846153846154
 40
0.1153846153846154
 40
0.1538461538461539
 40
0.1538461538461539
 40
0.1538461538461539
 40
0.1538461538461539
 40
0.1923076923076923
 40
0.1923076923076923
 40
0.1923076923076923
 40
0.1923076923076923
 40
0.2307692307692308
 40
0.2307692307692308
 40
0.2307692307692308
 40
0.2307692307692308
 40
0.2692307692307692
 40
0.2692307692307692
 40
0.2692307692307692
 40
0.2692307692307692
 40
0.3076923076923077
 40
0.3076923076923077
 40
0.3076923076923077
 40
0.3076923076923077
 40
0.3461538461538461
 40
0.3461538461538461
 40
0.3461538461538461
 40
0.3461538461538461
 40
0.3846153846153846
 40
0.3846153846153846
 40
0.3846153846153846
 40
0.3846153846153846
 40
0.4230769230769231
 40
0.4230769230769231
 40
0.4230769230769231
 40
0.4230769230769231
 40
0.4615384615384616
 40
0.4615384615384616
 40
0.4615384615384616
 40
0.4615384615384616
 40
0.5
 40
0.5
 40
0.5
 40
0.5
 40
0.5384615384615384
 40
0.5384615384615384
 40
0.5384615384615384
 40
0.5384615384615384
 40
0.5769230769230769
 40
0.5769230769230769
 40
0.5769230769230769
 40
0.5769230769230769
 40
0.6153846153846154
 40
0.6153846153846154
 40
0.6153846153846154
 40
0.6153846153846154
 40
0.6538461538461539
 40
0.6538461538461539
 40
0.6538461538461539
 40
0.6538461538461539
 40
0.6923076923076923
 40
0.6923076923076923
 40
0.6923076923076923
 40
0.6923076923076923
 40
0.7307692307692307
 40
0.7307692307692307
 40
0.7307692307692307
 40
0.7307692307692307
 40
0.7692307692307693
 40
0.7692307692307693
 40
0.7692307692307693
 40
0.7692307692307693
 40
0.8076923076923077
 40
0.8076923076923077
 40
0.8076923076923077
 40
0.8076923076923077
 40
0.8461538461538461
 40
0.8461538461538461
 40
0.8461538461538461
 40
0.8461538461538461
 40
0.8846153846153846
 40
0.8846153846153846
 40
0.8846153846153846
 40
0.8846153846153846
 40
0.9230769230769231
 40
0.9230769230769231
 40
0.9230769230769231
 40
0.9230769230769231
 40
1.0
 40
1.0
 40
1.0
 40
1.0
 10
-0.2483
 20
82.6462
 30
0.0
 10
-0.2483
 20
82.6462
 30
0.0
 10
2.7239
 20
83.8936
 30
0.0
 10
3.2916
 20
84.8916
 30
0.0
 10
3.2916
 20
84.8916
 30
0.0
 10
3.8594
 20
85.8895
 30
0.0
 10
5.3621
 20
84.1431
 30
0.0
 10
5.3621
 20
83.8223
 30
0.0
 10
5.3621
 20
83.8223
 30
0.0
 10
5.3621
 20
83.5016
 30
0.0
 10
4.5273
 20
81.8621
 30
0.0
 10
5.3955
 20
79.189
 30
0.0
 10
5.3955
 20
79.189
 30
0.0
 10
5.3955
 20
79.189
 30
0.0
 10
3.3918
 20
79.4029
 30
0.0
 10
3.659
 20
77.8703
 30
0.0
 10
3.659
 20
77.8703
 30
0.0
 10
3.9261
 20
76.3377
 30
0.0
 10
5.0282
 20
77.4426
 30
0.0
 10
5.262
 20
75.8387
 30
0.0
 10
5.262
 20
75.8387
 30
0.0
 10
5.4957
 20
74.2349
 30
0.0
 10
6.1303
 20
73.0231
 30
0.0
 10
6.8316
 20
71.6688
 30
0.0
 10
6.8316
 20
71.6688
 30
0.0
 10
6.8316
 20
71.6688
 30
0.0
 10
4.9614
 20
72.0252
 30
0.0
 10
3.4252
 20
71.6331
 30
0.0
 10
3.4252
 20
71.6331
 30
0.0
 10
1.889
 20
71.2411
 30
0.0
 10
0.787
 20
72.0252
 30
0.0
 10
0.787
 20
72.0252
 30
0.0
 10
0.787
 20
72.0252
 30
0.0
 10
0.787
 20
72.0252
 30
0.0
 10
0.0189
 20
70.5283
 30
0.0
 10
1.3213
 20
68.568
 30
0.0
 10
1.3213
 20
68.568
 30
0.0
 10
1.3213
 20
68.568
 30
0.0
 10
-0.3819
 20
68.4967
 30
0.0
 10
-1.2502
 20
67.9621
 30
0.0
 10
-1.2502
 20
67.9621
 30
0.0
 10
-2.1184
 20
67.4275
 30
0.0
 10
-2.8532
 20
67.9621
 30
0.0
 10
-2.6862
 20
68.3542
 30
0.0
 10
-2.6862
 20
68.3542
 30
0.0
 10
-2.5192
 20
68.7462
 30
0.0
 10
-4.8903
 20
67.2493
 30
0.0
 10
-1.8179
 20
64.9683
 30
0.0
 10
-1.8179
 20
64.9683
 30
0.0
 10
-1.8179
 20
64.9683
 30
0.0
 10
-3.3541
 20
61.4398
 30
0.0
 10
-3.2539
 20
56.664
 30
0.0
 10
-3.2539
 20
56.664
 30
0.0
 10
-3.2539
 20
56.664
 30
0.0
 10
-4.6565
 20
57.3055
 30
0.0
 10
-5.1574
 20
59.0875
 30
0.0
 10
-5.1574
 20
59.0875
 30
0.0
 10
-5.6584
 20
60.8696
 30
0.0
 10
-5.0572
 20
60.9765
 30
0.0
 10
-4.5563
 20
60.9052
 30
0.0
 10
-4.5563
 20
60.9052
 30
0.0
 10
-4.0554
 20
60.834
 30
0.0
 10
-2.5192
 20
62.5091
 30
0.0
 10
-3.7548
 20
63.8278
 30
0.0
 10
-3.7548
 20
63.8278
 30
0.0
 10
-4.9905
 20
65.1465
 30
0.0
 10
-6.1593
 20
64.5406
 30
0.0
 10
-6.1593
 20
64.5406
 30
0.0
 10
-6.1593
 20
64.5406
 30
0.0
 10
-6.1593
 20
64.5406
 30
0.0
 10
-6.6268
 20
67.7126
 30
0.0
 10
-7.9627
 20
66.2514
 30
0.0
 10
-7.9627
 20
66.2514
 30
0.0
 10
-7.9627
 20
66.2514
 30
0.0
 10
-8.33
 20
68.1403
 30
0.0
 10
-9.3653
 20
67.3562
 30
0.0
 10
-9.3653
 20
67.3562
 30
0.0
 10
-9.3653
 20
67.3562
 30
0.0
 10
-10.8681
 20
73.8429
 30
0.0
 10
-8.831
 20
76.8724
 30
0.0
 10
-8.831
 20
76.8724
 30
0.0
 10
-6.7938
 20
79.9018
 30
0.0
 10
-3.2539
 20
79.189
 30
0.0
 10
-3.1203
 20
77.7634
 30
0.0
 10
-3.1203
 20
77.7634
 30
0.0
 10
-2.9867
 20
76.3377
 30
0.0
 10
-3.6547
 20
75.5536
 30
0.0
 10
-3.855
 20
75.0547
 30
0.0
 10
-3.855
 20
75.0547
 30
0.0
 10
-4.0554
 20
74.5557
 30
0.0
 10
-2.1852
 20
73.237
 30
0.0
 10
-0.5155
 20
74.6626
 30
0.0
 10
-0.5155
 20
74.6626
 30
0.0
 10
1.1543
 20
76.0883
 30
0.0
 10
0.3194
 20
78.8683
 30
0.0
 10
0.3194
 20
78.8683
 30
0.0
 10
0.3194
 20
78.8683
 30
0.0
 10
0.3194
 20
78.8683
 30
0.0
 10
1.1209
 20
81.2206
 30
0.0
 10
-0.2483
 20
82.6462
 30
0.0
  0
SPLINE
  5
71
330
1F
100
AcDbEntity
  8
layer 1
 62
   250
100
AcDbSpline
210
0.0
220
0.0
230
1.0
 70
    11
 71
     3
 72
    16
 73
    12
 74
     0
 42
0.0000000001
 43
0.0000000001
 12
1.0
 22
0.0
 32
0.0
 13
1.0
 23
0.0
 33
0.0
 40
0.0
 40
0.0
 40
0.0
 40
0.0
 40
0.25
 40
0.25
 40
0.25
 40
0.25
 40
0.5
 40
0.5
 40
0.5
 40
0.5
 40
1.0
 40
1.0
 40
1.0
 40
1.0
 10
8.8019
 20
66.9642
 30
0.0
 10
8.8019
 20
66.9642
 30
0.0
 10
6.4976
 20
65.0752
 30
0.0
 10
8.4012
 20
63.9347
 30
0.0
 10
8.4012
 20
63.9347
 30
0.0
 10
8.4012
 20
63.9347
 30
0.0
 10
8.7312
 20
63.7522
 30
0.0
 10
8.8146
 20
63.7522
 30
0.0
 10
8.8146
 20
63.7522
 30
0.0
 10
8.8981
 20
63.7522
 30
0.0
 10
8.6227
 20
64.9368
 30
0.0
 10
8.8019
 20
66.9642
 30
0.0
  0
SPLINE
  5
72
330
1F
100
AcDbEntity
  8
layer 1
 62
   250
100
AcDbSpline
210
0.0
220
0.0
230
1.0
 70
    11
 71
     3
 72
    48
 73
    44
 74
     0
 42
0.0000000001
 43
0.0000000001
 12
1.0
 22
0.0
 32
0.0
 13
1.0
 23
0.0
 33
0.0
 40
0.0
 40
0.0
 40
0.0
 40
0.0
 40
0.0833333333333333
 40
0.0833333333333333
 40
0.0833333333333333
 40
0.0833333333333333
 40
0.1666666666666667
 40
0.1666666666666667
 40
0.1666666666666667
 40
0.1666666666666667
 40
0.25
 40
0.25
 40
0.25
 40
0.25
 40
0.3333333333333333
 40
0.3333333333333333
 40
0.3333333333333333
 40
0.3333333333333333
 40
0.4166666666666667
 40
0.4166666666666667
 40
0.4166666666666667
 40
0.4166666666666667
 40
0.5
 40
0.5
 40
0.5
 40
0.5
 40
0.5833333333333334
 40
0.5833333333333334
 40
0.5833333333333334
 40
0.5833333333333334
 40
0.6666666666666666
 40
0.6666666666666666
 40
0.6666666666666666
 40
0.6666666666666666
 40
0.75
 40
0.75
 40
0.75
 40
0.75
 40
0.8333333333333334
 40
0.8333333333333334
 40
0.8333333333333334
 40
0.8333333333333334
 40
1.0
 40
1.0
 40
1.0
 40
1.0
 10
2.4567
 20
61.5468
 30
0.0
 10
2.4567
 20
61.5468
 30
0.0
 10
-0.7158
 20
57.8045
 30
0.0
 10
-1.2836
 20
55.9155
 30
0.0
 10
-1.2836
 20
55.9155
 30
0.0
 10
-1.8513
 20
54.0265
 30
0.0
 10
-0.7492
 20
53.4206
 30
0.0
 10
-0.3819
 20
53.4206
 30
0.0
 10
-0.3819
 20
53.4206
 30
0.0
 10
-0.0145
 20
53.4206
 30
0.0
 10
-1.2502
 20
51.603
 30
0.0
 10
-0.3151
 20
50.4268
 30
0.0
 10
-0.3151
 20
50.4268
 30
0.0
 10
-0.3151
 20
50.4268
 30
0.0
 10
1.0541
 20
52.5653
 30
0.0
 10
1.5551
 20
52.387
 30
0.0
 10
1.5551
 20
52.387
 30
0.0
 10
2.056
 20
52.2088
 30
0.0
 10
2.3232
 20
50.0348
 30
0.0
 10
2.3232
 20
50.0348
 30
0.0
 10
2.3232
 20
50.0348
 30
0.0
 10
2.3232
 20
50.0348
 30
0.0
 10
4.7276
 20
52.2088
 30
0.0
 10
4.761
 20
53.9909
 30
0.0
 10
4.761
 20
53.9909
 30
0.0
 10
4.7944
 20
55.7729
 30
0.0
 10
6.6646
 20
52.494
 30
0.0
 10
6.8983
 20
50.7476
 30
0.0
 10
6.8983
 20
50.7476
 30
0.0
 10
6.8983
 20
50.7476
 30
0.0
 10
17.1508
 20
54.5612
 30
0.0
 10
13.4439
 20
62.2952
 30
0.0
 10
13.4439
 20
62.2952
 30
0.0
 10
13.4439
 20
62.2952
 30
0.0
 10
11.4067
 20
60.4062
 30
0.0
 10
9.1692
 20
62.9724
 30
0.0
 10
9.1692
 20
62.9724
 30
0.0
 10
9.1692
 20
62.9724
 30
0.0
 10
8.1674
 20
59.9429
 30
0.0
 10
5.2954
 20
61.618
 30
0.0
 10
5.2954
 20
61.618
 30
0.0
 10
5.2954
 20
61.618
 30
0.0
 10
3.659
 20
58.9806
 30
0.0
 10
2.4567
 20
61.5468
 30
0.0
  0
SPLINE
  5
73
330
1F
100
AcDbEntity
  8
layer 1
 62
   250
100
AcDbSpline
210
0.0
220
0.0
230
1.0
 70
    11
 71
     3
 72
    20
 73
    16
 74
     0
 42
0.0000000001
 43
0.0000000001
 12
1.0
 22
0.0
 32
0.0
 13
1.0
 23
0.0
 33
0.0
 40
0.0
 40
0.0
 40
0.0
 40
0.0
 40
0.2
 40
0.2
 40
0.2
 40
0.2
 40
0.4
 40
0.4
 40
0.4
 40
0.4
 40
0.6
 40
0.6
 40
0.6
 40
0.6
 40
1.0
 40
1.0
 40
1.0
 40
1.0
 10
-12.407
 20
37.6948
 30
0.0
 10
-12.407
 20
37.6948
 30
0.0
 10
-12.4738
 20
41.4023
 30
0.0
 10
-15.5469
 20
43.2561
 30
0.0
 10
-15.5469
 20
43.2561
 30
0.0
 10
-15.5469
 20
43.2561
 30
0.0
 10
-13.5063
 20
43.7976
 30
0.0
 10
-14.7086
 20
44.9025
 30
0.0
 10
-14.7086
 20
44.9025
 30
0.0
 10
-15.9108
 20
46.0073
 30
0.0
 10
-14.8755
 20
47.3617
 30
0.0
 10
-12.805
 20
46.4707
 30
0.0
 10
-12.805
 20
46.4707
 30
0.0
 10
-10.7345
 20
45.5796
 30
0.0
 10
-10.6343
 20
40.5186
 30
0.0
 10
-12.407
 20
37.6948
 30
0.0
  0
SPLINE
  5
74
330
1F
100
AcDbEntity
  8
layer 1
 62
   250
100
AcDbSpline
210
0.0
220
0.0
230
1.0
 70
    11
 71
     3
 72
    28
 73
    24
 74
     0
 42
0.0000000001
 43
0.0000000001
 12
1.0
 22
0.0
 32
0.0
 13
1.0
 23
0.0
 33
0.0
 40
0.0
 40
0.0
 40
0.0
 40
0.0
 40
0.1428571428571428
 40
0.1428571428571428
 40
0.1428571428571428
 40
0.1428571428571428
 40
0.2857142857142857
 40
0.2857142857142857
 40
0.2857142857142857
 40
0.2857142857142857
 40
0.4285714285714285
 40
0.4285714285714285
 40
0.4285714285714285
 40
0.4285714285714285
 40
0.5714285714285714
 40
0.5714285714285714
 40
0.5714285714285714
 40
0.5714285714285714
 40
0.7142857142857143
 40
0.7142857142857143
 40
0.7142857142857143
 40
0.7142857142857143
 40
1.0
 40
1.0
 40
1.0
 40
1.0
 10
-19.5843
 20
38.4871
 30
0.0
 10
-19.5843
 20
38.4871
 30
0.0
 10
-26.2634
 20
36.3843
 30
0.0
 10
-22.9238
 20
28.8997
 30
0.0
 10
-22.9238
 20
28.8997
 30
0.0
 10
-19.5843
 20
21.4151
 30
0.0
 10
-9.4988
 20
23.3041
 30
0.0
 10
-9.4988
 20
23.3041
 30
0.0
 10
-9.4988
 20
23.3041
 30
0.0
 10
-9.4988
 20
23.3041
 30
0.0
 10
-10.7011
 20
24.4446
 30
0.0
 10
-11.1686
 20
25.3
 30
0.0
 10
-11.1686
 20
25.3
 30
0.0
 10
-11.6362
 20
26.1554
 30
0.0
 10
-13.4061
 20
24.9079
 30
0.0
 10
-15.1427
 20
25.4425
 30
0.0
 10
-15.1427
 20
25.4425
 30
0.0
 10
-16.8793
 20
25.9771
 30
0.0
 10
-15.5435
 20
28.7928
 30
0.0
 10
-15.5435
 20
28.7928
 30
0.0
 10
-15.5435
 20
28.7928
 30
0.0
 10
-15.5435
 20
28.7928
 30
0.0
 10
-22.2893
 20
32.8558
 30
0.0
 10
-19.5843
 20
38.4871
 30
0.0
  0
SPLINE
  5
75
330
1F
100
AcDbEntity
  8
layer 1
 62
   250
100
AcDbSpline
210
0.0
220
0.0
230
1.0
 70
    11
 71
     3
 72
    28
 73
    24
 74
     0
 42
0.0000000001
 43
0.0000000001
 12
1.0
 22
0.0
 32
0.0
 13
1.0
 23
0.0
 33
0.0
 40
0.0
 40
0.0
 40
0.0
 40
0.0
 40
0.1428571428571428
 40
0.1428571428571428
 40
0.1428571428571428
 40
0.1428571428571428
 40
0.2857142857142857
 40
0.2857142857142857
 40
0.2857142857142857
 40
0.2857142857142857
 40
0.4285714285714285
 40
0.4285714285714285
 40
0.4285714285714285
 40
0.4285714285714285
 40
0.5714285714285714
 40
0.5714285714285714
 40
0.5714285714285714
 40
0.5714285714285714
 40
0.7142857142857143
 40
0.7142857142857143
 40
0.7142857142857143
 40
0.7142857142857143
 40
1.0
 40
1.0
 40
1.0
 40
1.0
 10
-7.8625
 20
24.0882
 30
0.0
 10
-7.8625
 20
24.0882
 30
0.0
 10
3.1588
 20
27.0002
 30
0.0
 10
8.5033
 20
36.1976
 30
0.0
 10
8.5033
 20
36.1976
 30
0.0
 10
8.5033
 20
36.1976
 30
0.0
 10
5.2286
 20
37.3822
 30
0.0
 10
1.8222
 20
35.6358
 30
0.0
 10
1.8222
 20
35.6358
 30
0.0
 10
1.8222
 20
35.6358
 30
0.0
 10
2.7573
 20
32.9628
 30
0.0
 10
2.056
 20
31.2876
 30
0.0
 10
2.056
 20
31.2876
 30
0.0
 10
2.056
 20
31.2876
 30
0.0
 10
-3.0201
 20
34.424
 30
0.0
 10
-8.33
 20
31.6441
 30
0.0
 10
-8.33
 20
31.6441
 30
0.0
 10
-8.33
 20
31.6441
 30
0.0
 10
-7.1946
 20
30.0402
 30
0.0
 10
-9.2317
 20
29.7907
 30
0.0
 10
-9.2317
 20
29.7907
 30
0.0
 10
-9.2317
 20
29.7907
 30
0.0
 10
-6.4933
 20
27.1176
 30
0.0
 10
-7.8625
 20
24.0882
 30
0.0
  0
SPLINE
  5
76
330
1F
100
AcDbEntity
  8
layer 1
 62
   250
100
AcDbSpline
210
0.0
220
0.0
230
1.0
 70
    11
 71
     3
 72
    16
 73
    12
 74
     0
 42
0.0000000001
 43
0.0000000001
 12
1.0
 22
0.0
 32
0.0
 13
1.0
 23
0.0
 33
0.0
 40
0.0
 40
0.0
 40
0.0
 40
0.0
 40
0.25
 40
0.25
 40
0.25
 40
0.25
 40
0.5
 40
0.5
 40
0.5
 40
0.5
 40
1.0
 40
1.0
 40
1.0
 40
1.0
 10
7.0653
 20
40.8394
 30
0.0
 10
7.0653
 20
40.8394
 30
0.0
 10
10.2045
 20
41.7661
 30
0.0
 10
12.0747
 20
44.0471
 30
0.0
 10
12.0747
 20
44.0471
 30
0.0
 10
12.0747
 20
44.0471
 30
0.0
 10
11.3734
 20
41.0533
 30
0.0
 10
9.5032
 20
38.3445
 30
0.0
 10
9.5032
 20
38.3445
 30
0.0
 10
9.5032
 20
38.3445
 30
0.0
 10
8.8019
 20
40.0553
 30
0.0
 10
7.0653
 20
40.8394
 30
0.0
  0
SPLINE
  5
77
330
1F
100
AcDbEntity
  8
layer 1
 62
   250
100
AcDbSpline
210
0.0
220
0.0
230
1.0
 70
    11
 71
     3
 72
    36
 73
    32
 74
     0
 42
0.0000000001
 43
0.0000000001
 12
1.0
 22
0.0
 32
0.0
 13
1.0
 23
0.0
 33
0.0
 40
0.0
 40
0.0
 40
0.0
 40
0.0
 40
0.1111111111111111
 40
0.1111111111111111
 40
0.1111111111111111
 40
0.1111111111111111
 40
0.2222222222222222
 40
0.2222222222222222
 40
0.2222222222222222
 40
0.2222222222222222
 40
0.3333333333333333
 40
0.3333333333333333
 40
0.3333333333333333
 40
0.3333333333333333
 40
0.4444444444444444
 40
0.4444444444444444
 40
0.4444444444444444
 40
0.4444444444444444
 40
0.5555555555555556
 40
0.5555555555555556
 40
0.5555555555555556
 40
0.5555555555555556
 40
0.6666666666666666
 40
0.6666666666666666
 40
0.6666666666666666
 40
0.6666666666666666
 40
0.7777777777777778
 40
0.7777777777777778
 40
0.7777777777777778
 40
0.7777777777777778
 40
1.0
 40
1.0
 40
1.0
 40
1.0
 10
47.1839
 20
91.5246
 30
0.0
 10
47.1839
 20
91.5246
 30
0.0
 10
59.0892
 20
94.3051
 30
0.0
 10
60.4783
 20
83.8957
 30
0.0
 10
60.4783
 20
83.8957
 30
0.0
 10
60.4783
 20
83.8957
 30
0.0
 10
68.0942
 20
92.5228
 30
0.0
 10
50.7246
 20
104.2869
 30
0.0
 10
50.7246
 20
104.2869
 30
0.0
 10
50.7246
 20
104.2869
 30
0.0
 10
51.909
 20
101.1317
 30
0.0
 10
51.5752
 20
100.7221
 30
0.0
 10
51.5752
 20
100.7221
 30
0.0
 10
51.2414
 20
100.3124
 30
0.0
 10
49.539
 20
101.7018
 30
0.0
 10
49.539
 20
101.7018
 30
0.0
 10
49.539
 20
101.7018
 30
0.0
 10
49.539
 20
101.7018
 30
0.0
 10
50.2066
 20
100.4727
 30
0.0
 10
49.7059
 20
100.2768
 30
0.0
 10
49.7059
 20
100.2768
 30
0.0
 10
49.2052
 20
100.0808
 30
0.0
 10
48.2539
 20
100.3302
 30
0.0
 10
48.2539
 20
100.3302
 30
0.0
 10
48.2539
 20
100.3302
 30
0.0
 10
48.2539
 20
100.3302
 30
0.0
 10
49.4776
 20
97.259
 30
0.0
 10
47.3069
 20
95.5838
 30
0.0
 10
47.3069
 20
95.5838
 30
0.0
 10
47.3069
 20
95.5838
 30
0.0
 10
48.2754
 20
93.4097
 30
0.0
 10
47.1839
 20
91.5246
 30
0.0
  0
SPLINE
  5
78
330
1F
100
AcDbEntity
  8
layer 1
 62
   250
100
AcDbSpline
210
0.0
220
0.0
230
1.0
 70
    11
 71
     3
 72
    20
 73
    16
 74
     0
 42
0.0000000001
 43
0.0000000001
 12
1.0
 22
0.0
 32
0.0
 13
1.0
 23
0.0
 33
0.0
 40
0.0
 40
0.0
 40
0.0
 40
0.0
 40
0.2
 40
0.2
 40
0.2
 40
0.2
 40
0.4
 40
0.4
 40
0.4
 40
0.4
 40
0.6
 40
0.6
 40
0.6
 40
0.6
 40
1.0
 40
1.0
 40
1.0
 40
1.0
 10
54.0528
 20
86.7805
 30
0.0
 10
54.0528
 20
86.7805
 30
0.0
 10
47.6743
 20
89.4892
 30
0.0
 10
44.4349
 20
84.6421
 30
0.0
 10
44.4349
 20
84.6421
 30
0.0
 10
41.1955
 20
79.7949
 30
0.0
 10
46.7058
 20
77.3357
 30
0.0
 10
48.576
 20
80.1513
 30
0.0
 10
48.576
 20
80.1513
 30
0.0
 10
48.576
 20
80.1513
 30
0.0
 10
49.6446
 20
81.1136
 30
0.0
 10
50.6465
 20
79.7236
 30
0.0
 10
50.6465
 20
79.7236
 30
0.0
 10
50.6465
 20
79.7236
 30
0.0
 10
50.8135
 20
84.3926
 30
0.0
 10
54.0528
 20
86.7805
 30
0.0
  0
SPLINE
  5
79
330
1F
100
AcDbEntity
  8
layer 1
 62
   250
100
AcDbSpline
210
0.0
220
0.0
230
1.0
 70
    11
 71
     3
 72
    40
 73
    36
 74
     0
 42
0.0000000001
 43
0.0000000001
 12
1.0
 22
0.0
 32
0.0
 13
1.0
 23
0.0
 33
0.0
 40
0.0
 40
0.0
 40
0.0
 40
0.0
 40
0.1
 40
0.1
 40
0.1
 40
0.1
 40
0.2
 40
0.2
 40
0.2
 40
0.2
 40
0.3
 40
0.3
 40
0.3
 40
0.3
 40
0.4
 40
0.4
 40
0.4
 40
0.4
 40
0.5
 40
0.5
 40
0.5
 40
0.5
 40
0.6
 40
0.6
 40
0.6
 40
0.6
 40
0.7
 40
0.7
 40
0.7
 40
0.7
 40
0.8
 40
0.8
 40
0.8
 40
0.8
 40
1.0
 40
1.0
 40
1.0
 40
1.0
 10
46.4387
 20
72.8806
 30
0.0
 10
46.4387
 20
72.8806
 30
0.0
 10
49.9786
 20
68.8888
 30
0.0
 10
45.2364
 20
68.8532
 30
0.0
 10
45.2364
 20
68.8532
 30
0.0
 10
45.2364
 20
68.8532
 30
0.0
 10
46.2717
 20
61.8319
 30
0.0
 10
49.4776
 20
61.0478
 30
0.0
 10
49.4776
 20
61.0478
 30
0.0
 10
52.6836
 20
60.2637
 30
0.0
 10
50.9136
 20
64.1129
 30
0.0
 10
50.9136
 20
64.1129
 30
0.0
 10
50.9136
 20
64.1129
 30
0.0
 10
50.9136
 20
64.1129
 30
0.0
 10
52.5834
 20
64.7188
 30
0.0
 10
53.4183
 20
63.8278
 30
0.0
 10
53.4183
 20
63.8278
 30
0.0
 10
53.4183
 20
63.8278
 30
0.0
 10
53.3181
 20
64.5406
 30
0.0
 10
53.5185
 20
64.7901
 30
0.0
 10
53.5185
 20
64.7901
 30
0.0
 10
53.7189
 20
65.0396
 30
0.0
 10
49.5444
 20
64.8257
 30
0.0
 10
50.5129
 20
70.7778
 30
0.0
 10
50.5129
 20
70.7778
 30
0.0
 10
50.5129
 20
70.7778
 30
0.0
 10
52.1493
 20
69.8511
 30
0.0
 10
52.5834
 20
70.5639
 30
0.0
 10
52.5834
 20
70.5639
 30
0.0
 10
53.0176
 20
71.2767
 30
0.0
 10
51.3478
 20
75.019
 30
0.0
 10
51.3478
 20
75.5536
 30
0.0
 10
51.3478
 20
75.5536
 30
0.0
 10
51.3478
 20
76.0883
 30
0.0
 10
50.3125
 20
72.3103
 30
0.0
 10
46.4387
 20
72.8806
 30
0.0
  0
SPLINE
  5
7A
330
1F
100
AcDbEntity
  8
layer 1
 62
   250
100
AcDbSpline
210
0.0
220
0.0
230
1.0
 70
    11
 71
     3
 72
    84
 73
    80
 74
     0
 42
0.0000000001
 43
0.0000000001
 12
1.0
 22
0.0
 32
0.0
 13
1.0
 23
0.0
 33
0.0
 40
0.0
 40
0.0
 40
0.0
 40
0.0
 40
0.0476190476190476
 40
0.0476190476190476
 40
0.0476190476190476
 40
0.0476190476190476
 40
0.0952380952380952
 40
0.0952380952380952
 40
0.0952380952380952
 40
0.0952380952380952
 40
0.1428571428571428
 40
0.1428571428571428
 40
0.1428571428571428
 40
0.1428571428571428
 40
0.1904761904761905
 40
0.1904761904761905
 40
0.1904761904761905
 40
0.1904761904761905
 40
0.2380952380952381
 40
0.2380952380952381
 40
0.2380952380952381
 40
0.2380952380952381
 40
0.2857142857142857
 40
0.2857142857142857
 40
0.2857142857142857
 40
0.2857142857142857
 40
0.3333333333333333
 40
0.3333333333333333
 40
0.3333333333333333
 40
0.3333333333333333
 40
0.3809523809523809
 40
0.3809523809523809
 40
0.3809523809523809
 40
0.3809523809523809
 40
0.4285714285714285
 40
0.4285714285714285
 40
0.4285714285714285
 40
0.4285714285714285
 40
0.4761904761904762
 40
0.4761904761904762
 40
0.4761904761904762
 40
0.4761904761904762
 40
0.5238095238095238
 40
0.5238095238095238
 40
0.5238095238095238
 40
0.5238095238095238
 40
0.5714285714285714
 40
0.5714285714285714
 40
0.5714285714285714
 40
0.5714285714285714
 40
0.6190476190476191
 40
0.6190476190476191
 40
0.6190476190476191
 40
0.6190476190476191
 40
0.6666666666666666
 40
0.6666666666666666
 40
0.6666666666666666
 40
0.6666666666666666
 40
0.7142857142857143
 40
0.7142857142857143
 40
0.7142857142857143
 40
0.7142857142857143
 40
0.7619047619047619
 40
0.7619047619047619
 40
0.7619047619047619
 40
0.7619047619047619
 40
0.8095238095238095
 40
0.8095238095238095
 40
0.8095238095238095
 40
0.8095238095238095
 40
0.8571428571428571
 40
0.8571428571428571
 40
0.8571428571428571
 40
0.8571428571428571
 40
0.9047619047619048
 40
0.9047619047619048
 40
0.9047619047619048
 40
0.9047619047619048
 40
1.0
 40
1.0
 40
1.0
 40
1.0
 10
36.2196
 20
65.1465
 30
0.0
 10
36.2196
 20
65.1465
 30
0.0
 10
36.6538
 20
64.1842
 30
0.0
 10
37.0879
 20
64.1486
 30
0.0
 10
37.0879
 20
64.1486
 30
0.0
 10
37.522
 20
64.1129
 30
0.0
 10
38.7911
 20
65.4673
 30
0.0
 10
38.7911
 20
65.4673
 30
0.0
 10
38.7911
 20
65.4673
 30
0.0
 10
38.7911
 20
65.4673
 30
0.0
 10
42.1067
 20
56.8026
 30
0.0
 10
47.9856
 20
56.7313
 30
0.0
 10
47.9856
 20
56.7313
 30
0.0
 10
53.8645
 20
56.66
 30
0.0
 10
55.0002
 20
60.2962
 30
0.0
 10
55.0002
 20
62.2925
 30
0.0
 10
55.0002
 20
62.2925
 30
0.0
 10
55.0002
 20
62.2925
 30
0.0
 10
56.4573
 20
62.0101
 30
0.0
 10
56.4907
 20
62.9368
 30
0.0
 10
56.4907
 20
62.9368
 30
0.0
 10
56.5241
 20
63.8634
 30
0.0
 10
57.4592
 20
58.6598
 30
0.0
 10
60.2644
 20
55.4878
 30
0.0
 10
60.2644
 20
55.4878
 30
0.0
 10
60.2644
 20
55.4878
 30
0.0
 10
58.6948
 20
54.775
 30
0.0
 10
58.4944
 20
53.9909
 30
0.0
 10
58.4944
 20
53.9909
 30
0.0
 10
58.4944
 20
53.9909
 30
0.0
 10
53.6187
 20
55.5947
 30
0.0
 10
52.3496
 20
50.7119
 30
0.0
 10
52.3496
 20
50.7119
 30
0.0
 10
52.3496
 20
50.7119
 30
0.0
 10
51.281
 20
50.0348
 30
0.0
 10
51.281
 20
49.0368
 30
0.0
 10
51.281
 20
49.0368
 30
0.0
 10
51.281
 20
49.0368
 30
0.0
 10
50.3793
 20
51.4604
 30
0.0
 10
47.7411
 20
51.0327
 30
0.0
 10
47.7411
 20
51.0327
 30
0.0
 10
45.1028
 20
50.605
 30
0.0
 10
46.0713
 20
47.0409
 30
0.0
 10
46.0713
 20
47.0409
 30
0.0
 10
46.0713
 20
47.0409
 30
0.0
 10
46.0713
 20
47.0409
 30
0.0
 10
47.6743
 20
47.7894
 30
0.0
 10
47.9748
 20
46.3994
 30
0.0
 10
47.9748
 20
46.3994
 30
0.0
 10
48.2754
 20
45.0094
 30
0.0
 10
45.5703
 20
43.4768
 30
0.0
 10
42.7317
 20
44.0115
 30
0.0
 10
42.7317
 20
44.0115
 30
0.0
 10
39.8931
 20
44.5461
 30
0.0
 10
38.958
 20
46.934
 30
0.0
 10
38.7911
 20
47.5399
 30
0.0
 10
38.7911
 20
47.5399
 30
0.0
 10
38.6241
 20
48.1458
 30
0.0
 10
40.1603
 20
47.7181
 30
0.0
 10
40.0601
 20
49.0368
 30
0.0
 10
40.0601
 20
49.0368
 30
0.0
 10
39.9599
 20
50.3555
 30
0.0
 10
38.9915
 20
50.7476
 30
0.0
 10
38.9915
 20
50.7476
 30
0.0
 10
38.9915
 20
50.7476
 30
0.0
 10
38.9915
 20
50.7476
 30
0.0
 10
40.895
 20
51.3535
 30
0.0
 10
40.4609
 20
53.6345
 30
0.0
 10
40.4609
 20
53.6345
 30
0.0
 10
40.0267
 20
55.9155
 30
0.0
 10
38.3569
 20
56.165
 30
0.0
 10
38.3569
 20
56.165
 30
0.0
 10
38.3569
 20
56.165
 30
0.0
 10
38.3569
 20
56.165
 30
0.0
 10
38.3569
 20
54.0265
 30
0.0
 10
36.5202
 20
54.7037
 30
0.0
 10
36.5202
 20
54.7037
 30
0.0
 10
34.6834
 20
55.3809
 30
0.0
 10
35.5517
 20
63.4001
 30
0.0
 10
36.2196
 20
65.1465
 30
0.0
  0
SPLINE
  5
7B
330
1F
100
AcDbEntity
  8
layer 1
 62
   250
100
AcDbSpline
210
0.0
220
0.0
230
1.0
 70
    11
 71
     3
 72
    24
 73
    20
 74
     0
 42
0.0000000001
 43
0.0000000001
 12
1.0
 22
0.0
 32
0.0
 13
1.0
 23
0.0
 33
0.0
 40
0.0
 40
0.0
 40
0.0
 40
0.0
 40
0.1666666666666667
 40
0.1666666666666667
 40
0.1666666666666667
 40
0.1666666666666667
 40
0.3333333333333333
 40
0.3333333333333333
 40
0.3333333333333333
 40
0.3333333333333333
 40
0.5
 40
0.5
 40
0.5
 40
0.5
 40
0.6666666666666666
 40
0.6666666666666666
 40
0.6666666666666666
 40
0.6666666666666666
 40
1.0
 40
1.0
 40
1.0
 40
1.0
 10
6.9318
 20
-97.376
 30
0.0
 10
6.9318
 20
-97.376
 30
0.0
 10
11.4735
 20
-94.7742
 30
0.0
 10
13.4105
 20
-92.3863
 30
0.0
 10
13.4105
 20
-92.3863
 30
0.0
 10
13.4105
 20
-92.3863
 30
0.0
 10
11.3066
 20
-91.6378
 30
0.0
 10
10.839
 20
-89.6063
 30
0.0
 10
10.839
 20
-89.6063
 30
0.0
 10
10.839
 20
-89.6063
 30
0.0
 10
10.7054
 20
-89.2143
 30
0.0
 10
10.1711
 20
-90.6043
 30
0.0
 10
10.1711
 20
-90.6043
 30
0.0
 10
9.6368
 20
-91.9943
 30
0.0
 10
8.134
 20
-93.8476
 30
0.0
 10
8.134
 20
-93.8476
 30
0.0
 10
8.134
 20
-93.8476
 30
0.0
 10
8.134
 20
-93.8476
 30
0.0
 10
8.5347
 20
-95.4158
 30
0.0
 10
6.9318
 20
-97.376
 30
0.0
  0
SPLINE
  5
7C
330
1F
100
AcDbEntity
  8
layer 1
 62
   250
100
AcDbSpline
210
0.0
220
0.0
230
1.0
 70
    11
 71
     3
 72
    48
 73
    44
 74
     0
 42
0.0000000001
 43
0.0000000001
 12
1.0
 22
0.0
 32
0.0
 13
1.0
 23
0.0
 33
0.0
 40
0.0
 40
0.0
 40
0.0
 40
0.0
 40
0.0833333333333333
 40
0.0833333333333333
 40
0.0833333333333333
 40
0.0833333333333333
 40
0.1666666666666667
 40
0.1666666666666667
 40
0.1666666666666667
 40
0.1666666666666667
 40
0.25
 40
0.25
 40
0.25
 40
0.25
 40
0.3333333333333333
 40
0.3333333333333333
 40
0.3333333333333333
 40
0.3333333333333333
 40
0.4166666666666667
 40
0.4166666666666667
 40
0.4166666666666667
 40
0.4166666666666667
 40
0.5
 40
0.5
 40
0.5
 40
0.5
 40
0.5833333333333334
 40
0.5833333333333334
 40
0.5833333333333334
 40
0.5833333333333334
 40
0.6666666666666666
 40
0.6666666666666666
 40
0.6666666666666666
 40
0.6666666666666666
 40
0.75
 40
0.75
 40
0.75
 40
0.75
 40
0.8333333333333334
 40
0.8333333333333334
 40
0.8333333333333334
 40
0.8333333333333334
 40
1.0
 40
1.0
 40
1.0
 40
1.0
 10
11.4735
 20
-80.4822
 30
0.0
 10
11.4735
 20
-80.4822
 30
0.0
 10
13.4439
 20
-77.631
 30
0.0
 10
11.9411
 20
-73.5323
 30
0.0
 10
11.9411
 20
-73.5323
 30
0.0
 10
11.9411
 20
-73.5323
 30
0.0
 10
13.6776
 20
-73.3897
 30
0.0
 10
13.6443
 20
-72.3205
 30
0.0
 10
13.6443
 20
-72.3205
 30
0.0
 10
13.6108
 20
-71.2512
 30
0.0
 10
12.609
 20
-71.4295
 30
0.0
 10
12.609
 20
-71.4295
 30
0.0
 10
12.609
 20
-71.4295
 30
0.0
 10
12.609
 20
-71.4295
 30
0.0
 10
13.9114
 20
-70.2177
 30
0.0
 10
13.9448
 20
-68.6851
 30
0.0
 10
13.9448
 20
-68.6851
 30
0.0
 10
13.9782
 20
-67.1526
 30
0.0
 10
12.0079
 20
-67.4377
 30
0.0
 10
11.5403
 20
-67.2595
 30
0.0
 10
11.5403
 20
-67.2595
 30
0.0
 10
11.0728
 20
-67.0813
 30
0.0
 10
9.8705
 20
-66.511
 30
0.0
 10
10.1043
 20
-64.9072
 30
0.0
 10
10.1043
 20
-64.9072
 30
0.0
 10
10.1043
 20
-64.9072
 30
0.0
 10
12.9763
 20
-68.6851
 30
0.0
 10
15.7816
 20
-64.4795
 30
0.0
 10
15.7816
 20
-64.4795
 30
0.0
 10
15.7816
 20
-64.4795
 30
0.0
 10
17.3511
 20
-68.792
 30
0.0
 10
17.8187
 20
-72.8908
 30
0.0
 10
17.8187
 20
-72.8908
 30
0.0
 10
18.2862
 20
-76.9894
 30
0.0
 10
19.6554
 20
-82.4425
 30
0.0
 10
19.6554
 20
-82.4425
 30
0.0
 10
19.6554
 20
-82.4425
 30
0.0
 10
19.6554
 20
-82.4425
 30
0.0
 10
18.6536
 20
-85.0443
 30
0.0
 10
15.2806
 20
-86.1491
 30
0.0
 10
15.2806
 20
-86.1491
 30
0.0
 10
15.2806
 20
-86.1491
 30
0.0
 10
14.9467
 20
-82.2286
 30
0.0
 10
11.4735
 20
-80.4822
 30
0.0
  0
SPLINE
  5
7D
330
1F
100
AcDbEntity
  8
layer 1
 62
   250
100
AcDbSpline
210
0.0
220
0.0
230
1.0
 70
    11
 71
     3
 72
    84
 73
    80
 74
     0
 42
0.0000000001
 43
0.0000000001
 12
1.0
 22
0.0
 32
0.0
 13
1.0
 23
0.0
 33
0.0
 40
0.0
 40
0.0
 40
0.0
 40
0.0
 40
0.0476190476190476
 40
0.0476190476190476
 40
0.0476190476190476
 40
0.0476190476190476
 40
0.0952380952380952
 40
0.0952380952380952
 40
0.0952380952380952
 40
0.0952380952380952
 40
0.1428571428571428
 40
0.1428571428571428
 40
0.1428571428571428
 40
0.1428571428571428
 40
0.1904761904761905
 40
0.1904761904761905
 40
0.1904761904761905
 40
0.1904761904761905
 40
0.2380952380952381
 40
0.2380952380952381
 40
0.2380952380952381
 40
0.2380952380952381
 40
0.2857142857142857
 40
0.2857142857142857
 40
0.2857142857142857
 40
0.2857142857142857
 40
0.3333333333333333
 40
0.3333333333333333
 40
0.3333333333333333
 40
0.3333333333333333
 40
0.3809523809523809
 40
0.3809523809523809
 40
0.3809523809523809
 40
0.3809523809523809
 40
0.4285714285714285
 40
0.4285714285714285
 40
0.4285714285714285
 40
0.4285714285714285
 40
0.4761904761904762
 40
0.4761904761904762
 40
0.4761904761904762
 40
0.4761904761904762
 40
0.5238095238095238
 40
0.5238095238095238
 40
0.5238095238095238
 40
0.5238095238095238
 40
0.5714285714285714
 40
0.5714285714285714
 40
0.5714285714285714
 40
0.5714285714285714
 40
0.6190476190476191
 40
0.6190476190476191
 40
0.6190476190476191
 40
0.6190476190476191
 40
0.6666666666666666
 40
0.6666666666666666
 40
0.6666666666666666
 40
0.6666666666666666
 40
0.7142857142857143
 40
0.7142857142857143
 40
0.7142857142857143
 40
0.7142857142857143
 40
0.7619047619047619
 40
0.7619047619047619
 40
0.7619047619047619
 40
0.7619047619047619
 40
0.8095238095238095
 40
0.8095238095238095
 40
0.8095238095238095
 40
0.8095238095238095
 40
0.8571428571428571
 40
0.8571428571428571
 40
0.8571428571428571
 40
0.8571428571428571
 40
0.9047619047619048
 40
0.9047619047619048
 40
0.9047619047619048
 40
0.9047619047619048
 40
1.0
 40
1.0
 40
1.0
 40
1.0
 10
21.4637
 20
-71.2886
 30
0.0
 10
21.4637
 20
-71.2886
 30
0.0
 10
25.1657
 20
-70.2533
 30
0.0
 10
29.1732
 20
-72.8551
 30
0.0
 10
29.1732
 20
-72.8551
 30
0.0
 10
29.1732
 20
-72.8551
 30
0.0
 10
27.47
 20
-75.8489
 30
0.0
 10
31.5776
 20
-75.4569
 30
0.0
 10
31.5776
 20
-75.4569
 30
0.0
 10
31.5776
 20
-75.4569
 30
0.0
 10
30.7093
 20
-79.6625
 30
0.0
 10
34.3161
 20
-79.3774
 30
0.0
 10
34.3161
 20
-79.3774
 30
0.0
 10
34.3161
 20
-79.3774
 30
0.0
 10
36.0192
 20
-75.6351
 30
0.0
 10
38.8245
 20
-76.4192
 30
0.0
 10
38.8245
 20
-76.4192
 30
0.0
 10
41.6297
 20
-77.2033
 30
0.0
 10
41.1955
 20
-78.0587
 30
0.0
 10
40.9284
 20
-78.2012
 30
0.0
 10
40.9284
 20
-78.2012
 30
0.0
 10
40.6612
 20
-78.3438
 30
0.0
 10
36.8541
 20
-80.3041
 30
0.0
 10
36.6204
 20
-82.8345
 30
0.0
 10
36.6204
 20
-82.8345
 30
0.0
 10
36.3866
 20
-85.365
 30
0.0
 10
39.3254
 20
-86.363
 30
0.0
 10
39.6594
 20
-86.1491
 30
0.0
 10
39.6594
 20
-86.1491
 30
0.0
 10
39.9933
 20
-85.9353
 30
0.0
 10
39.3588
 20
-83.2622
 30
0.0
 10
41.5295
 20
-83.583
 30
0.0
 10
41.5295
 20
-83.583
 30
0.0
 10
43.7002
 20
-83.9038
 30
0.0
 10
44.6353
 20
-89.1786
 30
0.0
 10
41.5963
 20
-91.923
 30
0.0
 10
41.5963
 20
-91.923
 30
0.0
 10
38.5573
 20
-94.6673
 30
0.0
 10
33.4144
 20
-93.9901
 30
0.0
 10
31.3439
 20
-93.2061
 30
0.0
 10
31.3439
 20
-93.2061
 30
0.0
 10
29.2734
 20
-92.4219
 30
0.0
 10
28.6722
 20
-90.2835
 30
0.0
 10
29.2734
 20
-90.4973
 30
0.0
 10
29.2734
 20
-90.4973
 30
0.0
 10
29.8745
 20
-90.7112
 30
0.0
 10
30.6092
 20
-90.5686
 30
0.0
 10
29.8745
 20
-89.6063
 30
0.0
 10
29.8745
 20
-89.6063
 30
0.0
 10
29.1398
 20
-88.644
 30
0.0
 10
29.2734
 20
-88.4658
 30
0.0
 10
29.7075
 20
-88.4301
 30
0.0
 10
29.7075
 20
-88.4301
 30
0.0
 10
30.1416
 20
-88.3945
 30
0.0
 10
30.8763
 20
-88.6084
 30
0.0
 10
29.7743
 20
-86.7194
 30
0.0
 10
29.7743
 20
-86.7194
 30
0.0
 10
28.6722
 20
-84.8304
 30
0.0
 10
28.1713
 20
-85.0443
 30
0.0
 10
28.1713
 20
-85.0443
 30
0.0
 10
28.1713
 20
-85.0443
 30
0.0
 10
28.1713
 20
-85.0443
 30
0.0
 10
31.1769
 20
-83.9751
 30
0.0
 10
30.9431
 20
-81.6584
 30
0.0
 10
30.9431
 20
-81.6584
 30
0.0
 10
30.7093
 20
-79.3417
 30
0.0
 10
29.4069
 20
-77.3815
 30
0.0
 10
28.1045
 20
-77.4528
 30
0.0
 10
28.1045
 20
-77.4528
 30
0.0
 10
26.8021
 20
-77.524
 30
0.0
 10
26.5349
 20
-79.8407
 30
0.0
 10
26.7353
 20
-80.0189
 30
0.0
 10
26.7353
 20
-80.0189
 30
0.0
 10
26.9357
 20
-80.1971
 30
0.0
 10
28.3717
 20
-80.2684
 30
0.0
 10
27.3698
 20
-81.3733
 30
0.0
 10
27.3698
 20
-81.3733
 30
0.0
 10
26.3679
 20
-82.4781
 30
0.0
 10
21.6591
 20
-79.9476
 30
0.0
 10
21.4637
 20
-71.2886
 30
0.0
  0
SPLINE
  5
7E
330
1F
100
AcDbEntity
  8
layer 1
 62
   250
100
AcDbSpline
210
0.0
220
0.0
230
1.0
 70
    11
 71
     3
 72
    84
 73
    80
 74
     0
 42
0.0000000001
 43
0.0000000001
 12
1.0
 22
0.0
 32
0.0
 13
1.0
 23
0.0
 33
0.0
 40
0.0
 40
0.0
 40
0.0
 40
0.0
 40
0.0476190476190476
 40
0.0476190476190476
 40
0.0476190476190476
 40
0.0476190476190476
 40
0.0952380952380952
 40
0.0952380952380952
 40
0.0952380952380952
 40
0.0952380952380952
 40
0.1428571428571428
 40
0.1428571428571428
 40
0.1428571428571428
 40
0.1428571428571428
 40
0.1904761904761905
 40
0.1904761904761905
 40
0.1904761904761905
 40
0.1904761904761905
 40
0.2380952380952381
 40
0.2380952380952381
 40
0.2380952380952381
 40
0.2380952380952381
 40
0.2857142857142857
 40
0.2857142857142857
 40
0.2857142857142857
 40
0.2857142857142857
 40
0.3333333333333333
 40
0.3333333333333333
 40
0.3333333333333333
 40
0.3333333333333333
 40
0.3809523809523809
 40
0.3809523809523809
 40
0.3809523809523809
 40
0.3809523809523809
 40
0.4285714285714285
 40
0.4285714285714285
 40
0.4285714285714285
 40
0.4285714285714285
 40
0.4761904761904762
 40
0.4761904761904762
 40
0.4761904761904762
 40
0.4761904761904762
 40
0.5238095238095238
 40
0.5238095238095238
 40
0.5238095238095238
 40
0.5238095238095238
 40
0.5714285714285714
 40
0.5714285714285714
 40
0.5714285714285714
 40
0.5714285714285714
 40
0.6190476190476191
 40
0.6190476190476191
 40
0.6190476190476191
 40
0.6190476190476191
 40
0.6666666666666666
 40
0.6666666666666666
 40
0.6666666666666666
 40
0.6666666666666666
 40
0.7142857142857143
 40
0.7142857142857143
 40
0.7142857142857143
 40
0.7142857142857143
 40
0.7619047619047619
 40
0.7619047619047619
 40
0.7619047619047619
 40
0.7619047619047619
 40
0.8095238095238095
 40
0.8095238095238095
 40
0.8095238095238095
 40
0.8095238095238095
 40
0.8571428571428571
 40
0.8571428571428571
 40
0.8571428571428571
 40
0.8571428571428571
 40
0.9047619047619048
 40
0.9047619047619048
 40
0.9047619047619048
 40
0.9047619047619048
 40
1.0
 40
1.0
 40
1.0
 40
1.0
 10
20.4569
 20
-68.0792
 30
0.0
 10
20.4569
 20
-68.0792
 30
0.0
 10
19.4885
 20
-60.6302
 30
0.0
 10
15.5812
 20
-58.0641
 30
0.0
 10
15.5812
 20
-58.0641
 30
0.0
 10
15.5812
 20
-58.0641
 30
0.0
 10
20.5237
 20
-53.4664
 30
0.0
 10
19.2213
 20
-42.988
 30
0.0
 10
19.2213
 20
-42.988
 30
0.0
 10
19.2213
 20
-42.988
 30
0.0
 10
21.4588
 20
-45.0195
 30
0.0
 10
22.9616
 20
-43.9147
 30
0.0
 10
22.9616
 20
-43.9147
 30
0.0
 10
24.4644
 20
-42.8098
 30
0.0
 10
23.8967
 20
-41.6337
 30
0.0
 10
22.995
 20
-40.5644
 30
0.0
 10
22.995
 20
-40.5644
 30
0.0
 10
22.0933
 20
-39.4952
 30
0.0
 10
24.8651
 20
-36.5726
 30
0.0
 10
27.637
 20
-38.1052
 30
0.0
 10
27.637
 20
-38.1052
 30
0.0
 10
30.4088
 20
-39.6378
 30
0.0
 10
30.5424
 20
-44.9839
 30
0.0
 10
30.5424
 20
-44.9839
 30
0.0
 10
30.5424
 20
-44.9839
 30
0.0
 10
30.5424
 20
-44.9839
 30
0.0
 10
29.7075
 20
-45.5898
 30
0.0
 10
29.6073
 20
-46.8729
 30
0.0
 10
29.6073
 20
-46.8729
 30
0.0
 10
29.6073
 20
-46.8729
 30
0.0
 10
23.4625
 20
-45.3403
 30
0.0
 10
23.5627
 20
-49.7598
 30
0.0
 10
23.5627
 20
-49.7598
 30
0.0
 10
23.5627
 20
-49.7598
 30
0.0
 10
21.4922
 20
-52.8605
 30
0.0
 10
23.7631
 20
-54.5357
 30
0.0
 10
23.7631
 20
-54.5357
 30
0.0
 10
26.034
 20
-56.2108
 30
0.0
 10
26.9691
 20
-54.3218
 30
0.0
 10
26.3679
 20
-53.5734
 30
0.0
 10
26.3679
 20
-53.5734
 30
0.0
 10
25.7668
 20
-52.8249
 30
0.0
 10
25.1657
 20
-51.3636
 30
0.0
 10
26.9357
 20
-51.2567
 30
0.0
 10
26.9357
 20
-51.2567
 30
0.0
 10
28.7056
 20
-51.1498
 30
0.0
 10
29.3401
 20
-52.8605
 30
0.0
 10
29.3401
 20
-52.8605
 30
0.0
 10
29.3401
 20
-52.8605
 30
0.0
 10
29.3401
 20
-52.8605
 30
0.0
 10
28.9728
 20
-54.2505
 30
0.0
 10
29.24
 20
-55.5336
 30
0.0
 10
29.24
 20
-55.5336
 30
0.0
 10
29.24
 20
-55.5336
 30
0.0
 10
28.0711
 20
-56.4603
 30
0.0
 10
28.6722
 20
-57.6721
 30
0.0
 10
28.6722
 20
-57.6721
 30
0.0
 10
28.6722
 20
-57.6721
 30
0.0
 10
28.8058
 20
-58.9195
 30
0.0
 10
29.9079
 20
-59.3828
 30
0.0
 10
29.9079
 20
-59.3828
 30
0.0
 10
29.9079
 20
-59.3828
 30
0.0
 10
30.5758
 20
-57.6364
 30
0.0
 10
31.6778
 20
-58.6344
 30
0.0
 10
31.6778
 20
-58.6344
 30
0.0
 10
32.7799
 20
-59.6323
 30
0.0
 10
34.2159
 20
-63.9092
 30
0.0
 10
34.0489
 20
-64.1587
 30
0.0
 10
34.0489
 20
-64.1587
 30
0.0
 10
33.8819
 20
-64.4082
 30
0.0
 10
32.6463
 20
-63.2677
 30
0.0
 10
32.3457
 20
-62.448
 30
0.0
 10
32.3457
 20
-62.448
 30
0.0
 10
32.0452
 20
-61.6282
 30
0.0
 10
30.7427
 20
-64.3725
 30
0.0
 10
31.2771
 20
-66.4397
 30
0.0
 10
31.2771
 20
-66.4397
 30
0.0
 10
31.2771
 20
-66.4397
 30
0.0
 10
27.4366
 20
-64.6933
 30
0.0
 10
20.4569
 20
-68.0792
 30
0.0
  0
SPLINE
  5
7F
330
1F
100
AcDbEntity
  8
layer 1
 62
   250
100
AcDbSpline
210
0.0
220
0.0
230
1.0
 70
    11
 71
     3
 72
    64
 73
    60
 74
     0
 42
0.0000000001
 43
0.0000000001
 12
1.0
 22
0.0
 32
0.0
 13
1.0
 23
0.0
 33
0.0
 40
0.0
 40
0.0
 40
0.0
 40
0.0
 40
0.0625
 40
0.0625
 40
0.0625
 40
0.0625
 40
0.125
 40
0.125
 40
0.125
 40
0.125
 40
0.1875
 40
0.1875
 40
0.1875
 40
0.1875
 40
0.25
 40
0.25
 40
0.25
 40
0.25
 40
0.3125
 40
0.3125
 40
0.3125
 40
0.3125
 40
0.375
 40
0.375
 40
0.375
 40
0.375
 40
0.4375
 40
0.4375
 40
0.4375
 40
0.4375
 40
0.5
 40
0.5
 40
0.5
 40
0.5
 40
0.5625
 40
0.5625
 40
0.5625
 40
0.5625
 40
0.625
 40
0.625
 40
0.625
 40
0.625
 40
0.6875
 40
0.6875
 40
0.6875
 40
0.6875
 40
0.75
 40
0.75
 40
0.75
 40
0.75
 40
0.8125
 40
0.8125
 40
0.8125
 40
0.8125
 40
0.875
 40
0.875
 40
0.875
 40
0.875
 40
1.0
 40
1.0
 40
1.0
 40
1.0
 10
-13.075
 20
-89.0417
 30
0.0
 10
-13.075
 20
-89.0417
 30
0.0
 10
-9.2671
 20
-93.8899
 30
0.0
 10
-5.3923
 20
-94.4603
 30
0.0
 10
-5.3923
 20
-94.4603
 30
0.0
 10
-1.5176
 20
-95.0307
 30
0.0
 10
-0.8495
 20
-92.1075
 30
0.0
 10
-2.3193
 20
-91.3945
 30
0.0
 10
-2.3193
 20
-91.3945
 30
0.0
 10
-2.3193
 20
-91.3945
 30
0.0
 10
-2.6194
 20
-89.7489
 30
0.0
 10
-1.3838
 20
-89.4638
 30
0.0
 10
-1.3838
 20
-89.4638
 30
0.0
 10
-0.1481
 20
-89.1786
 30
0.0
 10
0.3862
 20
-91.3527
 30
0.0
 10
0.3862
 20
-91.3527
 30
0.0
 10
0.3862
 20
-91.3527
 30
0.0
 10
0.3862
 20
-91.3527
 30
0.0
 10
0.8871
 20
-90.9607
 30
0.0
 10
0.8871
 20
-90.2122
 30
0.0
 10
0.8871
 20
-90.2122
 30
0.0
 10
0.8871
 20
-89.4638
 30
0.0
 10
2.2897
 20
-90.1053
 30
0.0
 10
2.4234
 20
-90.8538
 30
0.0
 10
2.4234
 20
-90.8538
 30
0.0
 10
2.5569
 20
-91.6022
 30
0.0
 10
2.9911
 20
-89.6419
 30
0.0
 10
3.6256
 20
-89.8914
 30
0.0
 10
3.6256
 20
-89.8914
 30
0.0
 10
4.2601
 20
-90.1409
 30
0.0
 10
4.3269
 20
-90.8894
 30
0.0
 10
4.3269
 20
-90.8894
 30
0.0
 10
4.3269
 20
-90.8894
 30
0.0
 10
4.3269
 20
-90.8894
 30
0.0
 10
6.5644
 20
-85.2225
 30
0.0
 10
3.8928
 20
-81.6227
 30
0.0
 10
3.8928
 20
-81.6227
 30
0.0
 10
1.2211
 20
-78.023
 30
0.0
 10
-2.0517
 20
-80.3397
 30
0.0
 10
-2.4858
 20
-81.0525
 30
0.0
 10
-2.4858
 20
-81.0525
 30
0.0
 10
-2.9199
 20
-81.7653
 30
0.0
 10
-2.6528
 20
-83.5473
 30
0.0
 10
-1.0498
 20
-83.5117
 30
0.0
 10
-1.0498
 20
-83.5117
 30
0.0
 10
0.5532
 20
-83.4761
 30
0.0
 10
-0.5488
 20
-86.3273
 30
0.0
 10
-3.0535
 20
-86.8263
 30
0.0
 10
-3.0535
 20
-86.8263
 30
0.0
 10
-5.5582
 20
-87.3253
 30
0.0
 10
-7.0944
 20
-83.6899
 30
0.0
 10
-7.0944
 20
-83.6899
 30
0.0
 10
-7.0944
 20
-83.6899
 30
0.0
 10
-7.0944
 20
-83.6899
 30
0.0
 10
-7.8291
 20
-85.4007
 30
0.0
 10
-8.831
 20
-85.9353
 30
0.0
 10
-8.831
 20
-85.9353
 30
0.0
 10
-8.831
 20
-85.9353
 30
0.0
 10
-6.9942
 20
-89.2499
 30
0.0
 10
-13.075
 20
-89.0417
 30
0.0
  0
SPLINE
  5
80
330
1F
100
AcDbEntity
  8
layer 1
 62
   250
100
AcDbSpline
210
0.0
220
0.0
230
1.0
 70
    11
 71
     3
 72
    56
 73
    52
 74
     0
 42
0.0000000001
 43
0.0000000001
 12
1.0
 22
0.0
 32
0.0
 13
1.0
 23
0.0
 33
0.0
 40
0.0
 40
0.0
 40
0.0
 40
0.0
 40
0.0714285714285714
 40
0.0714285714285714
 40
0.0714285714285714
 40
0.0714285714285714
 40
0.1428571428571428
 40
0.1428571428571428
 40
0.1428571428571428
 40
0.1428571428571428
 40
0.2142857142857143
 40
0.2142857142857143
 40
0.2142857142857143
 40
0.2142857142857143
 40
0.2857142857142857
 40
0.2857142857142857
 40
0.2857142857142857
 40
0.2857142857142857
 40
0.3571428571428572
 40
0.3571428571428572
 40
0.3571428571428572
 40
0.3571428571428572
 40
0.4285714285714285
 40
0.4285714285714285
 40
0.4285714285714285
 40
0.4285714285714285
 40
0.5
 40
0.5
 40
0.5
 40
0.5
 40
0.5714285714285714
 40
0.5714285714285714
 40
0.5714285714285714
 40
0.5714285714285714
 40
0.6428571428571429
 40
0.6428571428571429
 40
0.6428571428571429
 40
0.6428571428571429
 40
0.7142857142857143
 40
0.7142857142857143
 40
0.7142857142857143
 40
0.7142857142857143
 40
0.7857142857142857
 40
0.7857142857142857
 40
0.7857142857142857
 40
0.7857142857142857
 40
0.8571428571428571
 40
0.8571428571428571
 40
0.8571428571428571
 40
0.8571428571428571
 40
1.0
 40
1.0
 40
1.0
 40
1.0
 10
-16.8459
 20
-80.7317
 30
0.0
 10
-16.8459
 20
-80.7317
 30
0.0
 10
-15.51
 20
-83.2979
 30
0.0
 10
-12.9386
 20
-83.8325
 30
0.0
 10
-12.9386
 20
-83.8325
 30
0.0
 10
-10.3671
 20
-84.3671
 30
0.0
 10
-8.6973
 20
-80.8743
 30
0.0
 10
-10.9349
 20
-80.5892
 30
0.0
 10
-10.9349
 20
-80.5892
 30
0.0
 10
-10.9349
 20
-80.5892
 30
0.0
 10
-10.4005
 20
-78.023
 30
0.0
 10
-7.7289
 20
-79.413
 30
0.0
 10
-7.7289
 20
-79.413
 30
0.0
 10
-7.7289
 20
-79.413
 30
0.0
 10
-6.894
 20
-75.9915
 30
0.0
 10
-5.291
 20
-74.3164
 30
0.0
 10
-5.291
 20
-74.3164
 30
0.0
 10
-5.291
 20
-74.3164
 30
0.0
 10
-11.1686
 20
-73.2828
 30
0.0
 10
-13.4061
 20
-65.5843
 30
0.0
 10
-13.4061
 20
-65.5843
 30
0.0
 10
-13.4061
 20
-65.5843
 30
0.0
 10
-14.3412
 20
-67.5446
 30
0.0
 10
-14.8755
 20
-67.509
 30
0.0
 10
-14.8755
 20
-67.509
 30
0.0
 10
-15.4099
 20
-67.4733
 30
0.0
 10
-16.178
 20
-64.2656
 30
0.0
 10
-15.7772
 20
-62.1628
 30
0.0
 10
-15.7772
 20
-62.1628
 30
0.0
 10
-15.7772
 20
-62.1628
 30
0.0
 10
-18.0147
 20
-67.6872
 30
0.0
 10
-17.7142
 20
-71.6433
 30
0.0
 10
-17.7142
 20
-71.6433
 30
0.0
 10
-17.4136
 20
-75.5994
 30
0.0
 10
-15.4766
 20
-75.243
 30
0.0
 10
-14.7086
 20
-73.7818
 30
0.0
 10
-14.7086
 20
-73.7818
 30
0.0
 10
-14.7086
 20
-73.7818
 30
0.0
 10
-13.0722
 20
-73.8887
 30
0.0
 10
-12.9052
 20
-75.8133
 30
0.0
 10
-12.9052
 20
-75.8133
 30
0.0
 10
-12.7382
 20
-77.7379
 30
0.0
 10
-14.8755
 20
-77.7023
 30
0.0
 10
-14.8755
 20
-77.7023
 30
0.0
 10
-14.8755
 20
-77.7023
 30
0.0
 10
-14.8755
 20
-77.7023
 30
0.0
 10
-14.6084
 20
-80.8387
 30
0.0
 10
-14.9757
 20
-80.7674
 30
0.0
 10
-14.9757
 20
-80.7674
 30
0.0
 10
-15.3431
 20
-80.6961
 30
0.0
 10
-16.5453
 20
-80.3397
 30
0.0
 10
-16.8459
 20
-80.7317
 30
0.0
  0
SPLINE
  5
81
330
1F
100
AcDbEntity
  8
layer 1
 62
   250
100
AcDbSpline
210
0.0
220
0.0
230
1.0
 70
    11
 71
     3
 72
   104
 73
   100
 74
     0
 42
0.0000000001
 43
0.0000000001
 12
1.0
 22
0.0
 32
0.0
 13
1.0
 23
0.0
 33
0.0
 40
0.0
 40
0.0
 40
0.0
 40
0.0
 40
0.0384615384615385
 40
0.0384615384615385
 40
0.0384615384615385
 40
0.0384615384615385
 40
0.0769230769230769
 40
0.0769230769230769
 40
0.0769230769230769
 40
0.0769230769230769
 40
0.1153846153846154
 40
0.1153846153846154
 40
0.1153846153846154
 40
0.1153846153846154
 40
0.1538461538461539
 40
0.1538461538461539
 40
0.1538461538461539
 40
0.1538461538461539
 40
0.1923076923076923
 40
0.1923076923076923
 40
0.1923076923076923
 40
0.1923076923076923
 40
0.2307692307692308
 40
0.2307692307692308
 40
0.2307692307692308
 40
0.2307692307692308
 40
0.2692307692307692
 40
0.2692307692307692
 40
0.2692307692307692
 40
0.2692307692307692
 40
0.3076923076923077
 40
0.3076923076923077
 40
0.3076923076923077
 40
0.3076923076923077
 40
0.3461538461538461
 40
0.3461538461538461
 40
0.3461538461538461
 40
0.3461538461538461
 40
0.3846153846153846
 40
0.3846153846153846
 40
0.3846153846153846
 40
0.3846153846153846
 40
0.4230769230769231
 40
0.4230769230769231
 40
0.4230769230769231
 40
0.4230769230769231
 40
0.4615384615384616
 40
0.4615384615384616
 40
0.4615384615384616
 40
0.4615384615384616
 40
0.5
 40
0.5
 40
0.5
 40
0.5
 40
0.5384615384615384
 40
0.5384615384615384
 40
0.5384615384615384
 40
0.5384615384615384
 40
0.5769230769230769
 40
0.5769230769230769
 40
0.5769230769230769
 40
0.5769230769230769
 40
0.6153846153846154
 40
0.6153846153846154
 40
0.6153846153846154
 40
0.6153846153846154
 40
0.6538461538461539
 40
0.6538461538461539
 40
0.6538461538461539
 40
0.6538461538461539
 40
0.6923076923076923
 40
0.6923076923076923
 40
0.6923076923076923
 40
0.6923076923076923
 40
0.7307692307692307
 40
0.7307692307692307
 40
0.7307692307692307
 40
0.7307692307692307
 40
0.7692307692307693
 40
0.7692307692307693
 40
0.7692307692307693
 40
0.7692307692307693
 40
0.8076923076923077
 40
0.8076923076923077
 40
0.8076923076923077
 40
0.8076923076923077
 40
0.8461538461538461
 40
0.8461538461538461
 40
0.8461538461538461
 40
0.8461538461538461
 40
0.8846153846153846
 40
0.8846153846153846
 40
0.8846153846153846
 40
0.8846153846153846
 40
0.9230769230769231
 40
0.9230769230769231
 40
0.9230769230769231
 40
0.9230769230769231
 40
1.0
 40
1.0
 40
1.0
 40
1.0
 10
-0.2483
 20
-72.2492
 30
0.0
 10
-0.2483
 20
-72.2492
 30
0.0
 10
2.7239
 20
-73.4966
 30
0.0
 10
3.2916
 20
-74.4946
 30
0.0
 10
3.2916
 20
-74.4946
 30
0.0
 10
3.8594
 20
-75.4925
 30
0.0
 10
5.3621
 20
-73.7461
 30
0.0
 10
5.3621
 20
-73.4254
 30
0.0
 10
5.3621
 20
-73.4254
 30
0.0
 10
5.3621
 20
-73.1046
 30
0.0
 10
4.5273
 20
-71.4651
 30
0.0
 10
5.3955
 20
-68.792
 30
0.0
 10
5.3955
 20
-68.792
 30
0.0
 10
5.3955
 20
-68.792
 30
0.0
 10
3.3918
 20
-69.0059
 30
0.0
 10
3.659
 20
-67.4733
 30
0.0
 10
3.659
 20
-67.4733
 30
0.0
 10
3.9261
 20
-65.9408
 30
0.0
 10
5.0282
 20
-67.0456
 30
0.0
 10
5.262
 20
-65.4418
 30
0.0
 10
5.262
 20
-65.4418
 30
0.0
 10
5.4957
 20
-63.8379
 30
0.0
 10
6.1303
 20
-62.6261
 30
0.0
 10
6.8316
 20
-61.2718
 30
0.0
 10
6.8316
 20
-61.2718
 30
0.0
 10
6.8316
 20
-61.2718
 30
0.0
 10
4.9614
 20
-61.6282
 30
0.0
 10
3.4252
 20
-61.2362
 30
0.0
 10
3.4252
 20
-61.2362
 30
0.0
 10
1.889
 20
-60.8441
 30
0.0
 10
0.787
 20
-61.6282
 30
0.0
 10
0.787
 20
-61.6282
 30
0.0
 10
0.787
 20
-61.6282
 30
0.0
 10
0.787
 20
-61.6282
 30
0.0
 10
0.0189
 20
-60.1313
 30
0.0
 10
1.3213
 20
-58.171
 30
0.0
 10
1.3213
 20
-58.171
 30
0.0
 10
1.3213
 20
-58.171
 30
0.0
 10
-0.3819
 20
-58.0998
 30
0.0
 10
-1.2502
 20
-57.5651
 30
0.0
 10
-1.2502
 20
-57.5651
 30
0.0
 10
-2.1184
 20
-57.0305
 30
0.0
 10
-2.8532
 20
-57.5651
 30
0.0
 10
-2.6862
 20
-57.9572
 30
0.0
 10
-2.6862
 20
-57.9572
 30
0.0
 10
-2.5192
 20
-58.3493
 30
0.0
 10
-4.8903
 20
-56.8523
 30
0.0
 10
-1.8179
 20
-54.5713
 30
0.0
 10
-1.8179
 20
-54.5713
 30
0.0
 10
-1.8179
 20
-54.5713
 30
0.0
 10
-3.3541
 20
-51.0429
 30
0.0
 10
-3.2539
 20
-46.267
 30
0.0
 10
-3.2539
 20
-46.267
 30
0.0
 10
-3.2539
 20
-46.267
 30
0.0
 10
-4.6565
 20
-46.9085
 30
0.0
 10
-5.1574
 20
-48.6906
 30
0.0
 10
-5.1574
 20
-48.6906
 30
0.0
 10
-5.6584
 20
-50.4726
 30
0.0
 10
-5.0572
 20
-50.5795
 30
0.0
 10
-4.5563
 20
-50.5082
 30
0.0
 10
-4.5563
 20
-50.5082
 30
0.0
 10
-4.0554
 20
-50.437
 30
0.0
 10
-2.5192
 20
-52.1121
 30
0.0
 10
-3.7548
 20
-53.4308
 30
0.0
 10
-3.7548
 20
-53.4308
 30
0.0
 10
-4.9905
 20
-54.7495
 30
0.0
 10
-6.1593
 20
-54.1436
 30
0.0
 10
-6.1593
 20
-54.1436
 30
0.0
 10
-6.1593
 20
-54.1436
 30
0.0
 10
-6.1593
 20
-54.1436
 30
0.0
 10
-6.6268
 20
-57.3156
 30
0.0
 10
-7.9627
 20
-55.8544
 30
0.0
 10
-7.9627
 20
-55.8544
 30
0.0
 10
-7.9627
 20
-55.8544
 30
0.0
 10
-8.33
 20
-57.7433
 30
0.0
 10
-9.3653
 20
-56.9592
 30
0.0
 10
-9.3653
 20
-56.9592
 30
0.0
 10
-9.3653
 20
-56.9592
 30
0.0
 10
-10.8681
 20
-63.4459
 30
0.0
 10
-8.831
 20
-66.4754
 30
0.0
 10
-8.831
 20
-66.4754
 30
0.0
 10
-6.7938
 20
-69.5048
 30
0.0
 10
-3.2539
 20
-68.792
 30
0.0
 10
-3.1203
 20
-67.3664
 30
0.0
 10
-3.1203
 20
-67.3664
 30
0.0
 10
-2.9867
 20
-65.9408
 30
0.0
 10
-3.6547
 20
-65.1567
 30
0.0
 10
-3.855
 20
-64.6577
 30
0.0
 10
-3.855
 20
-64.6577
 30
0.0
 10
-4.0554
 20
-64.1587
 30
0.0
 10
-2.1852
 20
-62.84
 30
0.0
 10
-0.5155
 20
-64.2656
 30
0.0
 10
-0.5155
 20
-64.2656
 30
0.0
 10
1.1543
 20
-65.6913
 30
0.0
 10
0.3194
 20
-68.4712
 30
0.0
 10
0.3194
 20
-68.4712
 30
0.0
 10
0.3194
 20
-68.4712
 30
0.0
 10
0.3194
 20
-68.4712
 30
0.0
 10
1.1209
 20
-70.8236
 30
0.0
 10
-0.2483
 20
-72.2492
 30
0.0
  0
SPLINE
  5
82
330
1F
100
AcDbEntity
  8
layer 1
 62
   250
100
AcDbSpline
210
0.0
220
0.0
230
1.0
 70
    11
 71
     3
 72
    16
 73
    12
 74
     0
 42
0.0000000001
 43
0.0000000001
 12
1.0
 22
0.0
 32
0.0
 13
1.0
 23
0.0
 33
0.0
 40
0.0
 40
0.0
 40
0.0
 40
0.0
 40
0.25
 40
0.25
 40
0.25
 40
0.25
 40
0.5
 40
0.5
 40
0.5
 40
0.5
 40
1.0
 40
1.0
 40
1.0
 40
1.0
 10
8.8019
 20
-56.5672
 30
0.0
 10
8.8019
 20
-56.5672
 30
0.0
 10
6.4976
 20
-54.6782
 30
0.0
 10
8.4012
 20
-53.5377
 30
0.0
 10
8.4012
 20
-53.5377
 30
0.0
 10
8.4012
 20
-53.5377
 30
0.0
 10
8.7312
 20
-53.3553
 30
0.0
 10
8.8146
 20
-53.3553
 30
0.0
 10
8.8146
 20
-53.3553
 30
0.0
 10
8.8981
 20
-53.3553
 30
0.0
 10
8.6227
 20
-54.5398
 30
0.0
 10
8.8019
 20
-56.5672
 30
0.0
  0
SPLINE
  5
83
330
1F
100
AcDbEntity
  8
layer 1
 62
   250
100
AcDbSpline
210
0.0
220
0.0
230
1.0
 70
    11
 71
     3
 72
    48
 73
    44
 74
     0
 42
0.0000000001
 43
0.0000000001
 12
1.0
 22
0.0
 32
0.0
 13
1.0
 23
0.0
 33
0.0
 40
0.0
 40
0.0
 40
0.0
 40
0.0
 40
0.0833333333333333
 40
0.0833333333333333
 40
0.0833333333333333
 40
0.0833333333333333
 40
0.1666666666666667
 40
0.1666666666666667
 40
0.1666666666666667
 40
0.1666666666666667
 40
0.25
 40
0.25
 40
0.25
 40
0.25
 40
0.3333333333333333
 40
0.3333333333333333
 40
0.3333333333333333
 40
0.3333333333333333
 40
0.4166666666666667
 40
0.4166666666666667
 40
0.4166666666666667
 40
0.4166666666666667
 40
0.5
 40
0.5
 40
0.5
 40
0.5
 40
0.5833333333333334
 40
0.5833333333333334
 40
0.5833333333333334
 40
0.5833333333333334
 40
0.6666666666666666
 40
0.6666666666666666
 40
0.6666666666666666
 40
0.6666666666666666
 40
0.75
 40
0.75
 40
0.75
 40
0.75
 40
0.8333333333333334
 40
0.8333333333333334
 40
0.8333333333333334
 40
0.8333333333333334
 40
1.0
 40
1.0
 40
1.0
 40
1.0
 10
2.4567
 20
-51.1498
 30
0.0
 10
2.4567
 20
-51.1498
 30
0.0
 10
-0.7158
 20
-47.4075
 30
0.0
 10
-1.2836
 20
-45.5185
 30
0.0
 10
-1.2836
 20
-45.5185
 30
0.0
 10
-1.8513
 20
-43.6295
 30
0.0
 10
-0.7492
 20
-43.0237
 30
0.0
 10
-0.3819
 20
-43.0237
 30
0.0
 10
-0.3819
 20
-43.0237
 30
0.0
 10
-0.0145
 20
-43.0237
 30
0.0
 10
-1.2502
 20
-41.206
 30
0.0
 10
-0.3151
 20
-40.0298
 30
0.0
 10
-0.3151
 20
-40.0298
 30
0.0
 10
-0.3151
 20
-40.0298
 30
0.0
 10
1.0541
 20
-42.1683
 30
0.0
 10
1.5551
 20
-41.9901
 30
0.0
 10
1.5551
 20
-41.9901
 30
0.0
 10
2.056
 20
-41.8119
 30
0.0
 10
2.3232
 20
-39.6378
 30
0.0
 10
2.3232
 20
-39.6378
 30
0.0
 10
2.3232
 20
-39.6378
 30
0.0
 10
2.3232
 20
-39.6378
 30
0.0
 10
4.7276
 20
-41.8119
 30
0.0
 10
4.761
 20
-43.5939
 30
0.0
 10
4.761
 20
-43.5939
 30
0.0
 10
4.7944
 20
-45.376
 30
0.0
 10
6.6646
 20
-42.097
 30
0.0
 10
6.8983
 20
-40.3506
 30
0.0
 10
6.8983
 20
-40.3506
 30
0.0
 10
6.8983
 20
-40.3506
 30
0.0
 10
17.1508
 20
-44.1642
 30
0.0
 10
13.4439
 20
-51.8983
 30
0.0
 10
13.4439
 20
-51.8983
 30
0.0
 10
13.4439
 20
-51.8983
 30
0.0
 10
11.4067
 20
-50.0093
 30
0.0
 10
9.1692
 20
-52.5754
 30
0.0
 10
9.1692
 20
-52.5754
 30
0.0
 10
9.1692
 20
-52.5754
 30
0.0
 10
8.1674
 20
-49.5459
 30
0.0
 10
5.2954
 20
-51.2211
 30
0.0
 10
5.2954
 20
-51.2211
 30
0.0
 10
5.2954
 20
-51.2211
 30
0.0
 10
3.659
 20
-48.5836
 30
0.0
 10
2.4567
 20
-51.1498
 30
0.0
  0
SPLINE
  5
84
330
1F
100
AcDbEntity
  8
layer 1
 62
   250
100
AcDbSpline
210
0.0
220
0.0
230
1.0
 70
    11
 71
     3
 72
    20
 73
    16
 74
     0
 42
0.0000000001
 43
0.0000000001
 12
1.0
 22
0.0
 32
0.0
 13
1.0
 23
0.0
 33
0.0
 40
0.0
 40
0.0
 40
0.0
 40
0.0
 40
0.2
 40
0.2
 40
0.2
 40
0.2
 40
0.4
 40
0.4
 40
0.4
 40
0.4
 40
0.6
 40
0.6
 40
0.6
 40
0.6
 40
1.0
 40
1.0
 40
1.0
 40
1.0
 10
-12.407
 20
-27.2978
 30
0.0
 10
-12.407
 20
-27.2978
 30
0.0
 10
-12.4738
 20
-31.0053
 30
0.0
 10
-15.5469
 20
-32.8591
 30
0.0
 10
-15.5469
 20
-32.8591
 30
0.0
 10
-15.5469
 20
-32.8591
 30
0.0
 10
-13.5063
 20
-33.4006
 30
0.0
 10
-14.7086
 20
-34.5055
 30
0.0
 10
-14.7086
 20
-34.5055
 30
0.0
 10
-15.9108
 20
-35.6104
 30
0.0
 10
-14.8755
 20
-36.9647
 30
0.0
 10
-12.805
 20
-36.0737
 30
0.0
 10
-12.805
 20
-36.0737
 30
0.0
 10
-10.7345
 20
-35.1827
 30
0.0
 10
-10.6343
 20
-30.1216
 30
0.0
 10
-12.407
 20
-27.2978
 30
0.0
  0
SPLINE
  5
85
330
1F
100
AcDbEntity
  8
layer 1
 62
   250
100
AcDbSpline
210
0.0
220
0.0
230
1.0
 70
    11
 71
     3
 72
    28
 73
    24
 74
     0
 42
0.0000000001
 43
0.0000000001
 12
1.0
 22
0.0
 32
0.0
 13
1.0
 23
0.0
 33
0.0
 40
0.0
 40
0.0
 40
0.0
 40
0.0
 40
0.1428571428571428
 40
0.1428571428571428
 40
0.1428571428571428
 40
0.1428571428571428
 40
0.2857142857142857
 40
0.2857142857142857
 40
0.2857142857142857
 40
0.2857142857142857
 40
0.4285714285714285
 40
0.4285714285714285
 40
0.4285714285714285
 40
0.4285714285714285
 40
0.5714285714285714
 40
0.5714285714285714
 40
0.5714285714285714
 40
0.5714285714285714
 40
0.7142857142857143
 40
0.7142857142857143
 40
0.7142857142857143
 40
0.7142857142857143
 40
1.0
 40
1.0
 40
1.0
 40
1.0
 10
-19.5843
 20
-28.0901
 30
0.0
 10
-19.5843
 20
-28.0901
 30
0.0
 10
-26.2634
 20
-25.9873
 30
0.0
 10
-22.9238
 20
-18.5027
 30
0.0
 10
-22.9238
 20
-18.5027
 30
0.0
 10
-19.5843
 20
-11.0181
 30
0.0
 10
-9.4988
 20
-12.9071
 30
0.0
 10
-9.4988
 20
-12.9071
 30
0.0
 10
-9.4988
 20
-12.9071
 30
0.0
 10
-9.4988
 20
-12.9071
 30
0.0
 10
-10.7011
 20
-14.0476
 30
0.0
 10
-11.1686
 20
-14.903
 30
0.0
 10
-11.1686
 20
-14.903
 30
0.0
 10
-11.6362
 20
-15.7584
 30
0.0
 10
-13.4061
 20
-14.5109
 30
0.0
 10
-15.1427
 20
-15.0455
 30
0.0
 10
-15.1427
 20
-15.0455
 30
0.0
 10
-16.8793
 20
-15.5802
 30
0.0
 10
-15.5435
 20
-18.3958
 30
0.0
 10
-15.5435
 20
-18.3958
 30
0.0
 10
-15.5435
 20
-18.3958
 30
0.0
 10
-15.5435
 20
-18.3958
 30
0.0
 10
-22.2893
 20
-22.4588
 30
0.0
 10
-19.5843
 20
-28.0901
 30
0.0
  0
SPLINE
  5
86
330
1F
100
AcDbEntity
  8
layer 1
 62
   250
100
AcDbSpline
210
0.0
220
0.0
230
1.0
 70
    11
 71
     3
 72
    28
 73
    24
 74
     0
 42
0.0000000001
 43
0.0000000001
 12
1.0
 22
0.0
 32
0.0
 13
1.0
 23
0.0
 33
0.0
 40
0.0
 40
0.0
 40
0.0
 40
0.0
 40
0.1428571428571428
 40
0.1428571428571428
 40
0.1428571428571428
 40
0.1428571428571428
 40
0.2857142857142857
 40
0.2857142857142857
 40
0.2857142857142857
 40
0.2857142857142857
 40
0.4285714285714285
 40
0.4285714285714285
 40
0.4285714285714285
 40
0.4285714285714285
 40
0.5714285714285714
 40
0.5714285714285714
 40
0.5714285714285714
 40
0.5714285714285714
 40
0.7142857142857143
 40
0.7142857142857143
 40
0.7142857142857143
 40
0.7142857142857143
 40
1.0
 40
1.0
 40
1.0
 40
1.0
 10
-7.8625
 20
-13.6912
 30
0.0
 10
-7.8625
 20
-13.6912
 30
0.0
 10
3.1588
 20
-16.6032
 30
0.0
 10
8.5033
 20
-25.8006
 30
0.0
 10
8.5033
 20
-25.8006
 30
0.0
 10
8.5033
 20
-25.8006
 30
0.0
 10
5.2286
 20
-26.9853
 30
0.0
 10
1.8222
 20
-25.2388
 30
0.0
 10
1.8222
 20
-25.2388
 30
0.0
 10
1.8222
 20
-25.2388
 30
0.0
 10
2.7573
 20
-22.5658
 30
0.0
 10
2.056
 20
-20.8906
 30
0.0
 10
2.056
 20
-20.8906
 30
0.0
 10
2.056
 20
-20.8906
 30
0.0
 10
-3.0201
 20
-24.027
 30
0.0
 10
-8.33
 20
-21.2471
 30
0.0
 10
-8.33
 20
-21.2471
 30
0.0
 10
-8.33
 20
-21.2471
 30
0.0
 10
-7.1946
 20
-19.6432
 30
0.0
 10
-9.2317
 20
-19.3937
 30
0.0
 10
-9.2317
 20
-19.3937
 30
0.0
 10
-9.2317
 20
-19.3937
 30
0.0
 10
-6.4933
 20
-16.7207
 30
0.0
 10
-7.8625
 20
-13.6912
 30
0.0
  0
SPLINE
  5
87
330
1F
100
AcDbEntity
  8
layer 1
 62
   250
100
AcDbSpline
210
0.0
220
0.0
230
1.0
 70
    11
 71
     3
 72
    16
 73
    12
 74
     0
 42
0.0000000001
 43
0.0000000001
 12
1.0
 22
0.0
 32
0.0
 13
1.0
 23
0.0
 33
0.0
 40
0.0
 40
0.0
 40
0.0
 40
0.0
 40
0.25
 40
0.25
 40
0.25
 40
0.25
 40
0.5
 40
0.5
 40
0.5
 40
0.5
 40
1.0
 40
1.0
 40
1.0
 40
1.0
 10
7.0653
 20
-30.4424
 30
0.0
 10
7.0653
 20
-30.4424
 30
0.0
 10
10.2045
 20
-31.3691
 30
0.0
 10
12.0747
 20
-33.6501
 30
0.0
 10
12.0747
 20
-33.6501
 30
0.0
 10
12.0747
 20
-33.6501
 30
0.0
 10
11.3734
 20
-30.6562
 30
0.0
 10
9.5032
 20
-27.9476
 30
0.0
 10
9.5032
 20
-27.9476
 30
0.0
 10
9.5032
 20
-27.9476
 30
0.0
 10
8.8019
 20
-29.6583
 30
0.0
 10
7.0653
 20
-30.4424
 30
0.0
  0
SPLINE
  5
88
330
1F
100
AcDbEntity
  8
layer 1
 62
   250
100
AcDbSpline
210
0.0
220
0.0
230
1.0
 70
    11
 71
     3
 72
    36
 73
    32
 74
     0
 42
0.0000000001
 43
0.0000000001
 12
1.0
 22
0.0
 32
0.0
 13
1.0
 23
0.0
 33
0.0
 40
0.0
 40
0.0
 40
0.0
 40
0.0
 40
0.1111111111111111
 40
0.1111111111111111
 40
0.1111111111111111
 40
0.1111111111111111
 40
0.2222222222222222
 40
0.2222222222222222
 40
0.2222222222222222
 40
0.2222222222222222
 40
0.3333333333333333
 40
0.3333333333333333
 40
0.3333333333333333
 40
0.3333333333333333
 40
0.4444444444444444
 40
0.4444444444444444
 40
0.4444444444444444
 40
0.4444444444444444
 40
0.5555555555555556
 40
0.5555555555555556
 40
0.5555555555555556
 40
0.5555555555555556
 40
0.6666666666666666
 40
0.6666666666666666
 40
0.6666666666666666
 40
0.6666666666666666
 40
0.7777777777777778
 40
0.7777777777777778
 40
0.7777777777777778
 40
0.7777777777777778
 40
1.0
 40
1.0
 40
1.0
 40
1.0
 10
47.1839
 20
-81.1276
 30
0.0
 10
47.1839
 20
-81.1276
 30
0.0
 10
59.0892
 20
-83.9081
 30
0.0
 10
60.4783
 20
-73.4988
 30
0.0
 10
60.4783
 20
-73.4988
 30
0.0
 10
60.4783
 20
-73.4988
 30
0.0
 10
68.0942
 20
-82.1258
 30
0.0
 10
50.7246
 20
-93.8899
 30
0.0
 10
50.7246
 20
-93.8899
 30
0.0
 10
50.7246
 20
-93.8899
 30
0.0
 10
51.909
 20
-90.7348
 30
0.0
 10
51.5752
 20
-90.3251
 30
0.0
 10
51.5752
 20
-90.3251
 30
0.0
 10
51.2414
 20
-89.9154
 30
0.0
 10
49.539
 20
-91.3048
 30
0.0
 10
49.539
 20
-91.3048
 30
0.0
 10
49.539
 20
-91.3048
 30
0.0
 10
49.539
 20
-91.3048
 30
0.0
 10
50.2066
 20
-90.0757
 30
0.0
 10
49.7059
 20
-89.8798
 30
0.0
 10
49.7059
 20
-89.8798
 30
0.0
 10
49.2052
 20
-89.6839
 30
0.0
 10
48.2539
 20
-89.9332
 30
0.0
 10
48.2539
 20
-89.9332
 30
0.0
 10
48.2539
 20
-89.9332
 30
0.0
 10
48.2539
 20
-89.9332
 30
0.0
 10
49.4776
 20
-86.862
 30
0.0
 10
47.3069
 20
-85.1869
 30
0.0
 10
47.3069
 20
-85.1869
 30
0.0
 10
47.3069
 20
-85.1869
 30
0.0
 10
48.2754
 20
-83.0127
 30
0.0
 10
47.1839
 20
-81.1276
 30
0.0
  0
SPLINE
  5
89
330
1F
100
AcDbEntity
  8
layer 1
 62
   250
100
AcDbSpline
210
0.0
220
0.0
230
1.0
 70
    11
 71
     3
 72
    20
 73
    16
 74
     0
 42
0.0000000001
 43
0.0000000001
 12
1.0
 22
0.0
 32
0.0
 13
1.0
 23
0.0
 33
0.0
 40
0.0
 40
0.0
 40
0.0
 40
0.0
 40
0.2
 40
0.2
 40
0.2
 40
0.2
 40
0.4
 40
0.4
 40
0.4
 40
0.4
 40
0.6
 40
0.6
 40
0.6
 40
0.6
 40
1.0
 40
1.0
 40
1.0
 40
1.0
 10
54.0528
 20
-76.3835
 30
0.0
 10
54.0528
 20
-76.3835
 30
0.0
 10
47.6743
 20
-79.0923
 30
0.0
 10
44.4349
 20
-74.2451
 30
0.0
 10
44.4349
 20
-74.2451
 30
0.0
 10
41.1955
 20
-69.3979
 30
0.0
 10
46.7058
 20
-66.9387
 30
0.0
 10
48.576
 20
-69.7543
 30
0.0
 10
48.576
 20
-69.7543
 30
0.0
 10
48.576
 20
-69.7543
 30
0.0
 10
49.6446
 20
-70.7166
 30
0.0
 10
50.6465
 20
-69.3266
 30
0.0
 10
50.6465
 20
-69.3266
 30
0.0
 10
50.6465
 20
-69.3266
 30
0.0
 10
50.8135
 20
-73.9956
 30
0.0
 10
54.0528
 20
-76.3835
 30
0.0
  0
SPLINE
  5
8A
330
1F
100
AcDbEntity
  8
layer 1
 62
   250
100
AcDbSpline
210
0.0
220
0.0
230
1.0
 70
    11
 71
     3
 72
    40
 73
    36
 74
     0
 42
0.0000000001
 43
0.0000000001
 12
1.0
 22
0.0
 32
0.0
 13
1.0
 23
0.0
 33
0.0
 40
0.0
 40
0.0
 40
0.0
 40
0.0
 40
0.1
 40
0.1
 40
0.1
 40
0.1
 40
0.2
 40
0.2
 40
0.2
 40
0.2
 40
0.3
 40
0.3
 40
0.3
 40
0.3
 40
0.4
 40
0.4
 40
0.4
 40
0.4
 40
0.5
 40
0.5
 40
0.5
 40
0.5
 40
0.6
 40
0.6
 40
0.6
 40
0.6
 40
0.7
 40
0.7
 40
0.7
 40
0.7
 40
0.8
 40
0.8
 40
0.8
 40
0.8
 40
1.0
 40
1.0
 40
1.0
 40
1.0
 10
46.4387
 20
-62.4836
 30
0.0
 10
46.4387
 20
-62.4836
 30
0.0
 10
49.9786
 20
-58.4918
 30
0.0
 10
45.2364
 20
-58.4562
 30
0.0
 10
45.2364
 20
-58.4562
 30
0.0
 10
45.2364
 20
-58.4562
 30
0.0
 10
46.2717
 20
-51.4349
 30
0.0
 10
49.4776
 20
-50.6508
 30
0.0
 10
49.4776
 20
-50.6508
 30
0.0
 10
52.6836
 20
-49.8667
 30
0.0
 10
50.9136
 20
-53.7159
 30
0.0
 10
50.9136
 20
-53.7159
 30
0.0
 10
50.9136
 20
-53.7159
 30
0.0
 10
50.9136
 20
-53.7159
 30
0.0
 10
52.5834
 20
-54.3218
 30
0.0
 10
53.4183
 20
-53.4308
 30
0.0
 10
53.4183
 20
-53.4308
 30
0.0
 10
53.4183
 20
-53.4308
 30
0.0
 10
53.3181
 20
-54.1436
 30
0.0
 10
53.5185
 20
-54.3931
 30
0.0
 10
53.5185
 20
-54.3931
 30
0.0
 10
53.7189
 20
-54.6426
 30
0.0
 10
49.5444
 20
-54.4287
 30
0.0
 10
50.5129
 20
-60.3808
 30
0.0
 10
50.5129
 20
-60.3808
 30
0.0
 10
50.5129
 20
-60.3808
 30
0.0
 10
52.1493
 20
-59.4541
 30
0.0
 10
52.5834
 20
-60.1669
 30
0.0
 10
52.5834
 20
-60.1669
 30
0.0
 10
53.0176
 20
-60.8798
 30
0.0
 10
51.3478
 20
-64.622
 30
0.0
 10
51.3478
 20
-65.1567
 30
0.0
 10
51.3478
 20
-65.1567
 30
0.0
 10
51.3478
 20
-65.6913
 30
0.0
 10
50.3125
 20
-61.9133
 30
0.0
 10
46.4387
 20
-62.4836
 30
0.0
  0
SPLINE
  5
8B
330
1F
100
AcDbEntity
  8
layer 1
 62
   250
100
AcDbSpline
210
0.0
220
0.0
230
1.0
 70
    11
 71
     3
 72
    84
 73
    80
 74
     0
 42
0.0000000001
 43
0.0000000001
 12
1.0
 22
0.0
 32
0.0
 13
1.0
 23
0.0
 33
0.0
 40
0.0
 40
0.0
 40
0.0
 40
0.0
 40
0.0476190476190476
 40
0.0476190476190476
 40
0.0476190476190476
 40
0.0476190476190476
 40
0.0952380952380952
 40
0.0952380952380952
 40
0.0952380952380952
 40
0.0952380952380952
 40
0.1428571428571428
 40
0.1428571428571428
 40
0.1428571428571428
 40
0.1428571428571428
 40
0.1904761904761905
 40
0.1904761904761905
 40
0.1904761904761905
 40
0.1904761904761905
 40
0.2380952380952381
 40
0.2380952380952381
 40
0.2380952380952381
 40
0.2380952380952381
 40
0.2857142857142857
 40
0.2857142857142857
 40
0.2857142857142857
 40
0.2857142857142857
 40
0.3333333333333333
 40
0.3333333333333333
 40
0.3333333333333333
 40
0.3333333333333333
 40
0.3809523809523809
 40
0.3809523809523809
 40
0.3809523809523809
 40
0.3809523809523809
 40
0.4285714285714285
 40
0.4285714285714285
 40
0.4285714285714285
 40
0.4285714285714285
 40
0.4761904761904762
 40
0.4761904761904762
 40
0.4761904761904762
 40
0.4761904761904762
 40
0.5238095238095238
 40
0.5238095238095238
 40
0.5238095238095238
 40
0.5238095238095238
 40
0.5714285714285714
 40
0.5714285714285714
 40
0.5714285714285714
 40
0.5714285714285714
 40
0.6190476190476191
 40
0.6190476190476191
 40
0.6190476190476191
 40
0.6190476190476191
 40
0.6666666666666666
 40
0.6666666666666666
 40
0.6666666666666666
 40
0.6666666666666666
 40
0.7142857142857143
 40
0.7142857142857143
 40
0.7142857142857143
 40
0.7142857142857143
 40
0.7619047619047619
 40
0.7619047619047619
 40
0.7619047619047619
 40
0.7619047619047619
 40
0.8095238095238095
 40
0.8095238095238095
 40
0.8095238095238095
 40
0.8095238095238095
 40
0.8571428571428571
 40
0.8571428571428571
 40
0.8571428571428571
 40
0.8571428571428571
 40
0.9047619047619048
 40
0.9047619047619048
 40
0.9047619047619048
 40
0.9047619047619048
 40
1.0
 40
1.0
 40
1.0
 40
1.0
 10
36.2196
 20
-54.7495
 30
0.0
 10
36.2196
 20
-54.7495
 30
0.0
 10
36.6538
 20
-53.7872
 30
0.0
 10
37.0879
 20
-53.7516
 30
0.0
 10
37.0879
 20
-53.7516
 30
0.0
 10
37.522
 20
-53.7159
 30
0.0
 10
38.7911
 20
-55.0703
 30
0.0
 10
38.7911
 20
-55.0703
 30
0.0
 10
38.7911
 20
-55.0703
 30
0.0
 10
38.7911
 20
-55.0703
 30
0.0
 10
42.1067
 20
-46.4056
 30
0.0
 10
47.9856
 20
-46.3344
 30
0.0
 10
47.9856
 20
-46.3344
 30
0.0
 10
53.8645
 20
-46.263
 30
0.0
 10
55.0002
 20
-49.8992
 30
0.0
 10
55.0002
 20
-51.8956
 30
0.0
 10
55.0002
 20
-51.8956
 30
0.0
 10
55.0002
 20
-51.8956
 30
0.0
 10
56.4573
 20
-51.6131
 30
0.0
 10
56.4907
 20
-52.5398
 30
0.0
 10
56.4907
 20
-52.5398
 30
0.0
 10
56.5241
 20
-53.4664
 30
0.0
 10
57.4592
 20
-48.2629
 30
0.0
 10
60.2644
 20
-45.0908
 30
0.0
 10
60.2644
 20
-45.0908
 30
0.0
 10
60.2644
 20
-45.0908
 30
0.0
 10
58.6948
 20
-44.378
 30
0.0
 10
58.4944
 20
-43.5939
 30
0.0
 10
58.4944
 20
-43.5939
 30
0.0
 10
58.4944
 20
-43.5939
 30
0.0
 10
53.6187
 20
-45.1977
 30
0.0
 10
52.3496
 20
-40.3149
 30
0.0
 10
52.3496
 20
-40.3149
 30
0.0
 10
52.3496
 20
-40.3149
 30
0.0
 10
51.281
 20
-39.6378
 30
0.0
 10
51.281
 20
-38.6398
 30
0.0
 10
51.281
 20
-38.6398
 30
0.0
 10
51.281
 20
-38.6398
 30
0.0
 10
50.3793
 20
-41.0634
 30
0.0
 10
47.7411
 20
-40.6357
 30
0.0
 10
47.7411
 20
-40.6357
 30
0.0
 10
45.1028
 20
-40.208
 30
0.0
 10
46.0713
 20
-36.6439
 30
0.0
 10
46.0713
 20
-36.6439
 30
0.0
 10
46.0713
 20
-36.6439
 30
0.0
 10
46.0713
 20
-36.6439
 30
0.0
 10
47.6743
 20
-37.3924
 30
0.0
 10
47.9748
 20
-36.0024
 30
0.0
 10
47.9748
 20
-36.0024
 30
0.0
 10
48.2754
 20
-34.6124
 30
0.0
 10
45.5703
 20
-33.0799
 30
0.0
 10
42.7317
 20
-33.6145
 30
0.0
 10
42.7317
 20
-33.6145
 30
0.0
 10
39.8931
 20
-34.1491
 30
0.0
 10
38.958
 20
-36.537
 30
0.0
 10
38.7911
 20
-37.1429
 30
0.0
 10
38.7911
 20
-37.1429
 30
0.0
 10
38.6241
 20
-37.7488
 30
0.0
 10
40.1603
 20
-37.3211
 30
0.0
 10
40.0601
 20
-38.6398
 30
0.0
 10
40.0601
 20
-38.6398
 30
0.0
 10
39.9599
 20
-39.9585
 30
0.0
 10
38.9915
 20
-40.3506
 30
0.0
 10
38.9915
 20
-40.3506
 30
0.0
 10
38.9915
 20
-40.3506
 30
0.0
 10
38.9915
 20
-40.3506
 30
0.0
 10
40.895
 20
-40.9565
 30
0.0
 10
40.4609
 20
-43.2375
 30
0.0
 10
40.4609
 20
-43.2375
 30
0.0
 10
40.0267
 20
-45.5185
 30
0.0
 10
38.3569
 20
-45.768
 30
0.0
 10
38.3569
 20
-45.768
 30
0.0
 10
38.3569
 20
-45.768
 30
0.0
 10
38.3569
 20
-45.768
 30
0.0
 10
38.3569
 20
-43.6295
 30
0.0
 10
36.5202
 20
-44.3067
 30
0.0
 10
36.5202
 20
-44.3067
 30
0.0
 10
34.6834
 20
-44.9839
 30
0.0
 10
35.5517
 20
-53.0031
 30
0.0
 10
36.2196
 20
-54.7495
 30
0.0
  0
SPLINE
  5
8C
330
1F
100
AcDbEntity
  8
layer 1
 62
   250
100
AcDbSpline
210
0.0
220
0.0
230
1.0
 70
    11
 71
     3
 72
    28
 73
    24
 74
     0
 42
0.0000000001
 43
0.0000000001
 12
1.0
 22
0.0
 32
0.0
 13
1.0
 23
0.0
 33
0.0
 40
0.0
 40
0.0
 40
0.0
 40
0.0
 40
0.1428571428571428
 40
0.1428571428571428
 40
0.1428571428571428
 40
0.1428571428571428
 40
0.2857142857142857
 40
0.2857142857142857
 40
0.2857142857142857
 40
0.2857142857142857
 40
0.4285714285714285
 40
0.4285714285714285
 40
0.4285714285714285
 40
0.4285714285714285
 40
0.5714285714285714
 40
0.5714285714285714
 40
0.5714285714285714
 40
0.5714285714285714
 40
0.7142857142857143
 40
0.7142857142857143
 40
0.7142857142857143
 40
0.7142857142857143
 40
1.0
 40
1.0
 40
1.0
 40
1.0
 10
45.2553
 20
-28.706
 30
0.0
 10
45.2553
 20
-28.706
 30
0.0
 10
47.9507
 20
-27.2468
 30
0.0
 10
45.5003
 20
-25.1552
 30
0.0
 10
45.5003
 20
-25.1552
 30
0.0
 10
45.5003
 20
-25.1552
 30
0.0
 10
55.9481
 20
-21.6269
 30
0.0
 10
61.5258
 20
-29.8248
 30
0.0
 10
61.5258
 20
-29.8248
 30
0.0
 10
65.5444
 20
-36.5858
 30
0.0
 10
59.6635
 20
-38.9692
 30
0.0
 10
57.8992
 20
-38.8233
 30
0.0
 10
57.8992
 20
-38.8233
 30
0.0
 10
56.135
 20
-38.6774
 30
0.0
 10
55.9879
 20
-36.3426
 30
0.0
 10
56.478
 20
-34.8347
 30
0.0
 10
56.478
 20
-34.8347
 30
0.0
 10
56.9681
 20
-33.3269
 30
0.0
 10
53.5865
 20
-33.3269
 30
0.0
 10
51.7733
 20
-34.8834
 30
0.0
 10
51.7733
 20
-34.8834
 30
0.0
 10
51.7733
 20
-34.8834
 30
0.0
 10
51.9203
 20
-30.4084
 30
0.0
 10
45.2553
 20
-28.706
 30
0.0
  0
SPLINE
  5
8D
330
1F
100
AcDbEntity
  8
layer 1
 62
   250
100
AcDbSpline
210
0.0
220
0.0
230
1.0
 70
    11
 71
     3
 72
    28
 73
    24
 74
     0
 42
0.0000000001
 43
0.0000000001
 12
1.0
 22
0.0
 32
0.0
 13
1.0
 23
0.0
 33
0.0
 40
0.0
 40
0.0
 40
0.0
 40
0.0
 40
0.1428571428571428
 40
0.1428571428571428
 40
0.1428571428571428
 40
0.1428571428571428
 40
0.2857142857142857
 40
0.2857142857142857
 40
0.2857142857142857
 40
0.2857142857142857
 40
0.4285714285714285
 40
0.4285714285714285
 40
0.4285714285714285
 40
0.4285714285714285
 40
0.5714285714285714
 40
0.5714285714285714
 40
0.5714285714285714
 40
0.5714285714285714
 40
0.7142857142857143
 40
0.7142857142857143
 40
0.7142857142857143
 40
0.7142857142857143
 40
1.0
 40
1.0
 40
1.0
 40
1.0
 10
45.2553
 20
38.9529
 30
0.0
 10
45.2553
 20
38.9529
 30
0.0
 10
47.9507
 20
37.4937
 30
0.0
 10
45.5003
 20
35.4022
 30
0.0
 10
45.5003
 20
35.4022
 30
0.0
 10
45.5003
 20
35.4022
 30
0.0
 10
55.9481
 20
31.8738
 30
0.0
 10
61.5258
 20
40.0717
 30
0.0
 10
61.5258
 20
40.0717
 30
0.0
 10
65.5444
 20
46.8327
 30
0.0
 10
59.6635
 20
49.2161
 30
0.0
 10
57.8992
 20
49.0702
 30
0.0
 10
57.8992
 20
49.0702
 30
0.0
 10
56.135
 20
48.9243
 30
0.0
 10
55.9879
 20
46.5895
 30
0.0
 10
56.478
 20
45.0817
 30
0.0
 10
56.478
 20
45.0817
 30
0.0
 10
56.9681
 20
43.5738
 30
0.0
 10
53.5865
 20
43.5738
 30
0.0
 10
51.7733
 20
45.1303
 30
0.0
 10
51.7733
 20
45.1303
 30
0.0
 10
51.7733
 20
45.1303
 30
0.0
 10
51.9203
 20
40.6554
 30
0.0
 10
45.2553
 20
38.9529
 30
0.0
  0
ENDSEC
  0
SECTION
  2
OBJECTS
  0
DICTIONARY
  5
C
330
0
100
AcDbDictionary
281
     1
  3
ACAD_GROUP
350
D
  3
ACAD_LAYOUT
350
1A
  3
ACAD_MATERIAL
350
3B
  3
ACAD_MLEADERSTYLE
350
B0
  3
ACAD_MLINESTYLE
350
17
  3
ACAD_PLOTSETTINGS
350
19
  3
ACAD_PLOTSTYLENAME
350
E
  3
ACAD_TABLESTYLE
350
AF
  3
ACAD_VISUALSTYLE
350
2A
  0
DICTIONARY
  5
D
102
{ACAD_REACTORS
330
C
102
}
330
C
100
AcDbDictionary
281
     1
  0
DICTIONARY
  5
1A
102
{ACAD_REACTORS
330
C
102
}
330
C
100
AcDbDictionary
281
     1
  3
Layout1
350
1E
  3
Layout2
350
26
  3
Model
350
22
  0
DICTIONARY
  5
3B
102
{ACAD_REACTORS
330
C
102
}
330
C
100
AcDbDictionary
281
     1
  3
ByBlock
350
3D
  3
ByLayer
350
3C
  3
Global
350
3E
  0
DICTIONARY
  5
B0
102
{ACAD_REACTORS
330
C
102
}
330
C
100
AcDbDictionary
281
     1
  0
DICTIONARY
  5
17
102
{ACAD_REACTORS
330
C
102
}
330
C
100
AcDbDictionary
281
     1
  3
Standard
350
18
  0
DICTIONARY
  5
19
102
{ACAD_REACTORS
330
C
102
}
330
C
100
AcDbDictionary
281
     1
  0
ACDBDICTIONARYWDFLT
  5
E
102
{ACAD_REACTORS
330
C
102
}
330
C
100
AcDbDictionary
281
     1
  3
Normal
350
F
100
AcDbDictionaryWithDefault
340
F
  0
DICTIONARY
  5
AF
102
{ACAD_REACTORS
330
C
102
}
330
C
100
AcDbDictionary
281
     1
  0
DICTIONARY
  5
2A
102
{ACAD_REACTORS
330
C
102
}
330
C
100
AcDbDictionary
281
     1
  3
2dWireframe
350
2F
  3
3D Hidden
350
31
  3
3dWireframe
350
30
  3
Basic
350
32
  3
Brighten
350
36
  3
ColorChange
350
3A
  3
Conceptual
350
34
  3
Dim
350
35
  3
Facepattern
350
39
  3
Flat
350
2B
  3
FlatWithEdges
350
2C
  3
Gouraud
350
2D
  3
GouraudWithEdges
350
2E
  3
Linepattern
350
38
  3
Realistic
350
33
  3
Thicken
350
37
  0
LAYOUT
  5
1E
102
{ACAD_REACTORS
330
1A
102
}
330
1A
100
AcDbPlotSettings
  1

  2
none_device
  4

  6

 40
0.0
 41
0.0
 42
0.0
 43
0.0
 44
0.0
 45
0.0
 46
0.0
 47
0.0
 48
0.0
 49
0.0
140
0.0
141
0.0
142
1.0
143
1.0
 70
   688
 72
     0
 73
     0
 74
     5
  7

 75
    16
 76
     0
 77
     2
 78
   300
147
1.0
148
0.0
149
0.0
100
AcDbLayout
  1
Layout1
 70
     1
 71
     1
 10
0.0
 20
0.0
 11
12.0
 21
9.0
 12
0.0
 22
0.0
 32
0.0
 14
1.000000000000000E+20
 24
1.000000000000000E+20
 34
1.000000000000000E+20
 15
-1.000000000000000E+20
 25
-1.000000000000000E+20
 35
-1.000000000000000E+20
146
0.0
 13
0.0
 23
0.0
 33
0.0
 16
1.0
 26
0.0
 36
0.0
 17
0.0
 27
1.0
 37
0.0
 76
     0
330
1B
  0
LAYOUT
  5
26
102
{ACAD_REACTORS
330
1A
102
}
330
1A
100
AcDbPlotSettings
  1

  2
none_device
  4

  6

 40
0.0
 41
0.0
 42
0.0
 43
0.0
 44
0.0
 45
0.0
 46
0.0
 47
0.0
 48
0.0
 49
0.0
140
0.0
141
0.0
142
1.0
143
1.0
 70
   688
 72
     0
 73
     0
 74
     5
  7

 75
    16
 76
     0
 77
     2
 78
   300
147
1.0
148
0.0
149
0.0
100
AcDbLayout
  1
Layout2
 70
     1
 71
     2
 10
0.0
 20
0.0
 11
0.0
 21
0.0
 12
0.0
 22
0.0
 32
0.0
 14
0.0
 24
0.0
 34
0.0
 15
0.0
 25
0.0
 35
0.0
146
0.0
 13
0.0
 23
0.0
 33
0.0
 16
1.0
 26
0.0
 36
0.0
 17
0.0
 27
1.0
 37
0.0
 76
     0
330
23
  0
LAYOUT
  5
22
102
{ACAD_REACTORS
330
1A
102
}
330
1A
100
AcDbPlotSettings
  1

  2
none_device
  4

  6

 40
0.0
 41
0.0
 42
0.0
 43
0.0
 44
0.0
 45
0.0
 46
0.0
 47
0.0
 48
0.0
 49
0.0
140
0.0
141
0.0
142
1.0
143
1.0
 70
  1712
 72
     0
 73
     0
 74
     0
  7

 75
     0
 76
     0
 77
     2
 78
   300
147
1.0
148
0.0
149
0.0
100
AcDbLayout
  1
Model
 70
     1
 71
     0
 10
0.0
 20
0.0
 11
12.0
 21
9.0
 12
0.0
 22
0.0
 32
0.0
 14
-32.2562
 24
-106.3433
 34
0.0
 15
71.2415
 25
116.7402
 35
0.0
146
0.0
 13
0.0
 23
0.0
 33
0.0
 16
1.0
 26
0.0
 36
0.0
 17
0.0
 27
1.0
 37
0.0
 76
     0
330
1F
331
29
  0
MATERIAL
  5
3D
102
{ACAD_REACTORS
330
3B
102
}
330
3B
100
AcDbMaterial
  1
ByBlock
 72
     1
 94
      127
  0
MATERIAL
  5
3C
102
{ACAD_REACTORS
330
3B
102
}
330
3B
100
AcDbMaterial
  1
ByLayer
 72
     1
 94
      127
  0
MATERIAL
  5
3E
102
{ACAD_REACTORS
330
3B
102
}
330
3B
100
AcDbMaterial
  1
Global
 72
     1
 94
      127
  0
MLINESTYLE
  5
18
102
{ACAD_REACTORS
330
17
102
}
330
17
100
AcDbMlineStyle
  2
Standard
 70
     0
  3

 62
   256
 51
90.0
 52
90.0
 71
     2
 49
0.5
 62
   256
  6
BYLAYER
 49
-0.5
 62
   256
  6
BYLAYER
  0
ACDBPLACEHOLDER
  5
F
102
{ACAD_REACTORS
330
E
102
}
330
E
  0
VISUALSTYLE
  5
2F
102
{ACAD_REACTORS
330
2A
102
}
102
{ACAD_XDICTIONARY
360
97
102
}
330
2A
100
AcDbVisualStyle
  2
2dWireframe
 70
     4
 71
     0
 72
     2
 73
     0
 90
        0
 40
-0.6
 41
-30.0
 62
     5
 63
     7
421
 16777215
 74
     1
 91
        4
 64
     7
 65
   257
 75
     1
175
     1
 42
1.0
 92
        0
 66
   257
 43
1.0
 76
     1
 77
     6
 78
     2
 67
     7
 79
     5
170
     0
171
     0
290
     0
174
     0
 93
        1
 44
0.0
173
     0
291
     0
 45
0.0
  0
VISUALSTYLE
  5
31
102
{ACAD_REACTORS
330
2A
102
}
102
{ACAD_XDICTIONARY
360
9B
102
}
330
2A
100
AcDbVisualStyle
  2
3D Hidden
 70
     6
 71
     1
 72
     2
 73
     2
 90
        0
 40
-0.6
 41
-30.0
 62
     5
 63
     7
421
 16777215
 74
     2
 91
        2
 64
     7
 65
   257
 75
     2
175
     1
 42
40.0
 92
        0
 66
   257
 43
1.0
 76
     1
 77
     6
 78
     2
 67
     7
 79
     3
170
     0
171
     0
290
     0
174
     0
 93
        1
 44
0.0
173
     0
291
     0
 45
0.0
  0
VISUALSTYLE
  5
30
102
{ACAD_REACTORS
330
2A
102
}
102
{ACAD_XDICTIONARY
360
99
102
}
330
2A
100
AcDbVisualStyle
  2
3dWireframe
 70
     5
 71
     0
 72
     2
 73
     0
 90
        0
 40
-0.6
 41
-30.0
 62
     5
 63
     7
421
 16777215
 74
     1
 91
        4
 64
     7
 65
   257
 75
     1
175
     1
 42
1.0
 92
        0
 66
   257
 43
1.0
 76
     1
 77
     6
 78
     2
 67
     7
 79
     5
170
     0
171
     0
290
     0
174
     0
 93
        1
 44
0.0
173
     0
291
     0
 45
0.0
  0
VISUALSTYLE
  5
32
102
{ACAD_REACTORS
330
2A
102
}
102
{ACAD_XDICTIONARY
360
9D
102
}
330
2A
100
AcDbVisualStyle
  2
Basic
 70
     7
 71
     1
 72
     0
 73
     1
 90
        0
 40
-0.6
 41
-30.0
 62
     5
 63
     7
421
 16777215
 74
     0
 91
        4
 64
     7
 65
   257
 75
     1
175
     1
 42
1.0
 92
        8
 66
     7
 43
1.0
 76
     1
 77
     6
 78
     2
 67
     7
 79
     5
170
     0
171
     0
290
     0
174
     0
 93
        1
 44
0.0
173
     0
291
     1
 45
0.0
  0
VISUALSTYLE
  5
36
102
{ACAD_REACTORS
330
2A
102
}
102
{ACAD_XDICTIONARY
360
A5
102
}
330
2A
100
AcDbVisualStyle
  2
Brighten
 70
    12
 71
     2
 72
     2
 73
     0
 90
        0
 40
-0.6
 41
-30.0
 62
     5
 63
     7
421
 16777215
 74
     1
 91
        4
 64
     7
 65
   257
 75
     1
175
     1
 42
1.0
 92
        8
 66
     7
 43
1.0
 76
     1
 77
     6
 78
     2
 67
     7
 79
     5
170
     0
171
     0
290
     0
174
     0
 93
        1
 44
50.0
173
     0
291
     1
 45
0.0
  0
VISUALSTYLE
  5
3A
102
{ACAD_REACTORS
330
2A
102
}
102
{ACAD_XDICTIONARY
360
AD
102
}
330
2A
100
AcDbVisualStyle
  2
ColorChange
 70
    16
 71
     2
 72
     2
 73
     3
 90
        0
 40
-0.6
 41
-30.0
 62
     5
 63
     8
421
  8421504
 74
     1
 91
        4
 64
     7
 65
   257
 75
     1
175
     1
 42
1.0
 92
        8
 66
     8
424
  8421504
 43
1.0
 76
     1
 77
     6
 78
     2
 67
     7
 79
     5
170
     0
171
     0
290
     0
174
     0
 93
        1
 44
0.0
173
     0
291
     1
 45
0.0
  0
VISUALSTYLE
  5
34
102
{ACAD_REACTORS
330
2A
102
}
102
{ACAD_XDICTIONARY
360
A1
102
}
330
2A
100
AcDbVisualStyle
  2
Conceptual
 70
     9
 71
     3
 72
     2
 73
     0
 90
        0
 40
-0.6
 41
-30.0
 62
     5
 63
     7
421
 16777215
 74
     2
 91
        2
 64
     7
 65
   257
 75
     1
175
     1
 42
40.0
 92
        8
 66
     7
 43
1.0
 76
     1
 77
     6
 78
     2
 67
     7
 79
     3
170
     0
171
     0
290
     0
174
     0
 93
        1
 44
0.0
173
     0
291
     0
 45
0.0
  0
VISUALSTYLE
  5
35
102
{ACAD_REACTORS
330
2A
102
}
102
{ACAD_XDICTIONARY
360
A3
102
}
330
2A
100
AcDbVisualStyle
  2
Dim
 70
    11
 71
     2
 72
     2
 73
     0
 90
        0
 40
-0.6
 41
-30.0
 62
     5
 63
     7
421
 16777215
 74
     1
 91
        4
 64
     7
 65
   257
 75
     1
175
     1
 42
1.0
 92
        8
 66
     7
 43
1.0
 76
     1
 77
     6
 78
     2
 67
     7
 79
     5
170
     0
171
     0
290
     0
174
     0
 93
        1
 44
-50.0
173
     0
291
     1
 45
0.0
  0
VISUALSTYLE
  5
39
102
{ACAD_REACTORS
330
2A
102
}
102
{ACAD_XDICTIONARY
360
AB
102
}
330
2A
100
AcDbVisualStyle
  2
Facepattern
 70
    15
 71
     2
 72
     2
 73
     0
 90
        0
 40
-0.6
 41
-30.0
 62
     5
 63
     7
421
 16777215
 74
     1
 91
        4
 64
     7
 65
   257
 75
     1
175
     1
 42
1.0
 92
        8
 66
     7
 43
1.0
 76
     1
 77
     6
 78
     2
 67
     7
 79
     5
170
     0
171
     0
290
     0
174
     0
 93
        1
 44
0.0
173
     0
291
     1
 45
0.0
  0
VISUALSTYLE
  5
2B
102
{ACAD_REACTORS
330
2A
102
}
102
{ACAD_XDICTIONARY
360
8F
102
}
330
2A
100
AcDbVisualStyle
  2
Flat
 70
     0
 71
     2
 72
     1
 73
     1
 90
        2
 40
-0.6
 41
30.0
 62
     5
 63
     7
421
 16777215
 74
     0
 91
        4
 64
     7
 65
   257
 75
     1
175
     1
 42
1.0
 92
        8
 66
     7
 43
1.0
 76
     1
 77
     6
 78
     2
 67
     7
 79
     5
170
     0
171
     0
290
     0
174
     0
 93
       13
 44
0.0
173
     0
291
     1
 45
0.0
  0
VISUALSTYLE
  5
2C
102
{ACAD_REACTORS
330
2A
102
}
102
{ACAD_XDICTIONARY
360
91
102
}
330
2A
100
AcDbVisualStyle
  2
FlatWithEdges
 70
     1
 71
     2
 72
     1
 73
     1
 90
        2
 40
-0.6
 41
30.0
 62
     5
 63
     7
421
 16777215
 74
     1
 91
        4
 64
     7
 65
   257
 75
     1
175
     1
 42
1.0
 92
        0
 66
   257
 43
1.0
 76
     1
 77
     6
 78
     2
 67
     7
 79
     5
170
     0
171
     0
290
     0
174
     0
 93
       13
 44
0.0
173
     0
291
     1
 45
0.0
  0
VISUALSTYLE
  5
2D
102
{ACAD_REACTORS
330
2A
102
}
102
{ACAD_XDICTIONARY
360
93
102
}
330
2A
100
AcDbVisualStyle
  2
Gouraud
 70
     2
 71
     2
 72
     2
 73
     1
 90
        2
 40
-0.6
 41
30.0
 62
     5
 63
     7
421
 16777215
 74
     0
 91
        4
 64
     7
 65
   257
 75
     1
175
     1
 42
1.0
 92
        0
 66
     7
 43
1.0
 76
     1
 77
     6
 78
     2
 67
     7
 79
     5
170
     0
171
     0
290
     0
174
     0
 93
       13
 44
0.0
173
     0
291
     1
 45
0.0
  0
VISUALSTYLE
  5
2E
102
{ACAD_REACTORS
330
2A
102
}
102
{ACAD_XDICTIONARY
360
95
102
}
330
2A
100
AcDbVisualStyle
  2
GouraudWithEdges
 70
     3
 71
     2
 72
     2
 73
     1
 90
        2
 40
-0.6
 41
30.0
 62
     5
 63
     7
421
 16777215
 74
     1
 91
        4
 64
     7
 65
   257
 75
     1
175
     1
 42
1.0
 92
        0
 66
   257
 43
1.0
 76
     1
 77
     6
 78
     2
 67
     7
 79
     5
170
     0
171
     0
290
     0
174
     0
 93
       13
 44
0.0
173
     0
291
     1
 45
0.0
  0
VISUALSTYLE
  5
38
102
{ACAD_REACTORS
330
2A
102
}
102
{ACAD_XDICTIONARY
360
A9
102
}
330
2A
100
AcDbVisualStyle
  2
Linepattern
 70
    14
 71
     2
 72
     2
 73
     0
 90
        0
 40
-0.6
 41
-30.0
 62
     5
 63
     7
421
 16777215
 74
     1
 91
        4
 64
     7
 65
   257
 75
     7
175
     7
 42
1.0
 92
        8
 66
     7
 43
1.0
 76
     1
 77
     6
 78
     2
 67
     7
 79
     5
170
     0
171
     0
290
     0
174
     0
 93
        1
 44
0.0
173
     0
291
     1
 45
0.0
  0
VISUALSTYLE
  5
33
102
{ACAD_REACTORS
330
2A
102
}
102
{ACAD_XDICTIONARY
360
9F
102
}
330
2A
100
AcDbVisualStyle
  2
Realistic
 70
     8
 71
     2
 72
     2
 73
     0
 90
        0
 40
-0.6
 41
-30.0
 62
     5
 63
     7
421
 16777215
 74
     1
 91
        0
 64
     7
 65
   257
 75
     1
175
     1
 42
1.0
 92
        8
 66
     8
424
  7895160
 43
1.0
 76
     1
 77
     6
 78
     2
 67
     7
 79
     5
170
     0
171
     0
290
     0
174
     0
 93
       13
 44
0.0
173
     0
291
     0
 45
0.0
  0
VISUALSTYLE
  5
37
102
{ACAD_REACTORS
330
2A
102
}
102
{ACAD_XDICTIONARY
360
A7
102
}
330
2A
100
AcDbVisualStyle
  2
Thicken
 70
    13
 71
     2
 72
     2
 73
     0
 90
        0
 40
-0.6
 41
-30.0
 62
     5
 63
     7
421
 16777215
 74
     1
 91
        4
 64
     7
 65
   257
 75
     1
175
     1
 42
1.0
 92
       12
 66
     7
 43
1.0
 76
     1
 77
     6
 78
     2
 67
     7
 79
     5
170
     0
171
     0
290
     0
174
     0
 93
        1
 44
0.0
173
     0
291
     1
 45
0.0
  0
DICTIONARY
  5
97
330
2F
100
AcDbDictionary
280
     1
281
     1
  3
ACAD_XREC_ROUNDTRIP
360
98
  0
DICTIONARY
  5
9B
330
31
100
AcDbDictionary
280
     1
281
     1
  3
ACAD_XREC_ROUNDTRIP
360
9C
  0
DICTIONARY
  5
99
330
30
100
AcDbDictionary
280
     1
281
     1
  3
ACAD_XREC_ROUNDTRIP
360
9A
  0
DICTIONARY
  5
9D
330
32
100
AcDbDictionary
280
     1
281
     1
  3
ACAD_XREC_ROUNDTRIP
360
9E
  0
DICTIONARY
  5
A5
330
36
100
AcDbDictionary
280
     1
281
     1
  3
ACAD_XREC_ROUNDTRIP
360
A6
  0
DICTIONARY
  5
AD
330
3A
100
AcDbDictionary
280
     1
281
     1
  3
ACAD_XREC_ROUNDTRIP
360
AE
  0
DICTIONARY
  5
A1
330
34
100
AcDbDictionary
280
     1
281
     1
  3
ACAD_XREC_ROUNDTRIP
360
A2
  0
DICTIONARY
  5
A3
330
35
100
AcDbDictionary
280
     1
281
     1
  3
ACAD_XREC_ROUNDTRIP
360
A4
  0
DICTIONARY
  5
AB
330
39
100
AcDbDictionary
280
     1
281
     1
  3
ACAD_XREC_ROUNDTRIP
360
AC
  0
DICTIONARY
  5
8F
330
2B
100
AcDbDictionary
280
     1
281
     1
  3
ACAD_XREC_ROUNDTRIP
360
90
  0
DICTIONARY
  5
91
330
2C
100
AcDbDictionary
280
     1
281
     1
  3
ACAD_XREC_ROUNDTRIP
360
92
  0
DICTIONARY
  5
93
330
2D
100
AcDbDictionary
280
     1
281
     1
  3
ACAD_XREC_ROUNDTRIP
360
94
  0
DICTIONARY
  5
95
330
2E
100
AcDbDictionary
280
     1
281
     1
  3
ACAD_XREC_ROUNDTRIP
360
96
  0
DICTIONARY
  5
A9
330
38
100
AcDbDictionary
280
     1
281
     1
  3
ACAD_XREC_ROUNDTRIP
360
AA
  0
DICTIONARY
  5
9F
330
33
100
AcDbDictionary
280
     1
281
     1
  3
ACAD_XREC_ROUNDTRIP
360
A0
  0
DICTIONARY
  5
A7
330
37
100
AcDbDictionary
280
     1
281
     1
  3
ACAD_XREC_ROUNDTRIP
360
A8
  0
XRECORD
  5
98
102
{ACAD_REACTORS
330
97
102
}
330
97
100
AcDbXrecord
280
     1
102
RTVSPropertyOp0
 70
     1
102
RTVSPropertyOp1
 70
     1
102
RTVSPropertyOp2
 70
     1
102
RTVSPropertyOp3
 70
     1
102
RTVSPropertyOp4
 70
     1
102
RTVSPropertyOp5
 70
     1
102
RTVSPropertyOp6
 70
     1
102
RTVSPropertyOp7
 70
     1
102
RTVSPropertyOp8
 70
     1
102
RTVSPropertyOp9
 70
     1
102
RTVSPropertyOp10
 70
     1
102
RTVSPropertyOp11
 70
     1
102
RTVSPropertyOp12
 70
     1
102
RTVSPropertyOp13
 70
     1
102
RTVSPropertyOp14
 70
     1
102
RTVSPropertyOp15
 70
     1
102
RTVSPropertyOp16
 70
     1
102
RTVSPropertyOp17
 70
     1
102
RTVSPropertyOp18
 70
     1
102
RTVSPropertyOp19
 70
     1
102
RTVSPropertyOp20
 70
     1
102
RTVSPropertyOp21
 70
     1
102
RTVSPropertyOp22
 70
     1
102
RTVSPropertyOp23
 70
     1
102
RTVSPropertyOp24
 70
     1
102
RTVSPropertyOp25
 70
     1
102
RTVSPropertyOp26
 70
     1
102
RTVSPropertyOp27
 70
     1
102
RTVSPropertyOp28
 70
     1
102
RTVSPropertyOp29
 70
     1
102
RTVSPropertyOp30
 70
     1
102
RTVSPropertyOp31
 70
     1
102
RTVSPropertyOp32
 70
     1
  0
XRECORD
  5
9C
102
{ACAD_REACTORS
330
9B
102
}
330
9B
100
AcDbXrecord
280
     1
102
RTVSPropertyOp0
 70
     1
102
RTVSPropertyOp1
 70
     1
102
RTVSPropertyOp2
 70
     1
102
RTVSPropertyOp3
 70
     1
102
RTVSPropertyOp4
 70
     1
102
RTVSPropertyOp5
 70
     1
102
RTVSPropertyOp6
 70
     1
102
RTVSPropertyOp7
 70
     1
102
RTVSPropertyOp8
 70
     1
102
RTVSPropertyOp9
 70
     1
102
RTVSPropertyOp10
 70
     1
102
RTVSPropertyOp11
 70
     1
102
RTVSPropertyOp12
 70
     1
102
RTVSPropertyOp13
 70
     1
102
RTVSPropertyOp14
 70
     1
102
RTVSPropertyOp15
 70
     1
102
RTVSPropertyOp16
 70
     1
102
RTVSPropertyOp17
 70
     1
102
RTVSPropertyOp18
 70
     1
102
RTVSPropertyOp19
 70
     1
102
RTVSPropertyOp20
 70
     1
102
RTVSPropertyOp21
 70
     1
102
RTVSPropertyOp22
 70
     1
102
RTVSPropertyOp23
 70
     1
102
RTVSPropertyOp24
 70
     1
102
RTVSPropertyOp25
 70
     1
102
RTVSPropertyOp26
 70
     1
102
RTVSPropertyOp27
 70
     1
102
RTVSPropertyOp28
 70
     1
102
RTVSPropertyOp29
 70
     1
102
RTVSPropertyOp30
 70
     1
102
RTVSPropertyOp31
 70
     1
102
RTVSPropertyOp32
 70
     1
  0
XRECORD
  5
9A
102
{ACAD_REACTORS
330
99
102
}
330
99
100
AcDbXrecord
280
     1
102
RTVSPropertyOp0
 70
     1
102
RTVSPropertyOp1
 70
     1
102
RTVSPropertyOp2
 70
     1
102
RTVSPropertyOp3
 70
     1
102
RTVSPropertyOp4
 70
     1
102
RTVSPropertyOp5
 70
     1
102
RTVSPropertyOp6
 70
     1
102
RTVSPropertyOp7
 70
     1
102
RTVSPropertyOp8
 70
     1
102
RTVSPropertyOp9
 70
     1
102
RTVSPropertyOp10
 70
     1
102
RTVSPropertyOp11
 70
     1
102
RTVSPropertyOp12
 70
     1
102
RTVSPropertyOp13
 70
     1
102
RTVSPropertyOp14
 70
     1
102
RTVSPropertyOp15
 70
     1
102
RTVSPropertyOp16
 70
     1
102
RTVSPropertyOp17
 70
     1
102
RTVSPropertyOp18
 70
     1
102
RTVSPropertyOp19
 70
     1
102
RTVSPropertyOp20
 70
     1
102
RTVSPropertyOp21
 70
     1
102
RTVSPropertyOp22
 70
     1
102
RTVSPropertyOp23
 70
     1
102
RTVSPropertyOp24
 70
     1
102
RTVSPropertyOp25
 70
     1
102
RTVSPropertyOp26
 70
     1
102
RTVSPropertyOp27
 70
     1
102
RTVSPropertyOp28
 70
     1
102
RTVSPropertyOp29
 70
     1
102
RTVSPropertyOp30
 70
     1
102
RTVSPropertyOp31
 70
     1
102
RTVSPropertyOp32
 70
     1
  0
XRECORD
  5
9E
102
{ACAD_REACTORS
330
9D
102
}
330
9D
100
AcDbXrecord
280
     1
102
RTVSPropertyOp0
 70
     1
102
RTVSPropertyOp1
 70
     1
102
RTVSPropertyOp2
 70
     1
102
RTVSPropertyOp3
 70
     1
102
RTVSPropertyOp4
 70
     1
102
RTVSPropertyOp5
 70
     1
102
RTVSPropertyOp6
 70
     1
102
RTVSPropertyOp7
 70
     1
102
RTVSPropertyOp8
 70
     1
102
RTVSPropertyOp9
 70
     1
102
RTVSPropertyOp10
 70
     1
102
RTVSPropertyOp11
 70
     1
102
RTVSPropertyOp12
 70
     1
102
RTVSPropertyOp13
 70
     1
102
RTVSPropertyOp14
 70
     1
102
RTVSPropertyOp15
 70
     1
102
RTVSPropertyOp16
 70
     1
102
RTVSPropertyOp17
 70
     1
102
RTVSPropertyOp18
 70
     1
102
RTVSPropertyOp19
 70
     1
102
RTVSPropertyOp20
 70
     1
102
RTVSPropertyOp21
 70
     1
102
RTVSPropertyOp22
 70
     1
102
RTVSPropertyOp23
 70
     1
102
RTVSPropertyOp24
 70
     1
102
RTVSPropertyOp25
 70
     1
102
RTVSPropertyOp26
 70
     1
102
RTVSPropertyOp27
 70
     1
102
RTVSPropertyOp28
 70
     1
102
RTVSPropertyOp29
 70
     1
102
RTVSPropertyOp30
 70
     1
102
RTVSPropertyOp31
 70
     1
102
RTVSPropertyOp32
 70
     1
  0
XRECORD
  5
A6
102
{ACAD_REACTORS
330
A5
102
}
330
A5
100
AcDbXrecord
280
     1
102
RTVSPropertyOp0
 70
     1
102
RTVSPropertyOp1
 70
     1
102
RTVSPropertyOp2
 70
     1
102
RTVSPropertyOp3
 70
     1
102
RTVSPropertyOp4
 70
     1
102
RTVSPropertyOp5
 70
     1
102
RTVSPropertyOp6
 70
     1
102
RTVSPropertyOp7
 70
     1
102
RTVSPropertyOp8
 70
     1
102
RTVSPropertyOp9
 70
     1
102
RTVSPropertyOp10
 70
     1
102
RTVSPropertyOp11
 70
     1
102
RTVSPropertyOp12
 70
     1
102
RTVSPropertyOp13
 70
     1
102
RTVSPropertyOp14
 70
     1
102
RTVSPropertyOp15
 70
     1
102
RTVSPropertyOp16
 70
     1
102
RTVSPropertyOp17
 70
     1
102
RTVSPropertyOp18
 70
     1
102
RTVSPropertyOp19
 70
     1
102
RTVSPropertyOp20
 70
     1
102
RTVSPropertyOp21
 70
     1
102
RTVSPropertyOp22
 70
     1
102
RTVSPropertyOp23
 70
     1
102
RTVSPropertyOp24
 70
     1
102
RTVSPropertyOp25
 70
     1
102
RTVSPropertyOp26
 70
     1
102
RTVSPropertyOp27
 70
     1
102
RTVSPropertyOp28
 70
     1
102
RTVSPropertyOp29
 70
     1
102
RTVSPropertyOp30
 70
     1
102
RTVSPropertyOp31
 70
     1
102
RTVSPropertyOp32
 70
     1
  0
XRECORD
  5
AE
102
{ACAD_REACTORS
330
AD
102
}
330
AD
100
AcDbXrecord
280
     1
102
RTVSPropertyOp0
 70
     1
102
RTVSPropertyOp1
 70
     1
102
RTVSPropertyOp2
 70
     1
102
RTVSPropertyOp3
 70
     1
102
RTVSPropertyOp4
 70
     1
102
RTVSPropertyOp5
 70
     1
102
RTVSPropertyOp6
 70
     1
102
RTVSPropertyOp7
 70
     1
102
RTVSPropertyOp8
 70
     1
102
RTVSPropertyOp9
 70
     1
102
RTVSPropertyOp10
 70
     1
102
RTVSPropertyOp11
 70
     1
102
RTVSPropertyOp12
 70
     1
102
RTVSPropertyOp13
 70
     1
102
RTVSPropertyOp14
 70
     1
102
RTVSPropertyOp15
 70
     1
102
RTVSPropertyOp16
 70
     1
102
RTVSPropertyOp17
 70
     1
102
RTVSPropertyOp18
 70
     1
102
RTVSPropertyOp19
 70
     1
102
RTVSPropertyOp20
 70
     1
102
RTVSPropertyOp21
 70
     1
102
RTVSPropertyOp22
 70
     1
102
RTVSPropertyOp23
 70
     1
102
RTVSPropertyOp24
 70
     1
102
RTVSPropertyOp25
 70
     1
102
RTVSPropertyOp26
 70
     1
102
RTVSPropertyOp27
 70
     1
102
RTVSPropertyOp28
 70
     1
102
RTVSPropertyOp29
 70
     1
102
RTVSPropertyOp30
 70
     1
102
RTVSPropertyOp31
 70
     1
102
RTVSPropertyOp32
 70
     1
  0
XRECORD
  5
A2
102
{ACAD_REACTORS
330
A1
102
}
330
A1
100
AcDbXrecord
280
     1
102
RTVSPropertyOp0
 70
     1
102
RTVSPropertyOp1
 70
     1
102
RTVSPropertyOp2
 70
     1
102
RTVSPropertyOp3
 70
     1
102
RTVSPropertyOp4
 70
     1
102
RTVSPropertyOp5
 70
     1
102
RTVSPropertyOp6
 70
     1
102
RTVSPropertyOp7
 70
     1
102
RTVSPropertyOp8
 70
     1
102
RTVSPropertyOp9
 70
     1
102
RTVSPropertyOp10
 70
     1
102
RTVSPropertyOp11
 70
     1
102
RTVSPropertyOp12
 70
     1
102
RTVSPropertyOp13
 70
     1
102
RTVSPropertyOp14
 70
     1
102
RTVSPropertyOp15
 70
     1
102
RTVSPropertyOp16
 70
     1
102
RTVSPropertyOp17
 70
     1
102
RTVSPropertyOp18
 70
     1
102
RTVSPropertyOp19
 70
     1
102
RTVSPropertyOp20
 70
     1
102
RTVSPropertyOp21
 70
     1
102
RTVSPropertyOp22
 70
     1
102
RTVSPropertyOp23
 70
     1
102
RTVSPropertyOp24
 70
     1
102
RTVSPropertyOp25
 70
     1
102
RTVSPropertyOp26
 70
     1
102
RTVSPropertyOp27
 70
     1
102
RTVSPropertyOp28
 70
     1
102
RTVSPropertyOp29
 70
     1
102
RTVSPropertyOp30
 70
     1
102
RTVSPropertyOp31
 70
     1
102
RTVSPropertyOp32
 70
     1
  0
XRECORD
  5
A4
102
{ACAD_REACTORS
330
A3
102
}
330
A3
100
AcDbXrecord
280
     1
102
RTVSPropertyOp0
 70
     1
102
RTVSPropertyOp1
 70
     1
102
RTVSPropertyOp2
 70
     1
102
RTVSPropertyOp3
 70
     1
102
RTVSPropertyOp4
 70
     1
102
RTVSPropertyOp5
 70
     1
102
RTVSPropertyOp6
 70
     1
102
RTVSPropertyOp7
 70
     1
102
RTVSPropertyOp8
 70
     1
102
RTVSPropertyOp9
 70
     1
102
RTVSPropertyOp10
 70
     1
102
RTVSPropertyOp11
 70
     1
102
RTVSPropertyOp12
 70
     1
102
RTVSPropertyOp13
 70
     1
102
RTVSPropertyOp14
 70
     1
102
RTVSPropertyOp15
 70
     1
102
RTVSPropertyOp16
 70
     1
102
RTVSPropertyOp17
 70
     1
102
RTVSPropertyOp18
 70
     1
102
RTVSPropertyOp19
 70
     1
102
RTVSPropertyOp20
 70
     1
102
RTVSPropertyOp21
 70
     1
102
RTVSPropertyOp22
 70
     1
102
RTVSPropertyOp23
 70
     1
102
RTVSPropertyOp24
 70
     1
102
RTVSPropertyOp25
 70
     1
102
RTVSPropertyOp26
 70
     1
102
RTVSPropertyOp27
 70
     1
102
RTVSPropertyOp28
 70
     1
102
RTVSPropertyOp29
 70
     1
102
RTVSPropertyOp30
 70
     1
102
RTVSPropertyOp31
 70
     1
102
RTVSPropertyOp32
 70
     1
  0
XRECORD
  5
AC
102
{ACAD_REACTORS
330
AB
102
}
330
AB
100
AcDbXrecord
280
     1
102
RTVSPropertyOp0
 70
     1
102
RTVSPropertyOp1
 70
     1
102
RTVSPropertyOp2
 70
     1
102
RTVSPropertyOp3
 70
     1
102
RTVSPropertyOp4
 70
     1
102
RTVSPropertyOp5
 70
     1
102
RTVSPropertyOp6
 70
     1
102
RTVSPropertyOp7
 70
     1
102
RTVSPropertyOp8
 70
     1
102
RTVSPropertyOp9
 70
     1
102
RTVSPropertyOp10
 70
     1
102
RTVSPropertyOp11
 70
     1
102
RTVSPropertyOp12
 70
     1
102
RTVSPropertyOp13
 70
     1
102
RTVSPropertyOp14
 70
     1
102
RTVSPropertyOp15
 70
     1
102
RTVSPropertyOp16
 70
     1
102
RTVSPropertyOp17
 70
     1
102
RTVSPropertyOp18
 70
     1
102
RTVSPropertyOp19
 70
     1
102
RTVSPropertyOp20
 70
     1
102
RTVSPropertyOp21
 70
     1
102
RTVSPropertyOp22
 70
     1
102
RTVSPropertyOp23
 70
     1
102
RTVSPropertyOp24
 70
     1
102
RTVSPropertyOp25
 70
     1
102
RTVSPropertyOp26
 70
     1
102
RTVSPropertyOp27
 70
     1
102
RTVSPropertyOp28
 70
     1
102
RTVSPropertyOp29
 70
     1
102
RTVSPropertyOp30
 70
     1
102
RTVSPropertyOp31
 70
     1
102
RTVSPropertyOp32
 70
     1
  0
XRECORD
  5
90
102
{ACAD_REACTORS
330
8F
102
}
330
8F
100
AcDbXrecord
280
     1
102
RTVSPropertyOp0
 70
     1
102
RTVSPropertyOp1
 70
     1
102
RTVSPropertyOp2
 70
     1
102
RTVSPropertyOp3
 70
     1
102
RTVSPropertyOp4
 70
     1
102
RTVSPropertyOp5
 70
     1
102
RTVSPropertyOp6
 70
     1
102
RTVSPropertyOp7
 70
     1
102
RTVSPropertyOp8
 70
     1
102
RTVSPropertyOp9
 70
     1
102
RTVSPropertyOp10
 70
     1
102
RTVSPropertyOp11
 70
     1
102
RTVSPropertyOp12
 70
     1
102
RTVSPropertyOp13
 70
     1
102
RTVSPropertyOp14
 70
     1
102
RTVSPropertyOp15
 70
     1
102
RTVSPropertyOp16
 70
     1
102
RTVSPropertyOp17
 70
     1
102
RTVSPropertyOp18
 70
     1
102
RTVSPropertyOp19
 70
     1
102
RTVSPropertyOp20
 70
     1
102
RTVSPropertyOp21
 70
     1
102
RTVSPropertyOp22
 70
     1
102
RTVSPropertyOp23
 70
     1
102
RTVSPropertyOp24
 70
     1
102
RTVSPropertyOp25
 70
     1
102
RTVSPropertyOp26
 70
     1
102
RTVSPropertyOp27
 70
     1
102
RTVSPropertyOp28
 70
     1
102
RTVSPropertyOp29
 70
     1
102
RTVSPropertyOp30
 70
     1
102
RTVSPropertyOp31
 70
     1
102
RTVSPropertyOp32
 70
     1
  0
XRECORD
  5
92
102
{ACAD_REACTORS
330
91
102
}
330
91
100
AcDbXrecord
280
     1
102
RTVSPropertyOp0
 70
     1
102
RTVSPropertyOp1
 70
     1
102
RTVSPropertyOp2
 70
     1
102
RTVSPropertyOp3
 70
     1
102
RTVSPropertyOp4
 70
     1
102
RTVSPropertyOp5
 70
     1
102
RTVSPropertyOp6
 70
     1
102
RTVSPropertyOp7
 70
     1
102
RTVSPropertyOp8
 70
     1
102
RTVSPropertyOp9
 70
     1
102
RTVSPropertyOp10
 70
     1
102
RTVSPropertyOp11
 70
     1
102
RTVSPropertyOp12
 70
     1
102
RTVSPropertyOp13
 70
     1
102
RTVSPropertyOp14
 70
     1
102
RTVSPropertyOp15
 70
     1
102
RTVSPropertyOp16
 70
     1
102
RTVSPropertyOp17
 70
     1
102
RTVSPropertyOp18
 70
     1
102
RTVSPropertyOp19
 70
     1
102
RTVSPropertyOp20
 70
     1
102
RTVSPropertyOp21
 70
     1
102
RTVSPropertyOp22
 70
     1
102
RTVSPropertyOp23
 70
     1
102
RTVSPropertyOp24
 70
     1
102
RTVSPropertyOp25
 70
     1
102
RTVSPropertyOp26
 70
     1
102
RTVSPropertyOp27
 70
     1
102
RTVSPropertyOp28
 70
     1
102
RTVSPropertyOp29
 70
     1
102
RTVSPropertyOp30
 70
     1
102
RTVSPropertyOp31
 70
     1
102
RTVSPropertyOp32
 70
     1
  0
XRECORD
  5
94
102
{ACAD_REACTORS
330
93
102
}
330
93
100
AcDbXrecord
280
     1
102
RTVSPropertyOp0
 70
     1
102
RTVSPropertyOp1
 70
     1
102
RTVSPropertyOp2
 70
     1
102
RTVSPropertyOp3
 70
     1
102
RTVSPropertyOp4
 70
     1
102
RTVSPropertyOp5
 70
     1
102
RTVSPropertyOp6
 70
     1
102
RTVSPropertyOp7
 70
     1
102
RTVSPropertyOp8
 70
     1
102
RTVSPropertyOp9
 70
     1
102
RTVSPropertyOp10
 70
     1
102
RTVSPropertyOp11
 70
     1
102
RTVSPropertyOp12
 70
     1
102
RTVSPropertyOp13
 70
     1
102
RTVSPropertyOp14
 70
     1
102
RTVSPropertyOp15
 70
     1
102
RTVSPropertyOp16
 70
     1
102
RTVSPropertyOp17
 70
     1
102
RTVSPropertyOp18
 70
     1
102
RTVSPropertyOp19
 70
     1
102
RTVSPropertyOp20
 70
     1
102
RTVSPropertyOp21
 70
     1
102
RTVSPropertyOp22
 70
     1
102
RTVSPropertyOp23
 70
     1
102
RTVSPropertyOp24
 70
     1
102
RTVSPropertyOp25
 70
     1
102
RTVSPropertyOp26
 70
     1
102
RTVSPropertyOp27
 70
     1
102
RTVSPropertyOp28
 70
     1
102
RTVSPropertyOp29
 70
     1
102
RTVSPropertyOp30
 70
     1
102
RTVSPropertyOp31
 70
     1
102
RTVSPropertyOp32
 70
     1
  0
XRECORD
  5
96
102
{ACAD_REACTORS
330
95
102
}
330
95
100
AcDbXrecord
280
     1
102
RTVSPropertyOp0
 70
     1
102
RTVSPropertyOp1
 70
     1
102
RTVSPropertyOp2
 70
     1
102
RTVSPropertyOp3
 70
     1
102
RTVSPropertyOp4
 70
     1
102
RTVSPropertyOp5
 70
     1
102
RTVSPropertyOp6
 70
     1
102
RTVSPropertyOp7
 70
     1
102
RTVSPropertyOp8
 70
     1
102
RTVSPropertyOp9
 70
     1
102
RTVSPropertyOp10
 70
     1
102
RTVSPropertyOp11
 70
     1
102
RTVSPropertyOp12
 70
     1
102
RTVSPropertyOp13
 70
     1
102
RTVSPropertyOp14
 70
     1
102
RTVSPropertyOp15
 70
     1
102
RTVSPropertyOp16
 70
     1
102
RTVSPropertyOp17
 70
     1
102
RTVSPropertyOp18
 70
     1
102
RTVSPropertyOp19
 70
     1
102
RTVSPropertyOp20
 70
     1
102
RTVSPropertyOp21
 70
     1
102
RTVSPropertyOp22
 70
     1
102
RTVSPropertyOp23
 70
     1
102
RTVSPropertyOp24
 70
     1
102
RTVSPropertyOp25
 70
     1
102
RTVSPropertyOp26
 70
     1
102
RTVSPropertyOp27
 70
     1
102
RTVSPropertyOp28
 70
     1
102
RTVSPropertyOp29
 70
     1
102
RTVSPropertyOp30
 70
     1
102
RTVSPropertyOp31
 70
     1
102
RTVSPropertyOp32
 70
     1
  0
XRECORD
  5
AA
102
{ACAD_REACTORS
330
A9
102
}
330
A9
100
AcDbXrecord
280
     1
102
RTVSPropertyOp0
 70
     1
102
RTVSPropertyOp1
 70
     1
102
RTVSPropertyOp2
 70
     1
102
RTVSPropertyOp3
 70
     1
102
RTVSPropertyOp4
 70
     1
102
RTVSPropertyOp5
 70
     1
102
RTVSPropertyOp6
 70
     1
102
RTVSPropertyOp7
 70
     1
102
RTVSPropertyOp8
 70
     1
102
RTVSPropertyOp9
 70
     1
102
RTVSPropertyOp10
 70
     1
102
RTVSPropertyOp11
 70
     1
102
RTVSPropertyOp12
 70
     1
102
RTVSPropertyOp13
 70
     1
102
RTVSPropertyOp14
 70
     1
102
RTVSPropertyOp15
 70
     1
102
RTVSPropertyOp16
 70
     1
102
RTVSPropertyOp17
 70
     1
102
RTVSPropertyOp18
 70
     1
102
RTVSPropertyOp19
 70
     1
102
RTVSPropertyOp20
 70
     1
102
RTVSPropertyOp21
 70
     1
102
RTVSPropertyOp22
 70
     1
102
RTVSPropertyOp23
 70
     1
102
RTVSPropertyOp24
 70
     1
102
RTVSPropertyOp25
 70
     1
102
RTVSPropertyOp26
 70
     1
102
RTVSPropertyOp27
 70
     1
102
RTVSPropertyOp28
 70
     1
102
RTVSPropertyOp29
 70
     1
102
RTVSPropertyOp30
 70
     1
102
RTVSPropertyOp31
 70
     1
102
RTVSPropertyOp32
 70
     1
  0
XRECORD
  5
A0
102
{ACAD_REACTORS
330
9F
102
}
330
9F
100
AcDbXrecord
280
     1
102
RTVSPropertyOp0
 70
     1
102
RTVSPropertyOp1
 70
     1
102
RTVSPropertyOp2
 70
     1
102
RTVSPropertyOp3
 70
     1
102
RTVSPropertyOp4
 70
     1
102
RTVSPropertyOp5
 70
     1
102
RTVSPropertyOp6
 70
     1
102
RTVSPropertyOp7
 70
     1
102
RTVSPropertyOp8
 70
     1
102
RTVSPropertyOp9
 70
     1
102
RTVSPropertyOp10
 70
     1
102
RTVSPropertyOp11
 70
     1
102
RTVSPropertyOp12
 70
     1
102
RTVSPropertyOp13
 70
     1
102
RTVSPropertyOp14
 70
     1
102
RTVSPropertyOp15
 70
     1
102
RTVSPropertyOp16
 70
     1
102
RTVSPropertyOp17
 70
     1
102
RTVSPropertyOp18
 70
     1
102
RTVSPropertyOp19
 70
     1
102
RTVSPropertyOp20
 70
     1
102
RTVSPropertyOp21
 70
     1
102
RTVSPropertyOp22
 70
     1
102
RTVSPropertyOp23
 70
     1
102
RTVSPropertyOp24
 70
     1
102
RTVSPropertyOp25
 70
     1
102
RTVSPropertyOp26
 70
     1
102
RTVSPropertyOp27
 70
     1
102
RTVSPropertyOp28
 70
     1
102
RTVSPropertyOp29
 70
     1
102
RTVSPropertyOp30
 70
     1
102
RTVSPropertyOp31
 70
     1
102
RTVSPropertyOp32
 70
     1
  0
XRECORD
  5
A8
102
{ACAD_REACTORS
330
A7
102
}
330
A7
100
AcDbXrecord
280
     1
102
RTVSPropertyOp0
 70
     1
102
RTVSPropertyOp1
 70
     1
102
RTVSPropertyOp2
 70
     1
102
RTVSPropertyOp3
 70
     1
102
RTVSPropertyOp4
 70
     1
102
RTVSPropertyOp5
 70
     1
102
RTVSPropertyOp6
 70
     1
102
RTVSPropertyOp7
 70
     1
102
RTVSPropertyOp8
 70
     1
102
RTVSPropertyOp9
 70
     1
102
RTVSPropertyOp10
 70
     1
102
RTVSPropertyOp11
 70
     1
102
RTVSPropertyOp12
 70
     1
102
RTVSPropertyOp13
 70
     1
102
RTVSPropertyOp14
 70
     1
102
RTVSPropertyOp15
 70
     1
102
RTVSPropertyOp16
 70
     1
102
RTVSPropertyOp17
 70
     1
102
RTVSPropertyOp18
 70
     1
102
RTVSPropertyOp19
 70
     1
102
RTVSPropertyOp20
 70
     1
102
RTVSPropertyOp21
 70
     1
102
RTVSPropertyOp22
 70
     1
102
RTVSPropertyOp23
 70
     1
102
RTVSPropertyOp24
 70
     1
102
RTVSPropertyOp25
 70
     1
102
RTVSPropertyOp26
 70
     1
102
RTVSPropertyOp27
 70
     1
102
RTVSPropertyOp28
 70
     1
102
RTVSPropertyOp29
 70
     1
102
RTVSPropertyOp30
 70
     1
102
RTVSPropertyOp31
 70
     1
102
RTVSPropertyOp32
 70
     1
  0
ENDSEC
  0
EOF
