  0
SECTION
  2
HEADER
  9
$ACADVER
  1
AC1021
  9
$ACADMAINTVER
 70
    25
  9
$DWGCODEPAGE
  3
ANSI_1252
  9
$INSBASE
 10
0.0
 20
0.0
 30
0.0
  9
$EXTMIN
 10
10.1593
 20
-114.9672
 30
0.0
  9
$EXTMAX
 10
196.3442
 20
131.8441
 30
0.0
  9
$LIMMIN
 10
0.0
 20
0.0
  9
$LIMMAX
 10
12.0
 20
9.0
  9
$ORTHOMODE
 70
     0
  9
$REGENMODE
 70
     1
  9
$FILLMODE
 70
     1
  9
$QTEXTMODE
 70
     0
  9
$MIRRTEXT
 70
     1
  9
$LTSCALE
 40
1.0
  9
$ATTMODE
 70
     1
  9
$TEXTSIZE
 40
0.2
  9
$TRACEWID
 40
0.05
  9
$TEXTSTYLE
  7
Standard
  9
$CLAYER
  8
0
  9
$CELTYPE
  6
ByLayer
  9
$CECOLOR
 62
   256
  9
$CELTSCALE
 40
1.0
  9
$DISPSILH
 70
     0
  9
$DIMSCALE
 40
1.0
  9
$DIMASZ
 40
0.18
  9
$DIMEXO
 40
0.0625
  9
$DIMDLI
 40
0.38
  9
$DIMRND
 40
0.0
  9
$DIMDLE
 40
0.0
  9
$DIMEXE
 40
0.18
  9
$DIMTP
 40
0.0
  9
$DIMTM
 40
0.0
  9
$DIMTXT
 40
0.18
  9
$DIMCEN
 40
0.09
  9
$DIMTSZ
 40
0.0
  9
$DIMTOL
 70
     0
  9
$DIMLIM
 70
     0
  9
$DIMTIH
 70
     1
  9
$DIMTOH
 70
     1
  9
$DIMSE1
 70
     0
  9
$DIMSE2
 70
     0
  9
$DIMTAD
 70
     0
  9
$DIMZIN
 70
     0
  9
$DIMBLK
  1

  9
$DIMASO
 70
     1
  9
$DIMSHO
 70
     1
  9
$DIMPOST
  1

  9
$DIMAPOST
  1

  9
$DIMALT
 70
     0
  9
$DIMALTD
 70
     2
  9
$DIMALTF
 40
25.4
  9
$DIMLFAC
 40
1.0
  9
$DIMTOFL
 70
     0
  9
$DIMTVP
 40
0.0
  9
$DIMTIX
 70
     0
  9
$DIMSOXD
 70
     0
  9
$DIMSAH
 70
     0
  9
$DIMBLK1
  1

  9
$DIMBLK2
  1

  9
$DIMSTYLE
  2
Standard
  9
$DIMCLRD
 70
     0
  9
$DIMCLRE
 70
     0
  9
$DIMCLRT
 70
     0
  9
$DIMTFAC
 40
1.0
  9
$DIMGAP
 40
0.09
  9
$DIMJUST
 70
     0
  9
$DIMSD1
 70
     0
  9
$DIMSD2
 70
     0
  9
$DIMTOLJ
 70
     1
  9
$DIMTZIN
 70
     0
  9
$DIMALTZ
 70
     0
  9
$DIMALTTZ
 70
     0
  9
$DIMUPT
 70
     0
  9
$DIMDEC
 70
     4
  9
$DIMTDEC
 70
     4
  9
$DIMALTU
 70
     2
  9
$DIMALTTD
 70
     2
  9
$DIMTXSTY
  7
Standard
  9
$DIMAUNIT
 70
     0
  9
$DIMADEC
 70
     0
  9
$DIMALTRND
 40
0.0
  9
$DIMAZIN
 70
     0
  9
$DIMDSEP
 70
    46
  9
$DIMATFIT
 70
     3
  9
$DIMFRAC
 70
     0
  9
$DIMLDRBLK
  1

  9
$DIMLUNIT
 70
     2
  9
$DIMLWD
 70
    -2
  9
$DIMLWE
 70
    -2
  9
$DIMTMOVE
 70
     0
  9
$DIMFXL
 40
1.0
  9
$DIMFXLON
 70
     0
  9
$DIMJOGANG
 40
0.7853981633974483
  9
$DIMTFILL
 70
     0
  9
$DIMTFILLCLR
 70
     0
  9
$DIMARCSYM
 70
     0
  9
$DIMLTYPE
  6

  9
$DIMLTEX1
  6

  9
$DIMLTEX2
  6

  9
$LUNITS
 70
     2
  9
$LUPREC
 70
     4
  9
$SKETCHINC
 40
0.1
  9
$FILLETRAD
 40
0.5
  9
$AUNITS
 70
     0
  9
$AUPREC
 70
     0
  9
$MENU
  1
.
  9
$ELEVATION
 40
0.0
  9
$PELEVATION
 40
0.0
  9
$THICKNESS
 40
0.0
  9
$LIMCHECK
 70
     0
  9
$CHAMFERA
 40
0.5
  9
$CHAMFERB
 40
0.5
  9
$CHAMFERC
 40
1.0
  9
$CHAMFERD
 40
0.0
  9
$SKPOLY
 70
     0
  9
$TDCREATE
 40
2458492.561103773
  9
$TDUCREATE
 40
2458492.561103773
  9
$TDUPDATE
 40
2458492.561103889
  9
$TDUUPDATE
 40
2458492.561103889
  9
$TDINDWG
 40
0.0000000116
  9
$TDUSRTIMER
 40
0.0000000116
  9
$USRTIMER
 70
     1
  9
$ANGBASE
 50
0.0
  9
$ANGDIR
 70
     0
  9
$PDMODE
 70
     0
  9
$PDSIZE
 40
0.0
  9
$PLINEWID
 40
0.0
  9
$SPLFRAME
 70
     0
  9
$SPLINETYPE
 70
     6
  9
$SPLINESEGS
 70
     8
  9
$HANDSEED
  5
CA
  9
$SURFTAB1
 70
     6
  9
$SURFTAB2
 70
     6
  9
$SURFTYPE
 70
     6
  9
$SURFU
 70
     6
  9
$SURFV
 70
     6
  9
$UCSBASE
  2

  9
$UCSNAME
  2

  9
$UCSORG
 10
0.0
 20
0.0
 30
0.0
  9
$UCSXDIR
 10
1.0
 20
0.0
 30
0.0
  9
$UCSYDIR
 10
0.0
 20
1.0
 30
0.0
  9
$UCSORTHOREF
  2

  9
$UCSORTHOVIEW
 70
     0
  9
$UCSORGTOP
 10
0.0
 20
0.0
 30
0.0
  9
$UCSORGBOTTOM
 10
0.0
 20
0.0
 30
0.0
  9
$UCSORGLEFT
 10
0.0
 20
0.0
 30
0.0
  9
$UCSORGRIGHT
 10
0.0
 20
0.0
 30
0.0
  9
$UCSORGFRONT
 10
0.0
 20
0.0
 30
0.0
  9
$UCSORGBACK
 10
0.0
 20
0.0
 30
0.0
  9
$PUCSBASE
  2

  9
$PUCSNAME
  2

  9
$PUCSORG
 10
0.0
 20
0.0
 30
0.0
  9
$PUCSXDIR
 10
1.0
 20
0.0
 30
0.0
  9
$PUCSYDIR
 10
0.0
 20
1.0
 30
0.0
  9
$PUCSORTHOREF
  2

  9
$PUCSORTHOVIEW
 70
     0
  9
$PUCSORGTOP
 10
0.0
 20
0.0
 30
0.0
  9
$PUCSORGBOTTOM
 10
0.0
 20
0.0
 30
0.0
  9
$PUCSORGLEFT
 10
0.0
 20
0.0
 30
0.0
  9
$PUCSORGRIGHT
 10
0.0
 20
0.0
 30
0.0
  9
$PUCSORGFRONT
 10
0.0
 20
0.0
 30
0.0
  9
$PUCSORGBACK
 10
0.0
 20
0.0
 30
0.0
  9
$USERI1
 70
     0
  9
$USERI2
 70
     0
  9
$USERI3
 70
     0
  9
$USERI4
 70
     0
  9
$USERI5
 70
     0
  9
$USERR1
 40
0.0
  9
$USERR2
 40
0.0
  9
$USERR3
 40
0.0
  9
$USERR4
 40
0.0
  9
$USERR5
 40
0.0
  9
$WORLDVIEW
 70
     1
  9
$SHADEDGE
 70
     3
  9
$SHADEDIF
 70
    70
  9
$TILEMODE
 70
     1
  9
$MAXACTVP
 70
    64
  9
$PINSBASE
 10
0.0
 20
0.0
 30
0.0
  9
$PLIMCHECK
 70
     0
  9
$PEXTMIN
 10
1.000000000000000E+20
 20
1.000000000000000E+20
 30
1.000000000000000E+20
  9
$PEXTMAX
 10
-1.000000000000000E+20
 20
-1.000000000000000E+20
 30
-1.000000000000000E+20
  9
$PLIMMIN
 10
0.0
 20
0.0
  9
$PLIMMAX
 10
12.0
 20
9.0
  9
$UNITMODE
 70
     0
  9
$VISRETAIN
 70
     1
  9
$PLINEGEN
 70
     0
  9
$PSLTSCALE
 70
     1
  9
$TREEDEPTH
 70
  3020
  9
$CMLSTYLE
  2
Standard
  9
$CMLJUST
 70
     0
  9
$CMLSCALE
 40
1.0
  9
$PROXYGRAPHICS
 70
     1
  9
$MEASUREMENT
 70
     0
  9
$CELWEIGHT
370
    -1
  9
$ENDCAPS
280
     0
  9
$JOINSTYLE
280
     0
  9
$LWDISPLAY
290
     0
  9
$INSUNITS
 70
     4
  9
$HYPERLINKBASE
  1

  9
$STYLESHEET
  1

  9
$XEDIT
290
     1
  9
$CEPSNTYPE
380
     0
  9
$PSTYLEMODE
290
     1
  9
$FINGERPRINTGUID
  2
{6AAB0F5E-2671-43BF-AFD0-A352C61C00F0}
  9
$VERSIONGUID
  2
{FAEB1C32-E019-11D5-929B-00C0DF256EC4}
  9
$EXTNAMES
290
     1
  9
$PSVPSCALE
 40
0.0
  9
$OLESTARTUP
290
     0
  9
$SORTENTS
280
   127
  9
$INDEXCTL
280
     0
  9
$HIDETEXT
280
     1
  9
$XCLIPFRAME
290
     0
  9
$HALOGAP
280
     0
  9
$OBSCOLOR
 70
   257
  9
$OBSLTYPE
280
     0
  9
$INTERSECTIONDISPLAY
280
     0
  9
$INTERSECTIONCOLOR
 70
   257
  9
$DIMASSOC
280
     2
  9
$PROJECTNAME
  1

  9
$CAMERADISPLAY
290
     0
  9
$LENSLENGTH
 40
50.0
  9
$CAMERAHEIGHT
 40
0.0
  9
$STEPSPERSEC
 40
2.0
  9
$STEPSIZE
 40
6.0
  9
$3DDWFPREC
 40
2.0
  9
$PSOLWIDTH
 40
0.25
  9
$PSOLHEIGHT
 40
4.0
  9
$LOFTANG1
 40
1.570796326794897
  9
$LOFTANG2
 40
1.570796326794897
  9
$LOFTMAG1
 40
0.0
  9
$LOFTMAG2
 40
0.0
  9
$LOFTPARAM
 70
     7
  9
$LOFTNORMALS
280
     1
  9
$LATITUDE
 40
37.795
  9
$LONGITUDE
 40
-122.394
  9
$NORTHDIRECTION
 40
0.0
  9
$TIMEZONE
 70
 -8000
  9
$LIGHTGLYPHDISPLAY
280
     1
  9
$TILEMODELIGHTSYNCH
280
     1
  9
$SOLIDHIST
280
     1
  9
$SHOWHIST
280
     1
  9
$DWFFRAME
280
     2
  9
$DGNFRAME
280
     2
  9
$REALWORLDSCALE
290
     1
  9
$INTERFERECOLOR
 62
   256
  9
$CSHADOW
280
     0
  9
$SHADOWPLANELOCATION
 40
0.0
  0
ENDSEC
  0
SECTION
  2
CLASSES
  0
CLASS
  1
ACDBDICTIONARYWDFLT
  2
AcDbDictionaryWithDefault
  3
ObjectDBX Classes
 90
        0
 91
        4
280
     0
281
     0
  0
CLASS
  1
VISUALSTYLE
  2
AcDbVisualStyle
  3
ObjectDBX Classes
 90
     4095
 91
        4
280
     0
281
     0
  0
CLASS
  1
MATERIAL
  2
AcDbMaterial
  3
ObjectDBX Classes
 90
     1153
 91
        4
280
     0
281
     0
  0
ENDSEC
  0
SECTION
  2
TABLES
  0
TABLE
  2
VPORT
  5
8
330
0
100
AcDbSymbolTable
 70
     1
  0
VPORT
  5
29
330
8
100
AcDbSymbolTableRecord
100
AcDbViewportTableRecord
  2
*Active
 70
     0
 10
0.0
 20
0.0
 11
1.0
 21
1.0
 12
10.42990654205607
 22
4.5
 13
0.0
 23
0.0
 14
0.5
 24
0.5
 15
0.5
 25
0.5
 16
0.0
 26
0.0
 36
1.0
 17
0.0
 27
0.0
 37
0.0
 40
9.0
 41
1.972972972850329
 42
50.0
 43
0.0
 44
0.0
 50
0.0
 51
0.0
 71
     0
 72
   100
 73
     1
 74
     3
 75
     0
 76
     0
 77
     0
 78
     0
281
     0
 65
     1
110
0.0
120
0.0
130
0.0
111
1.0
121
0.0
131
0.0
112
0.0
122
1.0
132
0.0
 79
     0
146
0.0
 60
     3
 61
     5
292
     1
282
     1
141
0.0
142
0.0
 63
   250
  0
ENDTAB
  0
TABLE
  2
LTYPE
  5
5
330
0
100
AcDbSymbolTable
 70
     1
  0
LTYPE
  5
14
330
5
100
AcDbSymbolTableRecord
100
AcDbLinetypeTableRecord
  2
ByBlock
 70
     0
  3

 72
    65
 73
     0
 40
0.0
  0
LTYPE
  5
15
330
5
100
AcDbSymbolTableRecord
100
AcDbLinetypeTableRecord
  2
ByLayer
 70
     0
  3

 72
    65
 73
     0
 40
0.0
  0
LTYPE
  5
16
330
5
100
AcDbSymbolTableRecord
100
AcDbLinetypeTableRecord
  2
Continuous
 70
     0
  3
Solid line
 72
    65
 73
     0
 40
0.0
  0
ENDTAB
  0
TABLE
  2
LAYER
  5
2
330
0
100
AcDbSymbolTable
 70
     3
  0
LAYER
  5
10
330
2
100
AcDbSymbolTableRecord
100
AcDbLayerTableRecord
  2
0
 70
     0
 62
     7
  6
Continuous
370
    -3
390
F
347
3E
  0
LAYER
  5
40
330
2
100
AcDbSymbolTableRecord
100
AcDbLayerTableRecord
  2
layer 1
 70
     0
 62
     7
  6
Continuous
370
    -3
390
F
347
3E
  0
LAYER
  5
A7
330
2
100
AcDbSymbolTableRecord
100
AcDbLayerTableRecord
  2
Master Guides
 70
     0
 62
     7
  6
Continuous
370
    -3
390
F
347
3E
  0
ENDTAB
  0
TABLE
  2
STYLE
  5
3
330
0
100
AcDbSymbolTable
 70
     1
  0
STYLE
  5
11
330
3
100
AcDbSymbolTableRecord
100
AcDbTextStyleTableRecord
  2
Standard
 70
     0
 40
0.0
 41
1.0
 50
0.0
 71
     0
 42
0.2
  3
txt
  4

  0
ENDTAB
  0
TABLE
  2
VIEW
  5
6
330
0
100
AcDbSymbolTable
 70
     0
  0
ENDTAB
  0
TABLE
  2
UCS
  5
7
330
0
100
AcDbSymbolTable
 70
     0
  0
ENDTAB
  0
TABLE
  2
APPID
  5
9
330
0
100
AcDbSymbolTable
 70
     2
  0
APPID
  5
12
330
9
100
AcDbSymbolTableRecord
100
AcDbRegAppTableRecord
  2
ACAD
 70
     0
  0
APPID
  5
3F
330
9
100
AcDbSymbolTableRecord
100
AcDbRegAppTableRecord
  2
ODA
 70
     0
  0
ENDTAB
  0
TABLE
  2
DIMSTYLE
  5
A
330
0
100
AcDbSymbolTable
 70
     1
100
AcDbDimStyleTable
  0
DIMSTYLE
105
27
330
A
100
AcDbSymbolTableRecord
100
AcDbDimStyleTableRecord
  2
Standard
 70
     0
178
     0
340
11
  0
ENDTAB
  0
TABLE
  2
BLOCK_RECORD
  5
1
330
0
100
AcDbSymbolTable
 70
     1
  0
BLOCK_RECORD
  5
1F
330
1
100
AcDbSymbolTableRecord
100
AcDbBlockTableRecord
  2
*Model_Space
340
22
 70
     0
280
     1
281
     0
  0
BLOCK_RECORD
  5
1B
330
1
100
AcDbSymbolTableRecord
100
AcDbBlockTableRecord
  2
*Paper_Space
340
1E
 70
     0
280
     1
281
     0
  0
BLOCK_RECORD
  5
23
330
1
100
AcDbSymbolTableRecord
100
AcDbBlockTableRecord
  2
*Paper_Space0
340
26
 70
     0
280
     1
281
     0
  0
ENDTAB
  0
ENDSEC
  0
SECTION
  2
BLOCKS
  0
BLOCK
  5
20
330
1F
100
AcDbEntity
  8
0
100
AcDbBlockBegin
  2
*Model_Space
 70
     0
 10
0.0
 20
0.0
 30
0.0
  3
*Model_Space
  1

  0
ENDBLK
  5
21
330
1F
100
AcDbEntity
  8
0
100
AcDbBlockEnd
  0
BLOCK
  5
1C
330
1B
100
AcDbEntity
 67
     1
  8
0
100
AcDbBlockBegin
  2
*Paper_Space
 70
     0
 10
0.0
 20
0.0
 30
0.0
  3
*Paper_Space
  1

  0
ENDBLK
  5
1D
330
1B
100
AcDbEntity
 67
     1
  8
0
100
AcDbBlockEnd
  0
BLOCK
  5
24
330
23
100
AcDbEntity
  8
0
100
AcDbBlockBegin
  2
*Paper_Space0
 70
     0
 10
0.0
 20
0.0
 30
0.0
  3
*Paper_Space0
  1

  0
ENDBLK
  5
25
330
23
100
AcDbEntity
  8
0
100
AcDbBlockEnd
  0
ENDSEC
  0
SECTION
  2
ENTITIES
  0
SPLINE
  5
41
330
1F
100
AcDbEntity
  8
layer 1
100
AcDbSpline
210
0.0
220
0.0
230
1.0
 70
    11
 71
     3
 72
    20
 73
    16
 74
     0
 42
0.0000000001
 43
0.0000000001
 12
1.0
 22
0.0
 32
0.0
 13
1.0
 23
0.0
 33
0.0
 40
0.0
 40
0.0
 40
0.0
 40
0.0
 40
0.2
 40
0.2
 40
0.2
 40
0.2
 40
0.4
 40
0.4
 40
0.4
 40
0.4
 40
0.6
 40
0.6
 40
0.6
 40
0.6
 40
1.0
 40
1.0
 40
1.0
 40
1.0
 10
196.3442
 20
-114.9672
 30
0.0
 10
196.3442
 20
-114.9672
 30
0.0
 10
196.3442
 20
131.8441
 30
0.0
 10
196.3442
 20
131.8441
 30
0.0
 10
196.3442
 20
131.8441
 30
0.0
 10
196.3442
 20
131.8441
 30
0.0
 10
10.1593
 20
131.8441
 30
0.0
 10
10.1593
 20
131.8441
 30
0.0
 10
10.1593
 20
131.8441
 30
0.0
 10
10.1593
 20
131.8441
 30
0.0
 10
10.1593
 20
-114.9672
 30
0.0
 10
10.1593
 20
-114.9672
 30
0.0
 10
10.1593
 20
-114.9672
 30
0.0
 10
10.1593
 20
-114.9672
 30
0.0
 10
196.3442
 20
-114.9672
 30
0.0
 10
196.3442
 20
-114.9672
 30
0.0
  0
SPLINE
  5
42
330
1F
100
AcDbEntity
  8
layer 1
 62
     1
370
    13
100
AcDbSpline
210
0.0
220
0.0
230
1.0
 70
    11
 71
     3
 72
    20
 73
    16
 74
     0
 42
0.0000000001
 43
0.0000000001
 12
1.0
 22
0.0
 32
0.0
 13
1.0
 23
0.0
 33
0.0
 40
0.0
 40
0.0
 40
0.0
 40
0.0
 40
0.2
 40
0.2
 40
0.2
 40
0.2
 40
0.4
 40
0.4
 40
0.4
 40
0.4
 40
0.6
 40
0.6
 40
0.6
 40
0.6
 40
1.0
 40
1.0
 40
1.0
 40
1.0
 10
103.2518
 20
8.3496
 30
0.0
 10
103.1931
 20
8.3496
 30
0.0
 10
103.145
 20
8.3707
 30
0.0
 10
103.145
 20
8.3966
 30
0.0
 10
103.145
 20
8.3966
 30
0.0
 10
103.145
 20
8.4225
 30
0.0
 10
103.1931
 20
8.4734
 30
0.0
 10
103.2518
 20
8.5097
 30
0.0
 10
103.2518
 20
8.5097
 30
0.0
 10
103.3104
 20
8.5459
 30
0.0
 10
103.3585
 20
8.5247
 30
0.0
 10
103.3585
 20
8.4626
 30
0.0
 10
103.3585
 20
8.4626
 30
0.0
 10
103.3585
 20
8.4004
 30
0.0
 10
103.3104
 20
8.3496
 30
0.0
 10
103.2518
 20
8.3496
 30
0.0
  0
SPLINE
  5
43
330
1F
100
AcDbEntity
  8
layer 1
 62
     1
370
    13
100
AcDbSpline
210
0.0
220
0.0
230
1.0
 70
    11
 71
     3
 72
    20
 73
    16
 74
     0
 42
0.0000000001
 43
0.0000000001
 12
1.0
 22
0.0
 32
0.0
 13
1.0
 23
0.0
 33
0.0
 40
0.0
 40
0.0
 40
0.0
 40
0.0
 40
0.2
 40
0.2
 40
0.2
 40
0.2
 40
0.4
 40
0.4
 40
0.4
 40
0.4
 40
0.6
 40
0.6
 40
0.6
 40
0.6
 40
1.0
 40
1.0
 40
1.0
 40
1.0
 10
103.2518
 20
8.3496
 30
0.0
 10
103.3104
 20
8.3496
 30
0.0
 10
103.3585
 20
8.3707
 30
0.0
 10
103.3585
 20
8.3966
 30
0.0
 10
103.3585
 20
8.3966
 30
0.0
 10
103.3585
 20
8.4225
 30
0.0
 10
103.3104
 20
8.4734
 30
0.0
 10
103.2518
 20
8.5097
 30
0.0
 10
103.2518
 20
8.5097
 30
0.0
 10
103.1931
 20
8.5459
 30
0.0
 10
103.145
 20
8.5247
 30
0.0
 10
103.145
 20
8.4626
 30
0.0
 10
103.145
 20
8.4626
 30
0.0
 10
103.145
 20
8.4004
 30
0.0
 10
103.193
 20
8.3496
 30
0.0
 10
103.2518
 20
8.3496
 30
0.0
  0
SPLINE
  5
44
330
1F
100
AcDbEntity
  8
layer 1
 62
     7
100
AcDbSpline
210
0.0
220
0.0
230
1.0
 70
    11
 71
     3
 72
    40
 73
    36
 74
     0
 42
0.0000000001
 43
0.0000000001
 12
1.0
 22
0.0
 32
0.0
 13
1.0
 23
0.0
 33
0.0
 40
0.0
 40
0.0
 40
0.0
 40
0.0
 40
0.1
 40
0.1
 40
0.1
 40
0.1
 40
0.2
 40
0.2
 40
0.2
 40
0.2
 40
0.3
 40
0.3
 40
0.3
 40
0.3
 40
0.4
 40
0.4
 40
0.4
 40
0.4
 40
0.5
 40
0.5
 40
0.5
 40
0.5
 40
0.6
 40
0.6
 40
0.6
 40
0.6
 40
0.7
 40
0.7
 40
0.7
 40
0.7
 40
0.8
 40
0.8
 40
0.8
 40
0.8
 40
1.0
 40
1.0
 40
1.0
 40
1.0
 10
97.1553
 20
-106.3032
 30
0.0
 10
97.1553
 20
-106.3032
 30
0.0
 10
86.2707
 20
-106.3032
 30
0.0
 10
86.2707
 20
-106.3032
 30
0.0
 10
86.2707
 20
-106.3032
 30
0.0
 10
91.2689
 20
-102.4868
 30
0.0
 10
93.6718
 20
-93.8357
 30
0.0
 10
90.3418
 20
-87.1662
 30
0.0
 10
90.3418
 20
-87.1662
 30
0.0
 10
94.6354
 20
-88.8871
 30
0.0
 10
100.338
 20
-88.3469
 30
0.0
 10
103.2518
 20
-82.3503
 30
0.0
 10
103.2518
 20
-82.3503
 30
0.0
 10
106.1655
 20
-88.3469
 30
0.0
 10
111.8681
 20
-88.8871
 30
0.0
 10
116.1617
 20
-87.1662
 30
0.0
 10
116.1617
 20
-87.1662
 30
0.0
 10
112.8317
 20
-93.8357
 30
0.0
 10
115.2346
 20
-102.4868
 30
0.0
 10
120.2328
 20
-106.3032
 30
0.0
 10
120.2328
 20
-106.3032
 30
0.0
 10
120.2328
 20
-106.3032
 30
0.0
 10
109.3482
 20
-106.3032
 30
0.0
 10
109.3482
 20
-106.3032
 30
0.0
 10
109.3482
 20
-106.3032
 30
0.0
 10
110.6414
 20
-100.9035
 30
0.0
 10
108.4071
 20
-95.1816
 30
0.0
 10
103.2518
 20
-92.6716
 30
0.0
 10
103.2518
 20
-92.6716
 30
0.0
 10
98.0964
 20
-95.1816
 30
0.0
 10
95.8621
 20
-100.9035
 30
0.0
 10
97.1553
 20
-106.3032
 30
0.0
 10
97.1553
 20
-106.3032
 30
0.0
 10
97.1553
 20
-106.3032
 30
0.0
 10
97.1553
 20
-106.3032
 30
0.0
 10
97.1553
 20
-106.3032
 30
0.0
  0
SPLINE
  5
45
330
1F
100
AcDbEntity
  8
layer 1
 62
     7
100
AcDbSpline
210
0.0
220
0.0
230
1.0
 70
    11
 71
     3
 72
    40
 73
    36
 74
     0
 42
0.0000000001
 43
0.0000000001
 12
1.0
 22
0.0
 32
0.0
 13
1.0
 23
0.0
 33
0.0
 40
0.0
 40
0.0
 40
0.0
 40
0.0
 40
0.1
 40
0.1
 40
0.1
 40
0.1
 40
0.2
 40
0.2
 40
0.2
 40
0.2
 40
0.3
 40
0.3
 40
0.3
 40
0.3
 40
0.4
 40
0.4
 40
0.4
 40
0.4
 40
0.5
 40
0.5
 40
0.5
 40
0.5
 40
0.6
 40
0.6
 40
0.6
 40
0.6
 40
0.7
 40
0.7
 40
0.7
 40
0.7
 40
0.8
 40
0.8
 40
0.8
 40
0.8
 40
1.0
 40
1.0
 40
1.0
 40
1.0
 10
95.0946
 20
-74.0671
 30
0.0
 10
97.3417
 20
-74.8045
 30
0.0
 10
97.0804
 20
-79.5235
 30
0.0
 10
93.1949
 20
-79.7522
 30
0.0
 10
93.1949
 20
-79.7522
 30
0.0
 10
89.9531
 20
-79.9585
 30
0.0
 10
87.883
 20
-75.4724
 30
0.0
 10
90.4752
 20
-71.9333
 30
0.0
 10
90.4752
 20
-71.9333
 30
0.0
 10
95.7773
 20
-66.3782
 30
0.0
 10
99.9493
 20
-59.6422
 30
0.0
 10
103.2518
 20
-52.6038
 30
0.0
 10
103.2518
 20
-52.6038
 30
0.0
 10
106.5543
 20
-59.6423
 30
0.0
 10
110.7263
 20
-66.3782
 30
0.0
 10
116.0283
 20
-71.9333
 30
0.0
 10
116.0283
 20
-71.9333
 30
0.0
 10
118.6206
 20
-75.4724
 30
0.0
 10
116.5505
 20
-79.9585
 30
0.0
 10
113.3086
 20
-79.7522
 30
0.0
 10
113.3086
 20
-79.7522
 30
0.0
 10
109.4232
 20
-79.5235
 30
0.0
 10
109.1619
 20
-74.8045
 30
0.0
 10
111.409
 20
-74.0671
 30
0.0
 10
111.409
 20
-74.0671
 30
0.0
 10
108.8278
 20
-72.7499
 30
0.0
 10
104.6083
 20
-73.7581
 30
0.0
 10
103.2518
 20
-77.4185
 30
0.0
 10
103.2518
 20
-77.4185
 30
0.0
 10
101.8953
 20
-73.7581
 30
0.0
 10
97.6759
 20
-72.7499
 30
0.0
 10
95.0947
 20
-74.0671
 30
0.0
 10
95.0947
 20
-74.0671
 30
0.0
 10
95.0947
 20
-74.0671
 30
0.0
 10
95.0946
 20
-74.0671
 30
0.0
 10
95.0946
 20
-74.0671
 30
0.0
  0
SPLINE
  5
46
330
1F
100
AcDbEntity
  8
layer 1
 62
     7
100
AcDbSpline
210
0.0
220
0.0
230
1.0
 70
    11
 71
     3
 72
    40
 73
    36
 74
     0
 42
0.0000000001
 43
0.0000000001
 12
1.0
 22
0.0
 32
0.0
 13
1.0
 23
0.0
 33
0.0
 40
0.0
 40
0.0
 40
0.0
 40
0.0
 40
0.1
 40
0.1
 40
0.1
 40
0.1
 40
0.2
 40
0.2
 40
0.2
 40
0.2
 40
0.3
 40
0.3
 40
0.3
 40
0.3
 40
0.4
 40
0.4
 40
0.4
 40
0.4
 40
0.5
 40
0.5
 40
0.5
 40
0.5
 40
0.6
 40
0.6
 40
0.6
 40
0.6
 40
0.7
 40
0.7
 40
0.7
 40
0.7
 40
0.8
 40
0.8
 40
0.8
 40
0.8
 40
1.0
 40
1.0
 40
1.0
 40
1.0
 10
89.9683
 20
-4.3566
 30
0.0
 10
89.406
 20
-7.2843
 30
0.0
 10
90.1477
 20
-11.1498
 30
0.0
 10
92.4482
 20
-13.3283
 30
0.0
 10
92.4482
 20
-13.3283
 30
0.0
 10
90.7103
 20
-12.8553
 30
0.0
 10
87.4617
 20
-13.3174
 30
0.0
 10
87.4396
 20
-13.9606
 30
0.0
 10
87.4396
 20
-13.9606
 30
0.0
 10
95.0424
 20
-26.6635
 30
0.0
 10
81.5767
 20
-36.335
 30
0.0
 10
73.0472
 20
-32.2627
 30
0.0
 10
73.0472
 20
-32.2627
 30
0.0
 10
71.7432
 20
-33.105
 30
0.0
 10
68.5429
 20
-34.4119
 30
0.0
 10
67.7218
 20
-35.8111
 30
0.0
 10
67.7218
 20
-35.8111
 30
0.0
 10
71.4554
 20
-38.296
 30
0.0
 10
75.0566
 20
-39.5968
 30
0.0
 10
79.8301
 20
-39.3602
 30
0.0
 10
79.8301
 20
-39.3602
 30
0.0
 10
84.676
 20
-39.4512
 30
0.0
 10
91.0887
 20
-36.7324
 30
0.0
 10
94.0795
 20
-31.6224
 30
0.0
 10
94.0795
 20
-31.6224
 30
0.0
 10
95.7288
 20
-28.8457
 30
0.0
 10
97.0195
 20
-24.3552
 30
0.0
 10
96.7306
 20
-20.7371
 30
0.0
 10
96.7306
 20
-20.7371
 30
0.0
 10
96.861
 20
-13.5824
 30
0.0
 10
93.5541
 20
-8.0635
 30
0.0
 10
89.9683
 20
-4.3566
 30
0.0
 10
89.9683
 20
-4.3566
 30
0.0
 10
89.9683
 20
-4.3566
 30
0.0
 10
89.9683
 20
-4.3566
 30
0.0
 10
89.9683
 20
-4.3566
 30
0.0
  0
SPLINE
  5
47
330
1F
100
AcDbEntity
  8
layer 1
 62
     7
100
AcDbSpline
210
0.0
220
0.0
230
1.0
 70
    11
 71
     3
 72
    40
 73
    36
 74
     0
 42
0.0000000001
 43
0.0000000001
 12
1.0
 22
0.0
 32
0.0
 13
1.0
 23
0.0
 33
0.0
 40
0.0
 40
0.0
 40
0.0
 40
0.0
 40
0.1
 40
0.1
 40
0.1
 40
0.1
 40
0.2
 40
0.2
 40
0.2
 40
0.2
 40
0.3
 40
0.3
 40
0.3
 40
0.3
 40
0.4
 40
0.4
 40
0.4
 40
0.4
 40
0.5
 40
0.5
 40
0.5
 40
0.5
 40
0.6
 40
0.6
 40
0.6
 40
0.6
 40
0.7
 40
0.7
 40
0.7
 40
0.7
 40
0.8
 40
0.8
 40
0.8
 40
0.8
 40
1.0
 40
1.0
 40
1.0
 40
1.0
 10
89.5624
 20
-42.697
 30
0.0
 10
90.3073
 20
-48.5548
 30
0.0
 10
87.0556
 20
-53.9526
 30
0.0
 10
82.9992
 20
-58.3753
 30
0.0
 10
82.9992
 20
-58.3753
 30
0.0
 10
80.3712
 20
-61.2409
 30
0.0
 10
77.4948
 20
-63.809
 30
0.0
 10
74.846
 20
-65.4492
 30
0.0
 10
74.846
 20
-65.4492
 30
0.0
 10
77.4262
 20
-68.2466
 30
0.0
 10
82.6419
 20
-74.2141
 30
0.0
 10
85.7333
 20
-79.8011
 30
0.0
 10
85.7333
 20
-79.8011
 30
0.0
 10
84.651
 20
-74.4063
 30
0.0
 10
86.4091
 20
-71.1917
 30
0.0
 10
88.1899
 20
-69.167
 30
0.0
 10
88.1899
 20
-69.167
 30
0.0
 10
87.0497
 20
-69.5998
 30
0.0
 10
85.75
 20
-69.667
 30
0.0
 10
83.8571
 20
-69.5933
 30
0.0
 10
83.8571
 20
-69.5933
 30
0.0
 10
80.0178
 20
-64.92
 30
0.0
 10
84.9086
 20
-61.8554
 30
0.0
 10
87.8489
 20
-58.754
 30
0.0
 10
87.8489
 20
-58.754
 30
0.0
 10
90.0009
 20
-56.475
 30
0.0
 10
91.9318
 20
-54.0814
 30
0.0
 10
92.8374
 20
-52.7646
 30
0.0
 10
92.8374
 20
-52.7646
 30
0.0
 10
96.4896
 20
-47.8233
 30
0.0
 10
93.4594
 20
-43.2963
 30
0.0
 10
89.5624
 20
-42.6969
 30
0.0
 10
89.5624
 20
-42.6969
 30
0.0
 10
89.5624
 20
-42.6969
 30
0.0
 10
89.5624
 20
-42.697
 30
0.0
 10
89.5624
 20
-42.697
 30
0.0
  0
SPLINE
  5
48
330
1F
100
AcDbEntity
  8
layer 1
 62
     7
100
AcDbSpline
210
0.0
220
0.0
230
1.0
 70
    11
 71
     3
 72
    28
 73
    24
 74
     0
 42
0.0000000001
 43
0.0000000001
 12
1.0
 22
0.0
 32
0.0
 13
1.0
 23
0.0
 33
0.0
 40
0.0
 40
0.0
 40
0.0
 40
0.0
 40
0.1428571428571428
 40
0.1428571428571428
 40
0.1428571428571428
 40
0.1428571428571428
 40
0.2857142857142857
 40
0.2857142857142857
 40
0.2857142857142857
 40
0.2857142857142857
 40
0.4285714285714285
 40
0.4285714285714285
 40
0.4285714285714285
 40
0.4285714285714285
 40
0.5714285714285714
 40
0.5714285714285714
 40
0.5714285714285714
 40
0.5714285714285714
 40
0.7142857142857143
 40
0.7142857142857143
 40
0.7142857142857143
 40
0.7142857142857143
 40
1.0
 40
1.0
 40
1.0
 40
1.0
 10
72.0971
 20
2.3127
 30
0.0
 10
71.9538
 20
-1.6285
 30
0.0
 10
67.7244
 20
-3.891
 30
0.0
 10
64.3019
 20
-2.695
 30
0.0
 10
64.3019
 20
-2.695
 30
0.0
 10
58.4742
 20
-4.6055
 30
0.0
 10
50.4928
 20
-13.0977
 30
0.0
 10
49.9502
 20
-16.2486
 30
0.0
 10
49.9502
 20
-16.2486
 30
0.0
 10
51.8314
 20
-14.0985
 30
0.0
 10
57.4577
 20
-13.8496
 30
0.0
 10
59.8285
 20
-14.5002
 30
0.0
 10
59.8285
 20
-14.5002
 30
0.0
 10
66.6709
 20
-5.1081
 30
0.0
 10
78.045
 20
-4.536
 30
0.0
 10
83.8326
 20
-7.0299
 30
0.0
 10
83.8326
 20
-7.0299
 30
0.0
 10
84.9409
 20
-5.6308
 30
0.0
 10
86.4356
 20
-3.7092
 30
0.0
 10
88.018
 20
-2.8085
 30
0.0
 10
88.018
 20
-2.8085
 30
0.0
 10
83.9321
 20
1.2809
 30
0.0
 10
76.967
 20
2.9939
 30
0.0
 10
72.0971
 20
2.3127
 30
0.0
  0
SPLINE
  5
49
330
1F
100
AcDbEntity
  8
layer 1
 62
     7
100
AcDbSpline
210
0.0
220
0.0
230
1.0
 70
    11
 71
     3
 72
    44
 73
    40
 74
     0
 42
0.0000000001
 43
0.0000000001
 12
1.0
 22
0.0
 32
0.0
 13
1.0
 23
0.0
 33
0.0
 40
0.0
 40
0.0
 40
0.0
 40
0.0
 40
0.0909090909090909
 40
0.0909090909090909
 40
0.0909090909090909
 40
0.0909090909090909
 40
0.1818181818181818
 40
0.1818181818181818
 40
0.1818181818181818
 40
0.1818181818181818
 40
0.2727272727272727
 40
0.2727272727272727
 40
0.2727272727272727
 40
0.2727272727272727
 40
0.3636363636363636
 40
0.3636363636363636
 40
0.3636363636363636
 40
0.3636363636363636
 40
0.4545454545454545
 40
0.4545454545454545
 40
0.4545454545454545
 40
0.4545454545454545
 40
0.5454545454545454
 40
0.5454545454545454
 40
0.5454545454545454
 40
0.5454545454545454
 40
0.6363636363636364
 40
0.6363636363636364
 40
0.6363636363636364
 40
0.6363636363636364
 40
0.7272727272727273
 40
0.7272727272727273
 40
0.7272727272727273
 40
0.7272727272727273
 40
0.8181818181818182
 40
0.8181818181818182
 40
0.8181818181818182
 40
0.8181818181818182
 40
1.0
 40
1.0
 40
1.0
 40
1.0
 10
81.2289
 20
-83.7177
 30
0.0
 10
79.1755
 20
-88.0778
 30
0.0
 10
72.6215
 20
-89.6982
 30
0.0
 10
68.6271
 20
-86.097
 30
0.0
 10
68.6271
 20
-86.097
 30
0.0
 10
68.5297
 20
-88.7482
 30
0.0
 10
67.5543
 20
-90.2909
 30
0.0
 10
66.3391
 20
-91.8726
 30
0.0
 10
66.3391
 20
-91.8726
 30
0.0
 10
65.6207
 20
-92.8076
 30
0.0
 10
64.85
 20
-93.5611
 30
0.0
 10
64.4336
 20
-94.5144
 30
0.0
 10
64.4336
 20
-94.5144
 30
0.0
 10
63.5986
 20
-98.4424
 30
0.0
 10
66.4978
 20
-100.1109
 30
0.0
 10
68.8419
 20
-99.9395
 30
0.0
 10
68.8419
 20
-99.9395
 30
0.0
 10
73.7026
 20
-99.2924
 30
0.0
 10
73.7933
 20
-93.7546
 30
0.0
 10
71.1326
 20
-92.0133
 30
0.0
 10
71.1326
 20
-92.0133
 30
0.0
 10
78.451
 20
-93.1357
 30
0.0
 10
80.1893
 20
-102.6691
 30
0.0
 10
73.7757
 20
-106.3033
 30
0.0
 10
73.7757
 20
-106.3033
 30
0.0
 10
73.7757
 20
-106.3033
 30
0.0
 10
80.3313
 20
-106.3033
 30
0.0
 10
80.3313
 20
-106.3033
 30
0.0
 10
80.3313
 20
-106.3033
 30
0.0
 10
84.518
 20
-103.2617
 30
0.0
 10
86.0702
 20
-98.3335
 30
0.0
 10
86.0022
 20
-93.9773
 30
0.0
 10
86.0022
 20
-93.9773
 30
0.0
 10
85.8884
 20
-90.3959
 30
0.0
 10
83.8422
 20
-86.3034
 30
0.0
 10
81.2289
 20
-83.7178
 30
0.0
 10
81.2289
 20
-83.7178
 30
0.0
 10
81.2289
 20
-83.7178
 30
0.0
 10
81.2289
 20
-83.7177
 30
0.0
 10
81.2289
 20
-83.7177
 30
0.0
  0
SPLINE
  5
4A
330
1F
100
AcDbEntity
  8
layer 1
 62
     7
100
AcDbSpline
210
0.0
220
0.0
230
1.0
 70
    11
 71
     3
 72
    40
 73
    36
 74
     0
 42
0.0000000001
 43
0.0000000001
 12
1.0
 22
0.0
 32
0.0
 13
1.0
 23
0.0
 33
0.0
 40
0.0
 40
0.0
 40
0.0
 40
0.0
 40
0.1
 40
0.1
 40
0.1
 40
0.1
 40
0.2
 40
0.2
 40
0.2
 40
0.2
 40
0.3
 40
0.3
 40
0.3
 40
0.3
 40
0.4
 40
0.4
 40
0.4
 40
0.4
 40
0.5
 40
0.5
 40
0.5
 40
0.5
 40
0.6
 40
0.6
 40
0.6
 40
0.6
 40
0.7
 40
0.7
 40
0.7
 40
0.7
 40
0.8
 40
0.8
 40
0.8
 40
0.8
 40
1.0
 40
1.0
 40
1.0
 40
1.0
 10
84.4779
 20
-18.4132
 30
0.0
 10
83.7044
 20
-14.4279
 30
0.0
 10
80.0055
 20
-12.4871
 30
0.0
 10
75.06
 20
-12.9358
 30
0.0
 10
75.06
 20
-12.9358
 30
0.0
 10
70.1926
 20
-13.3881
 30
0.0
 10
66.2103
 20
-16.2205
 30
0.0
 10
64.3023
 20
-20.5523
 30
0.0
 10
64.3023
 20
-20.5523
 30
0.0
 10
62.4545
 20
-24.7475
 30
0.0
 10
63.1921
 20
-29.8538
 30
0.0
 10
64.7113
 20
-32.1892
 30
0.0
 10
64.7113
 20
-32.1892
 30
0.0
 10
66.1483
 20
-31.3153
 30
0.0
 10
68.0888
 20
-29.8035
 30
0.0
 10
69.9946
 20
-28.8994
 30
0.0
 10
69.9946
 20
-28.8994
 30
0.0
 10
67.9809
 20
-22.5538
 30
0.0
 10
72.5672
 20
-17.2956
 30
0.0
 10
77.9091
 20
-20.0706
 30
0.0
 10
77.9091
 20
-20.0706
 30
0.0
 10
75.6405
 20
-21.3607
 30
0.0
 10
76.1347
 20
-23.4867
 30
0.0
 10
77.6153
 20
-24.494
 30
0.0
 10
77.6153
 20
-24.494
 30
0.0
 10
78.6319
 20
-25.1856
 30
0.0
 10
80.2308
 20
-25.0865
 30
0.0
 10
81.2502
 20
-24.8829
 30
0.0
 10
81.2502
 20
-24.8829
 30
0.0
 10
84.1446
 20
-24.0762
 30
0.0
 10
84.8272
 20
-21.0193
 30
0.0
 10
84.4778
 20
-18.4132
 30
0.0
 10
84.4778
 20
-18.4132
 30
0.0
 10
84.4778
 20
-18.4132
 30
0.0
 10
84.4779
 20
-18.4132
 30
0.0
 10
84.4779
 20
-18.4132
 30
0.0
  0
SPLINE
  5
4B
330
1F
100
AcDbEntity
  8
layer 1
 62
     7
100
AcDbSpline
210
0.0
220
0.0
230
1.0
 70
    11
 71
     3
 72
    40
 73
    36
 74
     0
 42
0.0000000001
 43
0.0000000001
 12
1.0
 22
0.0
 32
0.0
 13
1.0
 23
0.0
 33
0.0
 40
0.0
 40
0.0
 40
0.0
 40
0.0
 40
0.1
 40
0.1
 40
0.1
 40
0.1
 40
0.2
 40
0.2
 40
0.2
 40
0.2
 40
0.3
 40
0.3
 40
0.3
 40
0.3
 40
0.4
 40
0.4
 40
0.4
 40
0.4
 40
0.5
 40
0.5
 40
0.5
 40
0.5
 40
0.6
 40
0.6
 40
0.6
 40
0.6
 40
0.7
 40
0.7
 40
0.7
 40
0.7
 40
0.8
 40
0.8
 40
0.8
 40
0.8
 40
1.0
 40
1.0
 40
1.0
 40
1.0
 10
77.4947
 20
-49.281
 30
0.0
 10
78.0043
 20
-48.5447
 30
0.0
 10
78.0977
 20
-47.3321
 30
0.0
 10
78.0136
 20
-45.7304
 30
0.0
 10
78.0136
 20
-45.7304
 30
0.0
 10
71.6154
 20
-45.1468
 30
0.0
 10
66.7359
 20
-41.9401
 30
0.0
 10
64.646
 20
-40.515
 30
0.0
 10
64.646
 20
-40.515
 30
0.0
 10
65.0307
 20
-42.913
 30
0.0
 10
65.2058
 20
-46.1797
 30
0.0
 10
65.3665
 20
-48.7741
 30
0.0
 10
65.3665
 20
-48.7741
 30
0.0
 10
67.3896
 20
-44.7116
 30
0.0
 10
73.4213
 20
-46.6033
 30
0.0
 10
74.2382
 20
-50.358
 30
0.0
 10
74.2382
 20
-50.358
 30
0.0
 10
75.419
 20
-56.0133
 30
0.0
 10
68.417
 20
-58.9203
 30
0.0
 10
65.2697
 20
-55.5087
 30
0.0
 10
65.2697
 20
-55.5087
 30
0.0
 10
66.1882
 20
-57.0763
 30
0.0
 10
69.0099
 20
-60.5572
 30
0.0
 10
70.5674
 20
-61.3606
 30
0.0
 10
70.5674
 20
-61.3606
 30
0.0
 10
74.3842
 20
-59.6727
 30
0.0
 10
80.4705
 20
-54.6499
 30
0.0
 10
83.2898
 20
-48.7226
 30
0.0
 10
83.2898
 20
-48.7226
 30
0.0
 10
81.5488
 20
-49.1067
 30
0.0
 10
78.687
 20
-49.3169
 30
0.0
 10
77.4948
 20
-49.281
 30
0.0
 10
77.4948
 20
-49.281
 30
0.0
 10
77.4948
 20
-49.281
 30
0.0
 10
77.4947
 20
-49.281
 30
0.0
 10
77.4947
 20
-49.281
 30
0.0
  0
SPLINE
  5
4C
330
1F
100
AcDbEntity
  8
layer 1
 62
     7
100
AcDbSpline
210
0.0
220
0.0
230
1.0
 70
    11
 71
     3
 72
    16
 73
    12
 74
     0
 42
0.0000000001
 43
0.0000000001
 12
1.0
 22
0.0
 32
0.0
 13
1.0
 23
0.0
 33
0.0
 40
0.0
 40
0.0
 40
0.0
 40
0.0
 40
0.25
 40
0.25
 40
0.25
 40
0.25
 40
0.5
 40
0.5
 40
0.5
 40
0.5
 40
1.0
 40
1.0
 40
1.0
 40
1.0
 10
70.7487
 20
-69.0517
 30
0.0
 10
70.4215
 20
-74.4814
 30
0.0
 10
71.9333
 20
-78.8433
 30
0.0
 10
72.8572
 20
-81.1376
 30
0.0
 10
72.8572
 20
-81.1376
 30
0.0
 10
74.02
 20
-84.1405
 30
0.0
 10
78.8984
 20
-83.551
 30
0.0
 10
80.3103
 20
-82.04
 30
0.0
 10
80.3103
 20
-82.04
 30
0.0
 10
77.0076
 20
-74.9801
 30
0.0
 10
73.0031
 20
-71.3604
 30
0.0
 10
70.7487
 20
-69.0517
 30
0.0
  0
SPLINE
  5
4D
330
1F
100
AcDbEntity
  8
layer 1
 62
     7
100
AcDbSpline
210
0.0
220
0.0
230
1.0
 70
    11
 71
     3
 72
    16
 73
    12
 74
     0
 42
0.0000000001
 43
0.0000000001
 12
1.0
 22
0.0
 32
0.0
 13
1.0
 23
0.0
 33
0.0
 40
0.0
 40
0.0
 40
0.0
 40
0.0
 40
0.25
 40
0.25
 40
0.25
 40
0.25
 40
0.5
 40
0.5
 40
0.5
 40
0.5
 40
1.0
 40
1.0
 40
1.0
 40
1.0
 10
65.8446
 20
-73.1312
 30
0.0
 10
63.4916
 20
-75.6729
 30
0.0
 10
60.3345
 20
-78.4401
 30
0.0
 10
56.9627
 20
-80.1049
 30
0.0
 10
56.9627
 20
-80.1049
 30
0.0
 10
56.2118
 20
-83.0928
 30
0.0
 10
59.3322
 20
-85.941
 30
0.0
 10
61.6998
 20
-85.5926
 30
0.0
 10
61.6998
 20
-85.5926
 30
0.0
 10
65.4502
 20
-84.2496
 30
0.0
 10
68.0409
 20
-77.6563
 30
0.0
 10
65.8446
 20
-73.1312
 30
0.0
  0
SPLINE
  5
4E
330
1F
100
AcDbEntity
  8
layer 1
 62
     7
100
AcDbSpline
210
0.0
220
0.0
230
1.0
 70
    11
 71
     3
 72
    32
 73
    28
 74
     0
 42
0.0000000001
 43
0.0000000001
 12
1.0
 22
0.0
 32
0.0
 13
1.0
 23
0.0
 33
0.0
 40
0.0
 40
0.0
 40
0.0
 40
0.0
 40
0.125
 40
0.125
 40
0.125
 40
0.125
 40
0.25
 40
0.25
 40
0.25
 40
0.25
 40
0.375
 40
0.375
 40
0.375
 40
0.375
 40
0.5
 40
0.5
 40
0.5
 40
0.5
 40
0.625
 40
0.625
 40
0.625
 40
0.625
 40
0.75
 40
0.75
 40
0.75
 40
0.75
 40
1.0
 40
1.0
 40
1.0
 40
1.0
 10
63.6217
 20
-67.8625
 30
0.0
 10
57.7863
 20
-60.4681
 30
0.0
 10
48.9692
 20
-56.7489
 30
0.0
 10
38.5836
 20
-59.7965
 30
0.0
 10
38.5836
 20
-59.7965
 30
0.0
 10
28.3655
 20
-62.2984
 30
0.0
 10
24.7945
 20
-73.5341
 30
0.0
 10
25.2673
 20
-80.4938
 30
0.0
 10
25.2673
 20
-80.4938
 30
0.0
 10
27.5842
 20
-76.2863
 30
0.0
 10
30.4719
 20
-75.2676
 30
0.0
 10
33.3051
 20
-74.8366
 30
0.0
 10
33.3051
 20
-74.8366
 30
0.0
 10
33.9208
 20
-67.8273
 30
0.0
 10
41.0743
 20
-58.7594
 30
0.0
 10
49.9248
 20
-64.1762
 30
0.0
 10
49.9248
 20
-64.1762
 30
0.0
 10
53.5086
 20
-66.9104
 30
0.0
 10
55.0816
 20
-69.9722
 30
0.0
 10
53.9098
 20
-75.3751
 30
0.0
 10
53.9098
 20
-75.3751
 30
0.0
 10
57.0167
 20
-72.802
 30
0.0
 10
60.8884
 20
-69.7717
 30
0.0
 10
63.6217
 20
-67.8625
 30
0.0
 10
63.6217
 20
-67.8625
 30
0.0
 10
63.6217
 20
-67.8625
 30
0.0
 10
63.6217
 20
-67.8625
 30
0.0
 10
63.6217
 20
-67.8625
 30
0.0
  0
SPLINE
  5
4F
330
1F
100
AcDbEntity
  8
layer 1
 62
     7
100
AcDbSpline
210
0.0
220
0.0
230
1.0
 70
    11
 71
     3
 72
    24
 73
    20
 74
     0
 42
0.0000000001
 43
0.0000000001
 12
1.0
 22
0.0
 32
0.0
 13
1.0
 23
0.0
 33
0.0
 40
0.0
 40
0.0
 40
0.0
 40
0.0
 40
0.1666666666666667
 40
0.1666666666666667
 40
0.1666666666666667
 40
0.1666666666666667
 40
0.3333333333333333
 40
0.3333333333333333
 40
0.3333333333333333
 40
0.3333333333333333
 40
0.5
 40
0.5
 40
0.5
 40
0.5
 40
0.6666666666666666
 40
0.6666666666666666
 40
0.6666666666666666
 40
0.6666666666666666
 40
1.0
 40
1.0
 40
1.0
 40
1.0
 10
57.9534
 20
-95.2801
 30
0.0
 10
56.2099
 20
-95.978
 30
0.0
 10
52.9995
 20
-96.1278
 30
0.0
 10
51.0672
 20
-95.6851
 30
0.0
 10
51.0672
 20
-95.6851
 30
0.0
 10
50.6724
 20
-97.0448
 30
0.0
 10
47.1479
 20
-100.307
 30
0.0
 10
44.6657
 20
-101.3086
 30
0.0
 10
44.6657
 20
-101.3086
 30
0.0
 10
44.6657
 20
-101.3086
 30
0.0
 10
44.7199
 20
-106.1102
 30
0.0
 10
44.7199
 20
-106.1102
 30
0.0
 10
44.7199
 20
-106.1102
 30
0.0
 10
44.7199
 20
-106.1102
 30
0.0
 10
62.2955
 20
-106.3033
 30
0.0
 10
62.2955
 20
-106.3033
 30
0.0
 10
62.2955
 20
-106.3033
 30
0.0
 10
58.2136
 20
-103.2299
 30
0.0
 10
57.3697
 20
-99.0565
 30
0.0
 10
57.9534
 20
-95.2801
 30
0.0
  0
SPLINE
  5
50
330
1F
100
AcDbEntity
  8
layer 1
 62
     7
100
AcDbSpline
210
0.0
220
0.0
230
1.0
 70
    11
 71
     3
 72
    20
 73
    16
 74
     0
 42
0.0000000001
 43
0.0000000001
 12
1.0
 22
0.0
 32
0.0
 13
1.0
 23
0.0
 33
0.0
 40
0.0
 40
0.0
 40
0.0
 40
0.0
 40
0.2
 40
0.2
 40
0.2
 40
0.2
 40
0.4
 40
0.4
 40
0.4
 40
0.4
 40
0.6
 40
0.6
 40
0.6
 40
0.6
 40
1.0
 40
1.0
 40
1.0
 40
1.0
 10
61.2408
 20
-36.1228
 30
0.0
 10
58.0454
 20
-32.3369
 30
0.0
 10
56.033
 20
-25.9448
 30
0.0
 10
58.0994
 20
-19.5927
 30
0.0
 10
58.0994
 20
-19.5927
 30
0.0
 10
55.1034
 20
-20.224
 30
0.0
 10
52.3411
 20
-23.7228
 30
0.0
 10
51.8111
 20
-26.9507
 30
0.0
 10
51.8111
 20
-26.9507
 30
0.0
 10
50.9205
 20
-39.0444
 30
0.0
 10
57.7517
 20
-48.1071
 30
0.0
 10
61.1206
 20
-51.3199
 30
0.0
 10
61.1206
 20
-51.3199
 30
0.0
 10
60.5393
 20
-46.0651
 30
0.0
 10
60.8301
 20
-40.6882
 30
0.0
 10
61.2408
 20
-36.1228
 30
0.0
  0
SPLINE
  5
51
330
1F
100
AcDbEntity
  8
layer 1
 62
     7
100
AcDbSpline
210
0.0
220
0.0
230
1.0
 70
    11
 71
     3
 72
    24
 73
    20
 74
     0
 42
0.0000000001
 43
0.0000000001
 12
1.0
 22
0.0
 32
0.0
 13
1.0
 23
0.0
 33
0.0
 40
0.0
 40
0.0
 40
0.0
 40
0.0
 40
0.1666666666666667
 40
0.1666666666666667
 40
0.1666666666666667
 40
0.1666666666666667
 40
0.3333333333333333
 40
0.3333333333333333
 40
0.3333333333333333
 40
0.3333333333333333
 40
0.5
 40
0.5
 40
0.5
 40
0.5
 40
0.6666666666666666
 40
0.6666666666666666
 40
0.6666666666666666
 40
0.6666666666666666
 40
1.0
 40
1.0
 40
1.0
 40
1.0
 10
46.077
 20
-37.3257
 30
0.0
 10
46.4681
 20
-41.3071
 30
0.0
 10
45.899
 20
-46.6493
 30
0.0
 10
44.1928
 20
-49.6476
 30
0.0
 10
44.1928
 20
-49.6476
 30
0.0
 10
45.6973
 20
-49.495
 30
0.0
 10
47.4098
 20
-49.4817
 30
0.0
 10
48.1587
 20
-49.5889
 30
0.0
 10
48.1587
 20
-49.5889
 30
0.0
 10
47.8172
 20
-50.7189
 30
0.0
 10
47.1528
 20
-52.6579
 30
0.0
 10
46.7408
 20
-53.5954
 30
0.0
 10
46.7408
 20
-53.5954
 30
0.0
 10
50.3537
 20
-53.758
 30
0.0
 10
55.2446
 20
-54.3392
 30
0.0
 10
58.9526
 20
-55.9147
 30
0.0
 10
58.9526
 20
-55.9147
 30
0.0
 10
54.23
 20
-49.9396
 30
0.0
 10
48.9068
 20
-41.9254
 30
0.0
 10
46.077
 20
-37.3257
 30
0.0
  0
SPLINE
  5
52
330
1F
100
AcDbEntity
  8
layer 1
 62
     7
100
AcDbSpline
210
0.0
220
0.0
230
1.0
 70
    11
 71
     3
 72
    16
 73
    12
 74
     0
 42
0.0000000001
 43
0.0000000001
 12
1.0
 22
0.0
 32
0.0
 13
1.0
 23
0.0
 33
0.0
 40
0.0
 40
0.0
 40
0.0
 40
0.0
 40
0.25
 40
0.25
 40
0.25
 40
0.25
 40
0.5
 40
0.5
 40
0.5
 40
0.5
 40
1.0
 40
1.0
 40
1.0
 40
1.0
 10
53.8761
 20
-81.1078
 30
0.0
 10
50.7105
 20
-82.6665
 30
0.0
 10
49.018
 20
-85.5401
 30
0.0
 10
48.9829
 20
-89.0601
 30
0.0
 10
48.9829
 20
-89.0601
 30
0.0
 10
52.7177
 20
-91.0277
 30
0.0
 10
55.7598
 20
-90.8387
 30
0.0
 10
58.4705
 20
-88.8037
 30
0.0
 10
58.4705
 20
-88.8037
 30
0.0
 10
55.2557
 20
-88.0632
 30
0.0
 10
52.8943
 20
-83.8641
 30
0.0
 10
53.8761
 20
-81.1078
 30
0.0
  0
SPLINE
  5
53
330
1F
100
AcDbEntity
  8
layer 1
 62
     7
100
AcDbSpline
210
0.0
220
0.0
230
1.0
 70
    11
 71
     3
 72
    24
 73
    20
 74
     0
 42
0.0000000001
 43
0.0000000001
 12
1.0
 22
0.0
 32
0.0
 13
1.0
 23
0.0
 33
0.0
 40
0.0
 40
0.0
 40
0.0
 40
0.0
 40
0.1666666666666667
 40
0.1666666666666667
 40
0.1666666666666667
 40
0.1666666666666667
 40
0.3333333333333333
 40
0.3333333333333333
 40
0.3333333333333333
 40
0.3333333333333333
 40
0.5
 40
0.5
 40
0.5
 40
0.5
 40
0.6666666666666666
 40
0.6666666666666666
 40
0.6666666666666666
 40
0.6666666666666666
 40
1.0
 40
1.0
 40
1.0
 40
1.0
 10
45.8463
 20
-68.0117
 30
0.0
 10
41.3884
 20
-68.4991
 30
0.0
 10
38.216
 20
-72.4487
 30
0.0
 10
37.8253
 20
-76.5131
 30
0.0
 10
37.8253
 20
-76.5131
 30
0.0
 10
37.3672
 20
-80.5098
 30
0.0
 10
40.4394
 20
-87.1109
 30
0.0
 10
45.4371
 20
-87.2561
 30
0.0
 10
45.4371
 20
-87.2561
 30
0.0
 10
46.4184
 20
-83.7838
 30
0.0
 10
47.2523
 20
-81.6404
 30
0.0
 10
48.8896
 20
-79.5521
 30
0.0
 10
48.8896
 20
-79.5521
 30
0.0
 10
41.3877
 20
-79.4451
 30
0.0
 10
41.3877
 20
-69.9464
 30
0.0
 10
45.8463
 20
-68.0116
 30
0.0
 10
45.8463
 20
-68.0116
 30
0.0
 10
45.8463
 20
-68.0116
 30
0.0
 10
45.8463
 20
-68.0117
 30
0.0
 10
45.8463
 20
-68.0117
 30
0.0
  0
SPLINE
  5
54
330
1F
100
AcDbEntity
  8
layer 1
 62
     7
100
AcDbSpline
210
0.0
220
0.0
230
1.0
 70
    11
 71
     3
 72
    24
 73
    20
 74
     0
 42
0.0000000001
 43
0.0000000001
 12
1.0
 22
0.0
 32
0.0
 13
1.0
 23
0.0
 33
0.0
 40
0.0
 40
0.0
 40
0.0
 40
0.0
 40
0.1666666666666667
 40
0.1666666666666667
 40
0.1666666666666667
 40
0.1666666666666667
 40
0.3333333333333333
 40
0.3333333333333333
 40
0.3333333333333333
 40
0.3333333333333333
 40
0.5
 40
0.5
 40
0.5
 40
0.5
 40
0.6666666666666666
 40
0.6666666666666666
 40
0.6666666666666666
 40
0.6666666666666666
 40
1.0
 40
1.0
 40
1.0
 40
1.0
 10
33.5163
 20
-80.3636
 30
0.0
 10
30.4754
 20
-79.9423
 30
0.0
 10
27.9169
 20
-81.0351
 30
0.0
 10
26.4559
 20
-83.594
 30
0.0
 10
26.4559
 20
-83.594
 30
0.0
 10
25.9759
 20
-84.6553
 30
0.0
 10
26.2279
 20
-85.8019
 30
0.0
 10
26.5041
 20
-86.6515
 30
0.0
 10
26.5041
 20
-86.6515
 30
0.0
 10
28.5699
 20
-91.5364
 30
0.0
 10
30.9319
 20
-93.8285
 30
0.0
 10
34.7717
 20
-95.4545
 30
0.0
 10
34.7717
 20
-95.4545
 30
0.0
 10
38.7858
 20
-96.9094
 30
0.0
 10
43.7439
 20
-96.3689
 30
0.0
 10
46.9459
 20
-93.9652
 30
0.0
 10
46.9459
 20
-93.9652
 30
0.0
 10
38.8017
 20
-91.5714
 30
0.0
 10
34.8534
 20
-86.3844
 30
0.0
 10
33.5163
 20
-80.3636
 30
0.0
  0
SPLINE
  5
55
330
1F
100
AcDbEntity
  8
layer 1
 62
     7
100
AcDbSpline
210
0.0
220
0.0
230
1.0
 70
    11
 71
     3
 72
    28
 73
    24
 74
     0
 42
0.0000000001
 43
0.0000000001
 12
1.0
 22
0.0
 32
0.0
 13
1.0
 23
0.0
 33
0.0
 40
0.0
 40
0.0
 40
0.0
 40
0.0
 40
0.1428571428571428
 40
0.1428571428571428
 40
0.1428571428571428
 40
0.1428571428571428
 40
0.2857142857142857
 40
0.2857142857142857
 40
0.2857142857142857
 40
0.2857142857142857
 40
0.4285714285714285
 40
0.4285714285714285
 40
0.4285714285714285
 40
0.4285714285714285
 40
0.5714285714285714
 40
0.5714285714285714
 40
0.5714285714285714
 40
0.5714285714285714
 40
0.7142857142857143
 40
0.7142857142857143
 40
0.7142857142857143
 40
0.7142857142857143
 40
1.0
 40
1.0
 40
1.0
 40
1.0
 10
38.1026
 20
1.1036
 30
0.0
 10
38.188
 20
-5.7677
 30
0.0
 10
29.2676
 20
-8.6347
 30
0.0
 10
25.0639
 20
-1.9014
 30
0.0
 10
25.0639
 20
-1.9014
 30
0.0
 10
25.6916
 20
-7.5561
 30
0.0
 10
28.6469
 20
-10.2038
 30
0.0
 10
32.2408
 20
-13.5308
 30
0.0
 10
32.2408
 20
-13.5308
 30
0.0
 10
35.1945
 20
-16.2652
 30
0.0
 10
39.8679
 20
-21.392
 30
0.0
 10
43.3085
 20
-25.9663
 30
0.0
 10
43.3085
 20
-25.9663
 30
0.0
 10
43.4466
 20
-21.4654
 30
0.0
 10
44.0331
 20
-17.0578
 30
0.0
 10
44.8206
 20
-13.2276
 30
0.0
 10
44.8206
 20
-13.2276
 30
0.0
 10
45.5815
 20
-9.5269
 30
0.0
 10
46.4884
 20
-8.2549
 30
0.0
 10
46.1469
 20
-5.557
 30
0.0
 10
46.1469
 20
-5.557
 30
0.0
 10
45.4451
 20
-0.1725
 30
0.0
 10
40.5544
 20
1.4503
 30
0.0
 10
38.1026
 20
1.1036
 30
0.0
  0
SPLINE
  5
56
330
1F
100
AcDbEntity
  8
layer 1
 62
     7
100
AcDbSpline
210
0.0
220
0.0
230
1.0
 70
    11
 71
     3
 72
    32
 73
    28
 74
     0
 42
0.0000000001
 43
0.0000000001
 12
1.0
 22
0.0
 32
0.0
 13
1.0
 23
0.0
 33
0.0
 40
0.0
 40
0.0
 40
0.0
 40
0.0
 40
0.125
 40
0.125
 40
0.125
 40
0.125
 40
0.25
 40
0.25
 40
0.25
 40
0.25
 40
0.375
 40
0.375
 40
0.375
 40
0.375
 40
0.5
 40
0.5
 40
0.5
 40
0.5
 40
0.625
 40
0.625
 40
0.625
 40
0.625
 40
0.75
 40
0.75
 40
0.75
 40
0.75
 40
1.0
 40
1.0
 40
1.0
 40
1.0
 10
27.9723
 20
-33.2266
 30
0.0
 10
33.5132
 20
-33.9361
 30
0.0
 10
35.0919
 20
-40.366
 30
0.0
 10
30.8093
 20
-44.2804
 30
0.0
 10
30.8093
 20
-44.2804
 30
0.0
 10
26.6623
 20
-47.8272
 30
0.0
 10
21.2394
 20
-46.3175
 30
0.0
 10
19.1076
 20
-40.9909
 30
0.0
 10
19.1076
 20
-40.9909
 30
0.0
 10
19.1076
 20
-40.9909
 30
0.0
 10
19.0968
 20
-53.5777
 30
0.0
 10
19.0968
 20
-53.5777
 30
0.0
 10
19.0968
 20
-53.5777
 30
0.0
 10
24.1232
 20
-50.6539
 30
0.0
 10
29.8712
 20
-53.8341
 30
0.0
 10
30.9899
 20
-57.1198
 30
0.0
 10
30.9899
 20
-57.1198
 30
0.0
 10
35.7321
 20
-54.5532
 30
0.0
 10
39.1233
 20
-50.2535
 30
0.0
 10
40.6712
 20
-44.4819
 30
0.0
 10
40.6712
 20
-44.4819
 30
0.0
 10
42.7151
 20
-36.0348
 30
0.0
 10
34.8905
 20
-30.1793
 30
0.0
 10
27.9723
 20
-33.2266
 30
0.0
 10
27.9723
 20
-33.2266
 30
0.0
 10
27.9723
 20
-33.2266
 30
0.0
 10
27.9723
 20
-33.2266
 30
0.0
 10
27.9723
 20
-33.2266
 30
0.0
  0
SPLINE
  5
57
330
1F
100
AcDbEntity
  8
layer 1
 62
     7
100
AcDbSpline
210
0.0
220
0.0
230
1.0
 70
    11
 71
     3
 72
    16
 73
    12
 74
     0
 42
0.0000000001
 43
0.0000000001
 12
1.0
 22
0.0
 32
0.0
 13
1.0
 23
0.0
 33
0.0
 40
0.0
 40
0.0
 40
0.0
 40
0.0
 40
0.25
 40
0.25
 40
0.25
 40
0.25
 40
0.5
 40
0.5
 40
0.5
 40
0.5
 40
1.0
 40
1.0
 40
1.0
 40
1.0
 10
19.059
 20
-6.8105
 30
0.0
 10
19.059
 20
-6.8105
 30
0.0
 10
19.1514
 20
-34.1836
 30
0.0
 10
19.1514
 20
-34.1836
 30
0.0
 10
19.1514
 20
-34.1836
 30
0.0
 10
21.6561
 20
-28.1512
 30
0.0
 10
31.058
 20
-25.9786
 30
0.0
 10
37.8341
 20
-27.2938
 30
0.0
 10
37.8341
 20
-27.2938
 30
0.0
 10
30.0336
 20
-21.1146
 30
0.0
 10
24.2699
 20
-14.4215
 30
0.0
 10
19.059
 20
-6.8105
 30
0.0
  0
SPLINE
  5
58
330
1F
100
AcDbEntity
  8
layer 1
 62
     7
100
AcDbSpline
210
0.0
220
0.0
230
1.0
 70
    11
 71
     3
 72
    20
 73
    16
 74
     0
 42
0.0000000001
 43
0.0000000001
 12
1.0
 22
0.0
 32
0.0
 13
1.0
 23
0.0
 33
0.0
 40
0.0
 40
0.0
 40
0.0
 40
0.0
 40
0.2
 40
0.2
 40
0.2
 40
0.2
 40
0.4
 40
0.4
 40
0.4
 40
0.4
 40
0.6
 40
0.6
 40
0.6
 40
0.6
 40
1.0
 40
1.0
 40
1.0
 40
1.0
 10
36.7925
 20
-101.0127
 30
0.0
 10
27.5458
 20
-100.2245
 30
0.0
 10
21.4929
 20
-94.253
 30
0.0
 10
19.0811
 20
-88.0537
 30
0.0
 10
19.0811
 20
-88.0537
 30
0.0
 10
19.0811
 20
-88.0537
 30
0.0
 10
19.1091
 20
-106.2857
 30
0.0
 10
19.1091
 20
-106.2857
 30
0.0
 10
19.1091
 20
-106.2857
 30
0.0
 10
19.1091
 20
-106.2857
 30
0.0
 10
36.8313
 20
-106.3032
 30
0.0
 10
36.8313
 20
-106.3032
 30
0.0
 10
36.8313
 20
-106.3032
 30
0.0
 10
36.8313
 20
-106.3032
 30
0.0
 10
36.7925
 20
-101.0127
 30
0.0
 10
36.7925
 20
-101.0127
 30
0.0
  0
SPLINE
  5
59
330
1F
100
AcDbEntity
  8
layer 1
 62
     7
100
AcDbSpline
210
0.0
220
0.0
230
1.0
 70
    11
 71
     3
 72
    20
 73
    16
 74
     0
 42
0.0000000001
 43
0.0000000001
 12
1.0
 22
0.0
 32
0.0
 13
1.0
 23
0.0
 33
0.0
 40
0.0
 40
0.0
 40
0.0
 40
0.0
 40
0.2
 40
0.2
 40
0.2
 40
0.2
 40
0.4
 40
0.4
 40
0.4
 40
0.4
 40
0.6
 40
0.6
 40
0.6
 40
0.6
 40
1.0
 40
1.0
 40
1.0
 40
1.0
 10
32.1027
 20
-62.3994
 30
0.0
 10
32.0672
 20
-62.4348
 30
0.0
 10
32.1303
 20
-62.4601
 30
0.0
 10
32.2428
 20
-62.4554
 30
0.0
 10
32.2428
 20
-62.4554
 30
0.0
 10
32.3671
 20
-62.4503
 30
0.0
 10
32.3924
 20
-62.425
 30
0.0
 10
32.3073
 20
-62.391
 30
0.0
 10
32.3073
 20
-62.391
 30
0.0
 10
32.2302
 20
-62.3602
 30
0.0
 10
32.1382
 20
-62.364
 30
0.0
 10
32.1027
 20
-62.3994
 30
0.0
 10
32.1027
 20
-62.3994
 30
0.0
 10
32.1027
 20
-62.3994
 30
0.0
 10
32.1027
 20
-62.3994
 30
0.0
 10
32.1027
 20
-62.3994
 30
0.0
  0
SPLINE
  5
5A
330
1F
100
AcDbEntity
  8
layer 1
 62
     7
100
AcDbSpline
210
0.0
220
0.0
230
1.0
 70
    11
 71
     3
 72
    16
 73
    12
 74
     0
 42
0.0000000001
 43
0.0000000001
 12
1.0
 22
0.0
 32
0.0
 13
1.0
 23
0.0
 33
0.0
 40
0.0
 40
0.0
 40
0.0
 40
0.0
 40
0.25
 40
0.25
 40
0.25
 40
0.25
 40
0.5
 40
0.5
 40
0.5
 40
0.5
 40
1.0
 40
1.0
 40
1.0
 40
1.0
 10
19.0811
 20
0.1607
 30
0.0
 10
20.6077
 20
4.1127
 30
0.0
 10
23.5647
 20
7.1517
 30
0.0
 10
27.488
 20
8.4385
 30
0.0
 10
27.488
 20
8.4385
 30
0.0
 10
23.5646
 20
9.7252
 30
0.0
 10
20.6077
 20
12.7642
 30
0.0
 10
19.0811
 20
16.7162
 30
0.0
 10
19.0811
 20
16.7162
 30
0.0
 10
19.0811
 20
16.7162
 30
0.0
 10
19.0811
 20
0.1607
 30
0.0
 10
19.0811
 20
0.1607
 30
0.0
  0
SPLINE
  5
5B
330
1F
100
AcDbEntity
  8
layer 1
 62
     7
100
AcDbSpline
210
0.0
220
0.0
230
1.0
 70
    11
 71
     3
 72
    16
 73
    12
 74
     0
 42
0.0000000001
 43
0.0000000001
 12
1.0
 22
0.0
 32
0.0
 13
1.0
 23
0.0
 33
0.0
 40
0.0
 40
0.0
 40
0.0
 40
0.0
 40
0.25
 40
0.25
 40
0.25
 40
0.25
 40
0.5
 40
0.5
 40
0.5
 40
0.5
 40
1.0
 40
1.0
 40
1.0
 40
1.0
 10
19.0542
 20
-56.0718
 30
0.0
 10
19.0544
 20
-61.5997
 30
0.0
 10
19.0546
 20
-67.1276
 30
0.0
 10
19.0548
 20
-72.6554
 30
0.0
 10
19.0548
 20
-72.6554
 30
0.0
 10
22.4188
 20
-64.5556
 30
0.0
 10
24.9625
 20
-65.8065
 30
0.0
 10
24.9986
 20
-61.0646
 30
0.0
 10
24.9986
 20
-61.0646
 30
0.0
 10
24.9571
 20
-57.9085
 30
0.0
 10
22.0502
 20
-55.8879
 30
0.0
 10
19.0542
 20
-56.0718
 30
0.0
  0
SPLINE
  5
5C
330
1F
100
AcDbEntity
  8
layer 1
 62
     7
100
AcDbSpline
210
0.0
220
0.0
230
1.0
 70
    11
 71
     3
 72
    20
 73
    16
 74
     0
 42
0.0000000001
 43
0.0000000001
 12
1.0
 22
0.0
 32
0.0
 13
1.0
 23
0.0
 33
0.0
 40
0.0
 40
0.0
 40
0.0
 40
0.0
 40
0.2
 40
0.2
 40
0.2
 40
0.2
 40
0.4
 40
0.4
 40
0.4
 40
0.4
 40
0.6
 40
0.6
 40
0.6
 40
0.6
 40
1.0
 40
1.0
 40
1.0
 40
1.0
 10
103.239
 20
12.0123
 30
0.0
 10
105.2195
 20
12.0123
 30
0.0
 10
106.8249
 20
10.4068
 30
0.0
 10
106.8249
 20
8.4264
 30
0.0
 10
106.8249
 20
8.4264
 30
0.0
 10
106.8249
 20
6.4459
 30
0.0
 10
105.2195
 20
4.8404
 30
0.0
 10
103.239
 20
4.8404
 30
0.0
 10
103.239
 20
4.8404
 30
0.0
 10
101.2585
 20
4.8404
 30
0.0
 10
99.653
 20
6.4459
 30
0.0
 10
99.653
 20
8.4264
 30
0.0
 10
99.653
 20
8.4264
 30
0.0
 10
99.653
 20
10.4068
 30
0.0
 10
101.2585
 20
12.0123
 30
0.0
 10
103.239
 20
12.0123
 30
0.0
  0
SPLINE
  5
5D
330
1F
100
AcDbEntity
  8
layer 1
 62
     7
100
AcDbSpline
210
0.0
220
0.0
230
1.0
 70
    11
 71
     3
 72
    40
 73
    36
 74
     0
 42
0.0000000001
 43
0.0000000001
 12
1.0
 22
0.0
 32
0.0
 13
1.0
 23
0.0
 33
0.0
 40
0.0
 40
0.0
 40
0.0
 40
0.0
 40
0.1
 40
0.1
 40
0.1
 40
0.1
 40
0.2
 40
0.2
 40
0.2
 40
0.2
 40
0.3
 40
0.3
 40
0.3
 40
0.3
 40
0.4
 40
0.4
 40
0.4
 40
0.4
 40
0.5
 40
0.5
 40
0.5
 40
0.5
 40
0.6
 40
0.6
 40
0.6
 40
0.6
 40
0.7
 40
0.7
 40
0.7
 40
0.7
 40
0.8
 40
0.8
 40
0.8
 40
0.8
 40
1.0
 40
1.0
 40
1.0
 40
1.0
 10
90.3418
 20
104.0431
 30
0.0
 10
93.6718
 20
110.7127
 30
0.0
 10
91.2689
 20
119.3637
 30
0.0
 10
86.2707
 20
123.1802
 30
0.0
 10
86.2707
 20
123.1802
 30
0.0
 10
86.2707
 20
123.1802
 30
0.0
 10
97.1553
 20
123.1802
 30
0.0
 10
97.1553
 20
123.1802
 30
0.0
 10
97.1553
 20
123.1802
 30
0.0
 10
95.8621
 20
117.7805
 30
0.0
 10
98.0964
 20
112.0585
 30
0.0
 10
103.2518
 20
109.5485
 30
0.0
 10
103.2518
 20
109.5485
 30
0.0
 10
108.4072
 20
112.0585
 30
0.0
 10
110.6415
 20
117.7805
 30
0.0
 10
109.3483
 20
123.1802
 30
0.0
 10
109.3483
 20
123.1802
 30
0.0
 10
109.3483
 20
123.1802
 30
0.0
 10
120.2328
 20
123.1802
 30
0.0
 10
120.2328
 20
123.1802
 30
0.0
 10
120.2328
 20
123.1802
 30
0.0
 10
115.2346
 20
119.3637
 30
0.0
 10
112.8317
 20
110.7127
 30
0.0
 10
116.1617
 20
104.0431
 30
0.0
 10
116.1617
 20
104.0431
 30
0.0
 10
111.8681
 20
105.764
 30
0.0
 10
106.1655
 20
105.2238
 30
0.0
 10
103.2518
 20
99.2273
 30
0.0
 10
103.2518
 20
99.2273
 30
0.0
 10
100.3381
 20
105.2238
 30
0.0
 10
94.6355
 20
105.764
 30
0.0
 10
90.3419
 20
104.0431
 30
0.0
 10
90.3419
 20
104.0431
 30
0.0
 10
90.3419
 20
104.0431
 30
0.0
 10
90.3418
 20
104.0431
 30
0.0
 10
90.3418
 20
104.0431
 30
0.0
  0
SPLINE
  5
5E
330
1F
100
AcDbEntity
  8
layer 1
 62
     7
100
AcDbSpline
210
0.0
220
0.0
230
1.0
 70
    11
 71
     3
 72
    20
 73
    16
 74
     0
 42
0.0000000001
 43
0.0000000001
 12
1.0
 22
0.0
 32
0.0
 13
1.0
 23
0.0
 33
0.0
 40
0.0
 40
0.0
 40
0.0
 40
0.0
 40
0.2
 40
0.2
 40
0.2
 40
0.2
 40
0.4
 40
0.4
 40
0.4
 40
0.4
 40
0.6
 40
0.6
 40
0.6
 40
0.6
 40
1.0
 40
1.0
 40
1.0
 40
1.0
 10
97.5341
 20
54.2502
 30
0.0
 10
100.4629
 20
57.2076
 30
0.0
 10
102.0497
 20
59.7692
 30
0.0
 10
103.2518
 20
63.8667
 30
0.0
 10
103.2518
 20
63.8667
 30
0.0
 10
104.4538
 20
59.7692
 30
0.0
 10
106.0406
 20
57.2076
 30
0.0
 10
108.9694
 20
54.2502
 30
0.0
 10
108.9694
 20
54.2502
 30
0.0
 10
106.4971
 20
50.3142
 30
0.0
 10
104.5099
 20
46.2446
 30
0.0
 10
103.2518
 20
41.8828
 30
0.0
 10
103.2518
 20
41.8828
 30
0.0
 10
101.9936
 20
46.2446
 30
0.0
 10
100.0064
 20
50.3142
 30
0.0
 10
97.5341
 20
54.2502
 30
0.0
  0
SPLINE
  5
5F
330
1F
100
AcDbEntity
  8
layer 1
 62
     7
100
AcDbSpline
210
0.0
220
0.0
230
1.0
 70
    11
 71
     3
 72
    28
 73
    24
 74
     0
 42
0.0000000001
 43
0.0000000001
 12
1.0
 22
0.0
 32
0.0
 13
1.0
 23
0.0
 33
0.0
 40
0.0
 40
0.0
 40
0.0
 40
0.0
 40
0.1428571428571428
 40
0.1428571428571428
 40
0.1428571428571428
 40
0.1428571428571428
 40
0.2857142857142857
 40
0.2857142857142857
 40
0.2857142857142857
 40
0.2857142857142857
 40
0.4285714285714285
 40
0.4285714285714285
 40
0.4285714285714285
 40
0.4285714285714285
 40
0.5714285714285714
 40
0.5714285714285714
 40
0.5714285714285714
 40
0.5714285714285714
 40
0.7142857142857143
 40
0.7142857142857143
 40
0.7142857142857143
 40
0.7142857142857143
 40
1.0
 40
1.0
 40
1.0
 40
1.0
 10
94.1778
 20
16.8196
 30
0.0
 10
85.4293
 20
8.4505
 30
0.0
 10
68.739
 20
6.1086
 30
0.0
 10
57.6755
 20
13.7153
 30
0.0
 10
57.6755
 20
13.7153
 30
0.0
 10
57.6845
 20
10.954
 30
0.0
 10
57.3398
 20
9.6987
 30
0.0
 10
55.0034
 20
8.4384
 30
0.0
 10
55.0034
 20
8.4384
 30
0.0
 10
57.3398
 20
7.1781
 30
0.0
 10
57.6845
 20
5.9229
 30
0.0
 10
57.6755
 20
3.1615
 30
0.0
 10
57.6755
 20
3.1615
 30
0.0
 10
68.7389
 20
10.7682
 30
0.0
 10
85.4293
 20
8.4264
 30
0.0
 10
94.1778
 20
0.0573
 30
0.0
 10
94.1778
 20
0.0573
 30
0.0
 10
98.0001
 20
1.8096
 30
0.0
 10
97.5298
 20
7.1601
 30
0.0
 10
94.6105
 20
8.4384
 30
0.0
 10
94.6105
 20
8.4384
 30
0.0
 10
97.5298
 20
9.7167
 30
0.0
 10
98.0001
 20
15.0672
 30
0.0
 10
94.1778
 20
16.8196
 30
0.0
  0
SPLINE
  5
60
330
1F
100
AcDbEntity
  8
layer 1
 62
     7
100
AcDbSpline
210
0.0
220
0.0
230
1.0
 70
    11
 71
     3
 72
    40
 73
    36
 74
     0
 42
0.0000000001
 43
0.0000000001
 12
1.0
 22
0.0
 32
0.0
 13
1.0
 23
0.0
 33
0.0
 40
0.0
 40
0.0
 40
0.0
 40
0.0
 40
0.1
 40
0.1
 40
0.1
 40
0.1
 40
0.2
 40
0.2
 40
0.2
 40
0.2
 40
0.3
 40
0.3
 40
0.3
 40
0.3
 40
0.4
 40
0.4
 40
0.4
 40
0.4
 40
0.5
 40
0.5
 40
0.5
 40
0.5
 40
0.6
 40
0.6
 40
0.6
 40
0.6
 40
0.7
 40
0.7
 40
0.7
 40
0.7
 40
0.8
 40
0.8
 40
0.8
 40
0.8
 40
1.0
 40
1.0
 40
1.0
 40
1.0
 10
89.9683
 20
21.2335
 30
0.0
 10
89.406
 20
24.1612
 30
0.0
 10
90.1477
 20
28.0267
 30
0.0
 10
92.4482
 20
30.2052
 30
0.0
 10
92.4482
 20
30.2052
 30
0.0
 10
90.7103
 20
29.7322
 30
0.0
 10
87.4617
 20
30.1943
 30
0.0
 10
87.4396
 20
30.8375
 30
0.0
 10
87.4396
 20
30.8375
 30
0.0
 10
95.0424
 20
43.5404
 30
0.0
 10
81.5767
 20
53.2119
 30
0.0
 10
73.0472
 20
49.1396
 30
0.0
 10
73.0472
 20
49.1396
 30
0.0
 10
71.7432
 20
49.9819
 30
0.0
 10
68.5429
 20
51.2888
 30
0.0
 10
67.7218
 20
52.688
 30
0.0
 10
67.7218
 20
52.688
 30
0.0
 10
71.4554
 20
55.1729
 30
0.0
 10
75.0566
 20
56.4737
 30
0.0
 10
79.8301
 20
56.2371
 30
0.0
 10
79.8301
 20
56.2371
 30
0.0
 10
84.676
 20
56.3281
 30
0.0
 10
91.0887
 20
53.6093
 30
0.0
 10
94.0795
 20
48.4993
 30
0.0
 10
94.0795
 20
48.4993
 30
0.0
 10
95.7288
 20
45.7226
 30
0.0
 10
97.0195
 20
41.2321
 30
0.0
 10
96.7306
 20
37.614
 30
0.0
 10
96.7306
 20
37.614
 30
0.0
 10
96.861
 20
30.4593
 30
0.0
 10
93.5541
 20
24.9404
 30
0.0
 10
89.9683
 20
21.2335
 30
0.0
 10
89.9683
 20
21.2335
 30
0.0
 10
89.9683
 20
21.2335
 30
0.0
 10
89.9683
 20
21.2335
 30
0.0
 10
89.9683
 20
21.2335
 30
0.0
  0
SPLINE
  5
61
330
1F
100
AcDbEntity
  8
layer 1
 62
     7
100
AcDbSpline
210
0.0
220
0.0
230
1.0
 70
    11
 71
     3
 72
    40
 73
    36
 74
     0
 42
0.0000000001
 43
0.0000000001
 12
1.0
 22
0.0
 32
0.0
 13
1.0
 23
0.0
 33
0.0
 40
0.0
 40
0.0
 40
0.0
 40
0.0
 40
0.1
 40
0.1
 40
0.1
 40
0.1
 40
0.2
 40
0.2
 40
0.2
 40
0.2
 40
0.3
 40
0.3
 40
0.3
 40
0.3
 40
0.4
 40
0.4
 40
0.4
 40
0.4
 40
0.5
 40
0.5
 40
0.5
 40
0.5
 40
0.6
 40
0.6
 40
0.6
 40
0.6
 40
0.7
 40
0.7
 40
0.7
 40
0.7
 40
0.8
 40
0.8
 40
0.8
 40
0.8
 40
1.0
 40
1.0
 40
1.0
 40
1.0
 10
89.5624
 20
59.5739
 30
0.0
 10
90.3073
 20
65.4317
 30
0.0
 10
87.0556
 20
70.8295
 30
0.0
 10
82.9992
 20
75.2522
 30
0.0
 10
82.9992
 20
75.2522
 30
0.0
 10
80.3712
 20
78.1178
 30
0.0
 10
77.4948
 20
80.6859
 30
0.0
 10
74.846
 20
82.3261
 30
0.0
 10
74.846
 20
82.3261
 30
0.0
 10
77.4262
 20
85.1235
 30
0.0
 10
82.6419
 20
91.091
 30
0.0
 10
85.7333
 20
96.678
 30
0.0
 10
85.7333
 20
96.678
 30
0.0
 10
84.651
 20
91.2832
 30
0.0
 10
86.4091
 20
88.0686
 30
0.0
 10
88.1899
 20
86.0439
 30
0.0
 10
88.1899
 20
86.0439
 30
0.0
 10
87.0497
 20
86.4767
 30
0.0
 10
85.75
 20
86.5439
 30
0.0
 10
83.8571
 20
86.4702
 30
0.0
 10
83.8571
 20
86.4702
 30
0.0
 10
80.0178
 20
81.7969
 30
0.0
 10
84.9086
 20
78.7323
 30
0.0
 10
87.8489
 20
75.6309
 30
0.0
 10
87.8489
 20
75.6309
 30
0.0
 10
90.0009
 20
73.3519
 30
0.0
 10
91.9318
 20
70.9583
 30
0.0
 10
92.8374
 20
69.6415
 30
0.0
 10
92.8374
 20
69.6415
 30
0.0
 10
96.4896
 20
64.7002
 30
0.0
 10
93.4594
 20
60.1732
 30
0.0
 10
89.5624
 20
59.5738
 30
0.0
 10
89.5624
 20
59.5738
 30
0.0
 10
89.5624
 20
59.5738
 30
0.0
 10
89.5624
 20
59.5739
 30
0.0
 10
89.5624
 20
59.5739
 30
0.0
  0
SPLINE
  5
62
330
1F
100
AcDbEntity
  8
layer 1
 62
     7
100
AcDbSpline
210
0.0
220
0.0
230
1.0
 70
    11
 71
     3
 72
    28
 73
    24
 74
     0
 42
0.0000000001
 43
0.0000000001
 12
1.0
 22
0.0
 32
0.0
 13
1.0
 23
0.0
 33
0.0
 40
0.0
 40
0.0
 40
0.0
 40
0.0
 40
0.1428571428571428
 40
0.1428571428571428
 40
0.1428571428571428
 40
0.1428571428571428
 40
0.2857142857142857
 40
0.2857142857142857
 40
0.2857142857142857
 40
0.2857142857142857
 40
0.4285714285714285
 40
0.4285714285714285
 40
0.4285714285714285
 40
0.4285714285714285
 40
0.5714285714285714
 40
0.5714285714285714
 40
0.5714285714285714
 40
0.5714285714285714
 40
0.7142857142857143
 40
0.7142857142857143
 40
0.7142857142857143
 40
0.7142857142857143
 40
1.0
 40
1.0
 40
1.0
 40
1.0
 10
72.0971
 20
14.5642
 30
0.0
 10
71.9538
 20
18.5054
 30
0.0
 10
67.7244
 20
20.7679
 30
0.0
 10
64.3019
 20
19.5719
 30
0.0
 10
64.3019
 20
19.5719
 30
0.0
 10
58.4742
 20
21.4824
 30
0.0
 10
50.4928
 20
29.9746
 30
0.0
 10
49.9502
 20
33.1255
 30
0.0
 10
49.9502
 20
33.1255
 30
0.0
 10
51.8314
 20
30.9754
 30
0.0
 10
57.4577
 20
30.7265
 30
0.0
 10
59.8285
 20
31.3771
 30
0.0
 10
59.8285
 20
31.3771
 30
0.0
 10
66.6709
 20
21.985
 30
0.0
 10
78.045
 20
21.4129
 30
0.0
 10
83.8326
 20
23.9068
 30
0.0
 10
83.8326
 20
23.9068
 30
0.0
 10
84.9409
 20
22.5077
 30
0.0
 10
86.4356
 20
20.5861
 30
0.0
 10
88.018
 20
19.6854
 30
0.0
 10
88.018
 20
19.6854
 30
0.0
 10
83.9321
 20
15.596
 30
0.0
 10
76.967
 20
13.883
 30
0.0
 10
72.0971
 20
14.5642
 30
0.0
  0
SPLINE
  5
63
330
1F
100
AcDbEntity
  8
layer 1
 62
     7
100
AcDbSpline
210
0.0
220
0.0
230
1.0
 70
    11
 71
     3
 72
    44
 73
    40
 74
     0
 42
0.0000000001
 43
0.0000000001
 12
1.0
 22
0.0
 32
0.0
 13
1.0
 23
0.0
 33
0.0
 40
0.0
 40
0.0
 40
0.0
 40
0.0
 40
0.0909090909090909
 40
0.0909090909090909
 40
0.0909090909090909
 40
0.0909090909090909
 40
0.1818181818181818
 40
0.1818181818181818
 40
0.1818181818181818
 40
0.1818181818181818
 40
0.2727272727272727
 40
0.2727272727272727
 40
0.2727272727272727
 40
0.2727272727272727
 40
0.3636363636363636
 40
0.3636363636363636
 40
0.3636363636363636
 40
0.3636363636363636
 40
0.4545454545454545
 40
0.4545454545454545
 40
0.4545454545454545
 40
0.4545454545454545
 40
0.5454545454545454
 40
0.5454545454545454
 40
0.5454545454545454
 40
0.5454545454545454
 40
0.6363636363636364
 40
0.6363636363636364
 40
0.6363636363636364
 40
0.6363636363636364
 40
0.7272727272727273
 40
0.7272727272727273
 40
0.7272727272727273
 40
0.7272727272727273
 40
0.8181818181818182
 40
0.8181818181818182
 40
0.8181818181818182
 40
0.8181818181818182
 40
1.0
 40
1.0
 40
1.0
 40
1.0
 10
81.2289
 20
100.5946
 30
0.0
 10
79.1755
 20
104.9547
 30
0.0
 10
72.6215
 20
106.5751
 30
0.0
 10
68.6271
 20
102.9739
 30
0.0
 10
68.6271
 20
102.9739
 30
0.0
 10
68.5297
 20
105.6251
 30
0.0
 10
67.5543
 20
107.1678
 30
0.0
 10
66.3391
 20
108.7495
 30
0.0
 10
66.3391
 20
108.7495
 30
0.0
 10
65.6207
 20
109.6845
 30
0.0
 10
64.85
 20
110.438
 30
0.0
 10
64.4336
 20
111.3913
 30
0.0
 10
64.4336
 20
111.3913
 30
0.0
 10
63.5986
 20
115.3193
 30
0.0
 10
66.4978
 20
116.9878
 30
0.0
 10
68.8419
 20
116.8164
 30
0.0
 10
68.8419
 20
116.8164
 30
0.0
 10
73.7026
 20
116.1693
 30
0.0
 10
73.7933
 20
110.6315
 30
0.0
 10
71.1326
 20
108.8902
 30
0.0
 10
71.1326
 20
108.8902
 30
0.0
 10
78.451
 20
110.0126
 30
0.0
 10
80.1893
 20
119.546
 30
0.0
 10
73.7757
 20
123.1802
 30
0.0
 10
73.7757
 20
123.1802
 30
0.0
 10
73.7757
 20
123.1802
 30
0.0
 10
80.3313
 20
123.1802
 30
0.0
 10
80.3313
 20
123.1802
 30
0.0
 10
80.3313
 20
123.1802
 30
0.0
 10
84.518
 20
120.1386
 30
0.0
 10
86.0702
 20
115.2104
 30
0.0
 10
86.0022
 20
110.8542
 30
0.0
 10
86.0022
 20
110.8542
 30
0.0
 10
85.8884
 20
107.2728
 30
0.0
 10
83.8422
 20
103.1803
 30
0.0
 10
81.2289
 20
100.5947
 30
0.0
 10
81.2289
 20
100.5947
 30
0.0
 10
81.2289
 20
100.5947
 30
0.0
 10
81.2289
 20
100.5946
 30
0.0
 10
81.2289
 20
100.5946
 30
0.0
  0
SPLINE
  5
64
330
1F
100
AcDbEntity
  8
layer 1
 62
     7
100
AcDbSpline
210
0.0
220
0.0
230
1.0
 70
    11
 71
     3
 72
    40
 73
    36
 74
     0
 42
0.0000000001
 43
0.0000000001
 12
1.0
 22
0.0
 32
0.0
 13
1.0
 23
0.0
 33
0.0
 40
0.0
 40
0.0
 40
0.0
 40
0.0
 40
0.1
 40
0.1
 40
0.1
 40
0.1
 40
0.2
 40
0.2
 40
0.2
 40
0.2
 40
0.3
 40
0.3
 40
0.3
 40
0.3
 40
0.4
 40
0.4
 40
0.4
 40
0.4
 40
0.5
 40
0.5
 40
0.5
 40
0.5
 40
0.6
 40
0.6
 40
0.6
 40
0.6
 40
0.7
 40
0.7
 40
0.7
 40
0.7
 40
0.8
 40
0.8
 40
0.8
 40
0.8
 40
1.0
 40
1.0
 40
1.0
 40
1.0
 10
84.4779
 20
35.2901
 30
0.0
 10
83.7044
 20
31.3048
 30
0.0
 10
80.0055
 20
29.364
 30
0.0
 10
75.06
 20
29.8127
 30
0.0
 10
75.06
 20
29.8127
 30
0.0
 10
70.1926
 20
30.265
 30
0.0
 10
66.2103
 20
33.0974
 30
0.0
 10
64.3023
 20
37.4292
 30
0.0
 10
64.3023
 20
37.4292
 30
0.0
 10
62.4545
 20
41.6244
 30
0.0
 10
63.1921
 20
46.7307
 30
0.0
 10
64.7113
 20
49.0662
 30
0.0
 10
64.7113
 20
49.0662
 30
0.0
 10
66.1483
 20
48.1922
 30
0.0
 10
68.0888
 20
46.6805
 30
0.0
 10
69.9946
 20
45.7763
 30
0.0
 10
69.9946
 20
45.7763
 30
0.0
 10
67.9809
 20
39.4307
 30
0.0
 10
72.5672
 20
34.1726
 30
0.0
 10
77.9091
 20
36.9475
 30
0.0
 10
77.9091
 20
36.9475
 30
0.0
 10
75.6405
 20
38.2376
 30
0.0
 10
76.1347
 20
40.3636
 30
0.0
 10
77.6153
 20
41.3709
 30
0.0
 10
77.6153
 20
41.3709
 30
0.0
 10
78.6319
 20
42.0626
 30
0.0
 10
80.2308
 20
41.9634
 30
0.0
 10
81.2502
 20
41.7598
 30
0.0
 10
81.2502
 20
41.7598
 30
0.0
 10
84.1446
 20
40.9531
 30
0.0
 10
84.8272
 20
37.8963
 30
0.0
 10
84.4778
 20
35.2902
 30
0.0
 10
84.4778
 20
35.2902
 30
0.0
 10
84.4778
 20
35.2902
 30
0.0
 10
84.4779
 20
35.2901
 30
0.0
 10
84.4779
 20
35.2901
 30
0.0
  0
SPLINE
  5
65
330
1F
100
AcDbEntity
  8
layer 1
 62
     7
100
AcDbSpline
210
0.0
220
0.0
230
1.0
 70
    11
 71
     3
 72
    40
 73
    36
 74
     0
 42
0.0000000001
 43
0.0000000001
 12
1.0
 22
0.0
 32
0.0
 13
1.0
 23
0.0
 33
0.0
 40
0.0
 40
0.0
 40
0.0
 40
0.0
 40
0.1
 40
0.1
 40
0.1
 40
0.1
 40
0.2
 40
0.2
 40
0.2
 40
0.2
 40
0.3
 40
0.3
 40
0.3
 40
0.3
 40
0.4
 40
0.4
 40
0.4
 40
0.4
 40
0.5
 40
0.5
 40
0.5
 40
0.5
 40
0.6
 40
0.6
 40
0.6
 40
0.6
 40
0.7
 40
0.7
 40
0.7
 40
0.7
 40
0.8
 40
0.8
 40
0.8
 40
0.8
 40
1.0
 40
1.0
 40
1.0
 40
1.0
 10
77.4947
 20
66.1579
 30
0.0
 10
78.0043
 20
65.4216
 30
0.0
 10
78.0977
 20
64.209
 30
0.0
 10
78.0136
 20
62.6073
 30
0.0
 10
78.0136
 20
62.6073
 30
0.0
 10
71.6154
 20
62.0237
 30
0.0
 10
66.7359
 20
58.817
 30
0.0
 10
64.646
 20
57.3919
 30
0.0
 10
64.646
 20
57.3919
 30
0.0
 10
65.0307
 20
59.7899
 30
0.0
 10
65.2058
 20
63.0566
 30
0.0
 10
65.3665
 20
65.651
 30
0.0
 10
65.3665
 20
65.651
 30
0.0
 10
67.3896
 20
61.5885
 30
0.0
 10
73.4213
 20
63.4802
 30
0.0
 10
74.2382
 20
67.2349
 30
0.0
 10
74.2382
 20
67.2349
 30
0.0
 10
75.419
 20
72.8902
 30
0.0
 10
68.417
 20
75.7972
 30
0.0
 10
65.2697
 20
72.3856
 30
0.0
 10
65.2697
 20
72.3856
 30
0.0
 10
66.1882
 20
73.9532
 30
0.0
 10
69.0099
 20
77.4341
 30
0.0
 10
70.5674
 20
78.2375
 30
0.0
 10
70.5674
 20
78.2375
 30
0.0
 10
74.3842
 20
76.5496
 30
0.0
 10
80.4705
 20
71.5268
 30
0.0
 10
83.2898
 20
65.5995
 30
0.0
 10
83.2898
 20
65.5995
 30
0.0
 10
81.5488
 20
65.9836
 30
0.0
 10
78.687
 20
66.1938
 30
0.0
 10
77.4948
 20
66.1579
 30
0.0
 10
77.4948
 20
66.1579
 30
0.0
 10
77.4948
 20
66.1579
 30
0.0
 10
77.4947
 20
66.1579
 30
0.0
 10
77.4947
 20
66.1579
 30
0.0
  0
SPLINE
  5
66
330
1F
100
AcDbEntity
  8
layer 1
 62
     7
100
AcDbSpline
210
0.0
220
0.0
230
1.0
 70
    11
 71
     3
 72
    16
 73
    12
 74
     0
 42
0.0000000001
 43
0.0000000001
 12
1.0
 22
0.0
 32
0.0
 13
1.0
 23
0.0
 33
0.0
 40
0.0
 40
0.0
 40
0.0
 40
0.0
 40
0.25
 40
0.25
 40
0.25
 40
0.25
 40
0.5
 40
0.5
 40
0.5
 40
0.5
 40
1.0
 40
1.0
 40
1.0
 40
1.0
 10
70.7487
 20
85.9286
 30
0.0
 10
70.4215
 20
91.3583
 30
0.0
 10
71.9333
 20
95.7202
 30
0.0
 10
72.8572
 20
98.0145
 30
0.0
 10
72.8572
 20
98.0145
 30
0.0
 10
74.02
 20
101.0174
 30
0.0
 10
78.8984
 20
100.4279
 30
0.0
 10
80.3103
 20
98.9169
 30
0.0
 10
80.3103
 20
98.9169
 30
0.0
 10
77.0076
 20
91.857
 30
0.0
 10
73.0031
 20
88.2373
 30
0.0
 10
70.7487
 20
85.9286
 30
0.0
  0
SPLINE
  5
67
330
1F
100
AcDbEntity
  8
layer 1
 62
     7
100
AcDbSpline
210
0.0
220
0.0
230
1.0
 70
    11
 71
     3
 72
    16
 73
    12
 74
     0
 42
0.0000000001
 43
0.0000000001
 12
1.0
 22
0.0
 32
0.0
 13
1.0
 23
0.0
 33
0.0
 40
0.0
 40
0.0
 40
0.0
 40
0.0
 40
0.25
 40
0.25
 40
0.25
 40
0.25
 40
0.5
 40
0.5
 40
0.5
 40
0.5
 40
1.0
 40
1.0
 40
1.0
 40
1.0
 10
65.8446
 20
90.0081
 30
0.0
 10
63.4916
 20
92.5498
 30
0.0
 10
60.3345
 20
95.317
 30
0.0
 10
56.9627
 20
96.9818
 30
0.0
 10
56.9627
 20
96.9818
 30
0.0
 10
56.2118
 20
99.9697
 30
0.0
 10
59.3322
 20
102.8179
 30
0.0
 10
61.6998
 20
102.4695
 30
0.0
 10
61.6998
 20
102.4695
 30
0.0
 10
65.4502
 20
101.1265
 30
0.0
 10
68.0409
 20
94.5332
 30
0.0
 10
65.8446
 20
90.0081
 30
0.0
  0
SPLINE
  5
68
330
1F
100
AcDbEntity
  8
layer 1
 62
     7
100
AcDbSpline
210
0.0
220
0.0
230
1.0
 70
    11
 71
     3
 72
    32
 73
    28
 74
     0
 42
0.0000000001
 43
0.0000000001
 12
1.0
 22
0.0
 32
0.0
 13
1.0
 23
0.0
 33
0.0
 40
0.0
 40
0.0
 40
0.0
 40
0.0
 40
0.125
 40
0.125
 40
0.125
 40
0.125
 40
0.25
 40
0.25
 40
0.25
 40
0.25
 40
0.375
 40
0.375
 40
0.375
 40
0.375
 40
0.5
 40
0.5
 40
0.5
 40
0.5
 40
0.625
 40
0.625
 40
0.625
 40
0.625
 40
0.75
 40
0.75
 40
0.75
 40
0.75
 40
1.0
 40
1.0
 40
1.0
 40
1.0
 10
63.6217
 20
84.7394
 30
0.0
 10
57.7863
 20
77.345
 30
0.0
 10
48.9692
 20
73.6258
 30
0.0
 10
38.5836
 20
76.6735
 30
0.0
 10
38.5836
 20
76.6735
 30
0.0
 10
28.3655
 20
79.1754
 30
0.0
 10
24.7945
 20
90.4111
 30
0.0
 10
25.2673
 20
97.3708
 30
0.0
 10
25.2673
 20
97.3708
 30
0.0
 10
27.5842
 20
93.1632
 30
0.0
 10
30.4719
 20
92.1446
 30
0.0
 10
33.3051
 20
91.7135
 30
0.0
 10
33.3051
 20
91.7135
 30
0.0
 10
33.9208
 20
84.7042
 30
0.0
 10
41.0743
 20
75.6363
 30
0.0
 10
49.9248
 20
81.0531
 30
0.0
 10
49.9248
 20
81.0531
 30
0.0
 10
53.5086
 20
83.7874
 30
0.0
 10
55.0816
 20
86.8491
 30
0.0
 10
53.9098
 20
92.252
 30
0.0
 10
53.9098
 20
92.252
 30
0.0
 10
57.0167
 20
89.679
 30
0.0
 10
60.8884
 20
86.6486
 30
0.0
 10
63.6217
 20
84.7394
 30
0.0
 10
63.6217
 20
84.7394
 30
0.0
 10
63.6217
 20
84.7394
 30
0.0
 10
63.6217
 20
84.7394
 30
0.0
 10
63.6217
 20
84.7394
 30
0.0
  0
SPLINE
  5
69
330
1F
100
AcDbEntity
  8
layer 1
 62
     7
100
AcDbSpline
210
0.0
220
0.0
230
1.0
 70
    11
 71
     3
 72
    24
 73
    20
 74
     0
 42
0.0000000001
 43
0.0000000001
 12
1.0
 22
0.0
 32
0.0
 13
1.0
 23
0.0
 33
0.0
 40
0.0
 40
0.0
 40
0.0
 40
0.0
 40
0.1666666666666667
 40
0.1666666666666667
 40
0.1666666666666667
 40
0.1666666666666667
 40
0.3333333333333333
 40
0.3333333333333333
 40
0.3333333333333333
 40
0.3333333333333333
 40
0.5
 40
0.5
 40
0.5
 40
0.5
 40
0.6666666666666666
 40
0.6666666666666666
 40
0.6666666666666666
 40
0.6666666666666666
 40
1.0
 40
1.0
 40
1.0
 40
1.0
 10
57.9534
 20
112.157
 30
0.0
 10
56.2099
 20
112.8549
 30
0.0
 10
52.9995
 20
113.0047
 30
0.0
 10
51.0672
 20
112.562
 30
0.0
 10
51.0672
 20
112.562
 30
0.0
 10
50.6724
 20
113.9217
 30
0.0
 10
47.1479
 20
117.1839
 30
0.0
 10
44.6657
 20
118.1855
 30
0.0
 10
44.6657
 20
118.1855
 30
0.0
 10
44.6657
 20
118.1855
 30
0.0
 10
44.7199
 20
122.9871
 30
0.0
 10
44.7199
 20
122.9871
 30
0.0
 10
44.7199
 20
122.9871
 30
0.0
 10
44.7199
 20
122.9871
 30
0.0
 10
62.2955
 20
123.1802
 30
0.0
 10
62.2955
 20
123.1802
 30
0.0
 10
62.2955
 20
123.1802
 30
0.0
 10
58.2136
 20
120.1068
 30
0.0
 10
57.3697
 20
115.9334
 30
0.0
 10
57.9534
 20
112.157
 30
0.0
  0
SPLINE
  5
6A
330
1F
100
AcDbEntity
  8
layer 1
 62
     7
100
AcDbSpline
210
0.0
220
0.0
230
1.0
 70
    11
 71
     3
 72
    20
 73
    16
 74
     0
 42
0.0000000001
 43
0.0000000001
 12
1.0
 22
0.0
 32
0.0
 13
1.0
 23
0.0
 33
0.0
 40
0.0
 40
0.0
 40
0.0
 40
0.0
 40
0.2
 40
0.2
 40
0.2
 40
0.2
 40
0.4
 40
0.4
 40
0.4
 40
0.4
 40
0.6
 40
0.6
 40
0.6
 40
0.6
 40
1.0
 40
1.0
 40
1.0
 40
1.0
 10
61.2408
 20
52.9997
 30
0.0
 10
58.0454
 20
49.2138
 30
0.0
 10
56.033
 20
42.8217
 30
0.0
 10
58.0994
 20
36.4696
 30
0.0
 10
58.0994
 20
36.4696
 30
0.0
 10
55.1034
 20
37.1009
 30
0.0
 10
52.3411
 20
40.5997
 30
0.0
 10
51.8111
 20
43.8276
 30
0.0
 10
51.8111
 20
43.8276
 30
0.0
 10
50.9205
 20
55.9213
 30
0.0
 10
57.7517
 20
64.984
 30
0.0
 10
61.1206
 20
68.1968
 30
0.0
 10
61.1206
 20
68.1968
 30
0.0
 10
60.5393
 20
62.942
 30
0.0
 10
60.8301
 20
57.5651
 30
0.0
 10
61.2408
 20
52.9997
 30
0.0
  0
SPLINE
  5
6B
330
1F
100
AcDbEntity
  8
layer 1
 62
     7
100
AcDbSpline
210
0.0
220
0.0
230
1.0
 70
    11
 71
     3
 72
    24
 73
    20
 74
     0
 42
0.0000000001
 43
0.0000000001
 12
1.0
 22
0.0
 32
0.0
 13
1.0
 23
0.0
 33
0.0
 40
0.0
 40
0.0
 40
0.0
 40
0.0
 40
0.1666666666666667
 40
0.1666666666666667
 40
0.1666666666666667
 40
0.1666666666666667
 40
0.3333333333333333
 40
0.3333333333333333
 40
0.3333333333333333
 40
0.3333333333333333
 40
0.5
 40
0.5
 40
0.5
 40
0.5
 40
0.6666666666666666
 40
0.6666666666666666
 40
0.6666666666666666
 40
0.6666666666666666
 40
1.0
 40
1.0
 40
1.0
 40
1.0
 10
46.077
 20
54.2026
 30
0.0
 10
46.4681
 20
58.184
 30
0.0
 10
45.899
 20
63.5262
 30
0.0
 10
44.1928
 20
66.5245
 30
0.0
 10
44.1928
 20
66.5245
 30
0.0
 10
45.6973
 20
66.3719
 30
0.0
 10
47.4098
 20
66.3586
 30
0.0
 10
48.1587
 20
66.4658
 30
0.0
 10
48.1587
 20
66.4658
 30
0.0
 10
47.8172
 20
67.5958
 30
0.0
 10
47.1528
 20
69.5348
 30
0.0
 10
46.7408
 20
70.4723
 30
0.0
 10
46.7408
 20
70.4723
 30
0.0
 10
50.3537
 20
70.6349
 30
0.0
 10
55.2446
 20
71.2161
 30
0.0
 10
58.9526
 20
72.7916
 30
0.0
 10
58.9526
 20
72.7916
 30
0.0
 10
54.23
 20
66.8165
 30
0.0
 10
48.9068
 20
58.8023
 30
0.0
 10
46.077
 20
54.2026
 30
0.0
  0
SPLINE
  5
6C
330
1F
100
AcDbEntity
  8
layer 1
 62
     7
100
AcDbSpline
210
0.0
220
0.0
230
1.0
 70
    11
 71
     3
 72
    16
 73
    12
 74
     0
 42
0.0000000001
 43
0.0000000001
 12
1.0
 22
0.0
 32
0.0
 13
1.0
 23
0.0
 33
0.0
 40
0.0
 40
0.0
 40
0.0
 40
0.0
 40
0.25
 40
0.25
 40
0.25
 40
0.25
 40
0.5
 40
0.5
 40
0.5
 40
0.5
 40
1.0
 40
1.0
 40
1.0
 40
1.0
 10
53.8761
 20
97.9847
 30
0.0
 10
50.7105
 20
99.5434
 30
0.0
 10
49.018
 20
102.417
 30
0.0
 10
48.9829
 20
105.937
 30
0.0
 10
48.9829
 20
105.937
 30
0.0
 10
52.7177
 20
107.9046
 30
0.0
 10
55.7598
 20
107.7156
 30
0.0
 10
58.4705
 20
105.6806
 30
0.0
 10
58.4705
 20
105.6806
 30
0.0
 10
55.2557
 20
104.9401
 30
0.0
 10
52.8943
 20
100.741
 30
0.0
 10
53.8761
 20
97.9847
 30
0.0
  0
SPLINE
  5
6D
330
1F
100
AcDbEntity
  8
layer 1
 62
     7
100
AcDbSpline
210
0.0
220
0.0
230
1.0
 70
    11
 71
     3
 72
    32
 73
    28
 74
     0
 42
0.0000000001
 43
0.0000000001
 12
1.0
 22
0.0
 32
0.0
 13
1.0
 23
0.0
 33
0.0
 40
0.0
 40
0.0
 40
0.0
 40
0.0
 40
0.125
 40
0.125
 40
0.125
 40
0.125
 40
0.25
 40
0.25
 40
0.25
 40
0.25
 40
0.375
 40
0.375
 40
0.375
 40
0.375
 40
0.5
 40
0.5
 40
0.5
 40
0.5
 40
0.625
 40
0.625
 40
0.625
 40
0.625
 40
0.75
 40
0.75
 40
0.75
 40
0.75
 40
1.0
 40
1.0
 40
1.0
 40
1.0
 10
37.7359
 20
13.2283
 30
0.0
 10
41.7933
 20
9.4584
 30
0.0
 10
46.866
 20
10.4591
 30
0.0
 10
49.9521
 20
12.7399
 30
0.0
 10
49.9521
 20
12.7399
 30
0.0
 10
49.8423
 20
10.9706
 30
0.0
 10
50.8712
 20
9.0811
 30
0.0
 10
52.4725
 20
8.4384
 30
0.0
 10
52.4725
 20
8.4384
 30
0.0
 10
50.8712
 20
7.7958
 30
0.0
 10
49.8423
 20
5.9063
 30
0.0
 10
49.9521
 20
4.137
 30
0.0
 10
49.9521
 20
4.137
 30
0.0
 10
46.866
 20
6.4178
 30
0.0
 10
41.7933
 20
7.4184
 30
0.0
 10
37.7359
 20
3.6486
 30
0.0
 10
37.7359
 20
3.6486
 30
0.0
 10
36.4729
 20
6.9361
 30
0.0
 10
33.8835
 20
8.0358
 30
0.0
 10
31.8604
 20
8.4384
 30
0.0
 10
31.8604
 20
8.4384
 30
0.0
 10
33.8835
 20
8.841
 30
0.0
 10
36.4729
 20
9.9407
 30
0.0
 10
37.7359
 20
13.2282
 30
0.0
 10
37.7359
 20
13.2282
 30
0.0
 10
37.7359
 20
13.2282
 30
0.0
 10
37.7359
 20
13.2283
 30
0.0
 10
37.7359
 20
13.2283
 30
0.0
  0
SPLINE
  5
6E
330
1F
100
AcDbEntity
  8
layer 1
 62
     7
100
AcDbSpline
210
0.0
220
0.0
230
1.0
 70
    11
 71
     3
 72
    24
 73
    20
 74
     0
 42
0.0000000001
 43
0.0000000001
 12
1.0
 22
0.0
 32
0.0
 13
1.0
 23
0.0
 33
0.0
 40
0.0
 40
0.0
 40
0.0
 40
0.0
 40
0.1666666666666667
 40
0.1666666666666667
 40
0.1666666666666667
 40
0.1666666666666667
 40
0.3333333333333333
 40
0.3333333333333333
 40
0.3333333333333333
 40
0.3333333333333333
 40
0.5
 40
0.5
 40
0.5
 40
0.5
 40
0.6666666666666666
 40
0.6666666666666666
 40
0.6666666666666666
 40
0.6666666666666666
 40
1.0
 40
1.0
 40
1.0
 40
1.0
 10
45.8463
 20
84.8886
 30
0.0
 10
41.3884
 20
85.376
 30
0.0
 10
38.216
 20
89.3256
 30
0.0
 10
37.8253
 20
93.39
 30
0.0
 10
37.8253
 20
93.39
 30
0.0
 10
37.3672
 20
97.3867
 30
0.0
 10
40.4394
 20
103.9878
 30
0.0
 10
45.4371
 20
104.133
 30
0.0
 10
45.4371
 20
104.133
 30
0.0
 10
46.4184
 20
100.6607
 30
0.0
 10
47.2523
 20
98.5173
 30
0.0
 10
48.8896
 20
96.429
 30
0.0
 10
48.8896
 20
96.429
 30
0.0
 10
41.3877
 20
96.322
 30
0.0
 10
41.3877
 20
86.8233
 30
0.0
 10
45.8463
 20
84.8885
 30
0.0
 10
45.8463
 20
84.8885
 30
0.0
 10
45.8463
 20
84.8885
 30
0.0
 10
45.8463
 20
84.8886
 30
0.0
 10
45.8463
 20
84.8886
 30
0.0
  0
SPLINE
  5
6F
330
1F
100
AcDbEntity
  8
layer 1
 62
     7
100
AcDbSpline
210
0.0
220
0.0
230
1.0
 70
    11
 71
     3
 72
    24
 73
    20
 74
     0
 42
0.0000000001
 43
0.0000000001
 12
1.0
 22
0.0
 32
0.0
 13
1.0
 23
0.0
 33
0.0
 40
0.0
 40
0.0
 40
0.0
 40
0.0
 40
0.1666666666666667
 40
0.1666666666666667
 40
0.1666666666666667
 40
0.1666666666666667
 40
0.3333333333333333
 40
0.3333333333333333
 40
0.3333333333333333
 40
0.3333333333333333
 40
0.5
 40
0.5
 40
0.5
 40
0.5
 40
0.6666666666666666
 40
0.6666666666666666
 40
0.6666666666666666
 40
0.6666666666666666
 40
1.0
 40
1.0
 40
1.0
 40
1.0
 10
33.5163
 20
97.2405
 30
0.0
 10
30.4754
 20
96.8192
 30
0.0
 10
27.9169
 20
97.912
 30
0.0
 10
26.4559
 20
100.4709
 30
0.0
 10
26.4559
 20
100.4709
 30
0.0
 10
25.9759
 20
101.5322
 30
0.0
 10
26.2279
 20
102.6788
 30
0.0
 10
26.5041
 20
103.5284
 30
0.0
 10
26.5041
 20
103.5284
 30
0.0
 10
28.5699
 20
108.4133
 30
0.0
 10
30.9319
 20
110.7054
 30
0.0
 10
34.7717
 20
112.3314
 30
0.0
 10
34.7717
 20
112.3314
 30
0.0
 10
38.7858
 20
113.7863
 30
0.0
 10
43.7439
 20
113.2458
 30
0.0
 10
46.9459
 20
110.8421
 30
0.0
 10
46.9459
 20
110.8421
 30
0.0
 10
38.8017
 20
108.4483
 30
0.0
 10
34.8534
 20
103.2613
 30
0.0
 10
33.5163
 20
97.2405
 30
0.0
  0
SPLINE
  5
70
330
1F
100
AcDbEntity
  8
layer 1
 62
     7
100
AcDbSpline
210
0.0
220
0.0
230
1.0
 70
    11
 71
     3
 72
    28
 73
    24
 74
     0
 42
0.0000000001
 43
0.0000000001
 12
1.0
 22
0.0
 32
0.0
 13
1.0
 23
0.0
 33
0.0
 40
0.0
 40
0.0
 40
0.0
 40
0.0
 40
0.1428571428571428
 40
0.1428571428571428
 40
0.1428571428571428
 40
0.1428571428571428
 40
0.2857142857142857
 40
0.2857142857142857
 40
0.2857142857142857
 40
0.2857142857142857
 40
0.4285714285714285
 40
0.4285714285714285
 40
0.4285714285714285
 40
0.4285714285714285
 40
0.5714285714285714
 40
0.5714285714285714
 40
0.5714285714285714
 40
0.5714285714285714
 40
0.7142857142857143
 40
0.7142857142857143
 40
0.7142857142857143
 40
0.7142857142857143
 40
1.0
 40
1.0
 40
1.0
 40
1.0
 10
38.1026
 20
15.7733
 30
0.0
 10
38.188
 20
22.6446
 30
0.0
 10
29.2676
 20
25.5116
 30
0.0
 10
25.0639
 20
18.7783
 30
0.0
 10
25.0639
 20
18.7783
 30
0.0
 10
25.6916
 20
24.433
 30
0.0
 10
28.6469
 20
27.0807
 30
0.0
 10
32.2408
 20
30.4078
 30
0.0
 10
32.2408
 20
30.4078
 30
0.0
 10
35.1945
 20
33.1422
 30
0.0
 10
39.8679
 20
38.2689
 30
0.0
 10
43.3085
 20
42.8433
 30
0.0
 10
43.3085
 20
42.8433
 30
0.0
 10
43.4466
 20
38.3423
 30
0.0
 10
44.0331
 20
33.9348
 30
0.0
 10
44.8206
 20
30.1045
 30
0.0
 10
44.8206
 20
30.1045
 30
0.0
 10
45.5815
 20
26.4039
 30
0.0
 10
46.4884
 20
25.1319
 30
0.0
 10
46.1469
 20
22.4339
 30
0.0
 10
46.1469
 20
22.4339
 30
0.0
 10
45.4451
 20
17.0495
 30
0.0
 10
40.5544
 20
15.4266
 30
0.0
 10
38.1026
 20
15.7733
 30
0.0
  0
SPLINE
  5
71
330
1F
100
AcDbEntity
  8
layer 1
 62
     7
100
AcDbSpline
210
0.0
220
0.0
230
1.0
 70
    11
 71
     3
 72
    32
 73
    28
 74
     0
 42
0.0000000001
 43
0.0000000001
 12
1.0
 22
0.0
 32
0.0
 13
1.0
 23
0.0
 33
0.0
 40
0.0
 40
0.0
 40
0.0
 40
0.0
 40
0.125
 40
0.125
 40
0.125
 40
0.125
 40
0.25
 40
0.25
 40
0.25
 40
0.25
 40
0.375
 40
0.375
 40
0.375
 40
0.375
 40
0.5
 40
0.5
 40
0.5
 40
0.5
 40
0.625
 40
0.625
 40
0.625
 40
0.625
 40
0.75
 40
0.75
 40
0.75
 40
0.75
 40
1.0
 40
1.0
 40
1.0
 40
1.0
 10
27.9723
 20
50.1035
 30
0.0
 10
33.5132
 20
50.813
 30
0.0
 10
35.0919
 20
57.2429
 30
0.0
 10
30.8093
 20
61.1573
 30
0.0
 10
30.8093
 20
61.1573
 30
0.0
 10
26.6623
 20
64.7041
 30
0.0
 10
21.2394
 20
63.1944
 30
0.0
 10
19.1076
 20
57.8678
 30
0.0
 10
19.1076
 20
57.8678
 30
0.0
 10
19.1076
 20
57.8678
 30
0.0
 10
19.0968
 20
70.4546
 30
0.0
 10
19.0968
 20
70.4546
 30
0.0
 10
19.0968
 20
70.4546
 30
0.0
 10
24.1232
 20
67.5308
 30
0.0
 10
29.8712
 20
70.711
 30
0.0
 10
30.9899
 20
73.9967
 30
0.0
 10
30.9899
 20
73.9967
 30
0.0
 10
35.7321
 20
71.4301
 30
0.0
 10
39.1233
 20
67.1304
 30
0.0
 10
40.6712
 20
61.3588
 30
0.0
 10
40.6712
 20
61.3588
 30
0.0
 10
42.7151
 20
52.9117
 30
0.0
 10
34.8905
 20
47.0562
 30
0.0
 10
27.9723
 20
50.1035
 30
0.0
 10
27.9723
 20
50.1035
 30
0.0
 10
27.9723
 20
50.1035
 30
0.0
 10
27.9723
 20
50.1035
 30
0.0
 10
27.9723
 20
50.1035
 30
0.0
  0
SPLINE
  5
72
330
1F
100
AcDbEntity
  8
layer 1
 62
     7
100
AcDbSpline
210
0.0
220
0.0
230
1.0
 70
    11
 71
     3
 72
    16
 73
    12
 74
     0
 42
0.0000000001
 43
0.0000000001
 12
1.0
 22
0.0
 32
0.0
 13
1.0
 23
0.0
 33
0.0
 40
0.0
 40
0.0
 40
0.0
 40
0.0
 40
0.25
 40
0.25
 40
0.25
 40
0.25
 40
0.5
 40
0.5
 40
0.5
 40
0.5
 40
1.0
 40
1.0
 40
1.0
 40
1.0
 10
19.059
 20
23.6874
 30
0.0
 10
19.059
 20
23.6874
 30
0.0
 10
19.1514
 20
51.0605
 30
0.0
 10
19.1514
 20
51.0605
 30
0.0
 10
19.1514
 20
51.0605
 30
0.0
 10
21.6561
 20
45.0281
 30
0.0
 10
31.058
 20
42.8555
 30
0.0
 10
37.8341
 20
44.1707
 30
0.0
 10
37.8341
 20
44.1707
 30
0.0
 10
30.0336
 20
37.9915
 30
0.0
 10
24.2699
 20
31.2984
 30
0.0
 10
19.059
 20
23.6874
 30
0.0
  0
SPLINE
  5
73
330
1F
100
AcDbEntity
  8
layer 1
 62
     7
100
AcDbSpline
210
0.0
220
0.0
230
1.0
 70
    11
 71
     3
 72
    20
 73
    16
 74
     0
 42
0.0000000001
 43
0.0000000001
 12
1.0
 22
0.0
 32
0.0
 13
1.0
 23
0.0
 33
0.0
 40
0.0
 40
0.0
 40
0.0
 40
0.0
 40
0.2
 40
0.2
 40
0.2
 40
0.2
 40
0.4
 40
0.4
 40
0.4
 40
0.4
 40
0.6
 40
0.6
 40
0.6
 40
0.6
 40
1.0
 40
1.0
 40
1.0
 40
1.0
 10
36.7925
 20
117.8896
 30
0.0
 10
27.5458
 20
117.1014
 30
0.0
 10
21.4929
 20
111.1299
 30
0.0
 10
19.0811
 20
104.9306
 30
0.0
 10
19.0811
 20
104.9306
 30
0.0
 10
19.0811
 20
104.9306
 30
0.0
 10
19.1091
 20
123.1626
 30
0.0
 10
19.1091
 20
123.1626
 30
0.0
 10
19.1091
 20
123.1626
 30
0.0
 10
19.1091
 20
123.1626
 30
0.0
 10
36.8313
 20
123.1801
 30
0.0
 10
36.8313
 20
123.1801
 30
0.0
 10
36.8313
 20
123.1801
 30
0.0
 10
36.8313
 20
123.1801
 30
0.0
 10
36.7925
 20
117.8896
 30
0.0
 10
36.7925
 20
117.8896
 30
0.0
  0
SPLINE
  5
74
330
1F
100
AcDbEntity
  8
layer 1
 62
     7
100
AcDbSpline
210
0.0
220
0.0
230
1.0
 70
    11
 71
     3
 72
    20
 73
    16
 74
     0
 42
0.0000000001
 43
0.0000000001
 12
1.0
 22
0.0
 32
0.0
 13
1.0
 23
0.0
 33
0.0
 40
0.0
 40
0.0
 40
0.0
 40
0.0
 40
0.2
 40
0.2
 40
0.2
 40
0.2
 40
0.4
 40
0.4
 40
0.4
 40
0.4
 40
0.6
 40
0.6
 40
0.6
 40
0.6
 40
1.0
 40
1.0
 40
1.0
 40
1.0
 10
32.1027
 20
79.2763
 30
0.0
 10
32.0672
 20
79.3117
 30
0.0
 10
32.1303
 20
79.337
 30
0.0
 10
32.2428
 20
79.3323
 30
0.0
 10
32.2428
 20
79.3323
 30
0.0
 10
32.3671
 20
79.3272
 30
0.0
 10
32.3924
 20
79.3019
 30
0.0
 10
32.3073
 20
79.2679
 30
0.0
 10
32.3073
 20
79.2679
 30
0.0
 10
32.2302
 20
79.2371
 30
0.0
 10
32.1382
 20
79.2409
 30
0.0
 10
32.1027
 20
79.2763
 30
0.0
 10
32.1027
 20
79.2763
 30
0.0
 10
32.1027
 20
79.2763
 30
0.0
 10
32.1027
 20
79.2763
 30
0.0
 10
32.1027
 20
79.2763
 30
0.0
  0
SPLINE
  5
75
330
1F
100
AcDbEntity
  8
layer 1
 62
     7
100
AcDbSpline
210
0.0
220
0.0
230
1.0
 70
    11
 71
     3
 72
    16
 73
    12
 74
     0
 42
0.0000000001
 43
0.0000000001
 12
1.0
 22
0.0
 32
0.0
 13
1.0
 23
0.0
 33
0.0
 40
0.0
 40
0.0
 40
0.0
 40
0.0
 40
0.25
 40
0.25
 40
0.25
 40
0.25
 40
0.5
 40
0.5
 40
0.5
 40
0.5
 40
1.0
 40
1.0
 40
1.0
 40
1.0
 10
19.0542
 20
72.9487
 30
0.0
 10
19.0544
 20
78.4766
 30
0.0
 10
19.0546
 20
84.0045
 30
0.0
 10
19.0548
 20
89.5323
 30
0.0
 10
19.0548
 20
89.5323
 30
0.0
 10
22.4188
 20
81.4325
 30
0.0
 10
24.9625
 20
82.6834
 30
0.0
 10
24.9986
 20
77.9415
 30
0.0
 10
24.9986
 20
77.9415
 30
0.0
 10
24.9571
 20
74.7854
 30
0.0
 10
22.0502
 20
72.7648
 30
0.0
 10
19.0542
 20
72.9487
 30
0.0
  0
SPLINE
  5
76
330
1F
100
AcDbEntity
  8
layer 1
 62
     7
100
AcDbSpline
210
0.0
220
0.0
230
1.0
 70
    11
 71
     3
 72
    20
 73
    16
 74
     0
 42
0.0000000001
 43
0.0000000001
 12
1.0
 22
0.0
 32
0.0
 13
1.0
 23
0.0
 33
0.0
 40
0.0
 40
0.0
 40
0.0
 40
0.0
 40
0.2
 40
0.2
 40
0.2
 40
0.2
 40
0.4
 40
0.4
 40
0.4
 40
0.4
 40
0.6
 40
0.6
 40
0.6
 40
0.6
 40
1.0
 40
1.0
 40
1.0
 40
1.0
 10
108.9694
 20
-37.3733
 30
0.0
 10
106.0406
 20
-40.3307
 30
0.0
 10
104.4538
 20
-42.8923
 30
0.0
 10
103.2518
 20
-46.9898
 30
0.0
 10
103.2518
 20
-46.9898
 30
0.0
 10
102.0497
 20
-42.8923
 30
0.0
 10
100.4629
 20
-40.3307
 30
0.0
 10
97.5341
 20
-37.3733
 30
0.0
 10
97.5341
 20
-37.3733
 30
0.0
 10
100.0064
 20
-33.4373
 30
0.0
 10
101.9936
 20
-29.3677
 30
0.0
 10
103.2518
 20
-25.0059
 30
0.0
 10
103.2518
 20
-25.0059
 30
0.0
 10
104.5099
 20
-29.3677
 30
0.0
 10
106.4971
 20
-33.4373
 30
0.0
 10
108.9694
 20
-37.3733
 30
0.0
  0
SPLINE
  5
77
330
1F
100
AcDbEntity
  8
layer 1
 62
     7
100
AcDbSpline
210
0.0
220
0.0
230
1.0
 70
    11
 71
     3
 72
    20
 73
    16
 74
     0
 42
0.0000000001
 43
0.0000000001
 12
1.0
 22
0.0
 32
0.0
 13
1.0
 23
0.0
 33
0.0
 40
0.0
 40
0.0
 40
0.0
 40
0.0
 40
0.2
 40
0.2
 40
0.2
 40
0.2
 40
0.4
 40
0.4
 40
0.4
 40
0.4
 40
0.6
 40
0.6
 40
0.6
 40
0.6
 40
1.0
 40
1.0
 40
1.0
 40
1.0
 10
108.6527
 20
-4.7611
 30
0.0
 10
106.5945
 20
-4.0995
 30
0.0
 10
104.6548
 20
-3.0271
 30
0.0
 10
103.2518
 20
-0.6352
 30
0.0
 10
103.2518
 20
-0.6352
 30
0.0
 10
101.8487
 20
-3.0271
 30
0.0
 10
99.909
 20
-4.0995
 30
0.0
 10
97.8508
 20
-4.7611
 30
0.0
 10
97.8508
 20
-4.7611
 30
0.0
 10
98.7573
 20
-5.8238
 30
0.0
 10
101.6606
 20
-10.1077
 30
0.0
 10
103.2518
 20
-14.174
 30
0.0
 10
103.2518
 20
-14.174
 30
0.0
 10
104.8429
 20
-10.1077
 30
0.0
 10
107.7462
 20
-5.8238
 30
0.0
 10
108.6527
 20
-4.7611
 30
0.0
  0
SPLINE
  5
78
330
1F
100
AcDbEntity
  8
layer 1
 62
     7
100
AcDbSpline
210
0.0
220
0.0
230
1.0
 70
    11
 71
     3
 72
    40
 73
    36
 74
     0
 42
0.0000000001
 43
0.0000000001
 12
1.0
 22
0.0
 32
0.0
 13
1.0
 23
0.0
 33
0.0
 40
0.0
 40
0.0
 40
0.0
 40
0.0
 40
0.1
 40
0.1
 40
0.1
 40
0.1
 40
0.2
 40
0.2
 40
0.2
 40
0.2
 40
0.3
 40
0.3
 40
0.3
 40
0.3
 40
0.4
 40
0.4
 40
0.4
 40
0.4
 40
0.5
 40
0.5
 40
0.5
 40
0.5
 40
0.6
 40
0.6
 40
0.6
 40
0.6
 40
0.7
 40
0.7
 40
0.7
 40
0.7
 40
0.8
 40
0.8
 40
0.8
 40
0.8
 40
1.0
 40
1.0
 40
1.0
 40
1.0
 10
116.5352
 20
-4.3566
 30
0.0
 10
117.0975
 20
-7.2843
 30
0.0
 10
116.3558
 20
-11.1498
 30
0.0
 10
114.0553
 20
-13.3283
 30
0.0
 10
114.0553
 20
-13.3283
 30
0.0
 10
115.7932
 20
-12.8553
 30
0.0
 10
119.0418
 20
-13.3174
 30
0.0
 10
119.0639
 20
-13.9606
 30
0.0
 10
119.0639
 20
-13.9606
 30
0.0
 10
111.4611
 20
-26.6635
 30
0.0
 10
124.9268
 20
-36.335
 30
0.0
 10
133.4563
 20
-32.2627
 30
0.0
 10
133.4563
 20
-32.2627
 30
0.0
 10
134.7603
 20
-33.105
 30
0.0
 10
137.9606
 20
-34.4119
 30
0.0
 10
138.7817
 20
-35.8111
 30
0.0
 10
138.7817
 20
-35.8111
 30
0.0
 10
135.0481
 20
-38.296
 30
0.0
 10
131.4469
 20
-39.5968
 30
0.0
 10
126.6734
 20
-39.3602
 30
0.0
 10
126.6734
 20
-39.3602
 30
0.0
 10
121.8275
 20
-39.4512
 30
0.0
 10
115.4148
 20
-36.7324
 30
0.0
 10
112.424
 20
-31.6224
 30
0.0
 10
112.424
 20
-31.6224
 30
0.0
 10
110.7747
 20
-28.8457
 30
0.0
 10
109.484
 20
-24.3552
 30
0.0
 10
109.7729
 20
-20.7371
 30
0.0
 10
109.7729
 20
-20.7371
 30
0.0
 10
109.6425
 20
-13.5824
 30
0.0
 10
112.9494
 20
-8.0635
 30
0.0
 10
116.5352
 20
-4.3566
 30
0.0
 10
116.5352
 20
-4.3566
 30
0.0
 10
116.5352
 20
-4.3566
 30
0.0
 10
116.5352
 20
-4.3566
 30
0.0
 10
116.5352
 20
-4.3566
 30
0.0
  0
SPLINE
  5
79
330
1F
100
AcDbEntity
  8
layer 1
 62
     7
100
AcDbSpline
210
0.0
220
0.0
230
1.0
 70
    11
 71
     3
 72
    40
 73
    36
 74
     0
 42
0.0000000001
 43
0.0000000001
 12
1.0
 22
0.0
 32
0.0
 13
1.0
 23
0.0
 33
0.0
 40
0.0
 40
0.0
 40
0.0
 40
0.0
 40
0.1
 40
0.1
 40
0.1
 40
0.1
 40
0.2
 40
0.2
 40
0.2
 40
0.2
 40
0.3
 40
0.3
 40
0.3
 40
0.3
 40
0.4
 40
0.4
 40
0.4
 40
0.4
 40
0.5
 40
0.5
 40
0.5
 40
0.5
 40
0.6
 40
0.6
 40
0.6
 40
0.6
 40
0.7
 40
0.7
 40
0.7
 40
0.7
 40
0.8
 40
0.8
 40
0.8
 40
0.8
 40
1.0
 40
1.0
 40
1.0
 40
1.0
 10
116.9411
 20
-42.697
 30
0.0
 10
116.1962
 20
-48.5548
 30
0.0
 10
119.4479
 20
-53.9526
 30
0.0
 10
123.5043
 20
-58.3753
 30
0.0
 10
123.5043
 20
-58.3753
 30
0.0
 10
126.1323
 20
-61.2409
 30
0.0
 10
129.0087
 20
-63.809
 30
0.0
 10
131.6575
 20
-65.4492
 30
0.0
 10
131.6575
 20
-65.4492
 30
0.0
 10
129.0773
 20
-68.2466
 30
0.0
 10
123.8616
 20
-74.2141
 30
0.0
 10
120.7703
 20
-79.8011
 30
0.0
 10
120.7703
 20
-79.8011
 30
0.0
 10
121.8525
 20
-74.4063
 30
0.0
 10
120.0945
 20
-71.1917
 30
0.0
 10
118.3136
 20
-69.167
 30
0.0
 10
118.3136
 20
-69.167
 30
0.0
 10
119.4538
 20
-69.5998
 30
0.0
 10
120.7536
 20
-69.667
 30
0.0
 10
122.6464
 20
-69.5933
 30
0.0
 10
122.6464
 20
-69.5933
 30
0.0
 10
126.4858
 20
-64.92
 30
0.0
 10
121.5949
 20
-61.8554
 30
0.0
 10
118.6546
 20
-58.754
 30
0.0
 10
118.6546
 20
-58.754
 30
0.0
 10
116.5026
 20
-56.475
 30
0.0
 10
114.5717
 20
-54.0814
 30
0.0
 10
113.6661
 20
-52.7646
 30
0.0
 10
113.6661
 20
-52.7646
 30
0.0
 10
110.0139
 20
-47.8233
 30
0.0
 10
113.0441
 20
-43.2963
 30
0.0
 10
116.9411
 20
-42.6969
 30
0.0
 10
116.9411
 20
-42.6969
 30
0.0
 10
116.9411
 20
-42.6969
 30
0.0
 10
116.9411
 20
-42.697
 30
0.0
 10
116.9411
 20
-42.697
 30
0.0
  0
SPLINE
  5
7A
330
1F
100
AcDbEntity
  8
layer 1
 62
     7
100
AcDbSpline
210
0.0
220
0.0
230
1.0
 70
    11
 71
     3
 72
    28
 73
    24
 74
     0
 42
0.0000000001
 43
0.0000000001
 12
1.0
 22
0.0
 32
0.0
 13
1.0
 23
0.0
 33
0.0
 40
0.0
 40
0.0
 40
0.0
 40
0.0
 40
0.1428571428571428
 40
0.1428571428571428
 40
0.1428571428571428
 40
0.1428571428571428
 40
0.2857142857142857
 40
0.2857142857142857
 40
0.2857142857142857
 40
0.2857142857142857
 40
0.4285714285714285
 40
0.4285714285714285
 40
0.4285714285714285
 40
0.4285714285714285
 40
0.5714285714285714
 40
0.5714285714285714
 40
0.5714285714285714
 40
0.5714285714285714
 40
0.7142857142857143
 40
0.7142857142857143
 40
0.7142857142857143
 40
0.7142857142857143
 40
1.0
 40
1.0
 40
1.0
 40
1.0
 10
134.4064
 20
2.3127
 30
0.0
 10
134.5497
 20
-1.6285
 30
0.0
 10
138.7791
 20
-3.891
 30
0.0
 10
142.2016
 20
-2.695
 30
0.0
 10
142.2016
 20
-2.695
 30
0.0
 10
148.0294
 20
-4.6055
 30
0.0
 10
156.0107
 20
-13.0977
 30
0.0
 10
156.5533
 20
-16.2486
 30
0.0
 10
156.5533
 20
-16.2486
 30
0.0
 10
154.6721
 20
-14.0985
 30
0.0
 10
149.0458
 20
-13.8496
 30
0.0
 10
146.675
 20
-14.5002
 30
0.0
 10
146.675
 20
-14.5002
 30
0.0
 10
139.8326
 20
-5.1081
 30
0.0
 10
128.4585
 20
-4.536
 30
0.0
 10
122.6709
 20
-7.0299
 30
0.0
 10
122.6709
 20
-7.0299
 30
0.0
 10
121.5626
 20
-5.6308
 30
0.0
 10
120.0679
 20
-3.7092
 30
0.0
 10
118.4856
 20
-2.8085
 30
0.0
 10
118.4856
 20
-2.8085
 30
0.0
 10
122.5714
 20
1.2809
 30
0.0
 10
129.5365
 20
2.9939
 30
0.0
 10
134.4064
 20
2.3127
 30
0.0
  0
SPLINE
  5
7B
330
1F
100
AcDbEntity
  8
layer 1
 62
     7
100
AcDbSpline
210
0.0
220
0.0
230
1.0
 70
    11
 71
     3
 72
    44
 73
    40
 74
     0
 42
0.0000000001
 43
0.0000000001
 12
1.0
 22
0.0
 32
0.0
 13
1.0
 23
0.0
 33
0.0
 40
0.0
 40
0.0
 40
0.0
 40
0.0
 40
0.0909090909090909
 40
0.0909090909090909
 40
0.0909090909090909
 40
0.0909090909090909
 40
0.1818181818181818
 40
0.1818181818181818
 40
0.1818181818181818
 40
0.1818181818181818
 40
0.2727272727272727
 40
0.2727272727272727
 40
0.2727272727272727
 40
0.2727272727272727
 40
0.3636363636363636
 40
0.3636363636363636
 40
0.3636363636363636
 40
0.3636363636363636
 40
0.4545454545454545
 40
0.4545454545454545
 40
0.4545454545454545
 40
0.4545454545454545
 40
0.5454545454545454
 40
0.5454545454545454
 40
0.5454545454545454
 40
0.5454545454545454
 40
0.6363636363636364
 40
0.6363636363636364
 40
0.6363636363636364
 40
0.6363636363636364
 40
0.7272727272727273
 40
0.7272727272727273
 40
0.7272727272727273
 40
0.7272727272727273
 40
0.8181818181818182
 40
0.8181818181818182
 40
0.8181818181818182
 40
0.8181818181818182
 40
1.0
 40
1.0
 40
1.0
 40
1.0
 10
125.2746
 20
-83.7177
 30
0.0
 10
127.3281
 20
-88.0778
 30
0.0
 10
133.8821
 20
-89.6982
 30
0.0
 10
137.8764
 20
-86.097
 30
0.0
 10
137.8764
 20
-86.097
 30
0.0
 10
137.9739
 20
-88.7482
 30
0.0
 10
138.9493
 20
-90.2909
 30
0.0
 10
140.1645
 20
-91.8726
 30
0.0
 10
140.1645
 20
-91.8726
 30
0.0
 10
140.8829
 20
-92.8076
 30
0.0
 10
141.6536
 20
-93.5611
 30
0.0
 10
142.07
 20
-94.5144
 30
0.0
 10
142.07
 20
-94.5144
 30
0.0
 10
142.9049
 20
-98.4424
 30
0.0
 10
140.0057
 20
-100.1109
 30
0.0
 10
137.6617
 20
-99.9395
 30
0.0
 10
137.6617
 20
-99.9395
 30
0.0
 10
132.801
 20
-99.2924
 30
0.0
 10
132.7102
 20
-93.7546
 30
0.0
 10
135.371
 20
-92.0133
 30
0.0
 10
135.371
 20
-92.0133
 30
0.0
 10
128.0525
 20
-93.1357
 30
0.0
 10
126.3143
 20
-102.6691
 30
0.0
 10
132.7279
 20
-106.3033
 30
0.0
 10
132.7279
 20
-106.3033
 30
0.0
 10
132.7279
 20
-106.3033
 30
0.0
 10
126.1723
 20
-106.3033
 30
0.0
 10
126.1723
 20
-106.3033
 30
0.0
 10
126.1723
 20
-106.3033
 30
0.0
 10
121.9856
 20
-103.2617
 30
0.0
 10
120.4333
 20
-98.3335
 30
0.0
 10
120.5014
 20
-93.9773
 30
0.0
 10
120.5014
 20
-93.9773
 30
0.0
 10
120.6152
 20
-90.3959
 30
0.0
 10
122.6613
 20
-86.3034
 30
0.0
 10
125.2746
 20
-83.7178
 30
0.0
 10
125.2746
 20
-83.7178
 30
0.0
 10
125.2746
 20
-83.7178
 30
0.0
 10
125.2746
 20
-83.7177
 30
0.0
 10
125.2746
 20
-83.7177
 30
0.0
  0
SPLINE
  5
7C
330
1F
100
AcDbEntity
  8
layer 1
 62
     7
100
AcDbSpline
210
0.0
220
0.0
230
1.0
 70
    11
 71
     3
 72
    40
 73
    36
 74
     0
 42
0.0000000001
 43
0.0000000001
 12
1.0
 22
0.0
 32
0.0
 13
1.0
 23
0.0
 33
0.0
 40
0.0
 40
0.0
 40
0.0
 40
0.0
 40
0.1
 40
0.1
 40
0.1
 40
0.1
 40
0.2
 40
0.2
 40
0.2
 40
0.2
 40
0.3
 40
0.3
 40
0.3
 40
0.3
 40
0.4
 40
0.4
 40
0.4
 40
0.4
 40
0.5
 40
0.5
 40
0.5
 40
0.5
 40
0.6
 40
0.6
 40
0.6
 40
0.6
 40
0.7
 40
0.7
 40
0.7
 40
0.7
 40
0.8
 40
0.8
 40
0.8
 40
0.8
 40
1.0
 40
1.0
 40
1.0
 40
1.0
 10
122.0256
 20
-18.4132
 30
0.0
 10
122.7992
 20
-14.4279
 30
0.0
 10
126.4981
 20
-12.4871
 30
0.0
 10
131.4435
 20
-12.9358
 30
0.0
 10
131.4435
 20
-12.9358
 30
0.0
 10
136.3109
 20
-13.3881
 30
0.0
 10
140.2932
 20
-16.2205
 30
0.0
 10
142.2012
 20
-20.5523
 30
0.0
 10
142.2012
 20
-20.5523
 30
0.0
 10
144.049
 20
-24.7475
 30
0.0
 10
143.3114
 20
-29.8538
 30
0.0
 10
141.7922
 20
-32.1892
 30
0.0
 10
141.7922
 20
-32.1892
 30
0.0
 10
140.3552
 20
-31.3153
 30
0.0
 10
138.4148
 20
-29.8035
 30
0.0
 10
136.5089
 20
-28.8994
 30
0.0
 10
136.5089
 20
-28.8994
 30
0.0
 10
138.5226
 20
-22.5538
 30
0.0
 10
133.9364
 20
-17.2956
 30
0.0
 10
128.5944
 20
-20.0706
 30
0.0
 10
128.5944
 20
-20.0706
 30
0.0
 10
130.863
 20
-21.3607
 30
0.0
 10
130.3688
 20
-23.4867
 30
0.0
 10
128.8882
 20
-24.494
 30
0.0
 10
128.8882
 20
-24.494
 30
0.0
 10
127.8716
 20
-25.1856
 30
0.0
 10
126.2727
 20
-25.0865
 30
0.0
 10
125.2533
 20
-24.8829
 30
0.0
 10
125.2533
 20
-24.8829
 30
0.0
 10
122.3589
 20
-24.0762
 30
0.0
 10
121.6763
 20
-21.0193
 30
0.0
 10
122.0257
 20
-18.4132
 30
0.0
 10
122.0257
 20
-18.4132
 30
0.0
 10
122.0257
 20
-18.4132
 30
0.0
 10
122.0256
 20
-18.4132
 30
0.0
 10
122.0256
 20
-18.4132
 30
0.0
  0
SPLINE
  5
7D
330
1F
100
AcDbEntity
  8
layer 1
 62
     7
100
AcDbSpline
210
0.0
220
0.0
230
1.0
 70
    11
 71
     3
 72
    40
 73
    36
 74
     0
 42
0.0000000001
 43
0.0000000001
 12
1.0
 22
0.0
 32
0.0
 13
1.0
 23
0.0
 33
0.0
 40
0.0
 40
0.0
 40
0.0
 40
0.0
 40
0.1
 40
0.1
 40
0.1
 40
0.1
 40
0.2
 40
0.2
 40
0.2
 40
0.2
 40
0.3
 40
0.3
 40
0.3
 40
0.3
 40
0.4
 40
0.4
 40
0.4
 40
0.4
 40
0.5
 40
0.5
 40
0.5
 40
0.5
 40
0.6
 40
0.6
 40
0.6
 40
0.6
 40
0.7
 40
0.7
 40
0.7
 40
0.7
 40
0.8
 40
0.8
 40
0.8
 40
0.8
 40
1.0
 40
1.0
 40
1.0
 40
1.0
 10
129.0088
 20
-49.281
 30
0.0
 10
128.4992
 20
-48.5447
 30
0.0
 10
128.4058
 20
-47.3321
 30
0.0
 10
128.4899
 20
-45.7304
 30
0.0
 10
128.4899
 20
-45.7304
 30
0.0
 10
134.8881
 20
-45.1468
 30
0.0
 10
139.7677
 20
-41.9401
 30
0.0
 10
141.8575
 20
-40.515
 30
0.0
 10
141.8575
 20
-40.515
 30
0.0
 10
141.4728
 20
-42.913
 30
0.0
 10
141.2977
 20
-46.1797
 30
0.0
 10
141.137
 20
-48.7741
 30
0.0
 10
141.137
 20
-48.7741
 30
0.0
 10
139.114
 20
-44.7116
 30
0.0
 10
133.0822
 20
-46.6033
 30
0.0
 10
132.2653
 20
-50.358
 30
0.0
 10
132.2653
 20
-50.358
 30
0.0
 10
131.0846
 20
-56.0133
 30
0.0
 10
138.0865
 20
-58.9203
 30
0.0
 10
141.2339
 20
-55.5087
 30
0.0
 10
141.2339
 20
-55.5087
 30
0.0
 10
140.3154
 20
-57.0763
 30
0.0
 10
137.4936
 20
-60.5572
 30
0.0
 10
135.9362
 20
-61.3606
 30
0.0
 10
135.9362
 20
-61.3606
 30
0.0
 10
132.1194
 20
-59.6727
 30
0.0
 10
126.033
 20
-54.6499
 30
0.0
 10
123.2137
 20
-48.7226
 30
0.0
 10
123.2137
 20
-48.7226
 30
0.0
 10
124.9547
 20
-49.1067
 30
0.0
 10
127.8166
 20
-49.3169
 30
0.0
 10
129.0087
 20
-49.281
 30
0.0
 10
129.0087
 20
-49.281
 30
0.0
 10
129.0087
 20
-49.281
 30
0.0
 10
129.0088
 20
-49.281
 30
0.0
 10
129.0088
 20
-49.281
 30
0.0
  0
SPLINE
  5
7E
330
1F
100
AcDbEntity
  8
layer 1
 62
     7
100
AcDbSpline
210
0.0
220
0.0
230
1.0
 70
    11
 71
     3
 72
    16
 73
    12
 74
     0
 42
0.0000000001
 43
0.0000000001
 12
1.0
 22
0.0
 32
0.0
 13
1.0
 23
0.0
 33
0.0
 40
0.0
 40
0.0
 40
0.0
 40
0.0
 40
0.25
 40
0.25
 40
0.25
 40
0.25
 40
0.5
 40
0.5
 40
0.5
 40
0.5
 40
1.0
 40
1.0
 40
1.0
 40
1.0
 10
135.7549
 20
-69.0517
 30
0.0
 10
136.082
 20
-74.4814
 30
0.0
 10
134.5703
 20
-78.8433
 30
0.0
 10
133.6464
 20
-81.1376
 30
0.0
 10
133.6464
 20
-81.1376
 30
0.0
 10
132.4835
 20
-84.1405
 30
0.0
 10
127.6052
 20
-83.551
 30
0.0
 10
126.1932
 20
-82.04
 30
0.0
 10
126.1932
 20
-82.04
 30
0.0
 10
129.496
 20
-74.9801
 30
0.0
 10
133.5004
 20
-71.3604
 30
0.0
 10
135.7549
 20
-69.0517
 30
0.0
  0
SPLINE
  5
7F
330
1F
100
AcDbEntity
  8
layer 1
 62
     7
100
AcDbSpline
210
0.0
220
0.0
230
1.0
 70
    11
 71
     3
 72
    16
 73
    12
 74
     0
 42
0.0000000001
 43
0.0000000001
 12
1.0
 22
0.0
 32
0.0
 13
1.0
 23
0.0
 33
0.0
 40
0.0
 40
0.0
 40
0.0
 40
0.0
 40
0.25
 40
0.25
 40
0.25
 40
0.25
 40
0.5
 40
0.5
 40
0.5
 40
0.5
 40
1.0
 40
1.0
 40
1.0
 40
1.0
 10
140.6589
 20
-73.1312
 30
0.0
 10
143.012
 20
-75.6729
 30
0.0
 10
146.169
 20
-78.4401
 30
0.0
 10
149.5408
 20
-80.1049
 30
0.0
 10
149.5408
 20
-80.1049
 30
0.0
 10
150.2917
 20
-83.0928
 30
0.0
 10
147.1713
 20
-85.941
 30
0.0
 10
144.8037
 20
-85.5926
 30
0.0
 10
144.8037
 20
-85.5926
 30
0.0
 10
141.0533
 20
-84.2496
 30
0.0
 10
138.4626
 20
-77.6563
 30
0.0
 10
140.6589
 20
-73.1312
 30
0.0
  0
SPLINE
  5
80
330
1F
100
AcDbEntity
  8
layer 1
 62
     7
100
AcDbSpline
210
0.0
220
0.0
230
1.0
 70
    11
 71
     3
 72
    32
 73
    28
 74
     0
 42
0.0000000001
 43
0.0000000001
 12
1.0
 22
0.0
 32
0.0
 13
1.0
 23
0.0
 33
0.0
 40
0.0
 40
0.0
 40
0.0
 40
0.0
 40
0.125
 40
0.125
 40
0.125
 40
0.125
 40
0.25
 40
0.25
 40
0.25
 40
0.25
 40
0.375
 40
0.375
 40
0.375
 40
0.375
 40
0.5
 40
0.5
 40
0.5
 40
0.5
 40
0.625
 40
0.625
 40
0.625
 40
0.625
 40
0.75
 40
0.75
 40
0.75
 40
0.75
 40
1.0
 40
1.0
 40
1.0
 40
1.0
 10
142.8818
 20
-67.8625
 30
0.0
 10
148.7172
 20
-60.4681
 30
0.0
 10
157.5343
 20
-56.7489
 30
0.0
 10
167.9199
 20
-59.7965
 30
0.0
 10
167.9199
 20
-59.7965
 30
0.0
 10
178.138
 20
-62.2984
 30
0.0
 10
181.709
 20
-73.5341
 30
0.0
 10
181.2362
 20
-80.4938
 30
0.0
 10
181.2362
 20
-80.4938
 30
0.0
 10
178.9193
 20
-76.2863
 30
0.0
 10
176.0316
 20
-75.2676
 30
0.0
 10
173.1984
 20
-74.8366
 30
0.0
 10
173.1984
 20
-74.8366
 30
0.0
 10
172.5827
 20
-67.8273
 30
0.0
 10
165.4292
 20
-58.7594
 30
0.0
 10
156.5788
 20
-64.1762
 30
0.0
 10
156.5788
 20
-64.1762
 30
0.0
 10
152.9949
 20
-66.9104
 30
0.0
 10
151.4219
 20
-69.9722
 30
0.0
 10
152.5937
 20
-75.3751
 30
0.0
 10
152.5937
 20
-75.3751
 30
0.0
 10
149.4868
 20
-72.802
 30
0.0
 10
145.6151
 20
-69.7717
 30
0.0
 10
142.8819
 20
-67.8625
 30
0.0
 10
142.8819
 20
-67.8625
 30
0.0
 10
142.8819
 20
-67.8625
 30
0.0
 10
142.8818
 20
-67.8625
 30
0.0
 10
142.8818
 20
-67.8625
 30
0.0
  0
SPLINE
  5
81
330
1F
100
AcDbEntity
  8
layer 1
 62
     7
100
AcDbSpline
210
0.0
220
0.0
230
1.0
 70
    11
 71
     3
 72
    24
 73
    20
 74
     0
 42
0.0000000001
 43
0.0000000001
 12
1.0
 22
0.0
 32
0.0
 13
1.0
 23
0.0
 33
0.0
 40
0.0
 40
0.0
 40
0.0
 40
0.0
 40
0.1666666666666667
 40
0.1666666666666667
 40
0.1666666666666667
 40
0.1666666666666667
 40
0.3333333333333333
 40
0.3333333333333333
 40
0.3333333333333333
 40
0.3333333333333333
 40
0.5
 40
0.5
 40
0.5
 40
0.5
 40
0.6666666666666666
 40
0.6666666666666666
 40
0.6666666666666666
 40
0.6666666666666666
 40
1.0
 40
1.0
 40
1.0
 40
1.0
 10
148.5502
 20
-95.2801
 30
0.0
 10
150.2937
 20
-95.978
 30
0.0
 10
153.504
 20
-96.1278
 30
0.0
 10
155.4364
 20
-95.6851
 30
0.0
 10
155.4364
 20
-95.6851
 30
0.0
 10
155.8311
 20
-97.0448
 30
0.0
 10
159.3557
 20
-100.307
 30
0.0
 10
161.8378
 20
-101.3086
 30
0.0
 10
161.8378
 20
-101.3086
 30
0.0
 10
161.8378
 20
-101.3086
 30
0.0
 10
161.7836
 20
-106.1102
 30
0.0
 10
161.7836
 20
-106.1102
 30
0.0
 10
161.7836
 20
-106.1102
 30
0.0
 10
161.7836
 20
-106.1102
 30
0.0
 10
144.208
 20
-106.3033
 30
0.0
 10
144.208
 20
-106.3033
 30
0.0
 10
144.208
 20
-106.3033
 30
0.0
 10
148.2899
 20
-103.2299
 30
0.0
 10
149.1339
 20
-99.0565
 30
0.0
 10
148.5502
 20
-95.2801
 30
0.0
  0
SPLINE
  5
82
330
1F
100
AcDbEntity
  8
layer 1
 62
     7
100
AcDbSpline
210
0.0
220
0.0
230
1.0
 70
    11
 71
     3
 72
    20
 73
    16
 74
     0
 42
0.0000000001
 43
0.0000000001
 12
1.0
 22
0.0
 32
0.0
 13
1.0
 23
0.0
 33
0.0
 40
0.0
 40
0.0
 40
0.0
 40
0.0
 40
0.2
 40
0.2
 40
0.2
 40
0.2
 40
0.4
 40
0.4
 40
0.4
 40
0.4
 40
0.6
 40
0.6
 40
0.6
 40
0.6
 40
1.0
 40
1.0
 40
1.0
 40
1.0
 10
145.2627
 20
-36.1228
 30
0.0
 10
148.4581
 20
-32.3369
 30
0.0
 10
150.4705
 20
-25.9448
 30
0.0
 10
148.4041
 20
-19.5927
 30
0.0
 10
148.4041
 20
-19.5927
 30
0.0
 10
151.4001
 20
-20.224
 30
0.0
 10
154.1625
 20
-23.7228
 30
0.0
 10
154.6924
 20
-26.9507
 30
0.0
 10
154.6924
 20
-26.9507
 30
0.0
 10
155.583
 20
-39.0444
 30
0.0
 10
148.7518
 20
-48.1071
 30
0.0
 10
145.3829
 20
-51.3199
 30
0.0
 10
145.3829
 20
-51.3199
 30
0.0
 10
145.9642
 20
-46.0651
 30
0.0
 10
145.6734
 20
-40.6882
 30
0.0
 10
145.2627
 20
-36.1228
 30
0.0
  0
SPLINE
  5
83
330
1F
100
AcDbEntity
  8
layer 1
 62
     7
100
AcDbSpline
210
0.0
220
0.0
230
1.0
 70
    11
 71
     3
 72
    24
 73
    20
 74
     0
 42
0.0000000001
 43
0.0000000001
 12
1.0
 22
0.0
 32
0.0
 13
1.0
 23
0.0
 33
0.0
 40
0.0
 40
0.0
 40
0.0
 40
0.0
 40
0.1666666666666667
 40
0.1666666666666667
 40
0.1666666666666667
 40
0.1666666666666667
 40
0.3333333333333333
 40
0.3333333333333333
 40
0.3333333333333333
 40
0.3333333333333333
 40
0.5
 40
0.5
 40
0.5
 40
0.5
 40
0.6666666666666666
 40
0.6666666666666666
 40
0.6666666666666666
 40
0.6666666666666666
 40
1.0
 40
1.0
 40
1.0
 40
1.0
 10
160.4265
 20
-37.3257
 30
0.0
 10
160.0354
 20
-41.3071
 30
0.0
 10
160.6045
 20
-46.6493
 30
0.0
 10
162.3107
 20
-49.6476
 30
0.0
 10
162.3107
 20
-49.6476
 30
0.0
 10
160.8062
 20
-49.495
 30
0.0
 10
159.0937
 20
-49.4817
 30
0.0
 10
158.3448
 20
-49.5889
 30
0.0
 10
158.3448
 20
-49.5889
 30
0.0
 10
158.6863
 20
-50.7189
 30
0.0
 10
159.3507
 20
-52.6579
 30
0.0
 10
159.7627
 20
-53.5954
 30
0.0
 10
159.7627
 20
-53.5954
 30
0.0
 10
156.1498
 20
-53.758
 30
0.0
 10
151.2589
 20
-54.3392
 30
0.0
 10
147.5509
 20
-55.9147
 30
0.0
 10
147.5509
 20
-55.9147
 30
0.0
 10
152.2735
 20
-49.9396
 30
0.0
 10
157.5967
 20
-41.9254
 30
0.0
 10
160.4265
 20
-37.3257
 30
0.0
  0
SPLINE
  5
84
330
1F
100
AcDbEntity
  8
layer 1
 62
     7
100
AcDbSpline
210
0.0
220
0.0
230
1.0
 70
    11
 71
     3
 72
    16
 73
    12
 74
     0
 42
0.0000000001
 43
0.0000000001
 12
1.0
 22
0.0
 32
0.0
 13
1.0
 23
0.0
 33
0.0
 40
0.0
 40
0.0
 40
0.0
 40
0.0
 40
0.25
 40
0.25
 40
0.25
 40
0.25
 40
0.5
 40
0.5
 40
0.5
 40
0.5
 40
1.0
 40
1.0
 40
1.0
 40
1.0
 10
152.6275
 20
-81.1078
 30
0.0
 10
155.793
 20
-82.6665
 30
0.0
 10
157.4855
 20
-85.5401
 30
0.0
 10
157.5206
 20
-89.0601
 30
0.0
 10
157.5206
 20
-89.0601
 30
0.0
 10
153.7858
 20
-91.0277
 30
0.0
 10
150.7437
 20
-90.8387
 30
0.0
 10
148.033
 20
-88.8037
 30
0.0
 10
148.033
 20
-88.8037
 30
0.0
 10
151.2478
 20
-88.0632
 30
0.0
 10
153.6092
 20
-83.8641
 30
0.0
 10
152.6275
 20
-81.1078
 30
0.0
  0
SPLINE
  5
85
330
1F
100
AcDbEntity
  8
layer 1
 62
     7
100
AcDbSpline
210
0.0
220
0.0
230
1.0
 70
    11
 71
     3
 72
    24
 73
    20
 74
     0
 42
0.0000000001
 43
0.0000000001
 12
1.0
 22
0.0
 32
0.0
 13
1.0
 23
0.0
 33
0.0
 40
0.0
 40
0.0
 40
0.0
 40
0.0
 40
0.1666666666666667
 40
0.1666666666666667
 40
0.1666666666666667
 40
0.1666666666666667
 40
0.3333333333333333
 40
0.3333333333333333
 40
0.3333333333333333
 40
0.3333333333333333
 40
0.5
 40
0.5
 40
0.5
 40
0.5
 40
0.6666666666666666
 40
0.6666666666666666
 40
0.6666666666666666
 40
0.6666666666666666
 40
1.0
 40
1.0
 40
1.0
 40
1.0
 10
160.6572
 20
-68.0117
 30
0.0
 10
165.1151
 20
-68.4991
 30
0.0
 10
168.2875
 20
-72.4487
 30
0.0
 10
168.6782
 20
-76.5131
 30
0.0
 10
168.6782
 20
-76.5131
 30
0.0
 10
169.1363
 20
-80.5098
 30
0.0
 10
166.0641
 20
-87.1109
 30
0.0
 10
161.0664
 20
-87.2561
 30
0.0
 10
161.0664
 20
-87.2561
 30
0.0
 10
160.0852
 20
-83.7838
 30
0.0
 10
159.2512
 20
-81.6404
 30
0.0
 10
157.6139
 20
-79.5521
 30
0.0
 10
157.6139
 20
-79.5521
 30
0.0
 10
165.1158
 20
-79.4451
 30
0.0
 10
165.1158
 20
-69.9464
 30
0.0
 10
160.6572
 20
-68.0116
 30
0.0
 10
160.6572
 20
-68.0116
 30
0.0
 10
160.6572
 20
-68.0116
 30
0.0
 10
160.6572
 20
-68.0117
 30
0.0
 10
160.6572
 20
-68.0117
 30
0.0
  0
SPLINE
  5
86
330
1F
100
AcDbEntity
  8
layer 1
 62
     7
100
AcDbSpline
210
0.0
220
0.0
230
1.0
 70
    11
 71
     3
 72
    24
 73
    20
 74
     0
 42
0.0000000001
 43
0.0000000001
 12
1.0
 22
0.0
 32
0.0
 13
1.0
 23
0.0
 33
0.0
 40
0.0
 40
0.0
 40
0.0
 40
0.0
 40
0.1666666666666667
 40
0.1666666666666667
 40
0.1666666666666667
 40
0.1666666666666667
 40
0.3333333333333333
 40
0.3333333333333333
 40
0.3333333333333333
 40
0.3333333333333333
 40
0.5
 40
0.5
 40
0.5
 40
0.5
 40
0.6666666666666666
 40
0.6666666666666666
 40
0.6666666666666666
 40
0.6666666666666666
 40
1.0
 40
1.0
 40
1.0
 40
1.0
 10
172.9872
 20
-80.3636
 30
0.0
 10
176.0281
 20
-79.9423
 30
0.0
 10
178.5866
 20
-81.0351
 30
0.0
 10
180.0476
 20
-83.594
 30
0.0
 10
180.0476
 20
-83.594
 30
0.0
 10
180.5276
 20
-84.6553
 30
0.0
 10
180.2757
 20
-85.8019
 30
0.0
 10
179.9995
 20
-86.6515
 30
0.0
 10
179.9995
 20
-86.6515
 30
0.0
 10
177.9336
 20
-91.5364
 30
0.0
 10
175.5716
 20
-93.8285
 30
0.0
 10
171.7318
 20
-95.4545
 30
0.0
 10
171.7318
 20
-95.4545
 30
0.0
 10
167.7177
 20
-96.9094
 30
0.0
 10
162.7596
 20
-96.3689
 30
0.0
 10
159.5577
 20
-93.9652
 30
0.0
 10
159.5577
 20
-93.9652
 30
0.0
 10
167.7019
 20
-91.5714
 30
0.0
 10
171.6502
 20
-86.3844
 30
0.0
 10
172.9872
 20
-80.3636
 30
0.0
  0
SPLINE
  5
87
330
1F
100
AcDbEntity
  8
layer 1
 62
     7
100
AcDbSpline
210
0.0
220
0.0
230
1.0
 70
    11
 71
     3
 72
    28
 73
    24
 74
     0
 42
0.0000000001
 43
0.0000000001
 12
1.0
 22
0.0
 32
0.0
 13
1.0
 23
0.0
 33
0.0
 40
0.0
 40
0.0
 40
0.0
 40
0.0
 40
0.1428571428571428
 40
0.1428571428571428
 40
0.1428571428571428
 40
0.1428571428571428
 40
0.2857142857142857
 40
0.2857142857142857
 40
0.2857142857142857
 40
0.2857142857142857
 40
0.4285714285714285
 40
0.4285714285714285
 40
0.4285714285714285
 40
0.4285714285714285
 40
0.5714285714285714
 40
0.5714285714285714
 40
0.5714285714285714
 40
0.5714285714285714
 40
0.7142857142857143
 40
0.7142857142857143
 40
0.7142857142857143
 40
0.7142857142857143
 40
1.0
 40
1.0
 40
1.0
 40
1.0
 10
168.401
 20
1.1036
 30
0.0
 10
168.3156
 20
-5.7677
 30
0.0
 10
177.236
 20
-8.6347
 30
0.0
 10
181.4396
 20
-1.9014
 30
0.0
 10
181.4396
 20
-1.9014
 30
0.0
 10
180.812
 20
-7.5561
 30
0.0
 10
177.8567
 20
-10.2038
 30
0.0
 10
174.2628
 20
-13.5308
 30
0.0
 10
174.2628
 20
-13.5308
 30
0.0
 10
171.3091
 20
-16.2652
 30
0.0
 10
166.6356
 20
-21.392
 30
0.0
 10
163.1951
 20
-25.9663
 30
0.0
 10
163.1951
 20
-25.9663
 30
0.0
 10
163.0569
 20
-21.4654
 30
0.0
 10
162.4704
 20
-17.0578
 30
0.0
 10
161.6829
 20
-13.2276
 30
0.0
 10
161.6829
 20
-13.2276
 30
0.0
 10
160.922
 20
-9.5269
 30
0.0
 10
160.0151
 20
-8.2549
 30
0.0
 10
160.3567
 20
-5.557
 30
0.0
 10
160.3567
 20
-5.557
 30
0.0
 10
161.0584
 20
-0.1725
 30
0.0
 10
165.9491
 20
1.4503
 30
0.0
 10
168.401
 20
1.1036
 30
0.0
  0
SPLINE
  5
88
330
1F
100
AcDbEntity
  8
layer 1
 62
     7
100
AcDbSpline
210
0.0
220
0.0
230
1.0
 70
    11
 71
     3
 72
    32
 73
    28
 74
     0
 42
0.0000000001
 43
0.0000000001
 12
1.0
 22
0.0
 32
0.0
 13
1.0
 23
0.0
 33
0.0
 40
0.0
 40
0.0
 40
0.0
 40
0.0
 40
0.125
 40
0.125
 40
0.125
 40
0.125
 40
0.25
 40
0.25
 40
0.25
 40
0.25
 40
0.375
 40
0.375
 40
0.375
 40
0.375
 40
0.5
 40
0.5
 40
0.5
 40
0.5
 40
0.625
 40
0.625
 40
0.625
 40
0.625
 40
0.75
 40
0.75
 40
0.75
 40
0.75
 40
1.0
 40
1.0
 40
1.0
 40
1.0
 10
178.5312
 20
-33.2266
 30
0.0
 10
172.9903
 20
-33.9361
 30
0.0
 10
171.4116
 20
-40.366
 30
0.0
 10
175.6942
 20
-44.2804
 30
0.0
 10
175.6942
 20
-44.2804
 30
0.0
 10
179.8412
 20
-47.8272
 30
0.0
 10
185.2642
 20
-46.3175
 30
0.0
 10
187.3959
 20
-40.9909
 30
0.0
 10
187.3959
 20
-40.9909
 30
0.0
 10
187.3959
 20
-40.9909
 30
0.0
 10
187.4067
 20
-53.5777
 30
0.0
 10
187.4067
 20
-53.5777
 30
0.0
 10
187.4067
 20
-53.5777
 30
0.0
 10
182.3803
 20
-50.6539
 30
0.0
 10
176.6323
 20
-53.8341
 30
0.0
 10
175.5136
 20
-57.1198
 30
0.0
 10
175.5136
 20
-57.1198
 30
0.0
 10
170.7713
 20
-54.5532
 30
0.0
 10
167.3801
 20
-50.2535
 30
0.0
 10
165.8323
 20
-44.4819
 30
0.0
 10
165.8323
 20
-44.4819
 30
0.0
 10
163.7884
 20
-36.0348
 30
0.0
 10
171.613
 20
-30.1793
 30
0.0
 10
178.5312
 20
-33.2266
 30
0.0
 10
178.5312
 20
-33.2266
 30
0.0
 10
178.5312
 20
-33.2266
 30
0.0
 10
178.5312
 20
-33.2266
 30
0.0
 10
178.5312
 20
-33.2266
 30
0.0
  0
SPLINE
  5
89
330
1F
100
AcDbEntity
  8
layer 1
 62
     7
100
AcDbSpline
210
0.0
220
0.0
230
1.0
 70
    11
 71
     3
 72
    16
 73
    12
 74
     0
 42
0.0000000001
 43
0.0000000001
 12
1.0
 22
0.0
 32
0.0
 13
1.0
 23
0.0
 33
0.0
 40
0.0
 40
0.0
 40
0.0
 40
0.0
 40
0.25
 40
0.25
 40
0.25
 40
0.25
 40
0.5
 40
0.5
 40
0.5
 40
0.5
 40
1.0
 40
1.0
 40
1.0
 40
1.0
 10
187.4445
 20
-6.8105
 30
0.0
 10
187.4445
 20
-6.8105
 30
0.0
 10
187.3521
 20
-34.1836
 30
0.0
 10
187.3521
 20
-34.1836
 30
0.0
 10
187.3521
 20
-34.1836
 30
0.0
 10
184.8474
 20
-28.1512
 30
0.0
 10
175.4455
 20
-25.9786
 30
0.0
 10
168.6694
 20
-27.2938
 30
0.0
 10
168.6694
 20
-27.2938
 30
0.0
 10
176.4699
 20
-21.1146
 30
0.0
 10
182.2336
 20
-14.4215
 30
0.0
 10
187.4445
 20
-6.8105
 30
0.0
  0
SPLINE
  5
8A
330
1F
100
AcDbEntity
  8
layer 1
 62
     7
100
AcDbSpline
210
0.0
220
0.0
230
1.0
 70
    11
 71
     3
 72
    20
 73
    16
 74
     0
 42
0.0000000001
 43
0.0000000001
 12
1.0
 22
0.0
 32
0.0
 13
1.0
 23
0.0
 33
0.0
 40
0.0
 40
0.0
 40
0.0
 40
0.0
 40
0.2
 40
0.2
 40
0.2
 40
0.2
 40
0.4
 40
0.4
 40
0.4
 40
0.4
 40
0.6
 40
0.6
 40
0.6
 40
0.6
 40
1.0
 40
1.0
 40
1.0
 40
1.0
 10
169.711
 20
-101.0127
 30
0.0
 10
178.9577
 20
-100.2245
 30
0.0
 10
185.0107
 20
-94.253
 30
0.0
 10
187.4224
 20
-88.0537
 30
0.0
 10
187.4224
 20
-88.0537
 30
0.0
 10
187.4224
 20
-88.0537
 30
0.0
 10
187.3944
 20
-106.2857
 30
0.0
 10
187.3944
 20
-106.2857
 30
0.0
 10
187.3944
 20
-106.2857
 30
0.0
 10
187.3944
 20
-106.2857
 30
0.0
 10
169.6722
 20
-106.3032
 30
0.0
 10
169.6722
 20
-106.3032
 30
0.0
 10
169.6722
 20
-106.3032
 30
0.0
 10
169.6722
 20
-106.3032
 30
0.0
 10
169.711
 20
-101.0127
 30
0.0
 10
169.711
 20
-101.0127
 30
0.0
  0
SPLINE
  5
8B
330
1F
100
AcDbEntity
  8
layer 1
 62
     7
100
AcDbSpline
210
0.0
220
0.0
230
1.0
 70
    11
 71
     3
 72
    20
 73
    16
 74
     0
 42
0.0000000001
 43
0.0000000001
 12
1.0
 22
0.0
 32
0.0
 13
1.0
 23
0.0
 33
0.0
 40
0.0
 40
0.0
 40
0.0
 40
0.0
 40
0.2
 40
0.2
 40
0.2
 40
0.2
 40
0.4
 40
0.4
 40
0.4
 40
0.4
 40
0.6
 40
0.6
 40
0.6
 40
0.6
 40
1.0
 40
1.0
 40
1.0
 40
1.0
 10
174.4008
 20
-62.3994
 30
0.0
 10
174.4363
 20
-62.4348
 30
0.0
 10
174.3733
 20
-62.4601
 30
0.0
 10
174.2607
 20
-62.4554
 30
0.0
 10
174.2607
 20
-62.4554
 30
0.0
 10
174.1364
 20
-62.4503
 30
0.0
 10
174.1111
 20
-62.425
 30
0.0
 10
174.1962
 20
-62.391
 30
0.0
 10
174.1962
 20
-62.391
 30
0.0
 10
174.2733
 20
-62.3602
 30
0.0
 10
174.3653
 20
-62.364
 30
0.0
 10
174.4008
 20
-62.3994
 30
0.0
 10
174.4008
 20
-62.3994
 30
0.0
 10
174.4008
 20
-62.3994
 30
0.0
 10
174.4008
 20
-62.3994
 30
0.0
 10
174.4008
 20
-62.3994
 30
0.0
  0
SPLINE
  5
8C
330
1F
100
AcDbEntity
  8
layer 1
 62
     7
100
AcDbSpline
210
0.0
220
0.0
230
1.0
 70
    11
 71
     3
 72
    16
 73
    12
 74
     0
 42
0.0000000001
 43
0.0000000001
 12
1.0
 22
0.0
 32
0.0
 13
1.0
 23
0.0
 33
0.0
 40
0.0
 40
0.0
 40
0.0
 40
0.0
 40
0.25
 40
0.25
 40
0.25
 40
0.25
 40
0.5
 40
0.5
 40
0.5
 40
0.5
 40
1.0
 40
1.0
 40
1.0
 40
1.0
 10
187.4224
 20
0.1607
 30
0.0
 10
185.8958
 20
4.1127
 30
0.0
 10
182.9388
 20
7.1517
 30
0.0
 10
179.0155
 20
8.4385
 30
0.0
 10
179.0155
 20
8.4385
 30
0.0
 10
182.9388
 20
9.7252
 30
0.0
 10
185.8957
 20
12.7642
 30
0.0
 10
187.4224
 20
16.7162
 30
0.0
 10
187.4224
 20
16.7162
 30
0.0
 10
187.4224
 20
16.7162
 30
0.0
 10
187.4224
 20
0.1607
 30
0.0
 10
187.4224
 20
0.1607
 30
0.0
  0
SPLINE
  5
8D
330
1F
100
AcDbEntity
  8
layer 1
 62
     7
100
AcDbSpline
210
0.0
220
0.0
230
1.0
 70
    11
 71
     3
 72
    20
 73
    16
 74
     0
 42
0.0000000001
 43
0.0000000001
 12
1.0
 22
0.0
 32
0.0
 13
1.0
 23
0.0
 33
0.0
 40
0.0
 40
0.0
 40
0.0
 40
0.0
 40
0.2
 40
0.2
 40
0.2
 40
0.2
 40
0.4
 40
0.4
 40
0.4
 40
0.4
 40
0.6
 40
0.6
 40
0.6
 40
0.6
 40
1.0
 40
1.0
 40
1.0
 40
1.0
 10
187.4493
 20
-56.0718
 30
0.0
 10
187.4493
 20
-61.5997
 30
0.0
 10
187.4493
 20
-67.1276
 30
0.0
 10
187.4483
 20
-72.6554
 30
0.0
 10
187.4483
 20
-72.6554
 30
0.0
 10
184.0843
 20
-64.5556
 30
0.0
 10
181.5406
 20
-65.8065
 30
0.0
 10
181.5045
 20
-61.0646
 30
0.0
 10
181.5045
 20
-61.0646
 30
0.0
 10
181.546
 20
-57.9085
 30
0.0
 10
184.4529
 20
-55.8879
 30
0.0
 10
187.4489
 20
-56.0718
 30
0.0
 10
187.4489
 20
-56.0718
 30
0.0
 10
187.4489
 20
-56.0718
 30
0.0
 10
187.4493
 20
-56.0718
 30
0.0
 10
187.4493
 20
-56.0718
 30
0.0
  0
SPLINE
  5
8E
330
1F
100
AcDbEntity
  8
layer 1
 62
     7
100
AcDbSpline
210
0.0
220
0.0
230
1.0
 70
    11
 71
     3
 72
    40
 73
    36
 74
     0
 42
0.0000000001
 43
0.0000000001
 12
1.0
 22
0.0
 32
0.0
 13
1.0
 23
0.0
 33
0.0
 40
0.0
 40
0.0
 40
0.0
 40
0.0
 40
0.1
 40
0.1
 40
0.1
 40
0.1
 40
0.2
 40
0.2
 40
0.2
 40
0.2
 40
0.3
 40
0.3
 40
0.3
 40
0.3
 40
0.4
 40
0.4
 40
0.4
 40
0.4
 40
0.5
 40
0.5
 40
0.5
 40
0.5
 40
0.6
 40
0.6
 40
0.6
 40
0.6
 40
0.7
 40
0.7
 40
0.7
 40
0.7
 40
0.8
 40
0.8
 40
0.8
 40
0.8
 40
1.0
 40
1.0
 40
1.0
 40
1.0
 10
111.4089
 20
90.9441
 30
0.0
 10
109.1618
 20
91.6814
 30
0.0
 10
109.4232
 20
96.4005
 30
0.0
 10
113.3086
 20
96.6291
 30
0.0
 10
113.3086
 20
96.6291
 30
0.0
 10
116.5504
 20
96.8354
 30
0.0
 10
118.6205
 20
92.3494
 30
0.0
 10
116.0283
 20
88.8102
 30
0.0
 10
116.0283
 20
88.8102
 30
0.0
 10
110.7262
 20
83.2551
 30
0.0
 10
106.5542
 20
76.5192
 30
0.0
 10
103.2517
 20
69.4807
 30
0.0
 10
103.2517
 20
69.4807
 30
0.0
 10
99.9492
 20
76.5192
 30
0.0
 10
95.7772
 20
83.2551
 30
0.0
 10
90.4752
 20
88.8102
 30
0.0
 10
90.4752
 20
88.8102
 30
0.0
 10
87.883
 20
92.3494
 30
0.0
 10
89.953
 20
96.8354
 30
0.0
 10
93.1949
 20
96.6291
 30
0.0
 10
93.1949
 20
96.6291
 30
0.0
 10
97.0803
 20
96.4005
 30
0.0
 10
97.3416
 20
91.6814
 30
0.0
 10
95.0945
 20
90.9441
 30
0.0
 10
95.0945
 20
90.9441
 30
0.0
 10
97.6757
 20
89.6268
 30
0.0
 10
101.8952
 20
90.635
 30
0.0
 10
103.2517
 20
94.2954
 30
0.0
 10
103.2517
 20
94.2954
 30
0.0
 10
104.6082
 20
90.635
 30
0.0
 10
108.8276
 20
89.6268
 30
0.0
 10
111.4089
 20
90.9441
 30
0.0
 10
111.4089
 20
90.9441
 30
0.0
 10
111.4089
 20
90.9441
 30
0.0
 10
111.4089
 20
90.9441
 30
0.0
 10
111.4089
 20
90.9441
 30
0.0
  0
SPLINE
  5
8F
330
1F
100
AcDbEntity
  8
layer 1
 62
     7
100
AcDbSpline
210
0.0
220
0.0
230
1.0
 70
    11
 71
     3
 72
    20
 73
    16
 74
     0
 42
0.0000000001
 43
0.0000000001
 12
1.0
 22
0.0
 32
0.0
 13
1.0
 23
0.0
 33
0.0
 40
0.0
 40
0.0
 40
0.0
 40
0.0
 40
0.2
 40
0.2
 40
0.2
 40
0.2
 40
0.4
 40
0.4
 40
0.4
 40
0.4
 40
0.6
 40
0.6
 40
0.6
 40
0.6
 40
1.0
 40
1.0
 40
1.0
 40
1.0
 10
108.6527
 20
21.638
 30
0.0
 10
106.5945
 20
20.9764
 30
0.0
 10
104.6548
 20
19.904
 30
0.0
 10
103.2518
 20
17.5121
 30
0.0
 10
103.2518
 20
17.5121
 30
0.0
 10
101.8487
 20
19.904
 30
0.0
 10
99.909
 20
20.9764
 30
0.0
 10
97.8508
 20
21.638
 30
0.0
 10
97.8508
 20
21.638
 30
0.0
 10
98.7573
 20
22.7007
 30
0.0
 10
101.6606
 20
26.9846
 30
0.0
 10
103.2518
 20
31.0509
 30
0.0
 10
103.2518
 20
31.0509
 30
0.0
 10
104.8429
 20
26.9846
 30
0.0
 10
107.7462
 20
22.7007
 30
0.0
 10
108.6527
 20
21.638
 30
0.0
  0
SPLINE
  5
90
330
1F
100
AcDbEntity
  8
layer 1
 62
     7
100
AcDbSpline
210
0.0
220
0.0
230
1.0
 70
    11
 71
     3
 72
    28
 73
    24
 74
     0
 42
0.0000000001
 43
0.0000000001
 12
1.0
 22
0.0
 32
0.0
 13
1.0
 23
0.0
 33
0.0
 40
0.0
 40
0.0
 40
0.0
 40
0.0
 40
0.1428571428571428
 40
0.1428571428571428
 40
0.1428571428571428
 40
0.1428571428571428
 40
0.2857142857142857
 40
0.2857142857142857
 40
0.2857142857142857
 40
0.2857142857142857
 40
0.4285714285714285
 40
0.4285714285714285
 40
0.4285714285714285
 40
0.4285714285714285
 40
0.5714285714285714
 40
0.5714285714285714
 40
0.5714285714285714
 40
0.5714285714285714
 40
0.7142857142857143
 40
0.7142857142857143
 40
0.7142857142857143
 40
0.7142857142857143
 40
1.0
 40
1.0
 40
1.0
 40
1.0
 10
112.3257
 20
16.8196
 30
0.0
 10
121.0742
 20
8.4505
 30
0.0
 10
137.7645
 20
6.1086
 30
0.0
 10
148.828
 20
13.7153
 30
0.0
 10
148.828
 20
13.7153
 30
0.0
 10
148.819
 20
10.954
 30
0.0
 10
149.1637
 20
9.6987
 30
0.0
 10
151.5001
 20
8.4384
 30
0.0
 10
151.5001
 20
8.4384
 30
0.0
 10
149.1637
 20
7.1781
 30
0.0
 10
148.819
 20
5.9229
 30
0.0
 10
148.828
 20
3.1615
 30
0.0
 10
148.828
 20
3.1615
 30
0.0
 10
137.7646
 20
10.7682
 30
0.0
 10
121.0742
 20
8.4264
 30
0.0
 10
112.3257
 20
0.0573
 30
0.0
 10
112.3257
 20
0.0573
 30
0.0
 10
108.5034
 20
1.8096
 30
0.0
 10
108.9737
 20
7.1601
 30
0.0
 10
111.893
 20
8.4384
 30
0.0
 10
111.893
 20
8.4384
 30
0.0
 10
108.9737
 20
9.7167
 30
0.0
 10
108.5034
 20
15.0672
 30
0.0
 10
112.3257
 20
16.8196
 30
0.0
  0
SPLINE
  5
91
330
1F
100
AcDbEntity
  8
layer 1
 62
     7
100
AcDbSpline
210
0.0
220
0.0
230
1.0
 70
    11
 71
     3
 72
    40
 73
    36
 74
     0
 42
0.0000000001
 43
0.0000000001
 12
1.0
 22
0.0
 32
0.0
 13
1.0
 23
0.0
 33
0.0
 40
0.0
 40
0.0
 40
0.0
 40
0.0
 40
0.1
 40
0.1
 40
0.1
 40
0.1
 40
0.2
 40
0.2
 40
0.2
 40
0.2
 40
0.3
 40
0.3
 40
0.3
 40
0.3
 40
0.4
 40
0.4
 40
0.4
 40
0.4
 40
0.5
 40
0.5
 40
0.5
 40
0.5
 40
0.6
 40
0.6
 40
0.6
 40
0.6
 40
0.7
 40
0.7
 40
0.7
 40
0.7
 40
0.8
 40
0.8
 40
0.8
 40
0.8
 40
1.0
 40
1.0
 40
1.0
 40
1.0
 10
116.5352
 20
21.2335
 30
0.0
 10
117.0975
 20
24.1612
 30
0.0
 10
116.3558
 20
28.0267
 30
0.0
 10
114.0553
 20
30.2052
 30
0.0
 10
114.0553
 20
30.2052
 30
0.0
 10
115.7932
 20
29.7322
 30
0.0
 10
119.0418
 20
30.1943
 30
0.0
 10
119.0639
 20
30.8375
 30
0.0
 10
119.0639
 20
30.8375
 30
0.0
 10
111.4611
 20
43.5404
 30
0.0
 10
124.9268
 20
53.2119
 30
0.0
 10
133.4563
 20
49.1396
 30
0.0
 10
133.4563
 20
49.1396
 30
0.0
 10
134.7603
 20
49.9819
 30
0.0
 10
137.9606
 20
51.2888
 30
0.0
 10
138.7817
 20
52.688
 30
0.0
 10
138.7817
 20
52.688
 30
0.0
 10
135.0481
 20
55.1729
 30
0.0
 10
131.4469
 20
56.4737
 30
0.0
 10
126.6734
 20
56.2371
 30
0.0
 10
126.6734
 20
56.2371
 30
0.0
 10
121.8275
 20
56.3281
 30
0.0
 10
115.4148
 20
53.6093
 30
0.0
 10
112.424
 20
48.4993
 30
0.0
 10
112.424
 20
48.4993
 30
0.0
 10
110.7747
 20
45.7226
 30
0.0
 10
109.484
 20
41.2321
 30
0.0
 10
109.7729
 20
37.614
 30
0.0
 10
109.7729
 20
37.614
 30
0.0
 10
109.6425
 20
30.4593
 30
0.0
 10
112.9494
 20
24.9404
 30
0.0
 10
116.5352
 20
21.2335
 30
0.0
 10
116.5352
 20
21.2335
 30
0.0
 10
116.5352
 20
21.2335
 30
0.0
 10
116.5352
 20
21.2335
 30
0.0
 10
116.5352
 20
21.2335
 30
0.0
  0
SPLINE
  5
92
330
1F
100
AcDbEntity
  8
layer 1
 62
     7
100
AcDbSpline
210
0.0
220
0.0
230
1.0
 70
    11
 71
     3
 72
    40
 73
    36
 74
     0
 42
0.0000000001
 43
0.0000000001
 12
1.0
 22
0.0
 32
0.0
 13
1.0
 23
0.0
 33
0.0
 40
0.0
 40
0.0
 40
0.0
 40
0.0
 40
0.1
 40
0.1
 40
0.1
 40
0.1
 40
0.2
 40
0.2
 40
0.2
 40
0.2
 40
0.3
 40
0.3
 40
0.3
 40
0.3
 40
0.4
 40
0.4
 40
0.4
 40
0.4
 40
0.5
 40
0.5
 40
0.5
 40
0.5
 40
0.6
 40
0.6
 40
0.6
 40
0.6
 40
0.7
 40
0.7
 40
0.7
 40
0.7
 40
0.8
 40
0.8
 40
0.8
 40
0.8
 40
1.0
 40
1.0
 40
1.0
 40
1.0
 10
116.9411
 20
59.5739
 30
0.0
 10
116.1962
 20
65.4317
 30
0.0
 10
119.4479
 20
70.8295
 30
0.0
 10
123.5043
 20
75.2522
 30
0.0
 10
123.5043
 20
75.2522
 30
0.0
 10
126.1323
 20
78.1178
 30
0.0
 10
129.0087
 20
80.6859
 30
0.0
 10
131.6575
 20
82.3261
 30
0.0
 10
131.6575
 20
82.3261
 30
0.0
 10
129.0773
 20
85.1235
 30
0.0
 10
123.8616
 20
91.091
 30
0.0
 10
120.7703
 20
96.678
 30
0.0
 10
120.7703
 20
96.678
 30
0.0
 10
121.8525
 20
91.2832
 30
0.0
 10
120.0945
 20
88.0686
 30
0.0
 10
118.3136
 20
86.0439
 30
0.0
 10
118.3136
 20
86.0439
 30
0.0
 10
119.4538
 20
86.4767
 30
0.0
 10
120.7536
 20
86.5439
 30
0.0
 10
122.6464
 20
86.4702
 30
0.0
 10
122.6464
 20
86.4702
 30
0.0
 10
126.4858
 20
81.7969
 30
0.0
 10
121.5949
 20
78.7323
 30
0.0
 10
118.6546
 20
75.6309
 30
0.0
 10
118.6546
 20
75.6309
 30
0.0
 10
116.5026
 20
73.3519
 30
0.0
 10
114.5717
 20
70.9583
 30
0.0
 10
113.6661
 20
69.6415
 30
0.0
 10
113.6661
 20
69.6415
 30
0.0
 10
110.0139
 20
64.7002
 30
0.0
 10
113.0441
 20
60.1732
 30
0.0
 10
116.9411
 20
59.5738
 30
0.0
 10
116.9411
 20
59.5738
 30
0.0
 10
116.9411
 20
59.5738
 30
0.0
 10
116.9411
 20
59.5739
 30
0.0
 10
116.9411
 20
59.5739
 30
0.0
  0
SPLINE
  5
93
330
1F
100
AcDbEntity
  8
layer 1
 62
     7
100
AcDbSpline
210
0.0
220
0.0
230
1.0
 70
    11
 71
     3
 72
    28
 73
    24
 74
     0
 42
0.0000000001
 43
0.0000000001
 12
1.0
 22
0.0
 32
0.0
 13
1.0
 23
0.0
 33
0.0
 40
0.0
 40
0.0
 40
0.0
 40
0.0
 40
0.1428571428571428
 40
0.1428571428571428
 40
0.1428571428571428
 40
0.1428571428571428
 40
0.2857142857142857
 40
0.2857142857142857
 40
0.2857142857142857
 40
0.2857142857142857
 40
0.4285714285714285
 40
0.4285714285714285
 40
0.4285714285714285
 40
0.4285714285714285
 40
0.5714285714285714
 40
0.5714285714285714
 40
0.5714285714285714
 40
0.5714285714285714
 40
0.7142857142857143
 40
0.7142857142857143
 40
0.7142857142857143
 40
0.7142857142857143
 40
1.0
 40
1.0
 40
1.0
 40
1.0
 10
134.4064
 20
14.5642
 30
0.0
 10
134.5497
 20
18.5054
 30
0.0
 10
138.7791
 20
20.7679
 30
0.0
 10
142.2016
 20
19.5719
 30
0.0
 10
142.2016
 20
19.5719
 30
0.0
 10
148.0294
 20
21.4824
 30
0.0
 10
156.0107
 20
29.9746
 30
0.0
 10
156.5533
 20
33.1255
 30
0.0
 10
156.5533
 20
33.1255
 30
0.0
 10
154.6721
 20
30.9754
 30
0.0
 10
149.0458
 20
30.7265
 30
0.0
 10
146.675
 20
31.3771
 30
0.0
 10
146.675
 20
31.3771
 30
0.0
 10
139.8326
 20
21.985
 30
0.0
 10
128.4585
 20
21.4129
 30
0.0
 10
122.6709
 20
23.9068
 30
0.0
 10
122.6709
 20
23.9068
 30
0.0
 10
121.5626
 20
22.5077
 30
0.0
 10
120.0679
 20
20.5861
 30
0.0
 10
118.4856
 20
19.6854
 30
0.0
 10
118.4856
 20
19.6854
 30
0.0
 10
122.5714
 20
15.596
 30
0.0
 10
129.5365
 20
13.883
 30
0.0
 10
134.4064
 20
14.5642
 30
0.0
  0
SPLINE
  5
94
330
1F
100
AcDbEntity
  8
layer 1
 62
     7
100
AcDbSpline
210
0.0
220
0.0
230
1.0
 70
    11
 71
     3
 72
    44
 73
    40
 74
     0
 42
0.0000000001
 43
0.0000000001
 12
1.0
 22
0.0
 32
0.0
 13
1.0
 23
0.0
 33
0.0
 40
0.0
 40
0.0
 40
0.0
 40
0.0
 40
0.0909090909090909
 40
0.0909090909090909
 40
0.0909090909090909
 40
0.0909090909090909
 40
0.1818181818181818
 40
0.1818181818181818
 40
0.1818181818181818
 40
0.1818181818181818
 40
0.2727272727272727
 40
0.2727272727272727
 40
0.2727272727272727
 40
0.2727272727272727
 40
0.3636363636363636
 40
0.3636363636363636
 40
0.3636363636363636
 40
0.3636363636363636
 40
0.4545454545454545
 40
0.4545454545454545
 40
0.4545454545454545
 40
0.4545454545454545
 40
0.5454545454545454
 40
0.5454545454545454
 40
0.5454545454545454
 40
0.5454545454545454
 40
0.6363636363636364
 40
0.6363636363636364
 40
0.6363636363636364
 40
0.6363636363636364
 40
0.7272727272727273
 40
0.7272727272727273
 40
0.7272727272727273
 40
0.7272727272727273
 40
0.8181818181818182
 40
0.8181818181818182
 40
0.8181818181818182
 40
0.8181818181818182
 40
1.0
 40
1.0
 40
1.0
 40
1.0
 10
125.2746
 20
100.5946
 30
0.0
 10
127.3281
 20
104.9547
 30
0.0
 10
133.8821
 20
106.5751
 30
0.0
 10
137.8764
 20
102.9739
 30
0.0
 10
137.8764
 20
102.9739
 30
0.0
 10
137.9739
 20
105.6251
 30
0.0
 10
138.9493
 20
107.1678
 30
0.0
 10
140.1645
 20
108.7495
 30
0.0
 10
140.1645
 20
108.7495
 30
0.0
 10
140.8829
 20
109.6845
 30
0.0
 10
141.6536
 20
110.438
 30
0.0
 10
142.07
 20
111.3913
 30
0.0
 10
142.07
 20
111.3913
 30
0.0
 10
142.9049
 20
115.3193
 30
0.0
 10
140.0057
 20
116.9878
 30
0.0
 10
137.6617
 20
116.8164
 30
0.0
 10
137.6617
 20
116.8164
 30
0.0
 10
132.801
 20
116.1693
 30
0.0
 10
132.7102
 20
110.6315
 30
0.0
 10
135.371
 20
108.8902
 30
0.0
 10
135.371
 20
108.8902
 30
0.0
 10
128.0525
 20
110.0126
 30
0.0
 10
126.3143
 20
119.546
 30
0.0
 10
132.7279
 20
123.1802
 30
0.0
 10
132.7279
 20
123.1802
 30
0.0
 10
132.7279
 20
123.1802
 30
0.0
 10
126.1723
 20
123.1802
 30
0.0
 10
126.1723
 20
123.1802
 30
0.0
 10
126.1723
 20
123.1802
 30
0.0
 10
121.9856
 20
120.1386
 30
0.0
 10
120.4333
 20
115.2104
 30
0.0
 10
120.5014
 20
110.8542
 30
0.0
 10
120.5014
 20
110.8542
 30
0.0
 10
120.6152
 20
107.2728
 30
0.0
 10
122.6613
 20
103.1803
 30
0.0
 10
125.2746
 20
100.5947
 30
0.0
 10
125.2746
 20
100.5947
 30
0.0
 10
125.2746
 20
100.5947
 30
0.0
 10
125.2746
 20
100.5946
 30
0.0
 10
125.2746
 20
100.5946
 30
0.0
  0
SPLINE
  5
95
330
1F
100
AcDbEntity
  8
layer 1
 62
     7
100
AcDbSpline
210
0.0
220
0.0
230
1.0
 70
    11
 71
     3
 72
    40
 73
    36
 74
     0
 42
0.0000000001
 43
0.0000000001
 12
1.0
 22
0.0
 32
0.0
 13
1.0
 23
0.0
 33
0.0
 40
0.0
 40
0.0
 40
0.0
 40
0.0
 40
0.1
 40
0.1
 40
0.1
 40
0.1
 40
0.2
 40
0.2
 40
0.2
 40
0.2
 40
0.3
 40
0.3
 40
0.3
 40
0.3
 40
0.4
 40
0.4
 40
0.4
 40
0.4
 40
0.5
 40
0.5
 40
0.5
 40
0.5
 40
0.6
 40
0.6
 40
0.6
 40
0.6
 40
0.7
 40
0.7
 40
0.7
 40
0.7
 40
0.8
 40
0.8
 40
0.8
 40
0.8
 40
1.0
 40
1.0
 40
1.0
 40
1.0
 10
122.0256
 20
35.2901
 30
0.0
 10
122.7992
 20
31.3048
 30
0.0
 10
126.4981
 20
29.364
 30
0.0
 10
131.4435
 20
29.8127
 30
0.0
 10
131.4435
 20
29.8127
 30
0.0
 10
136.3109
 20
30.265
 30
0.0
 10
140.2932
 20
33.0974
 30
0.0
 10
142.2012
 20
37.4292
 30
0.0
 10
142.2012
 20
37.4292
 30
0.0
 10
144.049
 20
41.6244
 30
0.0
 10
143.3114
 20
46.7307
 30
0.0
 10
141.7922
 20
49.0662
 30
0.0
 10
141.7922
 20
49.0662
 30
0.0
 10
140.3552
 20
48.1922
 30
0.0
 10
138.4148
 20
46.6805
 30
0.0
 10
136.5089
 20
45.7763
 30
0.0
 10
136.5089
 20
45.7763
 30
0.0
 10
138.5226
 20
39.4307
 30
0.0
 10
133.9364
 20
34.1726
 30
0.0
 10
128.5944
 20
36.9475
 30
0.0
 10
128.5944
 20
36.9475
 30
0.0
 10
130.863
 20
38.2376
 30
0.0
 10
130.3688
 20
40.3636
 30
0.0
 10
128.8882
 20
41.3709
 30
0.0
 10
128.8882
 20
41.3709
 30
0.0
 10
127.8716
 20
42.0626
 30
0.0
 10
126.2727
 20
41.9634
 30
0.0
 10
125.2533
 20
41.7598
 30
0.0
 10
125.2533
 20
41.7598
 30
0.0
 10
122.3589
 20
40.9531
 30
0.0
 10
121.6763
 20
37.8963
 30
0.0
 10
122.0257
 20
35.2902
 30
0.0
 10
122.0257
 20
35.2902
 30
0.0
 10
122.0257
 20
35.2902
 30
0.0
 10
122.0256
 20
35.2901
 30
0.0
 10
122.0256
 20
35.2901
 30
0.0
  0
SPLINE
  5
96
330
1F
100
AcDbEntity
  8
layer 1
 62
     7
100
AcDbSpline
210
0.0
220
0.0
230
1.0
 70
    11
 71
     3
 72
    40
 73
    36
 74
     0
 42
0.0000000001
 43
0.0000000001
 12
1.0
 22
0.0
 32
0.0
 13
1.0
 23
0.0
 33
0.0
 40
0.0
 40
0.0
 40
0.0
 40
0.0
 40
0.1
 40
0.1
 40
0.1
 40
0.1
 40
0.2
 40
0.2
 40
0.2
 40
0.2
 40
0.3
 40
0.3
 40
0.3
 40
0.3
 40
0.4
 40
0.4
 40
0.4
 40
0.4
 40
0.5
 40
0.5
 40
0.5
 40
0.5
 40
0.6
 40
0.6
 40
0.6
 40
0.6
 40
0.7
 40
0.7
 40
0.7
 40
0.7
 40
0.8
 40
0.8
 40
0.8
 40
0.8
 40
1.0
 40
1.0
 40
1.0
 40
1.0
 10
129.0088
 20
66.1579
 30
0.0
 10
128.4992
 20
65.4216
 30
0.0
 10
128.4058
 20
64.209
 30
0.0
 10
128.4899
 20
62.6073
 30
0.0
 10
128.4899
 20
62.6073
 30
0.0
 10
134.8881
 20
62.0237
 30
0.0
 10
139.7677
 20
58.817
 30
0.0
 10
141.8575
 20
57.3919
 30
0.0
 10
141.8575
 20
57.3919
 30
0.0
 10
141.4728
 20
59.7899
 30
0.0
 10
141.2977
 20
63.0566
 30
0.0
 10
141.137
 20
65.651
 30
0.0
 10
141.137
 20
65.651
 30
0.0
 10
139.114
 20
61.5885
 30
0.0
 10
133.0822
 20
63.4802
 30
0.0
 10
132.2653
 20
67.2349
 30
0.0
 10
132.2653
 20
67.2349
 30
0.0
 10
131.0846
 20
72.8902
 30
0.0
 10
138.0865
 20
75.7972
 30
0.0
 10
141.2339
 20
72.3856
 30
0.0
 10
141.2339
 20
72.3856
 30
0.0
 10
140.3154
 20
73.9532
 30
0.0
 10
137.4936
 20
77.4341
 30
0.0
 10
135.9362
 20
78.2375
 30
0.0
 10
135.9362
 20
78.2375
 30
0.0
 10
132.1194
 20
76.5496
 30
0.0
 10
126.033
 20
71.5268
 30
0.0
 10
123.2137
 20
65.5995
 30
0.0
 10
123.2137
 20
65.5995
 30
0.0
 10
124.9547
 20
65.9836
 30
0.0
 10
127.8166
 20
66.1938
 30
0.0
 10
129.0087
 20
66.1579
 30
0.0
 10
129.0087
 20
66.1579
 30
0.0
 10
129.0087
 20
66.1579
 30
0.0
 10
129.0088
 20
66.1579
 30
0.0
 10
129.0088
 20
66.1579
 30
0.0
  0
SPLINE
  5
97
330
1F
100
AcDbEntity
  8
layer 1
 62
     7
100
AcDbSpline
210
0.0
220
0.0
230
1.0
 70
    11
 71
     3
 72
    16
 73
    12
 74
     0
 42
0.0000000001
 43
0.0000000001
 12
1.0
 22
0.0
 32
0.0
 13
1.0
 23
0.0
 33
0.0
 40
0.0
 40
0.0
 40
0.0
 40
0.0
 40
0.25
 40
0.25
 40
0.25
 40
0.25
 40
0.5
 40
0.5
 40
0.5
 40
0.5
 40
1.0
 40
1.0
 40
1.0
 40
1.0
 10
135.7549
 20
85.9286
 30
0.0
 10
136.082
 20
91.3583
 30
0.0
 10
134.5703
 20
95.7202
 30
0.0
 10
133.6464
 20
98.0145
 30
0.0
 10
133.6464
 20
98.0145
 30
0.0
 10
132.4835
 20
101.0174
 30
0.0
 10
127.6052
 20
100.4279
 30
0.0
 10
126.1932
 20
98.9169
 30
0.0
 10
126.1932
 20
98.9169
 30
0.0
 10
129.496
 20
91.857
 30
0.0
 10
133.5004
 20
88.2373
 30
0.0
 10
135.7549
 20
85.9286
 30
0.0
  0
SPLINE
  5
98
330
1F
100
AcDbEntity
  8
layer 1
 62
     7
100
AcDbSpline
210
0.0
220
0.0
230
1.0
 70
    11
 71
     3
 72
    16
 73
    12
 74
     0
 42
0.0000000001
 43
0.0000000001
 12
1.0
 22
0.0
 32
0.0
 13
1.0
 23
0.0
 33
0.0
 40
0.0
 40
0.0
 40
0.0
 40
0.0
 40
0.25
 40
0.25
 40
0.25
 40
0.25
 40
0.5
 40
0.5
 40
0.5
 40
0.5
 40
1.0
 40
1.0
 40
1.0
 40
1.0
 10
140.6589
 20
90.0081
 30
0.0
 10
143.012
 20
92.5498
 30
0.0
 10
146.169
 20
95.317
 30
0.0
 10
149.5408
 20
96.9818
 30
0.0
 10
149.5408
 20
96.9818
 30
0.0
 10
150.2917
 20
99.9697
 30
0.0
 10
147.1713
 20
102.8179
 30
0.0
 10
144.8037
 20
102.4695
 30
0.0
 10
144.8037
 20
102.4695
 30
0.0
 10
141.0533
 20
101.1265
 30
0.0
 10
138.4626
 20
94.5332
 30
0.0
 10
140.6589
 20
90.0081
 30
0.0
  0
SPLINE
  5
99
330
1F
100
AcDbEntity
  8
layer 1
 62
     7
100
AcDbSpline
210
0.0
220
0.0
230
1.0
 70
    11
 71
     3
 72
    32
 73
    28
 74
     0
 42
0.0000000001
 43
0.0000000001
 12
1.0
 22
0.0
 32
0.0
 13
1.0
 23
0.0
 33
0.0
 40
0.0
 40
0.0
 40
0.0
 40
0.0
 40
0.125
 40
0.125
 40
0.125
 40
0.125
 40
0.25
 40
0.25
 40
0.25
 40
0.25
 40
0.375
 40
0.375
 40
0.375
 40
0.375
 40
0.5
 40
0.5
 40
0.5
 40
0.5
 40
0.625
 40
0.625
 40
0.625
 40
0.625
 40
0.75
 40
0.75
 40
0.75
 40
0.75
 40
1.0
 40
1.0
 40
1.0
 40
1.0
 10
142.8818
 20
84.7394
 30
0.0
 10
148.7172
 20
77.345
 30
0.0
 10
157.5343
 20
73.6258
 30
0.0
 10
167.9199
 20
76.6734
 30
0.0
 10
167.9199
 20
76.6734
 30
0.0
 10
178.138
 20
79.1753
 30
0.0
 10
181.709
 20
90.411
 30
0.0
 10
181.2362
 20
97.3707
 30
0.0
 10
181.2362
 20
97.3707
 30
0.0
 10
178.9193
 20
93.1632
 30
0.0
 10
176.0316
 20
92.1445
 30
0.0
 10
173.1984
 20
91.7135
 30
0.0
 10
173.1984
 20
91.7135
 30
0.0
 10
172.5827
 20
84.7042
 30
0.0
 10
165.4292
 20
75.6363
 30
0.0
 10
156.5788
 20
81.0531
 30
0.0
 10
156.5788
 20
81.0531
 30
0.0
 10
152.9949
 20
83.7873
 30
0.0
 10
151.4219
 20
86.8491
 30
0.0
 10
152.5937
 20
92.252
 30
0.0
 10
152.5937
 20
92.252
 30
0.0
 10
149.4868
 20
89.6789
 30
0.0
 10
145.6151
 20
86.6486
 30
0.0
 10
142.8819
 20
84.7394
 30
0.0
 10
142.8819
 20
84.7394
 30
0.0
 10
142.8819
 20
84.7394
 30
0.0
 10
142.8818
 20
84.7394
 30
0.0
 10
142.8818
 20
84.7394
 30
0.0
  0
SPLINE
  5
9A
330
1F
100
AcDbEntity
  8
layer 1
 62
     7
100
AcDbSpline
210
0.0
220
0.0
230
1.0
 70
    11
 71
     3
 72
    24
 73
    20
 74
     0
 42
0.0000000001
 43
0.0000000001
 12
1.0
 22
0.0
 32
0.0
 13
1.0
 23
0.0
 33
0.0
 40
0.0
 40
0.0
 40
0.0
 40
0.0
 40
0.1666666666666667
 40
0.1666666666666667
 40
0.1666666666666667
 40
0.1666666666666667
 40
0.3333333333333333
 40
0.3333333333333333
 40
0.3333333333333333
 40
0.3333333333333333
 40
0.5
 40
0.5
 40
0.5
 40
0.5
 40
0.6666666666666666
 40
0.6666666666666666
 40
0.6666666666666666
 40
0.6666666666666666
 40
1.0
 40
1.0
 40
1.0
 40
1.0
 10
148.5502
 20
112.157
 30
0.0
 10
150.2937
 20
112.8549
 30
0.0
 10
153.504
 20
113.0047
 30
0.0
 10
155.4364
 20
112.562
 30
0.0
 10
155.4364
 20
112.562
 30
0.0
 10
155.8311
 20
113.9217
 30
0.0
 10
159.3557
 20
117.1839
 30
0.0
 10
161.8378
 20
118.1855
 30
0.0
 10
161.8378
 20
118.1855
 30
0.0
 10
161.8378
 20
118.1855
 30
0.0
 10
161.7836
 20
122.9871
 30
0.0
 10
161.7836
 20
122.9871
 30
0.0
 10
161.7836
 20
122.9871
 30
0.0
 10
161.7836
 20
122.9871
 30
0.0
 10
144.208
 20
123.1802
 30
0.0
 10
144.208
 20
123.1802
 30
0.0
 10
144.208
 20
123.1802
 30
0.0
 10
148.2899
 20
120.1068
 30
0.0
 10
149.1339
 20
115.9334
 30
0.0
 10
148.5502
 20
112.157
 30
0.0
  0
SPLINE
  5
9B
330
1F
100
AcDbEntity
  8
layer 1
 62
     7
100
AcDbSpline
210
0.0
220
0.0
230
1.0
 70
    11
 71
     3
 72
    20
 73
    16
 74
     0
 42
0.0000000001
 43
0.0000000001
 12
1.0
 22
0.0
 32
0.0
 13
1.0
 23
0.0
 33
0.0
 40
0.0
 40
0.0
 40
0.0
 40
0.0
 40
0.2
 40
0.2
 40
0.2
 40
0.2
 40
0.4
 40
0.4
 40
0.4
 40
0.4
 40
0.6
 40
0.6
 40
0.6
 40
0.6
 40
1.0
 40
1.0
 40
1.0
 40
1.0
 10
145.2627
 20
52.9997
 30
0.0
 10
148.4581
 20
49.2138
 30
0.0
 10
150.4705
 20
42.8217
 30
0.0
 10
148.4041
 20
36.4696
 30
0.0
 10
148.4041
 20
36.4696
 30
0.0
 10
151.4001
 20
37.1009
 30
0.0
 10
154.1625
 20
40.5997
 30
0.0
 10
154.6924
 20
43.8276
 30
0.0
 10
154.6924
 20
43.8276
 30
0.0
 10
155.583
 20
55.9213
 30
0.0
 10
148.7518
 20
64.984
 30
0.0
 10
145.3829
 20
68.1968
 30
0.0
 10
145.3829
 20
68.1968
 30
0.0
 10
145.9642
 20
62.942
 30
0.0
 10
145.6734
 20
57.5651
 30
0.0
 10
145.2627
 20
52.9997
 30
0.0
  0
SPLINE
  5
9C
330
1F
100
AcDbEntity
  8
layer 1
 62
     7
100
AcDbSpline
210
0.0
220
0.0
230
1.0
 70
    11
 71
     3
 72
    24
 73
    20
 74
     0
 42
0.0000000001
 43
0.0000000001
 12
1.0
 22
0.0
 32
0.0
 13
1.0
 23
0.0
 33
0.0
 40
0.0
 40
0.0
 40
0.0
 40
0.0
 40
0.1666666666666667
 40
0.1666666666666667
 40
0.1666666666666667
 40
0.1666666666666667
 40
0.3333333333333333
 40
0.3333333333333333
 40
0.3333333333333333
 40
0.3333333333333333
 40
0.5
 40
0.5
 40
0.5
 40
0.5
 40
0.6666666666666666
 40
0.6666666666666666
 40
0.6666666666666666
 40
0.6666666666666666
 40
1.0
 40
1.0
 40
1.0
 40
1.0
 10
160.4265
 20
54.2026
 30
0.0
 10
160.0354
 20
58.184
 30
0.0
 10
160.6045
 20
63.5262
 30
0.0
 10
162.3107
 20
66.5245
 30
0.0
 10
162.3107
 20
66.5245
 30
0.0
 10
160.8062
 20
66.3719
 30
0.0
 10
159.0937
 20
66.3586
 30
0.0
 10
158.3448
 20
66.4658
 30
0.0
 10
158.3448
 20
66.4658
 30
0.0
 10
158.6863
 20
67.5958
 30
0.0
 10
159.3507
 20
69.5348
 30
0.0
 10
159.7627
 20
70.4723
 30
0.0
 10
159.7627
 20
70.4723
 30
0.0
 10
156.1498
 20
70.6349
 30
0.0
 10
151.2589
 20
71.2161
 30
0.0
 10
147.5509
 20
72.7916
 30
0.0
 10
147.5509
 20
72.7916
 30
0.0
 10
152.2735
 20
66.8165
 30
0.0
 10
157.5967
 20
58.8023
 30
0.0
 10
160.4265
 20
54.2026
 30
0.0
  0
SPLINE
  5
9D
330
1F
100
AcDbEntity
  8
layer 1
 62
     7
100
AcDbSpline
210
0.0
220
0.0
230
1.0
 70
    11
 71
     3
 72
    16
 73
    12
 74
     0
 42
0.0000000001
 43
0.0000000001
 12
1.0
 22
0.0
 32
0.0
 13
1.0
 23
0.0
 33
0.0
 40
0.0
 40
0.0
 40
0.0
 40
0.0
 40
0.25
 40
0.25
 40
0.25
 40
0.25
 40
0.5
 40
0.5
 40
0.5
 40
0.5
 40
1.0
 40
1.0
 40
1.0
 40
1.0
 10
152.6275
 20
97.9847
 30
0.0
 10
155.793
 20
99.5434
 30
0.0
 10
157.4855
 20
102.417
 30
0.0
 10
157.5206
 20
105.937
 30
0.0
 10
157.5206
 20
105.937
 30
0.0
 10
153.7858
 20
107.9046
 30
0.0
 10
150.7437
 20
107.7156
 30
0.0
 10
148.033
 20
105.6806
 30
0.0
 10
148.033
 20
105.6806
 30
0.0
 10
151.2478
 20
104.9401
 30
0.0
 10
153.6092
 20
100.741
 30
0.0
 10
152.6275
 20
97.9847
 30
0.0
  0
SPLINE
  5
9E
330
1F
100
AcDbEntity
  8
layer 1
 62
     7
100
AcDbSpline
210
0.0
220
0.0
230
1.0
 70
    11
 71
     3
 72
    32
 73
    28
 74
     0
 42
0.0000000001
 43
0.0000000001
 12
1.0
 22
0.0
 32
0.0
 13
1.0
 23
0.0
 33
0.0
 40
0.0
 40
0.0
 40
0.0
 40
0.0
 40
0.125
 40
0.125
 40
0.125
 40
0.125
 40
0.25
 40
0.25
 40
0.25
 40
0.25
 40
0.375
 40
0.375
 40
0.375
 40
0.375
 40
0.5
 40
0.5
 40
0.5
 40
0.5
 40
0.625
 40
0.625
 40
0.625
 40
0.625
 40
0.75
 40
0.75
 40
0.75
 40
0.75
 40
1.0
 40
1.0
 40
1.0
 40
1.0
 10
168.7676
 20
13.2283
 30
0.0
 10
164.7102
 20
9.4584
 30
0.0
 10
159.6375
 20
10.4591
 30
0.0
 10
156.5514
 20
12.7399
 30
0.0
 10
156.5514
 20
12.7399
 30
0.0
 10
156.6612
 20
10.9706
 30
0.0
 10
155.6323
 20
9.0811
 30
0.0
 10
154.031
 20
8.4384
 30
0.0
 10
154.031
 20
8.4384
 30
0.0
 10
155.6323
 20
7.7958
 30
0.0
 10
156.6612
 20
5.9063
 30
0.0
 10
156.5514
 20
4.137
 30
0.0
 10
156.5514
 20
4.137
 30
0.0
 10
159.6375
 20
6.4178
 30
0.0
 10
164.7102
 20
7.4184
 30
0.0
 10
168.7676
 20
3.6486
 30
0.0
 10
168.7676
 20
3.6486
 30
0.0
 10
170.0306
 20
6.9361
 30
0.0
 10
172.62
 20
8.0358
 30
0.0
 10
174.6432
 20
8.4384
 30
0.0
 10
174.6432
 20
8.4384
 30
0.0
 10
172.62
 20
8.841
 30
0.0
 10
170.0306
 20
9.9407
 30
0.0
 10
168.7676
 20
13.2282
 30
0.0
 10
168.7676
 20
13.2282
 30
0.0
 10
168.7676
 20
13.2282
 30
0.0
 10
168.7676
 20
13.2283
 30
0.0
 10
168.7676
 20
13.2283
 30
0.0
  0
SPLINE
  5
9F
330
1F
100
AcDbEntity
  8
layer 1
 62
     7
100
AcDbSpline
210
0.0
220
0.0
230
1.0
 70
    11
 71
     3
 72
    24
 73
    20
 74
     0
 42
0.0000000001
 43
0.0000000001
 12
1.0
 22
0.0
 32
0.0
 13
1.0
 23
0.0
 33
0.0
 40
0.0
 40
0.0
 40
0.0
 40
0.0
 40
0.1666666666666667
 40
0.1666666666666667
 40
0.1666666666666667
 40
0.1666666666666667
 40
0.3333333333333333
 40
0.3333333333333333
 40
0.3333333333333333
 40
0.3333333333333333
 40
0.5
 40
0.5
 40
0.5
 40
0.5
 40
0.6666666666666666
 40
0.6666666666666666
 40
0.6666666666666666
 40
0.6666666666666666
 40
1.0
 40
1.0
 40
1.0
 40
1.0
 10
160.6572
 20
84.8886
 30
0.0
 10
165.1151
 20
85.376
 30
0.0
 10
168.2875
 20
89.3256
 30
0.0
 10
168.6782
 20
93.39
 30
0.0
 10
168.6782
 20
93.39
 30
0.0
 10
169.1363
 20
97.3867
 30
0.0
 10
166.0641
 20
103.9878
 30
0.0
 10
161.0664
 20
104.133
 30
0.0
 10
161.0664
 20
104.133
 30
0.0
 10
160.0852
 20
100.6607
 30
0.0
 10
159.2512
 20
98.5173
 30
0.0
 10
157.6139
 20
96.429
 30
0.0
 10
157.6139
 20
96.429
 30
0.0
 10
165.1158
 20
96.322
 30
0.0
 10
165.1158
 20
86.8233
 30
0.0
 10
160.6572
 20
84.8885
 30
0.0
 10
160.6572
 20
84.8885
 30
0.0
 10
160.6572
 20
84.8885
 30
0.0
 10
160.6572
 20
84.8886
 30
0.0
 10
160.6572
 20
84.8886
 30
0.0
  0
SPLINE
  5
A0
330
1F
100
AcDbEntity
  8
layer 1
 62
     7
100
AcDbSpline
210
0.0
220
0.0
230
1.0
 70
    11
 71
     3
 72
    24
 73
    20
 74
     0
 42
0.0000000001
 43
0.0000000001
 12
1.0
 22
0.0
 32
0.0
 13
1.0
 23
0.0
 33
0.0
 40
0.0
 40
0.0
 40
0.0
 40
0.0
 40
0.1666666666666667
 40
0.1666666666666667
 40
0.1666666666666667
 40
0.1666666666666667
 40
0.3333333333333333
 40
0.3333333333333333
 40
0.3333333333333333
 40
0.3333333333333333
 40
0.5
 40
0.5
 40
0.5
 40
0.5
 40
0.6666666666666666
 40
0.6666666666666666
 40
0.6666666666666666
 40
0.6666666666666666
 40
1.0
 40
1.0
 40
1.0
 40
1.0
 10
172.9872
 20
97.2405
 30
0.0
 10
176.0281
 20
96.8192
 30
0.0
 10
178.5866
 20
97.912
 30
0.0
 10
180.0476
 20
100.4709
 30
0.0
 10
180.0476
 20
100.4709
 30
0.0
 10
180.5276
 20
101.5322
 30
0.0
 10
180.2757
 20
102.6788
 30
0.0
 10
179.9995
 20
103.5284
 30
0.0
 10
179.9995
 20
103.5284
 30
0.0
 10
177.9336
 20
108.4133
 30
0.0
 10
175.5716
 20
110.7054
 30
0.0
 10
171.7318
 20
112.3314
 30
0.0
 10
171.7318
 20
112.3314
 30
0.0
 10
167.7177
 20
113.7863
 30
0.0
 10
162.7596
 20
113.2458
 30
0.0
 10
159.5577
 20
110.8421
 30
0.0
 10
159.5577
 20
110.8421
 30
0.0
 10
167.7019
 20
108.4483
 30
0.0
 10
171.6502
 20
103.2613
 30
0.0
 10
172.9872
 20
97.2405
 30
0.0
  0
SPLINE
  5
A1
330
1F
100
AcDbEntity
  8
layer 1
 62
     7
100
AcDbSpline
210
0.0
220
0.0
230
1.0
 70
    11
 71
     3
 72
    28
 73
    24
 74
     0
 42
0.0000000001
 43
0.0000000001
 12
1.0
 22
0.0
 32
0.0
 13
1.0
 23
0.0
 33
0.0
 40
0.0
 40
0.0
 40
0.0
 40
0.0
 40
0.1428571428571428
 40
0.1428571428571428
 40
0.1428571428571428
 40
0.1428571428571428
 40
0.2857142857142857
 40
0.2857142857142857
 40
0.2857142857142857
 40
0.2857142857142857
 40
0.4285714285714285
 40
0.4285714285714285
 40
0.4285714285714285
 40
0.4285714285714285
 40
0.5714285714285714
 40
0.5714285714285714
 40
0.5714285714285714
 40
0.5714285714285714
 40
0.7142857142857143
 40
0.7142857142857143
 40
0.7142857142857143
 40
0.7142857142857143
 40
1.0
 40
1.0
 40
1.0
 40
1.0
 10
168.401
 20
15.7733
 30
0.0
 10
168.3156
 20
22.6446
 30
0.0
 10
177.236
 20
25.5116
 30
0.0
 10
181.4396
 20
18.7783
 30
0.0
 10
181.4396
 20
18.7783
 30
0.0
 10
180.812
 20
24.433
 30
0.0
 10
177.8567
 20
27.0807
 30
0.0
 10
174.2628
 20
30.4078
 30
0.0
 10
174.2628
 20
30.4078
 30
0.0
 10
171.3091
 20
33.1422
 30
0.0
 10
166.6356
 20
38.2689
 30
0.0
 10
163.1951
 20
42.8433
 30
0.0
 10
163.1951
 20
42.8433
 30
0.0
 10
163.0569
 20
38.3423
 30
0.0
 10
162.4704
 20
33.9348
 30
0.0
 10
161.6829
 20
30.1045
 30
0.0
 10
161.6829
 20
30.1045
 30
0.0
 10
160.922
 20
26.4039
 30
0.0
 10
160.0151
 20
25.1319
 30
0.0
 10
160.3567
 20
22.4339
 30
0.0
 10
160.3567
 20
22.4339
 30
0.0
 10
161.0584
 20
17.0495
 30
0.0
 10
165.9491
 20
15.4266
 30
0.0
 10
168.401
 20
15.7733
 30
0.0
  0
SPLINE
  5
A2
330
1F
100
AcDbEntity
  8
layer 1
 62
     7
100
AcDbSpline
210
0.0
220
0.0
230
1.0
 70
    11
 71
     3
 72
    32
 73
    28
 74
     0
 42
0.0000000001
 43
0.0000000001
 12
1.0
 22
0.0
 32
0.0
 13
1.0
 23
0.0
 33
0.0
 40
0.0
 40
0.0
 40
0.0
 40
0.0
 40
0.125
 40
0.125
 40
0.125
 40
0.125
 40
0.25
 40
0.25
 40
0.25
 40
0.25
 40
0.375
 40
0.375
 40
0.375
 40
0.375
 40
0.5
 40
0.5
 40
0.5
 40
0.5
 40
0.625
 40
0.625
 40
0.625
 40
0.625
 40
0.75
 40
0.75
 40
0.75
 40
0.75
 40
1.0
 40
1.0
 40
1.0
 40
1.0
 10
178.5312
 20
50.1035
 30
0.0
 10
172.9903
 20
50.813
 30
0.0
 10
171.4116
 20
57.2429
 30
0.0
 10
175.6942
 20
61.1573
 30
0.0
 10
175.6942
 20
61.1573
 30
0.0
 10
179.8412
 20
64.7041
 30
0.0
 10
185.2642
 20
63.1944
 30
0.0
 10
187.3959
 20
57.8678
 30
0.0
 10
187.3959
 20
57.8678
 30
0.0
 10
187.3959
 20
57.8678
 30
0.0
 10
187.4067
 20
70.4546
 30
0.0
 10
187.4067
 20
70.4546
 30
0.0
 10
187.4067
 20
70.4546
 30
0.0
 10
182.3803
 20
67.5308
 30
0.0
 10
176.6323
 20
70.711
 30
0.0
 10
175.5136
 20
73.9967
 30
0.0
 10
175.5136
 20
73.9967
 30
0.0
 10
170.7713
 20
71.4301
 30
0.0
 10
167.3801
 20
67.1304
 30
0.0
 10
165.8323
 20
61.3588
 30
0.0
 10
165.8323
 20
61.3588
 30
0.0
 10
163.7884
 20
52.9117
 30
0.0
 10
171.613
 20
47.0562
 30
0.0
 10
178.5312
 20
50.1035
 30
0.0
 10
178.5312
 20
50.1035
 30
0.0
 10
178.5312
 20
50.1035
 30
0.0
 10
178.5312
 20
50.1035
 30
0.0
 10
178.5312
 20
50.1035
 30
0.0
  0
SPLINE
  5
A3
330
1F
100
AcDbEntity
  8
layer 1
 62
     7
100
AcDbSpline
210
0.0
220
0.0
230
1.0
 70
    11
 71
     3
 72
    16
 73
    12
 74
     0
 42
0.0000000001
 43
0.0000000001
 12
1.0
 22
0.0
 32
0.0
 13
1.0
 23
0.0
 33
0.0
 40
0.0
 40
0.0
 40
0.0
 40
0.0
 40
0.25
 40
0.25
 40
0.25
 40
0.25
 40
0.5
 40
0.5
 40
0.5
 40
0.5
 40
1.0
 40
1.0
 40
1.0
 40
1.0
 10
187.4445
 20
23.6874
 30
0.0
 10
187.4445
 20
23.6874
 30
0.0
 10
187.3521
 20
51.0605
 30
0.0
 10
187.3521
 20
51.0605
 30
0.0
 10
187.3521
 20
51.0605
 30
0.0
 10
184.8474
 20
45.0281
 30
0.0
 10
175.4455
 20
42.8555
 30
0.0
 10
168.6694
 20
44.1707
 30
0.0
 10
168.6694
 20
44.1707
 30
0.0
 10
176.4699
 20
37.9915
 30
0.0
 10
182.2336
 20
31.2984
 30
0.0
 10
187.4445
 20
23.6874
 30
0.0
  0
SPLINE
  5
A4
330
1F
100
AcDbEntity
  8
layer 1
 62
     7
100
AcDbSpline
210
0.0
220
0.0
230
1.0
 70
    11
 71
     3
 72
    20
 73
    16
 74
     0
 42
0.0000000001
 43
0.0000000001
 12
1.0
 22
0.0
 32
0.0
 13
1.0
 23
0.0
 33
0.0
 40
0.0
 40
0.0
 40
0.0
 40
0.0
 40
0.2
 40
0.2
 40
0.2
 40
0.2
 40
0.4
 40
0.4
 40
0.4
 40
0.4
 40
0.6
 40
0.6
 40
0.6
 40
0.6
 40
1.0
 40
1.0
 40
1.0
 40
1.0
 10
169.711
 20
117.8896
 30
0.0
 10
178.9577
 20
117.1014
 30
0.0
 10
185.0107
 20
111.1299
 30
0.0
 10
187.4224
 20
104.9306
 30
0.0
 10
187.4224
 20
104.9306
 30
0.0
 10
187.4224
 20
104.9306
 30
0.0
 10
187.3944
 20
123.1626
 30
0.0
 10
187.3944
 20
123.1626
 30
0.0
 10
187.3944
 20
123.1626
 30
0.0
 10
187.3944
 20
123.1626
 30
0.0
 10
169.6722
 20
123.1801
 30
0.0
 10
169.6722
 20
123.1801
 30
0.0
 10
169.6722
 20
123.1801
 30
0.0
 10
169.6722
 20
123.1801
 30
0.0
 10
169.711
 20
117.8896
 30
0.0
 10
169.711
 20
117.8896
 30
0.0
  0
SPLINE
  5
A5
330
1F
100
AcDbEntity
  8
layer 1
 62
     7
100
AcDbSpline
210
0.0
220
0.0
230
1.0
 70
    11
 71
     3
 72
    20
 73
    16
 74
     0
 42
0.0000000001
 43
0.0000000001
 12
1.0
 22
0.0
 32
0.0
 13
1.0
 23
0.0
 33
0.0
 40
0.0
 40
0.0
 40
0.0
 40
0.0
 40
0.2
 40
0.2
 40
0.2
 40
0.2
 40
0.4
 40
0.4
 40
0.4
 40
0.4
 40
0.6
 40
0.6
 40
0.6
 40
0.6
 40
1.0
 40
1.0
 40
1.0
 40
1.0
 10
174.4008
 20
79.2763
 30
0.0
 10
174.4363
 20
79.3117
 30
0.0
 10
174.3733
 20
79.337
 30
0.0
 10
174.2607
 20
79.3323
 30
0.0
 10
174.2607
 20
79.3323
 30
0.0
 10
174.1364
 20
79.3272
 30
0.0
 10
174.1111
 20
79.3019
 30
0.0
 10
174.1962
 20
79.2679
 30
0.0
 10
174.1962
 20
79.2679
 30
0.0
 10
174.2733
 20
79.2371
 30
0.0
 10
174.3653
 20
79.2409
 30
0.0
 10
174.4008
 20
79.2763
 30
0.0
 10
174.4008
 20
79.2763
 30
0.0
 10
174.4008
 20
79.2763
 30
0.0
 10
174.4008
 20
79.2763
 30
0.0
 10
174.4008
 20
79.2763
 30
0.0
  0
SPLINE
  5
A6
330
1F
100
AcDbEntity
  8
layer 1
 62
     7
100
AcDbSpline
210
0.0
220
0.0
230
1.0
 70
    11
 71
     3
 72
    20
 73
    16
 74
     0
 42
0.0000000001
 43
0.0000000001
 12
1.0
 22
0.0
 32
0.0
 13
1.0
 23
0.0
 33
0.0
 40
0.0
 40
0.0
 40
0.0
 40
0.0
 40
0.2
 40
0.2
 40
0.2
 40
0.2
 40
0.4
 40
0.4
 40
0.4
 40
0.4
 40
0.6
 40
0.6
 40
0.6
 40
0.6
 40
1.0
 40
1.0
 40
1.0
 40
1.0
 10
187.4493
 20
72.9487
 30
0.0
 10
187.4493
 20
78.4766
 30
0.0
 10
187.4493
 20
84.0045
 30
0.0
 10
187.4483
 20
89.5323
 30
0.0
 10
187.4483
 20
89.5323
 30
0.0
 10
184.0843
 20
81.4325
 30
0.0
 10
181.5406
 20
82.6834
 30
0.0
 10
181.5045
 20
77.9415
 30
0.0
 10
181.5045
 20
77.9415
 30
0.0
 10
181.546
 20
74.7854
 30
0.0
 10
184.4529
 20
72.7648
 30
0.0
 10
187.4489
 20
72.9487
 30
0.0
 10
187.4489
 20
72.9487
 30
0.0
 10
187.4489
 20
72.9487
 30
0.0
 10
187.4493
 20
72.9487
 30
0.0
 10
187.4493
 20
72.9487
 30
0.0
  0
ENDSEC
  0
SECTION
  2
OBJECTS
  0
DICTIONARY
  5
C
330
0
100
AcDbDictionary
281
     1
  3
ACAD_GROUP
350
D
  3
ACAD_LAYOUT
350
1A
  3
ACAD_MATERIAL
350
3B
  3
ACAD_MLEADERSTYLE
350
C9
  3
ACAD_MLINESTYLE
350
17
  3
ACAD_PLOTSETTINGS
350
19
  3
ACAD_PLOTSTYLENAME
350
E
  3
ACAD_TABLESTYLE
350
C8
  3
ACAD_VISUALSTYLE
350
2A
  0
DICTIONARY
  5
D
102
{ACAD_REACTORS
330
C
102
}
330
C
100
AcDbDictionary
281
     1
  0
DICTIONARY
  5
1A
102
{ACAD_REACTORS
330
C
102
}
330
C
100
AcDbDictionary
281
     1
  3
Layout1
350
1E
  3
Layout2
350
26
  3
Model
350
22
  0
DICTIONARY
  5
3B
102
{ACAD_REACTORS
330
C
102
}
330
C
100
AcDbDictionary
281
     1
  3
ByBlock
350
3D
  3
ByLayer
350
3C
  3
Global
350
3E
  0
DICTIONARY
  5
C9
102
{ACAD_REACTORS
330
C
102
}
330
C
100
AcDbDictionary
281
     1
  0
DICTIONARY
  5
17
102
{ACAD_REACTORS
330
C
102
}
330
C
100
AcDbDictionary
281
     1
  3
Standard
350
18
  0
DICTIONARY
  5
19
102
{ACAD_REACTORS
330
C
102
}
330
C
100
AcDbDictionary
281
     1
  0
ACDBDICTIONARYWDFLT
  5
E
102
{ACAD_REACTORS
330
C
102
}
330
C
100
AcDbDictionary
281
     1
  3
Normal
350
F
100
AcDbDictionaryWithDefault
340
F
  0
DICTIONARY
  5
C8
102
{ACAD_REACTORS
330
C
102
}
330
C
100
AcDbDictionary
281
     1
  0
DICTIONARY
  5
2A
102
{ACAD_REACTORS
330
C
102
}
330
C
100
AcDbDictionary
281
     1
  3
2dWireframe
350
2F
  3
3D Hidden
350
31
  3
3dWireframe
350
30
  3
Basic
350
32
  3
Brighten
350
36
  3
ColorChange
350
3A
  3
Conceptual
350
34
  3
Dim
350
35
  3
Facepattern
350
39
  3
Flat
350
2B
  3
FlatWithEdges
350
2C
  3
Gouraud
350
2D
  3
GouraudWithEdges
350
2E
  3
Linepattern
350
38
  3
Realistic
350
33
  3
Thicken
350
37
  0
LAYOUT
  5
1E
102
{ACAD_REACTORS
330
1A
102
}
330
1A
100
AcDbPlotSettings
  1

  2
none_device
  4

  6

 40
0.0
 41
0.0
 42
0.0
 43
0.0
 44
0.0
 45
0.0
 46
0.0
 47
0.0
 48
0.0
 49
0.0
140
0.0
141
0.0
142
1.0
143
1.0
 70
   688
 72
     0
 73
     0
 74
     5
  7

 75
    16
 76
     0
 77
     2
 78
   300
147
1.0
148
0.0
149
0.0
100
AcDbLayout
  1
Layout1
 70
     1
 71
     1
 10
0.0
 20
0.0
 11
12.0
 21
9.0
 12
0.0
 22
0.0
 32
0.0
 14
1.000000000000000E+20
 24
1.000000000000000E+20
 34
1.000000000000000E+20
 15
-1.000000000000000E+20
 25
-1.000000000000000E+20
 35
-1.000000000000000E+20
146
0.0
 13
0.0
 23
0.0
 33
0.0
 16
1.0
 26
0.0
 36
0.0
 17
0.0
 27
1.0
 37
0.0
 76
     0
330
1B
  0
LAYOUT
  5
26
102
{ACAD_REACTORS
330
1A
102
}
330
1A
100
AcDbPlotSettings
  1

  2
none_device
  4

  6

 40
0.0
 41
0.0
 42
0.0
 43
0.0
 44
0.0
 45
0.0
 46
0.0
 47
0.0
 48
0.0
 49
0.0
140
0.0
141
0.0
142
1.0
143
1.0
 70
   688
 72
     0
 73
     0
 74
     5
  7

 75
    16
 76
     0
 77
     2
 78
   300
147
1.0
148
0.0
149
0.0
100
AcDbLayout
  1
Layout2
 70
     1
 71
     2
 10
0.0
 20
0.0
 11
0.0
 21
0.0
 12
0.0
 22
0.0
 32
0.0
 14
0.0
 24
0.0
 34
0.0
 15
0.0
 25
0.0
 35
0.0
146
0.0
 13
0.0
 23
0.0
 33
0.0
 16
1.0
 26
0.0
 36
0.0
 17
0.0
 27
1.0
 37
0.0
 76
     0
330
23
  0
LAYOUT
  5
22
102
{ACAD_REACTORS
330
1A
102
}
330
1A
100
AcDbPlotSettings
  1

  2
none_device
  4

  6

 40
0.0
 41
0.0
 42
0.0
 43
0.0
 44
0.0
 45
0.0
 46
0.0
 47
0.0
 48
0.0
 49
0.0
140
0.0
141
0.0
142
1.0
143
1.0
 70
  1712
 72
     0
 73
     0
 74
     0
  7

 75
     0
 76
     0
 77
     2
 78
   300
147
1.0
148
0.0
149
0.0
100
AcDbLayout
  1
Model
 70
     1
 71
     0
 10
0.0
 20
0.0
 11
12.0
 21
9.0
 12
0.0
 22
0.0
 32
0.0
 14
10.1593
 24
-114.9672
 34
0.0
 15
196.3442
 25
131.8441
 35
0.0
146
0.0
 13
0.0
 23
0.0
 33
0.0
 16
1.0
 26
0.0
 36
0.0
 17
0.0
 27
1.0
 37
0.0
 76
     0
330
1F
331
29
  0
MATERIAL
  5
3D
102
{ACAD_REACTORS
330
3B
102
}
330
3B
100
AcDbMaterial
  1
ByBlock
 72
     1
 94
      127
  0
MATERIAL
  5
3C
102
{ACAD_REACTORS
330
3B
102
}
330
3B
100
AcDbMaterial
  1
ByLayer
 72
     1
 94
      127
  0
MATERIAL
  5
3E
102
{ACAD_REACTORS
330
3B
102
}
330
3B
100
AcDbMaterial
  1
Global
 72
     1
 94
      127
  0
MLINESTYLE
  5
18
102
{ACAD_REACTORS
330
17
102
}
330
17
100
AcDbMlineStyle
  2
Standard
 70
     0
  3

 62
   256
 51
90.0
 52
90.0
 71
     2
 49
0.5
 62
   256
  6
BYLAYER
 49
-0.5
 62
   256
  6
BYLAYER
  0
ACDBPLACEHOLDER
  5
F
102
{ACAD_REACTORS
330
E
102
}
330
E
  0
VISUALSTYLE
  5
2F
102
{ACAD_REACTORS
330
2A
102
}
102
{ACAD_XDICTIONARY
360
B0
102
}
330
2A
100
AcDbVisualStyle
  2
2dWireframe
 70
     4
 71
     0
 72
     2
 73
     0
 90
        0
 40
-0.6
 41
-30.0
 62
     5
 63
     7
421
 16777215
 74
     1
 91
        4
 64
     7
 65
   257
 75
     1
175
     1
 42
1.0
 92
        0
 66
   257
 43
1.0
 76
     1
 77
     6
 78
     2
 67
     7
 79
     5
170
     0
171
     0
290
     0
174
     0
 93
        1
 44
0.0
173
     0
291
     0
 45
0.0
  0
VISUALSTYLE
  5
31
102
{ACAD_REACTORS
330
2A
102
}
102
{ACAD_XDICTIONARY
360
B4
102
}
330
2A
100
AcDbVisualStyle
  2
3D Hidden
 70
     6
 71
     1
 72
     2
 73
     2
 90
        0
 40
-0.6
 41
-30.0
 62
     5
 63
     7
421
 16777215
 74
     2
 91
        2
 64
     7
 65
   257
 75
     2
175
     1
 42
40.0
 92
        0
 66
   257
 43
1.0
 76
     1
 77
     6
 78
     2
 67
     7
 79
     3
170
     0
171
     0
290
     0
174
     0
 93
        1
 44
0.0
173
     0
291
     0
 45
0.0
  0
VISUALSTYLE
  5
30
102
{ACAD_REACTORS
330
2A
102
}
102
{ACAD_XDICTIONARY
360
B2
102
}
330
2A
100
AcDbVisualStyle
  2
3dWireframe
 70
     5
 71
     0
 72
     2
 73
     0
 90
        0
 40
-0.6
 41
-30.0
 62
     5
 63
     7
421
 16777215
 74
     1
 91
        4
 64
     7
 65
   257
 75
     1
175
     1
 42
1.0
 92
        0
 66
   257
 43
1.0
 76
     1
 77
     6
 78
     2
 67
     7
 79
     5
170
     0
171
     0
290
     0
174
     0
 93
        1
 44
0.0
173
     0
291
     0
 45
0.0
  0
VISUALSTYLE
  5
32
102
{ACAD_REACTORS
330
2A
102
}
102
{ACAD_XDICTIONARY
360
B6
102
}
330
2A
100
AcDbVisualStyle
  2
Basic
 70
     7
 71
     1
 72
     0
 73
     1
 90
        0
 40
-0.6
 41
-30.0
 62
     5
 63
     7
421
 16777215
 74
     0
 91
        4
 64
     7
 65
   257
 75
     1
175
     1
 42
1.0
 92
        8
 66
     7
 43
1.0
 76
     1
 77
     6
 78
     2
 67
     7
 79
     5
170
     0
171
     0
290
     0
174
     0
 93
        1
 44
0.0
173
     0
291
     1
 45
0.0
  0
VISUALSTYLE
  5
36
102
{ACAD_REACTORS
330
2A
102
}
102
{ACAD_XDICTIONARY
360
BE
102
}
330
2A
100
AcDbVisualStyle
  2
Brighten
 70
    12
 71
     2
 72
     2
 73
     0
 90
        0
 40
-0.6
 41
-30.0
 62
     5
 63
     7
421
 16777215
 74
     1
 91
        4
 64
     7
 65
   257
 75
     1
175
     1
 42
1.0
 92
        8
 66
     7
 43
1.0
 76
     1
 77
     6
 78
     2
 67
     7
 79
     5
170
     0
171
     0
290
     0
174
     0
 93
        1
 44
50.0
173
     0
291
     1
 45
0.0
  0
VISUALSTYLE
  5
3A
102
{ACAD_REACTORS
330
2A
102
}
102
{ACAD_XDICTIONARY
360
C6
102
}
330
2A
100
AcDbVisualStyle
  2
ColorChange
 70
    16
 71
     2
 72
     2
 73
     3
 90
        0
 40
-0.6
 41
-30.0
 62
     5
 63
     8
421
  8421504
 74
     1
 91
        4
 64
     7
 65
   257
 75
     1
175
     1
 42
1.0
 92
        8
 66
     8
424
  8421504
 43
1.0
 76
     1
 77
     6
 78
     2
 67
     7
 79
     5
170
     0
171
     0
290
     0
174
     0
 93
        1
 44
0.0
173
     0
291
     1
 45
0.0
  0
VISUALSTYLE
  5
34
102
{ACAD_REACTORS
330
2A
102
}
102
{ACAD_XDICTIONARY
360
BA
102
}
330
2A
100
AcDbVisualStyle
  2
Conceptual
 70
     9
 71
     3
 72
     2
 73
     0
 90
        0
 40
-0.6
 41
-30.0
 62
     5
 63
     7
421
 16777215
 74
     2
 91
        2
 64
     7
 65
   257
 75
     1
175
     1
 42
40.0
 92
        8
 66
     7
 43
1.0
 76
     1
 77
     6
 78
     2
 67
     7
 79
     3
170
     0
171
     0
290
     0
174
     0
 93
        1
 44
0.0
173
     0
291
     0
 45
0.0
  0
VISUALSTYLE
  5
35
102
{ACAD_REACTORS
330
2A
102
}
102
{ACAD_XDICTIONARY
360
BC
102
}
330
2A
100
AcDbVisualStyle
  2
Dim
 70
    11
 71
     2
 72
     2
 73
     0
 90
        0
 40
-0.6
 41
-30.0
 62
     5
 63
     7
421
 16777215
 74
     1
 91
        4
 64
     7
 65
   257
 75
     1
175
     1
 42
1.0
 92
        8
 66
     7
 43
1.0
 76
     1
 77
     6
 78
     2
 67
     7
 79
     5
170
     0
171
     0
290
     0
174
     0
 93
        1
 44
-50.0
173
     0
291
     1
 45
0.0
  0
VISUALSTYLE
  5
39
102
{ACAD_REACTORS
330
2A
102
}
102
{ACAD_XDICTIONARY
360
C4
102
}
330
2A
100
AcDbVisualStyle
  2
Facepattern
 70
    15
 71
     2
 72
     2
 73
     0
 90
        0
 40
-0.6
 41
-30.0
 62
     5
 63
     7
421
 16777215
 74
     1
 91
        4
 64
     7
 65
   257
 75
     1
175
     1
 42
1.0
 92
        8
 66
     7
 43
1.0
 76
     1
 77
     6
 78
     2
 67
     7
 79
     5
170
     0
171
     0
290
     0
174
     0
 93
        1
 44
0.0
173
     0
291
     1
 45
0.0
  0
VISUALSTYLE
  5
2B
102
{ACAD_REACTORS
330
2A
102
}
102
{ACAD_XDICTIONARY
360
A8
102
}
330
2A
100
AcDbVisualStyle
  2
Flat
 70
     0
 71
     2
 72
     1
 73
     1
 90
        2
 40
-0.6
 41
30.0
 62
     5
 63
     7
421
 16777215
 74
     0
 91
        4
 64
     7
 65
   257
 75
     1
175
     1
 42
1.0
 92
        8
 66
     7
 43
1.0
 76
     1
 77
     6
 78
     2
 67
     7
 79
     5
170
     0
171
     0
290
     0
174
     0
 93
       13
 44
0.0
173
     0
291
     1
 45
0.0
  0
VISUALSTYLE
  5
2C
102
{ACAD_REACTORS
330
2A
102
}
102
{ACAD_XDICTIONARY
360
AA
102
}
330
2A
100
AcDbVisualStyle
  2
FlatWithEdges
 70
     1
 71
     2
 72
     1
 73
     1
 90
        2
 40
-0.6
 41
30.0
 62
     5
 63
     7
421
 16777215
 74
     1
 91
        4
 64
     7
 65
   257
 75
     1
175
     1
 42
1.0
 92
        0
 66
   257
 43
1.0
 76
     1
 77
     6
 78
     2
 67
     7
 79
     5
170
     0
171
     0
290
     0
174
     0
 93
       13
 44
0.0
173
     0
291
     1
 45
0.0
  0
VISUALSTYLE
  5
2D
102
{ACAD_REACTORS
330
2A
102
}
102
{ACAD_XDICTIONARY
360
AC
102
}
330
2A
100
AcDbVisualStyle
  2
Gouraud
 70
     2
 71
     2
 72
     2
 73
     1
 90
        2
 40
-0.6
 41
30.0
 62
     5
 63
     7
421
 16777215
 74
     0
 91
        4
 64
     7
 65
   257
 75
     1
175
     1
 42
1.0
 92
        0
 66
     7
 43
1.0
 76
     1
 77
     6
 78
     2
 67
     7
 79
     5
170
     0
171
     0
290
     0
174
     0
 93
       13
 44
0.0
173
     0
291
     1
 45
0.0
  0
VISUALSTYLE
  5
2E
102
{ACAD_REACTORS
330
2A
102
}
102
{ACAD_XDICTIONARY
360
AE
102
}
330
2A
100
AcDbVisualStyle
  2
GouraudWithEdges
 70
     3
 71
     2
 72
     2
 73
     1
 90
        2
 40
-0.6
 41
30.0
 62
     5
 63
     7
421
 16777215
 74
     1
 91
        4
 64
     7
 65
   257
 75
     1
175
     1
 42
1.0
 92
        0
 66
   257
 43
1.0
 76
     1
 77
     6
 78
     2
 67
     7
 79
     5
170
     0
171
     0
290
     0
174
     0
 93
       13
 44
0.0
173
     0
291
     1
 45
0.0
  0
VISUALSTYLE
  5
38
102
{ACAD_REACTORS
330
2A
102
}
102
{ACAD_XDICTIONARY
360
C2
102
}
330
2A
100
AcDbVisualStyle
  2
Linepattern
 70
    14
 71
     2
 72
     2
 73
     0
 90
        0
 40
-0.6
 41
-30.0
 62
     5
 63
     7
421
 16777215
 74
     1
 91
        4
 64
     7
 65
   257
 75
     7
175
     7
 42
1.0
 92
        8
 66
     7
 43
1.0
 76
     1
 77
     6
 78
     2
 67
     7
 79
     5
170
     0
171
     0
290
     0
174
     0
 93
        1
 44
0.0
173
     0
291
     1
 45
0.0
  0
VISUALSTYLE
  5
33
102
{ACAD_REACTORS
330
2A
102
}
102
{ACAD_XDICTIONARY
360
B8
102
}
330
2A
100
AcDbVisualStyle
  2
Realistic
 70
     8
 71
     2
 72
     2
 73
     0
 90
        0
 40
-0.6
 41
-30.0
 62
     5
 63
     7
421
 16777215
 74
     1
 91
        0
 64
     7
 65
   257
 75
     1
175
     1
 42
1.0
 92
        8
 66
     8
424
  7895160
 43
1.0
 76
     1
 77
     6
 78
     2
 67
     7
 79
     5
170
     0
171
     0
290
     0
174
     0
 93
       13
 44
0.0
173
     0
291
     0
 45
0.0
  0
VISUALSTYLE
  5
37
102
{ACAD_REACTORS
330
2A
102
}
102
{ACAD_XDICTIONARY
360
C0
102
}
330
2A
100
AcDbVisualStyle
  2
Thicken
 70
    13
 71
     2
 72
     2
 73
     0
 90
        0
 40
-0.6
 41
-30.0
 62
     5
 63
     7
421
 16777215
 74
     1
 91
        4
 64
     7
 65
   257
 75
     1
175
     1
 42
1.0
 92
       12
 66
     7
 43
1.0
 76
     1
 77
     6
 78
     2
 67
     7
 79
     5
170
     0
171
     0
290
     0
174
     0
 93
        1
 44
0.0
173
     0
291
     1
 45
0.0
  0
DICTIONARY
  5
B0
330
2F
100
AcDbDictionary
280
     1
281
     1
  3
ACAD_XREC_ROUNDTRIP
360
B1
  0
DICTIONARY
  5
B4
330
31
100
AcDbDictionary
280
     1
281
     1
  3
ACAD_XREC_ROUNDTRIP
360
B5
  0
DICTIONARY
  5
B2
330
30
100
AcDbDictionary
280
     1
281
     1
  3
ACAD_XREC_ROUNDTRIP
360
B3
  0
DICTIONARY
  5
B6
330
32
100
AcDbDictionary
280
     1
281
     1
  3
ACAD_XREC_ROUNDTRIP
360
B7
  0
DICTIONARY
  5
BE
330
36
100
AcDbDictionary
280
     1
281
     1
  3
ACAD_XREC_ROUNDTRIP
360
BF
  0
DICTIONARY
  5
C6
330
3A
100
AcDbDictionary
280
     1
281
     1
  3
ACAD_XREC_ROUNDTRIP
360
C7
  0
DICTIONARY
  5
BA
330
34
100
AcDbDictionary
280
     1
281
     1
  3
ACAD_XREC_ROUNDTRIP
360
BB
  0
DICTIONARY
  5
BC
330
35
100
AcDbDictionary
280
     1
281
     1
  3
ACAD_XREC_ROUNDTRIP
360
BD
  0
DICTIONARY
  5
C4
330
39
100
AcDbDictionary
280
     1
281
     1
  3
ACAD_XREC_ROUNDTRIP
360
C5
  0
DICTIONARY
  5
A8
330
2B
100
AcDbDictionary
280
     1
281
     1
  3
ACAD_XREC_ROUNDTRIP
360
A9
  0
DICTIONARY
  5
AA
330
2C
100
AcDbDictionary
280
     1
281
     1
  3
ACAD_XREC_ROUNDTRIP
360
AB
  0
DICTIONARY
  5
AC
330
2D
100
AcDbDictionary
280
     1
281
     1
  3
ACAD_XREC_ROUNDTRIP
360
AD
  0
DICTIONARY
  5
AE
330
2E
100
AcDbDictionary
280
     1
281
     1
  3
ACAD_XREC_ROUNDTRIP
360
AF
  0
DICTIONARY
  5
C2
330
38
100
AcDbDictionary
280
     1
281
     1
  3
ACAD_XREC_ROUNDTRIP
360
C3
  0
DICTIONARY
  5
B8
330
33
100
AcDbDictionary
280
     1
281
     1
  3
ACAD_XREC_ROUNDTRIP
360
B9
  0
DICTIONARY
  5
C0
330
37
100
AcDbDictionary
280
     1
281
     1
  3
ACAD_XREC_ROUNDTRIP
360
C1
  0
XRECORD
  5
B1
102
{ACAD_REACTORS
330
B0
102
}
330
B0
100
AcDbXrecord
280
     1
102
RTVSPropertyOp0
 70
     1
102
RTVSPropertyOp1
 70
     1
102
RTVSPropertyOp2
 70
     1
102
RTVSPropertyOp3
 70
     1
102
RTVSPropertyOp4
 70
     1
102
RTVSPropertyOp5
 70
     1
102
RTVSPropertyOp6
 70
     1
102
RTVSPropertyOp7
 70
     1
102
RTVSPropertyOp8
 70
     1
102
RTVSPropertyOp9
 70
     1
102
RTVSPropertyOp10
 70
     1
102
RTVSPropertyOp11
 70
     1
102
RTVSPropertyOp12
 70
     1
102
RTVSPropertyOp13
 70
     1
102
RTVSPropertyOp14
 70
     1
102
RTVSPropertyOp15
 70
     1
102
RTVSPropertyOp16
 70
     1
102
RTVSPropertyOp17
 70
     1
102
RTVSPropertyOp18
 70
     1
102
RTVSPropertyOp19
 70
     1
102
RTVSPropertyOp20
 70
     1
102
RTVSPropertyOp21
 70
     1
102
RTVSPropertyOp22
 70
     1
102
RTVSPropertyOp23
 70
     1
102
RTVSPropertyOp24
 70
     1
102
RTVSPropertyOp25
 70
     1
102
RTVSPropertyOp26
 70
     1
102
RTVSPropertyOp27
 70
     1
102
RTVSPropertyOp28
 70
     1
102
RTVSPropertyOp29
 70
     1
102
RTVSPropertyOp30
 70
     1
102
RTVSPropertyOp31
 70
     1
102
RTVSPropertyOp32
 70
     1
  0
XRECORD
  5
B5
102
{ACAD_REACTORS
330
B4
102
}
330
B4
100
AcDbXrecord
280
     1
102
RTVSPropertyOp0
 70
     1
102
RTVSPropertyOp1
 70
     1
102
RTVSPropertyOp2
 70
     1
102
RTVSPropertyOp3
 70
     1
102
RTVSPropertyOp4
 70
     1
102
RTVSPropertyOp5
 70
     1
102
RTVSPropertyOp6
 70
     1
102
RTVSPropertyOp7
 70
     1
102
RTVSPropertyOp8
 70
     1
102
RTVSPropertyOp9
 70
     1
102
RTVSPropertyOp10
 70
     1
102
RTVSPropertyOp11
 70
     1
102
RTVSPropertyOp12
 70
     1
102
RTVSPropertyOp13
 70
     1
102
RTVSPropertyOp14
 70
     1
102
RTVSPropertyOp15
 70
     1
102
RTVSPropertyOp16
 70
     1
102
RTVSPropertyOp17
 70
     1
102
RTVSPropertyOp18
 70
     1
102
RTVSPropertyOp19
 70
     1
102
RTVSPropertyOp20
 70
     1
102
RTVSPropertyOp21
 70
     1
102
RTVSPropertyOp22
 70
     1
102
RTVSPropertyOp23
 70
     1
102
RTVSPropertyOp24
 70
     1
102
RTVSPropertyOp25
 70
     1
102
RTVSPropertyOp26
 70
     1
102
RTVSPropertyOp27
 70
     1
102
RTVSPropertyOp28
 70
     1
102
RTVSPropertyOp29
 70
     1
102
RTVSPropertyOp30
 70
     1
102
RTVSPropertyOp31
 70
     1
102
RTVSPropertyOp32
 70
     1
  0
XRECORD
  5
B3
102
{ACAD_REACTORS
330
B2
102
}
330
B2
100
AcDbXrecord
280
     1
102
RTVSPropertyOp0
 70
     1
102
RTVSPropertyOp1
 70
     1
102
RTVSPropertyOp2
 70
     1
102
RTVSPropertyOp3
 70
     1
102
RTVSPropertyOp4
 70
     1
102
RTVSPropertyOp5
 70
     1
102
RTVSPropertyOp6
 70
     1
102
RTVSPropertyOp7
 70
     1
102
RTVSPropertyOp8
 70
     1
102
RTVSPropertyOp9
 70
     1
102
RTVSPropertyOp10
 70
     1
102
RTVSPropertyOp11
 70
     1
102
RTVSPropertyOp12
 70
     1
102
RTVSPropertyOp13
 70
     1
102
RTVSPropertyOp14
 70
     1
102
RTVSPropertyOp15
 70
     1
102
RTVSPropertyOp16
 70
     1
102
RTVSPropertyOp17
 70
     1
102
RTVSPropertyOp18
 70
     1
102
RTVSPropertyOp19
 70
     1
102
RTVSPropertyOp20
 70
     1
102
RTVSPropertyOp21
 70
     1
102
RTVSPropertyOp22
 70
     1
102
RTVSPropertyOp23
 70
     1
102
RTVSPropertyOp24
 70
     1
102
RTVSPropertyOp25
 70
     1
102
RTVSPropertyOp26
 70
     1
102
RTVSPropertyOp27
 70
     1
102
RTVSPropertyOp28
 70
     1
102
RTVSPropertyOp29
 70
     1
102
RTVSPropertyOp30
 70
     1
102
RTVSPropertyOp31
 70
     1
102
RTVSPropertyOp32
 70
     1
  0
XRECORD
  5
B7
102
{ACAD_REACTORS
330
B6
102
}
330
B6
100
AcDbXrecord
280
     1
102
RTVSPropertyOp0
 70
     1
102
RTVSPropertyOp1
 70
     1
102
RTVSPropertyOp2
 70
     1
102
RTVSPropertyOp3
 70
     1
102
RTVSPropertyOp4
 70
     1
102
RTVSPropertyOp5
 70
     1
102
RTVSPropertyOp6
 70
     1
102
RTVSPropertyOp7
 70
     1
102
RTVSPropertyOp8
 70
     1
102
RTVSPropertyOp9
 70
     1
102
RTVSPropertyOp10
 70
     1
102
RTVSPropertyOp11
 70
     1
102
RTVSPropertyOp12
 70
     1
102
RTVSPropertyOp13
 70
     1
102
RTVSPropertyOp14
 70
     1
102
RTVSPropertyOp15
 70
     1
102
RTVSPropertyOp16
 70
     1
102
RTVSPropertyOp17
 70
     1
102
RTVSPropertyOp18
 70
     1
102
RTVSPropertyOp19
 70
     1
102
RTVSPropertyOp20
 70
     1
102
RTVSPropertyOp21
 70
     1
102
RTVSPropertyOp22
 70
     1
102
RTVSPropertyOp23
 70
     1
102
RTVSPropertyOp24
 70
     1
102
RTVSPropertyOp25
 70
     1
102
RTVSPropertyOp26
 70
     1
102
RTVSPropertyOp27
 70
     1
102
RTVSPropertyOp28
 70
     1
102
RTVSPropertyOp29
 70
     1
102
RTVSPropertyOp30
 70
     1
102
RTVSPropertyOp31
 70
     1
102
RTVSPropertyOp32
 70
     1
  0
XRECORD
  5
BF
102
{ACAD_REACTORS
330
BE
102
}
330
BE
100
AcDbXrecord
280
     1
102
RTVSPropertyOp0
 70
     1
102
RTVSPropertyOp1
 70
     1
102
RTVSPropertyOp2
 70
     1
102
RTVSPropertyOp3
 70
     1
102
RTVSPropertyOp4
 70
     1
102
RTVSPropertyOp5
 70
     1
102
RTVSPropertyOp6
 70
     1
102
RTVSPropertyOp7
 70
     1
102
RTVSPropertyOp8
 70
     1
102
RTVSPropertyOp9
 70
     1
102
RTVSPropertyOp10
 70
     1
102
RTVSPropertyOp11
 70
     1
102
RTVSPropertyOp12
 70
     1
102
RTVSPropertyOp13
 70
     1
102
RTVSPropertyOp14
 70
     1
102
RTVSPropertyOp15
 70
     1
102
RTVSPropertyOp16
 70
     1
102
RTVSPropertyOp17
 70
     1
102
RTVSPropertyOp18
 70
     1
102
RTVSPropertyOp19
 70
     1
102
RTVSPropertyOp20
 70
     1
102
RTVSPropertyOp21
 70
     1
102
RTVSPropertyOp22
 70
     1
102
RTVSPropertyOp23
 70
     1
102
RTVSPropertyOp24
 70
     1
102
RTVSPropertyOp25
 70
     1
102
RTVSPropertyOp26
 70
     1
102
RTVSPropertyOp27
 70
     1
102
RTVSPropertyOp28
 70
     1
102
RTVSPropertyOp29
 70
     1
102
RTVSPropertyOp30
 70
     1
102
RTVSPropertyOp31
 70
     1
102
RTVSPropertyOp32
 70
     1
  0
XRECORD
  5
C7
102
{ACAD_REACTORS
330
C6
102
}
330
C6
100
AcDbXrecord
280
     1
102
RTVSPropertyOp0
 70
     1
102
RTVSPropertyOp1
 70
     1
102
RTVSPropertyOp2
 70
     1
102
RTVSPropertyOp3
 70
     1
102
RTVSPropertyOp4
 70
     1
102
RTVSPropertyOp5
 70
     1
102
RTVSPropertyOp6
 70
     1
102
RTVSPropertyOp7
 70
     1
102
RTVSPropertyOp8
 70
     1
102
RTVSPropertyOp9
 70
     1
102
RTVSPropertyOp10
 70
     1
102
RTVSPropertyOp11
 70
     1
102
RTVSPropertyOp12
 70
     1
102
RTVSPropertyOp13
 70
     1
102
RTVSPropertyOp14
 70
     1
102
RTVSPropertyOp15
 70
     1
102
RTVSPropertyOp16
 70
     1
102
RTVSPropertyOp17
 70
     1
102
RTVSPropertyOp18
 70
     1
102
RTVSPropertyOp19
 70
     1
102
RTVSPropertyOp20
 70
     1
102
RTVSPropertyOp21
 70
     1
102
RTVSPropertyOp22
 70
     1
102
RTVSPropertyOp23
 70
     1
102
RTVSPropertyOp24
 70
     1
102
RTVSPropertyOp25
 70
     1
102
RTVSPropertyOp26
 70
     1
102
RTVSPropertyOp27
 70
     1
102
RTVSPropertyOp28
 70
     1
102
RTVSPropertyOp29
 70
     1
102
RTVSPropertyOp30
 70
     1
102
RTVSPropertyOp31
 70
     1
102
RTVSPropertyOp32
 70
     1
  0
XRECORD
  5
BB
102
{ACAD_REACTORS
330
BA
102
}
330
BA
100
AcDbXrecord
280
     1
102
RTVSPropertyOp0
 70
     1
102
RTVSPropertyOp1
 70
     1
102
RTVSPropertyOp2
 70
     1
102
RTVSPropertyOp3
 70
     1
102
RTVSPropertyOp4
 70
     1
102
RTVSPropertyOp5
 70
     1
102
RTVSPropertyOp6
 70
     1
102
RTVSPropertyOp7
 70
     1
102
RTVSPropertyOp8
 70
     1
102
RTVSPropertyOp9
 70
     1
102
RTVSPropertyOp10
 70
     1
102
RTVSPropertyOp11
 70
     1
102
RTVSPropertyOp12
 70
     1
102
RTVSPropertyOp13
 70
     1
102
RTVSPropertyOp14
 70
     1
102
RTVSPropertyOp15
 70
     1
102
RTVSPropertyOp16
 70
     1
102
RTVSPropertyOp17
 70
     1
102
RTVSPropertyOp18
 70
     1
102
RTVSPropertyOp19
 70
     1
102
RTVSPropertyOp20
 70
     1
102
RTVSPropertyOp21
 70
     1
102
RTVSPropertyOp22
 70
     1
102
RTVSPropertyOp23
 70
     1
102
RTVSPropertyOp24
 70
     1
102
RTVSPropertyOp25
 70
     1
102
RTVSPropertyOp26
 70
     1
102
RTVSPropertyOp27
 70
     1
102
RTVSPropertyOp28
 70
     1
102
RTVSPropertyOp29
 70
     1
102
RTVSPropertyOp30
 70
     1
102
RTVSPropertyOp31
 70
     1
102
RTVSPropertyOp32
 70
     1
  0
XRECORD
  5
BD
102
{ACAD_REACTORS
330
BC
102
}
330
BC
100
AcDbXrecord
280
     1
102
RTVSPropertyOp0
 70
     1
102
RTVSPropertyOp1
 70
     1
102
RTVSPropertyOp2
 70
     1
102
RTVSPropertyOp3
 70
     1
102
RTVSPropertyOp4
 70
     1
102
RTVSPropertyOp5
 70
     1
102
RTVSPropertyOp6
 70
     1
102
RTVSPropertyOp7
 70
     1
102
RTVSPropertyOp8
 70
     1
102
RTVSPropertyOp9
 70
     1
102
RTVSPropertyOp10
 70
     1
102
RTVSPropertyOp11
 70
     1
102
RTVSPropertyOp12
 70
     1
102
RTVSPropertyOp13
 70
     1
102
RTVSPropertyOp14
 70
     1
102
RTVSPropertyOp15
 70
     1
102
RTVSPropertyOp16
 70
     1
102
RTVSPropertyOp17
 70
     1
102
RTVSPropertyOp18
 70
     1
102
RTVSPropertyOp19
 70
     1
102
RTVSPropertyOp20
 70
     1
102
RTVSPropertyOp21
 70
     1
102
RTVSPropertyOp22
 70
     1
102
RTVSPropertyOp23
 70
     1
102
RTVSPropertyOp24
 70
     1
102
RTVSPropertyOp25
 70
     1
102
RTVSPropertyOp26
 70
     1
102
RTVSPropertyOp27
 70
     1
102
RTVSPropertyOp28
 70
     1
102
RTVSPropertyOp29
 70
     1
102
RTVSPropertyOp30
 70
     1
102
RTVSPropertyOp31
 70
     1
102
RTVSPropertyOp32
 70
     1
  0
XRECORD
  5
C5
102
{ACAD_REACTORS
330
C4
102
}
330
C4
100
AcDbXrecord
280
     1
102
RTVSPropertyOp0
 70
     1
102
RTVSPropertyOp1
 70
     1
102
RTVSPropertyOp2
 70
     1
102
RTVSPropertyOp3
 70
     1
102
RTVSPropertyOp4
 70
     1
102
RTVSPropertyOp5
 70
     1
102
RTVSPropertyOp6
 70
     1
102
RTVSPropertyOp7
 70
     1
102
RTVSPropertyOp8
 70
     1
102
RTVSPropertyOp9
 70
     1
102
RTVSPropertyOp10
 70
     1
102
RTVSPropertyOp11
 70
     1
102
RTVSPropertyOp12
 70
     1
102
RTVSPropertyOp13
 70
     1
102
RTVSPropertyOp14
 70
     1
102
RTVSPropertyOp15
 70
     1
102
RTVSPropertyOp16
 70
     1
102
RTVSPropertyOp17
 70
     1
102
RTVSPropertyOp18
 70
     1
102
RTVSPropertyOp19
 70
     1
102
RTVSPropertyOp20
 70
     1
102
RTVSPropertyOp21
 70
     1
102
RTVSPropertyOp22
 70
     1
102
RTVSPropertyOp23
 70
     1
102
RTVSPropertyOp24
 70
     1
102
RTVSPropertyOp25
 70
     1
102
RTVSPropertyOp26
 70
     1
102
RTVSPropertyOp27
 70
     1
102
RTVSPropertyOp28
 70
     1
102
RTVSPropertyOp29
 70
     1
102
RTVSPropertyOp30
 70
     1
102
RTVSPropertyOp31
 70
     1
102
RTVSPropertyOp32
 70
     1
  0
XRECORD
  5
A9
102
{ACAD_REACTORS
330
A8
102
}
330
A8
100
AcDbXrecord
280
     1
102
RTVSPropertyOp0
 70
     1
102
RTVSPropertyOp1
 70
     1
102
RTVSPropertyOp2
 70
     1
102
RTVSPropertyOp3
 70
     1
102
RTVSPropertyOp4
 70
     1
102
RTVSPropertyOp5
 70
     1
102
RTVSPropertyOp6
 70
     1
102
RTVSPropertyOp7
 70
     1
102
RTVSPropertyOp8
 70
     1
102
RTVSPropertyOp9
 70
     1
102
RTVSPropertyOp10
 70
     1
102
RTVSPropertyOp11
 70
     1
102
RTVSPropertyOp12
 70
     1
102
RTVSPropertyOp13
 70
     1
102
RTVSPropertyOp14
 70
     1
102
RTVSPropertyOp15
 70
     1
102
RTVSPropertyOp16
 70
     1
102
RTVSPropertyOp17
 70
     1
102
RTVSPropertyOp18
 70
     1
102
RTVSPropertyOp19
 70
     1
102
RTVSPropertyOp20
 70
     1
102
RTVSPropertyOp21
 70
     1
102
RTVSPropertyOp22
 70
     1
102
RTVSPropertyOp23
 70
     1
102
RTVSPropertyOp24
 70
     1
102
RTVSPropertyOp25
 70
     1
102
RTVSPropertyOp26
 70
     1
102
RTVSPropertyOp27
 70
     1
102
RTVSPropertyOp28
 70
     1
102
RTVSPropertyOp29
 70
     1
102
RTVSPropertyOp30
 70
     1
102
RTVSPropertyOp31
 70
     1
102
RTVSPropertyOp32
 70
     1
  0
XRECORD
  5
AB
102
{ACAD_REACTORS
330
AA
102
}
330
AA
100
AcDbXrecord
280
     1
102
RTVSPropertyOp0
 70
     1
102
RTVSPropertyOp1
 70
     1
102
RTVSPropertyOp2
 70
     1
102
RTVSPropertyOp3
 70
     1
102
RTVSPropertyOp4
 70
     1
102
RTVSPropertyOp5
 70
     1
102
RTVSPropertyOp6
 70
     1
102
RTVSPropertyOp7
 70
     1
102
RTVSPropertyOp8
 70
     1
102
RTVSPropertyOp9
 70
     1
102
RTVSPropertyOp10
 70
     1
102
RTVSPropertyOp11
 70
     1
102
RTVSPropertyOp12
 70
     1
102
RTVSPropertyOp13
 70
     1
102
RTVSPropertyOp14
 70
     1
102
RTVSPropertyOp15
 70
     1
102
RTVSPropertyOp16
 70
     1
102
RTVSPropertyOp17
 70
     1
102
RTVSPropertyOp18
 70
     1
102
RTVSPropertyOp19
 70
     1
102
RTVSPropertyOp20
 70
     1
102
RTVSPropertyOp21
 70
     1
102
RTVSPropertyOp22
 70
     1
102
RTVSPropertyOp23
 70
     1
102
RTVSPropertyOp24
 70
     1
102
RTVSPropertyOp25
 70
     1
102
RTVSPropertyOp26
 70
     1
102
RTVSPropertyOp27
 70
     1
102
RTVSPropertyOp28
 70
     1
102
RTVSPropertyOp29
 70
     1
102
RTVSPropertyOp30
 70
     1
102
RTVSPropertyOp31
 70
     1
102
RTVSPropertyOp32
 70
     1
  0
XRECORD
  5
AD
102
{ACAD_REACTORS
330
AC
102
}
330
AC
100
AcDbXrecord
280
     1
102
RTVSPropertyOp0
 70
     1
102
RTVSPropertyOp1
 70
     1
102
RTVSPropertyOp2
 70
     1
102
RTVSPropertyOp3
 70
     1
102
RTVSPropertyOp4
 70
     1
102
RTVSPropertyOp5
 70
     1
102
RTVSPropertyOp6
 70
     1
102
RTVSPropertyOp7
 70
     1
102
RTVSPropertyOp8
 70
     1
102
RTVSPropertyOp9
 70
     1
102
RTVSPropertyOp10
 70
     1
102
RTVSPropertyOp11
 70
     1
102
RTVSPropertyOp12
 70
     1
102
RTVSPropertyOp13
 70
     1
102
RTVSPropertyOp14
 70
     1
102
RTVSPropertyOp15
 70
     1
102
RTVSPropertyOp16
 70
     1
102
RTVSPropertyOp17
 70
     1
102
RTVSPropertyOp18
 70
     1
102
RTVSPropertyOp19
 70
     1
102
RTVSPropertyOp20
 70
     1
102
RTVSPropertyOp21
 70
     1
102
RTVSPropertyOp22
 70
     1
102
RTVSPropertyOp23
 70
     1
102
RTVSPropertyOp24
 70
     1
102
RTVSPropertyOp25
 70
     1
102
RTVSPropertyOp26
 70
     1
102
RTVSPropertyOp27
 70
     1
102
RTVSPropertyOp28
 70
     1
102
RTVSPropertyOp29
 70
     1
102
RTVSPropertyOp30
 70
     1
102
RTVSPropertyOp31
 70
     1
102
RTVSPropertyOp32
 70
     1
  0
XRECORD
  5
AF
102
{ACAD_REACTORS
330
AE
102
}
330
AE
100
AcDbXrecord
280
     1
102
RTVSPropertyOp0
 70
     1
102
RTVSPropertyOp1
 70
     1
102
RTVSPropertyOp2
 70
     1
102
RTVSPropertyOp3
 70
     1
102
RTVSPropertyOp4
 70
     1
102
RTVSPropertyOp5
 70
     1
102
RTVSPropertyOp6
 70
     1
102
RTVSPropertyOp7
 70
     1
102
RTVSPropertyOp8
 70
     1
102
RTVSPropertyOp9
 70
     1
102
RTVSPropertyOp10
 70
     1
102
RTVSPropertyOp11
 70
     1
102
RTVSPropertyOp12
 70
     1
102
RTVSPropertyOp13
 70
     1
102
RTVSPropertyOp14
 70
     1
102
RTVSPropertyOp15
 70
     1
102
RTVSPropertyOp16
 70
     1
102
RTVSPropertyOp17
 70
     1
102
RTVSPropertyOp18
 70
     1
102
RTVSPropertyOp19
 70
     1
102
RTVSPropertyOp20
 70
     1
102
RTVSPropertyOp21
 70
     1
102
RTVSPropertyOp22
 70
     1
102
RTVSPropertyOp23
 70
     1
102
RTVSPropertyOp24
 70
     1
102
RTVSPropertyOp25
 70
     1
102
RTVSPropertyOp26
 70
     1
102
RTVSPropertyOp27
 70
     1
102
RTVSPropertyOp28
 70
     1
102
RTVSPropertyOp29
 70
     1
102
RTVSPropertyOp30
 70
     1
102
RTVSPropertyOp31
 70
     1
102
RTVSPropertyOp32
 70
     1
  0
XRECORD
  5
C3
102
{ACAD_REACTORS
330
C2
102
}
330
C2
100
AcDbXrecord
280
     1
102
RTVSPropertyOp0
 70
     1
102
RTVSPropertyOp1
 70
     1
102
RTVSPropertyOp2
 70
     1
102
RTVSPropertyOp3
 70
     1
102
RTVSPropertyOp4
 70
     1
102
RTVSPropertyOp5
 70
     1
102
RTVSPropertyOp6
 70
     1
102
RTVSPropertyOp7
 70
     1
102
RTVSPropertyOp8
 70
     1
102
RTVSPropertyOp9
 70
     1
102
RTVSPropertyOp10
 70
     1
102
RTVSPropertyOp11
 70
     1
102
RTVSPropertyOp12
 70
     1
102
RTVSPropertyOp13
 70
     1
102
RTVSPropertyOp14
 70
     1
102
RTVSPropertyOp15
 70
     1
102
RTVSPropertyOp16
 70
     1
102
RTVSPropertyOp17
 70
     1
102
RTVSPropertyOp18
 70
     1
102
RTVSPropertyOp19
 70
     1
102
RTVSPropertyOp20
 70
     1
102
RTVSPropertyOp21
 70
     1
102
RTVSPropertyOp22
 70
     1
102
RTVSPropertyOp23
 70
     1
102
RTVSPropertyOp24
 70
     1
102
RTVSPropertyOp25
 70
     1
102
RTVSPropertyOp26
 70
     1
102
RTVSPropertyOp27
 70
     1
102
RTVSPropertyOp28
 70
     1
102
RTVSPropertyOp29
 70
     1
102
RTVSPropertyOp30
 70
     1
102
RTVSPropertyOp31
 70
     1
102
RTVSPropertyOp32
 70
     1
  0
XRECORD
  5
B9
102
{ACAD_REACTORS
330
B8
102
}
330
B8
100
AcDbXrecord
280
     1
102
RTVSPropertyOp0
 70
     1
102
RTVSPropertyOp1
 70
     1
102
RTVSPropertyOp2
 70
     1
102
RTVSPropertyOp3
 70
     1
102
RTVSPropertyOp4
 70
     1
102
RTVSPropertyOp5
 70
     1
102
RTVSPropertyOp6
 70
     1
102
RTVSPropertyOp7
 70
     1
102
RTVSPropertyOp8
 70
     1
102
RTVSPropertyOp9
 70
     1
102
RTVSPropertyOp10
 70
     1
102
RTVSPropertyOp11
 70
     1
102
RTVSPropertyOp12
 70
     1
102
RTVSPropertyOp13
 70
     1
102
RTVSPropertyOp14
 70
     1
102
RTVSPropertyOp15
 70
     1
102
RTVSPropertyOp16
 70
     1
102
RTVSPropertyOp17
 70
     1
102
RTVSPropertyOp18
 70
     1
102
RTVSPropertyOp19
 70
     1
102
RTVSPropertyOp20
 70
     1
102
RTVSPropertyOp21
 70
     1
102
RTVSPropertyOp22
 70
     1
102
RTVSPropertyOp23
 70
     1
102
RTVSPropertyOp24
 70
     1
102
RTVSPropertyOp25
 70
     1
102
RTVSPropertyOp26
 70
     1
102
RTVSPropertyOp27
 70
     1
102
RTVSPropertyOp28
 70
     1
102
RTVSPropertyOp29
 70
     1
102
RTVSPropertyOp30
 70
     1
102
RTVSPropertyOp31
 70
     1
102
RTVSPropertyOp32
 70
     1
  0
XRECORD
  5
C1
102
{ACAD_REACTORS
330
C0
102
}
330
C0
100
AcDbXrecord
280
     1
102
RTVSPropertyOp0
 70
     1
102
RTVSPropertyOp1
 70
     1
102
RTVSPropertyOp2
 70
     1
102
RTVSPropertyOp3
 70
     1
102
RTVSPropertyOp4
 70
     1
102
RTVSPropertyOp5
 70
     1
102
RTVSPropertyOp6
 70
     1
102
RTVSPropertyOp7
 70
     1
102
RTVSPropertyOp8
 70
     1
102
RTVSPropertyOp9
 70
     1
102
RTVSPropertyOp10
 70
     1
102
RTVSPropertyOp11
 70
     1
102
RTVSPropertyOp12
 70
     1
102
RTVSPropertyOp13
 70
     1
102
RTVSPropertyOp14
 70
     1
102
RTVSPropertyOp15
 70
     1
102
RTVSPropertyOp16
 70
     1
102
RTVSPropertyOp17
 70
     1
102
RTVSPropertyOp18
 70
     1
102
RTVSPropertyOp19
 70
     1
102
RTVSPropertyOp20
 70
     1
102
RTVSPropertyOp21
 70
     1
102
RTVSPropertyOp22
 70
     1
102
RTVSPropertyOp23
 70
     1
102
RTVSPropertyOp24
 70
     1
102
RTVSPropertyOp25
 70
     1
102
RTVSPropertyOp26
 70
     1
102
RTVSPropertyOp27
 70
     1
102
RTVSPropertyOp28
 70
     1
102
RTVSPropertyOp29
 70
     1
102
RTVSPropertyOp30
 70
     1
102
RTVSPropertyOp31
 70
     1
102
RTVSPropertyOp32
 70
     1
  0
ENDSEC
  0
EOF
