  0
SECTION
  2
HEADER
  9
$ACADVER
  1
AC1021
  9
$ACADMAINTVER
 70
    25
  9
$DWGCODEPAGE
  3
ANSI_1252
  9
$INSBASE
 10
0.0
 20
0.0
 30
0.0
  9
$EXTMIN
 10
-187.3326
 20
-115.0424
 30
0.0
  9
$EXTMAX
 10
-48.9043
 20
131.8441
 30
0.0
  9
$LIMMIN
 10
0.0
 20
0.0
  9
$LIMMAX
 10
12.0
 20
9.0
  9
$ORTHOMODE
 70
     0
  9
$REGENMODE
 70
     1
  9
$FILLMODE
 70
     1
  9
$QTEXTMODE
 70
     0
  9
$MIRRTEXT
 70
     1
  9
$LTSCALE
 40
1.0
  9
$ATTMODE
 70
     1
  9
$TEXTSIZE
 40
0.2
  9
$TRACEWID
 40
0.05
  9
$TEXTSTYLE
  7
Standard
  9
$CLAYER
  8
0
  9
$CELTYPE
  6
ByLayer
  9
$CECOLOR
 62
   256
  9
$CELTSCALE
 40
1.0
  9
$DISPSILH
 70
     0
  9
$DIMSCALE
 40
1.0
  9
$DIMASZ
 40
0.18
  9
$DIMEXO
 40
0.0625
  9
$DIMDLI
 40
0.38
  9
$DIMRND
 40
0.0
  9
$DIMDLE
 40
0.0
  9
$DIMEXE
 40
0.18
  9
$DIMTP
 40
0.0
  9
$DIMTM
 40
0.0
  9
$DIMTXT
 40
0.18
  9
$DIMCEN
 40
0.09
  9
$DIMTSZ
 40
0.0
  9
$DIMTOL
 70
     0
  9
$DIMLIM
 70
     0
  9
$DIMTIH
 70
     1
  9
$DIMTOH
 70
     1
  9
$DIMSE1
 70
     0
  9
$DIMSE2
 70
     0
  9
$DIMTAD
 70
     0
  9
$DIMZIN
 70
     0
  9
$DIMBLK
  1

  9
$DIMASO
 70
     1
  9
$DIMSHO
 70
     1
  9
$DIMPOST
  1

  9
$DIMAPOST
  1

  9
$DIMALT
 70
     0
  9
$DIMALTD
 70
     2
  9
$DIMALTF
 40
25.4
  9
$DIMLFAC
 40
1.0
  9
$DIMTOFL
 70
     0
  9
$DIMTVP
 40
0.0
  9
$DIMTIX
 70
     0
  9
$DIMSOXD
 70
     0
  9
$DIMSAH
 70
     0
  9
$DIMBLK1
  1

  9
$DIMBLK2
  1

  9
$DIMSTYLE
  2
Standard
  9
$DIMCLRD
 70
     0
  9
$DIMCLRE
 70
     0
  9
$DIMCLRT
 70
     0
  9
$DIMTFAC
 40
1.0
  9
$DIMGAP
 40
0.09
  9
$DIMJUST
 70
     0
  9
$DIMSD1
 70
     0
  9
$DIMSD2
 70
     0
  9
$DIMTOLJ
 70
     1
  9
$DIMTZIN
 70
     0
  9
$DIMALTZ
 70
     0
  9
$DIMALTTZ
 70
     0
  9
$DIMUPT
 70
     0
  9
$DIMDEC
 70
     4
  9
$DIMTDEC
 70
     4
  9
$DIMALTU
 70
     2
  9
$DIMALTTD
 70
     2
  9
$DIMTXSTY
  7
Standard
  9
$DIMAUNIT
 70
     0
  9
$DIMADEC
 70
     0
  9
$DIMALTRND
 40
0.0
  9
$DIMAZIN
 70
     0
  9
$DIMDSEP
 70
    46
  9
$DIMATFIT
 70
     3
  9
$DIMFRAC
 70
     0
  9
$DIMLDRBLK
  1

  9
$DIMLUNIT
 70
     2
  9
$DIMLWD
 70
    -2
  9
$DIMLWE
 70
    -2
  9
$DIMTMOVE
 70
     0
  9
$DIMFXL
 40
1.0
  9
$DIMFXLON
 70
     0
  9
$DIMJOGANG
 40
0.7853981633974483
  9
$DIMTFILL
 70
     0
  9
$DIMTFILLCLR
 70
     0
  9
$DIMARCSYM
 70
     0
  9
$DIMLTYPE
  6

  9
$DIMLTEX1
  6

  9
$DIMLTEX2
  6

  9
$LUNITS
 70
     2
  9
$LUPREC
 70
     4
  9
$SKETCHINC
 40
0.1
  9
$FILLETRAD
 40
0.5
  9
$AUNITS
 70
     0
  9
$AUPREC
 70
     0
  9
$MENU
  1
.
  9
$ELEVATION
 40
0.0
  9
$PELEVATION
 40
0.0
  9
$THICKNESS
 40
0.0
  9
$LIMCHECK
 70
     0
  9
$CHAMFERA
 40
0.5
  9
$CHAMFERB
 40
0.5
  9
$CHAMFERC
 40
1.0
  9
$CHAMFERD
 40
0.0
  9
$SKPOLY
 70
     0
  9
$TDCREATE
 40
2458492.560963935
  9
$TDUCREATE
 40
2458492.560963935
  9
$TDUPDATE
 40
2458492.560964005
  9
$TDUUPDATE
 40
2458492.560964005
  9
$TDINDWG
 40
0.0000000116
  9
$TDUSRTIMER
 40
0.0000000116
  9
$USRTIMER
 70
     1
  9
$ANGBASE
 50
0.0
  9
$ANGDIR
 70
     0
  9
$PDMODE
 70
     0
  9
$PDSIZE
 40
0.0
  9
$PLINEWID
 40
0.0
  9
$SPLFRAME
 70
     0
  9
$SPLINETYPE
 70
     6
  9
$SPLINESEGS
 70
     8
  9
$HANDSEED
  5
CB
  9
$SURFTAB1
 70
     6
  9
$SURFTAB2
 70
     6
  9
$SURFTYPE
 70
     6
  9
$SURFU
 70
     6
  9
$SURFV
 70
     6
  9
$UCSBASE
  2

  9
$UCSNAME
  2

  9
$UCSORG
 10
0.0
 20
0.0
 30
0.0
  9
$UCSXDIR
 10
1.0
 20
0.0
 30
0.0
  9
$UCSYDIR
 10
0.0
 20
1.0
 30
0.0
  9
$UCSORTHOREF
  2

  9
$UCSORTHOVIEW
 70
     0
  9
$UCSORGTOP
 10
0.0
 20
0.0
 30
0.0
  9
$UCSORGBOTTOM
 10
0.0
 20
0.0
 30
0.0
  9
$UCSORGLEFT
 10
0.0
 20
0.0
 30
0.0
  9
$UCSORGRIGHT
 10
0.0
 20
0.0
 30
0.0
  9
$UCSORGFRONT
 10
0.0
 20
0.0
 30
0.0
  9
$UCSORGBACK
 10
0.0
 20
0.0
 30
0.0
  9
$PUCSBASE
  2

  9
$PUCSNAME
  2

  9
$PUCSORG
 10
0.0
 20
0.0
 30
0.0
  9
$PUCSXDIR
 10
1.0
 20
0.0
 30
0.0
  9
$PUCSYDIR
 10
0.0
 20
1.0
 30
0.0
  9
$PUCSORTHOREF
  2

  9
$PUCSORTHOVIEW
 70
     0
  9
$PUCSORGTOP
 10
0.0
 20
0.0
 30
0.0
  9
$PUCSORGBOTTOM
 10
0.0
 20
0.0
 30
0.0
  9
$PUCSORGLEFT
 10
0.0
 20
0.0
 30
0.0
  9
$PUCSORGRIGHT
 10
0.0
 20
0.0
 30
0.0
  9
$PUCSORGFRONT
 10
0.0
 20
0.0
 30
0.0
  9
$PUCSORGBACK
 10
0.0
 20
0.0
 30
0.0
  9
$USERI1
 70
     0
  9
$USERI2
 70
     0
  9
$USERI3
 70
     0
  9
$USERI4
 70
     0
  9
$USERI5
 70
     0
  9
$USERR1
 40
0.0
  9
$USERR2
 40
0.0
  9
$USERR3
 40
0.0
  9
$USERR4
 40
0.0
  9
$USERR5
 40
0.0
  9
$WORLDVIEW
 70
     1
  9
$SHADEDGE
 70
     3
  9
$SHADEDIF
 70
    70
  9
$TILEMODE
 70
     1
  9
$MAXACTVP
 70
    64
  9
$PINSBASE
 10
0.0
 20
0.0
 30
0.0
  9
$PLIMCHECK
 70
     0
  9
$PEXTMIN
 10
1.000000000000000E+20
 20
1.000000000000000E+20
 30
1.000000000000000E+20
  9
$PEXTMAX
 10
-1.000000000000000E+20
 20
-1.000000000000000E+20
 30
-1.000000000000000E+20
  9
$PLIMMIN
 10
0.0
 20
0.0
  9
$PLIMMAX
 10
12.0
 20
9.0
  9
$UNITMODE
 70
     0
  9
$VISRETAIN
 70
     1
  9
$PLINEGEN
 70
     0
  9
$PSLTSCALE
 70
     1
  9
$TREEDEPTH
 70
  3020
  9
$CMLSTYLE
  2
Standard
  9
$CMLJUST
 70
     0
  9
$CMLSCALE
 40
1.0
  9
$PROXYGRAPHICS
 70
     1
  9
$MEASUREMENT
 70
     0
  9
$CELWEIGHT
370
    -1
  9
$ENDCAPS
280
     0
  9
$JOINSTYLE
280
     0
  9
$LWDISPLAY
290
     0
  9
$INSUNITS
 70
     4
  9
$HYPERLINKBASE
  1

  9
$STYLESHEET
  1

  9
$XEDIT
290
     1
  9
$CEPSNTYPE
380
     0
  9
$PSTYLEMODE
290
     1
  9
$FINGERPRINTGUID
  2
{C9FB8E04-6AED-48EA-BF7E-CF3C8AFAB565}
  9
$VERSIONGUID
  2
{FAEB1C32-E019-11D5-929B-00C0DF256EC4}
  9
$EXTNAMES
290
     1
  9
$PSVPSCALE
 40
0.0
  9
$OLESTARTUP
290
     0
  9
$SORTENTS
280
   127
  9
$INDEXCTL
280
     0
  9
$HIDETEXT
280
     1
  9
$XCLIPFRAME
290
     0
  9
$HALOGAP
280
     0
  9
$OBSCOLOR
 70
   257
  9
$OBSLTYPE
280
     0
  9
$INTERSECTIONDISPLAY
280
     0
  9
$INTERSECTIONCOLOR
 70
   257
  9
$DIMASSOC
280
     2
  9
$PROJECTNAME
  1

  9
$CAMERADISPLAY
290
     0
  9
$LENSLENGTH
 40
50.0
  9
$CAMERAHEIGHT
 40
0.0
  9
$STEPSPERSEC
 40
2.0
  9
$STEPSIZE
 40
6.0
  9
$3DDWFPREC
 40
2.0
  9
$PSOLWIDTH
 40
0.25
  9
$PSOLHEIGHT
 40
4.0
  9
$LOFTANG1
 40
1.570796326794897
  9
$LOFTANG2
 40
1.570796326794897
  9
$LOFTMAG1
 40
0.0
  9
$LOFTMAG2
 40
0.0
  9
$LOFTPARAM
 70
     7
  9
$LOFTNORMALS
280
     1
  9
$LATITUDE
 40
37.795
  9
$LONGITUDE
 40
-122.394
  9
$NORTHDIRECTION
 40
0.0
  9
$TIMEZONE
 70
 -8000
  9
$LIGHTGLYPHDISPLAY
280
     1
  9
$TILEMODELIGHTSYNCH
280
     1
  9
$SOLIDHIST
280
     1
  9
$SHOWHIST
280
     1
  9
$DWFFRAME
280
     2
  9
$DGNFRAME
280
     2
  9
$REALWORLDSCALE
290
     1
  9
$INTERFERECOLOR
 62
   256
  9
$CSHADOW
280
     0
  9
$SHADOWPLANELOCATION
 40
0.0
  0
ENDSEC
  0
SECTION
  2
CLASSES
  0
CLASS
  1
ACDBDICTIONARYWDFLT
  2
AcDbDictionaryWithDefault
  3
ObjectDBX Classes
 90
        0
 91
        4
280
     0
281
     0
  0
CLASS
  1
VISUALSTYLE
  2
AcDbVisualStyle
  3
ObjectDBX Classes
 90
     4095
 91
        4
280
     0
281
     0
  0
CLASS
  1
MATERIAL
  2
AcDbMaterial
  3
ObjectDBX Classes
 90
     1153
 91
        4
280
     0
281
     0
  0
ENDSEC
  0
SECTION
  2
TABLES
  0
TABLE
  2
VPORT
  5
8
330
0
100
AcDbSymbolTable
 70
     1
  0
VPORT
  5
29
330
8
100
AcDbSymbolTableRecord
100
AcDbViewportTableRecord
  2
*Active
 70
     0
 10
0.0
 20
0.0
 11
1.0
 21
1.0
 12
10.42990654205607
 22
4.5
 13
0.0
 23
0.0
 14
0.5
 24
0.5
 15
0.5
 25
0.5
 16
0.0
 26
0.0
 36
1.0
 17
0.0
 27
0.0
 37
0.0
 40
9.0
 41
1.972972972850329
 42
50.0
 43
0.0
 44
0.0
 50
0.0
 51
0.0
 71
     0
 72
   100
 73
     1
 74
     3
 75
     0
 76
     0
 77
     0
 78
     0
281
     0
 65
     1
110
0.0
120
0.0
130
0.0
111
1.0
121
0.0
131
0.0
112
0.0
122
1.0
132
0.0
 79
     0
146
0.0
 60
     3
 61
     5
292
     1
282
     1
141
0.0
142
0.0
 63
   250
  0
ENDTAB
  0
TABLE
  2
LTYPE
  5
5
330
0
100
AcDbSymbolTable
 70
     1
  0
LTYPE
  5
14
330
5
100
AcDbSymbolTableRecord
100
AcDbLinetypeTableRecord
  2
ByBlock
 70
     0
  3

 72
    65
 73
     0
 40
0.0
  0
LTYPE
  5
15
330
5
100
AcDbSymbolTableRecord
100
AcDbLinetypeTableRecord
  2
ByLayer
 70
     0
  3

 72
    65
 73
     0
 40
0.0
  0
LTYPE
  5
16
330
5
100
AcDbSymbolTableRecord
100
AcDbLinetypeTableRecord
  2
Continuous
 70
     0
  3
Solid line
 72
    65
 73
     0
 40
0.0
  0
ENDTAB
  0
TABLE
  2
LAYER
  5
2
330
0
100
AcDbSymbolTable
 70
     3
  0
LAYER
  5
10
330
2
100
AcDbSymbolTableRecord
100
AcDbLayerTableRecord
  2
0
 70
     0
 62
     7
  6
Continuous
370
    -3
390
F
347
3E
  0
LAYER
  5
40
330
2
100
AcDbSymbolTableRecord
100
AcDbLayerTableRecord
  2
layer 1
 70
     0
 62
     7
  6
Continuous
370
    -3
390
F
347
3E
  0
LAYER
  5
A8
330
2
100
AcDbSymbolTableRecord
100
AcDbLayerTableRecord
  2
Master Guides
 70
     0
 62
     7
  6
Continuous
370
    -3
390
F
347
3E
  0
ENDTAB
  0
TABLE
  2
STYLE
  5
3
330
0
100
AcDbSymbolTable
 70
     1
  0
STYLE
  5
11
330
3
100
AcDbSymbolTableRecord
100
AcDbTextStyleTableRecord
  2
Standard
 70
     0
 40
0.0
 41
1.0
 50
0.0
 71
     0
 42
0.2
  3
txt
  4

  0
ENDTAB
  0
TABLE
  2
VIEW
  5
6
330
0
100
AcDbSymbolTable
 70
     0
  0
ENDTAB
  0
TABLE
  2
UCS
  5
7
330
0
100
AcDbSymbolTable
 70
     0
  0
ENDTAB
  0
TABLE
  2
APPID
  5
9
330
0
100
AcDbSymbolTable
 70
     2
  0
APPID
  5
12
330
9
100
AcDbSymbolTableRecord
100
AcDbRegAppTableRecord
  2
ACAD
 70
     0
  0
APPID
  5
3F
330
9
100
AcDbSymbolTableRecord
100
AcDbRegAppTableRecord
  2
ODA
 70
     0
  0
ENDTAB
  0
TABLE
  2
DIMSTYLE
  5
A
330
0
100
AcDbSymbolTable
 70
     1
100
AcDbDimStyleTable
  0
DIMSTYLE
105
27
330
A
100
AcDbSymbolTableRecord
100
AcDbDimStyleTableRecord
  2
Standard
 70
     0
178
     0
340
11
  0
ENDTAB
  0
TABLE
  2
BLOCK_RECORD
  5
1
330
0
100
AcDbSymbolTable
 70
     1
  0
BLOCK_RECORD
  5
1F
330
1
100
AcDbSymbolTableRecord
100
AcDbBlockTableRecord
  2
*Model_Space
340
22
 70
     0
280
     1
281
     0
  0
BLOCK_RECORD
  5
1B
330
1
100
AcDbSymbolTableRecord
100
AcDbBlockTableRecord
  2
*Paper_Space
340
1E
 70
     0
280
     1
281
     0
  0
BLOCK_RECORD
  5
23
330
1
100
AcDbSymbolTableRecord
100
AcDbBlockTableRecord
  2
*Paper_Space0
340
26
 70
     0
280
     1
281
     0
  0
ENDTAB
  0
ENDSEC
  0
SECTION
  2
BLOCKS
  0
BLOCK
  5
20
330
1F
100
AcDbEntity
  8
0
100
AcDbBlockBegin
  2
*Model_Space
 70
     0
 10
0.0
 20
0.0
 30
0.0
  3
*Model_Space
  1

  0
ENDBLK
  5
21
330
1F
100
AcDbEntity
  8
0
100
AcDbBlockEnd
  0
BLOCK
  5
1C
330
1B
100
AcDbEntity
 67
     1
  8
0
100
AcDbBlockBegin
  2
*Paper_Space
 70
     0
 10
0.0
 20
0.0
 30
0.0
  3
*Paper_Space
  1

  0
ENDBLK
  5
1D
330
1B
100
AcDbEntity
 67
     1
  8
0
100
AcDbBlockEnd
  0
BLOCK
  5
24
330
23
100
AcDbEntity
  8
0
100
AcDbBlockBegin
  2
*Paper_Space0
 70
     0
 10
0.0
 20
0.0
 30
0.0
  3
*Paper_Space0
  1

  0
ENDBLK
  5
25
330
23
100
AcDbEntity
  8
0
100
AcDbBlockEnd
  0
ENDSEC
  0
SECTION
  2
ENTITIES
  0
SPLINE
  5
41
330
1F
100
AcDbEntity
  8
layer 1
 62
   250
100
AcDbSpline
210
0.0
220
0.0
230
1.0
 70
    11
 71
     3
 72
    20
 73
    16
 74
     0
 42
0.0000000001
 43
0.0000000001
 12
1.0
 22
0.0
 32
0.0
 13
1.0
 23
0.0
 33
0.0
 40
0.0
 40
0.0
 40
0.0
 40
0.0
 40
0.2
 40
0.2
 40
0.2
 40
0.2
 40
0.4
 40
0.4
 40
0.4
 40
0.4
 40
0.6
 40
0.6
 40
0.6
 40
0.6
 40
1.0
 40
1.0
 40
1.0
 40
1.0
 10
-187.3326
 20
-115.0424
 30
0.0
 10
-187.3326
 20
-115.0424
 30
0.0
 10
-187.3326
 20
131.8441
 30
0.0
 10
-187.3326
 20
131.8441
 30
0.0
 10
-187.3326
 20
131.8441
 30
0.0
 10
-187.3326
 20
131.8441
 30
0.0
 10
-48.9043
 20
131.8441
 30
0.0
 10
-48.9043
 20
131.8441
 30
0.0
 10
-48.9043
 20
131.8441
 30
0.0
 10
-48.9043
 20
131.8441
 30
0.0
 10
-48.9043
 20
-115.0424
 30
0.0
 10
-48.9043
 20
-115.0424
 30
0.0
 10
-48.9043
 20
-115.0424
 30
0.0
 10
-48.9043
 20
-115.0424
 30
0.0
 10
-187.3326
 20
-115.0424
 30
0.0
 10
-187.3326
 20
-115.0424
 30
0.0
  0
SPLINE
  5
42
330
1F
100
AcDbEntity
  8
layer 1
 62
   250
100
AcDbSpline
210
0.0
220
0.0
230
1.0
 70
    11
 71
     3
 72
    20
 73
    16
 74
     0
 42
0.0000000001
 43
0.0000000001
 12
1.0
 22
0.0
 32
0.0
 13
1.0
 23
0.0
 33
0.0
 40
0.0
 40
0.0
 40
0.0
 40
0.0
 40
0.2
 40
0.2
 40
0.2
 40
0.2
 40
0.4
 40
0.4
 40
0.4
 40
0.4
 40
0.6
 40
0.6
 40
0.6
 40
0.6
 40
1.0
 40
1.0
 40
1.0
 40
1.0
 10
-183.989
 20
-94.8761
 30
0.0
 10
-183.9635
 20
-94.9272
 30
0.0
 10
-183.9379
 20
-94.9783
 30
0.0
 10
-183.9124
 20
-95.0294
 30
0.0
 10
-183.9124
 20
-95.0294
 30
0.0
 10
-181.0872
 20
-94.6999
 30
0.0
 10
-178.6119
 20
-91.4384
 30
0.0
 10
-177.7038
 20
-89.1274
 30
0.0
 10
-177.7038
 20
-89.1274
 30
0.0
 10
-178.3889
 20
-88.1559
 30
0.0
 10
-181.8529
 20
-86.2738
 30
0.0
 10
-183.2992
 20
-86.0614
 30
0.0
 10
-183.2992
 20
-86.0614
 30
0.0
 10
-184.4704
 20
-87.4004
 30
0.0
 10
-184.0149
 20
-92.1815
 30
0.0
 10
-183.989
 20
-94.8761
 30
0.0
  0
SPLINE
  5
43
330
1F
100
AcDbEntity
  8
layer 1
 62
   250
100
AcDbSpline
210
0.0
220
0.0
230
1.0
 70
    11
 71
     3
 72
    24
 73
    20
 74
     0
 42
0.0000000001
 43
0.0000000001
 12
1.0
 22
0.0
 32
0.0
 13
1.0
 23
0.0
 33
0.0
 40
0.0
 40
0.0
 40
0.0
 40
0.0
 40
0.1666666666666667
 40
0.1666666666666667
 40
0.1666666666666667
 40
0.1666666666666667
 40
0.3333333333333333
 40
0.3333333333333333
 40
0.3333333333333333
 40
0.3333333333333333
 40
0.5
 40
0.5
 40
0.5
 40
0.5
 40
0.6666666666666666
 40
0.6666666666666666
 40
0.6666666666666666
 40
0.6666666666666666
 40
1.0
 40
1.0
 40
1.0
 40
1.0
 10
-183.989
 20
-63.8332
 30
0.0
 10
-183.8868
 20
-63.9099
 30
0.0
 10
-183.7846
 20
-63.9865
 30
0.0
 10
-183.6824
 20
-64.0632
 30
0.0
 10
-183.6824
 20
-64.0632
 30
0.0
 10
-179.9479
 20
-65.5914
 30
0.0
 10
-178.8101
 20
-60.8882
 30
0.0
 10
-177.9337
 20
-59.0044
 30
0.0
 10
-177.9337
 20
-59.0044
 30
0.0
 10
-177.5931
 20
-58.272
 30
0.0
 10
-176.5668
 20
-57.2132
 30
0.0
 10
-176.9373
 20
-56.3216
 30
0.0
 10
-176.9373
 20
-56.3216
 30
0.0
 10
-178.2732
 20
-56.1054
 30
0.0
 10
-182.3953
 20
-54.7854
 30
0.0
 10
-183.6824
 20
-55.7851
 30
0.0
 10
-183.6824
 20
-55.7851
 30
0.0
 10
-184.1373
 20
-56.1384
 30
0.0
 10
-184.0039
 20
-62.4539
 30
0.0
 10
-183.989
 20
-63.8332
 30
0.0
  0
SPLINE
  5
44
330
1F
100
AcDbEntity
  8
layer 1
 62
   250
100
AcDbSpline
210
0.0
220
0.0
230
1.0
 70
    11
 71
     3
 72
    32
 73
    28
 74
     0
 42
0.0000000001
 43
0.0000000001
 12
1.0
 22
0.0
 32
0.0
 13
1.0
 23
0.0
 33
0.0
 40
0.0
 40
0.0
 40
0.0
 40
0.0
 40
0.125
 40
0.125
 40
0.125
 40
0.125
 40
0.25
 40
0.25
 40
0.25
 40
0.25
 40
0.375
 40
0.375
 40
0.375
 40
0.375
 40
0.5
 40
0.5
 40
0.5
 40
0.5
 40
0.625
 40
0.625
 40
0.625
 40
0.625
 40
0.75
 40
0.75
 40
0.75
 40
0.75
 40
1.0
 40
1.0
 40
1.0
 40
1.0
 10
-183.9124
 20
10.4397
 30
0.0
 10
-183.8102
 20
10.2864
 30
0.0
 10
-183.708
 20
10.133
 30
0.0
 10
-183.6058
 20
9.9798
 30
0.0
 10
-183.6058
 20
9.9798
 30
0.0
 10
-182.4817
 20
9.5199
 30
0.0
 10
-181.3573
 20
9.0599
 30
0.0
 10
-180.2332
 20
8.6001
 30
0.0
 10
-180.2332
 20
8.6001
 30
0.0
 10
-180.1821
 20
8.7023
 30
0.0
 10
-180.131
 20
8.8045
 30
0.0
 10
-180.0799
 20
8.9067
 30
0.0
 10
-180.0799
 20
8.9067
 30
0.0
 10
-181.1427
 20
11.06
 30
0.0
 10
-181.7899
 20
14.1345
 30
0.0
 10
-183.4525
 20
15.7284
 30
0.0
 10
-183.4525
 20
15.7284
 30
0.0
 10
-183.5291
 20
15.7284
 30
0.0
 10
-183.6058
 20
15.7284
 30
0.0
 10
-183.6824
 20
15.7284
 30
0.0
 10
-183.6824
 20
15.7284
 30
0.0
 10
-183.7335
 20
15.6773
 30
0.0
 10
-183.7846
 20
15.6262
 30
0.0
 10
-183.8357
 20
15.5751
 30
0.0
 10
-183.8357
 20
15.5751
 30
0.0
 10
-183.8613
 20
13.8635
 30
0.0
 10
-183.8868
 20
12.1513
 30
0.0
 10
-183.9124
 20
10.4397
 30
0.0
  0
SPLINE
  5
45
330
1F
100
AcDbEntity
  8
layer 1
 62
   250
100
AcDbSpline
210
0.0
220
0.0
230
1.0
 70
    11
 71
     3
 72
    28
 73
    24
 74
     0
 42
0.0000000001
 43
0.0000000001
 12
1.0
 22
0.0
 32
0.0
 13
1.0
 23
0.0
 33
0.0
 40
0.0
 40
0.0
 40
0.0
 40
0.0
 40
0.1428571428571428
 40
0.1428571428571428
 40
0.1428571428571428
 40
0.1428571428571428
 40
0.2857142857142857
 40
0.2857142857142857
 40
0.2857142857142857
 40
0.2857142857142857
 40
0.4285714285714285
 40
0.4285714285714285
 40
0.4285714285714285
 40
0.4285714285714285
 40
0.5714285714285714
 40
0.5714285714285714
 40
0.5714285714285714
 40
0.5714285714285714
 40
0.7142857142857143
 40
0.7142857142857143
 40
0.7142857142857143
 40
0.7142857142857143
 40
1.0
 40
1.0
 40
1.0
 40
1.0
 10
-183.9124
 20
45.7748
 30
0.0
 10
-183.1549
 20
43.7914
 30
0.0
 10
-184.5208
 20
40.518
 30
0.0
 10
-183.6824
 20
38.6465
 30
0.0
 10
-183.6824
 20
38.6465
 30
0.0
 10
-182.2404
 20
38.3513
 30
0.0
 10
-179.7283
 20
38.2435
 30
0.0
 10
-178.5469
 20
38.8765
 30
0.0
 10
-178.5469
 20
38.8765
 30
0.0
 10
-178.4958
 20
39.0297
 30
0.0
 10
-178.4447
 20
39.1831
 30
0.0
 10
-178.3936
 20
39.3363
 30
0.0
 10
-178.3936
 20
39.3363
 30
0.0
 10
-179.7658
 20
42.0671
 30
0.0
 10
-180.5247
 20
47.4665
 30
0.0
 10
-183.2992
 20
48.7642
 30
0.0
 10
-183.2992
 20
48.7642
 30
0.0
 10
-183.4525
 20
48.7642
 30
0.0
 10
-183.6058
 20
48.7642
 30
0.0
 10
-183.7591
 20
48.7642
 30
0.0
 10
-183.7591
 20
48.7642
 30
0.0
 10
-183.8102
 20
47.7678
 30
0.0
 10
-183.8613
 20
46.7712
 30
0.0
 10
-183.9124
 20
45.7748
 30
0.0
  0
SPLINE
  5
46
330
1F
100
AcDbEntity
  8
layer 1
 62
   250
100
AcDbSpline
210
0.0
220
0.0
230
1.0
 70
    11
 71
     3
 72
    36
 73
    32
 74
     0
 42
0.0000000001
 43
0.0000000001
 12
1.0
 22
0.0
 32
0.0
 13
1.0
 23
0.0
 33
0.0
 40
0.0
 40
0.0
 40
0.0
 40
0.0
 40
0.1111111111111111
 40
0.1111111111111111
 40
0.1111111111111111
 40
0.1111111111111111
 40
0.2222222222222222
 40
0.2222222222222222
 40
0.2222222222222222
 40
0.2222222222222222
 40
0.3333333333333333
 40
0.3333333333333333
 40
0.3333333333333333
 40
0.3333333333333333
 40
0.4444444444444444
 40
0.4444444444444444
 40
0.4444444444444444
 40
0.4444444444444444
 40
0.5555555555555556
 40
0.5555555555555556
 40
0.5555555555555556
 40
0.5555555555555556
 40
0.6666666666666666
 40
0.6666666666666666
 40
0.6666666666666666
 40
0.6666666666666666
 40
0.7777777777777778
 40
0.7777777777777778
 40
0.7777777777777778
 40
0.7777777777777778
 40
1.0
 40
1.0
 40
1.0
 40
1.0
 10
-183.9124
 20
116.292
 30
0.0
 10
-183.8868
 20
115.4489
 30
0.0
 10
-183.8613
 20
114.6056
 30
0.0
 10
-183.8357
 20
113.7626
 30
0.0
 10
-183.8357
 20
113.7626
 30
0.0
 10
-183.6959
 20
112.8798
 30
0.0
 10
-183.4658
 20
112.3884
 30
0.0
 10
-183.1459
 20
111.7697
 30
0.0
 10
-183.1459
 20
111.7697
 30
0.0
 10
-182.9926
 20
111.8208
 30
0.0
 10
-182.8393
 20
111.8719
 30
0.0
 10
-182.686
 20
111.923
 30
0.0
 10
-182.686
 20
111.923
 30
0.0
 10
-182.4458
 20
112.4252
 30
0.0
 10
-181.9632
 20
112.658
 30
0.0
 10
-181.6895
 20
113.0727
 30
0.0
 10
-181.6895
 20
113.0727
 30
0.0
 10
-180.6691
 20
114.619
 30
0.0
 10
-180.5748
 20
116.1205
 30
0.0
 10
-180.1566
 20
118.3615
 30
0.0
 10
-180.1566
 20
118.3615
 30
0.0
 10
-180.082
 20
118.7612
 30
0.0
 10
-179.8909
 20
119.4877
 30
0.0
 10
-180.0799
 20
119.9711
 30
0.0
 10
-180.0799
 20
119.9711
 30
0.0
 10
-180.3354
 20
120.3032
 30
0.0
 10
-180.5909
 20
120.6354
 30
0.0
 10
-180.8464
 20
120.9675
 30
0.0
 10
-180.8464
 20
120.9675
 30
0.0
 10
-184.0753
 20
120.9307
 30
0.0
 10
-183.4722
 20
119.0694
 30
0.0
 10
-183.9124
 20
116.292
 30
0.0
  0
SPLINE
  5
47
330
1F
100
AcDbEntity
  8
layer 1
 62
   250
100
AcDbSpline
210
0.0
220
0.0
230
1.0
 70
    11
 71
     3
 72
    24
 73
    20
 74
     0
 42
0.0000000001
 43
0.0000000001
 12
1.0
 22
0.0
 32
0.0
 13
1.0
 23
0.0
 33
0.0
 40
0.0
 40
0.0
 40
0.0
 40
0.0
 40
0.1666666666666667
 40
0.1666666666666667
 40
0.1666666666666667
 40
0.1666666666666667
 40
0.3333333333333333
 40
0.3333333333333333
 40
0.3333333333333333
 40
0.3333333333333333
 40
0.5
 40
0.5
 40
0.5
 40
0.5
 40
0.6666666666666666
 40
0.6666666666666666
 40
0.6666666666666666
 40
0.6666666666666666
 40
1.0
 40
1.0
 40
1.0
 40
1.0
 10
-183.8357
 20
-17.9971
 30
0.0
 10
-183.5802
 20
-18.4059
 30
0.0
 10
-183.3247
 20
-18.8147
 30
0.0
 10
-183.0692
 20
-19.2235
 30
0.0
 10
-183.0692
 20
-19.2235
 30
0.0
 10
-182.8904
 20
-19.249
 30
0.0
 10
-182.7115
 20
-19.2746
 30
0.0
 10
-182.5327
 20
-19.3002
 30
0.0
 10
-182.5327
 20
-19.3002
 30
0.0
 10
-182.456
 20
-19.2235
 30
0.0
 10
-182.3794
 20
-19.1468
 30
0.0
 10
-182.3027
 20
-19.0702
 30
0.0
 10
-182.3027
 20
-19.0702
 30
0.0
 10
-182.3459
 20
-18.2399
 30
0.0
 10
-183.1039
 20
-16.678
 30
0.0
 10
-183.8357
 20
-17.0007
 30
0.0
 10
-183.8357
 20
-17.0007
 30
0.0
 10
-183.8357
 20
-17.3328
 30
0.0
 10
-183.8357
 20
-17.665
 30
0.0
 10
-183.8357
 20
-17.9971
 30
0.0
  0
SPLINE
  5
48
330
1F
100
AcDbEntity
  8
layer 1
 62
   250
100
AcDbSpline
210
0.0
220
0.0
230
1.0
 70
    11
 71
     3
 72
    32
 73
    28
 74
     0
 42
0.0000000001
 43
0.0000000001
 12
1.0
 22
0.0
 32
0.0
 13
1.0
 23
0.0
 33
0.0
 40
0.0
 40
0.0
 40
0.0
 40
0.0
 40
0.125
 40
0.125
 40
0.125
 40
0.125
 40
0.25
 40
0.25
 40
0.25
 40
0.25
 40
0.375
 40
0.375
 40
0.375
 40
0.375
 40
0.5
 40
0.5
 40
0.5
 40
0.5
 40
0.625
 40
0.625
 40
0.625
 40
0.625
 40
0.75
 40
0.75
 40
0.75
 40
0.75
 40
1.0
 40
1.0
 40
1.0
 40
1.0
 10
-183.8357
 20
51.2936
 30
0.0
 10
-182.9548
 20
49.8773
 30
0.0
 10
-180.188
 20
49.3641
 30
0.0
 10
-178.4703
 20
50.3738
 30
0.0
 10
-178.4703
 20
50.3738
 30
0.0
 10
-176.3104
 20
51.6433
 30
0.0
 10
-173.014
 20
56.1605
 30
0.0
 10
-172.7982
 20
59.2651
 30
0.0
 10
-172.7982
 20
59.2651
 30
0.0
 10
-172.8493
 20
59.3162
 30
0.0
 10
-172.9004
 20
59.3673
 30
0.0
 10
-172.9516
 20
59.4184
 30
0.0
 10
-172.9516
 20
59.4184
 30
0.0
 10
-175.6118
 20
59.9103
 30
0.0
 10
-178.2806
 20
56.3284
 30
0.0
 10
-180.6931
 20
57.6555
 30
0.0
 10
-180.6931
 20
57.6555
 30
0.0
 10
-181.0995
 20
58.6019
 30
0.0
 10
-181.4805
 20
59.6038
 30
0.0
 10
-181.8428
 20
60.7214
 30
0.0
 10
-181.8428
 20
60.7214
 30
0.0
 10
-181.9961
 20
60.7981
 30
0.0
 10
-182.1495
 20
60.8747
 30
0.0
 10
-182.3027
 20
60.9514
 30
0.0
 10
-182.3027
 20
60.9514
 30
0.0
 10
-184.5309
 20
59.8945
 30
0.0
 10
-183.8803
 20
54.5963
 30
0.0
 10
-183.8357
 20
51.2936
 30
0.0
  0
SPLINE
  5
49
330
1F
100
AcDbEntity
  8
layer 1
 62
   250
100
AcDbSpline
210
0.0
220
0.0
230
1.0
 70
    11
 71
     3
 72
    20
 73
    16
 74
     0
 42
0.0000000001
 43
0.0000000001
 12
1.0
 22
0.0
 32
0.0
 13
1.0
 23
0.0
 33
0.0
 40
0.0
 40
0.0
 40
0.0
 40
0.0
 40
0.2
 40
0.2
 40
0.2
 40
0.2
 40
0.4
 40
0.4
 40
0.4
 40
0.4
 40
0.6
 40
0.6
 40
0.6
 40
0.6
 40
1.0
 40
1.0
 40
1.0
 40
1.0
 10
-183.8357
 20
68.9229
 30
0.0
 10
-182.7965
 20
66.9718
 30
0.0
 10
-179.9744
 20
69.325
 30
0.0
 10
-179.4667
 20
70.6092
 30
0.0
 10
-179.4667
 20
70.6092
 30
0.0
 10
-179.8632
 20
71.979
 30
0.0
 10
-182.2909
 20
75.6423
 30
0.0
 10
-183.6824
 20
75.7446
 30
0.0
 10
-183.6824
 20
75.7446
 30
0.0
 10
-183.6824
 20
75.6935
 30
0.0
 10
-183.6824
 20
75.6424
 30
0.0
 10
-183.6824
 20
75.5913
 30
0.0
 10
-183.6824
 20
75.5913
 30
0.0
 10
-183.7335
 20
73.3687
 30
0.0
 10
-183.7846
 20
71.1455
 30
0.0
 10
-183.8357
 20
68.9229
 30
0.0
  0
SPLINE
  5
4A
330
1F
100
AcDbEntity
  8
layer 1
 62
   250
100
AcDbSpline
210
0.0
220
0.0
230
1.0
 70
    11
 71
     3
 72
    40
 73
    36
 74
     0
 42
0.0000000001
 43
0.0000000001
 12
1.0
 22
0.0
 32
0.0
 13
1.0
 23
0.0
 33
0.0
 40
0.0
 40
0.0
 40
0.0
 40
0.0
 40
0.1
 40
0.1
 40
0.1
 40
0.1
 40
0.2
 40
0.2
 40
0.2
 40
0.2
 40
0.3
 40
0.3
 40
0.3
 40
0.3
 40
0.4
 40
0.4
 40
0.4
 40
0.4
 40
0.5
 40
0.5
 40
0.5
 40
0.5
 40
0.6
 40
0.6
 40
0.6
 40
0.6
 40
0.7
 40
0.7
 40
0.7
 40
0.7
 40
0.8
 40
0.8
 40
0.8
 40
0.8
 40
1.0
 40
1.0
 40
1.0
 40
1.0
 10
-183.8357
 20
86.7821
 30
0.0
 10
-182.9869
 20
85.1756
 30
0.0
 10
-181.4594
 20
84.494
 30
0.0
 10
-180.5398
 20
82.9496
 30
0.0
 10
-180.5398
 20
82.9496
 30
0.0
 10
-180.1055
 20
81.9278
 30
0.0
 10
-179.6711
 20
80.9056
 30
0.0
 10
-179.2368
 20
79.8837
 30
0.0
 10
-179.2368
 20
79.8837
 30
0.0
 10
-177.4198
 20
76.0903
 30
0.0
 10
-174.7621
 20
72.0635
 30
0.0
 10
-170.4221
 20
70.8391
 30
0.0
 10
-170.4221
 20
70.8391
 30
0.0
 10
-164.2183
 20
69.0889
 30
0.0
 10
-162.8929
 20
74.8494
 30
0.0
 10
-162.374
 20
79.5771
 30
0.0
 10
-162.374
 20
79.5771
 30
0.0
 10
-162.1945
 20
81.212
 30
0.0
 10
-161.3848
 20
82.8088
 30
0.0
 10
-162.2973
 20
84.0994
 30
0.0
 10
-162.2973
 20
84.0994
 30
0.0
 10
-166.002
 20
84.3157
 30
0.0
 10
-167.2947
 20
77.4778
 30
0.0
 10
-171.1886
 20
79.2705
 30
0.0
 10
-171.1886
 20
79.2705
 30
0.0
 10
-174.3226
 20
80.7133
 30
0.0
 10
-173.365
 20
89.0606
 30
0.0
 10
-175.4043
 20
91.9942
 30
0.0
 10
-175.4043
 20
91.9942
 30
0.0
 10
-177.1079
 20
94.4448
 30
0.0
 10
-182.2411
 20
94.3832
 30
0.0
 10
-183.6824
 20
91.8409
 30
0.0
 10
-183.6824
 20
91.8409
 30
0.0
 10
-184.2546
 20
90.8316
 30
0.0
 10
-183.6932
 20
87.7842
 30
0.0
 10
-183.8357
 20
86.7821
 30
0.0
  0
SPLINE
  5
4B
330
1F
100
AcDbEntity
  8
layer 1
 62
   250
100
AcDbSpline
210
0.0
220
0.0
230
1.0
 70
    11
 71
     3
 72
    48
 73
    44
 74
     0
 42
0.0000000001
 43
0.0000000001
 12
1.0
 22
0.0
 32
0.0
 13
1.0
 23
0.0
 33
0.0
 40
0.0
 40
0.0
 40
0.0
 40
0.0
 40
0.0833333333333333
 40
0.0833333333333333
 40
0.0833333333333333
 40
0.0833333333333333
 40
0.1666666666666667
 40
0.1666666666666667
 40
0.1666666666666667
 40
0.1666666666666667
 40
0.25
 40
0.25
 40
0.25
 40
0.25
 40
0.3333333333333333
 40
0.3333333333333333
 40
0.3333333333333333
 40
0.3333333333333333
 40
0.4166666666666667
 40
0.4166666666666667
 40
0.4166666666666667
 40
0.4166666666666667
 40
0.5
 40
0.5
 40
0.5
 40
0.5
 40
0.5833333333333334
 40
0.5833333333333334
 40
0.5833333333333334
 40
0.5833333333333334
 40
0.6666666666666666
 40
0.6666666666666666
 40
0.6666666666666666
 40
0.6666666666666666
 40
0.75
 40
0.75
 40
0.75
 40
0.75
 40
0.8333333333333334
 40
0.8333333333333334
 40
0.8333333333333334
 40
0.8333333333333334
 40
1.0
 40
1.0
 40
1.0
 40
1.0
 10
-183.6824
 20
21.3238
 30
0.0
 10
-181.6522
 20
21.4265
 30
0.0
 10
-179.9211
 20
22.671
 30
0.0
 10
-177.7038
 20
21.7071
 30
0.0
 10
-177.7038
 20
21.7071
 30
0.0
 10
-173.5814
 20
19.9149
 30
0.0
 10
-172.1294
 20
15.0018
 30
0.0
 10
-169.4257
 20
11.7427
 30
0.0
 10
-169.4257
 20
11.7427
 30
0.0
 10
-168.0555
 20
10.091
 30
0.0
 10
-166.5322
 20
8.6984
 30
0.0
 10
-164.6734
 20
7.527
 30
0.0
 10
-164.6734
 20
7.527
 30
0.0
 10
-163.0976
 20
6.5339
 30
0.0
 10
-161.9119
 20
5.4639
 30
0.0
 10
-159.3847
 20
5.5341
 30
0.0
 10
-159.3847
 20
5.5341
 30
0.0
 10
-157.2074
 20
8.2409
 30
0.0
 10
-157.2018
 20
19.5456
 30
0.0
 10
-161.2242
 20
19.9441
 30
0.0
 10
-161.2242
 20
19.9441
 30
0.0
 10
-161.3264
 20
19.8675
 30
0.0
 10
-161.4286
 20
19.7908
 30
0.0
 10
-161.5308
 20
19.7142
 30
0.0
 10
-161.5308
 20
19.7142
 30
0.0
 10
-161.7338
 20
17.8703
 30
0.0
 10
-161.5739
 20
15.629
 30
0.0
 10
-162.2973
 20
14.1955
 30
0.0
 10
-162.2973
 20
14.1955
 30
0.0
 10
-163.4412
 20
11.9286
 30
0.0
 10
-166.8508
 20
13.7156
 30
0.0
 10
-167.7394
 20
15.0386
 30
0.0
 10
-167.7394
 20
15.0386
 30
0.0
 10
-170.0074
 20
18.4152
 30
0.0
 10
-166.8029
 20
23.794
 30
0.0
 10
-169.1957
 20
26.9192
 30
0.0
 10
-169.1957
 20
26.9192
 30
0.0
 10
-170.0636
 20
28.0526
 30
0.0
 10
-172.4987
 20
28.1645
 30
0.0
 10
-174.3312
 20
27.7623
 30
0.0
 10
-174.3312
 20
27.7623
 30
0.0
 10
-176.8608
 20
27.2073
 30
0.0
 10
-183.3005
 20
23.5698
 30
0.0
 10
-183.6824
 20
21.3238
 30
0.0
  0
SPLINE
  5
4C
330
1F
100
AcDbEntity
  8
layer 1
 62
   250
100
AcDbSpline
210
0.0
220
0.0
230
1.0
 70
    11
 71
     3
 72
    36
 73
    32
 74
     0
 42
0.0000000001
 43
0.0000000001
 12
1.0
 22
0.0
 32
0.0
 13
1.0
 23
0.0
 33
0.0
 40
0.0
 40
0.0
 40
0.0
 40
0.0
 40
0.1111111111111111
 40
0.1111111111111111
 40
0.1111111111111111
 40
0.1111111111111111
 40
0.2222222222222222
 40
0.2222222222222222
 40
0.2222222222222222
 40
0.2222222222222222
 40
0.3333333333333333
 40
0.3333333333333333
 40
0.3333333333333333
 40
0.3333333333333333
 40
0.4444444444444444
 40
0.4444444444444444
 40
0.4444444444444444
 40
0.4444444444444444
 40
0.5555555555555556
 40
0.5555555555555556
 40
0.5555555555555556
 40
0.5555555555555556
 40
0.6666666666666666
 40
0.6666666666666666
 40
0.6666666666666666
 40
0.6666666666666666
 40
0.7777777777777778
 40
0.7777777777777778
 40
0.7777777777777778
 40
0.7777777777777778
 40
1.0
 40
1.0
 40
1.0
 40
1.0
 10
-183.2992
 20
107.554
 30
0.0
 10
-183.1459
 20
106.7365
 30
0.0
 10
-182.9926
 20
105.9187
 30
0.0
 10
-182.8393
 20
105.1012
 30
0.0
 10
-182.8393
 20
105.1012
 30
0.0
 10
-181.7458
 20
102.2707
 30
0.0
 10
-178.9427
 20
99.8518
 30
0.0
 10
-176.1708
 20
98.6627
 30
0.0
 10
-176.1708
 20
98.6627
 30
0.0
 10
-175.3936
 20
98.3293
 30
0.0
 10
-173.5754
 20
97.4159
 30
0.0
 10
-172.4917
 20
97.8196
 30
0.0
 10
-172.4917
 20
97.8196
 30
0.0
 10
-172.415
 20
97.8707
 30
0.0
 10
-172.3383
 20
97.9218
 30
0.0
 10
-172.2617
 20
97.9728
 30
0.0
 10
-172.2617
 20
97.9728
 30
0.0
 10
-172.1981
 20
101.7947
 30
0.0
 10
-173.115
 20
106.0414
 30
0.0
 10
-175.5576
 20
107.4007
 30
0.0
 10
-175.5576
 20
107.4007
 30
0.0
 10
-176.5431
 20
107.9491
 30
0.0
 10
-177.7437
 20
107.9166
 30
0.0
 10
-179.0068
 20
108.2438
 30
0.0
 10
-179.0068
 20
108.2438
 30
0.0
 10
-179.9023
 20
108.4758
 30
0.0
 10
-182.274
 20
110.1537
 30
0.0
 10
-182.8393
 20
109.3936
 30
0.0
 10
-182.8393
 20
109.3936
 30
0.0
 10
-183.1795
 20
108.8542
 30
0.0
 10
-183.2031
 20
108.1725
 30
0.0
 10
-183.2992
 20
107.554
 30
0.0
  0
SPLINE
  5
4D
330
1F
100
AcDbEntity
  8
layer 1
 62
   250
100
AcDbSpline
210
0.0
220
0.0
230
1.0
 70
    11
 71
     3
 72
    44
 73
    40
 74
     0
 42
0.0000000001
 43
0.0000000001
 12
1.0
 22
0.0
 32
0.0
 13
1.0
 23
0.0
 33
0.0
 40
0.0
 40
0.0
 40
0.0
 40
0.0
 40
0.0909090909090909
 40
0.0909090909090909
 40
0.0909090909090909
 40
0.0909090909090909
 40
0.1818181818181818
 40
0.1818181818181818
 40
0.1818181818181818
 40
0.1818181818181818
 40
0.2727272727272727
 40
0.2727272727272727
 40
0.2727272727272727
 40
0.2727272727272727
 40
0.3636363636363636
 40
0.3636363636363636
 40
0.3636363636363636
 40
0.3636363636363636
 40
0.4545454545454545
 40
0.4545454545454545
 40
0.4545454545454545
 40
0.4545454545454545
 40
0.5454545454545454
 40
0.5454545454545454
 40
0.5454545454545454
 40
0.5454545454545454
 40
0.6363636363636364
 40
0.6363636363636364
 40
0.6363636363636364
 40
0.6363636363636364
 40
0.7272727272727273
 40
0.7272727272727273
 40
0.7272727272727273
 40
0.7272727272727273
 40
0.8181818181818182
 40
0.8181818181818182
 40
0.8181818181818182
 40
0.8181818181818182
 40
1.0
 40
1.0
 40
1.0
 40
1.0
 10
-183.0692
 20
-38.1558
 30
0.0
 10
-182.3551
 20
-39.4406
 30
0.0
 10
-182.0827
 20
-40.8382
 30
0.0
 10
-181.3829
 20
-42.0649
 30
0.0
 10
-181.3829
 20
-42.0649
 30
0.0
 10
-179.9856
 20
-44.5146
 30
0.0
 10
-176.1352
 20
-49.1076
 30
0.0
 10
-171.8785
 20
-47.3537
 30
0.0
 10
-171.8785
 20
-47.3537
 30
0.0
 10
-168.6969
 20
-46.0428
 30
0.0
 10
-166.8366
 20
-42.9152
 30
0.0
 10
-163.907
 20
-41.1451
 30
0.0
 10
-163.907
 20
-41.1451
 30
0.0
 10
-163.8579
 20
-40.6428
 30
0.0
 10
-164.1123
 20
-40.0776
 30
0.0
 10
-164.2135
 20
-39.4588
 30
0.0
 10
-164.2135
 20
-39.4588
 30
0.0
 10
-164.1625
 20
-38.0793
 30
0.0
 10
-164.1113
 20
-36.6993
 30
0.0
 10
-164.0602
 20
-35.3198
 30
0.0
 10
-164.0602
 20
-35.3198
 30
0.0
 10
-164.6423
 20
-32.5202
 30
0.0
 10
-167.7287
 20
-29.7551
 30
0.0
 10
-171.3419
 20
-31.1041
 30
0.0
 10
-171.3419
 20
-31.1041
 30
0.0
 10
-172.5688
 20
-31.5622
 30
0.0
 10
-173.7898
 20
-32.8047
 30
0.0
 10
-174.1779
 20
-34.0934
 30
0.0
 10
-174.1779
 20
-34.0934
 30
0.0
 10
-174.6789
 20
-35.7565
 30
0.0
 10
-174.2687
 20
-37.3737
 30
0.0
 10
-175.8642
 20
-37.9259
 30
0.0
 10
-175.8642
 20
-37.9259
 30
0.0
 10
-178.5612
 20
-38.8591
 30
0.0
 10
-181.8013
 20
-36.2349
 30
0.0
 10
-182.9926
 20
-37.0061
 30
0.0
 10
-182.9926
 20
-37.0061
 30
0.0
 10
-183.0181
 20
-37.3893
 30
0.0
 10
-183.0437
 20
-37.7726
 30
0.0
 10
-183.0692
 20
-38.1558
 30
0.0
  0
SPLINE
  5
4E
330
1F
100
AcDbEntity
  8
layer 1
 62
   250
100
AcDbSpline
210
0.0
220
0.0
230
1.0
 70
    11
 71
     3
 72
    56
 73
    52
 74
     0
 42
0.0000000001
 43
0.0000000001
 12
1.0
 22
0.0
 32
0.0
 13
1.0
 23
0.0
 33
0.0
 40
0.0
 40
0.0
 40
0.0
 40
0.0
 40
0.0714285714285714
 40
0.0714285714285714
 40
0.0714285714285714
 40
0.0714285714285714
 40
0.1428571428571428
 40
0.1428571428571428
 40
0.1428571428571428
 40
0.1428571428571428
 40
0.2142857142857143
 40
0.2142857142857143
 40
0.2142857142857143
 40
0.2142857142857143
 40
0.2857142857142857
 40
0.2857142857142857
 40
0.2857142857142857
 40
0.2857142857142857
 40
0.3571428571428572
 40
0.3571428571428572
 40
0.3571428571428572
 40
0.3571428571428572
 40
0.4285714285714285
 40
0.4285714285714285
 40
0.4285714285714285
 40
0.4285714285714285
 40
0.5
 40
0.5
 40
0.5
 40
0.5
 40
0.5714285714285714
 40
0.5714285714285714
 40
0.5714285714285714
 40
0.5714285714285714
 40
0.6428571428571429
 40
0.6428571428571429
 40
0.6428571428571429
 40
0.6428571428571429
 40
0.7142857142857143
 40
0.7142857142857143
 40
0.7142857142857143
 40
0.7142857142857143
 40
0.7857142857142857
 40
0.7857142857142857
 40
0.7857142857142857
 40
0.7857142857142857
 40
0.8571428571428571
 40
0.8571428571428571
 40
0.8571428571428571
 40
0.8571428571428571
 40
1.0
 40
1.0
 40
1.0
 40
1.0
 10
-181.153
 20
-80.0828
 30
0.0
 10
-180.9742
 20
-80.3383
 30
0.0
 10
-180.7953
 20
-80.5938
 30
0.0
 10
-180.6164
 20
-80.8493
 30
0.0
 10
-180.6164
 20
-80.8493
 30
0.0
 10
-176.0467
 20
-80.7959
 30
0.0
 10
-174.3448
 20
-77.3409
 30
0.0
 10
-171.7252
 20
-75.3306
 30
0.0
 10
-171.7252
 20
-75.3306
 30
0.0
 10
-171.1628
 20
-75.3106
 30
0.0
 10
-170.9252
 20
-75.3668
 30
0.0
 10
-170.7287
 20
-75.7138
 30
0.0
 10
-170.7287
 20
-75.7138
 30
0.0
 10
-169.0804
 20
-78.4652
 30
0.0
 10
-172.5827
 20
-82.0987
 30
0.0
 10
-172.3384
 20
-83.532
 30
0.0
 10
-172.3384
 20
-83.532
 30
0.0
 10
-172.2873
 20
-83.532
 30
0.0
 10
-172.2361
 20
-83.532
 30
0.0
 10
-172.1851
 20
-83.532
 30
0.0
 10
-172.1851
 20
-83.532
 30
0.0
 10
-167.1983
 20
-85.7353
 30
0.0
 10
-162.9549
 20
-82.9364
 30
0.0
 10
-160.7643
 20
-80.1595
 30
0.0
 10
-160.7643
 20
-80.1595
 30
0.0
 10
-160.2505
 20
-79.5081
 30
0.0
 10
-158.2477
 20
-78.7838
 30
0.0
 10
-158.6948
 20
-77.7834
 30
0.0
 10
-158.6948
 20
-77.7834
 30
0.0
 10
-159.2569
 20
-77.4512
 30
0.0
 10
-159.819
 20
-77.119
 30
0.0
 10
-160.3811
 20
-76.7869
 30
0.0
 10
-160.3811
 20
-76.7869
 30
0.0
 10
-162.281
 20
-75.8542
 30
0.0
 10
-164.6622
 20
-75.2379
 30
0.0
 10
-165.8232
 20
-73.5676
 30
0.0
 10
-165.8232
 20
-73.5676
 30
0.0
 10
-168.2706
 20
-70.0465
 30
0.0
 10
-167.7317
 20
-66.8023
 30
0.0
 10
-172.5683
 20
-65.3662
 30
0.0
 10
-172.5683
 20
-65.3662
 30
0.0
 10
-173.7052
 20
-65.0287
 30
0.0
 10
-175.5029
 20
-64.852
 30
0.0
 10
-176.8606
 20
-65.1363
 30
0.0
 10
-176.8606
 20
-65.1363
 30
0.0
 10
-177.5556
 20
-66.5083
 30
0.0
 10
-176.3833
 20
-68.4087
 30
0.0
 10
-177.0906
 20
-69.8885
 30
0.0
 10
-177.0906
 20
-69.8885
 30
0.0
 10
-178.5586
 20
-72.9599
 30
0.0
 10
-181.1153
 20
-75.4978
 30
0.0
 10
-181.153
 20
-80.0828
 30
0.0
  0
SPLINE
  5
4F
330
1F
100
AcDbEntity
  8
layer 1
 62
   250
100
AcDbSpline
210
0.0
220
0.0
230
1.0
 70
    11
 71
     3
 72
    24
 73
    20
 74
     0
 42
0.0000000001
 43
0.0000000001
 12
1.0
 22
0.0
 32
0.0
 13
1.0
 23
0.0
 33
0.0
 40
0.0
 40
0.0
 40
0.0
 40
0.0
 40
0.1666666666666667
 40
0.1666666666666667
 40
0.1666666666666667
 40
0.1666666666666667
 40
0.3333333333333333
 40
0.3333333333333333
 40
0.3333333333333333
 40
0.3333333333333333
 40
0.5
 40
0.5
 40
0.5
 40
0.5
 40
0.6666666666666666
 40
0.6666666666666666
 40
0.6666666666666666
 40
0.6666666666666666
 40
1.0
 40
1.0
 40
1.0
 40
1.0
 10
-179.3134
 20
-106.1435
 30
0.0
 10
-178.6098
 20
-107.5506
 30
0.0
 10
-178.4457
 20
-109.1727
 30
0.0
 10
-177.3972
 20
-110.2059
 30
0.0
 10
-177.3972
 20
-110.2059
 30
0.0
 10
-177.0906
 20
-110.1804
 30
0.0
 10
-176.784
 20
-110.1548
 30
0.0
 10
-176.4774
 20
-110.1293
 30
0.0
 10
-176.4774
 20
-110.1293
 30
0.0
 10
-174.496
 20
-109.1283
 30
0.0
 10
-177.2345
 20
-104.8998
 30
0.0
 10
-178.087
 20
-104.1506
 30
0.0
 10
-178.087
 20
-104.1506
 30
0.0
 10
-178.5765
 20
-104.1788
 30
0.0
 10
-178.5803
 20
-104.2642
 30
0.0
 10
-178.8535
 20
-104.4572
 30
0.0
 10
-178.8535
 20
-104.4572
 30
0.0
 10
-179.0549
 20
-105.0586
 30
0.0
 10
-179.3025
 20
-105.2769
 30
0.0
 10
-179.3134
 20
-106.1435
 30
0.0
  0
SPLINE
  5
50
330
1F
100
AcDbEntity
  8
layer 1
 62
   250
100
AcDbSpline
210
0.0
220
0.0
230
1.0
 70
    11
 71
     3
 72
    36
 73
    32
 74
     0
 42
0.0000000001
 43
0.0000000001
 12
1.0
 22
0.0
 32
0.0
 13
1.0
 23
0.0
 33
0.0
 40
0.0
 40
0.0
 40
0.0
 40
0.0
 40
0.1111111111111111
 40
0.1111111111111111
 40
0.1111111111111111
 40
0.1111111111111111
 40
0.2222222222222222
 40
0.2222222222222222
 40
0.2222222222222222
 40
0.2222222222222222
 40
0.3333333333333333
 40
0.3333333333333333
 40
0.3333333333333333
 40
0.3333333333333333
 40
0.4444444444444444
 40
0.4444444444444444
 40
0.4444444444444444
 40
0.4444444444444444
 40
0.5555555555555556
 40
0.5555555555555556
 40
0.5555555555555556
 40
0.5555555555555556
 40
0.6666666666666666
 40
0.6666666666666666
 40
0.6666666666666666
 40
0.6666666666666666
 40
0.7777777777777778
 40
0.7777777777777778
 40
0.7777777777777778
 40
0.7777777777777778
 40
1.0
 40
1.0
 40
1.0
 40
1.0
 10
-177.7804
 20
121.964
 30
0.0
 10
-177.0512
 20
120.4965
 30
0.0
 10
-176.0167
 20
119.5186
 30
0.0
 10
-175.1744
 20
118.2082
 30
0.0
 10
-175.1744
 20
118.2082
 30
0.0
 10
-174.0871
 20
116.5167
 30
0.0
 10
-173.443
 20
114.4347
 30
0.0
 10
-172.0318
 20
113.0727
 30
0.0
 10
-172.0318
 20
113.0727
 30
0.0
 10
-171.9551
 20
113.1238
 30
0.0
 10
-171.8785
 20
113.1749
 30
0.0
 10
-171.8018
 20
113.226
 30
0.0
 10
-171.8018
 20
113.226
 30
0.0
 10
-170.9051
 20
116.4129
 30
0.0
 10
-170.0328
 20
120.1869
 30
0.0
 10
-168.5059
 20
122.9604
 30
0.0
 10
-168.5059
 20
122.9604
 30
0.0
 10
-168.1216
 20
123.6584
 30
0.0
 10
-167.0861
 20
124.411
 30
0.0
 10
-166.8963
 20
125.2599
 30
0.0
 10
-166.8963
 20
125.2599
 30
0.0
 10
-166.7526
 20
125.9024
 30
0.0
 10
-167.55
 20
126.473
 30
0.0
 10
-167.8161
 20
126.7929
 30
0.0
 10
-167.8161
 20
126.7929
 30
0.0
 10
-170.3006
 20
126.9929
 30
0.0
 10
-173.1128
 20
127.2665
 30
0.0
 10
-175.6343
 20
126.7929
 30
0.0
 10
-175.6343
 20
126.7929
 30
0.0
 10
-176.7741
 20
125.9642
 30
0.0
 10
-177.7836
 20
123.8745
 30
0.0
 10
-177.7804
 20
121.964
 30
0.0
  0
SPLINE
  5
51
330
1F
100
AcDbEntity
  8
layer 1
 62
   250
100
AcDbSpline
210
0.0
220
0.0
230
1.0
 70
    11
 71
     3
 72
    40
 73
    36
 74
     0
 42
0.0000000001
 43
0.0000000001
 12
1.0
 22
0.0
 32
0.0
 13
1.0
 23
0.0
 33
0.0
 40
0.0
 40
0.0
 40
0.0
 40
0.0
 40
0.1
 40
0.1
 40
0.1
 40
0.1
 40
0.2
 40
0.2
 40
0.2
 40
0.2
 40
0.3
 40
0.3
 40
0.3
 40
0.3
 40
0.4
 40
0.4
 40
0.4
 40
0.4
 40
0.5
 40
0.5
 40
0.5
 40
0.5
 40
0.6
 40
0.6
 40
0.6
 40
0.6
 40
0.7
 40
0.7
 40
0.7
 40
0.7
 40
0.8
 40
0.8
 40
0.8
 40
0.8
 40
1.0
 40
1.0
 40
1.0
 40
1.0
 10
-176.7074
 20
-100.0882
 30
0.0
 10
-175.6646
 20
-101.8607
 30
0.0
 10
-175.1961
 20
-103.6277
 30
0.0
 10
-174.7911
 20
-106.0668
 30
0.0
 10
-174.7911
 20
-106.0668
 30
0.0
 10
-174.5704
 20
-107.3964
 30
0.0
 10
-174.8132
 20
-108.9245
 30
0.0
 10
-174.4079
 20
-110.0526
 30
0.0
 10
-174.4079
 20
-110.0526
 30
0.0
 10
-174.3057
 20
-110.0526
 30
0.0
 10
-174.2035
 20
-110.0526
 30
0.0
 10
-174.1013
 20
-110.0526
 30
0.0
 10
-174.1013
 20
-110.0526
 30
0.0
 10
-171.4962
 20
-106.3986
 30
0.0
 10
-169.0385
 20
-102.5035
 30
0.0
 10
-166.8963
 20
-98.402
 30
0.0
 10
-166.8963
 20
-98.402
 30
0.0
 10
-166.4452
 20
-97.5384
 30
0.0
 10
-164.7066
 20
-95.0794
 30
0.0
 10
-164.9034
 20
-93.8797
 30
0.0
 10
-164.9034
 20
-93.8797
 30
0.0
 10
-165.1793
 20
-92.1975
 30
0.0
 10
-169.2708
 20
-87.5914
 30
0.0
 10
-170.4988
 20
-86.4447
 30
0.0
 10
-170.4988
 20
-86.4447
 30
0.0
 10
-170.601
 20
-86.4447
 30
0.0
 10
-170.7032
 20
-86.4447
 30
0.0
 10
-170.8054
 20
-86.4447
 30
0.0
 10
-170.8054
 20
-86.4447
 30
0.0
 10
-173.0931
 20
-88.1053
 30
0.0
 10
-174.1338
 20
-93.0409
 30
0.0
 10
-175.251
 20
-96.0258
 30
0.0
 10
-175.251
 20
-96.0258
 30
0.0
 10
-175.7291
 20
-97.3031
 30
0.0
 10
-176.6832
 20
-98.4752
 30
0.0
 10
-176.7074
 20
-100.0882
 30
0.0
  0
SPLINE
  5
52
330
1F
100
AcDbEntity
  8
layer 1
 62
   250
100
AcDbSpline
210
0.0
220
0.0
230
1.0
 70
    11
 71
     3
 72
    44
 73
    40
 74
     0
 42
0.0000000001
 43
0.0000000001
 12
1.0
 22
0.0
 32
0.0
 13
1.0
 23
0.0
 33
0.0
 40
0.0
 40
0.0
 40
0.0
 40
0.0
 40
0.0909090909090909
 40
0.0909090909090909
 40
0.0909090909090909
 40
0.0909090909090909
 40
0.1818181818181818
 40
0.1818181818181818
 40
0.1818181818181818
 40
0.1818181818181818
 40
0.2727272727272727
 40
0.2727272727272727
 40
0.2727272727272727
 40
0.2727272727272727
 40
0.3636363636363636
 40
0.3636363636363636
 40
0.3636363636363636
 40
0.3636363636363636
 40
0.4545454545454545
 40
0.4545454545454545
 40
0.4545454545454545
 40
0.4545454545454545
 40
0.5454545454545454
 40
0.5454545454545454
 40
0.5454545454545454
 40
0.5454545454545454
 40
0.6363636363636364
 40
0.6363636363636364
 40
0.6363636363636364
 40
0.6363636363636364
 40
0.7272727272727273
 40
0.7272727272727273
 40
0.7272727272727273
 40
0.7272727272727273
 40
0.8181818181818182
 40
0.8181818181818182
 40
0.8181818181818182
 40
0.8181818181818182
 40
1.0
 40
1.0
 40
1.0
 40
1.0
 10
-176.3241
 20
2.6981
 30
0.0
 10
-175.7604
 20
1.1932
 30
0.0
 10
-175.8674
 20
-0.2606
 30
0.0
 10
-175.4043
 20
-1.6709
 30
0.0
 10
-175.4043
 20
-1.6709
 30
0.0
 10
-174.7625
 20
-3.6255
 30
0.0
 10
-173.5886
 20
-5.4598
 30
0.0
 10
-173.0282
 20
-7.3429
 30
0.0
 10
-173.0282
 20
-7.3429
 30
0.0
 10
-172.5575
 20
-8.9248
 30
0.0
 10
-172.8113
 20
-11.292
 30
0.0
 10
-172.0318
 20
-12.6317
 30
0.0
 10
-172.0318
 20
-12.6317
 30
0.0
 10
-171.1689
 20
-14.1147
 30
0.0
 10
-168.8422
 20
-15.1018
 30
0.0
 10
-167.4328
 20
-16.0809
 30
0.0
 10
-167.4328
 20
-16.0809
 30
0.0
 10
-166.452
 20
-16.7623
 30
0.0
 10
-165.3245
 20
-18.1037
 30
0.0
 10
-163.907
 20
-18.2271
 30
0.0
 10
-163.907
 20
-18.2271
 30
0.0
 10
-163.8814
 20
-18.1504
 30
0.0
 10
-163.8558
 20
-18.0738
 30
0.0
 10
-163.8303
 20
-17.9971
 30
0.0
 10
-163.8303
 20
-17.9971
 30
0.0
 10
-163.5073
 20
-17.0645
 30
0.0
 10
-163.9777
 20
-14.6253
 30
0.0
 10
-164.2135
 20
-13.4748
 30
0.0
 10
-164.2135
 20
-13.4748
 30
0.0
 10
-164.9395
 20
-9.9341
 30
0.0
 10
-164.7321
 20
-6.5473
 30
0.0
 10
-165.4399
 20
-3.2039
 30
0.0
 10
-165.4399
 20
-3.2039
 30
0.0
 10
-165.8109
 20
-1.4515
 30
0.0
 10
-165.5951
 20
0.9067
 30
0.0
 10
-166.8196
 20
1.7783
 30
0.0
 10
-166.8196
 20
1.7783
 30
0.0
 10
-167.8422
 20
2.5062
 30
0.0
 10
-175.9184
 20
4.2997
 30
0.0
 10
-176.3241
 20
2.6981
 30
0.0
  0
SPLINE
  5
53
330
1F
100
AcDbEntity
  8
layer 1
 62
   250
100
AcDbSpline
210
0.0
220
0.0
230
1.0
 70
    11
 71
     3
 72
    48
 73
    44
 74
     0
 42
0.0000000001
 43
0.0000000001
 12
1.0
 22
0.0
 32
0.0
 13
1.0
 23
0.0
 33
0.0
 40
0.0
 40
0.0
 40
0.0
 40
0.0
 40
0.0833333333333333
 40
0.0833333333333333
 40
0.0833333333333333
 40
0.0833333333333333
 40
0.1666666666666667
 40
0.1666666666666667
 40
0.1666666666666667
 40
0.1666666666666667
 40
0.25
 40
0.25
 40
0.25
 40
0.25
 40
0.3333333333333333
 40
0.3333333333333333
 40
0.3333333333333333
 40
0.3333333333333333
 40
0.4166666666666667
 40
0.4166666666666667
 40
0.4166666666666667
 40
0.4166666666666667
 40
0.5
 40
0.5
 40
0.5
 40
0.5
 40
0.5833333333333334
 40
0.5833333333333334
 40
0.5833333333333334
 40
0.5833333333333334
 40
0.6666666666666666
 40
0.6666666666666666
 40
0.6666666666666666
 40
0.6666666666666666
 40
0.75
 40
0.75
 40
0.75
 40
0.75
 40
0.8333333333333334
 40
0.8333333333333334
 40
0.8333333333333334
 40
0.8333333333333334
 40
1.0
 40
1.0
 40
1.0
 40
1.0
 10
-173.4114
 20
41.8658
 30
0.0
 10
-172.0559
 20
39.0883
 30
0.0
 10
-170.9686
 20
34.9493
 30
0.0
 10
-168.046
 20
33.8943
 30
0.0
 10
-168.046
 20
33.8943
 30
0.0
 10
-162.6761
 20
31.9558
 30
0.0
 10
-158.6977
 20
40.3487
 30
0.0
 10
-159.7679
 20
45.7748
 30
0.0
 10
-159.7679
 20
45.7748
 30
0.0
 10
-161.6412
 20
46.1242
 30
0.0
 10
-162.0912
 20
41.7467
 30
0.0
 10
-164.5201
 20
41.6358
 30
0.0
 10
-164.5201
 20
41.6358
 30
0.0
 10
-164.7245
 20
41.7125
 30
0.0
 10
-164.929
 20
41.7891
 30
0.0
 10
-165.1333
 20
41.8658
 30
0.0
 10
-165.1333
 20
41.8658
 30
0.0
 10
-165.3888
 20
42.249
 30
0.0
 10
-165.6444
 20
42.6323
 30
0.0
 10
-165.8998
 20
43.0155
 30
0.0
 10
-165.8998
 20
43.0155
 30
0.0
 10
-166.9094
 20
45.9373
 30
0.0
 10
-166.4275
 20
47.9852
 30
0.0
 10
-169.2724
 20
49.0708
 30
0.0
 10
-169.2724
 20
49.0708
 30
0.0
 10
-169.7343
 20
49.247
 30
0.0
 10
-170.5894
 20
49.614
 30
0.0
 10
-171.1886
 20
49.3774
 30
0.0
 10
-171.1886
 20
49.3774
 30
0.0
 10
-171.2653
 20
49.3263
 30
0.0
 10
-171.3419
 20
49.2752
 30
0.0
 10
-171.4186
 20
49.2241
 30
0.0
 10
-171.4186
 20
49.2241
 30
0.0
 10
-171.3419
 20
48.5854
 30
0.0
 10
-171.2653
 20
47.9465
 30
0.0
 10
-171.1886
 20
47.3078
 30
0.0
 10
-171.1886
 20
47.3078
 30
0.0
 10
-171.4387
 20
46.0422
 30
0.0
 10
-172.4737
 20
45.8166
 30
0.0
 10
-173.0282
 20
44.9317
 30
0.0
 10
-173.0282
 20
44.9317
 30
0.0
 10
-173.4832
 20
44.2056
 30
0.0
 10
-173.4068
 20
43.0474
 30
0.0
 10
-173.4114
 20
41.8658
 30
0.0
  0
SPLINE
  5
54
330
1F
100
AcDbEntity
  8
layer 1
 62
   250
100
AcDbSpline
210
0.0
220
0.0
230
1.0
 70
    11
 71
     3
 72
    20
 73
    16
 74
     0
 42
0.0000000001
 43
0.0000000001
 12
1.0
 22
0.0
 32
0.0
 13
1.0
 23
0.0
 33
0.0
 40
0.0
 40
0.0
 40
0.0
 40
0.0
 40
0.2
 40
0.2
 40
0.2
 40
0.2
 40
0.4
 40
0.4
 40
0.4
 40
0.4
 40
0.6
 40
0.6
 40
0.6
 40
0.6
 40
1.0
 40
1.0
 40
1.0
 40
1.0
 10
-170.8054
 20
-18.8402
 30
0.0
 10
-170.4007
 20
-19.8633
 30
0.0
 10
-168.5305
 20
-22.9314
 30
0.0
 10
-167.6628
 20
-23.2093
 30
0.0
 10
-167.6628
 20
-23.2093
 30
0.0
 10
-166.6441
 20
-23.5354
 30
0.0
 10
-165.5121
 20
-22.02
 30
0.0
 10
-165.0567
 20
-21.5996
 30
0.0
 10
-165.0567
 20
-21.5996
 30
0.0
 10
-165.1385
 20
-20.1605
 30
0.0
 10
-168.9983
 20
-17.97
 30
0.0
 10
-170.4988
 20
-18.2271
 30
0.0
 10
-170.4988
 20
-18.2271
 30
0.0
 10
-170.601
 20
-18.4314
 30
0.0
 10
-170.7032
 20
-18.6359
 30
0.0
 10
-170.8054
 20
-18.8402
 30
0.0
  0
SPLINE
  5
55
330
1F
100
AcDbEntity
  8
layer 1
 62
   250
100
AcDbSpline
210
0.0
220
0.0
230
1.0
 70
    11
 71
     3
 72
    24
 73
    20
 74
     0
 42
0.0000000001
 43
0.0000000001
 12
1.0
 22
0.0
 32
0.0
 13
1.0
 23
0.0
 33
0.0
 40
0.0
 40
0.0
 40
0.0
 40
0.0
 40
0.1666666666666667
 40
0.1666666666666667
 40
0.1666666666666667
 40
0.1666666666666667
 40
0.3333333333333333
 40
0.3333333333333333
 40
0.3333333333333333
 40
0.3333333333333333
 40
0.5
 40
0.5
 40
0.5
 40
0.5
 40
0.6666666666666666
 40
0.6666666666666666
 40
0.6666666666666666
 40
0.6666666666666666
 40
1.0
 40
1.0
 40
1.0
 40
1.0
 10
-169.9622
 20
-110.0526
 30
0.0
 10
-169.0276
 20
-110.3391
 30
0.0
 10
-163.8517
 20
-110.5318
 30
0.0
 10
-162.7572
 20
-109.976
 30
0.0
 10
-162.7572
 20
-109.976
 30
0.0
 10
-162.2065
 20
-107.9802
 30
0.0
 10
-163.3966
 20
-106.1704
 30
0.0
 10
-163.907
 20
-104.1506
 30
0.0
 10
-163.907
 20
-104.1506
 30
0.0
 10
-163.9836
 20
-102.8477
 30
0.0
 10
-164.0603
 20
-101.5444
 30
0.0
 10
-164.1369
 20
-100.2415
 30
0.0
 10
-164.1369
 20
-100.2415
 30
0.0
 10
-164.2135
 20
-100.2415
 30
0.0
 10
-164.2902
 20
-100.2415
 30
0.0
 10
-164.3669
 20
-100.2415
 30
0.0
 10
-164.3669
 20
-100.2415
 30
0.0
 10
-165.2024
 20
-100.9296
 30
0.0
 10
-169.8576
 20
-108.7761
 30
0.0
 10
-169.9622
 20
-110.0526
 30
0.0
  0
SPLINE
  5
56
330
1F
100
AcDbEntity
  8
layer 1
 62
   250
100
AcDbSpline
210
0.0
220
0.0
230
1.0
 70
    11
 71
     3
 72
    44
 73
    40
 74
     0
 42
0.0000000001
 43
0.0000000001
 12
1.0
 22
0.0
 32
0.0
 13
1.0
 23
0.0
 33
0.0
 40
0.0
 40
0.0
 40
0.0
 40
0.0
 40
0.0909090909090909
 40
0.0909090909090909
 40
0.0909090909090909
 40
0.0909090909090909
 40
0.1818181818181818
 40
0.1818181818181818
 40
0.1818181818181818
 40
0.1818181818181818
 40
0.2727272727272727
 40
0.2727272727272727
 40
0.2727272727272727
 40
0.2727272727272727
 40
0.3636363636363636
 40
0.3636363636363636
 40
0.3636363636363636
 40
0.3636363636363636
 40
0.4545454545454545
 40
0.4545454545454545
 40
0.4545454545454545
 40
0.4545454545454545
 40
0.5454545454545454
 40
0.5454545454545454
 40
0.5454545454545454
 40
0.5454545454545454
 40
0.6363636363636364
 40
0.6363636363636364
 40
0.6363636363636364
 40
0.6363636363636364
 40
0.7272727272727273
 40
0.7272727272727273
 40
0.7272727272727273
 40
0.7272727272727273
 40
0.8181818181818182
 40
0.8181818181818182
 40
0.8181818181818182
 40
0.8181818181818182
 40
1.0
 40
1.0
 40
1.0
 40
1.0
 10
-157.6984
 20
-49.04
 30
0.0
 10
-158.3626
 20
-49.2699
 30
0.0
 10
-159.027
 20
-49.4999
 30
0.0
 10
-159.6912
 20
-49.7298
 30
0.0
 10
-159.6912
 20
-49.7298
 30
0.0
 10
-161.1383
 20
-49.993
 30
0.0
 10
-162.2251
 20
-49.3075
 30
0.0
 10
-163.5237
 20
-49.5765
 30
0.0
 10
-163.5237
 20
-49.5765
 30
0.0
 10
-166.204
 20
-50.1319
 30
0.0
 10
-169.7871
 20
-53.0129
 30
0.0
 10
-168.6592
 20
-56.7049
 30
0.0
 10
-168.6592
 20
-56.7049
 30
0.0
 10
-168.6337
 20
-56.7049
 30
0.0
 10
-168.6081
 20
-56.7049
 30
0.0
 10
-168.5825
 20
-56.7049
 30
0.0
 10
-168.5825
 20
-56.7049
 30
0.0
 10
-167.9962
 20
-56.5098
 30
0.0
 10
-167.2416
 20
-55.9274
 30
0.0
 10
-166.5897
 20
-56.0917
 30
0.0
 10
-166.5897
 20
-56.0917
 30
0.0
 10
-166.1127
 20
-56.1579
 30
0.0
 10
-165.9118
 20
-56.3338
 30
0.0
 10
-165.7465
 20
-56.7049
 30
0.0
 10
-165.7465
 20
-56.7049
 30
0.0
 10
-164.9734
 20
-58.1127
 30
0.0
 10
-166.568
 20
-59.4851
 30
0.0
 10
-165.9765
 20
-60.8439
 30
0.0
 10
-165.9765
 20
-60.8439
 30
0.0
 10
-165.8487
 20
-60.9206
 30
0.0
 10
-165.721
 20
-60.9972
 30
0.0
 10
-165.5932
 20
-61.0739
 30
0.0
 10
-165.5932
 20
-61.0739
 30
0.0
 10
-162.2133
 20
-61.132
 30
0.0
 10
-157.9527
 20
-58.3672
 30
0.0
 10
-157.3918
 20
-55.6318
 30
0.0
 10
-157.3918
 20
-55.6318
 30
0.0
 10
-156.9591
 20
-53.5219
 30
0.0
 10
-157.6327
 20
-51.236
 30
0.0
 10
-157.6984
 20
-49.04
 30
0.0
  0
SPLINE
  5
57
330
1F
100
AcDbEntity
  8
layer 1
 62
   250
100
AcDbSpline
210
0.0
220
0.0
230
1.0
 70
    11
 71
     3
 72
    40
 73
    36
 74
     0
 42
0.0000000001
 43
0.0000000001
 12
1.0
 22
0.0
 32
0.0
 13
1.0
 23
0.0
 33
0.0
 40
0.0
 40
0.0
 40
0.0
 40
0.0
 40
0.1
 40
0.1
 40
0.1
 40
0.1
 40
0.2
 40
0.2
 40
0.2
 40
0.2
 40
0.3
 40
0.3
 40
0.3
 40
0.3
 40
0.4
 40
0.4
 40
0.4
 40
0.4
 40
0.5
 40
0.5
 40
0.5
 40
0.5
 40
0.6
 40
0.6
 40
0.6
 40
0.6
 40
0.7
 40
0.7
 40
0.7
 40
0.7
 40
0.8
 40
0.8
 40
0.8
 40
0.8
 40
1.0
 40
1.0
 40
1.0
 40
1.0
 10
-168.6592
 20
98.0495
 30
0.0
 10
-168.5826
 20
97.3342
 30
0.0
 10
-168.5059
 20
96.6186
 30
0.0
 10
-168.4293
 20
95.9033
 30
0.0
 10
-168.4293
 20
95.9033
 30
0.0
 10
-168.0558
 20
94.5036
 30
0.0
 10
-167.5858
 20
92.8673
 30
0.0
 10
-166.8196
 20
91.8409
 30
0.0
 10
-166.8196
 20
91.8409
 30
0.0
 10
-166.7174
 20
91.8409
 30
0.0
 10
-166.6152
 20
91.8409
 30
0.0
 10
-166.513
 20
91.8409
 30
0.0
 10
-166.513
 20
91.8409
 30
0.0
 10
-165.7977
 20
92.4029
 30
0.0
 10
-165.0822
 20
92.9652
 30
0.0
 10
-164.3669
 20
93.5272
 30
0.0
 10
-164.3669
 20
93.5272
 30
0.0
 10
-161.8598
 20
96.2711
 30
0.0
 10
-160.0014
 20
99.6159
 30
0.0
 10
-158.8481
 20
103.7215
 30
0.0
 10
-158.8481
 20
103.7215
 30
0.0
 10
-158.4801
 20
105.0316
 30
0.0
 10
-157.7104
 20
108.9699
 30
0.0
 10
-158.9248
 20
109.7001
 30
0.0
 10
-158.9248
 20
109.7001
 30
0.0
 10
-158.9503
 20
109.7257
 30
0.0
 10
-158.9759
 20
109.7512
 30
0.0
 10
-159.0014
 20
109.7768
 30
0.0
 10
-159.0014
 20
109.7768
 30
0.0
 10
-160.2521
 20
109.5802
 30
0.0
 10
-161.2751
 20
108.3726
 30
0.0
 10
-162.144
 20
107.7073
 30
0.0
 10
-162.144
 20
107.7073
 30
0.0
 10
-164.9871
 20
105.5303
 30
0.0
 10
-168.7004
 20
103.0238
 30
0.0
 10
-168.6592
 20
98.0495
 30
0.0
  0
SPLINE
  5
58
330
1F
100
AcDbEntity
  8
layer 1
 62
   250
100
AcDbSpline
210
0.0
220
0.0
230
1.0
 70
    11
 71
     3
 72
    32
 73
    28
 74
     0
 42
0.0000000001
 43
0.0000000001
 12
1.0
 22
0.0
 32
0.0
 13
1.0
 23
0.0
 33
0.0
 40
0.0
 40
0.0
 40
0.0
 40
0.0
 40
0.125
 40
0.125
 40
0.125
 40
0.125
 40
0.25
 40
0.25
 40
0.25
 40
0.25
 40
0.375
 40
0.375
 40
0.375
 40
0.375
 40
0.5
 40
0.5
 40
0.5
 40
0.5
 40
0.625
 40
0.625
 40
0.625
 40
0.625
 40
0.75
 40
0.75
 40
0.75
 40
0.75
 40
1.0
 40
1.0
 40
1.0
 40
1.0
 10
-163.6004
 20
-94.4928
 30
0.0
 10
-163.4634
 20
-94.6564
 30
0.0
 10
-163.4967
 20
-94.6793
 30
0.0
 10
-163.2938
 20
-94.7994
 30
0.0
 10
-163.2938
 20
-94.7994
 30
0.0
 10
-161.7733
 20
-95.4952
 30
0.0
 10
-160.4365
 20
-93.7653
 30
0.0
 10
-159.8446
 20
-92.9599
 30
0.0
 10
-159.8446
 20
-92.9599
 30
0.0
 10
-157.9545
 20
-90.3879
 30
0.0
 10
-155.3946
 20
-88.0913
 30
0.0
 10
-153.0228
 20
-85.9848
 30
0.0
 10
-153.0228
 20
-85.9848
 30
0.0
 10
-151.9069
 20
-84.9938
 30
0.0
 10
-150.081
 20
-84.4197
 30
0.0
 10
-150.4934
 20
-82.1523
 30
0.0
 10
-150.4934
 20
-82.1523
 30
0.0
 10
-150.6466
 20
-82.0757
 30
0.0
 10
-150.8
 20
-81.9991
 30
0.0
 10
-150.9532
 20
-81.9224
 30
0.0
 10
-150.9532
 20
-81.9224
 30
0.0
 10
-153.8173
 20
-82.6443
 30
0.0
 10
-159.4545
 20
-88.223
 30
0.0
 10
-161.2242
 20
-90.4305
 30
0.0
 10
-161.2242
 20
-90.4305
 30
0.0
 10
-162.1449
 20
-91.5789
 30
0.0
 10
-163.5714
 20
-92.4771
 30
0.0
 10
-163.6004
 20
-94.4928
 30
0.0
  0
SPLINE
  5
59
330
1F
100
AcDbEntity
  8
layer 1
 62
   250
100
AcDbSpline
210
0.0
220
0.0
230
1.0
 70
    11
 71
     3
 72
    48
 73
    44
 74
     0
 42
0.0000000001
 43
0.0000000001
 12
1.0
 22
0.0
 32
0.0
 13
1.0
 23
0.0
 33
0.0
 40
0.0
 40
0.0
 40
0.0
 40
0.0
 40
0.0833333333333333
 40
0.0833333333333333
 40
0.0833333333333333
 40
0.0833333333333333
 40
0.1666666666666667
 40
0.1666666666666667
 40
0.1666666666666667
 40
0.1666666666666667
 40
0.25
 40
0.25
 40
0.25
 40
0.25
 40
0.3333333333333333
 40
0.3333333333333333
 40
0.3333333333333333
 40
0.3333333333333333
 40
0.4166666666666667
 40
0.4166666666666667
 40
0.4166666666666667
 40
0.4166666666666667
 40
0.5
 40
0.5
 40
0.5
 40
0.5
 40
0.5833333333333334
 40
0.5833333333333334
 40
0.5833333333333334
 40
0.5833333333333334
 40
0.6666666666666666
 40
0.6666666666666666
 40
0.6666666666666666
 40
0.6666666666666666
 40
0.75
 40
0.75
 40
0.75
 40
0.75
 40
0.8333333333333334
 40
0.8333333333333334
 40
0.8333333333333334
 40
0.8333333333333334
 40
1.0
 40
1.0
 40
1.0
 40
1.0
 10
-161.6075
 20
-2.8973
 30
0.0
 10
-161.5053
 20
-4.1235
 30
0.0
 10
-161.4031
 20
-5.3501
 30
0.0
 10
-161.3009
 20
-6.5764
 30
0.0
 10
-161.3009
 20
-6.5764
 30
0.0
 10
-160.688
 20
-10.1967
 30
0.0
 10
-160.8357
 20
-14.5011
 30
0.0
 10
-159.9978
 20
-18.0738
 30
0.0
 10
-159.9978
 20
-18.0738
 30
0.0
 10
-159.6112
 20
-19.7224
 30
0.0
 10
-159.9362
 20
-21.4002
 30
0.0
 10
-159.1547
 20
-22.5961
 30
0.0
 10
-159.1547
 20
-22.5961
 30
0.0
 10
-158.0647
 20
-24.2642
 30
0.0
 10
-155.5431
 20
-23.6042
 30
0.0
 10
-153.2527
 20
-23.8991
 30
0.0
 10
-153.2527
 20
-23.8991
 30
0.0
 10
-151.759
 20
-24.0914
 30
0.0
 10
-150.7736
 20
-25.4422
 30
0.0
 10
-149.4203
 20
-24.5123
 30
0.0
 10
-149.4203
 20
-24.5123
 30
0.0
 10
-149.1346
 20
-20.9164
 30
0.0
 10
-151.5091
 20
-18.6946
 30
0.0
 10
-152.2563
 20
-15.9276
 30
0.0
 10
-152.2563
 20
-15.9276
 30
0.0
 10
-152.8147
 20
-13.8597
 30
0.0
 10
-152.9555
 20
-11.1878
 30
0.0
 10
-154.1725
 20
-9.719
 30
0.0
 10
-154.1725
 20
-9.719
 30
0.0
 10
-155.406
 20
-8.2303
 30
0.0
 10
-157.7999
 20
-7.7737
 30
0.0
 10
-159.0014
 20
-6.2698
 30
0.0
 10
-159.0014
 20
-6.2698
 30
0.0
 10
-159.7934
 20
-4.8647
 30
0.0
 10
-160.5856
 20
-3.4592
 30
0.0
 10
-161.3775
 20
-2.0541
 30
0.0
 10
-161.3775
 20
-2.0541
 30
0.0
 10
-161.4542
 20
-2.0797
 30
0.0
 10
-161.5308
 20
-2.1052
 30
0.0
 10
-161.6075
 20
-2.1308
 30
0.0
 10
-161.6075
 20
-2.1308
 30
0.0
 10
-161.6075
 20
-2.3862
 30
0.0
 10
-161.6075
 20
-2.6418
 30
0.0
 10
-161.6075
 20
-2.8973
 30
0.0
  0
SPLINE
  5
5A
330
1F
100
AcDbEntity
  8
layer 1
 62
   250
100
AcDbSpline
210
0.0
220
0.0
230
1.0
 70
    11
 71
     3
 72
    28
 73
    24
 74
     0
 42
0.0000000001
 43
0.0000000001
 12
1.0
 22
0.0
 32
0.0
 13
1.0
 23
0.0
 33
0.0
 40
0.0
 40
0.0
 40
0.0
 40
0.0
 40
0.1428571428571428
 40
0.1428571428571428
 40
0.1428571428571428
 40
0.1428571428571428
 40
0.2857142857142857
 40
0.2857142857142857
 40
0.2857142857142857
 40
0.2857142857142857
 40
0.4285714285714285
 40
0.4285714285714285
 40
0.4285714285714285
 40
0.4285714285714285
 40
0.5714285714285714
 40
0.5714285714285714
 40
0.5714285714285714
 40
0.5714285714285714
 40
0.7142857142857143
 40
0.7142857142857143
 40
0.7142857142857143
 40
0.7142857142857143
 40
1.0
 40
1.0
 40
1.0
 40
1.0
 10
-160.2278
 20
-100.3948
 30
0.0
 10
-159.7546
 20
-101.4457
 30
0.0
 10
-158.9621
 20
-102.3086
 30
0.0
 10
-158.6182
 20
-103.3075
 30
0.0
 10
-158.6182
 20
-103.3075
 30
0.0
 10
-158.2793
 20
-104.2917
 30
0.0
 10
-159.1581
 20
-104.9161
 30
0.0
 10
-158.3116
 20
-105.4537
 30
0.0
 10
-158.3116
 20
-105.4537
 30
0.0
 10
-158.0344
 20
-105.6065
 30
0.0
 10
-157.8476
 20
-105.6269
 30
0.0
 10
-157.6217
 20
-105.4537
 30
0.0
 10
-157.6217
 20
-105.4537
 30
0.0
 10
-154.2969
 20
-103.5834
 30
0.0
 10
-157.6943
 20
-100.264
 30
0.0
 10
-158.8481
 20
-98.6319
 30
0.0
 10
-158.8481
 20
-98.6319
 30
0.0
 10
-159.4659
 20
-98.6745
 30
0.0
 10
-159.4971
 20
-98.8938
 30
0.0
 10
-159.8446
 20
-99.1684
 30
0.0
 10
-159.8446
 20
-99.1684
 30
0.0
 10
-159.9723
 20
-99.5772
 30
0.0
 10
-160.1
 20
-99.9861
 30
0.0
 10
-160.2278
 20
-100.3948
 30
0.0
  0
SPLINE
  5
5B
330
1F
100
AcDbEntity
  8
layer 1
 62
   250
100
AcDbSpline
210
0.0
220
0.0
230
1.0
 70
    11
 71
     3
 72
    44
 73
    40
 74
     0
 42
0.0000000001
 43
0.0000000001
 12
1.0
 22
0.0
 32
0.0
 13
1.0
 23
0.0
 33
0.0
 40
0.0
 40
0.0
 40
0.0
 40
0.0
 40
0.0909090909090909
 40
0.0909090909090909
 40
0.0909090909090909
 40
0.0909090909090909
 40
0.1818181818181818
 40
0.1818181818181818
 40
0.1818181818181818
 40
0.1818181818181818
 40
0.2727272727272727
 40
0.2727272727272727
 40
0.2727272727272727
 40
0.2727272727272727
 40
0.3636363636363636
 40
0.3636363636363636
 40
0.3636363636363636
 40
0.3636363636363636
 40
0.4545454545454545
 40
0.4545454545454545
 40
0.4545454545454545
 40
0.4545454545454545
 40
0.5454545454545454
 40
0.5454545454545454
 40
0.5454545454545454
 40
0.5454545454545454
 40
0.6363636363636364
 40
0.6363636363636364
 40
0.6363636363636364
 40
0.6363636363636364
 40
0.7272727272727273
 40
0.7272727272727273
 40
0.7272727272727273
 40
0.7272727272727273
 40
0.8181818181818182
 40
0.8181818181818182
 40
0.8181818181818182
 40
0.8181818181818182
 40
1.0
 40
1.0
 40
1.0
 40
1.0
 10
-160.0745
 20
56.7357
 30
0.0
 10
-159.819
 20
55.3561
 30
0.0
 10
-159.5635
 20
53.9762
 30
0.0
 10
-159.308
 20
52.5966
 30
0.0
 10
-159.308
 20
52.5966
 30
0.0
 10
-157.9372
 20
48.879
 30
0.0
 10
-155.7054
 20
46.4376
 30
0.0
 10
-152.5629
 20
44.4718
 30
0.0
 10
-152.5629
 20
44.4718
 30
0.0
 10
-150.9774
 20
43.48
 30
0.0
 10
-147.5174
 20
42.646
 30
0.0
 10
-146.1244
 20
44.4718
 30
0.0
 10
-146.1244
 20
44.4718
 30
0.0
 10
-145.4488
 20
45.3572
 30
0.0
 10
-145.1185
 20
46.8795
 30
0.0
 10
-145.3579
 20
48.2276
 30
0.0
 10
-145.3579
 20
48.2276
 30
0.0
 10
-146.0871
 20
52.3345
 30
0.0
 10
-148.8969
 20
53.991
 30
0.0
 10
-151.9497
 20
55.7392
 30
0.0
 10
-151.9497
 20
55.7392
 30
0.0
 10
-152.8949
 20
56.1735
 30
0.0
 10
-153.8405
 20
56.608
 30
0.0
 10
-154.7857
 20
57.0423
 30
0.0
 10
-154.7857
 20
57.0423
 30
0.0
 10
-156.6235
 20
58.3508
 30
0.0
 10
-157.5517
 20
60.7618
 30
0.0
 10
-159.2314
 20
62.2544
 30
0.0
 10
-159.2314
 20
62.2544
 30
0.0
 10
-159.2569
 20
62.2544
 30
0.0
 10
-159.2824
 20
62.2544
 30
0.0
 10
-159.308
 20
62.2544
 30
0.0
 10
-159.308
 20
62.2544
 30
0.0
 10
-159.4102
 20
62.1778
 30
0.0
 10
-159.5124
 20
62.1011
 30
0.0
 10
-159.6146
 20
62.0245
 30
0.0
 10
-159.6146
 20
62.0245
 30
0.0
 10
-159.9801
 20
60.4241
 30
0.0
 10
-160.0607
 20
58.5918
 30
0.0
 10
-160.0745
 20
56.7357
 30
0.0
  0
SPLINE
  5
5C
330
1F
100
AcDbEntity
  8
layer 1
 62
   250
100
AcDbSpline
210
0.0
220
0.0
230
1.0
 70
    11
 71
     3
 72
    48
 73
    44
 74
     0
 42
0.0000000001
 43
0.0000000001
 12
1.0
 22
0.0
 32
0.0
 13
1.0
 23
0.0
 33
0.0
 40
0.0
 40
0.0
 40
0.0
 40
0.0
 40
0.0833333333333333
 40
0.0833333333333333
 40
0.0833333333333333
 40
0.0833333333333333
 40
0.1666666666666667
 40
0.1666666666666667
 40
0.1666666666666667
 40
0.1666666666666667
 40
0.25
 40
0.25
 40
0.25
 40
0.25
 40
0.3333333333333333
 40
0.3333333333333333
 40
0.3333333333333333
 40
0.3333333333333333
 40
0.4166666666666667
 40
0.4166666666666667
 40
0.4166666666666667
 40
0.4166666666666667
 40
0.5
 40
0.5
 40
0.5
 40
0.5
 40
0.5833333333333334
 40
0.5833333333333334
 40
0.5833333333333334
 40
0.5833333333333334
 40
0.6666666666666666
 40
0.6666666666666666
 40
0.6666666666666666
 40
0.6666666666666666
 40
0.75
 40
0.75
 40
0.75
 40
0.75
 40
0.8333333333333334
 40
0.8333333333333334
 40
0.8333333333333334
 40
0.8333333333333334
 40
1.0
 40
1.0
 40
1.0
 40
1.0
 10
-158.8481
 20
27.1492
 30
0.0
 10
-158.3026
 20
26.1239
 30
0.0
 10
-158.0664
 20
25.1787
 30
0.0
 10
-157.1618
 20
24.5431
 30
0.0
 10
-157.1618
 20
24.5431
 30
0.0
 10
-156.1472
 20
23.8301
 30
0.0
 10
-154.7482
 20
23.2304
 30
0.0
 10
-154.0192
 20
22.2436
 30
0.0
 10
-154.0192
 20
22.2436
 30
0.0
 10
-152.9597
 20
20.8094
 30
0.0
 10
-152.8531
 20
18.4182
 30
0.0
 10
-151.873
 20
16.9548
 30
0.0
 10
-151.873
 20
16.9548
 30
0.0
 10
-148.3345
 20
15.9077
 30
0.0
 10
-145.995
 20
20.2144
 30
0.0
 10
-144.5914
 20
22.2436
 30
0.0
 10
-144.5914
 20
22.2436
 30
0.0
 10
-144.06
 20
23.0118
 30
0.0
 10
-143.1634
 20
23.7059
 30
0.0
 10
-142.9818
 20
24.773
 30
0.0
 10
-142.9818
 20
24.773
 30
0.0
 10
-143.0584
 20
24.8241
 30
0.0
 10
-143.135
 20
24.8752
 30
0.0
 10
-143.2117
 20
24.9263
 30
0.0
 10
-143.2117
 20
24.9263
 30
0.0
 10
-145.4345
 20
25.9697
 30
0.0
 10
-148.4819
 20
25.4163
 30
0.0
 10
-150.2634
 20
26.9958
 30
0.0
 10
-150.2634
 20
26.9958
 30
0.0
 10
-152.0211
 20
28.5543
 30
0.0
 10
-152.0197
 20
32.9964
 30
0.0
 10
-153.7126
 20
34.9673
 30
0.0
 10
-153.7126
 20
34.9673
 30
0.0
 10
-154.3107
 20
35.6637
 30
0.0
 10
-155.7496
 20
36.5314
 30
0.0
 10
-156.5487
 20
35.6572
 30
0.0
 10
-156.5487
 20
35.6572
 30
0.0
 10
-155.7575
 20
32.7995
 30
0.0
 10
-157.8912
 20
31.4354
 30
0.0
 10
-158.5415
 20
29.7552
 30
0.0
 10
-158.5415
 20
29.7552
 30
0.0
 10
-158.6437
 20
28.8866
 30
0.0
 10
-158.7459
 20
28.0177
 30
0.0
 10
-158.8481
 20
27.1492
 30
0.0
  0
SPLINE
  5
5D
330
1F
100
AcDbEntity
  8
layer 1
 62
   250
100
AcDbSpline
210
0.0
220
0.0
230
1.0
 70
    11
 71
     3
 72
    28
 73
    24
 74
     0
 42
0.0000000001
 43
0.0000000001
 12
1.0
 22
0.0
 32
0.0
 13
1.0
 23
0.0
 33
0.0
 40
0.0
 40
0.0
 40
0.0
 40
0.0
 40
0.1428571428571428
 40
0.1428571428571428
 40
0.1428571428571428
 40
0.1428571428571428
 40
0.2857142857142857
 40
0.2857142857142857
 40
0.2857142857142857
 40
0.2857142857142857
 40
0.4285714285714285
 40
0.4285714285714285
 40
0.4285714285714285
 40
0.4285714285714285
 40
0.5714285714285714
 40
0.5714285714285714
 40
0.5714285714285714
 40
0.5714285714285714
 40
0.7142857142857143
 40
0.7142857142857143
 40
0.7142857142857143
 40
0.7142857142857143
 40
1.0
 40
1.0
 40
1.0
 40
1.0
 10
-158.6948
 20
-0.8278
 30
0.0
 10
-157.9144
 20
-2.1985
 30
0.0
 10
-156.8956
 20
-3.7946
 30
0.0
 10
-154.7857
 20
-3.2805
 30
0.0
 10
-154.7857
 20
-3.2805
 30
0.0
 10
-154.7346
 20
-3.1783
 30
0.0
 10
-154.6835
 20
-3.0761
 30
0.0
 10
-154.6324
 20
-2.9739
 30
0.0
 10
-154.6324
 20
-2.9739
 30
0.0
 10
-154.8857
 20
-2.1429
 30
0.0
 10
-155.0341
 20
-1.354
 30
0.0
 10
-155.4755
 20
-0.7511
 30
0.0
 10
-155.4755
 20
-0.7511
 30
0.0
 10
-156.1568
 20
-0.56
 30
0.0
 10
-157.5031
 20
-0.0783
 30
0.0
 10
-158.3882
 20
-0.4445
 30
0.0
 10
-158.3882
 20
-0.4445
 30
0.0
 10
-158.4904
 20
-0.4956
 30
0.0
 10
-158.5926
 20
-0.5467
 30
0.0
 10
-158.6948
 20
-0.5978
 30
0.0
 10
-158.6948
 20
-0.5978
 30
0.0
 10
-158.6948
 20
-0.6744
 30
0.0
 10
-158.6948
 20
-0.7511
 30
0.0
 10
-158.6948
 20
-0.8278
 30
0.0
  0
SPLINE
  5
5E
330
1F
100
AcDbEntity
  8
layer 1
 62
   250
100
AcDbSpline
210
0.0
220
0.0
230
1.0
 70
    11
 71
     3
 72
    28
 73
    24
 74
     0
 42
0.0000000001
 43
0.0000000001
 12
1.0
 22
0.0
 32
0.0
 13
1.0
 23
0.0
 33
0.0
 40
0.0
 40
0.0
 40
0.0
 40
0.0
 40
0.1428571428571428
 40
0.1428571428571428
 40
0.1428571428571428
 40
0.1428571428571428
 40
0.2857142857142857
 40
0.2857142857142857
 40
0.2857142857142857
 40
0.2857142857142857
 40
0.4285714285714285
 40
0.4285714285714285
 40
0.4285714285714285
 40
0.4285714285714285
 40
0.5714285714285714
 40
0.5714285714285714
 40
0.5714285714285714
 40
0.5714285714285714
 40
0.7142857142857143
 40
0.7142857142857143
 40
0.7142857142857143
 40
0.7142857142857143
 40
1.0
 40
1.0
 40
1.0
 40
1.0
 10
-158.2349
 20
-69.4286
 30
0.0
 10
-153.6971
 20
-73.4689
 30
0.0
 10
-154.9891
 20
-78.1033
 30
0.0
 10
-145.7411
 20
-76.327
 30
0.0
 10
-145.7411
 20
-76.327
 30
0.0
 10
-144.4963
 20
-76.0879
 30
0.0
 10
-143.0176
 20
-76.1422
 30
0.0
 10
-142.1386
 20
-75.5605
 30
0.0
 10
-142.1386
 20
-75.5605
 30
0.0
 10
-142.3237
 20
-74.1591
 30
0.0
 10
-143.4562
 20
-72.9612
 30
0.0
 10
-144.1315
 20
-71.958
 30
0.0
 10
-144.1315
 20
-71.958
 30
0.0
 10
-145.3158
 20
-70.1984
 30
0.0
 10
-146.6306
 20
-68.0073
 30
0.0
 10
-148.7304
 20
-67.2058
 30
0.0
 10
-148.7304
 20
-67.2058
 30
0.0
 10
-151.4792
 20
-66.1565
 30
0.0
 10
-156.5124
 20
-68.0373
 30
0.0
 10
-158.1583
 20
-69.0454
 30
0.0
 10
-158.1583
 20
-69.0454
 30
0.0
 10
-158.1838
 20
-69.1731
 30
0.0
 10
-158.2094
 20
-69.3009
 30
0.0
 10
-158.2349
 20
-69.4286
 30
0.0
  0
SPLINE
  5
5F
330
1F
100
AcDbEntity
  8
layer 1
 62
   250
100
AcDbSpline
210
0.0
220
0.0
230
1.0
 70
    11
 71
     3
 72
    44
 73
    40
 74
     0
 42
0.0000000001
 43
0.0000000001
 12
1.0
 22
0.0
 32
0.0
 13
1.0
 23
0.0
 33
0.0
 40
0.0
 40
0.0
 40
0.0
 40
0.0
 40
0.0909090909090909
 40
0.0909090909090909
 40
0.0909090909090909
 40
0.0909090909090909
 40
0.1818181818181818
 40
0.1818181818181818
 40
0.1818181818181818
 40
0.1818181818181818
 40
0.2727272727272727
 40
0.2727272727272727
 40
0.2727272727272727
 40
0.2727272727272727
 40
0.3636363636363636
 40
0.3636363636363636
 40
0.3636363636363636
 40
0.3636363636363636
 40
0.4545454545454545
 40
0.4545454545454545
 40
0.4545454545454545
 40
0.4545454545454545
 40
0.5454545454545454
 40
0.5454545454545454
 40
0.5454545454545454
 40
0.5454545454545454
 40
0.6363636363636364
 40
0.6363636363636364
 40
0.6363636363636364
 40
0.6363636363636364
 40
0.7272727272727273
 40
0.7272727272727273
 40
0.7272727272727273
 40
0.7272727272727273
 40
0.8181818181818182
 40
0.8181818181818182
 40
0.8181818181818182
 40
0.8181818181818182
 40
1.0
 40
1.0
 40
1.0
 40
1.0
 10
-155.3223
 20
10.2863
 30
0.0
 10
-154.5047
 20
8.9835
 30
0.0
 10
-153.687
 20
7.6802
 30
0.0
 10
-152.8695
 20
6.3773
 30
0.0
 10
-152.8695
 20
6.3773
 30
0.0
 10
-151.3726
 20
3.8058
 30
0.0
 10
-149.3783
 20
1.4684
 30
0.0
 10
-147.8106
 20
-1.1344
 30
0.0
 10
-147.8106
 20
-1.1344
 30
0.0
 10
-144.9321
 20
-5.9133
 30
0.0
 10
-140.7813
 20
-10.0268
 30
0.0
 10
-137.693
 20
-14.6245
 30
0.0
 10
-137.693
 20
-14.6245
 30
0.0
 10
-136.3631
 20
-16.6044
 30
0.0
 10
-133.8029
 20
-20.5552
 30
0.0
 10
-132.0209
 20
-21.9062
 30
0.0
 10
-132.0209
 20
-21.9062
 30
0.0
 10
-130.6993
 20
-21.8984
 30
0.0
 10
-130.5124
 20
-21.121
 30
0.0
 10
-130.028
 20
-20.2966
 30
0.0
 10
-130.028
 20
-20.2966
 30
0.0
 10
-130.253
 20
-19.3384
 30
0.0
 10
-131.1421
 20
-18.7833
 30
0.0
 10
-131.6377
 20
-18.0738
 30
0.0
 10
-131.6377
 20
-18.0738
 30
0.0
 10
-133.4287
 20
-15.5095
 30
0.0
 10
-135.5555
 20
-13.1765
 30
0.0
 10
-137.3097
 20
-10.6388
 30
0.0
 10
-137.3097
 20
-10.6388
 30
0.0
 10
-142.4223
 20
-3.2429
 30
0.0
 10
-147.9369
 20
3.8595
 30
0.0
 10
-152.9461
 20
11.3594
 30
0.0
 10
-152.9461
 20
11.3594
 30
0.0
 10
-153.8669
 20
11.3546
 30
0.0
 10
-154.7533
 20
11.0522
 30
0.0
 10
-155.3223
 20
10.6696
 30
0.0
 10
-155.3223
 20
10.6696
 30
0.0
 10
-155.3223
 20
10.5419
 30
0.0
 10
-155.3223
 20
10.4141
 30
0.0
 10
-155.3223
 20
10.2863
 30
0.0
  0
SPLINE
  5
60
330
1F
100
AcDbEntity
  8
layer 1
 62
   250
100
AcDbSpline
210
0.0
220
0.0
230
1.0
 70
    11
 71
     3
 72
    32
 73
    28
 74
     0
 42
0.0000000001
 43
0.0000000001
 12
1.0
 22
0.0
 32
0.0
 13
1.0
 23
0.0
 33
0.0
 40
0.0
 40
0.0
 40
0.0
 40
0.0
 40
0.125
 40
0.125
 40
0.125
 40
0.125
 40
0.25
 40
0.25
 40
0.25
 40
0.25
 40
0.375
 40
0.375
 40
0.375
 40
0.375
 40
0.5
 40
0.5
 40
0.5
 40
0.5
 40
0.625
 40
0.625
 40
0.625
 40
0.625
 40
0.75
 40
0.75
 40
0.75
 40
0.75
 40
1.0
 40
1.0
 40
1.0
 40
1.0
 10
-153.9426
 20
-51.0328
 30
0.0
 10
-150.3859
 20
-56.5656
 30
0.0
 10
-146.3829
 20
-61.531
 30
0.0
 10
-141.5254
 20
-65.7495
 30
0.0
 10
-141.5254
 20
-65.7495
 30
0.0
 10
-140.0738
 20
-67.0101
 30
0.0
 10
-138.4093
 20
-69.2542
 30
0.0
 10
-135.93
 20
-69.3519
 30
0.0
 10
-135.93
 20
-69.3519
 30
0.0
 10
-134.9798
 20
-68.7881
 30
0.0
 10
-135.3784
 20
-67.6573
 30
0.0
 10
-135.93
 20
-66.9759
 30
0.0
 10
-135.93
 20
-66.9759
 30
0.0
 10
-140.8686
 20
-64.7937
 30
0.0
 10
-145.3328
 20
-58.8697
 30
0.0
 10
-148.6538
 20
-54.8653
 30
0.0
 10
-148.6538
 20
-54.8653
 30
0.0
 10
-149.5615
 20
-53.7707
 30
0.0
 10
-151.6967
 20
-49.9999
 30
0.0
 10
-153.0994
 20
-49.8065
 30
0.0
 10
-153.0994
 20
-49.8065
 30
0.0
 10
-153.3804
 20
-50.0619
 30
0.0
 10
-153.6615
 20
-50.3175
 30
0.0
 10
-153.9426
 20
-50.5729
 30
0.0
 10
-153.9426
 20
-50.5729
 30
0.0
 10
-153.9426
 20
-50.7262
 30
0.0
 10
-153.9426
 20
-50.8796
 30
0.0
 10
-153.9426
 20
-51.0328
 30
0.0
  0
SPLINE
  5
61
330
1F
100
AcDbEntity
  8
layer 1
 62
   250
100
AcDbSpline
210
0.0
220
0.0
230
1.0
 70
    11
 71
     3
 72
    40
 73
    36
 74
     0
 42
0.0000000001
 43
0.0000000001
 12
1.0
 22
0.0
 32
0.0
 13
1.0
 23
0.0
 33
0.0
 40
0.0
 40
0.0
 40
0.0
 40
0.0
 40
0.1
 40
0.1
 40
0.1
 40
0.1
 40
0.2
 40
0.2
 40
0.2
 40
0.2
 40
0.3
 40
0.3
 40
0.3
 40
0.3
 40
0.4
 40
0.4
 40
0.4
 40
0.4
 40
0.5
 40
0.5
 40
0.5
 40
0.5
 40
0.6
 40
0.6
 40
0.6
 40
0.6
 40
0.7
 40
0.7
 40
0.7
 40
0.7
 40
0.8
 40
0.8
 40
0.8
 40
0.8
 40
1.0
 40
1.0
 40
1.0
 40
1.0
 10
-152.9461
 20
125.4132
 30
0.0
 10
-152.2394
 20
124.0243
 30
0.0
 10
-152.084
 20
122.4345
 30
0.0
 10
-151.2599
 20
121.1975
 30
0.0
 10
-151.2599
 20
121.1975
 30
0.0
 10
-150.1054
 20
119.4648
 30
0.0
 10
-147.7409
 20
117.0387
 30
0.0
 10
-145.7411
 20
116.2153
 30
0.0
 10
-145.7411
 20
116.2153
 30
0.0
 10
-142.2091
 20
114.761
 30
0.0
 10
-138.7826
 20
117.674
 30
0.0
 10
-137.463
 20
119.7412
 30
0.0
 10
-137.463
 20
119.7412
 30
0.0
 10
-137.1564
 20
120.5587
 30
0.0
 10
-136.8498
 20
121.3764
 30
0.0
 10
-136.5432
 20
122.1939
 30
0.0
 10
-136.5432
 20
122.1939
 30
0.0
 10
-135.9094
 20
123.6059
 30
0.0
 10
-134.9565
 20
124.9992
 30
0.0
 10
-135.3935
 20
126.6396
 30
0.0
 10
-135.3935
 20
126.6396
 30
0.0
 10
-136.4356
 20
127.1725
 30
0.0
 10
-138.8339
 20
126.7404
 30
0.0
 10
-139.9924
 20
126.7929
 30
0.0
 10
-139.9924
 20
126.7929
 30
0.0
 10
-144.5608
 20
126.9999
 30
0.0
 10
-148.1562
 20
126.8338
 30
0.0
 10
-152.6395
 20
126.7929
 30
0.0
 10
-152.6395
 20
126.7929
 30
0.0
 10
-152.7417
 20
126.6396
 30
0.0
 10
-152.8439
 20
126.4863
 30
0.0
 10
-152.9461
 20
126.333
 30
0.0
 10
-152.9461
 20
126.333
 30
0.0
 10
-152.9461
 20
126.0264
 30
0.0
 10
-152.9461
 20
125.7198
 30
0.0
 10
-152.9461
 20
125.4132
 30
0.0
  0
SPLINE
  5
62
330
1F
100
AcDbEntity
  8
layer 1
 62
   250
100
AcDbSpline
210
0.0
220
0.0
230
1.0
 70
    11
 71
     3
 72
    56
 73
    52
 74
     0
 42
0.0000000001
 43
0.0000000001
 12
1.0
 22
0.0
 32
0.0
 13
1.0
 23
0.0
 33
0.0
 40
0.0
 40
0.0
 40
0.0
 40
0.0
 40
0.0714285714285714
 40
0.0714285714285714
 40
0.0714285714285714
 40
0.0714285714285714
 40
0.1428571428571428
 40
0.1428571428571428
 40
0.1428571428571428
 40
0.1428571428571428
 40
0.2142857142857143
 40
0.2142857142857143
 40
0.2142857142857143
 40
0.2142857142857143
 40
0.2857142857142857
 40
0.2857142857142857
 40
0.2857142857142857
 40
0.2857142857142857
 40
0.3571428571428572
 40
0.3571428571428572
 40
0.3571428571428572
 40
0.3571428571428572
 40
0.4285714285714285
 40
0.4285714285714285
 40
0.4285714285714285
 40
0.4285714285714285
 40
0.5
 40
0.5
 40
0.5
 40
0.5
 40
0.5714285714285714
 40
0.5714285714285714
 40
0.5714285714285714
 40
0.5714285714285714
 40
0.6428571428571429
 40
0.6428571428571429
 40
0.6428571428571429
 40
0.6428571428571429
 40
0.7142857142857143
 40
0.7142857142857143
 40
0.7142857142857143
 40
0.7142857142857143
 40
0.7857142857142857
 40
0.7857142857142857
 40
0.7857142857142857
 40
0.7857142857142857
 40
0.8571428571428571
 40
0.8571428571428571
 40
0.8571428571428571
 40
0.8571428571428571
 40
1.0
 40
1.0
 40
1.0
 40
1.0
 10
-152.7162
 20
86.3222
 30
0.0
 10
-151.3167
 20
83.9674
 30
0.0
 10
-148.7297
 20
82.2581
 30
0.0
 10
-147.0442
 20
80.1136
 30
0.0
 10
-147.0442
 20
80.1136
 30
0.0
 10
-144.901
 20
77.3871
 30
0.0
 10
-143.3827
 20
73.3882
 30
0.0
 10
-140.6823
 20
71.2223
 30
0.0
 10
-140.6823
 20
71.2223
 30
0.0
 10
-139.128
 20
69.9757
 30
0.0
 10
-137.3368
 20
69.2208
 30
0.0
 10
-135.5468
 20
68.1564
 30
0.0
 10
-135.5468
 20
68.1564
 30
0.0
 10
-134.6304
 20
67.6114
 30
0.0
 10
-133.6768
 20
66.4436
 30
0.0
 10
-132.5575
 20
66.2401
 30
0.0
 10
-132.5575
 20
66.2401
 30
0.0
 10
-130.2135
 20
68.4091
 30
0.0
 10
-128.446
 20
70.8541
 30
0.0
 10
-127.4986
 20
74.4416
 30
0.0
 10
-127.4986
 20
74.4416
 30
0.0
 10
-127.2942
 20
75.7956
 30
0.0
 10
-127.0898
 20
77.15
 30
0.0
 10
-126.8854
 20
78.504
 30
0.0
 10
-126.8854
 20
78.504
 30
0.0
 10
-126.6994
 20
79.3654
 30
0.0
 10
-125.7792
 20
83.3093
 30
0.0
 10
-126.119
 20
83.7928
 30
0.0
 10
-126.119
 20
83.7928
 30
0.0
 10
-126.2257
 20
83.9401
 30
0.0
 10
-126.1267
 20
83.8387
 30
0.0
 10
-126.2722
 20
83.9461
 30
0.0
 10
-126.2722
 20
83.9461
 30
0.0
 10
-128.5322
 20
85.4423
 30
0.0
 10
-132.4294
 20
81.5038
 30
0.0
 10
-135.1635
 20
82.9496
 30
0.0
 10
-135.1635
 20
82.9496
 30
0.0
 10
-135.7256
 20
83.6394
 30
0.0
 10
-136.2878
 20
84.3294
 30
0.0
 10
-136.8498
 20
85.0192
 30
0.0
 10
-136.8498
 20
85.0192
 30
0.0
 10
-138.8872
 20
87.6528
 30
0.0
 10
-141.968
 20
91.5458
 30
0.0
 10
-147.0442
 20
90.3079
 30
0.0
 10
-147.0442
 20
90.3079
 30
0.0
 10
-148.0261
 20
90.0685
 30
0.0
 10
-148.9332
 20
89.5141
 30
0.0
 10
-149.7269
 20
89.0816
 30
0.0
 10
-149.7269
 20
89.0816
 30
0.0
 10
-150.7881
 20
88.5032
 30
0.0
 10
-152.4621
 20
87.6671
 30
0.0
 10
-152.7162
 20
86.3222
 30
0.0
  0
SPLINE
  5
63
330
1F
100
AcDbEntity
  8
layer 1
 62
   250
100
AcDbSpline
210
0.0
220
0.0
230
1.0
 70
    11
 71
     3
 72
    32
 73
    28
 74
     0
 42
0.0000000001
 43
0.0000000001
 12
1.0
 22
0.0
 32
0.0
 13
1.0
 23
0.0
 33
0.0
 40
0.0
 40
0.0
 40
0.0
 40
0.0
 40
0.125
 40
0.125
 40
0.125
 40
0.125
 40
0.25
 40
0.25
 40
0.25
 40
0.25
 40
0.375
 40
0.375
 40
0.375
 40
0.375
 40
0.5
 40
0.5
 40
0.5
 40
0.5
 40
0.625
 40
0.625
 40
0.625
 40
0.625
 40
0.75
 40
0.75
 40
0.75
 40
0.75
 40
1.0
 40
1.0
 40
1.0
 40
1.0
 10
-151.7964
 20
-44.7476
 30
0.0
 10
-148.8753
 20
-47.8701
 30
0.0
 10
-145.7703
 20
-52.7526
 30
0.0
 10
-140.3757
 20
-49.1166
 30
0.0
 10
-140.3757
 20
-49.1166
 30
0.0
 10
-139.5115
 20
-48.5342
 30
0.0
 10
-138.2002
 20
-47.8604
 30
0.0
 10
-138.0762
 20
-46.5872
 30
0.0
 10
-138.0762
 20
-46.5872
 30
0.0
 10
-139.856
 20
-45.5775
 30
0.0
 10
-144.3438
 20
-43.8442
 30
0.0
 10
-141.832
 20
-40.8385
 30
0.0
 10
-141.832
 20
-40.8385
 30
0.0
 10
-141.1613
 20
-40.036
 30
0.0
 10
-139.6195
 20
-40.0733
 30
0.0
 10
-138.9193
 20
-39.3055
 30
0.0
 10
-138.9193
 20
-39.3055
 30
0.0
 10
-139.3355
 20
-38.6019
 30
0.0
 10
-140.0852
 20
-38.2304
 30
0.0
 10
-140.7589
 20
-37.7726
 30
0.0
 10
-140.7589
 20
-37.7726
 30
0.0
 10
-144.8579
 20
-34.9871
 30
0.0
 10
-147.6945
 20
-39.0206
 30
0.0
 10
-149.6502
 20
-41.4517
 30
0.0
 10
-149.6502
 20
-41.4517
 30
0.0
 10
-150.3393
 20
-42.3083
 30
0.0
 10
-151.7254
 20
-43.3899
 30
0.0
 10
-151.7964
 20
-44.7476
 30
0.0
  0
SPLINE
  5
64
330
1F
100
AcDbEntity
  8
layer 1
 62
   250
100
AcDbSpline
210
0.0
220
0.0
230
1.0
 70
    11
 71
     3
 72
    28
 73
    24
 74
     0
 42
0.0000000001
 43
0.0000000001
 12
1.0
 22
0.0
 32
0.0
 13
1.0
 23
0.0
 33
0.0
 40
0.0
 40
0.0
 40
0.0
 40
0.0
 40
0.1428571428571428
 40
0.1428571428571428
 40
0.1428571428571428
 40
0.1428571428571428
 40
0.2857142857142857
 40
0.2857142857142857
 40
0.2857142857142857
 40
0.2857142857142857
 40
0.4285714285714285
 40
0.4285714285714285
 40
0.4285714285714285
 40
0.4285714285714285
 40
0.5714285714285714
 40
0.5714285714285714
 40
0.5714285714285714
 40
0.5714285714285714
 40
0.7142857142857143
 40
0.7142857142857143
 40
0.7142857142857143
 40
0.7142857142857143
 40
1.0
 40
1.0
 40
1.0
 40
1.0
 10
-151.7964
 20
60.1082
 30
0.0
 10
-150.6076
 20
59.7599
 30
0.0
 10
-148.8501
 20
59.6763
 30
0.0
 10
-147.5807
 20
59.8783
 30
0.0
 10
-147.5807
 20
59.8783
 30
0.0
 10
-146.3103
 20
60.0804
 30
0.0
 10
-145.2844
 20
59.8609
 30
0.0
 10
-144.2848
 20
60.2615
 30
0.0
 10
-144.2848
 20
60.2615
 30
0.0
 10
-142.6181
 20
60.9294
 30
0.0
 10
-141.6791
 20
64.3185
 30
0.0
 10
-141.3721
 20
66.3168
 30
0.0
 10
-141.3721
 20
66.3168
 30
0.0
 10
-142.0986
 20
66.6562
 30
0.0
 10
-143.875
 20
66.4525
 30
0.0
 10
-144.5147
 20
66.3935
 30
0.0
 10
-144.5147
 20
66.3935
 30
0.0
 10
-145.8176
 20
66.3424
 30
0.0
 10
-147.1209
 20
66.2912
 30
0.0
 10
-148.4238
 20
66.2401
 30
0.0
 10
-148.4238
 20
66.2401
 30
0.0
 10
-150.0866
 20
65.6252
 30
0.0
 10
-151.7469
 20
62.2963
 30
0.0
 10
-151.7964
 20
60.1082
 30
0.0
  0
SPLINE
  5
65
330
1F
100
AcDbEntity
  8
layer 1
 62
   250
100
AcDbSpline
210
0.0
220
0.0
230
1.0
 70
    11
 71
     3
 72
    44
 73
    40
 74
     0
 42
0.0000000001
 43
0.0000000001
 12
1.0
 22
0.0
 32
0.0
 13
1.0
 23
0.0
 33
0.0
 40
0.0
 40
0.0
 40
0.0
 40
0.0
 40
0.0909090909090909
 40
0.0909090909090909
 40
0.0909090909090909
 40
0.0909090909090909
 40
0.1818181818181818
 40
0.1818181818181818
 40
0.1818181818181818
 40
0.1818181818181818
 40
0.2727272727272727
 40
0.2727272727272727
 40
0.2727272727272727
 40
0.2727272727272727
 40
0.3636363636363636
 40
0.3636363636363636
 40
0.3636363636363636
 40
0.3636363636363636
 40
0.4545454545454545
 40
0.4545454545454545
 40
0.4545454545454545
 40
0.4545454545454545
 40
0.5454545454545454
 40
0.5454545454545454
 40
0.5454545454545454
 40
0.5454545454545454
 40
0.6363636363636364
 40
0.6363636363636364
 40
0.6363636363636364
 40
0.6363636363636364
 40
0.7272727272727273
 40
0.7272727272727273
 40
0.7272727272727273
 40
0.7272727272727273
 40
0.8181818181818182
 40
0.8181818181818182
 40
0.8181818181818182
 40
0.8181818181818182
 40
1.0
 40
1.0
 40
1.0
 40
1.0
 10
-150.0335
 20
-103.844
 30
0.0
 10
-147.7493
 20
-106.6636
 30
0.0
 10
-149.8179
 20
-106.9526
 30
0.0
 10
-149.3436
 20
-109.976
 30
0.0
 10
-149.3436
 20
-109.976
 30
0.0
 10
-147.9029
 20
-110.3685
 30
0.0
 10
-141.8868
 20
-110.3037
 30
0.0
 10
-140.0691
 20
-109.976
 30
0.0
 10
-140.0691
 20
-109.976
 30
0.0
 10
-139.0216
 20
-109.976
 30
0.0
 10
-137.9739
 20
-109.976
 30
0.0
 10
-136.9265
 20
-109.976
 30
0.0
 10
-136.9265
 20
-109.976
 30
0.0
 10
-134.9676
 20
-109.6601
 30
0.0
 10
-132.7513
 20
-110.1808
 30
0.0
 10
-131.1778
 20
-109.8226
 30
0.0
 10
-131.1778
 20
-109.8226
 30
0.0
 10
-131.1267
 20
-109.4394
 30
0.0
 10
-131.0756
 20
-109.0561
 30
0.0
 10
-131.0245
 20
-108.6729
 30
0.0
 10
-131.0245
 20
-108.6729
 30
0.0
 10
-132.5224
 20
-107.5531
 30
0.0
 10
-134.5211
 20
-105.0648
 30
0.0
 10
-137.5396
 20
-105.6836
 30
0.0
 10
-137.5396
 20
-105.6836
 30
0.0
 10
-139.0413
 20
-105.9914
 30
0.0
 10
-139.7748
 20
-107.0908
 30
0.0
 10
-141.3721
 20
-107.1399
 30
0.0
 10
-141.3721
 20
-107.1399
 30
0.0
 10
-142.2765
 20
-106.5721
 30
0.0
 10
-142.5646
 20
-105.8202
 30
0.0
 10
-143.135
 20
-104.9171
 30
0.0
 10
-143.135
 20
-104.9171
 30
0.0
 10
-144.0317
 20
-103.4977
 30
0.0
 10
-147.1592
 20
-101.9068
 30
0.0
 10
-149.4969
 20
-102.311
 30
0.0
 10
-149.4969
 20
-102.311
 30
0.0
 10
-149.9031
 20
-102.6285
 30
0.0
 10
-150.0452
 20
-103.1047
 30
0.0
 10
-150.0335
 20
-103.844
 30
0.0
  0
SPLINE
  5
66
330
1F
100
AcDbEntity
  8
layer 1
 62
   250
100
AcDbSpline
210
0.0
220
0.0
230
1.0
 70
    11
 71
     3
 72
    56
 73
    52
 74
     0
 42
0.0000000001
 43
0.0000000001
 12
1.0
 22
0.0
 32
0.0
 13
1.0
 23
0.0
 33
0.0
 40
0.0
 40
0.0
 40
0.0
 40
0.0
 40
0.0714285714285714
 40
0.0714285714285714
 40
0.0714285714285714
 40
0.0714285714285714
 40
0.1428571428571428
 40
0.1428571428571428
 40
0.1428571428571428
 40
0.1428571428571428
 40
0.2142857142857143
 40
0.2142857142857143
 40
0.2142857142857143
 40
0.2142857142857143
 40
0.2857142857142857
 40
0.2857142857142857
 40
0.2857142857142857
 40
0.2857142857142857
 40
0.3571428571428572
 40
0.3571428571428572
 40
0.3571428571428572
 40
0.3571428571428572
 40
0.4285714285714285
 40
0.4285714285714285
 40
0.4285714285714285
 40
0.4285714285714285
 40
0.5
 40
0.5
 40
0.5
 40
0.5
 40
0.5714285714285714
 40
0.5714285714285714
 40
0.5714285714285714
 40
0.5714285714285714
 40
0.6428571428571429
 40
0.6428571428571429
 40
0.6428571428571429
 40
0.6428571428571429
 40
0.7142857142857143
 40
0.7142857142857143
 40
0.7142857142857143
 40
0.7142857142857143
 40
0.7857142857142857
 40
0.7857142857142857
 40
0.7857142857142857
 40
0.7857142857142857
 40
0.8571428571428571
 40
0.8571428571428571
 40
0.8571428571428571
 40
0.8571428571428571
 40
1.0
 40
1.0
 40
1.0
 40
1.0
 10
-149.6502
 20
108.1672
 30
0.0
 10
-148.7213
 20
106.506
 30
0.0
 10
-147.1676
 20
105.5018
 30
0.0
 10
-146.0477
 20
104.0281
 30
0.0
 10
-146.0477
 20
104.0281
 30
0.0
 10
-144.8163
 20
102.4077
 30
0.0
 10
-144.0505
 20
100.2809
 30
0.0
 10
-142.4452
 20
99.0459
 30
0.0
 10
-142.4452
 20
99.0459
 30
0.0
 10
-141.1957
 20
98.0847
 30
0.0
 10
-139.5324
 20
97.848
 30
0.0
 10
-138.0762
 20
97.0531
 30
0.0
 10
-138.0762
 20
97.0531
 30
0.0
 10
-137.238
 20
96.5955
 30
0.0
 10
-136.94
 20
95.6357
 30
0.0
 10
-136.2366
 20
95.0602
 30
0.0
 10
-136.2366
 20
95.0602
 30
0.0
 10
-136.1344
 20
95.0602
 30
0.0
 10
-136.0322
 20
95.0602
 30
0.0
 10
-135.93
 20
95.0602
 30
0.0
 10
-135.93
 20
95.0602
 30
0.0
 10
-133.8862
 20
96.9251
 30
0.0
 10
-131.8419
 20
98.7906
 30
0.0
 10
-129.7981
 20
100.6556
 30
0.0
 10
-129.7981
 20
100.6556
 30
0.0
 10
-128.7055
 20
102.31
 30
0.0
 10
-128.5236
 20
104.1235
 30
0.0
 10
-128.0352
 20
106.4809
 30
0.0
 10
-128.0352
 20
106.4809
 30
0.0
 10
-127.8169
 20
107.5344
 30
0.0
 10
-126.9571
 20
108.846
 30
0.0
 10
-127.422
 20
109.9301
 30
0.0
 10
-127.422
 20
109.9301
 30
0.0
 10
-127.7371
 20
110.6649
 30
0.0
 10
-128.2794
 20
110.8428
 30
0.0
 10
-128.955
 20
111.2331
 30
0.0
 10
-128.955
 20
111.2331
 30
0.0
 10
-132.6177
 20
113.3496
 30
0.0
 10
-134.2638
 20
108.8305
 30
0.0
 10
-136.0067
 20
107.2474
 30
0.0
 10
-136.0067
 20
107.2474
 30
0.0
 10
-137.1324
 20
107.2485
 30
0.0
 10
-137.6605
 20
107.5473
 30
0.0
 10
-138.3061
 20
108.0139
 30
0.0
 10
-138.3061
 20
108.0139
 30
0.0
 10
-140.1417
 20
109.3404
 30
0.0
 10
-141.1186
 20
111.4531
 30
0.0
 10
-143.365
 20
112.4595
 30
0.0
 10
-143.365
 20
112.4595
 30
0.0
 10
-146.9352
 20
114.059
 30
0.0
 10
-149.6427
 20
111.4069
 30
0.0
 10
-149.6502
 20
108.1672
 30
0.0
  0
SPLINE
  5
67
330
1F
100
AcDbEntity
  8
layer 1
 62
   250
100
AcDbSpline
210
0.0
220
0.0
230
1.0
 70
    11
 71
     3
 72
    24
 73
    20
 74
     0
 42
0.0000000001
 43
0.0000000001
 12
1.0
 22
0.0
 32
0.0
 13
1.0
 23
0.0
 33
0.0
 40
0.0
 40
0.0
 40
0.0
 40
0.0
 40
0.1666666666666667
 40
0.1666666666666667
 40
0.1666666666666667
 40
0.1666666666666667
 40
0.3333333333333333
 40
0.3333333333333333
 40
0.3333333333333333
 40
0.3333333333333333
 40
0.5
 40
0.5
 40
0.5
 40
0.5
 40
0.6666666666666666
 40
0.6666666666666666
 40
0.6666666666666666
 40
0.6666666666666666
 40
1.0
 40
1.0
 40
1.0
 40
1.0
 10
-149.1903
 20
-97.1756
 30
0.0
 10
-149.1137
 20
-97.2522
 30
0.0
 10
-149.037
 20
-97.3289
 30
0.0
 10
-148.9604
 20
-97.4055
 30
0.0
 10
-148.9604
 20
-97.4055
 30
0.0
 10
-143.5888
 20
-97.3529
 30
0.0
 10
-139.2757
 20
-91.5523
 30
0.0
 10
-140.529
 20
-85.4483
 30
0.0
 10
-140.529
 20
-85.4483
 30
0.0
 10
-140.8721
 20
-83.7773
 30
0.0
 10
-140.8099
 20
-82.4843
 30
0.0
 10
-141.4488
 20
-81.2326
 30
0.0
 10
-141.4488
 20
-81.2326
 30
0.0
 10
-141.6276
 20
-81.207
 30
0.0
 10
-141.8065
 20
-81.1815
 30
0.0
 10
-141.9853
 20
-81.1559
 30
0.0
 10
-141.9853
 20
-81.1559
 30
0.0
 10
-147.179
 20
-84.3054
 30
0.0
 10
-149.0419
 20
-89.1696
 30
0.0
 10
-149.1903
 20
-97.1756
 30
0.0
  0
SPLINE
  5
68
330
1F
100
AcDbEntity
  8
layer 1
 62
   250
100
AcDbSpline
210
0.0
220
0.0
230
1.0
 70
    11
 71
     3
 72
    80
 73
    76
 74
     0
 42
0.0000000001
 43
0.0000000001
 12
1.0
 22
0.0
 32
0.0
 13
1.0
 23
0.0
 33
0.0
 40
0.0
 40
0.0
 40
0.0
 40
0.0
 40
0.05
 40
0.05
 40
0.05
 40
0.05
 40
0.1
 40
0.1
 40
0.1
 40
0.1
 40
0.15
 40
0.15
 40
0.15
 40
0.15
 40
0.2
 40
0.2
 40
0.2
 40
0.2
 40
0.25
 40
0.25
 40
0.25
 40
0.25
 40
0.3
 40
0.3
 40
0.3
 40
0.3
 40
0.35
 40
0.35
 40
0.35
 40
0.35
 40
0.4
 40
0.4
 40
0.4
 40
0.4
 40
0.45
 40
0.45
 40
0.45
 40
0.45
 40
0.5
 40
0.5
 40
0.5
 40
0.5
 40
0.55
 40
0.55
 40
0.55
 40
0.55
 40
0.6
 40
0.6
 40
0.6
 40
0.6
 40
0.65
 40
0.65
 40
0.65
 40
0.65
 40
0.7
 40
0.7
 40
0.7
 40
0.7
 40
0.75
 40
0.75
 40
0.75
 40
0.75
 40
0.8
 40
0.8
 40
0.8
 40
0.8
 40
0.85
 40
0.85
 40
0.85
 40
0.85
 40
0.9
 40
0.9
 40
0.9
 40
0.9
 40
1.0
 40
1.0
 40
1.0
 40
1.0
 10
-142.8284
 20
35.7338
 30
0.0
 10
-140.0815
 20
32.042
 30
0.0
 10
-140.9178
 20
25.0499
 30
0.0
 10
-137.693
 20
21.8604
 30
0.0
 10
-137.693
 20
21.8604
 30
0.0
 10
-136.8438
 20
21.0205
 30
0.0
 10
-135.1321
 20
19.7076
 30
0.0
 10
-133.1707
 20
20.3274
 30
0.0
 10
-133.1707
 20
20.3274
 30
0.0
 10
-129.8347
 20
21.3814
 30
0.0
 10
-131.1889
 20
26.838
 30
0.0
 10
-125.4291
 20
25.8461
 30
0.0
 10
-125.4291
 20
25.8461
 30
0.0
 10
-121.8098
 20
25.2228
 30
0.0
 10
-121.5368
 20
17.8658
 30
0.0
 10
-115.6947
 20
20.7873
 30
0.0
 10
-115.6947
 20
20.7873
 30
0.0
 10
-114.5197
 20
21.3748
 30
0.0
 10
-113.9785
 20
22.5925
 30
0.0
 10
-112.8587
 20
23.24
 30
0.0
 10
-112.8587
 20
23.24
 30
0.0
 10
-112.7309
 20
23.2145
 30
0.0
 10
-112.6032
 20
23.1889
 30
0.0
 10
-112.4754
 20
23.1634
 30
0.0
 10
-112.4754
 20
23.1634
 30
0.0
 10
-111.1335
 20
20.2646
 30
0.0
 10
-114.9511
 20
16.8158
 30
0.0
 10
-114.0851
 20
14.5021
 30
0.0
 10
-114.0851
 20
14.5021
 30
0.0
 10
-114.034
 20
14.3999
 30
0.0
 10
-113.9828
 20
14.2976
 30
0.0
 10
-113.9318
 20
14.1955
 30
0.0
 10
-113.9318
 20
14.1955
 30
0.0
 10
-111.6928
 20
13.6605
 30
0.0
 10
-110.6957
 20
15.2959
 30
0.0
 10
-110.176
 20
16.9548
 30
0.0
 10
-110.176
 20
16.9548
 30
0.0
 10
-109.3329
 20
20.7869
 30
0.0
 10
-108.4896
 20
24.6201
 30
0.0
 10
-107.6465
 20
28.4522
 30
0.0
 10
-107.6465
 20
28.4522
 30
0.0
 10
-106.8232
 20
31.0953
 30
0.0
 10
-105.3231
 20
33.3422
 30
0.0
 10
-104.044
 20
35.5805
 30
0.0
 10
-104.044
 20
35.5805
 30
0.0
 10
-103.1935
 20
37.0689
 30
0.0
 10
-102.5748
 20
38.93
 30
0.0
 10
-104.044
 20
40.1795
 30
0.0
 10
-104.044
 20
40.1795
 30
0.0
 10
-106.3058
 20
40.0691
 30
0.0
 10
-109.6294
 20
31.8635
 30
0.0
 10
-110.3293
 20
29.6019
 30
0.0
 10
-110.3293
 20
29.6019
 30
0.0
 10
-110.7382
 20
28.2802
 30
0.0
 10
-111.1742
 20
24.9302
 30
0.0
 10
-112.6287
 20
24.773
 30
0.0
 10
-112.6287
 20
24.773
 30
0.0
 10
-114.2813
 20
24.5945
 30
0.0
 10
-117.3437
 20
30.2042
 30
0.0
 10
-119.2972
 20
30.9816
 30
0.0
 10
-119.2972
 20
30.9816
 30
0.0
 10
-123.0398
 20
32.4709
 30
0.0
 10
-125.9399
 20
27.7856
 30
0.0
 10
-129.3382
 20
28.2989
 30
0.0
 10
-129.3382
 20
28.2989
 30
0.0
 10
-133.1001
 20
28.8671
 30
0.0
 10
-134.2278
 20
34.0612
 30
0.0
 10
-137.7696
 20
35.5039
 30
0.0
 10
-137.7696
 20
35.5039
 30
0.0
 10
-138.334
 20
35.7338
 30
0.0
 10
-142.2265
 20
36.5461
 30
0.0
 10
-142.7518
 20
35.8871
 30
0.0
 10
-142.7518
 20
35.8871
 30
0.0
 10
-142.7773
 20
35.836
 30
0.0
 10
-142.8029
 20
35.7849
 30
0.0
 10
-142.8284
 20
35.7338
 30
0.0
  0
SPLINE
  5
69
330
1F
100
AcDbEntity
  8
layer 1
 62
   250
100
AcDbSpline
210
0.0
220
0.0
230
1.0
 70
    11
 71
     3
 72
    36
 73
    32
 74
     0
 42
0.0000000001
 43
0.0000000001
 12
1.0
 22
0.0
 32
0.0
 13
1.0
 23
0.0
 33
0.0
 40
0.0
 40
0.0
 40
0.0
 40
0.0
 40
0.1111111111111111
 40
0.1111111111111111
 40
0.1111111111111111
 40
0.1111111111111111
 40
0.2222222222222222
 40
0.2222222222222222
 40
0.2222222222222222
 40
0.2222222222222222
 40
0.3333333333333333
 40
0.3333333333333333
 40
0.3333333333333333
 40
0.3333333333333333
 40
0.4444444444444444
 40
0.4444444444444444
 40
0.4444444444444444
 40
0.4444444444444444
 40
0.5555555555555556
 40
0.5555555555555556
 40
0.5555555555555556
 40
0.5555555555555556
 40
0.6666666666666666
 40
0.6666666666666666
 40
0.6666666666666666
 40
0.6666666666666666
 40
0.7777777777777778
 40
0.7777777777777778
 40
0.7777777777777778
 40
0.7777777777777778
 40
1.0
 40
1.0
 40
1.0
 40
1.0
 10
-141.832
 20
44.5485
 30
0.0
 10
-140.2789
 20
42.6369
 30
0.0
 10
-134.4044
 20
38.2199
 30
0.0
 10
-131.1778
 20
40.1795
 30
0.0
 10
-131.1778
 20
40.1795
 30
0.0
 10
-128.4482
 20
41.8372
 30
0.0
 10
-127.1294
 20
45.4277
 30
0.0
 10
-125.0459
 20
47.7677
 30
0.0
 10
-125.0459
 20
47.7677
 30
0.0
 10
-124.041
 20
48.8963
 30
0.0
 10
-119.9312
 20
52.6458
 30
0.0
 10
-119.6804
 20
53.8997
 30
0.0
 10
-119.6804
 20
53.8997
 30
0.0
 10
-120.1658
 20
53.8997
 30
0.0
 10
-120.6514
 20
53.8997
 30
0.0
 10
-121.1367
 20
53.8997
 30
0.0
 10
-121.1367
 20
53.8997
 30
0.0
 10
-122.5741
 20
53.4767
 30
0.0
 10
-126.0046
 20
52.5762
 30
0.0
 10
-127.6519
 20
52.8266
 30
0.0
 10
-127.6519
 20
52.8266
 30
0.0
 10
-129.0901
 20
53.0451
 30
0.0
 10
-130.7638
 20
54.1427
 30
0.0
 10
-132.3275
 20
53.5164
 30
0.0
 10
-132.3275
 20
53.5164
 30
0.0
 10
-134.1636
 20
52.7811
 30
0.0
 10
-135.3492
 20
49.6692
 30
0.0
 10
-137.1564
 20
48.4576
 30
0.0
 10
-137.1564
 20
48.4576
 30
0.0
 10
-138.6867
 20
47.4316
 30
0.0
 10
-141.7682
 20
46.9829
 30
0.0
 10
-141.832
 20
44.5485
 30
0.0
  0
SPLINE
  5
6A
330
1F
100
AcDbEntity
  8
layer 1
 62
   250
100
AcDbSpline
210
0.0
220
0.0
230
1.0
 70
    11
 71
     3
 72
    28
 73
    24
 74
     0
 42
0.0000000001
 43
0.0000000001
 12
1.0
 22
0.0
 32
0.0
 13
1.0
 23
0.0
 33
0.0
 40
0.0
 40
0.0
 40
0.0
 40
0.0
 40
0.1428571428571428
 40
0.1428571428571428
 40
0.1428571428571428
 40
0.1428571428571428
 40
0.2857142857142857
 40
0.2857142857142857
 40
0.2857142857142857
 40
0.2857142857142857
 40
0.4285714285714285
 40
0.4285714285714285
 40
0.4285714285714285
 40
0.4285714285714285
 40
0.5714285714285714
 40
0.5714285714285714
 40
0.5714285714285714
 40
0.5714285714285714
 40
0.7142857142857143
 40
0.7142857142857143
 40
0.7142857142857143
 40
0.7142857142857143
 40
1.0
 40
1.0
 40
1.0
 40
1.0
 10
-141.0655
 20
-27.8082
 30
0.0
 10
-140.2225
 20
-28.6768
 30
0.0
 10
-139.3791
 20
-29.5457
 30
0.0
 10
-138.5361
 20
-30.4142
 30
0.0
 10
-138.5361
 20
-30.4142
 30
0.0
 10
-136.4498
 20
-33.3302
 30
0.0
 10
-134.2116
 20
-40.5468
 30
0.0
 10
-129.3382
 20
-34.7833
 30
0.0
 10
-129.3382
 20
-34.7833
 30
0.0
 10
-128.8022
 20
-34.1493
 30
0.0
 10
-127.9459
 20
-33.5713
 30
0.0
 10
-127.6519
 20
-32.7137
 30
0.0
 10
-127.6519
 20
-32.7137
 30
0.0
 10
-127.1989
 20
-31.3922
 30
0.0
 10
-128.5996
 20
-30.4188
 30
0.0
 10
-129.1083
 20
-29.7244
 30
0.0
 10
-129.1083
 20
-29.7244
 30
0.0
 10
-131.3395
 20
-26.6782
 30
0.0
 10
-134.4693
 20
-24.7472
 30
0.0
 10
-139.0726
 20
-26.5818
 30
0.0
 10
-139.0726
 20
-26.5818
 30
0.0
 10
-139.8959
 20
-26.9099
 30
0.0
 10
-140.7477
 20
-26.9895
 30
0.0
 10
-141.0655
 20
-27.8082
 30
0.0
  0
SPLINE
  5
6B
330
1F
100
AcDbEntity
  8
layer 1
 62
   250
100
AcDbSpline
210
0.0
220
0.0
230
1.0
 70
    11
 71
     3
 72
    52
 73
    48
 74
     0
 42
0.0000000001
 43
0.0000000001
 12
1.0
 22
0.0
 32
0.0
 13
1.0
 23
0.0
 33
0.0
 40
0.0
 40
0.0
 40
0.0
 40
0.0
 40
0.0769230769230769
 40
0.0769230769230769
 40
0.0769230769230769
 40
0.0769230769230769
 40
0.1538461538461539
 40
0.1538461538461539
 40
0.1538461538461539
 40
0.1538461538461539
 40
0.2307692307692308
 40
0.2307692307692308
 40
0.2307692307692308
 40
0.2307692307692308
 40
0.3076923076923077
 40
0.3076923076923077
 40
0.3076923076923077
 40
0.3076923076923077
 40
0.3846153846153846
 40
0.3846153846153846
 40
0.3846153846153846
 40
0.3846153846153846
 40
0.4615384615384616
 40
0.4615384615384616
 40
0.4615384615384616
 40
0.4615384615384616
 40
0.5384615384615384
 40
0.5384615384615384
 40
0.5384615384615384
 40
0.5384615384615384
 40
0.6153846153846154
 40
0.6153846153846154
 40
0.6153846153846154
 40
0.6153846153846154
 40
0.6923076923076923
 40
0.6923076923076923
 40
0.6923076923076923
 40
0.6923076923076923
 40
0.7692307692307693
 40
0.7692307692307693
 40
0.7692307692307693
 40
0.7692307692307693
 40
0.8461538461538461
 40
0.8461538461538461
 40
0.8461538461538461
 40
0.8461538461538461
 40
1.0
 40
1.0
 40
1.0
 40
1.0
 10
-138.3828
 20
-78.4732
 30
0.0
 10
-138.1401
 20
-78.7978
 30
0.0
 10
-137.9761
 20
-79.0433
 30
0.0
 10
-137.693
 20
-79.3163
 30
0.0
 10
-137.693
 20
-79.3163
 30
0.0
 10
-135.9547
 20
-79.3121
 30
0.0
 10
-134.0379
 20
-78.1992
 30
0.0
 10
-132.0976
 20
-77.86
 30
0.0
 10
-132.0976
 20
-77.86
 30
0.0
 10
-130.0027
 20
-77.86
 30
0.0
 10
-127.9072
 20
-77.86
 30
0.0
 10
-125.8123
 20
-77.86
 30
0.0
 10
-125.8123
 20
-77.86
 30
0.0
 10
-124.1913
 20
-77.6083
 30
0.0
 10
-122.9609
 20
-77.2076
 30
0.0
 10
-121.6733
 20
-76.8636
 30
0.0
 10
-121.6733
 20
-76.8636
 30
0.0
 10
-120.217
 20
-76.4745
 30
0.0
 10
-117.6777
 20
-76.8559
 30
0.0
 10
-116.9977
 20
-75.7138
 30
0.0
 10
-116.9977
 20
-75.7138
 30
0.0
 10
-116.5132
 20
-75.1811
 30
0.0
 10
-116.9944
 20
-74.4351
 30
0.0
 10
-117.3043
 20
-74.0276
 30
0.0
 10
-117.3043
 20
-74.0276
 30
0.0
 10
-122.0033
 20
-73.8828
 30
0.0
 10
-124.9184
 20
-72.7946
 30
0.0
 10
-128.0352
 20
-71.1915
 30
0.0
 10
-128.0352
 20
-71.1915
 30
0.0
 10
-129.1672
 20
-70.6093
 30
0.0
 10
-131.091
 20
-68.9807
 30
0.0
 10
-132.5575
 20
-69.8118
 30
0.0
 10
-132.5575
 20
-69.8118
 30
0.0
 10
-132.6715
 20
-70.3199
 30
0.0
 10
-132.745
 20
-70.9436
 30
0.0
 10
-132.6341
 20
-71.4981
 30
0.0
 10
-132.6341
 20
-71.4981
 30
0.0
 10
-131.8048
 20
-72.4805
 30
0.0
 10
-127.8577
 20
-73.9183
 30
0.0
 10
-126.5022
 20
-74.4875
 30
0.0
 10
-126.5022
 20
-74.4875
 30
0.0
 10
-125.8416
 20
-74.7648
 30
0.0
 10
-125.0551
 20
-74.7963
 30
0.0
 10
-124.586
 20
-75.2539
 30
0.0
 10
-124.586
 20
-75.2539
 30
0.0
 10
-128.3221
 20
-75.1914
 30
0.0
 10
-138.143
 20
-75.2007
 30
0.0
 10
-138.3828
 20
-78.4732
 30
0.0
  0
SPLINE
  5
6C
330
1F
100
AcDbEntity
  8
layer 1
 62
   250
100
AcDbSpline
210
0.0
220
0.0
230
1.0
 70
    11
 71
     3
 72
    32
 73
    28
 74
     0
 42
0.0000000001
 43
0.0000000001
 12
1.0
 22
0.0
 32
0.0
 13
1.0
 23
0.0
 33
0.0
 40
0.0
 40
0.0
 40
0.0
 40
0.0
 40
0.125
 40
0.125
 40
0.125
 40
0.125
 40
0.25
 40
0.25
 40
0.25
 40
0.25
 40
0.375
 40
0.375
 40
0.375
 40
0.375
 40
0.5
 40
0.5
 40
0.5
 40
0.5
 40
0.625
 40
0.625
 40
0.625
 40
0.625
 40
0.75
 40
0.75
 40
0.75
 40
0.75
 40
1.0
 40
1.0
 40
1.0
 40
1.0
 10
-136.9265
 20
-58.1612
 30
0.0
 10
-135.2221
 20
-60.6969
 30
0.0
 10
-130.3554
 20
-63.9016
 30
0.0
 10
-126.2722
 20
-61.9937
 30
0.0
 10
-126.2722
 20
-61.9937
 30
0.0
 10
-124.2497
 20
-61.0486
 30
0.0
 10
-123.2033
 20
-59.0164
 30
0.0
 10
-122.0565
 20
-57.1648
 30
0.0
 10
-122.0565
 20
-57.1648
 30
0.0
 10
-121.4868
 20
-56.2447
 30
0.0
 10
-120.5899
 20
-55.2284
 30
0.0
 10
-120.2936
 20
-54.0988
 30
0.0
 10
-120.2936
 20
-54.0988
 30
0.0
 10
-120.3447
 20
-54.0477
 30
0.0
 10
-120.3958
 20
-53.9966
 30
0.0
 10
-120.4469
 20
-53.9455
 30
0.0
 10
-120.4469
 20
-53.9455
 30
0.0
 10
-121.4688
 20
-53.7156
 30
0.0
 10
-122.491
 20
-53.4856
 30
0.0
 10
-123.5129
 20
-53.2557
 30
0.0
 10
-123.5129
 20
-53.2557
 30
0.0
 10
-124.5769
 20
-52.799
 30
0.0
 10
-125.332
 20
-51.9663
 30
0.0
 10
-126.6555
 20
-51.7227
 30
0.0
 10
-126.6555
 20
-51.7227
 30
0.0
 10
-130.2823
 20
-51.0551
 30
0.0
 10
-136.9649
 20
-54.9349
 30
0.0
 10
-136.9265
 20
-58.1612
 30
0.0
  0
SPLINE
  5
6D
330
1F
100
AcDbEntity
  8
layer 1
 62
   250
100
AcDbSpline
210
0.0
220
0.0
230
1.0
 70
    11
 71
     3
 72
    32
 73
    28
 74
     0
 42
0.0000000001
 43
0.0000000001
 12
1.0
 22
0.0
 32
0.0
 13
1.0
 23
0.0
 33
0.0
 40
0.0
 40
0.0
 40
0.0
 40
0.0
 40
0.125
 40
0.125
 40
0.125
 40
0.125
 40
0.25
 40
0.25
 40
0.25
 40
0.25
 40
0.375
 40
0.375
 40
0.375
 40
0.375
 40
0.5
 40
0.5
 40
0.5
 40
0.5
 40
0.625
 40
0.625
 40
0.625
 40
0.625
 40
0.75
 40
0.75
 40
0.75
 40
0.75
 40
1.0
 40
1.0
 40
1.0
 40
1.0
 10
-132.5575
 20
-94.7228
 30
0.0
 10
-132.1788
 20
-95.575
 30
0.0
 10
-132.1299
 20
-96.5917
 30
0.0
 10
-131.7143
 20
-97.3289
 30
0.0
 10
-131.7143
 20
-97.3289
 30
0.0
 10
-131.6888
 20
-97.3289
 30
0.0
 10
-131.6632
 20
-97.3289
 30
0.0
 10
-131.6377
 20
-97.3289
 30
0.0
 10
-131.6377
 20
-97.3289
 30
0.0
 10
-131.5355
 20
-97.3033
 30
0.0
 10
-131.4333
 20
-97.2777
 30
0.0
 10
-131.3311
 20
-97.2522
 30
0.0
 10
-131.3311
 20
-97.2522
 30
0.0
 10
-129.9363
 20
-94.4801
 30
0.0
 10
-125.7976
 20
-91.3333
 30
0.0
 10
-128.0352
 20
-86.9812
 30
0.0
 10
-128.0352
 20
-86.9812
 30
0.0
 10
-128.0607
 20
-86.9812
 30
0.0
 10
-128.0863
 20
-86.9812
 30
0.0
 10
-128.1118
 20
-86.9812
 30
0.0
 10
-128.1118
 20
-86.9812
 30
0.0
 10
-129.3023
 20
-87.3979
 30
0.0
 10
-132.0789
 20
-91.2573
 30
0.0
 10
-132.4808
 20
-92.5766
 30
0.0
 10
-132.4808
 20
-92.5766
 30
0.0
 10
-132.5064
 20
-93.2919
 30
0.0
 10
-132.5319
 20
-94.0075
 30
0.0
 10
-132.5575
 20
-94.7228
 30
0.0
  0
SPLINE
  5
6E
330
1F
100
AcDbEntity
  8
layer 1
 62
   250
100
AcDbSpline
210
0.0
220
0.0
230
1.0
 70
    11
 71
     3
 72
    28
 73
    24
 74
     0
 42
0.0000000001
 43
0.0000000001
 12
1.0
 22
0.0
 32
0.0
 13
1.0
 23
0.0
 33
0.0
 40
0.0
 40
0.0
 40
0.0
 40
0.0
 40
0.1428571428571428
 40
0.1428571428571428
 40
0.1428571428571428
 40
0.1428571428571428
 40
0.2857142857142857
 40
0.2857142857142857
 40
0.2857142857142857
 40
0.2857142857142857
 40
0.4285714285714285
 40
0.4285714285714285
 40
0.4285714285714285
 40
0.4285714285714285
 40
0.5714285714285714
 40
0.5714285714285714
 40
0.5714285714285714
 40
0.5714285714285714
 40
0.7142857142857143
 40
0.7142857142857143
 40
0.7142857142857143
 40
0.7142857142857143
 40
1.0
 40
1.0
 40
1.0
 40
1.0
 10
-131.1011
 20
87.1653
 30
0.0
 10
-130.2885
 20
86.5129
 30
0.0
 10
-127.4888
 20
87.2337
 30
0.0
 10
-126.3489
 20
87.4719
 30
0.0
 10
-126.3489
 20
87.4719
 30
0.0
 10
-122.1139
 20
88.3572
 30
0.0
 10
-120.5687
 20
89.1136
 30
0.0
 10
-120.3703
 20
93.7571
 30
0.0
 10
-120.3703
 20
93.7571
 30
0.0
 10
-120.3291
 20
94.7191
 30
0.0
 10
-119.8832
 20
95.9315
 30
0.0
 10
-120.2936
 20
96.7465
 30
0.0
 10
-120.2936
 20
96.7465
 30
0.0
 10
-121.5262
 20
96.9163
 30
0.0
 10
-122.8435
 20
96.5376
 30
0.0
 10
-123.8961
 20
96.2866
 30
0.0
 10
-123.8961
 20
96.2866
 30
0.0
 10
-125.5578
 20
95.8902
 30
0.0
 10
-127.2416
 20
95.6411
 30
0.0
 10
-128.4184
 20
94.7536
 30
0.0
 10
-128.4184
 20
94.7536
 30
0.0
 10
-130.0339
 20
93.5353
 30
0.0
 10
-131.11
 20
89.8998
 30
0.0
 10
-131.1011
 20
87.1653
 30
0.0
  0
SPLINE
  5
6F
330
1F
100
AcDbEntity
  8
layer 1
 62
   250
100
AcDbSpline
210
0.0
220
0.0
230
1.0
 70
    11
 71
     3
 72
    60
 73
    56
 74
     0
 42
0.0000000001
 43
0.0000000001
 12
1.0
 22
0.0
 32
0.0
 13
1.0
 23
0.0
 33
0.0
 40
0.0
 40
0.0
 40
0.0
 40
0.0
 40
0.0666666666666667
 40
0.0666666666666667
 40
0.0666666666666667
 40
0.0666666666666667
 40
0.1333333333333333
 40
0.1333333333333333
 40
0.1333333333333333
 40
0.1333333333333333
 40
0.2
 40
0.2
 40
0.2
 40
0.2
 40
0.2666666666666667
 40
0.2666666666666667
 40
0.2666666666666667
 40
0.2666666666666667
 40
0.3333333333333333
 40
0.3333333333333333
 40
0.3333333333333333
 40
0.3333333333333333
 40
0.4
 40
0.4
 40
0.4
 40
0.4
 40
0.4666666666666667
 40
0.4666666666666667
 40
0.4666666666666667
 40
0.4666666666666667
 40
0.5333333333333333
 40
0.5333333333333333
 40
0.5333333333333333
 40
0.5333333333333333
 40
0.6
 40
0.6
 40
0.6
 40
0.6
 40
0.6666666666666666
 40
0.6666666666666666
 40
0.6666666666666666
 40
0.6666666666666666
 40
0.7333333333333333
 40
0.7333333333333333
 40
0.7333333333333333
 40
0.7333333333333333
 40
0.8
 40
0.8
 40
0.8
 40
0.8
 40
0.8666666666666667
 40
0.8666666666666667
 40
0.8666666666666667
 40
0.8666666666666667
 40
1.0
 40
1.0
 40
1.0
 40
1.0
 10
-130.4879
 20
5.0742
 30
0.0
 10
-130.1117
 20
4.058
 30
0.0
 10
-130.3668
 20
3.1849
 30
0.0
 10
-129.7981
 20
2.4682
 30
0.0
 10
-129.7981
 20
2.4682
 30
0.0
 10
-128.4178
 20
0.7287
 30
0.0
 10
-124.4541
 20
2.066
 30
0.0
 10
-122.3631
 20
1.625
 30
0.0
 10
-122.3631
 20
1.625
 30
0.0
 10
-122.2865
 20
1.4717
 30
0.0
 10
-122.2098
 20
1.3184
 30
0.0
 10
-122.1332
 20
1.1651
 30
0.0
 10
-122.1332
 20
1.1651
 30
0.0
 10
-123.4045
 20
-1.5595
 30
0.0
 10
-126.0685
 20
-1.3462
 30
0.0
 10
-124.8159
 20
-5.8866
 30
0.0
 10
-124.8159
 20
-5.8866
 30
0.0
 10
-122.4182
 20
-6.7525
 30
0.0
 10
-118.3098
 20
-6.1633
 30
0.0
 10
-117.2277
 20
-4.5069
 30
0.0
 10
-117.2277
 20
-4.5069
 30
0.0
 10
-116.5865
 20
-3.5255
 30
0.0
 10
-116.3494
 20
-0.0622
 30
0.0
 10
-114.6982
 20
-1.1344
 30
0.0
 10
-114.6982
 20
-1.1344
 30
0.0
 10
-113.0389
 20
-6.2055
 30
0.0
 10
-113.4625
 20
-12.1332
 30
0.0
 10
-112.3988
 20
-17.5372
 30
0.0
 10
-112.3988
 20
-17.5372
 30
0.0
 10
-112.2455
 20
-17.6905
 30
0.0
 10
-112.0921
 20
-17.8438
 30
0.0
 10
-111.9389
 20
-17.9971
 30
0.0
 10
-111.9389
 20
-17.9971
 30
0.0
 10
-110.667
 20
-18.0229
 30
0.0
 10
-110.1016
 20
-17.5367
 30
0.0
 10
-109.4861
 20
-16.924
 30
0.0
 10
-109.4861
 20
-16.924
 30
0.0
 10
-110.1248
 20
-11.508
 30
0.0
 10
-110.7637
 20
-6.0904
 30
0.0
 10
-111.4023
 20
-0.6744
 30
0.0
 10
-111.4023
 20
-0.6744
 30
0.0
 10
-111.8953
 20
2.6534
 30
0.0
 10
-111.9469
 20
6.3468
 30
0.0
 10
-114.2384
 20
7.8336
 30
0.0
 10
-114.2384
 20
7.8336
 30
0.0
 10
-116.923
 20
9.5755
 30
0.0
 10
-121.0324
 20
7.0458
 30
0.0
 10
-124.356
 20
7.6803
 30
0.0
 10
-124.356
 20
7.6803
 30
0.0
 10
-125.8363
 20
7.9629
 30
0.0
 10
-128.6542
 20
9.0143
 30
0.0
 10
-129.7981
 20
8.83
 30
0.0
 10
-129.7981
 20
8.83
 30
0.0
 10
-130.2975
 20
7.7511
 30
0.0
 10
-130.2026
 20
6.5984
 30
0.0
 10
-130.4879
 20
5.0742
 30
0.0
  0
SPLINE
  5
70
330
1F
100
AcDbEntity
  8
layer 1
 62
   250
100
AcDbSpline
210
0.0
220
0.0
230
1.0
 70
    11
 71
     3
 72
    44
 73
    40
 74
     0
 42
0.0000000001
 43
0.0000000001
 12
1.0
 22
0.0
 32
0.0
 13
1.0
 23
0.0
 33
0.0
 40
0.0
 40
0.0
 40
0.0
 40
0.0
 40
0.0909090909090909
 40
0.0909090909090909
 40
0.0909090909090909
 40
0.0909090909090909
 40
0.1818181818181818
 40
0.1818181818181818
 40
0.1818181818181818
 40
0.1818181818181818
 40
0.2727272727272727
 40
0.2727272727272727
 40
0.2727272727272727
 40
0.2727272727272727
 40
0.3636363636363636
 40
0.3636363636363636
 40
0.3636363636363636
 40
0.3636363636363636
 40
0.4545454545454545
 40
0.4545454545454545
 40
0.4545454545454545
 40
0.4545454545454545
 40
0.5454545454545454
 40
0.5454545454545454
 40
0.5454545454545454
 40
0.5454545454545454
 40
0.6363636363636364
 40
0.6363636363636364
 40
0.6363636363636364
 40
0.6363636363636364
 40
0.7272727272727273
 40
0.7272727272727273
 40
0.7272727272727273
 40
0.7272727272727273
 40
0.8181818181818182
 40
0.8181818181818182
 40
0.8181818181818182
 40
0.8181818181818182
 40
1.0
 40
1.0
 40
1.0
 40
1.0
 10
-127.422
 20
-10.6388
 30
0.0
 10
-126.4286
 20
-13.0821
 30
0.0
 10
-127.4488
 20
-15.4719
 30
0.0
 10
-127.0387
 20
-18.0738
 30
0.0
 10
-127.0387
 20
-18.0738
 30
0.0
 10
-126.5609
 20
-21.1055
 30
0.0
 10
-125.0409
 20
-23.2803
 30
0.0
 10
-123.2829
 20
-25.0488
 30
0.0
 10
-123.2829
 20
-25.0488
 30
0.0
 10
-122.5083
 20
-25.828
 30
0.0
 10
-120.8125
 20
-27.6044
 30
0.0
 10
-119.5271
 20
-27.0417
 30
0.0
 10
-119.5271
 20
-27.0417
 30
0.0
 10
-119.4627
 20
-25.9601
 30
0.0
 10
-119.3943
 20
-24.7684
 30
0.0
 10
-118.9139
 20
-23.8991
 30
0.0
 10
-118.9139
 20
-23.8991
 30
0.0
 10
-118.0144
 20
-22.271
 30
0.0
 10
-116.2038
 20
-21.5498
 30
0.0
 10
-115.618
 20
-19.6067
 30
0.0
 10
-115.618
 20
-19.6067
 30
0.0
 10
-114.796
 20
-16.88
 30
0.0
 10
-117.4686
 20
-11.4347
 30
0.0
 10
-119.6038
 20
-11.3286
 30
0.0
 10
-119.6038
 20
-11.3286
 30
0.0
 10
-119.706
 20
-11.4053
 30
0.0
 10
-119.8082
 20
-11.482
 30
0.0
 10
-119.9104
 20
-11.5586
 30
0.0
 10
-119.9104
 20
-11.5586
 30
0.0
 10
-120.2704
 20
-13.8429
 30
0.0
 10
-120.4753
 20
-15.4986
 30
0.0
 10
-122.1332
 20
-16.4641
 30
0.0
 10
-122.1332
 20
-16.4641
 30
0.0
 10
-124.78
 20
-16.1069
 30
0.0
 10
-124.1412
 20
-8.5142
 30
0.0
 10
-127.422
 20
-9.949
 30
0.0
 10
-127.422
 20
-9.949
 30
0.0
 10
-127.422
 20
-10.1789
 30
0.0
 10
-127.422
 20
-10.4089
 30
0.0
 10
-127.422
 20
-10.6388
 30
0.0
  0
SPLINE
  5
71
330
1F
100
AcDbEntity
  8
layer 1
 62
   250
100
AcDbSpline
210
0.0
220
0.0
230
1.0
 70
    11
 71
     3
 72
    16
 73
    12
 74
     0
 42
0.0000000001
 43
0.0000000001
 12
1.0
 22
0.0
 32
0.0
 13
1.0
 23
0.0
 33
0.0
 40
0.0
 40
0.0
 40
0.0
 40
0.0
 40
0.25
 40
0.25
 40
0.25
 40
0.25
 40
0.5
 40
0.5
 40
0.5
 40
0.5
 40
1.0
 40
1.0
 40
1.0
 40
1.0
 10
-125.9656
 20
57.0423
 30
0.0
 10
-124.6152
 20
56.1446
 30
0.0
 10
-121.2917
 20
54.9079
 30
0.0
 10
-119.6038
 20
56.4291
 30
0.0
 10
-119.6038
 20
56.4291
 30
0.0
 10
-119.6549
 20
56.4802
 30
0.0
 10
-119.706
 20
56.5313
 30
0.0
 10
-119.7571
 20
56.5824
 30
0.0
 10
-119.7571
 20
56.5824
 30
0.0
 10
-120.6848
 20
58.5775
 30
0.0
 10
-125.3657
 20
60.822
 30
0.0
 10
-125.9656
 20
57.0423
 30
0.0
  0
SPLINE
  5
72
330
1F
100
AcDbEntity
  8
layer 1
 62
   250
100
AcDbSpline
210
0.0
220
0.0
230
1.0
 70
    11
 71
     3
 72
    48
 73
    44
 74
     0
 42
0.0000000001
 43
0.0000000001
 12
1.0
 22
0.0
 32
0.0
 13
1.0
 23
0.0
 33
0.0
 40
0.0
 40
0.0
 40
0.0
 40
0.0
 40
0.0833333333333333
 40
0.0833333333333333
 40
0.0833333333333333
 40
0.0833333333333333
 40
0.1666666666666667
 40
0.1666666666666667
 40
0.1666666666666667
 40
0.1666666666666667
 40
0.25
 40
0.25
 40
0.25
 40
0.25
 40
0.3333333333333333
 40
0.3333333333333333
 40
0.3333333333333333
 40
0.3333333333333333
 40
0.4166666666666667
 40
0.4166666666666667
 40
0.4166666666666667
 40
0.4166666666666667
 40
0.5
 40
0.5
 40
0.5
 40
0.5
 40
0.5833333333333334
 40
0.5833333333333334
 40
0.5833333333333334
 40
0.5833333333333334
 40
0.6666666666666666
 40
0.6666666666666666
 40
0.6666666666666666
 40
0.6666666666666666
 40
0.75
 40
0.75
 40
0.75
 40
0.75
 40
0.8333333333333334
 40
0.8333333333333334
 40
0.8333333333333334
 40
0.8333333333333334
 40
1.0
 40
1.0
 40
1.0
 40
1.0
 10
-124.9692
 20
-86.9812
 30
0.0
 10
-124.867
 20
-87.7732
 30
0.0
 10
-124.7648
 20
-88.5654
 30
0.0
 10
-124.6626
 20
-89.3574
 30
0.0
 10
-124.6626
 20
-89.3574
 30
0.0
 10
-124.5604
 20
-89.3574
 30
0.0
 10
-124.4582
 20
-89.3574
 30
0.0
 10
-124.356
 20
-89.3574
 30
0.0
 10
-124.356
 20
-89.3574
 30
0.0
 10
-122.8921
 20
-86.0999
 30
0.0
 10
-120.1313
 20
-88.9137
 30
0.0
 10
-118.4541
 20
-87.8244
 30
0.0
 10
-118.4541
 20
-87.8244
 30
0.0
 10
-115.9926
 20
-86.2258
 30
0.0
 10
-116.9329
 20
-82.3801
 30
0.0
 10
-115.3114
 20
-81.3859
 30
0.0
 10
-115.3114
 20
-81.3859
 30
0.0
 10
-113.565
 20
-80.315
 30
0.0
 10
-110.7098
 20
-81.4676
 30
0.0
 10
-109.3328
 20
-81.9991
 30
0.0
 10
-109.3328
 20
-81.9991
 30
0.0
 10
-103.0886
 20
-84.4092
 30
0.0
 10
-102.3341
 20
-88.9438
 30
0.0
 10
-97.6055
 20
-92.1934
 30
0.0
 10
-97.6055
 20
-92.1934
 30
0.0
 10
-97.1678
 20
-92.1027
 30
0.0
 10
-96.9994
 20
-91.9402
 30
0.0
 10
-96.839
 20
-91.5802
 30
0.0
 10
-96.839
 20
-91.5802
 30
0.0
 10
-96.1878
 20
-90.3248
 30
0.0
 10
-100.0753
 20
-86.7809
 30
0.0
 10
-100.8248
 20
-85.9082
 30
0.0
 10
-100.8248
 20
-85.9082
 30
0.0
 10
-103.0224
 20
-83.3489
 30
0.0
 10
-104.9803
 20
-80.8053
 30
0.0
 10
-108.413
 20
-79.4696
 30
0.0
 10
-108.413
 20
-79.4696
 30
0.0
 10
-110.3978
 20
-78.6974
 30
0.0
 10
-112.3522
 20
-78.7663
 30
0.0
 10
-114.8515
 20
-78.3965
 30
0.0
 10
-114.8515
 20
-78.3965
 30
0.0
 10
-121.7925
 20
-77.3698
 30
0.0
 10
-125.0176
 20
-80.453
 30
0.0
 10
-124.9692
 20
-86.9812
 30
0.0
  0
SPLINE
  5
73
330
1F
100
AcDbEntity
  8
layer 1
 62
   250
100
AcDbSpline
210
0.0
220
0.0
230
1.0
 70
    11
 71
     3
 72
    36
 73
    32
 74
     0
 42
0.0000000001
 43
0.0000000001
 12
1.0
 22
0.0
 32
0.0
 13
1.0
 23
0.0
 33
0.0
 40
0.0
 40
0.0
 40
0.0
 40
0.0
 40
0.1111111111111111
 40
0.1111111111111111
 40
0.1111111111111111
 40
0.1111111111111111
 40
0.2222222222222222
 40
0.2222222222222222
 40
0.2222222222222222
 40
0.2222222222222222
 40
0.3333333333333333
 40
0.3333333333333333
 40
0.3333333333333333
 40
0.3333333333333333
 40
0.4444444444444444
 40
0.4444444444444444
 40
0.4444444444444444
 40
0.4444444444444444
 40
0.5555555555555556
 40
0.5555555555555556
 40
0.5555555555555556
 40
0.5555555555555556
 40
0.6666666666666666
 40
0.6666666666666666
 40
0.6666666666666666
 40
0.6666666666666666
 40
0.7777777777777778
 40
0.7777777777777778
 40
0.7777777777777778
 40
0.7777777777777778
 40
1.0
 40
1.0
 40
1.0
 40
1.0
 10
-121.3667
 20
-34.6299
 30
0.0
 10
-121.1623
 20
-36.035
 30
0.0
 10
-120.9579
 20
-37.4405
 30
0.0
 10
-120.7535
 20
-38.8456
 30
0.0
 10
-120.7535
 20
-38.8456
 30
0.0
 10
-119.6122
 20
-42.5835
 30
0.0
 10
-117.4574
 20
-46.3956
 30
0.0
 10
-114.6982
 20
-48.5801
 30
0.0
 10
-114.6982
 20
-48.5801
 30
0.0
 10
-113.8027
 20
-49.2891
 30
0.0
 10
-112.6394
 20
-50.4937
 30
0.0
 10
-111.0191
 20
-50.1897
 30
0.0
 10
-111.0191
 20
-50.1897
 30
0.0
 10
-109.2934
 20
-44.5026
 30
0.0
 10
-112.4888
 20
-39.0695
 30
0.0
 10
-114.6982
 20
-35.5497
 30
0.0
 10
-114.6982
 20
-35.5497
 30
0.0
 10
-115.5784
 20
-35.5116
 30
0.0
 10
-116.4022
 20
-36.2336
 30
0.0
 10
-117.4576
 20
-35.933
 30
0.0
 10
-117.4576
 20
-35.933
 30
0.0
 10
-118.9258
 20
-35.5148
 30
0.0
 10
-119.7246
 20
-33.5162
 30
0.0
 10
-120.8302
 20
-32.6371
 30
0.0
 10
-120.8302
 20
-32.6371
 30
0.0
 10
-120.9834
 20
-32.6882
 30
0.0
 10
-121.1368
 20
-32.7393
 30
0.0
 10
-121.29
 20
-32.7904
 30
0.0
 10
-121.29
 20
-32.7904
 30
0.0
 10
-121.3156
 20
-33.4035
 30
0.0
 10
-121.3411
 20
-34.0168
 30
0.0
 10
-121.3667
 20
-34.6299
 30
0.0
  0
SPLINE
  5
74
330
1F
100
AcDbEntity
  8
layer 1
 62
   250
100
AcDbSpline
210
0.0
220
0.0
230
1.0
 70
    11
 71
     3
 72
    44
 73
    40
 74
     0
 42
0.0000000001
 43
0.0000000001
 12
1.0
 22
0.0
 32
0.0
 13
1.0
 23
0.0
 33
0.0
 40
0.0
 40
0.0
 40
0.0
 40
0.0
 40
0.0909090909090909
 40
0.0909090909090909
 40
0.0909090909090909
 40
0.0909090909090909
 40
0.1818181818181818
 40
0.1818181818181818
 40
0.1818181818181818
 40
0.1818181818181818
 40
0.2727272727272727
 40
0.2727272727272727
 40
0.2727272727272727
 40
0.2727272727272727
 40
0.3636363636363636
 40
0.3636363636363636
 40
0.3636363636363636
 40
0.3636363636363636
 40
0.4545454545454545
 40
0.4545454545454545
 40
0.4545454545454545
 40
0.4545454545454545
 40
0.5454545454545454
 40
0.5454545454545454
 40
0.5454545454545454
 40
0.5454545454545454
 40
0.6363636363636364
 40
0.6363636363636364
 40
0.6363636363636364
 40
0.6363636363636364
 40
0.7272727272727273
 40
0.7272727272727273
 40
0.7272727272727273
 40
0.7272727272727273
 40
0.8181818181818182
 40
0.8181818181818182
 40
0.8181818181818182
 40
0.8181818181818182
 40
1.0
 40
1.0
 40
1.0
 40
1.0
 10
-121.29
 20
-68.8921
 30
0.0
 10
-120.8874
 20
-69.93
 30
0.0
 10
-120.9863
 20
-70.7905
 30
0.0
 10
-119.987
 20
-71.1915
 30
0.0
 10
-119.987
 20
-71.1915
 30
0.0
 10
-118.1109
 20
-71.9444
 30
0.0
 10
-115.1376
 20
-70.0303
 30
0.0
 10
-114.2384
 20
-70.5783
 30
0.0
 10
-114.2384
 20
-70.5783
 30
0.0
 10
-113.5762
 20
-70.9346
 30
0.0
 10
-113.4363
 20
-72.3204
 30
0.0
 10
-113.2419
 20
-73.1078
 30
0.0
 10
-113.2419
 20
-73.1078
 30
0.0
 10
-112.7327
 20
-73.371
 30
0.0
 10
-112.5166
 20
-73.3407
 30
0.0
 10
-112.0922
 20
-73.0311
 30
0.0
 10
-112.0922
 20
-73.0311
 30
0.0
 10
-111.1623
 20
-70.1841
 30
0.0
 10
-109.0254
 20
-66.5506
 30
0.0
 10
-109.1029
 20
-63.2967
 30
0.0
 10
-109.1029
 20
-63.2967
 30
0.0
 10
-109.1316
 20
-62.0896
 30
0.0
 10
-108.6075
 20
-60.8322
 30
0.0
 10
-109.7161
 20
-60.3074
 30
0.0
 10
-109.7161
 20
-60.3074
 30
0.0
 10
-111.768
 20
-59.252
 30
0.0
 10
-112.1731
 20
-64.108
 30
0.0
 10
-114.2384
 20
-64.3698
 30
0.0
 10
-114.2384
 20
-64.3698
 30
0.0
 10
-116.5644
 20
-62.4354
 30
0.0
 10
-114.3306
 20
-60.2311
 30
0.0
 10
-114.8515
 20
-57.8546
 30
0.0
 10
-114.8515
 20
-57.8546
 30
0.0
 10
-115.1495
 20
-57.7125
 30
0.0
 10
-115.2941
 20
-57.6397
 30
0.0
 10
-115.7713
 20
-57.6247
 30
0.0
 10
-115.7713
 20
-57.6247
 30
0.0
 10
-118.2055
 20
-58.778
 30
0.0
 10
-120.654
 20
-65.4359
 30
0.0
 10
-121.29
 20
-68.8921
 30
0.0
  0
SPLINE
  5
75
330
1F
100
AcDbEntity
  8
layer 1
 62
   250
100
AcDbSpline
210
0.0
220
0.0
230
1.0
 70
    11
 71
     3
 72
    20
 73
    16
 74
     0
 42
0.0000000001
 43
0.0000000001
 12
1.0
 22
0.0
 32
0.0
 13
1.0
 23
0.0
 33
0.0
 40
0.0
 40
0.0
 40
0.0
 40
0.0
 40
0.2
 40
0.2
 40
0.2
 40
0.2
 40
0.4
 40
0.4
 40
0.4
 40
0.4
 40
0.6
 40
0.6
 40
0.6
 40
0.6
 40
1.0
 40
1.0
 40
1.0
 40
1.0
 10
-120.9834
 20
40.8693
 30
0.0
 10
-120.4057
 20
39.4318
 30
0.0
 10
-120.3469
 20
38.3982
 30
0.0
 10
-119.2205
 20
37.5734
 30
0.0
 10
-119.2205
 20
37.5734
 30
0.0
 10
-114.7109
 20
34.2711
 30
0.0
 10
-110.2702
 20
39.4687
 30
0.0
 10
-108.4897
 20
42.019
 30
0.0
 10
-108.4897
 20
42.019
 30
0.0
 10
-108.7866
 20
43.1248
 30
0.0
 10
-110.2721
 20
43.5606
 30
0.0
 10
-111.1724
 20
44.0886
 30
0.0
 10
-111.1724
 20
44.0886
 30
0.0
 10
-114.8543
 20
46.2479
 30
0.0
 10
-121.1095
 20
47.8313
 30
0.0
 10
-120.9834
 20
40.8693
 30
0.0
  0
SPLINE
  5
76
330
1F
100
AcDbEntity
  8
layer 1
 62
   250
100
AcDbSpline
210
0.0
220
0.0
230
1.0
 70
    11
 71
     3
 72
    24
 73
    20
 74
     0
 42
0.0000000001
 43
0.0000000001
 12
1.0
 22
0.0
 32
0.0
 13
1.0
 23
0.0
 33
0.0
 40
0.0
 40
0.0
 40
0.0
 40
0.0
 40
0.1666666666666667
 40
0.1666666666666667
 40
0.1666666666666667
 40
0.1666666666666667
 40
0.3333333333333333
 40
0.3333333333333333
 40
0.3333333333333333
 40
0.3333333333333333
 40
0.5
 40
0.5
 40
0.5
 40
0.5
 40
0.6666666666666666
 40
0.6666666666666666
 40
0.6666666666666666
 40
0.6666666666666666
 40
1.0
 40
1.0
 40
1.0
 40
1.0
 10
-120.6002
 20
103.0317
 30
0.0
 10
-120.5236
 20
102.9039
 30
0.0
 10
-120.4469
 20
102.7762
 30
0.0
 10
-120.3703
 20
102.6484
 30
0.0
 10
-120.3703
 20
102.6484
 30
0.0
 10
-116.6365
 20
103.0234
 30
0.0
 10
-115.1636
 20
103.5507
 30
0.0
 10
-114.2384
 20
106.7875
 30
0.0
 10
-114.2384
 20
106.7875
 30
0.0
 10
-113.9396
 20
107.8326
 30
0.0
 10
-113.656
 20
109.2181
 30
0.0
 10
-114.0084
 20
110.3134
 30
0.0
 10
-114.0084
 20
110.3134
 30
0.0
 10
-114.1617
 20
110.39
 30
0.0
 10
-114.315
 20
110.4666
 30
0.0
 10
-114.4683
 20
110.5433
 30
0.0
 10
-114.4683
 20
110.5433
 30
0.0
 10
-118.6862
 20
110.0951
 30
0.0
 10
-120.6779
 20
107.6117
 30
0.0
 10
-120.6002
 20
103.0317
 30
0.0
  0
SPLINE
  5
77
330
1F
100
AcDbEntity
  8
layer 1
 62
   250
100
AcDbSpline
210
0.0
220
0.0
230
1.0
 70
    11
 71
     3
 72
    72
 73
    68
 74
     0
 42
0.0000000001
 43
0.0000000001
 12
1.0
 22
0.0
 32
0.0
 13
1.0
 23
0.0
 33
0.0
 40
0.0
 40
0.0
 40
0.0
 40
0.0
 40
0.0555555555555556
 40
0.0555555555555556
 40
0.0555555555555556
 40
0.0555555555555556
 40
0.1111111111111111
 40
0.1111111111111111
 40
0.1111111111111111
 40
0.1111111111111111
 40
0.1666666666666667
 40
0.1666666666666667
 40
0.1666666666666667
 40
0.1666666666666667
 40
0.2222222222222222
 40
0.2222222222222222
 40
0.2222222222222222
 40
0.2222222222222222
 40
0.2777777777777778
 40
0.2777777777777778
 40
0.2777777777777778
 40
0.2777777777777778
 40
0.3333333333333333
 40
0.3333333333333333
 40
0.3333333333333333
 40
0.3333333333333333
 40
0.3888888888888889
 40
0.3888888888888889
 40
0.3888888888888889
 40
0.3888888888888889
 40
0.4444444444444444
 40
0.4444444444444444
 40
0.4444444444444444
 40
0.4444444444444444
 40
0.5
 40
0.5
 40
0.5
 40
0.5
 40
0.5555555555555556
 40
0.5555555555555556
 40
0.5555555555555556
 40
0.5555555555555556
 40
0.6111111111111112
 40
0.6111111111111112
 40
0.6111111111111112
 40
0.6111111111111112
 40
0.6666666666666666
 40
0.6666666666666666
 40
0.6666666666666666
 40
0.6666666666666666
 40
0.7222222222222222
 40
0.7222222222222222
 40
0.7222222222222222
 40
0.7222222222222222
 40
0.7777777777777778
 40
0.7777777777777778
 40
0.7777777777777778
 40
0.7777777777777778
 40
0.8333333333333334
 40
0.8333333333333334
 40
0.8333333333333334
 40
0.8333333333333334
 40
0.8888888888888888
 40
0.8888888888888888
 40
0.8888888888888888
 40
0.8888888888888888
 40
1.0
 40
1.0
 40
1.0
 40
1.0
 10
-120.5236
 20
64.6305
 30
0.0
 10
-119.5517
 20
63.9545
 30
0.0
 10
-115.7048
 20
62.8809
 30
0.0
 10
-114.6216
 20
64.4006
 30
0.0
 10
-114.6216
 20
64.4006
 30
0.0
 10
-113.5677
 20
65.8791
 30
0.0
 10
-113.8068
 20
67.743
 30
0.0
 10
-111.3257
 20
67.9264
 30
0.0
 10
-111.3257
 20
67.9264
 30
0.0
 10
-111.014
 20
67.7765
 30
0.0
 10
-110.8661
 20
67.7079
 30
0.0
 10
-110.7125
 20
67.3899
 30
0.0
 10
-110.7125
 20
67.3899
 30
0.0
 10
-110.0873
 20
66.2157
 30
0.0
 10
-110.9939
 20
64.6104
 30
0.0
 10
-111.4023
 20
63.7107
 30
0.0
 10
-111.4023
 20
63.7107
 30
0.0
 10
-112.3231
 20
61.6829
 30
0.0
 10
-115.363
 20
57.2771
 30
0.0
 10
-114.9282
 20
55.126
 30
0.0
 10
-114.9282
 20
55.126
 30
0.0
 10
-114.8516
 20
55.1005
 30
0.0
 10
-114.7749
 20
55.0749
 30
0.0
 10
-114.6982
 20
55.0494
 30
0.0
 10
-114.6982
 20
55.0494
 30
0.0
 10
-112.9193
 20
54.2842
 30
0.0
 10
-109.7418
 20
55.2606
 30
0.0
 10
-108.1831
 20
55.5859
 30
0.0
 10
-108.1831
 20
55.5859
 30
0.0
 10
-106.4459
 20
55.9436
 30
0.0
 10
-104.7081
 20
56.3014
 30
0.0
 10
-102.9709
 20
56.659
 30
0.0
 10
-102.9709
 20
56.659
 30
0.0
 10
-99.7801
 20
58.0387
 30
0.0
 10
-96.1739
 20
66.0569
 30
0.0
 10
-94.7695
 20
69.6894
 30
0.0
 10
-94.7695
 20
69.6894
 30
0.0
 10
-94.0786
 20
71.4762
 30
0.0
 10
-91.9605
 20
75.384
 30
0.0
 10
-92.3167
 20
77.5842
 30
0.0
 10
-92.3167
 20
77.5842
 30
0.0
 10
-94.4546
 20
78.5653
 30
0.0
 10
-94.8083
 20
76.8846
 30
0.0
 10
-95.536
 20
75.3614
 30
0.0
 10
-95.536
 20
75.3614
 30
0.0
 10
-96.7505
 20
72.8189
 30
0.0
 10
-97.7879
 20
66.7561
 30
0.0
 10
-100.3649
 20
65.8569
 30
0.0
 10
-100.3649
 20
65.8569
 30
0.0
 10
-103.6487
 20
64.711
 30
0.0
 10
-106.3206
 20
68.8741
 30
0.0
 10
-107.6465
 20
70.2259
 30
0.0
 10
-107.6465
 20
70.2259
 30
0.0
 10
-108.5465
 20
71.1435
 30
0.0
 10
-109.5853
 20
71.8238
 30
0.0
 10
-110.7891
 20
72.4487
 30
0.0
 10
-110.7891
 20
72.4487
 30
0.0
 10
-112.3311
 20
73.2492
 30
0.0
 10
-114.4946
 20
73.3082
 30
0.0
 10
-115.7713
 20
72.2188
 30
0.0
 10
-115.7713
 20
72.2188
 30
0.0
 10
-116.931
 20
71.2293
 30
0.0
 10
-116.8513
 20
69.0195
 30
0.0
 10
-117.6876
 20
67.6965
 30
0.0
 10
-117.6876
 20
67.6965
 30
0.0
 10
-118.3819
 20
66.5979
 30
0.0
 10
-120.1172
 20
65.8701
 30
0.0
 10
-120.5236
 20
64.6305
 30
0.0
  0
SPLINE
  5
78
330
1F
100
AcDbEntity
  8
layer 1
 62
   250
100
AcDbSpline
210
0.0
220
0.0
230
1.0
 70
    11
 71
     3
 72
    20
 73
    16
 74
     0
 42
0.0000000001
 43
0.0000000001
 12
1.0
 22
0.0
 32
0.0
 13
1.0
 23
0.0
 33
0.0
 40
0.0
 40
0.0
 40
0.0
 40
0.0
 40
0.2
 40
0.2
 40
0.2
 40
0.2
 40
0.4
 40
0.4
 40
0.4
 40
0.4
 40
0.6
 40
0.6
 40
0.6
 40
0.6
 40
1.0
 40
1.0
 40
1.0
 40
1.0
 10
-120.217
 20
-98.7852
 30
0.0
 10
-118.0136
 20
-102.3889
 30
0.0
 10
-110.8657
 20
-101.3559
 30
0.0
 10
-108.4897
 20
-98.7085
 30
0.0
 10
-108.4897
 20
-98.7085
 30
0.0
 10
-108.4845
 20
-97.4061
 30
0.0
 10
-109.2516
 20
-97.1346
 30
0.0
 10
-109.7927
 20
-96.4091
 30
0.0
 10
-109.7927
 20
-96.4091
 30
0.0
 10
-112.3871
 20
-92.9305
 30
0.0
 10
-116.3695
 20
-92.9012
 30
0.0
 10
-118.9906
 20
-96.4091
 30
0.0
 10
-118.9906
 20
-96.4091
 30
0.0
 10
-119.5016
 20
-97.093
 30
0.0
 10
-120.1699
 20
-97.6318
 30
0.0
 10
-120.217
 20
-98.7852
 30
0.0
  0
SPLINE
  5
79
330
1F
100
AcDbEntity
  8
layer 1
 62
   250
100
AcDbSpline
210
0.0
220
0.0
230
1.0
 70
    11
 71
     3
 72
    52
 73
    48
 74
     0
 42
0.0000000001
 43
0.0000000001
 12
1.0
 22
0.0
 32
0.0
 13
1.0
 23
0.0
 33
0.0
 40
0.0
 40
0.0
 40
0.0
 40
0.0
 40
0.0769230769230769
 40
0.0769230769230769
 40
0.0769230769230769
 40
0.0769230769230769
 40
0.1538461538461539
 40
0.1538461538461539
 40
0.1538461538461539
 40
0.1538461538461539
 40
0.2307692307692308
 40
0.2307692307692308
 40
0.2307692307692308
 40
0.2307692307692308
 40
0.3076923076923077
 40
0.3076923076923077
 40
0.3076923076923077
 40
0.3076923076923077
 40
0.3846153846153846
 40
0.3846153846153846
 40
0.3846153846153846
 40
0.3846153846153846
 40
0.4615384615384616
 40
0.4615384615384616
 40
0.4615384615384616
 40
0.4615384615384616
 40
0.5384615384615384
 40
0.5384615384615384
 40
0.5384615384615384
 40
0.5384615384615384
 40
0.6153846153846154
 40
0.6153846153846154
 40
0.6153846153846154
 40
0.6153846153846154
 40
0.6923076923076923
 40
0.6923076923076923
 40
0.6923076923076923
 40
0.6923076923076923
 40
0.7692307692307693
 40
0.7692307692307693
 40
0.7692307692307693
 40
0.7692307692307693
 40
0.8461538461538461
 40
0.8461538461538461
 40
0.8461538461538461
 40
0.8461538461538461
 40
1.0
 40
1.0
 40
1.0
 40
1.0
 10
-110.0226
 20
-29.5711
 30
0.0
 10
-109.946
 20
-30.8229
 30
0.0
 10
-109.8693
 20
-32.0751
 30
0.0
 10
-109.7927
 20
-33.3269
 30
0.0
 10
-109.7927
 20
-33.3269
 30
0.0
 10
-109.5372
 20
-34.451
 30
0.0
 10
-109.2817
 20
-35.5754
 30
0.0
 10
-109.0262
 20
-36.6995
 30
0.0
 10
-109.0262
 20
-36.6995
 30
0.0
 10
-108.7149
 20
-36.8482
 30
0.0
 10
-108.5378
 20
-36.9224
 30
0.0
 10
-108.0298
 20
-36.9294
 30
0.0
 10
-108.0298
 20
-36.9294
 30
0.0
 10
-107.7999
 20
-36.7506
 30
0.0
 10
-107.5699
 20
-36.5717
 30
0.0
 10
-107.3399
 20
-36.3929
 30
0.0
 10
-107.3399
 20
-36.3929
 30
0.0
 10
-107.3962
 20
-33.502
 30
0.0
 10
-108.9207
 20
-27.8929
 30
0.0
 10
-107.0333
 20
-25.9686
 30
0.0
 10
-107.0333
 20
-25.9686
 30
0.0
 10
-103.8588
 20
-26.9032
 30
0.0
 10
-102.9033
 20
-29.6801
 30
0.0
 10
-98.9085
 20
-29.8011
 30
0.0
 10
-98.9085
 20
-29.8011
 30
0.0
 10
-93.1797
 20
-29.9745
 30
0.0
 10
-92.3272
 20
-21.2808
 30
0.0
 10
-94.0796
 20
-16.6174
 30
0.0
 10
-94.0796
 20
-16.6174
 30
0.0
 10
-94.1563
 20
-16.6174
 30
0.0
 10
-94.2329
 20
-16.6174
 30
0.0
 10
-94.3096
 20
-16.6174
 30
0.0
 10
-94.3096
 20
-16.6174
 30
0.0
 10
-95.1271
 20
-17.6138
 30
0.0
 10
-95.9449
 20
-18.6104
 30
0.0
 10
-96.7624
 20
-19.6067
 30
0.0
 10
-96.7624
 20
-19.6067
 30
0.0
 10
-97.4423
 20
-20.9851
 30
0.0
 10
-97.0493
 20
-23.1025
 30
0.0
 10
-97.9121
 20
-24.2057
 30
0.0
 10
-97.9121
 20
-24.2057
 30
0.0
 10
-102.4835
 20
-24.5665
 30
0.0
 10
-100.9962
 20
-19.5481
 30
0.0
 10
-101.2846
 20
-16.5408
 30
0.0
 10
-101.2846
 20
-16.5408
 30
0.0
 10
-107.9321
 20
-16.1498
 30
0.0
 10
-109.7873
 20
-23.1898
 30
0.0
 10
-110.0226
 20
-29.5711
 30
0.0
  0
SPLINE
  5
7A
330
1F
100
AcDbEntity
  8
layer 1
 62
   250
100
AcDbSpline
210
0.0
220
0.0
230
1.0
 70
    11
 71
     3
 72
    52
 73
    48
 74
     0
 42
0.0000000001
 43
0.0000000001
 12
1.0
 22
0.0
 32
0.0
 13
1.0
 23
0.0
 33
0.0
 40
0.0
 40
0.0
 40
0.0
 40
0.0
 40
0.0769230769230769
 40
0.0769230769230769
 40
0.0769230769230769
 40
0.0769230769230769
 40
0.1538461538461539
 40
0.1538461538461539
 40
0.1538461538461539
 40
0.1538461538461539
 40
0.2307692307692308
 40
0.2307692307692308
 40
0.2307692307692308
 40
0.2307692307692308
 40
0.3076923076923077
 40
0.3076923076923077
 40
0.3076923076923077
 40
0.3076923076923077
 40
0.3846153846153846
 40
0.3846153846153846
 40
0.3846153846153846
 40
0.3846153846153846
 40
0.4615384615384616
 40
0.4615384615384616
 40
0.4615384615384616
 40
0.4615384615384616
 40
0.5384615384615384
 40
0.5384615384615384
 40
0.5384615384615384
 40
0.5384615384615384
 40
0.6153846153846154
 40
0.6153846153846154
 40
0.6153846153846154
 40
0.6153846153846154
 40
0.6923076923076923
 40
0.6923076923076923
 40
0.6923076923076923
 40
0.6923076923076923
 40
0.7692307692307693
 40
0.7692307692307693
 40
0.7692307692307693
 40
0.7692307692307693
 40
0.8461538461538461
 40
0.8461538461538461
 40
0.8461538461538461
 40
0.8461538461538461
 40
1.0
 40
1.0
 40
1.0
 40
1.0
 10
-109.8694
 20
-106.8333
 30
0.0
 10
-109.1949
 20
-107.693
 30
0.0
 10
-108.4444
 20
-109.2984
 30
0.0
 10
-107.4166
 20
-109.746
 30
0.0
 10
-107.4166
 20
-109.746
 30
0.0
 10
-106.3311
 20
-110.2188
 30
0.0
 10
-97.6437
 20
-109.8278
 30
0.0
 10
-97.1456
 20
-109.516
 30
0.0
 10
-97.1456
 20
-109.516
 30
0.0
 10
-97.0621
 20
-107.9237
 30
0.0
 10
-97.3679
 20
-106.8664
 30
0.0
 10
-96.3791
 20
-105.607
 30
0.0
 10
-96.3791
 20
-105.607
 30
0.0
 10
-92.6677
 20
-105.4404
 30
0.0
 10
-92.539
 20
-107.4895
 30
0.0
 10
-91.0903
 20
-109.746
 30
0.0
 10
-91.0903
 20
-109.746
 30
0.0
 10
-90.4385
 20
-109.7892
 30
0.0
 10
-90.0753
 20
-109.8331
 30
0.0
 10
-89.634
 20
-109.5927
 30
0.0
 10
-89.634
 20
-109.5927
 30
0.0
 10
-89.5749
 20
-105.5413
 30
0.0
 10
-91.4013
 20
-102.1791
 30
0.0
 10
-94.003
 20
-100.7014
 30
0.0
 10
-94.003
 20
-100.7014
 30
0.0
 10
-94.795
 20
-100.4971
 30
0.0
 10
-95.5872
 20
-100.2926
 30
0.0
 10
-96.3791
 20
-100.0882
 30
0.0
 10
-96.3791
 20
-100.0882
 30
0.0
 10
-97.4695
 20
-99.5263
 30
0.0
 10
-98.171
 20
-97.8914
 30
0.0
 10
-99.9816
 20
-98.7852
 30
0.0
 10
-99.9816
 20
-98.7852
 30
0.0
 10
-102.4677
 20
-100.0125
 30
0.0
 10
-103.0947
 20
-103.247
 30
0.0
 10
-103.9674
 20
-106.1435
 30
0.0
 10
-103.9674
 20
-106.1435
 30
0.0
 10
-104.044
 20
-106.1435
 30
0.0
 10
-104.1207
 20
-106.1435
 30
0.0
 10
-104.1973
 20
-106.1435
 30
0.0
 10
-104.1973
 20
-106.1435
 30
0.0
 10
-105.2014
 20
-104.7275
 30
0.0
 10
-108.5475
 20
-104.1857
 30
0.0
 10
-109.7161
 20
-105.9136
 30
0.0
 10
-109.7161
 20
-105.9136
 30
0.0
 10
-109.8627
 20
-106.1334
 30
0.0
 10
-109.8805
 20
-106.4232
 30
0.0
 10
-109.8694
 20
-106.8333
 30
0.0
  0
SPLINE
  5
7B
330
1F
100
AcDbEntity
  8
layer 1
 62
   250
100
AcDbSpline
210
0.0
220
0.0
230
1.0
 70
    11
 71
     3
 72
    40
 73
    36
 74
     0
 42
0.0000000001
 43
0.0000000001
 12
1.0
 22
0.0
 32
0.0
 13
1.0
 23
0.0
 33
0.0
 40
0.0
 40
0.0
 40
0.0
 40
0.0
 40
0.1
 40
0.1
 40
0.1
 40
0.1
 40
0.2
 40
0.2
 40
0.2
 40
0.2
 40
0.3
 40
0.3
 40
0.3
 40
0.3
 40
0.4
 40
0.4
 40
0.4
 40
0.4
 40
0.5
 40
0.5
 40
0.5
 40
0.5
 40
0.6
 40
0.6
 40
0.6
 40
0.6
 40
0.7
 40
0.7
 40
0.7
 40
0.7
 40
0.8
 40
0.8
 40
0.8
 40
0.8
 40
1.0
 40
1.0
 40
1.0
 40
1.0
 10
-107.6465
 20
10.2863
 30
0.0
 10
-107.0292
 20
9.0006
 30
0.0
 10
-107.0716
 20
7.3569
 30
0.0
 10
-106.4201
 20
6.224
 30
0.0
 10
-106.4201
 20
6.224
 30
0.0
 10
-106.2158
 20
6.224
 30
0.0
 10
-106.0113
 20
6.224
 30
0.0
 10
-105.8069
 20
6.224
 30
0.0
 10
-105.8069
 20
6.224
 30
0.0
 10
-104.0157
 20
8.4335
 30
0.0
 10
-98.1075
 20
6.9863
 30
0.0
 10
-97.2989
 20
8.6767
 30
0.0
 10
-97.2989
 20
8.6767
 30
0.0
 10
-97.1967
 20
9.8263
 30
0.0
 10
-97.0945
 20
10.9763
 30
0.0
 10
-96.9923
 20
12.1259
 30
0.0
 10
-96.9923
 20
12.1259
 30
0.0
 10
-96.5835
 20
13.1734
 30
0.0
 10
-96.1747
 20
14.2211
 30
0.0
 10
-95.7659
 20
15.2685
 30
0.0
 10
-95.7659
 20
15.2685
 30
0.0
 10
-95.8936
 20
15.524
 30
0.0
 10
-96.0214
 20
15.7796
 30
0.0
 10
-96.1492
 20
16.035
 30
0.0
 10
-96.1492
 20
16.035
 30
0.0
 10
-98.6109
 20
17.1145
 30
0.0
 10
-98.3611
 20
15.2526
 30
0.0
 10
-100.4415
 20
14.962
 30
0.0
 10
-100.4415
 20
14.962
 30
0.0
 10
-101.4166
 20
15.574
 30
0.0
 10
-103.589
 20
18.472
 30
0.0
 10
-104.9638
 20
17.9513
 30
0.0
 10
-104.9638
 20
17.9513
 30
0.0
 10
-106.6342
 20
17.2361
 30
0.0
 10
-107.6636
 20
12.9648
 30
0.0
 10
-107.6465
 20
10.2863
 30
0.0
  0
SPLINE
  5
7C
330
1F
100
AcDbEntity
  8
layer 1
 62
   250
100
AcDbSpline
210
0.0
220
0.0
230
1.0
 70
    11
 71
     3
 72
    40
 73
    36
 74
     0
 42
0.0000000001
 43
0.0000000001
 12
1.0
 22
0.0
 32
0.0
 13
1.0
 23
0.0
 33
0.0
 40
0.0
 40
0.0
 40
0.0
 40
0.0
 40
0.1
 40
0.1
 40
0.1
 40
0.1
 40
0.2
 40
0.2
 40
0.2
 40
0.2
 40
0.3
 40
0.3
 40
0.3
 40
0.3
 40
0.4
 40
0.4
 40
0.4
 40
0.4
 40
0.5
 40
0.5
 40
0.5
 40
0.5
 40
0.6
 40
0.6
 40
0.6
 40
0.6
 40
0.7
 40
0.7
 40
0.7
 40
0.7
 40
0.8
 40
0.8
 40
0.8
 40
0.8
 40
1.0
 40
1.0
 40
1.0
 40
1.0
 10
-107.4166
 20
87.3186
 30
0.0
 10
-106.6662
 20
85.6778
 30
0.0
 10
-106.708
 20
84.2369
 30
0.0
 10
-105.2704
 20
83.3329
 30
0.0
 10
-105.2704
 20
83.3329
 30
0.0
 10
-103.379
 20
82.1435
 30
0.0
 10
-100.0928
 20
83.3477
 30
0.0
 10
-97.9121
 20
83.0263
 30
0.0
 10
-97.9121
 20
83.0263
 30
0.0
 10
-96.7271
 20
82.8516
 30
0.0
 10
-96.0085
 20
82.258
 30
0.0
 10
-95.0761
 20
82.0298
 30
0.0
 10
-95.0761
 20
82.0298
 30
0.0
 10
-95.025
 20
82.1065
 30
0.0
 10
-94.9739
 20
82.1832
 30
0.0
 10
-94.9228
 20
82.2598
 30
0.0
 10
-94.9228
 20
82.2598
 30
0.0
 10
-94.4748
 20
82.9443
 30
0.0
 10
-94.6377
 20
84.275
 30
0.0
 10
-94.5395
 20
85.0958
 30
0.0
 10
-94.5395
 20
85.0958
 30
0.0
 10
-94.138
 20
88.4543
 30
0.0
 10
-96.002
 20
91.4038
 30
0.0
 10
-99.8283
 20
90.4612
 30
0.0
 10
-99.8283
 20
90.4612
 30
0.0
 10
-101.0203
 20
90.1676
 30
0.0
 10
-103.2736
 20
88.9351
 30
0.0
 10
-104.5806
 20
89.2348
 30
0.0
 10
-104.5806
 20
89.2348
 30
0.0
 10
-105.4556
 20
89.4356
 30
0.0
 10
-105.9498
 20
90.0247
 30
0.0
 10
-106.6501
 20
90.3846
 30
0.0
 10
-106.6501
 20
90.3846
 30
0.0
 10
-107.6364
 20
90.1856
 30
0.0
 10
-107.4701
 20
88.4564
 30
0.0
 10
-107.4166
 20
87.3186
 30
0.0
  0
SPLINE
  5
7D
330
1F
100
AcDbEntity
  8
layer 1
 62
   250
100
AcDbSpline
210
0.0
220
0.0
230
1.0
 70
    11
 71
     3
 72
    20
 73
    16
 74
     0
 42
0.0000000001
 43
0.0000000001
 12
1.0
 22
0.0
 32
0.0
 13
1.0
 23
0.0
 33
0.0
 40
0.0
 40
0.0
 40
0.0
 40
0.0
 40
0.2
 40
0.2
 40
0.2
 40
0.2
 40
0.4
 40
0.4
 40
0.4
 40
0.4
 40
0.6
 40
0.6
 40
0.6
 40
0.6
 40
1.0
 40
1.0
 40
1.0
 40
1.0
 10
-107.11
 20
125.4898
 30
0.0
 10
-105.794
 20
123.7954
 30
0.0
 10
-104.0973
 20
120.6314
 30
0.0
 10
-101.5912
 20
120.2777
 30
0.0
 10
-101.5912
 20
120.2777
 30
0.0
 10
-99.1796
 20
119.9373
 30
0.0
 10
-96.2981
 20
124.3021
 30
0.0
 10
-97.6821
 20
126.7162
 30
0.0
 10
-97.6821
 20
126.7162
 30
0.0
 10
-99.233
 20
127.2501
 30
0.0
 10
-104.9762
 20
127.1909
 30
0.0
 10
-106.8801
 20
126.563
 30
0.0
 10
-106.8801
 20
126.563
 30
0.0
 10
-106.9567
 20
126.2053
 30
0.0
 10
-107.0333
 20
125.8475
 30
0.0
 10
-107.11
 20
125.4898
 30
0.0
  0
SPLINE
  5
7E
330
1F
100
AcDbEntity
  8
layer 1
 62
   250
100
AcDbSpline
210
0.0
220
0.0
230
1.0
 70
    11
 71
     3
 72
    48
 73
    44
 74
     0
 42
0.0000000001
 43
0.0000000001
 12
1.0
 22
0.0
 32
0.0
 13
1.0
 23
0.0
 33
0.0
 40
0.0
 40
0.0
 40
0.0
 40
0.0
 40
0.0833333333333333
 40
0.0833333333333333
 40
0.0833333333333333
 40
0.0833333333333333
 40
0.1666666666666667
 40
0.1666666666666667
 40
0.1666666666666667
 40
0.1666666666666667
 40
0.25
 40
0.25
 40
0.25
 40
0.25
 40
0.3333333333333333
 40
0.3333333333333333
 40
0.3333333333333333
 40
0.3333333333333333
 40
0.4166666666666667
 40
0.4166666666666667
 40
0.4166666666666667
 40
0.4166666666666667
 40
0.5
 40
0.5
 40
0.5
 40
0.5
 40
0.5833333333333334
 40
0.5833333333333334
 40
0.5833333333333334
 40
0.5833333333333334
 40
0.6666666666666666
 40
0.6666666666666666
 40
0.6666666666666666
 40
0.6666666666666666
 40
0.75
 40
0.75
 40
0.75
 40
0.75
 40
0.8333333333333334
 40
0.8333333333333334
 40
0.8333333333333334
 40
0.8333333333333334
 40
1.0
 40
1.0
 40
1.0
 40
1.0
 10
-105.6537
 20
-51.7227
 30
0.0
 10
-105.1445
 20
-53.1531
 30
0.0
 10
-105.7136
 20
-55.402
 30
0.0
 10
-104.5806
 20
-56.1683
 30
0.0
 10
-104.5806
 20
-56.1683
 30
0.0
 10
-104.5039
 20
-56.2194
 30
0.0
 10
-104.4273
 20
-56.2705
 30
0.0
 10
-104.3506
 20
-56.3216
 30
0.0
 10
-104.3506
 20
-56.3216
 30
0.0
 10
-103.8974
 20
-56.2617
 30
0.0
 10
-103.6455
 20
-56.1306
 30
0.0
 10
-103.3542
 20
-55.9384
 30
0.0
 10
-103.3542
 20
-55.9384
 30
0.0
 10
-103.4039
 20
-53.768
 30
0.0
 10
-104.7173
 20
-49.8722
 30
0.0
 10
-102.6643
 20
-48.8867
 30
0.0
 10
-102.6643
 20
-48.8867
 30
0.0
 10
-102.5877
 20
-48.8867
 30
0.0
 10
-102.511
 20
-48.8867
 30
0.0
 10
-102.4344
 20
-48.8867
 30
0.0
 10
-102.4344
 20
-48.8867
 30
0.0
 10
-101.1514
 20
-49.2048
 30
0.0
 10
-97.9843
 20
-54.5161
 30
0.0
 10
-96.6091
 20
-52.1826
 30
0.0
 10
-96.6091
 20
-52.1826
 30
0.0
 10
-96.5069
 20
-50.803
 30
0.0
 10
-96.4046
 20
-49.4231
 30
0.0
 10
-96.3025
 20
-48.0435
 30
0.0
 10
-96.3025
 20
-48.0435
 30
0.0
 10
-95.8682
 20
-47.1749
 30
0.0
 10
-95.4337
 20
-46.3061
 30
0.0
 10
-94.9994
 20
-45.4375
 30
0.0
 10
-94.9994
 20
-45.4375
 30
0.0
 10
-94.8717
 20
-44.5944
 30
0.0
 10
-94.7439
 20
-43.7511
 30
0.0
 10
-94.6162
 20
-42.908
 30
0.0
 10
-94.6162
 20
-42.908
 30
0.0
 10
-94.3748
 20
-42.1395
 30
0.0
 10
-93.7923
 20
-41.0507
 30
0.0
 10
-94.003
 20
-40.1487
 30
0.0
 10
-94.003
 20
-40.1487
 30
0.0
 10
-101.6785
 20
-39.9822
 30
0.0
 10
-105.73
 20
-43.6914
 30
0.0
 10
-105.6537
 20
-51.7227
 30
0.0
  0
SPLINE
  5
7F
330
1F
100
AcDbEntity
  8
layer 1
 62
   250
100
AcDbSpline
210
0.0
220
0.0
230
1.0
 70
    11
 71
     3
 72
    52
 73
    48
 74
     0
 42
0.0000000001
 43
0.0000000001
 12
1.0
 22
0.0
 32
0.0
 13
1.0
 23
0.0
 33
0.0
 40
0.0
 40
0.0
 40
0.0
 40
0.0
 40
0.0769230769230769
 40
0.0769230769230769
 40
0.0769230769230769
 40
0.0769230769230769
 40
0.1538461538461539
 40
0.1538461538461539
 40
0.1538461538461539
 40
0.1538461538461539
 40
0.2307692307692308
 40
0.2307692307692308
 40
0.2307692307692308
 40
0.2307692307692308
 40
0.3076923076923077
 40
0.3076923076923077
 40
0.3076923076923077
 40
0.3076923076923077
 40
0.3846153846153846
 40
0.3846153846153846
 40
0.3846153846153846
 40
0.3846153846153846
 40
0.4615384615384616
 40
0.4615384615384616
 40
0.4615384615384616
 40
0.4615384615384616
 40
0.5384615384615384
 40
0.5384615384615384
 40
0.5384615384615384
 40
0.5384615384615384
 40
0.6153846153846154
 40
0.6153846153846154
 40
0.6153846153846154
 40
0.6153846153846154
 40
0.6923076923076923
 40
0.6923076923076923
 40
0.6923076923076923
 40
0.6923076923076923
 40
0.7692307692307693
 40
0.7692307692307693
 40
0.7692307692307693
 40
0.7692307692307693
 40
0.8461538461538461
 40
0.8461538461538461
 40
0.8461538461538461
 40
0.8461538461538461
 40
1.0
 40
1.0
 40
1.0
 40
1.0
 10
-104.4273
 20
-61.1505
 30
0.0
 10
-100.1885
 20
-65.7185
 30
0.0
 10
-97.2834
 20
-72.0828
 30
0.0
 10
-95.536
 20
-79.0864
 30
0.0
 10
-95.536
 20
-79.0864
 30
0.0
 10
-94.8774
 20
-81.7259
 30
0.0
 10
-94.812
 20
-89.7353
 30
0.0
 10
-93.2365
 20
-91.0436
 30
0.0
 10
-93.2365
 20
-91.0436
 30
0.0
 10
-91.8526
 20
-90.7867
 30
0.0
 10
-91.734
 20
-86.4405
 30
0.0
 10
-91.3969
 20
-84.9117
 30
0.0
 10
-91.3969
 20
-84.9117
 30
0.0
 10
-90.3815
 20
-80.3069
 30
0.0
 10
-88.7539
 20
-76.4834
 30
0.0
 10
-86.9513
 20
-72.6479
 30
0.0
 10
-86.9513
 20
-72.6479
 30
0.0
 10
-86.3176
 20
-71.2995
 30
0.0
 10
-84.5469
 20
-69.4283
 30
0.0
 10
-85.4949
 20
-67.7423
 30
0.0
 10
-85.4949
 20
-67.7423
 30
0.0
 10
-85.7248
 20
-67.7168
 30
0.0
 10
-85.9549
 20
-67.6912
 30
0.0
 10
-86.1848
 20
-67.6657
 30
0.0
 10
-86.1848
 20
-67.6657
 30
0.0
 10
-89.1942
 20
-69.9648
 30
0.0
 10
-91.6705
 20
-76.698
 30
0.0
 10
-92.7766
 20
-80.926
 30
0.0
 10
-92.7766
 20
-80.926
 30
0.0
 10
-92.8277
 20
-80.9004
 30
0.0
 10
-92.8788
 20
-80.8749
 30
0.0
 10
-92.9299
 20
-80.8493
 30
0.0
 10
-92.9299
 20
-80.8493
 30
0.0
 10
-93.345
 20
-73.7766
 30
0.0
 10
-96.4975
 20
-67.8246
 30
0.0
 10
-99.5984
 20
-63.2201
 30
0.0
 10
-99.5984
 20
-63.2201
 30
0.0
 10
-100.4968
 20
-61.8859
 30
0.0
 10
-101.5402
 20
-59.5641
 30
0.0
 10
-103.5841
 20
-59.4642
 30
0.0
 10
-103.5841
 20
-59.4642
 30
0.0
 10
-103.7885
 20
-59.592
 30
0.0
 10
-103.9929
 20
-59.7197
 30
0.0
 10
-104.1973
 20
-59.8475
 30
0.0
 10
-104.1973
 20
-59.8475
 30
0.0
 10
-104.2739
 20
-60.2818
 30
0.0
 10
-104.3506
 20
-60.7162
 30
0.0
 10
-104.4273
 20
-61.1505
 30
0.0
  0
SPLINE
  5
80
330
1F
100
AcDbEntity
  8
layer 1
 62
   250
100
AcDbSpline
210
0.0
220
0.0
230
1.0
 70
    11
 71
     3
 72
    24
 73
    20
 74
     0
 42
0.0000000001
 43
0.0000000001
 12
1.0
 22
0.0
 32
0.0
 13
1.0
 23
0.0
 33
0.0
 40
0.0
 40
0.0
 40
0.0
 40
0.0
 40
0.1666666666666667
 40
0.1666666666666667
 40
0.1666666666666667
 40
0.1666666666666667
 40
0.3333333333333333
 40
0.3333333333333333
 40
0.3333333333333333
 40
0.3333333333333333
 40
0.5
 40
0.5
 40
0.5
 40
0.5
 40
0.6666666666666666
 40
0.6666666666666666
 40
0.6666666666666666
 40
0.6666666666666666
 40
1.0
 40
1.0
 40
1.0
 40
1.0
 10
-100.1349
 20
31.978
 30
0.0
 10
-100.0072
 20
30.8029
 30
0.0
 10
-99.8794
 20
29.6273
 30
0.0
 10
-99.7517
 20
28.4522
 30
0.0
 10
-99.7517
 20
28.4522
 30
0.0
 10
-99.3269
 20
27.0728
 30
0.0
 10
-97.3958
 20
23.5544
 30
0.0
 10
-95.8426
 20
23.47
 30
0.0
 10
-95.8426
 20
23.47
 30
0.0
 10
-95.7148
 20
23.5722
 30
0.0
 10
-95.587
 20
23.6744
 30
0.0
 10
-95.4593
 20
23.7766
 30
0.0
 10
-95.4593
 20
23.7766
 30
0.0
 10
-94.4456
 20
27.8932
 30
0.0
 10
-96.1886
 20
31.8846
 30
0.0
 10
-98.2187
 20
33.9709
 30
0.0
 10
-98.2187
 20
33.9709
 30
0.0
 10
-99.6561
 20
34.067
 30
0.0
 10
-100.0045
 20
33.389
 30
0.0
 10
-100.1349
 20
31.978
 30
0.0
  0
SPLINE
  5
81
330
1F
100
AcDbEntity
  8
layer 1
 62
   250
100
AcDbSpline
210
0.0
220
0.0
230
1.0
 70
    11
 71
     3
 72
    28
 73
    24
 74
     0
 42
0.0000000001
 43
0.0000000001
 12
1.0
 22
0.0
 32
0.0
 13
1.0
 23
0.0
 33
0.0
 40
0.0
 40
0.0
 40
0.0
 40
0.0
 40
0.1428571428571428
 40
0.1428571428571428
 40
0.1428571428571428
 40
0.1428571428571428
 40
0.2857142857142857
 40
0.2857142857142857
 40
0.2857142857142857
 40
0.2857142857142857
 40
0.4285714285714285
 40
0.4285714285714285
 40
0.4285714285714285
 40
0.4285714285714285
 40
0.5714285714285714
 40
0.5714285714285714
 40
0.5714285714285714
 40
0.5714285714285714
 40
0.7142857142857143
 40
0.7142857142857143
 40
0.7142857142857143
 40
0.7142857142857143
 40
1.0
 40
1.0
 40
1.0
 40
1.0
 10
-99.5984
 20
43.0155
 30
0.0
 10
-99.5473
 20
42.8111
 30
0.0
 10
-99.4962
 20
42.6067
 30
0.0
 10
-99.4451
 20
42.4023
 30
0.0
 10
-99.4451
 20
42.4023
 30
0.0
 10
-98.269
 20
41.1198
 30
0.0
 10
-96.1708
 20
41.4729
 30
0.0
 10
-94.6162
 20
42.1724
 30
0.0
 10
-94.6162
 20
42.1724
 30
0.0
 10
-92.0665
 20
43.3195
 30
0.0
 10
-89.2396
 20
47.1456
 30
0.0
 10
-88.9441
 20
50.3738
 30
0.0
 10
-88.9441
 20
50.3738
 30
0.0
 10
-89.0208
 20
50.3993
 30
0.0
 10
-89.0974
 20
50.4249
 30
0.0
 10
-89.1741
 20
50.4505
 30
0.0
 10
-89.1741
 20
50.4505
 30
0.0
 10
-90.4902
 20
50.025
 30
0.0
 10
-91.5641
 20
49.2189
 30
0.0
 10
-92.6999
 20
48.6109
 30
0.0
 10
-92.6999
 20
48.6109
 30
0.0
 10
-95.1878
 20
47.2792
 30
0.0
 10
-99.2015
 20
46.3007
 30
0.0
 10
-99.5984
 20
43.0155
 30
0.0
  0
SPLINE
  5
82
330
1F
100
AcDbEntity
  8
layer 1
 62
   250
100
AcDbSpline
210
0.0
220
0.0
230
1.0
 70
    11
 71
     3
 72
    36
 73
    32
 74
     0
 42
0.0000000001
 43
0.0000000001
 12
1.0
 22
0.0
 32
0.0
 13
1.0
 23
0.0
 33
0.0
 40
0.0
 40
0.0
 40
0.0
 40
0.0
 40
0.1111111111111111
 40
0.1111111111111111
 40
0.1111111111111111
 40
0.1111111111111111
 40
0.2222222222222222
 40
0.2222222222222222
 40
0.2222222222222222
 40
0.2222222222222222
 40
0.3333333333333333
 40
0.3333333333333333
 40
0.3333333333333333
 40
0.3333333333333333
 40
0.4444444444444444
 40
0.4444444444444444
 40
0.4444444444444444
 40
0.4444444444444444
 40
0.5555555555555556
 40
0.5555555555555556
 40
0.5555555555555556
 40
0.5555555555555556
 40
0.6666666666666666
 40
0.6666666666666666
 40
0.6666666666666666
 40
0.6666666666666666
 40
0.7777777777777778
 40
0.7777777777777778
 40
0.7777777777777778
 40
0.7777777777777778
 40
1.0
 40
1.0
 40
1.0
 40
1.0
 10
-95.9959
 20
111.3864
 30
0.0
 10
-95.8426
 20
109.0361
 30
0.0
 10
-95.6893
 20
106.6851
 30
0.0
 10
-95.536
 20
104.3347
 30
0.0
 10
-95.536
 20
104.3347
 30
0.0
 10
-95.1109
 20
102.0676
 30
0.0
 10
-94.2437
 20
100.3835
 30
0.0
 10
-93.1598
 20
98.816
 30
0.0
 10
-93.1598
 20
98.816
 30
0.0
 10
-92.7177
 20
98.1765
 30
0.0
 10
-92.3984
 20
97.2728
 30
0.0
 10
-91.5502
 20
97.0531
 30
0.0
 10
-91.5502
 20
97.0531
 30
0.0
 10
-90.267
 20
99.2499
 30
0.0
 10
-90.9517
 20
103.6751
 30
0.0
 10
-90.4771
 20
106.7108
 30
0.0
 10
-90.4771
 20
106.7108
 30
0.0
 10
-90.3749
 20
108.0648
 30
0.0
 10
-90.2727
 20
109.4193
 30
0.0
 10
-90.1705
 20
110.7732
 30
0.0
 10
-90.1705
 20
110.7732
 30
0.0
 10
-90.4932
 20
111.9048
 30
0.0
 10
-93.9595
 20
114.2086
 30
0.0
 10
-95.0761
 20
114.759
 30
0.0
 10
-95.0761
 20
114.759
 30
0.0
 10
-95.2805
 20
114.6823
 30
0.0
 10
-95.4849
 20
114.6057
 30
0.0
 10
-95.6893
 20
114.529
 30
0.0
 10
-95.6893
 20
114.529
 30
0.0
 10
-95.9467
 20
113.5153
 30
0.0
 10
-95.9167
 20
112.4256
 30
0.0
 10
-95.9959
 20
111.3864
 30
0.0
  0
SPLINE
  5
83
330
1F
100
AcDbEntity
  8
layer 1
 62
   250
100
AcDbSpline
210
0.0
220
0.0
230
1.0
 70
    11
 71
     3
 72
    28
 73
    24
 74
     0
 42
0.0000000001
 43
0.0000000001
 12
1.0
 22
0.0
 32
0.0
 13
1.0
 23
0.0
 33
0.0
 40
0.0
 40
0.0
 40
0.0
 40
0.0
 40
0.1428571428571428
 40
0.1428571428571428
 40
0.1428571428571428
 40
0.1428571428571428
 40
0.2857142857142857
 40
0.2857142857142857
 40
0.2857142857142857
 40
0.2857142857142857
 40
0.4285714285714285
 40
0.4285714285714285
 40
0.4285714285714285
 40
0.4285714285714285
 40
0.5714285714285714
 40
0.5714285714285714
 40
0.5714285714285714
 40
0.5714285714285714
 40
0.7142857142857143
 40
0.7142857142857143
 40
0.7142857142857143
 40
0.7142857142857143
 40
1.0
 40
1.0
 40
1.0
 40
1.0
 10
-94.9994
 20
94.9069
 30
0.0
 10
-94.8043
 20
94.3812
 30
0.0
 10
-94.8431
 20
93.7736
 30
0.0
 10
-94.6162
 20
93.3739
 30
0.0
 10
-94.6162
 20
93.3739
 30
0.0
 10
-94.0452
 20
93.1809
 30
0.0
 10
-93.4093
 20
92.9865
 30
0.0
 10
-92.6233
 20
93.144
 30
0.0
 10
-92.6233
 20
93.144
 30
0.0
 10
-92.4956
 20
93.2972
 30
0.0
 10
-92.3678
 20
93.4506
 30
0.0
 10
-92.2401
 20
93.6039
 30
0.0
 10
-92.2401
 20
93.6039
 30
0.0
 10
-91.9132
 20
94.9124
 30
0.0
 10
-93.7812
 20
96.368
 30
0.0
 10
-94.5395
 20
96.9764
 30
0.0
 10
-94.5395
 20
96.9764
 30
0.0
 10
-94.6162
 20
96.9253
 30
0.0
 10
-94.6928
 20
96.8742
 30
0.0
 10
-94.7695
 20
96.8231
 30
0.0
 10
-94.7695
 20
96.8231
 30
0.0
 10
-94.9288
 20
96.2951
 30
0.0
 10
-95.0084
 20
95.6995
 30
0.0
 10
-94.9994
 20
94.9069
 30
0.0
  0
SPLINE
  5
84
330
1F
100
AcDbEntity
  8
layer 1
 62
   250
100
AcDbSpline
210
0.0
220
0.0
230
1.0
 70
    11
 71
     3
 72
    48
 73
    44
 74
     0
 42
0.0000000001
 43
0.0000000001
 12
1.0
 22
0.0
 32
0.0
 13
1.0
 23
0.0
 33
0.0
 40
0.0
 40
0.0
 40
0.0
 40
0.0
 40
0.0833333333333333
 40
0.0833333333333333
 40
0.0833333333333333
 40
0.0833333333333333
 40
0.1666666666666667
 40
0.1666666666666667
 40
0.1666666666666667
 40
0.1666666666666667
 40
0.25
 40
0.25
 40
0.25
 40
0.25
 40
0.3333333333333333
 40
0.3333333333333333
 40
0.3333333333333333
 40
0.3333333333333333
 40
0.4166666666666667
 40
0.4166666666666667
 40
0.4166666666666667
 40
0.4166666666666667
 40
0.5
 40
0.5
 40
0.5
 40
0.5
 40
0.5833333333333334
 40
0.5833333333333334
 40
0.5833333333333334
 40
0.5833333333333334
 40
0.6666666666666666
 40
0.6666666666666666
 40
0.6666666666666666
 40
0.6666666666666666
 40
0.75
 40
0.75
 40
0.75
 40
0.75
 40
0.8333333333333334
 40
0.8333333333333334
 40
0.8333333333333334
 40
0.8333333333333334
 40
1.0
 40
1.0
 40
1.0
 40
1.0
 10
-94.6928
 20
59.4184
 30
0.0
 10
-94.5651
 20
58.6264
 30
0.0
 10
-94.4373
 20
57.8342
 30
0.0
 10
-94.3096
 20
57.0423
 30
0.0
 10
-94.3096
 20
57.0423
 30
0.0
 10
-94.1563
 20
57.0167
 30
0.0
 10
-94.003
 20
56.9912
 30
0.0
 10
-93.8497
 20
56.9656
 30
0.0
 10
-93.8497
 20
56.9656
 30
0.0
 10
-92.4701
 20
57.451
 30
0.0
 10
-91.0902
 20
57.9366
 30
0.0
 10
-89.7106
 20
58.422
 30
0.0
 10
-89.7106
 20
58.422
 30
0.0
 10
-88.8273
 20
58.6038
 30
0.0
 10
-87.0255
 20
58.1496
 30
0.0
 10
-86.798
 20
58.9585
 30
0.0
 10
-86.798
 20
58.9585
 30
0.0
 10
-86.3074
 20
60.7026
 30
0.0
 10
-88.4106
 20
63.0833
 30
0.0
 10
-88.7142
 20
64.4006
 30
0.0
 10
-88.7142
 20
64.4006
 30
0.0
 10
-88.612
 20
64.4006
 30
0.0
 10
-88.5098
 20
64.4006
 30
0.0
 10
-88.4076
 20
64.4006
 30
0.0
 10
-88.4076
 20
64.4006
 30
0.0
 10
-87.4581
 20
63.93
 30
0.0
 10
-84.4949
 20
61.788
 30
0.0
 10
-83.5787
 20
62.1778
 30
0.0
 10
-83.5787
 20
62.1778
 30
0.0
 10
-83.5564
 20
65.6157
 30
0.0
 10
-86.3754
 20
71.8673
 30
0.0
 10
-89.0974
 20
72.1421
 30
0.0
 10
-89.0974
 20
72.1421
 30
0.0
 10
-89.123
 20
72.1166
 30
0.0
 10
-89.1485
 20
72.091
 30
0.0
 10
-89.1741
 20
72.0655
 30
0.0
 10
-89.1741
 20
72.0655
 30
0.0
 10
-90.1209
 20
71.5622
 30
0.0
 10
-90.5325
 20
69.3744
 30
0.0
 10
-91.0137
 20
68.3863
 30
0.0
 10
-91.0137
 20
68.3863
 30
0.0
 10
-92.4928
 20
65.349
 30
0.0
 10
-94.7069
 20
64.1963
 30
0.0
 10
-94.6928
 20
59.4184
 30
0.0
  0
SPLINE
  5
85
330
1F
100
AcDbEntity
  8
layer 1
 62
   250
100
AcDbSpline
210
0.0
220
0.0
230
1.0
 70
    11
 71
     3
 72
    20
 73
    16
 74
     0
 42
0.0000000001
 43
0.0000000001
 12
1.0
 22
0.0
 32
0.0
 13
1.0
 23
0.0
 33
0.0
 40
0.0
 40
0.0
 40
0.0
 40
0.0
 40
0.2
 40
0.2
 40
0.2
 40
0.2
 40
0.4
 40
0.4
 40
0.4
 40
0.4
 40
0.6
 40
0.6
 40
0.6
 40
0.6
 40
1.0
 40
1.0
 40
1.0
 40
1.0
 10
-92.47
 20
-47.7369
 30
0.0
 10
-92.2912
 20
-47.788
 30
0.0
 10
-92.1123
 20
-47.8392
 30
0.0
 10
-91.9334
 20
-47.8902
 30
0.0
 10
-91.9334
 20
-47.8902
 30
0.0
 10
-87.7748
 20
-46.0632
 30
0.0
 10
-83.4541
 20
-42.0257
 30
0.0
 10
-84.1919
 20
-36.0863
 30
0.0
 10
-84.1919
 20
-36.0863
 30
0.0
 10
-84.3452
 20
-36.0863
 30
0.0
 10
-84.4985
 20
-36.0863
 30
0.0
 10
-84.6518
 20
-36.0863
 30
0.0
 10
-84.6518
 20
-36.0863
 30
0.0
 10
-89.0799
 20
-37.5729
 30
0.0
 10
-92.1203
 20
-42.2508
 30
0.0
 10
-92.47
 20
-47.7369
 30
0.0
  0
SPLINE
  5
86
330
1F
100
AcDbEntity
  8
layer 1
 62
   250
100
AcDbSpline
210
0.0
220
0.0
230
1.0
 70
    11
 71
     3
 72
    28
 73
    24
 74
     0
 42
0.0000000001
 43
0.0000000001
 12
1.0
 22
0.0
 32
0.0
 13
1.0
 23
0.0
 33
0.0
 40
0.0
 40
0.0
 40
0.0
 40
0.0
 40
0.1428571428571428
 40
0.1428571428571428
 40
0.1428571428571428
 40
0.1428571428571428
 40
0.2857142857142857
 40
0.2857142857142857
 40
0.2857142857142857
 40
0.2857142857142857
 40
0.4285714285714285
 40
0.4285714285714285
 40
0.4285714285714285
 40
0.4285714285714285
 40
0.5714285714285714
 40
0.5714285714285714
 40
0.5714285714285714
 40
0.5714285714285714
 40
0.7142857142857143
 40
0.7142857142857143
 40
0.7142857142857143
 40
0.7142857142857143
 40
1.0
 40
1.0
 40
1.0
 40
1.0
 10
-92.0868
 20
116.5986
 30
0.0
 10
-92.0357
 20
116.4708
 30
0.0
 10
-91.9845
 20
116.3431
 30
0.0
 10
-91.9334
 20
116.2153
 30
0.0
 10
-91.9334
 20
116.2153
 30
0.0
 10
-91.8568
 20
116.1642
 30
0.0
 10
-91.7802
 20
116.1131
 30
0.0
 10
-91.7035
 20
116.062
 30
0.0
 10
-91.7035
 20
116.062
 30
0.0
 10
-91.6269
 20
116.0876
 30
0.0
 10
-91.5502
 20
116.1131
 30
0.0
 10
-91.4736
 20
116.1387
 30
0.0
 10
-91.4736
 20
116.1387
 30
0.0
 10
-90.2223
 20
117.9862
 30
0.0
 10
-90.1444
 20
124.3066
 30
0.0
 10
-91.0903
 20
126.7162
 30
0.0
 10
-91.0903
 20
126.7162
 30
0.0
 10
-91.5493
 20
126.7066
 30
0.0
 10
-91.6043
 20
126.6446
 30
0.0
 10
-91.8568
 20
126.4863
 30
0.0
 10
-91.8568
 20
126.4863
 30
0.0
 10
-92.5063
 20
124.2707
 30
0.0
 10
-92.0957
 20
119.5402
 30
0.0
 10
-92.0868
 20
116.5986
 30
0.0
  0
SPLINE
  5
87
330
1F
100
AcDbEntity
  8
layer 1
 62
   250
100
AcDbSpline
210
0.0
220
0.0
230
1.0
 70
    11
 71
     3
 72
    32
 73
    28
 74
     0
 42
0.0000000001
 43
0.0000000001
 12
1.0
 22
0.0
 32
0.0
 13
1.0
 23
0.0
 33
0.0
 40
0.0
 40
0.0
 40
0.0
 40
0.0
 40
0.125
 40
0.125
 40
0.125
 40
0.125
 40
0.25
 40
0.25
 40
0.25
 40
0.25
 40
0.375
 40
0.375
 40
0.375
 40
0.375
 40
0.5
 40
0.5
 40
0.5
 40
0.5
 40
0.625
 40
0.625
 40
0.625
 40
0.625
 40
0.75
 40
0.75
 40
0.75
 40
0.75
 40
1.0
 40
1.0
 40
1.0
 40
1.0
 10
-91.6269
 20
17.2614
 30
0.0
 10
-91.5502
 20
16.4439
 30
0.0
 10
-91.4735
 20
15.6262
 30
0.0
 10
-91.3969
 20
14.8086
 30
0.0
 10
-91.3969
 20
14.8086
 30
0.0
 10
-90.3323
 20
10.9366
 30
0.0
 10
-89.3068
 20
8.384
 30
0.0
 10
-86.3381
 20
6.4539
 30
0.0
 10
-86.3381
 20
6.4539
 30
0.0
 10
-84.9992
 20
5.5835
 30
0.0
 10
-83.1039
 20
4.8287
 30
0.0
 10
-81.5858
 20
5.994
 30
0.0
 10
-81.5858
 20
5.994
 30
0.0
 10
-81.2321
 20
7.3828
 30
0.0
 10
-80.899
 20
13.8777
 30
0.0
 10
-81.6625
 20
15.4218
 30
0.0
 10
-81.6625
 20
15.4218
 30
0.0
 10
-82.4103
 20
16.9343
 30
0.0
 10
-85.0257
 20
17.8076
 30
0.0
 10
-86.568
 20
18.5645
 30
0.0
 10
-86.568
 20
18.5645
 30
0.0
 10
-87.8467
 20
19.1919
 30
0.0
 10
-89.3208
 20
20.3953
 30
0.0
 10
-91.167
 20
19.9441
 30
0.0
 10
-91.167
 20
19.9441
 30
0.0
 10
-91.5159
 20
19.2385
 30
0.0
 10
-91.6385
 20
18.3947
 30
0.0
 10
-91.6269
 20
17.2614
 30
0.0
  0
SPLINE
  5
88
330
1F
100
AcDbEntity
  8
layer 1
 62
   250
100
AcDbSpline
210
0.0
220
0.0
230
1.0
 70
    11
 71
     3
 72
    28
 73
    24
 74
     0
 42
0.0000000001
 43
0.0000000001
 12
1.0
 22
0.0
 32
0.0
 13
1.0
 23
0.0
 33
0.0
 40
0.0
 40
0.0
 40
0.0
 40
0.0
 40
0.1428571428571428
 40
0.1428571428571428
 40
0.1428571428571428
 40
0.1428571428571428
 40
0.2857142857142857
 40
0.2857142857142857
 40
0.2857142857142857
 40
0.2857142857142857
 40
0.4285714285714285
 40
0.4285714285714285
 40
0.4285714285714285
 40
0.4285714285714285
 40
0.5714285714285714
 40
0.5714285714285714
 40
0.5714285714285714
 40
0.5714285714285714
 40
0.7142857142857143
 40
0.7142857142857143
 40
0.7142857142857143
 40
0.7142857142857143
 40
1.0
 40
1.0
 40
1.0
 40
1.0
 10
-91.3969
 20
-14.0114
 30
0.0
 10
-90.2748
 20
-14.4065
 30
0.0
 10
-88.826
 20
-14.2769
 30
0.0
 10
-87.7178
 20
-13.9347
 30
0.0
 10
-87.7178
 20
-13.9347
 30
0.0
 10
-83.172
 20
-12.5312
 30
0.0
 10
-83.4521
 20
-8.3127
 30
0.0
 10
-81.5092
 20
-4.3536
 30
0.0
 10
-81.5092
 20
-4.3536
 30
0.0
 10
-80.9216
 20
-4.277
 30
0.0
 10
-80.3338
 20
-4.2003
 30
0.0
 10
-79.7463
 20
-4.1237
 30
0.0
 10
-79.7463
 20
-4.1237
 30
0.0
 10
-79.0978
 20
-3.6862
 30
0.0
 10
-79.3893
 20
-2.1815
 30
0.0
 10
-79.5929
 20
-1.3643
 30
0.0
 10
-79.5929
 20
-1.3643
 30
0.0
 10
-80.1336
 20
0.8049
 30
0.0
 10
-81.2679
 20
2.0481
 30
0.0
 10
-83.4254
 20
2.3148
 30
0.0
 10
-83.4254
 20
2.3148
 30
0.0
 10
-90.4708
 20
3.1861
 30
0.0
 10
-91.4589
 20
-7.4955
 30
0.0
 10
-91.3969
 20
-14.0114
 30
0.0
  0
SPLINE
  5
89
330
1F
100
AcDbEntity
  8
layer 1
 62
   250
100
AcDbSpline
210
0.0
220
0.0
230
1.0
 70
    11
 71
     3
 72
    20
 73
    16
 74
     0
 42
0.0000000001
 43
0.0000000001
 12
1.0
 22
0.0
 32
0.0
 13
1.0
 23
0.0
 33
0.0
 40
0.0
 40
0.0
 40
0.0
 40
0.0
 40
0.2
 40
0.2
 40
0.2
 40
0.2
 40
0.4
 40
0.4
 40
0.4
 40
0.4
 40
0.6
 40
0.6
 40
0.6
 40
0.6
 40
1.0
 40
1.0
 40
1.0
 40
1.0
 10
-90.937
 20
-92.3467
 30
0.0
 10
-87.9267
 20
-96.6294
 30
0.0
 10
-87.1179
 20
-97.5957
 30
0.0
 10
-80.9727
 20
-95.8725
 30
0.0
 10
-80.9727
 20
-95.8725
 30
0.0
 10
-80.9871
 20
-93.8869
 30
0.0
 10
-83.211
 20
-89.3102
 30
0.0
 10
-85.6482
 20
-89.7406
 30
0.0
 10
-85.6482
 20
-89.7406
 30
0.0
 10
-87.6204
 20
-90.0889
 30
0.0
 10
-88.788
 20
-91.32
 30
0.0
 10
-90.7837
 20
-91.8101
 30
0.0
 10
-90.7837
 20
-91.8101
 30
0.0
 10
-90.8348
 20
-91.989
 30
0.0
 10
-90.8859
 20
-92.1679
 30
0.0
 10
-90.937
 20
-92.3467
 30
0.0
  0
SPLINE
  5
8A
330
1F
100
AcDbEntity
  8
layer 1
 62
   250
100
AcDbSpline
210
0.0
220
0.0
230
1.0
 70
    11
 71
     3
 72
    44
 73
    40
 74
     0
 42
0.0000000001
 43
0.0000000001
 12
1.0
 22
0.0
 32
0.0
 13
1.0
 23
0.0
 33
0.0
 40
0.0
 40
0.0
 40
0.0
 40
0.0
 40
0.0909090909090909
 40
0.0909090909090909
 40
0.0909090909090909
 40
0.0909090909090909
 40
0.1818181818181818
 40
0.1818181818181818
 40
0.1818181818181818
 40
0.1818181818181818
 40
0.2727272727272727
 40
0.2727272727272727
 40
0.2727272727272727
 40
0.2727272727272727
 40
0.3636363636363636
 40
0.3636363636363636
 40
0.3636363636363636
 40
0.3636363636363636
 40
0.4545454545454545
 40
0.4545454545454545
 40
0.4545454545454545
 40
0.4545454545454545
 40
0.5454545454545454
 40
0.5454545454545454
 40
0.5454545454545454
 40
0.5454545454545454
 40
0.6363636363636364
 40
0.6363636363636364
 40
0.6363636363636364
 40
0.6363636363636364
 40
0.7272727272727273
 40
0.7272727272727273
 40
0.7272727272727273
 40
0.7272727272727273
 40
0.8181818181818182
 40
0.8181818181818182
 40
0.8181818181818182
 40
0.8181818181818182
 40
1.0
 40
1.0
 40
1.0
 40
1.0
 10
-88.331
 20
124.9533
 30
0.0
 10
-88.2032
 20
124.4679
 30
0.0
 10
-88.0754
 20
123.9824
 30
0.0
 10
-87.9477
 20
123.497
 30
0.0
 10
-87.9477
 20
123.497
 30
0.0
 10
-87.7972
 20
123.3386
 30
0.0
 10
-87.919
 20
123.4176
 30
0.0
 10
-87.6411
 20
123.3437
 30
0.0
 10
-87.6411
 20
123.3437
 30
0.0
 10
-86.8491
 20
123.9313
 30
0.0
 10
-86.0569
 20
124.519
 30
0.0
 10
-85.265
 20
125.1066
 30
0.0
 10
-85.265
 20
125.1066
 30
0.0
 10
-81.4383
 20
126.6976
 30
0.0
 10
-80.0231
 20
122.4041
 30
0.0
 10
-78.3666
 20
120.7376
 30
0.0
 10
-78.3666
 20
120.7376
 30
0.0
 10
-77.5929
 20
119.9593
 30
0.0
 10
-76.2223
 20
119.331
 30
0.0
 10
-74.994
 20
119.0513
 30
0.0
 10
-74.994
 20
119.0513
 30
0.0
 10
-71.7136
 20
118.3045
 30
0.0
 10
-69.2803
 20
124.0038
 30
0.0
 10
-70.7783
 20
126.6396
 30
0.0
 10
-70.7783
 20
126.6396
 30
0.0
 10
-72.6584
 20
127.3992
 30
0.0
 10
-78.1545
 20
127.0943
 30
0.0
 10
-80.5894
 20
126.9462
 30
0.0
 10
-80.5894
 20
126.9462
 30
0.0
 10
-82.2546
 20
126.8449
 30
0.0
 10
-83.1617
 20
126.3661
 30
0.0
 10
-84.6518
 20
126.8695
 30
0.0
 10
-84.6518
 20
126.8695
 30
0.0
 10
-84.9584
 20
126.844
 30
0.0
 10
-85.265
 20
126.8184
 30
0.0
 10
-85.5716
 20
126.7929
 30
0.0
 10
-85.5716
 20
126.7929
 30
0.0
 10
-87.3467
 20
127.0293
 30
0.0
 10
-88.3463
 20
126.8172
 30
0.0
 10
-88.331
 20
124.9533
 30
0.0
  0
SPLINE
  5
8B
330
1F
100
AcDbEntity
  8
layer 1
 62
   250
100
AcDbSpline
210
0.0
220
0.0
230
1.0
 70
    11
 71
     3
 72
    32
 73
    28
 74
     0
 42
0.0000000001
 43
0.0000000001
 12
1.0
 22
0.0
 32
0.0
 13
1.0
 23
0.0
 33
0.0
 40
0.0
 40
0.0
 40
0.0
 40
0.0
 40
0.125
 40
0.125
 40
0.125
 40
0.125
 40
0.25
 40
0.25
 40
0.25
 40
0.25
 40
0.375
 40
0.375
 40
0.375
 40
0.375
 40
0.5
 40
0.5
 40
0.5
 40
0.5
 40
0.625
 40
0.625
 40
0.625
 40
0.625
 40
0.75
 40
0.75
 40
0.75
 40
0.75
 40
1.0
 40
1.0
 40
1.0
 40
1.0
 10
-88.1776
 20
92.6841
 30
0.0
 10
-87.9222
 20
91.9687
 30
0.0
 10
-87.6666
 20
91.2532
 30
0.0
 10
-87.4112
 20
90.5379
 30
0.0
 10
-87.4112
 20
90.5379
 30
0.0
 10
-86.5252
 20
89.2841
 30
0.0
 10
-84.2517
 20
87.9397
 30
0.0
 10
-82.5056
 20
87.6252
 30
0.0
 10
-82.5056
 20
87.6252
 30
0.0
 10
-81.7412
 20
88.8811
 30
0.0
 10
-82.349
 20
94.367
 30
0.0
 10
-82.5823
 20
96.0566
 30
0.0
 10
-82.5823
 20
96.0566
 30
0.0
 10
-82.7392
 20
97.1936
 30
0.0
 10
-82.1166
 20
98.487
 30
0.0
 10
-82.5056
 20
99.6591
 30
0.0
 10
-82.5056
 20
99.6591
 30
0.0
 10
-83.1443
 20
100.4511
 30
0.0
 10
-83.7832
 20
101.2433
 30
0.0
 10
-84.4219
 20
102.0352
 30
0.0
 10
-84.4219
 20
102.0352
 30
0.0
 10
-84.8644
 20
102.617
 30
0.0
 10
-85.6738
 20
104.5591
 30
0.0
 10
-86.4147
 20
104.488
 30
0.0
 10
-86.4147
 20
104.488
 30
0.0
 10
-87.4338
 20
101.0597
 30
0.0
 10
-88.1383
 20
96.7328
 30
0.0
 10
-88.1776
 20
92.6841
 30
0.0
  0
SPLINE
  5
8C
330
1F
100
AcDbEntity
  8
layer 1
 62
   250
100
AcDbSpline
210
0.0
220
0.0
230
1.0
 70
    11
 71
     3
 72
    32
 73
    28
 74
     0
 42
0.0000000001
 43
0.0000000001
 12
1.0
 22
0.0
 32
0.0
 13
1.0
 23
0.0
 33
0.0
 40
0.0
 40
0.0
 40
0.0
 40
0.0
 40
0.125
 40
0.125
 40
0.125
 40
0.125
 40
0.25
 40
0.25
 40
0.25
 40
0.25
 40
0.375
 40
0.375
 40
0.375
 40
0.375
 40
0.5
 40
0.5
 40
0.5
 40
0.5
 40
0.625
 40
0.625
 40
0.625
 40
0.625
 40
0.75
 40
0.75
 40
0.75
 40
0.75
 40
1.0
 40
1.0
 40
1.0
 40
1.0
 10
-87.8711
 20
-106.3734
 30
0.0
 10
-87.4084
 20
-107.58
 30
0.0
 10
-87.8103
 20
-108.9318
 30
0.0
 10
-87.0279
 20
-109.746
 30
0.0
 10
-87.0279
 20
-109.746
 30
0.0
 10
-85.6311
 20
-109.7359
 30
0.0
 10
-85.0128
 20
-108.9379
 30
0.0
 10
-83.5021
 20
-109.2095
 30
0.0
 10
-83.5021
 20
-109.2095
 30
0.0
 10
-81.1591
 20
-109.6307
 30
0.0
 10
-77.686
 20
-109.9803
 30
0.0
 10
-75.3006
 20
-109.746
 30
0.0
 10
-75.3006
 20
-109.746
 30
0.0
 10
-73.6894
 20
-109.5877
 30
0.0
 10
-71.655
 20
-110.1534
 30
0.0
 10
-70.5484
 20
-109.516
 30
0.0
 10
-70.5484
 20
-109.516
 30
0.0
 10
-70.2791
 20
-106.6438
 30
0.0
 10
-70.5862
 20
-103.2858
 30
0.0
 10
-73.0011
 20
-102.4644
 30
0.0
 10
-73.0011
 20
-102.4644
 30
0.0
 10
-77.5132
 20
-104.7037
 30
0.0
 10
-78.1799
 20
-100.685
 30
0.0
 10
-81.5092
 20
-99.705
 30
0.0
 10
-81.5092
 20
-99.705
 30
0.0
 10
-85.8959
 20
-98.4137
 30
0.0
 10
-87.8728
 20
-102.4446
 30
0.0
 10
-87.8711
 20
-106.3734
 30
0.0
  0
SPLINE
  5
8D
330
1F
100
AcDbEntity
  8
layer 1
 62
   250
100
AcDbSpline
210
0.0
220
0.0
230
1.0
 70
    11
 71
     3
 72
    56
 73
    52
 74
     0
 42
0.0000000001
 43
0.0000000001
 12
1.0
 22
0.0
 32
0.0
 13
1.0
 23
0.0
 33
0.0
 40
0.0
 40
0.0
 40
0.0
 40
0.0
 40
0.0714285714285714
 40
0.0714285714285714
 40
0.0714285714285714
 40
0.0714285714285714
 40
0.1428571428571428
 40
0.1428571428571428
 40
0.1428571428571428
 40
0.1428571428571428
 40
0.2142857142857143
 40
0.2142857142857143
 40
0.2142857142857143
 40
0.2142857142857143
 40
0.2857142857142857
 40
0.2857142857142857
 40
0.2857142857142857
 40
0.2857142857142857
 40
0.3571428571428572
 40
0.3571428571428572
 40
0.3571428571428572
 40
0.3571428571428572
 40
0.4285714285714285
 40
0.4285714285714285
 40
0.4285714285714285
 40
0.4285714285714285
 40
0.5
 40
0.5
 40
0.5
 40
0.5
 40
0.5714285714285714
 40
0.5714285714285714
 40
0.5714285714285714
 40
0.5714285714285714
 40
0.6428571428571429
 40
0.6428571428571429
 40
0.6428571428571429
 40
0.6428571428571429
 40
0.7142857142857143
 40
0.7142857142857143
 40
0.7142857142857143
 40
0.7142857142857143
 40
0.7857142857142857
 40
0.7857142857142857
 40
0.7857142857142857
 40
0.7857142857142857
 40
0.8571428571428571
 40
0.8571428571428571
 40
0.8571428571428571
 40
0.8571428571428571
 40
1.0
 40
1.0
 40
1.0
 40
1.0
 10
-86.568
 20
-64.5997
 30
0.0
 10
-86.4161
 20
-64.8232
 30
0.0
 10
-86.4313
 20
-64.9141
 30
0.0
 10
-86.1848
 20
-65.0596
 30
0.0
 10
-86.1848
 20
-65.0596
 30
0.0
 10
-83.836
 20
-65.919
 30
0.0
 10
-82.7399
 20
-58.0093
 30
0.0
 10
-82.1224
 20
-56.245
 30
0.0
 10
-82.1224
 20
-56.245
 30
0.0
 10
-79.4526
 20
-48.6165
 30
0.0
 10
-77.8209
 20
-40.3857
 30
0.0
 10
-76.297
 20
-31.564
 30
0.0
 10
-76.297
 20
-31.564
 30
0.0
 10
-76.1438
 20
-28.575
 30
0.0
 10
-75.9904
 20
-25.5851
 30
0.0
 10
-75.8371
 20
-22.5961
 30
0.0
 10
-75.8371
 20
-22.5961
 30
0.0
 10
-75.8627
 20
-21.2165
 30
0.0
 10
-75.8882
 20
-19.8366
 30
0.0
 10
-75.9138
 20
-18.457
 30
0.0
 10
-75.9138
 20
-18.457
 30
0.0
 10
-76.174
 20
-16.0763
 30
0.0
 10
-75.8237
 20
-13.8343
 30
0.0
 10
-76.2204
 20
-11.7119
 30
0.0
 10
-76.2204
 20
-11.7119
 30
0.0
 10
-76.5123
 20
-10.1499
 30
0.0
 10
-76.3876
 20
-7.2777
 30
0.0
 10
-78.2133
 20
-7.5728
 30
0.0
 10
-78.2133
 20
-7.5728
 30
0.0
 10
-79.0654
 20
-8.2922
 30
0.0
 10
-78.5774
 20
-9.8702
 30
0.0
 10
-78.6732
 20
-11.0987
 30
0.0
 10
-78.6732
 20
-11.0987
 30
0.0
 10
-78.9767
 20
-14.9919
 30
0.0
 10
-77.9586
 20
-20.3382
 30
0.0
 10
-78.6732
 20
-24.8189
 30
0.0
 10
-78.6732
 20
-24.8189
 30
0.0
 10
-78.8009
 20
-26.6072
 30
0.0
 10
-78.9287
 20
-28.396
 30
0.0
 10
-79.0564
 20
-30.1843
 30
0.0
 10
-79.0564
 20
-30.1843
 30
0.0
 10
-79.9055
 20
-34.9251
 30
0.0
 10
-80.2739
 20
-39.6596
 30
0.0
 10
-81.5858
 20
-43.9811
 30
0.0
 10
-81.5858
 20
-43.9811
 30
0.0
 10
-82.6077
 20
-47.992
 30
0.0
 10
-83.6299
 20
-52.0041
 30
0.0
 10
-84.6518
 20
-56.015
 30
0.0
 10
-84.6518
 20
-56.015
 30
0.0
 10
-85.4995
 20
-58.4967
 30
0.0
 10
-86.5043
 20
-61.6635
 30
0.0
 10
-86.568
 20
-64.5997
 30
0.0
  0
SPLINE
  5
8E
330
1F
100
AcDbEntity
  8
layer 1
 62
   250
100
AcDbSpline
210
0.0
220
0.0
230
1.0
 70
    11
 71
     3
 72
    48
 73
    44
 74
     0
 42
0.0000000001
 43
0.0000000001
 12
1.0
 22
0.0
 32
0.0
 13
1.0
 23
0.0
 33
0.0
 40
0.0
 40
0.0
 40
0.0
 40
0.0
 40
0.0833333333333333
 40
0.0833333333333333
 40
0.0833333333333333
 40
0.0833333333333333
 40
0.1666666666666667
 40
0.1666666666666667
 40
0.1666666666666667
 40
0.1666666666666667
 40
0.25
 40
0.25
 40
0.25
 40
0.25
 40
0.3333333333333333
 40
0.3333333333333333
 40
0.3333333333333333
 40
0.3333333333333333
 40
0.4166666666666667
 40
0.4166666666666667
 40
0.4166666666666667
 40
0.4166666666666667
 40
0.5
 40
0.5
 40
0.5
 40
0.5
 40
0.5833333333333334
 40
0.5833333333333334
 40
0.5833333333333334
 40
0.5833333333333334
 40
0.6666666666666666
 40
0.6666666666666666
 40
0.6666666666666666
 40
0.6666666666666666
 40
0.75
 40
0.75
 40
0.75
 40
0.75
 40
0.8333333333333334
 40
0.8333333333333334
 40
0.8333333333333334
 40
0.8333333333333334
 40
1.0
 40
1.0
 40
1.0
 40
1.0
 10
-86.3381
 20
75.2081
 30
0.0
 10
-85.7236
 20
74.9221
 30
0.0
 10
-84.9824
 20
74.9678
 30
0.0
 10
-84.4985
 20
74.5949
 30
0.0
 10
-84.4985
 20
74.5949
 30
0.0
 10
-82.7694
 20
73.2625
 30
0.0
 10
-82.7611
 20
70.3061
 30
0.0
 10
-81.9691
 20
68.0031
 30
0.0
 10
-81.9691
 20
68.0031
 30
0.0
 10
-80.8745
 20
64.8202
 30
0.0
 10
-79.3605
 20
61.1805
 30
0.0
 10
-76.6036
 20
59.6483
 30
0.0
 10
-76.6036
 20
59.6483
 30
0.0
 10
-72.0208
 20
57.1014
 30
0.0
 10
-69.5936
 20
65.5238
 30
0.0
 10
-71.5448
 20
69.0762
 30
0.0
 10
-71.5448
 20
69.0762
 30
0.0
 10
-71.5704
 20
69.0762
 30
0.0
 10
-71.5959
 20
69.0762
 30
0.0
 10
-71.6214
 20
69.0762
 30
0.0
 10
-71.6214
 20
69.0762
 30
0.0
 10
-72.3112
 20
68.5397
 30
0.0
 10
-73.0012
 20
68.003
 30
0.0
 10
-73.691
 20
67.4665
 30
0.0
 10
-73.691
 20
67.4665
 30
0.0
 10
-74.6309
 20
67.0762
 30
0.0
 10
-75.9271
 20
67.2367
 30
0.0
 10
-76.6036
 20
67.6965
 30
0.0
 10
-76.6036
 20
67.6965
 30
0.0
 10
-79.1994
 20
69.4606
 30
0.0
 10
-78.8632
 20
73.2235
 30
0.0
 10
-79.4397
 20
76.5878
 30
0.0
 10
-79.4397
 20
76.5878
 30
0.0
 10
-79.6503
 20
77.8169
 30
0.0
 10
-79.5037
 20
78.9318
 30
0.0
 10
-80.0528
 20
79.807
 30
0.0
 10
-80.0528
 20
79.807
 30
0.0
 10
-80.4616
 20
80.0625
 30
0.0
 10
-80.8705
 20
80.3181
 30
0.0
 10
-81.2792
 20
80.5735
 30
0.0
 10
-81.2792
 20
80.5735
 30
0.0
 10
-83.1335
 20
79.9675
 30
0.0
 10
-85.7883
 20
77.0532
 30
0.0
 10
-86.3381
 20
75.2081
 30
0.0
  0
SPLINE
  5
8F
330
1F
100
AcDbEntity
  8
layer 1
 62
   250
100
AcDbSpline
210
0.0
220
0.0
230
1.0
 70
    11
 71
     3
 72
    20
 73
    16
 74
     0
 42
0.0000000001
 43
0.0000000001
 12
1.0
 22
0.0
 32
0.0
 13
1.0
 23
0.0
 33
0.0
 40
0.0
 40
0.0
 40
0.0
 40
0.0
 40
0.2
 40
0.2
 40
0.2
 40
0.2
 40
0.4
 40
0.4
 40
0.4
 40
0.4
 40
0.6
 40
0.6
 40
0.6
 40
0.6
 40
1.0
 40
1.0
 40
1.0
 40
1.0
 10
-83.8853
 20
107.2474
 30
0.0
 10
-83.268
 20
106.1312
 30
0.0
 10
-83.0866
 20
105.2313
 30
0.0
 10
-82.1224
 20
104.488
 30
0.0
 10
-82.1224
 20
104.488
 30
0.0
 10
-80.2103
 20
105.4176
 30
0.0
 10
-81.9469
 20
108.0306
 30
0.0
 10
-83.0422
 20
108.5504
 30
0.0
 10
-83.0422
 20
108.5504
 30
0.0
 10
-83.1954
 20
108.5249
 30
0.0
 10
-83.3488
 20
108.4993
 30
0.0
 10
-83.5021
 20
108.4737
 30
0.0
 10
-83.5021
 20
108.4737
 30
0.0
 10
-83.6997
 20
108.0768
 30
0.0
 10
-83.8531
 20
107.8427
 30
0.0
 10
-83.8853
 20
107.2474
 30
0.0
  0
SPLINE
  5
90
330
1F
100
AcDbEntity
  8
layer 1
 62
   250
100
AcDbSpline
210
0.0
220
0.0
230
1.0
 70
    11
 71
     3
 72
    40
 73
    36
 74
     0
 42
0.0000000001
 43
0.0000000001
 12
1.0
 22
0.0
 32
0.0
 13
1.0
 23
0.0
 33
0.0
 40
0.0
 40
0.0
 40
0.0
 40
0.0
 40
0.1
 40
0.1
 40
0.1
 40
0.1
 40
0.2
 40
0.2
 40
0.2
 40
0.2
 40
0.3
 40
0.3
 40
0.3
 40
0.3
 40
0.4
 40
0.4
 40
0.4
 40
0.4
 40
0.5
 40
0.5
 40
0.5
 40
0.5
 40
0.6
 40
0.6
 40
0.6
 40
0.6
 40
0.7
 40
0.7
 40
0.7
 40
0.7
 40
0.8
 40
0.8
 40
0.8
 40
0.8
 40
1.0
 40
1.0
 40
1.0
 40
1.0
 10
-83.1955
 20
-73.1078
 30
0.0
 10
-82.4365
 20
-75.2923
 30
0.0
 10
-82.2983
 20
-80.9249
 30
0.0
 10
-78.5965
 20
-78.4732
 30
0.0
 10
-78.5965
 20
-78.4732
 30
0.0
 10
-78.3217
 20
-77.5438
 30
0.0
 10
-78.7227
 20
-76.7659
 30
0.0
 10
-79.0564
 20
-76.0204
 30
0.0
 10
-79.0564
 20
-76.0204
 30
0.0
 10
-79.0309
 20
-75.9693
 30
0.0
 10
-79.0053
 20
-75.9182
 30
0.0
 10
-78.9798
 20
-75.8671
 30
0.0
 10
-78.9798
 20
-75.8671
 30
0.0
 10
-76.7118
 20
-76.1426
 30
0.0
 10
-75.8112
 20
-79.701
 30
0.0
 10
-73.0011
 20
-77.9367
 30
0.0
 10
-73.0011
 20
-77.9367
 30
0.0
 10
-72.3969
 20
-75.5146
 30
0.0
 10
-73.6646
 20
-74.3845
 30
0.0
 10
-71.6214
 20
-72.6479
 30
0.0
 10
-71.6214
 20
-72.6479
 30
0.0
 10
-71.647
 20
-72.4946
 30
0.0
 10
-71.6725
 20
-72.3413
 30
0.0
 10
-71.6981
 20
-72.188
 30
0.0
 10
-71.6981
 20
-72.188
 30
0.0
 10
-72.6178
 20
-72.1369
 30
0.0
 10
-73.5378
 20
-72.0858
 30
0.0
 10
-74.4575
 20
-72.0347
 30
0.0
 10
-74.4575
 20
-72.0347
 30
0.0
 10
-75.6326
 20
-71.1661
 30
0.0
 10
-76.8082
 20
-70.2972
 30
0.0
 10
-77.9833
 20
-69.4286
 30
0.0
 10
-77.9833
 20
-69.4286
 30
0.0
 10
-80.8605
 20
-68.5471
 30
0.0
 10
-83.2353
 20
-70.3176
 30
0.0
 10
-83.1955
 20
-73.1078
 30
0.0
  0
SPLINE
  5
91
330
1F
100
AcDbEntity
  8
layer 1
 62
   250
100
AcDbSpline
210
0.0
220
0.0
230
1.0
 70
    11
 71
     3
 72
    32
 73
    28
 74
     0
 42
0.0000000001
 43
0.0000000001
 12
1.0
 22
0.0
 32
0.0
 13
1.0
 23
0.0
 33
0.0
 40
0.0
 40
0.0
 40
0.0
 40
0.0
 40
0.125
 40
0.125
 40
0.125
 40
0.125
 40
0.25
 40
0.25
 40
0.25
 40
0.25
 40
0.375
 40
0.375
 40
0.375
 40
0.375
 40
0.5
 40
0.5
 40
0.5
 40
0.5
 40
0.625
 40
0.625
 40
0.625
 40
0.625
 40
0.75
 40
0.75
 40
0.75
 40
0.75
 40
1.0
 40
1.0
 40
1.0
 40
1.0
 10
-82.2757
 20
46.8479
 30
0.0
 10
-82.1479
 20
45.8516
 30
0.0
 10
-82.0202
 20
44.855
 30
0.0
 10
-81.8924
 20
43.8586
 30
0.0
 10
-81.8924
 20
43.8586
 30
0.0
 10
-81.1509
 20
40.8984
 30
0.0
 10
-80.0676
 20
37.5339
 30
0.0
 10
-77.9067
 20
35.9638
 30
0.0
 10
-77.9067
 20
35.9638
 30
0.0
 10
-75.7182
 20
34.3736
 30
0.0
 10
-72.6974
 20
34.5977
 30
0.0
 10
-70.5484
 20
36.0404
 30
0.0
 10
-70.5484
 20
36.0404
 30
0.0
 10
-67.9587
 20
37.779
 30
0.0
 10
-62.9843
 20
45.6542
 30
0.0
 10
-62.3469
 20
49.3007
 30
0.0
 10
-62.3469
 20
49.3007
 30
0.0
 10
-65.7408
 20
51.2909
 30
0.0
 10
-68.611
 20
46.3767
 30
0.0
 10
-71.7747
 20
47.8444
 30
0.0
 10
-71.7747
 20
47.8444
 30
0.0
 10
-74.798
 20
49.2469
 30
0.0
 10
-75.5033
 20
55.1055
 30
0.0
 10
-78.5199
 20
56.0458
 30
0.0
 10
-78.5199
 20
56.0458
 30
0.0
 10
-82.052
 20
57.1468
 30
0.0
 10
-82.2943
 20
49.6937
 30
0.0
 10
-82.2757
 20
46.8479
 30
0.0
  0
SPLINE
  5
92
330
1F
100
AcDbEntity
  8
layer 1
 62
   250
100
AcDbSpline
210
0.0
220
0.0
230
1.0
 70
    11
 71
     3
 72
    32
 73
    28
 74
     0
 42
0.0000000001
 43
0.0000000001
 12
1.0
 22
0.0
 32
0.0
 13
1.0
 23
0.0
 33
0.0
 40
0.0
 40
0.0
 40
0.0
 40
0.0
 40
0.125
 40
0.125
 40
0.125
 40
0.125
 40
0.25
 40
0.25
 40
0.25
 40
0.25
 40
0.375
 40
0.375
 40
0.375
 40
0.375
 40
0.5
 40
0.5
 40
0.5
 40
0.5
 40
0.625
 40
0.625
 40
0.625
 40
0.625
 40
0.75
 40
0.75
 40
0.75
 40
0.75
 40
1.0
 40
1.0
 40
1.0
 40
1.0
 10
-82.0457
 20
21.937
 30
0.0
 10
-81.3271
 20
20.4891
 30
0.0
 10
-80.4702
 20
16.5198
 30
0.0
 10
-79.2864
 20
15.8051
 30
0.0
 10
-79.2864
 20
15.8051
 30
0.0
 10
-79.1075
 20
15.8051
 30
0.0
 10
-78.9287
 20
15.8051
 30
0.0
 10
-78.7498
 20
15.8051
 30
0.0
 10
-78.7498
 20
15.8051
 30
0.0
 10
-78.3015
 20
18.1799
 30
0.0
 10
-76.6677
 20
21.4971
 30
0.0
 10
-77.5234
 20
24.5431
 30
0.0
 10
-77.5234
 20
24.5431
 30
0.0
 10
-77.8797
 20
25.8111
 30
0.0
 10
-78.6609
 20
27.0468
 30
0.0
 10
-79.2097
 20
28.1456
 30
0.0
 10
-79.2097
 20
28.1456
 30
0.0
 10
-79.5839
 20
28.8948
 30
0.0
 10
-79.7597
 20
29.5687
 30
0.0
 10
-80.2828
 20
30.1385
 30
0.0
 10
-80.2828
 20
30.1385
 30
0.0
 10
-80.3083
 20
30.1385
 30
0.0
 10
-80.3339
 20
30.1385
 30
0.0
 10
-80.3594
 20
30.1385
 30
0.0
 10
-80.3594
 20
30.1385
 30
0.0
 10
-81.3206
 20
29.0923
 30
0.0
 10
-82.0412
 20
23.9988
 30
0.0
 10
-82.0457
 20
21.937
 30
0.0
  0
SPLINE
  5
93
330
1F
100
AcDbEntity
  8
layer 1
 62
   250
100
AcDbSpline
210
0.0
220
0.0
230
1.0
 70
    11
 71
     3
 72
    44
 73
    40
 74
     0
 42
0.0000000001
 43
0.0000000001
 12
1.0
 22
0.0
 32
0.0
 13
1.0
 23
0.0
 33
0.0
 40
0.0
 40
0.0
 40
0.0
 40
0.0
 40
0.0909090909090909
 40
0.0909090909090909
 40
0.0909090909090909
 40
0.0909090909090909
 40
0.1818181818181818
 40
0.1818181818181818
 40
0.1818181818181818
 40
0.1818181818181818
 40
0.2727272727272727
 40
0.2727272727272727
 40
0.2727272727272727
 40
0.2727272727272727
 40
0.3636363636363636
 40
0.3636363636363636
 40
0.3636363636363636
 40
0.3636363636363636
 40
0.4545454545454545
 40
0.4545454545454545
 40
0.4545454545454545
 40
0.4545454545454545
 40
0.5454545454545454
 40
0.5454545454545454
 40
0.5454545454545454
 40
0.5454545454545454
 40
0.6363636363636364
 40
0.6363636363636364
 40
0.6363636363636364
 40
0.6363636363636364
 40
0.7272727272727273
 40
0.7272727272727273
 40
0.7272727272727273
 40
0.7272727272727273
 40
0.8181818181818182
 40
0.8181818181818182
 40
0.8181818181818182
 40
0.8181818181818182
 40
1.0
 40
1.0
 40
1.0
 40
1.0
 10
-81.9691
 20
-65.7495
 30
0.0
 10
-81.7391
 20
-66.0305
 30
0.0
 10
-81.5092
 20
-66.3116
 30
0.0
 10
-81.2792
 20
-66.5926
 30
0.0
 10
-81.2792
 20
-66.5926
 30
0.0
 10
-79.1939
 20
-66.6315
 30
0.0
 10
-76.3416
 20
-64.4523
 30
0.0
 10
-74.6108
 20
-63.6799
 30
0.0
 10
-74.6108
 20
-63.6799
 30
0.0
 10
-69.0702
 20
-61.2075
 30
0.0
 10
-63.8182
 20
-58.9676
 30
0.0
 10
-59.1276
 20
-55.7851
 30
0.0
 10
-59.1276
 20
-55.7851
 30
0.0
 10
-57.3415
 20
-54.5732
 30
0.0
 10
-54.7297
 20
-52.692
 30
0.0
 10
-54.5287
 20
-50.0364
 30
0.0
 10
-54.5287
 20
-50.0364
 30
0.0
 10
-54.7487
 20
-49.5512
 30
0.0
 10
-54.9113
 20
-49.2886
 30
0.0
 10
-55.3718
 20
-49.04
 30
0.0
 10
-55.3718
 20
-49.04
 30
0.0
 10
-56.6137
 20
-49.2347
 30
0.0
 10
-57.1268
 20
-51.1394
 30
0.0
 10
-57.8246
 20
-51.9526
 30
0.0
 10
-57.8246
 20
-51.9526
 30
0.0
 10
-58.7954
 20
-52.7446
 30
0.0
 10
-59.7665
 20
-53.5368
 30
0.0
 10
-60.7373
 20
-54.3287
 30
0.0
 10
-60.7373
 20
-54.3287
 30
0.0
 10
-64.7563
 20
-56.9871
 30
0.0
 10
-69.3877
 20
-59.1635
 30
0.0
 10
-73.9976
 20
-61.1505
 30
0.0
 10
-73.9976
 20
-61.1505
 30
0.0
 10
-76.5314
 20
-62.2427
 30
0.0
 10
-80.4437
 20
-63.1688
 30
0.0
 10
-81.9691
 20
-65.2896
 30
0.0
 10
-81.9691
 20
-65.2896
 30
0.0
 10
-81.9691
 20
-65.4428
 30
0.0
 10
-81.9691
 20
-65.5962
 30
0.0
 10
-81.9691
 20
-65.7495
 30
0.0
  0
SPLINE
  5
94
330
1F
100
AcDbEntity
  8
layer 1
 62
   250
100
AcDbSpline
210
0.0
220
0.0
230
1.0
 70
    11
 71
     3
 72
    32
 73
    28
 74
     0
 42
0.0000000001
 43
0.0000000001
 12
1.0
 22
0.0
 32
0.0
 13
1.0
 23
0.0
 33
0.0
 40
0.0
 40
0.0
 40
0.0
 40
0.0
 40
0.125
 40
0.125
 40
0.125
 40
0.125
 40
0.25
 40
0.25
 40
0.25
 40
0.25
 40
0.375
 40
0.375
 40
0.375
 40
0.375
 40
0.5
 40
0.5
 40
0.5
 40
0.5
 40
0.625
 40
0.625
 40
0.625
 40
0.625
 40
0.75
 40
0.75
 40
0.75
 40
0.75
 40
1.0
 40
1.0
 40
1.0
 40
1.0
 10
-68.4788
 20
21.4771
 30
0.0
 10
-69.9299
 20
21.3626
 30
0.0
 10
-70.8499
 20
19.767
 30
0.0
 10
-71.7747
 20
19.0243
 30
0.0
 10
-71.7747
 20
19.0243
 30
0.0
 10
-74.84
 20
16.5627
 30
0.0
 10
-75.0726
 20
12.4313
 30
0.0
 10
-76.0671
 20
7.8336
 30
0.0
 10
-76.0671
 20
7.8336
 30
0.0
 10
-76.4849
 20
5.9019
 30
0.0
 10
-77.1192
 20
3.9233
 30
0.0
 10
-77.1402
 20
1.7017
 30
0.0
 10
-77.1402
 20
1.7017
 30
0.0
 10
-77.0891
 20
1.6761
 30
0.0
 10
-77.038
 20
1.6506
 30
0.0
 10
-76.9869
 20
1.625
 30
0.0
 10
-76.9869
 20
1.625
 30
0.0
 10
-75.3466
 20
2.4569
 30
0.0
 10
-72.6706
 20
3.4943
 30
0.0
 10
-71.4681
 20
4.8443
 30
0.0
 10
-71.4681
 20
4.8443
 30
0.0
 10
-68.4764
 20
8.203
 30
0.0
 10
-69.2304
 20
13.2444
 30
0.0
 10
-68.8621
 20
18.6411
 30
0.0
 10
-68.8621
 20
18.6411
 30
0.0
 10
-68.7343
 20
19.5863
 30
0.0
 10
-68.6066
 20
20.5319
 30
0.0
 10
-68.4788
 20
21.4771
 30
0.0
  0
SPLINE
  5
95
330
1F
100
AcDbEntity
  8
layer 1
 62
   250
100
AcDbSpline
210
0.0
220
0.0
230
1.0
 70
    11
 71
     3
 72
    44
 73
    40
 74
     0
 42
0.0000000001
 43
0.0000000001
 12
1.0
 22
0.0
 32
0.0
 13
1.0
 23
0.0
 33
0.0
 40
0.0
 40
0.0
 40
0.0
 40
0.0
 40
0.0909090909090909
 40
0.0909090909090909
 40
0.0909090909090909
 40
0.0909090909090909
 40
0.1818181818181818
 40
0.1818181818181818
 40
0.1818181818181818
 40
0.1818181818181818
 40
0.2727272727272727
 40
0.2727272727272727
 40
0.2727272727272727
 40
0.2727272727272727
 40
0.3636363636363636
 40
0.3636363636363636
 40
0.3636363636363636
 40
0.3636363636363636
 40
0.4545454545454545
 40
0.4545454545454545
 40
0.4545454545454545
 40
0.4545454545454545
 40
0.5454545454545454
 40
0.5454545454545454
 40
0.5454545454545454
 40
0.5454545454545454
 40
0.6363636363636364
 40
0.6363636363636364
 40
0.6363636363636364
 40
0.6363636363636364
 40
0.7272727272727273
 40
0.7272727272727273
 40
0.7272727272727273
 40
0.7272727272727273
 40
0.8181818181818182
 40
0.8181818181818182
 40
0.8181818181818182
 40
0.8181818181818182
 40
1.0
 40
1.0
 40
1.0
 40
1.0
 10
-76.6803
 20
-85.065
 30
0.0
 10
-75.0337
 20
-88.4992
 30
0.0
 10
-75.3714
 20
-93.739
 30
0.0
 10
-72.158
 20
-95.6426
 30
0.0
 10
-72.158
 20
-95.6426
 30
0.0
 10
-70.0144
 20
-96.9124
 30
0.0
 10
-66.5484
 20
-96.705
 30
0.0
 10
-65.5662
 20
-94.5695
 30
0.0
 10
-65.5662
 20
-94.5695
 30
0.0
 10
-65.8014
 20
-92.8323
 30
0.0
 10
-67.0251
 20
-90.5887
 30
0.0
 10
-66.1027
 20
-88.5142
 30
0.0
 10
-66.1027
 20
-88.5142
 30
0.0
 10
-65.5197
 20
-87.203
 30
0.0
 10
-63.7926
 20
-86.5452
 30
0.0
 10
-63.6499
 20
-84.9117
 30
0.0
 10
-63.6499
 20
-84.9117
 30
0.0
 10
-63.7777
 20
-84.6818
 30
0.0
 10
-63.9055
 20
-84.4518
 30
0.0
 10
-64.0332
 20
-84.2219
 30
0.0
 10
-64.0332
 20
-84.2219
 30
0.0
 10
-66.313
 20
-84.2971
 30
0.0
 10
-67.0838
 20
-82.4503
 30
0.0
 10
-69.2453
 20
-82.6889
 30
0.0
 10
-69.2453
 20
-82.6889
 30
0.0
 10
-71.4874
 20
-82.9363
 30
0.0
 10
-72.3312
 20
-85.5184
 30
0.0
 10
-74.5341
 20
-85.5249
 30
0.0
 10
-74.5341
 20
-85.5249
 30
0.0
 10
-75.2565
 20
-85.527
 30
0.0
 10
-75.7972
 20
-84.8873
 30
0.0
 10
-76.527
 20
-84.6818
 30
0.0
 10
-76.527
 20
-84.6818
 30
0.0
 10
-76.5781
 20
-84.7329
 30
0.0
 10
-76.6292
 20
-84.784
 30
0.0
 10
-76.6803
 20
-84.8351
 30
0.0
 10
-76.6803
 20
-84.8351
 30
0.0
 10
-76.6803
 20
-84.9117
 30
0.0
 10
-76.6803
 20
-84.9884
 30
0.0
 10
-76.6803
 20
-85.065
 30
0.0
  0
SPLINE
  5
96
330
1F
100
AcDbEntity
  8
layer 1
 62
   250
100
AcDbSpline
210
0.0
220
0.0
230
1.0
 70
    11
 71
     3
 72
    36
 73
    32
 74
     0
 42
0.0000000001
 43
0.0000000001
 12
1.0
 22
0.0
 32
0.0
 13
1.0
 23
0.0
 33
0.0
 40
0.0
 40
0.0
 40
0.0
 40
0.0
 40
0.1111111111111111
 40
0.1111111111111111
 40
0.1111111111111111
 40
0.1111111111111111
 40
0.2222222222222222
 40
0.2222222222222222
 40
0.2222222222222222
 40
0.2222222222222222
 40
0.3333333333333333
 40
0.3333333333333333
 40
0.3333333333333333
 40
0.3333333333333333
 40
0.4444444444444444
 40
0.4444444444444444
 40
0.4444444444444444
 40
0.4444444444444444
 40
0.5555555555555556
 40
0.5555555555555556
 40
0.5555555555555556
 40
0.5555555555555556
 40
0.6666666666666666
 40
0.6666666666666666
 40
0.6666666666666666
 40
0.6666666666666666
 40
0.7777777777777778
 40
0.7777777777777778
 40
0.7777777777777778
 40
0.7777777777777778
 40
1.0
 40
1.0
 40
1.0
 40
1.0
 10
-74.6108
 20
-13.3215
 30
0.0
 10
-72.4936
 20
-15.6678
 30
0.0
 10
-71.4781
 20
-21.7399
 30
0.0
 10
-68.8621
 20
-23.2093
 30
0.0
 10
-68.8621
 20
-23.2093
 30
0.0
 10
-67.83
 20
-23.7889
 30
0.0
 10
-66.5064
 20
-23.4288
 30
0.0
 10
-65.1829
 20
-23.7458
 30
0.0
 10
-65.1829
 20
-23.7458
 30
0.0
 10
-64.2884
 20
-23.96
 30
0.0
 10
-62.5257
 20
-24.7894
 30
0.0
 10
-61.5804
 20
-24.4356
 30
0.0
 10
-61.5804
 20
-24.4356
 30
0.0
 10
-61.4229
 20
-24.3317
 30
0.0
 10
-61.4571
 20
-24.3498
 30
0.0
 10
-61.3505
 20
-24.2057
 30
0.0
 10
-61.3505
 20
-24.2057
 30
0.0
 10
-62.3843
 20
-20.8557
 30
0.0
 10
-64.4743
 20
-17.6061
 30
0.0
 10
-66.0261
 20
-14.6245
 30
0.0
 10
-66.0261
 20
-14.6245
 30
0.0
 10
-66.7615
 20
-13.2116
 30
0.0
 10
-67.2306
 20
-11.3688
 30
0.0
 10
-68.4788
 20
-10.4855
 30
0.0
 10
-68.4788
 20
-10.4855
 30
0.0
 10
-70.8142
 20
-10.6559
 30
0.0
 10
-73.1263
 20
-11.7981
 30
0.0
 10
-74.6108
 20
-12.9383
 30
0.0
 10
-74.6108
 20
-12.9383
 30
0.0
 10
-74.6108
 20
-13.066
 30
0.0
 10
-74.6108
 20
-13.1938
 30
0.0
 10
-74.6108
 20
-13.3215
 30
0.0
  0
SPLINE
  5
97
330
1F
100
AcDbEntity
  8
layer 1
 62
   250
100
AcDbSpline
210
0.0
220
0.0
230
1.0
 70
    11
 71
     3
 72
    16
 73
    12
 74
     0
 42
0.0000000001
 43
0.0000000001
 12
1.0
 22
0.0
 32
0.0
 13
1.0
 23
0.0
 33
0.0
 40
0.0
 40
0.0
 40
0.0
 40
0.0
 40
0.25
 40
0.25
 40
0.25
 40
0.25
 40
0.5
 40
0.5
 40
0.5
 40
0.5
 40
1.0
 40
1.0
 40
1.0
 40
1.0
 10
-73.5377
 20
112.6128
 30
0.0
 10
-72.5167
 20
109.9217
 30
0.0
 10
-70.7679
 20
105.7071
 30
0.0
 10
-68.0956
 20
104.9479
 30
0.0
 10
-68.0956
 20
104.9479
 30
0.0
 10
-66.5642
 20
107.023
 30
0.0
 10
-69.943
 20
112.5378
 30
0.0
 10
-71.0849
 20
113.6859
 30
0.0
 10
-71.0849
 20
113.6859
 30
0.0
 10
-72.1264
 20
114.7331
 30
0.0
 10
-73.3329
 20
113.8942
 30
0.0
 10
-73.5377
 20
112.6128
 30
0.0
  0
SPLINE
  5
98
330
1F
100
AcDbEntity
  8
layer 1
 62
   250
100
AcDbSpline
210
0.0
220
0.0
230
1.0
 70
    11
 71
     3
 72
    32
 73
    28
 74
     0
 42
0.0000000001
 43
0.0000000001
 12
1.0
 22
0.0
 32
0.0
 13
1.0
 23
0.0
 33
0.0
 40
0.0
 40
0.0
 40
0.0
 40
0.0
 40
0.125
 40
0.125
 40
0.125
 40
0.125
 40
0.25
 40
0.25
 40
0.25
 40
0.25
 40
0.375
 40
0.375
 40
0.375
 40
0.375
 40
0.5
 40
0.5
 40
0.5
 40
0.5
 40
0.625
 40
0.625
 40
0.625
 40
0.625
 40
0.75
 40
0.75
 40
0.75
 40
0.75
 40
1.0
 40
1.0
 40
1.0
 40
1.0
 10
-73.1544
 20
-51.7227
 30
0.0
 10
-73.0778
 20
-51.9782
 30
0.0
 10
-73.0011
 20
-52.2337
 30
0.0
 10
-72.9245
 20
-52.4892
 30
0.0
 10
-72.9245
 20
-52.4892
 30
0.0
 10
-72.6243
 20
-52.9385
 30
0.0
 10
-71.8456
 20
-53.0994
 30
0.0
 10
-71.3149
 20
-53.3323
 30
0.0
 10
-71.3149
 20
-53.3323
 30
0.0
 10
-68.3457
 20
-54.6356
 30
0.0
 10
-62.8314
 20
-54.275
 30
0.0
 10
-61.887
 20
-51.2628
 30
0.0
 10
-61.887
 20
-51.2628
 30
0.0
 10
-61.1888
 20
-49.0357
 30
0.0
 10
-64.7507
 20
-43.0202
 30
0.0
 10
-66.5626
 20
-42.908
 30
0.0
 10
-66.5626
 20
-42.908
 30
0.0
 10
-66.6648
 20
-42.9847
 30
0.0
 10
-66.767
 20
-43.0613
 30
0.0
 10
-66.8692
 20
-43.138
 30
0.0
 10
-66.8692
 20
-43.138
 30
0.0
 10
-67.1171
 20
-45.1164
 30
0.0
 10
-67.0468
 20
-47.5722
 30
0.0
 10
-68.4022
 20
-48.4268
 30
0.0
 10
-68.4022
 20
-48.4268
 30
0.0
 10
-70.2927
 20
-49.6188
 30
0.0
 10
-73.06
 20
-48.5031
 30
0.0
 10
-73.1544
 20
-51.7227
 30
0.0
  0
SPLINE
  5
99
330
1F
100
AcDbEntity
  8
layer 1
 62
   250
100
AcDbSpline
210
0.0
220
0.0
230
1.0
 70
    11
 71
     3
 72
    52
 73
    48
 74
     0
 42
0.0000000001
 43
0.0000000001
 12
1.0
 22
0.0
 32
0.0
 13
1.0
 23
0.0
 33
0.0
 40
0.0
 40
0.0
 40
0.0
 40
0.0
 40
0.0769230769230769
 40
0.0769230769230769
 40
0.0769230769230769
 40
0.0769230769230769
 40
0.1538461538461539
 40
0.1538461538461539
 40
0.1538461538461539
 40
0.1538461538461539
 40
0.2307692307692308
 40
0.2307692307692308
 40
0.2307692307692308
 40
0.2307692307692308
 40
0.3076923076923077
 40
0.3076923076923077
 40
0.3076923076923077
 40
0.3076923076923077
 40
0.3846153846153846
 40
0.3846153846153846
 40
0.3846153846153846
 40
0.3846153846153846
 40
0.4615384615384616
 40
0.4615384615384616
 40
0.4615384615384616
 40
0.4615384615384616
 40
0.5384615384615384
 40
0.5384615384615384
 40
0.5384615384615384
 40
0.5384615384615384
 40
0.6153846153846154
 40
0.6153846153846154
 40
0.6153846153846154
 40
0.6153846153846154
 40
0.6923076923076923
 40
0.6923076923076923
 40
0.6923076923076923
 40
0.6923076923076923
 40
0.7692307692307693
 40
0.7692307692307693
 40
0.7692307692307693
 40
0.7692307692307693
 40
0.8461538461538461
 40
0.8461538461538461
 40
0.8461538461538461
 40
0.8461538461538461
 40
1.0
 40
1.0
 40
1.0
 40
1.0
 10
-70.855
 20
80.1136
 30
0.0
 10
-70.7017
 20
79.3727
 30
0.0
 10
-70.5483
 20
78.6317
 30
0.0
 10
-70.3951
 20
77.8908
 30
0.0
 10
-70.3951
 20
77.8908
 30
0.0
 10
-69.5278
 20
76.1082
 30
0.0
 10
-66.6887
 20
74.2327
 30
0.0
 10
-64.1098
 20
75.668
 30
0.0
 10
-64.1098
 20
75.668
 30
0.0
 10
-63.3103
 20
76.113
 30
0.0
 10
-62.9297
 20
77.0028
 30
0.0
 10
-62.2702
 20
77.5842
 30
0.0
 10
-62.2702
 20
77.5842
 30
0.0
 10
-62.1681
 20
77.5842
 30
0.0
 10
-62.0659
 20
77.5842
 30
0.0
 10
-61.9636
 20
77.5842
 30
0.0
 10
-61.9636
 20
77.5842
 30
0.0
 10
-59.0561
 20
73.7148
 30
0.0
 10
-66.0365
 20
65.6601
 30
0.0
 10
-63.6499
 20
60.9514
 30
0.0
 10
-63.6499
 20
60.9514
 30
0.0
 10
-62.8836
 20
60.7386
 30
0.0
 10
-62.1654
 20
60.9006
 30
0.0
 10
-61.5804
 20
61.258
 30
0.0
 10
-61.5804
 20
61.258
 30
0.0
 10
-60.5702
 20
64.9863
 30
0.0
 10
-60.4197
 20
68.9045
 30
0.0
 10
-59.4342
 20
72.832
 30
0.0
 10
-59.4342
 20
72.832
 30
0.0
 10
-58.8921
 20
74.9926
 30
0.0
 10
-58.6799
 20
77.3386
 30
0.0
 10
-58.1312
 20
79.7304
 30
0.0
 10
-58.1312
 20
79.7304
 30
0.0
 10
-57.7151
 20
81.5443
 30
0.0
 10
-57.087
 20
83.3325
 30
0.0
 10
-57.0581
 20
85.479
 30
0.0
 10
-57.0581
 20
85.479
 30
0.0
 10
-58.5593
 20
85.1729
 30
0.0
 10
-59.4895
 20
84.1212
 30
0.0
 10
-61.2738
 20
83.7928
 30
0.0
 10
-61.2738
 20
83.7928
 30
0.0
 10
-64.1825
 20
83.2575
 30
0.0
 10
-68.7197
 20
86.2151
 30
0.0
 10
-70.4717
 20
84.9425
 30
0.0
 10
-70.4717
 20
84.9425
 30
0.0
 10
-70.812
 20
83.5557
 30
0.0
 10
-70.857
 20
81.9112
 30
0.0
 10
-70.855
 20
80.1136
 30
0.0
  0
SPLINE
  5
9A
330
1F
100
AcDbEntity
  8
layer 1
 62
   250
100
AcDbSpline
210
0.0
220
0.0
230
1.0
 70
    11
 71
     3
 72
    12
 73
     8
 74
     0
 42
0.0000000001
 43
0.0000000001
 12
1.0
 22
0.0
 32
0.0
 13
1.0
 23
0.0
 33
0.0
 40
0.0
 40
0.0
 40
0.0
 40
0.0
 40
0.3333333333333333
 40
0.3333333333333333
 40
0.3333333333333333
 40
0.3333333333333333
 40
1.0
 40
1.0
 40
1.0
 40
1.0
 10
-67.4824
 20
-27.0417
 30
0.0
 10
-66.4451
 20
-28.662
 30
0.0
 10
-64.0768
 20
-28.951
 30
0.0
 10
-62.7301
 20
-27.4249
 30
0.0
 10
-62.7301
 20
-27.4249
 30
0.0
 10
-62.8184
 20
-25.3978
 30
0.0
 10
-66.9864
 20
-25.1906
 30
0.0
 10
-67.4824
 20
-27.0417
 30
0.0
  0
SPLINE
  5
9B
330
1F
100
AcDbEntity
  8
layer 1
 62
   250
100
AcDbSpline
210
0.0
220
0.0
230
1.0
 70
    11
 71
     3
 72
    36
 73
    32
 74
     0
 42
0.0000000001
 43
0.0000000001
 12
1.0
 22
0.0
 32
0.0
 13
1.0
 23
0.0
 33
0.0
 40
0.0
 40
0.0
 40
0.0
 40
0.0
 40
0.1111111111111111
 40
0.1111111111111111
 40
0.1111111111111111
 40
0.1111111111111111
 40
0.2222222222222222
 40
0.2222222222222222
 40
0.2222222222222222
 40
0.2222222222222222
 40
0.3333333333333333
 40
0.3333333333333333
 40
0.3333333333333333
 40
0.3333333333333333
 40
0.4444444444444444
 40
0.4444444444444444
 40
0.4444444444444444
 40
0.4444444444444444
 40
0.5555555555555556
 40
0.5555555555555556
 40
0.5555555555555556
 40
0.5555555555555556
 40
0.6666666666666666
 40
0.6666666666666666
 40
0.6666666666666666
 40
0.6666666666666666
 40
0.7777777777777778
 40
0.7777777777777778
 40
0.7777777777777778
 40
0.7777777777777778
 40
1.0
 40
1.0
 40
1.0
 40
1.0
 10
-65.3362
 20
-64.4464
 30
0.0
 10
-63.5994
 20
-66.4761
 30
0.0
 10
-60.4235
 20
-67.354
 30
0.0
 10
-58.1312
 20
-68.8154
 30
0.0
 10
-58.1312
 20
-68.8154
 30
0.0
 10
-57.1604
 20
-69.5563
 30
0.0
 10
-56.1893
 20
-70.2974
 30
0.0
 10
-55.2185
 20
-71.0382
 30
0.0
 10
-55.2185
 20
-71.0382
 30
0.0
 10
-54.3293
 20
-71.7488
 30
0.0
 10
-53.7963
 20
-72.8368
 30
0.0
 10
-52.7658
 20
-73.4144
 30
0.0
 10
-52.7658
 20
-73.4144
 30
0.0
 10
-52.6636
 20
-73.3888
 30
0.0
 10
-52.5614
 20
-73.3633
 30
0.0
 10
-52.4592
 20
-73.3377
 30
0.0
 10
-52.4592
 20
-73.3377
 30
0.0
 10
-52.4592
 20
-72.0348
 30
0.0
 10
-52.4592
 20
-70.7315
 30
0.0
 10
-52.4592
 20
-69.4286
 30
0.0
 10
-52.4592
 20
-69.4286
 30
0.0
 10
-52.9189
 20
-67.9743
 30
0.0
 10
-57.8497
 20
-64.761
 30
0.0
 10
-59.4342
 20
-64.1398
 30
0.0
 10
-59.4342
 20
-64.1398
 30
0.0
 10
-60.553
 20
-63.7012
 30
0.0
 10
-64.2913
 20
-62.2228
 30
0.0
 10
-65.1829
 20
-63.6799
 30
0.0
 10
-65.1829
 20
-63.6799
 30
0.0
 10
-65.234
 20
-63.9354
 30
0.0
 10
-65.2851
 20
-64.191
 30
0.0
 10
-65.3362
 20
-64.4464
 30
0.0
  0
SPLINE
  5
9C
330
1F
100
AcDbEntity
  8
layer 1
 62
   250
100
AcDbSpline
210
0.0
220
0.0
230
1.0
 70
    11
 71
     3
 72
    20
 73
    16
 74
     0
 42
0.0000000001
 43
0.0000000001
 12
1.0
 22
0.0
 32
0.0
 13
1.0
 23
0.0
 33
0.0
 40
0.0
 40
0.0
 40
0.0
 40
0.0
 40
0.2
 40
0.2
 40
0.2
 40
0.2
 40
0.4
 40
0.4
 40
0.4
 40
0.4
 40
0.6
 40
0.6
 40
0.6
 40
0.6
 40
1.0
 40
1.0
 40
1.0
 40
1.0
 10
-64.5697
 20
-104.5339
 30
0.0
 10
-63.9152
 20
-106.2666
 30
0.0
 10
-64.7885
 20
-108.2173
 30
0.0
 10
-63.8032
 20
-109.6694
 30
0.0
 10
-63.8032
 20
-109.6694
 30
0.0
 10
-63.701
 20
-109.6438
 30
0.0
 10
-63.5988
 20
-109.6183
 30
0.0
 10
-63.4966
 20
-109.5927
 30
0.0
 10
-63.4966
 20
-109.5927
 30
0.0
 10
-59.5332
 20
-108.9307
 30
0.0
 10
-60.273
 20
-98.9413
 30
0.0
 10
-63.19
 20
-97.5588
 30
0.0
 10
-63.19
 20
-97.5588
 30
0.0
 10
-64.7902
 20
-98.5089
 30
0.0
 10
-64.5975
 20
-102.1612
 30
0.0
 10
-64.5697
 20
-104.5339
 30
0.0
  0
SPLINE
  5
9D
330
1F
100
AcDbEntity
  8
layer 1
 62
   250
100
AcDbSpline
210
0.0
220
0.0
230
1.0
 70
    11
 71
     3
 72
    16
 73
    12
 74
     0
 42
0.0000000001
 43
0.0000000001
 12
1.0
 22
0.0
 32
0.0
 13
1.0
 23
0.0
 33
0.0
 40
0.0
 40
0.0
 40
0.0
 40
0.0
 40
0.25
 40
0.25
 40
0.25
 40
0.25
 40
0.5
 40
0.5
 40
0.5
 40
0.5
 40
1.0
 40
1.0
 40
1.0
 40
1.0
 10
-64.2631
 20
124.2635
 30
0.0
 10
-64.1354
 20
123.6759
 30
0.0
 10
-64.0076
 20
123.0881
 30
0.0
 10
-63.8799
 20
122.5005
 30
0.0
 10
-63.8799
 20
122.5005
 30
0.0
 10
-63.2924
 20
122.2993
 30
0.0
 10
-60.6507
 20
125.6332
 30
0.0
 10
-61.2738
 20
126.7929
 30
0.0
 10
-61.2738
 20
126.7929
 30
0.0
 10
-63.289
 20
126.9706
 30
0.0
 10
-64.3621
 20
126.6772
 30
0.0
 10
-64.2631
 20
124.2635
 30
0.0
  0
SPLINE
  5
9E
330
1F
100
AcDbEntity
  8
layer 1
 62
   250
100
AcDbSpline
210
0.0
220
0.0
230
1.0
 70
    11
 71
     3
 72
    32
 73
    28
 74
     0
 42
0.0000000001
 43
0.0000000001
 12
1.0
 22
0.0
 32
0.0
 13
1.0
 23
0.0
 33
0.0
 40
0.0
 40
0.0
 40
0.0
 40
0.0
 40
0.125
 40
0.125
 40
0.125
 40
0.125
 40
0.25
 40
0.25
 40
0.25
 40
0.25
 40
0.375
 40
0.375
 40
0.375
 40
0.375
 40
0.5
 40
0.5
 40
0.5
 40
0.5
 40
0.625
 40
0.625
 40
0.625
 40
0.625
 40
0.75
 40
0.75
 40
0.75
 40
0.75
 40
1.0
 40
1.0
 40
1.0
 40
1.0
 10
-63.7266
 20
101.652
 30
0.0
 10
-63.5988
 20
100.7578
 30
0.0
 10
-63.4711
 20
99.8634
 30
0.0
 10
-63.3433
 20
98.9693
 30
0.0
 10
-63.3433
 20
98.9693
 30
0.0
 10
-62.8621
 20
97.0797
 30
0.0
 10
-61.3459
 20
92.2769
 30
0.0
 10
-59.6642
 20
91.9176
 30
0.0
 10
-59.6642
 20
91.9176
 30
0.0
 10
-59.4598
 20
92.0964
 30
0.0
 10
-59.2554
 20
92.2753
 30
0.0
 10
-59.051
 20
92.4541
 30
0.0
 10
-59.051
 20
92.4541
 30
0.0
 10
-58.8722
 20
94.0381
 30
0.0
 10
-58.6933
 20
95.6224
 30
0.0
 10
-58.5144
 20
97.2064
 30
0.0
 10
-58.5144
 20
97.2064
 30
0.0
 10
-57.7634
 20
101.2802
 30
0.0
 10
-60.0757
 20
106.4559
 30
0.0
 10
-62.117
 20
107.9372
 30
0.0
 10
-62.117
 20
107.9372
 30
0.0
 10
-62.2958
 20
107.8861
 30
0.0
 10
-62.4747
 20
107.835
 30
0.0
 10
-62.6535
 20
107.7839
 30
0.0
 10
-62.6535
 20
107.7839
 30
0.0
 10
-63.5282
 20
106.2058
 30
0.0
 10
-63.7313
 20
103.9423
 30
0.0
 10
-63.7266
 20
101.652
 30
0.0
  0
SPLINE
  5
9F
330
1F
100
AcDbEntity
  8
layer 1
 62
   250
100
AcDbSpline
210
0.0
220
0.0
230
1.0
 70
    11
 71
     3
 72
    20
 73
    16
 74
     0
 42
0.0000000001
 43
0.0000000001
 12
1.0
 22
0.0
 32
0.0
 13
1.0
 23
0.0
 33
0.0
 40
0.0
 40
0.0
 40
0.0
 40
0.0
 40
0.2
 40
0.2
 40
0.2
 40
0.2
 40
0.4
 40
0.4
 40
0.4
 40
0.4
 40
0.6
 40
0.6
 40
0.6
 40
0.6
 40
1.0
 40
1.0
 40
1.0
 40
1.0
 10
-61.9636
 20
31.978
 30
0.0
 10
-60.5701
 20
31.1736
 30
0.0
 10
-54.2568
 20
27.3849
 30
0.0
 10
-52.6125
 20
27.9156
 30
0.0
 10
-52.6125
 20
27.9156
 30
0.0
 10
-52.5358
 20
27.9667
 30
0.0
 10
-52.4592
 20
28.0178
 30
0.0
 10
-52.3825
 20
28.0689
 30
0.0
 10
-52.3825
 20
28.0689
 30
0.0
 10
-52.2703
 20
30.2514
 30
0.0
 10
-51.8563
 20
33.7105
 30
0.0
 10
-52.4592
 20
35.9638
 30
0.0
 10
-52.4592
 20
35.9638
 30
0.0
 10
-54.2574
 20
36.187
 30
0.0
 10
-61.6156
 20
33.0538
 30
0.0
 10
-61.9636
 20
31.978
 30
0.0
  0
SPLINE
  5
A0
330
1F
100
AcDbEntity
  8
layer 1
 62
   250
100
AcDbSpline
210
0.0
220
0.0
230
1.0
 70
    11
 71
     3
 72
    24
 73
    20
 74
     0
 42
0.0000000001
 43
0.0000000001
 12
1.0
 22
0.0
 32
0.0
 13
1.0
 23
0.0
 33
0.0
 40
0.0
 40
0.0
 40
0.0
 40
0.0
 40
0.1666666666666667
 40
0.1666666666666667
 40
0.1666666666666667
 40
0.1666666666666667
 40
0.3333333333333333
 40
0.3333333333333333
 40
0.3333333333333333
 40
0.3333333333333333
 40
0.5
 40
0.5
 40
0.5
 40
0.5
 40
0.6666666666666666
 40
0.6666666666666666
 40
0.6666666666666666
 40
0.6666666666666666
 40
1.0
 40
1.0
 40
1.0
 40
1.0
 10
-61.887
 20
-11.0987
 30
0.0
 10
-61.5195
 20
-12.1744
 30
0.0
 10
-61.5211
 20
-14.6976
 30
0.0
 10
-60.1241
 20
-14.3946
 30
0.0
 10
-60.1241
 20
-14.3946
 30
0.0
 10
-59.9932
 20
-12.3209
 30
0.0
 10
-59.2409
 20
-10.9141
 30
0.0
 10
-58.8977
 20
-9.1825
 30
0.0
 10
-58.8977
 20
-9.1825
 30
0.0
 10
-58.5293
 20
-7.3236
 30
0.0
 10
-59.187
 20
-5.3504
 30
0.0
 10
-59.5109
 20
-3.5871
 30
0.0
 10
-59.5109
 20
-3.5871
 30
0.0
 10
-59.6386
 20
-3.5616
 30
0.0
 10
-59.7664
 20
-3.536
 30
0.0
 10
-59.8941
 20
-3.5105
 30
0.0
 10
-59.8941
 20
-3.5105
 30
0.0
 10
-61.2279
 20
-5.3959
 30
0.0
 10
-61.8862
 20
-7.8622
 30
0.0
 10
-61.887
 20
-11.0987
 30
0.0
  0
SPLINE
  5
A1
330
1F
100
AcDbEntity
  8
layer 1
 62
   250
100
AcDbSpline
210
0.0
220
0.0
230
1.0
 70
    11
 71
     3
 72
    40
 73
    36
 74
     0
 42
0.0000000001
 43
0.0000000001
 12
1.0
 22
0.0
 32
0.0
 13
1.0
 23
0.0
 33
0.0
 40
0.0
 40
0.0
 40
0.0
 40
0.0
 40
0.1
 40
0.1
 40
0.1
 40
0.1
 40
0.2
 40
0.2
 40
0.2
 40
0.2
 40
0.3
 40
0.3
 40
0.3
 40
0.3
 40
0.4
 40
0.4
 40
0.4
 40
0.4
 40
0.5
 40
0.5
 40
0.5
 40
0.5
 40
0.6
 40
0.6
 40
0.6
 40
0.6
 40
0.7
 40
0.7
 40
0.7
 40
0.7
 40
0.8
 40
0.8
 40
0.8
 40
0.8
 40
1.0
 40
1.0
 40
1.0
 40
1.0
 10
-60.9672
 20
2.7747
 30
0.0
 10
-60.6607
 20
2.3915
 30
0.0
 10
-60.354
 20
2.0082
 30
0.0
 10
-60.0474
 20
1.625
 30
0.0
 10
-60.0474
 20
1.625
 30
0.0
 10
-59.8941
 20
1.6506
 30
0.0
 10
-59.7408
 20
1.6761
 30
0.0
 10
-59.5875
 20
1.7017
 30
0.0
 10
-59.5875
 20
1.7017
 30
0.0
 10
-58.5338
 20
2.493
 30
0.0
 10
-57.9857
 20
4.7941
 30
0.0
 10
-57.4414
 20
6.0707
 30
0.0
 10
-57.4414
 20
6.0707
 30
0.0
 10
-55.7297
 20
9.9538
 30
0.0
 10
-54.0175
 20
13.8382
 30
0.0
 10
-52.3059
 20
17.7213
 30
0.0
 10
-52.3059
 20
17.7213
 30
0.0
 10
-52.0456
 20
18.6885
 30
0.0
 10
-52.4025
 20
23.5435
 30
0.0
 10
-52.6125
 20
23.6999
 30
0.0
 10
-52.6125
 20
23.6999
 30
0.0
 10
-52.6891
 20
23.6999
 30
0.0
 10
-52.7658
 20
23.6999
 30
0.0
 10
-52.8424
 20
23.6999
 30
0.0
 10
-52.8424
 20
23.6999
 30
0.0
 10
-54.1363
 20
23.0013
 30
0.0
 10
-54.8175
 20
19.8538
 30
0.0
 10
-55.3718
 20
18.4112
 30
0.0
 10
-55.3718
 20
18.4112
 30
0.0
 10
-56.5882
 20
15.2453
 30
0.0
 10
-57.915
 20
12.0805
 30
0.0
 10
-59.1276
 20
8.7534
 30
0.0
 10
-59.1276
 20
8.7534
 30
0.0
 10
-59.7992
 20
6.9108
 30
0.0
 10
-60.914
 20
5.1818
 30
0.0
 10
-60.9672
 20
2.7747
 30
0.0
  0
SPLINE
  5
A2
330
1F
100
AcDbEntity
  8
layer 1
 62
   250
100
AcDbSpline
210
0.0
220
0.0
230
1.0
 70
    11
 71
     3
 72
    36
 73
    32
 74
     0
 42
0.0000000001
 43
0.0000000001
 12
1.0
 22
0.0
 32
0.0
 13
1.0
 23
0.0
 33
0.0
 40
0.0
 40
0.0
 40
0.0
 40
0.0
 40
0.1111111111111111
 40
0.1111111111111111
 40
0.1111111111111111
 40
0.1111111111111111
 40
0.2222222222222222
 40
0.2222222222222222
 40
0.2222222222222222
 40
0.2222222222222222
 40
0.3333333333333333
 40
0.3333333333333333
 40
0.3333333333333333
 40
0.3333333333333333
 40
0.4444444444444444
 40
0.4444444444444444
 40
0.4444444444444444
 40
0.4444444444444444
 40
0.5555555555555556
 40
0.5555555555555556
 40
0.5555555555555556
 40
0.5555555555555556
 40
0.6666666666666666
 40
0.6666666666666666
 40
0.6666666666666666
 40
0.6666666666666666
 40
0.7777777777777778
 40
0.7777777777777778
 40
0.7777777777777778
 40
0.7777777777777778
 40
1.0
 40
1.0
 40
1.0
 40
1.0
 10
-59.4342
 20
-20.9098
 30
0.0
 10
-58.77
 20
-22.0849
 30
0.0
 10
-58.1056
 20
-23.2605
 30
0.0
 10
-57.4414
 20
-24.4356
 30
0.0
 10
-57.4414
 20
-24.4356
 30
0.0
 10
-56.8179
 20
-26.1043
 30
0.0
 10
-56.8058
 20
-27.4559
 30
0.0
 10
-55.5251
 20
-28.4214
 30
0.0
 10
-55.5251
 20
-28.4214
 30
0.0
 10
-55.2952
 20
-28.3703
 30
0.0
 10
-55.0652
 20
-28.3192
 30
0.0
 10
-54.8353
 20
-28.2681
 30
0.0
 10
-54.8353
 20
-28.2681
 30
0.0
 10
-53.9667
 20
-26.6075
 30
0.0
 10
-53.0978
 20
-24.9465
 30
0.0
 10
-52.2292
 20
-23.2859
 30
0.0
 10
-52.2292
 20
-23.2859
 30
0.0
 10
-52.2803
 20
-19.3772
 30
0.0
 10
-52.3314
 20
-15.4673
 30
0.0
 10
-52.3825
 20
-11.5586
 30
0.0
 10
-52.3825
 20
-11.5586
 30
0.0
 10
-52.4847
 20
-11.5586
 30
0.0
 10
-52.5869
 20
-11.5586
 30
0.0
 10
-52.6891
 20
-11.5586
 30
0.0
 10
-52.6891
 20
-11.5586
 30
0.0
 10
-52.7913
 20
-11.6352
 30
0.0
 10
-52.8935
 20
-11.7119
 30
0.0
 10
-52.9957
 20
-11.7886
 30
0.0
 10
-52.9957
 20
-11.7886
 30
0.0
 10
-54.0205
 20
-14.305
 30
0.0
 10
-59.305
 20
-18.9267
 30
0.0
 10
-59.4342
 20
-20.9098
 30
0.0
  0
SPLINE
  5
A3
330
1F
100
AcDbEntity
  8
layer 1
 62
   250
100
AcDbSpline
210
0.0
220
0.0
230
1.0
 70
    11
 71
     3
 72
    36
 73
    32
 74
     0
 42
0.0000000001
 43
0.0000000001
 12
1.0
 22
0.0
 32
0.0
 13
1.0
 23
0.0
 33
0.0
 40
0.0
 40
0.0
 40
0.0
 40
0.0
 40
0.1111111111111111
 40
0.1111111111111111
 40
0.1111111111111111
 40
0.1111111111111111
 40
0.2222222222222222
 40
0.2222222222222222
 40
0.2222222222222222
 40
0.2222222222222222
 40
0.3333333333333333
 40
0.3333333333333333
 40
0.3333333333333333
 40
0.3333333333333333
 40
0.4444444444444444
 40
0.4444444444444444
 40
0.4444444444444444
 40
0.4444444444444444
 40
0.5555555555555556
 40
0.5555555555555556
 40
0.5555555555555556
 40
0.5555555555555556
 40
0.6666666666666666
 40
0.6666666666666666
 40
0.6666666666666666
 40
0.6666666666666666
 40
0.7777777777777778
 40
0.7777777777777778
 40
0.7777777777777778
 40
0.7777777777777778
 40
1.0
 40
1.0
 40
1.0
 40
1.0
 10
-58.4378
 20
-31.1041
 30
0.0
 10
-57.1673
 20
-33.6669
 30
0.0
 10
-56.5711
 20
-37.7639
 30
0.0
 10
-55.9084
 20
-40.7619
 30
0.0
 10
-55.9084
 20
-40.7619
 30
0.0
 10
-55.6045
 20
-42.1365
 30
0.0
 10
-55.6138
 20
-43.9099
 30
0.0
 10
-54.8353
 20
-44.9776
 30
0.0
 10
-54.8353
 20
-44.9776
 30
0.0
 10
-54.6054
 20
-44.952
 30
0.0
 10
-54.3754
 20
-44.9265
 30
0.0
 10
-54.1454
 20
-44.9009
 30
0.0
 10
-54.1454
 20
-44.9009
 30
0.0
 10
-53.2941
 20
-44.222
 30
0.0
 10
-53.18
 20
-41.6611
 30
0.0
 10
-53.5323
 20
-40.2253
 30
0.0
 10
-53.5323
 20
-40.2253
 30
0.0
 10
-54.3241
 20
-36.9979
 30
0.0
 10
-55.0279
 20
-30.7569
 30
0.0
 10
-57.3647
 20
-29.0346
 30
0.0
 10
-57.3647
 20
-29.0346
 30
0.0
 10
-57.4413
 20
-29.0346
 30
0.0
 10
-57.518
 20
-29.0346
 30
0.0
 10
-57.5947
 20
-29.0346
 30
0.0
 10
-57.5947
 20
-29.0346
 30
0.0
 10
-57.8246
 20
-29.2901
 30
0.0
 10
-58.0546
 20
-29.5456
 30
0.0
 10
-58.2845
 20
-29.8011
 30
0.0
 10
-58.2845
 20
-29.8011
 30
0.0
 10
-58.3356
 20
-30.2354
 30
0.0
 10
-58.3867
 20
-30.6698
 30
0.0
 10
-58.4378
 20
-31.1041
 30
0.0
  0
SPLINE
  5
A4
330
1F
100
AcDbEntity
  8
layer 1
 62
   250
100
AcDbSpline
210
0.0
220
0.0
230
1.0
 70
    11
 71
     3
 72
    24
 73
    20
 74
     0
 42
0.0000000001
 43
0.0000000001
 12
1.0
 22
0.0
 32
0.0
 13
1.0
 23
0.0
 33
0.0
 40
0.0
 40
0.0
 40
0.0
 40
0.0
 40
0.1666666666666667
 40
0.1666666666666667
 40
0.1666666666666667
 40
0.1666666666666667
 40
0.3333333333333333
 40
0.3333333333333333
 40
0.3333333333333333
 40
0.3333333333333333
 40
0.5
 40
0.5
 40
0.5
 40
0.5
 40
0.6666666666666666
 40
0.6666666666666666
 40
0.6666666666666666
 40
0.6666666666666666
 40
1.0
 40
1.0
 40
1.0
 40
1.0
 10
-54.9886
 20
46.8479
 30
0.0
 10
-54.4974
 20
45.5863
 30
0.0
 10
-54.3405
 20
44.4405
 30
0.0
 10
-52.7658
 20
44.3185
 30
0.0
 10
-52.7658
 20
44.3185
 30
0.0
 10
-52.6891
 20
44.3696
 30
0.0
 10
-52.6125
 20
44.4207
 30
0.0
 10
-52.5358
 20
44.4718
 30
0.0
 10
-52.5358
 20
44.4718
 30
0.0
 10
-52.1754
 20
45.9405
 30
0.0
 10
-52.4455
 20
47.6979
 30
0.0
 10
-52.4592
 20
49.454
 30
0.0
 10
-52.4592
 20
49.454
 30
0.0
 10
-52.5358
 20
49.454
 30
0.0
 10
-52.6125
 20
49.454
 30
0.0
 10
-52.6891
 20
49.454
 30
0.0
 10
-52.6891
 20
49.454
 30
0.0
 10
-53.9832
 20
48.8759
 30
0.0
 10
-54.5694
 20
48.3472
 30
0.0
 10
-54.9886
 20
46.8479
 30
0.0
  0
SPLINE
  5
A5
330
1F
100
AcDbEntity
  8
layer 1
 62
   250
100
AcDbSpline
210
0.0
220
0.0
230
1.0
 70
    11
 71
     3
 72
    12
 73
     8
 74
     0
 42
0.0000000001
 43
0.0000000001
 12
1.0
 22
0.0
 32
0.0
 13
1.0
 23
0.0
 33
0.0
 40
0.0
 40
0.0
 40
0.0
 40
0.0
 40
0.3333333333333333
 40
0.3333333333333333
 40
0.3333333333333333
 40
0.3333333333333333
 40
1.0
 40
1.0
 40
1.0
 40
1.0
 10
-54.8353
 20
94.1404
 30
0.0
 10
-52.1027
 20
93.3053
 30
0.0
 10
-52.0779
 20
99.134
 30
0.0
 10
-52.8424
 20
99.8124
 30
0.0
 10
-52.8424
 20
99.8124
 30
0.0
 10
-53.9841
 20
99.0124
 30
0.0
 10
-54.8211
 20
95.9651
 30
0.0
 10
-54.8353
 20
94.1404
 30
0.0
  0
SPLINE
  5
A6
330
1F
100
AcDbEntity
  8
layer 1
 62
   250
100
AcDbSpline
210
0.0
220
0.0
230
1.0
 70
    11
 71
     3
 72
    24
 73
    20
 74
     0
 42
0.0000000001
 43
0.0000000001
 12
1.0
 22
0.0
 32
0.0
 13
1.0
 23
0.0
 33
0.0
 40
0.0
 40
0.0
 40
0.0
 40
0.0
 40
0.1666666666666667
 40
0.1666666666666667
 40
0.1666666666666667
 40
0.1666666666666667
 40
0.3333333333333333
 40
0.3333333333333333
 40
0.3333333333333333
 40
0.3333333333333333
 40
0.5
 40
0.5
 40
0.5
 40
0.5
 40
0.6666666666666666
 40
0.6666666666666666
 40
0.6666666666666666
 40
0.6666666666666666
 40
1.0
 40
1.0
 40
1.0
 40
1.0
 10
-53.6855
 20
-92.3467
 30
0.0
 10
-53.2922
 20
-93.3368
 30
0.0
 10
-53.3911
 20
-94.1626
 30
0.0
 10
-52.6891
 20
-94.7994
 30
0.0
 10
-52.6891
 20
-94.7994
 30
0.0
 10
-52.638
 20
-94.7739
 30
0.0
 10
-52.5869
 20
-94.7483
 30
0.0
 10
-52.5358
 20
-94.7228
 30
0.0
 10
-52.5358
 20
-94.7228
 30
0.0
 10
-52.4747
 20
-93.3116
 30
0.0
 10
-52.4678
 20
-92.4147
 30
0.0
 10
-53.149
 20
-91.5035
 30
0.0
 10
-53.149
 20
-91.5035
 30
0.0
 10
-53.3278
 20
-91.5546
 30
0.0
 10
-53.5067
 20
-91.6057
 30
0.0
 10
-53.6855
 20
-91.6568
 30
0.0
 10
-53.6855
 20
-91.6568
 30
0.0
 10
-53.6855
 20
-91.8867
 30
0.0
 10
-53.6855
 20
-92.1168
 30
0.0
 10
-53.6855
 20
-92.3467
 30
0.0
  0
SPLINE
  5
A7
330
1F
100
AcDbEntity
  8
layer 1
 62
   250
100
AcDbSpline
210
0.0
220
0.0
230
1.0
 70
    11
 71
     3
 72
    28
 73
    24
 74
     0
 42
0.0000000001
 43
0.0000000001
 12
1.0
 22
0.0
 32
0.0
 13
1.0
 23
0.0
 33
0.0
 40
0.0
 40
0.0
 40
0.0
 40
0.0
 40
0.1428571428571428
 40
0.1428571428571428
 40
0.1428571428571428
 40
0.1428571428571428
 40
0.2857142857142857
 40
0.2857142857142857
 40
0.2857142857142857
 40
0.2857142857142857
 40
0.4285714285714285
 40
0.4285714285714285
 40
0.4285714285714285
 40
0.4285714285714285
 40
0.5714285714285714
 40
0.5714285714285714
 40
0.5714285714285714
 40
0.5714285714285714
 40
0.7142857142857143
 40
0.7142857142857143
 40
0.7142857142857143
 40
0.7142857142857143
 40
1.0
 40
1.0
 40
1.0
 40
1.0
 10
-53.2257
 20
-2.9739
 30
0.0
 10
-52.853
 20
-3.0251
 30
0.0
 10
-52.6738
 20
-3.0413
 30
0.0
 10
-52.4592
 20
-2.744
 30
0.0
 10
-52.4592
 20
-2.744
 30
0.0
 10
-52.0622
 20
-2.1047
 30
0.0
 10
-52.3205
 20
-0.8102
 30
0.0
 10
-52.2292
 20
-0.0612
 30
0.0
 10
-52.2292
 20
-0.0612
 30
0.0
 10
-52.2548
 20
-0.0357
 30
0.0
 10
-52.2803
 20
-0.0101
 30
0.0
 10
-52.3059
 20
0.0154
 30
0.0
 10
-52.3059
 20
0.0154
 30
0.0
 10
-52.3825
 20
0.0154
 30
0.0
 10
-52.4592
 20
0.0154
 30
0.0
 10
-52.5358
 20
0.0154
 30
0.0
 10
-52.5358
 20
0.0154
 30
0.0
 10
-52.5869
 20
-0.0357
 30
0.0
 10
-52.638
 20
-0.0868
 30
0.0
 10
-52.6891
 20
-0.1379
 30
0.0
 10
-52.6891
 20
-0.1379
 30
0.0
 10
-52.8679
 20
-1.0831
 30
0.0
 10
-53.0468
 20
-2.0287
 30
0.0
 10
-53.2257
 20
-2.9739
 30
0.0
  0
ENDSEC
  0
SECTION
  2
OBJECTS
  0
DICTIONARY
  5
C
330
0
100
AcDbDictionary
281
     1
  3
ACAD_GROUP
350
D
  3
ACAD_LAYOUT
350
1A
  3
ACAD_MATERIAL
350
3B
  3
ACAD_MLEADERSTYLE
350
CA
  3
ACAD_MLINESTYLE
350
17
  3
ACAD_PLOTSETTINGS
350
19
  3
ACAD_PLOTSTYLENAME
350
E
  3
ACAD_TABLESTYLE
350
C9
  3
ACAD_VISUALSTYLE
350
2A
  0
DICTIONARY
  5
D
102
{ACAD_REACTORS
330
C
102
}
330
C
100
AcDbDictionary
281
     1
  0
DICTIONARY
  5
1A
102
{ACAD_REACTORS
330
C
102
}
330
C
100
AcDbDictionary
281
     1
  3
Layout1
350
1E
  3
Layout2
350
26
  3
Model
350
22
  0
DICTIONARY
  5
3B
102
{ACAD_REACTORS
330
C
102
}
330
C
100
AcDbDictionary
281
     1
  3
ByBlock
350
3D
  3
ByLayer
350
3C
  3
Global
350
3E
  0
DICTIONARY
  5
CA
102
{ACAD_REACTORS
330
C
102
}
330
C
100
AcDbDictionary
281
     1
  0
DICTIONARY
  5
17
102
{ACAD_REACTORS
330
C
102
}
330
C
100
AcDbDictionary
281
     1
  3
Standard
350
18
  0
DICTIONARY
  5
19
102
{ACAD_REACTORS
330
C
102
}
330
C
100
AcDbDictionary
281
     1
  0
ACDBDICTIONARYWDFLT
  5
E
102
{ACAD_REACTORS
330
C
102
}
330
C
100
AcDbDictionary
281
     1
  3
Normal
350
F
100
AcDbDictionaryWithDefault
340
F
  0
DICTIONARY
  5
C9
102
{ACAD_REACTORS
330
C
102
}
330
C
100
AcDbDictionary
281
     1
  0
DICTIONARY
  5
2A
102
{ACAD_REACTORS
330
C
102
}
330
C
100
AcDbDictionary
281
     1
  3
2dWireframe
350
2F
  3
3D Hidden
350
31
  3
3dWireframe
350
30
  3
Basic
350
32
  3
Brighten
350
36
  3
ColorChange
350
3A
  3
Conceptual
350
34
  3
Dim
350
35
  3
Facepattern
350
39
  3
Flat
350
2B
  3
FlatWithEdges
350
2C
  3
Gouraud
350
2D
  3
GouraudWithEdges
350
2E
  3
Linepattern
350
38
  3
Realistic
350
33
  3
Thicken
350
37
  0
LAYOUT
  5
1E
102
{ACAD_REACTORS
330
1A
102
}
330
1A
100
AcDbPlotSettings
  1

  2
none_device
  4

  6

 40
0.0
 41
0.0
 42
0.0
 43
0.0
 44
0.0
 45
0.0
 46
0.0
 47
0.0
 48
0.0
 49
0.0
140
0.0
141
0.0
142
1.0
143
1.0
 70
   688
 72
     0
 73
     0
 74
     5
  7

 75
    16
 76
     0
 77
     2
 78
   300
147
1.0
148
0.0
149
0.0
100
AcDbLayout
  1
Layout1
 70
     1
 71
     1
 10
0.0
 20
0.0
 11
12.0
 21
9.0
 12
0.0
 22
0.0
 32
0.0
 14
1.000000000000000E+20
 24
1.000000000000000E+20
 34
1.000000000000000E+20
 15
-1.000000000000000E+20
 25
-1.000000000000000E+20
 35
-1.000000000000000E+20
146
0.0
 13
0.0
 23
0.0
 33
0.0
 16
1.0
 26
0.0
 36
0.0
 17
0.0
 27
1.0
 37
0.0
 76
     0
330
1B
  0
LAYOUT
  5
26
102
{ACAD_REACTORS
330
1A
102
}
330
1A
100
AcDbPlotSettings
  1

  2
none_device
  4

  6

 40
0.0
 41
0.0
 42
0.0
 43
0.0
 44
0.0
 45
0.0
 46
0.0
 47
0.0
 48
0.0
 49
0.0
140
0.0
141
0.0
142
1.0
143
1.0
 70
   688
 72
     0
 73
     0
 74
     5
  7

 75
    16
 76
     0
 77
     2
 78
   300
147
1.0
148
0.0
149
0.0
100
AcDbLayout
  1
Layout2
 70
     1
 71
     2
 10
0.0
 20
0.0
 11
0.0
 21
0.0
 12
0.0
 22
0.0
 32
0.0
 14
0.0
 24
0.0
 34
0.0
 15
0.0
 25
0.0
 35
0.0
146
0.0
 13
0.0
 23
0.0
 33
0.0
 16
1.0
 26
0.0
 36
0.0
 17
0.0
 27
1.0
 37
0.0
 76
     0
330
23
  0
LAYOUT
  5
22
102
{ACAD_REACTORS
330
1A
102
}
330
1A
100
AcDbPlotSettings
  1

  2
none_device
  4

  6

 40
0.0
 41
0.0
 42
0.0
 43
0.0
 44
0.0
 45
0.0
 46
0.0
 47
0.0
 48
0.0
 49
0.0
140
0.0
141
0.0
142
1.0
143
1.0
 70
  1712
 72
     0
 73
     0
 74
     0
  7

 75
     0
 76
     0
 77
     2
 78
   300
147
1.0
148
0.0
149
0.0
100
AcDbLayout
  1
Model
 70
     1
 71
     0
 10
0.0
 20
0.0
 11
12.0
 21
9.0
 12
0.0
 22
0.0
 32
0.0
 14
-187.3326
 24
-115.0424
 34
0.0
 15
-48.9043
 25
131.8441
 35
0.0
146
0.0
 13
0.0
 23
0.0
 33
0.0
 16
1.0
 26
0.0
 36
0.0
 17
0.0
 27
1.0
 37
0.0
 76
     0
330
1F
331
29
  0
MATERIAL
  5
3D
102
{ACAD_REACTORS
330
3B
102
}
330
3B
100
AcDbMaterial
  1
ByBlock
 72
     1
 94
      127
  0
MATERIAL
  5
3C
102
{ACAD_REACTORS
330
3B
102
}
330
3B
100
AcDbMaterial
  1
ByLayer
 72
     1
 94
      127
  0
MATERIAL
  5
3E
102
{ACAD_REACTORS
330
3B
102
}
330
3B
100
AcDbMaterial
  1
Global
 72
     1
 94
      127
  0
MLINESTYLE
  5
18
102
{ACAD_REACTORS
330
17
102
}
330
17
100
AcDbMlineStyle
  2
Standard
 70
     0
  3

 62
   256
 51
90.0
 52
90.0
 71
     2
 49
0.5
 62
   256
  6
BYLAYER
 49
-0.5
 62
   256
  6
BYLAYER
  0
ACDBPLACEHOLDER
  5
F
102
{ACAD_REACTORS
330
E
102
}
330
E
  0
VISUALSTYLE
  5
2F
102
{ACAD_REACTORS
330
2A
102
}
102
{ACAD_XDICTIONARY
360
B1
102
}
330
2A
100
AcDbVisualStyle
  2
2dWireframe
 70
     4
 71
     0
 72
     2
 73
     0
 90
        0
 40
-0.6
 41
-30.0
 62
     5
 63
     7
421
 16777215
 74
     1
 91
        4
 64
     7
 65
   257
 75
     1
175
     1
 42
1.0
 92
        0
 66
   257
 43
1.0
 76
     1
 77
     6
 78
     2
 67
     7
 79
     5
170
     0
171
     0
290
     0
174
     0
 93
        1
 44
0.0
173
     0
291
     0
 45
0.0
  0
VISUALSTYLE
  5
31
102
{ACAD_REACTORS
330
2A
102
}
102
{ACAD_XDICTIONARY
360
B5
102
}
330
2A
100
AcDbVisualStyle
  2
3D Hidden
 70
     6
 71
     1
 72
     2
 73
     2
 90
        0
 40
-0.6
 41
-30.0
 62
     5
 63
     7
421
 16777215
 74
     2
 91
        2
 64
     7
 65
   257
 75
     2
175
     1
 42
40.0
 92
        0
 66
   257
 43
1.0
 76
     1
 77
     6
 78
     2
 67
     7
 79
     3
170
     0
171
     0
290
     0
174
     0
 93
        1
 44
0.0
173
     0
291
     0
 45
0.0
  0
VISUALSTYLE
  5
30
102
{ACAD_REACTORS
330
2A
102
}
102
{ACAD_XDICTIONARY
360
B3
102
}
330
2A
100
AcDbVisualStyle
  2
3dWireframe
 70
     5
 71
     0
 72
     2
 73
     0
 90
        0
 40
-0.6
 41
-30.0
 62
     5
 63
     7
421
 16777215
 74
     1
 91
        4
 64
     7
 65
   257
 75
     1
175
     1
 42
1.0
 92
        0
 66
   257
 43
1.0
 76
     1
 77
     6
 78
     2
 67
     7
 79
     5
170
     0
171
     0
290
     0
174
     0
 93
        1
 44
0.0
173
     0
291
     0
 45
0.0
  0
VISUALSTYLE
  5
32
102
{ACAD_REACTORS
330
2A
102
}
102
{ACAD_XDICTIONARY
360
B7
102
}
330
2A
100
AcDbVisualStyle
  2
Basic
 70
     7
 71
     1
 72
     0
 73
     1
 90
        0
 40
-0.6
 41
-30.0
 62
     5
 63
     7
421
 16777215
 74
     0
 91
        4
 64
     7
 65
   257
 75
     1
175
     1
 42
1.0
 92
        8
 66
     7
 43
1.0
 76
     1
 77
     6
 78
     2
 67
     7
 79
     5
170
     0
171
     0
290
     0
174
     0
 93
        1
 44
0.0
173
     0
291
     1
 45
0.0
  0
VISUALSTYLE
  5
36
102
{ACAD_REACTORS
330
2A
102
}
102
{ACAD_XDICTIONARY
360
BF
102
}
330
2A
100
AcDbVisualStyle
  2
Brighten
 70
    12
 71
     2
 72
     2
 73
     0
 90
        0
 40
-0.6
 41
-30.0
 62
     5
 63
     7
421
 16777215
 74
     1
 91
        4
 64
     7
 65
   257
 75
     1
175
     1
 42
1.0
 92
        8
 66
     7
 43
1.0
 76
     1
 77
     6
 78
     2
 67
     7
 79
     5
170
     0
171
     0
290
     0
174
     0
 93
        1
 44
50.0
173
     0
291
     1
 45
0.0
  0
VISUALSTYLE
  5
3A
102
{ACAD_REACTORS
330
2A
102
}
102
{ACAD_XDICTIONARY
360
C7
102
}
330
2A
100
AcDbVisualStyle
  2
ColorChange
 70
    16
 71
     2
 72
     2
 73
     3
 90
        0
 40
-0.6
 41
-30.0
 62
     5
 63
     8
421
  8421504
 74
     1
 91
        4
 64
     7
 65
   257
 75
     1
175
     1
 42
1.0
 92
        8
 66
     8
424
  8421504
 43
1.0
 76
     1
 77
     6
 78
     2
 67
     7
 79
     5
170
     0
171
     0
290
     0
174
     0
 93
        1
 44
0.0
173
     0
291
     1
 45
0.0
  0
VISUALSTYLE
  5
34
102
{ACAD_REACTORS
330
2A
102
}
102
{ACAD_XDICTIONARY
360
BB
102
}
330
2A
100
AcDbVisualStyle
  2
Conceptual
 70
     9
 71
     3
 72
     2
 73
     0
 90
        0
 40
-0.6
 41
-30.0
 62
     5
 63
     7
421
 16777215
 74
     2
 91
        2
 64
     7
 65
   257
 75
     1
175
     1
 42
40.0
 92
        8
 66
     7
 43
1.0
 76
     1
 77
     6
 78
     2
 67
     7
 79
     3
170
     0
171
     0
290
     0
174
     0
 93
        1
 44
0.0
173
     0
291
     0
 45
0.0
  0
VISUALSTYLE
  5
35
102
{ACAD_REACTORS
330
2A
102
}
102
{ACAD_XDICTIONARY
360
BD
102
}
330
2A
100
AcDbVisualStyle
  2
Dim
 70
    11
 71
     2
 72
     2
 73
     0
 90
        0
 40
-0.6
 41
-30.0
 62
     5
 63
     7
421
 16777215
 74
     1
 91
        4
 64
     7
 65
   257
 75
     1
175
     1
 42
1.0
 92
        8
 66
     7
 43
1.0
 76
     1
 77
     6
 78
     2
 67
     7
 79
     5
170
     0
171
     0
290
     0
174
     0
 93
        1
 44
-50.0
173
     0
291
     1
 45
0.0
  0
VISUALSTYLE
  5
39
102
{ACAD_REACTORS
330
2A
102
}
102
{ACAD_XDICTIONARY
360
C5
102
}
330
2A
100
AcDbVisualStyle
  2
Facepattern
 70
    15
 71
     2
 72
     2
 73
     0
 90
        0
 40
-0.6
 41
-30.0
 62
     5
 63
     7
421
 16777215
 74
     1
 91
        4
 64
     7
 65
   257
 75
     1
175
     1
 42
1.0
 92
        8
 66
     7
 43
1.0
 76
     1
 77
     6
 78
     2
 67
     7
 79
     5
170
     0
171
     0
290
     0
174
     0
 93
        1
 44
0.0
173
     0
291
     1
 45
0.0
  0
VISUALSTYLE
  5
2B
102
{ACAD_REACTORS
330
2A
102
}
102
{ACAD_XDICTIONARY
360
A9
102
}
330
2A
100
AcDbVisualStyle
  2
Flat
 70
     0
 71
     2
 72
     1
 73
     1
 90
        2
 40
-0.6
 41
30.0
 62
     5
 63
     7
421
 16777215
 74
     0
 91
        4
 64
     7
 65
   257
 75
     1
175
     1
 42
1.0
 92
        8
 66
     7
 43
1.0
 76
     1
 77
     6
 78
     2
 67
     7
 79
     5
170
     0
171
     0
290
     0
174
     0
 93
       13
 44
0.0
173
     0
291
     1
 45
0.0
  0
VISUALSTYLE
  5
2C
102
{ACAD_REACTORS
330
2A
102
}
102
{ACAD_XDICTIONARY
360
AB
102
}
330
2A
100
AcDbVisualStyle
  2
FlatWithEdges
 70
     1
 71
     2
 72
     1
 73
     1
 90
        2
 40
-0.6
 41
30.0
 62
     5
 63
     7
421
 16777215
 74
     1
 91
        4
 64
     7
 65
   257
 75
     1
175
     1
 42
1.0
 92
        0
 66
   257
 43
1.0
 76
     1
 77
     6
 78
     2
 67
     7
 79
     5
170
     0
171
     0
290
     0
174
     0
 93
       13
 44
0.0
173
     0
291
     1
 45
0.0
  0
VISUALSTYLE
  5
2D
102
{ACAD_REACTORS
330
2A
102
}
102
{ACAD_XDICTIONARY
360
AD
102
}
330
2A
100
AcDbVisualStyle
  2
Gouraud
 70
     2
 71
     2
 72
     2
 73
     1
 90
        2
 40
-0.6
 41
30.0
 62
     5
 63
     7
421
 16777215
 74
     0
 91
        4
 64
     7
 65
   257
 75
     1
175
     1
 42
1.0
 92
        0
 66
     7
 43
1.0
 76
     1
 77
     6
 78
     2
 67
     7
 79
     5
170
     0
171
     0
290
     0
174
     0
 93
       13
 44
0.0
173
     0
291
     1
 45
0.0
  0
VISUALSTYLE
  5
2E
102
{ACAD_REACTORS
330
2A
102
}
102
{ACAD_XDICTIONARY
360
AF
102
}
330
2A
100
AcDbVisualStyle
  2
GouraudWithEdges
 70
     3
 71
     2
 72
     2
 73
     1
 90
        2
 40
-0.6
 41
30.0
 62
     5
 63
     7
421
 16777215
 74
     1
 91
        4
 64
     7
 65
   257
 75
     1
175
     1
 42
1.0
 92
        0
 66
   257
 43
1.0
 76
     1
 77
     6
 78
     2
 67
     7
 79
     5
170
     0
171
     0
290
     0
174
     0
 93
       13
 44
0.0
173
     0
291
     1
 45
0.0
  0
VISUALSTYLE
  5
38
102
{ACAD_REACTORS
330
2A
102
}
102
{ACAD_XDICTIONARY
360
C3
102
}
330
2A
100
AcDbVisualStyle
  2
Linepattern
 70
    14
 71
     2
 72
     2
 73
     0
 90
        0
 40
-0.6
 41
-30.0
 62
     5
 63
     7
421
 16777215
 74
     1
 91
        4
 64
     7
 65
   257
 75
     7
175
     7
 42
1.0
 92
        8
 66
     7
 43
1.0
 76
     1
 77
     6
 78
     2
 67
     7
 79
     5
170
     0
171
     0
290
     0
174
     0
 93
        1
 44
0.0
173
     0
291
     1
 45
0.0
  0
VISUALSTYLE
  5
33
102
{ACAD_REACTORS
330
2A
102
}
102
{ACAD_XDICTIONARY
360
B9
102
}
330
2A
100
AcDbVisualStyle
  2
Realistic
 70
     8
 71
     2
 72
     2
 73
     0
 90
        0
 40
-0.6
 41
-30.0
 62
     5
 63
     7
421
 16777215
 74
     1
 91
        0
 64
     7
 65
   257
 75
     1
175
     1
 42
1.0
 92
        8
 66
     8
424
  7895160
 43
1.0
 76
     1
 77
     6
 78
     2
 67
     7
 79
     5
170
     0
171
     0
290
     0
174
     0
 93
       13
 44
0.0
173
     0
291
     0
 45
0.0
  0
VISUALSTYLE
  5
37
102
{ACAD_REACTORS
330
2A
102
}
102
{ACAD_XDICTIONARY
360
C1
102
}
330
2A
100
AcDbVisualStyle
  2
Thicken
 70
    13
 71
     2
 72
     2
 73
     0
 90
        0
 40
-0.6
 41
-30.0
 62
     5
 63
     7
421
 16777215
 74
     1
 91
        4
 64
     7
 65
   257
 75
     1
175
     1
 42
1.0
 92
       12
 66
     7
 43
1.0
 76
     1
 77
     6
 78
     2
 67
     7
 79
     5
170
     0
171
     0
290
     0
174
     0
 93
        1
 44
0.0
173
     0
291
     1
 45
0.0
  0
DICTIONARY
  5
B1
330
2F
100
AcDbDictionary
280
     1
281
     1
  3
ACAD_XREC_ROUNDTRIP
360
B2
  0
DICTIONARY
  5
B5
330
31
100
AcDbDictionary
280
     1
281
     1
  3
ACAD_XREC_ROUNDTRIP
360
B6
  0
DICTIONARY
  5
B3
330
30
100
AcDbDictionary
280
     1
281
     1
  3
ACAD_XREC_ROUNDTRIP
360
B4
  0
DICTIONARY
  5
B7
330
32
100
AcDbDictionary
280
     1
281
     1
  3
ACAD_XREC_ROUNDTRIP
360
B8
  0
DICTIONARY
  5
BF
330
36
100
AcDbDictionary
280
     1
281
     1
  3
ACAD_XREC_ROUNDTRIP
360
C0
  0
DICTIONARY
  5
C7
330
3A
100
AcDbDictionary
280
     1
281
     1
  3
ACAD_XREC_ROUNDTRIP
360
C8
  0
DICTIONARY
  5
BB
330
34
100
AcDbDictionary
280
     1
281
     1
  3
ACAD_XREC_ROUNDTRIP
360
BC
  0
DICTIONARY
  5
BD
330
35
100
AcDbDictionary
280
     1
281
     1
  3
ACAD_XREC_ROUNDTRIP
360
BE
  0
DICTIONARY
  5
C5
330
39
100
AcDbDictionary
280
     1
281
     1
  3
ACAD_XREC_ROUNDTRIP
360
C6
  0
DICTIONARY
  5
A9
330
2B
100
AcDbDictionary
280
     1
281
     1
  3
ACAD_XREC_ROUNDTRIP
360
AA
  0
DICTIONARY
  5
AB
330
2C
100
AcDbDictionary
280
     1
281
     1
  3
ACAD_XREC_ROUNDTRIP
360
AC
  0
DICTIONARY
  5
AD
330
2D
100
AcDbDictionary
280
     1
281
     1
  3
ACAD_XREC_ROUNDTRIP
360
AE
  0
DICTIONARY
  5
AF
330
2E
100
AcDbDictionary
280
     1
281
     1
  3
ACAD_XREC_ROUNDTRIP
360
B0
  0
DICTIONARY
  5
C3
330
38
100
AcDbDictionary
280
     1
281
     1
  3
ACAD_XREC_ROUNDTRIP
360
C4
  0
DICTIONARY
  5
B9
330
33
100
AcDbDictionary
280
     1
281
     1
  3
ACAD_XREC_ROUNDTRIP
360
BA
  0
DICTIONARY
  5
C1
330
37
100
AcDbDictionary
280
     1
281
     1
  3
ACAD_XREC_ROUNDTRIP
360
C2
  0
XRECORD
  5
B2
102
{ACAD_REACTORS
330
B1
102
}
330
B1
100
AcDbXrecord
280
     1
102
RTVSPropertyOp0
 70
     1
102
RTVSPropertyOp1
 70
     1
102
RTVSPropertyOp2
 70
     1
102
RTVSPropertyOp3
 70
     1
102
RTVSPropertyOp4
 70
     1
102
RTVSPropertyOp5
 70
     1
102
RTVSPropertyOp6
 70
     1
102
RTVSPropertyOp7
 70
     1
102
RTVSPropertyOp8
 70
     1
102
RTVSPropertyOp9
 70
     1
102
RTVSPropertyOp10
 70
     1
102
RTVSPropertyOp11
 70
     1
102
RTVSPropertyOp12
 70
     1
102
RTVSPropertyOp13
 70
     1
102
RTVSPropertyOp14
 70
     1
102
RTVSPropertyOp15
 70
     1
102
RTVSPropertyOp16
 70
     1
102
RTVSPropertyOp17
 70
     1
102
RTVSPropertyOp18
 70
     1
102
RTVSPropertyOp19
 70
     1
102
RTVSPropertyOp20
 70
     1
102
RTVSPropertyOp21
 70
     1
102
RTVSPropertyOp22
 70
     1
102
RTVSPropertyOp23
 70
     1
102
RTVSPropertyOp24
 70
     1
102
RTVSPropertyOp25
 70
     1
102
RTVSPropertyOp26
 70
     1
102
RTVSPropertyOp27
 70
     1
102
RTVSPropertyOp28
 70
     1
102
RTVSPropertyOp29
 70
     1
102
RTVSPropertyOp30
 70
     1
102
RTVSPropertyOp31
 70
     1
102
RTVSPropertyOp32
 70
     1
  0
XRECORD
  5
B6
102
{ACAD_REACTORS
330
B5
102
}
330
B5
100
AcDbXrecord
280
     1
102
RTVSPropertyOp0
 70
     1
102
RTVSPropertyOp1
 70
     1
102
RTVSPropertyOp2
 70
     1
102
RTVSPropertyOp3
 70
     1
102
RTVSPropertyOp4
 70
     1
102
RTVSPropertyOp5
 70
     1
102
RTVSPropertyOp6
 70
     1
102
RTVSPropertyOp7
 70
     1
102
RTVSPropertyOp8
 70
     1
102
RTVSPropertyOp9
 70
     1
102
RTVSPropertyOp10
 70
     1
102
RTVSPropertyOp11
 70
     1
102
RTVSPropertyOp12
 70
     1
102
RTVSPropertyOp13
 70
     1
102
RTVSPropertyOp14
 70
     1
102
RTVSPropertyOp15
 70
     1
102
RTVSPropertyOp16
 70
     1
102
RTVSPropertyOp17
 70
     1
102
RTVSPropertyOp18
 70
     1
102
RTVSPropertyOp19
 70
     1
102
RTVSPropertyOp20
 70
     1
102
RTVSPropertyOp21
 70
     1
102
RTVSPropertyOp22
 70
     1
102
RTVSPropertyOp23
 70
     1
102
RTVSPropertyOp24
 70
     1
102
RTVSPropertyOp25
 70
     1
102
RTVSPropertyOp26
 70
     1
102
RTVSPropertyOp27
 70
     1
102
RTVSPropertyOp28
 70
     1
102
RTVSPropertyOp29
 70
     1
102
RTVSPropertyOp30
 70
     1
102
RTVSPropertyOp31
 70
     1
102
RTVSPropertyOp32
 70
     1
  0
XRECORD
  5
B4
102
{ACAD_REACTORS
330
B3
102
}
330
B3
100
AcDbXrecord
280
     1
102
RTVSPropertyOp0
 70
     1
102
RTVSPropertyOp1
 70
     1
102
RTVSPropertyOp2
 70
     1
102
RTVSPropertyOp3
 70
     1
102
RTVSPropertyOp4
 70
     1
102
RTVSPropertyOp5
 70
     1
102
RTVSPropertyOp6
 70
     1
102
RTVSPropertyOp7
 70
     1
102
RTVSPropertyOp8
 70
     1
102
RTVSPropertyOp9
 70
     1
102
RTVSPropertyOp10
 70
     1
102
RTVSPropertyOp11
 70
     1
102
RTVSPropertyOp12
 70
     1
102
RTVSPropertyOp13
 70
     1
102
RTVSPropertyOp14
 70
     1
102
RTVSPropertyOp15
 70
     1
102
RTVSPropertyOp16
 70
     1
102
RTVSPropertyOp17
 70
     1
102
RTVSPropertyOp18
 70
     1
102
RTVSPropertyOp19
 70
     1
102
RTVSPropertyOp20
 70
     1
102
RTVSPropertyOp21
 70
     1
102
RTVSPropertyOp22
 70
     1
102
RTVSPropertyOp23
 70
     1
102
RTVSPropertyOp24
 70
     1
102
RTVSPropertyOp25
 70
     1
102
RTVSPropertyOp26
 70
     1
102
RTVSPropertyOp27
 70
     1
102
RTVSPropertyOp28
 70
     1
102
RTVSPropertyOp29
 70
     1
102
RTVSPropertyOp30
 70
     1
102
RTVSPropertyOp31
 70
     1
102
RTVSPropertyOp32
 70
     1
  0
XRECORD
  5
B8
102
{ACAD_REACTORS
330
B7
102
}
330
B7
100
AcDbXrecord
280
     1
102
RTVSPropertyOp0
 70
     1
102
RTVSPropertyOp1
 70
     1
102
RTVSPropertyOp2
 70
     1
102
RTVSPropertyOp3
 70
     1
102
RTVSPropertyOp4
 70
     1
102
RTVSPropertyOp5
 70
     1
102
RTVSPropertyOp6
 70
     1
102
RTVSPropertyOp7
 70
     1
102
RTVSPropertyOp8
 70
     1
102
RTVSPropertyOp9
 70
     1
102
RTVSPropertyOp10
 70
     1
102
RTVSPropertyOp11
 70
     1
102
RTVSPropertyOp12
 70
     1
102
RTVSPropertyOp13
 70
     1
102
RTVSPropertyOp14
 70
     1
102
RTVSPropertyOp15
 70
     1
102
RTVSPropertyOp16
 70
     1
102
RTVSPropertyOp17
 70
     1
102
RTVSPropertyOp18
 70
     1
102
RTVSPropertyOp19
 70
     1
102
RTVSPropertyOp20
 70
     1
102
RTVSPropertyOp21
 70
     1
102
RTVSPropertyOp22
 70
     1
102
RTVSPropertyOp23
 70
     1
102
RTVSPropertyOp24
 70
     1
102
RTVSPropertyOp25
 70
     1
102
RTVSPropertyOp26
 70
     1
102
RTVSPropertyOp27
 70
     1
102
RTVSPropertyOp28
 70
     1
102
RTVSPropertyOp29
 70
     1
102
RTVSPropertyOp30
 70
     1
102
RTVSPropertyOp31
 70
     1
102
RTVSPropertyOp32
 70
     1
  0
XRECORD
  5
C0
102
{ACAD_REACTORS
330
BF
102
}
330
BF
100
AcDbXrecord
280
     1
102
RTVSPropertyOp0
 70
     1
102
RTVSPropertyOp1
 70
     1
102
RTVSPropertyOp2
 70
     1
102
RTVSPropertyOp3
 70
     1
102
RTVSPropertyOp4
 70
     1
102
RTVSPropertyOp5
 70
     1
102
RTVSPropertyOp6
 70
     1
102
RTVSPropertyOp7
 70
     1
102
RTVSPropertyOp8
 70
     1
102
RTVSPropertyOp9
 70
     1
102
RTVSPropertyOp10
 70
     1
102
RTVSPropertyOp11
 70
     1
102
RTVSPropertyOp12
 70
     1
102
RTVSPropertyOp13
 70
     1
102
RTVSPropertyOp14
 70
     1
102
RTVSPropertyOp15
 70
     1
102
RTVSPropertyOp16
 70
     1
102
RTVSPropertyOp17
 70
     1
102
RTVSPropertyOp18
 70
     1
102
RTVSPropertyOp19
 70
     1
102
RTVSPropertyOp20
 70
     1
102
RTVSPropertyOp21
 70
     1
102
RTVSPropertyOp22
 70
     1
102
RTVSPropertyOp23
 70
     1
102
RTVSPropertyOp24
 70
     1
102
RTVSPropertyOp25
 70
     1
102
RTVSPropertyOp26
 70
     1
102
RTVSPropertyOp27
 70
     1
102
RTVSPropertyOp28
 70
     1
102
RTVSPropertyOp29
 70
     1
102
RTVSPropertyOp30
 70
     1
102
RTVSPropertyOp31
 70
     1
102
RTVSPropertyOp32
 70
     1
  0
XRECORD
  5
C8
102
{ACAD_REACTORS
330
C7
102
}
330
C7
100
AcDbXrecord
280
     1
102
RTVSPropertyOp0
 70
     1
102
RTVSPropertyOp1
 70
     1
102
RTVSPropertyOp2
 70
     1
102
RTVSPropertyOp3
 70
     1
102
RTVSPropertyOp4
 70
     1
102
RTVSPropertyOp5
 70
     1
102
RTVSPropertyOp6
 70
     1
102
RTVSPropertyOp7
 70
     1
102
RTVSPropertyOp8
 70
     1
102
RTVSPropertyOp9
 70
     1
102
RTVSPropertyOp10
 70
     1
102
RTVSPropertyOp11
 70
     1
102
RTVSPropertyOp12
 70
     1
102
RTVSPropertyOp13
 70
     1
102
RTVSPropertyOp14
 70
     1
102
RTVSPropertyOp15
 70
     1
102
RTVSPropertyOp16
 70
     1
102
RTVSPropertyOp17
 70
     1
102
RTVSPropertyOp18
 70
     1
102
RTVSPropertyOp19
 70
     1
102
RTVSPropertyOp20
 70
     1
102
RTVSPropertyOp21
 70
     1
102
RTVSPropertyOp22
 70
     1
102
RTVSPropertyOp23
 70
     1
102
RTVSPropertyOp24
 70
     1
102
RTVSPropertyOp25
 70
     1
102
RTVSPropertyOp26
 70
     1
102
RTVSPropertyOp27
 70
     1
102
RTVSPropertyOp28
 70
     1
102
RTVSPropertyOp29
 70
     1
102
RTVSPropertyOp30
 70
     1
102
RTVSPropertyOp31
 70
     1
102
RTVSPropertyOp32
 70
     1
  0
XRECORD
  5
BC
102
{ACAD_REACTORS
330
BB
102
}
330
BB
100
AcDbXrecord
280
     1
102
RTVSPropertyOp0
 70
     1
102
RTVSPropertyOp1
 70
     1
102
RTVSPropertyOp2
 70
     1
102
RTVSPropertyOp3
 70
     1
102
RTVSPropertyOp4
 70
     1
102
RTVSPropertyOp5
 70
     1
102
RTVSPropertyOp6
 70
     1
102
RTVSPropertyOp7
 70
     1
102
RTVSPropertyOp8
 70
     1
102
RTVSPropertyOp9
 70
     1
102
RTVSPropertyOp10
 70
     1
102
RTVSPropertyOp11
 70
     1
102
RTVSPropertyOp12
 70
     1
102
RTVSPropertyOp13
 70
     1
102
RTVSPropertyOp14
 70
     1
102
RTVSPropertyOp15
 70
     1
102
RTVSPropertyOp16
 70
     1
102
RTVSPropertyOp17
 70
     1
102
RTVSPropertyOp18
 70
     1
102
RTVSPropertyOp19
 70
     1
102
RTVSPropertyOp20
 70
     1
102
RTVSPropertyOp21
 70
     1
102
RTVSPropertyOp22
 70
     1
102
RTVSPropertyOp23
 70
     1
102
RTVSPropertyOp24
 70
     1
102
RTVSPropertyOp25
 70
     1
102
RTVSPropertyOp26
 70
     1
102
RTVSPropertyOp27
 70
     1
102
RTVSPropertyOp28
 70
     1
102
RTVSPropertyOp29
 70
     1
102
RTVSPropertyOp30
 70
     1
102
RTVSPropertyOp31
 70
     1
102
RTVSPropertyOp32
 70
     1
  0
XRECORD
  5
BE
102
{ACAD_REACTORS
330
BD
102
}
330
BD
100
AcDbXrecord
280
     1
102
RTVSPropertyOp0
 70
     1
102
RTVSPropertyOp1
 70
     1
102
RTVSPropertyOp2
 70
     1
102
RTVSPropertyOp3
 70
     1
102
RTVSPropertyOp4
 70
     1
102
RTVSPropertyOp5
 70
     1
102
RTVSPropertyOp6
 70
     1
102
RTVSPropertyOp7
 70
     1
102
RTVSPropertyOp8
 70
     1
102
RTVSPropertyOp9
 70
     1
102
RTVSPropertyOp10
 70
     1
102
RTVSPropertyOp11
 70
     1
102
RTVSPropertyOp12
 70
     1
102
RTVSPropertyOp13
 70
     1
102
RTVSPropertyOp14
 70
     1
102
RTVSPropertyOp15
 70
     1
102
RTVSPropertyOp16
 70
     1
102
RTVSPropertyOp17
 70
     1
102
RTVSPropertyOp18
 70
     1
102
RTVSPropertyOp19
 70
     1
102
RTVSPropertyOp20
 70
     1
102
RTVSPropertyOp21
 70
     1
102
RTVSPropertyOp22
 70
     1
102
RTVSPropertyOp23
 70
     1
102
RTVSPropertyOp24
 70
     1
102
RTVSPropertyOp25
 70
     1
102
RTVSPropertyOp26
 70
     1
102
RTVSPropertyOp27
 70
     1
102
RTVSPropertyOp28
 70
     1
102
RTVSPropertyOp29
 70
     1
102
RTVSPropertyOp30
 70
     1
102
RTVSPropertyOp31
 70
     1
102
RTVSPropertyOp32
 70
     1
  0
XRECORD
  5
C6
102
{ACAD_REACTORS
330
C5
102
}
330
C5
100
AcDbXrecord
280
     1
102
RTVSPropertyOp0
 70
     1
102
RTVSPropertyOp1
 70
     1
102
RTVSPropertyOp2
 70
     1
102
RTVSPropertyOp3
 70
     1
102
RTVSPropertyOp4
 70
     1
102
RTVSPropertyOp5
 70
     1
102
RTVSPropertyOp6
 70
     1
102
RTVSPropertyOp7
 70
     1
102
RTVSPropertyOp8
 70
     1
102
RTVSPropertyOp9
 70
     1
102
RTVSPropertyOp10
 70
     1
102
RTVSPropertyOp11
 70
     1
102
RTVSPropertyOp12
 70
     1
102
RTVSPropertyOp13
 70
     1
102
RTVSPropertyOp14
 70
     1
102
RTVSPropertyOp15
 70
     1
102
RTVSPropertyOp16
 70
     1
102
RTVSPropertyOp17
 70
     1
102
RTVSPropertyOp18
 70
     1
102
RTVSPropertyOp19
 70
     1
102
RTVSPropertyOp20
 70
     1
102
RTVSPropertyOp21
 70
     1
102
RTVSPropertyOp22
 70
     1
102
RTVSPropertyOp23
 70
     1
102
RTVSPropertyOp24
 70
     1
102
RTVSPropertyOp25
 70
     1
102
RTVSPropertyOp26
 70
     1
102
RTVSPropertyOp27
 70
     1
102
RTVSPropertyOp28
 70
     1
102
RTVSPropertyOp29
 70
     1
102
RTVSPropertyOp30
 70
     1
102
RTVSPropertyOp31
 70
     1
102
RTVSPropertyOp32
 70
     1
  0
XRECORD
  5
AA
102
{ACAD_REACTORS
330
A9
102
}
330
A9
100
AcDbXrecord
280
     1
102
RTVSPropertyOp0
 70
     1
102
RTVSPropertyOp1
 70
     1
102
RTVSPropertyOp2
 70
     1
102
RTVSPropertyOp3
 70
     1
102
RTVSPropertyOp4
 70
     1
102
RTVSPropertyOp5
 70
     1
102
RTVSPropertyOp6
 70
     1
102
RTVSPropertyOp7
 70
     1
102
RTVSPropertyOp8
 70
     1
102
RTVSPropertyOp9
 70
     1
102
RTVSPropertyOp10
 70
     1
102
RTVSPropertyOp11
 70
     1
102
RTVSPropertyOp12
 70
     1
102
RTVSPropertyOp13
 70
     1
102
RTVSPropertyOp14
 70
     1
102
RTVSPropertyOp15
 70
     1
102
RTVSPropertyOp16
 70
     1
102
RTVSPropertyOp17
 70
     1
102
RTVSPropertyOp18
 70
     1
102
RTVSPropertyOp19
 70
     1
102
RTVSPropertyOp20
 70
     1
102
RTVSPropertyOp21
 70
     1
102
RTVSPropertyOp22
 70
     1
102
RTVSPropertyOp23
 70
     1
102
RTVSPropertyOp24
 70
     1
102
RTVSPropertyOp25
 70
     1
102
RTVSPropertyOp26
 70
     1
102
RTVSPropertyOp27
 70
     1
102
RTVSPropertyOp28
 70
     1
102
RTVSPropertyOp29
 70
     1
102
RTVSPropertyOp30
 70
     1
102
RTVSPropertyOp31
 70
     1
102
RTVSPropertyOp32
 70
     1
  0
XRECORD
  5
AC
102
{ACAD_REACTORS
330
AB
102
}
330
AB
100
AcDbXrecord
280
     1
102
RTVSPropertyOp0
 70
     1
102
RTVSPropertyOp1
 70
     1
102
RTVSPropertyOp2
 70
     1
102
RTVSPropertyOp3
 70
     1
102
RTVSPropertyOp4
 70
     1
102
RTVSPropertyOp5
 70
     1
102
RTVSPropertyOp6
 70
     1
102
RTVSPropertyOp7
 70
     1
102
RTVSPropertyOp8
 70
     1
102
RTVSPropertyOp9
 70
     1
102
RTVSPropertyOp10
 70
     1
102
RTVSPropertyOp11
 70
     1
102
RTVSPropertyOp12
 70
     1
102
RTVSPropertyOp13
 70
     1
102
RTVSPropertyOp14
 70
     1
102
RTVSPropertyOp15
 70
     1
102
RTVSPropertyOp16
 70
     1
102
RTVSPropertyOp17
 70
     1
102
RTVSPropertyOp18
 70
     1
102
RTVSPropertyOp19
 70
     1
102
RTVSPropertyOp20
 70
     1
102
RTVSPropertyOp21
 70
     1
102
RTVSPropertyOp22
 70
     1
102
RTVSPropertyOp23
 70
     1
102
RTVSPropertyOp24
 70
     1
102
RTVSPropertyOp25
 70
     1
102
RTVSPropertyOp26
 70
     1
102
RTVSPropertyOp27
 70
     1
102
RTVSPropertyOp28
 70
     1
102
RTVSPropertyOp29
 70
     1
102
RTVSPropertyOp30
 70
     1
102
RTVSPropertyOp31
 70
     1
102
RTVSPropertyOp32
 70
     1
  0
XRECORD
  5
AE
102
{ACAD_REACTORS
330
AD
102
}
330
AD
100
AcDbXrecord
280
     1
102
RTVSPropertyOp0
 70
     1
102
RTVSPropertyOp1
 70
     1
102
RTVSPropertyOp2
 70
     1
102
RTVSPropertyOp3
 70
     1
102
RTVSPropertyOp4
 70
     1
102
RTVSPropertyOp5
 70
     1
102
RTVSPropertyOp6
 70
     1
102
RTVSPropertyOp7
 70
     1
102
RTVSPropertyOp8
 70
     1
102
RTVSPropertyOp9
 70
     1
102
RTVSPropertyOp10
 70
     1
102
RTVSPropertyOp11
 70
     1
102
RTVSPropertyOp12
 70
     1
102
RTVSPropertyOp13
 70
     1
102
RTVSPropertyOp14
 70
     1
102
RTVSPropertyOp15
 70
     1
102
RTVSPropertyOp16
 70
     1
102
RTVSPropertyOp17
 70
     1
102
RTVSPropertyOp18
 70
     1
102
RTVSPropertyOp19
 70
     1
102
RTVSPropertyOp20
 70
     1
102
RTVSPropertyOp21
 70
     1
102
RTVSPropertyOp22
 70
     1
102
RTVSPropertyOp23
 70
     1
102
RTVSPropertyOp24
 70
     1
102
RTVSPropertyOp25
 70
     1
102
RTVSPropertyOp26
 70
     1
102
RTVSPropertyOp27
 70
     1
102
RTVSPropertyOp28
 70
     1
102
RTVSPropertyOp29
 70
     1
102
RTVSPropertyOp30
 70
     1
102
RTVSPropertyOp31
 70
     1
102
RTVSPropertyOp32
 70
     1
  0
XRECORD
  5
B0
102
{ACAD_REACTORS
330
AF
102
}
330
AF
100
AcDbXrecord
280
     1
102
RTVSPropertyOp0
 70
     1
102
RTVSPropertyOp1
 70
     1
102
RTVSPropertyOp2
 70
     1
102
RTVSPropertyOp3
 70
     1
102
RTVSPropertyOp4
 70
     1
102
RTVSPropertyOp5
 70
     1
102
RTVSPropertyOp6
 70
     1
102
RTVSPropertyOp7
 70
     1
102
RTVSPropertyOp8
 70
     1
102
RTVSPropertyOp9
 70
     1
102
RTVSPropertyOp10
 70
     1
102
RTVSPropertyOp11
 70
     1
102
RTVSPropertyOp12
 70
     1
102
RTVSPropertyOp13
 70
     1
102
RTVSPropertyOp14
 70
     1
102
RTVSPropertyOp15
 70
     1
102
RTVSPropertyOp16
 70
     1
102
RTVSPropertyOp17
 70
     1
102
RTVSPropertyOp18
 70
     1
102
RTVSPropertyOp19
 70
     1
102
RTVSPropertyOp20
 70
     1
102
RTVSPropertyOp21
 70
     1
102
RTVSPropertyOp22
 70
     1
102
RTVSPropertyOp23
 70
     1
102
RTVSPropertyOp24
 70
     1
102
RTVSPropertyOp25
 70
     1
102
RTVSPropertyOp26
 70
     1
102
RTVSPropertyOp27
 70
     1
102
RTVSPropertyOp28
 70
     1
102
RTVSPropertyOp29
 70
     1
102
RTVSPropertyOp30
 70
     1
102
RTVSPropertyOp31
 70
     1
102
RTVSPropertyOp32
 70
     1
  0
XRECORD
  5
C4
102
{ACAD_REACTORS
330
C3
102
}
330
C3
100
AcDbXrecord
280
     1
102
RTVSPropertyOp0
 70
     1
102
RTVSPropertyOp1
 70
     1
102
RTVSPropertyOp2
 70
     1
102
RTVSPropertyOp3
 70
     1
102
RTVSPropertyOp4
 70
     1
102
RTVSPropertyOp5
 70
     1
102
RTVSPropertyOp6
 70
     1
102
RTVSPropertyOp7
 70
     1
102
RTVSPropertyOp8
 70
     1
102
RTVSPropertyOp9
 70
     1
102
RTVSPropertyOp10
 70
     1
102
RTVSPropertyOp11
 70
     1
102
RTVSPropertyOp12
 70
     1
102
RTVSPropertyOp13
 70
     1
102
RTVSPropertyOp14
 70
     1
102
RTVSPropertyOp15
 70
     1
102
RTVSPropertyOp16
 70
     1
102
RTVSPropertyOp17
 70
     1
102
RTVSPropertyOp18
 70
     1
102
RTVSPropertyOp19
 70
     1
102
RTVSPropertyOp20
 70
     1
102
RTVSPropertyOp21
 70
     1
102
RTVSPropertyOp22
 70
     1
102
RTVSPropertyOp23
 70
     1
102
RTVSPropertyOp24
 70
     1
102
RTVSPropertyOp25
 70
     1
102
RTVSPropertyOp26
 70
     1
102
RTVSPropertyOp27
 70
     1
102
RTVSPropertyOp28
 70
     1
102
RTVSPropertyOp29
 70
     1
102
RTVSPropertyOp30
 70
     1
102
RTVSPropertyOp31
 70
     1
102
RTVSPropertyOp32
 70
     1
  0
XRECORD
  5
BA
102
{ACAD_REACTORS
330
B9
102
}
330
B9
100
AcDbXrecord
280
     1
102
RTVSPropertyOp0
 70
     1
102
RTVSPropertyOp1
 70
     1
102
RTVSPropertyOp2
 70
     1
102
RTVSPropertyOp3
 70
     1
102
RTVSPropertyOp4
 70
     1
102
RTVSPropertyOp5
 70
     1
102
RTVSPropertyOp6
 70
     1
102
RTVSPropertyOp7
 70
     1
102
RTVSPropertyOp8
 70
     1
102
RTVSPropertyOp9
 70
     1
102
RTVSPropertyOp10
 70
     1
102
RTVSPropertyOp11
 70
     1
102
RTVSPropertyOp12
 70
     1
102
RTVSPropertyOp13
 70
     1
102
RTVSPropertyOp14
 70
     1
102
RTVSPropertyOp15
 70
     1
102
RTVSPropertyOp16
 70
     1
102
RTVSPropertyOp17
 70
     1
102
RTVSPropertyOp18
 70
     1
102
RTVSPropertyOp19
 70
     1
102
RTVSPropertyOp20
 70
     1
102
RTVSPropertyOp21
 70
     1
102
RTVSPropertyOp22
 70
     1
102
RTVSPropertyOp23
 70
     1
102
RTVSPropertyOp24
 70
     1
102
RTVSPropertyOp25
 70
     1
102
RTVSPropertyOp26
 70
     1
102
RTVSPropertyOp27
 70
     1
102
RTVSPropertyOp28
 70
     1
102
RTVSPropertyOp29
 70
     1
102
RTVSPropertyOp30
 70
     1
102
RTVSPropertyOp31
 70
     1
102
RTVSPropertyOp32
 70
     1
  0
XRECORD
  5
C2
102
{ACAD_REACTORS
330
C1
102
}
330
C1
100
AcDbXrecord
280
     1
102
RTVSPropertyOp0
 70
     1
102
RTVSPropertyOp1
 70
     1
102
RTVSPropertyOp2
 70
     1
102
RTVSPropertyOp3
 70
     1
102
RTVSPropertyOp4
 70
     1
102
RTVSPropertyOp5
 70
     1
102
RTVSPropertyOp6
 70
     1
102
RTVSPropertyOp7
 70
     1
102
RTVSPropertyOp8
 70
     1
102
RTVSPropertyOp9
 70
     1
102
RTVSPropertyOp10
 70
     1
102
RTVSPropertyOp11
 70
     1
102
RTVSPropertyOp12
 70
     1
102
RTVSPropertyOp13
 70
     1
102
RTVSPropertyOp14
 70
     1
102
RTVSPropertyOp15
 70
     1
102
RTVSPropertyOp16
 70
     1
102
RTVSPropertyOp17
 70
     1
102
RTVSPropertyOp18
 70
     1
102
RTVSPropertyOp19
 70
     1
102
RTVSPropertyOp20
 70
     1
102
RTVSPropertyOp21
 70
     1
102
RTVSPropertyOp22
 70
     1
102
RTVSPropertyOp23
 70
     1
102
RTVSPropertyOp24
 70
     1
102
RTVSPropertyOp25
 70
     1
102
RTVSPropertyOp26
 70
     1
102
RTVSPropertyOp27
 70
     1
102
RTVSPropertyOp28
 70
     1
102
RTVSPropertyOp29
 70
     1
102
RTVSPropertyOp30
 70
     1
102
RTVSPropertyOp31
 70
     1
102
RTVSPropertyOp32
 70
     1
  0
ENDSEC
  0
EOF
