  0
SECTION
  2
HEADER
  9
$ACADVER
  1
AC1021
  9
$ACADMAINTVER
 70
    25
  9
$DWGCODEPAGE
  3
ANSI_1252
  9
$INSBASE
 10
0.0
 20
0.0
 30
0.0
  9
$EXTMIN
 10
-3.2932
 20
-115.028
 30
0.0
  9
$EXTMAX
 10
196.5831
 20
131.2763
 30
0.0
  9
$LIMMIN
 10
0.0
 20
0.0
  9
$LIMMAX
 10
12.0
 20
9.0
  9
$ORTHOMODE
 70
     0
  9
$REGENMODE
 70
     1
  9
$FILLMODE
 70
     1
  9
$QTEXTMODE
 70
     0
  9
$MIRRTEXT
 70
     1
  9
$LTSCALE
 40
1.0
  9
$ATTMODE
 70
     1
  9
$TEXTSIZE
 40
0.2
  9
$TRACEWID
 40
0.05
  9
$TEXTSTYLE
  7
Standard
  9
$CLAYER
  8
0
  9
$CELTYPE
  6
ByLayer
  9
$CECOLOR
 62
   256
  9
$CELTSCALE
 40
1.0
  9
$DISPSILH
 70
     0
  9
$DIMSCALE
 40
1.0
  9
$DIMASZ
 40
0.18
  9
$DIMEXO
 40
0.0625
  9
$DIMDLI
 40
0.38
  9
$DIMRND
 40
0.0
  9
$DIMDLE
 40
0.0
  9
$DIMEXE
 40
0.18
  9
$DIMTP
 40
0.0
  9
$DIMTM
 40
0.0
  9
$DIMTXT
 40
0.18
  9
$DIMCEN
 40
0.09
  9
$DIMTSZ
 40
0.0
  9
$DIMTOL
 70
     0
  9
$DIMLIM
 70
     0
  9
$DIMTIH
 70
     1
  9
$DIMTOH
 70
     1
  9
$DIMSE1
 70
     0
  9
$DIMSE2
 70
     0
  9
$DIMTAD
 70
     0
  9
$DIMZIN
 70
     0
  9
$DIMBLK
  1

  9
$DIMASO
 70
     1
  9
$DIMSHO
 70
     1
  9
$DIMPOST
  1

  9
$DIMAPOST
  1

  9
$DIMALT
 70
     0
  9
$DIMALTD
 70
     2
  9
$DIMALTF
 40
25.4
  9
$DIMLFAC
 40
1.0
  9
$DIMTOFL
 70
     0
  9
$DIMTVP
 40
0.0
  9
$DIMTIX
 70
     0
  9
$DIMSOXD
 70
     0
  9
$DIMSAH
 70
     0
  9
$DIMBLK1
  1

  9
$DIMBLK2
  1

  9
$DIMSTYLE
  2
Standard
  9
$DIMCLRD
 70
     0
  9
$DIMCLRE
 70
     0
  9
$DIMCLRT
 70
     0
  9
$DIMTFAC
 40
1.0
  9
$DIMGAP
 40
0.09
  9
$DIMJUST
 70
     0
  9
$DIMSD1
 70
     0
  9
$DIMSD2
 70
     0
  9
$DIMTOLJ
 70
     1
  9
$DIMTZIN
 70
     0
  9
$DIMALTZ
 70
     0
  9
$DIMALTTZ
 70
     0
  9
$DIMUPT
 70
     0
  9
$DIMDEC
 70
     4
  9
$DIMTDEC
 70
     4
  9
$DIMALTU
 70
     2
  9
$DIMALTTD
 70
     2
  9
$DIMTXSTY
  7
Standard
  9
$DIMAUNIT
 70
     0
  9
$DIMADEC
 70
     0
  9
$DIMALTRND
 40
0.0
  9
$DIMAZIN
 70
     0
  9
$DIMDSEP
 70
    46
  9
$DIMATFIT
 70
     3
  9
$DIMFRAC
 70
     0
  9
$DIMLDRBLK
  1

  9
$DIMLUNIT
 70
     2
  9
$DIMLWD
 70
    -2
  9
$DIMLWE
 70
    -2
  9
$DIMTMOVE
 70
     0
  9
$DIMFXL
 40
1.0
  9
$DIMFXLON
 70
     0
  9
$DIMJOGANG
 40
0.7853981633974483
  9
$DIMTFILL
 70
     0
  9
$DIMTFILLCLR
 70
     0
  9
$DIMARCSYM
 70
     0
  9
$DIMLTYPE
  6

  9
$DIMLTEX1
  6

  9
$DIMLTEX2
  6

  9
$LUNITS
 70
     2
  9
$LUPREC
 70
     4
  9
$SKETCHINC
 40
0.1
  9
$FILLETRAD
 40
0.5
  9
$AUNITS
 70
     0
  9
$AUPREC
 70
     0
  9
$MENU
  1
.
  9
$ELEVATION
 40
0.0
  9
$PELEVATION
 40
0.0
  9
$THICKNESS
 40
0.0
  9
$LIMCHECK
 70
     0
  9
$CHAMFERA
 40
0.5
  9
$CHAMFERB
 40
0.5
  9
$CHAMFERC
 40
1.0
  9
$CHAMFERD
 40
0.0
  9
$SKPOLY
 70
     0
  9
$TDCREATE
 40
2458492.560193322
  9
$TDUCREATE
 40
2458492.560193322
  9
$TDUPDATE
 40
2458492.560193426
  9
$TDUUPDATE
 40
2458492.560193426
  9
$TDINDWG
 40
0.0000000116
  9
$TDUSRTIMER
 40
0.0000000116
  9
$USRTIMER
 70
     1
  9
$ANGBASE
 50
0.0
  9
$ANGDIR
 70
     0
  9
$PDMODE
 70
     0
  9
$PDSIZE
 40
0.0
  9
$PLINEWID
 40
0.0
  9
$SPLFRAME
 70
     0
  9
$SPLINETYPE
 70
     6
  9
$SPLINESEGS
 70
     8
  9
$HANDSEED
  5
AD
  9
$SURFTAB1
 70
     6
  9
$SURFTAB2
 70
     6
  9
$SURFTYPE
 70
     6
  9
$SURFU
 70
     6
  9
$SURFV
 70
     6
  9
$UCSBASE
  2

  9
$UCSNAME
  2

  9
$UCSORG
 10
0.0
 20
0.0
 30
0.0
  9
$UCSXDIR
 10
1.0
 20
0.0
 30
0.0
  9
$UCSYDIR
 10
0.0
 20
1.0
 30
0.0
  9
$UCSORTHOREF
  2

  9
$UCSORTHOVIEW
 70
     0
  9
$UCSORGTOP
 10
0.0
 20
0.0
 30
0.0
  9
$UCSORGBOTTOM
 10
0.0
 20
0.0
 30
0.0
  9
$UCSORGLEFT
 10
0.0
 20
0.0
 30
0.0
  9
$UCSORGRIGHT
 10
0.0
 20
0.0
 30
0.0
  9
$UCSORGFRONT
 10
0.0
 20
0.0
 30
0.0
  9
$UCSORGBACK
 10
0.0
 20
0.0
 30
0.0
  9
$PUCSBASE
  2

  9
$PUCSNAME
  2

  9
$PUCSORG
 10
0.0
 20
0.0
 30
0.0
  9
$PUCSXDIR
 10
1.0
 20
0.0
 30
0.0
  9
$PUCSYDIR
 10
0.0
 20
1.0
 30
0.0
  9
$PUCSORTHOREF
  2

  9
$PUCSORTHOVIEW
 70
     0
  9
$PUCSORGTOP
 10
0.0
 20
0.0
 30
0.0
  9
$PUCSORGBOTTOM
 10
0.0
 20
0.0
 30
0.0
  9
$PUCSORGLEFT
 10
0.0
 20
0.0
 30
0.0
  9
$PUCSORGRIGHT
 10
0.0
 20
0.0
 30
0.0
  9
$PUCSORGFRONT
 10
0.0
 20
0.0
 30
0.0
  9
$PUCSORGBACK
 10
0.0
 20
0.0
 30
0.0
  9
$USERI1
 70
     0
  9
$USERI2
 70
     0
  9
$USERI3
 70
     0
  9
$USERI4
 70
     0
  9
$USERI5
 70
     0
  9
$USERR1
 40
0.0
  9
$USERR2
 40
0.0
  9
$USERR3
 40
0.0
  9
$USERR4
 40
0.0
  9
$USERR5
 40
0.0
  9
$WORLDVIEW
 70
     1
  9
$SHADEDGE
 70
     3
  9
$SHADEDIF
 70
    70
  9
$TILEMODE
 70
     1
  9
$MAXACTVP
 70
    64
  9
$PINSBASE
 10
0.0
 20
0.0
 30
0.0
  9
$PLIMCHECK
 70
     0
  9
$PEXTMIN
 10
1.000000000000000E+20
 20
1.000000000000000E+20
 30
1.000000000000000E+20
  9
$PEXTMAX
 10
-1.000000000000000E+20
 20
-1.000000000000000E+20
 30
-1.000000000000000E+20
  9
$PLIMMIN
 10
0.0
 20
0.0
  9
$PLIMMAX
 10
12.0
 20
9.0
  9
$UNITMODE
 70
     0
  9
$VISRETAIN
 70
     1
  9
$PLINEGEN
 70
     0
  9
$PSLTSCALE
 70
     1
  9
$TREEDEPTH
 70
  3020
  9
$CMLSTYLE
  2
Standard
  9
$CMLJUST
 70
     0
  9
$CMLSCALE
 40
1.0
  9
$PROXYGRAPHICS
 70
     1
  9
$MEASUREMENT
 70
     0
  9
$CELWEIGHT
370
    -1
  9
$ENDCAPS
280
     0
  9
$JOINSTYLE
280
     0
  9
$LWDISPLAY
290
     0
  9
$INSUNITS
 70
     4
  9
$HYPERLINKBASE
  1

  9
$STYLESHEET
  1

  9
$XEDIT
290
     1
  9
$CEPSNTYPE
380
     0
  9
$PSTYLEMODE
290
     1
  9
$FINGERPRINTGUID
  2
{1776BAC2-D6CA-4FFC-BC16-D162265EEADB}
  9
$VERSIONGUID
  2
{FAEB1C32-E019-11D5-929B-00C0DF256EC4}
  9
$EXTNAMES
290
     1
  9
$PSVPSCALE
 40
0.0
  9
$OLESTARTUP
290
     0
  9
$SORTENTS
280
   127
  9
$INDEXCTL
280
     0
  9
$HIDETEXT
280
     1
  9
$XCLIPFRAME
290
     0
  9
$HALOGAP
280
     0
  9
$OBSCOLOR
 70
   257
  9
$OBSLTYPE
280
     0
  9
$INTERSECTIONDISPLAY
280
     0
  9
$INTERSECTIONCOLOR
 70
   257
  9
$DIMASSOC
280
     2
  9
$PROJECTNAME
  1

  9
$CAMERADISPLAY
290
     0
  9
$LENSLENGTH
 40
50.0
  9
$CAMERAHEIGHT
 40
0.0
  9
$STEPSPERSEC
 40
2.0
  9
$STEPSIZE
 40
6.0
  9
$3DDWFPREC
 40
2.0
  9
$PSOLWIDTH
 40
0.25
  9
$PSOLHEIGHT
 40
4.0
  9
$LOFTANG1
 40
1.570796326794897
  9
$LOFTANG2
 40
1.570796326794897
  9
$LOFTMAG1
 40
0.0
  9
$LOFTMAG2
 40
0.0
  9
$LOFTPARAM
 70
     7
  9
$LOFTNORMALS
280
     1
  9
$LATITUDE
 40
37.795
  9
$LONGITUDE
 40
-122.394
  9
$NORTHDIRECTION
 40
0.0
  9
$TIMEZONE
 70
 -8000
  9
$LIGHTGLYPHDISPLAY
280
     1
  9
$TILEMODELIGHTSYNCH
280
     1
  9
$SOLIDHIST
280
     1
  9
$SHOWHIST
280
     1
  9
$DWFFRAME
280
     2
  9
$DGNFRAME
280
     2
  9
$REALWORLDSCALE
290
     1
  9
$INTERFERECOLOR
 62
   256
  9
$CSHADOW
280
     0
  9
$SHADOWPLANELOCATION
 40
0.0
  0
ENDSEC
  0
SECTION
  2
CLASSES
  0
CLASS
  1
ACDBDICTIONARYWDFLT
  2
AcDbDictionaryWithDefault
  3
ObjectDBX Classes
 90
        0
 91
        4
280
     0
281
     0
  0
CLASS
  1
VISUALSTYLE
  2
AcDbVisualStyle
  3
ObjectDBX Classes
 90
     4095
 91
        4
280
     0
281
     0
  0
CLASS
  1
MATERIAL
  2
AcDbMaterial
  3
ObjectDBX Classes
 90
     1153
 91
        4
280
     0
281
     0
  0
ENDSEC
  0
SECTION
  2
TABLES
  0
TABLE
  2
VPORT
  5
8
330
0
100
AcDbSymbolTable
 70
     1
  0
VPORT
  5
29
330
8
100
AcDbSymbolTableRecord
100
AcDbViewportTableRecord
  2
*Active
 70
     0
 10
0.0
 20
0.0
 11
1.0
 21
1.0
 12
10.42990654205607
 22
4.5
 13
0.0
 23
0.0
 14
0.5
 24
0.5
 15
0.5
 25
0.5
 16
0.0
 26
0.0
 36
1.0
 17
0.0
 27
0.0
 37
0.0
 40
9.0
 41
1.972972972850329
 42
50.0
 43
0.0
 44
0.0
 50
0.0
 51
0.0
 71
     0
 72
   100
 73
     1
 74
     3
 75
     0
 76
     0
 77
     0
 78
     0
281
     0
 65
     1
110
0.0
120
0.0
130
0.0
111
1.0
121
0.0
131
0.0
112
0.0
122
1.0
132
0.0
 79
     0
146
0.0
 60
     3
 61
     5
292
     1
282
     1
141
0.0
142
0.0
 63
   250
  0
ENDTAB
  0
TABLE
  2
LTYPE
  5
5
330
0
100
AcDbSymbolTable
 70
     1
  0
LTYPE
  5
14
330
5
100
AcDbSymbolTableRecord
100
AcDbLinetypeTableRecord
  2
ByBlock
 70
     0
  3

 72
    65
 73
     0
 40
0.0
  0
LTYPE
  5
15
330
5
100
AcDbSymbolTableRecord
100
AcDbLinetypeTableRecord
  2
ByLayer
 70
     0
  3

 72
    65
 73
     0
 40
0.0
  0
LTYPE
  5
16
330
5
100
AcDbSymbolTableRecord
100
AcDbLinetypeTableRecord
  2
Continuous
 70
     0
  3
Solid line
 72
    65
 73
     0
 40
0.0
  0
ENDTAB
  0
TABLE
  2
LAYER
  5
2
330
0
100
AcDbSymbolTable
 70
     3
  0
LAYER
  5
10
330
2
100
AcDbSymbolTableRecord
100
AcDbLayerTableRecord
  2
0
 70
     0
 62
     7
  6
Continuous
370
    -3
390
F
347
3E
  0
LAYER
  5
40
330
2
100
AcDbSymbolTableRecord
100
AcDbLayerTableRecord
  2
layer 1
 70
     0
 62
     7
  6
Continuous
370
    -3
390
F
347
3E
  0
LAYER
  5
8A
330
2
100
AcDbSymbolTableRecord
100
AcDbLayerTableRecord
  2
Master Guides
 70
     0
 62
     7
  6
Continuous
370
    -3
390
F
347
3E
  0
ENDTAB
  0
TABLE
  2
STYLE
  5
3
330
0
100
AcDbSymbolTable
 70
     1
  0
STYLE
  5
11
330
3
100
AcDbSymbolTableRecord
100
AcDbTextStyleTableRecord
  2
Standard
 70
     0
 40
0.0
 41
1.0
 50
0.0
 71
     0
 42
0.2
  3
txt
  4

  0
ENDTAB
  0
TABLE
  2
VIEW
  5
6
330
0
100
AcDbSymbolTable
 70
     0
  0
ENDTAB
  0
TABLE
  2
UCS
  5
7
330
0
100
AcDbSymbolTable
 70
     0
  0
ENDTAB
  0
TABLE
  2
APPID
  5
9
330
0
100
AcDbSymbolTable
 70
     2
  0
APPID
  5
12
330
9
100
AcDbSymbolTableRecord
100
AcDbRegAppTableRecord
  2
ACAD
 70
     0
  0
APPID
  5
3F
330
9
100
AcDbSymbolTableRecord
100
AcDbRegAppTableRecord
  2
ODA
 70
     0
  0
ENDTAB
  0
TABLE
  2
DIMSTYLE
  5
A
330
0
100
AcDbSymbolTable
 70
     1
100
AcDbDimStyleTable
  0
DIMSTYLE
105
27
330
A
100
AcDbSymbolTableRecord
100
AcDbDimStyleTableRecord
  2
Standard
 70
     0
178
     0
340
11
  0
ENDTAB
  0
TABLE
  2
BLOCK_RECORD
  5
1
330
0
100
AcDbSymbolTable
 70
     1
  0
BLOCK_RECORD
  5
1F
330
1
100
AcDbSymbolTableRecord
100
AcDbBlockTableRecord
  2
*Model_Space
340
22
 70
     0
280
     1
281
     0
  0
BLOCK_RECORD
  5
1B
330
1
100
AcDbSymbolTableRecord
100
AcDbBlockTableRecord
  2
*Paper_Space
340
1E
 70
     0
280
     1
281
     0
  0
BLOCK_RECORD
  5
23
330
1
100
AcDbSymbolTableRecord
100
AcDbBlockTableRecord
  2
*Paper_Space0
340
26
 70
     0
280
     1
281
     0
  0
ENDTAB
  0
ENDSEC
  0
SECTION
  2
BLOCKS
  0
BLOCK
  5
20
330
1F
100
AcDbEntity
  8
0
100
AcDbBlockBegin
  2
*Model_Space
 70
     0
 10
0.0
 20
0.0
 30
0.0
  3
*Model_Space
  1

  0
ENDBLK
  5
21
330
1F
100
AcDbEntity
  8
0
100
AcDbBlockEnd
  0
BLOCK
  5
1C
330
1B
100
AcDbEntity
 67
     1
  8
0
100
AcDbBlockBegin
  2
*Paper_Space
 70
     0
 10
0.0
 20
0.0
 30
0.0
  3
*Paper_Space
  1

  0
ENDBLK
  5
1D
330
1B
100
AcDbEntity
 67
     1
  8
0
100
AcDbBlockEnd
  0
BLOCK
  5
24
330
23
100
AcDbEntity
  8
0
100
AcDbBlockBegin
  2
*Paper_Space0
 70
     0
 10
0.0
 20
0.0
 30
0.0
  3
*Paper_Space0
  1

  0
ENDBLK
  5
25
330
23
100
AcDbEntity
  8
0
100
AcDbBlockEnd
  0
ENDSEC
  0
SECTION
  2
ENTITIES
  0
SPLINE
  5
41
330
1F
100
AcDbEntity
  8
layer 1
 62
   250
100
AcDbSpline
210
0.0
220
0.0
230
1.0
 70
    11
 71
     3
 72
    20
 73
    16
 74
     0
 42
0.0000000001
 43
0.0000000001
 12
1.0
 22
0.0
 32
0.0
 13
1.0
 23
0.0
 33
0.0
 40
0.0
 40
0.0
 40
0.0
 40
0.0
 40
0.2
 40
0.2
 40
0.2
 40
0.2
 40
0.4
 40
0.4
 40
0.4
 40
0.4
 40
0.6
 40
0.6
 40
0.6
 40
0.6
 40
1.0
 40
1.0
 40
1.0
 40
1.0
 10
196.5831
 20
-115.028
 30
0.0
 10
196.5831
 20
-115.028
 30
0.0
 10
196.5831
 20
131.2763
 30
0.0
 10
196.5831
 20
131.2763
 30
0.0
 10
196.5831
 20
131.2763
 30
0.0
 10
196.5831
 20
131.2763
 30
0.0
 10
-3.2932
 20
131.2763
 30
0.0
 10
-3.2932
 20
131.2763
 30
0.0
 10
-3.2932
 20
131.2763
 30
0.0
 10
-3.2932
 20
131.2763
 30
0.0
 10
-3.2932
 20
-115.028
 30
0.0
 10
-3.2932
 20
-115.028
 30
0.0
 10
-3.2932
 20
-115.028
 30
0.0
 10
-3.2932
 20
-115.028
 30
0.0
 10
196.5831
 20
-115.028
 30
0.0
 10
196.5831
 20
-115.028
 30
0.0
  0
SPLINE
  5
42
330
1F
100
AcDbEntity
  8
layer 1
 62
     7
100
AcDbSpline
210
0.0
220
0.0
230
1.0
 70
    11
 71
     3
 72
    36
 73
    32
 74
     0
 42
0.0000000001
 43
0.0000000001
 12
1.0
 22
0.0
 32
0.0
 13
1.0
 23
0.0
 33
0.0
 40
0.0
 40
0.0
 40
0.0
 40
0.0
 40
0.1111111111111111
 40
0.1111111111111111
 40
0.1111111111111111
 40
0.1111111111111111
 40
0.2222222222222222
 40
0.2222222222222222
 40
0.2222222222222222
 40
0.2222222222222222
 40
0.3333333333333333
 40
0.3333333333333333
 40
0.3333333333333333
 40
0.3333333333333333
 40
0.4444444444444444
 40
0.4444444444444444
 40
0.4444444444444444
 40
0.4444444444444444
 40
0.5555555555555556
 40
0.5555555555555556
 40
0.5555555555555556
 40
0.5555555555555556
 40
0.6666666666666666
 40
0.6666666666666666
 40
0.6666666666666666
 40
0.6666666666666666
 40
0.7777777777777778
 40
0.7777777777777778
 40
0.7777777777777778
 40
0.7777777777777778
 40
1.0
 40
1.0
 40
1.0
 40
1.0
 10
83.4942
 20
-39.3627
 30
0.0
 10
64.0906
 20
-33.6026
 30
0.0
 10
53.3401
 20
-19.3105
 30
0.0
 10
49.1851
 20
-4.3526
 30
0.0
 10
49.1851
 20
-4.3526
 30
0.0
 10
50.1044
 20
-4.0905
 30
0.0
 10
51.5081
 20
-4.2517
 30
0.0
 10
52.3669
 20
-4.7157
 30
0.0
 10
52.3669
 20
-4.7157
 30
0.0
 10
49.9968
 20
-11.4649
 30
0.0
 10
54.9483
 20
-18.8795
 30
0.0
 10
61.2916
 20
-18.7909
 30
0.0
 10
61.2916
 20
-18.7909
 30
0.0
 10
61.4042
 20
-20.5717
 30
0.0
 10
61.5775
 20
-22.8365
 30
0.0
 10
62.4769
 20
-25.2223
 30
0.0
 10
62.4769
 20
-25.2223
 30
0.0
 10
65.1503
 20
-26.1526
 30
0.0
 10
67.0975
 20
-26.2359
 30
0.0
 10
68.9238
 20
-26.3797
 30
0.0
 10
68.9238
 20
-26.3797
 30
0.0
 10
69.3349
 20
-33.2084
 30
0.0
 10
74.9497
 20
-37.6773
 30
0.0
 10
83.348
 20
-35.7927
 30
0.0
 10
83.348
 20
-35.7927
 30
0.0
 10
83.3161
 20
-36.7204
 30
0.0
 10
83.3447
 20
-38.0718
 30
0.0
 10
83.4944
 20
-39.3626
 30
0.0
 10
83.4944
 20
-39.3626
 30
0.0
 10
83.4944
 20
-39.3626
 30
0.0
 10
83.4942
 20
-39.3627
 30
0.0
 10
83.4942
 20
-39.3627
 30
0.0
  0
SPLINE
  5
43
330
1F
100
AcDbEntity
  8
layer 1
 62
     7
100
AcDbSpline
210
0.0
220
0.0
230
1.0
 70
    11
 71
     3
 72
   116
 73
   112
 74
     0
 42
0.0000000001
 43
0.0000000001
 12
1.0
 22
0.0
 32
0.0
 13
1.0
 23
0.0
 33
0.0
 40
0.0
 40
0.0
 40
0.0
 40
0.0
 40
0.0344827586206897
 40
0.0344827586206897
 40
0.0344827586206897
 40
0.0344827586206897
 40
0.0689655172413793
 40
0.0689655172413793
 40
0.0689655172413793
 40
0.0689655172413793
 40
0.103448275862069
 40
0.103448275862069
 40
0.103448275862069
 40
0.103448275862069
 40
0.1379310344827586
 40
0.1379310344827586
 40
0.1379310344827586
 40
0.1379310344827586
 40
0.1724137931034483
 40
0.1724137931034483
 40
0.1724137931034483
 40
0.1724137931034483
 40
0.2068965517241379
 40
0.2068965517241379
 40
0.2068965517241379
 40
0.2068965517241379
 40
0.2413793103448276
 40
0.2413793103448276
 40
0.2413793103448276
 40
0.2413793103448276
 40
0.2758620689655172
 40
0.2758620689655172
 40
0.2758620689655172
 40
0.2758620689655172
 40
0.3103448275862069
 40
0.3103448275862069
 40
0.3103448275862069
 40
0.3103448275862069
 40
0.3448275862068966
 40
0.3448275862068966
 40
0.3448275862068966
 40
0.3448275862068966
 40
0.3793103448275862
 40
0.3793103448275862
 40
0.3793103448275862
 40
0.3793103448275862
 40
0.4137931034482759
 40
0.4137931034482759
 40
0.4137931034482759
 40
0.4137931034482759
 40
0.4482758620689655
 40
0.4482758620689655
 40
0.4482758620689655
 40
0.4482758620689655
 40
0.4827586206896552
 40
0.4827586206896552
 40
0.4827586206896552
 40
0.4827586206896552
 40
0.5172413793103449
 40
0.5172413793103449
 40
0.5172413793103449
 40
0.5172413793103449
 40
0.5517241379310345
 40
0.5517241379310345
 40
0.5517241379310345
 40
0.5517241379310345
 40
0.5862068965517241
 40
0.5862068965517241
 40
0.5862068965517241
 40
0.5862068965517241
 40
0.6206896551724138
 40
0.6206896551724138
 40
0.6206896551724138
 40
0.6206896551724138
 40
0.6551724137931034
 40
0.6551724137931034
 40
0.6551724137931034
 40
0.6551724137931034
 40
0.6896551724137931
 40
0.6896551724137931
 40
0.6896551724137931
 40
0.6896551724137931
 40
0.7241379310344828
 40
0.7241379310344828
 40
0.7241379310344828
 40
0.7241379310344828
 40
0.7586206896551724
 40
0.7586206896551724
 40
0.7586206896551724
 40
0.7586206896551724
 40
0.7931034482758621
 40
0.7931034482758621
 40
0.7931034482758621
 40
0.7931034482758621
 40
0.8275862068965517
 40
0.8275862068965517
 40
0.8275862068965517
 40
0.8275862068965517
 40
0.8620689655172413
 40
0.8620689655172413
 40
0.8620689655172413
 40
0.8620689655172413
 40
0.896551724137931
 40
0.896551724137931
 40
0.896551724137931
 40
0.896551724137931
 40
0.9310344827586207
 40
0.9310344827586207
 40
0.9310344827586207
 40
0.9310344827586207
 40
1.0
 40
1.0
 40
1.0
 40
1.0
 10
83.5786
 20
0.3794
 30
0.0
 10
78.0487
 20
0.2632
 30
0.0
 10
68.682
 20
0.9537
 30
0.0
 10
63.6701
 20
-0.3979
 30
0.0
 10
63.6701
 20
-0.3979
 30
0.0
 10
58.2154
 20
-1.8689
 30
0.0
 10
55.4223
 20
-8.8747
 30
0.0
 10
60.0131
 20
-10.7354
 30
0.0
 10
60.0131
 20
-10.7354
 30
0.0
 10
60.2878
 20
-8.1231
 30
0.0
 10
64.8674
 20
-3.5567
 30
0.0
 10
69.196
 20
-10.9892
 30
0.0
 10
69.196
 20
-10.9892
 30
0.0
 10
69.2272
 20
-11.0509
 30
0.0
 10
69.2609
 20
-11.111
 30
0.0
 10
69.297
 20
-11.1695
 30
0.0
 10
69.297
 20
-11.1695
 30
0.0
 10
69.7112
 20
-11.8368
 30
0.0
 10
70.4507
 20
-12.281
 30
0.0
 10
71.2939
 20
-12.281
 30
0.0
 10
71.2939
 20
-12.281
 30
0.0
 10
72.5909
 20
-12.281
 30
0.0
 10
73.6422
 20
-11.2297
 30
0.0
 10
73.6422
 20
-9.9326
 30
0.0
 10
73.6422
 20
-9.9326
 30
0.0
 10
73.6422
 20
-8.6358
 30
0.0
 10
72.5909
 20
-7.5843
 30
0.0
 10
71.2939
 20
-7.5843
 30
0.0
 10
71.2939
 20
-7.5843
 30
0.0
 10
69.9969
 20
-7.5843
 30
0.0
 10
69.1447
 20
-8.6204
 30
0.0
 10
69.1447
 20
-9.9173
 30
0.0
 10
69.1447
 20
-9.9173
 30
0.0
 10
66.7324
 20
-6.7542
 30
0.0
 10
70.555
 20
-4.4266
 30
0.0
 10
72.4796
 20
-4.9308
 30
0.0
 10
72.4796
 20
-4.9308
 30
0.0
 10
72.4998
 20
-3.5073
 30
0.0
 10
72.5805
 20
-2.7491
 30
0.0
 10
73.2057
 20
-1.628
 30
0.0
 10
73.2057
 20
-1.628
 30
0.0
 10
75.1936
 20
-2.281
 30
0.0
 10
76.395
 20
-2.5107
 30
0.0
 10
78.1409
 20
-3.8898
 30
0.0
 10
78.1409
 20
-3.8898
 30
0.0
 10
78.2105
 20
-2.1354
 30
0.0
 10
79.5991
 20
-1.1654
 30
0.0
 10
81.0613
 20
-1.2913
 30
0.0
 10
81.0613
 20
-1.2913
 30
0.0
 10
82.6159
 20
-1.4251
 30
0.0
 10
84.2775
 20
-2.7107
 30
0.0
 10
85.3492
 20
-2.5915
 30
0.0
 10
85.3492
 20
-2.5915
 30
0.0
 10
85.2303
 20
-3.6634
 30
0.0
 10
86.5157
 20
-5.3249
 30
0.0
 10
86.6495
 20
-6.8795
 30
0.0
 10
86.6495
 20
-6.8795
 30
0.0
 10
86.7755
 20
-8.3418
 30
0.0
 10
85.8055
 20
-9.7303
 30
0.0
 10
84.051
 20
-9.7999
 30
0.0
 10
84.051
 20
-9.7999
 30
0.0
 10
85.4301
 20
-11.5458
 30
0.0
 10
85.6598
 20
-12.7473
 30
0.0
 10
86.3129
 20
-14.735
 30
0.0
 10
86.3129
 20
-14.735
 30
0.0
 10
85.1917
 20
-15.3604
 30
0.0
 10
84.4336
 20
-15.4411
 30
0.0
 10
83.01
 20
-15.4612
 30
0.0
 10
83.01
 20
-15.4612
 30
0.0
 10
83.5141
 20
-17.3858
 30
0.0
 10
81.1867
 20
-21.2085
 30
0.0
 10
78.0234
 20
-18.7961
 30
0.0
 10
78.0234
 20
-18.7961
 30
0.0
 10
79.3205
 20
-18.7961
 30
0.0
 10
80.3566
 20
-17.9439
 30
0.0
 10
80.3566
 20
-16.647
 30
0.0
 10
80.3566
 20
-16.647
 30
0.0
 10
80.3566
 20
-15.3499
 30
0.0
 10
79.305
 20
-14.2986
 30
0.0
 10
78.0082
 20
-14.2986
 30
0.0
 10
78.0082
 20
-14.2986
 30
0.0
 10
76.7111
 20
-14.2986
 30
0.0
 10
75.6597
 20
-15.3499
 30
0.0
 10
75.6597
 20
-16.647
 30
0.0
 10
75.6597
 20
-16.647
 30
0.0
 10
75.6597
 20
-17.4901
 30
0.0
 10
76.1041
 20
-18.2296
 30
0.0
 10
76.7714
 20
-18.6438
 30
0.0
 10
76.7714
 20
-18.6438
 30
0.0
 10
76.8299
 20
-18.68
 30
0.0
 10
76.89
 20
-18.7137
 30
0.0
 10
76.9516
 20
-18.7448
 30
0.0
 10
76.9516
 20
-18.7448
 30
0.0
 10
84.384
 20
-23.0736
 30
0.0
 10
79.8175
 20
-27.6531
 30
0.0
 10
77.2054
 20
-27.9276
 30
0.0
 10
77.2054
 20
-27.9276
 30
0.0
 10
79.0662
 20
-32.5183
 30
0.0
 10
86.0717
 20
-29.7254
 30
0.0
 10
87.5429
 20
-24.2707
 30
0.0
 10
87.5429
 20
-24.2707
 30
0.0
 10
88.8945
 20
-19.2588
 30
0.0
 10
88.204
 20
-9.8922
 30
0.0
 10
88.3202
 20
-4.3622
 30
0.0
 10
88.3202
 20
-4.3622
 30
0.0
 10
86.2955
 20
-2.9712
 30
0.0
 10
84.7782
 20
-1.3619
 30
0.0
 10
83.5785
 20
0.3795
 30
0.0
 10
83.5785
 20
0.3795
 30
0.0
 10
83.5785
 20
0.3795
 30
0.0
 10
83.5786
 20
0.3794
 30
0.0
 10
83.5786
 20
0.3794
 30
0.0
  0
SPLINE
  5
44
330
1F
100
AcDbEntity
  8
layer 1
 62
     7
100
AcDbSpline
210
0.0
220
0.0
230
1.0
 70
    11
 71
     3
 72
    24
 73
    20
 74
     0
 42
0.0000000001
 43
0.0000000001
 12
1.0
 22
0.0
 32
0.0
 13
1.0
 23
0.0
 33
0.0
 40
0.0
 40
0.0
 40
0.0
 40
0.0
 40
0.1666666666666667
 40
0.1666666666666667
 40
0.1666666666666667
 40
0.1666666666666667
 40
0.3333333333333333
 40
0.3333333333333333
 40
0.3333333333333333
 40
0.3333333333333333
 40
0.5
 40
0.5
 40
0.5
 40
0.5
 40
0.6666666666666666
 40
0.6666666666666666
 40
0.6666666666666666
 40
0.6666666666666666
 40
1.0
 40
1.0
 40
1.0
 40
1.0
 10
34.3883
 20
-86.5367
 30
0.0
 10
39.6829
 20
-82.5809
 30
0.0
 10
35.7073
 20
-76.7278
 30
0.0
 10
31.9486
 20
-77.7597
 30
0.0
 10
31.9486
 20
-77.7597
 30
0.0
 10
33.6208
 20
-73.0973
 30
0.0
 10
40.4977
 20
-73.2059
 30
0.0
 10
44.1215
 20
-78.2477
 30
0.0
 10
44.1215
 20
-78.2477
 30
0.0
 10
47.5191
 20
-84.3177
 30
0.0
 10
46.4166
 20
-89.954
 30
0.0
 10
43.4167
 20
-94.5061
 30
0.0
 10
43.4167
 20
-94.5061
 30
0.0
 10
44.2021
 20
-89.7895
 30
0.0
 10
39.2951
 20
-85.2898
 30
0.0
 10
34.3882
 20
-86.5367
 30
0.0
 10
34.3882
 20
-86.5367
 30
0.0
 10
34.3882
 20
-86.5367
 30
0.0
 10
34.3883
 20
-86.5367
 30
0.0
 10
34.3883
 20
-86.5367
 30
0.0
  0
SPLINE
  5
45
330
1F
100
AcDbEntity
  8
layer 1
 62
     7
100
AcDbSpline
210
0.0
220
0.0
230
1.0
 70
    11
 71
     3
 72
    48
 73
    44
 74
     0
 42
0.0000000001
 43
0.0000000001
 12
1.0
 22
0.0
 32
0.0
 13
1.0
 23
0.0
 33
0.0
 40
0.0
 40
0.0
 40
0.0
 40
0.0
 40
0.0833333333333333
 40
0.0833333333333333
 40
0.0833333333333333
 40
0.0833333333333333
 40
0.1666666666666667
 40
0.1666666666666667
 40
0.1666666666666667
 40
0.1666666666666667
 40
0.25
 40
0.25
 40
0.25
 40
0.25
 40
0.3333333333333333
 40
0.3333333333333333
 40
0.3333333333333333
 40
0.3333333333333333
 40
0.4166666666666667
 40
0.4166666666666667
 40
0.4166666666666667
 40
0.4166666666666667
 40
0.5
 40
0.5
 40
0.5
 40
0.5
 40
0.5833333333333334
 40
0.5833333333333334
 40
0.5833333333333334
 40
0.5833333333333334
 40
0.6666666666666666
 40
0.6666666666666666
 40
0.6666666666666666
 40
0.6666666666666666
 40
0.75
 40
0.75
 40
0.75
 40
0.75
 40
0.8333333333333334
 40
0.8333333333333334
 40
0.8333333333333334
 40
0.8333333333333334
 40
1.0
 40
1.0
 40
1.0
 40
1.0
 10
15.5904
 20
-37.3825
 30
0.0
 10
15.5904
 20
-34.4546
 30
0.0
 10
17.9638
 20
-32.0809
 30
0.0
 10
20.8919
 20
-32.0809
 30
0.0
 10
20.8919
 20
-32.0809
 30
0.0
 10
24.9713
 20
-32.3143
 30
0.0
 10
26.4039
 20
-34.5852
 30
0.0
 10
28.095
 20
-37.5988
 30
0.0
 10
28.095
 20
-37.5988
 30
0.0
 10
26.91
 20
-38.5809
 30
0.0
 10
25.4045
 20
-39.9677
 30
0.0
 10
24.2503
 20
-41.9149
 30
0.0
 10
24.2503
 20
-41.9149
 30
0.0
 10
26.6284
 20
-45.7306
 30
0.0
 10
25.422
 20
-50.6056
 30
0.0
 10
21.8254
 20
-55.5618
 30
0.0
 10
21.8254
 20
-55.5618
 30
0.0
 10
16.9955
 20
-55.3071
 30
0.0
 10
13.9968
 20
-57.6708
 30
0.0
 10
10.1896
 20
-60.3766
 30
0.0
 10
10.1896
 20
-60.3766
 30
0.0
 10
12.6073
 20
-57.8047
 30
0.0
 10
14.7005
 20
-54.8002
 30
0.0
 10
13.9596
 20
-51.1976
 30
0.0
 10
13.9596
 20
-51.1976
 30
0.0
 10
15.289
 20
-50.9267
 30
0.0
 10
16.3146
 20
-50.4445
 30
0.0
 10
17.2981
 20
-49.8512
 30
0.0
 10
17.2981
 20
-49.8512
 30
0.0
 10
17.2865
 20
-48.7224
 30
0.0
 10
16.8611
 20
-47.7636
 30
0.0
 10
16.5927
 20
-46.8687
 30
0.0
 10
16.5927
 20
-46.8687
 30
0.0
 10
20.4854
 20
-46.156
 30
0.0
 10
21.6036
 20
-44.2312
 30
0.0
 10
21.0891
 20
-42.73
 30
0.0
 10
21.0891
 20
-42.73
 30
0.0
 10
17.9638
 20
-42.684
 30
0.0
 10
15.5904
 20
-40.3105
 30
0.0
 10
15.5904
 20
-37.3826
 30
0.0
 10
15.5904
 20
-37.3826
 30
0.0
 10
15.5904
 20
-37.3826
 30
0.0
 10
15.5904
 20
-37.3825
 30
0.0
 10
15.5904
 20
-37.3825
 30
0.0
  0
SPLINE
  5
46
330
1F
100
AcDbEntity
  8
layer 1
 62
     7
100
AcDbSpline
210
0.0
220
0.0
230
1.0
 70
    11
 71
     3
 72
    48
 73
    44
 74
     0
 42
0.0000000001
 43
0.0000000001
 12
1.0
 22
0.0
 32
0.0
 13
1.0
 23
0.0
 33
0.0
 40
0.0
 40
0.0
 40
0.0
 40
0.0
 40
0.0833333333333333
 40
0.0833333333333333
 40
0.0833333333333333
 40
0.0833333333333333
 40
0.1666666666666667
 40
0.1666666666666667
 40
0.1666666666666667
 40
0.1666666666666667
 40
0.25
 40
0.25
 40
0.25
 40
0.25
 40
0.3333333333333333
 40
0.3333333333333333
 40
0.3333333333333333
 40
0.3333333333333333
 40
0.4166666666666667
 40
0.4166666666666667
 40
0.4166666666666667
 40
0.4166666666666667
 40
0.5
 40
0.5
 40
0.5
 40
0.5
 40
0.5833333333333334
 40
0.5833333333333334
 40
0.5833333333333334
 40
0.5833333333333334
 40
0.6666666666666666
 40
0.6666666666666666
 40
0.6666666666666666
 40
0.6666666666666666
 40
0.75
 40
0.75
 40
0.75
 40
0.75
 40
0.8333333333333334
 40
0.8333333333333334
 40
0.8333333333333334
 40
0.8333333333333334
 40
1.0
 40
1.0
 40
1.0
 40
1.0
 10
27.5506
 20
-95.5478
 30
0.0
 10
28.8446
 20
-97.3857
 30
0.0
 10
29.9678
 20
-98.9791
 30
0.0
 10
30.3297
 20
-99.8924
 30
0.0
 10
30.3297
 20
-99.8924
 30
0.0
 10
36.7577
 20
-96.9191
 30
0.0
 10
36.9726
 20
-90.7339
 30
0.0
 10
32.9226
 20
-87.068
 30
0.0
 10
32.9226
 20
-87.068
 30
0.0
 10
24.6048
 20
-90.0001
 30
0.0
 10
17.5758
 20
-79.7411
 30
0.0
 10
24.7721
 20
-69.7042
 30
0.0
 10
24.7721
 20
-69.7042
 30
0.0
 10
20.9744
 20
-71.586
 30
0.0
 10
17.9848
 20
-67.3199
 30
0.0
 10
19.5638
 20
-64.2775
 30
0.0
 10
19.5638
 20
-64.2775
 30
0.0
 10
15.1255
 20
-63.7492
 30
0.0
 10
11.0097
 20
-67.482
 30
0.0
 10
8.7979
 20
-72.5536
 30
0.0
 10
8.7979
 20
-72.5536
 30
0.0
 10
10.9961
 20
-70.8154
 30
0.0
 10
12.2649
 20
-69.8231
 30
0.0
 10
13.6553
 20
-68.946
 30
0.0
 10
13.6553
 20
-68.946
 30
0.0
 10
14.6366
 20
-69.9562
 30
0.0
 10
16.8367
 20
-73.0046
 30
0.0
 10
17.907
 20
-75.642
 30
0.0
 10
17.907
 20
-75.642
 30
0.0
 10
16.0252
 20
-76.4229
 30
0.0
 10
13.1645
 20
-78.9909
 30
0.0
 10
12.3306
 20
-80.799
 30
0.0
 10
12.3306
 20
-80.799
 30
0.0
 10
13.3092
 20
-81.4248
 30
0.0
 10
14.1199
 20
-81.9192
 30
0.0
 10
14.7596
 20
-82.9396
 30
0.0
 10
14.7596
 20
-82.9396
 30
0.0
 10
9.8308
 20
-90.5072
 30
0.0
 10
17.678
 20
-102.2317
 30
0.0
 10
27.5507
 20
-95.5478
 30
0.0
 10
27.5507
 20
-95.5478
 30
0.0
 10
27.5507
 20
-95.5478
 30
0.0
 10
27.5506
 20
-95.5478
 30
0.0
 10
27.5506
 20
-95.5478
 30
0.0
  0
SPLINE
  5
47
330
1F
100
AcDbEntity
  8
layer 1
 62
     7
100
AcDbSpline
210
0.0
220
0.0
230
1.0
 70
    11
 71
     3
 72
    44
 73
    40
 74
     0
 42
0.0000000001
 43
0.0000000001
 12
1.0
 22
0.0
 32
0.0
 13
1.0
 23
0.0
 33
0.0
 40
0.0
 40
0.0
 40
0.0
 40
0.0
 40
0.0909090909090909
 40
0.0909090909090909
 40
0.0909090909090909
 40
0.0909090909090909
 40
0.1818181818181818
 40
0.1818181818181818
 40
0.1818181818181818
 40
0.1818181818181818
 40
0.2727272727272727
 40
0.2727272727272727
 40
0.2727272727272727
 40
0.2727272727272727
 40
0.3636363636363636
 40
0.3636363636363636
 40
0.3636363636363636
 40
0.3636363636363636
 40
0.4545454545454545
 40
0.4545454545454545
 40
0.4545454545454545
 40
0.4545454545454545
 40
0.5454545454545454
 40
0.5454545454545454
 40
0.5454545454545454
 40
0.5454545454545454
 40
0.6363636363636364
 40
0.6363636363636364
 40
0.6363636363636364
 40
0.6363636363636364
 40
0.7272727272727273
 40
0.7272727272727273
 40
0.7272727272727273
 40
0.7272727272727273
 40
0.8181818181818182
 40
0.8181818181818182
 40
0.8181818181818182
 40
0.8181818181818182
 40
1.0
 40
1.0
 40
1.0
 40
1.0
 10
22.8903
 20
-4.4184
 30
0.0
 10
23.6888
 20
-3.8858
 30
0.0
 10
24.4655
 20
-2.4818
 30
0.0
 10
24.6558
 20
-1.4551
 30
0.0
 10
24.6558
 20
-1.4551
 30
0.0
 10
25.7126
 20
-2.2587
 30
0.0
 10
26.9742
 20
-4.8718
 30
0.0
 10
25.8137
 20
-6.6306
 30
0.0
 10
25.8137
 20
-6.6306
 30
0.0
 10
21.0925
 20
-1.9668
 30
0.0
 10
14.2834
 20
-13.277
 30
0.0
 10
23.1665
 20
-14.996
 30
0.0
 10
23.1665
 20
-14.996
 30
0.0
 10
22.9214
 20
-15.789
 30
0.0
 10
22.4563
 20
-17.1851
 30
0.0
 10
22.2815
 20
-18.2062
 30
0.0
 10
22.2815
 20
-18.2062
 30
0.0
 10
23.0408
 20
-18.6931
 30
0.0
 10
24.5151
 20
-19.3403
 30
0.0
 10
25.8733
 20
-19.8846
 30
0.0
 10
25.8733
 20
-19.8846
 30
0.0
 10
25.912
 20
-21.3292
 30
0.0
 10
26.1639
 20
-24.2885
 30
0.0
 10
29.13
 20
-27.7577
 30
0.0
 10
29.13
 20
-27.7577
 30
0.0
 10
26.6954
 20
-25.2056
 30
0.0
 10
23.1013
 20
-23.8678
 30
0.0
 10
18.9519
 20
-24.187
 30
0.0
 10
18.9519
 20
-24.187
 30
0.0
 10
16.0563
 20
-21.6493
 30
0.0
 10
13.3527
 20
-17.3471
 30
0.0
 10
12.9906
 20
-12.7316
 30
0.0
 10
12.9906
 20
-12.7316
 30
0.0
 10
12.888
 20
-8.8074
 30
0.0
 10
16.4625
 20
-1.3668
 30
0.0
 10
22.8902
 20
-4.4184
 30
0.0
 10
22.8902
 20
-4.4184
 30
0.0
 10
22.8902
 20
-4.4184
 30
0.0
 10
22.8903
 20
-4.4184
 30
0.0
 10
22.8903
 20
-4.4184
 30
0.0
  0
SPLINE
  5
48
330
1F
100
AcDbEntity
  8
layer 1
 62
     7
100
AcDbSpline
210
0.0
220
0.0
230
1.0
 70
    11
 71
     3
 72
   128
 73
   124
 74
     0
 42
0.0000000001
 43
0.0000000001
 12
1.0
 22
0.0
 32
0.0
 13
1.0
 23
0.0
 33
0.0
 40
0.0
 40
0.0
 40
0.0
 40
0.0
 40
0.03125
 40
0.03125
 40
0.03125
 40
0.03125
 40
0.0625
 40
0.0625
 40
0.0625
 40
0.0625
 40
0.09375
 40
0.09375
 40
0.09375
 40
0.09375
 40
0.125
 40
0.125
 40
0.125
 40
0.125
 40
0.15625
 40
0.15625
 40
0.15625
 40
0.15625
 40
0.1875
 40
0.1875
 40
0.1875
 40
0.1875
 40
0.21875
 40
0.21875
 40
0.21875
 40
0.21875
 40
0.25
 40
0.25
 40
0.25
 40
0.25
 40
0.28125
 40
0.28125
 40
0.28125
 40
0.28125
 40
0.3125
 40
0.3125
 40
0.3125
 40
0.3125
 40
0.34375
 40
0.34375
 40
0.34375
 40
0.34375
 40
0.375
 40
0.375
 40
0.375
 40
0.375
 40
0.40625
 40
0.40625
 40
0.40625
 40
0.40625
 40
0.4375
 40
0.4375
 40
0.4375
 40
0.4375
 40
0.46875
 40
0.46875
 40
0.46875
 40
0.46875
 40
0.5
 40
0.5
 40
0.5
 40
0.5
 40
0.53125
 40
0.53125
 40
0.53125
 40
0.53125
 40
0.5625
 40
0.5625
 40
0.5625
 40
0.5625
 40
0.59375
 40
0.59375
 40
0.59375
 40
0.59375
 40
0.625
 40
0.625
 40
0.625
 40
0.625
 40
0.65625
 40
0.65625
 40
0.65625
 40
0.65625
 40
0.6875
 40
0.6875
 40
0.6875
 40
0.6875
 40
0.71875
 40
0.71875
 40
0.71875
 40
0.71875
 40
0.75
 40
0.75
 40
0.75
 40
0.75
 40
0.78125
 40
0.78125
 40
0.78125
 40
0.78125
 40
0.8125
 40
0.8125
 40
0.8125
 40
0.8125
 40
0.84375
 40
0.84375
 40
0.84375
 40
0.84375
 40
0.875
 40
0.875
 40
0.875
 40
0.875
 40
0.90625
 40
0.90625
 40
0.90625
 40
0.90625
 40
0.9375
 40
0.9375
 40
0.9375
 40
0.9375
 40
1.0
 40
1.0
 40
1.0
 40
1.0
 10
50.6343
 20
-19.1846
 30
0.0
 10
49.191
 20
-17.7589
 30
0.0
 10
44.8178
 20
-15.3653
 30
0.0
 10
42.0069
 20
-16.6121
 30
0.0
 10
42.0069
 20
-16.6121
 30
0.0
 10
41.889
 20
-17.864
 30
0.0
 10
41.6977
 20
-18.6077
 30
0.0
 10
40.9305
 20
-19.7753
 30
0.0
 10
40.9305
 20
-19.7753
 30
0.0
 10
40.9305
 20
-19.7753
 30
0.0
 10
41.7344
 20
-20.4193
 30
0.0
 10
41.4461
 20
-21.4629
 30
0.0
 10
41.4461
 20
-21.4629
 30
0.0
 10
40.7974
 20
-21.4511
 30
0.0
 10
39.7862
 20
-21.6291
 30
0.0
 10
39.7118
 20
-22.0949
 30
0.0
 10
39.7118
 20
-22.0949
 30
0.0
 10
39.4982
 20
-23.4328
 30
0.0
 10
40.4644
 20
-25.3914
 30
0.0
 10
41.1605
 20
-26.5703
 30
0.0
 10
41.1605
 20
-26.5703
 30
0.0
 10
40.5185
 20
-27.4204
 30
0.0
 10
39.7637
 20
-28.239
 30
0.0
 10
39.5149
 20
-29.0089
 30
0.0
 10
39.5149
 20
-29.0089
 30
0.0
 10
48.4152
 20
-30.6996
 30
0.0
 10
43.125
 20
-42.8683
 30
0.0
 10
39.696
 20
-45.5727
 30
0.0
 10
39.696
 20
-45.5727
 30
0.0
 10
39.7259
 20
-43.8712
 30
0.0
 10
39.7974
 20
-43.228
 30
0.0
 10
39.4722
 20
-41.2475
 30
0.0
 10
39.4722
 20
-41.2475
 30
0.0
 10
37.8278
 20
-40.2794
 30
0.0
 10
36.9574
 20
-39.8161
 30
0.0
 10
35.0984
 20
-39.358
 30
0.0
 10
35.0984
 20
-39.358
 30
0.0
 10
35.1886
 20
-36.1885
 30
0.0
 10
32.2119
 20
-30.9235
 30
0.0
 10
30.2507
 20
-28.7178
 30
0.0
 10
30.2507
 20
-28.7178
 30
0.0
 10
31.3946
 20
-29.6025
 30
0.0
 10
32.5625
 20
-30.0694
 30
0.0
 10
34.0519
 20
-30.0547
 30
0.0
 10
34.0519
 20
-30.0547
 30
0.0
 10
32.68
 20
-25.3138
 30
0.0
 10
41.2435
 20
-13.2471
 30
0.0
 10
34.6215
 20
-3.1731
 30
0.0
 10
34.6215
 20
-3.1731
 30
0.0
 10
33.7488
 20
-0.3771
 30
0.0
 10
33.2146
 20
1.1263
 30
0.0
 10
31.8885
 20
2.3846
 30
0.0
 10
31.8885
 20
2.3846
 30
0.0
 10
32.6869
 20
2.9174
 30
0.0
 10
37.8961
 20
7.0976
 30
0.0
 10
38.0866
 20
8.124
 30
0.0
 10
38.0866
 20
8.124
 30
0.0
 10
37.8962
 20
9.1506
 30
0.0
 10
32.6869
 20
13.3308
 30
0.0
 10
31.8885
 20
13.8635
 30
0.0
 10
31.8885
 20
13.8635
 30
0.0
 10
33.2146
 20
15.1219
 30
0.0
 10
33.7488
 20
16.625
 30
0.0
 10
34.6215
 20
19.4211
 30
0.0
 10
34.6215
 20
19.4211
 30
0.0
 10
41.2435
 20
29.4952
 30
0.0
 10
32.6801
 20
41.562
 30
0.0
 10
34.0519
 20
46.3029
 30
0.0
 10
34.0519
 20
46.3029
 30
0.0
 10
32.5625
 20
46.3175
 30
0.0
 10
31.3946
 20
45.8506
 30
0.0
 10
30.2507
 20
44.9659
 30
0.0
 10
30.2507
 20
44.9659
 30
0.0
 10
32.2118
 20
47.1715
 30
0.0
 10
35.1886
 20
52.4366
 30
0.0
 10
35.0984
 20
55.6061
 30
0.0
 10
35.0984
 20
55.6061
 30
0.0
 10
36.9574
 20
56.0642
 30
0.0
 10
37.8279
 20
56.5276
 30
0.0
 10
39.4722
 20
57.4955
 30
0.0
 10
39.4722
 20
57.4955
 30
0.0
 10
39.7974
 20
59.4762
 30
0.0
 10
39.7258
 20
60.1193
 30
0.0
 10
39.696
 20
61.8207
 30
0.0
 10
39.696
 20
61.8207
 30
0.0
 10
43.125
 20
59.1164
 30
0.0
 10
48.4153
 20
46.9477
 30
0.0
 10
39.5149
 20
45.257
 30
0.0
 10
39.5149
 20
45.257
 30
0.0
 10
39.7637
 20
44.4871
 30
0.0
 10
40.5185
 20
43.6686
 30
0.0
 10
41.1605
 20
42.8185
 30
0.0
 10
41.1605
 20
42.8185
 30
0.0
 10
40.4644
 20
41.6396
 30
0.0
 10
39.4982
 20
39.6811
 30
0.0
 10
39.7118
 20
38.3429
 30
0.0
 10
39.7118
 20
38.3429
 30
0.0
 10
39.7862
 20
37.8772
 30
0.0
 10
40.7974
 20
37.6992
 30
0.0
 10
41.4461
 20
37.711
 30
0.0
 10
41.4461
 20
37.711
 30
0.0
 10
41.7344
 20
36.6673
 30
0.0
 10
40.9305
 20
36.0234
 30
0.0
 10
40.9305
 20
36.0234
 30
0.0
 10
40.9305
 20
36.0234
 30
0.0
 10
41.6977
 20
34.8557
 30
0.0
 10
41.889
 20
34.1122
 30
0.0
 10
42.0069
 20
32.8602
 30
0.0
 10
42.0069
 20
32.8602
 30
0.0
 10
44.8178
 20
31.6135
 30
0.0
 10
49.191
 20
34.007
 30
0.0
 10
50.6343
 20
35.4327
 30
0.0
 10
50.6343
 20
35.4327
 30
0.0
 10
47.4745
 20
29.6341
 30
0.0
 10
43.015
 20
20.3175
 30
0.0
 10
43.2486
 20
8.1239
 30
0.0
 10
43.2486
 20
8.1239
 30
0.0
 10
43.015
 20
-4.0695
 30
0.0
 10
47.4745
 20
-13.3862
 30
0.0
 10
50.6343
 20
-19.1849
 30
0.0
 10
50.6343
 20
-19.1849
 30
0.0
 10
50.6343
 20
-19.1849
 30
0.0
 10
50.6343
 20
-19.1846
 30
0.0
 10
50.6343
 20
-19.1846
 30
0.0
  0
SPLINE
  5
49
330
1F
100
AcDbEntity
  8
layer 1
 62
     7
100
AcDbSpline
210
0.0
220
0.0
230
1.0
 70
    11
 71
     3
 72
    16
 73
    12
 74
     0
 42
0.0000000001
 43
0.0000000001
 12
1.0
 22
0.0
 32
0.0
 13
1.0
 23
0.0
 33
0.0
 40
0.0
 40
0.0
 40
0.0
 40
0.0
 40
0.25
 40
0.25
 40
0.25
 40
0.25
 40
0.5
 40
0.5
 40
0.5
 40
0.5
 40
1.0
 40
1.0
 40
1.0
 40
1.0
 10
46.3827
 20
-37.5269
 30
0.0
 10
48.2277
 20
-34.4473
 30
0.0
 10
46.7436
 20
-29.3608
 30
0.0
 10
44.0525
 20
-27.3536
 30
0.0
 10
44.0525
 20
-27.3536
 30
0.0
 10
43.8906
 20
-25.2923
 30
0.0
 10
45.0451
 20
-23.6759
 30
0.0
 10
47.6561
 20
-22.8586
 30
0.0
 10
47.6561
 20
-22.8586
 30
0.0
 10
49.6765
 20
-26.2496
 30
0.0
 10
50.8587
 20
-32.8919
 30
0.0
 10
46.3827
 20
-37.5269
 30
0.0
  0
SPLINE
  5
4A
330
1F
100
AcDbEntity
  8
layer 1
 62
     7
100
AcDbSpline
210
0.0
220
0.0
230
1.0
 70
    11
 71
     3
 72
    32
 73
    28
 74
     0
 42
0.0000000001
 43
0.0000000001
 12
1.0
 22
0.0
 32
0.0
 13
1.0
 23
0.0
 33
0.0
 40
0.0
 40
0.0
 40
0.0
 40
0.0
 40
0.125
 40
0.125
 40
0.125
 40
0.125
 40
0.25
 40
0.25
 40
0.25
 40
0.25
 40
0.375
 40
0.375
 40
0.375
 40
0.375
 40
0.5
 40
0.5
 40
0.5
 40
0.5
 40
0.625
 40
0.625
 40
0.625
 40
0.625
 40
0.75
 40
0.75
 40
0.75
 40
0.75
 40
1.0
 40
1.0
 40
1.0
 40
1.0
 10
27.3325
 20
-67.7283
 30
0.0
 10
30.1844
 20
-64.8036
 30
0.0
 10
28.5455
 20
-60.3364
 30
0.0
 10
26.2416
 20
-58.5617
 30
0.0
 10
26.2416
 20
-58.5617
 30
0.0
 10
30.5711
 20
-57.1973
 30
0.0
 10
34.2036
 20
-54.5742
 30
0.0
 10
37.5116
 20
-50.0397
 30
0.0
 10
37.5116
 20
-50.0397
 30
0.0
 10
36.6445
 20
-54.0271
 30
0.0
 10
36.3958
 20
-58.4214
 30
0.0
 10
38.3857
 20
-60.8381
 30
0.0
 10
38.3857
 20
-60.8381
 30
0.0
 10
34.831
 20
-60.6622
 30
0.0
 10
32.5214
 20
-61.411
 30
0.0
 10
32.2403
 20
-61.9166
 30
0.0
 10
32.2403
 20
-61.9166
 30
0.0
 10
31.9933
 20
-62.7017
 30
0.0
 10
32.405
 20
-64.0513
 30
0.0
 10
32.8671
 20
-64.9187
 30
0.0
 10
32.8671
 20
-64.9187
 30
0.0
 10
31.1003
 20
-65.0991
 30
0.0
 10
29.3259
 20
-65.7944
 30
0.0
 10
27.3326
 20
-67.7283
 30
0.0
 10
27.3326
 20
-67.7283
 30
0.0
 10
27.3326
 20
-67.7283
 30
0.0
 10
27.3325
 20
-67.7283
 30
0.0
 10
27.3325
 20
-67.7283
 30
0.0
  0
SPLINE
  5
4B
330
1F
100
AcDbEntity
  8
layer 1
 62
     7
100
AcDbSpline
210
0.0
220
0.0
230
1.0
 70
    11
 71
     3
 72
    20
 73
    16
 74
     0
 42
0.0000000001
 43
0.0000000001
 12
1.0
 22
0.0
 32
0.0
 13
1.0
 23
0.0
 33
0.0
 40
0.0
 40
0.0
 40
0.0
 40
0.0
 40
0.2
 40
0.2
 40
0.2
 40
0.2
 40
0.4
 40
0.4
 40
0.4
 40
0.4
 40
0.6
 40
0.6
 40
0.6
 40
0.6
 40
1.0
 40
1.0
 40
1.0
 40
1.0
 10
73.1767
 20
-40.6149
 30
0.0
 10
75.4942
 20
-43.5011
 30
0.0
 10
76.1367
 20
-49.6616
 30
0.0
 10
73.4457
 20
-51.6689
 30
0.0
 10
73.4457
 20
-51.6689
 30
0.0
 10
73.6489
 20
-53.0857
 30
0.0
 10
74.782
 20
-55.0245
 30
0.0
 10
76.233
 20
-55.9062
 30
0.0
 10
76.233
 20
-55.9062
 30
0.0
 10
80.0363
 20
-53.0952
 30
0.0
 10
79.7363
 20
-44.6914
 30
0.0
 10
73.1767
 20
-40.615
 30
0.0
 10
73.1767
 20
-40.615
 30
0.0
 10
73.1767
 20
-40.615
 30
0.0
 10
73.1767
 20
-40.6149
 30
0.0
 10
73.1767
 20
-40.6149
 30
0.0
  0
SPLINE
  5
4C
330
1F
100
AcDbEntity
  8
layer 1
 62
     7
100
AcDbSpline
210
0.0
220
0.0
230
1.0
 70
    11
 71
     3
 72
    88
 73
    84
 74
     0
 42
0.0000000001
 43
0.0000000001
 12
1.0
 22
0.0
 32
0.0
 13
1.0
 23
0.0
 33
0.0
 40
0.0
 40
0.0
 40
0.0
 40
0.0
 40
0.0454545454545455
 40
0.0454545454545455
 40
0.0454545454545455
 40
0.0454545454545455
 40
0.0909090909090909
 40
0.0909090909090909
 40
0.0909090909090909
 40
0.0909090909090909
 40
0.1363636363636364
 40
0.1363636363636364
 40
0.1363636363636364
 40
0.1363636363636364
 40
0.1818181818181818
 40
0.1818181818181818
 40
0.1818181818181818
 40
0.1818181818181818
 40
0.2272727272727273
 40
0.2272727272727273
 40
0.2272727272727273
 40
0.2272727272727273
 40
0.2727272727272727
 40
0.2727272727272727
 40
0.2727272727272727
 40
0.2727272727272727
 40
0.3181818181818182
 40
0.3181818181818182
 40
0.3181818181818182
 40
0.3181818181818182
 40
0.3636363636363636
 40
0.3636363636363636
 40
0.3636363636363636
 40
0.3636363636363636
 40
0.4090909090909091
 40
0.4090909090909091
 40
0.4090909090909091
 40
0.4090909090909091
 40
0.4545454545454545
 40
0.4545454545454545
 40
0.4545454545454545
 40
0.4545454545454545
 40
0.5
 40
0.5
 40
0.5
 40
0.5
 40
0.5454545454545454
 40
0.5454545454545454
 40
0.5454545454545454
 40
0.5454545454545454
 40
0.5909090909090909
 40
0.5909090909090909
 40
0.5909090909090909
 40
0.5909090909090909
 40
0.6363636363636364
 40
0.6363636363636364
 40
0.6363636363636364
 40
0.6363636363636364
 40
0.6818181818181818
 40
0.6818181818181818
 40
0.6818181818181818
 40
0.6818181818181818
 40
0.7272727272727273
 40
0.7272727272727273
 40
0.7272727272727273
 40
0.7272727272727273
 40
0.7727272727272727
 40
0.7727272727272727
 40
0.7727272727272727
 40
0.7727272727272727
 40
0.8181818181818182
 40
0.8181818181818182
 40
0.8181818181818182
 40
0.8181818181818182
 40
0.8636363636363636
 40
0.8636363636363636
 40
0.8636363636363636
 40
0.8636363636363636
 40
0.9090909090909091
 40
0.9090909090909091
 40
0.9090909090909091
 40
0.9090909090909091
 40
1.0
 40
1.0
 40
1.0
 40
1.0
 10
68.0769
 20
-51.5781
 30
0.0
 10
68.3681
 20
-52.2132
 30
0.0
 10
68.9196
 20
-52.7315
 30
0.0
 10
70.19
 20
-52.958
 30
0.0
 10
70.19
 20
-52.958
 30
0.0
 10
69.5619
 20
-54.5774
 30
0.0
 10
69.9174
 20
-56.4218
 30
0.0
 10
70.8846
 20
-57.2222
 30
0.0
 10
70.8846
 20
-57.2222
 30
0.0
 10
70.8846
 20
-57.2222
 30
0.0
 10
72.276
 20
-57.1302
 30
0.0
 10
73.3754
 20
-56.7863
 30
0.0
 10
73.3754
 20
-56.7863
 30
0.0
 10
73.788
 20
-58.9784
 30
0.0
 10
75.9206
 20
-60.1071
 30
0.0
 10
76.3766
 20
-60.3075
 30
0.0
 10
76.3766
 20
-60.3075
 30
0.0
 10
80.8156
 20
-59.2784
 30
0.0
 10
81.4318
 20
-55.5936
 30
0.0
 10
81.3729
 20
-54.3237
 30
0.0
 10
81.3729
 20
-54.3237
 30
0.0
 10
81.7715
 20
-54.5004
 30
0.0
 10
82.2972
 20
-54.4974
 30
0.0
 10
82.681
 20
-54.2468
 30
0.0
 10
82.681
 20
-54.2468
 30
0.0
 10
83.6982
 20
-49.9985
 30
0.0
 10
80.6788
 20
-44.8669
 30
0.0
 10
78.0179
 20
-42.4793
 30
0.0
 10
78.0179
 20
-42.4793
 30
0.0
 10
79.8436
 20
-42.7164
 30
0.0
 10
86.7645
 20
-49.0291
 30
0.0
 10
87.9292
 20
-51.3744
 30
0.0
 10
87.9292
 20
-51.3744
 30
0.0
 10
86.7948
 20
-51.8351
 30
0.0
 10
86.7301
 20
-52.9282
 30
0.0
 10
87.3402
 20
-53.4494
 30
0.0
 10
87.3402
 20
-53.4494
 30
0.0
 10
94.5316
 20
-62.5847
 30
0.0
 10
84.2663
 20
-78.7203
 30
0.0
 10
74.9182
 20
-72.7192
 30
0.0
 10
74.9182
 20
-72.7192
 30
0.0
 10
72.1851
 20
-74.0529
 30
0.0
 10
72.2959
 20
-76.2104
 30
0.0
 10
72.0304
 20
-77.8284
 30
0.0
 10
72.0304
 20
-77.8284
 30
0.0
 10
69.2301
 20
-76.7606
 30
0.0
 10
65.3716
 20
-70.6381
 30
0.0
 10
69.8503
 20
-67.7877
 30
0.0
 10
69.8503
 20
-67.7877
 30
0.0
 10
74.2762
 20
-72.0082
 30
0.0
 10
81.3703
 20
-66.0246
 30
0.0
 10
74.6546
 20
-59.6119
 30
0.0
 10
74.6546
 20
-59.6119
 30
0.0
 10
72.9448
 20
-58.0653
 30
0.0
 10
68.2251
 20
-56.9299
 30
0.0
 10
63.5528
 20
-60.0887
 30
0.0
 10
63.5528
 20
-60.0887
 30
0.0
 10
70.19
 20
-52.9578
 30
0.0
 10
66.6789
 20
-43.4522
 30
0.0
 10
60.9092
 20
-40.6227
 30
0.0
 10
60.9092
 20
-40.6227
 30
0.0
 10
61.5128
 20
-39.8874
 30
0.0
 10
62.1868
 20
-37.9707
 30
0.0
 10
62.2474
 20
-36.076
 30
0.0
 10
62.2474
 20
-36.076
 30
0.0
 10
60.6182
 20
-35.1189
 30
0.0
 10
55.4438
 20
-33.8493
 30
0.0
 10
51.283
 20
-35.3588
 30
0.0
 10
51.283
 20
-35.3588
 30
0.0
 10
53.7308
 20
-32.2731
 30
0.0
 10
55.372
 20
-26.627
 30
0.0
 10
51.9089
 20
-21.4161
 30
0.0
 10
51.9089
 20
-21.4161
 30
0.0
 10
57.9488
 20
-30.6787
 30
0.0
 10
64.0235
 20
-34.1458
 30
0.0
 10
66.7918
 20
-36.5561
 30
0.0
 10
66.7918
 20
-36.5561
 30
0.0
 10
70.6825
 20
-38.9544
 30
0.0
 10
73.9391
 20
-47.4118
 30
0.0
 10
68.0769
 20
-51.578
 30
0.0
 10
68.0769
 20
-51.578
 30
0.0
 10
68.0769
 20
-51.578
 30
0.0
 10
68.0769
 20
-51.5781
 30
0.0
 10
68.0769
 20
-51.5781
 30
0.0
  0
SPLINE
  5
4D
330
1F
100
AcDbEntity
  8
layer 1
 62
     7
100
AcDbSpline
210
0.0
220
0.0
230
1.0
 70
    11
 71
     3
 72
    36
 73
    32
 74
     0
 42
0.0000000001
 43
0.0000000001
 12
1.0
 22
0.0
 32
0.0
 13
1.0
 23
0.0
 33
0.0
 40
0.0
 40
0.0
 40
0.0
 40
0.0
 40
0.1111111111111111
 40
0.1111111111111111
 40
0.1111111111111111
 40
0.1111111111111111
 40
0.2222222222222222
 40
0.2222222222222222
 40
0.2222222222222222
 40
0.2222222222222222
 40
0.3333333333333333
 40
0.3333333333333333
 40
0.3333333333333333
 40
0.3333333333333333
 40
0.4444444444444444
 40
0.4444444444444444
 40
0.4444444444444444
 40
0.4444444444444444
 40
0.5555555555555556
 40
0.5555555555555556
 40
0.5555555555555556
 40
0.5555555555555556
 40
0.6666666666666666
 40
0.6666666666666666
 40
0.6666666666666666
 40
0.6666666666666666
 40
0.7777777777777778
 40
0.7777777777777778
 40
0.7777777777777778
 40
0.7777777777777778
 40
1.0
 40
1.0
 40
1.0
 40
1.0
 10
93.9575
 20
-45.5659
 30
0.0
 10
93.8932
 20
-46.1366
 30
0.0
 10
94.0848
 20
-47.0807
 30
0.0
 10
94.3545
 20
-47.7109
 30
0.0
 10
94.3545
 20
-47.7109
 30
0.0
 10
93.4553
 20
-48.477
 30
0.0
 10
92.7894
 20
-48.8438
 30
0.0
 10
91.7621
 20
-49.2801
 30
0.0
 10
91.7621
 20
-49.2801
 30
0.0
 10
93.9656
 20
-52.4675
 30
0.0
 10
95.7971
 20
-56.4334
 30
0.0
 10
96.6449
 20
-60.6954
 30
0.0
 10
96.6449
 20
-60.6954
 30
0.0
 10
97.493
 20
-56.4334
 30
0.0
 10
99.3245
 20
-52.4675
 30
0.0
 10
101.5279
 20
-49.2801
 30
0.0
 10
101.5279
 20
-49.2801
 30
0.0
 10
100.5005
 20
-48.8438
 30
0.0
 10
99.8345
 20
-48.477
 30
0.0
 10
98.9354
 20
-47.7109
 30
0.0
 10
98.9354
 20
-47.7109
 30
0.0
 10
99.2052
 20
-47.0808
 30
0.0
 10
99.3968
 20
-46.1367
 30
0.0
 10
99.3326
 20
-45.5659
 30
0.0
 10
99.3326
 20
-45.5659
 30
0.0
 10
97.3764
 20
-45.6144
 30
0.0
 10
95.7583
 20
-45.6806
 30
0.0
 10
93.9576
 20
-45.5659
 30
0.0
 10
93.9576
 20
-45.5659
 30
0.0
 10
93.9576
 20
-45.5659
 30
0.0
 10
93.9575
 20
-45.5659
 30
0.0
 10
93.9575
 20
-45.5659
 30
0.0
  0
SPLINE
  5
4E
330
1F
100
AcDbEntity
  8
layer 1
 62
     7
100
AcDbSpline
210
0.0
220
0.0
230
1.0
 70
    11
 71
     3
 72
    44
 73
    40
 74
     0
 42
0.0000000001
 43
0.0000000001
 12
1.0
 22
0.0
 32
0.0
 13
1.0
 23
0.0
 33
0.0
 40
0.0
 40
0.0
 40
0.0
 40
0.0
 40
0.0909090909090909
 40
0.0909090909090909
 40
0.0909090909090909
 40
0.0909090909090909
 40
0.1818181818181818
 40
0.1818181818181818
 40
0.1818181818181818
 40
0.1818181818181818
 40
0.2727272727272727
 40
0.2727272727272727
 40
0.2727272727272727
 40
0.2727272727272727
 40
0.3636363636363636
 40
0.3636363636363636
 40
0.3636363636363636
 40
0.3636363636363636
 40
0.4545454545454545
 40
0.4545454545454545
 40
0.4545454545454545
 40
0.4545454545454545
 40
0.5454545454545454
 40
0.5454545454545454
 40
0.5454545454545454
 40
0.5454545454545454
 40
0.6363636363636364
 40
0.6363636363636364
 40
0.6363636363636364
 40
0.6363636363636364
 40
0.7272727272727273
 40
0.7272727272727273
 40
0.7272727272727273
 40
0.7272727272727273
 40
0.8181818181818182
 40
0.8181818181818182
 40
0.8181818181818182
 40
0.8181818181818182
 40
1.0
 40
1.0
 40
1.0
 40
1.0
 10
43.9578
 20
-57.7018
 30
0.0
 10
42.7672
 20
-68.4578
 30
0.0
 10
49.952
 20
-69.2454
 30
0.0
 10
52.3811
 20
-75.7406
 30
0.0
 10
52.3811
 20
-75.7406
 30
0.0
 10
54.7334
 20
-74.629
 30
0.0
 10
56.2458
 20
-75.0923
 30
0.0
 10
58.9296
 20
-74.8678
 30
0.0
 10
58.9296
 20
-74.8678
 30
0.0
 10
57.8817
 20
-72.1944
 30
0.0
 10
57.6007
 20
-65.519
 30
0.0
 10
61.682
 20
-60.9382
 30
0.0
 10
61.682
 20
-60.9382
 30
0.0
 10
56.2452
 20
-64.6713
 30
0.0
 10
51.1955
 20
-62.4966
 30
0.0
 10
49.9322
 20
-58.8586
 30
0.0
 10
49.9322
 20
-58.8586
 30
0.0
 10
47.6068
 20
-50.4873
 30
0.0
 10
56.2221
 20
-49.1311
 30
0.0
 10
57.2588
 20
-53.9085
 30
0.0
 10
57.2588
 20
-53.9085
 30
0.0
 10
59.3855
 20
-51.6153
 30
0.0
 10
58.2256
 20
-48.8826
 30
0.0
 10
56.6394
 20
-47.8973
 30
0.0
 10
56.6394
 20
-47.8973
 30
0.0
 10
56.4357
 20
-48.6678
 30
0.0
 10
55.9606
 20
-49.4115
 30
0.0
 10
54.8493
 20
-50.2647
 30
0.0
 10
54.8493
 20
-50.2647
 30
0.0
 10
54.3312
 20
-50.5873
 30
0.0
 10
53.9664
 20
-50.5384
 30
0.0
 10
52.9395
 20
-50.3299
 30
0.0
 10
52.9395
 20
-50.3299
 30
0.0
 10
46.7544
 20
-49.1318
 30
0.0
 10
44.4431
 20
-54.7403
 30
0.0
 10
43.9577
 20
-57.7018
 30
0.0
 10
43.9577
 20
-57.7018
 30
0.0
 10
43.9577
 20
-57.7018
 30
0.0
 10
43.9578
 20
-57.7018
 30
0.0
 10
43.9578
 20
-57.7018
 30
0.0
  0
SPLINE
  5
4F
330
1F
100
AcDbEntity
  8
layer 1
 62
     7
100
AcDbSpline
210
0.0
220
0.0
230
1.0
 70
    11
 71
     3
 72
    40
 73
    36
 74
     0
 42
0.0000000001
 43
0.0000000001
 12
1.0
 22
0.0
 32
0.0
 13
1.0
 23
0.0
 33
0.0
 40
0.0
 40
0.0
 40
0.0
 40
0.0
 40
0.1
 40
0.1
 40
0.1
 40
0.1
 40
0.2
 40
0.2
 40
0.2
 40
0.2
 40
0.3
 40
0.3
 40
0.3
 40
0.3
 40
0.4
 40
0.4
 40
0.4
 40
0.4
 40
0.5
 40
0.5
 40
0.5
 40
0.5
 40
0.6
 40
0.6
 40
0.6
 40
0.6
 40
0.7
 40
0.7
 40
0.7
 40
0.7
 40
0.8
 40
0.8
 40
0.8
 40
0.8
 40
1.0
 40
1.0
 40
1.0
 40
1.0
 10
69.0221
 20
-107.3392
 30
0.0
 10
75.9911
 20
-107.3392
 30
0.0
 10
80.5331
 20
-98.5832
 30
0.0
 10
77.5357
 20
-92.6143
 30
0.0
 10
77.5357
 20
-92.6143
 30
0.0
 10
79.4137
 20
-90.8997
 30
0.0
 10
80.1799
 20
-88.91
 30
0.0
 10
79.7943
 20
-86.3034
 30
0.0
 10
79.7943
 20
-86.3034
 30
0.0
 10
76.389
 20
-87.3428
 30
0.0
 10
73.4918
 20
-86.6977
 30
0.0
 10
72.3865
 20
-86.6833
 30
0.0
 10
72.3865
 20
-86.6833
 30
0.0
 10
67.5695
 20
-83.0884
 30
0.0
 10
59.4395
 20
-84.6653
 30
0.0
 10
56.7937
 20
-86.2127
 30
0.0
 10
56.7937
 20
-86.2127
 30
0.0
 10
59.6236
 20
-83.3782
 30
0.0
 10
59.6129
 20
-78.4433
 30
0.0
 10
59.5485
 20
-75.7777
 30
0.0
 10
59.5485
 20
-75.7777
 30
0.0
 10
61.4644
 20
-79.2721
 30
0.0
 10
69.0544
 20
-88.8259
 30
0.0
 10
81.6385
 20
-84.842
 30
0.0
 10
81.6385
 20
-84.842
 30
0.0
 10
78.3166
 20
-94.5739
 30
0.0
 10
84.4924
 20
-100.9092
 30
0.0
 10
90.7362
 20
-101.0911
 30
0.0
 10
90.7362
 20
-101.0911
 30
0.0
 10
91.1413
 20
-104.2464
 30
0.0
 10
93.1825
 20
-106.228
 30
0.0
 10
95.5398
 20
-107.3392
 30
0.0
 10
95.5398
 20
-107.3392
 30
0.0
 10
95.5398
 20
-107.3392
 30
0.0
 10
69.0221
 20
-107.3392
 30
0.0
 10
69.0221
 20
-107.3392
 30
0.0
  0
SPLINE
  5
50
330
1F
100
AcDbEntity
  8
layer 1
 62
     7
100
AcDbSpline
210
0.0
220
0.0
230
1.0
 70
    11
 71
     3
 72
    44
 73
    40
 74
     0
 42
0.0000000001
 43
0.0000000001
 12
1.0
 22
0.0
 32
0.0
 13
1.0
 23
0.0
 33
0.0
 40
0.0
 40
0.0
 40
0.0
 40
0.0
 40
0.0909090909090909
 40
0.0909090909090909
 40
0.0909090909090909
 40
0.0909090909090909
 40
0.1818181818181818
 40
0.1818181818181818
 40
0.1818181818181818
 40
0.1818181818181818
 40
0.2727272727272727
 40
0.2727272727272727
 40
0.2727272727272727
 40
0.2727272727272727
 40
0.3636363636363636
 40
0.3636363636363636
 40
0.3636363636363636
 40
0.3636363636363636
 40
0.4545454545454545
 40
0.4545454545454545
 40
0.4545454545454545
 40
0.4545454545454545
 40
0.5454545454545454
 40
0.5454545454545454
 40
0.5454545454545454
 40
0.5454545454545454
 40
0.6363636363636364
 40
0.6363636363636364
 40
0.6363636363636364
 40
0.6363636363636364
 40
0.7272727272727273
 40
0.7272727272727273
 40
0.7272727272727273
 40
0.7272727272727273
 40
0.8181818181818182
 40
0.8181818181818182
 40
0.8181818181818182
 40
0.8181818181818182
 40
1.0
 40
1.0
 40
1.0
 40
1.0
 10
32.1055
 20
-107.3392
 30
0.0
 10
37.1587
 20
-106.3813
 30
0.0
 10
40.0798
 20
-105.3624
 30
0.0
 10
41.5772
 20
-103.8146
 30
0.0
 10
41.5772
 20
-103.8146
 30
0.0
 10
43.234
 20
-104.1632
 30
0.0
 10
44.737
 20
-104.7525
 30
0.0
 10
47.6673
 20
-104.43
 30
0.0
 10
47.6673
 20
-104.43
 30
0.0
 10
48.9923
 20
-95.5199
 30
0.0
 10
55.9587
 20
-92.5198
 30
0.0
 10
63.1513
 20
-94.3851
 30
0.0
 10
63.1513
 20
-94.3851
 30
0.0
 10
64.508
 20
-93.4825
 30
0.0
 10
65.1862
 20
-91.0348
 30
0.0
 10
65.0917
 20
-89.9254
 30
0.0
 10
65.0917
 20
-89.9254
 30
0.0
 10
70.2957
 20
-89.72
 30
0.0
 10
73.5872
 20
-96.9706
 30
0.0
 10
68.2888
 20
-100.1392
 30
0.0
 10
68.2888
 20
-100.1392
 30
0.0
 10
68.687
 20
-98.7786
 30
0.0
 10
68.529
 20
-97.3069
 30
0.0
 10
67.5805
 20
-96.7782
 30
0.0
 10
67.5805
 20
-96.7782
 30
0.0
 10
61.2435
 20
-94.304
 30
0.0
 10
60.712
 20
-99.5791
 30
0.0
 10
60.712
 20
-99.5791
 30
0.0
 10
60.712
 20
-99.5791
 30
0.0
 10
58.2743
 20
-98.1845
 30
0.0
 10
52.5866
 20
-99.5828
 30
0.0
 10
51.7567
 20
-102.491
 30
0.0
 10
51.7567
 20
-102.491
 30
0.0
 10
57.5409
 20
-102.7727
 30
0.0
 10
58.7716
 20
-106.5965
 30
0.0
 10
65.4761
 20
-107.3392
 30
0.0
 10
65.4761
 20
-107.3392
 30
0.0
 10
65.4761
 20
-107.3392
 30
0.0
 10
32.1055
 20
-107.3392
 30
0.0
 10
32.1055
 20
-107.3392
 30
0.0
  0
SPLINE
  5
51
330
1F
100
AcDbEntity
  8
layer 1
 62
     7
100
AcDbSpline
210
0.0
220
0.0
230
1.0
 70
    11
 71
     3
 72
    16
 73
    12
 74
     0
 42
0.0000000001
 43
0.0000000001
 12
1.0
 22
0.0
 32
0.0
 13
1.0
 23
0.0
 33
0.0
 40
0.0
 40
0.0
 40
0.0
 40
0.0
 40
0.25
 40
0.25
 40
0.25
 40
0.25
 40
0.5
 40
0.5
 40
0.5
 40
0.5
 40
1.0
 40
1.0
 40
1.0
 40
1.0
 10
5.4185
 20
-107.3392
 30
0.0
 10
9.8998
 20
-106.2763
 30
0.0
 10
11.9358
 20
-103.994
 30
0.0
 10
12.6066
 20
-101.2291
 30
0.0
 10
12.6066
 20
-101.2291
 30
0.0
 10
17.4912
 20
-104.9578
 30
0.0
 10
21.7212
 20
-106.6832
 30
0.0
 10
29.4536
 20
-107.3392
 30
0.0
 10
29.4536
 20
-107.3392
 30
0.0
 10
22.4195
 20
-107.3392
 30
0.0
 10
10.4612
 20
-107.3392
 30
0.0
 10
5.4185
 20
-107.3392
 30
0.0
  0
SPLINE
  5
52
330
1F
100
AcDbEntity
  8
layer 1
 62
     7
100
AcDbSpline
210
0.0
220
0.0
230
1.0
 70
    11
 71
     3
 72
    16
 73
    12
 74
     0
 42
0.0000000001
 43
0.0000000001
 12
1.0
 22
0.0
 32
0.0
 13
1.0
 23
0.0
 33
0.0
 40
0.0
 40
0.0
 40
0.0
 40
0.0
 40
0.25
 40
0.25
 40
0.25
 40
0.25
 40
0.5
 40
0.5
 40
0.5
 40
0.5
 40
1.0
 40
1.0
 40
1.0
 40
1.0
 10
4.2004
 20
-81.108
 30
0.0
 10
4.7174
 20
-89.6832
 30
0.0
 10
5.3623
 20
-90.0036
 30
0.0
 10
6.3725
 20
-93.1307
 30
0.0
 10
6.3725
 20
-93.1307
 30
0.0
 10
6.6579
 20
-98.2934
 30
0.0
 10
6.0828
 20
-101.2361
 30
0.0
 10
4.2004
 20
-105.1432
 30
0.0
 10
4.2004
 20
-105.1432
 30
0.0
 10
4.2004
 20
-105.1432
 30
0.0
 10
4.2004
 20
-81.108
 30
0.0
 10
4.2004
 20
-81.108
 30
0.0
  0
SPLINE
  5
53
330
1F
100
AcDbEntity
  8
layer 1
 62
     7
100
AcDbSpline
210
0.0
220
0.0
230
1.0
 70
    11
 71
     3
 72
    16
 73
    12
 74
     0
 42
0.0000000001
 43
0.0000000001
 12
1.0
 22
0.0
 32
0.0
 13
1.0
 23
0.0
 33
0.0
 40
0.0
 40
0.0
 40
0.0
 40
0.0
 40
0.25
 40
0.25
 40
0.25
 40
0.25
 40
0.5
 40
0.5
 40
0.5
 40
0.5
 40
1.0
 40
1.0
 40
1.0
 40
1.0
 10
4.2004
 20
-44.7775
 30
0.0
 10
4.7174
 20
-53.3525
 30
0.0
 10
5.117
 20
-56.1085
 30
0.0
 10
8.3607
 20
-61.7708
 30
0.0
 10
8.3607
 20
-61.7708
 30
0.0
 10
6.0253
 20
-64.9452
 30
0.0
 10
5.3546
 20
-67.0745
 30
0.0
 10
4.2004
 20
-74.0543
 30
0.0
 10
4.2004
 20
-74.0543
 30
0.0
 10
4.2004
 20
-74.0543
 30
0.0
 10
4.2004
 20
-44.7775
 30
0.0
 10
4.2004
 20
-44.7775
 30
0.0
  0
SPLINE
  5
54
330
1F
100
AcDbEntity
  8
layer 1
 62
     7
100
AcDbSpline
210
0.0
220
0.0
230
1.0
 70
    11
 71
     3
 72
    56
 73
    52
 74
     0
 42
0.0000000001
 43
0.0000000001
 12
1.0
 22
0.0
 32
0.0
 13
1.0
 23
0.0
 33
0.0
 40
0.0
 40
0.0
 40
0.0
 40
0.0
 40
0.0714285714285714
 40
0.0714285714285714
 40
0.0714285714285714
 40
0.0714285714285714
 40
0.1428571428571428
 40
0.1428571428571428
 40
0.1428571428571428
 40
0.1428571428571428
 40
0.2142857142857143
 40
0.2142857142857143
 40
0.2142857142857143
 40
0.2142857142857143
 40
0.2857142857142857
 40
0.2857142857142857
 40
0.2857142857142857
 40
0.2857142857142857
 40
0.3571428571428572
 40
0.3571428571428572
 40
0.3571428571428572
 40
0.3571428571428572
 40
0.4285714285714285
 40
0.4285714285714285
 40
0.4285714285714285
 40
0.4285714285714285
 40
0.5
 40
0.5
 40
0.5
 40
0.5
 40
0.5714285714285714
 40
0.5714285714285714
 40
0.5714285714285714
 40
0.5714285714285714
 40
0.6428571428571429
 40
0.6428571428571429
 40
0.6428571428571429
 40
0.6428571428571429
 40
0.7142857142857143
 40
0.7142857142857143
 40
0.7142857142857143
 40
0.7142857142857143
 40
0.7857142857142857
 40
0.7857142857142857
 40
0.7857142857142857
 40
0.7857142857142857
 40
0.8571428571428571
 40
0.8571428571428571
 40
0.8571428571428571
 40
0.8571428571428571
 40
1.0
 40
1.0
 40
1.0
 40
1.0
 10
12.2596
 20
11.7705
 30
0.0
 10
11.9608
 20
12.0497
 30
0.0
 10
11.1032
 20
12.9691
 30
0.0
 10
10.335
 20
13.0474
 30
0.0
 10
10.335
 20
13.0474
 30
0.0
 10
7.9242
 20
11.582
 30
0.0
 10
5.3806
 20
11.4518
 30
0.0
 10
4.5106
 20
12.1705
 30
0.0
 10
4.5106
 20
12.1705
 30
0.0
 10
5.3976
 20
15.8683
 30
0.0
 10
6.1672
 20
18.6353
 30
0.0
 10
5.8456
 20
24.5666
 30
0.0
 10
5.8456
 20
24.5666
 30
0.0
 10
5.4806
 20
31.2924
 30
0.0
 10
7.2661
 20
38.69
 30
0.0
 10
9.8997
 20
44.4249
 30
0.0
 10
9.8997
 20
44.4249
 30
0.0
 10
6.893
 20
46.8245
 30
0.0
 10
4.8484
 20
49.4144
 30
0.0
 10
4.2004
 20
54.3209
 30
0.0
 10
4.2004
 20
54.3209
 30
0.0
 10
4.2004
 20
54.3209
 30
0.0
 10
4.2004
 20
-38.0728
 30
0.0
 10
4.2004
 20
-38.0728
 30
0.0
 10
4.2004
 20
-38.0728
 30
0.0
 10
4.8484
 20
-33.1662
 30
0.0
 10
6.893
 20
-30.5764
 30
0.0
 10
9.8997
 20
-28.1766
 30
0.0
 10
9.8997
 20
-28.1766
 30
0.0
 10
7.266
 20
-22.4418
 30
0.0
 10
5.4806
 20
-15.0443
 30
0.0
 10
5.8456
 20
-8.3186
 30
0.0
 10
5.8456
 20
-8.3186
 30
0.0
 10
6.1673
 20
-2.3871
 30
0.0
 10
5.3976
 20
0.3799
 30
0.0
 10
4.5106
 20
4.0777
 30
0.0
 10
4.5106
 20
4.0777
 30
0.0
 10
5.3806
 20
4.7963
 30
0.0
 10
7.9242
 20
4.6661
 30
0.0
 10
10.335
 20
3.2009
 30
0.0
 10
10.335
 20
3.2009
 30
0.0
 10
11.1033
 20
3.2791
 30
0.0
 10
11.9609
 20
4.1985
 30
0.0
 10
12.2596
 20
4.4776
 30
0.0
 10
12.2596
 20
4.4776
 30
0.0
 10
12.8744
 20
5.0524
 30
0.0
 10
10.544
 20
7.5056
 30
0.0
 10
8.4992
 20
8.124
 30
0.0
 10
8.4992
 20
8.124
 30
0.0
 10
10.544
 20
8.7425
 30
0.0
 10
12.8744
 20
11.1957
 30
0.0
 10
12.2596
 20
11.7705
 30
0.0
  0
SPLINE
  5
55
330
1F
100
AcDbEntity
  8
layer 1
 62
     7
100
AcDbSpline
210
0.0
220
0.0
230
1.0
 70
    11
 71
     3
 72
    36
 73
    32
 74
     0
 42
0.0000000001
 43
0.0000000001
 12
1.0
 22
0.0
 32
0.0
 13
1.0
 23
0.0
 33
0.0
 40
0.0
 40
0.0
 40
0.0
 40
0.0
 40
0.1111111111111111
 40
0.1111111111111111
 40
0.1111111111111111
 40
0.1111111111111111
 40
0.2222222222222222
 40
0.2222222222222222
 40
0.2222222222222222
 40
0.2222222222222222
 40
0.3333333333333333
 40
0.3333333333333333
 40
0.3333333333333333
 40
0.3333333333333333
 40
0.4444444444444444
 40
0.4444444444444444
 40
0.4444444444444444
 40
0.4444444444444444
 40
0.5555555555555556
 40
0.5555555555555556
 40
0.5555555555555556
 40
0.5555555555555556
 40
0.6666666666666666
 40
0.6666666666666666
 40
0.6666666666666666
 40
0.6666666666666666
 40
0.7777777777777778
 40
0.7777777777777778
 40
0.7777777777777778
 40
0.7777777777777778
 40
1.0
 40
1.0
 40
1.0
 40
1.0
 10
83.4942
 20
55.6109
 30
0.0
 10
64.0906
 20
49.8509
 30
0.0
 10
53.3401
 20
35.5587
 30
0.0
 10
49.1851
 20
20.6008
 30
0.0
 10
49.1851
 20
20.6008
 30
0.0
 10
50.1044
 20
20.3387
 30
0.0
 10
51.5081
 20
20.4999
 30
0.0
 10
52.3669
 20
20.9639
 30
0.0
 10
52.3669
 20
20.9639
 30
0.0
 10
49.9968
 20
27.7131
 30
0.0
 10
54.9483
 20
35.1277
 30
0.0
 10
61.2916
 20
35.0392
 30
0.0
 10
61.2916
 20
35.0392
 30
0.0
 10
61.4042
 20
36.8199
 30
0.0
 10
61.5775
 20
39.0848
 30
0.0
 10
62.4769
 20
41.4705
 30
0.0
 10
62.4769
 20
41.4705
 30
0.0
 10
65.1503
 20
42.4011
 30
0.0
 10
67.0975
 20
42.4841
 30
0.0
 10
68.9238
 20
42.6279
 30
0.0
 10
68.9238
 20
42.6279
 30
0.0
 10
69.3349
 20
49.4566
 30
0.0
 10
74.9497
 20
53.9255
 30
0.0
 10
83.348
 20
52.0409
 30
0.0
 10
83.348
 20
52.0409
 30
0.0
 10
83.3161
 20
52.9687
 30
0.0
 10
83.3447
 20
54.3201
 30
0.0
 10
83.4944
 20
55.6109
 30
0.0
 10
83.4944
 20
55.6109
 30
0.0
 10
83.4944
 20
55.6109
 30
0.0
 10
83.4942
 20
55.6109
 30
0.0
 10
83.4942
 20
55.6109
 30
0.0
  0
SPLINE
  5
56
330
1F
100
AcDbEntity
  8
layer 1
 62
     7
100
AcDbSpline
210
0.0
220
0.0
230
1.0
 70
    11
 71
     3
 72
   116
 73
   112
 74
     0
 42
0.0000000001
 43
0.0000000001
 12
1.0
 22
0.0
 32
0.0
 13
1.0
 23
0.0
 33
0.0
 40
0.0
 40
0.0
 40
0.0
 40
0.0
 40
0.0344827586206897
 40
0.0344827586206897
 40
0.0344827586206897
 40
0.0344827586206897
 40
0.0689655172413793
 40
0.0689655172413793
 40
0.0689655172413793
 40
0.0689655172413793
 40
0.103448275862069
 40
0.103448275862069
 40
0.103448275862069
 40
0.103448275862069
 40
0.1379310344827586
 40
0.1379310344827586
 40
0.1379310344827586
 40
0.1379310344827586
 40
0.1724137931034483
 40
0.1724137931034483
 40
0.1724137931034483
 40
0.1724137931034483
 40
0.2068965517241379
 40
0.2068965517241379
 40
0.2068965517241379
 40
0.2068965517241379
 40
0.2413793103448276
 40
0.2413793103448276
 40
0.2413793103448276
 40
0.2413793103448276
 40
0.2758620689655172
 40
0.2758620689655172
 40
0.2758620689655172
 40
0.2758620689655172
 40
0.3103448275862069
 40
0.3103448275862069
 40
0.3103448275862069
 40
0.3103448275862069
 40
0.3448275862068966
 40
0.3448275862068966
 40
0.3448275862068966
 40
0.3448275862068966
 40
0.3793103448275862
 40
0.3793103448275862
 40
0.3793103448275862
 40
0.3793103448275862
 40
0.4137931034482759
 40
0.4137931034482759
 40
0.4137931034482759
 40
0.4137931034482759
 40
0.4482758620689655
 40
0.4482758620689655
 40
0.4482758620689655
 40
0.4482758620689655
 40
0.4827586206896552
 40
0.4827586206896552
 40
0.4827586206896552
 40
0.4827586206896552
 40
0.5172413793103449
 40
0.5172413793103449
 40
0.5172413793103449
 40
0.5172413793103449
 40
0.5517241379310345
 40
0.5517241379310345
 40
0.5517241379310345
 40
0.5517241379310345
 40
0.5862068965517241
 40
0.5862068965517241
 40
0.5862068965517241
 40
0.5862068965517241
 40
0.6206896551724138
 40
0.6206896551724138
 40
0.6206896551724138
 40
0.6206896551724138
 40
0.6551724137931034
 40
0.6551724137931034
 40
0.6551724137931034
 40
0.6551724137931034
 40
0.6896551724137931
 40
0.6896551724137931
 40
0.6896551724137931
 40
0.6896551724137931
 40
0.7241379310344828
 40
0.7241379310344828
 40
0.7241379310344828
 40
0.7241379310344828
 40
0.7586206896551724
 40
0.7586206896551724
 40
0.7586206896551724
 40
0.7586206896551724
 40
0.7931034482758621
 40
0.7931034482758621
 40
0.7931034482758621
 40
0.7931034482758621
 40
0.8275862068965517
 40
0.8275862068965517
 40
0.8275862068965517
 40
0.8275862068965517
 40
0.8620689655172413
 40
0.8620689655172413
 40
0.8620689655172413
 40
0.8620689655172413
 40
0.896551724137931
 40
0.896551724137931
 40
0.896551724137931
 40
0.896551724137931
 40
0.9310344827586207
 40
0.9310344827586207
 40
0.9310344827586207
 40
0.9310344827586207
 40
1.0
 40
1.0
 40
1.0
 40
1.0
 10
83.5786
 20
15.8688
 30
0.0
 10
78.0487
 20
15.985
 30
0.0
 10
68.682
 20
15.2945
 30
0.0
 10
63.6701
 20
16.6461
 30
0.0
 10
63.6701
 20
16.6461
 30
0.0
 10
58.2154
 20
18.1172
 30
0.0
 10
55.4223
 20
25.1229
 30
0.0
 10
60.0131
 20
26.9836
 30
0.0
 10
60.0131
 20
26.9836
 30
0.0
 10
60.2878
 20
24.3713
 30
0.0
 10
64.8674
 20
19.805
 30
0.0
 10
69.196
 20
27.2374
 30
0.0
 10
69.196
 20
27.2374
 30
0.0
 10
69.2272
 20
27.2991
 30
0.0
 10
69.2609
 20
27.3593
 30
0.0
 10
69.297
 20
27.4177
 30
0.0
 10
69.297
 20
27.4177
 30
0.0
 10
69.7112
 20
28.0849
 30
0.0
 10
70.4507
 20
28.5294
 30
0.0
 10
71.2939
 20
28.5294
 30
0.0
 10
71.2939
 20
28.5294
 30
0.0
 10
72.5909
 20
28.5294
 30
0.0
 10
73.6422
 20
27.4779
 30
0.0
 10
73.6422
 20
26.1809
 30
0.0
 10
73.6422
 20
26.1809
 30
0.0
 10
73.6422
 20
24.884
 30
0.0
 10
72.5909
 20
23.8325
 30
0.0
 10
71.2939
 20
23.8325
 30
0.0
 10
71.2939
 20
23.8325
 30
0.0
 10
69.9969
 20
23.8325
 30
0.0
 10
69.1447
 20
24.8686
 30
0.0
 10
69.1447
 20
26.1656
 30
0.0
 10
69.1447
 20
26.1656
 30
0.0
 10
66.7324
 20
23.0024
 30
0.0
 10
70.555
 20
20.6748
 30
0.0
 10
72.4796
 20
21.179
 30
0.0
 10
72.4796
 20
21.179
 30
0.0
 10
72.4998
 20
19.7554
 30
0.0
 10
72.5805
 20
18.9974
 30
0.0
 10
73.2057
 20
17.8762
 30
0.0
 10
73.2057
 20
17.8762
 30
0.0
 10
75.1936
 20
18.5295
 30
0.0
 10
76.395
 20
18.759
 30
0.0
 10
78.1409
 20
20.1383
 30
0.0
 10
78.1409
 20
20.1383
 30
0.0
 10
78.2105
 20
18.3837
 30
0.0
 10
79.5991
 20
17.4137
 30
0.0
 10
81.0613
 20
17.5395
 30
0.0
 10
81.0613
 20
17.5395
 30
0.0
 10
82.6159
 20
17.6733
 30
0.0
 10
84.2775
 20
18.9588
 30
0.0
 10
85.3492
 20
18.8398
 30
0.0
 10
85.3492
 20
18.8398
 30
0.0
 10
85.2303
 20
19.9115
 30
0.0
 10
86.5157
 20
21.5732
 30
0.0
 10
86.6495
 20
23.1279
 30
0.0
 10
86.6495
 20
23.1279
 30
0.0
 10
86.7755
 20
24.5899
 30
0.0
 10
85.8055
 20
25.9785
 30
0.0
 10
84.051
 20
26.0482
 30
0.0
 10
84.051
 20
26.0482
 30
0.0
 10
85.4301
 20
27.794
 30
0.0
 10
85.6598
 20
28.9954
 30
0.0
 10
86.3129
 20
30.9834
 30
0.0
 10
86.3129
 20
30.9834
 30
0.0
 10
85.1917
 20
31.6085
 30
0.0
 10
84.4336
 20
31.6894
 30
0.0
 10
83.01
 20
31.7094
 30
0.0
 10
83.01
 20
31.7094
 30
0.0
 10
83.5141
 20
33.634
 30
0.0
 10
81.1867
 20
37.4567
 30
0.0
 10
78.0234
 20
35.0443
 30
0.0
 10
78.0234
 20
35.0443
 30
0.0
 10
79.3205
 20
35.0443
 30
0.0
 10
80.3566
 20
34.1923
 30
0.0
 10
80.3566
 20
32.8952
 30
0.0
 10
80.3566
 20
32.8952
 30
0.0
 10
80.3566
 20
31.5982
 30
0.0
 10
79.305
 20
30.5468
 30
0.0
 10
78.0082
 20
30.5468
 30
0.0
 10
78.0082
 20
30.5468
 30
0.0
 10
76.7111
 20
30.5468
 30
0.0
 10
75.6597
 20
31.5982
 30
0.0
 10
75.6597
 20
32.8952
 30
0.0
 10
75.6597
 20
32.8952
 30
0.0
 10
75.6597
 20
33.7385
 30
0.0
 10
76.1041
 20
34.4778
 30
0.0
 10
76.7714
 20
34.892
 30
0.0
 10
76.7714
 20
34.892
 30
0.0
 10
76.8299
 20
34.9281
 30
0.0
 10
76.89
 20
34.962
 30
0.0
 10
76.9516
 20
34.993
 30
0.0
 10
76.9516
 20
34.993
 30
0.0
 10
84.384
 20
39.3217
 30
0.0
 10
79.8175
 20
43.9014
 30
0.0
 10
77.2054
 20
44.1759
 30
0.0
 10
77.2054
 20
44.1759
 30
0.0
 10
79.0662
 20
48.7665
 30
0.0
 10
86.0717
 20
45.9738
 30
0.0
 10
87.5429
 20
40.5189
 30
0.0
 10
87.5429
 20
40.5189
 30
0.0
 10
88.8945
 20
35.5071
 30
0.0
 10
88.204
 20
26.1403
 30
0.0
 10
88.3202
 20
20.6105
 30
0.0
 10
88.3202
 20
20.6105
 30
0.0
 10
86.2955
 20
19.2195
 30
0.0
 10
84.7782
 20
17.6104
 30
0.0
 10
83.5785
 20
15.8687
 30
0.0
 10
83.5785
 20
15.8687
 30
0.0
 10
83.5785
 20
15.8687
 30
0.0
 10
83.5786
 20
15.8688
 30
0.0
 10
83.5786
 20
15.8688
 30
0.0
  0
SPLINE
  5
57
330
1F
100
AcDbEntity
  8
layer 1
 62
     7
100
AcDbSpline
210
0.0
220
0.0
230
1.0
 70
    11
 71
     3
 72
    24
 73
    20
 74
     0
 42
0.0000000001
 43
0.0000000001
 12
1.0
 22
0.0
 32
0.0
 13
1.0
 23
0.0
 33
0.0
 40
0.0
 40
0.0
 40
0.0
 40
0.0
 40
0.1666666666666667
 40
0.1666666666666667
 40
0.1666666666666667
 40
0.1666666666666667
 40
0.3333333333333333
 40
0.3333333333333333
 40
0.3333333333333333
 40
0.3333333333333333
 40
0.5
 40
0.5
 40
0.5
 40
0.5
 40
0.6666666666666666
 40
0.6666666666666666
 40
0.6666666666666666
 40
0.6666666666666666
 40
1.0
 40
1.0
 40
1.0
 40
1.0
 10
34.3883
 20
102.7849
 30
0.0
 10
39.6829
 20
98.8291
 30
0.0
 10
35.7073
 20
92.9761
 30
0.0
 10
31.9486
 20
94.0081
 30
0.0
 10
31.9486
 20
94.0081
 30
0.0
 10
33.6208
 20
89.3458
 30
0.0
 10
40.4977
 20
89.4541
 30
0.0
 10
44.1215
 20
94.4959
 30
0.0
 10
44.1215
 20
94.4959
 30
0.0
 10
47.5191
 20
100.5659
 30
0.0
 10
46.4166
 20
106.2022
 30
0.0
 10
43.4167
 20
110.7543
 30
0.0
 10
43.4167
 20
110.7543
 30
0.0
 10
44.2021
 20
106.0378
 30
0.0
 10
39.2951
 20
101.538
 30
0.0
 10
34.3882
 20
102.7849
 30
0.0
 10
34.3882
 20
102.7849
 30
0.0
 10
34.3882
 20
102.7849
 30
0.0
 10
34.3883
 20
102.7849
 30
0.0
 10
34.3883
 20
102.7849
 30
0.0
  0
SPLINE
  5
58
330
1F
100
AcDbEntity
  8
layer 1
 62
     7
100
AcDbSpline
210
0.0
220
0.0
230
1.0
 70
    11
 71
     3
 72
    48
 73
    44
 74
     0
 42
0.0000000001
 43
0.0000000001
 12
1.0
 22
0.0
 32
0.0
 13
1.0
 23
0.0
 33
0.0
 40
0.0
 40
0.0
 40
0.0
 40
0.0
 40
0.0833333333333333
 40
0.0833333333333333
 40
0.0833333333333333
 40
0.0833333333333333
 40
0.1666666666666667
 40
0.1666666666666667
 40
0.1666666666666667
 40
0.1666666666666667
 40
0.25
 40
0.25
 40
0.25
 40
0.25
 40
0.3333333333333333
 40
0.3333333333333333
 40
0.3333333333333333
 40
0.3333333333333333
 40
0.4166666666666667
 40
0.4166666666666667
 40
0.4166666666666667
 40
0.4166666666666667
 40
0.5
 40
0.5
 40
0.5
 40
0.5
 40
0.5833333333333334
 40
0.5833333333333334
 40
0.5833333333333334
 40
0.5833333333333334
 40
0.6666666666666666
 40
0.6666666666666666
 40
0.6666666666666666
 40
0.6666666666666666
 40
0.75
 40
0.75
 40
0.75
 40
0.75
 40
0.8333333333333334
 40
0.8333333333333334
 40
0.8333333333333334
 40
0.8333333333333334
 40
1.0
 40
1.0
 40
1.0
 40
1.0
 10
15.5904
 20
53.6307
 30
0.0
 10
15.5904
 20
50.7028
 30
0.0
 10
17.9638
 20
48.3292
 30
0.0
 10
20.8919
 20
48.3292
 30
0.0
 10
20.8919
 20
48.3292
 30
0.0
 10
24.9713
 20
48.5625
 30
0.0
 10
26.4039
 20
50.8334
 30
0.0
 10
28.095
 20
53.8471
 30
0.0
 10
28.095
 20
53.8471
 30
0.0
 10
26.91
 20
54.8291
 30
0.0
 10
25.4045
 20
56.2158
 30
0.0
 10
24.2503
 20
58.1631
 30
0.0
 10
24.2503
 20
58.1631
 30
0.0
 10
26.6284
 20
61.9787
 30
0.0
 10
25.422
 20
66.8538
 30
0.0
 10
21.8254
 20
71.81
 30
0.0
 10
21.8254
 20
71.81
 30
0.0
 10
16.9955
 20
71.5554
 30
0.0
 10
13.9968
 20
73.919
 30
0.0
 10
10.1896
 20
76.6249
 30
0.0
 10
10.1896
 20
76.6249
 30
0.0
 10
12.6073
 20
74.0531
 30
0.0
 10
14.7005
 20
71.0483
 30
0.0
 10
13.9596
 20
67.4458
 30
0.0
 10
13.9596
 20
67.4458
 30
0.0
 10
15.289
 20
67.175
 30
0.0
 10
16.3146
 20
66.6927
 30
0.0
 10
17.2981
 20
66.0994
 30
0.0
 10
17.2981
 20
66.0994
 30
0.0
 10
17.2865
 20
64.9706
 30
0.0
 10
16.8611
 20
64.0117
 30
0.0
 10
16.5927
 20
63.117
 30
0.0
 10
16.5927
 20
63.117
 30
0.0
 10
20.4854
 20
62.4043
 30
0.0
 10
21.6036
 20
60.4795
 30
0.0
 10
21.0891
 20
58.9783
 30
0.0
 10
21.0891
 20
58.9783
 30
0.0
 10
17.9638
 20
58.9323
 30
0.0
 10
15.5904
 20
56.5588
 30
0.0
 10
15.5904
 20
53.6308
 30
0.0
 10
15.5904
 20
53.6308
 30
0.0
 10
15.5904
 20
53.6308
 30
0.0
 10
15.5904
 20
53.6307
 30
0.0
 10
15.5904
 20
53.6307
 30
0.0
  0
SPLINE
  5
59
330
1F
100
AcDbEntity
  8
layer 1
 62
     7
100
AcDbSpline
210
0.0
220
0.0
230
1.0
 70
    11
 71
     3
 72
    48
 73
    44
 74
     0
 42
0.0000000001
 43
0.0000000001
 12
1.0
 22
0.0
 32
0.0
 13
1.0
 23
0.0
 33
0.0
 40
0.0
 40
0.0
 40
0.0
 40
0.0
 40
0.0833333333333333
 40
0.0833333333333333
 40
0.0833333333333333
 40
0.0833333333333333
 40
0.1666666666666667
 40
0.1666666666666667
 40
0.1666666666666667
 40
0.1666666666666667
 40
0.25
 40
0.25
 40
0.25
 40
0.25
 40
0.3333333333333333
 40
0.3333333333333333
 40
0.3333333333333333
 40
0.3333333333333333
 40
0.4166666666666667
 40
0.4166666666666667
 40
0.4166666666666667
 40
0.4166666666666667
 40
0.5
 40
0.5
 40
0.5
 40
0.5
 40
0.5833333333333334
 40
0.5833333333333334
 40
0.5833333333333334
 40
0.5833333333333334
 40
0.6666666666666666
 40
0.6666666666666666
 40
0.6666666666666666
 40
0.6666666666666666
 40
0.75
 40
0.75
 40
0.75
 40
0.75
 40
0.8333333333333334
 40
0.8333333333333334
 40
0.8333333333333334
 40
0.8333333333333334
 40
1.0
 40
1.0
 40
1.0
 40
1.0
 10
27.5506
 20
111.796
 30
0.0
 10
28.8446
 20
113.634
 30
0.0
 10
29.9678
 20
115.2275
 30
0.0
 10
30.3297
 20
116.1408
 30
0.0
 10
30.3297
 20
116.1408
 30
0.0
 10
36.7577
 20
113.1674
 30
0.0
 10
36.9726
 20
106.9823
 30
0.0
 10
32.9226
 20
103.3164
 30
0.0
 10
32.9226
 20
103.3164
 30
0.0
 10
24.6048
 20
106.2485
 30
0.0
 10
17.5758
 20
95.9893
 30
0.0
 10
24.7721
 20
85.9524
 30
0.0
 10
24.7721
 20
85.9524
 30
0.0
 10
20.9744
 20
87.8342
 30
0.0
 10
17.9848
 20
83.5682
 30
0.0
 10
19.5638
 20
80.5257
 30
0.0
 10
19.5638
 20
80.5257
 30
0.0
 10
15.1255
 20
79.9974
 30
0.0
 10
11.0097
 20
83.7303
 30
0.0
 10
8.7979
 20
88.8018
 30
0.0
 10
8.7979
 20
88.8018
 30
0.0
 10
10.9961
 20
87.0636
 30
0.0
 10
12.2649
 20
86.0713
 30
0.0
 10
13.6553
 20
85.1943
 30
0.0
 10
13.6553
 20
85.1943
 30
0.0
 10
14.6366
 20
86.2046
 30
0.0
 10
16.8367
 20
89.2528
 30
0.0
 10
17.907
 20
91.8901
 30
0.0
 10
17.907
 20
91.8901
 30
0.0
 10
16.0252
 20
92.6711
 30
0.0
 10
13.1645
 20
95.2391
 30
0.0
 10
12.3306
 20
97.0473
 30
0.0
 10
12.3306
 20
97.0473
 30
0.0
 10
13.3092
 20
97.673
 30
0.0
 10
14.1199
 20
98.1674
 30
0.0
 10
14.7596
 20
99.1879
 30
0.0
 10
14.7596
 20
99.1879
 30
0.0
 10
9.8308
 20
106.7554
 30
0.0
 10
17.678
 20
118.4799
 30
0.0
 10
27.5507
 20
111.796
 30
0.0
 10
27.5507
 20
111.796
 30
0.0
 10
27.5507
 20
111.796
 30
0.0
 10
27.5506
 20
111.796
 30
0.0
 10
27.5506
 20
111.796
 30
0.0
  0
SPLINE
  5
5A
330
1F
100
AcDbEntity
  8
layer 1
 62
     7
100
AcDbSpline
210
0.0
220
0.0
230
1.0
 70
    11
 71
     3
 72
    44
 73
    40
 74
     0
 42
0.0000000001
 43
0.0000000001
 12
1.0
 22
0.0
 32
0.0
 13
1.0
 23
0.0
 33
0.0
 40
0.0
 40
0.0
 40
0.0
 40
0.0
 40
0.0909090909090909
 40
0.0909090909090909
 40
0.0909090909090909
 40
0.0909090909090909
 40
0.1818181818181818
 40
0.1818181818181818
 40
0.1818181818181818
 40
0.1818181818181818
 40
0.2727272727272727
 40
0.2727272727272727
 40
0.2727272727272727
 40
0.2727272727272727
 40
0.3636363636363636
 40
0.3636363636363636
 40
0.3636363636363636
 40
0.3636363636363636
 40
0.4545454545454545
 40
0.4545454545454545
 40
0.4545454545454545
 40
0.4545454545454545
 40
0.5454545454545454
 40
0.5454545454545454
 40
0.5454545454545454
 40
0.5454545454545454
 40
0.6363636363636364
 40
0.6363636363636364
 40
0.6363636363636364
 40
0.6363636363636364
 40
0.7272727272727273
 40
0.7272727272727273
 40
0.7272727272727273
 40
0.7272727272727273
 40
0.8181818181818182
 40
0.8181818181818182
 40
0.8181818181818182
 40
0.8181818181818182
 40
1.0
 40
1.0
 40
1.0
 40
1.0
 10
22.8903
 20
20.6665
 30
0.0
 10
23.6888
 20
20.1339
 30
0.0
 10
24.4655
 20
18.7299
 30
0.0
 10
24.6558
 20
17.7032
 30
0.0
 10
24.6558
 20
17.7032
 30
0.0
 10
25.7126
 20
18.5069
 30
0.0
 10
26.9742
 20
21.1199
 30
0.0
 10
25.8137
 20
22.8789
 30
0.0
 10
25.8137
 20
22.8789
 30
0.0
 10
21.0925
 20
18.2149
 30
0.0
 10
14.2834
 20
29.5251
 30
0.0
 10
23.1665
 20
31.2442
 30
0.0
 10
23.1665
 20
31.2442
 30
0.0
 10
22.9214
 20
32.0371
 30
0.0
 10
22.4563
 20
33.4333
 30
0.0
 10
22.2815
 20
34.4543
 30
0.0
 10
22.2815
 20
34.4543
 30
0.0
 10
23.0408
 20
34.9412
 30
0.0
 10
24.5151
 20
35.5885
 30
0.0
 10
25.8733
 20
36.1327
 30
0.0
 10
25.8733
 20
36.1327
 30
0.0
 10
25.912
 20
37.5774
 30
0.0
 10
26.1639
 20
40.5367
 30
0.0
 10
29.13
 20
44.0058
 30
0.0
 10
29.13
 20
44.0058
 30
0.0
 10
26.6954
 20
41.4537
 30
0.0
 10
23.1013
 20
40.1161
 30
0.0
 10
18.9519
 20
40.4353
 30
0.0
 10
18.9519
 20
40.4353
 30
0.0
 10
16.0563
 20
37.8975
 30
0.0
 10
13.3527
 20
33.5953
 30
0.0
 10
12.9906
 20
28.9798
 30
0.0
 10
12.9906
 20
28.9798
 30
0.0
 10
12.888
 20
25.0556
 30
0.0
 10
16.4625
 20
17.6149
 30
0.0
 10
22.8902
 20
20.6665
 30
0.0
 10
22.8902
 20
20.6665
 30
0.0
 10
22.8902
 20
20.6665
 30
0.0
 10
22.8903
 20
20.6665
 30
0.0
 10
22.8903
 20
20.6665
 30
0.0
  0
SPLINE
  5
5B
330
1F
100
AcDbEntity
  8
layer 1
 62
     7
100
AcDbSpline
210
0.0
220
0.0
230
1.0
 70
    11
 71
     3
 72
    16
 73
    12
 74
     0
 42
0.0000000001
 43
0.0000000001
 12
1.0
 22
0.0
 32
0.0
 13
1.0
 23
0.0
 33
0.0
 40
0.0
 40
0.0
 40
0.0
 40
0.0
 40
0.25
 40
0.25
 40
0.25
 40
0.25
 40
0.5
 40
0.5
 40
0.5
 40
0.5
 40
1.0
 40
1.0
 40
1.0
 40
1.0
 10
46.3827
 20
53.7751
 30
0.0
 10
48.2277
 20
50.6955
 30
0.0
 10
46.7436
 20
45.609
 30
0.0
 10
44.0525
 20
43.6019
 30
0.0
 10
44.0525
 20
43.6019
 30
0.0
 10
43.8906
 20
41.5406
 30
0.0
 10
45.0451
 20
39.924
 30
0.0
 10
47.6561
 20
39.1068
 30
0.0
 10
47.6561
 20
39.1068
 30
0.0
 10
49.6765
 20
42.4977
 30
0.0
 10
50.8587
 20
49.1401
 30
0.0
 10
46.3827
 20
53.7751
 30
0.0
  0
SPLINE
  5
5C
330
1F
100
AcDbEntity
  8
layer 1
 62
     7
100
AcDbSpline
210
0.0
220
0.0
230
1.0
 70
    11
 71
     3
 72
    32
 73
    28
 74
     0
 42
0.0000000001
 43
0.0000000001
 12
1.0
 22
0.0
 32
0.0
 13
1.0
 23
0.0
 33
0.0
 40
0.0
 40
0.0
 40
0.0
 40
0.0
 40
0.125
 40
0.125
 40
0.125
 40
0.125
 40
0.25
 40
0.25
 40
0.25
 40
0.25
 40
0.375
 40
0.375
 40
0.375
 40
0.375
 40
0.5
 40
0.5
 40
0.5
 40
0.5
 40
0.625
 40
0.625
 40
0.625
 40
0.625
 40
0.75
 40
0.75
 40
0.75
 40
0.75
 40
1.0
 40
1.0
 40
1.0
 40
1.0
 10
27.3325
 20
83.9765
 30
0.0
 10
30.1844
 20
81.0518
 30
0.0
 10
28.5455
 20
76.5847
 30
0.0
 10
26.2416
 20
74.81
 30
0.0
 10
26.2416
 20
74.81
 30
0.0
 10
30.5711
 20
73.4456
 30
0.0
 10
34.2036
 20
70.8224
 30
0.0
 10
37.5116
 20
66.288
 30
0.0
 10
37.5116
 20
66.288
 30
0.0
 10
36.6445
 20
70.2753
 30
0.0
 10
36.3958
 20
74.6695
 30
0.0
 10
38.3857
 20
77.0863
 30
0.0
 10
38.3857
 20
77.0863
 30
0.0
 10
34.831
 20
76.9104
 30
0.0
 10
32.5214
 20
77.6593
 30
0.0
 10
32.2403
 20
78.1649
 30
0.0
 10
32.2403
 20
78.1649
 30
0.0
 10
31.9933
 20
78.95
 30
0.0
 10
32.405
 20
80.2994
 30
0.0
 10
32.8671
 20
81.1669
 30
0.0
 10
32.8671
 20
81.1669
 30
0.0
 10
31.1003
 20
81.3474
 30
0.0
 10
29.3259
 20
82.0426
 30
0.0
 10
27.3326
 20
83.9765
 30
0.0
 10
27.3326
 20
83.9765
 30
0.0
 10
27.3326
 20
83.9765
 30
0.0
 10
27.3325
 20
83.9765
 30
0.0
 10
27.3325
 20
83.9765
 30
0.0
  0
SPLINE
  5
5D
330
1F
100
AcDbEntity
  8
layer 1
 62
     7
100
AcDbSpline
210
0.0
220
0.0
230
1.0
 70
    11
 71
     3
 72
    20
 73
    16
 74
     0
 42
0.0000000001
 43
0.0000000001
 12
1.0
 22
0.0
 32
0.0
 13
1.0
 23
0.0
 33
0.0
 40
0.0
 40
0.0
 40
0.0
 40
0.0
 40
0.2
 40
0.2
 40
0.2
 40
0.2
 40
0.4
 40
0.4
 40
0.4
 40
0.4
 40
0.6
 40
0.6
 40
0.6
 40
0.6
 40
1.0
 40
1.0
 40
1.0
 40
1.0
 10
73.1767
 20
56.8631
 30
0.0
 10
75.4942
 20
59.7494
 30
0.0
 10
76.1367
 20
65.9099
 30
0.0
 10
73.4457
 20
67.9171
 30
0.0
 10
73.4457
 20
67.9171
 30
0.0
 10
73.6489
 20
69.3339
 30
0.0
 10
74.782
 20
71.2727
 30
0.0
 10
76.233
 20
72.1545
 30
0.0
 10
76.233
 20
72.1545
 30
0.0
 10
80.0363
 20
69.3435
 30
0.0
 10
79.7363
 20
60.9396
 30
0.0
 10
73.1767
 20
56.8632
 30
0.0
 10
73.1767
 20
56.8632
 30
0.0
 10
73.1767
 20
56.8632
 30
0.0
 10
73.1767
 20
56.8631
 30
0.0
 10
73.1767
 20
56.8631
 30
0.0
  0
SPLINE
  5
5E
330
1F
100
AcDbEntity
  8
layer 1
 62
     7
100
AcDbSpline
210
0.0
220
0.0
230
1.0
 70
    11
 71
     3
 72
    88
 73
    84
 74
     0
 42
0.0000000001
 43
0.0000000001
 12
1.0
 22
0.0
 32
0.0
 13
1.0
 23
0.0
 33
0.0
 40
0.0
 40
0.0
 40
0.0
 40
0.0
 40
0.0454545454545455
 40
0.0454545454545455
 40
0.0454545454545455
 40
0.0454545454545455
 40
0.0909090909090909
 40
0.0909090909090909
 40
0.0909090909090909
 40
0.0909090909090909
 40
0.1363636363636364
 40
0.1363636363636364
 40
0.1363636363636364
 40
0.1363636363636364
 40
0.1818181818181818
 40
0.1818181818181818
 40
0.1818181818181818
 40
0.1818181818181818
 40
0.2272727272727273
 40
0.2272727272727273
 40
0.2272727272727273
 40
0.2272727272727273
 40
0.2727272727272727
 40
0.2727272727272727
 40
0.2727272727272727
 40
0.2727272727272727
 40
0.3181818181818182
 40
0.3181818181818182
 40
0.3181818181818182
 40
0.3181818181818182
 40
0.3636363636363636
 40
0.3636363636363636
 40
0.3636363636363636
 40
0.3636363636363636
 40
0.4090909090909091
 40
0.4090909090909091
 40
0.4090909090909091
 40
0.4090909090909091
 40
0.4545454545454545
 40
0.4545454545454545
 40
0.4545454545454545
 40
0.4545454545454545
 40
0.5
 40
0.5
 40
0.5
 40
0.5
 40
0.5454545454545454
 40
0.5454545454545454
 40
0.5454545454545454
 40
0.5454545454545454
 40
0.5909090909090909
 40
0.5909090909090909
 40
0.5909090909090909
 40
0.5909090909090909
 40
0.6363636363636364
 40
0.6363636363636364
 40
0.6363636363636364
 40
0.6363636363636364
 40
0.6818181818181818
 40
0.6818181818181818
 40
0.6818181818181818
 40
0.6818181818181818
 40
0.7272727272727273
 40
0.7272727272727273
 40
0.7272727272727273
 40
0.7272727272727273
 40
0.7727272727272727
 40
0.7727272727272727
 40
0.7727272727272727
 40
0.7727272727272727
 40
0.8181818181818182
 40
0.8181818181818182
 40
0.8181818181818182
 40
0.8181818181818182
 40
0.8636363636363636
 40
0.8636363636363636
 40
0.8636363636363636
 40
0.8636363636363636
 40
0.9090909090909091
 40
0.9090909090909091
 40
0.9090909090909091
 40
0.9090909090909091
 40
1.0
 40
1.0
 40
1.0
 40
1.0
 10
68.0769
 20
67.8263
 30
0.0
 10
68.3681
 20
68.4614
 30
0.0
 10
68.9196
 20
68.9798
 30
0.0
 10
70.19
 20
69.2062
 30
0.0
 10
70.19
 20
69.2062
 30
0.0
 10
69.5619
 20
70.8256
 30
0.0
 10
69.9174
 20
72.6701
 30
0.0
 10
70.8846
 20
73.4704
 30
0.0
 10
70.8846
 20
73.4704
 30
0.0
 10
70.8846
 20
73.4704
 30
0.0
 10
72.276
 20
73.3785
 30
0.0
 10
73.3754
 20
73.0346
 30
0.0
 10
73.3754
 20
73.0346
 30
0.0
 10
73.788
 20
75.2267
 30
0.0
 10
75.9206
 20
76.3553
 30
0.0
 10
76.3766
 20
76.5557
 30
0.0
 10
76.3766
 20
76.5557
 30
0.0
 10
80.8156
 20
75.5265
 30
0.0
 10
81.4318
 20
71.8419
 30
0.0
 10
81.3729
 20
70.5719
 30
0.0
 10
81.3729
 20
70.5719
 30
0.0
 10
81.7715
 20
70.7486
 30
0.0
 10
82.2972
 20
70.7455
 30
0.0
 10
82.681
 20
70.4952
 30
0.0
 10
82.681
 20
70.4952
 30
0.0
 10
83.6982
 20
66.2467
 30
0.0
 10
80.6788
 20
61.1152
 30
0.0
 10
78.0179
 20
58.7275
 30
0.0
 10
78.0179
 20
58.7275
 30
0.0
 10
79.8436
 20
58.9647
 30
0.0
 10
86.7645
 20
65.2773
 30
0.0
 10
87.9292
 20
67.6228
 30
0.0
 10
87.9292
 20
67.6228
 30
0.0
 10
86.7948
 20
68.0832
 30
0.0
 10
86.7301
 20
69.1764
 30
0.0
 10
87.3402
 20
69.6975
 30
0.0
 10
87.3402
 20
69.6975
 30
0.0
 10
94.5316
 20
78.8329
 30
0.0
 10
84.2663
 20
94.9685
 30
0.0
 10
74.9182
 20
88.9674
 30
0.0
 10
74.9182
 20
88.9674
 30
0.0
 10
72.1851
 20
90.3012
 30
0.0
 10
72.2959
 20
92.4589
 30
0.0
 10
72.0304
 20
94.0766
 30
0.0
 10
72.0304
 20
94.0766
 30
0.0
 10
69.2301
 20
93.0088
 30
0.0
 10
65.3716
 20
86.8863
 30
0.0
 10
69.8503
 20
84.0361
 30
0.0
 10
69.8503
 20
84.0361
 30
0.0
 10
74.2762
 20
88.2564
 30
0.0
 10
81.3703
 20
82.2728
 30
0.0
 10
74.6546
 20
75.8602
 30
0.0
 10
74.6546
 20
75.8602
 30
0.0
 10
72.9448
 20
74.3136
 30
0.0
 10
68.2251
 20
73.1782
 30
0.0
 10
63.5528
 20
76.337
 30
0.0
 10
63.5528
 20
76.337
 30
0.0
 10
70.19
 20
69.2061
 30
0.0
 10
66.6789
 20
59.7004
 30
0.0
 10
60.9092
 20
56.871
 30
0.0
 10
60.9092
 20
56.871
 30
0.0
 10
61.5128
 20
56.1356
 30
0.0
 10
62.1868
 20
54.2189
 30
0.0
 10
62.2474
 20
52.3242
 30
0.0
 10
62.2474
 20
52.3242
 30
0.0
 10
60.6182
 20
51.3672
 30
0.0
 10
55.4438
 20
50.0975
 30
0.0
 10
51.283
 20
51.607
 30
0.0
 10
51.283
 20
51.607
 30
0.0
 10
53.7308
 20
48.5213
 30
0.0
 10
55.372
 20
42.8752
 30
0.0
 10
51.9089
 20
37.6645
 30
0.0
 10
51.9089
 20
37.6645
 30
0.0
 10
57.9488
 20
46.927
 30
0.0
 10
64.0235
 20
50.3941
 30
0.0
 10
66.7918
 20
52.8046
 30
0.0
 10
66.7918
 20
52.8046
 30
0.0
 10
70.6825
 20
55.2026
 30
0.0
 10
73.9391
 20
63.6601
 30
0.0
 10
68.0769
 20
67.8262
 30
0.0
 10
68.0769
 20
67.8262
 30
0.0
 10
68.0769
 20
67.8262
 30
0.0
 10
68.0769
 20
67.8263
 30
0.0
 10
68.0769
 20
67.8263
 30
0.0
  0
SPLINE
  5
5F
330
1F
100
AcDbEntity
  8
layer 1
 62
     7
100
AcDbSpline
210
0.0
220
0.0
230
1.0
 70
    11
 71
     3
 72
    44
 73
    40
 74
     0
 42
0.0000000001
 43
0.0000000001
 12
1.0
 22
0.0
 32
0.0
 13
1.0
 23
0.0
 33
0.0
 40
0.0
 40
0.0
 40
0.0
 40
0.0
 40
0.0909090909090909
 40
0.0909090909090909
 40
0.0909090909090909
 40
0.0909090909090909
 40
0.1818181818181818
 40
0.1818181818181818
 40
0.1818181818181818
 40
0.1818181818181818
 40
0.2727272727272727
 40
0.2727272727272727
 40
0.2727272727272727
 40
0.2727272727272727
 40
0.3636363636363636
 40
0.3636363636363636
 40
0.3636363636363636
 40
0.3636363636363636
 40
0.4545454545454545
 40
0.4545454545454545
 40
0.4545454545454545
 40
0.4545454545454545
 40
0.5454545454545454
 40
0.5454545454545454
 40
0.5454545454545454
 40
0.5454545454545454
 40
0.6363636363636364
 40
0.6363636363636364
 40
0.6363636363636364
 40
0.6363636363636364
 40
0.7272727272727273
 40
0.7272727272727273
 40
0.7272727272727273
 40
0.7272727272727273
 40
0.8181818181818182
 40
0.8181818181818182
 40
0.8181818181818182
 40
0.8181818181818182
 40
1.0
 40
1.0
 40
1.0
 40
1.0
 10
43.9578
 20
73.95
 30
0.0
 10
42.7672
 20
84.706
 30
0.0
 10
49.952
 20
85.4936
 30
0.0
 10
52.3811
 20
91.9888
 30
0.0
 10
52.3811
 20
91.9888
 30
0.0
 10
54.7334
 20
90.8772
 30
0.0
 10
56.2458
 20
91.3406
 30
0.0
 10
58.9296
 20
91.116
 30
0.0
 10
58.9296
 20
91.116
 30
0.0
 10
57.8817
 20
88.4426
 30
0.0
 10
57.6007
 20
81.7672
 30
0.0
 10
61.682
 20
77.1863
 30
0.0
 10
61.682
 20
77.1863
 30
0.0
 10
56.2452
 20
80.9195
 30
0.0
 10
51.1955
 20
78.7448
 30
0.0
 10
49.9322
 20
75.1069
 30
0.0
 10
49.9322
 20
75.1069
 30
0.0
 10
47.6068
 20
66.7355
 30
0.0
 10
56.2221
 20
65.3794
 30
0.0
 10
57.2588
 20
70.1568
 30
0.0
 10
57.2588
 20
70.1568
 30
0.0
 10
59.3855
 20
67.8635
 30
0.0
 10
58.2256
 20
65.131
 30
0.0
 10
56.6394
 20
64.1454
 30
0.0
 10
56.6394
 20
64.1454
 30
0.0
 10
56.4357
 20
64.916
 30
0.0
 10
55.9606
 20
65.6598
 30
0.0
 10
54.8493
 20
66.513
 30
0.0
 10
54.8493
 20
66.513
 30
0.0
 10
54.3312
 20
66.8355
 30
0.0
 10
53.9664
 20
66.7866
 30
0.0
 10
52.9395
 20
66.5782
 30
0.0
 10
52.9395
 20
66.5782
 30
0.0
 10
46.7544
 20
65.3801
 30
0.0
 10
44.4431
 20
70.9886
 30
0.0
 10
43.9577
 20
73.95
 30
0.0
 10
43.9577
 20
73.95
 30
0.0
 10
43.9577
 20
73.95
 30
0.0
 10
43.9578
 20
73.95
 30
0.0
 10
43.9578
 20
73.95
 30
0.0
  0
SPLINE
  5
60
330
1F
100
AcDbEntity
  8
layer 1
 62
     7
100
AcDbSpline
210
0.0
220
0.0
230
1.0
 70
    11
 71
     3
 72
    40
 73
    36
 74
     0
 42
0.0000000001
 43
0.0000000001
 12
1.0
 22
0.0
 32
0.0
 13
1.0
 23
0.0
 33
0.0
 40
0.0
 40
0.0
 40
0.0
 40
0.0
 40
0.1
 40
0.1
 40
0.1
 40
0.1
 40
0.2
 40
0.2
 40
0.2
 40
0.2
 40
0.3
 40
0.3
 40
0.3
 40
0.3
 40
0.4
 40
0.4
 40
0.4
 40
0.4
 40
0.5
 40
0.5
 40
0.5
 40
0.5
 40
0.6
 40
0.6
 40
0.6
 40
0.6
 40
0.7
 40
0.7
 40
0.7
 40
0.7
 40
0.8
 40
0.8
 40
0.8
 40
0.8
 40
1.0
 40
1.0
 40
1.0
 40
1.0
 10
69.0221
 20
123.5874
 30
0.0
 10
75.9911
 20
123.5874
 30
0.0
 10
80.5331
 20
114.8314
 30
0.0
 10
77.5357
 20
108.8624
 30
0.0
 10
77.5357
 20
108.8624
 30
0.0
 10
79.4137
 20
107.1479
 30
0.0
 10
80.1799
 20
105.1582
 30
0.0
 10
79.7943
 20
102.5515
 30
0.0
 10
79.7943
 20
102.5515
 30
0.0
 10
76.389
 20
103.591
 30
0.0
 10
73.4918
 20
102.9459
 30
0.0
 10
72.3865
 20
102.9315
 30
0.0
 10
72.3865
 20
102.9315
 30
0.0
 10
67.5695
 20
99.3365
 30
0.0
 10
59.4395
 20
100.9135
 30
0.0
 10
56.7937
 20
102.4608
 30
0.0
 10
56.7937
 20
102.4608
 30
0.0
 10
59.6236
 20
99.6264
 30
0.0
 10
59.6129
 20
94.6915
 30
0.0
 10
59.5485
 20
92.026
 30
0.0
 10
59.5485
 20
92.026
 30
0.0
 10
61.4644
 20
95.5202
 30
0.0
 10
69.0544
 20
105.0742
 30
0.0
 10
81.6385
 20
101.0902
 30
0.0
 10
81.6385
 20
101.0902
 30
0.0
 10
78.3166
 20
110.822
 30
0.0
 10
84.4924
 20
117.1573
 30
0.0
 10
90.7362
 20
117.3393
 30
0.0
 10
90.7362
 20
117.3393
 30
0.0
 10
91.1413
 20
120.4947
 30
0.0
 10
93.1825
 20
122.4762
 30
0.0
 10
95.5398
 20
123.5874
 30
0.0
 10
95.5398
 20
123.5874
 30
0.0
 10
95.5398
 20
123.5874
 30
0.0
 10
69.0221
 20
123.5874
 30
0.0
 10
69.0221
 20
123.5874
 30
0.0
  0
SPLINE
  5
61
330
1F
100
AcDbEntity
  8
layer 1
 62
     7
100
AcDbSpline
210
0.0
220
0.0
230
1.0
 70
    11
 71
     3
 72
    44
 73
    40
 74
     0
 42
0.0000000001
 43
0.0000000001
 12
1.0
 22
0.0
 32
0.0
 13
1.0
 23
0.0
 33
0.0
 40
0.0
 40
0.0
 40
0.0
 40
0.0
 40
0.0909090909090909
 40
0.0909090909090909
 40
0.0909090909090909
 40
0.0909090909090909
 40
0.1818181818181818
 40
0.1818181818181818
 40
0.1818181818181818
 40
0.1818181818181818
 40
0.2727272727272727
 40
0.2727272727272727
 40
0.2727272727272727
 40
0.2727272727272727
 40
0.3636363636363636
 40
0.3636363636363636
 40
0.3636363636363636
 40
0.3636363636363636
 40
0.4545454545454545
 40
0.4545454545454545
 40
0.4545454545454545
 40
0.4545454545454545
 40
0.5454545454545454
 40
0.5454545454545454
 40
0.5454545454545454
 40
0.5454545454545454
 40
0.6363636363636364
 40
0.6363636363636364
 40
0.6363636363636364
 40
0.6363636363636364
 40
0.7272727272727273
 40
0.7272727272727273
 40
0.7272727272727273
 40
0.7272727272727273
 40
0.8181818181818182
 40
0.8181818181818182
 40
0.8181818181818182
 40
0.8181818181818182
 40
1.0
 40
1.0
 40
1.0
 40
1.0
 10
32.1055
 20
123.5874
 30
0.0
 10
37.1587
 20
122.6295
 30
0.0
 10
40.0798
 20
121.6106
 30
0.0
 10
41.5772
 20
120.0627
 30
0.0
 10
41.5772
 20
120.0627
 30
0.0
 10
43.234
 20
120.4113
 30
0.0
 10
44.737
 20
121.0006
 30
0.0
 10
47.6673
 20
120.6782
 30
0.0
 10
47.6673
 20
120.6782
 30
0.0
 10
48.9923
 20
111.768
 30
0.0
 10
55.9587
 20
108.7679
 30
0.0
 10
63.1513
 20
110.6334
 30
0.0
 10
63.1513
 20
110.6334
 30
0.0
 10
64.508
 20
109.7308
 30
0.0
 10
65.1862
 20
107.283
 30
0.0
 10
65.0917
 20
106.1736
 30
0.0
 10
65.0917
 20
106.1736
 30
0.0
 10
70.2957
 20
105.9683
 30
0.0
 10
73.5872
 20
113.2189
 30
0.0
 10
68.2888
 20
116.3873
 30
0.0
 10
68.2888
 20
116.3873
 30
0.0
 10
68.687
 20
115.0267
 30
0.0
 10
68.529
 20
113.5551
 30
0.0
 10
67.5805
 20
113.0264
 30
0.0
 10
67.5805
 20
113.0264
 30
0.0
 10
61.2435
 20
110.5522
 30
0.0
 10
60.712
 20
115.8272
 30
0.0
 10
60.712
 20
115.8272
 30
0.0
 10
60.712
 20
115.8272
 30
0.0
 10
58.2743
 20
114.4326
 30
0.0
 10
52.5866
 20
115.8309
 30
0.0
 10
51.7567
 20
118.7393
 30
0.0
 10
51.7567
 20
118.7393
 30
0.0
 10
57.5409
 20
119.0209
 30
0.0
 10
58.7716
 20
122.8447
 30
0.0
 10
65.4761
 20
123.5873
 30
0.0
 10
65.4761
 20
123.5873
 30
0.0
 10
65.4761
 20
123.5873
 30
0.0
 10
32.1055
 20
123.5874
 30
0.0
 10
32.1055
 20
123.5874
 30
0.0
  0
SPLINE
  5
62
330
1F
100
AcDbEntity
  8
layer 1
 62
     7
100
AcDbSpline
210
0.0
220
0.0
230
1.0
 70
    11
 71
     3
 72
    16
 73
    12
 74
     0
 42
0.0000000001
 43
0.0000000001
 12
1.0
 22
0.0
 32
0.0
 13
1.0
 23
0.0
 33
0.0
 40
0.0
 40
0.0
 40
0.0
 40
0.0
 40
0.25
 40
0.25
 40
0.25
 40
0.25
 40
0.5
 40
0.5
 40
0.5
 40
0.5
 40
1.0
 40
1.0
 40
1.0
 40
1.0
 10
5.4185
 20
123.5874
 30
0.0
 10
9.8998
 20
122.5245
 30
0.0
 10
11.9358
 20
120.2422
 30
0.0
 10
12.6066
 20
117.4772
 30
0.0
 10
12.6066
 20
117.4772
 30
0.0
 10
17.4912
 20
121.206
 30
0.0
 10
21.7212
 20
122.9315
 30
0.0
 10
29.4536
 20
123.5874
 30
0.0
 10
29.4536
 20
123.5874
 30
0.0
 10
22.4195
 20
123.5874
 30
0.0
 10
10.4612
 20
123.5874
 30
0.0
 10
5.4185
 20
123.5874
 30
0.0
  0
SPLINE
  5
63
330
1F
100
AcDbEntity
  8
layer 1
 62
     7
100
AcDbSpline
210
0.0
220
0.0
230
1.0
 70
    11
 71
     3
 72
    16
 73
    12
 74
     0
 42
0.0000000001
 43
0.0000000001
 12
1.0
 22
0.0
 32
0.0
 13
1.0
 23
0.0
 33
0.0
 40
0.0
 40
0.0
 40
0.0
 40
0.0
 40
0.25
 40
0.25
 40
0.25
 40
0.25
 40
0.5
 40
0.5
 40
0.5
 40
0.5
 40
1.0
 40
1.0
 40
1.0
 40
1.0
 10
4.2004
 20
97.3563
 30
0.0
 10
4.7174
 20
105.9315
 30
0.0
 10
5.3623
 20
106.2518
 30
0.0
 10
6.3725
 20
109.3791
 30
0.0
 10
6.3725
 20
109.3791
 30
0.0
 10
6.6579
 20
114.5416
 30
0.0
 10
6.0828
 20
117.4843
 30
0.0
 10
4.2004
 20
121.3915
 30
0.0
 10
4.2004
 20
121.3915
 30
0.0
 10
4.2004
 20
121.3915
 30
0.0
 10
4.2004
 20
97.3563
 30
0.0
 10
4.2004
 20
97.3563
 30
0.0
  0
SPLINE
  5
64
330
1F
100
AcDbEntity
  8
layer 1
 62
     7
100
AcDbSpline
210
0.0
220
0.0
230
1.0
 70
    11
 71
     3
 72
    36
 73
    32
 74
     0
 42
0.0000000001
 43
0.0000000001
 12
1.0
 22
0.0
 32
0.0
 13
1.0
 23
0.0
 33
0.0
 40
0.0
 40
0.0
 40
0.0
 40
0.0
 40
0.1111111111111111
 40
0.1111111111111111
 40
0.1111111111111111
 40
0.1111111111111111
 40
0.2222222222222222
 40
0.2222222222222222
 40
0.2222222222222222
 40
0.2222222222222222
 40
0.3333333333333333
 40
0.3333333333333333
 40
0.3333333333333333
 40
0.3333333333333333
 40
0.4444444444444444
 40
0.4444444444444444
 40
0.4444444444444444
 40
0.4444444444444444
 40
0.5555555555555556
 40
0.5555555555555556
 40
0.5555555555555556
 40
0.5555555555555556
 40
0.6666666666666666
 40
0.6666666666666666
 40
0.6666666666666666
 40
0.6666666666666666
 40
0.7777777777777778
 40
0.7777777777777778
 40
0.7777777777777778
 40
0.7777777777777778
 40
1.0
 40
1.0
 40
1.0
 40
1.0
 10
109.7958
 20
-39.3627
 30
0.0
 10
129.1992
 20
-33.6026
 30
0.0
 10
139.9498
 20
-19.3105
 30
0.0
 10
144.105
 20
-4.3526
 30
0.0
 10
144.105
 20
-4.3526
 30
0.0
 10
143.1855
 20
-4.0905
 30
0.0
 10
141.7819
 20
-4.2517
 30
0.0
 10
140.9231
 20
-4.7157
 30
0.0
 10
140.9231
 20
-4.7157
 30
0.0
 10
143.2931
 20
-11.4649
 30
0.0
 10
138.3416
 20
-18.8795
 30
0.0
 10
131.9983
 20
-18.7909
 30
0.0
 10
131.9983
 20
-18.7909
 30
0.0
 10
131.8857
 20
-20.5717
 30
0.0
 10
131.7124
 20
-22.8365
 30
0.0
 10
130.8132
 20
-25.2223
 30
0.0
 10
130.8132
 20
-25.2223
 30
0.0
 10
128.1398
 20
-26.1526
 30
0.0
 10
126.1924
 20
-26.2359
 30
0.0
 10
124.3662
 20
-26.3797
 30
0.0
 10
124.3662
 20
-26.3797
 30
0.0
 10
123.9553
 20
-33.2084
 30
0.0
 10
118.3403
 20
-37.6773
 30
0.0
 10
109.942
 20
-35.7927
 30
0.0
 10
109.942
 20
-35.7927
 30
0.0
 10
109.9738
 20
-36.7204
 30
0.0
 10
109.9452
 20
-38.0718
 30
0.0
 10
109.7957
 20
-39.3626
 30
0.0
 10
109.7957
 20
-39.3626
 30
0.0
 10
109.7957
 20
-39.3626
 30
0.0
 10
109.7958
 20
-39.3627
 30
0.0
 10
109.7958
 20
-39.3627
 30
0.0
  0
SPLINE
  5
65
330
1F
100
AcDbEntity
  8
layer 1
 62
     7
100
AcDbSpline
210
0.0
220
0.0
230
1.0
 70
    11
 71
     3
 72
    16
 73
    12
 74
     0
 42
0.0000000001
 43
0.0000000001
 12
1.0
 22
0.0
 32
0.0
 13
1.0
 23
0.0
 33
0.0
 40
0.0
 40
0.0
 40
0.0
 40
0.0
 40
0.25
 40
0.25
 40
0.25
 40
0.25
 40
0.5
 40
0.5
 40
0.5
 40
0.5
 40
1.0
 40
1.0
 40
1.0
 40
1.0
 10
4.2004
 20
61.0258
 30
0.0
 10
4.7174
 20
69.601
 30
0.0
 10
5.117
 20
72.3567
 30
0.0
 10
8.3607
 20
78.0191
 30
0.0
 10
8.3607
 20
78.0191
 30
0.0
 10
6.0253
 20
81.1935
 30
0.0
 10
5.3546
 20
83.3228
 30
0.0
 10
4.2004
 20
90.3025
 30
0.0
 10
4.2004
 20
90.3025
 30
0.0
 10
4.2004
 20
90.3025
 30
0.0
 10
4.2004
 20
61.0258
 30
0.0
 10
4.2004
 20
61.0258
 30
0.0
  0
SPLINE
  5
66
330
1F
100
AcDbEntity
  8
layer 1
 62
     7
100
AcDbSpline
210
0.0
220
0.0
230
1.0
 70
    11
 71
     3
 72
   116
 73
   112
 74
     0
 42
0.0000000001
 43
0.0000000001
 12
1.0
 22
0.0
 32
0.0
 13
1.0
 23
0.0
 33
0.0
 40
0.0
 40
0.0
 40
0.0
 40
0.0
 40
0.0344827586206897
 40
0.0344827586206897
 40
0.0344827586206897
 40
0.0344827586206897
 40
0.0689655172413793
 40
0.0689655172413793
 40
0.0689655172413793
 40
0.0689655172413793
 40
0.103448275862069
 40
0.103448275862069
 40
0.103448275862069
 40
0.103448275862069
 40
0.1379310344827586
 40
0.1379310344827586
 40
0.1379310344827586
 40
0.1379310344827586
 40
0.1724137931034483
 40
0.1724137931034483
 40
0.1724137931034483
 40
0.1724137931034483
 40
0.2068965517241379
 40
0.2068965517241379
 40
0.2068965517241379
 40
0.2068965517241379
 40
0.2413793103448276
 40
0.2413793103448276
 40
0.2413793103448276
 40
0.2413793103448276
 40
0.2758620689655172
 40
0.2758620689655172
 40
0.2758620689655172
 40
0.2758620689655172
 40
0.3103448275862069
 40
0.3103448275862069
 40
0.3103448275862069
 40
0.3103448275862069
 40
0.3448275862068966
 40
0.3448275862068966
 40
0.3448275862068966
 40
0.3448275862068966
 40
0.3793103448275862
 40
0.3793103448275862
 40
0.3793103448275862
 40
0.3793103448275862
 40
0.4137931034482759
 40
0.4137931034482759
 40
0.4137931034482759
 40
0.4137931034482759
 40
0.4482758620689655
 40
0.4482758620689655
 40
0.4482758620689655
 40
0.4482758620689655
 40
0.4827586206896552
 40
0.4827586206896552
 40
0.4827586206896552
 40
0.4827586206896552
 40
0.5172413793103449
 40
0.5172413793103449
 40
0.5172413793103449
 40
0.5172413793103449
 40
0.5517241379310345
 40
0.5517241379310345
 40
0.5517241379310345
 40
0.5517241379310345
 40
0.5862068965517241
 40
0.5862068965517241
 40
0.5862068965517241
 40
0.5862068965517241
 40
0.6206896551724138
 40
0.6206896551724138
 40
0.6206896551724138
 40
0.6206896551724138
 40
0.6551724137931034
 40
0.6551724137931034
 40
0.6551724137931034
 40
0.6551724137931034
 40
0.6896551724137931
 40
0.6896551724137931
 40
0.6896551724137931
 40
0.6896551724137931
 40
0.7241379310344828
 40
0.7241379310344828
 40
0.7241379310344828
 40
0.7241379310344828
 40
0.7586206896551724
 40
0.7586206896551724
 40
0.7586206896551724
 40
0.7586206896551724
 40
0.7931034482758621
 40
0.7931034482758621
 40
0.7931034482758621
 40
0.7931034482758621
 40
0.8275862068965517
 40
0.8275862068965517
 40
0.8275862068965517
 40
0.8275862068965517
 40
0.8620689655172413
 40
0.8620689655172413
 40
0.8620689655172413
 40
0.8620689655172413
 40
0.896551724137931
 40
0.896551724137931
 40
0.896551724137931
 40
0.896551724137931
 40
0.9310344827586207
 40
0.9310344827586207
 40
0.9310344827586207
 40
0.9310344827586207
 40
1.0
 40
1.0
 40
1.0
 40
1.0
 10
109.7113
 20
0.3794
 30
0.0
 10
115.2413
 20
0.2632
 30
0.0
 10
124.6079
 20
0.9537
 30
0.0
 10
129.62
 20
-0.3979
 30
0.0
 10
129.62
 20
-0.3979
 30
0.0
 10
135.0747
 20
-1.8689
 30
0.0
 10
137.8677
 20
-8.8747
 30
0.0
 10
133.2769
 20
-10.7354
 30
0.0
 10
133.2769
 20
-10.7354
 30
0.0
 10
133.0022
 20
-8.1231
 30
0.0
 10
128.4226
 20
-3.5567
 30
0.0
 10
124.0941
 20
-10.9892
 30
0.0
 10
124.0941
 20
-10.9892
 30
0.0
 10
124.0629
 20
-11.0509
 30
0.0
 10
124.0291
 20
-11.111
 30
0.0
 10
123.9928
 20
-11.1695
 30
0.0
 10
123.9928
 20
-11.1695
 30
0.0
 10
123.5786
 20
-11.8368
 30
0.0
 10
122.8392
 20
-12.281
 30
0.0
 10
121.996
 20
-12.281
 30
0.0
 10
121.996
 20
-12.281
 30
0.0
 10
120.6992
 20
-12.281
 30
0.0
 10
119.6477
 20
-11.2297
 30
0.0
 10
119.6477
 20
-9.9326
 30
0.0
 10
119.6477
 20
-9.9326
 30
0.0
 10
119.6477
 20
-8.6358
 30
0.0
 10
120.6992
 20
-7.5843
 30
0.0
 10
121.996
 20
-7.5843
 30
0.0
 10
121.996
 20
-7.5843
 30
0.0
 10
123.2931
 20
-7.5843
 30
0.0
 10
124.1452
 20
-8.6204
 30
0.0
 10
124.1452
 20
-9.9173
 30
0.0
 10
124.1452
 20
-9.9173
 30
0.0
 10
126.5576
 20
-6.7542
 30
0.0
 10
122.7349
 20
-4.4266
 30
0.0
 10
120.8104
 20
-4.9308
 30
0.0
 10
120.8104
 20
-4.9308
 30
0.0
 10
120.7901
 20
-3.5073
 30
0.0
 10
120.7094
 20
-2.7491
 30
0.0
 10
120.0843
 20
-1.628
 30
0.0
 10
120.0843
 20
-1.628
 30
0.0
 10
118.0963
 20
-2.281
 30
0.0
 10
116.8951
 20
-2.5107
 30
0.0
 10
115.149
 20
-3.8898
 30
0.0
 10
115.149
 20
-3.8898
 30
0.0
 10
115.0794
 20
-2.1354
 30
0.0
 10
113.6909
 20
-1.1654
 30
0.0
 10
112.2286
 20
-1.2913
 30
0.0
 10
112.2286
 20
-1.2913
 30
0.0
 10
110.674
 20
-1.4251
 30
0.0
 10
109.0125
 20
-2.7107
 30
0.0
 10
107.9408
 20
-2.5915
 30
0.0
 10
107.9408
 20
-2.5915
 30
0.0
 10
108.0598
 20
-3.6634
 30
0.0
 10
106.7742
 20
-5.3249
 30
0.0
 10
106.6404
 20
-6.8795
 30
0.0
 10
106.6404
 20
-6.8795
 30
0.0
 10
106.5146
 20
-8.3418
 30
0.0
 10
107.4845
 20
-9.7303
 30
0.0
 10
109.2391
 20
-9.7999
 30
0.0
 10
109.2391
 20
-9.7999
 30
0.0
 10
107.8599
 20
-11.5458
 30
0.0
 10
107.6303
 20
-12.7473
 30
0.0
 10
106.9772
 20
-14.735
 30
0.0
 10
106.9772
 20
-14.735
 30
0.0
 10
108.0982
 20
-15.3604
 30
0.0
 10
108.8563
 20
-15.4411
 30
0.0
 10
110.2801
 20
-15.4612
 30
0.0
 10
110.2801
 20
-15.4612
 30
0.0
 10
109.7759
 20
-17.3858
 30
0.0
 10
112.1033
 20
-21.2085
 30
0.0
 10
115.2666
 20
-18.7961
 30
0.0
 10
115.2666
 20
-18.7961
 30
0.0
 10
113.9694
 20
-18.7961
 30
0.0
 10
112.9334
 20
-17.9439
 30
0.0
 10
112.9334
 20
-16.647
 30
0.0
 10
112.9334
 20
-16.647
 30
0.0
 10
112.9334
 20
-15.3499
 30
0.0
 10
113.9849
 20
-14.2986
 30
0.0
 10
115.2819
 20
-14.2986
 30
0.0
 10
115.2819
 20
-14.2986
 30
0.0
 10
116.5788
 20
-14.2986
 30
0.0
 10
117.6303
 20
-15.3499
 30
0.0
 10
117.6303
 20
-16.647
 30
0.0
 10
117.6303
 20
-16.647
 30
0.0
 10
117.6303
 20
-17.4901
 30
0.0
 10
117.1859
 20
-18.2296
 30
0.0
 10
116.5185
 20
-18.6438
 30
0.0
 10
116.5185
 20
-18.6438
 30
0.0
 10
116.4601
 20
-18.68
 30
0.0
 10
116.4001
 20
-18.7137
 30
0.0
 10
116.3385
 20
-18.7448
 30
0.0
 10
116.3385
 20
-18.7448
 30
0.0
 10
108.9059
 20
-23.0736
 30
0.0
 10
113.4725
 20
-27.6531
 30
0.0
 10
116.0845
 20
-27.9276
 30
0.0
 10
116.0845
 20
-27.9276
 30
0.0
 10
114.2237
 20
-32.5183
 30
0.0
 10
107.2182
 20
-29.7254
 30
0.0
 10
105.7472
 20
-24.2707
 30
0.0
 10
105.7472
 20
-24.2707
 30
0.0
 10
104.3954
 20
-19.2588
 30
0.0
 10
105.0861
 20
-9.8922
 30
0.0
 10
104.9699
 20
-4.3622
 30
0.0
 10
104.9699
 20
-4.3622
 30
0.0
 10
106.9946
 20
-2.9712
 30
0.0
 10
108.5117
 20
-1.3619
 30
0.0
 10
109.7114
 20
0.3795
 30
0.0
 10
109.7114
 20
0.3795
 30
0.0
 10
109.7114
 20
0.3795
 30
0.0
 10
109.7113
 20
0.3794
 30
0.0
 10
109.7113
 20
0.3794
 30
0.0
  0
SPLINE
  5
67
330
1F
100
AcDbEntity
  8
layer 1
 62
     7
100
AcDbSpline
210
0.0
220
0.0
230
1.0
 70
    11
 71
     3
 72
    24
 73
    20
 74
     0
 42
0.0000000001
 43
0.0000000001
 12
1.0
 22
0.0
 32
0.0
 13
1.0
 23
0.0
 33
0.0
 40
0.0
 40
0.0
 40
0.0
 40
0.0
 40
0.1666666666666667
 40
0.1666666666666667
 40
0.1666666666666667
 40
0.1666666666666667
 40
0.3333333333333333
 40
0.3333333333333333
 40
0.3333333333333333
 40
0.3333333333333333
 40
0.5
 40
0.5
 40
0.5
 40
0.5
 40
0.6666666666666666
 40
0.6666666666666666
 40
0.6666666666666666
 40
0.6666666666666666
 40
1.0
 40
1.0
 40
1.0
 40
1.0
 10
158.9017
 20
-86.5367
 30
0.0
 10
153.607
 20
-82.5809
 30
0.0
 10
157.5826
 20
-76.7278
 30
0.0
 10
161.3414
 20
-77.7597
 30
0.0
 10
161.3414
 20
-77.7597
 30
0.0
 10
159.6691
 20
-73.0973
 30
0.0
 10
152.7922
 20
-73.2059
 30
0.0
 10
149.1685
 20
-78.2477
 30
0.0
 10
149.1685
 20
-78.2477
 30
0.0
 10
145.771
 20
-84.3177
 30
0.0
 10
146.8735
 20
-89.954
 30
0.0
 10
149.8732
 20
-94.5061
 30
0.0
 10
149.8732
 20
-94.5061
 30
0.0
 10
149.0879
 20
-89.7895
 30
0.0
 10
153.9948
 20
-85.2898
 30
0.0
 10
158.9019
 20
-86.5367
 30
0.0
 10
158.9019
 20
-86.5367
 30
0.0
 10
158.9019
 20
-86.5367
 30
0.0
 10
158.9017
 20
-86.5367
 30
0.0
 10
158.9017
 20
-86.5367
 30
0.0
  0
SPLINE
  5
68
330
1F
100
AcDbEntity
  8
layer 1
 62
     7
100
AcDbSpline
210
0.0
220
0.0
230
1.0
 70
    11
 71
     3
 72
    48
 73
    44
 74
     0
 42
0.0000000001
 43
0.0000000001
 12
1.0
 22
0.0
 32
0.0
 13
1.0
 23
0.0
 33
0.0
 40
0.0
 40
0.0
 40
0.0
 40
0.0
 40
0.0833333333333333
 40
0.0833333333333333
 40
0.0833333333333333
 40
0.0833333333333333
 40
0.1666666666666667
 40
0.1666666666666667
 40
0.1666666666666667
 40
0.1666666666666667
 40
0.25
 40
0.25
 40
0.25
 40
0.25
 40
0.3333333333333333
 40
0.3333333333333333
 40
0.3333333333333333
 40
0.3333333333333333
 40
0.4166666666666667
 40
0.4166666666666667
 40
0.4166666666666667
 40
0.4166666666666667
 40
0.5
 40
0.5
 40
0.5
 40
0.5
 40
0.5833333333333334
 40
0.5833333333333334
 40
0.5833333333333334
 40
0.5833333333333334
 40
0.6666666666666666
 40
0.6666666666666666
 40
0.6666666666666666
 40
0.6666666666666666
 40
0.75
 40
0.75
 40
0.75
 40
0.75
 40
0.8333333333333334
 40
0.8333333333333334
 40
0.8333333333333334
 40
0.8333333333333334
 40
1.0
 40
1.0
 40
1.0
 40
1.0
 10
177.6997
 20
-37.3825
 30
0.0
 10
177.6997
 20
-34.4546
 30
0.0
 10
175.3261
 20
-32.0809
 30
0.0
 10
172.3982
 20
-32.0809
 30
0.0
 10
172.3982
 20
-32.0809
 30
0.0
 10
168.3187
 20
-32.3143
 30
0.0
 10
166.886
 20
-34.5852
 30
0.0
 10
165.195
 20
-37.5988
 30
0.0
 10
165.195
 20
-37.5988
 30
0.0
 10
166.3801
 20
-38.5809
 30
0.0
 10
167.8855
 20
-39.9677
 30
0.0
 10
169.0398
 20
-41.9149
 30
0.0
 10
169.0398
 20
-41.9149
 30
0.0
 10
166.6615
 20
-45.7306
 30
0.0
 10
167.8679
 20
-50.6056
 30
0.0
 10
171.4647
 20
-55.5618
 30
0.0
 10
171.4647
 20
-55.5618
 30
0.0
 10
176.2944
 20
-55.3071
 30
0.0
 10
179.2931
 20
-57.6708
 30
0.0
 10
183.1004
 20
-60.3766
 30
0.0
 10
183.1004
 20
-60.3766
 30
0.0
 10
180.6828
 20
-57.8047
 30
0.0
 10
178.5896
 20
-54.8002
 30
0.0
 10
179.3303
 20
-51.1976
 30
0.0
 10
179.3303
 20
-51.1976
 30
0.0
 10
178.0009
 20
-50.9267
 30
0.0
 10
176.9753
 20
-50.4445
 30
0.0
 10
175.9919
 20
-49.8512
 30
0.0
 10
175.9919
 20
-49.8512
 30
0.0
 10
176.0034
 20
-48.7224
 30
0.0
 10
176.4288
 20
-47.7636
 30
0.0
 10
176.6972
 20
-46.8687
 30
0.0
 10
176.6972
 20
-46.8687
 30
0.0
 10
172.8045
 20
-46.156
 30
0.0
 10
171.6863
 20
-44.2312
 30
0.0
 10
172.201
 20
-42.73
 30
0.0
 10
172.201
 20
-42.73
 30
0.0
 10
175.3261
 20
-42.684
 30
0.0
 10
177.6997
 20
-40.3105
 30
0.0
 10
177.6997
 20
-37.3826
 30
0.0
 10
177.6997
 20
-37.3826
 30
0.0
 10
177.6997
 20
-37.3826
 30
0.0
 10
177.6997
 20
-37.3825
 30
0.0
 10
177.6997
 20
-37.3825
 30
0.0
  0
SPLINE
  5
69
330
1F
100
AcDbEntity
  8
layer 1
 62
     7
100
AcDbSpline
210
0.0
220
0.0
230
1.0
 70
    11
 71
     3
 72
    48
 73
    44
 74
     0
 42
0.0000000001
 43
0.0000000001
 12
1.0
 22
0.0
 32
0.0
 13
1.0
 23
0.0
 33
0.0
 40
0.0
 40
0.0
 40
0.0
 40
0.0
 40
0.0833333333333333
 40
0.0833333333333333
 40
0.0833333333333333
 40
0.0833333333333333
 40
0.1666666666666667
 40
0.1666666666666667
 40
0.1666666666666667
 40
0.1666666666666667
 40
0.25
 40
0.25
 40
0.25
 40
0.25
 40
0.3333333333333333
 40
0.3333333333333333
 40
0.3333333333333333
 40
0.3333333333333333
 40
0.4166666666666667
 40
0.4166666666666667
 40
0.4166666666666667
 40
0.4166666666666667
 40
0.5
 40
0.5
 40
0.5
 40
0.5
 40
0.5833333333333334
 40
0.5833333333333334
 40
0.5833333333333334
 40
0.5833333333333334
 40
0.6666666666666666
 40
0.6666666666666666
 40
0.6666666666666666
 40
0.6666666666666666
 40
0.75
 40
0.75
 40
0.75
 40
0.75
 40
0.8333333333333334
 40
0.8333333333333334
 40
0.8333333333333334
 40
0.8333333333333334
 40
1.0
 40
1.0
 40
1.0
 40
1.0
 10
165.7393
 20
-95.5478
 30
0.0
 10
164.4456
 20
-97.3857
 30
0.0
 10
163.3223
 20
-98.9791
 30
0.0
 10
162.9604
 20
-99.8924
 30
0.0
 10
162.9604
 20
-99.8924
 30
0.0
 10
156.5322
 20
-96.9191
 30
0.0
 10
156.3175
 20
-90.7339
 30
0.0
 10
160.3673
 20
-87.068
 30
0.0
 10
160.3673
 20
-87.068
 30
0.0
 10
168.6852
 20
-90.0001
 30
0.0
 10
175.7142
 20
-79.7411
 30
0.0
 10
168.5179
 20
-69.7042
 30
0.0
 10
168.5179
 20
-69.7042
 30
0.0
 10
172.3155
 20
-71.586
 30
0.0
 10
175.3053
 20
-67.3199
 30
0.0
 10
173.7264
 20
-64.2775
 30
0.0
 10
173.7264
 20
-64.2775
 30
0.0
 10
178.1645
 20
-63.7492
 30
0.0
 10
182.2804
 20
-67.482
 30
0.0
 10
184.492
 20
-72.5536
 30
0.0
 10
184.492
 20
-72.5536
 30
0.0
 10
182.294
 20
-70.8154
 30
0.0
 10
181.025
 20
-69.8231
 30
0.0
 10
179.6347
 20
-68.946
 30
0.0
 10
179.6347
 20
-68.946
 30
0.0
 10
178.6533
 20
-69.9562
 30
0.0
 10
176.4534
 20
-73.0046
 30
0.0
 10
175.3831
 20
-75.642
 30
0.0
 10
175.3831
 20
-75.642
 30
0.0
 10
177.2647
 20
-76.4229
 30
0.0
 10
180.1256
 20
-78.9909
 30
0.0
 10
180.9595
 20
-80.799
 30
0.0
 10
180.9595
 20
-80.799
 30
0.0
 10
179.9808
 20
-81.4248
 30
0.0
 10
179.1699
 20
-81.9192
 30
0.0
 10
178.5305
 20
-82.9396
 30
0.0
 10
178.5305
 20
-82.9396
 30
0.0
 10
183.4591
 20
-90.5072
 30
0.0
 10
175.6121
 20
-102.2317
 30
0.0
 10
165.7392
 20
-95.5478
 30
0.0
 10
165.7392
 20
-95.5478
 30
0.0
 10
165.7392
 20
-95.5478
 30
0.0
 10
165.7393
 20
-95.5478
 30
0.0
 10
165.7393
 20
-95.5478
 30
0.0
  0
SPLINE
  5
6A
330
1F
100
AcDbEntity
  8
layer 1
 62
     7
100
AcDbSpline
210
0.0
220
0.0
230
1.0
 70
    11
 71
     3
 72
    44
 73
    40
 74
     0
 42
0.0000000001
 43
0.0000000001
 12
1.0
 22
0.0
 32
0.0
 13
1.0
 23
0.0
 33
0.0
 40
0.0
 40
0.0
 40
0.0
 40
0.0
 40
0.0909090909090909
 40
0.0909090909090909
 40
0.0909090909090909
 40
0.0909090909090909
 40
0.1818181818181818
 40
0.1818181818181818
 40
0.1818181818181818
 40
0.1818181818181818
 40
0.2727272727272727
 40
0.2727272727272727
 40
0.2727272727272727
 40
0.2727272727272727
 40
0.3636363636363636
 40
0.3636363636363636
 40
0.3636363636363636
 40
0.3636363636363636
 40
0.4545454545454545
 40
0.4545454545454545
 40
0.4545454545454545
 40
0.4545454545454545
 40
0.5454545454545454
 40
0.5454545454545454
 40
0.5454545454545454
 40
0.5454545454545454
 40
0.6363636363636364
 40
0.6363636363636364
 40
0.6363636363636364
 40
0.6363636363636364
 40
0.7272727272727273
 40
0.7272727272727273
 40
0.7272727272727273
 40
0.7272727272727273
 40
0.8181818181818182
 40
0.8181818181818182
 40
0.8181818181818182
 40
0.8181818181818182
 40
1.0
 40
1.0
 40
1.0
 40
1.0
 10
170.3996
 20
-4.4184
 30
0.0
 10
169.6011
 20
-3.8858
 30
0.0
 10
168.8244
 20
-2.4818
 30
0.0
 10
168.6341
 20
-1.4551
 30
0.0
 10
168.6341
 20
-1.4551
 30
0.0
 10
167.5773
 20
-2.2587
 30
0.0
 10
166.3157
 20
-4.8718
 30
0.0
 10
167.4762
 20
-6.6306
 30
0.0
 10
167.4762
 20
-6.6306
 30
0.0
 10
172.1974
 20
-1.9668
 30
0.0
 10
179.0066
 20
-13.277
 30
0.0
 10
170.1234
 20
-14.996
 30
0.0
 10
170.1234
 20
-14.996
 30
0.0
 10
170.3686
 20
-15.789
 30
0.0
 10
170.8336
 20
-17.1851
 30
0.0
 10
171.0084
 20
-18.2062
 30
0.0
 10
171.0084
 20
-18.2062
 30
0.0
 10
170.249
 20
-18.6931
 30
0.0
 10
168.775
 20
-19.3403
 30
0.0
 10
167.4169
 20
-19.8846
 30
0.0
 10
167.4169
 20
-19.8846
 30
0.0
 10
167.378
 20
-21.3292
 30
0.0
 10
167.1262
 20
-24.2885
 30
0.0
 10
164.1601
 20
-27.7577
 30
0.0
 10
164.1601
 20
-27.7577
 30
0.0
 10
166.5947
 20
-25.2056
 30
0.0
 10
170.1887
 20
-23.8678
 30
0.0
 10
174.338
 20
-24.187
 30
0.0
 10
174.338
 20
-24.187
 30
0.0
 10
177.2338
 20
-21.6493
 30
0.0
 10
179.9373
 20
-17.3471
 30
0.0
 10
180.2993
 20
-12.7316
 30
0.0
 10
180.2993
 20
-12.7316
 30
0.0
 10
180.4018
 20
-8.8074
 30
0.0
 10
176.8275
 20
-1.3668
 30
0.0
 10
170.3997
 20
-4.4184
 30
0.0
 10
170.3997
 20
-4.4184
 30
0.0
 10
170.3997
 20
-4.4184
 30
0.0
 10
170.3996
 20
-4.4184
 30
0.0
 10
170.3996
 20
-4.4184
 30
0.0
  0
SPLINE
  5
6B
330
1F
100
AcDbEntity
  8
layer 1
 62
     7
100
AcDbSpline
210
0.0
220
0.0
230
1.0
 70
    11
 71
     3
 72
   128
 73
   124
 74
     0
 42
0.0000000001
 43
0.0000000001
 12
1.0
 22
0.0
 32
0.0
 13
1.0
 23
0.0
 33
0.0
 40
0.0
 40
0.0
 40
0.0
 40
0.0
 40
0.03125
 40
0.03125
 40
0.03125
 40
0.03125
 40
0.0625
 40
0.0625
 40
0.0625
 40
0.0625
 40
0.09375
 40
0.09375
 40
0.09375
 40
0.09375
 40
0.125
 40
0.125
 40
0.125
 40
0.125
 40
0.15625
 40
0.15625
 40
0.15625
 40
0.15625
 40
0.1875
 40
0.1875
 40
0.1875
 40
0.1875
 40
0.21875
 40
0.21875
 40
0.21875
 40
0.21875
 40
0.25
 40
0.25
 40
0.25
 40
0.25
 40
0.28125
 40
0.28125
 40
0.28125
 40
0.28125
 40
0.3125
 40
0.3125
 40
0.3125
 40
0.3125
 40
0.34375
 40
0.34375
 40
0.34375
 40
0.34375
 40
0.375
 40
0.375
 40
0.375
 40
0.375
 40
0.40625
 40
0.40625
 40
0.40625
 40
0.40625
 40
0.4375
 40
0.4375
 40
0.4375
 40
0.4375
 40
0.46875
 40
0.46875
 40
0.46875
 40
0.46875
 40
0.5
 40
0.5
 40
0.5
 40
0.5
 40
0.53125
 40
0.53125
 40
0.53125
 40
0.53125
 40
0.5625
 40
0.5625
 40
0.5625
 40
0.5625
 40
0.59375
 40
0.59375
 40
0.59375
 40
0.59375
 40
0.625
 40
0.625
 40
0.625
 40
0.625
 40
0.65625
 40
0.65625
 40
0.65625
 40
0.65625
 40
0.6875
 40
0.6875
 40
0.6875
 40
0.6875
 40
0.71875
 40
0.71875
 40
0.71875
 40
0.71875
 40
0.75
 40
0.75
 40
0.75
 40
0.75
 40
0.78125
 40
0.78125
 40
0.78125
 40
0.78125
 40
0.8125
 40
0.8125
 40
0.8125
 40
0.8125
 40
0.84375
 40
0.84375
 40
0.84375
 40
0.84375
 40
0.875
 40
0.875
 40
0.875
 40
0.875
 40
0.90625
 40
0.90625
 40
0.90625
 40
0.90625
 40
0.9375
 40
0.9375
 40
0.9375
 40
0.9375
 40
1.0
 40
1.0
 40
1.0
 40
1.0
 10
142.6555
 20
-19.1846
 30
0.0
 10
144.0989
 20
-17.7589
 30
0.0
 10
148.4721
 20
-15.3653
 30
0.0
 10
151.283
 20
-16.6121
 30
0.0
 10
151.283
 20
-16.6121
 30
0.0
 10
151.4009
 20
-17.864
 30
0.0
 10
151.5924
 20
-18.6077
 30
0.0
 10
152.3594
 20
-19.7753
 30
0.0
 10
152.3594
 20
-19.7753
 30
0.0
 10
152.3594
 20
-19.7753
 30
0.0
 10
151.5555
 20
-20.4193
 30
0.0
 10
151.8438
 20
-21.4629
 30
0.0
 10
151.8438
 20
-21.4629
 30
0.0
 10
152.4924
 20
-21.4511
 30
0.0
 10
153.5037
 20
-21.6291
 30
0.0
 10
153.5781
 20
-22.0949
 30
0.0
 10
153.5781
 20
-22.0949
 30
0.0
 10
153.7915
 20
-23.4328
 30
0.0
 10
152.8257
 20
-25.3914
 30
0.0
 10
152.1294
 20
-26.5703
 30
0.0
 10
152.1294
 20
-26.5703
 30
0.0
 10
152.7715
 20
-27.4204
 30
0.0
 10
153.5262
 20
-28.239
 30
0.0
 10
153.775
 20
-29.0089
 30
0.0
 10
153.775
 20
-29.0089
 30
0.0
 10
144.8748
 20
-30.6996
 30
0.0
 10
150.1649
 20
-42.8683
 30
0.0
 10
153.5939
 20
-45.5727
 30
0.0
 10
153.5939
 20
-45.5727
 30
0.0
 10
153.564
 20
-43.8712
 30
0.0
 10
153.4926
 20
-43.228
 30
0.0
 10
153.8177
 20
-41.2475
 30
0.0
 10
153.8177
 20
-41.2475
 30
0.0
 10
155.4621
 20
-40.2794
 30
0.0
 10
156.3325
 20
-39.8161
 30
0.0
 10
158.1915
 20
-39.358
 30
0.0
 10
158.1915
 20
-39.358
 30
0.0
 10
158.1013
 20
-36.1885
 30
0.0
 10
161.078
 20
-30.9235
 30
0.0
 10
163.0393
 20
-28.7178
 30
0.0
 10
163.0393
 20
-28.7178
 30
0.0
 10
161.8952
 20
-29.6025
 30
0.0
 10
160.7274
 20
-30.0694
 30
0.0
 10
159.238
 20
-30.0547
 30
0.0
 10
159.238
 20
-30.0547
 30
0.0
 10
160.6099
 20
-25.3138
 30
0.0
 10
152.0464
 20
-13.2471
 30
0.0
 10
158.6684
 20
-3.1731
 30
0.0
 10
158.6684
 20
-3.1731
 30
0.0
 10
159.5412
 20
-0.3771
 30
0.0
 10
160.0754
 20
1.1263
 30
0.0
 10
161.4014
 20
2.3846
 30
0.0
 10
161.4014
 20
2.3846
 30
0.0
 10
160.603
 20
2.9174
 30
0.0
 10
155.3938
 20
7.0976
 30
0.0
 10
155.2032
 20
8.124
 30
0.0
 10
155.2032
 20
8.124
 30
0.0
 10
155.3937
 20
9.1506
 30
0.0
 10
160.603
 20
13.3308
 30
0.0
 10
161.4014
 20
13.8635
 30
0.0
 10
161.4014
 20
13.8635
 30
0.0
 10
160.0754
 20
15.1219
 30
0.0
 10
159.5412
 20
16.625
 30
0.0
 10
158.6684
 20
19.4211
 30
0.0
 10
158.6684
 20
19.4211
 30
0.0
 10
152.0464
 20
29.4952
 30
0.0
 10
160.6098
 20
41.562
 30
0.0
 10
159.238
 20
46.3029
 30
0.0
 10
159.238
 20
46.3029
 30
0.0
 10
160.7274
 20
46.3175
 30
0.0
 10
161.8952
 20
45.8506
 30
0.0
 10
163.0393
 20
44.9659
 30
0.0
 10
163.0393
 20
44.9659
 30
0.0
 10
161.0781
 20
47.1715
 30
0.0
 10
158.1013
 20
52.4366
 30
0.0
 10
158.1915
 20
55.6061
 30
0.0
 10
158.1915
 20
55.6061
 30
0.0
 10
156.3325
 20
56.0642
 30
0.0
 10
155.462
 20
56.5276
 30
0.0
 10
153.8177
 20
57.4955
 30
0.0
 10
153.8177
 20
57.4955
 30
0.0
 10
153.4926
 20
59.4762
 30
0.0
 10
153.5641
 20
60.1193
 30
0.0
 10
153.5939
 20
61.8207
 30
0.0
 10
153.5939
 20
61.8207
 30
0.0
 10
150.1649
 20
59.1164
 30
0.0
 10
144.8746
 20
46.9477
 30
0.0
 10
153.775
 20
45.257
 30
0.0
 10
153.775
 20
45.257
 30
0.0
 10
153.5262
 20
44.4871
 30
0.0
 10
152.7715
 20
43.6686
 30
0.0
 10
152.1294
 20
42.8185
 30
0.0
 10
152.1294
 20
42.8185
 30
0.0
 10
152.8257
 20
41.6396
 30
0.0
 10
153.7915
 20
39.6811
 30
0.0
 10
153.5781
 20
38.3429
 30
0.0
 10
153.5781
 20
38.3429
 30
0.0
 10
153.5037
 20
37.8772
 30
0.0
 10
152.4924
 20
37.6992
 30
0.0
 10
151.8438
 20
37.711
 30
0.0
 10
151.8438
 20
37.711
 30
0.0
 10
151.5555
 20
36.6673
 30
0.0
 10
152.3594
 20
36.0234
 30
0.0
 10
152.3594
 20
36.0234
 30
0.0
 10
152.3594
 20
36.0234
 30
0.0
 10
151.5924
 20
34.8557
 30
0.0
 10
151.4009
 20
34.1122
 30
0.0
 10
151.283
 20
32.8602
 30
0.0
 10
151.283
 20
32.8602
 30
0.0
 10
148.4721
 20
31.6135
 30
0.0
 10
144.0989
 20
34.007
 30
0.0
 10
142.6555
 20
35.4327
 30
0.0
 10
142.6555
 20
35.4327
 30
0.0
 10
145.8154
 20
29.6341
 30
0.0
 10
150.275
 20
20.3175
 30
0.0
 10
150.0414
 20
8.1239
 30
0.0
 10
150.0414
 20
8.1239
 30
0.0
 10
150.275
 20
-4.0695
 30
0.0
 10
145.8154
 20
-13.3862
 30
0.0
 10
142.6555
 20
-19.1849
 30
0.0
 10
142.6555
 20
-19.1849
 30
0.0
 10
142.6555
 20
-19.1849
 30
0.0
 10
142.6555
 20
-19.1846
 30
0.0
 10
142.6555
 20
-19.1846
 30
0.0
  0
SPLINE
  5
6C
330
1F
100
AcDbEntity
  8
layer 1
 62
     7
100
AcDbSpline
210
0.0
220
0.0
230
1.0
 70
    11
 71
     3
 72
    20
 73
    16
 74
     0
 42
0.0000000001
 43
0.0000000001
 12
1.0
 22
0.0
 32
0.0
 13
1.0
 23
0.0
 33
0.0
 40
0.0
 40
0.0
 40
0.0
 40
0.0
 40
0.2
 40
0.2
 40
0.2
 40
0.2
 40
0.4
 40
0.4
 40
0.4
 40
0.4
 40
0.6
 40
0.6
 40
0.6
 40
0.6
 40
1.0
 40
1.0
 40
1.0
 40
1.0
 10
146.9073
 20
-37.5269
 30
0.0
 10
145.0622
 20
-34.4473
 30
0.0
 10
146.5464
 20
-29.3608
 30
0.0
 10
149.2374
 20
-27.3536
 30
0.0
 10
149.2374
 20
-27.3536
 30
0.0
 10
149.3994
 20
-25.2923
 30
0.0
 10
148.245
 20
-23.6759
 30
0.0
 10
145.6339
 20
-22.8586
 30
0.0
 10
145.6339
 20
-22.8586
 30
0.0
 10
143.6137
 20
-26.2496
 30
0.0
 10
142.4314
 20
-32.8919
 30
0.0
 10
146.9072
 20
-37.5269
 30
0.0
 10
146.9072
 20
-37.5269
 30
0.0
 10
146.9072
 20
-37.5269
 30
0.0
 10
146.9073
 20
-37.5269
 30
0.0
 10
146.9073
 20
-37.5269
 30
0.0
  0
SPLINE
  5
6D
330
1F
100
AcDbEntity
  8
layer 1
 62
     7
100
AcDbSpline
210
0.0
220
0.0
230
1.0
 70
    11
 71
     3
 72
    28
 73
    24
 74
     0
 42
0.0000000001
 43
0.0000000001
 12
1.0
 22
0.0
 32
0.0
 13
1.0
 23
0.0
 33
0.0
 40
0.0
 40
0.0
 40
0.0
 40
0.0
 40
0.1428571428571428
 40
0.1428571428571428
 40
0.1428571428571428
 40
0.1428571428571428
 40
0.2857142857142857
 40
0.2857142857142857
 40
0.2857142857142857
 40
0.2857142857142857
 40
0.4285714285714285
 40
0.4285714285714285
 40
0.4285714285714285
 40
0.4285714285714285
 40
0.5714285714285714
 40
0.5714285714285714
 40
0.5714285714285714
 40
0.5714285714285714
 40
0.7142857142857143
 40
0.7142857142857143
 40
0.7142857142857143
 40
0.7142857142857143
 40
1.0
 40
1.0
 40
1.0
 40
1.0
 10
165.9574
 20
-67.7283
 30
0.0
 10
163.1055
 20
-64.8036
 30
0.0
 10
164.7446
 20
-60.3364
 30
0.0
 10
167.0483
 20
-58.5617
 30
0.0
 10
167.0483
 20
-58.5617
 30
0.0
 10
162.719
 20
-57.1973
 30
0.0
 10
159.0863
 20
-54.5742
 30
0.0
 10
155.7784
 20
-50.0397
 30
0.0
 10
155.7784
 20
-50.0397
 30
0.0
 10
156.6454
 20
-54.0271
 30
0.0
 10
156.8941
 20
-58.4214
 30
0.0
 10
154.9042
 20
-60.8381
 30
0.0
 10
154.9042
 20
-60.8381
 30
0.0
 10
158.4591
 20
-60.6622
 30
0.0
 10
160.7686
 20
-61.411
 30
0.0
 10
161.0496
 20
-61.9166
 30
0.0
 10
161.0496
 20
-61.9166
 30
0.0
 10
161.2967
 20
-62.7017
 30
0.0
 10
160.8851
 20
-64.0513
 30
0.0
 10
160.4228
 20
-64.9187
 30
0.0
 10
160.4228
 20
-64.9187
 30
0.0
 10
162.1899
 20
-65.0991
 30
0.0
 10
163.9641
 20
-65.7944
 30
0.0
 10
165.9574
 20
-67.7283
 30
0.0
  0
SPLINE
  5
6E
330
1F
100
AcDbEntity
  8
layer 1
 62
     7
100
AcDbSpline
210
0.0
220
0.0
230
1.0
 70
    11
 71
     3
 72
    20
 73
    16
 74
     0
 42
0.0000000001
 43
0.0000000001
 12
1.0
 22
0.0
 32
0.0
 13
1.0
 23
0.0
 33
0.0
 40
0.0
 40
0.0
 40
0.0
 40
0.0
 40
0.2
 40
0.2
 40
0.2
 40
0.2
 40
0.4
 40
0.4
 40
0.4
 40
0.4
 40
0.6
 40
0.6
 40
0.6
 40
0.6
 40
1.0
 40
1.0
 40
1.0
 40
1.0
 10
120.1133
 20
-40.6149
 30
0.0
 10
117.7957
 20
-43.5011
 30
0.0
 10
117.1532
 20
-49.6616
 30
0.0
 10
119.8442
 20
-51.6689
 30
0.0
 10
119.8442
 20
-51.6689
 30
0.0
 10
119.641
 20
-53.0857
 30
0.0
 10
118.5078
 20
-55.0245
 30
0.0
 10
117.0569
 20
-55.9062
 30
0.0
 10
117.0569
 20
-55.9062
 30
0.0
 10
113.2536
 20
-53.0952
 30
0.0
 10
113.5537
 20
-44.6914
 30
0.0
 10
120.1133
 20
-40.615
 30
0.0
 10
120.1133
 20
-40.615
 30
0.0
 10
120.1133
 20
-40.615
 30
0.0
 10
120.1133
 20
-40.6149
 30
0.0
 10
120.1133
 20
-40.6149
 30
0.0
  0
SPLINE
  5
6F
330
1F
100
AcDbEntity
  8
layer 1
 62
     7
100
AcDbSpline
210
0.0
220
0.0
230
1.0
 70
    11
 71
     3
 72
    88
 73
    84
 74
     0
 42
0.0000000001
 43
0.0000000001
 12
1.0
 22
0.0
 32
0.0
 13
1.0
 23
0.0
 33
0.0
 40
0.0
 40
0.0
 40
0.0
 40
0.0
 40
0.0454545454545455
 40
0.0454545454545455
 40
0.0454545454545455
 40
0.0454545454545455
 40
0.0909090909090909
 40
0.0909090909090909
 40
0.0909090909090909
 40
0.0909090909090909
 40
0.1363636363636364
 40
0.1363636363636364
 40
0.1363636363636364
 40
0.1363636363636364
 40
0.1818181818181818
 40
0.1818181818181818
 40
0.1818181818181818
 40
0.1818181818181818
 40
0.2272727272727273
 40
0.2272727272727273
 40
0.2272727272727273
 40
0.2272727272727273
 40
0.2727272727272727
 40
0.2727272727272727
 40
0.2727272727272727
 40
0.2727272727272727
 40
0.3181818181818182
 40
0.3181818181818182
 40
0.3181818181818182
 40
0.3181818181818182
 40
0.3636363636363636
 40
0.3636363636363636
 40
0.3636363636363636
 40
0.3636363636363636
 40
0.4090909090909091
 40
0.4090909090909091
 40
0.4090909090909091
 40
0.4090909090909091
 40
0.4545454545454545
 40
0.4545454545454545
 40
0.4545454545454545
 40
0.4545454545454545
 40
0.5
 40
0.5
 40
0.5
 40
0.5
 40
0.5454545454545454
 40
0.5454545454545454
 40
0.5454545454545454
 40
0.5454545454545454
 40
0.5909090909090909
 40
0.5909090909090909
 40
0.5909090909090909
 40
0.5909090909090909
 40
0.6363636363636364
 40
0.6363636363636364
 40
0.6363636363636364
 40
0.6363636363636364
 40
0.6818181818181818
 40
0.6818181818181818
 40
0.6818181818181818
 40
0.6818181818181818
 40
0.7272727272727273
 40
0.7272727272727273
 40
0.7272727272727273
 40
0.7272727272727273
 40
0.7727272727272727
 40
0.7727272727272727
 40
0.7727272727272727
 40
0.7727272727272727
 40
0.8181818181818182
 40
0.8181818181818182
 40
0.8181818181818182
 40
0.8181818181818182
 40
0.8636363636363636
 40
0.8636363636363636
 40
0.8636363636363636
 40
0.8636363636363636
 40
0.9090909090909091
 40
0.9090909090909091
 40
0.9090909090909091
 40
0.9090909090909091
 40
1.0
 40
1.0
 40
1.0
 40
1.0
 10
125.213
 20
-51.5781
 30
0.0
 10
124.9219
 20
-52.2132
 30
0.0
 10
124.3703
 20
-52.7315
 30
0.0
 10
123.1
 20
-52.958
 30
0.0
 10
123.1
 20
-52.958
 30
0.0
 10
123.7279
 20
-54.5774
 30
0.0
 10
123.3727
 20
-56.4218
 30
0.0
 10
122.4054
 20
-57.2222
 30
0.0
 10
122.4054
 20
-57.2222
 30
0.0
 10
122.4054
 20
-57.2222
 30
0.0
 10
121.014
 20
-57.1302
 30
0.0
 10
119.9145
 20
-56.7863
 30
0.0
 10
119.9145
 20
-56.7863
 30
0.0
 10
119.5021
 20
-58.9784
 30
0.0
 10
117.3695
 20
-60.1071
 30
0.0
 10
116.9133
 20
-60.3075
 30
0.0
 10
116.9133
 20
-60.3075
 30
0.0
 10
112.4743
 20
-59.2784
 30
0.0
 10
111.8581
 20
-55.5936
 30
0.0
 10
111.917
 20
-54.3237
 30
0.0
 10
111.917
 20
-54.3237
 30
0.0
 10
111.5185
 20
-54.5004
 30
0.0
 10
110.9929
 20
-54.4974
 30
0.0
 10
110.6091
 20
-54.2468
 30
0.0
 10
110.6091
 20
-54.2468
 30
0.0
 10
109.5918
 20
-49.9985
 30
0.0
 10
112.6112
 20
-44.8669
 30
0.0
 10
115.272
 20
-42.4793
 30
0.0
 10
115.272
 20
-42.4793
 30
0.0
 10
113.4463
 20
-42.7164
 30
0.0
 10
106.5254
 20
-49.0291
 30
0.0
 10
105.361
 20
-51.3744
 30
0.0
 10
105.361
 20
-51.3744
 30
0.0
 10
106.4953
 20
-51.8351
 30
0.0
 10
106.56
 20
-52.9282
 30
0.0
 10
105.9499
 20
-53.4494
 30
0.0
 10
105.9499
 20
-53.4494
 30
0.0
 10
98.7585
 20
-62.5847
 30
0.0
 10
109.0236
 20
-78.7203
 30
0.0
 10
118.3717
 20
-72.7192
 30
0.0
 10
118.3717
 20
-72.7192
 30
0.0
 10
121.1048
 20
-74.0529
 30
0.0
 10
120.994
 20
-76.2104
 30
0.0
 10
121.2596
 20
-77.8284
 30
0.0
 10
121.2596
 20
-77.8284
 30
0.0
 10
124.0599
 20
-76.7606
 30
0.0
 10
127.9183
 20
-70.6381
 30
0.0
 10
123.4398
 20
-67.7877
 30
0.0
 10
123.4398
 20
-67.7877
 30
0.0
 10
119.0139
 20
-72.0082
 30
0.0
 10
111.9196
 20
-66.0246
 30
0.0
 10
118.6353
 20
-59.6119
 30
0.0
 10
118.6353
 20
-59.6119
 30
0.0
 10
120.3453
 20
-58.0653
 30
0.0
 10
125.0649
 20
-56.9299
 30
0.0
 10
129.7371
 20
-60.0887
 30
0.0
 10
129.7371
 20
-60.0887
 30
0.0
 10
123.1
 20
-52.9578
 30
0.0
 10
126.611
 20
-43.4522
 30
0.0
 10
132.3807
 20
-40.6227
 30
0.0
 10
132.3807
 20
-40.6227
 30
0.0
 10
131.7773
 20
-39.8874
 30
0.0
 10
131.1033
 20
-37.9707
 30
0.0
 10
131.0425
 20
-36.076
 30
0.0
 10
131.0425
 20
-36.076
 30
0.0
 10
132.6718
 20
-35.1189
 30
0.0
 10
137.8463
 20
-33.8493
 30
0.0
 10
142.007
 20
-35.3588
 30
0.0
 10
142.007
 20
-35.3588
 30
0.0
 10
139.5591
 20
-32.2731
 30
0.0
 10
137.9179
 20
-26.627
 30
0.0
 10
141.3812
 20
-21.4161
 30
0.0
 10
141.3812
 20
-21.4161
 30
0.0
 10
135.3413
 20
-30.6787
 30
0.0
 10
129.2664
 20
-34.1458
 30
0.0
 10
126.4983
 20
-36.5561
 30
0.0
 10
126.4983
 20
-36.5561
 30
0.0
 10
122.6077
 20
-38.9544
 30
0.0
 10
119.3509
 20
-47.4118
 30
0.0
 10
125.213
 20
-51.578
 30
0.0
 10
125.213
 20
-51.578
 30
0.0
 10
125.213
 20
-51.578
 30
0.0
 10
125.213
 20
-51.5781
 30
0.0
 10
125.213
 20
-51.5781
 30
0.0
  0
SPLINE
  5
70
330
1F
100
AcDbEntity
  8
layer 1
 62
     7
100
AcDbSpline
210
0.0
220
0.0
230
1.0
 70
    11
 71
     3
 72
   100
 73
    96
 74
     0
 42
0.0000000001
 43
0.0000000001
 12
1.0
 22
0.0
 32
0.0
 13
1.0
 23
0.0
 33
0.0
 40
0.0
 40
0.0
 40
0.0
 40
0.0
 40
0.04
 40
0.04
 40
0.04
 40
0.04
 40
0.08
 40
0.08
 40
0.08
 40
0.08
 40
0.12
 40
0.12
 40
0.12
 40
0.12
 40
0.16
 40
0.16
 40
0.16
 40
0.16
 40
0.2
 40
0.2
 40
0.2
 40
0.2
 40
0.24
 40
0.24
 40
0.24
 40
0.24
 40
0.28
 40
0.28
 40
0.28
 40
0.28
 40
0.32
 40
0.32
 40
0.32
 40
0.32
 40
0.36
 40
0.36
 40
0.36
 40
0.36
 40
0.4
 40
0.4
 40
0.4
 40
0.4
 40
0.44
 40
0.44
 40
0.44
 40
0.44
 40
0.48
 40
0.48
 40
0.48
 40
0.48
 40
0.52
 40
0.52
 40
0.52
 40
0.52
 40
0.56
 40
0.56
 40
0.56
 40
0.56
 40
0.6
 40
0.6
 40
0.6
 40
0.6
 40
0.64
 40
0.64
 40
0.64
 40
0.64
 40
0.68
 40
0.68
 40
0.68
 40
0.68
 40
0.72
 40
0.72
 40
0.72
 40
0.72
 40
0.76
 40
0.76
 40
0.76
 40
0.76
 40
0.8
 40
0.8
 40
0.8
 40
0.8
 40
0.84
 40
0.84
 40
0.84
 40
0.84
 40
0.88
 40
0.88
 40
0.88
 40
0.88
 40
0.92
 40
0.92
 40
0.92
 40
0.92
 40
1.0
 40
1.0
 40
1.0
 40
1.0
 10
102.1853
 20
-79.2658
 30
0.0
 10
103.2124
 20
-80.4595
 30
0.0
 10
103.4272
 20
-80.852
 30
0.0
 10
102.8366
 20
-83.4751
 30
0.0
 10
102.8366
 20
-83.4751
 30
0.0
 10
104.6218
 20
-83.4361
 30
0.0
 10
106.1985
 20
-84.1074
 30
0.0
 10
107.2017
 20
-85.0749
 30
0.0
 10
107.2017
 20
-85.0749
 30
0.0
 10
107.2664
 20
-86.0213
 30
0.0
 10
106.6707
 20
-87.0813
 30
0.0
 10
105.9366
 20
-88.3617
 30
0.0
 10
105.9366
 20
-88.3617
 30
0.0
 10
108.8425
 20
-90.9235
 30
0.0
 10
106.9875
 20
-95.6119
 30
0.0
 10
103.9145
 20
-94.8518
 30
0.0
 10
103.9145
 20
-94.8518
 30
0.0
 10
104.0458
 20
-94.552
 30
0.0
 10
104.1198
 20
-94.2318
 30
0.0
 10
104.1198
 20
-93.8948
 30
0.0
 10
104.1198
 20
-93.8948
 30
0.0
 10
104.1198
 20
-92.649
 30
0.0
 10
103.1099
 20
-91.6391
 30
0.0
 10
101.864
 20
-91.6391
 30
0.0
 10
101.864
 20
-91.6391
 30
0.0
 10
100.6182
 20
-91.6391
 30
0.0
 10
99.6083
 20
-92.649
 30
0.0
 10
99.6083
 20
-93.8948
 30
0.0
 10
99.6083
 20
-93.8948
 30
0.0
 10
99.6083
 20
-94.7646
 30
0.0
 10
100.1006
 20
-95.5193
 30
0.0
 10
100.8217
 20
-95.8958
 30
0.0
 10
100.8217
 20
-95.8958
 30
0.0
 10
102.4993
 20
-96.7522
 30
0.0
 10
104.8129
 20
-96.8995
 30
0.0
 10
106.7646
 20
-95.9216
 30
0.0
 10
106.7646
 20
-95.9216
 30
0.0
 10
110.6937
 20
-93.7842
 30
0.0
 10
110.9618
 20
-87.0609
 30
0.0
 10
108.057
 20
-82.9872
 30
0.0
 10
108.057
 20
-82.9872
 30
0.0
 10
103.5615
 20
-81.0654
 30
0.0
 10
98.6374
 20
-75.2121
 30
0.0
 10
96.6449
 20
-64.8922
 30
0.0
 10
96.6449
 20
-64.8922
 30
0.0
 10
94.6525
 20
-75.2121
 30
0.0
 10
89.7283
 20
-81.0654
 30
0.0
 10
85.2328
 20
-82.9872
 30
0.0
 10
85.2328
 20
-82.9872
 30
0.0
 10
82.328
 20
-87.0608
 30
0.0
 10
82.5963
 20
-93.7842
 30
0.0
 10
86.5252
 20
-95.9216
 30
0.0
 10
86.5252
 20
-95.9216
 30
0.0
 10
88.477
 20
-96.8995
 30
0.0
 10
90.7905
 20
-96.7522
 30
0.0
 10
92.4681
 20
-95.8958
 30
0.0
 10
92.4681
 20
-95.8958
 30
0.0
 10
93.1892
 20
-95.5193
 30
0.0
 10
93.6816
 20
-94.7646
 30
0.0
 10
93.6816
 20
-93.8948
 30
0.0
 10
93.6816
 20
-93.8948
 30
0.0
 10
93.6816
 20
-92.649
 30
0.0
 10
92.6716
 20
-91.6391
 30
0.0
 10
91.4258
 20
-91.6391
 30
0.0
 10
91.4258
 20
-91.6391
 30
0.0
 10
90.1799
 20
-91.6391
 30
0.0
 10
89.17
 20
-92.649
 30
0.0
 10
89.17
 20
-93.8948
 30
0.0
 10
89.17
 20
-93.8948
 30
0.0
 10
89.17
 20
-94.2319
 30
0.0
 10
89.244
 20
-94.5521
 30
0.0
 10
89.3753
 20
-94.8518
 30
0.0
 10
89.3753
 20
-94.8518
 30
0.0
 10
86.3024
 20
-95.612
 30
0.0
 10
84.4473
 20
-90.9235
 30
0.0
 10
87.3532
 20
-88.3617
 30
0.0
 10
87.3532
 20
-88.3617
 30
0.0
 10
86.6193
 20
-87.0813
 30
0.0
 10
86.0234
 20
-86.0213
 30
0.0
 10
86.0883
 20
-85.0749
 30
0.0
 10
86.0883
 20
-85.0749
 30
0.0
 10
87.0913
 20
-84.1074
 30
0.0
 10
88.668
 20
-83.436
 30
0.0
 10
90.4533
 20
-83.4751
 30
0.0
 10
90.4533
 20
-83.4751
 30
0.0
 10
89.8626
 20
-80.852
 30
0.0
 10
90.0774
 20
-80.4595
 30
0.0
 10
91.1045
 20
-79.2658
 30
0.0
 10
91.1045
 20
-79.2658
 30
0.0
 10
92.6149
 20
-77.5105
 30
0.0
 10
94.2878
 20
-76.3198
 30
0.0
 10
96.6449
 20
-75.2086
 30
0.0
 10
96.6449
 20
-75.2086
 30
0.0
 10
99.002
 20
-76.3198
 30
0.0
 10
100.6749
 20
-77.5105
 30
0.0
 10
102.1853
 20
-79.2658
 30
0.0
  0
SPLINE
  5
71
330
1F
100
AcDbEntity
  8
layer 1
 62
     7
100
AcDbSpline
210
0.0
220
0.0
230
1.0
 70
    11
 71
     3
 72
    44
 73
    40
 74
     0
 42
0.0000000001
 43
0.0000000001
 12
1.0
 22
0.0
 32
0.0
 13
1.0
 23
0.0
 33
0.0
 40
0.0
 40
0.0
 40
0.0
 40
0.0
 40
0.0909090909090909
 40
0.0909090909090909
 40
0.0909090909090909
 40
0.0909090909090909
 40
0.1818181818181818
 40
0.1818181818181818
 40
0.1818181818181818
 40
0.1818181818181818
 40
0.2727272727272727
 40
0.2727272727272727
 40
0.2727272727272727
 40
0.2727272727272727
 40
0.3636363636363636
 40
0.3636363636363636
 40
0.3636363636363636
 40
0.3636363636363636
 40
0.4545454545454545
 40
0.4545454545454545
 40
0.4545454545454545
 40
0.4545454545454545
 40
0.5454545454545454
 40
0.5454545454545454
 40
0.5454545454545454
 40
0.5454545454545454
 40
0.6363636363636364
 40
0.6363636363636364
 40
0.6363636363636364
 40
0.6363636363636364
 40
0.7272727272727273
 40
0.7272727272727273
 40
0.7272727272727273
 40
0.7272727272727273
 40
0.8181818181818182
 40
0.8181818181818182
 40
0.8181818181818182
 40
0.8181818181818182
 40
1.0
 40
1.0
 40
1.0
 40
1.0
 10
149.3322
 20
-57.7018
 30
0.0
 10
150.5229
 20
-68.4578
 30
0.0
 10
143.3381
 20
-69.2454
 30
0.0
 10
140.9088
 20
-75.7406
 30
0.0
 10
140.9088
 20
-75.7406
 30
0.0
 10
138.5566
 20
-74.629
 30
0.0
 10
137.0442
 20
-75.0923
 30
0.0
 10
134.3604
 20
-74.8678
 30
0.0
 10
134.3604
 20
-74.8678
 30
0.0
 10
135.4082
 20
-72.1944
 30
0.0
 10
135.6892
 20
-65.519
 30
0.0
 10
131.6081
 20
-60.9382
 30
0.0
 10
131.6081
 20
-60.9382
 30
0.0
 10
137.0448
 20
-64.6713
 30
0.0
 10
142.0945
 20
-62.4966
 30
0.0
 10
143.3578
 20
-58.8586
 30
0.0
 10
143.3578
 20
-58.8586
 30
0.0
 10
145.6833
 20
-50.4873
 30
0.0
 10
137.0678
 20
-49.1311
 30
0.0
 10
136.0312
 20
-53.9085
 30
0.0
 10
136.0312
 20
-53.9085
 30
0.0
 10
133.9044
 20
-51.6153
 30
0.0
 10
135.0644
 20
-48.8826
 30
0.0
 10
136.6506
 20
-47.8973
 30
0.0
 10
136.6506
 20
-47.8973
 30
0.0
 10
136.8544
 20
-48.6678
 30
0.0
 10
137.3295
 20
-49.4115
 30
0.0
 10
138.4408
 20
-50.2647
 30
0.0
 10
138.4408
 20
-50.2647
 30
0.0
 10
138.9588
 20
-50.5873
 30
0.0
 10
139.3235
 20
-50.5384
 30
0.0
 10
140.3506
 20
-50.3299
 30
0.0
 10
140.3506
 20
-50.3299
 30
0.0
 10
146.5355
 20
-49.1318
 30
0.0
 10
148.8469
 20
-54.7403
 30
0.0
 10
149.3324
 20
-57.7018
 30
0.0
 10
149.3324
 20
-57.7018
 30
0.0
 10
149.3324
 20
-57.7018
 30
0.0
 10
149.3322
 20
-57.7018
 30
0.0
 10
149.3322
 20
-57.7018
 30
0.0
  0
SPLINE
  5
72
330
1F
100
AcDbEntity
  8
layer 1
 62
     7
100
AcDbSpline
210
0.0
220
0.0
230
1.0
 70
    11
 71
     3
 72
    40
 73
    36
 74
     0
 42
0.0000000001
 43
0.0000000001
 12
1.0
 22
0.0
 32
0.0
 13
1.0
 23
0.0
 33
0.0
 40
0.0
 40
0.0
 40
0.0
 40
0.0
 40
0.1
 40
0.1
 40
0.1
 40
0.1
 40
0.2
 40
0.2
 40
0.2
 40
0.2
 40
0.3
 40
0.3
 40
0.3
 40
0.3
 40
0.4
 40
0.4
 40
0.4
 40
0.4
 40
0.5
 40
0.5
 40
0.5
 40
0.5
 40
0.6
 40
0.6
 40
0.6
 40
0.6
 40
0.7
 40
0.7
 40
0.7
 40
0.7
 40
0.8
 40
0.8
 40
0.8
 40
0.8
 40
1.0
 40
1.0
 40
1.0
 40
1.0
 10
124.2679
 20
-107.3392
 30
0.0
 10
117.2989
 20
-107.3392
 30
0.0
 10
112.7568
 20
-98.5832
 30
0.0
 10
115.7542
 20
-92.6143
 30
0.0
 10
115.7542
 20
-92.6143
 30
0.0
 10
113.8764
 20
-90.8997
 30
0.0
 10
113.1101
 20
-88.91
 30
0.0
 10
113.4958
 20
-86.3034
 30
0.0
 10
113.4958
 20
-86.3034
 30
0.0
 10
116.9009
 20
-87.3428
 30
0.0
 10
119.7982
 20
-86.6977
 30
0.0
 10
120.9034
 20
-86.6833
 30
0.0
 10
120.9034
 20
-86.6833
 30
0.0
 10
125.7206
 20
-83.0884
 30
0.0
 10
133.8505
 20
-84.6653
 30
0.0
 10
136.4963
 20
-86.2127
 30
0.0
 10
136.4963
 20
-86.2127
 30
0.0
 10
133.6663
 20
-83.3782
 30
0.0
 10
133.6772
 20
-78.4433
 30
0.0
 10
133.7415
 20
-75.7777
 30
0.0
 10
133.7415
 20
-75.7777
 30
0.0
 10
131.8255
 20
-79.2721
 30
0.0
 10
124.2356
 20
-88.8259
 30
0.0
 10
111.6515
 20
-84.842
 30
0.0
 10
111.6515
 20
-84.842
 30
0.0
 10
114.9734
 20
-94.5739
 30
0.0
 10
108.7977
 20
-100.9092
 30
0.0
 10
102.5539
 20
-101.0911
 30
0.0
 10
102.5539
 20
-101.0911
 30
0.0
 10
102.1486
 20
-104.2464
 30
0.0
 10
100.1075
 20
-106.228
 30
0.0
 10
97.7502
 20
-107.3392
 30
0.0
 10
97.7502
 20
-107.3392
 30
0.0
 10
97.7502
 20
-107.3392
 30
0.0
 10
124.2679
 20
-107.3392
 30
0.0
 10
124.2679
 20
-107.3392
 30
0.0
  0
SPLINE
  5
73
330
1F
100
AcDbEntity
  8
layer 1
 62
     7
100
AcDbSpline
210
0.0
220
0.0
230
1.0
 70
    11
 71
     3
 72
    44
 73
    40
 74
     0
 42
0.0000000001
 43
0.0000000001
 12
1.0
 22
0.0
 32
0.0
 13
1.0
 23
0.0
 33
0.0
 40
0.0
 40
0.0
 40
0.0
 40
0.0
 40
0.0909090909090909
 40
0.0909090909090909
 40
0.0909090909090909
 40
0.0909090909090909
 40
0.1818181818181818
 40
0.1818181818181818
 40
0.1818181818181818
 40
0.1818181818181818
 40
0.2727272727272727
 40
0.2727272727272727
 40
0.2727272727272727
 40
0.2727272727272727
 40
0.3636363636363636
 40
0.3636363636363636
 40
0.3636363636363636
 40
0.3636363636363636
 40
0.4545454545454545
 40
0.4545454545454545
 40
0.4545454545454545
 40
0.4545454545454545
 40
0.5454545454545454
 40
0.5454545454545454
 40
0.5454545454545454
 40
0.5454545454545454
 40
0.6363636363636364
 40
0.6363636363636364
 40
0.6363636363636364
 40
0.6363636363636364
 40
0.7272727272727273
 40
0.7272727272727273
 40
0.7272727272727273
 40
0.7272727272727273
 40
0.8181818181818182
 40
0.8181818181818182
 40
0.8181818181818182
 40
0.8181818181818182
 40
1.0
 40
1.0
 40
1.0
 40
1.0
 10
161.1844
 20
-107.3392
 30
0.0
 10
156.1311
 20
-106.3813
 30
0.0
 10
153.2101
 20
-105.3624
 30
0.0
 10
151.7127
 20
-103.8146
 30
0.0
 10
151.7127
 20
-103.8146
 30
0.0
 10
150.0559
 20
-104.1632
 30
0.0
 10
148.5528
 20
-104.7525
 30
0.0
 10
145.6226
 20
-104.43
 30
0.0
 10
145.6226
 20
-104.43
 30
0.0
 10
144.2977
 20
-95.5199
 30
0.0
 10
137.3313
 20
-92.5198
 30
0.0
 10
130.1387
 20
-94.3851
 30
0.0
 10
130.1387
 20
-94.3851
 30
0.0
 10
128.7819
 20
-93.4825
 30
0.0
 10
128.1037
 20
-91.0348
 30
0.0
 10
128.1982
 20
-89.9254
 30
0.0
 10
128.1982
 20
-89.9254
 30
0.0
 10
122.9941
 20
-89.72
 30
0.0
 10
119.7027
 20
-96.9706
 30
0.0
 10
125.0013
 20
-100.1392
 30
0.0
 10
125.0013
 20
-100.1392
 30
0.0
 10
124.6029
 20
-98.7786
 30
0.0
 10
124.7609
 20
-97.3069
 30
0.0
 10
125.7094
 20
-96.7782
 30
0.0
 10
125.7094
 20
-96.7782
 30
0.0
 10
132.0464
 20
-94.304
 30
0.0
 10
132.5779
 20
-99.5791
 30
0.0
 10
132.5779
 20
-99.5791
 30
0.0
 10
132.5779
 20
-99.5791
 30
0.0
 10
135.0156
 20
-98.1845
 30
0.0
 10
140.7033
 20
-99.5828
 30
0.0
 10
141.5332
 20
-102.491
 30
0.0
 10
141.5332
 20
-102.491
 30
0.0
 10
135.749
 20
-102.7727
 30
0.0
 10
134.5183
 20
-106.5965
 30
0.0
 10
127.8137
 20
-107.3392
 30
0.0
 10
127.8137
 20
-107.3392
 30
0.0
 10
127.8137
 20
-107.3392
 30
0.0
 10
161.1844
 20
-107.3392
 30
0.0
 10
161.1844
 20
-107.3392
 30
0.0
  0
SPLINE
  5
74
330
1F
100
AcDbEntity
  8
layer 1
 62
     7
100
AcDbSpline
210
0.0
220
0.0
230
1.0
 70
    11
 71
     3
 72
    16
 73
    12
 74
     0
 42
0.0000000001
 43
0.0000000001
 12
1.0
 22
0.0
 32
0.0
 13
1.0
 23
0.0
 33
0.0
 40
0.0
 40
0.0
 40
0.0
 40
0.0
 40
0.25
 40
0.25
 40
0.25
 40
0.25
 40
0.5
 40
0.5
 40
0.5
 40
0.5
 40
1.0
 40
1.0
 40
1.0
 40
1.0
 10
187.8714
 20
-107.3392
 30
0.0
 10
183.3901
 20
-106.2763
 30
0.0
 10
181.3544
 20
-103.994
 30
0.0
 10
180.6835
 20
-101.2291
 30
0.0
 10
180.6835
 20
-101.2291
 30
0.0
 10
175.7987
 20
-104.9578
 30
0.0
 10
171.5687
 20
-106.6832
 30
0.0
 10
163.8363
 20
-107.3392
 30
0.0
 10
163.8363
 20
-107.3392
 30
0.0
 10
170.8705
 20
-107.3392
 30
0.0
 10
182.8289
 20
-107.3392
 30
0.0
 10
187.8714
 20
-107.3392
 30
0.0
  0
SPLINE
  5
75
330
1F
100
AcDbEntity
  8
layer 1
 62
     7
100
AcDbSpline
210
0.0
220
0.0
230
1.0
 70
    11
 71
     3
 72
    16
 73
    12
 74
     0
 42
0.0000000001
 43
0.0000000001
 12
1.0
 22
0.0
 32
0.0
 13
1.0
 23
0.0
 33
0.0
 40
0.0
 40
0.0
 40
0.0
 40
0.0
 40
0.25
 40
0.25
 40
0.25
 40
0.25
 40
0.5
 40
0.5
 40
0.5
 40
0.5
 40
1.0
 40
1.0
 40
1.0
 40
1.0
 10
189.0896
 20
-81.108
 30
0.0
 10
188.5727
 20
-89.6832
 30
0.0
 10
187.9278
 20
-90.0036
 30
0.0
 10
186.9174
 20
-93.1307
 30
0.0
 10
186.9174
 20
-93.1307
 30
0.0
 10
186.632
 20
-98.2934
 30
0.0
 10
187.2072
 20
-101.2361
 30
0.0
 10
189.0896
 20
-105.1432
 30
0.0
 10
189.0896
 20
-105.1432
 30
0.0
 10
189.0896
 20
-105.1432
 30
0.0
 10
189.0896
 20
-81.108
 30
0.0
 10
189.0896
 20
-81.108
 30
0.0
  0
SPLINE
  5
76
330
1F
100
AcDbEntity
  8
layer 1
 62
     7
100
AcDbSpline
210
0.0
220
0.0
230
1.0
 70
    11
 71
     3
 72
    16
 73
    12
 74
     0
 42
0.0000000001
 43
0.0000000001
 12
1.0
 22
0.0
 32
0.0
 13
1.0
 23
0.0
 33
0.0
 40
0.0
 40
0.0
 40
0.0
 40
0.0
 40
0.25
 40
0.25
 40
0.25
 40
0.25
 40
0.5
 40
0.5
 40
0.5
 40
0.5
 40
1.0
 40
1.0
 40
1.0
 40
1.0
 10
189.0896
 20
-44.7775
 30
0.0
 10
188.5727
 20
-53.3525
 30
0.0
 10
188.173
 20
-56.1085
 30
0.0
 10
184.9292
 20
-61.7708
 30
0.0
 10
184.9292
 20
-61.7708
 30
0.0
 10
187.2646
 20
-64.9452
 30
0.0
 10
187.9353
 20
-67.0745
 30
0.0
 10
189.0896
 20
-74.0543
 30
0.0
 10
189.0896
 20
-74.0543
 30
0.0
 10
189.0896
 20
-74.0543
 30
0.0
 10
189.0896
 20
-44.7775
 30
0.0
 10
189.0896
 20
-44.7775
 30
0.0
  0
SPLINE
  5
77
330
1F
100
AcDbEntity
  8
layer 1
 62
     7
100
AcDbSpline
210
0.0
220
0.0
230
1.0
 70
    11
 71
     3
 72
    56
 73
    52
 74
     0
 42
0.0000000001
 43
0.0000000001
 12
1.0
 22
0.0
 32
0.0
 13
1.0
 23
0.0
 33
0.0
 40
0.0
 40
0.0
 40
0.0
 40
0.0
 40
0.0714285714285714
 40
0.0714285714285714
 40
0.0714285714285714
 40
0.0714285714285714
 40
0.1428571428571428
 40
0.1428571428571428
 40
0.1428571428571428
 40
0.1428571428571428
 40
0.2142857142857143
 40
0.2142857142857143
 40
0.2142857142857143
 40
0.2142857142857143
 40
0.2857142857142857
 40
0.2857142857142857
 40
0.2857142857142857
 40
0.2857142857142857
 40
0.3571428571428572
 40
0.3571428571428572
 40
0.3571428571428572
 40
0.3571428571428572
 40
0.4285714285714285
 40
0.4285714285714285
 40
0.4285714285714285
 40
0.4285714285714285
 40
0.5
 40
0.5
 40
0.5
 40
0.5
 40
0.5714285714285714
 40
0.5714285714285714
 40
0.5714285714285714
 40
0.5714285714285714
 40
0.6428571428571429
 40
0.6428571428571429
 40
0.6428571428571429
 40
0.6428571428571429
 40
0.7142857142857143
 40
0.7142857142857143
 40
0.7142857142857143
 40
0.7142857142857143
 40
0.7857142857142857
 40
0.7857142857142857
 40
0.7857142857142857
 40
0.7857142857142857
 40
0.8571428571428571
 40
0.8571428571428571
 40
0.8571428571428571
 40
0.8571428571428571
 40
1.0
 40
1.0
 40
1.0
 40
1.0
 10
181.0305
 20
11.7705
 30
0.0
 10
181.3291
 20
12.0497
 30
0.0
 10
182.1867
 20
12.9691
 30
0.0
 10
182.9551
 20
13.0474
 30
0.0
 10
182.9551
 20
13.0474
 30
0.0
 10
185.3657
 20
11.582
 30
0.0
 10
187.9093
 20
11.4518
 30
0.0
 10
188.7793
 20
12.1705
 30
0.0
 10
188.7793
 20
12.1705
 30
0.0
 10
187.8924
 20
15.8683
 30
0.0
 10
187.1227
 20
18.6353
 30
0.0
 10
187.4445
 20
24.5666
 30
0.0
 10
187.4445
 20
24.5666
 30
0.0
 10
187.8094
 20
31.2924
 30
0.0
 10
186.0239
 20
38.69
 30
0.0
 10
183.3904
 20
44.4249
 30
0.0
 10
183.3904
 20
44.4249
 30
0.0
 10
186.3969
 20
46.8245
 30
0.0
 10
188.4416
 20
49.4144
 30
0.0
 10
189.0896
 20
54.3209
 30
0.0
 10
189.0896
 20
54.3209
 30
0.0
 10
189.0896
 20
54.3209
 30
0.0
 10
189.0896
 20
-38.0728
 30
0.0
 10
189.0896
 20
-38.0728
 30
0.0
 10
189.0896
 20
-38.0728
 30
0.0
 10
188.4416
 20
-33.1662
 30
0.0
 10
186.3969
 20
-30.5764
 30
0.0
 10
183.3904
 20
-28.1766
 30
0.0
 10
183.3904
 20
-28.1766
 30
0.0
 10
186.0241
 20
-22.4418
 30
0.0
 10
187.8094
 20
-15.0443
 30
0.0
 10
187.4445
 20
-8.3186
 30
0.0
 10
187.4445
 20
-8.3186
 30
0.0
 10
187.1226
 20
-2.3871
 30
0.0
 10
187.8924
 20
0.3799
 30
0.0
 10
188.7793
 20
4.0777
 30
0.0
 10
188.7793
 20
4.0777
 30
0.0
 10
187.9093
 20
4.7963
 30
0.0
 10
185.3657
 20
4.6661
 30
0.0
 10
182.9551
 20
3.2009
 30
0.0
 10
182.9551
 20
3.2009
 30
0.0
 10
182.1867
 20
3.2791
 30
0.0
 10
181.3291
 20
4.1985
 30
0.0
 10
181.0305
 20
4.4776
 30
0.0
 10
181.0305
 20
4.4776
 30
0.0
 10
180.4156
 20
5.0524
 30
0.0
 10
182.7459
 20
7.5056
 30
0.0
 10
184.7907
 20
8.124
 30
0.0
 10
184.7907
 20
8.124
 30
0.0
 10
182.746
 20
8.7425
 30
0.0
 10
180.4156
 20
11.1957
 30
0.0
 10
181.0305
 20
11.7705
 30
0.0
  0
SPLINE
  5
78
330
1F
100
AcDbEntity
  8
layer 1
 62
     7
100
AcDbSpline
210
0.0
220
0.0
230
1.0
 70
    11
 71
     3
 72
    36
 73
    32
 74
     0
 42
0.0000000001
 43
0.0000000001
 12
1.0
 22
0.0
 32
0.0
 13
1.0
 23
0.0
 33
0.0
 40
0.0
 40
0.0
 40
0.0
 40
0.0
 40
0.1111111111111111
 40
0.1111111111111111
 40
0.1111111111111111
 40
0.1111111111111111
 40
0.2222222222222222
 40
0.2222222222222222
 40
0.2222222222222222
 40
0.2222222222222222
 40
0.3333333333333333
 40
0.3333333333333333
 40
0.3333333333333333
 40
0.3333333333333333
 40
0.4444444444444444
 40
0.4444444444444444
 40
0.4444444444444444
 40
0.4444444444444444
 40
0.5555555555555556
 40
0.5555555555555556
 40
0.5555555555555556
 40
0.5555555555555556
 40
0.6666666666666666
 40
0.6666666666666666
 40
0.6666666666666666
 40
0.6666666666666666
 40
0.7777777777777778
 40
0.7777777777777778
 40
0.7777777777777778
 40
0.7777777777777778
 40
1.0
 40
1.0
 40
1.0
 40
1.0
 10
109.7958
 20
55.6109
 30
0.0
 10
129.1992
 20
49.8509
 30
0.0
 10
139.9498
 20
35.5587
 30
0.0
 10
144.105
 20
20.6008
 30
0.0
 10
144.105
 20
20.6008
 30
0.0
 10
143.1855
 20
20.3387
 30
0.0
 10
141.7819
 20
20.4999
 30
0.0
 10
140.9231
 20
20.9639
 30
0.0
 10
140.9231
 20
20.9639
 30
0.0
 10
143.2931
 20
27.7131
 30
0.0
 10
138.3416
 20
35.1277
 30
0.0
 10
131.9983
 20
35.0392
 30
0.0
 10
131.9983
 20
35.0392
 30
0.0
 10
131.8857
 20
36.8199
 30
0.0
 10
131.7124
 20
39.0848
 30
0.0
 10
130.8132
 20
41.4705
 30
0.0
 10
130.8132
 20
41.4705
 30
0.0
 10
128.1398
 20
42.4011
 30
0.0
 10
126.1924
 20
42.4841
 30
0.0
 10
124.3662
 20
42.6279
 30
0.0
 10
124.3662
 20
42.6279
 30
0.0
 10
123.9553
 20
49.4566
 30
0.0
 10
118.3403
 20
53.9255
 30
0.0
 10
109.942
 20
52.0409
 30
0.0
 10
109.942
 20
52.0409
 30
0.0
 10
109.9738
 20
52.9687
 30
0.0
 10
109.9452
 20
54.3201
 30
0.0
 10
109.7957
 20
55.6109
 30
0.0
 10
109.7957
 20
55.6109
 30
0.0
 10
109.7957
 20
55.6109
 30
0.0
 10
109.7958
 20
55.6109
 30
0.0
 10
109.7958
 20
55.6109
 30
0.0
  0
SPLINE
  5
79
330
1F
100
AcDbEntity
  8
layer 1
 62
     7
100
AcDbSpline
210
0.0
220
0.0
230
1.0
 70
    11
 71
     3
 72
   116
 73
   112
 74
     0
 42
0.0000000001
 43
0.0000000001
 12
1.0
 22
0.0
 32
0.0
 13
1.0
 23
0.0
 33
0.0
 40
0.0
 40
0.0
 40
0.0
 40
0.0
 40
0.0344827586206897
 40
0.0344827586206897
 40
0.0344827586206897
 40
0.0344827586206897
 40
0.0689655172413793
 40
0.0689655172413793
 40
0.0689655172413793
 40
0.0689655172413793
 40
0.103448275862069
 40
0.103448275862069
 40
0.103448275862069
 40
0.103448275862069
 40
0.1379310344827586
 40
0.1379310344827586
 40
0.1379310344827586
 40
0.1379310344827586
 40
0.1724137931034483
 40
0.1724137931034483
 40
0.1724137931034483
 40
0.1724137931034483
 40
0.2068965517241379
 40
0.2068965517241379
 40
0.2068965517241379
 40
0.2068965517241379
 40
0.2413793103448276
 40
0.2413793103448276
 40
0.2413793103448276
 40
0.2413793103448276
 40
0.2758620689655172
 40
0.2758620689655172
 40
0.2758620689655172
 40
0.2758620689655172
 40
0.3103448275862069
 40
0.3103448275862069
 40
0.3103448275862069
 40
0.3103448275862069
 40
0.3448275862068966
 40
0.3448275862068966
 40
0.3448275862068966
 40
0.3448275862068966
 40
0.3793103448275862
 40
0.3793103448275862
 40
0.3793103448275862
 40
0.3793103448275862
 40
0.4137931034482759
 40
0.4137931034482759
 40
0.4137931034482759
 40
0.4137931034482759
 40
0.4482758620689655
 40
0.4482758620689655
 40
0.4482758620689655
 40
0.4482758620689655
 40
0.4827586206896552
 40
0.4827586206896552
 40
0.4827586206896552
 40
0.4827586206896552
 40
0.5172413793103449
 40
0.5172413793103449
 40
0.5172413793103449
 40
0.5172413793103449
 40
0.5517241379310345
 40
0.5517241379310345
 40
0.5517241379310345
 40
0.5517241379310345
 40
0.5862068965517241
 40
0.5862068965517241
 40
0.5862068965517241
 40
0.5862068965517241
 40
0.6206896551724138
 40
0.6206896551724138
 40
0.6206896551724138
 40
0.6206896551724138
 40
0.6551724137931034
 40
0.6551724137931034
 40
0.6551724137931034
 40
0.6551724137931034
 40
0.6896551724137931
 40
0.6896551724137931
 40
0.6896551724137931
 40
0.6896551724137931
 40
0.7241379310344828
 40
0.7241379310344828
 40
0.7241379310344828
 40
0.7241379310344828
 40
0.7586206896551724
 40
0.7586206896551724
 40
0.7586206896551724
 40
0.7586206896551724
 40
0.7931034482758621
 40
0.7931034482758621
 40
0.7931034482758621
 40
0.7931034482758621
 40
0.8275862068965517
 40
0.8275862068965517
 40
0.8275862068965517
 40
0.8275862068965517
 40
0.8620689655172413
 40
0.8620689655172413
 40
0.8620689655172413
 40
0.8620689655172413
 40
0.896551724137931
 40
0.896551724137931
 40
0.896551724137931
 40
0.896551724137931
 40
0.9310344827586207
 40
0.9310344827586207
 40
0.9310344827586207
 40
0.9310344827586207
 40
1.0
 40
1.0
 40
1.0
 40
1.0
 10
109.7113
 20
15.8688
 30
0.0
 10
115.2413
 20
15.985
 30
0.0
 10
124.6079
 20
15.2945
 30
0.0
 10
129.62
 20
16.6461
 30
0.0
 10
129.62
 20
16.6461
 30
0.0
 10
135.0747
 20
18.1172
 30
0.0
 10
137.8677
 20
25.1229
 30
0.0
 10
133.2769
 20
26.9836
 30
0.0
 10
133.2769
 20
26.9836
 30
0.0
 10
133.0022
 20
24.3713
 30
0.0
 10
128.4226
 20
19.805
 30
0.0
 10
124.0941
 20
27.2374
 30
0.0
 10
124.0941
 20
27.2374
 30
0.0
 10
124.0629
 20
27.2991
 30
0.0
 10
124.0291
 20
27.3593
 30
0.0
 10
123.9928
 20
27.4177
 30
0.0
 10
123.9928
 20
27.4177
 30
0.0
 10
123.5786
 20
28.0849
 30
0.0
 10
122.8392
 20
28.5294
 30
0.0
 10
121.996
 20
28.5294
 30
0.0
 10
121.996
 20
28.5294
 30
0.0
 10
120.6992
 20
28.5294
 30
0.0
 10
119.6477
 20
27.4779
 30
0.0
 10
119.6477
 20
26.1809
 30
0.0
 10
119.6477
 20
26.1809
 30
0.0
 10
119.6477
 20
24.884
 30
0.0
 10
120.6992
 20
23.8325
 30
0.0
 10
121.996
 20
23.8325
 30
0.0
 10
121.996
 20
23.8325
 30
0.0
 10
123.2931
 20
23.8325
 30
0.0
 10
124.1452
 20
24.8686
 30
0.0
 10
124.1452
 20
26.1656
 30
0.0
 10
124.1452
 20
26.1656
 30
0.0
 10
126.5576
 20
23.0024
 30
0.0
 10
122.7349
 20
20.6748
 30
0.0
 10
120.8104
 20
21.179
 30
0.0
 10
120.8104
 20
21.179
 30
0.0
 10
120.7901
 20
19.7554
 30
0.0
 10
120.7094
 20
18.9974
 30
0.0
 10
120.0843
 20
17.8762
 30
0.0
 10
120.0843
 20
17.8762
 30
0.0
 10
118.0963
 20
18.5295
 30
0.0
 10
116.8951
 20
18.759
 30
0.0
 10
115.149
 20
20.1383
 30
0.0
 10
115.149
 20
20.1383
 30
0.0
 10
115.0794
 20
18.3837
 30
0.0
 10
113.6909
 20
17.4137
 30
0.0
 10
112.2286
 20
17.5395
 30
0.0
 10
112.2286
 20
17.5395
 30
0.0
 10
110.674
 20
17.6733
 30
0.0
 10
109.0125
 20
18.9588
 30
0.0
 10
107.9408
 20
18.8398
 30
0.0
 10
107.9408
 20
18.8398
 30
0.0
 10
108.0598
 20
19.9115
 30
0.0
 10
106.7742
 20
21.5732
 30
0.0
 10
106.6404
 20
23.1279
 30
0.0
 10
106.6404
 20
23.1279
 30
0.0
 10
106.5146
 20
24.5899
 30
0.0
 10
107.4845
 20
25.9785
 30
0.0
 10
109.2391
 20
26.0482
 30
0.0
 10
109.2391
 20
26.0482
 30
0.0
 10
107.8599
 20
27.794
 30
0.0
 10
107.6303
 20
28.9954
 30
0.0
 10
106.9772
 20
30.9834
 30
0.0
 10
106.9772
 20
30.9834
 30
0.0
 10
108.0982
 20
31.6085
 30
0.0
 10
108.8563
 20
31.6894
 30
0.0
 10
110.2801
 20
31.7094
 30
0.0
 10
110.2801
 20
31.7094
 30
0.0
 10
109.7759
 20
33.634
 30
0.0
 10
112.1033
 20
37.4567
 30
0.0
 10
115.2666
 20
35.0443
 30
0.0
 10
115.2666
 20
35.0443
 30
0.0
 10
113.9694
 20
35.0443
 30
0.0
 10
112.9334
 20
34.1923
 30
0.0
 10
112.9334
 20
32.8952
 30
0.0
 10
112.9334
 20
32.8952
 30
0.0
 10
112.9334
 20
31.5982
 30
0.0
 10
113.9849
 20
30.5468
 30
0.0
 10
115.2819
 20
30.5468
 30
0.0
 10
115.2819
 20
30.5468
 30
0.0
 10
116.5788
 20
30.5468
 30
0.0
 10
117.6303
 20
31.5982
 30
0.0
 10
117.6303
 20
32.8952
 30
0.0
 10
117.6303
 20
32.8952
 30
0.0
 10
117.6303
 20
33.7385
 30
0.0
 10
117.1859
 20
34.4778
 30
0.0
 10
116.5185
 20
34.892
 30
0.0
 10
116.5185
 20
34.892
 30
0.0
 10
116.4601
 20
34.9281
 30
0.0
 10
116.4001
 20
34.962
 30
0.0
 10
116.3385
 20
34.993
 30
0.0
 10
116.3385
 20
34.993
 30
0.0
 10
108.9059
 20
39.3217
 30
0.0
 10
113.4725
 20
43.9014
 30
0.0
 10
116.0845
 20
44.1759
 30
0.0
 10
116.0845
 20
44.1759
 30
0.0
 10
114.2237
 20
48.7665
 30
0.0
 10
107.2182
 20
45.9738
 30
0.0
 10
105.7472
 20
40.5189
 30
0.0
 10
105.7472
 20
40.5189
 30
0.0
 10
104.3954
 20
35.5071
 30
0.0
 10
105.0861
 20
26.1403
 30
0.0
 10
104.9699
 20
20.6105
 30
0.0
 10
104.9699
 20
20.6105
 30
0.0
 10
106.9946
 20
19.2195
 30
0.0
 10
108.5117
 20
17.6104
 30
0.0
 10
109.7114
 20
15.8687
 30
0.0
 10
109.7114
 20
15.8687
 30
0.0
 10
109.7114
 20
15.8687
 30
0.0
 10
109.7113
 20
15.8688
 30
0.0
 10
109.7113
 20
15.8688
 30
0.0
  0
SPLINE
  5
7A
330
1F
100
AcDbEntity
  8
layer 1
 62
     7
100
AcDbSpline
210
0.0
220
0.0
230
1.0
 70
    11
 71
     3
 72
    24
 73
    20
 74
     0
 42
0.0000000001
 43
0.0000000001
 12
1.0
 22
0.0
 32
0.0
 13
1.0
 23
0.0
 33
0.0
 40
0.0
 40
0.0
 40
0.0
 40
0.0
 40
0.1666666666666667
 40
0.1666666666666667
 40
0.1666666666666667
 40
0.1666666666666667
 40
0.3333333333333333
 40
0.3333333333333333
 40
0.3333333333333333
 40
0.3333333333333333
 40
0.5
 40
0.5
 40
0.5
 40
0.5
 40
0.6666666666666666
 40
0.6666666666666666
 40
0.6666666666666666
 40
0.6666666666666666
 40
1.0
 40
1.0
 40
1.0
 40
1.0
 10
158.9017
 20
102.7849
 30
0.0
 10
153.607
 20
98.8291
 30
0.0
 10
157.5826
 20
92.9761
 30
0.0
 10
161.3414
 20
94.0081
 30
0.0
 10
161.3414
 20
94.0081
 30
0.0
 10
159.6691
 20
89.3458
 30
0.0
 10
152.7922
 20
89.4541
 30
0.0
 10
149.1685
 20
94.4959
 30
0.0
 10
149.1685
 20
94.4959
 30
0.0
 10
145.771
 20
100.5659
 30
0.0
 10
146.8735
 20
106.2022
 30
0.0
 10
149.8732
 20
110.7543
 30
0.0
 10
149.8732
 20
110.7543
 30
0.0
 10
149.0879
 20
106.0378
 30
0.0
 10
153.9948
 20
101.538
 30
0.0
 10
158.9019
 20
102.7849
 30
0.0
 10
158.9019
 20
102.7849
 30
0.0
 10
158.9019
 20
102.7849
 30
0.0
 10
158.9017
 20
102.7849
 30
0.0
 10
158.9017
 20
102.7849
 30
0.0
  0
SPLINE
  5
7B
330
1F
100
AcDbEntity
  8
layer 1
 62
     7
100
AcDbSpline
210
0.0
220
0.0
230
1.0
 70
    11
 71
     3
 72
    48
 73
    44
 74
     0
 42
0.0000000001
 43
0.0000000001
 12
1.0
 22
0.0
 32
0.0
 13
1.0
 23
0.0
 33
0.0
 40
0.0
 40
0.0
 40
0.0
 40
0.0
 40
0.0833333333333333
 40
0.0833333333333333
 40
0.0833333333333333
 40
0.0833333333333333
 40
0.1666666666666667
 40
0.1666666666666667
 40
0.1666666666666667
 40
0.1666666666666667
 40
0.25
 40
0.25
 40
0.25
 40
0.25
 40
0.3333333333333333
 40
0.3333333333333333
 40
0.3333333333333333
 40
0.3333333333333333
 40
0.4166666666666667
 40
0.4166666666666667
 40
0.4166666666666667
 40
0.4166666666666667
 40
0.5
 40
0.5
 40
0.5
 40
0.5
 40
0.5833333333333334
 40
0.5833333333333334
 40
0.5833333333333334
 40
0.5833333333333334
 40
0.6666666666666666
 40
0.6666666666666666
 40
0.6666666666666666
 40
0.6666666666666666
 40
0.75
 40
0.75
 40
0.75
 40
0.75
 40
0.8333333333333334
 40
0.8333333333333334
 40
0.8333333333333334
 40
0.8333333333333334
 40
1.0
 40
1.0
 40
1.0
 40
1.0
 10
177.6997
 20
53.6307
 30
0.0
 10
177.6997
 20
50.7028
 30
0.0
 10
175.3261
 20
48.3292
 30
0.0
 10
172.3982
 20
48.3292
 30
0.0
 10
172.3982
 20
48.3292
 30
0.0
 10
168.3187
 20
48.5625
 30
0.0
 10
166.886
 20
50.8334
 30
0.0
 10
165.195
 20
53.8471
 30
0.0
 10
165.195
 20
53.8471
 30
0.0
 10
166.3801
 20
54.8291
 30
0.0
 10
167.8855
 20
56.2158
 30
0.0
 10
169.0398
 20
58.1631
 30
0.0
 10
169.0398
 20
58.1631
 30
0.0
 10
166.6615
 20
61.9787
 30
0.0
 10
167.8679
 20
66.8538
 30
0.0
 10
171.4647
 20
71.81
 30
0.0
 10
171.4647
 20
71.81
 30
0.0
 10
176.2944
 20
71.5554
 30
0.0
 10
179.2931
 20
73.919
 30
0.0
 10
183.1004
 20
76.6249
 30
0.0
 10
183.1004
 20
76.6249
 30
0.0
 10
180.6828
 20
74.0531
 30
0.0
 10
178.5896
 20
71.0483
 30
0.0
 10
179.3303
 20
67.4458
 30
0.0
 10
179.3303
 20
67.4458
 30
0.0
 10
178.0009
 20
67.175
 30
0.0
 10
176.9753
 20
66.6927
 30
0.0
 10
175.9919
 20
66.0994
 30
0.0
 10
175.9919
 20
66.0994
 30
0.0
 10
176.0034
 20
64.9706
 30
0.0
 10
176.4288
 20
64.0117
 30
0.0
 10
176.6972
 20
63.117
 30
0.0
 10
176.6972
 20
63.117
 30
0.0
 10
172.8045
 20
62.4043
 30
0.0
 10
171.6863
 20
60.4795
 30
0.0
 10
172.201
 20
58.9783
 30
0.0
 10
172.201
 20
58.9783
 30
0.0
 10
175.3261
 20
58.9323
 30
0.0
 10
177.6997
 20
56.5588
 30
0.0
 10
177.6997
 20
53.6308
 30
0.0
 10
177.6997
 20
53.6308
 30
0.0
 10
177.6997
 20
53.6308
 30
0.0
 10
177.6997
 20
53.6307
 30
0.0
 10
177.6997
 20
53.6307
 30
0.0
  0
SPLINE
  5
7C
330
1F
100
AcDbEntity
  8
layer 1
 62
     7
100
AcDbSpline
210
0.0
220
0.0
230
1.0
 70
    11
 71
     3
 72
    48
 73
    44
 74
     0
 42
0.0000000001
 43
0.0000000001
 12
1.0
 22
0.0
 32
0.0
 13
1.0
 23
0.0
 33
0.0
 40
0.0
 40
0.0
 40
0.0
 40
0.0
 40
0.0833333333333333
 40
0.0833333333333333
 40
0.0833333333333333
 40
0.0833333333333333
 40
0.1666666666666667
 40
0.1666666666666667
 40
0.1666666666666667
 40
0.1666666666666667
 40
0.25
 40
0.25
 40
0.25
 40
0.25
 40
0.3333333333333333
 40
0.3333333333333333
 40
0.3333333333333333
 40
0.3333333333333333
 40
0.4166666666666667
 40
0.4166666666666667
 40
0.4166666666666667
 40
0.4166666666666667
 40
0.5
 40
0.5
 40
0.5
 40
0.5
 40
0.5833333333333334
 40
0.5833333333333334
 40
0.5833333333333334
 40
0.5833333333333334
 40
0.6666666666666666
 40
0.6666666666666666
 40
0.6666666666666666
 40
0.6666666666666666
 40
0.75
 40
0.75
 40
0.75
 40
0.75
 40
0.8333333333333334
 40
0.8333333333333334
 40
0.8333333333333334
 40
0.8333333333333334
 40
1.0
 40
1.0
 40
1.0
 40
1.0
 10
165.7393
 20
111.796
 30
0.0
 10
164.4456
 20
113.634
 30
0.0
 10
163.3223
 20
115.2275
 30
0.0
 10
162.9604
 20
116.1408
 30
0.0
 10
162.9604
 20
116.1408
 30
0.0
 10
156.5322
 20
113.1674
 30
0.0
 10
156.3175
 20
106.9823
 30
0.0
 10
160.3673
 20
103.3164
 30
0.0
 10
160.3673
 20
103.3164
 30
0.0
 10
168.6852
 20
106.2485
 30
0.0
 10
175.7142
 20
95.9893
 30
0.0
 10
168.5179
 20
85.9524
 30
0.0
 10
168.5179
 20
85.9524
 30
0.0
 10
172.3155
 20
87.8342
 30
0.0
 10
175.3053
 20
83.5682
 30
0.0
 10
173.7264
 20
80.5257
 30
0.0
 10
173.7264
 20
80.5257
 30
0.0
 10
178.1645
 20
79.9974
 30
0.0
 10
182.2804
 20
83.7303
 30
0.0
 10
184.492
 20
88.8018
 30
0.0
 10
184.492
 20
88.8018
 30
0.0
 10
182.294
 20
87.0636
 30
0.0
 10
181.025
 20
86.0713
 30
0.0
 10
179.6347
 20
85.1943
 30
0.0
 10
179.6347
 20
85.1943
 30
0.0
 10
178.6533
 20
86.2046
 30
0.0
 10
176.4534
 20
89.2528
 30
0.0
 10
175.3831
 20
91.8901
 30
0.0
 10
175.3831
 20
91.8901
 30
0.0
 10
177.2647
 20
92.6711
 30
0.0
 10
180.1256
 20
95.2391
 30
0.0
 10
180.9595
 20
97.0473
 30
0.0
 10
180.9595
 20
97.0473
 30
0.0
 10
179.9808
 20
97.673
 30
0.0
 10
179.1699
 20
98.1674
 30
0.0
 10
178.5305
 20
99.1879
 30
0.0
 10
178.5305
 20
99.1879
 30
0.0
 10
183.4591
 20
106.7554
 30
0.0
 10
175.6121
 20
118.4799
 30
0.0
 10
165.7392
 20
111.796
 30
0.0
 10
165.7392
 20
111.796
 30
0.0
 10
165.7392
 20
111.796
 30
0.0
 10
165.7393
 20
111.796
 30
0.0
 10
165.7393
 20
111.796
 30
0.0
  0
SPLINE
  5
7D
330
1F
100
AcDbEntity
  8
layer 1
 62
     7
100
AcDbSpline
210
0.0
220
0.0
230
1.0
 70
    11
 71
     3
 72
    44
 73
    40
 74
     0
 42
0.0000000001
 43
0.0000000001
 12
1.0
 22
0.0
 32
0.0
 13
1.0
 23
0.0
 33
0.0
 40
0.0
 40
0.0
 40
0.0
 40
0.0
 40
0.0909090909090909
 40
0.0909090909090909
 40
0.0909090909090909
 40
0.0909090909090909
 40
0.1818181818181818
 40
0.1818181818181818
 40
0.1818181818181818
 40
0.1818181818181818
 40
0.2727272727272727
 40
0.2727272727272727
 40
0.2727272727272727
 40
0.2727272727272727
 40
0.3636363636363636
 40
0.3636363636363636
 40
0.3636363636363636
 40
0.3636363636363636
 40
0.4545454545454545
 40
0.4545454545454545
 40
0.4545454545454545
 40
0.4545454545454545
 40
0.5454545454545454
 40
0.5454545454545454
 40
0.5454545454545454
 40
0.5454545454545454
 40
0.6363636363636364
 40
0.6363636363636364
 40
0.6363636363636364
 40
0.6363636363636364
 40
0.7272727272727273
 40
0.7272727272727273
 40
0.7272727272727273
 40
0.7272727272727273
 40
0.8181818181818182
 40
0.8181818181818182
 40
0.8181818181818182
 40
0.8181818181818182
 40
1.0
 40
1.0
 40
1.0
 40
1.0
 10
170.3996
 20
20.6665
 30
0.0
 10
169.6011
 20
20.1339
 30
0.0
 10
168.8244
 20
18.7299
 30
0.0
 10
168.6341
 20
17.7032
 30
0.0
 10
168.6341
 20
17.7032
 30
0.0
 10
167.5773
 20
18.5069
 30
0.0
 10
166.3157
 20
21.1199
 30
0.0
 10
167.4762
 20
22.8789
 30
0.0
 10
167.4762
 20
22.8789
 30
0.0
 10
172.1974
 20
18.2149
 30
0.0
 10
179.0066
 20
29.5251
 30
0.0
 10
170.1234
 20
31.2442
 30
0.0
 10
170.1234
 20
31.2442
 30
0.0
 10
170.3686
 20
32.0371
 30
0.0
 10
170.8336
 20
33.4333
 30
0.0
 10
171.0084
 20
34.4543
 30
0.0
 10
171.0084
 20
34.4543
 30
0.0
 10
170.249
 20
34.9412
 30
0.0
 10
168.775
 20
35.5885
 30
0.0
 10
167.4169
 20
36.1327
 30
0.0
 10
167.4169
 20
36.1327
 30
0.0
 10
167.378
 20
37.5774
 30
0.0
 10
167.1262
 20
40.5367
 30
0.0
 10
164.1601
 20
44.0058
 30
0.0
 10
164.1601
 20
44.0058
 30
0.0
 10
166.5947
 20
41.4537
 30
0.0
 10
170.1887
 20
40.1161
 30
0.0
 10
174.338
 20
40.4353
 30
0.0
 10
174.338
 20
40.4353
 30
0.0
 10
177.2338
 20
37.8975
 30
0.0
 10
179.9373
 20
33.5953
 30
0.0
 10
180.2993
 20
28.9798
 30
0.0
 10
180.2993
 20
28.9798
 30
0.0
 10
180.4018
 20
25.0556
 30
0.0
 10
176.8275
 20
17.6149
 30
0.0
 10
170.3997
 20
20.6665
 30
0.0
 10
170.3997
 20
20.6665
 30
0.0
 10
170.3997
 20
20.6665
 30
0.0
 10
170.3996
 20
20.6665
 30
0.0
 10
170.3996
 20
20.6665
 30
0.0
  0
SPLINE
  5
7E
330
1F
100
AcDbEntity
  8
layer 1
 62
     7
100
AcDbSpline
210
0.0
220
0.0
230
1.0
 70
    11
 71
     3
 72
    20
 73
    16
 74
     0
 42
0.0000000001
 43
0.0000000001
 12
1.0
 22
0.0
 32
0.0
 13
1.0
 23
0.0
 33
0.0
 40
0.0
 40
0.0
 40
0.0
 40
0.0
 40
0.2
 40
0.2
 40
0.2
 40
0.2
 40
0.4
 40
0.4
 40
0.4
 40
0.4
 40
0.6
 40
0.6
 40
0.6
 40
0.6
 40
1.0
 40
1.0
 40
1.0
 40
1.0
 10
146.9073
 20
53.7751
 30
0.0
 10
145.0622
 20
50.6955
 30
0.0
 10
146.5464
 20
45.609
 30
0.0
 10
149.2374
 20
43.6019
 30
0.0
 10
149.2374
 20
43.6019
 30
0.0
 10
149.3994
 20
41.5406
 30
0.0
 10
148.245
 20
39.924
 30
0.0
 10
145.6339
 20
39.1068
 30
0.0
 10
145.6339
 20
39.1068
 30
0.0
 10
143.6137
 20
42.4977
 30
0.0
 10
142.4314
 20
49.1401
 30
0.0
 10
146.9072
 20
53.7751
 30
0.0
 10
146.9072
 20
53.7751
 30
0.0
 10
146.9072
 20
53.7751
 30
0.0
 10
146.9073
 20
53.7751
 30
0.0
 10
146.9073
 20
53.7751
 30
0.0
  0
SPLINE
  5
7F
330
1F
100
AcDbEntity
  8
layer 1
 62
     7
100
AcDbSpline
210
0.0
220
0.0
230
1.0
 70
    11
 71
     3
 72
    28
 73
    24
 74
     0
 42
0.0000000001
 43
0.0000000001
 12
1.0
 22
0.0
 32
0.0
 13
1.0
 23
0.0
 33
0.0
 40
0.0
 40
0.0
 40
0.0
 40
0.0
 40
0.1428571428571428
 40
0.1428571428571428
 40
0.1428571428571428
 40
0.1428571428571428
 40
0.2857142857142857
 40
0.2857142857142857
 40
0.2857142857142857
 40
0.2857142857142857
 40
0.4285714285714285
 40
0.4285714285714285
 40
0.4285714285714285
 40
0.4285714285714285
 40
0.5714285714285714
 40
0.5714285714285714
 40
0.5714285714285714
 40
0.5714285714285714
 40
0.7142857142857143
 40
0.7142857142857143
 40
0.7142857142857143
 40
0.7142857142857143
 40
1.0
 40
1.0
 40
1.0
 40
1.0
 10
165.9574
 20
83.9765
 30
0.0
 10
163.1055
 20
81.0518
 30
0.0
 10
164.7446
 20
76.5847
 30
0.0
 10
167.0483
 20
74.81
 30
0.0
 10
167.0483
 20
74.81
 30
0.0
 10
162.719
 20
73.4456
 30
0.0
 10
159.0863
 20
70.8224
 30
0.0
 10
155.7784
 20
66.288
 30
0.0
 10
155.7784
 20
66.288
 30
0.0
 10
156.6454
 20
70.2753
 30
0.0
 10
156.8941
 20
74.6695
 30
0.0
 10
154.9042
 20
77.0863
 30
0.0
 10
154.9042
 20
77.0863
 30
0.0
 10
158.4591
 20
76.9104
 30
0.0
 10
160.7686
 20
77.6593
 30
0.0
 10
161.0496
 20
78.1649
 30
0.0
 10
161.0496
 20
78.1649
 30
0.0
 10
161.2967
 20
78.95
 30
0.0
 10
160.8851
 20
80.2994
 30
0.0
 10
160.4228
 20
81.1669
 30
0.0
 10
160.4228
 20
81.1669
 30
0.0
 10
162.1899
 20
81.3474
 30
0.0
 10
163.9641
 20
82.0426
 30
0.0
 10
165.9574
 20
83.9765
 30
0.0
  0
SPLINE
  5
80
330
1F
100
AcDbEntity
  8
layer 1
 62
     7
100
AcDbSpline
210
0.0
220
0.0
230
1.0
 70
    11
 71
     3
 72
    20
 73
    16
 74
     0
 42
0.0000000001
 43
0.0000000001
 12
1.0
 22
0.0
 32
0.0
 13
1.0
 23
0.0
 33
0.0
 40
0.0
 40
0.0
 40
0.0
 40
0.0
 40
0.2
 40
0.2
 40
0.2
 40
0.2
 40
0.4
 40
0.4
 40
0.4
 40
0.4
 40
0.6
 40
0.6
 40
0.6
 40
0.6
 40
1.0
 40
1.0
 40
1.0
 40
1.0
 10
120.1133
 20
56.8631
 30
0.0
 10
117.7957
 20
59.7494
 30
0.0
 10
117.1532
 20
65.9099
 30
0.0
 10
119.8442
 20
67.9171
 30
0.0
 10
119.8442
 20
67.9171
 30
0.0
 10
119.641
 20
69.3339
 30
0.0
 10
118.5078
 20
71.2727
 30
0.0
 10
117.0569
 20
72.1545
 30
0.0
 10
117.0569
 20
72.1545
 30
0.0
 10
113.2536
 20
69.3435
 30
0.0
 10
113.5537
 20
60.9396
 30
0.0
 10
120.1133
 20
56.8632
 30
0.0
 10
120.1133
 20
56.8632
 30
0.0
 10
120.1133
 20
56.8632
 30
0.0
 10
120.1133
 20
56.8631
 30
0.0
 10
120.1133
 20
56.8631
 30
0.0
  0
SPLINE
  5
81
330
1F
100
AcDbEntity
  8
layer 1
 62
     7
100
AcDbSpline
210
0.0
220
0.0
230
1.0
 70
    11
 71
     3
 72
    88
 73
    84
 74
     0
 42
0.0000000001
 43
0.0000000001
 12
1.0
 22
0.0
 32
0.0
 13
1.0
 23
0.0
 33
0.0
 40
0.0
 40
0.0
 40
0.0
 40
0.0
 40
0.0454545454545455
 40
0.0454545454545455
 40
0.0454545454545455
 40
0.0454545454545455
 40
0.0909090909090909
 40
0.0909090909090909
 40
0.0909090909090909
 40
0.0909090909090909
 40
0.1363636363636364
 40
0.1363636363636364
 40
0.1363636363636364
 40
0.1363636363636364
 40
0.1818181818181818
 40
0.1818181818181818
 40
0.1818181818181818
 40
0.1818181818181818
 40
0.2272727272727273
 40
0.2272727272727273
 40
0.2272727272727273
 40
0.2272727272727273
 40
0.2727272727272727
 40
0.2727272727272727
 40
0.2727272727272727
 40
0.2727272727272727
 40
0.3181818181818182
 40
0.3181818181818182
 40
0.3181818181818182
 40
0.3181818181818182
 40
0.3636363636363636
 40
0.3636363636363636
 40
0.3636363636363636
 40
0.3636363636363636
 40
0.4090909090909091
 40
0.4090909090909091
 40
0.4090909090909091
 40
0.4090909090909091
 40
0.4545454545454545
 40
0.4545454545454545
 40
0.4545454545454545
 40
0.4545454545454545
 40
0.5
 40
0.5
 40
0.5
 40
0.5
 40
0.5454545454545454
 40
0.5454545454545454
 40
0.5454545454545454
 40
0.5454545454545454
 40
0.5909090909090909
 40
0.5909090909090909
 40
0.5909090909090909
 40
0.5909090909090909
 40
0.6363636363636364
 40
0.6363636363636364
 40
0.6363636363636364
 40
0.6363636363636364
 40
0.6818181818181818
 40
0.6818181818181818
 40
0.6818181818181818
 40
0.6818181818181818
 40
0.7272727272727273
 40
0.7272727272727273
 40
0.7272727272727273
 40
0.7272727272727273
 40
0.7727272727272727
 40
0.7727272727272727
 40
0.7727272727272727
 40
0.7727272727272727
 40
0.8181818181818182
 40
0.8181818181818182
 40
0.8181818181818182
 40
0.8181818181818182
 40
0.8636363636363636
 40
0.8636363636363636
 40
0.8636363636363636
 40
0.8636363636363636
 40
0.9090909090909091
 40
0.9090909090909091
 40
0.9090909090909091
 40
0.9090909090909091
 40
1.0
 40
1.0
 40
1.0
 40
1.0
 10
125.213
 20
67.8263
 30
0.0
 10
124.9219
 20
68.4614
 30
0.0
 10
124.3703
 20
68.9798
 30
0.0
 10
123.1
 20
69.2062
 30
0.0
 10
123.1
 20
69.2062
 30
0.0
 10
123.7279
 20
70.8256
 30
0.0
 10
123.3727
 20
72.6701
 30
0.0
 10
122.4054
 20
73.4704
 30
0.0
 10
122.4054
 20
73.4704
 30
0.0
 10
122.4054
 20
73.4704
 30
0.0
 10
121.014
 20
73.3785
 30
0.0
 10
119.9145
 20
73.0346
 30
0.0
 10
119.9145
 20
73.0346
 30
0.0
 10
119.5021
 20
75.2267
 30
0.0
 10
117.3695
 20
76.3553
 30
0.0
 10
116.9133
 20
76.5557
 30
0.0
 10
116.9133
 20
76.5557
 30
0.0
 10
112.4743
 20
75.5265
 30
0.0
 10
111.8581
 20
71.8419
 30
0.0
 10
111.917
 20
70.5719
 30
0.0
 10
111.917
 20
70.5719
 30
0.0
 10
111.5185
 20
70.7486
 30
0.0
 10
110.9929
 20
70.7455
 30
0.0
 10
110.6091
 20
70.4952
 30
0.0
 10
110.6091
 20
70.4952
 30
0.0
 10
109.5918
 20
66.2467
 30
0.0
 10
112.6112
 20
61.1152
 30
0.0
 10
115.272
 20
58.7275
 30
0.0
 10
115.272
 20
58.7275
 30
0.0
 10
113.4463
 20
58.9647
 30
0.0
 10
106.5254
 20
65.2773
 30
0.0
 10
105.361
 20
67.6228
 30
0.0
 10
105.361
 20
67.6228
 30
0.0
 10
106.4953
 20
68.0832
 30
0.0
 10
106.56
 20
69.1764
 30
0.0
 10
105.9499
 20
69.6975
 30
0.0
 10
105.9499
 20
69.6975
 30
0.0
 10
98.7585
 20
78.8329
 30
0.0
 10
109.0236
 20
94.9685
 30
0.0
 10
118.3717
 20
88.9674
 30
0.0
 10
118.3717
 20
88.9674
 30
0.0
 10
121.1048
 20
90.3012
 30
0.0
 10
120.994
 20
92.4589
 30
0.0
 10
121.2596
 20
94.0766
 30
0.0
 10
121.2596
 20
94.0766
 30
0.0
 10
124.0599
 20
93.0088
 30
0.0
 10
127.9183
 20
86.8863
 30
0.0
 10
123.4398
 20
84.0361
 30
0.0
 10
123.4398
 20
84.0361
 30
0.0
 10
119.0139
 20
88.2564
 30
0.0
 10
111.9196
 20
82.2728
 30
0.0
 10
118.6353
 20
75.8602
 30
0.0
 10
118.6353
 20
75.8602
 30
0.0
 10
120.3453
 20
74.3136
 30
0.0
 10
125.0649
 20
73.1782
 30
0.0
 10
129.7371
 20
76.337
 30
0.0
 10
129.7371
 20
76.337
 30
0.0
 10
123.1
 20
69.2061
 30
0.0
 10
126.611
 20
59.7004
 30
0.0
 10
132.3807
 20
56.871
 30
0.0
 10
132.3807
 20
56.871
 30
0.0
 10
131.7773
 20
56.1356
 30
0.0
 10
131.1033
 20
54.2189
 30
0.0
 10
131.0425
 20
52.3242
 30
0.0
 10
131.0425
 20
52.3242
 30
0.0
 10
132.6718
 20
51.3672
 30
0.0
 10
137.8463
 20
50.0975
 30
0.0
 10
142.007
 20
51.607
 30
0.0
 10
142.007
 20
51.607
 30
0.0
 10
139.5591
 20
48.5213
 30
0.0
 10
137.9179
 20
42.8752
 30
0.0
 10
141.3812
 20
37.6645
 30
0.0
 10
141.3812
 20
37.6645
 30
0.0
 10
135.3413
 20
46.927
 30
0.0
 10
129.2664
 20
50.3941
 30
0.0
 10
126.4983
 20
52.8046
 30
0.0
 10
126.4983
 20
52.8046
 30
0.0
 10
122.6077
 20
55.2026
 30
0.0
 10
119.3509
 20
63.6601
 30
0.0
 10
125.213
 20
67.8262
 30
0.0
 10
125.213
 20
67.8262
 30
0.0
 10
125.213
 20
67.8262
 30
0.0
 10
125.213
 20
67.8263
 30
0.0
 10
125.213
 20
67.8263
 30
0.0
  0
SPLINE
  5
82
330
1F
100
AcDbEntity
  8
layer 1
 62
     7
100
AcDbSpline
210
0.0
220
0.0
230
1.0
 70
    11
 71
     3
 72
    36
 73
    32
 74
     0
 42
0.0000000001
 43
0.0000000001
 12
1.0
 22
0.0
 32
0.0
 13
1.0
 23
0.0
 33
0.0
 40
0.0
 40
0.0
 40
0.0
 40
0.0
 40
0.1111111111111111
 40
0.1111111111111111
 40
0.1111111111111111
 40
0.1111111111111111
 40
0.2222222222222222
 40
0.2222222222222222
 40
0.2222222222222222
 40
0.2222222222222222
 40
0.3333333333333333
 40
0.3333333333333333
 40
0.3333333333333333
 40
0.3333333333333333
 40
0.4444444444444444
 40
0.4444444444444444
 40
0.4444444444444444
 40
0.4444444444444444
 40
0.5555555555555556
 40
0.5555555555555556
 40
0.5555555555555556
 40
0.5555555555555556
 40
0.6666666666666666
 40
0.6666666666666666
 40
0.6666666666666666
 40
0.6666666666666666
 40
0.7777777777777778
 40
0.7777777777777778
 40
0.7777777777777778
 40
0.7777777777777778
 40
1.0
 40
1.0
 40
1.0
 40
1.0
 10
99.3326
 20
61.8141
 30
0.0
 10
99.3968
 20
62.3848
 30
0.0
 10
99.2052
 20
63.3289
 30
0.0
 10
98.9354
 20
63.9591
 30
0.0
 10
98.9354
 20
63.9591
 30
0.0
 10
99.8345
 20
64.7251
 30
0.0
 10
100.5005
 20
65.0919
 30
0.0
 10
101.5279
 20
65.5284
 30
0.0
 10
101.5279
 20
65.5284
 30
0.0
 10
99.3245
 20
68.7156
 30
0.0
 10
97.493
 20
72.6816
 30
0.0
 10
96.6449
 20
76.9436
 30
0.0
 10
96.6449
 20
76.9436
 30
0.0
 10
95.7971
 20
72.6816
 30
0.0
 10
93.9656
 20
68.7156
 30
0.0
 10
91.7621
 20
65.5284
 30
0.0
 10
91.7621
 20
65.5284
 30
0.0
 10
92.7894
 20
65.0919
 30
0.0
 10
93.4553
 20
64.7251
 30
0.0
 10
94.3545
 20
63.9591
 30
0.0
 10
94.3545
 20
63.9591
 30
0.0
 10
94.0848
 20
63.3289
 30
0.0
 10
93.8932
 20
62.3848
 30
0.0
 10
93.9575
 20
61.8141
 30
0.0
 10
93.9575
 20
61.8141
 30
0.0
 10
95.9136
 20
61.8626
 30
0.0
 10
97.5316
 20
61.9289
 30
0.0
 10
99.3325
 20
61.8141
 30
0.0
 10
99.3325
 20
61.8141
 30
0.0
 10
99.3325
 20
61.8141
 30
0.0
 10
99.3326
 20
61.8141
 30
0.0
 10
99.3326
 20
61.8141
 30
0.0
  0
SPLINE
  5
83
330
1F
100
AcDbEntity
  8
layer 1
 62
     7
100
AcDbSpline
210
0.0
220
0.0
230
1.0
 70
    11
 71
     3
 72
   100
 73
    96
 74
     0
 42
0.0000000001
 43
0.0000000001
 12
1.0
 22
0.0
 32
0.0
 13
1.0
 23
0.0
 33
0.0
 40
0.0
 40
0.0
 40
0.0
 40
0.0
 40
0.04
 40
0.04
 40
0.04
 40
0.04
 40
0.08
 40
0.08
 40
0.08
 40
0.08
 40
0.12
 40
0.12
 40
0.12
 40
0.12
 40
0.16
 40
0.16
 40
0.16
 40
0.16
 40
0.2
 40
0.2
 40
0.2
 40
0.2
 40
0.24
 40
0.24
 40
0.24
 40
0.24
 40
0.28
 40
0.28
 40
0.28
 40
0.28
 40
0.32
 40
0.32
 40
0.32
 40
0.32
 40
0.36
 40
0.36
 40
0.36
 40
0.36
 40
0.4
 40
0.4
 40
0.4
 40
0.4
 40
0.44
 40
0.44
 40
0.44
 40
0.44
 40
0.48
 40
0.48
 40
0.48
 40
0.48
 40
0.52
 40
0.52
 40
0.52
 40
0.52
 40
0.56
 40
0.56
 40
0.56
 40
0.56
 40
0.6
 40
0.6
 40
0.6
 40
0.6
 40
0.64
 40
0.64
 40
0.64
 40
0.64
 40
0.68
 40
0.68
 40
0.68
 40
0.68
 40
0.72
 40
0.72
 40
0.72
 40
0.72
 40
0.76
 40
0.76
 40
0.76
 40
0.76
 40
0.8
 40
0.8
 40
0.8
 40
0.8
 40
0.84
 40
0.84
 40
0.84
 40
0.84
 40
0.88
 40
0.88
 40
0.88
 40
0.88
 40
0.92
 40
0.92
 40
0.92
 40
0.92
 40
1.0
 40
1.0
 40
1.0
 40
1.0
 10
102.1853
 20
95.5142
 30
0.0
 10
103.2124
 20
96.7077
 30
0.0
 10
103.4272
 20
97.1002
 30
0.0
 10
102.8366
 20
99.7233
 30
0.0
 10
102.8366
 20
99.7233
 30
0.0
 10
104.6218
 20
99.6844
 30
0.0
 10
106.1985
 20
100.3557
 30
0.0
 10
107.2017
 20
101.3233
 30
0.0
 10
107.2017
 20
101.3233
 30
0.0
 10
107.2664
 20
102.2696
 30
0.0
 10
106.6707
 20
103.3295
 30
0.0
 10
105.9366
 20
104.61
 30
0.0
 10
105.9366
 20
104.61
 30
0.0
 10
108.8425
 20
107.1716
 30
0.0
 10
106.9875
 20
111.8602
 30
0.0
 10
103.9145
 20
111.1
 30
0.0
 10
103.9145
 20
111.1
 30
0.0
 10
104.0458
 20
110.8002
 30
0.0
 10
104.1198
 20
110.4801
 30
0.0
 10
104.1198
 20
110.1429
 30
0.0
 10
104.1198
 20
110.1429
 30
0.0
 10
104.1198
 20
108.8972
 30
0.0
 10
103.1099
 20
107.8873
 30
0.0
 10
101.864
 20
107.8873
 30
0.0
 10
101.864
 20
107.8873
 30
0.0
 10
100.6182
 20
107.8873
 30
0.0
 10
99.6083
 20
108.8972
 30
0.0
 10
99.6083
 20
110.1429
 30
0.0
 10
99.6083
 20
110.1429
 30
0.0
 10
99.6083
 20
111.0128
 30
0.0
 10
100.1006
 20
111.7675
 30
0.0
 10
100.8217
 20
112.1441
 30
0.0
 10
100.8217
 20
112.1441
 30
0.0
 10
102.4993
 20
113.0005
 30
0.0
 10
104.8129
 20
113.1477
 30
0.0
 10
106.7646
 20
112.1698
 30
0.0
 10
106.7646
 20
112.1698
 30
0.0
 10
110.6937
 20
110.0327
 30
0.0
 10
110.9618
 20
103.3091
 30
0.0
 10
108.057
 20
99.2355
 30
0.0
 10
108.057
 20
99.2355
 30
0.0
 10
103.5615
 20
97.3135
 30
0.0
 10
98.6374
 20
91.4604
 30
0.0
 10
96.6449
 20
81.1405
 30
0.0
 10
96.6449
 20
81.1405
 30
0.0
 10
94.6525
 20
91.4604
 30
0.0
 10
89.7283
 20
97.3136
 30
0.0
 10
85.2328
 20
99.2355
 30
0.0
 10
85.2328
 20
99.2355
 30
0.0
 10
82.328
 20
103.3091
 30
0.0
 10
82.5963
 20
110.0325
 30
0.0
 10
86.5252
 20
112.1698
 30
0.0
 10
86.5252
 20
112.1698
 30
0.0
 10
88.477
 20
113.1477
 30
0.0
 10
90.7905
 20
113.0005
 30
0.0
 10
92.4681
 20
112.1441
 30
0.0
 10
92.4681
 20
112.1441
 30
0.0
 10
93.1892
 20
111.7675
 30
0.0
 10
93.6816
 20
111.0128
 30
0.0
 10
93.6816
 20
110.1429
 30
0.0
 10
93.6816
 20
110.1429
 30
0.0
 10
93.6816
 20
108.8972
 30
0.0
 10
92.6716
 20
107.8873
 30
0.0
 10
91.4258
 20
107.8873
 30
0.0
 10
91.4258
 20
107.8873
 30
0.0
 10
90.1799
 20
107.8873
 30
0.0
 10
89.17
 20
108.8972
 30
0.0
 10
89.17
 20
110.1429
 30
0.0
 10
89.17
 20
110.1429
 30
0.0
 10
89.17
 20
110.4802
 30
0.0
 10
89.244
 20
110.8003
 30
0.0
 10
89.3753
 20
111.1
 30
0.0
 10
89.3753
 20
111.1
 30
0.0
 10
86.3024
 20
111.8604
 30
0.0
 10
84.4473
 20
107.1716
 30
0.0
 10
87.3532
 20
104.61
 30
0.0
 10
87.3532
 20
104.61
 30
0.0
 10
86.6193
 20
103.3295
 30
0.0
 10
86.0234
 20
102.2696
 30
0.0
 10
86.0883
 20
101.3233
 30
0.0
 10
86.0883
 20
101.3233
 30
0.0
 10
87.0913
 20
100.3557
 30
0.0
 10
88.668
 20
99.6843
 30
0.0
 10
90.4533
 20
99.7233
 30
0.0
 10
90.4533
 20
99.7233
 30
0.0
 10
89.8626
 20
97.1002
 30
0.0
 10
90.0774
 20
96.7077
 30
0.0
 10
91.1045
 20
95.5142
 30
0.0
 10
91.1045
 20
95.5142
 30
0.0
 10
92.6149
 20
93.7588
 30
0.0
 10
94.2878
 20
92.5681
 30
0.0
 10
96.6449
 20
91.4569
 30
0.0
 10
96.6449
 20
91.4569
 30
0.0
 10
99.002
 20
92.568
 30
0.0
 10
100.6749
 20
93.7587
 30
0.0
 10
102.1853
 20
95.5142
 30
0.0
  0
SPLINE
  5
84
330
1F
100
AcDbEntity
  8
layer 1
 62
     7
100
AcDbSpline
210
0.0
220
0.0
230
1.0
 70
    11
 71
     3
 72
    44
 73
    40
 74
     0
 42
0.0000000001
 43
0.0000000001
 12
1.0
 22
0.0
 32
0.0
 13
1.0
 23
0.0
 33
0.0
 40
0.0
 40
0.0
 40
0.0
 40
0.0
 40
0.0909090909090909
 40
0.0909090909090909
 40
0.0909090909090909
 40
0.0909090909090909
 40
0.1818181818181818
 40
0.1818181818181818
 40
0.1818181818181818
 40
0.1818181818181818
 40
0.2727272727272727
 40
0.2727272727272727
 40
0.2727272727272727
 40
0.2727272727272727
 40
0.3636363636363636
 40
0.3636363636363636
 40
0.3636363636363636
 40
0.3636363636363636
 40
0.4545454545454545
 40
0.4545454545454545
 40
0.4545454545454545
 40
0.4545454545454545
 40
0.5454545454545454
 40
0.5454545454545454
 40
0.5454545454545454
 40
0.5454545454545454
 40
0.6363636363636364
 40
0.6363636363636364
 40
0.6363636363636364
 40
0.6363636363636364
 40
0.7272727272727273
 40
0.7272727272727273
 40
0.7272727272727273
 40
0.7272727272727273
 40
0.8181818181818182
 40
0.8181818181818182
 40
0.8181818181818182
 40
0.8181818181818182
 40
1.0
 40
1.0
 40
1.0
 40
1.0
 10
149.3322
 20
73.95
 30
0.0
 10
150.5229
 20
84.706
 30
0.0
 10
143.3381
 20
85.4936
 30
0.0
 10
140.9088
 20
91.9888
 30
0.0
 10
140.9088
 20
91.9888
 30
0.0
 10
138.5566
 20
90.8772
 30
0.0
 10
137.0442
 20
91.3406
 30
0.0
 10
134.3604
 20
91.116
 30
0.0
 10
134.3604
 20
91.116
 30
0.0
 10
135.4082
 20
88.4426
 30
0.0
 10
135.6892
 20
81.7672
 30
0.0
 10
131.6081
 20
77.1863
 30
0.0
 10
131.6081
 20
77.1863
 30
0.0
 10
137.0448
 20
80.9195
 30
0.0
 10
142.0945
 20
78.7448
 30
0.0
 10
143.3578
 20
75.1069
 30
0.0
 10
143.3578
 20
75.1069
 30
0.0
 10
145.6833
 20
66.7355
 30
0.0
 10
137.0678
 20
65.3794
 30
0.0
 10
136.0312
 20
70.1568
 30
0.0
 10
136.0312
 20
70.1568
 30
0.0
 10
133.9044
 20
67.8635
 30
0.0
 10
135.0644
 20
65.131
 30
0.0
 10
136.6506
 20
64.1454
 30
0.0
 10
136.6506
 20
64.1454
 30
0.0
 10
136.8544
 20
64.916
 30
0.0
 10
137.3295
 20
65.6598
 30
0.0
 10
138.4408
 20
66.513
 30
0.0
 10
138.4408
 20
66.513
 30
0.0
 10
138.9588
 20
66.8355
 30
0.0
 10
139.3235
 20
66.7866
 30
0.0
 10
140.3506
 20
66.5782
 30
0.0
 10
140.3506
 20
66.5782
 30
0.0
 10
146.5355
 20
65.3801
 30
0.0
 10
148.8469
 20
70.9886
 30
0.0
 10
149.3324
 20
73.95
 30
0.0
 10
149.3324
 20
73.95
 30
0.0
 10
149.3324
 20
73.95
 30
0.0
 10
149.3322
 20
73.95
 30
0.0
 10
149.3322
 20
73.95
 30
0.0
  0
SPLINE
  5
85
330
1F
100
AcDbEntity
  8
layer 1
 62
     7
100
AcDbSpline
210
0.0
220
0.0
230
1.0
 70
    11
 71
     3
 72
    40
 73
    36
 74
     0
 42
0.0000000001
 43
0.0000000001
 12
1.0
 22
0.0
 32
0.0
 13
1.0
 23
0.0
 33
0.0
 40
0.0
 40
0.0
 40
0.0
 40
0.0
 40
0.1
 40
0.1
 40
0.1
 40
0.1
 40
0.2
 40
0.2
 40
0.2
 40
0.2
 40
0.3
 40
0.3
 40
0.3
 40
0.3
 40
0.4
 40
0.4
 40
0.4
 40
0.4
 40
0.5
 40
0.5
 40
0.5
 40
0.5
 40
0.6
 40
0.6
 40
0.6
 40
0.6
 40
0.7
 40
0.7
 40
0.7
 40
0.7
 40
0.8
 40
0.8
 40
0.8
 40
0.8
 40
1.0
 40
1.0
 40
1.0
 40
1.0
 10
124.2679
 20
123.5874
 30
0.0
 10
117.2989
 20
123.5874
 30
0.0
 10
112.7568
 20
114.8314
 30
0.0
 10
115.7542
 20
108.8624
 30
0.0
 10
115.7542
 20
108.8624
 30
0.0
 10
113.8764
 20
107.1479
 30
0.0
 10
113.1101
 20
105.1582
 30
0.0
 10
113.4958
 20
102.5515
 30
0.0
 10
113.4958
 20
102.5515
 30
0.0
 10
116.9009
 20
103.591
 30
0.0
 10
119.7982
 20
102.9459
 30
0.0
 10
120.9034
 20
102.9315
 30
0.0
 10
120.9034
 20
102.9315
 30
0.0
 10
125.7206
 20
99.3365
 30
0.0
 10
133.8505
 20
100.9135
 30
0.0
 10
136.4963
 20
102.4608
 30
0.0
 10
136.4963
 20
102.4608
 30
0.0
 10
133.6663
 20
99.6264
 30
0.0
 10
133.6772
 20
94.6915
 30
0.0
 10
133.7415
 20
92.026
 30
0.0
 10
133.7415
 20
92.026
 30
0.0
 10
131.8255
 20
95.5202
 30
0.0
 10
124.2356
 20
105.0742
 30
0.0
 10
111.6515
 20
101.0902
 30
0.0
 10
111.6515
 20
101.0902
 30
0.0
 10
114.9734
 20
110.822
 30
0.0
 10
108.7977
 20
117.1573
 30
0.0
 10
102.5539
 20
117.3393
 30
0.0
 10
102.5539
 20
117.3393
 30
0.0
 10
102.1486
 20
120.4947
 30
0.0
 10
100.1075
 20
122.4762
 30
0.0
 10
97.7502
 20
123.5874
 30
0.0
 10
97.7502
 20
123.5874
 30
0.0
 10
97.7502
 20
123.5874
 30
0.0
 10
124.2679
 20
123.5874
 30
0.0
 10
124.2679
 20
123.5874
 30
0.0
  0
SPLINE
  5
86
330
1F
100
AcDbEntity
  8
layer 1
 62
     7
100
AcDbSpline
210
0.0
220
0.0
230
1.0
 70
    11
 71
     3
 72
    44
 73
    40
 74
     0
 42
0.0000000001
 43
0.0000000001
 12
1.0
 22
0.0
 32
0.0
 13
1.0
 23
0.0
 33
0.0
 40
0.0
 40
0.0
 40
0.0
 40
0.0
 40
0.0909090909090909
 40
0.0909090909090909
 40
0.0909090909090909
 40
0.0909090909090909
 40
0.1818181818181818
 40
0.1818181818181818
 40
0.1818181818181818
 40
0.1818181818181818
 40
0.2727272727272727
 40
0.2727272727272727
 40
0.2727272727272727
 40
0.2727272727272727
 40
0.3636363636363636
 40
0.3636363636363636
 40
0.3636363636363636
 40
0.3636363636363636
 40
0.4545454545454545
 40
0.4545454545454545
 40
0.4545454545454545
 40
0.4545454545454545
 40
0.5454545454545454
 40
0.5454545454545454
 40
0.5454545454545454
 40
0.5454545454545454
 40
0.6363636363636364
 40
0.6363636363636364
 40
0.6363636363636364
 40
0.6363636363636364
 40
0.7272727272727273
 40
0.7272727272727273
 40
0.7272727272727273
 40
0.7272727272727273
 40
0.8181818181818182
 40
0.8181818181818182
 40
0.8181818181818182
 40
0.8181818181818182
 40
1.0
 40
1.0
 40
1.0
 40
1.0
 10
161.1844
 20
123.5874
 30
0.0
 10
156.1311
 20
122.6295
 30
0.0
 10
153.2101
 20
121.6106
 30
0.0
 10
151.7127
 20
120.0627
 30
0.0
 10
151.7127
 20
120.0627
 30
0.0
 10
150.0559
 20
120.4113
 30
0.0
 10
148.5528
 20
121.0006
 30
0.0
 10
145.6226
 20
120.6782
 30
0.0
 10
145.6226
 20
120.6782
 30
0.0
 10
144.2977
 20
111.768
 30
0.0
 10
137.3313
 20
108.7679
 30
0.0
 10
130.1387
 20
110.6334
 30
0.0
 10
130.1387
 20
110.6334
 30
0.0
 10
128.7819
 20
109.7308
 30
0.0
 10
128.1037
 20
107.283
 30
0.0
 10
128.1982
 20
106.1736
 30
0.0
 10
128.1982
 20
106.1736
 30
0.0
 10
122.9941
 20
105.9683
 30
0.0
 10
119.7027
 20
113.2189
 30
0.0
 10
125.0013
 20
116.3873
 30
0.0
 10
125.0013
 20
116.3873
 30
0.0
 10
124.6029
 20
115.0267
 30
0.0
 10
124.7609
 20
113.5551
 30
0.0
 10
125.7094
 20
113.0264
 30
0.0
 10
125.7094
 20
113.0264
 30
0.0
 10
132.0464
 20
110.5522
 30
0.0
 10
132.5779
 20
115.8272
 30
0.0
 10
132.5779
 20
115.8272
 30
0.0
 10
132.5779
 20
115.8272
 30
0.0
 10
135.0156
 20
114.4326
 30
0.0
 10
140.7033
 20
115.8309
 30
0.0
 10
141.5332
 20
118.7393
 30
0.0
 10
141.5332
 20
118.7393
 30
0.0
 10
135.749
 20
119.0209
 30
0.0
 10
134.5183
 20
122.8447
 30
0.0
 10
127.8137
 20
123.5873
 30
0.0
 10
127.8137
 20
123.5873
 30
0.0
 10
127.8137
 20
123.5873
 30
0.0
 10
161.1844
 20
123.5874
 30
0.0
 10
161.1844
 20
123.5874
 30
0.0
  0
SPLINE
  5
87
330
1F
100
AcDbEntity
  8
layer 1
 62
     7
100
AcDbSpline
210
0.0
220
0.0
230
1.0
 70
    11
 71
     3
 72
    16
 73
    12
 74
     0
 42
0.0000000001
 43
0.0000000001
 12
1.0
 22
0.0
 32
0.0
 13
1.0
 23
0.0
 33
0.0
 40
0.0
 40
0.0
 40
0.0
 40
0.0
 40
0.25
 40
0.25
 40
0.25
 40
0.25
 40
0.5
 40
0.5
 40
0.5
 40
0.5
 40
1.0
 40
1.0
 40
1.0
 40
1.0
 10
187.8714
 20
123.5874
 30
0.0
 10
183.3901
 20
122.5245
 30
0.0
 10
181.3544
 20
120.2422
 30
0.0
 10
180.6835
 20
117.4772
 30
0.0
 10
180.6835
 20
117.4772
 30
0.0
 10
175.7987
 20
121.206
 30
0.0
 10
171.5687
 20
122.9315
 30
0.0
 10
163.8363
 20
123.5874
 30
0.0
 10
163.8363
 20
123.5874
 30
0.0
 10
170.8705
 20
123.5874
 30
0.0
 10
182.8289
 20
123.5874
 30
0.0
 10
187.8714
 20
123.5874
 30
0.0
  0
SPLINE
  5
88
330
1F
100
AcDbEntity
  8
layer 1
 62
     7
100
AcDbSpline
210
0.0
220
0.0
230
1.0
 70
    11
 71
     3
 72
    16
 73
    12
 74
     0
 42
0.0000000001
 43
0.0000000001
 12
1.0
 22
0.0
 32
0.0
 13
1.0
 23
0.0
 33
0.0
 40
0.0
 40
0.0
 40
0.0
 40
0.0
 40
0.25
 40
0.25
 40
0.25
 40
0.25
 40
0.5
 40
0.5
 40
0.5
 40
0.5
 40
1.0
 40
1.0
 40
1.0
 40
1.0
 10
189.0896
 20
97.3563
 30
0.0
 10
188.5727
 20
105.9315
 30
0.0
 10
187.9278
 20
106.2518
 30
0.0
 10
186.9174
 20
109.3791
 30
0.0
 10
186.9174
 20
109.3791
 30
0.0
 10
186.632
 20
114.5416
 30
0.0
 10
187.2072
 20
117.4843
 30
0.0
 10
189.0896
 20
121.3915
 30
0.0
 10
189.0896
 20
121.3915
 30
0.0
 10
189.0896
 20
121.3915
 30
0.0
 10
189.0896
 20
97.3563
 30
0.0
 10
189.0896
 20
97.3563
 30
0.0
  0
SPLINE
  5
89
330
1F
100
AcDbEntity
  8
layer 1
 62
     7
100
AcDbSpline
210
0.0
220
0.0
230
1.0
 70
    11
 71
     3
 72
    16
 73
    12
 74
     0
 42
0.0000000001
 43
0.0000000001
 12
1.0
 22
0.0
 32
0.0
 13
1.0
 23
0.0
 33
0.0
 40
0.0
 40
0.0
 40
0.0
 40
0.0
 40
0.25
 40
0.25
 40
0.25
 40
0.25
 40
0.5
 40
0.5
 40
0.5
 40
0.5
 40
1.0
 40
1.0
 40
1.0
 40
1.0
 10
189.0896
 20
61.0258
 30
0.0
 10
188.5727
 20
69.601
 30
0.0
 10
188.173
 20
72.3567
 30
0.0
 10
184.9292
 20
78.0191
 30
0.0
 10
184.9292
 20
78.0191
 30
0.0
 10
187.2646
 20
81.1935
 30
0.0
 10
187.9353
 20
83.3228
 30
0.0
 10
189.0896
 20
90.3025
 30
0.0
 10
189.0896
 20
90.3025
 30
0.0
 10
189.0896
 20
90.3025
 30
0.0
 10
189.0896
 20
61.0258
 30
0.0
 10
189.0896
 20
61.0258
 30
0.0
  0
ENDSEC
  0
SECTION
  2
OBJECTS
  0
DICTIONARY
  5
C
330
0
100
AcDbDictionary
281
     1
  3
ACAD_GROUP
350
D
  3
ACAD_LAYOUT
350
1A
  3
ACAD_MATERIAL
350
3B
  3
ACAD_MLEADERSTYLE
350
AC
  3
ACAD_MLINESTYLE
350
17
  3
ACAD_PLOTSETTINGS
350
19
  3
ACAD_PLOTSTYLENAME
350
E
  3
ACAD_TABLESTYLE
350
AB
  3
ACAD_VISUALSTYLE
350
2A
  0
DICTIONARY
  5
D
102
{ACAD_REACTORS
330
C
102
}
330
C
100
AcDbDictionary
281
     1
  0
DICTIONARY
  5
1A
102
{ACAD_REACTORS
330
C
102
}
330
C
100
AcDbDictionary
281
     1
  3
Layout1
350
1E
  3
Layout2
350
26
  3
Model
350
22
  0
DICTIONARY
  5
3B
102
{ACAD_REACTORS
330
C
102
}
330
C
100
AcDbDictionary
281
     1
  3
ByBlock
350
3D
  3
ByLayer
350
3C
  3
Global
350
3E
  0
DICTIONARY
  5
AC
102
{ACAD_REACTORS
330
C
102
}
330
C
100
AcDbDictionary
281
     1
  0
DICTIONARY
  5
17
102
{ACAD_REACTORS
330
C
102
}
330
C
100
AcDbDictionary
281
     1
  3
Standard
350
18
  0
DICTIONARY
  5
19
102
{ACAD_REACTORS
330
C
102
}
330
C
100
AcDbDictionary
281
     1
  0
ACDBDICTIONARYWDFLT
  5
E
102
{ACAD_REACTORS
330
C
102
}
330
C
100
AcDbDictionary
281
     1
  3
Normal
350
F
100
AcDbDictionaryWithDefault
340
F
  0
DICTIONARY
  5
AB
102
{ACAD_REACTORS
330
C
102
}
330
C
100
AcDbDictionary
281
     1
  0
DICTIONARY
  5
2A
102
{ACAD_REACTORS
330
C
102
}
330
C
100
AcDbDictionary
281
     1
  3
2dWireframe
350
2F
  3
3D Hidden
350
31
  3
3dWireframe
350
30
  3
Basic
350
32
  3
Brighten
350
36
  3
ColorChange
350
3A
  3
Conceptual
350
34
  3
Dim
350
35
  3
Facepattern
350
39
  3
Flat
350
2B
  3
FlatWithEdges
350
2C
  3
Gouraud
350
2D
  3
GouraudWithEdges
350
2E
  3
Linepattern
350
38
  3
Realistic
350
33
  3
Thicken
350
37
  0
LAYOUT
  5
1E
102
{ACAD_REACTORS
330
1A
102
}
330
1A
100
AcDbPlotSettings
  1

  2
none_device
  4

  6

 40
0.0
 41
0.0
 42
0.0
 43
0.0
 44
0.0
 45
0.0
 46
0.0
 47
0.0
 48
0.0
 49
0.0
140
0.0
141
0.0
142
1.0
143
1.0
 70
   688
 72
     0
 73
     0
 74
     5
  7

 75
    16
 76
     0
 77
     2
 78
   300
147
1.0
148
0.0
149
0.0
100
AcDbLayout
  1
Layout1
 70
     1
 71
     1
 10
0.0
 20
0.0
 11
12.0
 21
9.0
 12
0.0
 22
0.0
 32
0.0
 14
1.000000000000000E+20
 24
1.000000000000000E+20
 34
1.000000000000000E+20
 15
-1.000000000000000E+20
 25
-1.000000000000000E+20
 35
-1.000000000000000E+20
146
0.0
 13
0.0
 23
0.0
 33
0.0
 16
1.0
 26
0.0
 36
0.0
 17
0.0
 27
1.0
 37
0.0
 76
     0
330
1B
  0
LAYOUT
  5
26
102
{ACAD_REACTORS
330
1A
102
}
330
1A
100
AcDbPlotSettings
  1

  2
none_device
  4

  6

 40
0.0
 41
0.0
 42
0.0
 43
0.0
 44
0.0
 45
0.0
 46
0.0
 47
0.0
 48
0.0
 49
0.0
140
0.0
141
0.0
142
1.0
143
1.0
 70
   688
 72
     0
 73
     0
 74
     5
  7

 75
    16
 76
     0
 77
     2
 78
   300
147
1.0
148
0.0
149
0.0
100
AcDbLayout
  1
Layout2
 70
     1
 71
     2
 10
0.0
 20
0.0
 11
0.0
 21
0.0
 12
0.0
 22
0.0
 32
0.0
 14
0.0
 24
0.0
 34
0.0
 15
0.0
 25
0.0
 35
0.0
146
0.0
 13
0.0
 23
0.0
 33
0.0
 16
1.0
 26
0.0
 36
0.0
 17
0.0
 27
1.0
 37
0.0
 76
     0
330
23
  0
LAYOUT
  5
22
102
{ACAD_REACTORS
330
1A
102
}
330
1A
100
AcDbPlotSettings
  1

  2
none_device
  4

  6

 40
0.0
 41
0.0
 42
0.0
 43
0.0
 44
0.0
 45
0.0
 46
0.0
 47
0.0
 48
0.0
 49
0.0
140
0.0
141
0.0
142
1.0
143
1.0
 70
  1712
 72
     0
 73
     0
 74
     0
  7

 75
     0
 76
     0
 77
     2
 78
   300
147
1.0
148
0.0
149
0.0
100
AcDbLayout
  1
Model
 70
     1
 71
     0
 10
0.0
 20
0.0
 11
12.0
 21
9.0
 12
0.0
 22
0.0
 32
0.0
 14
-3.2932
 24
-115.028
 34
0.0
 15
196.5831
 25
131.2763
 35
0.0
146
0.0
 13
0.0
 23
0.0
 33
0.0
 16
1.0
 26
0.0
 36
0.0
 17
0.0
 27
1.0
 37
0.0
 76
     0
330
1F
331
29
  0
MATERIAL
  5
3D
102
{ACAD_REACTORS
330
3B
102
}
330
3B
100
AcDbMaterial
  1
ByBlock
 72
     1
 94
      127
  0
MATERIAL
  5
3C
102
{ACAD_REACTORS
330
3B
102
}
330
3B
100
AcDbMaterial
  1
ByLayer
 72
     1
 94
      127
  0
MATERIAL
  5
3E
102
{ACAD_REACTORS
330
3B
102
}
330
3B
100
AcDbMaterial
  1
Global
 72
     1
 94
      127
  0
MLINESTYLE
  5
18
102
{ACAD_REACTORS
330
17
102
}
330
17
100
AcDbMlineStyle
  2
Standard
 70
     0
  3

 62
   256
 51
90.0
 52
90.0
 71
     2
 49
0.5
 62
   256
  6
BYLAYER
 49
-0.5
 62
   256
  6
BYLAYER
  0
ACDBPLACEHOLDER
  5
F
102
{ACAD_REACTORS
330
E
102
}
330
E
  0
VISUALSTYLE
  5
2F
102
{ACAD_REACTORS
330
2A
102
}
102
{ACAD_XDICTIONARY
360
93
102
}
330
2A
100
AcDbVisualStyle
  2
2dWireframe
 70
     4
 71
     0
 72
     2
 73
     0
 90
        0
 40
-0.6
 41
-30.0
 62
     5
 63
     7
421
 16777215
 74
     1
 91
        4
 64
     7
 65
   257
 75
     1
175
     1
 42
1.0
 92
        0
 66
   257
 43
1.0
 76
     1
 77
     6
 78
     2
 67
     7
 79
     5
170
     0
171
     0
290
     0
174
     0
 93
        1
 44
0.0
173
     0
291
     0
 45
0.0
  0
VISUALSTYLE
  5
31
102
{ACAD_REACTORS
330
2A
102
}
102
{ACAD_XDICTIONARY
360
97
102
}
330
2A
100
AcDbVisualStyle
  2
3D Hidden
 70
     6
 71
     1
 72
     2
 73
     2
 90
        0
 40
-0.6
 41
-30.0
 62
     5
 63
     7
421
 16777215
 74
     2
 91
        2
 64
     7
 65
   257
 75
     2
175
     1
 42
40.0
 92
        0
 66
   257
 43
1.0
 76
     1
 77
     6
 78
     2
 67
     7
 79
     3
170
     0
171
     0
290
     0
174
     0
 93
        1
 44
0.0
173
     0
291
     0
 45
0.0
  0
VISUALSTYLE
  5
30
102
{ACAD_REACTORS
330
2A
102
}
102
{ACAD_XDICTIONARY
360
95
102
}
330
2A
100
AcDbVisualStyle
  2
3dWireframe
 70
     5
 71
     0
 72
     2
 73
     0
 90
        0
 40
-0.6
 41
-30.0
 62
     5
 63
     7
421
 16777215
 74
     1
 91
        4
 64
     7
 65
   257
 75
     1
175
     1
 42
1.0
 92
        0
 66
   257
 43
1.0
 76
     1
 77
     6
 78
     2
 67
     7
 79
     5
170
     0
171
     0
290
     0
174
     0
 93
        1
 44
0.0
173
     0
291
     0
 45
0.0
  0
VISUALSTYLE
  5
32
102
{ACAD_REACTORS
330
2A
102
}
102
{ACAD_XDICTIONARY
360
99
102
}
330
2A
100
AcDbVisualStyle
  2
Basic
 70
     7
 71
     1
 72
     0
 73
     1
 90
        0
 40
-0.6
 41
-30.0
 62
     5
 63
     7
421
 16777215
 74
     0
 91
        4
 64
     7
 65
   257
 75
     1
175
     1
 42
1.0
 92
        8
 66
     7
 43
1.0
 76
     1
 77
     6
 78
     2
 67
     7
 79
     5
170
     0
171
     0
290
     0
174
     0
 93
        1
 44
0.0
173
     0
291
     1
 45
0.0
  0
VISUALSTYLE
  5
36
102
{ACAD_REACTORS
330
2A
102
}
102
{ACAD_XDICTIONARY
360
A1
102
}
330
2A
100
AcDbVisualStyle
  2
Brighten
 70
    12
 71
     2
 72
     2
 73
     0
 90
        0
 40
-0.6
 41
-30.0
 62
     5
 63
     7
421
 16777215
 74
     1
 91
        4
 64
     7
 65
   257
 75
     1
175
     1
 42
1.0
 92
        8
 66
     7
 43
1.0
 76
     1
 77
     6
 78
     2
 67
     7
 79
     5
170
     0
171
     0
290
     0
174
     0
 93
        1
 44
50.0
173
     0
291
     1
 45
0.0
  0
VISUALSTYLE
  5
3A
102
{ACAD_REACTORS
330
2A
102
}
102
{ACAD_XDICTIONARY
360
A9
102
}
330
2A
100
AcDbVisualStyle
  2
ColorChange
 70
    16
 71
     2
 72
     2
 73
     3
 90
        0
 40
-0.6
 41
-30.0
 62
     5
 63
     8
421
  8421504
 74
     1
 91
        4
 64
     7
 65
   257
 75
     1
175
     1
 42
1.0
 92
        8
 66
     8
424
  8421504
 43
1.0
 76
     1
 77
     6
 78
     2
 67
     7
 79
     5
170
     0
171
     0
290
     0
174
     0
 93
        1
 44
0.0
173
     0
291
     1
 45
0.0
  0
VISUALSTYLE
  5
34
102
{ACAD_REACTORS
330
2A
102
}
102
{ACAD_XDICTIONARY
360
9D
102
}
330
2A
100
AcDbVisualStyle
  2
Conceptual
 70
     9
 71
     3
 72
     2
 73
     0
 90
        0
 40
-0.6
 41
-30.0
 62
     5
 63
     7
421
 16777215
 74
     2
 91
        2
 64
     7
 65
   257
 75
     1
175
     1
 42
40.0
 92
        8
 66
     7
 43
1.0
 76
     1
 77
     6
 78
     2
 67
     7
 79
     3
170
     0
171
     0
290
     0
174
     0
 93
        1
 44
0.0
173
     0
291
     0
 45
0.0
  0
VISUALSTYLE
  5
35
102
{ACAD_REACTORS
330
2A
102
}
102
{ACAD_XDICTIONARY
360
9F
102
}
330
2A
100
AcDbVisualStyle
  2
Dim
 70
    11
 71
     2
 72
     2
 73
     0
 90
        0
 40
-0.6
 41
-30.0
 62
     5
 63
     7
421
 16777215
 74
     1
 91
        4
 64
     7
 65
   257
 75
     1
175
     1
 42
1.0
 92
        8
 66
     7
 43
1.0
 76
     1
 77
     6
 78
     2
 67
     7
 79
     5
170
     0
171
     0
290
     0
174
     0
 93
        1
 44
-50.0
173
     0
291
     1
 45
0.0
  0
VISUALSTYLE
  5
39
102
{ACAD_REACTORS
330
2A
102
}
102
{ACAD_XDICTIONARY
360
A7
102
}
330
2A
100
AcDbVisualStyle
  2
Facepattern
 70
    15
 71
     2
 72
     2
 73
     0
 90
        0
 40
-0.6
 41
-30.0
 62
     5
 63
     7
421
 16777215
 74
     1
 91
        4
 64
     7
 65
   257
 75
     1
175
     1
 42
1.0
 92
        8
 66
     7
 43
1.0
 76
     1
 77
     6
 78
     2
 67
     7
 79
     5
170
     0
171
     0
290
     0
174
     0
 93
        1
 44
0.0
173
     0
291
     1
 45
0.0
  0
VISUALSTYLE
  5
2B
102
{ACAD_REACTORS
330
2A
102
}
102
{ACAD_XDICTIONARY
360
8B
102
}
330
2A
100
AcDbVisualStyle
  2
Flat
 70
     0
 71
     2
 72
     1
 73
     1
 90
        2
 40
-0.6
 41
30.0
 62
     5
 63
     7
421
 16777215
 74
     0
 91
        4
 64
     7
 65
   257
 75
     1
175
     1
 42
1.0
 92
        8
 66
     7
 43
1.0
 76
     1
 77
     6
 78
     2
 67
     7
 79
     5
170
     0
171
     0
290
     0
174
     0
 93
       13
 44
0.0
173
     0
291
     1
 45
0.0
  0
VISUALSTYLE
  5
2C
102
{ACAD_REACTORS
330
2A
102
}
102
{ACAD_XDICTIONARY
360
8D
102
}
330
2A
100
AcDbVisualStyle
  2
FlatWithEdges
 70
     1
 71
     2
 72
     1
 73
     1
 90
        2
 40
-0.6
 41
30.0
 62
     5
 63
     7
421
 16777215
 74
     1
 91
        4
 64
     7
 65
   257
 75
     1
175
     1
 42
1.0
 92
        0
 66
   257
 43
1.0
 76
     1
 77
     6
 78
     2
 67
     7
 79
     5
170
     0
171
     0
290
     0
174
     0
 93
       13
 44
0.0
173
     0
291
     1
 45
0.0
  0
VISUALSTYLE
  5
2D
102
{ACAD_REACTORS
330
2A
102
}
102
{ACAD_XDICTIONARY
360
8F
102
}
330
2A
100
AcDbVisualStyle
  2
Gouraud
 70
     2
 71
     2
 72
     2
 73
     1
 90
        2
 40
-0.6
 41
30.0
 62
     5
 63
     7
421
 16777215
 74
     0
 91
        4
 64
     7
 65
   257
 75
     1
175
     1
 42
1.0
 92
        0
 66
     7
 43
1.0
 76
     1
 77
     6
 78
     2
 67
     7
 79
     5
170
     0
171
     0
290
     0
174
     0
 93
       13
 44
0.0
173
     0
291
     1
 45
0.0
  0
VISUALSTYLE
  5
2E
102
{ACAD_REACTORS
330
2A
102
}
102
{ACAD_XDICTIONARY
360
91
102
}
330
2A
100
AcDbVisualStyle
  2
GouraudWithEdges
 70
     3
 71
     2
 72
     2
 73
     1
 90
        2
 40
-0.6
 41
30.0
 62
     5
 63
     7
421
 16777215
 74
     1
 91
        4
 64
     7
 65
   257
 75
     1
175
     1
 42
1.0
 92
        0
 66
   257
 43
1.0
 76
     1
 77
     6
 78
     2
 67
     7
 79
     5
170
     0
171
     0
290
     0
174
     0
 93
       13
 44
0.0
173
     0
291
     1
 45
0.0
  0
VISUALSTYLE
  5
38
102
{ACAD_REACTORS
330
2A
102
}
102
{ACAD_XDICTIONARY
360
A5
102
}
330
2A
100
AcDbVisualStyle
  2
Linepattern
 70
    14
 71
     2
 72
     2
 73
     0
 90
        0
 40
-0.6
 41
-30.0
 62
     5
 63
     7
421
 16777215
 74
     1
 91
        4
 64
     7
 65
   257
 75
     7
175
     7
 42
1.0
 92
        8
 66
     7
 43
1.0
 76
     1
 77
     6
 78
     2
 67
     7
 79
     5
170
     0
171
     0
290
     0
174
     0
 93
        1
 44
0.0
173
     0
291
     1
 45
0.0
  0
VISUALSTYLE
  5
33
102
{ACAD_REACTORS
330
2A
102
}
102
{ACAD_XDICTIONARY
360
9B
102
}
330
2A
100
AcDbVisualStyle
  2
Realistic
 70
     8
 71
     2
 72
     2
 73
     0
 90
        0
 40
-0.6
 41
-30.0
 62
     5
 63
     7
421
 16777215
 74
     1
 91
        0
 64
     7
 65
   257
 75
     1
175
     1
 42
1.0
 92
        8
 66
     8
424
  7895160
 43
1.0
 76
     1
 77
     6
 78
     2
 67
     7
 79
     5
170
     0
171
     0
290
     0
174
     0
 93
       13
 44
0.0
173
     0
291
     0
 45
0.0
  0
VISUALSTYLE
  5
37
102
{ACAD_REACTORS
330
2A
102
}
102
{ACAD_XDICTIONARY
360
A3
102
}
330
2A
100
AcDbVisualStyle
  2
Thicken
 70
    13
 71
     2
 72
     2
 73
     0
 90
        0
 40
-0.6
 41
-30.0
 62
     5
 63
     7
421
 16777215
 74
     1
 91
        4
 64
     7
 65
   257
 75
     1
175
     1
 42
1.0
 92
       12
 66
     7
 43
1.0
 76
     1
 77
     6
 78
     2
 67
     7
 79
     5
170
     0
171
     0
290
     0
174
     0
 93
        1
 44
0.0
173
     0
291
     1
 45
0.0
  0
DICTIONARY
  5
93
330
2F
100
AcDbDictionary
280
     1
281
     1
  3
ACAD_XREC_ROUNDTRIP
360
94
  0
DICTIONARY
  5
97
330
31
100
AcDbDictionary
280
     1
281
     1
  3
ACAD_XREC_ROUNDTRIP
360
98
  0
DICTIONARY
  5
95
330
30
100
AcDbDictionary
280
     1
281
     1
  3
ACAD_XREC_ROUNDTRIP
360
96
  0
DICTIONARY
  5
99
330
32
100
AcDbDictionary
280
     1
281
     1
  3
ACAD_XREC_ROUNDTRIP
360
9A
  0
DICTIONARY
  5
A1
330
36
100
AcDbDictionary
280
     1
281
     1
  3
ACAD_XREC_ROUNDTRIP
360
A2
  0
DICTIONARY
  5
A9
330
3A
100
AcDbDictionary
280
     1
281
     1
  3
ACAD_XREC_ROUNDTRIP
360
AA
  0
DICTIONARY
  5
9D
330
34
100
AcDbDictionary
280
     1
281
     1
  3
ACAD_XREC_ROUNDTRIP
360
9E
  0
DICTIONARY
  5
9F
330
35
100
AcDbDictionary
280
     1
281
     1
  3
ACAD_XREC_ROUNDTRIP
360
A0
  0
DICTIONARY
  5
A7
330
39
100
AcDbDictionary
280
     1
281
     1
  3
ACAD_XREC_ROUNDTRIP
360
A8
  0
DICTIONARY
  5
8B
330
2B
100
AcDbDictionary
280
     1
281
     1
  3
ACAD_XREC_ROUNDTRIP
360
8C
  0
DICTIONARY
  5
8D
330
2C
100
AcDbDictionary
280
     1
281
     1
  3
ACAD_XREC_ROUNDTRIP
360
8E
  0
DICTIONARY
  5
8F
330
2D
100
AcDbDictionary
280
     1
281
     1
  3
ACAD_XREC_ROUNDTRIP
360
90
  0
DICTIONARY
  5
91
330
2E
100
AcDbDictionary
280
     1
281
     1
  3
ACAD_XREC_ROUNDTRIP
360
92
  0
DICTIONARY
  5
A5
330
38
100
AcDbDictionary
280
     1
281
     1
  3
ACAD_XREC_ROUNDTRIP
360
A6
  0
DICTIONARY
  5
9B
330
33
100
AcDbDictionary
280
     1
281
     1
  3
ACAD_XREC_ROUNDTRIP
360
9C
  0
DICTIONARY
  5
A3
330
37
100
AcDbDictionary
280
     1
281
     1
  3
ACAD_XREC_ROUNDTRIP
360
A4
  0
XRECORD
  5
94
102
{ACAD_REACTORS
330
93
102
}
330
93
100
AcDbXrecord
280
     1
102
RTVSPropertyOp0
 70
     1
102
RTVSPropertyOp1
 70
     1
102
RTVSPropertyOp2
 70
     1
102
RTVSPropertyOp3
 70
     1
102
RTVSPropertyOp4
 70
     1
102
RTVSPropertyOp5
 70
     1
102
RTVSPropertyOp6
 70
     1
102
RTVSPropertyOp7
 70
     1
102
RTVSPropertyOp8
 70
     1
102
RTVSPropertyOp9
 70
     1
102
RTVSPropertyOp10
 70
     1
102
RTVSPropertyOp11
 70
     1
102
RTVSPropertyOp12
 70
     1
102
RTVSPropertyOp13
 70
     1
102
RTVSPropertyOp14
 70
     1
102
RTVSPropertyOp15
 70
     1
102
RTVSPropertyOp16
 70
     1
102
RTVSPropertyOp17
 70
     1
102
RTVSPropertyOp18
 70
     1
102
RTVSPropertyOp19
 70
     1
102
RTVSPropertyOp20
 70
     1
102
RTVSPropertyOp21
 70
     1
102
RTVSPropertyOp22
 70
     1
102
RTVSPropertyOp23
 70
     1
102
RTVSPropertyOp24
 70
     1
102
RTVSPropertyOp25
 70
     1
102
RTVSPropertyOp26
 70
     1
102
RTVSPropertyOp27
 70
     1
102
RTVSPropertyOp28
 70
     1
102
RTVSPropertyOp29
 70
     1
102
RTVSPropertyOp30
 70
     1
102
RTVSPropertyOp31
 70
     1
102
RTVSPropertyOp32
 70
     1
  0
XRECORD
  5
98
102
{ACAD_REACTORS
330
97
102
}
330
97
100
AcDbXrecord
280
     1
102
RTVSPropertyOp0
 70
     1
102
RTVSPropertyOp1
 70
     1
102
RTVSPropertyOp2
 70
     1
102
RTVSPropertyOp3
 70
     1
102
RTVSPropertyOp4
 70
     1
102
RTVSPropertyOp5
 70
     1
102
RTVSPropertyOp6
 70
     1
102
RTVSPropertyOp7
 70
     1
102
RTVSPropertyOp8
 70
     1
102
RTVSPropertyOp9
 70
     1
102
RTVSPropertyOp10
 70
     1
102
RTVSPropertyOp11
 70
     1
102
RTVSPropertyOp12
 70
     1
102
RTVSPropertyOp13
 70
     1
102
RTVSPropertyOp14
 70
     1
102
RTVSPropertyOp15
 70
     1
102
RTVSPropertyOp16
 70
     1
102
RTVSPropertyOp17
 70
     1
102
RTVSPropertyOp18
 70
     1
102
RTVSPropertyOp19
 70
     1
102
RTVSPropertyOp20
 70
     1
102
RTVSPropertyOp21
 70
     1
102
RTVSPropertyOp22
 70
     1
102
RTVSPropertyOp23
 70
     1
102
RTVSPropertyOp24
 70
     1
102
RTVSPropertyOp25
 70
     1
102
RTVSPropertyOp26
 70
     1
102
RTVSPropertyOp27
 70
     1
102
RTVSPropertyOp28
 70
     1
102
RTVSPropertyOp29
 70
     1
102
RTVSPropertyOp30
 70
     1
102
RTVSPropertyOp31
 70
     1
102
RTVSPropertyOp32
 70
     1
  0
XRECORD
  5
96
102
{ACAD_REACTORS
330
95
102
}
330
95
100
AcDbXrecord
280
     1
102
RTVSPropertyOp0
 70
     1
102
RTVSPropertyOp1
 70
     1
102
RTVSPropertyOp2
 70
     1
102
RTVSPropertyOp3
 70
     1
102
RTVSPropertyOp4
 70
     1
102
RTVSPropertyOp5
 70
     1
102
RTVSPropertyOp6
 70
     1
102
RTVSPropertyOp7
 70
     1
102
RTVSPropertyOp8
 70
     1
102
RTVSPropertyOp9
 70
     1
102
RTVSPropertyOp10
 70
     1
102
RTVSPropertyOp11
 70
     1
102
RTVSPropertyOp12
 70
     1
102
RTVSPropertyOp13
 70
     1
102
RTVSPropertyOp14
 70
     1
102
RTVSPropertyOp15
 70
     1
102
RTVSPropertyOp16
 70
     1
102
RTVSPropertyOp17
 70
     1
102
RTVSPropertyOp18
 70
     1
102
RTVSPropertyOp19
 70
     1
102
RTVSPropertyOp20
 70
     1
102
RTVSPropertyOp21
 70
     1
102
RTVSPropertyOp22
 70
     1
102
RTVSPropertyOp23
 70
     1
102
RTVSPropertyOp24
 70
     1
102
RTVSPropertyOp25
 70
     1
102
RTVSPropertyOp26
 70
     1
102
RTVSPropertyOp27
 70
     1
102
RTVSPropertyOp28
 70
     1
102
RTVSPropertyOp29
 70
     1
102
RTVSPropertyOp30
 70
     1
102
RTVSPropertyOp31
 70
     1
102
RTVSPropertyOp32
 70
     1
  0
XRECORD
  5
9A
102
{ACAD_REACTORS
330
99
102
}
330
99
100
AcDbXrecord
280
     1
102
RTVSPropertyOp0
 70
     1
102
RTVSPropertyOp1
 70
     1
102
RTVSPropertyOp2
 70
     1
102
RTVSPropertyOp3
 70
     1
102
RTVSPropertyOp4
 70
     1
102
RTVSPropertyOp5
 70
     1
102
RTVSPropertyOp6
 70
     1
102
RTVSPropertyOp7
 70
     1
102
RTVSPropertyOp8
 70
     1
102
RTVSPropertyOp9
 70
     1
102
RTVSPropertyOp10
 70
     1
102
RTVSPropertyOp11
 70
     1
102
RTVSPropertyOp12
 70
     1
102
RTVSPropertyOp13
 70
     1
102
RTVSPropertyOp14
 70
     1
102
RTVSPropertyOp15
 70
     1
102
RTVSPropertyOp16
 70
     1
102
RTVSPropertyOp17
 70
     1
102
RTVSPropertyOp18
 70
     1
102
RTVSPropertyOp19
 70
     1
102
RTVSPropertyOp20
 70
     1
102
RTVSPropertyOp21
 70
     1
102
RTVSPropertyOp22
 70
     1
102
RTVSPropertyOp23
 70
     1
102
RTVSPropertyOp24
 70
     1
102
RTVSPropertyOp25
 70
     1
102
RTVSPropertyOp26
 70
     1
102
RTVSPropertyOp27
 70
     1
102
RTVSPropertyOp28
 70
     1
102
RTVSPropertyOp29
 70
     1
102
RTVSPropertyOp30
 70
     1
102
RTVSPropertyOp31
 70
     1
102
RTVSPropertyOp32
 70
     1
  0
XRECORD
  5
A2
102
{ACAD_REACTORS
330
A1
102
}
330
A1
100
AcDbXrecord
280
     1
102
RTVSPropertyOp0
 70
     1
102
RTVSPropertyOp1
 70
     1
102
RTVSPropertyOp2
 70
     1
102
RTVSPropertyOp3
 70
     1
102
RTVSPropertyOp4
 70
     1
102
RTVSPropertyOp5
 70
     1
102
RTVSPropertyOp6
 70
     1
102
RTVSPropertyOp7
 70
     1
102
RTVSPropertyOp8
 70
     1
102
RTVSPropertyOp9
 70
     1
102
RTVSPropertyOp10
 70
     1
102
RTVSPropertyOp11
 70
     1
102
RTVSPropertyOp12
 70
     1
102
RTVSPropertyOp13
 70
     1
102
RTVSPropertyOp14
 70
     1
102
RTVSPropertyOp15
 70
     1
102
RTVSPropertyOp16
 70
     1
102
RTVSPropertyOp17
 70
     1
102
RTVSPropertyOp18
 70
     1
102
RTVSPropertyOp19
 70
     1
102
RTVSPropertyOp20
 70
     1
102
RTVSPropertyOp21
 70
     1
102
RTVSPropertyOp22
 70
     1
102
RTVSPropertyOp23
 70
     1
102
RTVSPropertyOp24
 70
     1
102
RTVSPropertyOp25
 70
     1
102
RTVSPropertyOp26
 70
     1
102
RTVSPropertyOp27
 70
     1
102
RTVSPropertyOp28
 70
     1
102
RTVSPropertyOp29
 70
     1
102
RTVSPropertyOp30
 70
     1
102
RTVSPropertyOp31
 70
     1
102
RTVSPropertyOp32
 70
     1
  0
XRECORD
  5
AA
102
{ACAD_REACTORS
330
A9
102
}
330
A9
100
AcDbXrecord
280
     1
102
RTVSPropertyOp0
 70
     1
102
RTVSPropertyOp1
 70
     1
102
RTVSPropertyOp2
 70
     1
102
RTVSPropertyOp3
 70
     1
102
RTVSPropertyOp4
 70
     1
102
RTVSPropertyOp5
 70
     1
102
RTVSPropertyOp6
 70
     1
102
RTVSPropertyOp7
 70
     1
102
RTVSPropertyOp8
 70
     1
102
RTVSPropertyOp9
 70
     1
102
RTVSPropertyOp10
 70
     1
102
RTVSPropertyOp11
 70
     1
102
RTVSPropertyOp12
 70
     1
102
RTVSPropertyOp13
 70
     1
102
RTVSPropertyOp14
 70
     1
102
RTVSPropertyOp15
 70
     1
102
RTVSPropertyOp16
 70
     1
102
RTVSPropertyOp17
 70
     1
102
RTVSPropertyOp18
 70
     1
102
RTVSPropertyOp19
 70
     1
102
RTVSPropertyOp20
 70
     1
102
RTVSPropertyOp21
 70
     1
102
RTVSPropertyOp22
 70
     1
102
RTVSPropertyOp23
 70
     1
102
RTVSPropertyOp24
 70
     1
102
RTVSPropertyOp25
 70
     1
102
RTVSPropertyOp26
 70
     1
102
RTVSPropertyOp27
 70
     1
102
RTVSPropertyOp28
 70
     1
102
RTVSPropertyOp29
 70
     1
102
RTVSPropertyOp30
 70
     1
102
RTVSPropertyOp31
 70
     1
102
RTVSPropertyOp32
 70
     1
  0
XRECORD
  5
9E
102
{ACAD_REACTORS
330
9D
102
}
330
9D
100
AcDbXrecord
280
     1
102
RTVSPropertyOp0
 70
     1
102
RTVSPropertyOp1
 70
     1
102
RTVSPropertyOp2
 70
     1
102
RTVSPropertyOp3
 70
     1
102
RTVSPropertyOp4
 70
     1
102
RTVSPropertyOp5
 70
     1
102
RTVSPropertyOp6
 70
     1
102
RTVSPropertyOp7
 70
     1
102
RTVSPropertyOp8
 70
     1
102
RTVSPropertyOp9
 70
     1
102
RTVSPropertyOp10
 70
     1
102
RTVSPropertyOp11
 70
     1
102
RTVSPropertyOp12
 70
     1
102
RTVSPropertyOp13
 70
     1
102
RTVSPropertyOp14
 70
     1
102
RTVSPropertyOp15
 70
     1
102
RTVSPropertyOp16
 70
     1
102
RTVSPropertyOp17
 70
     1
102
RTVSPropertyOp18
 70
     1
102
RTVSPropertyOp19
 70
     1
102
RTVSPropertyOp20
 70
     1
102
RTVSPropertyOp21
 70
     1
102
RTVSPropertyOp22
 70
     1
102
RTVSPropertyOp23
 70
     1
102
RTVSPropertyOp24
 70
     1
102
RTVSPropertyOp25
 70
     1
102
RTVSPropertyOp26
 70
     1
102
RTVSPropertyOp27
 70
     1
102
RTVSPropertyOp28
 70
     1
102
RTVSPropertyOp29
 70
     1
102
RTVSPropertyOp30
 70
     1
102
RTVSPropertyOp31
 70
     1
102
RTVSPropertyOp32
 70
     1
  0
XRECORD
  5
A0
102
{ACAD_REACTORS
330
9F
102
}
330
9F
100
AcDbXrecord
280
     1
102
RTVSPropertyOp0
 70
     1
102
RTVSPropertyOp1
 70
     1
102
RTVSPropertyOp2
 70
     1
102
RTVSPropertyOp3
 70
     1
102
RTVSPropertyOp4
 70
     1
102
RTVSPropertyOp5
 70
     1
102
RTVSPropertyOp6
 70
     1
102
RTVSPropertyOp7
 70
     1
102
RTVSPropertyOp8
 70
     1
102
RTVSPropertyOp9
 70
     1
102
RTVSPropertyOp10
 70
     1
102
RTVSPropertyOp11
 70
     1
102
RTVSPropertyOp12
 70
     1
102
RTVSPropertyOp13
 70
     1
102
RTVSPropertyOp14
 70
     1
102
RTVSPropertyOp15
 70
     1
102
RTVSPropertyOp16
 70
     1
102
RTVSPropertyOp17
 70
     1
102
RTVSPropertyOp18
 70
     1
102
RTVSPropertyOp19
 70
     1
102
RTVSPropertyOp20
 70
     1
102
RTVSPropertyOp21
 70
     1
102
RTVSPropertyOp22
 70
     1
102
RTVSPropertyOp23
 70
     1
102
RTVSPropertyOp24
 70
     1
102
RTVSPropertyOp25
 70
     1
102
RTVSPropertyOp26
 70
     1
102
RTVSPropertyOp27
 70
     1
102
RTVSPropertyOp28
 70
     1
102
RTVSPropertyOp29
 70
     1
102
RTVSPropertyOp30
 70
     1
102
RTVSPropertyOp31
 70
     1
102
RTVSPropertyOp32
 70
     1
  0
XRECORD
  5
A8
102
{ACAD_REACTORS
330
A7
102
}
330
A7
100
AcDbXrecord
280
     1
102
RTVSPropertyOp0
 70
     1
102
RTVSPropertyOp1
 70
     1
102
RTVSPropertyOp2
 70
     1
102
RTVSPropertyOp3
 70
     1
102
RTVSPropertyOp4
 70
     1
102
RTVSPropertyOp5
 70
     1
102
RTVSPropertyOp6
 70
     1
102
RTVSPropertyOp7
 70
     1
102
RTVSPropertyOp8
 70
     1
102
RTVSPropertyOp9
 70
     1
102
RTVSPropertyOp10
 70
     1
102
RTVSPropertyOp11
 70
     1
102
RTVSPropertyOp12
 70
     1
102
RTVSPropertyOp13
 70
     1
102
RTVSPropertyOp14
 70
     1
102
RTVSPropertyOp15
 70
     1
102
RTVSPropertyOp16
 70
     1
102
RTVSPropertyOp17
 70
     1
102
RTVSPropertyOp18
 70
     1
102
RTVSPropertyOp19
 70
     1
102
RTVSPropertyOp20
 70
     1
102
RTVSPropertyOp21
 70
     1
102
RTVSPropertyOp22
 70
     1
102
RTVSPropertyOp23
 70
     1
102
RTVSPropertyOp24
 70
     1
102
RTVSPropertyOp25
 70
     1
102
RTVSPropertyOp26
 70
     1
102
RTVSPropertyOp27
 70
     1
102
RTVSPropertyOp28
 70
     1
102
RTVSPropertyOp29
 70
     1
102
RTVSPropertyOp30
 70
     1
102
RTVSPropertyOp31
 70
     1
102
RTVSPropertyOp32
 70
     1
  0
XRECORD
  5
8C
102
{ACAD_REACTORS
330
8B
102
}
330
8B
100
AcDbXrecord
280
     1
102
RTVSPropertyOp0
 70
     1
102
RTVSPropertyOp1
 70
     1
102
RTVSPropertyOp2
 70
     1
102
RTVSPropertyOp3
 70
     1
102
RTVSPropertyOp4
 70
     1
102
RTVSPropertyOp5
 70
     1
102
RTVSPropertyOp6
 70
     1
102
RTVSPropertyOp7
 70
     1
102
RTVSPropertyOp8
 70
     1
102
RTVSPropertyOp9
 70
     1
102
RTVSPropertyOp10
 70
     1
102
RTVSPropertyOp11
 70
     1
102
RTVSPropertyOp12
 70
     1
102
RTVSPropertyOp13
 70
     1
102
RTVSPropertyOp14
 70
     1
102
RTVSPropertyOp15
 70
     1
102
RTVSPropertyOp16
 70
     1
102
RTVSPropertyOp17
 70
     1
102
RTVSPropertyOp18
 70
     1
102
RTVSPropertyOp19
 70
     1
102
RTVSPropertyOp20
 70
     1
102
RTVSPropertyOp21
 70
     1
102
RTVSPropertyOp22
 70
     1
102
RTVSPropertyOp23
 70
     1
102
RTVSPropertyOp24
 70
     1
102
RTVSPropertyOp25
 70
     1
102
RTVSPropertyOp26
 70
     1
102
RTVSPropertyOp27
 70
     1
102
RTVSPropertyOp28
 70
     1
102
RTVSPropertyOp29
 70
     1
102
RTVSPropertyOp30
 70
     1
102
RTVSPropertyOp31
 70
     1
102
RTVSPropertyOp32
 70
     1
  0
XRECORD
  5
8E
102
{ACAD_REACTORS
330
8D
102
}
330
8D
100
AcDbXrecord
280
     1
102
RTVSPropertyOp0
 70
     1
102
RTVSPropertyOp1
 70
     1
102
RTVSPropertyOp2
 70
     1
102
RTVSPropertyOp3
 70
     1
102
RTVSPropertyOp4
 70
     1
102
RTVSPropertyOp5
 70
     1
102
RTVSPropertyOp6
 70
     1
102
RTVSPropertyOp7
 70
     1
102
RTVSPropertyOp8
 70
     1
102
RTVSPropertyOp9
 70
     1
102
RTVSPropertyOp10
 70
     1
102
RTVSPropertyOp11
 70
     1
102
RTVSPropertyOp12
 70
     1
102
RTVSPropertyOp13
 70
     1
102
RTVSPropertyOp14
 70
     1
102
RTVSPropertyOp15
 70
     1
102
RTVSPropertyOp16
 70
     1
102
RTVSPropertyOp17
 70
     1
102
RTVSPropertyOp18
 70
     1
102
RTVSPropertyOp19
 70
     1
102
RTVSPropertyOp20
 70
     1
102
RTVSPropertyOp21
 70
     1
102
RTVSPropertyOp22
 70
     1
102
RTVSPropertyOp23
 70
     1
102
RTVSPropertyOp24
 70
     1
102
RTVSPropertyOp25
 70
     1
102
RTVSPropertyOp26
 70
     1
102
RTVSPropertyOp27
 70
     1
102
RTVSPropertyOp28
 70
     1
102
RTVSPropertyOp29
 70
     1
102
RTVSPropertyOp30
 70
     1
102
RTVSPropertyOp31
 70
     1
102
RTVSPropertyOp32
 70
     1
  0
XRECORD
  5
90
102
{ACAD_REACTORS
330
8F
102
}
330
8F
100
AcDbXrecord
280
     1
102
RTVSPropertyOp0
 70
     1
102
RTVSPropertyOp1
 70
     1
102
RTVSPropertyOp2
 70
     1
102
RTVSPropertyOp3
 70
     1
102
RTVSPropertyOp4
 70
     1
102
RTVSPropertyOp5
 70
     1
102
RTVSPropertyOp6
 70
     1
102
RTVSPropertyOp7
 70
     1
102
RTVSPropertyOp8
 70
     1
102
RTVSPropertyOp9
 70
     1
102
RTVSPropertyOp10
 70
     1
102
RTVSPropertyOp11
 70
     1
102
RTVSPropertyOp12
 70
     1
102
RTVSPropertyOp13
 70
     1
102
RTVSPropertyOp14
 70
     1
102
RTVSPropertyOp15
 70
     1
102
RTVSPropertyOp16
 70
     1
102
RTVSPropertyOp17
 70
     1
102
RTVSPropertyOp18
 70
     1
102
RTVSPropertyOp19
 70
     1
102
RTVSPropertyOp20
 70
     1
102
RTVSPropertyOp21
 70
     1
102
RTVSPropertyOp22
 70
     1
102
RTVSPropertyOp23
 70
     1
102
RTVSPropertyOp24
 70
     1
102
RTVSPropertyOp25
 70
     1
102
RTVSPropertyOp26
 70
     1
102
RTVSPropertyOp27
 70
     1
102
RTVSPropertyOp28
 70
     1
102
RTVSPropertyOp29
 70
     1
102
RTVSPropertyOp30
 70
     1
102
RTVSPropertyOp31
 70
     1
102
RTVSPropertyOp32
 70
     1
  0
XRECORD
  5
92
102
{ACAD_REACTORS
330
91
102
}
330
91
100
AcDbXrecord
280
     1
102
RTVSPropertyOp0
 70
     1
102
RTVSPropertyOp1
 70
     1
102
RTVSPropertyOp2
 70
     1
102
RTVSPropertyOp3
 70
     1
102
RTVSPropertyOp4
 70
     1
102
RTVSPropertyOp5
 70
     1
102
RTVSPropertyOp6
 70
     1
102
RTVSPropertyOp7
 70
     1
102
RTVSPropertyOp8
 70
     1
102
RTVSPropertyOp9
 70
     1
102
RTVSPropertyOp10
 70
     1
102
RTVSPropertyOp11
 70
     1
102
RTVSPropertyOp12
 70
     1
102
RTVSPropertyOp13
 70
     1
102
RTVSPropertyOp14
 70
     1
102
RTVSPropertyOp15
 70
     1
102
RTVSPropertyOp16
 70
     1
102
RTVSPropertyOp17
 70
     1
102
RTVSPropertyOp18
 70
     1
102
RTVSPropertyOp19
 70
     1
102
RTVSPropertyOp20
 70
     1
102
RTVSPropertyOp21
 70
     1
102
RTVSPropertyOp22
 70
     1
102
RTVSPropertyOp23
 70
     1
102
RTVSPropertyOp24
 70
     1
102
RTVSPropertyOp25
 70
     1
102
RTVSPropertyOp26
 70
     1
102
RTVSPropertyOp27
 70
     1
102
RTVSPropertyOp28
 70
     1
102
RTVSPropertyOp29
 70
     1
102
RTVSPropertyOp30
 70
     1
102
RTVSPropertyOp31
 70
     1
102
RTVSPropertyOp32
 70
     1
  0
XRECORD
  5
A6
102
{ACAD_REACTORS
330
A5
102
}
330
A5
100
AcDbXrecord
280
     1
102
RTVSPropertyOp0
 70
     1
102
RTVSPropertyOp1
 70
     1
102
RTVSPropertyOp2
 70
     1
102
RTVSPropertyOp3
 70
     1
102
RTVSPropertyOp4
 70
     1
102
RTVSPropertyOp5
 70
     1
102
RTVSPropertyOp6
 70
     1
102
RTVSPropertyOp7
 70
     1
102
RTVSPropertyOp8
 70
     1
102
RTVSPropertyOp9
 70
     1
102
RTVSPropertyOp10
 70
     1
102
RTVSPropertyOp11
 70
     1
102
RTVSPropertyOp12
 70
     1
102
RTVSPropertyOp13
 70
     1
102
RTVSPropertyOp14
 70
     1
102
RTVSPropertyOp15
 70
     1
102
RTVSPropertyOp16
 70
     1
102
RTVSPropertyOp17
 70
     1
102
RTVSPropertyOp18
 70
     1
102
RTVSPropertyOp19
 70
     1
102
RTVSPropertyOp20
 70
     1
102
RTVSPropertyOp21
 70
     1
102
RTVSPropertyOp22
 70
     1
102
RTVSPropertyOp23
 70
     1
102
RTVSPropertyOp24
 70
     1
102
RTVSPropertyOp25
 70
     1
102
RTVSPropertyOp26
 70
     1
102
RTVSPropertyOp27
 70
     1
102
RTVSPropertyOp28
 70
     1
102
RTVSPropertyOp29
 70
     1
102
RTVSPropertyOp30
 70
     1
102
RTVSPropertyOp31
 70
     1
102
RTVSPropertyOp32
 70
     1
  0
XRECORD
  5
9C
102
{ACAD_REACTORS
330
9B
102
}
330
9B
100
AcDbXrecord
280
     1
102
RTVSPropertyOp0
 70
     1
102
RTVSPropertyOp1
 70
     1
102
RTVSPropertyOp2
 70
     1
102
RTVSPropertyOp3
 70
     1
102
RTVSPropertyOp4
 70
     1
102
RTVSPropertyOp5
 70
     1
102
RTVSPropertyOp6
 70
     1
102
RTVSPropertyOp7
 70
     1
102
RTVSPropertyOp8
 70
     1
102
RTVSPropertyOp9
 70
     1
102
RTVSPropertyOp10
 70
     1
102
RTVSPropertyOp11
 70
     1
102
RTVSPropertyOp12
 70
     1
102
RTVSPropertyOp13
 70
     1
102
RTVSPropertyOp14
 70
     1
102
RTVSPropertyOp15
 70
     1
102
RTVSPropertyOp16
 70
     1
102
RTVSPropertyOp17
 70
     1
102
RTVSPropertyOp18
 70
     1
102
RTVSPropertyOp19
 70
     1
102
RTVSPropertyOp20
 70
     1
102
RTVSPropertyOp21
 70
     1
102
RTVSPropertyOp22
 70
     1
102
RTVSPropertyOp23
 70
     1
102
RTVSPropertyOp24
 70
     1
102
RTVSPropertyOp25
 70
     1
102
RTVSPropertyOp26
 70
     1
102
RTVSPropertyOp27
 70
     1
102
RTVSPropertyOp28
 70
     1
102
RTVSPropertyOp29
 70
     1
102
RTVSPropertyOp30
 70
     1
102
RTVSPropertyOp31
 70
     1
102
RTVSPropertyOp32
 70
     1
  0
XRECORD
  5
A4
102
{ACAD_REACTORS
330
A3
102
}
330
A3
100
AcDbXrecord
280
     1
102
RTVSPropertyOp0
 70
     1
102
RTVSPropertyOp1
 70
     1
102
RTVSPropertyOp2
 70
     1
102
RTVSPropertyOp3
 70
     1
102
RTVSPropertyOp4
 70
     1
102
RTVSPropertyOp5
 70
     1
102
RTVSPropertyOp6
 70
     1
102
RTVSPropertyOp7
 70
     1
102
RTVSPropertyOp8
 70
     1
102
RTVSPropertyOp9
 70
     1
102
RTVSPropertyOp10
 70
     1
102
RTVSPropertyOp11
 70
     1
102
RTVSPropertyOp12
 70
     1
102
RTVSPropertyOp13
 70
     1
102
RTVSPropertyOp14
 70
     1
102
RTVSPropertyOp15
 70
     1
102
RTVSPropertyOp16
 70
     1
102
RTVSPropertyOp17
 70
     1
102
RTVSPropertyOp18
 70
     1
102
RTVSPropertyOp19
 70
     1
102
RTVSPropertyOp20
 70
     1
102
RTVSPropertyOp21
 70
     1
102
RTVSPropertyOp22
 70
     1
102
RTVSPropertyOp23
 70
     1
102
RTVSPropertyOp24
 70
     1
102
RTVSPropertyOp25
 70
     1
102
RTVSPropertyOp26
 70
     1
102
RTVSPropertyOp27
 70
     1
102
RTVSPropertyOp28
 70
     1
102
RTVSPropertyOp29
 70
     1
102
RTVSPropertyOp30
 70
     1
102
RTVSPropertyOp31
 70
     1
102
RTVSPropertyOp32
 70
     1
  0
ENDSEC
  0
EOF
