  0
SECTION
  2
HEADER
  9
$ACADVER
  1
AC1021
  9
$ACADMAINTVER
 70
    25
  9
$DWGCODEPAGE
  3
ANSI_1252
  9
$INSBASE
 10
0.0
 20
0.0
 30
0.0
  9
$EXTMIN
 10
76.7479
 20
-114.7523
 30
0.0
  9
$EXTMAX
 10
195.8832
 20
131.1257
 30
0.0
  9
$LIMMIN
 10
0.0
 20
0.0
  9
$LIMMAX
 10
12.0
 20
9.0
  9
$ORTHOMODE
 70
     0
  9
$REGENMODE
 70
     1
  9
$FILLMODE
 70
     1
  9
$QTEXTMODE
 70
     0
  9
$MIRRTEXT
 70
     1
  9
$LTSCALE
 40
1.0
  9
$ATTMODE
 70
     1
  9
$TEXTSIZE
 40
0.2
  9
$TRACEWID
 40
0.05
  9
$TEXTSTYLE
  7
Standard
  9
$CLAYER
  8
0
  9
$CELTYPE
  6
ByLayer
  9
$CECOLOR
 62
   256
  9
$CELTSCALE
 40
1.0
  9
$DISPSILH
 70
     0
  9
$DIMSCALE
 40
1.0
  9
$DIMASZ
 40
0.18
  9
$DIMEXO
 40
0.0625
  9
$DIMDLI
 40
0.38
  9
$DIMRND
 40
0.0
  9
$DIMDLE
 40
0.0
  9
$DIMEXE
 40
0.18
  9
$DIMTP
 40
0.0
  9
$DIMTM
 40
0.0
  9
$DIMTXT
 40
0.18
  9
$DIMCEN
 40
0.09
  9
$DIMTSZ
 40
0.0
  9
$DIMTOL
 70
     0
  9
$DIMLIM
 70
     0
  9
$DIMTIH
 70
     1
  9
$DIMTOH
 70
     1
  9
$DIMSE1
 70
     0
  9
$DIMSE2
 70
     0
  9
$DIMTAD
 70
     0
  9
$DIMZIN
 70
     0
  9
$DIMBLK
  1

  9
$DIMASO
 70
     1
  9
$DIMSHO
 70
     1
  9
$DIMPOST
  1

  9
$DIMAPOST
  1

  9
$DIMALT
 70
     0
  9
$DIMALTD
 70
     2
  9
$DIMALTF
 40
25.4
  9
$DIMLFAC
 40
1.0
  9
$DIMTOFL
 70
     0
  9
$DIMTVP
 40
0.0
  9
$DIMTIX
 70
     0
  9
$DIMSOXD
 70
     0
  9
$DIMSAH
 70
     0
  9
$DIMBLK1
  1

  9
$DIMBLK2
  1

  9
$DIMSTYLE
  2
Standard
  9
$DIMCLRD
 70
     0
  9
$DIMCLRE
 70
     0
  9
$DIMCLRT
 70
     0
  9
$DIMTFAC
 40
1.0
  9
$DIMGAP
 40
0.09
  9
$DIMJUST
 70
     0
  9
$DIMSD1
 70
     0
  9
$DIMSD2
 70
     0
  9
$DIMTOLJ
 70
     1
  9
$DIMTZIN
 70
     0
  9
$DIMALTZ
 70
     0
  9
$DIMALTTZ
 70
     0
  9
$DIMUPT
 70
     0
  9
$DIMDEC
 70
     4
  9
$DIMTDEC
 70
     4
  9
$DIMALTU
 70
     2
  9
$DIMALTTD
 70
     2
  9
$DIMTXSTY
  7
Standard
  9
$DIMAUNIT
 70
     0
  9
$DIMADEC
 70
     0
  9
$DIMALTRND
 40
0.0
  9
$DIMAZIN
 70
     0
  9
$DIMDSEP
 70
    46
  9
$DIMATFIT
 70
     3
  9
$DIMFRAC
 70
     0
  9
$DIMLDRBLK
  1

  9
$DIMLUNIT
 70
     2
  9
$DIMLWD
 70
    -2
  9
$DIMLWE
 70
    -2
  9
$DIMTMOVE
 70
     0
  9
$DIMFXL
 40
1.0
  9
$DIMFXLON
 70
     0
  9
$DIMJOGANG
 40
0.7853981633974483
  9
$DIMTFILL
 70
     0
  9
$DIMTFILLCLR
 70
     0
  9
$DIMARCSYM
 70
     0
  9
$DIMLTYPE
  6

  9
$DIMLTEX1
  6

  9
$DIMLTEX2
  6

  9
$LUNITS
 70
     2
  9
$LUPREC
 70
     4
  9
$SKETCHINC
 40
0.1
  9
$FILLETRAD
 40
0.5
  9
$AUNITS
 70
     0
  9
$AUPREC
 70
     0
  9
$MENU
  1
.
  9
$ELEVATION
 40
0.0
  9
$PELEVATION
 40
0.0
  9
$THICKNESS
 40
0.0
  9
$LIMCHECK
 70
     0
  9
$CHAMFERA
 40
0.5
  9
$CHAMFERB
 40
0.5
  9
$CHAMFERC
 40
1.0
  9
$CHAMFERD
 40
0.0
  9
$SKPOLY
 70
     0
  9
$TDCREATE
 40
2458492.557994549
  9
$TDUCREATE
 40
2458492.557994549
  9
$TDUPDATE
 40
2458492.557994653
  9
$TDUUPDATE
 40
2458492.557994653
  9
$TDINDWG
 40
0.0000000116
  9
$TDUSRTIMER
 40
0.0000000116
  9
$USRTIMER
 70
     1
  9
$ANGBASE
 50
0.0
  9
$ANGDIR
 70
     0
  9
$PDMODE
 70
     0
  9
$PDSIZE
 40
0.0
  9
$PLINEWID
 40
0.0
  9
$SPLFRAME
 70
     0
  9
$SPLINETYPE
 70
     6
  9
$SPLINESEGS
 70
     8
  9
$HANDSEED
  5
BC
  9
$SURFTAB1
 70
     6
  9
$SURFTAB2
 70
     6
  9
$SURFTYPE
 70
     6
  9
$SURFU
 70
     6
  9
$SURFV
 70
     6
  9
$UCSBASE
  2

  9
$UCSNAME
  2

  9
$UCSORG
 10
0.0
 20
0.0
 30
0.0
  9
$UCSXDIR
 10
1.0
 20
0.0
 30
0.0
  9
$UCSYDIR
 10
0.0
 20
1.0
 30
0.0
  9
$UCSORTHOREF
  2

  9
$UCSORTHOVIEW
 70
     0
  9
$UCSORGTOP
 10
0.0
 20
0.0
 30
0.0
  9
$UCSORGBOTTOM
 10
0.0
 20
0.0
 30
0.0
  9
$UCSORGLEFT
 10
0.0
 20
0.0
 30
0.0
  9
$UCSORGRIGHT
 10
0.0
 20
0.0
 30
0.0
  9
$UCSORGFRONT
 10
0.0
 20
0.0
 30
0.0
  9
$UCSORGBACK
 10
0.0
 20
0.0
 30
0.0
  9
$PUCSBASE
  2

  9
$PUCSNAME
  2

  9
$PUCSORG
 10
0.0
 20
0.0
 30
0.0
  9
$PUCSXDIR
 10
1.0
 20
0.0
 30
0.0
  9
$PUCSYDIR
 10
0.0
 20
1.0
 30
0.0
  9
$PUCSORTHOREF
  2

  9
$PUCSORTHOVIEW
 70
     0
  9
$PUCSORGTOP
 10
0.0
 20
0.0
 30
0.0
  9
$PUCSORGBOTTOM
 10
0.0
 20
0.0
 30
0.0
  9
$PUCSORGLEFT
 10
0.0
 20
0.0
 30
0.0
  9
$PUCSORGRIGHT
 10
0.0
 20
0.0
 30
0.0
  9
$PUCSORGFRONT
 10
0.0
 20
0.0
 30
0.0
  9
$PUCSORGBACK
 10
0.0
 20
0.0
 30
0.0
  9
$USERI1
 70
     0
  9
$USERI2
 70
     0
  9
$USERI3
 70
     0
  9
$USERI4
 70
     0
  9
$USERI5
 70
     0
  9
$USERR1
 40
0.0
  9
$USERR2
 40
0.0
  9
$USERR3
 40
0.0
  9
$USERR4
 40
0.0
  9
$USERR5
 40
0.0
  9
$WORLDVIEW
 70
     1
  9
$SHADEDGE
 70
     3
  9
$SHADEDIF
 70
    70
  9
$TILEMODE
 70
     1
  9
$MAXACTVP
 70
    64
  9
$PINSBASE
 10
0.0
 20
0.0
 30
0.0
  9
$PLIMCHECK
 70
     0
  9
$PEXTMIN
 10
1.000000000000000E+20
 20
1.000000000000000E+20
 30
1.000000000000000E+20
  9
$PEXTMAX
 10
-1.000000000000000E+20
 20
-1.000000000000000E+20
 30
-1.000000000000000E+20
  9
$PLIMMIN
 10
0.0
 20
0.0
  9
$PLIMMAX
 10
12.0
 20
9.0
  9
$UNITMODE
 70
     0
  9
$VISRETAIN
 70
     1
  9
$PLINEGEN
 70
     0
  9
$PSLTSCALE
 70
     1
  9
$TREEDEPTH
 70
  3020
  9
$CMLSTYLE
  2
Standard
  9
$CMLJUST
 70
     0
  9
$CMLSCALE
 40
1.0
  9
$PROXYGRAPHICS
 70
     1
  9
$MEASUREMENT
 70
     0
  9
$CELWEIGHT
370
    -1
  9
$ENDCAPS
280
     0
  9
$JOINSTYLE
280
     0
  9
$LWDISPLAY
290
     0
  9
$INSUNITS
 70
     4
  9
$HYPERLINKBASE
  1

  9
$STYLESHEET
  1

  9
$XEDIT
290
     1
  9
$CEPSNTYPE
380
     0
  9
$PSTYLEMODE
290
     1
  9
$FINGERPRINTGUID
  2
{4307C1F4-9965-4634-860E-142A71951317}
  9
$VERSIONGUID
  2
{FAEB1C32-E019-11D5-929B-00C0DF256EC4}
  9
$EXTNAMES
290
     1
  9
$PSVPSCALE
 40
0.0
  9
$OLESTARTUP
290
     0
  9
$SORTENTS
280
   127
  9
$INDEXCTL
280
     0
  9
$HIDETEXT
280
     1
  9
$XCLIPFRAME
290
     0
  9
$HALOGAP
280
     0
  9
$OBSCOLOR
 70
   257
  9
$OBSLTYPE
280
     0
  9
$INTERSECTIONDISPLAY
280
     0
  9
$INTERSECTIONCOLOR
 70
   257
  9
$DIMASSOC
280
     2
  9
$PROJECTNAME
  1

  9
$CAMERADISPLAY
290
     0
  9
$LENSLENGTH
 40
50.0
  9
$CAMERAHEIGHT
 40
0.0
  9
$STEPSPERSEC
 40
2.0
  9
$STEPSIZE
 40
6.0
  9
$3DDWFPREC
 40
2.0
  9
$PSOLWIDTH
 40
0.25
  9
$PSOLHEIGHT
 40
4.0
  9
$LOFTANG1
 40
1.570796326794897
  9
$LOFTANG2
 40
1.570796326794897
  9
$LOFTMAG1
 40
0.0
  9
$LOFTMAG2
 40
0.0
  9
$LOFTPARAM
 70
     7
  9
$LOFTNORMALS
280
     1
  9
$LATITUDE
 40
37.795
  9
$LONGITUDE
 40
-122.394
  9
$NORTHDIRECTION
 40
0.0
  9
$TIMEZONE
 70
 -8000
  9
$LIGHTGLYPHDISPLAY
280
     1
  9
$TILEMODELIGHTSYNCH
280
     1
  9
$SOLIDHIST
280
     1
  9
$SHOWHIST
280
     1
  9
$DWFFRAME
280
     2
  9
$DGNFRAME
280
     2
  9
$REALWORLDSCALE
290
     1
  9
$INTERFERECOLOR
 62
   256
  9
$CSHADOW
280
     0
  9
$SHADOWPLANELOCATION
 40
0.0
  0
ENDSEC
  0
SECTION
  2
CLASSES
  0
CLASS
  1
ACDBDICTIONARYWDFLT
  2
AcDbDictionaryWithDefault
  3
ObjectDBX Classes
 90
        0
 91
        4
280
     0
281
     0
  0
CLASS
  1
VISUALSTYLE
  2
AcDbVisualStyle
  3
ObjectDBX Classes
 90
     4095
 91
        4
280
     0
281
     0
  0
CLASS
  1
MATERIAL
  2
AcDbMaterial
  3
ObjectDBX Classes
 90
     1153
 91
        4
280
     0
281
     0
  0
ENDSEC
  0
SECTION
  2
TABLES
  0
TABLE
  2
VPORT
  5
8
330
0
100
AcDbSymbolTable
 70
     1
  0
VPORT
  5
29
330
8
100
AcDbSymbolTableRecord
100
AcDbViewportTableRecord
  2
*Active
 70
     0
 10
0.0
 20
0.0
 11
1.0
 21
1.0
 12
10.42990654205607
 22
4.5
 13
0.0
 23
0.0
 14
0.5
 24
0.5
 15
0.5
 25
0.5
 16
0.0
 26
0.0
 36
1.0
 17
0.0
 27
0.0
 37
0.0
 40
9.0
 41
1.972972972850329
 42
50.0
 43
0.0
 44
0.0
 50
0.0
 51
0.0
 71
     0
 72
   100
 73
     1
 74
     3
 75
     0
 76
     0
 77
     0
 78
     0
281
     0
 65
     1
110
0.0
120
0.0
130
0.0
111
1.0
121
0.0
131
0.0
112
0.0
122
1.0
132
0.0
 79
     0
146
0.0
 60
     3
 61
     5
292
     1
282
     1
141
0.0
142
0.0
 63
   250
  0
ENDTAB
  0
TABLE
  2
LTYPE
  5
5
330
0
100
AcDbSymbolTable
 70
     1
  0
LTYPE
  5
14
330
5
100
AcDbSymbolTableRecord
100
AcDbLinetypeTableRecord
  2
ByBlock
 70
     0
  3

 72
    65
 73
     0
 40
0.0
  0
LTYPE
  5
15
330
5
100
AcDbSymbolTableRecord
100
AcDbLinetypeTableRecord
  2
ByLayer
 70
     0
  3

 72
    65
 73
     0
 40
0.0
  0
LTYPE
  5
16
330
5
100
AcDbSymbolTableRecord
100
AcDbLinetypeTableRecord
  2
Continuous
 70
     0
  3
Solid line
 72
    65
 73
     0
 40
0.0
  0
ENDTAB
  0
TABLE
  2
LAYER
  5
2
330
0
100
AcDbSymbolTable
 70
     3
  0
LAYER
  5
10
330
2
100
AcDbSymbolTableRecord
100
AcDbLayerTableRecord
  2
0
 70
     0
 62
     7
  6
Continuous
370
    -3
390
F
347
3E
  0
LAYER
  5
40
330
2
100
AcDbSymbolTableRecord
100
AcDbLayerTableRecord
  2
layer 1
 70
     0
 62
     7
  6
Continuous
370
    -3
390
F
347
3E
  0
LAYER
  5
99
330
2
100
AcDbSymbolTableRecord
100
AcDbLayerTableRecord
  2
Master Guides
 70
     0
 62
     7
  6
Continuous
370
    -3
390
F
347
3E
  0
ENDTAB
  0
TABLE
  2
STYLE
  5
3
330
0
100
AcDbSymbolTable
 70
     1
  0
STYLE
  5
11
330
3
100
AcDbSymbolTableRecord
100
AcDbTextStyleTableRecord
  2
Standard
 70
     0
 40
0.0
 41
1.0
 50
0.0
 71
     0
 42
0.2
  3
txt
  4

  0
ENDTAB
  0
TABLE
  2
VIEW
  5
6
330
0
100
AcDbSymbolTable
 70
     0
  0
ENDTAB
  0
TABLE
  2
UCS
  5
7
330
0
100
AcDbSymbolTable
 70
     0
  0
ENDTAB
  0
TABLE
  2
APPID
  5
9
330
0
100
AcDbSymbolTable
 70
     2
  0
APPID
  5
12
330
9
100
AcDbSymbolTableRecord
100
AcDbRegAppTableRecord
  2
ACAD
 70
     0
  0
APPID
  5
3F
330
9
100
AcDbSymbolTableRecord
100
AcDbRegAppTableRecord
  2
ODA
 70
     0
  0
ENDTAB
  0
TABLE
  2
DIMSTYLE
  5
A
330
0
100
AcDbSymbolTable
 70
     1
100
AcDbDimStyleTable
  0
DIMSTYLE
105
27
330
A
100
AcDbSymbolTableRecord
100
AcDbDimStyleTableRecord
  2
Standard
 70
     0
178
     0
340
11
  0
ENDTAB
  0
TABLE
  2
BLOCK_RECORD
  5
1
330
0
100
AcDbSymbolTable
 70
     1
  0
BLOCK_RECORD
  5
1F
330
1
100
AcDbSymbolTableRecord
100
AcDbBlockTableRecord
  2
*Model_Space
340
22
 70
     0
280
     1
281
     0
  0
BLOCK_RECORD
  5
1B
330
1
100
AcDbSymbolTableRecord
100
AcDbBlockTableRecord
  2
*Paper_Space
340
1E
 70
     0
280
     1
281
     0
  0
BLOCK_RECORD
  5
23
330
1
100
AcDbSymbolTableRecord
100
AcDbBlockTableRecord
  2
*Paper_Space0
340
26
 70
     0
280
     1
281
     0
  0
ENDTAB
  0
ENDSEC
  0
SECTION
  2
BLOCKS
  0
BLOCK
  5
20
330
1F
100
AcDbEntity
  8
0
100
AcDbBlockBegin
  2
*Model_Space
 70
     0
 10
0.0
 20
0.0
 30
0.0
  3
*Model_Space
  1

  0
ENDBLK
  5
21
330
1F
100
AcDbEntity
  8
0
100
AcDbBlockEnd
  0
BLOCK
  5
1C
330
1B
100
AcDbEntity
 67
     1
  8
0
100
AcDbBlockBegin
  2
*Paper_Space
 70
     0
 10
0.0
 20
0.0
 30
0.0
  3
*Paper_Space
  1

  0
ENDBLK
  5
1D
330
1B
100
AcDbEntity
 67
     1
  8
0
100
AcDbBlockEnd
  0
BLOCK
  5
24
330
23
100
AcDbEntity
  8
0
100
AcDbBlockBegin
  2
*Paper_Space0
 70
     0
 10
0.0
 20
0.0
 30
0.0
  3
*Paper_Space0
  1

  0
ENDBLK
  5
25
330
23
100
AcDbEntity
  8
0
100
AcDbBlockEnd
  0
ENDSEC
  0
SECTION
  2
ENTITIES
  0
SPLINE
  5
41
330
1F
100
AcDbEntity
  8
layer 1
 62
   250
100
AcDbSpline
210
0.0
220
0.0
230
1.0
 70
    11
 71
     3
 72
    20
 73
    16
 74
     0
 42
0.0000000001
 43
0.0000000001
 12
1.0
 22
0.0
 32
0.0
 13
1.0
 23
0.0
 33
0.0
 40
0.0
 40
0.0
 40
0.0
 40
0.0
 40
0.2
 40
0.2
 40
0.2
 40
0.2
 40
0.4
 40
0.4
 40
0.4
 40
0.4
 40
0.6
 40
0.6
 40
0.6
 40
0.6
 40
1.0
 40
1.0
 40
1.0
 40
1.0
 10
76.7479
 20
131.1257
 30
0.0
 10
76.7479
 20
131.1257
 30
0.0
 10
195.8832
 20
131.1257
 30
0.0
 10
195.8832
 20
131.1257
 30
0.0
 10
195.8832
 20
131.1257
 30
0.0
 10
195.8832
 20
131.1257
 30
0.0
 10
195.8832
 20
-114.7523
 30
0.0
 10
195.8832
 20
-114.7523
 30
0.0
 10
195.8832
 20
-114.7523
 30
0.0
 10
195.8832
 20
-114.7523
 30
0.0
 10
76.7479
 20
-114.7523
 30
0.0
 10
76.7479
 20
-114.7523
 30
0.0
 10
76.7479
 20
-114.7523
 30
0.0
 10
76.7479
 20
-114.7523
 30
0.0
 10
76.7479
 20
131.1257
 30
0.0
 10
76.7479
 20
131.1257
 30
0.0
  0
SPLINE
  5
42
330
1F
100
AcDbEntity
  8
layer 1
 62
     7
100
AcDbSpline
210
0.0
220
0.0
230
1.0
 70
    11
 71
     3
 72
    20
 73
    16
 74
     0
 42
0.0000000001
 43
0.0000000001
 12
1.0
 22
0.0
 32
0.0
 13
1.0
 23
0.0
 33
0.0
 40
0.0
 40
0.0
 40
0.0
 40
0.0
 40
0.2
 40
0.2
 40
0.2
 40
0.2
 40
0.4
 40
0.4
 40
0.4
 40
0.4
 40
0.6
 40
0.6
 40
0.6
 40
0.6
 40
1.0
 40
1.0
 40
1.0
 40
1.0
 10
181.101
 20
-18.922
 30
0.0
 10
181.4939
 20
-18.922
 30
0.0
 10
181.8083
 20
-19.3234
 30
0.0
 10
181.8083
 20
-19.8186
 30
0.0
 10
181.8083
 20
-19.8186
 30
0.0
 10
181.8083
 20
-20.3143
 30
0.0
 10
181.4939
 20
-20.7153
 30
0.0
 10
181.101
 20
-20.7153
 30
0.0
 10
181.101
 20
-20.7153
 30
0.0
 10
180.7147
 20
-20.7153
 30
0.0
 10
180.3937
 20
-20.3143
 30
0.0
 10
180.3937
 20
-19.8186
 30
0.0
 10
180.3937
 20
-19.8186
 30
0.0
 10
180.3937
 20
-19.3234
 30
0.0
 10
180.7147
 20
-18.922
 30
0.0
 10
181.101
 20
-18.922
 30
0.0
  0
SPLINE
  5
43
330
1F
100
AcDbEntity
  8
layer 1
 62
     7
100
AcDbSpline
210
0.0
220
0.0
230
1.0
 70
    11
 71
     3
 72
    20
 73
    16
 74
     0
 42
0.0000000001
 43
0.0000000001
 12
1.0
 22
0.0
 32
0.0
 13
1.0
 23
0.0
 33
0.0
 40
0.0
 40
0.0
 40
0.0
 40
0.0
 40
0.2
 40
0.2
 40
0.2
 40
0.2
 40
0.4
 40
0.4
 40
0.4
 40
0.4
 40
0.6
 40
0.6
 40
0.6
 40
0.6
 40
1.0
 40
1.0
 40
1.0
 40
1.0
 10
186.1966
 20
-25.624
 30
0.0
 10
186.6354
 20
-25.624
 30
0.0
 10
186.9955
 20
-25.9195
 30
0.0
 10
186.9955
 20
-26.2849
 30
0.0
 10
186.9955
 20
-26.2849
 30
0.0
 10
186.9955
 20
-26.6498
 30
0.0
 10
186.6354
 20
-26.9452
 30
0.0
 10
186.1966
 20
-26.9452
 30
0.0
 10
186.1966
 20
-26.9452
 30
0.0
 10
185.7512
 20
-26.9452
 30
0.0
 10
185.3909
 20
-26.6498
 30
0.0
 10
185.3909
 20
-26.2849
 30
0.0
 10
185.3909
 20
-26.2849
 30
0.0
 10
185.3909
 20
-25.9195
 30
0.0
 10
185.7512
 20
-25.624
 30
0.0
 10
186.1966
 20
-25.624
 30
0.0
  0
SPLINE
  5
44
330
1F
100
AcDbEntity
  8
layer 1
 62
     7
100
AcDbSpline
210
0.0
220
0.0
230
1.0
 70
    11
 71
     3
 72
    20
 73
    16
 74
     0
 42
0.0000000001
 43
0.0000000001
 12
1.0
 22
0.0
 32
0.0
 13
1.0
 23
0.0
 33
0.0
 40
0.0
 40
0.0
 40
0.0
 40
0.0
 40
0.2
 40
0.2
 40
0.2
 40
0.2
 40
0.4
 40
0.4
 40
0.4
 40
0.4
 40
0.6
 40
0.6
 40
0.6
 40
0.6
 40
1.0
 40
1.0
 40
1.0
 40
1.0
 10
176.9552
 20
-31.8539
 30
0.0
 10
177.394
 20
-31.8539
 30
0.0
 10
177.7543
 20
-32.2765
 30
0.0
 10
177.7543
 20
-32.7977
 30
0.0
 10
177.7543
 20
-32.7977
 30
0.0
 10
177.7543
 20
-33.3192
 30
0.0
 10
177.394
 20
-33.7416
 30
0.0
 10
176.9552
 20
-33.7416
 30
0.0
 10
176.9552
 20
-33.7416
 30
0.0
 10
176.5098
 20
-33.7416
 30
0.0
 10
176.1497
 20
-33.3192
 30
0.0
 10
176.1497
 20
-32.7977
 30
0.0
 10
176.1497
 20
-32.7977
 30
0.0
 10
176.1497
 20
-32.2765
 30
0.0
 10
176.5098
 20
-31.8539
 30
0.0
 10
176.9552
 20
-31.8539
 30
0.0
  0
SPLINE
  5
45
330
1F
100
AcDbEntity
  8
layer 1
 62
     7
100
AcDbSpline
210
0.0
220
0.0
230
1.0
 70
    11
 71
     3
 72
    20
 73
    16
 74
     0
 42
0.0000000001
 43
0.0000000001
 12
1.0
 22
0.0
 32
0.0
 13
1.0
 23
0.0
 33
0.0
 40
0.0
 40
0.0
 40
0.0
 40
0.0
 40
0.2
 40
0.2
 40
0.2
 40
0.2
 40
0.4
 40
0.4
 40
0.4
 40
0.4
 40
0.6
 40
0.6
 40
0.6
 40
0.6
 40
1.0
 40
1.0
 40
1.0
 40
1.0
 10
94.4119
 20
44.227
 30
0.0
 10
94.4119
 20
44.227
 30
0.0
 10
91.3927
 20
40.3569
 30
0.0
 10
93.7505
 20
40.1682
 30
0.0
 10
93.7505
 20
40.1682
 30
0.0
 10
93.7505
 20
40.1682
 30
0.0
 10
98.0862
 20
36.2975
 30
0.0
 10
96.01
 20
39.5067
 30
0.0
 10
96.01
 20
39.5067
 30
0.0
 10
96.01
 20
39.5067
 30
0.0
 10
94.222
 20
40.7341
 30
0.0
 10
94.7852
 20
42.9996
 30
0.0
 10
94.7852
 20
42.9996
 30
0.0
 10
94.7852
 20
42.9996
 30
0.0
 10
94.4119
 20
44.227
 30
0.0
 10
94.4119
 20
44.227
 30
0.0
  0
SPLINE
  5
46
330
1F
100
AcDbEntity
  8
layer 1
 62
     7
100
AcDbSpline
210
0.0
220
0.0
230
1.0
 70
    11
 71
     3
 72
    16
 73
    12
 74
     0
 42
0.0000000001
 43
0.0000000001
 12
1.0
 22
0.0
 32
0.0
 13
1.0
 23
0.0
 33
0.0
 40
0.0
 40
0.0
 40
0.0
 40
0.0
 40
0.25
 40
0.25
 40
0.25
 40
0.25
 40
0.5
 40
0.5
 40
0.5
 40
0.5
 40
1.0
 40
1.0
 40
1.0
 40
1.0
 10
96.01
 20
49.7011
 30
0.0
 10
96.01
 20
49.7011
 30
0.0
 10
96.2
 20
52.5329
 30
0.0
 10
96.2
 20
52.5329
 30
0.0
 10
96.2
 20
52.5329
 30
0.0
 10
96.2
 20
52.5329
 30
0.0
 10
97.523
 20
54.2326
 30
0.0
 10
100.5358
 20
53.4774
 30
0.0
 10
100.5358
 20
53.4774
 30
0.0
 10
100.5358
 20
53.4774
 30
0.0
 10
96.3899
 20
51.1177
 30
0.0
 10
96.01
 20
49.7011
 30
0.0
  0
SPLINE
  5
47
330
1F
100
AcDbEntity
  8
layer 1
 62
     7
100
AcDbSpline
210
0.0
220
0.0
230
1.0
 70
    11
 71
     3
 72
    20
 73
    16
 74
     0
 42
0.0000000001
 43
0.0000000001
 12
1.0
 22
0.0
 32
0.0
 13
1.0
 23
0.0
 33
0.0
 40
0.0
 40
0.0
 40
0.0
 40
0.0
 40
0.2
 40
0.2
 40
0.2
 40
0.2
 40
0.4
 40
0.4
 40
0.4
 40
0.4
 40
0.6
 40
0.6
 40
0.6
 40
0.6
 40
1.0
 40
1.0
 40
1.0
 40
1.0
 10
134.2001
 20
101.9005
 30
0.0
 10
134.6651
 20
101.9005
 30
0.0
 10
135.0449
 20
101.2671
 30
0.0
 10
135.0449
 20
100.4852
 30
0.0
 10
135.0449
 20
100.4852
 30
0.0
 10
135.0449
 20
99.7032
 30
0.0
 10
134.6651
 20
99.0691
 30
0.0
 10
134.2001
 20
99.0691
 30
0.0
 10
134.2001
 20
99.0691
 30
0.0
 10
133.7285
 20
99.0691
 30
0.0
 10
132.7855
 20
99.4196
 30
0.0
 10
132.7855
 20
100.2015
 30
0.0
 10
132.7855
 20
100.2015
 30
0.0
 10
132.7855
 20
100.9835
 30
0.0
 10
133.7285
 20
101.9005
 30
0.0
 10
134.2001
 20
101.9005
 30
0.0
  0
SPLINE
  5
48
330
1F
100
AcDbEntity
  8
layer 1
 62
     7
100
AcDbSpline
210
0.0
220
0.0
230
1.0
 70
    11
 71
     3
 72
    40
 73
    36
 74
     0
 42
0.0000000001
 43
0.0000000001
 12
1.0
 22
0.0
 32
0.0
 13
1.0
 23
0.0
 33
0.0
 40
0.0
 40
0.0
 40
0.0
 40
0.0
 40
0.1
 40
0.1
 40
0.1
 40
0.1
 40
0.2
 40
0.2
 40
0.2
 40
0.2
 40
0.3
 40
0.3
 40
0.3
 40
0.3
 40
0.4
 40
0.4
 40
0.4
 40
0.4
 40
0.5
 40
0.5
 40
0.5
 40
0.5
 40
0.6
 40
0.6
 40
0.6
 40
0.6
 40
0.7
 40
0.7
 40
0.7
 40
0.7
 40
0.8
 40
0.8
 40
0.8
 40
0.8
 40
1.0
 40
1.0
 40
1.0
 40
1.0
 10
120.8065
 20
94.066
 30
0.0
 10
120.8065
 20
94.066
 30
0.0
 10
127.1921
 20
99.8296
 30
0.0
 10
120.217
 20
103.9021
 30
0.0
 10
120.217
 20
103.9021
 30
0.0
 10
118.5665
 20
104.8648
 30
0.0
 10
116.13
 20
105.692
 30
0.0
 10
111.8532
 20
105.1104
 30
0.0
 10
111.8532
 20
105.1104
 30
0.0
 10
111.8532
 20
105.1104
 30
0.0
 10
115.6258
 20
110.4908
 30
0.0
 10
120.5248
 20
112.567
 30
0.0
 10
120.5248
 20
112.567
 30
0.0
 10
120.5248
 20
112.567
 30
0.0
 10
122.2211
 20
101.9954
 30
0.0
 10
129.4845
 20
109.7357
 30
0.0
 10
129.4845
 20
109.7357
 30
0.0
 10
129.4845
 20
109.7357
 30
0.0
 10
135.1367
 20
109.4521
 30
0.0
 10
131.2725
 20
103.6944
 30
0.0
 10
131.2725
 20
103.6944
 30
0.0
 10
131.2725
 20
103.6944
 30
0.0
 10
128.5413
 20
104.5439
 30
0.0
 10
128.8231
 20
100.7682
 30
0.0
 10
128.8231
 20
100.7682
 30
0.0
 10
128.8231
 20
100.7682
 30
0.0
 10
125.5221
 20
102.1841
 30
0.0
 10
125.3321
 20
96.1429
 30
0.0
 10
125.3321
 20
96.1429
 30
0.0
 10
125.3321
 20
96.1429
 30
0.0
 10
122.1294
 20
93.9718
 30
0.0
 10
122.1294
 20
92.8392
 30
0.0
 10
122.1294
 20
92.8392
 30
0.0
 10
122.1294
 20
92.8392
 30
0.0
 10
120.9046
 20
94.4438
 30
0.0
 10
120.8065
 20
94.066
 30
0.0
  0
SPLINE
  5
49
330
1F
100
AcDbEntity
  8
layer 1
 62
     7
100
AcDbSpline
210
0.0
220
0.0
230
1.0
 70
    11
 71
     3
 72
    36
 73
    32
 74
     0
 42
0.0000000001
 43
0.0000000001
 12
1.0
 22
0.0
 32
0.0
 13
1.0
 23
0.0
 33
0.0
 40
0.0
 40
0.0
 40
0.0
 40
0.0
 40
0.1111111111111111
 40
0.1111111111111111
 40
0.1111111111111111
 40
0.1111111111111111
 40
0.2222222222222222
 40
0.2222222222222222
 40
0.2222222222222222
 40
0.2222222222222222
 40
0.3333333333333333
 40
0.3333333333333333
 40
0.3333333333333333
 40
0.3333333333333333
 40
0.4444444444444444
 40
0.4444444444444444
 40
0.4444444444444444
 40
0.4444444444444444
 40
0.5555555555555556
 40
0.5555555555555556
 40
0.5555555555555556
 40
0.5555555555555556
 40
0.6666666666666666
 40
0.6666666666666666
 40
0.6666666666666666
 40
0.6666666666666666
 40
0.7777777777777778
 40
0.7777777777777778
 40
0.7777777777777778
 40
0.7777777777777778
 40
1.0
 40
1.0
 40
1.0
 40
1.0
 10
102.3958
 20
-31.3503
 30
0.0
 10
102.3958
 20
-31.3503
 30
0.0
 10
97.2282
 20
-29.6277
 30
0.0
 10
95.7743
 20
-22.6048
 30
0.0
 10
95.7743
 20
-22.6048
 30
0.0
 10
95.7743
 20
-22.6048
 30
0.0
 10
95.2437
 20
-14.5213
 30
0.0
 10
92.1982
 20
-11.8714
 30
0.0
 10
92.1982
 20
-11.8714
 30
0.0
 10
92.1982
 20
-11.8714
 30
0.0
 10
89.0216
 20
-7.6313
 30
0.0
 10
92.1982
 20
-4.7155
 30
0.0
 10
92.1982
 20
-4.7155
 30
0.0
 10
92.1982
 20
-4.7155
 30
0.0
 10
98.1583
 20
-1.2704
 30
0.0
 10
93.3902
 20
1.9101
 30
0.0
 10
93.3902
 20
1.9101
 30
0.0
 10
93.3902
 20
1.9101
 30
0.0
 10
94.3138
 20
5.4873
 30
0.0
 10
95.6367
 20
1.1149
 30
0.0
 10
95.6367
 20
1.1149
 30
0.0
 10
95.6367
 20
1.1149
 30
0.0
 10
97.0973
 20
-2.9929
 30
0.0
 10
100.6733
 20
-1.6679
 30
0.0
 10
100.6733
 20
-1.6679
 30
0.0
 10
100.6733
 20
-1.6679
 30
0.0
 10
100.6733
 20
-10.1489
 30
0.0
 10
100.6733
 20
-10.1489
 30
0.0
 10
100.6733
 20
-10.1489
 30
0.0
 10
100.6733
 20
-10.1489
 30
0.0
 10
92.7287
 20
-18.8945
 30
0.0
 10
102.3958
 20
-31.3503
 30
0.0
  0
SPLINE
  5
4A
330
1F
100
AcDbEntity
  8
layer 1
 62
     7
100
AcDbSpline
210
0.0
220
0.0
230
1.0
 70
    11
 71
     3
 72
    16
 73
    12
 74
     0
 42
0.0000000001
 43
0.0000000001
 12
1.0
 22
0.0
 32
0.0
 13
1.0
 23
0.0
 33
0.0
 40
0.0
 40
0.0
 40
0.0
 40
0.0
 40
0.25
 40
0.25
 40
0.25
 40
0.25
 40
0.5
 40
0.5
 40
0.5
 40
0.5
 40
1.0
 40
1.0
 40
1.0
 40
1.0
 10
105.5723
 20
1.9101
 30
0.0
 10
105.5723
 20
1.2472
 30
0.0
 10
105.7033
 20
-2.7283
 30
0.0
 10
105.7033
 20
-2.7283
 30
0.0
 10
105.7033
 20
-2.7283
 30
0.0
 10
105.7033
 20
-2.7283
 30
0.0
 10
107.5567
 20
0.452
 30
0.0
 10
108.8797
 20
2.1753
 30
0.0
 10
108.8797
 20
2.1753
 30
0.0
 10
108.8797
 20
2.1753
 30
0.0
 10
105.5723
 20
2.5722
 30
0.0
 10
105.5723
 20
1.9101
 30
0.0
  0
SPLINE
  5
4B
330
1F
100
AcDbEntity
  8
layer 1
 62
     7
100
AcDbSpline
210
0.0
220
0.0
230
1.0
 70
    11
 71
     3
 72
    32
 73
    28
 74
     0
 42
0.0000000001
 43
0.0000000001
 12
1.0
 22
0.0
 32
0.0
 13
1.0
 23
0.0
 33
0.0
 40
0.0
 40
0.0
 40
0.0
 40
0.0
 40
0.125
 40
0.125
 40
0.125
 40
0.125
 40
0.25
 40
0.25
 40
0.25
 40
0.25
 40
0.375
 40
0.375
 40
0.375
 40
0.375
 40
0.5
 40
0.5
 40
0.5
 40
0.5
 40
0.625
 40
0.625
 40
0.625
 40
0.625
 40
0.75
 40
0.75
 40
0.75
 40
0.75
 40
1.0
 40
1.0
 40
1.0
 40
1.0
 10
182.1096
 20
101.5579
 30
0.0
 10
182.1096
 20
101.5579
 30
0.0
 10
185.0242
 20
105.5334
 30
0.0
 10
182.1096
 20
111.4968
 30
0.0
 10
182.1096
 20
111.4968
 30
0.0
 10
182.1096
 20
111.4968
 30
0.0
 10
179.3261
 20
116.9296
 30
0.0
 10
182.9021
 20
114.1467
 30
0.0
 10
182.9021
 20
114.1467
 30
0.0
 10
182.9021
 20
114.1467
 30
0.0
 10
184.8931
 20
114.9419
 30
0.0
 10
184.0942
 20
109.9066
 30
0.0
 10
184.0942
 20
109.9066
 30
0.0
 10
184.0942
 20
109.9066
 30
0.0
 10
183.1706
 20
105.5334
 30
0.0
 10
186.2163
 20
108.8462
 30
0.0
 10
186.2163
 20
108.8462
 30
0.0
 10
186.2163
 20
108.8462
 30
0.0
 10
188.0697
 20
111.3639
 30
0.0
 10
186.2163
 20
118.7851
 30
0.0
 10
186.2163
 20
118.7851
 30
0.0
 10
186.2163
 20
118.7851
 30
0.0
 10
189.2617
 20
116.1346
 30
0.0
 10
187.1396
 20
106.7261
 30
0.0
 10
187.1396
 20
106.7261
 30
0.0
 10
187.1396
 20
106.7261
 30
0.0
 10
185.0242
 20
102.2208
 30
0.0
 10
182.1096
 20
101.5579
 30
0.0
  0
SPLINE
  5
4C
330
1F
100
AcDbEntity
  8
layer 1
 62
     7
100
AcDbSpline
210
0.0
220
0.0
230
1.0
 70
    11
 71
     3
 72
    16
 73
    12
 74
     0
 42
0.0000000001
 43
0.0000000001
 12
1.0
 22
0.0
 32
0.0
 13
1.0
 23
0.0
 33
0.0
 40
0.0
 40
0.0
 40
0.0
 40
0.0
 40
0.25
 40
0.25
 40
0.25
 40
0.25
 40
0.5
 40
0.5
 40
0.5
 40
0.5
 40
1.0
 40
1.0
 40
1.0
 40
1.0
 10
178.5337
 20
110.5687
 30
0.0
 10
178.5337
 20
110.5687
 30
0.0
 10
175.6191
 20
118.2545
 30
0.0
 10
172.1806
 20
116.1346
 30
0.0
 10
172.1806
 20
116.1346
 30
0.0
 10
172.1806
 20
116.1346
 30
0.0
 10
165.69
 20
106.5938
 30
0.0
 10
173.3726
 20
107.6536
 30
0.0
 10
173.3726
 20
107.6536
 30
0.0
 10
173.3726
 20
107.6536
 30
0.0
 10
175.4881
 20
110.7018
 30
0.0
 10
178.5337
 20
110.5687
 30
0.0
  0
SPLINE
  5
4D
330
1F
100
AcDbEntity
  8
layer 1
 62
     7
100
AcDbSpline
210
0.0
220
0.0
230
1.0
 70
    11
 71
     3
 72
    24
 73
    20
 74
     0
 42
0.0000000001
 43
0.0000000001
 12
1.0
 22
0.0
 32
0.0
 13
1.0
 23
0.0
 33
0.0
 40
0.0
 40
0.0
 40
0.0
 40
0.0
 40
0.1666666666666667
 40
0.1666666666666667
 40
0.1666666666666667
 40
0.1666666666666667
 40
0.3333333333333333
 40
0.3333333333333333
 40
0.3333333333333333
 40
0.3333333333333333
 40
0.5
 40
0.5
 40
0.5
 40
0.5
 40
0.6666666666666666
 40
0.6666666666666666
 40
0.6666666666666666
 40
0.6666666666666666
 40
1.0
 40
1.0
 40
1.0
 40
1.0
 10
187.6702
 20
122.4954
 30
0.0
 10
187.6702
 20
122.4954
 30
0.0
 10
191.3772
 20
116.7966
 30
0.0
 10
191.2463
 20
115.6046
 30
0.0
 10
191.2463
 20
115.6046
 30
0.0
 10
191.2463
 20
115.6046
 30
0.0
 10
192.9687
 20
112.954
 30
0.0
 10
192.8378
 20
116.1346
 30
0.0
 10
192.8378
 20
116.1346
 30
0.0
 10
192.8378
 20
116.1346
 30
0.0
 10
192.8378
 20
121.7003
 30
0.0
 10
192.8378
 20
121.7003
 30
0.0
 10
192.8378
 20
121.7003
 30
0.0
 10
192.8378
 20
121.7003
 30
0.0
 10
189.9231
 20
120.5076
 30
0.0
 10
189.1307
 20
122.76
 30
0.0
 10
189.1307
 20
122.76
 30
0.0
 10
189.1307
 20
122.76
 30
0.0
 10
187.6702
 20
122.4954
 30
0.0
 10
187.6702
 20
122.4954
 30
0.0
  0
SPLINE
  5
4E
330
1F
100
AcDbEntity
  8
layer 1
 62
     7
100
AcDbSpline
210
0.0
220
0.0
230
1.0
 70
    11
 71
     3
 72
    16
 73
    12
 74
     0
 42
0.0000000001
 43
0.0000000001
 12
1.0
 22
0.0
 32
0.0
 13
1.0
 23
0.0
 33
0.0
 40
0.0
 40
0.0
 40
0.0
 40
0.0
 40
0.25
 40
0.25
 40
0.25
 40
0.25
 40
0.5
 40
0.5
 40
0.5
 40
0.5
 40
1.0
 40
1.0
 40
1.0
 40
1.0
 10
183.9632
 20
128.0421
 30
0.0
 10
183.9632
 20
128.0421
 30
0.0
 10
188.6001
 20
128.4581
 30
0.0
 10
188.6001
 20
128.4581
 30
0.0
 10
188.6001
 20
128.4581
 30
0.0
 10
188.6001
 20
128.4581
 30
0.0
 10
186.7467
 20
125.5245
 30
0.0
 10
186.4782
 20
124.1995
 30
0.0
 10
186.4782
 20
124.1995
 30
0.0
 10
186.4782
 20
124.1995
 30
0.0
 10
183.9632
 20
128.0421
 30
0.0
 10
183.9632
 20
128.0421
 30
0.0
  0
SPLINE
  5
4F
330
1F
100
AcDbEntity
  8
layer 1
 62
     7
100
AcDbSpline
210
0.0
220
0.0
230
1.0
 70
    11
 71
     3
 72
    20
 73
    16
 74
     0
 42
0.0000000001
 43
0.0000000001
 12
1.0
 22
0.0
 32
0.0
 13
1.0
 23
0.0
 33
0.0
 40
0.0
 40
0.0
 40
0.0
 40
0.0
 40
0.2
 40
0.2
 40
0.2
 40
0.2
 40
0.4
 40
0.4
 40
0.4
 40
0.4
 40
0.6
 40
0.6
 40
0.6
 40
0.6
 40
1.0
 40
1.0
 40
1.0
 40
1.0
 10
172.1806
 20
123.4229
 30
0.0
 10
172.1806
 20
123.4229
 30
0.0
 10
177.4727
 20
122.4954
 30
0.0
 10
180.9176
 20
125.5428
 30
0.0
 10
180.9176
 20
125.5428
 30
0.0
 10
180.9176
 20
125.5428
 30
0.0
 10
185.5547
 20
123.6874
 30
0.0
 10
180.7866
 20
124.0849
 30
0.0
 10
180.7866
 20
124.0849
 30
0.0
 10
180.7866
 20
124.0849
 30
0.0
 10
177.3415
 20
123.4229
 30
0.0
 10
175.75
 20
120.6399
 30
0.0
 10
175.75
 20
120.6399
 30
0.0
 10
175.75
 20
120.6399
 30
0.0
 10
172.1806
 20
123.4229
 30
0.0
 10
172.1806
 20
123.4229
 30
0.0
  0
SPLINE
  5
50
330
1F
100
AcDbEntity
  8
layer 1
 62
     7
100
AcDbSpline
210
0.0
220
0.0
230
1.0
 70
    11
 71
     3
 72
    16
 73
    12
 74
     0
 42
0.0000000001
 43
0.0000000001
 12
1.0
 22
0.0
 32
0.0
 13
1.0
 23
0.0
 33
0.0
 40
0.0
 40
0.0
 40
0.0
 40
0.0
 40
0.25
 40
0.25
 40
0.25
 40
0.25
 40
0.5
 40
0.5
 40
0.5
 40
0.5
 40
1.0
 40
1.0
 40
1.0
 40
1.0
 10
154.962
 20
128.5904
 30
0.0
 10
154.962
 20
128.5904
 30
0.0
 10
177.8721
 20
128.4581
 30
0.0
 10
177.8721
 20
128.4581
 30
0.0
 10
177.8721
 20
128.4581
 30
0.0
 10
177.8721
 20
128.4581
 30
0.0
 10
180.5181
 20
125.5428
 30
0.0
 10
158.276
 20
127.5307
 30
0.0
 10
158.276
 20
127.5307
 30
0.0
 10
158.276
 20
127.5307
 30
0.0
 10
154.4314
 20
127.9282
 30
0.0
 10
154.962
 20
128.5904
 30
0.0
  0
SPLINE
  5
51
330
1F
100
AcDbEntity
  8
layer 1
 62
     7
100
AcDbSpline
210
0.0
220
0.0
230
1.0
 70
    11
 71
     3
 72
    16
 73
    12
 74
     0
 42
0.0000000001
 43
0.0000000001
 12
1.0
 22
0.0
 32
0.0
 13
1.0
 23
0.0
 33
0.0
 40
0.0
 40
0.0
 40
0.0
 40
0.0
 40
0.25
 40
0.25
 40
0.25
 40
0.25
 40
0.5
 40
0.5
 40
0.5
 40
0.5
 40
1.0
 40
1.0
 40
1.0
 40
1.0
 10
112.1545
 20
128.3637
 30
0.0
 10
112.1545
 20
128.3637
 30
0.0
 10
120.7999
 20
128.2511
 30
0.0
 10
120.7999
 20
128.2511
 30
0.0
 10
120.7999
 20
128.2511
 30
0.0
 10
120.7999
 20
128.2511
 30
0.0
 10
116.5623
 20
124.4085
 30
0.0
 10
114.5779
 20
122.0232
 30
0.0
 10
114.5779
 20
122.0232
 30
0.0
 10
114.5779
 20
122.0232
 30
0.0
 10
114.5385
 20
126.1106
 30
0.0
 10
112.1545
 20
128.3637
 30
0.0
  0
SPLINE
  5
52
330
1F
100
AcDbEntity
  8
layer 1
 62
     7
100
AcDbSpline
210
0.0
220
0.0
230
1.0
 70
    11
 71
     3
 72
    20
 73
    16
 74
     0
 42
0.0000000001
 43
0.0000000001
 12
1.0
 22
0.0
 32
0.0
 13
1.0
 23
0.0
 33
0.0
 40
0.0
 40
0.0
 40
0.0
 40
0.0
 40
0.2
 40
0.2
 40
0.2
 40
0.2
 40
0.4
 40
0.4
 40
0.4
 40
0.4
 40
0.6
 40
0.6
 40
0.6
 40
0.6
 40
1.0
 40
1.0
 40
1.0
 40
1.0
 10
98.2893
 20
101.5579
 30
0.0
 10
98.2893
 20
101.5579
 30
0.0
 10
101.8653
 20
103.0158
 30
0.0
 10
101.5967
 20
97.4508
 30
0.0
 10
101.5967
 20
97.4508
 30
0.0
 10
101.5967
 20
97.4508
 30
0.0
 10
99.3503
 20
91.2222
 30
0.0
 10
99.4813
 20
96.9203
 30
0.0
 10
99.4813
 20
96.9203
 30
0.0
 10
99.4813
 20
96.9203
 30
0.0
 10
99.2128
 20
100.1007
 30
0.0
 10
98.1583
 20
100.1007
 30
0.0
 10
98.1583
 20
100.1007
 30
0.0
 10
98.1583
 20
100.1007
 30
0.0
 10
96.6978
 20
101.4256
 30
0.0
 10
98.2893
 20
101.5579
 30
0.0
  0
SPLINE
  5
53
330
1F
100
AcDbEntity
  8
layer 1
 62
     7
100
AcDbSpline
210
0.0
220
0.0
230
1.0
 70
    11
 71
     3
 72
    68
 73
    64
 74
     0
 42
0.0000000001
 43
0.0000000001
 12
1.0
 22
0.0
 32
0.0
 13
1.0
 23
0.0
 33
0.0
 40
0.0
 40
0.0
 40
0.0
 40
0.0
 40
0.0588235294117647
 40
0.0588235294117647
 40
0.0588235294117647
 40
0.0588235294117647
 40
0.1176470588235294
 40
0.1176470588235294
 40
0.1176470588235294
 40
0.1176470588235294
 40
0.1764705882352941
 40
0.1764705882352941
 40
0.1764705882352941
 40
0.1764705882352941
 40
0.2352941176470588
 40
0.2352941176470588
 40
0.2352941176470588
 40
0.2352941176470588
 40
0.2941176470588235
 40
0.2941176470588235
 40
0.2941176470588235
 40
0.2941176470588235
 40
0.3529411764705883
 40
0.3529411764705883
 40
0.3529411764705883
 40
0.3529411764705883
 40
0.4117647058823529
 40
0.4117647058823529
 40
0.4117647058823529
 40
0.4117647058823529
 40
0.4705882352941176
 40
0.4705882352941176
 40
0.4705882352941176
 40
0.4705882352941176
 40
0.5294117647058824
 40
0.5294117647058824
 40
0.5294117647058824
 40
0.5294117647058824
 40
0.5882352941176471
 40
0.5882352941176471
 40
0.5882352941176471
 40
0.5882352941176471
 40
0.6470588235294118
 40
0.6470588235294118
 40
0.6470588235294118
 40
0.6470588235294118
 40
0.7058823529411765
 40
0.7058823529411765
 40
0.7058823529411765
 40
0.7058823529411765
 40
0.7647058823529411
 40
0.7647058823529411
 40
0.7647058823529411
 40
0.7647058823529411
 40
0.8235294117647058
 40
0.8235294117647058
 40
0.8235294117647058
 40
0.8235294117647058
 40
0.8823529411764706
 40
0.8823529411764706
 40
0.8823529411764706
 40
0.8823529411764706
 40
1.0
 40
1.0
 40
1.0
 40
1.0
 10
114.1782
 20
112.5565
 30
0.0
 10
114.1782
 20
112.5565
 30
0.0
 10
117.2239
 20
123.4229
 30
0.0
 10
127.4214
 20
127.3984
 30
0.0
 10
127.4214
 20
127.3984
 30
0.0
 10
127.4214
 20
127.3984
 30
0.0
 10
123.4459
 20
118.1222
 30
0.0
 10
133.3815
 20
119.9771
 30
0.0
 10
133.3815
 20
119.9771
 30
0.0
 10
133.3815
 20
119.9771
 30
0.0
 10
141.0575
 20
127.3984
 30
0.0
 10
145.2949
 20
119.182
 30
0.0
 10
145.2949
 20
119.182
 30
0.0
 10
145.2949
 20
119.182
 30
0.0
 10
146.225
 20
113.8815
 30
0.0
 10
145.2949
 20
112.8218
 30
0.0
 10
145.2949
 20
112.8218
 30
0.0
 10
145.2949
 20
112.8218
 30
0.0
 10
145.5634
 20
117.99
 30
0.0
 10
139.4724
 20
115.7371
 30
0.0
 10
139.4724
 20
115.7371
 30
0.0
 10
139.4724
 20
115.7371
 30
0.0
 10
135.8965
 20
111.6291
 30
0.0
 10
141.0575
 20
109.1115
 30
0.0
 10
141.0575
 20
109.1115
 30
0.0
 10
141.0575
 20
109.1115
 30
0.0
 10
144.1029
 20
107.6536
 30
0.0
 10
146.7554
 20
109.9066
 30
0.0
 10
146.7554
 20
109.9066
 30
0.0
 10
146.7554
 20
109.9066
 30
0.0
 10
150.004
 20
105.1359
 30
0.0
 10
153.0496
 20
110.1712
 30
0.0
 10
153.0496
 20
110.1712
 30
0.0
 10
153.0496
 20
110.1712
 30
0.0
 10
153.1084
 20
111.6291
 30
0.0
 10
152.1849
 20
112.8218
 30
0.0
 10
152.1849
 20
112.8218
 30
0.0
 10
152.1849
 20
112.8218
 30
0.0
 10
154.7001
 20
113.8815
 30
0.0
 10
154.4314
 20
105.6659
 30
0.0
 10
154.4314
 20
105.6659
 30
0.0
 10
154.4314
 20
105.6659
 30
0.0
 10
154.3005
 20
96.9203
 30
0.0
 10
154.3005
 20
96.9203
 30
0.0
 10
154.3005
 20
96.9203
 30
0.0
 10
154.3005
 20
96.9203
 30
0.0
 10
152.0474
 20
98.3782
 30
0.0
 10
149.2705
 20
96.5227
 30
0.0
 10
149.2705
 20
96.5227
 30
0.0
 10
149.2705
 20
96.5227
 30
0.0
 10
151.255
 20
108.4487
 30
0.0
 10
143.1794
 20
104.4739
 30
0.0
 10
143.1794
 20
104.4739
 30
0.0
 10
143.1794
 20
104.4739
 30
0.0
 10
138.9419
 20
108.8462
 30
0.0
 10
136.4269
 20
104.4739
 30
0.0
 10
136.4269
 20
104.4739
 30
0.0
 10
136.4269
 20
104.4739
 30
0.0
 10
138.6734
 20
115.0748
 30
0.0
 10
125.5678
 20
117.3272
 30
0.0
 10
125.5678
 20
117.3272
 30
0.0
 10
125.5678
 20
117.3272
 30
0.0
 10
120.4003
 20
117.7247
 30
0.0
 10
114.1782
 20
112.5565
 30
0.0
  0
SPLINE
  5
54
330
1F
100
AcDbEntity
  8
layer 1
 62
     7
100
AcDbSpline
210
0.0
220
0.0
230
1.0
 70
    11
 71
     3
 72
   144
 73
   140
 74
     0
 42
0.0000000001
 43
0.0000000001
 12
1.0
 22
0.0
 32
0.0
 13
1.0
 23
0.0
 33
0.0
 40
0.0
 40
0.0
 40
0.0
 40
0.0
 40
0.0277777777777778
 40
0.0277777777777778
 40
0.0277777777777778
 40
0.0277777777777778
 40
0.0555555555555556
 40
0.0555555555555556
 40
0.0555555555555556
 40
0.0555555555555556
 40
0.0833333333333333
 40
0.0833333333333333
 40
0.0833333333333333
 40
0.0833333333333333
 40
0.1111111111111111
 40
0.1111111111111111
 40
0.1111111111111111
 40
0.1111111111111111
 40
0.1388888888888889
 40
0.1388888888888889
 40
0.1388888888888889
 40
0.1388888888888889
 40
0.1666666666666667
 40
0.1666666666666667
 40
0.1666666666666667
 40
0.1666666666666667
 40
0.1944444444444444
 40
0.1944444444444444
 40
0.1944444444444444
 40
0.1944444444444444
 40
0.2222222222222222
 40
0.2222222222222222
 40
0.2222222222222222
 40
0.2222222222222222
 40
0.25
 40
0.25
 40
0.25
 40
0.25
 40
0.2777777777777778
 40
0.2777777777777778
 40
0.2777777777777778
 40
0.2777777777777778
 40
0.3055555555555556
 40
0.3055555555555556
 40
0.3055555555555556
 40
0.3055555555555556
 40
0.3333333333333333
 40
0.3333333333333333
 40
0.3333333333333333
 40
0.3333333333333333
 40
0.3611111111111111
 40
0.3611111111111111
 40
0.3611111111111111
 40
0.3611111111111111
 40
0.3888888888888889
 40
0.3888888888888889
 40
0.3888888888888889
 40
0.3888888888888889
 40
0.4166666666666667
 40
0.4166666666666667
 40
0.4166666666666667
 40
0.4166666666666667
 40
0.4444444444444444
 40
0.4444444444444444
 40
0.4444444444444444
 40
0.4444444444444444
 40
0.4722222222222222
 40
0.4722222222222222
 40
0.4722222222222222
 40
0.4722222222222222
 40
0.5
 40
0.5
 40
0.5
 40
0.5
 40
0.5277777777777778
 40
0.5277777777777778
 40
0.5277777777777778
 40
0.5277777777777778
 40
0.5555555555555556
 40
0.5555555555555556
 40
0.5555555555555556
 40
0.5555555555555556
 40
0.5833333333333334
 40
0.5833333333333334
 40
0.5833333333333334
 40
0.5833333333333334
 40
0.6111111111111112
 40
0.6111111111111112
 40
0.6111111111111112
 40
0.6111111111111112
 40
0.6388888888888888
 40
0.6388888888888888
 40
0.6388888888888888
 40
0.6388888888888888
 40
0.6666666666666666
 40
0.6666666666666666
 40
0.6666666666666666
 40
0.6666666666666666
 40
0.6944444444444444
 40
0.6944444444444444
 40
0.6944444444444444
 40
0.6944444444444444
 40
0.7222222222222222
 40
0.7222222222222222
 40
0.7222222222222222
 40
0.7222222222222222
 40
0.75
 40
0.75
 40
0.75
 40
0.75
 40
0.7777777777777778
 40
0.7777777777777778
 40
0.7777777777777778
 40
0.7777777777777778
 40
0.8055555555555556
 40
0.8055555555555556
 40
0.8055555555555556
 40
0.8055555555555556
 40
0.8333333333333334
 40
0.8333333333333334
 40
0.8333333333333334
 40
0.8333333333333334
 40
0.8611111111111112
 40
0.8611111111111112
 40
0.8611111111111112
 40
0.8611111111111112
 40
0.8888888888888888
 40
0.8888888888888888
 40
0.8888888888888888
 40
0.8888888888888888
 40
0.9166666666666666
 40
0.9166666666666666
 40
0.9166666666666666
 40
0.9166666666666666
 40
0.9444444444444444
 40
0.9444444444444444
 40
0.9444444444444444
 40
0.9444444444444444
 40
1.0
 40
1.0
 40
1.0
 40
1.0
 10
113.1174
 20
50.5413
 30
0.0
 10
113.1174
 20
50.5413
 30
0.0
 10
106.8953
 20
52.6615
 30
0.0
 10
101.9963
 20
49.8784
 30
0.0
 10
101.9963
 20
49.8784
 30
0.0
 10
101.9963
 20
49.8784
 30
0.0
 10
97.0973
 20
48.0237
 30
0.0
 10
99.7432
 20
42.3257
 30
0.0
 10
99.7432
 20
42.3257
 30
0.0
 10
99.7432
 20
42.3257
 30
0.0
 10
100.9353
 20
40.6031
 30
0.0
 10
101.9963
 20
40.6031
 30
0.0
 10
101.9963
 20
40.6031
 30
0.0
 10
101.9963
 20
40.6031
 30
0.0
 10
97.3592
 20
44.578
 30
0.0
 10
101.5967
 20
47.4939
 30
0.0
 10
101.5967
 20
47.4939
 30
0.0
 10
101.5967
 20
47.4939
 30
0.0
 10
108.7488
 20
49.4816
 30
0.0
 10
107.5567
 20
42.4587
 30
0.0
 10
107.5567
 20
42.4587
 30
0.0
 10
107.5567
 20
42.4587
 30
0.0
 10
106.6334
 20
38.8806
 30
0.0
 10
104.6423
 20
38.0855
 30
0.0
 10
104.6423
 20
38.0855
 30
0.0
 10
104.6423
 20
38.0855
 30
0.0
 10
105.3037
 20
33.4477
 30
0.0
 10
105.0417
 20
30.7972
 30
0.0
 10
105.0417
 20
30.7972
 30
0.0
 10
105.0417
 20
30.7972
 30
0.0
 10
118.4159
 20
32.2552
 30
0.0
 10
114.4403
 20
23.9065
 30
0.0
 10
114.4403
 20
23.9065
 30
0.0
 10
114.4403
 20
23.9065
 30
0.0
 10
122.3914
 20
15.5585
 30
0.0
 10
109.0107
 20
13.3061
 30
0.0
 10
109.0107
 20
13.3061
 30
0.0
 10
109.0107
 20
13.3061
 30
0.0
 10
111.7944
 20
10.9202
 30
0.0
 10
111.6632
 20
9.7282
 30
0.0
 10
111.6632
 20
9.7282
 30
0.0
 10
111.6632
 20
9.7282
 30
0.0
 10
115.1083
 20
17.4134
 30
0.0
 10
123.8453
 20
18.0761
 30
0.0
 10
123.8453
 20
18.0761
 30
0.0
 10
123.8453
 20
18.0761
 30
0.0
 10
126.3604
 20
17.8109
 30
0.0
 10
130.5978
 20
20.4614
 30
0.0
 10
130.5978
 20
20.4614
 30
0.0
 10
130.5978
 20
20.4614
 30
0.0
 10
133.5125
 20
19.401
 30
0.0
 10
128.8754
 20
15.2932
 30
0.0
 10
128.8754
 20
15.2932
 30
0.0
 10
128.8754
 20
15.2932
 30
0.0
 10
136.0275
 20
15.8232
 30
0.0
 10
134.7045
 20
21.1237
 30
0.0
 10
134.7045
 20
21.1237
 30
0.0
 10
134.7045
 20
21.1237
 30
0.0
 10
133.054
 20
19.7207
 30
0.0
 10
132.2811
 20
21.0122
 30
0.0
 10
132.2811
 20
21.0122
 30
0.0
 10
130.6765
 20
23.6883
 30
0.0
 10
128.371
 20
24.5412
 30
0.0
 10
126.8582
 20
24.4658
 30
0.0
 10
126.8582
 20
24.4658
 30
0.0
 10
126.8582
 20
24.4658
 30
0.0
 10
125.9674
 20
29.5515
 30
0.0
 10
133.6631
 20
29.4801
 30
0.0
 10
133.6631
 20
29.4801
 30
0.0
 10
135.0058
 20
29.4676
 30
0.0
 10
135.8834
 20
28.8095
 30
0.0
 10
137.0885
 20
28.0143
 30
0.0
 10
137.0885
 20
28.0143
 30
0.0
 10
137.0885
 20
28.0143
 30
0.0
 10
144.5025
 20
21.1237
 30
0.0
 10
135.2349
 20
14.2335
 30
0.0
 10
135.2349
 20
14.2335
 30
0.0
 10
135.2349
 20
14.2335
 30
0.0
 10
128.5675
 20
11.6151
 30
0.0
 10
131.004
 20
12.3414
 30
0.0
 10
131.004
 20
12.3414
 30
0.0
 10
126.4063
 20
10.9725
 30
0.0
 10
116.9945
 20
10.7348
 30
0.0
 10
116.4313
 20
6.1502
 30
0.0
 10
116.4313
 20
6.1502
 30
0.0
 10
116.4313
 20
6.1502
 30
0.0
 10
122.1229
 20
10.258
 30
0.0
 10
131.7898
 20
11.7159
 30
0.0
 10
131.7898
 20
11.7159
 30
0.0
 10
131.7898
 20
11.7159
 30
0.0
 10
138.2805
 20
12.1129
 30
0.0
 10
143.71
 20
23.3766
 30
0.0
 10
143.71
 20
23.3766
 30
0.0
 10
143.71
 20
23.3766
 30
0.0
 10
150.063
 20
39.0129
 30
0.0
 10
141.5879
 20
40.2056
 30
0.0
 10
141.5879
 20
40.2056
 30
0.0
 10
141.5879
 20
40.2056
 30
0.0
 10
138.1494
 20
38.8806
 30
0.0
 10
140.9265
 20
37.158
 30
0.0
 10
140.9265
 20
37.158
 30
0.0
 10
140.9265
 20
37.158
 30
0.0
 10
144.5025
 20
31.7246
 30
0.0
 10
136.2894
 20
36.7605
 30
0.0
 10
136.2894
 20
36.7605
 30
0.0
 10
136.2894
 20
36.7605
 30
0.0
 10
131.5279
 20
46.9633
 30
0.0
 10
145.6944
 20
44.0482
 30
0.0
 10
145.6944
 20
44.0482
 30
0.0
 10
145.6944
 20
44.0482
 30
0.0
 10
152.8465
 20
42.1933
 30
0.0
 10
149.8011
 20
26.5571
 30
0.0
 10
149.8011
 20
26.5571
 30
0.0
 10
149.8011
 20
26.5571
 30
0.0
 10
158.8066
 20
41.2653
 30
0.0
 10
141.4569
 20
52.9267
 30
0.0
 10
141.4569
 20
52.9267
 30
0.0
 10
141.4569
 20
52.9267
 30
0.0
 10
132.7199
 20
58.4917
 30
0.0
 10
126.2294
 20
56.637
 30
0.0
 10
126.2294
 20
56.637
 30
0.0
 10
126.2294
 20
56.637
 30
0.0
 10
123.5834
 20
56.5047
 30
0.0
 10
127.5524
 20
54.7821
 30
0.0
 10
127.5524
 20
54.7821
 30
0.0
 10
127.5524
 20
54.7821
 30
0.0
 10
133.1128
 20
47.2285
 30
0.0
 10
126.6289
 20
41.7958
 30
0.0
 10
126.6289
 20
41.7958
 30
0.0
 10
126.6289
 20
41.7958
 30
0.0
 10
123.9763
 20
37.688
 30
0.0
 10
127.8209
 20
33.5802
 30
0.0
 10
127.8209
 20
33.5802
 30
0.0
 10
127.8209
 20
33.5802
 30
0.0
 10
119.6079
 20
29.6045
 30
0.0
 10
114.3094
 20
42.1933
 30
0.0
 10
114.3094
 20
42.1933
 30
0.0
 10
114.3094
 20
42.1933
 30
0.0
 10
112.8553
 20
49.2164
 30
0.0
 10
113.1174
 20
50.5413
 30
0.0
  0
SPLINE
  5
55
330
1F
100
AcDbEntity
  8
layer 1
 62
     7
100
AcDbSpline
210
0.0
220
0.0
230
1.0
 70
    11
 71
     3
 72
    80
 73
    76
 74
     0
 42
0.0000000001
 43
0.0000000001
 12
1.0
 22
0.0
 32
0.0
 13
1.0
 23
0.0
 33
0.0
 40
0.0
 40
0.0
 40
0.0
 40
0.0
 40
0.05
 40
0.05
 40
0.05
 40
0.05
 40
0.1
 40
0.1
 40
0.1
 40
0.1
 40
0.15
 40
0.15
 40
0.15
 40
0.15
 40
0.2
 40
0.2
 40
0.2
 40
0.2
 40
0.25
 40
0.25
 40
0.25
 40
0.25
 40
0.3
 40
0.3
 40
0.3
 40
0.3
 40
0.35
 40
0.35
 40
0.35
 40
0.35
 40
0.4
 40
0.4
 40
0.4
 40
0.4
 40
0.45
 40
0.45
 40
0.45
 40
0.45
 40
0.5
 40
0.5
 40
0.5
 40
0.5
 40
0.55
 40
0.55
 40
0.55
 40
0.55
 40
0.6
 40
0.6
 40
0.6
 40
0.6
 40
0.65
 40
0.65
 40
0.65
 40
0.65
 40
0.7
 40
0.7
 40
0.7
 40
0.7
 40
0.75
 40
0.75
 40
0.75
 40
0.75
 40
0.8
 40
0.8
 40
0.8
 40
0.8
 40
0.85
 40
0.85
 40
0.85
 40
0.85
 40
0.9
 40
0.9
 40
0.9
 40
0.9
 40
1.0
 40
1.0
 40
1.0
 40
1.0
 10
180.8719
 20
87.1504
 30
0.0
 10
180.8719
 20
87.1504
 30
0.0
 10
171.1131
 20
84.8967
 30
0.0
 10
170.9297
 20
92.0338
 30
0.0
 10
170.9297
 20
92.0338
 30
0.0
 10
170.9297
 20
92.0338
 30
0.0
 10
171.2113
 20
95.4146
 30
0.0
 10
173.8376
 20
95.5082
 30
0.0
 10
173.8376
 20
95.5082
 30
0.0
 10
173.8376
 20
95.5082
 30
0.0
 10
174.1192
 20
97.4803
 30
0.0
 10
174.1192
 20
97.4803
 30
0.0
 10
174.1192
 20
97.4803
 30
0.0
 10
174.1192
 20
97.4803
 30
0.0
 10
168.395
 20
101.2365
 30
0.0
 10
166.3319
 20
109.8765
 30
0.0
 10
166.3319
 20
109.8765
 30
0.0
 10
166.3319
 20
109.8765
 30
0.0
 10
165.5787
 20
114.8534
 30
0.0
 10
169.8949
 20
118.2344
 30
0.0
 10
169.8949
 20
118.2344
 30
0.0
 10
169.8949
 20
118.2344
 30
0.0
 10
165.3953
 20
120.3001
 30
0.0
 10
160.0443
 20
116.8255
 30
0.0
 10
160.0443
 20
116.8255
 30
0.0
 10
160.0443
 20
116.8255
 30
0.0
 10
151.0388
 20
115.0414
 30
0.0
 10
151.602
 20
120.3943
 30
0.0
 10
151.602
 20
120.3943
 30
0.0
 10
151.602
 20
120.3943
 30
0.0
 10
152.9186
 20
124.0567
 30
0.0
 10
155.4531
 20
124.5264
 30
0.0
 10
155.4531
 20
124.5264
 30
0.0
 10
155.4531
 20
124.5264
 30
0.0
 10
147.011
 20
125.1834
 30
0.0
 10
144.8496
 20
127.0617
 30
0.0
 10
144.8496
 20
127.0617
 30
0.0
 10
144.8496
 20
127.0617
 30
0.0
 10
150.2922
 20
121.8968
 30
0.0
 10
149.8206
 20
116.6381
 30
0.0
 10
149.8206
 20
116.6381
 30
0.0
 10
149.8206
 20
116.6381
 30
0.0
 10
154.6083
 20
118.1406
 30
0.0
 10
157.3264
 20
113.163
 30
0.0
 10
157.3264
 20
113.163
 30
0.0
 10
157.3264
 20
113.163
 30
0.0
 10
166.3319
 20
116.7319
 30
0.0
 10
162.114
 20
106.1198
 30
0.0
 10
162.114
 20
106.1198
 30
0.0
 10
162.114
 20
106.1198
 30
0.0
 10
156.7632
 20
95.6962
 30
0.0
 10
162.6708
 20
89.968
 30
0.0
 10
162.6708
 20
89.968
 30
0.0
 10
162.6708
 20
89.968
 30
0.0
 10
159.3895
 20
97.4652
 30
0.0
 10
162.8803
 20
102.1684
 30
0.0
 10
162.8803
 20
102.1684
 30
0.0
 10
164.8714
 20
104.8471
 30
0.0
 10
166.5611
 20
106.0031
 30
0.0
 10
168.9845
 20
101.4696
 30
0.0
 10
168.9845
 20
101.4696
 30
0.0
 10
169.587
 20
100.3346
 30
0.0
 10
169.6133
 20
99.02
 30
0.0
 10
168.0478
 20
97.7737
 30
0.0
 10
168.0478
 20
97.7737
 30
0.0
 10
168.395
 20
98.0507
 30
0.0
 10
167.3209
 20
96.6582
 30
0.0
 10
166.9542
 20
94.8133
 30
0.0
 10
166.9542
 20
94.8133
 30
0.0
 10
166.5285
 20
92.6827
 30
0.0
 10
166.7314
 20
89.2286
 30
0.0
 10
171.0213
 20
86.3054
 30
0.0
 10
171.0213
 20
86.3054
 30
0.0
 10
171.0213
 20
86.3054
 30
0.0
 10
177.3089
 20
83.4878
 30
0.0
 10
180.8719
 20
87.1504
 30
0.0
  0
SPLINE
  5
56
330
1F
100
AcDbEntity
  8
layer 1
 62
     7
100
AcDbSpline
210
0.0
220
0.0
230
1.0
 70
    11
 71
     3
 72
    16
 73
    12
 74
     0
 42
0.0000000001
 43
0.0000000001
 12
1.0
 22
0.0
 32
0.0
 13
1.0
 23
0.0
 33
0.0
 40
0.0
 40
0.0
 40
0.0
 40
0.0
 40
0.25
 40
0.25
 40
0.25
 40
0.25
 40
0.5
 40
0.5
 40
0.5
 40
0.5
 40
1.0
 40
1.0
 40
1.0
 40
1.0
 10
178.6188
 20
97.2929
 30
0.0
 10
178.6188
 20
97.2929
 30
0.0
 10
184.0614
 20
95.4146
 30
0.0
 10
188.4692
 20
101.894
 30
0.0
 10
188.4692
 20
101.894
 30
0.0
 10
188.4692
 20
101.894
 30
0.0
 10
187.7225
 20
89.2162
 30
0.0
 10
179.7452
 20
94.1937
 30
0.0
 10
179.7452
 20
94.1937
 30
0.0
 10
179.7452
 20
94.1937
 30
0.0
 10
177.8721
 20
95.8842
 30
0.0
 10
178.6188
 20
97.2929
 30
0.0
  0
SPLINE
  5
57
330
1F
100
AcDbEntity
  8
layer 1
 62
     7
100
AcDbSpline
210
0.0
220
0.0
230
1.0
 70
    11
 71
     3
 72
    20
 73
    16
 74
     0
 42
0.0000000001
 43
0.0000000001
 12
1.0
 22
0.0
 32
0.0
 13
1.0
 23
0.0
 33
0.0
 40
0.0
 40
0.0
 40
0.0
 40
0.0
 40
0.2
 40
0.2
 40
0.2
 40
0.2
 40
0.4
 40
0.4
 40
0.4
 40
0.4
 40
0.6
 40
0.6
 40
0.6
 40
0.6
 40
1.0
 40
1.0
 40
1.0
 40
1.0
 10
191.9405
 20
110.9093
 30
0.0
 10
191.9405
 20
110.9093
 30
0.0
 10
193.6301
 20
93.7241
 30
0.0
 10
186.9693
 20
86.7751
 30
0.0
 10
186.9693
 20
86.7751
 30
0.0
 10
186.9693
 20
86.7751
 30
0.0
 10
187.7225
 20
73.534
 30
0.0
 10
192.6937
 20
76.5388
 30
0.0
 10
192.6937
 20
76.5388
 30
0.0
 10
192.6937
 20
76.5388
 30
0.0
 10
193.1587
 20
110.5341
 30
0.0
 10
193.1587
 20
110.5341
 30
0.0
 10
193.1587
 20
110.5341
 30
0.0
 10
193.1587
 20
110.5341
 30
0.0
 10
191.9405
 20
110.9093
 30
0.0
 10
191.9405
 20
110.9093
 30
0.0
  0
SPLINE
  5
58
330
1F
100
AcDbEntity
  8
layer 1
 62
     7
100
AcDbSpline
210
0.0
220
0.0
230
1.0
 70
    11
 71
     3
 72
    36
 73
    32
 74
     0
 42
0.0000000001
 43
0.0000000001
 12
1.0
 22
0.0
 32
0.0
 13
1.0
 23
0.0
 33
0.0
 40
0.0
 40
0.0
 40
0.0
 40
0.0
 40
0.1111111111111111
 40
0.1111111111111111
 40
0.1111111111111111
 40
0.1111111111111111
 40
0.2222222222222222
 40
0.2222222222222222
 40
0.2222222222222222
 40
0.2222222222222222
 40
0.3333333333333333
 40
0.3333333333333333
 40
0.3333333333333333
 40
0.3333333333333333
 40
0.4444444444444444
 40
0.4444444444444444
 40
0.4444444444444444
 40
0.4444444444444444
 40
0.5555555555555556
 40
0.5555555555555556
 40
0.5555555555555556
 40
0.5555555555555556
 40
0.6666666666666666
 40
0.6666666666666666
 40
0.6666666666666666
 40
0.6666666666666666
 40
0.7777777777777778
 40
0.7777777777777778
 40
0.7777777777777778
 40
0.7777777777777778
 40
1.0
 40
1.0
 40
1.0
 40
1.0
 10
183.4982
 20
83.7695
 30
0.0
 10
183.4982
 20
83.7695
 30
0.0
 10
179.2802
 20
82.0791
 30
0.0
 10
179.7452
 20
73.158
 30
0.0
 10
179.7452
 20
73.158
 30
0.0
 10
179.7452
 20
73.158
 30
0.0
 10
188.0959
 20
76.0694
 30
0.0
 10
184.6246
 20
65.4578
 30
0.0
 10
184.6246
 20
65.4578
 30
0.0
 10
184.6246
 20
65.4578
 30
0.0
 10
181.6249
 20
60.9498
 30
0.0
 10
185.5612
 20
58.7897
 30
0.0
 10
185.5612
 20
58.7897
 30
0.0
 10
185.5612
 20
58.7897
 30
0.0
 10
189.969
 20
55.0337
 30
0.0
 10
192.9753
 20
57.6633
 30
0.0
 10
192.9753
 20
57.6633
 30
0.0
 10
192.9753
 20
57.6633
 30
0.0
 10
192.6937
 20
60.1048
 30
0.0
 10
192.6937
 20
60.1048
 30
0.0
 10
192.6937
 20
60.1048
 30
0.0
 10
192.6937
 20
60.1048
 30
0.0
 10
185.3778
 20
63.2041
 30
0.0
 10
192.7853
 20
67.3355
 30
0.0
 10
192.7853
 20
67.3355
 30
0.0
 10
192.7853
 20
67.3355
 30
0.0
 10
192.8769
 20
72.1252
 30
0.0
 10
192.8769
 20
72.1252
 30
0.0
 10
192.8769
 20
72.1252
 30
0.0
 10
192.8769
 20
72.1252
 30
0.0
 10
183.5898
 20
69.8714
 30
0.0
 10
183.4982
 20
83.7695
 30
0.0
  0
SPLINE
  5
59
330
1F
100
AcDbEntity
  8
layer 1
 62
     7
100
AcDbSpline
210
0.0
220
0.0
230
1.0
 70
    11
 71
     3
 72
    44
 73
    40
 74
     0
 42
0.0000000001
 43
0.0000000001
 12
1.0
 22
0.0
 32
0.0
 13
1.0
 23
0.0
 33
0.0
 40
0.0
 40
0.0
 40
0.0
 40
0.0
 40
0.0909090909090909
 40
0.0909090909090909
 40
0.0909090909090909
 40
0.0909090909090909
 40
0.1818181818181818
 40
0.1818181818181818
 40
0.1818181818181818
 40
0.1818181818181818
 40
0.2727272727272727
 40
0.2727272727272727
 40
0.2727272727272727
 40
0.2727272727272727
 40
0.3636363636363636
 40
0.3636363636363636
 40
0.3636363636363636
 40
0.3636363636363636
 40
0.4545454545454545
 40
0.4545454545454545
 40
0.4545454545454545
 40
0.4545454545454545
 40
0.5454545454545454
 40
0.5454545454545454
 40
0.5454545454545454
 40
0.5454545454545454
 40
0.6363636363636364
 40
0.6363636363636364
 40
0.6363636363636364
 40
0.6363636363636364
 40
0.7272727272727273
 40
0.7272727272727273
 40
0.7272727272727273
 40
0.7272727272727273
 40
0.8181818181818182
 40
0.8181818181818182
 40
0.8181818181818182
 40
0.8181818181818182
 40
1.0
 40
1.0
 40
1.0
 40
1.0
 10
175.2458
 20
74.2853
 30
0.0
 10
175.2458
 20
74.2853
 30
0.0
 10
166.3319
 20
66.6786
 30
0.0
 10
168.395
 20
50.9016
 30
0.0
 10
168.395
 20
50.9016
 30
0.0
 10
168.395
 20
50.9016
 30
0.0
 10
170.8379
 20
58.3208
 30
0.0
 10
177.2106
 20
54.5641
 30
0.0
 10
177.2106
 20
54.5641
 30
0.0
 10
177.2106
 20
54.5641
 30
0.0
 10
180.4984
 20
52.2167
 30
0.0
 10
178.6188
 20
45.9246
 30
0.0
 10
178.6188
 20
45.9246
 30
0.0
 10
178.6188
 20
45.9246
 30
0.0
 10
176.3723
 20
38.5053
 30
0.0
 10
185.1878
 20
37.0972
 30
0.0
 10
185.1878
 20
37.0972
 30
0.0
 10
185.6529
 20
37.0972
 30
0.0
 10
189.8774
 20
36.5333
 30
0.0
 10
192.6937
 20
42.638
 30
0.0
 10
192.6937
 20
42.638
 30
0.0
 10
192.6937
 20
42.638
 30
0.0
 10
183.7798
 20
38.5997
 30
0.0
 10
186.8777
 20
46.5822
 30
0.0
 10
186.8777
 20
46.5822
 30
0.0
 10
186.8777
 20
46.5822
 30
0.0
 10
190.2506
 20
50.9959
 30
0.0
 10
192.6937
 20
47.8967
 30
0.0
 10
192.6937
 20
47.8967
 30
0.0
 10
192.6937
 20
47.8967
 30
0.0
 10
192.8769
 20
53.7184
 30
0.0
 10
192.8769
 20
53.7184
 30
0.0
 10
192.8769
 20
53.7184
 30
0.0
 10
192.8769
 20
53.7184
 30
0.0
 10
178.6188
 20
48.9295
 30
0.0
 10
175.2458
 20
63.673
 30
0.0
 10
175.2458
 20
63.673
 30
0.0
 10
175.2458
 20
63.673
 30
0.0
 10
174.6824
 20
73.2518
 30
0.0
 10
175.2458
 20
74.2853
 30
0.0
  0
SPLINE
  5
5A
330
1F
100
AcDbEntity
  8
layer 1
 62
     7
100
AcDbSpline
210
0.0
220
0.0
230
1.0
 70
    11
 71
     3
 72
    52
 73
    48
 74
     0
 42
0.0000000001
 43
0.0000000001
 12
1.0
 22
0.0
 32
0.0
 13
1.0
 23
0.0
 33
0.0
 40
0.0
 40
0.0
 40
0.0
 40
0.0
 40
0.0769230769230769
 40
0.0769230769230769
 40
0.0769230769230769
 40
0.0769230769230769
 40
0.1538461538461539
 40
0.1538461538461539
 40
0.1538461538461539
 40
0.1538461538461539
 40
0.2307692307692308
 40
0.2307692307692308
 40
0.2307692307692308
 40
0.2307692307692308
 40
0.3076923076923077
 40
0.3076923076923077
 40
0.3076923076923077
 40
0.3076923076923077
 40
0.3846153846153846
 40
0.3846153846153846
 40
0.3846153846153846
 40
0.3846153846153846
 40
0.4615384615384616
 40
0.4615384615384616
 40
0.4615384615384616
 40
0.4615384615384616
 40
0.5384615384615384
 40
0.5384615384615384
 40
0.5384615384615384
 40
0.5384615384615384
 40
0.6153846153846154
 40
0.6153846153846154
 40
0.6153846153846154
 40
0.6153846153846154
 40
0.6923076923076923
 40
0.6923076923076923
 40
0.6923076923076923
 40
0.6923076923076923
 40
0.7692307692307693
 40
0.7692307692307693
 40
0.7692307692307693
 40
0.7692307692307693
 40
0.8461538461538461
 40
0.8461538461538461
 40
0.8461538461538461
 40
0.8461538461538461
 40
1.0
 40
1.0
 40
1.0
 40
1.0
 10
157.0448
 20
90.8129
 30
0.0
 10
157.0448
 20
90.8129
 30
0.0
 10
163.6138
 20
78.8862
 30
0.0
 10
177.6822
 20
81.9854
 30
0.0
 10
177.6822
 20
81.9854
 30
0.0
 10
177.6822
 20
81.9854
 30
0.0
 10
171.3029
 20
75.2237
 30
0.0
 10
171.3029
 20
75.2237
 30
0.0
 10
171.3029
 20
75.2237
 30
0.0
 10
171.3029
 20
75.2237
 30
0.0
 10
164.0789
 20
74.1909
 30
0.0
 10
167.93
 20
76.4446
 30
0.0
 10
167.93
 20
76.4446
 30
0.0
 10
167.93
 20
76.4446
 30
0.0
 10
171.6763
 20
83.5823
 30
0.0
 10
161.6425
 20
81.7975
 30
0.0
 10
161.6425
 20
81.7975
 30
0.0
 10
161.6425
 20
81.7975
 30
0.0
 10
156.5732
 20
78.5109
 30
0.0
 10
162.0158
 20
73.346
 30
0.0
 10
162.0158
 20
73.346
 30
0.0
 10
162.0158
 20
73.346
 30
0.0
 10
165.3953
 20
71.0923
 30
0.0
 10
167.4584
 20
71.5619
 30
0.0
 10
167.4584
 20
71.5619
 30
0.0
 10
167.4584
 20
71.5619
 30
0.0
 10
166.142
 20
67.6172
 30
0.0
 10
165.4871
 20
66.021
 30
0.0
 10
165.4871
 20
66.021
 30
0.0
 10
165.4871
 20
66.021
 30
0.0
 10
165.7687
 20
74.1909
 30
0.0
 10
154.3267
 20
75.4117
 30
0.0
 10
154.3267
 20
75.4117
 30
0.0
 10
154.3267
 20
75.4117
 30
0.0
 10
152.5452
 20
74.2853
 30
0.0
 10
152.5452
 20
74.2853
 30
0.0
 10
152.5452
 20
74.2853
 30
0.0
 10
152.5452
 20
74.2853
 30
0.0
 10
152.9186
 20
80.0134
 30
0.0
 10
151.1372
 20
81.3285
 30
0.0
 10
151.1372
 20
81.3285
 30
0.0
 10
151.1372
 20
81.3285
 30
0.0
 10
161.5508
 20
80.9527
 30
0.0
 10
157.0448
 20
89.3104
 30
0.0
 10
157.0448
 20
89.3104
 30
0.0
 10
157.0448
 20
89.3104
 30
0.0
 10
156.5732
 20
90.7193
 30
0.0
 10
157.0448
 20
90.8129
 30
0.0
  0
SPLINE
  5
5B
330
1F
100
AcDbEntity
  8
layer 1
 62
     7
100
AcDbSpline
210
0.0
220
0.0
230
1.0
 70
    11
 71
     3
 72
    20
 73
    16
 74
     0
 42
0.0000000001
 43
0.0000000001
 12
1.0
 22
0.0
 32
0.0
 13
1.0
 23
0.0
 33
0.0
 40
0.0
 40
0.0
 40
0.0
 40
0.0
 40
0.2
 40
0.2
 40
0.2
 40
0.2
 40
0.4
 40
0.4
 40
0.4
 40
0.4
 40
0.6
 40
0.6
 40
0.6
 40
0.6
 40
1.0
 40
1.0
 40
1.0
 40
1.0
 10
139.597
 20
70.4347
 30
0.0
 10
139.597
 20
70.4347
 30
0.0
 10
139.597
 20
63.5794
 30
0.0
 10
143.7231
 20
61.7011
 30
0.0
 10
143.7231
 20
61.7011
 30
0.0
 10
143.7231
 20
61.7011
 30
0.0
 10
144.0047
 20
68.2747
 30
0.0
 10
147.2926
 20
70.4347
 30
0.0
 10
147.2926
 20
70.4347
 30
0.0
 10
147.2926
 20
70.4347
 30
0.0
 10
148.4125
 20
73.6276
 30
0.0
 10
145.976
 20
70.4347
 30
0.0
 10
145.976
 20
70.4347
 30
0.0
 10
145.976
 20
70.4347
 30
0.0
 10
144.9479
 20
65.9274
 30
0.0
 10
139.597
 20
70.4347
 30
0.0
  0
SPLINE
  5
5C
330
1F
100
AcDbEntity
  8
layer 1
 62
     7
100
AcDbSpline
210
0.0
220
0.0
230
1.0
 70
    11
 71
     3
 72
    20
 73
    16
 74
     0
 42
0.0000000001
 43
0.0000000001
 12
1.0
 22
0.0
 32
0.0
 13
1.0
 23
0.0
 33
0.0
 40
0.0
 40
0.0
 40
0.0
 40
0.0
 40
0.2
 40
0.2
 40
0.2
 40
0.2
 40
0.4
 40
0.4
 40
0.4
 40
0.4
 40
0.6
 40
0.6
 40
0.6
 40
0.6
 40
1.0
 40
1.0
 40
1.0
 40
1.0
 10
140.2059
 20
88.4649
 30
0.0
 10
140.7496
 20
88.4649
 30
0.0
 10
141.195
 20
88.0025
 30
0.0
 10
141.195
 20
87.4321
 30
0.0
 10
141.195
 20
87.4321
 30
0.0
 10
141.195
 20
86.8616
 30
0.0
 10
140.7496
 20
86.3992
 30
0.0
 10
140.2059
 20
86.3992
 30
0.0
 10
140.2059
 20
86.3992
 30
0.0
 10
139.6624
 20
86.3992
 30
0.0
 10
139.2235
 20
86.8616
 30
0.0
 10
139.2235
 20
87.4321
 30
0.0
 10
139.2235
 20
87.4321
 30
0.0
 10
139.2235
 20
88.0025
 30
0.0
 10
139.6624
 20
88.4649
 30
0.0
 10
140.2059
 20
88.4649
 30
0.0
  0
SPLINE
  5
5D
330
1F
100
AcDbEntity
  8
layer 1
 62
     7
100
AcDbSpline
210
0.0
220
0.0
230
1.0
 70
    11
 71
     3
 72
    32
 73
    28
 74
     0
 42
0.0000000001
 43
0.0000000001
 12
1.0
 22
0.0
 32
0.0
 13
1.0
 23
0.0
 33
0.0
 40
0.0
 40
0.0
 40
0.0
 40
0.0
 40
0.125
 40
0.125
 40
0.125
 40
0.125
 40
0.25
 40
0.25
 40
0.25
 40
0.25
 40
0.375
 40
0.375
 40
0.375
 40
0.375
 40
0.5
 40
0.5
 40
0.5
 40
0.5
 40
0.625
 40
0.625
 40
0.625
 40
0.625
 40
0.75
 40
0.75
 40
0.75
 40
0.75
 40
1.0
 40
1.0
 40
1.0
 40
1.0
 10
145.7862
 20
90.9071
 30
0.0
 10
145.7862
 20
90.9071
 30
0.0
 10
152.1654
 20
96.3517
 30
0.0
 10
154.3267
 20
92.4077
 30
0.0
 10
154.3267
 20
92.4077
 30
0.0
 10
154.3267
 20
92.4077
 30
0.0
 10
150.7572
 20
88.4649
 30
0.0
 10
154.9817
 20
86.4928
 30
0.0
 10
154.9817
 20
86.4928
 30
0.0
 10
154.9817
 20
86.4928
 30
0.0
 10
154.1367
 20
82.643
 30
0.0
 10
148.2225
 20
84.8967
 30
0.0
 10
148.2225
 20
84.8967
 30
0.0
 10
148.2225
 20
84.8967
 30
0.0
 10
145.8844
 20
86.1176
 30
0.0
 10
145.8844
 20
86.1176
 30
0.0
 10
145.8844
 20
86.1176
 30
0.0
 10
145.8844
 20
86.1176
 30
0.0
 10
147.7575
 20
85.927
 30
0.0
 10
149.4473
 20
87.0534
 30
0.0
 10
149.4473
 20
87.0534
 30
0.0
 10
149.4473
 20
87.0534
 30
0.0
 10
152.9186
 20
90.0616
 30
0.0
 10
147.011
 20
90.7193
 30
0.0
 10
147.011
 20
90.7193
 30
0.0
 10
147.011
 20
90.7193
 30
0.0
 10
145.7862
 20
90.9071
 30
0.0
 10
145.7862
 20
90.9071
 30
0.0
  0
SPLINE
  5
5E
330
1F
100
AcDbEntity
  8
layer 1
 62
     7
100
AcDbSpline
210
0.0
220
0.0
230
1.0
 70
    11
 71
     3
 72
    28
 73
    24
 74
     0
 42
0.0000000001
 43
0.0000000001
 12
1.0
 22
0.0
 32
0.0
 13
1.0
 23
0.0
 33
0.0
 40
0.0
 40
0.0
 40
0.0
 40
0.0
 40
0.1428571428571428
 40
0.1428571428571428
 40
0.1428571428571428
 40
0.1428571428571428
 40
0.2857142857142857
 40
0.2857142857142857
 40
0.2857142857142857
 40
0.2857142857142857
 40
0.4285714285714285
 40
0.4285714285714285
 40
0.4285714285714285
 40
0.4285714285714285
 40
0.5714285714285714
 40
0.5714285714285714
 40
0.5714285714285714
 40
0.5714285714285714
 40
0.7142857142857143
 40
0.7142857142857143
 40
0.7142857142857143
 40
0.7142857142857143
 40
1.0
 40
1.0
 40
1.0
 40
1.0
 10
137.6255
 20
96.2594
 30
0.0
 10
137.6255
 20
96.2594
 30
0.0
 10
137.6255
 20
107.3405
 30
0.0
 10
141.4766
 20
101.5187
 30
0.0
 10
141.4766
 20
101.5187
 30
0.0
 10
141.4766
 20
101.5187
 30
0.0
 10
142.5965
 20
99.2644
 30
0.0
 10
145.4128
 20
102.082
 30
0.0
 10
145.4128
 20
102.082
 30
0.0
 10
145.4128
 20
102.082
 30
0.0
 10
148.6941
 20
103.0211
 30
0.0
 10
145.4128
 20
95.7898
 30
0.0
 10
145.4128
 20
95.7898
 30
0.0
 10
145.4128
 20
95.7898
 30
0.0
 10
141.7582
 20
89.78
 30
0.0
 10
143.2581
 20
95.133
 30
0.0
 10
143.2581
 20
95.133
 30
0.0
 10
143.2581
 20
95.133
 30
0.0
 10
141.8499
 20
101.6123
 30
0.0
 10
139.1319
 20
95.7898
 30
0.0
 10
139.1319
 20
95.7898
 30
0.0
 10
139.1319
 20
95.7898
 30
0.0
 10
139.2235
 20
89.404
 30
0.0
 10
137.6255
 20
96.2594
 30
0.0
  0
SPLINE
  5
5F
330
1F
100
AcDbEntity
  8
layer 1
 62
     7
100
AcDbSpline
210
0.0
220
0.0
230
1.0
 70
    11
 71
     3
 72
    32
 73
    28
 74
     0
 42
0.0000000001
 43
0.0000000001
 12
1.0
 22
0.0
 32
0.0
 13
1.0
 23
0.0
 33
0.0
 40
0.0
 40
0.0
 40
0.0
 40
0.0
 40
0.125
 40
0.125
 40
0.125
 40
0.125
 40
0.25
 40
0.25
 40
0.25
 40
0.25
 40
0.375
 40
0.375
 40
0.375
 40
0.375
 40
0.5
 40
0.5
 40
0.5
 40
0.5
 40
0.625
 40
0.625
 40
0.625
 40
0.625
 40
0.75
 40
0.75
 40
0.75
 40
0.75
 40
1.0
 40
1.0
 40
1.0
 40
1.0
 10
133.5975
 20
88.3712
 30
0.0
 10
133.5975
 20
88.3712
 30
0.0
 10
124.3104
 20
86.8687
 30
0.0
 10
125.057
 20
92.2216
 30
0.0
 10
125.057
 20
92.2216
 30
0.0
 10
125.057
 20
92.2216
 30
0.0
 10
127.0285
 20
93.8178
 30
0.0
 10
127.965
 20
93.8178
 30
0.0
 10
127.965
 20
93.8178
 30
0.0
 10
127.965
 20
93.8178
 30
0.0
 10
127.0285
 20
100.3915
 30
0.0
 10
131.7179
 20
97.8561
 30
0.0
 10
131.7179
 20
97.8561
 30
0.0
 10
131.7179
 20
97.8561
 30
0.0
 10
134.6258
 20
94.5691
 30
0.0
 10
135.6606
 20
93.2545
 30
0.0
 10
135.6606
 20
93.2545
 30
0.0
 10
135.6606
 20
93.2545
 30
0.0
 10
137.1605
 20
90.2497
 30
0.0
 10
133.0343
 20
93.5361
 30
0.0
 10
133.0343
 20
93.5361
 30
0.0
 10
133.0343
 20
93.5361
 30
0.0
 10
130.6896
 20
94.0057
 30
0.0
 10
130.1264
 20
91.3761
 30
0.0
 10
130.1264
 20
91.3761
 30
0.0
 10
130.1264
 20
91.3761
 30
0.0
 10
130.028
 20
89.404
 30
0.0
 10
133.5975
 20
88.3712
 30
0.0
  0
SPLINE
  5
60
330
1F
100
AcDbEntity
  8
layer 1
 62
     7
100
AcDbSpline
210
0.0
220
0.0
230
1.0
 70
    11
 71
     3
 72
    40
 73
    36
 74
     0
 42
0.0000000001
 43
0.0000000001
 12
1.0
 22
0.0
 32
0.0
 13
1.0
 23
0.0
 33
0.0
 40
0.0
 40
0.0
 40
0.0
 40
0.0
 40
0.1
 40
0.1
 40
0.1
 40
0.1
 40
0.2
 40
0.2
 40
0.2
 40
0.2
 40
0.3
 40
0.3
 40
0.3
 40
0.3
 40
0.4
 40
0.4
 40
0.4
 40
0.4
 40
0.5
 40
0.5
 40
0.5
 40
0.5
 40
0.6
 40
0.6
 40
0.6
 40
0.6
 40
0.7
 40
0.7
 40
0.7
 40
0.7
 40
0.8
 40
0.8
 40
0.8
 40
0.8
 40
1.0
 40
1.0
 40
1.0
 40
1.0
 10
139.9702
 20
81.7038
 30
0.0
 10
139.9702
 20
81.7038
 30
0.0
 10
139.0336
 20
75.0364
 30
0.0
 10
141.9416
 20
72.5948
 30
0.0
 10
141.9416
 20
72.5948
 30
0.0
 10
141.9416
 20
72.5948
 30
0.0
 10
143.2581
 20
70.0588
 30
0.0
 10
144.4763
 20
73.9093
 30
0.0
 10
144.4763
 20
73.9093
 30
0.0
 10
144.4763
 20
73.9093
 30
0.0
 10
145.8844
 20
75.4117
 30
0.0
 10
148.1309
 20
75.2237
 30
0.0
 10
148.1309
 20
75.2237
 30
0.0
 10
148.1309
 20
75.2237
 30
0.0
 10
150.7572
 20
73.815
 30
0.0
 10
148.9757
 20
78.5109
 30
0.0
 10
148.9757
 20
78.5109
 30
0.0
 10
148.9757
 20
78.5109
 30
0.0
 10
147.1943
 20
82.455
 30
0.0
 10
144.7579
 20
83.1126
 30
0.0
 10
144.7579
 20
83.1126
 30
0.0
 10
144.7579
 20
83.1126
 30
0.0
 10
143.4415
 20
84.0511
 30
0.0
 10
144.9479
 20
81.0463
 30
0.0
 10
144.9479
 20
81.0463
 30
0.0
 10
144.9479
 20
81.0463
 30
0.0
 10
145.7862
 20
76.5388
 30
0.0
 10
143.5397
 20
77.7597
 30
0.0
 10
143.5397
 20
77.7597
 30
0.0
 10
143.5397
 20
77.7597
 30
0.0
 10
142.4132
 20
76.351
 30
0.0
 10
140.7234
 20
80.8583
 30
0.0
 10
140.7234
 20
80.8583
 30
0.0
 10
140.7234
 20
80.8583
 30
0.0
 10
139.9702
 20
82.3614
 30
0.0
 10
139.9702
 20
81.7038
 30
0.0
  0
SPLINE
  5
61
330
1F
100
AcDbEntity
  8
layer 1
 62
     7
100
AcDbSpline
210
0.0
220
0.0
230
1.0
 70
    11
 71
     3
 72
    32
 73
    28
 74
     0
 42
0.0000000001
 43
0.0000000001
 12
1.0
 22
0.0
 32
0.0
 13
1.0
 23
0.0
 33
0.0
 40
0.0
 40
0.0
 40
0.0
 40
0.0
 40
0.125
 40
0.125
 40
0.125
 40
0.125
 40
0.25
 40
0.25
 40
0.25
 40
0.25
 40
0.375
 40
0.375
 40
0.375
 40
0.375
 40
0.5
 40
0.5
 40
0.5
 40
0.5
 40
0.625
 40
0.625
 40
0.625
 40
0.625
 40
0.75
 40
0.75
 40
0.75
 40
0.75
 40
1.0
 40
1.0
 40
1.0
 40
1.0
 10
134.436
 20
85.0847
 30
0.0
 10
134.436
 20
85.0847
 30
0.0
 10
128.2466
 20
85.1783
 30
0.0
 10
126.7467
 20
79.9197
 30
0.0
 10
126.7467
 20
79.9197
 30
0.0
 10
126.7467
 20
79.9197
 30
0.0
 10
125.9019
 20
77.8546
 30
0.0
 10
128.62
 20
79.1686
 30
0.0
 10
128.62
 20
79.1686
 30
0.0
 10
128.62
 20
79.1686
 30
0.0
 10
130.7747
 20
77.2855
 30
0.0
 10
130.6896
 20
75.8814
 30
0.0
 10
130.6896
 20
75.8814
 30
0.0
 10
130.6896
 20
75.8814
 30
0.0
 10
131.1546
 20
71.4677
 30
0.0
 10
135.189
 20
77.0085
 30
0.0
 10
135.189
 20
77.0085
 30
0.0
 10
135.189
 20
77.0085
 30
0.0
 10
136.5972
 20
79.4502
 30
0.0
 10
136.8789
 20
82.0791
 30
0.0
 10
136.8789
 20
82.0791
 30
0.0
 10
136.8789
 20
82.0791
 30
0.0
 10
134.0954
 20
76.309
 30
0.0
 10
131.8095
 20
80.6094
 30
0.0
 10
131.8095
 20
80.6094
 30
0.0
 10
131.4754
 20
81.2402
 30
0.0
 10
131.6523
 20
81.9364
 30
0.0
 10
134.436
 20
85.0847
 30
0.0
  0
SPLINE
  5
62
330
1F
100
AcDbEntity
  8
layer 1
 62
     7
100
AcDbSpline
210
0.0
220
0.0
230
1.0
 70
    11
 71
     3
 72
    48
 73
    44
 74
     0
 42
0.0000000001
 43
0.0000000001
 12
1.0
 22
0.0
 32
0.0
 13
1.0
 23
0.0
 33
0.0
 40
0.0
 40
0.0
 40
0.0
 40
0.0
 40
0.0833333333333333
 40
0.0833333333333333
 40
0.0833333333333333
 40
0.0833333333333333
 40
0.1666666666666667
 40
0.1666666666666667
 40
0.1666666666666667
 40
0.1666666666666667
 40
0.25
 40
0.25
 40
0.25
 40
0.25
 40
0.3333333333333333
 40
0.3333333333333333
 40
0.3333333333333333
 40
0.3333333333333333
 40
0.4166666666666667
 40
0.4166666666666667
 40
0.4166666666666667
 40
0.4166666666666667
 40
0.5
 40
0.5
 40
0.5
 40
0.5
 40
0.5833333333333334
 40
0.5833333333333334
 40
0.5833333333333334
 40
0.5833333333333334
 40
0.6666666666666666
 40
0.6666666666666666
 40
0.6666666666666666
 40
0.6666666666666666
 40
0.75
 40
0.75
 40
0.75
 40
0.75
 40
0.8333333333333334
 40
0.8333333333333334
 40
0.8333333333333334
 40
0.8333333333333334
 40
1.0
 40
1.0
 40
1.0
 40
1.0
 10
117.2698
 20
83.6759
 30
0.0
 10
117.2698
 20
83.6759
 30
0.0
 10
121.7757
 20
86.2112
 30
0.0
 10
119.0576
 20
89.3104
 30
0.0
 10
119.0576
 20
89.3104
 30
0.0
 10
119.0576
 20
89.3104
 30
0.0
 10
115.6781
 20
92.597
 30
0.0
 10
112.207
 20
86.0232
 30
0.0
 10
112.207
 20
86.0232
 30
0.0
 10
112.207
 20
86.0232
 30
0.0
 10
109.7246
 20
80.3049
 30
0.0
 10
116.916
 20
74.0586
 30
0.0
 10
116.916
 20
74.0586
 30
0.0
 10
118.4552
 20
72.7179
 30
0.0
 10
120.4396
 20
72.2535
 30
0.0
 10
122.994
 20
70.8107
 30
0.0
 10
122.994
 20
70.8107
 30
0.0
 10
122.994
 20
70.8107
 30
0.0
 10
134.7176
 20
66.6786
 30
0.0
 10
135.379
 20
65.7394
 30
0.0
 10
135.379
 20
65.7394
 30
0.0
 10
135.379
 20
65.7394
 30
0.0
 10
134.9074
 20
72.4068
 30
0.0
 10
134.9074
 20
72.4068
 30
0.0
 10
134.9074
 20
72.4068
 30
0.0
 10
134.9074
 20
72.4068
 30
0.0
 10
129.4648
 20
67.3355
 30
0.0
 10
127.2183
 20
75.7876
 30
0.0
 10
127.2183
 20
75.7876
 30
0.0
 10
127.2183
 20
75.7876
 30
0.0
 10
119.7126
 20
76.8205
 30
0.0
 10
124.7754
 20
82.9246
 30
0.0
 10
124.7754
 20
82.9246
 30
0.0
 10
124.7754
 20
82.9246
 30
0.0
 10
126.7467
 20
85.5544
 30
0.0
 10
126.7467
 20
85.5544
 30
0.0
 10
126.7467
 20
85.5544
 30
0.0
 10
126.7467
 20
85.5544
 30
0.0
 10
124.1204
 20
85.648
 30
0.0
 10
124.0288
 20
87.244
 30
0.0
 10
124.0288
 20
87.244
 30
0.0
 10
124.0288
 20
87.244
 30
0.0
 10
122.0573
 20
81.9854
 30
0.0
 10
117.2698
 20
83.6759
 30
0.0
  0
SPLINE
  5
63
330
1F
100
AcDbEntity
  8
layer 1
 62
     7
100
AcDbSpline
210
0.0
220
0.0
230
1.0
 70
    11
 71
     3
 72
    60
 73
    56
 74
     0
 42
0.0000000001
 43
0.0000000001
 12
1.0
 22
0.0
 32
0.0
 13
1.0
 23
0.0
 33
0.0
 40
0.0
 40
0.0
 40
0.0
 40
0.0
 40
0.0666666666666667
 40
0.0666666666666667
 40
0.0666666666666667
 40
0.0666666666666667
 40
0.1333333333333333
 40
0.1333333333333333
 40
0.1333333333333333
 40
0.1333333333333333
 40
0.2
 40
0.2
 40
0.2
 40
0.2
 40
0.2666666666666667
 40
0.2666666666666667
 40
0.2666666666666667
 40
0.2666666666666667
 40
0.3333333333333333
 40
0.3333333333333333
 40
0.3333333333333333
 40
0.3333333333333333
 40
0.4
 40
0.4
 40
0.4
 40
0.4
 40
0.4666666666666667
 40
0.4666666666666667
 40
0.4666666666666667
 40
0.4666666666666667
 40
0.5333333333333333
 40
0.5333333333333333
 40
0.5333333333333333
 40
0.5333333333333333
 40
0.6
 40
0.6
 40
0.6
 40
0.6
 40
0.6666666666666666
 40
0.6666666666666666
 40
0.6666666666666666
 40
0.6666666666666666
 40
0.7333333333333333
 40
0.7333333333333333
 40
0.7333333333333333
 40
0.7333333333333333
 40
0.8
 40
0.8
 40
0.8
 40
0.8
 40
0.8666666666666667
 40
0.8666666666666667
 40
0.8666666666666667
 40
0.8666666666666667
 40
1.0
 40
1.0
 40
1.0
 40
1.0
 10
94.1041
 20
84.2391
 30
0.0
 10
94.1041
 20
84.2391
 30
0.0
 10
101.1383
 20
87.0567
 30
0.0
 10
109.3907
 20
99.2644
 30
0.0
 10
109.3907
 20
99.2644
 30
0.0
 10
109.3907
 20
99.2644
 30
0.0
 10
115.0232
 20
105.1812
 30
0.0
 10
119.1494
 20
98.5138
 30
0.0
 10
119.1494
 20
98.5138
 30
0.0
 10
119.1494
 20
98.5138
 30
0.0
 10
111.1721
 20
101.894
 30
0.0
 10
113.8966
 20
94.8507
 30
0.0
 10
113.8966
 20
94.8507
 30
0.0
 10
113.8966
 20
94.8507
 30
0.0
 10
104.0463
 20
92.3154
 30
0.0
 10
106.8626
 20
80.6709
 30
0.0
 10
106.8626
 20
80.6709
 30
0.0
 10
106.8626
 20
80.6709
 30
0.0
 10
108.5457
 20
69.9652
 30
0.0
 10
126.4651
 20
65.0819
 30
0.0
 10
126.4651
 20
65.0819
 30
0.0
 10
126.4651
 20
65.0819
 30
0.0
 10
133.8726
 20
63.2041
 30
0.0
 10
136.4991
 20
60.9498
 30
0.0
 10
136.4991
 20
60.9498
 30
0.0
 10
136.4991
 20
60.9498
 30
0.0
 10
128.1549
 20
64.8003
 30
0.0
 10
118.4944
 20
58.1329
 30
0.0
 10
118.4944
 20
58.1329
 30
0.0
 10
118.4944
 20
58.1329
 30
0.0
 10
100.8566
 20
50.5256
 30
0.0
 10
96.259
 20
65.3635
 30
0.0
 10
96.259
 20
65.3635
 30
0.0
 10
96.259
 20
65.3635
 30
0.0
 10
100.7649
 20
62.8282
 30
0.0
 10
103.1096
 20
66.1148
 30
0.0
 10
103.1096
 20
66.1148
 30
0.0
 10
103.1096
 20
66.1148
 30
0.0
 10
104.8911
 20
67.1483
 30
0.0
 10
106.0177
 20
71.2797
 30
0.0
 10
106.0177
 20
71.2797
 30
0.0
 10
106.0177
 20
71.2797
 30
0.0
 10
106.6726
 20
72.1252
 30
0.0
 10
109.6723
 20
71.4677
 30
0.0
 10
109.6723
 20
71.4677
 30
0.0
 10
109.6723
 20
71.4677
 30
0.0
 10
114.46
 20
71.6555
 30
0.0
 10
104.5179
 20
77.0085
 30
0.0
 10
104.5179
 20
77.0085
 30
0.0
 10
104.5179
 20
77.0085
 30
0.0
 10
99.4485
 20
77.0085
 30
0.0
 10
98.0404
 20
75.506
 30
0.0
 10
98.0404
 20
75.506
 30
0.0
 10
98.0404
 20
75.506
 30
0.0
 10
100.1035
 20
82.9246
 30
0.0
 10
94.1041
 20
84.2391
 30
0.0
  0
SPLINE
  5
64
330
1F
100
AcDbEntity
  8
layer 1
 62
     7
100
AcDbSpline
210
0.0
220
0.0
230
1.0
 70
    11
 71
     3
 72
    40
 73
    36
 74
     0
 42
0.0000000001
 43
0.0000000001
 12
1.0
 22
0.0
 32
0.0
 13
1.0
 23
0.0
 33
0.0
 40
0.0
 40
0.0
 40
0.0
 40
0.0
 40
0.1
 40
0.1
 40
0.1
 40
0.1
 40
0.2
 40
0.2
 40
0.2
 40
0.2
 40
0.3
 40
0.3
 40
0.3
 40
0.3
 40
0.4
 40
0.4
 40
0.4
 40
0.4
 40
0.5
 40
0.5
 40
0.5
 40
0.5
 40
0.6
 40
0.6
 40
0.6
 40
0.6
 40
0.7
 40
0.7
 40
0.7
 40
0.7
 40
0.8
 40
0.8
 40
0.8
 40
0.8
 40
1.0
 40
1.0
 40
1.0
 40
1.0
 10
164.9237
 20
28.6451
 30
0.0
 10
164.9237
 20
28.6451
 30
0.0
 10
159.7627
 20
32.3075
 30
0.0
 10
156.1082
 20
29.6786
 30
0.0
 10
156.1082
 20
29.6786
 30
0.0
 10
156.1082
 20
29.6786
 30
0.0
 10
158.1712
 20
37.8485
 30
0.0
 10
155.8265
 20
43.483
 30
0.0
 10
155.8265
 20
43.483
 30
0.0
 10
155.8265
 20
43.483
 30
0.0
 10
150.7572
 20
52.78
 30
0.0
 10
149.6373
 20
53.8128
 30
0.0
 10
149.6373
 20
53.8128
 30
0.0
 10
149.6373
 20
53.8128
 30
0.0
 10
146.631
 20
62.8282
 30
0.0
 10
150.384
 20
68.0867
 30
0.0
 10
150.384
 20
68.0867
 30
0.0
 10
150.384
 20
68.0867
 30
0.0
 10
156.8548
 20
75.6934
 30
0.0
 10
161.0792
 20
66.7722
 30
0.0
 10
161.0792
 20
66.7722
 30
0.0
 10
161.0792
 20
66.7722
 30
0.0
 10
156.2981
 20
72.1252
 30
0.0
 10
153.0103
 20
66.9603
 30
0.0
 10
153.0103
 20
66.9603
 30
0.0
 10
153.0103
 20
66.9603
 30
0.0
 10
149.2573
 20
56.536
 30
0.0
 10
161.5508
 20
59.2594
 30
0.0
 10
161.5508
 20
59.2594
 30
0.0
 10
161.5508
 20
59.2594
 30
0.0
 10
160.3261
 20
44.6094
 30
0.0
 10
170.2747
 20
37.0972
 30
0.0
 10
170.2747
 20
37.0972
 30
0.0
 10
170.2747
 20
37.0972
 30
0.0
 10
165.4871
 20
34.5612
 30
0.0
 10
164.9237
 20
28.6451
 30
0.0
  0
SPLINE
  5
65
330
1F
100
AcDbEntity
  8
layer 1
 62
     7
100
AcDbSpline
210
0.0
220
0.0
230
1.0
 70
    11
 71
     3
 72
    20
 73
    16
 74
     0
 42
0.0000000001
 43
0.0000000001
 12
1.0
 22
0.0
 32
0.0
 13
1.0
 23
0.0
 33
0.0
 40
0.0
 40
0.0
 40
0.0
 40
0.0
 40
0.2
 40
0.2
 40
0.2
 40
0.2
 40
0.4
 40
0.4
 40
0.4
 40
0.4
 40
0.6
 40
0.6
 40
0.6
 40
0.6
 40
1.0
 40
1.0
 40
1.0
 40
1.0
 10
95.0865
 20
20.0082
 30
0.0
 10
96.1934
 20
20.0082
 30
0.0
 10
96.6322
 20
19.3356
 30
0.0
 10
96.6322
 20
18.5057
 30
0.0
 10
96.6322
 20
18.5057
 30
0.0
 10
96.6322
 20
17.6753
 30
0.0
 10
95.9446
 20
17.0027
 30
0.0
 10
95.0865
 20
17.0027
 30
0.0
 10
95.0865
 20
17.0027
 30
0.0
 10
94.2351
 20
17.0027
 30
0.0
 10
93.5409
 20
17.6753
 30
0.0
 10
93.5409
 20
18.5057
 30
0.0
 10
93.5409
 20
18.5057
 30
0.0
 10
93.5409
 20
19.3356
 30
0.0
 10
94.2351
 20
20.0082
 30
0.0
 10
95.0865
 20
20.0082
 30
0.0
  0
SPLINE
  5
66
330
1F
100
AcDbEntity
  8
layer 1
 62
     7
100
AcDbSpline
210
0.0
220
0.0
230
1.0
 70
    11
 71
     3
 72
    20
 73
    16
 74
     0
 42
0.0000000001
 43
0.0000000001
 12
1.0
 22
0.0
 32
0.0
 13
1.0
 23
0.0
 33
0.0
 40
0.0
 40
0.0
 40
0.0
 40
0.0
 40
0.2
 40
0.2
 40
0.2
 40
0.2
 40
0.4
 40
0.4
 40
0.4
 40
0.4
 40
0.6
 40
0.6
 40
0.6
 40
0.6
 40
1.0
 40
1.0
 40
1.0
 40
1.0
 10
172.4295
 20
14.1832
 30
0.0
 10
173.3595
 20
14.1832
 30
0.0
 10
174.1192
 20
13.4895
 30
0.0
 10
174.1192
 20
12.6341
 30
0.0
 10
174.1192
 20
12.6341
 30
0.0
 10
174.1192
 20
11.7782
 30
0.0
 10
173.3595
 20
11.0846
 30
0.0
 10
172.4295
 20
11.0846
 30
0.0
 10
172.4295
 20
11.0846
 30
0.0
 10
171.4995
 20
11.0846
 30
0.0
 10
170.7397
 20
11.7782
 30
0.0
 10
170.7397
 20
12.6341
 30
0.0
 10
170.7397
 20
12.6341
 30
0.0
 10
170.7397
 20
13.4895
 30
0.0
 10
171.4995
 20
14.1832
 30
0.0
 10
172.4295
 20
14.1832
 30
0.0
  0
SPLINE
  5
67
330
1F
100
AcDbEntity
  8
layer 1
 62
     7
100
AcDbSpline
210
0.0
220
0.0
230
1.0
 70
    11
 71
     3
 72
    36
 73
    32
 74
     0
 42
0.0000000001
 43
0.0000000001
 12
1.0
 22
0.0
 32
0.0
 13
1.0
 23
0.0
 33
0.0
 40
0.0
 40
0.0
 40
0.0
 40
0.0
 40
0.1111111111111111
 40
0.1111111111111111
 40
0.1111111111111111
 40
0.1111111111111111
 40
0.2222222222222222
 40
0.2222222222222222
 40
0.2222222222222222
 40
0.2222222222222222
 40
0.3333333333333333
 40
0.3333333333333333
 40
0.3333333333333333
 40
0.3333333333333333
 40
0.4444444444444444
 40
0.4444444444444444
 40
0.4444444444444444
 40
0.4444444444444444
 40
0.5555555555555556
 40
0.5555555555555556
 40
0.5555555555555556
 40
0.5555555555555556
 40
0.6666666666666666
 40
0.6666666666666666
 40
0.6666666666666666
 40
0.6666666666666666
 40
0.7777777777777778
 40
0.7777777777777778
 40
0.7777777777777778
 40
0.7777777777777778
 40
1.0
 40
1.0
 40
1.0
 40
1.0
 10
178.717
 20
16.719
 30
0.0
 10
178.717
 20
16.719
 30
0.0
 10
182.2799
 20
20.1936
 30
0.0
 10
183.4982
 20
20.2872
 30
0.0
 10
183.4982
 20
20.2872
 30
0.0
 10
183.4982
 20
20.2872
 30
0.0
 10
189.5958
 20
23.3864
 30
0.0
 10
190.7222
 20
19.5359
 30
0.0
 10
190.7222
 20
19.5359
 30
0.0
 10
190.7222
 20
19.5359
 30
0.0
 10
186.4061
 20
16.0615
 30
0.0
 10
190.349
 20
13.5262
 30
0.0
 10
190.349
 20
13.5262
 30
0.0
 10
190.349
 20
13.5262
 30
0.0
 10
194.4751
 20
10.1454
 30
0.0
 10
188.561
 20
9.4877
 30
0.0
 10
188.561
 20
9.4877
 30
0.0
 10
188.561
 20
9.4877
 30
0.0
 10
179.6536
 20
9.7693
 30
0.0
 10
179.7452
 20
11.8357
 30
0.0
 10
179.7452
 20
11.8357
 30
0.0
 10
179.7452
 20
11.8357
 30
0.0
 10
182.6533
 20
11.4598
 30
0.0
 10
183.9698
 20
12.3991
 30
0.0
 10
183.9698
 20
12.3991
 30
0.0
 10
183.9698
 20
12.3991
 30
0.0
 10
190.2506
 20
16.6254
 30
0.0
 10
181.1535
 20
17.4702
 30
0.0
 10
181.1535
 20
17.4702
 30
0.0
 10
181.1535
 20
17.4702
 30
0.0
 10
179.6536
 20
16.6254
 30
0.0
 10
178.717
 20
16.719
 30
0.0
  0
SPLINE
  5
68
330
1F
100
AcDbEntity
  8
layer 1
 62
     7
100
AcDbSpline
210
0.0
220
0.0
230
1.0
 70
    11
 71
     3
 72
    20
 73
    16
 74
     0
 42
0.0000000001
 43
0.0000000001
 12
1.0
 22
0.0
 32
0.0
 13
1.0
 23
0.0
 33
0.0
 40
0.0
 40
0.0
 40
0.0
 40
0.0
 40
0.2
 40
0.2
 40
0.2
 40
0.2
 40
0.4
 40
0.4
 40
0.4
 40
0.4
 40
0.6
 40
0.6
 40
0.6
 40
0.6
 40
1.0
 40
1.0
 40
1.0
 40
1.0
 10
183.9698
 20
32.8714
 30
0.0
 10
183.9698
 20
32.8714
 30
0.0
 10
187.7225
 20
30.5234
 30
0.0
 10
184.0614
 20
24.8889
 30
0.0
 10
184.0614
 20
24.8889
 30
0.0
 10
184.0614
 20
24.8889
 30
0.0
 10
188.4692
 20
27.5186
 30
0.0
 10
193.2569
 20
23.2928
 30
0.0
 10
193.2569
 20
23.2928
 30
0.0
 10
193.2569
 20
23.2928
 30
0.0
 10
193.0669
 20
35.7827
 30
0.0
 10
193.0669
 20
35.7827
 30
0.0
 10
193.0669
 20
35.7827
 30
0.0
 10
193.0669
 20
35.7827
 30
0.0
 10
189.2224
 20
31.7443
 30
0.0
 10
183.9698
 20
32.8714
 30
0.0
  0
SPLINE
  5
69
330
1F
100
AcDbEntity
  8
layer 1
 62
     7
100
AcDbSpline
210
0.0
220
0.0
230
1.0
 70
    11
 71
     3
 72
    36
 73
    32
 74
     0
 42
0.0000000001
 43
0.0000000001
 12
1.0
 22
0.0
 32
0.0
 13
1.0
 23
0.0
 33
0.0
 40
0.0
 40
0.0
 40
0.0
 40
0.0
 40
0.1111111111111111
 40
0.1111111111111111
 40
0.1111111111111111
 40
0.1111111111111111
 40
0.2222222222222222
 40
0.2222222222222222
 40
0.2222222222222222
 40
0.2222222222222222
 40
0.3333333333333333
 40
0.3333333333333333
 40
0.3333333333333333
 40
0.3333333333333333
 40
0.4444444444444444
 40
0.4444444444444444
 40
0.4444444444444444
 40
0.4444444444444444
 40
0.5555555555555556
 40
0.5555555555555556
 40
0.5555555555555556
 40
0.5555555555555556
 40
0.6666666666666666
 40
0.6666666666666666
 40
0.6666666666666666
 40
0.6666666666666666
 40
0.7777777777777778
 40
0.7777777777777778
 40
0.7777777777777778
 40
0.7777777777777778
 40
1.0
 40
1.0
 40
1.0
 40
1.0
 10
170.0849
 20
24.1376
 30
0.0
 10
170.0849
 20
24.1376
 30
0.0
 10
168.6766
 20
28.5513
 30
0.0
 10
169.5215
 20
30.5234
 30
0.0
 10
169.5215
 20
30.5234
 30
0.0
 10
169.5215
 20
30.5234
 30
0.0
 10
172.0561
 20
36.5333
 30
0.0
 10
174.3026
 20
31.3684
 30
0.0
 10
174.3026
 20
31.3684
 30
0.0
 10
174.3026
 20
31.3684
 30
0.0
 10
175.9007
 20
27.8945
 30
0.0
 10
178.4354
 20
31.4627
 30
0.0
 10
178.4354
 20
31.4627
 30
0.0
 10
178.4354
 20
31.4627
 30
0.0
 10
181.1535
 20
34.3739
 30
0.0
 10
180.6819
 20
27.4249
 30
0.0
 10
180.6819
 20
27.4249
 30
0.0
 10
180.6819
 20
27.4249
 30
0.0
 10
180.9635
 20
25.2649
 30
0.0
 10
178.717
 20
22.6353
 30
0.0
 10
178.717
 20
22.6353
 30
0.0
 10
178.717
 20
22.6353
 30
0.0
 10
174.6824
 20
16.2495
 30
0.0
 10
177.1189
 20
23.2928
 30
0.0
 10
177.1189
 20
23.2928
 30
0.0
 10
177.1189
 20
23.2928
 30
0.0
 10
175.5274
 20
31.0866
 30
0.0
 10
172.0561
 20
23.7618
 30
0.0
 10
172.0561
 20
23.7618
 30
0.0
 10
172.0561
 20
23.7618
 30
0.0
 10
171.4929
 20
16.4367
 30
0.0
 10
170.0849
 20
24.1376
 30
0.0
  0
SPLINE
  5
6A
330
1F
100
AcDbEntity
  8
layer 1
 62
     7
100
AcDbSpline
210
0.0
220
0.0
230
1.0
 70
    11
 71
     3
 72
    36
 73
    32
 74
     0
 42
0.0000000001
 43
0.0000000001
 12
1.0
 22
0.0
 32
0.0
 13
1.0
 23
0.0
 33
0.0
 40
0.0
 40
0.0
 40
0.0
 40
0.0
 40
0.1111111111111111
 40
0.1111111111111111
 40
0.1111111111111111
 40
0.1111111111111111
 40
0.2222222222222222
 40
0.2222222222222222
 40
0.2222222222222222
 40
0.2222222222222222
 40
0.3333333333333333
 40
0.3333333333333333
 40
0.3333333333333333
 40
0.3333333333333333
 40
0.4444444444444444
 40
0.4444444444444444
 40
0.4444444444444444
 40
0.4444444444444444
 40
0.5555555555555556
 40
0.5555555555555556
 40
0.5555555555555556
 40
0.5555555555555556
 40
0.6666666666666666
 40
0.6666666666666666
 40
0.6666666666666666
 40
0.6666666666666666
 40
0.7777777777777778
 40
0.7777777777777778
 40
0.7777777777777778
 40
0.7777777777777778
 40
1.0
 40
1.0
 40
1.0
 40
1.0
 10
166.3319
 20
21.7897
 30
0.0
 10
166.3319
 20
21.7897
 30
0.0
 10
162.6708
 20
26.0161
 30
0.0
 10
162.6708
 20
26.0161
 30
0.0
 10
162.6708
 20
26.0161
 30
0.0
 10
162.6708
 20
26.0161
 30
0.0
 10
156.8548
 20
29.3963
 30
0.0
 10
157.798
 20
23.856
 30
0.0
 10
157.798
 20
23.856
 30
0.0
 10
157.798
 20
23.856
 30
0.0
 10
158.3612
 20
20.8512
 30
0.0
 10
155.355
 20
19.8182
 30
0.0
 10
155.355
 20
19.8182
 30
0.0
 10
155.355
 20
19.8182
 30
0.0
 10
151.2288
 20
17.8456
 30
0.0
 10
156.6714
 20
15.1223
 30
0.0
 10
156.6714
 20
15.1223
 30
0.0
 10
156.6714
 20
15.1223
 30
0.0
 10
162.2058
 20
13.2446
 30
0.0
 10
165.2053
 20
14.371
 30
0.0
 10
165.2053
 20
14.371
 30
0.0
 10
165.2053
 20
14.371
 30
0.0
 10
157.798
 20
17.9399
 30
0.0
 10
161.2691
 20
20.4752
 30
0.0
 10
161.2691
 20
20.4752
 30
0.0
 10
161.2691
 20
20.4752
 30
0.0
 10
162.769
 20
21.6961
 30
0.0
 10
166.4236
 20
19.2543
 30
0.0
 10
166.4236
 20
19.2543
 30
0.0
 10
166.4236
 20
19.2543
 30
0.0
 10
169.2399
 20
16.8128
 30
0.0
 10
166.3319
 20
21.7897
 30
0.0
  0
SPLINE
  5
6B
330
1F
100
AcDbEntity
  8
layer 1
 62
     7
100
AcDbSpline
210
0.0
220
0.0
230
1.0
 70
    11
 71
     3
 72
    24
 73
    20
 74
     0
 42
0.0000000001
 43
0.0000000001
 12
1.0
 22
0.0
 32
0.0
 13
1.0
 23
0.0
 33
0.0
 40
0.0
 40
0.0
 40
0.0
 40
0.0
 40
0.1666666666666667
 40
0.1666666666666667
 40
0.1666666666666667
 40
0.1666666666666667
 40
0.3333333333333333
 40
0.3333333333333333
 40
0.3333333333333333
 40
0.3333333333333333
 40
0.5
 40
0.5
 40
0.5
 40
0.5
 40
0.6666666666666666
 40
0.6666666666666666
 40
0.6666666666666666
 40
0.6666666666666666
 40
1.0
 40
1.0
 40
1.0
 40
1.0
 10
185.9345
 20
5.9195
 30
0.0
 10
185.9345
 20
5.9195
 30
0.0
 10
192.0321
 20
4.9805
 30
0.0
 10
192.8769
 20
7.234
 30
0.0
 10
192.8769
 20
7.234
 30
0.0
 10
192.8769
 20
7.234
 30
0.0
 10
192.9753
 20
-8.0727
 30
0.0
 10
192.9753
 20
-8.0727
 30
0.0
 10
192.9753
 20
-8.0727
 30
0.0
 10
192.9753
 20
-8.0727
 30
0.0
 10
183.2165
 20
-7.6969
 30
0.0
 10
181.2451
 20
-6.7583
 30
0.0
 10
181.2451
 20
-6.7583
 30
0.0
 10
181.2451
 20
-6.7583
 30
0.0
 10
183.7798
 20
-6.9463
 30
0.0
 10
186.1245
 20
-6.1006
 30
0.0
 10
186.1245
 20
-6.1006
 30
0.0
 10
186.1245
 20
-6.1006
 30
0.0
 10
192.2221
 20
-1.9686
 30
0.0
 10
185.9345
 20
5.9195
 30
0.0
  0
SPLINE
  5
6C
330
1F
100
AcDbEntity
  8
layer 1
 62
     7
100
AcDbSpline
210
0.0
220
0.0
230
1.0
 70
    11
 71
     3
 72
    36
 73
    32
 74
     0
 42
0.0000000001
 43
0.0000000001
 12
1.0
 22
0.0
 32
0.0
 13
1.0
 23
0.0
 33
0.0
 40
0.0
 40
0.0
 40
0.0
 40
0.0
 40
0.1111111111111111
 40
0.1111111111111111
 40
0.1111111111111111
 40
0.1111111111111111
 40
0.2222222222222222
 40
0.2222222222222222
 40
0.2222222222222222
 40
0.2222222222222222
 40
0.3333333333333333
 40
0.3333333333333333
 40
0.3333333333333333
 40
0.3333333333333333
 40
0.4444444444444444
 40
0.4444444444444444
 40
0.4444444444444444
 40
0.4444444444444444
 40
0.5555555555555556
 40
0.5555555555555556
 40
0.5555555555555556
 40
0.5555555555555556
 40
0.6666666666666666
 40
0.6666666666666666
 40
0.6666666666666666
 40
0.6666666666666666
 40
0.7777777777777778
 40
0.7777777777777778
 40
0.7777777777777778
 40
0.7777777777777778
 40
1.0
 40
1.0
 40
1.0
 40
1.0
 10
173.1828
 20
5.3563
 30
0.0
 10
173.1828
 20
5.3563
 30
0.0
 10
173.1828
 20
-0.9357
 30
0.0
 10
173.4644
 20
-2.4382
 30
0.0
 10
173.4644
 20
-2.4382
 30
0.0
 10
173.4644
 20
-2.4382
 30
0.0
 10
176.1823
 20
-9.7632
 30
0.0
 10
178.0556
 20
-4.3165
 30
0.0
 10
178.0556
 20
-4.3165
 30
0.0
 10
178.0556
 20
-4.3165
 30
0.0
 10
179.7584
 20
-1.7138
 30
0.0
 10
183.079
 20
-2.9131
 30
0.0
 10
183.079
 20
-2.9131
 30
0.0
 10
183.1575
 20
-2.9406
 30
0.0
 10
183.2362
 20
-2.9701
 30
0.0
 10
183.3082
 20
-3.0014
 30
0.0
 10
183.3082
 20
-3.0014
 30
0.0
 10
186.7795
 20
-4.4103
 30
0.0
 10
184.9062
 20
1.0362
 30
0.0
 10
183.5898
 20
3.3837
 30
0.0
 10
183.5898
 20
3.3837
 30
0.0
 10
183.5898
 20
3.3837
 30
0.0
 10
176.0907
 20
10.427
 30
0.0
 10
177.6822
 20
7.234
 30
0.0
 10
177.6822
 20
7.234
 30
0.0
 10
177.6822
 20
7.234
 30
0.0
 10
181.7167
 20
-0.9357
 30
0.0
 10
175.7109
 20
1.3179
 30
0.0
 10
175.7109
 20
1.3179
 30
0.0
 10
175.7109
 20
1.3179
 30
0.0
 10
173.1828
 20
5.3563
 30
0.0
 10
173.1828
 20
5.3563
 30
0.0
  0
SPLINE
  5
6D
330
1F
100
AcDbEntity
  8
layer 1
 62
     7
100
AcDbSpline
210
0.0
220
0.0
230
1.0
 70
    11
 71
     3
 72
    40
 73
    36
 74
     0
 42
0.0000000001
 43
0.0000000001
 12
1.0
 22
0.0
 32
0.0
 13
1.0
 23
0.0
 33
0.0
 40
0.0
 40
0.0
 40
0.0
 40
0.0
 40
0.1
 40
0.1
 40
0.1
 40
0.1
 40
0.2
 40
0.2
 40
0.2
 40
0.2
 40
0.3
 40
0.3
 40
0.3
 40
0.3
 40
0.4
 40
0.4
 40
0.4
 40
0.4
 40
0.5
 40
0.5
 40
0.5
 40
0.5
 40
0.6
 40
0.6
 40
0.6
 40
0.6
 40
0.7
 40
0.7
 40
0.7
 40
0.7
 40
0.8
 40
0.8
 40
0.8
 40
0.8
 40
1.0
 40
1.0
 40
1.0
 40
1.0
 10
165.9585
 20
10.8966
 30
0.0
 10
165.9585
 20
10.8966
 30
0.0
 10
157.418
 20
9.2061
 30
0.0
 10
156.2981
 20
4.1355
 30
0.0
 10
156.2981
 20
4.1355
 30
0.0
 10
156.2981
 20
4.1355
 30
0.0
 10
154.1367
 20
1.8819
 30
0.0
 10
157.9813
 20
2.0691
 30
0.0
 10
157.9813
 20
2.0691
 30
0.0
 10
157.9813
 20
2.0691
 30
0.0
 10
162.0158
 20
1.4123
 30
0.0
 10
160.8893
 20
-2.1566
 30
0.0
 10
160.8893
 20
-2.1566
 30
0.0
 10
160.8893
 20
-2.1566
 30
0.0
 10
160.7059
 20
-6.4766
 30
0.0
 10
164.9237
 20
-2.6262
 30
0.0
 10
164.9237
 20
-2.6262
 30
0.0
 10
164.9237
 20
-2.6262
 30
0.0
 10
169.1482
 20
0.7546
 30
0.0
 10
169.1482
 20
7.1404
 30
0.0
 10
169.1482
 20
7.1404
 30
0.0
 10
169.1482
 20
7.1404
 30
0.0
 10
167.2686
 20
3.29
 30
0.0
 10
165.2971
 20
3.29
 30
0.0
 10
165.2971
 20
3.29
 30
0.0
 10
165.2971
 20
3.29
 30
0.0
 10
160.5159
 20
1.7875
 30
0.0
 10
162.8606
 20
7.1404
 30
0.0
 10
162.8606
 20
7.1404
 30
0.0
 10
162.8606
 20
7.1404
 30
0.0
 10
164.5505
 20
9.7693
 30
0.0
 10
165.7687
 20
9.9574
 30
0.0
 10
165.7687
 20
9.9574
 30
0.0
 10
165.7687
 20
9.9574
 30
0.0
 10
165.9585
 20
10.8966
 30
0.0
 10
165.9585
 20
10.8966
 30
0.0
  0
SPLINE
  5
6E
330
1F
100
AcDbEntity
  8
layer 1
 62
     7
100
AcDbSpline
210
0.0
220
0.0
230
1.0
 70
    11
 71
     3
 72
    24
 73
    20
 74
     0
 42
0.0000000001
 43
0.0000000001
 12
1.0
 22
0.0
 32
0.0
 13
1.0
 23
0.0
 33
0.0
 40
0.0
 40
0.0
 40
0.0
 40
0.0
 40
0.1666666666666667
 40
0.1666666666666667
 40
0.1666666666666667
 40
0.1666666666666667
 40
0.3333333333333333
 40
0.3333333333333333
 40
0.3333333333333333
 40
0.3333333333333333
 40
0.5
 40
0.5
 40
0.5
 40
0.5
 40
0.6666666666666666
 40
0.6666666666666666
 40
0.6666666666666666
 40
0.6666666666666666
 40
1.0
 40
1.0
 40
1.0
 40
1.0
 10
155.355
 20
-10.6081
 30
0.0
 10
155.355
 20
-10.6081
 30
0.0
 10
159.8611
 20
-7.6031
 30
0.0
 10
159.8611
 20
-7.6031
 30
0.0
 10
159.8611
 20
-7.6031
 30
0.0
 10
159.8611
 20
-7.6031
 30
0.0
 10
166.4236
 20
-9.3878
 30
0.0
 10
169.3316
 20
-3.2837
 30
0.0
 10
169.3316
 20
-3.2837
 30
0.0
 10
169.3316
 20
-3.2837
 30
0.0
 10
169.0499
 20
-5.0678
 30
0.0
 10
171.3029
 20
-6.7583
 30
0.0
 10
171.3029
 20
-6.7583
 30
0.0
 10
171.3029
 20
-6.7583
 30
0.0
 10
161.6425
 20
-9.012
 30
0.0
 10
158.3612
 20
-10.1391
 30
0.0
 10
158.3612
 20
-10.1391
 30
0.0
 10
158.3612
 20
-10.1391
 30
0.0
 10
155.5449
 20
-11.6416
 30
0.0
 10
155.355
 20
-10.6081
 30
0.0
  0
SPLINE
  5
6F
330
1F
100
AcDbEntity
  8
layer 1
 62
     7
100
AcDbSpline
210
0.0
220
0.0
230
1.0
 70
    11
 71
     3
 72
    16
 73
    12
 74
     0
 42
0.0000000001
 43
0.0000000001
 12
1.0
 22
0.0
 32
0.0
 13
1.0
 23
0.0
 33
0.0
 40
0.0
 40
0.0
 40
0.0
 40
0.0
 40
0.25
 40
0.25
 40
0.25
 40
0.25
 40
0.5
 40
0.5
 40
0.5
 40
0.5
 40
1.0
 40
1.0
 40
1.0
 40
1.0
 10
175.4293
 20
-12.1105
 30
0.0
 10
175.4293
 20
-12.1105
 30
0.0
 10
189.5958
 20
-11.6416
 30
0.0
 10
192.9753
 20
-14.9281
 30
0.0
 10
192.9753
 20
-14.9281
 30
0.0
 10
192.9753
 20
-14.9281
 30
0.0
 10
193.0669
 20
-25.446
 30
0.0
 10
193.0669
 20
-25.446
 30
0.0
 10
193.0669
 20
-25.446
 30
0.0
 10
193.0669
 20
-25.446
 30
0.0
 10
191.0955
 20
-16.8065
 30
0.0
 10
175.4293
 20
-12.1105
 30
0.0
  0
SPLINE
  5
70
330
1F
100
AcDbEntity
  8
layer 1
 62
     7
100
AcDbSpline
210
0.0
220
0.0
230
1.0
 70
    11
 71
     3
 72
    28
 73
    24
 74
     0
 42
0.0000000001
 43
0.0000000001
 12
1.0
 22
0.0
 32
0.0
 13
1.0
 23
0.0
 33
0.0
 40
0.0
 40
0.0
 40
0.0
 40
0.0
 40
0.1428571428571428
 40
0.1428571428571428
 40
0.1428571428571428
 40
0.1428571428571428
 40
0.2857142857142857
 40
0.2857142857142857
 40
0.2857142857142857
 40
0.2857142857142857
 40
0.4285714285714285
 40
0.4285714285714285
 40
0.4285714285714285
 40
0.4285714285714285
 40
0.5714285714285714
 40
0.5714285714285714
 40
0.5714285714285714
 40
0.5714285714285714
 40
0.7142857142857143
 40
0.7142857142857143
 40
0.7142857142857143
 40
0.7142857142857143
 40
1.0
 40
1.0
 40
1.0
 40
1.0
 10
156.1998
 20
-16.9001
 30
0.0
 10
156.1998
 20
-16.9001
 30
0.0
 10
164.2689
 20
-11.7352
 30
0.0
 10
178.0556
 20
-17.4641
 30
0.0
 10
178.0556
 20
-17.4641
 30
0.0
 10
178.0556
 20
-17.4641
 30
0.0
 10
174.9642
 20
-17.6356
 30
0.0
 10
174.1258
 20
-21.1049
 30
0.0
 10
174.1258
 20
-21.1049
 30
0.0
 10
174.0866
 20
-21.2615
 30
0.0
 10
174.0538
 20
-21.4252
 30
0.0
 10
174.021
 20
-21.5955
 30
0.0
 10
174.021
 20
-21.5955
 30
0.0
 10
174.021
 20
-21.5955
 30
0.0
 10
174.4008
 20
-23.4739
 30
0.0
 10
171.3029
 20
-20.4689
 30
0.0
 10
171.3029
 20
-20.4689
 30
0.0
 10
171.3029
 20
-20.4689
 30
0.0
 10
167.4584
 20
-19.7177
 30
0.0
 10
166.2403
 20
-22.6284
 30
0.0
 10
166.2403
 20
-22.6284
 30
0.0
 10
166.2403
 20
-22.6284
 30
0.0
 10
165.3953
 20
-17.5577
 30
0.0
 10
156.1998
 20
-16.9001
 30
0.0
  0
SPLINE
  5
71
330
1F
100
AcDbEntity
  8
layer 1
 62
     7
100
AcDbSpline
210
0.0
220
0.0
230
1.0
 70
    11
 71
     3
 72
    20
 73
    16
 74
     0
 42
0.0000000001
 43
0.0000000001
 12
1.0
 22
0.0
 32
0.0
 13
1.0
 23
0.0
 33
0.0
 40
0.0
 40
0.0
 40
0.0
 40
0.0
 40
0.2
 40
0.2
 40
0.2
 40
0.2
 40
0.4
 40
0.4
 40
0.4
 40
0.4
 40
0.6
 40
0.6
 40
0.6
 40
0.6
 40
1.0
 40
1.0
 40
1.0
 40
1.0
 10
185.1878
 20
-38.687
 30
0.0
 10
185.1878
 20
-38.687
 30
0.0
 10
185.4694
 20
-41.035
 30
0.0
 10
185.4694
 20
-41.035
 30
0.0
 10
185.4694
 20
-41.035
 30
0.0
 10
185.4694
 20
-41.035
 30
0.0
 10
186.5961
 20
-42.0678
 30
0.0
 10
187.6243
 20
-40.0959
 30
0.0
 10
187.6243
 20
-40.0959
 30
0.0
 10
187.6243
 20
-40.0959
 30
0.0
 10
190.5322
 20
-37.1845
 30
0.0
 10
186.5961
 20
-38.5934
 30
0.0
 10
186.5961
 20
-38.5934
 30
0.0
 10
186.5961
 20
-38.5934
 30
0.0
 10
185.1878
 20
-38.687
 30
0.0
 10
185.1878
 20
-38.687
 30
0.0
  0
SPLINE
  5
72
330
1F
100
AcDbEntity
  8
layer 1
 62
     7
100
AcDbSpline
210
0.0
220
0.0
230
1.0
 70
    11
 71
     3
 72
    28
 73
    24
 74
     0
 42
0.0000000001
 43
0.0000000001
 12
1.0
 22
0.0
 32
0.0
 13
1.0
 23
0.0
 33
0.0
 40
0.0
 40
0.0
 40
0.0
 40
0.0
 40
0.1428571428571428
 40
0.1428571428571428
 40
0.1428571428571428
 40
0.1428571428571428
 40
0.2857142857142857
 40
0.2857142857142857
 40
0.2857142857142857
 40
0.2857142857142857
 40
0.4285714285714285
 40
0.4285714285714285
 40
0.4285714285714285
 40
0.4285714285714285
 40
0.5714285714285714
 40
0.5714285714285714
 40
0.5714285714285714
 40
0.5714285714285714
 40
0.7142857142857143
 40
0.7142857142857143
 40
0.7142857142857143
 40
0.7142857142857143
 40
1.0
 40
1.0
 40
1.0
 40
1.0
 10
173.2744
 20
-43.1944
 30
0.0
 10
174.0473
 20
-43.2338
 30
0.0
 10
176.6539
 20
-48.829
 30
0.0
 10
179.6536
 20
-45.824
 30
0.0
 10
179.6536
 20
-45.824
 30
0.0
 10
179.6536
 20
-45.824
 30
0.0
 10
180.1186
 20
-50.1439
 30
0.0
 10
174.9642
 20
-49.7684
 30
0.0
 10
174.9642
 20
-49.7684
 30
0.0
 10
174.9642
 20
-49.7684
 30
0.0
 10
175.2458
 20
-48.829
 30
0.0
 10
176.0907
 20
-48.7352
 30
0.0
 10
176.0907
 20
-48.7352
 30
0.0
 10
176.0907
 20
-48.7352
 30
0.0
 10
178.3372
 20
-47.6081
 30
0.0
 10
174.4008
 20
-46.3879
 30
0.0
 10
174.4008
 20
-46.3879
 30
0.0
 10
174.4008
 20
-46.3879
 30
0.0
 10
172.2396
 20
-44.4153
 30
0.0
 10
172.2396
 20
-44.4153
 30
0.0
 10
172.2396
 20
-44.4153
 30
0.0
 10
172.2396
 20
-44.4153
 30
0.0
 10
171.3947
 20
-43.1008
 30
0.0
 10
173.2744
 20
-43.1944
 30
0.0
  0
SPLINE
  5
73
330
1F
100
AcDbEntity
  8
layer 1
 62
     7
100
AcDbSpline
210
0.0
220
0.0
230
1.0
 70
    11
 71
     3
 72
    36
 73
    32
 74
     0
 42
0.0000000001
 43
0.0000000001
 12
1.0
 22
0.0
 32
0.0
 13
1.0
 23
0.0
 33
0.0
 40
0.0
 40
0.0
 40
0.0
 40
0.0
 40
0.1111111111111111
 40
0.1111111111111111
 40
0.1111111111111111
 40
0.1111111111111111
 40
0.2222222222222222
 40
0.2222222222222222
 40
0.2222222222222222
 40
0.2222222222222222
 40
0.3333333333333333
 40
0.3333333333333333
 40
0.3333333333333333
 40
0.3333333333333333
 40
0.4444444444444444
 40
0.4444444444444444
 40
0.4444444444444444
 40
0.4444444444444444
 40
0.5555555555555556
 40
0.5555555555555556
 40
0.5555555555555556
 40
0.5555555555555556
 40
0.6666666666666666
 40
0.6666666666666666
 40
0.6666666666666666
 40
0.6666666666666666
 40
0.7777777777777778
 40
0.7777777777777778
 40
0.7777777777777778
 40
0.7777777777777778
 40
1.0
 40
1.0
 40
1.0
 40
1.0
 10
181.2451
 20
-37.6541
 30
0.0
 10
181.2451
 20
-37.6541
 30
0.0
 10
184.343
 20
-43.0071
 30
0.0
 10
180.1186
 20
-42.3494
 30
0.0
 10
180.1186
 20
-42.3494
 30
0.0
 10
180.1186
 20
-42.3494
 30
0.0
 10
178.2454
 20
-41.4103
 30
0.0
 10
177.6822
 20
-42.9135
 30
0.0
 10
177.6822
 20
-42.9135
 30
0.0
 10
177.6822
 20
-42.9135
 30
0.0
 10
176.7326
 20
-45.6806
 30
0.0
 10
175.9072
 20
-41.838
 30
0.0
 10
175.9072
 20
-41.838
 30
0.0
 10
175.8745
 20
-41.6756
 30
0.0
 10
175.8418
 20
-41.5026
 30
0.0
 10
175.8091
 20
-41.3167
 30
0.0
 10
175.8091
 20
-41.3167
 30
0.0
 10
174.9642
 20
-36.7151
 30
0.0
 10
175.7109
 20
-39.3446
 30
0.0
 10
175.7109
 20
-39.3446
 30
0.0
 10
175.7109
 20
-39.3446
 30
0.0
 10
175.7109
 20
-39.3446
 30
0.0
 10
175.9925
 20
-36.1517
 30
0.0
 10
177.3089
 20
-39.8143
 30
0.0
 10
177.3089
 20
-39.8143
 30
0.0
 10
177.3089
 20
-39.8143
 30
0.0
 10
180.4984
 20
-42.1622
 30
0.0
 10
180.2168
 20
-37.8422
 30
0.0
 10
180.2168
 20
-37.8422
 30
0.0
 10
180.2168
 20
-37.8422
 30
0.0
 10
179.4636
 20
-35.8701
 30
0.0
 10
181.2451
 20
-37.6541
 30
0.0
  0
SPLINE
  5
74
330
1F
100
AcDbEntity
  8
layer 1
 62
     7
100
AcDbSpline
210
0.0
220
0.0
230
1.0
 70
    11
 71
     3
 72
    20
 73
    16
 74
     0
 42
0.0000000001
 43
0.0000000001
 12
1.0
 22
0.0
 32
0.0
 13
1.0
 23
0.0
 33
0.0
 40
0.0
 40
0.0
 40
0.0
 40
0.0
 40
0.2
 40
0.2
 40
0.2
 40
0.2
 40
0.4
 40
0.4
 40
0.4
 40
0.4
 40
0.6
 40
0.6
 40
0.6
 40
0.6
 40
1.0
 40
1.0
 40
1.0
 40
1.0
 10
182.4633
 20
-30.4235
 30
0.0
 10
182.4633
 20
-30.4235
 30
0.0
 10
190.9122
 20
-28.2636
 30
0.0
 10
186.9693
 20
-31.2677
 30
0.0
 10
186.9693
 20
-31.2677
 30
0.0
 10
186.9693
 20
-31.2677
 30
0.0
 10
185.9345
 20
-33.4285
 30
0.0
 10
186.9693
 20
-34.5549
 30
0.0
 10
186.9693
 20
-34.5549
 30
0.0
 10
186.9693
 20
-34.5549
 30
0.0
 10
185.7512
 20
-36.8087
 30
0.0
 10
182.0899
 20
-34.2733
 30
0.0
 10
182.0899
 20
-34.2733
 30
0.0
 10
182.0899
 20
-34.2733
 30
0.0
 10
188.3775
 20
-32.207
 30
0.0
 10
182.4633
 20
-30.4235
 30
0.0
  0
SPLINE
  5
75
330
1F
100
AcDbEntity
  8
layer 1
 62
     7
100
AcDbSpline
210
0.0
220
0.0
230
1.0
 70
    11
 71
     3
 72
    20
 73
    16
 74
     0
 42
0.0000000001
 43
0.0000000001
 12
1.0
 22
0.0
 32
0.0
 13
1.0
 23
0.0
 33
0.0
 40
0.0
 40
0.0
 40
0.0
 40
0.0
 40
0.2
 40
0.2
 40
0.2
 40
0.2
 40
0.4
 40
0.4
 40
0.4
 40
0.4
 40
0.6
 40
0.6
 40
0.6
 40
0.6
 40
1.0
 40
1.0
 40
1.0
 40
1.0
 10
176.4639
 20
-26.7604
 30
0.0
 10
176.4639
 20
-26.7604
 30
0.0
 10
176.5557
 20
-20.4689
 30
0.0
 10
178.527
 20
-20.9385
 30
0.0
 10
178.527
 20
-20.9385
 30
0.0
 10
178.527
 20
-20.9385
 30
0.0
 10
180.3085
 20
-24.3194
 30
0.0
 10
182.9349
 20
-22.6284
 30
0.0
 10
182.9349
 20
-22.6284
 30
0.0
 10
182.9349
 20
-22.6284
 30
0.0
 10
185.6529
 20
-24.3194
 30
0.0
 10
180.3085
 20
-27.7933
 30
0.0
 10
180.3085
 20
-27.7933
 30
0.0
 10
180.3085
 20
-27.7933
 30
0.0
 10
181.7167
 20
-21.7834
 30
0.0
 10
176.4639
 20
-26.7604
 30
0.0
  0
SPLINE
  5
76
330
1F
100
AcDbEntity
  8
layer 1
 62
     7
100
AcDbSpline
210
0.0
220
0.0
230
1.0
 70
    11
 71
     3
 72
    28
 73
    24
 74
     0
 42
0.0000000001
 43
0.0000000001
 12
1.0
 22
0.0
 32
0.0
 13
1.0
 23
0.0
 33
0.0
 40
0.0
 40
0.0
 40
0.0
 40
0.0
 40
0.1428571428571428
 40
0.1428571428571428
 40
0.1428571428571428
 40
0.1428571428571428
 40
0.2857142857142857
 40
0.2857142857142857
 40
0.2857142857142857
 40
0.2857142857142857
 40
0.4285714285714285
 40
0.4285714285714285
 40
0.4285714285714285
 40
0.4285714285714285
 40
0.5714285714285714
 40
0.5714285714285714
 40
0.5714285714285714
 40
0.5714285714285714
 40
0.7142857142857143
 40
0.7142857142857143
 40
0.7142857142857143
 40
0.7142857142857143
 40
1.0
 40
1.0
 40
1.0
 40
1.0
 10
168.3034
 20
-26.5731
 30
0.0
 10
168.3034
 20
-26.5731
 30
0.0
 10
164.8321
 20
-28.5452
 30
0.0
 10
168.395
 20
-29.8596
 30
0.0
 10
168.395
 20
-29.8596
 30
0.0
 10
168.395
 20
-29.8596
 30
0.0
 10
174.211
 20
-33.2405
 30
0.0
 10
169.9931
 20
-29.2964
 30
0.0
 10
169.9931
 20
-29.2964
 30
0.0
 10
169.9931
 20
-29.2964
 30
0.0
 10
168.9582
 20
-25.3522
 30
0.0
 10
172.5212
 20
-27.4179
 30
0.0
 10
172.5212
 20
-27.4179
 30
0.0
 10
172.5212
 20
-27.4179
 30
0.0
 10
175.9925
 20
-29.1084
 30
0.0
 10
172.4295
 20
-25.1644
 30
0.0
 10
172.4295
 20
-25.1644
 30
0.0
 10
172.4295
 20
-25.1644
 30
0.0
 10
170.6481
 20
-22.0651
 30
0.0
 10
168.9582
 20
-25.0706
 30
0.0
 10
168.9582
 20
-25.0706
 30
0.0
 10
168.9582
 20
-25.0706
 30
0.0
 10
169.3316
 20
-27.1363
 30
0.0
 10
168.3034
 20
-26.5731
 30
0.0
  0
SPLINE
  5
77
330
1F
100
AcDbEntity
  8
layer 1
 62
     7
100
AcDbSpline
210
0.0
220
0.0
230
1.0
 70
    11
 71
     3
 72
    28
 73
    24
 74
     0
 42
0.0000000001
 43
0.0000000001
 12
1.0
 22
0.0
 32
0.0
 13
1.0
 23
0.0
 33
0.0
 40
0.0
 40
0.0
 40
0.0
 40
0.0
 40
0.1428571428571428
 40
0.1428571428571428
 40
0.1428571428571428
 40
0.1428571428571428
 40
0.2857142857142857
 40
0.2857142857142857
 40
0.2857142857142857
 40
0.2857142857142857
 40
0.4285714285714285
 40
0.4285714285714285
 40
0.4285714285714285
 40
0.4285714285714285
 40
0.5714285714285714
 40
0.5714285714285714
 40
0.5714285714285714
 40
0.5714285714285714
 40
0.7142857142857143
 40
0.7142857142857143
 40
0.7142857142857143
 40
0.7142857142857143
 40
1.0
 40
1.0
 40
1.0
 40
1.0
 10
171.0213
 20
-33.7101
 30
0.0
 10
171.0213
 20
-33.7101
 30
0.0
 10
166.9868
 20
-33.8037
 30
0.0
 10
165.6769
 20
-36.9967
 30
0.0
 10
165.6769
 20
-36.9967
 30
0.0
 10
165.6769
 20
-36.9967
 30
0.0
 10
168.395
 20
-36.7151
 30
0.0
 10
168.6766
 20
-40.6591
 30
0.0
 10
168.6766
 20
-40.6591
 30
0.0
 10
168.6766
 20
-40.6591
 30
0.0
 10
168.395
 20
-42.3494
 30
0.0
 10
172.2396
 20
-38.9686
 30
0.0
 10
172.2396
 20
-38.9686
 30
0.0
 10
172.2396
 20
-38.9686
 30
0.0
 10
175.2458
 20
-36.6213
 30
0.0
 10
171.3947
 20
-37.8422
 30
0.0
 10
171.3947
 20
-37.8422
 30
0.0
 10
171.3947
 20
-37.8422
 30
0.0
 10
167.1768
 20
-36.6213
 30
0.0
 10
170.5563
 20
-34.5549
 30
0.0
 10
170.5563
 20
-34.5549
 30
0.0
 10
170.5563
 20
-34.5549
 30
0.0
 10
171.0213
 20
-33.7101
 30
0.0
 10
171.0213
 20
-33.7101
 30
0.0
  0
SPLINE
  5
78
330
1F
100
AcDbEntity
  8
layer 1
 62
     7
100
AcDbSpline
210
0.0
220
0.0
230
1.0
 70
    11
 71
     3
 72
   160
 73
   156
 74
     0
 42
0.0000000001
 43
0.0000000001
 12
1.0
 22
0.0
 32
0.0
 13
1.0
 23
0.0
 33
0.0
 40
0.0
 40
0.0
 40
0.0
 40
0.0
 40
0.025
 40
0.025
 40
0.025
 40
0.025
 40
0.05
 40
0.05
 40
0.05
 40
0.05
 40
0.075
 40
0.075
 40
0.075
 40
0.075
 40
0.1
 40
0.1
 40
0.1
 40
0.1
 40
0.125
 40
0.125
 40
0.125
 40
0.125
 40
0.15
 40
0.15
 40
0.15
 40
0.15
 40
0.175
 40
0.175
 40
0.175
 40
0.175
 40
0.2
 40
0.2
 40
0.2
 40
0.2
 40
0.225
 40
0.225
 40
0.225
 40
0.225
 40
0.25
 40
0.25
 40
0.25
 40
0.25
 40
0.275
 40
0.275
 40
0.275
 40
0.275
 40
0.3
 40
0.3
 40
0.3
 40
0.3
 40
0.325
 40
0.325
 40
0.325
 40
0.325
 40
0.35
 40
0.35
 40
0.35
 40
0.35
 40
0.375
 40
0.375
 40
0.375
 40
0.375
 40
0.4
 40
0.4
 40
0.4
 40
0.4
 40
0.425
 40
0.425
 40
0.425
 40
0.425
 40
0.45
 40
0.45
 40
0.45
 40
0.45
 40
0.475
 40
0.475
 40
0.475
 40
0.475
 40
0.5
 40
0.5
 40
0.5
 40
0.5
 40
0.525
 40
0.525
 40
0.525
 40
0.525
 40
0.55
 40
0.55
 40
0.55
 40
0.55
 40
0.575
 40
0.575
 40
0.575
 40
0.575
 40
0.6
 40
0.6
 40
0.6
 40
0.6
 40
0.625
 40
0.625
 40
0.625
 40
0.625
 40
0.65
 40
0.65
 40
0.65
 40
0.65
 40
0.675
 40
0.675
 40
0.675
 40
0.675
 40
0.7
 40
0.7
 40
0.7
 40
0.7
 40
0.725
 40
0.725
 40
0.725
 40
0.725
 40
0.75
 40
0.75
 40
0.75
 40
0.75
 40
0.775
 40
0.775
 40
0.775
 40
0.775
 40
0.8
 40
0.8
 40
0.8
 40
0.8
 40
0.825
 40
0.825
 40
0.825
 40
0.825
 40
0.85
 40
0.85
 40
0.85
 40
0.85
 40
0.875
 40
0.875
 40
0.875
 40
0.875
 40
0.9
 40
0.9
 40
0.9
 40
0.9
 40
0.925
 40
0.925
 40
0.925
 40
0.925
 40
0.95
 40
0.95
 40
0.95
 40
0.95
 40
1.0
 40
1.0
 40
1.0
 40
1.0
 10
138.6603
 20
-58.0325
 30
0.0
 10
138.6603
 20
-58.0325
 30
0.0
 10
136.2238
 20
-50.4259
 30
0.0
 10
130.218
 20
-44.4153
 30
0.0
 10
130.218
 20
-44.4153
 30
0.0
 10
130.218
 20
-44.4153
 30
0.0
 10
132.4711
 20
-40.0959
 30
0.0
 10
132.1895
 20
-30.0477
 30
0.0
 10
132.1895
 20
-30.0477
 30
0.0
 10
132.1895
 20
-30.0477
 30
0.0
 10
127.7751
 20
-19.9994
 30
0.0
 10
131.8095
 20
-13.144
 30
0.0
 10
131.8095
 20
-13.144
 30
0.0
 10
131.8095
 20
-13.144
 30
0.0
 10
136.7807
 20
-6.8519
 30
0.0
 10
140.4418
 20
-5.0678
 30
0.0
 10
140.4418
 20
-5.0678
 30
0.0
 10
140.4418
 20
-5.0678
 30
0.0
 10
148.1309
 20
0.0034
 30
0.0
 10
136.034
 20
-3.9407
 30
0.0
 10
136.034
 20
-3.9407
 30
0.0
 10
136.034
 20
-3.9407
 30
0.0
 10
124.8736
 20
-11.1719
 30
0.0
 10
123.6488
 20
-19.8114
 30
0.0
 10
123.6488
 20
-19.8114
 30
0.0
 10
123.6488
 20
-19.8114
 30
0.0
 10
121.9657
 20
-28.8399
 30
0.0
 10
122.4307
 20
-32.0203
 30
0.0
 10
122.4307
 20
-32.0203
 30
0.0
 10
122.457
 20
-32.1952
 30
0.0
 10
122.483
 20
-32.3524
 30
0.0
 10
122.5224
 20
-32.4892
 30
0.0
 10
122.5224
 20
-32.4892
 30
0.0
 10
123.2756
 20
-35.1188
 30
0.0
 10
120.7409
 20
-33.2405
 30
0.0
 10
120.2759
 20
-26.5731
 30
0.0
 10
120.2759
 20
-26.5731
 30
0.0
 10
120.2759
 20
-26.5731
 30
0.0
 10
120.2759
 20
-21.8778
 30
0.0
 10
121.1207
 20
-21.6898
 30
0.0
 10
121.1207
 20
-21.6898
 30
0.0
 10
121.1207
 20
-21.6898
 30
0.0
 10
114.8333
 20
-21.4082
 30
0.0
 10
112.8618
 20
-21.8778
 30
0.0
 10
112.8618
 20
-21.8778
 30
0.0
 10
112.8618
 20
-21.8778
 30
0.0
 10
112.017
 20
-19.9057
 30
0.0
 10
117.178
 20
-19.9057
 30
0.0
 10
117.178
 20
-19.9057
 30
0.0
 10
117.178
 20
-19.9057
 30
0.0
 10
124.402
 20
-18.0273
 30
0.0
 10
120.4593
 20
-13.2376
 30
0.0
 10
120.4593
 20
-13.2376
 30
0.0
 10
120.4593
 20
-13.2376
 30
0.0
 10
125.6203
 20
-10.5145
 30
0.0
 10
124.9652
 20
-5.6312
 30
0.0
 10
124.9652
 20
-5.6312
 30
0.0
 10
124.9652
 20
-5.6312
 30
0.0
 10
119.8961
 20
-8.167
 30
0.0
 10
112.7702
 20
-8.5423
 30
0.0
 10
112.7702
 20
-8.5423
 30
0.0
 10
112.7702
 20
-8.5423
 30
0.0
 10
104.4195
 20
-10.7023
 30
0.0
 10
106.201
 20
-22.7226
 30
0.0
 10
106.201
 20
-22.7226
 30
0.0
 10
106.201
 20
-22.7226
 30
0.0
 10
107.3276
 20
-29.4843
 30
0.0
 10
115.0232
 20
-34.931
 30
0.0
 10
115.0232
 20
-34.931
 30
0.0
 10
115.0232
 20
-34.931
 30
0.0
 10
117.4596
 20
-37.8422
 30
0.0
 10
111.6437
 20
-33.8037
 30
0.0
 10
111.6437
 20
-33.8037
 30
0.0
 10
111.6437
 20
-33.8037
 30
0.0
 10
102.4482
 20
-28.8268
 30
0.0
 10
103.3912
 20
-15.2097
 30
0.0
 10
103.3912
 20
-15.2097
 30
0.0
 10
103.3912
 20
-15.2097
 30
0.0
 10
104.2362
 20
-8.4487
 30
0.0
 10
111.3621
 20
-5.3494
 30
0.0
 10
111.3621
 20
-5.3494
 30
0.0
 10
111.3621
 20
-5.3494
 30
0.0
 10
121.8673
 20
-5.6312
 30
0.0
 10
123.1838
 20
-0.5605
 30
0.0
 10
123.1838
 20
-0.5605
 30
0.0
 10
123.1838
 20
-0.5605
 30
0.0
 10
129.7464
 20
-7.0399
 30
0.0
 10
132.6545
 20
0.285
 30
0.0
 10
132.6545
 20
0.285
 30
0.0
 10
132.6545
 20
0.285
 30
0.0
 10
145.0395
 20
-3.659
 30
0.0
 10
146.166
 20
11.5541
 30
0.0
 10
146.166
 20
11.5541
 30
0.0
 10
146.166
 20
11.5541
 30
0.0
 10
146.631
 20
13.4326
 30
0.0
 10
139.9702
 20
6.7645
 30
0.0
 10
139.9702
 20
6.7645
 30
0.0
 10
139.9702
 20
6.7645
 30
0.0
 10
136.6889
 20
3.3837
 30
0.0
 10
128.4365
 20
5.6379
 30
0.0
 10
128.4365
 20
5.6379
 30
0.0
 10
128.4365
 20
5.6379
 30
0.0
 10
123.8388
 20
5.9195
 30
0.0
 10
128.4365
 20
6.7645
 30
0.0
 10
128.4365
 20
6.7645
 30
0.0
 10
128.4365
 20
6.7645
 30
0.0
 10
145.3212
 20
9.5821
 30
0.0
 10
150.1023
 20
17.4702
 30
0.0
 10
150.1023
 20
17.4702
 30
0.0
 10
150.1023
 20
17.4702
 30
0.0
 10
150.7572
 20
12.0237
 30
0.0
 10
156.4816
 20
10.8966
 30
0.0
 10
156.4816
 20
10.8966
 30
0.0
 10
156.4816
 20
10.8966
 30
0.0
 10
145.6028
 20
2.1635
 30
0.0
 10
155.7349
 20
-1.4997
 30
0.0
 10
155.7349
 20
-1.4997
 30
0.0
 10
155.7349
 20
-1.4997
 30
0.0
 10
158.6428
 20
-1.7814
 30
0.0
 10
153.2919
 20
-3.2837
 30
0.0
 10
153.2919
 20
-3.2837
 30
0.0
 10
153.2919
 20
-3.2837
 30
0.0
 10
146.7294
 20
-3.9407
 30
0.0
 10
142.0333
 20
-21.4082
 30
0.0
 10
142.0333
 20
-21.4082
 30
0.0
 10
142.0333
 20
-21.4082
 30
0.0
 10
141.4766
 20
-27.5123
 30
0.0
 10
139.6886
 20
-22.253
 30
0.0
 10
139.6886
 20
-22.253
 30
0.0
 10
139.6886
 20
-22.253
 30
0.0
 10
137.3439
 20
-16.9001
 30
0.0
 10
131.4363
 20
-20.2811
 30
0.0
 10
131.4363
 20
-20.2811
 30
0.0
 10
131.4363
 20
-20.2811
 30
0.0
 10
135.379
 20
-20.093
 30
0.0
 10
136.4991
 20
-24.1315
 30
0.0
 10
136.4991
 20
-24.1315
 30
0.0
 10
136.4991
 20
-24.1315
 30
0.0
 10
136.7807
 20
-26.1972
 30
0.0
 10
134.9074
 20
-28.9204
 30
0.0
 10
134.9074
 20
-28.9204
 30
0.0
 10
134.9074
 20
-28.9204
 30
0.0
 10
131.4363
 20
-36.9029
 30
0.0
 10
137.3439
 20
-42.3494
 30
0.0
 10
137.3439
 20
-42.3494
 30
0.0
 10
137.3439
 20
-42.3494
 30
0.0
 10
131.3445
 20
-47.7024
 30
0.0
 10
138.5687
 20
-52.4917
 30
0.0
 10
138.5687
 20
-52.4917
 30
0.0
 10
138.5687
 20
-52.4917
 30
0.0
 10
140.5334
 20
-58.8775
 30
0.0
 10
140.5334
 20
-58.8775
 30
0.0
 10
140.5334
 20
-58.8775
 30
0.0
 10
140.5334
 20
-58.8775
 30
0.0
 10
141.5682
 20
-64.4183
 30
0.0
 10
138.6603
 20
-58.0325
 30
0.0
  0
SPLINE
  5
79
330
1F
100
AcDbEntity
  8
layer 1
 62
     7
100
AcDbSpline
210
0.0
220
0.0
230
1.0
 70
    11
 71
     3
 72
   116
 73
   112
 74
     0
 42
0.0000000001
 43
0.0000000001
 12
1.0
 22
0.0
 32
0.0
 13
1.0
 23
0.0
 33
0.0
 40
0.0
 40
0.0
 40
0.0
 40
0.0
 40
0.0344827586206897
 40
0.0344827586206897
 40
0.0344827586206897
 40
0.0344827586206897
 40
0.0689655172413793
 40
0.0689655172413793
 40
0.0689655172413793
 40
0.0689655172413793
 40
0.103448275862069
 40
0.103448275862069
 40
0.103448275862069
 40
0.103448275862069
 40
0.1379310344827586
 40
0.1379310344827586
 40
0.1379310344827586
 40
0.1379310344827586
 40
0.1724137931034483
 40
0.1724137931034483
 40
0.1724137931034483
 40
0.1724137931034483
 40
0.2068965517241379
 40
0.2068965517241379
 40
0.2068965517241379
 40
0.2068965517241379
 40
0.2413793103448276
 40
0.2413793103448276
 40
0.2413793103448276
 40
0.2413793103448276
 40
0.2758620689655172
 40
0.2758620689655172
 40
0.2758620689655172
 40
0.2758620689655172
 40
0.3103448275862069
 40
0.3103448275862069
 40
0.3103448275862069
 40
0.3103448275862069
 40
0.3448275862068966
 40
0.3448275862068966
 40
0.3448275862068966
 40
0.3448275862068966
 40
0.3793103448275862
 40
0.3793103448275862
 40
0.3793103448275862
 40
0.3793103448275862
 40
0.4137931034482759
 40
0.4137931034482759
 40
0.4137931034482759
 40
0.4137931034482759
 40
0.4482758620689655
 40
0.4482758620689655
 40
0.4482758620689655
 40
0.4482758620689655
 40
0.4827586206896552
 40
0.4827586206896552
 40
0.4827586206896552
 40
0.4827586206896552
 40
0.5172413793103449
 40
0.5172413793103449
 40
0.5172413793103449
 40
0.5172413793103449
 40
0.5517241379310345
 40
0.5517241379310345
 40
0.5517241379310345
 40
0.5517241379310345
 40
0.5862068965517241
 40
0.5862068965517241
 40
0.5862068965517241
 40
0.5862068965517241
 40
0.6206896551724138
 40
0.6206896551724138
 40
0.6206896551724138
 40
0.6206896551724138
 40
0.6551724137931034
 40
0.6551724137931034
 40
0.6551724137931034
 40
0.6551724137931034
 40
0.6896551724137931
 40
0.6896551724137931
 40
0.6896551724137931
 40
0.6896551724137931
 40
0.7241379310344828
 40
0.7241379310344828
 40
0.7241379310344828
 40
0.7241379310344828
 40
0.7586206896551724
 40
0.7586206896551724
 40
0.7586206896551724
 40
0.7586206896551724
 40
0.7931034482758621
 40
0.7931034482758621
 40
0.7931034482758621
 40
0.7931034482758621
 40
0.8275862068965517
 40
0.8275862068965517
 40
0.8275862068965517
 40
0.8275862068965517
 40
0.8620689655172413
 40
0.8620689655172413
 40
0.8620689655172413
 40
0.8620689655172413
 40
0.896551724137931
 40
0.896551724137931
 40
0.896551724137931
 40
0.896551724137931
 40
0.9310344827586207
 40
0.9310344827586207
 40
0.9310344827586207
 40
0.9310344827586207
 40
1.0
 40
1.0
 40
1.0
 40
1.0
 10
144.4763
 20
-58.3141
 30
0.0
 10
144.4763
 20
-58.3141
 30
0.0
 10
140.7955
 20
-47.9938
 30
0.0
 10
143.0027
 20
-32.3727
 30
0.0
 10
143.0027
 20
-32.3727
 30
0.0
 10
143.0224
 20
-32.224
 30
0.0
 10
143.0484
 20
-32.0753
 30
0.0
 10
143.0681
 20
-31.926
 30
0.0
 10
143.0681
 20
-31.926
 30
0.0
 10
143.0681
 20
-31.926
 30
0.0
 10
148.3209
 20
-14.0831
 30
0.0
 10
160.7059
 20
-22.6284
 30
0.0
 10
160.7059
 20
-22.6284
 30
0.0
 10
160.7059
 20
-22.6284
 30
0.0
 10
165.5787
 20
-24.3194
 30
0.0
 10
161.2691
 20
-32.9589
 30
0.0
 10
161.2691
 20
-32.9589
 30
0.0
 10
161.2691
 20
-32.9589
 30
0.0
 10
159.3895
 20
-37.6541
 30
0.0
 10
153.9469
 20
-33.7101
 30
0.0
 10
153.9469
 20
-33.7101
 30
0.0
 10
153.9469
 20
-33.7101
 30
0.0
 10
150.2005
 20
-29.1084
 30
0.0
 10
155.355
 20
-26.9485
 30
0.0
 10
155.355
 20
-26.9485
 30
0.0
 10
155.355
 20
-26.9485
 30
0.0
 10
153.7635
 20
-31.2677
 30
0.0
 10
156.8548
 20
-32.1134
 30
0.0
 10
156.8548
 20
-32.1134
 30
0.0
 10
156.8548
 20
-32.1134
 30
0.0
 10
160.0443
 20
-33.7101
 30
0.0
 10
161.5508
 20
-29.39
 30
0.0
 10
161.5508
 20
-29.39
 30
0.0
 10
161.5508
 20
-29.39
 30
0.0
 10
163.234
 20
-23.1923
 30
0.0
 10
157.2346
 20
-23.0042
 30
0.0
 10
157.2346
 20
-23.0042
 30
0.0
 10
157.2346
 20
-23.0042
 30
0.0
 10
149.7289
 20
-21.4082
 30
0.0
 10
148.5107
 20
-31.4564
 30
0.0
 10
148.5107
 20
-31.4564
 30
0.0
 10
148.5107
 20
-31.4564
 30
0.0
 10
147.6659
 20
-38.1238
 30
0.0
 10
155.4531
 20
-39.8143
 30
0.0
 10
155.4531
 20
-39.8143
 30
0.0
 10
155.4531
 20
-39.8143
 30
0.0
 10
160.8893
 20
-41.1287
 30
0.0
 10
163.234
 20
-37.6541
 30
0.0
 10
163.234
 20
-37.6541
 30
0.0
 10
163.234
 20
-37.6541
 30
0.0
 10
163.3322
 20
-40.4711
 30
0.0
 10
165.8603
 20
-40.4711
 30
0.0
 10
165.8603
 20
-40.4711
 30
0.0
 10
165.8603
 20
-40.4711
 30
0.0
 10
166.2403
 20
-43.5703
 30
0.0
 10
167.5502
 20
-43.9457
 30
0.0
 10
167.5502
 20
-43.9457
 30
0.0
 10
167.5502
 20
-43.9457
 30
0.0
 10
168.4866
 20
-45.824
 30
0.0
 10
165.0221
 20
-42.6312
 30
0.0
 10
165.0221
 20
-42.6312
 30
0.0
 10
165.0221
 20
-42.6312
 30
0.0
 10
162.114
 20
-41.5046
 30
0.0
 10
165.2053
 20
-48.172
 30
0.0
 10
165.2053
 20
-48.172
 30
0.0
 10
165.2053
 20
-48.172
 30
0.0
 10
169.0499
 20
-53.9944
 30
0.0
 10
178.9986
 20
-53.7126
 30
0.0
 10
178.9986
 20
-53.7126
 30
0.0
 10
178.9986
 20
-53.7126
 30
0.0
 10
186.7795
 20
-53.8065
 30
0.0
 10
192.9753
 20
-44.3215
 30
0.0
 10
192.9753
 20
-44.3215
 30
0.0
 10
192.9753
 20
-44.3215
 30
0.0
 10
193.3485
 20
-49.2993
 30
0.0
 10
193.3485
 20
-49.2993
 30
0.0
 10
193.3485
 20
-49.2993
 30
0.0
 10
193.3485
 20
-49.2993
 30
0.0
 10
186.1245
 20
-59.1591
 30
0.0
 10
169.8949
 20
-53.1491
 30
0.0
 10
169.8949
 20
-53.1491
 30
0.0
 10
169.8949
 20
-53.1491
 30
0.0
 10
162.114
 20
-50.3318
 30
0.0
 10
156.953
 20
-54.276
 30
0.0
 10
156.953
 20
-54.276
 30
0.0
 10
156.953
 20
-54.276
 30
0.0
 10
162.8606
 20
-44.9792
 30
0.0
 10
153.1084
 20
-43.8519
 30
0.0
 10
153.1084
 20
-43.8519
 30
0.0
 10
153.1084
 20
-43.8519
 30
0.0
 10
148.7925
 20
-43.4767
 30
0.0
 10
148.1309
 20
-49.0168
 30
0.0
 10
148.1309
 20
-49.0168
 30
0.0
 10
148.1309
 20
-49.0168
 30
0.0
 10
153.3901
 20
-50.7073
 30
0.0
 10
155.355
 20
-50.2379
 30
0.0
 10
155.355
 20
-50.2379
 30
0.0
 10
155.355
 20
-50.2379
 30
0.0
 10
154.8899
 20
-54.4638
 30
0.0
 10
153.1084
 20
-51.7403
 30
0.0
 10
153.1084
 20
-51.7403
 30
0.0
 10
153.1084
 20
-51.7403
 30
0.0
 10
150.2005
 20
-53.5246
 30
0.0
 10
148.1309
 20
-53.243
 30
0.0
 10
148.1309
 20
-53.243
 30
0.0
 10
148.1309
 20
-53.243
 30
0.0
 10
145.4128
 20
-54.5576
 30
0.0
 10
144.8496
 20
-57.8445
 30
0.0
 10
144.8496
 20
-57.8445
 30
0.0
 10
144.2863
 20
-61.1316
 30
0.0
 10
144.4763
 20
-58.3141
 30
0.0
 10
144.4763
 20
-58.3141
 30
0.0
  0
SPLINE
  5
7A
330
1F
100
AcDbEntity
  8
layer 1
 62
     7
100
AcDbSpline
210
0.0
220
0.0
230
1.0
 70
    11
 71
     3
 72
    16
 73
    12
 74
     0
 42
0.0000000001
 43
0.0000000001
 12
1.0
 22
0.0
 32
0.0
 13
1.0
 23
0.0
 33
0.0
 40
0.0
 40
0.0
 40
0.0
 40
0.0
 40
0.25
 40
0.25
 40
0.25
 40
0.25
 40
0.5
 40
0.5
 40
0.5
 40
0.5
 40
1.0
 40
1.0
 40
1.0
 40
1.0
 10
191.5671
 20
-77.1897
 30
0.0
 10
191.5671
 20
-77.1897
 30
0.0
 10
191.5671
 20
-81.5096
 30
0.0
 10
191.5671
 20
-81.5096
 30
0.0
 10
191.5671
 20
-81.5096
 30
0.0
 10
191.5671
 20
-81.5096
 30
0.0
 10
190.0674
 20
-83.5755
 30
0.0
 10
190.2506
 20
-79.0679
 30
0.0
 10
190.2506
 20
-79.0679
 30
0.0
 10
190.2506
 20
-79.0679
 30
0.0
 10
190.9122
 20
-76.814
 30
0.0
 10
191.5671
 20
-77.1897
 30
0.0
  0
SPLINE
  5
7B
330
1F
100
AcDbEntity
  8
layer 1
 62
     7
100
AcDbSpline
210
0.0
220
0.0
230
1.0
 70
    11
 71
     3
 72
    48
 73
    44
 74
     0
 42
0.0000000001
 43
0.0000000001
 12
1.0
 22
0.0
 32
0.0
 13
1.0
 23
0.0
 33
0.0
 40
0.0
 40
0.0
 40
0.0
 40
0.0
 40
0.0833333333333333
 40
0.0833333333333333
 40
0.0833333333333333
 40
0.0833333333333333
 40
0.1666666666666667
 40
0.1666666666666667
 40
0.1666666666666667
 40
0.1666666666666667
 40
0.25
 40
0.25
 40
0.25
 40
0.25
 40
0.3333333333333333
 40
0.3333333333333333
 40
0.3333333333333333
 40
0.3333333333333333
 40
0.4166666666666667
 40
0.4166666666666667
 40
0.4166666666666667
 40
0.4166666666666667
 40
0.5
 40
0.5
 40
0.5
 40
0.5
 40
0.5833333333333334
 40
0.5833333333333334
 40
0.5833333333333334
 40
0.5833333333333334
 40
0.6666666666666666
 40
0.6666666666666666
 40
0.6666666666666666
 40
0.6666666666666666
 40
0.75
 40
0.75
 40
0.75
 40
0.75
 40
0.8333333333333334
 40
0.8333333333333334
 40
0.8333333333333334
 40
0.8333333333333334
 40
1.0
 40
1.0
 40
1.0
 40
1.0
 10
171.3947
 20
-106.4894
 30
0.0
 10
171.3947
 20
-106.4894
 30
0.0
 10
175.5274
 20
-111.5603
 30
0.0
 10
176.1823
 20
-112.0298
 30
0.0
 10
176.1823
 20
-112.0298
 30
0.0
 10
176.1823
 20
-112.0298
 30
0.0
 10
192.9753
 20
-112.0298
 30
0.0
 10
192.9753
 20
-112.0298
 30
0.0
 10
192.9753
 20
-112.0298
 30
0.0
 10
192.9753
 20
-112.0298
 30
0.0
 10
193.0669
 20
-99.2586
 30
0.0
 10
193.0669
 20
-99.2586
 30
0.0
 10
193.0669
 20
-99.2586
 30
0.0
 10
193.0669
 20
-99.2586
 30
0.0
 10
188.3775
 20
-102.9205
 30
0.0
 10
186.4061
 20
-103.3903
 30
0.0
 10
186.4061
 20
-103.3903
 30
0.0
 10
186.4061
 20
-103.3903
 30
0.0
 10
184.533
 20
-105.1746
 30
0.0
 10
182.6533
 20
-105.0806
 30
0.0
 10
182.6533
 20
-105.0806
 30
0.0
 10
182.6533
 20
-105.0806
 30
0.0
 10
184.2514
 20
-106.959
 30
0.0
 10
184.2514
 20
-106.959
 30
0.0
 10
184.2514
 20
-106.959
 30
0.0
 10
184.2514
 20
-106.959
 30
0.0
 10
186.9693
 20
-111.4664
 30
0.0
 10
182.0899
 20
-107.8979
 30
0.0
 10
182.0899
 20
-107.8979
 30
0.0
 10
182.0899
 20
-107.8979
 30
0.0
 10
177.4923
 20
-105.7379
 30
0.0
 10
179.372
 20
-108.5552
 30
0.0
 10
179.372
 20
-108.5552
 30
0.0
 10
179.372
 20
-108.5552
 30
0.0
 10
178.6188
 20
-111.9359
 30
0.0
 10
175.4293
 20
-108.0858
 30
0.0
 10
175.4293
 20
-108.0858
 30
0.0
 10
175.4293
 20
-108.0858
 30
0.0
 10
174.7742
 20
-109.7761
 30
0.0
 10
173.1828
 20
-107.7099
 30
0.0
 10
173.1828
 20
-107.7099
 30
0.0
 10
173.1828
 20
-107.7099
 30
0.0
 10
171.3947
 20
-106.4894
 30
0.0
 10
171.3947
 20
-106.4894
 30
0.0
  0
SPLINE
  5
7C
330
1F
100
AcDbEntity
  8
layer 1
 62
     7
100
AcDbSpline
210
0.0
220
0.0
230
1.0
 70
    11
 71
     3
 72
    28
 73
    24
 74
     0
 42
0.0000000001
 43
0.0000000001
 12
1.0
 22
0.0
 32
0.0
 13
1.0
 23
0.0
 33
0.0
 40
0.0
 40
0.0
 40
0.0
 40
0.0
 40
0.1428571428571428
 40
0.1428571428571428
 40
0.1428571428571428
 40
0.1428571428571428
 40
0.2857142857142857
 40
0.2857142857142857
 40
0.2857142857142857
 40
0.2857142857142857
 40
0.4285714285714285
 40
0.4285714285714285
 40
0.4285714285714285
 40
0.4285714285714285
 40
0.5714285714285714
 40
0.5714285714285714
 40
0.5714285714285714
 40
0.5714285714285714
 40
0.7142857142857143
 40
0.7142857142857143
 40
0.7142857142857143
 40
0.7142857142857143
 40
1.0
 40
1.0
 40
1.0
 40
1.0
 10
193.1587
 20
-87.9893
 30
0.0
 10
193.1587
 20
-87.9893
 30
0.0
 10
189.6874
 20
-89.2102
 30
0.0
 10
189.0324
 20
-92.9664
 30
0.0
 10
189.0324
 20
-92.9664
 30
0.0
 10
189.0324
 20
-92.9664
 30
0.0
 10
183.4982
 20
-99.9157
 30
0.0
 10
178.527
 20
-101.0425
 30
0.0
 10
178.527
 20
-101.0425
 30
0.0
 10
178.527
 20
-101.0425
 30
0.0
 10
182.4633
 20
-100.7609
 30
0.0
 10
183.7798
 20
-99.6338
 30
0.0
 10
183.7798
 20
-99.6338
 30
0.0
 10
183.7798
 20
-99.6338
 30
0.0
 10
186.1245
 20
-95.502
 30
0.0
 10
191.1873
 20
-95.2201
 30
0.0
 10
191.1873
 20
-95.2201
 30
0.0
 10
191.1873
 20
-95.2201
 30
0.0
 10
193.0669
 20
-95.0326
 30
0.0
 10
193.0669
 20
-95.0326
 30
0.0
 10
193.0669
 20
-95.0326
 30
0.0
 10
193.0669
 20
-95.0326
 30
0.0
 10
193.1587
 20
-87.9893
 30
0.0
 10
193.1587
 20
-87.9893
 30
0.0
  0
SPLINE
  5
7D
330
1F
100
AcDbEntity
  8
layer 1
 62
     7
100
AcDbSpline
210
0.0
220
0.0
230
1.0
 70
    11
 71
     3
 72
   160
 73
   156
 74
     0
 42
0.0000000001
 43
0.0000000001
 12
1.0
 22
0.0
 32
0.0
 13
1.0
 23
0.0
 33
0.0
 40
0.0
 40
0.0
 40
0.0
 40
0.0
 40
0.025
 40
0.025
 40
0.025
 40
0.025
 40
0.05
 40
0.05
 40
0.05
 40
0.05
 40
0.075
 40
0.075
 40
0.075
 40
0.075
 40
0.1
 40
0.1
 40
0.1
 40
0.1
 40
0.125
 40
0.125
 40
0.125
 40
0.125
 40
0.15
 40
0.15
 40
0.15
 40
0.15
 40
0.175
 40
0.175
 40
0.175
 40
0.175
 40
0.2
 40
0.2
 40
0.2
 40
0.2
 40
0.225
 40
0.225
 40
0.225
 40
0.225
 40
0.25
 40
0.25
 40
0.25
 40
0.25
 40
0.275
 40
0.275
 40
0.275
 40
0.275
 40
0.3
 40
0.3
 40
0.3
 40
0.3
 40
0.325
 40
0.325
 40
0.325
 40
0.325
 40
0.35
 40
0.35
 40
0.35
 40
0.35
 40
0.375
 40
0.375
 40
0.375
 40
0.375
 40
0.4
 40
0.4
 40
0.4
 40
0.4
 40
0.425
 40
0.425
 40
0.425
 40
0.425
 40
0.45
 40
0.45
 40
0.45
 40
0.45
 40
0.475
 40
0.475
 40
0.475
 40
0.475
 40
0.5
 40
0.5
 40
0.5
 40
0.5
 40
0.525
 40
0.525
 40
0.525
 40
0.525
 40
0.55
 40
0.55
 40
0.55
 40
0.55
 40
0.575
 40
0.575
 40
0.575
 40
0.575
 40
0.6
 40
0.6
 40
0.6
 40
0.6
 40
0.625
 40
0.625
 40
0.625
 40
0.625
 40
0.65
 40
0.65
 40
0.65
 40
0.65
 40
0.675
 40
0.675
 40
0.675
 40
0.675
 40
0.7
 40
0.7
 40
0.7
 40
0.7
 40
0.725
 40
0.725
 40
0.725
 40
0.725
 40
0.75
 40
0.75
 40
0.75
 40
0.75
 40
0.775
 40
0.775
 40
0.775
 40
0.775
 40
0.8
 40
0.8
 40
0.8
 40
0.8
 40
0.825
 40
0.825
 40
0.825
 40
0.825
 40
0.85
 40
0.85
 40
0.85
 40
0.85
 40
0.875
 40
0.875
 40
0.875
 40
0.875
 40
0.9
 40
0.9
 40
0.9
 40
0.9
 40
0.925
 40
0.925
 40
0.925
 40
0.925
 40
0.95
 40
0.95
 40
0.95
 40
0.95
 40
1.0
 40
1.0
 40
1.0
 40
1.0
 10
143.8213
 20
-84.7964
 30
0.0
 10
143.8213
 20
-84.7964
 30
0.0
 10
151.4188
 20
-82.2609
 30
0.0
 10
152.447
 20
-71.743
 30
0.0
 10
152.447
 20
-71.743
 30
0.0
 10
152.447
 20
-71.743
 30
0.0
 10
152.7286
 20
-67.2356
 30
0.0
 10
158.6428
 20
-65.5449
 30
0.0
 10
158.6428
 20
-65.5449
 30
0.0
 10
158.6428
 20
-65.5449
 30
0.0
 10
156.1998
 20
-67.1416
 30
0.0
 10
156.1998
 20
-70.8041
 30
0.0
 10
156.1998
 20
-70.8041
 30
0.0
 10
156.1998
 20
-70.8041
 30
0.0
 10
161.9242
 20
-71.3675
 30
0.0
 10
163.234
 20
-72.87
 30
0.0
 10
163.234
 20
-72.87
 30
0.0
 10
163.234
 20
-72.87
 30
0.0
 10
166.7052
 20
-73.903
 30
0.0
 10
169.2399
 20
-70.9918
 30
0.0
 10
169.2399
 20
-70.9918
 30
0.0
 10
169.2399
 20
-70.9918
 30
0.0
 10
174.6824
 20
-68.55
 30
0.0
 10
174.5843
 20
-73.2455
 30
0.0
 10
174.5843
 20
-73.2455
 30
0.0
 10
174.5843
 20
-73.2455
 30
0.0
 10
174.1192
 20
-77.4715
 30
0.0
 10
173.366
 20
-74.8419
 30
0.0
 10
173.366
 20
-74.8419
 30
0.0
 10
173.366
 20
-74.8419
 30
0.0
 10
174.8659
 20
-70.3343
 30
0.0
 10
170.1765
 20
-71.9307
 30
0.0
 10
170.1765
 20
-71.9307
 30
0.0
 10
170.1765
 20
-71.9307
 30
0.0
 10
166.5219
 20
-75.1237
 30
0.0
 10
170.7397
 20
-79.162
 30
0.0
 10
170.7397
 20
-79.162
 30
0.0
 10
170.7397
 20
-79.162
 30
0.0
 10
175.2458
 20
-81.2277
 30
0.0
 10
177.8721
 20
-75.4995
 30
0.0
 10
177.8721
 20
-75.4995
 30
0.0
 10
177.8721
 20
-75.4995
 30
0.0
 10
177.5905
 20
-61.4132
 30
0.0
 10
165.9585
 20
-62.2582
 30
0.0
 10
165.9585
 20
-62.2582
 30
0.0
 10
165.9585
 20
-62.2582
 30
0.0
 10
156.0165
 20
-60.5679
 30
0.0
 10
150.4821
 20
-66.0144
 30
0.0
 10
150.4821
 20
-66.0144
 30
0.0
 10
150.4821
 20
-66.0144
 30
0.0
 10
146.4476
 20
-69.5831
 30
0.0
 10
146.4476
 20
-69.5831
 30
0.0
 10
146.4476
 20
-69.5831
 30
0.0
 10
146.4476
 20
-69.5831
 30
0.0
 10
149.0741
 20
-63.291
 30
0.0
 10
155.0733
 20
-61.6946
 30
0.0
 10
155.0733
 20
-61.6946
 30
0.0
 10
155.0733
 20
-61.6946
 30
0.0
 10
160.8893
 20
-61.0373
 30
0.0
 10
160.8893
 20
-61.0373
 30
0.0
 10
160.8893
 20
-61.0373
 30
0.0
 10
160.8893
 20
-61.0373
 30
0.0
 10
165.2971
 20
-61.4132
 30
0.0
 10
166.0503
 20
-58.4079
 30
0.0
 10
166.0503
 20
-58.4079
 30
0.0
 10
166.0503
 20
-58.4079
 30
0.0
 10
174.021
 20
-65.3572
 30
0.0
 10
176.0907
 20
-58.8775
 30
0.0
 10
176.0907
 20
-58.8775
 30
0.0
 10
176.0907
 20
-58.8775
 30
0.0
 10
187.6243
 20
-64.4183
 30
0.0
 10
192.7853
 20
-55.7785
 30
0.0
 10
192.7853
 20
-55.7785
 30
0.0
 10
192.7853
 20
-55.7785
 30
0.0
 10
192.8769
 20
-64.3244
 30
0.0
 10
192.8769
 20
-64.3244
 30
0.0
 10
192.8769
 20
-64.3244
 30
0.0
 10
192.8769
 20
-64.3244
 30
0.0
 10
187.2509
 20
-70.0528
 30
0.0
 10
188.0959
 20
-78.1288
 30
0.0
 10
188.0959
 20
-78.1288
 30
0.0
 10
188.0959
 20
-78.1288
 30
0.0
 10
186.5961
 20
-80.1948
 30
0.0
 10
186.7795
 20
-74.8419
 30
0.0
 10
186.7795
 20
-74.8419
 30
0.0
 10
186.7795
 20
-74.8419
 30
0.0
 10
187.1593
 20
-70.7102
 30
0.0
 10
188.561
 20
-70.1464
 30
0.0
 10
188.561
 20
-70.1464
 30
0.0
 10
188.561
 20
-70.1464
 30
0.0
 10
188.2859
 20
-67.799
 30
0.0
 10
188.2859
 20
-67.799
 30
0.0
 10
188.2859
 20
-67.799
 30
0.0
 10
188.2859
 20
-67.799
 30
0.0
 10
184.998
 20
-66.3902
 30
0.0
 10
183.2165
 20
-73.9969
 30
0.0
 10
183.2165
 20
-73.9969
 30
0.0
 10
183.2165
 20
-73.9969
 30
0.0
 10
184.533
 20
-76.6261
 30
0.0
 10
183.0266
 20
-78.2226
 30
0.0
 10
183.0266
 20
-78.2226
 30
0.0
 10
183.0266
 20
-78.2226
 30
0.0
 10
182.745
 20
-83.0123
 30
0.0
 10
185.1878
 20
-83.6694
 30
0.0
 10
185.1878
 20
-83.6694
 30
0.0
 10
185.1878
 20
-83.6694
 30
0.0
 10
182.9349
 20
-85.6414
 30
0.0
 10
183.8714
 20
-90.1491
 30
0.0
 10
183.8714
 20
-90.1491
 30
0.0
 10
183.8714
 20
-90.1491
 30
0.0
 10
181.5267
 20
-103.1085
 30
0.0
 10
169.4298
 20
-95.6897
 30
0.0
 10
169.4298
 20
-95.6897
 30
0.0
 10
169.4298
 20
-95.6897
 30
0.0
 10
173.556
 20
-97.5679
 30
0.0
 10
177.774
 20
-96.441
 30
0.0
 10
177.774
 20
-96.441
 30
0.0
 10
177.774
 20
-96.441
 30
0.0
 10
184.533
 20
-94.4689
 30
0.0
 10
182.745
 20
-87.5199
 30
0.0
 10
182.745
 20
-87.5199
 30
0.0
 10
182.745
 20
-87.5199
 30
0.0
 10
181.8083
 20
-82.3546
 30
0.0
 10
182.745
 20
-82.3546
 30
0.0
 10
182.745
 20
-82.3546
 30
0.0
 10
182.745
 20
-82.3546
 30
0.0
 10
181.2451
 20
-79.4434
 30
0.0
 10
179.372
 20
-83.7633
 30
0.0
 10
179.372
 20
-83.7633
 30
0.0
 10
179.372
 20
-83.7633
 30
0.0
 10
178.8088
 20
-85.0781
 30
0.0
 10
178.8088
 20
-85.0781
 30
0.0
 10
178.8088
 20
-85.0781
 30
0.0
 10
178.8088
 20
-85.0781
 30
0.0
 10
175.8091
 20
-84.7964
 30
0.0
 10
174.9642
 20
-86.7685
 30
0.0
 10
174.9642
 20
-86.7685
 30
0.0
 10
174.9642
 20
-86.7685
 30
0.0
 10
175.0559
 20
-90.525
 30
0.0
 10
175.0559
 20
-90.525
 30
0.0
 10
175.0559
 20
-90.525
 30
0.0
 10
175.0559
 20
-90.525
 30
0.0
 10
174.4008
 20
-92.9664
 30
0.0
 10
174.3026
 20
-89.4918
 30
0.0
 10
174.3026
 20
-89.4918
 30
0.0
 10
174.3026
 20
-89.4918
 30
0.0
 10
176.0907
 20
-84.5147
 30
0.0
 10
171.5845
 20
-87.4259
 30
0.0
 10
171.5845
 20
-87.4259
 30
0.0
 10
171.5845
 20
-87.4259
 30
0.0
 10
171.3947
 20
-90.4307
 30
0.0
 10
158.8263
 20
-83.8573
 30
0.0
 10
158.8263
 20
-83.8573
 30
0.0
 10
158.8263
 20
-83.8573
 30
0.0
 10
151.8836
 20
-80.0068
 30
0.0
 10
143.8213
 20
-84.7964
 30
0.0
  0
SPLINE
  5
7E
330
1F
100
AcDbEntity
  8
layer 1
 62
     7
100
AcDbSpline
210
0.0
220
0.0
230
1.0
 70
    11
 71
     3
 72
    72
 73
    68
 74
     0
 42
0.0000000001
 43
0.0000000001
 12
1.0
 22
0.0
 32
0.0
 13
1.0
 23
0.0
 33
0.0
 40
0.0
 40
0.0
 40
0.0
 40
0.0
 40
0.0555555555555556
 40
0.0555555555555556
 40
0.0555555555555556
 40
0.0555555555555556
 40
0.1111111111111111
 40
0.1111111111111111
 40
0.1111111111111111
 40
0.1111111111111111
 40
0.1666666666666667
 40
0.1666666666666667
 40
0.1666666666666667
 40
0.1666666666666667
 40
0.2222222222222222
 40
0.2222222222222222
 40
0.2222222222222222
 40
0.2222222222222222
 40
0.2777777777777778
 40
0.2777777777777778
 40
0.2777777777777778
 40
0.2777777777777778
 40
0.3333333333333333
 40
0.3333333333333333
 40
0.3333333333333333
 40
0.3333333333333333
 40
0.3888888888888889
 40
0.3888888888888889
 40
0.3888888888888889
 40
0.3888888888888889
 40
0.4444444444444444
 40
0.4444444444444444
 40
0.4444444444444444
 40
0.4444444444444444
 40
0.5
 40
0.5
 40
0.5
 40
0.5
 40
0.5555555555555556
 40
0.5555555555555556
 40
0.5555555555555556
 40
0.5555555555555556
 40
0.6111111111111112
 40
0.6111111111111112
 40
0.6111111111111112
 40
0.6111111111111112
 40
0.6666666666666666
 40
0.6666666666666666
 40
0.6666666666666666
 40
0.6666666666666666
 40
0.7222222222222222
 40
0.7222222222222222
 40
0.7222222222222222
 40
0.7222222222222222
 40
0.7777777777777778
 40
0.7777777777777778
 40
0.7777777777777778
 40
0.7777777777777778
 40
0.8333333333333334
 40
0.8333333333333334
 40
0.8333333333333334
 40
0.8333333333333334
 40
0.8888888888888888
 40
0.8888888888888888
 40
0.8888888888888888
 40
0.8888888888888888
 40
1.0
 40
1.0
 40
1.0
 40
1.0
 10
145.3212
 20
-91.4639
 30
0.0
 10
145.3212
 20
-91.4639
 30
0.0
 10
141.66
 20
-95.5958
 30
0.0
 10
141.66
 20
-98.0374
 30
0.0
 10
141.66
 20
-98.0374
 30
0.0
 10
141.66
 20
-98.0374
 30
0.0
 10
140.7234
 20
-100.573
 30
0.0
 10
140.0684
 20
-100.4791
 30
0.0
 10
140.0684
 20
-100.4791
 30
0.0
 10
140.0684
 20
-100.4791
 30
0.0
 10
137.7237
 20
-100.573
 30
0.0
 10
143.0681
 20
-104.9867
 30
0.0
 10
143.0681
 20
-104.9867
 30
0.0
 10
143.0681
 20
-104.9867
 30
0.0
 10
147.6659
 20
-110.3395
 30
0.0
 10
156.7632
 20
-104.7051
 30
0.0
 10
156.7632
 20
-104.7051
 30
0.0
 10
156.7632
 20
-104.7051
 30
0.0
 10
159.2061
 20
-103.2964
 30
0.0
 10
157.5162
 20
-108.6491
 30
0.0
 10
157.5162
 20
-108.6491
 30
0.0
 10
157.5162
 20
-108.6491
 30
0.0
 10
155.8265
 20
-110.903
 30
0.0
 10
154.9817
 20
-111.5603
 30
0.0
 10
154.9817
 20
-111.5603
 30
0.0
 10
154.9817
 20
-111.5603
 30
0.0
 10
160.7059
 20
-111.842
 30
0.0
 10
160.7059
 20
-111.842
 30
0.0
 10
160.7059
 20
-111.842
 30
0.0
 10
160.7059
 20
-111.842
 30
0.0
 10
165.3953
 20
-110.6214
 30
0.0
 10
165.3953
 20
-103.8598
 30
0.0
 10
165.3953
 20
-103.8598
 30
0.0
 10
165.3953
 20
-103.8598
 30
0.0
 10
158.263
 20
-109.87
 30
0.0
 10
157.1364
 20
-99.8218
 30
0.0
 10
157.1364
 20
-99.8218
 30
0.0
 10
157.1364
 20
-99.8218
 30
0.0
 10
157.798
 20
-99.2586
 30
0.0
 10
161.9242
 20
-98.9766
 30
0.0
 10
161.9242
 20
-98.9766
 30
0.0
 10
161.9242
 20
-98.9766
 30
0.0
 10
163.5156
 20
-99.3522
 30
0.0
 10
162.4874
 20
-92.5905
 30
0.0
 10
162.4874
 20
-92.5905
 30
0.0
 10
162.4874
 20
-92.5905
 30
0.0
 10
160.7059
 20
-97.474
 30
0.0
 10
159.1079
 20
-93.8114
 30
0.0
 10
159.1079
 20
-93.8114
 30
0.0
 10
159.1079
 20
-93.8114
 30
0.0
 10
157.608
 20
-99.2586
 30
0.0
 10
152.8268
 20
-97.7558
 30
0.0
 10
152.8268
 20
-97.7558
 30
0.0
 10
152.8268
 20
-97.7558
 30
0.0
 10
151.0388
 20
-96.441
 30
0.0
 10
152.8268
 20
-94.5628
 30
0.0
 10
152.8268
 20
-94.5628
 30
0.0
 10
152.8268
 20
-94.5628
 30
0.0
 10
157.798
 20
-90.3368
 30
0.0
 10
150.384
 20
-89.5857
 30
0.0
 10
150.384
 20
-89.5857
 30
0.0
 10
150.384
 20
-89.5857
 30
0.0
 10
144.9479
 20
-90.1491
 30
0.0
 10
144.9479
 20
-90.1491
 30
0.0
 10
144.9479
 20
-90.1491
 30
0.0
 10
144.9479
 20
-90.1491
 30
0.0
 10
145.3212
 20
-91.4639
 30
0.0
 10
145.3212
 20
-91.4639
 30
0.0
  0
SPLINE
  5
7F
330
1F
100
AcDbEntity
  8
layer 1
 62
     7
100
AcDbSpline
210
0.0
220
0.0
230
1.0
 70
    11
 71
     3
 72
    16
 73
    12
 74
     0
 42
0.0000000001
 43
0.0000000001
 12
1.0
 22
0.0
 32
0.0
 13
1.0
 23
0.0
 33
0.0
 40
0.0
 40
0.0
 40
0.0
 40
0.0
 40
0.25
 40
0.25
 40
0.25
 40
0.25
 40
0.5
 40
0.5
 40
0.5
 40
0.5
 40
1.0
 40
1.0
 40
1.0
 40
1.0
 10
132.4711
 20
-107.4283
 30
0.0
 10
132.4711
 20
-107.4283
 30
0.0
 10
128.7182
 20
-111.0909
 30
0.0
 10
123.9304
 20
-111.748
 30
0.0
 10
123.9304
 20
-111.748
 30
0.0
 10
123.9304
 20
-111.748
 30
0.0
 10
137.0623
 20
-112.1237
 30
0.0
 10
137.0623
 20
-112.1237
 30
0.0
 10
137.0623
 20
-112.1237
 30
0.0
 10
137.0623
 20
-112.1237
 30
0.0
 10
132.8443
 20
-108.7429
 30
0.0
 10
132.4711
 20
-107.4283
 30
0.0
  0
SPLINE
  5
80
330
1F
100
AcDbEntity
  8
layer 1
 62
     7
100
AcDbSpline
210
0.0
220
0.0
230
1.0
 70
    11
 71
     3
 72
    32
 73
    28
 74
     0
 42
0.0000000001
 43
0.0000000001
 12
1.0
 22
0.0
 32
0.0
 13
1.0
 23
0.0
 33
0.0
 40
0.0
 40
0.0
 40
0.0
 40
0.0
 40
0.125
 40
0.125
 40
0.125
 40
0.125
 40
0.25
 40
0.25
 40
0.25
 40
0.25
 40
0.375
 40
0.375
 40
0.375
 40
0.375
 40
0.5
 40
0.5
 40
0.5
 40
0.5
 40
0.625
 40
0.625
 40
0.625
 40
0.625
 40
0.75
 40
0.75
 40
0.75
 40
0.75
 40
1.0
 40
1.0
 40
1.0
 40
1.0
 10
79.5642
 20
-101.7939
 30
0.0
 10
79.5642
 20
-101.7939
 30
0.0
 10
79.5642
 20
-111.842
 30
0.0
 10
79.5642
 20
-111.842
 30
0.0
 10
79.5642
 20
-111.842
 30
0.0
 10
79.5642
 20
-111.842
 30
0.0
 10
99.8219
 20
-112.2175
 30
0.0
 10
99.8219
 20
-112.2175
 30
0.0
 10
99.8219
 20
-112.2175
 30
0.0
 10
99.8219
 20
-112.2175
 30
0.0
 10
105.1727
 20
-109.4005
 30
0.0
 10
106.8626
 20
-103.2964
 30
0.0
 10
106.8626
 20
-103.2964
 30
0.0
 10
106.8626
 20
-103.2964
 30
0.0
 10
98.8853
 20
-113.5323
 30
0.0
 10
94.1041
 20
-102.5453
 30
0.0
 10
94.1041
 20
-102.5453
 30
0.0
 10
94.1041
 20
-102.5453
 30
0.0
 10
94.3857
 20
-100.8546
 30
0.0
 10
91.3794
 20
-104.6108
 30
0.0
 10
91.3794
 20
-104.6108
 30
0.0
 10
91.3794
 20
-104.6108
 30
0.0
 10
84.2537
 20
-110.903
 30
0.0
 10
81.6273
 20
-102.4511
 30
0.0
 10
81.6273
 20
-102.4511
 30
0.0
 10
81.6273
 20
-102.4511
 30
0.0
 10
79.5642
 20
-101.7939
 30
0.0
 10
79.5642
 20
-101.7939
 30
0.0
  0
SPLINE
  5
81
330
1F
100
AcDbEntity
  8
layer 1
 62
     7
100
AcDbSpline
210
0.0
220
0.0
230
1.0
 70
    11
 71
     3
 72
    20
 73
    16
 74
     0
 42
0.0000000001
 43
0.0000000001
 12
1.0
 22
0.0
 32
0.0
 13
1.0
 23
0.0
 33
0.0
 40
0.0
 40
0.0
 40
0.0
 40
0.0
 40
0.2
 40
0.2
 40
0.2
 40
0.2
 40
0.4
 40
0.4
 40
0.4
 40
0.4
 40
0.6
 40
0.6
 40
0.6
 40
0.6
 40
1.0
 40
1.0
 40
1.0
 40
1.0
 10
94.9948
 20
-84.7024
 30
0.0
 10
95.7415
 20
-84.7024
 30
0.0
 10
96.3506
 20
-85.1652
 30
0.0
 10
96.3506
 20
-85.7353
 30
0.0
 10
96.3506
 20
-85.7353
 30
0.0
 10
96.3506
 20
-86.3059
 30
0.0
 10
95.7415
 20
-86.7685
 30
0.0
 10
94.9948
 20
-86.7685
 30
0.0
 10
94.9948
 20
-86.7685
 30
0.0
 10
94.2416
 20
-86.7685
 30
0.0
 10
93.6325
 20
-86.3059
 30
0.0
 10
93.6325
 20
-85.7353
 30
0.0
 10
93.6325
 20
-85.7353
 30
0.0
 10
93.6325
 20
-85.1652
 30
0.0
 10
94.2416
 20
-84.7024
 30
0.0
 10
94.9948
 20
-84.7024
 30
0.0
  0
SPLINE
  5
82
330
1F
100
AcDbEntity
  8
layer 1
 62
     7
100
AcDbSpline
210
0.0
220
0.0
230
1.0
 70
    11
 71
     3
 72
    12
 73
     8
 74
     0
 42
0.0000000001
 43
0.0000000001
 12
1.0
 22
0.0
 32
0.0
 13
1.0
 23
0.0
 33
0.0
 40
0.0
 40
0.0
 40
0.0
 40
0.0
 40
0.3333333333333333
 40
0.3333333333333333
 40
0.3333333333333333
 40
0.3333333333333333
 40
1.0
 40
1.0
 40
1.0
 40
1.0
 10
81.1558
 20
-80.7582
 30
0.0
 10
81.1558
 20
-80.7582
 30
0.0
 10
88.0065
 20
-79.5373
 30
0.0
 10
91.4778
 20
-84.7024
 30
0.0
 10
91.4778
 20
-84.7024
 30
0.0
 10
91.4778
 20
-84.7024
 30
0.0
 10
81.254
 20
-83.7633
 30
0.0
 10
81.1558
 20
-80.7582
 30
0.0
  0
SPLINE
  5
83
330
1F
100
AcDbEntity
  8
layer 1
 62
     7
100
AcDbSpline
210
0.0
220
0.0
230
1.0
 70
    11
 71
     3
 72
    20
 73
    16
 74
     0
 42
0.0000000001
 43
0.0000000001
 12
1.0
 22
0.0
 32
0.0
 13
1.0
 23
0.0
 33
0.0
 40
0.0
 40
0.0
 40
0.0
 40
0.0
 40
0.2
 40
0.2
 40
0.2
 40
0.2
 40
0.4
 40
0.4
 40
0.4
 40
0.4
 40
0.6
 40
0.6
 40
0.6
 40
0.6
 40
1.0
 40
1.0
 40
1.0
 40
1.0
 10
91.0062
 20
-89.3041
 30
0.0
 10
91.0062
 20
-89.3041
 30
0.0
 10
85.9434
 20
-93.1541
 30
0.0
 10
85.9434
 20
-96.0653
 30
0.0
 10
85.9434
 20
-96.0653
 30
0.0
 10
85.9434
 20
-96.0653
 30
0.0
 10
84.817
 20
-99.2586
 30
0.0
 10
88.0983
 20
-95.9712
 30
0.0
 10
88.0983
 20
-95.9712
 30
0.0
 10
88.0983
 20
-95.9712
 30
0.0
 10
91.0062
 20
-92.9664
 30
0.0
 10
91.7594
 20
-91.5577
 30
0.0
 10
91.7594
 20
-91.5577
 30
0.0
 10
91.7594
 20
-91.5577
 30
0.0
 10
93.6325
 20
-88.5525
 30
0.0
 10
91.0062
 20
-89.3041
 30
0.0
  0
SPLINE
  5
84
330
1F
100
AcDbEntity
  8
layer 1
 62
     7
100
AcDbSpline
210
0.0
220
0.0
230
1.0
 70
    11
 71
     3
 72
    12
 73
     8
 74
     0
 42
0.0000000001
 43
0.0000000001
 12
1.0
 22
0.0
 32
0.0
 13
1.0
 23
0.0
 33
0.0
 40
0.0
 40
0.0
 40
0.0
 40
0.0
 40
0.3333333333333333
 40
0.3333333333333333
 40
0.3333333333333333
 40
0.3333333333333333
 40
1.0
 40
1.0
 40
1.0
 40
1.0
 10
96.4488
 20
-89.6793
 30
0.0
 10
96.4488
 20
-89.6793
 30
0.0
 10
101.7932
 20
-89.6793
 30
0.0
 10
103.2014
 20
-97.1924
 30
0.0
 10
103.2014
 20
-97.1924
 30
0.0
 10
103.2014
 20
-97.1924
 30
0.0
 10
96.5406
 20
-95.9712
 30
0.0
 10
96.4488
 20
-89.6793
 30
0.0
  0
SPLINE
  5
85
330
1F
100
AcDbEntity
  8
layer 1
 62
     7
100
AcDbSpline
210
0.0
220
0.0
230
1.0
 70
    11
 71
     3
 72
    16
 73
    12
 74
     0
 42
0.0000000001
 43
0.0000000001
 12
1.0
 22
0.0
 32
0.0
 13
1.0
 23
0.0
 33
0.0
 40
0.0
 40
0.0
 40
0.0
 40
0.0
 40
0.25
 40
0.25
 40
0.25
 40
0.25
 40
0.5
 40
0.5
 40
0.5
 40
0.5
 40
1.0
 40
1.0
 40
1.0
 40
1.0
 10
98.4202
 20
-84.5147
 30
0.0
 10
98.4202
 20
-84.5147
 30
0.0
 10
101.42
 20
-80.7582
 30
0.0
 10
108.1724
 20
-81.5096
 30
0.0
 10
108.1724
 20
-81.5096
 30
0.0
 10
108.1724
 20
-81.5096
 30
0.0
 10
106.6726
 20
-85.2658
 30
0.0
 10
99.8219
 20
-84.5147
 30
0.0
 10
99.8219
 20
-84.5147
 30
0.0
 10
99.8219
 20
-84.5147
 30
0.0
 10
98.4202
 20
-84.5147
 30
0.0
 10
98.4202
 20
-84.5147
 30
0.0
  0
SPLINE
  5
86
330
1F
100
AcDbEntity
  8
layer 1
 62
     7
100
AcDbSpline
210
0.0
220
0.0
230
1.0
 70
    11
 71
     3
 72
    20
 73
    16
 74
     0
 42
0.0000000001
 43
0.0000000001
 12
1.0
 22
0.0
 32
0.0
 13
1.0
 23
0.0
 33
0.0
 40
0.0
 40
0.0
 40
0.0
 40
0.0
 40
0.2
 40
0.2
 40
0.2
 40
0.2
 40
0.4
 40
0.4
 40
0.4
 40
0.4
 40
0.6
 40
0.6
 40
0.6
 40
0.6
 40
1.0
 40
1.0
 40
1.0
 40
1.0
 10
94.1041
 20
-73.4333
 30
0.0
 10
94.1041
 20
-73.4333
 30
0.0
 10
93.9141
 20
-77.7534
 30
0.0
 10
94.0059
 20
-79.3497
 30
0.0
 10
94.0059
 20
-79.3497
 30
0.0
 10
94.0059
 20
-79.3497
 30
0.0
 10
95.2306
 20
-85.4537
 30
0.0
 10
96.259
 20
-79.162
 30
0.0
 10
96.259
 20
-79.162
 30
0.0
 10
96.259
 20
-79.162
 30
0.0
 10
96.5406
 20
-75.2174
 30
0.0
 10
96.4488
 20
-72.9639
 30
0.0
 10
96.4488
 20
-72.9639
 30
0.0
 10
96.4488
 20
-72.9639
 30
0.0
 10
95.6956
 20
-68.55
 30
0.0
 10
94.1041
 20
-73.4333
 30
0.0
  0
SPLINE
  5
87
330
1F
100
AcDbEntity
  8
layer 1
 62
     7
100
AcDbSpline
210
0.0
220
0.0
230
1.0
 70
    11
 71
     3
 72
    84
 73
    80
 74
     0
 42
0.0000000001
 43
0.0000000001
 12
1.0
 22
0.0
 32
0.0
 13
1.0
 23
0.0
 33
0.0
 40
0.0
 40
0.0
 40
0.0
 40
0.0
 40
0.0476190476190476
 40
0.0476190476190476
 40
0.0476190476190476
 40
0.0476190476190476
 40
0.0952380952380952
 40
0.0952380952380952
 40
0.0952380952380952
 40
0.0952380952380952
 40
0.1428571428571428
 40
0.1428571428571428
 40
0.1428571428571428
 40
0.1428571428571428
 40
0.1904761904761905
 40
0.1904761904761905
 40
0.1904761904761905
 40
0.1904761904761905
 40
0.2380952380952381
 40
0.2380952380952381
 40
0.2380952380952381
 40
0.2380952380952381
 40
0.2857142857142857
 40
0.2857142857142857
 40
0.2857142857142857
 40
0.2857142857142857
 40
0.3333333333333333
 40
0.3333333333333333
 40
0.3333333333333333
 40
0.3333333333333333
 40
0.3809523809523809
 40
0.3809523809523809
 40
0.3809523809523809
 40
0.3809523809523809
 40
0.4285714285714285
 40
0.4285714285714285
 40
0.4285714285714285
 40
0.4285714285714285
 40
0.4761904761904762
 40
0.4761904761904762
 40
0.4761904761904762
 40
0.4761904761904762
 40
0.5238095238095238
 40
0.5238095238095238
 40
0.5238095238095238
 40
0.5238095238095238
 40
0.5714285714285714
 40
0.5714285714285714
 40
0.5714285714285714
 40
0.5714285714285714
 40
0.6190476190476191
 40
0.6190476190476191
 40
0.6190476190476191
 40
0.6190476190476191
 40
0.6666666666666666
 40
0.6666666666666666
 40
0.6666666666666666
 40
0.6666666666666666
 40
0.7142857142857143
 40
0.7142857142857143
 40
0.7142857142857143
 40
0.7142857142857143
 40
0.7619047619047619
 40
0.7619047619047619
 40
0.7619047619047619
 40
0.7619047619047619
 40
0.8095238095238095
 40
0.8095238095238095
 40
0.8095238095238095
 40
0.8095238095238095
 40
0.8571428571428571
 40
0.8571428571428571
 40
0.8571428571428571
 40
0.8571428571428571
 40
0.9047619047619048
 40
0.9047619047619048
 40
0.9047619047619048
 40
0.9047619047619048
 40
1.0
 40
1.0
 40
1.0
 40
1.0
 10
117.5514
 20
-65.5449
 30
0.0
 10
117.5514
 20
-65.5449
 30
0.0
 10
112.207
 20
-71.9307
 30
0.0
 10
116.4247
 20
-76.7201
 30
0.0
 10
116.4247
 20
-76.7201
 30
0.0
 10
116.4247
 20
-76.7201
 30
0.0
 10
116.8047
 20
-71.4612
 30
0.0
 10
122.7123
 20
-73.621
 30
0.0
 10
122.7123
 20
-73.621
 30
0.0
 10
122.7123
 20
-73.621
 30
0.0
 10
123.3672
 20
-75.1237
 30
0.0
 10
123.9304
 20
-72.0246
 30
0.0
 10
123.9304
 20
-72.0246
 30
0.0
 10
123.9304
 20
-72.0246
 30
0.0
 10
126.4651
 20
-67.799
 30
0.0
 10
126.0919
 20
-75.8751
 30
0.0
 10
126.0919
 20
-75.8751
 30
0.0
 10
126.0919
 20
-75.8751
 30
0.0
 10
123.4655
 20
-86.4867
 30
0.0
 10
114.46
 20
-80.0068
 30
0.0
 10
114.46
 20
-80.0068
 30
0.0
 10
114.46
 20
-80.0068
 30
0.0
 10
122.4307
 20
-87.144
 30
0.0
 10
110.0521
 20
-91.6516
 30
0.0
 10
110.0521
 20
-91.6516
 30
0.0
 10
110.0521
 20
-91.6516
 30
0.0
 10
108.7356
 20
-92.3092
 30
0.0
 10
110.8905
 20
-93.248
 30
0.0
 10
110.8905
 20
-93.248
 30
0.0
 10
110.8905
 20
-93.248
 30
0.0
 10
111.9253
 20
-94.7506
 30
0.0
 10
111.7354
 20
-96.7226
 30
0.0
 10
111.7354
 20
-96.7226
 30
0.0
 10
111.7354
 20
-96.7226
 30
0.0
 10
110.7987
 20
-99.9157
 30
0.0
 10
114.0801
 20
-97.0984
 30
0.0
 10
114.0801
 20
-97.0984
 30
0.0
 10
114.0801
 20
-97.0984
 30
0.0
 10
118.1146
 20
-95.1263
 30
0.0
 10
124.402
 20
-92.9664
 30
0.0
 10
124.402
 20
-92.9664
 30
0.0
 10
124.402
 20
-92.9664
 30
0.0
 10
127.2183
 20
-93.3419
 30
0.0
 10
133.3159
 20
-85.3597
 30
0.0
 10
133.3159
 20
-85.3597
 30
0.0
 10
133.3159
 20
-85.3597
 30
0.0
 10
136.3156
 20
-80.3827
 30
0.0
 10
131.9079
 20
-85.0781
 30
0.0
 10
131.9079
 20
-85.0781
 30
0.0
 10
131.9079
 20
-85.0781
 30
0.0
 10
127.4017
 20
-89.3979
 30
0.0
 10
128.9016
 20
-83.4817
 30
0.0
 10
128.9016
 20
-83.4817
 30
0.0
 10
128.9016
 20
-83.4817
 30
0.0
 10
124.4938
 20
-75.9688
 30
0.0
 10
128.1549
 20
-68.644
 30
0.0
 10
128.1549
 20
-68.644
 30
0.0
 10
128.1549
 20
-68.644
 30
0.0
 10
129.563
 20
-60.6618
 30
0.0
 10
121.9657
 20
-63.1035
 30
0.0
 10
121.9657
 20
-63.1035
 30
0.0
 10
121.9657
 20
-63.1035
 30
0.0
 10
120.7409
 20
-63.479
 30
0.0
 10
121.4025
 20
-65.4512
 30
0.0
 10
121.4025
 20
-65.4512
 30
0.0
 10
121.4025
 20
-65.4512
 30
0.0
 10
122.3389
 20
-62.1643
 30
0.0
 10
125.5286
 20
-64.1364
 30
0.0
 10
125.5286
 20
-64.1364
 30
0.0
 10
125.5286
 20
-64.1364
 30
0.0
 10
128.3384
 20
-66.8597
 30
0.0
 10
124.3104
 20
-69.677
 30
0.0
 10
124.3104
 20
-69.677
 30
0.0
 10
124.3104
 20
-69.677
 30
0.0
 10
119.241
 20
-71.5552
 30
0.0
 10
118.2128
 20
-67.2356
 30
0.0
 10
118.2128
 20
-67.2356
 30
0.0
 10
118.2128
 20
-67.2356
 30
0.0
 10
117.5514
 20
-65.5449
 30
0.0
 10
117.5514
 20
-65.5449
 30
0.0
  0
SPLINE
  5
88
330
1F
100
AcDbEntity
  8
layer 1
 62
     7
100
AcDbSpline
210
0.0
220
0.0
230
1.0
 70
    11
 71
     3
 72
    20
 73
    16
 74
     0
 42
0.0000000001
 43
0.0000000001
 12
1.0
 22
0.0
 32
0.0
 13
1.0
 23
0.0
 33
0.0
 40
0.0
 40
0.0
 40
0.0
 40
0.0
 40
0.2
 40
0.2
 40
0.2
 40
0.2
 40
0.4
 40
0.4
 40
0.4
 40
0.4
 40
0.6
 40
0.6
 40
0.6
 40
0.6
 40
1.0
 40
1.0
 40
1.0
 40
1.0
 10
104.7929
 20
-70.8041
 30
0.0
 10
104.7929
 20
-70.8041
 30
0.0
 10
107.7992
 20
-72.3062
 30
0.0
 10
111.0803
 20
-71.4612
 30
0.0
 10
111.0803
 20
-71.4612
 30
0.0
 10
111.0803
 20
-71.4612
 30
0.0
 10
110.7987
 20
-71.9307
 30
0.0
 10
111.0803
 20
-72.6821
 30
0.0
 10
111.0803
 20
-72.6821
 30
0.0
 10
111.0803
 20
-72.6821
 30
0.0
 10
107.7008
 20
-72.4941
 30
0.0
 10
104.7011
 20
-72.776
 30
0.0
 10
104.7011
 20
-72.776
 30
0.0
 10
104.7011
 20
-72.776
 30
0.0
 10
104.7929
 20
-70.8041
 30
0.0
 10
104.7929
 20
-70.8041
 30
0.0
  0
SPLINE
  5
89
330
1F
100
AcDbEntity
  8
layer 1
 62
     7
100
AcDbSpline
210
0.0
220
0.0
230
1.0
 70
    11
 71
     3
 72
   112
 73
   108
 74
     0
 42
0.0000000001
 43
0.0000000001
 12
1.0
 22
0.0
 32
0.0
 13
1.0
 23
0.0
 33
0.0
 40
0.0
 40
0.0
 40
0.0
 40
0.0
 40
0.0357142857142857
 40
0.0357142857142857
 40
0.0357142857142857
 40
0.0357142857142857
 40
0.0714285714285714
 40
0.0714285714285714
 40
0.0714285714285714
 40
0.0714285714285714
 40
0.1071428571428571
 40
0.1071428571428571
 40
0.1071428571428571
 40
0.1071428571428571
 40
0.1428571428571428
 40
0.1428571428571428
 40
0.1428571428571428
 40
0.1428571428571428
 40
0.1785714285714286
 40
0.1785714285714286
 40
0.1785714285714286
 40
0.1785714285714286
 40
0.2142857142857143
 40
0.2142857142857143
 40
0.2142857142857143
 40
0.2142857142857143
 40
0.25
 40
0.25
 40
0.25
 40
0.25
 40
0.2857142857142857
 40
0.2857142857142857
 40
0.2857142857142857
 40
0.2857142857142857
 40
0.3214285714285715
 40
0.3214285714285715
 40
0.3214285714285715
 40
0.3214285714285715
 40
0.3571428571428572
 40
0.3571428571428572
 40
0.3571428571428572
 40
0.3571428571428572
 40
0.3928571428571428
 40
0.3928571428571428
 40
0.3928571428571428
 40
0.3928571428571428
 40
0.4285714285714285
 40
0.4285714285714285
 40
0.4285714285714285
 40
0.4285714285714285
 40
0.4642857142857143
 40
0.4642857142857143
 40
0.4642857142857143
 40
0.4642857142857143
 40
0.5
 40
0.5
 40
0.5
 40
0.5
 40
0.5357142857142857
 40
0.5357142857142857
 40
0.5357142857142857
 40
0.5357142857142857
 40
0.5714285714285714
 40
0.5714285714285714
 40
0.5714285714285714
 40
0.5714285714285714
 40
0.6071428571428571
 40
0.6071428571428571
 40
0.6071428571428571
 40
0.6071428571428571
 40
0.6428571428571429
 40
0.6428571428571429
 40
0.6428571428571429
 40
0.6428571428571429
 40
0.6785714285714286
 40
0.6785714285714286
 40
0.6785714285714286
 40
0.6785714285714286
 40
0.7142857142857143
 40
0.7142857142857143
 40
0.7142857142857143
 40
0.7142857142857143
 40
0.75
 40
0.75
 40
0.75
 40
0.75
 40
0.7857142857142857
 40
0.7857142857142857
 40
0.7857142857142857
 40
0.7857142857142857
 40
0.8214285714285714
 40
0.8214285714285714
 40
0.8214285714285714
 40
0.8214285714285714
 40
0.8571428571428571
 40
0.8571428571428571
 40
0.8571428571428571
 40
0.8571428571428571
 40
0.8928571428571429
 40
0.8928571428571429
 40
0.8928571428571429
 40
0.8928571428571429
 40
0.9285714285714286
 40
0.9285714285714286
 40
0.9285714285714286
 40
0.9285714285714286
 40
1.0
 40
1.0
 40
1.0
 40
1.0
 10
98.2303
 20
-40.8471
 30
0.0
 10
98.2303
 20
-40.8471
 30
0.0
 10
88.4715
 20
-42.0678
 30
0.0
 10
86.5984
 20
-52.9612
 30
0.0
 10
86.5984
 20
-52.9612
 30
0.0
 10
86.5984
 20
-52.9612
 30
0.0
 10
86.1268
 20
-57.281
 30
0.0
 10
87.07
 20
-58.5959
 30
0.0
 10
87.07
 20
-58.5959
 30
0.0
 10
87.07
 20
-58.5959
 30
0.0
 10
88.1899
 20
-60.7557
 30
0.0
 10
85.6618
 20
-63.9485
 30
0.0
 10
85.6618
 20
-63.9485
 30
0.0
 10
85.6618
 20
-63.9485
 30
0.0
 10
85.6618
 20
-70.8977
 30
0.0
 10
88.4715
 20
-64.2303
 30
0.0
 10
88.4715
 20
-64.2303
 30
0.0
 10
88.4715
 20
-64.2303
 30
0.0
 10
90.8162
 20
-60.7557
 30
0.0
 10
95.7939
 20
-64.1364
 30
0.0
 10
95.7939
 20
-64.1364
 30
0.0
 10
95.7939
 20
-64.1364
 30
0.0
 10
99.3569
 20
-61.9766
 30
0.0
 10
102.638
 20
-64.1364
 30
0.0
 10
102.638
 20
-64.1364
 30
0.0
 10
102.638
 20
-64.1364
 30
0.0
 10
106.201
 20
-57.281
 30
0.0
 10
110.7987
 20
-63.8549
 30
0.0
 10
110.7987
 20
-63.8549
 30
0.0
 10
110.7987
 20
-63.8549
 30
0.0
 10
110.3337
 20
-70.6159
 30
0.0
 10
105.7361
 20
-66.4842
 30
0.0
 10
105.7361
 20
-66.4842
 30
0.0
 10
105.7361
 20
-66.4842
 30
0.0
 10
105.0745
 20
-69.3954
 30
0.0
 10
110.4255
 20
-68.3624
 30
0.0
 10
110.4255
 20
-68.3624
 30
0.0
 10
110.4255
 20
-68.3624
 30
0.0
 10
112.8618
 20
-68.1745
 30
0.0
 10
113.615
 20
-64.6058
 30
0.0
 10
113.615
 20
-64.6058
 30
0.0
 10
113.615
 20
-64.6058
 30
0.0
 10
119.5226
 20
-54.276
 30
0.0
 10
130.1264
 20
-60.3802
 30
0.0
 10
130.1264
 20
-60.3802
 30
0.0
 10
130.1264
 20
-60.3802
 30
0.0
 10
136.034
 20
-63.9485
 30
0.0
 10
137.8155
 20
-74.1846
 30
0.0
 10
137.8155
 20
-74.1846
 30
0.0
 10
137.8155
 20
-74.1846
 30
0.0
 10
139.407
 20
-80.0068
 30
0.0
 10
137.0623
 20
-87.6135
 30
0.0
 10
137.0623
 20
-87.6135
 30
0.0
 10
137.0623
 20
-87.6135
 30
0.0
 10
139.2235
 20
-84.8903
 30
0.0
 10
139.3153
 20
-76.9078
 30
0.0
 10
139.3153
 20
-76.9078
 30
0.0
 10
139.3153
 20
-76.9078
 30
0.0
 10
141.9416
 20
-54.8395
 30
0.0
 10
121.3041
 20
-55.2149
 30
0.0
 10
121.3041
 20
-55.2149
 30
0.0
 10
121.3041
 20
-55.2149
 30
0.0
 10
119.0576
 20
-55.4969
 30
0.0
 10
117.0863
 20
-57.7506
 30
0.0
 10
117.0863
 20
-57.7506
 30
0.0
 10
117.0863
 20
-57.7506
 30
0.0
 10
113.7068
 20
-62.2582
 30
0.0
 10
113.1436
 20
-56.2479
 30
0.0
 10
113.1436
 20
-56.2479
 30
0.0
 10
113.1436
 20
-56.2479
 30
0.0
 10
110.7987
 20
-50.8012
 30
0.0
 10
117.4596
 20
-48.36
 30
0.0
 10
117.4596
 20
-48.36
 30
0.0
 10
117.4596
 20
-48.36
 30
0.0
 10
119.5226
 20
-47.1385
 30
0.0
 10
116.1497
 20
-47.1385
 30
0.0
 10
116.1497
 20
-47.1385
 30
0.0
 10
116.1497
 20
-47.1385
 30
0.0
 10
112.6786
 20
-47.6081
 30
0.0
 10
116.8047
 20
-44.2279
 30
0.0
 10
116.8047
 20
-44.2279
 30
0.0
 10
116.8047
 20
-44.2279
 30
0.0
 10
119.7126
 20
-42.9135
 30
0.0
 10
124.0288
 20
-45.3544
 30
0.0
 10
124.0288
 20
-45.3544
 30
0.0
 10
124.0288
 20
-45.3544
 30
0.0
 10
122.3389
 20
-42.9135
 30
0.0
 10
116.4247
 20
-41.5046
 30
0.0
 10
116.4247
 20
-41.5046
 30
0.0
 10
116.4247
 20
-41.5046
 30
0.0
 10
109.0173
 20
-40.9407
 30
0.0
 10
106.6726
 20
-43.0071
 30
0.0
 10
106.6726
 20
-43.0071
 30
0.0
 10
106.6726
 20
-43.0071
 30
0.0
 10
104.2362
 20
-44.6032
 30
0.0
 10
104.8911
 20
-49.0168
 30
0.0
 10
104.8911
 20
-49.0168
 30
0.0
 10
104.8911
 20
-49.0168
 30
0.0
 10
107.046
 20
-56.154
 30
0.0
 10
101.7932
 20
-52.7732
 30
0.0
 10
101.7932
 20
-52.7732
 30
0.0
 10
101.7932
 20
-52.7732
 30
0.0
 10
94.4775
 20
-48.9232
 30
0.0
 10
97.1954
 20
-43.0071
 30
0.0
 10
97.1954
 20
-43.0071
 30
0.0
 10
97.1954
 20
-43.0071
 30
0.0
 10
97.1954
 20
-41.7862
 30
0.0
 10
98.2303
 20
-40.8471
 30
0.0
  0
SPLINE
  5
8A
330
1F
100
AcDbEntity
  8
layer 1
 62
     7
100
AcDbSpline
210
0.0
220
0.0
230
1.0
 70
    11
 71
     3
 72
    48
 73
    44
 74
     0
 42
0.0000000001
 43
0.0000000001
 12
1.0
 22
0.0
 32
0.0
 13
1.0
 23
0.0
 33
0.0
 40
0.0
 40
0.0
 40
0.0
 40
0.0
 40
0.0833333333333333
 40
0.0833333333333333
 40
0.0833333333333333
 40
0.0833333333333333
 40
0.1666666666666667
 40
0.1666666666666667
 40
0.1666666666666667
 40
0.1666666666666667
 40
0.25
 40
0.25
 40
0.25
 40
0.25
 40
0.3333333333333333
 40
0.3333333333333333
 40
0.3333333333333333
 40
0.3333333333333333
 40
0.4166666666666667
 40
0.4166666666666667
 40
0.4166666666666667
 40
0.4166666666666667
 40
0.5
 40
0.5
 40
0.5
 40
0.5
 40
0.5833333333333334
 40
0.5833333333333334
 40
0.5833333333333334
 40
0.5833333333333334
 40
0.6666666666666666
 40
0.6666666666666666
 40
0.6666666666666666
 40
0.6666666666666666
 40
0.75
 40
0.75
 40
0.75
 40
0.75
 40
0.8333333333333334
 40
0.8333333333333334
 40
0.8333333333333334
 40
0.8333333333333334
 40
1.0
 40
1.0
 40
1.0
 40
1.0
 10
81.3457
 20
-15.492
 30
0.0
 10
81.3457
 20
-15.492
 30
0.0
 10
84.4436
 20
-18.9664
 30
0.0
 10
81.254
 20
-22.441
 30
0.0
 10
81.254
 20
-22.441
 30
0.0
 10
81.254
 20
-22.441
 30
0.0
 10
79.7476
 20
-24.6947
 30
0.0
 10
81.9089
 20
-26.4788
 30
0.0
 10
81.9089
 20
-26.4788
 30
0.0
 10
81.9089
 20
-26.4788
 30
0.0
 10
82.6557
 20
-28.0756
 30
0.0
 10
80.0292
 20
-28.0756
 30
0.0
 10
80.0292
 20
-28.0756
 30
0.0
 10
80.0292
 20
-28.0756
 30
0.0
 10
79.8458
 20
-50.2379
 30
0.0
 10
79.8458
 20
-50.2379
 30
0.0
 10
79.8458
 20
-50.2379
 30
0.0
 10
79.8458
 20
-50.2379
 30
0.0
 10
84.1619
 20
-36.339
 30
0.0
 10
99.3569
 20
-35.9638
 30
0.0
 10
99.3569
 20
-35.9638
 30
0.0
 10
99.3569
 20
-35.9638
 30
0.0
 10
88.7531
 20
-35.9638
 30
0.0
 10
87.7249
 20
-27.2301
 30
0.0
 10
87.7249
 20
-27.2301
 30
0.0
 10
86.6901
 20
-18.497
 30
0.0
 10
87.8167
 20
-26.7604
 30
0.0
 10
87.8167
 20
-26.7604
 30
0.0
 10
87.8167
 20
-26.7604
 30
0.0
 10
87.8167
 20
-26.7604
 30
0.0
 10
87.8167
 20
-22.5346
 30
0.0
 10
84.5353
 20
-20.9385
 30
0.0
 10
84.5353
 20
-20.9385
 30
0.0
 10
84.5353
 20
-20.9385
 30
0.0
 10
83.4087
 20
-18.0273
 30
0.0
 10
86.88
 20
-19.8114
 30
0.0
 10
86.88
 20
-19.8114
 30
0.0
 10
86.88
 20
-19.8114
 30
0.0
 10
91.3794
 20
-25.9154
 30
0.0
 10
89.0348
 20
-20.093
 30
0.0
 10
89.0348
 20
-20.093
 30
0.0
 10
89.0348
 20
-20.093
 30
0.0
 10
85.8452
 20
-14.6465
 30
0.0
 10
81.3457
 20
-15.492
 30
0.0
  0
SPLINE
  5
8B
330
1F
100
AcDbEntity
  8
layer 1
 62
     7
100
AcDbSpline
210
0.0
220
0.0
230
1.0
 70
    11
 71
     3
 72
    24
 73
    20
 74
     0
 42
0.0000000001
 43
0.0000000001
 12
1.0
 22
0.0
 32
0.0
 13
1.0
 23
0.0
 33
0.0
 40
0.0
 40
0.0
 40
0.0
 40
0.0
 40
0.1666666666666667
 40
0.1666666666666667
 40
0.1666666666666667
 40
0.1666666666666667
 40
0.3333333333333333
 40
0.3333333333333333
 40
0.3333333333333333
 40
0.3333333333333333
 40
0.5
 40
0.5
 40
0.5
 40
0.5
 40
0.6666666666666666
 40
0.6666666666666666
 40
0.6666666666666666
 40
0.6666666666666666
 40
1.0
 40
1.0
 40
1.0
 40
1.0
 10
79.3744
 20
3.7596
 30
0.0
 10
79.3744
 20
3.7596
 30
0.0
 10
79.656
 20
-11.0783
 30
0.0
 10
79.656
 20
-11.0783
 30
0.0
 10
79.656
 20
-11.0783
 30
0.0
 10
79.656
 20
-11.0783
 30
0.0
 10
83.6903
 20
-9.6695
 30
0.0
 10
87.5349
 20
-13.6137
 30
0.0
 10
87.5349
 20
-13.6137
 30
0.0
 10
87.5349
 20
-13.6137
 30
0.0
 10
84.5353
 20
-4.5039
 30
0.0
 10
88.2883
 20
-1.7814
 30
0.0
 10
88.2883
 20
-1.7814
 30
0.0
 10
88.2883
 20
-1.7814
 30
0.0
 10
83.3171
 20
-3.0014
 30
0.0
 10
82.9373
 20
2.5387
 30
0.0
 10
82.9373
 20
2.5387
 30
0.0
 10
82.9373
 20
2.5387
 30
0.0
 10
80.3108
 20
3.7596
 30
0.0
 10
79.3744
 20
3.7596
 30
0.0
  0
SPLINE
  5
8C
330
1F
100
AcDbEntity
  8
layer 1
 62
     7
100
AcDbSpline
210
0.0
220
0.0
230
1.0
 70
    11
 71
     3
 72
    20
 73
    16
 74
     0
 42
0.0000000001
 43
0.0000000001
 12
1.0
 22
0.0
 32
0.0
 13
1.0
 23
0.0
 33
0.0
 40
0.0
 40
0.0
 40
0.0
 40
0.0
 40
0.2
 40
0.2
 40
0.2
 40
0.2
 40
0.4
 40
0.4
 40
0.4
 40
0.4
 40
0.6
 40
0.6
 40
0.6
 40
0.6
 40
1.0
 40
1.0
 40
1.0
 40
1.0
 10
95.0407
 20
30.8988
 30
0.0
 10
95.0407
 20
30.8988
 30
0.0
 10
94.9489
 20
25.1705
 30
0.0
 10
94.9489
 20
25.1705
 30
0.0
 10
94.9489
 20
25.1705
 30
0.0
 10
94.9489
 20
25.1705
 30
0.0
 10
94.9489
 20
18.5969
 30
0.0
 10
97.4771
 20
25.8281
 30
0.0
 10
97.4771
 20
25.8281
 30
0.0
 10
97.4771
 20
25.8281
 30
0.0
 10
97.2938
 20
29.5843
 30
0.0
 10
97.2938
 20
29.5843
 30
0.0
 10
97.2938
 20
29.5843
 30
0.0
 10
97.2938
 20
29.5843
 30
0.0
 10
97.4771
 20
36.5333
 30
0.0
 10
95.0407
 20
30.8988
 30
0.0
  0
SPLINE
  5
8D
330
1F
100
AcDbEntity
  8
layer 1
 62
     7
100
AcDbSpline
210
0.0
220
0.0
230
1.0
 70
    11
 71
     3
 72
    16
 73
    12
 74
     0
 42
0.0000000001
 43
0.0000000001
 12
1.0
 22
0.0
 32
0.0
 13
1.0
 23
0.0
 33
0.0
 40
0.0
 40
0.0
 40
0.0
 40
0.0
 40
0.25
 40
0.25
 40
0.25
 40
0.25
 40
0.5
 40
0.5
 40
0.5
 40
0.5
 40
1.0
 40
1.0
 40
1.0
 40
1.0
 10
103.0114
 20
22.9169
 30
0.0
 10
103.0114
 20
22.9169
 30
0.0
 10
93.9141
 20
17.6583
 30
0.0
 10
102.7298
 20
19.5359
 30
0.0
 10
102.7298
 20
19.5359
 30
0.0
 10
102.7298
 20
19.5359
 30
0.0
 10
104.7929
 20
19.724
 30
0.0
 10
107.9824
 20
21.8839
 30
0.0
 10
107.9824
 20
21.8839
 30
0.0
 10
107.9824
 20
21.8839
 30
0.0
 10
111.1721
 20
24.1376
 30
0.0
 10
103.0114
 20
22.9169
 30
0.0
  0
SPLINE
  5
8E
330
1F
100
AcDbEntity
  8
layer 1
 62
     7
100
AcDbSpline
210
0.0
220
0.0
230
1.0
 70
    11
 71
     3
 72
    16
 73
    12
 74
     0
 42
0.0000000001
 43
0.0000000001
 12
1.0
 22
0.0
 32
0.0
 13
1.0
 23
0.0
 33
0.0
 40
0.0
 40
0.0
 40
0.0
 40
0.0
 40
0.25
 40
0.25
 40
0.25
 40
0.25
 40
0.5
 40
0.5
 40
0.5
 40
0.5
 40
1.0
 40
1.0
 40
1.0
 40
1.0
 10
97.1038
 20
15.0287
 30
0.0
 10
97.1038
 20
15.0287
 30
0.0
 10
95.5123
 20
10.3334
 30
0.0
 10
104.1379
 20
6.5765
 30
0.0
 10
104.1379
 20
6.5765
 30
0.0
 10
104.1379
 20
6.5765
 30
0.0
 10
104.9829
 20
10.239
 30
0.0
 10
98.4202
 20
14.9344
 30
0.0
 10
98.4202
 20
14.9344
 30
0.0
 10
98.4202
 20
14.9344
 30
0.0
 10
97.1038
 20
15.0287
 30
0.0
 10
97.1038
 20
15.0287
 30
0.0
  0
SPLINE
  5
8F
330
1F
100
AcDbEntity
  8
layer 1
 62
     7
100
AcDbSpline
210
0.0
220
0.0
230
1.0
 70
    11
 71
     3
 72
    16
 73
    12
 74
     0
 42
0.0000000001
 43
0.0000000001
 12
1.0
 22
0.0
 32
0.0
 13
1.0
 23
0.0
 33
0.0
 40
0.0
 40
0.0
 40
0.0
 40
0.0
 40
0.25
 40
0.25
 40
0.25
 40
0.25
 40
0.5
 40
0.5
 40
0.5
 40
0.5
 40
1.0
 40
1.0
 40
1.0
 40
1.0
 10
92.6042
 20
15.6862
 30
0.0
 10
92.6042
 20
15.6862
 30
0.0
 10
86.5068
 20
14.559
 30
0.0
 10
86.7884
 20
7.5158
 30
0.0
 10
86.7884
 20
7.5158
 30
0.0
 10
86.7884
 20
7.5158
 30
0.0
 10
86.7884
 20
4.2292
 30
0.0
 10
93.1609
 20
13.8078
 30
0.0
 10
93.1609
 20
13.8078
 30
0.0
 10
93.1609
 20
13.8078
 30
0.0
 10
92.6042
 20
15.6862
 30
0.0
 10
92.6042
 20
15.6862
 30
0.0
  0
SPLINE
  5
90
330
1F
100
AcDbEntity
  8
layer 1
 62
     7
100
AcDbSpline
210
0.0
220
0.0
230
1.0
 70
    11
 71
     3
 72
    16
 73
    12
 74
     0
 42
0.0000000001
 43
0.0000000001
 12
1.0
 22
0.0
 32
0.0
 13
1.0
 23
0.0
 33
0.0
 40
0.0
 40
0.0
 40
0.0
 40
0.0
 40
0.25
 40
0.25
 40
0.25
 40
0.25
 40
0.5
 40
0.5
 40
0.5
 40
0.5
 40
1.0
 40
1.0
 40
1.0
 40
1.0
 10
79.5642
 20
15.0287
 30
0.0
 10
79.5642
 20
15.0287
 30
0.0
 10
78.5294
 20
12.5869
 30
0.0
 10
80.9724
 20
13.6198
 30
0.0
 10
80.9724
 20
13.6198
 30
0.0
 10
80.9724
 20
13.6198
 30
0.0
 10
81.9089
 20
14.9344
 30
0.0
 10
80.2192
 20
15.1223
 30
0.0
 10
80.2192
 20
15.1223
 30
0.0
 10
80.2192
 20
15.1223
 30
0.0
 10
79.5642
 20
15.0287
 30
0.0
 10
79.5642
 20
15.0287
 30
0.0
  0
SPLINE
  5
91
330
1F
100
AcDbEntity
  8
layer 1
 62
     7
100
AcDbSpline
210
0.0
220
0.0
230
1.0
 70
    11
 71
     3
 72
    16
 73
    12
 74
     0
 42
0.0000000001
 43
0.0000000001
 12
1.0
 22
0.0
 32
0.0
 13
1.0
 23
0.0
 33
0.0
 40
0.0
 40
0.0
 40
0.0
 40
0.0
 40
0.25
 40
0.25
 40
0.25
 40
0.25
 40
0.5
 40
0.5
 40
0.5
 40
0.5
 40
1.0
 40
1.0
 40
1.0
 40
1.0
 10
82.3739
 20
23.2928
 30
0.0
 10
82.3739
 20
23.2928
 30
0.0
 10
84.1619
 20
18.8791
 30
0.0
 10
91.2878
 20
19.724
 30
0.0
 10
91.2878
 20
19.724
 30
0.0
 10
91.2878
 20
19.724
 30
0.0
 10
92.2244
 20
22.5409
 30
0.0
 10
84.4436
 20
23.4802
 30
0.0
 10
84.4436
 20
23.4802
 30
0.0
 10
84.4436
 20
23.4802
 30
0.0
 10
82.3739
 20
23.2928
 30
0.0
 10
82.3739
 20
23.2928
 30
0.0
  0
SPLINE
  5
92
330
1F
100
AcDbEntity
  8
layer 1
 62
     7
100
AcDbSpline
210
0.0
220
0.0
230
1.0
 70
    11
 71
     3
 72
    28
 73
    24
 74
     0
 42
0.0000000001
 43
0.0000000001
 12
1.0
 22
0.0
 32
0.0
 13
1.0
 23
0.0
 33
0.0
 40
0.0
 40
0.0
 40
0.0
 40
0.0
 40
0.1428571428571428
 40
0.1428571428571428
 40
0.1428571428571428
 40
0.1428571428571428
 40
0.2857142857142857
 40
0.2857142857142857
 40
0.2857142857142857
 40
0.2857142857142857
 40
0.4285714285714285
 40
0.4285714285714285
 40
0.4285714285714285
 40
0.4285714285714285
 40
0.5714285714285714
 40
0.5714285714285714
 40
0.5714285714285714
 40
0.5714285714285714
 40
0.7142857142857143
 40
0.7142857142857143
 40
0.7142857142857143
 40
0.7142857142857143
 40
1.0
 40
1.0
 40
1.0
 40
1.0
 10
79.466
 20
41.2293
 30
0.0
 10
79.466
 20
41.2293
 30
0.0
 10
79.2826
 20
32.4955
 30
0.0
 10
79.2826
 20
32.4955
 30
0.0
 10
79.2826
 20
32.4955
 30
0.0
 10
79.2826
 20
32.4955
 30
0.0
 10
84.9086
 20
33.3404
 30
0.0
 10
86.88
 20
31.0866
 30
0.0
 10
86.88
 20
31.0866
 30
0.0
 10
86.88
 20
31.0866
 30
0.0
 10
87.3451
 20
33.7164
 30
0.0
 10
87.3451
 20
33.7164
 30
0.0
 10
87.3451
 20
33.7164
 30
0.0
 10
87.3451
 20
33.7164
 30
0.0
 10
82.3739
 20
31.0866
 30
0.0
 10
83.6903
 20
34.8435
 30
0.0
 10
83.6903
 20
34.8435
 30
0.0
 10
83.6903
 20
34.8435
 30
0.0
 10
83.4087
 20
41.4166
 30
0.0
 10
86.5068
 20
43.9526
 30
0.0
 10
86.5068
 20
43.9526
 30
0.0
 10
86.5068
 20
43.9526
 30
0.0
 10
84.1619
 20
43.9526
 30
0.0
 10
79.466
 20
41.2293
 30
0.0
  0
SPLINE
  5
93
330
1F
100
AcDbEntity
  8
layer 1
 62
     7
100
AcDbSpline
210
0.0
220
0.0
230
1.0
 70
    11
 71
     3
 72
    16
 73
    12
 74
     0
 42
0.0000000001
 43
0.0000000001
 12
1.0
 22
0.0
 32
0.0
 13
1.0
 23
0.0
 33
0.0
 40
0.0
 40
0.0
 40
0.0
 40
0.0
 40
0.25
 40
0.25
 40
0.25
 40
0.25
 40
0.5
 40
0.5
 40
0.5
 40
0.5
 40
1.0
 40
1.0
 40
1.0
 40
1.0
 10
79.5642
 20
55.8792
 30
0.0
 10
79.5642
 20
55.8792
 30
0.0
 10
79.7476
 20
47.5213
 30
0.0
 10
79.7476
 20
47.5213
 30
0.0
 10
79.7476
 20
47.5213
 30
0.0
 10
79.7476
 20
47.5213
 30
0.0
 10
84.627
 20
55.7849
 30
0.0
 10
92.6042
 20
56.724
 30
0.0
 10
92.6042
 20
56.724
 30
0.0
 10
92.6042
 20
56.724
 30
0.0
 10
87.5349
 20
59.8232
 30
0.0
 10
79.5642
 20
55.8792
 30
0.0
  0
SPLINE
  5
94
330
1F
100
AcDbEntity
  8
layer 1
 62
     7
100
AcDbSpline
210
0.0
220
0.0
230
1.0
 70
    11
 71
     3
 72
    48
 73
    44
 74
     0
 42
0.0000000001
 43
0.0000000001
 12
1.0
 22
0.0
 32
0.0
 13
1.0
 23
0.0
 33
0.0
 40
0.0
 40
0.0
 40
0.0
 40
0.0
 40
0.0833333333333333
 40
0.0833333333333333
 40
0.0833333333333333
 40
0.0833333333333333
 40
0.1666666666666667
 40
0.1666666666666667
 40
0.1666666666666667
 40
0.1666666666666667
 40
0.25
 40
0.25
 40
0.25
 40
0.25
 40
0.3333333333333333
 40
0.3333333333333333
 40
0.3333333333333333
 40
0.3333333333333333
 40
0.4166666666666667
 40
0.4166666666666667
 40
0.4166666666666667
 40
0.4166666666666667
 40
0.5
 40
0.5
 40
0.5
 40
0.5
 40
0.5833333333333334
 40
0.5833333333333334
 40
0.5833333333333334
 40
0.5833333333333334
 40
0.6666666666666666
 40
0.6666666666666666
 40
0.6666666666666666
 40
0.6666666666666666
 40
0.75
 40
0.75
 40
0.75
 40
0.75
 40
0.8333333333333334
 40
0.8333333333333334
 40
0.8333333333333334
 40
0.8333333333333334
 40
1.0
 40
1.0
 40
1.0
 40
1.0
 10
82.1907
 20
81.0463
 30
0.0
 10
82.1907
 20
81.0463
 30
0.0
 10
89.788
 20
78.6045
 30
0.0
 10
87.3451
 20
72.3132
 30
0.0
 10
87.3451
 20
72.3132
 30
0.0
 10
87.3451
 20
72.3132
 30
0.0
 10
85.0986
 20
67.4299
 30
0.0
 10
82.3739
 20
71.4677
 30
0.0
 10
82.3739
 20
71.4677
 30
0.0
 10
82.3739
 20
71.4677
 30
0.0
 10
84.0638
 20
72.0309
 30
0.0
 10
84.817
 20
74.0029
 30
0.0
 10
84.817
 20
74.0029
 30
0.0
 10
84.817
 20
74.0029
 30
0.0
 10
84.5353
 20
76.163
 30
0.0
 10
82.3739
 20
72.97
 30
0.0
 10
82.3739
 20
72.97
 30
0.0
 10
82.3739
 20
72.97
 30
0.0
 10
80.5924
 20
71.2797
 30
0.0
 10
79.8458
 20
71.8436
 30
0.0
 10
79.8458
 20
71.8436
 30
0.0
 10
79.8458
 20
71.8436
 30
0.0
 10
79.466
 20
62.6402
 30
0.0
 10
79.466
 20
62.6402
 30
0.0
 10
79.466
 20
62.6402
 30
0.0
 10
79.466
 20
62.6402
 30
0.0
 10
85.9434
 20
65.6451
 30
0.0
 10
92.2244
 20
62.6402
 30
0.0
 10
92.2244
 20
62.6402
 30
0.0
 10
92.2244
 20
62.6402
 30
0.0
 10
91.0062
 20
67.8995
 30
0.0
 10
93.9141
 20
70.9043
 30
0.0
 10
93.9141
 20
70.9043
 30
0.0
 10
93.9141
 20
70.9043
 30
0.0
 10
85.9434
 20
71.0923
 30
0.0
 10
91.7594
 20
79.0742
 30
0.0
 10
91.7594
 20
79.0742
 30
0.0
 10
91.7594
 20
79.0742
 30
0.0
 10
93.4427
 20
79.3564
 30
0.0
 10
91.2878
 20
81.1405
 30
0.0
 10
91.2878
 20
81.1405
 30
0.0
 10
91.2878
 20
81.1405
 30
0.0
 10
84.1619
 20
84.0511
 30
0.0
 10
82.1907
 20
81.0463
 30
0.0
  0
SPLINE
  5
95
330
1F
100
AcDbEntity
  8
layer 1
 62
     7
100
AcDbSpline
210
0.0
220
0.0
230
1.0
 70
    11
 71
     3
 72
    44
 73
    40
 74
     0
 42
0.0000000001
 43
0.0000000001
 12
1.0
 22
0.0
 32
0.0
 13
1.0
 23
0.0
 33
0.0
 40
0.0
 40
0.0
 40
0.0
 40
0.0
 40
0.0909090909090909
 40
0.0909090909090909
 40
0.0909090909090909
 40
0.0909090909090909
 40
0.1818181818181818
 40
0.1818181818181818
 40
0.1818181818181818
 40
0.1818181818181818
 40
0.2727272727272727
 40
0.2727272727272727
 40
0.2727272727272727
 40
0.2727272727272727
 40
0.3636363636363636
 40
0.3636363636363636
 40
0.3636363636363636
 40
0.3636363636363636
 40
0.4545454545454545
 40
0.4545454545454545
 40
0.4545454545454545
 40
0.4545454545454545
 40
0.5454545454545454
 40
0.5454545454545454
 40
0.5454545454545454
 40
0.5454545454545454
 40
0.6363636363636364
 40
0.6363636363636364
 40
0.6363636363636364
 40
0.6363636363636364
 40
0.7272727272727273
 40
0.7272727272727273
 40
0.7272727272727273
 40
0.7272727272727273
 40
0.8181818181818182
 40
0.8181818181818182
 40
0.8181818181818182
 40
0.8181818181818182
 40
1.0
 40
1.0
 40
1.0
 40
1.0
 10
79.466
 20
99.6402
 30
0.0
 10
79.466
 20
99.6402
 30
0.0
 10
79.5642
 20
94.2873
 30
0.0
 10
79.5642
 20
94.2873
 30
0.0
 10
79.5642
 20
94.2873
 30
0.0
 10
79.5642
 20
94.2873
 30
0.0
 10
85.4718
 20
94.7569
 30
0.0
 10
86.5984
 20
90.0616
 30
0.0
 10
86.5984
 20
90.0616
 30
0.0
 10
86.5984
 20
90.0616
 30
0.0
 10
88.9431
 20
88.7472
 30
0.0
 10
90.443
 20
92.2216
 30
0.0
 10
90.443
 20
92.2216
 30
0.0
 10
90.443
 20
92.2216
 30
0.0
 10
94.1959
 20
93.7241
 30
0.0
 10
91.0978
 20
88.9352
 30
0.0
 10
91.0978
 20
88.9352
 30
0.0
 10
91.0978
 20
88.9352
 30
0.0
 10
89.1331
 20
87.4321
 30
0.0
 10
86.4084
 20
86.4928
 30
0.0
 10
86.4084
 20
86.4928
 30
0.0
 10
86.4084
 20
86.4928
 30
0.0
 10
83.7821
 20
85.2719
 30
0.0
 10
87.4433
 20
86.3054
 30
0.0
 10
87.4433
 20
86.3054
 30
0.0
 10
87.4433
 20
86.3054
 30
0.0
 10
95.0407
 20
87.5263
 30
0.0
 10
95.6956
 20
95.4146
 30
0.0
 10
95.6956
 20
95.4146
 30
0.0
 10
95.6956
 20
95.4146
 30
0.0
 10
87.7249
 20
88.6528
 30
0.0
 10
86.9717
 20
99.2644
 30
0.0
 10
86.9717
 20
99.2644
 30
0.0
 10
86.9717
 20
99.2644
 30
0.0
 10
87.5349
 20
105.2748
 30
0.0
 10
81.6273
 20
100.6731
 30
0.0
 10
81.6273
 20
100.6731
 30
0.0
 10
81.6273
 20
100.6731
 30
0.0
 10
79.466
 20
99.6402
 30
0.0
 10
79.466
 20
99.6402
 30
0.0
  0
SPLINE
  5
96
330
1F
100
AcDbEntity
  8
layer 1
 62
     7
100
AcDbSpline
210
0.0
220
0.0
230
1.0
 70
    11
 71
     3
 72
    52
 73
    48
 74
     0
 42
0.0000000001
 43
0.0000000001
 12
1.0
 22
0.0
 32
0.0
 13
1.0
 23
0.0
 33
0.0
 40
0.0
 40
0.0
 40
0.0
 40
0.0
 40
0.0769230769230769
 40
0.0769230769230769
 40
0.0769230769230769
 40
0.0769230769230769
 40
0.1538461538461539
 40
0.1538461538461539
 40
0.1538461538461539
 40
0.1538461538461539
 40
0.2307692307692308
 40
0.2307692307692308
 40
0.2307692307692308
 40
0.2307692307692308
 40
0.3076923076923077
 40
0.3076923076923077
 40
0.3076923076923077
 40
0.3076923076923077
 40
0.3846153846153846
 40
0.3846153846153846
 40
0.3846153846153846
 40
0.3846153846153846
 40
0.4615384615384616
 40
0.4615384615384616
 40
0.4615384615384616
 40
0.4615384615384616
 40
0.5384615384615384
 40
0.5384615384615384
 40
0.5384615384615384
 40
0.5384615384615384
 40
0.6153846153846154
 40
0.6153846153846154
 40
0.6153846153846154
 40
0.6153846153846154
 40
0.6923076923076923
 40
0.6923076923076923
 40
0.6923076923076923
 40
0.6923076923076923
 40
0.7692307692307693
 40
0.7692307692307693
 40
0.7692307692307693
 40
0.7692307692307693
 40
0.8461538461538461
 40
0.8461538461538461
 40
0.8461538461538461
 40
0.8461538461538461
 40
1.0
 40
1.0
 40
1.0
 40
1.0
 10
88.8515
 20
115.323
 30
0.0
 10
88.8515
 20
115.323
 30
0.0
 10
84.0638
 20
112.8814
 30
0.0
 10
83.3171
 20
110.1581
 30
0.0
 10
83.3171
 20
110.1581
 30
0.0
 10
83.3171
 20
110.1581
 30
0.0
 10
80.8742
 20
105.838
 30
0.0
 10
79.8458
 20
106.214
 30
0.0
 10
79.8458
 20
106.214
 30
0.0
 10
79.8458
 20
106.214
 30
0.0
 10
79.656
 20
103.2084
 30
0.0
 10
79.656
 20
103.2084
 30
0.0
 10
79.656
 20
103.2084
 30
0.0
 10
79.656
 20
103.2084
 30
0.0
 10
87.9083
 20
109.8765
 30
0.0
 10
94.4775
 20
102.082
 30
0.0
 10
94.4775
 20
102.082
 30
0.0
 10
94.4775
 20
102.082
 30
0.0
 10
97.012
 20
106.214
 30
0.0
 10
99.7301
 20
104.9932
 30
0.0
 10
99.7301
 20
104.9932
 30
0.0
 10
99.7301
 20
104.9932
 30
0.0
 10
100.7649
 20
109.7822
 30
0.0
 10
102.7298
 20
107.5285
 30
0.0
 10
102.7298
 20
107.5285
 30
0.0
 10
102.7298
 20
107.5285
 30
0.0
 10
103.2931
 20
108.4678
 30
0.0
 10
105.1727
 20
103.6787
 30
0.0
 10
105.1727
 20
103.6787
 30
0.0
 10
105.1727
 20
103.6787
 30
0.0
 10
107.046
 20
112.975
 30
0.0
 10
98.1386
 20
114.0085
 30
0.0
 10
98.1386
 20
114.0085
 30
0.0
 10
98.1386
 20
114.0085
 30
0.0
 10
93.3509
 20
115.4174
 30
0.0
 10
92.5061
 20
109.7822
 30
0.0
 10
92.5061
 20
109.7822
 30
0.0
 10
92.5061
 20
109.7822
 30
0.0
 10
89.3164
 20
105.0868
 30
0.0
 10
86.3168
 20
109.5006
 30
0.0
 10
86.3168
 20
109.5006
 30
0.0
 10
86.3168
 20
109.5006
 30
0.0
 10
85.282
 20
110.8151
 30
0.0
 10
88.4715
 20
114.2901
 30
0.0
 10
88.4715
 20
114.2901
 30
0.0
 10
88.4715
 20
114.2901
 30
0.0
 10
88.8515
 20
115.323
 30
0.0
 10
88.8515
 20
115.323
 30
0.0
  0
SPLINE
  5
97
330
1F
100
AcDbEntity
  8
layer 1
 62
     7
100
AcDbSpline
210
0.0
220
0.0
230
1.0
 70
    11
 71
     3
 72
    44
 73
    40
 74
     0
 42
0.0000000001
 43
0.0000000001
 12
1.0
 22
0.0
 32
0.0
 13
1.0
 23
0.0
 33
0.0
 40
0.0
 40
0.0
 40
0.0
 40
0.0
 40
0.0909090909090909
 40
0.0909090909090909
 40
0.0909090909090909
 40
0.0909090909090909
 40
0.1818181818181818
 40
0.1818181818181818
 40
0.1818181818181818
 40
0.1818181818181818
 40
0.2727272727272727
 40
0.2727272727272727
 40
0.2727272727272727
 40
0.2727272727272727
 40
0.3636363636363636
 40
0.3636363636363636
 40
0.3636363636363636
 40
0.3636363636363636
 40
0.4545454545454545
 40
0.4545454545454545
 40
0.4545454545454545
 40
0.4545454545454545
 40
0.5454545454545454
 40
0.5454545454545454
 40
0.5454545454545454
 40
0.5454545454545454
 40
0.6363636363636364
 40
0.6363636363636364
 40
0.6363636363636364
 40
0.6363636363636364
 40
0.7272727272727273
 40
0.7272727272727273
 40
0.7272727272727273
 40
0.7272727272727273
 40
0.8181818181818182
 40
0.8181818181818182
 40
0.8181818181818182
 40
0.8181818181818182
 40
1.0
 40
1.0
 40
1.0
 40
1.0
 10
82.8455
 20
128.3762
 30
0.0
 10
82.8455
 20
128.3762
 30
0.0
 10
84.1619
 20
126.0289
 30
0.0
 10
91.5694
 20
125.9353
 30
0.0
 10
91.5694
 20
125.9353
 30
0.0
 10
91.5694
 20
125.9353
 30
0.0
 10
100.4833
 20
124.0567
 30
0.0
 10
104.5179
 20
115.511
 30
0.0
 10
104.5179
 20
115.511
 30
0.0
 10
104.5179
 20
115.511
 30
0.0
 10
107.3276
 20
112.7877
 30
0.0
 10
109.2072
 20
109.219
 30
0.0
 10
109.2072
 20
109.219
 30
0.0
 10
109.2072
 20
109.219
 30
0.0
 10
110.9887
 20
111.8486
 30
0.0
 10
109.9539
 20
119.1734
 30
0.0
 10
109.9539
 20
119.1734
 30
0.0
 10
109.9539
 20
119.1734
 30
0.0
 10
107.4258
 20
114.7598
 30
0.0
 10
104.7929
 20
117.2015
 30
0.0
 10
104.7929
 20
117.2015
 30
0.0
 10
104.7929
 20
117.2015
 30
0.0
 10
99.8742
 20
121.3878
 30
0.0
 10
105.8605
 20
123.5138
 30
0.0
 10
105.8605
 20
123.5138
 30
0.0
 10
106.9476
 20
123.9009
 30
0.0
 10
108.775
 20
123.8604
 30
0.0
 10
110.3337
 20
123.3993
 30
0.0
 10
110.3337
 20
123.3993
 30
0.0
 10
110.3337
 20
123.3993
 30
0.0
 10
109.6461
 20
124.9127
 30
0.0
 10
108.6178
 20
126.3819
 30
0.0
 10
108.6178
 20
126.3819
 30
0.0
 10
108.31
 20
126.8227
 30
0.0
 10
107.1966
 20
128.4326
 30
0.0
 10
107.0655
 20
128.4326
 30
0.0
 10
107.0655
 20
128.4326
 30
0.0
 10
102.2189
 20
128.4175
 30
0.0
 10
82.8455
 20
128.3762
 30
0.0
 10
82.8455
 20
128.3762
 30
0.0
  0
SPLINE
  5
98
330
1F
100
AcDbEntity
  8
layer 1
 62
     7
100
AcDbSpline
210
0.0
220
0.0
230
1.0
 70
    11
 71
     3
 72
    20
 73
    16
 74
     0
 42
0.0000000001
 43
0.0000000001
 12
1.0
 22
0.0
 32
0.0
 13
1.0
 23
0.0
 33
0.0
 40
0.0
 40
0.0
 40
0.0
 40
0.0
 40
0.2
 40
0.2
 40
0.2
 40
0.2
 40
0.4
 40
0.4
 40
0.4
 40
0.4
 40
0.6
 40
0.6
 40
0.6
 40
0.6
 40
1.0
 40
1.0
 40
1.0
 40
1.0
 10
79.656
 20
123.8689
 30
0.0
 10
79.656
 20
123.8689
 30
0.0
 10
79.466
 20
115.323
 30
0.0
 10
79.466
 20
115.323
 30
0.0
 10
79.466
 20
115.323
 30
0.0
 10
79.466
 20
115.323
 30
0.0
 10
86.6901
 20
120.2063
 30
0.0
 10
93.6325
 20
120.1127
 30
0.0
 10
93.6325
 20
120.1127
 30
0.0
 10
93.6325
 20
120.1127
 30
0.0
 10
84.1619
 20
121.7088
 30
0.0
 10
80.8742
 20
123.7751
 30
0.0
 10
80.8742
 20
123.7751
 30
0.0
 10
80.8742
 20
123.7751
 30
0.0
 10
79.656
 20
123.8689
 30
0.0
 10
79.656
 20
123.8689
 30
0.0
  0
ENDSEC
  0
SECTION
  2
OBJECTS
  0
DICTIONARY
  5
C
330
0
100
AcDbDictionary
281
     1
  3
ACAD_GROUP
350
D
  3
ACAD_LAYOUT
350
1A
  3
ACAD_MATERIAL
350
3B
  3
ACAD_MLEADERSTYLE
350
BB
  3
ACAD_MLINESTYLE
350
17
  3
ACAD_PLOTSETTINGS
350
19
  3
ACAD_PLOTSTYLENAME
350
E
  3
ACAD_TABLESTYLE
350
BA
  3
ACAD_VISUALSTYLE
350
2A
  0
DICTIONARY
  5
D
102
{ACAD_REACTORS
330
C
102
}
330
C
100
AcDbDictionary
281
     1
  0
DICTIONARY
  5
1A
102
{ACAD_REACTORS
330
C
102
}
330
C
100
AcDbDictionary
281
     1
  3
Layout1
350
1E
  3
Layout2
350
26
  3
Model
350
22
  0
DICTIONARY
  5
3B
102
{ACAD_REACTORS
330
C
102
}
330
C
100
AcDbDictionary
281
     1
  3
ByBlock
350
3D
  3
ByLayer
350
3C
  3
Global
350
3E
  0
DICTIONARY
  5
BB
102
{ACAD_REACTORS
330
C
102
}
330
C
100
AcDbDictionary
281
     1
  0
DICTIONARY
  5
17
102
{ACAD_REACTORS
330
C
102
}
330
C
100
AcDbDictionary
281
     1
  3
Standard
350
18
  0
DICTIONARY
  5
19
102
{ACAD_REACTORS
330
C
102
}
330
C
100
AcDbDictionary
281
     1
  0
ACDBDICTIONARYWDFLT
  5
E
102
{ACAD_REACTORS
330
C
102
}
330
C
100
AcDbDictionary
281
     1
  3
Normal
350
F
100
AcDbDictionaryWithDefault
340
F
  0
DICTIONARY
  5
BA
102
{ACAD_REACTORS
330
C
102
}
330
C
100
AcDbDictionary
281
     1
  0
DICTIONARY
  5
2A
102
{ACAD_REACTORS
330
C
102
}
330
C
100
AcDbDictionary
281
     1
  3
2dWireframe
350
2F
  3
3D Hidden
350
31
  3
3dWireframe
350
30
  3
Basic
350
32
  3
Brighten
350
36
  3
ColorChange
350
3A
  3
Conceptual
350
34
  3
Dim
350
35
  3
Facepattern
350
39
  3
Flat
350
2B
  3
FlatWithEdges
350
2C
  3
Gouraud
350
2D
  3
GouraudWithEdges
350
2E
  3
Linepattern
350
38
  3
Realistic
350
33
  3
Thicken
350
37
  0
LAYOUT
  5
1E
102
{ACAD_REACTORS
330
1A
102
}
330
1A
100
AcDbPlotSettings
  1

  2
none_device
  4

  6

 40
0.0
 41
0.0
 42
0.0
 43
0.0
 44
0.0
 45
0.0
 46
0.0
 47
0.0
 48
0.0
 49
0.0
140
0.0
141
0.0
142
1.0
143
1.0
 70
   688
 72
     0
 73
     0
 74
     5
  7

 75
    16
 76
     0
 77
     2
 78
   300
147
1.0
148
0.0
149
0.0
100
AcDbLayout
  1
Layout1
 70
     1
 71
     1
 10
0.0
 20
0.0
 11
12.0
 21
9.0
 12
0.0
 22
0.0
 32
0.0
 14
1.000000000000000E+20
 24
1.000000000000000E+20
 34
1.000000000000000E+20
 15
-1.000000000000000E+20
 25
-1.000000000000000E+20
 35
-1.000000000000000E+20
146
0.0
 13
0.0
 23
0.0
 33
0.0
 16
1.0
 26
0.0
 36
0.0
 17
0.0
 27
1.0
 37
0.0
 76
     0
330
1B
  0
LAYOUT
  5
26
102
{ACAD_REACTORS
330
1A
102
}
330
1A
100
AcDbPlotSettings
  1

  2
none_device
  4

  6

 40
0.0
 41
0.0
 42
0.0
 43
0.0
 44
0.0
 45
0.0
 46
0.0
 47
0.0
 48
0.0
 49
0.0
140
0.0
141
0.0
142
1.0
143
1.0
 70
   688
 72
     0
 73
     0
 74
     5
  7

 75
    16
 76
     0
 77
     2
 78
   300
147
1.0
148
0.0
149
0.0
100
AcDbLayout
  1
Layout2
 70
     1
 71
     2
 10
0.0
 20
0.0
 11
0.0
 21
0.0
 12
0.0
 22
0.0
 32
0.0
 14
0.0
 24
0.0
 34
0.0
 15
0.0
 25
0.0
 35
0.0
146
0.0
 13
0.0
 23
0.0
 33
0.0
 16
1.0
 26
0.0
 36
0.0
 17
0.0
 27
1.0
 37
0.0
 76
     0
330
23
  0
LAYOUT
  5
22
102
{ACAD_REACTORS
330
1A
102
}
330
1A
100
AcDbPlotSettings
  1

  2
none_device
  4

  6

 40
0.0
 41
0.0
 42
0.0
 43
0.0
 44
0.0
 45
0.0
 46
0.0
 47
0.0
 48
0.0
 49
0.0
140
0.0
141
0.0
142
1.0
143
1.0
 70
  1712
 72
     0
 73
     0
 74
     0
  7

 75
     0
 76
     0
 77
     2
 78
   300
147
1.0
148
0.0
149
0.0
100
AcDbLayout
  1
Model
 70
     1
 71
     0
 10
0.0
 20
0.0
 11
12.0
 21
9.0
 12
0.0
 22
0.0
 32
0.0
 14
76.7479
 24
-114.7523
 34
0.0
 15
195.8832
 25
131.1257
 35
0.0
146
0.0
 13
0.0
 23
0.0
 33
0.0
 16
1.0
 26
0.0
 36
0.0
 17
0.0
 27
1.0
 37
0.0
 76
     0
330
1F
331
29
  0
MATERIAL
  5
3D
102
{ACAD_REACTORS
330
3B
102
}
330
3B
100
AcDbMaterial
  1
ByBlock
 72
     1
 94
      127
  0
MATERIAL
  5
3C
102
{ACAD_REACTORS
330
3B
102
}
330
3B
100
AcDbMaterial
  1
ByLayer
 72
     1
 94
      127
  0
MATERIAL
  5
3E
102
{ACAD_REACTORS
330
3B
102
}
330
3B
100
AcDbMaterial
  1
Global
 72
     1
 94
      127
  0
MLINESTYLE
  5
18
102
{ACAD_REACTORS
330
17
102
}
330
17
100
AcDbMlineStyle
  2
Standard
 70
     0
  3

 62
   256
 51
90.0
 52
90.0
 71
     2
 49
0.5
 62
   256
  6
BYLAYER
 49
-0.5
 62
   256
  6
BYLAYER
  0
ACDBPLACEHOLDER
  5
F
102
{ACAD_REACTORS
330
E
102
}
330
E
  0
VISUALSTYLE
  5
2F
102
{ACAD_REACTORS
330
2A
102
}
102
{ACAD_XDICTIONARY
360
A2
102
}
330
2A
100
AcDbVisualStyle
  2
2dWireframe
 70
     4
 71
     0
 72
     2
 73
     0
 90
        0
 40
-0.6
 41
-30.0
 62
     5
 63
     7
421
 16777215
 74
     1
 91
        4
 64
     7
 65
   257
 75
     1
175
     1
 42
1.0
 92
        0
 66
   257
 43
1.0
 76
     1
 77
     6
 78
     2
 67
     7
 79
     5
170
     0
171
     0
290
     0
174
     0
 93
        1
 44
0.0
173
     0
291
     0
 45
0.0
  0
VISUALSTYLE
  5
31
102
{ACAD_REACTORS
330
2A
102
}
102
{ACAD_XDICTIONARY
360
A6
102
}
330
2A
100
AcDbVisualStyle
  2
3D Hidden
 70
     6
 71
     1
 72
     2
 73
     2
 90
        0
 40
-0.6
 41
-30.0
 62
     5
 63
     7
421
 16777215
 74
     2
 91
        2
 64
     7
 65
   257
 75
     2
175
     1
 42
40.0
 92
        0
 66
   257
 43
1.0
 76
     1
 77
     6
 78
     2
 67
     7
 79
     3
170
     0
171
     0
290
     0
174
     0
 93
        1
 44
0.0
173
     0
291
     0
 45
0.0
  0
VISUALSTYLE
  5
30
102
{ACAD_REACTORS
330
2A
102
}
102
{ACAD_XDICTIONARY
360
A4
102
}
330
2A
100
AcDbVisualStyle
  2
3dWireframe
 70
     5
 71
     0
 72
     2
 73
     0
 90
        0
 40
-0.6
 41
-30.0
 62
     5
 63
     7
421
 16777215
 74
     1
 91
        4
 64
     7
 65
   257
 75
     1
175
     1
 42
1.0
 92
        0
 66
   257
 43
1.0
 76
     1
 77
     6
 78
     2
 67
     7
 79
     5
170
     0
171
     0
290
     0
174
     0
 93
        1
 44
0.0
173
     0
291
     0
 45
0.0
  0
VISUALSTYLE
  5
32
102
{ACAD_REACTORS
330
2A
102
}
102
{ACAD_XDICTIONARY
360
A8
102
}
330
2A
100
AcDbVisualStyle
  2
Basic
 70
     7
 71
     1
 72
     0
 73
     1
 90
        0
 40
-0.6
 41
-30.0
 62
     5
 63
     7
421
 16777215
 74
     0
 91
        4
 64
     7
 65
   257
 75
     1
175
     1
 42
1.0
 92
        8
 66
     7
 43
1.0
 76
     1
 77
     6
 78
     2
 67
     7
 79
     5
170
     0
171
     0
290
     0
174
     0
 93
        1
 44
0.0
173
     0
291
     1
 45
0.0
  0
VISUALSTYLE
  5
36
102
{ACAD_REACTORS
330
2A
102
}
102
{ACAD_XDICTIONARY
360
B0
102
}
330
2A
100
AcDbVisualStyle
  2
Brighten
 70
    12
 71
     2
 72
     2
 73
     0
 90
        0
 40
-0.6
 41
-30.0
 62
     5
 63
     7
421
 16777215
 74
     1
 91
        4
 64
     7
 65
   257
 75
     1
175
     1
 42
1.0
 92
        8
 66
     7
 43
1.0
 76
     1
 77
     6
 78
     2
 67
     7
 79
     5
170
     0
171
     0
290
     0
174
     0
 93
        1
 44
50.0
173
     0
291
     1
 45
0.0
  0
VISUALSTYLE
  5
3A
102
{ACAD_REACTORS
330
2A
102
}
102
{ACAD_XDICTIONARY
360
B8
102
}
330
2A
100
AcDbVisualStyle
  2
ColorChange
 70
    16
 71
     2
 72
     2
 73
     3
 90
        0
 40
-0.6
 41
-30.0
 62
     5
 63
     8
421
  8421504
 74
     1
 91
        4
 64
     7
 65
   257
 75
     1
175
     1
 42
1.0
 92
        8
 66
     8
424
  8421504
 43
1.0
 76
     1
 77
     6
 78
     2
 67
     7
 79
     5
170
     0
171
     0
290
     0
174
     0
 93
        1
 44
0.0
173
     0
291
     1
 45
0.0
  0
VISUALSTYLE
  5
34
102
{ACAD_REACTORS
330
2A
102
}
102
{ACAD_XDICTIONARY
360
AC
102
}
330
2A
100
AcDbVisualStyle
  2
Conceptual
 70
     9
 71
     3
 72
     2
 73
     0
 90
        0
 40
-0.6
 41
-30.0
 62
     5
 63
     7
421
 16777215
 74
     2
 91
        2
 64
     7
 65
   257
 75
     1
175
     1
 42
40.0
 92
        8
 66
     7
 43
1.0
 76
     1
 77
     6
 78
     2
 67
     7
 79
     3
170
     0
171
     0
290
     0
174
     0
 93
        1
 44
0.0
173
     0
291
     0
 45
0.0
  0
VISUALSTYLE
  5
35
102
{ACAD_REACTORS
330
2A
102
}
102
{ACAD_XDICTIONARY
360
AE
102
}
330
2A
100
AcDbVisualStyle
  2
Dim
 70
    11
 71
     2
 72
     2
 73
     0
 90
        0
 40
-0.6
 41
-30.0
 62
     5
 63
     7
421
 16777215
 74
     1
 91
        4
 64
     7
 65
   257
 75
     1
175
     1
 42
1.0
 92
        8
 66
     7
 43
1.0
 76
     1
 77
     6
 78
     2
 67
     7
 79
     5
170
     0
171
     0
290
     0
174
     0
 93
        1
 44
-50.0
173
     0
291
     1
 45
0.0
  0
VISUALSTYLE
  5
39
102
{ACAD_REACTORS
330
2A
102
}
102
{ACAD_XDICTIONARY
360
B6
102
}
330
2A
100
AcDbVisualStyle
  2
Facepattern
 70
    15
 71
     2
 72
     2
 73
     0
 90
        0
 40
-0.6
 41
-30.0
 62
     5
 63
     7
421
 16777215
 74
     1
 91
        4
 64
     7
 65
   257
 75
     1
175
     1
 42
1.0
 92
        8
 66
     7
 43
1.0
 76
     1
 77
     6
 78
     2
 67
     7
 79
     5
170
     0
171
     0
290
     0
174
     0
 93
        1
 44
0.0
173
     0
291
     1
 45
0.0
  0
VISUALSTYLE
  5
2B
102
{ACAD_REACTORS
330
2A
102
}
102
{ACAD_XDICTIONARY
360
9A
102
}
330
2A
100
AcDbVisualStyle
  2
Flat
 70
     0
 71
     2
 72
     1
 73
     1
 90
        2
 40
-0.6
 41
30.0
 62
     5
 63
     7
421
 16777215
 74
     0
 91
        4
 64
     7
 65
   257
 75
     1
175
     1
 42
1.0
 92
        8
 66
     7
 43
1.0
 76
     1
 77
     6
 78
     2
 67
     7
 79
     5
170
     0
171
     0
290
     0
174
     0
 93
       13
 44
0.0
173
     0
291
     1
 45
0.0
  0
VISUALSTYLE
  5
2C
102
{ACAD_REACTORS
330
2A
102
}
102
{ACAD_XDICTIONARY
360
9C
102
}
330
2A
100
AcDbVisualStyle
  2
FlatWithEdges
 70
     1
 71
     2
 72
     1
 73
     1
 90
        2
 40
-0.6
 41
30.0
 62
     5
 63
     7
421
 16777215
 74
     1
 91
        4
 64
     7
 65
   257
 75
     1
175
     1
 42
1.0
 92
        0
 66
   257
 43
1.0
 76
     1
 77
     6
 78
     2
 67
     7
 79
     5
170
     0
171
     0
290
     0
174
     0
 93
       13
 44
0.0
173
     0
291
     1
 45
0.0
  0
VISUALSTYLE
  5
2D
102
{ACAD_REACTORS
330
2A
102
}
102
{ACAD_XDICTIONARY
360
9E
102
}
330
2A
100
AcDbVisualStyle
  2
Gouraud
 70
     2
 71
     2
 72
     2
 73
     1
 90
        2
 40
-0.6
 41
30.0
 62
     5
 63
     7
421
 16777215
 74
     0
 91
        4
 64
     7
 65
   257
 75
     1
175
     1
 42
1.0
 92
        0
 66
     7
 43
1.0
 76
     1
 77
     6
 78
     2
 67
     7
 79
     5
170
     0
171
     0
290
     0
174
     0
 93
       13
 44
0.0
173
     0
291
     1
 45
0.0
  0
VISUALSTYLE
  5
2E
102
{ACAD_REACTORS
330
2A
102
}
102
{ACAD_XDICTIONARY
360
A0
102
}
330
2A
100
AcDbVisualStyle
  2
GouraudWithEdges
 70
     3
 71
     2
 72
     2
 73
     1
 90
        2
 40
-0.6
 41
30.0
 62
     5
 63
     7
421
 16777215
 74
     1
 91
        4
 64
     7
 65
   257
 75
     1
175
     1
 42
1.0
 92
        0
 66
   257
 43
1.0
 76
     1
 77
     6
 78
     2
 67
     7
 79
     5
170
     0
171
     0
290
     0
174
     0
 93
       13
 44
0.0
173
     0
291
     1
 45
0.0
  0
VISUALSTYLE
  5
38
102
{ACAD_REACTORS
330
2A
102
}
102
{ACAD_XDICTIONARY
360
B4
102
}
330
2A
100
AcDbVisualStyle
  2
Linepattern
 70
    14
 71
     2
 72
     2
 73
     0
 90
        0
 40
-0.6
 41
-30.0
 62
     5
 63
     7
421
 16777215
 74
     1
 91
        4
 64
     7
 65
   257
 75
     7
175
     7
 42
1.0
 92
        8
 66
     7
 43
1.0
 76
     1
 77
     6
 78
     2
 67
     7
 79
     5
170
     0
171
     0
290
     0
174
     0
 93
        1
 44
0.0
173
     0
291
     1
 45
0.0
  0
VISUALSTYLE
  5
33
102
{ACAD_REACTORS
330
2A
102
}
102
{ACAD_XDICTIONARY
360
AA
102
}
330
2A
100
AcDbVisualStyle
  2
Realistic
 70
     8
 71
     2
 72
     2
 73
     0
 90
        0
 40
-0.6
 41
-30.0
 62
     5
 63
     7
421
 16777215
 74
     1
 91
        0
 64
     7
 65
   257
 75
     1
175
     1
 42
1.0
 92
        8
 66
     8
424
  7895160
 43
1.0
 76
     1
 77
     6
 78
     2
 67
     7
 79
     5
170
     0
171
     0
290
     0
174
     0
 93
       13
 44
0.0
173
     0
291
     0
 45
0.0
  0
VISUALSTYLE
  5
37
102
{ACAD_REACTORS
330
2A
102
}
102
{ACAD_XDICTIONARY
360
B2
102
}
330
2A
100
AcDbVisualStyle
  2
Thicken
 70
    13
 71
     2
 72
     2
 73
     0
 90
        0
 40
-0.6
 41
-30.0
 62
     5
 63
     7
421
 16777215
 74
     1
 91
        4
 64
     7
 65
   257
 75
     1
175
     1
 42
1.0
 92
       12
 66
     7
 43
1.0
 76
     1
 77
     6
 78
     2
 67
     7
 79
     5
170
     0
171
     0
290
     0
174
     0
 93
        1
 44
0.0
173
     0
291
     1
 45
0.0
  0
DICTIONARY
  5
A2
330
2F
100
AcDbDictionary
280
     1
281
     1
  3
ACAD_XREC_ROUNDTRIP
360
A3
  0
DICTIONARY
  5
A6
330
31
100
AcDbDictionary
280
     1
281
     1
  3
ACAD_XREC_ROUNDTRIP
360
A7
  0
DICTIONARY
  5
A4
330
30
100
AcDbDictionary
280
     1
281
     1
  3
ACAD_XREC_ROUNDTRIP
360
A5
  0
DICTIONARY
  5
A8
330
32
100
AcDbDictionary
280
     1
281
     1
  3
ACAD_XREC_ROUNDTRIP
360
A9
  0
DICTIONARY
  5
B0
330
36
100
AcDbDictionary
280
     1
281
     1
  3
ACAD_XREC_ROUNDTRIP
360
B1
  0
DICTIONARY
  5
B8
330
3A
100
AcDbDictionary
280
     1
281
     1
  3
ACAD_XREC_ROUNDTRIP
360
B9
  0
DICTIONARY
  5
AC
330
34
100
AcDbDictionary
280
     1
281
     1
  3
ACAD_XREC_ROUNDTRIP
360
AD
  0
DICTIONARY
  5
AE
330
35
100
AcDbDictionary
280
     1
281
     1
  3
ACAD_XREC_ROUNDTRIP
360
AF
  0
DICTIONARY
  5
B6
330
39
100
AcDbDictionary
280
     1
281
     1
  3
ACAD_XREC_ROUNDTRIP
360
B7
  0
DICTIONARY
  5
9A
330
2B
100
AcDbDictionary
280
     1
281
     1
  3
ACAD_XREC_ROUNDTRIP
360
9B
  0
DICTIONARY
  5
9C
330
2C
100
AcDbDictionary
280
     1
281
     1
  3
ACAD_XREC_ROUNDTRIP
360
9D
  0
DICTIONARY
  5
9E
330
2D
100
AcDbDictionary
280
     1
281
     1
  3
ACAD_XREC_ROUNDTRIP
360
9F
  0
DICTIONARY
  5
A0
330
2E
100
AcDbDictionary
280
     1
281
     1
  3
ACAD_XREC_ROUNDTRIP
360
A1
  0
DICTIONARY
  5
B4
330
38
100
AcDbDictionary
280
     1
281
     1
  3
ACAD_XREC_ROUNDTRIP
360
B5
  0
DICTIONARY
  5
AA
330
33
100
AcDbDictionary
280
     1
281
     1
  3
ACAD_XREC_ROUNDTRIP
360
AB
  0
DICTIONARY
  5
B2
330
37
100
AcDbDictionary
280
     1
281
     1
  3
ACAD_XREC_ROUNDTRIP
360
B3
  0
XRECORD
  5
A3
102
{ACAD_REACTORS
330
A2
102
}
330
A2
100
AcDbXrecord
280
     1
102
RTVSPropertyOp0
 70
     1
102
RTVSPropertyOp1
 70
     1
102
RTVSPropertyOp2
 70
     1
102
RTVSPropertyOp3
 70
     1
102
RTVSPropertyOp4
 70
     1
102
RTVSPropertyOp5
 70
     1
102
RTVSPropertyOp6
 70
     1
102
RTVSPropertyOp7
 70
     1
102
RTVSPropertyOp8
 70
     1
102
RTVSPropertyOp9
 70
     1
102
RTVSPropertyOp10
 70
     1
102
RTVSPropertyOp11
 70
     1
102
RTVSPropertyOp12
 70
     1
102
RTVSPropertyOp13
 70
     1
102
RTVSPropertyOp14
 70
     1
102
RTVSPropertyOp15
 70
     1
102
RTVSPropertyOp16
 70
     1
102
RTVSPropertyOp17
 70
     1
102
RTVSPropertyOp18
 70
     1
102
RTVSPropertyOp19
 70
     1
102
RTVSPropertyOp20
 70
     1
102
RTVSPropertyOp21
 70
     1
102
RTVSPropertyOp22
 70
     1
102
RTVSPropertyOp23
 70
     1
102
RTVSPropertyOp24
 70
     1
102
RTVSPropertyOp25
 70
     1
102
RTVSPropertyOp26
 70
     1
102
RTVSPropertyOp27
 70
     1
102
RTVSPropertyOp28
 70
     1
102
RTVSPropertyOp29
 70
     1
102
RTVSPropertyOp30
 70
     1
102
RTVSPropertyOp31
 70
     1
102
RTVSPropertyOp32
 70
     1
  0
XRECORD
  5
A7
102
{ACAD_REACTORS
330
A6
102
}
330
A6
100
AcDbXrecord
280
     1
102
RTVSPropertyOp0
 70
     1
102
RTVSPropertyOp1
 70
     1
102
RTVSPropertyOp2
 70
     1
102
RTVSPropertyOp3
 70
     1
102
RTVSPropertyOp4
 70
     1
102
RTVSPropertyOp5
 70
     1
102
RTVSPropertyOp6
 70
     1
102
RTVSPropertyOp7
 70
     1
102
RTVSPropertyOp8
 70
     1
102
RTVSPropertyOp9
 70
     1
102
RTVSPropertyOp10
 70
     1
102
RTVSPropertyOp11
 70
     1
102
RTVSPropertyOp12
 70
     1
102
RTVSPropertyOp13
 70
     1
102
RTVSPropertyOp14
 70
     1
102
RTVSPropertyOp15
 70
     1
102
RTVSPropertyOp16
 70
     1
102
RTVSPropertyOp17
 70
     1
102
RTVSPropertyOp18
 70
     1
102
RTVSPropertyOp19
 70
     1
102
RTVSPropertyOp20
 70
     1
102
RTVSPropertyOp21
 70
     1
102
RTVSPropertyOp22
 70
     1
102
RTVSPropertyOp23
 70
     1
102
RTVSPropertyOp24
 70
     1
102
RTVSPropertyOp25
 70
     1
102
RTVSPropertyOp26
 70
     1
102
RTVSPropertyOp27
 70
     1
102
RTVSPropertyOp28
 70
     1
102
RTVSPropertyOp29
 70
     1
102
RTVSPropertyOp30
 70
     1
102
RTVSPropertyOp31
 70
     1
102
RTVSPropertyOp32
 70
     1
  0
XRECORD
  5
A5
102
{ACAD_REACTORS
330
A4
102
}
330
A4
100
AcDbXrecord
280
     1
102
RTVSPropertyOp0
 70
     1
102
RTVSPropertyOp1
 70
     1
102
RTVSPropertyOp2
 70
     1
102
RTVSPropertyOp3
 70
     1
102
RTVSPropertyOp4
 70
     1
102
RTVSPropertyOp5
 70
     1
102
RTVSPropertyOp6
 70
     1
102
RTVSPropertyOp7
 70
     1
102
RTVSPropertyOp8
 70
     1
102
RTVSPropertyOp9
 70
     1
102
RTVSPropertyOp10
 70
     1
102
RTVSPropertyOp11
 70
     1
102
RTVSPropertyOp12
 70
     1
102
RTVSPropertyOp13
 70
     1
102
RTVSPropertyOp14
 70
     1
102
RTVSPropertyOp15
 70
     1
102
RTVSPropertyOp16
 70
     1
102
RTVSPropertyOp17
 70
     1
102
RTVSPropertyOp18
 70
     1
102
RTVSPropertyOp19
 70
     1
102
RTVSPropertyOp20
 70
     1
102
RTVSPropertyOp21
 70
     1
102
RTVSPropertyOp22
 70
     1
102
RTVSPropertyOp23
 70
     1
102
RTVSPropertyOp24
 70
     1
102
RTVSPropertyOp25
 70
     1
102
RTVSPropertyOp26
 70
     1
102
RTVSPropertyOp27
 70
     1
102
RTVSPropertyOp28
 70
     1
102
RTVSPropertyOp29
 70
     1
102
RTVSPropertyOp30
 70
     1
102
RTVSPropertyOp31
 70
     1
102
RTVSPropertyOp32
 70
     1
  0
XRECORD
  5
A9
102
{ACAD_REACTORS
330
A8
102
}
330
A8
100
AcDbXrecord
280
     1
102
RTVSPropertyOp0
 70
     1
102
RTVSPropertyOp1
 70
     1
102
RTVSPropertyOp2
 70
     1
102
RTVSPropertyOp3
 70
     1
102
RTVSPropertyOp4
 70
     1
102
RTVSPropertyOp5
 70
     1
102
RTVSPropertyOp6
 70
     1
102
RTVSPropertyOp7
 70
     1
102
RTVSPropertyOp8
 70
     1
102
RTVSPropertyOp9
 70
     1
102
RTVSPropertyOp10
 70
     1
102
RTVSPropertyOp11
 70
     1
102
RTVSPropertyOp12
 70
     1
102
RTVSPropertyOp13
 70
     1
102
RTVSPropertyOp14
 70
     1
102
RTVSPropertyOp15
 70
     1
102
RTVSPropertyOp16
 70
     1
102
RTVSPropertyOp17
 70
     1
102
RTVSPropertyOp18
 70
     1
102
RTVSPropertyOp19
 70
     1
102
RTVSPropertyOp20
 70
     1
102
RTVSPropertyOp21
 70
     1
102
RTVSPropertyOp22
 70
     1
102
RTVSPropertyOp23
 70
     1
102
RTVSPropertyOp24
 70
     1
102
RTVSPropertyOp25
 70
     1
102
RTVSPropertyOp26
 70
     1
102
RTVSPropertyOp27
 70
     1
102
RTVSPropertyOp28
 70
     1
102
RTVSPropertyOp29
 70
     1
102
RTVSPropertyOp30
 70
     1
102
RTVSPropertyOp31
 70
     1
102
RTVSPropertyOp32
 70
     1
  0
XRECORD
  5
B1
102
{ACAD_REACTORS
330
B0
102
}
330
B0
100
AcDbXrecord
280
     1
102
RTVSPropertyOp0
 70
     1
102
RTVSPropertyOp1
 70
     1
102
RTVSPropertyOp2
 70
     1
102
RTVSPropertyOp3
 70
     1
102
RTVSPropertyOp4
 70
     1
102
RTVSPropertyOp5
 70
     1
102
RTVSPropertyOp6
 70
     1
102
RTVSPropertyOp7
 70
     1
102
RTVSPropertyOp8
 70
     1
102
RTVSPropertyOp9
 70
     1
102
RTVSPropertyOp10
 70
     1
102
RTVSPropertyOp11
 70
     1
102
RTVSPropertyOp12
 70
     1
102
RTVSPropertyOp13
 70
     1
102
RTVSPropertyOp14
 70
     1
102
RTVSPropertyOp15
 70
     1
102
RTVSPropertyOp16
 70
     1
102
RTVSPropertyOp17
 70
     1
102
RTVSPropertyOp18
 70
     1
102
RTVSPropertyOp19
 70
     1
102
RTVSPropertyOp20
 70
     1
102
RTVSPropertyOp21
 70
     1
102
RTVSPropertyOp22
 70
     1
102
RTVSPropertyOp23
 70
     1
102
RTVSPropertyOp24
 70
     1
102
RTVSPropertyOp25
 70
     1
102
RTVSPropertyOp26
 70
     1
102
RTVSPropertyOp27
 70
     1
102
RTVSPropertyOp28
 70
     1
102
RTVSPropertyOp29
 70
     1
102
RTVSPropertyOp30
 70
     1
102
RTVSPropertyOp31
 70
     1
102
RTVSPropertyOp32
 70
     1
  0
XRECORD
  5
B9
102
{ACAD_REACTORS
330
B8
102
}
330
B8
100
AcDbXrecord
280
     1
102
RTVSPropertyOp0
 70
     1
102
RTVSPropertyOp1
 70
     1
102
RTVSPropertyOp2
 70
     1
102
RTVSPropertyOp3
 70
     1
102
RTVSPropertyOp4
 70
     1
102
RTVSPropertyOp5
 70
     1
102
RTVSPropertyOp6
 70
     1
102
RTVSPropertyOp7
 70
     1
102
RTVSPropertyOp8
 70
     1
102
RTVSPropertyOp9
 70
     1
102
RTVSPropertyOp10
 70
     1
102
RTVSPropertyOp11
 70
     1
102
RTVSPropertyOp12
 70
     1
102
RTVSPropertyOp13
 70
     1
102
RTVSPropertyOp14
 70
     1
102
RTVSPropertyOp15
 70
     1
102
RTVSPropertyOp16
 70
     1
102
RTVSPropertyOp17
 70
     1
102
RTVSPropertyOp18
 70
     1
102
RTVSPropertyOp19
 70
     1
102
RTVSPropertyOp20
 70
     1
102
RTVSPropertyOp21
 70
     1
102
RTVSPropertyOp22
 70
     1
102
RTVSPropertyOp23
 70
     1
102
RTVSPropertyOp24
 70
     1
102
RTVSPropertyOp25
 70
     1
102
RTVSPropertyOp26
 70
     1
102
RTVSPropertyOp27
 70
     1
102
RTVSPropertyOp28
 70
     1
102
RTVSPropertyOp29
 70
     1
102
RTVSPropertyOp30
 70
     1
102
RTVSPropertyOp31
 70
     1
102
RTVSPropertyOp32
 70
     1
  0
XRECORD
  5
AD
102
{ACAD_REACTORS
330
AC
102
}
330
AC
100
AcDbXrecord
280
     1
102
RTVSPropertyOp0
 70
     1
102
RTVSPropertyOp1
 70
     1
102
RTVSPropertyOp2
 70
     1
102
RTVSPropertyOp3
 70
     1
102
RTVSPropertyOp4
 70
     1
102
RTVSPropertyOp5
 70
     1
102
RTVSPropertyOp6
 70
     1
102
RTVSPropertyOp7
 70
     1
102
RTVSPropertyOp8
 70
     1
102
RTVSPropertyOp9
 70
     1
102
RTVSPropertyOp10
 70
     1
102
RTVSPropertyOp11
 70
     1
102
RTVSPropertyOp12
 70
     1
102
RTVSPropertyOp13
 70
     1
102
RTVSPropertyOp14
 70
     1
102
RTVSPropertyOp15
 70
     1
102
RTVSPropertyOp16
 70
     1
102
RTVSPropertyOp17
 70
     1
102
RTVSPropertyOp18
 70
     1
102
RTVSPropertyOp19
 70
     1
102
RTVSPropertyOp20
 70
     1
102
RTVSPropertyOp21
 70
     1
102
RTVSPropertyOp22
 70
     1
102
RTVSPropertyOp23
 70
     1
102
RTVSPropertyOp24
 70
     1
102
RTVSPropertyOp25
 70
     1
102
RTVSPropertyOp26
 70
     1
102
RTVSPropertyOp27
 70
     1
102
RTVSPropertyOp28
 70
     1
102
RTVSPropertyOp29
 70
     1
102
RTVSPropertyOp30
 70
     1
102
RTVSPropertyOp31
 70
     1
102
RTVSPropertyOp32
 70
     1
  0
XRECORD
  5
AF
102
{ACAD_REACTORS
330
AE
102
}
330
AE
100
AcDbXrecord
280
     1
102
RTVSPropertyOp0
 70
     1
102
RTVSPropertyOp1
 70
     1
102
RTVSPropertyOp2
 70
     1
102
RTVSPropertyOp3
 70
     1
102
RTVSPropertyOp4
 70
     1
102
RTVSPropertyOp5
 70
     1
102
RTVSPropertyOp6
 70
     1
102
RTVSPropertyOp7
 70
     1
102
RTVSPropertyOp8
 70
     1
102
RTVSPropertyOp9
 70
     1
102
RTVSPropertyOp10
 70
     1
102
RTVSPropertyOp11
 70
     1
102
RTVSPropertyOp12
 70
     1
102
RTVSPropertyOp13
 70
     1
102
RTVSPropertyOp14
 70
     1
102
RTVSPropertyOp15
 70
     1
102
RTVSPropertyOp16
 70
     1
102
RTVSPropertyOp17
 70
     1
102
RTVSPropertyOp18
 70
     1
102
RTVSPropertyOp19
 70
     1
102
RTVSPropertyOp20
 70
     1
102
RTVSPropertyOp21
 70
     1
102
RTVSPropertyOp22
 70
     1
102
RTVSPropertyOp23
 70
     1
102
RTVSPropertyOp24
 70
     1
102
RTVSPropertyOp25
 70
     1
102
RTVSPropertyOp26
 70
     1
102
RTVSPropertyOp27
 70
     1
102
RTVSPropertyOp28
 70
     1
102
RTVSPropertyOp29
 70
     1
102
RTVSPropertyOp30
 70
     1
102
RTVSPropertyOp31
 70
     1
102
RTVSPropertyOp32
 70
     1
  0
XRECORD
  5
B7
102
{ACAD_REACTORS
330
B6
102
}
330
B6
100
AcDbXrecord
280
     1
102
RTVSPropertyOp0
 70
     1
102
RTVSPropertyOp1
 70
     1
102
RTVSPropertyOp2
 70
     1
102
RTVSPropertyOp3
 70
     1
102
RTVSPropertyOp4
 70
     1
102
RTVSPropertyOp5
 70
     1
102
RTVSPropertyOp6
 70
     1
102
RTVSPropertyOp7
 70
     1
102
RTVSPropertyOp8
 70
     1
102
RTVSPropertyOp9
 70
     1
102
RTVSPropertyOp10
 70
     1
102
RTVSPropertyOp11
 70
     1
102
RTVSPropertyOp12
 70
     1
102
RTVSPropertyOp13
 70
     1
102
RTVSPropertyOp14
 70
     1
102
RTVSPropertyOp15
 70
     1
102
RTVSPropertyOp16
 70
     1
102
RTVSPropertyOp17
 70
     1
102
RTVSPropertyOp18
 70
     1
102
RTVSPropertyOp19
 70
     1
102
RTVSPropertyOp20
 70
     1
102
RTVSPropertyOp21
 70
     1
102
RTVSPropertyOp22
 70
     1
102
RTVSPropertyOp23
 70
     1
102
RTVSPropertyOp24
 70
     1
102
RTVSPropertyOp25
 70
     1
102
RTVSPropertyOp26
 70
     1
102
RTVSPropertyOp27
 70
     1
102
RTVSPropertyOp28
 70
     1
102
RTVSPropertyOp29
 70
     1
102
RTVSPropertyOp30
 70
     1
102
RTVSPropertyOp31
 70
     1
102
RTVSPropertyOp32
 70
     1
  0
XRECORD
  5
9B
102
{ACAD_REACTORS
330
9A
102
}
330
9A
100
AcDbXrecord
280
     1
102
RTVSPropertyOp0
 70
     1
102
RTVSPropertyOp1
 70
     1
102
RTVSPropertyOp2
 70
     1
102
RTVSPropertyOp3
 70
     1
102
RTVSPropertyOp4
 70
     1
102
RTVSPropertyOp5
 70
     1
102
RTVSPropertyOp6
 70
     1
102
RTVSPropertyOp7
 70
     1
102
RTVSPropertyOp8
 70
     1
102
RTVSPropertyOp9
 70
     1
102
RTVSPropertyOp10
 70
     1
102
RTVSPropertyOp11
 70
     1
102
RTVSPropertyOp12
 70
     1
102
RTVSPropertyOp13
 70
     1
102
RTVSPropertyOp14
 70
     1
102
RTVSPropertyOp15
 70
     1
102
RTVSPropertyOp16
 70
     1
102
RTVSPropertyOp17
 70
     1
102
RTVSPropertyOp18
 70
     1
102
RTVSPropertyOp19
 70
     1
102
RTVSPropertyOp20
 70
     1
102
RTVSPropertyOp21
 70
     1
102
RTVSPropertyOp22
 70
     1
102
RTVSPropertyOp23
 70
     1
102
RTVSPropertyOp24
 70
     1
102
RTVSPropertyOp25
 70
     1
102
RTVSPropertyOp26
 70
     1
102
RTVSPropertyOp27
 70
     1
102
RTVSPropertyOp28
 70
     1
102
RTVSPropertyOp29
 70
     1
102
RTVSPropertyOp30
 70
     1
102
RTVSPropertyOp31
 70
     1
102
RTVSPropertyOp32
 70
     1
  0
XRECORD
  5
9D
102
{ACAD_REACTORS
330
9C
102
}
330
9C
100
AcDbXrecord
280
     1
102
RTVSPropertyOp0
 70
     1
102
RTVSPropertyOp1
 70
     1
102
RTVSPropertyOp2
 70
     1
102
RTVSPropertyOp3
 70
     1
102
RTVSPropertyOp4
 70
     1
102
RTVSPropertyOp5
 70
     1
102
RTVSPropertyOp6
 70
     1
102
RTVSPropertyOp7
 70
     1
102
RTVSPropertyOp8
 70
     1
102
RTVSPropertyOp9
 70
     1
102
RTVSPropertyOp10
 70
     1
102
RTVSPropertyOp11
 70
     1
102
RTVSPropertyOp12
 70
     1
102
RTVSPropertyOp13
 70
     1
102
RTVSPropertyOp14
 70
     1
102
RTVSPropertyOp15
 70
     1
102
RTVSPropertyOp16
 70
     1
102
RTVSPropertyOp17
 70
     1
102
RTVSPropertyOp18
 70
     1
102
RTVSPropertyOp19
 70
     1
102
RTVSPropertyOp20
 70
     1
102
RTVSPropertyOp21
 70
     1
102
RTVSPropertyOp22
 70
     1
102
RTVSPropertyOp23
 70
     1
102
RTVSPropertyOp24
 70
     1
102
RTVSPropertyOp25
 70
     1
102
RTVSPropertyOp26
 70
     1
102
RTVSPropertyOp27
 70
     1
102
RTVSPropertyOp28
 70
     1
102
RTVSPropertyOp29
 70
     1
102
RTVSPropertyOp30
 70
     1
102
RTVSPropertyOp31
 70
     1
102
RTVSPropertyOp32
 70
     1
  0
XRECORD
  5
9F
102
{ACAD_REACTORS
330
9E
102
}
330
9E
100
AcDbXrecord
280
     1
102
RTVSPropertyOp0
 70
     1
102
RTVSPropertyOp1
 70
     1
102
RTVSPropertyOp2
 70
     1
102
RTVSPropertyOp3
 70
     1
102
RTVSPropertyOp4
 70
     1
102
RTVSPropertyOp5
 70
     1
102
RTVSPropertyOp6
 70
     1
102
RTVSPropertyOp7
 70
     1
102
RTVSPropertyOp8
 70
     1
102
RTVSPropertyOp9
 70
     1
102
RTVSPropertyOp10
 70
     1
102
RTVSPropertyOp11
 70
     1
102
RTVSPropertyOp12
 70
     1
102
RTVSPropertyOp13
 70
     1
102
RTVSPropertyOp14
 70
     1
102
RTVSPropertyOp15
 70
     1
102
RTVSPropertyOp16
 70
     1
102
RTVSPropertyOp17
 70
     1
102
RTVSPropertyOp18
 70
     1
102
RTVSPropertyOp19
 70
     1
102
RTVSPropertyOp20
 70
     1
102
RTVSPropertyOp21
 70
     1
102
RTVSPropertyOp22
 70
     1
102
RTVSPropertyOp23
 70
     1
102
RTVSPropertyOp24
 70
     1
102
RTVSPropertyOp25
 70
     1
102
RTVSPropertyOp26
 70
     1
102
RTVSPropertyOp27
 70
     1
102
RTVSPropertyOp28
 70
     1
102
RTVSPropertyOp29
 70
     1
102
RTVSPropertyOp30
 70
     1
102
RTVSPropertyOp31
 70
     1
102
RTVSPropertyOp32
 70
     1
  0
XRECORD
  5
A1
102
{ACAD_REACTORS
330
A0
102
}
330
A0
100
AcDbXrecord
280
     1
102
RTVSPropertyOp0
 70
     1
102
RTVSPropertyOp1
 70
     1
102
RTVSPropertyOp2
 70
     1
102
RTVSPropertyOp3
 70
     1
102
RTVSPropertyOp4
 70
     1
102
RTVSPropertyOp5
 70
     1
102
RTVSPropertyOp6
 70
     1
102
RTVSPropertyOp7
 70
     1
102
RTVSPropertyOp8
 70
     1
102
RTVSPropertyOp9
 70
     1
102
RTVSPropertyOp10
 70
     1
102
RTVSPropertyOp11
 70
     1
102
RTVSPropertyOp12
 70
     1
102
RTVSPropertyOp13
 70
     1
102
RTVSPropertyOp14
 70
     1
102
RTVSPropertyOp15
 70
     1
102
RTVSPropertyOp16
 70
     1
102
RTVSPropertyOp17
 70
     1
102
RTVSPropertyOp18
 70
     1
102
RTVSPropertyOp19
 70
     1
102
RTVSPropertyOp20
 70
     1
102
RTVSPropertyOp21
 70
     1
102
RTVSPropertyOp22
 70
     1
102
RTVSPropertyOp23
 70
     1
102
RTVSPropertyOp24
 70
     1
102
RTVSPropertyOp25
 70
     1
102
RTVSPropertyOp26
 70
     1
102
RTVSPropertyOp27
 70
     1
102
RTVSPropertyOp28
 70
     1
102
RTVSPropertyOp29
 70
     1
102
RTVSPropertyOp30
 70
     1
102
RTVSPropertyOp31
 70
     1
102
RTVSPropertyOp32
 70
     1
  0
XRECORD
  5
B5
102
{ACAD_REACTORS
330
B4
102
}
330
B4
100
AcDbXrecord
280
     1
102
RTVSPropertyOp0
 70
     1
102
RTVSPropertyOp1
 70
     1
102
RTVSPropertyOp2
 70
     1
102
RTVSPropertyOp3
 70
     1
102
RTVSPropertyOp4
 70
     1
102
RTVSPropertyOp5
 70
     1
102
RTVSPropertyOp6
 70
     1
102
RTVSPropertyOp7
 70
     1
102
RTVSPropertyOp8
 70
     1
102
RTVSPropertyOp9
 70
     1
102
RTVSPropertyOp10
 70
     1
102
RTVSPropertyOp11
 70
     1
102
RTVSPropertyOp12
 70
     1
102
RTVSPropertyOp13
 70
     1
102
RTVSPropertyOp14
 70
     1
102
RTVSPropertyOp15
 70
     1
102
RTVSPropertyOp16
 70
     1
102
RTVSPropertyOp17
 70
     1
102
RTVSPropertyOp18
 70
     1
102
RTVSPropertyOp19
 70
     1
102
RTVSPropertyOp20
 70
     1
102
RTVSPropertyOp21
 70
     1
102
RTVSPropertyOp22
 70
     1
102
RTVSPropertyOp23
 70
     1
102
RTVSPropertyOp24
 70
     1
102
RTVSPropertyOp25
 70
     1
102
RTVSPropertyOp26
 70
     1
102
RTVSPropertyOp27
 70
     1
102
RTVSPropertyOp28
 70
     1
102
RTVSPropertyOp29
 70
     1
102
RTVSPropertyOp30
 70
     1
102
RTVSPropertyOp31
 70
     1
102
RTVSPropertyOp32
 70
     1
  0
XRECORD
  5
AB
102
{ACAD_REACTORS
330
AA
102
}
330
AA
100
AcDbXrecord
280
     1
102
RTVSPropertyOp0
 70
     1
102
RTVSPropertyOp1
 70
     1
102
RTVSPropertyOp2
 70
     1
102
RTVSPropertyOp3
 70
     1
102
RTVSPropertyOp4
 70
     1
102
RTVSPropertyOp5
 70
     1
102
RTVSPropertyOp6
 70
     1
102
RTVSPropertyOp7
 70
     1
102
RTVSPropertyOp8
 70
     1
102
RTVSPropertyOp9
 70
     1
102
RTVSPropertyOp10
 70
     1
102
RTVSPropertyOp11
 70
     1
102
RTVSPropertyOp12
 70
     1
102
RTVSPropertyOp13
 70
     1
102
RTVSPropertyOp14
 70
     1
102
RTVSPropertyOp15
 70
     1
102
RTVSPropertyOp16
 70
     1
102
RTVSPropertyOp17
 70
     1
102
RTVSPropertyOp18
 70
     1
102
RTVSPropertyOp19
 70
     1
102
RTVSPropertyOp20
 70
     1
102
RTVSPropertyOp21
 70
     1
102
RTVSPropertyOp22
 70
     1
102
RTVSPropertyOp23
 70
     1
102
RTVSPropertyOp24
 70
     1
102
RTVSPropertyOp25
 70
     1
102
RTVSPropertyOp26
 70
     1
102
RTVSPropertyOp27
 70
     1
102
RTVSPropertyOp28
 70
     1
102
RTVSPropertyOp29
 70
     1
102
RTVSPropertyOp30
 70
     1
102
RTVSPropertyOp31
 70
     1
102
RTVSPropertyOp32
 70
     1
  0
XRECORD
  5
B3
102
{ACAD_REACTORS
330
B2
102
}
330
B2
100
AcDbXrecord
280
     1
102
RTVSPropertyOp0
 70
     1
102
RTVSPropertyOp1
 70
     1
102
RTVSPropertyOp2
 70
     1
102
RTVSPropertyOp3
 70
     1
102
RTVSPropertyOp4
 70
     1
102
RTVSPropertyOp5
 70
     1
102
RTVSPropertyOp6
 70
     1
102
RTVSPropertyOp7
 70
     1
102
RTVSPropertyOp8
 70
     1
102
RTVSPropertyOp9
 70
     1
102
RTVSPropertyOp10
 70
     1
102
RTVSPropertyOp11
 70
     1
102
RTVSPropertyOp12
 70
     1
102
RTVSPropertyOp13
 70
     1
102
RTVSPropertyOp14
 70
     1
102
RTVSPropertyOp15
 70
     1
102
RTVSPropertyOp16
 70
     1
102
RTVSPropertyOp17
 70
     1
102
RTVSPropertyOp18
 70
     1
102
RTVSPropertyOp19
 70
     1
102
RTVSPropertyOp20
 70
     1
102
RTVSPropertyOp21
 70
     1
102
RTVSPropertyOp22
 70
     1
102
RTVSPropertyOp23
 70
     1
102
RTVSPropertyOp24
 70
     1
102
RTVSPropertyOp25
 70
     1
102
RTVSPropertyOp26
 70
     1
102
RTVSPropertyOp27
 70
     1
102
RTVSPropertyOp28
 70
     1
102
RTVSPropertyOp29
 70
     1
102
RTVSPropertyOp30
 70
     1
102
RTVSPropertyOp31
 70
     1
102
RTVSPropertyOp32
 70
     1
  0
ENDSEC
  0
EOF
