  0
SECTION
  2
HEADER
  9
$ACADVER
  1
AC1021
  9
$ACADMAINTVER
 70
    25
  9
$DWGCODEPAGE
  3
ANSI_1252
  9
$INSBASE
 10
0.0
 20
0.0
 30
0.0
  9
$EXTMIN
 10
-17.9636
 20
-114.636
 30
0.0
  9
$EXTMAX
 10
71.4096
 20
131.8852
 30
0.0
  9
$LIMMIN
 10
0.0
 20
0.0
  9
$LIMMAX
 10
12.0
 20
9.0
  9
$ORTHOMODE
 70
     0
  9
$REGENMODE
 70
     1
  9
$FILLMODE
 70
     1
  9
$QTEXTMODE
 70
     0
  9
$MIRRTEXT
 70
     1
  9
$LTSCALE
 40
1.0
  9
$ATTMODE
 70
     1
  9
$TEXTSIZE
 40
0.2
  9
$TRACEWID
 40
0.05
  9
$TEXTSTYLE
  7
Standard
  9
$CLAYER
  8
0
  9
$CELTYPE
  6
ByLayer
  9
$CECOLOR
 62
   256
  9
$CELTSCALE
 40
1.0
  9
$DISPSILH
 70
     0
  9
$DIMSCALE
 40
1.0
  9
$DIMASZ
 40
0.18
  9
$DIMEXO
 40
0.0625
  9
$DIMDLI
 40
0.38
  9
$DIMRND
 40
0.0
  9
$DIMDLE
 40
0.0
  9
$DIMEXE
 40
0.18
  9
$DIMTP
 40
0.0
  9
$DIMTM
 40
0.0
  9
$DIMTXT
 40
0.18
  9
$DIMCEN
 40
0.09
  9
$DIMTSZ
 40
0.0
  9
$DIMTOL
 70
     0
  9
$DIMLIM
 70
     0
  9
$DIMTIH
 70
     1
  9
$DIMTOH
 70
     1
  9
$DIMSE1
 70
     0
  9
$DIMSE2
 70
     0
  9
$DIMTAD
 70
     0
  9
$DIMZIN
 70
     0
  9
$DIMBLK
  1

  9
$DIMASO
 70
     1
  9
$DIMSHO
 70
     1
  9
$DIMPOST
  1

  9
$DIMAPOST
  1

  9
$DIMALT
 70
     0
  9
$DIMALTD
 70
     2
  9
$DIMALTF
 40
25.4
  9
$DIMLFAC
 40
1.0
  9
$DIMTOFL
 70
     0
  9
$DIMTVP
 40
0.0
  9
$DIMTIX
 70
     0
  9
$DIMSOXD
 70
     0
  9
$DIMSAH
 70
     0
  9
$DIMBLK1
  1

  9
$DIMBLK2
  1

  9
$DIMSTYLE
  2
Standard
  9
$DIMCLRD
 70
     0
  9
$DIMCLRE
 70
     0
  9
$DIMCLRT
 70
     0
  9
$DIMTFAC
 40
1.0
  9
$DIMGAP
 40
0.09
  9
$DIMJUST
 70
     0
  9
$DIMSD1
 70
     0
  9
$DIMSD2
 70
     0
  9
$DIMTOLJ
 70
     1
  9
$DIMTZIN
 70
     0
  9
$DIMALTZ
 70
     0
  9
$DIMALTTZ
 70
     0
  9
$DIMUPT
 70
     0
  9
$DIMDEC
 70
     4
  9
$DIMTDEC
 70
     4
  9
$DIMALTU
 70
     2
  9
$DIMALTTD
 70
     2
  9
$DIMTXSTY
  7
Standard
  9
$DIMAUNIT
 70
     0
  9
$DIMADEC
 70
     0
  9
$DIMALTRND
 40
0.0
  9
$DIMAZIN
 70
     0
  9
$DIMDSEP
 70
    46
  9
$DIMATFIT
 70
     3
  9
$DIMFRAC
 70
     0
  9
$DIMLDRBLK
  1

  9
$DIMLUNIT
 70
     2
  9
$DIMLWD
 70
    -2
  9
$DIMLWE
 70
    -2
  9
$DIMTMOVE
 70
     0
  9
$DIMFXL
 40
1.0
  9
$DIMFXLON
 70
     0
  9
$DIMJOGANG
 40
0.7853981633974483
  9
$DIMTFILL
 70
     0
  9
$DIMTFILLCLR
 70
     0
  9
$DIMARCSYM
 70
     0
  9
$DIMLTYPE
  6

  9
$DIMLTEX1
  6

  9
$DIMLTEX2
  6

  9
$LUNITS
 70
     2
  9
$LUPREC
 70
     4
  9
$SKETCHINC
 40
0.1
  9
$FILLETRAD
 40
0.5
  9
$AUNITS
 70
     0
  9
$AUPREC
 70
     0
  9
$MENU
  1
.
  9
$ELEVATION
 40
0.0
  9
$PELEVATION
 40
0.0
  9
$THICKNESS
 40
0.0
  9
$LIMCHECK
 70
     0
  9
$CHAMFERA
 40
0.5
  9
$CHAMFERB
 40
0.5
  9
$CHAMFERC
 40
1.0
  9
$CHAMFERD
 40
0.0
  9
$SKPOLY
 70
     0
  9
$TDCREATE
 40
2458492.557850474
  9
$TDUCREATE
 40
2458492.557850474
  9
$TDUPDATE
 40
2458492.557850741
  9
$TDUUPDATE
 40
2458492.557850741
  9
$TDINDWG
 40
0.0000000116
  9
$TDUSRTIMER
 40
0.0000000116
  9
$USRTIMER
 70
     1
  9
$ANGBASE
 50
0.0
  9
$ANGDIR
 70
     0
  9
$PDMODE
 70
     0
  9
$PDSIZE
 40
0.0
  9
$PLINEWID
 40
0.0
  9
$SPLFRAME
 70
     0
  9
$SPLINETYPE
 70
     6
  9
$SPLINESEGS
 70
     8
  9
$HANDSEED
  5
F7
  9
$SURFTAB1
 70
     6
  9
$SURFTAB2
 70
     6
  9
$SURFTYPE
 70
     6
  9
$SURFU
 70
     6
  9
$SURFV
 70
     6
  9
$UCSBASE
  2

  9
$UCSNAME
  2

  9
$UCSORG
 10
0.0
 20
0.0
 30
0.0
  9
$UCSXDIR
 10
1.0
 20
0.0
 30
0.0
  9
$UCSYDIR
 10
0.0
 20
1.0
 30
0.0
  9
$UCSORTHOREF
  2

  9
$UCSORTHOVIEW
 70
     0
  9
$UCSORGTOP
 10
0.0
 20
0.0
 30
0.0
  9
$UCSORGBOTTOM
 10
0.0
 20
0.0
 30
0.0
  9
$UCSORGLEFT
 10
0.0
 20
0.0
 30
0.0
  9
$UCSORGRIGHT
 10
0.0
 20
0.0
 30
0.0
  9
$UCSORGFRONT
 10
0.0
 20
0.0
 30
0.0
  9
$UCSORGBACK
 10
0.0
 20
0.0
 30
0.0
  9
$PUCSBASE
  2

  9
$PUCSNAME
  2

  9
$PUCSORG
 10
0.0
 20
0.0
 30
0.0
  9
$PUCSXDIR
 10
1.0
 20
0.0
 30
0.0
  9
$PUCSYDIR
 10
0.0
 20
1.0
 30
0.0
  9
$PUCSORTHOREF
  2

  9
$PUCSORTHOVIEW
 70
     0
  9
$PUCSORGTOP
 10
0.0
 20
0.0
 30
0.0
  9
$PUCSORGBOTTOM
 10
0.0
 20
0.0
 30
0.0
  9
$PUCSORGLEFT
 10
0.0
 20
0.0
 30
0.0
  9
$PUCSORGRIGHT
 10
0.0
 20
0.0
 30
0.0
  9
$PUCSORGFRONT
 10
0.0
 20
0.0
 30
0.0
  9
$PUCSORGBACK
 10
0.0
 20
0.0
 30
0.0
  9
$USERI1
 70
     0
  9
$USERI2
 70
     0
  9
$USERI3
 70
     0
  9
$USERI4
 70
     0
  9
$USERI5
 70
     0
  9
$USERR1
 40
0.0
  9
$USERR2
 40
0.0
  9
$USERR3
 40
0.0
  9
$USERR4
 40
0.0
  9
$USERR5
 40
0.0
  9
$WORLDVIEW
 70
     1
  9
$SHADEDGE
 70
     3
  9
$SHADEDIF
 70
    70
  9
$TILEMODE
 70
     1
  9
$MAXACTVP
 70
    64
  9
$PINSBASE
 10
0.0
 20
0.0
 30
0.0
  9
$PLIMCHECK
 70
     0
  9
$PEXTMIN
 10
1.000000000000000E+20
 20
1.000000000000000E+20
 30
1.000000000000000E+20
  9
$PEXTMAX
 10
-1.000000000000000E+20
 20
-1.000000000000000E+20
 30
-1.000000000000000E+20
  9
$PLIMMIN
 10
0.0
 20
0.0
  9
$PLIMMAX
 10
12.0
 20
9.0
  9
$UNITMODE
 70
     0
  9
$VISRETAIN
 70
     1
  9
$PLINEGEN
 70
     0
  9
$PSLTSCALE
 70
     1
  9
$TREEDEPTH
 70
  3020
  9
$CMLSTYLE
  2
Standard
  9
$CMLJUST
 70
     0
  9
$CMLSCALE
 40
1.0
  9
$PROXYGRAPHICS
 70
     1
  9
$MEASUREMENT
 70
     0
  9
$CELWEIGHT
370
    -1
  9
$ENDCAPS
280
     0
  9
$JOINSTYLE
280
     0
  9
$LWDISPLAY
290
     0
  9
$INSUNITS
 70
     4
  9
$HYPERLINKBASE
  1

  9
$STYLESHEET
  1

  9
$XEDIT
290
     1
  9
$CEPSNTYPE
380
     0
  9
$PSTYLEMODE
290
     1
  9
$FINGERPRINTGUID
  2
{B07268D5-B58B-4069-AD16-A5804AA4F180}
  9
$VERSIONGUID
  2
{FAEB1C32-E019-11D5-929B-00C0DF256EC4}
  9
$EXTNAMES
290
     1
  9
$PSVPSCALE
 40
0.0
  9
$OLESTARTUP
290
     0
  9
$SORTENTS
280
   127
  9
$INDEXCTL
280
     0
  9
$HIDETEXT
280
     1
  9
$XCLIPFRAME
290
     0
  9
$HALOGAP
280
     0
  9
$OBSCOLOR
 70
   257
  9
$OBSLTYPE
280
     0
  9
$INTERSECTIONDISPLAY
280
     0
  9
$INTERSECTIONCOLOR
 70
   257
  9
$DIMASSOC
280
     2
  9
$PROJECTNAME
  1

  9
$CAMERADISPLAY
290
     0
  9
$LENSLENGTH
 40
50.0
  9
$CAMERAHEIGHT
 40
0.0
  9
$STEPSPERSEC
 40
2.0
  9
$STEPSIZE
 40
6.0
  9
$3DDWFPREC
 40
2.0
  9
$PSOLWIDTH
 40
0.25
  9
$PSOLHEIGHT
 40
4.0
  9
$LOFTANG1
 40
1.570796326794897
  9
$LOFTANG2
 40
1.570796326794897
  9
$LOFTMAG1
 40
0.0
  9
$LOFTMAG2
 40
0.0
  9
$LOFTPARAM
 70
     7
  9
$LOFTNORMALS
280
     1
  9
$LATITUDE
 40
37.795
  9
$LONGITUDE
 40
-122.394
  9
$NORTHDIRECTION
 40
0.0
  9
$TIMEZONE
 70
 -8000
  9
$LIGHTGLYPHDISPLAY
280
     1
  9
$TILEMODELIGHTSYNCH
280
     1
  9
$SOLIDHIST
280
     1
  9
$SHOWHIST
280
     1
  9
$DWFFRAME
280
     2
  9
$DGNFRAME
280
     2
  9
$REALWORLDSCALE
290
     1
  9
$INTERFERECOLOR
 62
   256
  9
$CSHADOW
280
     0
  9
$SHADOWPLANELOCATION
 40
0.0
  0
ENDSEC
  0
SECTION
  2
CLASSES
  0
CLASS
  1
ACDBDICTIONARYWDFLT
  2
AcDbDictionaryWithDefault
  3
ObjectDBX Classes
 90
        0
 91
        4
280
     0
281
     0
  0
CLASS
  1
VISUALSTYLE
  2
AcDbVisualStyle
  3
ObjectDBX Classes
 90
     4095
 91
        4
280
     0
281
     0
  0
CLASS
  1
MATERIAL
  2
AcDbMaterial
  3
ObjectDBX Classes
 90
     1153
 91
        4
280
     0
281
     0
  0
ENDSEC
  0
SECTION
  2
TABLES
  0
TABLE
  2
VPORT
  5
8
330
0
100
AcDbSymbolTable
 70
     1
  0
VPORT
  5
29
330
8
100
AcDbSymbolTableRecord
100
AcDbViewportTableRecord
  2
*Active
 70
     0
 10
0.0
 20
0.0
 11
1.0
 21
1.0
 12
10.42990654205607
 22
4.5
 13
0.0
 23
0.0
 14
0.5
 24
0.5
 15
0.5
 25
0.5
 16
0.0
 26
0.0
 36
1.0
 17
0.0
 27
0.0
 37
0.0
 40
9.0
 41
1.972972972850329
 42
50.0
 43
0.0
 44
0.0
 50
0.0
 51
0.0
 71
     0
 72
   100
 73
     1
 74
     3
 75
     0
 76
     0
 77
     0
 78
     0
281
     0
 65
     1
110
0.0
120
0.0
130
0.0
111
1.0
121
0.0
131
0.0
112
0.0
122
1.0
132
0.0
 79
     0
146
0.0
 60
     3
 61
     5
292
     1
282
     1
141
0.0
142
0.0
 63
   250
  0
ENDTAB
  0
TABLE
  2
LTYPE
  5
5
330
0
100
AcDbSymbolTable
 70
     1
  0
LTYPE
  5
14
330
5
100
AcDbSymbolTableRecord
100
AcDbLinetypeTableRecord
  2
ByBlock
 70
     0
  3

 72
    65
 73
     0
 40
0.0
  0
LTYPE
  5
15
330
5
100
AcDbSymbolTableRecord
100
AcDbLinetypeTableRecord
  2
ByLayer
 70
     0
  3

 72
    65
 73
     0
 40
0.0
  0
LTYPE
  5
16
330
5
100
AcDbSymbolTableRecord
100
AcDbLinetypeTableRecord
  2
Continuous
 70
     0
  3
Solid line
 72
    65
 73
     0
 40
0.0
  0
ENDTAB
  0
TABLE
  2
LAYER
  5
2
330
0
100
AcDbSymbolTable
 70
     3
  0
LAYER
  5
10
330
2
100
AcDbSymbolTableRecord
100
AcDbLayerTableRecord
  2
0
 70
     0
 62
     7
  6
Continuous
370
    -3
390
F
347
3E
  0
LAYER
  5
40
330
2
100
AcDbSymbolTableRecord
100
AcDbLayerTableRecord
  2
layer 1
 70
     0
 62
     7
  6
Continuous
370
    -3
390
F
347
3E
  0
LAYER
  5
D4
330
2
100
AcDbSymbolTableRecord
100
AcDbLayerTableRecord
  2
Master Guides
 70
     0
 62
     7
  6
Continuous
370
    -3
390
F
347
3E
  0
ENDTAB
  0
TABLE
  2
STYLE
  5
3
330
0
100
AcDbSymbolTable
 70
     1
  0
STYLE
  5
11
330
3
100
AcDbSymbolTableRecord
100
AcDbTextStyleTableRecord
  2
Standard
 70
     0
 40
0.0
 41
1.0
 50
0.0
 71
     0
 42
0.2
  3
txt
  4

  0
ENDTAB
  0
TABLE
  2
VIEW
  5
6
330
0
100
AcDbSymbolTable
 70
     0
  0
ENDTAB
  0
TABLE
  2
UCS
  5
7
330
0
100
AcDbSymbolTable
 70
     0
  0
ENDTAB
  0
TABLE
  2
APPID
  5
9
330
0
100
AcDbSymbolTable
 70
     2
  0
APPID
  5
12
330
9
100
AcDbSymbolTableRecord
100
AcDbRegAppTableRecord
  2
ACAD
 70
     0
  0
APPID
  5
3F
330
9
100
AcDbSymbolTableRecord
100
AcDbRegAppTableRecord
  2
ODA
 70
     0
  0
ENDTAB
  0
TABLE
  2
DIMSTYLE
  5
A
330
0
100
AcDbSymbolTable
 70
     1
100
AcDbDimStyleTable
  0
DIMSTYLE
105
27
330
A
100
AcDbSymbolTableRecord
100
AcDbDimStyleTableRecord
  2
Standard
 70
     0
178
     0
340
11
  0
ENDTAB
  0
TABLE
  2
BLOCK_RECORD
  5
1
330
0
100
AcDbSymbolTable
 70
     1
  0
BLOCK_RECORD
  5
1F
330
1
100
AcDbSymbolTableRecord
100
AcDbBlockTableRecord
  2
*Model_Space
340
22
 70
     0
280
     1
281
     0
  0
BLOCK_RECORD
  5
1B
330
1
100
AcDbSymbolTableRecord
100
AcDbBlockTableRecord
  2
*Paper_Space
340
1E
 70
     0
280
     1
281
     0
  0
BLOCK_RECORD
  5
23
330
1
100
AcDbSymbolTableRecord
100
AcDbBlockTableRecord
  2
*Paper_Space0
340
26
 70
     0
280
     1
281
     0
  0
ENDTAB
  0
ENDSEC
  0
SECTION
  2
BLOCKS
  0
BLOCK
  5
20
330
1F
100
AcDbEntity
  8
0
100
AcDbBlockBegin
  2
*Model_Space
 70
     0
 10
0.0
 20
0.0
 30
0.0
  3
*Model_Space
  1

  0
ENDBLK
  5
21
330
1F
100
AcDbEntity
  8
0
100
AcDbBlockEnd
  0
BLOCK
  5
1C
330
1B
100
AcDbEntity
 67
     1
  8
0
100
AcDbBlockBegin
  2
*Paper_Space
 70
     0
 10
0.0
 20
0.0
 30
0.0
  3
*Paper_Space
  1

  0
ENDBLK
  5
1D
330
1B
100
AcDbEntity
 67
     1
  8
0
100
AcDbBlockEnd
  0
BLOCK
  5
24
330
23
100
AcDbEntity
  8
0
100
AcDbBlockBegin
  2
*Paper_Space0
 70
     0
 10
0.0
 20
0.0
 30
0.0
  3
*Paper_Space0
  1

  0
ENDBLK
  5
25
330
23
100
AcDbEntity
  8
0
100
AcDbBlockEnd
  0
ENDSEC
  0
SECTION
  2
ENTITIES
  0
SPLINE
  5
41
330
1F
100
AcDbEntity
  8
layer 1
370
    35
100
AcDbSpline
210
0.0
220
0.0
230
1.0
 70
    11
 71
     3
 72
    20
 73
    16
 74
     0
 42
0.0000000001
 43
0.0000000001
 12
1.0
 22
0.0
 32
0.0
 13
1.0
 23
0.0
 33
0.0
 40
0.0
 40
0.0
 40
0.0
 40
0.0
 40
0.2
 40
0.2
 40
0.2
 40
0.2
 40
0.4
 40
0.4
 40
0.4
 40
0.4
 40
0.6
 40
0.6
 40
0.6
 40
0.6
 40
1.0
 40
1.0
 40
1.0
 40
1.0
 10
-17.778
 20
131.6996
 30
0.0
 10
-17.778
 20
131.6996
 30
0.0
 10
71.224
 20
131.6996
 30
0.0
 10
71.224
 20
131.6996
 30
0.0
 10
71.224
 20
131.6996
 30
0.0
 10
71.224
 20
131.6996
 30
0.0
 10
71.224
 20
-114.4504
 30
0.0
 10
71.224
 20
-114.4504
 30
0.0
 10
71.224
 20
-114.4504
 30
0.0
 10
71.224
 20
-114.4504
 30
0.0
 10
-17.778
 20
-114.4504
 30
0.0
 10
-17.778
 20
-114.4504
 30
0.0
 10
-17.778
 20
-114.4504
 30
0.0
 10
-17.778
 20
-114.4504
 30
0.0
 10
-17.778
 20
131.6996
 30
0.0
 10
-17.778
 20
131.6996
 30
0.0
  0
SPLINE
  5
42
330
1F
100
AcDbEntity
  8
layer 1
 62
     7
100
AcDbSpline
210
0.0
220
0.0
230
1.0
 70
    11
 71
     3
 72
    24
 73
    20
 74
     0
 42
0.0000000001
 43
0.0000000001
 12
1.0
 22
0.0
 32
0.0
 13
1.0
 23
0.0
 33
0.0
 40
0.0
 40
0.0
 40
0.0
 40
0.0
 40
0.1666666666666667
 40
0.1666666666666667
 40
0.1666666666666667
 40
0.1666666666666667
 40
0.3333333333333333
 40
0.3333333333333333
 40
0.3333333333333333
 40
0.3333333333333333
 40
0.5
 40
0.5
 40
0.5
 40
0.5
 40
0.6666666666666666
 40
0.6666666666666666
 40
0.6666666666666666
 40
0.6666666666666666
 40
1.0
 40
1.0
 40
1.0
 40
1.0
 10
30.5454
 20
4.1243
 30
0.0
 10
31.6269
 20
5.227
 30
0.0
 10
32.5098
 20
6.1782
 30
0.0
 10
34.3238
 20
7.488
 30
0.0
 10
34.3238
 20
7.488
 30
0.0
 10
32.7449
 20
8.5892
 30
0.0
 10
31.7721
 20
9.4578
 30
0.0
 10
30.5441
 20
10.7106
 30
0.0
 10
30.5441
 20
10.7106
 30
0.0
 10
29.4564
 20
9.5283
 30
0.0
 10
28.8464
 20
8.8839
 30
0.0
 10
27.5814
 20
7.3518
 30
0.0
 10
27.5814
 20
7.3518
 30
0.0
 10
28.7325
 20
6.0426
 30
0.0
 10
29.175
 20
5.4338
 30
0.0
 10
30.5453
 20
4.1243
 30
0.0
 10
30.5453
 20
4.1243
 30
0.0
 10
30.5453
 20
4.1243
 30
0.0
 10
30.5454
 20
4.1243
 30
0.0
 10
30.5454
 20
4.1243
 30
0.0
  0
SPLINE
  5
43
330
1F
100
AcDbEntity
  8
layer 1
 62
     7
100
AcDbSpline
210
0.0
220
0.0
230
1.0
 70
    11
 71
     3
 72
    24
 73
    20
 74
     0
 42
0.0000000001
 43
0.0000000001
 12
1.0
 22
0.0
 32
0.0
 13
1.0
 23
0.0
 33
0.0
 40
0.0
 40
0.0
 40
0.0
 40
0.0
 40
0.1666666666666667
 40
0.1666666666666667
 40
0.1666666666666667
 40
0.1666666666666667
 40
0.3333333333333333
 40
0.3333333333333333
 40
0.3333333333333333
 40
0.3333333333333333
 40
0.5
 40
0.5
 40
0.5
 40
0.5
 40
0.6666666666666666
 40
0.6666666666666666
 40
0.6666666666666666
 40
0.6666666666666666
 40
1.0
 40
1.0
 40
1.0
 40
1.0
 10
23.7151
 20
12.0851
 30
0.0
 10
25.5107
 20
14.3469
 30
0.0
 10
25.6687
 20
14.5269
 30
0.0
 10
26.5422
 20
16.911
 30
0.0
 10
26.5422
 20
16.911
 30
0.0
 10
27.4158
 20
14.5269
 30
0.0
 10
27.5739
 20
14.2561
 30
0.0
 10
29.3467
 20
12.1079
 30
0.0
 10
29.3467
 20
12.1079
 30
0.0
 10
28.4543
 20
11.1356
 30
0.0
 10
28.1543
 20
10.7932
 30
0.0
 10
26.5196
 20
8.9308
 30
0.0
 10
26.5196
 20
8.9308
 30
0.0
 10
25.3294
 20
10.2903
 30
0.0
 10
24.7254
 20
10.9007
 30
0.0
 10
23.7151
 20
12.0852
 30
0.0
 10
23.7151
 20
12.0852
 30
0.0
 10
23.7151
 20
12.0852
 30
0.0
 10
23.7151
 20
12.0851
 30
0.0
 10
23.7151
 20
12.0851
 30
0.0
  0
SPLINE
  5
44
330
1F
100
AcDbEntity
  8
layer 1
 62
     7
100
AcDbSpline
210
0.0
220
0.0
230
1.0
 70
    11
 71
     3
 72
    24
 73
    20
 74
     0
 42
0.0000000001
 43
0.0000000001
 12
1.0
 22
0.0
 32
0.0
 13
1.0
 23
0.0
 33
0.0
 40
0.0
 40
0.0
 40
0.0
 40
0.0
 40
0.1666666666666667
 40
0.1666666666666667
 40
0.1666666666666667
 40
0.1666666666666667
 40
0.3333333333333333
 40
0.3333333333333333
 40
0.3333333333333333
 40
0.3333333333333333
 40
0.5
 40
0.5
 40
0.5
 40
0.5
 40
0.6666666666666666
 40
0.6666666666666666
 40
0.6666666666666666
 40
0.6666666666666666
 40
1.0
 40
1.0
 40
1.0
 40
1.0
 10
17.8714
 20
106.6575
 30
0.0
 10
17.6744
 20
108.2899
 30
0.0
 10
17.2254
 20
109.1332
 30
0.0
 10
16.5174
 20
110.6753
 30
0.0
 10
16.5174
 20
110.6753
 30
0.0
 10
14.0898
 20
109.3275
 30
0.0
 10
11.8065
 20
104.0873
 30
0.0
 10
14.5953
 20
98.8483
 30
0.0
 10
14.5953
 20
98.8483
 30
0.0
 10
15.9024
 20
99.7533
 30
0.0
 10
16.9834
 20
101.1915
 30
0.0
 10
17.939
 20
103.626
 30
0.0
 10
17.939
 20
103.626
 30
0.0
 10
16.6953
 20
104.2958
 30
0.0
 10
15.3589
 20
105.4414
 30
0.0
 10
15.1712
 20
106.7982
 30
0.0
 10
15.1712
 20
106.7982
 30
0.0
 10
16.1495
 20
106.3612
 30
0.0
 10
16.9038
 20
106.1163
 30
0.0
 10
17.8714
 20
106.6575
 30
0.0
  0
SPLINE
  5
45
330
1F
100
AcDbEntity
  8
layer 1
 62
     7
100
AcDbSpline
210
0.0
220
0.0
230
1.0
 70
    11
 71
     3
 72
    28
 73
    24
 74
     0
 42
0.0000000001
 43
0.0000000001
 12
1.0
 22
0.0
 32
0.0
 13
1.0
 23
0.0
 33
0.0
 40
0.0
 40
0.0
 40
0.0
 40
0.0
 40
0.1428571428571428
 40
0.1428571428571428
 40
0.1428571428571428
 40
0.1428571428571428
 40
0.2857142857142857
 40
0.2857142857142857
 40
0.2857142857142857
 40
0.2857142857142857
 40
0.4285714285714285
 40
0.4285714285714285
 40
0.4285714285714285
 40
0.4285714285714285
 40
0.5714285714285714
 40
0.5714285714285714
 40
0.5714285714285714
 40
0.5714285714285714
 40
0.7142857142857143
 40
0.7142857142857143
 40
0.7142857142857143
 40
0.7142857142857143
 40
1.0
 40
1.0
 40
1.0
 40
1.0
 10
19.3788
 20
92.0728
 30
0.0
 10
17.9144
 20
93.5149
 30
0.0
 10
16.8138
 20
94.7638
 30
0.0
 10
15.672
 20
97.0766
 30
0.0
 10
15.672
 20
97.0766
 30
0.0
 10
17.4375
 20
98.9067
 30
0.0
 10
18.7311
 20
100.902
 30
0.0
 10
19.3702
 20
103.0441
 30
0.0
 10
19.3702
 20
103.0441
 30
0.0
 10
20.0735
 20
103.055
 30
0.0
 10
20.6603
 20
103.3857
 30
0.0
 10
22.1788
 20
104.0279
 30
0.0
 10
22.1788
 20
104.0279
 30
0.0
 10
20.5956
 20
101.1622
 30
0.0
 10
21.9502
 20
97.8645
 30
0.0
 10
22.9409
 20
96.6507
 30
0.0
 10
22.9409
 20
96.6507
 30
0.0
 10
21.0097
 20
94.0742
 30
0.0
 10
20.7492
 20
93.1854
 30
0.0
 10
19.3788
 20
92.0728
 30
0.0
 10
19.3788
 20
92.0728
 30
0.0
 10
19.3788
 20
92.0728
 30
0.0
 10
19.3788
 20
92.0728
 30
0.0
 10
19.3788
 20
92.0728
 30
0.0
  0
SPLINE
  5
46
330
1F
100
AcDbEntity
  8
layer 1
 62
     7
100
AcDbSpline
210
0.0
220
0.0
230
1.0
 70
    11
 71
     3
 72
    28
 73
    24
 74
     0
 42
0.0000000001
 43
0.0000000001
 12
1.0
 22
0.0
 32
0.0
 13
1.0
 23
0.0
 33
0.0
 40
0.0
 40
0.0
 40
0.0
 40
0.0
 40
0.1428571428571428
 40
0.1428571428571428
 40
0.1428571428571428
 40
0.1428571428571428
 40
0.2857142857142857
 40
0.2857142857142857
 40
0.2857142857142857
 40
0.2857142857142857
 40
0.4285714285714285
 40
0.4285714285714285
 40
0.4285714285714285
 40
0.4285714285714285
 40
0.5714285714285714
 40
0.5714285714285714
 40
0.5714285714285714
 40
0.5714285714285714
 40
0.7142857142857143
 40
0.7142857142857143
 40
0.7142857142857143
 40
0.7142857142857143
 40
1.0
 40
1.0
 40
1.0
 40
1.0
 10
33.6764
 20
92.0728
 30
0.0
 10
35.1408
 20
93.5149
 30
0.0
 10
36.2413
 20
94.7638
 30
0.0
 10
37.3832
 20
97.0766
 30
0.0
 10
37.3832
 20
97.0766
 30
0.0
 10
35.6176
 20
98.9067
 30
0.0
 10
34.3241
 20
100.902
 30
0.0
 10
33.685
 20
103.0441
 30
0.0
 10
33.685
 20
103.0441
 30
0.0
 10
32.9817
 20
103.055
 30
0.0
 10
32.3949
 20
103.3857
 30
0.0
 10
30.8764
 20
104.0279
 30
0.0
 10
30.8764
 20
104.0279
 30
0.0
 10
32.4596
 20
101.1622
 30
0.0
 10
31.105
 20
97.8645
 30
0.0
 10
30.1143
 20
96.6507
 30
0.0
 10
30.1143
 20
96.6507
 30
0.0
 10
32.0455
 20
94.0742
 30
0.0
 10
32.306
 20
93.1854
 30
0.0
 10
33.6764
 20
92.0728
 30
0.0
 10
33.6764
 20
92.0728
 30
0.0
 10
33.6764
 20
92.0728
 30
0.0
 10
33.6764
 20
92.0728
 30
0.0
 10
33.6764
 20
92.0728
 30
0.0
  0
SPLINE
  5
47
330
1F
100
AcDbEntity
  8
layer 1
 62
     7
100
AcDbSpline
210
0.0
220
0.0
230
1.0
 70
    11
 71
     3
 72
    24
 73
    20
 74
     0
 42
0.0000000001
 43
0.0000000001
 12
1.0
 22
0.0
 32
0.0
 13
1.0
 23
0.0
 33
0.0
 40
0.0
 40
0.0
 40
0.0
 40
0.0
 40
0.1666666666666667
 40
0.1666666666666667
 40
0.1666666666666667
 40
0.1666666666666667
 40
0.3333333333333333
 40
0.3333333333333333
 40
0.3333333333333333
 40
0.3333333333333333
 40
0.5
 40
0.5
 40
0.5
 40
0.5
 40
0.6666666666666666
 40
0.6666666666666666
 40
0.6666666666666666
 40
0.6666666666666666
 40
1.0
 40
1.0
 40
1.0
 40
1.0
 10
35.1304
 20
106.6575
 30
0.0
 10
35.3275
 20
108.2899
 30
0.0
 10
35.7764
 20
109.1332
 30
0.0
 10
36.4844
 20
110.6753
 30
0.0
 10
36.4844
 20
110.6753
 30
0.0
 10
38.912
 20
109.3275
 30
0.0
 10
41.1953
 20
104.0873
 30
0.0
 10
38.4065
 20
98.8483
 30
0.0
 10
38.4065
 20
98.8483
 30
0.0
 10
37.0995
 20
99.7533
 30
0.0
 10
36.0185
 20
101.1915
 30
0.0
 10
35.0628
 20
103.626
 30
0.0
 10
35.0628
 20
103.626
 30
0.0
 10
36.3065
 20
104.2958
 30
0.0
 10
37.6429
 20
105.4414
 30
0.0
 10
37.8307
 20
106.7982
 30
0.0
 10
37.8307
 20
106.7982
 30
0.0
 10
36.8523
 20
106.3612
 30
0.0
 10
36.0981
 20
106.1163
 30
0.0
 10
35.1304
 20
106.6575
 30
0.0
  0
SPLINE
  5
48
330
1F
100
AcDbEntity
  8
layer 1
 62
     7
100
AcDbSpline
210
0.0
220
0.0
230
1.0
 70
    11
 71
     3
 72
    24
 73
    20
 74
     0
 42
0.0000000001
 43
0.0000000001
 12
1.0
 22
0.0
 32
0.0
 13
1.0
 23
0.0
 33
0.0
 40
0.0
 40
0.0
 40
0.0
 40
0.0
 40
0.1666666666666667
 40
0.1666666666666667
 40
0.1666666666666667
 40
0.1666666666666667
 40
0.3333333333333333
 40
0.3333333333333333
 40
0.3333333333333333
 40
0.3333333333333333
 40
0.5
 40
0.5
 40
0.5
 40
0.5
 40
0.6666666666666666
 40
0.6666666666666666
 40
0.6666666666666666
 40
0.6666666666666666
 40
1.0
 40
1.0
 40
1.0
 40
1.0
 10
17.8714
 20
24.2186
 30
0.0
 10
17.6744
 20
22.5862
 30
0.0
 10
17.2254
 20
21.7429
 30
0.0
 10
16.5174
 20
20.2008
 30
0.0
 10
16.5174
 20
20.2008
 30
0.0
 10
14.0898
 20
21.5486
 30
0.0
 10
11.8065
 20
26.7888
 30
0.0
 10
14.5953
 20
32.0277
 30
0.0
 10
14.5953
 20
32.0277
 30
0.0
 10
15.9024
 20
31.1228
 30
0.0
 10
16.9834
 20
29.6845
 30
0.0
 10
17.939
 20
27.25
 30
0.0
 10
17.939
 20
27.25
 30
0.0
 10
16.6953
 20
26.5803
 30
0.0
 10
15.3589
 20
25.4346
 30
0.0
 10
15.1712
 20
24.0779
 30
0.0
 10
15.1712
 20
24.0779
 30
0.0
 10
16.1495
 20
24.5148
 30
0.0
 10
16.9038
 20
24.7597
 30
0.0
 10
17.8714
 20
24.2186
 30
0.0
  0
SPLINE
  5
49
330
1F
100
AcDbEntity
  8
layer 1
 62
     7
100
AcDbSpline
210
0.0
220
0.0
230
1.0
 70
    11
 71
     3
 72
    28
 73
    24
 74
     0
 42
0.0000000001
 43
0.0000000001
 12
1.0
 22
0.0
 32
0.0
 13
1.0
 23
0.0
 33
0.0
 40
0.0
 40
0.0
 40
0.0
 40
0.0
 40
0.1428571428571428
 40
0.1428571428571428
 40
0.1428571428571428
 40
0.1428571428571428
 40
0.2857142857142857
 40
0.2857142857142857
 40
0.2857142857142857
 40
0.2857142857142857
 40
0.4285714285714285
 40
0.4285714285714285
 40
0.4285714285714285
 40
0.4285714285714285
 40
0.5714285714285714
 40
0.5714285714285714
 40
0.5714285714285714
 40
0.5714285714285714
 40
0.7142857142857143
 40
0.7142857142857143
 40
0.7142857142857143
 40
0.7142857142857143
 40
1.0
 40
1.0
 40
1.0
 40
1.0
 10
19.3788
 20
38.8032
 30
0.0
 10
17.9144
 20
37.3611
 30
0.0
 10
16.8138
 20
36.1122
 30
0.0
 10
15.672
 20
33.7994
 30
0.0
 10
15.672
 20
33.7994
 30
0.0
 10
17.4375
 20
31.9693
 30
0.0
 10
18.7311
 20
29.974
 30
0.0
 10
19.3702
 20
27.8319
 30
0.0
 10
19.3702
 20
27.8319
 30
0.0
 10
20.0735
 20
27.821
 30
0.0
 10
20.6603
 20
27.4903
 30
0.0
 10
22.1788
 20
26.8481
 30
0.0
 10
22.1788
 20
26.8481
 30
0.0
 10
20.5956
 20
29.7138
 30
0.0
 10
21.9502
 20
33.0115
 30
0.0
 10
22.9409
 20
34.2253
 30
0.0
 10
22.9409
 20
34.2253
 30
0.0
 10
21.0097
 20
36.8018
 30
0.0
 10
20.7492
 20
37.6906
 30
0.0
 10
19.3788
 20
38.8032
 30
0.0
 10
19.3788
 20
38.8032
 30
0.0
 10
19.3788
 20
38.8032
 30
0.0
 10
19.3788
 20
38.8032
 30
0.0
 10
19.3788
 20
38.8032
 30
0.0
  0
SPLINE
  5
4A
330
1F
100
AcDbEntity
  8
layer 1
 62
     7
100
AcDbSpline
210
0.0
220
0.0
230
1.0
 70
    11
 71
     3
 72
    28
 73
    24
 74
     0
 42
0.0000000001
 43
0.0000000001
 12
1.0
 22
0.0
 32
0.0
 13
1.0
 23
0.0
 33
0.0
 40
0.0
 40
0.0
 40
0.0
 40
0.0
 40
0.1428571428571428
 40
0.1428571428571428
 40
0.1428571428571428
 40
0.1428571428571428
 40
0.2857142857142857
 40
0.2857142857142857
 40
0.2857142857142857
 40
0.2857142857142857
 40
0.4285714285714285
 40
0.4285714285714285
 40
0.4285714285714285
 40
0.4285714285714285
 40
0.5714285714285714
 40
0.5714285714285714
 40
0.5714285714285714
 40
0.5714285714285714
 40
0.7142857142857143
 40
0.7142857142857143
 40
0.7142857142857143
 40
0.7142857142857143
 40
1.0
 40
1.0
 40
1.0
 40
1.0
 10
33.6764
 20
38.8032
 30
0.0
 10
35.1408
 20
37.3611
 30
0.0
 10
36.2413
 20
36.1122
 30
0.0
 10
37.3832
 20
33.7994
 30
0.0
 10
37.3832
 20
33.7994
 30
0.0
 10
35.6176
 20
31.9693
 30
0.0
 10
34.3241
 20
29.974
 30
0.0
 10
33.685
 20
27.8319
 30
0.0
 10
33.685
 20
27.8319
 30
0.0
 10
32.9817
 20
27.821
 30
0.0
 10
32.3949
 20
27.4903
 30
0.0
 10
30.8764
 20
26.8481
 30
0.0
 10
30.8764
 20
26.8481
 30
0.0
 10
32.4596
 20
29.7138
 30
0.0
 10
31.105
 20
33.0115
 30
0.0
 10
30.1143
 20
34.2253
 30
0.0
 10
30.1143
 20
34.2253
 30
0.0
 10
32.0455
 20
36.8018
 30
0.0
 10
32.306
 20
37.6906
 30
0.0
 10
33.6764
 20
38.8032
 30
0.0
 10
33.6764
 20
38.8032
 30
0.0
 10
33.6764
 20
38.8032
 30
0.0
 10
33.6764
 20
38.8032
 30
0.0
 10
33.6764
 20
38.8032
 30
0.0
  0
SPLINE
  5
4B
330
1F
100
AcDbEntity
  8
layer 1
 62
     7
100
AcDbSpline
210
0.0
220
0.0
230
1.0
 70
    11
 71
     3
 72
    24
 73
    20
 74
     0
 42
0.0000000001
 43
0.0000000001
 12
1.0
 22
0.0
 32
0.0
 13
1.0
 23
0.0
 33
0.0
 40
0.0
 40
0.0
 40
0.0
 40
0.0
 40
0.1666666666666667
 40
0.1666666666666667
 40
0.1666666666666667
 40
0.1666666666666667
 40
0.3333333333333333
 40
0.3333333333333333
 40
0.3333333333333333
 40
0.3333333333333333
 40
0.5
 40
0.5
 40
0.5
 40
0.5
 40
0.6666666666666666
 40
0.6666666666666666
 40
0.6666666666666666
 40
0.6666666666666666
 40
1.0
 40
1.0
 40
1.0
 40
1.0
 10
35.1304
 20
24.2186
 30
0.0
 10
35.3275
 20
22.5862
 30
0.0
 10
35.7764
 20
21.7429
 30
0.0
 10
36.4844
 20
20.2008
 30
0.0
 10
36.4844
 20
20.2008
 30
0.0
 10
38.912
 20
21.5486
 30
0.0
 10
41.1953
 20
26.7888
 30
0.0
 10
38.4065
 20
32.0277
 30
0.0
 10
38.4065
 20
32.0277
 30
0.0
 10
37.0995
 20
31.1228
 30
0.0
 10
36.0185
 20
29.6845
 30
0.0
 10
35.0628
 20
27.25
 30
0.0
 10
35.0628
 20
27.25
 30
0.0
 10
36.3065
 20
26.5803
 30
0.0
 10
37.6429
 20
25.4346
 30
0.0
 10
37.8307
 20
24.0779
 30
0.0
 10
37.8307
 20
24.0779
 30
0.0
 10
36.8523
 20
24.5148
 30
0.0
 10
36.0981
 20
24.7597
 30
0.0
 10
35.1304
 20
24.2186
 30
0.0
  0
SPLINE
  5
4C
330
1F
100
AcDbEntity
  8
layer 1
 62
     7
100
AcDbSpline
210
0.0
220
0.0
230
1.0
 70
    11
 71
     3
 72
    28
 73
    24
 74
     0
 42
0.0000000001
 43
0.0000000001
 12
1.0
 22
0.0
 32
0.0
 13
1.0
 23
0.0
 33
0.0
 40
0.0
 40
0.0
 40
0.0
 40
0.0
 40
0.1428571428571428
 40
0.1428571428571428
 40
0.1428571428571428
 40
0.1428571428571428
 40
0.2857142857142857
 40
0.2857142857142857
 40
0.2857142857142857
 40
0.2857142857142857
 40
0.4285714285714285
 40
0.4285714285714285
 40
0.4285714285714285
 40
0.4285714285714285
 40
0.5714285714285714
 40
0.5714285714285714
 40
0.5714285714285714
 40
0.5714285714285714
 40
0.7142857142857143
 40
0.7142857142857143
 40
0.7142857142857143
 40
0.7142857142857143
 40
1.0
 40
1.0
 40
1.0
 40
1.0
 10
17.8714
 20
-9.5612
 30
0.0
 10
17.6744
 20
-7.9289
 30
0.0
 10
17.2254
 20
-7.0855
 30
0.0
 10
16.5174
 20
-5.5434
 30
0.0
 10
16.5174
 20
-5.5434
 30
0.0
 10
14.0898
 20
-6.8912
 30
0.0
 10
11.8065
 20
-12.1314
 30
0.0
 10
14.5953
 20
-17.3703
 30
0.0
 10
14.5953
 20
-17.3703
 30
0.0
 10
15.9024
 20
-16.4654
 30
0.0
 10
16.9834
 20
-15.0271
 30
0.0
 10
17.939
 20
-12.5926
 30
0.0
 10
17.939
 20
-12.5926
 30
0.0
 10
16.6953
 20
-11.9228
 30
0.0
 10
15.3589
 20
-10.7772
 30
0.0
 10
15.1712
 20
-9.4205
 30
0.0
 10
15.1712
 20
-9.4205
 30
0.0
 10
16.1495
 20
-9.8574
 30
0.0
 10
16.9038
 20
-10.1023
 30
0.0
 10
17.8714
 20
-9.5611
 30
0.0
 10
17.8714
 20
-9.5611
 30
0.0
 10
17.8714
 20
-9.5611
 30
0.0
 10
17.8714
 20
-9.5612
 30
0.0
 10
17.8714
 20
-9.5612
 30
0.0
  0
SPLINE
  5
4D
330
1F
100
AcDbEntity
  8
layer 1
 62
     7
100
AcDbSpline
210
0.0
220
0.0
230
1.0
 70
    11
 71
     3
 72
    28
 73
    24
 74
     0
 42
0.0000000001
 43
0.0000000001
 12
1.0
 22
0.0
 32
0.0
 13
1.0
 23
0.0
 33
0.0
 40
0.0
 40
0.0
 40
0.0
 40
0.0
 40
0.1428571428571428
 40
0.1428571428571428
 40
0.1428571428571428
 40
0.1428571428571428
 40
0.2857142857142857
 40
0.2857142857142857
 40
0.2857142857142857
 40
0.2857142857142857
 40
0.4285714285714285
 40
0.4285714285714285
 40
0.4285714285714285
 40
0.4285714285714285
 40
0.5714285714285714
 40
0.5714285714285714
 40
0.5714285714285714
 40
0.5714285714285714
 40
0.7142857142857143
 40
0.7142857142857143
 40
0.7142857142857143
 40
0.7142857142857143
 40
1.0
 40
1.0
 40
1.0
 40
1.0
 10
19.3788
 20
-24.1458
 30
0.0
 10
17.9144
 20
-22.7038
 30
0.0
 10
16.8138
 20
-21.4549
 30
0.0
 10
15.672
 20
-19.142
 30
0.0
 10
15.672
 20
-19.142
 30
0.0
 10
17.4375
 20
-17.312
 30
0.0
 10
18.7311
 20
-15.3167
 30
0.0
 10
19.3702
 20
-13.1745
 30
0.0
 10
19.3702
 20
-13.1745
 30
0.0
 10
20.0735
 20
-13.1637
 30
0.0
 10
20.6603
 20
-12.8329
 30
0.0
 10
22.1788
 20
-12.1907
 30
0.0
 10
22.1788
 20
-12.1907
 30
0.0
 10
20.5956
 20
-15.0564
 30
0.0
 10
21.9502
 20
-18.3541
 30
0.0
 10
22.9409
 20
-19.5679
 30
0.0
 10
22.9409
 20
-19.5679
 30
0.0
 10
21.0097
 20
-22.1444
 30
0.0
 10
20.7492
 20
-23.0332
 30
0.0
 10
19.3788
 20
-24.1458
 30
0.0
 10
19.3788
 20
-24.1458
 30
0.0
 10
19.3788
 20
-24.1458
 30
0.0
 10
19.3788
 20
-24.1458
 30
0.0
 10
19.3788
 20
-24.1458
 30
0.0
  0
SPLINE
  5
4E
330
1F
100
AcDbEntity
  8
layer 1
 62
     7
100
AcDbSpline
210
0.0
220
0.0
230
1.0
 70
    11
 71
     3
 72
    28
 73
    24
 74
     0
 42
0.0000000001
 43
0.0000000001
 12
1.0
 22
0.0
 32
0.0
 13
1.0
 23
0.0
 33
0.0
 40
0.0
 40
0.0
 40
0.0
 40
0.0
 40
0.1428571428571428
 40
0.1428571428571428
 40
0.1428571428571428
 40
0.1428571428571428
 40
0.2857142857142857
 40
0.2857142857142857
 40
0.2857142857142857
 40
0.2857142857142857
 40
0.4285714285714285
 40
0.4285714285714285
 40
0.4285714285714285
 40
0.4285714285714285
 40
0.5714285714285714
 40
0.5714285714285714
 40
0.5714285714285714
 40
0.5714285714285714
 40
0.7142857142857143
 40
0.7142857142857143
 40
0.7142857142857143
 40
0.7142857142857143
 40
1.0
 40
1.0
 40
1.0
 40
1.0
 10
33.6764
 20
-24.1458
 30
0.0
 10
35.1408
 20
-22.7038
 30
0.0
 10
36.2413
 20
-21.4549
 30
0.0
 10
37.3832
 20
-19.142
 30
0.0
 10
37.3832
 20
-19.142
 30
0.0
 10
35.6176
 20
-17.312
 30
0.0
 10
34.3241
 20
-15.3167
 30
0.0
 10
33.685
 20
-13.1745
 30
0.0
 10
33.685
 20
-13.1745
 30
0.0
 10
32.9817
 20
-13.1637
 30
0.0
 10
32.3949
 20
-12.8329
 30
0.0
 10
30.8764
 20
-12.1907
 30
0.0
 10
30.8764
 20
-12.1907
 30
0.0
 10
32.4596
 20
-15.0564
 30
0.0
 10
31.105
 20
-18.3541
 30
0.0
 10
30.1143
 20
-19.5679
 30
0.0
 10
30.1143
 20
-19.5679
 30
0.0
 10
32.0455
 20
-22.1444
 30
0.0
 10
32.306
 20
-23.0332
 30
0.0
 10
33.6764
 20
-24.1458
 30
0.0
 10
33.6764
 20
-24.1458
 30
0.0
 10
33.6764
 20
-24.1458
 30
0.0
 10
33.6764
 20
-24.1458
 30
0.0
 10
33.6764
 20
-24.1458
 30
0.0
  0
SPLINE
  5
4F
330
1F
100
AcDbEntity
  8
layer 1
 62
     7
100
AcDbSpline
210
0.0
220
0.0
230
1.0
 70
    11
 71
     3
 72
    28
 73
    24
 74
     0
 42
0.0000000001
 43
0.0000000001
 12
1.0
 22
0.0
 32
0.0
 13
1.0
 23
0.0
 33
0.0
 40
0.0
 40
0.0
 40
0.0
 40
0.0
 40
0.1428571428571428
 40
0.1428571428571428
 40
0.1428571428571428
 40
0.1428571428571428
 40
0.2857142857142857
 40
0.2857142857142857
 40
0.2857142857142857
 40
0.2857142857142857
 40
0.4285714285714285
 40
0.4285714285714285
 40
0.4285714285714285
 40
0.4285714285714285
 40
0.5714285714285714
 40
0.5714285714285714
 40
0.5714285714285714
 40
0.5714285714285714
 40
0.7142857142857143
 40
0.7142857142857143
 40
0.7142857142857143
 40
0.7142857142857143
 40
1.0
 40
1.0
 40
1.0
 40
1.0
 10
35.1304
 20
-9.5612
 30
0.0
 10
35.3275
 20
-7.9289
 30
0.0
 10
35.7764
 20
-7.0855
 30
0.0
 10
36.4844
 20
-5.5434
 30
0.0
 10
36.4844
 20
-5.5434
 30
0.0
 10
38.912
 20
-6.8912
 30
0.0
 10
41.1953
 20
-12.1314
 30
0.0
 10
38.4065
 20
-17.3703
 30
0.0
 10
38.4065
 20
-17.3703
 30
0.0
 10
37.0995
 20
-16.4654
 30
0.0
 10
36.0185
 20
-15.0271
 30
0.0
 10
35.0628
 20
-12.5926
 30
0.0
 10
35.0628
 20
-12.5926
 30
0.0
 10
36.3065
 20
-11.9228
 30
0.0
 10
37.6429
 20
-10.7772
 30
0.0
 10
37.8307
 20
-9.4205
 30
0.0
 10
37.8307
 20
-9.4205
 30
0.0
 10
36.8523
 20
-9.8574
 30
0.0
 10
36.0981
 20
-10.1023
 30
0.0
 10
35.1304
 20
-9.5611
 30
0.0
 10
35.1304
 20
-9.5611
 30
0.0
 10
35.1304
 20
-9.5611
 30
0.0
 10
35.1304
 20
-9.5612
 30
0.0
 10
35.1304
 20
-9.5612
 30
0.0
  0
SPLINE
  5
50
330
1F
100
AcDbEntity
  8
layer 1
 62
     7
100
AcDbSpline
210
0.0
220
0.0
230
1.0
 70
    11
 71
     3
 72
    24
 73
    20
 74
     0
 42
0.0000000001
 43
0.0000000001
 12
1.0
 22
0.0
 32
0.0
 13
1.0
 23
0.0
 33
0.0
 40
0.0
 40
0.0
 40
0.0
 40
0.0
 40
0.1666666666666667
 40
0.1666666666666667
 40
0.1666666666666667
 40
0.1666666666666667
 40
0.3333333333333333
 40
0.3333333333333333
 40
0.3333333333333333
 40
0.3333333333333333
 40
0.5
 40
0.5
 40
0.5
 40
0.5
 40
0.6666666666666666
 40
0.6666666666666666
 40
0.6666666666666666
 40
0.6666666666666666
 40
1.0
 40
1.0
 40
1.0
 40
1.0
 10
15.2637
 20
-107.928
 30
0.0
 10
14.3059
 20
-107.4822
 30
0.0
 10
13.4494
 20
-106.9858
 30
0.0
 10
12.118
 20
-106.936
 30
0.0
 10
12.118
 20
-106.936
 30
0.0
 10
13.3733
 20
-105.556
 30
0.0
 10
13.3255
 20
-103.1897
 30
0.0
 10
11.4493
 20
-101.9703
 30
0.0
 10
11.4493
 20
-101.9703
 30
0.0
 10
13.6967
 20
-101.1412
 30
0.0
 10
14.8439
 20
-100.2101
 30
0.0
 10
15.7428
 20
-99.504
 30
0.0
 10
15.7428
 20
-99.504
 30
0.0
 10
17.8721
 20
-101.9642
 30
0.0
 10
19.3454
 20
-102.9297
 30
0.0
 10
20.5604
 20
-104.0785
 30
0.0
 10
20.5604
 20
-104.0785
 30
0.0
 10
19.8575
 20
-104.9547
 30
0.0
 10
18.3851
 20
-106.7692
 30
0.0
 10
15.2637
 20
-107.928
 30
0.0
  0
SPLINE
  5
51
330
1F
100
AcDbEntity
  8
layer 1
 62
     7
100
AcDbSpline
210
0.0
220
0.0
230
1.0
 70
    11
 71
     3
 72
    16
 73
    12
 74
     0
 42
0.0000000001
 43
0.0000000001
 12
1.0
 22
0.0
 32
0.0
 13
1.0
 23
0.0
 33
0.0
 40
0.0
 40
0.0
 40
0.0
 40
0.0
 40
0.25
 40
0.25
 40
0.25
 40
0.25
 40
0.5
 40
0.5
 40
0.5
 40
0.5
 40
1.0
 40
1.0
 40
1.0
 40
1.0
 10
-11.3496
 20
-100.8779
 30
0.0
 10
-11.1134
 20
-100.3629
 30
0.0
 10
-10.4305
 20
-99.4685
 30
0.0
 10
-9.6196
 20
-99.1844
 30
0.0
 10
-9.6196
 20
-99.1844
 30
0.0
 10
-10.4521
 20
-97.7914
 30
0.0
 10
-11.0191
 20
-96.185
 30
0.0
 10
-11.3721
 20
-94.5658
 30
0.0
 10
-11.3721
 20
-94.5658
 30
0.0
 10
-11.3721
 20
-96.7581
 30
0.0
 10
-11.3496
 20
-99.5575
 30
0.0
 10
-11.3496
 20
-100.8779
 30
0.0
  0
SPLINE
  5
52
330
1F
100
AcDbEntity
  8
layer 1
 62
     7
100
AcDbSpline
210
0.0
220
0.0
230
1.0
 70
    11
 71
     3
 72
    40
 73
    36
 74
     0
 42
0.0000000001
 43
0.0000000001
 12
1.0
 22
0.0
 32
0.0
 13
1.0
 23
0.0
 33
0.0
 40
0.0
 40
0.0
 40
0.0
 40
0.0
 40
0.1
 40
0.1
 40
0.1
 40
0.1
 40
0.2
 40
0.2
 40
0.2
 40
0.2
 40
0.3
 40
0.3
 40
0.3
 40
0.3
 40
0.4
 40
0.4
 40
0.4
 40
0.4
 40
0.5
 40
0.5
 40
0.5
 40
0.5
 40
0.6
 40
0.6
 40
0.6
 40
0.6
 40
0.7
 40
0.7
 40
0.7
 40
0.7
 40
0.8
 40
0.8
 40
0.8
 40
0.8
 40
1.0
 40
1.0
 40
1.0
 40
1.0
 10
-2.2452
 20
-81.6243
 30
0.0
 10
-1.5163
 20
-84.3049
 30
0.0
 10
-1.068
 20
-85.6676
 30
0.0
 10
-0.9164
 20
-87.5986
 30
0.0
 10
-0.9164
 20
-87.5986
 30
0.0
 10
-0.1629
 20
-92.654
 30
0.0
 10
-4.6821
 20
-94.192
 30
0.0
 10
0.5356
 20
-99.5279
 30
0.0
 10
0.5356
 20
-99.5279
 30
0.0
 10
0.0005
 20
-101.1785
 30
0.0
 10
-2.6095
 20
-103.704
 30
0.0
 10
-5.3717
 20
-103.4461
 30
0.0
 10
-5.3717
 20
-103.4461
 30
0.0
 10
-4.5399
 20
-101.4842
 30
0.0
 10
-5.6522
 20
-99.3512
 30
0.0
 10
-7.7152
 20
-98.9367
 30
0.0
 10
-7.7152
 20
-98.9367
 30
0.0
 10
-8.8033
 20
-96.7931
 30
0.0
 10
-9.2289
 20
-91.1395
 30
0.0
 10
-6.9973
 20
-87.2762
 30
0.0
 10
-6.9973
 20
-87.2762
 30
0.0
 10
-6.1241
 20
-88.16
 30
0.0
 10
-4.2627
 20
-89.3215
 30
0.0
 10
-2.9569
 20
-89.0548
 30
0.0
 10
-2.9569
 20
-89.0548
 30
0.0
 10
-3.918
 20
-87.7592
 30
0.0
 10
-5.3772
 20
-85.9985
 30
0.0
 10
-4.395
 20
-84.5273
 30
0.0
 10
-4.395
 20
-84.5273
 30
0.0
 10
-3.6936
 20
-83.5018
 30
0.0
 10
-2.9403
 20
-82.2881
 30
0.0
 10
-2.2453
 20
-81.6244
 30
0.0
 10
-2.2453
 20
-81.6244
 30
0.0
 10
-2.2453
 20
-81.6244
 30
0.0
 10
-2.2452
 20
-81.6243
 30
0.0
 10
-2.2452
 20
-81.6243
 30
0.0
  0
SPLINE
  5
53
330
1F
100
AcDbEntity
  8
layer 1
 62
     7
100
AcDbSpline
210
0.0
220
0.0
230
1.0
 70
    11
 71
     3
 72
    24
 73
    20
 74
     0
 42
0.0000000001
 43
0.0000000001
 12
1.0
 22
0.0
 32
0.0
 13
1.0
 23
0.0
 33
0.0
 40
0.0
 40
0.0
 40
0.0
 40
0.0
 40
0.1666666666666667
 40
0.1666666666666667
 40
0.1666666666666667
 40
0.1666666666666667
 40
0.3333333333333333
 40
0.3333333333333333
 40
0.3333333333333333
 40
0.3333333333333333
 40
0.5
 40
0.5
 40
0.5
 40
0.5
 40
0.6666666666666666
 40
0.6666666666666666
 40
0.6666666666666666
 40
0.6666666666666666
 40
1.0
 40
1.0
 40
1.0
 40
1.0
 10
-11.3721
 20
-103.359
 30
0.0
 10
-10.4028
 20
-105.3314
 30
0.0
 10
-8.1416
 20
-105.9644
 30
0.0
 10
-6.4676
 20
-104.7763
 30
0.0
 10
-6.4676
 20
-104.7763
 30
0.0
 10
-4.1087
 20
-106.6509
 30
0.0
 10
-2.0158
 20
-107.8446
 30
0.0
 10
0.2059
 20
-108.906
 30
0.0
 10
0.2059
 20
-108.906
 30
0.0
 10
0.2059
 20
-108.906
 30
0.0
 10
-11.3721
 20
-108.906
 30
0.0
 10
-11.3721
 20
-108.906
 30
0.0
 10
-11.3721
 20
-108.906
 30
0.0
 10
-11.3721
 20
-106.9109
 30
0.0
 10
-11.3721
 20
-105.799
 30
0.0
 10
-11.3721
 20
-103.359
 30
0.0
 10
-11.3721
 20
-103.359
 30
0.0
 10
-11.3721
 20
-103.359
 30
0.0
 10
-11.3721
 20
-103.359
 30
0.0
 10
-11.3721
 20
-103.359
 30
0.0
  0
SPLINE
  5
54
330
1F
100
AcDbEntity
  8
layer 1
 62
     7
100
AcDbSpline
210
0.0
220
0.0
230
1.0
 70
    11
 71
     3
 72
    28
 73
    24
 74
     0
 42
0.0000000001
 43
0.0000000001
 12
1.0
 22
0.0
 32
0.0
 13
1.0
 23
0.0
 33
0.0
 40
0.0
 40
0.0
 40
0.0
 40
0.0
 40
0.1428571428571428
 40
0.1428571428571428
 40
0.1428571428571428
 40
0.1428571428571428
 40
0.2857142857142857
 40
0.2857142857142857
 40
0.2857142857142857
 40
0.2857142857142857
 40
0.4285714285714285
 40
0.4285714285714285
 40
0.4285714285714285
 40
0.4285714285714285
 40
0.5714285714285714
 40
0.5714285714285714
 40
0.5714285714285714
 40
0.5714285714285714
 40
0.7142857142857143
 40
0.7142857142857143
 40
0.7142857142857143
 40
0.7142857142857143
 40
1.0
 40
1.0
 40
1.0
 40
1.0
 10
15.2637
 20
6.4739
 30
0.0
 10
14.3059
 20
6.028
 30
0.0
 10
13.4494
 20
5.5317
 30
0.0
 10
12.118
 20
5.4819
 30
0.0
 10
12.118
 20
5.4819
 30
0.0
 10
13.3733
 20
4.1019
 30
0.0
 10
13.3255
 20
1.7355
 30
0.0
 10
11.4493
 20
0.5161
 30
0.0
 10
11.4493
 20
0.5161
 30
0.0
 10
13.6967
 20
-0.313
 30
0.0
 10
14.8439
 20
-1.244
 30
0.0
 10
15.7428
 20
-1.9502
 30
0.0
 10
15.7428
 20
-1.9502
 30
0.0
 10
17.8721
 20
0.51
 30
0.0
 10
19.3454
 20
1.4755
 30
0.0
 10
20.5604
 20
2.6244
 30
0.0
 10
20.5604
 20
2.6244
 30
0.0
 10
19.8575
 20
3.5005
 30
0.0
 10
18.3851
 20
5.3151
 30
0.0
 10
15.2637
 20
6.4738
 30
0.0
 10
15.2637
 20
6.4738
 30
0.0
 10
15.2637
 20
6.4738
 30
0.0
 10
15.2637
 20
6.4739
 30
0.0
 10
15.2637
 20
6.4739
 30
0.0
  0
SPLINE
  5
55
330
1F
100
AcDbEntity
  8
layer 1
 62
     7
100
AcDbSpline
210
0.0
220
0.0
230
1.0
 70
    11
 71
     3
 72
    24
 73
    20
 74
     0
 42
0.0000000001
 43
0.0000000001
 12
1.0
 22
0.0
 32
0.0
 13
1.0
 23
0.0
 33
0.0
 40
0.0
 40
0.0
 40
0.0
 40
0.0
 40
0.1666666666666667
 40
0.1666666666666667
 40
0.1666666666666667
 40
0.1666666666666667
 40
0.3333333333333333
 40
0.3333333333333333
 40
0.3333333333333333
 40
0.3333333333333333
 40
0.5
 40
0.5
 40
0.5
 40
0.5
 40
0.6666666666666666
 40
0.6666666666666666
 40
0.6666666666666666
 40
0.6666666666666666
 40
1.0
 40
1.0
 40
1.0
 40
1.0
 10
2.9752
 20
6.2151
 30
0.0
 10
4.4473
 20
5.8088
 30
0.0
 10
6.0769
 20
5.4615
 30
0.0
 10
7.6458
 20
5.6887
 30
0.0
 10
7.6458
 20
5.6887
 30
0.0
 10
5.916
 20
4.2726
 30
0.0
 10
6.3721
 20
1.7695
 30
0.0
 10
7.6943
 20
0.7722
 30
0.0
 10
7.6943
 20
0.7722
 30
0.0
 10
5.6714
 20
0.8421
 30
0.0
 10
4.028
 20
0.1528
 30
0.0
 10
2.496
 20
-0.8711
 30
0.0
 10
2.496
 20
-0.8711
 30
0.0
 10
1.4768
 20
0.6872
 30
0.0
 10
-0.0827
 20
2.3304
 30
0.0
 10
-2.0437
 20
2.9337
 30
0.0
 10
-2.0437
 20
2.9337
 30
0.0
 10
-0.9439
 20
3.7437
 30
0.0
 10
-0.0822
 20
4.9518
 30
0.0
 10
2.9752
 20
6.2151
 30
0.0
  0
SPLINE
  5
56
330
1F
100
AcDbEntity
  8
layer 1
 62
     7
100
AcDbSpline
210
0.0
220
0.0
230
1.0
 70
    11
 71
     3
 72
    40
 73
    36
 74
     0
 42
0.0000000001
 43
0.0000000001
 12
1.0
 22
0.0
 32
0.0
 13
1.0
 23
0.0
 33
0.0
 40
0.0
 40
0.0
 40
0.0
 40
0.0
 40
0.1
 40
0.1
 40
0.1
 40
0.1
 40
0.2
 40
0.2
 40
0.2
 40
0.2
 40
0.3
 40
0.3
 40
0.3
 40
0.3
 40
0.4
 40
0.4
 40
0.4
 40
0.4
 40
0.5
 40
0.5
 40
0.5
 40
0.5
 40
0.6
 40
0.6
 40
0.6
 40
0.6
 40
0.7
 40
0.7
 40
0.7
 40
0.7
 40
0.8
 40
0.8
 40
0.8
 40
0.8
 40
1.0
 40
1.0
 40
1.0
 40
1.0
 10
-5.5944
 20
-25.6223
 30
0.0
 10
-3.5655
 20
-25.3326
 30
0.0
 10
-1.6211
 20
-24.5955
 30
0.0
 10
-2.0834
 20
-21.7257
 30
0.0
 10
-2.0834
 20
-21.7257
 30
0.0
 10
-0.5257
 20
-22.1297
 30
0.0
 10
2.9086
 20
-22.9875
 30
0.0
 10
5.3661
 20
-22.7677
 30
0.0
 10
5.3661
 20
-22.7677
 30
0.0
 10
3.8533
 20
-24.6451
 30
0.0
 10
4.394
 20
-26.6502
 30
0.0
 10
5.6727
 20
-27.6071
 30
0.0
 10
5.6727
 20
-27.6071
 30
0.0
 10
6.8951
 20
-28.5218
 30
0.0
 10
8.1079
 20
-28.4535
 30
0.0
 10
9.0735
 20
-28.0004
 30
0.0
 10
9.0735
 20
-28.0004
 30
0.0
 10
10.7373
 20
-27.2198
 30
0.0
 10
12.0231
 20
-24.6306
 30
0.0
 10
9.6397
 20
-22.4636
 30
0.0
 10
9.6397
 20
-22.4636
 30
0.0
 10
10.8763
 20
-22.0821
 30
0.0
 10
12.0148
 20
-21.6365
 30
0.0
 10
12.6145
 20
-21.3828
 30
0.0
 10
12.6145
 20
-21.3828
 30
0.0
 10
14.1916
 20
-23.1769
 30
0.0
 10
15.7725
 20
-24.4851
 30
0.0
 10
17.311
 20
-25.8128
 30
0.0
 10
17.311
 20
-25.8128
 30
0.0
 10
9.3593
 20
-33.3513
 30
0.0
 10
-2.0886
 20
-29.882
 30
0.0
 10
-5.5944
 20
-25.6223
 30
0.0
 10
-5.5944
 20
-25.6223
 30
0.0
 10
-5.5944
 20
-25.6223
 30
0.0
 10
-5.5944
 20
-25.6223
 30
0.0
 10
-5.5944
 20
-25.6223
 30
0.0
  0
SPLINE
  5
57
330
1F
100
AcDbEntity
  8
layer 1
 62
     7
100
AcDbSpline
210
0.0
220
0.0
230
1.0
 70
    11
 71
     3
 72
    32
 73
    28
 74
     0
 42
0.0000000001
 43
0.0000000001
 12
1.0
 22
0.0
 32
0.0
 13
1.0
 23
0.0
 33
0.0
 40
0.0
 40
0.0
 40
0.0
 40
0.0
 40
0.125
 40
0.125
 40
0.125
 40
0.125
 40
0.25
 40
0.25
 40
0.25
 40
0.25
 40
0.375
 40
0.375
 40
0.375
 40
0.375
 40
0.5
 40
0.5
 40
0.5
 40
0.5
 40
0.625
 40
0.625
 40
0.625
 40
0.625
 40
0.75
 40
0.75
 40
0.75
 40
0.75
 40
1.0
 40
1.0
 40
1.0
 40
1.0
 10
-0.3866
 20
-81.0499
 30
0.0
 10
4.5764
 20
-79.07
 30
0.0
 10
8.943
 20
-80.4054
 30
0.0
 10
11.2521
 20
-81.6218
 30
0.0
 10
11.2521
 20
-81.6218
 30
0.0
 10
9.2405
 20
-83.2913
 30
0.0
 10
7.7598
 20
-90.1279
 30
0.0
 10
10.5715
 20
-94.3134
 30
0.0
 10
10.5715
 20
-94.3134
 30
0.0
 10
5.9845
 20
-93.1516
 30
0.0
 10
2.8717
 20
-95.8294
 30
0.0
 10
1.8963
 20
-97.657
 30
0.0
 10
1.8963
 20
-97.657
 30
0.0
 10
1.0198
 20
-96.7431
 30
0.0
 10
0.0176
 20
-94.6351
 30
0.0
 10
0.8772
 20
-92.0269
 30
0.0
 10
0.8772
 20
-92.0269
 30
0.0
 10
2.2252
 20
-94.6914
 30
0.0
 10
5.4668
 20
-92.7174
 30
0.0
 10
5.7739
 20
-90.6529
 30
0.0
 10
5.7739
 20
-90.6529
 30
0.0
 10
6.5026
 20
-85.7545
 30
0.0
 10
3.1583
 20
-82.0716
 30
0.0
 10
-0.3866
 20
-81.0499
 30
0.0
 10
-0.3866
 20
-81.0499
 30
0.0
 10
-0.3866
 20
-81.0499
 30
0.0
 10
-0.3866
 20
-81.0499
 30
0.0
 10
-0.3866
 20
-81.0499
 30
0.0
  0
SPLINE
  5
58
330
1F
100
AcDbEntity
  8
layer 1
 62
     7
100
AcDbSpline
210
0.0
220
0.0
230
1.0
 70
    11
 71
     3
 72
    16
 73
    12
 74
     0
 42
0.0000000001
 43
0.0000000001
 12
1.0
 22
0.0
 32
0.0
 13
1.0
 23
0.0
 33
0.0
 40
0.0
 40
0.0
 40
0.0
 40
0.0
 40
0.25
 40
0.25
 40
0.25
 40
0.25
 40
0.5
 40
0.5
 40
0.5
 40
0.5
 40
1.0
 40
1.0
 40
1.0
 40
1.0
 10
-11.3721
 20
-83.5494
 30
0.0
 10
-11.3721
 20
-84.5508
 30
0.0
 10
-9.7003
 20
-85.6237
 30
0.0
 10
-9.008
 20
-86.1021
 30
0.0
 10
-9.008
 20
-86.1021
 30
0.0
 10
-10.1217
 20
-87.4951
 30
0.0
 10
-11.0191
 20
-89.8663
 30
0.0
 10
-11.3721
 20
-91.4854
 30
0.0
 10
-11.3721
 20
-91.4854
 30
0.0
 10
-11.3721
 20
-89.2931
 30
0.0
 10
-11.3721
 20
-84.8698
 30
0.0
 10
-11.3721
 20
-83.5494
 30
0.0
  0
SPLINE
  5
59
330
1F
100
AcDbEntity
  8
layer 1
 62
     7
100
AcDbSpline
210
0.0
220
0.0
230
1.0
 70
    11
 71
     3
 72
    24
 73
    20
 74
     0
 42
0.0000000001
 43
0.0000000001
 12
1.0
 22
0.0
 32
0.0
 13
1.0
 23
0.0
 33
0.0
 40
0.0
 40
0.0
 40
0.0
 40
0.0
 40
0.1666666666666667
 40
0.1666666666666667
 40
0.1666666666666667
 40
0.1666666666666667
 40
0.3333333333333333
 40
0.3333333333333333
 40
0.3333333333333333
 40
0.3333333333333333
 40
0.5
 40
0.5
 40
0.5
 40
0.5
 40
0.6666666666666666
 40
0.6666666666666666
 40
0.6666666666666666
 40
0.6666666666666666
 40
1.0
 40
1.0
 40
1.0
 40
1.0
 10
22.1367
 20
-102.4241
 30
0.0
 10
20.6557
 20
-101.0019
 30
0.0
 10
18.6092
 20
-98.8047
 30
0.0
 10
17.4239
 20
-97.0521
 30
0.0
 10
17.4239
 20
-97.0521
 30
0.0
 10
18.4621
 20
-95.7416
 30
0.0
 10
18.9954
 20
-94.3223
 30
0.0
 10
19.4267
 20
-93.0634
 30
0.0
 10
19.4267
 20
-93.0634
 30
0.0
 10
20.469
 20
-96.5387
 30
0.0
 10
23.5488
 20
-97.7883
 30
0.0
 10
25.4393
 20
-96.1316
 30
0.0
 10
25.4393
 20
-96.1316
 30
0.0
 10
25.1707
 20
-97.9807
 30
0.0
 10
23.507
 20
-101.3114
 30
0.0
 10
22.1367
 20
-102.424
 30
0.0
 10
22.1367
 20
-102.424
 30
0.0
 10
22.1367
 20
-102.424
 30
0.0
 10
22.1367
 20
-102.4241
 30
0.0
 10
22.1367
 20
-102.4241
 30
0.0
  0
SPLINE
  5
5A
330
1F
100
AcDbEntity
  8
layer 1
 62
     7
100
AcDbSpline
210
0.0
220
0.0
230
1.0
 70
    11
 71
     3
 72
    24
 73
    20
 74
     0
 42
0.0000000001
 43
0.0000000001
 12
1.0
 22
0.0
 32
0.0
 13
1.0
 23
0.0
 33
0.0
 40
0.0
 40
0.0
 40
0.0
 40
0.0
 40
0.1666666666666667
 40
0.1666666666666667
 40
0.1666666666666667
 40
0.1666666666666667
 40
0.3333333333333333
 40
0.3333333333333333
 40
0.3333333333333333
 40
0.3333333333333333
 40
0.5
 40
0.5
 40
0.5
 40
0.5
 40
0.6666666666666666
 40
0.6666666666666666
 40
0.6666666666666666
 40
0.6666666666666666
 40
1.0
 40
1.0
 40
1.0
 40
1.0
 10
17.8714
 20
-92.0001
 30
0.0
 10
17.6744
 20
-93.6325
 30
0.0
 10
17.2254
 20
-94.4759
 30
0.0
 10
16.5174
 20
-96.0179
 30
0.0
 10
16.5174
 20
-96.0179
 30
0.0
 10
14.0898
 20
-94.6701
 30
0.0
 10
11.8065
 20
-89.4299
 30
0.0
 10
14.5953
 20
-84.1909
 30
0.0
 10
14.5953
 20
-84.1909
 30
0.0
 10
15.9024
 20
-85.0959
 30
0.0
 10
16.9834
 20
-86.5342
 30
0.0
 10
17.939
 20
-88.9686
 30
0.0
 10
17.939
 20
-88.9686
 30
0.0
 10
16.6953
 20
-89.6384
 30
0.0
 10
15.3589
 20
-90.7841
 30
0.0
 10
15.1712
 20
-92.1408
 30
0.0
 10
15.1712
 20
-92.1408
 30
0.0
 10
16.1495
 20
-91.7039
 30
0.0
 10
16.9038
 20
-91.4589
 30
0.0
 10
17.8714
 20
-92.0001
 30
0.0
  0
SPLINE
  5
5B
330
1F
100
AcDbEntity
  8
layer 1
 62
     7
100
AcDbSpline
210
0.0
220
0.0
230
1.0
 70
    11
 71
     3
 72
    28
 73
    24
 74
     0
 42
0.0000000001
 43
0.0000000001
 12
1.0
 22
0.0
 32
0.0
 13
1.0
 23
0.0
 33
0.0
 40
0.0
 40
0.0
 40
0.0
 40
0.0
 40
0.1428571428571428
 40
0.1428571428571428
 40
0.1428571428571428
 40
0.1428571428571428
 40
0.2857142857142857
 40
0.2857142857142857
 40
0.2857142857142857
 40
0.2857142857142857
 40
0.4285714285714285
 40
0.4285714285714285
 40
0.4285714285714285
 40
0.4285714285714285
 40
0.5714285714285714
 40
0.5714285714285714
 40
0.5714285714285714
 40
0.5714285714285714
 40
0.7142857142857143
 40
0.7142857142857143
 40
0.7142857142857143
 40
0.7142857142857143
 40
1.0
 40
1.0
 40
1.0
 40
1.0
 10
19.3788
 20
-77.4155
 30
0.0
 10
17.9144
 20
-78.8576
 30
0.0
 10
16.8138
 20
-80.1065
 30
0.0
 10
15.672
 20
-82.4193
 30
0.0
 10
15.672
 20
-82.4193
 30
0.0
 10
17.4375
 20
-84.2494
 30
0.0
 10
18.7311
 20
-86.2446
 30
0.0
 10
19.3702
 20
-88.3868
 30
0.0
 10
19.3702
 20
-88.3868
 30
0.0
 10
20.0735
 20
-88.3977
 30
0.0
 10
20.6603
 20
-88.7284
 30
0.0
 10
22.1788
 20
-89.3706
 30
0.0
 10
22.1788
 20
-89.3706
 30
0.0
 10
20.5956
 20
-86.5049
 30
0.0
 10
21.9502
 20
-83.2072
 30
0.0
 10
22.9409
 20
-81.9935
 30
0.0
 10
22.9409
 20
-81.9935
 30
0.0
 10
21.0097
 20
-79.4169
 30
0.0
 10
20.7492
 20
-78.5282
 30
0.0
 10
19.3788
 20
-77.4155
 30
0.0
 10
19.3788
 20
-77.4155
 30
0.0
 10
19.3788
 20
-77.4155
 30
0.0
 10
19.3788
 20
-77.4155
 30
0.0
 10
19.3788
 20
-77.4155
 30
0.0
  0
SPLINE
  5
5C
330
1F
100
AcDbEntity
  8
layer 1
 62
     7
100
AcDbSpline
210
0.0
220
0.0
230
1.0
 70
    11
 71
     3
 72
    20
 73
    16
 74
     0
 42
0.0000000001
 43
0.0000000001
 12
1.0
 22
0.0
 32
0.0
 13
1.0
 23
0.0
 33
0.0
 40
0.0
 40
0.0
 40
0.0
 40
0.0
 40
0.2
 40
0.2
 40
0.2
 40
0.2
 40
0.4
 40
0.4
 40
0.4
 40
0.4
 40
0.6
 40
0.6
 40
0.6
 40
0.6
 40
1.0
 40
1.0
 40
1.0
 40
1.0
 10
23.7531
 20
-90.0313
 30
0.0
 10
24.7559
 20
-90.8219
 30
0.0
 10
25.8172
 20
-92.2923
 30
0.0
 10
26.5005
 20
-94.918
 30
0.0
 10
26.5005
 20
-94.918
 30
0.0
 10
27.1838
 20
-92.2923
 30
0.0
 10
28.2451
 20
-90.8219
 30
0.0
 10
29.2479
 20
-90.0313
 30
0.0
 10
29.2479
 20
-90.0313
 30
0.0
 10
30.024
 20
-87.324
 30
0.0
 10
28.6587
 20
-85.5082
 30
0.0
 10
26.5005
 20
-85.6699
 30
0.0
 10
26.5005
 20
-85.6699
 30
0.0
 10
24.3422
 20
-85.5082
 30
0.0
 10
22.977
 20
-87.324
 30
0.0
 10
23.7531
 20
-90.0313
 30
0.0
  0
SPLINE
  5
5D
330
1F
100
AcDbEntity
  8
layer 1
 62
     7
100
AcDbSpline
210
0.0
220
0.0
230
1.0
 70
    11
 71
     3
 72
    16
 73
    12
 74
     0
 42
0.0000000001
 43
0.0000000001
 12
1.0
 22
0.0
 32
0.0
 13
1.0
 23
0.0
 33
0.0
 40
0.0
 40
0.0
 40
0.0
 40
0.0
 40
0.25
 40
0.25
 40
0.25
 40
0.25
 40
0.5
 40
0.5
 40
0.5
 40
0.5
 40
1.0
 40
1.0
 40
1.0
 40
1.0
 10
17.9834
 20
-108.9219
 30
0.0
 10
19.6532
 20
-107.9798
 30
0.0
 10
21.2827
 20
-106.8613
 30
0.0
 10
22.556
 20
-105.8129
 30
0.0
 10
22.556
 20
-105.8129
 30
0.0
 10
23.7845
 20
-106.9725
 30
0.0
 10
24.477
 20
-107.5261
 30
0.0
 10
25.7913
 20
-108.9219
 30
0.0
 10
25.7913
 20
-108.9219
 30
0.0
 10
25.7913
 20
-108.9219
 30
0.0
 10
17.9834
 20
-108.9219
 30
0.0
 10
17.9834
 20
-108.9219
 30
0.0
  0
SPLINE
  5
5E
330
1F
100
AcDbEntity
  8
layer 1
 62
     7
100
AcDbSpline
210
0.0
220
0.0
230
1.0
 70
    11
 71
     3
 72
    32
 73
    28
 74
     0
 42
0.0000000001
 43
0.0000000001
 12
1.0
 22
0.0
 32
0.0
 13
1.0
 23
0.0
 33
0.0
 40
0.0
 40
0.0
 40
0.0
 40
0.0
 40
0.125
 40
0.125
 40
0.125
 40
0.125
 40
0.25
 40
0.25
 40
0.25
 40
0.25
 40
0.375
 40
0.375
 40
0.375
 40
0.375
 40
0.5
 40
0.5
 40
0.5
 40
0.5
 40
0.625
 40
0.625
 40
0.625
 40
0.625
 40
0.75
 40
0.75
 40
0.75
 40
0.75
 40
1.0
 40
1.0
 40
1.0
 40
1.0
 10
2.7389
 20
-59.7233
 30
0.0
 10
3.841
 20
-55.9049
 30
0.0
 10
7.9319
 20
-52.1466
 30
0.0
 10
14.5614
 20
-52.6655
 30
0.0
 10
14.5614
 20
-52.6655
 30
0.0
 10
10.0679
 20
-57.2766
 30
0.0
 10
10.7014
 20
-64.5728
 30
0.0
 10
13.4212
 20
-69.7695
 30
0.0
 10
13.4212
 20
-69.7695
 30
0.0
 10
8.3745
 20
-67.8722
 30
0.0
 10
4.7101
 20
-68.4358
 30
0.0
 10
0.3336
 20
-69.436
 30
0.0
 10
0.3336
 20
-69.436
 30
0.0
 10
1.2036
 20
-67.7868
 30
0.0
 10
1.6723
 20
-66.9658
 30
0.0
 10
1.4288
 20
-64.2656
 30
0.0
 10
1.4288
 20
-64.2656
 30
0.0
 10
3.1445
 20
-67.8493
 30
0.0
 10
7.3973
 20
-68.0815
 30
0.0
 10
8.4398
 20
-66.0171
 30
0.0
 10
8.4398
 20
-66.0171
 30
0.0
 10
4.9728
 20
-65.5492
 30
0.0
 10
9.0416
 20
-58.9066
 30
0.0
 10
2.7389
 20
-59.7233
 30
0.0
 10
2.7389
 20
-59.7233
 30
0.0
 10
2.7389
 20
-59.7233
 30
0.0
 10
2.7389
 20
-59.7233
 30
0.0
 10
2.7389
 20
-59.7233
 30
0.0
  0
SPLINE
  5
5F
330
1F
100
AcDbEntity
  8
layer 1
 62
     7
100
AcDbSpline
210
0.0
220
0.0
230
1.0
 70
    11
 71
     3
 72
    36
 73
    32
 74
     0
 42
0.0000000001
 43
0.0000000001
 12
1.0
 22
0.0
 32
0.0
 13
1.0
 23
0.0
 33
0.0
 40
0.0
 40
0.0
 40
0.0
 40
0.0
 40
0.1111111111111111
 40
0.1111111111111111
 40
0.1111111111111111
 40
0.1111111111111111
 40
0.2222222222222222
 40
0.2222222222222222
 40
0.2222222222222222
 40
0.2222222222222222
 40
0.3333333333333333
 40
0.3333333333333333
 40
0.3333333333333333
 40
0.3333333333333333
 40
0.4444444444444444
 40
0.4444444444444444
 40
0.4444444444444444
 40
0.4444444444444444
 40
0.5555555555555556
 40
0.5555555555555556
 40
0.5555555555555556
 40
0.5555555555555556
 40
0.6666666666666666
 40
0.6666666666666666
 40
0.6666666666666666
 40
0.6666666666666666
 40
0.7777777777777778
 40
0.7777777777777778
 40
0.7777777777777778
 40
0.7777777777777778
 40
1.0
 40
1.0
 40
1.0
 40
1.0
 10
-6.2053
 20
-59.8152
 30
0.0
 10
-6.6712
 20
-61.7229
 30
0.0
 10
-6.0946
 20
-64.5968
 30
0.0
 10
-11.3722
 20
-63.6046
 30
0.0
 10
-11.3722
 20
-63.6046
 30
0.0
 10
-11.3722
 20
-63.6046
 30
0.0
 10
-11.3722
 20
-79.3297
 30
0.0
 10
-11.3722
 20
-79.3297
 30
0.0
 10
-11.3722
 20
-79.3297
 30
0.0
 10
-9.109
 20
-75.4442
 30
0.0
 10
-7.7816
 20
-74.3452
 30
0.0
 10
-3.5243
 20
-71.0907
 30
0.0
 10
-3.5243
 20
-71.0907
 30
0.0
 10
-7.8539
 20
-71.4296
 30
0.0
 10
-9.8522
 20
-68.844
 30
0.0
 10
-8.2965
 20
-66.1041
 30
0.0
 10
-8.2965
 20
-66.1041
 30
0.0
 10
-7.8382
 20
-67.3435
 30
0.0
 10
-5.4709
 20
-67.9222
 30
0.0
 10
-3.8133
 20
-66.768
 30
0.0
 10
-3.8133
 20
-66.768
 30
0.0
 10
-2.5014
 20
-65.8546
 30
0.0
 10
-2.3615
 20
-63.8495
 30
0.0
 10
-0.9672
 20
-62.2481
 30
0.0
 10
-0.9672
 20
-62.2481
 30
0.0
 10
-3.9023
 20
-62.496
 30
0.0
 10
-5.0323
 20
-62.1001
 30
0.0
 10
-6.2054
 20
-59.8152
 30
0.0
 10
-6.2054
 20
-59.8152
 30
0.0
 10
-6.2054
 20
-59.8152
 30
0.0
 10
-6.2053
 20
-59.8152
 30
0.0
 10
-6.2053
 20
-59.8152
 30
0.0
  0
SPLINE
  5
60
330
1F
100
AcDbEntity
  8
layer 1
 62
     7
100
AcDbSpline
210
0.0
220
0.0
230
1.0
 70
    11
 71
     3
 72
    36
 73
    32
 74
     0
 42
0.0000000001
 43
0.0000000001
 12
1.0
 22
0.0
 32
0.0
 13
1.0
 23
0.0
 33
0.0
 40
0.0
 40
0.0
 40
0.0
 40
0.0
 40
0.1111111111111111
 40
0.1111111111111111
 40
0.1111111111111111
 40
0.1111111111111111
 40
0.2222222222222222
 40
0.2222222222222222
 40
0.2222222222222222
 40
0.2222222222222222
 40
0.3333333333333333
 40
0.3333333333333333
 40
0.3333333333333333
 40
0.3333333333333333
 40
0.4444444444444444
 40
0.4444444444444444
 40
0.4444444444444444
 40
0.4444444444444444
 40
0.5555555555555556
 40
0.5555555555555556
 40
0.5555555555555556
 40
0.5555555555555556
 40
0.6666666666666666
 40
0.6666666666666666
 40
0.6666666666666666
 40
0.6666666666666666
 40
0.7777777777777778
 40
0.7777777777777778
 40
0.7777777777777778
 40
0.7777777777777778
 40
1.0
 40
1.0
 40
1.0
 40
1.0
 10
-5.2987
 20
-55.092
 30
0.0
 10
-4.2023
 20
-54.6772
 30
0.0
 10
-1.6432
 20
-54.9282
 30
0.0
 10
-1.5152
 20
-57.8955
 30
0.0
 10
-1.5152
 20
-57.8955
 30
0.0
 10
-1.4282
 20
-59.9124
 30
0.0
 10
-1.0254
 20
-60.3013
 30
0.0
 10
-0.4876
 20
-60.1809
 30
0.0
 10
-0.4876
 20
-60.1809
 30
0.0
 10
1.0941
 20
-55.2668
 30
0.0
 10
5.4495
 20
-50.7677
 30
0.0
 10
10.7298
 20
-50.7677
 30
0.0
 10
10.7298
 20
-50.7677
 30
0.0
 10
5.4495
 20
-50.7677
 30
0.0
 10
1.0941
 20
-46.2687
 30
0.0
 10
-0.4876
 20
-41.3546
 30
0.0
 10
-0.4876
 20
-41.3546
 30
0.0
 10
-1.0254
 20
-41.2342
 30
0.0
 10
-1.4282
 20
-41.6231
 30
0.0
 10
-1.5152
 20
-43.64
 30
0.0
 10
-1.5152
 20
-43.64
 30
0.0
 10
-1.6432
 20
-46.6074
 30
0.0
 10
-4.2023
 20
-46.8583
 30
0.0
 10
-5.2987
 20
-46.4435
 30
0.0
 10
-5.2987
 20
-46.4435
 30
0.0
 10
-5.0363
 20
-48.1423
 30
0.0
 10
-4.3239
 20
-49.5038
 30
0.0
 10
-2.6556
 20
-50.7678
 30
0.0
 10
-2.6556
 20
-50.7678
 30
0.0
 10
-4.3239
 20
-52.0318
 30
0.0
 10
-5.0363
 20
-53.3932
 30
0.0
 10
-5.2987
 20
-55.092
 30
0.0
  0
SPLINE
  5
61
330
1F
100
AcDbEntity
  8
layer 1
 62
     7
100
AcDbSpline
210
0.0
220
0.0
230
1.0
 70
    11
 71
     3
 72
    36
 73
    32
 74
     0
 42
0.0000000001
 43
0.0000000001
 12
1.0
 22
0.0
 32
0.0
 13
1.0
 23
0.0
 33
0.0
 40
0.0
 40
0.0
 40
0.0
 40
0.0
 40
0.1111111111111111
 40
0.1111111111111111
 40
0.1111111111111111
 40
0.1111111111111111
 40
0.2222222222222222
 40
0.2222222222222222
 40
0.2222222222222222
 40
0.2222222222222222
 40
0.3333333333333333
 40
0.3333333333333333
 40
0.3333333333333333
 40
0.3333333333333333
 40
0.4444444444444444
 40
0.4444444444444444
 40
0.4444444444444444
 40
0.4444444444444444
 40
0.5555555555555556
 40
0.5555555555555556
 40
0.5555555555555556
 40
0.5555555555555556
 40
0.6666666666666666
 40
0.6666666666666666
 40
0.6666666666666666
 40
0.6666666666666666
 40
0.7777777777777778
 40
0.7777777777777778
 40
0.7777777777777778
 40
0.7777777777777778
 40
1.0
 40
1.0
 40
1.0
 40
1.0
 10
14.8296
 20
-60.7355
 30
0.0
 10
15.0319
 20
-58.548
 30
0.0
 10
15.355
 20
-55.6895
 30
0.0
 10
17.7669
 20
-53.3966
 30
0.0
 10
17.7669
 20
-53.3966
 30
0.0
 10
21.5551
 20
-55.616
 30
0.0
 10
23.1507
 20
-57.5937
 30
0.0
 10
24.0546
 20
-59.9183
 30
0.0
 10
24.0546
 20
-59.9183
 30
0.0
 10
21.1778
 20
-61.1571
 30
0.0
 10
22.071
 20
-65.1169
 30
0.0
 10
24.3414
 20
-65.5366
 30
0.0
 10
24.3414
 20
-65.5366
 30
0.0
 10
23.5454
 20
-68.9249
 30
0.0
 10
21.7449
 20
-71.654
 30
0.0
 10
20.0008
 20
-73.0873
 30
0.0
 10
20.0008
 20
-73.0873
 30
0.0
 10
19.5698
 20
-72.0526
 30
0.0
 10
18.8303
 20
-71.2979
 30
0.0
 10
17.804
 20
-69.5524
 30
0.0
 10
17.804
 20
-69.5524
 30
0.0
 10
15.5089
 20
-65.6159
 30
0.0
 10
16.5579
 20
-61.9106
 30
0.0
 10
20.5868
 20
-63.0927
 30
0.0
 10
20.5868
 20
-63.0927
 30
0.0
 10
20.4377
 20
-61.2752
 30
0.0
 10
18.208
 20
-57.7255
 30
0.0
 10
14.8296
 20
-60.7354
 30
0.0
 10
14.8296
 20
-60.7354
 30
0.0
 10
14.8296
 20
-60.7354
 30
0.0
 10
14.8296
 20
-60.7355
 30
0.0
 10
14.8296
 20
-60.7355
 30
0.0
  0
SPLINE
  5
62
330
1F
100
AcDbEntity
  8
layer 1
 62
     7
100
AcDbSpline
210
0.0
220
0.0
230
1.0
 70
    11
 71
     3
 72
    52
 73
    48
 74
     0
 42
0.0000000001
 43
0.0000000001
 12
1.0
 22
0.0
 32
0.0
 13
1.0
 23
0.0
 33
0.0
 40
0.0
 40
0.0
 40
0.0
 40
0.0
 40
0.0769230769230769
 40
0.0769230769230769
 40
0.0769230769230769
 40
0.0769230769230769
 40
0.1538461538461539
 40
0.1538461538461539
 40
0.1538461538461539
 40
0.1538461538461539
 40
0.2307692307692308
 40
0.2307692307692308
 40
0.2307692307692308
 40
0.2307692307692308
 40
0.3076923076923077
 40
0.3076923076923077
 40
0.3076923076923077
 40
0.3076923076923077
 40
0.3846153846153846
 40
0.3846153846153846
 40
0.3846153846153846
 40
0.3846153846153846
 40
0.4615384615384616
 40
0.4615384615384616
 40
0.4615384615384616
 40
0.4615384615384616
 40
0.5384615384615384
 40
0.5384615384615384
 40
0.5384615384615384
 40
0.5384615384615384
 40
0.6153846153846154
 40
0.6153846153846154
 40
0.6153846153846154
 40
0.6153846153846154
 40
0.6923076923076923
 40
0.6923076923076923
 40
0.6923076923076923
 40
0.6923076923076923
 40
0.7692307692307693
 40
0.7692307692307693
 40
0.7692307692307693
 40
0.7692307692307693
 40
0.8461538461538461
 40
0.8461538461538461
 40
0.8461538461538461
 40
0.8461538461538461
 40
1.0
 40
1.0
 40
1.0
 40
1.0
 10
25.9792
 20
-59.2852
 30
0.0
 10
24.6327
 20
-55.1928
 30
0.0
 10
20.7363
 20
-52.3651
 30
0.0
 10
19.1234
 20
-51.822
 30
0.0
 10
19.1234
 20
-51.822
 30
0.0
 10
19.804
 20
-51.3569
 30
0.0
 10
20.1077
 20
-50.979
 30
0.0
 10
20.3416
 20
-50.7677
 30
0.0
 10
20.3416
 20
-50.7677
 30
0.0
 10
20.1077
 20
-50.5565
 30
0.0
 10
19.8039
 20
-50.1786
 30
0.0
 10
19.1234
 20
-49.7134
 30
0.0
 10
19.1234
 20
-49.7134
 30
0.0
 10
20.7364
 20
-49.1704
 30
0.0
 10
24.6328
 20
-46.3427
 30
0.0
 10
25.9792
 20
-42.2503
 30
0.0
 10
25.9792
 20
-42.2503
 30
0.0
 10
26.3348
 20
-42.2602
 30
0.0
 10
26.2336
 20
-42.2542
 30
0.0
 10
26.5005
 20
-42.2672
 30
0.0
 10
26.5005
 20
-42.2672
 30
0.0
 10
26.7674
 20
-42.254
 30
0.0
 10
26.6662
 20
-42.2604
 30
0.0
 10
27.0218
 20
-42.2503
 30
0.0
 10
27.0218
 20
-42.2503
 30
0.0
 10
28.3682
 20
-46.3427
 30
0.0
 10
32.2646
 20
-49.1704
 30
0.0
 10
33.8776
 20
-49.7134
 30
0.0
 10
33.8776
 20
-49.7134
 30
0.0
 10
33.197
 20
-50.1786
 30
0.0
 10
32.8933
 20
-50.5565
 30
0.0
 10
32.6594
 20
-50.7677
 30
0.0
 10
32.6594
 20
-50.7677
 30
0.0
 10
32.8933
 20
-50.979
 30
0.0
 10
33.197
 20
-51.3569
 30
0.0
 10
33.8776
 20
-51.822
 30
0.0
 10
33.8776
 20
-51.822
 30
0.0
 10
32.2646
 20
-52.3651
 30
0.0
 10
28.3682
 20
-55.1928
 30
0.0
 10
27.0218
 20
-59.2852
 30
0.0
 10
27.0218
 20
-59.2852
 30
0.0
 10
26.6662
 20
-59.2752
 30
0.0
 10
26.7674
 20
-59.2813
 30
0.0
 10
26.5005
 20
-59.2683
 30
0.0
 10
26.5005
 20
-59.2683
 30
0.0
 10
26.2336
 20
-59.2815
 30
0.0
 10
26.3348
 20
-59.2752
 30
0.0
 10
25.9792
 20
-59.2852
 30
0.0
  0
SPLINE
  5
63
330
1F
100
AcDbEntity
  8
layer 1
 62
     7
100
AcDbSpline
210
0.0
220
0.0
230
1.0
 70
    11
 71
     3
 72
    32
 73
    28
 74
     0
 42
0.0000000001
 43
0.0000000001
 12
1.0
 22
0.0
 32
0.0
 13
1.0
 23
0.0
 33
0.0
 40
0.0
 40
0.0
 40
0.0
 40
0.0
 40
0.125
 40
0.125
 40
0.125
 40
0.125
 40
0.25
 40
0.25
 40
0.25
 40
0.25
 40
0.375
 40
0.375
 40
0.375
 40
0.375
 40
0.5
 40
0.5
 40
0.5
 40
0.5
 40
0.625
 40
0.625
 40
0.625
 40
0.625
 40
0.75
 40
0.75
 40
0.75
 40
0.75
 40
1.0
 40
1.0
 40
1.0
 40
1.0
 10
-0.3866
 20
-20.4856
 30
0.0
 10
4.5764
 20
-22.4655
 30
0.0
 10
8.943
 20
-21.13
 30
0.0
 10
11.2521
 20
-19.9137
 30
0.0
 10
11.2521
 20
-19.9137
 30
0.0
 10
9.2405
 20
-18.2442
 30
0.0
 10
7.7598
 20
-11.4076
 30
0.0
 10
10.5715
 20
-7.2221
 30
0.0
 10
10.5715
 20
-7.2221
 30
0.0
 10
5.9845
 20
-8.384
 30
0.0
 10
2.8717
 20
-5.7061
 30
0.0
 10
1.8963
 20
-3.8785
 30
0.0
 10
1.8963
 20
-3.8785
 30
0.0
 10
1.0198
 20
-4.7924
 30
0.0
 10
0.0176
 20
-6.9004
 30
0.0
 10
0.8772
 20
-9.5085
 30
0.0
 10
0.8772
 20
-9.5085
 30
0.0
 10
2.2252
 20
-6.8441
 30
0.0
 10
5.4668
 20
-8.8181
 30
0.0
 10
5.7739
 20
-10.8826
 30
0.0
 10
5.7739
 20
-10.8826
 30
0.0
 10
6.5026
 20
-15.781
 30
0.0
 10
3.1583
 20
-19.4639
 30
0.0
 10
-0.3866
 20
-20.4856
 30
0.0
 10
-0.3866
 20
-20.4856
 30
0.0
 10
-0.3866
 20
-20.4856
 30
0.0
 10
-0.3866
 20
-20.4856
 30
0.0
 10
-0.3866
 20
-20.4856
 30
0.0
  0
SPLINE
  5
64
330
1F
100
AcDbEntity
  8
layer 1
 62
     7
100
AcDbSpline
210
0.0
220
0.0
230
1.0
 70
    11
 71
     3
 72
    16
 73
    12
 74
     0
 42
0.0000000001
 43
0.0000000001
 12
1.0
 22
0.0
 32
0.0
 13
1.0
 23
0.0
 33
0.0
 40
0.0
 40
0.0
 40
0.0
 40
0.0
 40
0.25
 40
0.25
 40
0.25
 40
0.25
 40
0.5
 40
0.5
 40
0.5
 40
0.5
 40
1.0
 40
1.0
 40
1.0
 40
1.0
 10
-11.3721
 20
-17.9861
 30
0.0
 10
-11.3721
 20
-16.9847
 30
0.0
 10
-9.7003
 20
-15.9118
 30
0.0
 10
-9.008
 20
-15.4334
 30
0.0
 10
-9.008
 20
-15.4334
 30
0.0
 10
-10.1217
 20
-14.0404
 30
0.0
 10
-11.0191
 20
-11.6693
 30
0.0
 10
-11.3721
 20
-10.0501
 30
0.0
 10
-11.3721
 20
-10.0501
 30
0.0
 10
-11.3721
 20
-12.2424
 30
0.0
 10
-11.3721
 20
-16.6657
 30
0.0
 10
-11.3721
 20
-17.9861
 30
0.0
  0
SPLINE
  5
65
330
1F
100
AcDbEntity
  8
layer 1
 62
     7
100
AcDbSpline
210
0.0
220
0.0
230
1.0
 70
    11
 71
     3
 72
    12
 73
     8
 74
     0
 42
0.0000000001
 43
0.0000000001
 12
1.0
 22
0.0
 32
0.0
 13
1.0
 23
0.0
 33
0.0
 40
0.0
 40
0.0
 40
0.0
 40
0.0
 40
0.3333333333333333
 40
0.3333333333333333
 40
0.3333333333333333
 40
0.3333333333333333
 40
1.0
 40
1.0
 40
1.0
 40
1.0
 10
4.0656
 20
-2.8287
 30
0.0
 10
6.6105
 20
-4.9705
 30
0.0
 10
10.346
 20
-5.0718
 30
0.0
 10
13.0397
 20
-3.7711
 30
0.0
 10
13.0397
 20
-3.7711
 30
0.0
 10
11.5894
 20
-2.1555
 30
0.0
 10
7.7359
 20
-0.6971
 30
0.0
 10
4.0656
 20
-2.8287
 30
0.0
  0
SPLINE
  5
66
330
1F
100
AcDbEntity
  8
layer 1
 62
     7
100
AcDbSpline
210
0.0
220
0.0
230
1.0
 70
    11
 71
     3
 72
    24
 73
    20
 74
     0
 42
0.0000000001
 43
0.0000000001
 12
1.0
 22
0.0
 32
0.0
 13
1.0
 23
0.0
 33
0.0
 40
0.0
 40
0.0
 40
0.0
 40
0.0
 40
0.1666666666666667
 40
0.1666666666666667
 40
0.1666666666666667
 40
0.1666666666666667
 40
0.3333333333333333
 40
0.3333333333333333
 40
0.3333333333333333
 40
0.3333333333333333
 40
0.5
 40
0.5
 40
0.5
 40
0.5
 40
0.6666666666666666
 40
0.6666666666666666
 40
0.6666666666666666
 40
0.6666666666666666
 40
1.0
 40
1.0
 40
1.0
 40
1.0
 10
22.1367
 20
0.8886
 30
0.0
 10
20.6868
 20
-0.1614
 30
0.0
 10
18.7643
 20
-2.6998
 30
0.0
 10
17.4239
 20
-4.4834
 30
0.0
 10
17.4239
 20
-4.4834
 30
0.0
 10
18.4621
 20
-5.7939
 30
0.0
 10
18.9954
 20
-7.2132
 30
0.0
 10
19.4267
 20
-8.4721
 30
0.0
 10
19.4267
 20
-8.4721
 30
0.0
 10
20.469
 20
-4.9968
 30
0.0
 10
23.5488
 20
-3.7472
 30
0.0
 10
25.4393
 20
-5.4039
 30
0.0
 10
25.4393
 20
-5.4039
 30
0.0
 10
25.1707
 20
-3.5548
 30
0.0
 10
23.507
 20
-0.2241
 30
0.0
 10
22.1367
 20
0.8885
 30
0.0
 10
22.1367
 20
0.8885
 30
0.0
 10
22.1367
 20
0.8885
 30
0.0
 10
22.1367
 20
0.8886
 30
0.0
 10
22.1367
 20
0.8886
 30
0.0
  0
SPLINE
  5
67
330
1F
100
AcDbEntity
  8
layer 1
 62
     7
100
AcDbSpline
210
0.0
220
0.0
230
1.0
 70
    11
 71
     3
 72
    32
 73
    28
 74
     0
 42
0.0000000001
 43
0.0000000001
 12
1.0
 22
0.0
 32
0.0
 13
1.0
 23
0.0
 33
0.0
 40
0.0
 40
0.0
 40
0.0
 40
0.0
 40
0.125
 40
0.125
 40
0.125
 40
0.125
 40
0.25
 40
0.25
 40
0.25
 40
0.25
 40
0.375
 40
0.375
 40
0.375
 40
0.375
 40
0.5
 40
0.5
 40
0.5
 40
0.5
 40
0.625
 40
0.625
 40
0.625
 40
0.625
 40
0.75
 40
0.75
 40
0.75
 40
0.75
 40
1.0
 40
1.0
 40
1.0
 40
1.0
 10
2.7389
 20
-41.8122
 30
0.0
 10
3.841
 20
-45.6307
 30
0.0
 10
7.9319
 20
-49.3889
 30
0.0
 10
14.5614
 20
-48.87
 30
0.0
 10
14.5614
 20
-48.87
 30
0.0
 10
10.0679
 20
-44.259
 30
0.0
 10
10.7014
 20
-36.9628
 30
0.0
 10
13.4212
 20
-31.7661
 30
0.0
 10
13.4212
 20
-31.7661
 30
0.0
 10
8.3745
 20
-33.6633
 30
0.0
 10
4.7101
 20
-33.0998
 30
0.0
 10
0.3336
 20
-32.0995
 30
0.0
 10
0.3336
 20
-32.0995
 30
0.0
 10
1.2036
 20
-33.7488
 30
0.0
 10
1.6723
 20
-34.5698
 30
0.0
 10
1.4288
 20
-37.27
 30
0.0
 10
1.4288
 20
-37.27
 30
0.0
 10
3.1445
 20
-33.6863
 30
0.0
 10
7.3973
 20
-33.4541
 30
0.0
 10
8.4398
 20
-35.5185
 30
0.0
 10
8.4398
 20
-35.5185
 30
0.0
 10
4.9728
 20
-35.9864
 30
0.0
 10
9.0416
 20
-42.6291
 30
0.0
 10
2.7389
 20
-41.8123
 30
0.0
 10
2.7389
 20
-41.8123
 30
0.0
 10
2.7389
 20
-41.8123
 30
0.0
 10
2.7389
 20
-41.8122
 30
0.0
 10
2.7389
 20
-41.8122
 30
0.0
  0
SPLINE
  5
68
330
1F
100
AcDbEntity
  8
layer 1
 62
     7
100
AcDbSpline
210
0.0
220
0.0
230
1.0
 70
    11
 71
     3
 72
    36
 73
    32
 74
     0
 42
0.0000000001
 43
0.0000000001
 12
1.0
 22
0.0
 32
0.0
 13
1.0
 23
0.0
 33
0.0
 40
0.0
 40
0.0
 40
0.0
 40
0.0
 40
0.1111111111111111
 40
0.1111111111111111
 40
0.1111111111111111
 40
0.1111111111111111
 40
0.2222222222222222
 40
0.2222222222222222
 40
0.2222222222222222
 40
0.2222222222222222
 40
0.3333333333333333
 40
0.3333333333333333
 40
0.3333333333333333
 40
0.3333333333333333
 40
0.4444444444444444
 40
0.4444444444444444
 40
0.4444444444444444
 40
0.4444444444444444
 40
0.5555555555555556
 40
0.5555555555555556
 40
0.5555555555555556
 40
0.5555555555555556
 40
0.6666666666666666
 40
0.6666666666666666
 40
0.6666666666666666
 40
0.6666666666666666
 40
0.7777777777777778
 40
0.7777777777777778
 40
0.7777777777777778
 40
0.7777777777777778
 40
1.0
 40
1.0
 40
1.0
 40
1.0
 10
-6.2053
 20
-41.7203
 30
0.0
 10
-6.6712
 20
-39.8126
 30
0.0
 10
-6.0946
 20
-36.9387
 30
0.0
 10
-11.3722
 20
-37.9309
 30
0.0
 10
-11.3722
 20
-37.9309
 30
0.0
 10
-11.3722
 20
-37.9309
 30
0.0
 10
-11.3722
 20
-22.2058
 30
0.0
 10
-11.3722
 20
-22.2058
 30
0.0
 10
-11.3722
 20
-22.2058
 30
0.0
 10
-9.109
 20
-26.0913
 30
0.0
 10
-7.7816
 20
-27.1903
 30
0.0
 10
-3.5243
 20
-30.4448
 30
0.0
 10
-3.5243
 20
-30.4448
 30
0.0
 10
-7.8539
 20
-30.1058
 30
0.0
 10
-9.8522
 20
-32.6915
 30
0.0
 10
-8.2965
 20
-35.4314
 30
0.0
 10
-8.2965
 20
-35.4314
 30
0.0
 10
-7.8382
 20
-34.192
 30
0.0
 10
-5.4709
 20
-33.6133
 30
0.0
 10
-3.8133
 20
-34.7675
 30
0.0
 10
-3.8133
 20
-34.7675
 30
0.0
 10
-2.5014
 20
-35.6809
 30
0.0
 10
-2.3615
 20
-37.6859
 30
0.0
 10
-0.9672
 20
-39.2874
 30
0.0
 10
-0.9672
 20
-39.2874
 30
0.0
 10
-3.9023
 20
-39.0395
 30
0.0
 10
-5.0323
 20
-39.4354
 30
0.0
 10
-6.2054
 20
-41.7203
 30
0.0
 10
-6.2054
 20
-41.7203
 30
0.0
 10
-6.2054
 20
-41.7203
 30
0.0
 10
-6.2053
 20
-41.7203
 30
0.0
 10
-6.2053
 20
-41.7203
 30
0.0
  0
SPLINE
  5
69
330
1F
100
AcDbEntity
  8
layer 1
 62
     7
100
AcDbSpline
210
0.0
220
0.0
230
1.0
 70
    11
 71
     3
 72
    24
 73
    20
 74
     0
 42
0.0000000001
 43
0.0000000001
 12
1.0
 22
0.0
 32
0.0
 13
1.0
 23
0.0
 33
0.0
 40
0.0
 40
0.0
 40
0.0
 40
0.0
 40
0.1666666666666667
 40
0.1666666666666667
 40
0.1666666666666667
 40
0.1666666666666667
 40
0.3333333333333333
 40
0.3333333333333333
 40
0.3333333333333333
 40
0.3333333333333333
 40
0.5
 40
0.5
 40
0.5
 40
0.5
 40
0.6666666666666666
 40
0.6666666666666666
 40
0.6666666666666666
 40
0.6666666666666666
 40
1.0
 40
1.0
 40
1.0
 40
1.0
 10
-11.3721
 20
-39.8639
 30
0.0
 10
-10.5149
 20
-39.8129
 30
0.0
 10
-9.6935
 20
-39.6746
 30
0.0
 10
-9.3166
 20
-42.4793
 30
0.0
 10
-9.3166
 20
-42.4793
 30
0.0
 10
-9.0845
 20
-47.4496
 30
0.0
 10
-6.8099
 20
-49.7926
 30
0.0
 10
-6.0847
 20
-50.7677
 30
0.0
 10
-6.0847
 20
-50.7677
 30
0.0
 10
-6.8099
 20
-51.7428
 30
0.0
 10
-9.0845
 20
-54.0859
 30
0.0
 10
-9.3166
 20
-59.0562
 30
0.0
 10
-9.3166
 20
-59.0562
 30
0.0
 10
-9.6935
 20
-61.8608
 30
0.0
 10
-10.5149
 20
-61.7226
 30
0.0
 10
-11.3721
 20
-61.6716
 30
0.0
 10
-11.3721
 20
-61.6716
 30
0.0
 10
-11.3721
 20
-61.6716
 30
0.0
 10
-11.3721
 20
-39.8639
 30
0.0
 10
-11.3721
 20
-39.8639
 30
0.0
  0
SPLINE
  5
6A
330
1F
100
AcDbEntity
  8
layer 1
 62
     7
100
AcDbSpline
210
0.0
220
0.0
230
1.0
 70
    11
 71
     3
 72
    36
 73
    32
 74
     0
 42
0.0000000001
 43
0.0000000001
 12
1.0
 22
0.0
 32
0.0
 13
1.0
 23
0.0
 33
0.0
 40
0.0
 40
0.0
 40
0.0
 40
0.0
 40
0.1111111111111111
 40
0.1111111111111111
 40
0.1111111111111111
 40
0.1111111111111111
 40
0.2222222222222222
 40
0.2222222222222222
 40
0.2222222222222222
 40
0.2222222222222222
 40
0.3333333333333333
 40
0.3333333333333333
 40
0.3333333333333333
 40
0.3333333333333333
 40
0.4444444444444444
 40
0.4444444444444444
 40
0.4444444444444444
 40
0.4444444444444444
 40
0.5555555555555556
 40
0.5555555555555556
 40
0.5555555555555556
 40
0.5555555555555556
 40
0.6666666666666666
 40
0.6666666666666666
 40
0.6666666666666666
 40
0.6666666666666666
 40
0.7777777777777778
 40
0.7777777777777778
 40
0.7777777777777778
 40
0.7777777777777778
 40
1.0
 40
1.0
 40
1.0
 40
1.0
 10
14.8296
 20
-40.8
 30
0.0
 10
15.0319
 20
-42.9875
 30
0.0
 10
15.355
 20
-45.846
 30
0.0
 10
17.7669
 20
-48.139
 30
0.0
 10
17.7669
 20
-48.139
 30
0.0
 10
21.5551
 20
-45.9196
 30
0.0
 10
23.1507
 20
-43.9418
 30
0.0
 10
24.0546
 20
-41.6173
 30
0.0
 10
24.0546
 20
-41.6173
 30
0.0
 10
21.1778
 20
-40.3783
 30
0.0
 10
22.071
 20
-36.4186
 30
0.0
 10
24.3414
 20
-35.9989
 30
0.0
 10
24.3414
 20
-35.9989
 30
0.0
 10
23.5454
 20
-32.6106
 30
0.0
 10
21.7449
 20
-29.8815
 30
0.0
 10
20.0008
 20
-28.4481
 30
0.0
 10
20.0008
 20
-28.4481
 30
0.0
 10
19.5698
 20
-29.4829
 30
0.0
 10
18.8303
 20
-30.2376
 30
0.0
 10
17.804
 20
-31.9831
 30
0.0
 10
17.804
 20
-31.9831
 30
0.0
 10
15.5089
 20
-35.9196
 30
0.0
 10
16.5579
 20
-39.6249
 30
0.0
 10
20.5868
 20
-38.4428
 30
0.0
 10
20.5868
 20
-38.4428
 30
0.0
 10
20.4377
 20
-40.2603
 30
0.0
 10
18.208
 20
-43.81
 30
0.0
 10
14.8296
 20
-40.8001
 30
0.0
 10
14.8296
 20
-40.8001
 30
0.0
 10
14.8296
 20
-40.8001
 30
0.0
 10
14.8296
 20
-40.8
 30
0.0
 10
14.8296
 20
-40.8
 30
0.0
  0
SPLINE
  5
6B
330
1F
100
AcDbEntity
  8
layer 1
 62
     7
100
AcDbSpline
210
0.0
220
0.0
230
1.0
 70
    11
 71
     3
 72
    28
 73
    24
 74
     0
 42
0.0000000001
 43
0.0000000001
 12
1.0
 22
0.0
 32
0.0
 13
1.0
 23
0.0
 33
0.0
 40
0.0
 40
0.0
 40
0.0
 40
0.0
 40
0.1428571428571428
 40
0.1428571428571428
 40
0.1428571428571428
 40
0.1428571428571428
 40
0.2857142857142857
 40
0.2857142857142857
 40
0.2857142857142857
 40
0.2857142857142857
 40
0.4285714285714285
 40
0.4285714285714285
 40
0.4285714285714285
 40
0.4285714285714285
 40
0.5714285714285714
 40
0.5714285714285714
 40
0.5714285714285714
 40
0.5714285714285714
 40
0.7142857142857143
 40
0.7142857142857143
 40
0.7142857142857143
 40
0.7142857142857143
 40
1.0
 40
1.0
 40
1.0
 40
1.0
 10
24.398
 20
36.0292
 30
0.0
 10
23.3953
 20
37.3921
 30
0.0
 10
22.4103
 20
39.6866
 30
0.0
 10
21.2163
 20
41.0491
 30
0.0
 10
21.2163
 20
41.0491
 30
0.0
 10
23.1282
 20
42.8846
 30
0.0
 10
25.4813
 20
46.7738
 30
0.0
 10
26.5005
 20
50.2257
 30
0.0
 10
26.5005
 20
50.2257
 30
0.0
 10
27.5197
 20
46.7738
 30
0.0
 10
29.8728
 20
42.8845
 30
0.0
 10
31.7847
 20
41.0491
 30
0.0
 10
31.7847
 20
41.0491
 30
0.0
 10
30.5907
 20
39.6866
 30
0.0
 10
29.6058
 20
37.3921
 30
0.0
 10
28.603
 20
36.0292
 30
0.0
 10
28.603
 20
36.0292
 30
0.0
 10
27.8078
 20
37.4411
 30
0.0
 10
27.6113
 20
37.8817
 30
0.0
 10
26.5005
 20
39.3617
 30
0.0
 10
26.5005
 20
39.3617
 30
0.0
 10
25.3896
 20
37.8817
 30
0.0
 10
25.1932
 20
37.4411
 30
0.0
 10
24.398
 20
36.0292
 30
0.0
  0
SPLINE
  5
6C
330
1F
100
AcDbEntity
  8
layer 1
 62
     7
100
AcDbSpline
210
0.0
220
0.0
230
1.0
 70
    11
 71
     3
 72
    36
 73
    32
 74
     0
 42
0.0000000001
 43
0.0000000001
 12
1.0
 22
0.0
 32
0.0
 13
1.0
 23
0.0
 33
0.0
 40
0.0
 40
0.0
 40
0.0
 40
0.0
 40
0.1111111111111111
 40
0.1111111111111111
 40
0.1111111111111111
 40
0.1111111111111111
 40
0.2222222222222222
 40
0.2222222222222222
 40
0.2222222222222222
 40
0.2222222222222222
 40
0.3333333333333333
 40
0.3333333333333333
 40
0.3333333333333333
 40
0.3333333333333333
 40
0.4444444444444444
 40
0.4444444444444444
 40
0.4444444444444444
 40
0.4444444444444444
 40
0.5555555555555556
 40
0.5555555555555556
 40
0.5555555555555556
 40
0.5555555555555556
 40
0.6666666666666666
 40
0.6666666666666666
 40
0.6666666666666666
 40
0.6666666666666666
 40
0.7777777777777778
 40
0.7777777777777778
 40
0.7777777777777778
 40
0.7777777777777778
 40
1.0
 40
1.0
 40
1.0
 40
1.0
 10
-6.2053
 20
57.4764
 30
0.0
 10
-6.6712
 20
55.5687
 30
0.0
 10
-6.0946
 20
52.6948
 30
0.0
 10
-11.3722
 20
53.687
 30
0.0
 10
-11.3722
 20
53.687
 30
0.0
 10
-11.3722
 20
53.687
 30
0.0
 10
-11.3722
 20
37.9619
 30
0.0
 10
-11.3722
 20
37.9619
 30
0.0
 10
-11.3722
 20
37.9619
 30
0.0
 10
-9.109
 20
41.8474
 30
0.0
 10
-7.7816
 20
42.9464
 30
0.0
 10
-3.5243
 20
46.2009
 30
0.0
 10
-3.5243
 20
46.2009
 30
0.0
 10
-7.8539
 20
45.8619
 30
0.0
 10
-9.8522
 20
48.4476
 30
0.0
 10
-8.2965
 20
51.1875
 30
0.0
 10
-8.2965
 20
51.1875
 30
0.0
 10
-7.8382
 20
49.9481
 30
0.0
 10
-5.4709
 20
49.3694
 30
0.0
 10
-3.8133
 20
50.5235
 30
0.0
 10
-3.8133
 20
50.5235
 30
0.0
 10
-2.5014
 20
51.4369
 30
0.0
 10
-2.3615
 20
53.442
 30
0.0
 10
-0.9672
 20
55.0435
 30
0.0
 10
-0.9672
 20
55.0435
 30
0.0
 10
-3.9023
 20
54.7956
 30
0.0
 10
-5.0323
 20
55.1915
 30
0.0
 10
-6.2054
 20
57.4764
 30
0.0
 10
-6.2054
 20
57.4764
 30
0.0
 10
-6.2054
 20
57.4764
 30
0.0
 10
-6.2053
 20
57.4764
 30
0.0
 10
-6.2053
 20
57.4764
 30
0.0
  0
SPLINE
  5
6D
330
1F
100
AcDbEntity
  8
layer 1
 62
     7
100
AcDbSpline
210
0.0
220
0.0
230
1.0
 70
    11
 71
     3
 72
    32
 73
    28
 74
     0
 42
0.0000000001
 43
0.0000000001
 12
1.0
 22
0.0
 32
0.0
 13
1.0
 23
0.0
 33
0.0
 40
0.0
 40
0.0
 40
0.0
 40
0.0
 40
0.125
 40
0.125
 40
0.125
 40
0.125
 40
0.25
 40
0.25
 40
0.25
 40
0.25
 40
0.375
 40
0.375
 40
0.375
 40
0.375
 40
0.5
 40
0.5
 40
0.5
 40
0.5
 40
0.625
 40
0.625
 40
0.625
 40
0.625
 40
0.75
 40
0.75
 40
0.75
 40
0.75
 40
1.0
 40
1.0
 40
1.0
 40
1.0
 10
-0.3866
 20
35.1941
 30
0.0
 10
4.5764
 20
37.1741
 30
0.0
 10
8.943
 20
35.8386
 30
0.0
 10
11.2521
 20
34.6221
 30
0.0
 10
11.2521
 20
34.6221
 30
0.0
 10
9.2405
 20
32.9527
 30
0.0
 10
7.7598
 20
26.1161
 30
0.0
 10
10.5715
 20
21.9306
 30
0.0
 10
10.5715
 20
21.9306
 30
0.0
 10
5.9845
 20
23.0925
 30
0.0
 10
2.8717
 20
20.4146
 30
0.0
 10
1.8963
 20
18.587
 30
0.0
 10
1.8963
 20
18.587
 30
0.0
 10
1.0198
 20
19.5009
 30
0.0
 10
0.0176
 20
21.6088
 30
0.0
 10
0.8772
 20
24.217
 30
0.0
 10
0.8772
 20
24.217
 30
0.0
 10
2.2252
 20
21.5526
 30
0.0
 10
5.4668
 20
23.5266
 30
0.0
 10
5.7739
 20
25.591
 30
0.0
 10
5.7739
 20
25.591
 30
0.0
 10
6.5026
 20
30.4894
 30
0.0
 10
3.1583
 20
34.1724
 30
0.0
 10
-0.3866
 20
35.1941
 30
0.0
 10
-0.3866
 20
35.1941
 30
0.0
 10
-0.3866
 20
35.1941
 30
0.0
 10
-0.3866
 20
35.1941
 30
0.0
 10
-0.3866
 20
35.1941
 30
0.0
  0
SPLINE
  5
6E
330
1F
100
AcDbEntity
  8
layer 1
 62
     7
100
AcDbSpline
210
0.0
220
0.0
230
1.0
 70
    11
 71
     3
 72
    16
 73
    12
 74
     0
 42
0.0000000001
 43
0.0000000001
 12
1.0
 22
0.0
 32
0.0
 13
1.0
 23
0.0
 33
0.0
 40
0.0
 40
0.0
 40
0.0
 40
0.0
 40
0.25
 40
0.25
 40
0.25
 40
0.25
 40
0.5
 40
0.5
 40
0.5
 40
0.5
 40
1.0
 40
1.0
 40
1.0
 40
1.0
 10
-11.3721
 20
32.6947
 30
0.0
 10
-11.3721
 20
31.6932
 30
0.0
 10
-9.7003
 20
30.6203
 30
0.0
 10
-9.008
 20
30.142
 30
0.0
 10
-9.008
 20
30.142
 30
0.0
 10
-10.1217
 20
28.749
 30
0.0
 10
-11.0191
 20
26.3779
 30
0.0
 10
-11.3721
 20
24.7587
 30
0.0
 10
-11.3721
 20
24.7587
 30
0.0
 10
-11.3721
 20
26.951
 30
0.0
 10
-11.3721
 20
31.3742
 30
0.0
 10
-11.3721
 20
32.6947
 30
0.0
  0
SPLINE
  5
6F
330
1F
100
AcDbEntity
  8
layer 1
 62
     7
100
AcDbSpline
210
0.0
220
0.0
230
1.0
 70
    11
 71
     3
 72
    24
 73
    20
 74
     0
 42
0.0000000001
 43
0.0000000001
 12
1.0
 22
0.0
 32
0.0
 13
1.0
 23
0.0
 33
0.0
 40
0.0
 40
0.0
 40
0.0
 40
0.0
 40
0.1666666666666667
 40
0.1666666666666667
 40
0.1666666666666667
 40
0.1666666666666667
 40
0.3333333333333333
 40
0.3333333333333333
 40
0.3333333333333333
 40
0.3333333333333333
 40
0.5
 40
0.5
 40
0.5
 40
0.5
 40
0.6666666666666666
 40
0.6666666666666666
 40
0.6666666666666666
 40
0.6666666666666666
 40
1.0
 40
1.0
 40
1.0
 40
1.0
 10
22.1367
 20
13.8199
 30
0.0
 10
20.6868
 20
14.8699
 30
0.0
 10
18.7643
 20
17.4083
 30
0.0
 10
17.4239
 20
19.1919
 30
0.0
 10
17.4239
 20
19.1919
 30
0.0
 10
18.4621
 20
20.5024
 30
0.0
 10
18.9954
 20
21.9217
 30
0.0
 10
19.4267
 20
23.1806
 30
0.0
 10
19.4267
 20
23.1806
 30
0.0
 10
20.469
 20
19.7053
 30
0.0
 10
23.5488
 20
18.4557
 30
0.0
 10
25.4393
 20
20.1124
 30
0.0
 10
25.4393
 20
20.1124
 30
0.0
 10
25.1707
 20
18.2633
 30
0.0
 10
23.507
 20
14.9326
 30
0.0
 10
22.1367
 20
13.82
 30
0.0
 10
22.1367
 20
13.82
 30
0.0
 10
22.1367
 20
13.82
 30
0.0
 10
22.1367
 20
13.8199
 30
0.0
 10
22.1367
 20
13.8199
 30
0.0
  0
SPLINE
  5
70
330
1F
100
AcDbEntity
  8
layer 1
 62
     7
100
AcDbSpline
210
0.0
220
0.0
230
1.0
 70
    11
 71
     3
 72
    20
 73
    16
 74
     0
 42
0.0000000001
 43
0.0000000001
 12
1.0
 22
0.0
 32
0.0
 13
1.0
 23
0.0
 33
0.0
 40
0.0
 40
0.0
 40
0.0
 40
0.0
 40
0.2
 40
0.2
 40
0.2
 40
0.2
 40
0.4
 40
0.4
 40
0.4
 40
0.4
 40
0.6
 40
0.6
 40
0.6
 40
0.6
 40
1.0
 40
1.0
 40
1.0
 40
1.0
 10
23.7531
 20
26.2127
 30
0.0
 10
24.7559
 20
25.4221
 30
0.0
 10
25.8172
 20
23.9518
 30
0.0
 10
26.5005
 20
21.3261
 30
0.0
 10
26.5005
 20
21.3261
 30
0.0
 10
27.1838
 20
23.9518
 30
0.0
 10
28.2451
 20
25.4221
 30
0.0
 10
29.2479
 20
26.2127
 30
0.0
 10
29.2479
 20
26.2127
 30
0.0
 10
30.024
 20
28.9201
 30
0.0
 10
28.6587
 20
30.7359
 30
0.0
 10
26.5005
 20
30.5742
 30
0.0
 10
26.5005
 20
30.5742
 30
0.0
 10
24.3422
 20
30.7359
 30
0.0
 10
22.977
 20
28.9201
 30
0.0
 10
23.7531
 20
26.2127
 30
0.0
  0
SPLINE
  5
71
330
1F
100
AcDbEntity
  8
layer 1
 62
     7
100
AcDbSpline
210
0.0
220
0.0
230
1.0
 70
    11
 71
     3
 72
    24
 73
    20
 74
     0
 42
0.0000000001
 43
0.0000000001
 12
1.0
 22
0.0
 32
0.0
 13
1.0
 23
0.0
 33
0.0
 40
0.0
 40
0.0
 40
0.0
 40
0.0
 40
0.1666666666666667
 40
0.1666666666666667
 40
0.1666666666666667
 40
0.1666666666666667
 40
0.3333333333333333
 40
0.3333333333333333
 40
0.3333333333333333
 40
0.3333333333333333
 40
0.5
 40
0.5
 40
0.5
 40
0.5
 40
0.6666666666666666
 40
0.6666666666666666
 40
0.6666666666666666
 40
0.6666666666666666
 40
1.0
 40
1.0
 40
1.0
 40
1.0
 10
22.5201
 20
4.1243
 30
0.0
 10
21.4386
 20
5.227
 30
0.0
 10
20.5557
 20
6.1782
 30
0.0
 10
18.7417
 20
7.488
 30
0.0
 10
18.7417
 20
7.488
 30
0.0
 10
20.3206
 20
8.5892
 30
0.0
 10
21.2934
 20
9.4578
 30
0.0
 10
22.5213
 20
10.7106
 30
0.0
 10
22.5213
 20
10.7106
 30
0.0
 10
23.6091
 20
9.5283
 30
0.0
 10
24.2191
 20
8.8839
 30
0.0
 10
25.4841
 20
7.3518
 30
0.0
 10
25.4841
 20
7.3518
 30
0.0
 10
24.333
 20
6.0426
 30
0.0
 10
23.8904
 20
5.4338
 30
0.0
 10
22.5201
 20
4.1243
 30
0.0
 10
22.5201
 20
4.1243
 30
0.0
 10
22.5201
 20
4.1243
 30
0.0
 10
22.5201
 20
4.1243
 30
0.0
 10
22.5201
 20
4.1243
 30
0.0
  0
SPLINE
  5
72
330
1F
100
AcDbEntity
  8
layer 1
 62
     7
100
AcDbSpline
210
0.0
220
0.0
230
1.0
 70
    11
 71
     3
 72
    32
 73
    28
 74
     0
 42
0.0000000001
 43
0.0000000001
 12
1.0
 22
0.0
 32
0.0
 13
1.0
 23
0.0
 33
0.0
 40
0.0
 40
0.0
 40
0.0
 40
0.0
 40
0.125
 40
0.125
 40
0.125
 40
0.125
 40
0.25
 40
0.25
 40
0.25
 40
0.25
 40
0.375
 40
0.375
 40
0.375
 40
0.375
 40
0.5
 40
0.5
 40
0.5
 40
0.5
 40
0.625
 40
0.625
 40
0.625
 40
0.625
 40
0.75
 40
0.75
 40
0.75
 40
0.75
 40
1.0
 40
1.0
 40
1.0
 40
1.0
 10
2.7389
 20
56.5208
 30
0.0
 10
3.841
 20
60.3392
 30
0.0
 10
7.9319
 20
64.0974
 30
0.0
 10
14.5614
 20
63.5786
 30
0.0
 10
14.5614
 20
63.5786
 30
0.0
 10
10.0679
 20
58.9675
 30
0.0
 10
10.7014
 20
51.6713
 30
0.0
 10
13.4212
 20
46.4746
 30
0.0
 10
13.4212
 20
46.4746
 30
0.0
 10
8.3745
 20
48.3718
 30
0.0
 10
4.7101
 20
47.8083
 30
0.0
 10
0.3336
 20
46.808
 30
0.0
 10
0.3336
 20
46.808
 30
0.0
 10
1.2036
 20
48.4573
 30
0.0
 10
1.6723
 20
49.2783
 30
0.0
 10
1.4288
 20
51.9784
 30
0.0
 10
1.4288
 20
51.9784
 30
0.0
 10
3.1445
 20
48.3947
 30
0.0
 10
7.3973
 20
48.1626
 30
0.0
 10
8.4398
 20
50.227
 30
0.0
 10
8.4398
 20
50.227
 30
0.0
 10
4.9728
 20
50.6948
 30
0.0
 10
9.0416
 20
57.3375
 30
0.0
 10
2.7389
 20
56.5208
 30
0.0
 10
2.7389
 20
56.5208
 30
0.0
 10
2.7389
 20
56.5208
 30
0.0
 10
2.7389
 20
56.5208
 30
0.0
 10
2.7389
 20
56.5208
 30
0.0
  0
SPLINE
  5
73
330
1F
100
AcDbEntity
  8
layer 1
 62
     7
100
AcDbSpline
210
0.0
220
0.0
230
1.0
 70
    11
 71
     3
 72
    36
 73
    32
 74
     0
 42
0.0000000001
 43
0.0000000001
 12
1.0
 22
0.0
 32
0.0
 13
1.0
 23
0.0
 33
0.0
 40
0.0
 40
0.0
 40
0.0
 40
0.0
 40
0.1111111111111111
 40
0.1111111111111111
 40
0.1111111111111111
 40
0.1111111111111111
 40
0.2222222222222222
 40
0.2222222222222222
 40
0.2222222222222222
 40
0.2222222222222222
 40
0.3333333333333333
 40
0.3333333333333333
 40
0.3333333333333333
 40
0.3333333333333333
 40
0.4444444444444444
 40
0.4444444444444444
 40
0.4444444444444444
 40
0.4444444444444444
 40
0.5555555555555556
 40
0.5555555555555556
 40
0.5555555555555556
 40
0.5555555555555556
 40
0.6666666666666666
 40
0.6666666666666666
 40
0.6666666666666666
 40
0.6666666666666666
 40
0.7777777777777778
 40
0.7777777777777778
 40
0.7777777777777778
 40
0.7777777777777778
 40
1.0
 40
1.0
 40
1.0
 40
1.0
 10
-5.2987
 20
61.152
 30
0.0
 10
-4.2023
 20
61.5668
 30
0.0
 10
-1.6432
 20
61.3159
 30
0.0
 10
-1.5152
 20
58.3485
 30
0.0
 10
-1.5152
 20
58.3485
 30
0.0
 10
-1.4282
 20
56.3316
 30
0.0
 10
-1.0254
 20
55.9428
 30
0.0
 10
-0.4876
 20
56.0631
 30
0.0
 10
-0.4876
 20
56.0631
 30
0.0
 10
1.0941
 20
60.9772
 30
0.0
 10
5.4495
 20
65.4763
 30
0.0
 10
10.7298
 20
65.4763
 30
0.0
 10
10.7298
 20
65.4763
 30
0.0
 10
5.4495
 20
65.4763
 30
0.0
 10
1.0941
 20
69.9753
 30
0.0
 10
-0.4876
 20
74.8894
 30
0.0
 10
-0.4876
 20
74.8894
 30
0.0
 10
-1.0254
 20
75.0098
 30
0.0
 10
-1.4282
 20
74.6209
 30
0.0
 10
-1.5152
 20
72.604
 30
0.0
 10
-1.5152
 20
72.604
 30
0.0
 10
-1.6432
 20
69.6366
 30
0.0
 10
-4.2023
 20
69.3857
 30
0.0
 10
-5.2987
 20
69.8005
 30
0.0
 10
-5.2987
 20
69.8005
 30
0.0
 10
-5.0363
 20
68.1017
 30
0.0
 10
-4.3239
 20
66.7402
 30
0.0
 10
-2.6556
 20
65.4763
 30
0.0
 10
-2.6556
 20
65.4763
 30
0.0
 10
-4.3239
 20
64.2123
 30
0.0
 10
-5.0363
 20
62.8509
 30
0.0
 10
-5.2987
 20
61.152
 30
0.0
  0
SPLINE
  5
74
330
1F
100
AcDbEntity
  8
layer 1
 62
     7
100
AcDbSpline
210
0.0
220
0.0
230
1.0
 70
    11
 71
     3
 72
    32
 73
    28
 74
     0
 42
0.0000000001
 43
0.0000000001
 12
1.0
 22
0.0
 32
0.0
 13
1.0
 23
0.0
 33
0.0
 40
0.0
 40
0.0
 40
0.0
 40
0.0
 40
0.125
 40
0.125
 40
0.125
 40
0.125
 40
0.25
 40
0.25
 40
0.25
 40
0.25
 40
0.375
 40
0.375
 40
0.375
 40
0.375
 40
0.5
 40
0.5
 40
0.5
 40
0.5
 40
0.625
 40
0.625
 40
0.625
 40
0.625
 40
0.75
 40
0.75
 40
0.75
 40
0.75
 40
1.0
 40
1.0
 40
1.0
 40
1.0
 10
14.8296
 20
55.5085
 30
0.0
 10
15.0319
 20
57.6961
 30
0.0
 10
15.355
 20
60.5546
 30
0.0
 10
17.7669
 20
62.8475
 30
0.0
 10
17.7669
 20
62.8475
 30
0.0
 10
21.5551
 20
60.6281
 30
0.0
 10
23.1507
 20
58.6503
 30
0.0
 10
24.0546
 20
56.3258
 30
0.0
 10
24.0546
 20
56.3258
 30
0.0
 10
21.1778
 20
55.0869
 30
0.0
 10
22.071
 20
51.1271
 30
0.0
 10
24.3414
 20
50.7074
 30
0.0
 10
24.3414
 20
50.7074
 30
0.0
 10
23.5454
 20
47.3192
 30
0.0
 10
21.7449
 20
44.59
 30
0.0
 10
20.0008
 20
43.1567
 30
0.0
 10
20.0008
 20
43.1567
 30
0.0
 10
19.5698
 20
44.1914
 30
0.0
 10
18.8303
 20
44.9461
 30
0.0
 10
17.804
 20
46.6916
 30
0.0
 10
17.804
 20
46.6916
 30
0.0
 10
15.5089
 20
50.6281
 30
0.0
 10
16.5579
 20
54.3334
 30
0.0
 10
20.5868
 20
53.1513
 30
0.0
 10
20.5868
 20
53.1513
 30
0.0
 10
20.4377
 20
54.9688
 30
0.0
 10
18.208
 20
58.5185
 30
0.0
 10
14.8296
 20
55.5085
 30
0.0
  0
SPLINE
  5
75
330
1F
100
AcDbEntity
  8
layer 1
 62
     7
100
AcDbSpline
210
0.0
220
0.0
230
1.0
 70
    11
 71
     3
 72
    52
 73
    48
 74
     0
 42
0.0000000001
 43
0.0000000001
 12
1.0
 22
0.0
 32
0.0
 13
1.0
 23
0.0
 33
0.0
 40
0.0
 40
0.0
 40
0.0
 40
0.0
 40
0.0769230769230769
 40
0.0769230769230769
 40
0.0769230769230769
 40
0.0769230769230769
 40
0.1538461538461539
 40
0.1538461538461539
 40
0.1538461538461539
 40
0.1538461538461539
 40
0.2307692307692308
 40
0.2307692307692308
 40
0.2307692307692308
 40
0.2307692307692308
 40
0.3076923076923077
 40
0.3076923076923077
 40
0.3076923076923077
 40
0.3076923076923077
 40
0.3846153846153846
 40
0.3846153846153846
 40
0.3846153846153846
 40
0.3846153846153846
 40
0.4615384615384616
 40
0.4615384615384616
 40
0.4615384615384616
 40
0.4615384615384616
 40
0.5384615384615384
 40
0.5384615384615384
 40
0.5384615384615384
 40
0.5384615384615384
 40
0.6153846153846154
 40
0.6153846153846154
 40
0.6153846153846154
 40
0.6153846153846154
 40
0.6923076923076923
 40
0.6923076923076923
 40
0.6923076923076923
 40
0.6923076923076923
 40
0.7692307692307693
 40
0.7692307692307693
 40
0.7692307692307693
 40
0.7692307692307693
 40
0.8461538461538461
 40
0.8461538461538461
 40
0.8461538461538461
 40
0.8461538461538461
 40
1.0
 40
1.0
 40
1.0
 40
1.0
 10
25.9792
 20
56.9588
 30
0.0
 10
24.6327
 20
61.0513
 30
0.0
 10
20.7363
 20
63.8789
 30
0.0
 10
19.1234
 20
64.422
 30
0.0
 10
19.1234
 20
64.422
 30
0.0
 10
19.804
 20
64.8871
 30
0.0
 10
20.1077
 20
65.265
 30
0.0
 10
20.3416
 20
65.4763
 30
0.0
 10
20.3416
 20
65.4763
 30
0.0
 10
20.1077
 20
65.6875
 30
0.0
 10
19.8039
 20
66.0654
 30
0.0
 10
19.1234
 20
66.5306
 30
0.0
 10
19.1234
 20
66.5306
 30
0.0
 10
20.7364
 20
67.0736
 30
0.0
 10
24.6328
 20
69.9013
 30
0.0
 10
25.9792
 20
73.9937
 30
0.0
 10
25.9792
 20
73.9937
 30
0.0
 10
26.3348
 20
73.9837
 30
0.0
 10
26.2336
 20
73.9899
 30
0.0
 10
26.5005
 20
73.9768
 30
0.0
 10
26.5005
 20
73.9768
 30
0.0
 10
26.7674
 20
73.9899
 30
0.0
 10
26.6662
 20
73.9837
 30
0.0
 10
27.0218
 20
73.9937
 30
0.0
 10
27.0218
 20
73.9937
 30
0.0
 10
28.3682
 20
69.9012
 30
0.0
 10
32.2646
 20
67.0736
 30
0.0
 10
33.8776
 20
66.5306
 30
0.0
 10
33.8776
 20
66.5306
 30
0.0
 10
33.197
 20
66.0654
 30
0.0
 10
32.8933
 20
65.6875
 30
0.0
 10
32.6594
 20
65.4763
 30
0.0
 10
32.6594
 20
65.4763
 30
0.0
 10
32.8933
 20
65.265
 30
0.0
 10
33.197
 20
64.8871
 30
0.0
 10
33.8776
 20
64.422
 30
0.0
 10
33.8776
 20
64.422
 30
0.0
 10
32.2646
 20
63.8789
 30
0.0
 10
28.3682
 20
61.0513
 30
0.0
 10
27.0218
 20
56.9588
 30
0.0
 10
27.0218
 20
56.9588
 30
0.0
 10
26.6662
 20
56.9688
 30
0.0
 10
26.7674
 20
56.9627
 30
0.0
 10
26.5005
 20
56.9757
 30
0.0
 10
26.5005
 20
56.9757
 30
0.0
 10
26.2336
 20
56.9627
 30
0.0
 10
26.3348
 20
56.9688
 30
0.0
 10
25.9792
 20
56.9588
 30
0.0
  0
SPLINE
  5
76
330
1F
100
AcDbEntity
  8
layer 1
 62
     7
100
AcDbSpline
210
0.0
220
0.0
230
1.0
 70
    11
 71
     3
 72
    24
 73
    20
 74
     0
 42
0.0000000001
 43
0.0000000001
 12
1.0
 22
0.0
 32
0.0
 13
1.0
 23
0.0
 33
0.0
 40
0.0
 40
0.0
 40
0.0
 40
0.0
 40
0.1666666666666667
 40
0.1666666666666667
 40
0.1666666666666667
 40
0.1666666666666667
 40
0.3333333333333333
 40
0.3333333333333333
 40
0.3333333333333333
 40
0.3333333333333333
 40
0.5
 40
0.5
 40
0.5
 40
0.5
 40
0.6666666666666666
 40
0.6666666666666666
 40
0.6666666666666666
 40
0.6666666666666666
 40
1.0
 40
1.0
 40
1.0
 40
1.0
 10
-11.3721
 20
76.3801
 30
0.0
 10
-10.5149
 20
76.4311
 30
0.0
 10
-9.6935
 20
76.5694
 30
0.0
 10
-9.3166
 20
73.7647
 30
0.0
 10
-9.3166
 20
73.7647
 30
0.0
 10
-9.0845
 20
68.7944
 30
0.0
 10
-6.8099
 20
66.4514
 30
0.0
 10
-6.0847
 20
65.4763
 30
0.0
 10
-6.0847
 20
65.4763
 30
0.0
 10
-6.8099
 20
64.5012
 30
0.0
 10
-9.0845
 20
62.1582
 30
0.0
 10
-9.3166
 20
57.1878
 30
0.0
 10
-9.3166
 20
57.1878
 30
0.0
 10
-9.6935
 20
54.3832
 30
0.0
 10
-10.5149
 20
54.5214
 30
0.0
 10
-11.3721
 20
54.5724
 30
0.0
 10
-11.3721
 20
54.5724
 30
0.0
 10
-11.3721
 20
54.5724
 30
0.0
 10
-11.3721
 20
76.3801
 30
0.0
 10
-11.3721
 20
76.3801
 30
0.0
  0
SPLINE
  5
77
330
1F
100
AcDbEntity
  8
layer 1
 62
     7
100
AcDbSpline
210
0.0
220
0.0
230
1.0
 70
    11
 71
     3
 72
    16
 73
    12
 74
     0
 42
0.0000000001
 43
0.0000000001
 12
1.0
 22
0.0
 32
0.0
 13
1.0
 23
0.0
 33
0.0
 40
0.0
 40
0.0
 40
0.0
 40
0.0
 40
0.25
 40
0.25
 40
0.25
 40
0.25
 40
0.5
 40
0.5
 40
0.5
 40
0.5
 40
1.0
 40
1.0
 40
1.0
 40
1.0
 10
-11.3496
 20
15.5741
 30
0.0
 10
-11.1134
 20
16.089
 30
0.0
 10
-10.4305
 20
16.9834
 30
0.0
 10
-9.6196
 20
17.2675
 30
0.0
 10
-9.6196
 20
17.2675
 30
0.0
 10
-10.4521
 20
18.6605
 30
0.0
 10
-11.0191
 20
20.2669
 30
0.0
 10
-11.3721
 20
21.8861
 30
0.0
 10
-11.3721
 20
21.8861
 30
0.0
 10
-11.3721
 20
19.6938
 30
0.0
 10
-11.3496
 20
16.8944
 30
0.0
 10
-11.3496
 20
15.5741
 30
0.0
  0
SPLINE
  5
78
330
1F
100
AcDbEntity
  8
layer 1
 62
     7
100
AcDbSpline
210
0.0
220
0.0
230
1.0
 70
    11
 71
     3
 72
    40
 73
    36
 74
     0
 42
0.0000000001
 43
0.0000000001
 12
1.0
 22
0.0
 32
0.0
 13
1.0
 23
0.0
 33
0.0
 40
0.0
 40
0.0
 40
0.0
 40
0.0
 40
0.1
 40
0.1
 40
0.1
 40
0.1
 40
0.2
 40
0.2
 40
0.2
 40
0.2
 40
0.3
 40
0.3
 40
0.3
 40
0.3
 40
0.4
 40
0.4
 40
0.4
 40
0.4
 40
0.5
 40
0.5
 40
0.5
 40
0.5
 40
0.6
 40
0.6
 40
0.6
 40
0.6
 40
0.7
 40
0.7
 40
0.7
 40
0.7
 40
0.8
 40
0.8
 40
0.8
 40
0.8
 40
1.0
 40
1.0
 40
1.0
 40
1.0
 10
-2.2452
 20
34.8276
 30
0.0
 10
-1.5163
 20
32.1471
 30
0.0
 10
-1.068
 20
30.7842
 30
0.0
 10
-0.9164
 20
28.8534
 30
0.0
 10
-0.9164
 20
28.8534
 30
0.0
 10
-0.1629
 20
23.798
 30
0.0
 10
-4.6821
 20
22.26
 30
0.0
 10
0.5356
 20
16.9241
 30
0.0
 10
0.5356
 20
16.9241
 30
0.0
 10
0.0005
 20
15.2735
 30
0.0
 10
-2.6095
 20
12.748
 30
0.0
 10
-5.3717
 20
13.0058
 30
0.0
 10
-5.3717
 20
13.0058
 30
0.0
 10
-4.5399
 20
14.9677
 30
0.0
 10
-5.6522
 20
17.1007
 30
0.0
 10
-7.7152
 20
17.5152
 30
0.0
 10
-7.7152
 20
17.5152
 30
0.0
 10
-8.8033
 20
19.6589
 30
0.0
 10
-9.2289
 20
25.3124
 30
0.0
 10
-6.9973
 20
29.1758
 30
0.0
 10
-6.9973
 20
29.1758
 30
0.0
 10
-6.1241
 20
28.292
 30
0.0
 10
-4.2627
 20
27.1305
 30
0.0
 10
-2.9569
 20
27.3972
 30
0.0
 10
-2.9569
 20
27.3972
 30
0.0
 10
-3.918
 20
28.6928
 30
0.0
 10
-5.3772
 20
30.4535
 30
0.0
 10
-4.395
 20
31.9247
 30
0.0
 10
-4.395
 20
31.9247
 30
0.0
 10
-3.6936
 20
32.9501
 30
0.0
 10
-2.9403
 20
34.1639
 30
0.0
 10
-2.2453
 20
34.8276
 30
0.0
 10
-2.2453
 20
34.8276
 30
0.0
 10
-2.2453
 20
34.8276
 30
0.0
 10
-2.2452
 20
34.8276
 30
0.0
 10
-2.2452
 20
34.8276
 30
0.0
  0
SPLINE
  5
79
330
1F
100
AcDbEntity
  8
layer 1
 62
     7
100
AcDbSpline
210
0.0
220
0.0
230
1.0
 70
    11
 71
     3
 72
    28
 73
    24
 74
     0
 42
0.0000000001
 43
0.0000000001
 12
1.0
 22
0.0
 32
0.0
 13
1.0
 23
0.0
 33
0.0
 40
0.0
 40
0.0
 40
0.0
 40
0.0
 40
0.1428571428571428
 40
0.1428571428571428
 40
0.1428571428571428
 40
0.1428571428571428
 40
0.2857142857142857
 40
0.2857142857142857
 40
0.2857142857142857
 40
0.2857142857142857
 40
0.4285714285714285
 40
0.4285714285714285
 40
0.4285714285714285
 40
0.4285714285714285
 40
0.5714285714285714
 40
0.5714285714285714
 40
0.5714285714285714
 40
0.5714285714285714
 40
0.7142857142857143
 40
0.7142857142857143
 40
0.7142857142857143
 40
0.7142857142857143
 40
1.0
 40
1.0
 40
1.0
 40
1.0
 10
-11.3721
 20
13.0929
 30
0.0
 10
-10.4028
 20
11.1205
 30
0.0
 10
-8.1416
 20
10.4875
 30
0.0
 10
-6.4676
 20
11.6756
 30
0.0
 10
-6.4676
 20
11.6756
 30
0.0
 10
-4.1087
 20
9.801
 30
0.0
 10
-2.0158
 20
8.6074
 30
0.0
 10
0.2059
 20
7.5458
 30
0.0
 10
0.2059
 20
7.5458
 30
0.0
 10
-2.0158
 20
6.4843
 30
0.0
 10
-4.1087
 20
5.2907
 30
0.0
 10
-6.4676
 20
3.4161
 30
0.0
 10
-6.4676
 20
3.4161
 30
0.0
 10
-8.1416
 20
4.6042
 30
0.0
 10
-10.4028
 20
3.9712
 30
0.0
 10
-11.3721
 20
1.9988
 30
0.0
 10
-11.3721
 20
1.9988
 30
0.0
 10
-11.3721
 20
4.4388
 30
0.0
 10
-11.3721
 20
5.5507
 30
0.0
 10
-11.3721
 20
7.5458
 30
0.0
 10
-11.3721
 20
7.5458
 30
0.0
 10
-11.3721
 20
9.541
 30
0.0
 10
-11.3721
 20
10.6529
 30
0.0
 10
-11.3721
 20
13.0929
 30
0.0
  0
SPLINE
  5
7A
330
1F
100
AcDbEntity
  8
layer 1
 62
     7
100
AcDbSpline
210
0.0
220
0.0
230
1.0
 70
    11
 71
     3
 72
    16
 73
    12
 74
     0
 42
0.0000000001
 43
0.0000000001
 12
1.0
 22
0.0
 32
0.0
 13
1.0
 23
0.0
 33
0.0
 40
0.0
 40
0.0
 40
0.0
 40
0.0
 40
0.25
 40
0.25
 40
0.25
 40
0.25
 40
0.5
 40
0.5
 40
0.5
 40
0.5
 40
1.0
 40
1.0
 40
1.0
 40
1.0
 10
-11.3496
 20
-0.9274
 30
0.0
 10
-11.1134
 20
-1.4423
 30
0.0
 10
-10.4305
 20
-2.3367
 30
0.0
 10
-9.6196
 20
-2.6208
 30
0.0
 10
-9.6196
 20
-2.6208
 30
0.0
 10
-10.4521
 20
-4.0138
 30
0.0
 10
-11.0191
 20
-5.6202
 30
0.0
 10
-11.3721
 20
-7.2394
 30
0.0
 10
-11.3721
 20
-7.2394
 30
0.0
 10
-11.3721
 20
-5.0471
 30
0.0
 10
-11.3496
 20
-2.2478
 30
0.0
 10
-11.3496
 20
-0.9274
 30
0.0
  0
SPLINE
  5
7B
330
1F
100
AcDbEntity
  8
layer 1
 62
     7
100
AcDbSpline
210
0.0
220
0.0
230
1.0
 70
    11
 71
     3
 72
    40
 73
    36
 74
     0
 42
0.0000000001
 43
0.0000000001
 12
1.0
 22
0.0
 32
0.0
 13
1.0
 23
0.0
 33
0.0
 40
0.0
 40
0.0
 40
0.0
 40
0.0
 40
0.1
 40
0.1
 40
0.1
 40
0.1
 40
0.2
 40
0.2
 40
0.2
 40
0.2
 40
0.3
 40
0.3
 40
0.3
 40
0.3
 40
0.4
 40
0.4
 40
0.4
 40
0.4
 40
0.5
 40
0.5
 40
0.5
 40
0.5
 40
0.6
 40
0.6
 40
0.6
 40
0.6
 40
0.7
 40
0.7
 40
0.7
 40
0.7
 40
0.8
 40
0.8
 40
0.8
 40
0.8
 40
1.0
 40
1.0
 40
1.0
 40
1.0
 10
-2.2452
 20
-20.1809
 30
0.0
 10
-1.5163
 20
-17.5004
 30
0.0
 10
-1.068
 20
-16.1375
 30
0.0
 10
-0.9164
 20
-14.2067
 30
0.0
 10
-0.9164
 20
-14.2067
 30
0.0
 10
-0.1629
 20
-9.1513
 30
0.0
 10
-4.6821
 20
-7.6133
 30
0.0
 10
0.5356
 20
-2.2774
 30
0.0
 10
0.5356
 20
-2.2774
 30
0.0
 10
0.0005
 20
-0.6268
 30
0.0
 10
-2.6095
 20
1.8987
 30
0.0
 10
-5.3717
 20
1.6409
 30
0.0
 10
-5.3717
 20
1.6409
 30
0.0
 10
-4.5399
 20
-0.321
 30
0.0
 10
-5.6522
 20
-2.454
 30
0.0
 10
-7.7152
 20
-2.8684
 30
0.0
 10
-7.7152
 20
-2.8684
 30
0.0
 10
-8.8033
 20
-5.0121
 30
0.0
 10
-9.2289
 20
-10.6657
 30
0.0
 10
-6.9973
 20
-14.529
 30
0.0
 10
-6.9973
 20
-14.529
 30
0.0
 10
-6.1241
 20
-13.6452
 30
0.0
 10
-4.2627
 20
-12.4837
 30
0.0
 10
-2.9569
 20
-12.7504
 30
0.0
 10
-2.9569
 20
-12.7504
 30
0.0
 10
-3.918
 20
-14.046
 30
0.0
 10
-5.3772
 20
-15.8067
 30
0.0
 10
-4.395
 20
-17.278
 30
0.0
 10
-4.395
 20
-17.278
 30
0.0
 10
-3.6936
 20
-18.3034
 30
0.0
 10
-2.9403
 20
-19.5171
 30
0.0
 10
-2.2453
 20
-20.1808
 30
0.0
 10
-2.2453
 20
-20.1808
 30
0.0
 10
-2.2453
 20
-20.1808
 30
0.0
 10
-2.2452
 20
-20.1809
 30
0.0
 10
-2.2452
 20
-20.1809
 30
0.0
  0
SPLINE
  5
7C
330
1F
100
AcDbEntity
  8
layer 1
 62
     7
100
AcDbSpline
210
0.0
220
0.0
230
1.0
 70
    11
 71
     3
 72
    40
 73
    36
 74
     0
 42
0.0000000001
 43
0.0000000001
 12
1.0
 22
0.0
 32
0.0
 13
1.0
 23
0.0
 33
0.0
 40
0.0
 40
0.0
 40
0.0
 40
0.0
 40
0.1
 40
0.1
 40
0.1
 40
0.1
 40
0.2
 40
0.2
 40
0.2
 40
0.2
 40
0.3
 40
0.3
 40
0.3
 40
0.3
 40
0.4
 40
0.4
 40
0.4
 40
0.4
 40
0.5
 40
0.5
 40
0.5
 40
0.5
 40
0.6
 40
0.6
 40
0.6
 40
0.6
 40
0.7
 40
0.7
 40
0.7
 40
0.7
 40
0.8
 40
0.8
 40
0.8
 40
0.8
 40
1.0
 40
1.0
 40
1.0
 40
1.0
 10
-5.5944
 20
41.1243
 30
0.0
 10
-3.5655
 20
40.8346
 30
0.0
 10
-1.6211
 20
40.0975
 30
0.0
 10
-2.0834
 20
37.2278
 30
0.0
 10
-2.0834
 20
37.2278
 30
0.0
 10
-0.5257
 20
37.6317
 30
0.0
 10
2.9086
 20
38.4896
 30
0.0
 10
5.3661
 20
38.2698
 30
0.0
 10
5.3661
 20
38.2698
 30
0.0
 10
3.8533
 20
40.1472
 30
0.0
 10
4.394
 20
42.1523
 30
0.0
 10
5.6727
 20
43.1091
 30
0.0
 10
5.6727
 20
43.1091
 30
0.0
 10
6.8951
 20
44.0239
 30
0.0
 10
8.1079
 20
43.9556
 30
0.0
 10
9.0735
 20
43.5025
 30
0.0
 10
9.0735
 20
43.5025
 30
0.0
 10
10.7373
 20
42.7219
 30
0.0
 10
12.0231
 20
40.1327
 30
0.0
 10
9.6397
 20
37.9657
 30
0.0
 10
9.6397
 20
37.9657
 30
0.0
 10
10.8763
 20
37.5842
 30
0.0
 10
12.0148
 20
37.1385
 30
0.0
 10
12.6145
 20
36.8849
 30
0.0
 10
12.6145
 20
36.8849
 30
0.0
 10
14.1916
 20
38.6789
 30
0.0
 10
15.7725
 20
39.9872
 30
0.0
 10
17.311
 20
41.3148
 30
0.0
 10
17.311
 20
41.3148
 30
0.0
 10
9.3593
 20
48.8533
 30
0.0
 10
-2.0886
 20
45.3841
 30
0.0
 10
-5.5944
 20
41.1243
 30
0.0
 10
-5.5944
 20
41.1243
 30
0.0
 10
-5.5944
 20
41.1243
 30
0.0
 10
-5.5944
 20
41.1243
 30
0.0
 10
-5.5944
 20
41.1243
 30
0.0
  0
SPLINE
  5
7D
330
1F
100
AcDbEntity
  8
layer 1
 62
     7
100
AcDbSpline
210
0.0
220
0.0
230
1.0
 70
    11
 71
     3
 72
    28
 73
    24
 74
     0
 42
0.0000000001
 43
0.0000000001
 12
1.0
 22
0.0
 32
0.0
 13
1.0
 23
0.0
 33
0.0
 40
0.0
 40
0.0
 40
0.0
 40
0.0
 40
0.1428571428571428
 40
0.1428571428571428
 40
0.1428571428571428
 40
0.1428571428571428
 40
0.2857142857142857
 40
0.2857142857142857
 40
0.2857142857142857
 40
0.2857142857142857
 40
0.4285714285714285
 40
0.4285714285714285
 40
0.4285714285714285
 40
0.4285714285714285
 40
0.5714285714285714
 40
0.5714285714285714
 40
0.5714285714285714
 40
0.5714285714285714
 40
0.7142857142857143
 40
0.7142857142857143
 40
0.7142857142857143
 40
0.7142857142857143
 40
1.0
 40
1.0
 40
1.0
 40
1.0
 10
15.2637
 20
8.2383
 30
0.0
 10
14.3059
 20
8.6841
 30
0.0
 10
13.4494
 20
9.1804
 30
0.0
 10
12.118
 20
9.2303
 30
0.0
 10
12.118
 20
9.2303
 30
0.0
 10
13.3733
 20
10.6103
 30
0.0
 10
13.3255
 20
12.9766
 30
0.0
 10
11.4493
 20
14.196
 30
0.0
 10
11.4493
 20
14.196
 30
0.0
 10
13.6967
 20
15.0251
 30
0.0
 10
14.8439
 20
15.9562
 30
0.0
 10
15.7428
 20
16.6623
 30
0.0
 10
15.7428
 20
16.6623
 30
0.0
 10
17.8721
 20
14.2021
 30
0.0
 10
19.3454
 20
13.2366
 30
0.0
 10
20.5604
 20
12.0878
 30
0.0
 10
20.5604
 20
12.0878
 30
0.0
 10
19.8575
 20
11.2116
 30
0.0
 10
18.3851
 20
9.3971
 30
0.0
 10
15.2637
 20
8.2383
 30
0.0
 10
15.2637
 20
8.2383
 30
0.0
 10
15.2637
 20
8.2383
 30
0.0
 10
15.2637
 20
8.2383
 30
0.0
 10
15.2637
 20
8.2383
 30
0.0
  0
SPLINE
  5
7E
330
1F
100
AcDbEntity
  8
layer 1
 62
     7
100
AcDbSpline
210
0.0
220
0.0
230
1.0
 70
    11
 71
     3
 72
    24
 73
    20
 74
     0
 42
0.0000000001
 43
0.0000000001
 12
1.0
 22
0.0
 32
0.0
 13
1.0
 23
0.0
 33
0.0
 40
0.0
 40
0.0
 40
0.0
 40
0.0
 40
0.1666666666666667
 40
0.1666666666666667
 40
0.1666666666666667
 40
0.1666666666666667
 40
0.3333333333333333
 40
0.3333333333333333
 40
0.3333333333333333
 40
0.3333333333333333
 40
0.5
 40
0.5
 40
0.5
 40
0.5
 40
0.6666666666666666
 40
0.6666666666666666
 40
0.6666666666666666
 40
0.6666666666666666
 40
1.0
 40
1.0
 40
1.0
 40
1.0
 10
2.9752
 20
8.4971
 30
0.0
 10
4.4473
 20
8.9034
 30
0.0
 10
6.0769
 20
9.2506
 30
0.0
 10
7.6458
 20
9.0235
 30
0.0
 10
7.6458
 20
9.0235
 30
0.0
 10
5.916
 20
10.4395
 30
0.0
 10
6.3721
 20
12.9426
 30
0.0
 10
7.6943
 20
13.9399
 30
0.0
 10
7.6943
 20
13.9399
 30
0.0
 10
5.6714
 20
13.87
 30
0.0
 10
4.028
 20
14.5593
 30
0.0
 10
2.496
 20
15.5832
 30
0.0
 10
2.496
 20
15.5832
 30
0.0
 10
1.4768
 20
14.0249
 30
0.0
 10
-0.0827
 20
12.3818
 30
0.0
 10
-2.0437
 20
11.7784
 30
0.0
 10
-2.0437
 20
11.7784
 30
0.0
 10
-0.9439
 20
10.9684
 30
0.0
 10
-0.0822
 20
9.7603
 30
0.0
 10
2.9752
 20
8.4971
 30
0.0
  0
SPLINE
  5
7F
330
1F
100
AcDbEntity
  8
layer 1
 62
     7
100
AcDbSpline
210
0.0
220
0.0
230
1.0
 70
    11
 71
     3
 72
    40
 73
    36
 74
     0
 42
0.0000000001
 43
0.0000000001
 12
1.0
 22
0.0
 32
0.0
 13
1.0
 23
0.0
 33
0.0
 40
0.0
 40
0.0
 40
0.0
 40
0.0
 40
0.1
 40
0.1
 40
0.1
 40
0.1
 40
0.2
 40
0.2
 40
0.2
 40
0.2
 40
0.3
 40
0.3
 40
0.3
 40
0.3
 40
0.4
 40
0.4
 40
0.4
 40
0.4
 40
0.5
 40
0.5
 40
0.5
 40
0.5
 40
0.6
 40
0.6
 40
0.6
 40
0.6
 40
0.7
 40
0.7
 40
0.7
 40
0.7
 40
0.8
 40
0.8
 40
0.8
 40
0.8
 40
1.0
 40
1.0
 40
1.0
 40
1.0
 10
-5.5944
 20
-75.8037
 30
0.0
 10
-3.5655
 20
-76.0934
 30
0.0
 10
-1.6211
 20
-76.8305
 30
0.0
 10
-2.0834
 20
-79.7002
 30
0.0
 10
-2.0834
 20
-79.7002
 30
0.0
 10
-0.5257
 20
-79.2962
 30
0.0
 10
2.9086
 20
-78.4384
 30
0.0
 10
5.3661
 20
-78.6582
 30
0.0
 10
5.3661
 20
-78.6582
 30
0.0
 10
3.8533
 20
-76.7808
 30
0.0
 10
4.394
 20
-74.7757
 30
0.0
 10
5.6727
 20
-73.8188
 30
0.0
 10
5.6727
 20
-73.8188
 30
0.0
 10
6.8951
 20
-72.9042
 30
0.0
 10
8.1079
 20
-72.9724
 30
0.0
 10
9.0735
 20
-73.4255
 30
0.0
 10
9.0735
 20
-73.4255
 30
0.0
 10
10.7373
 20
-74.2062
 30
0.0
 10
12.0231
 20
-76.7953
 30
0.0
 10
9.6397
 20
-78.9623
 30
0.0
 10
9.6397
 20
-78.9623
 30
0.0
 10
10.8763
 20
-79.3438
 30
0.0
 10
12.0148
 20
-79.7895
 30
0.0
 10
12.6145
 20
-80.0431
 30
0.0
 10
12.6145
 20
-80.0431
 30
0.0
 10
14.1916
 20
-78.2491
 30
0.0
 10
15.7725
 20
-76.9408
 30
0.0
 10
17.311
 20
-75.6132
 30
0.0
 10
17.311
 20
-75.6132
 30
0.0
 10
9.3593
 20
-68.0747
 30
0.0
 10
-2.0886
 20
-71.5439
 30
0.0
 10
-5.5944
 20
-75.8036
 30
0.0
 10
-5.5944
 20
-75.8036
 30
0.0
 10
-5.5944
 20
-75.8036
 30
0.0
 10
-5.5944
 20
-75.8037
 30
0.0
 10
-5.5944
 20
-75.8037
 30
0.0
  0
SPLINE
  5
80
330
1F
100
AcDbEntity
  8
layer 1
 62
     7
100
AcDbSpline
210
0.0
220
0.0
230
1.0
 70
    11
 71
     3
 72
    24
 73
    20
 74
     0
 42
0.0000000001
 43
0.0000000001
 12
1.0
 22
0.0
 32
0.0
 13
1.0
 23
0.0
 33
0.0
 40
0.0
 40
0.0
 40
0.0
 40
0.0
 40
0.1666666666666667
 40
0.1666666666666667
 40
0.1666666666666667
 40
0.1666666666666667
 40
0.3333333333333333
 40
0.3333333333333333
 40
0.3333333333333333
 40
0.3333333333333333
 40
0.5
 40
0.5
 40
0.5
 40
0.5
 40
0.6666666666666666
 40
0.6666666666666666
 40
0.6666666666666666
 40
0.6666666666666666
 40
1.0
 40
1.0
 40
1.0
 40
1.0
 10
2.9752
 20
-107.6692
 30
0.0
 10
4.4473
 20
-107.2629
 30
0.0
 10
6.0769
 20
-106.9157
 30
0.0
 10
7.6458
 20
-107.1428
 30
0.0
 10
7.6458
 20
-107.1428
 30
0.0
 10
5.916
 20
-105.7268
 30
0.0
 10
6.3721
 20
-103.2237
 30
0.0
 10
7.6943
 20
-102.2263
 30
0.0
 10
7.6943
 20
-102.2263
 30
0.0
 10
5.6714
 20
-102.2963
 30
0.0
 10
4.028
 20
-101.607
 30
0.0
 10
2.496
 20
-100.5831
 30
0.0
 10
2.496
 20
-100.5831
 30
0.0
 10
1.4768
 20
-102.1413
 30
0.0
 10
-0.0827
 20
-103.7846
 30
0.0
 10
-2.0437
 20
-104.3878
 30
0.0
 10
-2.0437
 20
-104.3878
 30
0.0
 10
-0.9439
 20
-105.1978
 30
0.0
 10
-0.0822
 20
-106.4059
 30
0.0
 10
2.9752
 20
-107.6692
 30
0.0
  0
SPLINE
  5
81
330
1F
100
AcDbEntity
  8
layer 1
 62
     7
100
AcDbSpline
210
0.0
220
0.0
230
1.0
 70
    11
 71
     3
 72
    28
 73
    24
 74
     0
 42
0.0000000001
 43
0.0000000001
 12
1.0
 22
0.0
 32
0.0
 13
1.0
 23
0.0
 33
0.0
 40
0.0
 40
0.0
 40
0.0
 40
0.0
 40
0.1428571428571428
 40
0.1428571428571428
 40
0.1428571428571428
 40
0.1428571428571428
 40
0.2857142857142857
 40
0.2857142857142857
 40
0.2857142857142857
 40
0.2857142857142857
 40
0.4285714285714285
 40
0.4285714285714285
 40
0.4285714285714285
 40
0.4285714285714285
 40
0.5714285714285714
 40
0.5714285714285714
 40
0.5714285714285714
 40
0.5714285714285714
 40
0.7142857142857143
 40
0.7142857142857143
 40
0.7142857142857143
 40
0.7142857142857143
 40
1.0
 40
1.0
 40
1.0
 40
1.0
 10
15.2637
 20
122.7203
 30
0.0
 10
14.3059
 20
122.2745
 30
0.0
 10
13.4494
 20
121.7781
 30
0.0
 10
12.118
 20
121.7283
 30
0.0
 10
12.118
 20
121.7283
 30
0.0
 10
13.3733
 20
120.3483
 30
0.0
 10
13.3255
 20
117.9819
 30
0.0
 10
11.4493
 20
116.7625
 30
0.0
 10
11.4493
 20
116.7625
 30
0.0
 10
13.6967
 20
115.9334
 30
0.0
 10
14.8439
 20
115.0024
 30
0.0
 10
15.7428
 20
114.2963
 30
0.0
 10
15.7428
 20
114.2963
 30
0.0
 10
17.8721
 20
116.7564
 30
0.0
 10
19.3454
 20
117.7219
 30
0.0
 10
20.5604
 20
118.8708
 30
0.0
 10
20.5604
 20
118.8708
 30
0.0
 10
19.8575
 20
119.747
 30
0.0
 10
18.3851
 20
121.5615
 30
0.0
 10
15.2637
 20
122.7203
 30
0.0
 10
15.2637
 20
122.7203
 30
0.0
 10
15.2637
 20
122.7203
 30
0.0
 10
15.2637
 20
122.7203
 30
0.0
 10
15.2637
 20
122.7203
 30
0.0
  0
SPLINE
  5
82
330
1F
100
AcDbEntity
  8
layer 1
 62
     7
100
AcDbSpline
210
0.0
220
0.0
230
1.0
 70
    11
 71
     3
 72
    28
 73
    24
 74
     0
 42
0.0000000001
 43
0.0000000001
 12
1.0
 22
0.0
 32
0.0
 13
1.0
 23
0.0
 33
0.0
 40
0.0
 40
0.0
 40
0.0
 40
0.0
 40
0.1428571428571428
 40
0.1428571428571428
 40
0.1428571428571428
 40
0.1428571428571428
 40
0.2857142857142857
 40
0.2857142857142857
 40
0.2857142857142857
 40
0.2857142857142857
 40
0.4285714285714285
 40
0.4285714285714285
 40
0.4285714285714285
 40
0.4285714285714285
 40
0.5714285714285714
 40
0.5714285714285714
 40
0.5714285714285714
 40
0.5714285714285714
 40
0.7142857142857143
 40
0.7142857142857143
 40
0.7142857142857143
 40
0.7142857142857143
 40
1.0
 40
1.0
 40
1.0
 40
1.0
 10
2.9752
 20
122.4614
 30
0.0
 10
4.4473
 20
122.0551
 30
0.0
 10
6.0769
 20
121.7079
 30
0.0
 10
7.6458
 20
121.9351
 30
0.0
 10
7.6458
 20
121.9351
 30
0.0
 10
5.916
 20
120.519
 30
0.0
 10
6.3721
 20
118.0159
 30
0.0
 10
7.6943
 20
117.0186
 30
0.0
 10
7.6943
 20
117.0186
 30
0.0
 10
5.6714
 20
117.0885
 30
0.0
 10
4.028
 20
116.3992
 30
0.0
 10
2.496
 20
115.3754
 30
0.0
 10
2.496
 20
115.3754
 30
0.0
 10
1.4768
 20
116.9336
 30
0.0
 10
-0.0827
 20
118.5768
 30
0.0
 10
-2.0437
 20
119.1801
 30
0.0
 10
-2.0437
 20
119.1801
 30
0.0
 10
-0.9439
 20
119.9902
 30
0.0
 10
-0.0822
 20
121.1982
 30
0.0
 10
2.9752
 20
122.4615
 30
0.0
 10
2.9752
 20
122.4615
 30
0.0
 10
2.9752
 20
122.4615
 30
0.0
 10
2.9752
 20
122.4614
 30
0.0
 10
2.9752
 20
122.4614
 30
0.0
  0
SPLINE
  5
83
330
1F
100
AcDbEntity
  8
layer 1
 62
     7
100
AcDbSpline
210
0.0
220
0.0
230
1.0
 70
    11
 71
     3
 72
    40
 73
    36
 74
     0
 42
0.0000000001
 43
0.0000000001
 12
1.0
 22
0.0
 32
0.0
 13
1.0
 23
0.0
 33
0.0
 40
0.0
 40
0.0
 40
0.0
 40
0.0
 40
0.1
 40
0.1
 40
0.1
 40
0.1
 40
0.2
 40
0.2
 40
0.2
 40
0.2
 40
0.3
 40
0.3
 40
0.3
 40
0.3
 40
0.4
 40
0.4
 40
0.4
 40
0.4
 40
0.5
 40
0.5
 40
0.5
 40
0.5
 40
0.6
 40
0.6
 40
0.6
 40
0.6
 40
0.7
 40
0.7
 40
0.7
 40
0.7
 40
0.8
 40
0.8
 40
0.8
 40
0.8
 40
1.0
 40
1.0
 40
1.0
 40
1.0
 10
-5.5944
 20
90.6241
 30
0.0
 10
-3.5655
 20
90.9138
 30
0.0
 10
-1.6211
 20
91.6509
 30
0.0
 10
-2.0834
 20
94.5206
 30
0.0
 10
-2.0834
 20
94.5206
 30
0.0
 10
-0.5257
 20
94.1166
 30
0.0
 10
2.9086
 20
93.2588
 30
0.0
 10
5.3661
 20
93.4786
 30
0.0
 10
5.3661
 20
93.4786
 30
0.0
 10
3.8533
 20
91.6012
 30
0.0
 10
4.394
 20
89.5961
 30
0.0
 10
5.6727
 20
88.6392
 30
0.0
 10
5.6727
 20
88.6392
 30
0.0
 10
6.8951
 20
87.7245
 30
0.0
 10
8.1079
 20
87.7928
 30
0.0
 10
9.0735
 20
88.2459
 30
0.0
 10
9.0735
 20
88.2459
 30
0.0
 10
10.7373
 20
89.0265
 30
0.0
 10
12.0231
 20
91.6157
 30
0.0
 10
9.6397
 20
93.7827
 30
0.0
 10
9.6397
 20
93.7827
 30
0.0
 10
10.8763
 20
94.1642
 30
0.0
 10
12.0148
 20
94.6099
 30
0.0
 10
12.6145
 20
94.8635
 30
0.0
 10
12.6145
 20
94.8635
 30
0.0
 10
14.1916
 20
93.0695
 30
0.0
 10
15.7725
 20
91.7612
 30
0.0
 10
17.311
 20
90.4336
 30
0.0
 10
17.311
 20
90.4336
 30
0.0
 10
9.3593
 20
82.8951
 30
0.0
 10
-2.0886
 20
86.3643
 30
0.0
 10
-5.5944
 20
90.6241
 30
0.0
 10
-5.5944
 20
90.6241
 30
0.0
 10
-5.5944
 20
90.6241
 30
0.0
 10
-5.5944
 20
90.6241
 30
0.0
 10
-5.5944
 20
90.6241
 30
0.0
  0
SPLINE
  5
84
330
1F
100
AcDbEntity
  8
layer 1
 62
     7
100
AcDbSpline
210
0.0
220
0.0
230
1.0
 70
    11
 71
     3
 72
    32
 73
    28
 74
     0
 42
0.0000000001
 43
0.0000000001
 12
1.0
 22
0.0
 32
0.0
 13
1.0
 23
0.0
 33
0.0
 40
0.0
 40
0.0
 40
0.0
 40
0.0
 40
0.125
 40
0.125
 40
0.125
 40
0.125
 40
0.25
 40
0.25
 40
0.25
 40
0.25
 40
0.375
 40
0.375
 40
0.375
 40
0.375
 40
0.5
 40
0.5
 40
0.5
 40
0.5
 40
0.625
 40
0.625
 40
0.625
 40
0.625
 40
0.75
 40
0.75
 40
0.75
 40
0.75
 40
1.0
 40
1.0
 40
1.0
 40
1.0
 10
-0.3866
 20
95.7608
 30
0.0
 10
4.5764
 20
93.7808
 30
0.0
 10
8.943
 20
95.1163
 30
0.0
 10
11.2521
 20
96.3328
 30
0.0
 10
11.2521
 20
96.3328
 30
0.0
 10
9.2405
 20
98.0022
 30
0.0
 10
7.7598
 20
104.8388
 30
0.0
 10
10.5715
 20
109.0243
 30
0.0
 10
10.5715
 20
109.0243
 30
0.0
 10
5.9845
 20
107.8624
 30
0.0
 10
2.8717
 20
110.5403
 30
0.0
 10
1.8963
 20
112.3679
 30
0.0
 10
1.8963
 20
112.3679
 30
0.0
 10
1.0198
 20
111.454
 30
0.0
 10
0.0176
 20
109.3461
 30
0.0
 10
0.8772
 20
106.7379
 30
0.0
 10
0.8772
 20
106.7379
 30
0.0
 10
2.2252
 20
109.4023
 30
0.0
 10
5.4668
 20
107.4283
 30
0.0
 10
5.7739
 20
105.3639
 30
0.0
 10
5.7739
 20
105.3639
 30
0.0
 10
6.5026
 20
100.4654
 30
0.0
 10
3.1583
 20
96.7825
 30
0.0
 10
-0.3866
 20
95.7608
 30
0.0
 10
-0.3866
 20
95.7608
 30
0.0
 10
-0.3866
 20
95.7608
 30
0.0
 10
-0.3866
 20
95.7608
 30
0.0
 10
-0.3866
 20
95.7608
 30
0.0
  0
SPLINE
  5
85
330
1F
100
AcDbEntity
  8
layer 1
 62
     7
100
AcDbSpline
210
0.0
220
0.0
230
1.0
 70
    11
 71
     3
 72
    16
 73
    12
 74
     0
 42
0.0000000001
 43
0.0000000001
 12
1.0
 22
0.0
 32
0.0
 13
1.0
 23
0.0
 33
0.0
 40
0.0
 40
0.0
 40
0.0
 40
0.0
 40
0.25
 40
0.25
 40
0.25
 40
0.25
 40
0.5
 40
0.5
 40
0.5
 40
0.5
 40
1.0
 40
1.0
 40
1.0
 40
1.0
 10
-11.3721
 20
98.2603
 30
0.0
 10
-11.3721
 20
99.2617
 30
0.0
 10
-9.7003
 20
100.3346
 30
0.0
 10
-9.008
 20
100.813
 30
0.0
 10
-9.008
 20
100.813
 30
0.0
 10
-10.1217
 20
102.206
 30
0.0
 10
-11.0191
 20
104.5771
 30
0.0
 10
-11.3721
 20
106.1963
 30
0.0
 10
-11.3721
 20
106.1963
 30
0.0
 10
-11.3721
 20
104.004
 30
0.0
 10
-11.3721
 20
99.5807
 30
0.0
 10
-11.3721
 20
98.2603
 30
0.0
  0
SPLINE
  5
86
330
1F
100
AcDbEntity
  8
layer 1
 62
     7
100
AcDbSpline
210
0.0
220
0.0
230
1.0
 70
    11
 71
     3
 72
    20
 73
    16
 74
     0
 42
0.0000000001
 43
0.0000000001
 12
1.0
 22
0.0
 32
0.0
 13
1.0
 23
0.0
 33
0.0
 40
0.0
 40
0.0
 40
0.0
 40
0.0
 40
0.2
 40
0.2
 40
0.2
 40
0.2
 40
0.4
 40
0.4
 40
0.4
 40
0.4
 40
0.6
 40
0.6
 40
0.6
 40
0.6
 40
1.0
 40
1.0
 40
1.0
 40
1.0
 10
23.5599
 20
118.9152
 30
0.0
 10
25.1737
 20
117.4028
 30
0.0
 10
25.627
 20
115.9511
 30
0.0
 10
26.5005
 20
113.567
 30
0.0
 10
26.5005
 20
113.567
 30
0.0
 10
27.3741
 20
115.9511
 30
0.0
 10
27.8273
 20
117.4028
 30
0.0
 10
29.4412
 20
118.9152
 30
0.0
 10
29.4412
 20
118.9152
 30
0.0
 10
28.5943
 20
119.7058
 30
0.0
 10
28.0671
 20
120.4342
 30
0.0
 10
26.5005
 20
122.2286
 30
0.0
 10
26.5005
 20
122.2286
 30
0.0
 10
24.9339
 20
120.4342
 30
0.0
 10
24.4068
 20
119.7058
 30
0.0
 10
23.5599
 20
118.9152
 30
0.0
  0
SPLINE
  5
87
330
1F
100
AcDbEntity
  8
layer 1
 62
     7
100
AcDbSpline
210
0.0
220
0.0
230
1.0
 70
    11
 71
     3
 72
    24
 73
    20
 74
     0
 42
0.0000000001
 43
0.0000000001
 12
1.0
 22
0.0
 32
0.0
 13
1.0
 23
0.0
 33
0.0
 40
0.0
 40
0.0
 40
0.0
 40
0.0
 40
0.1666666666666667
 40
0.1666666666666667
 40
0.1666666666666667
 40
0.1666666666666667
 40
0.3333333333333333
 40
0.3333333333333333
 40
0.3333333333333333
 40
0.3333333333333333
 40
0.5
 40
0.5
 40
0.5
 40
0.5
 40
0.6666666666666666
 40
0.6666666666666666
 40
0.6666666666666666
 40
0.6666666666666666
 40
1.0
 40
1.0
 40
1.0
 40
1.0
 10
22.1367
 20
117.135
 30
0.0
 10
20.6868
 20
116.085
 30
0.0
 10
18.7643
 20
113.5465
 30
0.0
 10
17.4239
 20
111.763
 30
0.0
 10
17.4239
 20
111.763
 30
0.0
 10
18.4621
 20
110.4525
 30
0.0
 10
18.9954
 20
109.0332
 30
0.0
 10
19.4267
 20
107.7743
 30
0.0
 10
19.4267
 20
107.7743
 30
0.0
 10
20.469
 20
111.2496
 30
0.0
 10
23.5488
 20
112.4992
 30
0.0
 10
25.4393
 20
110.8425
 30
0.0
 10
25.4393
 20
110.8425
 30
0.0
 10
25.1707
 20
112.6916
 30
0.0
 10
23.507
 20
116.0223
 30
0.0
 10
22.1367
 20
117.1349
 30
0.0
 10
22.1367
 20
117.1349
 30
0.0
 10
22.1367
 20
117.1349
 30
0.0
 10
22.1367
 20
117.135
 30
0.0
 10
22.1367
 20
117.135
 30
0.0
  0
SPLINE
  5
88
330
1F
100
AcDbEntity
  8
layer 1
 62
     7
100
AcDbSpline
210
0.0
220
0.0
230
1.0
 70
    11
 71
     3
 72
    28
 73
    24
 74
     0
 42
0.0000000001
 43
0.0000000001
 12
1.0
 22
0.0
 32
0.0
 13
1.0
 23
0.0
 33
0.0
 40
0.0
 40
0.0
 40
0.0
 40
0.0
 40
0.1428571428571428
 40
0.1428571428571428
 40
0.1428571428571428
 40
0.1428571428571428
 40
0.2857142857142857
 40
0.2857142857142857
 40
0.2857142857142857
 40
0.2857142857142857
 40
0.4285714285714285
 40
0.4285714285714285
 40
0.4285714285714285
 40
0.4285714285714285
 40
0.5714285714285714
 40
0.5714285714285714
 40
0.5714285714285714
 40
0.5714285714285714
 40
0.7142857142857143
 40
0.7142857142857143
 40
0.7142857142857143
 40
0.7142857142857143
 40
1.0
 40
1.0
 40
1.0
 40
1.0
 10
24.398
 20
94.7349
 30
0.0
 10
23.3953
 20
93.3721
 30
0.0
 10
22.4103
 20
91.0775
 30
0.0
 10
21.2163
 20
89.7151
 30
0.0
 10
21.2163
 20
89.7151
 30
0.0
 10
23.1282
 20
87.8796
 30
0.0
 10
25.4813
 20
83.9904
 30
0.0
 10
26.5005
 20
80.5384
 30
0.0
 10
26.5005
 20
80.5384
 30
0.0
 10
27.5197
 20
83.9904
 30
0.0
 10
29.8728
 20
87.8796
 30
0.0
 10
31.7847
 20
89.7151
 30
0.0
 10
31.7847
 20
89.7151
 30
0.0
 10
30.5907
 20
91.0775
 30
0.0
 10
29.6058
 20
93.3721
 30
0.0
 10
28.603
 20
94.7349
 30
0.0
 10
28.603
 20
94.7349
 30
0.0
 10
27.8078
 20
93.323
 30
0.0
 10
27.6113
 20
92.8824
 30
0.0
 10
26.5005
 20
91.4024
 30
0.0
 10
26.5005
 20
91.4024
 30
0.0
 10
25.3896
 20
92.8824
 30
0.0
 10
25.1932
 20
93.323
 30
0.0
 10
24.398
 20
94.7349
 30
0.0
  0
SPLINE
  5
89
330
1F
100
AcDbEntity
  8
layer 1
 62
     7
100
AcDbSpline
210
0.0
220
0.0
230
1.0
 70
    11
 71
     3
 72
    32
 73
    28
 74
     0
 42
0.0000000001
 43
0.0000000001
 12
1.0
 22
0.0
 32
0.0
 13
1.0
 23
0.0
 33
0.0
 40
0.0
 40
0.0
 40
0.0
 40
0.0
 40
0.125
 40
0.125
 40
0.125
 40
0.125
 40
0.25
 40
0.25
 40
0.25
 40
0.25
 40
0.375
 40
0.375
 40
0.375
 40
0.375
 40
0.5
 40
0.5
 40
0.5
 40
0.5
 40
0.625
 40
0.625
 40
0.625
 40
0.625
 40
0.75
 40
0.75
 40
0.75
 40
0.75
 40
1.0
 40
1.0
 40
1.0
 40
1.0
 10
2.7389
 20
74.4341
 30
0.0
 10
3.841
 20
70.6157
 30
0.0
 10
7.9319
 20
66.8575
 30
0.0
 10
14.5614
 20
67.3763
 30
0.0
 10
14.5614
 20
67.3763
 30
0.0
 10
10.0679
 20
71.9874
 30
0.0
 10
10.7014
 20
79.2836
 30
0.0
 10
13.4212
 20
84.4803
 30
0.0
 10
13.4212
 20
84.4803
 30
0.0
 10
8.3745
 20
82.583
 30
0.0
 10
4.7101
 20
83.1466
 30
0.0
 10
0.3336
 20
84.1469
 30
0.0
 10
0.3336
 20
84.1469
 30
0.0
 10
1.2036
 20
82.4976
 30
0.0
 10
1.6723
 20
81.6766
 30
0.0
 10
1.4288
 20
78.9765
 30
0.0
 10
1.4288
 20
78.9765
 30
0.0
 10
3.1445
 20
82.5602
 30
0.0
 10
7.3973
 20
82.7923
 30
0.0
 10
8.4398
 20
80.7279
 30
0.0
 10
8.4398
 20
80.7279
 30
0.0
 10
4.9728
 20
80.2601
 30
0.0
 10
9.0416
 20
73.6174
 30
0.0
 10
2.7389
 20
74.4341
 30
0.0
 10
2.7389
 20
74.4341
 30
0.0
 10
2.7389
 20
74.4341
 30
0.0
 10
2.7389
 20
74.4341
 30
0.0
 10
2.7389
 20
74.4341
 30
0.0
  0
SPLINE
  5
8A
330
1F
100
AcDbEntity
  8
layer 1
 62
     7
100
AcDbSpline
210
0.0
220
0.0
230
1.0
 70
    11
 71
     3
 72
    36
 73
    32
 74
     0
 42
0.0000000001
 43
0.0000000001
 12
1.0
 22
0.0
 32
0.0
 13
1.0
 23
0.0
 33
0.0
 40
0.0
 40
0.0
 40
0.0
 40
0.0
 40
0.1111111111111111
 40
0.1111111111111111
 40
0.1111111111111111
 40
0.1111111111111111
 40
0.2222222222222222
 40
0.2222222222222222
 40
0.2222222222222222
 40
0.2222222222222222
 40
0.3333333333333333
 40
0.3333333333333333
 40
0.3333333333333333
 40
0.3333333333333333
 40
0.4444444444444444
 40
0.4444444444444444
 40
0.4444444444444444
 40
0.4444444444444444
 40
0.5555555555555556
 40
0.5555555555555556
 40
0.5555555555555556
 40
0.5555555555555556
 40
0.6666666666666666
 40
0.6666666666666666
 40
0.6666666666666666
 40
0.6666666666666666
 40
0.7777777777777778
 40
0.7777777777777778
 40
0.7777777777777778
 40
0.7777777777777778
 40
1.0
 40
1.0
 40
1.0
 40
1.0
 10
-6.2053
 20
74.5261
 30
0.0
 10
-6.6712
 20
76.4338
 30
0.0
 10
-6.0946
 20
79.3076
 30
0.0
 10
-11.3722
 20
78.3154
 30
0.0
 10
-11.3722
 20
78.3154
 30
0.0
 10
-11.3722
 20
78.3154
 30
0.0
 10
-11.3722
 20
94.0405
 30
0.0
 10
-11.3722
 20
94.0405
 30
0.0
 10
-11.3722
 20
94.0405
 30
0.0
 10
-9.109
 20
90.155
 30
0.0
 10
-7.7816
 20
89.056
 30
0.0
 10
-3.5243
 20
85.8015
 30
0.0
 10
-3.5243
 20
85.8015
 30
0.0
 10
-7.8539
 20
86.1404
 30
0.0
 10
-9.8522
 20
83.5548
 30
0.0
 10
-8.2965
 20
80.815
 30
0.0
 10
-8.2965
 20
80.815
 30
0.0
 10
-7.8382
 20
82.0543
 30
0.0
 10
-5.4709
 20
82.633
 30
0.0
 10
-3.8133
 20
81.4789
 30
0.0
 10
-3.8133
 20
81.4789
 30
0.0
 10
-2.5014
 20
80.5655
 30
0.0
 10
-2.3615
 20
78.5604
 30
0.0
 10
-0.9672
 20
76.9589
 30
0.0
 10
-0.9672
 20
76.9589
 30
0.0
 10
-3.9023
 20
77.2068
 30
0.0
 10
-5.0323
 20
76.8109
 30
0.0
 10
-6.2054
 20
74.526
 30
0.0
 10
-6.2054
 20
74.526
 30
0.0
 10
-6.2054
 20
74.526
 30
0.0
 10
-6.2053
 20
74.5261
 30
0.0
 10
-6.2053
 20
74.5261
 30
0.0
  0
SPLINE
  5
8B
330
1F
100
AcDbEntity
  8
layer 1
 62
     7
100
AcDbSpline
210
0.0
220
0.0
230
1.0
 70
    11
 71
     3
 72
    32
 73
    28
 74
     0
 42
0.0000000001
 43
0.0000000001
 12
1.0
 22
0.0
 32
0.0
 13
1.0
 23
0.0
 33
0.0
 40
0.0
 40
0.0
 40
0.0
 40
0.0
 40
0.125
 40
0.125
 40
0.125
 40
0.125
 40
0.25
 40
0.25
 40
0.25
 40
0.25
 40
0.375
 40
0.375
 40
0.375
 40
0.375
 40
0.5
 40
0.5
 40
0.5
 40
0.5
 40
0.625
 40
0.625
 40
0.625
 40
0.625
 40
0.75
 40
0.75
 40
0.75
 40
0.75
 40
1.0
 40
1.0
 40
1.0
 40
1.0
 10
14.8296
 20
75.4464
 30
0.0
 10
15.0319
 20
73.2588
 30
0.0
 10
15.355
 20
70.4004
 30
0.0
 10
17.7669
 20
68.1074
 30
0.0
 10
17.7669
 20
68.1074
 30
0.0
 10
21.5551
 20
70.3268
 30
0.0
 10
23.1507
 20
72.3046
 30
0.0
 10
24.0546
 20
74.6291
 30
0.0
 10
24.0546
 20
74.6291
 30
0.0
 10
21.1778
 20
75.8681
 30
0.0
 10
22.071
 20
79.8279
 30
0.0
 10
24.3414
 20
80.2476
 30
0.0
 10
24.3414
 20
80.2476
 30
0.0
 10
23.5454
 20
83.6358
 30
0.0
 10
21.7449
 20
86.3649
 30
0.0
 10
20.0008
 20
87.7983
 30
0.0
 10
20.0008
 20
87.7983
 30
0.0
 10
19.5698
 20
86.7635
 30
0.0
 10
18.8303
 20
86.0089
 30
0.0
 10
17.804
 20
84.2634
 30
0.0
 10
17.804
 20
84.2634
 30
0.0
 10
15.5089
 20
80.3269
 30
0.0
 10
16.5579
 20
76.6215
 30
0.0
 10
20.5868
 20
77.8036
 30
0.0
 10
20.5868
 20
77.8036
 30
0.0
 10
20.4377
 20
75.9861
 30
0.0
 10
18.208
 20
72.4364
 30
0.0
 10
14.8296
 20
75.4464
 30
0.0
  0
SPLINE
  5
8C
330
1F
100
AcDbEntity
  8
layer 1
 62
     7
100
AcDbSpline
210
0.0
220
0.0
230
1.0
 70
    11
 71
     3
 72
    20
 73
    16
 74
     0
 42
0.0000000001
 43
0.0000000001
 12
1.0
 22
0.0
 32
0.0
 13
1.0
 23
0.0
 33
0.0
 40
0.0
 40
0.0
 40
0.0
 40
0.0
 40
0.2
 40
0.2
 40
0.2
 40
0.2
 40
0.4
 40
0.4
 40
0.4
 40
0.4
 40
0.6
 40
0.6
 40
0.6
 40
0.6
 40
1.0
 40
1.0
 40
1.0
 40
1.0
 10
22.5201
 20
120.2612
 30
0.0
 10
21.4386
 20
121.3638
 30
0.0
 10
19.7628
 20
122.4286
 30
0.0
 10
17.9487
 20
123.7385
 30
0.0
 10
17.9487
 20
123.7385
 30
0.0
 10
17.9487
 20
123.7385
 30
0.0
 10
25.7565
 20
123.7385
 30
0.0
 10
25.7565
 20
123.7385
 30
0.0
 10
25.7565
 20
123.7385
 30
0.0
 10
24.6054
 20
122.4294
 30
0.0
 10
23.8904
 20
121.5707
 30
0.0
 10
22.52
 20
120.2612
 30
0.0
 10
22.52
 20
120.2612
 30
0.0
 10
22.52
 20
120.2612
 30
0.0
 10
22.5201
 20
120.2612
 30
0.0
 10
22.5201
 20
120.2612
 30
0.0
  0
SPLINE
  5
8D
330
1F
100
AcDbEntity
  8
layer 1
 62
     7
100
AcDbSpline
210
0.0
220
0.0
230
1.0
 70
    11
 71
     3
 72
    20
 73
    16
 74
     0
 42
0.0000000001
 43
0.0000000001
 12
1.0
 22
0.0
 32
0.0
 13
1.0
 23
0.0
 33
0.0
 40
0.0
 40
0.0
 40
0.0
 40
0.0
 40
0.2
 40
0.2
 40
0.2
 40
0.2
 40
0.4
 40
0.4
 40
0.4
 40
0.4
 40
0.6
 40
0.6
 40
0.6
 40
0.6
 40
1.0
 40
1.0
 40
1.0
 40
1.0
 10
0.2059
 20
123.7922
 30
0.0
 10
-2.0158
 20
122.7307
 30
0.0
 10
-4.1087
 20
121.537
 30
0.0
 10
-6.4676
 20
119.6625
 30
0.0
 10
-6.4676
 20
119.6625
 30
0.0
 10
-8.1416
 20
120.8506
 30
0.0
 10
-10.4029
 20
120.2176
 30
0.0
 10
-11.3722
 20
118.2452
 30
0.0
 10
-11.3722
 20
118.2452
 30
0.0
 10
-11.3722
 20
120.6851
 30
0.0
 10
-11.3722
 20
121.7971
 30
0.0
 10
-11.3722
 20
123.7922
 30
0.0
 10
-11.3722
 20
123.7922
 30
0.0
 10
-11.3722
 20
123.7922
 30
0.0
 10
0.2059
 20
123.7922
 30
0.0
 10
0.2059
 20
123.7922
 30
0.0
  0
SPLINE
  5
8E
330
1F
100
AcDbEntity
  8
layer 1
 62
     7
100
AcDbSpline
210
0.0
220
0.0
230
1.0
 70
    11
 71
     3
 72
    16
 73
    12
 74
     0
 42
0.0000000001
 43
0.0000000001
 12
1.0
 22
0.0
 32
0.0
 13
1.0
 23
0.0
 33
0.0
 40
0.0
 40
0.0
 40
0.0
 40
0.0
 40
0.25
 40
0.25
 40
0.25
 40
0.25
 40
0.5
 40
0.5
 40
0.5
 40
0.5
 40
1.0
 40
1.0
 40
1.0
 40
1.0
 10
-11.3496
 20
115.319
 30
0.0
 10
-11.1134
 20
114.804
 30
0.0
 10
-10.4305
 20
113.9096
 30
0.0
 10
-9.6196
 20
113.6255
 30
0.0
 10
-9.6196
 20
113.6255
 30
0.0
 10
-10.4521
 20
112.2325
 30
0.0
 10
-11.0191
 20
110.6262
 30
0.0
 10
-11.3721
 20
109.007
 30
0.0
 10
-11.3721
 20
109.007
 30
0.0
 10
-11.3721
 20
111.1993
 30
0.0
 10
-11.3496
 20
113.9986
 30
0.0
 10
-11.3496
 20
115.319
 30
0.0
  0
SPLINE
  5
8F
330
1F
100
AcDbEntity
  8
layer 1
 62
     7
100
AcDbSpline
210
0.0
220
0.0
230
1.0
 70
    11
 71
     3
 72
    40
 73
    36
 74
     0
 42
0.0000000001
 43
0.0000000001
 12
1.0
 22
0.0
 32
0.0
 13
1.0
 23
0.0
 33
0.0
 40
0.0
 40
0.0
 40
0.0
 40
0.0
 40
0.1
 40
0.1
 40
0.1
 40
0.1
 40
0.2
 40
0.2
 40
0.2
 40
0.2
 40
0.3
 40
0.3
 40
0.3
 40
0.3
 40
0.4
 40
0.4
 40
0.4
 40
0.4
 40
0.5
 40
0.5
 40
0.5
 40
0.5
 40
0.6
 40
0.6
 40
0.6
 40
0.6
 40
0.7
 40
0.7
 40
0.7
 40
0.7
 40
0.8
 40
0.8
 40
0.8
 40
0.8
 40
1.0
 40
1.0
 40
1.0
 40
1.0
 10
-2.2452
 20
96.0655
 30
0.0
 10
-1.5163
 20
98.746
 30
0.0
 10
-1.068
 20
100.1088
 30
0.0
 10
-0.9164
 20
102.0397
 30
0.0
 10
-0.9164
 20
102.0397
 30
0.0
 10
-0.1629
 20
107.0951
 30
0.0
 10
-4.6821
 20
108.633
 30
0.0
 10
0.5356
 20
113.969
 30
0.0
 10
0.5356
 20
113.969
 30
0.0
 10
0.0005
 20
115.6196
 30
0.0
 10
-2.6095
 20
118.145
 30
0.0
 10
-5.3717
 20
117.8872
 30
0.0
 10
-5.3717
 20
117.8872
 30
0.0
 10
-4.5399
 20
115.9253
 30
0.0
 10
-5.6522
 20
113.7924
 30
0.0
 10
-7.7152
 20
113.3779
 30
0.0
 10
-7.7152
 20
113.3779
 30
0.0
 10
-8.8033
 20
111.2342
 30
0.0
 10
-9.2289
 20
105.5807
 30
0.0
 10
-6.9973
 20
101.7173
 30
0.0
 10
-6.9973
 20
101.7173
 30
0.0
 10
-6.1241
 20
102.601
 30
0.0
 10
-4.2627
 20
103.7625
 30
0.0
 10
-2.9569
 20
103.4959
 30
0.0
 10
-2.9569
 20
103.4959
 30
0.0
 10
-3.918
 20
102.2003
 30
0.0
 10
-5.3772
 20
100.4396
 30
0.0
 10
-4.395
 20
98.9684
 30
0.0
 10
-4.395
 20
98.9684
 30
0.0
 10
-3.6936
 20
97.9429
 30
0.0
 10
-2.9403
 20
96.7292
 30
0.0
 10
-2.2453
 20
96.0655
 30
0.0
 10
-2.2453
 20
96.0655
 30
0.0
 10
-2.2453
 20
96.0655
 30
0.0
 10
-2.2452
 20
96.0655
 30
0.0
 10
-2.2452
 20
96.0655
 30
0.0
  0
SPLINE
  5
90
330
1F
100
AcDbEntity
  8
layer 1
 62
     7
100
AcDbSpline
210
0.0
220
0.0
230
1.0
 70
    11
 71
     3
 72
    24
 73
    20
 74
     0
 42
0.0000000001
 43
0.0000000001
 12
1.0
 22
0.0
 32
0.0
 13
1.0
 23
0.0
 33
0.0
 40
0.0
 40
0.0
 40
0.0
 40
0.0
 40
0.1666666666666667
 40
0.1666666666666667
 40
0.1666666666666667
 40
0.1666666666666667
 40
0.3333333333333333
 40
0.3333333333333333
 40
0.3333333333333333
 40
0.3333333333333333
 40
0.5
 40
0.5
 40
0.5
 40
0.5
 40
0.6666666666666666
 40
0.6666666666666666
 40
0.6666666666666666
 40
0.6666666666666666
 40
1.0
 40
1.0
 40
1.0
 40
1.0
 10
37.7374
 20
-107.928
 30
0.0
 10
38.6952
 20
-107.4822
 30
0.0
 10
39.5517
 20
-106.9858
 30
0.0
 10
40.8831
 20
-106.936
 30
0.0
 10
40.8831
 20
-106.936
 30
0.0
 10
39.6278
 20
-105.556
 30
0.0
 10
39.6756
 20
-103.1897
 30
0.0
 10
41.5518
 20
-101.9703
 30
0.0
 10
41.5518
 20
-101.9703
 30
0.0
 10
39.3044
 20
-101.1412
 30
0.0
 10
38.1572
 20
-100.2101
 30
0.0
 10
37.2583
 20
-99.504
 30
0.0
 10
37.2583
 20
-99.504
 30
0.0
 10
35.129
 20
-101.9642
 30
0.0
 10
33.6557
 20
-102.9297
 30
0.0
 10
32.4407
 20
-104.0785
 30
0.0
 10
32.4407
 20
-104.0785
 30
0.0
 10
33.1436
 20
-104.9547
 30
0.0
 10
34.6159
 20
-106.7692
 30
0.0
 10
37.7374
 20
-107.928
 30
0.0
  0
SPLINE
  5
91
330
1F
100
AcDbEntity
  8
layer 1
 62
     7
100
AcDbSpline
210
0.0
220
0.0
230
1.0
 70
    11
 71
     3
 72
    16
 73
    12
 74
     0
 42
0.0000000001
 43
0.0000000001
 12
1.0
 22
0.0
 32
0.0
 13
1.0
 23
0.0
 33
0.0
 40
0.0
 40
0.0
 40
0.0
 40
0.0
 40
0.25
 40
0.25
 40
0.25
 40
0.25
 40
0.5
 40
0.5
 40
0.5
 40
0.5
 40
1.0
 40
1.0
 40
1.0
 40
1.0
 10
64.3507
 20
-100.8779
 30
0.0
 10
64.1145
 20
-100.3629
 30
0.0
 10
63.4316
 20
-99.4685
 30
0.0
 10
62.6206
 20
-99.1844
 30
0.0
 10
62.6206
 20
-99.1844
 30
0.0
 10
63.4532
 20
-97.7914
 30
0.0
 10
64.0202
 20
-96.185
 30
0.0
 10
64.3732
 20
-94.5658
 30
0.0
 10
64.3732
 20
-94.5658
 30
0.0
 10
64.3732
 20
-96.7581
 30
0.0
 10
64.3507
 20
-99.5575
 30
0.0
 10
64.3507
 20
-100.8779
 30
0.0
  0
SPLINE
  5
92
330
1F
100
AcDbEntity
  8
layer 1
 62
     7
100
AcDbSpline
210
0.0
220
0.0
230
1.0
 70
    11
 71
     3
 72
    40
 73
    36
 74
     0
 42
0.0000000001
 43
0.0000000001
 12
1.0
 22
0.0
 32
0.0
 13
1.0
 23
0.0
 33
0.0
 40
0.0
 40
0.0
 40
0.0
 40
0.0
 40
0.1
 40
0.1
 40
0.1
 40
0.1
 40
0.2
 40
0.2
 40
0.2
 40
0.2
 40
0.3
 40
0.3
 40
0.3
 40
0.3
 40
0.4
 40
0.4
 40
0.4
 40
0.4
 40
0.5
 40
0.5
 40
0.5
 40
0.5
 40
0.6
 40
0.6
 40
0.6
 40
0.6
 40
0.7
 40
0.7
 40
0.7
 40
0.7
 40
0.8
 40
0.8
 40
0.8
 40
0.8
 40
1.0
 40
1.0
 40
1.0
 40
1.0
 10
55.2462
 20
-81.6243
 30
0.0
 10
54.5174
 20
-84.3049
 30
0.0
 10
54.069
 20
-85.6676
 30
0.0
 10
53.9175
 20
-87.5986
 30
0.0
 10
53.9175
 20
-87.5986
 30
0.0
 10
53.1639
 20
-92.654
 30
0.0
 10
57.6831
 20
-94.192
 30
0.0
 10
52.4654
 20
-99.5279
 30
0.0
 10
52.4654
 20
-99.5279
 30
0.0
 10
53.0005
 20
-101.1785
 30
0.0
 10
55.6105
 20
-103.704
 30
0.0
 10
58.3727
 20
-103.4461
 30
0.0
 10
58.3727
 20
-103.4461
 30
0.0
 10
57.541
 20
-101.4842
 30
0.0
 10
58.6532
 20
-99.3512
 30
0.0
 10
60.7163
 20
-98.9367
 30
0.0
 10
60.7163
 20
-98.9367
 30
0.0
 10
61.8043
 20
-96.7931
 30
0.0
 10
62.23
 20
-91.1395
 30
0.0
 10
59.9984
 20
-87.2762
 30
0.0
 10
59.9984
 20
-87.2762
 30
0.0
 10
59.1252
 20
-88.16
 30
0.0
 10
57.2637
 20
-89.3215
 30
0.0
 10
55.9579
 20
-89.0548
 30
0.0
 10
55.9579
 20
-89.0548
 30
0.0
 10
56.9191
 20
-87.7592
 30
0.0
 10
58.3782
 20
-85.9985
 30
0.0
 10
57.396
 20
-84.5273
 30
0.0
 10
57.396
 20
-84.5273
 30
0.0
 10
56.6946
 20
-83.5018
 30
0.0
 10
55.9413
 20
-82.2881
 30
0.0
 10
55.2462
 20
-81.6244
 30
0.0
 10
55.2462
 20
-81.6244
 30
0.0
 10
55.2462
 20
-81.6244
 30
0.0
 10
55.2462
 20
-81.6243
 30
0.0
 10
55.2462
 20
-81.6243
 30
0.0
  0
SPLINE
  5
93
330
1F
100
AcDbEntity
  8
layer 1
 62
     7
100
AcDbSpline
210
0.0
220
0.0
230
1.0
 70
    11
 71
     3
 72
    24
 73
    20
 74
     0
 42
0.0000000001
 43
0.0000000001
 12
1.0
 22
0.0
 32
0.0
 13
1.0
 23
0.0
 33
0.0
 40
0.0
 40
0.0
 40
0.0
 40
0.0
 40
0.1666666666666667
 40
0.1666666666666667
 40
0.1666666666666667
 40
0.1666666666666667
 40
0.3333333333333333
 40
0.3333333333333333
 40
0.3333333333333333
 40
0.3333333333333333
 40
0.5
 40
0.5
 40
0.5
 40
0.5
 40
0.6666666666666666
 40
0.6666666666666666
 40
0.6666666666666666
 40
0.6666666666666666
 40
1.0
 40
1.0
 40
1.0
 40
1.0
 10
64.3732
 20
-103.359
 30
0.0
 10
63.4039
 20
-105.3314
 30
0.0
 10
61.1427
 20
-105.9644
 30
0.0
 10
59.4686
 20
-104.7763
 30
0.0
 10
59.4686
 20
-104.7763
 30
0.0
 10
57.1098
 20
-106.6509
 30
0.0
 10
55.0168
 20
-107.8446
 30
0.0
 10
52.7951
 20
-108.906
 30
0.0
 10
52.7951
 20
-108.906
 30
0.0
 10
52.7951
 20
-108.906
 30
0.0
 10
64.3732
 20
-108.906
 30
0.0
 10
64.3732
 20
-108.906
 30
0.0
 10
64.3732
 20
-108.906
 30
0.0
 10
64.3732
 20
-106.9109
 30
0.0
 10
64.3732
 20
-105.799
 30
0.0
 10
64.3732
 20
-103.359
 30
0.0
 10
64.3732
 20
-103.359
 30
0.0
 10
64.3732
 20
-103.359
 30
0.0
 10
64.3732
 20
-103.359
 30
0.0
 10
64.3732
 20
-103.359
 30
0.0
  0
SPLINE
  5
94
330
1F
100
AcDbEntity
  8
layer 1
 62
     7
100
AcDbSpline
210
0.0
220
0.0
230
1.0
 70
    11
 71
     3
 72
    28
 73
    24
 74
     0
 42
0.0000000001
 43
0.0000000001
 12
1.0
 22
0.0
 32
0.0
 13
1.0
 23
0.0
 33
0.0
 40
0.0
 40
0.0
 40
0.0
 40
0.0
 40
0.1428571428571428
 40
0.1428571428571428
 40
0.1428571428571428
 40
0.1428571428571428
 40
0.2857142857142857
 40
0.2857142857142857
 40
0.2857142857142857
 40
0.2857142857142857
 40
0.4285714285714285
 40
0.4285714285714285
 40
0.4285714285714285
 40
0.4285714285714285
 40
0.5714285714285714
 40
0.5714285714285714
 40
0.5714285714285714
 40
0.5714285714285714
 40
0.7142857142857143
 40
0.7142857142857143
 40
0.7142857142857143
 40
0.7142857142857143
 40
1.0
 40
1.0
 40
1.0
 40
1.0
 10
37.7374
 20
6.4739
 30
0.0
 10
38.6952
 20
6.028
 30
0.0
 10
39.5517
 20
5.5317
 30
0.0
 10
40.8831
 20
5.4819
 30
0.0
 10
40.8831
 20
5.4819
 30
0.0
 10
39.6278
 20
4.1019
 30
0.0
 10
39.6756
 20
1.7355
 30
0.0
 10
41.5518
 20
0.5161
 30
0.0
 10
41.5518
 20
0.5161
 30
0.0
 10
39.3044
 20
-0.313
 30
0.0
 10
38.1572
 20
-1.244
 30
0.0
 10
37.2583
 20
-1.9502
 30
0.0
 10
37.2583
 20
-1.9502
 30
0.0
 10
35.129
 20
0.51
 30
0.0
 10
33.6557
 20
1.4755
 30
0.0
 10
32.4407
 20
2.6244
 30
0.0
 10
32.4407
 20
2.6244
 30
0.0
 10
33.1436
 20
3.5005
 30
0.0
 10
34.6159
 20
5.3151
 30
0.0
 10
37.7374
 20
6.4738
 30
0.0
 10
37.7374
 20
6.4738
 30
0.0
 10
37.7374
 20
6.4738
 30
0.0
 10
37.7374
 20
6.4739
 30
0.0
 10
37.7374
 20
6.4739
 30
0.0
  0
SPLINE
  5
95
330
1F
100
AcDbEntity
  8
layer 1
 62
     7
100
AcDbSpline
210
0.0
220
0.0
230
1.0
 70
    11
 71
     3
 72
    24
 73
    20
 74
     0
 42
0.0000000001
 43
0.0000000001
 12
1.0
 22
0.0
 32
0.0
 13
1.0
 23
0.0
 33
0.0
 40
0.0
 40
0.0
 40
0.0
 40
0.0
 40
0.1666666666666667
 40
0.1666666666666667
 40
0.1666666666666667
 40
0.1666666666666667
 40
0.3333333333333333
 40
0.3333333333333333
 40
0.3333333333333333
 40
0.3333333333333333
 40
0.5
 40
0.5
 40
0.5
 40
0.5
 40
0.6666666666666666
 40
0.6666666666666666
 40
0.6666666666666666
 40
0.6666666666666666
 40
1.0
 40
1.0
 40
1.0
 40
1.0
 10
50.0259
 20
6.2151
 30
0.0
 10
48.5538
 20
5.8088
 30
0.0
 10
46.9241
 20
5.4615
 30
0.0
 10
45.3553
 20
5.6887
 30
0.0
 10
45.3553
 20
5.6887
 30
0.0
 10
47.0851
 20
4.2726
 30
0.0
 10
46.629
 20
1.7695
 30
0.0
 10
45.3068
 20
0.7722
 30
0.0
 10
45.3068
 20
0.7722
 30
0.0
 10
47.3297
 20
0.8421
 30
0.0
 10
48.9731
 20
0.1528
 30
0.0
 10
50.5051
 20
-0.8711
 30
0.0
 10
50.5051
 20
-0.8711
 30
0.0
 10
51.5243
 20
0.6872
 30
0.0
 10
53.0838
 20
2.3304
 30
0.0
 10
55.0448
 20
2.9337
 30
0.0
 10
55.0448
 20
2.9337
 30
0.0
 10
53.9449
 20
3.7437
 30
0.0
 10
53.0833
 20
4.9518
 30
0.0
 10
50.0259
 20
6.2151
 30
0.0
  0
SPLINE
  5
96
330
1F
100
AcDbEntity
  8
layer 1
 62
     7
100
AcDbSpline
210
0.0
220
0.0
230
1.0
 70
    11
 71
     3
 72
    40
 73
    36
 74
     0
 42
0.0000000001
 43
0.0000000001
 12
1.0
 22
0.0
 32
0.0
 13
1.0
 23
0.0
 33
0.0
 40
0.0
 40
0.0
 40
0.0
 40
0.0
 40
0.1
 40
0.1
 40
0.1
 40
0.1
 40
0.2
 40
0.2
 40
0.2
 40
0.2
 40
0.3
 40
0.3
 40
0.3
 40
0.3
 40
0.4
 40
0.4
 40
0.4
 40
0.4
 40
0.5
 40
0.5
 40
0.5
 40
0.5
 40
0.6
 40
0.6
 40
0.6
 40
0.6
 40
0.7
 40
0.7
 40
0.7
 40
0.7
 40
0.8
 40
0.8
 40
0.8
 40
0.8
 40
1.0
 40
1.0
 40
1.0
 40
1.0
 10
58.5955
 20
-25.6223
 30
0.0
 10
56.5665
 20
-25.3326
 30
0.0
 10
54.6221
 20
-24.5955
 30
0.0
 10
55.0844
 20
-21.7257
 30
0.0
 10
55.0844
 20
-21.7257
 30
0.0
 10
53.5267
 20
-22.1297
 30
0.0
 10
50.0924
 20
-22.9875
 30
0.0
 10
47.6349
 20
-22.7677
 30
0.0
 10
47.6349
 20
-22.7677
 30
0.0
 10
49.1477
 20
-24.6451
 30
0.0
 10
48.6071
 20
-26.6502
 30
0.0
 10
47.3283
 20
-27.6071
 30
0.0
 10
47.3283
 20
-27.6071
 30
0.0
 10
46.106
 20
-28.5218
 30
0.0
 10
44.8932
 20
-28.4535
 30
0.0
 10
43.9275
 20
-28.0004
 30
0.0
 10
43.9275
 20
-28.0004
 30
0.0
 10
42.2637
 20
-27.2198
 30
0.0
 10
40.9779
 20
-24.6306
 30
0.0
 10
43.3613
 20
-22.4636
 30
0.0
 10
43.3613
 20
-22.4636
 30
0.0
 10
42.1247
 20
-22.0821
 30
0.0
 10
40.9862
 20
-21.6365
 30
0.0
 10
40.3865
 20
-21.3828
 30
0.0
 10
40.3865
 20
-21.3828
 30
0.0
 10
38.8094
 20
-23.1769
 30
0.0
 10
37.2285
 20
-24.4851
 30
0.0
 10
35.69
 20
-25.8128
 30
0.0
 10
35.69
 20
-25.8128
 30
0.0
 10
43.6417
 20
-33.3513
 30
0.0
 10
55.0897
 20
-29.882
 30
0.0
 10
58.5954
 20
-25.6223
 30
0.0
 10
58.5954
 20
-25.6223
 30
0.0
 10
58.5954
 20
-25.6223
 30
0.0
 10
58.5955
 20
-25.6223
 30
0.0
 10
58.5955
 20
-25.6223
 30
0.0
  0
SPLINE
  5
97
330
1F
100
AcDbEntity
  8
layer 1
 62
     7
100
AcDbSpline
210
0.0
220
0.0
230
1.0
 70
    11
 71
     3
 72
    32
 73
    28
 74
     0
 42
0.0000000001
 43
0.0000000001
 12
1.0
 22
0.0
 32
0.0
 13
1.0
 23
0.0
 33
0.0
 40
0.0
 40
0.0
 40
0.0
 40
0.0
 40
0.125
 40
0.125
 40
0.125
 40
0.125
 40
0.25
 40
0.25
 40
0.25
 40
0.25
 40
0.375
 40
0.375
 40
0.375
 40
0.375
 40
0.5
 40
0.5
 40
0.5
 40
0.5
 40
0.625
 40
0.625
 40
0.625
 40
0.625
 40
0.75
 40
0.75
 40
0.75
 40
0.75
 40
1.0
 40
1.0
 40
1.0
 40
1.0
 10
53.3876
 20
-81.0499
 30
0.0
 10
48.4246
 20
-79.07
 30
0.0
 10
44.058
 20
-80.4054
 30
0.0
 10
41.749
 20
-81.6218
 30
0.0
 10
41.749
 20
-81.6218
 30
0.0
 10
43.7605
 20
-83.2913
 30
0.0
 10
45.2413
 20
-90.1279
 30
0.0
 10
42.4295
 20
-94.3134
 30
0.0
 10
42.4295
 20
-94.3134
 30
0.0
 10
47.0166
 20
-93.1516
 30
0.0
 10
50.1294
 20
-95.8294
 30
0.0
 10
51.1047
 20
-97.657
 30
0.0
 10
51.1047
 20
-97.657
 30
0.0
 10
51.9813
 20
-96.7431
 30
0.0
 10
52.9834
 20
-94.6351
 30
0.0
 10
52.1238
 20
-92.0269
 30
0.0
 10
52.1238
 20
-92.0269
 30
0.0
 10
50.7758
 20
-94.6914
 30
0.0
 10
47.5342
 20
-92.7174
 30
0.0
 10
47.2271
 20
-90.6529
 30
0.0
 10
47.2271
 20
-90.6529
 30
0.0
 10
46.4984
 20
-85.7545
 30
0.0
 10
49.8427
 20
-82.0716
 30
0.0
 10
53.3877
 20
-81.0499
 30
0.0
 10
53.3877
 20
-81.0499
 30
0.0
 10
53.3877
 20
-81.0499
 30
0.0
 10
53.3876
 20
-81.0499
 30
0.0
 10
53.3876
 20
-81.0499
 30
0.0
  0
SPLINE
  5
98
330
1F
100
AcDbEntity
  8
layer 1
 62
     7
100
AcDbSpline
210
0.0
220
0.0
230
1.0
 70
    11
 71
     3
 72
    16
 73
    12
 74
     0
 42
0.0000000001
 43
0.0000000001
 12
1.0
 22
0.0
 32
0.0
 13
1.0
 23
0.0
 33
0.0
 40
0.0
 40
0.0
 40
0.0
 40
0.0
 40
0.25
 40
0.25
 40
0.25
 40
0.25
 40
0.5
 40
0.5
 40
0.5
 40
0.5
 40
1.0
 40
1.0
 40
1.0
 40
1.0
 10
64.3732
 20
-83.5494
 30
0.0
 10
64.3732
 20
-84.5508
 30
0.0
 10
62.7013
 20
-85.6237
 30
0.0
 10
62.009
 20
-86.1021
 30
0.0
 10
62.009
 20
-86.1021
 30
0.0
 10
63.1228
 20
-87.4951
 30
0.0
 10
64.0202
 20
-89.8663
 30
0.0
 10
64.3732
 20
-91.4854
 30
0.0
 10
64.3732
 20
-91.4854
 30
0.0
 10
64.3732
 20
-89.2931
 30
0.0
 10
64.3732
 20
-84.8698
 30
0.0
 10
64.3732
 20
-83.5494
 30
0.0
  0
SPLINE
  5
99
330
1F
100
AcDbEntity
  8
layer 1
 62
     7
100
AcDbSpline
210
0.0
220
0.0
230
1.0
 70
    11
 71
     3
 72
    20
 73
    16
 74
     0
 42
0.0000000001
 43
0.0000000001
 12
1.0
 22
0.0
 32
0.0
 13
1.0
 23
0.0
 33
0.0
 40
0.0
 40
0.0
 40
0.0
 40
0.0
 40
0.2
 40
0.2
 40
0.2
 40
0.2
 40
0.4
 40
0.4
 40
0.4
 40
0.4
 40
0.6
 40
0.6
 40
0.6
 40
0.6
 40
1.0
 40
1.0
 40
1.0
 40
1.0
 10
29.4412
 20
-104.2044
 30
0.0
 10
27.8273
 20
-102.692
 30
0.0
 10
27.3741
 20
-101.2403
 30
0.0
 10
26.5005
 20
-98.8561
 30
0.0
 10
26.5005
 20
-98.8561
 30
0.0
 10
25.6269
 20
-101.2403
 30
0.0
 10
25.1737
 20
-102.692
 30
0.0
 10
23.5598
 20
-104.2044
 30
0.0
 10
23.5598
 20
-104.2044
 30
0.0
 10
24.4378
 20
-105.2121
 30
0.0
 10
25.2131
 20
-105.9715
 30
0.0
 10
26.5005
 20
-107.3006
 30
0.0
 10
26.5005
 20
-107.3006
 30
0.0
 10
27.7879
 20
-105.9715
 30
0.0
 10
28.5632
 20
-105.2121
 30
0.0
 10
29.4412
 20
-104.2044
 30
0.0
  0
SPLINE
  5
9A
330
1F
100
AcDbEntity
  8
layer 1
 62
     7
100
AcDbSpline
210
0.0
220
0.0
230
1.0
 70
    11
 71
     3
 72
    24
 73
    20
 74
     0
 42
0.0000000001
 43
0.0000000001
 12
1.0
 22
0.0
 32
0.0
 13
1.0
 23
0.0
 33
0.0
 40
0.0
 40
0.0
 40
0.0
 40
0.0
 40
0.1666666666666667
 40
0.1666666666666667
 40
0.1666666666666667
 40
0.1666666666666667
 40
0.3333333333333333
 40
0.3333333333333333
 40
0.3333333333333333
 40
0.3333333333333333
 40
0.5
 40
0.5
 40
0.5
 40
0.5
 40
0.6666666666666666
 40
0.6666666666666666
 40
0.6666666666666666
 40
0.6666666666666666
 40
1.0
 40
1.0
 40
1.0
 40
1.0
 10
30.8644
 20
-102.4241
 30
0.0
 10
32.3453
 20
-101.0019
 30
0.0
 10
34.3918
 20
-98.8047
 30
0.0
 10
35.5771
 20
-97.0521
 30
0.0
 10
35.5771
 20
-97.0521
 30
0.0
 10
34.5389
 20
-95.7416
 30
0.0
 10
34.0056
 20
-94.3223
 30
0.0
 10
33.5743
 20
-93.0634
 30
0.0
 10
33.5743
 20
-93.0634
 30
0.0
 10
32.532
 20
-96.5387
 30
0.0
 10
29.4522
 20
-97.7883
 30
0.0
 10
27.5617
 20
-96.1316
 30
0.0
 10
27.5617
 20
-96.1316
 30
0.0
 10
27.8303
 20
-97.9807
 30
0.0
 10
29.494
 20
-101.3114
 30
0.0
 10
30.8644
 20
-102.424
 30
0.0
 10
30.8644
 20
-102.424
 30
0.0
 10
30.8644
 20
-102.424
 30
0.0
 10
30.8644
 20
-102.4241
 30
0.0
 10
30.8644
 20
-102.4241
 30
0.0
  0
SPLINE
  5
9B
330
1F
100
AcDbEntity
  8
layer 1
 62
     7
100
AcDbSpline
210
0.0
220
0.0
230
1.0
 70
    11
 71
     3
 72
    16
 73
    12
 74
     0
 42
0.0000000001
 43
0.0000000001
 12
1.0
 22
0.0
 32
0.0
 13
1.0
 23
0.0
 33
0.0
 40
0.0
 40
0.0
 40
0.0
 40
0.0
 40
0.25
 40
0.25
 40
0.25
 40
0.25
 40
0.5
 40
0.5
 40
0.5
 40
0.5
 40
1.0
 40
1.0
 40
1.0
 40
1.0
 10
35.0176
 20
-108.9219
 30
0.0
 10
33.3478
 20
-107.9798
 30
0.0
 10
31.7184
 20
-106.8613
 30
0.0
 10
30.445
 20
-105.8129
 30
0.0
 10
30.445
 20
-105.8129
 30
0.0
 10
29.2166
 20
-106.9725
 30
0.0
 10
28.5241
 20
-107.5261
 30
0.0
 10
27.2098
 20
-108.9219
 30
0.0
 10
27.2098
 20
-108.9219
 30
0.0
 10
27.2098
 20
-108.9219
 30
0.0
 10
35.0176
 20
-108.9219
 30
0.0
 10
35.0176
 20
-108.9219
 30
0.0
  0
SPLINE
  5
9C
330
1F
100
AcDbEntity
  8
layer 1
 62
     7
100
AcDbSpline
210
0.0
220
0.0
230
1.0
 70
    11
 71
     3
 72
    28
 73
    24
 74
     0
 42
0.0000000001
 43
0.0000000001
 12
1.0
 22
0.0
 32
0.0
 13
1.0
 23
0.0
 33
0.0
 40
0.0
 40
0.0
 40
0.0
 40
0.0
 40
0.1428571428571428
 40
0.1428571428571428
 40
0.1428571428571428
 40
0.1428571428571428
 40
0.2857142857142857
 40
0.2857142857142857
 40
0.2857142857142857
 40
0.2857142857142857
 40
0.4285714285714285
 40
0.4285714285714285
 40
0.4285714285714285
 40
0.4285714285714285
 40
0.5714285714285714
 40
0.5714285714285714
 40
0.5714285714285714
 40
0.5714285714285714
 40
0.7142857142857143
 40
0.7142857142857143
 40
0.7142857142857143
 40
0.7142857142857143
 40
1.0
 40
1.0
 40
1.0
 40
1.0
 10
28.603
 20
-80.024
 30
0.0
 10
29.6058
 20
-78.6612
 30
0.0
 10
30.5907
 20
-76.3667
 30
0.0
 10
31.7848
 20
-75.0042
 30
0.0
 10
31.7848
 20
-75.0042
 30
0.0
 10
29.8729
 20
-73.1687
 30
0.0
 10
27.5198
 20
-69.2795
 30
0.0
 10
26.5005
 20
-65.8275
 30
0.0
 10
26.5005
 20
-65.8275
 30
0.0
 10
25.4814
 20
-69.2795
 30
0.0
 10
23.1282
 20
-73.1687
 30
0.0
 10
21.2163
 20
-75.0042
 30
0.0
 10
21.2163
 20
-75.0042
 30
0.0
 10
22.4104
 20
-76.3667
 30
0.0
 10
23.3953
 20
-78.6612
 30
0.0
 10
24.3981
 20
-80.024
 30
0.0
 10
24.3981
 20
-80.024
 30
0.0
 10
25.1933
 20
-78.6121
 30
0.0
 10
25.3897
 20
-78.1715
 30
0.0
 10
26.5005
 20
-76.6915
 30
0.0
 10
26.5005
 20
-76.6915
 30
0.0
 10
27.6114
 20
-78.1715
 30
0.0
 10
27.8078
 20
-78.6121
 30
0.0
 10
28.603
 20
-80.024
 30
0.0
  0
SPLINE
  5
9D
330
1F
100
AcDbEntity
  8
layer 1
 62
     7
100
AcDbSpline
210
0.0
220
0.0
230
1.0
 70
    11
 71
     3
 72
    32
 73
    28
 74
     0
 42
0.0000000001
 43
0.0000000001
 12
1.0
 22
0.0
 32
0.0
 13
1.0
 23
0.0
 33
0.0
 40
0.0
 40
0.0
 40
0.0
 40
0.0
 40
0.125
 40
0.125
 40
0.125
 40
0.125
 40
0.25
 40
0.25
 40
0.25
 40
0.25
 40
0.375
 40
0.375
 40
0.375
 40
0.375
 40
0.5
 40
0.5
 40
0.5
 40
0.5
 40
0.625
 40
0.625
 40
0.625
 40
0.625
 40
0.75
 40
0.75
 40
0.75
 40
0.75
 40
1.0
 40
1.0
 40
1.0
 40
1.0
 10
50.2622
 20
-59.7233
 30
0.0
 10
49.16
 20
-55.9049
 30
0.0
 10
45.0692
 20
-52.1466
 30
0.0
 10
38.4396
 20
-52.6655
 30
0.0
 10
38.4396
 20
-52.6655
 30
0.0
 10
42.9332
 20
-57.2766
 30
0.0
 10
42.2996
 20
-64.5728
 30
0.0
 10
39.5798
 20
-69.7695
 30
0.0
 10
39.5798
 20
-69.7695
 30
0.0
 10
44.6265
 20
-67.8722
 30
0.0
 10
48.2909
 20
-68.4358
 30
0.0
 10
52.6674
 20
-69.436
 30
0.0
 10
52.6674
 20
-69.436
 30
0.0
 10
51.7974
 20
-67.7868
 30
0.0
 10
51.3288
 20
-66.9658
 30
0.0
 10
51.5723
 20
-64.2656
 30
0.0
 10
51.5723
 20
-64.2656
 30
0.0
 10
49.8565
 20
-67.8493
 30
0.0
 10
45.6037
 20
-68.0815
 30
0.0
 10
44.5612
 20
-66.0171
 30
0.0
 10
44.5612
 20
-66.0171
 30
0.0
 10
48.0282
 20
-65.5492
 30
0.0
 10
43.9595
 20
-58.9066
 30
0.0
 10
50.2621
 20
-59.7233
 30
0.0
 10
50.2621
 20
-59.7233
 30
0.0
 10
50.2621
 20
-59.7233
 30
0.0
 10
50.2622
 20
-59.7233
 30
0.0
 10
50.2622
 20
-59.7233
 30
0.0
  0
SPLINE
  5
9E
330
1F
100
AcDbEntity
  8
layer 1
 62
     7
100
AcDbSpline
210
0.0
220
0.0
230
1.0
 70
    11
 71
     3
 72
    36
 73
    32
 74
     0
 42
0.0000000001
 43
0.0000000001
 12
1.0
 22
0.0
 32
0.0
 13
1.0
 23
0.0
 33
0.0
 40
0.0
 40
0.0
 40
0.0
 40
0.0
 40
0.1111111111111111
 40
0.1111111111111111
 40
0.1111111111111111
 40
0.1111111111111111
 40
0.2222222222222222
 40
0.2222222222222222
 40
0.2222222222222222
 40
0.2222222222222222
 40
0.3333333333333333
 40
0.3333333333333333
 40
0.3333333333333333
 40
0.3333333333333333
 40
0.4444444444444444
 40
0.4444444444444444
 40
0.4444444444444444
 40
0.4444444444444444
 40
0.5555555555555556
 40
0.5555555555555556
 40
0.5555555555555556
 40
0.5555555555555556
 40
0.6666666666666666
 40
0.6666666666666666
 40
0.6666666666666666
 40
0.6666666666666666
 40
0.7777777777777778
 40
0.7777777777777778
 40
0.7777777777777778
 40
0.7777777777777778
 40
1.0
 40
1.0
 40
1.0
 40
1.0
 10
59.2064
 20
-59.8152
 30
0.0
 10
59.6722
 20
-61.7229
 30
0.0
 10
59.0957
 20
-64.5968
 30
0.0
 10
64.3732
 20
-63.6046
 30
0.0
 10
64.3732
 20
-63.6046
 30
0.0
 10
64.3732
 20
-63.6046
 30
0.0
 10
64.3732
 20
-79.3297
 30
0.0
 10
64.3732
 20
-79.3297
 30
0.0
 10
64.3732
 20
-79.3297
 30
0.0
 10
62.1101
 20
-75.4442
 30
0.0
 10
60.7826
 20
-74.3452
 30
0.0
 10
56.5254
 20
-71.0907
 30
0.0
 10
56.5254
 20
-71.0907
 30
0.0
 10
60.8549
 20
-71.4296
 30
0.0
 10
62.8532
 20
-68.844
 30
0.0
 10
61.2975
 20
-66.1041
 30
0.0
 10
61.2975
 20
-66.1041
 30
0.0
 10
60.8392
 20
-67.3435
 30
0.0
 10
58.4719
 20
-67.9222
 30
0.0
 10
56.8143
 20
-66.768
 30
0.0
 10
56.8143
 20
-66.768
 30
0.0
 10
55.5024
 20
-65.8546
 30
0.0
 10
55.3625
 20
-63.8495
 30
0.0
 10
53.9683
 20
-62.2481
 30
0.0
 10
53.9683
 20
-62.2481
 30
0.0
 10
56.9034
 20
-62.496
 30
0.0
 10
58.0333
 20
-62.1001
 30
0.0
 10
59.2064
 20
-59.8152
 30
0.0
 10
59.2064
 20
-59.8152
 30
0.0
 10
59.2064
 20
-59.8152
 30
0.0
 10
59.2064
 20
-59.8152
 30
0.0
 10
59.2064
 20
-59.8152
 30
0.0
  0
SPLINE
  5
9F
330
1F
100
AcDbEntity
  8
layer 1
 62
     7
100
AcDbSpline
210
0.0
220
0.0
230
1.0
 70
    11
 71
     3
 72
    36
 73
    32
 74
     0
 42
0.0000000001
 43
0.0000000001
 12
1.0
 22
0.0
 32
0.0
 13
1.0
 23
0.0
 33
0.0
 40
0.0
 40
0.0
 40
0.0
 40
0.0
 40
0.1111111111111111
 40
0.1111111111111111
 40
0.1111111111111111
 40
0.1111111111111111
 40
0.2222222222222222
 40
0.2222222222222222
 40
0.2222222222222222
 40
0.2222222222222222
 40
0.3333333333333333
 40
0.3333333333333333
 40
0.3333333333333333
 40
0.3333333333333333
 40
0.4444444444444444
 40
0.4444444444444444
 40
0.4444444444444444
 40
0.4444444444444444
 40
0.5555555555555556
 40
0.5555555555555556
 40
0.5555555555555556
 40
0.5555555555555556
 40
0.6666666666666666
 40
0.6666666666666666
 40
0.6666666666666666
 40
0.6666666666666666
 40
0.7777777777777778
 40
0.7777777777777778
 40
0.7777777777777778
 40
0.7777777777777778
 40
1.0
 40
1.0
 40
1.0
 40
1.0
 10
58.2997
 20
-55.092
 30
0.0
 10
57.2033
 20
-54.6772
 30
0.0
 10
54.6442
 20
-54.9282
 30
0.0
 10
54.5162
 20
-57.8955
 30
0.0
 10
54.5162
 20
-57.8955
 30
0.0
 10
54.4293
 20
-59.9124
 30
0.0
 10
54.0264
 20
-60.3013
 30
0.0
 10
53.4886
 20
-60.1809
 30
0.0
 10
53.4886
 20
-60.1809
 30
0.0
 10
51.9069
 20
-55.2668
 30
0.0
 10
47.5515
 20
-50.7677
 30
0.0
 10
42.2712
 20
-50.7677
 30
0.0
 10
42.2712
 20
-50.7677
 30
0.0
 10
47.5515
 20
-50.7677
 30
0.0
 10
51.9069
 20
-46.2687
 30
0.0
 10
53.4886
 20
-41.3546
 30
0.0
 10
53.4886
 20
-41.3546
 30
0.0
 10
54.0264
 20
-41.2342
 30
0.0
 10
54.4293
 20
-41.6231
 30
0.0
 10
54.5162
 20
-43.64
 30
0.0
 10
54.5162
 20
-43.64
 30
0.0
 10
54.6442
 20
-46.6074
 30
0.0
 10
57.2034
 20
-46.8583
 30
0.0
 10
58.2997
 20
-46.4435
 30
0.0
 10
58.2997
 20
-46.4435
 30
0.0
 10
58.0373
 20
-48.1423
 30
0.0
 10
57.325
 20
-49.5038
 30
0.0
 10
55.6567
 20
-50.7678
 30
0.0
 10
55.6567
 20
-50.7678
 30
0.0
 10
57.325
 20
-52.0318
 30
0.0
 10
58.0373
 20
-53.3932
 30
0.0
 10
58.2997
 20
-55.092
 30
0.0
  0
SPLINE
  5
A0
330
1F
100
AcDbEntity
  8
layer 1
 62
     7
100
AcDbSpline
210
0.0
220
0.0
230
1.0
 70
    11
 71
     3
 72
    36
 73
    32
 74
     0
 42
0.0000000001
 43
0.0000000001
 12
1.0
 22
0.0
 32
0.0
 13
1.0
 23
0.0
 33
0.0
 40
0.0
 40
0.0
 40
0.0
 40
0.0
 40
0.1111111111111111
 40
0.1111111111111111
 40
0.1111111111111111
 40
0.1111111111111111
 40
0.2222222222222222
 40
0.2222222222222222
 40
0.2222222222222222
 40
0.2222222222222222
 40
0.3333333333333333
 40
0.3333333333333333
 40
0.3333333333333333
 40
0.3333333333333333
 40
0.4444444444444444
 40
0.4444444444444444
 40
0.4444444444444444
 40
0.4444444444444444
 40
0.5555555555555556
 40
0.5555555555555556
 40
0.5555555555555556
 40
0.5555555555555556
 40
0.6666666666666666
 40
0.6666666666666666
 40
0.6666666666666666
 40
0.6666666666666666
 40
0.7777777777777778
 40
0.7777777777777778
 40
0.7777777777777778
 40
0.7777777777777778
 40
1.0
 40
1.0
 40
1.0
 40
1.0
 10
38.1715
 20
-60.7355
 30
0.0
 10
37.9691
 20
-58.548
 30
0.0
 10
37.646
 20
-55.6895
 30
0.0
 10
35.2342
 20
-53.3966
 30
0.0
 10
35.2342
 20
-53.3966
 30
0.0
 10
31.446
 20
-55.616
 30
0.0
 10
29.8504
 20
-57.5937
 30
0.0
 10
28.9465
 20
-59.9183
 30
0.0
 10
28.9465
 20
-59.9183
 30
0.0
 10
31.8233
 20
-61.1571
 30
0.0
 10
30.9301
 20
-65.1169
 30
0.0
 10
28.6597
 20
-65.5366
 30
0.0
 10
28.6597
 20
-65.5366
 30
0.0
 10
29.4557
 20
-68.9249
 30
0.0
 10
31.2562
 20
-71.654
 30
0.0
 10
33.0003
 20
-73.0873
 30
0.0
 10
33.0003
 20
-73.0873
 30
0.0
 10
33.4313
 20
-72.0526
 30
0.0
 10
34.1707
 20
-71.2979
 30
0.0
 10
35.1971
 20
-69.5524
 30
0.0
 10
35.1971
 20
-69.5524
 30
0.0
 10
37.4922
 20
-65.6159
 30
0.0
 10
36.4432
 20
-61.9106
 30
0.0
 10
32.4143
 20
-63.0927
 30
0.0
 10
32.4143
 20
-63.0927
 30
0.0
 10
32.5634
 20
-61.2752
 30
0.0
 10
34.793
 20
-57.7255
 30
0.0
 10
38.1715
 20
-60.7354
 30
0.0
 10
38.1715
 20
-60.7354
 30
0.0
 10
38.1715
 20
-60.7354
 30
0.0
 10
38.1715
 20
-60.7355
 30
0.0
 10
38.1715
 20
-60.7355
 30
0.0
  0
SPLINE
  5
A1
330
1F
100
AcDbEntity
  8
layer 1
 62
     7
100
AcDbSpline
210
0.0
220
0.0
230
1.0
 70
    11
 71
     3
 72
    32
 73
    28
 74
     0
 42
0.0000000001
 43
0.0000000001
 12
1.0
 22
0.0
 32
0.0
 13
1.0
 23
0.0
 33
0.0
 40
0.0
 40
0.0
 40
0.0
 40
0.0
 40
0.125
 40
0.125
 40
0.125
 40
0.125
 40
0.25
 40
0.25
 40
0.25
 40
0.25
 40
0.375
 40
0.375
 40
0.375
 40
0.375
 40
0.5
 40
0.5
 40
0.5
 40
0.5
 40
0.625
 40
0.625
 40
0.625
 40
0.625
 40
0.75
 40
0.75
 40
0.75
 40
0.75
 40
1.0
 40
1.0
 40
1.0
 40
1.0
 10
53.3876
 20
-20.4856
 30
0.0
 10
48.4246
 20
-22.4655
 30
0.0
 10
44.058
 20
-21.13
 30
0.0
 10
41.749
 20
-19.9137
 30
0.0
 10
41.749
 20
-19.9137
 30
0.0
 10
43.7605
 20
-18.2442
 30
0.0
 10
45.2413
 20
-11.4076
 30
0.0
 10
42.4295
 20
-7.2221
 30
0.0
 10
42.4295
 20
-7.2221
 30
0.0
 10
47.0166
 20
-8.384
 30
0.0
 10
50.1294
 20
-5.7061
 30
0.0
 10
51.1047
 20
-3.8785
 30
0.0
 10
51.1047
 20
-3.8785
 30
0.0
 10
51.9813
 20
-4.7924
 30
0.0
 10
52.9834
 20
-6.9004
 30
0.0
 10
52.1238
 20
-9.5085
 30
0.0
 10
52.1238
 20
-9.5085
 30
0.0
 10
50.7758
 20
-6.8441
 30
0.0
 10
47.5342
 20
-8.8181
 30
0.0
 10
47.2271
 20
-10.8826
 30
0.0
 10
47.2271
 20
-10.8826
 30
0.0
 10
46.4984
 20
-15.781
 30
0.0
 10
49.8427
 20
-19.4639
 30
0.0
 10
53.3877
 20
-20.4856
 30
0.0
 10
53.3877
 20
-20.4856
 30
0.0
 10
53.3877
 20
-20.4856
 30
0.0
 10
53.3876
 20
-20.4856
 30
0.0
 10
53.3876
 20
-20.4856
 30
0.0
  0
SPLINE
  5
A2
330
1F
100
AcDbEntity
  8
layer 1
 62
     7
100
AcDbSpline
210
0.0
220
0.0
230
1.0
 70
    11
 71
     3
 72
    16
 73
    12
 74
     0
 42
0.0000000001
 43
0.0000000001
 12
1.0
 22
0.0
 32
0.0
 13
1.0
 23
0.0
 33
0.0
 40
0.0
 40
0.0
 40
0.0
 40
0.0
 40
0.25
 40
0.25
 40
0.25
 40
0.25
 40
0.5
 40
0.5
 40
0.5
 40
0.5
 40
1.0
 40
1.0
 40
1.0
 40
1.0
 10
64.3732
 20
-17.9861
 30
0.0
 10
64.3732
 20
-16.9847
 30
0.0
 10
62.7013
 20
-15.9118
 30
0.0
 10
62.009
 20
-15.4334
 30
0.0
 10
62.009
 20
-15.4334
 30
0.0
 10
63.1228
 20
-14.0404
 30
0.0
 10
64.0202
 20
-11.6693
 30
0.0
 10
64.3732
 20
-10.0501
 30
0.0
 10
64.3732
 20
-10.0501
 30
0.0
 10
64.3732
 20
-12.2424
 30
0.0
 10
64.3732
 20
-16.6657
 30
0.0
 10
64.3732
 20
-17.9861
 30
0.0
  0
SPLINE
  5
A3
330
1F
100
AcDbEntity
  8
layer 1
 62
     7
100
AcDbSpline
210
0.0
220
0.0
230
1.0
 70
    11
 71
     3
 72
    12
 73
     8
 74
     0
 42
0.0000000001
 43
0.0000000001
 12
1.0
 22
0.0
 32
0.0
 13
1.0
 23
0.0
 33
0.0
 40
0.0
 40
0.0
 40
0.0
 40
0.0
 40
0.3333333333333333
 40
0.3333333333333333
 40
0.3333333333333333
 40
0.3333333333333333
 40
1.0
 40
1.0
 40
1.0
 40
1.0
 10
49.1972
 20
-2.7912
 30
0.0
 10
46.6523
 20
-4.933
 30
0.0
 10
42.9168
 20
-5.0344
 30
0.0
 10
40.2231
 20
-3.7336
 30
0.0
 10
40.2231
 20
-3.7336
 30
0.0
 10
41.6734
 20
-2.118
 30
0.0
 10
45.5269
 20
-0.6596
 30
0.0
 10
49.1972
 20
-2.7912
 30
0.0
  0
SPLINE
  5
A4
330
1F
100
AcDbEntity
  8
layer 1
 62
     7
100
AcDbSpline
210
0.0
220
0.0
230
1.0
 70
    11
 71
     3
 72
    24
 73
    20
 74
     0
 42
0.0000000001
 43
0.0000000001
 12
1.0
 22
0.0
 32
0.0
 13
1.0
 23
0.0
 33
0.0
 40
0.0
 40
0.0
 40
0.0
 40
0.0
 40
0.1666666666666667
 40
0.1666666666666667
 40
0.1666666666666667
 40
0.1666666666666667
 40
0.3333333333333333
 40
0.3333333333333333
 40
0.3333333333333333
 40
0.3333333333333333
 40
0.5
 40
0.5
 40
0.5
 40
0.5
 40
0.6666666666666666
 40
0.6666666666666666
 40
0.6666666666666666
 40
0.6666666666666666
 40
1.0
 40
1.0
 40
1.0
 40
1.0
 10
30.8644
 20
0.8886
 30
0.0
 10
32.3143
 20
-0.1614
 30
0.0
 10
34.2367
 20
-2.6998
 30
0.0
 10
35.5771
 20
-4.4834
 30
0.0
 10
35.5771
 20
-4.4834
 30
0.0
 10
34.5389
 20
-5.7939
 30
0.0
 10
34.0056
 20
-7.2132
 30
0.0
 10
33.5743
 20
-8.4721
 30
0.0
 10
33.5743
 20
-8.4721
 30
0.0
 10
32.532
 20
-4.9968
 30
0.0
 10
29.4522
 20
-3.7472
 30
0.0
 10
27.5617
 20
-5.4039
 30
0.0
 10
27.5617
 20
-5.4039
 30
0.0
 10
27.8303
 20
-3.5548
 30
0.0
 10
29.494
 20
-0.2241
 30
0.0
 10
30.8644
 20
0.8885
 30
0.0
 10
30.8644
 20
0.8885
 30
0.0
 10
30.8644
 20
0.8885
 30
0.0
 10
30.8644
 20
0.8886
 30
0.0
 10
30.8644
 20
0.8886
 30
0.0
  0
SPLINE
  5
A5
330
1F
100
AcDbEntity
  8
layer 1
 62
     7
100
AcDbSpline
210
0.0
220
0.0
230
1.0
 70
    11
 71
     3
 72
    20
 73
    16
 74
     0
 42
0.0000000001
 43
0.0000000001
 12
1.0
 22
0.0
 32
0.0
 13
1.0
 23
0.0
 33
0.0
 40
0.0
 40
0.0
 40
0.0
 40
0.0
 40
0.2
 40
0.2
 40
0.2
 40
0.2
 40
0.4
 40
0.4
 40
0.4
 40
0.4
 40
0.6
 40
0.6
 40
0.6
 40
0.6
 40
1.0
 40
1.0
 40
1.0
 40
1.0
 10
29.2479
 20
-11.5042
 30
0.0
 10
30.0241
 20
-14.2116
 30
0.0
 10
28.6588
 20
-16.0274
 30
0.0
 10
26.5005
 20
-15.8656
 30
0.0
 10
26.5005
 20
-15.8656
 30
0.0
 10
24.3423
 20
-16.0274
 30
0.0
 10
22.977
 20
-14.2116
 30
0.0
 10
23.7531
 20
-11.5042
 30
0.0
 10
23.7531
 20
-11.5042
 30
0.0
 10
24.7559
 20
-10.7136
 30
0.0
 10
25.8172
 20
-9.2433
 30
0.0
 10
26.5005
 20
-6.6176
 30
0.0
 10
26.5005
 20
-6.6176
 30
0.0
 10
27.1839
 20
-9.2433
 30
0.0
 10
28.2452
 20
-10.7136
 30
0.0
 10
29.2479
 20
-11.5042
 30
0.0
  0
SPLINE
  5
A6
330
1F
100
AcDbEntity
  8
layer 1
 62
     7
100
AcDbSpline
210
0.0
220
0.0
230
1.0
 70
    11
 71
     3
 72
    28
 73
    24
 74
     0
 42
0.0000000001
 43
0.0000000001
 12
1.0
 22
0.0
 32
0.0
 13
1.0
 23
0.0
 33
0.0
 40
0.0
 40
0.0
 40
0.0
 40
0.0
 40
0.1428571428571428
 40
0.1428571428571428
 40
0.1428571428571428
 40
0.1428571428571428
 40
0.2857142857142857
 40
0.2857142857142857
 40
0.2857142857142857
 40
0.2857142857142857
 40
0.4285714285714285
 40
0.4285714285714285
 40
0.4285714285714285
 40
0.4285714285714285
 40
0.5714285714285714
 40
0.5714285714285714
 40
0.5714285714285714
 40
0.5714285714285714
 40
0.7142857142857143
 40
0.7142857142857143
 40
0.7142857142857143
 40
0.7142857142857143
 40
1.0
 40
1.0
 40
1.0
 40
1.0
 10
31.7847
 20
-26.5314
 30
0.0
 10
30.5907
 20
-25.1689
 30
0.0
 10
29.6058
 20
-22.8743
 30
0.0
 10
28.603
 20
-21.5115
 30
0.0
 10
28.603
 20
-21.5115
 30
0.0
 10
27.8078
 20
-22.9234
 30
0.0
 10
27.6113
 20
-23.364
 30
0.0
 10
26.5005
 20
-24.844
 30
0.0
 10
26.5005
 20
-24.844
 30
0.0
 10
25.3896
 20
-23.364
 30
0.0
 10
25.1932
 20
-22.9234
 30
0.0
 10
24.398
 20
-21.5115
 30
0.0
 10
24.398
 20
-21.5115
 30
0.0
 10
23.3953
 20
-22.8743
 30
0.0
 10
22.4103
 20
-25.1689
 30
0.0
 10
21.2163
 20
-26.5314
 30
0.0
 10
21.2163
 20
-26.5314
 30
0.0
 10
23.1282
 20
-28.3668
 30
0.0
 10
25.4813
 20
-32.2561
 30
0.0
 10
26.5005
 20
-35.708
 30
0.0
 10
26.5005
 20
-35.708
 30
0.0
 10
27.5197
 20
-32.2561
 30
0.0
 10
29.8728
 20
-28.3668
 30
0.0
 10
31.7847
 20
-26.5314
 30
0.0
  0
SPLINE
  5
A7
330
1F
100
AcDbEntity
  8
layer 1
 62
     7
100
AcDbSpline
210
0.0
220
0.0
230
1.0
 70
    11
 71
     3
 72
    32
 73
    28
 74
     0
 42
0.0000000001
 43
0.0000000001
 12
1.0
 22
0.0
 32
0.0
 13
1.0
 23
0.0
 33
0.0
 40
0.0
 40
0.0
 40
0.0
 40
0.0
 40
0.125
 40
0.125
 40
0.125
 40
0.125
 40
0.25
 40
0.25
 40
0.25
 40
0.25
 40
0.375
 40
0.375
 40
0.375
 40
0.375
 40
0.5
 40
0.5
 40
0.5
 40
0.5
 40
0.625
 40
0.625
 40
0.625
 40
0.625
 40
0.75
 40
0.75
 40
0.75
 40
0.75
 40
1.0
 40
1.0
 40
1.0
 40
1.0
 10
50.2622
 20
-41.8122
 30
0.0
 10
49.16
 20
-45.6307
 30
0.0
 10
45.0692
 20
-49.3889
 30
0.0
 10
38.4396
 20
-48.87
 30
0.0
 10
38.4396
 20
-48.87
 30
0.0
 10
42.9332
 20
-44.259
 30
0.0
 10
42.2996
 20
-36.9628
 30
0.0
 10
39.5798
 20
-31.7661
 30
0.0
 10
39.5798
 20
-31.7661
 30
0.0
 10
44.6265
 20
-33.6633
 30
0.0
 10
48.2909
 20
-33.0998
 30
0.0
 10
52.6674
 20
-32.0995
 30
0.0
 10
52.6674
 20
-32.0995
 30
0.0
 10
51.7974
 20
-33.7488
 30
0.0
 10
51.3288
 20
-34.5698
 30
0.0
 10
51.5723
 20
-37.27
 30
0.0
 10
51.5723
 20
-37.27
 30
0.0
 10
49.8565
 20
-33.6863
 30
0.0
 10
45.6037
 20
-33.4541
 30
0.0
 10
44.5612
 20
-35.5185
 30
0.0
 10
44.5612
 20
-35.5185
 30
0.0
 10
48.0282
 20
-35.9864
 30
0.0
 10
43.9595
 20
-42.6291
 30
0.0
 10
50.2621
 20
-41.8123
 30
0.0
 10
50.2621
 20
-41.8123
 30
0.0
 10
50.2621
 20
-41.8123
 30
0.0
 10
50.2622
 20
-41.8122
 30
0.0
 10
50.2622
 20
-41.8122
 30
0.0
  0
SPLINE
  5
A8
330
1F
100
AcDbEntity
  8
layer 1
 62
     7
100
AcDbSpline
210
0.0
220
0.0
230
1.0
 70
    11
 71
     3
 72
    36
 73
    32
 74
     0
 42
0.0000000001
 43
0.0000000001
 12
1.0
 22
0.0
 32
0.0
 13
1.0
 23
0.0
 33
0.0
 40
0.0
 40
0.0
 40
0.0
 40
0.0
 40
0.1111111111111111
 40
0.1111111111111111
 40
0.1111111111111111
 40
0.1111111111111111
 40
0.2222222222222222
 40
0.2222222222222222
 40
0.2222222222222222
 40
0.2222222222222222
 40
0.3333333333333333
 40
0.3333333333333333
 40
0.3333333333333333
 40
0.3333333333333333
 40
0.4444444444444444
 40
0.4444444444444444
 40
0.4444444444444444
 40
0.4444444444444444
 40
0.5555555555555556
 40
0.5555555555555556
 40
0.5555555555555556
 40
0.5555555555555556
 40
0.6666666666666666
 40
0.6666666666666666
 40
0.6666666666666666
 40
0.6666666666666666
 40
0.7777777777777778
 40
0.7777777777777778
 40
0.7777777777777778
 40
0.7777777777777778
 40
1.0
 40
1.0
 40
1.0
 40
1.0
 10
59.2064
 20
-41.7203
 30
0.0
 10
59.6722
 20
-39.8126
 30
0.0
 10
59.0957
 20
-36.9387
 30
0.0
 10
64.3732
 20
-37.9309
 30
0.0
 10
64.3732
 20
-37.9309
 30
0.0
 10
64.3732
 20
-37.9309
 30
0.0
 10
64.3732
 20
-22.2058
 30
0.0
 10
64.3732
 20
-22.2058
 30
0.0
 10
64.3732
 20
-22.2058
 30
0.0
 10
62.1101
 20
-26.0913
 30
0.0
 10
60.7826
 20
-27.1903
 30
0.0
 10
56.5254
 20
-30.4448
 30
0.0
 10
56.5254
 20
-30.4448
 30
0.0
 10
60.8549
 20
-30.1058
 30
0.0
 10
62.8532
 20
-32.6915
 30
0.0
 10
61.2975
 20
-35.4314
 30
0.0
 10
61.2975
 20
-35.4314
 30
0.0
 10
60.8392
 20
-34.192
 30
0.0
 10
58.4719
 20
-33.6133
 30
0.0
 10
56.8143
 20
-34.7675
 30
0.0
 10
56.8143
 20
-34.7675
 30
0.0
 10
55.5024
 20
-35.6809
 30
0.0
 10
55.3625
 20
-37.6859
 30
0.0
 10
53.9683
 20
-39.2874
 30
0.0
 10
53.9683
 20
-39.2874
 30
0.0
 10
56.9034
 20
-39.0395
 30
0.0
 10
58.0333
 20
-39.4354
 30
0.0
 10
59.2064
 20
-41.7203
 30
0.0
 10
59.2064
 20
-41.7203
 30
0.0
 10
59.2064
 20
-41.7203
 30
0.0
 10
59.2064
 20
-41.7203
 30
0.0
 10
59.2064
 20
-41.7203
 30
0.0
  0
SPLINE
  5
A9
330
1F
100
AcDbEntity
  8
layer 1
 62
     7
100
AcDbSpline
210
0.0
220
0.0
230
1.0
 70
    11
 71
     3
 72
    24
 73
    20
 74
     0
 42
0.0000000001
 43
0.0000000001
 12
1.0
 22
0.0
 32
0.0
 13
1.0
 23
0.0
 33
0.0
 40
0.0
 40
0.0
 40
0.0
 40
0.0
 40
0.1666666666666667
 40
0.1666666666666667
 40
0.1666666666666667
 40
0.1666666666666667
 40
0.3333333333333333
 40
0.3333333333333333
 40
0.3333333333333333
 40
0.3333333333333333
 40
0.5
 40
0.5
 40
0.5
 40
0.5
 40
0.6666666666666666
 40
0.6666666666666666
 40
0.6666666666666666
 40
0.6666666666666666
 40
1.0
 40
1.0
 40
1.0
 40
1.0
 10
64.3732
 20
-39.8639
 30
0.0
 10
63.516
 20
-39.8129
 30
0.0
 10
62.6946
 20
-39.6746
 30
0.0
 10
62.3177
 20
-42.4793
 30
0.0
 10
62.3177
 20
-42.4793
 30
0.0
 10
62.0856
 20
-47.4496
 30
0.0
 10
59.811
 20
-49.7926
 30
0.0
 10
59.0857
 20
-50.7677
 30
0.0
 10
59.0857
 20
-50.7677
 30
0.0
 10
59.811
 20
-51.7428
 30
0.0
 10
62.0857
 20
-54.0859
 30
0.0
 10
62.3177
 20
-59.0562
 30
0.0
 10
62.3177
 20
-59.0562
 30
0.0
 10
62.6946
 20
-61.8608
 30
0.0
 10
63.516
 20
-61.7226
 30
0.0
 10
64.3732
 20
-61.6716
 30
0.0
 10
64.3732
 20
-61.6716
 30
0.0
 10
64.3732
 20
-61.6716
 30
0.0
 10
64.3732
 20
-39.8639
 30
0.0
 10
64.3732
 20
-39.8639
 30
0.0
  0
SPLINE
  5
AA
330
1F
100
AcDbEntity
  8
layer 1
 62
     7
100
AcDbSpline
210
0.0
220
0.0
230
1.0
 70
    11
 71
     3
 72
    36
 73
    32
 74
     0
 42
0.0000000001
 43
0.0000000001
 12
1.0
 22
0.0
 32
0.0
 13
1.0
 23
0.0
 33
0.0
 40
0.0
 40
0.0
 40
0.0
 40
0.0
 40
0.1111111111111111
 40
0.1111111111111111
 40
0.1111111111111111
 40
0.1111111111111111
 40
0.2222222222222222
 40
0.2222222222222222
 40
0.2222222222222222
 40
0.2222222222222222
 40
0.3333333333333333
 40
0.3333333333333333
 40
0.3333333333333333
 40
0.3333333333333333
 40
0.4444444444444444
 40
0.4444444444444444
 40
0.4444444444444444
 40
0.4444444444444444
 40
0.5555555555555556
 40
0.5555555555555556
 40
0.5555555555555556
 40
0.5555555555555556
 40
0.6666666666666666
 40
0.6666666666666666
 40
0.6666666666666666
 40
0.6666666666666666
 40
0.7777777777777778
 40
0.7777777777777778
 40
0.7777777777777778
 40
0.7777777777777778
 40
1.0
 40
1.0
 40
1.0
 40
1.0
 10
38.1715
 20
-40.8
 30
0.0
 10
37.9691
 20
-42.9875
 30
0.0
 10
37.646
 20
-45.846
 30
0.0
 10
35.2342
 20
-48.139
 30
0.0
 10
35.2342
 20
-48.139
 30
0.0
 10
31.446
 20
-45.9196
 30
0.0
 10
29.8504
 20
-43.9418
 30
0.0
 10
28.9465
 20
-41.6173
 30
0.0
 10
28.9465
 20
-41.6173
 30
0.0
 10
31.8233
 20
-40.3783
 30
0.0
 10
30.9301
 20
-36.4186
 30
0.0
 10
28.6597
 20
-35.9989
 30
0.0
 10
28.6597
 20
-35.9989
 30
0.0
 10
29.4557
 20
-32.6106
 30
0.0
 10
31.2562
 20
-29.8815
 30
0.0
 10
33.0003
 20
-28.4481
 30
0.0
 10
33.0003
 20
-28.4481
 30
0.0
 10
33.4313
 20
-29.4829
 30
0.0
 10
34.1707
 20
-30.2376
 30
0.0
 10
35.1971
 20
-31.9831
 30
0.0
 10
35.1971
 20
-31.9831
 30
0.0
 10
37.4922
 20
-35.9196
 30
0.0
 10
36.4432
 20
-39.6249
 30
0.0
 10
32.4143
 20
-38.4428
 30
0.0
 10
32.4143
 20
-38.4428
 30
0.0
 10
32.5634
 20
-40.2603
 30
0.0
 10
34.793
 20
-43.81
 30
0.0
 10
38.1715
 20
-40.8001
 30
0.0
 10
38.1715
 20
-40.8001
 30
0.0
 10
38.1715
 20
-40.8001
 30
0.0
 10
38.1715
 20
-40.8
 30
0.0
 10
38.1715
 20
-40.8
 30
0.0
  0
SPLINE
  5
AB
330
1F
100
AcDbEntity
  8
layer 1
 62
     7
100
AcDbSpline
210
0.0
220
0.0
230
1.0
 70
    11
 71
     3
 72
    36
 73
    32
 74
     0
 42
0.0000000001
 43
0.0000000001
 12
1.0
 22
0.0
 32
0.0
 13
1.0
 23
0.0
 33
0.0
 40
0.0
 40
0.0
 40
0.0
 40
0.0
 40
0.1111111111111111
 40
0.1111111111111111
 40
0.1111111111111111
 40
0.1111111111111111
 40
0.2222222222222222
 40
0.2222222222222222
 40
0.2222222222222222
 40
0.2222222222222222
 40
0.3333333333333333
 40
0.3333333333333333
 40
0.3333333333333333
 40
0.3333333333333333
 40
0.4444444444444444
 40
0.4444444444444444
 40
0.4444444444444444
 40
0.4444444444444444
 40
0.5555555555555556
 40
0.5555555555555556
 40
0.5555555555555556
 40
0.5555555555555556
 40
0.6666666666666666
 40
0.6666666666666666
 40
0.6666666666666666
 40
0.6666666666666666
 40
0.7777777777777778
 40
0.7777777777777778
 40
0.7777777777777778
 40
0.7777777777777778
 40
1.0
 40
1.0
 40
1.0
 40
1.0
 10
59.2064
 20
57.4764
 30
0.0
 10
59.6722
 20
55.5687
 30
0.0
 10
59.0957
 20
52.6948
 30
0.0
 10
64.3732
 20
53.687
 30
0.0
 10
64.3732
 20
53.687
 30
0.0
 10
64.3732
 20
53.687
 30
0.0
 10
64.3732
 20
37.9619
 30
0.0
 10
64.3732
 20
37.9619
 30
0.0
 10
64.3732
 20
37.9619
 30
0.0
 10
62.1101
 20
41.8474
 30
0.0
 10
60.7826
 20
42.9464
 30
0.0
 10
56.5254
 20
46.2009
 30
0.0
 10
56.5254
 20
46.2009
 30
0.0
 10
60.8549
 20
45.8619
 30
0.0
 10
62.8532
 20
48.4476
 30
0.0
 10
61.2975
 20
51.1875
 30
0.0
 10
61.2975
 20
51.1875
 30
0.0
 10
60.8392
 20
49.9481
 30
0.0
 10
58.4719
 20
49.3694
 30
0.0
 10
56.8143
 20
50.5235
 30
0.0
 10
56.8143
 20
50.5235
 30
0.0
 10
55.5024
 20
51.4369
 30
0.0
 10
55.3625
 20
53.442
 30
0.0
 10
53.9683
 20
55.0435
 30
0.0
 10
53.9683
 20
55.0435
 30
0.0
 10
56.9034
 20
54.7956
 30
0.0
 10
58.0333
 20
55.1915
 30
0.0
 10
59.2064
 20
57.4764
 30
0.0
 10
59.2064
 20
57.4764
 30
0.0
 10
59.2064
 20
57.4764
 30
0.0
 10
59.2064
 20
57.4764
 30
0.0
 10
59.2064
 20
57.4764
 30
0.0
  0
SPLINE
  5
AC
330
1F
100
AcDbEntity
  8
layer 1
 62
     7
100
AcDbSpline
210
0.0
220
0.0
230
1.0
 70
    11
 71
     3
 72
    32
 73
    28
 74
     0
 42
0.0000000001
 43
0.0000000001
 12
1.0
 22
0.0
 32
0.0
 13
1.0
 23
0.0
 33
0.0
 40
0.0
 40
0.0
 40
0.0
 40
0.0
 40
0.125
 40
0.125
 40
0.125
 40
0.125
 40
0.25
 40
0.25
 40
0.25
 40
0.25
 40
0.375
 40
0.375
 40
0.375
 40
0.375
 40
0.5
 40
0.5
 40
0.5
 40
0.5
 40
0.625
 40
0.625
 40
0.625
 40
0.625
 40
0.75
 40
0.75
 40
0.75
 40
0.75
 40
1.0
 40
1.0
 40
1.0
 40
1.0
 10
53.3876
 20
35.1941
 30
0.0
 10
48.4246
 20
37.1741
 30
0.0
 10
44.058
 20
35.8386
 30
0.0
 10
41.749
 20
34.6221
 30
0.0
 10
41.749
 20
34.6221
 30
0.0
 10
43.7605
 20
32.9527
 30
0.0
 10
45.2413
 20
26.1161
 30
0.0
 10
42.4295
 20
21.9306
 30
0.0
 10
42.4295
 20
21.9306
 30
0.0
 10
47.0166
 20
23.0925
 30
0.0
 10
50.1294
 20
20.4146
 30
0.0
 10
51.1047
 20
18.587
 30
0.0
 10
51.1047
 20
18.587
 30
0.0
 10
51.9813
 20
19.5009
 30
0.0
 10
52.9834
 20
21.6088
 30
0.0
 10
52.1238
 20
24.217
 30
0.0
 10
52.1238
 20
24.217
 30
0.0
 10
50.7758
 20
21.5526
 30
0.0
 10
47.5342
 20
23.5266
 30
0.0
 10
47.2271
 20
25.591
 30
0.0
 10
47.2271
 20
25.591
 30
0.0
 10
46.4984
 20
30.4894
 30
0.0
 10
49.8427
 20
34.1724
 30
0.0
 10
53.3877
 20
35.1941
 30
0.0
 10
53.3877
 20
35.1941
 30
0.0
 10
53.3877
 20
35.1941
 30
0.0
 10
53.3876
 20
35.1941
 30
0.0
 10
53.3876
 20
35.1941
 30
0.0
  0
SPLINE
  5
AD
330
1F
100
AcDbEntity
  8
layer 1
 62
     7
100
AcDbSpline
210
0.0
220
0.0
230
1.0
 70
    11
 71
     3
 72
    16
 73
    12
 74
     0
 42
0.0000000001
 43
0.0000000001
 12
1.0
 22
0.0
 32
0.0
 13
1.0
 23
0.0
 33
0.0
 40
0.0
 40
0.0
 40
0.0
 40
0.0
 40
0.25
 40
0.25
 40
0.25
 40
0.25
 40
0.5
 40
0.5
 40
0.5
 40
0.5
 40
1.0
 40
1.0
 40
1.0
 40
1.0
 10
64.3732
 20
32.6947
 30
0.0
 10
64.3732
 20
31.6932
 30
0.0
 10
62.7013
 20
30.6203
 30
0.0
 10
62.009
 20
30.142
 30
0.0
 10
62.009
 20
30.142
 30
0.0
 10
63.1228
 20
28.749
 30
0.0
 10
64.0202
 20
26.3779
 30
0.0
 10
64.3732
 20
24.7587
 30
0.0
 10
64.3732
 20
24.7587
 30
0.0
 10
64.3732
 20
26.951
 30
0.0
 10
64.3732
 20
31.3742
 30
0.0
 10
64.3732
 20
32.6947
 30
0.0
  0
SPLINE
  5
AE
330
1F
100
AcDbEntity
  8
layer 1
 62
     7
100
AcDbSpline
210
0.0
220
0.0
230
1.0
 70
    11
 71
     3
 72
    24
 73
    20
 74
     0
 42
0.0000000001
 43
0.0000000001
 12
1.0
 22
0.0
 32
0.0
 13
1.0
 23
0.0
 33
0.0
 40
0.0
 40
0.0
 40
0.0
 40
0.0
 40
0.1666666666666667
 40
0.1666666666666667
 40
0.1666666666666667
 40
0.1666666666666667
 40
0.3333333333333333
 40
0.3333333333333333
 40
0.3333333333333333
 40
0.3333333333333333
 40
0.5
 40
0.5
 40
0.5
 40
0.5
 40
0.6666666666666666
 40
0.6666666666666666
 40
0.6666666666666666
 40
0.6666666666666666
 40
1.0
 40
1.0
 40
1.0
 40
1.0
 10
30.8644
 20
13.8199
 30
0.0
 10
32.3143
 20
14.8699
 30
0.0
 10
34.2367
 20
17.4083
 30
0.0
 10
35.5771
 20
19.1919
 30
0.0
 10
35.5771
 20
19.1919
 30
0.0
 10
34.5389
 20
20.5024
 30
0.0
 10
34.0056
 20
21.9217
 30
0.0
 10
33.5743
 20
23.1806
 30
0.0
 10
33.5743
 20
23.1806
 30
0.0
 10
32.532
 20
19.7053
 30
0.0
 10
29.4522
 20
18.4557
 30
0.0
 10
27.5617
 20
20.1124
 30
0.0
 10
27.5617
 20
20.1124
 30
0.0
 10
27.8303
 20
18.2633
 30
0.0
 10
29.494
 20
14.9326
 30
0.0
 10
30.8644
 20
13.82
 30
0.0
 10
30.8644
 20
13.82
 30
0.0
 10
30.8644
 20
13.82
 30
0.0
 10
30.8644
 20
13.8199
 30
0.0
 10
30.8644
 20
13.8199
 30
0.0
  0
SPLINE
  5
AF
330
1F
100
AcDbEntity
  8
layer 1
 62
     7
100
AcDbSpline
210
0.0
220
0.0
230
1.0
 70
    11
 71
     3
 72
    32
 73
    28
 74
     0
 42
0.0000000001
 43
0.0000000001
 12
1.0
 22
0.0
 32
0.0
 13
1.0
 23
0.0
 33
0.0
 40
0.0
 40
0.0
 40
0.0
 40
0.0
 40
0.125
 40
0.125
 40
0.125
 40
0.125
 40
0.25
 40
0.25
 40
0.25
 40
0.25
 40
0.375
 40
0.375
 40
0.375
 40
0.375
 40
0.5
 40
0.5
 40
0.5
 40
0.5
 40
0.625
 40
0.625
 40
0.625
 40
0.625
 40
0.75
 40
0.75
 40
0.75
 40
0.75
 40
1.0
 40
1.0
 40
1.0
 40
1.0
 10
50.2622
 20
56.5208
 30
0.0
 10
49.16
 20
60.3392
 30
0.0
 10
45.0692
 20
64.0974
 30
0.0
 10
38.4396
 20
63.5786
 30
0.0
 10
38.4396
 20
63.5786
 30
0.0
 10
42.9332
 20
58.9675
 30
0.0
 10
42.2996
 20
51.6713
 30
0.0
 10
39.5798
 20
46.4746
 30
0.0
 10
39.5798
 20
46.4746
 30
0.0
 10
44.6265
 20
48.3718
 30
0.0
 10
48.2909
 20
47.8083
 30
0.0
 10
52.6674
 20
46.808
 30
0.0
 10
52.6674
 20
46.808
 30
0.0
 10
51.7974
 20
48.4573
 30
0.0
 10
51.3288
 20
49.2783
 30
0.0
 10
51.5723
 20
51.9784
 30
0.0
 10
51.5723
 20
51.9784
 30
0.0
 10
49.8565
 20
48.3947
 30
0.0
 10
45.6037
 20
48.1626
 30
0.0
 10
44.5612
 20
50.227
 30
0.0
 10
44.5612
 20
50.227
 30
0.0
 10
48.0282
 20
50.6948
 30
0.0
 10
43.9595
 20
57.3375
 30
0.0
 10
50.2621
 20
56.5208
 30
0.0
 10
50.2621
 20
56.5208
 30
0.0
 10
50.2621
 20
56.5208
 30
0.0
 10
50.2622
 20
56.5208
 30
0.0
 10
50.2622
 20
56.5208
 30
0.0
  0
SPLINE
  5
B0
330
1F
100
AcDbEntity
  8
layer 1
 62
     7
100
AcDbSpline
210
0.0
220
0.0
230
1.0
 70
    11
 71
     3
 72
    36
 73
    32
 74
     0
 42
0.0000000001
 43
0.0000000001
 12
1.0
 22
0.0
 32
0.0
 13
1.0
 23
0.0
 33
0.0
 40
0.0
 40
0.0
 40
0.0
 40
0.0
 40
0.1111111111111111
 40
0.1111111111111111
 40
0.1111111111111111
 40
0.1111111111111111
 40
0.2222222222222222
 40
0.2222222222222222
 40
0.2222222222222222
 40
0.2222222222222222
 40
0.3333333333333333
 40
0.3333333333333333
 40
0.3333333333333333
 40
0.3333333333333333
 40
0.4444444444444444
 40
0.4444444444444444
 40
0.4444444444444444
 40
0.4444444444444444
 40
0.5555555555555556
 40
0.5555555555555556
 40
0.5555555555555556
 40
0.5555555555555556
 40
0.6666666666666666
 40
0.6666666666666666
 40
0.6666666666666666
 40
0.6666666666666666
 40
0.7777777777777778
 40
0.7777777777777778
 40
0.7777777777777778
 40
0.7777777777777778
 40
1.0
 40
1.0
 40
1.0
 40
1.0
 10
58.2997
 20
61.152
 30
0.0
 10
57.2033
 20
61.5668
 30
0.0
 10
54.6442
 20
61.3159
 30
0.0
 10
54.5162
 20
58.3485
 30
0.0
 10
54.5162
 20
58.3485
 30
0.0
 10
54.4293
 20
56.3316
 30
0.0
 10
54.0264
 20
55.9428
 30
0.0
 10
53.4886
 20
56.0631
 30
0.0
 10
53.4886
 20
56.0631
 30
0.0
 10
51.9069
 20
60.9772
 30
0.0
 10
47.5515
 20
65.4763
 30
0.0
 10
42.2712
 20
65.4763
 30
0.0
 10
42.2712
 20
65.4763
 30
0.0
 10
47.5515
 20
65.4763
 30
0.0
 10
51.9069
 20
69.9753
 30
0.0
 10
53.4886
 20
74.8894
 30
0.0
 10
53.4886
 20
74.8894
 30
0.0
 10
54.0264
 20
75.0098
 30
0.0
 10
54.4293
 20
74.6209
 30
0.0
 10
54.5162
 20
72.604
 30
0.0
 10
54.5162
 20
72.604
 30
0.0
 10
54.6442
 20
69.6366
 30
0.0
 10
57.2034
 20
69.3857
 30
0.0
 10
58.2997
 20
69.8005
 30
0.0
 10
58.2997
 20
69.8005
 30
0.0
 10
58.0373
 20
68.1017
 30
0.0
 10
57.325
 20
66.7402
 30
0.0
 10
55.6567
 20
65.4763
 30
0.0
 10
55.6567
 20
65.4763
 30
0.0
 10
57.325
 20
64.2123
 30
0.0
 10
58.0373
 20
62.8509
 30
0.0
 10
58.2997
 20
61.152
 30
0.0
  0
SPLINE
  5
B1
330
1F
100
AcDbEntity
  8
layer 1
 62
     7
100
AcDbSpline
210
0.0
220
0.0
230
1.0
 70
    11
 71
     3
 72
    32
 73
    28
 74
     0
 42
0.0000000001
 43
0.0000000001
 12
1.0
 22
0.0
 32
0.0
 13
1.0
 23
0.0
 33
0.0
 40
0.0
 40
0.0
 40
0.0
 40
0.0
 40
0.125
 40
0.125
 40
0.125
 40
0.125
 40
0.25
 40
0.25
 40
0.25
 40
0.25
 40
0.375
 40
0.375
 40
0.375
 40
0.375
 40
0.5
 40
0.5
 40
0.5
 40
0.5
 40
0.625
 40
0.625
 40
0.625
 40
0.625
 40
0.75
 40
0.75
 40
0.75
 40
0.75
 40
1.0
 40
1.0
 40
1.0
 40
1.0
 10
38.1715
 20
55.5085
 30
0.0
 10
37.9691
 20
57.6961
 30
0.0
 10
37.646
 20
60.5546
 30
0.0
 10
35.2342
 20
62.8475
 30
0.0
 10
35.2342
 20
62.8475
 30
0.0
 10
31.446
 20
60.6281
 30
0.0
 10
29.8504
 20
58.6503
 30
0.0
 10
28.9465
 20
56.3258
 30
0.0
 10
28.9465
 20
56.3258
 30
0.0
 10
31.8233
 20
55.0869
 30
0.0
 10
30.9301
 20
51.1271
 30
0.0
 10
28.6597
 20
50.7074
 30
0.0
 10
28.6597
 20
50.7074
 30
0.0
 10
29.4557
 20
47.3192
 30
0.0
 10
31.2562
 20
44.59
 30
0.0
 10
33.0003
 20
43.1567
 30
0.0
 10
33.0003
 20
43.1567
 30
0.0
 10
33.4313
 20
44.1914
 30
0.0
 10
34.1707
 20
44.9461
 30
0.0
 10
35.1971
 20
46.6916
 30
0.0
 10
35.1971
 20
46.6916
 30
0.0
 10
37.4922
 20
50.6281
 30
0.0
 10
36.4432
 20
54.3334
 30
0.0
 10
32.4143
 20
53.1513
 30
0.0
 10
32.4143
 20
53.1513
 30
0.0
 10
32.5634
 20
54.9688
 30
0.0
 10
34.793
 20
58.5185
 30
0.0
 10
38.1715
 20
55.5085
 30
0.0
  0
SPLINE
  5
B2
330
1F
100
AcDbEntity
  8
layer 1
 62
     7
100
AcDbSpline
210
0.0
220
0.0
230
1.0
 70
    11
 71
     3
 72
    24
 73
    20
 74
     0
 42
0.0000000001
 43
0.0000000001
 12
1.0
 22
0.0
 32
0.0
 13
1.0
 23
0.0
 33
0.0
 40
0.0
 40
0.0
 40
0.0
 40
0.0
 40
0.1666666666666667
 40
0.1666666666666667
 40
0.1666666666666667
 40
0.1666666666666667
 40
0.3333333333333333
 40
0.3333333333333333
 40
0.3333333333333333
 40
0.3333333333333333
 40
0.5
 40
0.5
 40
0.5
 40
0.5
 40
0.6666666666666666
 40
0.6666666666666666
 40
0.6666666666666666
 40
0.6666666666666666
 40
1.0
 40
1.0
 40
1.0
 40
1.0
 10
64.3732
 20
76.3801
 30
0.0
 10
63.516
 20
76.4311
 30
0.0
 10
62.6946
 20
76.5694
 30
0.0
 10
62.3177
 20
73.7647
 30
0.0
 10
62.3177
 20
73.7647
 30
0.0
 10
62.0856
 20
68.7944
 30
0.0
 10
59.811
 20
66.4514
 30
0.0
 10
59.0857
 20
65.4763
 30
0.0
 10
59.0857
 20
65.4763
 30
0.0
 10
59.811
 20
64.5012
 30
0.0
 10
62.0857
 20
62.1582
 30
0.0
 10
62.3177
 20
57.1878
 30
0.0
 10
62.3177
 20
57.1878
 30
0.0
 10
62.6946
 20
54.3832
 30
0.0
 10
63.516
 20
54.5214
 30
0.0
 10
64.3732
 20
54.5724
 30
0.0
 10
64.3732
 20
54.5724
 30
0.0
 10
64.3732
 20
54.5724
 30
0.0
 10
64.3732
 20
76.3801
 30
0.0
 10
64.3732
 20
76.3801
 30
0.0
  0
SPLINE
  5
B3
330
1F
100
AcDbEntity
  8
layer 1
 62
     7
100
AcDbSpline
210
0.0
220
0.0
230
1.0
 70
    11
 71
     3
 72
    16
 73
    12
 74
     0
 42
0.0000000001
 43
0.0000000001
 12
1.0
 22
0.0
 32
0.0
 13
1.0
 23
0.0
 33
0.0
 40
0.0
 40
0.0
 40
0.0
 40
0.0
 40
0.25
 40
0.25
 40
0.25
 40
0.25
 40
0.5
 40
0.5
 40
0.5
 40
0.5
 40
1.0
 40
1.0
 40
1.0
 40
1.0
 10
64.3507
 20
15.5741
 30
0.0
 10
64.1145
 20
16.089
 30
0.0
 10
63.4316
 20
16.9834
 30
0.0
 10
62.6206
 20
17.2675
 30
0.0
 10
62.6206
 20
17.2675
 30
0.0
 10
63.4532
 20
18.6605
 30
0.0
 10
64.0202
 20
20.2669
 30
0.0
 10
64.3732
 20
21.8861
 30
0.0
 10
64.3732
 20
21.8861
 30
0.0
 10
64.3732
 20
19.6938
 30
0.0
 10
64.3507
 20
16.8944
 30
0.0
 10
64.3507
 20
15.5741
 30
0.0
  0
SPLINE
  5
B4
330
1F
100
AcDbEntity
  8
layer 1
 62
     7
100
AcDbSpline
210
0.0
220
0.0
230
1.0
 70
    11
 71
     3
 72
    36
 73
    32
 74
     0
 42
0.0000000001
 43
0.0000000001
 12
1.0
 22
0.0
 32
0.0
 13
1.0
 23
0.0
 33
0.0
 40
0.0
 40
0.0
 40
0.0
 40
0.0
 40
0.1111111111111111
 40
0.1111111111111111
 40
0.1111111111111111
 40
0.1111111111111111
 40
0.2222222222222222
 40
0.2222222222222222
 40
0.2222222222222222
 40
0.2222222222222222
 40
0.3333333333333333
 40
0.3333333333333333
 40
0.3333333333333333
 40
0.3333333333333333
 40
0.4444444444444444
 40
0.4444444444444444
 40
0.4444444444444444
 40
0.4444444444444444
 40
0.5555555555555556
 40
0.5555555555555556
 40
0.5555555555555556
 40
0.5555555555555556
 40
0.6666666666666666
 40
0.6666666666666666
 40
0.6666666666666666
 40
0.6666666666666666
 40
0.7777777777777778
 40
0.7777777777777778
 40
0.7777777777777778
 40
0.7777777777777778
 40
1.0
 40
1.0
 40
1.0
 40
1.0
 10
55.2462
 20
34.8276
 30
0.0
 10
54.5174
 20
32.1471
 30
0.0
 10
54.069
 20
30.7842
 30
0.0
 10
53.9175
 20
28.8534
 30
0.0
 10
53.9175
 20
28.8534
 30
0.0
 10
53.1639
 20
23.798
 30
0.0
 10
57.6831
 20
22.26
 30
0.0
 10
52.4654
 20
16.9241
 30
0.0
 10
52.4654
 20
16.9241
 30
0.0
 10
53.0005
 20
15.2735
 30
0.0
 10
55.6105
 20
12.748
 30
0.0
 10
58.3727
 20
13.0058
 30
0.0
 10
58.3727
 20
13.0058
 30
0.0
 10
57.541
 20
14.9677
 30
0.0
 10
58.6532
 20
17.1007
 30
0.0
 10
60.7163
 20
17.5152
 30
0.0
 10
60.7163
 20
17.5152
 30
0.0
 10
61.8043
 20
19.6589
 30
0.0
 10
62.23
 20
25.3124
 30
0.0
 10
59.9984
 20
29.1758
 30
0.0
 10
59.9984
 20
29.1758
 30
0.0
 10
59.1252
 20
28.292
 30
0.0
 10
57.2637
 20
27.1305
 30
0.0
 10
55.9579
 20
27.3972
 30
0.0
 10
55.9579
 20
27.3972
 30
0.0
 10
56.9191
 20
28.6928
 30
0.0
 10
58.3782
 20
30.4535
 30
0.0
 10
57.396
 20
31.9247
 30
0.0
 10
57.396
 20
31.9247
 30
0.0
 10
56.6946
 20
32.9501
 30
0.0
 10
55.9413
 20
34.1639
 30
0.0
 10
55.2462
 20
34.8276
 30
0.0
  0
SPLINE
  5
B5
330
1F
100
AcDbEntity
  8
layer 1
 62
     7
100
AcDbSpline
210
0.0
220
0.0
230
1.0
 70
    11
 71
     3
 72
    28
 73
    24
 74
     0
 42
0.0000000001
 43
0.0000000001
 12
1.0
 22
0.0
 32
0.0
 13
1.0
 23
0.0
 33
0.0
 40
0.0
 40
0.0
 40
0.0
 40
0.0
 40
0.1428571428571428
 40
0.1428571428571428
 40
0.1428571428571428
 40
0.1428571428571428
 40
0.2857142857142857
 40
0.2857142857142857
 40
0.2857142857142857
 40
0.2857142857142857
 40
0.4285714285714285
 40
0.4285714285714285
 40
0.4285714285714285
 40
0.4285714285714285
 40
0.5714285714285714
 40
0.5714285714285714
 40
0.5714285714285714
 40
0.5714285714285714
 40
0.7142857142857143
 40
0.7142857142857143
 40
0.7142857142857143
 40
0.7142857142857143
 40
1.0
 40
1.0
 40
1.0
 40
1.0
 10
64.3732
 20
13.0929
 30
0.0
 10
63.4039
 20
11.1205
 30
0.0
 10
61.1427
 20
10.4875
 30
0.0
 10
59.4686
 20
11.6756
 30
0.0
 10
59.4686
 20
11.6756
 30
0.0
 10
57.1098
 20
9.801
 30
0.0
 10
55.0168
 20
8.6074
 30
0.0
 10
52.7951
 20
7.5458
 30
0.0
 10
52.7951
 20
7.5458
 30
0.0
 10
55.0168
 20
6.4843
 30
0.0
 10
57.1098
 20
5.2907
 30
0.0
 10
59.4686
 20
3.4161
 30
0.0
 10
59.4686
 20
3.4161
 30
0.0
 10
61.1426
 20
4.6042
 30
0.0
 10
63.4039
 20
3.9712
 30
0.0
 10
64.3732
 20
1.9988
 30
0.0
 10
64.3732
 20
1.9988
 30
0.0
 10
64.3732
 20
4.4388
 30
0.0
 10
64.3732
 20
5.5507
 30
0.0
 10
64.3732
 20
7.5458
 30
0.0
 10
64.3732
 20
7.5458
 30
0.0
 10
64.3732
 20
9.541
 30
0.0
 10
64.3732
 20
10.6529
 30
0.0
 10
64.3732
 20
13.0929
 30
0.0
  0
SPLINE
  5
B6
330
1F
100
AcDbEntity
  8
layer 1
 62
     7
100
AcDbSpline
210
0.0
220
0.0
230
1.0
 70
    11
 71
     3
 72
    16
 73
    12
 74
     0
 42
0.0000000001
 43
0.0000000001
 12
1.0
 22
0.0
 32
0.0
 13
1.0
 23
0.0
 33
0.0
 40
0.0
 40
0.0
 40
0.0
 40
0.0
 40
0.25
 40
0.25
 40
0.25
 40
0.25
 40
0.5
 40
0.5
 40
0.5
 40
0.5
 40
1.0
 40
1.0
 40
1.0
 40
1.0
 10
64.3507
 20
-0.9274
 30
0.0
 10
64.1145
 20
-1.4423
 30
0.0
 10
63.4316
 20
-2.3367
 30
0.0
 10
62.6206
 20
-2.6208
 30
0.0
 10
62.6206
 20
-2.6208
 30
0.0
 10
63.4532
 20
-4.0138
 30
0.0
 10
64.0202
 20
-5.6202
 30
0.0
 10
64.3732
 20
-7.2394
 30
0.0
 10
64.3732
 20
-7.2394
 30
0.0
 10
64.3732
 20
-5.0471
 30
0.0
 10
64.3507
 20
-2.2478
 30
0.0
 10
64.3507
 20
-0.9274
 30
0.0
  0
SPLINE
  5
B7
330
1F
100
AcDbEntity
  8
layer 1
 62
     7
100
AcDbSpline
210
0.0
220
0.0
230
1.0
 70
    11
 71
     3
 72
    40
 73
    36
 74
     0
 42
0.0000000001
 43
0.0000000001
 12
1.0
 22
0.0
 32
0.0
 13
1.0
 23
0.0
 33
0.0
 40
0.0
 40
0.0
 40
0.0
 40
0.0
 40
0.1
 40
0.1
 40
0.1
 40
0.1
 40
0.2
 40
0.2
 40
0.2
 40
0.2
 40
0.3
 40
0.3
 40
0.3
 40
0.3
 40
0.4
 40
0.4
 40
0.4
 40
0.4
 40
0.5
 40
0.5
 40
0.5
 40
0.5
 40
0.6
 40
0.6
 40
0.6
 40
0.6
 40
0.7
 40
0.7
 40
0.7
 40
0.7
 40
0.8
 40
0.8
 40
0.8
 40
0.8
 40
1.0
 40
1.0
 40
1.0
 40
1.0
 10
55.2462
 20
-20.1809
 30
0.0
 10
54.5174
 20
-17.5004
 30
0.0
 10
54.069
 20
-16.1375
 30
0.0
 10
53.9175
 20
-14.2067
 30
0.0
 10
53.9175
 20
-14.2067
 30
0.0
 10
53.1639
 20
-9.1513
 30
0.0
 10
57.6831
 20
-7.6133
 30
0.0
 10
52.4654
 20
-2.2774
 30
0.0
 10
52.4654
 20
-2.2774
 30
0.0
 10
53.0005
 20
-0.6268
 30
0.0
 10
55.6105
 20
1.8987
 30
0.0
 10
58.3727
 20
1.6409
 30
0.0
 10
58.3727
 20
1.6409
 30
0.0
 10
57.541
 20
-0.321
 30
0.0
 10
58.6532
 20
-2.454
 30
0.0
 10
60.7163
 20
-2.8684
 30
0.0
 10
60.7163
 20
-2.8684
 30
0.0
 10
61.8043
 20
-5.0121
 30
0.0
 10
62.23
 20
-10.6657
 30
0.0
 10
59.9984
 20
-14.529
 30
0.0
 10
59.9984
 20
-14.529
 30
0.0
 10
59.1252
 20
-13.6452
 30
0.0
 10
57.2637
 20
-12.4837
 30
0.0
 10
55.9579
 20
-12.7504
 30
0.0
 10
55.9579
 20
-12.7504
 30
0.0
 10
56.9191
 20
-14.046
 30
0.0
 10
58.3782
 20
-15.8067
 30
0.0
 10
57.396
 20
-17.278
 30
0.0
 10
57.396
 20
-17.278
 30
0.0
 10
56.6946
 20
-18.3034
 30
0.0
 10
55.9413
 20
-19.5171
 30
0.0
 10
55.2462
 20
-20.1808
 30
0.0
 10
55.2462
 20
-20.1808
 30
0.0
 10
55.2462
 20
-20.1808
 30
0.0
 10
55.2462
 20
-20.1809
 30
0.0
 10
55.2462
 20
-20.1809
 30
0.0
  0
SPLINE
  5
B8
330
1F
100
AcDbEntity
  8
layer 1
 62
     7
100
AcDbSpline
210
0.0
220
0.0
230
1.0
 70
    11
 71
     3
 72
    40
 73
    36
 74
     0
 42
0.0000000001
 43
0.0000000001
 12
1.0
 22
0.0
 32
0.0
 13
1.0
 23
0.0
 33
0.0
 40
0.0
 40
0.0
 40
0.0
 40
0.0
 40
0.1
 40
0.1
 40
0.1
 40
0.1
 40
0.2
 40
0.2
 40
0.2
 40
0.2
 40
0.3
 40
0.3
 40
0.3
 40
0.3
 40
0.4
 40
0.4
 40
0.4
 40
0.4
 40
0.5
 40
0.5
 40
0.5
 40
0.5
 40
0.6
 40
0.6
 40
0.6
 40
0.6
 40
0.7
 40
0.7
 40
0.7
 40
0.7
 40
0.8
 40
0.8
 40
0.8
 40
0.8
 40
1.0
 40
1.0
 40
1.0
 40
1.0
 10
58.5955
 20
41.1243
 30
0.0
 10
56.5665
 20
40.8346
 30
0.0
 10
54.6221
 20
40.0975
 30
0.0
 10
55.0844
 20
37.2278
 30
0.0
 10
55.0844
 20
37.2278
 30
0.0
 10
53.5267
 20
37.6317
 30
0.0
 10
50.0924
 20
38.4896
 30
0.0
 10
47.6349
 20
38.2698
 30
0.0
 10
47.6349
 20
38.2698
 30
0.0
 10
49.1477
 20
40.1472
 30
0.0
 10
48.6071
 20
42.1523
 30
0.0
 10
47.3283
 20
43.1091
 30
0.0
 10
47.3283
 20
43.1091
 30
0.0
 10
46.106
 20
44.0239
 30
0.0
 10
44.8932
 20
43.9556
 30
0.0
 10
43.9275
 20
43.5025
 30
0.0
 10
43.9275
 20
43.5025
 30
0.0
 10
42.2637
 20
42.7219
 30
0.0
 10
40.9779
 20
40.1327
 30
0.0
 10
43.3613
 20
37.9657
 30
0.0
 10
43.3613
 20
37.9657
 30
0.0
 10
42.1247
 20
37.5842
 30
0.0
 10
40.9862
 20
37.1385
 30
0.0
 10
40.3865
 20
36.8849
 30
0.0
 10
40.3865
 20
36.8849
 30
0.0
 10
38.8094
 20
38.6789
 30
0.0
 10
37.2285
 20
39.9872
 30
0.0
 10
35.69
 20
41.3148
 30
0.0
 10
35.69
 20
41.3148
 30
0.0
 10
43.6417
 20
48.8533
 30
0.0
 10
55.0897
 20
45.3841
 30
0.0
 10
58.5954
 20
41.1243
 30
0.0
 10
58.5954
 20
41.1243
 30
0.0
 10
58.5954
 20
41.1243
 30
0.0
 10
58.5955
 20
41.1243
 30
0.0
 10
58.5955
 20
41.1243
 30
0.0
  0
SPLINE
  5
B9
330
1F
100
AcDbEntity
  8
layer 1
 62
     7
100
AcDbSpline
210
0.0
220
0.0
230
1.0
 70
    11
 71
     3
 72
    28
 73
    24
 74
     0
 42
0.0000000001
 43
0.0000000001
 12
1.0
 22
0.0
 32
0.0
 13
1.0
 23
0.0
 33
0.0
 40
0.0
 40
0.0
 40
0.0
 40
0.0
 40
0.1428571428571428
 40
0.1428571428571428
 40
0.1428571428571428
 40
0.1428571428571428
 40
0.2857142857142857
 40
0.2857142857142857
 40
0.2857142857142857
 40
0.2857142857142857
 40
0.4285714285714285
 40
0.4285714285714285
 40
0.4285714285714285
 40
0.4285714285714285
 40
0.5714285714285714
 40
0.5714285714285714
 40
0.5714285714285714
 40
0.5714285714285714
 40
0.7142857142857143
 40
0.7142857142857143
 40
0.7142857142857143
 40
0.7142857142857143
 40
1.0
 40
1.0
 40
1.0
 40
1.0
 10
37.7374
 20
8.2383
 30
0.0
 10
38.6952
 20
8.6841
 30
0.0
 10
39.5517
 20
9.1804
 30
0.0
 10
40.8831
 20
9.2303
 30
0.0
 10
40.8831
 20
9.2303
 30
0.0
 10
39.6278
 20
10.6103
 30
0.0
 10
39.6756
 20
12.9766
 30
0.0
 10
41.5518
 20
14.196
 30
0.0
 10
41.5518
 20
14.196
 30
0.0
 10
39.3044
 20
15.0251
 30
0.0
 10
38.1572
 20
15.9562
 30
0.0
 10
37.2583
 20
16.6623
 30
0.0
 10
37.2583
 20
16.6623
 30
0.0
 10
35.129
 20
14.2021
 30
0.0
 10
33.6557
 20
13.2366
 30
0.0
 10
32.4407
 20
12.0878
 30
0.0
 10
32.4407
 20
12.0878
 30
0.0
 10
33.1436
 20
11.2116
 30
0.0
 10
34.6159
 20
9.3971
 30
0.0
 10
37.7374
 20
8.2383
 30
0.0
 10
37.7374
 20
8.2383
 30
0.0
 10
37.7374
 20
8.2383
 30
0.0
 10
37.7374
 20
8.2383
 30
0.0
 10
37.7374
 20
8.2383
 30
0.0
  0
SPLINE
  5
BA
330
1F
100
AcDbEntity
  8
layer 1
 62
     7
100
AcDbSpline
210
0.0
220
0.0
230
1.0
 70
    11
 71
     3
 72
    24
 73
    20
 74
     0
 42
0.0000000001
 43
0.0000000001
 12
1.0
 22
0.0
 32
0.0
 13
1.0
 23
0.0
 33
0.0
 40
0.0
 40
0.0
 40
0.0
 40
0.0
 40
0.1666666666666667
 40
0.1666666666666667
 40
0.1666666666666667
 40
0.1666666666666667
 40
0.3333333333333333
 40
0.3333333333333333
 40
0.3333333333333333
 40
0.3333333333333333
 40
0.5
 40
0.5
 40
0.5
 40
0.5
 40
0.6666666666666666
 40
0.6666666666666666
 40
0.6666666666666666
 40
0.6666666666666666
 40
1.0
 40
1.0
 40
1.0
 40
1.0
 10
50.0259
 20
8.4971
 30
0.0
 10
48.5538
 20
8.9034
 30
0.0
 10
46.9241
 20
9.2506
 30
0.0
 10
45.3553
 20
9.0235
 30
0.0
 10
45.3553
 20
9.0235
 30
0.0
 10
47.0851
 20
10.4395
 30
0.0
 10
46.629
 20
12.9426
 30
0.0
 10
45.3068
 20
13.9399
 30
0.0
 10
45.3068
 20
13.9399
 30
0.0
 10
47.3297
 20
13.87
 30
0.0
 10
48.9731
 20
14.5593
 30
0.0
 10
50.5051
 20
15.5832
 30
0.0
 10
50.5051
 20
15.5832
 30
0.0
 10
51.5243
 20
14.0249
 30
0.0
 10
53.0838
 20
12.3818
 30
0.0
 10
55.0448
 20
11.7784
 30
0.0
 10
55.0448
 20
11.7784
 30
0.0
 10
53.9449
 20
10.9684
 30
0.0
 10
53.0833
 20
9.7603
 30
0.0
 10
50.0259
 20
8.4971
 30
0.0
  0
SPLINE
  5
BB
330
1F
100
AcDbEntity
  8
layer 1
 62
     7
100
AcDbSpline
210
0.0
220
0.0
230
1.0
 70
    11
 71
     3
 72
    40
 73
    36
 74
     0
 42
0.0000000001
 43
0.0000000001
 12
1.0
 22
0.0
 32
0.0
 13
1.0
 23
0.0
 33
0.0
 40
0.0
 40
0.0
 40
0.0
 40
0.0
 40
0.1
 40
0.1
 40
0.1
 40
0.1
 40
0.2
 40
0.2
 40
0.2
 40
0.2
 40
0.3
 40
0.3
 40
0.3
 40
0.3
 40
0.4
 40
0.4
 40
0.4
 40
0.4
 40
0.5
 40
0.5
 40
0.5
 40
0.5
 40
0.6
 40
0.6
 40
0.6
 40
0.6
 40
0.7
 40
0.7
 40
0.7
 40
0.7
 40
0.8
 40
0.8
 40
0.8
 40
0.8
 40
1.0
 40
1.0
 40
1.0
 40
1.0
 10
58.5955
 20
-75.8037
 30
0.0
 10
56.5665
 20
-76.0934
 30
0.0
 10
54.6221
 20
-76.8305
 30
0.0
 10
55.0844
 20
-79.7002
 30
0.0
 10
55.0844
 20
-79.7002
 30
0.0
 10
53.5267
 20
-79.2962
 30
0.0
 10
50.0924
 20
-78.4384
 30
0.0
 10
47.6349
 20
-78.6582
 30
0.0
 10
47.6349
 20
-78.6582
 30
0.0
 10
49.1477
 20
-76.7808
 30
0.0
 10
48.6071
 20
-74.7757
 30
0.0
 10
47.3283
 20
-73.8188
 30
0.0
 10
47.3283
 20
-73.8188
 30
0.0
 10
46.106
 20
-72.9042
 30
0.0
 10
44.8932
 20
-72.9724
 30
0.0
 10
43.9275
 20
-73.4255
 30
0.0
 10
43.9275
 20
-73.4255
 30
0.0
 10
42.2637
 20
-74.2062
 30
0.0
 10
40.9779
 20
-76.7953
 30
0.0
 10
43.3613
 20
-78.9623
 30
0.0
 10
43.3613
 20
-78.9623
 30
0.0
 10
42.1247
 20
-79.3438
 30
0.0
 10
40.9862
 20
-79.7895
 30
0.0
 10
40.3865
 20
-80.0431
 30
0.0
 10
40.3865
 20
-80.0431
 30
0.0
 10
38.8094
 20
-78.2491
 30
0.0
 10
37.2285
 20
-76.9408
 30
0.0
 10
35.69
 20
-75.6132
 30
0.0
 10
35.69
 20
-75.6132
 30
0.0
 10
43.6417
 20
-68.0747
 30
0.0
 10
55.0897
 20
-71.5439
 30
0.0
 10
58.5954
 20
-75.8036
 30
0.0
 10
58.5954
 20
-75.8036
 30
0.0
 10
58.5954
 20
-75.8036
 30
0.0
 10
58.5955
 20
-75.8037
 30
0.0
 10
58.5955
 20
-75.8037
 30
0.0
  0
SPLINE
  5
BC
330
1F
100
AcDbEntity
  8
layer 1
 62
     7
100
AcDbSpline
210
0.0
220
0.0
230
1.0
 70
    11
 71
     3
 72
    24
 73
    20
 74
     0
 42
0.0000000001
 43
0.0000000001
 12
1.0
 22
0.0
 32
0.0
 13
1.0
 23
0.0
 33
0.0
 40
0.0
 40
0.0
 40
0.0
 40
0.0
 40
0.1666666666666667
 40
0.1666666666666667
 40
0.1666666666666667
 40
0.1666666666666667
 40
0.3333333333333333
 40
0.3333333333333333
 40
0.3333333333333333
 40
0.3333333333333333
 40
0.5
 40
0.5
 40
0.5
 40
0.5
 40
0.6666666666666666
 40
0.6666666666666666
 40
0.6666666666666666
 40
0.6666666666666666
 40
1.0
 40
1.0
 40
1.0
 40
1.0
 10
50.0259
 20
-107.6692
 30
0.0
 10
48.5538
 20
-107.2629
 30
0.0
 10
46.9241
 20
-106.9157
 30
0.0
 10
45.3553
 20
-107.1428
 30
0.0
 10
45.3553
 20
-107.1428
 30
0.0
 10
47.0851
 20
-105.7268
 30
0.0
 10
46.629
 20
-103.2237
 30
0.0
 10
45.3068
 20
-102.2263
 30
0.0
 10
45.3068
 20
-102.2263
 30
0.0
 10
47.3297
 20
-102.2963
 30
0.0
 10
48.9731
 20
-101.607
 30
0.0
 10
50.5051
 20
-100.5831
 30
0.0
 10
50.5051
 20
-100.5831
 30
0.0
 10
51.5243
 20
-102.1413
 30
0.0
 10
53.0838
 20
-103.7846
 30
0.0
 10
55.0448
 20
-104.3878
 30
0.0
 10
55.0448
 20
-104.3878
 30
0.0
 10
53.9449
 20
-105.1978
 30
0.0
 10
53.0833
 20
-106.4059
 30
0.0
 10
50.0259
 20
-107.6692
 30
0.0
  0
SPLINE
  5
BD
330
1F
100
AcDbEntity
  8
layer 1
 62
     7
100
AcDbSpline
210
0.0
220
0.0
230
1.0
 70
    11
 71
     3
 72
    28
 73
    24
 74
     0
 42
0.0000000001
 43
0.0000000001
 12
1.0
 22
0.0
 32
0.0
 13
1.0
 23
0.0
 33
0.0
 40
0.0
 40
0.0
 40
0.0
 40
0.0
 40
0.1428571428571428
 40
0.1428571428571428
 40
0.1428571428571428
 40
0.1428571428571428
 40
0.2857142857142857
 40
0.2857142857142857
 40
0.2857142857142857
 40
0.2857142857142857
 40
0.4285714285714285
 40
0.4285714285714285
 40
0.4285714285714285
 40
0.4285714285714285
 40
0.5714285714285714
 40
0.5714285714285714
 40
0.5714285714285714
 40
0.5714285714285714
 40
0.7142857142857143
 40
0.7142857142857143
 40
0.7142857142857143
 40
0.7142857142857143
 40
1.0
 40
1.0
 40
1.0
 40
1.0
 10
37.7374
 20
122.7203
 30
0.0
 10
38.6952
 20
122.2745
 30
0.0
 10
39.5517
 20
121.7781
 30
0.0
 10
40.8831
 20
121.7283
 30
0.0
 10
40.8831
 20
121.7283
 30
0.0
 10
39.6278
 20
120.3483
 30
0.0
 10
39.6756
 20
117.9819
 30
0.0
 10
41.5518
 20
116.7625
 30
0.0
 10
41.5518
 20
116.7625
 30
0.0
 10
39.3044
 20
115.9334
 30
0.0
 10
38.1572
 20
115.0024
 30
0.0
 10
37.2583
 20
114.2963
 30
0.0
 10
37.2583
 20
114.2963
 30
0.0
 10
35.129
 20
116.7564
 30
0.0
 10
33.6557
 20
117.7219
 30
0.0
 10
32.4407
 20
118.8708
 30
0.0
 10
32.4407
 20
118.8708
 30
0.0
 10
33.1436
 20
119.747
 30
0.0
 10
34.6159
 20
121.5615
 30
0.0
 10
37.7374
 20
122.7203
 30
0.0
 10
37.7374
 20
122.7203
 30
0.0
 10
37.7374
 20
122.7203
 30
0.0
 10
37.7374
 20
122.7203
 30
0.0
 10
37.7374
 20
122.7203
 30
0.0
  0
SPLINE
  5
BE
330
1F
100
AcDbEntity
  8
layer 1
 62
     7
100
AcDbSpline
210
0.0
220
0.0
230
1.0
 70
    11
 71
     3
 72
    28
 73
    24
 74
     0
 42
0.0000000001
 43
0.0000000001
 12
1.0
 22
0.0
 32
0.0
 13
1.0
 23
0.0
 33
0.0
 40
0.0
 40
0.0
 40
0.0
 40
0.0
 40
0.1428571428571428
 40
0.1428571428571428
 40
0.1428571428571428
 40
0.1428571428571428
 40
0.2857142857142857
 40
0.2857142857142857
 40
0.2857142857142857
 40
0.2857142857142857
 40
0.4285714285714285
 40
0.4285714285714285
 40
0.4285714285714285
 40
0.4285714285714285
 40
0.5714285714285714
 40
0.5714285714285714
 40
0.5714285714285714
 40
0.5714285714285714
 40
0.7142857142857143
 40
0.7142857142857143
 40
0.7142857142857143
 40
0.7142857142857143
 40
1.0
 40
1.0
 40
1.0
 40
1.0
 10
50.0259
 20
122.4614
 30
0.0
 10
48.5538
 20
122.0551
 30
0.0
 10
46.9241
 20
121.7079
 30
0.0
 10
45.3553
 20
121.9351
 30
0.0
 10
45.3553
 20
121.9351
 30
0.0
 10
47.0851
 20
120.519
 30
0.0
 10
46.629
 20
118.0159
 30
0.0
 10
45.3068
 20
117.0186
 30
0.0
 10
45.3068
 20
117.0186
 30
0.0
 10
47.3297
 20
117.0885
 30
0.0
 10
48.9731
 20
116.3992
 30
0.0
 10
50.5051
 20
115.3754
 30
0.0
 10
50.5051
 20
115.3754
 30
0.0
 10
51.5243
 20
116.9336
 30
0.0
 10
53.0838
 20
118.5768
 30
0.0
 10
55.0448
 20
119.1801
 30
0.0
 10
55.0448
 20
119.1801
 30
0.0
 10
53.9449
 20
119.9902
 30
0.0
 10
53.0833
 20
121.1982
 30
0.0
 10
50.0259
 20
122.4615
 30
0.0
 10
50.0259
 20
122.4615
 30
0.0
 10
50.0259
 20
122.4615
 30
0.0
 10
50.0259
 20
122.4614
 30
0.0
 10
50.0259
 20
122.4614
 30
0.0
  0
SPLINE
  5
BF
330
1F
100
AcDbEntity
  8
layer 1
 62
     7
100
AcDbSpline
210
0.0
220
0.0
230
1.0
 70
    11
 71
     3
 72
    40
 73
    36
 74
     0
 42
0.0000000001
 43
0.0000000001
 12
1.0
 22
0.0
 32
0.0
 13
1.0
 23
0.0
 33
0.0
 40
0.0
 40
0.0
 40
0.0
 40
0.0
 40
0.1
 40
0.1
 40
0.1
 40
0.1
 40
0.2
 40
0.2
 40
0.2
 40
0.2
 40
0.3
 40
0.3
 40
0.3
 40
0.3
 40
0.4
 40
0.4
 40
0.4
 40
0.4
 40
0.5
 40
0.5
 40
0.5
 40
0.5
 40
0.6
 40
0.6
 40
0.6
 40
0.6
 40
0.7
 40
0.7
 40
0.7
 40
0.7
 40
0.8
 40
0.8
 40
0.8
 40
0.8
 40
1.0
 40
1.0
 40
1.0
 40
1.0
 10
58.5955
 20
90.6241
 30
0.0
 10
56.5665
 20
90.9138
 30
0.0
 10
54.6221
 20
91.6509
 30
0.0
 10
55.0844
 20
94.5206
 30
0.0
 10
55.0844
 20
94.5206
 30
0.0
 10
53.5267
 20
94.1166
 30
0.0
 10
50.0924
 20
93.2588
 30
0.0
 10
47.6349
 20
93.4786
 30
0.0
 10
47.6349
 20
93.4786
 30
0.0
 10
49.1477
 20
91.6012
 30
0.0
 10
48.6071
 20
89.5961
 30
0.0
 10
47.3283
 20
88.6392
 30
0.0
 10
47.3283
 20
88.6392
 30
0.0
 10
46.106
 20
87.7245
 30
0.0
 10
44.8932
 20
87.7928
 30
0.0
 10
43.9275
 20
88.2459
 30
0.0
 10
43.9275
 20
88.2459
 30
0.0
 10
42.2637
 20
89.0265
 30
0.0
 10
40.9779
 20
91.6157
 30
0.0
 10
43.3613
 20
93.7827
 30
0.0
 10
43.3613
 20
93.7827
 30
0.0
 10
42.1247
 20
94.1642
 30
0.0
 10
40.9862
 20
94.6099
 30
0.0
 10
40.3865
 20
94.8635
 30
0.0
 10
40.3865
 20
94.8635
 30
0.0
 10
38.8094
 20
93.0695
 30
0.0
 10
37.2285
 20
91.7612
 30
0.0
 10
35.69
 20
90.4336
 30
0.0
 10
35.69
 20
90.4336
 30
0.0
 10
43.6417
 20
82.8951
 30
0.0
 10
55.0897
 20
86.3643
 30
0.0
 10
58.5954
 20
90.6241
 30
0.0
 10
58.5954
 20
90.6241
 30
0.0
 10
58.5954
 20
90.6241
 30
0.0
 10
58.5955
 20
90.6241
 30
0.0
 10
58.5955
 20
90.6241
 30
0.0
  0
SPLINE
  5
C0
330
1F
100
AcDbEntity
  8
layer 1
 62
     7
100
AcDbSpline
210
0.0
220
0.0
230
1.0
 70
    11
 71
     3
 72
    32
 73
    28
 74
     0
 42
0.0000000001
 43
0.0000000001
 12
1.0
 22
0.0
 32
0.0
 13
1.0
 23
0.0
 33
0.0
 40
0.0
 40
0.0
 40
0.0
 40
0.0
 40
0.125
 40
0.125
 40
0.125
 40
0.125
 40
0.25
 40
0.25
 40
0.25
 40
0.25
 40
0.375
 40
0.375
 40
0.375
 40
0.375
 40
0.5
 40
0.5
 40
0.5
 40
0.5
 40
0.625
 40
0.625
 40
0.625
 40
0.625
 40
0.75
 40
0.75
 40
0.75
 40
0.75
 40
1.0
 40
1.0
 40
1.0
 40
1.0
 10
53.3876
 20
95.7608
 30
0.0
 10
48.4246
 20
93.7808
 30
0.0
 10
44.058
 20
95.1163
 30
0.0
 10
41.749
 20
96.3328
 30
0.0
 10
41.749
 20
96.3328
 30
0.0
 10
43.7605
 20
98.0022
 30
0.0
 10
45.2413
 20
104.8388
 30
0.0
 10
42.4295
 20
109.0243
 30
0.0
 10
42.4295
 20
109.0243
 30
0.0
 10
47.0166
 20
107.8624
 30
0.0
 10
50.1294
 20
110.5403
 30
0.0
 10
51.1047
 20
112.3679
 30
0.0
 10
51.1047
 20
112.3679
 30
0.0
 10
51.9813
 20
111.454
 30
0.0
 10
52.9834
 20
109.3461
 30
0.0
 10
52.1238
 20
106.7379
 30
0.0
 10
52.1238
 20
106.7379
 30
0.0
 10
50.7758
 20
109.4023
 30
0.0
 10
47.5342
 20
107.4283
 30
0.0
 10
47.2271
 20
105.3639
 30
0.0
 10
47.2271
 20
105.3639
 30
0.0
 10
46.4984
 20
100.4654
 30
0.0
 10
49.8427
 20
96.7825
 30
0.0
 10
53.3877
 20
95.7608
 30
0.0
 10
53.3877
 20
95.7608
 30
0.0
 10
53.3877
 20
95.7608
 30
0.0
 10
53.3876
 20
95.7608
 30
0.0
 10
53.3876
 20
95.7608
 30
0.0
  0
SPLINE
  5
C1
330
1F
100
AcDbEntity
  8
layer 1
 62
     7
100
AcDbSpline
210
0.0
220
0.0
230
1.0
 70
    11
 71
     3
 72
    16
 73
    12
 74
     0
 42
0.0000000001
 43
0.0000000001
 12
1.0
 22
0.0
 32
0.0
 13
1.0
 23
0.0
 33
0.0
 40
0.0
 40
0.0
 40
0.0
 40
0.0
 40
0.25
 40
0.25
 40
0.25
 40
0.25
 40
0.5
 40
0.5
 40
0.5
 40
0.5
 40
1.0
 40
1.0
 40
1.0
 40
1.0
 10
64.3732
 20
98.2603
 30
0.0
 10
64.3732
 20
99.2617
 30
0.0
 10
62.7013
 20
100.3346
 30
0.0
 10
62.009
 20
100.813
 30
0.0
 10
62.009
 20
100.813
 30
0.0
 10
63.1228
 20
102.206
 30
0.0
 10
64.0202
 20
104.5771
 30
0.0
 10
64.3732
 20
106.1963
 30
0.0
 10
64.3732
 20
106.1963
 30
0.0
 10
64.3732
 20
104.004
 30
0.0
 10
64.3732
 20
99.5807
 30
0.0
 10
64.3732
 20
98.2603
 30
0.0
  0
SPLINE
  5
C2
330
1F
100
AcDbEntity
  8
layer 1
 62
     7
100
AcDbSpline
210
0.0
220
0.0
230
1.0
 70
    11
 71
     3
 72
    24
 73
    20
 74
     0
 42
0.0000000001
 43
0.0000000001
 12
1.0
 22
0.0
 32
0.0
 13
1.0
 23
0.0
 33
0.0
 40
0.0
 40
0.0
 40
0.0
 40
0.0
 40
0.1666666666666667
 40
0.1666666666666667
 40
0.1666666666666667
 40
0.1666666666666667
 40
0.3333333333333333
 40
0.3333333333333333
 40
0.3333333333333333
 40
0.3333333333333333
 40
0.5
 40
0.5
 40
0.5
 40
0.5
 40
0.6666666666666666
 40
0.6666666666666666
 40
0.6666666666666666
 40
0.6666666666666666
 40
1.0
 40
1.0
 40
1.0
 40
1.0
 10
30.8644
 20
117.135
 30
0.0
 10
32.3143
 20
116.085
 30
0.0
 10
34.2367
 20
113.5465
 30
0.0
 10
35.5771
 20
111.763
 30
0.0
 10
35.5771
 20
111.763
 30
0.0
 10
34.5389
 20
110.4525
 30
0.0
 10
34.0056
 20
109.0332
 30
0.0
 10
33.5743
 20
107.7743
 30
0.0
 10
33.5743
 20
107.7743
 30
0.0
 10
32.532
 20
111.2496
 30
0.0
 10
29.4522
 20
112.4992
 30
0.0
 10
27.5617
 20
110.8425
 30
0.0
 10
27.5617
 20
110.8425
 30
0.0
 10
27.8303
 20
112.6916
 30
0.0
 10
29.494
 20
116.0223
 30
0.0
 10
30.8644
 20
117.1349
 30
0.0
 10
30.8644
 20
117.1349
 30
0.0
 10
30.8644
 20
117.1349
 30
0.0
 10
30.8644
 20
117.135
 30
0.0
 10
30.8644
 20
117.135
 30
0.0
  0
SPLINE
  5
C3
330
1F
100
AcDbEntity
  8
layer 1
 62
     7
100
AcDbSpline
210
0.0
220
0.0
230
1.0
 70
    11
 71
     3
 72
    20
 73
    16
 74
     0
 42
0.0000000001
 43
0.0000000001
 12
1.0
 22
0.0
 32
0.0
 13
1.0
 23
0.0
 33
0.0
 40
0.0
 40
0.0
 40
0.0
 40
0.0
 40
0.2
 40
0.2
 40
0.2
 40
0.2
 40
0.4
 40
0.4
 40
0.4
 40
0.4
 40
0.6
 40
0.6
 40
0.6
 40
0.6
 40
1.0
 40
1.0
 40
1.0
 40
1.0
 10
29.2479
 20
104.7422
 30
0.0
 10
30.0241
 20
102.0348
 30
0.0
 10
28.6588
 20
100.219
 30
0.0
 10
26.5005
 20
100.3807
 30
0.0
 10
26.5005
 20
100.3807
 30
0.0
 10
24.3423
 20
100.219
 30
0.0
 10
22.977
 20
102.0348
 30
0.0
 10
23.7531
 20
104.7422
 30
0.0
 10
23.7531
 20
104.7422
 30
0.0
 10
24.7559
 20
105.5328
 30
0.0
 10
25.8172
 20
107.0031
 30
0.0
 10
26.5005
 20
109.6288
 30
0.0
 10
26.5005
 20
109.6288
 30
0.0
 10
27.1839
 20
107.0031
 30
0.0
 10
28.2452
 20
105.5328
 30
0.0
 10
29.2479
 20
104.7422
 30
0.0
  0
SPLINE
  5
C4
330
1F
100
AcDbEntity
  8
layer 1
 62
     7
100
AcDbSpline
210
0.0
220
0.0
230
1.0
 70
    11
 71
     3
 72
    32
 73
    28
 74
     0
 42
0.0000000001
 43
0.0000000001
 12
1.0
 22
0.0
 32
0.0
 13
1.0
 23
0.0
 33
0.0
 40
0.0
 40
0.0
 40
0.0
 40
0.0
 40
0.125
 40
0.125
 40
0.125
 40
0.125
 40
0.25
 40
0.25
 40
0.25
 40
0.25
 40
0.375
 40
0.375
 40
0.375
 40
0.375
 40
0.5
 40
0.5
 40
0.5
 40
0.5
 40
0.625
 40
0.625
 40
0.625
 40
0.625
 40
0.75
 40
0.75
 40
0.75
 40
0.75
 40
1.0
 40
1.0
 40
1.0
 40
1.0
 10
50.2622
 20
74.4341
 30
0.0
 10
49.16
 20
70.6157
 30
0.0
 10
45.0692
 20
66.8575
 30
0.0
 10
38.4396
 20
67.3763
 30
0.0
 10
38.4396
 20
67.3763
 30
0.0
 10
42.9332
 20
71.9874
 30
0.0
 10
42.2996
 20
79.2836
 30
0.0
 10
39.5798
 20
84.4803
 30
0.0
 10
39.5798
 20
84.4803
 30
0.0
 10
44.6265
 20
82.583
 30
0.0
 10
48.2909
 20
83.1466
 30
0.0
 10
52.6674
 20
84.1469
 30
0.0
 10
52.6674
 20
84.1469
 30
0.0
 10
51.7974
 20
82.4976
 30
0.0
 10
51.3288
 20
81.6766
 30
0.0
 10
51.5723
 20
78.9765
 30
0.0
 10
51.5723
 20
78.9765
 30
0.0
 10
49.8565
 20
82.5602
 30
0.0
 10
45.6037
 20
82.7923
 30
0.0
 10
44.5612
 20
80.7279
 30
0.0
 10
44.5612
 20
80.7279
 30
0.0
 10
48.0282
 20
80.2601
 30
0.0
 10
43.9595
 20
73.6174
 30
0.0
 10
50.2621
 20
74.4341
 30
0.0
 10
50.2621
 20
74.4341
 30
0.0
 10
50.2621
 20
74.4341
 30
0.0
 10
50.2622
 20
74.4341
 30
0.0
 10
50.2622
 20
74.4341
 30
0.0
  0
SPLINE
  5
C5
330
1F
100
AcDbEntity
  8
layer 1
 62
     7
100
AcDbSpline
210
0.0
220
0.0
230
1.0
 70
    11
 71
     3
 72
    36
 73
    32
 74
     0
 42
0.0000000001
 43
0.0000000001
 12
1.0
 22
0.0
 32
0.0
 13
1.0
 23
0.0
 33
0.0
 40
0.0
 40
0.0
 40
0.0
 40
0.0
 40
0.1111111111111111
 40
0.1111111111111111
 40
0.1111111111111111
 40
0.1111111111111111
 40
0.2222222222222222
 40
0.2222222222222222
 40
0.2222222222222222
 40
0.2222222222222222
 40
0.3333333333333333
 40
0.3333333333333333
 40
0.3333333333333333
 40
0.3333333333333333
 40
0.4444444444444444
 40
0.4444444444444444
 40
0.4444444444444444
 40
0.4444444444444444
 40
0.5555555555555556
 40
0.5555555555555556
 40
0.5555555555555556
 40
0.5555555555555556
 40
0.6666666666666666
 40
0.6666666666666666
 40
0.6666666666666666
 40
0.6666666666666666
 40
0.7777777777777778
 40
0.7777777777777778
 40
0.7777777777777778
 40
0.7777777777777778
 40
1.0
 40
1.0
 40
1.0
 40
1.0
 10
59.2064
 20
74.5261
 30
0.0
 10
59.6722
 20
76.4338
 30
0.0
 10
59.0957
 20
79.3076
 30
0.0
 10
64.3732
 20
78.3154
 30
0.0
 10
64.3732
 20
78.3154
 30
0.0
 10
64.3732
 20
78.3154
 30
0.0
 10
64.3732
 20
94.0405
 30
0.0
 10
64.3732
 20
94.0405
 30
0.0
 10
64.3732
 20
94.0405
 30
0.0
 10
62.1101
 20
90.155
 30
0.0
 10
60.7826
 20
89.056
 30
0.0
 10
56.5254
 20
85.8015
 30
0.0
 10
56.5254
 20
85.8015
 30
0.0
 10
60.8549
 20
86.1404
 30
0.0
 10
62.8532
 20
83.5548
 30
0.0
 10
61.2975
 20
80.815
 30
0.0
 10
61.2975
 20
80.815
 30
0.0
 10
60.8392
 20
82.0543
 30
0.0
 10
58.4719
 20
82.633
 30
0.0
 10
56.8143
 20
81.4789
 30
0.0
 10
56.8143
 20
81.4789
 30
0.0
 10
55.5024
 20
80.5655
 30
0.0
 10
55.3625
 20
78.5604
 30
0.0
 10
53.9683
 20
76.9589
 30
0.0
 10
53.9683
 20
76.9589
 30
0.0
 10
56.9034
 20
77.2068
 30
0.0
 10
58.0333
 20
76.8109
 30
0.0
 10
59.2064
 20
74.526
 30
0.0
 10
59.2064
 20
74.526
 30
0.0
 10
59.2064
 20
74.526
 30
0.0
 10
59.2064
 20
74.5261
 30
0.0
 10
59.2064
 20
74.5261
 30
0.0
  0
SPLINE
  5
C6
330
1F
100
AcDbEntity
  8
layer 1
 62
     7
100
AcDbSpline
210
0.0
220
0.0
230
1.0
 70
    11
 71
     3
 72
    32
 73
    28
 74
     0
 42
0.0000000001
 43
0.0000000001
 12
1.0
 22
0.0
 32
0.0
 13
1.0
 23
0.0
 33
0.0
 40
0.0
 40
0.0
 40
0.0
 40
0.0
 40
0.125
 40
0.125
 40
0.125
 40
0.125
 40
0.25
 40
0.25
 40
0.25
 40
0.25
 40
0.375
 40
0.375
 40
0.375
 40
0.375
 40
0.5
 40
0.5
 40
0.5
 40
0.5
 40
0.625
 40
0.625
 40
0.625
 40
0.625
 40
0.75
 40
0.75
 40
0.75
 40
0.75
 40
1.0
 40
1.0
 40
1.0
 40
1.0
 10
38.1715
 20
75.4464
 30
0.0
 10
37.9691
 20
73.2588
 30
0.0
 10
37.646
 20
70.4004
 30
0.0
 10
35.2342
 20
68.1074
 30
0.0
 10
35.2342
 20
68.1074
 30
0.0
 10
31.446
 20
70.3268
 30
0.0
 10
29.8504
 20
72.3046
 30
0.0
 10
28.9465
 20
74.6291
 30
0.0
 10
28.9465
 20
74.6291
 30
0.0
 10
31.8233
 20
75.8681
 30
0.0
 10
30.9301
 20
79.8279
 30
0.0
 10
28.6597
 20
80.2476
 30
0.0
 10
28.6597
 20
80.2476
 30
0.0
 10
29.4557
 20
83.6358
 30
0.0
 10
31.2562
 20
86.3649
 30
0.0
 10
33.0003
 20
87.7983
 30
0.0
 10
33.0003
 20
87.7983
 30
0.0
 10
33.4313
 20
86.7635
 30
0.0
 10
34.1707
 20
86.0089
 30
0.0
 10
35.1971
 20
84.2634
 30
0.0
 10
35.1971
 20
84.2634
 30
0.0
 10
37.4922
 20
80.3269
 30
0.0
 10
36.4432
 20
76.6215
 30
0.0
 10
32.4143
 20
77.8036
 30
0.0
 10
32.4143
 20
77.8036
 30
0.0
 10
32.5634
 20
75.9861
 30
0.0
 10
34.793
 20
72.4364
 30
0.0
 10
38.1715
 20
75.4464
 30
0.0
  0
SPLINE
  5
C7
330
1F
100
AcDbEntity
  8
layer 1
 62
     7
100
AcDbSpline
210
0.0
220
0.0
230
1.0
 70
    11
 71
     3
 72
    20
 73
    16
 74
     0
 42
0.0000000001
 43
0.0000000001
 12
1.0
 22
0.0
 32
0.0
 13
1.0
 23
0.0
 33
0.0
 40
0.0
 40
0.0
 40
0.0
 40
0.0
 40
0.2
 40
0.2
 40
0.2
 40
0.2
 40
0.4
 40
0.4
 40
0.4
 40
0.4
 40
0.6
 40
0.6
 40
0.6
 40
0.6
 40
1.0
 40
1.0
 40
1.0
 40
1.0
 10
30.481
 20
120.2612
 30
0.0
 10
31.5624
 20
121.3638
 30
0.0
 10
33.2382
 20
122.4286
 30
0.0
 10
35.0523
 20
123.7385
 30
0.0
 10
35.0523
 20
123.7385
 30
0.0
 10
35.0523
 20
123.7385
 30
0.0
 10
27.2445
 20
123.7385
 30
0.0
 10
27.2445
 20
123.7385
 30
0.0
 10
27.2445
 20
123.7385
 30
0.0
 10
28.3956
 20
122.4294
 30
0.0
 10
29.1106
 20
121.5707
 30
0.0
 10
30.481
 20
120.2612
 30
0.0
 10
30.481
 20
120.2612
 30
0.0
 10
30.481
 20
120.2612
 30
0.0
 10
30.481
 20
120.2612
 30
0.0
 10
30.481
 20
120.2612
 30
0.0
  0
SPLINE
  5
C8
330
1F
100
AcDbEntity
  8
layer 1
 62
     7
100
AcDbSpline
210
0.0
220
0.0
230
1.0
 70
    11
 71
     3
 72
    20
 73
    16
 74
     0
 42
0.0000000001
 43
0.0000000001
 12
1.0
 22
0.0
 32
0.0
 13
1.0
 23
0.0
 33
0.0
 40
0.0
 40
0.0
 40
0.0
 40
0.0
 40
0.2
 40
0.2
 40
0.2
 40
0.2
 40
0.4
 40
0.4
 40
0.4
 40
0.4
 40
0.6
 40
0.6
 40
0.6
 40
0.6
 40
1.0
 40
1.0
 40
1.0
 40
1.0
 10
52.7952
 20
123.7922
 30
0.0
 10
55.0169
 20
122.7307
 30
0.0
 10
57.1098
 20
121.537
 30
0.0
 10
59.4687
 20
119.6625
 30
0.0
 10
59.4687
 20
119.6625
 30
0.0
 10
61.1427
 20
120.8506
 30
0.0
 10
63.4039
 20
120.2176
 30
0.0
 10
64.3733
 20
118.2452
 30
0.0
 10
64.3733
 20
118.2452
 30
0.0
 10
64.3733
 20
120.6851
 30
0.0
 10
64.3733
 20
121.7971
 30
0.0
 10
64.3733
 20
123.7922
 30
0.0
 10
64.3733
 20
123.7922
 30
0.0
 10
64.3733
 20
123.7922
 30
0.0
 10
52.7952
 20
123.7922
 30
0.0
 10
52.7952
 20
123.7922
 30
0.0
  0
SPLINE
  5
C9
330
1F
100
AcDbEntity
  8
layer 1
 62
     7
100
AcDbSpline
210
0.0
220
0.0
230
1.0
 70
    11
 71
     3
 72
    16
 73
    12
 74
     0
 42
0.0000000001
 43
0.0000000001
 12
1.0
 22
0.0
 32
0.0
 13
1.0
 23
0.0
 33
0.0
 40
0.0
 40
0.0
 40
0.0
 40
0.0
 40
0.25
 40
0.25
 40
0.25
 40
0.25
 40
0.5
 40
0.5
 40
0.5
 40
0.5
 40
1.0
 40
1.0
 40
1.0
 40
1.0
 10
64.3507
 20
115.319
 30
0.0
 10
64.1145
 20
114.804
 30
0.0
 10
63.4316
 20
113.9096
 30
0.0
 10
62.6206
 20
113.6255
 30
0.0
 10
62.6206
 20
113.6255
 30
0.0
 10
63.4532
 20
112.2325
 30
0.0
 10
64.0202
 20
110.6262
 30
0.0
 10
64.3732
 20
109.007
 30
0.0
 10
64.3732
 20
109.007
 30
0.0
 10
64.3732
 20
111.1993
 30
0.0
 10
64.3507
 20
113.9986
 30
0.0
 10
64.3507
 20
115.319
 30
0.0
  0
SPLINE
  5
CA
330
1F
100
AcDbEntity
  8
layer 1
 62
     7
100
AcDbSpline
210
0.0
220
0.0
230
1.0
 70
    11
 71
     3
 72
    36
 73
    32
 74
     0
 42
0.0000000001
 43
0.0000000001
 12
1.0
 22
0.0
 32
0.0
 13
1.0
 23
0.0
 33
0.0
 40
0.0
 40
0.0
 40
0.0
 40
0.0
 40
0.1111111111111111
 40
0.1111111111111111
 40
0.1111111111111111
 40
0.1111111111111111
 40
0.2222222222222222
 40
0.2222222222222222
 40
0.2222222222222222
 40
0.2222222222222222
 40
0.3333333333333333
 40
0.3333333333333333
 40
0.3333333333333333
 40
0.3333333333333333
 40
0.4444444444444444
 40
0.4444444444444444
 40
0.4444444444444444
 40
0.4444444444444444
 40
0.5555555555555556
 40
0.5555555555555556
 40
0.5555555555555556
 40
0.5555555555555556
 40
0.6666666666666666
 40
0.6666666666666666
 40
0.6666666666666666
 40
0.6666666666666666
 40
0.7777777777777778
 40
0.7777777777777778
 40
0.7777777777777778
 40
0.7777777777777778
 40
1.0
 40
1.0
 40
1.0
 40
1.0
 10
55.2462
 20
96.0655
 30
0.0
 10
54.5174
 20
98.746
 30
0.0
 10
54.069
 20
100.1088
 30
0.0
 10
53.9175
 20
102.0397
 30
0.0
 10
53.9175
 20
102.0397
 30
0.0
 10
53.1639
 20
107.0951
 30
0.0
 10
57.6831
 20
108.633
 30
0.0
 10
52.4654
 20
113.969
 30
0.0
 10
52.4654
 20
113.969
 30
0.0
 10
53.0005
 20
115.6196
 30
0.0
 10
55.6105
 20
118.145
 30
0.0
 10
58.3727
 20
117.8872
 30
0.0
 10
58.3727
 20
117.8872
 30
0.0
 10
57.541
 20
115.9253
 30
0.0
 10
58.6532
 20
113.7924
 30
0.0
 10
60.7163
 20
113.3779
 30
0.0
 10
60.7163
 20
113.3779
 30
0.0
 10
61.8043
 20
111.2342
 30
0.0
 10
62.23
 20
105.5807
 30
0.0
 10
59.9984
 20
101.7173
 30
0.0
 10
59.9984
 20
101.7173
 30
0.0
 10
59.1252
 20
102.601
 30
0.0
 10
57.2637
 20
103.7625
 30
0.0
 10
55.9579
 20
103.4959
 30
0.0
 10
55.9579
 20
103.4959
 30
0.0
 10
56.9191
 20
102.2003
 30
0.0
 10
58.3782
 20
100.4396
 30
0.0
 10
57.396
 20
98.9684
 30
0.0
 10
57.396
 20
98.9684
 30
0.0
 10
56.6946
 20
97.9429
 30
0.0
 10
55.9413
 20
96.7292
 30
0.0
 10
55.2462
 20
96.0655
 30
0.0
  0
SPLINE
  5
CB
330
1F
100
AcDbEntity
  8
layer 1
 62
     7
100
AcDbSpline
210
0.0
220
0.0
230
1.0
 70
    11
 71
     3
 72
    28
 73
    24
 74
     0
 42
0.0000000001
 43
0.0000000001
 12
1.0
 22
0.0
 32
0.0
 13
1.0
 23
0.0
 33
0.0
 40
0.0
 40
0.0
 40
0.0
 40
0.0
 40
0.1428571428571428
 40
0.1428571428571428
 40
0.1428571428571428
 40
0.1428571428571428
 40
0.2857142857142857
 40
0.2857142857142857
 40
0.2857142857142857
 40
0.2857142857142857
 40
0.4285714285714285
 40
0.4285714285714285
 40
0.4285714285714285
 40
0.4285714285714285
 40
0.5714285714285714
 40
0.5714285714285714
 40
0.5714285714285714
 40
0.5714285714285714
 40
0.7142857142857143
 40
0.7142857142857143
 40
0.7142857142857143
 40
0.7142857142857143
 40
1.0
 40
1.0
 40
1.0
 40
1.0
 10
33.6764
 20
-77.4155
 30
0.0
 10
35.1408
 20
-78.8576
 30
0.0
 10
36.2413
 20
-80.1065
 30
0.0
 10
37.3832
 20
-82.4193
 30
0.0
 10
37.3832
 20
-82.4193
 30
0.0
 10
35.6176
 20
-84.2494
 30
0.0
 10
34.3241
 20
-86.2446
 30
0.0
 10
33.685
 20
-88.3868
 30
0.0
 10
33.685
 20
-88.3868
 30
0.0
 10
32.9817
 20
-88.3977
 30
0.0
 10
32.3949
 20
-88.7284
 30
0.0
 10
30.8764
 20
-89.3706
 30
0.0
 10
30.8764
 20
-89.3706
 30
0.0
 10
32.4596
 20
-86.5049
 30
0.0
 10
31.105
 20
-83.2072
 30
0.0
 10
30.1143
 20
-81.9935
 30
0.0
 10
30.1143
 20
-81.9935
 30
0.0
 10
32.0455
 20
-79.4169
 30
0.0
 10
32.306
 20
-78.5282
 30
0.0
 10
33.6764
 20
-77.4155
 30
0.0
 10
33.6764
 20
-77.4155
 30
0.0
 10
33.6764
 20
-77.4155
 30
0.0
 10
33.6764
 20
-77.4155
 30
0.0
 10
33.6764
 20
-77.4155
 30
0.0
  0
SPLINE
  5
CC
330
1F
100
AcDbEntity
  8
layer 1
 62
     7
100
AcDbSpline
210
0.0
220
0.0
230
1.0
 70
    11
 71
     3
 72
    24
 73
    20
 74
     0
 42
0.0000000001
 43
0.0000000001
 12
1.0
 22
0.0
 32
0.0
 13
1.0
 23
0.0
 33
0.0
 40
0.0
 40
0.0
 40
0.0
 40
0.0
 40
0.1666666666666667
 40
0.1666666666666667
 40
0.1666666666666667
 40
0.1666666666666667
 40
0.3333333333333333
 40
0.3333333333333333
 40
0.3333333333333333
 40
0.3333333333333333
 40
0.5
 40
0.5
 40
0.5
 40
0.5
 40
0.6666666666666666
 40
0.6666666666666666
 40
0.6666666666666666
 40
0.6666666666666666
 40
1.0
 40
1.0
 40
1.0
 40
1.0
 10
35.1304
 20
-92.0001
 30
0.0
 10
35.3275
 20
-93.6325
 30
0.0
 10
35.7764
 20
-94.4759
 30
0.0
 10
36.4844
 20
-96.0179
 30
0.0
 10
36.4844
 20
-96.0179
 30
0.0
 10
38.912
 20
-94.6701
 30
0.0
 10
41.1953
 20
-89.4299
 30
0.0
 10
38.4065
 20
-84.1909
 30
0.0
 10
38.4065
 20
-84.1909
 30
0.0
 10
37.0995
 20
-85.0959
 30
0.0
 10
36.0185
 20
-86.5342
 30
0.0
 10
35.0628
 20
-88.9686
 30
0.0
 10
35.0628
 20
-88.9686
 30
0.0
 10
36.3065
 20
-89.6384
 30
0.0
 10
37.6429
 20
-90.7841
 30
0.0
 10
37.8307
 20
-92.1408
 30
0.0
 10
37.8307
 20
-92.1408
 30
0.0
 10
36.8523
 20
-91.7039
 30
0.0
 10
36.0981
 20
-91.4589
 30
0.0
 10
35.1304
 20
-92.0001
 30
0.0
  0
SPLINE
  5
CD
330
1F
100
AcDbEntity
  8
layer 1
 62
     7
100
AcDbSpline
210
0.0
220
0.0
230
1.0
 70
    11
 71
     3
 72
    20
 73
    16
 74
     0
 42
0.0000000001
 43
0.0000000001
 12
1.0
 22
0.0
 32
0.0
 13
1.0
 23
0.0
 33
0.0
 40
0.0
 40
0.0
 40
0.0
 40
0.0
 40
0.2
 40
0.2
 40
0.2
 40
0.2
 40
0.4
 40
0.4
 40
0.4
 40
0.4
 40
0.6
 40
0.6
 40
0.6
 40
0.6
 40
1.0
 40
1.0
 40
1.0
 40
1.0
 10
23.7151
 20
2.606
 30
0.0
 10
25.5107
 20
0.3442
 30
0.0
 10
25.6687
 20
0.1642
 30
0.0
 10
26.5422
 20
-2.2199
 30
0.0
 10
26.5422
 20
-2.2199
 30
0.0
 10
27.4158
 20
0.1642
 30
0.0
 10
27.5739
 20
0.435
 30
0.0
 10
29.3467
 20
2.5833
 30
0.0
 10
29.3467
 20
2.5833
 30
0.0
 10
28.4543
 20
3.5555
 30
0.0
 10
28.1543
 20
3.8979
 30
0.0
 10
26.5196
 20
5.7604
 30
0.0
 10
26.5196
 20
5.7604
 30
0.0
 10
25.3294
 20
4.4009
 30
0.0
 10
24.7254
 20
3.7904
 30
0.0
 10
23.7151
 20
2.606
 30
0.0
  0
SPLINE
  5
CE
330
1F
100
AcDbEntity
  8
layer 1
 62
     7
100
AcDbSpline
210
0.0
220
0.0
230
1.0
 70
    11
 71
     3
 72
    12
 73
     8
 74
     0
 42
0.0000000001
 43
0.0000000001
 12
1.0
 22
0.0
 32
0.0
 13
1.0
 23
0.0
 33
0.0
 40
0.0
 40
0.0
 40
0.0
 40
0.0
 40
0.3333333333333333
 40
0.3333333333333333
 40
0.3333333333333333
 40
0.3333333333333333
 40
1.0
 40
1.0
 40
1.0
 40
1.0
 10
4.0656
 20
113.3966
 30
0.0
 10
6.6105
 20
111.2548
 30
0.0
 10
10.346
 20
111.1535
 30
0.0
 10
13.0397
 20
112.4542
 30
0.0
 10
13.0397
 20
112.4542
 30
0.0
 10
11.5894
 20
114.0698
 30
0.0
 10
7.7359
 20
115.5282
 30
0.0
 10
4.0656
 20
113.3966
 30
0.0
  0
SPLINE
  5
CF
330
1F
100
AcDbEntity
  8
layer 1
 62
     7
100
AcDbSpline
210
0.0
220
0.0
230
1.0
 70
    11
 71
     3
 72
    12
 73
     8
 74
     0
 42
0.0000000001
 43
0.0000000001
 12
1.0
 22
0.0
 32
0.0
 13
1.0
 23
0.0
 33
0.0
 40
0.0
 40
0.0
 40
0.0
 40
0.0
 40
0.3333333333333333
 40
0.3333333333333333
 40
0.3333333333333333
 40
0.3333333333333333
 40
1.0
 40
1.0
 40
1.0
 40
1.0
 10
49.1972
 20
113.434
 30
0.0
 10
46.6523
 20
111.2922
 30
0.0
 10
42.9168
 20
111.1908
 30
0.0
 10
40.2231
 20
112.4915
 30
0.0
 10
40.2231
 20
112.4915
 30
0.0
 10
41.6734
 20
114.1072
 30
0.0
 10
45.5269
 20
115.5656
 30
0.0
 10
49.1972
 20
113.434
 30
0.0
  0
SPLINE
  5
D0
330
1F
100
AcDbEntity
  8
layer 1
 62
     7
100
AcDbSpline
210
0.0
220
0.0
230
1.0
 70
    11
 71
     3
 72
    12
 73
     8
 74
     0
 42
0.0000000001
 43
0.0000000001
 12
1.0
 22
0.0
 32
0.0
 13
1.0
 23
0.0
 33
0.0
 40
0.0
 40
0.0
 40
0.0
 40
0.0
 40
0.3333333333333333
 40
0.3333333333333333
 40
0.3333333333333333
 40
0.3333333333333333
 40
1.0
 40
1.0
 40
1.0
 40
1.0
 10
4.0656
 20
17.8783
 30
0.0
 10
6.6105
 20
20.0201
 30
0.0
 10
10.346
 20
20.1214
 30
0.0
 10
13.0397
 20
18.8207
 30
0.0
 10
13.0397
 20
18.8207
 30
0.0
 10
11.5894
 20
17.2051
 30
0.0
 10
7.7359
 20
15.7467
 30
0.0
 10
4.0656
 20
17.8783
 30
0.0
  0
SPLINE
  5
D1
330
1F
100
AcDbEntity
  8
layer 1
 62
     7
100
AcDbSpline
210
0.0
220
0.0
230
1.0
 70
    11
 71
     3
 72
    12
 73
     8
 74
     0
 42
0.0000000001
 43
0.0000000001
 12
1.0
 22
0.0
 32
0.0
 13
1.0
 23
0.0
 33
0.0
 40
0.0
 40
0.0
 40
0.0
 40
0.0
 40
0.3333333333333333
 40
0.3333333333333333
 40
0.3333333333333333
 40
0.3333333333333333
 40
1.0
 40
1.0
 40
1.0
 40
1.0
 10
49.1972
 20
17.8408
 30
0.0
 10
46.6523
 20
19.9827
 30
0.0
 10
42.9168
 20
20.084
 30
0.0
 10
40.2231
 20
18.7833
 30
0.0
 10
40.2231
 20
18.7833
 30
0.0
 10
41.6734
 20
17.1677
 30
0.0
 10
45.5269
 20
15.7093
 30
0.0
 10
49.1972
 20
17.8408
 30
0.0
  0
SPLINE
  5
D2
330
1F
100
AcDbEntity
  8
layer 1
 62
     7
100
AcDbSpline
210
0.0
220
0.0
230
1.0
 70
    11
 71
     3
 72
    12
 73
     8
 74
     0
 42
0.0000000001
 43
0.0000000001
 12
1.0
 22
0.0
 32
0.0
 13
1.0
 23
0.0
 33
0.0
 40
0.0
 40
0.0
 40
0.0
 40
0.0
 40
0.3333333333333333
 40
0.3333333333333333
 40
0.3333333333333333
 40
0.3333333333333333
 40
1.0
 40
1.0
 40
1.0
 40
1.0
 10
4.0656
 20
-98.5231
 30
0.0
 10
6.6105
 20
-96.3812
 30
0.0
 10
10.346
 20
-96.2799
 30
0.0
 10
13.0397
 20
-97.5806
 30
0.0
 10
13.0397
 20
-97.5806
 30
0.0
 10
11.5894
 20
-99.1962
 30
0.0
 10
7.7359
 20
-100.6546
 30
0.0
 10
4.0656
 20
-98.5231
 30
0.0
  0
SPLINE
  5
D3
330
1F
100
AcDbEntity
  8
layer 1
 62
     7
100
AcDbSpline
210
0.0
220
0.0
230
1.0
 70
    11
 71
     3
 72
    12
 73
     8
 74
     0
 42
0.0000000001
 43
0.0000000001
 12
1.0
 22
0.0
 32
0.0
 13
1.0
 23
0.0
 33
0.0
 40
0.0
 40
0.0
 40
0.0
 40
0.0
 40
0.3333333333333333
 40
0.3333333333333333
 40
0.3333333333333333
 40
0.3333333333333333
 40
1.0
 40
1.0
 40
1.0
 40
1.0
 10
49.1972
 20
-98.5604
 30
0.0
 10
46.6523
 20
-96.4186
 30
0.0
 10
42.9168
 20
-96.3173
 30
0.0
 10
40.2231
 20
-97.618
 30
0.0
 10
40.2231
 20
-97.618
 30
0.0
 10
41.6734
 20
-99.2336
 30
0.0
 10
45.5269
 20
-100.692
 30
0.0
 10
49.1972
 20
-98.5604
 30
0.0
  0
ENDSEC
  0
SECTION
  2
OBJECTS
  0
DICTIONARY
  5
C
330
0
100
AcDbDictionary
281
     1
  3
ACAD_GROUP
350
D
  3
ACAD_LAYOUT
350
1A
  3
ACAD_MATERIAL
350
3B
  3
ACAD_MLEADERSTYLE
350
F6
  3
ACAD_MLINESTYLE
350
17
  3
ACAD_PLOTSETTINGS
350
19
  3
ACAD_PLOTSTYLENAME
350
E
  3
ACAD_TABLESTYLE
350
F5
  3
ACAD_VISUALSTYLE
350
2A
  0
DICTIONARY
  5
D
102
{ACAD_REACTORS
330
C
102
}
330
C
100
AcDbDictionary
281
     1
  0
DICTIONARY
  5
1A
102
{ACAD_REACTORS
330
C
102
}
330
C
100
AcDbDictionary
281
     1
  3
Layout1
350
1E
  3
Layout2
350
26
  3
Model
350
22
  0
DICTIONARY
  5
3B
102
{ACAD_REACTORS
330
C
102
}
330
C
100
AcDbDictionary
281
     1
  3
ByBlock
350
3D
  3
ByLayer
350
3C
  3
Global
350
3E
  0
DICTIONARY
  5
F6
102
{ACAD_REACTORS
330
C
102
}
330
C
100
AcDbDictionary
281
     1
  0
DICTIONARY
  5
17
102
{ACAD_REACTORS
330
C
102
}
330
C
100
AcDbDictionary
281
     1
  3
Standard
350
18
  0
DICTIONARY
  5
19
102
{ACAD_REACTORS
330
C
102
}
330
C
100
AcDbDictionary
281
     1
  0
ACDBDICTIONARYWDFLT
  5
E
102
{ACAD_REACTORS
330
C
102
}
330
C
100
AcDbDictionary
281
     1
  3
Normal
350
F
100
AcDbDictionaryWithDefault
340
F
  0
DICTIONARY
  5
F5
102
{ACAD_REACTORS
330
C
102
}
330
C
100
AcDbDictionary
281
     1
  0
DICTIONARY
  5
2A
102
{ACAD_REACTORS
330
C
102
}
330
C
100
AcDbDictionary
281
     1
  3
2dWireframe
350
2F
  3
3D Hidden
350
31
  3
3dWireframe
350
30
  3
Basic
350
32
  3
Brighten
350
36
  3
ColorChange
350
3A
  3
Conceptual
350
34
  3
Dim
350
35
  3
Facepattern
350
39
  3
Flat
350
2B
  3
FlatWithEdges
350
2C
  3
Gouraud
350
2D
  3
GouraudWithEdges
350
2E
  3
Linepattern
350
38
  3
Realistic
350
33
  3
Thicken
350
37
  0
LAYOUT
  5
1E
102
{ACAD_REACTORS
330
1A
102
}
330
1A
100
AcDbPlotSettings
  1

  2
none_device
  4

  6

 40
0.0
 41
0.0
 42
0.0
 43
0.0
 44
0.0
 45
0.0
 46
0.0
 47
0.0
 48
0.0
 49
0.0
140
0.0
141
0.0
142
1.0
143
1.0
 70
   688
 72
     0
 73
     0
 74
     5
  7

 75
    16
 76
     0
 77
     2
 78
   300
147
1.0
148
0.0
149
0.0
100
AcDbLayout
  1
Layout1
 70
     1
 71
     1
 10
0.0
 20
0.0
 11
12.0
 21
9.0
 12
0.0
 22
0.0
 32
0.0
 14
1.000000000000000E+20
 24
1.000000000000000E+20
 34
1.000000000000000E+20
 15
-1.000000000000000E+20
 25
-1.000000000000000E+20
 35
-1.000000000000000E+20
146
0.0
 13
0.0
 23
0.0
 33
0.0
 16
1.0
 26
0.0
 36
0.0
 17
0.0
 27
1.0
 37
0.0
 76
     0
330
1B
  0
LAYOUT
  5
26
102
{ACAD_REACTORS
330
1A
102
}
330
1A
100
AcDbPlotSettings
  1

  2
none_device
  4

  6

 40
0.0
 41
0.0
 42
0.0
 43
0.0
 44
0.0
 45
0.0
 46
0.0
 47
0.0
 48
0.0
 49
0.0
140
0.0
141
0.0
142
1.0
143
1.0
 70
   688
 72
     0
 73
     0
 74
     5
  7

 75
    16
 76
     0
 77
     2
 78
   300
147
1.0
148
0.0
149
0.0
100
AcDbLayout
  1
Layout2
 70
     1
 71
     2
 10
0.0
 20
0.0
 11
0.0
 21
0.0
 12
0.0
 22
0.0
 32
0.0
 14
0.0
 24
0.0
 34
0.0
 15
0.0
 25
0.0
 35
0.0
146
0.0
 13
0.0
 23
0.0
 33
0.0
 16
1.0
 26
0.0
 36
0.0
 17
0.0
 27
1.0
 37
0.0
 76
     0
330
23
  0
LAYOUT
  5
22
102
{ACAD_REACTORS
330
1A
102
}
330
1A
100
AcDbPlotSettings
  1

  2
none_device
  4

  6

 40
0.0
 41
0.0
 42
0.0
 43
0.0
 44
0.0
 45
0.0
 46
0.0
 47
0.0
 48
0.0
 49
0.0
140
0.0
141
0.0
142
1.0
143
1.0
 70
  1712
 72
     0
 73
     0
 74
     0
  7

 75
     0
 76
     0
 77
     2
 78
   300
147
1.0
148
0.0
149
0.0
100
AcDbLayout
  1
Model
 70
     1
 71
     0
 10
0.0
 20
0.0
 11
12.0
 21
9.0
 12
0.0
 22
0.0
 32
0.0
 14
-17.9636
 24
-114.636
 34
0.0
 15
71.4096
 25
131.8852
 35
0.0
146
0.0
 13
0.0
 23
0.0
 33
0.0
 16
1.0
 26
0.0
 36
0.0
 17
0.0
 27
1.0
 37
0.0
 76
     0
330
1F
331
29
  0
MATERIAL
  5
3D
102
{ACAD_REACTORS
330
3B
102
}
330
3B
100
AcDbMaterial
  1
ByBlock
 72
     1
 94
      127
  0
MATERIAL
  5
3C
102
{ACAD_REACTORS
330
3B
102
}
330
3B
100
AcDbMaterial
  1
ByLayer
 72
     1
 94
      127
  0
MATERIAL
  5
3E
102
{ACAD_REACTORS
330
3B
102
}
330
3B
100
AcDbMaterial
  1
Global
 72
     1
 94
      127
  0
MLINESTYLE
  5
18
102
{ACAD_REACTORS
330
17
102
}
330
17
100
AcDbMlineStyle
  2
Standard
 70
     0
  3

 62
   256
 51
90.0
 52
90.0
 71
     2
 49
0.5
 62
   256
  6
BYLAYER
 49
-0.5
 62
   256
  6
BYLAYER
  0
ACDBPLACEHOLDER
  5
F
102
{ACAD_REACTORS
330
E
102
}
330
E
  0
VISUALSTYLE
  5
2F
102
{ACAD_REACTORS
330
2A
102
}
102
{ACAD_XDICTIONARY
360
DD
102
}
330
2A
100
AcDbVisualStyle
  2
2dWireframe
 70
     4
 71
     0
 72
     2
 73
     0
 90
        0
 40
-0.6
 41
-30.0
 62
     5
 63
     7
421
 16777215
 74
     1
 91
        4
 64
     7
 65
   257
 75
     1
175
     1
 42
1.0
 92
        0
 66
   257
 43
1.0
 76
     1
 77
     6
 78
     2
 67
     7
 79
     5
170
     0
171
     0
290
     0
174
     0
 93
        1
 44
0.0
173
     0
291
     0
 45
0.0
  0
VISUALSTYLE
  5
31
102
{ACAD_REACTORS
330
2A
102
}
102
{ACAD_XDICTIONARY
360
E1
102
}
330
2A
100
AcDbVisualStyle
  2
3D Hidden
 70
     6
 71
     1
 72
     2
 73
     2
 90
        0
 40
-0.6
 41
-30.0
 62
     5
 63
     7
421
 16777215
 74
     2
 91
        2
 64
     7
 65
   257
 75
     2
175
     1
 42
40.0
 92
        0
 66
   257
 43
1.0
 76
     1
 77
     6
 78
     2
 67
     7
 79
     3
170
     0
171
     0
290
     0
174
     0
 93
        1
 44
0.0
173
     0
291
     0
 45
0.0
  0
VISUALSTYLE
  5
30
102
{ACAD_REACTORS
330
2A
102
}
102
{ACAD_XDICTIONARY
360
DF
102
}
330
2A
100
AcDbVisualStyle
  2
3dWireframe
 70
     5
 71
     0
 72
     2
 73
     0
 90
        0
 40
-0.6
 41
-30.0
 62
     5
 63
     7
421
 16777215
 74
     1
 91
        4
 64
     7
 65
   257
 75
     1
175
     1
 42
1.0
 92
        0
 66
   257
 43
1.0
 76
     1
 77
     6
 78
     2
 67
     7
 79
     5
170
     0
171
     0
290
     0
174
     0
 93
        1
 44
0.0
173
     0
291
     0
 45
0.0
  0
VISUALSTYLE
  5
32
102
{ACAD_REACTORS
330
2A
102
}
102
{ACAD_XDICTIONARY
360
E3
102
}
330
2A
100
AcDbVisualStyle
  2
Basic
 70
     7
 71
     1
 72
     0
 73
     1
 90
        0
 40
-0.6
 41
-30.0
 62
     5
 63
     7
421
 16777215
 74
     0
 91
        4
 64
     7
 65
   257
 75
     1
175
     1
 42
1.0
 92
        8
 66
     7
 43
1.0
 76
     1
 77
     6
 78
     2
 67
     7
 79
     5
170
     0
171
     0
290
     0
174
     0
 93
        1
 44
0.0
173
     0
291
     1
 45
0.0
  0
VISUALSTYLE
  5
36
102
{ACAD_REACTORS
330
2A
102
}
102
{ACAD_XDICTIONARY
360
EB
102
}
330
2A
100
AcDbVisualStyle
  2
Brighten
 70
    12
 71
     2
 72
     2
 73
     0
 90
        0
 40
-0.6
 41
-30.0
 62
     5
 63
     7
421
 16777215
 74
     1
 91
        4
 64
     7
 65
   257
 75
     1
175
     1
 42
1.0
 92
        8
 66
     7
 43
1.0
 76
     1
 77
     6
 78
     2
 67
     7
 79
     5
170
     0
171
     0
290
     0
174
     0
 93
        1
 44
50.0
173
     0
291
     1
 45
0.0
  0
VISUALSTYLE
  5
3A
102
{ACAD_REACTORS
330
2A
102
}
102
{ACAD_XDICTIONARY
360
F3
102
}
330
2A
100
AcDbVisualStyle
  2
ColorChange
 70
    16
 71
     2
 72
     2
 73
     3
 90
        0
 40
-0.6
 41
-30.0
 62
     5
 63
     8
421
  8421504
 74
     1
 91
        4
 64
     7
 65
   257
 75
     1
175
     1
 42
1.0
 92
        8
 66
     8
424
  8421504
 43
1.0
 76
     1
 77
     6
 78
     2
 67
     7
 79
     5
170
     0
171
     0
290
     0
174
     0
 93
        1
 44
0.0
173
     0
291
     1
 45
0.0
  0
VISUALSTYLE
  5
34
102
{ACAD_REACTORS
330
2A
102
}
102
{ACAD_XDICTIONARY
360
E7
102
}
330
2A
100
AcDbVisualStyle
  2
Conceptual
 70
     9
 71
     3
 72
     2
 73
     0
 90
        0
 40
-0.6
 41
-30.0
 62
     5
 63
     7
421
 16777215
 74
     2
 91
        2
 64
     7
 65
   257
 75
     1
175
     1
 42
40.0
 92
        8
 66
     7
 43
1.0
 76
     1
 77
     6
 78
     2
 67
     7
 79
     3
170
     0
171
     0
290
     0
174
     0
 93
        1
 44
0.0
173
     0
291
     0
 45
0.0
  0
VISUALSTYLE
  5
35
102
{ACAD_REACTORS
330
2A
102
}
102
{ACAD_XDICTIONARY
360
E9
102
}
330
2A
100
AcDbVisualStyle
  2
Dim
 70
    11
 71
     2
 72
     2
 73
     0
 90
        0
 40
-0.6
 41
-30.0
 62
     5
 63
     7
421
 16777215
 74
     1
 91
        4
 64
     7
 65
   257
 75
     1
175
     1
 42
1.0
 92
        8
 66
     7
 43
1.0
 76
     1
 77
     6
 78
     2
 67
     7
 79
     5
170
     0
171
     0
290
     0
174
     0
 93
        1
 44
-50.0
173
     0
291
     1
 45
0.0
  0
VISUALSTYLE
  5
39
102
{ACAD_REACTORS
330
2A
102
}
102
{ACAD_XDICTIONARY
360
F1
102
}
330
2A
100
AcDbVisualStyle
  2
Facepattern
 70
    15
 71
     2
 72
     2
 73
     0
 90
        0
 40
-0.6
 41
-30.0
 62
     5
 63
     7
421
 16777215
 74
     1
 91
        4
 64
     7
 65
   257
 75
     1
175
     1
 42
1.0
 92
        8
 66
     7
 43
1.0
 76
     1
 77
     6
 78
     2
 67
     7
 79
     5
170
     0
171
     0
290
     0
174
     0
 93
        1
 44
0.0
173
     0
291
     1
 45
0.0
  0
VISUALSTYLE
  5
2B
102
{ACAD_REACTORS
330
2A
102
}
102
{ACAD_XDICTIONARY
360
D5
102
}
330
2A
100
AcDbVisualStyle
  2
Flat
 70
     0
 71
     2
 72
     1
 73
     1
 90
        2
 40
-0.6
 41
30.0
 62
     5
 63
     7
421
 16777215
 74
     0
 91
        4
 64
     7
 65
   257
 75
     1
175
     1
 42
1.0
 92
        8
 66
     7
 43
1.0
 76
     1
 77
     6
 78
     2
 67
     7
 79
     5
170
     0
171
     0
290
     0
174
     0
 93
       13
 44
0.0
173
     0
291
     1
 45
0.0
  0
VISUALSTYLE
  5
2C
102
{ACAD_REACTORS
330
2A
102
}
102
{ACAD_XDICTIONARY
360
D7
102
}
330
2A
100
AcDbVisualStyle
  2
FlatWithEdges
 70
     1
 71
     2
 72
     1
 73
     1
 90
        2
 40
-0.6
 41
30.0
 62
     5
 63
     7
421
 16777215
 74
     1
 91
        4
 64
     7
 65
   257
 75
     1
175
     1
 42
1.0
 92
        0
 66
   257
 43
1.0
 76
     1
 77
     6
 78
     2
 67
     7
 79
     5
170
     0
171
     0
290
     0
174
     0
 93
       13
 44
0.0
173
     0
291
     1
 45
0.0
  0
VISUALSTYLE
  5
2D
102
{ACAD_REACTORS
330
2A
102
}
102
{ACAD_XDICTIONARY
360
D9
102
}
330
2A
100
AcDbVisualStyle
  2
Gouraud
 70
     2
 71
     2
 72
     2
 73
     1
 90
        2
 40
-0.6
 41
30.0
 62
     5
 63
     7
421
 16777215
 74
     0
 91
        4
 64
     7
 65
   257
 75
     1
175
     1
 42
1.0
 92
        0
 66
     7
 43
1.0
 76
     1
 77
     6
 78
     2
 67
     7
 79
     5
170
     0
171
     0
290
     0
174
     0
 93
       13
 44
0.0
173
     0
291
     1
 45
0.0
  0
VISUALSTYLE
  5
2E
102
{ACAD_REACTORS
330
2A
102
}
102
{ACAD_XDICTIONARY
360
DB
102
}
330
2A
100
AcDbVisualStyle
  2
GouraudWithEdges
 70
     3
 71
     2
 72
     2
 73
     1
 90
        2
 40
-0.6
 41
30.0
 62
     5
 63
     7
421
 16777215
 74
     1
 91
        4
 64
     7
 65
   257
 75
     1
175
     1
 42
1.0
 92
        0
 66
   257
 43
1.0
 76
     1
 77
     6
 78
     2
 67
     7
 79
     5
170
     0
171
     0
290
     0
174
     0
 93
       13
 44
0.0
173
     0
291
     1
 45
0.0
  0
VISUALSTYLE
  5
38
102
{ACAD_REACTORS
330
2A
102
}
102
{ACAD_XDICTIONARY
360
EF
102
}
330
2A
100
AcDbVisualStyle
  2
Linepattern
 70
    14
 71
     2
 72
     2
 73
     0
 90
        0
 40
-0.6
 41
-30.0
 62
     5
 63
     7
421
 16777215
 74
     1
 91
        4
 64
     7
 65
   257
 75
     7
175
     7
 42
1.0
 92
        8
 66
     7
 43
1.0
 76
     1
 77
     6
 78
     2
 67
     7
 79
     5
170
     0
171
     0
290
     0
174
     0
 93
        1
 44
0.0
173
     0
291
     1
 45
0.0
  0
VISUALSTYLE
  5
33
102
{ACAD_REACTORS
330
2A
102
}
102
{ACAD_XDICTIONARY
360
E5
102
}
330
2A
100
AcDbVisualStyle
  2
Realistic
 70
     8
 71
     2
 72
     2
 73
     0
 90
        0
 40
-0.6
 41
-30.0
 62
     5
 63
     7
421
 16777215
 74
     1
 91
        0
 64
     7
 65
   257
 75
     1
175
     1
 42
1.0
 92
        8
 66
     8
424
  7895160
 43
1.0
 76
     1
 77
     6
 78
     2
 67
     7
 79
     5
170
     0
171
     0
290
     0
174
     0
 93
       13
 44
0.0
173
     0
291
     0
 45
0.0
  0
VISUALSTYLE
  5
37
102
{ACAD_REACTORS
330
2A
102
}
102
{ACAD_XDICTIONARY
360
ED
102
}
330
2A
100
AcDbVisualStyle
  2
Thicken
 70
    13
 71
     2
 72
     2
 73
     0
 90
        0
 40
-0.6
 41
-30.0
 62
     5
 63
     7
421
 16777215
 74
     1
 91
        4
 64
     7
 65
   257
 75
     1
175
     1
 42
1.0
 92
       12
 66
     7
 43
1.0
 76
     1
 77
     6
 78
     2
 67
     7
 79
     5
170
     0
171
     0
290
     0
174
     0
 93
        1
 44
0.0
173
     0
291
     1
 45
0.0
  0
DICTIONARY
  5
DD
330
2F
100
AcDbDictionary
280
     1
281
     1
  3
ACAD_XREC_ROUNDTRIP
360
DE
  0
DICTIONARY
  5
E1
330
31
100
AcDbDictionary
280
     1
281
     1
  3
ACAD_XREC_ROUNDTRIP
360
E2
  0
DICTIONARY
  5
DF
330
30
100
AcDbDictionary
280
     1
281
     1
  3
ACAD_XREC_ROUNDTRIP
360
E0
  0
DICTIONARY
  5
E3
330
32
100
AcDbDictionary
280
     1
281
     1
  3
ACAD_XREC_ROUNDTRIP
360
E4
  0
DICTIONARY
  5
EB
330
36
100
AcDbDictionary
280
     1
281
     1
  3
ACAD_XREC_ROUNDTRIP
360
EC
  0
DICTIONARY
  5
F3
330
3A
100
AcDbDictionary
280
     1
281
     1
  3
ACAD_XREC_ROUNDTRIP
360
F4
  0
DICTIONARY
  5
E7
330
34
100
AcDbDictionary
280
     1
281
     1
  3
ACAD_XREC_ROUNDTRIP
360
E8
  0
DICTIONARY
  5
E9
330
35
100
AcDbDictionary
280
     1
281
     1
  3
ACAD_XREC_ROUNDTRIP
360
EA
  0
DICTIONARY
  5
F1
330
39
100
AcDbDictionary
280
     1
281
     1
  3
ACAD_XREC_ROUNDTRIP
360
F2
  0
DICTIONARY
  5
D5
330
2B
100
AcDbDictionary
280
     1
281
     1
  3
ACAD_XREC_ROUNDTRIP
360
D6
  0
DICTIONARY
  5
D7
330
2C
100
AcDbDictionary
280
     1
281
     1
  3
ACAD_XREC_ROUNDTRIP
360
D8
  0
DICTIONARY
  5
D9
330
2D
100
AcDbDictionary
280
     1
281
     1
  3
ACAD_XREC_ROUNDTRIP
360
DA
  0
DICTIONARY
  5
DB
330
2E
100
AcDbDictionary
280
     1
281
     1
  3
ACAD_XREC_ROUNDTRIP
360
DC
  0
DICTIONARY
  5
EF
330
38
100
AcDbDictionary
280
     1
281
     1
  3
ACAD_XREC_ROUNDTRIP
360
F0
  0
DICTIONARY
  5
E5
330
33
100
AcDbDictionary
280
     1
281
     1
  3
ACAD_XREC_ROUNDTRIP
360
E6
  0
DICTIONARY
  5
ED
330
37
100
AcDbDictionary
280
     1
281
     1
  3
ACAD_XREC_ROUNDTRIP
360
EE
  0
XRECORD
  5
DE
102
{ACAD_REACTORS
330
DD
102
}
330
DD
100
AcDbXrecord
280
     1
102
RTVSPropertyOp0
 70
     1
102
RTVSPropertyOp1
 70
     1
102
RTVSPropertyOp2
 70
     1
102
RTVSPropertyOp3
 70
     1
102
RTVSPropertyOp4
 70
     1
102
RTVSPropertyOp5
 70
     1
102
RTVSPropertyOp6
 70
     1
102
RTVSPropertyOp7
 70
     1
102
RTVSPropertyOp8
 70
     1
102
RTVSPropertyOp9
 70
     1
102
RTVSPropertyOp10
 70
     1
102
RTVSPropertyOp11
 70
     1
102
RTVSPropertyOp12
 70
     1
102
RTVSPropertyOp13
 70
     1
102
RTVSPropertyOp14
 70
     1
102
RTVSPropertyOp15
 70
     1
102
RTVSPropertyOp16
 70
     1
102
RTVSPropertyOp17
 70
     1
102
RTVSPropertyOp18
 70
     1
102
RTVSPropertyOp19
 70
     1
102
RTVSPropertyOp20
 70
     1
102
RTVSPropertyOp21
 70
     1
102
RTVSPropertyOp22
 70
     1
102
RTVSPropertyOp23
 70
     1
102
RTVSPropertyOp24
 70
     1
102
RTVSPropertyOp25
 70
     1
102
RTVSPropertyOp26
 70
     1
102
RTVSPropertyOp27
 70
     1
102
RTVSPropertyOp28
 70
     1
102
RTVSPropertyOp29
 70
     1
102
RTVSPropertyOp30
 70
     1
102
RTVSPropertyOp31
 70
     1
102
RTVSPropertyOp32
 70
     1
  0
XRECORD
  5
E2
102
{ACAD_REACTORS
330
E1
102
}
330
E1
100
AcDbXrecord
280
     1
102
RTVSPropertyOp0
 70
     1
102
RTVSPropertyOp1
 70
     1
102
RTVSPropertyOp2
 70
     1
102
RTVSPropertyOp3
 70
     1
102
RTVSPropertyOp4
 70
     1
102
RTVSPropertyOp5
 70
     1
102
RTVSPropertyOp6
 70
     1
102
RTVSPropertyOp7
 70
     1
102
RTVSPropertyOp8
 70
     1
102
RTVSPropertyOp9
 70
     1
102
RTVSPropertyOp10
 70
     1
102
RTVSPropertyOp11
 70
     1
102
RTVSPropertyOp12
 70
     1
102
RTVSPropertyOp13
 70
     1
102
RTVSPropertyOp14
 70
     1
102
RTVSPropertyOp15
 70
     1
102
RTVSPropertyOp16
 70
     1
102
RTVSPropertyOp17
 70
     1
102
RTVSPropertyOp18
 70
     1
102
RTVSPropertyOp19
 70
     1
102
RTVSPropertyOp20
 70
     1
102
RTVSPropertyOp21
 70
     1
102
RTVSPropertyOp22
 70
     1
102
RTVSPropertyOp23
 70
     1
102
RTVSPropertyOp24
 70
     1
102
RTVSPropertyOp25
 70
     1
102
RTVSPropertyOp26
 70
     1
102
RTVSPropertyOp27
 70
     1
102
RTVSPropertyOp28
 70
     1
102
RTVSPropertyOp29
 70
     1
102
RTVSPropertyOp30
 70
     1
102
RTVSPropertyOp31
 70
     1
102
RTVSPropertyOp32
 70
     1
  0
XRECORD
  5
E0
102
{ACAD_REACTORS
330
DF
102
}
330
DF
100
AcDbXrecord
280
     1
102
RTVSPropertyOp0
 70
     1
102
RTVSPropertyOp1
 70
     1
102
RTVSPropertyOp2
 70
     1
102
RTVSPropertyOp3
 70
     1
102
RTVSPropertyOp4
 70
     1
102
RTVSPropertyOp5
 70
     1
102
RTVSPropertyOp6
 70
     1
102
RTVSPropertyOp7
 70
     1
102
RTVSPropertyOp8
 70
     1
102
RTVSPropertyOp9
 70
     1
102
RTVSPropertyOp10
 70
     1
102
RTVSPropertyOp11
 70
     1
102
RTVSPropertyOp12
 70
     1
102
RTVSPropertyOp13
 70
     1
102
RTVSPropertyOp14
 70
     1
102
RTVSPropertyOp15
 70
     1
102
RTVSPropertyOp16
 70
     1
102
RTVSPropertyOp17
 70
     1
102
RTVSPropertyOp18
 70
     1
102
RTVSPropertyOp19
 70
     1
102
RTVSPropertyOp20
 70
     1
102
RTVSPropertyOp21
 70
     1
102
RTVSPropertyOp22
 70
     1
102
RTVSPropertyOp23
 70
     1
102
RTVSPropertyOp24
 70
     1
102
RTVSPropertyOp25
 70
     1
102
RTVSPropertyOp26
 70
     1
102
RTVSPropertyOp27
 70
     1
102
RTVSPropertyOp28
 70
     1
102
RTVSPropertyOp29
 70
     1
102
RTVSPropertyOp30
 70
     1
102
RTVSPropertyOp31
 70
     1
102
RTVSPropertyOp32
 70
     1
  0
XRECORD
  5
E4
102
{ACAD_REACTORS
330
E3
102
}
330
E3
100
AcDbXrecord
280
     1
102
RTVSPropertyOp0
 70
     1
102
RTVSPropertyOp1
 70
     1
102
RTVSPropertyOp2
 70
     1
102
RTVSPropertyOp3
 70
     1
102
RTVSPropertyOp4
 70
     1
102
RTVSPropertyOp5
 70
     1
102
RTVSPropertyOp6
 70
     1
102
RTVSPropertyOp7
 70
     1
102
RTVSPropertyOp8
 70
     1
102
RTVSPropertyOp9
 70
     1
102
RTVSPropertyOp10
 70
     1
102
RTVSPropertyOp11
 70
     1
102
RTVSPropertyOp12
 70
     1
102
RTVSPropertyOp13
 70
     1
102
RTVSPropertyOp14
 70
     1
102
RTVSPropertyOp15
 70
     1
102
RTVSPropertyOp16
 70
     1
102
RTVSPropertyOp17
 70
     1
102
RTVSPropertyOp18
 70
     1
102
RTVSPropertyOp19
 70
     1
102
RTVSPropertyOp20
 70
     1
102
RTVSPropertyOp21
 70
     1
102
RTVSPropertyOp22
 70
     1
102
RTVSPropertyOp23
 70
     1
102
RTVSPropertyOp24
 70
     1
102
RTVSPropertyOp25
 70
     1
102
RTVSPropertyOp26
 70
     1
102
RTVSPropertyOp27
 70
     1
102
RTVSPropertyOp28
 70
     1
102
RTVSPropertyOp29
 70
     1
102
RTVSPropertyOp30
 70
     1
102
RTVSPropertyOp31
 70
     1
102
RTVSPropertyOp32
 70
     1
  0
XRECORD
  5
EC
102
{ACAD_REACTORS
330
EB
102
}
330
EB
100
AcDbXrecord
280
     1
102
RTVSPropertyOp0
 70
     1
102
RTVSPropertyOp1
 70
     1
102
RTVSPropertyOp2
 70
     1
102
RTVSPropertyOp3
 70
     1
102
RTVSPropertyOp4
 70
     1
102
RTVSPropertyOp5
 70
     1
102
RTVSPropertyOp6
 70
     1
102
RTVSPropertyOp7
 70
     1
102
RTVSPropertyOp8
 70
     1
102
RTVSPropertyOp9
 70
     1
102
RTVSPropertyOp10
 70
     1
102
RTVSPropertyOp11
 70
     1
102
RTVSPropertyOp12
 70
     1
102
RTVSPropertyOp13
 70
     1
102
RTVSPropertyOp14
 70
     1
102
RTVSPropertyOp15
 70
     1
102
RTVSPropertyOp16
 70
     1
102
RTVSPropertyOp17
 70
     1
102
RTVSPropertyOp18
 70
     1
102
RTVSPropertyOp19
 70
     1
102
RTVSPropertyOp20
 70
     1
102
RTVSPropertyOp21
 70
     1
102
RTVSPropertyOp22
 70
     1
102
RTVSPropertyOp23
 70
     1
102
RTVSPropertyOp24
 70
     1
102
RTVSPropertyOp25
 70
     1
102
RTVSPropertyOp26
 70
     1
102
RTVSPropertyOp27
 70
     1
102
RTVSPropertyOp28
 70
     1
102
RTVSPropertyOp29
 70
     1
102
RTVSPropertyOp30
 70
     1
102
RTVSPropertyOp31
 70
     1
102
RTVSPropertyOp32
 70
     1
  0
XRECORD
  5
F4
102
{ACAD_REACTORS
330
F3
102
}
330
F3
100
AcDbXrecord
280
     1
102
RTVSPropertyOp0
 70
     1
102
RTVSPropertyOp1
 70
     1
102
RTVSPropertyOp2
 70
     1
102
RTVSPropertyOp3
 70
     1
102
RTVSPropertyOp4
 70
     1
102
RTVSPropertyOp5
 70
     1
102
RTVSPropertyOp6
 70
     1
102
RTVSPropertyOp7
 70
     1
102
RTVSPropertyOp8
 70
     1
102
RTVSPropertyOp9
 70
     1
102
RTVSPropertyOp10
 70
     1
102
RTVSPropertyOp11
 70
     1
102
RTVSPropertyOp12
 70
     1
102
RTVSPropertyOp13
 70
     1
102
RTVSPropertyOp14
 70
     1
102
RTVSPropertyOp15
 70
     1
102
RTVSPropertyOp16
 70
     1
102
RTVSPropertyOp17
 70
     1
102
RTVSPropertyOp18
 70
     1
102
RTVSPropertyOp19
 70
     1
102
RTVSPropertyOp20
 70
     1
102
RTVSPropertyOp21
 70
     1
102
RTVSPropertyOp22
 70
     1
102
RTVSPropertyOp23
 70
     1
102
RTVSPropertyOp24
 70
     1
102
RTVSPropertyOp25
 70
     1
102
RTVSPropertyOp26
 70
     1
102
RTVSPropertyOp27
 70
     1
102
RTVSPropertyOp28
 70
     1
102
RTVSPropertyOp29
 70
     1
102
RTVSPropertyOp30
 70
     1
102
RTVSPropertyOp31
 70
     1
102
RTVSPropertyOp32
 70
     1
  0
XRECORD
  5
E8
102
{ACAD_REACTORS
330
E7
102
}
330
E7
100
AcDbXrecord
280
     1
102
RTVSPropertyOp0
 70
     1
102
RTVSPropertyOp1
 70
     1
102
RTVSPropertyOp2
 70
     1
102
RTVSPropertyOp3
 70
     1
102
RTVSPropertyOp4
 70
     1
102
RTVSPropertyOp5
 70
     1
102
RTVSPropertyOp6
 70
     1
102
RTVSPropertyOp7
 70
     1
102
RTVSPropertyOp8
 70
     1
102
RTVSPropertyOp9
 70
     1
102
RTVSPropertyOp10
 70
     1
102
RTVSPropertyOp11
 70
     1
102
RTVSPropertyOp12
 70
     1
102
RTVSPropertyOp13
 70
     1
102
RTVSPropertyOp14
 70
     1
102
RTVSPropertyOp15
 70
     1
102
RTVSPropertyOp16
 70
     1
102
RTVSPropertyOp17
 70
     1
102
RTVSPropertyOp18
 70
     1
102
RTVSPropertyOp19
 70
     1
102
RTVSPropertyOp20
 70
     1
102
RTVSPropertyOp21
 70
     1
102
RTVSPropertyOp22
 70
     1
102
RTVSPropertyOp23
 70
     1
102
RTVSPropertyOp24
 70
     1
102
RTVSPropertyOp25
 70
     1
102
RTVSPropertyOp26
 70
     1
102
RTVSPropertyOp27
 70
     1
102
RTVSPropertyOp28
 70
     1
102
RTVSPropertyOp29
 70
     1
102
RTVSPropertyOp30
 70
     1
102
RTVSPropertyOp31
 70
     1
102
RTVSPropertyOp32
 70
     1
  0
XRECORD
  5
EA
102
{ACAD_REACTORS
330
E9
102
}
330
E9
100
AcDbXrecord
280
     1
102
RTVSPropertyOp0
 70
     1
102
RTVSPropertyOp1
 70
     1
102
RTVSPropertyOp2
 70
     1
102
RTVSPropertyOp3
 70
     1
102
RTVSPropertyOp4
 70
     1
102
RTVSPropertyOp5
 70
     1
102
RTVSPropertyOp6
 70
     1
102
RTVSPropertyOp7
 70
     1
102
RTVSPropertyOp8
 70
     1
102
RTVSPropertyOp9
 70
     1
102
RTVSPropertyOp10
 70
     1
102
RTVSPropertyOp11
 70
     1
102
RTVSPropertyOp12
 70
     1
102
RTVSPropertyOp13
 70
     1
102
RTVSPropertyOp14
 70
     1
102
RTVSPropertyOp15
 70
     1
102
RTVSPropertyOp16
 70
     1
102
RTVSPropertyOp17
 70
     1
102
RTVSPropertyOp18
 70
     1
102
RTVSPropertyOp19
 70
     1
102
RTVSPropertyOp20
 70
     1
102
RTVSPropertyOp21
 70
     1
102
RTVSPropertyOp22
 70
     1
102
RTVSPropertyOp23
 70
     1
102
RTVSPropertyOp24
 70
     1
102
RTVSPropertyOp25
 70
     1
102
RTVSPropertyOp26
 70
     1
102
RTVSPropertyOp27
 70
     1
102
RTVSPropertyOp28
 70
     1
102
RTVSPropertyOp29
 70
     1
102
RTVSPropertyOp30
 70
     1
102
RTVSPropertyOp31
 70
     1
102
RTVSPropertyOp32
 70
     1
  0
XRECORD
  5
F2
102
{ACAD_REACTORS
330
F1
102
}
330
F1
100
AcDbXrecord
280
     1
102
RTVSPropertyOp0
 70
     1
102
RTVSPropertyOp1
 70
     1
102
RTVSPropertyOp2
 70
     1
102
RTVSPropertyOp3
 70
     1
102
RTVSPropertyOp4
 70
     1
102
RTVSPropertyOp5
 70
     1
102
RTVSPropertyOp6
 70
     1
102
RTVSPropertyOp7
 70
     1
102
RTVSPropertyOp8
 70
     1
102
RTVSPropertyOp9
 70
     1
102
RTVSPropertyOp10
 70
     1
102
RTVSPropertyOp11
 70
     1
102
RTVSPropertyOp12
 70
     1
102
RTVSPropertyOp13
 70
     1
102
RTVSPropertyOp14
 70
     1
102
RTVSPropertyOp15
 70
     1
102
RTVSPropertyOp16
 70
     1
102
RTVSPropertyOp17
 70
     1
102
RTVSPropertyOp18
 70
     1
102
RTVSPropertyOp19
 70
     1
102
RTVSPropertyOp20
 70
     1
102
RTVSPropertyOp21
 70
     1
102
RTVSPropertyOp22
 70
     1
102
RTVSPropertyOp23
 70
     1
102
RTVSPropertyOp24
 70
     1
102
RTVSPropertyOp25
 70
     1
102
RTVSPropertyOp26
 70
     1
102
RTVSPropertyOp27
 70
     1
102
RTVSPropertyOp28
 70
     1
102
RTVSPropertyOp29
 70
     1
102
RTVSPropertyOp30
 70
     1
102
RTVSPropertyOp31
 70
     1
102
RTVSPropertyOp32
 70
     1
  0
XRECORD
  5
D6
102
{ACAD_REACTORS
330
D5
102
}
330
D5
100
AcDbXrecord
280
     1
102
RTVSPropertyOp0
 70
     1
102
RTVSPropertyOp1
 70
     1
102
RTVSPropertyOp2
 70
     1
102
RTVSPropertyOp3
 70
     1
102
RTVSPropertyOp4
 70
     1
102
RTVSPropertyOp5
 70
     1
102
RTVSPropertyOp6
 70
     1
102
RTVSPropertyOp7
 70
     1
102
RTVSPropertyOp8
 70
     1
102
RTVSPropertyOp9
 70
     1
102
RTVSPropertyOp10
 70
     1
102
RTVSPropertyOp11
 70
     1
102
RTVSPropertyOp12
 70
     1
102
RTVSPropertyOp13
 70
     1
102
RTVSPropertyOp14
 70
     1
102
RTVSPropertyOp15
 70
     1
102
RTVSPropertyOp16
 70
     1
102
RTVSPropertyOp17
 70
     1
102
RTVSPropertyOp18
 70
     1
102
RTVSPropertyOp19
 70
     1
102
RTVSPropertyOp20
 70
     1
102
RTVSPropertyOp21
 70
     1
102
RTVSPropertyOp22
 70
     1
102
RTVSPropertyOp23
 70
     1
102
RTVSPropertyOp24
 70
     1
102
RTVSPropertyOp25
 70
     1
102
RTVSPropertyOp26
 70
     1
102
RTVSPropertyOp27
 70
     1
102
RTVSPropertyOp28
 70
     1
102
RTVSPropertyOp29
 70
     1
102
RTVSPropertyOp30
 70
     1
102
RTVSPropertyOp31
 70
     1
102
RTVSPropertyOp32
 70
     1
  0
XRECORD
  5
D8
102
{ACAD_REACTORS
330
D7
102
}
330
D7
100
AcDbXrecord
280
     1
102
RTVSPropertyOp0
 70
     1
102
RTVSPropertyOp1
 70
     1
102
RTVSPropertyOp2
 70
     1
102
RTVSPropertyOp3
 70
     1
102
RTVSPropertyOp4
 70
     1
102
RTVSPropertyOp5
 70
     1
102
RTVSPropertyOp6
 70
     1
102
RTVSPropertyOp7
 70
     1
102
RTVSPropertyOp8
 70
     1
102
RTVSPropertyOp9
 70
     1
102
RTVSPropertyOp10
 70
     1
102
RTVSPropertyOp11
 70
     1
102
RTVSPropertyOp12
 70
     1
102
RTVSPropertyOp13
 70
     1
102
RTVSPropertyOp14
 70
     1
102
RTVSPropertyOp15
 70
     1
102
RTVSPropertyOp16
 70
     1
102
RTVSPropertyOp17
 70
     1
102
RTVSPropertyOp18
 70
     1
102
RTVSPropertyOp19
 70
     1
102
RTVSPropertyOp20
 70
     1
102
RTVSPropertyOp21
 70
     1
102
RTVSPropertyOp22
 70
     1
102
RTVSPropertyOp23
 70
     1
102
RTVSPropertyOp24
 70
     1
102
RTVSPropertyOp25
 70
     1
102
RTVSPropertyOp26
 70
     1
102
RTVSPropertyOp27
 70
     1
102
RTVSPropertyOp28
 70
     1
102
RTVSPropertyOp29
 70
     1
102
RTVSPropertyOp30
 70
     1
102
RTVSPropertyOp31
 70
     1
102
RTVSPropertyOp32
 70
     1
  0
XRECORD
  5
DA
102
{ACAD_REACTORS
330
D9
102
}
330
D9
100
AcDbXrecord
280
     1
102
RTVSPropertyOp0
 70
     1
102
RTVSPropertyOp1
 70
     1
102
RTVSPropertyOp2
 70
     1
102
RTVSPropertyOp3
 70
     1
102
RTVSPropertyOp4
 70
     1
102
RTVSPropertyOp5
 70
     1
102
RTVSPropertyOp6
 70
     1
102
RTVSPropertyOp7
 70
     1
102
RTVSPropertyOp8
 70
     1
102
RTVSPropertyOp9
 70
     1
102
RTVSPropertyOp10
 70
     1
102
RTVSPropertyOp11
 70
     1
102
RTVSPropertyOp12
 70
     1
102
RTVSPropertyOp13
 70
     1
102
RTVSPropertyOp14
 70
     1
102
RTVSPropertyOp15
 70
     1
102
RTVSPropertyOp16
 70
     1
102
RTVSPropertyOp17
 70
     1
102
RTVSPropertyOp18
 70
     1
102
RTVSPropertyOp19
 70
     1
102
RTVSPropertyOp20
 70
     1
102
RTVSPropertyOp21
 70
     1
102
RTVSPropertyOp22
 70
     1
102
RTVSPropertyOp23
 70
     1
102
RTVSPropertyOp24
 70
     1
102
RTVSPropertyOp25
 70
     1
102
RTVSPropertyOp26
 70
     1
102
RTVSPropertyOp27
 70
     1
102
RTVSPropertyOp28
 70
     1
102
RTVSPropertyOp29
 70
     1
102
RTVSPropertyOp30
 70
     1
102
RTVSPropertyOp31
 70
     1
102
RTVSPropertyOp32
 70
     1
  0
XRECORD
  5
DC
102
{ACAD_REACTORS
330
DB
102
}
330
DB
100
AcDbXrecord
280
     1
102
RTVSPropertyOp0
 70
     1
102
RTVSPropertyOp1
 70
     1
102
RTVSPropertyOp2
 70
     1
102
RTVSPropertyOp3
 70
     1
102
RTVSPropertyOp4
 70
     1
102
RTVSPropertyOp5
 70
     1
102
RTVSPropertyOp6
 70
     1
102
RTVSPropertyOp7
 70
     1
102
RTVSPropertyOp8
 70
     1
102
RTVSPropertyOp9
 70
     1
102
RTVSPropertyOp10
 70
     1
102
RTVSPropertyOp11
 70
     1
102
RTVSPropertyOp12
 70
     1
102
RTVSPropertyOp13
 70
     1
102
RTVSPropertyOp14
 70
     1
102
RTVSPropertyOp15
 70
     1
102
RTVSPropertyOp16
 70
     1
102
RTVSPropertyOp17
 70
     1
102
RTVSPropertyOp18
 70
     1
102
RTVSPropertyOp19
 70
     1
102
RTVSPropertyOp20
 70
     1
102
RTVSPropertyOp21
 70
     1
102
RTVSPropertyOp22
 70
     1
102
RTVSPropertyOp23
 70
     1
102
RTVSPropertyOp24
 70
     1
102
RTVSPropertyOp25
 70
     1
102
RTVSPropertyOp26
 70
     1
102
RTVSPropertyOp27
 70
     1
102
RTVSPropertyOp28
 70
     1
102
RTVSPropertyOp29
 70
     1
102
RTVSPropertyOp30
 70
     1
102
RTVSPropertyOp31
 70
     1
102
RTVSPropertyOp32
 70
     1
  0
XRECORD
  5
F0
102
{ACAD_REACTORS
330
EF
102
}
330
EF
100
AcDbXrecord
280
     1
102
RTVSPropertyOp0
 70
     1
102
RTVSPropertyOp1
 70
     1
102
RTVSPropertyOp2
 70
     1
102
RTVSPropertyOp3
 70
     1
102
RTVSPropertyOp4
 70
     1
102
RTVSPropertyOp5
 70
     1
102
RTVSPropertyOp6
 70
     1
102
RTVSPropertyOp7
 70
     1
102
RTVSPropertyOp8
 70
     1
102
RTVSPropertyOp9
 70
     1
102
RTVSPropertyOp10
 70
     1
102
RTVSPropertyOp11
 70
     1
102
RTVSPropertyOp12
 70
     1
102
RTVSPropertyOp13
 70
     1
102
RTVSPropertyOp14
 70
     1
102
RTVSPropertyOp15
 70
     1
102
RTVSPropertyOp16
 70
     1
102
RTVSPropertyOp17
 70
     1
102
RTVSPropertyOp18
 70
     1
102
RTVSPropertyOp19
 70
     1
102
RTVSPropertyOp20
 70
     1
102
RTVSPropertyOp21
 70
     1
102
RTVSPropertyOp22
 70
     1
102
RTVSPropertyOp23
 70
     1
102
RTVSPropertyOp24
 70
     1
102
RTVSPropertyOp25
 70
     1
102
RTVSPropertyOp26
 70
     1
102
RTVSPropertyOp27
 70
     1
102
RTVSPropertyOp28
 70
     1
102
RTVSPropertyOp29
 70
     1
102
RTVSPropertyOp30
 70
     1
102
RTVSPropertyOp31
 70
     1
102
RTVSPropertyOp32
 70
     1
  0
XRECORD
  5
E6
102
{ACAD_REACTORS
330
E5
102
}
330
E5
100
AcDbXrecord
280
     1
102
RTVSPropertyOp0
 70
     1
102
RTVSPropertyOp1
 70
     1
102
RTVSPropertyOp2
 70
     1
102
RTVSPropertyOp3
 70
     1
102
RTVSPropertyOp4
 70
     1
102
RTVSPropertyOp5
 70
     1
102
RTVSPropertyOp6
 70
     1
102
RTVSPropertyOp7
 70
     1
102
RTVSPropertyOp8
 70
     1
102
RTVSPropertyOp9
 70
     1
102
RTVSPropertyOp10
 70
     1
102
RTVSPropertyOp11
 70
     1
102
RTVSPropertyOp12
 70
     1
102
RTVSPropertyOp13
 70
     1
102
RTVSPropertyOp14
 70
     1
102
RTVSPropertyOp15
 70
     1
102
RTVSPropertyOp16
 70
     1
102
RTVSPropertyOp17
 70
     1
102
RTVSPropertyOp18
 70
     1
102
RTVSPropertyOp19
 70
     1
102
RTVSPropertyOp20
 70
     1
102
RTVSPropertyOp21
 70
     1
102
RTVSPropertyOp22
 70
     1
102
RTVSPropertyOp23
 70
     1
102
RTVSPropertyOp24
 70
     1
102
RTVSPropertyOp25
 70
     1
102
RTVSPropertyOp26
 70
     1
102
RTVSPropertyOp27
 70
     1
102
RTVSPropertyOp28
 70
     1
102
RTVSPropertyOp29
 70
     1
102
RTVSPropertyOp30
 70
     1
102
RTVSPropertyOp31
 70
     1
102
RTVSPropertyOp32
 70
     1
  0
XRECORD
  5
EE
102
{ACAD_REACTORS
330
ED
102
}
330
ED
100
AcDbXrecord
280
     1
102
RTVSPropertyOp0
 70
     1
102
RTVSPropertyOp1
 70
     1
102
RTVSPropertyOp2
 70
     1
102
RTVSPropertyOp3
 70
     1
102
RTVSPropertyOp4
 70
     1
102
RTVSPropertyOp5
 70
     1
102
RTVSPropertyOp6
 70
     1
102
RTVSPropertyOp7
 70
     1
102
RTVSPropertyOp8
 70
     1
102
RTVSPropertyOp9
 70
     1
102
RTVSPropertyOp10
 70
     1
102
RTVSPropertyOp11
 70
     1
102
RTVSPropertyOp12
 70
     1
102
RTVSPropertyOp13
 70
     1
102
RTVSPropertyOp14
 70
     1
102
RTVSPropertyOp15
 70
     1
102
RTVSPropertyOp16
 70
     1
102
RTVSPropertyOp17
 70
     1
102
RTVSPropertyOp18
 70
     1
102
RTVSPropertyOp19
 70
     1
102
RTVSPropertyOp20
 70
     1
102
RTVSPropertyOp21
 70
     1
102
RTVSPropertyOp22
 70
     1
102
RTVSPropertyOp23
 70
     1
102
RTVSPropertyOp24
 70
     1
102
RTVSPropertyOp25
 70
     1
102
RTVSPropertyOp26
 70
     1
102
RTVSPropertyOp27
 70
     1
102
RTVSPropertyOp28
 70
     1
102
RTVSPropertyOp29
 70
     1
102
RTVSPropertyOp30
 70
     1
102
RTVSPropertyOp31
 70
     1
102
RTVSPropertyOp32
 70
     1
  0
ENDSEC
  0
EOF
