  0
SECTION
  2
HEADER
  9
$ACADVER
  1
AC1021
  9
$ACADMAINTVER
 70
    25
  9
$DWGCODEPAGE
  3
ANSI_1252
  9
$INSBASE
 10
0.0
 20
0.0
 30
0.0
  9
$EXTMIN
 10
-58.132
 20
-114.7522
 30
0.0
  9
$EXTMAX
 10
61.8576
 20
131.3594
 30
0.0
  9
$LIMMIN
 10
0.0
 20
0.0
  9
$LIMMAX
 10
12.0
 20
9.0
  9
$ORTHOMODE
 70
     0
  9
$REGENMODE
 70
     1
  9
$FILLMODE
 70
     1
  9
$QTEXTMODE
 70
     0
  9
$MIRRTEXT
 70
     1
  9
$LTSCALE
 40
1.0
  9
$ATTMODE
 70
     1
  9
$TEXTSIZE
 40
0.2
  9
$TRACEWID
 40
0.05
  9
$TEXTSTYLE
  7
Standard
  9
$CLAYER
  8
0
  9
$CELTYPE
  6
ByLayer
  9
$CECOLOR
 62
   256
  9
$CELTSCALE
 40
1.0
  9
$DISPSILH
 70
     0
  9
$DIMSCALE
 40
1.0
  9
$DIMASZ
 40
0.18
  9
$DIMEXO
 40
0.0625
  9
$DIMDLI
 40
0.38
  9
$DIMRND
 40
0.0
  9
$DIMDLE
 40
0.0
  9
$DIMEXE
 40
0.18
  9
$DIMTP
 40
0.0
  9
$DIMTM
 40
0.0
  9
$DIMTXT
 40
0.18
  9
$DIMCEN
 40
0.09
  9
$DIMTSZ
 40
0.0
  9
$DIMTOL
 70
     0
  9
$DIMLIM
 70
     0
  9
$DIMTIH
 70
     1
  9
$DIMTOH
 70
     1
  9
$DIMSE1
 70
     0
  9
$DIMSE2
 70
     0
  9
$DIMTAD
 70
     0
  9
$DIMZIN
 70
     0
  9
$DIMBLK
  1

  9
$DIMASO
 70
     1
  9
$DIMSHO
 70
     1
  9
$DIMPOST
  1

  9
$DIMAPOST
  1

  9
$DIMALT
 70
     0
  9
$DIMALTD
 70
     2
  9
$DIMALTF
 40
25.4
  9
$DIMLFAC
 40
1.0
  9
$DIMTOFL
 70
     0
  9
$DIMTVP
 40
0.0
  9
$DIMTIX
 70
     0
  9
$DIMSOXD
 70
     0
  9
$DIMSAH
 70
     0
  9
$DIMBLK1
  1

  9
$DIMBLK2
  1

  9
$DIMSTYLE
  2
Standard
  9
$DIMCLRD
 70
     0
  9
$DIMCLRE
 70
     0
  9
$DIMCLRT
 70
     0
  9
$DIMTFAC
 40
1.0
  9
$DIMGAP
 40
0.09
  9
$DIMJUST
 70
     0
  9
$DIMSD1
 70
     0
  9
$DIMSD2
 70
     0
  9
$DIMTOLJ
 70
     1
  9
$DIMTZIN
 70
     0
  9
$DIMALTZ
 70
     0
  9
$DIMALTTZ
 70
     0
  9
$DIMUPT
 70
     0
  9
$DIMDEC
 70
     4
  9
$DIMTDEC
 70
     4
  9
$DIMALTU
 70
     2
  9
$DIMALTTD
 70
     2
  9
$DIMTXSTY
  7
Standard
  9
$DIMAUNIT
 70
     0
  9
$DIMADEC
 70
     0
  9
$DIMALTRND
 40
0.0
  9
$DIMAZIN
 70
     0
  9
$DIMDSEP
 70
    46
  9
$DIMATFIT
 70
     3
  9
$DIMFRAC
 70
     0
  9
$DIMLDRBLK
  1

  9
$DIMLUNIT
 70
     2
  9
$DIMLWD
 70
    -2
  9
$DIMLWE
 70
    -2
  9
$DIMTMOVE
 70
     0
  9
$DIMFXL
 40
1.0
  9
$DIMFXLON
 70
     0
  9
$DIMJOGANG
 40
0.7853981633974483
  9
$DIMTFILL
 70
     0
  9
$DIMTFILLCLR
 70
     0
  9
$DIMARCSYM
 70
     0
  9
$DIMLTYPE
  6

  9
$DIMLTEX1
  6

  9
$DIMLTEX2
  6

  9
$LUNITS
 70
     2
  9
$LUPREC
 70
     4
  9
$SKETCHINC
 40
0.1
  9
$FILLETRAD
 40
0.5
  9
$AUNITS
 70
     0
  9
$AUPREC
 70
     0
  9
$MENU
  1
.
  9
$ELEVATION
 40
0.0
  9
$PELEVATION
 40
0.0
  9
$THICKNESS
 40
0.0
  9
$LIMCHECK
 70
     0
  9
$CHAMFERA
 40
0.5
  9
$CHAMFERB
 40
0.5
  9
$CHAMFERC
 40
1.0
  9
$CHAMFERD
 40
0.0
  9
$SKPOLY
 70
     0
  9
$TDCREATE
 40
2458492.55650706
  9
$TDUCREATE
 40
2458492.55650706
  9
$TDUPDATE
 40
2458492.556507176
  9
$TDUUPDATE
 40
2458492.556507176
  9
$TDINDWG
 40
0.0000000116
  9
$TDUSRTIMER
 40
0.0000000116
  9
$USRTIMER
 70
     1
  9
$ANGBASE
 50
0.0
  9
$ANGDIR
 70
     0
  9
$PDMODE
 70
     0
  9
$PDSIZE
 40
0.0
  9
$PLINEWID
 40
0.0
  9
$SPLFRAME
 70
     0
  9
$SPLINETYPE
 70
     6
  9
$SPLINESEGS
 70
     8
  9
$HANDSEED
  5
B5
  9
$SURFTAB1
 70
     6
  9
$SURFTAB2
 70
     6
  9
$SURFTYPE
 70
     6
  9
$SURFU
 70
     6
  9
$SURFV
 70
     6
  9
$UCSBASE
  2

  9
$UCSNAME
  2

  9
$UCSORG
 10
0.0
 20
0.0
 30
0.0
  9
$UCSXDIR
 10
1.0
 20
0.0
 30
0.0
  9
$UCSYDIR
 10
0.0
 20
1.0
 30
0.0
  9
$UCSORTHOREF
  2

  9
$UCSORTHOVIEW
 70
     0
  9
$UCSORGTOP
 10
0.0
 20
0.0
 30
0.0
  9
$UCSORGBOTTOM
 10
0.0
 20
0.0
 30
0.0
  9
$UCSORGLEFT
 10
0.0
 20
0.0
 30
0.0
  9
$UCSORGRIGHT
 10
0.0
 20
0.0
 30
0.0
  9
$UCSORGFRONT
 10
0.0
 20
0.0
 30
0.0
  9
$UCSORGBACK
 10
0.0
 20
0.0
 30
0.0
  9
$PUCSBASE
  2

  9
$PUCSNAME
  2

  9
$PUCSORG
 10
0.0
 20
0.0
 30
0.0
  9
$PUCSXDIR
 10
1.0
 20
0.0
 30
0.0
  9
$PUCSYDIR
 10
0.0
 20
1.0
 30
0.0
  9
$PUCSORTHOREF
  2

  9
$PUCSORTHOVIEW
 70
     0
  9
$PUCSORGTOP
 10
0.0
 20
0.0
 30
0.0
  9
$PUCSORGBOTTOM
 10
0.0
 20
0.0
 30
0.0
  9
$PUCSORGLEFT
 10
0.0
 20
0.0
 30
0.0
  9
$PUCSORGRIGHT
 10
0.0
 20
0.0
 30
0.0
  9
$PUCSORGFRONT
 10
0.0
 20
0.0
 30
0.0
  9
$PUCSORGBACK
 10
0.0
 20
0.0
 30
0.0
  9
$USERI1
 70
     0
  9
$USERI2
 70
     0
  9
$USERI3
 70
     0
  9
$USERI4
 70
     0
  9
$USERI5
 70
     0
  9
$USERR1
 40
0.0
  9
$USERR2
 40
0.0
  9
$USERR3
 40
0.0
  9
$USERR4
 40
0.0
  9
$USERR5
 40
0.0
  9
$WORLDVIEW
 70
     1
  9
$SHADEDGE
 70
     3
  9
$SHADEDIF
 70
    70
  9
$TILEMODE
 70
     1
  9
$MAXACTVP
 70
    64
  9
$PINSBASE
 10
0.0
 20
0.0
 30
0.0
  9
$PLIMCHECK
 70
     0
  9
$PEXTMIN
 10
1.000000000000000E+20
 20
1.000000000000000E+20
 30
1.000000000000000E+20
  9
$PEXTMAX
 10
-1.000000000000000E+20
 20
-1.000000000000000E+20
 30
-1.000000000000000E+20
  9
$PLIMMIN
 10
0.0
 20
0.0
  9
$PLIMMAX
 10
12.0
 20
9.0
  9
$UNITMODE
 70
     0
  9
$VISRETAIN
 70
     1
  9
$PLINEGEN
 70
     0
  9
$PSLTSCALE
 70
     1
  9
$TREEDEPTH
 70
  3020
  9
$CMLSTYLE
  2
Standard
  9
$CMLJUST
 70
     0
  9
$CMLSCALE
 40
1.0
  9
$PROXYGRAPHICS
 70
     1
  9
$MEASUREMENT
 70
     0
  9
$CELWEIGHT
370
    -1
  9
$ENDCAPS
280
     0
  9
$JOINSTYLE
280
     0
  9
$LWDISPLAY
290
     0
  9
$INSUNITS
 70
     4
  9
$HYPERLINKBASE
  1

  9
$STYLESHEET
  1

  9
$XEDIT
290
     1
  9
$CEPSNTYPE
380
     0
  9
$PSTYLEMODE
290
     1
  9
$FINGERPRINTGUID
  2
{34F244A8-9FC1-478D-946B-413C19BCFB53}
  9
$VERSIONGUID
  2
{FAEB1C32-E019-11D5-929B-00C0DF256EC4}
  9
$EXTNAMES
290
     1
  9
$PSVPSCALE
 40
0.0
  9
$OLESTARTUP
290
     0
  9
$SORTENTS
280
   127
  9
$INDEXCTL
280
     0
  9
$HIDETEXT
280
     1
  9
$XCLIPFRAME
290
     0
  9
$HALOGAP
280
     0
  9
$OBSCOLOR
 70
   257
  9
$OBSLTYPE
280
     0
  9
$INTERSECTIONDISPLAY
280
     0
  9
$INTERSECTIONCOLOR
 70
   257
  9
$DIMASSOC
280
     2
  9
$PROJECTNAME
  1

  9
$CAMERADISPLAY
290
     0
  9
$LENSLENGTH
 40
50.0
  9
$CAMERAHEIGHT
 40
0.0
  9
$STEPSPERSEC
 40
2.0
  9
$STEPSIZE
 40
6.0
  9
$3DDWFPREC
 40
2.0
  9
$PSOLWIDTH
 40
0.25
  9
$PSOLHEIGHT
 40
4.0
  9
$LOFTANG1
 40
1.570796326794897
  9
$LOFTANG2
 40
1.570796326794897
  9
$LOFTMAG1
 40
0.0
  9
$LOFTMAG2
 40
0.0
  9
$LOFTPARAM
 70
     7
  9
$LOFTNORMALS
280
     1
  9
$LATITUDE
 40
37.795
  9
$LONGITUDE
 40
-122.394
  9
$NORTHDIRECTION
 40
0.0
  9
$TIMEZONE
 70
 -8000
  9
$LIGHTGLYPHDISPLAY
280
     1
  9
$TILEMODELIGHTSYNCH
280
     1
  9
$SOLIDHIST
280
     1
  9
$SHOWHIST
280
     1
  9
$DWFFRAME
280
     2
  9
$DGNFRAME
280
     2
  9
$REALWORLDSCALE
290
     1
  9
$INTERFERECOLOR
 62
   256
  9
$CSHADOW
280
     0
  9
$SHADOWPLANELOCATION
 40
0.0
  0
ENDSEC
  0
SECTION
  2
CLASSES
  0
CLASS
  1
ACDBDICTIONARYWDFLT
  2
AcDbDictionaryWithDefault
  3
ObjectDBX Classes
 90
        0
 91
        4
280
     0
281
     0
  0
CLASS
  1
VISUALSTYLE
  2
AcDbVisualStyle
  3
ObjectDBX Classes
 90
     4095
 91
        4
280
     0
281
     0
  0
CLASS
  1
MATERIAL
  2
AcDbMaterial
  3
ObjectDBX Classes
 90
     1153
 91
        4
280
     0
281
     0
  0
ENDSEC
  0
SECTION
  2
TABLES
  0
TABLE
  2
VPORT
  5
8
330
0
100
AcDbSymbolTable
 70
     1
  0
VPORT
  5
29
330
8
100
AcDbSymbolTableRecord
100
AcDbViewportTableRecord
  2
*Active
 70
     0
 10
0.0
 20
0.0
 11
1.0
 21
1.0
 12
10.42990654205607
 22
4.5
 13
0.0
 23
0.0
 14
0.5
 24
0.5
 15
0.5
 25
0.5
 16
0.0
 26
0.0
 36
1.0
 17
0.0
 27
0.0
 37
0.0
 40
9.0
 41
1.972972972850329
 42
50.0
 43
0.0
 44
0.0
 50
0.0
 51
0.0
 71
     0
 72
   100
 73
     1
 74
     3
 75
     0
 76
     0
 77
     0
 78
     0
281
     0
 65
     1
110
0.0
120
0.0
130
0.0
111
1.0
121
0.0
131
0.0
112
0.0
122
1.0
132
0.0
 79
     0
146
0.0
 60
     3
 61
     5
292
     1
282
     1
141
0.0
142
0.0
 63
   250
  0
ENDTAB
  0
TABLE
  2
LTYPE
  5
5
330
0
100
AcDbSymbolTable
 70
     1
  0
LTYPE
  5
14
330
5
100
AcDbSymbolTableRecord
100
AcDbLinetypeTableRecord
  2
ByBlock
 70
     0
  3

 72
    65
 73
     0
 40
0.0
  0
LTYPE
  5
15
330
5
100
AcDbSymbolTableRecord
100
AcDbLinetypeTableRecord
  2
ByLayer
 70
     0
  3

 72
    65
 73
     0
 40
0.0
  0
LTYPE
  5
16
330
5
100
AcDbSymbolTableRecord
100
AcDbLinetypeTableRecord
  2
Continuous
 70
     0
  3
Solid line
 72
    65
 73
     0
 40
0.0
  0
ENDTAB
  0
TABLE
  2
LAYER
  5
2
330
0
100
AcDbSymbolTable
 70
     3
  0
LAYER
  5
10
330
2
100
AcDbSymbolTableRecord
100
AcDbLayerTableRecord
  2
0
 70
     0
 62
     7
  6
Continuous
370
    -3
390
F
347
3E
  0
LAYER
  5
40
330
2
100
AcDbSymbolTableRecord
100
AcDbLayerTableRecord
  2
layer 1
 70
     0
 62
     7
  6
Continuous
370
    -3
390
F
347
3E
  0
LAYER
  5
92
330
2
100
AcDbSymbolTableRecord
100
AcDbLayerTableRecord
  2
Master Guides
 70
     0
 62
     7
  6
Continuous
370
    -3
390
F
347
3E
  0
ENDTAB
  0
TABLE
  2
STYLE
  5
3
330
0
100
AcDbSymbolTable
 70
     1
  0
STYLE
  5
11
330
3
100
AcDbSymbolTableRecord
100
AcDbTextStyleTableRecord
  2
Standard
 70
     0
 40
0.0
 41
1.0
 50
0.0
 71
     0
 42
0.2
  3
txt
  4

  0
ENDTAB
  0
TABLE
  2
VIEW
  5
6
330
0
100
AcDbSymbolTable
 70
     0
  0
ENDTAB
  0
TABLE
  2
UCS
  5
7
330
0
100
AcDbSymbolTable
 70
     0
  0
ENDTAB
  0
TABLE
  2
APPID
  5
9
330
0
100
AcDbSymbolTable
 70
     2
  0
APPID
  5
12
330
9
100
AcDbSymbolTableRecord
100
AcDbRegAppTableRecord
  2
ACAD
 70
     0
  0
APPID
  5
3F
330
9
100
AcDbSymbolTableRecord
100
AcDbRegAppTableRecord
  2
ODA
 70
     0
  0
ENDTAB
  0
TABLE
  2
DIMSTYLE
  5
A
330
0
100
AcDbSymbolTable
 70
     1
100
AcDbDimStyleTable
  0
DIMSTYLE
105
27
330
A
100
AcDbSymbolTableRecord
100
AcDbDimStyleTableRecord
  2
Standard
 70
     0
178
     0
340
11
  0
ENDTAB
  0
TABLE
  2
BLOCK_RECORD
  5
1
330
0
100
AcDbSymbolTable
 70
     1
  0
BLOCK_RECORD
  5
1F
330
1
100
AcDbSymbolTableRecord
100
AcDbBlockTableRecord
  2
*Model_Space
340
22
 70
     0
280
     1
281
     0
  0
BLOCK_RECORD
  5
1B
330
1
100
AcDbSymbolTableRecord
100
AcDbBlockTableRecord
  2
*Paper_Space
340
1E
 70
     0
280
     1
281
     0
  0
BLOCK_RECORD
  5
23
330
1
100
AcDbSymbolTableRecord
100
AcDbBlockTableRecord
  2
*Paper_Space0
340
26
 70
     0
280
     1
281
     0
  0
ENDTAB
  0
ENDSEC
  0
SECTION
  2
BLOCKS
  0
BLOCK
  5
20
330
1F
100
AcDbEntity
  8
0
100
AcDbBlockBegin
  2
*Model_Space
 70
     0
 10
0.0
 20
0.0
 30
0.0
  3
*Model_Space
  1

  0
ENDBLK
  5
21
330
1F
100
AcDbEntity
  8
0
100
AcDbBlockEnd
  0
BLOCK
  5
1C
330
1B
100
AcDbEntity
 67
     1
  8
0
100
AcDbBlockBegin
  2
*Paper_Space
 70
     0
 10
0.0
 20
0.0
 30
0.0
  3
*Paper_Space
  1

  0
ENDBLK
  5
1D
330
1B
100
AcDbEntity
 67
     1
  8
0
100
AcDbBlockEnd
  0
BLOCK
  5
24
330
23
100
AcDbEntity
  8
0
100
AcDbBlockBegin
  2
*Paper_Space0
 70
     0
 10
0.0
 20
0.0
 30
0.0
  3
*Paper_Space0
  1

  0
ENDBLK
  5
25
330
23
100
AcDbEntity
  8
0
100
AcDbBlockEnd
  0
ENDSEC
  0
SECTION
  2
ENTITIES
  0
SPLINE
  5
41
330
1F
100
AcDbEntity
  8
layer 1
100
AcDbSpline
210
0.0
220
0.0
230
1.0
 70
    11
 71
     3
 72
    20
 73
    16
 74
     0
 42
0.0000000001
 43
0.0000000001
 12
1.0
 22
0.0
 32
0.0
 13
1.0
 23
0.0
 33
0.0
 40
0.0
 40
0.0
 40
0.0
 40
0.0
 40
0.2
 40
0.2
 40
0.2
 40
0.2
 40
0.4
 40
0.4
 40
0.4
 40
0.4
 40
0.6
 40
0.6
 40
0.6
 40
0.6
 40
1.0
 40
1.0
 40
1.0
 40
1.0
 10
-58.132
 20
-114.7522
 30
0.0
 10
-58.132
 20
-114.7522
 30
0.0
 10
61.8576
 20
-114.7522
 30
0.0
 10
61.8576
 20
-114.7522
 30
0.0
 10
61.8576
 20
-114.7522
 30
0.0
 10
61.8576
 20
-114.7522
 30
0.0
 10
61.8576
 20
131.3594
 30
0.0
 10
61.8576
 20
131.3594
 30
0.0
 10
61.8576
 20
131.3594
 30
0.0
 10
61.8576
 20
131.3594
 30
0.0
 10
-58.132
 20
131.3594
 30
0.0
 10
-58.132
 20
131.3594
 30
0.0
 10
-58.132
 20
131.3594
 30
0.0
 10
-58.132
 20
131.3594
 30
0.0
 10
-58.132
 20
-114.7522
 30
0.0
 10
-58.132
 20
-114.7522
 30
0.0
  0
SPLINE
  5
42
330
1F
100
AcDbEntity
  8
layer 1
 62
     7
100
AcDbSpline
210
0.0
220
0.0
230
1.0
 70
    11
 71
     3
 72
    56
 73
    52
 74
     0
 42
0.0000000001
 43
0.0000000001
 12
1.0
 22
0.0
 32
0.0
 13
1.0
 23
0.0
 33
0.0
 40
0.0
 40
0.0
 40
0.0
 40
0.0
 40
0.0714285714285714
 40
0.0714285714285714
 40
0.0714285714285714
 40
0.0714285714285714
 40
0.1428571428571428
 40
0.1428571428571428
 40
0.1428571428571428
 40
0.1428571428571428
 40
0.2142857142857143
 40
0.2142857142857143
 40
0.2142857142857143
 40
0.2142857142857143
 40
0.2857142857142857
 40
0.2857142857142857
 40
0.2857142857142857
 40
0.2857142857142857
 40
0.3571428571428572
 40
0.3571428571428572
 40
0.3571428571428572
 40
0.3571428571428572
 40
0.4285714285714285
 40
0.4285714285714285
 40
0.4285714285714285
 40
0.4285714285714285
 40
0.5
 40
0.5
 40
0.5
 40
0.5
 40
0.5714285714285714
 40
0.5714285714285714
 40
0.5714285714285714
 40
0.5714285714285714
 40
0.6428571428571429
 40
0.6428571428571429
 40
0.6428571428571429
 40
0.6428571428571429
 40
0.7142857142857143
 40
0.7142857142857143
 40
0.7142857142857143
 40
0.7142857142857143
 40
0.7857142857142857
 40
0.7857142857142857
 40
0.7857142857142857
 40
0.7857142857142857
 40
0.8571428571428571
 40
0.8571428571428571
 40
0.8571428571428571
 40
0.8571428571428571
 40
1.0
 40
1.0
 40
1.0
 40
1.0
 10
-1.2339
 20
33.9111
 30
0.0
 10
-3.3
 20
33.9312
 30
0.0
 10
-6.5202
 20
34.7311
 30
0.0
 10
-8.5368
 20
35.5721
 30
0.0
 10
-8.5368
 20
35.5721
 30
0.0
 10
-12.4524
 20
35.2463
 30
0.0
 10
-18.7567
 20
34.2136
 30
0.0
 10
-31.6071
 20
41.8247
 30
0.0
 10
-31.6071
 20
41.8247
 30
0.0
 10
-31.0308
 20
40.7217
 30
0.0
 10
-27.1896
 20
35.4514
 30
0.0
 10
-20.3072
 20
32.4197
 30
0.0
 10
-20.3072
 20
32.4197
 30
0.0
 10
-20.6656
 20
35.2364
 30
0.0
 10
-15.265
 20
34.9946
 30
0.0
 10
-15.9469
 20
29.8141
 30
0.0
 10
-15.9469
 20
29.8141
 30
0.0
 10
-12.2482
 20
27.2554
 30
0.0
 10
-12.1847
 20
27.0417
 30
0.0
 10
-8.7476
 20
25.321
 30
0.0
 10
-8.7476
 20
25.321
 30
0.0
 10
-6.4499
 20
24.7029
 30
0.0
 10
-3.7242
 20
26.7964
 30
0.0
 10
-4.7046
 20
29.7812
 30
0.0
 10
-4.7046
 20
29.7812
 30
0.0
 10
-5.7108
 20
32.8439
 30
0.0
 10
-10.9022
 20
33.1556
 30
0.0
 10
-11.3589
 20
28.6092
 30
0.0
 10
-11.3589
 20
28.6092
 30
0.0
 10
-12.9427
 20
29.9316
 30
0.0
 10
-12.4968
 20
31.8453
 30
0.0
 10
-11.9237
 20
32.7576
 30
0.0
 10
-11.9237
 20
32.7576
 30
0.0
 10
-10.2135
 20
34.8157
 30
0.0
 10
-7.9215
 20
34.672
 30
0.0
 10
-6.1957
 20
34.1353
 30
0.0
 10
-6.1957
 20
34.1353
 30
0.0
 10
-3.668
 20
33.3492
 30
0.0
 10
-1.9533
 20
30.5957
 30
0.0
 10
-2.4976
 20
27.511
 30
0.0
 10
-2.4976
 20
27.511
 30
0.0
 10
-1.9396
 20
26.8175
 30
0.0
 10
-0.6216
 20
26.1422
 30
0.0
 10
-0.1249
 20
26.1965
 30
0.0
 10
-0.1249
 20
26.1965
 30
0.0
 10
-0.6503
 20
28.9487
 30
0.0
 10
-0.8822
 20
31.1726
 30
0.0
 10
-1.2336
 20
33.9108
 30
0.0
 10
-1.2336
 20
33.9108
 30
0.0
 10
-1.2336
 20
33.9108
 30
0.0
 10
-1.2339
 20
33.9111
 30
0.0
 10
-1.2339
 20
33.9111
 30
0.0
  0
SPLINE
  5
43
330
1F
100
AcDbEntity
  8
layer 1
 62
     7
100
AcDbSpline
210
0.0
220
0.0
230
1.0
 70
    11
 71
     3
 72
    56
 73
    52
 74
     0
 42
0.0000000001
 43
0.0000000001
 12
1.0
 22
0.0
 32
0.0
 13
1.0
 23
0.0
 33
0.0
 40
0.0
 40
0.0
 40
0.0
 40
0.0
 40
0.0714285714285714
 40
0.0714285714285714
 40
0.0714285714285714
 40
0.0714285714285714
 40
0.1428571428571428
 40
0.1428571428571428
 40
0.1428571428571428
 40
0.1428571428571428
 40
0.2142857142857143
 40
0.2142857142857143
 40
0.2142857142857143
 40
0.2142857142857143
 40
0.2857142857142857
 40
0.2857142857142857
 40
0.2857142857142857
 40
0.2857142857142857
 40
0.3571428571428572
 40
0.3571428571428572
 40
0.3571428571428572
 40
0.3571428571428572
 40
0.4285714285714285
 40
0.4285714285714285
 40
0.4285714285714285
 40
0.4285714285714285
 40
0.5
 40
0.5
 40
0.5
 40
0.5
 40
0.5714285714285714
 40
0.5714285714285714
 40
0.5714285714285714
 40
0.5714285714285714
 40
0.6428571428571429
 40
0.6428571428571429
 40
0.6428571428571429
 40
0.6428571428571429
 40
0.7142857142857143
 40
0.7142857142857143
 40
0.7142857142857143
 40
0.7142857142857143
 40
0.7857142857142857
 40
0.7857142857142857
 40
0.7857142857142857
 40
0.7857142857142857
 40
0.8571428571428571
 40
0.8571428571428571
 40
0.8571428571428571
 40
0.8571428571428571
 40
1.0
 40
1.0
 40
1.0
 40
1.0
 10
3.8562
 20
33.9111
 30
0.0
 10
5.9223
 20
33.9312
 30
0.0
 10
9.1425
 20
34.7311
 30
0.0
 10
11.159
 20
35.5721
 30
0.0
 10
11.159
 20
35.5721
 30
0.0
 10
15.0746
 20
35.2463
 30
0.0
 10
21.3789
 20
34.2136
 30
0.0
 10
34.2293
 20
41.8247
 30
0.0
 10
34.2293
 20
41.8247
 30
0.0
 10
33.6531
 20
40.7217
 30
0.0
 10
29.8119
 20
35.4514
 30
0.0
 10
22.9295
 20
32.4197
 30
0.0
 10
22.9295
 20
32.4197
 30
0.0
 10
23.2879
 20
35.2364
 30
0.0
 10
17.8872
 20
34.9946
 30
0.0
 10
18.5692
 20
29.8141
 30
0.0
 10
18.5692
 20
29.8141
 30
0.0
 10
14.8705
 20
27.2554
 30
0.0
 10
14.807
 20
27.0417
 30
0.0
 10
11.3699
 20
25.321
 30
0.0
 10
11.3699
 20
25.321
 30
0.0
 10
9.0722
 20
24.7029
 30
0.0
 10
6.3465
 20
26.7964
 30
0.0
 10
7.3268
 20
29.7812
 30
0.0
 10
7.3268
 20
29.7812
 30
0.0
 10
8.333
 20
32.8439
 30
0.0
 10
13.5244
 20
33.1556
 30
0.0
 10
13.9812
 20
28.6092
 30
0.0
 10
13.9812
 20
28.6092
 30
0.0
 10
15.565
 20
29.9316
 30
0.0
 10
15.119
 20
31.8453
 30
0.0
 10
14.546
 20
32.7576
 30
0.0
 10
14.546
 20
32.7576
 30
0.0
 10
12.8357
 20
34.8157
 30
0.0
 10
10.5438
 20
34.672
 30
0.0
 10
8.8179
 20
34.1353
 30
0.0
 10
8.8179
 20
34.1353
 30
0.0
 10
6.2903
 20
33.3492
 30
0.0
 10
4.5756
 20
30.5957
 30
0.0
 10
5.1199
 20
27.511
 30
0.0
 10
5.1199
 20
27.511
 30
0.0
 10
4.5618
 20
26.8175
 30
0.0
 10
3.2439
 20
26.1422
 30
0.0
 10
2.7471
 20
26.1965
 30
0.0
 10
2.7471
 20
26.1965
 30
0.0
 10
3.2726
 20
28.9487
 30
0.0
 10
3.5045
 20
31.1726
 30
0.0
 10
3.8559
 20
33.9108
 30
0.0
 10
3.8559
 20
33.9108
 30
0.0
 10
3.8559
 20
33.9108
 30
0.0
 10
3.8562
 20
33.9111
 30
0.0
 10
3.8562
 20
33.9111
 30
0.0
  0
SPLINE
  5
44
330
1F
100
AcDbEntity
  8
layer 1
 62
     7
100
AcDbSpline
210
0.0
220
0.0
230
1.0
 70
    11
 71
     3
 72
    36
 73
    32
 74
     0
 42
0.0000000001
 43
0.0000000001
 12
1.0
 22
0.0
 32
0.0
 13
1.0
 23
0.0
 33
0.0
 40
0.0
 40
0.0
 40
0.0
 40
0.0
 40
0.1111111111111111
 40
0.1111111111111111
 40
0.1111111111111111
 40
0.1111111111111111
 40
0.2222222222222222
 40
0.2222222222222222
 40
0.2222222222222222
 40
0.2222222222222222
 40
0.3333333333333333
 40
0.3333333333333333
 40
0.3333333333333333
 40
0.3333333333333333
 40
0.4444444444444444
 40
0.4444444444444444
 40
0.4444444444444444
 40
0.4444444444444444
 40
0.5555555555555556
 40
0.5555555555555556
 40
0.5555555555555556
 40
0.5555555555555556
 40
0.6666666666666666
 40
0.6666666666666666
 40
0.6666666666666666
 40
0.6666666666666666
 40
0.7777777777777778
 40
0.7777777777777778
 40
0.7777777777777778
 40
0.7777777777777778
 40
1.0
 40
1.0
 40
1.0
 40
1.0
 10
0.0563
 20
46.2747
 30
0.0
 10
0.2907
 20
40.784
 30
0.0
 10
-3.0125
 20
37.9497
 30
0.0
 10
-5.8986
 20
37.0859
 30
0.0
 10
-5.8986
 20
37.0859
 30
0.0
 10
-4.3561
 20
36.4161
 30
0.0
 10
-2.3823
 20
35.9778
 30
0.0
 10
-1.0209
 20
36.3244
 30
0.0
 10
-1.0209
 20
36.3244
 30
0.0
 10
-0.7193
 20
38.1231
 30
0.0
 10
-0.0016
 20
39.7835
 30
0.0
 10
1.2235
 20
40.8124
 30
0.0
 10
1.2235
 20
40.8124
 30
0.0
 10
2.4485
 20
39.7835
 30
0.0
 10
3.1662
 20
38.1231
 30
0.0
 10
3.4678
 20
36.3244
 30
0.0
 10
3.4678
 20
36.3244
 30
0.0
 10
4.8292
 20
35.9778
 30
0.0
 10
6.8033
 20
36.4161
 30
0.0
 10
8.3455
 20
37.0859
 30
0.0
 10
8.3455
 20
37.0859
 30
0.0
 10
5.4594
 20
37.9497
 30
0.0
 10
2.1562
 20
40.784
 30
0.0
 10
2.3907
 20
46.2747
 30
0.0
 10
2.3907
 20
46.2747
 30
0.0
 10
1.9284
 20
46.3316
 30
0.0
 10
1.5461
 20
46.3462
 30
0.0
 10
1.2235
 20
46.3405
 30
0.0
 10
1.2235
 20
46.3405
 30
0.0
 10
0.9008
 20
46.3466
 30
0.0
 10
0.5185
 20
46.3316
 30
0.0
 10
0.0563
 20
46.2747
 30
0.0
  0
SPLINE
  5
45
330
1F
100
AcDbEntity
  8
layer 1
 62
     7
100
AcDbSpline
210
0.0
220
0.0
230
1.0
 70
    11
 71
     3
 72
    56
 73
    52
 74
     0
 42
0.0000000001
 43
0.0000000001
 12
1.0
 22
0.0
 32
0.0
 13
1.0
 23
0.0
 33
0.0
 40
0.0
 40
0.0
 40
0.0
 40
0.0
 40
0.0714285714285714
 40
0.0714285714285714
 40
0.0714285714285714
 40
0.0714285714285714
 40
0.1428571428571428
 40
0.1428571428571428
 40
0.1428571428571428
 40
0.1428571428571428
 40
0.2142857142857143
 40
0.2142857142857143
 40
0.2142857142857143
 40
0.2142857142857143
 40
0.2857142857142857
 40
0.2857142857142857
 40
0.2857142857142857
 40
0.2857142857142857
 40
0.3571428571428572
 40
0.3571428571428572
 40
0.3571428571428572
 40
0.3571428571428572
 40
0.4285714285714285
 40
0.4285714285714285
 40
0.4285714285714285
 40
0.4285714285714285
 40
0.5
 40
0.5
 40
0.5
 40
0.5
 40
0.5714285714285714
 40
0.5714285714285714
 40
0.5714285714285714
 40
0.5714285714285714
 40
0.6428571428571429
 40
0.6428571428571429
 40
0.6428571428571429
 40
0.6428571428571429
 40
0.7142857142857143
 40
0.7142857142857143
 40
0.7142857142857143
 40
0.7142857142857143
 40
0.7857142857142857
 40
0.7857142857142857
 40
0.7857142857142857
 40
0.7857142857142857
 40
0.8571428571428571
 40
0.8571428571428571
 40
0.8571428571428571
 40
0.8571428571428571
 40
1.0
 40
1.0
 40
1.0
 40
1.0
 10
-1.2339
 20
-19.4902
 30
0.0
 10
-3.3
 20
-19.5103
 30
0.0
 10
-6.5202
 20
-20.3101
 30
0.0
 10
-8.5368
 20
-21.1512
 30
0.0
 10
-8.5368
 20
-21.1512
 30
0.0
 10
-12.4524
 20
-20.8254
 30
0.0
 10
-18.7567
 20
-19.7927
 30
0.0
 10
-31.6071
 20
-27.4037
 30
0.0
 10
-31.6071
 20
-27.4037
 30
0.0
 10
-31.0308
 20
-26.3007
 30
0.0
 10
-27.1896
 20
-21.0305
 30
0.0
 10
-20.3072
 20
-17.9987
 30
0.0
 10
-20.3072
 20
-17.9987
 30
0.0
 10
-20.6656
 20
-20.8155
 30
0.0
 10
-15.265
 20
-20.5737
 30
0.0
 10
-15.9469
 20
-15.3931
 30
0.0
 10
-15.9469
 20
-15.3931
 30
0.0
 10
-12.2482
 20
-12.8345
 30
0.0
 10
-12.1847
 20
-12.6208
 30
0.0
 10
-8.7476
 20
-10.9
 30
0.0
 10
-8.7476
 20
-10.9
 30
0.0
 10
-6.4499
 20
-10.2819
 30
0.0
 10
-3.7242
 20
-12.3755
 30
0.0
 10
-4.7046
 20
-15.3602
 30
0.0
 10
-4.7046
 20
-15.3602
 30
0.0
 10
-5.7108
 20
-18.4229
 30
0.0
 10
-10.9022
 20
-18.7347
 30
0.0
 10
-11.3589
 20
-14.1882
 30
0.0
 10
-11.3589
 20
-14.1882
 30
0.0
 10
-12.9427
 20
-15.5107
 30
0.0
 10
-12.4968
 20
-17.4244
 30
0.0
 10
-11.9237
 20
-18.3367
 30
0.0
 10
-11.9237
 20
-18.3367
 30
0.0
 10
-10.2135
 20
-20.3948
 30
0.0
 10
-7.9215
 20
-20.251
 30
0.0
 10
-6.1957
 20
-19.7144
 30
0.0
 10
-6.1957
 20
-19.7144
 30
0.0
 10
-3.668
 20
-18.9283
 30
0.0
 10
-1.9533
 20
-16.1748
 30
0.0
 10
-2.4976
 20
-13.09
 30
0.0
 10
-2.4976
 20
-13.09
 30
0.0
 10
-1.9396
 20
-12.3965
 30
0.0
 10
-0.6216
 20
-11.7213
 30
0.0
 10
-0.1249
 20
-11.7756
 30
0.0
 10
-0.1249
 20
-11.7756
 30
0.0
 10
-0.6503
 20
-14.5278
 30
0.0
 10
-0.8822
 20
-16.7517
 30
0.0
 10
-1.2336
 20
-19.4898
 30
0.0
 10
-1.2336
 20
-19.4898
 30
0.0
 10
-1.2336
 20
-19.4898
 30
0.0
 10
-1.2339
 20
-19.4902
 30
0.0
 10
-1.2339
 20
-19.4902
 30
0.0
  0
SPLINE
  5
46
330
1F
100
AcDbEntity
  8
layer 1
 62
     7
100
AcDbSpline
210
0.0
220
0.0
230
1.0
 70
    11
 71
     3
 72
   100
 73
    96
 74
     0
 42
0.0000000001
 43
0.0000000001
 12
1.0
 22
0.0
 32
0.0
 13
1.0
 23
0.0
 33
0.0
 40
0.0
 40
0.0
 40
0.0
 40
0.0
 40
0.04
 40
0.04
 40
0.04
 40
0.04
 40
0.08
 40
0.08
 40
0.08
 40
0.08
 40
0.12
 40
0.12
 40
0.12
 40
0.12
 40
0.16
 40
0.16
 40
0.16
 40
0.16
 40
0.2
 40
0.2
 40
0.2
 40
0.2
 40
0.24
 40
0.24
 40
0.24
 40
0.24
 40
0.28
 40
0.28
 40
0.28
 40
0.28
 40
0.32
 40
0.32
 40
0.32
 40
0.32
 40
0.36
 40
0.36
 40
0.36
 40
0.36
 40
0.4
 40
0.4
 40
0.4
 40
0.4
 40
0.44
 40
0.44
 40
0.44
 40
0.44
 40
0.48
 40
0.48
 40
0.48
 40
0.48
 40
0.52
 40
0.52
 40
0.52
 40
0.52
 40
0.56
 40
0.56
 40
0.56
 40
0.56
 40
0.6
 40
0.6
 40
0.6
 40
0.6
 40
0.64
 40
0.64
 40
0.64
 40
0.64
 40
0.68
 40
0.68
 40
0.68
 40
0.68
 40
0.72
 40
0.72
 40
0.72
 40
0.72
 40
0.76
 40
0.76
 40
0.76
 40
0.76
 40
0.8
 40
0.8
 40
0.8
 40
0.8
 40
0.84
 40
0.84
 40
0.84
 40
0.84
 40
0.88
 40
0.88
 40
0.88
 40
0.88
 40
0.92
 40
0.92
 40
0.92
 40
0.92
 40
1.0
 40
1.0
 40
1.0
 40
1.0
 10
11.0112
 20
-62.4157
 30
0.0
 10
14.2067
 20
-61.7289
 30
0.0
 10
26.1653
 20
-55.8577
 30
0.0
 10
25.8794
 20
-40.0021
 30
0.0
 10
25.8794
 20
-40.0021
 30
0.0
 10
32.6175
 20
-45.9116
 30
0.0
 10
37.8808
 20
-33.6202
 30
0.0
 10
31.5353
 20
-32.0559
 30
0.0
 10
31.5353
 20
-32.0559
 30
0.0
 10
33.9418
 20
-37.8469
 30
0.0
 10
27.3545
 20
-39.5032
 30
0.0
 10
25.1489
 20
-34.4175
 30
0.0
 10
25.1489
 20
-34.4175
 30
0.0
 10
22.3589
 20
-29.3884
 30
0.0
 10
19.1614
 20
-26.7058
 30
0.0
 10
15.1293
 20
-23.2304
 30
0.0
 10
15.1293
 20
-23.2304
 30
0.0
 10
19.4937
 20
-23.4939
 30
0.0
 10
24.4423
 20
-23.9874
 30
0.0
 10
26.5122
 20
-28.762
 30
0.0
 10
26.5122
 20
-28.762
 30
0.0
 10
27.9167
 20
-32.2153
 30
0.0
 10
31.7611
 20
-31.4021
 30
0.0
 10
30.9663
 20
-28.3592
 30
0.0
 10
30.9663
 20
-28.3592
 30
0.0
 10
34.4216
 20
-30.9938
 30
0.0
 10
37.0924
 20
-32.7817
 30
0.0
 10
35.5051
 20
-28.7256
 30
0.0
 10
35.5051
 20
-28.7256
 30
0.0
 10
36.4251
 20
-29.2603
 30
0.0
 10
36.9931
 20
-29.5641
 30
0.0
 10
37.9533
 20
-29.7803
 30
0.0
 10
37.9533
 20
-29.7803
 30
0.0
 10
38.0654
 20
-31.4257
 30
0.0
 10
38.1919
 20
-33.2813
 30
0.0
 10
38.6055
 20
-34.72
 30
0.0
 10
38.6055
 20
-34.72
 30
0.0
 10
33.2583
 20
-35.156
 30
0.0
 10
35.393
 20
-43.1865
 30
0.0
 10
40.7608
 20
-45.9423
 30
0.0
 10
40.7608
 20
-45.9423
 30
0.0
 10
41.4025
 20
-46.1164
 30
0.0
 10
42.9016
 20
-46.3898
 30
0.0
 10
43.7216
 20
-47.0983
 30
0.0
 10
43.7216
 20
-47.0983
 30
0.0
 10
44.4572
 20
-47.734
 30
0.0
 10
44.2176
 20
-49.4059
 30
0.0
 10
43.8944
 20
-50.1045
 30
0.0
 10
43.8944
 20
-50.1045
 30
0.0
 10
42.3145
 20
-48.2553
 30
0.0
 10
39.7338
 20
-48.2572
 30
0.0
 10
39.0058
 20
-49.5656
 30
0.0
 10
39.0058
 20
-49.5656
 30
0.0
 10
48.3092
 20
-59.4647
 30
0.0
 10
36.1689
 20
-61.6621
 30
0.0
 10
37.7776
 20
-53.8364
 30
0.0
 10
37.7776
 20
-53.8364
 30
0.0
 10
39.086
 20
-47.4707
 30
0.0
 10
31.5139
 20
-46.3099
 30
0.0
 10
31.6867
 20
-46.9469
 30
0.0
 10
31.6867
 20
-46.9469
 30
0.0
 10
33.2618
 20
-52.7503
 30
0.0
 10
32.5239
 20
-54.3915
 30
0.0
 10
30.7281
 20
-55.4594
 30
0.0
 10
30.7281
 20
-55.4594
 30
0.0
 10
25.1243
 20
-57.8733
 30
0.0
 10
32.1016
 20
-71.2681
 30
0.0
 10
36.106
 20
-64.4086
 30
0.0
 10
36.106
 20
-64.4086
 30
0.0
 10
44.3537
 20
-66.2223
 30
0.0
 10
40.3857
 20
-75.1868
 30
0.0
 10
35.1164
 20
-80.2176
 30
0.0
 10
35.1164
 20
-80.2176
 30
0.0
 10
32.9209
 20
-79.0635
 30
0.0
 10
23.6725
 20
-72.3688
 30
0.0
 10
22.4688
 20
-69.7766
 30
0.0
 10
22.4688
 20
-69.7766
 30
0.0
 10
26.8722
 20
-72.839
 30
0.0
 10
33.6317
 20
-72.9313
 30
0.0
 10
34.7203
 20
-68.1635
 30
0.0
 10
34.7203
 20
-68.1635
 30
0.0
 10
29.1766
 20
-69.5364
 30
0.0
 10
25.6625
 20
-68.2731
 30
0.0
 10
21.8955
 20
-63.3538
 30
0.0
 10
21.8955
 20
-63.3538
 30
0.0
 10
20.2363
 20
-61.1868
 30
0.0
 10
15.5963
 20
-61.1587
 30
0.0
 10
14.278
 20
-65.8444
 30
0.0
 10
14.278
 20
-65.8444
 30
0.0
 10
12.6236
 20
-64.4332
 30
0.0
 10
12.5511
 20
-63.7598
 30
0.0
 10
11.0112
 20
-62.4166
 30
0.0
 10
11.0112
 20
-62.4166
 30
0.0
 10
11.0112
 20
-62.4166
 30
0.0
 10
11.0112
 20
-62.4157
 30
0.0
 10
11.0112
 20
-62.4157
 30
0.0
  0
SPLINE
  5
47
330
1F
100
AcDbEntity
  8
layer 1
 62
     7
100
AcDbSpline
210
0.0
220
0.0
230
1.0
 70
    11
 71
     3
 72
   100
 73
    96
 74
     0
 42
0.0000000001
 43
0.0000000001
 12
1.0
 22
0.0
 32
0.0
 13
1.0
 23
0.0
 33
0.0
 40
0.0
 40
0.0
 40
0.0
 40
0.0
 40
0.04
 40
0.04
 40
0.04
 40
0.04
 40
0.08
 40
0.08
 40
0.08
 40
0.08
 40
0.12
 40
0.12
 40
0.12
 40
0.12
 40
0.16
 40
0.16
 40
0.16
 40
0.16
 40
0.2
 40
0.2
 40
0.2
 40
0.2
 40
0.24
 40
0.24
 40
0.24
 40
0.24
 40
0.28
 40
0.28
 40
0.28
 40
0.28
 40
0.32
 40
0.32
 40
0.32
 40
0.32
 40
0.36
 40
0.36
 40
0.36
 40
0.36
 40
0.4
 40
0.4
 40
0.4
 40
0.4
 40
0.44
 40
0.44
 40
0.44
 40
0.44
 40
0.48
 40
0.48
 40
0.48
 40
0.48
 40
0.52
 40
0.52
 40
0.52
 40
0.52
 40
0.56
 40
0.56
 40
0.56
 40
0.56
 40
0.6
 40
0.6
 40
0.6
 40
0.6
 40
0.64
 40
0.64
 40
0.64
 40
0.64
 40
0.68
 40
0.68
 40
0.68
 40
0.68
 40
0.72
 40
0.72
 40
0.72
 40
0.72
 40
0.76
 40
0.76
 40
0.76
 40
0.76
 40
0.8
 40
0.8
 40
0.8
 40
0.8
 40
0.84
 40
0.84
 40
0.84
 40
0.84
 40
0.88
 40
0.88
 40
0.88
 40
0.88
 40
0.92
 40
0.92
 40
0.92
 40
0.92
 40
1.0
 40
1.0
 40
1.0
 40
1.0
 10
-8.1931
 20
-62.4157
 30
0.0
 10
-11.3887
 20
-61.7289
 30
0.0
 10
-23.3472
 20
-55.8577
 30
0.0
 10
-23.0613
 20
-40.0021
 30
0.0
 10
-23.0613
 20
-40.0021
 30
0.0
 10
-29.7994
 20
-45.9116
 30
0.0
 10
-35.0627
 20
-33.6202
 30
0.0
 10
-28.7172
 20
-32.0559
 30
0.0
 10
-28.7172
 20
-32.0559
 30
0.0
 10
-31.1238
 20
-37.8469
 30
0.0
 10
-24.5364
 20
-39.5032
 30
0.0
 10
-22.3308
 20
-34.4175
 30
0.0
 10
-22.3308
 20
-34.4175
 30
0.0
 10
-19.5409
 20
-29.3884
 30
0.0
 10
-16.3434
 20
-26.7058
 30
0.0
 10
-12.3112
 20
-23.2304
 30
0.0
 10
-12.3112
 20
-23.2304
 30
0.0
 10
-16.6756
 20
-23.4939
 30
0.0
 10
-21.6242
 20
-23.9874
 30
0.0
 10
-23.6941
 20
-28.762
 30
0.0
 10
-23.6941
 20
-28.762
 30
0.0
 10
-25.0986
 20
-32.2153
 30
0.0
 10
-28.943
 20
-31.4021
 30
0.0
 10
-28.1483
 20
-28.3592
 30
0.0
 10
-28.1483
 20
-28.3592
 30
0.0
 10
-31.6035
 20
-30.9938
 30
0.0
 10
-34.2743
 20
-32.7817
 30
0.0
 10
-32.6871
 20
-28.7256
 30
0.0
 10
-32.6871
 20
-28.7256
 30
0.0
 10
-33.607
 20
-29.2603
 30
0.0
 10
-34.175
 20
-29.5641
 30
0.0
 10
-35.1352
 20
-29.7803
 30
0.0
 10
-35.1352
 20
-29.7803
 30
0.0
 10
-35.2473
 20
-31.4257
 30
0.0
 10
-35.3738
 20
-33.2813
 30
0.0
 10
-35.7875
 20
-34.72
 30
0.0
 10
-35.7875
 20
-34.72
 30
0.0
 10
-30.4402
 20
-35.156
 30
0.0
 10
-32.5749
 20
-43.1865
 30
0.0
 10
-37.9427
 20
-45.9423
 30
0.0
 10
-37.9427
 20
-45.9423
 30
0.0
 10
-38.5844
 20
-46.1164
 30
0.0
 10
-40.0835
 20
-46.3898
 30
0.0
 10
-40.9035
 20
-47.0983
 30
0.0
 10
-40.9035
 20
-47.0983
 30
0.0
 10
-41.6391
 20
-47.734
 30
0.0
 10
-41.3995
 20
-49.4059
 30
0.0
 10
-41.0763
 20
-50.1045
 30
0.0
 10
-41.0763
 20
-50.1045
 30
0.0
 10
-39.4964
 20
-48.2553
 30
0.0
 10
-36.9157
 20
-48.2572
 30
0.0
 10
-36.1877
 20
-49.5656
 30
0.0
 10
-36.1877
 20
-49.5656
 30
0.0
 10
-45.4911
 20
-59.4647
 30
0.0
 10
-33.3508
 20
-61.6621
 30
0.0
 10
-34.9595
 20
-53.8364
 30
0.0
 10
-34.9595
 20
-53.8364
 30
0.0
 10
-36.2679
 20
-47.4707
 30
0.0
 10
-28.6958
 20
-46.3099
 30
0.0
 10
-28.8686
 20
-46.9469
 30
0.0
 10
-28.8686
 20
-46.9469
 30
0.0
 10
-30.4437
 20
-52.7503
 30
0.0
 10
-29.7058
 20
-54.3915
 30
0.0
 10
-27.91
 20
-55.4594
 30
0.0
 10
-27.91
 20
-55.4594
 30
0.0
 10
-22.3062
 20
-57.8733
 30
0.0
 10
-29.2835
 20
-71.2681
 30
0.0
 10
-33.2879
 20
-64.4086
 30
0.0
 10
-33.2879
 20
-64.4086
 30
0.0
 10
-41.5356
 20
-66.2223
 30
0.0
 10
-37.5676
 20
-75.1868
 30
0.0
 10
-32.2983
 20
-80.2176
 30
0.0
 10
-32.2983
 20
-80.2176
 30
0.0
 10
-30.1029
 20
-79.0635
 30
0.0
 10
-20.8544
 20
-72.3688
 30
0.0
 10
-19.6507
 20
-69.7766
 30
0.0
 10
-19.6507
 20
-69.7766
 30
0.0
 10
-24.0541
 20
-72.839
 30
0.0
 10
-30.8136
 20
-72.9313
 30
0.0
 10
-31.9022
 20
-68.1635
 30
0.0
 10
-31.9022
 20
-68.1635
 30
0.0
 10
-26.3585
 20
-69.5364
 30
0.0
 10
-22.8444
 20
-68.2731
 30
0.0
 10
-19.0774
 20
-63.3538
 30
0.0
 10
-19.0774
 20
-63.3538
 30
0.0
 10
-17.4182
 20
-61.1868
 30
0.0
 10
-12.7782
 20
-61.1587
 30
0.0
 10
-11.4599
 20
-65.8444
 30
0.0
 10
-11.4599
 20
-65.8444
 30
0.0
 10
-9.8056
 20
-64.4332
 30
0.0
 10
-9.733
 20
-63.7598
 30
0.0
 10
-8.1931
 20
-62.4166
 30
0.0
 10
-8.1931
 20
-62.4166
 30
0.0
 10
-8.1931
 20
-62.4166
 30
0.0
 10
-8.1931
 20
-62.4157
 30
0.0
 10
-8.1931
 20
-62.4157
 30
0.0
  0
SPLINE
  5
48
330
1F
100
AcDbEntity
  8
layer 1
 62
     7
100
AcDbSpline
210
0.0
220
0.0
230
1.0
 70
    11
 71
     3
 72
   100
 73
    96
 74
     0
 42
0.0000000001
 43
0.0000000001
 12
1.0
 22
0.0
 32
0.0
 13
1.0
 23
0.0
 33
0.0
 40
0.0
 40
0.0
 40
0.0
 40
0.0
 40
0.04
 40
0.04
 40
0.04
 40
0.04
 40
0.08
 40
0.08
 40
0.08
 40
0.08
 40
0.12
 40
0.12
 40
0.12
 40
0.12
 40
0.16
 40
0.16
 40
0.16
 40
0.16
 40
0.2
 40
0.2
 40
0.2
 40
0.2
 40
0.24
 40
0.24
 40
0.24
 40
0.24
 40
0.28
 40
0.28
 40
0.28
 40
0.28
 40
0.32
 40
0.32
 40
0.32
 40
0.32
 40
0.36
 40
0.36
 40
0.36
 40
0.36
 40
0.4
 40
0.4
 40
0.4
 40
0.4
 40
0.44
 40
0.44
 40
0.44
 40
0.44
 40
0.48
 40
0.48
 40
0.48
 40
0.48
 40
0.52
 40
0.52
 40
0.52
 40
0.52
 40
0.56
 40
0.56
 40
0.56
 40
0.56
 40
0.6
 40
0.6
 40
0.6
 40
0.6
 40
0.64
 40
0.64
 40
0.64
 40
0.64
 40
0.68
 40
0.68
 40
0.68
 40
0.68
 40
0.72
 40
0.72
 40
0.72
 40
0.72
 40
0.76
 40
0.76
 40
0.76
 40
0.76
 40
0.8
 40
0.8
 40
0.8
 40
0.8
 40
0.84
 40
0.84
 40
0.84
 40
0.84
 40
0.88
 40
0.88
 40
0.88
 40
0.88
 40
0.92
 40
0.92
 40
0.92
 40
0.92
 40
1.0
 40
1.0
 40
1.0
 40
1.0
 10
11.0112
 20
76.6686
 30
0.0
 10
14.2067
 20
75.9818
 30
0.0
 10
26.1653
 20
70.1107
 30
0.0
 10
25.8794
 20
54.255
 30
0.0
 10
25.8794
 20
54.255
 30
0.0
 10
32.6175
 20
60.1645
 30
0.0
 10
37.8808
 20
47.8731
 30
0.0
 10
31.5353
 20
46.3089
 30
0.0
 10
31.5353
 20
46.3089
 30
0.0
 10
33.9418
 20
52.0998
 30
0.0
 10
27.3545
 20
53.7561
 30
0.0
 10
25.1489
 20
48.6704
 30
0.0
 10
25.1489
 20
48.6704
 30
0.0
 10
22.3589
 20
43.6413
 30
0.0
 10
19.1614
 20
40.9587
 30
0.0
 10
15.1293
 20
37.4833
 30
0.0
 10
15.1293
 20
37.4833
 30
0.0
 10
19.4937
 20
37.7468
 30
0.0
 10
24.4423
 20
38.2404
 30
0.0
 10
26.5122
 20
43.0149
 30
0.0
 10
26.5122
 20
43.0149
 30
0.0
 10
27.9167
 20
46.4683
 30
0.0
 10
31.7611
 20
45.655
 30
0.0
 10
30.9663
 20
42.6121
 30
0.0
 10
30.9663
 20
42.6121
 30
0.0
 10
34.4216
 20
45.2468
 30
0.0
 10
37.0924
 20
47.0346
 30
0.0
 10
35.5051
 20
42.9785
 30
0.0
 10
35.5051
 20
42.9785
 30
0.0
 10
36.4251
 20
43.5132
 30
0.0
 10
36.9931
 20
43.817
 30
0.0
 10
37.9533
 20
44.0332
 30
0.0
 10
37.9533
 20
44.0332
 30
0.0
 10
38.0654
 20
45.6786
 30
0.0
 10
38.1919
 20
47.5342
 30
0.0
 10
38.6055
 20
48.9729
 30
0.0
 10
38.6055
 20
48.9729
 30
0.0
 10
33.2583
 20
49.409
 30
0.0
 10
35.393
 20
57.4395
 30
0.0
 10
40.7608
 20
60.1952
 30
0.0
 10
40.7608
 20
60.1952
 30
0.0
 10
41.4025
 20
60.3693
 30
0.0
 10
42.9016
 20
60.6427
 30
0.0
 10
43.7216
 20
61.3512
 30
0.0
 10
43.7216
 20
61.3512
 30
0.0
 10
44.4572
 20
61.9869
 30
0.0
 10
44.2176
 20
63.6588
 30
0.0
 10
43.8944
 20
64.3574
 30
0.0
 10
43.8944
 20
64.3574
 30
0.0
 10
42.3145
 20
62.5082
 30
0.0
 10
39.7338
 20
62.5101
 30
0.0
 10
39.0058
 20
63.8185
 30
0.0
 10
39.0058
 20
63.8185
 30
0.0
 10
48.3092
 20
73.7177
 30
0.0
 10
36.1689
 20
75.915
 30
0.0
 10
37.7776
 20
68.0893
 30
0.0
 10
37.7776
 20
68.0893
 30
0.0
 10
39.086
 20
61.7237
 30
0.0
 10
31.5139
 20
60.5629
 30
0.0
 10
31.6867
 20
61.1998
 30
0.0
 10
31.6867
 20
61.1998
 30
0.0
 10
33.2618
 20
67.0032
 30
0.0
 10
32.5239
 20
68.6445
 30
0.0
 10
30.7281
 20
69.7123
 30
0.0
 10
30.7281
 20
69.7123
 30
0.0
 10
25.1243
 20
72.1263
 30
0.0
 10
32.1016
 20
85.521
 30
0.0
 10
36.106
 20
78.6615
 30
0.0
 10
36.106
 20
78.6615
 30
0.0
 10
44.3537
 20
80.4752
 30
0.0
 10
40.3857
 20
89.4398
 30
0.0
 10
35.1164
 20
94.4705
 30
0.0
 10
35.1164
 20
94.4705
 30
0.0
 10
32.9209
 20
93.3164
 30
0.0
 10
23.6725
 20
86.6217
 30
0.0
 10
22.4688
 20
84.0296
 30
0.0
 10
22.4688
 20
84.0296
 30
0.0
 10
26.8722
 20
87.0919
 30
0.0
 10
33.6317
 20
87.1843
 30
0.0
 10
34.7203
 20
82.4164
 30
0.0
 10
34.7203
 20
82.4164
 30
0.0
 10
29.1766
 20
83.7893
 30
0.0
 10
25.6625
 20
82.526
 30
0.0
 10
21.8955
 20
77.6068
 30
0.0
 10
21.8955
 20
77.6068
 30
0.0
 10
20.2363
 20
75.4397
 30
0.0
 10
15.5963
 20
75.4116
 30
0.0
 10
14.278
 20
80.0974
 30
0.0
 10
14.278
 20
80.0974
 30
0.0
 10
12.6236
 20
78.6861
 30
0.0
 10
12.5511
 20
78.0128
 30
0.0
 10
11.0112
 20
76.6695
 30
0.0
 10
11.0112
 20
76.6695
 30
0.0
 10
11.0112
 20
76.6695
 30
0.0
 10
11.0112
 20
76.6686
 30
0.0
 10
11.0112
 20
76.6686
 30
0.0
  0
SPLINE
  5
49
330
1F
100
AcDbEntity
  8
layer 1
 62
     7
100
AcDbSpline
210
0.0
220
0.0
230
1.0
 70
    11
 71
     3
 72
    16
 73
    12
 74
     0
 42
0.0000000001
 43
0.0000000001
 12
1.0
 22
0.0
 32
0.0
 13
1.0
 23
0.0
 33
0.0
 40
0.0
 40
0.0
 40
0.0
 40
0.0
 40
0.25
 40
0.25
 40
0.25
 40
0.25
 40
0.5
 40
0.5
 40
0.5
 40
0.5
 40
1.0
 40
1.0
 40
1.0
 40
1.0
 10
53.4837
 20
-103.6603
 30
0.0
 10
53.4837
 20
-104.4541
 30
0.0
 10
53.4837
 20
-108.3071
 30
0.0
 10
53.4837
 20
-108.3071
 30
0.0
 10
53.4837
 20
-108.3071
 30
0.0
 10
53.4837
 20
-108.3071
 30
0.0
 10
50.2782
 20
-108.3071
 30
0.0
 10
48.2013
 20
-108.3071
 30
0.0
 10
48.2013
 20
-108.3071
 30
0.0
 10
51.2838
 20
-106.4863
 30
0.0
 10
50.6401
 20
-103.897
 30
0.0
 10
53.4837
 20
-103.6603
 30
0.0
  0
SPLINE
  5
4A
330
1F
100
AcDbEntity
  8
layer 1
 62
     7
100
AcDbSpline
210
0.0
220
0.0
230
1.0
 70
    11
 71
     3
 72
    64
 73
    60
 74
     0
 42
0.0000000001
 43
0.0000000001
 12
1.0
 22
0.0
 32
0.0
 13
1.0
 23
0.0
 33
0.0
 40
0.0
 40
0.0
 40
0.0
 40
0.0
 40
0.0625
 40
0.0625
 40
0.0625
 40
0.0625
 40
0.125
 40
0.125
 40
0.125
 40
0.125
 40
0.1875
 40
0.1875
 40
0.1875
 40
0.1875
 40
0.25
 40
0.25
 40
0.25
 40
0.25
 40
0.3125
 40
0.3125
 40
0.3125
 40
0.3125
 40
0.375
 40
0.375
 40
0.375
 40
0.375
 40
0.4375
 40
0.4375
 40
0.4375
 40
0.4375
 40
0.5
 40
0.5
 40
0.5
 40
0.5
 40
0.5625
 40
0.5625
 40
0.5625
 40
0.5625
 40
0.625
 40
0.625
 40
0.625
 40
0.625
 40
0.6875
 40
0.6875
 40
0.6875
 40
0.6875
 40
0.75
 40
0.75
 40
0.75
 40
0.75
 40
0.8125
 40
0.8125
 40
0.8125
 40
0.8125
 40
0.875
 40
0.875
 40
0.875
 40
0.875
 40
1.0
 40
1.0
 40
1.0
 40
1.0
 10
27.8762
 20
-106.7329
 30
0.0
 10
21.4281
 20
-104.312
 30
0.0
 10
24.0602
 20
-103.0876
 30
0.0
 10
11.4341
 20
-98.674
 30
0.0
 10
11.4341
 20
-98.674
 30
0.0
 10
11.8816
 20
-98.3044
 30
0.0
 10
13.7413
 20
-96.0074
 30
0.0
 10
15.862
 20
-96.3524
 30
0.0
 10
15.862
 20
-96.3524
 30
0.0
 10
17.9658
 20
-100.2989
 30
0.0
 10
23.5753
 20
-99.1704
 30
0.0
 10
21.9328
 20
-93.6008
 30
0.0
 10
21.9328
 20
-93.6008
 30
0.0
 10
25.3431
 20
-91.3587
 30
0.0
 10
35.263
 20
-84.0584
 30
0.0
 10
36.0987
 20
-84.5494
 30
0.0
 10
36.0987
 20
-84.5494
 30
0.0
 10
37.9344
 20
-84.6423
 30
0.0
 10
42.0011
 20
-85.0129
 30
0.0
 10
41.2837
 20
-89.1977
 30
0.0
 10
41.2837
 20
-89.1977
 30
0.0
 10
38.5557
 20
-86.2497
 30
0.0
 10
35.9182
 20
-90.7687
 30
0.0
 10
39.9005
 20
-93.1277
 30
0.0
 10
39.9005
 20
-93.1277
 30
0.0
 10
42.4004
 20
-93.8263
 30
0.0
 10
44.2218
 20
-96.0834
 30
0.0
 10
44.2218
 20
-98.7663
 30
0.0
 10
44.2218
 20
-98.7663
 30
0.0
 10
44.2218
 20
-101.9696
 30
0.0
 10
41.6251
 20
-104.5662
 30
0.0
 10
38.4219
 20
-104.5662
 30
0.0
 10
38.4219
 20
-104.5662
 30
0.0
 10
35.2186
 20
-104.5662
 30
0.0
 10
32.622
 20
-101.9696
 30
0.0
 10
32.622
 20
-98.7663
 30
0.0
 10
32.622
 20
-98.7663
 30
0.0
 10
32.622
 20
-96.3469
 30
0.0
 10
34.1032
 20
-94.2738
 30
0.0
 10
36.2536
 20
-93.3401
 30
0.0
 10
36.2536
 20
-93.3401
 30
0.0
 10
35.1927
 20
-89.429
 30
0.0
 10
28.7546
 20
-91.9682
 30
0.0
 10
27.8605
 20
-96.9778
 30
0.0
 10
27.8605
 20
-96.9778
 30
0.0
 10
27.0808
 20
-101.9648
 30
0.0
 10
30.0556
 20
-106.8476
 30
0.0
 10
33.6901
 20
-108.3074
 30
0.0
 10
33.6901
 20
-108.3074
 30
0.0
 10
30.8539
 20
-108.3074
 30
0.0
 10
29.5928
 20
-108.3074
 30
0.0
 10
28.8613
 20
-108.3074
 30
0.0
 10
28.8613
 20
-108.3074
 30
0.0
 10
29.0082
 20
-107.1926
 30
0.0
 10
28.0186
 20
-106.7866
 30
0.0
 10
27.8768
 20
-106.7332
 30
0.0
 10
27.8768
 20
-106.7332
 30
0.0
 10
27.8768
 20
-106.7332
 30
0.0
 10
27.8762
 20
-106.7329
 30
0.0
 10
27.8762
 20
-106.7329
 30
0.0
  0
SPLINE
  5
4B
330
1F
100
AcDbEntity
  8
layer 1
 62
     7
100
AcDbSpline
210
0.0
220
0.0
230
1.0
 70
    11
 71
     3
 72
    16
 73
    12
 74
     0
 42
0.0000000001
 43
0.0000000001
 12
1.0
 22
0.0
 32
0.0
 13
1.0
 23
0.0
 33
0.0
 40
0.0
 40
0.0
 40
0.0
 40
0.0
 40
0.25
 40
0.25
 40
0.25
 40
0.25
 40
0.5
 40
0.5
 40
0.5
 40
0.5
 40
1.0
 40
1.0
 40
1.0
 40
1.0
 10
11.9522
 20
-104.2347
 30
0.0
 10
13.3171
 20
-105.9609
 30
0.0
 10
21.6757
 20
-105.4236
 30
0.0
 10
22.4762
 20
-108.3071
 30
0.0
 10
22.4762
 20
-108.3071
 30
0.0
 10
20.3382
 20
-108.3071
 30
0.0
 10
13.9461
 20
-108.3071
 30
0.0
 10
12.7824
 20
-108.2611
 30
0.0
 10
12.7824
 20
-108.2611
 30
0.0
 10
12.8607
 20
-106.968
 30
0.0
 10
12.6316
 20
-105.7686
 30
0.0
 10
11.9522
 20
-104.2347
 30
0.0
  0
SPLINE
  5
4C
330
1F
100
AcDbEntity
  8
layer 1
 62
     7
100
AcDbSpline
210
0.0
220
0.0
230
1.0
 70
    11
 71
     3
 72
    16
 73
    12
 74
     0
 42
0.0000000001
 43
0.0000000001
 12
1.0
 22
0.0
 32
0.0
 13
1.0
 23
0.0
 33
0.0
 40
0.0
 40
0.0
 40
0.0
 40
0.0
 40
0.25
 40
0.25
 40
0.25
 40
0.25
 40
0.5
 40
0.5
 40
0.5
 40
0.5
 40
1.0
 40
1.0
 40
1.0
 40
1.0
 10
1.3944
 20
-103.5402
 30
0.0
 10
4.0271
 20
-103.5402
 30
0.0
 10
6.1612
 20
-105.6743
 30
0.0
 10
6.1612
 20
-108.3071
 30
0.0
 10
6.1612
 20
-108.3071
 30
0.0
 10
6.1612
 20
-108.3071
 30
0.0
 10
-3.3856
 20
-108.3071
 30
0.0
 10
-3.3856
 20
-108.3071
 30
0.0
 10
-3.3856
 20
-108.3071
 30
0.0
 10
-3.3722
 20
-105.6743
 30
0.0
 10
-1.2381
 20
-103.5402
 30
0.0
 10
1.3944
 20
-103.5402
 30
0.0
  0
SPLINE
  5
4D
330
1F
100
AcDbEntity
  8
layer 1
 62
     7
100
AcDbSpline
210
0.0
220
0.0
230
1.0
 70
    11
 71
     3
 72
    16
 73
    12
 74
     0
 42
0.0000000001
 43
0.0000000001
 12
1.0
 22
0.0
 32
0.0
 13
1.0
 23
0.0
 33
0.0
 40
0.0
 40
0.0
 40
0.0
 40
0.0
 40
0.25
 40
0.25
 40
0.25
 40
0.25
 40
0.5
 40
0.5
 40
0.5
 40
0.5
 40
1.0
 40
1.0
 40
1.0
 40
1.0
 10
-50.856
 20
-103.6603
 30
0.0
 10
-50.856
 20
-104.4541
 30
0.0
 10
-50.856
 20
-108.3071
 30
0.0
 10
-50.856
 20
-108.3071
 30
0.0
 10
-50.856
 20
-108.3071
 30
0.0
 10
-50.856
 20
-108.3071
 30
0.0
 10
-47.6505
 20
-108.3071
 30
0.0
 10
-45.5736
 20
-108.3071
 30
0.0
 10
-45.5736
 20
-108.3071
 30
0.0
 10
-48.6561
 20
-106.4863
 30
0.0
 10
-48.0124
 20
-103.897
 30
0.0
 10
-50.856
 20
-103.6603
 30
0.0
  0
SPLINE
  5
4E
330
1F
100
AcDbEntity
  8
layer 1
 62
     7
100
AcDbSpline
210
0.0
220
0.0
230
1.0
 70
    11
 71
     3
 72
    64
 73
    60
 74
     0
 42
0.0000000001
 43
0.0000000001
 12
1.0
 22
0.0
 32
0.0
 13
1.0
 23
0.0
 33
0.0
 40
0.0
 40
0.0
 40
0.0
 40
0.0
 40
0.0625
 40
0.0625
 40
0.0625
 40
0.0625
 40
0.125
 40
0.125
 40
0.125
 40
0.125
 40
0.1875
 40
0.1875
 40
0.1875
 40
0.1875
 40
0.25
 40
0.25
 40
0.25
 40
0.25
 40
0.3125
 40
0.3125
 40
0.3125
 40
0.3125
 40
0.375
 40
0.375
 40
0.375
 40
0.375
 40
0.4375
 40
0.4375
 40
0.4375
 40
0.4375
 40
0.5
 40
0.5
 40
0.5
 40
0.5
 40
0.5625
 40
0.5625
 40
0.5625
 40
0.5625
 40
0.625
 40
0.625
 40
0.625
 40
0.625
 40
0.6875
 40
0.6875
 40
0.6875
 40
0.6875
 40
0.75
 40
0.75
 40
0.75
 40
0.75
 40
0.8125
 40
0.8125
 40
0.8125
 40
0.8125
 40
0.875
 40
0.875
 40
0.875
 40
0.875
 40
1.0
 40
1.0
 40
1.0
 40
1.0
 10
-25.2485
 20
-106.7329
 30
0.0
 10
-18.8004
 20
-104.312
 30
0.0
 10
-21.4325
 20
-103.0876
 30
0.0
 10
-8.8064
 20
-98.674
 30
0.0
 10
-8.8064
 20
-98.674
 30
0.0
 10
-9.2539
 20
-98.3044
 30
0.0
 10
-11.1136
 20
-96.0074
 30
0.0
 10
-13.2343
 20
-96.3524
 30
0.0
 10
-13.2343
 20
-96.3524
 30
0.0
 10
-15.3381
 20
-100.2989
 30
0.0
 10
-20.9476
 20
-99.1704
 30
0.0
 10
-19.3051
 20
-93.6008
 30
0.0
 10
-19.3051
 20
-93.6008
 30
0.0
 10
-22.7154
 20
-91.3587
 30
0.0
 10
-32.6353
 20
-84.0584
 30
0.0
 10
-33.4709
 20
-84.5494
 30
0.0
 10
-33.4709
 20
-84.5494
 30
0.0
 10
-35.3067
 20
-84.6423
 30
0.0
 10
-39.3734
 20
-85.0129
 30
0.0
 10
-38.656
 20
-89.1977
 30
0.0
 10
-38.656
 20
-89.1977
 30
0.0
 10
-35.928
 20
-86.2497
 30
0.0
 10
-33.2905
 20
-90.7687
 30
0.0
 10
-37.2728
 20
-93.1277
 30
0.0
 10
-37.2728
 20
-93.1277
 30
0.0
 10
-39.7727
 20
-93.8263
 30
0.0
 10
-41.5941
 20
-96.0834
 30
0.0
 10
-41.5941
 20
-98.7663
 30
0.0
 10
-41.5941
 20
-98.7663
 30
0.0
 10
-41.5941
 20
-101.9696
 30
0.0
 10
-38.9974
 20
-104.5662
 30
0.0
 10
-35.7942
 20
-104.5662
 30
0.0
 10
-35.7942
 20
-104.5662
 30
0.0
 10
-32.5909
 20
-104.5662
 30
0.0
 10
-29.9943
 20
-101.9696
 30
0.0
 10
-29.9943
 20
-98.7663
 30
0.0
 10
-29.9943
 20
-98.7663
 30
0.0
 10
-29.9943
 20
-96.3469
 30
0.0
 10
-31.4755
 20
-94.2738
 30
0.0
 10
-33.6259
 20
-93.3401
 30
0.0
 10
-33.6259
 20
-93.3401
 30
0.0
 10
-32.565
 20
-89.429
 30
0.0
 10
-26.1269
 20
-91.9682
 30
0.0
 10
-25.2328
 20
-96.9778
 30
0.0
 10
-25.2328
 20
-96.9778
 30
0.0
 10
-24.4531
 20
-101.9648
 30
0.0
 10
-27.4279
 20
-106.8476
 30
0.0
 10
-31.0624
 20
-108.3074
 30
0.0
 10
-31.0624
 20
-108.3074
 30
0.0
 10
-28.2262
 20
-108.3074
 30
0.0
 10
-26.9651
 20
-108.3074
 30
0.0
 10
-26.2336
 20
-108.3074
 30
0.0
 10
-26.2336
 20
-108.3074
 30
0.0
 10
-26.3805
 20
-107.1926
 30
0.0
 10
-25.3909
 20
-106.7866
 30
0.0
 10
-25.2491
 20
-106.7332
 30
0.0
 10
-25.2491
 20
-106.7332
 30
0.0
 10
-25.2491
 20
-106.7332
 30
0.0
 10
-25.2485
 20
-106.7329
 30
0.0
 10
-25.2485
 20
-106.7329
 30
0.0
  0
SPLINE
  5
4F
330
1F
100
AcDbEntity
  8
layer 1
 62
     7
100
AcDbSpline
210
0.0
220
0.0
230
1.0
 70
    11
 71
     3
 72
    16
 73
    12
 74
     0
 42
0.0000000001
 43
0.0000000001
 12
1.0
 22
0.0
 32
0.0
 13
1.0
 23
0.0
 33
0.0
 40
0.0
 40
0.0
 40
0.0
 40
0.0
 40
0.25
 40
0.25
 40
0.25
 40
0.25
 40
0.5
 40
0.5
 40
0.5
 40
0.5
 40
1.0
 40
1.0
 40
1.0
 40
1.0
 10
-9.3245
 20
-104.2347
 30
0.0
 10
-10.6894
 20
-105.9609
 30
0.0
 10
-19.048
 20
-105.4236
 30
0.0
 10
-19.8485
 20
-108.3071
 30
0.0
 10
-19.8485
 20
-108.3071
 30
0.0
 10
-17.7105
 20
-108.3071
 30
0.0
 10
-11.3184
 20
-108.3071
 30
0.0
 10
-10.1547
 20
-108.2611
 30
0.0
 10
-10.1547
 20
-108.2611
 30
0.0
 10
-10.2329
 20
-106.968
 30
0.0
 10
-10.0039
 20
-105.7686
 30
0.0
 10
-9.3245
 20
-104.2347
 30
0.0
  0
SPLINE
  5
50
330
1F
100
AcDbEntity
  8
layer 1
 62
     7
100
AcDbSpline
210
0.0
220
0.0
230
1.0
 70
    11
 71
     3
 72
    16
 73
    12
 74
     0
 42
0.0000000001
 43
0.0000000001
 12
1.0
 22
0.0
 32
0.0
 13
1.0
 23
0.0
 33
0.0
 40
0.0
 40
0.0
 40
0.0
 40
0.0
 40
0.25
 40
0.25
 40
0.25
 40
0.25
 40
0.5
 40
0.5
 40
0.5
 40
0.5
 40
1.0
 40
1.0
 40
1.0
 40
1.0
 10
53.4837
 20
118.1311
 30
0.0
 10
53.4837
 20
118.9249
 30
0.0
 10
53.4837
 20
122.7779
 30
0.0
 10
53.4837
 20
122.7779
 30
0.0
 10
53.4837
 20
122.7779
 30
0.0
 10
53.4837
 20
122.7779
 30
0.0
 10
50.2782
 20
122.7779
 30
0.0
 10
48.2013
 20
122.7779
 30
0.0
 10
48.2013
 20
122.7779
 30
0.0
 10
51.2838
 20
120.9571
 30
0.0
 10
50.6401
 20
118.3678
 30
0.0
 10
53.4837
 20
118.1311
 30
0.0
  0
SPLINE
  5
51
330
1F
100
AcDbEntity
  8
layer 1
 62
     7
100
AcDbSpline
210
0.0
220
0.0
230
1.0
 70
    11
 71
     3
 72
    64
 73
    60
 74
     0
 42
0.0000000001
 43
0.0000000001
 12
1.0
 22
0.0
 32
0.0
 13
1.0
 23
0.0
 33
0.0
 40
0.0
 40
0.0
 40
0.0
 40
0.0
 40
0.0625
 40
0.0625
 40
0.0625
 40
0.0625
 40
0.125
 40
0.125
 40
0.125
 40
0.125
 40
0.1875
 40
0.1875
 40
0.1875
 40
0.1875
 40
0.25
 40
0.25
 40
0.25
 40
0.25
 40
0.3125
 40
0.3125
 40
0.3125
 40
0.3125
 40
0.375
 40
0.375
 40
0.375
 40
0.375
 40
0.4375
 40
0.4375
 40
0.4375
 40
0.4375
 40
0.5
 40
0.5
 40
0.5
 40
0.5
 40
0.5625
 40
0.5625
 40
0.5625
 40
0.5625
 40
0.625
 40
0.625
 40
0.625
 40
0.625
 40
0.6875
 40
0.6875
 40
0.6875
 40
0.6875
 40
0.75
 40
0.75
 40
0.75
 40
0.75
 40
0.8125
 40
0.8125
 40
0.8125
 40
0.8125
 40
0.875
 40
0.875
 40
0.875
 40
0.875
 40
1.0
 40
1.0
 40
1.0
 40
1.0
 10
27.8762
 20
121.2037
 30
0.0
 10
21.4281
 20
118.7827
 30
0.0
 10
24.0602
 20
117.5584
 30
0.0
 10
11.4341
 20
113.1448
 30
0.0
 10
11.4341
 20
113.1448
 30
0.0
 10
11.8816
 20
112.7752
 30
0.0
 10
13.7413
 20
110.4782
 30
0.0
 10
15.862
 20
110.8231
 30
0.0
 10
15.862
 20
110.8231
 30
0.0
 10
17.9658
 20
114.7697
 30
0.0
 10
23.5753
 20
113.6412
 30
0.0
 10
21.9328
 20
108.0716
 30
0.0
 10
21.9328
 20
108.0716
 30
0.0
 10
25.3431
 20
105.8295
 30
0.0
 10
35.263
 20
98.5292
 30
0.0
 10
36.0987
 20
99.0202
 30
0.0
 10
36.0987
 20
99.0202
 30
0.0
 10
37.9344
 20
99.1131
 30
0.0
 10
42.0011
 20
99.4836
 30
0.0
 10
41.2837
 20
103.6685
 30
0.0
 10
41.2837
 20
103.6685
 30
0.0
 10
38.5557
 20
100.7205
 30
0.0
 10
35.9182
 20
105.2395
 30
0.0
 10
39.9005
 20
107.5985
 30
0.0
 10
39.9005
 20
107.5985
 30
0.0
 10
42.4004
 20
108.2971
 30
0.0
 10
44.2218
 20
110.5542
 30
0.0
 10
44.2218
 20
113.2371
 30
0.0
 10
44.2218
 20
113.2371
 30
0.0
 10
44.2218
 20
116.4403
 30
0.0
 10
41.6251
 20
119.037
 30
0.0
 10
38.4219
 20
119.037
 30
0.0
 10
38.4219
 20
119.037
 30
0.0
 10
35.2186
 20
119.037
 30
0.0
 10
32.622
 20
116.4403
 30
0.0
 10
32.622
 20
113.2371
 30
0.0
 10
32.622
 20
113.2371
 30
0.0
 10
32.622
 20
110.8177
 30
0.0
 10
34.1032
 20
108.7446
 30
0.0
 10
36.2536
 20
107.8109
 30
0.0
 10
36.2536
 20
107.8109
 30
0.0
 10
35.1927
 20
103.8998
 30
0.0
 10
28.7546
 20
106.4389
 30
0.0
 10
27.8605
 20
111.4486
 30
0.0
 10
27.8605
 20
111.4486
 30
0.0
 10
27.0808
 20
116.4356
 30
0.0
 10
30.0556
 20
121.3184
 30
0.0
 10
33.6901
 20
122.7782
 30
0.0
 10
33.6901
 20
122.7782
 30
0.0
 10
30.8539
 20
122.7782
 30
0.0
 10
29.5928
 20
122.7782
 30
0.0
 10
28.8613
 20
122.7782
 30
0.0
 10
28.8613
 20
122.7782
 30
0.0
 10
29.0082
 20
121.6634
 30
0.0
 10
28.0186
 20
121.2574
 30
0.0
 10
27.8768
 20
121.204
 30
0.0
 10
27.8768
 20
121.204
 30
0.0
 10
27.8768
 20
121.204
 30
0.0
 10
27.8762
 20
121.2037
 30
0.0
 10
27.8762
 20
121.2037
 30
0.0
  0
SPLINE
  5
52
330
1F
100
AcDbEntity
  8
layer 1
 62
     7
100
AcDbSpline
210
0.0
220
0.0
230
1.0
 70
    11
 71
     3
 72
    16
 73
    12
 74
     0
 42
0.0000000001
 43
0.0000000001
 12
1.0
 22
0.0
 32
0.0
 13
1.0
 23
0.0
 33
0.0
 40
0.0
 40
0.0
 40
0.0
 40
0.0
 40
0.25
 40
0.25
 40
0.25
 40
0.25
 40
0.5
 40
0.5
 40
0.5
 40
0.5
 40
1.0
 40
1.0
 40
1.0
 40
1.0
 10
11.9522
 20
118.7054
 30
0.0
 10
13.3171
 20
120.4316
 30
0.0
 10
21.6757
 20
119.8944
 30
0.0
 10
22.4762
 20
122.7779
 30
0.0
 10
22.4762
 20
122.7779
 30
0.0
 10
20.3382
 20
122.7779
 30
0.0
 10
13.9461
 20
122.7779
 30
0.0
 10
12.7824
 20
122.7319
 30
0.0
 10
12.7824
 20
122.7319
 30
0.0
 10
12.8607
 20
121.4388
 30
0.0
 10
12.6316
 20
120.2393
 30
0.0
 10
11.9522
 20
118.7054
 30
0.0
  0
SPLINE
  5
53
330
1F
100
AcDbEntity
  8
layer 1
 62
     7
100
AcDbSpline
210
0.0
220
0.0
230
1.0
 70
    11
 71
     3
 72
    16
 73
    12
 74
     0
 42
0.0000000001
 43
0.0000000001
 12
1.0
 22
0.0
 32
0.0
 13
1.0
 23
0.0
 33
0.0
 40
0.0
 40
0.0
 40
0.0
 40
0.0
 40
0.25
 40
0.25
 40
0.25
 40
0.25
 40
0.5
 40
0.5
 40
0.5
 40
0.5
 40
1.0
 40
1.0
 40
1.0
 40
1.0
 10
1.3944
 20
118.011
 30
0.0
 10
4.0271
 20
118.011
 30
0.0
 10
6.1612
 20
120.1451
 30
0.0
 10
6.1612
 20
122.7779
 30
0.0
 10
6.1612
 20
122.7779
 30
0.0
 10
6.1612
 20
122.7779
 30
0.0
 10
-3.3856
 20
122.7779
 30
0.0
 10
-3.3856
 20
122.7779
 30
0.0
 10
-3.3856
 20
122.7779
 30
0.0
 10
-3.3722
 20
120.1451
 30
0.0
 10
-1.2381
 20
118.011
 30
0.0
 10
1.3944
 20
118.011
 30
0.0
  0
SPLINE
  5
54
330
1F
100
AcDbEntity
  8
layer 1
 62
     7
100
AcDbSpline
210
0.0
220
0.0
230
1.0
 70
    11
 71
     3
 72
    44
 73
    40
 74
     0
 42
0.0000000001
 43
0.0000000001
 12
1.0
 22
0.0
 32
0.0
 13
1.0
 23
0.0
 33
0.0
 40
0.0
 40
0.0
 40
0.0
 40
0.0
 40
0.0909090909090909
 40
0.0909090909090909
 40
0.0909090909090909
 40
0.0909090909090909
 40
0.1818181818181818
 40
0.1818181818181818
 40
0.1818181818181818
 40
0.1818181818181818
 40
0.2727272727272727
 40
0.2727272727272727
 40
0.2727272727272727
 40
0.2727272727272727
 40
0.3636363636363636
 40
0.3636363636363636
 40
0.3636363636363636
 40
0.3636363636363636
 40
0.4545454545454545
 40
0.4545454545454545
 40
0.4545454545454545
 40
0.4545454545454545
 40
0.5454545454545454
 40
0.5454545454545454
 40
0.5454545454545454
 40
0.5454545454545454
 40
0.6363636363636364
 40
0.6363636363636364
 40
0.6363636363636364
 40
0.6363636363636364
 40
0.7272727272727273
 40
0.7272727272727273
 40
0.7272727272727273
 40
0.7272727272727273
 40
0.8181818181818182
 40
0.8181818181818182
 40
0.8181818181818182
 40
0.8181818181818182
 40
1.0
 40
1.0
 40
1.0
 40
1.0
 10
-50.856
 20
65.1812
 30
0.0
 10
-47.6735
 20
57.3136
 30
0.0
 10
-43.8933
 20
56.8038
 30
0.0
 10
-40.0998
 20
48.9362
 30
0.0
 10
-40.0998
 20
48.9362
 30
0.0
 10
-39.635
 20
46.926
 30
0.0
 10
-38.1988
 20
40.3809
 30
0.0
 10
-41.8199
 20
39.7589
 30
0.0
 10
-41.8199
 20
39.7589
 30
0.0
 10
-46.5941
 20
47.3879
 30
0.0
 10
-52.4889
 20
37.4034
 30
0.0
 10
-45.0417
 20
34.5848
 30
0.0
 10
-45.0417
 20
34.5848
 30
0.0
 10
-38.2305
 20
33.9319
 30
0.0
 10
-35.8852
 20
37.9823
 30
0.0
 10
-34.9295
 20
40.0493
 30
0.0
 10
-34.9295
 20
40.0493
 30
0.0
 10
-32.459
 20
37.7139
 30
0.0
 10
-30.8851
 20
35.6517
 30
0.0
 10
-29.6962
 20
33.669
 30
0.0
 10
-29.6962
 20
33.669
 30
0.0
 10
-35.2195
 20
35.9583
 30
0.0
 10
-39.926
 20
32.1708
 30
0.0
 10
-37.5581
 20
25.7758
 30
0.0
 10
-37.5581
 20
25.7758
 30
0.0
 10
-43.6391
 20
25.4759
 30
0.0
 10
-46.5315
 20
21.1061
 30
0.0
 10
-48.1731
 20
18.8023
 30
0.0
 10
-48.1731
 20
18.8023
 30
0.0
 10
-48.735
 20
16.7452
 30
0.0
 10
-49.9405
 20
17.4831
 30
0.0
 10
-50.856
 20
17.14
 30
0.0
 10
-50.856
 20
17.14
 30
0.0
 10
-50.856
 20
30.2597
 30
0.0
 10
-50.856
 20
52.0618
 30
0.0
 10
-50.856
 20
65.1815
 30
0.0
 10
-50.856
 20
65.1815
 30
0.0
 10
-50.856
 20
65.1815
 30
0.0
 10
-50.856
 20
65.1812
 30
0.0
 10
-50.856
 20
65.1812
 30
0.0
  0
SPLINE
  5
55
330
1F
100
AcDbEntity
  8
layer 1
 62
     7
100
AcDbSpline
210
0.0
220
0.0
230
1.0
 70
    11
 71
     3
 72
    28
 73
    24
 74
     0
 42
0.0000000001
 43
0.0000000001
 12
1.0
 22
0.0
 32
0.0
 13
1.0
 23
0.0
 33
0.0
 40
0.0
 40
0.0
 40
0.0
 40
0.0
 40
0.1428571428571428
 40
0.1428571428571428
 40
0.1428571428571428
 40
0.1428571428571428
 40
0.2857142857142857
 40
0.2857142857142857
 40
0.2857142857142857
 40
0.2857142857142857
 40
0.4285714285714285
 40
0.4285714285714285
 40
0.4285714285714285
 40
0.4285714285714285
 40
0.5714285714285714
 40
0.5714285714285714
 40
0.5714285714285714
 40
0.5714285714285714
 40
0.7142857142857143
 40
0.7142857142857143
 40
0.7142857142857143
 40
0.7142857142857143
 40
1.0
 40
1.0
 40
1.0
 40
1.0
 10
-50.856
 20
14.1191
 30
0.0
 10
-49.9597
 20
13.6441
 30
0.0
 10
-48.2143
 20
14.2504
 30
0.0
 10
-47.6978
 20
14.8423
 30
0.0
 10
-47.6978
 20
14.8423
 30
0.0
 10
-47.6722
 20
10.3486
 30
0.0
 10
-45.0197
 20
7.2031
 30
0.0
 10
-41.8158
 20
7.2284
 30
0.0
 10
-41.8158
 20
7.2284
 30
0.0
 10
-45.0197
 20
7.2536
 30
0.0
 10
-47.6722
 20
4.1082
 30
0.0
 10
-47.6978
 20
-0.3856
 30
0.0
 10
-47.6978
 20
-0.3856
 30
0.0
 10
-48.2143
 20
0.2063
 30
0.0
 10
-49.9597
 20
0.8126
 30
0.0
 10
-50.856
 20
0.3376
 30
0.0
 10
-50.856
 20
0.3376
 30
0.0
 10
-50.856
 20
4.9317
 30
0.0
 10
-50.856
 20
9.5254
 30
0.0
 10
-50.856
 20
14.1195
 30
0.0
 10
-50.856
 20
14.1195
 30
0.0
 10
-50.856
 20
14.1195
 30
0.0
 10
-50.856
 20
14.1191
 30
0.0
 10
-50.856
 20
14.1191
 30
0.0
  0
SPLINE
  5
56
330
1F
100
AcDbEntity
  8
layer 1
 62
     7
100
AcDbSpline
210
0.0
220
0.0
230
1.0
 70
    11
 71
     3
 72
    12
 73
     8
 74
     0
 42
0.0000000001
 43
0.0000000001
 12
1.0
 22
0.0
 32
0.0
 13
1.0
 23
0.0
 33
0.0
 40
0.0
 40
0.0
 40
0.0
 40
0.0
 40
0.3333333333333333
 40
0.3333333333333333
 40
0.3333333333333333
 40
0.3333333333333333
 40
1.0
 40
1.0
 40
1.0
 40
1.0
 10
-26.1943
 20
7.2284
 30
0.0
 10
-27.1133
 20
5.0326
 30
0.0
 10
-33.722
 20
5.2476
 30
0.0
 10
-34.6056
 20
7.2284
 30
0.0
 10
-34.6056
 20
7.2284
 30
0.0
 10
-33.722
 20
9.2092
 30
0.0
 10
-27.1133
 20
9.4241
 30
0.0
 10
-26.1943
 20
7.2284
 30
0.0
  0
SPLINE
  5
57
330
1F
100
AcDbEntity
  8
layer 1
 62
     7
100
AcDbSpline
210
0.0
220
0.0
230
1.0
 70
    11
 71
     3
 72
    28
 73
    24
 74
     0
 42
0.0000000001
 43
0.0000000001
 12
1.0
 22
0.0
 32
0.0
 13
1.0
 23
0.0
 33
0.0
 40
0.0
 40
0.0
 40
0.0
 40
0.0
 40
0.1428571428571428
 40
0.1428571428571428
 40
0.1428571428571428
 40
0.1428571428571428
 40
0.2857142857142857
 40
0.2857142857142857
 40
0.2857142857142857
 40
0.2857142857142857
 40
0.4285714285714285
 40
0.4285714285714285
 40
0.4285714285714285
 40
0.4285714285714285
 40
0.5714285714285714
 40
0.5714285714285714
 40
0.5714285714285714
 40
0.5714285714285714
 40
0.7142857142857143
 40
0.7142857142857143
 40
0.7142857142857143
 40
0.7142857142857143
 40
1.0
 40
1.0
 40
1.0
 40
1.0
 10
-36.7349
 20
22.0346
 30
0.0
 10
-35.8283
 20
22.4803
 30
0.0
 10
-30.782
 20
24.3096
 30
0.0
 10
-28.293
 20
18.9949
 30
0.0
 10
-28.293
 20
18.9949
 30
0.0
 10
-27.4573
 20
15.7875
 30
0.0
 10
-29.8096
 20
12.9385
 30
0.0
 10
-32.6149
 20
15.7048
 30
0.0
 10
-32.6149
 20
15.7048
 30
0.0
 10
-33.731
 20
17.6297
 30
0.0
 10
-35.7699
 20
17.2173
 30
0.0
 10
-36.2807
 20
15.8287
 30
0.0
 10
-36.2807
 20
15.8287
 30
0.0
 10
-36.7774
 20
14.4788
 30
0.0
 10
-35.7708
 20
12.1827
 30
0.0
 10
-35.1457
 20
11.8441
 30
0.0
 10
-35.1457
 20
11.8441
 30
0.0
 10
-35.8152
 20
9.679
 30
0.0
 10
-40.1308
 20
8.3061
 30
0.0
 10
-40.615
 20
11.4116
 30
0.0
 10
-40.615
 20
11.4116
 30
0.0
 10
-41.9084
 20
18.1721
 30
0.0
 10
-33.286
 20
15.7054
 30
0.0
 10
-36.7349
 20
22.0346
 30
0.0
  0
SPLINE
  5
58
330
1F
100
AcDbEntity
  8
layer 1
 62
     7
100
AcDbSpline
210
0.0
220
0.0
230
1.0
 70
    11
 71
     3
 72
    24
 73
    20
 74
     0
 42
0.0000000001
 43
0.0000000001
 12
1.0
 22
0.0
 32
0.0
 13
1.0
 23
0.0
 33
0.0
 40
0.0
 40
0.0
 40
0.0
 40
0.0
 40
0.1666666666666667
 40
0.1666666666666667
 40
0.1666666666666667
 40
0.1666666666666667
 40
0.3333333333333333
 40
0.3333333333333333
 40
0.3333333333333333
 40
0.3333333333333333
 40
0.5
 40
0.5
 40
0.5
 40
0.5
 40
0.6666666666666666
 40
0.6666666666666666
 40
0.6666666666666666
 40
0.6666666666666666
 40
1.0
 40
1.0
 40
1.0
 40
1.0
 10
-32.7315
 20
27.1162
 30
0.0
 10
-28.4837
 20
32.1964
 30
0.0
 10
-21.9286
 20
30.6845
 30
0.0
 10
-14.6973
 20
25.6931
 30
0.0
 10
-14.6973
 20
25.6931
 30
0.0
 10
-16.3405
 20
24.5336
 30
0.0
 10
-15.9984
 20
20.4988
 30
0.0
 10
-12.768
 20
20.7863
 30
0.0
 10
-12.768
 20
20.7863
 30
0.0
 10
-15.9319
 20
16.352
 30
0.0
 10
-18.8314
 20
12.6478
 30
0.0
 10
-21.176
 20
9.4855
 30
0.0
 10
-21.176
 20
9.4855
 30
0.0
 10
-22.5349
 20
10.7223
 30
0.0
 10
-23.7919
 20
11.1206
 30
0.0
 10
-26.1844
 20
11.8598
 30
0.0
 10
-26.1844
 20
11.8598
 30
0.0
 10
-18.2692
 20
18.3788
 30
0.0
 10
-24.4029
 20
27.6042
 30
0.0
 10
-32.7315
 20
27.1162
 30
0.0
  0
SPLINE
  5
59
330
1F
100
AcDbEntity
  8
layer 1
 62
     7
100
AcDbSpline
210
0.0
220
0.0
230
1.0
 70
    11
 71
     3
 72
    40
 73
    36
 74
     0
 42
0.0000000001
 43
0.0000000001
 12
1.0
 22
0.0
 32
0.0
 13
1.0
 23
0.0
 33
0.0
 40
0.0
 40
0.0
 40
0.0
 40
0.0
 40
0.1
 40
0.1
 40
0.1
 40
0.1
 40
0.2
 40
0.2
 40
0.2
 40
0.2
 40
0.3
 40
0.3
 40
0.3
 40
0.3
 40
0.4
 40
0.4
 40
0.4
 40
0.4
 40
0.5
 40
0.5
 40
0.5
 40
0.5
 40
0.6
 40
0.6
 40
0.6
 40
0.6
 40
0.7
 40
0.7
 40
0.7
 40
0.7
 40
0.8
 40
0.8
 40
0.8
 40
0.8
 40
1.0
 40
1.0
 40
1.0
 40
1.0
 10
-1.9769
 20
12.5063
 30
0.0
 10
-2.8963
 20
10.9871
 30
0.0
 10
-5.6063
 20
11.8774
 30
0.0
 10
-4.2324
 20
14.2782
 30
0.0
 10
-4.2324
 20
14.2782
 30
0.0
 10
-6.6684
 20
17.0835
 30
0.0
 10
-8.1138
 20
18.5666
 30
0.0
 10
-9.2577
 20
19.8002
 30
0.0
 10
-9.2577
 20
19.8002
 30
0.0
 10
-12.4217
 20
15.3659
 30
0.0
 10
-15.3212
 20
11.6618
 30
0.0
 10
-17.6658
 20
8.4994
 30
0.0
 10
-17.6658
 20
8.4994
 30
0.0
 10
-15.0369
 20
8.2272
 30
0.0
 10
-13.9224
 20
10.7814
 30
0.0
 10
-11.8962
 20
10.3348
 30
0.0
 10
-11.8962
 20
10.3348
 30
0.0
 10
-12.6399
 20
11.5356
 30
0.0
 10
-12.6124
 20
14.9685
 30
0.0
 10
-9.7273
 20
15.6134
 30
0.0
 10
-9.7273
 20
15.6134
 30
0.0
 10
-10.423
 20
13.4736
 30
0.0
 10
-9.8314
 20
10.4977
 30
0.0
 10
-8.4984
 20
9.3657
 30
0.0
 10
-8.4984
 20
9.3657
 30
0.0
 10
-5.107
 20
10.598
 30
0.0
 10
-3.0786
 20
10.3946
 30
0.0
 10
0.2128
 20
10.5913
 30
0.0
 10
0.2128
 20
10.5913
 30
0.0
 10
-0.674
 20
11.5126
 30
0.0
 10
-1.1873
 20
11.8049
 30
0.0
 10
-1.9769
 20
12.5057
 30
0.0
 10
-1.9769
 20
12.5057
 30
0.0
 10
-1.9769
 20
12.5057
 30
0.0
 10
-1.9769
 20
12.5063
 30
0.0
 10
-1.9769
 20
12.5063
 30
0.0
  0
SPLINE
  5
5A
330
1F
100
AcDbEntity
  8
layer 1
 62
     7
100
AcDbSpline
210
0.0
220
0.0
230
1.0
 70
    11
 71
     3
 72
    16
 73
    12
 74
     0
 42
0.0000000001
 43
0.0000000001
 12
1.0
 22
0.0
 32
0.0
 13
1.0
 23
0.0
 33
0.0
 40
0.0
 40
0.0
 40
0.0
 40
0.0
 40
0.25
 40
0.25
 40
0.25
 40
0.25
 40
0.5
 40
0.5
 40
0.5
 40
0.5
 40
1.0
 40
1.0
 40
1.0
 40
1.0
 10
-44.3674
 20
80.4277
 30
0.0
 10
-44.8143
 20
76.8481
 30
0.0
 10
-44.1744
 20
73.8787
 30
0.0
 10
-43.1088
 20
71.2395
 30
0.0
 10
-43.1088
 20
71.2395
 30
0.0
 10
-46.4466
 20
69.8896
 30
0.0
 10
-46.1108
 20
67.1201
 30
0.0
 10
-45.4333
 20
63.5719
 30
0.0
 10
-45.4333
 20
63.5719
 30
0.0
 10
-50.6746
 20
70.0337
 30
0.0
 10
-47.5074
 20
79.4786
 30
0.0
 10
-44.3674
 20
80.4277
 30
0.0
  0
SPLINE
  5
5B
330
1F
100
AcDbEntity
  8
layer 1
 62
     7
100
AcDbSpline
210
0.0
220
0.0
230
1.0
 70
    11
 71
     3
 72
    20
 73
    16
 74
     0
 42
0.0000000001
 43
0.0000000001
 12
1.0
 22
0.0
 32
0.0
 13
1.0
 23
0.0
 33
0.0
 40
0.0
 40
0.0
 40
0.0
 40
0.0
 40
0.2
 40
0.2
 40
0.2
 40
0.2
 40
0.4
 40
0.4
 40
0.4
 40
0.4
 40
0.6
 40
0.6
 40
0.6
 40
0.6
 40
1.0
 40
1.0
 40
1.0
 40
1.0
 10
-43.4053
 20
85.8545
 30
0.0
 10
-50.856
 20
85.313
 30
0.0
 10
-49.5719
 20
82.113
 30
0.0
 10
-50.856
 20
76.9302
 30
0.0
 10
-50.856
 20
76.9302
 30
0.0
 10
-50.856
 20
80.1555
 30
0.0
 10
-50.856
 20
83.4961
 30
0.0
 10
-50.856
 20
86.7438
 30
0.0
 10
-50.856
 20
86.7438
 30
0.0
 10
-49.2179
 20
88.6722
 30
0.0
 10
-44.6814
 20
88.3678
 30
0.0
 10
-43.4053
 20
85.8542
 30
0.0
 10
-43.4053
 20
85.8542
 30
0.0
 10
-43.4053
 20
85.8542
 30
0.0
 10
-43.4053
 20
85.8545
 30
0.0
 10
-43.4053
 20
85.8545
 30
0.0
  0
SPLINE
  5
5C
330
1F
100
AcDbEntity
  8
layer 1
 62
     7
100
AcDbSpline
210
0.0
220
0.0
230
1.0
 70
    11
 71
     3
 72
    24
 73
    20
 74
     0
 42
0.0000000001
 43
0.0000000001
 12
1.0
 22
0.0
 32
0.0
 13
1.0
 23
0.0
 33
0.0
 40
0.0
 40
0.0
 40
0.0
 40
0.0
 40
0.1666666666666667
 40
0.1666666666666667
 40
0.1666666666666667
 40
0.1666666666666667
 40
0.3333333333333333
 40
0.3333333333333333
 40
0.3333333333333333
 40
0.3333333333333333
 40
0.5
 40
0.5
 40
0.5
 40
0.5
 40
0.6666666666666666
 40
0.6666666666666666
 40
0.6666666666666666
 40
0.6666666666666666
 40
1.0
 40
1.0
 40
1.0
 40
1.0
 10
-40.6275
 20
100.3541
 30
0.0
 10
-45.7304
 20
100.5627
 30
0.0
 10
-48.7148
 20
98.2414
 30
0.0
 10
-50.856
 20
94.9867
 30
0.0
 10
-50.856
 20
94.9867
 30
0.0
 10
-50.856
 20
98.212
 30
0.0
 10
-50.856
 20
108.9177
 30
0.0
 10
-50.856
 20
112.1654
 30
0.0
 10
-50.856
 20
112.1654
 30
0.0
 10
-49.1442
 20
111.6834
 30
0.0
 10
-47.2273
 20
112.5621
 30
0.0
 10
-45.4761
 20
114.5426
 30
0.0
 10
-45.4761
 20
114.5426
 30
0.0
 10
-47.2621
 20
107.4828
 30
0.0
 10
-44.0016
 20
102.8866
 30
0.0
 10
-40.6275
 20
100.3538
 30
0.0
 10
-40.6275
 20
100.3538
 30
0.0
 10
-40.6275
 20
100.3538
 30
0.0
 10
-40.6275
 20
100.3541
 30
0.0
 10
-40.6275
 20
100.3541
 30
0.0
  0
SPLINE
  5
5D
330
1F
100
AcDbEntity
  8
layer 1
 62
     7
100
AcDbSpline
210
0.0
220
0.0
230
1.0
 70
    11
 71
     3
 72
    16
 73
    12
 74
     0
 42
0.0000000001
 43
0.0000000001
 12
1.0
 22
0.0
 32
0.0
 13
1.0
 23
0.0
 33
0.0
 40
0.0
 40
0.0
 40
0.0
 40
0.0
 40
0.25
 40
0.25
 40
0.25
 40
0.25
 40
0.5
 40
0.5
 40
0.5
 40
0.5
 40
1.0
 40
1.0
 40
1.0
 40
1.0
 10
-50.856
 20
118.1311
 30
0.0
 10
-50.856
 20
118.9249
 30
0.0
 10
-50.856
 20
122.7779
 30
0.0
 10
-50.856
 20
122.7779
 30
0.0
 10
-50.856
 20
122.7779
 30
0.0
 10
-50.856
 20
122.7779
 30
0.0
 10
-47.6505
 20
122.7779
 30
0.0
 10
-45.5736
 20
122.7779
 30
0.0
 10
-45.5736
 20
122.7779
 30
0.0
 10
-48.6561
 20
120.9571
 30
0.0
 10
-48.0124
 20
118.3678
 30
0.0
 10
-50.856
 20
118.1311
 30
0.0
  0
SPLINE
  5
5E
330
1F
100
AcDbEntity
  8
layer 1
 62
     7
100
AcDbSpline
210
0.0
220
0.0
230
1.0
 70
    11
 71
     3
 72
    64
 73
    60
 74
     0
 42
0.0000000001
 43
0.0000000001
 12
1.0
 22
0.0
 32
0.0
 13
1.0
 23
0.0
 33
0.0
 40
0.0
 40
0.0
 40
0.0
 40
0.0
 40
0.0625
 40
0.0625
 40
0.0625
 40
0.0625
 40
0.125
 40
0.125
 40
0.125
 40
0.125
 40
0.1875
 40
0.1875
 40
0.1875
 40
0.1875
 40
0.25
 40
0.25
 40
0.25
 40
0.25
 40
0.3125
 40
0.3125
 40
0.3125
 40
0.3125
 40
0.375
 40
0.375
 40
0.375
 40
0.375
 40
0.4375
 40
0.4375
 40
0.4375
 40
0.4375
 40
0.5
 40
0.5
 40
0.5
 40
0.5
 40
0.5625
 40
0.5625
 40
0.5625
 40
0.5625
 40
0.625
 40
0.625
 40
0.625
 40
0.625
 40
0.6875
 40
0.6875
 40
0.6875
 40
0.6875
 40
0.75
 40
0.75
 40
0.75
 40
0.75
 40
0.8125
 40
0.8125
 40
0.8125
 40
0.8125
 40
0.875
 40
0.875
 40
0.875
 40
0.875
 40
1.0
 40
1.0
 40
1.0
 40
1.0
 10
-25.2485
 20
121.2037
 30
0.0
 10
-18.8004
 20
118.7827
 30
0.0
 10
-21.4325
 20
117.5584
 30
0.0
 10
-8.8064
 20
113.1448
 30
0.0
 10
-8.8064
 20
113.1448
 30
0.0
 10
-9.2539
 20
112.7752
 30
0.0
 10
-11.1136
 20
110.4782
 30
0.0
 10
-13.2343
 20
110.8231
 30
0.0
 10
-13.2343
 20
110.8231
 30
0.0
 10
-15.3381
 20
114.7697
 30
0.0
 10
-20.9476
 20
113.6412
 30
0.0
 10
-19.3051
 20
108.0716
 30
0.0
 10
-19.3051
 20
108.0716
 30
0.0
 10
-22.7154
 20
105.8295
 30
0.0
 10
-32.6353
 20
98.5292
 30
0.0
 10
-33.4709
 20
99.0202
 30
0.0
 10
-33.4709
 20
99.0202
 30
0.0
 10
-35.3067
 20
99.1131
 30
0.0
 10
-39.3734
 20
99.4836
 30
0.0
 10
-38.656
 20
103.6685
 30
0.0
 10
-38.656
 20
103.6685
 30
0.0
 10
-35.928
 20
100.7205
 30
0.0
 10
-33.2905
 20
105.2395
 30
0.0
 10
-37.2728
 20
107.5985
 30
0.0
 10
-37.2728
 20
107.5985
 30
0.0
 10
-39.7727
 20
108.2971
 30
0.0
 10
-41.5941
 20
110.5542
 30
0.0
 10
-41.5941
 20
113.2371
 30
0.0
 10
-41.5941
 20
113.2371
 30
0.0
 10
-41.5941
 20
116.4403
 30
0.0
 10
-38.9974
 20
119.037
 30
0.0
 10
-35.7942
 20
119.037
 30
0.0
 10
-35.7942
 20
119.037
 30
0.0
 10
-32.5909
 20
119.037
 30
0.0
 10
-29.9943
 20
116.4403
 30
0.0
 10
-29.9943
 20
113.2371
 30
0.0
 10
-29.9943
 20
113.2371
 30
0.0
 10
-29.9943
 20
110.8177
 30
0.0
 10
-31.4755
 20
108.7446
 30
0.0
 10
-33.6259
 20
107.8109
 30
0.0
 10
-33.6259
 20
107.8109
 30
0.0
 10
-32.565
 20
103.8998
 30
0.0
 10
-26.1269
 20
106.4389
 30
0.0
 10
-25.2328
 20
111.4486
 30
0.0
 10
-25.2328
 20
111.4486
 30
0.0
 10
-24.4531
 20
116.4356
 30
0.0
 10
-27.4279
 20
121.3184
 30
0.0
 10
-31.0624
 20
122.7782
 30
0.0
 10
-31.0624
 20
122.7782
 30
0.0
 10
-28.2262
 20
122.7782
 30
0.0
 10
-26.9651
 20
122.7782
 30
0.0
 10
-26.2336
 20
122.7782
 30
0.0
 10
-26.2336
 20
122.7782
 30
0.0
 10
-26.3805
 20
121.6634
 30
0.0
 10
-25.3909
 20
121.2574
 30
0.0
 10
-25.2491
 20
121.204
 30
0.0
 10
-25.2491
 20
121.204
 30
0.0
 10
-25.2491
 20
121.204
 30
0.0
 10
-25.2485
 20
121.2037
 30
0.0
 10
-25.2485
 20
121.2037
 30
0.0
  0
SPLINE
  5
5F
330
1F
100
AcDbEntity
  8
layer 1
 62
     7
100
AcDbSpline
210
0.0
220
0.0
230
1.0
 70
    11
 71
     3
 72
    12
 73
     8
 74
     0
 42
0.0000000001
 43
0.0000000001
 12
1.0
 22
0.0
 32
0.0
 13
1.0
 23
0.0
 33
0.0
 40
0.0
 40
0.0
 40
0.0
 40
0.0
 40
0.3333333333333333
 40
0.3333333333333333
 40
0.3333333333333333
 40
0.3333333333333333
 40
1.0
 40
1.0
 40
1.0
 40
1.0
 10
-37.5111
 20
95.6783
 30
0.0
 10
-39.2459
 20
94.3628
 30
0.0
 10
-40.7006
 20
91.6988
 30
0.0
 10
-41.6276
 20
89.9097
 30
0.0
 10
-41.6276
 20
89.9097
 30
0.0
 10
-44.0761
 20
94.0306
 30
0.0
 10
-40.0487
 20
96.779
 30
0.0
 10
-37.5111
 20
95.6783
 30
0.0
  0
SPLINE
  5
60
330
1F
100
AcDbEntity
  8
layer 1
 62
     7
100
AcDbSpline
210
0.0
220
0.0
230
1.0
 70
    11
 71
     3
 72
    60
 73
    56
 74
     0
 42
0.0000000001
 43
0.0000000001
 12
1.0
 22
0.0
 32
0.0
 13
1.0
 23
0.0
 33
0.0
 40
0.0
 40
0.0
 40
0.0
 40
0.0
 40
0.0666666666666667
 40
0.0666666666666667
 40
0.0666666666666667
 40
0.0666666666666667
 40
0.1333333333333333
 40
0.1333333333333333
 40
0.1333333333333333
 40
0.1333333333333333
 40
0.2
 40
0.2
 40
0.2
 40
0.2
 40
0.2666666666666667
 40
0.2666666666666667
 40
0.2666666666666667
 40
0.2666666666666667
 40
0.3333333333333333
 40
0.3333333333333333
 40
0.3333333333333333
 40
0.3333333333333333
 40
0.4
 40
0.4
 40
0.4
 40
0.4
 40
0.4666666666666667
 40
0.4666666666666667
 40
0.4666666666666667
 40
0.4666666666666667
 40
0.5333333333333333
 40
0.5333333333333333
 40
0.5333333333333333
 40
0.5333333333333333
 40
0.6
 40
0.6
 40
0.6
 40
0.6
 40
0.6666666666666666
 40
0.6666666666666666
 40
0.6666666666666666
 40
0.6666666666666666
 40
0.7333333333333333
 40
0.7333333333333333
 40
0.7333333333333333
 40
0.7333333333333333
 40
0.8
 40
0.8
 40
0.8
 40
0.8
 40
0.8666666666666667
 40
0.8666666666666667
 40
0.8666666666666667
 40
0.8666666666666667
 40
1.0
 40
1.0
 40
1.0
 40
1.0
 10
-13.0098
 20
88.9028
 30
0.0
 10
-18.7522
 20
92.076
 30
0.0
 10
-22.3228
 20
93.6412
 30
0.0
 10
-28.0681
 20
97.4204
 30
0.0
 10
-28.0681
 20
97.4204
 30
0.0
 10
-25.5845
 20
98.7908
 30
0.0
 10
-22.9364
 20
100.4062
 30
0.0
 10
-19.1144
 20
102.6786
 30
0.0
 10
-19.1144
 20
102.6786
 30
0.0
 10
-16.3437
 20
104.1735
 30
0.0
 10
-10.1719
 20
101.788
 30
0.0
 10
-7.8008
 20
103.0523
 30
0.0
 10
-7.8008
 20
103.0523
 30
0.0
 10
-5.0607
 20
104.5134
 30
0.0
 10
-5.7255
 20
107.9348
 30
0.0
 10
-9.1849
 20
108.9078
 30
0.0
 10
-9.1849
 20
108.9078
 30
0.0
 10
-7.0661
 20
109.8211
 30
0.0
 10
-5.6504
 20
111.1707
 30
0.0
 10
-3.8989
 20
112.0469
 30
0.0
 10
-3.8989
 20
112.0469
 30
0.0
 10
-4.0778
 20
111.34
 30
0.0
 10
-4.4021
 20
100.5585
 30
0.0
 10
-0.9417
 20
97.8721
 30
0.0
 10
-0.9417
 20
97.8721
 30
0.0
 10
-0.9417
 20
97.8721
 30
0.0
 10
-0.3673
 20
87.7586
 30
0.0
 10
-0.3673
 20
87.7586
 30
0.0
 10
-0.3673
 20
87.7586
 30
0.0
 10
-3.146
 20
86.739
 30
0.0
 10
-5.529
 20
83.078
 30
0.0
 10
-2.1718
 20
79.048
 30
0.0
 10
-2.1718
 20
79.048
 30
0.0
 10
-3.2483
 20
79.088
 30
0.0
 10
-4.8007
 20
78.7034
 30
0.0
 10
-5.8289
 20
78.4731
 30
0.0
 10
-5.8289
 20
78.4731
 30
0.0
 10
-7.0335
 20
80.16
 30
0.0
 10
-7.6606
 20
80.7206
 30
0.0
 10
-8.523
 20
81.8622
 30
0.0
 10
-8.523
 20
81.8622
 30
0.0
 10
-3.2029
 20
83.4038
 30
0.0
 10
-4.3324
 20
89.2328
 30
0.0
 10
-6.5988
 20
89.9949
 30
0.0
 10
-6.5988
 20
89.9949
 30
0.0
 10
-12.4715
 20
91.97
 30
0.0
 10
-14.4389
 20
95.4515
 30
0.0
 10
-14.5303
 20
101.1616
 30
0.0
 10
-14.5303
 20
101.1616
 30
0.0
 10
-18.8608
 20
98.8889
 30
0.0
 10
-17.0416
 20
92.3782
 30
0.0
 10
-13.0094
 20
88.9025
 30
0.0
 10
-13.0094
 20
88.9025
 30
0.0
 10
-13.0094
 20
88.9025
 30
0.0
 10
-13.0098
 20
88.9028
 30
0.0
 10
-13.0098
 20
88.9028
 30
0.0
  0
SPLINE
  5
61
330
1F
100
AcDbEntity
  8
layer 1
 62
     7
100
AcDbSpline
210
0.0
220
0.0
230
1.0
 70
    11
 71
     3
 72
   100
 73
    96
 74
     0
 42
0.0000000001
 43
0.0000000001
 12
1.0
 22
0.0
 32
0.0
 13
1.0
 23
0.0
 33
0.0
 40
0.0
 40
0.0
 40
0.0
 40
0.0
 40
0.04
 40
0.04
 40
0.04
 40
0.04
 40
0.08
 40
0.08
 40
0.08
 40
0.08
 40
0.12
 40
0.12
 40
0.12
 40
0.12
 40
0.16
 40
0.16
 40
0.16
 40
0.16
 40
0.2
 40
0.2
 40
0.2
 40
0.2
 40
0.24
 40
0.24
 40
0.24
 40
0.24
 40
0.28
 40
0.28
 40
0.28
 40
0.28
 40
0.32
 40
0.32
 40
0.32
 40
0.32
 40
0.36
 40
0.36
 40
0.36
 40
0.36
 40
0.4
 40
0.4
 40
0.4
 40
0.4
 40
0.44
 40
0.44
 40
0.44
 40
0.44
 40
0.48
 40
0.48
 40
0.48
 40
0.48
 40
0.52
 40
0.52
 40
0.52
 40
0.52
 40
0.56
 40
0.56
 40
0.56
 40
0.56
 40
0.6
 40
0.6
 40
0.6
 40
0.6
 40
0.64
 40
0.64
 40
0.64
 40
0.64
 40
0.68
 40
0.68
 40
0.68
 40
0.68
 40
0.72
 40
0.72
 40
0.72
 40
0.72
 40
0.76
 40
0.76
 40
0.76
 40
0.76
 40
0.8
 40
0.8
 40
0.8
 40
0.8
 40
0.84
 40
0.84
 40
0.84
 40
0.84
 40
0.88
 40
0.88
 40
0.88
 40
0.88
 40
0.92
 40
0.92
 40
0.92
 40
0.92
 40
1.0
 40
1.0
 40
1.0
 40
1.0
 10
-8.1931
 20
76.6686
 30
0.0
 10
-11.3887
 20
75.9818
 30
0.0
 10
-23.3472
 20
70.1107
 30
0.0
 10
-23.0613
 20
54.255
 30
0.0
 10
-23.0613
 20
54.255
 30
0.0
 10
-29.7994
 20
60.1645
 30
0.0
 10
-35.0627
 20
47.8731
 30
0.0
 10
-28.7172
 20
46.3089
 30
0.0
 10
-28.7172
 20
46.3089
 30
0.0
 10
-31.1238
 20
52.0998
 30
0.0
 10
-24.5364
 20
53.7561
 30
0.0
 10
-22.3308
 20
48.6704
 30
0.0
 10
-22.3308
 20
48.6704
 30
0.0
 10
-19.5409
 20
43.6413
 30
0.0
 10
-16.3434
 20
40.9587
 30
0.0
 10
-12.3112
 20
37.4833
 30
0.0
 10
-12.3112
 20
37.4833
 30
0.0
 10
-16.6756
 20
37.7468
 30
0.0
 10
-21.6242
 20
38.2404
 30
0.0
 10
-23.6941
 20
43.0149
 30
0.0
 10
-23.6941
 20
43.0149
 30
0.0
 10
-25.0986
 20
46.4683
 30
0.0
 10
-28.943
 20
45.655
 30
0.0
 10
-28.1483
 20
42.6121
 30
0.0
 10
-28.1483
 20
42.6121
 30
0.0
 10
-31.6035
 20
45.2468
 30
0.0
 10
-34.2743
 20
47.0346
 30
0.0
 10
-32.6871
 20
42.9785
 30
0.0
 10
-32.6871
 20
42.9785
 30
0.0
 10
-33.607
 20
43.5132
 30
0.0
 10
-34.175
 20
43.817
 30
0.0
 10
-35.1352
 20
44.0332
 30
0.0
 10
-35.1352
 20
44.0332
 30
0.0
 10
-35.2473
 20
45.6786
 30
0.0
 10
-35.3738
 20
47.5342
 30
0.0
 10
-35.7875
 20
48.9729
 30
0.0
 10
-35.7875
 20
48.9729
 30
0.0
 10
-30.4402
 20
49.409
 30
0.0
 10
-32.5749
 20
57.4395
 30
0.0
 10
-37.9427
 20
60.1952
 30
0.0
 10
-37.9427
 20
60.1952
 30
0.0
 10
-38.5844
 20
60.3693
 30
0.0
 10
-40.0835
 20
60.6427
 30
0.0
 10
-40.9035
 20
61.3512
 30
0.0
 10
-40.9035
 20
61.3512
 30
0.0
 10
-41.6391
 20
61.9869
 30
0.0
 10
-41.3995
 20
63.6588
 30
0.0
 10
-41.0763
 20
64.3574
 30
0.0
 10
-41.0763
 20
64.3574
 30
0.0
 10
-39.4964
 20
62.5082
 30
0.0
 10
-36.9157
 20
62.5101
 30
0.0
 10
-36.1877
 20
63.8185
 30
0.0
 10
-36.1877
 20
63.8185
 30
0.0
 10
-45.4911
 20
73.7177
 30
0.0
 10
-33.3508
 20
75.915
 30
0.0
 10
-34.9595
 20
68.0893
 30
0.0
 10
-34.9595
 20
68.0893
 30
0.0
 10
-36.2679
 20
61.7237
 30
0.0
 10
-28.6958
 20
60.5629
 30
0.0
 10
-28.8686
 20
61.1998
 30
0.0
 10
-28.8686
 20
61.1998
 30
0.0
 10
-30.4437
 20
67.0032
 30
0.0
 10
-29.7058
 20
68.6445
 30
0.0
 10
-27.91
 20
69.7123
 30
0.0
 10
-27.91
 20
69.7123
 30
0.0
 10
-22.3062
 20
72.1263
 30
0.0
 10
-29.2835
 20
85.521
 30
0.0
 10
-33.2879
 20
78.6615
 30
0.0
 10
-33.2879
 20
78.6615
 30
0.0
 10
-41.5356
 20
80.4752
 30
0.0
 10
-37.5676
 20
89.4398
 30
0.0
 10
-32.2983
 20
94.4705
 30
0.0
 10
-32.2983
 20
94.4705
 30
0.0
 10
-30.1029
 20
93.3164
 30
0.0
 10
-20.8544
 20
86.6217
 30
0.0
 10
-19.6507
 20
84.0296
 30
0.0
 10
-19.6507
 20
84.0296
 30
0.0
 10
-24.0541
 20
87.0919
 30
0.0
 10
-30.8136
 20
87.1843
 30
0.0
 10
-31.9022
 20
82.4164
 30
0.0
 10
-31.9022
 20
82.4164
 30
0.0
 10
-26.3585
 20
83.7893
 30
0.0
 10
-22.8444
 20
82.526
 30
0.0
 10
-19.0774
 20
77.6068
 30
0.0
 10
-19.0774
 20
77.6068
 30
0.0
 10
-17.4182
 20
75.4397
 30
0.0
 10
-12.7782
 20
75.4116
 30
0.0
 10
-11.4599
 20
80.0974
 30
0.0
 10
-11.4599
 20
80.0974
 30
0.0
 10
-9.8056
 20
78.6861
 30
0.0
 10
-9.733
 20
78.0128
 30
0.0
 10
-8.1931
 20
76.6695
 30
0.0
 10
-8.1931
 20
76.6695
 30
0.0
 10
-8.1931
 20
76.6695
 30
0.0
 10
-8.1931
 20
76.6686
 30
0.0
 10
-8.1931
 20
76.6686
 30
0.0
  0
SPLINE
  5
62
330
1F
100
AcDbEntity
  8
layer 1
 62
     7
100
AcDbSpline
210
0.0
220
0.0
230
1.0
 70
    11
 71
     3
 72
    24
 73
    20
 74
     0
 42
0.0000000001
 43
0.0000000001
 12
1.0
 22
0.0
 32
0.0
 13
1.0
 23
0.0
 33
0.0
 40
0.0
 40
0.0
 40
0.0
 40
0.0
 40
0.1666666666666667
 40
0.1666666666666667
 40
0.1666666666666667
 40
0.1666666666666667
 40
0.3333333333333333
 40
0.3333333333333333
 40
0.3333333333333333
 40
0.3333333333333333
 40
0.5
 40
0.5
 40
0.5
 40
0.5
 40
0.6666666666666666
 40
0.6666666666666666
 40
0.6666666666666666
 40
0.6666666666666666
 40
1.0
 40
1.0
 40
1.0
 40
1.0
 10
0.3182
 20
22.6425
 30
0.0
 10
-1.5588
 20
23.1993
 30
0.0
 10
-2.6972
 20
23.8867
 30
0.0
 10
-3.8009
 20
24.9316
 30
0.0
 10
-3.8009
 20
24.9316
 30
0.0
 10
-4.5353
 20
23.8647
 30
0.0
 10
-5.8817
 20
22.9623
 30
0.0
 10
-7.154
 20
22.669
 30
0.0
 10
-7.154
 20
22.669
 30
0.0
 10
-4.885
 20
20.1845
 30
0.0
 10
-3.6367
 20
18.2302
 30
0.0
 10
-1.6042
 20
16.3293
 30
0.0
 10
-1.6042
 20
16.3293
 30
0.0
 10
-1.3045
 20
20.9384
 30
0.0
 10
-0.8781
 20
21.1422
 30
0.0
 10
0.3179
 20
22.6425
 30
0.0
 10
0.3179
 20
22.6425
 30
0.0
 10
0.3179
 20
22.6425
 30
0.0
 10
0.3182
 20
22.6425
 30
0.0
 10
0.3182
 20
22.6425
 30
0.0
  0
SPLINE
  5
63
330
1F
100
AcDbEntity
  8
layer 1
 62
     7
100
AcDbSpline
210
0.0
220
0.0
230
1.0
 70
    11
 71
     3
 72
    16
 73
    12
 74
     0
 42
0.0000000001
 43
0.0000000001
 12
1.0
 22
0.0
 32
0.0
 13
1.0
 23
0.0
 33
0.0
 40
0.0
 40
0.0
 40
0.0
 40
0.0
 40
0.25
 40
0.25
 40
0.25
 40
0.25
 40
0.5
 40
0.5
 40
0.5
 40
0.5
 40
1.0
 40
1.0
 40
1.0
 40
1.0
 10
-9.3245
 20
118.7054
 30
0.0
 10
-10.6894
 20
120.4316
 30
0.0
 10
-19.048
 20
119.8944
 30
0.0
 10
-19.8485
 20
122.7779
 30
0.0
 10
-19.8485
 20
122.7779
 30
0.0
 10
-17.7105
 20
122.7779
 30
0.0
 10
-11.3184
 20
122.7779
 30
0.0
 10
-10.1547
 20
122.7319
 30
0.0
 10
-10.1547
 20
122.7319
 30
0.0
 10
-10.2329
 20
121.4388
 30
0.0
 10
-10.0039
 20
120.2393
 30
0.0
 10
-9.3245
 20
118.7054
 30
0.0
  0
SPLINE
  5
64
330
1F
100
AcDbEntity
  8
layer 1
 62
     7
100
AcDbSpline
210
0.0
220
0.0
230
1.0
 70
    11
 71
     3
 72
    20
 73
    16
 74
     0
 42
0.0000000001
 43
0.0000000001
 12
1.0
 22
0.0
 32
0.0
 13
1.0
 23
0.0
 33
0.0
 40
0.0
 40
0.0
 40
0.0
 40
0.0
 40
0.2
 40
0.2
 40
0.2
 40
0.2
 40
0.4
 40
0.4
 40
0.4
 40
0.4
 40
0.6
 40
0.6
 40
0.6
 40
0.6
 40
1.0
 40
1.0
 40
1.0
 40
1.0
 10
-1.1895
 20
112.3395
 30
0.0
 10
-0.2111
 20
111.9306
 30
0.0
 10
0.4514
 20
111.7144
 30
0.0
 10
1.3158
 20
111.6933
 30
0.0
 10
1.3158
 20
111.6933
 30
0.0
 10
2.1802
 20
111.7147
 30
0.0
 10
2.8427
 20
111.9309
 30
0.0
 10
3.8211
 20
112.3395
 30
0.0
 10
3.8211
 20
112.3395
 30
0.0
 10
2.031
 20
110.9241
 30
0.0
 10
4.6104
 20
104.2173
 30
0.0
 10
1.3158
 20
103.971
 30
0.0
 10
1.3158
 20
103.971
 30
0.0
 10
-1.9788
 20
104.2173
 30
0.0
 10
0.6006
 20
110.9241
 30
0.0
 10
-1.1895
 20
112.3395
 30
0.0
  0
SPLINE
  5
65
330
1F
100
AcDbEntity
  8
layer 1
 62
     7
100
AcDbSpline
210
0.0
220
0.0
230
1.0
 70
    11
 71
     3
 72
    24
 73
    20
 74
     0
 42
0.0000000001
 43
0.0000000001
 12
1.0
 22
0.0
 32
0.0
 13
1.0
 23
0.0
 33
0.0
 40
0.0
 40
0.0
 40
0.0
 40
0.0
 40
0.1666666666666667
 40
0.1666666666666667
 40
0.1666666666666667
 40
0.1666666666666667
 40
0.3333333333333333
 40
0.3333333333333333
 40
0.3333333333333333
 40
0.3333333333333333
 40
0.5
 40
0.5
 40
0.5
 40
0.5
 40
0.6666666666666666
 40
0.6666666666666666
 40
0.6666666666666666
 40
0.6666666666666666
 40
1.0
 40
1.0
 40
1.0
 40
1.0
 10
3.4394
 20
82.9042
 30
0.0
 10
3.439
 20
82.9045
 30
0.0
 10
3.439
 20
82.9052
 30
0.0
 10
3.439
 20
82.9058
 30
0.0
 10
3.439
 20
82.9058
 30
0.0
 10
3.439
 20
84.1292
 30
0.0
 10
4.4312
 20
85.1214
 30
0.0
 10
5.6546
 20
85.1214
 30
0.0
 10
5.6546
 20
85.1214
 30
0.0
 10
6.878
 20
85.1214
 30
0.0
 10
7.8702
 20
84.1292
 30
0.0
 10
7.8702
 20
82.9058
 30
0.0
 10
7.8702
 20
82.9058
 30
0.0
 10
7.8702
 20
82.9052
 30
0.0
 10
7.8702
 20
82.9045
 30
0.0
 10
7.8702
 20
82.9039
 30
0.0
 10
7.8702
 20
82.9039
 30
0.0
 10
7.8702
 20
82.9039
 30
0.0
 10
3.4394
 20
82.9042
 30
0.0
 10
3.4394
 20
82.9042
 30
0.0
  0
SPLINE
  5
66
330
1F
100
AcDbEntity
  8
layer 1
 62
     7
100
AcDbSpline
210
0.0
220
0.0
230
1.0
 70
    11
 71
     3
 72
   160
 73
   156
 74
     0
 42
0.0000000001
 43
0.0000000001
 12
1.0
 22
0.0
 32
0.0
 13
1.0
 23
0.0
 33
0.0
 40
0.0
 40
0.0
 40
0.0
 40
0.0
 40
0.025
 40
0.025
 40
0.025
 40
0.025
 40
0.05
 40
0.05
 40
0.05
 40
0.05
 40
0.075
 40
0.075
 40
0.075
 40
0.075
 40
0.1
 40
0.1
 40
0.1
 40
0.1
 40
0.125
 40
0.125
 40
0.125
 40
0.125
 40
0.15
 40
0.15
 40
0.15
 40
0.15
 40
0.175
 40
0.175
 40
0.175
 40
0.175
 40
0.2
 40
0.2
 40
0.2
 40
0.2
 40
0.225
 40
0.225
 40
0.225
 40
0.225
 40
0.25
 40
0.25
 40
0.25
 40
0.25
 40
0.275
 40
0.275
 40
0.275
 40
0.275
 40
0.3
 40
0.3
 40
0.3
 40
0.3
 40
0.325
 40
0.325
 40
0.325
 40
0.325
 40
0.35
 40
0.35
 40
0.35
 40
0.35
 40
0.375
 40
0.375
 40
0.375
 40
0.375
 40
0.4
 40
0.4
 40
0.4
 40
0.4
 40
0.425
 40
0.425
 40
0.425
 40
0.425
 40
0.45
 40
0.45
 40
0.45
 40
0.45
 40
0.475
 40
0.475
 40
0.475
 40
0.475
 40
0.5
 40
0.5
 40
0.5
 40
0.5
 40
0.525
 40
0.525
 40
0.525
 40
0.525
 40
0.55
 40
0.55
 40
0.55
 40
0.55
 40
0.575
 40
0.575
 40
0.575
 40
0.575
 40
0.6
 40
0.6
 40
0.6
 40
0.6
 40
0.625
 40
0.625
 40
0.625
 40
0.625
 40
0.65
 40
0.65
 40
0.65
 40
0.65
 40
0.675
 40
0.675
 40
0.675
 40
0.675
 40
0.7
 40
0.7
 40
0.7
 40
0.7
 40
0.725
 40
0.725
 40
0.725
 40
0.725
 40
0.75
 40
0.75
 40
0.75
 40
0.75
 40
0.775
 40
0.775
 40
0.775
 40
0.775
 40
0.8
 40
0.8
 40
0.8
 40
0.8
 40
0.825
 40
0.825
 40
0.825
 40
0.825
 40
0.85
 40
0.85
 40
0.85
 40
0.85
 40
0.875
 40
0.875
 40
0.875
 40
0.875
 40
0.9
 40
0.9
 40
0.9
 40
0.9
 40
0.925
 40
0.925
 40
0.925
 40
0.925
 40
0.95
 40
0.95
 40
0.95
 40
0.95
 40
1.0
 40
1.0
 40
1.0
 40
1.0
 10
-2.8276
 20
58.891
 30
0.0
 10
-4.6381
 20
62.1035
 30
0.0
 10
-6.9648
 20
62.7823
 30
0.0
 10
-9.082
 20
60.9992
 30
0.0
 10
-9.082
 20
60.9992
 30
0.0
 10
-13.0931
 20
57.725
 30
0.0
 10
-14.7935
 20
60.4348
 30
0.0
 10
-16.8394
 20
61.9569
 30
0.0
 10
-16.8394
 20
61.9569
 30
0.0
 10
-16.8484
 20
61.9501
 30
0.0
 10
-17.4674
 20
59.5036
 30
0.0
 10
-14.7107
 20
57.4992
 30
0.0
 10
-14.7107
 20
57.4992
 30
0.0
 10
-9.689
 20
54.5032
 30
0.0
 10
-7.9356
 20
59.1024
 30
0.0
 10
-5.1112
 20
57.8953
 30
0.0
 10
-5.1112
 20
57.8953
 30
0.0
 10
-6.234
 20
57.9432
 30
0.0
 10
-7.4366
 20
54.8945
 30
0.0
 10
-4.1213
 20
53.0763
 30
0.0
 10
-4.1213
 20
53.0763
 30
0.0
 10
-9.1577
 20
56.6054
 30
0.0
 10
-13.923
 20
53.0342
 30
0.0
 10
-14.475
 20
49.293
 30
0.0
 10
-14.475
 20
49.293
 30
0.0
 10
-14.9254
 20
40.9344
 30
0.0
 10
-7.0294
 20
40.8172
 30
0.0
 10
-5.0907
 20
43.472
 30
0.0
 10
-5.0907
 20
43.472
 30
0.0
 10
-2.9723
 20
47.2665
 30
0.0
 10
-7.1131
 20
48.2044
 30
0.0
 10
-6.8058
 20
47.4333
 30
0.0
 10
-6.8058
 20
47.4333
 30
0.0
 10
-5.8494
 20
45.0324
 30
0.0
 10
-10.5674
 20
43.5295
 30
0.0
 10
-10.9795
 20
47.393
 30
0.0
 10
-10.9795
 20
47.393
 30
0.0
 10
-11.1938
 20
51.8913
 30
0.0
 10
-5.8481
 20
52.9284
 30
0.0
 10
-3.2355
 20
50.1286
 30
0.0
 10
-3.2355
 20
50.1286
 30
0.0
 10
0.0709
 20
45.5793
 30
0.0
 10
-2.6113
 20
39.275
 30
0.0
 10
-8.3707
 20
38.4735
 30
0.0
 10
-8.3707
 20
38.4735
 30
0.0
 10
-13.7515
 20
41.1465
 30
0.0
 10
-20.2318
 20
48.5695
 30
0.0
 10
-19.7913
 20
53.445
 30
0.0
 10
-19.7913
 20
53.445
 30
0.0
 10
-16.6494
 20
52.5512
 30
0.0
 10
-15.975
 20
54.8565
 30
0.0
 10
-16.1453
 20
56.1397
 30
0.0
 10
-16.1453
 20
56.1397
 30
0.0
 10
-16.3555
 20
57.7244
 30
0.0
 10
-18.1909
 20
59.2826
 30
0.0
 10
-20.2976
 20
57.6554
 30
0.0
 10
-20.2976
 20
57.6554
 30
0.0
 10
-19.6629
 20
62.3236
 30
0.0
 10
-18.3523
 20
64.5078
 30
0.0
 10
-17.0963
 20
66.1321
 30
0.0
 10
-17.0963
 20
66.1321
 30
0.0
 10
-16.3031
 20
59.4391
 30
0.0
 10
-8.5345
 20
61.6496
 30
0.0
 10
-8.4476
 20
64.3864
 30
0.0
 10
-8.4476
 20
64.3864
 30
0.0
 10
-8.6195
 20
68.6122
 30
0.0
 10
-2.5292
 20
67.8628
 30
0.0
 10
-2.0852
 20
62.5053
 30
0.0
 10
-2.0852
 20
62.5053
 30
0.0
 10
-1.6399
 20
58.6568
 30
0.0
 10
0.4932
 20
56.8571
 30
0.0
 10
1.2241
 20
56.8389
 30
0.0
 10
1.2241
 20
56.8389
 30
0.0
 10
1.955
 20
56.8568
 30
0.0
 10
4.3929
 20
58.6568
 30
0.0
 10
4.8385
 20
62.5053
 30
0.0
 10
4.8385
 20
62.5053
 30
0.0
 10
5.2825
 20
67.8628
 30
0.0
 10
11.3724
 20
68.6125
 30
0.0
 10
11.2009
 20
64.3864
 30
0.0
 10
11.2009
 20
64.3864
 30
0.0
 10
11.2878
 20
61.6496
 30
0.0
 10
19.0563
 20
59.4391
 30
0.0
 10
19.8495
 20
66.1321
 30
0.0
 10
19.8495
 20
66.1321
 30
0.0
 10
21.1055
 20
64.5078
 30
0.0
 10
22.4161
 20
62.3236
 30
0.0
 10
23.0508
 20
57.6554
 30
0.0
 10
23.0508
 20
57.6554
 30
0.0
 10
20.9442
 20
59.2826
 30
0.0
 10
19.1087
 20
57.7244
 30
0.0
 10
18.8986
 20
56.1397
 30
0.0
 10
18.8986
 20
56.1397
 30
0.0
 10
18.7286
 20
54.8562
 30
0.0
 10
19.4029
 20
52.5509
 30
0.0
 10
22.5445
 20
53.445
 30
0.0
 10
22.5445
 20
53.445
 30
0.0
 10
22.985
 20
48.5695
 30
0.0
 10
16.5044
 20
41.1462
 30
0.0
 10
11.1239
 20
38.4735
 30
0.0
 10
11.1239
 20
38.4735
 30
0.0
 10
5.3646
 20
39.2747
 30
0.0
 10
2.682
 20
45.5793
 30
0.0
 10
5.9887
 20
50.1286
 30
0.0
 10
5.9887
 20
50.1286
 30
0.0
 10
8.6014
 20
52.9284
 30
0.0
 10
13.947
 20
51.8913
 30
0.0
 10
13.7327
 20
47.393
 30
0.0
 10
13.7327
 20
47.393
 30
0.0
 10
13.3206
 20
43.5295
 30
0.0
 10
8.6026
 20
45.0324
 30
0.0
 10
9.559
 20
47.4333
 30
0.0
 10
9.559
 20
47.4333
 30
0.0
 10
9.8663
 20
48.2044
 30
0.0
 10
5.7252
 20
47.2665
 30
0.0
 10
7.844
 20
43.472
 30
0.0
 10
7.844
 20
43.472
 30
0.0
 10
9.7826
 20
40.8172
 30
0.0
 10
17.679
 20
40.9344
 30
0.0
 10
17.2282
 20
49.293
 30
0.0
 10
17.2282
 20
49.293
 30
0.0
 10
16.6763
 20
53.0342
 30
0.0
 10
11.911
 20
56.6054
 30
0.0
 10
6.8745
 20
53.0763
 30
0.0
 10
6.8745
 20
53.0763
 30
0.0
 10
10.1899
 20
54.8945
 30
0.0
 10
8.9872
 20
57.9432
 30
0.0
 10
7.8644
 20
57.8953
 30
0.0
 10
7.8644
 20
57.8953
 30
0.0
 10
10.6888
 20
59.1021
 30
0.0
 10
12.4422
 20
54.5032
 30
0.0
 10
17.464
 20
57.4992
 30
0.0
 10
17.464
 20
57.4992
 30
0.0
 10
20.2207
 20
59.5036
 30
0.0
 10
19.6016
 20
61.9501
 30
0.0
 10
19.5927
 20
61.9569
 30
0.0
 10
19.5927
 20
61.9569
 30
0.0
 10
17.5464
 20
60.4348
 30
0.0
 10
15.8464
 20
57.7247
 30
0.0
 10
11.8353
 20
60.9992
 30
0.0
 10
11.8353
 20
60.9992
 30
0.0
 10
9.7181
 20
62.7823
 30
0.0
 10
7.3914
 20
62.1035
 30
0.0
 10
5.5808
 20
58.891
 30
0.0
 10
5.5808
 20
58.891
 30
0.0
 10
4.6308
 20
55.7209
 30
0.0
 10
3.5614
 20
53.628
 30
0.0
 10
1.2244
 20
53.5533
 30
0.0
 10
1.2244
 20
53.5533
 30
0.0
 10
-1.1125
 20
53.628
 30
0.0
 10
-1.8766
 20
55.7209
 30
0.0
 10
-2.8269
 20
58.891
 30
0.0
 10
-2.8269
 20
58.891
 30
0.0
 10
-2.8269
 20
58.891
 30
0.0
 10
-2.8276
 20
58.891
 30
0.0
 10
-2.8276
 20
58.891
 30
0.0
  0
SPLINE
  5
67
330
1F
100
AcDbEntity
  8
layer 1
 62
     7
100
AcDbSpline
210
0.0
220
0.0
230
1.0
 70
    11
 71
     3
 72
    44
 73
    40
 74
     0
 42
0.0000000001
 43
0.0000000001
 12
1.0
 22
0.0
 32
0.0
 13
1.0
 23
0.0
 33
0.0
 40
0.0
 40
0.0
 40
0.0
 40
0.0
 40
0.0909090909090909
 40
0.0909090909090909
 40
0.0909090909090909
 40
0.0909090909090909
 40
0.1818181818181818
 40
0.1818181818181818
 40
0.1818181818181818
 40
0.1818181818181818
 40
0.2727272727272727
 40
0.2727272727272727
 40
0.2727272727272727
 40
0.2727272727272727
 40
0.3636363636363636
 40
0.3636363636363636
 40
0.3636363636363636
 40
0.3636363636363636
 40
0.4545454545454545
 40
0.4545454545454545
 40
0.4545454545454545
 40
0.4545454545454545
 40
0.5454545454545454
 40
0.5454545454545454
 40
0.5454545454545454
 40
0.5454545454545454
 40
0.6363636363636364
 40
0.6363636363636364
 40
0.6363636363636364
 40
0.6363636363636364
 40
0.7272727272727273
 40
0.7272727272727273
 40
0.7272727272727273
 40
0.7272727272727273
 40
0.8181818181818182
 40
0.8181818181818182
 40
0.8181818181818182
 40
0.8181818181818182
 40
1.0
 40
1.0
 40
1.0
 40
1.0
 10
53.4879
 20
65.1812
 30
0.0
 10
50.3054
 20
57.3136
 30
0.0
 10
46.5252
 20
56.8038
 30
0.0
 10
42.7316
 20
48.9362
 30
0.0
 10
42.7316
 20
48.9362
 30
0.0
 10
42.2669
 20
46.926
 30
0.0
 10
40.8307
 20
40.3809
 30
0.0
 10
44.4518
 20
39.7589
 30
0.0
 10
44.4518
 20
39.7589
 30
0.0
 10
49.226
 20
47.3879
 30
0.0
 10
55.1208
 20
37.4034
 30
0.0
 10
47.6736
 20
34.5848
 30
0.0
 10
47.6736
 20
34.5848
 30
0.0
 10
40.8623
 20
33.9319
 30
0.0
 10
38.5171
 20
37.9823
 30
0.0
 10
37.5613
 20
40.0493
 30
0.0
 10
37.5613
 20
40.0493
 30
0.0
 10
35.0908
 20
37.7139
 30
0.0
 10
33.517
 20
35.6517
 30
0.0
 10
32.3281
 20
33.669
 30
0.0
 10
32.3281
 20
33.669
 30
0.0
 10
37.8514
 20
35.9583
 30
0.0
 10
42.5579
 20
32.1708
 30
0.0
 10
40.1899
 20
25.7758
 30
0.0
 10
40.1899
 20
25.7758
 30
0.0
 10
46.2709
 20
25.4759
 30
0.0
 10
49.1634
 20
21.1061
 30
0.0
 10
50.8049
 20
18.8023
 30
0.0
 10
50.8049
 20
18.8023
 30
0.0
 10
51.3668
 20
16.7452
 30
0.0
 10
52.5724
 20
17.4831
 30
0.0
 10
53.4879
 20
17.14
 30
0.0
 10
53.4879
 20
17.14
 30
0.0
 10
53.4879
 20
30.2597
 30
0.0
 10
53.4879
 20
52.0618
 30
0.0
 10
53.4879
 20
65.1815
 30
0.0
 10
53.4879
 20
65.1815
 30
0.0
 10
53.4879
 20
65.1815
 30
0.0
 10
53.4879
 20
65.1812
 30
0.0
 10
53.4879
 20
65.1812
 30
0.0
  0
SPLINE
  5
68
330
1F
100
AcDbEntity
  8
layer 1
 62
     7
100
AcDbSpline
210
0.0
220
0.0
230
1.0
 70
    11
 71
     3
 72
    28
 73
    24
 74
     0
 42
0.0000000001
 43
0.0000000001
 12
1.0
 22
0.0
 32
0.0
 13
1.0
 23
0.0
 33
0.0
 40
0.0
 40
0.0
 40
0.0
 40
0.0
 40
0.1428571428571428
 40
0.1428571428571428
 40
0.1428571428571428
 40
0.1428571428571428
 40
0.2857142857142857
 40
0.2857142857142857
 40
0.2857142857142857
 40
0.2857142857142857
 40
0.4285714285714285
 40
0.4285714285714285
 40
0.4285714285714285
 40
0.4285714285714285
 40
0.5714285714285714
 40
0.5714285714285714
 40
0.5714285714285714
 40
0.5714285714285714
 40
0.7142857142857143
 40
0.7142857142857143
 40
0.7142857142857143
 40
0.7142857142857143
 40
1.0
 40
1.0
 40
1.0
 40
1.0
 10
39.3668
 20
22.0346
 30
0.0
 10
38.4602
 20
22.4803
 30
0.0
 10
33.4138
 20
24.3096
 30
0.0
 10
30.9248
 20
18.9949
 30
0.0
 10
30.9248
 20
18.9949
 30
0.0
 10
30.0892
 20
15.7875
 30
0.0
 10
32.4415
 20
12.9385
 30
0.0
 10
35.2467
 20
15.7048
 30
0.0
 10
35.2467
 20
15.7048
 30
0.0
 10
36.3628
 20
17.6297
 30
0.0
 10
38.4018
 20
17.2173
 30
0.0
 10
38.9125
 20
15.8287
 30
0.0
 10
38.9125
 20
15.8287
 30
0.0
 10
39.4092
 20
14.4788
 30
0.0
 10
38.4027
 20
12.1827
 30
0.0
 10
37.7776
 20
11.8441
 30
0.0
 10
37.7776
 20
11.8441
 30
0.0
 10
38.4471
 20
9.679
 30
0.0
 10
42.7626
 20
8.3061
 30
0.0
 10
43.2469
 20
11.4116
 30
0.0
 10
43.2469
 20
11.4116
 30
0.0
 10
44.5403
 20
18.1721
 30
0.0
 10
35.9179
 20
15.7054
 30
0.0
 10
39.3668
 20
22.0346
 30
0.0
  0
SPLINE
  5
69
330
1F
100
AcDbEntity
  8
layer 1
 62
     7
100
AcDbSpline
210
0.0
220
0.0
230
1.0
 70
    11
 71
     3
 72
    24
 73
    20
 74
     0
 42
0.0000000001
 43
0.0000000001
 12
1.0
 22
0.0
 32
0.0
 13
1.0
 23
0.0
 33
0.0
 40
0.0
 40
0.0
 40
0.0
 40
0.0
 40
0.1666666666666667
 40
0.1666666666666667
 40
0.1666666666666667
 40
0.1666666666666667
 40
0.3333333333333333
 40
0.3333333333333333
 40
0.3333333333333333
 40
0.3333333333333333
 40
0.5
 40
0.5
 40
0.5
 40
0.5
 40
0.6666666666666666
 40
0.6666666666666666
 40
0.6666666666666666
 40
0.6666666666666666
 40
1.0
 40
1.0
 40
1.0
 40
1.0
 10
35.363
 20
27.1162
 30
0.0
 10
31.1152
 20
32.1964
 30
0.0
 10
24.5602
 20
30.6845
 30
0.0
 10
17.3289
 20
25.6931
 30
0.0
 10
17.3289
 20
25.6931
 30
0.0
 10
18.972
 20
24.5336
 30
0.0
 10
18.6299
 20
20.4988
 30
0.0
 10
15.3995
 20
20.7863
 30
0.0
 10
15.3995
 20
20.7863
 30
0.0
 10
18.5635
 20
16.352
 30
0.0
 10
21.4629
 20
12.6478
 30
0.0
 10
23.8076
 20
9.4855
 30
0.0
 10
23.8076
 20
9.4855
 30
0.0
 10
25.1664
 20
10.7223
 30
0.0
 10
26.4234
 20
11.1206
 30
0.0
 10
28.8159
 20
11.8598
 30
0.0
 10
28.8159
 20
11.8598
 30
0.0
 10
20.9007
 20
18.3788
 30
0.0
 10
27.0345
 20
27.6042
 30
0.0
 10
35.363
 20
27.1162
 30
0.0
  0
SPLINE
  5
6A
330
1F
100
AcDbEntity
  8
layer 1
 62
     7
100
AcDbSpline
210
0.0
220
0.0
230
1.0
 70
    11
 71
     3
 72
    40
 73
    36
 74
     0
 42
0.0000000001
 43
0.0000000001
 12
1.0
 22
0.0
 32
0.0
 13
1.0
 23
0.0
 33
0.0
 40
0.0
 40
0.0
 40
0.0
 40
0.0
 40
0.1
 40
0.1
 40
0.1
 40
0.1
 40
0.2
 40
0.2
 40
0.2
 40
0.2
 40
0.3
 40
0.3
 40
0.3
 40
0.3
 40
0.4
 40
0.4
 40
0.4
 40
0.4
 40
0.5
 40
0.5
 40
0.5
 40
0.5
 40
0.6
 40
0.6
 40
0.6
 40
0.6
 40
0.7
 40
0.7
 40
0.7
 40
0.7
 40
0.8
 40
0.8
 40
0.8
 40
0.8
 40
1.0
 40
1.0
 40
1.0
 40
1.0
 10
4.6085
 20
12.5063
 30
0.0
 10
5.5278
 20
10.9871
 30
0.0
 10
8.2378
 20
11.8774
 30
0.0
 10
6.864
 20
14.2782
 30
0.0
 10
6.864
 20
14.2782
 30
0.0
 10
9.3
 20
17.0835
 30
0.0
 10
10.7454
 20
18.5666
 30
0.0
 10
11.8893
 20
19.8002
 30
0.0
 10
11.8893
 20
19.8002
 30
0.0
 10
15.0532
 20
15.3659
 30
0.0
 10
17.9527
 20
11.6618
 30
0.0
 10
20.2973
 20
8.4994
 30
0.0
 10
20.2973
 20
8.4994
 30
0.0
 10
17.6684
 20
8.2272
 30
0.0
 10
16.5539
 20
10.7814
 30
0.0
 10
14.5278
 20
10.3348
 30
0.0
 10
14.5278
 20
10.3348
 30
0.0
 10
15.2714
 20
11.5356
 30
0.0
 10
15.2439
 20
14.9685
 30
0.0
 10
12.3588
 20
15.6134
 30
0.0
 10
12.3588
 20
15.6134
 30
0.0
 10
13.0546
 20
13.4736
 30
0.0
 10
12.463
 20
10.4977
 30
0.0
 10
11.13
 20
9.3657
 30
0.0
 10
11.13
 20
9.3657
 30
0.0
 10
7.7386
 20
10.598
 30
0.0
 10
5.7102
 20
10.3946
 30
0.0
 10
2.4188
 20
10.5913
 30
0.0
 10
2.4188
 20
10.5913
 30
0.0
 10
3.3055
 20
11.5126
 30
0.0
 10
3.8188
 20
11.8049
 30
0.0
 10
4.6085
 20
12.5057
 30
0.0
 10
4.6085
 20
12.5057
 30
0.0
 10
4.6085
 20
12.5057
 30
0.0
 10
4.6085
 20
12.5063
 30
0.0
 10
4.6085
 20
12.5063
 30
0.0
  0
SPLINE
  5
6B
330
1F
100
AcDbEntity
  8
layer 1
 62
     7
100
AcDbSpline
210
0.0
220
0.0
230
1.0
 70
    11
 71
     3
 72
    16
 73
    12
 74
     0
 42
0.0000000001
 43
0.0000000001
 12
1.0
 22
0.0
 32
0.0
 13
1.0
 23
0.0
 33
0.0
 40
0.0
 40
0.0
 40
0.0
 40
0.0
 40
0.25
 40
0.25
 40
0.25
 40
0.25
 40
0.5
 40
0.5
 40
0.5
 40
0.5
 40
1.0
 40
1.0
 40
1.0
 40
1.0
 10
46.9992
 20
80.4277
 30
0.0
 10
47.4461
 20
76.8481
 30
0.0
 10
46.8063
 20
73.8787
 30
0.0
 10
45.7407
 20
71.2395
 30
0.0
 10
45.7407
 20
71.2395
 30
0.0
 10
49.0784
 20
69.8896
 30
0.0
 10
48.7427
 20
67.1201
 30
0.0
 10
48.0652
 20
63.5719
 30
0.0
 10
48.0652
 20
63.5719
 30
0.0
 10
53.3064
 20
70.0337
 30
0.0
 10
50.1393
 20
79.4786
 30
0.0
 10
46.9992
 20
80.4277
 30
0.0
  0
SPLINE
  5
6C
330
1F
100
AcDbEntity
  8
layer 1
 62
     7
100
AcDbSpline
210
0.0
220
0.0
230
1.0
 70
    11
 71
     3
 72
    20
 73
    16
 74
     0
 42
0.0000000001
 43
0.0000000001
 12
1.0
 22
0.0
 32
0.0
 13
1.0
 23
0.0
 33
0.0
 40
0.0
 40
0.0
 40
0.0
 40
0.0
 40
0.2
 40
0.2
 40
0.2
 40
0.2
 40
0.4
 40
0.4
 40
0.4
 40
0.4
 40
0.6
 40
0.6
 40
0.6
 40
0.6
 40
1.0
 40
1.0
 40
1.0
 40
1.0
 10
46.0371
 20
85.8545
 30
0.0
 10
53.4879
 20
85.313
 30
0.0
 10
52.2037
 20
82.113
 30
0.0
 10
53.4879
 20
76.9302
 30
0.0
 10
53.4879
 20
76.9302
 30
0.0
 10
53.4879
 20
80.1555
 30
0.0
 10
53.4879
 20
83.4961
 30
0.0
 10
53.4879
 20
86.7438
 30
0.0
 10
53.4879
 20
86.7438
 30
0.0
 10
51.8498
 20
88.6722
 30
0.0
 10
47.3132
 20
88.3678
 30
0.0
 10
46.0371
 20
85.8542
 30
0.0
 10
46.0371
 20
85.8542
 30
0.0
 10
46.0371
 20
85.8542
 30
0.0
 10
46.0371
 20
85.8545
 30
0.0
 10
46.0371
 20
85.8545
 30
0.0
  0
SPLINE
  5
6D
330
1F
100
AcDbEntity
  8
layer 1
 62
     7
100
AcDbSpline
210
0.0
220
0.0
230
1.0
 70
    11
 71
     3
 72
    24
 73
    20
 74
     0
 42
0.0000000001
 43
0.0000000001
 12
1.0
 22
0.0
 32
0.0
 13
1.0
 23
0.0
 33
0.0
 40
0.0
 40
0.0
 40
0.0
 40
0.0
 40
0.1666666666666667
 40
0.1666666666666667
 40
0.1666666666666667
 40
0.1666666666666667
 40
0.3333333333333333
 40
0.3333333333333333
 40
0.3333333333333333
 40
0.3333333333333333
 40
0.5
 40
0.5
 40
0.5
 40
0.5
 40
0.6666666666666666
 40
0.6666666666666666
 40
0.6666666666666666
 40
0.6666666666666666
 40
1.0
 40
1.0
 40
1.0
 40
1.0
 10
43.2593
 20
100.3541
 30
0.0
 10
48.3623
 20
100.5627
 30
0.0
 10
51.3467
 20
98.2414
 30
0.0
 10
53.4879
 20
94.9867
 30
0.0
 10
53.4879
 20
94.9867
 30
0.0
 10
53.4879
 20
98.212
 30
0.0
 10
53.4879
 20
108.9177
 30
0.0
 10
53.4879
 20
112.1654
 30
0.0
 10
53.4879
 20
112.1654
 30
0.0
 10
51.776
 20
111.6834
 30
0.0
 10
49.8591
 20
112.5621
 30
0.0
 10
48.108
 20
114.5426
 30
0.0
 10
48.108
 20
114.5426
 30
0.0
 10
49.8939
 20
107.4828
 30
0.0
 10
46.6335
 20
102.8866
 30
0.0
 10
43.2593
 20
100.3538
 30
0.0
 10
43.2593
 20
100.3538
 30
0.0
 10
43.2593
 20
100.3538
 30
0.0
 10
43.2593
 20
100.3541
 30
0.0
 10
43.2593
 20
100.3541
 30
0.0
  0
SPLINE
  5
6E
330
1F
100
AcDbEntity
  8
layer 1
 62
     7
100
AcDbSpline
210
0.0
220
0.0
230
1.0
 70
    11
 71
     3
 72
    12
 73
     8
 74
     0
 42
0.0000000001
 43
0.0000000001
 12
1.0
 22
0.0
 32
0.0
 13
1.0
 23
0.0
 33
0.0
 40
0.0
 40
0.0
 40
0.0
 40
0.0
 40
0.3333333333333333
 40
0.3333333333333333
 40
0.3333333333333333
 40
0.3333333333333333
 40
1.0
 40
1.0
 40
1.0
 40
1.0
 10
40.1427
 20
95.6783
 30
0.0
 10
41.8775
 20
94.3628
 30
0.0
 10
43.3322
 20
91.6988
 30
0.0
 10
44.2592
 20
89.9097
 30
0.0
 10
44.2592
 20
89.9097
 30
0.0
 10
46.7076
 20
94.0306
 30
0.0
 10
42.6802
 20
96.779
 30
0.0
 10
40.1427
 20
95.6783
 30
0.0
  0
SPLINE
  5
6F
330
1F
100
AcDbEntity
  8
layer 1
 62
     7
100
AcDbSpline
210
0.0
220
0.0
230
1.0
 70
    11
 71
     3
 72
    60
 73
    56
 74
     0
 42
0.0000000001
 43
0.0000000001
 12
1.0
 22
0.0
 32
0.0
 13
1.0
 23
0.0
 33
0.0
 40
0.0
 40
0.0
 40
0.0
 40
0.0
 40
0.0666666666666667
 40
0.0666666666666667
 40
0.0666666666666667
 40
0.0666666666666667
 40
0.1333333333333333
 40
0.1333333333333333
 40
0.1333333333333333
 40
0.1333333333333333
 40
0.2
 40
0.2
 40
0.2
 40
0.2
 40
0.2666666666666667
 40
0.2666666666666667
 40
0.2666666666666667
 40
0.2666666666666667
 40
0.3333333333333333
 40
0.3333333333333333
 40
0.3333333333333333
 40
0.3333333333333333
 40
0.4
 40
0.4
 40
0.4
 40
0.4
 40
0.4666666666666667
 40
0.4666666666666667
 40
0.4666666666666667
 40
0.4666666666666667
 40
0.5333333333333333
 40
0.5333333333333333
 40
0.5333333333333333
 40
0.5333333333333333
 40
0.6
 40
0.6
 40
0.6
 40
0.6
 40
0.6666666666666666
 40
0.6666666666666666
 40
0.6666666666666666
 40
0.6666666666666666
 40
0.7333333333333333
 40
0.7333333333333333
 40
0.7333333333333333
 40
0.7333333333333333
 40
0.8
 40
0.8
 40
0.8
 40
0.8
 40
0.8666666666666667
 40
0.8666666666666667
 40
0.8666666666666667
 40
0.8666666666666667
 40
1.0
 40
1.0
 40
1.0
 40
1.0
 10
15.6413
 20
88.9028
 30
0.0
 10
21.3837
 20
92.076
 30
0.0
 10
24.9543
 20
93.6412
 30
0.0
 10
30.6996
 20
97.4204
 30
0.0
 10
30.6996
 20
97.4204
 30
0.0
 10
28.216
 20
98.7908
 30
0.0
 10
25.568
 20
100.4062
 30
0.0
 10
21.746
 20
102.6786
 30
0.0
 10
21.746
 20
102.6786
 30
0.0
 10
18.9752
 20
104.1735
 30
0.0
 10
12.8035
 20
101.788
 30
0.0
 10
10.4323
 20
103.0523
 30
0.0
 10
10.4323
 20
103.0523
 30
0.0
 10
7.6923
 20
104.5134
 30
0.0
 10
8.357
 20
107.9348
 30
0.0
 10
11.8164
 20
108.9078
 30
0.0
 10
11.8164
 20
108.9078
 30
0.0
 10
9.6976
 20
109.8211
 30
0.0
 10
8.2819
 20
111.1707
 30
0.0
 10
6.5305
 20
112.0469
 30
0.0
 10
6.5305
 20
112.0469
 30
0.0
 10
6.7094
 20
111.34
 30
0.0
 10
7.0336
 20
100.5585
 30
0.0
 10
3.5732
 20
97.8721
 30
0.0
 10
3.5732
 20
97.8721
 30
0.0
 10
3.5732
 20
97.8721
 30
0.0
 10
2.9989
 20
87.7586
 30
0.0
 10
2.9989
 20
87.7586
 30
0.0
 10
2.9989
 20
87.7586
 30
0.0
 10
5.7776
 20
86.739
 30
0.0
 10
8.1605
 20
83.078
 30
0.0
 10
4.8033
 20
79.048
 30
0.0
 10
4.8033
 20
79.048
 30
0.0
 10
5.8798
 20
79.088
 30
0.0
 10
7.4322
 20
78.7034
 30
0.0
 10
8.4605
 20
78.4731
 30
0.0
 10
8.4605
 20
78.4731
 30
0.0
 10
9.6651
 20
80.16
 30
0.0
 10
10.2921
 20
80.7206
 30
0.0
 10
11.1546
 20
81.8622
 30
0.0
 10
11.1546
 20
81.8622
 30
0.0
 10
5.8344
 20
83.4038
 30
0.0
 10
6.964
 20
89.2328
 30
0.0
 10
9.2303
 20
89.9949
 30
0.0
 10
9.2303
 20
89.9949
 30
0.0
 10
15.1031
 20
91.97
 30
0.0
 10
17.0704
 20
95.4515
 30
0.0
 10
17.1618
 20
101.1616
 30
0.0
 10
17.1618
 20
101.1616
 30
0.0
 10
21.4923
 20
98.8889
 30
0.0
 10
19.6732
 20
92.3782
 30
0.0
 10
15.641
 20
88.9025
 30
0.0
 10
15.641
 20
88.9025
 30
0.0
 10
15.641
 20
88.9025
 30
0.0
 10
15.6413
 20
88.9028
 30
0.0
 10
15.6413
 20
88.9028
 30
0.0
  0
SPLINE
  5
70
330
1F
100
AcDbEntity
  8
layer 1
 62
     7
100
AcDbSpline
210
0.0
220
0.0
230
1.0
 70
    11
 71
     3
 72
    24
 73
    20
 74
     0
 42
0.0000000001
 43
0.0000000001
 12
1.0
 22
0.0
 32
0.0
 13
1.0
 23
0.0
 33
0.0
 40
0.0
 40
0.0
 40
0.0
 40
0.0
 40
0.1666666666666667
 40
0.1666666666666667
 40
0.1666666666666667
 40
0.1666666666666667
 40
0.3333333333333333
 40
0.3333333333333333
 40
0.3333333333333333
 40
0.3333333333333333
 40
0.5
 40
0.5
 40
0.5
 40
0.5
 40
0.6666666666666666
 40
0.6666666666666666
 40
0.6666666666666666
 40
0.6666666666666666
 40
1.0
 40
1.0
 40
1.0
 40
1.0
 10
2.3137
 20
22.6425
 30
0.0
 10
4.1907
 20
23.1993
 30
0.0
 10
5.3291
 20
23.8867
 30
0.0
 10
6.4327
 20
24.9316
 30
0.0
 10
6.4327
 20
24.9316
 30
0.0
 10
7.1671
 20
23.8647
 30
0.0
 10
8.5135
 20
22.9623
 30
0.0
 10
9.7858
 20
22.669
 30
0.0
 10
9.7858
 20
22.669
 30
0.0
 10
7.5169
 20
20.1845
 30
0.0
 10
6.2686
 20
18.2302
 30
0.0
 10
4.236
 20
16.3293
 30
0.0
 10
4.236
 20
16.3293
 30
0.0
 10
3.9364
 20
20.9384
 30
0.0
 10
3.5099
 20
21.1422
 30
0.0
 10
2.314
 20
22.6425
 30
0.0
 10
2.314
 20
22.6425
 30
0.0
 10
2.314
 20
22.6425
 30
0.0
 10
2.3137
 20
22.6425
 30
0.0
 10
2.3137
 20
22.6425
 30
0.0
  0
SPLINE
  5
71
330
1F
100
AcDbEntity
  8
layer 1
 62
     7
100
AcDbSpline
210
0.0
220
0.0
230
1.0
 70
    11
 71
     3
 72
    16
 73
    12
 74
     0
 42
0.0000000001
 43
0.0000000001
 12
1.0
 22
0.0
 32
0.0
 13
1.0
 23
0.0
 33
0.0
 40
0.0
 40
0.0
 40
0.0
 40
0.0
 40
0.25
 40
0.25
 40
0.25
 40
0.25
 40
0.5
 40
0.5
 40
0.5
 40
0.5
 40
1.0
 40
1.0
 40
1.0
 40
1.0
 10
-5.2623
 20
70.5873
 30
0.0
 10
-8.3528
 20
71.6404
 30
0.0
 10
-10.4856
 20
71.551
 30
0.0
 10
-12.0722
 20
70.6959
 30
0.0
 10
-12.0722
 20
70.6959
 30
0.0
 10
-10.6824
 20
72.5198
 30
0.0
 10
-5.9877
 20
74.5929
 30
0.0
 10
-5.9877
 20
74.5929
 30
0.0
 10
-5.9877
 20
74.5929
 30
0.0
 10
-6.2215
 20
73.6151
 30
0.0
 10
-6.426
 20
71.8595
 30
0.0
 10
-5.2623
 20
70.5873
 30
0.0
  0
SPLINE
  5
72
330
1F
100
AcDbEntity
  8
layer 1
 62
     7
100
AcDbSpline
210
0.0
220
0.0
230
1.0
 70
    11
 71
     3
 72
    36
 73
    32
 74
     0
 42
0.0000000001
 43
0.0000000001
 12
1.0
 22
0.0
 32
0.0
 13
1.0
 23
0.0
 33
0.0
 40
0.0
 40
0.0
 40
0.0
 40
0.0
 40
0.1111111111111111
 40
0.1111111111111111
 40
0.1111111111111111
 40
0.1111111111111111
 40
0.2222222222222222
 40
0.2222222222222222
 40
0.2222222222222222
 40
0.2222222222222222
 40
0.3333333333333333
 40
0.3333333333333333
 40
0.3333333333333333
 40
0.3333333333333333
 40
0.4444444444444444
 40
0.4444444444444444
 40
0.4444444444444444
 40
0.4444444444444444
 40
0.5555555555555556
 40
0.5555555555555556
 40
0.5555555555555556
 40
0.5555555555555556
 40
0.6666666666666666
 40
0.6666666666666666
 40
0.6666666666666666
 40
0.6666666666666666
 40
0.7777777777777778
 40
0.7777777777777778
 40
0.7777777777777778
 40
0.7777777777777778
 40
1.0
 40
1.0
 40
1.0
 40
1.0
 10
3.4901
 20
69.7532
 30
0.0
 10
3.7476
 20
70.3946
 30
0.0
 10
3.853
 20
70.9626
 30
0.0
 10
3.8645
 20
71.4714
 30
0.0
 10
3.8645
 20
71.4714
 30
0.0
 10
1.2238
 20
71.9809
 30
0.0
 10
1.2238
 20
75.7745
 30
0.0
 10
4.1076
 20
76.3313
 30
0.0
 10
4.1076
 20
76.3313
 30
0.0
 10
2.106
 20
77.3681
 30
0.0
 10
0.2431
 20
77.4189
 30
0.0
 10
-1.6604
 20
76.3313
 30
0.0
 10
-1.6604
 20
76.3313
 30
0.0
 10
1.2238
 20
75.7745
 30
0.0
 10
1.2238
 20
71.9809
 30
0.0
 10
-1.4173
 20
71.4714
 30
0.0
 10
-1.4173
 20
71.4714
 30
0.0
 10
-1.4058
 20
70.9629
 30
0.0
 10
-1.3001
 20
70.3946
 30
0.0
 10
-1.0429
 20
69.7532
 30
0.0
 10
-1.0429
 20
69.7532
 30
0.0
 10
1.2235
 20
68.7227
 30
0.0
 10
-1.0317
 20
64.6864
 30
0.0
 10
1.2235
 20
63.8808
 30
0.0
 10
1.2235
 20
63.8808
 30
0.0
 10
3.479
 20
64.6864
 30
0.0
 10
1.2235
 20
68.7227
 30
0.0
 10
3.4898
 20
69.7532
 30
0.0
 10
3.4898
 20
69.7532
 30
0.0
 10
3.4898
 20
69.7532
 30
0.0
 10
3.4901
 20
69.7532
 30
0.0
 10
3.4901
 20
69.7532
 30
0.0
  0
SPLINE
  5
73
330
1F
100
AcDbEntity
  8
layer 1
 62
     7
100
AcDbSpline
210
0.0
220
0.0
230
1.0
 70
    11
 71
     3
 72
    16
 73
    12
 74
     0
 42
0.0000000001
 43
0.0000000001
 12
1.0
 22
0.0
 32
0.0
 13
1.0
 23
0.0
 33
0.0
 40
0.0
 40
0.0
 40
0.0
 40
0.0
 40
0.25
 40
0.25
 40
0.25
 40
0.25
 40
0.5
 40
0.5
 40
0.5
 40
0.5
 40
1.0
 40
1.0
 40
1.0
 40
1.0
 10
8.2784
 20
70.5873
 30
0.0
 10
11.3689
 20
71.6404
 30
0.0
 10
13.5018
 20
71.551
 30
0.0
 10
15.0884
 20
70.6959
 30
0.0
 10
15.0884
 20
70.6959
 30
0.0
 10
13.6985
 20
72.5198
 30
0.0
 10
9.0038
 20
74.5929
 30
0.0
 10
9.0038
 20
74.5929
 30
0.0
 10
9.0038
 20
74.5929
 30
0.0
 10
9.2377
 20
73.6151
 30
0.0
 10
9.4421
 20
71.8595
 30
0.0
 10
8.2784
 20
70.5873
 30
0.0
  0
SPLINE
  5
74
330
1F
100
AcDbEntity
  8
layer 1
 62
     7
100
AcDbSpline
210
0.0
220
0.0
230
1.0
 70
    11
 71
     3
 72
    56
 73
    52
 74
     0
 42
0.0000000001
 43
0.0000000001
 12
1.0
 22
0.0
 32
0.0
 13
1.0
 23
0.0
 33
0.0
 40
0.0
 40
0.0
 40
0.0
 40
0.0
 40
0.0714285714285714
 40
0.0714285714285714
 40
0.0714285714285714
 40
0.0714285714285714
 40
0.1428571428571428
 40
0.1428571428571428
 40
0.1428571428571428
 40
0.1428571428571428
 40
0.2142857142857143
 40
0.2142857142857143
 40
0.2142857142857143
 40
0.2142857142857143
 40
0.2857142857142857
 40
0.2857142857142857
 40
0.2857142857142857
 40
0.2857142857142857
 40
0.3571428571428572
 40
0.3571428571428572
 40
0.3571428571428572
 40
0.3571428571428572
 40
0.4285714285714285
 40
0.4285714285714285
 40
0.4285714285714285
 40
0.4285714285714285
 40
0.5
 40
0.5
 40
0.5
 40
0.5
 40
0.5714285714285714
 40
0.5714285714285714
 40
0.5714285714285714
 40
0.5714285714285714
 40
0.6428571428571429
 40
0.6428571428571429
 40
0.6428571428571429
 40
0.6428571428571429
 40
0.7142857142857143
 40
0.7142857142857143
 40
0.7142857142857143
 40
0.7142857142857143
 40
0.7857142857142857
 40
0.7857142857142857
 40
0.7857142857142857
 40
0.7857142857142857
 40
0.8571428571428571
 40
0.8571428571428571
 40
0.8571428571428571
 40
0.8571428571428571
 40
1.0
 40
1.0
 40
1.0
 40
1.0
 10
3.8562
 20
-19.4902
 30
0.0
 10
5.9223
 20
-19.5103
 30
0.0
 10
9.1425
 20
-20.3101
 30
0.0
 10
11.159
 20
-21.1512
 30
0.0
 10
11.159
 20
-21.1512
 30
0.0
 10
15.0746
 20
-20.8254
 30
0.0
 10
21.3789
 20
-19.7927
 30
0.0
 10
34.2293
 20
-27.4037
 30
0.0
 10
34.2293
 20
-27.4037
 30
0.0
 10
33.6531
 20
-26.3007
 30
0.0
 10
29.8119
 20
-21.0305
 30
0.0
 10
22.9295
 20
-17.9987
 30
0.0
 10
22.9295
 20
-17.9987
 30
0.0
 10
23.2879
 20
-20.8155
 30
0.0
 10
17.8872
 20
-20.5737
 30
0.0
 10
18.5692
 20
-15.3931
 30
0.0
 10
18.5692
 20
-15.3931
 30
0.0
 10
14.8705
 20
-12.8345
 30
0.0
 10
14.807
 20
-12.6208
 30
0.0
 10
11.3699
 20
-10.9
 30
0.0
 10
11.3699
 20
-10.9
 30
0.0
 10
9.0722
 20
-10.2819
 30
0.0
 10
6.3465
 20
-12.3755
 30
0.0
 10
7.3268
 20
-15.3602
 30
0.0
 10
7.3268
 20
-15.3602
 30
0.0
 10
8.333
 20
-18.4229
 30
0.0
 10
13.5244
 20
-18.7347
 30
0.0
 10
13.9812
 20
-14.1882
 30
0.0
 10
13.9812
 20
-14.1882
 30
0.0
 10
15.565
 20
-15.5107
 30
0.0
 10
15.119
 20
-17.4244
 30
0.0
 10
14.546
 20
-18.3367
 30
0.0
 10
14.546
 20
-18.3367
 30
0.0
 10
12.8357
 20
-20.3948
 30
0.0
 10
10.5438
 20
-20.251
 30
0.0
 10
8.8179
 20
-19.7144
 30
0.0
 10
8.8179
 20
-19.7144
 30
0.0
 10
6.2903
 20
-18.9283
 30
0.0
 10
4.5756
 20
-16.1748
 30
0.0
 10
5.1199
 20
-13.09
 30
0.0
 10
5.1199
 20
-13.09
 30
0.0
 10
4.5618
 20
-12.3965
 30
0.0
 10
3.2439
 20
-11.7213
 30
0.0
 10
2.7471
 20
-11.7756
 30
0.0
 10
2.7471
 20
-11.7756
 30
0.0
 10
3.2726
 20
-14.5278
 30
0.0
 10
3.5045
 20
-16.7517
 30
0.0
 10
3.8559
 20
-19.4898
 30
0.0
 10
3.8559
 20
-19.4898
 30
0.0
 10
3.8559
 20
-19.4898
 30
0.0
 10
3.8562
 20
-19.4902
 30
0.0
 10
3.8562
 20
-19.4902
 30
0.0
  0
SPLINE
  5
75
330
1F
100
AcDbEntity
  8
layer 1
 62
     7
100
AcDbSpline
210
0.0
220
0.0
230
1.0
 70
    11
 71
     3
 72
    44
 73
    40
 74
     0
 42
0.0000000001
 43
0.0000000001
 12
1.0
 22
0.0
 32
0.0
 13
1.0
 23
0.0
 33
0.0
 40
0.0
 40
0.0
 40
0.0
 40
0.0
 40
0.0909090909090909
 40
0.0909090909090909
 40
0.0909090909090909
 40
0.0909090909090909
 40
0.1818181818181818
 40
0.1818181818181818
 40
0.1818181818181818
 40
0.1818181818181818
 40
0.2727272727272727
 40
0.2727272727272727
 40
0.2727272727272727
 40
0.2727272727272727
 40
0.3636363636363636
 40
0.3636363636363636
 40
0.3636363636363636
 40
0.3636363636363636
 40
0.4545454545454545
 40
0.4545454545454545
 40
0.4545454545454545
 40
0.4545454545454545
 40
0.5454545454545454
 40
0.5454545454545454
 40
0.5454545454545454
 40
0.5454545454545454
 40
0.6363636363636364
 40
0.6363636363636364
 40
0.6363636363636364
 40
0.6363636363636364
 40
0.7272727272727273
 40
0.7272727272727273
 40
0.7272727272727273
 40
0.7272727272727273
 40
0.8181818181818182
 40
0.8181818181818182
 40
0.8181818181818182
 40
0.8181818181818182
 40
1.0
 40
1.0
 40
1.0
 40
1.0
 10
-50.856
 20
-50.7248
 30
0.0
 10
-47.6735
 20
-42.8572
 30
0.0
 10
-43.8933
 20
-42.3474
 30
0.0
 10
-40.0998
 20
-34.4798
 30
0.0
 10
-40.0998
 20
-34.4798
 30
0.0
 10
-39.635
 20
-32.4696
 30
0.0
 10
-38.1988
 20
-25.9245
 30
0.0
 10
-41.8199
 20
-25.3025
 30
0.0
 10
-41.8199
 20
-25.3025
 30
0.0
 10
-46.5941
 20
-32.9315
 30
0.0
 10
-52.4889
 20
-22.947
 30
0.0
 10
-45.0417
 20
-20.1284
 30
0.0
 10
-45.0417
 20
-20.1284
 30
0.0
 10
-38.2305
 20
-19.4755
 30
0.0
 10
-35.8852
 20
-23.5258
 30
0.0
 10
-34.9295
 20
-25.5929
 30
0.0
 10
-34.9295
 20
-25.5929
 30
0.0
 10
-32.459
 20
-23.2575
 30
0.0
 10
-30.8851
 20
-21.1953
 30
0.0
 10
-29.6962
 20
-19.2126
 30
0.0
 10
-29.6962
 20
-19.2126
 30
0.0
 10
-35.2195
 20
-21.5019
 30
0.0
 10
-39.926
 20
-17.7144
 30
0.0
 10
-37.5581
 20
-11.3194
 30
0.0
 10
-37.5581
 20
-11.3194
 30
0.0
 10
-43.6391
 20
-11.0195
 30
0.0
 10
-46.5315
 20
-6.6497
 30
0.0
 10
-48.1731
 20
-4.3459
 30
0.0
 10
-48.1731
 20
-4.3459
 30
0.0
 10
-48.735
 20
-2.2888
 30
0.0
 10
-49.9405
 20
-3.0267
 30
0.0
 10
-50.856
 20
-2.6836
 30
0.0
 10
-50.856
 20
-2.6836
 30
0.0
 10
-50.856
 20
-15.8033
 30
0.0
 10
-50.856
 20
-37.6054
 30
0.0
 10
-50.856
 20
-50.7251
 30
0.0
 10
-50.856
 20
-50.7251
 30
0.0
 10
-50.856
 20
-50.7251
 30
0.0
 10
-50.856
 20
-50.7248
 30
0.0
 10
-50.856
 20
-50.7248
 30
0.0
  0
SPLINE
  5
76
330
1F
100
AcDbEntity
  8
layer 1
 62
     7
100
AcDbSpline
210
0.0
220
0.0
230
1.0
 70
    11
 71
     3
 72
    28
 73
    24
 74
     0
 42
0.0000000001
 43
0.0000000001
 12
1.0
 22
0.0
 32
0.0
 13
1.0
 23
0.0
 33
0.0
 40
0.0
 40
0.0
 40
0.0
 40
0.0
 40
0.1428571428571428
 40
0.1428571428571428
 40
0.1428571428571428
 40
0.1428571428571428
 40
0.2857142857142857
 40
0.2857142857142857
 40
0.2857142857142857
 40
0.2857142857142857
 40
0.4285714285714285
 40
0.4285714285714285
 40
0.4285714285714285
 40
0.4285714285714285
 40
0.5714285714285714
 40
0.5714285714285714
 40
0.5714285714285714
 40
0.5714285714285714
 40
0.7142857142857143
 40
0.7142857142857143
 40
0.7142857142857143
 40
0.7142857142857143
 40
1.0
 40
1.0
 40
1.0
 40
1.0
 10
-36.7349
 20
-7.5782
 30
0.0
 10
-35.8283
 20
-8.0238
 30
0.0
 10
-30.782
 20
-9.8532
 30
0.0
 10
-28.293
 20
-4.5385
 30
0.0
 10
-28.293
 20
-4.5385
 30
0.0
 10
-27.4573
 20
-1.3311
 30
0.0
 10
-29.8096
 20
1.5179
 30
0.0
 10
-32.6149
 20
-1.2484
 30
0.0
 10
-32.6149
 20
-1.2484
 30
0.0
 10
-33.731
 20
-3.1733
 30
0.0
 10
-35.7699
 20
-2.7609
 30
0.0
 10
-36.2807
 20
-1.3723
 30
0.0
 10
-36.2807
 20
-1.3723
 30
0.0
 10
-36.7774
 20
-0.0224
 30
0.0
 10
-35.7708
 20
2.2737
 30
0.0
 10
-35.1457
 20
2.6123
 30
0.0
 10
-35.1457
 20
2.6123
 30
0.0
 10
-35.8152
 20
4.7774
 30
0.0
 10
-40.1308
 20
6.1503
 30
0.0
 10
-40.615
 20
3.0448
 30
0.0
 10
-40.615
 20
3.0448
 30
0.0
 10
-41.9084
 20
-3.7157
 30
0.0
 10
-33.286
 20
-1.249
 30
0.0
 10
-36.7349
 20
-7.5782
 30
0.0
  0
SPLINE
  5
77
330
1F
100
AcDbEntity
  8
layer 1
 62
     7
100
AcDbSpline
210
0.0
220
0.0
230
1.0
 70
    11
 71
     3
 72
    24
 73
    20
 74
     0
 42
0.0000000001
 43
0.0000000001
 12
1.0
 22
0.0
 32
0.0
 13
1.0
 23
0.0
 33
0.0
 40
0.0
 40
0.0
 40
0.0
 40
0.0
 40
0.1666666666666667
 40
0.1666666666666667
 40
0.1666666666666667
 40
0.1666666666666667
 40
0.3333333333333333
 40
0.3333333333333333
 40
0.3333333333333333
 40
0.3333333333333333
 40
0.5
 40
0.5
 40
0.5
 40
0.5
 40
0.6666666666666666
 40
0.6666666666666666
 40
0.6666666666666666
 40
0.6666666666666666
 40
1.0
 40
1.0
 40
1.0
 40
1.0
 10
-32.7315
 20
-12.6598
 30
0.0
 10
-28.4837
 20
-17.74
 30
0.0
 10
-21.9286
 20
-16.2281
 30
0.0
 10
-14.6973
 20
-11.2367
 30
0.0
 10
-14.6973
 20
-11.2367
 30
0.0
 10
-16.3405
 20
-10.0772
 30
0.0
 10
-15.9984
 20
-6.0424
 30
0.0
 10
-12.768
 20
-6.3299
 30
0.0
 10
-12.768
 20
-6.3299
 30
0.0
 10
-15.9319
 20
-1.8956
 30
0.0
 10
-18.8314
 20
1.8086
 30
0.0
 10
-21.176
 20
4.9709
 30
0.0
 10
-21.176
 20
4.9709
 30
0.0
 10
-22.5349
 20
3.7341
 30
0.0
 10
-23.7919
 20
3.3358
 30
0.0
 10
-26.1844
 20
2.5966
 30
0.0
 10
-26.1844
 20
2.5966
 30
0.0
 10
-18.2692
 20
-3.9223
 30
0.0
 10
-24.4029
 20
-13.1478
 30
0.0
 10
-32.7315
 20
-12.6598
 30
0.0
  0
SPLINE
  5
78
330
1F
100
AcDbEntity
  8
layer 1
 62
     7
100
AcDbSpline
210
0.0
220
0.0
230
1.0
 70
    11
 71
     3
 72
    40
 73
    36
 74
     0
 42
0.0000000001
 43
0.0000000001
 12
1.0
 22
0.0
 32
0.0
 13
1.0
 23
0.0
 33
0.0
 40
0.0
 40
0.0
 40
0.0
 40
0.0
 40
0.1
 40
0.1
 40
0.1
 40
0.1
 40
0.2
 40
0.2
 40
0.2
 40
0.2
 40
0.3
 40
0.3
 40
0.3
 40
0.3
 40
0.4
 40
0.4
 40
0.4
 40
0.4
 40
0.5
 40
0.5
 40
0.5
 40
0.5
 40
0.6
 40
0.6
 40
0.6
 40
0.6
 40
0.7
 40
0.7
 40
0.7
 40
0.7
 40
0.8
 40
0.8
 40
0.8
 40
0.8
 40
1.0
 40
1.0
 40
1.0
 40
1.0
 10
-1.9769
 20
1.9504
 30
0.0
 10
-2.8963
 20
3.4696
 30
0.0
 10
-5.6063
 20
2.5794
 30
0.0
 10
-4.2324
 20
0.1785
 30
0.0
 10
-4.2324
 20
0.1785
 30
0.0
 10
-6.6684
 20
-2.6267
 30
0.0
 10
-8.1138
 20
-4.1099
 30
0.0
 10
-9.2577
 20
-5.3435
 30
0.0
 10
-9.2577
 20
-5.3435
 30
0.0
 10
-12.4217
 20
-0.9092
 30
0.0
 10
-15.3212
 20
2.795
 30
0.0
 10
-17.6658
 20
5.9573
 30
0.0
 10
-17.6658
 20
5.9573
 30
0.0
 10
-15.0369
 20
6.2295
 30
0.0
 10
-13.9224
 20
3.6753
 30
0.0
 10
-11.8962
 20
4.1219
 30
0.0
 10
-11.8962
 20
4.1219
 30
0.0
 10
-12.6399
 20
2.9212
 30
0.0
 10
-12.6124
 20
-0.5118
 30
0.0
 10
-9.7273
 20
-1.1567
 30
0.0
 10
-9.7273
 20
-1.1567
 30
0.0
 10
-10.423
 20
0.9832
 30
0.0
 10
-9.8314
 20
3.959
 30
0.0
 10
-8.4984
 20
5.091
 30
0.0
 10
-8.4984
 20
5.091
 30
0.0
 10
-5.107
 20
3.8587
 30
0.0
 10
-3.0786
 20
4.0622
 30
0.0
 10
0.2128
 20
3.8654
 30
0.0
 10
0.2128
 20
3.8654
 30
0.0
 10
-0.674
 20
2.9441
 30
0.0
 10
-1.1873
 20
2.6519
 30
0.0
 10
-1.9769
 20
1.951
 30
0.0
 10
-1.9769
 20
1.951
 30
0.0
 10
-1.9769
 20
1.951
 30
0.0
 10
-1.9769
 20
1.9504
 30
0.0
 10
-1.9769
 20
1.9504
 30
0.0
  0
SPLINE
  5
79
330
1F
100
AcDbEntity
  8
layer 1
 62
     7
100
AcDbSpline
210
0.0
220
0.0
230
1.0
 70
    11
 71
     3
 72
    16
 73
    12
 74
     0
 42
0.0000000001
 43
0.0000000001
 12
1.0
 22
0.0
 32
0.0
 13
1.0
 23
0.0
 33
0.0
 40
0.0
 40
0.0
 40
0.0
 40
0.0
 40
0.25
 40
0.25
 40
0.25
 40
0.25
 40
0.5
 40
0.5
 40
0.5
 40
0.5
 40
1.0
 40
1.0
 40
1.0
 40
1.0
 10
-44.3674
 20
-65.9709
 30
0.0
 10
-44.8143
 20
-62.3914
 30
0.0
 10
-44.1744
 20
-59.4219
 30
0.0
 10
-43.1088
 20
-56.7828
 30
0.0
 10
-43.1088
 20
-56.7828
 30
0.0
 10
-46.4466
 20
-55.4329
 30
0.0
 10
-46.1108
 20
-52.6634
 30
0.0
 10
-45.4333
 20
-49.1152
 30
0.0
 10
-45.4333
 20
-49.1152
 30
0.0
 10
-50.6746
 20
-55.577
 30
0.0
 10
-47.5074
 20
-65.0219
 30
0.0
 10
-44.3674
 20
-65.9709
 30
0.0
  0
SPLINE
  5
7A
330
1F
100
AcDbEntity
  8
layer 1
 62
     7
100
AcDbSpline
210
0.0
220
0.0
230
1.0
 70
    11
 71
     3
 72
    20
 73
    16
 74
     0
 42
0.0000000001
 43
0.0000000001
 12
1.0
 22
0.0
 32
0.0
 13
1.0
 23
0.0
 33
0.0
 40
0.0
 40
0.0
 40
0.0
 40
0.0
 40
0.2
 40
0.2
 40
0.2
 40
0.2
 40
0.4
 40
0.4
 40
0.4
 40
0.4
 40
0.6
 40
0.6
 40
0.6
 40
0.6
 40
1.0
 40
1.0
 40
1.0
 40
1.0
 10
-43.4053
 20
-71.3977
 30
0.0
 10
-50.856
 20
-70.8563
 30
0.0
 10
-49.5719
 20
-67.6562
 30
0.0
 10
-50.856
 20
-62.4735
 30
0.0
 10
-50.856
 20
-62.4735
 30
0.0
 10
-50.856
 20
-65.6988
 30
0.0
 10
-50.856
 20
-69.0394
 30
0.0
 10
-50.856
 20
-72.287
 30
0.0
 10
-50.856
 20
-72.287
 30
0.0
 10
-49.2179
 20
-74.2155
 30
0.0
 10
-44.6814
 20
-73.911
 30
0.0
 10
-43.4053
 20
-71.3974
 30
0.0
 10
-43.4053
 20
-71.3974
 30
0.0
 10
-43.4053
 20
-71.3974
 30
0.0
 10
-43.4053
 20
-71.3977
 30
0.0
 10
-43.4053
 20
-71.3977
 30
0.0
  0
SPLINE
  5
7B
330
1F
100
AcDbEntity
  8
layer 1
 62
     7
100
AcDbSpline
210
0.0
220
0.0
230
1.0
 70
    11
 71
     3
 72
    24
 73
    20
 74
     0
 42
0.0000000001
 43
0.0000000001
 12
1.0
 22
0.0
 32
0.0
 13
1.0
 23
0.0
 33
0.0
 40
0.0
 40
0.0
 40
0.0
 40
0.0
 40
0.1666666666666667
 40
0.1666666666666667
 40
0.1666666666666667
 40
0.1666666666666667
 40
0.3333333333333333
 40
0.3333333333333333
 40
0.3333333333333333
 40
0.3333333333333333
 40
0.5
 40
0.5
 40
0.5
 40
0.5
 40
0.6666666666666666
 40
0.6666666666666666
 40
0.6666666666666666
 40
0.6666666666666666
 40
1.0
 40
1.0
 40
1.0
 40
1.0
 10
-40.6275
 20
-85.8974
 30
0.0
 10
-45.7304
 20
-86.106
 30
0.0
 10
-48.7148
 20
-83.7847
 30
0.0
 10
-50.856
 20
-80.53
 30
0.0
 10
-50.856
 20
-80.53
 30
0.0
 10
-50.856
 20
-83.7553
 30
0.0
 10
-50.856
 20
-94.461
 30
0.0
 10
-50.856
 20
-97.7087
 30
0.0
 10
-50.856
 20
-97.7087
 30
0.0
 10
-49.1442
 20
-97.2266
 30
0.0
 10
-47.2273
 20
-98.1054
 30
0.0
 10
-45.4761
 20
-100.0859
 30
0.0
 10
-45.4761
 20
-100.0859
 30
0.0
 10
-47.2621
 20
-93.0261
 30
0.0
 10
-44.0016
 20
-88.4298
 30
0.0
 10
-40.6275
 20
-85.8971
 30
0.0
 10
-40.6275
 20
-85.8971
 30
0.0
 10
-40.6275
 20
-85.8971
 30
0.0
 10
-40.6275
 20
-85.8974
 30
0.0
 10
-40.6275
 20
-85.8974
 30
0.0
  0
SPLINE
  5
7C
330
1F
100
AcDbEntity
  8
layer 1
 62
     7
100
AcDbSpline
210
0.0
220
0.0
230
1.0
 70
    11
 71
     3
 72
    12
 73
     8
 74
     0
 42
0.0000000001
 43
0.0000000001
 12
1.0
 22
0.0
 32
0.0
 13
1.0
 23
0.0
 33
0.0
 40
0.0
 40
0.0
 40
0.0
 40
0.0
 40
0.3333333333333333
 40
0.3333333333333333
 40
0.3333333333333333
 40
0.3333333333333333
 40
1.0
 40
1.0
 40
1.0
 40
1.0
 10
-37.5111
 20
-81.2215
 30
0.0
 10
-39.2459
 20
-79.9061
 30
0.0
 10
-40.7006
 20
-77.2421
 30
0.0
 10
-41.6276
 20
-75.4529
 30
0.0
 10
-41.6276
 20
-75.4529
 30
0.0
 10
-44.0761
 20
-79.5739
 30
0.0
 10
-40.0487
 20
-82.3223
 30
0.0
 10
-37.5111
 20
-81.2215
 30
0.0
  0
SPLINE
  5
7D
330
1F
100
AcDbEntity
  8
layer 1
 62
     7
100
AcDbSpline
210
0.0
220
0.0
230
1.0
 70
    11
 71
     3
 72
    60
 73
    56
 74
     0
 42
0.0000000001
 43
0.0000000001
 12
1.0
 22
0.0
 32
0.0
 13
1.0
 23
0.0
 33
0.0
 40
0.0
 40
0.0
 40
0.0
 40
0.0
 40
0.0666666666666667
 40
0.0666666666666667
 40
0.0666666666666667
 40
0.0666666666666667
 40
0.1333333333333333
 40
0.1333333333333333
 40
0.1333333333333333
 40
0.1333333333333333
 40
0.2
 40
0.2
 40
0.2
 40
0.2
 40
0.2666666666666667
 40
0.2666666666666667
 40
0.2666666666666667
 40
0.2666666666666667
 40
0.3333333333333333
 40
0.3333333333333333
 40
0.3333333333333333
 40
0.3333333333333333
 40
0.4
 40
0.4
 40
0.4
 40
0.4
 40
0.4666666666666667
 40
0.4666666666666667
 40
0.4666666666666667
 40
0.4666666666666667
 40
0.5333333333333333
 40
0.5333333333333333
 40
0.5333333333333333
 40
0.5333333333333333
 40
0.6
 40
0.6
 40
0.6
 40
0.6
 40
0.6666666666666666
 40
0.6666666666666666
 40
0.6666666666666666
 40
0.6666666666666666
 40
0.7333333333333333
 40
0.7333333333333333
 40
0.7333333333333333
 40
0.7333333333333333
 40
0.8
 40
0.8
 40
0.8
 40
0.8
 40
0.8666666666666667
 40
0.8666666666666667
 40
0.8666666666666667
 40
0.8666666666666667
 40
1.0
 40
1.0
 40
1.0
 40
1.0
 10
-13.0098
 20
-74.4461
 30
0.0
 10
-18.7522
 20
-77.6193
 30
0.0
 10
-22.3228
 20
-79.1845
 30
0.0
 10
-28.0681
 20
-82.9637
 30
0.0
 10
-28.0681
 20
-82.9637
 30
0.0
 10
-25.5845
 20
-84.3341
 30
0.0
 10
-22.9364
 20
-85.9494
 30
0.0
 10
-19.1144
 20
-88.2219
 30
0.0
 10
-19.1144
 20
-88.2219
 30
0.0
 10
-16.3437
 20
-89.7168
 30
0.0
 10
-10.1719
 20
-87.3313
 30
0.0
 10
-7.8008
 20
-88.5956
 30
0.0
 10
-7.8008
 20
-88.5956
 30
0.0
 10
-5.0607
 20
-90.0567
 30
0.0
 10
-5.7255
 20
-93.4781
 30
0.0
 10
-9.1849
 20
-94.4511
 30
0.0
 10
-9.1849
 20
-94.4511
 30
0.0
 10
-7.0661
 20
-95.3644
 30
0.0
 10
-5.6504
 20
-96.714
 30
0.0
 10
-3.8989
 20
-97.5902
 30
0.0
 10
-3.8989
 20
-97.5902
 30
0.0
 10
-4.0778
 20
-96.8833
 30
0.0
 10
-4.4021
 20
-86.1018
 30
0.0
 10
-0.9417
 20
-83.4154
 30
0.0
 10
-0.9417
 20
-83.4154
 30
0.0
 10
-0.9417
 20
-83.4154
 30
0.0
 10
-0.3673
 20
-73.3019
 30
0.0
 10
-0.3673
 20
-73.3019
 30
0.0
 10
-0.3673
 20
-73.3019
 30
0.0
 10
-3.146
 20
-72.2823
 30
0.0
 10
-5.529
 20
-68.6212
 30
0.0
 10
-2.1718
 20
-64.5913
 30
0.0
 10
-2.1718
 20
-64.5913
 30
0.0
 10
-3.2483
 20
-64.6312
 30
0.0
 10
-4.8007
 20
-64.2466
 30
0.0
 10
-5.8289
 20
-64.0163
 30
0.0
 10
-5.8289
 20
-64.0163
 30
0.0
 10
-7.0335
 20
-65.7032
 30
0.0
 10
-7.6606
 20
-66.2638
 30
0.0
 10
-8.523
 20
-67.4055
 30
0.0
 10
-8.523
 20
-67.4055
 30
0.0
 10
-3.2029
 20
-68.9471
 30
0.0
 10
-4.3324
 20
-74.7761
 30
0.0
 10
-6.5988
 20
-75.5382
 30
0.0
 10
-6.5988
 20
-75.5382
 30
0.0
 10
-12.4715
 20
-77.5133
 30
0.0
 10
-14.4389
 20
-80.9947
 30
0.0
 10
-14.5303
 20
-86.7049
 30
0.0
 10
-14.5303
 20
-86.7049
 30
0.0
 10
-18.8608
 20
-84.4321
 30
0.0
 10
-17.0416
 20
-77.9215
 30
0.0
 10
-13.0094
 20
-74.4458
 30
0.0
 10
-13.0094
 20
-74.4458
 30
0.0
 10
-13.0094
 20
-74.4458
 30
0.0
 10
-13.0098
 20
-74.4461
 30
0.0
 10
-13.0098
 20
-74.4461
 30
0.0
  0
SPLINE
  5
7E
330
1F
100
AcDbEntity
  8
layer 1
 62
     7
100
AcDbSpline
210
0.0
220
0.0
230
1.0
 70
    11
 71
     3
 72
    24
 73
    20
 74
     0
 42
0.0000000001
 43
0.0000000001
 12
1.0
 22
0.0
 32
0.0
 13
1.0
 23
0.0
 33
0.0
 40
0.0
 40
0.0
 40
0.0
 40
0.0
 40
0.1666666666666667
 40
0.1666666666666667
 40
0.1666666666666667
 40
0.1666666666666667
 40
0.3333333333333333
 40
0.3333333333333333
 40
0.3333333333333333
 40
0.3333333333333333
 40
0.5
 40
0.5
 40
0.5
 40
0.5
 40
0.6666666666666666
 40
0.6666666666666666
 40
0.6666666666666666
 40
0.6666666666666666
 40
1.0
 40
1.0
 40
1.0
 40
1.0
 10
0.3182
 20
-8.1858
 30
0.0
 10
-1.5588
 20
-8.7426
 30
0.0
 10
-2.6972
 20
-9.43
 30
0.0
 10
-3.8009
 20
-10.4748
 30
0.0
 10
-3.8009
 20
-10.4748
 30
0.0
 10
-4.5353
 20
-9.4079
 30
0.0
 10
-5.8817
 20
-8.5055
 30
0.0
 10
-7.154
 20
-8.2123
 30
0.0
 10
-7.154
 20
-8.2123
 30
0.0
 10
-4.885
 20
-5.7278
 30
0.0
 10
-3.6367
 20
-3.7735
 30
0.0
 10
-1.6042
 20
-1.8726
 30
0.0
 10
-1.6042
 20
-1.8726
 30
0.0
 10
-1.3045
 20
-6.4816
 30
0.0
 10
-0.8781
 20
-6.6854
 30
0.0
 10
0.3179
 20
-8.1858
 30
0.0
 10
0.3179
 20
-8.1858
 30
0.0
 10
0.3179
 20
-8.1858
 30
0.0
 10
0.3182
 20
-8.1858
 30
0.0
 10
0.3182
 20
-8.1858
 30
0.0
  0
SPLINE
  5
7F
330
1F
100
AcDbEntity
  8
layer 1
 62
     7
100
AcDbSpline
210
0.0
220
0.0
230
1.0
 70
    11
 71
     3
 72
    20
 73
    16
 74
     0
 42
0.0000000001
 43
0.0000000001
 12
1.0
 22
0.0
 32
0.0
 13
1.0
 23
0.0
 33
0.0
 40
0.0
 40
0.0
 40
0.0
 40
0.0
 40
0.2
 40
0.2
 40
0.2
 40
0.2
 40
0.4
 40
0.4
 40
0.4
 40
0.4
 40
0.6
 40
0.6
 40
0.6
 40
0.6
 40
1.0
 40
1.0
 40
1.0
 40
1.0
 10
-1.1895
 20
-97.8828
 30
0.0
 10
-0.2111
 20
-97.4739
 30
0.0
 10
0.4514
 20
-97.2576
 30
0.0
 10
1.3158
 20
-97.2365
 30
0.0
 10
1.3158
 20
-97.2365
 30
0.0
 10
2.1802
 20
-97.258
 30
0.0
 10
2.8427
 20
-97.4742
 30
0.0
 10
3.8211
 20
-97.8828
 30
0.0
 10
3.8211
 20
-97.8828
 30
0.0
 10
2.031
 20
-96.4674
 30
0.0
 10
4.6104
 20
-89.7606
 30
0.0
 10
1.3158
 20
-89.5143
 30
0.0
 10
1.3158
 20
-89.5143
 30
0.0
 10
-1.9788
 20
-89.7606
 30
0.0
 10
0.6006
 20
-96.4674
 30
0.0
 10
-1.1895
 20
-97.8828
 30
0.0
  0
SPLINE
  5
80
330
1F
100
AcDbEntity
  8
layer 1
 62
     7
100
AcDbSpline
210
0.0
220
0.0
230
1.0
 70
    11
 71
     3
 72
    24
 73
    20
 74
     0
 42
0.0000000001
 43
0.0000000001
 12
1.0
 22
0.0
 32
0.0
 13
1.0
 23
0.0
 33
0.0
 40
0.0
 40
0.0
 40
0.0
 40
0.0
 40
0.1666666666666667
 40
0.1666666666666667
 40
0.1666666666666667
 40
0.1666666666666667
 40
0.3333333333333333
 40
0.3333333333333333
 40
0.3333333333333333
 40
0.3333333333333333
 40
0.5
 40
0.5
 40
0.5
 40
0.5
 40
0.6666666666666666
 40
0.6666666666666666
 40
0.6666666666666666
 40
0.6666666666666666
 40
1.0
 40
1.0
 40
1.0
 40
1.0
 10
3.4394
 20
-68.4475
 30
0.0
 10
3.439
 20
-68.4481
 30
0.0
 10
3.439
 20
-68.4488
 30
0.0
 10
3.439
 20
-68.4494
 30
0.0
 10
3.439
 20
-68.4494
 30
0.0
 10
3.439
 20
-69.6728
 30
0.0
 10
4.4312
 20
-70.665
 30
0.0
 10
5.6546
 20
-70.665
 30
0.0
 10
5.6546
 20
-70.665
 30
0.0
 10
6.878
 20
-70.665
 30
0.0
 10
7.8702
 20
-69.6728
 30
0.0
 10
7.8702
 20
-68.4494
 30
0.0
 10
7.8702
 20
-68.4494
 30
0.0
 10
7.8702
 20
-68.4488
 30
0.0
 10
7.8702
 20
-68.4481
 30
0.0
 10
7.8702
 20
-68.4475
 30
0.0
 10
7.8702
 20
-68.4475
 30
0.0
 10
7.8702
 20
-68.4475
 30
0.0
 10
3.4394
 20
-68.4475
 30
0.0
 10
3.4394
 20
-68.4475
 30
0.0
  0
SPLINE
  5
81
330
1F
100
AcDbEntity
  8
layer 1
 62
     7
100
AcDbSpline
210
0.0
220
0.0
230
1.0
 70
    11
 71
     3
 72
   160
 73
   156
 74
     0
 42
0.0000000001
 43
0.0000000001
 12
1.0
 22
0.0
 32
0.0
 13
1.0
 23
0.0
 33
0.0
 40
0.0
 40
0.0
 40
0.0
 40
0.0
 40
0.025
 40
0.025
 40
0.025
 40
0.025
 40
0.05
 40
0.05
 40
0.05
 40
0.05
 40
0.075
 40
0.075
 40
0.075
 40
0.075
 40
0.1
 40
0.1
 40
0.1
 40
0.1
 40
0.125
 40
0.125
 40
0.125
 40
0.125
 40
0.15
 40
0.15
 40
0.15
 40
0.15
 40
0.175
 40
0.175
 40
0.175
 40
0.175
 40
0.2
 40
0.2
 40
0.2
 40
0.2
 40
0.225
 40
0.225
 40
0.225
 40
0.225
 40
0.25
 40
0.25
 40
0.25
 40
0.25
 40
0.275
 40
0.275
 40
0.275
 40
0.275
 40
0.3
 40
0.3
 40
0.3
 40
0.3
 40
0.325
 40
0.325
 40
0.325
 40
0.325
 40
0.35
 40
0.35
 40
0.35
 40
0.35
 40
0.375
 40
0.375
 40
0.375
 40
0.375
 40
0.4
 40
0.4
 40
0.4
 40
0.4
 40
0.425
 40
0.425
 40
0.425
 40
0.425
 40
0.45
 40
0.45
 40
0.45
 40
0.45
 40
0.475
 40
0.475
 40
0.475
 40
0.475
 40
0.5
 40
0.5
 40
0.5
 40
0.5
 40
0.525
 40
0.525
 40
0.525
 40
0.525
 40
0.55
 40
0.55
 40
0.55
 40
0.55
 40
0.575
 40
0.575
 40
0.575
 40
0.575
 40
0.6
 40
0.6
 40
0.6
 40
0.6
 40
0.625
 40
0.625
 40
0.625
 40
0.625
 40
0.65
 40
0.65
 40
0.65
 40
0.65
 40
0.675
 40
0.675
 40
0.675
 40
0.675
 40
0.7
 40
0.7
 40
0.7
 40
0.7
 40
0.725
 40
0.725
 40
0.725
 40
0.725
 40
0.75
 40
0.75
 40
0.75
 40
0.75
 40
0.775
 40
0.775
 40
0.775
 40
0.775
 40
0.8
 40
0.8
 40
0.8
 40
0.8
 40
0.825
 40
0.825
 40
0.825
 40
0.825
 40
0.85
 40
0.85
 40
0.85
 40
0.85
 40
0.875
 40
0.875
 40
0.875
 40
0.875
 40
0.9
 40
0.9
 40
0.9
 40
0.9
 40
0.925
 40
0.925
 40
0.925
 40
0.925
 40
0.95
 40
0.95
 40
0.95
 40
0.95
 40
1.0
 40
1.0
 40
1.0
 40
1.0
 10
-2.8276
 20
-44.4342
 30
0.0
 10
-4.6381
 20
-47.6467
 30
0.0
 10
-6.9648
 20
-48.3255
 30
0.0
 10
-9.082
 20
-46.5425
 30
0.0
 10
-9.082
 20
-46.5425
 30
0.0
 10
-13.0931
 20
-43.2683
 30
0.0
 10
-14.7935
 20
-45.978
 30
0.0
 10
-16.8394
 20
-47.5001
 30
0.0
 10
-16.8394
 20
-47.5001
 30
0.0
 10
-16.8484
 20
-47.4934
 30
0.0
 10
-17.4674
 20
-45.0469
 30
0.0
 10
-14.7107
 20
-43.0425
 30
0.0
 10
-14.7107
 20
-43.0425
 30
0.0
 10
-9.689
 20
-40.0465
 30
0.0
 10
-7.9356
 20
-44.6457
 30
0.0
 10
-5.1112
 20
-43.4386
 30
0.0
 10
-5.1112
 20
-43.4386
 30
0.0
 10
-6.234
 20
-43.4865
 30
0.0
 10
-7.4366
 20
-40.4378
 30
0.0
 10
-4.1213
 20
-38.6196
 30
0.0
 10
-4.1213
 20
-38.6196
 30
0.0
 10
-9.1577
 20
-42.1487
 30
0.0
 10
-13.923
 20
-38.5775
 30
0.0
 10
-14.475
 20
-34.8363
 30
0.0
 10
-14.475
 20
-34.8363
 30
0.0
 10
-14.9254
 20
-26.4777
 30
0.0
 10
-7.0294
 20
-26.3605
 30
0.0
 10
-5.0907
 20
-29.0153
 30
0.0
 10
-5.0907
 20
-29.0153
 30
0.0
 10
-2.9723
 20
-32.8098
 30
0.0
 10
-7.1131
 20
-33.7477
 30
0.0
 10
-6.8058
 20
-32.9765
 30
0.0
 10
-6.8058
 20
-32.9765
 30
0.0
 10
-5.8494
 20
-30.5757
 30
0.0
 10
-10.5674
 20
-29.0728
 30
0.0
 10
-10.9795
 20
-32.9363
 30
0.0
 10
-10.9795
 20
-32.9363
 30
0.0
 10
-11.1938
 20
-37.4345
 30
0.0
 10
-5.8481
 20
-38.4717
 30
0.0
 10
-3.2355
 20
-35.6719
 30
0.0
 10
-3.2355
 20
-35.6719
 30
0.0
 10
0.0709
 20
-31.1226
 30
0.0
 10
-2.6113
 20
-24.8183
 30
0.0
 10
-8.3707
 20
-24.0168
 30
0.0
 10
-8.3707
 20
-24.0168
 30
0.0
 10
-13.7515
 20
-26.6898
 30
0.0
 10
-20.2318
 20
-34.1128
 30
0.0
 10
-19.7913
 20
-38.9882
 30
0.0
 10
-19.7913
 20
-38.9882
 30
0.0
 10
-16.6494
 20
-38.0945
 30
0.0
 10
-15.975
 20
-40.3998
 30
0.0
 10
-16.1453
 20
-41.683
 30
0.0
 10
-16.1453
 20
-41.683
 30
0.0
 10
-16.3555
 20
-43.2677
 30
0.0
 10
-18.1909
 20
-44.8259
 30
0.0
 10
-20.2976
 20
-43.1987
 30
0.0
 10
-20.2976
 20
-43.1987
 30
0.0
 10
-19.6629
 20
-47.8668
 30
0.0
 10
-18.3523
 20
-50.0511
 30
0.0
 10
-17.0963
 20
-51.6754
 30
0.0
 10
-17.0963
 20
-51.6754
 30
0.0
 10
-16.3031
 20
-44.9824
 30
0.0
 10
-8.5345
 20
-47.1928
 30
0.0
 10
-8.4476
 20
-49.9297
 30
0.0
 10
-8.4476
 20
-49.9297
 30
0.0
 10
-8.6195
 20
-54.1555
 30
0.0
 10
-2.5292
 20
-53.4061
 30
0.0
 10
-2.0852
 20
-48.0486
 30
0.0
 10
-2.0852
 20
-48.0486
 30
0.0
 10
-1.6399
 20
-44.2001
 30
0.0
 10
0.4932
 20
-42.4004
 30
0.0
 10
1.2241
 20
-42.3822
 30
0.0
 10
1.2241
 20
-42.3822
 30
0.0
 10
1.955
 20
-42.4001
 30
0.0
 10
4.3929
 20
-44.2001
 30
0.0
 10
4.8385
 20
-48.0486
 30
0.0
 10
4.8385
 20
-48.0486
 30
0.0
 10
5.2825
 20
-53.4061
 30
0.0
 10
11.3724
 20
-54.1558
 30
0.0
 10
11.2009
 20
-49.9297
 30
0.0
 10
11.2009
 20
-49.9297
 30
0.0
 10
11.2878
 20
-47.1928
 30
0.0
 10
19.0563
 20
-44.9824
 30
0.0
 10
19.8495
 20
-51.6754
 30
0.0
 10
19.8495
 20
-51.6754
 30
0.0
 10
21.1055
 20
-50.0511
 30
0.0
 10
22.4161
 20
-47.8668
 30
0.0
 10
23.0508
 20
-43.1987
 30
0.0
 10
23.0508
 20
-43.1987
 30
0.0
 10
20.9442
 20
-44.8259
 30
0.0
 10
19.1087
 20
-43.2677
 30
0.0
 10
18.8986
 20
-41.683
 30
0.0
 10
18.8986
 20
-41.683
 30
0.0
 10
18.7286
 20
-40.3995
 30
0.0
 10
19.4029
 20
-38.0942
 30
0.0
 10
22.5445
 20
-38.9882
 30
0.0
 10
22.5445
 20
-38.9882
 30
0.0
 10
22.985
 20
-34.1128
 30
0.0
 10
16.5044
 20
-26.6895
 30
0.0
 10
11.1239
 20
-24.0168
 30
0.0
 10
11.1239
 20
-24.0168
 30
0.0
 10
5.3646
 20
-24.8179
 30
0.0
 10
2.682
 20
-31.1226
 30
0.0
 10
5.9887
 20
-35.6719
 30
0.0
 10
5.9887
 20
-35.6719
 30
0.0
 10
8.6014
 20
-38.4717
 30
0.0
 10
13.947
 20
-37.4345
 30
0.0
 10
13.7327
 20
-32.9363
 30
0.0
 10
13.7327
 20
-32.9363
 30
0.0
 10
13.3206
 20
-29.0728
 30
0.0
 10
8.6026
 20
-30.5757
 30
0.0
 10
9.559
 20
-32.9765
 30
0.0
 10
9.559
 20
-32.9765
 30
0.0
 10
9.8663
 20
-33.7477
 30
0.0
 10
5.7252
 20
-32.8098
 30
0.0
 10
7.844
 20
-29.0153
 30
0.0
 10
7.844
 20
-29.0153
 30
0.0
 10
9.7826
 20
-26.3605
 30
0.0
 10
17.679
 20
-26.4777
 30
0.0
 10
17.2282
 20
-34.8363
 30
0.0
 10
17.2282
 20
-34.8363
 30
0.0
 10
16.6763
 20
-38.5775
 30
0.0
 10
11.911
 20
-42.1487
 30
0.0
 10
6.8745
 20
-38.6196
 30
0.0
 10
6.8745
 20
-38.6196
 30
0.0
 10
10.1899
 20
-40.4378
 30
0.0
 10
8.9872
 20
-43.4865
 30
0.0
 10
7.8644
 20
-43.4386
 30
0.0
 10
7.8644
 20
-43.4386
 30
0.0
 10
10.6888
 20
-44.6454
 30
0.0
 10
12.4422
 20
-40.0465
 30
0.0
 10
17.464
 20
-43.0425
 30
0.0
 10
17.464
 20
-43.0425
 30
0.0
 10
20.2207
 20
-45.0469
 30
0.0
 10
19.6016
 20
-47.4934
 30
0.0
 10
19.5927
 20
-47.5001
 30
0.0
 10
19.5927
 20
-47.5001
 30
0.0
 10
17.5464
 20
-45.978
 30
0.0
 10
15.8464
 20
-43.268
 30
0.0
 10
11.8353
 20
-46.5425
 30
0.0
 10
11.8353
 20
-46.5425
 30
0.0
 10
9.7181
 20
-48.3255
 30
0.0
 10
7.3914
 20
-47.6467
 30
0.0
 10
5.5808
 20
-44.4342
 30
0.0
 10
5.5808
 20
-44.4342
 30
0.0
 10
4.6308
 20
-41.2642
 30
0.0
 10
3.5614
 20
-39.1713
 30
0.0
 10
1.2244
 20
-39.0965
 30
0.0
 10
1.2244
 20
-39.0965
 30
0.0
 10
-1.1125
 20
-39.1713
 30
0.0
 10
-1.8766
 20
-41.2642
 30
0.0
 10
-2.8269
 20
-44.4342
 30
0.0
 10
-2.8269
 20
-44.4342
 30
0.0
 10
-2.8269
 20
-44.4342
 30
0.0
 10
-2.8276
 20
-44.4342
 30
0.0
 10
-2.8276
 20
-44.4342
 30
0.0
  0
SPLINE
  5
82
330
1F
100
AcDbEntity
  8
layer 1
 62
     7
100
AcDbSpline
210
0.0
220
0.0
230
1.0
 70
    11
 71
     3
 72
    44
 73
    40
 74
     0
 42
0.0000000001
 43
0.0000000001
 12
1.0
 22
0.0
 32
0.0
 13
1.0
 23
0.0
 33
0.0
 40
0.0
 40
0.0
 40
0.0
 40
0.0
 40
0.0909090909090909
 40
0.0909090909090909
 40
0.0909090909090909
 40
0.0909090909090909
 40
0.1818181818181818
 40
0.1818181818181818
 40
0.1818181818181818
 40
0.1818181818181818
 40
0.2727272727272727
 40
0.2727272727272727
 40
0.2727272727272727
 40
0.2727272727272727
 40
0.3636363636363636
 40
0.3636363636363636
 40
0.3636363636363636
 40
0.3636363636363636
 40
0.4545454545454545
 40
0.4545454545454545
 40
0.4545454545454545
 40
0.4545454545454545
 40
0.5454545454545454
 40
0.5454545454545454
 40
0.5454545454545454
 40
0.5454545454545454
 40
0.6363636363636364
 40
0.6363636363636364
 40
0.6363636363636364
 40
0.6363636363636364
 40
0.7272727272727273
 40
0.7272727272727273
 40
0.7272727272727273
 40
0.7272727272727273
 40
0.8181818181818182
 40
0.8181818181818182
 40
0.8181818181818182
 40
0.8181818181818182
 40
1.0
 40
1.0
 40
1.0
 40
1.0
 10
53.4879
 20
-50.7248
 30
0.0
 10
50.3054
 20
-42.8572
 30
0.0
 10
46.5252
 20
-42.3474
 30
0.0
 10
42.7316
 20
-34.4798
 30
0.0
 10
42.7316
 20
-34.4798
 30
0.0
 10
42.2669
 20
-32.4696
 30
0.0
 10
40.8307
 20
-25.9245
 30
0.0
 10
44.4518
 20
-25.3025
 30
0.0
 10
44.4518
 20
-25.3025
 30
0.0
 10
49.226
 20
-32.9315
 30
0.0
 10
55.1208
 20
-22.947
 30
0.0
 10
47.6736
 20
-20.1284
 30
0.0
 10
47.6736
 20
-20.1284
 30
0.0
 10
40.8623
 20
-19.4755
 30
0.0
 10
38.5171
 20
-23.5258
 30
0.0
 10
37.5613
 20
-25.5929
 30
0.0
 10
37.5613
 20
-25.5929
 30
0.0
 10
35.0908
 20
-23.2575
 30
0.0
 10
33.517
 20
-21.1953
 30
0.0
 10
32.3281
 20
-19.2126
 30
0.0
 10
32.3281
 20
-19.2126
 30
0.0
 10
37.8514
 20
-21.5019
 30
0.0
 10
42.5579
 20
-17.7144
 30
0.0
 10
40.1899
 20
-11.3194
 30
0.0
 10
40.1899
 20
-11.3194
 30
0.0
 10
46.2709
 20
-11.0195
 30
0.0
 10
49.1634
 20
-6.6497
 30
0.0
 10
50.8049
 20
-4.3459
 30
0.0
 10
50.8049
 20
-4.3459
 30
0.0
 10
51.3668
 20
-2.2888
 30
0.0
 10
52.5724
 20
-3.0267
 30
0.0
 10
53.4879
 20
-2.6836
 30
0.0
 10
53.4879
 20
-2.6836
 30
0.0
 10
53.4879
 20
-15.8033
 30
0.0
 10
53.4879
 20
-37.6054
 30
0.0
 10
53.4879
 20
-50.7251
 30
0.0
 10
53.4879
 20
-50.7251
 30
0.0
 10
53.4879
 20
-50.7251
 30
0.0
 10
53.4879
 20
-50.7248
 30
0.0
 10
53.4879
 20
-50.7248
 30
0.0
  0
SPLINE
  5
83
330
1F
100
AcDbEntity
  8
layer 1
 62
     7
100
AcDbSpline
210
0.0
220
0.0
230
1.0
 70
    11
 71
     3
 72
    28
 73
    24
 74
     0
 42
0.0000000001
 43
0.0000000001
 12
1.0
 22
0.0
 32
0.0
 13
1.0
 23
0.0
 33
0.0
 40
0.0
 40
0.0
 40
0.0
 40
0.0
 40
0.1428571428571428
 40
0.1428571428571428
 40
0.1428571428571428
 40
0.1428571428571428
 40
0.2857142857142857
 40
0.2857142857142857
 40
0.2857142857142857
 40
0.2857142857142857
 40
0.4285714285714285
 40
0.4285714285714285
 40
0.4285714285714285
 40
0.4285714285714285
 40
0.5714285714285714
 40
0.5714285714285714
 40
0.5714285714285714
 40
0.5714285714285714
 40
0.7142857142857143
 40
0.7142857142857143
 40
0.7142857142857143
 40
0.7142857142857143
 40
1.0
 40
1.0
 40
1.0
 40
1.0
 10
53.4879
 20
0.3376
 30
0.0
 10
52.5915
 20
0.8126
 30
0.0
 10
50.8462
 20
0.2063
 30
0.0
 10
50.3296
 20
-0.3856
 30
0.0
 10
50.3296
 20
-0.3856
 30
0.0
 10
50.3041
 20
4.1082
 30
0.0
 10
47.6515
 20
7.2536
 30
0.0
 10
44.4476
 20
7.2284
 30
0.0
 10
44.4476
 20
7.2284
 30
0.0
 10
47.6515
 20
7.2031
 30
0.0
 10
50.3041
 20
10.3486
 30
0.0
 10
50.3296
 20
14.8423
 30
0.0
 10
50.3296
 20
14.8423
 30
0.0
 10
50.8462
 20
14.2504
 30
0.0
 10
52.5915
 20
13.6441
 30
0.0
 10
53.4879
 20
14.1191
 30
0.0
 10
53.4879
 20
14.1191
 30
0.0
 10
53.4879
 20
9.5251
 30
0.0
 10
53.4879
 20
4.9313
 30
0.0
 10
53.4879
 20
0.3373
 30
0.0
 10
53.4879
 20
0.3373
 30
0.0
 10
53.4879
 20
0.3373
 30
0.0
 10
53.4879
 20
0.3376
 30
0.0
 10
53.4879
 20
0.3376
 30
0.0
  0
SPLINE
  5
84
330
1F
100
AcDbEntity
  8
layer 1
 62
     7
100
AcDbSpline
210
0.0
220
0.0
230
1.0
 70
    11
 71
     3
 72
    12
 73
     8
 74
     0
 42
0.0000000001
 43
0.0000000001
 12
1.0
 22
0.0
 32
0.0
 13
1.0
 23
0.0
 33
0.0
 40
0.0
 40
0.0
 40
0.0
 40
0.0
 40
0.3333333333333333
 40
0.3333333333333333
 40
0.3333333333333333
 40
0.3333333333333333
 40
1.0
 40
1.0
 40
1.0
 40
1.0
 10
28.8262
 20
7.2284
 30
0.0
 10
29.7452
 20
9.4241
 30
0.0
 10
36.3539
 20
9.2092
 30
0.0
 10
37.2374
 20
7.2284
 30
0.0
 10
37.2374
 20
7.2284
 30
0.0
 10
36.3539
 20
5.2476
 30
0.0
 10
29.7452
 20
5.0326
 30
0.0
 10
28.8262
 20
7.2284
 30
0.0
  0
SPLINE
  5
85
330
1F
100
AcDbEntity
  8
layer 1
 62
     7
100
AcDbSpline
210
0.0
220
0.0
230
1.0
 70
    11
 71
     3
 72
    28
 73
    24
 74
     0
 42
0.0000000001
 43
0.0000000001
 12
1.0
 22
0.0
 32
0.0
 13
1.0
 23
0.0
 33
0.0
 40
0.0
 40
0.0
 40
0.0
 40
0.0
 40
0.1428571428571428
 40
0.1428571428571428
 40
0.1428571428571428
 40
0.1428571428571428
 40
0.2857142857142857
 40
0.2857142857142857
 40
0.2857142857142857
 40
0.2857142857142857
 40
0.4285714285714285
 40
0.4285714285714285
 40
0.4285714285714285
 40
0.4285714285714285
 40
0.5714285714285714
 40
0.5714285714285714
 40
0.5714285714285714
 40
0.5714285714285714
 40
0.7142857142857143
 40
0.7142857142857143
 40
0.7142857142857143
 40
0.7142857142857143
 40
1.0
 40
1.0
 40
1.0
 40
1.0
 10
39.3668
 20
-7.5782
 30
0.0
 10
38.4602
 20
-8.0238
 30
0.0
 10
33.4138
 20
-9.8532
 30
0.0
 10
30.9248
 20
-4.5385
 30
0.0
 10
30.9248
 20
-4.5385
 30
0.0
 10
30.0892
 20
-1.3311
 30
0.0
 10
32.4415
 20
1.5179
 30
0.0
 10
35.2467
 20
-1.2484
 30
0.0
 10
35.2467
 20
-1.2484
 30
0.0
 10
36.3628
 20
-3.1733
 30
0.0
 10
38.4018
 20
-2.7609
 30
0.0
 10
38.9125
 20
-1.3723
 30
0.0
 10
38.9125
 20
-1.3723
 30
0.0
 10
39.4092
 20
-0.0224
 30
0.0
 10
38.4027
 20
2.2737
 30
0.0
 10
37.7776
 20
2.6123
 30
0.0
 10
37.7776
 20
2.6123
 30
0.0
 10
38.4471
 20
4.7774
 30
0.0
 10
42.7626
 20
6.1503
 30
0.0
 10
43.2469
 20
3.0448
 30
0.0
 10
43.2469
 20
3.0448
 30
0.0
 10
44.5403
 20
-3.7157
 30
0.0
 10
35.9179
 20
-1.249
 30
0.0
 10
39.3668
 20
-7.5782
 30
0.0
  0
SPLINE
  5
86
330
1F
100
AcDbEntity
  8
layer 1
 62
     7
100
AcDbSpline
210
0.0
220
0.0
230
1.0
 70
    11
 71
     3
 72
    24
 73
    20
 74
     0
 42
0.0000000001
 43
0.0000000001
 12
1.0
 22
0.0
 32
0.0
 13
1.0
 23
0.0
 33
0.0
 40
0.0
 40
0.0
 40
0.0
 40
0.0
 40
0.1666666666666667
 40
0.1666666666666667
 40
0.1666666666666667
 40
0.1666666666666667
 40
0.3333333333333333
 40
0.3333333333333333
 40
0.3333333333333333
 40
0.3333333333333333
 40
0.5
 40
0.5
 40
0.5
 40
0.5
 40
0.6666666666666666
 40
0.6666666666666666
 40
0.6666666666666666
 40
0.6666666666666666
 40
1.0
 40
1.0
 40
1.0
 40
1.0
 10
35.363
 20
-12.6598
 30
0.0
 10
31.1152
 20
-17.74
 30
0.0
 10
24.5602
 20
-16.2281
 30
0.0
 10
17.3289
 20
-11.2367
 30
0.0
 10
17.3289
 20
-11.2367
 30
0.0
 10
18.972
 20
-10.0772
 30
0.0
 10
18.6299
 20
-6.0424
 30
0.0
 10
15.3995
 20
-6.3299
 30
0.0
 10
15.3995
 20
-6.3299
 30
0.0
 10
18.5635
 20
-1.8956
 30
0.0
 10
21.4629
 20
1.8086
 30
0.0
 10
23.8076
 20
4.9709
 30
0.0
 10
23.8076
 20
4.9709
 30
0.0
 10
25.1664
 20
3.7341
 30
0.0
 10
26.4234
 20
3.3358
 30
0.0
 10
28.8159
 20
2.5966
 30
0.0
 10
28.8159
 20
2.5966
 30
0.0
 10
20.9007
 20
-3.9223
 30
0.0
 10
27.0345
 20
-13.1478
 30
0.0
 10
35.363
 20
-12.6598
 30
0.0
  0
SPLINE
  5
87
330
1F
100
AcDbEntity
  8
layer 1
 62
     7
100
AcDbSpline
210
0.0
220
0.0
230
1.0
 70
    11
 71
     3
 72
    40
 73
    36
 74
     0
 42
0.0000000001
 43
0.0000000001
 12
1.0
 22
0.0
 32
0.0
 13
1.0
 23
0.0
 33
0.0
 40
0.0
 40
0.0
 40
0.0
 40
0.0
 40
0.1
 40
0.1
 40
0.1
 40
0.1
 40
0.2
 40
0.2
 40
0.2
 40
0.2
 40
0.3
 40
0.3
 40
0.3
 40
0.3
 40
0.4
 40
0.4
 40
0.4
 40
0.4
 40
0.5
 40
0.5
 40
0.5
 40
0.5
 40
0.6
 40
0.6
 40
0.6
 40
0.6
 40
0.7
 40
0.7
 40
0.7
 40
0.7
 40
0.8
 40
0.8
 40
0.8
 40
0.8
 40
1.0
 40
1.0
 40
1.0
 40
1.0
 10
4.6085
 20
1.9504
 30
0.0
 10
5.5278
 20
3.4696
 30
0.0
 10
8.2378
 20
2.5794
 30
0.0
 10
6.864
 20
0.1785
 30
0.0
 10
6.864
 20
0.1785
 30
0.0
 10
9.3
 20
-2.6267
 30
0.0
 10
10.7454
 20
-4.1099
 30
0.0
 10
11.8893
 20
-5.3435
 30
0.0
 10
11.8893
 20
-5.3435
 30
0.0
 10
15.0532
 20
-0.9092
 30
0.0
 10
17.9527
 20
2.795
 30
0.0
 10
20.2973
 20
5.9573
 30
0.0
 10
20.2973
 20
5.9573
 30
0.0
 10
17.6684
 20
6.2295
 30
0.0
 10
16.5539
 20
3.6753
 30
0.0
 10
14.5278
 20
4.1219
 30
0.0
 10
14.5278
 20
4.1219
 30
0.0
 10
15.2714
 20
2.9212
 30
0.0
 10
15.2439
 20
-0.5118
 30
0.0
 10
12.3588
 20
-1.1567
 30
0.0
 10
12.3588
 20
-1.1567
 30
0.0
 10
13.0546
 20
0.9832
 30
0.0
 10
12.463
 20
3.959
 30
0.0
 10
11.13
 20
5.091
 30
0.0
 10
11.13
 20
5.091
 30
0.0
 10
7.7386
 20
3.8587
 30
0.0
 10
5.7102
 20
4.0622
 30
0.0
 10
2.4188
 20
3.8654
 30
0.0
 10
2.4188
 20
3.8654
 30
0.0
 10
3.3055
 20
2.9441
 30
0.0
 10
3.8188
 20
2.6519
 30
0.0
 10
4.6085
 20
1.951
 30
0.0
 10
4.6085
 20
1.951
 30
0.0
 10
4.6085
 20
1.951
 30
0.0
 10
4.6085
 20
1.9504
 30
0.0
 10
4.6085
 20
1.9504
 30
0.0
  0
SPLINE
  5
88
330
1F
100
AcDbEntity
  8
layer 1
 62
     7
100
AcDbSpline
210
0.0
220
0.0
230
1.0
 70
    11
 71
     3
 72
    16
 73
    12
 74
     0
 42
0.0000000001
 43
0.0000000001
 12
1.0
 22
0.0
 32
0.0
 13
1.0
 23
0.0
 33
0.0
 40
0.0
 40
0.0
 40
0.0
 40
0.0
 40
0.25
 40
0.25
 40
0.25
 40
0.25
 40
0.5
 40
0.5
 40
0.5
 40
0.5
 40
1.0
 40
1.0
 40
1.0
 40
1.0
 10
46.9992
 20
-65.9709
 30
0.0
 10
47.4461
 20
-62.3914
 30
0.0
 10
46.8063
 20
-59.4219
 30
0.0
 10
45.7407
 20
-56.7828
 30
0.0
 10
45.7407
 20
-56.7828
 30
0.0
 10
49.0784
 20
-55.4329
 30
0.0
 10
48.7427
 20
-52.6634
 30
0.0
 10
48.0652
 20
-49.1152
 30
0.0
 10
48.0652
 20
-49.1152
 30
0.0
 10
53.3064
 20
-55.577
 30
0.0
 10
50.1393
 20
-65.0219
 30
0.0
 10
46.9992
 20
-65.9709
 30
0.0
  0
SPLINE
  5
89
330
1F
100
AcDbEntity
  8
layer 1
 62
     7
100
AcDbSpline
210
0.0
220
0.0
230
1.0
 70
    11
 71
     3
 72
    20
 73
    16
 74
     0
 42
0.0000000001
 43
0.0000000001
 12
1.0
 22
0.0
 32
0.0
 13
1.0
 23
0.0
 33
0.0
 40
0.0
 40
0.0
 40
0.0
 40
0.0
 40
0.2
 40
0.2
 40
0.2
 40
0.2
 40
0.4
 40
0.4
 40
0.4
 40
0.4
 40
0.6
 40
0.6
 40
0.6
 40
0.6
 40
1.0
 40
1.0
 40
1.0
 40
1.0
 10
46.0371
 20
-71.3977
 30
0.0
 10
53.4879
 20
-70.8563
 30
0.0
 10
52.2037
 20
-67.6562
 30
0.0
 10
53.4879
 20
-62.4735
 30
0.0
 10
53.4879
 20
-62.4735
 30
0.0
 10
53.4879
 20
-65.6988
 30
0.0
 10
53.4879
 20
-69.0394
 30
0.0
 10
53.4879
 20
-72.287
 30
0.0
 10
53.4879
 20
-72.287
 30
0.0
 10
51.8498
 20
-74.2155
 30
0.0
 10
47.3132
 20
-73.911
 30
0.0
 10
46.0371
 20
-71.3974
 30
0.0
 10
46.0371
 20
-71.3974
 30
0.0
 10
46.0371
 20
-71.3974
 30
0.0
 10
46.0371
 20
-71.3977
 30
0.0
 10
46.0371
 20
-71.3977
 30
0.0
  0
SPLINE
  5
8A
330
1F
100
AcDbEntity
  8
layer 1
 62
     7
100
AcDbSpline
210
0.0
220
0.0
230
1.0
 70
    11
 71
     3
 72
    24
 73
    20
 74
     0
 42
0.0000000001
 43
0.0000000001
 12
1.0
 22
0.0
 32
0.0
 13
1.0
 23
0.0
 33
0.0
 40
0.0
 40
0.0
 40
0.0
 40
0.0
 40
0.1666666666666667
 40
0.1666666666666667
 40
0.1666666666666667
 40
0.1666666666666667
 40
0.3333333333333333
 40
0.3333333333333333
 40
0.3333333333333333
 40
0.3333333333333333
 40
0.5
 40
0.5
 40
0.5
 40
0.5
 40
0.6666666666666666
 40
0.6666666666666666
 40
0.6666666666666666
 40
0.6666666666666666
 40
1.0
 40
1.0
 40
1.0
 40
1.0
 10
43.2593
 20
-85.8974
 30
0.0
 10
48.3623
 20
-86.106
 30
0.0
 10
51.3467
 20
-83.7847
 30
0.0
 10
53.4879
 20
-80.53
 30
0.0
 10
53.4879
 20
-80.53
 30
0.0
 10
53.4879
 20
-83.7553
 30
0.0
 10
53.4879
 20
-94.461
 30
0.0
 10
53.4879
 20
-97.7087
 30
0.0
 10
53.4879
 20
-97.7087
 30
0.0
 10
51.776
 20
-97.2266
 30
0.0
 10
49.8591
 20
-98.1054
 30
0.0
 10
48.108
 20
-100.0859
 30
0.0
 10
48.108
 20
-100.0859
 30
0.0
 10
49.8939
 20
-93.0261
 30
0.0
 10
46.6335
 20
-88.4298
 30
0.0
 10
43.2593
 20
-85.8971
 30
0.0
 10
43.2593
 20
-85.8971
 30
0.0
 10
43.2593
 20
-85.8971
 30
0.0
 10
43.2593
 20
-85.8974
 30
0.0
 10
43.2593
 20
-85.8974
 30
0.0
  0
SPLINE
  5
8B
330
1F
100
AcDbEntity
  8
layer 1
 62
     7
100
AcDbSpline
210
0.0
220
0.0
230
1.0
 70
    11
 71
     3
 72
    12
 73
     8
 74
     0
 42
0.0000000001
 43
0.0000000001
 12
1.0
 22
0.0
 32
0.0
 13
1.0
 23
0.0
 33
0.0
 40
0.0
 40
0.0
 40
0.0
 40
0.0
 40
0.3333333333333333
 40
0.3333333333333333
 40
0.3333333333333333
 40
0.3333333333333333
 40
1.0
 40
1.0
 40
1.0
 40
1.0
 10
40.1427
 20
-81.2215
 30
0.0
 10
41.8775
 20
-79.9061
 30
0.0
 10
43.3322
 20
-77.2421
 30
0.0
 10
44.2592
 20
-75.4529
 30
0.0
 10
44.2592
 20
-75.4529
 30
0.0
 10
46.7076
 20
-79.5739
 30
0.0
 10
42.6802
 20
-82.3223
 30
0.0
 10
40.1427
 20
-81.2215
 30
0.0
  0
SPLINE
  5
8C
330
1F
100
AcDbEntity
  8
layer 1
 62
     7
100
AcDbSpline
210
0.0
220
0.0
230
1.0
 70
    11
 71
     3
 72
    60
 73
    56
 74
     0
 42
0.0000000001
 43
0.0000000001
 12
1.0
 22
0.0
 32
0.0
 13
1.0
 23
0.0
 33
0.0
 40
0.0
 40
0.0
 40
0.0
 40
0.0
 40
0.0666666666666667
 40
0.0666666666666667
 40
0.0666666666666667
 40
0.0666666666666667
 40
0.1333333333333333
 40
0.1333333333333333
 40
0.1333333333333333
 40
0.1333333333333333
 40
0.2
 40
0.2
 40
0.2
 40
0.2
 40
0.2666666666666667
 40
0.2666666666666667
 40
0.2666666666666667
 40
0.2666666666666667
 40
0.3333333333333333
 40
0.3333333333333333
 40
0.3333333333333333
 40
0.3333333333333333
 40
0.4
 40
0.4
 40
0.4
 40
0.4
 40
0.4666666666666667
 40
0.4666666666666667
 40
0.4666666666666667
 40
0.4666666666666667
 40
0.5333333333333333
 40
0.5333333333333333
 40
0.5333333333333333
 40
0.5333333333333333
 40
0.6
 40
0.6
 40
0.6
 40
0.6
 40
0.6666666666666666
 40
0.6666666666666666
 40
0.6666666666666666
 40
0.6666666666666666
 40
0.7333333333333333
 40
0.7333333333333333
 40
0.7333333333333333
 40
0.7333333333333333
 40
0.8
 40
0.8
 40
0.8
 40
0.8
 40
0.8666666666666667
 40
0.8666666666666667
 40
0.8666666666666667
 40
0.8666666666666667
 40
1.0
 40
1.0
 40
1.0
 40
1.0
 10
15.6413
 20
-74.4461
 30
0.0
 10
21.3837
 20
-77.6193
 30
0.0
 10
24.9543
 20
-79.1845
 30
0.0
 10
30.6996
 20
-82.9637
 30
0.0
 10
30.6996
 20
-82.9637
 30
0.0
 10
28.216
 20
-84.3341
 30
0.0
 10
25.568
 20
-85.9494
 30
0.0
 10
21.746
 20
-88.2219
 30
0.0
 10
21.746
 20
-88.2219
 30
0.0
 10
18.9752
 20
-89.7168
 30
0.0
 10
12.8035
 20
-87.3313
 30
0.0
 10
10.4323
 20
-88.5956
 30
0.0
 10
10.4323
 20
-88.5956
 30
0.0
 10
7.6923
 20
-90.0567
 30
0.0
 10
8.357
 20
-93.4781
 30
0.0
 10
11.8164
 20
-94.4511
 30
0.0
 10
11.8164
 20
-94.4511
 30
0.0
 10
9.6976
 20
-95.3644
 30
0.0
 10
8.2819
 20
-96.714
 30
0.0
 10
6.5305
 20
-97.5902
 30
0.0
 10
6.5305
 20
-97.5902
 30
0.0
 10
6.7094
 20
-96.8833
 30
0.0
 10
7.0336
 20
-86.1018
 30
0.0
 10
3.5732
 20
-83.4154
 30
0.0
 10
3.5732
 20
-83.4154
 30
0.0
 10
3.5732
 20
-83.4154
 30
0.0
 10
2.9989
 20
-73.3019
 30
0.0
 10
2.9989
 20
-73.3019
 30
0.0
 10
2.9989
 20
-73.3019
 30
0.0
 10
5.7776
 20
-72.2823
 30
0.0
 10
8.1605
 20
-68.6212
 30
0.0
 10
4.8033
 20
-64.5913
 30
0.0
 10
4.8033
 20
-64.5913
 30
0.0
 10
5.8798
 20
-64.6312
 30
0.0
 10
7.4322
 20
-64.2466
 30
0.0
 10
8.4605
 20
-64.0163
 30
0.0
 10
8.4605
 20
-64.0163
 30
0.0
 10
9.6651
 20
-65.7032
 30
0.0
 10
10.2921
 20
-66.2638
 30
0.0
 10
11.1546
 20
-67.4055
 30
0.0
 10
11.1546
 20
-67.4055
 30
0.0
 10
5.8344
 20
-68.9471
 30
0.0
 10
6.964
 20
-74.7761
 30
0.0
 10
9.2303
 20
-75.5382
 30
0.0
 10
9.2303
 20
-75.5382
 30
0.0
 10
15.1031
 20
-77.5133
 30
0.0
 10
17.0704
 20
-80.9947
 30
0.0
 10
17.1618
 20
-86.7049
 30
0.0
 10
17.1618
 20
-86.7049
 30
0.0
 10
21.4923
 20
-84.4321
 30
0.0
 10
19.6732
 20
-77.9215
 30
0.0
 10
15.641
 20
-74.4458
 30
0.0
 10
15.641
 20
-74.4458
 30
0.0
 10
15.641
 20
-74.4458
 30
0.0
 10
15.6413
 20
-74.4461
 30
0.0
 10
15.6413
 20
-74.4461
 30
0.0
  0
SPLINE
  5
8D
330
1F
100
AcDbEntity
  8
layer 1
 62
     7
100
AcDbSpline
210
0.0
220
0.0
230
1.0
 70
    11
 71
     3
 72
    24
 73
    20
 74
     0
 42
0.0000000001
 43
0.0000000001
 12
1.0
 22
0.0
 32
0.0
 13
1.0
 23
0.0
 33
0.0
 40
0.0
 40
0.0
 40
0.0
 40
0.0
 40
0.1666666666666667
 40
0.1666666666666667
 40
0.1666666666666667
 40
0.1666666666666667
 40
0.3333333333333333
 40
0.3333333333333333
 40
0.3333333333333333
 40
0.3333333333333333
 40
0.5
 40
0.5
 40
0.5
 40
0.5
 40
0.6666666666666666
 40
0.6666666666666666
 40
0.6666666666666666
 40
0.6666666666666666
 40
1.0
 40
1.0
 40
1.0
 40
1.0
 10
2.3137
 20
-8.1858
 30
0.0
 10
4.1907
 20
-8.7426
 30
0.0
 10
5.3291
 20
-9.43
 30
0.0
 10
6.4327
 20
-10.4748
 30
0.0
 10
6.4327
 20
-10.4748
 30
0.0
 10
7.1671
 20
-9.4079
 30
0.0
 10
8.5135
 20
-8.5055
 30
0.0
 10
9.7858
 20
-8.2123
 30
0.0
 10
9.7858
 20
-8.2123
 30
0.0
 10
7.5169
 20
-5.7278
 30
0.0
 10
6.2686
 20
-3.7735
 30
0.0
 10
4.236
 20
-1.8726
 30
0.0
 10
4.236
 20
-1.8726
 30
0.0
 10
3.9364
 20
-6.4816
 30
0.0
 10
3.5099
 20
-6.6854
 30
0.0
 10
2.314
 20
-8.1858
 30
0.0
 10
2.314
 20
-8.1858
 30
0.0
 10
2.314
 20
-8.1858
 30
0.0
 10
2.3137
 20
-8.1858
 30
0.0
 10
2.3137
 20
-8.1858
 30
0.0
  0
SPLINE
  5
8E
330
1F
100
AcDbEntity
  8
layer 1
 62
     7
100
AcDbSpline
210
0.0
220
0.0
230
1.0
 70
    11
 71
     3
 72
    16
 73
    12
 74
     0
 42
0.0000000001
 43
0.0000000001
 12
1.0
 22
0.0
 32
0.0
 13
1.0
 23
0.0
 33
0.0
 40
0.0
 40
0.0
 40
0.0
 40
0.0
 40
0.25
 40
0.25
 40
0.25
 40
0.25
 40
0.5
 40
0.5
 40
0.5
 40
0.5
 40
1.0
 40
1.0
 40
1.0
 40
1.0
 10
-5.2623
 20
-56.1305
 30
0.0
 10
-8.3528
 20
-57.1837
 30
0.0
 10
-10.4856
 20
-57.0942
 30
0.0
 10
-12.0722
 20
-56.2391
 30
0.0
 10
-12.0722
 20
-56.2391
 30
0.0
 10
-10.6824
 20
-58.0631
 30
0.0
 10
-5.9877
 20
-60.1362
 30
0.0
 10
-5.9877
 20
-60.1362
 30
0.0
 10
-5.9877
 20
-60.1362
 30
0.0
 10
-6.2215
 20
-59.1584
 30
0.0
 10
-6.426
 20
-57.4028
 30
0.0
 10
-5.2623
 20
-56.1305
 30
0.0
  0
SPLINE
  5
8F
330
1F
100
AcDbEntity
  8
layer 1
 62
     7
100
AcDbSpline
210
0.0
220
0.0
230
1.0
 70
    11
 71
     3
 72
    36
 73
    32
 74
     0
 42
0.0000000001
 43
0.0000000001
 12
1.0
 22
0.0
 32
0.0
 13
1.0
 23
0.0
 33
0.0
 40
0.0
 40
0.0
 40
0.0
 40
0.0
 40
0.1111111111111111
 40
0.1111111111111111
 40
0.1111111111111111
 40
0.1111111111111111
 40
0.2222222222222222
 40
0.2222222222222222
 40
0.2222222222222222
 40
0.2222222222222222
 40
0.3333333333333333
 40
0.3333333333333333
 40
0.3333333333333333
 40
0.3333333333333333
 40
0.4444444444444444
 40
0.4444444444444444
 40
0.4444444444444444
 40
0.4444444444444444
 40
0.5555555555555556
 40
0.5555555555555556
 40
0.5555555555555556
 40
0.5555555555555556
 40
0.6666666666666666
 40
0.6666666666666666
 40
0.6666666666666666
 40
0.6666666666666666
 40
0.7777777777777778
 40
0.7777777777777778
 40
0.7777777777777778
 40
0.7777777777777778
 40
1.0
 40
1.0
 40
1.0
 40
1.0
 10
3.4901
 20
-55.2968
 30
0.0
 10
3.7476
 20
-55.9382
 30
0.0
 10
3.853
 20
-56.5062
 30
0.0
 10
3.8645
 20
-57.015
 30
0.0
 10
3.8645
 20
-57.015
 30
0.0
 10
1.2238
 20
-57.5245
 30
0.0
 10
1.2238
 20
-61.3181
 30
0.0
 10
4.1076
 20
-61.8749
 30
0.0
 10
4.1076
 20
-61.8749
 30
0.0
 10
2.106
 20
-62.9117
 30
0.0
 10
0.2431
 20
-62.9625
 30
0.0
 10
-1.6604
 20
-61.8749
 30
0.0
 10
-1.6604
 20
-61.8749
 30
0.0
 10
1.2238
 20
-61.3181
 30
0.0
 10
1.2238
 20
-57.5245
 30
0.0
 10
-1.4173
 20
-57.015
 30
0.0
 10
-1.4173
 20
-57.015
 30
0.0
 10
-1.4058
 20
-56.5065
 30
0.0
 10
-1.3001
 20
-55.9382
 30
0.0
 10
-1.0429
 20
-55.2968
 30
0.0
 10
-1.0429
 20
-55.2968
 30
0.0
 10
1.2235
 20
-54.2663
 30
0.0
 10
-1.0317
 20
-50.23
 30
0.0
 10
1.2235
 20
-49.4244
 30
0.0
 10
1.2235
 20
-49.4244
 30
0.0
 10
3.479
 20
-50.23
 30
0.0
 10
1.2235
 20
-54.2663
 30
0.0
 10
3.4898
 20
-55.2968
 30
0.0
 10
3.4898
 20
-55.2968
 30
0.0
 10
3.4898
 20
-55.2968
 30
0.0
 10
3.4901
 20
-55.2968
 30
0.0
 10
3.4901
 20
-55.2968
 30
0.0
  0
SPLINE
  5
90
330
1F
100
AcDbEntity
  8
layer 1
 62
     7
100
AcDbSpline
210
0.0
220
0.0
230
1.0
 70
    11
 71
     3
 72
    16
 73
    12
 74
     0
 42
0.0000000001
 43
0.0000000001
 12
1.0
 22
0.0
 32
0.0
 13
1.0
 23
0.0
 33
0.0
 40
0.0
 40
0.0
 40
0.0
 40
0.0
 40
0.25
 40
0.25
 40
0.25
 40
0.25
 40
0.5
 40
0.5
 40
0.5
 40
0.5
 40
1.0
 40
1.0
 40
1.0
 40
1.0
 10
8.2784
 20
-56.1305
 30
0.0
 10
11.3689
 20
-57.1837
 30
0.0
 10
13.5018
 20
-57.0942
 30
0.0
 10
15.0884
 20
-56.2391
 30
0.0
 10
15.0884
 20
-56.2391
 30
0.0
 10
13.6985
 20
-58.0631
 30
0.0
 10
9.0038
 20
-60.1362
 30
0.0
 10
9.0038
 20
-60.1362
 30
0.0
 10
9.0038
 20
-60.1362
 30
0.0
 10
9.2377
 20
-59.1584
 30
0.0
 10
9.4421
 20
-57.4028
 30
0.0
 10
8.2784
 20
-56.1305
 30
0.0
  0
SPLINE
  5
91
330
1F
100
AcDbEntity
  8
layer 1
 62
     7
100
AcDbSpline
210
0.0
220
0.0
230
1.0
 70
    11
 71
     3
 72
    36
 73
    32
 74
     0
 42
0.0000000001
 43
0.0000000001
 12
1.0
 22
0.0
 32
0.0
 13
1.0
 23
0.0
 33
0.0
 40
0.0
 40
0.0
 40
0.0
 40
0.0
 40
0.1111111111111111
 40
0.1111111111111111
 40
0.1111111111111111
 40
0.1111111111111111
 40
0.2222222222222222
 40
0.2222222222222222
 40
0.2222222222222222
 40
0.2222222222222222
 40
0.3333333333333333
 40
0.3333333333333333
 40
0.3333333333333333
 40
0.3333333333333333
 40
0.4444444444444444
 40
0.4444444444444444
 40
0.4444444444444444
 40
0.4444444444444444
 40
0.5555555555555556
 40
0.5555555555555556
 40
0.5555555555555556
 40
0.5555555555555556
 40
0.6666666666666666
 40
0.6666666666666666
 40
0.6666666666666666
 40
0.6666666666666666
 40
0.7777777777777778
 40
0.7777777777777778
 40
0.7777777777777778
 40
0.7777777777777778
 40
1.0
 40
1.0
 40
1.0
 40
1.0
 10
0.0563
 20
-31.8537
 30
0.0
 10
0.2907
 20
-26.363
 30
0.0
 10
-3.0125
 20
-23.5287
 30
0.0
 10
-5.8986
 20
-22.665
 30
0.0
 10
-5.8986
 20
-22.665
 30
0.0
 10
-4.3561
 20
-21.9951
 30
0.0
 10
-2.3823
 20
-21.5569
 30
0.0
 10
-1.0209
 20
-21.9035
 30
0.0
 10
-1.0209
 20
-21.9035
 30
0.0
 10
-0.7193
 20
-23.7022
 30
0.0
 10
-0.0016
 20
-25.3626
 30
0.0
 10
1.2235
 20
-26.3915
 30
0.0
 10
1.2235
 20
-26.3915
 30
0.0
 10
2.4485
 20
-25.3626
 30
0.0
 10
3.1662
 20
-23.7022
 30
0.0
 10
3.4678
 20
-21.9035
 30
0.0
 10
3.4678
 20
-21.9035
 30
0.0
 10
4.8292
 20
-21.5569
 30
0.0
 10
6.8033
 20
-21.9951
 30
0.0
 10
8.3455
 20
-22.665
 30
0.0
 10
8.3455
 20
-22.665
 30
0.0
 10
5.4594
 20
-23.5287
 30
0.0
 10
2.1562
 20
-26.363
 30
0.0
 10
2.3907
 20
-31.8537
 30
0.0
 10
2.3907
 20
-31.8537
 30
0.0
 10
1.9284
 20
-31.9106
 30
0.0
 10
1.5461
 20
-31.9253
 30
0.0
 10
1.2235
 20
-31.9195
 30
0.0
 10
1.2235
 20
-31.9195
 30
0.0
 10
0.9008
 20
-31.9256
 30
0.0
 10
0.5185
 20
-31.9106
 30
0.0
 10
0.0563
 20
-31.8537
 30
0.0
  0
ENDSEC
  0
SECTION
  2
OBJECTS
  0
DICTIONARY
  5
C
330
0
100
AcDbDictionary
281
     1
  3
ACAD_GROUP
350
D
  3
ACAD_LAYOUT
350
1A
  3
ACAD_MATERIAL
350
3B
  3
ACAD_MLEADERSTYLE
350
B4
  3
ACAD_MLINESTYLE
350
17
  3
ACAD_PLOTSETTINGS
350
19
  3
ACAD_PLOTSTYLENAME
350
E
  3
ACAD_TABLESTYLE
350
B3
  3
ACAD_VISUALSTYLE
350
2A
  0
DICTIONARY
  5
D
102
{ACAD_REACTORS
330
C
102
}
330
C
100
AcDbDictionary
281
     1
  0
DICTIONARY
  5
1A
102
{ACAD_REACTORS
330
C
102
}
330
C
100
AcDbDictionary
281
     1
  3
Layout1
350
1E
  3
Layout2
350
26
  3
Model
350
22
  0
DICTIONARY
  5
3B
102
{ACAD_REACTORS
330
C
102
}
330
C
100
AcDbDictionary
281
     1
  3
ByBlock
350
3D
  3
ByLayer
350
3C
  3
Global
350
3E
  0
DICTIONARY
  5
B4
102
{ACAD_REACTORS
330
C
102
}
330
C
100
AcDbDictionary
281
     1
  0
DICTIONARY
  5
17
102
{ACAD_REACTORS
330
C
102
}
330
C
100
AcDbDictionary
281
     1
  3
Standard
350
18
  0
DICTIONARY
  5
19
102
{ACAD_REACTORS
330
C
102
}
330
C
100
AcDbDictionary
281
     1
  0
ACDBDICTIONARYWDFLT
  5
E
102
{ACAD_REACTORS
330
C
102
}
330
C
100
AcDbDictionary
281
     1
  3
Normal
350
F
100
AcDbDictionaryWithDefault
340
F
  0
DICTIONARY
  5
B3
102
{ACAD_REACTORS
330
C
102
}
330
C
100
AcDbDictionary
281
     1
  0
DICTIONARY
  5
2A
102
{ACAD_REACTORS
330
C
102
}
330
C
100
AcDbDictionary
281
     1
  3
2dWireframe
350
2F
  3
3D Hidden
350
31
  3
3dWireframe
350
30
  3
Basic
350
32
  3
Brighten
350
36
  3
ColorChange
350
3A
  3
Conceptual
350
34
  3
Dim
350
35
  3
Facepattern
350
39
  3
Flat
350
2B
  3
FlatWithEdges
350
2C
  3
Gouraud
350
2D
  3
GouraudWithEdges
350
2E
  3
Linepattern
350
38
  3
Realistic
350
33
  3
Thicken
350
37
  0
LAYOUT
  5
1E
102
{ACAD_REACTORS
330
1A
102
}
330
1A
100
AcDbPlotSettings
  1

  2
none_device
  4

  6

 40
0.0
 41
0.0
 42
0.0
 43
0.0
 44
0.0
 45
0.0
 46
0.0
 47
0.0
 48
0.0
 49
0.0
140
0.0
141
0.0
142
1.0
143
1.0
 70
   688
 72
     0
 73
     0
 74
     5
  7

 75
    16
 76
     0
 77
     2
 78
   300
147
1.0
148
0.0
149
0.0
100
AcDbLayout
  1
Layout1
 70
     1
 71
     1
 10
0.0
 20
0.0
 11
12.0
 21
9.0
 12
0.0
 22
0.0
 32
0.0
 14
1.000000000000000E+20
 24
1.000000000000000E+20
 34
1.000000000000000E+20
 15
-1.000000000000000E+20
 25
-1.000000000000000E+20
 35
-1.000000000000000E+20
146
0.0
 13
0.0
 23
0.0
 33
0.0
 16
1.0
 26
0.0
 36
0.0
 17
0.0
 27
1.0
 37
0.0
 76
     0
330
1B
  0
LAYOUT
  5
26
102
{ACAD_REACTORS
330
1A
102
}
330
1A
100
AcDbPlotSettings
  1

  2
none_device
  4

  6

 40
0.0
 41
0.0
 42
0.0
 43
0.0
 44
0.0
 45
0.0
 46
0.0
 47
0.0
 48
0.0
 49
0.0
140
0.0
141
0.0
142
1.0
143
1.0
 70
   688
 72
     0
 73
     0
 74
     5
  7

 75
    16
 76
     0
 77
     2
 78
   300
147
1.0
148
0.0
149
0.0
100
AcDbLayout
  1
Layout2
 70
     1
 71
     2
 10
0.0
 20
0.0
 11
0.0
 21
0.0
 12
0.0
 22
0.0
 32
0.0
 14
0.0
 24
0.0
 34
0.0
 15
0.0
 25
0.0
 35
0.0
146
0.0
 13
0.0
 23
0.0
 33
0.0
 16
1.0
 26
0.0
 36
0.0
 17
0.0
 27
1.0
 37
0.0
 76
     0
330
23
  0
LAYOUT
  5
22
102
{ACAD_REACTORS
330
1A
102
}
330
1A
100
AcDbPlotSettings
  1

  2
none_device
  4

  6

 40
0.0
 41
0.0
 42
0.0
 43
0.0
 44
0.0
 45
0.0
 46
0.0
 47
0.0
 48
0.0
 49
0.0
140
0.0
141
0.0
142
1.0
143
1.0
 70
  1712
 72
     0
 73
     0
 74
     0
  7

 75
     0
 76
     0
 77
     2
 78
   300
147
1.0
148
0.0
149
0.0
100
AcDbLayout
  1
Model
 70
     1
 71
     0
 10
0.0
 20
0.0
 11
12.0
 21
9.0
 12
0.0
 22
0.0
 32
0.0
 14
-58.132
 24
-114.7522
 34
0.0
 15
61.8576
 25
131.3594
 35
0.0
146
0.0
 13
0.0
 23
0.0
 33
0.0
 16
1.0
 26
0.0
 36
0.0
 17
0.0
 27
1.0
 37
0.0
 76
     0
330
1F
331
29
  0
MATERIAL
  5
3D
102
{ACAD_REACTORS
330
3B
102
}
330
3B
100
AcDbMaterial
  1
ByBlock
 72
     1
 94
      127
  0
MATERIAL
  5
3C
102
{ACAD_REACTORS
330
3B
102
}
330
3B
100
AcDbMaterial
  1
ByLayer
 72
     1
 94
      127
  0
MATERIAL
  5
3E
102
{ACAD_REACTORS
330
3B
102
}
330
3B
100
AcDbMaterial
  1
Global
 72
     1
 94
      127
  0
MLINESTYLE
  5
18
102
{ACAD_REACTORS
330
17
102
}
330
17
100
AcDbMlineStyle
  2
Standard
 70
     0
  3

 62
   256
 51
90.0
 52
90.0
 71
     2
 49
0.5
 62
   256
  6
BYLAYER
 49
-0.5
 62
   256
  6
BYLAYER
  0
ACDBPLACEHOLDER
  5
F
102
{ACAD_REACTORS
330
E
102
}
330
E
  0
VISUALSTYLE
  5
2F
102
{ACAD_REACTORS
330
2A
102
}
102
{ACAD_XDICTIONARY
360
9B
102
}
330
2A
100
AcDbVisualStyle
  2
2dWireframe
 70
     4
 71
     0
 72
     2
 73
     0
 90
        0
 40
-0.6
 41
-30.0
 62
     5
 63
     7
421
 16777215
 74
     1
 91
        4
 64
     7
 65
   257
 75
     1
175
     1
 42
1.0
 92
        0
 66
   257
 43
1.0
 76
     1
 77
     6
 78
     2
 67
     7
 79
     5
170
     0
171
     0
290
     0
174
     0
 93
        1
 44
0.0
173
     0
291
     0
 45
0.0
  0
VISUALSTYLE
  5
31
102
{ACAD_REACTORS
330
2A
102
}
102
{ACAD_XDICTIONARY
360
9F
102
}
330
2A
100
AcDbVisualStyle
  2
3D Hidden
 70
     6
 71
     1
 72
     2
 73
     2
 90
        0
 40
-0.6
 41
-30.0
 62
     5
 63
     7
421
 16777215
 74
     2
 91
        2
 64
     7
 65
   257
 75
     2
175
     1
 42
40.0
 92
        0
 66
   257
 43
1.0
 76
     1
 77
     6
 78
     2
 67
     7
 79
     3
170
     0
171
     0
290
     0
174
     0
 93
        1
 44
0.0
173
     0
291
     0
 45
0.0
  0
VISUALSTYLE
  5
30
102
{ACAD_REACTORS
330
2A
102
}
102
{ACAD_XDICTIONARY
360
9D
102
}
330
2A
100
AcDbVisualStyle
  2
3dWireframe
 70
     5
 71
     0
 72
     2
 73
     0
 90
        0
 40
-0.6
 41
-30.0
 62
     5
 63
     7
421
 16777215
 74
     1
 91
        4
 64
     7
 65
   257
 75
     1
175
     1
 42
1.0
 92
        0
 66
   257
 43
1.0
 76
     1
 77
     6
 78
     2
 67
     7
 79
     5
170
     0
171
     0
290
     0
174
     0
 93
        1
 44
0.0
173
     0
291
     0
 45
0.0
  0
VISUALSTYLE
  5
32
102
{ACAD_REACTORS
330
2A
102
}
102
{ACAD_XDICTIONARY
360
A1
102
}
330
2A
100
AcDbVisualStyle
  2
Basic
 70
     7
 71
     1
 72
     0
 73
     1
 90
        0
 40
-0.6
 41
-30.0
 62
     5
 63
     7
421
 16777215
 74
     0
 91
        4
 64
     7
 65
   257
 75
     1
175
     1
 42
1.0
 92
        8
 66
     7
 43
1.0
 76
     1
 77
     6
 78
     2
 67
     7
 79
     5
170
     0
171
     0
290
     0
174
     0
 93
        1
 44
0.0
173
     0
291
     1
 45
0.0
  0
VISUALSTYLE
  5
36
102
{ACAD_REACTORS
330
2A
102
}
102
{ACAD_XDICTIONARY
360
A9
102
}
330
2A
100
AcDbVisualStyle
  2
Brighten
 70
    12
 71
     2
 72
     2
 73
     0
 90
        0
 40
-0.6
 41
-30.0
 62
     5
 63
     7
421
 16777215
 74
     1
 91
        4
 64
     7
 65
   257
 75
     1
175
     1
 42
1.0
 92
        8
 66
     7
 43
1.0
 76
     1
 77
     6
 78
     2
 67
     7
 79
     5
170
     0
171
     0
290
     0
174
     0
 93
        1
 44
50.0
173
     0
291
     1
 45
0.0
  0
VISUALSTYLE
  5
3A
102
{ACAD_REACTORS
330
2A
102
}
102
{ACAD_XDICTIONARY
360
B1
102
}
330
2A
100
AcDbVisualStyle
  2
ColorChange
 70
    16
 71
     2
 72
     2
 73
     3
 90
        0
 40
-0.6
 41
-30.0
 62
     5
 63
     8
421
  8421504
 74
     1
 91
        4
 64
     7
 65
   257
 75
     1
175
     1
 42
1.0
 92
        8
 66
     8
424
  8421504
 43
1.0
 76
     1
 77
     6
 78
     2
 67
     7
 79
     5
170
     0
171
     0
290
     0
174
     0
 93
        1
 44
0.0
173
     0
291
     1
 45
0.0
  0
VISUALSTYLE
  5
34
102
{ACAD_REACTORS
330
2A
102
}
102
{ACAD_XDICTIONARY
360
A5
102
}
330
2A
100
AcDbVisualStyle
  2
Conceptual
 70
     9
 71
     3
 72
     2
 73
     0
 90
        0
 40
-0.6
 41
-30.0
 62
     5
 63
     7
421
 16777215
 74
     2
 91
        2
 64
     7
 65
   257
 75
     1
175
     1
 42
40.0
 92
        8
 66
     7
 43
1.0
 76
     1
 77
     6
 78
     2
 67
     7
 79
     3
170
     0
171
     0
290
     0
174
     0
 93
        1
 44
0.0
173
     0
291
     0
 45
0.0
  0
VISUALSTYLE
  5
35
102
{ACAD_REACTORS
330
2A
102
}
102
{ACAD_XDICTIONARY
360
A7
102
}
330
2A
100
AcDbVisualStyle
  2
Dim
 70
    11
 71
     2
 72
     2
 73
     0
 90
        0
 40
-0.6
 41
-30.0
 62
     5
 63
     7
421
 16777215
 74
     1
 91
        4
 64
     7
 65
   257
 75
     1
175
     1
 42
1.0
 92
        8
 66
     7
 43
1.0
 76
     1
 77
     6
 78
     2
 67
     7
 79
     5
170
     0
171
     0
290
     0
174
     0
 93
        1
 44
-50.0
173
     0
291
     1
 45
0.0
  0
VISUALSTYLE
  5
39
102
{ACAD_REACTORS
330
2A
102
}
102
{ACAD_XDICTIONARY
360
AF
102
}
330
2A
100
AcDbVisualStyle
  2
Facepattern
 70
    15
 71
     2
 72
     2
 73
     0
 90
        0
 40
-0.6
 41
-30.0
 62
     5
 63
     7
421
 16777215
 74
     1
 91
        4
 64
     7
 65
   257
 75
     1
175
     1
 42
1.0
 92
        8
 66
     7
 43
1.0
 76
     1
 77
     6
 78
     2
 67
     7
 79
     5
170
     0
171
     0
290
     0
174
     0
 93
        1
 44
0.0
173
     0
291
     1
 45
0.0
  0
VISUALSTYLE
  5
2B
102
{ACAD_REACTORS
330
2A
102
}
102
{ACAD_XDICTIONARY
360
93
102
}
330
2A
100
AcDbVisualStyle
  2
Flat
 70
     0
 71
     2
 72
     1
 73
     1
 90
        2
 40
-0.6
 41
30.0
 62
     5
 63
     7
421
 16777215
 74
     0
 91
        4
 64
     7
 65
   257
 75
     1
175
     1
 42
1.0
 92
        8
 66
     7
 43
1.0
 76
     1
 77
     6
 78
     2
 67
     7
 79
     5
170
     0
171
     0
290
     0
174
     0
 93
       13
 44
0.0
173
     0
291
     1
 45
0.0
  0
VISUALSTYLE
  5
2C
102
{ACAD_REACTORS
330
2A
102
}
102
{ACAD_XDICTIONARY
360
95
102
}
330
2A
100
AcDbVisualStyle
  2
FlatWithEdges
 70
     1
 71
     2
 72
     1
 73
     1
 90
        2
 40
-0.6
 41
30.0
 62
     5
 63
     7
421
 16777215
 74
     1
 91
        4
 64
     7
 65
   257
 75
     1
175
     1
 42
1.0
 92
        0
 66
   257
 43
1.0
 76
     1
 77
     6
 78
     2
 67
     7
 79
     5
170
     0
171
     0
290
     0
174
     0
 93
       13
 44
0.0
173
     0
291
     1
 45
0.0
  0
VISUALSTYLE
  5
2D
102
{ACAD_REACTORS
330
2A
102
}
102
{ACAD_XDICTIONARY
360
97
102
}
330
2A
100
AcDbVisualStyle
  2
Gouraud
 70
     2
 71
     2
 72
     2
 73
     1
 90
        2
 40
-0.6
 41
30.0
 62
     5
 63
     7
421
 16777215
 74
     0
 91
        4
 64
     7
 65
   257
 75
     1
175
     1
 42
1.0
 92
        0
 66
     7
 43
1.0
 76
     1
 77
     6
 78
     2
 67
     7
 79
     5
170
     0
171
     0
290
     0
174
     0
 93
       13
 44
0.0
173
     0
291
     1
 45
0.0
  0
VISUALSTYLE
  5
2E
102
{ACAD_REACTORS
330
2A
102
}
102
{ACAD_XDICTIONARY
360
99
102
}
330
2A
100
AcDbVisualStyle
  2
GouraudWithEdges
 70
     3
 71
     2
 72
     2
 73
     1
 90
        2
 40
-0.6
 41
30.0
 62
     5
 63
     7
421
 16777215
 74
     1
 91
        4
 64
     7
 65
   257
 75
     1
175
     1
 42
1.0
 92
        0
 66
   257
 43
1.0
 76
     1
 77
     6
 78
     2
 67
     7
 79
     5
170
     0
171
     0
290
     0
174
     0
 93
       13
 44
0.0
173
     0
291
     1
 45
0.0
  0
VISUALSTYLE
  5
38
102
{ACAD_REACTORS
330
2A
102
}
102
{ACAD_XDICTIONARY
360
AD
102
}
330
2A
100
AcDbVisualStyle
  2
Linepattern
 70
    14
 71
     2
 72
     2
 73
     0
 90
        0
 40
-0.6
 41
-30.0
 62
     5
 63
     7
421
 16777215
 74
     1
 91
        4
 64
     7
 65
   257
 75
     7
175
     7
 42
1.0
 92
        8
 66
     7
 43
1.0
 76
     1
 77
     6
 78
     2
 67
     7
 79
     5
170
     0
171
     0
290
     0
174
     0
 93
        1
 44
0.0
173
     0
291
     1
 45
0.0
  0
VISUALSTYLE
  5
33
102
{ACAD_REACTORS
330
2A
102
}
102
{ACAD_XDICTIONARY
360
A3
102
}
330
2A
100
AcDbVisualStyle
  2
Realistic
 70
     8
 71
     2
 72
     2
 73
     0
 90
        0
 40
-0.6
 41
-30.0
 62
     5
 63
     7
421
 16777215
 74
     1
 91
        0
 64
     7
 65
   257
 75
     1
175
     1
 42
1.0
 92
        8
 66
     8
424
  7895160
 43
1.0
 76
     1
 77
     6
 78
     2
 67
     7
 79
     5
170
     0
171
     0
290
     0
174
     0
 93
       13
 44
0.0
173
     0
291
     0
 45
0.0
  0
VISUALSTYLE
  5
37
102
{ACAD_REACTORS
330
2A
102
}
102
{ACAD_XDICTIONARY
360
AB
102
}
330
2A
100
AcDbVisualStyle
  2
Thicken
 70
    13
 71
     2
 72
     2
 73
     0
 90
        0
 40
-0.6
 41
-30.0
 62
     5
 63
     7
421
 16777215
 74
     1
 91
        4
 64
     7
 65
   257
 75
     1
175
     1
 42
1.0
 92
       12
 66
     7
 43
1.0
 76
     1
 77
     6
 78
     2
 67
     7
 79
     5
170
     0
171
     0
290
     0
174
     0
 93
        1
 44
0.0
173
     0
291
     1
 45
0.0
  0
DICTIONARY
  5
9B
330
2F
100
AcDbDictionary
280
     1
281
     1
  3
ACAD_XREC_ROUNDTRIP
360
9C
  0
DICTIONARY
  5
9F
330
31
100
AcDbDictionary
280
     1
281
     1
  3
ACAD_XREC_ROUNDTRIP
360
A0
  0
DICTIONARY
  5
9D
330
30
100
AcDbDictionary
280
     1
281
     1
  3
ACAD_XREC_ROUNDTRIP
360
9E
  0
DICTIONARY
  5
A1
330
32
100
AcDbDictionary
280
     1
281
     1
  3
ACAD_XREC_ROUNDTRIP
360
A2
  0
DICTIONARY
  5
A9
330
36
100
AcDbDictionary
280
     1
281
     1
  3
ACAD_XREC_ROUNDTRIP
360
AA
  0
DICTIONARY
  5
B1
330
3A
100
AcDbDictionary
280
     1
281
     1
  3
ACAD_XREC_ROUNDTRIP
360
B2
  0
DICTIONARY
  5
A5
330
34
100
AcDbDictionary
280
     1
281
     1
  3
ACAD_XREC_ROUNDTRIP
360
A6
  0
DICTIONARY
  5
A7
330
35
100
AcDbDictionary
280
     1
281
     1
  3
ACAD_XREC_ROUNDTRIP
360
A8
  0
DICTIONARY
  5
AF
330
39
100
AcDbDictionary
280
     1
281
     1
  3
ACAD_XREC_ROUNDTRIP
360
B0
  0
DICTIONARY
  5
93
330
2B
100
AcDbDictionary
280
     1
281
     1
  3
ACAD_XREC_ROUNDTRIP
360
94
  0
DICTIONARY
  5
95
330
2C
100
AcDbDictionary
280
     1
281
     1
  3
ACAD_XREC_ROUNDTRIP
360
96
  0
DICTIONARY
  5
97
330
2D
100
AcDbDictionary
280
     1
281
     1
  3
ACAD_XREC_ROUNDTRIP
360
98
  0
DICTIONARY
  5
99
330
2E
100
AcDbDictionary
280
     1
281
     1
  3
ACAD_XREC_ROUNDTRIP
360
9A
  0
DICTIONARY
  5
AD
330
38
100
AcDbDictionary
280
     1
281
     1
  3
ACAD_XREC_ROUNDTRIP
360
AE
  0
DICTIONARY
  5
A3
330
33
100
AcDbDictionary
280
     1
281
     1
  3
ACAD_XREC_ROUNDTRIP
360
A4
  0
DICTIONARY
  5
AB
330
37
100
AcDbDictionary
280
     1
281
     1
  3
ACAD_XREC_ROUNDTRIP
360
AC
  0
XRECORD
  5
9C
102
{ACAD_REACTORS
330
9B
102
}
330
9B
100
AcDbXrecord
280
     1
102
RTVSPropertyOp0
 70
     1
102
RTVSPropertyOp1
 70
     1
102
RTVSPropertyOp2
 70
     1
102
RTVSPropertyOp3
 70
     1
102
RTVSPropertyOp4
 70
     1
102
RTVSPropertyOp5
 70
     1
102
RTVSPropertyOp6
 70
     1
102
RTVSPropertyOp7
 70
     1
102
RTVSPropertyOp8
 70
     1
102
RTVSPropertyOp9
 70
     1
102
RTVSPropertyOp10
 70
     1
102
RTVSPropertyOp11
 70
     1
102
RTVSPropertyOp12
 70
     1
102
RTVSPropertyOp13
 70
     1
102
RTVSPropertyOp14
 70
     1
102
RTVSPropertyOp15
 70
     1
102
RTVSPropertyOp16
 70
     1
102
RTVSPropertyOp17
 70
     1
102
RTVSPropertyOp18
 70
     1
102
RTVSPropertyOp19
 70
     1
102
RTVSPropertyOp20
 70
     1
102
RTVSPropertyOp21
 70
     1
102
RTVSPropertyOp22
 70
     1
102
RTVSPropertyOp23
 70
     1
102
RTVSPropertyOp24
 70
     1
102
RTVSPropertyOp25
 70
     1
102
RTVSPropertyOp26
 70
     1
102
RTVSPropertyOp27
 70
     1
102
RTVSPropertyOp28
 70
     1
102
RTVSPropertyOp29
 70
     1
102
RTVSPropertyOp30
 70
     1
102
RTVSPropertyOp31
 70
     1
102
RTVSPropertyOp32
 70
     1
  0
XRECORD
  5
A0
102
{ACAD_REACTORS
330
9F
102
}
330
9F
100
AcDbXrecord
280
     1
102
RTVSPropertyOp0
 70
     1
102
RTVSPropertyOp1
 70
     1
102
RTVSPropertyOp2
 70
     1
102
RTVSPropertyOp3
 70
     1
102
RTVSPropertyOp4
 70
     1
102
RTVSPropertyOp5
 70
     1
102
RTVSPropertyOp6
 70
     1
102
RTVSPropertyOp7
 70
     1
102
RTVSPropertyOp8
 70
     1
102
RTVSPropertyOp9
 70
     1
102
RTVSPropertyOp10
 70
     1
102
RTVSPropertyOp11
 70
     1
102
RTVSPropertyOp12
 70
     1
102
RTVSPropertyOp13
 70
     1
102
RTVSPropertyOp14
 70
     1
102
RTVSPropertyOp15
 70
     1
102
RTVSPropertyOp16
 70
     1
102
RTVSPropertyOp17
 70
     1
102
RTVSPropertyOp18
 70
     1
102
RTVSPropertyOp19
 70
     1
102
RTVSPropertyOp20
 70
     1
102
RTVSPropertyOp21
 70
     1
102
RTVSPropertyOp22
 70
     1
102
RTVSPropertyOp23
 70
     1
102
RTVSPropertyOp24
 70
     1
102
RTVSPropertyOp25
 70
     1
102
RTVSPropertyOp26
 70
     1
102
RTVSPropertyOp27
 70
     1
102
RTVSPropertyOp28
 70
     1
102
RTVSPropertyOp29
 70
     1
102
RTVSPropertyOp30
 70
     1
102
RTVSPropertyOp31
 70
     1
102
RTVSPropertyOp32
 70
     1
  0
XRECORD
  5
9E
102
{ACAD_REACTORS
330
9D
102
}
330
9D
100
AcDbXrecord
280
     1
102
RTVSPropertyOp0
 70
     1
102
RTVSPropertyOp1
 70
     1
102
RTVSPropertyOp2
 70
     1
102
RTVSPropertyOp3
 70
     1
102
RTVSPropertyOp4
 70
     1
102
RTVSPropertyOp5
 70
     1
102
RTVSPropertyOp6
 70
     1
102
RTVSPropertyOp7
 70
     1
102
RTVSPropertyOp8
 70
     1
102
RTVSPropertyOp9
 70
     1
102
RTVSPropertyOp10
 70
     1
102
RTVSPropertyOp11
 70
     1
102
RTVSPropertyOp12
 70
     1
102
RTVSPropertyOp13
 70
     1
102
RTVSPropertyOp14
 70
     1
102
RTVSPropertyOp15
 70
     1
102
RTVSPropertyOp16
 70
     1
102
RTVSPropertyOp17
 70
     1
102
RTVSPropertyOp18
 70
     1
102
RTVSPropertyOp19
 70
     1
102
RTVSPropertyOp20
 70
     1
102
RTVSPropertyOp21
 70
     1
102
RTVSPropertyOp22
 70
     1
102
RTVSPropertyOp23
 70
     1
102
RTVSPropertyOp24
 70
     1
102
RTVSPropertyOp25
 70
     1
102
RTVSPropertyOp26
 70
     1
102
RTVSPropertyOp27
 70
     1
102
RTVSPropertyOp28
 70
     1
102
RTVSPropertyOp29
 70
     1
102
RTVSPropertyOp30
 70
     1
102
RTVSPropertyOp31
 70
     1
102
RTVSPropertyOp32
 70
     1
  0
XRECORD
  5
A2
102
{ACAD_REACTORS
330
A1
102
}
330
A1
100
AcDbXrecord
280
     1
102
RTVSPropertyOp0
 70
     1
102
RTVSPropertyOp1
 70
     1
102
RTVSPropertyOp2
 70
     1
102
RTVSPropertyOp3
 70
     1
102
RTVSPropertyOp4
 70
     1
102
RTVSPropertyOp5
 70
     1
102
RTVSPropertyOp6
 70
     1
102
RTVSPropertyOp7
 70
     1
102
RTVSPropertyOp8
 70
     1
102
RTVSPropertyOp9
 70
     1
102
RTVSPropertyOp10
 70
     1
102
RTVSPropertyOp11
 70
     1
102
RTVSPropertyOp12
 70
     1
102
RTVSPropertyOp13
 70
     1
102
RTVSPropertyOp14
 70
     1
102
RTVSPropertyOp15
 70
     1
102
RTVSPropertyOp16
 70
     1
102
RTVSPropertyOp17
 70
     1
102
RTVSPropertyOp18
 70
     1
102
RTVSPropertyOp19
 70
     1
102
RTVSPropertyOp20
 70
     1
102
RTVSPropertyOp21
 70
     1
102
RTVSPropertyOp22
 70
     1
102
RTVSPropertyOp23
 70
     1
102
RTVSPropertyOp24
 70
     1
102
RTVSPropertyOp25
 70
     1
102
RTVSPropertyOp26
 70
     1
102
RTVSPropertyOp27
 70
     1
102
RTVSPropertyOp28
 70
     1
102
RTVSPropertyOp29
 70
     1
102
RTVSPropertyOp30
 70
     1
102
RTVSPropertyOp31
 70
     1
102
RTVSPropertyOp32
 70
     1
  0
XRECORD
  5
AA
102
{ACAD_REACTORS
330
A9
102
}
330
A9
100
AcDbXrecord
280
     1
102
RTVSPropertyOp0
 70
     1
102
RTVSPropertyOp1
 70
     1
102
RTVSPropertyOp2
 70
     1
102
RTVSPropertyOp3
 70
     1
102
RTVSPropertyOp4
 70
     1
102
RTVSPropertyOp5
 70
     1
102
RTVSPropertyOp6
 70
     1
102
RTVSPropertyOp7
 70
     1
102
RTVSPropertyOp8
 70
     1
102
RTVSPropertyOp9
 70
     1
102
RTVSPropertyOp10
 70
     1
102
RTVSPropertyOp11
 70
     1
102
RTVSPropertyOp12
 70
     1
102
RTVSPropertyOp13
 70
     1
102
RTVSPropertyOp14
 70
     1
102
RTVSPropertyOp15
 70
     1
102
RTVSPropertyOp16
 70
     1
102
RTVSPropertyOp17
 70
     1
102
RTVSPropertyOp18
 70
     1
102
RTVSPropertyOp19
 70
     1
102
RTVSPropertyOp20
 70
     1
102
RTVSPropertyOp21
 70
     1
102
RTVSPropertyOp22
 70
     1
102
RTVSPropertyOp23
 70
     1
102
RTVSPropertyOp24
 70
     1
102
RTVSPropertyOp25
 70
     1
102
RTVSPropertyOp26
 70
     1
102
RTVSPropertyOp27
 70
     1
102
RTVSPropertyOp28
 70
     1
102
RTVSPropertyOp29
 70
     1
102
RTVSPropertyOp30
 70
     1
102
RTVSPropertyOp31
 70
     1
102
RTVSPropertyOp32
 70
     1
  0
XRECORD
  5
B2
102
{ACAD_REACTORS
330
B1
102
}
330
B1
100
AcDbXrecord
280
     1
102
RTVSPropertyOp0
 70
     1
102
RTVSPropertyOp1
 70
     1
102
RTVSPropertyOp2
 70
     1
102
RTVSPropertyOp3
 70
     1
102
RTVSPropertyOp4
 70
     1
102
RTVSPropertyOp5
 70
     1
102
RTVSPropertyOp6
 70
     1
102
RTVSPropertyOp7
 70
     1
102
RTVSPropertyOp8
 70
     1
102
RTVSPropertyOp9
 70
     1
102
RTVSPropertyOp10
 70
     1
102
RTVSPropertyOp11
 70
     1
102
RTVSPropertyOp12
 70
     1
102
RTVSPropertyOp13
 70
     1
102
RTVSPropertyOp14
 70
     1
102
RTVSPropertyOp15
 70
     1
102
RTVSPropertyOp16
 70
     1
102
RTVSPropertyOp17
 70
     1
102
RTVSPropertyOp18
 70
     1
102
RTVSPropertyOp19
 70
     1
102
RTVSPropertyOp20
 70
     1
102
RTVSPropertyOp21
 70
     1
102
RTVSPropertyOp22
 70
     1
102
RTVSPropertyOp23
 70
     1
102
RTVSPropertyOp24
 70
     1
102
RTVSPropertyOp25
 70
     1
102
RTVSPropertyOp26
 70
     1
102
RTVSPropertyOp27
 70
     1
102
RTVSPropertyOp28
 70
     1
102
RTVSPropertyOp29
 70
     1
102
RTVSPropertyOp30
 70
     1
102
RTVSPropertyOp31
 70
     1
102
RTVSPropertyOp32
 70
     1
  0
XRECORD
  5
A6
102
{ACAD_REACTORS
330
A5
102
}
330
A5
100
AcDbXrecord
280
     1
102
RTVSPropertyOp0
 70
     1
102
RTVSPropertyOp1
 70
     1
102
RTVSPropertyOp2
 70
     1
102
RTVSPropertyOp3
 70
     1
102
RTVSPropertyOp4
 70
     1
102
RTVSPropertyOp5
 70
     1
102
RTVSPropertyOp6
 70
     1
102
RTVSPropertyOp7
 70
     1
102
RTVSPropertyOp8
 70
     1
102
RTVSPropertyOp9
 70
     1
102
RTVSPropertyOp10
 70
     1
102
RTVSPropertyOp11
 70
     1
102
RTVSPropertyOp12
 70
     1
102
RTVSPropertyOp13
 70
     1
102
RTVSPropertyOp14
 70
     1
102
RTVSPropertyOp15
 70
     1
102
RTVSPropertyOp16
 70
     1
102
RTVSPropertyOp17
 70
     1
102
RTVSPropertyOp18
 70
     1
102
RTVSPropertyOp19
 70
     1
102
RTVSPropertyOp20
 70
     1
102
RTVSPropertyOp21
 70
     1
102
RTVSPropertyOp22
 70
     1
102
RTVSPropertyOp23
 70
     1
102
RTVSPropertyOp24
 70
     1
102
RTVSPropertyOp25
 70
     1
102
RTVSPropertyOp26
 70
     1
102
RTVSPropertyOp27
 70
     1
102
RTVSPropertyOp28
 70
     1
102
RTVSPropertyOp29
 70
     1
102
RTVSPropertyOp30
 70
     1
102
RTVSPropertyOp31
 70
     1
102
RTVSPropertyOp32
 70
     1
  0
XRECORD
  5
A8
102
{ACAD_REACTORS
330
A7
102
}
330
A7
100
AcDbXrecord
280
     1
102
RTVSPropertyOp0
 70
     1
102
RTVSPropertyOp1
 70
     1
102
RTVSPropertyOp2
 70
     1
102
RTVSPropertyOp3
 70
     1
102
RTVSPropertyOp4
 70
     1
102
RTVSPropertyOp5
 70
     1
102
RTVSPropertyOp6
 70
     1
102
RTVSPropertyOp7
 70
     1
102
RTVSPropertyOp8
 70
     1
102
RTVSPropertyOp9
 70
     1
102
RTVSPropertyOp10
 70
     1
102
RTVSPropertyOp11
 70
     1
102
RTVSPropertyOp12
 70
     1
102
RTVSPropertyOp13
 70
     1
102
RTVSPropertyOp14
 70
     1
102
RTVSPropertyOp15
 70
     1
102
RTVSPropertyOp16
 70
     1
102
RTVSPropertyOp17
 70
     1
102
RTVSPropertyOp18
 70
     1
102
RTVSPropertyOp19
 70
     1
102
RTVSPropertyOp20
 70
     1
102
RTVSPropertyOp21
 70
     1
102
RTVSPropertyOp22
 70
     1
102
RTVSPropertyOp23
 70
     1
102
RTVSPropertyOp24
 70
     1
102
RTVSPropertyOp25
 70
     1
102
RTVSPropertyOp26
 70
     1
102
RTVSPropertyOp27
 70
     1
102
RTVSPropertyOp28
 70
     1
102
RTVSPropertyOp29
 70
     1
102
RTVSPropertyOp30
 70
     1
102
RTVSPropertyOp31
 70
     1
102
RTVSPropertyOp32
 70
     1
  0
XRECORD
  5
B0
102
{ACAD_REACTORS
330
AF
102
}
330
AF
100
AcDbXrecord
280
     1
102
RTVSPropertyOp0
 70
     1
102
RTVSPropertyOp1
 70
     1
102
RTVSPropertyOp2
 70
     1
102
RTVSPropertyOp3
 70
     1
102
RTVSPropertyOp4
 70
     1
102
RTVSPropertyOp5
 70
     1
102
RTVSPropertyOp6
 70
     1
102
RTVSPropertyOp7
 70
     1
102
RTVSPropertyOp8
 70
     1
102
RTVSPropertyOp9
 70
     1
102
RTVSPropertyOp10
 70
     1
102
RTVSPropertyOp11
 70
     1
102
RTVSPropertyOp12
 70
     1
102
RTVSPropertyOp13
 70
     1
102
RTVSPropertyOp14
 70
     1
102
RTVSPropertyOp15
 70
     1
102
RTVSPropertyOp16
 70
     1
102
RTVSPropertyOp17
 70
     1
102
RTVSPropertyOp18
 70
     1
102
RTVSPropertyOp19
 70
     1
102
RTVSPropertyOp20
 70
     1
102
RTVSPropertyOp21
 70
     1
102
RTVSPropertyOp22
 70
     1
102
RTVSPropertyOp23
 70
     1
102
RTVSPropertyOp24
 70
     1
102
RTVSPropertyOp25
 70
     1
102
RTVSPropertyOp26
 70
     1
102
RTVSPropertyOp27
 70
     1
102
RTVSPropertyOp28
 70
     1
102
RTVSPropertyOp29
 70
     1
102
RTVSPropertyOp30
 70
     1
102
RTVSPropertyOp31
 70
     1
102
RTVSPropertyOp32
 70
     1
  0
XRECORD
  5
94
102
{ACAD_REACTORS
330
93
102
}
330
93
100
AcDbXrecord
280
     1
102
RTVSPropertyOp0
 70
     1
102
RTVSPropertyOp1
 70
     1
102
RTVSPropertyOp2
 70
     1
102
RTVSPropertyOp3
 70
     1
102
RTVSPropertyOp4
 70
     1
102
RTVSPropertyOp5
 70
     1
102
RTVSPropertyOp6
 70
     1
102
RTVSPropertyOp7
 70
     1
102
RTVSPropertyOp8
 70
     1
102
RTVSPropertyOp9
 70
     1
102
RTVSPropertyOp10
 70
     1
102
RTVSPropertyOp11
 70
     1
102
RTVSPropertyOp12
 70
     1
102
RTVSPropertyOp13
 70
     1
102
RTVSPropertyOp14
 70
     1
102
RTVSPropertyOp15
 70
     1
102
RTVSPropertyOp16
 70
     1
102
RTVSPropertyOp17
 70
     1
102
RTVSPropertyOp18
 70
     1
102
RTVSPropertyOp19
 70
     1
102
RTVSPropertyOp20
 70
     1
102
RTVSPropertyOp21
 70
     1
102
RTVSPropertyOp22
 70
     1
102
RTVSPropertyOp23
 70
     1
102
RTVSPropertyOp24
 70
     1
102
RTVSPropertyOp25
 70
     1
102
RTVSPropertyOp26
 70
     1
102
RTVSPropertyOp27
 70
     1
102
RTVSPropertyOp28
 70
     1
102
RTVSPropertyOp29
 70
     1
102
RTVSPropertyOp30
 70
     1
102
RTVSPropertyOp31
 70
     1
102
RTVSPropertyOp32
 70
     1
  0
XRECORD
  5
96
102
{ACAD_REACTORS
330
95
102
}
330
95
100
AcDbXrecord
280
     1
102
RTVSPropertyOp0
 70
     1
102
RTVSPropertyOp1
 70
     1
102
RTVSPropertyOp2
 70
     1
102
RTVSPropertyOp3
 70
     1
102
RTVSPropertyOp4
 70
     1
102
RTVSPropertyOp5
 70
     1
102
RTVSPropertyOp6
 70
     1
102
RTVSPropertyOp7
 70
     1
102
RTVSPropertyOp8
 70
     1
102
RTVSPropertyOp9
 70
     1
102
RTVSPropertyOp10
 70
     1
102
RTVSPropertyOp11
 70
     1
102
RTVSPropertyOp12
 70
     1
102
RTVSPropertyOp13
 70
     1
102
RTVSPropertyOp14
 70
     1
102
RTVSPropertyOp15
 70
     1
102
RTVSPropertyOp16
 70
     1
102
RTVSPropertyOp17
 70
     1
102
RTVSPropertyOp18
 70
     1
102
RTVSPropertyOp19
 70
     1
102
RTVSPropertyOp20
 70
     1
102
RTVSPropertyOp21
 70
     1
102
RTVSPropertyOp22
 70
     1
102
RTVSPropertyOp23
 70
     1
102
RTVSPropertyOp24
 70
     1
102
RTVSPropertyOp25
 70
     1
102
RTVSPropertyOp26
 70
     1
102
RTVSPropertyOp27
 70
     1
102
RTVSPropertyOp28
 70
     1
102
RTVSPropertyOp29
 70
     1
102
RTVSPropertyOp30
 70
     1
102
RTVSPropertyOp31
 70
     1
102
RTVSPropertyOp32
 70
     1
  0
XRECORD
  5
98
102
{ACAD_REACTORS
330
97
102
}
330
97
100
AcDbXrecord
280
     1
102
RTVSPropertyOp0
 70
     1
102
RTVSPropertyOp1
 70
     1
102
RTVSPropertyOp2
 70
     1
102
RTVSPropertyOp3
 70
     1
102
RTVSPropertyOp4
 70
     1
102
RTVSPropertyOp5
 70
     1
102
RTVSPropertyOp6
 70
     1
102
RTVSPropertyOp7
 70
     1
102
RTVSPropertyOp8
 70
     1
102
RTVSPropertyOp9
 70
     1
102
RTVSPropertyOp10
 70
     1
102
RTVSPropertyOp11
 70
     1
102
RTVSPropertyOp12
 70
     1
102
RTVSPropertyOp13
 70
     1
102
RTVSPropertyOp14
 70
     1
102
RTVSPropertyOp15
 70
     1
102
RTVSPropertyOp16
 70
     1
102
RTVSPropertyOp17
 70
     1
102
RTVSPropertyOp18
 70
     1
102
RTVSPropertyOp19
 70
     1
102
RTVSPropertyOp20
 70
     1
102
RTVSPropertyOp21
 70
     1
102
RTVSPropertyOp22
 70
     1
102
RTVSPropertyOp23
 70
     1
102
RTVSPropertyOp24
 70
     1
102
RTVSPropertyOp25
 70
     1
102
RTVSPropertyOp26
 70
     1
102
RTVSPropertyOp27
 70
     1
102
RTVSPropertyOp28
 70
     1
102
RTVSPropertyOp29
 70
     1
102
RTVSPropertyOp30
 70
     1
102
RTVSPropertyOp31
 70
     1
102
RTVSPropertyOp32
 70
     1
  0
XRECORD
  5
9A
102
{ACAD_REACTORS
330
99
102
}
330
99
100
AcDbXrecord
280
     1
102
RTVSPropertyOp0
 70
     1
102
RTVSPropertyOp1
 70
     1
102
RTVSPropertyOp2
 70
     1
102
RTVSPropertyOp3
 70
     1
102
RTVSPropertyOp4
 70
     1
102
RTVSPropertyOp5
 70
     1
102
RTVSPropertyOp6
 70
     1
102
RTVSPropertyOp7
 70
     1
102
RTVSPropertyOp8
 70
     1
102
RTVSPropertyOp9
 70
     1
102
RTVSPropertyOp10
 70
     1
102
RTVSPropertyOp11
 70
     1
102
RTVSPropertyOp12
 70
     1
102
RTVSPropertyOp13
 70
     1
102
RTVSPropertyOp14
 70
     1
102
RTVSPropertyOp15
 70
     1
102
RTVSPropertyOp16
 70
     1
102
RTVSPropertyOp17
 70
     1
102
RTVSPropertyOp18
 70
     1
102
RTVSPropertyOp19
 70
     1
102
RTVSPropertyOp20
 70
     1
102
RTVSPropertyOp21
 70
     1
102
RTVSPropertyOp22
 70
     1
102
RTVSPropertyOp23
 70
     1
102
RTVSPropertyOp24
 70
     1
102
RTVSPropertyOp25
 70
     1
102
RTVSPropertyOp26
 70
     1
102
RTVSPropertyOp27
 70
     1
102
RTVSPropertyOp28
 70
     1
102
RTVSPropertyOp29
 70
     1
102
RTVSPropertyOp30
 70
     1
102
RTVSPropertyOp31
 70
     1
102
RTVSPropertyOp32
 70
     1
  0
XRECORD
  5
AE
102
{ACAD_REACTORS
330
AD
102
}
330
AD
100
AcDbXrecord
280
     1
102
RTVSPropertyOp0
 70
     1
102
RTVSPropertyOp1
 70
     1
102
RTVSPropertyOp2
 70
     1
102
RTVSPropertyOp3
 70
     1
102
RTVSPropertyOp4
 70
     1
102
RTVSPropertyOp5
 70
     1
102
RTVSPropertyOp6
 70
     1
102
RTVSPropertyOp7
 70
     1
102
RTVSPropertyOp8
 70
     1
102
RTVSPropertyOp9
 70
     1
102
RTVSPropertyOp10
 70
     1
102
RTVSPropertyOp11
 70
     1
102
RTVSPropertyOp12
 70
     1
102
RTVSPropertyOp13
 70
     1
102
RTVSPropertyOp14
 70
     1
102
RTVSPropertyOp15
 70
     1
102
RTVSPropertyOp16
 70
     1
102
RTVSPropertyOp17
 70
     1
102
RTVSPropertyOp18
 70
     1
102
RTVSPropertyOp19
 70
     1
102
RTVSPropertyOp20
 70
     1
102
RTVSPropertyOp21
 70
     1
102
RTVSPropertyOp22
 70
     1
102
RTVSPropertyOp23
 70
     1
102
RTVSPropertyOp24
 70
     1
102
RTVSPropertyOp25
 70
     1
102
RTVSPropertyOp26
 70
     1
102
RTVSPropertyOp27
 70
     1
102
RTVSPropertyOp28
 70
     1
102
RTVSPropertyOp29
 70
     1
102
RTVSPropertyOp30
 70
     1
102
RTVSPropertyOp31
 70
     1
102
RTVSPropertyOp32
 70
     1
  0
XRECORD
  5
A4
102
{ACAD_REACTORS
330
A3
102
}
330
A3
100
AcDbXrecord
280
     1
102
RTVSPropertyOp0
 70
     1
102
RTVSPropertyOp1
 70
     1
102
RTVSPropertyOp2
 70
     1
102
RTVSPropertyOp3
 70
     1
102
RTVSPropertyOp4
 70
     1
102
RTVSPropertyOp5
 70
     1
102
RTVSPropertyOp6
 70
     1
102
RTVSPropertyOp7
 70
     1
102
RTVSPropertyOp8
 70
     1
102
RTVSPropertyOp9
 70
     1
102
RTVSPropertyOp10
 70
     1
102
RTVSPropertyOp11
 70
     1
102
RTVSPropertyOp12
 70
     1
102
RTVSPropertyOp13
 70
     1
102
RTVSPropertyOp14
 70
     1
102
RTVSPropertyOp15
 70
     1
102
RTVSPropertyOp16
 70
     1
102
RTVSPropertyOp17
 70
     1
102
RTVSPropertyOp18
 70
     1
102
RTVSPropertyOp19
 70
     1
102
RTVSPropertyOp20
 70
     1
102
RTVSPropertyOp21
 70
     1
102
RTVSPropertyOp22
 70
     1
102
RTVSPropertyOp23
 70
     1
102
RTVSPropertyOp24
 70
     1
102
RTVSPropertyOp25
 70
     1
102
RTVSPropertyOp26
 70
     1
102
RTVSPropertyOp27
 70
     1
102
RTVSPropertyOp28
 70
     1
102
RTVSPropertyOp29
 70
     1
102
RTVSPropertyOp30
 70
     1
102
RTVSPropertyOp31
 70
     1
102
RTVSPropertyOp32
 70
     1
  0
XRECORD
  5
AC
102
{ACAD_REACTORS
330
AB
102
}
330
AB
100
AcDbXrecord
280
     1
102
RTVSPropertyOp0
 70
     1
102
RTVSPropertyOp1
 70
     1
102
RTVSPropertyOp2
 70
     1
102
RTVSPropertyOp3
 70
     1
102
RTVSPropertyOp4
 70
     1
102
RTVSPropertyOp5
 70
     1
102
RTVSPropertyOp6
 70
     1
102
RTVSPropertyOp7
 70
     1
102
RTVSPropertyOp8
 70
     1
102
RTVSPropertyOp9
 70
     1
102
RTVSPropertyOp10
 70
     1
102
RTVSPropertyOp11
 70
     1
102
RTVSPropertyOp12
 70
     1
102
RTVSPropertyOp13
 70
     1
102
RTVSPropertyOp14
 70
     1
102
RTVSPropertyOp15
 70
     1
102
RTVSPropertyOp16
 70
     1
102
RTVSPropertyOp17
 70
     1
102
RTVSPropertyOp18
 70
     1
102
RTVSPropertyOp19
 70
     1
102
RTVSPropertyOp20
 70
     1
102
RTVSPropertyOp21
 70
     1
102
RTVSPropertyOp22
 70
     1
102
RTVSPropertyOp23
 70
     1
102
RTVSPropertyOp24
 70
     1
102
RTVSPropertyOp25
 70
     1
102
RTVSPropertyOp26
 70
     1
102
RTVSPropertyOp27
 70
     1
102
RTVSPropertyOp28
 70
     1
102
RTVSPropertyOp29
 70
     1
102
RTVSPropertyOp30
 70
     1
102
RTVSPropertyOp31
 70
     1
102
RTVSPropertyOp32
 70
     1
  0
ENDSEC
  0
EOF
