  0
SECTION
  2
HEADER
  9
$ACADVER
  1
AC1021
  9
$ACADMAINTVER
 70
    25
  9
$DWGCODEPAGE
  3
ANSI_1252
  9
$INSBASE
 10
0.0
 20
0.0
 30
0.0
  9
$EXTMIN
 10
113.5791
 20
-103.8164
 30
0.0
  9
$EXTMAX
 10
196.4303
 20
121.3127
 30
0.0
  9
$LIMMIN
 10
0.0
 20
0.0
  9
$LIMMAX
 10
12.0
 20
9.0
  9
$ORTHOMODE
 70
     0
  9
$REGENMODE
 70
     1
  9
$FILLMODE
 70
     1
  9
$QTEXTMODE
 70
     0
  9
$MIRRTEXT
 70
     1
  9
$LTSCALE
 40
1.0
  9
$ATTMODE
 70
     1
  9
$TEXTSIZE
 40
0.2
  9
$TRACEWID
 40
0.05
  9
$TEXTSTYLE
  7
Standard
  9
$CLAYER
  8
0
  9
$CELTYPE
  6
ByLayer
  9
$CECOLOR
 62
   256
  9
$CELTSCALE
 40
1.0
  9
$DISPSILH
 70
     0
  9
$DIMSCALE
 40
1.0
  9
$DIMASZ
 40
0.18
  9
$DIMEXO
 40
0.0625
  9
$DIMDLI
 40
0.38
  9
$DIMRND
 40
0.0
  9
$DIMDLE
 40
0.0
  9
$DIMEXE
 40
0.18
  9
$DIMTP
 40
0.0
  9
$DIMTM
 40
0.0
  9
$DIMTXT
 40
0.18
  9
$DIMCEN
 40
0.09
  9
$DIMTSZ
 40
0.0
  9
$DIMTOL
 70
     0
  9
$DIMLIM
 70
     0
  9
$DIMTIH
 70
     1
  9
$DIMTOH
 70
     1
  9
$DIMSE1
 70
     0
  9
$DIMSE2
 70
     0
  9
$DIMTAD
 70
     0
  9
$DIMZIN
 70
     0
  9
$DIMBLK
  1

  9
$DIMASO
 70
     1
  9
$DIMSHO
 70
     1
  9
$DIMPOST
  1

  9
$DIMAPOST
  1

  9
$DIMALT
 70
     0
  9
$DIMALTD
 70
     2
  9
$DIMALTF
 40
25.4
  9
$DIMLFAC
 40
1.0
  9
$DIMTOFL
 70
     0
  9
$DIMTVP
 40
0.0
  9
$DIMTIX
 70
     0
  9
$DIMSOXD
 70
     0
  9
$DIMSAH
 70
     0
  9
$DIMBLK1
  1

  9
$DIMBLK2
  1

  9
$DIMSTYLE
  2
Standard
  9
$DIMCLRD
 70
     0
  9
$DIMCLRE
 70
     0
  9
$DIMCLRT
 70
     0
  9
$DIMTFAC
 40
1.0
  9
$DIMGAP
 40
0.09
  9
$DIMJUST
 70
     0
  9
$DIMSD1
 70
     0
  9
$DIMSD2
 70
     0
  9
$DIMTOLJ
 70
     1
  9
$DIMTZIN
 70
     0
  9
$DIMALTZ
 70
     0
  9
$DIMALTTZ
 70
     0
  9
$DIMUPT
 70
     0
  9
$DIMDEC
 70
     4
  9
$DIMTDEC
 70
     4
  9
$DIMALTU
 70
     2
  9
$DIMALTTD
 70
     2
  9
$DIMTXSTY
  7
Standard
  9
$DIMAUNIT
 70
     0
  9
$DIMADEC
 70
     0
  9
$DIMALTRND
 40
0.0
  9
$DIMAZIN
 70
     0
  9
$DIMDSEP
 70
    46
  9
$DIMATFIT
 70
     3
  9
$DIMFRAC
 70
     0
  9
$DIMLDRBLK
  1

  9
$DIMLUNIT
 70
     2
  9
$DIMLWD
 70
    -2
  9
$DIMLWE
 70
    -2
  9
$DIMTMOVE
 70
     0
  9
$DIMFXL
 40
1.0
  9
$DIMFXLON
 70
     0
  9
$DIMJOGANG
 40
0.7853981633974483
  9
$DIMTFILL
 70
     0
  9
$DIMTFILLCLR
 70
     0
  9
$DIMARCSYM
 70
     0
  9
$DIMLTYPE
  6

  9
$DIMLTEX1
  6

  9
$DIMLTEX2
  6

  9
$LUNITS
 70
     2
  9
$LUPREC
 70
     4
  9
$SKETCHINC
 40
0.1
  9
$FILLETRAD
 40
0.5
  9
$AUNITS
 70
     0
  9
$AUPREC
 70
     0
  9
$MENU
  1
.
  9
$ELEVATION
 40
0.0
  9
$PELEVATION
 40
0.0
  9
$THICKNESS
 40
0.0
  9
$LIMCHECK
 70
     0
  9
$CHAMFERA
 40
0.5
  9
$CHAMFERB
 40
0.5
  9
$CHAMFERC
 40
1.0
  9
$CHAMFERD
 40
0.0
  9
$SKPOLY
 70
     0
  9
$TDCREATE
 40
2458492.555465648
  9
$TDUCREATE
 40
2458492.555465648
  9
$TDUPDATE
 40
2458492.555465741
  9
$TDUUPDATE
 40
2458492.555465741
  9
$TDINDWG
 40
0.0000000116
  9
$TDUSRTIMER
 40
0.0000000116
  9
$USRTIMER
 70
     1
  9
$ANGBASE
 50
0.0
  9
$ANGDIR
 70
     0
  9
$PDMODE
 70
     0
  9
$PDSIZE
 40
0.0
  9
$PLINEWID
 40
0.0
  9
$SPLFRAME
 70
     0
  9
$SPLINETYPE
 70
     6
  9
$SPLINESEGS
 70
     8
  9
$HANDSEED
  5
AE
  9
$SURFTAB1
 70
     6
  9
$SURFTAB2
 70
     6
  9
$SURFTYPE
 70
     6
  9
$SURFU
 70
     6
  9
$SURFV
 70
     6
  9
$UCSBASE
  2

  9
$UCSNAME
  2

  9
$UCSORG
 10
0.0
 20
0.0
 30
0.0
  9
$UCSXDIR
 10
1.0
 20
0.0
 30
0.0
  9
$UCSYDIR
 10
0.0
 20
1.0
 30
0.0
  9
$UCSORTHOREF
  2

  9
$UCSORTHOVIEW
 70
     0
  9
$UCSORGTOP
 10
0.0
 20
0.0
 30
0.0
  9
$UCSORGBOTTOM
 10
0.0
 20
0.0
 30
0.0
  9
$UCSORGLEFT
 10
0.0
 20
0.0
 30
0.0
  9
$UCSORGRIGHT
 10
0.0
 20
0.0
 30
0.0
  9
$UCSORGFRONT
 10
0.0
 20
0.0
 30
0.0
  9
$UCSORGBACK
 10
0.0
 20
0.0
 30
0.0
  9
$PUCSBASE
  2

  9
$PUCSNAME
  2

  9
$PUCSORG
 10
0.0
 20
0.0
 30
0.0
  9
$PUCSXDIR
 10
1.0
 20
0.0
 30
0.0
  9
$PUCSYDIR
 10
0.0
 20
1.0
 30
0.0
  9
$PUCSORTHOREF
  2

  9
$PUCSORTHOVIEW
 70
     0
  9
$PUCSORGTOP
 10
0.0
 20
0.0
 30
0.0
  9
$PUCSORGBOTTOM
 10
0.0
 20
0.0
 30
0.0
  9
$PUCSORGLEFT
 10
0.0
 20
0.0
 30
0.0
  9
$PUCSORGRIGHT
 10
0.0
 20
0.0
 30
0.0
  9
$PUCSORGFRONT
 10
0.0
 20
0.0
 30
0.0
  9
$PUCSORGBACK
 10
0.0
 20
0.0
 30
0.0
  9
$USERI1
 70
     0
  9
$USERI2
 70
     0
  9
$USERI3
 70
     0
  9
$USERI4
 70
     0
  9
$USERI5
 70
     0
  9
$USERR1
 40
0.0
  9
$USERR2
 40
0.0
  9
$USERR3
 40
0.0
  9
$USERR4
 40
0.0
  9
$USERR5
 40
0.0
  9
$WORLDVIEW
 70
     1
  9
$SHADEDGE
 70
     3
  9
$SHADEDIF
 70
    70
  9
$TILEMODE
 70
     1
  9
$MAXACTVP
 70
    64
  9
$PINSBASE
 10
0.0
 20
0.0
 30
0.0
  9
$PLIMCHECK
 70
     0
  9
$PEXTMIN
 10
1.000000000000000E+20
 20
1.000000000000000E+20
 30
1.000000000000000E+20
  9
$PEXTMAX
 10
-1.000000000000000E+20
 20
-1.000000000000000E+20
 30
-1.000000000000000E+20
  9
$PLIMMIN
 10
0.0
 20
0.0
  9
$PLIMMAX
 10
12.0
 20
9.0
  9
$UNITMODE
 70
     0
  9
$VISRETAIN
 70
     1
  9
$PLINEGEN
 70
     0
  9
$PSLTSCALE
 70
     1
  9
$TREEDEPTH
 70
  3020
  9
$CMLSTYLE
  2
Standard
  9
$CMLJUST
 70
     0
  9
$CMLSCALE
 40
1.0
  9
$PROXYGRAPHICS
 70
     1
  9
$MEASUREMENT
 70
     0
  9
$CELWEIGHT
370
    -1
  9
$ENDCAPS
280
     0
  9
$JOINSTYLE
280
     0
  9
$LWDISPLAY
290
     0
  9
$INSUNITS
 70
     4
  9
$HYPERLINKBASE
  1

  9
$STYLESHEET
  1

  9
$XEDIT
290
     1
  9
$CEPSNTYPE
380
     0
  9
$PSTYLEMODE
290
     1
  9
$FINGERPRINTGUID
  2
{A2B6ACDE-659F-4246-B31F-7B72E56A74E0}
  9
$VERSIONGUID
  2
{FAEB1C32-E019-11D5-929B-00C0DF256EC4}
  9
$EXTNAMES
290
     1
  9
$PSVPSCALE
 40
0.0
  9
$OLESTARTUP
290
     0
  9
$SORTENTS
280
   127
  9
$INDEXCTL
280
     0
  9
$HIDETEXT
280
     1
  9
$XCLIPFRAME
290
     0
  9
$HALOGAP
280
     0
  9
$OBSCOLOR
 70
   257
  9
$OBSLTYPE
280
     0
  9
$INTERSECTIONDISPLAY
280
     0
  9
$INTERSECTIONCOLOR
 70
   257
  9
$DIMASSOC
280
     2
  9
$PROJECTNAME
  1

  9
$CAMERADISPLAY
290
     0
  9
$LENSLENGTH
 40
50.0
  9
$CAMERAHEIGHT
 40
0.0
  9
$STEPSPERSEC
 40
2.0
  9
$STEPSIZE
 40
6.0
  9
$3DDWFPREC
 40
2.0
  9
$PSOLWIDTH
 40
0.25
  9
$PSOLHEIGHT
 40
4.0
  9
$LOFTANG1
 40
1.570796326794897
  9
$LOFTANG2
 40
1.570796326794897
  9
$LOFTMAG1
 40
0.0
  9
$LOFTMAG2
 40
0.0
  9
$LOFTPARAM
 70
     7
  9
$LOFTNORMALS
280
     1
  9
$LATITUDE
 40
37.795
  9
$LONGITUDE
 40
-122.394
  9
$NORTHDIRECTION
 40
0.0
  9
$TIMEZONE
 70
 -8000
  9
$LIGHTGLYPHDISPLAY
280
     1
  9
$TILEMODELIGHTSYNCH
280
     1
  9
$SOLIDHIST
280
     1
  9
$SHOWHIST
280
     1
  9
$DWFFRAME
280
     2
  9
$DGNFRAME
280
     2
  9
$REALWORLDSCALE
290
     1
  9
$INTERFERECOLOR
 62
   256
  9
$CSHADOW
280
     0
  9
$SHADOWPLANELOCATION
 40
0.0
  0
ENDSEC
  0
SECTION
  2
CLASSES
  0
CLASS
  1
ACDBDICTIONARYWDFLT
  2
AcDbDictionaryWithDefault
  3
ObjectDBX Classes
 90
        0
 91
        4
280
     0
281
     0
  0
CLASS
  1
VISUALSTYLE
  2
AcDbVisualStyle
  3
ObjectDBX Classes
 90
     4095
 91
        4
280
     0
281
     0
  0
CLASS
  1
MATERIAL
  2
AcDbMaterial
  3
ObjectDBX Classes
 90
     1153
 91
        4
280
     0
281
     0
  0
ENDSEC
  0
SECTION
  2
TABLES
  0
TABLE
  2
VPORT
  5
8
330
0
100
AcDbSymbolTable
 70
     1
  0
VPORT
  5
29
330
8
100
AcDbSymbolTableRecord
100
AcDbViewportTableRecord
  2
*Active
 70
     0
 10
0.0
 20
0.0
 11
1.0
 21
1.0
 12
10.42990654205607
 22
4.5
 13
0.0
 23
0.0
 14
0.5
 24
0.5
 15
0.5
 25
0.5
 16
0.0
 26
0.0
 36
1.0
 17
0.0
 27
0.0
 37
0.0
 40
9.0
 41
1.972972972850329
 42
50.0
 43
0.0
 44
0.0
 50
0.0
 51
0.0
 71
     0
 72
   100
 73
     1
 74
     3
 75
     0
 76
     0
 77
     0
 78
     0
281
     0
 65
     1
110
0.0
120
0.0
130
0.0
111
1.0
121
0.0
131
0.0
112
0.0
122
1.0
132
0.0
 79
     0
146
0.0
 60
     3
 61
     5
292
     1
282
     1
141
0.0
142
0.0
 63
   250
  0
ENDTAB
  0
TABLE
  2
LTYPE
  5
5
330
0
100
AcDbSymbolTable
 70
     1
  0
LTYPE
  5
14
330
5
100
AcDbSymbolTableRecord
100
AcDbLinetypeTableRecord
  2
ByBlock
 70
     0
  3

 72
    65
 73
     0
 40
0.0
  0
LTYPE
  5
15
330
5
100
AcDbSymbolTableRecord
100
AcDbLinetypeTableRecord
  2
ByLayer
 70
     0
  3

 72
    65
 73
     0
 40
0.0
  0
LTYPE
  5
16
330
5
100
AcDbSymbolTableRecord
100
AcDbLinetypeTableRecord
  2
Continuous
 70
     0
  3
Solid line
 72
    65
 73
     0
 40
0.0
  0
ENDTAB
  0
TABLE
  2
LAYER
  5
2
330
0
100
AcDbSymbolTable
 70
     3
  0
LAYER
  5
10
330
2
100
AcDbSymbolTableRecord
100
AcDbLayerTableRecord
  2
0
 70
     0
 62
     7
  6
Continuous
370
    -3
390
F
347
3E
  0
LAYER
  5
40
330
2
100
AcDbSymbolTableRecord
100
AcDbLayerTableRecord
  2
layer 1
 70
     0
 62
     7
  6
Continuous
370
    -3
390
F
347
3E
  0
LAYER
  5
8B
330
2
100
AcDbSymbolTableRecord
100
AcDbLayerTableRecord
  2
Master Guides
 70
     0
 62
     7
  6
Continuous
370
    -3
390
F
347
3E
  0
ENDTAB
  0
TABLE
  2
STYLE
  5
3
330
0
100
AcDbSymbolTable
 70
     1
  0
STYLE
  5
11
330
3
100
AcDbSymbolTableRecord
100
AcDbTextStyleTableRecord
  2
Standard
 70
     0
 40
0.0
 41
1.0
 50
0.0
 71
     0
 42
0.2
  3
txt
  4

  0
ENDTAB
  0
TABLE
  2
VIEW
  5
6
330
0
100
AcDbSymbolTable
 70
     0
  0
ENDTAB
  0
TABLE
  2
UCS
  5
7
330
0
100
AcDbSymbolTable
 70
     0
  0
ENDTAB
  0
TABLE
  2
APPID
  5
9
330
0
100
AcDbSymbolTable
 70
     2
  0
APPID
  5
12
330
9
100
AcDbSymbolTableRecord
100
AcDbRegAppTableRecord
  2
ACAD
 70
     0
  0
APPID
  5
3F
330
9
100
AcDbSymbolTableRecord
100
AcDbRegAppTableRecord
  2
ODA
 70
     0
  0
ENDTAB
  0
TABLE
  2
DIMSTYLE
  5
A
330
0
100
AcDbSymbolTable
 70
     1
100
AcDbDimStyleTable
  0
DIMSTYLE
105
27
330
A
100
AcDbSymbolTableRecord
100
AcDbDimStyleTableRecord
  2
Standard
 70
     0
178
     0
340
11
  0
ENDTAB
  0
TABLE
  2
BLOCK_RECORD
  5
1
330
0
100
AcDbSymbolTable
 70
     1
  0
BLOCK_RECORD
  5
1F
330
1
100
AcDbSymbolTableRecord
100
AcDbBlockTableRecord
  2
*Model_Space
340
22
 70
     0
280
     1
281
     0
  0
BLOCK_RECORD
  5
1B
330
1
100
AcDbSymbolTableRecord
100
AcDbBlockTableRecord
  2
*Paper_Space
340
1E
 70
     0
280
     1
281
     0
  0
BLOCK_RECORD
  5
23
330
1
100
AcDbSymbolTableRecord
100
AcDbBlockTableRecord
  2
*Paper_Space0
340
26
 70
     0
280
     1
281
     0
  0
ENDTAB
  0
ENDSEC
  0
SECTION
  2
BLOCKS
  0
BLOCK
  5
20
330
1F
100
AcDbEntity
  8
0
100
AcDbBlockBegin
  2
*Model_Space
 70
     0
 10
0.0
 20
0.0
 30
0.0
  3
*Model_Space
  1

  0
ENDBLK
  5
21
330
1F
100
AcDbEntity
  8
0
100
AcDbBlockEnd
  0
BLOCK
  5
1C
330
1B
100
AcDbEntity
 67
     1
  8
0
100
AcDbBlockBegin
  2
*Paper_Space
 70
     0
 10
0.0
 20
0.0
 30
0.0
  3
*Paper_Space
  1

  0
ENDBLK
  5
1D
330
1B
100
AcDbEntity
 67
     1
  8
0
100
AcDbBlockEnd
  0
BLOCK
  5
24
330
23
100
AcDbEntity
  8
0
100
AcDbBlockBegin
  2
*Paper_Space0
 70
     0
 10
0.0
 20
0.0
 30
0.0
  3
*Paper_Space0
  1

  0
ENDBLK
  5
25
330
23
100
AcDbEntity
  8
0
100
AcDbBlockEnd
  0
ENDSEC
  0
SECTION
  2
ENTITIES
  0
SPLINE
  5
41
330
1F
100
AcDbEntity
  8
layer 1
100
AcDbSpline
210
0.0
220
0.0
230
1.0
 70
    11
 71
     3
 72
    20
 73
    16
 74
     0
 42
0.0000000001
 43
0.0000000001
 12
1.0
 22
0.0
 32
0.0
 13
1.0
 23
0.0
 33
0.0
 40
0.0
 40
0.0
 40
0.0
 40
0.0
 40
0.2
 40
0.2
 40
0.2
 40
0.2
 40
0.4
 40
0.4
 40
0.4
 40
0.4
 40
0.6
 40
0.6
 40
0.6
 40
0.6
 40
1.0
 40
1.0
 40
1.0
 40
1.0
 10
113.5791
 20
121.3127
 30
0.0
 10
113.5791
 20
121.3127
 30
0.0
 10
196.4303
 20
121.3127
 30
0.0
 10
196.4303
 20
121.3127
 30
0.0
 10
196.4303
 20
121.3127
 30
0.0
 10
196.4303
 20
121.3127
 30
0.0
 10
196.4303
 20
-103.8164
 30
0.0
 10
196.4303
 20
-103.8164
 30
0.0
 10
196.4303
 20
-103.8164
 30
0.0
 10
196.4303
 20
-103.8164
 30
0.0
 10
113.5791
 20
-103.8164
 30
0.0
 10
113.5791
 20
-103.8164
 30
0.0
 10
113.5791
 20
-103.8164
 30
0.0
 10
113.5791
 20
-103.8164
 30
0.0
 10
113.5791
 20
121.3127
 30
0.0
 10
113.5791
 20
121.3127
 30
0.0
  0
SPLINE
  5
42
330
1F
100
AcDbEntity
  8
layer 1
 62
     7
100
AcDbSpline
210
0.0
220
0.0
230
1.0
 70
    11
 71
     3
 72
    16
 73
    12
 74
     0
 42
0.0000000001
 43
0.0000000001
 12
1.0
 22
0.0
 32
0.0
 13
1.0
 23
0.0
 33
0.0
 40
0.0
 40
0.0
 40
0.0
 40
0.0
 40
0.25
 40
0.25
 40
0.25
 40
0.25
 40
0.5
 40
0.5
 40
0.5
 40
0.5
 40
1.0
 40
1.0
 40
1.0
 40
1.0
 10
155.6276
 20
-84.5088
 30
0.0
 10
156.7853
 20
-91.1121
 30
0.0
 10
158.117
 20
-93.6121
 30
0.0
 10
160.1151
 20
-96.4568
 30
0.0
 10
160.1151
 20
-96.4568
 30
0.0
 10
160.1151
 20
-96.4568
 30
0.0
 10
151.181
 20
-96.4568
 30
0.0
 10
151.181
 20
-96.4568
 30
0.0
 10
151.181
 20
-96.4568
 30
0.0
 10
153.1381
 20
-93.6121
 30
0.0
 10
154.4698
 20
-91.1121
 30
0.0
 10
155.6276
 20
-84.5088
 30
0.0
  0
SPLINE
  5
43
330
1F
100
AcDbEntity
  8
layer 1
 62
     7
100
AcDbSpline
210
0.0
220
0.0
230
1.0
 70
    11
 71
     3
 72
    20
 73
    16
 74
     0
 42
0.0000000001
 43
0.0000000001
 12
1.0
 22
0.0
 32
0.0
 13
1.0
 23
0.0
 33
0.0
 40
0.0
 40
0.0
 40
0.0
 40
0.0
 40
0.2
 40
0.2
 40
0.2
 40
0.2
 40
0.4
 40
0.4
 40
0.4
 40
0.4
 40
0.6
 40
0.6
 40
0.6
 40
0.6
 40
1.0
 40
1.0
 40
1.0
 40
1.0
 10
176.7464
 20
-92.1203
 30
0.0
 10
179.435
 20
-91.9481
 30
0.0
 10
181.8023
 20
-91.8164
 30
0.0
 10
183.4402
 20
-91.7347
 30
0.0
 10
183.4402
 20
-91.7347
 30
0.0
 10
182.2264
 20
-93.0433
 30
0.0
 10
180.8989
 20
-94.4087
 30
0.0
 10
180.6433
 20
-96.457
 30
0.0
 10
180.6433
 20
-96.457
 30
0.0
 10
180.6433
 20
-96.457
 30
0.0
 10
169.7757
 20
-96.457
 30
0.0
 10
169.7757
 20
-96.457
 30
0.0
 10
169.7757
 20
-96.457
 30
0.0
 10
170.1507
 20
-93.0056
 30
0.0
 10
173.2392
 20
-92.3548
 30
0.0
 10
176.7464
 20
-92.1203
 30
0.0
  0
SPLINE
  5
44
330
1F
100
AcDbEntity
  8
layer 1
 62
     7
100
AcDbSpline
210
0.0
220
0.0
230
1.0
 70
    11
 71
     3
 72
    20
 73
    16
 74
     0
 42
0.0000000001
 43
0.0000000001
 12
1.0
 22
0.0
 32
0.0
 13
1.0
 23
0.0
 33
0.0
 40
0.0
 40
0.0
 40
0.0
 40
0.0
 40
0.2
 40
0.2
 40
0.2
 40
0.2
 40
0.4
 40
0.4
 40
0.4
 40
0.4
 40
0.6
 40
0.6
 40
0.6
 40
0.6
 40
1.0
 40
1.0
 40
1.0
 40
1.0
 10
191.5305
 20
-83.8832
 30
0.0
 10
191.5305
 20
-87.2969
 30
0.0
 10
191.5305
 20
-92.4745
 30
0.0
 10
191.5403
 20
-96.457
 30
0.0
 10
191.5403
 20
-96.457
 30
0.0
 10
191.5403
 20
-96.457
 30
0.0
 10
184.4069
 20
-96.457
 30
0.0
 10
184.4069
 20
-96.457
 30
0.0
 10
184.4069
 20
-96.457
 30
0.0
 10
185.0821
 20
-91.8212
 30
0.0
 10
189.5053
 20
-92.1339
 30
0.0
 10
191.5303
 20
-83.8832
 30
0.0
 10
191.5303
 20
-83.8832
 30
0.0
 10
191.5303
 20
-83.8832
 30
0.0
 10
191.5305
 20
-83.8832
 30
0.0
 10
191.5305
 20
-83.8832
 30
0.0
  0
SPLINE
  5
45
330
1F
100
AcDbEntity
  8
layer 1
 62
     7
100
AcDbSpline
210
0.0
220
0.0
230
1.0
 70
    11
 71
     3
 72
    28
 73
    24
 74
     0
 42
0.0000000001
 43
0.0000000001
 12
1.0
 22
0.0
 32
0.0
 13
1.0
 23
0.0
 33
0.0
 40
0.0
 40
0.0
 40
0.0
 40
0.0
 40
0.1428571428571428
 40
0.1428571428571428
 40
0.1428571428571428
 40
0.1428571428571428
 40
0.2857142857142857
 40
0.2857142857142857
 40
0.2857142857142857
 40
0.2857142857142857
 40
0.4285714285714285
 40
0.4285714285714285
 40
0.4285714285714285
 40
0.4285714285714285
 40
0.5714285714285714
 40
0.5714285714285714
 40
0.5714285714285714
 40
0.5714285714285714
 40
0.7142857142857143
 40
0.7142857142857143
 40
0.7142857142857143
 40
0.7142857142857143
 40
1.0
 40
1.0
 40
1.0
 40
1.0
 10
163.9388
 20
-96.457
 30
0.0
 10
161.6165
 20
-93.916
 30
0.0
 10
158.6741
 20
-89.624
 30
0.0
 10
159.3935
 20
-81.8223
 30
0.0
 10
159.3935
 20
-81.8223
 30
0.0
 10
160.3182
 20
-76.4157
 30
0.0
 10
168.4887
 20
-77.5926
 30
0.0
 10
164.8922
 20
-83.2573
 30
0.0
 10
164.8922
 20
-83.2573
 30
0.0
 10
165.6529
 20
-84.907
 30
0.0
 10
168.6715
 20
-83.4885
 30
0.0
 10
169.2825
 20
-81.7366
 30
0.0
 10
169.2825
 20
-81.7366
 30
0.0
 10
168.6926
 20
-84.3457
 30
0.0
 10
170.2925
 20
-87.8891
 30
0.0
 10
171.9914
 20
-89.3259
 30
0.0
 10
171.9914
 20
-89.3259
 30
0.0
 10
166.4225
 20
-90.3334
 30
0.0
 10
165.3216
 20
-94.4572
 30
0.0
 10
165.4266
 20
-96.457
 30
0.0
 10
165.4266
 20
-96.457
 30
0.0
 10
165.4266
 20
-96.457
 30
0.0
 10
163.9388
 20
-96.457
 30
0.0
 10
163.9388
 20
-96.457
 30
0.0
  0
SPLINE
  5
46
330
1F
100
AcDbEntity
  8
layer 1
 62
     7
100
AcDbSpline
210
0.0
220
0.0
230
1.0
 70
    11
 71
     3
 72
    20
 73
    16
 74
     0
 42
0.0000000001
 43
0.0000000001
 12
1.0
 22
0.0
 32
0.0
 13
1.0
 23
0.0
 33
0.0
 40
0.0
 40
0.0
 40
0.0
 40
0.0
 40
0.2
 40
0.2
 40
0.2
 40
0.2
 40
0.4
 40
0.4
 40
0.4
 40
0.4
 40
0.6
 40
0.6
 40
0.6
 40
0.6
 40
1.0
 40
1.0
 40
1.0
 40
1.0
 10
134.427
 20
-92.1203
 30
0.0
 10
131.7384
 20
-91.9481
 30
0.0
 10
129.3711
 20
-91.8164
 30
0.0
 10
127.7332
 20
-91.7347
 30
0.0
 10
127.7332
 20
-91.7347
 30
0.0
 10
128.9471
 20
-93.0433
 30
0.0
 10
130.2745
 20
-94.4087
 30
0.0
 10
130.5301
 20
-96.457
 30
0.0
 10
130.5301
 20
-96.457
 30
0.0
 10
130.5301
 20
-96.457
 30
0.0
 10
141.3977
 20
-96.457
 30
0.0
 10
141.3977
 20
-96.457
 30
0.0
 10
141.3977
 20
-96.457
 30
0.0
 10
141.0227
 20
-93.0056
 30
0.0
 10
137.9342
 20
-92.3548
 30
0.0
 10
134.427
 20
-92.1203
 30
0.0
  0
SPLINE
  5
47
330
1F
100
AcDbEntity
  8
layer 1
 62
     7
100
AcDbSpline
210
0.0
220
0.0
230
1.0
 70
    11
 71
     3
 72
    20
 73
    16
 74
     0
 42
0.0000000001
 43
0.0000000001
 12
1.0
 22
0.0
 32
0.0
 13
1.0
 23
0.0
 33
0.0
 40
0.0
 40
0.0
 40
0.0
 40
0.0
 40
0.2
 40
0.2
 40
0.2
 40
0.2
 40
0.4
 40
0.4
 40
0.4
 40
0.4
 40
0.6
 40
0.6
 40
0.6
 40
0.6
 40
1.0
 40
1.0
 40
1.0
 40
1.0
 10
119.6429
 20
-83.8832
 30
0.0
 10
119.6429
 20
-87.2969
 30
0.0
 10
119.6429
 20
-92.4745
 30
0.0
 10
119.6331
 20
-96.457
 30
0.0
 10
119.6331
 20
-96.457
 30
0.0
 10
119.6331
 20
-96.457
 30
0.0
 10
126.7665
 20
-96.457
 30
0.0
 10
126.7665
 20
-96.457
 30
0.0
 10
126.7665
 20
-96.457
 30
0.0
 10
126.0913
 20
-91.8212
 30
0.0
 10
121.6681
 20
-92.1339
 30
0.0
 10
119.6432
 20
-83.8832
 30
0.0
 10
119.6432
 20
-83.8832
 30
0.0
 10
119.6432
 20
-83.8832
 30
0.0
 10
119.6429
 20
-83.8832
 30
0.0
 10
119.6429
 20
-83.8832
 30
0.0
  0
SPLINE
  5
48
330
1F
100
AcDbEntity
  8
layer 1
 62
     7
100
AcDbSpline
210
0.0
220
0.0
230
1.0
 70
    11
 71
     3
 72
    28
 73
    24
 74
     0
 42
0.0000000001
 43
0.0000000001
 12
1.0
 22
0.0
 32
0.0
 13
1.0
 23
0.0
 33
0.0
 40
0.0
 40
0.0
 40
0.0
 40
0.0
 40
0.1428571428571428
 40
0.1428571428571428
 40
0.1428571428571428
 40
0.1428571428571428
 40
0.2857142857142857
 40
0.2857142857142857
 40
0.2857142857142857
 40
0.2857142857142857
 40
0.4285714285714285
 40
0.4285714285714285
 40
0.4285714285714285
 40
0.4285714285714285
 40
0.5714285714285714
 40
0.5714285714285714
 40
0.5714285714285714
 40
0.5714285714285714
 40
0.7142857142857143
 40
0.7142857142857143
 40
0.7142857142857143
 40
0.7142857142857143
 40
1.0
 40
1.0
 40
1.0
 40
1.0
 10
147.2349
 20
-96.457
 30
0.0
 10
149.5572
 20
-93.916
 30
0.0
 10
152.4996
 20
-89.624
 30
0.0
 10
151.7802
 20
-81.8223
 30
0.0
 10
151.7802
 20
-81.8223
 30
0.0
 10
150.8555
 20
-76.4157
 30
0.0
 10
142.685
 20
-77.5926
 30
0.0
 10
146.2814
 20
-83.2573
 30
0.0
 10
146.2814
 20
-83.2573
 30
0.0
 10
145.5208
 20
-84.907
 30
0.0
 10
142.5022
 20
-83.4885
 30
0.0
 10
141.8912
 20
-81.7366
 30
0.0
 10
141.8912
 20
-81.7366
 30
0.0
 10
142.4811
 20
-84.3457
 30
0.0
 10
140.8812
 20
-87.8891
 30
0.0
 10
139.1822
 20
-89.3259
 30
0.0
 10
139.1822
 20
-89.3259
 30
0.0
 10
144.7512
 20
-90.3334
 30
0.0
 10
145.8521
 20
-94.4572
 30
0.0
 10
145.747
 20
-96.457
 30
0.0
 10
145.747
 20
-96.457
 30
0.0
 10
145.747
 20
-96.457
 30
0.0
 10
147.2349
 20
-96.457
 30
0.0
 10
147.2349
 20
-96.457
 30
0.0
  0
SPLINE
  5
49
330
1F
100
AcDbEntity
  8
layer 1
 62
     7
100
AcDbSpline
210
0.0
220
0.0
230
1.0
 70
    11
 71
     3
 72
    16
 73
    12
 74
     0
 42
0.0000000001
 43
0.0000000001
 12
1.0
 22
0.0
 32
0.0
 13
1.0
 23
0.0
 33
0.0
 40
0.0
 40
0.0
 40
0.0
 40
0.0
 40
0.25
 40
0.25
 40
0.25
 40
0.25
 40
0.5
 40
0.5
 40
0.5
 40
0.5
 40
1.0
 40
1.0
 40
1.0
 40
1.0
 10
155.6276
 20
102.4043
 30
0.0
 10
156.7853
 20
109.0076
 30
0.0
 10
158.117
 20
111.5076
 30
0.0
 10
160.1151
 20
114.3523
 30
0.0
 10
160.1151
 20
114.3523
 30
0.0
 10
160.1151
 20
114.3523
 30
0.0
 10
151.181
 20
114.3523
 30
0.0
 10
151.181
 20
114.3523
 30
0.0
 10
151.181
 20
114.3523
 30
0.0
 10
153.1381
 20
111.5076
 30
0.0
 10
154.4698
 20
109.0076
 30
0.0
 10
155.6276
 20
102.4043
 30
0.0
  0
SPLINE
  5
4A
330
1F
100
AcDbEntity
  8
layer 1
 62
     7
100
AcDbSpline
210
0.0
220
0.0
230
1.0
 70
    11
 71
     3
 72
    20
 73
    16
 74
     0
 42
0.0000000001
 43
0.0000000001
 12
1.0
 22
0.0
 32
0.0
 13
1.0
 23
0.0
 33
0.0
 40
0.0
 40
0.0
 40
0.0
 40
0.0
 40
0.2
 40
0.2
 40
0.2
 40
0.2
 40
0.4
 40
0.4
 40
0.4
 40
0.4
 40
0.6
 40
0.6
 40
0.6
 40
0.6
 40
1.0
 40
1.0
 40
1.0
 40
1.0
 10
176.7464
 20
110.0155
 30
0.0
 10
179.435
 20
109.8433
 30
0.0
 10
181.8023
 20
109.7116
 30
0.0
 10
183.4402
 20
109.6299
 30
0.0
 10
183.4402
 20
109.6299
 30
0.0
 10
182.2264
 20
110.9385
 30
0.0
 10
180.8989
 20
112.3039
 30
0.0
 10
180.6433
 20
114.3523
 30
0.0
 10
180.6433
 20
114.3523
 30
0.0
 10
180.6433
 20
114.3523
 30
0.0
 10
169.7757
 20
114.3523
 30
0.0
 10
169.7757
 20
114.3523
 30
0.0
 10
169.7757
 20
114.3523
 30
0.0
 10
170.1507
 20
110.9008
 30
0.0
 10
173.2392
 20
110.25
 30
0.0
 10
176.7464
 20
110.0155
 30
0.0
  0
SPLINE
  5
4B
330
1F
100
AcDbEntity
  8
layer 1
 62
     7
100
AcDbSpline
210
0.0
220
0.0
230
1.0
 70
    11
 71
     3
 72
    20
 73
    16
 74
     0
 42
0.0000000001
 43
0.0000000001
 12
1.0
 22
0.0
 32
0.0
 13
1.0
 23
0.0
 33
0.0
 40
0.0
 40
0.0
 40
0.0
 40
0.0
 40
0.2
 40
0.2
 40
0.2
 40
0.2
 40
0.4
 40
0.4
 40
0.4
 40
0.4
 40
0.6
 40
0.6
 40
0.6
 40
0.6
 40
1.0
 40
1.0
 40
1.0
 40
1.0
 10
191.5305
 20
101.7784
 30
0.0
 10
191.5305
 20
105.1921
 30
0.0
 10
191.5305
 20
110.3697
 30
0.0
 10
191.5403
 20
114.3523
 30
0.0
 10
191.5403
 20
114.3523
 30
0.0
 10
191.5403
 20
114.3523
 30
0.0
 10
184.4069
 20
114.3523
 30
0.0
 10
184.4069
 20
114.3523
 30
0.0
 10
184.4069
 20
114.3523
 30
0.0
 10
185.0821
 20
109.7164
 30
0.0
 10
189.5053
 20
110.0291
 30
0.0
 10
191.5303
 20
101.7784
 30
0.0
 10
191.5303
 20
101.7784
 30
0.0
 10
191.5303
 20
101.7784
 30
0.0
 10
191.5305
 20
101.7784
 30
0.0
 10
191.5305
 20
101.7784
 30
0.0
  0
SPLINE
  5
4C
330
1F
100
AcDbEntity
  8
layer 1
 62
     7
100
AcDbSpline
210
0.0
220
0.0
230
1.0
 70
    11
 71
     3
 72
    28
 73
    24
 74
     0
 42
0.0000000001
 43
0.0000000001
 12
1.0
 22
0.0
 32
0.0
 13
1.0
 23
0.0
 33
0.0
 40
0.0
 40
0.0
 40
0.0
 40
0.0
 40
0.1428571428571428
 40
0.1428571428571428
 40
0.1428571428571428
 40
0.1428571428571428
 40
0.2857142857142857
 40
0.2857142857142857
 40
0.2857142857142857
 40
0.2857142857142857
 40
0.4285714285714285
 40
0.4285714285714285
 40
0.4285714285714285
 40
0.4285714285714285
 40
0.5714285714285714
 40
0.5714285714285714
 40
0.5714285714285714
 40
0.5714285714285714
 40
0.7142857142857143
 40
0.7142857142857143
 40
0.7142857142857143
 40
0.7142857142857143
 40
1.0
 40
1.0
 40
1.0
 40
1.0
 10
163.9388
 20
114.3523
 30
0.0
 10
161.6165
 20
111.8112
 30
0.0
 10
158.6741
 20
107.5192
 30
0.0
 10
159.3935
 20
99.7175
 30
0.0
 10
159.3935
 20
99.7175
 30
0.0
 10
160.3182
 20
94.311
 30
0.0
 10
168.4887
 20
95.4878
 30
0.0
 10
164.8922
 20
101.1525
 30
0.0
 10
164.8922
 20
101.1525
 30
0.0
 10
165.6529
 20
102.8022
 30
0.0
 10
168.6715
 20
101.3838
 30
0.0
 10
169.2825
 20
99.6318
 30
0.0
 10
169.2825
 20
99.6318
 30
0.0
 10
168.6926
 20
102.2409
 30
0.0
 10
170.2925
 20
105.7843
 30
0.0
 10
171.9914
 20
107.2211
 30
0.0
 10
171.9914
 20
107.2211
 30
0.0
 10
166.4225
 20
108.2286
 30
0.0
 10
165.3216
 20
112.3524
 30
0.0
 10
165.4266
 20
114.3523
 30
0.0
 10
165.4266
 20
114.3523
 30
0.0
 10
165.4266
 20
114.3523
 30
0.0
 10
163.9388
 20
114.3523
 30
0.0
 10
163.9388
 20
114.3523
 30
0.0
  0
SPLINE
  5
4D
330
1F
100
AcDbEntity
  8
layer 1
 62
     7
100
AcDbSpline
210
0.0
220
0.0
230
1.0
 70
    11
 71
     3
 72
    20
 73
    16
 74
     0
 42
0.0000000001
 43
0.0000000001
 12
1.0
 22
0.0
 32
0.0
 13
1.0
 23
0.0
 33
0.0
 40
0.0
 40
0.0
 40
0.0
 40
0.0
 40
0.2
 40
0.2
 40
0.2
 40
0.2
 40
0.4
 40
0.4
 40
0.4
 40
0.4
 40
0.6
 40
0.6
 40
0.6
 40
0.6
 40
1.0
 40
1.0
 40
1.0
 40
1.0
 10
134.427
 20
110.0155
 30
0.0
 10
131.7384
 20
109.8433
 30
0.0
 10
129.3711
 20
109.7116
 30
0.0
 10
127.7332
 20
109.6299
 30
0.0
 10
127.7332
 20
109.6299
 30
0.0
 10
128.9471
 20
110.9385
 30
0.0
 10
130.2745
 20
112.3039
 30
0.0
 10
130.5301
 20
114.3523
 30
0.0
 10
130.5301
 20
114.3523
 30
0.0
 10
130.5301
 20
114.3523
 30
0.0
 10
141.3977
 20
114.3523
 30
0.0
 10
141.3977
 20
114.3523
 30
0.0
 10
141.3977
 20
114.3523
 30
0.0
 10
141.0227
 20
110.9008
 30
0.0
 10
137.9342
 20
110.25
 30
0.0
 10
134.427
 20
110.0155
 30
0.0
  0
SPLINE
  5
4E
330
1F
100
AcDbEntity
  8
layer 1
 62
     7
100
AcDbSpline
210
0.0
220
0.0
230
1.0
 70
    11
 71
     3
 72
    20
 73
    16
 74
     0
 42
0.0000000001
 43
0.0000000001
 12
1.0
 22
0.0
 32
0.0
 13
1.0
 23
0.0
 33
0.0
 40
0.0
 40
0.0
 40
0.0
 40
0.0
 40
0.2
 40
0.2
 40
0.2
 40
0.2
 40
0.4
 40
0.4
 40
0.4
 40
0.4
 40
0.6
 40
0.6
 40
0.6
 40
0.6
 40
1.0
 40
1.0
 40
1.0
 40
1.0
 10
119.6429
 20
101.7784
 30
0.0
 10
119.6429
 20
105.1921
 30
0.0
 10
119.6429
 20
110.3697
 30
0.0
 10
119.6331
 20
114.3523
 30
0.0
 10
119.6331
 20
114.3523
 30
0.0
 10
119.6331
 20
114.3523
 30
0.0
 10
126.7665
 20
114.3523
 30
0.0
 10
126.7665
 20
114.3523
 30
0.0
 10
126.7665
 20
114.3523
 30
0.0
 10
126.0913
 20
109.7164
 30
0.0
 10
121.6681
 20
110.0291
 30
0.0
 10
119.6432
 20
101.7784
 30
0.0
 10
119.6432
 20
101.7784
 30
0.0
 10
119.6432
 20
101.7784
 30
0.0
 10
119.6429
 20
101.7784
 30
0.0
 10
119.6429
 20
101.7784
 30
0.0
  0
SPLINE
  5
4F
330
1F
100
AcDbEntity
  8
layer 1
 62
     7
100
AcDbSpline
210
0.0
220
0.0
230
1.0
 70
    11
 71
     3
 72
    28
 73
    24
 74
     0
 42
0.0000000001
 43
0.0000000001
 12
1.0
 22
0.0
 32
0.0
 13
1.0
 23
0.0
 33
0.0
 40
0.0
 40
0.0
 40
0.0
 40
0.0
 40
0.1428571428571428
 40
0.1428571428571428
 40
0.1428571428571428
 40
0.1428571428571428
 40
0.2857142857142857
 40
0.2857142857142857
 40
0.2857142857142857
 40
0.2857142857142857
 40
0.4285714285714285
 40
0.4285714285714285
 40
0.4285714285714285
 40
0.4285714285714285
 40
0.5714285714285714
 40
0.5714285714285714
 40
0.5714285714285714
 40
0.5714285714285714
 40
0.7142857142857143
 40
0.7142857142857143
 40
0.7142857142857143
 40
0.7142857142857143
 40
1.0
 40
1.0
 40
1.0
 40
1.0
 10
136.8237
 20
83.8498
 30
0.0
 10
131.5778
 20
84.855
 30
0.0
 10
133.88
 20
91.3376
 30
0.0
 10
138.0981
 20
89.1075
 30
0.0
 10
138.0981
 20
89.1075
 30
0.0
 10
138.4216
 20
90.5513
 30
0.0
 10
138.3294
 20
93.0071
 30
0.0
 10
136.0548
 20
93.8995
 30
0.0
 10
136.0548
 20
93.8995
 30
0.0
 10
138.1818
 20
93.6313
 30
0.0
 10
139.6757
 20
94.9094
 30
0.0
 10
140.6703
 20
96.2467
 30
0.0
 10
140.6703
 20
96.2467
 30
0.0
 10
140.7133
 20
90.4365
 30
0.0
 10
147.6903
 20
88.5721
 30
0.0
 10
151.0568
 20
91.3431
 30
0.0
 10
151.0568
 20
91.3431
 30
0.0
 10
148.5158
 20
88.3233
 30
0.0
 10
144.6255
 20
83.1304
 30
0.0
 10
136.824
 20
83.8498
 30
0.0
 10
136.824
 20
83.8498
 30
0.0
 10
136.824
 20
83.8498
 30
0.0
 10
136.8237
 20
83.8498
 30
0.0
 10
136.8237
 20
83.8498
 30
0.0
  0
SPLINE
  5
50
330
1F
100
AcDbEntity
  8
layer 1
 62
     7
100
AcDbSpline
210
0.0
220
0.0
230
1.0
 70
    11
 71
     3
 72
    24
 73
    20
 74
     0
 42
0.0000000001
 43
0.0000000001
 12
1.0
 22
0.0
 32
0.0
 13
1.0
 23
0.0
 33
0.0
 40
0.0
 40
0.0
 40
0.0
 40
0.0
 40
0.1666666666666667
 40
0.1666666666666667
 40
0.1666666666666667
 40
0.1666666666666667
 40
0.3333333333333333
 40
0.3333333333333333
 40
0.3333333333333333
 40
0.3333333333333333
 40
0.5
 40
0.5
 40
0.5
 40
0.5
 40
0.6666666666666666
 40
0.6666666666666666
 40
0.6666666666666666
 40
0.6666666666666666
 40
1.0
 40
1.0
 40
1.0
 40
1.0
 10
122.2732
 20
98.2664
 30
0.0
 10
124.5241
 20
108.5357
 30
0.0
 10
139.607
 20
106.0324
 30
0.0
 10
136.4125
 20
98.4388
 30
0.0
 10
136.4125
 20
98.4388
 30
0.0
 10
135.7137
 20
97.181
 30
0.0
 10
133.503
 20
96.1152
 30
0.0
 10
129.814
 20
97.8396
 30
0.0
 10
129.814
 20
97.8396
 30
0.0
 10
129.8547
 20
95.5821
 30
0.0
 10
131.1907
 20
94.3695
 30
0.0
 10
133.6254
 20
94.0581
 30
0.0
 10
133.6254
 20
94.0581
 30
0.0
 10
128.7394
 20
94.0553
 30
0.0
 10
127.5583
 20
87.44
 30
0.0
 10
129.2442
 20
84.1942
 30
0.0
 10
129.2442
 20
84.1942
 30
0.0
 10
126.2243
 20
86.7352
 30
0.0
 10
121.5538
 20
90.4646
 30
0.0
 10
122.2732
 20
98.2664
 30
0.0
  0
SPLINE
  5
51
330
1F
100
AcDbEntity
  8
layer 1
 62
     7
100
AcDbSpline
210
0.0
220
0.0
230
1.0
 70
    11
 71
     3
 72
    12
 73
     8
 74
     0
 42
0.0000000001
 43
0.0000000001
 12
1.0
 22
0.0
 32
0.0
 13
1.0
 23
0.0
 33
0.0
 40
0.0
 40
0.0
 40
0.0
 40
0.0
 40
0.3333333333333333
 40
0.3333333333333333
 40
0.3333333333333333
 40
0.3333333333333333
 40
1.0
 40
1.0
 40
1.0
 40
1.0
 10
120.7021
 20
63.5059
 30
0.0
 10
119.8256
 20
71.2795
 30
0.0
 10
123.6818
 20
76.2607
 30
0.0
 10
128.331
 20
74.3461
 30
0.0
 10
128.331
 20
74.3461
 30
0.0
 10
126.1122
 20
72.2643
 30
0.0
 10
122.2357
 20
68.2594
 30
0.0
 10
120.7021
 20
63.5059
 30
0.0
  0
SPLINE
  5
52
330
1F
100
AcDbEntity
  8
layer 1
 62
     7
100
AcDbSpline
210
0.0
220
0.0
230
1.0
 70
    11
 71
     3
 72
    28
 73
    24
 74
     0
 42
0.0000000001
 43
0.0000000001
 12
1.0
 22
0.0
 32
0.0
 13
1.0
 23
0.0
 33
0.0
 40
0.0
 40
0.0
 40
0.0
 40
0.0
 40
0.1428571428571428
 40
0.1428571428571428
 40
0.1428571428571428
 40
0.1428571428571428
 40
0.2857142857142857
 40
0.2857142857142857
 40
0.2857142857142857
 40
0.2857142857142857
 40
0.4285714285714285
 40
0.4285714285714285
 40
0.4285714285714285
 40
0.4285714285714285
 40
0.5714285714285714
 40
0.5714285714285714
 40
0.5714285714285714
 40
0.5714285714285714
 40
0.7142857142857143
 40
0.7142857142857143
 40
0.7142857142857143
 40
0.7142857142857143
 40
1.0
 40
1.0
 40
1.0
 40
1.0
 10
137.116
 20
65.2222
 30
0.0
 10
131.3807
 20
65.9338
 30
0.0
 10
133.2589
 20
73.0362
 30
0.0
 10
137.8357
 20
69.3379
 30
0.0
 10
137.8357
 20
69.3379
 30
0.0
 10
138.0287
 20
72.7391
 30
0.0
 10
136.4683
 20
74.9994
 30
0.0
 10
132.2364
 20
73.6732
 30
0.0
 10
132.2364
 20
73.6732
 30
0.0
 10
136.7775
 20
76.8303
 30
0.0
 10
143.3933
 20
80.8817
 30
0.0
 10
146.476
 20
81.6969
 30
0.0
 10
146.476
 20
81.6969
 30
0.0
 10
141.4623
 20
76.2783
 30
0.0
 10
141.5556
 20
68.835
 30
0.0
 10
145.3788
 20
64.7875
 30
0.0
 10
145.3788
 20
64.7875
 30
0.0
 10
143.5227
 20
65.1932
 30
0.0
 10
142.0468
 20
64.9919
 30
0.0
 10
137.116
 20
65.2219
 30
0.0
 10
137.116
 20
65.2219
 30
0.0
 10
137.116
 20
65.2219
 30
0.0
 10
137.116
 20
65.2222
 30
0.0
 10
137.116
 20
65.2222
 30
0.0
  0
SPLINE
  5
53
330
1F
100
AcDbEntity
  8
layer 1
 62
     7
100
AcDbSpline
210
0.0
220
0.0
230
1.0
 70
    11
 71
     3
 72
    24
 73
    20
 74
     0
 42
0.0000000001
 43
0.0000000001
 12
1.0
 22
0.0
 32
0.0
 13
1.0
 23
0.0
 33
0.0
 40
0.0
 40
0.0
 40
0.0
 40
0.0
 40
0.1666666666666667
 40
0.1666666666666667
 40
0.1666666666666667
 40
0.1666666666666667
 40
0.3333333333333333
 40
0.3333333333333333
 40
0.3333333333333333
 40
0.3333333333333333
 40
0.5
 40
0.5
 40
0.5
 40
0.5
 40
0.6666666666666666
 40
0.6666666666666666
 40
0.6666666666666666
 40
0.6666666666666666
 40
1.0
 40
1.0
 40
1.0
 40
1.0
 10
123.7449
 20
55.7928
 30
0.0
 10
124.6696
 20
50.3863
 30
0.0
 10
133.3102
 20
50.8842
 30
0.0
 10
129.7137
 20
56.5489
 30
0.0
 10
129.7137
 20
56.5489
 30
0.0
 10
130.4743
 20
58.1986
 30
0.0
 10
133.2838
 20
57.0413
 30
0.0
 10
133.8949
 20
55.2891
 30
0.0
 10
133.8949
 20
55.2891
 30
0.0
 10
133.3049
 20
57.8982
 30
0.0
 10
134.9048
 20
61.0239
 30
0.0
 10
136.6038
 20
62.4607
 30
0.0
 10
136.6038
 20
62.4607
 30
0.0
 10
130.9826
 20
62.3715
 30
0.0
 10
129.1504
 20
66.1818
 30
0.0
 10
129.301
 20
70.2187
 30
0.0
 10
129.301
 20
70.2187
 30
0.0
 10
126.2811
 20
67.6777
 30
0.0
 10
123.0255
 20
63.5946
 30
0.0
 10
123.7449
 20
55.7928
 30
0.0
  0
SPLINE
  5
54
330
1F
100
AcDbEntity
  8
layer 1
 62
     7
100
AcDbSpline
210
0.0
220
0.0
230
1.0
 70
    11
 71
     3
 72
    28
 73
    24
 74
     0
 42
0.0000000001
 43
0.0000000001
 12
1.0
 22
0.0
 32
0.0
 13
1.0
 23
0.0
 33
0.0
 40
0.0
 40
0.0
 40
0.0
 40
0.0
 40
0.1428571428571428
 40
0.1428571428571428
 40
0.1428571428571428
 40
0.1428571428571428
 40
0.2857142857142857
 40
0.2857142857142857
 40
0.2857142857142857
 40
0.2857142857142857
 40
0.4285714285714285
 40
0.4285714285714285
 40
0.4285714285714285
 40
0.4285714285714285
 40
0.5714285714285714
 40
0.5714285714285714
 40
0.5714285714285714
 40
0.5714285714285714
 40
0.7142857142857143
 40
0.7142857142857143
 40
0.7142857142857143
 40
0.7142857142857143
 40
1.0
 40
1.0
 40
1.0
 40
1.0
 10
138.8054
 20
40.2906
 30
0.0
 10
144.0514
 20
41.2958
 30
0.0
 10
141.7491
 20
47.7784
 30
0.0
 10
137.531
 20
45.5483
 30
0.0
 10
137.531
 20
45.5483
 30
0.0
 10
137.2075
 20
46.9922
 30
0.0
 10
137.6653
 20
48.7168
 30
0.0
 10
139.9398
 20
49.6091
 30
0.0
 10
139.9398
 20
49.6091
 30
0.0
 10
137.3428
 20
49.3409
 30
0.0
 10
135.9012
 20
50.7759
 30
0.0
 10
134.802
 20
52.6352
 30
0.0
 10
134.802
 20
52.6352
 30
0.0
 10
134.759
 20
46.825
 30
0.0
 10
127.2597
 20
46.0051
 30
0.0
 10
123.8934
 20
48.7761
 30
0.0
 10
123.8934
 20
48.7761
 30
0.0
 10
124.8154
 20
43.5106
 30
0.0
 10
131.1603
 20
38.8398
 30
0.0
 10
138.8054
 20
40.2904
 30
0.0
 10
138.8054
 20
40.2904
 30
0.0
 10
138.8054
 20
40.2904
 30
0.0
 10
138.8054
 20
40.2906
 30
0.0
 10
138.8054
 20
40.2906
 30
0.0
  0
SPLINE
  5
55
330
1F
100
AcDbEntity
  8
layer 1
 62
     7
100
AcDbSpline
210
0.0
220
0.0
230
1.0
 70
    11
 71
     3
 72
    28
 73
    24
 74
     0
 42
0.0000000001
 43
0.0000000001
 12
1.0
 22
0.0
 32
0.0
 13
1.0
 23
0.0
 33
0.0
 40
0.0
 40
0.0
 40
0.0
 40
0.0
 40
0.1428571428571428
 40
0.1428571428571428
 40
0.1428571428571428
 40
0.1428571428571428
 40
0.2857142857142857
 40
0.2857142857142857
 40
0.2857142857142857
 40
0.2857142857142857
 40
0.4285714285714285
 40
0.4285714285714285
 40
0.4285714285714285
 40
0.4285714285714285
 40
0.5714285714285714
 40
0.5714285714285714
 40
0.5714285714285714
 40
0.5714285714285714
 40
0.7142857142857143
 40
0.7142857142857143
 40
0.7142857142857143
 40
0.7142857142857143
 40
1.0
 40
1.0
 40
1.0
 40
1.0
 10
152.207
 20
53.3493
 30
0.0
 10
150.1127
 20
62.6786
 30
0.0
 10
136.179
 20
61.2723
 30
0.0
 10
139.3735
 20
53.6784
 30
0.0
 10
139.3735
 20
53.6784
 30
0.0
 10
140.0082
 20
52.5395
 30
0.0
 10
142.5633
 20
51.2434
 30
0.0
 10
144.7796
 20
53.4142
 30
0.0
 10
144.7796
 20
53.4142
 30
0.0
 10
145.146
 20
51.7034
 30
0.0
 10
143.9611
 20
49.9592
 30
0.0
 10
141.7429
 20
50.0811
 30
0.0
 10
141.7429
 20
50.0811
 30
0.0
 10
146.5243
 20
49.3474
 30
0.0
 10
146.9744
 20
43.6196
 30
0.0
 10
145.4452
 20
41.0005
 30
0.0
 10
145.4452
 20
41.0005
 30
0.0
 10
148.465
 20
43.5415
 30
0.0
 10
152.9267
 20
45.5473
 30
0.0
 10
152.2073
 20
53.3491
 30
0.0
 10
152.2073
 20
53.3491
 30
0.0
 10
152.2073
 20
53.3491
 30
0.0
 10
152.207
 20
53.3493
 30
0.0
 10
152.207
 20
53.3493
 30
0.0
  0
SPLINE
  5
56
330
1F
100
AcDbEntity
  8
layer 1
 62
     7
100
AcDbSpline
210
0.0
220
0.0
230
1.0
 70
    11
 71
     3
 72
    28
 73
    24
 74
     0
 42
0.0000000001
 43
0.0000000001
 12
1.0
 22
0.0
 32
0.0
 13
1.0
 23
0.0
 33
0.0
 40
0.0
 40
0.0
 40
0.0
 40
0.0
 40
0.1428571428571428
 40
0.1428571428571428
 40
0.1428571428571428
 40
0.1428571428571428
 40
0.2857142857142857
 40
0.2857142857142857
 40
0.2857142857142857
 40
0.2857142857142857
 40
0.4285714285714285
 40
0.4285714285714285
 40
0.4285714285714285
 40
0.4285714285714285
 40
0.5714285714285714
 40
0.5714285714285714
 40
0.5714285714285714
 40
0.5714285714285714
 40
0.7142857142857143
 40
0.7142857142857143
 40
0.7142857142857143
 40
0.7142857142857143
 40
1.0
 40
1.0
 40
1.0
 40
1.0
 10
138.7137
 20
23.5613
 30
0.0
 10
142.6045
 20
24.6082
 30
0.0
 10
141.5998
 20
29.5982
 30
0.0
 10
137.3026
 20
27.6884
 30
0.0
 10
137.3026
 20
27.6884
 30
0.0
 10
137.5567
 20
29.3569
 30
0.0
 10
140.1789
 20
31.5613
 30
0.0
 10
143.2372
 20
30.9618
 30
0.0
 10
143.2372
 20
30.9618
 30
0.0
 10
139.0314
 20
34.3427
 30
0.0
 10
135.9367
 20
35.3202
 30
0.0
 10
131.848
 20
36.8618
 30
0.0
 10
131.848
 20
36.8618
 30
0.0
 10
135.1293
 20
32.3933
 30
0.0
 10
135.5558
 20
26.6756
 30
0.0
 10
133.0181
 20
23.0754
 30
0.0
 10
133.0181
 20
23.0754
 30
0.0
 10
135.0976
 20
22.9223
 30
0.0
 10
136.509
 20
23.045
 30
0.0
 10
138.714
 20
23.5613
 30
0.0
 10
138.714
 20
23.5613
 30
0.0
 10
138.714
 20
23.5613
 30
0.0
 10
138.7137
 20
23.5613
 30
0.0
 10
138.7137
 20
23.5613
 30
0.0
  0
SPLINE
  5
57
330
1F
100
AcDbEntity
  8
layer 1
 62
     7
100
AcDbSpline
210
0.0
220
0.0
230
1.0
 70
    11
 71
     3
 72
    24
 73
    20
 74
     0
 42
0.0000000001
 43
0.0000000001
 12
1.0
 22
0.0
 32
0.0
 13
1.0
 23
0.0
 33
0.0
 40
0.0
 40
0.0
 40
0.0
 40
0.0
 40
0.1666666666666667
 40
0.1666666666666667
 40
0.1666666666666667
 40
0.1666666666666667
 40
0.3333333333333333
 40
0.3333333333333333
 40
0.3333333333333333
 40
0.3333333333333333
 40
0.5
 40
0.5
 40
0.5
 40
0.5
 40
0.6666666666666666
 40
0.6666666666666666
 40
0.6666666666666666
 40
0.6666666666666666
 40
1.0
 40
1.0
 40
1.0
 40
1.0
 10
130.0852
 20
28.029
 30
0.0
 10
129.08
 20
22.783
 30
0.0
 10
122.0384
 20
24.8618
 30
0.0
 10
124.1569
 20
29.3034
 30
0.0
 10
124.1569
 20
29.3034
 30
0.0
 10
121.6777
 20
29.6952
 30
0.0
 10
119.929
 20
28.3665
 30
0.0
 10
119.6429
 20
25.0805
 30
0.0
 10
119.6429
 20
25.0805
 30
0.0
 10
119.6429
 20
25.0805
 30
0.0
 10
119.6429
 20
45.9038
 30
0.0
 10
119.6429
 20
45.9038
 30
0.0
 10
119.6429
 20
45.9038
 30
0.0
 10
124.1815
 20
38.7571
 30
0.0
 10
130.9358
 20
32.9486
 30
0.0
 10
130.0852
 20
28.0292
 30
0.0
 10
130.0852
 20
28.0292
 30
0.0
 10
130.0852
 20
28.0292
 30
0.0
 10
130.0852
 20
28.029
 30
0.0
 10
130.0852
 20
28.029
 30
0.0
  0
SPLINE
  5
58
330
1F
100
AcDbEntity
  8
layer 1
 62
     7
100
AcDbSpline
210
0.0
220
0.0
230
1.0
 70
    11
 71
     3
 72
    28
 73
    24
 74
     0
 42
0.0000000001
 43
0.0000000001
 12
1.0
 22
0.0
 32
0.0
 13
1.0
 23
0.0
 33
0.0
 40
0.0
 40
0.0
 40
0.0
 40
0.0
 40
0.1428571428571428
 40
0.1428571428571428
 40
0.1428571428571428
 40
0.1428571428571428
 40
0.2857142857142857
 40
0.2857142857142857
 40
0.2857142857142857
 40
0.2857142857142857
 40
0.4285714285714285
 40
0.4285714285714285
 40
0.4285714285714285
 40
0.4285714285714285
 40
0.5714285714285714
 40
0.5714285714285714
 40
0.5714285714285714
 40
0.5714285714285714
 40
0.7142857142857143
 40
0.7142857142857143
 40
0.7142857142857143
 40
0.7142857142857143
 40
1.0
 40
1.0
 40
1.0
 40
1.0
 10
141.4314
 20
14.5429
 30
0.0
 10
141.9387
 20
17.0965
 30
0.0
 10
144.0521
 20
17.6435
 30
0.0
 10
145.6259
 20
17.2031
 30
0.0
 10
145.6259
 20
17.2031
 30
0.0
 10
143.66
 20
12.11
 30
0.0
 10
152.2382
 20
11.6196
 30
0.0
 10
152.2095
 20
17.1204
 30
0.0
 10
152.2095
 20
17.1204
 30
0.0
 10
152.0253
 20
22.5101
 30
0.0
 10
148.5937
 20
26.3149
 30
0.0
 10
146.376
 20
28.5729
 30
0.0
 10
146.376
 20
28.5729
 30
0.0
 10
148.602
 20
21.5604
 30
0.0
 10
142.5543
 20
19.8471
 30
0.0
 10
138.3917
 20
20.8777
 30
0.0
 10
138.3917
 20
20.8777
 30
0.0
 10
140.7756
 20
19.273
 30
0.0
 10
142.088
 20
17.5515
 30
0.0
 10
141.4317
 20
14.5429
 30
0.0
 10
141.4317
 20
14.5429
 30
0.0
 10
141.4317
 20
14.5429
 30
0.0
 10
141.4314
 20
14.5429
 30
0.0
 10
141.4314
 20
14.5429
 30
0.0
  0
SPLINE
  5
59
330
1F
100
AcDbEntity
  8
layer 1
 62
     7
100
AcDbSpline
210
0.0
220
0.0
230
1.0
 70
    11
 71
     3
 72
    44
 73
    40
 74
     0
 42
0.0000000001
 43
0.0000000001
 12
1.0
 22
0.0
 32
0.0
 13
1.0
 23
0.0
 33
0.0
 40
0.0
 40
0.0
 40
0.0
 40
0.0
 40
0.0909090909090909
 40
0.0909090909090909
 40
0.0909090909090909
 40
0.0909090909090909
 40
0.1818181818181818
 40
0.1818181818181818
 40
0.1818181818181818
 40
0.1818181818181818
 40
0.2727272727272727
 40
0.2727272727272727
 40
0.2727272727272727
 40
0.2727272727272727
 40
0.3636363636363636
 40
0.3636363636363636
 40
0.3636363636363636
 40
0.3636363636363636
 40
0.4545454545454545
 40
0.4545454545454545
 40
0.4545454545454545
 40
0.4545454545454545
 40
0.5454545454545454
 40
0.5454545454545454
 40
0.5454545454545454
 40
0.5454545454545454
 40
0.6363636363636364
 40
0.6363636363636364
 40
0.6363636363636364
 40
0.6363636363636364
 40
0.7272727272727273
 40
0.7272727272727273
 40
0.7272727272727273
 40
0.7272727272727273
 40
0.8181818181818182
 40
0.8181818181818182
 40
0.8181818181818182
 40
0.8181818181818182
 40
1.0
 40
1.0
 40
1.0
 40
1.0
 10
142.2297
 20
36.2271
 30
0.0
 10
147.3927
 20
33.109
 30
0.0
 10
149.9302
 20
30.8095
 30
0.0
 10
154.0485
 20
23.6143
 30
0.0
 10
154.0485
 20
23.6143
 30
0.0
 10
154.1222
 20
23.4853
 30
0.0
 10
155.7148
 20
30.706
 30
0.0
 10
149.5936
 20
32.1254
 30
0.0
 10
149.5936
 20
32.1254
 30
0.0
 10
149.8332
 20
34.1898
 30
0.0
 10
152.7522
 20
35.1279
 30
0.0
 10
154.145
 20
33.2394
 30
0.0
 10
154.145
 20
33.2394
 30
0.0
 10
153.0292
 20
36.6748
 30
0.0
 10
154.3899
 20
38.8817
 30
0.0
 10
155.5461
 20
39.8502
 30
0.0
 10
155.5461
 20
39.8502
 30
0.0
 10
156.7024
 20
38.8817
 30
0.0
 10
158.0633
 20
36.6748
 30
0.0
 10
156.9472
 20
33.2394
 30
0.0
 10
156.9472
 20
33.2394
 30
0.0
 10
158.34
 20
35.1277
 30
0.0
 10
161.2591
 20
34.1896
 30
0.0
 10
161.4986
 20
32.1254
 30
0.0
 10
161.4986
 20
32.1254
 30
0.0
 10
155.3772
 20
30.706
 30
0.0
 10
156.9698
 20
23.4853
 30
0.0
 10
157.0437
 20
23.6143
 30
0.0
 10
157.0437
 20
23.6143
 30
0.0
 10
161.162
 20
30.8095
 30
0.0
 10
163.6993
 20
33.109
 30
0.0
 10
168.8625
 20
36.2271
 30
0.0
 10
168.8625
 20
36.2271
 30
0.0
 10
163.8242
 20
37.2122
 30
0.0
 10
156.2545
 20
42.122
 30
0.0
 10
155.5461
 20
50.1958
 30
0.0
 10
155.5461
 20
50.1958
 30
0.0
 10
154.8378
 20
42.122
 30
0.0
 10
147.268
 20
37.2122
 30
0.0
 10
142.2297
 20
36.2271
 30
0.0
  0
SPLINE
  5
5A
330
1F
100
AcDbEntity
  8
layer 1
 62
     7
100
AcDbSpline
210
0.0
220
0.0
230
1.0
 70
    11
 71
     3
 72
    20
 73
    16
 74
     0
 42
0.0000000001
 43
0.0000000001
 12
1.0
 22
0.0
 32
0.0
 13
1.0
 23
0.0
 33
0.0
 40
0.0
 40
0.0
 40
0.0
 40
0.0
 40
0.2
 40
0.2
 40
0.2
 40
0.2
 40
0.4
 40
0.4
 40
0.4
 40
0.4
 40
0.6
 40
0.6
 40
0.6
 40
0.6
 40
1.0
 40
1.0
 40
1.0
 40
1.0
 10
141.3872
 20
11.8538
 30
0.0
 10
140.9785
 20
10.3635
 30
0.0
 10
139.7553
 20
9.2085
 30
0.0
 10
137.6917
 20
8.8682
 30
0.0
 10
137.6917
 20
8.8682
 30
0.0
 10
139.7553
 20
8.5278
 30
0.0
 10
140.9785
 20
7.3728
 30
0.0
 10
141.3872
 20
5.8825
 30
0.0
 10
141.3872
 20
5.8825
 30
0.0
 10
141.8748
 20
7.3319
 30
0.0
 10
143.2596
 20
8.8682
 30
0.0
 10
145.7913
 20
8.8682
 30
0.0
 10
145.7913
 20
8.8682
 30
0.0
 10
143.2596
 20
8.8682
 30
0.0
 10
141.8746
 20
10.4045
 30
0.0
 10
141.3872
 20
11.8538
 30
0.0
  0
SPLINE
  5
5B
330
1F
100
AcDbEntity
  8
layer 1
 62
     7
100
AcDbSpline
210
0.0
220
0.0
230
1.0
 70
    11
 71
     3
 72
    28
 73
    24
 74
     0
 42
0.0000000001
 43
0.0000000001
 12
1.0
 22
0.0
 32
0.0
 13
1.0
 23
0.0
 33
0.0
 40
0.0
 40
0.0
 40
0.0
 40
0.0
 40
0.1428571428571428
 40
0.1428571428571428
 40
0.1428571428571428
 40
0.1428571428571428
 40
0.2857142857142857
 40
0.2857142857142857
 40
0.2857142857142857
 40
0.2857142857142857
 40
0.4285714285714285
 40
0.4285714285714285
 40
0.4285714285714285
 40
0.4285714285714285
 40
0.5714285714285714
 40
0.5714285714285714
 40
0.5714285714285714
 40
0.5714285714285714
 40
0.7142857142857143
 40
0.7142857142857143
 40
0.7142857142857143
 40
0.7142857142857143
 40
1.0
 40
1.0
 40
1.0
 40
1.0
 10
132.5393
 20
11.1895
 30
0.0
 10
137.8075
 20
8.8684
 30
0.0
 10
139.557
 20
18.0298
 30
0.0
 10
132.0144
 20
17.7948
 30
0.0
 10
132.0144
 20
17.7948
 30
0.0
 10
126.957
 20
17.3592
 30
0.0
 10
122.9405
 20
13.912
 30
0.0
 10
122.7299
 20
8.8684
 30
0.0
 10
122.7299
 20
8.8684
 30
0.0
 10
122.9405
 20
3.8246
 30
0.0
 10
126.957
 20
0.3777
 30
0.0
 10
132.0144
 20
-0.0579
 30
0.0
 10
132.0144
 20
-0.0579
 30
0.0
 10
139.557
 20
-0.2929
 30
0.0
 10
137.8075
 20
8.8684
 30
0.0
 10
132.5393
 20
6.5474
 30
0.0
 10
132.5393
 20
6.5474
 30
0.0
 10
132.7519
 20
7.6742
 30
0.0
 10
133.4379
 20
8.8684
 30
0.0
 10
135.0089
 20
8.8684
 30
0.0
 10
135.0089
 20
8.8684
 30
0.0
 10
133.4379
 20
8.8684
 30
0.0
 10
132.7519
 20
10.0626
 30
0.0
 10
132.5393
 20
11.1895
 30
0.0
  0
SPLINE
  5
5C
330
1F
100
AcDbEntity
  8
layer 1
 62
     7
100
AcDbSpline
210
0.0
220
0.0
230
1.0
 70
    11
 71
     3
 72
    16
 73
    12
 74
     0
 42
0.0000000001
 43
0.0000000001
 12
1.0
 22
0.0
 32
0.0
 13
1.0
 23
0.0
 33
0.0
 40
0.0
 40
0.0
 40
0.0
 40
0.0
 40
0.25
 40
0.25
 40
0.25
 40
0.25
 40
0.5
 40
0.5
 40
0.5
 40
0.5
 40
1.0
 40
1.0
 40
1.0
 40
1.0
 10
124.9768
 20
20.1113
 30
0.0
 10
122.8787
 20
18.8799
 30
0.0
 10
120.8542
 20
17.3252
 30
0.0
 10
119.6429
 20
13.9185
 30
0.0
 10
119.6429
 20
13.9185
 30
0.0
 10
119.6429
 20
13.9185
 30
0.0
 10
119.6429
 20
22.7069
 30
0.0
 10
119.6429
 20
22.7069
 30
0.0
 10
119.6429
 20
22.7069
 30
0.0
 10
120.399
 20
20.5497
 30
0.0
 10
122.1766
 20
19.6051
 30
0.0
 10
124.9768
 20
20.1113
 30
0.0
  0
SPLINE
  5
5D
330
1F
100
AcDbEntity
  8
layer 1
 62
     7
100
AcDbSpline
210
0.0
220
0.0
230
1.0
 70
    11
 71
     3
 72
    24
 73
    20
 74
     0
 42
0.0000000001
 43
0.0000000001
 12
1.0
 22
0.0
 32
0.0
 13
1.0
 23
0.0
 33
0.0
 40
0.0
 40
0.0
 40
0.0
 40
0.0
 40
0.1666666666666667
 40
0.1666666666666667
 40
0.1666666666666667
 40
0.1666666666666667
 40
0.3333333333333333
 40
0.3333333333333333
 40
0.3333333333333333
 40
0.3333333333333333
 40
0.5
 40
0.5
 40
0.5
 40
0.5
 40
0.6666666666666666
 40
0.6666666666666666
 40
0.6666666666666666
 40
0.6666666666666666
 40
1.0
 40
1.0
 40
1.0
 40
1.0
 10
134.4561
 20
79.4145
 30
0.0
 10
133.4203
 20
78.5845
 30
0.0
 10
131.4657
 20
77.326
 30
0.0
 10
129.945
 20
75.8025
 30
0.0
 10
129.945
 20
75.8025
 30
0.0
 10
128.2073
 20
78.3608
 30
0.0
 10
125.5029
 20
80.1038
 30
0.0
 10
122.9018
 20
78.6255
 30
0.0
 10
122.9018
 20
78.6255
 30
0.0
 10
123.9314
 20
84.073
 30
0.0
 10
120.4581
 20
84.4694
 30
0.0
 10
119.6432
 20
90.7389
 30
0.0
 10
119.6432
 20
90.7389
 30
0.0
 10
123.1481
 20
83.2712
 30
0.0
 10
128.3342
 20
79.004
 30
0.0
 10
134.4564
 20
79.4145
 30
0.0
 10
134.4564
 20
79.4145
 30
0.0
 10
134.4564
 20
79.4145
 30
0.0
 10
134.4561
 20
79.4145
 30
0.0
 10
134.4561
 20
79.4145
 30
0.0
  0
SPLINE
  5
5E
330
1F
100
AcDbEntity
  8
layer 1
 62
     7
100
AcDbSpline
210
0.0
220
0.0
230
1.0
 70
    11
 71
     3
 72
    28
 73
    24
 74
     0
 42
0.0000000001
 43
0.0000000001
 12
1.0
 22
0.0
 32
0.0
 13
1.0
 23
0.0
 33
0.0
 40
0.0
 40
0.0
 40
0.0
 40
0.0
 40
0.1428571428571428
 40
0.1428571428571428
 40
0.1428571428571428
 40
0.1428571428571428
 40
0.2857142857142857
 40
0.2857142857142857
 40
0.2857142857142857
 40
0.2857142857142857
 40
0.4285714285714285
 40
0.4285714285714285
 40
0.4285714285714285
 40
0.4285714285714285
 40
0.5714285714285714
 40
0.5714285714285714
 40
0.5714285714285714
 40
0.5714285714285714
 40
0.7142857142857143
 40
0.7142857142857143
 40
0.7142857142857143
 40
0.7142857142857143
 40
1.0
 40
1.0
 40
1.0
 40
1.0
 10
174.2685
 20
83.8498
 30
0.0
 10
179.5144
 20
84.855
 30
0.0
 10
177.2122
 20
91.3376
 30
0.0
 10
172.9941
 20
89.1075
 30
0.0
 10
172.9941
 20
89.1075
 30
0.0
 10
172.6706
 20
90.5513
 30
0.0
 10
172.7629
 20
93.0071
 30
0.0
 10
175.0374
 20
93.8995
 30
0.0
 10
175.0374
 20
93.8995
 30
0.0
 10
172.9104
 20
93.6313
 30
0.0
 10
171.4166
 20
94.9094
 30
0.0
 10
170.4219
 20
96.2467
 30
0.0
 10
170.4219
 20
96.2467
 30
0.0
 10
170.379
 20
90.4365
 30
0.0
 10
163.4019
 20
88.5721
 30
0.0
 10
160.0354
 20
91.3431
 30
0.0
 10
160.0354
 20
91.3431
 30
0.0
 10
162.5764
 20
88.3233
 30
0.0
 10
166.4668
 20
83.1304
 30
0.0
 10
174.2683
 20
83.8498
 30
0.0
 10
174.2683
 20
83.8498
 30
0.0
 10
174.2683
 20
83.8498
 30
0.0
 10
174.2685
 20
83.8498
 30
0.0
 10
174.2685
 20
83.8498
 30
0.0
  0
SPLINE
  5
5F
330
1F
100
AcDbEntity
  8
layer 1
 62
     7
100
AcDbSpline
210
0.0
220
0.0
230
1.0
 70
    11
 71
     3
 72
    24
 73
    20
 74
     0
 42
0.0000000001
 43
0.0000000001
 12
1.0
 22
0.0
 32
0.0
 13
1.0
 23
0.0
 33
0.0
 40
0.0
 40
0.0
 40
0.0
 40
0.0
 40
0.1666666666666667
 40
0.1666666666666667
 40
0.1666666666666667
 40
0.1666666666666667
 40
0.3333333333333333
 40
0.3333333333333333
 40
0.3333333333333333
 40
0.3333333333333333
 40
0.5
 40
0.5
 40
0.5
 40
0.5
 40
0.6666666666666666
 40
0.6666666666666666
 40
0.6666666666666666
 40
0.6666666666666666
 40
1.0
 40
1.0
 40
1.0
 40
1.0
 10
188.8191
 20
98.2664
 30
0.0
 10
186.5681
 20
108.5357
 30
0.0
 10
171.4852
 20
106.0324
 30
0.0
 10
174.6798
 20
98.4388
 30
0.0
 10
174.6798
 20
98.4388
 30
0.0
 10
175.3785
 20
97.181
 30
0.0
 10
177.5893
 20
96.1152
 30
0.0
 10
181.2782
 20
97.8396
 30
0.0
 10
181.2782
 20
97.8396
 30
0.0
 10
181.2375
 20
95.5821
 30
0.0
 10
179.9015
 20
94.3695
 30
0.0
 10
177.4668
 20
94.0581
 30
0.0
 10
177.4668
 20
94.0581
 30
0.0
 10
182.3528
 20
94.0553
 30
0.0
 10
183.534
 20
87.44
 30
0.0
 10
181.8481
 20
84.1942
 30
0.0
 10
181.8481
 20
84.1942
 30
0.0
 10
184.8679
 20
86.7352
 30
0.0
 10
189.5385
 20
90.4646
 30
0.0
 10
188.8191
 20
98.2664
 30
0.0
  0
SPLINE
  5
60
330
1F
100
AcDbEntity
  8
layer 1
 62
     7
100
AcDbSpline
210
0.0
220
0.0
230
1.0
 70
    11
 71
     3
 72
    28
 73
    24
 74
     0
 42
0.0000000001
 43
0.0000000001
 12
1.0
 22
0.0
 32
0.0
 13
1.0
 23
0.0
 33
0.0
 40
0.0
 40
0.0
 40
0.0
 40
0.0
 40
0.1428571428571428
 40
0.1428571428571428
 40
0.1428571428571428
 40
0.1428571428571428
 40
0.2857142857142857
 40
0.2857142857142857
 40
0.2857142857142857
 40
0.2857142857142857
 40
0.4285714285714285
 40
0.4285714285714285
 40
0.4285714285714285
 40
0.4285714285714285
 40
0.5714285714285714
 40
0.5714285714285714
 40
0.5714285714285714
 40
0.5714285714285714
 40
0.7142857142857143
 40
0.7142857142857143
 40
0.7142857142857143
 40
0.7142857142857143
 40
1.0
 40
1.0
 40
1.0
 40
1.0
 10
159.6177
 20
71.6575
 30
0.0
 10
156.3688
 20
65.238
 30
0.0
 10
168.7891
 20
66.2688
 30
0.0
 10
163.9021
 20
76.4394
 30
0.0
 10
163.9021
 20
76.4394
 30
0.0
 10
161.0024
 20
81.8464
 30
0.0
 10
156.9369
 20
85.0038
 30
0.0
 10
155.5461
 20
94.4603
 30
0.0
 10
155.5461
 20
94.4603
 30
0.0
 10
154.1551
 20
85.0035
 30
0.0
 10
150.0898
 20
81.8464
 30
0.0
 10
147.1901
 20
76.4394
 30
0.0
 10
147.1901
 20
76.4394
 30
0.0
 10
142.3031
 20
66.2688
 30
0.0
 10
154.7234
 20
65.238
 30
0.0
 10
151.4746
 20
71.6575
 30
0.0
 10
151.4746
 20
71.6575
 30
0.0
 10
153.356
 20
72.2703
 30
0.0
 10
155.0891
 20
71.0276
 30
0.0
 10
155.5461
 20
68.6216
 30
0.0
 10
155.5461
 20
68.6216
 30
0.0
 10
156.0031
 20
71.0276
 30
0.0
 10
157.7362
 20
72.2703
 30
0.0
 10
159.6177
 20
71.6575
 30
0.0
  0
SPLINE
  5
61
330
1F
100
AcDbEntity
  8
layer 1
 62
     7
100
AcDbSpline
210
0.0
220
0.0
230
1.0
 70
    11
 71
     3
 72
    12
 73
     8
 74
     0
 42
0.0000000001
 43
0.0000000001
 12
1.0
 22
0.0
 32
0.0
 13
1.0
 23
0.0
 33
0.0
 40
0.0
 40
0.0
 40
0.0
 40
0.0
 40
0.3333333333333333
 40
0.3333333333333333
 40
0.3333333333333333
 40
0.3333333333333333
 40
1.0
 40
1.0
 40
1.0
 40
1.0
 10
190.3901
 20
63.5059
 30
0.0
 10
191.2666
 20
71.2795
 30
0.0
 10
187.4105
 20
76.2607
 30
0.0
 10
182.7613
 20
74.3461
 30
0.0
 10
182.7613
 20
74.3461
 30
0.0
 10
184.98
 20
72.2643
 30
0.0
 10
188.8565
 20
68.2594
 30
0.0
 10
190.3901
 20
63.5059
 30
0.0
  0
SPLINE
  5
62
330
1F
100
AcDbEntity
  8
layer 1
 62
     7
100
AcDbSpline
210
0.0
220
0.0
230
1.0
 70
    11
 71
     3
 72
    28
 73
    24
 74
     0
 42
0.0000000001
 43
0.0000000001
 12
1.0
 22
0.0
 32
0.0
 13
1.0
 23
0.0
 33
0.0
 40
0.0
 40
0.0
 40
0.0
 40
0.0
 40
0.1428571428571428
 40
0.1428571428571428
 40
0.1428571428571428
 40
0.1428571428571428
 40
0.2857142857142857
 40
0.2857142857142857
 40
0.2857142857142857
 40
0.2857142857142857
 40
0.4285714285714285
 40
0.4285714285714285
 40
0.4285714285714285
 40
0.4285714285714285
 40
0.5714285714285714
 40
0.5714285714285714
 40
0.5714285714285714
 40
0.5714285714285714
 40
0.7142857142857143
 40
0.7142857142857143
 40
0.7142857142857143
 40
0.7142857142857143
 40
1.0
 40
1.0
 40
1.0
 40
1.0
 10
173.9762
 20
65.2222
 30
0.0
 10
179.7115
 20
65.9338
 30
0.0
 10
177.8333
 20
73.0362
 30
0.0
 10
173.2565
 20
69.3379
 30
0.0
 10
173.2565
 20
69.3379
 30
0.0
 10
173.0635
 20
72.7391
 30
0.0
 10
174.6239
 20
74.9994
 30
0.0
 10
178.8559
 20
73.6732
 30
0.0
 10
178.8559
 20
73.6732
 30
0.0
 10
174.3148
 20
76.8303
 30
0.0
 10
167.6989
 20
80.8817
 30
0.0
 10
164.6162
 20
81.6969
 30
0.0
 10
164.6162
 20
81.6969
 30
0.0
 10
169.6299
 20
76.2783
 30
0.0
 10
169.5366
 20
68.835
 30
0.0
 10
165.7134
 20
64.7875
 30
0.0
 10
165.7134
 20
64.7875
 30
0.0
 10
167.5695
 20
65.1932
 30
0.0
 10
169.0455
 20
64.9919
 30
0.0
 10
173.9762
 20
65.2219
 30
0.0
 10
173.9762
 20
65.2219
 30
0.0
 10
173.9762
 20
65.2219
 30
0.0
 10
173.9762
 20
65.2222
 30
0.0
 10
173.9762
 20
65.2222
 30
0.0
  0
SPLINE
  5
63
330
1F
100
AcDbEntity
  8
layer 1
 62
     7
100
AcDbSpline
210
0.0
220
0.0
230
1.0
 70
    11
 71
     3
 72
    24
 73
    20
 74
     0
 42
0.0000000001
 43
0.0000000001
 12
1.0
 22
0.0
 32
0.0
 13
1.0
 23
0.0
 33
0.0
 40
0.0
 40
0.0
 40
0.0
 40
0.0
 40
0.1666666666666667
 40
0.1666666666666667
 40
0.1666666666666667
 40
0.1666666666666667
 40
0.3333333333333333
 40
0.3333333333333333
 40
0.3333333333333333
 40
0.3333333333333333
 40
0.5
 40
0.5
 40
0.5
 40
0.5
 40
0.6666666666666666
 40
0.6666666666666666
 40
0.6666666666666666
 40
0.6666666666666666
 40
1.0
 40
1.0
 40
1.0
 40
1.0
 10
187.3474
 20
55.7928
 30
0.0
 10
186.4226
 20
50.3863
 30
0.0
 10
177.7821
 20
50.8842
 30
0.0
 10
181.3785
 20
56.5489
 30
0.0
 10
181.3785
 20
56.5489
 30
0.0
 10
180.6179
 20
58.1986
 30
0.0
 10
177.8084
 20
57.0413
 30
0.0
 10
177.1974
 20
55.2891
 30
0.0
 10
177.1974
 20
55.2891
 30
0.0
 10
177.7873
 20
57.8982
 30
0.0
 10
176.1874
 20
61.0239
 30
0.0
 10
174.4885
 20
62.4607
 30
0.0
 10
174.4885
 20
62.4607
 30
0.0
 10
180.1097
 20
62.3715
 30
0.0
 10
181.9418
 20
66.1818
 30
0.0
 10
181.7913
 20
70.2187
 30
0.0
 10
181.7913
 20
70.2187
 30
0.0
 10
184.8111
 20
67.6777
 30
0.0
 10
188.0668
 20
63.5946
 30
0.0
 10
187.3474
 20
55.7928
 30
0.0
  0
SPLINE
  5
64
330
1F
100
AcDbEntity
  8
layer 1
 62
     7
100
AcDbSpline
210
0.0
220
0.0
230
1.0
 70
    11
 71
     3
 72
    28
 73
    24
 74
     0
 42
0.0000000001
 43
0.0000000001
 12
1.0
 22
0.0
 32
0.0
 13
1.0
 23
0.0
 33
0.0
 40
0.0
 40
0.0
 40
0.0
 40
0.0
 40
0.1428571428571428
 40
0.1428571428571428
 40
0.1428571428571428
 40
0.1428571428571428
 40
0.2857142857142857
 40
0.2857142857142857
 40
0.2857142857142857
 40
0.2857142857142857
 40
0.4285714285714285
 40
0.4285714285714285
 40
0.4285714285714285
 40
0.4285714285714285
 40
0.5714285714285714
 40
0.5714285714285714
 40
0.5714285714285714
 40
0.5714285714285714
 40
0.7142857142857143
 40
0.7142857142857143
 40
0.7142857142857143
 40
0.7142857142857143
 40
1.0
 40
1.0
 40
1.0
 40
1.0
 10
172.2868
 20
40.2906
 30
0.0
 10
167.0409
 20
41.2958
 30
0.0
 10
169.3431
 20
47.7784
 30
0.0
 10
173.5612
 20
45.5483
 30
0.0
 10
173.5612
 20
45.5483
 30
0.0
 10
173.8847
 20
46.9922
 30
0.0
 10
173.427
 20
48.7168
 30
0.0
 10
171.1524
 20
49.6091
 30
0.0
 10
171.1524
 20
49.6091
 30
0.0
 10
173.7495
 20
49.3409
 30
0.0
 10
175.191
 20
50.7759
 30
0.0
 10
176.2902
 20
52.6352
 30
0.0
 10
176.2902
 20
52.6352
 30
0.0
 10
176.3332
 20
46.825
 30
0.0
 10
183.8326
 20
46.0051
 30
0.0
 10
187.1988
 20
48.7761
 30
0.0
 10
187.1988
 20
48.7761
 30
0.0
 10
186.2768
 20
43.5106
 30
0.0
 10
179.9319
 20
38.8398
 30
0.0
 10
172.2868
 20
40.2904
 30
0.0
 10
172.2868
 20
40.2904
 30
0.0
 10
172.2868
 20
40.2904
 30
0.0
 10
172.2868
 20
40.2906
 30
0.0
 10
172.2868
 20
40.2906
 30
0.0
  0
SPLINE
  5
65
330
1F
100
AcDbEntity
  8
layer 1
 62
     7
100
AcDbSpline
210
0.0
220
0.0
230
1.0
 70
    11
 71
     3
 72
    28
 73
    24
 74
     0
 42
0.0000000001
 43
0.0000000001
 12
1.0
 22
0.0
 32
0.0
 13
1.0
 23
0.0
 33
0.0
 40
0.0
 40
0.0
 40
0.0
 40
0.0
 40
0.1428571428571428
 40
0.1428571428571428
 40
0.1428571428571428
 40
0.1428571428571428
 40
0.2857142857142857
 40
0.2857142857142857
 40
0.2857142857142857
 40
0.2857142857142857
 40
0.4285714285714285
 40
0.4285714285714285
 40
0.4285714285714285
 40
0.4285714285714285
 40
0.5714285714285714
 40
0.5714285714285714
 40
0.5714285714285714
 40
0.5714285714285714
 40
0.7142857142857143
 40
0.7142857142857143
 40
0.7142857142857143
 40
0.7142857142857143
 40
1.0
 40
1.0
 40
1.0
 40
1.0
 10
158.8852
 20
53.3493
 30
0.0
 10
160.9795
 20
62.6786
 30
0.0
 10
174.9133
 20
61.2723
 30
0.0
 10
171.7187
 20
53.6784
 30
0.0
 10
171.7187
 20
53.6784
 30
0.0
 10
171.084
 20
52.5395
 30
0.0
 10
168.5289
 20
51.2434
 30
0.0
 10
166.3127
 20
53.4142
 30
0.0
 10
166.3127
 20
53.4142
 30
0.0
 10
165.9462
 20
51.7034
 30
0.0
 10
167.1311
 20
49.9592
 30
0.0
 10
169.3494
 20
50.0811
 30
0.0
 10
169.3494
 20
50.0811
 30
0.0
 10
164.568
 20
49.3474
 30
0.0
 10
164.1178
 20
43.6196
 30
0.0
 10
165.6471
 20
41.0005
 30
0.0
 10
165.6471
 20
41.0005
 30
0.0
 10
162.6272
 20
43.5415
 30
0.0
 10
158.1656
 20
45.5473
 30
0.0
 10
158.885
 20
53.3491
 30
0.0
 10
158.885
 20
53.3491
 30
0.0
 10
158.885
 20
53.3491
 30
0.0
 10
158.8852
 20
53.3493
 30
0.0
 10
158.8852
 20
53.3493
 30
0.0
  0
SPLINE
  5
66
330
1F
100
AcDbEntity
  8
layer 1
 62
     7
100
AcDbSpline
210
0.0
220
0.0
230
1.0
 70
    11
 71
     3
 72
    20
 73
    16
 74
     0
 42
0.0000000001
 43
0.0000000001
 12
1.0
 22
0.0
 32
0.0
 13
1.0
 23
0.0
 33
0.0
 40
0.0
 40
0.0
 40
0.0
 40
0.0
 40
0.2
 40
0.2
 40
0.2
 40
0.2
 40
0.4
 40
0.4
 40
0.4
 40
0.4
 40
0.6
 40
0.6
 40
0.6
 40
0.6
 40
1.0
 40
1.0
 40
1.0
 40
1.0
 10
161.7087
 20
62.4949
 30
0.0
 10
159.0179
 20
62.4182
 30
0.0
 10
156.3105
 20
63.6951
 30
0.0
 10
155.5461
 20
66.5712
 30
0.0
 10
155.5461
 20
66.5712
 30
0.0
 10
154.782
 20
63.6951
 30
0.0
 10
152.0743
 20
62.4182
 30
0.0
 10
149.3835
 20
62.4949
 30
0.0
 10
149.3835
 20
62.4949
 30
0.0
 10
152.5916
 20
60.524
 30
0.0
 10
154.1511
 20
58.8142
 30
0.0
 10
155.5461
 20
54.2138
 30
0.0
 10
155.5461
 20
54.2138
 30
0.0
 10
156.9412
 20
58.8139
 30
0.0
 10
158.5006
 20
60.5237
 30
0.0
 10
161.7087
 20
62.4949
 30
0.0
  0
SPLINE
  5
67
330
1F
100
AcDbEntity
  8
layer 1
 62
     7
100
AcDbSpline
210
0.0
220
0.0
230
1.0
 70
    11
 71
     3
 72
    28
 73
    24
 74
     0
 42
0.0000000001
 43
0.0000000001
 12
1.0
 22
0.0
 32
0.0
 13
1.0
 23
0.0
 33
0.0
 40
0.0
 40
0.0
 40
0.0
 40
0.0
 40
0.1428571428571428
 40
0.1428571428571428
 40
0.1428571428571428
 40
0.1428571428571428
 40
0.2857142857142857
 40
0.2857142857142857
 40
0.2857142857142857
 40
0.2857142857142857
 40
0.4285714285714285
 40
0.4285714285714285
 40
0.4285714285714285
 40
0.4285714285714285
 40
0.5714285714285714
 40
0.5714285714285714
 40
0.5714285714285714
 40
0.5714285714285714
 40
0.7142857142857143
 40
0.7142857142857143
 40
0.7142857142857143
 40
0.7142857142857143
 40
1.0
 40
1.0
 40
1.0
 40
1.0
 10
172.3785
 20
23.5613
 30
0.0
 10
168.4877
 20
24.6082
 30
0.0
 10
169.4924
 20
29.5982
 30
0.0
 10
173.7897
 20
27.6884
 30
0.0
 10
173.7897
 20
27.6884
 30
0.0
 10
173.5356
 20
29.3569
 30
0.0
 10
170.9134
 20
31.5613
 30
0.0
 10
167.855
 20
30.9618
 30
0.0
 10
167.855
 20
30.9618
 30
0.0
 10
172.0608
 20
34.3427
 30
0.0
 10
175.1556
 20
35.3202
 30
0.0
 10
179.2442
 20
36.8618
 30
0.0
 10
179.2442
 20
36.8618
 30
0.0
 10
175.963
 20
32.3933
 30
0.0
 10
175.5364
 20
26.6756
 30
0.0
 10
178.0741
 20
23.0754
 30
0.0
 10
178.0741
 20
23.0754
 30
0.0
 10
175.9946
 20
22.9223
 30
0.0
 10
174.5832
 20
23.045
 30
0.0
 10
172.3783
 20
23.5613
 30
0.0
 10
172.3783
 20
23.5613
 30
0.0
 10
172.3783
 20
23.5613
 30
0.0
 10
172.3785
 20
23.5613
 30
0.0
 10
172.3785
 20
23.5613
 30
0.0
  0
SPLINE
  5
68
330
1F
100
AcDbEntity
  8
layer 1
 62
     7
100
AcDbSpline
210
0.0
220
0.0
230
1.0
 70
    11
 71
     3
 72
    24
 73
    20
 74
     0
 42
0.0000000001
 43
0.0000000001
 12
1.0
 22
0.0
 32
0.0
 13
1.0
 23
0.0
 33
0.0
 40
0.0
 40
0.0
 40
0.0
 40
0.0
 40
0.1666666666666667
 40
0.1666666666666667
 40
0.1666666666666667
 40
0.1666666666666667
 40
0.3333333333333333
 40
0.3333333333333333
 40
0.3333333333333333
 40
0.3333333333333333
 40
0.5
 40
0.5
 40
0.5
 40
0.5
 40
0.6666666666666666
 40
0.6666666666666666
 40
0.6666666666666666
 40
0.6666666666666666
 40
1.0
 40
1.0
 40
1.0
 40
1.0
 10
181.007
 20
28.029
 30
0.0
 10
182.0122
 20
22.783
 30
0.0
 10
189.0539
 20
24.8618
 30
0.0
 10
186.9354
 20
29.3034
 30
0.0
 10
186.9354
 20
29.3034
 30
0.0
 10
189.4146
 20
29.6952
 30
0.0
 10
191.1633
 20
28.3665
 30
0.0
 10
191.4493
 20
25.0805
 30
0.0
 10
191.4493
 20
25.0805
 30
0.0
 10
191.4493
 20
25.0805
 30
0.0
 10
191.4493
 20
45.9038
 30
0.0
 10
191.4493
 20
45.9038
 30
0.0
 10
191.4493
 20
45.9038
 30
0.0
 10
186.9107
 20
38.7571
 30
0.0
 10
180.1564
 20
32.9486
 30
0.0
 10
181.007
 20
28.0292
 30
0.0
 10
181.007
 20
28.0292
 30
0.0
 10
181.007
 20
28.0292
 30
0.0
 10
181.007
 20
28.029
 30
0.0
 10
181.007
 20
28.029
 30
0.0
  0
SPLINE
  5
69
330
1F
100
AcDbEntity
  8
layer 1
 62
     7
100
AcDbSpline
210
0.0
220
0.0
230
1.0
 70
    11
 71
     3
 72
    28
 73
    24
 74
     0
 42
0.0000000001
 43
0.0000000001
 12
1.0
 22
0.0
 32
0.0
 13
1.0
 23
0.0
 33
0.0
 40
0.0
 40
0.0
 40
0.0
 40
0.0
 40
0.1428571428571428
 40
0.1428571428571428
 40
0.1428571428571428
 40
0.1428571428571428
 40
0.2857142857142857
 40
0.2857142857142857
 40
0.2857142857142857
 40
0.2857142857142857
 40
0.4285714285714285
 40
0.4285714285714285
 40
0.4285714285714285
 40
0.4285714285714285
 40
0.5714285714285714
 40
0.5714285714285714
 40
0.5714285714285714
 40
0.5714285714285714
 40
0.7142857142857143
 40
0.7142857142857143
 40
0.7142857142857143
 40
0.7142857142857143
 40
1.0
 40
1.0
 40
1.0
 40
1.0
 10
169.6608
 20
14.5429
 30
0.0
 10
169.1536
 20
17.0965
 30
0.0
 10
167.0401
 20
17.6435
 30
0.0
 10
165.4663
 20
17.2031
 30
0.0
 10
165.4663
 20
17.2031
 30
0.0
 10
167.4322
 20
12.11
 30
0.0
 10
158.854
 20
11.6196
 30
0.0
 10
158.8827
 20
17.1204
 30
0.0
 10
158.8827
 20
17.1204
 30
0.0
 10
159.0669
 20
22.5101
 30
0.0
 10
162.4985
 20
26.3149
 30
0.0
 10
164.7163
 20
28.5729
 30
0.0
 10
164.7163
 20
28.5729
 30
0.0
 10
162.4902
 20
21.5604
 30
0.0
 10
168.538
 20
19.8471
 30
0.0
 10
172.7005
 20
20.8777
 30
0.0
 10
172.7005
 20
20.8777
 30
0.0
 10
170.3166
 20
19.273
 30
0.0
 10
169.0043
 20
17.5515
 30
0.0
 10
169.6606
 20
14.5429
 30
0.0
 10
169.6606
 20
14.5429
 30
0.0
 10
169.6606
 20
14.5429
 30
0.0
 10
169.6608
 20
14.5429
 30
0.0
 10
169.6608
 20
14.5429
 30
0.0
  0
SPLINE
  5
6A
330
1F
100
AcDbEntity
  8
layer 1
 62
     7
100
AcDbSpline
210
0.0
220
0.0
230
1.0
 70
    11
 71
     3
 72
    16
 73
    12
 74
     0
 42
0.0000000001
 43
0.0000000001
 12
1.0
 22
0.0
 32
0.0
 13
1.0
 23
0.0
 33
0.0
 40
0.0
 40
0.0
 40
0.0
 40
0.0
 40
0.25
 40
0.25
 40
0.25
 40
0.25
 40
0.5
 40
0.5
 40
0.5
 40
0.5
 40
1.0
 40
1.0
 40
1.0
 40
1.0
 10
186.1154
 20
20.1113
 30
0.0
 10
188.2136
 20
18.8799
 30
0.0
 10
190.238
 20
17.3252
 30
0.0
 10
191.4493
 20
13.9185
 30
0.0
 10
191.4493
 20
13.9185
 30
0.0
 10
191.4493
 20
13.9185
 30
0.0
 10
191.4493
 20
22.7069
 30
0.0
 10
191.4493
 20
22.7069
 30
0.0
 10
191.4493
 20
22.7069
 30
0.0
 10
190.6932
 20
20.5497
 30
0.0
 10
188.9156
 20
19.6051
 30
0.0
 10
186.1154
 20
20.1113
 30
0.0
  0
SPLINE
  5
6B
330
1F
100
AcDbEntity
  8
layer 1
 62
     7
100
AcDbSpline
210
0.0
220
0.0
230
1.0
 70
    11
 71
     3
 72
    24
 73
    20
 74
     0
 42
0.0000000001
 43
0.0000000001
 12
1.0
 22
0.0
 32
0.0
 13
1.0
 23
0.0
 33
0.0
 40
0.0
 40
0.0
 40
0.0
 40
0.0
 40
0.1666666666666667
 40
0.1666666666666667
 40
0.1666666666666667
 40
0.1666666666666667
 40
0.3333333333333333
 40
0.3333333333333333
 40
0.3333333333333333
 40
0.3333333333333333
 40
0.5
 40
0.5
 40
0.5
 40
0.5
 40
0.6666666666666666
 40
0.6666666666666666
 40
0.6666666666666666
 40
0.6666666666666666
 40
1.0
 40
1.0
 40
1.0
 40
1.0
 10
176.6361
 20
79.4145
 30
0.0
 10
177.672
 20
78.5845
 30
0.0
 10
179.6265
 20
77.326
 30
0.0
 10
181.1473
 20
75.8025
 30
0.0
 10
181.1473
 20
75.8025
 30
0.0
 10
182.8849
 20
78.3608
 30
0.0
 10
185.5893
 20
80.1038
 30
0.0
 10
188.1904
 20
78.6255
 30
0.0
 10
188.1904
 20
78.6255
 30
0.0
 10
187.1609
 20
84.073
 30
0.0
 10
190.6342
 20
84.4694
 30
0.0
 10
191.4491
 20
90.7389
 30
0.0
 10
191.4491
 20
90.7389
 30
0.0
 10
187.9441
 20
83.2712
 30
0.0
 10
182.758
 20
79.004
 30
0.0
 10
176.6358
 20
79.4145
 30
0.0
 10
176.6358
 20
79.4145
 30
0.0
 10
176.6358
 20
79.4145
 30
0.0
 10
176.6361
 20
79.4145
 30
0.0
 10
176.6361
 20
79.4145
 30
0.0
  0
SPLINE
  5
6C
330
1F
100
AcDbEntity
  8
layer 1
 62
     7
100
AcDbSpline
210
0.0
220
0.0
230
1.0
 70
    11
 71
     3
 72
    28
 73
    24
 74
     0
 42
0.0000000001
 43
0.0000000001
 12
1.0
 22
0.0
 32
0.0
 13
1.0
 23
0.0
 33
0.0
 40
0.0
 40
0.0
 40
0.0
 40
0.0
 40
0.1428571428571428
 40
0.1428571428571428
 40
0.1428571428571428
 40
0.1428571428571428
 40
0.2857142857142857
 40
0.2857142857142857
 40
0.2857142857142857
 40
0.2857142857142857
 40
0.4285714285714285
 40
0.4285714285714285
 40
0.4285714285714285
 40
0.4285714285714285
 40
0.5714285714285714
 40
0.5714285714285714
 40
0.5714285714285714
 40
0.5714285714285714
 40
0.7142857142857143
 40
0.7142857142857143
 40
0.7142857142857143
 40
0.7142857142857143
 40
1.0
 40
1.0
 40
1.0
 40
1.0
 10
136.8237
 20
-66.1132
 30
0.0
 10
131.5778
 20
-67.1184
 30
0.0
 10
133.88
 20
-73.601
 30
0.0
 10
138.0981
 20
-71.3709
 30
0.0
 10
138.0981
 20
-71.3709
 30
0.0
 10
138.4216
 20
-72.8147
 30
0.0
 10
138.3294
 20
-75.2705
 30
0.0
 10
136.0548
 20
-76.1629
 30
0.0
 10
136.0548
 20
-76.1629
 30
0.0
 10
138.1818
 20
-75.8947
 30
0.0
 10
139.6757
 20
-77.1728
 30
0.0
 10
140.6703
 20
-78.5101
 30
0.0
 10
140.6703
 20
-78.5101
 30
0.0
 10
140.7133
 20
-72.6999
 30
0.0
 10
147.6903
 20
-70.8355
 30
0.0
 10
151.0568
 20
-73.6065
 30
0.0
 10
151.0568
 20
-73.6065
 30
0.0
 10
148.5158
 20
-70.5867
 30
0.0
 10
144.6255
 20
-65.3938
 30
0.0
 10
136.824
 20
-66.1132
 30
0.0
 10
136.824
 20
-66.1132
 30
0.0
 10
136.824
 20
-66.1132
 30
0.0
 10
136.8237
 20
-66.1132
 30
0.0
 10
136.8237
 20
-66.1132
 30
0.0
  0
SPLINE
  5
6D
330
1F
100
AcDbEntity
  8
layer 1
 62
     7
100
AcDbSpline
210
0.0
220
0.0
230
1.0
 70
    11
 71
     3
 72
    24
 73
    20
 74
     0
 42
0.0000000001
 43
0.0000000001
 12
1.0
 22
0.0
 32
0.0
 13
1.0
 23
0.0
 33
0.0
 40
0.0
 40
0.0
 40
0.0
 40
0.0
 40
0.1666666666666667
 40
0.1666666666666667
 40
0.1666666666666667
 40
0.1666666666666667
 40
0.3333333333333333
 40
0.3333333333333333
 40
0.3333333333333333
 40
0.3333333333333333
 40
0.5
 40
0.5
 40
0.5
 40
0.5
 40
0.6666666666666666
 40
0.6666666666666666
 40
0.6666666666666666
 40
0.6666666666666666
 40
1.0
 40
1.0
 40
1.0
 40
1.0
 10
122.2732
 20
-80.5298
 30
0.0
 10
124.5241
 20
-90.7991
 30
0.0
 10
139.607
 20
-88.2958
 30
0.0
 10
136.4125
 20
-80.7022
 30
0.0
 10
136.4125
 20
-80.7022
 30
0.0
 10
135.7137
 20
-79.4444
 30
0.0
 10
133.503
 20
-78.3786
 30
0.0
 10
129.814
 20
-80.103
 30
0.0
 10
129.814
 20
-80.103
 30
0.0
 10
129.8547
 20
-77.8455
 30
0.0
 10
131.1907
 20
-76.6329
 30
0.0
 10
133.6254
 20
-76.3215
 30
0.0
 10
133.6254
 20
-76.3215
 30
0.0
 10
128.7394
 20
-76.3187
 30
0.0
 10
127.5583
 20
-69.7034
 30
0.0
 10
129.2442
 20
-66.4576
 30
0.0
 10
129.2442
 20
-66.4576
 30
0.0
 10
126.2243
 20
-68.9986
 30
0.0
 10
121.5538
 20
-72.728
 30
0.0
 10
122.2732
 20
-80.5298
 30
0.0
  0
SPLINE
  5
6E
330
1F
100
AcDbEntity
  8
layer 1
 62
     7
100
AcDbSpline
210
0.0
220
0.0
230
1.0
 70
    11
 71
     3
 72
    12
 73
     8
 74
     0
 42
0.0000000001
 43
0.0000000001
 12
1.0
 22
0.0
 32
0.0
 13
1.0
 23
0.0
 33
0.0
 40
0.0
 40
0.0
 40
0.0
 40
0.0
 40
0.3333333333333333
 40
0.3333333333333333
 40
0.3333333333333333
 40
0.3333333333333333
 40
1.0
 40
1.0
 40
1.0
 40
1.0
 10
120.7021
 20
-45.7693
 30
0.0
 10
119.8256
 20
-53.5429
 30
0.0
 10
123.6818
 20
-58.5241
 30
0.0
 10
128.331
 20
-56.6095
 30
0.0
 10
128.331
 20
-56.6095
 30
0.0
 10
126.1122
 20
-54.5277
 30
0.0
 10
122.2357
 20
-50.5227
 30
0.0
 10
120.7021
 20
-45.7693
 30
0.0
  0
SPLINE
  5
6F
330
1F
100
AcDbEntity
  8
layer 1
 62
     7
100
AcDbSpline
210
0.0
220
0.0
230
1.0
 70
    11
 71
     3
 72
    28
 73
    24
 74
     0
 42
0.0000000001
 43
0.0000000001
 12
1.0
 22
0.0
 32
0.0
 13
1.0
 23
0.0
 33
0.0
 40
0.0
 40
0.0
 40
0.0
 40
0.0
 40
0.1428571428571428
 40
0.1428571428571428
 40
0.1428571428571428
 40
0.1428571428571428
 40
0.2857142857142857
 40
0.2857142857142857
 40
0.2857142857142857
 40
0.2857142857142857
 40
0.4285714285714285
 40
0.4285714285714285
 40
0.4285714285714285
 40
0.4285714285714285
 40
0.5714285714285714
 40
0.5714285714285714
 40
0.5714285714285714
 40
0.5714285714285714
 40
0.7142857142857143
 40
0.7142857142857143
 40
0.7142857142857143
 40
0.7142857142857143
 40
1.0
 40
1.0
 40
1.0
 40
1.0
 10
137.116
 20
-47.4855
 30
0.0
 10
131.3807
 20
-48.1972
 30
0.0
 10
133.2589
 20
-55.2996
 30
0.0
 10
137.8357
 20
-51.6013
 30
0.0
 10
137.8357
 20
-51.6013
 30
0.0
 10
138.0287
 20
-55.0025
 30
0.0
 10
136.4683
 20
-57.2628
 30
0.0
 10
132.2364
 20
-55.9366
 30
0.0
 10
132.2364
 20
-55.9366
 30
0.0
 10
136.7775
 20
-59.0937
 30
0.0
 10
143.3933
 20
-63.1451
 30
0.0
 10
146.476
 20
-63.9603
 30
0.0
 10
146.476
 20
-63.9603
 30
0.0
 10
141.4623
 20
-58.5417
 30
0.0
 10
141.5556
 20
-51.0984
 30
0.0
 10
145.3788
 20
-47.0509
 30
0.0
 10
145.3788
 20
-47.0509
 30
0.0
 10
143.5227
 20
-47.4566
 30
0.0
 10
142.0468
 20
-47.2553
 30
0.0
 10
137.116
 20
-47.4853
 30
0.0
 10
137.116
 20
-47.4853
 30
0.0
 10
137.116
 20
-47.4853
 30
0.0
 10
137.116
 20
-47.4855
 30
0.0
 10
137.116
 20
-47.4855
 30
0.0
  0
SPLINE
  5
70
330
1F
100
AcDbEntity
  8
layer 1
 62
     7
100
AcDbSpline
210
0.0
220
0.0
230
1.0
 70
    11
 71
     3
 72
    24
 73
    20
 74
     0
 42
0.0000000001
 43
0.0000000001
 12
1.0
 22
0.0
 32
0.0
 13
1.0
 23
0.0
 33
0.0
 40
0.0
 40
0.0
 40
0.0
 40
0.0
 40
0.1666666666666667
 40
0.1666666666666667
 40
0.1666666666666667
 40
0.1666666666666667
 40
0.3333333333333333
 40
0.3333333333333333
 40
0.3333333333333333
 40
0.3333333333333333
 40
0.5
 40
0.5
 40
0.5
 40
0.5
 40
0.6666666666666666
 40
0.6666666666666666
 40
0.6666666666666666
 40
0.6666666666666666
 40
1.0
 40
1.0
 40
1.0
 40
1.0
 10
123.7449
 20
-38.056
 30
0.0
 10
124.6696
 20
-32.6494
 30
0.0
 10
133.3102
 20
-33.1474
 30
0.0
 10
129.7137
 20
-38.8121
 30
0.0
 10
129.7137
 20
-38.8121
 30
0.0
 10
130.4743
 20
-40.4618
 30
0.0
 10
133.2838
 20
-39.3045
 30
0.0
 10
133.8949
 20
-37.5522
 30
0.0
 10
133.8949
 20
-37.5522
 30
0.0
 10
133.3049
 20
-40.1614
 30
0.0
 10
134.9048
 20
-43.2871
 30
0.0
 10
136.6038
 20
-44.7238
 30
0.0
 10
136.6038
 20
-44.7238
 30
0.0
 10
130.9826
 20
-44.6346
 30
0.0
 10
129.1504
 20
-48.445
 30
0.0
 10
129.301
 20
-52.4819
 30
0.0
 10
129.301
 20
-52.4819
 30
0.0
 10
126.2811
 20
-49.9408
 30
0.0
 10
123.0255
 20
-45.8577
 30
0.0
 10
123.7449
 20
-38.056
 30
0.0
  0
SPLINE
  5
71
330
1F
100
AcDbEntity
  8
layer 1
 62
     7
100
AcDbSpline
210
0.0
220
0.0
230
1.0
 70
    11
 71
     3
 72
    28
 73
    24
 74
     0
 42
0.0000000001
 43
0.0000000001
 12
1.0
 22
0.0
 32
0.0
 13
1.0
 23
0.0
 33
0.0
 40
0.0
 40
0.0
 40
0.0
 40
0.0
 40
0.1428571428571428
 40
0.1428571428571428
 40
0.1428571428571428
 40
0.1428571428571428
 40
0.2857142857142857
 40
0.2857142857142857
 40
0.2857142857142857
 40
0.2857142857142857
 40
0.4285714285714285
 40
0.4285714285714285
 40
0.4285714285714285
 40
0.4285714285714285
 40
0.5714285714285714
 40
0.5714285714285714
 40
0.5714285714285714
 40
0.5714285714285714
 40
0.7142857142857143
 40
0.7142857142857143
 40
0.7142857142857143
 40
0.7142857142857143
 40
1.0
 40
1.0
 40
1.0
 40
1.0
 10
138.8054
 20
-22.554
 30
0.0
 10
144.0514
 20
-23.5592
 30
0.0
 10
141.7491
 20
-30.0418
 30
0.0
 10
137.531
 20
-27.8117
 30
0.0
 10
137.531
 20
-27.8117
 30
0.0
 10
137.2075
 20
-29.2556
 30
0.0
 10
137.6653
 20
-30.9802
 30
0.0
 10
139.9398
 20
-31.8725
 30
0.0
 10
139.9398
 20
-31.8725
 30
0.0
 10
137.3428
 20
-31.6043
 30
0.0
 10
135.9012
 20
-33.0393
 30
0.0
 10
134.802
 20
-34.8986
 30
0.0
 10
134.802
 20
-34.8986
 30
0.0
 10
134.759
 20
-29.0884
 30
0.0
 10
127.2597
 20
-28.2685
 30
0.0
 10
123.8934
 20
-31.0395
 30
0.0
 10
123.8934
 20
-31.0395
 30
0.0
 10
124.8154
 20
-25.774
 30
0.0
 10
131.1603
 20
-21.1032
 30
0.0
 10
138.8054
 20
-22.5538
 30
0.0
 10
138.8054
 20
-22.5538
 30
0.0
 10
138.8054
 20
-22.5538
 30
0.0
 10
138.8054
 20
-22.554
 30
0.0
 10
138.8054
 20
-22.554
 30
0.0
  0
SPLINE
  5
72
330
1F
100
AcDbEntity
  8
layer 1
 62
     7
100
AcDbSpline
210
0.0
220
0.0
230
1.0
 70
    11
 71
     3
 72
    28
 73
    24
 74
     0
 42
0.0000000001
 43
0.0000000001
 12
1.0
 22
0.0
 32
0.0
 13
1.0
 23
0.0
 33
0.0
 40
0.0
 40
0.0
 40
0.0
 40
0.0
 40
0.1428571428571428
 40
0.1428571428571428
 40
0.1428571428571428
 40
0.1428571428571428
 40
0.2857142857142857
 40
0.2857142857142857
 40
0.2857142857142857
 40
0.2857142857142857
 40
0.4285714285714285
 40
0.4285714285714285
 40
0.4285714285714285
 40
0.4285714285714285
 40
0.5714285714285714
 40
0.5714285714285714
 40
0.5714285714285714
 40
0.5714285714285714
 40
0.7142857142857143
 40
0.7142857142857143
 40
0.7142857142857143
 40
0.7142857142857143
 40
1.0
 40
1.0
 40
1.0
 40
1.0
 10
152.207
 20
-35.6127
 30
0.0
 10
150.1127
 20
-44.942
 30
0.0
 10
136.179
 20
-43.5357
 30
0.0
 10
139.3735
 20
-35.9418
 30
0.0
 10
139.3735
 20
-35.9418
 30
0.0
 10
140.0082
 20
-34.8029
 30
0.0
 10
142.5633
 20
-33.5068
 30
0.0
 10
144.7796
 20
-35.6776
 30
0.0
 10
144.7796
 20
-35.6776
 30
0.0
 10
145.146
 20
-33.9668
 30
0.0
 10
143.9611
 20
-32.2226
 30
0.0
 10
141.7429
 20
-32.3445
 30
0.0
 10
141.7429
 20
-32.3445
 30
0.0
 10
146.5243
 20
-31.6108
 30
0.0
 10
146.9744
 20
-25.883
 30
0.0
 10
145.4452
 20
-23.2639
 30
0.0
 10
145.4452
 20
-23.2639
 30
0.0
 10
148.465
 20
-25.8049
 30
0.0
 10
152.9267
 20
-27.8107
 30
0.0
 10
152.2073
 20
-35.6125
 30
0.0
 10
152.2073
 20
-35.6125
 30
0.0
 10
152.2073
 20
-35.6125
 30
0.0
 10
152.207
 20
-35.6127
 30
0.0
 10
152.207
 20
-35.6127
 30
0.0
  0
SPLINE
  5
73
330
1F
100
AcDbEntity
  8
layer 1
 62
     7
100
AcDbSpline
210
0.0
220
0.0
230
1.0
 70
    11
 71
     3
 72
    28
 73
    24
 74
     0
 42
0.0000000001
 43
0.0000000001
 12
1.0
 22
0.0
 32
0.0
 13
1.0
 23
0.0
 33
0.0
 40
0.0
 40
0.0
 40
0.0
 40
0.0
 40
0.1428571428571428
 40
0.1428571428571428
 40
0.1428571428571428
 40
0.1428571428571428
 40
0.2857142857142857
 40
0.2857142857142857
 40
0.2857142857142857
 40
0.2857142857142857
 40
0.4285714285714285
 40
0.4285714285714285
 40
0.4285714285714285
 40
0.4285714285714285
 40
0.5714285714285714
 40
0.5714285714285714
 40
0.5714285714285714
 40
0.5714285714285714
 40
0.7142857142857143
 40
0.7142857142857143
 40
0.7142857142857143
 40
0.7142857142857143
 40
1.0
 40
1.0
 40
1.0
 40
1.0
 10
138.7137
 20
-5.8247
 30
0.0
 10
142.6045
 20
-6.8716
 30
0.0
 10
141.5998
 20
-11.8616
 30
0.0
 10
137.3026
 20
-9.9518
 30
0.0
 10
137.3026
 20
-9.9518
 30
0.0
 10
137.5567
 20
-11.6203
 30
0.0
 10
140.1789
 20
-13.8247
 30
0.0
 10
143.2372
 20
-13.2252
 30
0.0
 10
143.2372
 20
-13.2252
 30
0.0
 10
139.0314
 20
-16.606
 30
0.0
 10
135.9367
 20
-17.5836
 30
0.0
 10
131.848
 20
-19.1252
 30
0.0
 10
131.848
 20
-19.1252
 30
0.0
 10
135.1293
 20
-14.6567
 30
0.0
 10
135.5558
 20
-8.939
 30
0.0
 10
133.0181
 20
-5.3388
 30
0.0
 10
133.0181
 20
-5.3388
 30
0.0
 10
135.0976
 20
-5.1857
 30
0.0
 10
136.509
 20
-5.3084
 30
0.0
 10
138.714
 20
-5.8247
 30
0.0
 10
138.714
 20
-5.8247
 30
0.0
 10
138.714
 20
-5.8247
 30
0.0
 10
138.7137
 20
-5.8247
 30
0.0
 10
138.7137
 20
-5.8247
 30
0.0
  0
SPLINE
  5
74
330
1F
100
AcDbEntity
  8
layer 1
 62
     7
100
AcDbSpline
210
0.0
220
0.0
230
1.0
 70
    11
 71
     3
 72
    24
 73
    20
 74
     0
 42
0.0000000001
 43
0.0000000001
 12
1.0
 22
0.0
 32
0.0
 13
1.0
 23
0.0
 33
0.0
 40
0.0
 40
0.0
 40
0.0
 40
0.0
 40
0.1666666666666667
 40
0.1666666666666667
 40
0.1666666666666667
 40
0.1666666666666667
 40
0.3333333333333333
 40
0.3333333333333333
 40
0.3333333333333333
 40
0.3333333333333333
 40
0.5
 40
0.5
 40
0.5
 40
0.5
 40
0.6666666666666666
 40
0.6666666666666666
 40
0.6666666666666666
 40
0.6666666666666666
 40
1.0
 40
1.0
 40
1.0
 40
1.0
 10
130.0852
 20
-10.2924
 30
0.0
 10
129.08
 20
-5.0464
 30
0.0
 10
122.0384
 20
-7.1252
 30
0.0
 10
124.1569
 20
-11.5668
 30
0.0
 10
124.1569
 20
-11.5668
 30
0.0
 10
121.6777
 20
-11.9586
 30
0.0
 10
119.929
 20
-10.6299
 30
0.0
 10
119.6429
 20
-7.3439
 30
0.0
 10
119.6429
 20
-7.3439
 30
0.0
 10
119.6429
 20
-7.3439
 30
0.0
 10
119.6429
 20
-28.1672
 30
0.0
 10
119.6429
 20
-28.1672
 30
0.0
 10
119.6429
 20
-28.1672
 30
0.0
 10
124.1815
 20
-21.0205
 30
0.0
 10
130.9358
 20
-15.212
 30
0.0
 10
130.0852
 20
-10.2926
 30
0.0
 10
130.0852
 20
-10.2926
 30
0.0
 10
130.0852
 20
-10.2926
 30
0.0
 10
130.0852
 20
-10.2924
 30
0.0
 10
130.0852
 20
-10.2924
 30
0.0
  0
SPLINE
  5
75
330
1F
100
AcDbEntity
  8
layer 1
 62
     7
100
AcDbSpline
210
0.0
220
0.0
230
1.0
 70
    11
 71
     3
 72
    28
 73
    24
 74
     0
 42
0.0000000001
 43
0.0000000001
 12
1.0
 22
0.0
 32
0.0
 13
1.0
 23
0.0
 33
0.0
 40
0.0
 40
0.0
 40
0.0
 40
0.0
 40
0.1428571428571428
 40
0.1428571428571428
 40
0.1428571428571428
 40
0.1428571428571428
 40
0.2857142857142857
 40
0.2857142857142857
 40
0.2857142857142857
 40
0.2857142857142857
 40
0.4285714285714285
 40
0.4285714285714285
 40
0.4285714285714285
 40
0.4285714285714285
 40
0.5714285714285714
 40
0.5714285714285714
 40
0.5714285714285714
 40
0.5714285714285714
 40
0.7142857142857143
 40
0.7142857142857143
 40
0.7142857142857143
 40
0.7142857142857143
 40
1.0
 40
1.0
 40
1.0
 40
1.0
 10
141.4314
 20
3.1939
 30
0.0
 10
141.9387
 20
0.6404
 30
0.0
 10
144.0521
 20
0.0934
 30
0.0
 10
145.6259
 20
0.5338
 30
0.0
 10
145.6259
 20
0.5338
 30
0.0
 10
143.66
 20
5.6269
 30
0.0
 10
152.2382
 20
6.1173
 30
0.0
 10
152.2095
 20
0.6165
 30
0.0
 10
152.2095
 20
0.6165
 30
0.0
 10
152.0253
 20
-4.7732
 30
0.0
 10
148.5937
 20
-8.5781
 30
0.0
 10
146.376
 20
-10.836
 30
0.0
 10
146.376
 20
-10.836
 30
0.0
 10
148.602
 20
-3.8236
 30
0.0
 10
142.5543
 20
-2.1103
 30
0.0
 10
138.3917
 20
-3.1409
 30
0.0
 10
138.3917
 20
-3.1409
 30
0.0
 10
140.7756
 20
-1.5362
 30
0.0
 10
142.088
 20
0.1854
 30
0.0
 10
141.4317
 20
3.1939
 30
0.0
 10
141.4317
 20
3.1939
 30
0.0
 10
141.4317
 20
3.1939
 30
0.0
 10
141.4314
 20
3.1939
 30
0.0
 10
141.4314
 20
3.1939
 30
0.0
  0
SPLINE
  5
76
330
1F
100
AcDbEntity
  8
layer 1
 62
     7
100
AcDbSpline
210
0.0
220
0.0
230
1.0
 70
    11
 71
     3
 72
    44
 73
    40
 74
     0
 42
0.0000000001
 43
0.0000000001
 12
1.0
 22
0.0
 32
0.0
 13
1.0
 23
0.0
 33
0.0
 40
0.0
 40
0.0
 40
0.0
 40
0.0
 40
0.0909090909090909
 40
0.0909090909090909
 40
0.0909090909090909
 40
0.0909090909090909
 40
0.1818181818181818
 40
0.1818181818181818
 40
0.1818181818181818
 40
0.1818181818181818
 40
0.2727272727272727
 40
0.2727272727272727
 40
0.2727272727272727
 40
0.2727272727272727
 40
0.3636363636363636
 40
0.3636363636363636
 40
0.3636363636363636
 40
0.3636363636363636
 40
0.4545454545454545
 40
0.4545454545454545
 40
0.4545454545454545
 40
0.4545454545454545
 40
0.5454545454545454
 40
0.5454545454545454
 40
0.5454545454545454
 40
0.5454545454545454
 40
0.6363636363636364
 40
0.6363636363636364
 40
0.6363636363636364
 40
0.6363636363636364
 40
0.7272727272727273
 40
0.7272727272727273
 40
0.7272727272727273
 40
0.7272727272727273
 40
0.8181818181818182
 40
0.8181818181818182
 40
0.8181818181818182
 40
0.8181818181818182
 40
1.0
 40
1.0
 40
1.0
 40
1.0
 10
142.2297
 20
-18.4905
 30
0.0
 10
147.3927
 20
-15.3724
 30
0.0
 10
149.9302
 20
-13.0729
 30
0.0
 10
154.0485
 20
-5.8777
 30
0.0
 10
154.0485
 20
-5.8777
 30
0.0
 10
154.1222
 20
-5.7487
 30
0.0
 10
155.7148
 20
-12.9694
 30
0.0
 10
149.5936
 20
-14.3888
 30
0.0
 10
149.5936
 20
-14.3888
 30
0.0
 10
149.8332
 20
-16.4532
 30
0.0
 10
152.7522
 20
-17.3913
 30
0.0
 10
154.145
 20
-15.5028
 30
0.0
 10
154.145
 20
-15.5028
 30
0.0
 10
153.0292
 20
-18.9382
 30
0.0
 10
154.3899
 20
-21.1451
 30
0.0
 10
155.5461
 20
-22.1136
 30
0.0
 10
155.5461
 20
-22.1136
 30
0.0
 10
156.7024
 20
-21.1451
 30
0.0
 10
158.0633
 20
-18.9382
 30
0.0
 10
156.9472
 20
-15.5028
 30
0.0
 10
156.9472
 20
-15.5028
 30
0.0
 10
158.34
 20
-17.3911
 30
0.0
 10
161.2591
 20
-16.453
 30
0.0
 10
161.4986
 20
-14.3888
 30
0.0
 10
161.4986
 20
-14.3888
 30
0.0
 10
155.3772
 20
-12.9694
 30
0.0
 10
156.9698
 20
-5.7487
 30
0.0
 10
157.0437
 20
-5.8777
 30
0.0
 10
157.0437
 20
-5.8777
 30
0.0
 10
161.162
 20
-13.0729
 30
0.0
 10
163.6993
 20
-15.3724
 30
0.0
 10
168.8625
 20
-18.4905
 30
0.0
 10
168.8625
 20
-18.4905
 30
0.0
 10
163.8242
 20
-19.4756
 30
0.0
 10
156.2545
 20
-24.3854
 30
0.0
 10
155.5461
 20
-32.4592
 30
0.0
 10
155.5461
 20
-32.4592
 30
0.0
 10
154.8378
 20
-24.3854
 30
0.0
 10
147.268
 20
-19.4756
 30
0.0
 10
142.2297
 20
-18.4905
 30
0.0
  0
SPLINE
  5
77
330
1F
100
AcDbEntity
  8
layer 1
 62
     7
100
AcDbSpline
210
0.0
220
0.0
230
1.0
 70
    11
 71
     3
 72
    20
 73
    16
 74
     0
 42
0.0000000001
 43
0.0000000001
 12
1.0
 22
0.0
 32
0.0
 13
1.0
 23
0.0
 33
0.0
 40
0.0
 40
0.0
 40
0.0
 40
0.0
 40
0.2
 40
0.2
 40
0.2
 40
0.2
 40
0.4
 40
0.4
 40
0.4
 40
0.4
 40
0.6
 40
0.6
 40
0.6
 40
0.6
 40
1.0
 40
1.0
 40
1.0
 40
1.0
 10
155.5054
 20
1.228
 30
0.0
 10
155.7477
 20
5.9328
 30
0.0
 10
158.0557
 20
8.1875
 30
0.0
 10
161.6012
 20
8.8684
 30
0.0
 10
161.6012
 20
8.8684
 30
0.0
 10
158.0557
 20
9.5494
 30
0.0
 10
155.748
 20
11.8041
 30
0.0
 10
155.5054
 20
16.5088
 30
0.0
 10
155.5054
 20
16.5088
 30
0.0
 10
155.3036
 20
11.7634
 30
0.0
 10
152.5891
 20
9.3053
 30
0.0
 10
149.4911
 20
8.8684
 30
0.0
 10
149.4911
 20
8.8684
 30
0.0
 10
152.5891
 20
8.4316
 30
0.0
 10
155.3038
 20
5.9735
 30
0.0
 10
155.5054
 20
1.228
 30
0.0
  0
SPLINE
  5
78
330
1F
100
AcDbEntity
  8
layer 1
 62
     7
100
AcDbSpline
210
0.0
220
0.0
230
1.0
 70
    11
 71
     3
 72
    16
 73
    12
 74
     0
 42
0.0000000001
 43
0.0000000001
 12
1.0
 22
0.0
 32
0.0
 13
1.0
 23
0.0
 33
0.0
 40
0.0
 40
0.0
 40
0.0
 40
0.0
 40
0.25
 40
0.25
 40
0.25
 40
0.25
 40
0.5
 40
0.5
 40
0.5
 40
0.5
 40
1.0
 40
1.0
 40
1.0
 40
1.0
 10
124.9768
 20
-2.3747
 30
0.0
 10
122.8787
 20
-1.1433
 30
0.0
 10
120.8542
 20
0.4114
 30
0.0
 10
119.6429
 20
3.8181
 30
0.0
 10
119.6429
 20
3.8181
 30
0.0
 10
119.6429
 20
3.8181
 30
0.0
 10
119.6429
 20
-4.9703
 30
0.0
 10
119.6429
 20
-4.9703
 30
0.0
 10
119.6429
 20
-4.9703
 30
0.0
 10
120.399
 20
-2.8131
 30
0.0
 10
122.1766
 20
-1.8685
 30
0.0
 10
124.9768
 20
-2.3747
 30
0.0
  0
SPLINE
  5
79
330
1F
100
AcDbEntity
  8
layer 1
 62
     7
100
AcDbSpline
210
0.0
220
0.0
230
1.0
 70
    11
 71
     3
 72
    24
 73
    20
 74
     0
 42
0.0000000001
 43
0.0000000001
 12
1.0
 22
0.0
 32
0.0
 13
1.0
 23
0.0
 33
0.0
 40
0.0
 40
0.0
 40
0.0
 40
0.0
 40
0.1666666666666667
 40
0.1666666666666667
 40
0.1666666666666667
 40
0.1666666666666667
 40
0.3333333333333333
 40
0.3333333333333333
 40
0.3333333333333333
 40
0.3333333333333333
 40
0.5
 40
0.5
 40
0.5
 40
0.5
 40
0.6666666666666666
 40
0.6666666666666666
 40
0.6666666666666666
 40
0.6666666666666666
 40
1.0
 40
1.0
 40
1.0
 40
1.0
 10
134.4561
 20
-61.6779
 30
0.0
 10
133.4203
 20
-60.8479
 30
0.0
 10
131.4657
 20
-59.5894
 30
0.0
 10
129.945
 20
-58.0659
 30
0.0
 10
129.945
 20
-58.0659
 30
0.0
 10
128.2073
 20
-60.6242
 30
0.0
 10
125.5029
 20
-62.3672
 30
0.0
 10
122.9018
 20
-60.8889
 30
0.0
 10
122.9018
 20
-60.8889
 30
0.0
 10
123.9314
 20
-66.3364
 30
0.0
 10
120.4581
 20
-66.7328
 30
0.0
 10
119.6432
 20
-73.0023
 30
0.0
 10
119.6432
 20
-73.0023
 30
0.0
 10
123.1481
 20
-65.5346
 30
0.0
 10
128.3342
 20
-61.2674
 30
0.0
 10
134.4564
 20
-61.6779
 30
0.0
 10
134.4564
 20
-61.6779
 30
0.0
 10
134.4564
 20
-61.6779
 30
0.0
 10
134.4561
 20
-61.6779
 30
0.0
 10
134.4561
 20
-61.6779
 30
0.0
  0
SPLINE
  5
7A
330
1F
100
AcDbEntity
  8
layer 1
 62
     7
100
AcDbSpline
210
0.0
220
0.0
230
1.0
 70
    11
 71
     3
 72
    28
 73
    24
 74
     0
 42
0.0000000001
 43
0.0000000001
 12
1.0
 22
0.0
 32
0.0
 13
1.0
 23
0.0
 33
0.0
 40
0.0
 40
0.0
 40
0.0
 40
0.0
 40
0.1428571428571428
 40
0.1428571428571428
 40
0.1428571428571428
 40
0.1428571428571428
 40
0.2857142857142857
 40
0.2857142857142857
 40
0.2857142857142857
 40
0.2857142857142857
 40
0.4285714285714285
 40
0.4285714285714285
 40
0.4285714285714285
 40
0.4285714285714285
 40
0.5714285714285714
 40
0.5714285714285714
 40
0.5714285714285714
 40
0.5714285714285714
 40
0.7142857142857143
 40
0.7142857142857143
 40
0.7142857142857143
 40
0.7142857142857143
 40
1.0
 40
1.0
 40
1.0
 40
1.0
 10
174.2685
 20
-66.1132
 30
0.0
 10
179.5144
 20
-67.1184
 30
0.0
 10
177.2122
 20
-73.601
 30
0.0
 10
172.9941
 20
-71.3709
 30
0.0
 10
172.9941
 20
-71.3709
 30
0.0
 10
172.6706
 20
-72.8147
 30
0.0
 10
172.7629
 20
-75.2705
 30
0.0
 10
175.0374
 20
-76.1629
 30
0.0
 10
175.0374
 20
-76.1629
 30
0.0
 10
172.9104
 20
-75.8947
 30
0.0
 10
171.4166
 20
-77.1728
 30
0.0
 10
170.4219
 20
-78.5101
 30
0.0
 10
170.4219
 20
-78.5101
 30
0.0
 10
170.379
 20
-72.6999
 30
0.0
 10
163.4019
 20
-70.8355
 30
0.0
 10
160.0354
 20
-73.6065
 30
0.0
 10
160.0354
 20
-73.6065
 30
0.0
 10
162.5764
 20
-70.5867
 30
0.0
 10
166.4668
 20
-65.3938
 30
0.0
 10
174.2683
 20
-66.1132
 30
0.0
 10
174.2683
 20
-66.1132
 30
0.0
 10
174.2683
 20
-66.1132
 30
0.0
 10
174.2685
 20
-66.1132
 30
0.0
 10
174.2685
 20
-66.1132
 30
0.0
  0
SPLINE
  5
7B
330
1F
100
AcDbEntity
  8
layer 1
 62
     7
100
AcDbSpline
210
0.0
220
0.0
230
1.0
 70
    11
 71
     3
 72
    24
 73
    20
 74
     0
 42
0.0000000001
 43
0.0000000001
 12
1.0
 22
0.0
 32
0.0
 13
1.0
 23
0.0
 33
0.0
 40
0.0
 40
0.0
 40
0.0
 40
0.0
 40
0.1666666666666667
 40
0.1666666666666667
 40
0.1666666666666667
 40
0.1666666666666667
 40
0.3333333333333333
 40
0.3333333333333333
 40
0.3333333333333333
 40
0.3333333333333333
 40
0.5
 40
0.5
 40
0.5
 40
0.5
 40
0.6666666666666666
 40
0.6666666666666666
 40
0.6666666666666666
 40
0.6666666666666666
 40
1.0
 40
1.0
 40
1.0
 40
1.0
 10
188.8191
 20
-80.5298
 30
0.0
 10
186.5681
 20
-90.7991
 30
0.0
 10
171.4852
 20
-88.2958
 30
0.0
 10
174.6798
 20
-80.7022
 30
0.0
 10
174.6798
 20
-80.7022
 30
0.0
 10
175.3785
 20
-79.4444
 30
0.0
 10
177.5893
 20
-78.3786
 30
0.0
 10
181.2782
 20
-80.103
 30
0.0
 10
181.2782
 20
-80.103
 30
0.0
 10
181.2375
 20
-77.8455
 30
0.0
 10
179.9015
 20
-76.6329
 30
0.0
 10
177.4668
 20
-76.3215
 30
0.0
 10
177.4668
 20
-76.3215
 30
0.0
 10
182.3528
 20
-76.3187
 30
0.0
 10
183.534
 20
-69.7034
 30
0.0
 10
181.8481
 20
-66.4576
 30
0.0
 10
181.8481
 20
-66.4576
 30
0.0
 10
184.8679
 20
-68.9986
 30
0.0
 10
189.5385
 20
-72.728
 30
0.0
 10
188.8191
 20
-80.5298
 30
0.0
  0
SPLINE
  5
7C
330
1F
100
AcDbEntity
  8
layer 1
 62
     7
100
AcDbSpline
210
0.0
220
0.0
230
1.0
 70
    11
 71
     3
 72
    28
 73
    24
 74
     0
 42
0.0000000001
 43
0.0000000001
 12
1.0
 22
0.0
 32
0.0
 13
1.0
 23
0.0
 33
0.0
 40
0.0
 40
0.0
 40
0.0
 40
0.0
 40
0.1428571428571428
 40
0.1428571428571428
 40
0.1428571428571428
 40
0.1428571428571428
 40
0.2857142857142857
 40
0.2857142857142857
 40
0.2857142857142857
 40
0.2857142857142857
 40
0.4285714285714285
 40
0.4285714285714285
 40
0.4285714285714285
 40
0.4285714285714285
 40
0.5714285714285714
 40
0.5714285714285714
 40
0.5714285714285714
 40
0.5714285714285714
 40
0.7142857142857143
 40
0.7142857142857143
 40
0.7142857142857143
 40
0.7142857142857143
 40
1.0
 40
1.0
 40
1.0
 40
1.0
 10
159.6177
 20
-53.9209
 30
0.0
 10
156.3688
 20
-47.5014
 30
0.0
 10
168.7891
 20
-48.5322
 30
0.0
 10
163.9021
 20
-58.7028
 30
0.0
 10
163.9021
 20
-58.7028
 30
0.0
 10
161.0024
 20
-64.1098
 30
0.0
 10
156.9369
 20
-67.2672
 30
0.0
 10
155.5461
 20
-76.7237
 30
0.0
 10
155.5461
 20
-76.7237
 30
0.0
 10
154.1551
 20
-67.2669
 30
0.0
 10
150.0898
 20
-64.1098
 30
0.0
 10
147.1901
 20
-58.7028
 30
0.0
 10
147.1901
 20
-58.7028
 30
0.0
 10
142.3031
 20
-48.5322
 30
0.0
 10
154.7234
 20
-47.5014
 30
0.0
 10
151.4746
 20
-53.9209
 30
0.0
 10
151.4746
 20
-53.9209
 30
0.0
 10
153.356
 20
-54.5337
 30
0.0
 10
155.0891
 20
-53.291
 30
0.0
 10
155.5461
 20
-50.885
 30
0.0
 10
155.5461
 20
-50.885
 30
0.0
 10
156.0031
 20
-53.291
 30
0.0
 10
157.7362
 20
-54.5337
 30
0.0
 10
159.6177
 20
-53.9209
 30
0.0
  0
SPLINE
  5
7D
330
1F
100
AcDbEntity
  8
layer 1
 62
     7
100
AcDbSpline
210
0.0
220
0.0
230
1.0
 70
    11
 71
     3
 72
    12
 73
     8
 74
     0
 42
0.0000000001
 43
0.0000000001
 12
1.0
 22
0.0
 32
0.0
 13
1.0
 23
0.0
 33
0.0
 40
0.0
 40
0.0
 40
0.0
 40
0.0
 40
0.3333333333333333
 40
0.3333333333333333
 40
0.3333333333333333
 40
0.3333333333333333
 40
1.0
 40
1.0
 40
1.0
 40
1.0
 10
190.3901
 20
-45.7693
 30
0.0
 10
191.2666
 20
-53.5429
 30
0.0
 10
187.4105
 20
-58.5241
 30
0.0
 10
182.7613
 20
-56.6095
 30
0.0
 10
182.7613
 20
-56.6095
 30
0.0
 10
184.98
 20
-54.5277
 30
0.0
 10
188.8565
 20
-50.5227
 30
0.0
 10
190.3901
 20
-45.7693
 30
0.0
  0
SPLINE
  5
7E
330
1F
100
AcDbEntity
  8
layer 1
 62
     7
100
AcDbSpline
210
0.0
220
0.0
230
1.0
 70
    11
 71
     3
 72
    28
 73
    24
 74
     0
 42
0.0000000001
 43
0.0000000001
 12
1.0
 22
0.0
 32
0.0
 13
1.0
 23
0.0
 33
0.0
 40
0.0
 40
0.0
 40
0.0
 40
0.0
 40
0.1428571428571428
 40
0.1428571428571428
 40
0.1428571428571428
 40
0.1428571428571428
 40
0.2857142857142857
 40
0.2857142857142857
 40
0.2857142857142857
 40
0.2857142857142857
 40
0.4285714285714285
 40
0.4285714285714285
 40
0.4285714285714285
 40
0.4285714285714285
 40
0.5714285714285714
 40
0.5714285714285714
 40
0.5714285714285714
 40
0.5714285714285714
 40
0.7142857142857143
 40
0.7142857142857143
 40
0.7142857142857143
 40
0.7142857142857143
 40
1.0
 40
1.0
 40
1.0
 40
1.0
 10
173.9762
 20
-47.4855
 30
0.0
 10
179.7115
 20
-48.1972
 30
0.0
 10
177.8333
 20
-55.2996
 30
0.0
 10
173.2565
 20
-51.6013
 30
0.0
 10
173.2565
 20
-51.6013
 30
0.0
 10
173.0635
 20
-55.0025
 30
0.0
 10
174.6239
 20
-57.2628
 30
0.0
 10
178.8559
 20
-55.9366
 30
0.0
 10
178.8559
 20
-55.9366
 30
0.0
 10
174.3148
 20
-59.0937
 30
0.0
 10
167.6989
 20
-63.1451
 30
0.0
 10
164.6162
 20
-63.9603
 30
0.0
 10
164.6162
 20
-63.9603
 30
0.0
 10
169.6299
 20
-58.5417
 30
0.0
 10
169.5366
 20
-51.0984
 30
0.0
 10
165.7134
 20
-47.0509
 30
0.0
 10
165.7134
 20
-47.0509
 30
0.0
 10
167.5695
 20
-47.4566
 30
0.0
 10
169.0455
 20
-47.2553
 30
0.0
 10
173.9762
 20
-47.4853
 30
0.0
 10
173.9762
 20
-47.4853
 30
0.0
 10
173.9762
 20
-47.4853
 30
0.0
 10
173.9762
 20
-47.4855
 30
0.0
 10
173.9762
 20
-47.4855
 30
0.0
  0
SPLINE
  5
7F
330
1F
100
AcDbEntity
  8
layer 1
 62
     7
100
AcDbSpline
210
0.0
220
0.0
230
1.0
 70
    11
 71
     3
 72
    24
 73
    20
 74
     0
 42
0.0000000001
 43
0.0000000001
 12
1.0
 22
0.0
 32
0.0
 13
1.0
 23
0.0
 33
0.0
 40
0.0
 40
0.0
 40
0.0
 40
0.0
 40
0.1666666666666667
 40
0.1666666666666667
 40
0.1666666666666667
 40
0.1666666666666667
 40
0.3333333333333333
 40
0.3333333333333333
 40
0.3333333333333333
 40
0.3333333333333333
 40
0.5
 40
0.5
 40
0.5
 40
0.5
 40
0.6666666666666666
 40
0.6666666666666666
 40
0.6666666666666666
 40
0.6666666666666666
 40
1.0
 40
1.0
 40
1.0
 40
1.0
 10
187.3474
 20
-38.056
 30
0.0
 10
186.4226
 20
-32.6494
 30
0.0
 10
177.7821
 20
-33.1474
 30
0.0
 10
181.3785
 20
-38.8121
 30
0.0
 10
181.3785
 20
-38.8121
 30
0.0
 10
180.6179
 20
-40.4618
 30
0.0
 10
177.8084
 20
-39.3045
 30
0.0
 10
177.1974
 20
-37.5522
 30
0.0
 10
177.1974
 20
-37.5522
 30
0.0
 10
177.7873
 20
-40.1614
 30
0.0
 10
176.1874
 20
-43.2871
 30
0.0
 10
174.4885
 20
-44.7238
 30
0.0
 10
174.4885
 20
-44.7238
 30
0.0
 10
180.1097
 20
-44.6346
 30
0.0
 10
181.9418
 20
-48.445
 30
0.0
 10
181.7913
 20
-52.4819
 30
0.0
 10
181.7913
 20
-52.4819
 30
0.0
 10
184.8111
 20
-49.9408
 30
0.0
 10
188.0668
 20
-45.8577
 30
0.0
 10
187.3474
 20
-38.056
 30
0.0
  0
SPLINE
  5
80
330
1F
100
AcDbEntity
  8
layer 1
 62
     7
100
AcDbSpline
210
0.0
220
0.0
230
1.0
 70
    11
 71
     3
 72
    28
 73
    24
 74
     0
 42
0.0000000001
 43
0.0000000001
 12
1.0
 22
0.0
 32
0.0
 13
1.0
 23
0.0
 33
0.0
 40
0.0
 40
0.0
 40
0.0
 40
0.0
 40
0.1428571428571428
 40
0.1428571428571428
 40
0.1428571428571428
 40
0.1428571428571428
 40
0.2857142857142857
 40
0.2857142857142857
 40
0.2857142857142857
 40
0.2857142857142857
 40
0.4285714285714285
 40
0.4285714285714285
 40
0.4285714285714285
 40
0.4285714285714285
 40
0.5714285714285714
 40
0.5714285714285714
 40
0.5714285714285714
 40
0.5714285714285714
 40
0.7142857142857143
 40
0.7142857142857143
 40
0.7142857142857143
 40
0.7142857142857143
 40
1.0
 40
1.0
 40
1.0
 40
1.0
 10
172.2868
 20
-22.554
 30
0.0
 10
167.0409
 20
-23.5592
 30
0.0
 10
169.3431
 20
-30.0418
 30
0.0
 10
173.5612
 20
-27.8117
 30
0.0
 10
173.5612
 20
-27.8117
 30
0.0
 10
173.8847
 20
-29.2556
 30
0.0
 10
173.427
 20
-30.9802
 30
0.0
 10
171.1524
 20
-31.8725
 30
0.0
 10
171.1524
 20
-31.8725
 30
0.0
 10
173.7495
 20
-31.6043
 30
0.0
 10
175.191
 20
-33.0393
 30
0.0
 10
176.2902
 20
-34.8986
 30
0.0
 10
176.2902
 20
-34.8986
 30
0.0
 10
176.3332
 20
-29.0884
 30
0.0
 10
183.8326
 20
-28.2685
 30
0.0
 10
187.1988
 20
-31.0395
 30
0.0
 10
187.1988
 20
-31.0395
 30
0.0
 10
186.2768
 20
-25.774
 30
0.0
 10
179.9319
 20
-21.1032
 30
0.0
 10
172.2868
 20
-22.5538
 30
0.0
 10
172.2868
 20
-22.5538
 30
0.0
 10
172.2868
 20
-22.5538
 30
0.0
 10
172.2868
 20
-22.554
 30
0.0
 10
172.2868
 20
-22.554
 30
0.0
  0
SPLINE
  5
81
330
1F
100
AcDbEntity
  8
layer 1
 62
     7
100
AcDbSpline
210
0.0
220
0.0
230
1.0
 70
    11
 71
     3
 72
    28
 73
    24
 74
     0
 42
0.0000000001
 43
0.0000000001
 12
1.0
 22
0.0
 32
0.0
 13
1.0
 23
0.0
 33
0.0
 40
0.0
 40
0.0
 40
0.0
 40
0.0
 40
0.1428571428571428
 40
0.1428571428571428
 40
0.1428571428571428
 40
0.1428571428571428
 40
0.2857142857142857
 40
0.2857142857142857
 40
0.2857142857142857
 40
0.2857142857142857
 40
0.4285714285714285
 40
0.4285714285714285
 40
0.4285714285714285
 40
0.4285714285714285
 40
0.5714285714285714
 40
0.5714285714285714
 40
0.5714285714285714
 40
0.5714285714285714
 40
0.7142857142857143
 40
0.7142857142857143
 40
0.7142857142857143
 40
0.7142857142857143
 40
1.0
 40
1.0
 40
1.0
 40
1.0
 10
158.8852
 20
-35.6127
 30
0.0
 10
160.9795
 20
-44.942
 30
0.0
 10
174.9133
 20
-43.5357
 30
0.0
 10
171.7187
 20
-35.9418
 30
0.0
 10
171.7187
 20
-35.9418
 30
0.0
 10
171.084
 20
-34.8029
 30
0.0
 10
168.5289
 20
-33.5068
 30
0.0
 10
166.3127
 20
-35.6776
 30
0.0
 10
166.3127
 20
-35.6776
 30
0.0
 10
165.9462
 20
-33.9668
 30
0.0
 10
167.1311
 20
-32.2226
 30
0.0
 10
169.3494
 20
-32.3445
 30
0.0
 10
169.3494
 20
-32.3445
 30
0.0
 10
164.568
 20
-31.6108
 30
0.0
 10
164.1178
 20
-25.883
 30
0.0
 10
165.6471
 20
-23.2639
 30
0.0
 10
165.6471
 20
-23.2639
 30
0.0
 10
162.6272
 20
-25.8049
 30
0.0
 10
158.1656
 20
-27.8107
 30
0.0
 10
158.885
 20
-35.6125
 30
0.0
 10
158.885
 20
-35.6125
 30
0.0
 10
158.885
 20
-35.6125
 30
0.0
 10
158.8852
 20
-35.6127
 30
0.0
 10
158.8852
 20
-35.6127
 30
0.0
  0
SPLINE
  5
82
330
1F
100
AcDbEntity
  8
layer 1
 62
     7
100
AcDbSpline
210
0.0
220
0.0
230
1.0
 70
    11
 71
     3
 72
    20
 73
    16
 74
     0
 42
0.0000000001
 43
0.0000000001
 12
1.0
 22
0.0
 32
0.0
 13
1.0
 23
0.0
 33
0.0
 40
0.0
 40
0.0
 40
0.0
 40
0.0
 40
0.2
 40
0.2
 40
0.2
 40
0.2
 40
0.4
 40
0.4
 40
0.4
 40
0.4
 40
0.6
 40
0.6
 40
0.6
 40
0.6
 40
1.0
 40
1.0
 40
1.0
 40
1.0
 10
161.7087
 20
-44.7583
 30
0.0
 10
159.0179
 20
-44.6816
 30
0.0
 10
156.3105
 20
-45.9585
 30
0.0
 10
155.5461
 20
-48.8346
 30
0.0
 10
155.5461
 20
-48.8346
 30
0.0
 10
154.782
 20
-45.9585
 30
0.0
 10
152.0743
 20
-44.6816
 30
0.0
 10
149.3835
 20
-44.7583
 30
0.0
 10
149.3835
 20
-44.7583
 30
0.0
 10
152.5916
 20
-42.7874
 30
0.0
 10
154.1511
 20
-41.0776
 30
0.0
 10
155.5461
 20
-36.4772
 30
0.0
 10
155.5461
 20
-36.4772
 30
0.0
 10
156.9412
 20
-41.0773
 30
0.0
 10
158.5006
 20
-42.7871
 30
0.0
 10
161.7087
 20
-44.7583
 30
0.0
  0
SPLINE
  5
83
330
1F
100
AcDbEntity
  8
layer 1
 62
     7
100
AcDbSpline
210
0.0
220
0.0
230
1.0
 70
    11
 71
     3
 72
    28
 73
    24
 74
     0
 42
0.0000000001
 43
0.0000000001
 12
1.0
 22
0.0
 32
0.0
 13
1.0
 23
0.0
 33
0.0
 40
0.0
 40
0.0
 40
0.0
 40
0.0
 40
0.1428571428571428
 40
0.1428571428571428
 40
0.1428571428571428
 40
0.1428571428571428
 40
0.2857142857142857
 40
0.2857142857142857
 40
0.2857142857142857
 40
0.2857142857142857
 40
0.4285714285714285
 40
0.4285714285714285
 40
0.4285714285714285
 40
0.4285714285714285
 40
0.5714285714285714
 40
0.5714285714285714
 40
0.5714285714285714
 40
0.5714285714285714
 40
0.7142857142857143
 40
0.7142857142857143
 40
0.7142857142857143
 40
0.7142857142857143
 40
1.0
 40
1.0
 40
1.0
 40
1.0
 10
172.3785
 20
-5.8247
 30
0.0
 10
168.4877
 20
-6.8716
 30
0.0
 10
169.4924
 20
-11.8616
 30
0.0
 10
173.7897
 20
-9.9518
 30
0.0
 10
173.7897
 20
-9.9518
 30
0.0
 10
173.5356
 20
-11.6203
 30
0.0
 10
170.9134
 20
-13.8247
 30
0.0
 10
167.855
 20
-13.2252
 30
0.0
 10
167.855
 20
-13.2252
 30
0.0
 10
172.0608
 20
-16.606
 30
0.0
 10
175.1556
 20
-17.5836
 30
0.0
 10
179.2442
 20
-19.1252
 30
0.0
 10
179.2442
 20
-19.1252
 30
0.0
 10
175.963
 20
-14.6567
 30
0.0
 10
175.5364
 20
-8.939
 30
0.0
 10
178.0741
 20
-5.3388
 30
0.0
 10
178.0741
 20
-5.3388
 30
0.0
 10
175.9946
 20
-5.1857
 30
0.0
 10
174.5832
 20
-5.3084
 30
0.0
 10
172.3783
 20
-5.8247
 30
0.0
 10
172.3783
 20
-5.8247
 30
0.0
 10
172.3783
 20
-5.8247
 30
0.0
 10
172.3785
 20
-5.8247
 30
0.0
 10
172.3785
 20
-5.8247
 30
0.0
  0
SPLINE
  5
84
330
1F
100
AcDbEntity
  8
layer 1
 62
     7
100
AcDbSpline
210
0.0
220
0.0
230
1.0
 70
    11
 71
     3
 72
    24
 73
    20
 74
     0
 42
0.0000000001
 43
0.0000000001
 12
1.0
 22
0.0
 32
0.0
 13
1.0
 23
0.0
 33
0.0
 40
0.0
 40
0.0
 40
0.0
 40
0.0
 40
0.1666666666666667
 40
0.1666666666666667
 40
0.1666666666666667
 40
0.1666666666666667
 40
0.3333333333333333
 40
0.3333333333333333
 40
0.3333333333333333
 40
0.3333333333333333
 40
0.5
 40
0.5
 40
0.5
 40
0.5
 40
0.6666666666666666
 40
0.6666666666666666
 40
0.6666666666666666
 40
0.6666666666666666
 40
1.0
 40
1.0
 40
1.0
 40
1.0
 10
181.007
 20
-10.2924
 30
0.0
 10
182.0122
 20
-5.0464
 30
0.0
 10
189.0539
 20
-7.1252
 30
0.0
 10
186.9354
 20
-11.5668
 30
0.0
 10
186.9354
 20
-11.5668
 30
0.0
 10
189.4146
 20
-11.9586
 30
0.0
 10
191.1633
 20
-10.6299
 30
0.0
 10
191.4493
 20
-7.3439
 30
0.0
 10
191.4493
 20
-7.3439
 30
0.0
 10
191.4493
 20
-7.3439
 30
0.0
 10
191.4493
 20
-28.1672
 30
0.0
 10
191.4493
 20
-28.1672
 30
0.0
 10
191.4493
 20
-28.1672
 30
0.0
 10
186.9107
 20
-21.0205
 30
0.0
 10
180.1564
 20
-15.212
 30
0.0
 10
181.007
 20
-10.2926
 30
0.0
 10
181.007
 20
-10.2926
 30
0.0
 10
181.007
 20
-10.2926
 30
0.0
 10
181.007
 20
-10.2924
 30
0.0
 10
181.007
 20
-10.2924
 30
0.0
  0
SPLINE
  5
85
330
1F
100
AcDbEntity
  8
layer 1
 62
     7
100
AcDbSpline
210
0.0
220
0.0
230
1.0
 70
    11
 71
     3
 72
    28
 73
    24
 74
     0
 42
0.0000000001
 43
0.0000000001
 12
1.0
 22
0.0
 32
0.0
 13
1.0
 23
0.0
 33
0.0
 40
0.0
 40
0.0
 40
0.0
 40
0.0
 40
0.1428571428571428
 40
0.1428571428571428
 40
0.1428571428571428
 40
0.1428571428571428
 40
0.2857142857142857
 40
0.2857142857142857
 40
0.2857142857142857
 40
0.2857142857142857
 40
0.4285714285714285
 40
0.4285714285714285
 40
0.4285714285714285
 40
0.4285714285714285
 40
0.5714285714285714
 40
0.5714285714285714
 40
0.5714285714285714
 40
0.5714285714285714
 40
0.7142857142857143
 40
0.7142857142857143
 40
0.7142857142857143
 40
0.7142857142857143
 40
1.0
 40
1.0
 40
1.0
 40
1.0
 10
169.6608
 20
3.1939
 30
0.0
 10
169.1536
 20
0.6404
 30
0.0
 10
167.0401
 20
0.0934
 30
0.0
 10
165.4663
 20
0.5338
 30
0.0
 10
165.4663
 20
0.5338
 30
0.0
 10
167.4322
 20
5.6269
 30
0.0
 10
158.854
 20
6.1173
 30
0.0
 10
158.8827
 20
0.6165
 30
0.0
 10
158.8827
 20
0.6165
 30
0.0
 10
159.0669
 20
-4.7732
 30
0.0
 10
162.4985
 20
-8.5781
 30
0.0
 10
164.7163
 20
-10.836
 30
0.0
 10
164.7163
 20
-10.836
 30
0.0
 10
162.4902
 20
-3.8236
 30
0.0
 10
168.538
 20
-2.1103
 30
0.0
 10
172.7005
 20
-3.1409
 30
0.0
 10
172.7005
 20
-3.1409
 30
0.0
 10
170.3166
 20
-1.5362
 30
0.0
 10
169.0043
 20
0.1854
 30
0.0
 10
169.6606
 20
3.1939
 30
0.0
 10
169.6606
 20
3.1939
 30
0.0
 10
169.6606
 20
3.1939
 30
0.0
 10
169.6608
 20
3.1939
 30
0.0
 10
169.6608
 20
3.1939
 30
0.0
  0
SPLINE
  5
86
330
1F
100
AcDbEntity
  8
layer 1
 62
     7
100
AcDbSpline
210
0.0
220
0.0
230
1.0
 70
    11
 71
     3
 72
    20
 73
    16
 74
     0
 42
0.0000000001
 43
0.0000000001
 12
1.0
 22
0.0
 32
0.0
 13
1.0
 23
0.0
 33
0.0
 40
0.0
 40
0.0
 40
0.0
 40
0.0
 40
0.2
 40
0.2
 40
0.2
 40
0.2
 40
0.4
 40
0.4
 40
0.4
 40
0.4
 40
0.6
 40
0.6
 40
0.6
 40
0.6
 40
1.0
 40
1.0
 40
1.0
 40
1.0
 10
169.7051
 20
5.8828
 30
0.0
 10
169.2174
 20
7.3321
 30
0.0
 10
167.8327
 20
8.8684
 30
0.0
 10
165.301
 20
8.8684
 30
0.0
 10
165.301
 20
8.8684
 30
0.0
 10
167.8327
 20
8.8684
 30
0.0
 10
169.2177
 20
10.4047
 30
0.0
 10
169.7051
 20
11.8541
 30
0.0
 10
169.7051
 20
11.8541
 30
0.0
 10
170.1138
 20
10.3638
 30
0.0
 10
171.3369
 20
9.2088
 30
0.0
 10
173.4006
 20
8.8684
 30
0.0
 10
173.4006
 20
8.8684
 30
0.0
 10
171.3369
 20
8.5281
 30
0.0
 10
170.1138
 20
7.3731
 30
0.0
 10
169.7051
 20
5.8828
 30
0.0
  0
SPLINE
  5
87
330
1F
100
AcDbEntity
  8
layer 1
 62
     7
100
AcDbSpline
210
0.0
220
0.0
230
1.0
 70
    11
 71
     3
 72
    28
 73
    24
 74
     0
 42
0.0000000001
 43
0.0000000001
 12
1.0
 22
0.0
 32
0.0
 13
1.0
 23
0.0
 33
0.0
 40
0.0
 40
0.0
 40
0.0
 40
0.0
 40
0.1428571428571428
 40
0.1428571428571428
 40
0.1428571428571428
 40
0.1428571428571428
 40
0.2857142857142857
 40
0.2857142857142857
 40
0.2857142857142857
 40
0.2857142857142857
 40
0.4285714285714285
 40
0.4285714285714285
 40
0.4285714285714285
 40
0.4285714285714285
 40
0.5714285714285714
 40
0.5714285714285714
 40
0.5714285714285714
 40
0.5714285714285714
 40
0.7142857142857143
 40
0.7142857142857143
 40
0.7142857142857143
 40
0.7142857142857143
 40
1.0
 40
1.0
 40
1.0
 40
1.0
 10
178.553
 20
6.5471
 30
0.0
 10
173.2847
 20
8.8682
 30
0.0
 10
171.5352
 20
-0.2932
 30
0.0
 10
179.0778
 20
-0.0582
 30
0.0
 10
179.0778
 20
-0.0582
 30
0.0
 10
184.1352
 20
0.3774
 30
0.0
 10
188.1517
 20
3.8246
 30
0.0
 10
188.3624
 20
8.8682
 30
0.0
 10
188.3624
 20
8.8682
 30
0.0
 10
188.1517
 20
13.912
 30
0.0
 10
184.1352
 20
17.3589
 30
0.0
 10
179.0778
 20
17.7945
 30
0.0
 10
179.0778
 20
17.7945
 30
0.0
 10
171.5352
 20
18.0295
 30
0.0
 10
173.2847
 20
8.8682
 30
0.0
 10
178.553
 20
11.1892
 30
0.0
 10
178.553
 20
11.1892
 30
0.0
 10
178.3403
 20
10.0624
 30
0.0
 10
177.6544
 20
8.8682
 30
0.0
 10
176.0834
 20
8.8682
 30
0.0
 10
176.0834
 20
8.8682
 30
0.0
 10
177.6544
 20
8.8682
 30
0.0
 10
178.3403
 20
7.674
 30
0.0
 10
178.553
 20
6.5471
 30
0.0
  0
SPLINE
  5
88
330
1F
100
AcDbEntity
  8
layer 1
 62
     7
100
AcDbSpline
210
0.0
220
0.0
230
1.0
 70
    11
 71
     3
 72
    16
 73
    12
 74
     0
 42
0.0000000001
 43
0.0000000001
 12
1.0
 22
0.0
 32
0.0
 13
1.0
 23
0.0
 33
0.0
 40
0.0
 40
0.0
 40
0.0
 40
0.0
 40
0.25
 40
0.25
 40
0.25
 40
0.25
 40
0.5
 40
0.5
 40
0.5
 40
0.5
 40
1.0
 40
1.0
 40
1.0
 40
1.0
 10
186.1154
 20
-2.3747
 30
0.0
 10
188.2136
 20
-1.1433
 30
0.0
 10
190.238
 20
0.4114
 30
0.0
 10
191.4493
 20
3.8181
 30
0.0
 10
191.4493
 20
3.8181
 30
0.0
 10
191.4493
 20
3.8181
 30
0.0
 10
191.4493
 20
-4.9703
 30
0.0
 10
191.4493
 20
-4.9703
 30
0.0
 10
191.4493
 20
-4.9703
 30
0.0
 10
190.6932
 20
-2.8131
 30
0.0
 10
188.9156
 20
-1.8685
 30
0.0
 10
186.1154
 20
-2.3747
 30
0.0
  0
SPLINE
  5
89
330
1F
100
AcDbEntity
  8
layer 1
 62
     7
100
AcDbSpline
210
0.0
220
0.0
230
1.0
 70
    11
 71
     3
 72
    24
 73
    20
 74
     0
 42
0.0000000001
 43
0.0000000001
 12
1.0
 22
0.0
 32
0.0
 13
1.0
 23
0.0
 33
0.0
 40
0.0
 40
0.0
 40
0.0
 40
0.0
 40
0.1666666666666667
 40
0.1666666666666667
 40
0.1666666666666667
 40
0.1666666666666667
 40
0.3333333333333333
 40
0.3333333333333333
 40
0.3333333333333333
 40
0.3333333333333333
 40
0.5
 40
0.5
 40
0.5
 40
0.5
 40
0.6666666666666666
 40
0.6666666666666666
 40
0.6666666666666666
 40
0.6666666666666666
 40
1.0
 40
1.0
 40
1.0
 40
1.0
 10
176.6361
 20
-61.6779
 30
0.0
 10
177.672
 20
-60.8479
 30
0.0
 10
179.6265
 20
-59.5894
 30
0.0
 10
181.1473
 20
-58.0659
 30
0.0
 10
181.1473
 20
-58.0659
 30
0.0
 10
182.8849
 20
-60.6242
 30
0.0
 10
185.5893
 20
-62.3672
 30
0.0
 10
188.1904
 20
-60.8889
 30
0.0
 10
188.1904
 20
-60.8889
 30
0.0
 10
187.1609
 20
-66.3364
 30
0.0
 10
190.6342
 20
-66.7328
 30
0.0
 10
191.4491
 20
-73.0023
 30
0.0
 10
191.4491
 20
-73.0023
 30
0.0
 10
187.9441
 20
-65.5346
 30
0.0
 10
182.758
 20
-61.2674
 30
0.0
 10
176.6358
 20
-61.6779
 30
0.0
 10
176.6358
 20
-61.6779
 30
0.0
 10
176.6358
 20
-61.6779
 30
0.0
 10
176.6361
 20
-61.6779
 30
0.0
 10
176.6361
 20
-61.6779
 30
0.0
  0
SPLINE
  5
8A
330
1F
100
AcDbEntity
  8
layer 1
 62
     7
100
AcDbSpline
210
0.0
220
0.0
230
1.0
 70
    11
 71
     3
 72
    28
 73
    24
 74
     0
 42
0.0000000001
 43
0.0000000001
 12
1.0
 22
0.0
 32
0.0
 13
1.0
 23
0.0
 33
0.0
 40
0.0
 40
0.0
 40
0.0
 40
0.0
 40
0.1428571428571428
 40
0.1428571428571428
 40
0.1428571428571428
 40
0.1428571428571428
 40
0.2857142857142857
 40
0.2857142857142857
 40
0.2857142857142857
 40
0.2857142857142857
 40
0.4285714285714285
 40
0.4285714285714285
 40
0.4285714285714285
 40
0.4285714285714285
 40
0.5714285714285714
 40
0.5714285714285714
 40
0.5714285714285714
 40
0.5714285714285714
 40
0.7142857142857143
 40
0.7142857142857143
 40
0.7142857142857143
 40
0.7142857142857143
 40
1.0
 40
1.0
 40
1.0
 40
1.0
 10
147.2349
 20
114.3523
 30
0.0
 10
149.5572
 20
111.8112
 30
0.0
 10
152.4996
 20
107.5192
 30
0.0
 10
151.7802
 20
99.7175
 30
0.0
 10
151.7802
 20
99.7175
 30
0.0
 10
150.8555
 20
94.311
 30
0.0
 10
142.685
 20
95.4878
 30
0.0
 10
146.2814
 20
101.1525
 30
0.0
 10
146.2814
 20
101.1525
 30
0.0
 10
145.5208
 20
102.8022
 30
0.0
 10
142.5022
 20
101.3838
 30
0.0
 10
141.8912
 20
99.6318
 30
0.0
 10
141.8912
 20
99.6318
 30
0.0
 10
142.4811
 20
102.2409
 30
0.0
 10
140.8812
 20
105.7843
 30
0.0
 10
139.1822
 20
107.2211
 30
0.0
 10
139.1822
 20
107.2211
 30
0.0
 10
144.7512
 20
108.2286
 30
0.0
 10
145.8521
 20
112.3524
 30
0.0
 10
145.747
 20
114.3523
 30
0.0
 10
145.747
 20
114.3523
 30
0.0
 10
145.747
 20
114.3523
 30
0.0
 10
147.2349
 20
114.3523
 30
0.0
 10
147.2349
 20
114.3523
 30
0.0
  0
ENDSEC
  0
SECTION
  2
OBJECTS
  0
DICTIONARY
  5
C
330
0
100
AcDbDictionary
281
     1
  3
ACAD_GROUP
350
D
  3
ACAD_LAYOUT
350
1A
  3
ACAD_MATERIAL
350
3B
  3
ACAD_MLEADERSTYLE
350
AD
  3
ACAD_MLINESTYLE
350
17
  3
ACAD_PLOTSETTINGS
350
19
  3
ACAD_PLOTSTYLENAME
350
E
  3
ACAD_TABLESTYLE
350
AC
  3
ACAD_VISUALSTYLE
350
2A
  0
DICTIONARY
  5
D
102
{ACAD_REACTORS
330
C
102
}
330
C
100
AcDbDictionary
281
     1
  0
DICTIONARY
  5
1A
102
{ACAD_REACTORS
330
C
102
}
330
C
100
AcDbDictionary
281
     1
  3
Layout1
350
1E
  3
Layout2
350
26
  3
Model
350
22
  0
DICTIONARY
  5
3B
102
{ACAD_REACTORS
330
C
102
}
330
C
100
AcDbDictionary
281
     1
  3
ByBlock
350
3D
  3
ByLayer
350
3C
  3
Global
350
3E
  0
DICTIONARY
  5
AD
102
{ACAD_REACTORS
330
C
102
}
330
C
100
AcDbDictionary
281
     1
  0
DICTIONARY
  5
17
102
{ACAD_REACTORS
330
C
102
}
330
C
100
AcDbDictionary
281
     1
  3
Standard
350
18
  0
DICTIONARY
  5
19
102
{ACAD_REACTORS
330
C
102
}
330
C
100
AcDbDictionary
281
     1
  0
ACDBDICTIONARYWDFLT
  5
E
102
{ACAD_REACTORS
330
C
102
}
330
C
100
AcDbDictionary
281
     1
  3
Normal
350
F
100
AcDbDictionaryWithDefault
340
F
  0
DICTIONARY
  5
AC
102
{ACAD_REACTORS
330
C
102
}
330
C
100
AcDbDictionary
281
     1
  0
DICTIONARY
  5
2A
102
{ACAD_REACTORS
330
C
102
}
330
C
100
AcDbDictionary
281
     1
  3
2dWireframe
350
2F
  3
3D Hidden
350
31
  3
3dWireframe
350
30
  3
Basic
350
32
  3
Brighten
350
36
  3
ColorChange
350
3A
  3
Conceptual
350
34
  3
Dim
350
35
  3
Facepattern
350
39
  3
Flat
350
2B
  3
FlatWithEdges
350
2C
  3
Gouraud
350
2D
  3
GouraudWithEdges
350
2E
  3
Linepattern
350
38
  3
Realistic
350
33
  3
Thicken
350
37
  0
LAYOUT
  5
1E
102
{ACAD_REACTORS
330
1A
102
}
330
1A
100
AcDbPlotSettings
  1

  2
none_device
  4

  6

 40
0.0
 41
0.0
 42
0.0
 43
0.0
 44
0.0
 45
0.0
 46
0.0
 47
0.0
 48
0.0
 49
0.0
140
0.0
141
0.0
142
1.0
143
1.0
 70
   688
 72
     0
 73
     0
 74
     5
  7

 75
    16
 76
     0
 77
     2
 78
   300
147
1.0
148
0.0
149
0.0
100
AcDbLayout
  1
Layout1
 70
     1
 71
     1
 10
0.0
 20
0.0
 11
12.0
 21
9.0
 12
0.0
 22
0.0
 32
0.0
 14
1.000000000000000E+20
 24
1.000000000000000E+20
 34
1.000000000000000E+20
 15
-1.000000000000000E+20
 25
-1.000000000000000E+20
 35
-1.000000000000000E+20
146
0.0
 13
0.0
 23
0.0
 33
0.0
 16
1.0
 26
0.0
 36
0.0
 17
0.0
 27
1.0
 37
0.0
 76
     0
330
1B
  0
LAYOUT
  5
26
102
{ACAD_REACTORS
330
1A
102
}
330
1A
100
AcDbPlotSettings
  1

  2
none_device
  4

  6

 40
0.0
 41
0.0
 42
0.0
 43
0.0
 44
0.0
 45
0.0
 46
0.0
 47
0.0
 48
0.0
 49
0.0
140
0.0
141
0.0
142
1.0
143
1.0
 70
   688
 72
     0
 73
     0
 74
     5
  7

 75
    16
 76
     0
 77
     2
 78
   300
147
1.0
148
0.0
149
0.0
100
AcDbLayout
  1
Layout2
 70
     1
 71
     2
 10
0.0
 20
0.0
 11
0.0
 21
0.0
 12
0.0
 22
0.0
 32
0.0
 14
0.0
 24
0.0
 34
0.0
 15
0.0
 25
0.0
 35
0.0
146
0.0
 13
0.0
 23
0.0
 33
0.0
 16
1.0
 26
0.0
 36
0.0
 17
0.0
 27
1.0
 37
0.0
 76
     0
330
23
  0
LAYOUT
  5
22
102
{ACAD_REACTORS
330
1A
102
}
330
1A
100
AcDbPlotSettings
  1

  2
none_device
  4

  6

 40
0.0
 41
0.0
 42
0.0
 43
0.0
 44
0.0
 45
0.0
 46
0.0
 47
0.0
 48
0.0
 49
0.0
140
0.0
141
0.0
142
1.0
143
1.0
 70
  1712
 72
     0
 73
     0
 74
     0
  7

 75
     0
 76
     0
 77
     2
 78
   300
147
1.0
148
0.0
149
0.0
100
AcDbLayout
  1
Model
 70
     1
 71
     0
 10
0.0
 20
0.0
 11
12.0
 21
9.0
 12
0.0
 22
0.0
 32
0.0
 14
113.5791
 24
-103.8164
 34
0.0
 15
196.4303
 25
121.3127
 35
0.0
146
0.0
 13
0.0
 23
0.0
 33
0.0
 16
1.0
 26
0.0
 36
0.0
 17
0.0
 27
1.0
 37
0.0
 76
     0
330
1F
331
29
  0
MATERIAL
  5
3D
102
{ACAD_REACTORS
330
3B
102
}
330
3B
100
AcDbMaterial
  1
ByBlock
 72
     1
 94
      127
  0
MATERIAL
  5
3C
102
{ACAD_REACTORS
330
3B
102
}
330
3B
100
AcDbMaterial
  1
ByLayer
 72
     1
 94
      127
  0
MATERIAL
  5
3E
102
{ACAD_REACTORS
330
3B
102
}
330
3B
100
AcDbMaterial
  1
Global
 72
     1
 94
      127
  0
MLINESTYLE
  5
18
102
{ACAD_REACTORS
330
17
102
}
330
17
100
AcDbMlineStyle
  2
Standard
 70
     0
  3

 62
   256
 51
90.0
 52
90.0
 71
     2
 49
0.5
 62
   256
  6
BYLAYER
 49
-0.5
 62
   256
  6
BYLAYER
  0
ACDBPLACEHOLDER
  5
F
102
{ACAD_REACTORS
330
E
102
}
330
E
  0
VISUALSTYLE
  5
2F
102
{ACAD_REACTORS
330
2A
102
}
102
{ACAD_XDICTIONARY
360
94
102
}
330
2A
100
AcDbVisualStyle
  2
2dWireframe
 70
     4
 71
     0
 72
     2
 73
     0
 90
        0
 40
-0.6
 41
-30.0
 62
     5
 63
     7
421
 16777215
 74
     1
 91
        4
 64
     7
 65
   257
 75
     1
175
     1
 42
1.0
 92
        0
 66
   257
 43
1.0
 76
     1
 77
     6
 78
     2
 67
     7
 79
     5
170
     0
171
     0
290
     0
174
     0
 93
        1
 44
0.0
173
     0
291
     0
 45
0.0
  0
VISUALSTYLE
  5
31
102
{ACAD_REACTORS
330
2A
102
}
102
{ACAD_XDICTIONARY
360
98
102
}
330
2A
100
AcDbVisualStyle
  2
3D Hidden
 70
     6
 71
     1
 72
     2
 73
     2
 90
        0
 40
-0.6
 41
-30.0
 62
     5
 63
     7
421
 16777215
 74
     2
 91
        2
 64
     7
 65
   257
 75
     2
175
     1
 42
40.0
 92
        0
 66
   257
 43
1.0
 76
     1
 77
     6
 78
     2
 67
     7
 79
     3
170
     0
171
     0
290
     0
174
     0
 93
        1
 44
0.0
173
     0
291
     0
 45
0.0
  0
VISUALSTYLE
  5
30
102
{ACAD_REACTORS
330
2A
102
}
102
{ACAD_XDICTIONARY
360
96
102
}
330
2A
100
AcDbVisualStyle
  2
3dWireframe
 70
     5
 71
     0
 72
     2
 73
     0
 90
        0
 40
-0.6
 41
-30.0
 62
     5
 63
     7
421
 16777215
 74
     1
 91
        4
 64
     7
 65
   257
 75
     1
175
     1
 42
1.0
 92
        0
 66
   257
 43
1.0
 76
     1
 77
     6
 78
     2
 67
     7
 79
     5
170
     0
171
     0
290
     0
174
     0
 93
        1
 44
0.0
173
     0
291
     0
 45
0.0
  0
VISUALSTYLE
  5
32
102
{ACAD_REACTORS
330
2A
102
}
102
{ACAD_XDICTIONARY
360
9A
102
}
330
2A
100
AcDbVisualStyle
  2
Basic
 70
     7
 71
     1
 72
     0
 73
     1
 90
        0
 40
-0.6
 41
-30.0
 62
     5
 63
     7
421
 16777215
 74
     0
 91
        4
 64
     7
 65
   257
 75
     1
175
     1
 42
1.0
 92
        8
 66
     7
 43
1.0
 76
     1
 77
     6
 78
     2
 67
     7
 79
     5
170
     0
171
     0
290
     0
174
     0
 93
        1
 44
0.0
173
     0
291
     1
 45
0.0
  0
VISUALSTYLE
  5
36
102
{ACAD_REACTORS
330
2A
102
}
102
{ACAD_XDICTIONARY
360
A2
102
}
330
2A
100
AcDbVisualStyle
  2
Brighten
 70
    12
 71
     2
 72
     2
 73
     0
 90
        0
 40
-0.6
 41
-30.0
 62
     5
 63
     7
421
 16777215
 74
     1
 91
        4
 64
     7
 65
   257
 75
     1
175
     1
 42
1.0
 92
        8
 66
     7
 43
1.0
 76
     1
 77
     6
 78
     2
 67
     7
 79
     5
170
     0
171
     0
290
     0
174
     0
 93
        1
 44
50.0
173
     0
291
     1
 45
0.0
  0
VISUALSTYLE
  5
3A
102
{ACAD_REACTORS
330
2A
102
}
102
{ACAD_XDICTIONARY
360
AA
102
}
330
2A
100
AcDbVisualStyle
  2
ColorChange
 70
    16
 71
     2
 72
     2
 73
     3
 90
        0
 40
-0.6
 41
-30.0
 62
     5
 63
     8
421
  8421504
 74
     1
 91
        4
 64
     7
 65
   257
 75
     1
175
     1
 42
1.0
 92
        8
 66
     8
424
  8421504
 43
1.0
 76
     1
 77
     6
 78
     2
 67
     7
 79
     5
170
     0
171
     0
290
     0
174
     0
 93
        1
 44
0.0
173
     0
291
     1
 45
0.0
  0
VISUALSTYLE
  5
34
102
{ACAD_REACTORS
330
2A
102
}
102
{ACAD_XDICTIONARY
360
9E
102
}
330
2A
100
AcDbVisualStyle
  2
Conceptual
 70
     9
 71
     3
 72
     2
 73
     0
 90
        0
 40
-0.6
 41
-30.0
 62
     5
 63
     7
421
 16777215
 74
     2
 91
        2
 64
     7
 65
   257
 75
     1
175
     1
 42
40.0
 92
        8
 66
     7
 43
1.0
 76
     1
 77
     6
 78
     2
 67
     7
 79
     3
170
     0
171
     0
290
     0
174
     0
 93
        1
 44
0.0
173
     0
291
     0
 45
0.0
  0
VISUALSTYLE
  5
35
102
{ACAD_REACTORS
330
2A
102
}
102
{ACAD_XDICTIONARY
360
A0
102
}
330
2A
100
AcDbVisualStyle
  2
Dim
 70
    11
 71
     2
 72
     2
 73
     0
 90
        0
 40
-0.6
 41
-30.0
 62
     5
 63
     7
421
 16777215
 74
     1
 91
        4
 64
     7
 65
   257
 75
     1
175
     1
 42
1.0
 92
        8
 66
     7
 43
1.0
 76
     1
 77
     6
 78
     2
 67
     7
 79
     5
170
     0
171
     0
290
     0
174
     0
 93
        1
 44
-50.0
173
     0
291
     1
 45
0.0
  0
VISUALSTYLE
  5
39
102
{ACAD_REACTORS
330
2A
102
}
102
{ACAD_XDICTIONARY
360
A8
102
}
330
2A
100
AcDbVisualStyle
  2
Facepattern
 70
    15
 71
     2
 72
     2
 73
     0
 90
        0
 40
-0.6
 41
-30.0
 62
     5
 63
     7
421
 16777215
 74
     1
 91
        4
 64
     7
 65
   257
 75
     1
175
     1
 42
1.0
 92
        8
 66
     7
 43
1.0
 76
     1
 77
     6
 78
     2
 67
     7
 79
     5
170
     0
171
     0
290
     0
174
     0
 93
        1
 44
0.0
173
     0
291
     1
 45
0.0
  0
VISUALSTYLE
  5
2B
102
{ACAD_REACTORS
330
2A
102
}
102
{ACAD_XDICTIONARY
360
8C
102
}
330
2A
100
AcDbVisualStyle
  2
Flat
 70
     0
 71
     2
 72
     1
 73
     1
 90
        2
 40
-0.6
 41
30.0
 62
     5
 63
     7
421
 16777215
 74
     0
 91
        4
 64
     7
 65
   257
 75
     1
175
     1
 42
1.0
 92
        8
 66
     7
 43
1.0
 76
     1
 77
     6
 78
     2
 67
     7
 79
     5
170
     0
171
     0
290
     0
174
     0
 93
       13
 44
0.0
173
     0
291
     1
 45
0.0
  0
VISUALSTYLE
  5
2C
102
{ACAD_REACTORS
330
2A
102
}
102
{ACAD_XDICTIONARY
360
8E
102
}
330
2A
100
AcDbVisualStyle
  2
FlatWithEdges
 70
     1
 71
     2
 72
     1
 73
     1
 90
        2
 40
-0.6
 41
30.0
 62
     5
 63
     7
421
 16777215
 74
     1
 91
        4
 64
     7
 65
   257
 75
     1
175
     1
 42
1.0
 92
        0
 66
   257
 43
1.0
 76
     1
 77
     6
 78
     2
 67
     7
 79
     5
170
     0
171
     0
290
     0
174
     0
 93
       13
 44
0.0
173
     0
291
     1
 45
0.0
  0
VISUALSTYLE
  5
2D
102
{ACAD_REACTORS
330
2A
102
}
102
{ACAD_XDICTIONARY
360
90
102
}
330
2A
100
AcDbVisualStyle
  2
Gouraud
 70
     2
 71
     2
 72
     2
 73
     1
 90
        2
 40
-0.6
 41
30.0
 62
     5
 63
     7
421
 16777215
 74
     0
 91
        4
 64
     7
 65
   257
 75
     1
175
     1
 42
1.0
 92
        0
 66
     7
 43
1.0
 76
     1
 77
     6
 78
     2
 67
     7
 79
     5
170
     0
171
     0
290
     0
174
     0
 93
       13
 44
0.0
173
     0
291
     1
 45
0.0
  0
VISUALSTYLE
  5
2E
102
{ACAD_REACTORS
330
2A
102
}
102
{ACAD_XDICTIONARY
360
92
102
}
330
2A
100
AcDbVisualStyle
  2
GouraudWithEdges
 70
     3
 71
     2
 72
     2
 73
     1
 90
        2
 40
-0.6
 41
30.0
 62
     5
 63
     7
421
 16777215
 74
     1
 91
        4
 64
     7
 65
   257
 75
     1
175
     1
 42
1.0
 92
        0
 66
   257
 43
1.0
 76
     1
 77
     6
 78
     2
 67
     7
 79
     5
170
     0
171
     0
290
     0
174
     0
 93
       13
 44
0.0
173
     0
291
     1
 45
0.0
  0
VISUALSTYLE
  5
38
102
{ACAD_REACTORS
330
2A
102
}
102
{ACAD_XDICTIONARY
360
A6
102
}
330
2A
100
AcDbVisualStyle
  2
Linepattern
 70
    14
 71
     2
 72
     2
 73
     0
 90
        0
 40
-0.6
 41
-30.0
 62
     5
 63
     7
421
 16777215
 74
     1
 91
        4
 64
     7
 65
   257
 75
     7
175
     7
 42
1.0
 92
        8
 66
     7
 43
1.0
 76
     1
 77
     6
 78
     2
 67
     7
 79
     5
170
     0
171
     0
290
     0
174
     0
 93
        1
 44
0.0
173
     0
291
     1
 45
0.0
  0
VISUALSTYLE
  5
33
102
{ACAD_REACTORS
330
2A
102
}
102
{ACAD_XDICTIONARY
360
9C
102
}
330
2A
100
AcDbVisualStyle
  2
Realistic
 70
     8
 71
     2
 72
     2
 73
     0
 90
        0
 40
-0.6
 41
-30.0
 62
     5
 63
     7
421
 16777215
 74
     1
 91
        0
 64
     7
 65
   257
 75
     1
175
     1
 42
1.0
 92
        8
 66
     8
424
  7895160
 43
1.0
 76
     1
 77
     6
 78
     2
 67
     7
 79
     5
170
     0
171
     0
290
     0
174
     0
 93
       13
 44
0.0
173
     0
291
     0
 45
0.0
  0
VISUALSTYLE
  5
37
102
{ACAD_REACTORS
330
2A
102
}
102
{ACAD_XDICTIONARY
360
A4
102
}
330
2A
100
AcDbVisualStyle
  2
Thicken
 70
    13
 71
     2
 72
     2
 73
     0
 90
        0
 40
-0.6
 41
-30.0
 62
     5
 63
     7
421
 16777215
 74
     1
 91
        4
 64
     7
 65
   257
 75
     1
175
     1
 42
1.0
 92
       12
 66
     7
 43
1.0
 76
     1
 77
     6
 78
     2
 67
     7
 79
     5
170
     0
171
     0
290
     0
174
     0
 93
        1
 44
0.0
173
     0
291
     1
 45
0.0
  0
DICTIONARY
  5
94
330
2F
100
AcDbDictionary
280
     1
281
     1
  3
ACAD_XREC_ROUNDTRIP
360
95
  0
DICTIONARY
  5
98
330
31
100
AcDbDictionary
280
     1
281
     1
  3
ACAD_XREC_ROUNDTRIP
360
99
  0
DICTIONARY
  5
96
330
30
100
AcDbDictionary
280
     1
281
     1
  3
ACAD_XREC_ROUNDTRIP
360
97
  0
DICTIONARY
  5
9A
330
32
100
AcDbDictionary
280
     1
281
     1
  3
ACAD_XREC_ROUNDTRIP
360
9B
  0
DICTIONARY
  5
A2
330
36
100
AcDbDictionary
280
     1
281
     1
  3
ACAD_XREC_ROUNDTRIP
360
A3
  0
DICTIONARY
  5
AA
330
3A
100
AcDbDictionary
280
     1
281
     1
  3
ACAD_XREC_ROUNDTRIP
360
AB
  0
DICTIONARY
  5
9E
330
34
100
AcDbDictionary
280
     1
281
     1
  3
ACAD_XREC_ROUNDTRIP
360
9F
  0
DICTIONARY
  5
A0
330
35
100
AcDbDictionary
280
     1
281
     1
  3
ACAD_XREC_ROUNDTRIP
360
A1
  0
DICTIONARY
  5
A8
330
39
100
AcDbDictionary
280
     1
281
     1
  3
ACAD_XREC_ROUNDTRIP
360
A9
  0
DICTIONARY
  5
8C
330
2B
100
AcDbDictionary
280
     1
281
     1
  3
ACAD_XREC_ROUNDTRIP
360
8D
  0
DICTIONARY
  5
8E
330
2C
100
AcDbDictionary
280
     1
281
     1
  3
ACAD_XREC_ROUNDTRIP
360
8F
  0
DICTIONARY
  5
90
330
2D
100
AcDbDictionary
280
     1
281
     1
  3
ACAD_XREC_ROUNDTRIP
360
91
  0
DICTIONARY
  5
92
330
2E
100
AcDbDictionary
280
     1
281
     1
  3
ACAD_XREC_ROUNDTRIP
360
93
  0
DICTIONARY
  5
A6
330
38
100
AcDbDictionary
280
     1
281
     1
  3
ACAD_XREC_ROUNDTRIP
360
A7
  0
DICTIONARY
  5
9C
330
33
100
AcDbDictionary
280
     1
281
     1
  3
ACAD_XREC_ROUNDTRIP
360
9D
  0
DICTIONARY
  5
A4
330
37
100
AcDbDictionary
280
     1
281
     1
  3
ACAD_XREC_ROUNDTRIP
360
A5
  0
XRECORD
  5
95
102
{ACAD_REACTORS
330
94
102
}
330
94
100
AcDbXrecord
280
     1
102
RTVSPropertyOp0
 70
     1
102
RTVSPropertyOp1
 70
     1
102
RTVSPropertyOp2
 70
     1
102
RTVSPropertyOp3
 70
     1
102
RTVSPropertyOp4
 70
     1
102
RTVSPropertyOp5
 70
     1
102
RTVSPropertyOp6
 70
     1
102
RTVSPropertyOp7
 70
     1
102
RTVSPropertyOp8
 70
     1
102
RTVSPropertyOp9
 70
     1
102
RTVSPropertyOp10
 70
     1
102
RTVSPropertyOp11
 70
     1
102
RTVSPropertyOp12
 70
     1
102
RTVSPropertyOp13
 70
     1
102
RTVSPropertyOp14
 70
     1
102
RTVSPropertyOp15
 70
     1
102
RTVSPropertyOp16
 70
     1
102
RTVSPropertyOp17
 70
     1
102
RTVSPropertyOp18
 70
     1
102
RTVSPropertyOp19
 70
     1
102
RTVSPropertyOp20
 70
     1
102
RTVSPropertyOp21
 70
     1
102
RTVSPropertyOp22
 70
     1
102
RTVSPropertyOp23
 70
     1
102
RTVSPropertyOp24
 70
     1
102
RTVSPropertyOp25
 70
     1
102
RTVSPropertyOp26
 70
     1
102
RTVSPropertyOp27
 70
     1
102
RTVSPropertyOp28
 70
     1
102
RTVSPropertyOp29
 70
     1
102
RTVSPropertyOp30
 70
     1
102
RTVSPropertyOp31
 70
     1
102
RTVSPropertyOp32
 70
     1
  0
XRECORD
  5
99
102
{ACAD_REACTORS
330
98
102
}
330
98
100
AcDbXrecord
280
     1
102
RTVSPropertyOp0
 70
     1
102
RTVSPropertyOp1
 70
     1
102
RTVSPropertyOp2
 70
     1
102
RTVSPropertyOp3
 70
     1
102
RTVSPropertyOp4
 70
     1
102
RTVSPropertyOp5
 70
     1
102
RTVSPropertyOp6
 70
     1
102
RTVSPropertyOp7
 70
     1
102
RTVSPropertyOp8
 70
     1
102
RTVSPropertyOp9
 70
     1
102
RTVSPropertyOp10
 70
     1
102
RTVSPropertyOp11
 70
     1
102
RTVSPropertyOp12
 70
     1
102
RTVSPropertyOp13
 70
     1
102
RTVSPropertyOp14
 70
     1
102
RTVSPropertyOp15
 70
     1
102
RTVSPropertyOp16
 70
     1
102
RTVSPropertyOp17
 70
     1
102
RTVSPropertyOp18
 70
     1
102
RTVSPropertyOp19
 70
     1
102
RTVSPropertyOp20
 70
     1
102
RTVSPropertyOp21
 70
     1
102
RTVSPropertyOp22
 70
     1
102
RTVSPropertyOp23
 70
     1
102
RTVSPropertyOp24
 70
     1
102
RTVSPropertyOp25
 70
     1
102
RTVSPropertyOp26
 70
     1
102
RTVSPropertyOp27
 70
     1
102
RTVSPropertyOp28
 70
     1
102
RTVSPropertyOp29
 70
     1
102
RTVSPropertyOp30
 70
     1
102
RTVSPropertyOp31
 70
     1
102
RTVSPropertyOp32
 70
     1
  0
XRECORD
  5
97
102
{ACAD_REACTORS
330
96
102
}
330
96
100
AcDbXrecord
280
     1
102
RTVSPropertyOp0
 70
     1
102
RTVSPropertyOp1
 70
     1
102
RTVSPropertyOp2
 70
     1
102
RTVSPropertyOp3
 70
     1
102
RTVSPropertyOp4
 70
     1
102
RTVSPropertyOp5
 70
     1
102
RTVSPropertyOp6
 70
     1
102
RTVSPropertyOp7
 70
     1
102
RTVSPropertyOp8
 70
     1
102
RTVSPropertyOp9
 70
     1
102
RTVSPropertyOp10
 70
     1
102
RTVSPropertyOp11
 70
     1
102
RTVSPropertyOp12
 70
     1
102
RTVSPropertyOp13
 70
     1
102
RTVSPropertyOp14
 70
     1
102
RTVSPropertyOp15
 70
     1
102
RTVSPropertyOp16
 70
     1
102
RTVSPropertyOp17
 70
     1
102
RTVSPropertyOp18
 70
     1
102
RTVSPropertyOp19
 70
     1
102
RTVSPropertyOp20
 70
     1
102
RTVSPropertyOp21
 70
     1
102
RTVSPropertyOp22
 70
     1
102
RTVSPropertyOp23
 70
     1
102
RTVSPropertyOp24
 70
     1
102
RTVSPropertyOp25
 70
     1
102
RTVSPropertyOp26
 70
     1
102
RTVSPropertyOp27
 70
     1
102
RTVSPropertyOp28
 70
     1
102
RTVSPropertyOp29
 70
     1
102
RTVSPropertyOp30
 70
     1
102
RTVSPropertyOp31
 70
     1
102
RTVSPropertyOp32
 70
     1
  0
XRECORD
  5
9B
102
{ACAD_REACTORS
330
9A
102
}
330
9A
100
AcDbXrecord
280
     1
102
RTVSPropertyOp0
 70
     1
102
RTVSPropertyOp1
 70
     1
102
RTVSPropertyOp2
 70
     1
102
RTVSPropertyOp3
 70
     1
102
RTVSPropertyOp4
 70
     1
102
RTVSPropertyOp5
 70
     1
102
RTVSPropertyOp6
 70
     1
102
RTVSPropertyOp7
 70
     1
102
RTVSPropertyOp8
 70
     1
102
RTVSPropertyOp9
 70
     1
102
RTVSPropertyOp10
 70
     1
102
RTVSPropertyOp11
 70
     1
102
RTVSPropertyOp12
 70
     1
102
RTVSPropertyOp13
 70
     1
102
RTVSPropertyOp14
 70
     1
102
RTVSPropertyOp15
 70
     1
102
RTVSPropertyOp16
 70
     1
102
RTVSPropertyOp17
 70
     1
102
RTVSPropertyOp18
 70
     1
102
RTVSPropertyOp19
 70
     1
102
RTVSPropertyOp20
 70
     1
102
RTVSPropertyOp21
 70
     1
102
RTVSPropertyOp22
 70
     1
102
RTVSPropertyOp23
 70
     1
102
RTVSPropertyOp24
 70
     1
102
RTVSPropertyOp25
 70
     1
102
RTVSPropertyOp26
 70
     1
102
RTVSPropertyOp27
 70
     1
102
RTVSPropertyOp28
 70
     1
102
RTVSPropertyOp29
 70
     1
102
RTVSPropertyOp30
 70
     1
102
RTVSPropertyOp31
 70
     1
102
RTVSPropertyOp32
 70
     1
  0
XRECORD
  5
A3
102
{ACAD_REACTORS
330
A2
102
}
330
A2
100
AcDbXrecord
280
     1
102
RTVSPropertyOp0
 70
     1
102
RTVSPropertyOp1
 70
     1
102
RTVSPropertyOp2
 70
     1
102
RTVSPropertyOp3
 70
     1
102
RTVSPropertyOp4
 70
     1
102
RTVSPropertyOp5
 70
     1
102
RTVSPropertyOp6
 70
     1
102
RTVSPropertyOp7
 70
     1
102
RTVSPropertyOp8
 70
     1
102
RTVSPropertyOp9
 70
     1
102
RTVSPropertyOp10
 70
     1
102
RTVSPropertyOp11
 70
     1
102
RTVSPropertyOp12
 70
     1
102
RTVSPropertyOp13
 70
     1
102
RTVSPropertyOp14
 70
     1
102
RTVSPropertyOp15
 70
     1
102
RTVSPropertyOp16
 70
     1
102
RTVSPropertyOp17
 70
     1
102
RTVSPropertyOp18
 70
     1
102
RTVSPropertyOp19
 70
     1
102
RTVSPropertyOp20
 70
     1
102
RTVSPropertyOp21
 70
     1
102
RTVSPropertyOp22
 70
     1
102
RTVSPropertyOp23
 70
     1
102
RTVSPropertyOp24
 70
     1
102
RTVSPropertyOp25
 70
     1
102
RTVSPropertyOp26
 70
     1
102
RTVSPropertyOp27
 70
     1
102
RTVSPropertyOp28
 70
     1
102
RTVSPropertyOp29
 70
     1
102
RTVSPropertyOp30
 70
     1
102
RTVSPropertyOp31
 70
     1
102
RTVSPropertyOp32
 70
     1
  0
XRECORD
  5
AB
102
{ACAD_REACTORS
330
AA
102
}
330
AA
100
AcDbXrecord
280
     1
102
RTVSPropertyOp0
 70
     1
102
RTVSPropertyOp1
 70
     1
102
RTVSPropertyOp2
 70
     1
102
RTVSPropertyOp3
 70
     1
102
RTVSPropertyOp4
 70
     1
102
RTVSPropertyOp5
 70
     1
102
RTVSPropertyOp6
 70
     1
102
RTVSPropertyOp7
 70
     1
102
RTVSPropertyOp8
 70
     1
102
RTVSPropertyOp9
 70
     1
102
RTVSPropertyOp10
 70
     1
102
RTVSPropertyOp11
 70
     1
102
RTVSPropertyOp12
 70
     1
102
RTVSPropertyOp13
 70
     1
102
RTVSPropertyOp14
 70
     1
102
RTVSPropertyOp15
 70
     1
102
RTVSPropertyOp16
 70
     1
102
RTVSPropertyOp17
 70
     1
102
RTVSPropertyOp18
 70
     1
102
RTVSPropertyOp19
 70
     1
102
RTVSPropertyOp20
 70
     1
102
RTVSPropertyOp21
 70
     1
102
RTVSPropertyOp22
 70
     1
102
RTVSPropertyOp23
 70
     1
102
RTVSPropertyOp24
 70
     1
102
RTVSPropertyOp25
 70
     1
102
RTVSPropertyOp26
 70
     1
102
RTVSPropertyOp27
 70
     1
102
RTVSPropertyOp28
 70
     1
102
RTVSPropertyOp29
 70
     1
102
RTVSPropertyOp30
 70
     1
102
RTVSPropertyOp31
 70
     1
102
RTVSPropertyOp32
 70
     1
  0
XRECORD
  5
9F
102
{ACAD_REACTORS
330
9E
102
}
330
9E
100
AcDbXrecord
280
     1
102
RTVSPropertyOp0
 70
     1
102
RTVSPropertyOp1
 70
     1
102
RTVSPropertyOp2
 70
     1
102
RTVSPropertyOp3
 70
     1
102
RTVSPropertyOp4
 70
     1
102
RTVSPropertyOp5
 70
     1
102
RTVSPropertyOp6
 70
     1
102
RTVSPropertyOp7
 70
     1
102
RTVSPropertyOp8
 70
     1
102
RTVSPropertyOp9
 70
     1
102
RTVSPropertyOp10
 70
     1
102
RTVSPropertyOp11
 70
     1
102
RTVSPropertyOp12
 70
     1
102
RTVSPropertyOp13
 70
     1
102
RTVSPropertyOp14
 70
     1
102
RTVSPropertyOp15
 70
     1
102
RTVSPropertyOp16
 70
     1
102
RTVSPropertyOp17
 70
     1
102
RTVSPropertyOp18
 70
     1
102
RTVSPropertyOp19
 70
     1
102
RTVSPropertyOp20
 70
     1
102
RTVSPropertyOp21
 70
     1
102
RTVSPropertyOp22
 70
     1
102
RTVSPropertyOp23
 70
     1
102
RTVSPropertyOp24
 70
     1
102
RTVSPropertyOp25
 70
     1
102
RTVSPropertyOp26
 70
     1
102
RTVSPropertyOp27
 70
     1
102
RTVSPropertyOp28
 70
     1
102
RTVSPropertyOp29
 70
     1
102
RTVSPropertyOp30
 70
     1
102
RTVSPropertyOp31
 70
     1
102
RTVSPropertyOp32
 70
     1
  0
XRECORD
  5
A1
102
{ACAD_REACTORS
330
A0
102
}
330
A0
100
AcDbXrecord
280
     1
102
RTVSPropertyOp0
 70
     1
102
RTVSPropertyOp1
 70
     1
102
RTVSPropertyOp2
 70
     1
102
RTVSPropertyOp3
 70
     1
102
RTVSPropertyOp4
 70
     1
102
RTVSPropertyOp5
 70
     1
102
RTVSPropertyOp6
 70
     1
102
RTVSPropertyOp7
 70
     1
102
RTVSPropertyOp8
 70
     1
102
RTVSPropertyOp9
 70
     1
102
RTVSPropertyOp10
 70
     1
102
RTVSPropertyOp11
 70
     1
102
RTVSPropertyOp12
 70
     1
102
RTVSPropertyOp13
 70
     1
102
RTVSPropertyOp14
 70
     1
102
RTVSPropertyOp15
 70
     1
102
RTVSPropertyOp16
 70
     1
102
RTVSPropertyOp17
 70
     1
102
RTVSPropertyOp18
 70
     1
102
RTVSPropertyOp19
 70
     1
102
RTVSPropertyOp20
 70
     1
102
RTVSPropertyOp21
 70
     1
102
RTVSPropertyOp22
 70
     1
102
RTVSPropertyOp23
 70
     1
102
RTVSPropertyOp24
 70
     1
102
RTVSPropertyOp25
 70
     1
102
RTVSPropertyOp26
 70
     1
102
RTVSPropertyOp27
 70
     1
102
RTVSPropertyOp28
 70
     1
102
RTVSPropertyOp29
 70
     1
102
RTVSPropertyOp30
 70
     1
102
RTVSPropertyOp31
 70
     1
102
RTVSPropertyOp32
 70
     1
  0
XRECORD
  5
A9
102
{ACAD_REACTORS
330
A8
102
}
330
A8
100
AcDbXrecord
280
     1
102
RTVSPropertyOp0
 70
     1
102
RTVSPropertyOp1
 70
     1
102
RTVSPropertyOp2
 70
     1
102
RTVSPropertyOp3
 70
     1
102
RTVSPropertyOp4
 70
     1
102
RTVSPropertyOp5
 70
     1
102
RTVSPropertyOp6
 70
     1
102
RTVSPropertyOp7
 70
     1
102
RTVSPropertyOp8
 70
     1
102
RTVSPropertyOp9
 70
     1
102
RTVSPropertyOp10
 70
     1
102
RTVSPropertyOp11
 70
     1
102
RTVSPropertyOp12
 70
     1
102
RTVSPropertyOp13
 70
     1
102
RTVSPropertyOp14
 70
     1
102
RTVSPropertyOp15
 70
     1
102
RTVSPropertyOp16
 70
     1
102
RTVSPropertyOp17
 70
     1
102
RTVSPropertyOp18
 70
     1
102
RTVSPropertyOp19
 70
     1
102
RTVSPropertyOp20
 70
     1
102
RTVSPropertyOp21
 70
     1
102
RTVSPropertyOp22
 70
     1
102
RTVSPropertyOp23
 70
     1
102
RTVSPropertyOp24
 70
     1
102
RTVSPropertyOp25
 70
     1
102
RTVSPropertyOp26
 70
     1
102
RTVSPropertyOp27
 70
     1
102
RTVSPropertyOp28
 70
     1
102
RTVSPropertyOp29
 70
     1
102
RTVSPropertyOp30
 70
     1
102
RTVSPropertyOp31
 70
     1
102
RTVSPropertyOp32
 70
     1
  0
XRECORD
  5
8D
102
{ACAD_REACTORS
330
8C
102
}
330
8C
100
AcDbXrecord
280
     1
102
RTVSPropertyOp0
 70
     1
102
RTVSPropertyOp1
 70
     1
102
RTVSPropertyOp2
 70
     1
102
RTVSPropertyOp3
 70
     1
102
RTVSPropertyOp4
 70
     1
102
RTVSPropertyOp5
 70
     1
102
RTVSPropertyOp6
 70
     1
102
RTVSPropertyOp7
 70
     1
102
RTVSPropertyOp8
 70
     1
102
RTVSPropertyOp9
 70
     1
102
RTVSPropertyOp10
 70
     1
102
RTVSPropertyOp11
 70
     1
102
RTVSPropertyOp12
 70
     1
102
RTVSPropertyOp13
 70
     1
102
RTVSPropertyOp14
 70
     1
102
RTVSPropertyOp15
 70
     1
102
RTVSPropertyOp16
 70
     1
102
RTVSPropertyOp17
 70
     1
102
RTVSPropertyOp18
 70
     1
102
RTVSPropertyOp19
 70
     1
102
RTVSPropertyOp20
 70
     1
102
RTVSPropertyOp21
 70
     1
102
RTVSPropertyOp22
 70
     1
102
RTVSPropertyOp23
 70
     1
102
RTVSPropertyOp24
 70
     1
102
RTVSPropertyOp25
 70
     1
102
RTVSPropertyOp26
 70
     1
102
RTVSPropertyOp27
 70
     1
102
RTVSPropertyOp28
 70
     1
102
RTVSPropertyOp29
 70
     1
102
RTVSPropertyOp30
 70
     1
102
RTVSPropertyOp31
 70
     1
102
RTVSPropertyOp32
 70
     1
  0
XRECORD
  5
8F
102
{ACAD_REACTORS
330
8E
102
}
330
8E
100
AcDbXrecord
280
     1
102
RTVSPropertyOp0
 70
     1
102
RTVSPropertyOp1
 70
     1
102
RTVSPropertyOp2
 70
     1
102
RTVSPropertyOp3
 70
     1
102
RTVSPropertyOp4
 70
     1
102
RTVSPropertyOp5
 70
     1
102
RTVSPropertyOp6
 70
     1
102
RTVSPropertyOp7
 70
     1
102
RTVSPropertyOp8
 70
     1
102
RTVSPropertyOp9
 70
     1
102
RTVSPropertyOp10
 70
     1
102
RTVSPropertyOp11
 70
     1
102
RTVSPropertyOp12
 70
     1
102
RTVSPropertyOp13
 70
     1
102
RTVSPropertyOp14
 70
     1
102
RTVSPropertyOp15
 70
     1
102
RTVSPropertyOp16
 70
     1
102
RTVSPropertyOp17
 70
     1
102
RTVSPropertyOp18
 70
     1
102
RTVSPropertyOp19
 70
     1
102
RTVSPropertyOp20
 70
     1
102
RTVSPropertyOp21
 70
     1
102
RTVSPropertyOp22
 70
     1
102
RTVSPropertyOp23
 70
     1
102
RTVSPropertyOp24
 70
     1
102
RTVSPropertyOp25
 70
     1
102
RTVSPropertyOp26
 70
     1
102
RTVSPropertyOp27
 70
     1
102
RTVSPropertyOp28
 70
     1
102
RTVSPropertyOp29
 70
     1
102
RTVSPropertyOp30
 70
     1
102
RTVSPropertyOp31
 70
     1
102
RTVSPropertyOp32
 70
     1
  0
XRECORD
  5
91
102
{ACAD_REACTORS
330
90
102
}
330
90
100
AcDbXrecord
280
     1
102
RTVSPropertyOp0
 70
     1
102
RTVSPropertyOp1
 70
     1
102
RTVSPropertyOp2
 70
     1
102
RTVSPropertyOp3
 70
     1
102
RTVSPropertyOp4
 70
     1
102
RTVSPropertyOp5
 70
     1
102
RTVSPropertyOp6
 70
     1
102
RTVSPropertyOp7
 70
     1
102
RTVSPropertyOp8
 70
     1
102
RTVSPropertyOp9
 70
     1
102
RTVSPropertyOp10
 70
     1
102
RTVSPropertyOp11
 70
     1
102
RTVSPropertyOp12
 70
     1
102
RTVSPropertyOp13
 70
     1
102
RTVSPropertyOp14
 70
     1
102
RTVSPropertyOp15
 70
     1
102
RTVSPropertyOp16
 70
     1
102
RTVSPropertyOp17
 70
     1
102
RTVSPropertyOp18
 70
     1
102
RTVSPropertyOp19
 70
     1
102
RTVSPropertyOp20
 70
     1
102
RTVSPropertyOp21
 70
     1
102
RTVSPropertyOp22
 70
     1
102
RTVSPropertyOp23
 70
     1
102
RTVSPropertyOp24
 70
     1
102
RTVSPropertyOp25
 70
     1
102
RTVSPropertyOp26
 70
     1
102
RTVSPropertyOp27
 70
     1
102
RTVSPropertyOp28
 70
     1
102
RTVSPropertyOp29
 70
     1
102
RTVSPropertyOp30
 70
     1
102
RTVSPropertyOp31
 70
     1
102
RTVSPropertyOp32
 70
     1
  0
XRECORD
  5
93
102
{ACAD_REACTORS
330
92
102
}
330
92
100
AcDbXrecord
280
     1
102
RTVSPropertyOp0
 70
     1
102
RTVSPropertyOp1
 70
     1
102
RTVSPropertyOp2
 70
     1
102
RTVSPropertyOp3
 70
     1
102
RTVSPropertyOp4
 70
     1
102
RTVSPropertyOp5
 70
     1
102
RTVSPropertyOp6
 70
     1
102
RTVSPropertyOp7
 70
     1
102
RTVSPropertyOp8
 70
     1
102
RTVSPropertyOp9
 70
     1
102
RTVSPropertyOp10
 70
     1
102
RTVSPropertyOp11
 70
     1
102
RTVSPropertyOp12
 70
     1
102
RTVSPropertyOp13
 70
     1
102
RTVSPropertyOp14
 70
     1
102
RTVSPropertyOp15
 70
     1
102
RTVSPropertyOp16
 70
     1
102
RTVSPropertyOp17
 70
     1
102
RTVSPropertyOp18
 70
     1
102
RTVSPropertyOp19
 70
     1
102
RTVSPropertyOp20
 70
     1
102
RTVSPropertyOp21
 70
     1
102
RTVSPropertyOp22
 70
     1
102
RTVSPropertyOp23
 70
     1
102
RTVSPropertyOp24
 70
     1
102
RTVSPropertyOp25
 70
     1
102
RTVSPropertyOp26
 70
     1
102
RTVSPropertyOp27
 70
     1
102
RTVSPropertyOp28
 70
     1
102
RTVSPropertyOp29
 70
     1
102
RTVSPropertyOp30
 70
     1
102
RTVSPropertyOp31
 70
     1
102
RTVSPropertyOp32
 70
     1
  0
XRECORD
  5
A7
102
{ACAD_REACTORS
330
A6
102
}
330
A6
100
AcDbXrecord
280
     1
102
RTVSPropertyOp0
 70
     1
102
RTVSPropertyOp1
 70
     1
102
RTVSPropertyOp2
 70
     1
102
RTVSPropertyOp3
 70
     1
102
RTVSPropertyOp4
 70
     1
102
RTVSPropertyOp5
 70
     1
102
RTVSPropertyOp6
 70
     1
102
RTVSPropertyOp7
 70
     1
102
RTVSPropertyOp8
 70
     1
102
RTVSPropertyOp9
 70
     1
102
RTVSPropertyOp10
 70
     1
102
RTVSPropertyOp11
 70
     1
102
RTVSPropertyOp12
 70
     1
102
RTVSPropertyOp13
 70
     1
102
RTVSPropertyOp14
 70
     1
102
RTVSPropertyOp15
 70
     1
102
RTVSPropertyOp16
 70
     1
102
RTVSPropertyOp17
 70
     1
102
RTVSPropertyOp18
 70
     1
102
RTVSPropertyOp19
 70
     1
102
RTVSPropertyOp20
 70
     1
102
RTVSPropertyOp21
 70
     1
102
RTVSPropertyOp22
 70
     1
102
RTVSPropertyOp23
 70
     1
102
RTVSPropertyOp24
 70
     1
102
RTVSPropertyOp25
 70
     1
102
RTVSPropertyOp26
 70
     1
102
RTVSPropertyOp27
 70
     1
102
RTVSPropertyOp28
 70
     1
102
RTVSPropertyOp29
 70
     1
102
RTVSPropertyOp30
 70
     1
102
RTVSPropertyOp31
 70
     1
102
RTVSPropertyOp32
 70
     1
  0
XRECORD
  5
9D
102
{ACAD_REACTORS
330
9C
102
}
330
9C
100
AcDbXrecord
280
     1
102
RTVSPropertyOp0
 70
     1
102
RTVSPropertyOp1
 70
     1
102
RTVSPropertyOp2
 70
     1
102
RTVSPropertyOp3
 70
     1
102
RTVSPropertyOp4
 70
     1
102
RTVSPropertyOp5
 70
     1
102
RTVSPropertyOp6
 70
     1
102
RTVSPropertyOp7
 70
     1
102
RTVSPropertyOp8
 70
     1
102
RTVSPropertyOp9
 70
     1
102
RTVSPropertyOp10
 70
     1
102
RTVSPropertyOp11
 70
     1
102
RTVSPropertyOp12
 70
     1
102
RTVSPropertyOp13
 70
     1
102
RTVSPropertyOp14
 70
     1
102
RTVSPropertyOp15
 70
     1
102
RTVSPropertyOp16
 70
     1
102
RTVSPropertyOp17
 70
     1
102
RTVSPropertyOp18
 70
     1
102
RTVSPropertyOp19
 70
     1
102
RTVSPropertyOp20
 70
     1
102
RTVSPropertyOp21
 70
     1
102
RTVSPropertyOp22
 70
     1
102
RTVSPropertyOp23
 70
     1
102
RTVSPropertyOp24
 70
     1
102
RTVSPropertyOp25
 70
     1
102
RTVSPropertyOp26
 70
     1
102
RTVSPropertyOp27
 70
     1
102
RTVSPropertyOp28
 70
     1
102
RTVSPropertyOp29
 70
     1
102
RTVSPropertyOp30
 70
     1
102
RTVSPropertyOp31
 70
     1
102
RTVSPropertyOp32
 70
     1
  0
XRECORD
  5
A5
102
{ACAD_REACTORS
330
A4
102
}
330
A4
100
AcDbXrecord
280
     1
102
RTVSPropertyOp0
 70
     1
102
RTVSPropertyOp1
 70
     1
102
RTVSPropertyOp2
 70
     1
102
RTVSPropertyOp3
 70
     1
102
RTVSPropertyOp4
 70
     1
102
RTVSPropertyOp5
 70
     1
102
RTVSPropertyOp6
 70
     1
102
RTVSPropertyOp7
 70
     1
102
RTVSPropertyOp8
 70
     1
102
RTVSPropertyOp9
 70
     1
102
RTVSPropertyOp10
 70
     1
102
RTVSPropertyOp11
 70
     1
102
RTVSPropertyOp12
 70
     1
102
RTVSPropertyOp13
 70
     1
102
RTVSPropertyOp14
 70
     1
102
RTVSPropertyOp15
 70
     1
102
RTVSPropertyOp16
 70
     1
102
RTVSPropertyOp17
 70
     1
102
RTVSPropertyOp18
 70
     1
102
RTVSPropertyOp19
 70
     1
102
RTVSPropertyOp20
 70
     1
102
RTVSPropertyOp21
 70
     1
102
RTVSPropertyOp22
 70
     1
102
RTVSPropertyOp23
 70
     1
102
RTVSPropertyOp24
 70
     1
102
RTVSPropertyOp25
 70
     1
102
RTVSPropertyOp26
 70
     1
102
RTVSPropertyOp27
 70
     1
102
RTVSPropertyOp28
 70
     1
102
RTVSPropertyOp29
 70
     1
102
RTVSPropertyOp30
 70
     1
102
RTVSPropertyOp31
 70
     1
102
RTVSPropertyOp32
 70
     1
  0
ENDSEC
  0
EOF
