  0
SECTION
  2
HEADER
  9
$ACADVER
  1
AC1021
  9
$ACADMAINTVER
 70
    25
  9
$DWGCODEPAGE
  3
ANSI_1252
  9
$INSBASE
 10
0.0
 20
0.0
 30
0.0
  9
$EXTMIN
 10
-45.5583
 20
-114.8562
 30
0.0
  9
$EXTMAX
 10
62.9761
 20
131.6423
 30
0.0
  9
$LIMMIN
 10
0.0
 20
0.0
  9
$LIMMAX
 10
12.0
 20
9.0
  9
$ORTHOMODE
 70
     0
  9
$REGENMODE
 70
     1
  9
$FILLMODE
 70
     1
  9
$QTEXTMODE
 70
     0
  9
$MIRRTEXT
 70
     1
  9
$LTSCALE
 40
1.0
  9
$ATTMODE
 70
     1
  9
$TEXTSIZE
 40
0.2
  9
$TRACEWID
 40
0.05
  9
$TEXTSTYLE
  7
Standard
  9
$CLAYER
  8
0
  9
$CELTYPE
  6
ByLayer
  9
$CECOLOR
 62
   256
  9
$CELTSCALE
 40
1.0
  9
$DISPSILH
 70
     0
  9
$DIMSCALE
 40
1.0
  9
$DIMASZ
 40
0.18
  9
$DIMEXO
 40
0.0625
  9
$DIMDLI
 40
0.38
  9
$DIMRND
 40
0.0
  9
$DIMDLE
 40
0.0
  9
$DIMEXE
 40
0.18
  9
$DIMTP
 40
0.0
  9
$DIMTM
 40
0.0
  9
$DIMTXT
 40
0.18
  9
$DIMCEN
 40
0.09
  9
$DIMTSZ
 40
0.0
  9
$DIMTOL
 70
     0
  9
$DIMLIM
 70
     0
  9
$DIMTIH
 70
     1
  9
$DIMTOH
 70
     1
  9
$DIMSE1
 70
     0
  9
$DIMSE2
 70
     0
  9
$DIMTAD
 70
     0
  9
$DIMZIN
 70
     0
  9
$DIMBLK
  1

  9
$DIMASO
 70
     1
  9
$DIMSHO
 70
     1
  9
$DIMPOST
  1

  9
$DIMAPOST
  1

  9
$DIMALT
 70
     0
  9
$DIMALTD
 70
     2
  9
$DIMALTF
 40
25.4
  9
$DIMLFAC
 40
1.0
  9
$DIMTOFL
 70
     0
  9
$DIMTVP
 40
0.0
  9
$DIMTIX
 70
     0
  9
$DIMSOXD
 70
     0
  9
$DIMSAH
 70
     0
  9
$DIMBLK1
  1

  9
$DIMBLK2
  1

  9
$DIMSTYLE
  2
Standard
  9
$DIMCLRD
 70
     0
  9
$DIMCLRE
 70
     0
  9
$DIMCLRT
 70
     0
  9
$DIMTFAC
 40
1.0
  9
$DIMGAP
 40
0.09
  9
$DIMJUST
 70
     0
  9
$DIMSD1
 70
     0
  9
$DIMSD2
 70
     0
  9
$DIMTOLJ
 70
     1
  9
$DIMTZIN
 70
     0
  9
$DIMALTZ
 70
     0
  9
$DIMALTTZ
 70
     0
  9
$DIMUPT
 70
     0
  9
$DIMDEC
 70
     4
  9
$DIMTDEC
 70
     4
  9
$DIMALTU
 70
     2
  9
$DIMALTTD
 70
     2
  9
$DIMTXSTY
  7
Standard
  9
$DIMAUNIT
 70
     0
  9
$DIMADEC
 70
     0
  9
$DIMALTRND
 40
0.0
  9
$DIMAZIN
 70
     0
  9
$DIMDSEP
 70
    46
  9
$DIMATFIT
 70
     3
  9
$DIMFRAC
 70
     0
  9
$DIMLDRBLK
  1

  9
$DIMLUNIT
 70
     2
  9
$DIMLWD
 70
    -2
  9
$DIMLWE
 70
    -2
  9
$DIMTMOVE
 70
     0
  9
$DIMFXL
 40
1.0
  9
$DIMFXLON
 70
     0
  9
$DIMJOGANG
 40
0.7853981633974483
  9
$DIMTFILL
 70
     0
  9
$DIMTFILLCLR
 70
     0
  9
$DIMARCSYM
 70
     0
  9
$DIMLTYPE
  6

  9
$DIMLTEX1
  6

  9
$DIMLTEX2
  6

  9
$LUNITS
 70
     2
  9
$LUPREC
 70
     4
  9
$SKETCHINC
 40
0.1
  9
$FILLETRAD
 40
0.5
  9
$AUNITS
 70
     0
  9
$AUPREC
 70
     0
  9
$MENU
  1
.
  9
$ELEVATION
 40
0.0
  9
$PELEVATION
 40
0.0
  9
$THICKNESS
 40
0.0
  9
$LIMCHECK
 70
     0
  9
$CHAMFERA
 40
0.5
  9
$CHAMFERB
 40
0.5
  9
$CHAMFERC
 40
1.0
  9
$CHAMFERD
 40
0.0
  9
$SKPOLY
 70
     0
  9
$TDCREATE
 40
2458492.553323403
  9
$TDUCREATE
 40
2458492.553323403
  9
$TDUPDATE
 40
2458492.553323495
  9
$TDUUPDATE
 40
2458492.553323495
  9
$TDINDWG
 40
0.0000000116
  9
$TDUSRTIMER
 40
0.0000000116
  9
$USRTIMER
 70
     1
  9
$ANGBASE
 50
0.0
  9
$ANGDIR
 70
     0
  9
$PDMODE
 70
     0
  9
$PDSIZE
 40
0.0
  9
$PLINEWID
 40
0.0
  9
$SPLFRAME
 70
     0
  9
$SPLINETYPE
 70
     6
  9
$SPLINESEGS
 70
     8
  9
$HANDSEED
  5
A6
  9
$SURFTAB1
 70
     6
  9
$SURFTAB2
 70
     6
  9
$SURFTYPE
 70
     6
  9
$SURFU
 70
     6
  9
$SURFV
 70
     6
  9
$UCSBASE
  2

  9
$UCSNAME
  2

  9
$UCSORG
 10
0.0
 20
0.0
 30
0.0
  9
$UCSXDIR
 10
1.0
 20
0.0
 30
0.0
  9
$UCSYDIR
 10
0.0
 20
1.0
 30
0.0
  9
$UCSORTHOREF
  2

  9
$UCSORTHOVIEW
 70
     0
  9
$UCSORGTOP
 10
0.0
 20
0.0
 30
0.0
  9
$UCSORGBOTTOM
 10
0.0
 20
0.0
 30
0.0
  9
$UCSORGLEFT
 10
0.0
 20
0.0
 30
0.0
  9
$UCSORGRIGHT
 10
0.0
 20
0.0
 30
0.0
  9
$UCSORGFRONT
 10
0.0
 20
0.0
 30
0.0
  9
$UCSORGBACK
 10
0.0
 20
0.0
 30
0.0
  9
$PUCSBASE
  2

  9
$PUCSNAME
  2

  9
$PUCSORG
 10
0.0
 20
0.0
 30
0.0
  9
$PUCSXDIR
 10
1.0
 20
0.0
 30
0.0
  9
$PUCSYDIR
 10
0.0
 20
1.0
 30
0.0
  9
$PUCSORTHOREF
  2

  9
$PUCSORTHOVIEW
 70
     0
  9
$PUCSORGTOP
 10
0.0
 20
0.0
 30
0.0
  9
$PUCSORGBOTTOM
 10
0.0
 20
0.0
 30
0.0
  9
$PUCSORGLEFT
 10
0.0
 20
0.0
 30
0.0
  9
$PUCSORGRIGHT
 10
0.0
 20
0.0
 30
0.0
  9
$PUCSORGFRONT
 10
0.0
 20
0.0
 30
0.0
  9
$PUCSORGBACK
 10
0.0
 20
0.0
 30
0.0
  9
$USERI1
 70
     0
  9
$USERI2
 70
     0
  9
$USERI3
 70
     0
  9
$USERI4
 70
     0
  9
$USERI5
 70
     0
  9
$USERR1
 40
0.0
  9
$USERR2
 40
0.0
  9
$USERR3
 40
0.0
  9
$USERR4
 40
0.0
  9
$USERR5
 40
0.0
  9
$WORLDVIEW
 70
     1
  9
$SHADEDGE
 70
     3
  9
$SHADEDIF
 70
    70
  9
$TILEMODE
 70
     1
  9
$MAXACTVP
 70
    64
  9
$PINSBASE
 10
0.0
 20
0.0
 30
0.0
  9
$PLIMCHECK
 70
     0
  9
$PEXTMIN
 10
1.000000000000000E+20
 20
1.000000000000000E+20
 30
1.000000000000000E+20
  9
$PEXTMAX
 10
-1.000000000000000E+20
 20
-1.000000000000000E+20
 30
-1.000000000000000E+20
  9
$PLIMMIN
 10
0.0
 20
0.0
  9
$PLIMMAX
 10
12.0
 20
9.0
  9
$UNITMODE
 70
     0
  9
$VISRETAIN
 70
     1
  9
$PLINEGEN
 70
     0
  9
$PSLTSCALE
 70
     1
  9
$TREEDEPTH
 70
  3020
  9
$CMLSTYLE
  2
Standard
  9
$CMLJUST
 70
     0
  9
$CMLSCALE
 40
1.0
  9
$PROXYGRAPHICS
 70
     1
  9
$MEASUREMENT
 70
     0
  9
$CELWEIGHT
370
    -1
  9
$ENDCAPS
280
     0
  9
$JOINSTYLE
280
     0
  9
$LWDISPLAY
290
     0
  9
$INSUNITS
 70
     4
  9
$HYPERLINKBASE
  1

  9
$STYLESHEET
  1

  9
$XEDIT
290
     1
  9
$CEPSNTYPE
380
     0
  9
$PSTYLEMODE
290
     1
  9
$FINGERPRINTGUID
  2
{9F5C89FF-B635-4573-9101-49C8C745588F}
  9
$VERSIONGUID
  2
{FAEB1C32-E019-11D5-929B-00C0DF256EC4}
  9
$EXTNAMES
290
     1
  9
$PSVPSCALE
 40
0.0
  9
$OLESTARTUP
290
     0
  9
$SORTENTS
280
   127
  9
$INDEXCTL
280
     0
  9
$HIDETEXT
280
     1
  9
$XCLIPFRAME
290
     0
  9
$HALOGAP
280
     0
  9
$OBSCOLOR
 70
   257
  9
$OBSLTYPE
280
     0
  9
$INTERSECTIONDISPLAY
280
     0
  9
$INTERSECTIONCOLOR
 70
   257
  9
$DIMASSOC
280
     2
  9
$PROJECTNAME
  1

  9
$CAMERADISPLAY
290
     0
  9
$LENSLENGTH
 40
50.0
  9
$CAMERAHEIGHT
 40
0.0
  9
$STEPSPERSEC
 40
2.0
  9
$STEPSIZE
 40
6.0
  9
$3DDWFPREC
 40
2.0
  9
$PSOLWIDTH
 40
0.25
  9
$PSOLHEIGHT
 40
4.0
  9
$LOFTANG1
 40
1.570796326794897
  9
$LOFTANG2
 40
1.570796326794897
  9
$LOFTMAG1
 40
0.0
  9
$LOFTMAG2
 40
0.0
  9
$LOFTPARAM
 70
     7
  9
$LOFTNORMALS
280
     1
  9
$LATITUDE
 40
37.795
  9
$LONGITUDE
 40
-122.394
  9
$NORTHDIRECTION
 40
0.0
  9
$TIMEZONE
 70
 -8000
  9
$LIGHTGLYPHDISPLAY
280
     1
  9
$TILEMODELIGHTSYNCH
280
     1
  9
$SOLIDHIST
280
     1
  9
$SHOWHIST
280
     1
  9
$DWFFRAME
280
     2
  9
$DGNFRAME
280
     2
  9
$REALWORLDSCALE
290
     1
  9
$INTERFERECOLOR
 62
   256
  9
$CSHADOW
280
     0
  9
$SHADOWPLANELOCATION
 40
0.0
  0
ENDSEC
  0
SECTION
  2
CLASSES
  0
CLASS
  1
ACDBDICTIONARYWDFLT
  2
AcDbDictionaryWithDefault
  3
ObjectDBX Classes
 90
        0
 91
        4
280
     0
281
     0
  0
CLASS
  1
VISUALSTYLE
  2
AcDbVisualStyle
  3
ObjectDBX Classes
 90
     4095
 91
        4
280
     0
281
     0
  0
CLASS
  1
MATERIAL
  2
AcDbMaterial
  3
ObjectDBX Classes
 90
     1153
 91
        4
280
     0
281
     0
  0
ENDSEC
  0
SECTION
  2
TABLES
  0
TABLE
  2
VPORT
  5
8
330
0
100
AcDbSymbolTable
 70
     1
  0
VPORT
  5
29
330
8
100
AcDbSymbolTableRecord
100
AcDbViewportTableRecord
  2
*Active
 70
     0
 10
0.0
 20
0.0
 11
1.0
 21
1.0
 12
10.42990654205607
 22
4.5
 13
0.0
 23
0.0
 14
0.5
 24
0.5
 15
0.5
 25
0.5
 16
0.0
 26
0.0
 36
1.0
 17
0.0
 27
0.0
 37
0.0
 40
9.0
 41
1.972972972850329
 42
50.0
 43
0.0
 44
0.0
 50
0.0
 51
0.0
 71
     0
 72
   100
 73
     1
 74
     3
 75
     0
 76
     0
 77
     0
 78
     0
281
     0
 65
     1
110
0.0
120
0.0
130
0.0
111
1.0
121
0.0
131
0.0
112
0.0
122
1.0
132
0.0
 79
     0
146
0.0
 60
     3
 61
     5
292
     1
282
     1
141
0.0
142
0.0
 63
   250
  0
ENDTAB
  0
TABLE
  2
LTYPE
  5
5
330
0
100
AcDbSymbolTable
 70
     1
  0
LTYPE
  5
14
330
5
100
AcDbSymbolTableRecord
100
AcDbLinetypeTableRecord
  2
ByBlock
 70
     0
  3

 72
    65
 73
     0
 40
0.0
  0
LTYPE
  5
15
330
5
100
AcDbSymbolTableRecord
100
AcDbLinetypeTableRecord
  2
ByLayer
 70
     0
  3

 72
    65
 73
     0
 40
0.0
  0
LTYPE
  5
16
330
5
100
AcDbSymbolTableRecord
100
AcDbLinetypeTableRecord
  2
Continuous
 70
     0
  3
Solid line
 72
    65
 73
     0
 40
0.0
  0
ENDTAB
  0
TABLE
  2
LAYER
  5
2
330
0
100
AcDbSymbolTable
 70
     3
  0
LAYER
  5
10
330
2
100
AcDbSymbolTableRecord
100
AcDbLayerTableRecord
  2
0
 70
     0
 62
     7
  6
Continuous
370
    -3
390
F
347
3E
  0
LAYER
  5
40
330
2
100
AcDbSymbolTableRecord
100
AcDbLayerTableRecord
  2
layer 1
 70
     0
 62
     7
  6
Continuous
370
    -3
390
F
347
3E
  0
LAYER
  5
83
330
2
100
AcDbSymbolTableRecord
100
AcDbLayerTableRecord
  2
Master Guides
 70
     0
 62
     7
  6
Continuous
370
    -3
390
F
347
3E
  0
ENDTAB
  0
TABLE
  2
STYLE
  5
3
330
0
100
AcDbSymbolTable
 70
     1
  0
STYLE
  5
11
330
3
100
AcDbSymbolTableRecord
100
AcDbTextStyleTableRecord
  2
Standard
 70
     0
 40
0.0
 41
1.0
 50
0.0
 71
     0
 42
0.2
  3
txt
  4

  0
ENDTAB
  0
TABLE
  2
VIEW
  5
6
330
0
100
AcDbSymbolTable
 70
     0
  0
ENDTAB
  0
TABLE
  2
UCS
  5
7
330
0
100
AcDbSymbolTable
 70
     0
  0
ENDTAB
  0
TABLE
  2
APPID
  5
9
330
0
100
AcDbSymbolTable
 70
     2
  0
APPID
  5
12
330
9
100
AcDbSymbolTableRecord
100
AcDbRegAppTableRecord
  2
ACAD
 70
     0
  0
APPID
  5
3F
330
9
100
AcDbSymbolTableRecord
100
AcDbRegAppTableRecord
  2
ODA
 70
     0
  0
ENDTAB
  0
TABLE
  2
DIMSTYLE
  5
A
330
0
100
AcDbSymbolTable
 70
     1
100
AcDbDimStyleTable
  0
DIMSTYLE
105
27
330
A
100
AcDbSymbolTableRecord
100
AcDbDimStyleTableRecord
  2
Standard
 70
     0
178
     0
340
11
  0
ENDTAB
  0
TABLE
  2
BLOCK_RECORD
  5
1
330
0
100
AcDbSymbolTable
 70
     1
  0
BLOCK_RECORD
  5
1F
330
1
100
AcDbSymbolTableRecord
100
AcDbBlockTableRecord
  2
*Model_Space
340
22
 70
     0
280
     1
281
     0
  0
BLOCK_RECORD
  5
1B
330
1
100
AcDbSymbolTableRecord
100
AcDbBlockTableRecord
  2
*Paper_Space
340
1E
 70
     0
280
     1
281
     0
  0
BLOCK_RECORD
  5
23
330
1
100
AcDbSymbolTableRecord
100
AcDbBlockTableRecord
  2
*Paper_Space0
340
26
 70
     0
280
     1
281
     0
  0
ENDTAB
  0
ENDSEC
  0
SECTION
  2
BLOCKS
  0
BLOCK
  5
20
330
1F
100
AcDbEntity
  8
0
100
AcDbBlockBegin
  2
*Model_Space
 70
     0
 10
0.0
 20
0.0
 30
0.0
  3
*Model_Space
  1

  0
ENDBLK
  5
21
330
1F
100
AcDbEntity
  8
0
100
AcDbBlockEnd
  0
BLOCK
  5
1C
330
1B
100
AcDbEntity
 67
     1
  8
0
100
AcDbBlockBegin
  2
*Paper_Space
 70
     0
 10
0.0
 20
0.0
 30
0.0
  3
*Paper_Space
  1

  0
ENDBLK
  5
1D
330
1B
100
AcDbEntity
 67
     1
  8
0
100
AcDbBlockEnd
  0
BLOCK
  5
24
330
23
100
AcDbEntity
  8
0
100
AcDbBlockBegin
  2
*Paper_Space0
 70
     0
 10
0.0
 20
0.0
 30
0.0
  3
*Paper_Space0
  1

  0
ENDBLK
  5
25
330
23
100
AcDbEntity
  8
0
100
AcDbBlockEnd
  0
ENDSEC
  0
SECTION
  2
ENTITIES
  0
SPLINE
  5
41
330
1F
100
AcDbEntity
  8
layer 1
100
AcDbSpline
210
0.0
220
0.0
230
1.0
 70
    11
 71
     3
 72
    20
 73
    16
 74
     0
 42
0.0000000001
 43
0.0000000001
 12
1.0
 22
0.0
 32
0.0
 13
1.0
 23
0.0
 33
0.0
 40
0.0
 40
0.0
 40
0.0
 40
0.0
 40
0.2
 40
0.2
 40
0.2
 40
0.2
 40
0.4
 40
0.4
 40
0.4
 40
0.4
 40
0.6
 40
0.6
 40
0.6
 40
0.6
 40
1.0
 40
1.0
 40
1.0
 40
1.0
 10
-45.5583
 20
131.6423
 30
0.0
 10
-45.5583
 20
131.6423
 30
0.0
 10
62.9761
 20
131.6423
 30
0.0
 10
62.9761
 20
131.6423
 30
0.0
 10
62.9761
 20
131.6423
 30
0.0
 10
62.9761
 20
131.6423
 30
0.0
 10
62.9761
 20
-114.8562
 30
0.0
 10
62.9761
 20
-114.8562
 30
0.0
 10
62.9761
 20
-114.8562
 30
0.0
 10
62.9761
 20
-114.8562
 30
0.0
 10
-45.5583
 20
-114.8562
 30
0.0
 10
-45.5583
 20
-114.8562
 30
0.0
 10
-45.5583
 20
-114.8562
 30
0.0
 10
-45.5583
 20
-114.8562
 30
0.0
 10
-45.5583
 20
131.6423
 30
0.0
 10
-45.5583
 20
131.6423
 30
0.0
  0
SPLINE
  5
42
330
1F
100
AcDbEntity
  8
layer 1
 62
     7
100
AcDbSpline
210
0.0
220
0.0
230
1.0
 70
    11
 71
     3
 72
    20
 73
    16
 74
     0
 42
0.0000000001
 43
0.0000000001
 12
1.0
 22
0.0
 32
0.0
 13
1.0
 23
0.0
 33
0.0
 40
0.0
 40
0.0
 40
0.0
 40
0.0
 40
0.2
 40
0.2
 40
0.2
 40
0.2
 40
0.4
 40
0.4
 40
0.4
 40
0.4
 40
0.6
 40
0.6
 40
0.6
 40
0.6
 40
1.0
 40
1.0
 40
1.0
 40
1.0
 10
-38.2717
 20
106.9229
 30
0.0
 10
-37.586
 20
118.7937
 30
0.0
 10
-31.8043
 20
121.7245
 30
0.0
 10
-28.8913
 20
124.3086
 30
0.0
 10
-28.8913
 20
124.3086
 30
0.0
 10
-28.8913
 20
124.3086
 30
0.0
 10
-40.0031
 20
124.3086
 30
0.0
 10
-40.0031
 20
124.3086
 30
0.0
 10
-40.0031
 20
124.3086
 30
0.0
 10
-40.0031
 20
124.3086
 30
0.0
 10
-40.0031
 20
107.0469
 30
0.0
 10
-40.0031
 20
107.0469
 30
0.0
 10
-40.0031
 20
107.0469
 30
0.0
 10
-40.0031
 20
106.7915
 30
0.0
 10
-39.2558
 20
107.1049
 30
0.0
 10
-38.2717
 20
106.9229
 30
0.0
  0
SPLINE
  5
43
330
1F
100
AcDbEntity
  8
layer 1
 62
     7
100
AcDbSpline
210
0.0
220
0.0
230
1.0
 70
    11
 71
     3
 72
    44
 73
    40
 74
     0
 42
0.0000000001
 43
0.0000000001
 12
1.0
 22
0.0
 32
0.0
 13
1.0
 23
0.0
 33
0.0
 40
0.0
 40
0.0
 40
0.0
 40
0.0
 40
0.0909090909090909
 40
0.0909090909090909
 40
0.0909090909090909
 40
0.0909090909090909
 40
0.1818181818181818
 40
0.1818181818181818
 40
0.1818181818181818
 40
0.1818181818181818
 40
0.2727272727272727
 40
0.2727272727272727
 40
0.2727272727272727
 40
0.2727272727272727
 40
0.3636363636363636
 40
0.3636363636363636
 40
0.3636363636363636
 40
0.3636363636363636
 40
0.4545454545454545
 40
0.4545454545454545
 40
0.4545454545454545
 40
0.4545454545454545
 40
0.5454545454545454
 40
0.5454545454545454
 40
0.5454545454545454
 40
0.5454545454545454
 40
0.6363636363636364
 40
0.6363636363636364
 40
0.6363636363636364
 40
0.6363636363636364
 40
0.7272727272727273
 40
0.7272727272727273
 40
0.7272727272727273
 40
0.7272727272727273
 40
0.8181818181818182
 40
0.8181818181818182
 40
0.8181818181818182
 40
0.8181818181818182
 40
1.0
 40
1.0
 40
1.0
 40
1.0
 10
20.6084
 20
92.2235
 30
0.0
 10
23.3216
 20
104.0945
 30
0.0
 10
40.8796
 20
122.2495
 30
0.0
 10
44.8536
 20
124.3086
 30
0.0
 10
44.8536
 20
124.3086
 30
0.0
 10
44.8536
 20
124.3086
 30
0.0
 10
-19.5387
 20
124.3086
 30
0.0
 10
-19.5387
 20
124.3086
 30
0.0
 10
-19.5387
 20
124.3086
 30
0.0
 10
-20.6012
 20
113.4814
 30
0.0
 10
-13.3611
 20
110.2255
 30
0.0
 10
-13.4586
 20
103.2975
 30
0.0
 10
-13.4586
 20
103.2975
 30
0.0
 10
-12.3126
 20
103.113
 30
0.0
 10
-11.6511
 20
102.8235
 30
0.0
 10
-10.6531
 20
101.9887
 30
0.0
 10
-10.6531
 20
101.9887
 30
0.0
 10
-9.3452
 20
103.8228
 30
0.0
 10
-6.9254
 20
104.4499
 30
0.0
 10
-6.0122
 20
107.0987
 30
0.0
 10
-6.0122
 20
107.0987
 30
0.0
 10
-4.8446
 20
106.6509
 30
0.0
 10
-5.0571
 20
105.2129
 30
0.0
 10
-3.7809
 20
104.6119
 30
0.0
 10
-3.7809
 20
104.6119
 30
0.0
 10
1.2494
 20
105.3178
 30
0.0
 10
8.2354
 20
104.2197
 30
0.0
 10
14.5852
 20
104.6284
 30
0.0
 10
14.5852
 20
104.6284
 30
0.0
 10
19.6295
 20
105.5302
 30
0.0
 10
21.461
 20
107.6855
 30
0.0
 10
22.6057
 20
108.7557
 30
0.0
 10
22.6057
 20
108.7557
 30
0.0
 10
24.2778
 20
102.8118
 30
0.0
 10
19.8459
 20
95.597
 30
0.0
 10
16.5508
 20
93.6302
 30
0.0
 10
16.5508
 20
93.6302
 30
0.0
 10
18.3078
 20
93.5101
 30
0.0
 10
19.422
 20
92.846
 30
0.0
 10
20.6084
 20
92.2235
 30
0.0
  0
SPLINE
  5
44
330
1F
100
AcDbEntity
  8
layer 1
 62
     7
100
AcDbSpline
210
0.0
220
0.0
230
1.0
 70
    11
 71
     3
 72
    44
 73
    40
 74
     0
 42
0.0000000001
 43
0.0000000001
 12
1.0
 22
0.0
 32
0.0
 13
1.0
 23
0.0
 33
0.0
 40
0.0
 40
0.0
 40
0.0
 40
0.0
 40
0.0909090909090909
 40
0.0909090909090909
 40
0.0909090909090909
 40
0.0909090909090909
 40
0.1818181818181818
 40
0.1818181818181818
 40
0.1818181818181818
 40
0.1818181818181818
 40
0.2727272727272727
 40
0.2727272727272727
 40
0.2727272727272727
 40
0.2727272727272727
 40
0.3636363636363636
 40
0.3636363636363636
 40
0.3636363636363636
 40
0.3636363636363636
 40
0.4545454545454545
 40
0.4545454545454545
 40
0.4545454545454545
 40
0.4545454545454545
 40
0.5454545454545454
 40
0.5454545454545454
 40
0.5454545454545454
 40
0.5454545454545454
 40
0.6363636363636364
 40
0.6363636363636364
 40
0.6363636363636364
 40
0.6363636363636364
 40
0.7272727272727273
 40
0.7272727272727273
 40
0.7272727272727273
 40
0.7272727272727273
 40
0.8181818181818182
 40
0.8181818181818182
 40
0.8181818181818182
 40
0.8181818181818182
 40
1.0
 40
1.0
 40
1.0
 40
1.0
 10
45.1156
 20
67.0791
 30
0.0
 10
45.3306
 20
68.3378
 30
0.0
 10
45.1548
 20
69.1839
 30
0.0
 10
43.6154
 20
69.8429
 30
0.0
 10
43.6154
 20
69.8429
 30
0.0
 10
45.9452
 20
71.3532
 30
0.0
 10
52.4353
 20
78.6806
 30
0.0
 10
45.8746
 20
80.1124
 30
0.0
 10
45.8746
 20
80.1124
 30
0.0
 10
49.0849
 20
82.1337
 30
0.0
 10
55.6912
 20
91.6216
 30
0.0
 10
48.1804
 20
91.2826
 30
0.0
 10
48.1804
 20
91.2826
 30
0.0
 10
51.4778
 20
94.3979
 30
0.0
 10
56.0163
 20
103.9947
 30
0.0
 10
48.355
 20
103.5809
 30
0.0
 10
48.355
 20
103.5809
 30
0.0
 10
50.4393
 20
107.0923
 30
0.0
 10
54.5996
 20
113.6368
 30
0.0
 10
48.3018
 20
114.7536
 30
0.0
 10
48.3018
 20
114.7536
 30
0.0
 10
50.1055
 20
117.6377
 30
0.0
 10
51.5309
 20
121.6715
 30
0.0
 10
48.546
 20
124.3086
 30
0.0
 10
48.546
 20
124.3086
 30
0.0
 10
48.546
 20
124.3086
 30
0.0
 10
46.0984
 20
124.3086
 30
0.0
 10
46.0984
 20
124.3086
 30
0.0
 10
46.0984
 20
124.3086
 30
0.0
 10
46.0984
 20
124.3086
 30
0.0
 10
57.2092
 20
124.3086
 30
0.0
 10
57.2092
 20
124.3086
 30
0.0
 10
57.2092
 20
124.3086
 30
0.0
 10
57.2092
 20
124.3086
 30
0.0
 10
57.2092
 20
71.6452
 30
0.0
 10
57.2092
 20
71.6452
 30
0.0
 10
57.2092
 20
71.6452
 30
0.0
 10
54.4403
 20
70.4183
 30
0.0
 10
48.6004
 20
67.6079
 30
0.0
 10
45.1156
 20
67.0791
 30
0.0
  0
SPLINE
  5
45
330
1F
100
AcDbEntity
  8
layer 1
 62
     7
100
AcDbSpline
210
0.0
220
0.0
230
1.0
 70
    11
 71
     3
 72
    32
 73
    28
 74
     0
 42
0.0000000001
 43
0.0000000001
 12
1.0
 22
0.0
 32
0.0
 13
1.0
 23
0.0
 33
0.0
 40
0.0
 40
0.0
 40
0.0
 40
0.0
 40
0.125
 40
0.125
 40
0.125
 40
0.125
 40
0.25
 40
0.25
 40
0.25
 40
0.25
 40
0.375
 40
0.375
 40
0.375
 40
0.375
 40
0.5
 40
0.5
 40
0.5
 40
0.5
 40
0.625
 40
0.625
 40
0.625
 40
0.625
 40
0.75
 40
0.75
 40
0.75
 40
0.75
 40
1.0
 40
1.0
 40
1.0
 40
1.0
 10
-34.2089
 20
71.0925
 30
0.0
 10
-34.2708
 20
69.4925
 30
0.0
 10
-32.5999
 20
69.7279
 30
0.0
 10
-32.0724
 20
70.8091
 30
0.0
 10
-32.0724
 20
70.8091
 30
0.0
 10
-29.7361
 20
74.3635
 30
0.0
 10
-27.9503
 20
79.031
 30
0.0
 10
-27.9286
 20
81.2393
 30
0.0
 10
-27.9286
 20
81.2393
 30
0.0
 10
-27.8934
 20
84.9039
 30
0.0
 10
-27.7502
 20
87.1327
 30
0.0
 10
-27.8199
 20
88.0837
 30
0.0
 10
-27.8199
 20
88.0837
 30
0.0
 10
-36.2832
 20
89.2727
 30
0.0
 10
-37.2369
 20
96.2308
 30
0.0
 10
-39.1645
 20
104.0339
 30
0.0
 10
-39.1645
 20
104.0339
 30
0.0
 10
-40.0588
 20
104.1135
 30
0.0
 10
-40.0031
 20
104.0857
 30
0.0
 10
-40.0031
 20
104.0857
 30
0.0
 10
-40.0031
 20
104.0857
 30
0.0
 10
-40.0031
 20
104.0857
 30
0.0
 10
-40.0031
 20
80.6439
 30
0.0
 10
-40.0031
 20
80.6439
 30
0.0
 10
-40.0031
 20
80.6439
 30
0.0
 10
-40.0031
 20
80.3871
 30
0.0
 10
-34.0645
 20
76.7996
 30
0.0
 10
-34.2089
 20
71.0925
 30
0.0
  0
SPLINE
  5
46
330
1F
100
AcDbEntity
  8
layer 1
 62
     7
100
AcDbSpline
210
0.0
220
0.0
230
1.0
 70
    11
 71
     3
 72
    16
 73
    12
 74
     0
 42
0.0000000001
 43
0.0000000001
 12
1.0
 22
0.0
 32
0.0
 13
1.0
 23
0.0
 33
0.0
 40
0.0
 40
0.0
 40
0.0
 40
0.0
 40
0.25
 40
0.25
 40
0.25
 40
0.25
 40
0.5
 40
0.5
 40
0.5
 40
0.5
 40
1.0
 40
1.0
 40
1.0
 40
1.0
 10
-34.2089
 20
37.7567
 30
0.0
 10
-37.1232
 20
50.2816
 30
0.0
 10
-31.5462
 20
65.0488
 30
0.0
 10
-40.0031
 20
76.0105
 30
0.0
 10
-40.0031
 20
76.0105
 30
0.0
 10
-40.0031
 20
76.0105
 30
0.0
 10
-40.0031
 20
42.7466
 30
0.0
 10
-40.0031
 20
42.7466
 30
0.0
 10
-40.0031
 20
42.7466
 30
0.0
 10
-38.5917
 20
42.0092
 30
0.0
 10
-35.532
 20
39.4731
 30
0.0
 10
-34.2089
 20
37.7567
 30
0.0
  0
SPLINE
  5
47
330
1F
100
AcDbEntity
  8
layer 1
 62
     7
100
AcDbSpline
210
0.0
220
0.0
230
1.0
 70
    11
 71
     3
 72
    16
 73
    12
 74
     0
 42
0.0000000001
 43
0.0000000001
 12
1.0
 22
0.0
 32
0.0
 13
1.0
 23
0.0
 33
0.0
 40
0.0
 40
0.0
 40
0.0
 40
0.0
 40
0.25
 40
0.25
 40
0.25
 40
0.25
 40
0.5
 40
0.5
 40
0.5
 40
0.5
 40
1.0
 40
1.0
 40
1.0
 40
1.0
 10
-35.0246
 20
17.5528
 30
0.0
 10
-36.8512
 20
19.259
 30
0.0
 10
-38.5425
 20
21.2653
 30
0.0
 10
-40.0031
 20
25.1546
 30
0.0
 10
-40.0031
 20
25.1546
 30
0.0
 10
-40.0031
 20
25.1546
 30
0.0
 10
-40.0031
 20
14.6891
 30
0.0
 10
-40.0031
 20
14.6891
 30
0.0
 10
-40.0031
 20
14.6891
 30
0.0
 10
-38.5247
 20
16.484
 30
0.0
 10
-36.9587
 20
17.4224
 30
0.0
 10
-35.0246
 20
17.5528
 30
0.0
  0
SPLINE
  5
48
330
1F
100
AcDbEntity
  8
layer 1
 62
     7
100
AcDbSpline
210
0.0
220
0.0
230
1.0
 70
    11
 71
     3
 72
    32
 73
    28
 74
     0
 42
0.0000000001
 43
0.0000000001
 12
1.0
 22
0.0
 32
0.0
 13
1.0
 23
0.0
 33
0.0
 40
0.0
 40
0.0
 40
0.0
 40
0.0
 40
0.125
 40
0.125
 40
0.125
 40
0.125
 40
0.25
 40
0.25
 40
0.25
 40
0.25
 40
0.375
 40
0.375
 40
0.375
 40
0.375
 40
0.5
 40
0.5
 40
0.5
 40
0.5
 40
0.625
 40
0.625
 40
0.625
 40
0.625
 40
0.75
 40
0.75
 40
0.75
 40
0.75
 40
1.0
 40
1.0
 40
1.0
 40
1.0
 10
40.5114
 20
-12.7994
 30
0.0
 10
44.3971
 20
-2.9902
 30
0.0
 10
48.3828
 20
23.3841
 30
0.0
 10
36.8623
 20
36.4983
 30
0.0
 10
36.8623
 20
36.4983
 30
0.0
 10
37.8956
 20
37.9716
 30
0.0
 10
38.0196
 20
38.9508
 30
0.0
 10
37.2998
 20
40.2953
 30
0.0
 10
37.2998
 20
40.2953
 30
0.0
 10
44.2517
 20
40.26
 30
0.0
 10
48.4246
 20
44.4617
 30
0.0
 10
46.541
 20
47.3077
 30
0.0
 10
46.541
 20
47.3077
 30
0.0
 10
52.2659
 20
47.8291
 30
0.0
 10
57.6328
 20
52.2762
 30
0.0
 10
54.0935
 20
57.442
 30
0.0
 10
54.0935
 20
57.442
 30
0.0
 10
56.4933
 20
58.4399
 30
0.0
 10
56.9651
 20
59.2964
 30
0.0
 10
57.4217
 20
61.5883
 30
0.0
 10
57.4217
 20
61.5883
 30
0.0
 10
57.4217
 20
61.5883
 30
0.0
 10
57.4217
 20
-13.8605
 30
0.0
 10
57.4217
 20
-13.8605
 30
0.0
 10
57.4217
 20
-13.8605
 30
0.0
 10
54.4251
 20
-8.6974
 30
0.0
 10
46.7143
 20
-7.9889
 30
0.0
 10
40.5114
 20
-12.7994
 30
0.0
  0
SPLINE
  5
49
330
1F
100
AcDbEntity
  8
layer 1
 62
     7
100
AcDbSpline
210
0.0
220
0.0
230
1.0
 70
    11
 71
     3
 72
    28
 73
    24
 74
     0
 42
0.0000000001
 43
0.0000000001
 12
1.0
 22
0.0
 32
0.0
 13
1.0
 23
0.0
 33
0.0
 40
0.0
 40
0.0
 40
0.0
 40
0.0
 40
0.1428571428571428
 40
0.1428571428571428
 40
0.1428571428571428
 40
0.1428571428571428
 40
0.2857142857142857
 40
0.2857142857142857
 40
0.2857142857142857
 40
0.2857142857142857
 40
0.4285714285714285
 40
0.4285714285714285
 40
0.4285714285714285
 40
0.4285714285714285
 40
0.5714285714285714
 40
0.5714285714285714
 40
0.5714285714285714
 40
0.5714285714285714
 40
0.7142857142857143
 40
0.7142857142857143
 40
0.7142857142857143
 40
0.7142857142857143
 40
1.0
 40
1.0
 40
1.0
 40
1.0
 10
3.9248
 20
-20.906
 30
0.0
 10
5.3819
 20
-22.8527
 30
0.0
 10
9.1057
 20
-23.4725
 30
0.0
 10
11.2245
 20
-20.3823
 30
0.0
 10
11.2245
 20
-20.3823
 30
0.0
 10
13.2152
 20
-17.4794
 30
0.0
 10
10.5172
 20
-11.5913
 30
0.0
 10
4.905
 20
-13.1002
 30
0.0
 10
4.905
 20
-13.1002
 30
0.0
 10
5.9385
 20
-11.6256
 30
0.0
 10
4.5193
 20
-0.4541
 30
0.0
 10
3.7995
 20
0.8906
 30
0.0
 10
3.7995
 20
0.8906
 30
0.0
 10
10.0581
 20
-0.5769
 30
0.0
 10
24.1868
 20
7.3047
 30
0.0
 10
26.3904
 20
14.5094
 30
0.0
 10
26.3904
 20
14.5094
 30
0.0
 10
35.6504
 20
8.9237
 30
0.0
 10
35.4962
 20
-11.2348
 30
0.0
 10
27.7791
 20
-19.569
 30
0.0
 10
27.7791
 20
-19.569
 30
0.0
 10
18.1471
 20
-32.2732
 30
0.0
 10
3.0278
 20
-30.3661
 30
0.0
 10
3.9248
 20
-20.906
 30
0.0
  0
SPLINE
  5
4A
330
1F
100
AcDbEntity
  8
layer 1
 62
     7
100
AcDbSpline
210
0.0
220
0.0
230
1.0
 70
    11
 71
     3
 72
    24
 73
    20
 74
     0
 42
0.0000000001
 43
0.0000000001
 12
1.0
 22
0.0
 32
0.0
 13
1.0
 23
0.0
 33
0.0
 40
0.0
 40
0.0
 40
0.0
 40
0.0
 40
0.1666666666666667
 40
0.1666666666666667
 40
0.1666666666666667
 40
0.1666666666666667
 40
0.3333333333333333
 40
0.3333333333333333
 40
0.3333333333333333
 40
0.3333333333333333
 40
0.5
 40
0.5
 40
0.5
 40
0.5
 40
0.6666666666666666
 40
0.6666666666666666
 40
0.6666666666666666
 40
0.6666666666666666
 40
1.0
 40
1.0
 40
1.0
 40
1.0
 10
40.0483
 20
-28.8671
 30
0.0
 10
37.2972
 20
-14.3828
 30
0.0
 10
50.8532
 20
-8.5125
 30
0.0
 10
54.1479
 20
-17.7032
 30
0.0
 10
54.1479
 20
-17.7032
 30
0.0
 10
50.5508
 20
-15.7489
 30
0.0
 10
45.1194
 20
-19.3274
 30
0.0
 10
47.0229
 20
-23.9782
 30
0.0
 10
47.0229
 20
-23.9782
 30
0.0
 10
47.9881
 20
-27.0735
 30
0.0
 10
53.7153
 20
-29.6475
 30
0.0
 10
57.4217
 20
-25.4697
 30
0.0
 10
57.4217
 20
-25.4697
 30
0.0
 10
57.4217
 20
-25.4697
 30
0.0
 10
57.4217
 20
-53.7914
 30
0.0
 10
57.4217
 20
-53.7914
 30
0.0
 10
57.4217
 20
-53.7914
 30
0.0
 10
53.3449
 20
-44.3112
 30
0.0
 10
43.0095
 20
-41.4452
 30
0.0
 10
40.0483
 20
-28.8671
 30
0.0
  0
SPLINE
  5
4B
330
1F
100
AcDbEntity
  8
layer 1
 62
     7
100
AcDbSpline
210
0.0
220
0.0
230
1.0
 70
    11
 71
     3
 72
    16
 73
    12
 74
     0
 42
0.0000000001
 43
0.0000000001
 12
1.0
 22
0.0
 32
0.0
 13
1.0
 23
0.0
 33
0.0
 40
0.0
 40
0.0
 40
0.0
 40
0.0
 40
0.25
 40
0.25
 40
0.25
 40
0.25
 40
0.5
 40
0.5
 40
0.5
 40
0.5
 40
1.0
 40
1.0
 40
1.0
 40
1.0
 10
-30.7028
 20
-26.6953
 30
0.0
 10
-35.9254
 20
-20.792
 30
0.0
 10
-37.6163
 20
-15.429
 30
0.0
 10
-40.0031
 20
-7.8221
 30
0.0
 10
-40.0031
 20
-7.8221
 30
0.0
 10
-40.0031
 20
-7.8221
 30
0.0
 10
-40.0031
 20
-23.204
 30
0.0
 10
-40.0031
 20
-23.204
 30
0.0
 10
-40.0031
 20
-23.204
 30
0.0
 10
-40.0031
 20
-23.204
 30
0.0
 10
-35.8785
 20
-28.384
 30
0.0
 10
-30.7028
 20
-26.6953
 30
0.0
  0
SPLINE
  5
4C
330
1F
100
AcDbEntity
  8
layer 1
 62
     7
100
AcDbSpline
210
0.0
220
0.0
230
1.0
 70
    11
 71
     3
 72
    20
 73
    16
 74
     0
 42
0.0000000001
 43
0.0000000001
 12
1.0
 22
0.0
 32
0.0
 13
1.0
 23
0.0
 33
0.0
 40
0.0
 40
0.0
 40
0.0
 40
0.0
 40
0.2
 40
0.2
 40
0.2
 40
0.2
 40
0.4
 40
0.4
 40
0.4
 40
0.4
 40
0.6
 40
0.6
 40
0.6
 40
0.6
 40
1.0
 40
1.0
 40
1.0
 40
1.0
 10
-25.7646
 20
7.6006
 30
0.0
 10
-23.2791
 20
8.4988
 30
0.0
 10
-20.6912
 20
8.8644
 30
0.0
 10
-18.6408
 20
9.0668
 30
0.0
 10
-18.6408
 20
9.0668
 30
0.0
 10
-18.6887
 20
1.0778
 30
0.0
 10
-31.4919
 20
-3.4795
 30
0.0
 10
-34.7552
 20
5.2494
 30
0.0
 10
-34.7552
 20
5.2494
 30
0.0
 10
-34.7552
 20
14.5868
 30
0.0
 10
-22.8717
 20
15.7072
 30
0.0
 10
-20.4013
 20
11.451
 30
0.0
 10
-20.4013
 20
11.451
 30
0.0
 10
-23.0906
 20
12.0468
 30
0.0
 10
-26.4641
 20
8.9085
 30
0.0
 10
-25.7646
 20
7.6006
 30
0.0
  0
SPLINE
  5
4D
330
1F
100
AcDbEntity
  8
layer 1
 62
     7
100
AcDbSpline
210
0.0
220
0.0
230
1.0
 70
    11
 71
     3
 72
    20
 73
    16
 74
     0
 42
0.0000000001
 43
0.0000000001
 12
1.0
 22
0.0
 32
0.0
 13
1.0
 23
0.0
 33
0.0
 40
0.0
 40
0.0
 40
0.0
 40
0.0
 40
0.2
 40
0.2
 40
0.2
 40
0.2
 40
0.4
 40
0.4
 40
0.4
 40
0.4
 40
0.6
 40
0.6
 40
0.6
 40
0.6
 40
1.0
 40
1.0
 40
1.0
 40
1.0
 10
-10.2231
 20
0.6983
 30
0.0
 10
-10.5974
 20
2.8069
 30
0.0
 10
-11.7573
 20
5.535
 30
0.0
 10
-13.5748
 20
6.384
 30
0.0
 10
-13.5748
 20
6.384
 30
0.0
 10
-17.5619
 20
5.1429
 30
0.0
 10
-16.1753
 20
-9.6445
 30
0.0
 10
-5.4265
 20
-8.0067
 30
0.0
 10
-5.4265
 20
-8.0067
 30
0.0
 10
1.743
 20
-4.8673
 30
0.0
 10
-3.8479
 20
7.1644
 30
0.0
 10
-10.0421
 20
6.5256
 30
0.0
 10
-10.0421
 20
6.5256
 30
0.0
 10
-9.4841
 20
4.6131
 30
0.0
 10
-8.7368
 20
2.0288
 30
0.0
 10
-10.2231
 20
0.6983
 30
0.0
  0
SPLINE
  5
4E
330
1F
100
AcDbEntity
  8
layer 1
 62
     7
100
AcDbSpline
210
0.0
220
0.0
230
1.0
 70
    11
 71
     3
 72
    20
 73
    16
 74
     0
 42
0.0000000001
 43
0.0000000001
 12
1.0
 22
0.0
 32
0.0
 13
1.0
 23
0.0
 33
0.0
 40
0.0
 40
0.0
 40
0.0
 40
0.0
 40
0.2
 40
0.2
 40
0.2
 40
0.2
 40
0.4
 40
0.4
 40
0.4
 40
0.4
 40
0.6
 40
0.6
 40
0.6
 40
0.6
 40
1.0
 40
1.0
 40
1.0
 40
1.0
 10
-1.771
 20
10.5061
 30
0.0
 10
-3.5114
 20
10.6615
 30
0.0
 10
-4.9952
 20
10.8465
 30
0.0
 10
-6.7091
 20
10.2859
 30
0.0
 10
-6.7091
 20
10.2859
 30
0.0
 10
-3.8645
 20
6.7367
 30
0.0
 10
6.1723
 20
4.9014
 30
0.0
 10
8.1875
 20
12.2706
 30
0.0
 10
8.1875
 20
12.2706
 30
0.0
 10
7.0767
 20
20.4633
 30
0.0
 10
-5.9274
 20
17.9841
 30
0.0
 10
-8.2306
 20
13.4709
 30
0.0
 10
-8.2306
 20
13.4709
 30
0.0
 10
-5.4113
 20
13.3534
 30
0.0
 10
-2.1619
 20
12.7689
 30
0.0
 10
-1.771
 20
10.5061
 30
0.0
  0
SPLINE
  5
4F
330
1F
100
AcDbEntity
  8
layer 1
 62
     7
100
AcDbSpline
210
0.0
220
0.0
230
1.0
 70
    11
 71
     3
 72
    20
 73
    16
 74
     0
 42
0.0000000001
 43
0.0000000001
 12
1.0
 22
0.0
 32
0.0
 13
1.0
 23
0.0
 33
0.0
 40
0.0
 40
0.0
 40
0.0
 40
0.0
 40
0.2
 40
0.2
 40
0.2
 40
0.2
 40
0.4
 40
0.4
 40
0.4
 40
0.4
 40
0.6
 40
0.6
 40
0.6
 40
0.6
 40
1.0
 40
1.0
 40
1.0
 40
1.0
 10
-11.0084
 20
21.1487
 30
0.0
 10
-11.393
 20
19.8221
 30
0.0
 10
-12.6086
 20
17.8171
 30
0.0
 10
-12.0759
 20
16.4335
 30
0.0
 10
-12.0759
 20
16.4335
 30
0.0
 10
-4.7649
 20
15.8603
 30
0.0
 10
0.2984
 20
26.9268
 30
0.0
 10
-8.0954
 20
29.5096
 30
0.0
 10
-8.0954
 20
29.5096
 30
0.0
 10
-16.9548
 20
29.3667
 30
0.0
 10
-17.6337
 20
19.8535
 30
0.0
 10
-15.5947
 20
17.3531
 30
0.0
 10
-15.5947
 20
17.3531
 30
0.0
 10
-15.1433
 20
19.5197
 30
0.0
 10
-13.9456
 20
21.0895
 30
0.0
 10
-11.0084
 20
21.1487
 30
0.0
  0
SPLINE
  5
50
330
1F
100
AcDbEntity
  8
layer 1
 62
     7
100
AcDbSpline
210
0.0
220
0.0
230
1.0
 70
    11
 71
     3
 72
    20
 73
    16
 74
     0
 42
0.0000000001
 43
0.0000000001
 12
1.0
 22
0.0
 32
0.0
 13
1.0
 23
0.0
 33
0.0
 40
0.0
 40
0.0
 40
0.0
 40
0.0
 40
0.2
 40
0.2
 40
0.2
 40
0.2
 40
0.4
 40
0.4
 40
0.4
 40
0.4
 40
0.6
 40
0.6
 40
0.6
 40
0.6
 40
1.0
 40
1.0
 40
1.0
 40
1.0
 10
-24.607
 20
21.3172
 30
0.0
 10
-23.8001
 20
20.109
 30
0.0
 10
-21.9661
 20
18.4129
 30
0.0
 10
-22.0269
 20
16.9684
 30
0.0
 10
-22.0269
 20
16.9684
 30
0.0
 10
-28.9078
 20
14.966
 30
0.0
 10
-36.1013
 20
24.2654
 30
0.0
 10
-31.6032
 20
28.5851
 30
0.0
 10
-31.6032
 20
28.5851
 30
0.0
 10
-23.9141
 20
32.1962
 30
0.0
 10
-19.4186
 20
22.4126
 30
0.0
 10
-19.6449
 20
18.5544
 30
0.0
 10
-19.6449
 20
18.5544
 30
0.0
 10
-20.7909
 20
20.5595
 30
0.0
 10
-21.7461
 20
21.8407
 30
0.0
 10
-24.607
 20
21.3172
 30
0.0
  0
SPLINE
  5
51
330
1F
100
AcDbEntity
  8
layer 1
 62
     7
100
AcDbSpline
210
0.0
220
0.0
230
1.0
 70
    11
 71
     3
 72
    24
 73
    20
 74
     0
 42
0.0000000001
 43
0.0000000001
 12
1.0
 22
0.0
 32
0.0
 13
1.0
 23
0.0
 33
0.0
 40
0.0
 40
0.0
 40
0.0
 40
0.0
 40
0.1666666666666667
 40
0.1666666666666667
 40
0.1666666666666667
 40
0.1666666666666667
 40
0.3333333333333333
 40
0.3333333333333333
 40
0.3333333333333333
 40
0.3333333333333333
 40
0.5
 40
0.5
 40
0.5
 40
0.5
 40
0.6666666666666666
 40
0.6666666666666666
 40
0.6666666666666666
 40
0.6666666666666666
 40
1.0
 40
1.0
 40
1.0
 40
1.0
 10
-22.0723
 20
32.997
 30
0.0
 10
-21.7688
 20
31.9167
 30
0.0
 10
-20.1802
 20
30.6128
 30
0.0
 10
-20.3875
 20
28.4876
 30
0.0
 10
-20.3875
 20
28.4876
 30
0.0
 10
-19.2466
 20
32.4808
 30
0.0
 10
-11.2032
 20
35.2118
 30
0.0
 10
-7.1582
 20
38.0691
 30
0.0
 10
-7.1582
 20
38.0691
 30
0.0
 10
-5.4747
 20
39.2594
 30
0.0
 10
-4.6892
 20
41.4234
 30
0.0
 10
-5.782
 20
43.1173
 30
0.0
 10
-5.782
 20
43.1173
 30
0.0
 10
-12.0584
 20
43.4058
 30
0.0
 10
-19.3289
 20
37.5011
 30
0.0
 10
-21.207
 20
35.2066
 30
0.0
 10
-21.207
 20
35.2066
 30
0.0
 10
-21.8154
 20
34.4528
 30
0.0
 10
-22.3646
 20
33.6786
 30
0.0
 10
-22.0723
 20
32.997
 30
0.0
  0
SPLINE
  5
52
330
1F
100
AcDbEntity
  8
layer 1
 62
     7
100
AcDbSpline
210
0.0
220
0.0
230
1.0
 70
    11
 71
     3
 72
    16
 73
    12
 74
     0
 42
0.0000000001
 43
0.0000000001
 12
1.0
 22
0.0
 32
0.0
 13
1.0
 23
0.0
 33
0.0
 40
0.0
 40
0.0
 40
0.0
 40
0.0
 40
0.25
 40
0.25
 40
0.25
 40
0.25
 40
0.5
 40
0.5
 40
0.5
 40
0.5
 40
1.0
 40
1.0
 40
1.0
 40
1.0
 10
20.7425
 20
26.0616
 30
0.0
 10
20.1367
 20
29.4376
 30
0.0
 10
20.3986
 20
31.3866
 30
0.0
 10
21.0563
 20
33.0526
 30
0.0
 10
21.0563
 20
33.0526
 30
0.0
 10
18.4418
 20
32.6858
 30
0.0
 10
13.2178
 20
36.4552
 30
0.0
 10
10.8536
 20
39.3834
 30
0.0
 10
10.8536
 20
39.3834
 30
0.0
 10
10.7866
 20
33.1954
 30
0.0
 10
17.641
 20
27.1583
 30
0.0
 10
20.7425
 20
26.0616
 30
0.0
  0
SPLINE
  5
53
330
1F
100
AcDbEntity
  8
layer 1
 62
     7
100
AcDbSpline
210
0.0
220
0.0
230
1.0
 70
    11
 71
     3
 72
    16
 73
    12
 74
     0
 42
0.0000000001
 43
0.0000000001
 12
1.0
 22
0.0
 32
0.0
 13
1.0
 23
0.0
 33
0.0
 40
0.0
 40
0.0
 40
0.0
 40
0.0
 40
0.25
 40
0.25
 40
0.25
 40
0.25
 40
0.5
 40
0.5
 40
0.5
 40
0.5
 40
1.0
 40
1.0
 40
1.0
 40
1.0
 10
-4.2009
 20
94.5411
 30
0.0
 10
-2.7246
 20
96.8583
 30
0.0
 10
-0.5327
 20
98.4834
 30
0.0
 10
1.6909
 20
100.5808
 30
0.0
 10
1.6909
 20
100.5808
 30
0.0
 10
-4.6905
 20
101.1753
 30
0.0
 10
-10.4607
 20
96.47
 30
0.0
 10
-10.9921
 20
91.1133
 30
0.0
 10
-10.9921
 20
91.1133
 30
0.0
 10
-8.1297
 20
92.7232
 30
0.0
 10
-6.6599
 20
93.4343
 30
0.0
 10
-4.2009
 20
94.5411
 30
0.0
  0
SPLINE
  5
54
330
1F
100
AcDbEntity
  8
layer 1
 62
     7
100
AcDbSpline
210
0.0
220
0.0
230
1.0
 70
    11
 71
     3
 72
    16
 73
    12
 74
     0
 42
0.0000000001
 43
0.0000000001
 12
1.0
 22
0.0
 32
0.0
 13
1.0
 23
0.0
 33
0.0
 40
0.0
 40
0.0
 40
0.0
 40
0.0
 40
0.25
 40
0.25
 40
0.25
 40
0.25
 40
0.5
 40
0.5
 40
0.5
 40
0.5
 40
1.0
 40
1.0
 40
1.0
 40
1.0
 10
-1.1943
 20
81.5683
 30
0.0
 10
5.8815
 20
82.0339
 30
0.0
 10
7.7636
 20
85.5933
 30
0.0
 10
9.9872
 20
87.6903
 30
0.0
 10
9.9872
 20
87.6903
 30
0.0
 10
2.8799
 20
88.2025
 30
0.0
 10
-3.5128
 20
92.1186
 30
0.0
 10
-9.3326
 20
87.5676
 30
0.0
 10
-9.3326
 20
87.5676
 30
0.0
 10
-9.2704
 20
83.9412
 30
0.0
 10
-5.5188
 20
81.9125
 30
0.0
 10
-1.1943
 20
81.5683
 30
0.0
  0
SPLINE
  5
55
330
1F
100
AcDbEntity
  8
layer 1
 62
     7
100
AcDbSpline
210
0.0
220
0.0
230
1.0
 70
    11
 71
     3
 72
    16
 73
    12
 74
     0
 42
0.0000000001
 43
0.0000000001
 12
1.0
 22
0.0
 32
0.0
 13
1.0
 23
0.0
 33
0.0
 40
0.0
 40
0.0
 40
0.0
 40
0.0
 40
0.25
 40
0.25
 40
0.25
 40
0.25
 40
0.5
 40
0.5
 40
0.5
 40
0.5
 40
1.0
 40
1.0
 40
1.0
 40
1.0
 10
8.9691
 20
91.4785
 30
0.0
 10
12.4148
 20
92.4272
 30
0.0
 10
13.4671
 20
94.8584
 30
0.0
 10
14.1361
 20
96.3104
 30
0.0
 10
14.1361
 20
96.3104
 30
0.0
 10
8.5834
 20
94.0842
 30
0.0
 10
4.471
 20
95.1
 30
0.0
 10
0.6223
 20
93.128
 30
0.0
 10
0.6223
 20
93.128
 30
0.0
 10
2.0338
 20
92.1591
 30
0.0
 10
5.7841
 20
90.6136
 30
0.0
 10
8.9691
 20
91.4785
 30
0.0
  0
SPLINE
  5
56
330
1F
100
AcDbEntity
  8
layer 1
 62
     7
100
AcDbSpline
210
0.0
220
0.0
230
1.0
 70
    11
 71
     3
 72
    16
 73
    12
 74
     0
 42
0.0000000001
 43
0.0000000001
 12
1.0
 22
0.0
 32
0.0
 13
1.0
 23
0.0
 33
0.0
 40
0.0
 40
0.0
 40
0.0
 40
0.0
 40
0.25
 40
0.25
 40
0.25
 40
0.25
 40
0.5
 40
0.5
 40
0.5
 40
0.5
 40
1.0
 40
1.0
 40
1.0
 40
1.0
 10
7.7244
 20
101.2942
 30
0.0
 10
11.3773
 20
100.7489
 30
0.0
 10
13.3632
 20
101.1374
 30
0.0
 10
15.0684
 20
101.1361
 30
0.0
 10
15.0684
 20
101.1361
 30
0.0
 10
13.6643
 20
98.5279
 30
0.0
 10
7.1678
 20
96.2233
 30
0.0
 10
2.6966
 20
97.0668
 30
0.0
 10
2.6966
 20
97.0668
 30
0.0
 10
4.0032
 20
98.519
 30
0.0
 10
4.6443
 20
99.7421
 30
0.0
 10
7.7244
 20
101.2942
 30
0.0
  0
SPLINE
  5
57
330
1F
100
AcDbEntity
  8
layer 1
 62
     7
100
AcDbSpline
210
0.0
220
0.0
230
1.0
 70
    11
 71
     3
 72
    24
 73
    20
 74
     0
 42
0.0000000001
 43
0.0000000001
 12
1.0
 22
0.0
 32
0.0
 13
1.0
 23
0.0
 33
0.0
 40
0.0
 40
0.0
 40
0.0
 40
0.0
 40
0.1666666666666667
 40
0.1666666666666667
 40
0.1666666666666667
 40
0.1666666666666667
 40
0.3333333333333333
 40
0.3333333333333333
 40
0.3333333333333333
 40
0.3333333333333333
 40
0.5
 40
0.5
 40
0.5
 40
0.5
 40
0.6666666666666666
 40
0.6666666666666666
 40
0.6666666666666666
 40
0.6666666666666666
 40
1.0
 40
1.0
 40
1.0
 40
1.0
 10
-23.904
 20
81.1662
 30
0.0
 10
-20.7822
 20
84.4168
 30
0.0
 10
-17.0509
 20
87.3095
 30
0.0
 10
-14.6577
 20
87.598
 30
0.0
 10
-14.6577
 20
87.598
 30
0.0
 10
-15.1395
 20
94.8406
 30
0.0
 10
-12.4367
 20
98.0953
 30
0.0
 10
-12.6186
 20
99.9371
 30
0.0
 10
-12.6186
 20
99.9371
 30
0.0
 10
-15.9542
 20
97.387
 30
0.0
 10
-16.7863
 20
93.4544
 30
0.0
 10
-18.6116
 20
90.8286
 30
0.0
 10
-18.6116
 20
90.8286
 30
0.0
 10
-19.9966
 20
88.8375
 30
0.0
 10
-22.305
 20
87.6993
 30
0.0
 10
-24.6805
 20
87.89
 30
0.0
 10
-24.6805
 20
87.89
 30
0.0
 10
-24.6174
 20
86.3584
 30
0.0
 10
-24.1848
 20
83.8463
 30
0.0
 10
-23.904
 20
81.1662
 30
0.0
  0
SPLINE
  5
58
330
1F
100
AcDbEntity
  8
layer 1
 62
     7
100
AcDbSpline
210
0.0
220
0.0
230
1.0
 70
    11
 71
     3
 72
    20
 73
    16
 74
     0
 42
0.0000000001
 43
0.0000000001
 12
1.0
 22
0.0
 32
0.0
 13
1.0
 23
0.0
 33
0.0
 40
0.0
 40
0.0
 40
0.0
 40
0.0
 40
0.2
 40
0.2
 40
0.2
 40
0.2
 40
0.4
 40
0.4
 40
0.4
 40
0.4
 40
0.6
 40
0.6
 40
0.6
 40
0.6
 40
1.0
 40
1.0
 40
1.0
 40
1.0
 10
25.6643
 20
83.9059
 30
0.0
 10
37.7172
 20
91.7822
 30
0.0
 10
46.8587
 20
104.2855
 30
0.0
 10
44.3123
 20
107.5096
 30
0.0
 10
44.3123
 20
107.5096
 30
0.0
 10
41.3652
 20
107.5187
 30
0.0
 10
38.8087
 20
104.5209
 30
0.0
 10
37.4403
 20
102.1227
 30
0.0
 10
37.4403
 20
102.1227
 30
0.0
 10
34.4082
 20
96.8087
 30
0.0
 10
29.5815
 20
91.9454
 30
0.0
 10
25.8211
 20
88.6164
 30
0.0
 10
25.8211
 20
88.6164
 30
0.0
 10
25.7806
 20
87.4852
 30
0.0
 10
25.9021
 20
85.6185
 30
0.0
 10
25.6643
 20
83.9059
 30
0.0
  0
SPLINE
  5
59
330
1F
100
AcDbEntity
  8
layer 1
 62
     7
100
AcDbSpline
210
0.0
220
0.0
230
1.0
 70
    11
 71
     3
 72
    20
 73
    16
 74
     0
 42
0.0000000001
 43
0.0000000001
 12
1.0
 22
0.0
 32
0.0
 13
1.0
 23
0.0
 33
0.0
 40
0.0
 40
0.0
 40
0.0
 40
0.0
 40
0.2
 40
0.2
 40
0.2
 40
0.2
 40
0.4
 40
0.4
 40
0.4
 40
0.4
 40
0.6
 40
0.6
 40
0.6
 40
0.6
 40
1.0
 40
1.0
 40
1.0
 40
1.0
 10
26.2864
 20
92.9295
 30
0.0
 10
36.4738
 20
103.7062
 30
0.0
 10
42.6061
 20
113.7925
 30
0.0
 10
40.2685
 20
114.1177
 30
0.0
 10
40.2685
 20
114.1177
 30
0.0
 10
37.5287
 20
112.5148
 30
0.0
 10
35.2712
 20
110.93
 30
0.0
 10
33.3963
 20
108.7304
 30
0.0
 10
33.3963
 20
108.7304
 30
0.0
 10
30.2392
 20
105.0245
 30
0.0
 10
27.922
 20
102.0971
 30
0.0
 10
26.4434
 20
97.64
 30
0.0
 10
26.4434
 20
97.64
 30
0.0
 10
26.403
 20
96.5105
 30
0.0
 10
26.5244
 20
94.6421
 30
0.0
 10
26.2864
 20
92.9295
 30
0.0
  0
SPLINE
  5
5A
330
1F
100
AcDbEntity
  8
layer 1
 62
     7
100
AcDbSpline
210
0.0
220
0.0
230
1.0
 70
    11
 71
     3
 72
    20
 73
    16
 74
     0
 42
0.0000000001
 43
0.0000000001
 12
1.0
 22
0.0
 32
0.0
 13
1.0
 23
0.0
 33
0.0
 40
0.0
 40
0.0
 40
0.0
 40
0.0
 40
0.2
 40
0.2
 40
0.2
 40
0.2
 40
0.4
 40
0.4
 40
0.4
 40
0.4
 40
0.6
 40
0.6
 40
0.6
 40
0.6
 40
1.0
 40
1.0
 40
1.0
 40
1.0
 10
25.768
 20
75.9295
 30
0.0
 10
39.8955
 20
82.4361
 30
0.0
 10
47.2734
 20
91.4749
 30
0.0
 10
44.831
 20
96.7138
 30
0.0
 10
44.831
 20
96.7138
 30
0.0
 10
41.8836
 20
95.5135
 30
0.0
 10
36.6169
 20
89.9634
 30
0.0
 10
34.4338
 20
87.9422
 30
0.0
 10
34.4338
 20
87.9422
 30
0.0
 10
30.3431
 20
84.1562
 30
0.0
 10
28.5443
 20
83.1621
 30
0.0
 10
25.9247
 20
82.0894
 30
0.0
 10
25.9247
 20
82.0894
 30
0.0
 10
25.8843
 20
80.9599
 30
0.0
 10
26.0057
 20
77.6421
 30
0.0
 10
25.768
 20
75.9295
 30
0.0
  0
SPLINE
  5
5B
330
1F
100
AcDbEntity
  8
layer 1
 62
     7
100
AcDbSpline
210
0.0
220
0.0
230
1.0
 70
    11
 71
     3
 72
    16
 73
    12
 74
     0
 42
0.0000000001
 43
0.0000000001
 12
1.0
 22
0.0
 32
0.0
 13
1.0
 23
0.0
 33
0.0
 40
0.0
 40
0.0
 40
0.0
 40
0.0
 40
0.25
 40
0.25
 40
0.25
 40
0.25
 40
0.5
 40
0.5
 40
0.5
 40
0.5
 40
1.0
 40
1.0
 40
1.0
 40
1.0
 10
24.9381
 20
64.5683
 30
0.0
 10
32.1175
 20
64.3886
 30
0.0
 10
43.0209
 20
68.4313
 30
0.0
 10
41.8231
 20
73.6703
 30
0.0
 10
41.8231
 20
73.6703
 30
0.0
 10
35.1367
 20
70.6498
 30
0.0
 10
31.4524
 20
68.4628
 30
0.0
 10
25.4063
 20
67.4256
 30
0.0
 10
25.4063
 20
67.4256
 30
0.0
 10
25.3658
 20
66.2962
 30
0.0
 10
25.1774
 20
66.2823
 30
0.0
 10
24.9381
 20
64.5683
 30
0.0
  0
SPLINE
  5
5C
330
1F
100
AcDbEntity
  8
layer 1
 62
     7
100
AcDbSpline
210
0.0
220
0.0
230
1.0
 70
    11
 71
     3
 72
    16
 73
    12
 74
     0
 42
0.0000000001
 43
0.0000000001
 12
1.0
 22
0.0
 32
0.0
 13
1.0
 23
0.0
 33
0.0
 40
0.0
 40
0.0
 40
0.0
 40
0.0
 40
0.25
 40
0.25
 40
0.25
 40
0.25
 40
0.5
 40
0.5
 40
0.5
 40
0.5
 40
1.0
 40
1.0
 40
1.0
 40
1.0
 10
24.8345
 20
69.4028
 30
0.0
 10
31.6143
 20
69.533
 30
0.0
 10
45.2862
 20
78.9992
 30
0.0
 10
43.379
 20
84.0639
 30
0.0
 10
43.379
 20
84.0639
 30
0.0
 10
38.9746
 20
83.5416
 30
0.0
 10
32.9044
 20
75.9561
 30
0.0
 10
25.6136
 20
73.4679
 30
0.0
 10
25.6136
 20
73.4679
 30
0.0
 10
24.5359
 20
72.3385
 30
0.0
 10
23.7251
 20
71.1167
 30
0.0
 10
24.8345
 20
69.4028
 30
0.0
  0
SPLINE
  5
5D
330
1F
100
AcDbEntity
  8
layer 1
 62
     7
100
AcDbSpline
210
0.0
220
0.0
230
1.0
 70
    11
 71
     3
 72
    16
 73
    12
 74
     0
 42
0.0000000001
 43
0.0000000001
 12
1.0
 22
0.0
 32
0.0
 13
1.0
 23
0.0
 33
0.0
 40
0.0
 40
0.0
 40
0.0
 40
0.0
 40
0.25
 40
0.25
 40
0.25
 40
0.25
 40
0.5
 40
0.5
 40
0.5
 40
0.5
 40
1.0
 40
1.0
 40
1.0
 40
1.0
 10
13.5316
 20
64.2458
 30
0.0
 10
21.3662
 20
68.3135
 30
0.0
 10
22.7928
 20
76.6367
 30
0.0
 10
21.8088
 20
87.8508
 30
0.0
 10
21.8088
 20
87.8508
 30
0.0
 10
19.3754
 20
81.6884
 30
0.0
 10
17.1414
 20
76.037
 30
0.0
 10
13.9995
 20
69.0372
 30
0.0
 10
13.9995
 20
69.0372
 30
0.0
 10
12.9218
 20
67.1815
 30
0.0
 10
12.8357
 20
64.9922
 30
0.0
 10
13.5316
 20
64.2458
 30
0.0
  0
SPLINE
  5
5E
330
1F
100
AcDbEntity
  8
layer 1
 62
     7
100
AcDbSpline
210
0.0
220
0.0
230
1.0
 70
    11
 71
     3
 72
    24
 73
    20
 74
     0
 42
0.0000000001
 43
0.0000000001
 12
1.0
 22
0.0
 32
0.0
 13
1.0
 23
0.0
 33
0.0
 40
0.0
 40
0.0
 40
0.0
 40
0.0
 40
0.1666666666666667
 40
0.1666666666666667
 40
0.1666666666666667
 40
0.1666666666666667
 40
0.3333333333333333
 40
0.3333333333333333
 40
0.3333333333333333
 40
0.3333333333333333
 40
0.5
 40
0.5
 40
0.5
 40
0.5
 40
0.6666666666666666
 40
0.6666666666666666
 40
0.6666666666666666
 40
0.6666666666666666
 40
1.0
 40
1.0
 40
1.0
 40
1.0
 10
23.6101
 20
16.1654
 30
0.0
 10
16.5582
 20
19.0858
 30
0.0
 10
6.6581
 20
26.6878
 30
0.0
 10
-1.7584
 20
42.686
 30
0.0
 10
-1.7584
 20
42.686
 30
0.0
 10
-3.2207
 20
39.2202
 30
0.0
 10
-2.6893
 20
35.261
 30
0.0
 10
-1.021
 20
31.249
 30
0.0
 10
-1.021
 20
31.249
 30
0.0
 10
0.2567
 20
28.179
 30
0.0
 10
1.8806
 20
25.0763
 30
0.0
 10
0.9244
 20
22.1406
 30
0.0
 10
0.9244
 20
22.1406
 30
0.0
 10
5.4515
 20
23.1272
 30
0.0
 10
7.7927
 20
20.4266
 30
0.0
 10
11.127
 20
17.9676
 30
0.0
 10
11.127
 20
17.9676
 30
0.0
 10
15.0709
 20
15.0573
 30
0.0
 10
19.8659
 20
12.4477
 30
0.0
 10
23.6101
 20
16.1654
 30
0.0
  0
SPLINE
  5
5F
330
1F
100
AcDbEntity
  8
layer 1
 62
     7
100
AcDbSpline
210
0.0
220
0.0
230
1.0
 70
    11
 71
     3
 72
    32
 73
    28
 74
     0
 42
0.0000000001
 43
0.0000000001
 12
1.0
 22
0.0
 32
0.0
 13
1.0
 23
0.0
 33
0.0
 40
0.0
 40
0.0
 40
0.0
 40
0.0
 40
0.125
 40
0.125
 40
0.125
 40
0.125
 40
0.25
 40
0.25
 40
0.25
 40
0.25
 40
0.375
 40
0.375
 40
0.375
 40
0.375
 40
0.5
 40
0.5
 40
0.5
 40
0.5
 40
0.625
 40
0.625
 40
0.625
 40
0.625
 40
0.75
 40
0.75
 40
0.75
 40
0.75
 40
1.0
 40
1.0
 40
1.0
 40
1.0
 10
-23.4623
 20
-45.1233
 30
0.0
 10
-27.1408
 20
-48.8254
 30
0.0
 10
-30.6431
 20
-43.8521
 30
0.0
 10
-35.3205
 20
-47.4823
 30
0.0
 10
-35.3205
 20
-47.4823
 30
0.0
 10
-35.5268
 20
-43.5827
 30
0.0
 10
-34.8222
 20
-45.2408
 30
0.0
 10
-35.5598
 20
-42.247
 30
0.0
 10
-35.5598
 20
-42.247
 30
0.0
 10
-36.7437
 20
-42.606
 30
0.0
 10
-37.8757
 20
-42.0523
 30
0.0
 10
-40.0031
 20
-40.1282
 30
0.0
 10
-40.0031
 20
-40.1282
 30
0.0
 10
-39.7681
 20
-59.5416
 30
0.0
 10
-39.2998
 20
-100.2505
 30
0.0
 10
-39.2998
 20
-103.543
 30
0.0
 10
-39.2998
 20
-103.543
 30
0.0
 10
-34.964
 20
-101.6672
 30
0.0
 10
-38.1147
 20
-81.2481
 30
0.0
 10
-33.4298
 20
-68.335
 30
0.0
 10
-33.4298
 20
-68.335
 30
0.0
 10
-30.8403
 20
-61.1998
 30
0.0
 10
-27.2836
 20
-57.4381
 30
0.0
 10
-25.3508
 20
-53.8383
 30
0.0
 10
-25.3508
 20
-53.8383
 30
0.0
 10
-23.838
 20
-51.0189
 30
0.0
 10
-23.6634
 20
-48.0868
 30
0.0
 10
-23.4623
 20
-45.1233
 30
0.0
  0
SPLINE
  5
60
330
1F
100
AcDbEntity
  8
layer 1
 62
     7
100
AcDbSpline
210
0.0
220
0.0
230
1.0
 70
    11
 71
     3
 72
    20
 73
    16
 74
     0
 42
0.0000000001
 43
0.0000000001
 12
1.0
 22
0.0
 32
0.0
 13
1.0
 23
0.0
 33
0.0
 40
0.0
 40
0.0
 40
0.0
 40
0.0
 40
0.2
 40
0.2
 40
0.2
 40
0.2
 40
0.4
 40
0.4
 40
0.4
 40
0.4
 40
0.6
 40
0.6
 40
0.6
 40
0.6
 40
1.0
 40
1.0
 40
1.0
 40
1.0
 10
-16.9343
 20
-101.6002
 30
0.0
 10
-18.6862
 20
-104.5575
 30
0.0
 10
-25.7076
 20
-105.0672
 30
0.0
 10
-28.279
 20
-100.2531
 30
0.0
 10
-28.279
 20
-100.2531
 30
0.0
 10
-29.1468
 20
-102.5211
 30
0.0
 10
-29.5807
 20
-105.811
 30
0.0
 10
-25.0574
 20
-107.5223
 30
0.0
 10
-25.0574
 20
-107.5223
 30
0.0
 10
-25.0574
 20
-107.5223
 30
0.0
 10
-17.296
 20
-107.5223
 30
0.0
 10
-17.296
 20
-107.5223
 30
0.0
 10
-17.296
 20
-107.5223
 30
0.0
 10
-17.6046
 20
-105.7906
 30
0.0
 10
-17.8109
 20
-104.4283
 30
0.0
 10
-16.9343
 20
-101.6002
 30
0.0
  0
SPLINE
  5
61
330
1F
100
AcDbEntity
  8
layer 1
 62
     7
100
AcDbSpline
210
0.0
220
0.0
230
1.0
 70
    11
 71
     3
 72
    24
 73
    20
 74
     0
 42
0.0000000001
 43
0.0000000001
 12
1.0
 22
0.0
 32
0.0
 13
1.0
 23
0.0
 33
0.0
 40
0.0
 40
0.0
 40
0.0
 40
0.0
 40
0.1666666666666667
 40
0.1666666666666667
 40
0.1666666666666667
 40
0.1666666666666667
 40
0.3333333333333333
 40
0.3333333333333333
 40
0.3333333333333333
 40
0.3333333333333333
 40
0.5
 40
0.5
 40
0.5
 40
0.5
 40
0.6666666666666666
 40
0.6666666666666666
 40
0.6666666666666666
 40
0.6666666666666666
 40
1.0
 40
1.0
 40
1.0
 40
1.0
 10
-10.9274
 20
-99.7218
 30
0.0
 10
-11.0754
 20
-97.9586
 30
0.0
 10
-9.33
 20
-97.2301
 30
0.0
 10
-8.5392
 20
-99.474
 30
0.0
 10
-8.5392
 20
-99.474
 30
0.0
 10
-8.3521
 20
-101.819
 30
0.0
 10
-5.7668
 20
-103.2659
 30
0.0
 10
-3.0536
 20
-101.1196
 30
0.0
 10
-3.0536
 20
-101.1196
 30
0.0
 10
-4.5399
 20
-102.6172
 30
0.0
 10
-4.7876
 20
-105.811
 30
0.0
 10
-3.4253
 20
-107.5223
 30
0.0
 10
-3.4253
 20
-107.5223
 30
0.0
 10
-3.4253
 20
-107.5223
 30
0.0
 10
-11.1854
 20
-107.5223
 30
0.0
 10
-11.1854
 20
-107.5223
 30
0.0
 10
-11.1854
 20
-107.5223
 30
0.0
 10
-10.8768
 20
-105.7906
 30
0.0
 10
-10.0508
 20
-102.5502
 30
0.0
 10
-10.9274
 20
-99.7218
 30
0.0
  0
SPLINE
  5
62
330
1F
100
AcDbEntity
  8
layer 1
 62
     7
100
AcDbSpline
210
0.0
220
0.0
230
1.0
 70
    11
 71
     3
 72
    20
 73
    16
 74
     0
 42
0.0000000001
 43
0.0000000001
 12
1.0
 22
0.0
 32
0.0
 13
1.0
 23
0.0
 33
0.0
 40
0.0
 40
0.0
 40
0.0
 40
0.0
 40
0.2
 40
0.2
 40
0.2
 40
0.2
 40
0.4
 40
0.4
 40
0.4
 40
0.4
 40
0.6
 40
0.6
 40
0.6
 40
0.6
 40
1.0
 40
1.0
 40
1.0
 40
1.0
 10
0.5362
 20
-100.6857
 30
0.0
 10
3.2798
 20
-100.7045
 30
0.0
 10
8.1317
 20
-97.0264
 30
0.0
 10
10.1468
 20
-94.0894
 30
0.0
 10
10.1468
 20
-94.0894
 30
0.0
 10
8.1936
 20
-99.7813
 30
0.0
 10
12.2956
 20
-106.194
 30
0.0
 10
15.4388
 20
-107.5223
 30
0.0
 10
15.4388
 20
-107.5223
 30
0.0
 10
15.4388
 20
-107.5223
 30
0.0
 10
-0.5276
 20
-107.5223
 30
0.0
 10
-0.5276
 20
-107.5223
 30
0.0
 10
-0.5276
 20
-107.5223
 30
0.0
 10
1.0824
 20
-104.8761
 30
0.0
 10
1.4126
 20
-103.5126
 30
0.0
 10
0.5362
 20
-100.6857
 30
0.0
  0
SPLINE
  5
63
330
1F
100
AcDbEntity
  8
layer 1
 62
     7
100
AcDbSpline
210
0.0
220
0.0
230
1.0
 70
    11
 71
     3
 72
    44
 73
    40
 74
     0
 42
0.0000000001
 43
0.0000000001
 12
1.0
 22
0.0
 32
0.0
 13
1.0
 23
0.0
 33
0.0
 40
0.0
 40
0.0
 40
0.0
 40
0.0
 40
0.0909090909090909
 40
0.0909090909090909
 40
0.0909090909090909
 40
0.0909090909090909
 40
0.1818181818181818
 40
0.1818181818181818
 40
0.1818181818181818
 40
0.1818181818181818
 40
0.2727272727272727
 40
0.2727272727272727
 40
0.2727272727272727
 40
0.2727272727272727
 40
0.3636363636363636
 40
0.3636363636363636
 40
0.3636363636363636
 40
0.3636363636363636
 40
0.4545454545454545
 40
0.4545454545454545
 40
0.4545454545454545
 40
0.4545454545454545
 40
0.5454545454545454
 40
0.5454545454545454
 40
0.5454545454545454
 40
0.5454545454545454
 40
0.6363636363636364
 40
0.6363636363636364
 40
0.6363636363636364
 40
0.6363636363636364
 40
0.7272727272727273
 40
0.7272727272727273
 40
0.7272727272727273
 40
0.7272727272727273
 40
0.8181818181818182
 40
0.8181818181818182
 40
0.8181818181818182
 40
0.8181818181818182
 40
1.0
 40
1.0
 40
1.0
 40
1.0
 10
52.8757
 20
-93.4771
 30
0.0
 10
54.9614
 20
-93.4923
 30
0.0
 10
55.2233
 20
-88.0193
 30
0.0
 10
53.5129
 20
-84.7216
 30
0.0
 10
53.5129
 20
-84.7216
 30
0.0
 10
55.1437
 20
-85.1491
 30
0.0
 10
57.4217
 20
-84.2093
 30
0.0
 10
57.4217
 20
-82.7914
 30
0.0
 10
57.4217
 20
-82.7914
 30
0.0
 10
57.4217
 20
-82.7914
 30
0.0
 10
57.4217
 20
-107.5223
 30
0.0
 10
57.4217
 20
-107.5223
 30
0.0
 10
57.4217
 20
-107.5223
 30
0.0
 10
57.4217
 20
-107.5223
 30
0.0
 10
35.515
 20
-107.5223
 30
0.0
 10
35.515
 20
-107.5223
 30
0.0
 10
35.515
 20
-107.5223
 30
0.0
 10
39.7083
 20
-106.8051
 30
0.0
 10
40.6671
 20
-104.4056
 30
0.0
 10
40.7176
 20
-101.3686
 30
0.0
 10
40.7176
 20
-101.3686
 30
0.0
 10
42.4024
 20
-102.8889
 30
0.0
 10
44.4314
 20
-104.5802
 30
0.0
 10
48.4978
 20
-103.748
 30
0.0
 10
48.4978
 20
-103.748
 30
0.0
 10
47.2722
 20
-102.0871
 30
0.0
 10
46.7699
 20
-100.6793
 30
0.0
 10
46.6232
 20
-99.3131
 30
0.0
 10
46.6232
 20
-99.3131
 30
0.0
 10
45.8403
 20
-91.9604
 30
0.0
 10
38.6168
 20
-89.7698
 30
0.0
 10
39.2845
 20
-86.7241
 30
0.0
 10
39.2845
 20
-86.7241
 30
0.0
 10
38.8127
 20
-84.5254
 30
0.0
 10
43.0614
 20
-83.6427
 30
0.0
 10
43.9317
 20
-86.2393
 30
0.0
 10
43.9317
 20
-86.2393
 30
0.0
 10
44.2047
 20
-91.5912
 30
0.0
 10
51.4969
 20
-89.8115
 30
0.0
 10
52.8757
 20
-93.4771
 30
0.0
  0
SPLINE
  5
64
330
1F
100
AcDbEntity
  8
layer 1
 62
     7
100
AcDbSpline
210
0.0
220
0.0
230
1.0
 70
    11
 71
     3
 72
    44
 73
    40
 74
     0
 42
0.0000000001
 43
0.0000000001
 12
1.0
 22
0.0
 32
0.0
 13
1.0
 23
0.0
 33
0.0
 40
0.0
 40
0.0
 40
0.0
 40
0.0
 40
0.0909090909090909
 40
0.0909090909090909
 40
0.0909090909090909
 40
0.0909090909090909
 40
0.1818181818181818
 40
0.1818181818181818
 40
0.1818181818181818
 40
0.1818181818181818
 40
0.2727272727272727
 40
0.2727272727272727
 40
0.2727272727272727
 40
0.2727272727272727
 40
0.3636363636363636
 40
0.3636363636363636
 40
0.3636363636363636
 40
0.3636363636363636
 40
0.4545454545454545
 40
0.4545454545454545
 40
0.4545454545454545
 40
0.4545454545454545
 40
0.5454545454545454
 40
0.5454545454545454
 40
0.5454545454545454
 40
0.5454545454545454
 40
0.6363636363636364
 40
0.6363636363636364
 40
0.6363636363636364
 40
0.6363636363636364
 40
0.7272727272727273
 40
0.7272727272727273
 40
0.7272727272727273
 40
0.7272727272727273
 40
0.8181818181818182
 40
0.8181818181818182
 40
0.8181818181818182
 40
0.8181818181818182
 40
1.0
 40
1.0
 40
1.0
 40
1.0
 10
14.4473
 20
-67.5788
 30
0.0
 10
13.8881
 20
-65.703
 30
0.0
 10
12.985
 20
-64.9148
 30
0.0
 10
11.8037
 20
-64.0017
 30
0.0
 10
11.8037
 20
-64.0017
 30
0.0
 10
14.5992
 20
-64.0192
 30
0.0
 10
17.722
 20
-61.0227
 30
0.0
 10
19.8394
 20
-59.6051
 30
0.0
 10
19.8394
 20
-59.6051
 30
0.0
 10
20.6933
 20
-67.8544
 30
0.0
 10
25.8603
 20
-73.1833
 30
0.0
 10
29.0339
 20
-79.824
 30
0.0
 10
29.0339
 20
-79.824
 30
0.0
 10
31.2398
 20
-84.4382
 30
0.0
 10
32.1001
 20
-92.12
 30
0.0
 10
31.479
 20
-98.4783
 30
0.0
 10
31.479
 20
-98.4783
 30
0.0
 10
29.8522
 20
-107.2163
 30
0.0
 10
19.4864
 20
-106.5435
 30
0.0
 10
15.6237
 20
-100.8754
 30
0.0
 10
15.6237
 20
-100.8754
 30
0.0
 10
13.075
 20
-95.9828
 30
0.0
 10
14.3624
 20
-91.6722
 30
0.0
 10
17.7942
 20
-90.6755
 30
0.0
 10
17.7942
 20
-90.6755
 30
0.0
 10
17.3085
 20
-98.8808
 30
0.0
 10
25.53
 20
-96.7696
 30
0.0
 10
26.3965
 20
-94.7914
 30
0.0
 10
26.3965
 20
-94.7914
 30
0.0
 10
31.4812
 20
-86.7111
 30
0.0
 10
22.8511
 20
-81.5985
 30
0.0
 10
17.0465
 20
-85.7374
 30
0.0
 10
17.0465
 20
-85.7374
 30
0.0
 10
17.5274
 20
-78.769
 30
0.0
 10
15.3213
 20
-71.9678
 30
0.0
 10
6.3495
 20
-72.0982
 30
0.0
 10
6.3495
 20
-72.0982
 30
0.0
 10
8.3163
 20
-69.9679
 30
0.0
 10
10.6348
 20
-67.2016
 30
0.0
 10
14.4473
 20
-67.5788
 30
0.0
  0
SPLINE
  5
65
330
1F
100
AcDbEntity
  8
layer 1
 62
     7
100
AcDbSpline
210
0.0
220
0.0
230
1.0
 70
    11
 71
     3
 72
    36
 73
    32
 74
     0
 42
0.0000000001
 43
0.0000000001
 12
1.0
 22
0.0
 32
0.0
 13
1.0
 23
0.0
 33
0.0
 40
0.0
 40
0.0
 40
0.0
 40
0.0
 40
0.1111111111111111
 40
0.1111111111111111
 40
0.1111111111111111
 40
0.1111111111111111
 40
0.2222222222222222
 40
0.2222222222222222
 40
0.2222222222222222
 40
0.2222222222222222
 40
0.3333333333333333
 40
0.3333333333333333
 40
0.3333333333333333
 40
0.3333333333333333
 40
0.4444444444444444
 40
0.4444444444444444
 40
0.4444444444444444
 40
0.4444444444444444
 40
0.5555555555555556
 40
0.5555555555555556
 40
0.5555555555555556
 40
0.5555555555555556
 40
0.6666666666666666
 40
0.6666666666666666
 40
0.6666666666666666
 40
0.6666666666666666
 40
0.7777777777777778
 40
0.7777777777777778
 40
0.7777777777777778
 40
0.7777777777777778
 40
1.0
 40
1.0
 40
1.0
 40
1.0
 10
-14.702
 20
-65.0023
 30
0.0
 10
-12.5934
 20
-69.5444
 30
0.0
 10
-6.26
 20
-68.4136
 30
0.0
 10
-2.1288
 20
-75.7551
 30
0.0
 10
-2.1288
 20
-75.7551
 30
0.0
 10
-0.5897
 20
-74.7036
 30
0.0
 10
-0.1912
 20
-73.1416
 30
0.0
 10
-0.4353
 20
-71.5921
 30
0.0
 10
-0.4353
 20
-71.5921
 30
0.0
 10
-0.4353
 20
-71.5921
 30
0.0
 10
0.9726
 20
-73.2378
 30
0.0
 10
2.8485
 20
-73.024
 30
0.0
 10
2.8485
 20
-73.024
 30
0.0
 10
-1.4523
 20
-74.791
 30
0.0
 10
-2.2846
 20
-78.9854
 30
0.0
 10
-0.7186
 20
-81.9148
 30
0.0
 10
-0.7186
 20
-81.9148
 30
0.0
 10
1.2269
 20
-85.5577
 30
0.0
 10
7.5855
 20
-86.6026
 30
0.0
 10
8.5682
 20
-80.3136
 30
0.0
 10
8.5682
 20
-80.3136
 30
0.0
 10
10.0354
 20
-81.638
 30
0.0
 10
11.9025
 20
-87.9523
 30
0.0
 10
5.7776
 20
-90.7121
 30
0.0
 10
5.7776
 20
-90.7121
 30
0.0
 10
0.1301
 20
-92.5221
 30
0.0
 10
-6.6217
 20
-90.9132
 30
0.0
 10
-11.5332
 20
-82.7736
 30
0.0
 10
-11.5332
 20
-82.7736
 30
0.0
 10
-15.1081
 20
-77.0855
 30
0.0
 10
-15.519
 20
-67.1715
 30
0.0
 10
-14.702
 20
-65.0023
 30
0.0
  0
SPLINE
  5
66
330
1F
100
AcDbEntity
  8
layer 1
 62
     7
100
AcDbSpline
210
0.0
220
0.0
230
1.0
 70
    11
 71
     3
 72
    24
 73
    20
 74
     0
 42
0.0000000001
 43
0.0000000001
 12
1.0
 22
0.0
 32
0.0
 13
1.0
 23
0.0
 33
0.0
 40
0.0
 40
0.0
 40
0.0
 40
0.0
 40
0.1666666666666667
 40
0.1666666666666667
 40
0.1666666666666667
 40
0.1666666666666667
 40
0.3333333333333333
 40
0.3333333333333333
 40
0.3333333333333333
 40
0.3333333333333333
 40
0.5
 40
0.5
 40
0.5
 40
0.5
 40
0.6666666666666666
 40
0.6666666666666666
 40
0.6666666666666666
 40
0.6666666666666666
 40
1.0
 40
1.0
 40
1.0
 40
1.0
 10
-19.3111
 20
-66.1531
 30
0.0
 10
-22.1609
 20
-66.4199
 30
0.0
 10
-24.8968
 20
-68.66
 30
0.0
 10
-24.3706
 20
-73.8639
 30
0.0
 10
-24.3706
 20
-73.8639
 30
0.0
 10
-27.6035
 20
-75.0326
 30
0.0
 10
-31.1606
 20
-77.8342
 30
0.0
 10
-30.6153
 20
-85.6512
 30
0.0
 10
-30.6153
 20
-85.6512
 30
0.0
 10
-23.2978
 20
-79.9846
 30
0.0
 10
-16.7206
 20
-93.539
 30
0.0
 10
-27.2318
 20
-94.7306
 30
0.0
 10
-27.2318
 20
-94.7306
 30
0.0
 10
-25.786
 20
-97.7297
 30
0.0
 10
-16.0818
 20
-100.3758
 30
0.0
 10
-17.9249
 20
-89.8507
 30
0.0
 10
-17.9249
 20
-89.8507
 30
0.0
 10
-17.6655
 20
-81.5152
 30
0.0
 10
-22.5909
 20
-75.8395
 30
0.0
 10
-19.3111
 20
-66.1531
 30
0.0
  0
SPLINE
  5
67
330
1F
100
AcDbEntity
  8
layer 1
 62
     7
100
AcDbSpline
210
0.0
220
0.0
230
1.0
 70
    11
 71
     3
 72
    72
 73
    68
 74
     0
 42
0.0000000001
 43
0.0000000001
 12
1.0
 22
0.0
 32
0.0
 13
1.0
 23
0.0
 33
0.0
 40
0.0
 40
0.0
 40
0.0
 40
0.0
 40
0.0555555555555556
 40
0.0555555555555556
 40
0.0555555555555556
 40
0.0555555555555556
 40
0.1111111111111111
 40
0.1111111111111111
 40
0.1111111111111111
 40
0.1111111111111111
 40
0.1666666666666667
 40
0.1666666666666667
 40
0.1666666666666667
 40
0.1666666666666667
 40
0.2222222222222222
 40
0.2222222222222222
 40
0.2222222222222222
 40
0.2222222222222222
 40
0.2777777777777778
 40
0.2777777777777778
 40
0.2777777777777778
 40
0.2777777777777778
 40
0.3333333333333333
 40
0.3333333333333333
 40
0.3333333333333333
 40
0.3333333333333333
 40
0.3888888888888889
 40
0.3888888888888889
 40
0.3888888888888889
 40
0.3888888888888889
 40
0.4444444444444444
 40
0.4444444444444444
 40
0.4444444444444444
 40
0.4444444444444444
 40
0.5
 40
0.5
 40
0.5
 40
0.5
 40
0.5555555555555556
 40
0.5555555555555556
 40
0.5555555555555556
 40
0.5555555555555556
 40
0.6111111111111112
 40
0.6111111111111112
 40
0.6111111111111112
 40
0.6111111111111112
 40
0.6666666666666666
 40
0.6666666666666666
 40
0.6666666666666666
 40
0.6666666666666666
 40
0.7222222222222222
 40
0.7222222222222222
 40
0.7222222222222222
 40
0.7222222222222222
 40
0.7777777777777778
 40
0.7777777777777778
 40
0.7777777777777778
 40
0.7777777777777778
 40
0.8333333333333334
 40
0.8333333333333334
 40
0.8333333333333334
 40
0.8333333333333334
 40
0.8888888888888888
 40
0.8888888888888888
 40
0.8888888888888888
 40
0.8888888888888888
 40
1.0
 40
1.0
 40
1.0
 40
1.0
 10
-21.14
 20
-3.4733
 30
0.0
 10
-22.319
 20
-4.6433
 30
0.0
 10
-27.7794
 20
-7.5388
 30
0.0
 10
-34.6276
 20
-4.6433
 30
0.0
 10
-34.6276
 20
-4.6433
 30
0.0
 10
-32.8567
 20
-8.6251
 30
0.0
 10
-31.7677
 20
-9.2323
 30
0.0
 10
-30.2866
 20
-11.5495
 30
0.0
 10
-30.2866
 20
-11.5495
 30
0.0
 10
-30.3737
 20
-9.7711
 30
0.0
 10
-27.8046
 20
-8.5999
 30
0.0
 10
-26.6385
 20
-8.4963
 30
0.0
 10
-26.6385
 20
-8.4963
 30
0.0
 10
-25.1928
 20
-11.4964
 30
0.0
 10
-17.4288
 20
-28.3979
 30
0.0
 10
-19.2719
 20
-17.8728
 30
0.0
 10
-19.2719
 20
-17.8728
 30
0.0
 10
-19.2541
 20
-17.2923
 30
0.0
 10
-16.174
 20
-16.5002
 30
0.0
 10
-16.5548
 20
-16.9976
 30
0.0
 10
-16.5548
 20
-16.9976
 30
0.0
 10
-17.0496
 20
-19.8927
 30
0.0
 10
-14.0139
 20
-24.4601
 30
0.0
 10
-13.083
 20
-29.5601
 30
0.0
 10
-13.083
 20
-29.5601
 30
0.0
 10
-12.0128
 20
-35.4178
 30
0.0
 10
-15.0903
 20
-40.1182
 30
0.0
 10
-19.3441
 20
-40.9465
 30
0.0
 10
-19.3441
 20
-40.9465
 30
0.0
 10
-19.3729
 20
-51.8841
 30
0.0
 10
-21.2578
 20
-53.837
 30
0.0
 10
-22.6401
 20
-57.351
 30
0.0
 10
-22.6401
 20
-57.351
 30
0.0
 10
-21.5221
 20
-57.1016
 30
0.0
 10
-20.9327
 20
-57.0094
 30
0.0
 10
-19.6298
 20
-57.0155
 30
0.0
 10
-19.6298
 20
-57.0155
 30
0.0
 10
-19.0974
 20
-54.3467
 30
0.0
 10
-17.6542
 20
-51.5477
 30
0.0
 10
-15.495
 20
-47.2634
 30
0.0
 10
-15.495
 20
-47.2634
 30
0.0
 10
-16.5131
 20
-47.5671
 30
0.0
 10
-17.7134
 20
-46.4943
 30
0.0
 10
-17.444
 20
-45.3523
 30
0.0
 10
-17.444
 20
-45.3523
 30
0.0
 10
-9.3387
 20
-43.8116
 30
0.0
 10
-12.172
 20
-37.6126
 30
0.0
 10
5.8285
 20
-32.1583
 30
0.0
 10
5.8285
 20
-32.1583
 30
0.0
 10
7.7661
 20
-31.4093
 30
0.0
 10
7.8801
 20
-30.457
 30
0.0
 10
6.548
 20
-30.3003
 30
0.0
 10
6.548
 20
-30.3003
 30
0.0
 10
3.6554
 20
-29.9104
 30
0.0
 10
-0.4418
 20
-26.0224
 30
0.0
 10
0.0504
 20
-21.5688
 30
0.0
 10
0.0504
 20
-21.5688
 30
0.0
 10
-0.8565
 20
-21.8861
 30
0.0
 10
-1.9203
 20
-22.0062
 30
0.0
 10
-1.9582
 20
-21.8975
 30
0.0
 10
-1.9582
 20
-21.8975
 30
0.0
 10
-2.8752
 20
-16.4714
 30
0.0
 10
-7.54
 20
-14.3841
 30
0.0
 10
-11.8687
 20
-12.1288
 30
0.0
 10
-11.8687
 20
-12.1288
 30
0.0
 10
-16.3537
 20
-9.7915
 30
0.0
 10
-20.5001
 20
-7.3173
 30
0.0
 10
-21.14
 20
-3.4733
 30
0.0
  0
SPLINE
  5
68
330
1F
100
AcDbEntity
  8
layer 1
 62
     7
100
AcDbSpline
210
0.0
220
0.0
230
1.0
 70
    11
 71
     3
 72
    16
 73
    12
 74
     0
 42
0.0000000001
 43
0.0000000001
 12
1.0
 22
0.0
 32
0.0
 13
1.0
 23
0.0
 33
0.0
 40
0.0
 40
0.0
 40
0.0
 40
0.0
 40
0.25
 40
0.25
 40
0.25
 40
0.25
 40
0.5
 40
0.5
 40
0.5
 40
0.5
 40
1.0
 40
1.0
 40
1.0
 40
1.0
 10
-26.9093
 20
-30.944
 30
0.0
 10
-29.3972
 20
-30.9362
 30
0.0
 10
-33.9117
 20
-30.3709
 30
0.0
 10
-37.1802
 20
-28.9329
 30
0.0
 10
-37.1802
 20
-28.9329
 30
0.0
 10
-37.6216
 20
-31.2426
 30
0.0
 10
-33.651
 20
-41.8739
 30
0.0
 10
-26.2413
 20
-40.476
 30
0.0
 10
-26.2413
 20
-40.476
 30
0.0
 10
-21.9168
 20
-39.3505
 30
0.0
 10
-22.9096
 20
-33.6621
 30
0.0
 10
-26.9093
 20
-30.944
 30
0.0
  0
SPLINE
  5
69
330
1F
100
AcDbEntity
  8
layer 1
 62
     7
100
AcDbSpline
210
0.0
220
0.0
230
1.0
 70
    11
 71
     3
 72
    36
 73
    32
 74
     0
 42
0.0000000001
 43
0.0000000001
 12
1.0
 22
0.0
 32
0.0
 13
1.0
 23
0.0
 33
0.0
 40
0.0
 40
0.0
 40
0.0
 40
0.0
 40
0.1111111111111111
 40
0.1111111111111111
 40
0.1111111111111111
 40
0.1111111111111111
 40
0.2222222222222222
 40
0.2222222222222222
 40
0.2222222222222222
 40
0.2222222222222222
 40
0.3333333333333333
 40
0.3333333333333333
 40
0.3333333333333333
 40
0.3333333333333333
 40
0.4444444444444444
 40
0.4444444444444444
 40
0.4444444444444444
 40
0.4444444444444444
 40
0.5555555555555556
 40
0.5555555555555556
 40
0.5555555555555556
 40
0.5555555555555556
 40
0.6666666666666666
 40
0.6666666666666666
 40
0.6666666666666666
 40
0.6666666666666666
 40
0.7777777777777778
 40
0.7777777777777778
 40
0.7777777777777778
 40
0.7777777777777778
 40
1.0
 40
1.0
 40
1.0
 40
1.0
 10
24.0781
 20
-34.7184
 30
0.0
 10
24.226
 20
-32.9552
 30
0.0
 10
21.2143
 20
-32.9413
 30
0.0
 10
20.4239
 20
-35.1849
 30
0.0
 10
20.4239
 20
-35.1849
 30
0.0
 10
19.1072
 20
-41.4461
 30
0.0
 10
11.4443
 20
-39.5085
 30
0.0
 10
9.6141
 20
-43.2336
 30
0.0
 10
9.6141
 20
-43.2336
 30
0.0
 10
6.7746
 20
-42.1229
 30
0.0
 10
6.9353
 20
-39.4389
 30
0.0
 10
6.2685
 20
-38.4095
 30
0.0
 10
6.2685
 20
-38.4095
 30
0.0
 10
0.6524
 20
-40.3571
 30
0.0
 10
-4.7044
 20
-42.8175
 30
0.0
 10
-6.7295
 20
-44.7046
 30
0.0
 10
-6.7295
 20
-44.7046
 30
0.0
 10
-5.1192
 20
-44.8196
 30
0.0
 10
-0.3569
 20
-45.2169
 30
0.0
 10
1.877
 20
-41.9979
 30
0.0
 10
1.877
 20
-41.9979
 30
0.0
 10
3.6124
 20
-42.8275
 30
0.0
 10
3.9967
 20
-44.453
 30
0.0
 10
3.2254
 20
-46.0604
 30
0.0
 10
3.2254
 20
-46.0604
 30
0.0
 10
8.8425
 20
-46.5361
 30
0.0
 10
12.283
 20
-51.287
 30
0.0
 10
19.9634
 20
-50.1184
 30
0.0
 10
19.9634
 20
-50.1184
 30
0.0
 10
19.6548
 20
-48.388
 30
0.0
 10
23.2015
 20
-37.5465
 30
0.0
 10
24.0781
 20
-34.7184
 30
0.0
  0
SPLINE
  5
6A
330
1F
100
AcDbEntity
  8
layer 1
 62
     7
100
AcDbSpline
210
0.0
220
0.0
230
1.0
 70
    11
 71
     3
 72
    16
 73
    12
 74
     0
 42
0.0000000001
 43
0.0000000001
 12
1.0
 22
0.0
 32
0.0
 13
1.0
 23
0.0
 33
0.0
 40
0.0
 40
0.0
 40
0.0
 40
0.0
 40
0.25
 40
0.25
 40
0.25
 40
0.25
 40
0.5
 40
0.5
 40
0.5
 40
0.5
 40
1.0
 40
1.0
 40
1.0
 40
1.0
 10
-20.1624
 20
-24.3273
 30
0.0
 10
-21.6548
 20
-22.3427
 30
0.0
 10
-24.0682
 20
-18.7695
 30
0.0
 10
-26.7827
 20
-17.2453
 30
0.0
 10
-26.7827
 20
-17.2453
 30
0.0
 10
-27.113
 20
-27.0317
 30
0.0
 10
-20.0461
 20
-30.3582
 30
0.0
 10
-20.8214
 20
-35.5783
 30
0.0
 10
-20.8214
 20
-35.5783
 30
0.0
 10
-16.8294
 20
-32.0456
 30
0.0
 10
-18.5965
 20
-26.1856
 30
0.0
 10
-20.1624
 20
-24.3273
 30
0.0
  0
SPLINE
  5
6B
330
1F
100
AcDbEntity
  8
layer 1
 62
     7
100
AcDbSpline
210
0.0
220
0.0
230
1.0
 70
    11
 71
     3
 72
    16
 73
    12
 74
     0
 42
0.0000000001
 43
0.0000000001
 12
1.0
 22
0.0
 32
0.0
 13
1.0
 23
0.0
 33
0.0
 40
0.0
 40
0.0
 40
0.0
 40
0.0
 40
0.25
 40
0.25
 40
0.25
 40
0.25
 40
0.5
 40
0.5
 40
0.5
 40
0.5
 40
1.0
 40
1.0
 40
1.0
 40
1.0
 10
-29.7857
 20
-15.648
 30
0.0
 10
-31.3882
 20
-14.0933
 30
0.0
 10
-34.023
 20
-11.5508
 30
0.0
 10
-36.5161
 20
-6.2445
 30
0.0
 10
-36.5161
 20
-6.2445
 30
0.0
 10
-35.1878
 20
-15.6884
 30
0.0
 10
-32.2129
 20
-19.8736
 30
0.0
 10
-29.4493
 20
-22.2582
 30
0.0
 10
-29.4493
 20
-22.2582
 30
0.0
 10
-29.8806
 20
-19.8422
 30
0.0
 10
-29.8792
 20
-17.6779
 30
0.0
 10
-29.7857
 20
-15.648
 30
0.0
  0
SPLINE
  5
6C
330
1F
100
AcDbEntity
  8
layer 1
 62
     7
100
AcDbSpline
210
0.0
220
0.0
230
1.0
 70
    11
 71
     3
 72
    16
 73
    12
 74
     0
 42
0.0000000001
 43
0.0000000001
 12
1.0
 22
0.0
 32
0.0
 13
1.0
 23
0.0
 33
0.0
 40
0.0
 40
0.0
 40
0.0
 40
0.0
 40
0.25
 40
0.25
 40
0.25
 40
0.25
 40
0.5
 40
0.5
 40
0.5
 40
0.5
 40
1.0
 40
1.0
 40
1.0
 40
1.0
 10
-4.6614
 20
-57.9922
 30
0.0
 10
-6.6787
 20
-57.1626
 30
0.0
 10
-8.4926
 20
-56.9158
 30
0.0
 10
-12.5833
 20
-59.9023
 30
0.0
 10
-12.5833
 20
-59.9023
 30
0.0
 10
-10.8516
 20
-63.1705
 30
0.0
 10
-0.014
 20
-71.3846
 30
0.0
 10
5.9282
 20
-63.5096
 30
0.0
 10
5.9282
 20
-63.5096
 30
0.0
 10
1.6821
 20
-61.5628
 30
0.0
 10
0.1023
 20
-60.618
 30
0.0
 10
-4.6614
 20
-57.9922
 30
0.0
  0
SPLINE
  5
6D
330
1F
100
AcDbEntity
  8
layer 1
 62
     7
100
AcDbSpline
210
0.0
220
0.0
230
1.0
 70
    11
 71
     3
 72
    16
 73
    12
 74
     0
 42
0.0000000001
 43
0.0000000001
 12
1.0
 22
0.0
 32
0.0
 13
1.0
 23
0.0
 33
0.0
 40
0.0
 40
0.0
 40
0.0
 40
0.0
 40
0.25
 40
0.25
 40
0.25
 40
0.25
 40
0.5
 40
0.5
 40
0.5
 40
0.5
 40
1.0
 40
1.0
 40
1.0
 40
1.0
 10
-2.1366
 20
-49.1887
 30
0.0
 10
-5.0344
 20
-47.128
 30
0.0
 10
-11.0173
 20
-49.8917
 30
0.0
 10
-12.2896
 20
-54.4746
 30
0.0
 10
-12.2896
 20
-54.4746
 30
0.0
 10
-9.8575
 20
-53.0819
 30
0.0
 10
-6.7709
 20
-53.4792
 30
0.0
 10
-4.6853
 20
-52.5279
 30
0.0
 10
-4.6853
 20
-52.5279
 30
0.0
 10
-2.635
 20
-51.593
 30
0.0
 10
-1.2522
 20
-50.3775
 30
0.0
 10
-2.1366
 20
-49.1887
 30
0.0
  0
SPLINE
  5
6E
330
1F
100
AcDbEntity
  8
layer 1
 62
     7
100
AcDbSpline
210
0.0
220
0.0
230
1.0
 70
    11
 71
     3
 72
    16
 73
    12
 74
     0
 42
0.0000000001
 43
0.0000000001
 12
1.0
 22
0.0
 32
0.0
 13
1.0
 23
0.0
 33
0.0
 40
0.0
 40
0.0
 40
0.0
 40
0.0
 40
0.25
 40
0.25
 40
0.25
 40
0.25
 40
0.5
 40
0.5
 40
0.5
 40
0.5
 40
1.0
 40
1.0
 40
1.0
 40
1.0
 10
12.8914
 20
-53.5676
 30
0.0
 10
9.9937
 20
-51.5072
 30
0.0
 10
2.7788
 20
-48.9342
 30
0.0
 10
0.0391
 20
-53.5625
 30
0.0
 10
0.0391
 20
-53.5625
 30
0.0
 10
2.8229
 20
-52.9453
 30
0.0
 10
5.2048
 20
-54.438
 30
0.0
 10
7.2325
 20
-54.7628
 30
0.0
 10
7.2325
 20
-54.7628
 30
0.0
 10
9.561
 20
-55.1375
 30
0.0
 10
12.6598
 20
-54.6199
 30
0.0
 10
12.8914
 20
-53.5676
 30
0.0
  0
SPLINE
  5
6F
330
1F
100
AcDbEntity
  8
layer 1
 62
     7
100
AcDbSpline
210
0.0
220
0.0
230
1.0
 70
    11
 71
     3
 72
    16
 73
    12
 74
     0
 42
0.0000000001
 43
0.0000000001
 12
1.0
 22
0.0
 32
0.0
 13
1.0
 23
0.0
 33
0.0
 40
0.0
 40
0.0
 40
0.0
 40
0.0
 40
0.25
 40
0.25
 40
0.25
 40
0.25
 40
0.5
 40
0.5
 40
0.5
 40
0.5
 40
1.0
 40
1.0
 40
1.0
 40
1.0
 10
15.0631
 20
-56.3492
 30
0.0
 10
12.87
 20
-57.6645
 30
0.0
 10
8.2962
 20
-58.1022
 30
0.0
 10
3.0913
 20
-56.9371
 30
0.0
 10
3.0913
 20
-56.9371
 30
0.0
 10
4.7013
 20
-58.6005
 30
0.0
 10
8.1038
 20
-60.2297
 30
0.0
 10
10.5198
 20
-60.1905
 30
0.0
 10
10.5198
 20
-60.1905
 30
0.0
 10
12.5676
 20
-59.8719
 30
0.0
 10
15.4365
 20
-57.8555
 30
0.0
 10
15.0631
 20
-56.3492
 30
0.0
  0
SPLINE
  5
70
330
1F
100
AcDbEntity
  8
layer 1
 62
     7
100
AcDbSpline
210
0.0
220
0.0
230
1.0
 70
    11
 71
     3
 72
    44
 73
    40
 74
     0
 42
0.0000000001
 43
0.0000000001
 12
1.0
 22
0.0
 32
0.0
 13
1.0
 23
0.0
 33
0.0
 40
0.0
 40
0.0
 40
0.0
 40
0.0
 40
0.0909090909090909
 40
0.0909090909090909
 40
0.0909090909090909
 40
0.0909090909090909
 40
0.1818181818181818
 40
0.1818181818181818
 40
0.1818181818181818
 40
0.1818181818181818
 40
0.2727272727272727
 40
0.2727272727272727
 40
0.2727272727272727
 40
0.2727272727272727
 40
0.3636363636363636
 40
0.3636363636363636
 40
0.3636363636363636
 40
0.3636363636363636
 40
0.4545454545454545
 40
0.4545454545454545
 40
0.4545454545454545
 40
0.4545454545454545
 40
0.5454545454545454
 40
0.5454545454545454
 40
0.5454545454545454
 40
0.5454545454545454
 40
0.6363636363636364
 40
0.6363636363636364
 40
0.6363636363636364
 40
0.6363636363636364
 40
0.7272727272727273
 40
0.7272727272727273
 40
0.7272727272727273
 40
0.7272727272727273
 40
0.8181818181818182
 40
0.8181818181818182
 40
0.8181818181818182
 40
0.8181818181818182
 40
1.0
 40
1.0
 40
1.0
 40
1.0
 10
32.7464
 20
-62.0171
 30
0.0
 10
35.0192
 20
-65.6447
 30
0.0
 10
42.6983
 20
-69.3342
 30
0.0
 10
47.5733
 20
-64.7821
 30
0.0
 10
47.5733
 20
-64.7821
 30
0.0
 10
49.3704
 20
-63.1061
 30
0.0
 10
49.4009
 20
-58.2427
 30
0.0
 10
46.0883
 20
-56.8044
 30
0.0
 10
46.0883
 20
-56.8044
 30
0.0
 10
42.9198
 20
-55.4295
 30
0.0
 10
38.0537
 20
-57.4077
 30
0.0
 10
41.0945
 20
-62.7127
 30
0.0
 10
41.0945
 20
-62.7127
 30
0.0
 10
32.115
 20
-61.1846
 30
0.0
 10
34.6993
 20
-51.5247
 30
0.0
 10
42.0621
 20
-51.0568
 30
0.0
 10
42.0621
 20
-51.0568
 30
0.0
 10
50.6265
 20
-50.5119
 30
0.0
 10
55.0689
 20
-59.4467
 30
0.0
 10
54.4478
 20
-65.804
 30
0.0
 10
54.4478
 20
-65.804
 30
0.0
 10
52.8213
 20
-74.5417
 30
0.0
 10
42.133
 20
-78.8247
 30
0.0
 10
32.7843
 20
-71.381
 30
0.0
 10
32.7843
 20
-71.381
 30
0.0
 10
16.8176
 20
-58.46
 30
0.0
 10
29.0275
 20
-35.3216
 30
0.0
 10
33.7923
 20
-29.1453
 30
0.0
 10
33.7923
 20
-29.1453
 30
0.0
 10
35.1407
 20
-31.976
 30
0.0
 10
33.8454
 20
-39.8967
 30
0.0
 10
36.2248
 20
-42.673
 30
0.0
 10
36.2248
 20
-42.673
 30
0.0
 10
38.4749
 20
-41.9458
 30
0.0
 10
41.5055
 20
-43.2802
 30
0.0
 10
40.7024
 20
-46.3149
 30
0.0
 10
40.7024
 20
-46.3149
 30
0.0
 10
30.4176
 20
-44.9967
 30
0.0
 10
28.2723
 20
-55.8975
 30
0.0
 10
32.7464
 20
-62.0171
 30
0.0
  0
SPLINE
  5
71
330
1F
100
AcDbEntity
  8
layer 1
 62
     7
100
AcDbSpline
210
0.0
220
0.0
230
1.0
 70
    11
 71
     3
 72
    12
 73
     8
 74
     0
 42
0.0000000001
 43
0.0000000001
 12
1.0
 22
0.0
 32
0.0
 13
1.0
 23
0.0
 33
0.0
 40
0.0
 40
0.0
 40
0.0
 40
0.0
 40
0.3333333333333333
 40
0.3333333333333333
 40
0.3333333333333333
 40
0.3333333333333333
 40
1.0
 40
1.0
 40
1.0
 40
1.0
 10
-25.7115
 20
122.4292
 30
0.0
 10
-30.4851
 20
120.8377
 30
0.0
 10
-34.7086
 20
112.4768
 30
0.0
 10
-26.9585
 20
107.8626
 30
0.0
 10
-26.9585
 20
107.8626
 30
0.0
 10
-27.9339
 20
112.6313
 30
0.0
 10
-27.6404
 20
117.1129
 30
0.0
 10
-25.7115
 20
122.4292
 30
0.0
  0
SPLINE
  5
72
330
1F
100
AcDbEntity
  8
layer 1
 62
     7
100
AcDbSpline
210
0.0
220
0.0
230
1.0
 70
    11
 71
     3
 72
    16
 73
    12
 74
     0
 42
0.0000000001
 43
0.0000000001
 12
1.0
 22
0.0
 32
0.0
 13
1.0
 23
0.0
 33
0.0
 40
0.0
 40
0.0
 40
0.0
 40
0.0
 40
0.25
 40
0.25
 40
0.25
 40
0.25
 40
0.5
 40
0.5
 40
0.5
 40
0.5
 40
1.0
 40
1.0
 40
1.0
 40
1.0
 10
-33.0225
 20
110.7921
 30
0.0
 10
-35.031
 20
108.5785
 30
0.0
 10
-33.9064
 20
94.3283
 30
0.0
 10
-27.5821
 20
93.3165
 30
0.0
 10
-27.5821
 20
93.3165
 30
0.0
 10
-25.6646
 20
94.8762
 30
0.0
 10
-26.1098
 20
98.5279
 30
0.0
 10
-26.8031
 20
102.5589
 30
0.0
 10
-26.8031
 20
102.5589
 30
0.0
 10
-29.0558
 20
105.7578
 30
0.0
 10
-30.9643
 20
106.8572
 30
0.0
 10
-33.0225
 20
110.7921
 30
0.0
  0
SPLINE
  5
73
330
1F
100
AcDbEntity
  8
layer 1
 62
     7
100
AcDbSpline
210
0.0
220
0.0
230
1.0
 70
    11
 71
     3
 72
    16
 73
    12
 74
     0
 42
0.0000000001
 43
0.0000000001
 12
1.0
 22
0.0
 32
0.0
 13
1.0
 23
0.0
 33
0.0
 40
0.0
 40
0.0
 40
0.0
 40
0.0
 40
0.25
 40
0.25
 40
0.25
 40
0.25
 40
0.5
 40
0.5
 40
0.5
 40
0.5
 40
1.0
 40
1.0
 40
1.0
 40
1.0
 10
-19.6275
 20
108.9911
 30
0.0
 10
-17.6186
 20
106.7775
 30
0.0
 10
-17.3164
 20
94.1904
 30
0.0
 10
-23.6407
 20
92.1391
 30
0.0
 10
-23.6407
 20
92.1391
 30
0.0
 10
-22.4378
 20
95.7071
 30
0.0
 10
-22.9741
 20
99.2211
 30
0.0
 10
-22.2811
 20
103.2522
 30
0.0
 10
-22.2811
 20
103.2522
 30
0.0
 10
-22.1671
 20
104.927
 30
0.0
 10
-20.7948
 20
107.272
 30
0.0
 10
-19.6275
 20
108.9911
 30
0.0
  0
SPLINE
  5
74
330
1F
100
AcDbEntity
  8
layer 1
 62
     7
100
AcDbSpline
210
0.0
220
0.0
230
1.0
 70
    11
 71
     3
 72
    16
 73
    12
 74
     0
 42
0.0000000001
 43
0.0000000001
 12
1.0
 22
0.0
 32
0.0
 13
1.0
 23
0.0
 33
0.0
 40
0.0
 40
0.0
 40
0.0
 40
0.0
 40
0.25
 40
0.25
 40
0.25
 40
0.25
 40
0.5
 40
0.5
 40
0.5
 40
0.5
 40
1.0
 40
1.0
 40
1.0
 40
1.0
 10
-23.0158
 20
121.3211
 30
0.0
 10
-23.3247
 20
115.8516
 30
0.0
 10
-20.0802
 20
111.2299
 30
0.0
 10
-23.5511
 20
106.6166
 30
0.0
 10
-23.5511
 20
106.6166
 30
0.0
 10
-24.0429
 20
106.8594
 30
0.0
 10
-25.1131
 20
111.2043
 30
0.0
 10
-24.9564
 20
114.889
 30
0.0
 10
-24.9564
 20
114.889
 30
0.0
 10
-24.8424
 20
116.5636
 30
0.0
 10
-24.1822
 20
119.602
 30
0.0
 10
-23.0158
 20
121.3211
 30
0.0
  0
SPLINE
  5
75
330
1F
100
AcDbEntity
  8
layer 1
 62
     7
100
AcDbSpline
210
0.0
220
0.0
230
1.0
 70
    11
 71
     3
 72
    16
 73
    12
 74
     0
 42
0.0000000001
 43
0.0000000001
 12
1.0
 22
0.0
 32
0.0
 13
1.0
 23
0.0
 33
0.0
 40
0.0
 40
0.0
 40
0.0
 40
0.0
 40
0.25
 40
0.25
 40
0.25
 40
0.25
 40
0.5
 40
0.5
 40
0.5
 40
0.5
 40
1.0
 40
1.0
 40
1.0
 40
1.0
 10
24.1363
 20
59.2342
 30
0.0
 10
32.296
 20
58.7777
 30
0.0
 10
39.187
 20
61.1583
 30
0.0
 10
38.3473
 20
65.1502
 30
0.0
 10
38.3473
 20
65.1502
 30
0.0
 10
34.1566
 20
63.3084
 30
0.0
 10
30.6491
 20
62.3674
 30
0.0
 10
24.6042
 20
62.0919
 30
0.0
 10
24.6042
 20
62.0919
 30
0.0
 10
24.5637
 20
60.9621
 30
0.0
 10
24.374
 20
60.9481
 30
0.0
 10
24.1363
 20
59.2342
 30
0.0
  0
SPLINE
  5
76
330
1F
100
AcDbEntity
  8
layer 1
 62
     7
100
AcDbSpline
210
0.0
220
0.0
230
1.0
 70
    11
 71
     3
 72
    16
 73
    12
 74
     0
 42
0.0000000001
 43
0.0000000001
 12
1.0
 22
0.0
 32
0.0
 13
1.0
 23
0.0
 33
0.0
 40
0.0
 40
0.0
 40
0.0
 40
0.0
 40
0.25
 40
0.25
 40
0.25
 40
0.25
 40
0.5
 40
0.5
 40
0.5
 40
0.5
 40
1.0
 40
1.0
 40
1.0
 40
1.0
 10
23.601
 20
55.217
 30
0.0
 10
26.7686
 20
53.9296
 30
0.0
 10
37.4047
 20
52.9151
 30
0.0
 10
35.4052
 20
57.6696
 30
0.0
 10
35.4052
 20
57.6696
 30
0.0
 10
31.7497
 20
57.0045
 30
0.0
 10
27.8853
 20
57.1726
 30
0.0
 10
23.9806
 20
57.3814
 30
0.0
 10
23.9806
 20
57.3814
 30
0.0
 10
23.672
 20
56.668
 30
0.0
 10
23.6607
 20
55.8229
 30
0.0
 10
23.601
 20
55.217
 30
0.0
  0
SPLINE
  5
77
330
1F
100
AcDbEntity
  8
layer 1
 62
     7
100
AcDbSpline
210
0.0
220
0.0
230
1.0
 70
    11
 71
     3
 72
    16
 73
    12
 74
     0
 42
0.0000000001
 43
0.0000000001
 12
1.0
 22
0.0
 32
0.0
 13
1.0
 23
0.0
 33
0.0
 40
0.0
 40
0.0
 40
0.0
 40
0.0
 40
0.25
 40
0.25
 40
0.25
 40
0.25
 40
0.5
 40
0.5
 40
0.5
 40
0.5
 40
1.0
 40
1.0
 40
1.0
 40
1.0
 10
23.601
 20
55.217
 30
0.0
 10
26.7686
 20
53.9296
 30
0.0
 10
37.4047
 20
52.9151
 30
0.0
 10
35.4052
 20
57.6696
 30
0.0
 10
35.4052
 20
57.6696
 30
0.0
 10
31.7497
 20
57.0045
 30
0.0
 10
27.8853
 20
57.1726
 30
0.0
 10
23.9806
 20
57.3814
 30
0.0
 10
23.9806
 20
57.3814
 30
0.0
 10
23.672
 20
56.668
 30
0.0
 10
23.6607
 20
55.8229
 30
0.0
 10
23.601
 20
55.217
 30
0.0
  0
SPLINE
  5
78
330
1F
100
AcDbEntity
  8
layer 1
 62
     7
100
AcDbSpline
210
0.0
220
0.0
230
1.0
 70
    11
 71
     3
 72
    16
 73
    12
 74
     0
 42
0.0000000001
 43
0.0000000001
 12
1.0
 22
0.0
 32
0.0
 13
1.0
 23
0.0
 33
0.0
 40
0.0
 40
0.0
 40
0.0
 40
0.0
 40
0.25
 40
0.25
 40
0.25
 40
0.25
 40
0.5
 40
0.5
 40
0.5
 40
0.5
 40
1.0
 40
1.0
 40
1.0
 40
1.0
 10
21.3726
 20
51.2695
 30
0.0
 10
24.5397
 20
49.1495
 30
0.0
 10
29.292
 20
47.8592
 30
0.0
 10
32.195
 20
49.0116
 30
0.0
 10
32.195
 20
49.0116
 30
0.0
 10
33.8898
 20
52.6405
 30
0.0
 10
26.3699
 20
51.2164
 30
0.0
 10
22.3755
 20
52.9491
 30
0.0
 10
22.3755
 20
52.9491
 30
0.0
 10
22.0669
 20
52.2344
 30
0.0
 10
21.8784
 20
52.0133
 30
0.0
 10
21.3726
 20
51.2695
 30
0.0
  0
SPLINE
  5
79
330
1F
100
AcDbEntity
  8
layer 1
 62
     7
100
AcDbSpline
210
0.0
220
0.0
230
1.0
 70
    11
 71
     3
 72
    64
 73
    60
 74
     0
 42
0.0000000001
 43
0.0000000001
 12
1.0
 22
0.0
 32
0.0
 13
1.0
 23
0.0
 33
0.0
 40
0.0
 40
0.0
 40
0.0
 40
0.0
 40
0.0625
 40
0.0625
 40
0.0625
 40
0.0625
 40
0.125
 40
0.125
 40
0.125
 40
0.125
 40
0.1875
 40
0.1875
 40
0.1875
 40
0.1875
 40
0.25
 40
0.25
 40
0.25
 40
0.25
 40
0.3125
 40
0.3125
 40
0.3125
 40
0.3125
 40
0.375
 40
0.375
 40
0.375
 40
0.375
 40
0.4375
 40
0.4375
 40
0.4375
 40
0.4375
 40
0.5
 40
0.5
 40
0.5
 40
0.5
 40
0.5625
 40
0.5625
 40
0.5625
 40
0.5625
 40
0.625
 40
0.625
 40
0.625
 40
0.625
 40
0.6875
 40
0.6875
 40
0.6875
 40
0.6875
 40
0.75
 40
0.75
 40
0.75
 40
0.75
 40
0.8125
 40
0.8125
 40
0.8125
 40
0.8125
 40
0.875
 40
0.875
 40
0.875
 40
0.875
 40
1.0
 40
1.0
 40
1.0
 40
1.0
 10
-30.4534
 20
47.2659
 30
0.0
 10
-30.4168
 20
39.9523
 30
0.0
 10
-28.1145
 20
35.3219
 30
0.0
 10
-23.8645
 20
35.2066
 30
0.0
 10
-23.8645
 20
35.2066
 30
0.0
 10
-21.7436
 20
39.0609
 30
0.0
 10
-16.8207
 20
43.3854
 30
0.0
 10
-12.7741
 20
46.2427
 30
0.0
 10
-12.7741
 20
46.2427
 30
0.0
 10
-13.6762
 20
50.3421
 30
0.0
 10
-7.1848
 20
63.6578
 30
0.0
 10
5.8968
 20
58.9801
 30
0.0
 10
5.8968
 20
58.9801
 30
0.0
 10
9.2246
 20
60.5182
 30
0.0
 10
16.1094
 20
82.1806
 30
0.0
 10
17.8651
 20
87.0174
 30
0.0
 10
17.8651
 20
87.0174
 30
0.0
 10
19.3728
 20
90.3503
 30
0.0
 10
17.9169
 20
90.0443
 30
0.0
 10
16.8127
 20
89.1413
 30
0.0
 10
16.8127
 20
89.1413
 30
0.0
 10
13.1216
 20
87.2211
 30
0.0
 10
13.6365
 20
82.4753
 30
0.0
 10
9.5675
 20
81.1548
 30
0.0
 10
9.5675
 20
81.1548
 30
0.0
 10
10.2086
 20
79.5332
 30
0.0
 10
10.8462
 20
77.3854
 30
0.0
 10
9.7434
 20
75.7815
 30
0.0
 10
9.7434
 20
75.7815
 30
0.0
 10
8.3302
 20
76.2594
 30
0.0
 10
6.9783
 20
76.2077
 30
0.0
 10
5.9525
 20
76.1776
 30
0.0
 10
5.9525
 20
76.1776
 30
0.0
 10
-12.6199
 20
75.6235
 30
0.0
 10
-11.6029
 20
81.6937
 30
0.0
 10
-14.2198
 20
84.0374
 30
0.0
 10
-14.2198
 20
84.0374
 30
0.0
 10
-17.1089
 20
83.7997
 30
0.0
 10
-25.9365
 20
74.7065
 30
0.0
 10
-26.034
 20
71.4354
 30
0.0
 10
-26.034
 20
71.4354
 30
0.0
 10
-25.9427
 20
69.7593
 30
0.0
 10
-24.8524
 20
67.7203
 30
0.0
 10
-22.2645
 20
66.8311
 30
0.0
 10
-22.2645
 20
66.8311
 30
0.0
 10
-21.3249
 20
68.4262
 30
0.0
 10
-19.2389
 20
68.8397
 30
0.0
 10
-17.8944
 20
68.4754
 30
0.0
 10
-17.8944
 20
68.4754
 30
0.0
 10
-17.582
 20
67.1096
 30
0.0
 10
-18.6496
 20
64.0878
 30
0.0
 10
-24.1391
 20
64.658
 30
0.0
 10
-24.1391
 20
64.658
 30
0.0
 10
-28.9875
 20
63.4755
 30
0.0
 10
-32.2443
 20
60.6486
 30
0.0
 10
-30.3902
 20
51.4149
 30
0.0
 10
-30.3902
 20
51.4149
 30
0.0
 10
-28.7686
 20
49.2065
 30
0.0
 10
-28.9623
 20
48.5019
 30
0.0
 10
-30.4534
 20
47.2659
 30
0.0
  0
SPLINE
  5
7A
330
1F
100
AcDbEntity
  8
layer 1
 62
     7
100
AcDbSpline
210
0.0
220
0.0
230
1.0
 70
    11
 71
     3
 72
    16
 73
    12
 74
     0
 42
0.0000000001
 43
0.0000000001
 12
1.0
 22
0.0
 32
0.0
 13
1.0
 23
0.0
 33
0.0
 40
0.0
 40
0.0
 40
0.0
 40
0.0
 40
0.25
 40
0.25
 40
0.25
 40
0.25
 40
0.5
 40
0.5
 40
0.5
 40
0.5
 40
1.0
 40
1.0
 40
1.0
 40
1.0
 10
42.9539
 20
57.7253
 30
0.0
 10
47.1293
 20
57.8859
 30
0.0
 10
54.3024
 20
61.6428
 30
0.0
 10
54.0456
 20
64.9339
 30
0.0
 10
54.0456
 20
64.9339
 30
0.0
 10
52.0535
 20
67.1536
 30
0.0
 10
46.6219
 20
61.8185
 30
0.0
 10
42.1913
 20
60.9342
 30
0.0
 10
42.1913
 20
60.9342
 30
0.0
 10
43.403
 20
59.9744
 30
0.0
 10
43.1954
 20
58.812
 30
0.0
 10
42.9539
 20
57.7253
 30
0.0
  0
SPLINE
  5
7B
330
1F
100
AcDbEntity
  8
layer 1
 62
     7
100
AcDbSpline
210
0.0
220
0.0
230
1.0
 70
    11
 71
     3
 72
    16
 73
    12
 74
     0
 42
0.0000000001
 43
0.0000000001
 12
1.0
 22
0.0
 32
0.0
 13
1.0
 23
0.0
 33
0.0
 40
0.0
 40
0.0
 40
0.0
 40
0.0
 40
0.25
 40
0.25
 40
0.25
 40
0.25
 40
0.5
 40
0.5
 40
0.5
 40
0.5
 40
1.0
 40
1.0
 40
1.0
 40
1.0
 10
40.3686
 20
50.3826
 30
0.0
 10
44.6338
 20
49.644
 30
0.0
 10
49.3099
 20
50.561
 30
0.0
 10
48.1613
 20
54.6821
 30
0.0
 10
48.1613
 20
54.6821
 30
0.0
 10
46.1349
 20
55.3624
 30
0.0
 10
44.062
 20
53.3186
 30
0.0
 10
39.9612
 20
53.5918
 30
0.0
 10
39.9612
 20
53.5918
 30
0.0
 10
41.1742
 20
52.7707
 30
0.0
 10
40.8769
 20
51.2618
 30
0.0
 10
40.3686
 20
50.3826
 30
0.0
  0
SPLINE
  5
7C
330
1F
100
AcDbEntity
  8
layer 1
 62
     7
100
AcDbSpline
210
0.0
220
0.0
230
1.0
 70
    11
 71
     3
 72
    16
 73
    12
 74
     0
 42
0.0000000001
 43
0.0000000001
 12
1.0
 22
0.0
 32
0.0
 13
1.0
 23
0.0
 33
0.0
 40
0.0
 40
0.0
 40
0.0
 40
0.0
 40
0.25
 40
0.25
 40
0.25
 40
0.25
 40
0.5
 40
0.5
 40
0.5
 40
0.5
 40
1.0
 40
1.0
 40
1.0
 40
1.0
 10
34.1274
 20
43.5259
 30
0.0
 10
41.1032
 20
42.094
 30
0.0
 10
42.7123
 20
46.9586
 30
0.0
 10
38.9797
 20
48.1019
 30
0.0
 10
38.9797
 20
48.1019
 30
0.0
 10
37.1305
 20
48.5058
 30
0.0
 10
37.8221
 20
46.3919
 30
0.0
 10
34.345
 20
46.1808
 30
0.0
 10
34.345
 20
46.1808
 30
0.0
 10
34.755
 20
45.2207
 30
0.0
 10
34.6371
 20
44.4047
 30
0.0
 10
34.1274
 20
43.5259
 30
0.0
  0
SPLINE
  5
7D
330
1F
100
AcDbEntity
  8
layer 1
 62
     7
100
AcDbSpline
210
0.0
220
0.0
230
1.0
 70
    11
 71
     3
 72
    16
 73
    12
 74
     0
 42
0.0000000001
 43
0.0000000001
 12
1.0
 22
0.0
 32
0.0
 13
1.0
 23
0.0
 33
0.0
 40
0.0
 40
0.0
 40
0.0
 40
0.0
 40
0.25
 40
0.25
 40
0.25
 40
0.25
 40
0.5
 40
0.5
 40
0.5
 40
0.5
 40
1.0
 40
1.0
 40
1.0
 40
1.0
 10
29.8483
 20
36.4601
 30
0.0
 10
34.6841
 20
35.4433
 30
0.0
 10
35.5811
 20
41.2097
 30
0.0
 10
33.3623
 20
41.5209
 30
0.0
 10
33.3623
 20
41.5209
 30
0.0
 10
32.4945
 20
41.0252
 30
0.0
 10
31.5813
 20
40.0877
 30
0.0
 10
30.0659
 20
40.2231
 30
0.0
 10
30.0659
 20
40.2231
 30
0.0
 10
30.0306
 20
39.0557
 30
0.0
 10
30.2683
 20
38.1704
 30
0.0
 10
29.8483
 20
36.4601
 30
0.0
  0
SPLINE
  5
7E
330
1F
100
AcDbEntity
  8
layer 1
 62
     7
100
AcDbSpline
210
0.0
220
0.0
230
1.0
 70
    11
 71
     3
 72
    16
 73
    12
 74
     0
 42
0.0000000001
 43
0.0000000001
 12
1.0
 22
0.0
 32
0.0
 13
1.0
 23
0.0
 33
0.0
 40
0.0
 40
0.0
 40
0.0
 40
0.0
 40
0.25
 40
0.25
 40
0.25
 40
0.25
 40
0.5
 40
0.5
 40
0.5
 40
0.5
 40
1.0
 40
1.0
 40
1.0
 40
1.0
 10
21.1119
 20
39.9928
 30
0.0
 10
24.6991
 20
38.8381
 30
0.0
 10
24.5259
 20
41.7638
 30
0.0
 10
23.3773
 20
41.7981
 30
0.0
 10
23.3773
 20
41.7981
 30
0.0
 10
20.9944
 20
42.7568
 30
0.0
 10
19.0994
 20
44.2442
 30
0.0
 10
16.9607
 20
46.6653
 30
0.0
 10
16.9607
 20
46.6653
 30
0.0
 10
15.7665
 20
44.9439
 30
0.0
 10
18.1433
 20
41.7032
 30
0.0
 10
21.1119
 20
39.9928
 30
0.0
  0
SPLINE
  5
7F
330
1F
100
AcDbEntity
  8
layer 1
 62
     7
100
AcDbSpline
210
0.0
220
0.0
230
1.0
 70
    11
 71
     3
 72
    16
 73
    12
 74
     0
 42
0.0000000001
 43
0.0000000001
 12
1.0
 22
0.0
 32
0.0
 13
1.0
 23
0.0
 33
0.0
 40
0.0
 40
0.0
 40
0.0
 40
0.0
 40
0.25
 40
0.25
 40
0.25
 40
0.25
 40
0.5
 40
0.5
 40
0.5
 40
0.5
 40
1.0
 40
1.0
 40
1.0
 40
1.0
 10
25.301
 20
44.08
 30
0.0
 10
28.8895
 20
42.9249
 30
0.0
 10
29.5184
 20
46.1973
 30
0.0
 10
27.7461
 20
46.7854
 30
0.0
 10
27.7461
 20
46.7854
 30
0.0
 10
25.1848
 20
47.3977
 30
0.0
 10
22.5766
 20
47.2925
 30
0.0
 10
19.9913
 20
49.782
 30
0.0
 10
19.9913
 20
49.782
 30
0.0
 10
18.0837
 20
48.0606
 30
0.0
 10
21.7988
 20
45.1664
 30
0.0
 10
25.301
 20
44.08
 30
0.0
  0
SPLINE
  5
80
330
1F
100
AcDbEntity
  8
layer 1
 62
     7
100
AcDbSpline
210
0.0
220
0.0
230
1.0
 70
    11
 71
     3
 72
    16
 73
    12
 74
     0
 42
0.0000000001
 43
0.0000000001
 12
1.0
 22
0.0
 32
0.0
 13
1.0
 23
0.0
 33
0.0
 40
0.0
 40
0.0
 40
0.0
 40
0.0
 40
0.25
 40
0.25
 40
0.25
 40
0.25
 40
0.5
 40
0.5
 40
0.5
 40
0.5
 40
1.0
 40
1.0
 40
1.0
 40
1.0
 10
15.6729
 20
37.9843
 30
0.0
 10
19.3501
 20
35.8594
 30
0.0
 10
19.0869
 20
38.5081
 30
0.0
 10
17.3146
 20
39.0975
 30
0.0
 10
17.3146
 20
39.0975
 30
0.0
 10
16.5368
 20
39.7085
 30
0.0
 10
14.732
 20
41.0582
 30
0.0
 10
13.7514
 20
42.9933
 30
0.0
 10
13.7514
 20
42.9933
 30
0.0
 10
13.0028
 20
41.8952
 30
0.0
 10
13.0623
 20
40.5255
 30
0.0
 10
15.6729
 20
37.9843
 30
0.0
  0
SPLINE
  5
81
330
1F
100
AcDbEntity
  8
layer 1
 62
     7
100
AcDbSpline
210
0.0
220
0.0
230
1.0
 70
    11
 71
     3
 72
    16
 73
    12
 74
     0
 42
0.0000000001
 43
0.0000000001
 12
1.0
 22
0.0
 32
0.0
 13
1.0
 23
0.0
 33
0.0
 40
0.0
 40
0.0
 40
0.0
 40
0.0
 40
0.25
 40
0.25
 40
0.25
 40
0.25
 40
0.5
 40
0.5
 40
0.5
 40
0.5
 40
1.0
 40
1.0
 40
1.0
 40
1.0
 10
12.1959
 20
53.9849
 30
0.0
 10
17.1213
 20
54.2152
 30
0.0
 10
20.6036
 20
62.2664
 30
0.0
 10
18.8313
 20
64.7264
 30
0.0
 10
18.8313
 20
64.7264
 30
0.0
 10
17.2502
 20
64.2293
 30
0.0
 10
13.9285
 20
61.2833
 30
0.0
 10
13.2165
 20
59.6176
 30
0.0
 10
13.2165
 20
59.6176
 30
0.0
 10
11.8429
 20
57.8267
 30
0.0
 10
11.5469
 20
55.6953
 30
0.0
 10
12.1959
 20
53.9849
 30
0.0
  0
SPLINE
  5
82
330
1F
100
AcDbEntity
  8
layer 1
 62
     7
100
AcDbSpline
210
0.0
220
0.0
230
1.0
 70
    11
 71
     3
 72
    28
 73
    24
 74
     0
 42
0.0000000001
 43
0.0000000001
 12
1.0
 22
0.0
 32
0.0
 13
1.0
 23
0.0
 33
0.0
 40
0.0
 40
0.0
 40
0.0
 40
0.0
 40
0.1428571428571428
 40
0.1428571428571428
 40
0.1428571428571428
 40
0.1428571428571428
 40
0.2857142857142857
 40
0.2857142857142857
 40
0.2857142857142857
 40
0.2857142857142857
 40
0.4285714285714285
 40
0.4285714285714285
 40
0.4285714285714285
 40
0.4285714285714285
 40
0.5714285714285714
 40
0.5714285714285714
 40
0.5714285714285714
 40
0.5714285714285714
 40
0.7142857142857143
 40
0.7142857142857143
 40
0.7142857142857143
 40
0.7142857142857143
 40
1.0
 40
1.0
 40
1.0
 40
1.0
 10
37.8564
 20
13.5279
 30
0.0
 10
36.1324
 20
17.74
 30
0.0
 10
33.5608
 20
19.8587
 30
0.0
 10
31.1448
 20
20.4645
 30
0.0
 10
31.1448
 20
20.4645
 30
0.0
 10
33.7353
 20
20.4733
 30
0.0
 10
36.3371
 20
27.9501
 30
0.0
 10
31.2601
 20
28.4989
 30
0.0
 10
31.2601
 20
28.4989
 30
0.0
 10
30.1203
 20
28.6446
 30
0.0
 10
29.0009
 20
27.4339
 30
0.0
 10
29.498
 20
26.5677
 30
0.0
 10
29.498
 20
26.5677
 30
0.0
 10
30.0192
 20
25.662
 30
0.0
 10
28.4887
 20
25.266
 30
0.0
 10
28.3724
 20
25.5772
 30
0.0
 10
28.3724
 20
25.5772
 30
0.0
 10
24.1516
 20
27.7224
 30
0.0
 10
26.9849
 20
32.7528
 30
0.0
 10
29.9762
 20
32.0712
 30
0.0
 10
29.9762
 20
32.0712
 30
0.0
 10
39.9016
 20
29.4933
 30
0.0
 10
38.6177
 20
16.1084
 30
0.0
 10
37.8564
 20
13.5279
 30
0.0
  0
ENDSEC
  0
SECTION
  2
OBJECTS
  0
DICTIONARY
  5
C
330
0
100
AcDbDictionary
281
     1
  3
ACAD_GROUP
350
D
  3
ACAD_LAYOUT
350
1A
  3
ACAD_MATERIAL
350
3B
  3
ACAD_MLEADERSTYLE
350
A5
  3
ACAD_MLINESTYLE
350
17
  3
ACAD_PLOTSETTINGS
350
19
  3
ACAD_PLOTSTYLENAME
350
E
  3
ACAD_TABLESTYLE
350
A4
  3
ACAD_VISUALSTYLE
350
2A
  0
DICTIONARY
  5
D
102
{ACAD_REACTORS
330
C
102
}
330
C
100
AcDbDictionary
281
     1
  0
DICTIONARY
  5
1A
102
{ACAD_REACTORS
330
C
102
}
330
C
100
AcDbDictionary
281
     1
  3
Layout1
350
1E
  3
Layout2
350
26
  3
Model
350
22
  0
DICTIONARY
  5
3B
102
{ACAD_REACTORS
330
C
102
}
330
C
100
AcDbDictionary
281
     1
  3
ByBlock
350
3D
  3
ByLayer
350
3C
  3
Global
350
3E
  0
DICTIONARY
  5
A5
102
{ACAD_REACTORS
330
C
102
}
330
C
100
AcDbDictionary
281
     1
  0
DICTIONARY
  5
17
102
{ACAD_REACTORS
330
C
102
}
330
C
100
AcDbDictionary
281
     1
  3
Standard
350
18
  0
DICTIONARY
  5
19
102
{ACAD_REACTORS
330
C
102
}
330
C
100
AcDbDictionary
281
     1
  0
ACDBDICTIONARYWDFLT
  5
E
102
{ACAD_REACTORS
330
C
102
}
330
C
100
AcDbDictionary
281
     1
  3
Normal
350
F
100
AcDbDictionaryWithDefault
340
F
  0
DICTIONARY
  5
A4
102
{ACAD_REACTORS
330
C
102
}
330
C
100
AcDbDictionary
281
     1
  0
DICTIONARY
  5
2A
102
{ACAD_REACTORS
330
C
102
}
330
C
100
AcDbDictionary
281
     1
  3
2dWireframe
350
2F
  3
3D Hidden
350
31
  3
3dWireframe
350
30
  3
Basic
350
32
  3
Brighten
350
36
  3
ColorChange
350
3A
  3
Conceptual
350
34
  3
Dim
350
35
  3
Facepattern
350
39
  3
Flat
350
2B
  3
FlatWithEdges
350
2C
  3
Gouraud
350
2D
  3
GouraudWithEdges
350
2E
  3
Linepattern
350
38
  3
Realistic
350
33
  3
Thicken
350
37
  0
LAYOUT
  5
1E
102
{ACAD_REACTORS
330
1A
102
}
330
1A
100
AcDbPlotSettings
  1

  2
none_device
  4

  6

 40
0.0
 41
0.0
 42
0.0
 43
0.0
 44
0.0
 45
0.0
 46
0.0
 47
0.0
 48
0.0
 49
0.0
140
0.0
141
0.0
142
1.0
143
1.0
 70
   688
 72
     0
 73
     0
 74
     5
  7

 75
    16
 76
     0
 77
     2
 78
   300
147
1.0
148
0.0
149
0.0
100
AcDbLayout
  1
Layout1
 70
     1
 71
     1
 10
0.0
 20
0.0
 11
12.0
 21
9.0
 12
0.0
 22
0.0
 32
0.0
 14
1.000000000000000E+20
 24
1.000000000000000E+20
 34
1.000000000000000E+20
 15
-1.000000000000000E+20
 25
-1.000000000000000E+20
 35
-1.000000000000000E+20
146
0.0
 13
0.0
 23
0.0
 33
0.0
 16
1.0
 26
0.0
 36
0.0
 17
0.0
 27
1.0
 37
0.0
 76
     0
330
1B
  0
LAYOUT
  5
26
102
{ACAD_REACTORS
330
1A
102
}
330
1A
100
AcDbPlotSettings
  1

  2
none_device
  4

  6

 40
0.0
 41
0.0
 42
0.0
 43
0.0
 44
0.0
 45
0.0
 46
0.0
 47
0.0
 48
0.0
 49
0.0
140
0.0
141
0.0
142
1.0
143
1.0
 70
   688
 72
     0
 73
     0
 74
     5
  7

 75
    16
 76
     0
 77
     2
 78
   300
147
1.0
148
0.0
149
0.0
100
AcDbLayout
  1
Layout2
 70
     1
 71
     2
 10
0.0
 20
0.0
 11
0.0
 21
0.0
 12
0.0
 22
0.0
 32
0.0
 14
0.0
 24
0.0
 34
0.0
 15
0.0
 25
0.0
 35
0.0
146
0.0
 13
0.0
 23
0.0
 33
0.0
 16
1.0
 26
0.0
 36
0.0
 17
0.0
 27
1.0
 37
0.0
 76
     0
330
23
  0
LAYOUT
  5
22
102
{ACAD_REACTORS
330
1A
102
}
330
1A
100
AcDbPlotSettings
  1

  2
none_device
  4

  6

 40
0.0
 41
0.0
 42
0.0
 43
0.0
 44
0.0
 45
0.0
 46
0.0
 47
0.0
 48
0.0
 49
0.0
140
0.0
141
0.0
142
1.0
143
1.0
 70
  1712
 72
     0
 73
     0
 74
     0
  7

 75
     0
 76
     0
 77
     2
 78
   300
147
1.0
148
0.0
149
0.0
100
AcDbLayout
  1
Model
 70
     1
 71
     0
 10
0.0
 20
0.0
 11
12.0
 21
9.0
 12
0.0
 22
0.0
 32
0.0
 14
-45.5583
 24
-114.8562
 34
0.0
 15
62.9761
 25
131.6423
 35
0.0
146
0.0
 13
0.0
 23
0.0
 33
0.0
 16
1.0
 26
0.0
 36
0.0
 17
0.0
 27
1.0
 37
0.0
 76
     0
330
1F
331
29
  0
MATERIAL
  5
3D
102
{ACAD_REACTORS
330
3B
102
}
330
3B
100
AcDbMaterial
  1
ByBlock
 72
     1
 94
      127
  0
MATERIAL
  5
3C
102
{ACAD_REACTORS
330
3B
102
}
330
3B
100
AcDbMaterial
  1
ByLayer
 72
     1
 94
      127
  0
MATERIAL
  5
3E
102
{ACAD_REACTORS
330
3B
102
}
330
3B
100
AcDbMaterial
  1
Global
 72
     1
 94
      127
  0
MLINESTYLE
  5
18
102
{ACAD_REACTORS
330
17
102
}
330
17
100
AcDbMlineStyle
  2
Standard
 70
     0
  3

 62
   256
 51
90.0
 52
90.0
 71
     2
 49
0.5
 62
   256
  6
BYLAYER
 49
-0.5
 62
   256
  6
BYLAYER
  0
ACDBPLACEHOLDER
  5
F
102
{ACAD_REACTORS
330
E
102
}
330
E
  0
VISUALSTYLE
  5
2F
102
{ACAD_REACTORS
330
2A
102
}
102
{ACAD_XDICTIONARY
360
8C
102
}
330
2A
100
AcDbVisualStyle
  2
2dWireframe
 70
     4
 71
     0
 72
     2
 73
     0
 90
        0
 40
-0.6
 41
-30.0
 62
     5
 63
     7
421
 16777215
 74
     1
 91
        4
 64
     7
 65
   257
 75
     1
175
     1
 42
1.0
 92
        0
 66
   257
 43
1.0
 76
     1
 77
     6
 78
     2
 67
     7
 79
     5
170
     0
171
     0
290
     0
174
     0
 93
        1
 44
0.0
173
     0
291
     0
 45
0.0
  0
VISUALSTYLE
  5
31
102
{ACAD_REACTORS
330
2A
102
}
102
{ACAD_XDICTIONARY
360
90
102
}
330
2A
100
AcDbVisualStyle
  2
3D Hidden
 70
     6
 71
     1
 72
     2
 73
     2
 90
        0
 40
-0.6
 41
-30.0
 62
     5
 63
     7
421
 16777215
 74
     2
 91
        2
 64
     7
 65
   257
 75
     2
175
     1
 42
40.0
 92
        0
 66
   257
 43
1.0
 76
     1
 77
     6
 78
     2
 67
     7
 79
     3
170
     0
171
     0
290
     0
174
     0
 93
        1
 44
0.0
173
     0
291
     0
 45
0.0
  0
VISUALSTYLE
  5
30
102
{ACAD_REACTORS
330
2A
102
}
102
{ACAD_XDICTIONARY
360
8E
102
}
330
2A
100
AcDbVisualStyle
  2
3dWireframe
 70
     5
 71
     0
 72
     2
 73
     0
 90
        0
 40
-0.6
 41
-30.0
 62
     5
 63
     7
421
 16777215
 74
     1
 91
        4
 64
     7
 65
   257
 75
     1
175
     1
 42
1.0
 92
        0
 66
   257
 43
1.0
 76
     1
 77
     6
 78
     2
 67
     7
 79
     5
170
     0
171
     0
290
     0
174
     0
 93
        1
 44
0.0
173
     0
291
     0
 45
0.0
  0
VISUALSTYLE
  5
32
102
{ACAD_REACTORS
330
2A
102
}
102
{ACAD_XDICTIONARY
360
92
102
}
330
2A
100
AcDbVisualStyle
  2
Basic
 70
     7
 71
     1
 72
     0
 73
     1
 90
        0
 40
-0.6
 41
-30.0
 62
     5
 63
     7
421
 16777215
 74
     0
 91
        4
 64
     7
 65
   257
 75
     1
175
     1
 42
1.0
 92
        8
 66
     7
 43
1.0
 76
     1
 77
     6
 78
     2
 67
     7
 79
     5
170
     0
171
     0
290
     0
174
     0
 93
        1
 44
0.0
173
     0
291
     1
 45
0.0
  0
VISUALSTYLE
  5
36
102
{ACAD_REACTORS
330
2A
102
}
102
{ACAD_XDICTIONARY
360
9A
102
}
330
2A
100
AcDbVisualStyle
  2
Brighten
 70
    12
 71
     2
 72
     2
 73
     0
 90
        0
 40
-0.6
 41
-30.0
 62
     5
 63
     7
421
 16777215
 74
     1
 91
        4
 64
     7
 65
   257
 75
     1
175
     1
 42
1.0
 92
        8
 66
     7
 43
1.0
 76
     1
 77
     6
 78
     2
 67
     7
 79
     5
170
     0
171
     0
290
     0
174
     0
 93
        1
 44
50.0
173
     0
291
     1
 45
0.0
  0
VISUALSTYLE
  5
3A
102
{ACAD_REACTORS
330
2A
102
}
102
{ACAD_XDICTIONARY
360
A2
102
}
330
2A
100
AcDbVisualStyle
  2
ColorChange
 70
    16
 71
     2
 72
     2
 73
     3
 90
        0
 40
-0.6
 41
-30.0
 62
     5
 63
     8
421
  8421504
 74
     1
 91
        4
 64
     7
 65
   257
 75
     1
175
     1
 42
1.0
 92
        8
 66
     8
424
  8421504
 43
1.0
 76
     1
 77
     6
 78
     2
 67
     7
 79
     5
170
     0
171
     0
290
     0
174
     0
 93
        1
 44
0.0
173
     0
291
     1
 45
0.0
  0
VISUALSTYLE
  5
34
102
{ACAD_REACTORS
330
2A
102
}
102
{ACAD_XDICTIONARY
360
96
102
}
330
2A
100
AcDbVisualStyle
  2
Conceptual
 70
     9
 71
     3
 72
     2
 73
     0
 90
        0
 40
-0.6
 41
-30.0
 62
     5
 63
     7
421
 16777215
 74
     2
 91
        2
 64
     7
 65
   257
 75
     1
175
     1
 42
40.0
 92
        8
 66
     7
 43
1.0
 76
     1
 77
     6
 78
     2
 67
     7
 79
     3
170
     0
171
     0
290
     0
174
     0
 93
        1
 44
0.0
173
     0
291
     0
 45
0.0
  0
VISUALSTYLE
  5
35
102
{ACAD_REACTORS
330
2A
102
}
102
{ACAD_XDICTIONARY
360
98
102
}
330
2A
100
AcDbVisualStyle
  2
Dim
 70
    11
 71
     2
 72
     2
 73
     0
 90
        0
 40
-0.6
 41
-30.0
 62
     5
 63
     7
421
 16777215
 74
     1
 91
        4
 64
     7
 65
   257
 75
     1
175
     1
 42
1.0
 92
        8
 66
     7
 43
1.0
 76
     1
 77
     6
 78
     2
 67
     7
 79
     5
170
     0
171
     0
290
     0
174
     0
 93
        1
 44
-50.0
173
     0
291
     1
 45
0.0
  0
VISUALSTYLE
  5
39
102
{ACAD_REACTORS
330
2A
102
}
102
{ACAD_XDICTIONARY
360
A0
102
}
330
2A
100
AcDbVisualStyle
  2
Facepattern
 70
    15
 71
     2
 72
     2
 73
     0
 90
        0
 40
-0.6
 41
-30.0
 62
     5
 63
     7
421
 16777215
 74
     1
 91
        4
 64
     7
 65
   257
 75
     1
175
     1
 42
1.0
 92
        8
 66
     7
 43
1.0
 76
     1
 77
     6
 78
     2
 67
     7
 79
     5
170
     0
171
     0
290
     0
174
     0
 93
        1
 44
0.0
173
     0
291
     1
 45
0.0
  0
VISUALSTYLE
  5
2B
102
{ACAD_REACTORS
330
2A
102
}
102
{ACAD_XDICTIONARY
360
84
102
}
330
2A
100
AcDbVisualStyle
  2
Flat
 70
     0
 71
     2
 72
     1
 73
     1
 90
        2
 40
-0.6
 41
30.0
 62
     5
 63
     7
421
 16777215
 74
     0
 91
        4
 64
     7
 65
   257
 75
     1
175
     1
 42
1.0
 92
        8
 66
     7
 43
1.0
 76
     1
 77
     6
 78
     2
 67
     7
 79
     5
170
     0
171
     0
290
     0
174
     0
 93
       13
 44
0.0
173
     0
291
     1
 45
0.0
  0
VISUALSTYLE
  5
2C
102
{ACAD_REACTORS
330
2A
102
}
102
{ACAD_XDICTIONARY
360
86
102
}
330
2A
100
AcDbVisualStyle
  2
FlatWithEdges
 70
     1
 71
     2
 72
     1
 73
     1
 90
        2
 40
-0.6
 41
30.0
 62
     5
 63
     7
421
 16777215
 74
     1
 91
        4
 64
     7
 65
   257
 75
     1
175
     1
 42
1.0
 92
        0
 66
   257
 43
1.0
 76
     1
 77
     6
 78
     2
 67
     7
 79
     5
170
     0
171
     0
290
     0
174
     0
 93
       13
 44
0.0
173
     0
291
     1
 45
0.0
  0
VISUALSTYLE
  5
2D
102
{ACAD_REACTORS
330
2A
102
}
102
{ACAD_XDICTIONARY
360
88
102
}
330
2A
100
AcDbVisualStyle
  2
Gouraud
 70
     2
 71
     2
 72
     2
 73
     1
 90
        2
 40
-0.6
 41
30.0
 62
     5
 63
     7
421
 16777215
 74
     0
 91
        4
 64
     7
 65
   257
 75
     1
175
     1
 42
1.0
 92
        0
 66
     7
 43
1.0
 76
     1
 77
     6
 78
     2
 67
     7
 79
     5
170
     0
171
     0
290
     0
174
     0
 93
       13
 44
0.0
173
     0
291
     1
 45
0.0
  0
VISUALSTYLE
  5
2E
102
{ACAD_REACTORS
330
2A
102
}
102
{ACAD_XDICTIONARY
360
8A
102
}
330
2A
100
AcDbVisualStyle
  2
GouraudWithEdges
 70
     3
 71
     2
 72
     2
 73
     1
 90
        2
 40
-0.6
 41
30.0
 62
     5
 63
     7
421
 16777215
 74
     1
 91
        4
 64
     7
 65
   257
 75
     1
175
     1
 42
1.0
 92
        0
 66
   257
 43
1.0
 76
     1
 77
     6
 78
     2
 67
     7
 79
     5
170
     0
171
     0
290
     0
174
     0
 93
       13
 44
0.0
173
     0
291
     1
 45
0.0
  0
VISUALSTYLE
  5
38
102
{ACAD_REACTORS
330
2A
102
}
102
{ACAD_XDICTIONARY
360
9E
102
}
330
2A
100
AcDbVisualStyle
  2
Linepattern
 70
    14
 71
     2
 72
     2
 73
     0
 90
        0
 40
-0.6
 41
-30.0
 62
     5
 63
     7
421
 16777215
 74
     1
 91
        4
 64
     7
 65
   257
 75
     7
175
     7
 42
1.0
 92
        8
 66
     7
 43
1.0
 76
     1
 77
     6
 78
     2
 67
     7
 79
     5
170
     0
171
     0
290
     0
174
     0
 93
        1
 44
0.0
173
     0
291
     1
 45
0.0
  0
VISUALSTYLE
  5
33
102
{ACAD_REACTORS
330
2A
102
}
102
{ACAD_XDICTIONARY
360
94
102
}
330
2A
100
AcDbVisualStyle
  2
Realistic
 70
     8
 71
     2
 72
     2
 73
     0
 90
        0
 40
-0.6
 41
-30.0
 62
     5
 63
     7
421
 16777215
 74
     1
 91
        0
 64
     7
 65
   257
 75
     1
175
     1
 42
1.0
 92
        8
 66
     8
424
  7895160
 43
1.0
 76
     1
 77
     6
 78
     2
 67
     7
 79
     5
170
     0
171
     0
290
     0
174
     0
 93
       13
 44
0.0
173
     0
291
     0
 45
0.0
  0
VISUALSTYLE
  5
37
102
{ACAD_REACTORS
330
2A
102
}
102
{ACAD_XDICTIONARY
360
9C
102
}
330
2A
100
AcDbVisualStyle
  2
Thicken
 70
    13
 71
     2
 72
     2
 73
     0
 90
        0
 40
-0.6
 41
-30.0
 62
     5
 63
     7
421
 16777215
 74
     1
 91
        4
 64
     7
 65
   257
 75
     1
175
     1
 42
1.0
 92
       12
 66
     7
 43
1.0
 76
     1
 77
     6
 78
     2
 67
     7
 79
     5
170
     0
171
     0
290
     0
174
     0
 93
        1
 44
0.0
173
     0
291
     1
 45
0.0
  0
DICTIONARY
  5
8C
330
2F
100
AcDbDictionary
280
     1
281
     1
  3
ACAD_XREC_ROUNDTRIP
360
8D
  0
DICTIONARY
  5
90
330
31
100
AcDbDictionary
280
     1
281
     1
  3
ACAD_XREC_ROUNDTRIP
360
91
  0
DICTIONARY
  5
8E
330
30
100
AcDbDictionary
280
     1
281
     1
  3
ACAD_XREC_ROUNDTRIP
360
8F
  0
DICTIONARY
  5
92
330
32
100
AcDbDictionary
280
     1
281
     1
  3
ACAD_XREC_ROUNDTRIP
360
93
  0
DICTIONARY
  5
9A
330
36
100
AcDbDictionary
280
     1
281
     1
  3
ACAD_XREC_ROUNDTRIP
360
9B
  0
DICTIONARY
  5
A2
330
3A
100
AcDbDictionary
280
     1
281
     1
  3
ACAD_XREC_ROUNDTRIP
360
A3
  0
DICTIONARY
  5
96
330
34
100
AcDbDictionary
280
     1
281
     1
  3
ACAD_XREC_ROUNDTRIP
360
97
  0
DICTIONARY
  5
98
330
35
100
AcDbDictionary
280
     1
281
     1
  3
ACAD_XREC_ROUNDTRIP
360
99
  0
DICTIONARY
  5
A0
330
39
100
AcDbDictionary
280
     1
281
     1
  3
ACAD_XREC_ROUNDTRIP
360
A1
  0
DICTIONARY
  5
84
330
2B
100
AcDbDictionary
280
     1
281
     1
  3
ACAD_XREC_ROUNDTRIP
360
85
  0
DICTIONARY
  5
86
330
2C
100
AcDbDictionary
280
     1
281
     1
  3
ACAD_XREC_ROUNDTRIP
360
87
  0
DICTIONARY
  5
88
330
2D
100
AcDbDictionary
280
     1
281
     1
  3
ACAD_XREC_ROUNDTRIP
360
89
  0
DICTIONARY
  5
8A
330
2E
100
AcDbDictionary
280
     1
281
     1
  3
ACAD_XREC_ROUNDTRIP
360
8B
  0
DICTIONARY
  5
9E
330
38
100
AcDbDictionary
280
     1
281
     1
  3
ACAD_XREC_ROUNDTRIP
360
9F
  0
DICTIONARY
  5
94
330
33
100
AcDbDictionary
280
     1
281
     1
  3
ACAD_XREC_ROUNDTRIP
360
95
  0
DICTIONARY
  5
9C
330
37
100
AcDbDictionary
280
     1
281
     1
  3
ACAD_XREC_ROUNDTRIP
360
9D
  0
XRECORD
  5
8D
102
{ACAD_REACTORS
330
8C
102
}
330
8C
100
AcDbXrecord
280
     1
102
RTVSPropertyOp0
 70
     1
102
RTVSPropertyOp1
 70
     1
102
RTVSPropertyOp2
 70
     1
102
RTVSPropertyOp3
 70
     1
102
RTVSPropertyOp4
 70
     1
102
RTVSPropertyOp5
 70
     1
102
RTVSPropertyOp6
 70
     1
102
RTVSPropertyOp7
 70
     1
102
RTVSPropertyOp8
 70
     1
102
RTVSPropertyOp9
 70
     1
102
RTVSPropertyOp10
 70
     1
102
RTVSPropertyOp11
 70
     1
102
RTVSPropertyOp12
 70
     1
102
RTVSPropertyOp13
 70
     1
102
RTVSPropertyOp14
 70
     1
102
RTVSPropertyOp15
 70
     1
102
RTVSPropertyOp16
 70
     1
102
RTVSPropertyOp17
 70
     1
102
RTVSPropertyOp18
 70
     1
102
RTVSPropertyOp19
 70
     1
102
RTVSPropertyOp20
 70
     1
102
RTVSPropertyOp21
 70
     1
102
RTVSPropertyOp22
 70
     1
102
RTVSPropertyOp23
 70
     1
102
RTVSPropertyOp24
 70
     1
102
RTVSPropertyOp25
 70
     1
102
RTVSPropertyOp26
 70
     1
102
RTVSPropertyOp27
 70
     1
102
RTVSPropertyOp28
 70
     1
102
RTVSPropertyOp29
 70
     1
102
RTVSPropertyOp30
 70
     1
102
RTVSPropertyOp31
 70
     1
102
RTVSPropertyOp32
 70
     1
  0
XRECORD
  5
91
102
{ACAD_REACTORS
330
90
102
}
330
90
100
AcDbXrecord
280
     1
102
RTVSPropertyOp0
 70
     1
102
RTVSPropertyOp1
 70
     1
102
RTVSPropertyOp2
 70
     1
102
RTVSPropertyOp3
 70
     1
102
RTVSPropertyOp4
 70
     1
102
RTVSPropertyOp5
 70
     1
102
RTVSPropertyOp6
 70
     1
102
RTVSPropertyOp7
 70
     1
102
RTVSPropertyOp8
 70
     1
102
RTVSPropertyOp9
 70
     1
102
RTVSPropertyOp10
 70
     1
102
RTVSPropertyOp11
 70
     1
102
RTVSPropertyOp12
 70
     1
102
RTVSPropertyOp13
 70
     1
102
RTVSPropertyOp14
 70
     1
102
RTVSPropertyOp15
 70
     1
102
RTVSPropertyOp16
 70
     1
102
RTVSPropertyOp17
 70
     1
102
RTVSPropertyOp18
 70
     1
102
RTVSPropertyOp19
 70
     1
102
RTVSPropertyOp20
 70
     1
102
RTVSPropertyOp21
 70
     1
102
RTVSPropertyOp22
 70
     1
102
RTVSPropertyOp23
 70
     1
102
RTVSPropertyOp24
 70
     1
102
RTVSPropertyOp25
 70
     1
102
RTVSPropertyOp26
 70
     1
102
RTVSPropertyOp27
 70
     1
102
RTVSPropertyOp28
 70
     1
102
RTVSPropertyOp29
 70
     1
102
RTVSPropertyOp30
 70
     1
102
RTVSPropertyOp31
 70
     1
102
RTVSPropertyOp32
 70
     1
  0
XRECORD
  5
8F
102
{ACAD_REACTORS
330
8E
102
}
330
8E
100
AcDbXrecord
280
     1
102
RTVSPropertyOp0
 70
     1
102
RTVSPropertyOp1
 70
     1
102
RTVSPropertyOp2
 70
     1
102
RTVSPropertyOp3
 70
     1
102
RTVSPropertyOp4
 70
     1
102
RTVSPropertyOp5
 70
     1
102
RTVSPropertyOp6
 70
     1
102
RTVSPropertyOp7
 70
     1
102
RTVSPropertyOp8
 70
     1
102
RTVSPropertyOp9
 70
     1
102
RTVSPropertyOp10
 70
     1
102
RTVSPropertyOp11
 70
     1
102
RTVSPropertyOp12
 70
     1
102
RTVSPropertyOp13
 70
     1
102
RTVSPropertyOp14
 70
     1
102
RTVSPropertyOp15
 70
     1
102
RTVSPropertyOp16
 70
     1
102
RTVSPropertyOp17
 70
     1
102
RTVSPropertyOp18
 70
     1
102
RTVSPropertyOp19
 70
     1
102
RTVSPropertyOp20
 70
     1
102
RTVSPropertyOp21
 70
     1
102
RTVSPropertyOp22
 70
     1
102
RTVSPropertyOp23
 70
     1
102
RTVSPropertyOp24
 70
     1
102
RTVSPropertyOp25
 70
     1
102
RTVSPropertyOp26
 70
     1
102
RTVSPropertyOp27
 70
     1
102
RTVSPropertyOp28
 70
     1
102
RTVSPropertyOp29
 70
     1
102
RTVSPropertyOp30
 70
     1
102
RTVSPropertyOp31
 70
     1
102
RTVSPropertyOp32
 70
     1
  0
XRECORD
  5
93
102
{ACAD_REACTORS
330
92
102
}
330
92
100
AcDbXrecord
280
     1
102
RTVSPropertyOp0
 70
     1
102
RTVSPropertyOp1
 70
     1
102
RTVSPropertyOp2
 70
     1
102
RTVSPropertyOp3
 70
     1
102
RTVSPropertyOp4
 70
     1
102
RTVSPropertyOp5
 70
     1
102
RTVSPropertyOp6
 70
     1
102
RTVSPropertyOp7
 70
     1
102
RTVSPropertyOp8
 70
     1
102
RTVSPropertyOp9
 70
     1
102
RTVSPropertyOp10
 70
     1
102
RTVSPropertyOp11
 70
     1
102
RTVSPropertyOp12
 70
     1
102
RTVSPropertyOp13
 70
     1
102
RTVSPropertyOp14
 70
     1
102
RTVSPropertyOp15
 70
     1
102
RTVSPropertyOp16
 70
     1
102
RTVSPropertyOp17
 70
     1
102
RTVSPropertyOp18
 70
     1
102
RTVSPropertyOp19
 70
     1
102
RTVSPropertyOp20
 70
     1
102
RTVSPropertyOp21
 70
     1
102
RTVSPropertyOp22
 70
     1
102
RTVSPropertyOp23
 70
     1
102
RTVSPropertyOp24
 70
     1
102
RTVSPropertyOp25
 70
     1
102
RTVSPropertyOp26
 70
     1
102
RTVSPropertyOp27
 70
     1
102
RTVSPropertyOp28
 70
     1
102
RTVSPropertyOp29
 70
     1
102
RTVSPropertyOp30
 70
     1
102
RTVSPropertyOp31
 70
     1
102
RTVSPropertyOp32
 70
     1
  0
XRECORD
  5
9B
102
{ACAD_REACTORS
330
9A
102
}
330
9A
100
AcDbXrecord
280
     1
102
RTVSPropertyOp0
 70
     1
102
RTVSPropertyOp1
 70
     1
102
RTVSPropertyOp2
 70
     1
102
RTVSPropertyOp3
 70
     1
102
RTVSPropertyOp4
 70
     1
102
RTVSPropertyOp5
 70
     1
102
RTVSPropertyOp6
 70
     1
102
RTVSPropertyOp7
 70
     1
102
RTVSPropertyOp8
 70
     1
102
RTVSPropertyOp9
 70
     1
102
RTVSPropertyOp10
 70
     1
102
RTVSPropertyOp11
 70
     1
102
RTVSPropertyOp12
 70
     1
102
RTVSPropertyOp13
 70
     1
102
RTVSPropertyOp14
 70
     1
102
RTVSPropertyOp15
 70
     1
102
RTVSPropertyOp16
 70
     1
102
RTVSPropertyOp17
 70
     1
102
RTVSPropertyOp18
 70
     1
102
RTVSPropertyOp19
 70
     1
102
RTVSPropertyOp20
 70
     1
102
RTVSPropertyOp21
 70
     1
102
RTVSPropertyOp22
 70
     1
102
RTVSPropertyOp23
 70
     1
102
RTVSPropertyOp24
 70
     1
102
RTVSPropertyOp25
 70
     1
102
RTVSPropertyOp26
 70
     1
102
RTVSPropertyOp27
 70
     1
102
RTVSPropertyOp28
 70
     1
102
RTVSPropertyOp29
 70
     1
102
RTVSPropertyOp30
 70
     1
102
RTVSPropertyOp31
 70
     1
102
RTVSPropertyOp32
 70
     1
  0
XRECORD
  5
A3
102
{ACAD_REACTORS
330
A2
102
}
330
A2
100
AcDbXrecord
280
     1
102
RTVSPropertyOp0
 70
     1
102
RTVSPropertyOp1
 70
     1
102
RTVSPropertyOp2
 70
     1
102
RTVSPropertyOp3
 70
     1
102
RTVSPropertyOp4
 70
     1
102
RTVSPropertyOp5
 70
     1
102
RTVSPropertyOp6
 70
     1
102
RTVSPropertyOp7
 70
     1
102
RTVSPropertyOp8
 70
     1
102
RTVSPropertyOp9
 70
     1
102
RTVSPropertyOp10
 70
     1
102
RTVSPropertyOp11
 70
     1
102
RTVSPropertyOp12
 70
     1
102
RTVSPropertyOp13
 70
     1
102
RTVSPropertyOp14
 70
     1
102
RTVSPropertyOp15
 70
     1
102
RTVSPropertyOp16
 70
     1
102
RTVSPropertyOp17
 70
     1
102
RTVSPropertyOp18
 70
     1
102
RTVSPropertyOp19
 70
     1
102
RTVSPropertyOp20
 70
     1
102
RTVSPropertyOp21
 70
     1
102
RTVSPropertyOp22
 70
     1
102
RTVSPropertyOp23
 70
     1
102
RTVSPropertyOp24
 70
     1
102
RTVSPropertyOp25
 70
     1
102
RTVSPropertyOp26
 70
     1
102
RTVSPropertyOp27
 70
     1
102
RTVSPropertyOp28
 70
     1
102
RTVSPropertyOp29
 70
     1
102
RTVSPropertyOp30
 70
     1
102
RTVSPropertyOp31
 70
     1
102
RTVSPropertyOp32
 70
     1
  0
XRECORD
  5
97
102
{ACAD_REACTORS
330
96
102
}
330
96
100
AcDbXrecord
280
     1
102
RTVSPropertyOp0
 70
     1
102
RTVSPropertyOp1
 70
     1
102
RTVSPropertyOp2
 70
     1
102
RTVSPropertyOp3
 70
     1
102
RTVSPropertyOp4
 70
     1
102
RTVSPropertyOp5
 70
     1
102
RTVSPropertyOp6
 70
     1
102
RTVSPropertyOp7
 70
     1
102
RTVSPropertyOp8
 70
     1
102
RTVSPropertyOp9
 70
     1
102
RTVSPropertyOp10
 70
     1
102
RTVSPropertyOp11
 70
     1
102
RTVSPropertyOp12
 70
     1
102
RTVSPropertyOp13
 70
     1
102
RTVSPropertyOp14
 70
     1
102
RTVSPropertyOp15
 70
     1
102
RTVSPropertyOp16
 70
     1
102
RTVSPropertyOp17
 70
     1
102
RTVSPropertyOp18
 70
     1
102
RTVSPropertyOp19
 70
     1
102
RTVSPropertyOp20
 70
     1
102
RTVSPropertyOp21
 70
     1
102
RTVSPropertyOp22
 70
     1
102
RTVSPropertyOp23
 70
     1
102
RTVSPropertyOp24
 70
     1
102
RTVSPropertyOp25
 70
     1
102
RTVSPropertyOp26
 70
     1
102
RTVSPropertyOp27
 70
     1
102
RTVSPropertyOp28
 70
     1
102
RTVSPropertyOp29
 70
     1
102
RTVSPropertyOp30
 70
     1
102
RTVSPropertyOp31
 70
     1
102
RTVSPropertyOp32
 70
     1
  0
XRECORD
  5
99
102
{ACAD_REACTORS
330
98
102
}
330
98
100
AcDbXrecord
280
     1
102
RTVSPropertyOp0
 70
     1
102
RTVSPropertyOp1
 70
     1
102
RTVSPropertyOp2
 70
     1
102
RTVSPropertyOp3
 70
     1
102
RTVSPropertyOp4
 70
     1
102
RTVSPropertyOp5
 70
     1
102
RTVSPropertyOp6
 70
     1
102
RTVSPropertyOp7
 70
     1
102
RTVSPropertyOp8
 70
     1
102
RTVSPropertyOp9
 70
     1
102
RTVSPropertyOp10
 70
     1
102
RTVSPropertyOp11
 70
     1
102
RTVSPropertyOp12
 70
     1
102
RTVSPropertyOp13
 70
     1
102
RTVSPropertyOp14
 70
     1
102
RTVSPropertyOp15
 70
     1
102
RTVSPropertyOp16
 70
     1
102
RTVSPropertyOp17
 70
     1
102
RTVSPropertyOp18
 70
     1
102
RTVSPropertyOp19
 70
     1
102
RTVSPropertyOp20
 70
     1
102
RTVSPropertyOp21
 70
     1
102
RTVSPropertyOp22
 70
     1
102
RTVSPropertyOp23
 70
     1
102
RTVSPropertyOp24
 70
     1
102
RTVSPropertyOp25
 70
     1
102
RTVSPropertyOp26
 70
     1
102
RTVSPropertyOp27
 70
     1
102
RTVSPropertyOp28
 70
     1
102
RTVSPropertyOp29
 70
     1
102
RTVSPropertyOp30
 70
     1
102
RTVSPropertyOp31
 70
     1
102
RTVSPropertyOp32
 70
     1
  0
XRECORD
  5
A1
102
{ACAD_REACTORS
330
A0
102
}
330
A0
100
AcDbXrecord
280
     1
102
RTVSPropertyOp0
 70
     1
102
RTVSPropertyOp1
 70
     1
102
RTVSPropertyOp2
 70
     1
102
RTVSPropertyOp3
 70
     1
102
RTVSPropertyOp4
 70
     1
102
RTVSPropertyOp5
 70
     1
102
RTVSPropertyOp6
 70
     1
102
RTVSPropertyOp7
 70
     1
102
RTVSPropertyOp8
 70
     1
102
RTVSPropertyOp9
 70
     1
102
RTVSPropertyOp10
 70
     1
102
RTVSPropertyOp11
 70
     1
102
RTVSPropertyOp12
 70
     1
102
RTVSPropertyOp13
 70
     1
102
RTVSPropertyOp14
 70
     1
102
RTVSPropertyOp15
 70
     1
102
RTVSPropertyOp16
 70
     1
102
RTVSPropertyOp17
 70
     1
102
RTVSPropertyOp18
 70
     1
102
RTVSPropertyOp19
 70
     1
102
RTVSPropertyOp20
 70
     1
102
RTVSPropertyOp21
 70
     1
102
RTVSPropertyOp22
 70
     1
102
RTVSPropertyOp23
 70
     1
102
RTVSPropertyOp24
 70
     1
102
RTVSPropertyOp25
 70
     1
102
RTVSPropertyOp26
 70
     1
102
RTVSPropertyOp27
 70
     1
102
RTVSPropertyOp28
 70
     1
102
RTVSPropertyOp29
 70
     1
102
RTVSPropertyOp30
 70
     1
102
RTVSPropertyOp31
 70
     1
102
RTVSPropertyOp32
 70
     1
  0
XRECORD
  5
85
102
{ACAD_REACTORS
330
84
102
}
330
84
100
AcDbXrecord
280
     1
102
RTVSPropertyOp0
 70
     1
102
RTVSPropertyOp1
 70
     1
102
RTVSPropertyOp2
 70
     1
102
RTVSPropertyOp3
 70
     1
102
RTVSPropertyOp4
 70
     1
102
RTVSPropertyOp5
 70
     1
102
RTVSPropertyOp6
 70
     1
102
RTVSPropertyOp7
 70
     1
102
RTVSPropertyOp8
 70
     1
102
RTVSPropertyOp9
 70
     1
102
RTVSPropertyOp10
 70
     1
102
RTVSPropertyOp11
 70
     1
102
RTVSPropertyOp12
 70
     1
102
RTVSPropertyOp13
 70
     1
102
RTVSPropertyOp14
 70
     1
102
RTVSPropertyOp15
 70
     1
102
RTVSPropertyOp16
 70
     1
102
RTVSPropertyOp17
 70
     1
102
RTVSPropertyOp18
 70
     1
102
RTVSPropertyOp19
 70
     1
102
RTVSPropertyOp20
 70
     1
102
RTVSPropertyOp21
 70
     1
102
RTVSPropertyOp22
 70
     1
102
RTVSPropertyOp23
 70
     1
102
RTVSPropertyOp24
 70
     1
102
RTVSPropertyOp25
 70
     1
102
RTVSPropertyOp26
 70
     1
102
RTVSPropertyOp27
 70
     1
102
RTVSPropertyOp28
 70
     1
102
RTVSPropertyOp29
 70
     1
102
RTVSPropertyOp30
 70
     1
102
RTVSPropertyOp31
 70
     1
102
RTVSPropertyOp32
 70
     1
  0
XRECORD
  5
87
102
{ACAD_REACTORS
330
86
102
}
330
86
100
AcDbXrecord
280
     1
102
RTVSPropertyOp0
 70
     1
102
RTVSPropertyOp1
 70
     1
102
RTVSPropertyOp2
 70
     1
102
RTVSPropertyOp3
 70
     1
102
RTVSPropertyOp4
 70
     1
102
RTVSPropertyOp5
 70
     1
102
RTVSPropertyOp6
 70
     1
102
RTVSPropertyOp7
 70
     1
102
RTVSPropertyOp8
 70
     1
102
RTVSPropertyOp9
 70
     1
102
RTVSPropertyOp10
 70
     1
102
RTVSPropertyOp11
 70
     1
102
RTVSPropertyOp12
 70
     1
102
RTVSPropertyOp13
 70
     1
102
RTVSPropertyOp14
 70
     1
102
RTVSPropertyOp15
 70
     1
102
RTVSPropertyOp16
 70
     1
102
RTVSPropertyOp17
 70
     1
102
RTVSPropertyOp18
 70
     1
102
RTVSPropertyOp19
 70
     1
102
RTVSPropertyOp20
 70
     1
102
RTVSPropertyOp21
 70
     1
102
RTVSPropertyOp22
 70
     1
102
RTVSPropertyOp23
 70
     1
102
RTVSPropertyOp24
 70
     1
102
RTVSPropertyOp25
 70
     1
102
RTVSPropertyOp26
 70
     1
102
RTVSPropertyOp27
 70
     1
102
RTVSPropertyOp28
 70
     1
102
RTVSPropertyOp29
 70
     1
102
RTVSPropertyOp30
 70
     1
102
RTVSPropertyOp31
 70
     1
102
RTVSPropertyOp32
 70
     1
  0
XRECORD
  5
89
102
{ACAD_REACTORS
330
88
102
}
330
88
100
AcDbXrecord
280
     1
102
RTVSPropertyOp0
 70
     1
102
RTVSPropertyOp1
 70
     1
102
RTVSPropertyOp2
 70
     1
102
RTVSPropertyOp3
 70
     1
102
RTVSPropertyOp4
 70
     1
102
RTVSPropertyOp5
 70
     1
102
RTVSPropertyOp6
 70
     1
102
RTVSPropertyOp7
 70
     1
102
RTVSPropertyOp8
 70
     1
102
RTVSPropertyOp9
 70
     1
102
RTVSPropertyOp10
 70
     1
102
RTVSPropertyOp11
 70
     1
102
RTVSPropertyOp12
 70
     1
102
RTVSPropertyOp13
 70
     1
102
RTVSPropertyOp14
 70
     1
102
RTVSPropertyOp15
 70
     1
102
RTVSPropertyOp16
 70
     1
102
RTVSPropertyOp17
 70
     1
102
RTVSPropertyOp18
 70
     1
102
RTVSPropertyOp19
 70
     1
102
RTVSPropertyOp20
 70
     1
102
RTVSPropertyOp21
 70
     1
102
RTVSPropertyOp22
 70
     1
102
RTVSPropertyOp23
 70
     1
102
RTVSPropertyOp24
 70
     1
102
RTVSPropertyOp25
 70
     1
102
RTVSPropertyOp26
 70
     1
102
RTVSPropertyOp27
 70
     1
102
RTVSPropertyOp28
 70
     1
102
RTVSPropertyOp29
 70
     1
102
RTVSPropertyOp30
 70
     1
102
RTVSPropertyOp31
 70
     1
102
RTVSPropertyOp32
 70
     1
  0
XRECORD
  5
8B
102
{ACAD_REACTORS
330
8A
102
}
330
8A
100
AcDbXrecord
280
     1
102
RTVSPropertyOp0
 70
     1
102
RTVSPropertyOp1
 70
     1
102
RTVSPropertyOp2
 70
     1
102
RTVSPropertyOp3
 70
     1
102
RTVSPropertyOp4
 70
     1
102
RTVSPropertyOp5
 70
     1
102
RTVSPropertyOp6
 70
     1
102
RTVSPropertyOp7
 70
     1
102
RTVSPropertyOp8
 70
     1
102
RTVSPropertyOp9
 70
     1
102
RTVSPropertyOp10
 70
     1
102
RTVSPropertyOp11
 70
     1
102
RTVSPropertyOp12
 70
     1
102
RTVSPropertyOp13
 70
     1
102
RTVSPropertyOp14
 70
     1
102
RTVSPropertyOp15
 70
     1
102
RTVSPropertyOp16
 70
     1
102
RTVSPropertyOp17
 70
     1
102
RTVSPropertyOp18
 70
     1
102
RTVSPropertyOp19
 70
     1
102
RTVSPropertyOp20
 70
     1
102
RTVSPropertyOp21
 70
     1
102
RTVSPropertyOp22
 70
     1
102
RTVSPropertyOp23
 70
     1
102
RTVSPropertyOp24
 70
     1
102
RTVSPropertyOp25
 70
     1
102
RTVSPropertyOp26
 70
     1
102
RTVSPropertyOp27
 70
     1
102
RTVSPropertyOp28
 70
     1
102
RTVSPropertyOp29
 70
     1
102
RTVSPropertyOp30
 70
     1
102
RTVSPropertyOp31
 70
     1
102
RTVSPropertyOp32
 70
     1
  0
XRECORD
  5
9F
102
{ACAD_REACTORS
330
9E
102
}
330
9E
100
AcDbXrecord
280
     1
102
RTVSPropertyOp0
 70
     1
102
RTVSPropertyOp1
 70
     1
102
RTVSPropertyOp2
 70
     1
102
RTVSPropertyOp3
 70
     1
102
RTVSPropertyOp4
 70
     1
102
RTVSPropertyOp5
 70
     1
102
RTVSPropertyOp6
 70
     1
102
RTVSPropertyOp7
 70
     1
102
RTVSPropertyOp8
 70
     1
102
RTVSPropertyOp9
 70
     1
102
RTVSPropertyOp10
 70
     1
102
RTVSPropertyOp11
 70
     1
102
RTVSPropertyOp12
 70
     1
102
RTVSPropertyOp13
 70
     1
102
RTVSPropertyOp14
 70
     1
102
RTVSPropertyOp15
 70
     1
102
RTVSPropertyOp16
 70
     1
102
RTVSPropertyOp17
 70
     1
102
RTVSPropertyOp18
 70
     1
102
RTVSPropertyOp19
 70
     1
102
RTVSPropertyOp20
 70
     1
102
RTVSPropertyOp21
 70
     1
102
RTVSPropertyOp22
 70
     1
102
RTVSPropertyOp23
 70
     1
102
RTVSPropertyOp24
 70
     1
102
RTVSPropertyOp25
 70
     1
102
RTVSPropertyOp26
 70
     1
102
RTVSPropertyOp27
 70
     1
102
RTVSPropertyOp28
 70
     1
102
RTVSPropertyOp29
 70
     1
102
RTVSPropertyOp30
 70
     1
102
RTVSPropertyOp31
 70
     1
102
RTVSPropertyOp32
 70
     1
  0
XRECORD
  5
95
102
{ACAD_REACTORS
330
94
102
}
330
94
100
AcDbXrecord
280
     1
102
RTVSPropertyOp0
 70
     1
102
RTVSPropertyOp1
 70
     1
102
RTVSPropertyOp2
 70
     1
102
RTVSPropertyOp3
 70
     1
102
RTVSPropertyOp4
 70
     1
102
RTVSPropertyOp5
 70
     1
102
RTVSPropertyOp6
 70
     1
102
RTVSPropertyOp7
 70
     1
102
RTVSPropertyOp8
 70
     1
102
RTVSPropertyOp9
 70
     1
102
RTVSPropertyOp10
 70
     1
102
RTVSPropertyOp11
 70
     1
102
RTVSPropertyOp12
 70
     1
102
RTVSPropertyOp13
 70
     1
102
RTVSPropertyOp14
 70
     1
102
RTVSPropertyOp15
 70
     1
102
RTVSPropertyOp16
 70
     1
102
RTVSPropertyOp17
 70
     1
102
RTVSPropertyOp18
 70
     1
102
RTVSPropertyOp19
 70
     1
102
RTVSPropertyOp20
 70
     1
102
RTVSPropertyOp21
 70
     1
102
RTVSPropertyOp22
 70
     1
102
RTVSPropertyOp23
 70
     1
102
RTVSPropertyOp24
 70
     1
102
RTVSPropertyOp25
 70
     1
102
RTVSPropertyOp26
 70
     1
102
RTVSPropertyOp27
 70
     1
102
RTVSPropertyOp28
 70
     1
102
RTVSPropertyOp29
 70
     1
102
RTVSPropertyOp30
 70
     1
102
RTVSPropertyOp31
 70
     1
102
RTVSPropertyOp32
 70
     1
  0
XRECORD
  5
9D
102
{ACAD_REACTORS
330
9C
102
}
330
9C
100
AcDbXrecord
280
     1
102
RTVSPropertyOp0
 70
     1
102
RTVSPropertyOp1
 70
     1
102
RTVSPropertyOp2
 70
     1
102
RTVSPropertyOp3
 70
     1
102
RTVSPropertyOp4
 70
     1
102
RTVSPropertyOp5
 70
     1
102
RTVSPropertyOp6
 70
     1
102
RTVSPropertyOp7
 70
     1
102
RTVSPropertyOp8
 70
     1
102
RTVSPropertyOp9
 70
     1
102
RTVSPropertyOp10
 70
     1
102
RTVSPropertyOp11
 70
     1
102
RTVSPropertyOp12
 70
     1
102
RTVSPropertyOp13
 70
     1
102
RTVSPropertyOp14
 70
     1
102
RTVSPropertyOp15
 70
     1
102
RTVSPropertyOp16
 70
     1
102
RTVSPropertyOp17
 70
     1
102
RTVSPropertyOp18
 70
     1
102
RTVSPropertyOp19
 70
     1
102
RTVSPropertyOp20
 70
     1
102
RTVSPropertyOp21
 70
     1
102
RTVSPropertyOp22
 70
     1
102
RTVSPropertyOp23
 70
     1
102
RTVSPropertyOp24
 70
     1
102
RTVSPropertyOp25
 70
     1
102
RTVSPropertyOp26
 70
     1
102
RTVSPropertyOp27
 70
     1
102
RTVSPropertyOp28
 70
     1
102
RTVSPropertyOp29
 70
     1
102
RTVSPropertyOp30
 70
     1
102
RTVSPropertyOp31
 70
     1
102
RTVSPropertyOp32
 70
     1
  0
ENDSEC
  0
EOF
