  0
SECTION
  2
HEADER
  9
$ACADVER
  1
AC1021
  9
$ACADMAINTVER
 70
    25
  9
$DWGCODEPAGE
  3
ANSI_1252
  9
$INSBASE
 10
0.0
 20
0.0
 30
0.0
  9
$EXTMIN
 10
-187.6278
 20
-115.0992
 30
0.0
  9
$EXTMAX
 10
-78.0223
 20
131.8981
 30
0.0
  9
$LIMMIN
 10
0.0
 20
0.0
  9
$LIMMAX
 10
12.0
 20
9.0
  9
$ORTHOMODE
 70
     0
  9
$REGENMODE
 70
     1
  9
$FILLMODE
 70
     1
  9
$QTEXTMODE
 70
     0
  9
$MIRRTEXT
 70
     1
  9
$LTSCALE
 40
1.0
  9
$ATTMODE
 70
     1
  9
$TEXTSIZE
 40
0.2
  9
$TRACEWID
 40
0.05
  9
$TEXTSTYLE
  7
Standard
  9
$CLAYER
  8
0
  9
$CELTYPE
  6
ByLayer
  9
$CECOLOR
 62
   256
  9
$CELTSCALE
 40
1.0
  9
$DISPSILH
 70
     0
  9
$DIMSCALE
 40
1.0
  9
$DIMASZ
 40
0.18
  9
$DIMEXO
 40
0.0625
  9
$DIMDLI
 40
0.38
  9
$DIMRND
 40
0.0
  9
$DIMDLE
 40
0.0
  9
$DIMEXE
 40
0.18
  9
$DIMTP
 40
0.0
  9
$DIMTM
 40
0.0
  9
$DIMTXT
 40
0.18
  9
$DIMCEN
 40
0.09
  9
$DIMTSZ
 40
0.0
  9
$DIMTOL
 70
     0
  9
$DIMLIM
 70
     0
  9
$DIMTIH
 70
     1
  9
$DIMTOH
 70
     1
  9
$DIMSE1
 70
     0
  9
$DIMSE2
 70
     0
  9
$DIMTAD
 70
     0
  9
$DIMZIN
 70
     0
  9
$DIMBLK
  1

  9
$DIMASO
 70
     1
  9
$DIMSHO
 70
     1
  9
$DIMPOST
  1

  9
$DIMAPOST
  1

  9
$DIMALT
 70
     0
  9
$DIMALTD
 70
     2
  9
$DIMALTF
 40
25.4
  9
$DIMLFAC
 40
1.0
  9
$DIMTOFL
 70
     0
  9
$DIMTVP
 40
0.0
  9
$DIMTIX
 70
     0
  9
$DIMSOXD
 70
     0
  9
$DIMSAH
 70
     0
  9
$DIMBLK1
  1

  9
$DIMBLK2
  1

  9
$DIMSTYLE
  2
Standard
  9
$DIMCLRD
 70
     0
  9
$DIMCLRE
 70
     0
  9
$DIMCLRT
 70
     0
  9
$DIMTFAC
 40
1.0
  9
$DIMGAP
 40
0.09
  9
$DIMJUST
 70
     0
  9
$DIMSD1
 70
     0
  9
$DIMSD2
 70
     0
  9
$DIMTOLJ
 70
     1
  9
$DIMTZIN
 70
     0
  9
$DIMALTZ
 70
     0
  9
$DIMALTTZ
 70
     0
  9
$DIMUPT
 70
     0
  9
$DIMDEC
 70
     4
  9
$DIMTDEC
 70
     4
  9
$DIMALTU
 70
     2
  9
$DIMALTTD
 70
     2
  9
$DIMTXSTY
  7
Standard
  9
$DIMAUNIT
 70
     0
  9
$DIMADEC
 70
     0
  9
$DIMALTRND
 40
0.0
  9
$DIMAZIN
 70
     0
  9
$DIMDSEP
 70
    46
  9
$DIMATFIT
 70
     3
  9
$DIMFRAC
 70
     0
  9
$DIMLDRBLK
  1

  9
$DIMLUNIT
 70
     2
  9
$DIMLWD
 70
    -2
  9
$DIMLWE
 70
    -2
  9
$DIMTMOVE
 70
     0
  9
$DIMFXL
 40
1.0
  9
$DIMFXLON
 70
     0
  9
$DIMJOGANG
 40
0.7853981633974483
  9
$DIMTFILL
 70
     0
  9
$DIMTFILLCLR
 70
     0
  9
$DIMARCSYM
 70
     0
  9
$DIMLTYPE
  6

  9
$DIMLTEX1
  6

  9
$DIMLTEX2
  6

  9
$LUNITS
 70
     2
  9
$LUPREC
 70
     4
  9
$SKETCHINC
 40
0.1
  9
$FILLETRAD
 40
0.5
  9
$AUNITS
 70
     0
  9
$AUPREC
 70
     0
  9
$MENU
  1
.
  9
$ELEVATION
 40
0.0
  9
$PELEVATION
 40
0.0
  9
$THICKNESS
 40
0.0
  9
$LIMCHECK
 70
     0
  9
$CHAMFERA
 40
0.5
  9
$CHAMFERB
 40
0.5
  9
$CHAMFERC
 40
1.0
  9
$CHAMFERD
 40
0.0
  9
$SKPOLY
 70
     0
  9
$TDCREATE
 40
2458492.55116566
  9
$TDUCREATE
 40
2458492.55116566
  9
$TDUPDATE
 40
2458492.551165706
  9
$TDUUPDATE
 40
2458492.551165706
  9
$TDINDWG
 40
0.0000000116
  9
$TDUSRTIMER
 40
0.0000000116
  9
$USRTIMER
 70
     1
  9
$ANGBASE
 50
0.0
  9
$ANGDIR
 70
     0
  9
$PDMODE
 70
     0
  9
$PDSIZE
 40
0.0
  9
$PLINEWID
 40
0.0
  9
$SPLFRAME
 70
     0
  9
$SPLINETYPE
 70
     6
  9
$SPLINESEGS
 70
     8
  9
$HANDSEED
  5
82
  9
$SURFTAB1
 70
     6
  9
$SURFTAB2
 70
     6
  9
$SURFTYPE
 70
     6
  9
$SURFU
 70
     6
  9
$SURFV
 70
     6
  9
$UCSBASE
  2

  9
$UCSNAME
  2

  9
$UCSORG
 10
0.0
 20
0.0
 30
0.0
  9
$UCSXDIR
 10
1.0
 20
0.0
 30
0.0
  9
$UCSYDIR
 10
0.0
 20
1.0
 30
0.0
  9
$UCSORTHOREF
  2

  9
$UCSORTHOVIEW
 70
     0
  9
$UCSORGTOP
 10
0.0
 20
0.0
 30
0.0
  9
$UCSORGBOTTOM
 10
0.0
 20
0.0
 30
0.0
  9
$UCSORGLEFT
 10
0.0
 20
0.0
 30
0.0
  9
$UCSORGRIGHT
 10
0.0
 20
0.0
 30
0.0
  9
$UCSORGFRONT
 10
0.0
 20
0.0
 30
0.0
  9
$UCSORGBACK
 10
0.0
 20
0.0
 30
0.0
  9
$PUCSBASE
  2

  9
$PUCSNAME
  2

  9
$PUCSORG
 10
0.0
 20
0.0
 30
0.0
  9
$PUCSXDIR
 10
1.0
 20
0.0
 30
0.0
  9
$PUCSYDIR
 10
0.0
 20
1.0
 30
0.0
  9
$PUCSORTHOREF
  2

  9
$PUCSORTHOVIEW
 70
     0
  9
$PUCSORGTOP
 10
0.0
 20
0.0
 30
0.0
  9
$PUCSORGBOTTOM
 10
0.0
 20
0.0
 30
0.0
  9
$PUCSORGLEFT
 10
0.0
 20
0.0
 30
0.0
  9
$PUCSORGRIGHT
 10
0.0
 20
0.0
 30
0.0
  9
$PUCSORGFRONT
 10
0.0
 20
0.0
 30
0.0
  9
$PUCSORGBACK
 10
0.0
 20
0.0
 30
0.0
  9
$USERI1
 70
     0
  9
$USERI2
 70
     0
  9
$USERI3
 70
     0
  9
$USERI4
 70
     0
  9
$USERI5
 70
     0
  9
$USERR1
 40
0.0
  9
$USERR2
 40
0.0
  9
$USERR3
 40
0.0
  9
$USERR4
 40
0.0
  9
$USERR5
 40
0.0
  9
$WORLDVIEW
 70
     1
  9
$SHADEDGE
 70
     3
  9
$SHADEDIF
 70
    70
  9
$TILEMODE
 70
     1
  9
$MAXACTVP
 70
    64
  9
$PINSBASE
 10
0.0
 20
0.0
 30
0.0
  9
$PLIMCHECK
 70
     0
  9
$PEXTMIN
 10
1.000000000000000E+20
 20
1.000000000000000E+20
 30
1.000000000000000E+20
  9
$PEXTMAX
 10
-1.000000000000000E+20
 20
-1.000000000000000E+20
 30
-1.000000000000000E+20
  9
$PLIMMIN
 10
0.0
 20
0.0
  9
$PLIMMAX
 10
12.0
 20
9.0
  9
$UNITMODE
 70
     0
  9
$VISRETAIN
 70
     1
  9
$PLINEGEN
 70
     0
  9
$PSLTSCALE
 70
     1
  9
$TREEDEPTH
 70
  3020
  9
$CMLSTYLE
  2
Standard
  9
$CMLJUST
 70
     0
  9
$CMLSCALE
 40
1.0
  9
$PROXYGRAPHICS
 70
     1
  9
$MEASUREMENT
 70
     0
  9
$CELWEIGHT
370
    -1
  9
$ENDCAPS
280
     0
  9
$JOINSTYLE
280
     0
  9
$LWDISPLAY
290
     0
  9
$INSUNITS
 70
     4
  9
$HYPERLINKBASE
  1

  9
$STYLESHEET
  1

  9
$XEDIT
290
     1
  9
$CEPSNTYPE
380
     0
  9
$PSTYLEMODE
290
     1
  9
$FINGERPRINTGUID
  2
{2B768D91-64BB-4726-B6EB-B117B98CF026}
  9
$VERSIONGUID
  2
{FAEB1C32-E019-11D5-929B-00C0DF256EC4}
  9
$EXTNAMES
290
     1
  9
$PSVPSCALE
 40
0.0
  9
$OLESTARTUP
290
     0
  9
$SORTENTS
280
   127
  9
$INDEXCTL
280
     0
  9
$HIDETEXT
280
     1
  9
$XCLIPFRAME
290
     0
  9
$HALOGAP
280
     0
  9
$OBSCOLOR
 70
   257
  9
$OBSLTYPE
280
     0
  9
$INTERSECTIONDISPLAY
280
     0
  9
$INTERSECTIONCOLOR
 70
   257
  9
$DIMASSOC
280
     2
  9
$PROJECTNAME
  1

  9
$CAMERADISPLAY
290
     0
  9
$LENSLENGTH
 40
50.0
  9
$CAMERAHEIGHT
 40
0.0
  9
$STEPSPERSEC
 40
2.0
  9
$STEPSIZE
 40
6.0
  9
$3DDWFPREC
 40
2.0
  9
$PSOLWIDTH
 40
0.25
  9
$PSOLHEIGHT
 40
4.0
  9
$LOFTANG1
 40
1.570796326794897
  9
$LOFTANG2
 40
1.570796326794897
  9
$LOFTMAG1
 40
0.0
  9
$LOFTMAG2
 40
0.0
  9
$LOFTPARAM
 70
     7
  9
$LOFTNORMALS
280
     1
  9
$LATITUDE
 40
37.795
  9
$LONGITUDE
 40
-122.394
  9
$NORTHDIRECTION
 40
0.0
  9
$TIMEZONE
 70
 -8000
  9
$LIGHTGLYPHDISPLAY
280
     1
  9
$TILEMODELIGHTSYNCH
280
     1
  9
$SOLIDHIST
280
     1
  9
$SHOWHIST
280
     1
  9
$DWFFRAME
280
     2
  9
$DGNFRAME
280
     2
  9
$REALWORLDSCALE
290
     1
  9
$INTERFERECOLOR
 62
   256
  9
$CSHADOW
280
     0
  9
$SHADOWPLANELOCATION
 40
0.0
  0
ENDSEC
  0
SECTION
  2
CLASSES
  0
CLASS
  1
ACDBDICTIONARYWDFLT
  2
AcDbDictionaryWithDefault
  3
ObjectDBX Classes
 90
        0
 91
        4
280
     0
281
     0
  0
CLASS
  1
VISUALSTYLE
  2
AcDbVisualStyle
  3
ObjectDBX Classes
 90
     4095
 91
        4
280
     0
281
     0
  0
CLASS
  1
MATERIAL
  2
AcDbMaterial
  3
ObjectDBX Classes
 90
     1153
 91
        4
280
     0
281
     0
  0
ENDSEC
  0
SECTION
  2
TABLES
  0
TABLE
  2
VPORT
  5
8
330
0
100
AcDbSymbolTable
 70
     1
  0
VPORT
  5
29
330
8
100
AcDbSymbolTableRecord
100
AcDbViewportTableRecord
  2
*Active
 70
     0
 10
0.0
 20
0.0
 11
1.0
 21
1.0
 12
10.42990654205607
 22
4.5
 13
0.0
 23
0.0
 14
0.5
 24
0.5
 15
0.5
 25
0.5
 16
0.0
 26
0.0
 36
1.0
 17
0.0
 27
0.0
 37
0.0
 40
9.0
 41
1.972972972850329
 42
50.0
 43
0.0
 44
0.0
 50
0.0
 51
0.0
 71
     0
 72
   100
 73
     1
 74
     3
 75
     0
 76
     0
 77
     0
 78
     0
281
     0
 65
     1
110
0.0
120
0.0
130
0.0
111
1.0
121
0.0
131
0.0
112
0.0
122
1.0
132
0.0
 79
     0
146
0.0
 60
     3
 61
     5
292
     1
282
     1
141
0.0
142
0.0
 63
   250
  0
ENDTAB
  0
TABLE
  2
LTYPE
  5
5
330
0
100
AcDbSymbolTable
 70
     1
  0
LTYPE
  5
14
330
5
100
AcDbSymbolTableRecord
100
AcDbLinetypeTableRecord
  2
ByBlock
 70
     0
  3

 72
    65
 73
     0
 40
0.0
  0
LTYPE
  5
15
330
5
100
AcDbSymbolTableRecord
100
AcDbLinetypeTableRecord
  2
ByLayer
 70
     0
  3

 72
    65
 73
     0
 40
0.0
  0
LTYPE
  5
16
330
5
100
AcDbSymbolTableRecord
100
AcDbLinetypeTableRecord
  2
Continuous
 70
     0
  3
Solid line
 72
    65
 73
     0
 40
0.0
  0
ENDTAB
  0
TABLE
  2
LAYER
  5
2
330
0
100
AcDbSymbolTable
 70
     3
  0
LAYER
  5
10
330
2
100
AcDbSymbolTableRecord
100
AcDbLayerTableRecord
  2
0
 70
     0
 62
     7
  6
Continuous
370
    -3
390
F
347
3E
  0
LAYER
  5
40
330
2
100
AcDbSymbolTableRecord
100
AcDbLayerTableRecord
  2
layer 1
 70
     0
 62
     7
  6
Continuous
370
    -3
390
F
347
3E
  0
LAYER
  5
5F
330
2
100
AcDbSymbolTableRecord
100
AcDbLayerTableRecord
  2
Master Guides
 70
     0
 62
     7
  6
Continuous
370
    -3
390
F
347
3E
  0
ENDTAB
  0
TABLE
  2
STYLE
  5
3
330
0
100
AcDbSymbolTable
 70
     1
  0
STYLE
  5
11
330
3
100
AcDbSymbolTableRecord
100
AcDbTextStyleTableRecord
  2
Standard
 70
     0
 40
0.0
 41
1.0
 50
0.0
 71
     0
 42
0.2
  3
txt
  4

  0
ENDTAB
  0
TABLE
  2
VIEW
  5
6
330
0
100
AcDbSymbolTable
 70
     0
  0
ENDTAB
  0
TABLE
  2
UCS
  5
7
330
0
100
AcDbSymbolTable
 70
     0
  0
ENDTAB
  0
TABLE
  2
APPID
  5
9
330
0
100
AcDbSymbolTable
 70
     2
  0
APPID
  5
12
330
9
100
AcDbSymbolTableRecord
100
AcDbRegAppTableRecord
  2
ACAD
 70
     0
  0
APPID
  5
3F
330
9
100
AcDbSymbolTableRecord
100
AcDbRegAppTableRecord
  2
ODA
 70
     0
  0
ENDTAB
  0
TABLE
  2
DIMSTYLE
  5
A
330
0
100
AcDbSymbolTable
 70
     1
100
AcDbDimStyleTable
  0
DIMSTYLE
105
27
330
A
100
AcDbSymbolTableRecord
100
AcDbDimStyleTableRecord
  2
Standard
 70
     0
178
     0
340
11
  0
ENDTAB
  0
TABLE
  2
BLOCK_RECORD
  5
1
330
0
100
AcDbSymbolTable
 70
     1
  0
BLOCK_RECORD
  5
1F
330
1
100
AcDbSymbolTableRecord
100
AcDbBlockTableRecord
  2
*Model_Space
340
22
 70
     0
280
     1
281
     0
  0
BLOCK_RECORD
  5
1B
330
1
100
AcDbSymbolTableRecord
100
AcDbBlockTableRecord
  2
*Paper_Space
340
1E
 70
     0
280
     1
281
     0
  0
BLOCK_RECORD
  5
23
330
1
100
AcDbSymbolTableRecord
100
AcDbBlockTableRecord
  2
*Paper_Space0
340
26
 70
     0
280
     1
281
     0
  0
ENDTAB
  0
ENDSEC
  0
SECTION
  2
BLOCKS
  0
BLOCK
  5
20
330
1F
100
AcDbEntity
  8
0
100
AcDbBlockBegin
  2
*Model_Space
 70
     0
 10
0.0
 20
0.0
 30
0.0
  3
*Model_Space
  1

  0
ENDBLK
  5
21
330
1F
100
AcDbEntity
  8
0
100
AcDbBlockEnd
  0
BLOCK
  5
1C
330
1B
100
AcDbEntity
 67
     1
  8
0
100
AcDbBlockBegin
  2
*Paper_Space
 70
     0
 10
0.0
 20
0.0
 30
0.0
  3
*Paper_Space
  1

  0
ENDBLK
  5
1D
330
1B
100
AcDbEntity
 67
     1
  8
0
100
AcDbBlockEnd
  0
BLOCK
  5
24
330
23
100
AcDbEntity
  8
0
100
AcDbBlockBegin
  2
*Paper_Space0
 70
     0
 10
0.0
 20
0.0
 30
0.0
  3
*Paper_Space0
  1

  0
ENDBLK
  5
25
330
23
100
AcDbEntity
  8
0
100
AcDbBlockEnd
  0
ENDSEC
  0
SECTION
  2
ENTITIES
  0
SPLINE
  5
41
330
1F
100
AcDbEntity
  8
layer 1
100
AcDbSpline
210
0.0
220
0.0
230
1.0
 70
    11
 71
     3
 72
    20
 73
    16
 74
     0
 42
0.0000000001
 43
0.0000000001
 12
1.0
 22
0.0
 32
0.0
 13
1.0
 23
0.0
 33
0.0
 40
0.0
 40
0.0
 40
0.0
 40
0.0
 40
0.2
 40
0.2
 40
0.2
 40
0.2
 40
0.4
 40
0.4
 40
0.4
 40
0.4
 40
0.6
 40
0.6
 40
0.6
 40
0.6
 40
1.0
 40
1.0
 40
1.0
 40
1.0
 10
-187.6278
 20
-115.0992
 30
0.0
 10
-187.6278
 20
-115.0992
 30
0.0
 10
-78.0223
 20
-115.0992
 30
0.0
 10
-78.0223
 20
-115.0992
 30
0.0
 10
-78.0223
 20
-115.0992
 30
0.0
 10
-78.0223
 20
-115.0992
 30
0.0
 10
-78.0223
 20
131.8981
 30
0.0
 10
-78.0223
 20
131.8981
 30
0.0
 10
-78.0223
 20
131.8981
 30
0.0
 10
-78.0223
 20
131.8981
 30
0.0
 10
-187.6278
 20
131.8981
 30
0.0
 10
-187.6278
 20
131.8981
 30
0.0
 10
-187.6278
 20
131.8981
 30
0.0
 10
-187.6278
 20
131.8981
 30
0.0
 10
-187.6278
 20
-115.0992
 30
0.0
 10
-187.6278
 20
-115.0992
 30
0.0
  0
SPLINE
  5
42
330
1F
100
AcDbEntity
  8
layer 1
 62
     7
370
    53
100
AcDbSpline
210
0.0
220
0.0
230
1.0
 70
    11
 71
     3
 72
    80
 73
    76
 74
     0
 42
0.0000000001
 43
0.0000000001
 12
1.0
 22
0.0
 32
0.0
 13
1.0
 23
0.0
 33
0.0
 40
0.0
 40
0.0
 40
0.0
 40
0.0
 40
0.05
 40
0.05
 40
0.05
 40
0.05
 40
0.1
 40
0.1
 40
0.1
 40
0.1
 40
0.15
 40
0.15
 40
0.15
 40
0.15
 40
0.2
 40
0.2
 40
0.2
 40
0.2
 40
0.25
 40
0.25
 40
0.25
 40
0.25
 40
0.3
 40
0.3
 40
0.3
 40
0.3
 40
0.35
 40
0.35
 40
0.35
 40
0.35
 40
0.4
 40
0.4
 40
0.4
 40
0.4
 40
0.45
 40
0.45
 40
0.45
 40
0.45
 40
0.5
 40
0.5
 40
0.5
 40
0.5
 40
0.55
 40
0.55
 40
0.55
 40
0.55
 40
0.6
 40
0.6
 40
0.6
 40
0.6
 40
0.65
 40
0.65
 40
0.65
 40
0.65
 40
0.7
 40
0.7
 40
0.7
 40
0.7
 40
0.75
 40
0.75
 40
0.75
 40
0.75
 40
0.8
 40
0.8
 40
0.8
 40
0.8
 40
0.85
 40
0.85
 40
0.85
 40
0.85
 40
0.9
 40
0.9
 40
0.9
 40
0.9
 40
1.0
 40
1.0
 40
1.0
 40
1.0
 10
-179.3717
 20
122.429
 30
0.0
 10
-170.8618
 20
122.429
 30
0.0
 10
-137.3956
 20
122.429
 30
0.0
 10
-128.8857
 20
122.429
 30
0.0
 10
-128.8857
 20
122.429
 30
0.0
 10
-133.3904
 20
118.6995
 30
0.0
 10
-134.3308
 20
113.9362
 30
0.0
 10
-133.5161
 20
108.6756
 30
0.0
 10
-133.5161
 20
108.6756
 30
0.0
 10
-136.6008
 20
113.544
 30
0.0
 10
-144.8236
 20
116.1687
 30
0.0
 10
-149.3782
 20
114.3585
 30
0.0
 10
-149.3782
 20
114.3585
 30
0.0
 10
-145.3949
 20
112.404
 30
0.0
 10
-141.4819
 20
107.2277
 30
0.0
 10
-141.8361
 20
106.4064
 30
0.0
 10
-141.8361
 20
106.4064
 30
0.0
 10
-143.1552
 20
106.9258
 30
0.0
 10
-144.4967
 20
107.4156
 30
0.0
 10
-146.1027
 20
107.086
 30
0.0
 10
-146.1027
 20
107.086
 30
0.0
 10
-144.5748
 20
103.4442
 30
0.0
 10
-141.4824
 20
103.8639
 30
0.0
 10
-139.9985
 20
99.8613
 30
0.0
 10
-139.9985
 20
99.8613
 30
0.0
 10
-150.4002
 20
101.1897
 30
0.0
 10
-152.2223
 20
96.5162
 30
0.0
 10
-160.5891
 20
99.1178
 30
0.0
 10
-160.5891
 20
99.1178
 30
0.0
 10
-160.2561
 20
97.0729
 30
0.0
 10
-158.2572
 20
93.6701
 30
0.0
 10
-155.3118
 20
92.3937
 30
0.0
 10
-155.3118
 20
92.3937
 30
0.0
 10
-163.5184
 20
91.5532
 30
0.0
 10
-162.7986
 20
81.3112
 30
0.0
 10
-174.3291
 20
80.9602
 30
0.0
 10
-174.3291
 20
80.9602
 30
0.0
 10
-170.3306
 20
77.247
 30
0.0
 10
-164.4657
 20
79.0026
 30
0.0
 10
-162.8888
 20
80.238
 30
0.0
 10
-162.8888
 20
80.238
 30
0.0
 10
-163.3336
 20
78.3111
 30
0.0
 10
-165.0832
 20
77.2532
 30
0.0
 10
-167.041
 20
75.6209
 30
0.0
 10
-167.041
 20
75.6209
 30
0.0
 10
-166.8727
 20
75.08
 30
0.0
 10
-162.8566
 20
74.2814
 30
0.0
 10
-159.9207
 20
76.0606
 30
0.0
 10
-159.9207
 20
76.0606
 30
0.0
 10
-164.8441
 20
72.6076
 30
0.0
 10
-163.2485
 20
63.3236
 30
0.0
 10
-171.0181
 20
57.3305
 30
0.0
 10
-171.0181
 20
57.3305
 30
0.0
 10
-170.231
 20
56.3456
 30
0.0
 10
-166.4872
 20
55.8033
 30
0.0
 10
-164.2874
 20
57.703
 30
0.0
 10
-164.2874
 20
57.703
 30
0.0
 10
-168.1052
 20
52.6635
 30
0.0
 10
-164.2029
 20
42.82
 30
0.0
 10
-173.742
 20
37.3689
 30
0.0
 10
-173.742
 20
37.3689
 30
0.0
 10
-170.7798
 20
36.2121
 30
0.0
 10
-166.4332
 20
36.3815
 30
0.0
 10
-164.717
 20
38.314
 30
0.0
 10
-164.717
 20
38.314
 30
0.0
 10
-165.0137
 20
29.8824
 30
0.0
 10
-170.3713
 20
19.4173
 30
0.0
 10
-179.3716
 20
21.2503
 30
0.0
 10
-179.3716
 20
21.2503
 30
0.0
 10
-179.3716
 20
31.2209
 30
0.0
 10
-179.3716
 20
112.4581
 30
0.0
 10
-179.3716
 20
122.4287
 30
0.0
 10
-179.3716
 20
122.4287
 30
0.0
 10
-179.3716
 20
122.4287
 30
0.0
 10
-179.3717
 20
122.429
 30
0.0
 10
-179.3717
 20
122.429
 30
0.0
  0
SPLINE
  5
43
330
1F
100
AcDbEntity
  8
layer 1
 62
     7
370
    53
100
AcDbSpline
210
0.0
220
0.0
230
1.0
 70
    11
 71
     3
 72
    16
 73
    12
 74
     0
 42
0.0000000001
 43
0.0000000001
 12
1.0
 22
0.0
 32
0.0
 13
1.0
 23
0.0
 33
0.0
 40
0.0
 40
0.0
 40
0.0
 40
0.0
 40
0.25
 40
0.25
 40
0.25
 40
0.25
 40
0.5
 40
0.5
 40
0.5
 40
0.5
 40
1.0
 40
1.0
 40
1.0
 40
1.0
 10
-133.8914
 20
91.3096
 30
0.0
 10
-146.8016
 20
87.0752
 30
0.0
 10
-153.8217
 20
70.7383
 30
0.0
 10
-153.2254
 20
59.508
 30
0.0
 10
-153.2254
 20
59.508
 30
0.0
 10
-152.9127
 20
53.618
 30
0.0
 10
-153.0012
 20
50.8503
 30
0.0
 10
-154.8092
 20
47.8062
 30
0.0
 10
-154.8092
 20
47.8062
 30
0.0
 10
-158.5475
 20
58.5819
 30
0.0
 10
-156.2334
 20
90.8535
 30
0.0
 10
-133.8914
 20
91.3096
 30
0.0
  0
SPLINE
  5
44
330
1F
100
AcDbEntity
  8
layer 1
 62
     7
370
    53
100
AcDbSpline
210
0.0
220
0.0
230
1.0
 70
    11
 71
     3
 72
    16
 73
    12
 74
     0
 42
0.0000000001
 43
0.0000000001
 12
1.0
 22
0.0
 32
0.0
 13
1.0
 23
0.0
 33
0.0
 40
0.0
 40
0.0
 40
0.0
 40
0.0
 40
0.25
 40
0.25
 40
0.25
 40
0.25
 40
0.5
 40
0.5
 40
0.5
 40
0.5
 40
1.0
 40
1.0
 40
1.0
 40
1.0
 10
-144.3618
 20
77.4302
 30
0.0
 10
-145.1765
 20
67.0325
 30
0.0
 10
-140.9679
 20
60.0992
 30
0.0
 10
-136.863
 20
56.3638
 30
0.0
 10
-136.863
 20
56.3638
 30
0.0
 10
-132.493
 20
52.3873
 30
0.0
 10
-133.4368
 20
51.2742
 30
0.0
 10
-131.9242
 20
48.0741
 30
0.0
 10
-131.9242
 20
48.0741
 30
0.0
 10
-143.3857
 20
47.5779
 30
0.0
 10
-155.2736
 20
66.3545
 30
0.0
 10
-144.3618
 20
77.4302
 30
0.0
  0
SPLINE
  5
45
330
1F
100
AcDbEntity
  8
layer 1
 62
     7
370
    53
100
AcDbSpline
210
0.0
220
0.0
230
1.0
 70
    11
 71
     3
 72
    20
 73
    16
 74
     0
 42
0.0000000001
 43
0.0000000001
 12
1.0
 22
0.0
 32
0.0
 13
1.0
 23
0.0
 33
0.0
 40
0.0
 40
0.0
 40
0.0
 40
0.0
 40
0.2
 40
0.2
 40
0.2
 40
0.2
 40
0.4
 40
0.4
 40
0.4
 40
0.4
 40
0.6
 40
0.6
 40
0.6
 40
0.6
 40
1.0
 40
1.0
 40
1.0
 40
1.0
 10
-135.3365
 20
86.4268
 30
0.0
 10
-137.2619
 20
77.9668
 30
0.0
 10
-136.4086
 20
73.9093
 30
0.0
 10
-135.3359
 20
66.883
 30
0.0
 10
-135.3359
 20
66.883
 30
0.0
 10
-134.6967
 20
62.6976
 30
0.0
 10
-134.6866
 20
64.2849
 30
0.0
 10
-134.8403
 20
60.531
 30
0.0
 10
-134.8403
 20
60.531
 30
0.0
 10
-140.1923
 20
61.1421
 30
0.0
 10
-146.8039
 20
80.8875
 30
0.0
 10
-135.3367
 20
86.4268
 30
0.0
 10
-135.3367
 20
86.4268
 30
0.0
 10
-135.3367
 20
86.4268
 30
0.0
 10
-135.3365
 20
86.4268
 30
0.0
 10
-135.3365
 20
86.4268
 30
0.0
  0
SPLINE
  5
46
330
1F
100
AcDbEntity
  8
layer 1
 62
     7
370
    53
100
AcDbSpline
210
0.0
220
0.0
230
1.0
 70
    11
 71
     3
 72
    20
 73
    16
 74
     0
 42
0.0000000001
 43
0.0000000001
 12
1.0
 22
0.0
 32
0.0
 13
1.0
 23
0.0
 33
0.0
 40
0.0
 40
0.0
 40
0.0
 40
0.0
 40
0.2
 40
0.2
 40
0.2
 40
0.2
 40
0.4
 40
0.4
 40
0.4
 40
0.4
 40
0.6
 40
0.6
 40
0.6
 40
0.6
 40
1.0
 40
1.0
 40
1.0
 40
1.0
 10
-130.0601
 20
86.7037
 30
0.0
 10
-122.6825
 20
90.4239
 30
0.0
 10
-121.6904
 20
79.0306
 30
0.0
 10
-128.2544
 20
80.5857
 30
0.0
 10
-128.2544
 20
80.5857
 30
0.0
 10
-130.7201
 20
79.0732
 30
0.0
 10
-131.9095
 20
75.773
 30
0.0
 10
-132.6186
 20
71.8808
 30
0.0
 10
-132.6186
 20
71.8808
 30
0.0
 10
-133.8051
 20
75.3985
 30
0.0
 10
-134.8625
 20
84.4864
 30
0.0
 10
-130.0603
 20
86.7037
 30
0.0
 10
-130.0603
 20
86.7037
 30
0.0
 10
-130.0603
 20
86.7037
 30
0.0
 10
-130.0601
 20
86.7037
 30
0.0
 10
-130.0601
 20
86.7037
 30
0.0
  0
SPLINE
  5
47
330
1F
100
AcDbEntity
  8
layer 1
 62
     7
370
    53
100
AcDbSpline
210
0.0
220
0.0
230
1.0
 70
    11
 71
     3
 72
    32
 73
    28
 74
     0
 42
0.0000000001
 43
0.0000000001
 12
1.0
 22
0.0
 32
0.0
 13
1.0
 23
0.0
 33
0.0
 40
0.0
 40
0.0
 40
0.0
 40
0.0
 40
0.125
 40
0.125
 40
0.125
 40
0.125
 40
0.25
 40
0.25
 40
0.25
 40
0.25
 40
0.375
 40
0.375
 40
0.375
 40
0.375
 40
0.5
 40
0.5
 40
0.5
 40
0.5
 40
0.625
 40
0.625
 40
0.625
 40
0.625
 40
0.75
 40
0.75
 40
0.75
 40
0.75
 40
1.0
 40
1.0
 40
1.0
 40
1.0
 10
-137.6969
 20
34.1536
 30
0.0
 10
-133.3885
 20
34.6889
 30
0.0
 10
-129.5956
 20
34.9367
 30
0.0
 10
-127.373
 20
29.7507
 30
0.0
 10
-127.373
 20
29.7507
 30
0.0
 10
-128.0763
 20
33.9564
 30
0.0
 10
-127.0958
 20
37.9404
 30
0.0
 10
-124.6044
 20
39.7384
 30
0.0
 10
-124.6044
 20
39.7384
 30
0.0
 10
-124.882
 20
41.306
 30
0.0
 10
-127.4086
 20
43.5034
 30
0.0
 10
-129.2265
 20
44.5625
 30
0.0
 10
-129.2265
 20
44.5625
 30
0.0
 10
-136.8299
 20
44.9677
 30
0.0
 10
-143.5732
 20
47.5759
 30
0.0
 10
-149.9752
 20
54.5131
 30
0.0
 10
-149.9752
 20
54.5131
 30
0.0
 10
-149.2178
 20
48.2272
 30
0.0
 10
-144.0268
 20
35.679
 30
0.0
 10
-132.5597
 20
40.5206
 30
0.0
 10
-132.5597
 20
40.5206
 30
0.0
 10
-133.3465
 20
36.9219
 30
0.0
 10
-133.7167
 20
36.6451
 30
0.0
 10
-137.6971
 20
34.1537
 30
0.0
 10
-137.6971
 20
34.1537
 30
0.0
 10
-137.6971
 20
34.1537
 30
0.0
 10
-137.6969
 20
34.1536
 30
0.0
 10
-137.6969
 20
34.1536
 30
0.0
  0
SPLINE
  5
48
330
1F
100
AcDbEntity
  8
layer 1
 62
     7
370
    53
100
AcDbSpline
210
0.0
220
0.0
230
1.0
 70
    11
 71
     3
 72
    28
 73
    24
 74
     0
 42
0.0000000001
 43
0.0000000001
 12
1.0
 22
0.0
 32
0.0
 13
1.0
 23
0.0
 33
0.0
 40
0.0
 40
0.0
 40
0.0
 40
0.0
 40
0.1428571428571428
 40
0.1428571428571428
 40
0.1428571428571428
 40
0.1428571428571428
 40
0.2857142857142857
 40
0.2857142857142857
 40
0.2857142857142857
 40
0.2857142857142857
 40
0.4285714285714285
 40
0.4285714285714285
 40
0.4285714285714285
 40
0.4285714285714285
 40
0.5714285714285714
 40
0.5714285714285714
 40
0.5714285714285714
 40
0.5714285714285714
 40
0.7142857142857143
 40
0.7142857142857143
 40
0.7142857142857143
 40
0.7142857142857143
 40
1.0
 40
1.0
 40
1.0
 40
1.0
 10
-160.9586
 20
22.6916
 30
0.0
 10
-165.3191
 20
15.9251
 30
0.0
 10
-176.0873
 20
16.2384
 30
0.0
 10
-179.3717
 20
18.7272
 30
0.0
 10
-179.3717
 20
18.7272
 30
0.0
 10
-179.3717
 20
14.5418
 30
0.0
 10
-179.3717
 20
9.694
 30
0.0
 10
-179.3717
 20
5.4323
 30
0.0
 10
-179.3717
 20
5.4323
 30
0.0
 10
-175.4934
 20
15.2443
 30
0.0
 10
-167.4993
 20
13.7656
 30
0.0
 10
-165.6589
 20
9.483
 30
0.0
 10
-165.6589
 20
9.483
 30
0.0
 10
-163.8505
 20
12.7684
 30
0.0
 10
-150.0134
 20
13.7499
 30
0.0
 10
-155.7238
 20
22.7193
 30
0.0
 10
-155.7238
 20
22.7193
 30
0.0
 10
-156.3897
 20
19.9661
 30
0.0
 10
-157.8748
 20
16.5598
 30
0.0
 10
-159.1791
 20
15.2368
 30
0.0
 10
-159.1791
 20
15.2368
 30
0.0
 10
-160.4752
 20
17.7078
 30
0.0
 10
-160.5103
 20
21.4977
 30
0.0
 10
-160.9586
 20
22.6916
 30
0.0
  0
SPLINE
  5
49
330
1F
100
AcDbEntity
  8
layer 1
 62
     7
370
    53
100
AcDbSpline
210
0.0
220
0.0
230
1.0
 70
    11
 71
     3
 72
    28
 73
    24
 74
     0
 42
0.0000000001
 43
0.0000000001
 12
1.0
 22
0.0
 32
0.0
 13
1.0
 23
0.0
 33
0.0
 40
0.0
 40
0.0
 40
0.0
 40
0.0
 40
0.1428571428571428
 40
0.1428571428571428
 40
0.1428571428571428
 40
0.1428571428571428
 40
0.2857142857142857
 40
0.2857142857142857
 40
0.2857142857142857
 40
0.2857142857142857
 40
0.4285714285714285
 40
0.4285714285714285
 40
0.4285714285714285
 40
0.4285714285714285
 40
0.5714285714285714
 40
0.5714285714285714
 40
0.5714285714285714
 40
0.5714285714285714
 40
0.7142857142857143
 40
0.7142857142857143
 40
0.7142857142857143
 40
0.7142857142857143
 40
1.0
 40
1.0
 40
1.0
 40
1.0
 10
-142.12
 20
20.0041
 30
0.0
 10
-137.6896
 20
18.8273
 30
0.0
 10
-135.2114
 20
16.6637
 30
0.0
 10
-132.8637
 20
17.1382
 30
0.0
 10
-132.8637
 20
17.1382
 30
0.0
 10
-128.0201
 20
18.1169
 30
0.0
 10
-128.0215
 20
24.9014
 30
0.0
 10
-131.1691
 20
26.3529
 30
0.0
 10
-131.1691
 20
26.3529
 30
0.0
 10
-133.6348
 20
27.8654
 30
0.0
 10
-137.5446
 20
25.1075
 30
0.0
 10
-143.7523
 20
27.9035
 30
0.0
 10
-143.7523
 20
27.9035
 30
0.0
 10
-143.7812
 20
25.9437
 30
0.0
 10
-141.1922
 20
22.1639
 30
0.0
 10
-138.1841
 20
21.2735
 30
0.0
 10
-138.1841
 20
21.2735
 30
0.0
 10
-136.6406
 20
21.6966
 30
0.0
 10
-143.6634
 20
19.581
 30
0.0
 10
-142.1199
 20
20.0042
 30
0.0
 10
-142.1199
 20
20.0042
 30
0.0
 10
-142.1199
 20
20.0042
 30
0.0
 10
-142.12
 20
20.0041
 30
0.0
 10
-142.12
 20
20.0041
 30
0.0
  0
SPLINE
  5
4A
330
1F
100
AcDbEntity
  8
layer 1
 62
     7
370
    53
100
AcDbSpline
210
0.0
220
0.0
230
1.0
 70
    11
 71
     3
 72
    12
 73
     8
 74
     0
 42
0.0000000001
 43
0.0000000001
 12
1.0
 22
0.0
 32
0.0
 13
1.0
 23
0.0
 33
0.0
 40
0.0
 40
0.0
 40
0.0
 40
0.0
 40
0.3333333333333333
 40
0.3333333333333333
 40
0.3333333333333333
 40
0.3333333333333333
 40
1.0
 40
1.0
 40
1.0
 40
1.0
 10
-144.2616
 20
-13.5178
 30
0.0
 10
-128.4151
 20
-8.9569
 30
0.0
 10
-134.827
 20
10.6407
 30
0.0
 10
-143.5092
 20
2.2911
 30
0.0
 10
-143.5092
 20
2.2911
 30
0.0
 10
-141.5606
 20
1.2718
 30
0.0
 10
-139.4382
 20
-7.7673
 30
0.0
 10
-144.2616
 20
-13.5178
 30
0.0
  0
SPLINE
  5
4B
330
1F
100
AcDbEntity
  8
layer 1
 62
     7
370
    53
100
AcDbSpline
210
0.0
220
0.0
230
1.0
 70
    11
 71
     3
 72
    24
 73
    20
 74
     0
 42
0.0000000001
 43
0.0000000001
 12
1.0
 22
0.0
 32
0.0
 13
1.0
 23
0.0
 33
0.0
 40
0.0
 40
0.0
 40
0.0
 40
0.0
 40
0.1666666666666667
 40
0.1666666666666667
 40
0.1666666666666667
 40
0.1666666666666667
 40
0.3333333333333333
 40
0.3333333333333333
 40
0.3333333333333333
 40
0.3333333333333333
 40
0.5
 40
0.5
 40
0.5
 40
0.5
 40
0.6666666666666666
 40
0.6666666666666666
 40
0.6666666666666666
 40
0.6666666666666666
 40
1.0
 40
1.0
 40
1.0
 40
1.0
 10
-152.1259
 20
11.2884
 30
0.0
 10
-149.1479
 20
10.6429
 30
0.0
 10
-146.4259
 20
8.3778
 30
0.0
 10
-145.2559
 20
6.2746
 30
0.0
 10
-145.2559
 20
6.2746
 30
0.0
 10
-138.0447
 20
11.1923
 30
0.0
 10
-131.2311
 20
5.5131
 30
0.0
 10
-131.2335
 20
-3.7571
 30
0.0
 10
-131.2335
 20
-3.7571
 30
0.0
 10
-125.7439
 20
4.9501
 30
0.0
 10
-132.4034
 20
12.6526
 30
0.0
 10
-138.7944
 20
11.7865
 30
0.0
 10
-138.7944
 20
11.7865
 30
0.0
 10
-146.1144
 20
10.7946
 30
0.0
 10
-147.6857
 20
13.587
 30
0.0
 10
-148.6703
 20
14.4198
 30
0.0
 10
-148.6703
 20
14.4198
 30
0.0
 10
-149.855
 20
12.8492
 30
0.0
 10
-150.0675
 20
12.5068
 30
0.0
 10
-152.1259
 20
11.2884
 30
0.0
  0
SPLINE
  5
4C
330
1F
100
AcDbEntity
  8
layer 1
 62
     7
370
    53
100
AcDbSpline
210
0.0
220
0.0
230
1.0
 70
    11
 71
     3
 72
    40
 73
    36
 74
     0
 42
0.0000000001
 43
0.0000000001
 12
1.0
 22
0.0
 32
0.0
 13
1.0
 23
0.0
 33
0.0
 40
0.0
 40
0.0
 40
0.0
 40
0.0
 40
0.1
 40
0.1
 40
0.1
 40
0.1
 40
0.2
 40
0.2
 40
0.2
 40
0.2
 40
0.3
 40
0.3
 40
0.3
 40
0.3
 40
0.4
 40
0.4
 40
0.4
 40
0.4
 40
0.5
 40
0.5
 40
0.5
 40
0.5
 40
0.6
 40
0.6
 40
0.6
 40
0.6
 40
0.7
 40
0.7
 40
0.7
 40
0.7
 40
0.8
 40
0.8
 40
0.8
 40
0.8
 40
1.0
 40
1.0
 40
1.0
 40
1.0
 10
-108.3076
 20
30.1518
 30
0.0
 10
-113.4287
 20
27.1869
 30
0.0
 10
-113.8898
 20
17.1639
 30
0.0
 10
-116.7752
 20
13.1952
 30
0.0
 10
-116.7752
 20
13.1952
 30
0.0
 10
-118.9196
 20
9.8385
 30
0.0
 10
-123.9236
 20
11.3448
 30
0.0
 10
-123.473
 20
17.3112
 30
0.0
 10
-123.473
 20
17.3112
 30
0.0
 10
-125.39
 20
16.3116
 30
0.0
 10
-127.5433
 20
11.7571
 30
0.0
 10
-123.0943
 20
6.8748
 30
0.0
 10
-123.0943
 20
6.8748
 30
0.0
 10
-123.4982
 20
4.8901
 30
0.0
 10
-125.3345
 20
2.1318
 30
0.0
 10
-126.8039
 20
1.8162
 30
0.0
 10
-126.8039
 20
1.8162
 30
0.0
 10
-125.3562
 20
6.2634
 30
0.0
 10
-125.4889
 20
12.5256
 30
0.0
 10
-128.9415
 20
14.1561
 30
0.0
 10
-128.9415
 20
14.1561
 30
0.0
 10
-125.8893
 20
17.6859
 30
0.0
 10
-122.7604
 20
21.5291
 30
0.0
 10
-124.4041
 20
25.4442
 30
0.0
 10
-124.4041
 20
25.4442
 30
0.0
 10
-115.7938
 20
24.2686
 30
0.0
 10
-112.0722
 20
31.2255
 30
0.0
 10
-111.0875
 20
32.0583
 30
0.0
 10
-111.0875
 20
32.0583
 30
0.0
 10
-109.3498
 20
33.9788
 30
0.0
 10
-105.9426
 20
32.5339
 30
0.0
 10
-108.3077
 20
30.1519
 30
0.0
 10
-108.3077
 20
30.1519
 30
0.0
 10
-108.3077
 20
30.1519
 30
0.0
 10
-108.3076
 20
30.1518
 30
0.0
 10
-108.3076
 20
30.1518
 30
0.0
  0
SPLINE
  5
4D
330
1F
100
AcDbEntity
  8
layer 1
 62
     7
370
    53
100
AcDbSpline
210
0.0
220
0.0
230
1.0
 70
    11
 71
     3
 72
    20
 73
    16
 74
     0
 42
0.0000000001
 43
0.0000000001
 12
1.0
 22
0.0
 32
0.0
 13
1.0
 23
0.0
 33
0.0
 40
0.0
 40
0.0
 40
0.0
 40
0.0
 40
0.2
 40
0.2
 40
0.2
 40
0.2
 40
0.4
 40
0.4
 40
0.4
 40
0.4
 40
0.6
 40
0.6
 40
0.6
 40
0.6
 40
1.0
 40
1.0
 40
1.0
 40
1.0
 10
-160.236
 20
-40.2205
 30
0.0
 10
-157.9064
 20
-28.5553
 30
0.0
 10
-170.1639
 20
-30.6929
 30
0.0
 10
-172.4565
 20
-15.647
 30
0.0
 10
-172.4565
 20
-15.647
 30
0.0
 10
-174.8993
 20
-21.3711
 30
0.0
 10
-172.1712
 20
-28.7033
 30
0.0
 10
-167.2908
 20
-33.0334
 30
0.0
 10
-167.2908
 20
-33.0334
 30
0.0
 10
-168.3213
 20
-33.5866
 30
0.0
 10
-170.5414
 20
-33.137
 30
0.0
 10
-171.669
 20
-32.1802
 30
0.0
 10
-171.669
 20
-32.1802
 30
0.0
 10
-169.9305
 20
-37.0314
 30
0.0
 10
-162.5282
 20
-39.7112
 30
0.0
 10
-160.236
 20
-40.2205
 30
0.0
  0
SPLINE
  5
4E
330
1F
100
AcDbEntity
  8
layer 1
 62
     7
370
    53
100
AcDbSpline
210
0.0
220
0.0
230
1.0
 70
    11
 71
     3
 72
    16
 73
    12
 74
     0
 42
0.0000000001
 43
0.0000000001
 12
1.0
 22
0.0
 32
0.0
 13
1.0
 23
0.0
 33
0.0
 40
0.0
 40
0.0
 40
0.0
 40
0.0
 40
0.25
 40
0.25
 40
0.25
 40
0.25
 40
0.5
 40
0.5
 40
0.5
 40
0.5
 40
1.0
 40
1.0
 40
1.0
 40
1.0
 10
-179.3717
 20
-79.2261
 30
0.0
 10
-179.3717
 20
-83.4116
 30
0.0
 10
-179.3717
 20
-99.0966
 30
0.0
 10
-179.3717
 20
-103.3585
 30
0.0
 10
-179.3717
 20
-103.3585
 30
0.0
 10
-170.9845
 20
-103.3585
 30
0.0
 10
-153.6961
 20
-103.3585
 30
0.0
 10
-143.7578
 20
-103.3585
 30
0.0
 10
-143.7578
 20
-103.3585
 30
0.0
 10
-149.813
 20
-86.1657
 30
0.0
 10
-166.7615
 20
-96.9807
 30
0.0
 10
-179.3717
 20
-79.2261
 30
0.0
  0
SPLINE
  5
4F
330
1F
100
AcDbEntity
  8
layer 1
 62
     7
370
    53
100
AcDbSpline
210
0.0
220
0.0
230
1.0
 70
    11
 71
     3
 72
    12
 73
     8
 74
     0
 42
0.0000000001
 43
0.0000000001
 12
1.0
 22
0.0
 32
0.0
 13
1.0
 23
0.0
 33
0.0
 40
0.0
 40
0.0
 40
0.0
 40
0.0
 40
0.3333333333333333
 40
0.3333333333333333
 40
0.3333333333333333
 40
0.3333333333333333
 40
1.0
 40
1.0
 40
1.0
 40
1.0
 10
-157.4043
 20
-73.4933
 30
0.0
 10
-160.4795
 20
-64.8719
 30
0.0
 10
-170.1107
 20
-66.3626
 30
0.0
 10
-176.8878
 20
-55.8506
 30
0.0
 10
-176.8878
 20
-55.8506
 30
0.0
 10
-176.7787
 20
-62.4367
 30
0.0
 10
-169.9917
 20
-77.0427
 30
0.0
 10
-157.4043
 20
-73.4933
 30
0.0
  0
SPLINE
  5
50
330
1F
100
AcDbEntity
  8
layer 1
 62
     7
370
    53
100
AcDbSpline
210
0.0
220
0.0
230
1.0
 70
    11
 71
     3
 72
    20
 73
    16
 74
     0
 42
0.0000000001
 43
0.0000000001
 12
1.0
 22
0.0
 32
0.0
 13
1.0
 23
0.0
 33
0.0
 40
0.0
 40
0.0
 40
0.0
 40
0.0
 40
0.2
 40
0.2
 40
0.2
 40
0.2
 40
0.4
 40
0.4
 40
0.4
 40
0.4
 40
0.6
 40
0.6
 40
0.6
 40
0.6
 40
1.0
 40
1.0
 40
1.0
 40
1.0
 10
-154.7763
 20
-86.5262
 30
0.0
 10
-154.238
 20
-84.1921
 30
0.0
 10
-154.4084
 20
-79.5921
 30
0.0
 10
-155.1409
 20
-76.153
 30
0.0
 10
-155.1409
 20
-76.153
 30
0.0
 10
-156.8844
 20
-78.0534
 30
0.0
 10
-162.6158
 20
-80.0118
 30
0.0
 10
-166.0739
 20
-78.8299
 30
0.0
 10
-166.0739
 20
-78.8299
 30
0.0
 10
-164.3708
 20
-81.7904
 30
0.0
 10
-160.2435
 20
-83.7819
 30
0.0
 10
-154.7764
 20
-86.5261
 30
0.0
 10
-154.7764
 20
-86.5261
 30
0.0
 10
-154.7764
 20
-86.5261
 30
0.0
 10
-154.7763
 20
-86.5262
 30
0.0
 10
-154.7763
 20
-86.5262
 30
0.0
  0
SPLINE
  5
51
330
1F
100
AcDbEntity
  8
layer 1
 62
     7
370
    53
100
AcDbSpline
210
0.0
220
0.0
230
1.0
 70
    11
 71
     3
 72
    16
 73
    12
 74
     0
 42
0.0000000001
 43
0.0000000001
 12
1.0
 22
0.0
 32
0.0
 13
1.0
 23
0.0
 33
0.0
 40
0.0
 40
0.0
 40
0.0
 40
0.0
 40
0.25
 40
0.25
 40
0.25
 40
0.25
 40
0.5
 40
0.5
 40
0.5
 40
0.5
 40
1.0
 40
1.0
 40
1.0
 40
1.0
 10
-163.7116
 20
-54.8281
 30
0.0
 10
-163.8304
 20
-52.494
 30
0.0
 10
-163.278
 20
-51.0376
 30
0.0
 10
-161.5139
 20
-49.8254
 30
0.0
 10
-161.5139
 20
-49.8254
 30
0.0
 10
-164.8343
 20
-49.9573
 30
0.0
 10
-167.0177
 20
-49.5582
 30
0.0
 10
-170.5415
 20
-47.9833
 30
0.0
 10
-170.5415
 20
-47.9833
 30
0.0
 10
-168.707
 20
-50.6164
 30
0.0
 10
-166.0908
 20
-52.4768
 30
0.0
 10
-163.7116
 20
-54.8281
 30
0.0
  0
SPLINE
  5
52
330
1F
100
AcDbEntity
  8
layer 1
 62
     7
370
    53
100
AcDbSpline
210
0.0
220
0.0
230
1.0
 70
    11
 71
     3
 72
    20
 73
    16
 74
     0
 42
0.0000000001
 43
0.0000000001
 12
1.0
 22
0.0
 32
0.0
 13
1.0
 23
0.0
 33
0.0
 40
0.0
 40
0.0
 40
0.0
 40
0.0
 40
0.2
 40
0.2
 40
0.2
 40
0.2
 40
0.4
 40
0.4
 40
0.4
 40
0.4
 40
0.6
 40
0.6
 40
0.6
 40
0.6
 40
1.0
 40
1.0
 40
1.0
 40
1.0
 10
-144.6975
 20
-39.5809
 30
0.0
 10
-142.4708
 20
-38.0416
 30
0.0
 10
-141.074
 20
-37.427
 30
0.0
 10
-138.4188
 20
-36.6822
 30
0.0
 10
-138.4188
 20
-36.6822
 30
0.0
 10
-137.8457
 20
-28.9118
 30
0.0
 10
-138.7626
 20
-25.8474
 30
0.0
 10
-142.2865
 20
-24.2726
 30
0.0
 10
-142.2865
 20
-24.2726
 30
0.0
 10
-145.0374
 20
-23.1871
 30
0.0
 10
-144.9441
 20
-24.5631
 30
0.0
 10
-144.8523
 20
-25.9376
 30
0.0
 10
-144.8523
 20
-25.9376
 30
0.0
 10
-144.6597
 20
-28.8219
 30
0.0
 10
-143.6982
 20
-32.6418
 30
0.0
 10
-144.6975
 20
-39.5809
 30
0.0
  0
SPLINE
  5
53
330
1F
100
AcDbEntity
  8
layer 1
 62
     7
370
    53
100
AcDbSpline
210
0.0
220
0.0
230
1.0
 70
    11
 71
     3
 72
    64
 73
    60
 74
     0
 42
0.0000000001
 43
0.0000000001
 12
1.0
 22
0.0
 32
0.0
 13
1.0
 23
0.0
 33
0.0
 40
0.0
 40
0.0
 40
0.0
 40
0.0
 40
0.0625
 40
0.0625
 40
0.0625
 40
0.0625
 40
0.125
 40
0.125
 40
0.125
 40
0.125
 40
0.1875
 40
0.1875
 40
0.1875
 40
0.1875
 40
0.25
 40
0.25
 40
0.25
 40
0.25
 40
0.3125
 40
0.3125
 40
0.3125
 40
0.3125
 40
0.375
 40
0.375
 40
0.375
 40
0.375
 40
0.4375
 40
0.4375
 40
0.4375
 40
0.4375
 40
0.5
 40
0.5
 40
0.5
 40
0.5
 40
0.5625
 40
0.5625
 40
0.5625
 40
0.5625
 40
0.625
 40
0.625
 40
0.625
 40
0.625
 40
0.6875
 40
0.6875
 40
0.6875
 40
0.6875
 40
0.75
 40
0.75
 40
0.75
 40
0.75
 40
0.8125
 40
0.8125
 40
0.8125
 40
0.8125
 40
0.875
 40
0.875
 40
0.875
 40
0.875
 40
1.0
 40
1.0
 40
1.0
 40
1.0
 10
-161.8363
 20
-57.093
 30
0.0
 10
-155.964
 20
-63.5601
 30
0.0
 10
-149.9531
 20
-76.0623
 30
0.0
 10
-153.336
 20
-87.5259
 30
0.0
 10
-153.336
 20
-87.5259
 30
0.0
 10
-149.0603
 20
-88.9544
 30
0.0
 10
-140.9199
 20
-97.0762
 30
0.0
 10
-140.2285
 20
-100.9523
 30
0.0
 10
-140.2285
 20
-100.9523
 30
0.0
 10
-138.518
 20
-101.0227
 30
0.0
 10
-136.0472
 20
-101.095
 30
0.0
 10
-134.8468
 20
-101.686
 30
0.0
 10
-134.8468
 20
-101.686
 30
0.0
 10
-135.613
 20
-99.6469
 30
0.0
 10
-136.7376
 20
-99.8673
 30
0.0
 10
-136.6721
 20
-94.0728
 30
0.0
 10
-136.6721
 20
-94.0728
 30
0.0
 10
-135.7545
 20
-92.792
 30
0.0
 10
-132.3534
 20
-93.5465
 30
0.0
 10
-132.8902
 20
-90.7184
 30
0.0
 10
-132.8902
 20
-90.7184
 30
0.0
 10
-134.3244
 20
-90.9101
 30
0.0
 10
-135.191
 20
-90.6475
 30
0.0
 10
-136.102
 20
-90.1985
 30
0.0
 10
-136.102
 20
-90.1985
 30
0.0
 10
-138.0766
 20
-89.225
 30
0.0
 10
-141.0738
 20
-90.8576
 30
0.0
 10
-142.0903
 20
-94.1246
 30
0.0
 10
-142.0903
 20
-94.1246
 30
0.0
 10
-143.597
 20
-91.6559
 30
0.0
 10
-142.6036
 20
-88.5546
 30
0.0
 10
-141.4896
 20
-86.3316
 30
0.0
 10
-141.4896
 20
-86.3316
 30
0.0
 10
-142.0937
 20
-86.3197
 30
0.0
 10
-142.6377
 20
-86.2631
 30
0.0
 10
-143.3497
 20
-85.9385
 30
0.0
 10
-143.3497
 20
-85.9385
 30
0.0
 10
-142.9468
 20
-85.1752
 30
0.0
 10
-142.6206
 20
-84.4731
 30
0.0
 10
-141.7524
 20
-83.631
 30
0.0
 10
-141.7524
 20
-83.631
 30
0.0
 10
-143.4591
 20
-83.9191
 30
0.0
 10
-144.5317
 20
-83.8502
 30
0.0
 10
-145.3577
 20
-83.3114
 30
0.0
 10
-145.3577
 20
-83.3114
 30
0.0
 10
-139.3407
 20
-78.3595
 30
0.0
 10
-148.9613
 20
-72.773
 30
0.0
 10
-154.8793
 20
-65.2271
 30
0.0
 10
-154.8793
 20
-65.2271
 30
0.0
 10
-157.736
 20
-61.5845
 30
0.0
 10
-156.3174
 20
-60.6272
 30
0.0
 10
-155.5033
 20
-59.4327
 30
0.0
 10
-155.5033
 20
-59.4327
 30
0.0
 10
-157.7509
 20
-59.5585
 30
0.0
 10
-159.047
 20
-58.5945
 30
0.0
 10
-161.8362
 20
-57.0931
 30
0.0
 10
-161.8362
 20
-57.0931
 30
0.0
 10
-161.8362
 20
-57.0931
 30
0.0
 10
-161.8363
 20
-57.093
 30
0.0
 10
-161.8363
 20
-57.093
 30
0.0
  0
SPLINE
  5
54
330
1F
100
AcDbEntity
  8
layer 1
 62
     7
370
    53
100
AcDbSpline
210
0.0
220
0.0
230
1.0
 70
    11
 71
     3
 72
   100
 73
    96
 74
     0
 42
0.0000000001
 43
0.0000000001
 12
1.0
 22
0.0
 32
0.0
 13
1.0
 23
0.0
 33
0.0
 40
0.0
 40
0.0
 40
0.0
 40
0.0
 40
0.04
 40
0.04
 40
0.04
 40
0.04
 40
0.08
 40
0.08
 40
0.08
 40
0.08
 40
0.12
 40
0.12
 40
0.12
 40
0.12
 40
0.16
 40
0.16
 40
0.16
 40
0.16
 40
0.2
 40
0.2
 40
0.2
 40
0.2
 40
0.24
 40
0.24
 40
0.24
 40
0.24
 40
0.28
 40
0.28
 40
0.28
 40
0.28
 40
0.32
 40
0.32
 40
0.32
 40
0.32
 40
0.36
 40
0.36
 40
0.36
 40
0.36
 40
0.4
 40
0.4
 40
0.4
 40
0.4
 40
0.44
 40
0.44
 40
0.44
 40
0.44
 40
0.48
 40
0.48
 40
0.48
 40
0.48
 40
0.52
 40
0.52
 40
0.52
 40
0.52
 40
0.56
 40
0.56
 40
0.56
 40
0.56
 40
0.6
 40
0.6
 40
0.6
 40
0.6
 40
0.64
 40
0.64
 40
0.64
 40
0.64
 40
0.68
 40
0.68
 40
0.68
 40
0.68
 40
0.72
 40
0.72
 40
0.72
 40
0.72
 40
0.76
 40
0.76
 40
0.76
 40
0.76
 40
0.8
 40
0.8
 40
0.8
 40
0.8
 40
0.84
 40
0.84
 40
0.84
 40
0.84
 40
0.88
 40
0.88
 40
0.88
 40
0.88
 40
0.92
 40
0.92
 40
0.92
 40
0.92
 40
1.0
 40
1.0
 40
1.0
 40
1.0
 10
-85.111
 20
122.429
 30
0.0
 10
-93.6209
 20
122.429
 30
0.0
 10
-117.0791
 20
122.429
 30
0.0
 10
-125.5891
 20
122.429
 30
0.0
 10
-125.5891
 20
122.429
 30
0.0
 10
-128.4482
 20
121.1181
 30
0.0
 10
-128.5445
 20
116.3803
 30
0.0
 10
-127.9022
 20
113.7099
 30
0.0
 10
-127.9022
 20
113.7099
 30
0.0
 10
-126.7267
 20
115.0931
 30
0.0
 10
-125.3303
 20
116.6163
 30
0.0
 10
-123.5954
 20
117.6051
 30
0.0
 10
-123.5954
 20
117.6051
 30
0.0
 10
-126.232
 20
113.3011
 30
0.0
 10
-120.6112
 20
112.1983
 30
0.0
 10
-122.1134
 20
102.7923
 30
0.0
 10
-122.1134
 20
102.7923
 30
0.0
 10
-119.0287
 20
103.3121
 30
0.0
 10
-114.7834
 20
104.1462
 30
0.0
 10
-114.7196
 20
112.0564
 30
0.0
 10
-114.7196
 20
112.0564
 30
0.0
 10
-112.1593
 20
106.3928
 30
0.0
 10
-111.9664
 20
100.705
 30
0.0
 10
-115.8464
 20
97.5815
 30
0.0
 10
-115.8464
 20
97.5815
 30
0.0
 10
-112.6027
 20
98.7405
 30
0.0
 10
-110.3629
 20
98.335
 30
0.0
 10
-107.6022
 20
95.1915
 30
0.0
 10
-107.6022
 20
95.1915
 30
0.0
 10
-109.2584
 20
94.2357
 30
0.0
 10
-112.3508
 20
96.1901
 30
0.0
 10
-113.9629
 20
92.827
 30
0.0
 10
-113.9629
 20
92.827
 30
0.0
 10
-104.8443
 20
98.376
 30
0.0
 10
-108.6678
 20
80.5289
 30
0.0
 10
-99.6594
 20
81.5957
 30
0.0
 10
-99.6594
 20
81.5957
 30
0.0
 10
-99.8392
 20
80.4919
 30
0.0
 10
-105.8247
 20
78.4725
 30
0.0
 10
-108.2043
 20
85.2174
 30
0.0
 10
-108.2043
 20
85.2174
 30
0.0
 10
-108.5407
 20
84.8086
 30
0.0
 10
-108.7272
 20
83.7228
 30
0.0
 10
-108.8288
 20
82.2996
 30
0.0
 10
-108.8288
 20
82.2996
 30
0.0
 10
-113.2045
 20
93.4878
 30
0.0
 10
-119.8065
 20
83.8832
 30
0.0
 10
-109.0687
 20
70.1865
 30
0.0
 10
-109.0687
 20
70.1865
 30
0.0
 10
-103.6693
 20
65.3795
 30
0.0
 10
-106.0188
 20
61.3329
 30
0.0
 10
-107.1849
 20
60.3424
 30
0.0
 10
-107.1849
 20
60.3424
 30
0.0
 10
-107.9408
 20
59.8566
 30
0.0
 10
-109.0221
 20
60.3547
 30
0.0
 10
-109.5279
 20
61.5197
 30
0.0
 10
-109.5279
 20
61.5197
 30
0.0
 10
-111.488
 20
64.5474
 30
0.0
 10
-115.0567
 20
64.1444
 30
0.0
 10
-113.3982
 20
60.5417
 30
0.0
 10
-113.3982
 20
60.5417
 30
0.0
 10
-112.2092
 20
58.0988
 30
0.0
 10
-115.3677
 20
56.5582
 30
0.0
 10
-117.8425
 20
59.5059
 30
0.0
 10
-117.8425
 20
59.5059
 30
0.0
 10
-119.0462
 20
62.8654
 30
0.0
 10
-117.4079
 20
62.6428
 30
0.0
 10
-120.3438
 20
64.4221
 30
0.0
 10
-120.3438
 20
64.4221
 30
0.0
 10
-121.6327
 20
65.291
 30
0.0
 10
-124.3373
 20
65.1035
 30
0.0
 10
-126.8243
 20
67.8185
 30
0.0
 10
-126.8243
 20
67.8185
 30
0.0
 10
-129.6822
 20
57.6417
 30
0.0
 10
-115.5478
 20
51.7074
 30
0.0
 10
-113.2826
 20
50.2852
 30
0.0
 10
-113.2826
 20
50.2852
 30
0.0
 10
-109.6914
 20
48.3098
 30
0.0
 10
-101.5382
 20
53.8252
 30
0.0
 10
-95.2024
 20
55.8568
 30
0.0
 10
-95.2024
 20
55.8568
 30
0.0
 10
-89.3637
 20
58.1511
 30
0.0
 10
-87.7994
 20
54.102
 30
0.0
 10
-87.833
 20
51.6159
 30
0.0
 10
-87.833
 20
51.6159
 30
0.0
 10
-87.1481
 20
42.8618
 30
0.0
 10
-87.754
 20
26.015
 30
0.0
 10
-85.3542
 20
19.2042
 30
0.0
 10
-85.3542
 20
19.2042
 30
0.0
 10
-85.3542
 20
29.1748
 30
0.0
 10
-85.111
 20
112.4585
 30
0.0
 10
-85.111
 20
122.4291
 30
0.0
 10
-85.111
 20
122.4291
 30
0.0
 10
-85.111
 20
122.4291
 30
0.0
 10
-85.111
 20
122.429
 30
0.0
 10
-85.111
 20
122.429
 30
0.0
  0
SPLINE
  5
55
330
1F
100
AcDbEntity
  8
layer 1
 62
     7
370
    53
100
AcDbSpline
210
0.0
220
0.0
230
1.0
 70
    11
 71
     3
 72
    20
 73
    16
 74
     0
 42
0.0000000001
 43
0.0000000001
 12
1.0
 22
0.0
 32
0.0
 13
1.0
 23
0.0
 33
0.0
 40
0.0
 40
0.0
 40
0.0
 40
0.0
 40
0.2
 40
0.2
 40
0.2
 40
0.2
 40
0.4
 40
0.4
 40
0.4
 40
0.4
 40
0.6
 40
0.6
 40
0.6
 40
0.6
 40
1.0
 40
1.0
 40
1.0
 40
1.0
 10
-108.5539
 20
44.9995
 30
0.0
 10
-106.9806
 20
42.9927
 30
0.0
 10
-106.7454
 20
41.2915
 30
0.0
 10
-105.6147
 20
38.4178
 30
0.0
 10
-105.6147
 20
38.4178
 30
0.0
 10
-103.154
 20
43.6553
 30
0.0
 10
-100.3684
 20
46.8644
 30
0.0
 10
-98.9555
 20
48.0051
 30
0.0
 10
-98.9555
 20
48.0051
 30
0.0
 10
-96.0436
 20
51.1892
 30
0.0
 10
-99.764
 20
51.0428
 30
0.0
 10
-100.9405
 20
50.3204
 30
0.0
 10
-100.9405
 20
50.3204
 30
0.0
 10
-103.8696
 20
48.5217
 30
0.0
 10
-107.3368
 20
46.4386
 30
0.0
 10
-108.5539
 20
44.9995
 30
0.0
  0
SPLINE
  5
56
330
1F
100
AcDbEntity
  8
layer 1
 62
     7
370
    53
100
AcDbSpline
210
0.0
220
0.0
230
1.0
 70
    11
 71
     3
 72
    20
 73
    16
 74
     0
 42
0.0000000001
 43
0.0000000001
 12
1.0
 22
0.0
 32
0.0
 13
1.0
 23
0.0
 33
0.0
 40
0.0
 40
0.0
 40
0.0
 40
0.0
 40
0.2
 40
0.2
 40
0.2
 40
0.2
 40
0.4
 40
0.4
 40
0.4
 40
0.4
 40
0.6
 40
0.6
 40
0.6
 40
0.6
 40
1.0
 40
1.0
 40
1.0
 40
1.0
 10
-113.7084
 20
44.6376
 30
0.0
 10
-112.9337
 20
42.5584
 30
0.0
 10
-111.7547
 20
37.7454
 30
0.0
 10
-112.6568
 20
34.1481
 30
0.0
 10
-112.6568
 20
34.1481
 30
0.0
 10
-111.7934
 20
34.5368
 30
0.0
 10
-110.7501
 20
35.4302
 30
0.0
 10
-109.7729
 20
36.3537
 30
0.0
 10
-109.7729
 20
36.3537
 30
0.0
 10
-107.9021
 20
38.2008
 30
0.0
 10
-110.7941
 20
43.0331
 30
0.0
 10
-113.7085
 20
44.6376
 30
0.0
 10
-113.7085
 20
44.6376
 30
0.0
 10
-113.7085
 20
44.6376
 30
0.0
 10
-113.7084
 20
44.6376
 30
0.0
 10
-113.7084
 20
44.6376
 30
0.0
  0
SPLINE
  5
57
330
1F
100
AcDbEntity
  8
layer 1
 62
     7
370
    53
100
AcDbSpline
210
0.0
220
0.0
230
1.0
 70
    11
 71
     3
 72
    32
 73
    28
 74
     0
 42
0.0000000001
 43
0.0000000001
 12
1.0
 22
0.0
 32
0.0
 13
1.0
 23
0.0
 33
0.0
 40
0.0
 40
0.0
 40
0.0
 40
0.0
 40
0.125
 40
0.125
 40
0.125
 40
0.125
 40
0.25
 40
0.25
 40
0.25
 40
0.25
 40
0.375
 40
0.375
 40
0.375
 40
0.375
 40
0.5
 40
0.5
 40
0.5
 40
0.5
 40
0.625
 40
0.625
 40
0.625
 40
0.625
 40
0.75
 40
0.75
 40
0.75
 40
0.75
 40
1.0
 40
1.0
 40
1.0
 40
1.0
 10
-131.5398
 20
66.2036
 30
0.0
 10
-128.3941
 20
53.2691
 30
0.0
 10
-117.812
 20
49.1074
 30
0.0
 10
-115.3853
 20
41.5297
 30
0.0
 10
-115.3853
 20
41.5297
 30
0.0
 10
-114.9586
 20
38.835
 30
0.0
 10
-113.8656
 20
34.1212
 30
0.0
 10
-117.5172
 20
30.7686
 30
0.0
 10
-117.5172
 20
30.7686
 30
0.0
 10
-119.0574
 20
29.3544
 30
0.0
 10
-121.7485
 20
29.6338
 30
0.0
 10
-123.2125
 20
31.4002
 30
0.0
 10
-123.2125
 20
31.4002
 30
0.0
 10
-124.7931
 20
33.3074
 30
0.0
 10
-123.8418
 20
37.6967
 30
0.0
 10
-119.8665
 20
38.3801
 30
0.0
 10
-119.8665
 20
38.3801
 30
0.0
 10
-122.3036
 20
43.9338
 30
0.0
 10
-125.142
 20
44.8316
 30
0.0
 10
-128.4197
 20
49.8669
 30
0.0
 10
-128.4197
 20
49.8669
 30
0.0
 10
-131.8684
 20
55.1649
 30
0.0
 10
-132.2077
 20
59.0399
 30
0.0
 10
-131.5398
 20
66.2037
 30
0.0
 10
-131.5398
 20
66.2037
 30
0.0
 10
-131.5398
 20
66.2037
 30
0.0
 10
-131.5398
 20
66.2036
 30
0.0
 10
-131.5398
 20
66.2036
 30
0.0
  0
SPLINE
  5
58
330
1F
100
AcDbEntity
  8
layer 1
 62
     7
370
    53
100
AcDbSpline
210
0.0
220
0.0
230
1.0
 70
    11
 71
     3
 72
    24
 73
    20
 74
     0
 42
0.0000000001
 43
0.0000000001
 12
1.0
 22
0.0
 32
0.0
 13
1.0
 23
0.0
 33
0.0
 40
0.0
 40
0.0
 40
0.0
 40
0.0
 40
0.1666666666666667
 40
0.1666666666666667
 40
0.1666666666666667
 40
0.1666666666666667
 40
0.3333333333333333
 40
0.3333333333333333
 40
0.3333333333333333
 40
0.3333333333333333
 40
0.5
 40
0.5
 40
0.5
 40
0.5
 40
0.6666666666666666
 40
0.6666666666666666
 40
0.6666666666666666
 40
0.6666666666666666
 40
1.0
 40
1.0
 40
1.0
 40
1.0
 10
-126.1954
 20
77.9274
 30
0.0
 10
-129.1959
 20
70.9271
 30
0.0
 10
-122.4268
 20
67.4891
 30
0.0
 10
-118.9002
 20
69.3193
 30
0.0
 10
-118.9002
 20
69.3193
 30
0.0
 10
-118.4724
 20
64.2079
 30
0.0
 10
-112.4198
 20
65.3185
 30
0.0
 10
-114.419
 20
69.7157
 30
0.0
 10
-114.419
 20
69.7157
 30
0.0
 10
-118.0412
 20
73.1169
 30
0.0
 10
-118.3493
 20
77.8193
 30
0.0
 10
-120.0341
 20
81.0046
 30
0.0
 10
-120.0341
 20
81.0046
 30
0.0
 10
-121.4208
 20
80.2026
 30
0.0
 10
-122.9455
 20
78.0637
 30
0.0
 10
-126.1954
 20
77.9272
 30
0.0
 10
-126.1954
 20
77.9272
 30
0.0
 10
-126.1954
 20
77.9272
 30
0.0
 10
-126.1954
 20
77.9274
 30
0.0
 10
-126.1954
 20
77.9274
 30
0.0
  0
SPLINE
  5
59
330
1F
100
AcDbEntity
  8
layer 1
 62
     7
370
    53
100
AcDbSpline
210
0.0
220
0.0
230
1.0
 70
    11
 71
     3
 72
    36
 73
    32
 74
     0
 42
0.0000000001
 43
0.0000000001
 12
1.0
 22
0.0
 32
0.0
 13
1.0
 23
0.0
 33
0.0
 40
0.0
 40
0.0
 40
0.0
 40
0.0
 40
0.1111111111111111
 40
0.1111111111111111
 40
0.1111111111111111
 40
0.1111111111111111
 40
0.2222222222222222
 40
0.2222222222222222
 40
0.2222222222222222
 40
0.2222222222222222
 40
0.3333333333333333
 40
0.3333333333333333
 40
0.3333333333333333
 40
0.3333333333333333
 40
0.4444444444444444
 40
0.4444444444444444
 40
0.4444444444444444
 40
0.4444444444444444
 40
0.5555555555555556
 40
0.5555555555555556
 40
0.5555555555555556
 40
0.5555555555555556
 40
0.6666666666666666
 40
0.6666666666666666
 40
0.6666666666666666
 40
0.6666666666666666
 40
0.7777777777777778
 40
0.7777777777777778
 40
0.7777777777777778
 40
0.7777777777777778
 40
1.0
 40
1.0
 40
1.0
 40
1.0
 10
-100.4227
 20
41.1639
 30
0.0
 10
-102.0438
 20
39.8808
 30
0.0
 10
-99.7033
 20
38.3245
 30
0.0
 10
-98.2822
 20
36.3916
 30
0.0
 10
-98.2822
 20
36.3916
 30
0.0
 10
-96.7912
 20
31.0234
 30
0.0
 10
-98.848
 20
21.8861
 30
0.0
 10
-98.9916
 20
19.8663
 30
0.0
 10
-98.9916
 20
19.8663
 30
0.0
 10
-99.0151
 20
14.1094
 30
0.0
 10
-96.4359
 20
13.8377
 30
0.0
 10
-94.5839
 20
14.1306
 30
0.0
 10
-94.5839
 20
14.1306
 30
0.0
 10
-94.014
 20
14.1627
 30
0.0
 10
-97.5005
 20
17.0372
 30
0.0
 10
-94.2986
 20
20.5372
 30
0.0
 10
-94.2986
 20
20.5372
 30
0.0
 10
-90.7426
 20
24.4243
 30
0.0
 10
-93.2206
 20
39.7064
 30
0.0
 10
-94.3091
 20
42.3605
 30
0.0
 10
-94.3091
 20
42.3605
 30
0.0
 10
-94.9546
 20
44.0972
 30
0.0
 10
-95.8041
 20
45.691
 30
0.0
 10
-96.8749
 20
44.8204
 30
0.0
 10
-96.8749
 20
44.8204
 30
0.0
 10
-98.6425
 20
43.3835
 30
0.0
 10
-99.2056
 20
42.6032
 30
0.0
 10
-100.4226
 20
41.1639
 30
0.0
 10
-100.4226
 20
41.1639
 30
0.0
 10
-100.4226
 20
41.1639
 30
0.0
 10
-100.4227
 20
41.1639
 30
0.0
 10
-100.4227
 20
41.1639
 30
0.0
  0
SPLINE
  5
5A
330
1F
100
AcDbEntity
  8
layer 1
 62
     7
370
    53
100
AcDbSpline
210
0.0
220
0.0
230
1.0
 70
    11
 71
     3
 72
    52
 73
    48
 74
     0
 42
0.0000000001
 43
0.0000000001
 12
1.0
 22
0.0
 32
0.0
 13
1.0
 23
0.0
 33
0.0
 40
0.0
 40
0.0
 40
0.0
 40
0.0
 40
0.0769230769230769
 40
0.0769230769230769
 40
0.0769230769230769
 40
0.0769230769230769
 40
0.1538461538461539
 40
0.1538461538461539
 40
0.1538461538461539
 40
0.1538461538461539
 40
0.2307692307692308
 40
0.2307692307692308
 40
0.2307692307692308
 40
0.2307692307692308
 40
0.3076923076923077
 40
0.3076923076923077
 40
0.3076923076923077
 40
0.3076923076923077
 40
0.3846153846153846
 40
0.3846153846153846
 40
0.3846153846153846
 40
0.3846153846153846
 40
0.4615384615384616
 40
0.4615384615384616
 40
0.4615384615384616
 40
0.4615384615384616
 40
0.5384615384615384
 40
0.5384615384615384
 40
0.5384615384615384
 40
0.5384615384615384
 40
0.6153846153846154
 40
0.6153846153846154
 40
0.6153846153846154
 40
0.6153846153846154
 40
0.6923076923076923
 40
0.6923076923076923
 40
0.6923076923076923
 40
0.6923076923076923
 40
0.7692307692307693
 40
0.7692307692307693
 40
0.7692307692307693
 40
0.7692307692307693
 40
0.8461538461538461
 40
0.8461538461538461
 40
0.8461538461538461
 40
0.8461538461538461
 40
1.0
 40
1.0
 40
1.0
 40
1.0
 10
-149.7352
 20
-39.7013
 30
0.0
 10
-147.1393
 20
-24.2692
 30
0.0
 10
-154.7343
 20
-28.454
 30
0.0
 10
-151.7408
 20
-17.8059
 30
0.0
 10
-151.7408
 20
-17.8059
 30
0.0
 10
-158.6066
 20
-18.5348
 30
0.0
 10
-163.0939
 20
-14.0528
 30
0.0
 10
-163.9404
 20
-8.4976
 30
0.0
 10
-163.9404
 20
-8.4976
 30
0.0
 10
-164.1617
 20
-6.5247
 30
0.0
 10
-163.8799
 20
-0.207
 30
0.0
 10
-157.7018
 20
0.7656
 30
0.0
 10
-157.7018
 20
0.7656
 30
0.0
 10
-150.8653
 20
1.6093
 30
0.0
 10
-150.2918
 20
-6.5154
 30
0.0
 10
-153.582
 20
-7.8278
 30
0.0
 10
-153.582
 20
-7.8278
 30
0.0
 10
-153.8932
 20
-1.9267
 30
0.0
 10
-159.0614
 20
-3.1687
 30
0.0
 10
-159.8288
 20
-6.2186
 30
0.0
 10
-159.8288
 20
-6.2186
 30
0.0
 10
-160.4612
 20
-8.7321
 30
0.0
 10
-159.0255
 20
-10.4422
 30
0.0
 10
-157.4245
 20
-11.8352
 30
0.0
 10
-157.4245
 20
-11.8352
 30
0.0
 10
-150.5026
 20
-17.1353
 30
0.0
 10
-143.1641
 20
-8.2248
 30
0.0
 10
-147.3584
 20
0.0419
 30
0.0
 10
-147.3584
 20
0.0419
 30
0.0
 10
-149.9791
 20
8.0793
 30
0.0
 10
-160.7324
 20
8.8635
 30
0.0
 10
-166.6422
 20
1.7811
 30
0.0
 10
-166.6422
 20
1.7811
 30
0.0
 10
-173.9933
 20
-8.448
 30
0.0
 10
-169.1125
 20
-21.5684
 30
0.0
 10
-161.4032
 20
-24.0659
 30
0.0
 10
-161.4032
 20
-24.0659
 30
0.0
 10
-151.813
 20
-28.5758
 30
0.0
 10
-153.7649
 20
-36.8952
 30
0.0
 10
-155.0535
 20
-40.0021
 30
0.0
 10
-155.0535
 20
-40.0021
 30
0.0
 10
-152.6015
 20
-40.1732
 30
0.0
 10
-151.7443
 20
-40.2536
 30
0.0
 10
-149.7355
 20
-39.7012
 30
0.0
 10
-149.7355
 20
-39.7012
 30
0.0
 10
-149.7355
 20
-39.7012
 30
0.0
 10
-149.7352
 20
-39.7013
 30
0.0
 10
-149.7352
 20
-39.7013
 30
0.0
  0
SPLINE
  5
5B
330
1F
100
AcDbEntity
  8
layer 1
 62
     7
370
    53
100
AcDbSpline
210
0.0
220
0.0
230
1.0
 70
    11
 71
     3
 72
    68
 73
    64
 74
     0
 42
0.0000000001
 43
0.0000000001
 12
1.0
 22
0.0
 32
0.0
 13
1.0
 23
0.0
 33
0.0
 40
0.0
 40
0.0
 40
0.0
 40
0.0
 40
0.0588235294117647
 40
0.0588235294117647
 40
0.0588235294117647
 40
0.0588235294117647
 40
0.1176470588235294
 40
0.1176470588235294
 40
0.1176470588235294
 40
0.1176470588235294
 40
0.1764705882352941
 40
0.1764705882352941
 40
0.1764705882352941
 40
0.1764705882352941
 40
0.2352941176470588
 40
0.2352941176470588
 40
0.2352941176470588
 40
0.2352941176470588
 40
0.2941176470588235
 40
0.2941176470588235
 40
0.2941176470588235
 40
0.2941176470588235
 40
0.3529411764705883
 40
0.3529411764705883
 40
0.3529411764705883
 40
0.3529411764705883
 40
0.4117647058823529
 40
0.4117647058823529
 40
0.4117647058823529
 40
0.4117647058823529
 40
0.4705882352941176
 40
0.4705882352941176
 40
0.4705882352941176
 40
0.4705882352941176
 40
0.5294117647058824
 40
0.5294117647058824
 40
0.5294117647058824
 40
0.5294117647058824
 40
0.5882352941176471
 40
0.5882352941176471
 40
0.5882352941176471
 40
0.5882352941176471
 40
0.6470588235294118
 40
0.6470588235294118
 40
0.6470588235294118
 40
0.6470588235294118
 40
0.7058823529411765
 40
0.7058823529411765
 40
0.7058823529411765
 40
0.7058823529411765
 40
0.7647058823529411
 40
0.7647058823529411
 40
0.7647058823529411
 40
0.7647058823529411
 40
0.8235294117647058
 40
0.8235294117647058
 40
0.8235294117647058
 40
0.8235294117647058
 40
0.8823529411764706
 40
0.8823529411764706
 40
0.8823529411764706
 40
0.8823529411764706
 40
1.0
 40
1.0
 40
1.0
 40
1.0
 10
-85.3543
 20
-44.184
 30
0.0
 10
-85.3543
 20
-44.184
 30
0.0
 10
-85.3543
 20
15.9614
 30
0.0
 10
-85.3543
 20
15.9614
 30
0.0
 10
-85.3543
 20
15.9614
 30
0.0
 10
-88.5661
 20
9.2565
 30
0.0
 10
-94.0231
 20
3.3908
 30
0.0
 10
-100.0756
 20
4.3666
 30
0.0
 10
-100.0756
 20
4.3666
 30
0.0
 10
-100.3885
 20
4.0734
 30
0.0
 10
-97.6665
 20
-0.2838
 30
0.0
 10
-100.519
 20
-4.9644
 30
0.0
 10
-100.519
 20
-4.9644
 30
0.0
 10
-100.8549
 20
-5.436
 30
0.0
 10
-102.6059
 20
-9.9075
 30
0.0
 10
-105.6428
 20
-11.8361
 30
0.0
 10
-105.6428
 20
-11.8361
 30
0.0
 10
-111.0338
 20
-11.4483
 30
0.0
 10
-110.0144
 20
-13.8419
 30
0.0
 10
-118.4708
 20
-13.1199
 30
0.0
 10
-118.4708
 20
-13.1199
 30
0.0
 10
-120.2324
 20
-8.7567
 30
0.0
 10
-114.1042
 20
-3.4958
 30
0.0
 10
-111.7962
 20
-2.1071
 30
0.0
 10
-111.7962
 20
-2.1071
 30
0.0
 10
-109.4107
 20
-3.7199
 30
0.0
 10
-108.6633
 20
-3.8482
 30
0.0
 10
-106.4859
 20
-4.5635
 30
0.0
 10
-106.4859
 20
-4.5635
 30
0.0
 10
-104.5784
 20
-5.0411
 30
0.0
 10
-103.0275
 20
-2.6042
 30
0.0
 10
-105.9248
 20
-1.6458
 30
0.0
 10
-105.9248
 20
-1.6458
 30
0.0
 10
-108.2805
 20
-0.341
 30
0.0
 10
-108.0475
 20
1.8868
 30
0.0
 10
-108.1118
 20
3.1812
 30
0.0
 10
-108.1118
 20
3.1812
 30
0.0
 10
-102.827
 20
4.7821
 30
0.0
 10
-104.6525
 20
22.0739
 30
0.0
 10
-105.0301
 20
26.687
 30
0.0
 10
-105.0301
 20
26.687
 30
0.0
 10
-114.4817
 20
20.3894
 30
0.0
 10
-108.3051
 20
1.3366
 30
0.0
 10
-120.8903
 20
5.7562
 30
0.0
 10
-120.8903
 20
5.7562
 30
0.0
 10
-118.9228
 20
-0.8878
 30
0.0
 10
-131.8365
 20
-10.1738
 30
0.0
 10
-136.3293
 20
-13.254
 30
0.0
 10
-136.3293
 20
-13.254
 30
0.0
 10
-138.3003
 20
-14.6705
 30
0.0
 10
-138.2263
 20
-20.0754
 30
0.0
 10
-137.5258
 20
-20.6968
 30
0.0
 10
-137.5258
 20
-20.6968
 30
0.0
 10
-132.7047
 20
-26.9406
 30
0.0
 10
-133.0318
 20
-32.5222
 30
0.0
 10
-133.954
 20
-35.4231
 30
0.0
 10
-133.954
 20
-35.4231
 30
0.0
 10
-122.4585
 20
-29.4676
 30
0.0
 10
-103.1854
 20
-25.3033
 30
0.0
 10
-85.3543
 20
-44.1839
 30
0.0
 10
-85.3543
 20
-44.1839
 30
0.0
 10
-85.3543
 20
-44.1839
 30
0.0
 10
-85.3543
 20
-44.184
 30
0.0
 10
-85.3543
 20
-44.184
 30
0.0
  0
SPLINE
  5
5C
330
1F
100
AcDbEntity
  8
layer 1
 62
     7
370
    53
100
AcDbSpline
210
0.0
220
0.0
230
1.0
 70
    11
 71
     3
 72
    76
 73
    72
 74
     0
 42
0.0000000001
 43
0.0000000001
 12
1.0
 22
0.0
 32
0.0
 13
1.0
 23
0.0
 33
0.0
 40
0.0
 40
0.0
 40
0.0
 40
0.0
 40
0.0526315789473684
 40
0.0526315789473684
 40
0.0526315789473684
 40
0.0526315789473684
 40
0.1052631578947368
 40
0.1052631578947368
 40
0.1052631578947368
 40
0.1052631578947368
 40
0.1578947368421053
 40
0.1578947368421053
 40
0.1578947368421053
 40
0.1578947368421053
 40
0.2105263157894737
 40
0.2105263157894737
 40
0.2105263157894737
 40
0.2105263157894737
 40
0.2631578947368421
 40
0.2631578947368421
 40
0.2631578947368421
 40
0.2631578947368421
 40
0.3157894736842105
 40
0.3157894736842105
 40
0.3157894736842105
 40
0.3157894736842105
 40
0.3684210526315789
 40
0.3684210526315789
 40
0.3684210526315789
 40
0.3684210526315789
 40
0.4210526315789473
 40
0.4210526315789473
 40
0.4210526315789473
 40
0.4210526315789473
 40
0.4736842105263158
 40
0.4736842105263158
 40
0.4736842105263158
 40
0.4736842105263158
 40
0.5263157894736842
 40
0.5263157894736842
 40
0.5263157894736842
 40
0.5263157894736842
 40
0.5789473684210527
 40
0.5789473684210527
 40
0.5789473684210527
 40
0.5789473684210527
 40
0.631578947368421
 40
0.631578947368421
 40
0.631578947368421
 40
0.631578947368421
 40
0.6842105263157895
 40
0.6842105263157895
 40
0.6842105263157895
 40
0.6842105263157895
 40
0.7368421052631579
 40
0.7368421052631579
 40
0.7368421052631579
 40
0.7368421052631579
 40
0.7894736842105263
 40
0.7894736842105263
 40
0.7894736842105263
 40
0.7894736842105263
 40
0.8421052631578947
 40
0.8421052631578947
 40
0.8421052631578947
 40
0.8421052631578947
 40
0.8947368421052632
 40
0.8947368421052632
 40
0.8947368421052632
 40
0.8947368421052632
 40
1.0
 40
1.0
 40
1.0
 40
1.0
 10
-85.3543
 20
-103.1251
 30
0.0
 10
-85.3543
 20
-103.1251
 30
0.0
 10
-85.3543
 20
-48.8738
 30
0.0
 10
-85.3543
 20
-48.8738
 30
0.0
 10
-85.3543
 20
-48.8738
 30
0.0
 10
-92.9896
 20
-39.6941
 30
0.0
 10
-102.5207
 20
-35.4286
 30
0.0
 10
-111.3849
 20
-35.6399
 30
0.0
 10
-111.3849
 20
-35.6399
 30
0.0
 10
-121.4803
 20
-35.8805
 30
0.0
 10
-130.738
 20
-40.5417
 30
0.0
 10
-135.8301
 20
-43.0625
 30
0.0
 10
-135.8301
 20
-43.0625
 30
0.0
 10
-136.2707
 20
-53.4383
 30
0.0
 10
-126.005
 20
-54.8185
 30
0.0
 10
-112.0815
 20
-60.3393
 30
0.0
 10
-112.0815
 20
-60.3393
 30
0.0
 10
-98.4108
 20
-67.7438
 30
0.0
 10
-102.9442
 20
-86.443
 30
0.0
 10
-105.4156
 20
-84.8111
 30
0.0
 10
-105.4156
 20
-84.8111
 30
0.0
 10
-107.2297
 20
-82.8882
 30
0.0
 10
-111.2904
 20
-79.6237
 30
0.0
 10
-112.2023
 20
-75.8423
 30
0.0
 10
-112.2023
 20
-75.8423
 30
0.0
 10
-112.6968
 20
-73.4284
 30
0.0
 10
-110.5686
 20
-70.3883
 30
0.0
 10
-109.4164
 20
-69.1138
 30
0.0
 10
-109.4164
 20
-69.1138
 30
0.0
 10
-113.0259
 20
-67.6977
 30
0.0
 10
-114.8431
 20
-72.4752
 30
0.0
 10
-115.2143
 20
-75.5071
 30
0.0
 10
-115.2143
 20
-75.5071
 30
0.0
 10
-115.9701
 20
-73.9886
 30
0.0
 10
-116.3313
 20
-72.8276
 30
0.0
 10
-117.5724
 20
-71.6089
 30
0.0
 10
-117.5724
 20
-71.6089
 30
0.0
 10
-119.0833
 20
-72.9154
 30
0.0
 10
-119.8422
 20
-74.8069
 30
0.0
 10
-119.8754
 20
-77.4403
 30
0.0
 10
-119.8754
 20
-77.4403
 30
0.0
 10
-121.3579
 20
-75.0226
 30
0.0
 10
-121.3619
 20
-71.7666
 30
0.0
 10
-119.8805
 20
-69.068
 30
0.0
 10
-119.8805
 20
-69.068
 30
0.0
 10
-119.1089
 20
-67.6622
 30
0.0
 10
-120.1319
 20
-67.1278
 30
0.0
 10
-120.5841
 20
-66.0744
 30
0.0
 10
-120.5841
 20
-66.0744
 30
0.0
 10
-123.5219
 20
-61.4344
 30
0.0
 10
-130.3364
 20
-61.5488
 30
0.0
 10
-133.1162
 20
-61.2641
 30
0.0
 10
-133.1162
 20
-61.2641
 30
0.0
 10
-142.6602
 20
-62.3122
 30
0.0
 10
-145.4454
 20
-58.8938
 30
0.0
 10
-145.1885
 20
-53.3691
 30
0.0
 10
-145.1885
 20
-53.3691
 30
0.0
 10
-145.0687
 20
-52.185
 30
0.0
 10
-145.6023
 20
-48.4854
 30
0.0
 10
-146.6766
 20
-47.6055
 30
0.0
 10
-146.6766
 20
-47.6055
 30
0.0
 10
-155.2997
 20
-60.1656
 30
0.0
 10
-129.8186
 20
-84.4501
 30
0.0
 10
-129.1183
 20
-85.0715
 30
0.0
 10
-129.1183
 20
-85.0715
 30
0.0
 10
-123.5581
 20
-89.5655
 30
0.0
 10
-124.7167
 20
-98.155
 30
0.0
 10
-127.3942
 20
-103.3583
 30
0.0
 10
-127.3942
 20
-103.3583
 30
0.0
 10
-127.3942
 20
-103.3583
 30
0.0
 10
-85.3543
 20
-103.1251
 30
0.0
 10
-85.3543
 20
-103.1251
 30
0.0
  0
SPLINE
  5
5D
330
1F
100
AcDbEntity
  8
layer 1
 62
     7
370
    53
100
AcDbSpline
210
0.0
220
0.0
230
1.0
 70
    11
 71
     3
 72
    16
 73
    12
 74
     0
 42
0.0000000001
 43
0.0000000001
 12
1.0
 22
0.0
 32
0.0
 13
1.0
 23
0.0
 33
0.0
 40
0.0
 40
0.0
 40
0.0
 40
0.0
 40
0.25
 40
0.25
 40
0.25
 40
0.25
 40
0.5
 40
0.5
 40
0.5
 40
0.5
 40
1.0
 40
1.0
 40
1.0
 40
1.0
 10
-152.6163
 20
-48.8206
 30
0.0
 10
-154.7731
 20
-49.8599
 30
0.0
 10
-155.3102
 20
-49.7698
 30
0.0
 10
-156.9883
 20
-49.3928
 30
0.0
 10
-156.9883
 20
-49.3928
 30
0.0
 10
-157.8722
 20
-50.7685
 30
0.0
 10
-158.0878
 20
-53.4055
 30
0.0
 10
-156.5266
 20
-53.8791
 30
0.0
 10
-156.5266
 20
-53.8791
 30
0.0
 10
-154.7166
 20
-54.2607
 30
0.0
 10
-154.9751
 20
-51.1923
 30
0.0
 10
-152.6163
 20
-48.8206
 30
0.0
  0
SPLINE
  5
5E
330
1F
100
AcDbEntity
  8
layer 1
 62
     7
370
    53
100
AcDbSpline
210
0.0
220
0.0
230
1.0
 70
    11
 71
     3
 72
    20
 73
    16
 74
     0
 42
0.0000000001
 43
0.0000000001
 12
1.0
 22
0.0
 32
0.0
 13
1.0
 23
0.0
 33
0.0
 40
0.0
 40
0.0
 40
0.0
 40
0.0
 40
0.2
 40
0.2
 40
0.2
 40
0.2
 40
0.4
 40
0.4
 40
0.4
 40
0.4
 40
0.6
 40
0.6
 40
0.6
 40
0.6
 40
1.0
 40
1.0
 40
1.0
 40
1.0
 10
-139.6818
 20
-44.0316
 30
0.0
 10
-140.9147
 20
-44.7947
 30
0.0
 10
-141.8213
 20
-45.7176
 30
0.0
 10
-142.8527
 20
-45.6168
 30
0.0
 10
-142.8527
 20
-45.6168
 30
0.0
 10
-140.2257
 20
-49.1107
 30
0.0
 10
-142.7512
 20
-55.2474
 30
0.0
 10
-136.5704
 20
-54.1553
 30
0.0
 10
-136.5704
 20
-54.1553
 30
0.0
 10
-138.4901
 20
-50.2084
 30
0.0
 10
-139.7107
 20
-48.5215
 30
0.0
 10
-139.6817
 20
-44.0316
 30
0.0
 10
-139.6817
 20
-44.0316
 30
0.0
 10
-139.6817
 20
-44.0316
 30
0.0
 10
-139.6818
 20
-44.0316
 30
0.0
 10
-139.6818
 20
-44.0316
 30
0.0
  0
ENDSEC
  0
SECTION
  2
OBJECTS
  0
DICTIONARY
  5
C
330
0
100
AcDbDictionary
281
     1
  3
ACAD_GROUP
350
D
  3
ACAD_LAYOUT
350
1A
  3
ACAD_MATERIAL
350
3B
  3
ACAD_MLEADERSTYLE
350
81
  3
ACAD_MLINESTYLE
350
17
  3
ACAD_PLOTSETTINGS
350
19
  3
ACAD_PLOTSTYLENAME
350
E
  3
ACAD_TABLESTYLE
350
80
  3
ACAD_VISUALSTYLE
350
2A
  0
DICTIONARY
  5
D
102
{ACAD_REACTORS
330
C
102
}
330
C
100
AcDbDictionary
281
     1
  0
DICTIONARY
  5
1A
102
{ACAD_REACTORS
330
C
102
}
330
C
100
AcDbDictionary
281
     1
  3
Layout1
350
1E
  3
Layout2
350
26
  3
Model
350
22
  0
DICTIONARY
  5
3B
102
{ACAD_REACTORS
330
C
102
}
330
C
100
AcDbDictionary
281
     1
  3
ByBlock
350
3D
  3
ByLayer
350
3C
  3
Global
350
3E
  0
DICTIONARY
  5
81
102
{ACAD_REACTORS
330
C
102
}
330
C
100
AcDbDictionary
281
     1
  0
DICTIONARY
  5
17
102
{ACAD_REACTORS
330
C
102
}
330
C
100
AcDbDictionary
281
     1
  3
Standard
350
18
  0
DICTIONARY
  5
19
102
{ACAD_REACTORS
330
C
102
}
330
C
100
AcDbDictionary
281
     1
  0
ACDBDICTIONARYWDFLT
  5
E
102
{ACAD_REACTORS
330
C
102
}
330
C
100
AcDbDictionary
281
     1
  3
Normal
350
F
100
AcDbDictionaryWithDefault
340
F
  0
DICTIONARY
  5
80
102
{ACAD_REACTORS
330
C
102
}
330
C
100
AcDbDictionary
281
     1
  0
DICTIONARY
  5
2A
102
{ACAD_REACTORS
330
C
102
}
330
C
100
AcDbDictionary
281
     1
  3
2dWireframe
350
2F
  3
3D Hidden
350
31
  3
3dWireframe
350
30
  3
Basic
350
32
  3
Brighten
350
36
  3
ColorChange
350
3A
  3
Conceptual
350
34
  3
Dim
350
35
  3
Facepattern
350
39
  3
Flat
350
2B
  3
FlatWithEdges
350
2C
  3
Gouraud
350
2D
  3
GouraudWithEdges
350
2E
  3
Linepattern
350
38
  3
Realistic
350
33
  3
Thicken
350
37
  0
LAYOUT
  5
1E
102
{ACAD_REACTORS
330
1A
102
}
330
1A
100
AcDbPlotSettings
  1

  2
none_device
  4

  6

 40
0.0
 41
0.0
 42
0.0
 43
0.0
 44
0.0
 45
0.0
 46
0.0
 47
0.0
 48
0.0
 49
0.0
140
0.0
141
0.0
142
1.0
143
1.0
 70
   688
 72
     0
 73
     0
 74
     5
  7

 75
    16
 76
     0
 77
     2
 78
   300
147
1.0
148
0.0
149
0.0
100
AcDbLayout
  1
Layout1
 70
     1
 71
     1
 10
0.0
 20
0.0
 11
12.0
 21
9.0
 12
0.0
 22
0.0
 32
0.0
 14
1.000000000000000E+20
 24
1.000000000000000E+20
 34
1.000000000000000E+20
 15
-1.000000000000000E+20
 25
-1.000000000000000E+20
 35
-1.000000000000000E+20
146
0.0
 13
0.0
 23
0.0
 33
0.0
 16
1.0
 26
0.0
 36
0.0
 17
0.0
 27
1.0
 37
0.0
 76
     0
330
1B
  0
LAYOUT
  5
26
102
{ACAD_REACTORS
330
1A
102
}
330
1A
100
AcDbPlotSettings
  1

  2
none_device
  4

  6

 40
0.0
 41
0.0
 42
0.0
 43
0.0
 44
0.0
 45
0.0
 46
0.0
 47
0.0
 48
0.0
 49
0.0
140
0.0
141
0.0
142
1.0
143
1.0
 70
   688
 72
     0
 73
     0
 74
     5
  7

 75
    16
 76
     0
 77
     2
 78
   300
147
1.0
148
0.0
149
0.0
100
AcDbLayout
  1
Layout2
 70
     1
 71
     2
 10
0.0
 20
0.0
 11
0.0
 21
0.0
 12
0.0
 22
0.0
 32
0.0
 14
0.0
 24
0.0
 34
0.0
 15
0.0
 25
0.0
 35
0.0
146
0.0
 13
0.0
 23
0.0
 33
0.0
 16
1.0
 26
0.0
 36
0.0
 17
0.0
 27
1.0
 37
0.0
 76
     0
330
23
  0
LAYOUT
  5
22
102
{ACAD_REACTORS
330
1A
102
}
330
1A
100
AcDbPlotSettings
  1

  2
none_device
  4

  6

 40
0.0
 41
0.0
 42
0.0
 43
0.0
 44
0.0
 45
0.0
 46
0.0
 47
0.0
 48
0.0
 49
0.0
140
0.0
141
0.0
142
1.0
143
1.0
 70
  1712
 72
     0
 73
     0
 74
     0
  7

 75
     0
 76
     0
 77
     2
 78
   300
147
1.0
148
0.0
149
0.0
100
AcDbLayout
  1
Model
 70
     1
 71
     0
 10
0.0
 20
0.0
 11
12.0
 21
9.0
 12
0.0
 22
0.0
 32
0.0
 14
-187.6278
 24
-115.0992
 34
0.0
 15
-78.0223
 25
131.8981
 35
0.0
146
0.0
 13
0.0
 23
0.0
 33
0.0
 16
1.0
 26
0.0
 36
0.0
 17
0.0
 27
1.0
 37
0.0
 76
     0
330
1F
331
29
  0
MATERIAL
  5
3D
102
{ACAD_REACTORS
330
3B
102
}
330
3B
100
AcDbMaterial
  1
ByBlock
 72
     1
 94
      127
  0
MATERIAL
  5
3C
102
{ACAD_REACTORS
330
3B
102
}
330
3B
100
AcDbMaterial
  1
ByLayer
 72
     1
 94
      127
  0
MATERIAL
  5
3E
102
{ACAD_REACTORS
330
3B
102
}
330
3B
100
AcDbMaterial
  1
Global
 72
     1
 94
      127
  0
MLINESTYLE
  5
18
102
{ACAD_REACTORS
330
17
102
}
330
17
100
AcDbMlineStyle
  2
Standard
 70
     0
  3

 62
   256
 51
90.0
 52
90.0
 71
     2
 49
0.5
 62
   256
  6
BYLAYER
 49
-0.5
 62
   256
  6
BYLAYER
  0
ACDBPLACEHOLDER
  5
F
102
{ACAD_REACTORS
330
E
102
}
330
E
  0
VISUALSTYLE
  5
2F
102
{ACAD_REACTORS
330
2A
102
}
102
{ACAD_XDICTIONARY
360
68
102
}
330
2A
100
AcDbVisualStyle
  2
2dWireframe
 70
     4
 71
     0
 72
     2
 73
     0
 90
        0
 40
-0.6
 41
-30.0
 62
     5
 63
     7
421
 16777215
 74
     1
 91
        4
 64
     7
 65
   257
 75
     1
175
     1
 42
1.0
 92
        0
 66
   257
 43
1.0
 76
     1
 77
     6
 78
     2
 67
     7
 79
     5
170
     0
171
     0
290
     0
174
     0
 93
        1
 44
0.0
173
     0
291
     0
 45
0.0
  0
VISUALSTYLE
  5
31
102
{ACAD_REACTORS
330
2A
102
}
102
{ACAD_XDICTIONARY
360
6C
102
}
330
2A
100
AcDbVisualStyle
  2
3D Hidden
 70
     6
 71
     1
 72
     2
 73
     2
 90
        0
 40
-0.6
 41
-30.0
 62
     5
 63
     7
421
 16777215
 74
     2
 91
        2
 64
     7
 65
   257
 75
     2
175
     1
 42
40.0
 92
        0
 66
   257
 43
1.0
 76
     1
 77
     6
 78
     2
 67
     7
 79
     3
170
     0
171
     0
290
     0
174
     0
 93
        1
 44
0.0
173
     0
291
     0
 45
0.0
  0
VISUALSTYLE
  5
30
102
{ACAD_REACTORS
330
2A
102
}
102
{ACAD_XDICTIONARY
360
6A
102
}
330
2A
100
AcDbVisualStyle
  2
3dWireframe
 70
     5
 71
     0
 72
     2
 73
     0
 90
        0
 40
-0.6
 41
-30.0
 62
     5
 63
     7
421
 16777215
 74
     1
 91
        4
 64
     7
 65
   257
 75
     1
175
     1
 42
1.0
 92
        0
 66
   257
 43
1.0
 76
     1
 77
     6
 78
     2
 67
     7
 79
     5
170
     0
171
     0
290
     0
174
     0
 93
        1
 44
0.0
173
     0
291
     0
 45
0.0
  0
VISUALSTYLE
  5
32
102
{ACAD_REACTORS
330
2A
102
}
102
{ACAD_XDICTIONARY
360
6E
102
}
330
2A
100
AcDbVisualStyle
  2
Basic
 70
     7
 71
     1
 72
     0
 73
     1
 90
        0
 40
-0.6
 41
-30.0
 62
     5
 63
     7
421
 16777215
 74
     0
 91
        4
 64
     7
 65
   257
 75
     1
175
     1
 42
1.0
 92
        8
 66
     7
 43
1.0
 76
     1
 77
     6
 78
     2
 67
     7
 79
     5
170
     0
171
     0
290
     0
174
     0
 93
        1
 44
0.0
173
     0
291
     1
 45
0.0
  0
VISUALSTYLE
  5
36
102
{ACAD_REACTORS
330
2A
102
}
102
{ACAD_XDICTIONARY
360
76
102
}
330
2A
100
AcDbVisualStyle
  2
Brighten
 70
    12
 71
     2
 72
     2
 73
     0
 90
        0
 40
-0.6
 41
-30.0
 62
     5
 63
     7
421
 16777215
 74
     1
 91
        4
 64
     7
 65
   257
 75
     1
175
     1
 42
1.0
 92
        8
 66
     7
 43
1.0
 76
     1
 77
     6
 78
     2
 67
     7
 79
     5
170
     0
171
     0
290
     0
174
     0
 93
        1
 44
50.0
173
     0
291
     1
 45
0.0
  0
VISUALSTYLE
  5
3A
102
{ACAD_REACTORS
330
2A
102
}
102
{ACAD_XDICTIONARY
360
7E
102
}
330
2A
100
AcDbVisualStyle
  2
ColorChange
 70
    16
 71
     2
 72
     2
 73
     3
 90
        0
 40
-0.6
 41
-30.0
 62
     5
 63
     8
421
  8421504
 74
     1
 91
        4
 64
     7
 65
   257
 75
     1
175
     1
 42
1.0
 92
        8
 66
     8
424
  8421504
 43
1.0
 76
     1
 77
     6
 78
     2
 67
     7
 79
     5
170
     0
171
     0
290
     0
174
     0
 93
        1
 44
0.0
173
     0
291
     1
 45
0.0
  0
VISUALSTYLE
  5
34
102
{ACAD_REACTORS
330
2A
102
}
102
{ACAD_XDICTIONARY
360
72
102
}
330
2A
100
AcDbVisualStyle
  2
Conceptual
 70
     9
 71
     3
 72
     2
 73
     0
 90
        0
 40
-0.6
 41
-30.0
 62
     5
 63
     7
421
 16777215
 74
     2
 91
        2
 64
     7
 65
   257
 75
     1
175
     1
 42
40.0
 92
        8
 66
     7
 43
1.0
 76
     1
 77
     6
 78
     2
 67
     7
 79
     3
170
     0
171
     0
290
     0
174
     0
 93
        1
 44
0.0
173
     0
291
     0
 45
0.0
  0
VISUALSTYLE
  5
35
102
{ACAD_REACTORS
330
2A
102
}
102
{ACAD_XDICTIONARY
360
74
102
}
330
2A
100
AcDbVisualStyle
  2
Dim
 70
    11
 71
     2
 72
     2
 73
     0
 90
        0
 40
-0.6
 41
-30.0
 62
     5
 63
     7
421
 16777215
 74
     1
 91
        4
 64
     7
 65
   257
 75
     1
175
     1
 42
1.0
 92
        8
 66
     7
 43
1.0
 76
     1
 77
     6
 78
     2
 67
     7
 79
     5
170
     0
171
     0
290
     0
174
     0
 93
        1
 44
-50.0
173
     0
291
     1
 45
0.0
  0
VISUALSTYLE
  5
39
102
{ACAD_REACTORS
330
2A
102
}
102
{ACAD_XDICTIONARY
360
7C
102
}
330
2A
100
AcDbVisualStyle
  2
Facepattern
 70
    15
 71
     2
 72
     2
 73
     0
 90
        0
 40
-0.6
 41
-30.0
 62
     5
 63
     7
421
 16777215
 74
     1
 91
        4
 64
     7
 65
   257
 75
     1
175
     1
 42
1.0
 92
        8
 66
     7
 43
1.0
 76
     1
 77
     6
 78
     2
 67
     7
 79
     5
170
     0
171
     0
290
     0
174
     0
 93
        1
 44
0.0
173
     0
291
     1
 45
0.0
  0
VISUALSTYLE
  5
2B
102
{ACAD_REACTORS
330
2A
102
}
102
{ACAD_XDICTIONARY
360
60
102
}
330
2A
100
AcDbVisualStyle
  2
Flat
 70
     0
 71
     2
 72
     1
 73
     1
 90
        2
 40
-0.6
 41
30.0
 62
     5
 63
     7
421
 16777215
 74
     0
 91
        4
 64
     7
 65
   257
 75
     1
175
     1
 42
1.0
 92
        8
 66
     7
 43
1.0
 76
     1
 77
     6
 78
     2
 67
     7
 79
     5
170
     0
171
     0
290
     0
174
     0
 93
       13
 44
0.0
173
     0
291
     1
 45
0.0
  0
VISUALSTYLE
  5
2C
102
{ACAD_REACTORS
330
2A
102
}
102
{ACAD_XDICTIONARY
360
62
102
}
330
2A
100
AcDbVisualStyle
  2
FlatWithEdges
 70
     1
 71
     2
 72
     1
 73
     1
 90
        2
 40
-0.6
 41
30.0
 62
     5
 63
     7
421
 16777215
 74
     1
 91
        4
 64
     7
 65
   257
 75
     1
175
     1
 42
1.0
 92
        0
 66
   257
 43
1.0
 76
     1
 77
     6
 78
     2
 67
     7
 79
     5
170
     0
171
     0
290
     0
174
     0
 93
       13
 44
0.0
173
     0
291
     1
 45
0.0
  0
VISUALSTYLE
  5
2D
102
{ACAD_REACTORS
330
2A
102
}
102
{ACAD_XDICTIONARY
360
64
102
}
330
2A
100
AcDbVisualStyle
  2
Gouraud
 70
     2
 71
     2
 72
     2
 73
     1
 90
        2
 40
-0.6
 41
30.0
 62
     5
 63
     7
421
 16777215
 74
     0
 91
        4
 64
     7
 65
   257
 75
     1
175
     1
 42
1.0
 92
        0
 66
     7
 43
1.0
 76
     1
 77
     6
 78
     2
 67
     7
 79
     5
170
     0
171
     0
290
     0
174
     0
 93
       13
 44
0.0
173
     0
291
     1
 45
0.0
  0
VISUALSTYLE
  5
2E
102
{ACAD_REACTORS
330
2A
102
}
102
{ACAD_XDICTIONARY
360
66
102
}
330
2A
100
AcDbVisualStyle
  2
GouraudWithEdges
 70
     3
 71
     2
 72
     2
 73
     1
 90
        2
 40
-0.6
 41
30.0
 62
     5
 63
     7
421
 16777215
 74
     1
 91
        4
 64
     7
 65
   257
 75
     1
175
     1
 42
1.0
 92
        0
 66
   257
 43
1.0
 76
     1
 77
     6
 78
     2
 67
     7
 79
     5
170
     0
171
     0
290
     0
174
     0
 93
       13
 44
0.0
173
     0
291
     1
 45
0.0
  0
VISUALSTYLE
  5
38
102
{ACAD_REACTORS
330
2A
102
}
102
{ACAD_XDICTIONARY
360
7A
102
}
330
2A
100
AcDbVisualStyle
  2
Linepattern
 70
    14
 71
     2
 72
     2
 73
     0
 90
        0
 40
-0.6
 41
-30.0
 62
     5
 63
     7
421
 16777215
 74
     1
 91
        4
 64
     7
 65
   257
 75
     7
175
     7
 42
1.0
 92
        8
 66
     7
 43
1.0
 76
     1
 77
     6
 78
     2
 67
     7
 79
     5
170
     0
171
     0
290
     0
174
     0
 93
        1
 44
0.0
173
     0
291
     1
 45
0.0
  0
VISUALSTYLE
  5
33
102
{ACAD_REACTORS
330
2A
102
}
102
{ACAD_XDICTIONARY
360
70
102
}
330
2A
100
AcDbVisualStyle
  2
Realistic
 70
     8
 71
     2
 72
     2
 73
     0
 90
        0
 40
-0.6
 41
-30.0
 62
     5
 63
     7
421
 16777215
 74
     1
 91
        0
 64
     7
 65
   257
 75
     1
175
     1
 42
1.0
 92
        8
 66
     8
424
  7895160
 43
1.0
 76
     1
 77
     6
 78
     2
 67
     7
 79
     5
170
     0
171
     0
290
     0
174
     0
 93
       13
 44
0.0
173
     0
291
     0
 45
0.0
  0
VISUALSTYLE
  5
37
102
{ACAD_REACTORS
330
2A
102
}
102
{ACAD_XDICTIONARY
360
78
102
}
330
2A
100
AcDbVisualStyle
  2
Thicken
 70
    13
 71
     2
 72
     2
 73
     0
 90
        0
 40
-0.6
 41
-30.0
 62
     5
 63
     7
421
 16777215
 74
     1
 91
        4
 64
     7
 65
   257
 75
     1
175
     1
 42
1.0
 92
       12
 66
     7
 43
1.0
 76
     1
 77
     6
 78
     2
 67
     7
 79
     5
170
     0
171
     0
290
     0
174
     0
 93
        1
 44
0.0
173
     0
291
     1
 45
0.0
  0
DICTIONARY
  5
68
330
2F
100
AcDbDictionary
280
     1
281
     1
  3
ACAD_XREC_ROUNDTRIP
360
69
  0
DICTIONARY
  5
6C
330
31
100
AcDbDictionary
280
     1
281
     1
  3
ACAD_XREC_ROUNDTRIP
360
6D
  0
DICTIONARY
  5
6A
330
30
100
AcDbDictionary
280
     1
281
     1
  3
ACAD_XREC_ROUNDTRIP
360
6B
  0
DICTIONARY
  5
6E
330
32
100
AcDbDictionary
280
     1
281
     1
  3
ACAD_XREC_ROUNDTRIP
360
6F
  0
DICTIONARY
  5
76
330
36
100
AcDbDictionary
280
     1
281
     1
  3
ACAD_XREC_ROUNDTRIP
360
77
  0
DICTIONARY
  5
7E
330
3A
100
AcDbDictionary
280
     1
281
     1
  3
ACAD_XREC_ROUNDTRIP
360
7F
  0
DICTIONARY
  5
72
330
34
100
AcDbDictionary
280
     1
281
     1
  3
ACAD_XREC_ROUNDTRIP
360
73
  0
DICTIONARY
  5
74
330
35
100
AcDbDictionary
280
     1
281
     1
  3
ACAD_XREC_ROUNDTRIP
360
75
  0
DICTIONARY
  5
7C
330
39
100
AcDbDictionary
280
     1
281
     1
  3
ACAD_XREC_ROUNDTRIP
360
7D
  0
DICTIONARY
  5
60
330
2B
100
AcDbDictionary
280
     1
281
     1
  3
ACAD_XREC_ROUNDTRIP
360
61
  0
DICTIONARY
  5
62
330
2C
100
AcDbDictionary
280
     1
281
     1
  3
ACAD_XREC_ROUNDTRIP
360
63
  0
DICTIONARY
  5
64
330
2D
100
AcDbDictionary
280
     1
281
     1
  3
ACAD_XREC_ROUNDTRIP
360
65
  0
DICTIONARY
  5
66
330
2E
100
AcDbDictionary
280
     1
281
     1
  3
ACAD_XREC_ROUNDTRIP
360
67
  0
DICTIONARY
  5
7A
330
38
100
AcDbDictionary
280
     1
281
     1
  3
ACAD_XREC_ROUNDTRIP
360
7B
  0
DICTIONARY
  5
70
330
33
100
AcDbDictionary
280
     1
281
     1
  3
ACAD_XREC_ROUNDTRIP
360
71
  0
DICTIONARY
  5
78
330
37
100
AcDbDictionary
280
     1
281
     1
  3
ACAD_XREC_ROUNDTRIP
360
79
  0
XRECORD
  5
69
102
{ACAD_REACTORS
330
68
102
}
330
68
100
AcDbXrecord
280
     1
102
RTVSPropertyOp0
 70
     1
102
RTVSPropertyOp1
 70
     1
102
RTVSPropertyOp2
 70
     1
102
RTVSPropertyOp3
 70
     1
102
RTVSPropertyOp4
 70
     1
102
RTVSPropertyOp5
 70
     1
102
RTVSPropertyOp6
 70
     1
102
RTVSPropertyOp7
 70
     1
102
RTVSPropertyOp8
 70
     1
102
RTVSPropertyOp9
 70
     1
102
RTVSPropertyOp10
 70
     1
102
RTVSPropertyOp11
 70
     1
102
RTVSPropertyOp12
 70
     1
102
RTVSPropertyOp13
 70
     1
102
RTVSPropertyOp14
 70
     1
102
RTVSPropertyOp15
 70
     1
102
RTVSPropertyOp16
 70
     1
102
RTVSPropertyOp17
 70
     1
102
RTVSPropertyOp18
 70
     1
102
RTVSPropertyOp19
 70
     1
102
RTVSPropertyOp20
 70
     1
102
RTVSPropertyOp21
 70
     1
102
RTVSPropertyOp22
 70
     1
102
RTVSPropertyOp23
 70
     1
102
RTVSPropertyOp24
 70
     1
102
RTVSPropertyOp25
 70
     1
102
RTVSPropertyOp26
 70
     1
102
RTVSPropertyOp27
 70
     1
102
RTVSPropertyOp28
 70
     1
102
RTVSPropertyOp29
 70
     1
102
RTVSPropertyOp30
 70
     1
102
RTVSPropertyOp31
 70
     1
102
RTVSPropertyOp32
 70
     1
  0
XRECORD
  5
6D
102
{ACAD_REACTORS
330
6C
102
}
330
6C
100
AcDbXrecord
280
     1
102
RTVSPropertyOp0
 70
     1
102
RTVSPropertyOp1
 70
     1
102
RTVSPropertyOp2
 70
     1
102
RTVSPropertyOp3
 70
     1
102
RTVSPropertyOp4
 70
     1
102
RTVSPropertyOp5
 70
     1
102
RTVSPropertyOp6
 70
     1
102
RTVSPropertyOp7
 70
     1
102
RTVSPropertyOp8
 70
     1
102
RTVSPropertyOp9
 70
     1
102
RTVSPropertyOp10
 70
     1
102
RTVSPropertyOp11
 70
     1
102
RTVSPropertyOp12
 70
     1
102
RTVSPropertyOp13
 70
     1
102
RTVSPropertyOp14
 70
     1
102
RTVSPropertyOp15
 70
     1
102
RTVSPropertyOp16
 70
     1
102
RTVSPropertyOp17
 70
     1
102
RTVSPropertyOp18
 70
     1
102
RTVSPropertyOp19
 70
     1
102
RTVSPropertyOp20
 70
     1
102
RTVSPropertyOp21
 70
     1
102
RTVSPropertyOp22
 70
     1
102
RTVSPropertyOp23
 70
     1
102
RTVSPropertyOp24
 70
     1
102
RTVSPropertyOp25
 70
     1
102
RTVSPropertyOp26
 70
     1
102
RTVSPropertyOp27
 70
     1
102
RTVSPropertyOp28
 70
     1
102
RTVSPropertyOp29
 70
     1
102
RTVSPropertyOp30
 70
     1
102
RTVSPropertyOp31
 70
     1
102
RTVSPropertyOp32
 70
     1
  0
XRECORD
  5
6B
102
{ACAD_REACTORS
330
6A
102
}
330
6A
100
AcDbXrecord
280
     1
102
RTVSPropertyOp0
 70
     1
102
RTVSPropertyOp1
 70
     1
102
RTVSPropertyOp2
 70
     1
102
RTVSPropertyOp3
 70
     1
102
RTVSPropertyOp4
 70
     1
102
RTVSPropertyOp5
 70
     1
102
RTVSPropertyOp6
 70
     1
102
RTVSPropertyOp7
 70
     1
102
RTVSPropertyOp8
 70
     1
102
RTVSPropertyOp9
 70
     1
102
RTVSPropertyOp10
 70
     1
102
RTVSPropertyOp11
 70
     1
102
RTVSPropertyOp12
 70
     1
102
RTVSPropertyOp13
 70
     1
102
RTVSPropertyOp14
 70
     1
102
RTVSPropertyOp15
 70
     1
102
RTVSPropertyOp16
 70
     1
102
RTVSPropertyOp17
 70
     1
102
RTVSPropertyOp18
 70
     1
102
RTVSPropertyOp19
 70
     1
102
RTVSPropertyOp20
 70
     1
102
RTVSPropertyOp21
 70
     1
102
RTVSPropertyOp22
 70
     1
102
RTVSPropertyOp23
 70
     1
102
RTVSPropertyOp24
 70
     1
102
RTVSPropertyOp25
 70
     1
102
RTVSPropertyOp26
 70
     1
102
RTVSPropertyOp27
 70
     1
102
RTVSPropertyOp28
 70
     1
102
RTVSPropertyOp29
 70
     1
102
RTVSPropertyOp30
 70
     1
102
RTVSPropertyOp31
 70
     1
102
RTVSPropertyOp32
 70
     1
  0
XRECORD
  5
6F
102
{ACAD_REACTORS
330
6E
102
}
330
6E
100
AcDbXrecord
280
     1
102
RTVSPropertyOp0
 70
     1
102
RTVSPropertyOp1
 70
     1
102
RTVSPropertyOp2
 70
     1
102
RTVSPropertyOp3
 70
     1
102
RTVSPropertyOp4
 70
     1
102
RTVSPropertyOp5
 70
     1
102
RTVSPropertyOp6
 70
     1
102
RTVSPropertyOp7
 70
     1
102
RTVSPropertyOp8
 70
     1
102
RTVSPropertyOp9
 70
     1
102
RTVSPropertyOp10
 70
     1
102
RTVSPropertyOp11
 70
     1
102
RTVSPropertyOp12
 70
     1
102
RTVSPropertyOp13
 70
     1
102
RTVSPropertyOp14
 70
     1
102
RTVSPropertyOp15
 70
     1
102
RTVSPropertyOp16
 70
     1
102
RTVSPropertyOp17
 70
     1
102
RTVSPropertyOp18
 70
     1
102
RTVSPropertyOp19
 70
     1
102
RTVSPropertyOp20
 70
     1
102
RTVSPropertyOp21
 70
     1
102
RTVSPropertyOp22
 70
     1
102
RTVSPropertyOp23
 70
     1
102
RTVSPropertyOp24
 70
     1
102
RTVSPropertyOp25
 70
     1
102
RTVSPropertyOp26
 70
     1
102
RTVSPropertyOp27
 70
     1
102
RTVSPropertyOp28
 70
     1
102
RTVSPropertyOp29
 70
     1
102
RTVSPropertyOp30
 70
     1
102
RTVSPropertyOp31
 70
     1
102
RTVSPropertyOp32
 70
     1
  0
XRECORD
  5
77
102
{ACAD_REACTORS
330
76
102
}
330
76
100
AcDbXrecord
280
     1
102
RTVSPropertyOp0
 70
     1
102
RTVSPropertyOp1
 70
     1
102
RTVSPropertyOp2
 70
     1
102
RTVSPropertyOp3
 70
     1
102
RTVSPropertyOp4
 70
     1
102
RTVSPropertyOp5
 70
     1
102
RTVSPropertyOp6
 70
     1
102
RTVSPropertyOp7
 70
     1
102
RTVSPropertyOp8
 70
     1
102
RTVSPropertyOp9
 70
     1
102
RTVSPropertyOp10
 70
     1
102
RTVSPropertyOp11
 70
     1
102
RTVSPropertyOp12
 70
     1
102
RTVSPropertyOp13
 70
     1
102
RTVSPropertyOp14
 70
     1
102
RTVSPropertyOp15
 70
     1
102
RTVSPropertyOp16
 70
     1
102
RTVSPropertyOp17
 70
     1
102
RTVSPropertyOp18
 70
     1
102
RTVSPropertyOp19
 70
     1
102
RTVSPropertyOp20
 70
     1
102
RTVSPropertyOp21
 70
     1
102
RTVSPropertyOp22
 70
     1
102
RTVSPropertyOp23
 70
     1
102
RTVSPropertyOp24
 70
     1
102
RTVSPropertyOp25
 70
     1
102
RTVSPropertyOp26
 70
     1
102
RTVSPropertyOp27
 70
     1
102
RTVSPropertyOp28
 70
     1
102
RTVSPropertyOp29
 70
     1
102
RTVSPropertyOp30
 70
     1
102
RTVSPropertyOp31
 70
     1
102
RTVSPropertyOp32
 70
     1
  0
XRECORD
  5
7F
102
{ACAD_REACTORS
330
7E
102
}
330
7E
100
AcDbXrecord
280
     1
102
RTVSPropertyOp0
 70
     1
102
RTVSPropertyOp1
 70
     1
102
RTVSPropertyOp2
 70
     1
102
RTVSPropertyOp3
 70
     1
102
RTVSPropertyOp4
 70
     1
102
RTVSPropertyOp5
 70
     1
102
RTVSPropertyOp6
 70
     1
102
RTVSPropertyOp7
 70
     1
102
RTVSPropertyOp8
 70
     1
102
RTVSPropertyOp9
 70
     1
102
RTVSPropertyOp10
 70
     1
102
RTVSPropertyOp11
 70
     1
102
RTVSPropertyOp12
 70
     1
102
RTVSPropertyOp13
 70
     1
102
RTVSPropertyOp14
 70
     1
102
RTVSPropertyOp15
 70
     1
102
RTVSPropertyOp16
 70
     1
102
RTVSPropertyOp17
 70
     1
102
RTVSPropertyOp18
 70
     1
102
RTVSPropertyOp19
 70
     1
102
RTVSPropertyOp20
 70
     1
102
RTVSPropertyOp21
 70
     1
102
RTVSPropertyOp22
 70
     1
102
RTVSPropertyOp23
 70
     1
102
RTVSPropertyOp24
 70
     1
102
RTVSPropertyOp25
 70
     1
102
RTVSPropertyOp26
 70
     1
102
RTVSPropertyOp27
 70
     1
102
RTVSPropertyOp28
 70
     1
102
RTVSPropertyOp29
 70
     1
102
RTVSPropertyOp30
 70
     1
102
RTVSPropertyOp31
 70
     1
102
RTVSPropertyOp32
 70
     1
  0
XRECORD
  5
73
102
{ACAD_REACTORS
330
72
102
}
330
72
100
AcDbXrecord
280
     1
102
RTVSPropertyOp0
 70
     1
102
RTVSPropertyOp1
 70
     1
102
RTVSPropertyOp2
 70
     1
102
RTVSPropertyOp3
 70
     1
102
RTVSPropertyOp4
 70
     1
102
RTVSPropertyOp5
 70
     1
102
RTVSPropertyOp6
 70
     1
102
RTVSPropertyOp7
 70
     1
102
RTVSPropertyOp8
 70
     1
102
RTVSPropertyOp9
 70
     1
102
RTVSPropertyOp10
 70
     1
102
RTVSPropertyOp11
 70
     1
102
RTVSPropertyOp12
 70
     1
102
RTVSPropertyOp13
 70
     1
102
RTVSPropertyOp14
 70
     1
102
RTVSPropertyOp15
 70
     1
102
RTVSPropertyOp16
 70
     1
102
RTVSPropertyOp17
 70
     1
102
RTVSPropertyOp18
 70
     1
102
RTVSPropertyOp19
 70
     1
102
RTVSPropertyOp20
 70
     1
102
RTVSPropertyOp21
 70
     1
102
RTVSPropertyOp22
 70
     1
102
RTVSPropertyOp23
 70
     1
102
RTVSPropertyOp24
 70
     1
102
RTVSPropertyOp25
 70
     1
102
RTVSPropertyOp26
 70
     1
102
RTVSPropertyOp27
 70
     1
102
RTVSPropertyOp28
 70
     1
102
RTVSPropertyOp29
 70
     1
102
RTVSPropertyOp30
 70
     1
102
RTVSPropertyOp31
 70
     1
102
RTVSPropertyOp32
 70
     1
  0
XRECORD
  5
75
102
{ACAD_REACTORS
330
74
102
}
330
74
100
AcDbXrecord
280
     1
102
RTVSPropertyOp0
 70
     1
102
RTVSPropertyOp1
 70
     1
102
RTVSPropertyOp2
 70
     1
102
RTVSPropertyOp3
 70
     1
102
RTVSPropertyOp4
 70
     1
102
RTVSPropertyOp5
 70
     1
102
RTVSPropertyOp6
 70
     1
102
RTVSPropertyOp7
 70
     1
102
RTVSPropertyOp8
 70
     1
102
RTVSPropertyOp9
 70
     1
102
RTVSPropertyOp10
 70
     1
102
RTVSPropertyOp11
 70
     1
102
RTVSPropertyOp12
 70
     1
102
RTVSPropertyOp13
 70
     1
102
RTVSPropertyOp14
 70
     1
102
RTVSPropertyOp15
 70
     1
102
RTVSPropertyOp16
 70
     1
102
RTVSPropertyOp17
 70
     1
102
RTVSPropertyOp18
 70
     1
102
RTVSPropertyOp19
 70
     1
102
RTVSPropertyOp20
 70
     1
102
RTVSPropertyOp21
 70
     1
102
RTVSPropertyOp22
 70
     1
102
RTVSPropertyOp23
 70
     1
102
RTVSPropertyOp24
 70
     1
102
RTVSPropertyOp25
 70
     1
102
RTVSPropertyOp26
 70
     1
102
RTVSPropertyOp27
 70
     1
102
RTVSPropertyOp28
 70
     1
102
RTVSPropertyOp29
 70
     1
102
RTVSPropertyOp30
 70
     1
102
RTVSPropertyOp31
 70
     1
102
RTVSPropertyOp32
 70
     1
  0
XRECORD
  5
7D
102
{ACAD_REACTORS
330
7C
102
}
330
7C
100
AcDbXrecord
280
     1
102
RTVSPropertyOp0
 70
     1
102
RTVSPropertyOp1
 70
     1
102
RTVSPropertyOp2
 70
     1
102
RTVSPropertyOp3
 70
     1
102
RTVSPropertyOp4
 70
     1
102
RTVSPropertyOp5
 70
     1
102
RTVSPropertyOp6
 70
     1
102
RTVSPropertyOp7
 70
     1
102
RTVSPropertyOp8
 70
     1
102
RTVSPropertyOp9
 70
     1
102
RTVSPropertyOp10
 70
     1
102
RTVSPropertyOp11
 70
     1
102
RTVSPropertyOp12
 70
     1
102
RTVSPropertyOp13
 70
     1
102
RTVSPropertyOp14
 70
     1
102
RTVSPropertyOp15
 70
     1
102
RTVSPropertyOp16
 70
     1
102
RTVSPropertyOp17
 70
     1
102
RTVSPropertyOp18
 70
     1
102
RTVSPropertyOp19
 70
     1
102
RTVSPropertyOp20
 70
     1
102
RTVSPropertyOp21
 70
     1
102
RTVSPropertyOp22
 70
     1
102
RTVSPropertyOp23
 70
     1
102
RTVSPropertyOp24
 70
     1
102
RTVSPropertyOp25
 70
     1
102
RTVSPropertyOp26
 70
     1
102
RTVSPropertyOp27
 70
     1
102
RTVSPropertyOp28
 70
     1
102
RTVSPropertyOp29
 70
     1
102
RTVSPropertyOp30
 70
     1
102
RTVSPropertyOp31
 70
     1
102
RTVSPropertyOp32
 70
     1
  0
XRECORD
  5
61
102
{ACAD_REACTORS
330
60
102
}
330
60
100
AcDbXrecord
280
     1
102
RTVSPropertyOp0
 70
     1
102
RTVSPropertyOp1
 70
     1
102
RTVSPropertyOp2
 70
     1
102
RTVSPropertyOp3
 70
     1
102
RTVSPropertyOp4
 70
     1
102
RTVSPropertyOp5
 70
     1
102
RTVSPropertyOp6
 70
     1
102
RTVSPropertyOp7
 70
     1
102
RTVSPropertyOp8
 70
     1
102
RTVSPropertyOp9
 70
     1
102
RTVSPropertyOp10
 70
     1
102
RTVSPropertyOp11
 70
     1
102
RTVSPropertyOp12
 70
     1
102
RTVSPropertyOp13
 70
     1
102
RTVSPropertyOp14
 70
     1
102
RTVSPropertyOp15
 70
     1
102
RTVSPropertyOp16
 70
     1
102
RTVSPropertyOp17
 70
     1
102
RTVSPropertyOp18
 70
     1
102
RTVSPropertyOp19
 70
     1
102
RTVSPropertyOp20
 70
     1
102
RTVSPropertyOp21
 70
     1
102
RTVSPropertyOp22
 70
     1
102
RTVSPropertyOp23
 70
     1
102
RTVSPropertyOp24
 70
     1
102
RTVSPropertyOp25
 70
     1
102
RTVSPropertyOp26
 70
     1
102
RTVSPropertyOp27
 70
     1
102
RTVSPropertyOp28
 70
     1
102
RTVSPropertyOp29
 70
     1
102
RTVSPropertyOp30
 70
     1
102
RTVSPropertyOp31
 70
     1
102
RTVSPropertyOp32
 70
     1
  0
XRECORD
  5
63
102
{ACAD_REACTORS
330
62
102
}
330
62
100
AcDbXrecord
280
     1
102
RTVSPropertyOp0
 70
     1
102
RTVSPropertyOp1
 70
     1
102
RTVSPropertyOp2
 70
     1
102
RTVSPropertyOp3
 70
     1
102
RTVSPropertyOp4
 70
     1
102
RTVSPropertyOp5
 70
     1
102
RTVSPropertyOp6
 70
     1
102
RTVSPropertyOp7
 70
     1
102
RTVSPropertyOp8
 70
     1
102
RTVSPropertyOp9
 70
     1
102
RTVSPropertyOp10
 70
     1
102
RTVSPropertyOp11
 70
     1
102
RTVSPropertyOp12
 70
     1
102
RTVSPropertyOp13
 70
     1
102
RTVSPropertyOp14
 70
     1
102
RTVSPropertyOp15
 70
     1
102
RTVSPropertyOp16
 70
     1
102
RTVSPropertyOp17
 70
     1
102
RTVSPropertyOp18
 70
     1
102
RTVSPropertyOp19
 70
     1
102
RTVSPropertyOp20
 70
     1
102
RTVSPropertyOp21
 70
     1
102
RTVSPropertyOp22
 70
     1
102
RTVSPropertyOp23
 70
     1
102
RTVSPropertyOp24
 70
     1
102
RTVSPropertyOp25
 70
     1
102
RTVSPropertyOp26
 70
     1
102
RTVSPropertyOp27
 70
     1
102
RTVSPropertyOp28
 70
     1
102
RTVSPropertyOp29
 70
     1
102
RTVSPropertyOp30
 70
     1
102
RTVSPropertyOp31
 70
     1
102
RTVSPropertyOp32
 70
     1
  0
XRECORD
  5
65
102
{ACAD_REACTORS
330
64
102
}
330
64
100
AcDbXrecord
280
     1
102
RTVSPropertyOp0
 70
     1
102
RTVSPropertyOp1
 70
     1
102
RTVSPropertyOp2
 70
     1
102
RTVSPropertyOp3
 70
     1
102
RTVSPropertyOp4
 70
     1
102
RTVSPropertyOp5
 70
     1
102
RTVSPropertyOp6
 70
     1
102
RTVSPropertyOp7
 70
     1
102
RTVSPropertyOp8
 70
     1
102
RTVSPropertyOp9
 70
     1
102
RTVSPropertyOp10
 70
     1
102
RTVSPropertyOp11
 70
     1
102
RTVSPropertyOp12
 70
     1
102
RTVSPropertyOp13
 70
     1
102
RTVSPropertyOp14
 70
     1
102
RTVSPropertyOp15
 70
     1
102
RTVSPropertyOp16
 70
     1
102
RTVSPropertyOp17
 70
     1
102
RTVSPropertyOp18
 70
     1
102
RTVSPropertyOp19
 70
     1
102
RTVSPropertyOp20
 70
     1
102
RTVSPropertyOp21
 70
     1
102
RTVSPropertyOp22
 70
     1
102
RTVSPropertyOp23
 70
     1
102
RTVSPropertyOp24
 70
     1
102
RTVSPropertyOp25
 70
     1
102
RTVSPropertyOp26
 70
     1
102
RTVSPropertyOp27
 70
     1
102
RTVSPropertyOp28
 70
     1
102
RTVSPropertyOp29
 70
     1
102
RTVSPropertyOp30
 70
     1
102
RTVSPropertyOp31
 70
     1
102
RTVSPropertyOp32
 70
     1
  0
XRECORD
  5
67
102
{ACAD_REACTORS
330
66
102
}
330
66
100
AcDbXrecord
280
     1
102
RTVSPropertyOp0
 70
     1
102
RTVSPropertyOp1
 70
     1
102
RTVSPropertyOp2
 70
     1
102
RTVSPropertyOp3
 70
     1
102
RTVSPropertyOp4
 70
     1
102
RTVSPropertyOp5
 70
     1
102
RTVSPropertyOp6
 70
     1
102
RTVSPropertyOp7
 70
     1
102
RTVSPropertyOp8
 70
     1
102
RTVSPropertyOp9
 70
     1
102
RTVSPropertyOp10
 70
     1
102
RTVSPropertyOp11
 70
     1
102
RTVSPropertyOp12
 70
     1
102
RTVSPropertyOp13
 70
     1
102
RTVSPropertyOp14
 70
     1
102
RTVSPropertyOp15
 70
     1
102
RTVSPropertyOp16
 70
     1
102
RTVSPropertyOp17
 70
     1
102
RTVSPropertyOp18
 70
     1
102
RTVSPropertyOp19
 70
     1
102
RTVSPropertyOp20
 70
     1
102
RTVSPropertyOp21
 70
     1
102
RTVSPropertyOp22
 70
     1
102
RTVSPropertyOp23
 70
     1
102
RTVSPropertyOp24
 70
     1
102
RTVSPropertyOp25
 70
     1
102
RTVSPropertyOp26
 70
     1
102
RTVSPropertyOp27
 70
     1
102
RTVSPropertyOp28
 70
     1
102
RTVSPropertyOp29
 70
     1
102
RTVSPropertyOp30
 70
     1
102
RTVSPropertyOp31
 70
     1
102
RTVSPropertyOp32
 70
     1
  0
XRECORD
  5
7B
102
{ACAD_REACTORS
330
7A
102
}
330
7A
100
AcDbXrecord
280
     1
102
RTVSPropertyOp0
 70
     1
102
RTVSPropertyOp1
 70
     1
102
RTVSPropertyOp2
 70
     1
102
RTVSPropertyOp3
 70
     1
102
RTVSPropertyOp4
 70
     1
102
RTVSPropertyOp5
 70
     1
102
RTVSPropertyOp6
 70
     1
102
RTVSPropertyOp7
 70
     1
102
RTVSPropertyOp8
 70
     1
102
RTVSPropertyOp9
 70
     1
102
RTVSPropertyOp10
 70
     1
102
RTVSPropertyOp11
 70
     1
102
RTVSPropertyOp12
 70
     1
102
RTVSPropertyOp13
 70
     1
102
RTVSPropertyOp14
 70
     1
102
RTVSPropertyOp15
 70
     1
102
RTVSPropertyOp16
 70
     1
102
RTVSPropertyOp17
 70
     1
102
RTVSPropertyOp18
 70
     1
102
RTVSPropertyOp19
 70
     1
102
RTVSPropertyOp20
 70
     1
102
RTVSPropertyOp21
 70
     1
102
RTVSPropertyOp22
 70
     1
102
RTVSPropertyOp23
 70
     1
102
RTVSPropertyOp24
 70
     1
102
RTVSPropertyOp25
 70
     1
102
RTVSPropertyOp26
 70
     1
102
RTVSPropertyOp27
 70
     1
102
RTVSPropertyOp28
 70
     1
102
RTVSPropertyOp29
 70
     1
102
RTVSPropertyOp30
 70
     1
102
RTVSPropertyOp31
 70
     1
102
RTVSPropertyOp32
 70
     1
  0
XRECORD
  5
71
102
{ACAD_REACTORS
330
70
102
}
330
70
100
AcDbXrecord
280
     1
102
RTVSPropertyOp0
 70
     1
102
RTVSPropertyOp1
 70
     1
102
RTVSPropertyOp2
 70
     1
102
RTVSPropertyOp3
 70
     1
102
RTVSPropertyOp4
 70
     1
102
RTVSPropertyOp5
 70
     1
102
RTVSPropertyOp6
 70
     1
102
RTVSPropertyOp7
 70
     1
102
RTVSPropertyOp8
 70
     1
102
RTVSPropertyOp9
 70
     1
102
RTVSPropertyOp10
 70
     1
102
RTVSPropertyOp11
 70
     1
102
RTVSPropertyOp12
 70
     1
102
RTVSPropertyOp13
 70
     1
102
RTVSPropertyOp14
 70
     1
102
RTVSPropertyOp15
 70
     1
102
RTVSPropertyOp16
 70
     1
102
RTVSPropertyOp17
 70
     1
102
RTVSPropertyOp18
 70
     1
102
RTVSPropertyOp19
 70
     1
102
RTVSPropertyOp20
 70
     1
102
RTVSPropertyOp21
 70
     1
102
RTVSPropertyOp22
 70
     1
102
RTVSPropertyOp23
 70
     1
102
RTVSPropertyOp24
 70
     1
102
RTVSPropertyOp25
 70
     1
102
RTVSPropertyOp26
 70
     1
102
RTVSPropertyOp27
 70
     1
102
RTVSPropertyOp28
 70
     1
102
RTVSPropertyOp29
 70
     1
102
RTVSPropertyOp30
 70
     1
102
RTVSPropertyOp31
 70
     1
102
RTVSPropertyOp32
 70
     1
  0
XRECORD
  5
79
102
{ACAD_REACTORS
330
78
102
}
330
78
100
AcDbXrecord
280
     1
102
RTVSPropertyOp0
 70
     1
102
RTVSPropertyOp1
 70
     1
102
RTVSPropertyOp2
 70
     1
102
RTVSPropertyOp3
 70
     1
102
RTVSPropertyOp4
 70
     1
102
RTVSPropertyOp5
 70
     1
102
RTVSPropertyOp6
 70
     1
102
RTVSPropertyOp7
 70
     1
102
RTVSPropertyOp8
 70
     1
102
RTVSPropertyOp9
 70
     1
102
RTVSPropertyOp10
 70
     1
102
RTVSPropertyOp11
 70
     1
102
RTVSPropertyOp12
 70
     1
102
RTVSPropertyOp13
 70
     1
102
RTVSPropertyOp14
 70
     1
102
RTVSPropertyOp15
 70
     1
102
RTVSPropertyOp16
 70
     1
102
RTVSPropertyOp17
 70
     1
102
RTVSPropertyOp18
 70
     1
102
RTVSPropertyOp19
 70
     1
102
RTVSPropertyOp20
 70
     1
102
RTVSPropertyOp21
 70
     1
102
RTVSPropertyOp22
 70
     1
102
RTVSPropertyOp23
 70
     1
102
RTVSPropertyOp24
 70
     1
102
RTVSPropertyOp25
 70
     1
102
RTVSPropertyOp26
 70
     1
102
RTVSPropertyOp27
 70
     1
102
RTVSPropertyOp28
 70
     1
102
RTVSPropertyOp29
 70
     1
102
RTVSPropertyOp30
 70
     1
102
RTVSPropertyOp31
 70
     1
102
RTVSPropertyOp32
 70
     1
  0
ENDSEC
  0
EOF
