  0
SECTION
  2
HEADER
  9
$ACADVER
  1
AC1021
  9
$ACADMAINTVER
 70
    25
  9
$DWGCODEPAGE
  3
ANSI_1252
  9
$INSBASE
 10
0.0
 20
0.0
 30
0.0
  9
$EXTMIN
 10
97.2331
 20
-114.7338
 30
0.0
  9
$EXTMAX
 10
196.3916
 20
132.0418
 30
0.0
  9
$LIMMIN
 10
0.0
 20
0.0
  9
$LIMMAX
 10
12.0
 20
9.0
  9
$ORTHOMODE
 70
     0
  9
$REGENMODE
 70
     1
  9
$FILLMODE
 70
     1
  9
$QTEXTMODE
 70
     0
  9
$MIRRTEXT
 70
     1
  9
$LTSCALE
 40
1.0
  9
$ATTMODE
 70
     1
  9
$TEXTSIZE
 40
0.2
  9
$TRACEWID
 40
0.05
  9
$TEXTSTYLE
  7
Standard
  9
$CLAYER
  8
0
  9
$CELTYPE
  6
ByLayer
  9
$CECOLOR
 62
   256
  9
$CELTSCALE
 40
1.0
  9
$DISPSILH
 70
     0
  9
$DIMSCALE
 40
1.0
  9
$DIMASZ
 40
0.18
  9
$DIMEXO
 40
0.0625
  9
$DIMDLI
 40
0.38
  9
$DIMRND
 40
0.0
  9
$DIMDLE
 40
0.0
  9
$DIMEXE
 40
0.18
  9
$DIMTP
 40
0.0
  9
$DIMTM
 40
0.0
  9
$DIMTXT
 40
0.18
  9
$DIMCEN
 40
0.09
  9
$DIMTSZ
 40
0.0
  9
$DIMTOL
 70
     0
  9
$DIMLIM
 70
     0
  9
$DIMTIH
 70
     1
  9
$DIMTOH
 70
     1
  9
$DIMSE1
 70
     0
  9
$DIMSE2
 70
     0
  9
$DIMTAD
 70
     0
  9
$DIMZIN
 70
     0
  9
$DIMBLK
  1

  9
$DIMASO
 70
     1
  9
$DIMSHO
 70
     1
  9
$DIMPOST
  1

  9
$DIMAPOST
  1

  9
$DIMALT
 70
     0
  9
$DIMALTD
 70
     2
  9
$DIMALTF
 40
25.4
  9
$DIMLFAC
 40
1.0
  9
$DIMTOFL
 70
     0
  9
$DIMTVP
 40
0.0
  9
$DIMTIX
 70
     0
  9
$DIMSOXD
 70
     0
  9
$DIMSAH
 70
     0
  9
$DIMBLK1
  1

  9
$DIMBLK2
  1

  9
$DIMSTYLE
  2
Standard
  9
$DIMCLRD
 70
     0
  9
$DIMCLRE
 70
     0
  9
$DIMCLRT
 70
     0
  9
$DIMTFAC
 40
1.0
  9
$DIMGAP
 40
0.09
  9
$DIMJUST
 70
     0
  9
$DIMSD1
 70
     0
  9
$DIMSD2
 70
     0
  9
$DIMTOLJ
 70
     1
  9
$DIMTZIN
 70
     0
  9
$DIMALTZ
 70
     0
  9
$DIMALTTZ
 70
     0
  9
$DIMUPT
 70
     0
  9
$DIMDEC
 70
     4
  9
$DIMTDEC
 70
     4
  9
$DIMALTU
 70
     2
  9
$DIMALTTD
 70
     2
  9
$DIMTXSTY
  7
Standard
  9
$DIMAUNIT
 70
     0
  9
$DIMADEC
 70
     0
  9
$DIMALTRND
 40
0.0
  9
$DIMAZIN
 70
     0
  9
$DIMDSEP
 70
    46
  9
$DIMATFIT
 70
     3
  9
$DIMFRAC
 70
     0
  9
$DIMLDRBLK
  1

  9
$DIMLUNIT
 70
     2
  9
$DIMLWD
 70
    -2
  9
$DIMLWE
 70
    -2
  9
$DIMTMOVE
 70
     0
  9
$DIMFXL
 40
1.0
  9
$DIMFXLON
 70
     0
  9
$DIMJOGANG
 40
0.7853981633974483
  9
$DIMTFILL
 70
     0
  9
$DIMTFILLCLR
 70
     0
  9
$DIMARCSYM
 70
     0
  9
$DIMLTYPE
  6

  9
$DIMLTEX1
  6

  9
$DIMLTEX2
  6

  9
$LUNITS
 70
     2
  9
$LUPREC
 70
     4
  9
$SKETCHINC
 40
0.1
  9
$FILLETRAD
 40
0.5
  9
$AUNITS
 70
     0
  9
$AUPREC
 70
     0
  9
$MENU
  1
.
  9
$ELEVATION
 40
0.0
  9
$PELEVATION
 40
0.0
  9
$THICKNESS
 40
0.0
  9
$LIMCHECK
 70
     0
  9
$CHAMFERA
 40
0.5
  9
$CHAMFERB
 40
0.5
  9
$CHAMFERC
 40
1.0
  9
$CHAMFERD
 40
0.0
  9
$SKPOLY
 70
     0
  9
$TDCREATE
 40
2458492.549095637
  9
$TDUCREATE
 40
2458492.549095637
  9
$TDUPDATE
 40
2458492.549095752
  9
$TDUUPDATE
 40
2458492.549095752
  9
$TDINDWG
 40
0.0000000116
  9
$TDUSRTIMER
 40
0.0000000116
  9
$USRTIMER
 70
     1
  9
$ANGBASE
 50
0.0
  9
$ANGDIR
 70
     0
  9
$PDMODE
 70
     0
  9
$PDSIZE
 40
0.0
  9
$PLINEWID
 40
0.0
  9
$SPLFRAME
 70
     0
  9
$SPLINETYPE
 70
     6
  9
$SPLINESEGS
 70
     8
  9
$HANDSEED
  5
CD
  9
$SURFTAB1
 70
     6
  9
$SURFTAB2
 70
     6
  9
$SURFTYPE
 70
     6
  9
$SURFU
 70
     6
  9
$SURFV
 70
     6
  9
$UCSBASE
  2

  9
$UCSNAME
  2

  9
$UCSORG
 10
0.0
 20
0.0
 30
0.0
  9
$UCSXDIR
 10
1.0
 20
0.0
 30
0.0
  9
$UCSYDIR
 10
0.0
 20
1.0
 30
0.0
  9
$UCSORTHOREF
  2

  9
$UCSORTHOVIEW
 70
     0
  9
$UCSORGTOP
 10
0.0
 20
0.0
 30
0.0
  9
$UCSORGBOTTOM
 10
0.0
 20
0.0
 30
0.0
  9
$UCSORGLEFT
 10
0.0
 20
0.0
 30
0.0
  9
$UCSORGRIGHT
 10
0.0
 20
0.0
 30
0.0
  9
$UCSORGFRONT
 10
0.0
 20
0.0
 30
0.0
  9
$UCSORGBACK
 10
0.0
 20
0.0
 30
0.0
  9
$PUCSBASE
  2

  9
$PUCSNAME
  2

  9
$PUCSORG
 10
0.0
 20
0.0
 30
0.0
  9
$PUCSXDIR
 10
1.0
 20
0.0
 30
0.0
  9
$PUCSYDIR
 10
0.0
 20
1.0
 30
0.0
  9
$PUCSORTHOREF
  2

  9
$PUCSORTHOVIEW
 70
     0
  9
$PUCSORGTOP
 10
0.0
 20
0.0
 30
0.0
  9
$PUCSORGBOTTOM
 10
0.0
 20
0.0
 30
0.0
  9
$PUCSORGLEFT
 10
0.0
 20
0.0
 30
0.0
  9
$PUCSORGRIGHT
 10
0.0
 20
0.0
 30
0.0
  9
$PUCSORGFRONT
 10
0.0
 20
0.0
 30
0.0
  9
$PUCSORGBACK
 10
0.0
 20
0.0
 30
0.0
  9
$USERI1
 70
     0
  9
$USERI2
 70
     0
  9
$USERI3
 70
     0
  9
$USERI4
 70
     0
  9
$USERI5
 70
     0
  9
$USERR1
 40
0.0
  9
$USERR2
 40
0.0
  9
$USERR3
 40
0.0
  9
$USERR4
 40
0.0
  9
$USERR5
 40
0.0
  9
$WORLDVIEW
 70
     1
  9
$SHADEDGE
 70
     3
  9
$SHADEDIF
 70
    70
  9
$TILEMODE
 70
     1
  9
$MAXACTVP
 70
    64
  9
$PINSBASE
 10
0.0
 20
0.0
 30
0.0
  9
$PLIMCHECK
 70
     0
  9
$PEXTMIN
 10
1.000000000000000E+20
 20
1.000000000000000E+20
 30
1.000000000000000E+20
  9
$PEXTMAX
 10
-1.000000000000000E+20
 20
-1.000000000000000E+20
 30
-1.000000000000000E+20
  9
$PLIMMIN
 10
0.0
 20
0.0
  9
$PLIMMAX
 10
12.0
 20
9.0
  9
$UNITMODE
 70
     0
  9
$VISRETAIN
 70
     1
  9
$PLINEGEN
 70
     0
  9
$PSLTSCALE
 70
     1
  9
$TREEDEPTH
 70
  3020
  9
$CMLSTYLE
  2
Standard
  9
$CMLJUST
 70
     0
  9
$CMLSCALE
 40
1.0
  9
$PROXYGRAPHICS
 70
     1
  9
$MEASUREMENT
 70
     0
  9
$CELWEIGHT
370
    -1
  9
$ENDCAPS
280
     0
  9
$JOINSTYLE
280
     0
  9
$LWDISPLAY
290
     0
  9
$INSUNITS
 70
     4
  9
$HYPERLINKBASE
  1

  9
$STYLESHEET
  1

  9
$XEDIT
290
     1
  9
$CEPSNTYPE
380
     0
  9
$PSTYLEMODE
290
     1
  9
$FINGERPRINTGUID
  2
{569848D2-3BB3-4614-8445-BFA4E7A360D2}
  9
$VERSIONGUID
  2
{FAEB1C32-E019-11D5-929B-00C0DF256EC4}
  9
$EXTNAMES
290
     1
  9
$PSVPSCALE
 40
0.0
  9
$OLESTARTUP
290
     0
  9
$SORTENTS
280
   127
  9
$INDEXCTL
280
     0
  9
$HIDETEXT
280
     1
  9
$XCLIPFRAME
290
     0
  9
$HALOGAP
280
     0
  9
$OBSCOLOR
 70
   257
  9
$OBSLTYPE
280
     0
  9
$INTERSECTIONDISPLAY
280
     0
  9
$INTERSECTIONCOLOR
 70
   257
  9
$DIMASSOC
280
     2
  9
$PROJECTNAME
  1

  9
$CAMERADISPLAY
290
     0
  9
$LENSLENGTH
 40
50.0
  9
$CAMERAHEIGHT
 40
0.0
  9
$STEPSPERSEC
 40
2.0
  9
$STEPSIZE
 40
6.0
  9
$3DDWFPREC
 40
2.0
  9
$PSOLWIDTH
 40
0.25
  9
$PSOLHEIGHT
 40
4.0
  9
$LOFTANG1
 40
1.570796326794897
  9
$LOFTANG2
 40
1.570796326794897
  9
$LOFTMAG1
 40
0.0
  9
$LOFTMAG2
 40
0.0
  9
$LOFTPARAM
 70
     7
  9
$LOFTNORMALS
280
     1
  9
$LATITUDE
 40
37.795
  9
$LONGITUDE
 40
-122.394
  9
$NORTHDIRECTION
 40
0.0
  9
$TIMEZONE
 70
 -8000
  9
$LIGHTGLYPHDISPLAY
280
     1
  9
$TILEMODELIGHTSYNCH
280
     1
  9
$SOLIDHIST
280
     1
  9
$SHOWHIST
280
     1
  9
$DWFFRAME
280
     2
  9
$DGNFRAME
280
     2
  9
$REALWORLDSCALE
290
     1
  9
$INTERFERECOLOR
 62
   256
  9
$CSHADOW
280
     0
  9
$SHADOWPLANELOCATION
 40
0.0
  0
ENDSEC
  0
SECTION
  2
CLASSES
  0
CLASS
  1
ACDBDICTIONARYWDFLT
  2
AcDbDictionaryWithDefault
  3
ObjectDBX Classes
 90
        0
 91
        4
280
     0
281
     0
  0
CLASS
  1
VISUALSTYLE
  2
AcDbVisualStyle
  3
ObjectDBX Classes
 90
     4095
 91
        4
280
     0
281
     0
  0
CLASS
  1
MATERIAL
  2
AcDbMaterial
  3
ObjectDBX Classes
 90
     1153
 91
        4
280
     0
281
     0
  0
ENDSEC
  0
SECTION
  2
TABLES
  0
TABLE
  2
VPORT
  5
8
330
0
100
AcDbSymbolTable
 70
     1
  0
VPORT
  5
29
330
8
100
AcDbSymbolTableRecord
100
AcDbViewportTableRecord
  2
*Active
 70
     0
 10
0.0
 20
0.0
 11
1.0
 21
1.0
 12
10.42990654205607
 22
4.5
 13
0.0
 23
0.0
 14
0.5
 24
0.5
 15
0.5
 25
0.5
 16
0.0
 26
0.0
 36
1.0
 17
0.0
 27
0.0
 37
0.0
 40
9.0
 41
1.972972972850329
 42
50.0
 43
0.0
 44
0.0
 50
0.0
 51
0.0
 71
     0
 72
   100
 73
     1
 74
     3
 75
     0
 76
     0
 77
     0
 78
     0
281
     0
 65
     1
110
0.0
120
0.0
130
0.0
111
1.0
121
0.0
131
0.0
112
0.0
122
1.0
132
0.0
 79
     0
146
0.0
 60
     3
 61
     5
292
     1
282
     1
141
0.0
142
0.0
 63
   250
  0
ENDTAB
  0
TABLE
  2
LTYPE
  5
5
330
0
100
AcDbSymbolTable
 70
     1
  0
LTYPE
  5
14
330
5
100
AcDbSymbolTableRecord
100
AcDbLinetypeTableRecord
  2
ByBlock
 70
     0
  3

 72
    65
 73
     0
 40
0.0
  0
LTYPE
  5
15
330
5
100
AcDbSymbolTableRecord
100
AcDbLinetypeTableRecord
  2
ByLayer
 70
     0
  3

 72
    65
 73
     0
 40
0.0
  0
LTYPE
  5
16
330
5
100
AcDbSymbolTableRecord
100
AcDbLinetypeTableRecord
  2
Continuous
 70
     0
  3
Solid line
 72
    65
 73
     0
 40
0.0
  0
ENDTAB
  0
TABLE
  2
LAYER
  5
2
330
0
100
AcDbSymbolTable
 70
     3
  0
LAYER
  5
10
330
2
100
AcDbSymbolTableRecord
100
AcDbLayerTableRecord
  2
0
 70
     0
 62
     7
  6
Continuous
370
    -3
390
F
347
3E
  0
LAYER
  5
40
330
2
100
AcDbSymbolTableRecord
100
AcDbLayerTableRecord
  2
layer 1
 70
     0
 62
     7
  6
Continuous
370
    -3
390
F
347
3E
  0
LAYER
  5
AA
330
2
100
AcDbSymbolTableRecord
100
AcDbLayerTableRecord
  2
Master Guides
 70
     0
 62
     7
  6
Continuous
370
    -3
390
F
347
3E
  0
ENDTAB
  0
TABLE
  2
STYLE
  5
3
330
0
100
AcDbSymbolTable
 70
     1
  0
STYLE
  5
11
330
3
100
AcDbSymbolTableRecord
100
AcDbTextStyleTableRecord
  2
Standard
 70
     0
 40
0.0
 41
1.0
 50
0.0
 71
     0
 42
0.2
  3
txt
  4

  0
ENDTAB
  0
TABLE
  2
VIEW
  5
6
330
0
100
AcDbSymbolTable
 70
     0
  0
ENDTAB
  0
TABLE
  2
UCS
  5
7
330
0
100
AcDbSymbolTable
 70
     0
  0
ENDTAB
  0
TABLE
  2
APPID
  5
9
330
0
100
AcDbSymbolTable
 70
     2
  0
APPID
  5
12
330
9
100
AcDbSymbolTableRecord
100
AcDbRegAppTableRecord
  2
ACAD
 70
     0
  0
APPID
  5
3F
330
9
100
AcDbSymbolTableRecord
100
AcDbRegAppTableRecord
  2
ODA
 70
     0
  0
ENDTAB
  0
TABLE
  2
DIMSTYLE
  5
A
330
0
100
AcDbSymbolTable
 70
     1
100
AcDbDimStyleTable
  0
DIMSTYLE
105
27
330
A
100
AcDbSymbolTableRecord
100
AcDbDimStyleTableRecord
  2
Standard
 70
     0
178
     0
340
11
  0
ENDTAB
  0
TABLE
  2
BLOCK_RECORD
  5
1
330
0
100
AcDbSymbolTable
 70
     1
  0
BLOCK_RECORD
  5
1F
330
1
100
AcDbSymbolTableRecord
100
AcDbBlockTableRecord
  2
*Model_Space
340
22
 70
     0
280
     1
281
     0
  0
BLOCK_RECORD
  5
1B
330
1
100
AcDbSymbolTableRecord
100
AcDbBlockTableRecord
  2
*Paper_Space
340
1E
 70
     0
280
     1
281
     0
  0
BLOCK_RECORD
  5
23
330
1
100
AcDbSymbolTableRecord
100
AcDbBlockTableRecord
  2
*Paper_Space0
340
26
 70
     0
280
     1
281
     0
  0
ENDTAB
  0
ENDSEC
  0
SECTION
  2
BLOCKS
  0
BLOCK
  5
20
330
1F
100
AcDbEntity
  8
0
100
AcDbBlockBegin
  2
*Model_Space
 70
     0
 10
0.0
 20
0.0
 30
0.0
  3
*Model_Space
  1

  0
ENDBLK
  5
21
330
1F
100
AcDbEntity
  8
0
100
AcDbBlockEnd
  0
BLOCK
  5
1C
330
1B
100
AcDbEntity
 67
     1
  8
0
100
AcDbBlockBegin
  2
*Paper_Space
 70
     0
 10
0.0
 20
0.0
 30
0.0
  3
*Paper_Space
  1

  0
ENDBLK
  5
1D
330
1B
100
AcDbEntity
 67
     1
  8
0
100
AcDbBlockEnd
  0
BLOCK
  5
24
330
23
100
AcDbEntity
  8
0
100
AcDbBlockBegin
  2
*Paper_Space0
 70
     0
 10
0.0
 20
0.0
 30
0.0
  3
*Paper_Space0
  1

  0
ENDBLK
  5
25
330
23
100
AcDbEntity
  8
0
100
AcDbBlockEnd
  0
ENDSEC
  0
SECTION
  2
ENTITIES
  0
SPLINE
  5
41
330
1F
100
AcDbEntity
  8
layer 1
100
AcDbSpline
210
0.0
220
0.0
230
1.0
 70
    11
 71
     3
 72
    20
 73
    16
 74
     0
 42
0.0000000001
 43
0.0000000001
 12
1.0
 22
0.0
 32
0.0
 13
1.0
 23
0.0
 33
0.0
 40
0.0
 40
0.0
 40
0.0
 40
0.0
 40
0.2
 40
0.2
 40
0.2
 40
0.2
 40
0.4
 40
0.4
 40
0.4
 40
0.4
 40
0.6
 40
0.6
 40
0.6
 40
0.6
 40
1.0
 40
1.0
 40
1.0
 40
1.0
 10
97.2331
 20
132.0418
 30
0.0
 10
97.2331
 20
132.0418
 30
0.0
 10
196.3916
 20
132.0418
 30
0.0
 10
196.3916
 20
132.0418
 30
0.0
 10
196.3916
 20
132.0418
 30
0.0
 10
196.3916
 20
132.0418
 30
0.0
 10
196.3916
 20
-114.7338
 30
0.0
 10
196.3916
 20
-114.7338
 30
0.0
 10
196.3916
 20
-114.7338
 30
0.0
 10
196.3916
 20
-114.7338
 30
0.0
 10
97.2331
 20
-114.7338
 30
0.0
 10
97.2331
 20
-114.7338
 30
0.0
 10
97.2331
 20
-114.7338
 30
0.0
 10
97.2331
 20
-114.7338
 30
0.0
 10
97.2331
 20
132.0418
 30
0.0
 10
97.2331
 20
132.0418
 30
0.0
  0
SPLINE
  5
42
330
1F
100
AcDbEntity
  8
layer 1
 62
     7
100
AcDbSpline
210
0.0
220
0.0
230
1.0
 70
    11
 71
     3
 72
    20
 73
    16
 74
     0
 42
0.0000000001
 43
0.0000000001
 12
1.0
 22
0.0
 32
0.0
 13
1.0
 23
0.0
 33
0.0
 40
0.0
 40
0.0
 40
0.0
 40
0.0
 40
0.2
 40
0.2
 40
0.2
 40
0.2
 40
0.4
 40
0.4
 40
0.4
 40
0.4
 40
0.6
 40
0.6
 40
0.6
 40
0.6
 40
1.0
 40
1.0
 40
1.0
 40
1.0
 10
138.3068
 20
-33.9234
 30
0.0
 10
139.4752
 20
-34.6666
 30
0.0
 10
140.4842
 20
-34.9324
 30
0.0
 10
141.5467
 20
-35.0386
 30
0.0
 10
141.5467
 20
-35.0386
 30
0.0
 10
142.5021
 20
-38.2785
 30
0.0
 10
142.9277
 20
-43.217
 30
0.0
 10
139.1568
 20
-47.0415
 30
0.0
 10
139.1568
 20
-47.0415
 30
0.0
 10
136.0766
 20
-46.5634
 30
0.0
 10
134.1648
 20
-46.457
 30
0.0
 10
131.6152
 20
-46.3509
 30
0.0
 10
131.6152
 20
-46.3509
 30
0.0
 10
136.8731
 20
-43.4829
 30
0.0
 10
139.4219
 20
-37.8004
 30
0.0
 10
138.3068
 20
-33.9234
 30
0.0
  0
SPLINE
  5
43
330
1F
100
AcDbEntity
  8
layer 1
 62
     7
100
AcDbSpline
210
0.0
220
0.0
230
1.0
 70
    11
 71
     3
 72
    24
 73
    20
 74
     0
 42
0.0000000001
 43
0.0000000001
 12
1.0
 22
0.0
 32
0.0
 13
1.0
 23
0.0
 33
0.0
 40
0.0
 40
0.0
 40
0.0
 40
0.0
 40
0.1666666666666667
 40
0.1666666666666667
 40
0.1666666666666667
 40
0.1666666666666667
 40
0.3333333333333333
 40
0.3333333333333333
 40
0.3333333333333333
 40
0.3333333333333333
 40
0.5
 40
0.5
 40
0.5
 40
0.5
 40
0.6666666666666666
 40
0.6666666666666666
 40
0.6666666666666666
 40
0.6666666666666666
 40
1.0
 40
1.0
 40
1.0
 40
1.0
 10
123.4366
 20
-26.1159
 30
0.0
 10
130.0219
 20
-21.1774
 30
0.0
 10
139.9535
 20
-32.9145
 30
0.0
 10
133.7392
 20
-40.721
 30
0.0
 10
133.7392
 20
-40.721
 30
0.0
 10
133.9128
 20
-36.4496
 30
0.0
 10
129.6617
 20
-35.061
 30
0.0
 10
128.8447
 20
-38.17
 30
0.0
 10
128.8447
 20
-38.17
 30
0.0
 10
130.848
 20
-38.2513
 30
0.0
 10
131.0634
 20
-41.3092
 30
0.0
 10
130.2877
 20
-42.58
 30
0.0
 10
130.2877
 20
-42.58
 30
0.0
 10
128.641
 20
-46.5106
 30
0.0
 10
123.2242
 20
-46.3509
 30
0.0
 10
125.773
 20
-40.7746
 30
0.0
 10
125.773
 20
-40.7746
 30
0.0
 10
131.0842
 20
-33.0734
 30
0.0
 10
125.9327
 20
-27.4969
 30
0.0
 10
123.4366
 20
-26.1159
 30
0.0
  0
SPLINE
  5
44
330
1F
100
AcDbEntity
  8
layer 1
 62
     7
100
AcDbSpline
210
0.0
220
0.0
230
1.0
 70
    11
 71
     3
 72
    16
 73
    12
 74
     0
 42
0.0000000001
 43
0.0000000001
 12
1.0
 22
0.0
 32
0.0
 13
1.0
 23
0.0
 33
0.0
 40
0.0
 40
0.0
 40
0.0
 40
0.0
 40
0.25
 40
0.25
 40
0.25
 40
0.25
 40
0.5
 40
0.5
 40
0.5
 40
0.5
 40
1.0
 40
1.0
 40
1.0
 40
1.0
 10
107.9983
 20
-23.8423
 30
0.0
 10
108.0271
 20
-19.8514
 30
0.0
 10
105.3908
 20
-18.1814
 30
0.0
 10
104.3624
 20
-18.8177
 30
0.0
 10
104.3624
 20
-18.8177
 30
0.0
 10
104.3624
 20
-18.8177
 30
0.0
 10
104.3624
 20
-30.864
 30
0.0
 10
104.3624
 20
-30.864
 30
0.0
 10
104.3624
 20
-30.864
 30
0.0
 10
106.7593
 20
-30.3385
 30
0.0
 10
107.945
 20
-26.9289
 30
0.0
 10
107.9983
 20
-23.8423
 30
0.0
  0
SPLINE
  5
45
330
1F
100
AcDbEntity
  8
layer 1
 62
     7
100
AcDbSpline
210
0.0
220
0.0
230
1.0
 70
    11
 71
     3
 72
    24
 73
    20
 74
     0
 42
0.0000000001
 43
0.0000000001
 12
1.0
 22
0.0
 32
0.0
 13
1.0
 23
0.0
 33
0.0
 40
0.0
 40
0.0
 40
0.0
 40
0.0
 40
0.1666666666666667
 40
0.1666666666666667
 40
0.1666666666666667
 40
0.1666666666666667
 40
0.3333333333333333
 40
0.3333333333333333
 40
0.3333333333333333
 40
0.3333333333333333
 40
0.5
 40
0.5
 40
0.5
 40
0.5
 40
0.6666666666666666
 40
0.6666666666666666
 40
0.6666666666666666
 40
0.6666666666666666
 40
1.0
 40
1.0
 40
1.0
 40
1.0
 10
111.3678
 20
-32.5951
 30
0.0
 10
107.336
 20
-30.812
 30
0.0
 10
105.4482
 20
-33.5126
 30
0.0
 10
104.3624
 20
-35.4314
 30
0.0
 10
104.3624
 20
-35.4314
 30
0.0
 10
104.3624
 20
-35.4314
 30
0.0
 10
104.3624
 20
-44.4895
 30
0.0
 10
104.3624
 20
-44.4895
 30
0.0
 10
104.3624
 20
-44.4895
 30
0.0
 10
106.0433
 20
-40.8202
 30
0.0
 10
110.9842
 20
-39.7299
 30
0.0
 10
113.8732
 20
-44.4137
 30
0.0
 10
113.8732
 20
-44.4137
 30
0.0
 10
114.7233
 20
-44.302
 30
0.0
 10
116.0592
 20
-43.8781
 30
0.0
 10
116.9023
 20
-43.4101
 30
0.0
 10
116.9023
 20
-43.4101
 30
0.0
 10
110.1923
 20
-42.5313
 30
0.0
 10
109.095
 20
-34.6751
 30
0.0
 10
111.3678
 20
-32.5951
 30
0.0
  0
SPLINE
  5
46
330
1F
100
AcDbEntity
  8
layer 1
 62
     7
100
AcDbSpline
210
0.0
220
0.0
230
1.0
 70
    11
 71
     3
 72
    20
 73
    16
 74
     0
 42
0.0000000001
 43
0.0000000001
 12
1.0
 22
0.0
 32
0.0
 13
1.0
 23
0.0
 33
0.0
 40
0.0
 40
0.0
 40
0.0
 40
0.0
 40
0.2
 40
0.2
 40
0.2
 40
0.2
 40
0.4
 40
0.4
 40
0.4
 40
0.4
 40
0.6
 40
0.6
 40
0.6
 40
0.6
 40
1.0
 40
1.0
 40
1.0
 40
1.0
 10
114.9123
 20
-46.5423
 30
0.0
 10
117.9238
 20
-46.4067
 30
0.0
 10
120.6622
 20
-44.8011
 30
0.0
 10
121.8667
 20
-43.6874
 30
0.0
 10
121.8667
 20
-43.6874
 30
0.0
 10
122.0565
 20
-44.8003
 30
0.0
 10
122.5951
 20
-45.8264
 30
0.0
 10
123.4753
 20
-46.4741
 30
0.0
 10
123.4753
 20
-46.4741
 30
0.0
 10
119.4589
 20
-47.0452
 30
0.0
 10
117.0652
 20
-49.2647
 30
0.0
 10
116.0469
 20
-50.4628
 30
0.0
 10
116.0469
 20
-50.4628
 30
0.0
 10
116.0019
 20
-49.1826
 30
0.0
 10
115.4315
 20
-47.2436
 30
0.0
 10
114.9123
 20
-46.5423
 30
0.0
  0
SPLINE
  5
47
330
1F
100
AcDbEntity
  8
layer 1
 62
     7
100
AcDbSpline
210
0.0
220
0.0
230
1.0
 70
    11
 71
     3
 72
    44
 73
    40
 74
     0
 42
0.0000000001
 43
0.0000000001
 12
1.0
 22
0.0
 32
0.0
 13
1.0
 23
0.0
 33
0.0
 40
0.0
 40
0.0
 40
0.0
 40
0.0
 40
0.0909090909090909
 40
0.0909090909090909
 40
0.0909090909090909
 40
0.0909090909090909
 40
0.1818181818181818
 40
0.1818181818181818
 40
0.1818181818181818
 40
0.1818181818181818
 40
0.2727272727272727
 40
0.2727272727272727
 40
0.2727272727272727
 40
0.2727272727272727
 40
0.3636363636363636
 40
0.3636363636363636
 40
0.3636363636363636
 40
0.3636363636363636
 40
0.4545454545454545
 40
0.4545454545454545
 40
0.4545454545454545
 40
0.4545454545454545
 40
0.5454545454545454
 40
0.5454545454545454
 40
0.5454545454545454
 40
0.5454545454545454
 40
0.6363636363636364
 40
0.6363636363636364
 40
0.6363636363636364
 40
0.6363636363636364
 40
0.7272727272727273
 40
0.7272727272727273
 40
0.7272727272727273
 40
0.7272727272727273
 40
0.8181818181818182
 40
0.8181818181818182
 40
0.8181818181818182
 40
0.8181818181818182
 40
1.0
 40
1.0
 40
1.0
 40
1.0
 10
110.4317
 20
-29.0738
 30
0.0
 10
114.4924
 20
-26.6988
 30
0.0
 10
119.1032
 20
-27.1908
 30
0.0
 10
121.8379
 20
-29.0839
 30
0.0
 10
121.8379
 20
-29.0839
 30
0.0
 10
123.4614
 20
-30.0123
 30
0.0
 10
125.401
 20
-32.6687
 30
0.0
 10
125.0437
 20
-36.2745
 30
0.0
 10
125.0437
 20
-36.2745
 30
0.0
 10
124.7896
 20
-37.7732
 30
0.0
 10
122.2826
 20
-39.6059
 30
0.0
 10
120.9499
 20
-37.0131
 30
0.0
 10
120.9499
 20
-37.0131
 30
0.0
 10
120.1316
 20
-36.0451
 30
0.0
 10
119.6751
 20
-36.256
 30
0.0
 10
119.2845
 20
-37.1378
 30
0.0
 10
119.2845
 20
-37.1378
 30
0.0
 10
118.7296
 20
-38.6233
 30
0.0
 10
119.3317
 20
-40.7226
 30
0.0
 10
119.3573
 20
-40.3794
 30
0.0
 10
119.3573
 20
-40.3794
 30
0.0
 10
117.3921
 20
-40.8791
 30
0.0
 10
114.7969
 20
-40.0616
 30
0.0
 10
113.8367
 20
-38.5969
 30
0.0
 10
113.8367
 20
-38.5969
 30
0.0
 10
112.5845
 20
-36.6883
 30
0.0
 10
113.4586
 20
-33.959
 30
0.0
 10
115.4603
 20
-34.4535
 30
0.0
 10
115.4603
 20
-34.4535
 30
0.0
 10
115.5547
 20
-39.275
 30
0.0
 10
120.085
 20
-37.2378
 30
0.0
 10
119.4767
 20
-33.628
 30
0.0
 10
119.4767
 20
-33.628
 30
0.0
 10
118.6646
 20
-29.8038
 30
0.0
 10
114.7961
 20
-29.6412
 30
0.0
 10
113.1549
 20
-31.3212
 30
0.0
 10
113.1549
 20
-31.3212
 30
0.0
 10
113.0525
 20
-30.3819
 30
0.0
 10
111.4903
 20
-29.2366
 30
0.0
 10
110.4317
 20
-29.0738
 30
0.0
  0
SPLINE
  5
48
330
1F
100
AcDbEntity
  8
layer 1
 62
     7
100
AcDbSpline
210
0.0
220
0.0
230
1.0
 70
    11
 71
     3
 72
    28
 73
    24
 74
     0
 42
0.0000000001
 43
0.0000000001
 12
1.0
 22
0.0
 32
0.0
 13
1.0
 23
0.0
 33
0.0
 40
0.0
 40
0.0
 40
0.0
 40
0.0
 40
0.1428571428571428
 40
0.1428571428571428
 40
0.1428571428571428
 40
0.1428571428571428
 40
0.2857142857142857
 40
0.2857142857142857
 40
0.2857142857142857
 40
0.2857142857142857
 40
0.4285714285714285
 40
0.4285714285714285
 40
0.4285714285714285
 40
0.4285714285714285
 40
0.5714285714285714
 40
0.5714285714285714
 40
0.5714285714285714
 40
0.5714285714285714
 40
0.7142857142857143
 40
0.7142857142857143
 40
0.7142857142857143
 40
0.7142857142857143
 40
1.0
 40
1.0
 40
1.0
 40
1.0
 10
107.2266
 20
-49.5746
 30
0.0
 10
106.1611
 20
-50.5231
 30
0.0
 10
104.8018
 20
-50.4332
 30
0.0
 10
104.3624
 20
-48.8578
 30
0.0
 10
104.3624
 20
-48.8578
 30
0.0
 10
104.3624
 20
-48.8578
 30
0.0
 10
104.3624
 20
-62.7027
 30
0.0
 10
104.3624
 20
-62.7027
 30
0.0
 10
104.3624
 20
-62.7027
 30
0.0
 10
104.701
 20
-58.8134
 30
0.0
 10
108.902
 20
-56.8947
 30
0.0
 10
106.2734
 20
-53.199
 30
0.0
 10
106.2734
 20
-53.199
 30
0.0
 10
108.1092
 20
-51.5616
 30
0.0
 10
109.8504
 20
-52.6061
 30
0.0
 10
109.8203
 20
-55.1967
 30
0.0
 10
109.8203
 20
-55.1967
 30
0.0
 10
114.1653
 20
-53.1758
 30
0.0
 10
113.6515
 20
-49.4049
 30
0.0
 10
112.2923
 20
-47.439
 30
0.0
 10
112.2923
 20
-47.439
 30
0.0
 10
108.6649
 20
-42.801
 30
0.0
 10
105.7767
 20
-46.9553
 30
0.0
 10
107.2266
 20
-49.5746
 30
0.0
  0
SPLINE
  5
49
330
1F
100
AcDbEntity
  8
layer 1
 62
     7
100
AcDbSpline
210
0.0
220
0.0
230
1.0
 70
    11
 71
     3
 72
    16
 73
    12
 74
     0
 42
0.0000000001
 43
0.0000000001
 12
1.0
 22
0.0
 32
0.0
 13
1.0
 23
0.0
 33
0.0
 40
0.0
 40
0.0
 40
0.0
 40
0.0
 40
0.25
 40
0.25
 40
0.25
 40
0.25
 40
0.5
 40
0.5
 40
0.5
 40
0.5
 40
1.0
 40
1.0
 40
1.0
 40
1.0
 10
104.3624
 20
-70.4714
 30
0.0
 10
104.3624
 20
-70.4714
 30
0.0
 10
104.3624
 20
-83.0833
 30
0.0
 10
104.3624
 20
-83.0833
 30
0.0
 10
104.3624
 20
-83.0833
 30
0.0
 10
105.1127
 20
-80.7214
 30
0.0
 10
106.7872
 20
-79.6831
 30
0.0
 10
109.0337
 20
-79.6295
 30
0.0
 10
109.0337
 20
-79.6295
 30
0.0
 10
107.0816
 20
-78.2229
 30
0.0
 10
104.997
 20
-74.7917
 30
0.0
 10
104.3624
 20
-70.4714
 30
0.0
  0
SPLINE
  5
4A
330
1F
100
AcDbEntity
  8
layer 1
 62
     7
100
AcDbSpline
210
0.0
220
0.0
230
1.0
 70
    11
 71
     3
 72
    76
 73
    72
 74
     0
 42
0.0000000001
 43
0.0000000001
 12
1.0
 22
0.0
 32
0.0
 13
1.0
 23
0.0
 33
0.0
 40
0.0
 40
0.0
 40
0.0
 40
0.0
 40
0.0526315789473684
 40
0.0526315789473684
 40
0.0526315789473684
 40
0.0526315789473684
 40
0.1052631578947368
 40
0.1052631578947368
 40
0.1052631578947368
 40
0.1052631578947368
 40
0.1578947368421053
 40
0.1578947368421053
 40
0.1578947368421053
 40
0.1578947368421053
 40
0.2105263157894737
 40
0.2105263157894737
 40
0.2105263157894737
 40
0.2105263157894737
 40
0.2631578947368421
 40
0.2631578947368421
 40
0.2631578947368421
 40
0.2631578947368421
 40
0.3157894736842105
 40
0.3157894736842105
 40
0.3157894736842105
 40
0.3157894736842105
 40
0.3684210526315789
 40
0.3684210526315789
 40
0.3684210526315789
 40
0.3684210526315789
 40
0.4210526315789473
 40
0.4210526315789473
 40
0.4210526315789473
 40
0.4210526315789473
 40
0.4736842105263158
 40
0.4736842105263158
 40
0.4736842105263158
 40
0.4736842105263158
 40
0.5263157894736842
 40
0.5263157894736842
 40
0.5263157894736842
 40
0.5263157894736842
 40
0.5789473684210527
 40
0.5789473684210527
 40
0.5789473684210527
 40
0.5789473684210527
 40
0.631578947368421
 40
0.631578947368421
 40
0.631578947368421
 40
0.631578947368421
 40
0.6842105263157895
 40
0.6842105263157895
 40
0.6842105263157895
 40
0.6842105263157895
 40
0.7368421052631579
 40
0.7368421052631579
 40
0.7368421052631579
 40
0.7368421052631579
 40
0.7894736842105263
 40
0.7894736842105263
 40
0.7894736842105263
 40
0.7894736842105263
 40
0.8421052631578947
 40
0.8421052631578947
 40
0.8421052631578947
 40
0.8421052631578947
 40
0.8947368421052632
 40
0.8947368421052632
 40
0.8947368421052632
 40
0.8947368421052632
 40
1.0
 40
1.0
 40
1.0
 40
1.0
 10
119.3628
 20
3.6398
 30
0.0
 10
120.67
 20
3.6019
 30
0.0
 10
121.6488
 20
3.3382
 30
0.0
 10
121.7077
 20
2.0621
 30
0.0
 10
121.7077
 20
2.0621
 30
0.0
 10
120.8436
 20
1.7427
 30
0.0
 10
119.9586
 20
0.1441
 30
0.0
 10
119.9897
 20
-0.5705
 30
0.0
 10
119.9897
 20
-0.5705
 30
0.0
 10
121.2985
 20
-0.3169
 30
0.0
 10
122.0821
 20
-1.2934
 30
0.0
 10
122.1408
 20
-2.1629
 30
0.0
 10
122.1408
 20
-2.1629
 30
0.0
 10
120.6399
 20
-2.1064
 30
0.0
 10
119.8007
 20
-3.1516
 30
0.0
 10
119.586
 20
-3.5547
 30
0.0
 10
119.586
 20
-3.5547
 30
0.0
 10
119.0675
 20
-4.7581
 30
0.0
 10
119.3549
 20
-5.6322
 30
0.0
 10
120.9172
 20
-4.2963
 30
0.0
 10
120.9172
 20
-4.2963
 30
0.0
 10
122.8415
 20
-2.39
 30
0.0
 10
126.0225
 20
-0.9547
 30
0.0
 10
128.7511
 20
0.0278
 30
0.0
 10
128.7511
 20
0.0278
 30
0.0
 10
130.2691
 20
0.9097
 30
0.0
 10
131.5175
 20
7.7632
 30
0.0
 10
126.9246
 20
6.9208
 30
0.0
 10
126.9246
 20
6.9208
 30
0.0
 10
127.191
 20
7.5362
 30
0.0
 10
127.9173
 20
8.6535
 30
0.0
 10
128.9572
 20
8.6535
 30
0.0
 10
128.9572
 20
8.6535
 30
0.0
 10
127.9173
 20
8.6535
 30
0.0
 10
127.191
 20
9.7718
 30
0.0
 10
126.9246
 20
10.3872
 30
0.0
 10
126.9246
 20
10.3872
 30
0.0
 10
131.5175
 20
9.5448
 30
0.0
 10
130.2691
 20
16.3975
 30
0.0
 10
128.7511
 20
17.2793
 30
0.0
 10
128.7511
 20
17.2793
 30
0.0
 10
126.0225
 20
18.2627
 30
0.0
 10
122.8415
 20
19.697
 30
0.0
 10
120.9172
 20
21.6043
 30
0.0
 10
120.9172
 20
21.6043
 30
0.0
 10
119.3549
 20
22.9402
 30
0.0
 10
119.0675
 20
22.0661
 30
0.0
 10
119.586
 20
20.8625
 30
0.0
 10
119.586
 20
20.8625
 30
0.0
 10
119.8007
 20
20.4588
 30
0.0
 10
120.6399
 20
19.4135
 30
0.0
 10
122.1408
 20
19.4709
 30
0.0
 10
122.1408
 20
19.4709
 30
0.0
 10
122.0821
 20
18.6014
 30
0.0
 10
121.2985
 20
17.625
 30
0.0
 10
119.9897
 20
17.8775
 30
0.0
 10
119.9897
 20
17.8775
 30
0.0
 10
119.9586
 20
17.1639
 30
0.0
 10
120.8436
 20
15.5651
 30
0.0
 10
121.7077
 20
15.246
 30
0.0
 10
121.7077
 20
15.246
 30
0.0
 10
121.6488
 20
13.9696
 30
0.0
 10
120.67
 20
13.7061
 30
0.0
 10
119.3628
 20
13.6674
 30
0.0
 10
119.3628
 20
13.6674
 30
0.0
 10
120.3321
 20
11.8145
 30
0.0
 10
119.5077
 20
9.0961
 30
0.0
 10
118.5305
 20
8.6535
 30
0.0
 10
118.5305
 20
8.6535
 30
0.0
 10
119.5077
 20
8.2119
 30
0.0
 10
120.3321
 20
5.4935
 30
0.0
 10
119.3628
 20
3.6398
 30
0.0
  0
SPLINE
  5
4B
330
1F
100
AcDbEntity
  8
layer 1
 62
     7
100
AcDbSpline
210
0.0
220
0.0
230
1.0
 70
    11
 71
     3
 72
    20
 73
    16
 74
     0
 42
0.0000000001
 43
0.0000000001
 12
1.0
 22
0.0
 32
0.0
 13
1.0
 23
0.0
 33
0.0
 40
0.0
 40
0.0
 40
0.0
 40
0.0
 40
0.2
 40
0.2
 40
0.2
 40
0.2
 40
0.4
 40
0.4
 40
0.4
 40
0.4
 40
0.6
 40
0.6
 40
0.6
 40
0.6
 40
1.0
 40
1.0
 40
1.0
 40
1.0
 10
106.7779
 20
-15.4684
 30
0.0
 10
106.6174
 20
-13.6536
 30
0.0
 10
107.387
 20
-10.2749
 30
0.0
 10
108.7742
 20
-8.6916
 30
0.0
 10
108.7742
 20
-8.6916
 30
0.0
 10
109.3182
 20
-6.043
 30
0.0
 10
108.7966
 20
-3.2012
 30
0.0
 10
104.3624
 20
-0.4294
 30
0.0
 10
104.3624
 20
-0.4294
 30
0.0
 10
104.3624
 20
-0.4294
 30
0.0
 10
104.3624
 20
-13.9954
 30
0.0
 10
104.3624
 20
-13.9954
 30
0.0
 10
104.3624
 20
-13.9954
 30
0.0
 10
105.2645
 20
-14.217
 30
0.0
 10
105.9519
 20
-14.5447
 30
0.0
 10
106.7779
 20
-15.4684
 30
0.0
  0
SPLINE
  5
4C
330
1F
100
AcDbEntity
  8
layer 1
 62
     7
100
AcDbSpline
210
0.0
220
0.0
230
1.0
 70
    11
 71
     3
 72
    28
 73
    24
 74
     0
 42
0.0000000001
 43
0.0000000001
 12
1.0
 22
0.0
 32
0.0
 13
1.0
 23
0.0
 33
0.0
 40
0.0
 40
0.0
 40
0.0
 40
0.0
 40
0.1428571428571428
 40
0.1428571428571428
 40
0.1428571428571428
 40
0.1428571428571428
 40
0.2857142857142857
 40
0.2857142857142857
 40
0.2857142857142857
 40
0.2857142857142857
 40
0.4285714285714285
 40
0.4285714285714285
 40
0.4285714285714285
 40
0.4285714285714285
 40
0.5714285714285714
 40
0.5714285714285714
 40
0.5714285714285714
 40
0.5714285714285714
 40
0.7142857142857143
 40
0.7142857142857143
 40
0.7142857142857143
 40
0.7142857142857143
 40
1.0
 40
1.0
 40
1.0
 40
1.0
 10
140.5911
 20
-25.6735
 30
0.0
 10
142.1179
 20
-25.8479
 30
0.0
 10
145.0238
 20
-27.5883
 30
0.0
 10
144.0838
 20
-30.4339
 30
0.0
 10
144.0838
 20
-30.4339
 30
0.0
 10
142.764
 20
-33.9056
 30
0.0
 10
138.8275
 20
-31.4909
 30
0.0
 10
140.8724
 20
-29.8999
 30
0.0
 10
140.8724
 20
-29.8999
 30
0.0
 10
140.8221
 20
-28.22
 30
0.0
 10
139.1723
 20
-27.9371
 30
0.0
 10
138.271
 20
-28.7663
 30
0.0
 10
138.271
 20
-28.7663
 30
0.0
 10
137.8039
 20
-29.1956
 30
0.0
 10
137.7999
 20
-30.0782
 30
0.0
 10
137.7705
 20
-30.8941
 30
0.0
 10
137.7705
 20
-30.8941
 30
0.0
 10
137.8287
 20
-31.2824
 30
0.0
 10
137.2442
 20
-31.4762
 30
0.0
 10
137.0181
 20
-30.7261
 30
0.0
 10
137.0181
 20
-30.7261
 30
0.0
 10
135.4705
 20
-25.4357
 30
0.0
 10
138.6097
 20
-25.3781
 30
0.0
 10
140.5911
 20
-25.6735
 30
0.0
  0
SPLINE
  5
4D
330
1F
100
AcDbEntity
  8
layer 1
 62
     7
100
AcDbSpline
210
0.0
220
0.0
230
1.0
 70
    11
 71
     3
 72
    20
 73
    16
 74
     0
 42
0.0000000001
 43
0.0000000001
 12
1.0
 22
0.0
 32
0.0
 13
1.0
 23
0.0
 33
0.0
 40
0.0
 40
0.0
 40
0.0
 40
0.0
 40
0.2
 40
0.2
 40
0.2
 40
0.2
 40
0.4
 40
0.4
 40
0.4
 40
0.4
 40
0.6
 40
0.6
 40
0.6
 40
0.6
 40
1.0
 40
1.0
 40
1.0
 40
1.0
 10
144.1148
 20
-61.5706
 30
0.0
 10
145.216
 20
-60.6429
 30
0.0
 10
146.8039
 20
-59.3404
 30
0.0
 10
146.8124
 20
-57.1163
 30
0.0
 10
146.8124
 20
-57.1163
 30
0.0
 10
146.8209
 20
-59.3404
 30
0.0
 10
148.4079
 20
-60.6429
 30
0.0
 10
149.5098
 20
-61.5706
 30
0.0
 10
149.5098
 20
-61.5706
 30
0.0
 10
148.1088
 20
-62.0735
 30
0.0
 10
147.2921
 20
-63.2437
 30
0.0
 10
146.8124
 20
-65.019
 30
0.0
 10
146.8124
 20
-65.019
 30
0.0
 10
146.3327
 20
-63.2437
 30
0.0
 10
145.5159
 20
-62.0735
 30
0.0
 10
144.1148
 20
-61.5706
 30
0.0
  0
SPLINE
  5
4E
330
1F
100
AcDbEntity
  8
layer 1
 62
     7
100
AcDbSpline
210
0.0
220
0.0
230
1.0
 70
    11
 71
     3
 72
    56
 73
    52
 74
     0
 42
0.0000000001
 43
0.0000000001
 12
1.0
 22
0.0
 32
0.0
 13
1.0
 23
0.0
 33
0.0
 40
0.0
 40
0.0
 40
0.0
 40
0.0
 40
0.0714285714285714
 40
0.0714285714285714
 40
0.0714285714285714
 40
0.0714285714285714
 40
0.1428571428571428
 40
0.1428571428571428
 40
0.1428571428571428
 40
0.1428571428571428
 40
0.2142857142857143
 40
0.2142857142857143
 40
0.2142857142857143
 40
0.2142857142857143
 40
0.2857142857142857
 40
0.2857142857142857
 40
0.2857142857142857
 40
0.2857142857142857
 40
0.3571428571428572
 40
0.3571428571428572
 40
0.3571428571428572
 40
0.3571428571428572
 40
0.4285714285714285
 40
0.4285714285714285
 40
0.4285714285714285
 40
0.4285714285714285
 40
0.5
 40
0.5
 40
0.5
 40
0.5
 40
0.5714285714285714
 40
0.5714285714285714
 40
0.5714285714285714
 40
0.5714285714285714
 40
0.6428571428571429
 40
0.6428571428571429
 40
0.6428571428571429
 40
0.6428571428571429
 40
0.7142857142857143
 40
0.7142857142857143
 40
0.7142857142857143
 40
0.7142857142857143
 40
0.7857142857142857
 40
0.7857142857142857
 40
0.7857142857142857
 40
0.7857142857142857
 40
0.8571428571428571
 40
0.8571428571428571
 40
0.8571428571428571
 40
0.8571428571428571
 40
1.0
 40
1.0
 40
1.0
 40
1.0
 10
129.0028
 20
-49.7714
 30
0.0
 10
130.2427
 20
-50.1449
 30
0.0
 10
131.3719
 20
-51.5352
 30
0.0
 10
130.1049
 20
-52.834
 30
0.0
 10
130.1049
 20
-52.834
 30
0.0
 10
130.8008
 20
-54.2606
 30
0.0
 10
132.3366
 20
-54.0414
 30
0.0
 10
132.8745
 20
-53.0921
 30
0.0
 10
132.8745
 20
-53.0921
 30
0.0
 10
133.523
 20
-51.949
 30
0.0
 10
133.1171
 20
-50.527
 30
0.0
 10
132.8094
 20
-49.7529
 30
0.0
 10
132.8094
 20
-49.7529
 30
0.0
 10
135.3985
 20
-49.4258
 30
0.0
 10
141.4235
 20
-50.4643
 30
0.0
 10
143.6871
 20
-53.8219
 30
0.0
 10
143.6871
 20
-53.8219
 30
0.0
 10
145.4834
 20
-56.7382
 30
0.0
 10
140.9468
 20
-63.2242
 30
0.0
 10
135.6131
 20
-56.3707
 30
0.0
 10
135.6131
 20
-56.3707
 30
0.0
 10
134.2159
 20
-56.0817
 30
0.0
 10
132.6907
 20
-60.3346
 30
0.0
 10
135.6494
 20
-61.634
 30
0.0
 10
135.6494
 20
-61.634
 30
0.0
 10
134.4879
 20
-62.8235
 30
0.0
 10
134.3887
 20
-64.4044
 30
0.0
 10
135.5518
 20
-65.3777
 30
0.0
 10
135.5518
 20
-65.3777
 30
0.0
 10
134.5777
 20
-65.1206
 30
0.0
 10
133.0481
 20
-65.2174
 30
0.0
 10
132.0529
 20
-65.5723
 30
0.0
 10
132.0529
 20
-65.5723
 30
0.0
 10
128.8564
 20
-64.9446
 30
0.0
 10
132.3228
 20
-60.3229
 30
0.0
 10
129.4865
 20
-59.1116
 30
0.0
 10
129.4865
 20
-59.1116
 30
0.0
 10
131.8074
 20
-58.959
 30
0.0
 10
133.3976
 20
-55.244
 30
0.0
 10
131.0922
 20
-54.5341
 30
0.0
 10
131.0922
 20
-54.5341
 30
0.0
 10
130.9658
 20
-55.654
 30
0.0
 10
128.8533
 20
-56.6777
 30
0.0
 10
127.3949
 20
-55.4393
 30
0.0
 10
127.3949
 20
-55.4393
 30
0.0
 10
122.6562
 20
-52.2645
 30
0.0
 10
118.9504
 20
-53.4718
 30
0.0
 10
115.5107
 20
-54.1312
 30
0.0
 10
115.5107
 20
-54.1312
 30
0.0
 10
118.2344
 20
-50.8966
 30
0.0
 10
123.3172
 20
-48.4147
 30
0.0
 10
129.0028
 20
-49.7714
 30
0.0
  0
SPLINE
  5
4F
330
1F
100
AcDbEntity
  8
layer 1
 62
     7
100
AcDbSpline
210
0.0
220
0.0
230
1.0
 70
    11
 71
     3
 72
    36
 73
    32
 74
     0
 42
0.0000000001
 43
0.0000000001
 12
1.0
 22
0.0
 32
0.0
 13
1.0
 23
0.0
 33
0.0
 40
0.0
 40
0.0
 40
0.0
 40
0.0
 40
0.1111111111111111
 40
0.1111111111111111
 40
0.1111111111111111
 40
0.1111111111111111
 40
0.2222222222222222
 40
0.2222222222222222
 40
0.2222222222222222
 40
0.2222222222222222
 40
0.3333333333333333
 40
0.3333333333333333
 40
0.3333333333333333
 40
0.3333333333333333
 40
0.4444444444444444
 40
0.4444444444444444
 40
0.4444444444444444
 40
0.4444444444444444
 40
0.5555555555555556
 40
0.5555555555555556
 40
0.5555555555555556
 40
0.5555555555555556
 40
0.6666666666666666
 40
0.6666666666666666
 40
0.6666666666666666
 40
0.6666666666666666
 40
0.7777777777777778
 40
0.7777777777777778
 40
0.7777777777777778
 40
0.7777777777777778
 40
1.0
 40
1.0
 40
1.0
 40
1.0
 10
130.1963
 20
-80.4595
 30
0.0
 10
128.7519
 20
-75.1968
 30
0.0
 10
130.776
 20
-71.1742
 30
0.0
 10
132.5062
 20
-69.7887
 30
0.0
 10
132.5062
 20
-69.7887
 30
0.0
 10
134.9465
 20
-67.7708
 30
0.0
 10
137.9137
 20
-70.2359
 30
0.0
 10
138.1835
 20
-72.552
 30
0.0
 10
138.1835
 20
-72.552
 30
0.0
 10
141.2678
 20
-69.0021
 30
0.0
 10
138.5601
 20
-66.2736
 30
0.0
 10
136.5073
 20
-65.7683
 30
0.0
 10
136.5073
 20
-65.7683
 30
0.0
 10
139.0971
 20
-65.4406
 30
0.0
 10
140.9166
 20
-61.738
 30
0.0
 10
143.1802
 20
-65.095
 30
0.0
 10
143.1802
 20
-65.095
 30
0.0
 10
144.8688
 20
-66.3805
 30
0.0
 10
145.56
 20
-71.764
 30
0.0
 10
143.4244
 20
-74.9334
 30
0.0
 10
143.4244
 20
-74.9334
 30
0.0
 10
140.5695
 20
-78.9607
 30
0.0
 10
137.3388
 20
-82.2666
 30
0.0
 10
138.0276
 20
-88.5428
 30
0.0
 10
138.0276
 20
-88.5428
 30
0.0
 10
133.2891
 20
-85.3687
 30
0.0
 10
130.8357
 20
-82.3705
 30
0.0
 10
134.5978
 20
-76.4988
 30
0.0
 10
134.5978
 20
-76.4988
 30
0.0
 10
133.4749
 20
-75.5906
 30
0.0
 10
131.2207
 20
-74.2268
 30
0.0
 10
130.1963
 20
-80.4595
 30
0.0
  0
SPLINE
  5
50
330
1F
100
AcDbEntity
  8
layer 1
 62
     7
100
AcDbSpline
210
0.0
220
0.0
230
1.0
 70
    11
 71
     3
 72
    36
 73
    32
 74
     0
 42
0.0000000001
 43
0.0000000001
 12
1.0
 22
0.0
 32
0.0
 13
1.0
 23
0.0
 33
0.0
 40
0.0
 40
0.0
 40
0.0
 40
0.0
 40
0.1111111111111111
 40
0.1111111111111111
 40
0.1111111111111111
 40
0.1111111111111111
 40
0.2222222222222222
 40
0.2222222222222222
 40
0.2222222222222222
 40
0.2222222222222222
 40
0.3333333333333333
 40
0.3333333333333333
 40
0.3333333333333333
 40
0.3333333333333333
 40
0.4444444444444444
 40
0.4444444444444444
 40
0.4444444444444444
 40
0.4444444444444444
 40
0.5555555555555556
 40
0.5555555555555556
 40
0.5555555555555556
 40
0.5555555555555556
 40
0.6666666666666666
 40
0.6666666666666666
 40
0.6666666666666666
 40
0.6666666666666666
 40
0.7777777777777778
 40
0.7777777777777778
 40
0.7777777777777778
 40
0.7777777777777778
 40
1.0
 40
1.0
 40
1.0
 40
1.0
 10
117.2223
 20
-87.9305
 30
0.0
 10
112.7371
 20
-91.5254
 30
0.0
 10
110.6448
 20
-90.6785
 30
0.0
 10
110.3626
 20
-86.8773
 30
0.0
 10
110.3626
 20
-86.8773
 30
0.0
 10
108.2394
 20
-87.32
 30
0.0
 10
107.941
 20
-90.0082
 30
0.0
 10
109.1057
 20
-91.5641
 30
0.0
 10
109.1057
 20
-91.5641
 30
0.0
 10
106.2401
 20
-92.0857
 30
0.0
 10
105.0282
 20
-90.8783
 30
0.0
 10
104.3624
 20
-89.5672
 30
0.0
 10
104.3624
 20
-89.5672
 30
0.0
 10
106.8624
 20
-89.7773
 30
0.0
 10
108.2604
 20
-87.9972
 30
0.0
 10
107.5706
 20
-86.4784
 30
0.0
 10
107.5706
 20
-86.4784
 30
0.0
 10
105.3234
 20
-85.6166
 30
0.0
 10
106.2377
 20
-83.4398
 30
0.0
 10
110.007
 20
-83.0748
 30
0.0
 10
110.007
 20
-83.0748
 30
0.0
 10
114.8022
 20
-82.6734
 30
0.0
 10
119.0869
 20
-83.2059
 30
0.0
 10
123.8016
 20
-86.4854
 30
0.0
 10
123.8016
 20
-86.4854
 30
0.0
 10
120.226
 20
-87.113
 30
0.0
 10
118.6677
 20
-87.068
 30
0.0
 10
118.4035
 20
-84.2829
 30
0.0
 10
118.4035
 20
-84.2829
 30
0.0
 10
116.8335
 20
-83.956
 30
0.0
 10
116.0112
 20
-86.7525
 30
0.0
 10
117.2223
 20
-87.9305
 30
0.0
  0
SPLINE
  5
51
330
1F
100
AcDbEntity
  8
layer 1
 62
     7
100
AcDbSpline
210
0.0
220
0.0
230
1.0
 70
    11
 71
     3
 72
    76
 73
    72
 74
     0
 42
0.0000000001
 43
0.0000000001
 12
1.0
 22
0.0
 32
0.0
 13
1.0
 23
0.0
 33
0.0
 40
0.0
 40
0.0
 40
0.0
 40
0.0
 40
0.0526315789473684
 40
0.0526315789473684
 40
0.0526315789473684
 40
0.0526315789473684
 40
0.1052631578947368
 40
0.1052631578947368
 40
0.1052631578947368
 40
0.1052631578947368
 40
0.1578947368421053
 40
0.1578947368421053
 40
0.1578947368421053
 40
0.1578947368421053
 40
0.2105263157894737
 40
0.2105263157894737
 40
0.2105263157894737
 40
0.2105263157894737
 40
0.2631578947368421
 40
0.2631578947368421
 40
0.2631578947368421
 40
0.2631578947368421
 40
0.3157894736842105
 40
0.3157894736842105
 40
0.3157894736842105
 40
0.3157894736842105
 40
0.3684210526315789
 40
0.3684210526315789
 40
0.3684210526315789
 40
0.3684210526315789
 40
0.4210526315789473
 40
0.4210526315789473
 40
0.4210526315789473
 40
0.4210526315789473
 40
0.4736842105263158
 40
0.4736842105263158
 40
0.4736842105263158
 40
0.4736842105263158
 40
0.5263157894736842
 40
0.5263157894736842
 40
0.5263157894736842
 40
0.5263157894736842
 40
0.5789473684210527
 40
0.5789473684210527
 40
0.5789473684210527
 40
0.5789473684210527
 40
0.631578947368421
 40
0.631578947368421
 40
0.631578947368421
 40
0.631578947368421
 40
0.6842105263157895
 40
0.6842105263157895
 40
0.6842105263157895
 40
0.6842105263157895
 40
0.7368421052631579
 40
0.7368421052631579
 40
0.7368421052631579
 40
0.7368421052631579
 40
0.7894736842105263
 40
0.7894736842105263
 40
0.7894736842105263
 40
0.7894736842105263
 40
0.8421052631578947
 40
0.8421052631578947
 40
0.8421052631578947
 40
0.8421052631578947
 40
0.8947368421052632
 40
0.8947368421052632
 40
0.8947368421052632
 40
0.8947368421052632
 40
1.0
 40
1.0
 40
1.0
 40
1.0
 10
128.421
 20
-85.4631
 30
0.0
 10
124.9965
 20
-84.6634
 30
0.0
 10
121.8208
 20
-80.6168
 30
0.0
 10
117.8331
 20
-79.1343
 30
0.0
 10
117.8331
 20
-79.1343
 30
0.0
 10
116.449
 20
-76.5081
 30
0.0
 10
116.2568
 20
-73.8479
 30
0.0
 10
118.587
 20
-72.5799
 30
0.0
 10
118.587
 20
-72.5799
 30
0.0
 10
114.4396
 20
-67.8979
 30
0.0
 10
111.7367
 20
-74.6987
 30
0.0
 10
113.0285
 20
-78.4051
 30
0.0
 10
113.0285
 20
-78.4051
 30
0.0
 10
109.3398
 20
-77.0916
 30
0.0
 10
105.5343
 20
-65.5088
 30
0.0
 10
112.7766
 20
-63.8186
 30
0.0
 10
112.7766
 20
-63.8186
 30
0.0
 10
112.4558
 20
-62.9328
 30
0.0
 10
110.0304
 20
-60.8095
 30
0.0
 10
107.2917
 20
-64.1642
 30
0.0
 10
107.2917
 20
-64.1642
 30
0.0
 10
107.0995
 20
-59.8494
 30
0.0
 10
116.5188
 20
-54.1211
 30
0.0
 10
120.5772
 20
-60.3144
 30
0.0
 10
120.5772
 20
-60.3144
 30
0.0
 10
122.4306
 20
-58.9559
 30
0.0
 10
121.2971
 20
-56.8713
 30
0.0
 10
120.526
 20
-56.0268
 30
0.0
 10
120.526
 20
-56.0268
 30
0.0
 10
124.1651
 20
-56.0057
 30
0.0
 10
126.3231
 20
-59.5558
 30
0.0
 10
125.9884
 20
-61.4674
 30
0.0
 10
125.9884
 20
-61.4674
 30
0.0
 10
125.9636
 20
-62.0945
 30
0.0
 10
125.0082
 20
-63.4203
 30
0.0
 10
123.9387
 20
-62.6252
 30
0.0
 10
123.9387
 20
-62.6252
 30
0.0
 10
125.1392
 20
-59.1225
 30
0.0
 10
121.2814
 20
-59.0001
 30
0.0
 10
120.8956
 20
-62.3416
 30
0.0
 10
120.8956
 20
-62.3416
 30
0.0
 10
120.9598
 20
-66.0838
 30
0.0
 10
125.4274
 20
-68.5342
 30
0.0
 10
127.725
 20
-63.1133
 30
0.0
 10
127.725
 20
-63.1133
 30
0.0
 10
127.2221
 20
-67.1965
 30
0.0
 10
128.9548
 20
-68.3358
 30
0.0
 10
130.0931
 20
-68.5744
 30
0.0
 10
130.0931
 20
-68.5744
 30
0.0
 10
129.87
 20
-69.168
 30
0.0
 10
129.4555
 20
-69.7746
 30
0.0
 10
129.0503
 20
-70.2954
 30
0.0
 10
129.0503
 20
-70.2954
 30
0.0
 10
128.6287
 20
-69.8405
 30
0.0
 10
128.4628
 20
-69.2384
 30
0.0
 10
127.4901
 20
-68.899
 30
0.0
 10
127.4901
 20
-68.899
 30
0.0
 10
126.9904
 20
-69.7717
 30
0.0
 10
126.6044
 20
-72.1213
 30
0.0
 10
127.2811
 20
-75.7936
 30
0.0
 10
127.2811
 20
-75.7936
 30
0.0
 10
126.5604
 20
-74.9598
 30
0.0
 10
125.7668
 20
-74.6011
 30
0.0
 10
125.5282
 20
-75.056
 30
0.0
 10
125.5282
 20
-75.056
 30
0.0
 10
125.5413
 20
-77.5187
 30
0.0
 10
126.527
 20
-79.47
 30
0.0
 10
127.071
 20
-80.8035
 30
0.0
 10
127.071
 20
-80.8035
 30
0.0
 10
124.2982
 20
-79.2111
 30
0.0
 10
125.501
 20
-82.4503
 30
0.0
 10
128.421
 20
-85.4631
 30
0.0
  0
SPLINE
  5
52
330
1F
100
AcDbEntity
  8
layer 1
 62
     7
100
AcDbSpline
210
0.0
220
0.0
230
1.0
 70
    11
 71
     3
 72
    52
 73
    48
 74
     0
 42
0.0000000001
 43
0.0000000001
 12
1.0
 22
0.0
 32
0.0
 13
1.0
 23
0.0
 33
0.0
 40
0.0
 40
0.0
 40
0.0
 40
0.0
 40
0.0769230769230769
 40
0.0769230769230769
 40
0.0769230769230769
 40
0.0769230769230769
 40
0.1538461538461539
 40
0.1538461538461539
 40
0.1538461538461539
 40
0.1538461538461539
 40
0.2307692307692308
 40
0.2307692307692308
 40
0.2307692307692308
 40
0.2307692307692308
 40
0.3076923076923077
 40
0.3076923076923077
 40
0.3076923076923077
 40
0.3076923076923077
 40
0.3846153846153846
 40
0.3846153846153846
 40
0.3846153846153846
 40
0.3846153846153846
 40
0.4615384615384616
 40
0.4615384615384616
 40
0.4615384615384616
 40
0.4615384615384616
 40
0.5384615384615384
 40
0.5384615384615384
 40
0.5384615384615384
 40
0.5384615384615384
 40
0.6153846153846154
 40
0.6153846153846154
 40
0.6153846153846154
 40
0.6153846153846154
 40
0.6923076923076923
 40
0.6923076923076923
 40
0.6923076923076923
 40
0.6923076923076923
 40
0.7692307692307693
 40
0.7692307692307693
 40
0.7692307692307693
 40
0.7692307692307693
 40
0.8461538461538461
 40
0.8461538461538461
 40
0.8461538461538461
 40
0.8461538461538461
 40
1.0
 40
1.0
 40
1.0
 40
1.0
 10
143.866
 20
-4.6984
 30
0.0
 10
143.3189
 20
-5.0743
 30
0.0
 10
142.6378
 20
-4.5325
 30
0.0
 10
142.4176
 20
-4.0305
 30
0.0
 10
142.4176
 20
-4.0305
 30
0.0
 10
141.9388
 20
-4.6434
 30
0.0
 10
142.3232
 20
-6.0607
 30
0.0
 10
142.8563
 20
-7.0115
 30
0.0
 10
142.8563
 20
-7.0115
 30
0.0
 10
142.3347
 20
-6.6675
 30
0.0
 10
141.7118
 20
-6.6993
 30
0.0
 10
141.1785
 20
-6.9729
 30
0.0
 10
141.1785
 20
-6.9729
 30
0.0
 10
142.3736
 20
-7.6696
 30
0.0
 10
142.7463
 20
-9.9075
 30
0.0
 10
141.1383
 20
-9.6502
 30
0.0
 10
141.1383
 20
-9.6502
 30
0.0
 10
139.8224
 20
-9.2868
 30
0.0
 10
138.4345
 20
-9.7812
 30
0.0
 10
137.4341
 20
-9.9292
 30
0.0
 10
137.4341
 20
-9.9292
 30
0.0
 10
137.8503
 20
-9.2156
 30
0.0
 10
138.4369
 20
-7.0635
 30
0.0
 10
136.4995
 20
-6.7481
 30
0.0
 10
136.4995
 20
-6.7481
 30
0.0
 10
136.2182
 20
-10.1803
 30
0.0
 10
134.9684
 20
-10.1113
 30
0.0
 10
133.5208
 20
-9.2721
 30
0.0
 10
133.5208
 20
-9.2721
 30
0.0
 10
132.2948
 20
-8.5607
 30
0.0
 10
130.9573
 20
-7.2192
 30
0.0
 10
129.6236
 20
-7.7904
 30
0.0
 10
129.6236
 20
-7.7904
 30
0.0
 10
130.5357
 20
-6.1359
 30
0.0
 10
129.819
 20
-4.8767
 30
0.0
 10
128.0986
 20
-5.1114
 30
0.0
 10
128.0986
 20
-5.1114
 30
0.0
 10
129.3407
 20
-6.4374
 30
0.0
 10
126.9742
 20
-6.728
 30
0.0
 10
125.0128
 20
-5.6183
 30
0.0
 10
125.0128
 20
-5.6183
 30
0.0
 10
129.8142
 20
-2.8425
 30
0.0
 10
134.4026
 20
-1.0864
 30
0.0
 10
141.3716
 20
-1.4491
 30
0.0
 10
141.3716
 20
-1.4491
 30
0.0
 10
143.7583
 20
-1.8506
 30
0.0
 10
145.0083
 20
-3.5718
 30
0.0
 10
143.866
 20
-4.6984
 30
0.0
  0
SPLINE
  5
53
330
1F
100
AcDbEntity
  8
layer 1
 62
     7
100
AcDbSpline
210
0.0
220
0.0
230
1.0
 70
    11
 71
     3
 72
    32
 73
    28
 74
     0
 42
0.0000000001
 43
0.0000000001
 12
1.0
 22
0.0
 32
0.0
 13
1.0
 23
0.0
 33
0.0
 40
0.0
 40
0.0
 40
0.0
 40
0.0
 40
0.125
 40
0.125
 40
0.125
 40
0.125
 40
0.25
 40
0.25
 40
0.25
 40
0.25
 40
0.375
 40
0.375
 40
0.375
 40
0.375
 40
0.5
 40
0.5
 40
0.5
 40
0.5
 40
0.625
 40
0.625
 40
0.625
 40
0.625
 40
0.75
 40
0.75
 40
0.75
 40
0.75
 40
1.0
 40
1.0
 40
1.0
 40
1.0
 10
111.6375
 20
-19.2624
 30
0.0
 10
113.164
 20
-19.4368
 30
0.0
 10
115.4936
 20
-17.5668
 30
0.0
 10
115.905
 20
-16.3363
 30
0.0
 10
115.905
 20
-16.3363
 30
0.0
 10
115.3827
 20
-15.422
 30
0.0
 10
114.7022
 20
-15.267
 30
0.0
 10
113.9119
 20
-15.0049
 30
0.0
 10
113.9119
 20
-15.0049
 30
0.0
 10
114.7039
 20
-14.654
 30
0.0
 10
115.3726
 20
-14.8284
 30
0.0
 10
116.1173
 20
-14.9788
 30
0.0
 10
116.1173
 20
-14.9788
 30
0.0
 10
116.9791
 20
-15.2529
 30
0.0
 10
117.8835
 20
-16.7338
 30
0.0
 10
118.7187
 20
-17.3948
 30
0.0
 10
118.7187
 20
-17.3948
 30
0.0
 10
117.7169
 20
-17.7134
 30
0.0
 10
117.5532
 20
-18.9874
 30
0.0
 10
118.0067
 20
-19.7165
 30
0.0
 10
118.0067
 20
-19.7165
 30
0.0
 10
114.2722
 20
-18.3984
 30
0.0
 10
112.0769
 20
-20.0778
 30
0.0
 10
110.5008
 20
-23.4076
 30
0.0
 10
110.5008
 20
-23.4076
 30
0.0
 10
110.2155
 20
-22.4357
 30
0.0
 10
110.8293
 20
-20.2529
 30
0.0
 10
111.6375
 20
-19.2624
 30
0.0
  0
SPLINE
  5
54
330
1F
100
AcDbEntity
  8
layer 1
 62
     7
100
AcDbSpline
210
0.0
220
0.0
230
1.0
 70
    11
 71
     3
 72
    20
 73
    16
 74
     0
 42
0.0000000001
 43
0.0000000001
 12
1.0
 22
0.0
 32
0.0
 13
1.0
 23
0.0
 33
0.0
 40
0.0
 40
0.0
 40
0.0
 40
0.0
 40
0.2
 40
0.2
 40
0.2
 40
0.2
 40
0.4
 40
0.4
 40
0.4
 40
0.4
 40
0.6
 40
0.6
 40
0.6
 40
0.6
 40
1.0
 40
1.0
 40
1.0
 40
1.0
 10
119.3171
 20
-17.2864
 30
0.0
 10
119.1559
 20
-16.6471
 30
0.0
 10
120.1354
 20
-16.3565
 30
0.0
 10
119.5511
 20
-15.422
 30
0.0
 10
119.5511
 20
-15.422
 30
0.0
 10
122.2074
 20
-16.0954
 30
0.0
 10
122.3362
 20
-19.1269
 30
0.0
 10
121.7976
 20
-19.8538
 30
0.0
 10
121.7976
 20
-19.8538
 30
0.0
 10
120.9731
 20
-20.8814
 30
0.0
 10
119.7239
 20
-20.294
 30
0.0
 10
120.3772
 20
-19.6949
 30
0.0
 10
120.3772
 20
-19.6949
 30
0.0
 10
121.5195
 20
-18.9549
 30
0.0
 10
120.8011
 20
-17.0887
 30
0.0
 10
119.3171
 20
-17.2864
 30
0.0
  0
SPLINE
  5
55
330
1F
100
AcDbEntity
  8
layer 1
 62
     7
100
AcDbSpline
210
0.0
220
0.0
230
1.0
 70
    11
 71
     3
 72
    72
 73
    68
 74
     0
 42
0.0000000001
 43
0.0000000001
 12
1.0
 22
0.0
 32
0.0
 13
1.0
 23
0.0
 33
0.0
 40
0.0
 40
0.0
 40
0.0
 40
0.0
 40
0.0555555555555556
 40
0.0555555555555556
 40
0.0555555555555556
 40
0.0555555555555556
 40
0.1111111111111111
 40
0.1111111111111111
 40
0.1111111111111111
 40
0.1111111111111111
 40
0.1666666666666667
 40
0.1666666666666667
 40
0.1666666666666667
 40
0.1666666666666667
 40
0.2222222222222222
 40
0.2222222222222222
 40
0.2222222222222222
 40
0.2222222222222222
 40
0.2777777777777778
 40
0.2777777777777778
 40
0.2777777777777778
 40
0.2777777777777778
 40
0.3333333333333333
 40
0.3333333333333333
 40
0.3333333333333333
 40
0.3333333333333333
 40
0.3888888888888889
 40
0.3888888888888889
 40
0.3888888888888889
 40
0.3888888888888889
 40
0.4444444444444444
 40
0.4444444444444444
 40
0.4444444444444444
 40
0.4444444444444444
 40
0.5
 40
0.5
 40
0.5
 40
0.5
 40
0.5555555555555556
 40
0.5555555555555556
 40
0.5555555555555556
 40
0.5555555555555556
 40
0.6111111111111112
 40
0.6111111111111112
 40
0.6111111111111112
 40
0.6111111111111112
 40
0.6666666666666666
 40
0.6666666666666666
 40
0.6666666666666666
 40
0.6666666666666666
 40
0.7222222222222222
 40
0.7222222222222222
 40
0.7222222222222222
 40
0.7222222222222222
 40
0.7777777777777778
 40
0.7777777777777778
 40
0.7777777777777778
 40
0.7777777777777778
 40
0.8333333333333334
 40
0.8333333333333334
 40
0.8333333333333334
 40
0.8333333333333334
 40
0.8888888888888888
 40
0.8888888888888888
 40
0.8888888888888888
 40
0.8888888888888888
 40
1.0
 40
1.0
 40
1.0
 40
1.0
 10
123.0569
 20
-7.9128
 30
0.0
 10
123.9387
 20
-8.1237
 30
0.0
 10
129.8251
 20
-8.7916
 30
0.0
 10
128.8084
 20
-13.5101
 30
0.0
 10
128.8084
 20
-13.5101
 30
0.0
 10
129.0991
 20
-14.069
 30
0.0
 10
132.094
 20
-14.8268
 30
0.0
 10
131.6935
 20
-11.6828
 30
0.0
 10
131.6935
 20
-11.6828
 30
0.0
 10
132.4079
 20
-12.6299
 30
0.0
 10
133.1867
 20
-13.7885
 30
0.0
 10
134.7692
 20
-14.2549
 30
0.0
 10
134.7692
 20
-14.2549
 30
0.0
 10
135.964
 20
-14.9516
 30
0.0
 10
135.7052
 20
-18.5635
 30
0.0
 10
133.4928
 20
-16.9602
 30
0.0
 10
133.4928
 20
-16.9602
 30
0.0
 10
132.5886
 20
-15.9373
 30
0.0
 10
130.459
 20
-14.9198
 30
0.0
 10
128.7711
 20
-15.6171
 30
0.0
 10
128.7711
 20
-15.6171
 30
0.0
 10
126.5766
 20
-16.8826
 30
0.0
 10
126.0922
 20
-20.5838
 30
0.0
 10
126.875
 20
-22.0546
 30
0.0
 10
126.875
 20
-22.0546
 30
0.0
 10
124.423
 20
-21.6664
 30
0.0
 10
122.0192
 20
-22.697
 30
0.0
 10
120.9838
 20
-25.4853
 30
0.0
 10
120.9838
 20
-25.4853
 30
0.0
 10
118.539
 20
-24.0385
 30
0.0
 10
114.6001
 20
-24.0918
 30
0.0
 10
111.7273
 20
-25.6247
 30
0.0
 10
111.7273
 20
-25.6247
 30
0.0
 10
112.7216
 20
-23.9159
 30
0.0
 10
114.3412
 20
-21.7771
 30
0.0
 10
116.4685
 20
-21.9568
 30
0.0
 10
116.4685
 20
-21.9568
 30
0.0
 10
117.4897
 20
-22.1011
 30
0.0
 10
118.064
 20
-24.1508
 30
0.0
 10
118.6584
 20
-22.3258
 30
0.0
 10
118.6584
 20
-22.3258
 30
0.0
 10
121.7192
 20
-24.6846
 30
0.0
 10
124.5525
 20
-20.6665
 30
0.0
 10
124.227
 20
-17.491
 30
0.0
 10
124.227
 20
-17.491
 30
0.0
 10
123.9705
 20
-14.9809
 30
0.0
 10
121.3558
 20
-12.7059
 30
0.0
 10
117.7292
 20
-13.4165
 30
0.0
 10
117.7292
 20
-13.4165
 30
0.0
 10
118.7157
 20
-12.4377
 30
0.0
 10
118.5553
 20
-8.746
 30
0.0
 10
114.6652
 20
-11.4335
 30
0.0
 10
114.6652
 20
-11.4335
 30
0.0
 10
111.9188
 20
-11.7535
 30
0.0
 10
110.4813
 20
-13.6373
 30
0.0
 10
109.9723
 20
-14.6407
 30
0.0
 10
109.9723
 20
-14.6407
 30
0.0
 10
109.4467
 20
-12.3678
 30
0.0
 10
112.7859
 20
-10.4173
 30
0.0
 10
115.0635
 20
-9.6611
 30
0.0
 10
115.0635
 20
-9.6611
 30
0.0
 10
117.7354
 20
-8.9769
 30
0.0
 10
123.4977
 20
-9.9966
 30
0.0
 10
123.3103
 20
-14.4471
 30
0.0
 10
123.3103
 20
-14.4471
 30
0.0
 10
126.1372
 20
-15.6179
 30
0.0
 10
127.4142
 20
-11.321
 30
0.0
 10
123.0569
 20
-7.9128
 30
0.0
  0
SPLINE
  5
56
330
1F
100
AcDbEntity
  8
layer 1
 62
     7
100
AcDbSpline
210
0.0
220
0.0
230
1.0
 70
    11
 71
     3
 72
    32
 73
    28
 74
     0
 42
0.0000000001
 43
0.0000000001
 12
1.0
 22
0.0
 32
0.0
 13
1.0
 23
0.0
 33
0.0
 40
0.0
 40
0.0
 40
0.0
 40
0.0
 40
0.125
 40
0.125
 40
0.125
 40
0.125
 40
0.25
 40
0.25
 40
0.25
 40
0.25
 40
0.375
 40
0.375
 40
0.375
 40
0.375
 40
0.5
 40
0.5
 40
0.5
 40
0.5
 40
0.625
 40
0.625
 40
0.625
 40
0.625
 40
0.75
 40
0.75
 40
0.75
 40
0.75
 40
1.0
 40
1.0
 40
1.0
 40
1.0
 10
140.8268
 20
-108.3802
 30
0.0
 10
142.052
 20
-107.0574
 30
0.0
 10
142.2635
 20
-105.3991
 30
0.0
 10
142.3907
 20
-103.2819
 30
0.0
 10
142.3907
 20
-103.2819
 30
0.0
 10
142.661
 20
-98.7533
 30
0.0
 10
145.5546
 20
-98.5648
 30
0.0
 10
146.1676
 20
-99.9916
 30
0.0
 10
146.1676
 20
-99.9916
 30
0.0
 10
146.469
 20
-99.5724
 30
0.0
 10
146.8039
 20
-99.3506
 30
0.0
 10
146.8124
 20
-98.5502
 30
0.0
 10
146.8124
 20
-98.5502
 30
0.0
 10
146.8209
 20
-99.3506
 30
0.0
 10
147.1548
 20
-99.5724
 30
0.0
 10
147.4564
 20
-99.9916
 30
0.0
 10
147.4564
 20
-99.9916
 30
0.0
 10
148.0701
 20
-98.5648
 30
0.0
 10
150.9637
 20
-98.7533
 30
0.0
 10
151.2341
 20
-103.2819
 30
0.0
 10
151.2341
 20
-103.2819
 30
0.0
 10
151.3605
 20
-105.3991
 30
0.0
 10
151.5728
 20
-107.0574
 30
0.0
 10
152.798
 20
-108.3802
 30
0.0
 10
152.798
 20
-108.3802
 30
0.0
 10
152.798
 20
-108.3802
 30
0.0
 10
140.8268
 20
-108.3802
 30
0.0
 10
140.8268
 20
-108.3802
 30
0.0
  0
SPLINE
  5
57
330
1F
100
AcDbEntity
  8
layer 1
 62
     7
100
AcDbSpline
210
0.0
220
0.0
230
1.0
 70
    11
 71
     3
 72
    32
 73
    28
 74
     0
 42
0.0000000001
 43
0.0000000001
 12
1.0
 22
0.0
 32
0.0
 13
1.0
 23
0.0
 33
0.0
 40
0.0
 40
0.0
 40
0.0
 40
0.0
 40
0.125
 40
0.125
 40
0.125
 40
0.125
 40
0.25
 40
0.25
 40
0.25
 40
0.25
 40
0.375
 40
0.375
 40
0.375
 40
0.375
 40
0.5
 40
0.5
 40
0.5
 40
0.5
 40
0.625
 40
0.625
 40
0.625
 40
0.625
 40
0.75
 40
0.75
 40
0.75
 40
0.75
 40
1.0
 40
1.0
 40
1.0
 40
1.0
 10
104.3624
 20
-93.1218
 30
0.0
 10
104.3624
 20
-93.1218
 30
0.0
 10
104.3624
 20
-102.1599
 30
0.0
 10
104.3624
 20
-102.1599
 30
0.0
 10
104.3624
 20
-102.1599
 30
0.0
 10
106.2937
 20
-104.8395
 30
0.0
 10
109.5003
 20
-100.8657
 30
0.0
 10
111.5871
 20
-104.7691
 30
0.0
 10
111.5871
 20
-104.7691
 30
0.0
 10
113.4485
 20
-108.3802
 30
0.0
 10
116.5677
 20
-104.741
 30
0.0
 10
117.1596
 20
-103.0548
 30
0.0
 10
117.1596
 20
-103.0548
 30
0.0
 10
117.802
 20
-101.092
 30
0.0
 10
116.5288
 20
-99.1058
 30
0.0
 10
115.2494
 20
-100.4921
 30
0.0
 10
115.2494
 20
-100.4921
 30
0.0
 10
111.3809
 20
-104.0475
 30
0.0
 10
109.1547
 20
-98.6734
 30
0.0
 10
109.1972
 20
-95.2312
 30
0.0
 10
109.1972
 20
-95.2312
 30
0.0
 10
108.0658
 20
-96.2967
 30
0.0
 10
105.0661
 20
-95.9597
 30
0.0
 10
105.2698
 20
-93.9889
 30
0.0
 10
105.2698
 20
-93.9889
 30
0.0
 10
104.7762
 20
-93.8759
 30
0.0
 10
104.4424
 20
-93.6666
 30
0.0
 10
104.3624
 20
-93.1218
 30
0.0
  0
SPLINE
  5
58
330
1F
100
AcDbEntity
  8
layer 1
 62
     7
100
AcDbSpline
210
0.0
220
0.0
230
1.0
 70
    11
 71
     3
 72
    88
 73
    84
 74
     0
 42
0.0000000001
 43
0.0000000001
 12
1.0
 22
0.0
 32
0.0
 13
1.0
 23
0.0
 33
0.0
 40
0.0
 40
0.0
 40
0.0
 40
0.0
 40
0.0454545454545455
 40
0.0454545454545455
 40
0.0454545454545455
 40
0.0454545454545455
 40
0.0909090909090909
 40
0.0909090909090909
 40
0.0909090909090909
 40
0.0909090909090909
 40
0.1363636363636364
 40
0.1363636363636364
 40
0.1363636363636364
 40
0.1363636363636364
 40
0.1818181818181818
 40
0.1818181818181818
 40
0.1818181818181818
 40
0.1818181818181818
 40
0.2272727272727273
 40
0.2272727272727273
 40
0.2272727272727273
 40
0.2272727272727273
 40
0.2727272727272727
 40
0.2727272727272727
 40
0.2727272727272727
 40
0.2727272727272727
 40
0.3181818181818182
 40
0.3181818181818182
 40
0.3181818181818182
 40
0.3181818181818182
 40
0.3636363636363636
 40
0.3636363636363636
 40
0.3636363636363636
 40
0.3636363636363636
 40
0.4090909090909091
 40
0.4090909090909091
 40
0.4090909090909091
 40
0.4090909090909091
 40
0.4545454545454545
 40
0.4545454545454545
 40
0.4545454545454545
 40
0.4545454545454545
 40
0.5
 40
0.5
 40
0.5
 40
0.5
 40
0.5454545454545454
 40
0.5454545454545454
 40
0.5454545454545454
 40
0.5454545454545454
 40
0.5909090909090909
 40
0.5909090909090909
 40
0.5909090909090909
 40
0.5909090909090909
 40
0.6363636363636364
 40
0.6363636363636364
 40
0.6363636363636364
 40
0.6363636363636364
 40
0.6818181818181818
 40
0.6818181818181818
 40
0.6818181818181818
 40
0.6818181818181818
 40
0.7272727272727273
 40
0.7272727272727273
 40
0.7272727272727273
 40
0.7272727272727273
 40
0.7727272727272727
 40
0.7727272727272727
 40
0.7727272727272727
 40
0.7727272727272727
 40
0.8181818181818182
 40
0.8181818181818182
 40
0.8181818181818182
 40
0.8181818181818182
 40
0.8636363636363636
 40
0.8636363636363636
 40
0.8636363636363636
 40
0.8636363636363636
 40
0.9090909090909091
 40
0.9090909090909091
 40
0.9090909090909091
 40
0.9090909090909091
 40
1.0
 40
1.0
 40
1.0
 40
1.0
 10
138.987
 20
-104.748
 30
0.0
 10
136.2245
 20
-101.1625
 30
0.0
 10
132.1546
 20
-102.0714
 30
0.0
 10
131.3293
 20
-105.0999
 30
0.0
 10
131.3293
 20
-105.0999
 30
0.0
 10
134.6311
 20
-105.1597
 30
0.0
 10
136.3755
 20
-106.5049
 30
0.0
 10
137.0296
 20
-108.3802
 30
0.0
 10
137.0296
 20
-108.3802
 30
0.0
 10
137.0296
 20
-108.3802
 30
0.0
 10
127.7862
 20
-108.3802
 30
0.0
 10
127.7862
 20
-108.3802
 30
0.0
 10
127.7862
 20
-108.3802
 30
0.0
 10
127.6693
 20
-105.1434
 30
0.0
 10
123.0677
 20
-102.7727
 30
0.0
 10
120.8467
 20
-103.4563
 30
0.0
 10
120.8467
 20
-103.4563
 30
0.0
 10
121.6488
 20
-99.1965
 30
0.0
 10
119.3674
 20
-95.7333
 30
0.0
 10
115.54
 20
-97.274
 30
0.0
 10
115.54
 20
-97.274
 30
0.0
 10
111.7398
 20
-98.5021
 30
0.0
 10
112.0529
 20
-91.8555
 30
0.0
 10
115.8182
 20
-91.3758
 30
0.0
 10
115.8182
 20
-91.3758
 30
0.0
 10
115.7059
 20
-93.9959
 30
0.0
 10
117.4998
 20
-94.382
 30
0.0
 10
118.2198
 20
-94.0316
 30
0.0
 10
118.2198
 20
-94.0316
 30
0.0
 10
117.695
 20
-89.8539
 30
0.0
 10
121.5163
 20
-89.0542
 30
0.0
 10
123.0073
 20
-88.8001
 30
0.0
 10
123.0073
 20
-88.8001
 30
0.0
 10
120.0223
 20
-91.9921
 30
0.0
 10
122.9847
 20
-96.22
 30
0.0
 10
124.6624
 20
-95.2752
 30
0.0
 10
124.6624
 20
-95.2752
 30
0.0
 10
124.0193
 20
-89.6083
 30
0.0
 10
128.7301
 20
-88.1646
 30
0.0
 10
132.9798
 20
-90.2026
 30
0.0
 10
132.9798
 20
-90.2026
 30
0.0
 10
135.8526
 20
-91.5798
 30
0.0
 10
138.6019
 20
-95.0507
 30
0.0
 10
139.0134
 20
-97.9635
 30
0.0
 10
139.0134
 20
-97.9635
 30
0.0
 10
137.4829
 20
-96.0045
 30
0.0
 10
136.6437
 20
-95.332
 30
0.0
 10
134.7567
 20
-94.4321
 30
0.0
 10
134.7567
 20
-94.4321
 30
0.0
 10
133.1782
 20
-93.8223
 30
0.0
 10
131.6191
 20
-92.0369
 30
0.0
 10
131.3898
 20
-90.8428
 30
0.0
 10
131.3898
 20
-90.8428
 30
0.0
 10
130.3195
 20
-90.5637
 30
0.0
 10
130.2227
 20
-92.3321
 30
0.0
 10
130.38
 20
-93.5666
 30
0.0
 10
130.38
 20
-93.5666
 30
0.0
 10
127.8723
 20
-92.4739
 30
0.0
 10
122.7623
 20
-94.9174
 30
0.0
 10
124.0326
 20
-101.6808
 30
0.0
 10
124.0326
 20
-101.6808
 30
0.0
 10
125.4591
 20
-105.895
 30
0.0
 10
129.5073
 20
-105.3378
 30
0.0
 10
130.8512
 20
-103.1348
 30
0.0
 10
130.8512
 20
-103.1348
 30
0.0
 10
131.781
 20
-101.6088
 30
0.0
 10
132.105
 20
-98.6301
 30
0.0
 10
130.1443
 20
-98.0961
 30
0.0
 10
130.1443
 20
-98.0961
 30
0.0
 10
131.1757
 20
-95.9472
 30
0.0
 10
134.5537
 20
-95.6512
 30
0.0
 10
135.8246
 20
-98.2659
 30
0.0
 10
135.8246
 20
-98.2659
 30
0.0
 10
134.6204
 20
-97.7048
 30
0.0
 10
133.6711
 20
-97.8217
 30
0.0
 10
133.3115
 20
-98.1016
 30
0.0
 10
133.3115
 20
-98.1016
 30
0.0
 10
132.9915
 20
-99.6553
 30
0.0
 10
135.3263
 20
-101.4291
 30
0.0
 10
137.7751
 20
-101.1965
 30
0.0
 10
137.7751
 20
-101.1965
 30
0.0
 10
138.8848
 20
-102.0823
 30
0.0
 10
139.3072
 20
-103.9212
 30
0.0
 10
138.987
 20
-104.748
 30
0.0
  0
SPLINE
  5
59
330
1F
100
AcDbEntity
  8
layer 1
 62
     7
100
AcDbSpline
210
0.0
220
0.0
230
1.0
 70
    11
 71
     3
 72
    16
 73
    12
 74
     0
 42
0.0000000001
 43
0.0000000001
 12
1.0
 22
0.0
 32
0.0
 13
1.0
 23
0.0
 33
0.0
 40
0.0
 40
0.0
 40
0.0
 40
0.0
 40
0.25
 40
0.25
 40
0.25
 40
0.25
 40
0.5
 40
0.5
 40
0.5
 40
0.5
 40
1.0
 40
1.0
 40
1.0
 40
1.0
 10
128.8169
 20
-96.5477
 30
0.0
 10
128.5689
 20
-97.1932
 30
0.0
 10
128.6146
 20
-97.7443
 30
0.0
 10
129.3345
 20
-98.1936
 30
0.0
 10
129.3345
 20
-98.1936
 30
0.0
 10
127.9722
 20
-98.8478
 30
0.0
 10
127.7165
 20
-100.1681
 30
0.0
 10
128.0824
 20
-101.0881
 30
0.0
 10
128.0824
 20
-101.0881
 30
0.0
 10
125.1973
 20
-101.46
 30
0.0
 10
125.794
 20
-96.2573
 30
0.0
 10
128.8169
 20
-96.5477
 30
0.0
  0
SPLINE
  5
5A
330
1F
100
AcDbEntity
  8
layer 1
 62
     7
100
AcDbSpline
210
0.0
220
0.0
230
1.0
 70
    11
 71
     3
 72
    20
 73
    16
 74
     0
 42
0.0000000001
 43
0.0000000001
 12
1.0
 22
0.0
 32
0.0
 13
1.0
 23
0.0
 33
0.0
 40
0.0
 40
0.0
 40
0.0
 40
0.0
 40
0.2
 40
0.2
 40
0.2
 40
0.2
 40
0.4
 40
0.4
 40
0.4
 40
0.4
 40
0.6
 40
0.6
 40
0.6
 40
0.6
 40
1.0
 40
1.0
 40
1.0
 40
1.0
 10
155.3172
 20
-33.9234
 30
0.0
 10
154.1494
 20
-34.6666
 30
0.0
 10
153.1404
 20
-34.9324
 30
0.0
 10
152.078
 20
-35.0386
 30
0.0
 10
152.078
 20
-35.0386
 30
0.0
 10
151.1216
 20
-38.2785
 30
0.0
 10
150.6971
 20
-43.217
 30
0.0
 10
154.4679
 20
-47.0415
 30
0.0
 10
154.4679
 20
-47.0415
 30
0.0
 10
157.5482
 20
-46.5634
 30
0.0
 10
159.46
 20
-46.457
 30
0.0
 10
162.0094
 20
-46.3509
 30
0.0
 10
162.0094
 20
-46.3509
 30
0.0
 10
156.7515
 20
-43.4829
 30
0.0
 10
154.2021
 20
-37.8004
 30
0.0
 10
155.3172
 20
-33.9234
 30
0.0
  0
SPLINE
  5
5B
330
1F
100
AcDbEntity
  8
layer 1
 62
     7
100
AcDbSpline
210
0.0
220
0.0
230
1.0
 70
    11
 71
     3
 72
    28
 73
    24
 74
     0
 42
0.0000000001
 43
0.0000000001
 12
1.0
 22
0.0
 32
0.0
 13
1.0
 23
0.0
 33
0.0
 40
0.0
 40
0.0
 40
0.0
 40
0.0
 40
0.1428571428571428
 40
0.1428571428571428
 40
0.1428571428571428
 40
0.1428571428571428
 40
0.2857142857142857
 40
0.2857142857142857
 40
0.2857142857142857
 40
0.2857142857142857
 40
0.4285714285714285
 40
0.4285714285714285
 40
0.4285714285714285
 40
0.4285714285714285
 40
0.5714285714285714
 40
0.5714285714285714
 40
0.5714285714285714
 40
0.5714285714285714
 40
0.7142857142857143
 40
0.7142857142857143
 40
0.7142857142857143
 40
0.7142857142857143
 40
1.0
 40
1.0
 40
1.0
 40
1.0
 10
151.2821
 20
-48.1038
 30
0.0
 10
146.8209
 20
-44.2268
 30
0.0
 10
148.7861
 20
-36.6853
 30
0.0
 10
150.2198
 20
-34.8796
 30
0.0
 10
150.2198
 20
-34.8796
 30
0.0
 10
148.5202
 20
-34.4541
 30
0.0
 10
147.6702
 20
-33.6576
 30
0.0
 10
146.8124
 20
-32.5425
 30
0.0
 10
146.8124
 20
-32.5425
 30
0.0
 10
145.9538
 20
-33.6576
 30
0.0
 10
145.1043
 20
-34.4541
 30
0.0
 10
143.405
 20
-34.8796
 30
0.0
 10
143.405
 20
-34.8796
 30
0.0
 10
144.8387
 20
-36.6853
 30
0.0
 10
146.8039
 20
-44.2268
 30
0.0
 10
142.3425
 20
-48.1038
 30
0.0
 10
142.3425
 20
-48.1038
 30
0.0
 10
143.5639
 20
-48.0504
 30
0.0
 10
145.7413
 20
-49.6436
 30
0.0
 10
146.8124
 20
-52.2994
 30
0.0
 10
146.8124
 20
-52.2994
 30
0.0
 10
147.8832
 20
-49.6436
 30
0.0
 10
150.0601
 20
-48.0504
 30
0.0
 10
151.2821
 20
-48.1038
 30
0.0
  0
SPLINE
  5
5C
330
1F
100
AcDbEntity
  8
layer 1
 62
     7
100
AcDbSpline
210
0.0
220
0.0
230
1.0
 70
    11
 71
     3
 72
    24
 73
    20
 74
     0
 42
0.0000000001
 43
0.0000000001
 12
1.0
 22
0.0
 32
0.0
 13
1.0
 23
0.0
 33
0.0
 40
0.0
 40
0.0
 40
0.0
 40
0.0
 40
0.1666666666666667
 40
0.1666666666666667
 40
0.1666666666666667
 40
0.1666666666666667
 40
0.3333333333333333
 40
0.3333333333333333
 40
0.3333333333333333
 40
0.3333333333333333
 40
0.5
 40
0.5
 40
0.5
 40
0.5
 40
0.6666666666666666
 40
0.6666666666666666
 40
0.6666666666666666
 40
0.6666666666666666
 40
1.0
 40
1.0
 40
1.0
 40
1.0
 10
170.1882
 20
-26.1159
 30
0.0
 10
163.6026
 20
-21.1774
 30
0.0
 10
153.6713
 20
-32.9145
 30
0.0
 10
159.8846
 20
-40.721
 30
0.0
 10
159.8846
 20
-40.721
 30
0.0
 10
159.7118
 20
-36.4496
 30
0.0
 10
163.9631
 20
-35.061
 30
0.0
 10
164.7798
 20
-38.17
 30
0.0
 10
164.7798
 20
-38.17
 30
0.0
 10
162.7766
 20
-38.2513
 30
0.0
 10
162.5605
 20
-41.3092
 30
0.0
 10
163.337
 20
-42.58
 30
0.0
 10
163.337
 20
-42.58
 30
0.0
 10
164.9836
 20
-46.5106
 30
0.0
 10
170.4004
 20
-46.3509
 30
0.0
 10
167.851
 20
-40.7746
 30
0.0
 10
167.851
 20
-40.7746
 30
0.0
 10
162.5403
 20
-33.0734
 30
0.0
 10
167.6921
 20
-27.4969
 30
0.0
 10
170.1882
 20
-26.1159
 30
0.0
  0
SPLINE
  5
5D
330
1F
100
AcDbEntity
  8
layer 1
 62
     7
100
AcDbSpline
210
0.0
220
0.0
230
1.0
 70
    11
 71
     3
 72
    20
 73
    16
 74
     0
 42
0.0000000001
 43
0.0000000001
 12
1.0
 22
0.0
 32
0.0
 13
1.0
 23
0.0
 33
0.0
 40
0.0
 40
0.0
 40
0.0
 40
0.0
 40
0.2
 40
0.2
 40
0.2
 40
0.2
 40
0.4
 40
0.4
 40
0.4
 40
0.4
 40
0.6
 40
0.6
 40
0.6
 40
0.6
 40
1.0
 40
1.0
 40
1.0
 40
1.0
 10
148.2544
 20
-25.2131
 30
0.0
 10
147.6238
 20
-25.7727
 30
0.0
 10
147.0633
 20
-26.1733
 30
0.0
 10
146.8124
 20
-27.1785
 30
0.0
 10
146.8124
 20
-27.1785
 30
0.0
 10
146.5604
 20
-26.1733
 30
0.0
 10
146.001
 20
-25.7727
 30
0.0
 10
145.3693
 20
-25.2131
 30
0.0
 10
145.3693
 20
-25.2131
 30
0.0
 10
146.2149
 20
-24.856
 30
0.0
 10
146.4823
 20
-24.5521
 30
0.0
 10
146.8124
 20
-23.3548
 30
0.0
 10
146.8124
 20
-23.3548
 30
0.0
 10
147.1417
 20
-24.5521
 30
0.0
 10
147.4097
 20
-24.856
 30
0.0
 10
148.2544
 20
-25.2131
 30
0.0
  0
SPLINE
  5
5E
330
1F
100
AcDbEntity
  8
layer 1
 62
     7
100
AcDbSpline
210
0.0
220
0.0
230
1.0
 70
    11
 71
     3
 72
    84
 73
    80
 74
     0
 42
0.0000000001
 43
0.0000000001
 12
1.0
 22
0.0
 32
0.0
 13
1.0
 23
0.0
 33
0.0
 40
0.0
 40
0.0
 40
0.0
 40
0.0
 40
0.0476190476190476
 40
0.0476190476190476
 40
0.0476190476190476
 40
0.0476190476190476
 40
0.0952380952380952
 40
0.0952380952380952
 40
0.0952380952380952
 40
0.0952380952380952
 40
0.1428571428571428
 40
0.1428571428571428
 40
0.1428571428571428
 40
0.1428571428571428
 40
0.1904761904761905
 40
0.1904761904761905
 40
0.1904761904761905
 40
0.1904761904761905
 40
0.2380952380952381
 40
0.2380952380952381
 40
0.2380952380952381
 40
0.2380952380952381
 40
0.2857142857142857
 40
0.2857142857142857
 40
0.2857142857142857
 40
0.2857142857142857
 40
0.3333333333333333
 40
0.3333333333333333
 40
0.3333333333333333
 40
0.3333333333333333
 40
0.3809523809523809
 40
0.3809523809523809
 40
0.3809523809523809
 40
0.3809523809523809
 40
0.4285714285714285
 40
0.4285714285714285
 40
0.4285714285714285
 40
0.4285714285714285
 40
0.4761904761904762
 40
0.4761904761904762
 40
0.4761904761904762
 40
0.4761904761904762
 40
0.5238095238095238
 40
0.5238095238095238
 40
0.5238095238095238
 40
0.5238095238095238
 40
0.5714285714285714
 40
0.5714285714285714
 40
0.5714285714285714
 40
0.5714285714285714
 40
0.6190476190476191
 40
0.6190476190476191
 40
0.6190476190476191
 40
0.6190476190476191
 40
0.6666666666666666
 40
0.6666666666666666
 40
0.6666666666666666
 40
0.6666666666666666
 40
0.7142857142857143
 40
0.7142857142857143
 40
0.7142857142857143
 40
0.7142857142857143
 40
0.7619047619047619
 40
0.7619047619047619
 40
0.7619047619047619
 40
0.7619047619047619
 40
0.8095238095238095
 40
0.8095238095238095
 40
0.8095238095238095
 40
0.8095238095238095
 40
0.8571428571428571
 40
0.8571428571428571
 40
0.8571428571428571
 40
0.8571428571428571
 40
0.9047619047619048
 40
0.9047619047619048
 40
0.9047619047619048
 40
0.9047619047619048
 40
1.0
 40
1.0
 40
1.0
 40
1.0
 10
149.0402
 20
-8.5266
 30
0.0
 10
148.1747
 20
-9.4828
 30
0.0
 10
148.5165
 20
-12.3246
 30
0.0
 10
151.2179
 20
-12.4771
 30
0.0
 10
151.2179
 20
-12.4771
 30
0.0
 10
149.6959
 20
-13.8613
 30
0.0
 10
151.9378
 20
-14.833
 30
0.0
 10
154.6616
 20
-14.6044
 30
0.0
 10
154.6616
 20
-14.6044
 30
0.0
 10
152.6119
 20
-18.1001
 30
0.0
 10
157.6567
 20
-23.1464
 30
0.0
 10
161.4212
 20
-19.368
 30
0.0
 10
161.4212
 20
-19.368
 30
0.0
 10
161.5879
 20
-19.1656
 30
0.0
 10
162.4187
 20
-18.1908
 30
0.0
 10
163.2703
 20
-19.4779
 30
0.0
 10
163.2703
 20
-19.4779
 30
0.0
 10
163.8018
 20
-20.562
 30
0.0
 10
163.7306
 20
-21.6168
 30
0.0
 10
163.3237
 20
-22.549
 30
0.0
 10
163.3237
 20
-22.549
 30
0.0
 10
161.4361
 20
-23.454
 30
0.0
 10
159.8606
 20
-24.587
 30
0.0
 10
158.8337
 20
-25.9423
 30
0.0
 10
158.8337
 20
-25.9423
 30
0.0
 10
158.0503
 20
-21.9181
 30
0.0
 10
154.9234
 20
-22.3669
 30
0.0
 10
149.9447
 20
-22.9604
 30
0.0
 10
149.9447
 20
-22.9604
 30
0.0
 10
148.3072
 20
-22.8597
 30
0.0
 10
148.8783
 20
-20.1637
 30
0.0
 10
150.6358
 20
-19.8973
 30
0.0
 10
150.6358
 20
-19.8973
 30
0.0
 10
150.4816
 20
-18.4968
 30
0.0
 10
148.2195
 20
-17.9281
 30
0.0
 10
146.8124
 20
-19.9095
 30
0.0
 10
146.8124
 20
-19.9095
 30
0.0
 10
145.4043
 20
-17.9281
 30
0.0
 10
143.1431
 20
-18.4968
 30
0.0
 10
142.988
 20
-19.8973
 30
0.0
 10
142.988
 20
-19.8973
 30
0.0
 10
144.7464
 20
-20.1637
 30
0.0
 10
145.3176
 20
-22.8597
 30
0.0
 10
143.6793
 20
-22.9604
 30
0.0
 10
143.6793
 20
-22.9604
 30
0.0
 10
138.7011
 20
-22.3669
 30
0.0
 10
135.5742
 20
-21.9181
 30
0.0
 10
134.7908
 20
-25.9423
 30
0.0
 10
134.7908
 20
-25.9423
 30
0.0
 10
133.7632
 20
-24.587
 30
0.0
 10
132.1878
 20
-23.454
 30
0.0
 10
130.3008
 20
-22.549
 30
0.0
 10
130.3008
 20
-22.549
 30
0.0
 10
129.894
 20
-21.6168
 30
0.0
 10
129.8227
 20
-20.562
 30
0.0
 10
130.3544
 20
-19.4779
 30
0.0
 10
130.3544
 20
-19.4779
 30
0.0
 10
131.2061
 20
-18.1908
 30
0.0
 10
132.0367
 20
-19.1656
 30
0.0
 10
132.2025
 20
-19.368
 30
0.0
 10
132.2025
 20
-19.368
 30
0.0
 10
135.9672
 20
-23.1464
 30
0.0
 10
141.0127
 20
-18.1001
 30
0.0
 10
138.963
 20
-14.6044
 30
0.0
 10
138.963
 20
-14.6044
 30
0.0
 10
141.6862
 20
-14.833
 30
0.0
 10
143.9289
 20
-13.8613
 30
0.0
 10
142.4069
 20
-12.4771
 30
0.0
 10
142.4069
 20
-12.4771
 30
0.0
 10
145.1083
 20
-12.3246
 30
0.0
 10
145.4501
 20
-9.4828
 30
0.0
 10
144.5836
 20
-8.5266
 30
0.0
 10
144.5836
 20
-8.5266
 30
0.0
 10
145.9746
 20
-9.0281
 30
0.0
 10
146.8039
 20
-7.7541
 30
0.0
 10
146.8124
 20
-6.5822
 30
0.0
 10
146.8124
 20
-6.5822
 30
0.0
 10
146.8209
 20
-7.7541
 30
0.0
 10
147.65
 20
-9.0281
 30
0.0
 10
149.0402
 20
-8.5266
 30
0.0
  0
SPLINE
  5
5F
330
1F
100
AcDbEntity
  8
layer 1
 62
     7
100
AcDbSpline
210
0.0
220
0.0
230
1.0
 70
    11
 71
     3
 72
    16
 73
    12
 74
     0
 42
0.0000000001
 43
0.0000000001
 12
1.0
 22
0.0
 32
0.0
 13
1.0
 23
0.0
 33
0.0
 40
0.0
 40
0.0
 40
0.0
 40
0.0
 40
0.25
 40
0.25
 40
0.25
 40
0.25
 40
0.5
 40
0.5
 40
0.5
 40
0.5
 40
1.0
 40
1.0
 40
1.0
 40
1.0
 10
185.6254
 20
-23.8423
 30
0.0
 10
185.5976
 20
-19.8514
 30
0.0
 10
188.2332
 20
-18.1814
 30
0.0
 10
189.2621
 20
-18.8177
 30
0.0
 10
189.2621
 20
-18.8177
 30
0.0
 10
189.2621
 20
-18.8177
 30
0.0
 10
189.2621
 20
-30.864
 30
0.0
 10
189.2621
 20
-30.864
 30
0.0
 10
189.2621
 20
-30.864
 30
0.0
 10
186.8645
 20
-30.3385
 30
0.0
 10
185.679
 20
-26.9289
 30
0.0
 10
185.6254
 20
-23.8423
 30
0.0
  0
SPLINE
  5
60
330
1F
100
AcDbEntity
  8
layer 1
 62
     7
100
AcDbSpline
210
0.0
220
0.0
230
1.0
 70
    11
 71
     3
 72
    24
 73
    20
 74
     0
 42
0.0000000001
 43
0.0000000001
 12
1.0
 22
0.0
 32
0.0
 13
1.0
 23
0.0
 33
0.0
 40
0.0
 40
0.0
 40
0.0
 40
0.0
 40
0.1666666666666667
 40
0.1666666666666667
 40
0.1666666666666667
 40
0.1666666666666667
 40
0.3333333333333333
 40
0.3333333333333333
 40
0.3333333333333333
 40
0.3333333333333333
 40
0.5
 40
0.5
 40
0.5
 40
0.5
 40
0.6666666666666666
 40
0.6666666666666666
 40
0.6666666666666666
 40
0.6666666666666666
 40
1.0
 40
1.0
 40
1.0
 40
1.0
 10
182.2569
 20
-32.5951
 30
0.0
 10
186.2888
 20
-30.812
 30
0.0
 10
188.1766
 20
-33.5126
 30
0.0
 10
189.2621
 20
-35.4314
 30
0.0
 10
189.2621
 20
-35.4314
 30
0.0
 10
189.2621
 20
-35.4314
 30
0.0
 10
189.2621
 20
-44.4895
 30
0.0
 10
189.2621
 20
-44.4895
 30
0.0
 10
189.2621
 20
-44.4895
 30
0.0
 10
187.5815
 20
-40.8202
 30
0.0
 10
182.6396
 20
-39.7299
 30
0.0
 10
179.7515
 20
-44.4137
 30
0.0
 10
179.7515
 20
-44.4137
 30
0.0
 10
178.9007
 20
-44.302
 30
0.0
 10
177.5654
 20
-43.8781
 30
0.0
 10
176.7215
 20
-43.4101
 30
0.0
 10
176.7215
 20
-43.4101
 30
0.0
 10
183.4323
 20
-42.5313
 30
0.0
 10
184.5298
 20
-34.6751
 30
0.0
 10
182.2569
 20
-32.5951
 30
0.0
  0
SPLINE
  5
61
330
1F
100
AcDbEntity
  8
layer 1
 62
     7
100
AcDbSpline
210
0.0
220
0.0
230
1.0
 70
    11
 71
     3
 72
    20
 73
    16
 74
     0
 42
0.0000000001
 43
0.0000000001
 12
1.0
 22
0.0
 32
0.0
 13
1.0
 23
0.0
 33
0.0
 40
0.0
 40
0.0
 40
0.0
 40
0.0
 40
0.2
 40
0.2
 40
0.2
 40
0.2
 40
0.4
 40
0.4
 40
0.4
 40
0.4
 40
0.6
 40
0.6
 40
0.6
 40
0.6
 40
1.0
 40
1.0
 40
1.0
 40
1.0
 10
178.7124
 20
-46.5423
 30
0.0
 10
175.701
 20
-46.4067
 30
0.0
 10
172.9615
 20
-44.8011
 30
0.0
 10
171.7581
 20
-43.6874
 30
0.0
 10
171.7581
 20
-43.6874
 30
0.0
 10
171.5675
 20
-44.8003
 30
0.0
 10
171.0296
 20
-45.8264
 30
0.0
 10
170.1492
 20
-46.4741
 30
0.0
 10
170.1492
 20
-46.4741
 30
0.0
 10
174.1659
 20
-47.0452
 30
0.0
 10
176.5596
 20
-49.2647
 30
0.0
 10
177.5778
 20
-50.4628
 30
0.0
 10
177.5778
 20
-50.4628
 30
0.0
 10
177.6227
 20
-49.1826
 30
0.0
 10
178.1923
 20
-47.2436
 30
0.0
 10
178.7124
 20
-46.5423
 30
0.0
  0
SPLINE
  5
62
330
1F
100
AcDbEntity
  8
layer 1
 62
     7
100
AcDbSpline
210
0.0
220
0.0
230
1.0
 70
    11
 71
     3
 72
    44
 73
    40
 74
     0
 42
0.0000000001
 43
0.0000000001
 12
1.0
 22
0.0
 32
0.0
 13
1.0
 23
0.0
 33
0.0
 40
0.0
 40
0.0
 40
0.0
 40
0.0
 40
0.0909090909090909
 40
0.0909090909090909
 40
0.0909090909090909
 40
0.0909090909090909
 40
0.1818181818181818
 40
0.1818181818181818
 40
0.1818181818181818
 40
0.1818181818181818
 40
0.2727272727272727
 40
0.2727272727272727
 40
0.2727272727272727
 40
0.2727272727272727
 40
0.3636363636363636
 40
0.3636363636363636
 40
0.3636363636363636
 40
0.3636363636363636
 40
0.4545454545454545
 40
0.4545454545454545
 40
0.4545454545454545
 40
0.4545454545454545
 40
0.5454545454545454
 40
0.5454545454545454
 40
0.5454545454545454
 40
0.5454545454545454
 40
0.6363636363636364
 40
0.6363636363636364
 40
0.6363636363636364
 40
0.6363636363636364
 40
0.7272727272727273
 40
0.7272727272727273
 40
0.7272727272727273
 40
0.7272727272727273
 40
0.8181818181818182
 40
0.8181818181818182
 40
0.8181818181818182
 40
0.8181818181818182
 40
1.0
 40
1.0
 40
1.0
 40
1.0
 10
183.1929
 20
-29.0738
 30
0.0
 10
179.1324
 20
-26.6988
 30
0.0
 10
174.5216
 20
-27.1908
 30
0.0
 10
171.7859
 20
-29.0839
 30
0.0
 10
171.7859
 20
-29.0839
 30
0.0
 10
170.1634
 20
-30.0123
 30
0.0
 10
168.2236
 20
-32.6687
 30
0.0
 10
168.58
 20
-36.2745
 30
0.0
 10
168.58
 20
-36.2745
 30
0.0
 10
168.835
 20
-37.7732
 30
0.0
 10
171.3411
 20
-39.6059
 30
0.0
 10
172.6748
 20
-37.0131
 30
0.0
 10
172.6748
 20
-37.0131
 30
0.0
 10
173.4932
 20
-36.0451
 30
0.0
 10
173.9497
 20
-36.256
 30
0.0
 10
174.3395
 20
-37.1378
 30
0.0
 10
174.3395
 20
-37.1378
 30
0.0
 10
174.895
 20
-38.6233
 30
0.0
 10
174.2929
 20
-40.7226
 30
0.0
 10
174.2673
 20
-40.3794
 30
0.0
 10
174.2673
 20
-40.3794
 30
0.0
 10
176.2326
 20
-40.8791
 30
0.0
 10
178.8279
 20
-40.0616
 30
0.0
 10
179.7879
 20
-38.5969
 30
0.0
 10
179.7879
 20
-38.5969
 30
0.0
 10
181.0395
 20
-36.6883
 30
0.0
 10
180.1661
 20
-33.959
 30
0.0
 10
178.1637
 20
-34.4535
 30
0.0
 10
178.1637
 20
-34.4535
 30
0.0
 10
178.0691
 20
-39.275
 30
0.0
 10
173.5396
 20
-37.2378
 30
0.0
 10
174.1481
 20
-33.628
 30
0.0
 10
174.1481
 20
-33.628
 30
0.0
 10
174.9594
 20
-29.8038
 30
0.0
 10
178.8279
 20
-29.6412
 30
0.0
 10
180.4699
 20
-31.3212
 30
0.0
 10
180.4699
 20
-31.3212
 30
0.0
 10
180.5714
 20
-30.3819
 30
0.0
 10
182.1345
 20
-29.2366
 30
0.0
 10
183.1929
 20
-29.0738
 30
0.0
  0
SPLINE
  5
63
330
1F
100
AcDbEntity
  8
layer 1
 62
     7
100
AcDbSpline
210
0.0
220
0.0
230
1.0
 70
    11
 71
     3
 72
    28
 73
    24
 74
     0
 42
0.0000000001
 43
0.0000000001
 12
1.0
 22
0.0
 32
0.0
 13
1.0
 23
0.0
 33
0.0
 40
0.0
 40
0.0
 40
0.0
 40
0.0
 40
0.1428571428571428
 40
0.1428571428571428
 40
0.1428571428571428
 40
0.1428571428571428
 40
0.2857142857142857
 40
0.2857142857142857
 40
0.2857142857142857
 40
0.2857142857142857
 40
0.4285714285714285
 40
0.4285714285714285
 40
0.4285714285714285
 40
0.4285714285714285
 40
0.5714285714285714
 40
0.5714285714285714
 40
0.5714285714285714
 40
0.5714285714285714
 40
0.7142857142857143
 40
0.7142857142857143
 40
0.7142857142857143
 40
0.7142857142857143
 40
1.0
 40
1.0
 40
1.0
 40
1.0
 10
186.3973
 20
-49.5746
 30
0.0
 10
187.4637
 20
-50.5231
 30
0.0
 10
188.8227
 20
-50.4332
 30
0.0
 10
189.2621
 20
-48.8578
 30
0.0
 10
189.2621
 20
-48.8578
 30
0.0
 10
189.2621
 20
-48.8578
 30
0.0
 10
189.2621
 20
-62.7027
 30
0.0
 10
189.2621
 20
-62.7027
 30
0.0
 10
189.2621
 20
-62.7027
 30
0.0
 10
188.9227
 20
-58.8134
 30
0.0
 10
184.7226
 20
-56.8947
 30
0.0
 10
187.3504
 20
-53.199
 30
0.0
 10
187.3504
 20
-53.199
 30
0.0
 10
185.5153
 20
-51.5616
 30
0.0
 10
183.7741
 20
-52.6061
 30
0.0
 10
183.8043
 20
-55.1967
 30
0.0
 10
183.8043
 20
-55.1967
 30
0.0
 10
179.4585
 20
-53.1758
 30
0.0
 10
179.9731
 20
-49.4049
 30
0.0
 10
181.3324
 20
-47.439
 30
0.0
 10
181.3324
 20
-47.439
 30
0.0
 10
184.959
 20
-42.801
 30
0.0
 10
187.8479
 20
-46.9553
 30
0.0
 10
186.3973
 20
-49.5746
 30
0.0
  0
SPLINE
  5
64
330
1F
100
AcDbEntity
  8
layer 1
 62
     7
100
AcDbSpline
210
0.0
220
0.0
230
1.0
 70
    11
 71
     3
 72
    16
 73
    12
 74
     0
 42
0.0000000001
 43
0.0000000001
 12
1.0
 22
0.0
 32
0.0
 13
1.0
 23
0.0
 33
0.0
 40
0.0
 40
0.0
 40
0.0
 40
0.0
 40
0.25
 40
0.25
 40
0.25
 40
0.25
 40
0.5
 40
0.5
 40
0.5
 40
0.5
 40
1.0
 40
1.0
 40
1.0
 40
1.0
 10
189.2621
 20
-70.4714
 30
0.0
 10
189.2621
 20
-70.4714
 30
0.0
 10
189.2621
 20
-83.0833
 30
0.0
 10
189.2621
 20
-83.0833
 30
0.0
 10
189.2621
 20
-83.0833
 30
0.0
 10
188.5121
 20
-80.7214
 30
0.0
 10
186.8368
 20
-79.6831
 30
0.0
 10
184.5901
 20
-79.6295
 30
0.0
 10
184.5901
 20
-79.6295
 30
0.0
 10
186.5422
 20
-78.2229
 30
0.0
 10
188.6268
 20
-74.7917
 30
0.0
 10
189.2621
 20
-70.4714
 30
0.0
  0
SPLINE
  5
65
330
1F
100
AcDbEntity
  8
layer 1
 62
     7
100
AcDbSpline
210
0.0
220
0.0
230
1.0
 70
    11
 71
     3
 72
    24
 73
    20
 74
     0
 42
0.0000000001
 43
0.0000000001
 12
1.0
 22
0.0
 32
0.0
 13
1.0
 23
0.0
 33
0.0
 40
0.0
 40
0.0
 40
0.0
 40
0.0
 40
0.1666666666666667
 40
0.1666666666666667
 40
0.1666666666666667
 40
0.1666666666666667
 40
0.3333333333333333
 40
0.3333333333333333
 40
0.3333333333333333
 40
0.3333333333333333
 40
0.5
 40
0.5
 40
0.5
 40
0.5
 40
0.6666666666666666
 40
0.6666666666666666
 40
0.6666666666666666
 40
0.6666666666666666
 40
1.0
 40
1.0
 40
1.0
 40
1.0
 10
154.8855
 20
2.2301
 30
0.0
 10
153.3078
 20
3.8654
 30
0.0
 10
152.35
 20
5.0402
 30
0.0
 10
152.7026
 20
7.5261
 30
0.0
 10
152.7026
 20
7.5261
 30
0.0
 10
148.5008
 20
6.094
 30
0.0
 10
145.1462
 20
6.2249
 30
0.0
 10
140.922
 20
7.5261
 30
0.0
 10
140.922
 20
7.5261
 30
0.0
 10
141.2747
 20
5.0402
 30
0.0
 10
140.317
 20
3.8654
 30
0.0
 10
138.7384
 20
2.2301
 30
0.0
 10
138.7384
 20
2.2301
 30
0.0
 10
142.3224
 20
2.2837
 30
0.0
 10
145.5811
 20
2.2519
 30
0.0
 10
146.8124
 20
-1.6848
 30
0.0
 10
146.8124
 20
-1.6848
 30
0.0
 10
148.0429
 20
2.2519
 30
0.0
 10
151.3016
 20
2.2837
 30
0.0
 10
154.8855
 20
2.2301
 30
0.0
  0
SPLINE
  5
66
330
1F
100
AcDbEntity
  8
layer 1
 62
     7
100
AcDbSpline
210
0.0
220
0.0
230
1.0
 70
    11
 71
     3
 72
    20
 73
    16
 74
     0
 42
0.0000000001
 43
0.0000000001
 12
1.0
 22
0.0
 32
0.0
 13
1.0
 23
0.0
 33
0.0
 40
0.0
 40
0.0
 40
0.0
 40
0.0
 40
0.2
 40
0.2
 40
0.2
 40
0.2
 40
0.4
 40
0.4
 40
0.4
 40
0.4
 40
0.6
 40
0.6
 40
0.6
 40
0.6
 40
1.0
 40
1.0
 40
1.0
 40
1.0
 10
160.3341
 20
1.5373
 30
0.0
 10
156.8237
 20
2.9988
 30
0.0
 10
155.8705
 20
6.951
 30
0.0
 10
156.0185
 20
8.6535
 30
0.0
 10
156.0185
 20
8.6535
 30
0.0
 10
155.8705
 20
10.3568
 30
0.0
 10
156.8237
 20
14.3082
 30
0.0
 10
160.3341
 20
15.7705
 30
0.0
 10
160.3341
 20
15.7705
 30
0.0
 10
159.1454
 20
11.999
 30
0.0
 10
160.644
 20
9.6665
 30
0.0
 10
162.3203
 20
8.6535
 30
0.0
 10
162.3203
 20
8.6535
 30
0.0
 10
160.644
 20
7.6416
 30
0.0
 10
159.1454
 20
5.3082
 30
0.0
 10
160.3341
 20
1.5373
 30
0.0
  0
SPLINE
  5
67
330
1F
100
AcDbEntity
  8
layer 1
 62
     7
100
AcDbSpline
210
0.0
220
0.0
230
1.0
 70
    11
 71
     3
 72
    20
 73
    16
 74
     0
 42
0.0000000001
 43
0.0000000001
 12
1.0
 22
0.0
 32
0.0
 13
1.0
 23
0.0
 33
0.0
 40
0.0
 40
0.0
 40
0.0
 40
0.0
 40
0.2
 40
0.2
 40
0.2
 40
0.2
 40
0.4
 40
0.4
 40
0.4
 40
0.4
 40
0.6
 40
0.6
 40
0.6
 40
0.6
 40
1.0
 40
1.0
 40
1.0
 40
1.0
 10
186.8461
 20
-15.4684
 30
0.0
 10
187.0072
 20
-13.6536
 30
0.0
 10
186.2369
 20
-10.2749
 30
0.0
 10
184.8506
 20
-8.6916
 30
0.0
 10
184.8506
 20
-8.6916
 30
0.0
 10
184.3058
 20
-6.043
 30
0.0
 10
184.8273
 20
-3.2012
 30
0.0
 10
189.2621
 20
-0.4294
 30
0.0
 10
189.2621
 20
-0.4294
 30
0.0
 10
189.2621
 20
-0.4294
 30
0.0
 10
189.2621
 20
-13.9954
 30
0.0
 10
189.2621
 20
-13.9954
 30
0.0
 10
189.2621
 20
-13.9954
 30
0.0
 10
188.3593
 20
-14.217
 30
0.0
 10
187.6721
 20
-14.5447
 30
0.0
 10
186.8461
 20
-15.4684
 30
0.0
  0
SPLINE
  5
68
330
1F
100
AcDbEntity
  8
layer 1
 62
     7
100
AcDbSpline
210
0.0
220
0.0
230
1.0
 70
    11
 71
     3
 72
    28
 73
    24
 74
     0
 42
0.0000000001
 43
0.0000000001
 12
1.0
 22
0.0
 32
0.0
 13
1.0
 23
0.0
 33
0.0
 40
0.0
 40
0.0
 40
0.0
 40
0.0
 40
0.1428571428571428
 40
0.1428571428571428
 40
0.1428571428571428
 40
0.1428571428571428
 40
0.2857142857142857
 40
0.2857142857142857
 40
0.2857142857142857
 40
0.2857142857142857
 40
0.4285714285714285
 40
0.4285714285714285
 40
0.4285714285714285
 40
0.4285714285714285
 40
0.5714285714285714
 40
0.5714285714285714
 40
0.5714285714285714
 40
0.5714285714285714
 40
0.7142857142857143
 40
0.7142857142857143
 40
0.7142857142857143
 40
0.7142857142857143
 40
1.0
 40
1.0
 40
1.0
 40
1.0
 10
153.0327
 20
-25.6735
 30
0.0
 10
151.5061
 20
-25.8479
 30
0.0
 10
148.6008
 20
-27.5883
 30
0.0
 10
149.5401
 20
-30.4339
 30
0.0
 10
149.5401
 20
-30.4339
 30
0.0
 10
150.8598
 20
-33.9056
 30
0.0
 10
154.7964
 20
-31.4909
 30
0.0
 10
152.7522
 20
-29.8999
 30
0.0
 10
152.7522
 20
-29.8999
 30
0.0
 10
152.8018
 20
-28.22
 30
0.0
 10
154.4523
 20
-27.9371
 30
0.0
 10
155.3529
 20
-28.7663
 30
0.0
 10
155.3529
 20
-28.7663
 30
0.0
 10
155.8209
 20
-29.1956
 30
0.0
 10
155.8247
 20
-30.0782
 30
0.0
 10
155.8534
 20
-30.8941
 30
0.0
 10
155.8534
 20
-30.8941
 30
0.0
 10
155.7953
 20
-31.2824
 30
0.0
 10
156.3803
 20
-31.4762
 30
0.0
 10
156.6067
 20
-30.7261
 30
0.0
 10
156.6067
 20
-30.7261
 30
0.0
 10
158.1543
 20
-25.4357
 30
0.0
 10
155.0149
 20
-25.3781
 30
0.0
 10
153.0327
 20
-25.6735
 30
0.0
  0
SPLINE
  5
69
330
1F
100
AcDbEntity
  8
layer 1
 62
     7
100
AcDbSpline
210
0.0
220
0.0
230
1.0
 70
    11
 71
     3
 72
    20
 73
    16
 74
     0
 42
0.0000000001
 43
0.0000000001
 12
1.0
 22
0.0
 32
0.0
 13
1.0
 23
0.0
 33
0.0
 40
0.0
 40
0.0
 40
0.0
 40
0.0
 40
0.2
 40
0.2
 40
0.2
 40
0.2
 40
0.4
 40
0.4
 40
0.4
 40
0.4
 40
0.6
 40
0.6
 40
0.6
 40
0.6
 40
1.0
 40
1.0
 40
1.0
 40
1.0
 10
151.3635
 20
-97.153
 30
0.0
 10
156.0177
 20
-82.0666
 30
0.0
 10
148.6242
 20
-82.9579
 30
0.0
 10
146.8124
 20
-75.1613
 30
0.0
 10
146.8124
 20
-75.1613
 30
0.0
 10
144.9998
 20
-82.9579
 30
0.0
 10
137.6061
 20
-82.0666
 30
0.0
 10
142.2611
 20
-97.153
 30
0.0
 10
142.2611
 20
-97.153
 30
0.0
 10
142.7013
 20
-94.5561
 30
0.0
 10
145.6042
 20
-93.9524
 30
0.0
 10
146.8124
 20
-95.7224
 30
0.0
 10
146.8124
 20
-95.7224
 30
0.0
 10
148.0205
 20
-93.9524
 30
0.0
 10
150.9233
 20
-94.5561
 30
0.0
 10
151.3635
 20
-97.153
 30
0.0
  0
SPLINE
  5
6A
330
1F
100
AcDbEntity
  8
layer 1
 62
     7
100
AcDbSpline
210
0.0
220
0.0
230
1.0
 70
    11
 71
     3
 72
    56
 73
    52
 74
     0
 42
0.0000000001
 43
0.0000000001
 12
1.0
 22
0.0
 32
0.0
 13
1.0
 23
0.0
 33
0.0
 40
0.0
 40
0.0
 40
0.0
 40
0.0
 40
0.0714285714285714
 40
0.0714285714285714
 40
0.0714285714285714
 40
0.0714285714285714
 40
0.1428571428571428
 40
0.1428571428571428
 40
0.1428571428571428
 40
0.1428571428571428
 40
0.2142857142857143
 40
0.2142857142857143
 40
0.2142857142857143
 40
0.2142857142857143
 40
0.2857142857142857
 40
0.2857142857142857
 40
0.2857142857142857
 40
0.2857142857142857
 40
0.3571428571428572
 40
0.3571428571428572
 40
0.3571428571428572
 40
0.3571428571428572
 40
0.4285714285714285
 40
0.4285714285714285
 40
0.4285714285714285
 40
0.4285714285714285
 40
0.5
 40
0.5
 40
0.5
 40
0.5
 40
0.5714285714285714
 40
0.5714285714285714
 40
0.5714285714285714
 40
0.5714285714285714
 40
0.6428571428571429
 40
0.6428571428571429
 40
0.6428571428571429
 40
0.6428571428571429
 40
0.7142857142857143
 40
0.7142857142857143
 40
0.7142857142857143
 40
0.7142857142857143
 40
0.7857142857142857
 40
0.7857142857142857
 40
0.7857142857142857
 40
0.7857142857142857
 40
0.8571428571428571
 40
0.8571428571428571
 40
0.8571428571428571
 40
0.8571428571428571
 40
1.0
 40
1.0
 40
1.0
 40
1.0
 10
164.6218
 20
-49.7714
 30
0.0
 10
163.3818
 20
-50.1449
 30
0.0
 10
162.252
 20
-51.5352
 30
0.0
 10
163.5191
 20
-52.834
 30
0.0
 10
163.5191
 20
-52.834
 30
0.0
 10
162.824
 20
-54.2606
 30
0.0
 10
161.2879
 20
-54.0414
 30
0.0
 10
160.7495
 20
-53.0921
 30
0.0
 10
160.7495
 20
-53.0921
 30
0.0
 10
160.1008
 20
-51.949
 30
0.0
 10
160.5069
 20
-50.527
 30
0.0
 10
160.8154
 20
-49.7529
 30
0.0
 10
160.8154
 20
-49.7529
 30
0.0
 10
158.2263
 20
-49.4258
 30
0.0
 10
152.2004
 20
-50.4643
 30
0.0
 10
149.9377
 20
-53.8219
 30
0.0
 10
149.9377
 20
-53.8219
 30
0.0
 10
148.1413
 20
-56.7382
 30
0.0
 10
152.677
 20
-63.2242
 30
0.0
 10
158.0116
 20
-56.3707
 30
0.0
 10
158.0116
 20
-56.3707
 30
0.0
 10
159.4088
 20
-56.0817
 30
0.0
 10
160.9338
 20
-60.3346
 30
0.0
 10
157.9744
 20
-61.634
 30
0.0
 10
157.9744
 20
-61.634
 30
0.0
 10
159.1361
 20
-62.8235
 30
0.0
 10
159.2361
 20
-64.4044
 30
0.0
 10
158.0728
 20
-65.3777
 30
0.0
 10
158.0728
 20
-65.3777
 30
0.0
 10
159.0462
 20
-65.1206
 30
0.0
 10
160.5767
 20
-65.2174
 30
0.0
 10
161.5716
 20
-65.5723
 30
0.0
 10
161.5716
 20
-65.5723
 30
0.0
 10
164.7681
 20
-64.9446
 30
0.0
 10
161.302
 20
-60.3229
 30
0.0
 10
164.1382
 20
-59.1116
 30
0.0
 10
164.1382
 20
-59.1116
 30
0.0
 10
161.8172
 20
-58.959
 30
0.0
 10
160.2264
 20
-55.244
 30
0.0
 10
162.5326
 20
-54.5341
 30
0.0
 10
162.5326
 20
-54.5341
 30
0.0
 10
162.6582
 20
-55.654
 30
0.0
 10
164.7705
 20
-56.6777
 30
0.0
 10
166.229
 20
-55.4393
 30
0.0
 10
166.229
 20
-55.4393
 30
0.0
 10
170.9676
 20
-52.2645
 30
0.0
 10
174.6741
 20
-53.4718
 30
0.0
 10
178.1141
 20
-54.1312
 30
0.0
 10
178.1141
 20
-54.1312
 30
0.0
 10
175.3895
 20
-50.8966
 30
0.0
 10
170.3066
 20
-48.4147
 30
0.0
 10
164.6218
 20
-49.7714
 30
0.0
  0
SPLINE
  5
6B
330
1F
100
AcDbEntity
  8
layer 1
 62
     7
100
AcDbSpline
210
0.0
220
0.0
230
1.0
 70
    11
 71
     3
 72
    36
 73
    32
 74
     0
 42
0.0000000001
 43
0.0000000001
 12
1.0
 22
0.0
 32
0.0
 13
1.0
 23
0.0
 33
0.0
 40
0.0
 40
0.0
 40
0.0
 40
0.0
 40
0.1111111111111111
 40
0.1111111111111111
 40
0.1111111111111111
 40
0.1111111111111111
 40
0.2222222222222222
 40
0.2222222222222222
 40
0.2222222222222222
 40
0.2222222222222222
 40
0.3333333333333333
 40
0.3333333333333333
 40
0.3333333333333333
 40
0.3333333333333333
 40
0.4444444444444444
 40
0.4444444444444444
 40
0.4444444444444444
 40
0.4444444444444444
 40
0.5555555555555556
 40
0.5555555555555556
 40
0.5555555555555556
 40
0.5555555555555556
 40
0.6666666666666666
 40
0.6666666666666666
 40
0.6666666666666666
 40
0.6666666666666666
 40
0.7777777777777778
 40
0.7777777777777778
 40
0.7777777777777778
 40
0.7777777777777778
 40
1.0
 40
1.0
 40
1.0
 40
1.0
 10
163.4285
 20
-80.4595
 30
0.0
 10
164.8721
 20
-75.1968
 30
0.0
 10
162.8488
 20
-71.1742
 30
0.0
 10
161.1183
 20
-69.7887
 30
0.0
 10
161.1183
 20
-69.7887
 30
0.0
 10
158.678
 20
-67.7708
 30
0.0
 10
155.7108
 20
-70.2359
 30
0.0
 10
155.4404
 20
-72.552
 30
0.0
 10
155.4404
 20
-72.552
 30
0.0
 10
152.3569
 20
-69.0021
 30
0.0
 10
155.0637
 20
-66.2736
 30
0.0
 10
157.1166
 20
-65.7683
 30
0.0
 10
157.1166
 20
-65.7683
 30
0.0
 10
154.5275
 20
-65.4406
 30
0.0
 10
152.7073
 20
-61.738
 30
0.0
 10
150.4444
 20
-65.095
 30
0.0
 10
150.4444
 20
-65.095
 30
0.0
 10
148.7551
 20
-66.3805
 30
0.0
 10
148.0646
 20
-71.764
 30
0.0
 10
150.2004
 20
-74.9334
 30
0.0
 10
150.2004
 20
-74.9334
 30
0.0
 10
153.0545
 20
-78.9607
 30
0.0
 10
156.2859
 20
-82.2666
 30
0.0
 10
155.5969
 20
-88.5428
 30
0.0
 10
155.5969
 20
-88.5428
 30
0.0
 10
160.3357
 20
-85.3687
 30
0.0
 10
162.7891
 20
-82.3705
 30
0.0
 10
159.0268
 20
-76.4988
 30
0.0
 10
159.0268
 20
-76.4988
 30
0.0
 10
160.1496
 20
-75.5906
 30
0.0
 10
162.4033
 20
-74.2268
 30
0.0
 10
163.4285
 20
-80.4595
 30
0.0
  0
SPLINE
  5
6C
330
1F
100
AcDbEntity
  8
layer 1
 62
     7
100
AcDbSpline
210
0.0
220
0.0
230
1.0
 70
    11
 71
     3
 72
    36
 73
    32
 74
     0
 42
0.0000000001
 43
0.0000000001
 12
1.0
 22
0.0
 32
0.0
 13
1.0
 23
0.0
 33
0.0
 40
0.0
 40
0.0
 40
0.0
 40
0.0
 40
0.1111111111111111
 40
0.1111111111111111
 40
0.1111111111111111
 40
0.1111111111111111
 40
0.2222222222222222
 40
0.2222222222222222
 40
0.2222222222222222
 40
0.2222222222222222
 40
0.3333333333333333
 40
0.3333333333333333
 40
0.3333333333333333
 40
0.3333333333333333
 40
0.4444444444444444
 40
0.4444444444444444
 40
0.4444444444444444
 40
0.4444444444444444
 40
0.5555555555555556
 40
0.5555555555555556
 40
0.5555555555555556
 40
0.5555555555555556
 40
0.6666666666666666
 40
0.6666666666666666
 40
0.6666666666666666
 40
0.6666666666666666
 40
0.7777777777777778
 40
0.7777777777777778
 40
0.7777777777777778
 40
0.7777777777777778
 40
1.0
 40
1.0
 40
1.0
 40
1.0
 10
176.4015
 20
-87.9305
 30
0.0
 10
180.8875
 20
-91.5254
 30
0.0
 10
182.979
 20
-90.6785
 30
0.0
 10
183.2619
 20
-86.8773
 30
0.0
 10
183.2619
 20
-86.8773
 30
0.0
 10
185.3852
 20
-87.32
 30
0.0
 10
185.6836
 20
-90.0082
 30
0.0
 10
184.5188
 20
-91.5641
 30
0.0
 10
184.5188
 20
-91.5641
 30
0.0
 10
187.3845
 20
-92.0857
 30
0.0
 10
188.5958
 20
-90.8783
 30
0.0
 10
189.2621
 20
-89.5672
 30
0.0
 10
189.2621
 20
-89.5672
 30
0.0
 10
186.7624
 20
-89.7773
 30
0.0
 10
185.3644
 20
-87.9972
 30
0.0
 10
186.0531
 20
-86.4784
 30
0.0
 10
186.0531
 20
-86.4784
 30
0.0
 10
188.3012
 20
-85.6166
 30
0.0
 10
187.3868
 20
-83.4398
 30
0.0
 10
183.6176
 20
-83.0748
 30
0.0
 10
183.6176
 20
-83.0748
 30
0.0
 10
178.8223
 20
-82.6734
 30
0.0
 10
174.5379
 20
-83.2059
 30
0.0
 10
169.8223
 20
-86.4854
 30
0.0
 10
169.8223
 20
-86.4854
 30
0.0
 10
173.3978
 20
-87.113
 30
0.0
 10
174.957
 20
-87.068
 30
0.0
 10
175.2205
 20
-84.2829
 30
0.0
 10
175.2205
 20
-84.2829
 30
0.0
 10
176.7913
 20
-83.956
 30
0.0
 10
177.6134
 20
-86.7525
 30
0.0
 10
176.4015
 20
-87.9305
 30
0.0
  0
SPLINE
  5
6D
330
1F
100
AcDbEntity
  8
layer 1
 62
     7
100
AcDbSpline
210
0.0
220
0.0
230
1.0
 70
    11
 71
     3
 72
    76
 73
    72
 74
     0
 42
0.0000000001
 43
0.0000000001
 12
1.0
 22
0.0
 32
0.0
 13
1.0
 23
0.0
 33
0.0
 40
0.0
 40
0.0
 40
0.0
 40
0.0
 40
0.0526315789473684
 40
0.0526315789473684
 40
0.0526315789473684
 40
0.0526315789473684
 40
0.1052631578947368
 40
0.1052631578947368
 40
0.1052631578947368
 40
0.1052631578947368
 40
0.1578947368421053
 40
0.1578947368421053
 40
0.1578947368421053
 40
0.1578947368421053
 40
0.2105263157894737
 40
0.2105263157894737
 40
0.2105263157894737
 40
0.2105263157894737
 40
0.2631578947368421
 40
0.2631578947368421
 40
0.2631578947368421
 40
0.2631578947368421
 40
0.3157894736842105
 40
0.3157894736842105
 40
0.3157894736842105
 40
0.3157894736842105
 40
0.3684210526315789
 40
0.3684210526315789
 40
0.3684210526315789
 40
0.3684210526315789
 40
0.4210526315789473
 40
0.4210526315789473
 40
0.4210526315789473
 40
0.4210526315789473
 40
0.4736842105263158
 40
0.4736842105263158
 40
0.4736842105263158
 40
0.4736842105263158
 40
0.5263157894736842
 40
0.5263157894736842
 40
0.5263157894736842
 40
0.5263157894736842
 40
0.5789473684210527
 40
0.5789473684210527
 40
0.5789473684210527
 40
0.5789473684210527
 40
0.631578947368421
 40
0.631578947368421
 40
0.631578947368421
 40
0.631578947368421
 40
0.6842105263157895
 40
0.6842105263157895
 40
0.6842105263157895
 40
0.6842105263157895
 40
0.7368421052631579
 40
0.7368421052631579
 40
0.7368421052631579
 40
0.7368421052631579
 40
0.7894736842105263
 40
0.7894736842105263
 40
0.7894736842105263
 40
0.7894736842105263
 40
0.8421052631578947
 40
0.8421052631578947
 40
0.8421052631578947
 40
0.8421052631578947
 40
0.8947368421052632
 40
0.8947368421052632
 40
0.8947368421052632
 40
0.8947368421052632
 40
1.0
 40
1.0
 40
1.0
 40
1.0
 10
165.2038
 20
-85.4631
 30
0.0
 10
168.628
 20
-84.6634
 30
0.0
 10
171.803
 20
-80.6168
 30
0.0
 10
175.7916
 20
-79.1343
 30
0.0
 10
175.7916
 20
-79.1343
 30
0.0
 10
177.1749
 20
-76.5081
 30
0.0
 10
177.3678
 20
-73.8479
 30
0.0
 10
175.0376
 20
-72.5799
 30
0.0
 10
175.0376
 20
-72.5799
 30
0.0
 10
179.185
 20
-67.8979
 30
0.0
 10
181.8871
 20
-74.6987
 30
0.0
 10
180.5962
 20
-78.4051
 30
0.0
 10
180.5962
 20
-78.4051
 30
0.0
 10
184.2847
 20
-77.0916
 30
0.0
 10
188.0897
 20
-65.5088
 30
0.0
 10
180.848
 20
-63.8186
 30
0.0
 10
180.848
 20
-63.8186
 30
0.0
 10
181.1688
 20
-62.9328
 30
0.0
 10
183.5936
 20
-60.8095
 30
0.0
 10
186.3331
 20
-64.1642
 30
0.0
 10
186.3331
 20
-64.1642
 30
0.0
 10
186.5243
 20
-59.8494
 30
0.0
 10
177.1051
 20
-54.1211
 30
0.0
 10
173.0476
 20
-60.3144
 30
0.0
 10
173.0476
 20
-60.3144
 30
0.0
 10
171.1939
 20
-58.9559
 30
0.0
 10
172.3277
 20
-56.8713
 30
0.0
 10
173.0988
 20
-56.0268
 30
0.0
 10
173.0988
 20
-56.0268
 30
0.0
 10
169.4597
 20
-56.0057
 30
0.0
 10
167.3007
 20
-59.5558
 30
0.0
 10
167.6356
 20
-61.4674
 30
0.0
 10
167.6356
 20
-61.4674
 30
0.0
 10
167.6609
 20
-62.0945
 30
0.0
 10
168.6166
 20
-63.4203
 30
0.0
 10
169.686
 20
-62.6252
 30
0.0
 10
169.686
 20
-62.6252
 30
0.0
 10
168.4848
 20
-59.1225
 30
0.0
 10
172.3424
 20
-59.0001
 30
0.0
 10
172.729
 20
-62.3416
 30
0.0
 10
172.729
 20
-62.3416
 30
0.0
 10
172.6647
 20
-66.0838
 30
0.0
 10
168.1974
 20
-68.5342
 30
0.0
 10
165.8997
 20
-63.1133
 30
0.0
 10
165.8997
 20
-63.1133
 30
0.0
 10
166.4018
 20
-67.1965
 30
0.0
 10
164.6689
 20
-68.3358
 30
0.0
 10
163.5314
 20
-68.5744
 30
0.0
 10
163.5314
 20
-68.5744
 30
0.0
 10
163.7546
 20
-69.168
 30
0.0
 10
164.1684
 20
-69.7746
 30
0.0
 10
164.5745
 20
-70.2954
 30
0.0
 10
164.5745
 20
-70.2954
 30
0.0
 10
164.9961
 20
-69.8405
 30
0.0
 10
165.1612
 20
-69.2384
 30
0.0
 10
166.1344
 20
-68.899
 30
0.0
 10
166.1344
 20
-68.899
 30
0.0
 10
166.6343
 20
-69.7717
 30
0.0
 10
167.0202
 20
-72.1213
 30
0.0
 10
166.3429
 20
-75.7936
 30
0.0
 10
166.3429
 20
-75.7936
 30
0.0
 10
167.0636
 20
-74.9598
 30
0.0
 10
167.8571
 20
-74.6011
 30
0.0
 10
168.0966
 20
-75.056
 30
0.0
 10
168.0966
 20
-75.056
 30
0.0
 10
168.0825
 20
-77.5187
 30
0.0
 10
167.097
 20
-79.47
 30
0.0
 10
166.5536
 20
-80.8035
 30
0.0
 10
166.5536
 20
-80.8035
 30
0.0
 10
169.3256
 20
-79.2111
 30
0.0
 10
168.1238
 20
-82.4503
 30
0.0
 10
165.2038
 20
-85.4631
 30
0.0
  0
SPLINE
  5
6E
330
1F
100
AcDbEntity
  8
layer 1
 62
     7
100
AcDbSpline
210
0.0
220
0.0
230
1.0
 70
    11
 71
     3
 72
    52
 73
    48
 74
     0
 42
0.0000000001
 43
0.0000000001
 12
1.0
 22
0.0
 32
0.0
 13
1.0
 23
0.0
 33
0.0
 40
0.0
 40
0.0
 40
0.0
 40
0.0
 40
0.0769230769230769
 40
0.0769230769230769
 40
0.0769230769230769
 40
0.0769230769230769
 40
0.1538461538461539
 40
0.1538461538461539
 40
0.1538461538461539
 40
0.1538461538461539
 40
0.2307692307692308
 40
0.2307692307692308
 40
0.2307692307692308
 40
0.2307692307692308
 40
0.3076923076923077
 40
0.3076923076923077
 40
0.3076923076923077
 40
0.3076923076923077
 40
0.3846153846153846
 40
0.3846153846153846
 40
0.3846153846153846
 40
0.3846153846153846
 40
0.4615384615384616
 40
0.4615384615384616
 40
0.4615384615384616
 40
0.4615384615384616
 40
0.5384615384615384
 40
0.5384615384615384
 40
0.5384615384615384
 40
0.5384615384615384
 40
0.6153846153846154
 40
0.6153846153846154
 40
0.6153846153846154
 40
0.6153846153846154
 40
0.6923076923076923
 40
0.6923076923076923
 40
0.6923076923076923
 40
0.6923076923076923
 40
0.7692307692307693
 40
0.7692307692307693
 40
0.7692307692307693
 40
0.7692307692307693
 40
0.8461538461538461
 40
0.8461538461538461
 40
0.8461538461538461
 40
0.8461538461538461
 40
1.0
 40
1.0
 40
1.0
 40
1.0
 10
149.7577
 20
-4.6984
 30
0.0
 10
150.3057
 20
-5.0743
 30
0.0
 10
150.987
 20
-4.5325
 30
0.0
 10
151.207
 20
-4.0305
 30
0.0
 10
151.207
 20
-4.0305
 30
0.0
 10
151.6858
 20
-4.6434
 30
0.0
 10
151.3008
 20
-6.0607
 30
0.0
 10
150.7675
 20
-7.0115
 30
0.0
 10
150.7675
 20
-7.0115
 30
0.0
 10
151.2898
 20
-6.6675
 30
0.0
 10
151.9122
 20
-6.6993
 30
0.0
 10
152.446
 20
-6.9729
 30
0.0
 10
152.446
 20
-6.9729
 30
0.0
 10
151.2512
 20
-7.6696
 30
0.0
 10
150.8776
 20
-9.9075
 30
0.0
 10
152.4855
 20
-9.6502
 30
0.0
 10
152.4855
 20
-9.6502
 30
0.0
 10
153.8022
 20
-9.2868
 30
0.0
 10
155.1901
 20
-9.7812
 30
0.0
 10
156.1905
 20
-9.9292
 30
0.0
 10
156.1905
 20
-9.9292
 30
0.0
 10
155.7745
 20
-9.2156
 30
0.0
 10
155.1871
 20
-7.0635
 30
0.0
 10
157.1243
 20
-6.7481
 30
0.0
 10
157.1243
 20
-6.7481
 30
0.0
 10
157.4064
 20
-10.1803
 30
0.0
 10
158.6556
 20
-10.1113
 30
0.0
 10
160.1032
 20
-9.2721
 30
0.0
 10
160.1032
 20
-9.2721
 30
0.0
 10
161.3298
 20
-8.5607
 30
0.0
 10
162.6675
 20
-7.2192
 30
0.0
 10
164.0002
 20
-7.7904
 30
0.0
 10
164.0002
 20
-7.7904
 30
0.0
 10
163.089
 20
-6.1359
 30
0.0
 10
163.805
 20
-4.8767
 30
0.0
 10
165.5254
 20
-5.1114
 30
0.0
 10
165.5254
 20
-5.1114
 30
0.0
 10
164.2839
 20
-6.4374
 30
0.0
 10
166.6506
 20
-6.728
 30
0.0
 10
168.6118
 20
-5.6183
 30
0.0
 10
168.6118
 20
-5.6183
 30
0.0
 10
163.8096
 20
-2.8425
 30
0.0
 10
159.222
 20
-1.0864
 30
0.0
 10
152.2532
 20
-1.4491
 30
0.0
 10
152.2532
 20
-1.4491
 30
0.0
 10
149.8663
 20
-1.8506
 30
0.0
 10
148.6157
 20
-3.5718
 30
0.0
 10
149.7577
 20
-4.6984
 30
0.0
  0
SPLINE
  5
6F
330
1F
100
AcDbEntity
  8
layer 1
 62
     7
100
AcDbSpline
210
0.0
220
0.0
230
1.0
 70
    11
 71
     3
 72
    92
 73
    88
 74
     0
 42
0.0000000001
 43
0.0000000001
 12
1.0
 22
0.0
 32
0.0
 13
1.0
 23
0.0
 33
0.0
 40
0.0
 40
0.0
 40
0.0
 40
0.0
 40
0.0434782608695652
 40
0.0434782608695652
 40
0.0434782608695652
 40
0.0434782608695652
 40
0.0869565217391304
 40
0.0869565217391304
 40
0.0869565217391304
 40
0.0869565217391304
 40
0.1304347826086956
 40
0.1304347826086956
 40
0.1304347826086956
 40
0.1304347826086956
 40
0.1739130434782609
 40
0.1739130434782609
 40
0.1739130434782609
 40
0.1739130434782609
 40
0.2173913043478261
 40
0.2173913043478261
 40
0.2173913043478261
 40
0.2173913043478261
 40
0.2608695652173913
 40
0.2608695652173913
 40
0.2608695652173913
 40
0.2608695652173913
 40
0.3043478260869565
 40
0.3043478260869565
 40
0.3043478260869565
 40
0.3043478260869565
 40
0.3478260869565217
 40
0.3478260869565217
 40
0.3478260869565217
 40
0.3478260869565217
 40
0.391304347826087
 40
0.391304347826087
 40
0.391304347826087
 40
0.391304347826087
 40
0.4347826086956522
 40
0.4347826086956522
 40
0.4347826086956522
 40
0.4347826086956522
 40
0.4782608695652174
 40
0.4782608695652174
 40
0.4782608695652174
 40
0.4782608695652174
 40
0.5217391304347826
 40
0.5217391304347826
 40
0.5217391304347826
 40
0.5217391304347826
 40
0.5652173913043478
 40
0.5652173913043478
 40
0.5652173913043478
 40
0.5652173913043478
 40
0.6086956521739131
 40
0.6086956521739131
 40
0.6086956521739131
 40
0.6086956521739131
 40
0.6521739130434783
 40
0.6521739130434783
 40
0.6521739130434783
 40
0.6521739130434783
 40
0.6956521739130435
 40
0.6956521739130435
 40
0.6956521739130435
 40
0.6956521739130435
 40
0.7391304347826086
 40
0.7391304347826086
 40
0.7391304347826086
 40
0.7391304347826086
 40
0.782608695652174
 40
0.782608695652174
 40
0.782608695652174
 40
0.782608695652174
 40
0.8260869565217391
 40
0.8260869565217391
 40
0.8260869565217391
 40
0.8260869565217391
 40
0.8695652173913043
 40
0.8695652173913043
 40
0.8695652173913043
 40
0.8695652173913043
 40
0.9130434782608695
 40
0.9130434782608695
 40
0.9130434782608695
 40
0.9130434782608695
 40
1.0
 40
1.0
 40
1.0
 40
1.0
 10
185.1404
 20
5.2044
 30
0.0
 10
185.9107
 20
4.4334
 30
0.0
 10
186.8142
 20
5.1959
 30
0.0
 10
186.829
 20
5.8025
 30
0.0
 10
186.829
 20
5.8025
 30
0.0
 10
187.204
 20
6.2892
 30
0.0
 10
187.8201
 20
6.0839
 30
0.0
 10
187.8132
 20
5.7127
 30
0.0
 10
187.8132
 20
5.7127
 30
0.0
 10
188.3385
 20
3.863
 30
0.0
 10
187.5055
 20
1.5421
 30
0.0
 10
186.4197
 20
0.8438
 30
0.0
 10
186.4197
 20
0.8438
 30
0.0
 10
187.3837
 20
3.859
 30
0.0
 10
183.9936
 20
5.1602
 30
0.0
 10
182.7412
 20
2.6788
 30
0.0
 10
182.7412
 20
2.6788
 30
0.0
 10
184.725
 20
2.4479
 30
0.0
 10
184.553
 20
-0.4627
 30
0.0
 10
183.4147
 20
-1.5336
 30
0.0
 10
183.4147
 20
-1.5336
 30
0.0
 10
181.8082
 20
-2.414
 30
0.0
 10
181.5362
 20
-5.0866
 30
0.0
 10
182.2793
 20
-7.159
 30
0.0
 10
182.2793
 20
-7.159
 30
0.0
 10
177.5104
 20
-4.1017
 30
0.0
 10
178.5953
 20
-0.4177
 30
0.0
 10
180.9712
 20
0.8477
 30
0.0
 10
180.9712
 20
0.8477
 30
0.0
 10
180.5837
 20
3.4979
 30
0.0
 10
177.6088
 20
3.0996
 30
0.0
 10
176.5929
 20
1.528
 30
0.0
 10
176.5929
 20
1.528
 30
0.0
 10
175.8055
 20
7.836
 30
0.0
 10
180.7272
 20
9.3649
 30
0.0
 10
182.8102
 20
5.3802
 30
0.0
 10
182.8102
 20
5.3802
 30
0.0
 10
184.133
 20
5.7266
 30
0.0
 10
184.1151
 20
7.9941
 30
0.0
 10
183.6626
 20
8.6535
 30
0.0
 10
183.6626
 20
8.6535
 30
0.0
 10
184.1151
 20
9.3139
 30
0.0
 10
184.133
 20
11.5812
 30
0.0
 10
182.8102
 20
11.9276
 30
0.0
 10
182.8102
 20
11.9276
 30
0.0
 10
180.7272
 20
7.9429
 30
0.0
 10
175.8055
 20
9.471
 30
0.0
 10
176.5929
 20
15.779
 30
0.0
 10
176.5929
 20
15.779
 30
0.0
 10
177.6088
 20
14.2082
 30
0.0
 10
180.5837
 20
13.8101
 30
0.0
 10
180.9712
 20
16.4602
 30
0.0
 10
180.9712
 20
16.4602
 30
0.0
 10
178.5953
 20
17.7257
 30
0.0
 10
177.5104
 20
21.4089
 30
0.0
 10
182.2793
 20
24.4668
 30
0.0
 10
182.2793
 20
24.4668
 30
0.0
 10
181.5362
 20
22.3938
 30
0.0
 10
181.8082
 20
19.7218
 30
0.0
 10
183.4147
 20
18.8416
 30
0.0
 10
183.4147
 20
18.8416
 30
0.0
 10
184.553
 20
17.7705
 30
0.0
 10
184.725
 20
14.8601
 30
0.0
 10
182.7412
 20
14.6284
 30
0.0
 10
182.7412
 20
14.6284
 30
0.0
 10
183.9936
 20
12.147
 30
0.0
 10
187.3837
 20
13.4488
 30
0.0
 10
186.4197
 20
16.464
 30
0.0
 10
186.4197
 20
16.464
 30
0.0
 10
187.5055
 20
15.7659
 30
0.0
 10
188.3385
 20
13.4442
 30
0.0
 10
187.8132
 20
11.5953
 30
0.0
 10
187.8132
 20
11.5953
 30
0.0
 10
187.8201
 20
11.2234
 30
0.0
 10
187.204
 20
11.0178
 30
0.0
 10
186.829
 20
11.5053
 30
0.0
 10
186.829
 20
11.5053
 30
0.0
 10
186.8142
 20
12.1113
 30
0.0
 10
185.9107
 20
12.8747
 30
0.0
 10
185.1404
 20
12.1027
 30
0.0
 10
185.1404
 20
12.1027
 30
0.0
 10
184.2197
 20
11.2031
 30
0.0
 10
184.3103
 20
9.0961
 30
0.0
 10
185.2884
 20
8.6535
 30
0.0
 10
185.2884
 20
8.6535
 30
0.0
 10
184.3103
 20
8.2119
 30
0.0
 10
184.2197
 20
6.1041
 30
0.0
 10
185.1404
 20
5.2044
 30
0.0
  0
SPLINE
  5
70
330
1F
100
AcDbEntity
  8
layer 1
 62
     7
100
AcDbSpline
210
0.0
220
0.0
230
1.0
 70
    11
 71
     3
 72
    32
 73
    28
 74
     0
 42
0.0000000001
 43
0.0000000001
 12
1.0
 22
0.0
 32
0.0
 13
1.0
 23
0.0
 33
0.0
 40
0.0
 40
0.0
 40
0.0
 40
0.0
 40
0.125
 40
0.125
 40
0.125
 40
0.125
 40
0.25
 40
0.25
 40
0.25
 40
0.25
 40
0.375
 40
0.375
 40
0.375
 40
0.375
 40
0.5
 40
0.5
 40
0.5
 40
0.5
 40
0.625
 40
0.625
 40
0.625
 40
0.625
 40
0.75
 40
0.75
 40
0.75
 40
0.75
 40
1.0
 40
1.0
 40
1.0
 40
1.0
 10
181.9871
 20
-19.2624
 30
0.0
 10
180.4605
 20
-19.4368
 30
0.0
 10
178.1311
 20
-17.5668
 30
0.0
 10
177.7189
 20
-16.3363
 30
0.0
 10
177.7189
 20
-16.3363
 30
0.0
 10
178.2412
 20
-15.422
 30
0.0
 10
178.9215
 20
-15.267
 30
0.0
 10
179.7127
 20
-15.0049
 30
0.0
 10
179.7127
 20
-15.0049
 30
0.0
 10
178.9207
 20
-14.654
 30
0.0
 10
178.252
 20
-14.8284
 30
0.0
 10
177.5064
 20
-14.9788
 30
0.0
 10
177.5064
 20
-14.9788
 30
0.0
 10
176.6449
 20
-15.2529
 30
0.0
 10
175.7404
 20
-16.7338
 30
0.0
 10
174.9059
 20
-17.3948
 30
0.0
 10
174.9059
 20
-17.3948
 30
0.0
 10
175.9071
 20
-17.7134
 30
0.0
 10
176.0713
 20
-18.9874
 30
0.0
 10
175.618
 20
-19.7165
 30
0.0
 10
175.618
 20
-19.7165
 30
0.0
 10
179.3524
 20
-18.3984
 30
0.0
 10
181.5477
 20
-20.0778
 30
0.0
 10
183.124
 20
-23.4076
 30
0.0
 10
183.124
 20
-23.4076
 30
0.0
 10
183.4091
 20
-22.4357
 30
0.0
 10
182.7947
 20
-20.2529
 30
0.0
 10
181.9871
 20
-19.2624
 30
0.0
  0
SPLINE
  5
71
330
1F
100
AcDbEntity
  8
layer 1
 62
     7
100
AcDbSpline
210
0.0
220
0.0
230
1.0
 70
    11
 71
     3
 72
    20
 73
    16
 74
     0
 42
0.0000000001
 43
0.0000000001
 12
1.0
 22
0.0
 32
0.0
 13
1.0
 23
0.0
 33
0.0
 40
0.0
 40
0.0
 40
0.0
 40
0.0
 40
0.2
 40
0.2
 40
0.2
 40
0.2
 40
0.4
 40
0.4
 40
0.4
 40
0.4
 40
0.6
 40
0.6
 40
0.6
 40
0.6
 40
1.0
 40
1.0
 40
1.0
 40
1.0
 10
174.3075
 20
-17.2864
 30
0.0
 10
174.468
 20
-16.6471
 30
0.0
 10
173.4892
 20
-16.3565
 30
0.0
 10
174.0729
 20
-15.422
 30
0.0
 10
174.0729
 20
-15.422
 30
0.0
 10
171.4171
 20
-16.0954
 30
0.0
 10
171.2885
 20
-19.1269
 30
0.0
 10
171.827
 20
-19.8538
 30
0.0
 10
171.827
 20
-19.8538
 30
0.0
 10
172.6508
 20
-20.8814
 30
0.0
 10
173.9001
 20
-20.294
 30
0.0
 10
173.2476
 20
-19.6949
 30
0.0
 10
173.2476
 20
-19.6949
 30
0.0
 10
172.1045
 20
-18.9549
 30
0.0
 10
172.8228
 20
-17.0887
 30
0.0
 10
174.3075
 20
-17.2864
 30
0.0
  0
SPLINE
  5
72
330
1F
100
AcDbEntity
  8
layer 1
 62
     7
100
AcDbSpline
210
0.0
220
0.0
230
1.0
 70
    11
 71
     3
 72
    72
 73
    68
 74
     0
 42
0.0000000001
 43
0.0000000001
 12
1.0
 22
0.0
 32
0.0
 13
1.0
 23
0.0
 33
0.0
 40
0.0
 40
0.0
 40
0.0
 40
0.0
 40
0.0555555555555556
 40
0.0555555555555556
 40
0.0555555555555556
 40
0.0555555555555556
 40
0.1111111111111111
 40
0.1111111111111111
 40
0.1111111111111111
 40
0.1111111111111111
 40
0.1666666666666667
 40
0.1666666666666667
 40
0.1666666666666667
 40
0.1666666666666667
 40
0.2222222222222222
 40
0.2222222222222222
 40
0.2222222222222222
 40
0.2222222222222222
 40
0.2777777777777778
 40
0.2777777777777778
 40
0.2777777777777778
 40
0.2777777777777778
 40
0.3333333333333333
 40
0.3333333333333333
 40
0.3333333333333333
 40
0.3333333333333333
 40
0.3888888888888889
 40
0.3888888888888889
 40
0.3888888888888889
 40
0.3888888888888889
 40
0.4444444444444444
 40
0.4444444444444444
 40
0.4444444444444444
 40
0.4444444444444444
 40
0.5
 40
0.5
 40
0.5
 40
0.5
 40
0.5555555555555556
 40
0.5555555555555556
 40
0.5555555555555556
 40
0.5555555555555556
 40
0.6111111111111112
 40
0.6111111111111112
 40
0.6111111111111112
 40
0.6111111111111112
 40
0.6666666666666666
 40
0.6666666666666666
 40
0.6666666666666666
 40
0.6666666666666666
 40
0.7222222222222222
 40
0.7222222222222222
 40
0.7222222222222222
 40
0.7222222222222222
 40
0.7777777777777778
 40
0.7777777777777778
 40
0.7777777777777778
 40
0.7777777777777778
 40
0.8333333333333334
 40
0.8333333333333334
 40
0.8333333333333334
 40
0.8333333333333334
 40
0.8888888888888888
 40
0.8888888888888888
 40
0.8888888888888888
 40
0.8888888888888888
 40
1.0
 40
1.0
 40
1.0
 40
1.0
 10
170.5671
 20
-7.9128
 30
0.0
 10
169.686
 20
-8.1237
 30
0.0
 10
163.7988
 20
-8.7916
 30
0.0
 10
164.8163
 20
-13.5101
 30
0.0
 10
164.8163
 20
-13.5101
 30
0.0
 10
164.5257
 20
-14.069
 30
0.0
 10
161.5298
 20
-14.8268
 30
0.0
 10
161.9313
 20
-11.6828
 30
0.0
 10
161.9313
 20
-11.6828
 30
0.0
 10
161.2167
 20
-12.6299
 30
0.0
 10
160.4379
 20
-13.7885
 30
0.0
 10
158.8555
 20
-14.2549
 30
0.0
 10
158.8555
 20
-14.2549
 30
0.0
 10
157.6605
 20
-14.9516
 30
0.0
 10
157.9194
 20
-18.5635
 30
0.0
 10
160.1317
 20
-16.9602
 30
0.0
 10
160.1317
 20
-16.9602
 30
0.0
 10
161.0362
 20
-15.9373
 30
0.0
 10
163.1656
 20
-14.9198
 30
0.0
 10
164.8526
 20
-15.6171
 30
0.0
 10
164.8526
 20
-15.6171
 30
0.0
 10
167.0474
 20
-16.8826
 30
0.0
 10
167.5324
 20
-20.5838
 30
0.0
 10
166.749
 20
-22.0546
 30
0.0
 10
166.749
 20
-22.0546
 30
0.0
 10
169.2016
 20
-21.6664
 30
0.0
 10
171.6054
 20
-22.697
 30
0.0
 10
172.6408
 20
-25.4853
 30
0.0
 10
172.6408
 20
-25.4853
 30
0.0
 10
175.0856
 20
-24.0385
 30
0.0
 10
179.0246
 20
-24.0918
 30
0.0
 10
181.8965
 20
-25.6247
 30
0.0
 10
181.8965
 20
-25.6247
 30
0.0
 10
180.9029
 20
-23.9159
 30
0.0
 10
179.2834
 20
-21.7771
 30
0.0
 10
177.1563
 20
-21.9568
 30
0.0
 10
177.1563
 20
-21.9568
 30
0.0
 10
176.134
 20
-22.1011
 30
0.0
 10
175.5607
 20
-24.1508
 30
0.0
 10
174.9664
 20
-22.3258
 30
0.0
 10
174.9664
 20
-22.3258
 30
0.0
 10
171.9053
 20
-24.6846
 30
0.0
 10
169.0722
 20
-20.6665
 30
0.0
 10
169.3968
 20
-17.491
 30
0.0
 10
169.3968
 20
-17.491
 30
0.0
 10
169.6541
 20
-14.9809
 30
0.0
 10
172.2688
 20
-12.7059
 30
0.0
 10
175.8954
 20
-13.4165
 30
0.0
 10
175.8954
 20
-13.4165
 30
0.0
 10
174.909
 20
-12.4377
 30
0.0
 10
175.0693
 20
-8.746
 30
0.0
 10
178.9588
 20
-11.4335
 30
0.0
 10
178.9588
 20
-11.4335
 30
0.0
 10
181.7058
 20
-11.7535
 30
0.0
 10
183.1433
 20
-13.6373
 30
0.0
 10
183.6517
 20
-14.6407
 30
0.0
 10
183.6517
 20
-14.6407
 30
0.0
 10
184.1771
 20
-12.3678
 30
0.0
 10
180.8379
 20
-10.4173
 30
0.0
 10
178.5613
 20
-9.6611
 30
0.0
 10
178.5613
 20
-9.6611
 30
0.0
 10
175.8885
 20
-8.9769
 30
0.0
 10
170.1269
 20
-9.9966
 30
0.0
 10
170.3143
 20
-14.4471
 30
0.0
 10
170.3143
 20
-14.4471
 30
0.0
 10
167.4873
 20
-15.6179
 30
0.0
 10
166.2096
 20
-11.321
 30
0.0
 10
170.5671
 20
-7.9128
 30
0.0
  0
SPLINE
  5
73
330
1F
100
AcDbEntity
  8
layer 1
 62
     7
100
AcDbSpline
210
0.0
220
0.0
230
1.0
 70
    11
 71
     3
 72
    32
 73
    28
 74
     0
 42
0.0000000001
 43
0.0000000001
 12
1.0
 22
0.0
 32
0.0
 13
1.0
 23
0.0
 33
0.0
 40
0.0
 40
0.0
 40
0.0
 40
0.0
 40
0.125
 40
0.125
 40
0.125
 40
0.125
 40
0.25
 40
0.25
 40
0.25
 40
0.25
 40
0.375
 40
0.375
 40
0.375
 40
0.375
 40
0.5
 40
0.5
 40
0.5
 40
0.5
 40
0.625
 40
0.625
 40
0.625
 40
0.625
 40
0.75
 40
0.75
 40
0.75
 40
0.75
 40
1.0
 40
1.0
 40
1.0
 40
1.0
 10
189.2621
 20
-93.1218
 30
0.0
 10
189.2621
 20
-93.1218
 30
0.0
 10
189.2621
 20
-102.1599
 30
0.0
 10
189.2621
 20
-102.1599
 30
0.0
 10
189.2621
 20
-102.1599
 30
0.0
 10
187.3311
 20
-104.8395
 30
0.0
 10
184.1245
 20
-100.8657
 30
0.0
 10
182.0375
 20
-104.7691
 30
0.0
 10
182.0375
 20
-104.7691
 30
0.0
 10
180.1755
 20
-108.3802
 30
0.0
 10
177.0563
 20
-104.741
 30
0.0
 10
176.4649
 20
-103.0548
 30
0.0
 10
176.4649
 20
-103.0548
 30
0.0
 10
175.8218
 20
-101.092
 30
0.0
 10
177.095
 20
-99.1058
 30
0.0
 10
178.3743
 20
-100.4921
 30
0.0
 10
178.3743
 20
-100.4921
 30
0.0
 10
182.2436
 20
-104.0475
 30
0.0
 10
184.47
 20
-98.6734
 30
0.0
 10
184.4274
 20
-95.2312
 30
0.0
 10
184.4274
 20
-95.2312
 30
0.0
 10
185.5588
 20
-96.2967
 30
0.0
 10
188.5577
 20
-95.9597
 30
0.0
 10
188.3548
 20
-93.9889
 30
0.0
 10
188.3548
 20
-93.9889
 30
0.0
 10
188.8483
 20
-93.8759
 30
0.0
 10
189.1824
 20
-93.6666
 30
0.0
 10
189.2621
 20
-93.1218
 30
0.0
  0
SPLINE
  5
74
330
1F
100
AcDbEntity
  8
layer 1
 62
     7
100
AcDbSpline
210
0.0
220
0.0
230
1.0
 70
    11
 71
     3
 72
    88
 73
    84
 74
     0
 42
0.0000000001
 43
0.0000000001
 12
1.0
 22
0.0
 32
0.0
 13
1.0
 23
0.0
 33
0.0
 40
0.0
 40
0.0
 40
0.0
 40
0.0
 40
0.0454545454545455
 40
0.0454545454545455
 40
0.0454545454545455
 40
0.0454545454545455
 40
0.0909090909090909
 40
0.0909090909090909
 40
0.0909090909090909
 40
0.0909090909090909
 40
0.1363636363636364
 40
0.1363636363636364
 40
0.1363636363636364
 40
0.1363636363636364
 40
0.1818181818181818
 40
0.1818181818181818
 40
0.1818181818181818
 40
0.1818181818181818
 40
0.2272727272727273
 40
0.2272727272727273
 40
0.2272727272727273
 40
0.2272727272727273
 40
0.2727272727272727
 40
0.2727272727272727
 40
0.2727272727272727
 40
0.2727272727272727
 40
0.3181818181818182
 40
0.3181818181818182
 40
0.3181818181818182
 40
0.3181818181818182
 40
0.3636363636363636
 40
0.3636363636363636
 40
0.3636363636363636
 40
0.3636363636363636
 40
0.4090909090909091
 40
0.4090909090909091
 40
0.4090909090909091
 40
0.4090909090909091
 40
0.4545454545454545
 40
0.4545454545454545
 40
0.4545454545454545
 40
0.4545454545454545
 40
0.5
 40
0.5
 40
0.5
 40
0.5
 40
0.5454545454545454
 40
0.5454545454545454
 40
0.5454545454545454
 40
0.5454545454545454
 40
0.5909090909090909
 40
0.5909090909090909
 40
0.5909090909090909
 40
0.5909090909090909
 40
0.6363636363636364
 40
0.6363636363636364
 40
0.6363636363636364
 40
0.6363636363636364
 40
0.6818181818181818
 40
0.6818181818181818
 40
0.6818181818181818
 40
0.6818181818181818
 40
0.7272727272727273
 40
0.7272727272727273
 40
0.7272727272727273
 40
0.7272727272727273
 40
0.7727272727272727
 40
0.7727272727272727
 40
0.7727272727272727
 40
0.7727272727272727
 40
0.8181818181818182
 40
0.8181818181818182
 40
0.8181818181818182
 40
0.8181818181818182
 40
0.8636363636363636
 40
0.8636363636363636
 40
0.8636363636363636
 40
0.8636363636363636
 40
0.9090909090909091
 40
0.9090909090909091
 40
0.9090909090909091
 40
0.9090909090909091
 40
1.0
 40
1.0
 40
1.0
 40
1.0
 10
154.6368
 20
-104.748
 30
0.0
 10
157.3994
 20
-101.1625
 30
0.0
 10
161.47
 20
-102.0714
 30
0.0
 10
162.2955
 20
-105.0999
 30
0.0
 10
162.2955
 20
-105.0999
 30
0.0
 10
158.9934
 20
-105.1597
 30
0.0
 10
157.249
 20
-106.5049
 30
0.0
 10
156.595
 20
-108.3802
 30
0.0
 10
156.595
 20
-108.3802
 30
0.0
 10
156.595
 20
-108.3802
 30
0.0
 10
165.8384
 20
-108.3802
 30
0.0
 10
165.8384
 20
-108.3802
 30
0.0
 10
165.8384
 20
-108.3802
 30
0.0
 10
165.9555
 20
-105.1434
 30
0.0
 10
170.5562
 20
-102.7727
 30
0.0
 10
172.7778
 20
-103.4563
 30
0.0
 10
172.7778
 20
-103.4563
 30
0.0
 10
171.9752
 20
-99.1965
 30
0.0
 10
174.2572
 20
-95.7333
 30
0.0
 10
178.084
 20
-97.274
 30
0.0
 10
178.084
 20
-97.274
 30
0.0
 10
181.8849
 20
-98.5021
 30
0.0
 10
181.5719
 20
-91.8555
 30
0.0
 10
177.8064
 20
-91.3758
 30
0.0
 10
177.8064
 20
-91.3758
 30
0.0
 10
177.9189
 20
-93.9959
 30
0.0
 10
176.1249
 20
-94.382
 30
0.0
 10
175.405
 20
-94.0316
 30
0.0
 10
175.405
 20
-94.0316
 30
0.0
 10
175.9287
 20
-89.8539
 30
0.0
 10
172.1083
 20
-89.0542
 30
0.0
 10
170.6167
 20
-88.8001
 30
0.0
 10
170.6167
 20
-88.8001
 30
0.0
 10
173.6017
 20
-91.9921
 30
0.0
 10
170.639
 20
-96.22
 30
0.0
 10
168.9621
 20
-95.2752
 30
0.0
 10
168.9621
 20
-95.2752
 30
0.0
 10
169.6053
 20
-89.6083
 30
0.0
 10
164.8945
 20
-88.1646
 30
0.0
 10
160.644
 20
-90.2026
 30
0.0
 10
160.644
 20
-90.2026
 30
0.0
 10
157.7714
 20
-91.5798
 30
0.0
 10
155.0226
 20
-95.0507
 30
0.0
 10
154.6104
 20
-97.9635
 30
0.0
 10
154.6104
 20
-97.9635
 30
0.0
 10
156.1417
 20
-96.0045
 30
0.0
 10
156.981
 20
-95.332
 30
0.0
 10
158.8679
 20
-94.4321
 30
0.0
 10
158.8679
 20
-94.4321
 30
0.0
 10
160.4456
 20
-93.8223
 30
0.0
 10
162.0057
 20
-92.0369
 30
0.0
 10
162.235
 20
-90.8428
 30
0.0
 10
162.235
 20
-90.8428
 30
0.0
 10
163.3051
 20
-90.5637
 30
0.0
 10
163.4021
 20
-92.3321
 30
0.0
 10
163.244
 20
-93.5666
 30
0.0
 10
163.244
 20
-93.5666
 30
0.0
 10
165.7523
 20
-92.4739
 30
0.0
 10
170.8614
 20
-94.9174
 30
0.0
 10
169.5922
 20
-101.6808
 30
0.0
 10
169.5922
 20
-101.6808
 30
0.0
 10
168.1654
 20
-105.895
 30
0.0
 10
164.1164
 20
-105.3378
 30
0.0
 10
162.7736
 20
-103.1348
 30
0.0
 10
162.7736
 20
-103.1348
 30
0.0
 10
161.8436
 20
-101.6088
 30
0.0
 10
161.5196
 20
-98.6301
 30
0.0
 10
163.4795
 20
-98.0961
 30
0.0
 10
163.4795
 20
-98.0961
 30
0.0
 10
162.4481
 20
-95.9472
 30
0.0
 10
159.071
 20
-95.6512
 30
0.0
 10
157.8
 20
-98.2659
 30
0.0
 10
157.8
 20
-98.2659
 30
0.0
 10
159.0043
 20
-97.7048
 30
0.0
 10
159.9536
 20
-97.8217
 30
0.0
 10
160.3125
 20
-98.1016
 30
0.0
 10
160.3125
 20
-98.1016
 30
0.0
 10
160.6333
 20
-99.6553
 30
0.0
 10
158.2983
 20
-101.4291
 30
0.0
 10
155.8495
 20
-101.1965
 30
0.0
 10
155.8495
 20
-101.1965
 30
0.0
 10
154.7391
 20
-102.0823
 30
0.0
 10
154.3168
 20
-103.9212
 30
0.0
 10
154.6368
 20
-104.748
 30
0.0
  0
SPLINE
  5
75
330
1F
100
AcDbEntity
  8
layer 1
 62
     7
100
AcDbSpline
210
0.0
220
0.0
230
1.0
 70
    11
 71
     3
 72
    16
 73
    12
 74
     0
 42
0.0000000001
 43
0.0000000001
 12
1.0
 22
0.0
 32
0.0
 13
1.0
 23
0.0
 33
0.0
 40
0.0
 40
0.0
 40
0.0
 40
0.0
 40
0.25
 40
0.25
 40
0.25
 40
0.25
 40
0.5
 40
0.5
 40
0.5
 40
0.5
 40
1.0
 40
1.0
 40
1.0
 40
1.0
 10
164.8078
 20
-96.5477
 30
0.0
 10
165.0558
 20
-97.1932
 30
0.0
 10
165.0091
 20
-97.7443
 30
0.0
 10
164.29
 20
-98.1936
 30
0.0
 10
164.29
 20
-98.1936
 30
0.0
 10
165.6517
 20
-98.8478
 30
0.0
 10
165.9082
 20
-100.1681
 30
0.0
 10
165.5416
 20
-101.0881
 30
0.0
 10
165.5416
 20
-101.0881
 30
0.0
 10
168.4275
 20
-101.46
 30
0.0
 10
167.83
 20
-96.2573
 30
0.0
 10
164.8078
 20
-96.5477
 30
0.0
  0
SPLINE
  5
76
330
1F
100
AcDbEntity
  8
layer 1
 62
     7
100
AcDbSpline
210
0.0
220
0.0
230
1.0
 70
    11
 71
     3
 72
    20
 73
    16
 74
     0
 42
0.0000000001
 43
0.0000000001
 12
1.0
 22
0.0
 32
0.0
 13
1.0
 23
0.0
 33
0.0
 40
0.0
 40
0.0
 40
0.0
 40
0.0
 40
0.2
 40
0.2
 40
0.2
 40
0.2
 40
0.4
 40
0.4
 40
0.4
 40
0.4
 40
0.6
 40
0.6
 40
0.6
 40
0.6
 40
1.0
 40
1.0
 40
1.0
 40
1.0
 10
138.3068
 20
51.2312
 30
0.0
 10
139.4752
 20
51.9744
 30
0.0
 10
140.4842
 20
52.2402
 30
0.0
 10
141.5467
 20
52.3464
 30
0.0
 10
141.5467
 20
52.3464
 30
0.0
 10
142.5021
 20
55.5857
 30
0.0
 10
142.9277
 20
60.5251
 30
0.0
 10
139.1568
 20
64.3493
 30
0.0
 10
139.1568
 20
64.3493
 30
0.0
 10
136.0766
 20
63.8712
 30
0.0
 10
134.1648
 20
63.765
 30
0.0
 10
131.6152
 20
63.6589
 30
0.0
 10
131.6152
 20
63.6589
 30
0.0
 10
136.8731
 20
60.7909
 30
0.0
 10
139.4219
 20
55.1082
 30
0.0
 10
138.3068
 20
51.2312
 30
0.0
  0
SPLINE
  5
77
330
1F
100
AcDbEntity
  8
layer 1
 62
     7
100
AcDbSpline
210
0.0
220
0.0
230
1.0
 70
    11
 71
     3
 72
    24
 73
    20
 74
     0
 42
0.0000000001
 43
0.0000000001
 12
1.0
 22
0.0
 32
0.0
 13
1.0
 23
0.0
 33
0.0
 40
0.0
 40
0.0
 40
0.0
 40
0.0
 40
0.1666666666666667
 40
0.1666666666666667
 40
0.1666666666666667
 40
0.1666666666666667
 40
0.3333333333333333
 40
0.3333333333333333
 40
0.3333333333333333
 40
0.3333333333333333
 40
0.5
 40
0.5
 40
0.5
 40
0.5
 40
0.6666666666666666
 40
0.6666666666666666
 40
0.6666666666666666
 40
0.6666666666666666
 40
1.0
 40
1.0
 40
1.0
 40
1.0
 10
123.4366
 20
43.4239
 30
0.0
 10
130.0219
 20
38.4844
 30
0.0
 10
139.9535
 20
50.2217
 30
0.0
 10
133.7392
 20
58.029
 30
0.0
 10
133.7392
 20
58.029
 30
0.0
 10
133.9128
 20
53.7577
 30
0.0
 10
129.6617
 20
52.369
 30
0.0
 10
128.8447
 20
55.4772
 30
0.0
 10
128.8447
 20
55.4772
 30
0.0
 10
130.848
 20
55.5586
 30
0.0
 10
131.0634
 20
58.6164
 30
0.0
 10
130.2877
 20
59.888
 30
0.0
 10
130.2877
 20
59.888
 30
0.0
 10
128.641
 20
63.8178
 30
0.0
 10
123.2242
 20
63.6589
 30
0.0
 10
125.773
 20
58.0818
 30
0.0
 10
125.773
 20
58.0818
 30
0.0
 10
131.0842
 20
50.3812
 30
0.0
 10
125.9327
 20
44.8048
 30
0.0
 10
123.4366
 20
43.4239
 30
0.0
  0
SPLINE
  5
78
330
1F
100
AcDbEntity
  8
layer 1
 62
     7
100
AcDbSpline
210
0.0
220
0.0
230
1.0
 70
    11
 71
     3
 72
    16
 73
    12
 74
     0
 42
0.0000000001
 43
0.0000000001
 12
1.0
 22
0.0
 32
0.0
 13
1.0
 23
0.0
 33
0.0
 40
0.0
 40
0.0
 40
0.0
 40
0.0
 40
0.25
 40
0.25
 40
0.25
 40
0.25
 40
0.5
 40
0.5
 40
0.5
 40
0.5
 40
1.0
 40
1.0
 40
1.0
 40
1.0
 10
107.9983
 20
41.1495
 30
0.0
 10
108.0271
 20
37.1594
 30
0.0
 10
105.3908
 20
35.4895
 30
0.0
 10
104.3624
 20
36.1256
 30
0.0
 10
104.3624
 20
36.1256
 30
0.0
 10
104.3624
 20
36.1256
 30
0.0
 10
104.3624
 20
48.172
 30
0.0
 10
104.3624
 20
48.172
 30
0.0
 10
104.3624
 20
48.172
 30
0.0
 10
106.7593
 20
47.6457
 30
0.0
 10
107.945
 20
44.2369
 30
0.0
 10
107.9983
 20
41.1495
 30
0.0
  0
SPLINE
  5
79
330
1F
100
AcDbEntity
  8
layer 1
 62
     7
100
AcDbSpline
210
0.0
220
0.0
230
1.0
 70
    11
 71
     3
 72
    24
 73
    20
 74
     0
 42
0.0000000001
 43
0.0000000001
 12
1.0
 22
0.0
 32
0.0
 13
1.0
 23
0.0
 33
0.0
 40
0.0
 40
0.0
 40
0.0
 40
0.0
 40
0.1666666666666667
 40
0.1666666666666667
 40
0.1666666666666667
 40
0.1666666666666667
 40
0.3333333333333333
 40
0.3333333333333333
 40
0.3333333333333333
 40
0.3333333333333333
 40
0.5
 40
0.5
 40
0.5
 40
0.5
 40
0.6666666666666666
 40
0.6666666666666666
 40
0.6666666666666666
 40
0.6666666666666666
 40
1.0
 40
1.0
 40
1.0
 40
1.0
 10
111.3678
 20
49.9031
 30
0.0
 10
107.336
 20
48.12
 30
0.0
 10
105.4482
 20
50.8198
 30
0.0
 10
104.3624
 20
52.7393
 30
0.0
 10
104.3624
 20
52.7393
 30
0.0
 10
104.3624
 20
52.7393
 30
0.0
 10
104.3624
 20
61.7975
 30
0.0
 10
104.3624
 20
61.7975
 30
0.0
 10
104.3624
 20
61.7975
 30
0.0
 10
106.0433
 20
58.1274
 30
0.0
 10
110.9842
 20
57.0379
 30
0.0
 10
113.8732
 20
61.7215
 30
0.0
 10
113.8732
 20
61.7215
 30
0.0
 10
114.7233
 20
61.6092
 30
0.0
 10
116.0592
 20
61.186
 30
0.0
 10
116.9023
 20
60.7181
 30
0.0
 10
116.9023
 20
60.7181
 30
0.0
 10
110.1923
 20
59.8392
 30
0.0
 10
109.095
 20
51.9823
 30
0.0
 10
111.3678
 20
49.9031
 30
0.0
  0
SPLINE
  5
7A
330
1F
100
AcDbEntity
  8
layer 1
 62
     7
100
AcDbSpline
210
0.0
220
0.0
230
1.0
 70
    11
 71
     3
 72
    20
 73
    16
 74
     0
 42
0.0000000001
 43
0.0000000001
 12
1.0
 22
0.0
 32
0.0
 13
1.0
 23
0.0
 33
0.0
 40
0.0
 40
0.0
 40
0.0
 40
0.0
 40
0.2
 40
0.2
 40
0.2
 40
0.2
 40
0.4
 40
0.4
 40
0.4
 40
0.4
 40
0.6
 40
0.6
 40
0.6
 40
0.6
 40
1.0
 40
1.0
 40
1.0
 40
1.0
 10
114.9123
 20
63.8503
 30
0.0
 10
117.9238
 20
63.7146
 30
0.0
 10
120.6622
 20
62.1083
 30
0.0
 10
121.8667
 20
60.9954
 30
0.0
 10
121.8667
 20
60.9954
 30
0.0
 10
122.0565
 20
62.1083
 30
0.0
 10
122.5951
 20
63.1342
 30
0.0
 10
123.4753
 20
63.7821
 30
0.0
 10
123.4753
 20
63.7821
 30
0.0
 10
119.4589
 20
64.3532
 30
0.0
 10
117.0652
 20
66.5719
 30
0.0
 10
116.0469
 20
67.7706
 30
0.0
 10
116.0469
 20
67.7706
 30
0.0
 10
116.0019
 20
66.4904
 30
0.0
 10
115.4315
 20
64.5508
 30
0.0
 10
114.9123
 20
63.8503
 30
0.0
  0
SPLINE
  5
7B
330
1F
100
AcDbEntity
  8
layer 1
 62
     7
100
AcDbSpline
210
0.0
220
0.0
230
1.0
 70
    11
 71
     3
 72
    44
 73
    40
 74
     0
 42
0.0000000001
 43
0.0000000001
 12
1.0
 22
0.0
 32
0.0
 13
1.0
 23
0.0
 33
0.0
 40
0.0
 40
0.0
 40
0.0
 40
0.0
 40
0.0909090909090909
 40
0.0909090909090909
 40
0.0909090909090909
 40
0.0909090909090909
 40
0.1818181818181818
 40
0.1818181818181818
 40
0.1818181818181818
 40
0.1818181818181818
 40
0.2727272727272727
 40
0.2727272727272727
 40
0.2727272727272727
 40
0.2727272727272727
 40
0.3636363636363636
 40
0.3636363636363636
 40
0.3636363636363636
 40
0.3636363636363636
 40
0.4545454545454545
 40
0.4545454545454545
 40
0.4545454545454545
 40
0.4545454545454545
 40
0.5454545454545454
 40
0.5454545454545454
 40
0.5454545454545454
 40
0.5454545454545454
 40
0.6363636363636364
 40
0.6363636363636364
 40
0.6363636363636364
 40
0.6363636363636364
 40
0.7272727272727273
 40
0.7272727272727273
 40
0.7272727272727273
 40
0.7272727272727273
 40
0.8181818181818182
 40
0.8181818181818182
 40
0.8181818181818182
 40
0.8181818181818182
 40
1.0
 40
1.0
 40
1.0
 40
1.0
 10
110.4317
 20
46.3818
 30
0.0
 10
114.4924
 20
44.006
 30
0.0
 10
119.1032
 20
44.4988
 30
0.0
 10
121.8379
 20
46.3911
 30
0.0
 10
121.8379
 20
46.3911
 30
0.0
 10
123.4614
 20
47.3196
 30
0.0
 10
125.401
 20
49.9767
 30
0.0
 10
125.0437
 20
53.5817
 30
0.0
 10
125.0437
 20
53.5817
 30
0.0
 10
124.7896
 20
55.0813
 30
0.0
 10
122.2826
 20
56.9139
 30
0.0
 10
120.9499
 20
54.321
 30
0.0
 10
120.9499
 20
54.321
 30
0.0
 10
120.1316
 20
53.3523
 30
0.0
 10
119.6751
 20
53.5638
 30
0.0
 10
119.2845
 20
54.445
 30
0.0
 10
119.2845
 20
54.445
 30
0.0
 10
118.7296
 20
55.9305
 30
0.0
 10
119.3317
 20
58.0298
 30
0.0
 10
119.3573
 20
57.6872
 30
0.0
 10
119.3573
 20
57.6872
 30
0.0
 10
117.3921
 20
58.1871
 30
0.0
 10
114.7969
 20
57.3688
 30
0.0
 10
113.8367
 20
55.9049
 30
0.0
 10
113.8367
 20
55.9049
 30
0.0
 10
112.5845
 20
53.9963
 30
0.0
 10
113.4586
 20
51.2669
 30
0.0
 10
115.4603
 20
51.7605
 30
0.0
 10
115.4603
 20
51.7605
 30
0.0
 10
115.5547
 20
56.583
 30
0.0
 10
120.085
 20
54.545
 30
0.0
 10
119.4767
 20
50.9361
 30
0.0
 10
119.4767
 20
50.9361
 30
0.0
 10
118.6646
 20
47.1118
 30
0.0
 10
114.7961
 20
46.949
 30
0.0
 10
113.1549
 20
48.629
 30
0.0
 10
113.1549
 20
48.629
 30
0.0
 10
113.0525
 20
47.6899
 30
0.0
 10
111.4903
 20
46.5437
 30
0.0
 10
110.4317
 20
46.3818
 30
0.0
  0
SPLINE
  5
7C
330
1F
100
AcDbEntity
  8
layer 1
 62
     7
100
AcDbSpline
210
0.0
220
0.0
230
1.0
 70
    11
 71
     3
 72
    28
 73
    24
 74
     0
 42
0.0000000001
 43
0.0000000001
 12
1.0
 22
0.0
 32
0.0
 13
1.0
 23
0.0
 33
0.0
 40
0.0
 40
0.0
 40
0.0
 40
0.0
 40
0.1428571428571428
 40
0.1428571428571428
 40
0.1428571428571428
 40
0.1428571428571428
 40
0.2857142857142857
 40
0.2857142857142857
 40
0.2857142857142857
 40
0.2857142857142857
 40
0.4285714285714285
 40
0.4285714285714285
 40
0.4285714285714285
 40
0.4285714285714285
 40
0.5714285714285714
 40
0.5714285714285714
 40
0.5714285714285714
 40
0.5714285714285714
 40
0.7142857142857143
 40
0.7142857142857143
 40
0.7142857142857143
 40
0.7142857142857143
 40
1.0
 40
1.0
 40
1.0
 40
1.0
 10
107.2266
 20
66.8826
 30
0.0
 10
106.1611
 20
67.8303
 30
0.0
 10
104.8018
 20
67.7412
 30
0.0
 10
104.3624
 20
66.165
 30
0.0
 10
104.3624
 20
66.165
 30
0.0
 10
104.3624
 20
66.165
 30
0.0
 10
104.3624
 20
80.0108
 30
0.0
 10
104.3624
 20
80.0108
 30
0.0
 10
104.3624
 20
80.0108
 30
0.0
 10
104.701
 20
76.1213
 30
0.0
 10
108.902
 20
74.2017
 30
0.0
 10
106.2734
 20
70.5068
 30
0.0
 10
106.2734
 20
70.5068
 30
0.0
 10
108.1092
 20
68.8688
 30
0.0
 10
109.8504
 20
69.9141
 30
0.0
 10
109.8203
 20
72.5048
 30
0.0
 10
109.8203
 20
72.5048
 30
0.0
 10
114.1653
 20
70.4837
 30
0.0
 10
113.6515
 20
66.7128
 30
0.0
 10
112.2923
 20
64.7468
 30
0.0
 10
112.2923
 20
64.7468
 30
0.0
 10
108.6649
 20
60.1088
 30
0.0
 10
105.7767
 20
64.2634
 30
0.0
 10
107.2266
 20
66.8826
 30
0.0
  0
SPLINE
  5
7D
330
1F
100
AcDbEntity
  8
layer 1
 62
     7
100
AcDbSpline
210
0.0
220
0.0
230
1.0
 70
    11
 71
     3
 72
    16
 73
    12
 74
     0
 42
0.0000000001
 43
0.0000000001
 12
1.0
 22
0.0
 32
0.0
 13
1.0
 23
0.0
 33
0.0
 40
0.0
 40
0.0
 40
0.0
 40
0.0
 40
0.25
 40
0.25
 40
0.25
 40
0.25
 40
0.5
 40
0.5
 40
0.5
 40
0.5
 40
1.0
 40
1.0
 40
1.0
 40
1.0
 10
104.3624
 20
87.7793
 30
0.0
 10
104.3624
 20
87.7793
 30
0.0
 10
104.3624
 20
100.3913
 30
0.0
 10
104.3624
 20
100.3913
 30
0.0
 10
104.3624
 20
100.3913
 30
0.0
 10
105.1127
 20
98.0286
 30
0.0
 10
106.7872
 20
96.9909
 30
0.0
 10
109.0337
 20
96.9367
 30
0.0
 10
109.0337
 20
96.9367
 30
0.0
 10
107.0816
 20
95.531
 30
0.0
 10
104.997
 20
92.0995
 30
0.0
 10
104.3624
 20
87.7793
 30
0.0
  0
SPLINE
  5
7E
330
1F
100
AcDbEntity
  8
layer 1
 62
     7
100
AcDbSpline
210
0.0
220
0.0
230
1.0
 70
    11
 71
     3
 72
    20
 73
    16
 74
     0
 42
0.0000000001
 43
0.0000000001
 12
1.0
 22
0.0
 32
0.0
 13
1.0
 23
0.0
 33
0.0
 40
0.0
 40
0.0
 40
0.0
 40
0.0
 40
0.2
 40
0.2
 40
0.2
 40
0.2
 40
0.4
 40
0.4
 40
0.4
 40
0.4
 40
0.6
 40
0.6
 40
0.6
 40
0.6
 40
1.0
 40
1.0
 40
1.0
 40
1.0
 10
133.2907
 20
15.7705
 30
0.0
 10
136.801
 20
14.3082
 30
0.0
 10
137.7535
 20
10.3568
 30
0.0
 10
137.6061
 20
8.6535
 30
0.0
 10
137.6061
 20
8.6535
 30
0.0
 10
137.7535
 20
6.951
 30
0.0
 10
136.801
 20
2.9988
 30
0.0
 10
133.2907
 20
1.5373
 30
0.0
 10
133.2907
 20
1.5373
 30
0.0
 10
134.4794
 20
5.3082
 30
0.0
 10
132.9806
 20
7.6416
 30
0.0
 10
131.3037
 20
8.6535
 30
0.0
 10
131.3037
 20
8.6535
 30
0.0
 10
132.9806
 20
9.6665
 30
0.0
 10
134.4794
 20
11.999
 30
0.0
 10
133.2907
 20
15.7705
 30
0.0
  0
SPLINE
  5
7F
330
1F
100
AcDbEntity
  8
layer 1
 62
     7
100
AcDbSpline
210
0.0
220
0.0
230
1.0
 70
    11
 71
     3
 72
    20
 73
    16
 74
     0
 42
0.0000000001
 43
0.0000000001
 12
1.0
 22
0.0
 32
0.0
 13
1.0
 23
0.0
 33
0.0
 40
0.0
 40
0.0
 40
0.0
 40
0.0
 40
0.2
 40
0.2
 40
0.2
 40
0.2
 40
0.4
 40
0.4
 40
0.4
 40
0.4
 40
0.6
 40
0.6
 40
0.6
 40
0.6
 40
1.0
 40
1.0
 40
1.0
 40
1.0
 10
106.7779
 20
32.7764
 30
0.0
 10
106.6174
 20
30.9616
 30
0.0
 10
107.387
 20
27.5819
 30
0.0
 10
108.7742
 20
25.9996
 30
0.0
 10
108.7742
 20
25.9996
 30
0.0
 10
109.3182
 20
23.3501
 30
0.0
 10
108.7966
 20
20.5084
 30
0.0
 10
104.3624
 20
17.7366
 30
0.0
 10
104.3624
 20
17.7366
 30
0.0
 10
104.3624
 20
17.7366
 30
0.0
 10
104.3624
 20
31.3024
 30
0.0
 10
104.3624
 20
31.3024
 30
0.0
 10
104.3624
 20
31.3024
 30
0.0
 10
105.2645
 20
31.5242
 30
0.0
 10
105.9519
 20
31.8519
 30
0.0
 10
106.7779
 20
32.7764
 30
0.0
  0
SPLINE
  5
80
330
1F
100
AcDbEntity
  8
layer 1
 62
     7
100
AcDbSpline
210
0.0
220
0.0
230
1.0
 70
    11
 71
     3
 72
    28
 73
    24
 74
     0
 42
0.0000000001
 43
0.0000000001
 12
1.0
 22
0.0
 32
0.0
 13
1.0
 23
0.0
 33
0.0
 40
0.0
 40
0.0
 40
0.0
 40
0.0
 40
0.1428571428571428
 40
0.1428571428571428
 40
0.1428571428571428
 40
0.1428571428571428
 40
0.2857142857142857
 40
0.2857142857142857
 40
0.2857142857142857
 40
0.2857142857142857
 40
0.4285714285714285
 40
0.4285714285714285
 40
0.4285714285714285
 40
0.4285714285714285
 40
0.5714285714285714
 40
0.5714285714285714
 40
0.5714285714285714
 40
0.5714285714285714
 40
0.7142857142857143
 40
0.7142857142857143
 40
0.7142857142857143
 40
0.7142857142857143
 40
1.0
 40
1.0
 40
1.0
 40
1.0
 10
140.5911
 20
42.9808
 30
0.0
 10
142.1179
 20
43.1557
 30
0.0
 10
145.0238
 20
44.8963
 30
0.0
 10
144.0838
 20
47.7411
 30
0.0
 10
144.0838
 20
47.7411
 30
0.0
 10
142.764
 20
51.2128
 30
0.0
 10
138.8275
 20
48.7989
 30
0.0
 10
140.8724
 20
47.2071
 30
0.0
 10
140.8724
 20
47.2071
 30
0.0
 10
140.8221
 20
45.527
 30
0.0
 10
139.1723
 20
45.2451
 30
0.0
 10
138.271
 20
46.0733
 30
0.0
 10
138.271
 20
46.0733
 30
0.0
 10
137.8039
 20
46.5034
 30
0.0
 10
137.7999
 20
47.3862
 30
0.0
 10
137.7705
 20
48.2014
 30
0.0
 10
137.7705
 20
48.2014
 30
0.0
 10
137.8287
 20
48.5896
 30
0.0
 10
137.2442
 20
48.7834
 30
0.0
 10
137.0181
 20
48.0339
 30
0.0
 10
137.0181
 20
48.0339
 30
0.0
 10
135.4705
 20
42.7427
 30
0.0
 10
138.6097
 20
42.6862
 30
0.0
 10
140.5911
 20
42.9808
 30
0.0
  0
SPLINE
  5
81
330
1F
100
AcDbEntity
  8
layer 1
 62
     7
100
AcDbSpline
210
0.0
220
0.0
230
1.0
 70
    11
 71
     3
 72
    20
 73
    16
 74
     0
 42
0.0000000001
 43
0.0000000001
 12
1.0
 22
0.0
 32
0.0
 13
1.0
 23
0.0
 33
0.0
 40
0.0
 40
0.0
 40
0.0
 40
0.0
 40
0.2
 40
0.2
 40
0.2
 40
0.2
 40
0.4
 40
0.4
 40
0.4
 40
0.4
 40
0.6
 40
0.6
 40
0.6
 40
0.6
 40
1.0
 40
1.0
 40
1.0
 40
1.0
 10
144.1148
 20
78.8786
 30
0.0
 10
145.216
 20
77.9509
 30
0.0
 10
146.8039
 20
76.6482
 30
0.0
 10
146.8124
 20
74.4235
 30
0.0
 10
146.8124
 20
74.4235
 30
0.0
 10
146.8209
 20
76.6482
 30
0.0
 10
148.4079
 20
77.9509
 30
0.0
 10
149.5098
 20
78.8786
 30
0.0
 10
149.5098
 20
78.8786
 30
0.0
 10
148.1088
 20
79.3806
 30
0.0
 10
147.2921
 20
80.5515
 30
0.0
 10
146.8124
 20
82.3268
 30
0.0
 10
146.8124
 20
82.3268
 30
0.0
 10
146.3327
 20
80.5515
 30
0.0
 10
145.5159
 20
79.3806
 30
0.0
 10
144.1148
 20
78.8786
 30
0.0
  0
SPLINE
  5
82
330
1F
100
AcDbEntity
  8
layer 1
 62
     7
100
AcDbSpline
210
0.0
220
0.0
230
1.0
 70
    11
 71
     3
 72
    56
 73
    52
 74
     0
 42
0.0000000001
 43
0.0000000001
 12
1.0
 22
0.0
 32
0.0
 13
1.0
 23
0.0
 33
0.0
 40
0.0
 40
0.0
 40
0.0
 40
0.0
 40
0.0714285714285714
 40
0.0714285714285714
 40
0.0714285714285714
 40
0.0714285714285714
 40
0.1428571428571428
 40
0.1428571428571428
 40
0.1428571428571428
 40
0.1428571428571428
 40
0.2142857142857143
 40
0.2142857142857143
 40
0.2142857142857143
 40
0.2142857142857143
 40
0.2857142857142857
 40
0.2857142857142857
 40
0.2857142857142857
 40
0.2857142857142857
 40
0.3571428571428572
 40
0.3571428571428572
 40
0.3571428571428572
 40
0.3571428571428572
 40
0.4285714285714285
 40
0.4285714285714285
 40
0.4285714285714285
 40
0.4285714285714285
 40
0.5
 40
0.5
 40
0.5
 40
0.5
 40
0.5714285714285714
 40
0.5714285714285714
 40
0.5714285714285714
 40
0.5714285714285714
 40
0.6428571428571429
 40
0.6428571428571429
 40
0.6428571428571429
 40
0.6428571428571429
 40
0.7142857142857143
 40
0.7142857142857143
 40
0.7142857142857143
 40
0.7142857142857143
 40
0.7857142857142857
 40
0.7857142857142857
 40
0.7857142857142857
 40
0.7857142857142857
 40
0.8571428571428571
 40
0.8571428571428571
 40
0.8571428571428571
 40
0.8571428571428571
 40
1.0
 40
1.0
 40
1.0
 40
1.0
 10
129.0028
 20
67.0786
 30
0.0
 10
130.2427
 20
67.453
 30
0.0
 10
131.3719
 20
68.8432
 30
0.0
 10
130.1049
 20
70.142
 30
0.0
 10
130.1049
 20
70.142
 30
0.0
 10
130.8008
 20
71.5686
 30
0.0
 10
132.3366
 20
71.3494
 30
0.0
 10
132.8745
 20
70.3999
 30
0.0
 10
132.8745
 20
70.3999
 30
0.0
 10
133.523
 20
69.257
 30
0.0
 10
133.1171
 20
67.835
 30
0.0
 10
132.8094
 20
67.0607
 30
0.0
 10
132.8094
 20
67.0607
 30
0.0
 10
135.3985
 20
66.733
 30
0.0
 10
141.4235
 20
67.7721
 30
0.0
 10
143.6871
 20
71.1292
 30
0.0
 10
143.6871
 20
71.1292
 30
0.0
 10
145.4834
 20
74.046
 30
0.0
 10
140.9468
 20
80.5315
 30
0.0
 10
135.6131
 20
73.6788
 30
0.0
 10
135.6131
 20
73.6788
 30
0.0
 10
134.2159
 20
73.3897
 30
0.0
 10
132.6907
 20
77.6424
 30
0.0
 10
135.6494
 20
78.942
 30
0.0
 10
135.6494
 20
78.942
 30
0.0
 10
134.4879
 20
80.1315
 30
0.0
 10
134.3887
 20
81.7125
 30
0.0
 10
135.5518
 20
82.6857
 30
0.0
 10
135.5518
 20
82.6857
 30
0.0
 10
134.5777
 20
82.4284
 30
0.0
 10
133.0481
 20
82.5252
 30
0.0
 10
132.0529
 20
82.8795
 30
0.0
 10
132.0529
 20
82.8795
 30
0.0
 10
128.8564
 20
82.2524
 30
0.0
 10
132.3228
 20
77.6301
 30
0.0
 10
129.4865
 20
76.4188
 30
0.0
 10
129.4865
 20
76.4188
 30
0.0
 10
131.8074
 20
76.2671
 30
0.0
 10
133.3976
 20
72.552
 30
0.0
 10
131.0922
 20
71.8414
 30
0.0
 10
131.0922
 20
71.8414
 30
0.0
 10
130.9658
 20
72.9612
 30
0.0
 10
128.8533
 20
73.9856
 30
0.0
 10
127.3949
 20
72.7466
 30
0.0
 10
127.3949
 20
72.7466
 30
0.0
 10
122.6562
 20
69.5724
 30
0.0
 10
118.9504
 20
70.7796
 30
0.0
 10
115.5107
 20
71.4392
 30
0.0
 10
115.5107
 20
71.4392
 30
0.0
 10
118.2344
 20
68.2046
 30
0.0
 10
123.3172
 20
65.7217
 30
0.0
 10
129.0028
 20
67.0786
 30
0.0
  0
SPLINE
  5
83
330
1F
100
AcDbEntity
  8
layer 1
 62
     7
100
AcDbSpline
210
0.0
220
0.0
230
1.0
 70
    11
 71
     3
 72
    36
 73
    32
 74
     0
 42
0.0000000001
 43
0.0000000001
 12
1.0
 22
0.0
 32
0.0
 13
1.0
 23
0.0
 33
0.0
 40
0.0
 40
0.0
 40
0.0
 40
0.0
 40
0.1111111111111111
 40
0.1111111111111111
 40
0.1111111111111111
 40
0.1111111111111111
 40
0.2222222222222222
 40
0.2222222222222222
 40
0.2222222222222222
 40
0.2222222222222222
 40
0.3333333333333333
 40
0.3333333333333333
 40
0.3333333333333333
 40
0.3333333333333333
 40
0.4444444444444444
 40
0.4444444444444444
 40
0.4444444444444444
 40
0.4444444444444444
 40
0.5555555555555556
 40
0.5555555555555556
 40
0.5555555555555556
 40
0.5555555555555556
 40
0.6666666666666666
 40
0.6666666666666666
 40
0.6666666666666666
 40
0.6666666666666666
 40
0.7777777777777778
 40
0.7777777777777778
 40
0.7777777777777778
 40
0.7777777777777778
 40
1.0
 40
1.0
 40
1.0
 40
1.0
 10
130.1963
 20
97.7675
 30
0.0
 10
128.7519
 20
92.5048
 30
0.0
 10
130.776
 20
88.4822
 30
0.0
 10
132.5062
 20
87.0966
 30
0.0
 10
132.5062
 20
87.0966
 30
0.0
 10
134.9465
 20
85.0788
 30
0.0
 10
137.9137
 20
87.5429
 30
0.0
 10
138.1835
 20
89.8592
 30
0.0
 10
138.1835
 20
89.8592
 30
0.0
 10
141.2678
 20
86.3102
 30
0.0
 10
138.5601
 20
83.5816
 30
0.0
 10
136.5073
 20
83.0755
 30
0.0
 10
136.5073
 20
83.0755
 30
0.0
 10
139.0971
 20
82.7484
 30
0.0
 10
140.9166
 20
79.0458
 30
0.0
 10
143.1802
 20
82.4028
 30
0.0
 10
143.1802
 20
82.4028
 30
0.0
 10
144.8688
 20
83.6885
 30
0.0
 10
145.56
 20
89.0718
 30
0.0
 10
143.4244
 20
92.2406
 30
0.0
 10
143.4244
 20
92.2406
 30
0.0
 10
140.5695
 20
96.2688
 30
0.0
 10
137.3388
 20
99.5738
 30
0.0
 10
138.0276
 20
105.8508
 30
0.0
 10
138.0276
 20
105.8508
 30
0.0
 10
133.2891
 20
102.6767
 30
0.0
 10
130.8357
 20
99.6783
 30
0.0
 10
134.5978
 20
93.8068
 30
0.0
 10
134.5978
 20
93.8068
 30
0.0
 10
133.4749
 20
92.8986
 30
0.0
 10
131.2207
 20
91.5339
 30
0.0
 10
130.1963
 20
97.7675
 30
0.0
  0
SPLINE
  5
84
330
1F
100
AcDbEntity
  8
layer 1
 62
     7
100
AcDbSpline
210
0.0
220
0.0
230
1.0
 70
    11
 71
     3
 72
    36
 73
    32
 74
     0
 42
0.0000000001
 43
0.0000000001
 12
1.0
 22
0.0
 32
0.0
 13
1.0
 23
0.0
 33
0.0
 40
0.0
 40
0.0
 40
0.0
 40
0.0
 40
0.1111111111111111
 40
0.1111111111111111
 40
0.1111111111111111
 40
0.1111111111111111
 40
0.2222222222222222
 40
0.2222222222222222
 40
0.2222222222222222
 40
0.2222222222222222
 40
0.3333333333333333
 40
0.3333333333333333
 40
0.3333333333333333
 40
0.3333333333333333
 40
0.4444444444444444
 40
0.4444444444444444
 40
0.4444444444444444
 40
0.4444444444444444
 40
0.5555555555555556
 40
0.5555555555555556
 40
0.5555555555555556
 40
0.5555555555555556
 40
0.6666666666666666
 40
0.6666666666666666
 40
0.6666666666666666
 40
0.6666666666666666
 40
0.7777777777777778
 40
0.7777777777777778
 40
0.7777777777777778
 40
0.7777777777777778
 40
1.0
 40
1.0
 40
1.0
 40
1.0
 10
117.2223
 20
105.2378
 30
0.0
 10
112.7371
 20
108.8327
 30
0.0
 10
110.6448
 20
107.9863
 30
0.0
 10
110.3626
 20
104.1854
 30
0.0
 10
110.3626
 20
104.1854
 30
0.0
 10
108.2394
 20
104.6279
 30
0.0
 10
107.941
 20
107.316
 30
0.0
 10
109.1057
 20
108.8721
 30
0.0
 10
109.1057
 20
108.8721
 30
0.0
 10
106.2401
 20
109.3929
 30
0.0
 10
105.0282
 20
108.1863
 30
0.0
 10
104.3624
 20
106.8752
 30
0.0
 10
104.3624
 20
106.8752
 30
0.0
 10
106.8624
 20
107.0843
 30
0.0
 10
108.2604
 20
105.3052
 30
0.0
 10
107.5706
 20
103.7862
 30
0.0
 10
107.5706
 20
103.7862
 30
0.0
 10
105.3234
 20
102.9246
 30
0.0
 10
106.2377
 20
100.7478
 30
0.0
 10
110.007
 20
100.3828
 30
0.0
 10
110.007
 20
100.3828
 30
0.0
 10
114.8022
 20
99.9815
 30
0.0
 10
119.0869
 20
100.5129
 30
0.0
 10
123.8016
 20
103.7934
 30
0.0
 10
123.8016
 20
103.7934
 30
0.0
 10
120.226
 20
104.421
 30
0.0
 10
118.6677
 20
104.376
 30
0.0
 10
118.4035
 20
101.5909
 30
0.0
 10
118.4035
 20
101.5909
 30
0.0
 10
116.8335
 20
101.264
 30
0.0
 10
116.0112
 20
104.0598
 30
0.0
 10
117.2223
 20
105.2378
 30
0.0
  0
SPLINE
  5
85
330
1F
100
AcDbEntity
  8
layer 1
 62
     7
100
AcDbSpline
210
0.0
220
0.0
230
1.0
 70
    11
 71
     3
 72
    76
 73
    72
 74
     0
 42
0.0000000001
 43
0.0000000001
 12
1.0
 22
0.0
 32
0.0
 13
1.0
 23
0.0
 33
0.0
 40
0.0
 40
0.0
 40
0.0
 40
0.0
 40
0.0526315789473684
 40
0.0526315789473684
 40
0.0526315789473684
 40
0.0526315789473684
 40
0.1052631578947368
 40
0.1052631578947368
 40
0.1052631578947368
 40
0.1052631578947368
 40
0.1578947368421053
 40
0.1578947368421053
 40
0.1578947368421053
 40
0.1578947368421053
 40
0.2105263157894737
 40
0.2105263157894737
 40
0.2105263157894737
 40
0.2105263157894737
 40
0.2631578947368421
 40
0.2631578947368421
 40
0.2631578947368421
 40
0.2631578947368421
 40
0.3157894736842105
 40
0.3157894736842105
 40
0.3157894736842105
 40
0.3157894736842105
 40
0.3684210526315789
 40
0.3684210526315789
 40
0.3684210526315789
 40
0.3684210526315789
 40
0.4210526315789473
 40
0.4210526315789473
 40
0.4210526315789473
 40
0.4210526315789473
 40
0.4736842105263158
 40
0.4736842105263158
 40
0.4736842105263158
 40
0.4736842105263158
 40
0.5263157894736842
 40
0.5263157894736842
 40
0.5263157894736842
 40
0.5263157894736842
 40
0.5789473684210527
 40
0.5789473684210527
 40
0.5789473684210527
 40
0.5789473684210527
 40
0.631578947368421
 40
0.631578947368421
 40
0.631578947368421
 40
0.631578947368421
 40
0.6842105263157895
 40
0.6842105263157895
 40
0.6842105263157895
 40
0.6842105263157895
 40
0.7368421052631579
 40
0.7368421052631579
 40
0.7368421052631579
 40
0.7368421052631579
 40
0.7894736842105263
 40
0.7894736842105263
 40
0.7894736842105263
 40
0.7894736842105263
 40
0.8421052631578947
 40
0.8421052631578947
 40
0.8421052631578947
 40
0.8421052631578947
 40
0.8947368421052632
 40
0.8947368421052632
 40
0.8947368421052632
 40
0.8947368421052632
 40
1.0
 40
1.0
 40
1.0
 40
1.0
 10
128.421
 20
102.7703
 30
0.0
 10
124.9965
 20
101.9714
 30
0.0
 10
121.8208
 20
97.924
 30
0.0
 10
117.8331
 20
96.4423
 30
0.0
 10
117.8331
 20
96.4423
 30
0.0
 10
116.449
 20
93.8162
 30
0.0
 10
116.2568
 20
91.1557
 30
0.0
 10
118.587
 20
89.8872
 30
0.0
 10
118.587
 20
89.8872
 30
0.0
 10
114.4396
 20
85.2057
 30
0.0
 10
111.7367
 20
92.0059
 30
0.0
 10
113.0285
 20
95.713
 30
0.0
 10
113.0285
 20
95.713
 30
0.0
 10
109.3398
 20
94.3996
 30
0.0
 10
105.5343
 20
82.8166
 30
0.0
 10
112.7766
 20
81.1258
 30
0.0
 10
112.7766
 20
81.1258
 30
0.0
 10
112.4558
 20
80.2401
 30
0.0
 10
110.0304
 20
78.1168
 30
0.0
 10
107.2917
 20
81.4714
 30
0.0
 10
107.2917
 20
81.4714
 30
0.0
 10
107.0995
 20
77.1574
 30
0.0
 10
116.5188
 20
71.4291
 30
0.0
 10
120.5772
 20
77.6216
 30
0.0
 10
120.5772
 20
77.6216
 30
0.0
 10
122.4306
 20
76.2631
 30
0.0
 10
121.2971
 20
74.1793
 30
0.0
 10
120.526
 20
73.3338
 30
0.0
 10
120.526
 20
73.3338
 30
0.0
 10
124.1651
 20
73.313
 30
0.0
 10
126.3231
 20
76.8636
 30
0.0
 10
125.9884
 20
78.7754
 30
0.0
 10
125.9884
 20
78.7754
 30
0.0
 10
125.9636
 20
79.4023
 30
0.0
 10
125.0082
 20
80.7275
 30
0.0
 10
123.9387
 20
79.9331
 30
0.0
 10
123.9387
 20
79.9331
 30
0.0
 10
125.1392
 20
76.4305
 30
0.0
 10
121.2814
 20
76.3081
 30
0.0
 10
120.8956
 20
79.6487
 30
0.0
 10
120.8956
 20
79.6487
 30
0.0
 10
120.9598
 20
83.3909
 30
0.0
 10
125.4274
 20
85.8412
 30
0.0
 10
127.725
 20
80.4206
 30
0.0
 10
127.725
 20
80.4206
 30
0.0
 10
127.2221
 20
84.5045
 30
0.0
 10
128.9548
 20
85.6436
 30
0.0
 10
130.0931
 20
85.8822
 30
0.0
 10
130.0931
 20
85.8822
 30
0.0
 10
129.87
 20
86.476
 30
0.0
 10
129.4555
 20
87.0827
 30
0.0
 10
129.0503
 20
87.6034
 30
0.0
 10
129.0503
 20
87.6034
 30
0.0
 10
128.6287
 20
87.1485
 30
0.0
 10
128.4628
 20
86.5464
 30
0.0
 10
127.4901
 20
86.207
 30
0.0
 10
127.4901
 20
86.207
 30
0.0
 10
126.9904
 20
87.0797
 30
0.0
 10
126.6044
 20
89.4291
 30
0.0
 10
127.2811
 20
93.1007
 30
0.0
 10
127.2811
 20
93.1007
 30
0.0
 10
126.5604
 20
92.2677
 30
0.0
 10
125.7668
 20
91.9081
 30
0.0
 10
125.5282
 20
92.3638
 30
0.0
 10
125.5282
 20
92.3638
 30
0.0
 10
125.5413
 20
94.8265
 30
0.0
 10
126.527
 20
96.7778
 30
0.0
 10
127.071
 20
98.1107
 30
0.0
 10
127.071
 20
98.1107
 30
0.0
 10
124.2982
 20
96.5191
 30
0.0
 10
125.501
 20
99.7583
 30
0.0
 10
128.421
 20
102.7703
 30
0.0
  0
SPLINE
  5
86
330
1F
100
AcDbEntity
  8
layer 1
 62
     7
100
AcDbSpline
210
0.0
220
0.0
230
1.0
 70
    11
 71
     3
 72
    52
 73
    48
 74
     0
 42
0.0000000001
 43
0.0000000001
 12
1.0
 22
0.0
 32
0.0
 13
1.0
 23
0.0
 33
0.0
 40
0.0
 40
0.0
 40
0.0
 40
0.0
 40
0.0769230769230769
 40
0.0769230769230769
 40
0.0769230769230769
 40
0.0769230769230769
 40
0.1538461538461539
 40
0.1538461538461539
 40
0.1538461538461539
 40
0.1538461538461539
 40
0.2307692307692308
 40
0.2307692307692308
 40
0.2307692307692308
 40
0.2307692307692308
 40
0.3076923076923077
 40
0.3076923076923077
 40
0.3076923076923077
 40
0.3076923076923077
 40
0.3846153846153846
 40
0.3846153846153846
 40
0.3846153846153846
 40
0.3846153846153846
 40
0.4615384615384616
 40
0.4615384615384616
 40
0.4615384615384616
 40
0.4615384615384616
 40
0.5384615384615384
 40
0.5384615384615384
 40
0.5384615384615384
 40
0.5384615384615384
 40
0.6153846153846154
 40
0.6153846153846154
 40
0.6153846153846154
 40
0.6153846153846154
 40
0.6923076923076923
 40
0.6923076923076923
 40
0.6923076923076923
 40
0.6923076923076923
 40
0.7692307692307693
 40
0.7692307692307693
 40
0.7692307692307693
 40
0.7692307692307693
 40
0.8461538461538461
 40
0.8461538461538461
 40
0.8461538461538461
 40
0.8461538461538461
 40
1.0
 40
1.0
 40
1.0
 40
1.0
 10
143.866
 20
22.0056
 30
0.0
 10
143.3189
 20
22.3815
 30
0.0
 10
142.6378
 20
21.8406
 30
0.0
 10
142.4176
 20
21.3377
 30
0.0
 10
142.4176
 20
21.3377
 30
0.0
 10
141.9388
 20
21.9515
 30
0.0
 10
142.3232
 20
23.3679
 30
0.0
 10
142.8563
 20
24.3195
 30
0.0
 10
142.8563
 20
24.3195
 30
0.0
 10
142.3347
 20
23.9748
 30
0.0
 10
141.7118
 20
24.0065
 30
0.0
 10
141.1785
 20
24.2801
 30
0.0
 10
141.1785
 20
24.2801
 30
0.0
 10
142.3736
 20
24.9768
 30
0.0
 10
142.7463
 20
27.2155
 30
0.0
 10
141.1383
 20
26.9582
 30
0.0
 10
141.1383
 20
26.9582
 30
0.0
 10
139.8224
 20
26.5948
 30
0.0
 10
138.4345
 20
27.0883
 30
0.0
 10
137.4341
 20
27.2363
 30
0.0
 10
137.4341
 20
27.2363
 30
0.0
 10
137.8503
 20
26.5236
 30
0.0
 10
138.4369
 20
24.3715
 30
0.0
 10
136.4995
 20
24.0561
 30
0.0
 10
136.4995
 20
24.0561
 30
0.0
 10
136.2182
 20
27.4875
 30
0.0
 10
134.9684
 20
27.4184
 30
0.0
 10
133.5208
 20
26.5793
 30
0.0
 10
133.5208
 20
26.5793
 30
0.0
 10
132.2948
 20
25.8687
 30
0.0
 10
130.9573
 20
24.5273
 30
0.0
 10
129.6236
 20
25.0976
 30
0.0
 10
129.6236
 20
25.0976
 30
0.0
 10
130.5357
 20
23.4439
 30
0.0
 10
129.819
 20
22.1845
 30
0.0
 10
128.0986
 20
22.4194
 30
0.0
 10
128.0986
 20
22.4194
 30
0.0
 10
129.3407
 20
23.7454
 30
0.0
 10
126.9742
 20
24.0358
 30
0.0
 10
125.0128
 20
22.9255
 30
0.0
 10
125.0128
 20
22.9255
 30
0.0
 10
129.8142
 20
20.1505
 30
0.0
 10
134.4026
 20
18.3937
 30
0.0
 10
141.3716
 20
18.7563
 30
0.0
 10
141.3716
 20
18.7563
 30
0.0
 10
143.7583
 20
19.1586
 30
0.0
 10
145.0083
 20
20.8796
 30
0.0
 10
143.866
 20
22.0056
 30
0.0
  0
SPLINE
  5
87
330
1F
100
AcDbEntity
  8
layer 1
 62
     7
100
AcDbSpline
210
0.0
220
0.0
230
1.0
 70
    11
 71
     3
 72
    92
 73
    88
 74
     0
 42
0.0000000001
 43
0.0000000001
 12
1.0
 22
0.0
 32
0.0
 13
1.0
 23
0.0
 33
0.0
 40
0.0
 40
0.0
 40
0.0
 40
0.0
 40
0.0434782608695652
 40
0.0434782608695652
 40
0.0434782608695652
 40
0.0434782608695652
 40
0.0869565217391304
 40
0.0869565217391304
 40
0.0869565217391304
 40
0.0869565217391304
 40
0.1304347826086956
 40
0.1304347826086956
 40
0.1304347826086956
 40
0.1304347826086956
 40
0.1739130434782609
 40
0.1739130434782609
 40
0.1739130434782609
 40
0.1739130434782609
 40
0.2173913043478261
 40
0.2173913043478261
 40
0.2173913043478261
 40
0.2173913043478261
 40
0.2608695652173913
 40
0.2608695652173913
 40
0.2608695652173913
 40
0.2608695652173913
 40
0.3043478260869565
 40
0.3043478260869565
 40
0.3043478260869565
 40
0.3043478260869565
 40
0.3478260869565217
 40
0.3478260869565217
 40
0.3478260869565217
 40
0.3478260869565217
 40
0.391304347826087
 40
0.391304347826087
 40
0.391304347826087
 40
0.391304347826087
 40
0.4347826086956522
 40
0.4347826086956522
 40
0.4347826086956522
 40
0.4347826086956522
 40
0.4782608695652174
 40
0.4782608695652174
 40
0.4782608695652174
 40
0.4782608695652174
 40
0.5217391304347826
 40
0.5217391304347826
 40
0.5217391304347826
 40
0.5217391304347826
 40
0.5652173913043478
 40
0.5652173913043478
 40
0.5652173913043478
 40
0.5652173913043478
 40
0.6086956521739131
 40
0.6086956521739131
 40
0.6086956521739131
 40
0.6086956521739131
 40
0.6521739130434783
 40
0.6521739130434783
 40
0.6521739130434783
 40
0.6521739130434783
 40
0.6956521739130435
 40
0.6956521739130435
 40
0.6956521739130435
 40
0.6956521739130435
 40
0.7391304347826086
 40
0.7391304347826086
 40
0.7391304347826086
 40
0.7391304347826086
 40
0.782608695652174
 40
0.782608695652174
 40
0.782608695652174
 40
0.782608695652174
 40
0.8260869565217391
 40
0.8260869565217391
 40
0.8260869565217391
 40
0.8260869565217391
 40
0.8695652173913043
 40
0.8695652173913043
 40
0.8695652173913043
 40
0.8695652173913043
 40
0.9130434782608695
 40
0.9130434782608695
 40
0.9130434782608695
 40
0.9130434782608695
 40
1.0
 40
1.0
 40
1.0
 40
1.0
 10
110.8145
 20
11.9276
 30
0.0
 10
112.8968
 20
7.9429
 30
0.0
 10
117.8182
 20
9.471
 30
0.0
 10
117.0319
 20
15.779
 30
0.0
 10
117.0319
 20
15.779
 30
0.0
 10
116.0158
 20
14.2082
 30
0.0
 10
113.04
 20
13.8101
 30
0.0
 10
112.6534
 20
16.4602
 30
0.0
 10
112.6534
 20
16.4602
 30
0.0
 10
115.0294
 20
17.7257
 30
0.0
 10
116.1143
 20
21.4089
 30
0.0
 10
111.3452
 20
24.4668
 30
0.0
 10
111.3452
 20
24.4668
 30
0.0
 10
112.0878
 20
22.3938
 30
0.0
 10
111.8164
 20
19.7218
 30
0.0
 10
110.2101
 20
18.8416
 30
0.0
 10
110.2101
 20
18.8416
 30
0.0
 10
109.0718
 20
17.7705
 30
0.0
 10
108.8988
 20
14.8601
 30
0.0
 10
110.8826
 20
14.6284
 30
0.0
 10
110.8826
 20
14.6284
 30
0.0
 10
109.6312
 20
12.147
 30
0.0
 10
106.2409
 20
13.4488
 30
0.0
 10
107.2048
 20
16.464
 30
0.0
 10
107.2048
 20
16.464
 30
0.0
 10
106.1193
 20
15.7659
 30
0.0
 10
105.2863
 20
13.4442
 30
0.0
 10
105.8108
 20
11.5953
 30
0.0
 10
105.8108
 20
11.5953
 30
0.0
 10
105.8046
 20
11.2234
 30
0.0
 10
106.4206
 20
11.0178
 30
0.0
 10
106.795
 20
11.5053
 30
0.0
 10
106.795
 20
11.5053
 30
0.0
 10
106.8097
 20
12.1113
 30
0.0
 10
107.7141
 20
12.8747
 30
0.0
 10
108.4836
 20
12.1027
 30
0.0
 10
108.4836
 20
12.1027
 30
0.0
 10
109.4041
 20
11.2031
 30
0.0
 10
109.3134
 20
9.0961
 30
0.0
 10
108.3364
 20
8.6535
 30
0.0
 10
108.3364
 20
8.6535
 30
0.0
 10
109.3134
 20
8.2119
 30
0.0
 10
109.4041
 20
6.1041
 30
0.0
 10
108.4836
 20
5.2044
 30
0.0
 10
108.4836
 20
5.2044
 30
0.0
 10
107.7141
 20
4.4334
 30
0.0
 10
106.8097
 20
5.1959
 30
0.0
 10
106.795
 20
5.8025
 30
0.0
 10
106.795
 20
5.8025
 30
0.0
 10
106.4206
 20
6.2892
 30
0.0
 10
105.8046
 20
6.0839
 30
0.0
 10
105.8108
 20
5.7127
 30
0.0
 10
105.8108
 20
5.7127
 30
0.0
 10
105.2863
 20
3.863
 30
0.0
 10
106.1193
 20
1.5421
 30
0.0
 10
107.2048
 20
0.8438
 30
0.0
 10
107.2048
 20
0.8438
 30
0.0
 10
106.2409
 20
3.859
 30
0.0
 10
109.6312
 20
5.1602
 30
0.0
 10
110.8826
 20
2.6788
 30
0.0
 10
110.8826
 20
2.6788
 30
0.0
 10
108.8988
 20
2.4479
 30
0.0
 10
109.0718
 20
-0.4627
 30
0.0
 10
110.2101
 20
-1.5336
 30
0.0
 10
110.2101
 20
-1.5336
 30
0.0
 10
111.8164
 20
-2.414
 30
0.0
 10
112.0878
 20
-5.0866
 30
0.0
 10
111.3452
 20
-7.159
 30
0.0
 10
111.3452
 20
-7.159
 30
0.0
 10
116.1143
 20
-4.1017
 30
0.0
 10
115.0294
 20
-0.4177
 30
0.0
 10
112.6534
 20
0.8477
 30
0.0
 10
112.6534
 20
0.8477
 30
0.0
 10
113.04
 20
3.4979
 30
0.0
 10
116.0158
 20
3.0996
 30
0.0
 10
117.0319
 20
1.528
 30
0.0
 10
117.0319
 20
1.528
 30
0.0
 10
117.8182
 20
7.836
 30
0.0
 10
112.8968
 20
9.3649
 30
0.0
 10
110.8145
 20
5.3802
 30
0.0
 10
110.8145
 20
5.3802
 30
0.0
 10
109.4917
 20
5.7266
 30
0.0
 10
109.5096
 20
7.9941
 30
0.0
 10
109.9621
 20
8.6535
 30
0.0
 10
109.9621
 20
8.6535
 30
0.0
 10
109.5096
 20
9.3139
 30
0.0
 10
109.4917
 20
11.5812
 30
0.0
 10
110.8145
 20
11.9276
 30
0.0
  0
SPLINE
  5
88
330
1F
100
AcDbEntity
  8
layer 1
 62
     7
100
AcDbSpline
210
0.0
220
0.0
230
1.0
 70
    11
 71
     3
 72
    32
 73
    28
 74
     0
 42
0.0000000001
 43
0.0000000001
 12
1.0
 22
0.0
 32
0.0
 13
1.0
 23
0.0
 33
0.0
 40
0.0
 40
0.0
 40
0.0
 40
0.0
 40
0.125
 40
0.125
 40
0.125
 40
0.125
 40
0.25
 40
0.25
 40
0.25
 40
0.25
 40
0.375
 40
0.375
 40
0.375
 40
0.375
 40
0.5
 40
0.5
 40
0.5
 40
0.5
 40
0.625
 40
0.625
 40
0.625
 40
0.625
 40
0.75
 40
0.75
 40
0.75
 40
0.75
 40
1.0
 40
1.0
 40
1.0
 40
1.0
 10
111.6375
 20
36.5704
 30
0.0
 10
113.164
 20
36.7448
 30
0.0
 10
115.4936
 20
34.8749
 30
0.0
 10
115.905
 20
33.6443
 30
0.0
 10
115.905
 20
33.6443
 30
0.0
 10
115.3827
 20
32.7291
 30
0.0
 10
114.7022
 20
32.5742
 30
0.0
 10
113.9119
 20
32.3122
 30
0.0
 10
113.9119
 20
32.3122
 30
0.0
 10
114.7039
 20
31.9612
 30
0.0
 10
115.3726
 20
32.1356
 30
0.0
 10
116.1173
 20
32.2858
 30
0.0
 10
116.1173
 20
32.2858
 30
0.0
 10
116.9791
 20
32.5609
 30
0.0
 10
117.8835
 20
34.0418
 30
0.0
 10
118.7187
 20
34.7021
 30
0.0
 10
118.7187
 20
34.7021
 30
0.0
 10
117.7169
 20
35.0213
 30
0.0
 10
117.5532
 20
36.2945
 30
0.0
 10
118.0067
 20
37.0245
 30
0.0
 10
118.0067
 20
37.0245
 30
0.0
 10
114.2722
 20
35.7057
 30
0.0
 10
112.0769
 20
37.385
 30
0.0
 10
110.5008
 20
40.7148
 30
0.0
 10
110.5008
 20
40.7148
 30
0.0
 10
110.2155
 20
39.7438
 30
0.0
 10
110.8293
 20
37.5599
 30
0.0
 10
111.6375
 20
36.5704
 30
0.0
  0
SPLINE
  5
89
330
1F
100
AcDbEntity
  8
layer 1
 62
     7
100
AcDbSpline
210
0.0
220
0.0
230
1.0
 70
    11
 71
     3
 72
    20
 73
    16
 74
     0
 42
0.0000000001
 43
0.0000000001
 12
1.0
 22
0.0
 32
0.0
 13
1.0
 23
0.0
 33
0.0
 40
0.0
 40
0.0
 40
0.0
 40
0.0
 40
0.2
 40
0.2
 40
0.2
 40
0.2
 40
0.4
 40
0.4
 40
0.4
 40
0.4
 40
0.6
 40
0.6
 40
0.6
 40
0.6
 40
1.0
 40
1.0
 40
1.0
 40
1.0
 10
119.3171
 20
34.5943
 30
0.0
 10
119.1559
 20
33.9549
 30
0.0
 10
120.1354
 20
33.6645
 30
0.0
 10
119.5511
 20
32.7291
 30
0.0
 10
119.5511
 20
32.7291
 30
0.0
 10
122.2074
 20
33.4024
 30
0.0
 10
122.3362
 20
36.4341
 30
0.0
 10
121.7976
 20
37.161
 30
0.0
 10
121.7976
 20
37.161
 30
0.0
 10
120.9731
 20
38.1884
 30
0.0
 10
119.7239
 20
37.6018
 30
0.0
 10
120.3772
 20
37.0021
 30
0.0
 10
120.3772
 20
37.0021
 30
0.0
 10
121.5195
 20
36.2627
 30
0.0
 10
120.8011
 20
34.3959
 30
0.0
 10
119.3171
 20
34.5943
 30
0.0
  0
SPLINE
  5
8A
330
1F
100
AcDbEntity
  8
layer 1
 62
     7
100
AcDbSpline
210
0.0
220
0.0
230
1.0
 70
    11
 71
     3
 72
    72
 73
    68
 74
     0
 42
0.0000000001
 43
0.0000000001
 12
1.0
 22
0.0
 32
0.0
 13
1.0
 23
0.0
 33
0.0
 40
0.0
 40
0.0
 40
0.0
 40
0.0
 40
0.0555555555555556
 40
0.0555555555555556
 40
0.0555555555555556
 40
0.0555555555555556
 40
0.1111111111111111
 40
0.1111111111111111
 40
0.1111111111111111
 40
0.1111111111111111
 40
0.1666666666666667
 40
0.1666666666666667
 40
0.1666666666666667
 40
0.1666666666666667
 40
0.2222222222222222
 40
0.2222222222222222
 40
0.2222222222222222
 40
0.2222222222222222
 40
0.2777777777777778
 40
0.2777777777777778
 40
0.2777777777777778
 40
0.2777777777777778
 40
0.3333333333333333
 40
0.3333333333333333
 40
0.3333333333333333
 40
0.3333333333333333
 40
0.3888888888888889
 40
0.3888888888888889
 40
0.3888888888888889
 40
0.3888888888888889
 40
0.4444444444444444
 40
0.4444444444444444
 40
0.4444444444444444
 40
0.4444444444444444
 40
0.5
 40
0.5
 40
0.5
 40
0.5
 40
0.5555555555555556
 40
0.5555555555555556
 40
0.5555555555555556
 40
0.5555555555555556
 40
0.6111111111111112
 40
0.6111111111111112
 40
0.6111111111111112
 40
0.6111111111111112
 40
0.6666666666666666
 40
0.6666666666666666
 40
0.6666666666666666
 40
0.6666666666666666
 40
0.7222222222222222
 40
0.7222222222222222
 40
0.7222222222222222
 40
0.7222222222222222
 40
0.7777777777777778
 40
0.7777777777777778
 40
0.7777777777777778
 40
0.7777777777777778
 40
0.8333333333333334
 40
0.8333333333333334
 40
0.8333333333333334
 40
0.8333333333333334
 40
0.8888888888888888
 40
0.8888888888888888
 40
0.8888888888888888
 40
0.8888888888888888
 40
1.0
 40
1.0
 40
1.0
 40
1.0
 10
123.0569
 20
25.2208
 30
0.0
 10
123.9387
 20
25.4317
 30
0.0
 10
129.8251
 20
26.0996
 30
0.0
 10
128.8084
 20
30.8181
 30
0.0
 10
128.8084
 20
30.8181
 30
0.0
 10
129.0991
 20
31.3768
 30
0.0
 10
132.094
 20
32.134
 30
0.0
 10
131.6935
 20
28.9909
 30
0.0
 10
131.6935
 20
28.9909
 30
0.0
 10
132.4079
 20
29.9377
 30
0.0
 10
133.1867
 20
31.0963
 30
0.0
 10
134.7692
 20
31.5621
 30
0.0
 10
134.7692
 20
31.5621
 30
0.0
 10
135.964
 20
32.2588
 30
0.0
 10
135.7052
 20
35.8715
 30
0.0
 10
133.4928
 20
34.2674
 30
0.0
 10
133.4928
 20
34.2674
 30
0.0
 10
132.5886
 20
33.2444
 30
0.0
 10
130.459
 20
32.227
 30
0.0
 10
128.7711
 20
32.9243
 30
0.0
 10
128.7711
 20
32.9243
 30
0.0
 10
126.5766
 20
34.1898
 30
0.0
 10
126.0922
 20
37.8908
 30
0.0
 10
126.875
 20
39.3624
 30
0.0
 10
126.875
 20
39.3624
 30
0.0
 10
124.423
 20
38.9742
 30
0.0
 10
122.0192
 20
40.0042
 30
0.0
 10
120.9838
 20
42.7923
 30
0.0
 10
120.9838
 20
42.7923
 30
0.0
 10
118.539
 20
41.3463
 30
0.0
 10
114.6001
 20
41.3998
 30
0.0
 10
111.7273
 20
42.9325
 30
0.0
 10
111.7273
 20
42.9325
 30
0.0
 10
112.7216
 20
41.223
 30
0.0
 10
114.3412
 20
39.0843
 30
0.0
 10
116.4685
 20
39.2641
 30
0.0
 10
116.4685
 20
39.2641
 30
0.0
 10
117.4897
 20
39.409
 30
0.0
 10
118.064
 20
41.4587
 30
0.0
 10
118.6584
 20
39.6336
 30
0.0
 10
118.6584
 20
39.6336
 30
0.0
 10
121.7192
 20
41.9926
 30
0.0
 10
124.5525
 20
37.9746
 30
0.0
 10
124.227
 20
34.7988
 30
0.0
 10
124.227
 20
34.7988
 30
0.0
 10
123.9705
 20
32.2889
 30
0.0
 10
121.3558
 20
30.0137
 30
0.0
 10
117.7292
 20
30.7235
 30
0.0
 10
117.7292
 20
30.7235
 30
0.0
 10
118.7157
 20
29.7457
 30
0.0
 10
118.5553
 20
26.0538
 30
0.0
 10
114.6652
 20
28.7413
 30
0.0
 10
114.6652
 20
28.7413
 30
0.0
 10
111.9188
 20
29.0613
 30
0.0
 10
110.4813
 20
30.9453
 30
0.0
 10
109.9723
 20
31.9479
 30
0.0
 10
109.9723
 20
31.9479
 30
0.0
 10
109.4467
 20
29.6758
 30
0.0
 10
112.7859
 20
27.7254
 30
0.0
 10
115.0635
 20
26.9691
 30
0.0
 10
115.0635
 20
26.9691
 30
0.0
 10
117.7354
 20
26.2847
 30
0.0
 10
123.4977
 20
27.3038
 30
0.0
 10
123.3103
 20
31.7543
 30
0.0
 10
123.3103
 20
31.7543
 30
0.0
 10
126.1372
 20
32.926
 30
0.0
 10
127.4142
 20
28.629
 30
0.0
 10
123.0569
 20
25.2208
 30
0.0
  0
SPLINE
  5
8B
330
1F
100
AcDbEntity
  8
layer 1
 62
     7
100
AcDbSpline
210
0.0
220
0.0
230
1.0
 70
    11
 71
     3
 72
    32
 73
    28
 74
     0
 42
0.0000000001
 43
0.0000000001
 12
1.0
 22
0.0
 32
0.0
 13
1.0
 23
0.0
 33
0.0
 40
0.0
 40
0.0
 40
0.0
 40
0.0
 40
0.125
 40
0.125
 40
0.125
 40
0.125
 40
0.25
 40
0.25
 40
0.25
 40
0.25
 40
0.375
 40
0.375
 40
0.375
 40
0.375
 40
0.5
 40
0.5
 40
0.5
 40
0.5
 40
0.625
 40
0.625
 40
0.625
 40
0.625
 40
0.75
 40
0.75
 40
0.75
 40
0.75
 40
1.0
 40
1.0
 40
1.0
 40
1.0
 10
140.8268
 20
125.6882
 30
0.0
 10
142.052
 20
124.3646
 30
0.0
 10
142.2635
 20
122.7069
 30
0.0
 10
142.3907
 20
120.5897
 30
0.0
 10
142.3907
 20
120.5897
 30
0.0
 10
142.661
 20
116.0603
 30
0.0
 10
145.5546
 20
115.872
 30
0.0
 10
146.1676
 20
117.2996
 30
0.0
 10
146.1676
 20
117.2996
 30
0.0
 10
146.469
 20
116.8802
 30
0.0
 10
146.8039
 20
116.6578
 30
0.0
 10
146.8124
 20
115.8573
 30
0.0
 10
146.8124
 20
115.8573
 30
0.0
 10
146.8209
 20
116.6578
 30
0.0
 10
147.1548
 20
116.8802
 30
0.0
 10
147.4564
 20
117.2996
 30
0.0
 10
147.4564
 20
117.2996
 30
0.0
 10
148.0701
 20
115.872
 30
0.0
 10
150.9637
 20
116.0603
 30
0.0
 10
151.2341
 20
120.5897
 30
0.0
 10
151.2341
 20
120.5897
 30
0.0
 10
151.3605
 20
122.7069
 30
0.0
 10
151.5728
 20
124.3646
 30
0.0
 10
152.798
 20
125.6882
 30
0.0
 10
152.798
 20
125.6882
 30
0.0
 10
152.798
 20
125.6882
 30
0.0
 10
140.8268
 20
125.6882
 30
0.0
 10
140.8268
 20
125.6882
 30
0.0
  0
SPLINE
  5
8C
330
1F
100
AcDbEntity
  8
layer 1
 62
     7
100
AcDbSpline
210
0.0
220
0.0
230
1.0
 70
    11
 71
     3
 72
    32
 73
    28
 74
     0
 42
0.0000000001
 43
0.0000000001
 12
1.0
 22
0.0
 32
0.0
 13
1.0
 23
0.0
 33
0.0
 40
0.0
 40
0.0
 40
0.0
 40
0.0
 40
0.125
 40
0.125
 40
0.125
 40
0.125
 40
0.25
 40
0.25
 40
0.25
 40
0.25
 40
0.375
 40
0.375
 40
0.375
 40
0.375
 40
0.5
 40
0.5
 40
0.5
 40
0.5
 40
0.625
 40
0.625
 40
0.625
 40
0.625
 40
0.75
 40
0.75
 40
0.75
 40
0.75
 40
1.0
 40
1.0
 40
1.0
 40
1.0
 10
104.3624
 20
110.4298
 30
0.0
 10
104.3624
 20
110.4298
 30
0.0
 10
104.3624
 20
119.4677
 30
0.0
 10
104.3624
 20
119.4677
 30
0.0
 10
104.3624
 20
119.4677
 30
0.0
 10
106.2937
 20
122.1475
 30
0.0
 10
109.5003
 20
118.1737
 30
0.0
 10
111.5871
 20
122.0762
 30
0.0
 10
111.5871
 20
122.0762
 30
0.0
 10
113.4485
 20
125.6882
 30
0.0
 10
116.5677
 20
122.0491
 30
0.0
 10
117.1596
 20
120.362
 30
0.0
 10
117.1596
 20
120.362
 30
0.0
 10
117.802
 20
118.3998
 30
0.0
 10
116.5288
 20
116.4131
 30
0.0
 10
115.2494
 20
117.8001
 30
0.0
 10
115.2494
 20
117.8001
 30
0.0
 10
111.3809
 20
121.3555
 30
0.0
 10
109.1547
 20
115.9806
 30
0.0
 10
109.1972
 20
112.539
 30
0.0
 10
109.1972
 20
112.539
 30
0.0
 10
108.0658
 20
113.6047
 30
0.0
 10
105.0661
 20
113.2675
 30
0.0
 10
105.2698
 20
111.2962
 30
0.0
 10
105.2698
 20
111.2962
 30
0.0
 10
104.7762
 20
111.1837
 30
0.0
 10
104.4424
 20
110.9738
 30
0.0
 10
104.3624
 20
110.4298
 30
0.0
  0
SPLINE
  5
8D
330
1F
100
AcDbEntity
  8
layer 1
 62
     7
100
AcDbSpline
210
0.0
220
0.0
230
1.0
 70
    11
 71
     3
 72
    88
 73
    84
 74
     0
 42
0.0000000001
 43
0.0000000001
 12
1.0
 22
0.0
 32
0.0
 13
1.0
 23
0.0
 33
0.0
 40
0.0
 40
0.0
 40
0.0
 40
0.0
 40
0.0454545454545455
 40
0.0454545454545455
 40
0.0454545454545455
 40
0.0454545454545455
 40
0.0909090909090909
 40
0.0909090909090909
 40
0.0909090909090909
 40
0.0909090909090909
 40
0.1363636363636364
 40
0.1363636363636364
 40
0.1363636363636364
 40
0.1363636363636364
 40
0.1818181818181818
 40
0.1818181818181818
 40
0.1818181818181818
 40
0.1818181818181818
 40
0.2272727272727273
 40
0.2272727272727273
 40
0.2272727272727273
 40
0.2272727272727273
 40
0.2727272727272727
 40
0.2727272727272727
 40
0.2727272727272727
 40
0.2727272727272727
 40
0.3181818181818182
 40
0.3181818181818182
 40
0.3181818181818182
 40
0.3181818181818182
 40
0.3636363636363636
 40
0.3636363636363636
 40
0.3636363636363636
 40
0.3636363636363636
 40
0.4090909090909091
 40
0.4090909090909091
 40
0.4090909090909091
 40
0.4090909090909091
 40
0.4545454545454545
 40
0.4545454545454545
 40
0.4545454545454545
 40
0.4545454545454545
 40
0.5
 40
0.5
 40
0.5
 40
0.5
 40
0.5454545454545454
 40
0.5454545454545454
 40
0.5454545454545454
 40
0.5454545454545454
 40
0.5909090909090909
 40
0.5909090909090909
 40
0.5909090909090909
 40
0.5909090909090909
 40
0.6363636363636364
 40
0.6363636363636364
 40
0.6363636363636364
 40
0.6363636363636364
 40
0.6818181818181818
 40
0.6818181818181818
 40
0.6818181818181818
 40
0.6818181818181818
 40
0.7272727272727273
 40
0.7272727272727273
 40
0.7272727272727273
 40
0.7272727272727273
 40
0.7727272727272727
 40
0.7727272727272727
 40
0.7727272727272727
 40
0.7727272727272727
 40
0.8181818181818182
 40
0.8181818181818182
 40
0.8181818181818182
 40
0.8181818181818182
 40
0.8636363636363636
 40
0.8636363636363636
 40
0.8636363636363636
 40
0.8636363636363636
 40
0.9090909090909091
 40
0.9090909090909091
 40
0.9090909090909091
 40
0.9090909090909091
 40
1.0
 40
1.0
 40
1.0
 40
1.0
 10
138.987
 20
122.056
 30
0.0
 10
136.2245
 20
118.4704
 30
0.0
 10
132.1546
 20
119.3795
 30
0.0
 10
131.3293
 20
122.408
 30
0.0
 10
131.3293
 20
122.408
 30
0.0
 10
134.6311
 20
122.4675
 30
0.0
 10
136.3755
 20
123.8129
 30
0.0
 10
137.0296
 20
125.6882
 30
0.0
 10
137.0296
 20
125.6882
 30
0.0
 10
137.0296
 20
125.6882
 30
0.0
 10
127.7862
 20
125.6882
 30
0.0
 10
127.7862
 20
125.6882
 30
0.0
 10
127.7862
 20
125.6882
 30
0.0
 10
127.6693
 20
122.4504
 30
0.0
 10
123.0677
 20
120.0807
 30
0.0
 10
120.8467
 20
120.7633
 30
0.0
 10
120.8467
 20
120.7633
 30
0.0
 10
121.6488
 20
116.5037
 30
0.0
 10
119.3674
 20
113.0405
 30
0.0
 10
115.54
 20
114.5818
 30
0.0
 10
115.54
 20
114.5818
 30
0.0
 10
111.7398
 20
115.8094
 30
0.0
 10
112.0529
 20
109.1628
 30
0.0
 10
115.8182
 20
108.6831
 30
0.0
 10
115.8182
 20
108.6831
 30
0.0
 10
115.7059
 20
111.3031
 30
0.0
 10
117.4998
 20
111.6898
 30
0.0
 10
118.2198
 20
111.3396
 30
0.0
 10
118.2198
 20
111.3396
 30
0.0
 10
117.695
 20
107.1619
 30
0.0
 10
121.5163
 20
106.3614
 30
0.0
 10
123.0073
 20
106.1073
 30
0.0
 10
123.0073
 20
106.1073
 30
0.0
 10
120.0223
 20
109.2999
 30
0.0
 10
122.9847
 20
113.5272
 30
0.0
 10
124.6624
 20
112.5833
 30
0.0
 10
124.6624
 20
112.5833
 30
0.0
 10
124.0193
 20
106.9163
 30
0.0
 10
128.7301
 20
105.4725
 30
0.0
 10
132.9798
 20
107.5099
 30
0.0
 10
132.9798
 20
107.5099
 30
0.0
 10
135.8526
 20
108.8876
 30
0.0
 10
138.6019
 20
112.3585
 30
0.0
 10
139.0134
 20
115.2708
 30
0.0
 10
139.0134
 20
115.2708
 30
0.0
 10
137.4829
 20
113.3125
 30
0.0
 10
136.6437
 20
112.6398
 30
0.0
 10
134.7567
 20
111.7394
 30
0.0
 10
134.7567
 20
111.7394
 30
0.0
 10
133.1782
 20
111.1303
 30
0.0
 10
131.6191
 20
109.3449
 30
0.0
 10
131.3898
 20
108.1506
 30
0.0
 10
131.3898
 20
108.1506
 30
0.0
 10
130.3195
 20
107.8709
 30
0.0
 10
130.2227
 20
109.6401
 30
0.0
 10
130.38
 20
110.8738
 30
0.0
 10
130.38
 20
110.8738
 30
0.0
 10
127.8723
 20
109.7819
 30
0.0
 10
122.7623
 20
112.2252
 30
0.0
 10
124.0326
 20
118.9888
 30
0.0
 10
124.0326
 20
118.9888
 30
0.0
 10
125.4591
 20
123.2028
 30
0.0
 10
129.5073
 20
122.6458
 30
0.0
 10
130.8512
 20
120.4426
 30
0.0
 10
130.8512
 20
120.4426
 30
0.0
 10
131.781
 20
118.9168
 30
0.0
 10
132.105
 20
115.9371
 30
0.0
 10
130.1443
 20
115.404
 30
0.0
 10
130.1443
 20
115.404
 30
0.0
 10
131.1757
 20
113.2544
 30
0.0
 10
134.5537
 20
112.9592
 30
0.0
 10
135.8246
 20
115.5729
 30
0.0
 10
135.8246
 20
115.5729
 30
0.0
 10
134.6204
 20
115.0127
 30
0.0
 10
133.6711
 20
115.1297
 30
0.0
 10
133.3115
 20
115.4094
 30
0.0
 10
133.3115
 20
115.4094
 30
0.0
 10
132.9915
 20
116.9623
 30
0.0
 10
135.3263
 20
118.7363
 30
0.0
 10
137.7751
 20
118.5046
 30
0.0
 10
137.7751
 20
118.5046
 30
0.0
 10
138.8848
 20
119.3904
 30
0.0
 10
139.3072
 20
121.2292
 30
0.0
 10
138.987
 20
122.056
 30
0.0
  0
SPLINE
  5
8E
330
1F
100
AcDbEntity
  8
layer 1
 62
     7
100
AcDbSpline
210
0.0
220
0.0
230
1.0
 70
    11
 71
     3
 72
    16
 73
    12
 74
     0
 42
0.0000000001
 43
0.0000000001
 12
1.0
 22
0.0
 32
0.0
 13
1.0
 23
0.0
 33
0.0
 40
0.0
 40
0.0
 40
0.0
 40
0.0
 40
0.25
 40
0.25
 40
0.25
 40
0.25
 40
0.5
 40
0.5
 40
0.5
 40
0.5
 40
1.0
 40
1.0
 40
1.0
 40
1.0
 10
128.8169
 20
113.8557
 30
0.0
 10
128.5689
 20
114.5012
 30
0.0
 10
128.6146
 20
115.0521
 30
0.0
 10
129.3345
 20
115.5017
 30
0.0
 10
129.3345
 20
115.5017
 30
0.0
 10
127.9722
 20
116.1557
 30
0.0
 10
127.7165
 20
117.4762
 30
0.0
 10
128.0824
 20
118.3953
 30
0.0
 10
128.0824
 20
118.3953
 30
0.0
 10
125.1973
 20
118.768
 30
0.0
 10
125.794
 20
113.5651
 30
0.0
 10
128.8169
 20
113.8557
 30
0.0
  0
SPLINE
  5
8F
330
1F
100
AcDbEntity
  8
layer 1
 62
     7
100
AcDbSpline
210
0.0
220
0.0
230
1.0
 70
    11
 71
     3
 72
    20
 73
    16
 74
     0
 42
0.0000000001
 43
0.0000000001
 12
1.0
 22
0.0
 32
0.0
 13
1.0
 23
0.0
 33
0.0
 40
0.0
 40
0.0
 40
0.0
 40
0.0
 40
0.2
 40
0.2
 40
0.2
 40
0.2
 40
0.4
 40
0.4
 40
0.4
 40
0.4
 40
0.6
 40
0.6
 40
0.6
 40
0.6
 40
1.0
 40
1.0
 40
1.0
 40
1.0
 10
155.3172
 20
51.2312
 30
0.0
 10
154.1494
 20
51.9744
 30
0.0
 10
153.1404
 20
52.2402
 30
0.0
 10
152.078
 20
52.3464
 30
0.0
 10
152.078
 20
52.3464
 30
0.0
 10
151.1216
 20
55.5857
 30
0.0
 10
150.6971
 20
60.5251
 30
0.0
 10
154.4679
 20
64.3493
 30
0.0
 10
154.4679
 20
64.3493
 30
0.0
 10
157.5482
 20
63.8712
 30
0.0
 10
159.46
 20
63.765
 30
0.0
 10
162.0094
 20
63.6589
 30
0.0
 10
162.0094
 20
63.6589
 30
0.0
 10
156.7515
 20
60.7909
 30
0.0
 10
154.2021
 20
55.1082
 30
0.0
 10
155.3172
 20
51.2312
 30
0.0
  0
SPLINE
  5
90
330
1F
100
AcDbEntity
  8
layer 1
 62
     7
100
AcDbSpline
210
0.0
220
0.0
230
1.0
 70
    11
 71
     3
 72
    28
 73
    24
 74
     0
 42
0.0000000001
 43
0.0000000001
 12
1.0
 22
0.0
 32
0.0
 13
1.0
 23
0.0
 33
0.0
 40
0.0
 40
0.0
 40
0.0
 40
0.0
 40
0.1428571428571428
 40
0.1428571428571428
 40
0.1428571428571428
 40
0.1428571428571428
 40
0.2857142857142857
 40
0.2857142857142857
 40
0.2857142857142857
 40
0.2857142857142857
 40
0.4285714285714285
 40
0.4285714285714285
 40
0.4285714285714285
 40
0.4285714285714285
 40
0.5714285714285714
 40
0.5714285714285714
 40
0.5714285714285714
 40
0.5714285714285714
 40
0.7142857142857143
 40
0.7142857142857143
 40
0.7142857142857143
 40
0.7142857142857143
 40
1.0
 40
1.0
 40
1.0
 40
1.0
 10
151.2821
 20
65.411
 30
0.0
 10
146.8209
 20
61.534
 30
0.0
 10
148.7861
 20
53.9923
 30
0.0
 10
150.2198
 20
52.1869
 30
0.0
 10
150.2198
 20
52.1869
 30
0.0
 10
148.5202
 20
51.7621
 30
0.0
 10
147.6702
 20
50.9656
 30
0.0
 10
146.8124
 20
49.8503
 30
0.0
 10
146.8124
 20
49.8503
 30
0.0
 10
145.9538
 20
50.9656
 30
0.0
 10
145.1043
 20
51.7621
 30
0.0
 10
143.405
 20
52.1869
 30
0.0
 10
143.405
 20
52.1869
 30
0.0
 10
144.8387
 20
53.9923
 30
0.0
 10
146.8039
 20
61.534
 30
0.0
 10
142.3425
 20
65.411
 30
0.0
 10
142.3425
 20
65.411
 30
0.0
 10
143.5639
 20
65.3582
 30
0.0
 10
145.7413
 20
66.9516
 30
0.0
 10
146.8124
 20
69.6064
 30
0.0
 10
146.8124
 20
69.6064
 30
0.0
 10
147.8832
 20
66.9516
 30
0.0
 10
150.0601
 20
65.3582
 30
0.0
 10
151.2821
 20
65.411
 30
0.0
  0
SPLINE
  5
91
330
1F
100
AcDbEntity
  8
layer 1
 62
     7
100
AcDbSpline
210
0.0
220
0.0
230
1.0
 70
    11
 71
     3
 72
    24
 73
    20
 74
     0
 42
0.0000000001
 43
0.0000000001
 12
1.0
 22
0.0
 32
0.0
 13
1.0
 23
0.0
 33
0.0
 40
0.0
 40
0.0
 40
0.0
 40
0.0
 40
0.1666666666666667
 40
0.1666666666666667
 40
0.1666666666666667
 40
0.1666666666666667
 40
0.3333333333333333
 40
0.3333333333333333
 40
0.3333333333333333
 40
0.3333333333333333
 40
0.5
 40
0.5
 40
0.5
 40
0.5
 40
0.6666666666666666
 40
0.6666666666666666
 40
0.6666666666666666
 40
0.6666666666666666
 40
1.0
 40
1.0
 40
1.0
 40
1.0
 10
170.1882
 20
43.4239
 30
0.0
 10
163.6026
 20
38.4844
 30
0.0
 10
153.6713
 20
50.2217
 30
0.0
 10
159.8846
 20
58.029
 30
0.0
 10
159.8846
 20
58.029
 30
0.0
 10
159.7118
 20
53.7577
 30
0.0
 10
163.9631
 20
52.369
 30
0.0
 10
164.7798
 20
55.4772
 30
0.0
 10
164.7798
 20
55.4772
 30
0.0
 10
162.7766
 20
55.5586
 30
0.0
 10
162.5605
 20
58.6164
 30
0.0
 10
163.337
 20
59.888
 30
0.0
 10
163.337
 20
59.888
 30
0.0
 10
164.9836
 20
63.8178
 30
0.0
 10
170.4004
 20
63.6589
 30
0.0
 10
167.851
 20
58.0818
 30
0.0
 10
167.851
 20
58.0818
 30
0.0
 10
162.5403
 20
50.3812
 30
0.0
 10
167.6921
 20
44.8048
 30
0.0
 10
170.1882
 20
43.4239
 30
0.0
  0
SPLINE
  5
92
330
1F
100
AcDbEntity
  8
layer 1
 62
     7
100
AcDbSpline
210
0.0
220
0.0
230
1.0
 70
    11
 71
     3
 72
    20
 73
    16
 74
     0
 42
0.0000000001
 43
0.0000000001
 12
1.0
 22
0.0
 32
0.0
 13
1.0
 23
0.0
 33
0.0
 40
0.0
 40
0.0
 40
0.0
 40
0.0
 40
0.2
 40
0.2
 40
0.2
 40
0.2
 40
0.4
 40
0.4
 40
0.4
 40
0.4
 40
0.6
 40
0.6
 40
0.6
 40
0.6
 40
1.0
 40
1.0
 40
1.0
 40
1.0
 10
148.2544
 20
42.5211
 30
0.0
 10
147.6238
 20
43.0805
 30
0.0
 10
147.0633
 20
43.4805
 30
0.0
 10
146.8124
 20
44.4863
 30
0.0
 10
146.8124
 20
44.4863
 30
0.0
 10
146.5604
 20
43.4805
 30
0.0
 10
146.001
 20
43.0805
 30
0.0
 10
145.3693
 20
42.5211
 30
0.0
 10
145.3693
 20
42.5211
 30
0.0
 10
146.2149
 20
42.1638
 30
0.0
 10
146.4823
 20
41.8593
 30
0.0
 10
146.8124
 20
40.6621
 30
0.0
 10
146.8124
 20
40.6621
 30
0.0
 10
147.1417
 20
41.8593
 30
0.0
 10
147.4097
 20
42.1638
 30
0.0
 10
148.2544
 20
42.5211
 30
0.0
  0
SPLINE
  5
93
330
1F
100
AcDbEntity
  8
layer 1
 62
     7
100
AcDbSpline
210
0.0
220
0.0
230
1.0
 70
    11
 71
     3
 72
    84
 73
    80
 74
     0
 42
0.0000000001
 43
0.0000000001
 12
1.0
 22
0.0
 32
0.0
 13
1.0
 23
0.0
 33
0.0
 40
0.0
 40
0.0
 40
0.0
 40
0.0
 40
0.0476190476190476
 40
0.0476190476190476
 40
0.0476190476190476
 40
0.0476190476190476
 40
0.0952380952380952
 40
0.0952380952380952
 40
0.0952380952380952
 40
0.0952380952380952
 40
0.1428571428571428
 40
0.1428571428571428
 40
0.1428571428571428
 40
0.1428571428571428
 40
0.1904761904761905
 40
0.1904761904761905
 40
0.1904761904761905
 40
0.1904761904761905
 40
0.2380952380952381
 40
0.2380952380952381
 40
0.2380952380952381
 40
0.2380952380952381
 40
0.2857142857142857
 40
0.2857142857142857
 40
0.2857142857142857
 40
0.2857142857142857
 40
0.3333333333333333
 40
0.3333333333333333
 40
0.3333333333333333
 40
0.3333333333333333
 40
0.3809523809523809
 40
0.3809523809523809
 40
0.3809523809523809
 40
0.3809523809523809
 40
0.4285714285714285
 40
0.4285714285714285
 40
0.4285714285714285
 40
0.4285714285714285
 40
0.4761904761904762
 40
0.4761904761904762
 40
0.4761904761904762
 40
0.4761904761904762
 40
0.5238095238095238
 40
0.5238095238095238
 40
0.5238095238095238
 40
0.5238095238095238
 40
0.5714285714285714
 40
0.5714285714285714
 40
0.5714285714285714
 40
0.5714285714285714
 40
0.6190476190476191
 40
0.6190476190476191
 40
0.6190476190476191
 40
0.6190476190476191
 40
0.6666666666666666
 40
0.6666666666666666
 40
0.6666666666666666
 40
0.6666666666666666
 40
0.7142857142857143
 40
0.7142857142857143
 40
0.7142857142857143
 40
0.7142857142857143
 40
0.7619047619047619
 40
0.7619047619047619
 40
0.7619047619047619
 40
0.7619047619047619
 40
0.8095238095238095
 40
0.8095238095238095
 40
0.8095238095238095
 40
0.8095238095238095
 40
0.8571428571428571
 40
0.8571428571428571
 40
0.8571428571428571
 40
0.8571428571428571
 40
0.9047619047619048
 40
0.9047619047619048
 40
0.9047619047619048
 40
0.9047619047619048
 40
1.0
 40
1.0
 40
1.0
 40
1.0
 10
149.0402
 20
25.8338
 30
0.0
 10
148.1747
 20
26.7908
 30
0.0
 10
148.5165
 20
29.6316
 30
0.0
 10
151.2179
 20
29.7844
 30
0.0
 10
151.2179
 20
29.7844
 30
0.0
 10
149.6959
 20
31.1691
 30
0.0
 10
151.9378
 20
32.1401
 30
0.0
 10
154.6616
 20
31.9116
 30
0.0
 10
154.6616
 20
31.9116
 30
0.0
 10
152.6119
 20
35.4081
 30
0.0
 10
157.6567
 20
40.4535
 30
0.0
 10
161.4212
 20
36.6758
 30
0.0
 10
161.4212
 20
36.6758
 30
0.0
 10
161.5879
 20
36.4736
 30
0.0
 10
162.4187
 20
35.498
 30
0.0
 10
163.2703
 20
36.7859
 30
0.0
 10
163.2703
 20
36.7859
 30
0.0
 10
163.8018
 20
37.8692
 30
0.0
 10
163.7306
 20
38.9238
 30
0.0
 10
163.3237
 20
39.8568
 30
0.0
 10
163.3237
 20
39.8568
 30
0.0
 10
161.4361
 20
40.762
 30
0.0
 10
159.8606
 20
41.8942
 30
0.0
 10
158.8337
 20
43.2496
 30
0.0
 10
158.8337
 20
43.2496
 30
0.0
 10
158.0503
 20
39.2262
 30
0.0
 10
154.9234
 20
39.6747
 30
0.0
 10
149.9447
 20
40.2685
 30
0.0
 10
149.9447
 20
40.2685
 30
0.0
 10
148.3072
 20
40.1669
 30
0.0
 10
148.8783
 20
37.4709
 30
0.0
 10
150.6358
 20
37.2051
 30
0.0
 10
150.6358
 20
37.2051
 30
0.0
 10
150.4816
 20
35.8041
 30
0.0
 10
148.2195
 20
35.2359
 30
0.0
 10
146.8124
 20
37.2175
 30
0.0
 10
146.8124
 20
37.2175
 30
0.0
 10
145.4043
 20
35.2359
 30
0.0
 10
143.1431
 20
35.8041
 30
0.0
 10
142.988
 20
37.2051
 30
0.0
 10
142.988
 20
37.2051
 30
0.0
 10
144.7464
 20
37.4709
 30
0.0
 10
145.3176
 20
40.1669
 30
0.0
 10
143.6793
 20
40.2685
 30
0.0
 10
143.6793
 20
40.2685
 30
0.0
 10
138.7011
 20
39.6747
 30
0.0
 10
135.5742
 20
39.2262
 30
0.0
 10
134.7908
 20
43.2496
 30
0.0
 10
134.7908
 20
43.2496
 30
0.0
 10
133.7632
 20
41.8942
 30
0.0
 10
132.1878
 20
40.762
 30
0.0
 10
130.3008
 20
39.8568
 30
0.0
 10
130.3008
 20
39.8568
 30
0.0
 10
129.894
 20
38.9238
 30
0.0
 10
129.8227
 20
37.8692
 30
0.0
 10
130.3544
 20
36.7859
 30
0.0
 10
130.3544
 20
36.7859
 30
0.0
 10
131.2061
 20
35.498
 30
0.0
 10
132.0367
 20
36.4736
 30
0.0
 10
132.2025
 20
36.6758
 30
0.0
 10
132.2025
 20
36.6758
 30
0.0
 10
135.9672
 20
40.4535
 30
0.0
 10
141.0127
 20
35.4081
 30
0.0
 10
138.963
 20
31.9116
 30
0.0
 10
138.963
 20
31.9116
 30
0.0
 10
141.6862
 20
32.1401
 30
0.0
 10
143.9289
 20
31.1691
 30
0.0
 10
142.4069
 20
29.7844
 30
0.0
 10
142.4069
 20
29.7844
 30
0.0
 10
145.1083
 20
29.6316
 30
0.0
 10
145.4501
 20
26.7908
 30
0.0
 10
144.5836
 20
25.8338
 30
0.0
 10
144.5836
 20
25.8338
 30
0.0
 10
145.9746
 20
26.3359
 30
0.0
 10
146.8039
 20
25.0619
 30
0.0
 10
146.8124
 20
23.8902
 30
0.0
 10
146.8124
 20
23.8902
 30
0.0
 10
146.8209
 20
25.0619
 30
0.0
 10
147.65
 20
26.3359
 30
0.0
 10
149.0402
 20
25.8338
 30
0.0
  0
SPLINE
  5
94
330
1F
100
AcDbEntity
  8
layer 1
 62
     7
100
AcDbSpline
210
0.0
220
0.0
230
1.0
 70
    11
 71
     3
 72
    16
 73
    12
 74
     0
 42
0.0000000001
 43
0.0000000001
 12
1.0
 22
0.0
 32
0.0
 13
1.0
 23
0.0
 33
0.0
 40
0.0
 40
0.0
 40
0.0
 40
0.0
 40
0.25
 40
0.25
 40
0.25
 40
0.25
 40
0.5
 40
0.5
 40
0.5
 40
0.5
 40
1.0
 40
1.0
 40
1.0
 40
1.0
 10
185.6254
 20
41.1495
 30
0.0
 10
185.5976
 20
37.1594
 30
0.0
 10
188.2332
 20
35.4895
 30
0.0
 10
189.2621
 20
36.1256
 30
0.0
 10
189.2621
 20
36.1256
 30
0.0
 10
189.2621
 20
36.1256
 30
0.0
 10
189.2621
 20
48.172
 30
0.0
 10
189.2621
 20
48.172
 30
0.0
 10
189.2621
 20
48.172
 30
0.0
 10
186.8645
 20
47.6457
 30
0.0
 10
185.679
 20
44.2369
 30
0.0
 10
185.6254
 20
41.1495
 30
0.0
  0
SPLINE
  5
95
330
1F
100
AcDbEntity
  8
layer 1
 62
     7
100
AcDbSpline
210
0.0
220
0.0
230
1.0
 70
    11
 71
     3
 72
    24
 73
    20
 74
     0
 42
0.0000000001
 43
0.0000000001
 12
1.0
 22
0.0
 32
0.0
 13
1.0
 23
0.0
 33
0.0
 40
0.0
 40
0.0
 40
0.0
 40
0.0
 40
0.1666666666666667
 40
0.1666666666666667
 40
0.1666666666666667
 40
0.1666666666666667
 40
0.3333333333333333
 40
0.3333333333333333
 40
0.3333333333333333
 40
0.3333333333333333
 40
0.5
 40
0.5
 40
0.5
 40
0.5
 40
0.6666666666666666
 40
0.6666666666666666
 40
0.6666666666666666
 40
0.6666666666666666
 40
1.0
 40
1.0
 40
1.0
 40
1.0
 10
182.2569
 20
49.9031
 30
0.0
 10
186.2888
 20
48.12
 30
0.0
 10
188.1766
 20
50.8198
 30
0.0
 10
189.2621
 20
52.7393
 30
0.0
 10
189.2621
 20
52.7393
 30
0.0
 10
189.2621
 20
52.7393
 30
0.0
 10
189.2621
 20
61.7975
 30
0.0
 10
189.2621
 20
61.7975
 30
0.0
 10
189.2621
 20
61.7975
 30
0.0
 10
187.5815
 20
58.1274
 30
0.0
 10
182.6396
 20
57.0379
 30
0.0
 10
179.7515
 20
61.7215
 30
0.0
 10
179.7515
 20
61.7215
 30
0.0
 10
178.9007
 20
61.6092
 30
0.0
 10
177.5654
 20
61.186
 30
0.0
 10
176.7215
 20
60.7181
 30
0.0
 10
176.7215
 20
60.7181
 30
0.0
 10
183.4323
 20
59.8392
 30
0.0
 10
184.5298
 20
51.9823
 30
0.0
 10
182.2569
 20
49.9031
 30
0.0
  0
SPLINE
  5
96
330
1F
100
AcDbEntity
  8
layer 1
 62
     7
100
AcDbSpline
210
0.0
220
0.0
230
1.0
 70
    11
 71
     3
 72
    20
 73
    16
 74
     0
 42
0.0000000001
 43
0.0000000001
 12
1.0
 22
0.0
 32
0.0
 13
1.0
 23
0.0
 33
0.0
 40
0.0
 40
0.0
 40
0.0
 40
0.0
 40
0.2
 40
0.2
 40
0.2
 40
0.2
 40
0.4
 40
0.4
 40
0.4
 40
0.4
 40
0.6
 40
0.6
 40
0.6
 40
0.6
 40
1.0
 40
1.0
 40
1.0
 40
1.0
 10
178.7124
 20
63.8503
 30
0.0
 10
175.701
 20
63.7146
 30
0.0
 10
172.9615
 20
62.1083
 30
0.0
 10
171.7581
 20
60.9954
 30
0.0
 10
171.7581
 20
60.9954
 30
0.0
 10
171.5675
 20
62.1083
 30
0.0
 10
171.0296
 20
63.1342
 30
0.0
 10
170.1492
 20
63.7821
 30
0.0
 10
170.1492
 20
63.7821
 30
0.0
 10
174.1659
 20
64.3532
 30
0.0
 10
176.5596
 20
66.5719
 30
0.0
 10
177.5778
 20
67.7706
 30
0.0
 10
177.5778
 20
67.7706
 30
0.0
 10
177.6227
 20
66.4904
 30
0.0
 10
178.1923
 20
64.5508
 30
0.0
 10
178.7124
 20
63.8503
 30
0.0
  0
SPLINE
  5
97
330
1F
100
AcDbEntity
  8
layer 1
 62
     7
100
AcDbSpline
210
0.0
220
0.0
230
1.0
 70
    11
 71
     3
 72
    44
 73
    40
 74
     0
 42
0.0000000001
 43
0.0000000001
 12
1.0
 22
0.0
 32
0.0
 13
1.0
 23
0.0
 33
0.0
 40
0.0
 40
0.0
 40
0.0
 40
0.0
 40
0.0909090909090909
 40
0.0909090909090909
 40
0.0909090909090909
 40
0.0909090909090909
 40
0.1818181818181818
 40
0.1818181818181818
 40
0.1818181818181818
 40
0.1818181818181818
 40
0.2727272727272727
 40
0.2727272727272727
 40
0.2727272727272727
 40
0.2727272727272727
 40
0.3636363636363636
 40
0.3636363636363636
 40
0.3636363636363636
 40
0.3636363636363636
 40
0.4545454545454545
 40
0.4545454545454545
 40
0.4545454545454545
 40
0.4545454545454545
 40
0.5454545454545454
 40
0.5454545454545454
 40
0.5454545454545454
 40
0.5454545454545454
 40
0.6363636363636364
 40
0.6363636363636364
 40
0.6363636363636364
 40
0.6363636363636364
 40
0.7272727272727273
 40
0.7272727272727273
 40
0.7272727272727273
 40
0.7272727272727273
 40
0.8181818181818182
 40
0.8181818181818182
 40
0.8181818181818182
 40
0.8181818181818182
 40
1.0
 40
1.0
 40
1.0
 40
1.0
 10
183.1929
 20
46.3818
 30
0.0
 10
179.1324
 20
44.006
 30
0.0
 10
174.5216
 20
44.4988
 30
0.0
 10
171.7859
 20
46.3911
 30
0.0
 10
171.7859
 20
46.3911
 30
0.0
 10
170.1634
 20
47.3196
 30
0.0
 10
168.2236
 20
49.9767
 30
0.0
 10
168.58
 20
53.5817
 30
0.0
 10
168.58
 20
53.5817
 30
0.0
 10
168.835
 20
55.0813
 30
0.0
 10
171.3411
 20
56.9139
 30
0.0
 10
172.6748
 20
54.321
 30
0.0
 10
172.6748
 20
54.321
 30
0.0
 10
173.4932
 20
53.3523
 30
0.0
 10
173.9497
 20
53.5638
 30
0.0
 10
174.3395
 20
54.445
 30
0.0
 10
174.3395
 20
54.445
 30
0.0
 10
174.895
 20
55.9305
 30
0.0
 10
174.2929
 20
58.0298
 30
0.0
 10
174.2673
 20
57.6872
 30
0.0
 10
174.2673
 20
57.6872
 30
0.0
 10
176.2326
 20
58.1871
 30
0.0
 10
178.8279
 20
57.3688
 30
0.0
 10
179.7879
 20
55.9049
 30
0.0
 10
179.7879
 20
55.9049
 30
0.0
 10
181.0395
 20
53.9963
 30
0.0
 10
180.1661
 20
51.2669
 30
0.0
 10
178.1637
 20
51.7605
 30
0.0
 10
178.1637
 20
51.7605
 30
0.0
 10
178.0691
 20
56.583
 30
0.0
 10
173.5396
 20
54.545
 30
0.0
 10
174.1481
 20
50.9361
 30
0.0
 10
174.1481
 20
50.9361
 30
0.0
 10
174.9594
 20
47.1118
 30
0.0
 10
178.8279
 20
46.949
 30
0.0
 10
180.4699
 20
48.629
 30
0.0
 10
180.4699
 20
48.629
 30
0.0
 10
180.5714
 20
47.6899
 30
0.0
 10
182.1345
 20
46.5437
 30
0.0
 10
183.1929
 20
46.3818
 30
0.0
  0
SPLINE
  5
98
330
1F
100
AcDbEntity
  8
layer 1
 62
     7
100
AcDbSpline
210
0.0
220
0.0
230
1.0
 70
    11
 71
     3
 72
    28
 73
    24
 74
     0
 42
0.0000000001
 43
0.0000000001
 12
1.0
 22
0.0
 32
0.0
 13
1.0
 23
0.0
 33
0.0
 40
0.0
 40
0.0
 40
0.0
 40
0.0
 40
0.1428571428571428
 40
0.1428571428571428
 40
0.1428571428571428
 40
0.1428571428571428
 40
0.2857142857142857
 40
0.2857142857142857
 40
0.2857142857142857
 40
0.2857142857142857
 40
0.4285714285714285
 40
0.4285714285714285
 40
0.4285714285714285
 40
0.4285714285714285
 40
0.5714285714285714
 40
0.5714285714285714
 40
0.5714285714285714
 40
0.5714285714285714
 40
0.7142857142857143
 40
0.7142857142857143
 40
0.7142857142857143
 40
0.7142857142857143
 40
1.0
 40
1.0
 40
1.0
 40
1.0
 10
186.3973
 20
66.8826
 30
0.0
 10
187.4637
 20
67.8303
 30
0.0
 10
188.8227
 20
67.7412
 30
0.0
 10
189.2621
 20
66.165
 30
0.0
 10
189.2621
 20
66.165
 30
0.0
 10
189.2621
 20
66.165
 30
0.0
 10
189.2621
 20
80.0108
 30
0.0
 10
189.2621
 20
80.0108
 30
0.0
 10
189.2621
 20
80.0108
 30
0.0
 10
188.9227
 20
76.1213
 30
0.0
 10
184.7226
 20
74.2017
 30
0.0
 10
187.3504
 20
70.5068
 30
0.0
 10
187.3504
 20
70.5068
 30
0.0
 10
185.5153
 20
68.8688
 30
0.0
 10
183.7741
 20
69.9141
 30
0.0
 10
183.8043
 20
72.5048
 30
0.0
 10
183.8043
 20
72.5048
 30
0.0
 10
179.4585
 20
70.4837
 30
0.0
 10
179.9731
 20
66.7128
 30
0.0
 10
181.3324
 20
64.7468
 30
0.0
 10
181.3324
 20
64.7468
 30
0.0
 10
184.959
 20
60.1088
 30
0.0
 10
187.8479
 20
64.2634
 30
0.0
 10
186.3973
 20
66.8826
 30
0.0
  0
SPLINE
  5
99
330
1F
100
AcDbEntity
  8
layer 1
 62
     7
100
AcDbSpline
210
0.0
220
0.0
230
1.0
 70
    11
 71
     3
 72
    16
 73
    12
 74
     0
 42
0.0000000001
 43
0.0000000001
 12
1.0
 22
0.0
 32
0.0
 13
1.0
 23
0.0
 33
0.0
 40
0.0
 40
0.0
 40
0.0
 40
0.0
 40
0.25
 40
0.25
 40
0.25
 40
0.25
 40
0.5
 40
0.5
 40
0.5
 40
0.5
 40
1.0
 40
1.0
 40
1.0
 40
1.0
 10
189.2621
 20
87.7793
 30
0.0
 10
189.2621
 20
87.7793
 30
0.0
 10
189.2621
 20
100.3913
 30
0.0
 10
189.2621
 20
100.3913
 30
0.0
 10
189.2621
 20
100.3913
 30
0.0
 10
188.5121
 20
98.0286
 30
0.0
 10
186.8368
 20
96.9909
 30
0.0
 10
184.5901
 20
96.9367
 30
0.0
 10
184.5901
 20
96.9367
 30
0.0
 10
186.5422
 20
95.531
 30
0.0
 10
188.6268
 20
92.0995
 30
0.0
 10
189.2621
 20
87.7793
 30
0.0
  0
SPLINE
  5
9A
330
1F
100
AcDbEntity
  8
layer 1
 62
     7
100
AcDbSpline
210
0.0
220
0.0
230
1.0
 70
    11
 71
     3
 72
    24
 73
    20
 74
     0
 42
0.0000000001
 43
0.0000000001
 12
1.0
 22
0.0
 32
0.0
 13
1.0
 23
0.0
 33
0.0
 40
0.0
 40
0.0
 40
0.0
 40
0.0
 40
0.1666666666666667
 40
0.1666666666666667
 40
0.1666666666666667
 40
0.1666666666666667
 40
0.3333333333333333
 40
0.3333333333333333
 40
0.3333333333333333
 40
0.3333333333333333
 40
0.5
 40
0.5
 40
0.5
 40
0.5
 40
0.6666666666666666
 40
0.6666666666666666
 40
0.6666666666666666
 40
0.6666666666666666
 40
1.0
 40
1.0
 40
1.0
 40
1.0
 10
154.8855
 20
15.0769
 30
0.0
 10
153.3078
 20
13.4426
 30
0.0
 10
152.35
 20
12.2679
 30
0.0
 10
152.7026
 20
9.7811
 30
0.0
 10
152.7026
 20
9.7811
 30
0.0
 10
148.5008
 20
11.214
 30
0.0
 10
145.1462
 20
11.0823
 30
0.0
 10
140.922
 20
9.7811
 30
0.0
 10
140.922
 20
9.7811
 30
0.0
 10
141.2747
 20
12.2679
 30
0.0
 10
140.317
 20
13.4426
 30
0.0
 10
138.7384
 20
15.0769
 30
0.0
 10
138.7384
 20
15.0769
 30
0.0
 10
142.3224
 20
15.0243
 30
0.0
 10
145.5811
 20
15.0553
 30
0.0
 10
146.8124
 20
18.9928
 30
0.0
 10
146.8124
 20
18.9928
 30
0.0
 10
148.0429
 20
15.0553
 30
0.0
 10
151.3016
 20
15.0243
 30
0.0
 10
154.8855
 20
15.0769
 30
0.0
  0
SPLINE
  5
9B
330
1F
100
AcDbEntity
  8
layer 1
 62
     7
100
AcDbSpline
210
0.0
220
0.0
230
1.0
 70
    11
 71
     3
 72
    76
 73
    72
 74
     0
 42
0.0000000001
 43
0.0000000001
 12
1.0
 22
0.0
 32
0.0
 13
1.0
 23
0.0
 33
0.0
 40
0.0
 40
0.0
 40
0.0
 40
0.0
 40
0.0526315789473684
 40
0.0526315789473684
 40
0.0526315789473684
 40
0.0526315789473684
 40
0.1052631578947368
 40
0.1052631578947368
 40
0.1052631578947368
 40
0.1052631578947368
 40
0.1578947368421053
 40
0.1578947368421053
 40
0.1578947368421053
 40
0.1578947368421053
 40
0.2105263157894737
 40
0.2105263157894737
 40
0.2105263157894737
 40
0.2105263157894737
 40
0.2631578947368421
 40
0.2631578947368421
 40
0.2631578947368421
 40
0.2631578947368421
 40
0.3157894736842105
 40
0.3157894736842105
 40
0.3157894736842105
 40
0.3157894736842105
 40
0.3684210526315789
 40
0.3684210526315789
 40
0.3684210526315789
 40
0.3684210526315789
 40
0.4210526315789473
 40
0.4210526315789473
 40
0.4210526315789473
 40
0.4210526315789473
 40
0.4736842105263158
 40
0.4736842105263158
 40
0.4736842105263158
 40
0.4736842105263158
 40
0.5263157894736842
 40
0.5263157894736842
 40
0.5263157894736842
 40
0.5263157894736842
 40
0.5789473684210527
 40
0.5789473684210527
 40
0.5789473684210527
 40
0.5789473684210527
 40
0.631578947368421
 40
0.631578947368421
 40
0.631578947368421
 40
0.631578947368421
 40
0.6842105263157895
 40
0.6842105263157895
 40
0.6842105263157895
 40
0.6842105263157895
 40
0.7368421052631579
 40
0.7368421052631579
 40
0.7368421052631579
 40
0.7368421052631579
 40
0.7894736842105263
 40
0.7894736842105263
 40
0.7894736842105263
 40
0.7894736842105263
 40
0.8421052631578947
 40
0.8421052631578947
 40
0.8421052631578947
 40
0.8421052631578947
 40
0.8947368421052632
 40
0.8947368421052632
 40
0.8947368421052632
 40
0.8947368421052632
 40
1.0
 40
1.0
 40
1.0
 40
1.0
 10
166.7002
 20
10.3872
 30
0.0
 10
162.1062
 20
9.5448
 30
0.0
 10
163.3555
 20
16.3975
 30
0.0
 10
164.8737
 20
17.2793
 30
0.0
 10
164.8737
 20
17.2793
 30
0.0
 10
167.6022
 20
18.2627
 30
0.0
 10
170.7833
 20
19.697
 30
0.0
 10
172.7074
 20
21.6043
 30
0.0
 10
172.7074
 20
21.6043
 30
0.0
 10
174.2696
 20
22.9402
 30
0.0
 10
174.5563
 20
22.0661
 30
0.0
 10
174.0387
 20
20.8625
 30
0.0
 10
174.0387
 20
20.8625
 30
0.0
 10
173.8233
 20
20.4588
 30
0.0
 10
172.9847
 20
19.4135
 30
0.0
 10
171.483
 20
19.4709
 30
0.0
 10
171.483
 20
19.4709
 30
0.0
 10
171.5419
 20
18.6014
 30
0.0
 10
172.3261
 20
17.625
 30
0.0
 10
173.6342
 20
17.8775
 30
0.0
 10
173.6342
 20
17.8775
 30
0.0
 10
173.666
 20
17.1639
 30
0.0
 10
172.781
 20
15.5651
 30
0.0
 10
171.917
 20
15.246
 30
0.0
 10
171.917
 20
15.246
 30
0.0
 10
171.9757
 20
13.9696
 30
0.0
 10
172.9538
 20
13.7061
 30
0.0
 10
174.2619
 20
13.6674
 30
0.0
 10
174.2619
 20
13.6674
 30
0.0
 10
173.2924
 20
11.8145
 30
0.0
 10
174.1169
 20
9.0961
 30
0.0
 10
175.0941
 20
8.6535
 30
0.0
 10
175.0941
 20
8.6535
 30
0.0
 10
174.1169
 20
8.2119
 30
0.0
 10
173.2924
 20
5.4935
 30
0.0
 10
174.2619
 20
3.6398
 30
0.0
 10
174.2619
 20
3.6398
 30
0.0
 10
172.9538
 20
3.6019
 30
0.0
 10
171.9757
 20
3.3382
 30
0.0
 10
171.917
 20
2.0621
 30
0.0
 10
171.917
 20
2.0621
 30
0.0
 10
172.781
 20
1.7427
 30
0.0
 10
173.666
 20
0.1441
 30
0.0
 10
173.6342
 20
-0.5705
 30
0.0
 10
173.6342
 20
-0.5705
 30
0.0
 10
172.3261
 20
-0.3169
 30
0.0
 10
171.5419
 20
-1.2934
 30
0.0
 10
171.483
 20
-2.1629
 30
0.0
 10
171.483
 20
-2.1629
 30
0.0
 10
172.9847
 20
-2.1064
 30
0.0
 10
173.8233
 20
-3.1516
 30
0.0
 10
174.0387
 20
-3.5547
 30
0.0
 10
174.0387
 20
-3.5547
 30
0.0
 10
174.5563
 20
-4.7581
 30
0.0
 10
174.2696
 20
-5.6322
 30
0.0
 10
172.7074
 20
-4.2963
 30
0.0
 10
172.7074
 20
-4.2963
 30
0.0
 10
170.7833
 20
-2.39
 30
0.0
 10
167.6022
 20
-0.9547
 30
0.0
 10
164.8737
 20
0.0278
 30
0.0
 10
164.8737
 20
0.0278
 30
0.0
 10
163.3555
 20
0.9097
 30
0.0
 10
162.1062
 20
7.7632
 30
0.0
 10
166.7002
 20
6.9208
 30
0.0
 10
166.7002
 20
6.9208
 30
0.0
 10
166.4336
 20
7.5362
 30
0.0
 10
165.7067
 20
8.6535
 30
0.0
 10
164.6676
 20
8.6535
 30
0.0
 10
164.6676
 20
8.6535
 30
0.0
 10
165.7067
 20
8.6535
 30
0.0
 10
166.4336
 20
9.7718
 30
0.0
 10
166.7002
 20
10.3872
 30
0.0
  0
SPLINE
  5
9C
330
1F
100
AcDbEntity
  8
layer 1
 62
     7
100
AcDbSpline
210
0.0
220
0.0
230
1.0
 70
    11
 71
     3
 72
    20
 73
    16
 74
     0
 42
0.0000000001
 43
0.0000000001
 12
1.0
 22
0.0
 32
0.0
 13
1.0
 23
0.0
 33
0.0
 40
0.0
 40
0.0
 40
0.0
 40
0.0
 40
0.2
 40
0.2
 40
0.2
 40
0.2
 40
0.4
 40
0.4
 40
0.4
 40
0.4
 40
0.6
 40
0.6
 40
0.6
 40
0.6
 40
1.0
 40
1.0
 40
1.0
 40
1.0
 10
186.8461
 20
32.7764
 30
0.0
 10
187.0072
 20
30.9616
 30
0.0
 10
186.2369
 20
27.5819
 30
0.0
 10
184.8506
 20
25.9996
 30
0.0
 10
184.8506
 20
25.9996
 30
0.0
 10
184.3058
 20
23.3501
 30
0.0
 10
184.8273
 20
20.5084
 30
0.0
 10
189.2621
 20
17.7366
 30
0.0
 10
189.2621
 20
17.7366
 30
0.0
 10
189.2621
 20
17.7366
 30
0.0
 10
189.2621
 20
31.3024
 30
0.0
 10
189.2621
 20
31.3024
 30
0.0
 10
189.2621
 20
31.3024
 30
0.0
 10
188.3593
 20
31.5242
 30
0.0
 10
187.6721
 20
31.8519
 30
0.0
 10
186.8461
 20
32.7764
 30
0.0
  0
SPLINE
  5
9D
330
1F
100
AcDbEntity
  8
layer 1
 62
     7
100
AcDbSpline
210
0.0
220
0.0
230
1.0
 70
    11
 71
     3
 72
    28
 73
    24
 74
     0
 42
0.0000000001
 43
0.0000000001
 12
1.0
 22
0.0
 32
0.0
 13
1.0
 23
0.0
 33
0.0
 40
0.0
 40
0.0
 40
0.0
 40
0.0
 40
0.1428571428571428
 40
0.1428571428571428
 40
0.1428571428571428
 40
0.1428571428571428
 40
0.2857142857142857
 40
0.2857142857142857
 40
0.2857142857142857
 40
0.2857142857142857
 40
0.4285714285714285
 40
0.4285714285714285
 40
0.4285714285714285
 40
0.4285714285714285
 40
0.5714285714285714
 40
0.5714285714285714
 40
0.5714285714285714
 40
0.5714285714285714
 40
0.7142857142857143
 40
0.7142857142857143
 40
0.7142857142857143
 40
0.7142857142857143
 40
1.0
 40
1.0
 40
1.0
 40
1.0
 10
153.0327
 20
42.9808
 30
0.0
 10
151.5061
 20
43.1557
 30
0.0
 10
148.6008
 20
44.8963
 30
0.0
 10
149.5401
 20
47.7411
 30
0.0
 10
149.5401
 20
47.7411
 30
0.0
 10
150.8598
 20
51.2128
 30
0.0
 10
154.7964
 20
48.7989
 30
0.0
 10
152.7522
 20
47.2071
 30
0.0
 10
152.7522
 20
47.2071
 30
0.0
 10
152.8018
 20
45.527
 30
0.0
 10
154.4523
 20
45.2451
 30
0.0
 10
155.3529
 20
46.0733
 30
0.0
 10
155.3529
 20
46.0733
 30
0.0
 10
155.8209
 20
46.5034
 30
0.0
 10
155.8247
 20
47.3862
 30
0.0
 10
155.8534
 20
48.2014
 30
0.0
 10
155.8534
 20
48.2014
 30
0.0
 10
155.7953
 20
48.5896
 30
0.0
 10
156.3803
 20
48.7834
 30
0.0
 10
156.6067
 20
48.0339
 30
0.0
 10
156.6067
 20
48.0339
 30
0.0
 10
158.1543
 20
42.7427
 30
0.0
 10
155.0149
 20
42.6862
 30
0.0
 10
153.0327
 20
42.9808
 30
0.0
  0
SPLINE
  5
9E
330
1F
100
AcDbEntity
  8
layer 1
 62
     7
100
AcDbSpline
210
0.0
220
0.0
230
1.0
 70
    11
 71
     3
 72
    20
 73
    16
 74
     0
 42
0.0000000001
 43
0.0000000001
 12
1.0
 22
0.0
 32
0.0
 13
1.0
 23
0.0
 33
0.0
 40
0.0
 40
0.0
 40
0.0
 40
0.0
 40
0.2
 40
0.2
 40
0.2
 40
0.2
 40
0.4
 40
0.4
 40
0.4
 40
0.4
 40
0.6
 40
0.6
 40
0.6
 40
0.6
 40
1.0
 40
1.0
 40
1.0
 40
1.0
 10
151.3635
 20
114.4609
 30
0.0
 10
156.0177
 20
99.3738
 30
0.0
 10
148.6242
 20
100.2657
 30
0.0
 10
146.8124
 20
92.4685
 30
0.0
 10
146.8124
 20
92.4685
 30
0.0
 10
144.9998
 20
100.2657
 30
0.0
 10
137.6061
 20
99.3738
 30
0.0
 10
142.2611
 20
114.4609
 30
0.0
 10
142.2611
 20
114.4609
 30
0.0
 10
142.7013
 20
111.8642
 30
0.0
 10
145.6042
 20
111.2597
 30
0.0
 10
146.8124
 20
113.0304
 30
0.0
 10
146.8124
 20
113.0304
 30
0.0
 10
148.0205
 20
111.2597
 30
0.0
 10
150.9233
 20
111.8642
 30
0.0
 10
151.3635
 20
114.4609
 30
0.0
  0
SPLINE
  5
9F
330
1F
100
AcDbEntity
  8
layer 1
 62
     7
100
AcDbSpline
210
0.0
220
0.0
230
1.0
 70
    11
 71
     3
 72
    56
 73
    52
 74
     0
 42
0.0000000001
 43
0.0000000001
 12
1.0
 22
0.0
 32
0.0
 13
1.0
 23
0.0
 33
0.0
 40
0.0
 40
0.0
 40
0.0
 40
0.0
 40
0.0714285714285714
 40
0.0714285714285714
 40
0.0714285714285714
 40
0.0714285714285714
 40
0.1428571428571428
 40
0.1428571428571428
 40
0.1428571428571428
 40
0.1428571428571428
 40
0.2142857142857143
 40
0.2142857142857143
 40
0.2142857142857143
 40
0.2142857142857143
 40
0.2857142857142857
 40
0.2857142857142857
 40
0.2857142857142857
 40
0.2857142857142857
 40
0.3571428571428572
 40
0.3571428571428572
 40
0.3571428571428572
 40
0.3571428571428572
 40
0.4285714285714285
 40
0.4285714285714285
 40
0.4285714285714285
 40
0.4285714285714285
 40
0.5
 40
0.5
 40
0.5
 40
0.5
 40
0.5714285714285714
 40
0.5714285714285714
 40
0.5714285714285714
 40
0.5714285714285714
 40
0.6428571428571429
 40
0.6428571428571429
 40
0.6428571428571429
 40
0.6428571428571429
 40
0.7142857142857143
 40
0.7142857142857143
 40
0.7142857142857143
 40
0.7142857142857143
 40
0.7857142857142857
 40
0.7857142857142857
 40
0.7857142857142857
 40
0.7857142857142857
 40
0.8571428571428571
 40
0.8571428571428571
 40
0.8571428571428571
 40
0.8571428571428571
 40
1.0
 40
1.0
 40
1.0
 40
1.0
 10
164.6218
 20
67.0786
 30
0.0
 10
163.3818
 20
67.453
 30
0.0
 10
162.252
 20
68.8432
 30
0.0
 10
163.5191
 20
70.142
 30
0.0
 10
163.5191
 20
70.142
 30
0.0
 10
162.824
 20
71.5686
 30
0.0
 10
161.2879
 20
71.3494
 30
0.0
 10
160.7495
 20
70.3999
 30
0.0
 10
160.7495
 20
70.3999
 30
0.0
 10
160.1008
 20
69.257
 30
0.0
 10
160.5069
 20
67.835
 30
0.0
 10
160.8154
 20
67.0607
 30
0.0
 10
160.8154
 20
67.0607
 30
0.0
 10
158.2263
 20
66.733
 30
0.0
 10
152.2004
 20
67.7721
 30
0.0
 10
149.9377
 20
71.1292
 30
0.0
 10
149.9377
 20
71.1292
 30
0.0
 10
148.1413
 20
74.046
 30
0.0
 10
152.677
 20
80.5315
 30
0.0
 10
158.0116
 20
73.6788
 30
0.0
 10
158.0116
 20
73.6788
 30
0.0
 10
159.4088
 20
73.3897
 30
0.0
 10
160.9338
 20
77.6424
 30
0.0
 10
157.9744
 20
78.942
 30
0.0
 10
157.9744
 20
78.942
 30
0.0
 10
159.1361
 20
80.1315
 30
0.0
 10
159.2361
 20
81.7125
 30
0.0
 10
158.0728
 20
82.6857
 30
0.0
 10
158.0728
 20
82.6857
 30
0.0
 10
159.0462
 20
82.4284
 30
0.0
 10
160.5767
 20
82.5252
 30
0.0
 10
161.5716
 20
82.8795
 30
0.0
 10
161.5716
 20
82.8795
 30
0.0
 10
164.7681
 20
82.2524
 30
0.0
 10
161.302
 20
77.6301
 30
0.0
 10
164.1382
 20
76.4188
 30
0.0
 10
164.1382
 20
76.4188
 30
0.0
 10
161.8172
 20
76.2671
 30
0.0
 10
160.2264
 20
72.552
 30
0.0
 10
162.5326
 20
71.8414
 30
0.0
 10
162.5326
 20
71.8414
 30
0.0
 10
162.6582
 20
72.9612
 30
0.0
 10
164.7705
 20
73.9856
 30
0.0
 10
166.229
 20
72.7466
 30
0.0
 10
166.229
 20
72.7466
 30
0.0
 10
170.9676
 20
69.5724
 30
0.0
 10
174.6741
 20
70.7796
 30
0.0
 10
178.1141
 20
71.4392
 30
0.0
 10
178.1141
 20
71.4392
 30
0.0
 10
175.3895
 20
68.2046
 30
0.0
 10
170.3066
 20
65.7217
 30
0.0
 10
164.6218
 20
67.0786
 30
0.0
  0
SPLINE
  5
A0
330
1F
100
AcDbEntity
  8
layer 1
 62
     7
100
AcDbSpline
210
0.0
220
0.0
230
1.0
 70
    11
 71
     3
 72
    36
 73
    32
 74
     0
 42
0.0000000001
 43
0.0000000001
 12
1.0
 22
0.0
 32
0.0
 13
1.0
 23
0.0
 33
0.0
 40
0.0
 40
0.0
 40
0.0
 40
0.0
 40
0.1111111111111111
 40
0.1111111111111111
 40
0.1111111111111111
 40
0.1111111111111111
 40
0.2222222222222222
 40
0.2222222222222222
 40
0.2222222222222222
 40
0.2222222222222222
 40
0.3333333333333333
 40
0.3333333333333333
 40
0.3333333333333333
 40
0.3333333333333333
 40
0.4444444444444444
 40
0.4444444444444444
 40
0.4444444444444444
 40
0.4444444444444444
 40
0.5555555555555556
 40
0.5555555555555556
 40
0.5555555555555556
 40
0.5555555555555556
 40
0.6666666666666666
 40
0.6666666666666666
 40
0.6666666666666666
 40
0.6666666666666666
 40
0.7777777777777778
 40
0.7777777777777778
 40
0.7777777777777778
 40
0.7777777777777778
 40
1.0
 40
1.0
 40
1.0
 40
1.0
 10
163.4285
 20
97.7675
 30
0.0
 10
164.8721
 20
92.5048
 30
0.0
 10
162.8488
 20
88.4822
 30
0.0
 10
161.1183
 20
87.0966
 30
0.0
 10
161.1183
 20
87.0966
 30
0.0
 10
158.678
 20
85.0788
 30
0.0
 10
155.7108
 20
87.5429
 30
0.0
 10
155.4404
 20
89.8592
 30
0.0
 10
155.4404
 20
89.8592
 30
0.0
 10
152.3569
 20
86.3102
 30
0.0
 10
155.0637
 20
83.5816
 30
0.0
 10
157.1166
 20
83.0755
 30
0.0
 10
157.1166
 20
83.0755
 30
0.0
 10
154.5275
 20
82.7484
 30
0.0
 10
152.7073
 20
79.0458
 30
0.0
 10
150.4444
 20
82.4028
 30
0.0
 10
150.4444
 20
82.4028
 30
0.0
 10
148.7551
 20
83.6885
 30
0.0
 10
148.0646
 20
89.0718
 30
0.0
 10
150.2004
 20
92.2406
 30
0.0
 10
150.2004
 20
92.2406
 30
0.0
 10
153.0545
 20
96.2688
 30
0.0
 10
156.2859
 20
99.5738
 30
0.0
 10
155.5969
 20
105.8508
 30
0.0
 10
155.5969
 20
105.8508
 30
0.0
 10
160.3357
 20
102.6767
 30
0.0
 10
162.7891
 20
99.6783
 30
0.0
 10
159.0268
 20
93.8068
 30
0.0
 10
159.0268
 20
93.8068
 30
0.0
 10
160.1496
 20
92.8986
 30
0.0
 10
162.4033
 20
91.5339
 30
0.0
 10
163.4285
 20
97.7675
 30
0.0
  0
SPLINE
  5
A1
330
1F
100
AcDbEntity
  8
layer 1
 62
     7
100
AcDbSpline
210
0.0
220
0.0
230
1.0
 70
    11
 71
     3
 72
    36
 73
    32
 74
     0
 42
0.0000000001
 43
0.0000000001
 12
1.0
 22
0.0
 32
0.0
 13
1.0
 23
0.0
 33
0.0
 40
0.0
 40
0.0
 40
0.0
 40
0.0
 40
0.1111111111111111
 40
0.1111111111111111
 40
0.1111111111111111
 40
0.1111111111111111
 40
0.2222222222222222
 40
0.2222222222222222
 40
0.2222222222222222
 40
0.2222222222222222
 40
0.3333333333333333
 40
0.3333333333333333
 40
0.3333333333333333
 40
0.3333333333333333
 40
0.4444444444444444
 40
0.4444444444444444
 40
0.4444444444444444
 40
0.4444444444444444
 40
0.5555555555555556
 40
0.5555555555555556
 40
0.5555555555555556
 40
0.5555555555555556
 40
0.6666666666666666
 40
0.6666666666666666
 40
0.6666666666666666
 40
0.6666666666666666
 40
0.7777777777777778
 40
0.7777777777777778
 40
0.7777777777777778
 40
0.7777777777777778
 40
1.0
 40
1.0
 40
1.0
 40
1.0
 10
176.4015
 20
105.2378
 30
0.0
 10
180.8875
 20
108.8327
 30
0.0
 10
182.979
 20
107.9863
 30
0.0
 10
183.2619
 20
104.1854
 30
0.0
 10
183.2619
 20
104.1854
 30
0.0
 10
185.3852
 20
104.6279
 30
0.0
 10
185.6836
 20
107.316
 30
0.0
 10
184.5188
 20
108.8721
 30
0.0
 10
184.5188
 20
108.8721
 30
0.0
 10
187.3845
 20
109.3929
 30
0.0
 10
188.5958
 20
108.1863
 30
0.0
 10
189.2621
 20
106.8752
 30
0.0
 10
189.2621
 20
106.8752
 30
0.0
 10
186.7624
 20
107.0843
 30
0.0
 10
185.3644
 20
105.3052
 30
0.0
 10
186.0531
 20
103.7862
 30
0.0
 10
186.0531
 20
103.7862
 30
0.0
 10
188.3012
 20
102.9246
 30
0.0
 10
187.3868
 20
100.7478
 30
0.0
 10
183.6176
 20
100.3828
 30
0.0
 10
183.6176
 20
100.3828
 30
0.0
 10
178.8223
 20
99.9815
 30
0.0
 10
174.5379
 20
100.5129
 30
0.0
 10
169.8223
 20
103.7934
 30
0.0
 10
169.8223
 20
103.7934
 30
0.0
 10
173.3978
 20
104.421
 30
0.0
 10
174.957
 20
104.376
 30
0.0
 10
175.2205
 20
101.5909
 30
0.0
 10
175.2205
 20
101.5909
 30
0.0
 10
176.7913
 20
101.264
 30
0.0
 10
177.6134
 20
104.0598
 30
0.0
 10
176.4015
 20
105.2378
 30
0.0
  0
SPLINE
  5
A2
330
1F
100
AcDbEntity
  8
layer 1
 62
     7
100
AcDbSpline
210
0.0
220
0.0
230
1.0
 70
    11
 71
     3
 72
    76
 73
    72
 74
     0
 42
0.0000000001
 43
0.0000000001
 12
1.0
 22
0.0
 32
0.0
 13
1.0
 23
0.0
 33
0.0
 40
0.0
 40
0.0
 40
0.0
 40
0.0
 40
0.0526315789473684
 40
0.0526315789473684
 40
0.0526315789473684
 40
0.0526315789473684
 40
0.1052631578947368
 40
0.1052631578947368
 40
0.1052631578947368
 40
0.1052631578947368
 40
0.1578947368421053
 40
0.1578947368421053
 40
0.1578947368421053
 40
0.1578947368421053
 40
0.2105263157894737
 40
0.2105263157894737
 40
0.2105263157894737
 40
0.2105263157894737
 40
0.2631578947368421
 40
0.2631578947368421
 40
0.2631578947368421
 40
0.2631578947368421
 40
0.3157894736842105
 40
0.3157894736842105
 40
0.3157894736842105
 40
0.3157894736842105
 40
0.3684210526315789
 40
0.3684210526315789
 40
0.3684210526315789
 40
0.3684210526315789
 40
0.4210526315789473
 40
0.4210526315789473
 40
0.4210526315789473
 40
0.4210526315789473
 40
0.4736842105263158
 40
0.4736842105263158
 40
0.4736842105263158
 40
0.4736842105263158
 40
0.5263157894736842
 40
0.5263157894736842
 40
0.5263157894736842
 40
0.5263157894736842
 40
0.5789473684210527
 40
0.5789473684210527
 40
0.5789473684210527
 40
0.5789473684210527
 40
0.631578947368421
 40
0.631578947368421
 40
0.631578947368421
 40
0.631578947368421
 40
0.6842105263157895
 40
0.6842105263157895
 40
0.6842105263157895
 40
0.6842105263157895
 40
0.7368421052631579
 40
0.7368421052631579
 40
0.7368421052631579
 40
0.7368421052631579
 40
0.7894736842105263
 40
0.7894736842105263
 40
0.7894736842105263
 40
0.7894736842105263
 40
0.8421052631578947
 40
0.8421052631578947
 40
0.8421052631578947
 40
0.8421052631578947
 40
0.8947368421052632
 40
0.8947368421052632
 40
0.8947368421052632
 40
0.8947368421052632
 40
1.0
 40
1.0
 40
1.0
 40
1.0
 10
165.2038
 20
102.7703
 30
0.0
 10
168.628
 20
101.9714
 30
0.0
 10
171.803
 20
97.924
 30
0.0
 10
175.7916
 20
96.4423
 30
0.0
 10
175.7916
 20
96.4423
 30
0.0
 10
177.1749
 20
93.8162
 30
0.0
 10
177.3678
 20
91.1557
 30
0.0
 10
175.0376
 20
89.8872
 30
0.0
 10
175.0376
 20
89.8872
 30
0.0
 10
179.185
 20
85.2057
 30
0.0
 10
181.8871
 20
92.0059
 30
0.0
 10
180.5962
 20
95.713
 30
0.0
 10
180.5962
 20
95.713
 30
0.0
 10
184.2847
 20
94.3996
 30
0.0
 10
188.0897
 20
82.8166
 30
0.0
 10
180.848
 20
81.1258
 30
0.0
 10
180.848
 20
81.1258
 30
0.0
 10
181.1688
 20
80.2401
 30
0.0
 10
183.5936
 20
78.1168
 30
0.0
 10
186.3331
 20
81.4714
 30
0.0
 10
186.3331
 20
81.4714
 30
0.0
 10
186.5243
 20
77.1574
 30
0.0
 10
177.1051
 20
71.4291
 30
0.0
 10
173.0476
 20
77.6216
 30
0.0
 10
173.0476
 20
77.6216
 30
0.0
 10
171.1939
 20
76.2631
 30
0.0
 10
172.3277
 20
74.1793
 30
0.0
 10
173.0988
 20
73.3338
 30
0.0
 10
173.0988
 20
73.3338
 30
0.0
 10
169.4597
 20
73.313
 30
0.0
 10
167.3007
 20
76.8636
 30
0.0
 10
167.6356
 20
78.7754
 30
0.0
 10
167.6356
 20
78.7754
 30
0.0
 10
167.6609
 20
79.4023
 30
0.0
 10
168.6166
 20
80.7275
 30
0.0
 10
169.686
 20
79.9331
 30
0.0
 10
169.686
 20
79.9331
 30
0.0
 10
168.4848
 20
76.4305
 30
0.0
 10
172.3424
 20
76.3081
 30
0.0
 10
172.729
 20
79.6487
 30
0.0
 10
172.729
 20
79.6487
 30
0.0
 10
172.6647
 20
83.3909
 30
0.0
 10
168.1974
 20
85.8412
 30
0.0
 10
165.8997
 20
80.4206
 30
0.0
 10
165.8997
 20
80.4206
 30
0.0
 10
166.4018
 20
84.5045
 30
0.0
 10
164.6689
 20
85.6436
 30
0.0
 10
163.5314
 20
85.8822
 30
0.0
 10
163.5314
 20
85.8822
 30
0.0
 10
163.7546
 20
86.476
 30
0.0
 10
164.1684
 20
87.0827
 30
0.0
 10
164.5745
 20
87.6034
 30
0.0
 10
164.5745
 20
87.6034
 30
0.0
 10
164.9961
 20
87.1485
 30
0.0
 10
165.1612
 20
86.5464
 30
0.0
 10
166.1344
 20
86.207
 30
0.0
 10
166.1344
 20
86.207
 30
0.0
 10
166.6343
 20
87.0797
 30
0.0
 10
167.0202
 20
89.4291
 30
0.0
 10
166.3429
 20
93.1007
 30
0.0
 10
166.3429
 20
93.1007
 30
0.0
 10
167.0636
 20
92.2677
 30
0.0
 10
167.8571
 20
91.9081
 30
0.0
 10
168.0966
 20
92.3638
 30
0.0
 10
168.0966
 20
92.3638
 30
0.0
 10
168.0825
 20
94.8265
 30
0.0
 10
167.097
 20
96.7778
 30
0.0
 10
166.5536
 20
98.1107
 30
0.0
 10
166.5536
 20
98.1107
 30
0.0
 10
169.3256
 20
96.5191
 30
0.0
 10
168.1238
 20
99.7583
 30
0.0
 10
165.2038
 20
102.7703
 30
0.0
  0
SPLINE
  5
A3
330
1F
100
AcDbEntity
  8
layer 1
 62
     7
100
AcDbSpline
210
0.0
220
0.0
230
1.0
 70
    11
 71
     3
 72
    52
 73
    48
 74
     0
 42
0.0000000001
 43
0.0000000001
 12
1.0
 22
0.0
 32
0.0
 13
1.0
 23
0.0
 33
0.0
 40
0.0
 40
0.0
 40
0.0
 40
0.0
 40
0.0769230769230769
 40
0.0769230769230769
 40
0.0769230769230769
 40
0.0769230769230769
 40
0.1538461538461539
 40
0.1538461538461539
 40
0.1538461538461539
 40
0.1538461538461539
 40
0.2307692307692308
 40
0.2307692307692308
 40
0.2307692307692308
 40
0.2307692307692308
 40
0.3076923076923077
 40
0.3076923076923077
 40
0.3076923076923077
 40
0.3076923076923077
 40
0.3846153846153846
 40
0.3846153846153846
 40
0.3846153846153846
 40
0.3846153846153846
 40
0.4615384615384616
 40
0.4615384615384616
 40
0.4615384615384616
 40
0.4615384615384616
 40
0.5384615384615384
 40
0.5384615384615384
 40
0.5384615384615384
 40
0.5384615384615384
 40
0.6153846153846154
 40
0.6153846153846154
 40
0.6153846153846154
 40
0.6153846153846154
 40
0.6923076923076923
 40
0.6923076923076923
 40
0.6923076923076923
 40
0.6923076923076923
 40
0.7692307692307693
 40
0.7692307692307693
 40
0.7692307692307693
 40
0.7692307692307693
 40
0.8461538461538461
 40
0.8461538461538461
 40
0.8461538461538461
 40
0.8461538461538461
 40
1.0
 40
1.0
 40
1.0
 40
1.0
 10
149.7577
 20
22.0056
 30
0.0
 10
150.3057
 20
22.3815
 30
0.0
 10
150.987
 20
21.8406
 30
0.0
 10
151.207
 20
21.3377
 30
0.0
 10
151.207
 20
21.3377
 30
0.0
 10
151.6858
 20
21.9515
 30
0.0
 10
151.3008
 20
23.3679
 30
0.0
 10
150.7675
 20
24.3195
 30
0.0
 10
150.7675
 20
24.3195
 30
0.0
 10
151.2898
 20
23.9748
 30
0.0
 10
151.9122
 20
24.0065
 30
0.0
 10
152.446
 20
24.2801
 30
0.0
 10
152.446
 20
24.2801
 30
0.0
 10
151.2512
 20
24.9768
 30
0.0
 10
150.8776
 20
27.2155
 30
0.0
 10
152.4855
 20
26.9582
 30
0.0
 10
152.4855
 20
26.9582
 30
0.0
 10
153.8022
 20
26.5948
 30
0.0
 10
155.1901
 20
27.0883
 30
0.0
 10
156.1905
 20
27.2363
 30
0.0
 10
156.1905
 20
27.2363
 30
0.0
 10
155.7745
 20
26.5236
 30
0.0
 10
155.1871
 20
24.3715
 30
0.0
 10
157.1243
 20
24.0561
 30
0.0
 10
157.1243
 20
24.0561
 30
0.0
 10
157.4064
 20
27.4875
 30
0.0
 10
158.6556
 20
27.4184
 30
0.0
 10
160.1032
 20
26.5793
 30
0.0
 10
160.1032
 20
26.5793
 30
0.0
 10
161.3298
 20
25.8687
 30
0.0
 10
162.6675
 20
24.5273
 30
0.0
 10
164.0002
 20
25.0976
 30
0.0
 10
164.0002
 20
25.0976
 30
0.0
 10
163.089
 20
23.4439
 30
0.0
 10
163.805
 20
22.1845
 30
0.0
 10
165.5254
 20
22.4194
 30
0.0
 10
165.5254
 20
22.4194
 30
0.0
 10
164.2839
 20
23.7454
 30
0.0
 10
166.6506
 20
24.0358
 30
0.0
 10
168.6118
 20
22.9255
 30
0.0
 10
168.6118
 20
22.9255
 30
0.0
 10
163.8096
 20
20.1505
 30
0.0
 10
159.222
 20
18.3937
 30
0.0
 10
152.2532
 20
18.7563
 30
0.0
 10
152.2532
 20
18.7563
 30
0.0
 10
149.8663
 20
19.1586
 30
0.0
 10
148.6157
 20
20.8796
 30
0.0
 10
149.7577
 20
22.0056
 30
0.0
  0
SPLINE
  5
A4
330
1F
100
AcDbEntity
  8
layer 1
 62
     7
100
AcDbSpline
210
0.0
220
0.0
230
1.0
 70
    11
 71
     3
 72
    32
 73
    28
 74
     0
 42
0.0000000001
 43
0.0000000001
 12
1.0
 22
0.0
 32
0.0
 13
1.0
 23
0.0
 33
0.0
 40
0.0
 40
0.0
 40
0.0
 40
0.0
 40
0.125
 40
0.125
 40
0.125
 40
0.125
 40
0.25
 40
0.25
 40
0.25
 40
0.25
 40
0.375
 40
0.375
 40
0.375
 40
0.375
 40
0.5
 40
0.5
 40
0.5
 40
0.5
 40
0.625
 40
0.625
 40
0.625
 40
0.625
 40
0.75
 40
0.75
 40
0.75
 40
0.75
 40
1.0
 40
1.0
 40
1.0
 40
1.0
 10
181.9871
 20
36.5704
 30
0.0
 10
180.4605
 20
36.7448
 30
0.0
 10
178.1311
 20
34.8749
 30
0.0
 10
177.7189
 20
33.6443
 30
0.0
 10
177.7189
 20
33.6443
 30
0.0
 10
178.2412
 20
32.7291
 30
0.0
 10
178.9215
 20
32.5742
 30
0.0
 10
179.7127
 20
32.3122
 30
0.0
 10
179.7127
 20
32.3122
 30
0.0
 10
178.9207
 20
31.9612
 30
0.0
 10
178.252
 20
32.1356
 30
0.0
 10
177.5064
 20
32.2858
 30
0.0
 10
177.5064
 20
32.2858
 30
0.0
 10
176.6449
 20
32.5609
 30
0.0
 10
175.7404
 20
34.0418
 30
0.0
 10
174.9059
 20
34.7021
 30
0.0
 10
174.9059
 20
34.7021
 30
0.0
 10
175.9071
 20
35.0213
 30
0.0
 10
176.0713
 20
36.2945
 30
0.0
 10
175.618
 20
37.0245
 30
0.0
 10
175.618
 20
37.0245
 30
0.0
 10
179.3524
 20
35.7057
 30
0.0
 10
181.5477
 20
37.385
 30
0.0
 10
183.124
 20
40.7148
 30
0.0
 10
183.124
 20
40.7148
 30
0.0
 10
183.4091
 20
39.7438
 30
0.0
 10
182.7947
 20
37.5599
 30
0.0
 10
181.9871
 20
36.5704
 30
0.0
  0
SPLINE
  5
A5
330
1F
100
AcDbEntity
  8
layer 1
 62
     7
100
AcDbSpline
210
0.0
220
0.0
230
1.0
 70
    11
 71
     3
 72
    20
 73
    16
 74
     0
 42
0.0000000001
 43
0.0000000001
 12
1.0
 22
0.0
 32
0.0
 13
1.0
 23
0.0
 33
0.0
 40
0.0
 40
0.0
 40
0.0
 40
0.0
 40
0.2
 40
0.2
 40
0.2
 40
0.2
 40
0.4
 40
0.4
 40
0.4
 40
0.4
 40
0.6
 40
0.6
 40
0.6
 40
0.6
 40
1.0
 40
1.0
 40
1.0
 40
1.0
 10
174.3075
 20
34.5943
 30
0.0
 10
174.468
 20
33.9549
 30
0.0
 10
173.4892
 20
33.6645
 30
0.0
 10
174.0729
 20
32.7291
 30
0.0
 10
174.0729
 20
32.7291
 30
0.0
 10
171.4171
 20
33.4024
 30
0.0
 10
171.2885
 20
36.4341
 30
0.0
 10
171.827
 20
37.161
 30
0.0
 10
171.827
 20
37.161
 30
0.0
 10
172.6508
 20
38.1884
 30
0.0
 10
173.9001
 20
37.6018
 30
0.0
 10
173.2476
 20
37.0021
 30
0.0
 10
173.2476
 20
37.0021
 30
0.0
 10
172.1045
 20
36.2627
 30
0.0
 10
172.8228
 20
34.3959
 30
0.0
 10
174.3075
 20
34.5943
 30
0.0
  0
SPLINE
  5
A6
330
1F
100
AcDbEntity
  8
layer 1
 62
     7
100
AcDbSpline
210
0.0
220
0.0
230
1.0
 70
    11
 71
     3
 72
    72
 73
    68
 74
     0
 42
0.0000000001
 43
0.0000000001
 12
1.0
 22
0.0
 32
0.0
 13
1.0
 23
0.0
 33
0.0
 40
0.0
 40
0.0
 40
0.0
 40
0.0
 40
0.0555555555555556
 40
0.0555555555555556
 40
0.0555555555555556
 40
0.0555555555555556
 40
0.1111111111111111
 40
0.1111111111111111
 40
0.1111111111111111
 40
0.1111111111111111
 40
0.1666666666666667
 40
0.1666666666666667
 40
0.1666666666666667
 40
0.1666666666666667
 40
0.2222222222222222
 40
0.2222222222222222
 40
0.2222222222222222
 40
0.2222222222222222
 40
0.2777777777777778
 40
0.2777777777777778
 40
0.2777777777777778
 40
0.2777777777777778
 40
0.3333333333333333
 40
0.3333333333333333
 40
0.3333333333333333
 40
0.3333333333333333
 40
0.3888888888888889
 40
0.3888888888888889
 40
0.3888888888888889
 40
0.3888888888888889
 40
0.4444444444444444
 40
0.4444444444444444
 40
0.4444444444444444
 40
0.4444444444444444
 40
0.5
 40
0.5
 40
0.5
 40
0.5
 40
0.5555555555555556
 40
0.5555555555555556
 40
0.5555555555555556
 40
0.5555555555555556
 40
0.6111111111111112
 40
0.6111111111111112
 40
0.6111111111111112
 40
0.6111111111111112
 40
0.6666666666666666
 40
0.6666666666666666
 40
0.6666666666666666
 40
0.6666666666666666
 40
0.7222222222222222
 40
0.7222222222222222
 40
0.7222222222222222
 40
0.7222222222222222
 40
0.7777777777777778
 40
0.7777777777777778
 40
0.7777777777777778
 40
0.7777777777777778
 40
0.8333333333333334
 40
0.8333333333333334
 40
0.8333333333333334
 40
0.8333333333333334
 40
0.8888888888888888
 40
0.8888888888888888
 40
0.8888888888888888
 40
0.8888888888888888
 40
1.0
 40
1.0
 40
1.0
 40
1.0
 10
170.5671
 20
25.2208
 30
0.0
 10
169.686
 20
25.4317
 30
0.0
 10
163.7988
 20
26.0996
 30
0.0
 10
164.8163
 20
30.8181
 30
0.0
 10
164.8163
 20
30.8181
 30
0.0
 10
164.5257
 20
31.3768
 30
0.0
 10
161.5298
 20
32.134
 30
0.0
 10
161.9313
 20
28.9909
 30
0.0
 10
161.9313
 20
28.9909
 30
0.0
 10
161.2167
 20
29.9377
 30
0.0
 10
160.4379
 20
31.0963
 30
0.0
 10
158.8555
 20
31.5621
 30
0.0
 10
158.8555
 20
31.5621
 30
0.0
 10
157.6605
 20
32.2588
 30
0.0
 10
157.9194
 20
35.8715
 30
0.0
 10
160.1317
 20
34.2674
 30
0.0
 10
160.1317
 20
34.2674
 30
0.0
 10
161.0362
 20
33.2444
 30
0.0
 10
163.1656
 20
32.227
 30
0.0
 10
164.8526
 20
32.9243
 30
0.0
 10
164.8526
 20
32.9243
 30
0.0
 10
167.0474
 20
34.1898
 30
0.0
 10
167.5324
 20
37.8908
 30
0.0
 10
166.749
 20
39.3624
 30
0.0
 10
166.749
 20
39.3624
 30
0.0
 10
169.2016
 20
38.9742
 30
0.0
 10
171.6054
 20
40.0042
 30
0.0
 10
172.6408
 20
42.7923
 30
0.0
 10
172.6408
 20
42.7923
 30
0.0
 10
175.0856
 20
41.3463
 30
0.0
 10
179.0246
 20
41.3998
 30
0.0
 10
181.8965
 20
42.9325
 30
0.0
 10
181.8965
 20
42.9325
 30
0.0
 10
180.9029
 20
41.223
 30
0.0
 10
179.2834
 20
39.0843
 30
0.0
 10
177.1563
 20
39.2641
 30
0.0
 10
177.1563
 20
39.2641
 30
0.0
 10
176.134
 20
39.409
 30
0.0
 10
175.5607
 20
41.4587
 30
0.0
 10
174.9664
 20
39.6336
 30
0.0
 10
174.9664
 20
39.6336
 30
0.0
 10
171.9053
 20
41.9926
 30
0.0
 10
169.0722
 20
37.9746
 30
0.0
 10
169.3968
 20
34.7988
 30
0.0
 10
169.3968
 20
34.7988
 30
0.0
 10
169.6541
 20
32.2889
 30
0.0
 10
172.2688
 20
30.0137
 30
0.0
 10
175.8954
 20
30.7235
 30
0.0
 10
175.8954
 20
30.7235
 30
0.0
 10
174.909
 20
29.7457
 30
0.0
 10
175.0693
 20
26.0538
 30
0.0
 10
178.9588
 20
28.7413
 30
0.0
 10
178.9588
 20
28.7413
 30
0.0
 10
181.7058
 20
29.0613
 30
0.0
 10
183.1433
 20
30.9453
 30
0.0
 10
183.6517
 20
31.9479
 30
0.0
 10
183.6517
 20
31.9479
 30
0.0
 10
184.1771
 20
29.6758
 30
0.0
 10
180.8379
 20
27.7254
 30
0.0
 10
178.5613
 20
26.9691
 30
0.0
 10
178.5613
 20
26.9691
 30
0.0
 10
175.8885
 20
26.2847
 30
0.0
 10
170.1269
 20
27.3038
 30
0.0
 10
170.3143
 20
31.7543
 30
0.0
 10
170.3143
 20
31.7543
 30
0.0
 10
167.4873
 20
32.926
 30
0.0
 10
166.2096
 20
28.629
 30
0.0
 10
170.5671
 20
25.2208
 30
0.0
  0
SPLINE
  5
A7
330
1F
100
AcDbEntity
  8
layer 1
 62
     7
100
AcDbSpline
210
0.0
220
0.0
230
1.0
 70
    11
 71
     3
 72
    32
 73
    28
 74
     0
 42
0.0000000001
 43
0.0000000001
 12
1.0
 22
0.0
 32
0.0
 13
1.0
 23
0.0
 33
0.0
 40
0.0
 40
0.0
 40
0.0
 40
0.0
 40
0.125
 40
0.125
 40
0.125
 40
0.125
 40
0.25
 40
0.25
 40
0.25
 40
0.25
 40
0.375
 40
0.375
 40
0.375
 40
0.375
 40
0.5
 40
0.5
 40
0.5
 40
0.5
 40
0.625
 40
0.625
 40
0.625
 40
0.625
 40
0.75
 40
0.75
 40
0.75
 40
0.75
 40
1.0
 40
1.0
 40
1.0
 40
1.0
 10
189.2621
 20
110.4298
 30
0.0
 10
189.2621
 20
110.4298
 30
0.0
 10
189.2621
 20
119.4677
 30
0.0
 10
189.2621
 20
119.4677
 30
0.0
 10
189.2621
 20
119.4677
 30
0.0
 10
187.3311
 20
122.1475
 30
0.0
 10
184.1245
 20
118.1737
 30
0.0
 10
182.0375
 20
122.0762
 30
0.0
 10
182.0375
 20
122.0762
 30
0.0
 10
180.1755
 20
125.6882
 30
0.0
 10
177.0563
 20
122.0491
 30
0.0
 10
176.4649
 20
120.362
 30
0.0
 10
176.4649
 20
120.362
 30
0.0
 10
175.8218
 20
118.3998
 30
0.0
 10
177.095
 20
116.4131
 30
0.0
 10
178.3743
 20
117.8001
 30
0.0
 10
178.3743
 20
117.8001
 30
0.0
 10
182.2436
 20
121.3555
 30
0.0
 10
184.47
 20
115.9806
 30
0.0
 10
184.4274
 20
112.539
 30
0.0
 10
184.4274
 20
112.539
 30
0.0
 10
185.5588
 20
113.6047
 30
0.0
 10
188.5577
 20
113.2675
 30
0.0
 10
188.3548
 20
111.2962
 30
0.0
 10
188.3548
 20
111.2962
 30
0.0
 10
188.8483
 20
111.1837
 30
0.0
 10
189.1824
 20
110.9738
 30
0.0
 10
189.2621
 20
110.4298
 30
0.0
  0
SPLINE
  5
A8
330
1F
100
AcDbEntity
  8
layer 1
 62
     7
100
AcDbSpline
210
0.0
220
0.0
230
1.0
 70
    11
 71
     3
 72
    88
 73
    84
 74
     0
 42
0.0000000001
 43
0.0000000001
 12
1.0
 22
0.0
 32
0.0
 13
1.0
 23
0.0
 33
0.0
 40
0.0
 40
0.0
 40
0.0
 40
0.0
 40
0.0454545454545455
 40
0.0454545454545455
 40
0.0454545454545455
 40
0.0454545454545455
 40
0.0909090909090909
 40
0.0909090909090909
 40
0.0909090909090909
 40
0.0909090909090909
 40
0.1363636363636364
 40
0.1363636363636364
 40
0.1363636363636364
 40
0.1363636363636364
 40
0.1818181818181818
 40
0.1818181818181818
 40
0.1818181818181818
 40
0.1818181818181818
 40
0.2272727272727273
 40
0.2272727272727273
 40
0.2272727272727273
 40
0.2272727272727273
 40
0.2727272727272727
 40
0.2727272727272727
 40
0.2727272727272727
 40
0.2727272727272727
 40
0.3181818181818182
 40
0.3181818181818182
 40
0.3181818181818182
 40
0.3181818181818182
 40
0.3636363636363636
 40
0.3636363636363636
 40
0.3636363636363636
 40
0.3636363636363636
 40
0.4090909090909091
 40
0.4090909090909091
 40
0.4090909090909091
 40
0.4090909090909091
 40
0.4545454545454545
 40
0.4545454545454545
 40
0.4545454545454545
 40
0.4545454545454545
 40
0.5
 40
0.5
 40
0.5
 40
0.5
 40
0.5454545454545454
 40
0.5454545454545454
 40
0.5454545454545454
 40
0.5454545454545454
 40
0.5909090909090909
 40
0.5909090909090909
 40
0.5909090909090909
 40
0.5909090909090909
 40
0.6363636363636364
 40
0.6363636363636364
 40
0.6363636363636364
 40
0.6363636363636364
 40
0.6818181818181818
 40
0.6818181818181818
 40
0.6818181818181818
 40
0.6818181818181818
 40
0.7272727272727273
 40
0.7272727272727273
 40
0.7272727272727273
 40
0.7272727272727273
 40
0.7727272727272727
 40
0.7727272727272727
 40
0.7727272727272727
 40
0.7727272727272727
 40
0.8181818181818182
 40
0.8181818181818182
 40
0.8181818181818182
 40
0.8181818181818182
 40
0.8636363636363636
 40
0.8636363636363636
 40
0.8636363636363636
 40
0.8636363636363636
 40
0.9090909090909091
 40
0.9090909090909091
 40
0.9090909090909091
 40
0.9090909090909091
 40
1.0
 40
1.0
 40
1.0
 40
1.0
 10
154.6368
 20
122.056
 30
0.0
 10
157.3994
 20
118.4704
 30
0.0
 10
161.47
 20
119.3795
 30
0.0
 10
162.2955
 20
122.408
 30
0.0
 10
162.2955
 20
122.408
 30
0.0
 10
158.9934
 20
122.4675
 30
0.0
 10
157.249
 20
123.8129
 30
0.0
 10
156.595
 20
125.6882
 30
0.0
 10
156.595
 20
125.6882
 30
0.0
 10
156.595
 20
125.6882
 30
0.0
 10
165.8384
 20
125.6882
 30
0.0
 10
165.8384
 20
125.6882
 30
0.0
 10
165.8384
 20
125.6882
 30
0.0
 10
165.9555
 20
122.4504
 30
0.0
 10
170.5562
 20
120.0807
 30
0.0
 10
172.7778
 20
120.7633
 30
0.0
 10
172.7778
 20
120.7633
 30
0.0
 10
171.9752
 20
116.5037
 30
0.0
 10
174.2572
 20
113.0405
 30
0.0
 10
178.084
 20
114.5818
 30
0.0
 10
178.084
 20
114.5818
 30
0.0
 10
181.8849
 20
115.8094
 30
0.0
 10
181.5719
 20
109.1628
 30
0.0
 10
177.8064
 20
108.6831
 30
0.0
 10
177.8064
 20
108.6831
 30
0.0
 10
177.9189
 20
111.3031
 30
0.0
 10
176.1249
 20
111.6898
 30
0.0
 10
175.405
 20
111.3396
 30
0.0
 10
175.405
 20
111.3396
 30
0.0
 10
175.9287
 20
107.1619
 30
0.0
 10
172.1083
 20
106.3614
 30
0.0
 10
170.6167
 20
106.1073
 30
0.0
 10
170.6167
 20
106.1073
 30
0.0
 10
173.6017
 20
109.2999
 30
0.0
 10
170.639
 20
113.5272
 30
0.0
 10
168.9621
 20
112.5833
 30
0.0
 10
168.9621
 20
112.5833
 30
0.0
 10
169.6053
 20
106.9163
 30
0.0
 10
164.8945
 20
105.4725
 30
0.0
 10
160.644
 20
107.5099
 30
0.0
 10
160.644
 20
107.5099
 30
0.0
 10
157.7714
 20
108.8876
 30
0.0
 10
155.0226
 20
112.3585
 30
0.0
 10
154.6104
 20
115.2708
 30
0.0
 10
154.6104
 20
115.2708
 30
0.0
 10
156.1417
 20
113.3125
 30
0.0
 10
156.981
 20
112.6398
 30
0.0
 10
158.8679
 20
111.7394
 30
0.0
 10
158.8679
 20
111.7394
 30
0.0
 10
160.4456
 20
111.1303
 30
0.0
 10
162.0057
 20
109.3449
 30
0.0
 10
162.235
 20
108.1506
 30
0.0
 10
162.235
 20
108.1506
 30
0.0
 10
163.3051
 20
107.8709
 30
0.0
 10
163.4021
 20
109.6401
 30
0.0
 10
163.244
 20
110.8738
 30
0.0
 10
163.244
 20
110.8738
 30
0.0
 10
165.7523
 20
109.7819
 30
0.0
 10
170.8614
 20
112.2252
 30
0.0
 10
169.5922
 20
118.9888
 30
0.0
 10
169.5922
 20
118.9888
 30
0.0
 10
168.1654
 20
123.2028
 30
0.0
 10
164.1164
 20
122.6458
 30
0.0
 10
162.7736
 20
120.4426
 30
0.0
 10
162.7736
 20
120.4426
 30
0.0
 10
161.8436
 20
118.9168
 30
0.0
 10
161.5196
 20
115.9371
 30
0.0
 10
163.4795
 20
115.404
 30
0.0
 10
163.4795
 20
115.404
 30
0.0
 10
162.4481
 20
113.2544
 30
0.0
 10
159.071
 20
112.9592
 30
0.0
 10
157.8
 20
115.5729
 30
0.0
 10
157.8
 20
115.5729
 30
0.0
 10
159.0043
 20
115.0127
 30
0.0
 10
159.9536
 20
115.1297
 30
0.0
 10
160.3125
 20
115.4094
 30
0.0
 10
160.3125
 20
115.4094
 30
0.0
 10
160.6333
 20
116.9623
 30
0.0
 10
158.2983
 20
118.7363
 30
0.0
 10
155.8495
 20
118.5046
 30
0.0
 10
155.8495
 20
118.5046
 30
0.0
 10
154.7391
 20
119.3904
 30
0.0
 10
154.3168
 20
121.2292
 30
0.0
 10
154.6368
 20
122.056
 30
0.0
  0
SPLINE
  5
A9
330
1F
100
AcDbEntity
  8
layer 1
 62
     7
100
AcDbSpline
210
0.0
220
0.0
230
1.0
 70
    11
 71
     3
 72
    16
 73
    12
 74
     0
 42
0.0000000001
 43
0.0000000001
 12
1.0
 22
0.0
 32
0.0
 13
1.0
 23
0.0
 33
0.0
 40
0.0
 40
0.0
 40
0.0
 40
0.0
 40
0.25
 40
0.25
 40
0.25
 40
0.25
 40
0.5
 40
0.5
 40
0.5
 40
0.5
 40
1.0
 40
1.0
 40
1.0
 40
1.0
 10
164.8078
 20
113.8557
 30
0.0
 10
165.0558
 20
114.5012
 30
0.0
 10
165.0091
 20
115.0521
 30
0.0
 10
164.29
 20
115.5017
 30
0.0
 10
164.29
 20
115.5017
 30
0.0
 10
165.6517
 20
116.1557
 30
0.0
 10
165.9082
 20
117.4762
 30
0.0
 10
165.5416
 20
118.3953
 30
0.0
 10
165.5416
 20
118.3953
 30
0.0
 10
168.4275
 20
118.768
 30
0.0
 10
167.83
 20
113.5651
 30
0.0
 10
164.8078
 20
113.8557
 30
0.0
  0
ENDSEC
  0
SECTION
  2
OBJECTS
  0
DICTIONARY
  5
C
330
0
100
AcDbDictionary
281
     1
  3
ACAD_GROUP
350
D
  3
ACAD_LAYOUT
350
1A
  3
ACAD_MATERIAL
350
3B
  3
ACAD_MLEADERSTYLE
350
CC
  3
ACAD_MLINESTYLE
350
17
  3
ACAD_PLOTSETTINGS
350
19
  3
ACAD_PLOTSTYLENAME
350
E
  3
ACAD_TABLESTYLE
350
CB
  3
ACAD_VISUALSTYLE
350
2A
  0
DICTIONARY
  5
D
102
{ACAD_REACTORS
330
C
102
}
330
C
100
AcDbDictionary
281
     1
  0
DICTIONARY
  5
1A
102
{ACAD_REACTORS
330
C
102
}
330
C
100
AcDbDictionary
281
     1
  3
Layout1
350
1E
  3
Layout2
350
26
  3
Model
350
22
  0
DICTIONARY
  5
3B
102
{ACAD_REACTORS
330
C
102
}
330
C
100
AcDbDictionary
281
     1
  3
ByBlock
350
3D
  3
ByLayer
350
3C
  3
Global
350
3E
  0
DICTIONARY
  5
CC
102
{ACAD_REACTORS
330
C
102
}
330
C
100
AcDbDictionary
281
     1
  0
DICTIONARY
  5
17
102
{ACAD_REACTORS
330
C
102
}
330
C
100
AcDbDictionary
281
     1
  3
Standard
350
18
  0
DICTIONARY
  5
19
102
{ACAD_REACTORS
330
C
102
}
330
C
100
AcDbDictionary
281
     1
  0
ACDBDICTIONARYWDFLT
  5
E
102
{ACAD_REACTORS
330
C
102
}
330
C
100
AcDbDictionary
281
     1
  3
Normal
350
F
100
AcDbDictionaryWithDefault
340
F
  0
DICTIONARY
  5
CB
102
{ACAD_REACTORS
330
C
102
}
330
C
100
AcDbDictionary
281
     1
  0
DICTIONARY
  5
2A
102
{ACAD_REACTORS
330
C
102
}
330
C
100
AcDbDictionary
281
     1
  3
2dWireframe
350
2F
  3
3D Hidden
350
31
  3
3dWireframe
350
30
  3
Basic
350
32
  3
Brighten
350
36
  3
ColorChange
350
3A
  3
Conceptual
350
34
  3
Dim
350
35
  3
Facepattern
350
39
  3
Flat
350
2B
  3
FlatWithEdges
350
2C
  3
Gouraud
350
2D
  3
GouraudWithEdges
350
2E
  3
Linepattern
350
38
  3
Realistic
350
33
  3
Thicken
350
37
  0
LAYOUT
  5
1E
102
{ACAD_REACTORS
330
1A
102
}
330
1A
100
AcDbPlotSettings
  1

  2
none_device
  4

  6

 40
0.0
 41
0.0
 42
0.0
 43
0.0
 44
0.0
 45
0.0
 46
0.0
 47
0.0
 48
0.0
 49
0.0
140
0.0
141
0.0
142
1.0
143
1.0
 70
   688
 72
     0
 73
     0
 74
     5
  7

 75
    16
 76
     0
 77
     2
 78
   300
147
1.0
148
0.0
149
0.0
100
AcDbLayout
  1
Layout1
 70
     1
 71
     1
 10
0.0
 20
0.0
 11
12.0
 21
9.0
 12
0.0
 22
0.0
 32
0.0
 14
1.000000000000000E+20
 24
1.000000000000000E+20
 34
1.000000000000000E+20
 15
-1.000000000000000E+20
 25
-1.000000000000000E+20
 35
-1.000000000000000E+20
146
0.0
 13
0.0
 23
0.0
 33
0.0
 16
1.0
 26
0.0
 36
0.0
 17
0.0
 27
1.0
 37
0.0
 76
     0
330
1B
  0
LAYOUT
  5
26
102
{ACAD_REACTORS
330
1A
102
}
330
1A
100
AcDbPlotSettings
  1

  2
none_device
  4

  6

 40
0.0
 41
0.0
 42
0.0
 43
0.0
 44
0.0
 45
0.0
 46
0.0
 47
0.0
 48
0.0
 49
0.0
140
0.0
141
0.0
142
1.0
143
1.0
 70
   688
 72
     0
 73
     0
 74
     5
  7

 75
    16
 76
     0
 77
     2
 78
   300
147
1.0
148
0.0
149
0.0
100
AcDbLayout
  1
Layout2
 70
     1
 71
     2
 10
0.0
 20
0.0
 11
0.0
 21
0.0
 12
0.0
 22
0.0
 32
0.0
 14
0.0
 24
0.0
 34
0.0
 15
0.0
 25
0.0
 35
0.0
146
0.0
 13
0.0
 23
0.0
 33
0.0
 16
1.0
 26
0.0
 36
0.0
 17
0.0
 27
1.0
 37
0.0
 76
     0
330
23
  0
LAYOUT
  5
22
102
{ACAD_REACTORS
330
1A
102
}
330
1A
100
AcDbPlotSettings
  1

  2
none_device
  4

  6

 40
0.0
 41
0.0
 42
0.0
 43
0.0
 44
0.0
 45
0.0
 46
0.0
 47
0.0
 48
0.0
 49
0.0
140
0.0
141
0.0
142
1.0
143
1.0
 70
  1712
 72
     0
 73
     0
 74
     0
  7

 75
     0
 76
     0
 77
     2
 78
   300
147
1.0
148
0.0
149
0.0
100
AcDbLayout
  1
Model
 70
     1
 71
     0
 10
0.0
 20
0.0
 11
12.0
 21
9.0
 12
0.0
 22
0.0
 32
0.0
 14
97.2331
 24
-114.7338
 34
0.0
 15
196.3916
 25
132.0418
 35
0.0
146
0.0
 13
0.0
 23
0.0
 33
0.0
 16
1.0
 26
0.0
 36
0.0
 17
0.0
 27
1.0
 37
0.0
 76
     0
330
1F
331
29
  0
MATERIAL
  5
3D
102
{ACAD_REACTORS
330
3B
102
}
330
3B
100
AcDbMaterial
  1
ByBlock
 72
     1
 94
      127
  0
MATERIAL
  5
3C
102
{ACAD_REACTORS
330
3B
102
}
330
3B
100
AcDbMaterial
  1
ByLayer
 72
     1
 94
      127
  0
MATERIAL
  5
3E
102
{ACAD_REACTORS
330
3B
102
}
330
3B
100
AcDbMaterial
  1
Global
 72
     1
 94
      127
  0
MLINESTYLE
  5
18
102
{ACAD_REACTORS
330
17
102
}
330
17
100
AcDbMlineStyle
  2
Standard
 70
     0
  3

 62
   256
 51
90.0
 52
90.0
 71
     2
 49
0.5
 62
   256
  6
BYLAYER
 49
-0.5
 62
   256
  6
BYLAYER
  0
ACDBPLACEHOLDER
  5
F
102
{ACAD_REACTORS
330
E
102
}
330
E
  0
VISUALSTYLE
  5
2F
102
{ACAD_REACTORS
330
2A
102
}
102
{ACAD_XDICTIONARY
360
B3
102
}
330
2A
100
AcDbVisualStyle
  2
2dWireframe
 70
     4
 71
     0
 72
     2
 73
     0
 90
        0
 40
-0.6
 41
-30.0
 62
     5
 63
     7
421
 16777215
 74
     1
 91
        4
 64
     7
 65
   257
 75
     1
175
     1
 42
1.0
 92
        0
 66
   257
 43
1.0
 76
     1
 77
     6
 78
     2
 67
     7
 79
     5
170
     0
171
     0
290
     0
174
     0
 93
        1
 44
0.0
173
     0
291
     0
 45
0.0
  0
VISUALSTYLE
  5
31
102
{ACAD_REACTORS
330
2A
102
}
102
{ACAD_XDICTIONARY
360
B7
102
}
330
2A
100
AcDbVisualStyle
  2
3D Hidden
 70
     6
 71
     1
 72
     2
 73
     2
 90
        0
 40
-0.6
 41
-30.0
 62
     5
 63
     7
421
 16777215
 74
     2
 91
        2
 64
     7
 65
   257
 75
     2
175
     1
 42
40.0
 92
        0
 66
   257
 43
1.0
 76
     1
 77
     6
 78
     2
 67
     7
 79
     3
170
     0
171
     0
290
     0
174
     0
 93
        1
 44
0.0
173
     0
291
     0
 45
0.0
  0
VISUALSTYLE
  5
30
102
{ACAD_REACTORS
330
2A
102
}
102
{ACAD_XDICTIONARY
360
B5
102
}
330
2A
100
AcDbVisualStyle
  2
3dWireframe
 70
     5
 71
     0
 72
     2
 73
     0
 90
        0
 40
-0.6
 41
-30.0
 62
     5
 63
     7
421
 16777215
 74
     1
 91
        4
 64
     7
 65
   257
 75
     1
175
     1
 42
1.0
 92
        0
 66
   257
 43
1.0
 76
     1
 77
     6
 78
     2
 67
     7
 79
     5
170
     0
171
     0
290
     0
174
     0
 93
        1
 44
0.0
173
     0
291
     0
 45
0.0
  0
VISUALSTYLE
  5
32
102
{ACAD_REACTORS
330
2A
102
}
102
{ACAD_XDICTIONARY
360
B9
102
}
330
2A
100
AcDbVisualStyle
  2
Basic
 70
     7
 71
     1
 72
     0
 73
     1
 90
        0
 40
-0.6
 41
-30.0
 62
     5
 63
     7
421
 16777215
 74
     0
 91
        4
 64
     7
 65
   257
 75
     1
175
     1
 42
1.0
 92
        8
 66
     7
 43
1.0
 76
     1
 77
     6
 78
     2
 67
     7
 79
     5
170
     0
171
     0
290
     0
174
     0
 93
        1
 44
0.0
173
     0
291
     1
 45
0.0
  0
VISUALSTYLE
  5
36
102
{ACAD_REACTORS
330
2A
102
}
102
{ACAD_XDICTIONARY
360
C1
102
}
330
2A
100
AcDbVisualStyle
  2
Brighten
 70
    12
 71
     2
 72
     2
 73
     0
 90
        0
 40
-0.6
 41
-30.0
 62
     5
 63
     7
421
 16777215
 74
     1
 91
        4
 64
     7
 65
   257
 75
     1
175
     1
 42
1.0
 92
        8
 66
     7
 43
1.0
 76
     1
 77
     6
 78
     2
 67
     7
 79
     5
170
     0
171
     0
290
     0
174
     0
 93
        1
 44
50.0
173
     0
291
     1
 45
0.0
  0
VISUALSTYLE
  5
3A
102
{ACAD_REACTORS
330
2A
102
}
102
{ACAD_XDICTIONARY
360
C9
102
}
330
2A
100
AcDbVisualStyle
  2
ColorChange
 70
    16
 71
     2
 72
     2
 73
     3
 90
        0
 40
-0.6
 41
-30.0
 62
     5
 63
     8
421
  8421504
 74
     1
 91
        4
 64
     7
 65
   257
 75
     1
175
     1
 42
1.0
 92
        8
 66
     8
424
  8421504
 43
1.0
 76
     1
 77
     6
 78
     2
 67
     7
 79
     5
170
     0
171
     0
290
     0
174
     0
 93
        1
 44
0.0
173
     0
291
     1
 45
0.0
  0
VISUALSTYLE
  5
34
102
{ACAD_REACTORS
330
2A
102
}
102
{ACAD_XDICTIONARY
360
BD
102
}
330
2A
100
AcDbVisualStyle
  2
Conceptual
 70
     9
 71
     3
 72
     2
 73
     0
 90
        0
 40
-0.6
 41
-30.0
 62
     5
 63
     7
421
 16777215
 74
     2
 91
        2
 64
     7
 65
   257
 75
     1
175
     1
 42
40.0
 92
        8
 66
     7
 43
1.0
 76
     1
 77
     6
 78
     2
 67
     7
 79
     3
170
     0
171
     0
290
     0
174
     0
 93
        1
 44
0.0
173
     0
291
     0
 45
0.0
  0
VISUALSTYLE
  5
35
102
{ACAD_REACTORS
330
2A
102
}
102
{ACAD_XDICTIONARY
360
BF
102
}
330
2A
100
AcDbVisualStyle
  2
Dim
 70
    11
 71
     2
 72
     2
 73
     0
 90
        0
 40
-0.6
 41
-30.0
 62
     5
 63
     7
421
 16777215
 74
     1
 91
        4
 64
     7
 65
   257
 75
     1
175
     1
 42
1.0
 92
        8
 66
     7
 43
1.0
 76
     1
 77
     6
 78
     2
 67
     7
 79
     5
170
     0
171
     0
290
     0
174
     0
 93
        1
 44
-50.0
173
     0
291
     1
 45
0.0
  0
VISUALSTYLE
  5
39
102
{ACAD_REACTORS
330
2A
102
}
102
{ACAD_XDICTIONARY
360
C7
102
}
330
2A
100
AcDbVisualStyle
  2
Facepattern
 70
    15
 71
     2
 72
     2
 73
     0
 90
        0
 40
-0.6
 41
-30.0
 62
     5
 63
     7
421
 16777215
 74
     1
 91
        4
 64
     7
 65
   257
 75
     1
175
     1
 42
1.0
 92
        8
 66
     7
 43
1.0
 76
     1
 77
     6
 78
     2
 67
     7
 79
     5
170
     0
171
     0
290
     0
174
     0
 93
        1
 44
0.0
173
     0
291
     1
 45
0.0
  0
VISUALSTYLE
  5
2B
102
{ACAD_REACTORS
330
2A
102
}
102
{ACAD_XDICTIONARY
360
AB
102
}
330
2A
100
AcDbVisualStyle
  2
Flat
 70
     0
 71
     2
 72
     1
 73
     1
 90
        2
 40
-0.6
 41
30.0
 62
     5
 63
     7
421
 16777215
 74
     0
 91
        4
 64
     7
 65
   257
 75
     1
175
     1
 42
1.0
 92
        8
 66
     7
 43
1.0
 76
     1
 77
     6
 78
     2
 67
     7
 79
     5
170
     0
171
     0
290
     0
174
     0
 93
       13
 44
0.0
173
     0
291
     1
 45
0.0
  0
VISUALSTYLE
  5
2C
102
{ACAD_REACTORS
330
2A
102
}
102
{ACAD_XDICTIONARY
360
AD
102
}
330
2A
100
AcDbVisualStyle
  2
FlatWithEdges
 70
     1
 71
     2
 72
     1
 73
     1
 90
        2
 40
-0.6
 41
30.0
 62
     5
 63
     7
421
 16777215
 74
     1
 91
        4
 64
     7
 65
   257
 75
     1
175
     1
 42
1.0
 92
        0
 66
   257
 43
1.0
 76
     1
 77
     6
 78
     2
 67
     7
 79
     5
170
     0
171
     0
290
     0
174
     0
 93
       13
 44
0.0
173
     0
291
     1
 45
0.0
  0
VISUALSTYLE
  5
2D
102
{ACAD_REACTORS
330
2A
102
}
102
{ACAD_XDICTIONARY
360
AF
102
}
330
2A
100
AcDbVisualStyle
  2
Gouraud
 70
     2
 71
     2
 72
     2
 73
     1
 90
        2
 40
-0.6
 41
30.0
 62
     5
 63
     7
421
 16777215
 74
     0
 91
        4
 64
     7
 65
   257
 75
     1
175
     1
 42
1.0
 92
        0
 66
     7
 43
1.0
 76
     1
 77
     6
 78
     2
 67
     7
 79
     5
170
     0
171
     0
290
     0
174
     0
 93
       13
 44
0.0
173
     0
291
     1
 45
0.0
  0
VISUALSTYLE
  5
2E
102
{ACAD_REACTORS
330
2A
102
}
102
{ACAD_XDICTIONARY
360
B1
102
}
330
2A
100
AcDbVisualStyle
  2
GouraudWithEdges
 70
     3
 71
     2
 72
     2
 73
     1
 90
        2
 40
-0.6
 41
30.0
 62
     5
 63
     7
421
 16777215
 74
     1
 91
        4
 64
     7
 65
   257
 75
     1
175
     1
 42
1.0
 92
        0
 66
   257
 43
1.0
 76
     1
 77
     6
 78
     2
 67
     7
 79
     5
170
     0
171
     0
290
     0
174
     0
 93
       13
 44
0.0
173
     0
291
     1
 45
0.0
  0
VISUALSTYLE
  5
38
102
{ACAD_REACTORS
330
2A
102
}
102
{ACAD_XDICTIONARY
360
C5
102
}
330
2A
100
AcDbVisualStyle
  2
Linepattern
 70
    14
 71
     2
 72
     2
 73
     0
 90
        0
 40
-0.6
 41
-30.0
 62
     5
 63
     7
421
 16777215
 74
     1
 91
        4
 64
     7
 65
   257
 75
     7
175
     7
 42
1.0
 92
        8
 66
     7
 43
1.0
 76
     1
 77
     6
 78
     2
 67
     7
 79
     5
170
     0
171
     0
290
     0
174
     0
 93
        1
 44
0.0
173
     0
291
     1
 45
0.0
  0
VISUALSTYLE
  5
33
102
{ACAD_REACTORS
330
2A
102
}
102
{ACAD_XDICTIONARY
360
BB
102
}
330
2A
100
AcDbVisualStyle
  2
Realistic
 70
     8
 71
     2
 72
     2
 73
     0
 90
        0
 40
-0.6
 41
-30.0
 62
     5
 63
     7
421
 16777215
 74
     1
 91
        0
 64
     7
 65
   257
 75
     1
175
     1
 42
1.0
 92
        8
 66
     8
424
  7895160
 43
1.0
 76
     1
 77
     6
 78
     2
 67
     7
 79
     5
170
     0
171
     0
290
     0
174
     0
 93
       13
 44
0.0
173
     0
291
     0
 45
0.0
  0
VISUALSTYLE
  5
37
102
{ACAD_REACTORS
330
2A
102
}
102
{ACAD_XDICTIONARY
360
C3
102
}
330
2A
100
AcDbVisualStyle
  2
Thicken
 70
    13
 71
     2
 72
     2
 73
     0
 90
        0
 40
-0.6
 41
-30.0
 62
     5
 63
     7
421
 16777215
 74
     1
 91
        4
 64
     7
 65
   257
 75
     1
175
     1
 42
1.0
 92
       12
 66
     7
 43
1.0
 76
     1
 77
     6
 78
     2
 67
     7
 79
     5
170
     0
171
     0
290
     0
174
     0
 93
        1
 44
0.0
173
     0
291
     1
 45
0.0
  0
DICTIONARY
  5
B3
330
2F
100
AcDbDictionary
280
     1
281
     1
  3
ACAD_XREC_ROUNDTRIP
360
B4
  0
DICTIONARY
  5
B7
330
31
100
AcDbDictionary
280
     1
281
     1
  3
ACAD_XREC_ROUNDTRIP
360
B8
  0
DICTIONARY
  5
B5
330
30
100
AcDbDictionary
280
     1
281
     1
  3
ACAD_XREC_ROUNDTRIP
360
B6
  0
DICTIONARY
  5
B9
330
32
100
AcDbDictionary
280
     1
281
     1
  3
ACAD_XREC_ROUNDTRIP
360
BA
  0
DICTIONARY
  5
C1
330
36
100
AcDbDictionary
280
     1
281
     1
  3
ACAD_XREC_ROUNDTRIP
360
C2
  0
DICTIONARY
  5
C9
330
3A
100
AcDbDictionary
280
     1
281
     1
  3
ACAD_XREC_ROUNDTRIP
360
CA
  0
DICTIONARY
  5
BD
330
34
100
AcDbDictionary
280
     1
281
     1
  3
ACAD_XREC_ROUNDTRIP
360
BE
  0
DICTIONARY
  5
BF
330
35
100
AcDbDictionary
280
     1
281
     1
  3
ACAD_XREC_ROUNDTRIP
360
C0
  0
DICTIONARY
  5
C7
330
39
100
AcDbDictionary
280
     1
281
     1
  3
ACAD_XREC_ROUNDTRIP
360
C8
  0
DICTIONARY
  5
AB
330
2B
100
AcDbDictionary
280
     1
281
     1
  3
ACAD_XREC_ROUNDTRIP
360
AC
  0
DICTIONARY
  5
AD
330
2C
100
AcDbDictionary
280
     1
281
     1
  3
ACAD_XREC_ROUNDTRIP
360
AE
  0
DICTIONARY
  5
AF
330
2D
100
AcDbDictionary
280
     1
281
     1
  3
ACAD_XREC_ROUNDTRIP
360
B0
  0
DICTIONARY
  5
B1
330
2E
100
AcDbDictionary
280
     1
281
     1
  3
ACAD_XREC_ROUNDTRIP
360
B2
  0
DICTIONARY
  5
C5
330
38
100
AcDbDictionary
280
     1
281
     1
  3
ACAD_XREC_ROUNDTRIP
360
C6
  0
DICTIONARY
  5
BB
330
33
100
AcDbDictionary
280
     1
281
     1
  3
ACAD_XREC_ROUNDTRIP
360
BC
  0
DICTIONARY
  5
C3
330
37
100
AcDbDictionary
280
     1
281
     1
  3
ACAD_XREC_ROUNDTRIP
360
C4
  0
XRECORD
  5
B4
102
{ACAD_REACTORS
330
B3
102
}
330
B3
100
AcDbXrecord
280
     1
102
RTVSPropertyOp0
 70
     1
102
RTVSPropertyOp1
 70
     1
102
RTVSPropertyOp2
 70
     1
102
RTVSPropertyOp3
 70
     1
102
RTVSPropertyOp4
 70
     1
102
RTVSPropertyOp5
 70
     1
102
RTVSPropertyOp6
 70
     1
102
RTVSPropertyOp7
 70
     1
102
RTVSPropertyOp8
 70
     1
102
RTVSPropertyOp9
 70
     1
102
RTVSPropertyOp10
 70
     1
102
RTVSPropertyOp11
 70
     1
102
RTVSPropertyOp12
 70
     1
102
RTVSPropertyOp13
 70
     1
102
RTVSPropertyOp14
 70
     1
102
RTVSPropertyOp15
 70
     1
102
RTVSPropertyOp16
 70
     1
102
RTVSPropertyOp17
 70
     1
102
RTVSPropertyOp18
 70
     1
102
RTVSPropertyOp19
 70
     1
102
RTVSPropertyOp20
 70
     1
102
RTVSPropertyOp21
 70
     1
102
RTVSPropertyOp22
 70
     1
102
RTVSPropertyOp23
 70
     1
102
RTVSPropertyOp24
 70
     1
102
RTVSPropertyOp25
 70
     1
102
RTVSPropertyOp26
 70
     1
102
RTVSPropertyOp27
 70
     1
102
RTVSPropertyOp28
 70
     1
102
RTVSPropertyOp29
 70
     1
102
RTVSPropertyOp30
 70
     1
102
RTVSPropertyOp31
 70
     1
102
RTVSPropertyOp32
 70
     1
  0
XRECORD
  5
B8
102
{ACAD_REACTORS
330
B7
102
}
330
B7
100
AcDbXrecord
280
     1
102
RTVSPropertyOp0
 70
     1
102
RTVSPropertyOp1
 70
     1
102
RTVSPropertyOp2
 70
     1
102
RTVSPropertyOp3
 70
     1
102
RTVSPropertyOp4
 70
     1
102
RTVSPropertyOp5
 70
     1
102
RTVSPropertyOp6
 70
     1
102
RTVSPropertyOp7
 70
     1
102
RTVSPropertyOp8
 70
     1
102
RTVSPropertyOp9
 70
     1
102
RTVSPropertyOp10
 70
     1
102
RTVSPropertyOp11
 70
     1
102
RTVSPropertyOp12
 70
     1
102
RTVSPropertyOp13
 70
     1
102
RTVSPropertyOp14
 70
     1
102
RTVSPropertyOp15
 70
     1
102
RTVSPropertyOp16
 70
     1
102
RTVSPropertyOp17
 70
     1
102
RTVSPropertyOp18
 70
     1
102
RTVSPropertyOp19
 70
     1
102
RTVSPropertyOp20
 70
     1
102
RTVSPropertyOp21
 70
     1
102
RTVSPropertyOp22
 70
     1
102
RTVSPropertyOp23
 70
     1
102
RTVSPropertyOp24
 70
     1
102
RTVSPropertyOp25
 70
     1
102
RTVSPropertyOp26
 70
     1
102
RTVSPropertyOp27
 70
     1
102
RTVSPropertyOp28
 70
     1
102
RTVSPropertyOp29
 70
     1
102
RTVSPropertyOp30
 70
     1
102
RTVSPropertyOp31
 70
     1
102
RTVSPropertyOp32
 70
     1
  0
XRECORD
  5
B6
102
{ACAD_REACTORS
330
B5
102
}
330
B5
100
AcDbXrecord
280
     1
102
RTVSPropertyOp0
 70
     1
102
RTVSPropertyOp1
 70
     1
102
RTVSPropertyOp2
 70
     1
102
RTVSPropertyOp3
 70
     1
102
RTVSPropertyOp4
 70
     1
102
RTVSPropertyOp5
 70
     1
102
RTVSPropertyOp6
 70
     1
102
RTVSPropertyOp7
 70
     1
102
RTVSPropertyOp8
 70
     1
102
RTVSPropertyOp9
 70
     1
102
RTVSPropertyOp10
 70
     1
102
RTVSPropertyOp11
 70
     1
102
RTVSPropertyOp12
 70
     1
102
RTVSPropertyOp13
 70
     1
102
RTVSPropertyOp14
 70
     1
102
RTVSPropertyOp15
 70
     1
102
RTVSPropertyOp16
 70
     1
102
RTVSPropertyOp17
 70
     1
102
RTVSPropertyOp18
 70
     1
102
RTVSPropertyOp19
 70
     1
102
RTVSPropertyOp20
 70
     1
102
RTVSPropertyOp21
 70
     1
102
RTVSPropertyOp22
 70
     1
102
RTVSPropertyOp23
 70
     1
102
RTVSPropertyOp24
 70
     1
102
RTVSPropertyOp25
 70
     1
102
RTVSPropertyOp26
 70
     1
102
RTVSPropertyOp27
 70
     1
102
RTVSPropertyOp28
 70
     1
102
RTVSPropertyOp29
 70
     1
102
RTVSPropertyOp30
 70
     1
102
RTVSPropertyOp31
 70
     1
102
RTVSPropertyOp32
 70
     1
  0
XRECORD
  5
BA
102
{ACAD_REACTORS
330
B9
102
}
330
B9
100
AcDbXrecord
280
     1
102
RTVSPropertyOp0
 70
     1
102
RTVSPropertyOp1
 70
     1
102
RTVSPropertyOp2
 70
     1
102
RTVSPropertyOp3
 70
     1
102
RTVSPropertyOp4
 70
     1
102
RTVSPropertyOp5
 70
     1
102
RTVSPropertyOp6
 70
     1
102
RTVSPropertyOp7
 70
     1
102
RTVSPropertyOp8
 70
     1
102
RTVSPropertyOp9
 70
     1
102
RTVSPropertyOp10
 70
     1
102
RTVSPropertyOp11
 70
     1
102
RTVSPropertyOp12
 70
     1
102
RTVSPropertyOp13
 70
     1
102
RTVSPropertyOp14
 70
     1
102
RTVSPropertyOp15
 70
     1
102
RTVSPropertyOp16
 70
     1
102
RTVSPropertyOp17
 70
     1
102
RTVSPropertyOp18
 70
     1
102
RTVSPropertyOp19
 70
     1
102
RTVSPropertyOp20
 70
     1
102
RTVSPropertyOp21
 70
     1
102
RTVSPropertyOp22
 70
     1
102
RTVSPropertyOp23
 70
     1
102
RTVSPropertyOp24
 70
     1
102
RTVSPropertyOp25
 70
     1
102
RTVSPropertyOp26
 70
     1
102
RTVSPropertyOp27
 70
     1
102
RTVSPropertyOp28
 70
     1
102
RTVSPropertyOp29
 70
     1
102
RTVSPropertyOp30
 70
     1
102
RTVSPropertyOp31
 70
     1
102
RTVSPropertyOp32
 70
     1
  0
XRECORD
  5
C2
102
{ACAD_REACTORS
330
C1
102
}
330
C1
100
AcDbXrecord
280
     1
102
RTVSPropertyOp0
 70
     1
102
RTVSPropertyOp1
 70
     1
102
RTVSPropertyOp2
 70
     1
102
RTVSPropertyOp3
 70
     1
102
RTVSPropertyOp4
 70
     1
102
RTVSPropertyOp5
 70
     1
102
RTVSPropertyOp6
 70
     1
102
RTVSPropertyOp7
 70
     1
102
RTVSPropertyOp8
 70
     1
102
RTVSPropertyOp9
 70
     1
102
RTVSPropertyOp10
 70
     1
102
RTVSPropertyOp11
 70
     1
102
RTVSPropertyOp12
 70
     1
102
RTVSPropertyOp13
 70
     1
102
RTVSPropertyOp14
 70
     1
102
RTVSPropertyOp15
 70
     1
102
RTVSPropertyOp16
 70
     1
102
RTVSPropertyOp17
 70
     1
102
RTVSPropertyOp18
 70
     1
102
RTVSPropertyOp19
 70
     1
102
RTVSPropertyOp20
 70
     1
102
RTVSPropertyOp21
 70
     1
102
RTVSPropertyOp22
 70
     1
102
RTVSPropertyOp23
 70
     1
102
RTVSPropertyOp24
 70
     1
102
RTVSPropertyOp25
 70
     1
102
RTVSPropertyOp26
 70
     1
102
RTVSPropertyOp27
 70
     1
102
RTVSPropertyOp28
 70
     1
102
RTVSPropertyOp29
 70
     1
102
RTVSPropertyOp30
 70
     1
102
RTVSPropertyOp31
 70
     1
102
RTVSPropertyOp32
 70
     1
  0
XRECORD
  5
CA
102
{ACAD_REACTORS
330
C9
102
}
330
C9
100
AcDbXrecord
280
     1
102
RTVSPropertyOp0
 70
     1
102
RTVSPropertyOp1
 70
     1
102
RTVSPropertyOp2
 70
     1
102
RTVSPropertyOp3
 70
     1
102
RTVSPropertyOp4
 70
     1
102
RTVSPropertyOp5
 70
     1
102
RTVSPropertyOp6
 70
     1
102
RTVSPropertyOp7
 70
     1
102
RTVSPropertyOp8
 70
     1
102
RTVSPropertyOp9
 70
     1
102
RTVSPropertyOp10
 70
     1
102
RTVSPropertyOp11
 70
     1
102
RTVSPropertyOp12
 70
     1
102
RTVSPropertyOp13
 70
     1
102
RTVSPropertyOp14
 70
     1
102
RTVSPropertyOp15
 70
     1
102
RTVSPropertyOp16
 70
     1
102
RTVSPropertyOp17
 70
     1
102
RTVSPropertyOp18
 70
     1
102
RTVSPropertyOp19
 70
     1
102
RTVSPropertyOp20
 70
     1
102
RTVSPropertyOp21
 70
     1
102
RTVSPropertyOp22
 70
     1
102
RTVSPropertyOp23
 70
     1
102
RTVSPropertyOp24
 70
     1
102
RTVSPropertyOp25
 70
     1
102
RTVSPropertyOp26
 70
     1
102
RTVSPropertyOp27
 70
     1
102
RTVSPropertyOp28
 70
     1
102
RTVSPropertyOp29
 70
     1
102
RTVSPropertyOp30
 70
     1
102
RTVSPropertyOp31
 70
     1
102
RTVSPropertyOp32
 70
     1
  0
XRECORD
  5
BE
102
{ACAD_REACTORS
330
BD
102
}
330
BD
100
AcDbXrecord
280
     1
102
RTVSPropertyOp0
 70
     1
102
RTVSPropertyOp1
 70
     1
102
RTVSPropertyOp2
 70
     1
102
RTVSPropertyOp3
 70
     1
102
RTVSPropertyOp4
 70
     1
102
RTVSPropertyOp5
 70
     1
102
RTVSPropertyOp6
 70
     1
102
RTVSPropertyOp7
 70
     1
102
RTVSPropertyOp8
 70
     1
102
RTVSPropertyOp9
 70
     1
102
RTVSPropertyOp10
 70
     1
102
RTVSPropertyOp11
 70
     1
102
RTVSPropertyOp12
 70
     1
102
RTVSPropertyOp13
 70
     1
102
RTVSPropertyOp14
 70
     1
102
RTVSPropertyOp15
 70
     1
102
RTVSPropertyOp16
 70
     1
102
RTVSPropertyOp17
 70
     1
102
RTVSPropertyOp18
 70
     1
102
RTVSPropertyOp19
 70
     1
102
RTVSPropertyOp20
 70
     1
102
RTVSPropertyOp21
 70
     1
102
RTVSPropertyOp22
 70
     1
102
RTVSPropertyOp23
 70
     1
102
RTVSPropertyOp24
 70
     1
102
RTVSPropertyOp25
 70
     1
102
RTVSPropertyOp26
 70
     1
102
RTVSPropertyOp27
 70
     1
102
RTVSPropertyOp28
 70
     1
102
RTVSPropertyOp29
 70
     1
102
RTVSPropertyOp30
 70
     1
102
RTVSPropertyOp31
 70
     1
102
RTVSPropertyOp32
 70
     1
  0
XRECORD
  5
C0
102
{ACAD_REACTORS
330
BF
102
}
330
BF
100
AcDbXrecord
280
     1
102
RTVSPropertyOp0
 70
     1
102
RTVSPropertyOp1
 70
     1
102
RTVSPropertyOp2
 70
     1
102
RTVSPropertyOp3
 70
     1
102
RTVSPropertyOp4
 70
     1
102
RTVSPropertyOp5
 70
     1
102
RTVSPropertyOp6
 70
     1
102
RTVSPropertyOp7
 70
     1
102
RTVSPropertyOp8
 70
     1
102
RTVSPropertyOp9
 70
     1
102
RTVSPropertyOp10
 70
     1
102
RTVSPropertyOp11
 70
     1
102
RTVSPropertyOp12
 70
     1
102
RTVSPropertyOp13
 70
     1
102
RTVSPropertyOp14
 70
     1
102
RTVSPropertyOp15
 70
     1
102
RTVSPropertyOp16
 70
     1
102
RTVSPropertyOp17
 70
     1
102
RTVSPropertyOp18
 70
     1
102
RTVSPropertyOp19
 70
     1
102
RTVSPropertyOp20
 70
     1
102
RTVSPropertyOp21
 70
     1
102
RTVSPropertyOp22
 70
     1
102
RTVSPropertyOp23
 70
     1
102
RTVSPropertyOp24
 70
     1
102
RTVSPropertyOp25
 70
     1
102
RTVSPropertyOp26
 70
     1
102
RTVSPropertyOp27
 70
     1
102
RTVSPropertyOp28
 70
     1
102
RTVSPropertyOp29
 70
     1
102
RTVSPropertyOp30
 70
     1
102
RTVSPropertyOp31
 70
     1
102
RTVSPropertyOp32
 70
     1
  0
XRECORD
  5
C8
102
{ACAD_REACTORS
330
C7
102
}
330
C7
100
AcDbXrecord
280
     1
102
RTVSPropertyOp0
 70
     1
102
RTVSPropertyOp1
 70
     1
102
RTVSPropertyOp2
 70
     1
102
RTVSPropertyOp3
 70
     1
102
RTVSPropertyOp4
 70
     1
102
RTVSPropertyOp5
 70
     1
102
RTVSPropertyOp6
 70
     1
102
RTVSPropertyOp7
 70
     1
102
RTVSPropertyOp8
 70
     1
102
RTVSPropertyOp9
 70
     1
102
RTVSPropertyOp10
 70
     1
102
RTVSPropertyOp11
 70
     1
102
RTVSPropertyOp12
 70
     1
102
RTVSPropertyOp13
 70
     1
102
RTVSPropertyOp14
 70
     1
102
RTVSPropertyOp15
 70
     1
102
RTVSPropertyOp16
 70
     1
102
RTVSPropertyOp17
 70
     1
102
RTVSPropertyOp18
 70
     1
102
RTVSPropertyOp19
 70
     1
102
RTVSPropertyOp20
 70
     1
102
RTVSPropertyOp21
 70
     1
102
RTVSPropertyOp22
 70
     1
102
RTVSPropertyOp23
 70
     1
102
RTVSPropertyOp24
 70
     1
102
RTVSPropertyOp25
 70
     1
102
RTVSPropertyOp26
 70
     1
102
RTVSPropertyOp27
 70
     1
102
RTVSPropertyOp28
 70
     1
102
RTVSPropertyOp29
 70
     1
102
RTVSPropertyOp30
 70
     1
102
RTVSPropertyOp31
 70
     1
102
RTVSPropertyOp32
 70
     1
  0
XRECORD
  5
AC
102
{ACAD_REACTORS
330
AB
102
}
330
AB
100
AcDbXrecord
280
     1
102
RTVSPropertyOp0
 70
     1
102
RTVSPropertyOp1
 70
     1
102
RTVSPropertyOp2
 70
     1
102
RTVSPropertyOp3
 70
     1
102
RTVSPropertyOp4
 70
     1
102
RTVSPropertyOp5
 70
     1
102
RTVSPropertyOp6
 70
     1
102
RTVSPropertyOp7
 70
     1
102
RTVSPropertyOp8
 70
     1
102
RTVSPropertyOp9
 70
     1
102
RTVSPropertyOp10
 70
     1
102
RTVSPropertyOp11
 70
     1
102
RTVSPropertyOp12
 70
     1
102
RTVSPropertyOp13
 70
     1
102
RTVSPropertyOp14
 70
     1
102
RTVSPropertyOp15
 70
     1
102
RTVSPropertyOp16
 70
     1
102
RTVSPropertyOp17
 70
     1
102
RTVSPropertyOp18
 70
     1
102
RTVSPropertyOp19
 70
     1
102
RTVSPropertyOp20
 70
     1
102
RTVSPropertyOp21
 70
     1
102
RTVSPropertyOp22
 70
     1
102
RTVSPropertyOp23
 70
     1
102
RTVSPropertyOp24
 70
     1
102
RTVSPropertyOp25
 70
     1
102
RTVSPropertyOp26
 70
     1
102
RTVSPropertyOp27
 70
     1
102
RTVSPropertyOp28
 70
     1
102
RTVSPropertyOp29
 70
     1
102
RTVSPropertyOp30
 70
     1
102
RTVSPropertyOp31
 70
     1
102
RTVSPropertyOp32
 70
     1
  0
XRECORD
  5
AE
102
{ACAD_REACTORS
330
AD
102
}
330
AD
100
AcDbXrecord
280
     1
102
RTVSPropertyOp0
 70
     1
102
RTVSPropertyOp1
 70
     1
102
RTVSPropertyOp2
 70
     1
102
RTVSPropertyOp3
 70
     1
102
RTVSPropertyOp4
 70
     1
102
RTVSPropertyOp5
 70
     1
102
RTVSPropertyOp6
 70
     1
102
RTVSPropertyOp7
 70
     1
102
RTVSPropertyOp8
 70
     1
102
RTVSPropertyOp9
 70
     1
102
RTVSPropertyOp10
 70
     1
102
RTVSPropertyOp11
 70
     1
102
RTVSPropertyOp12
 70
     1
102
RTVSPropertyOp13
 70
     1
102
RTVSPropertyOp14
 70
     1
102
RTVSPropertyOp15
 70
     1
102
RTVSPropertyOp16
 70
     1
102
RTVSPropertyOp17
 70
     1
102
RTVSPropertyOp18
 70
     1
102
RTVSPropertyOp19
 70
     1
102
RTVSPropertyOp20
 70
     1
102
RTVSPropertyOp21
 70
     1
102
RTVSPropertyOp22
 70
     1
102
RTVSPropertyOp23
 70
     1
102
RTVSPropertyOp24
 70
     1
102
RTVSPropertyOp25
 70
     1
102
RTVSPropertyOp26
 70
     1
102
RTVSPropertyOp27
 70
     1
102
RTVSPropertyOp28
 70
     1
102
RTVSPropertyOp29
 70
     1
102
RTVSPropertyOp30
 70
     1
102
RTVSPropertyOp31
 70
     1
102
RTVSPropertyOp32
 70
     1
  0
XRECORD
  5
B0
102
{ACAD_REACTORS
330
AF
102
}
330
AF
100
AcDbXrecord
280
     1
102
RTVSPropertyOp0
 70
     1
102
RTVSPropertyOp1
 70
     1
102
RTVSPropertyOp2
 70
     1
102
RTVSPropertyOp3
 70
     1
102
RTVSPropertyOp4
 70
     1
102
RTVSPropertyOp5
 70
     1
102
RTVSPropertyOp6
 70
     1
102
RTVSPropertyOp7
 70
     1
102
RTVSPropertyOp8
 70
     1
102
RTVSPropertyOp9
 70
     1
102
RTVSPropertyOp10
 70
     1
102
RTVSPropertyOp11
 70
     1
102
RTVSPropertyOp12
 70
     1
102
RTVSPropertyOp13
 70
     1
102
RTVSPropertyOp14
 70
     1
102
RTVSPropertyOp15
 70
     1
102
RTVSPropertyOp16
 70
     1
102
RTVSPropertyOp17
 70
     1
102
RTVSPropertyOp18
 70
     1
102
RTVSPropertyOp19
 70
     1
102
RTVSPropertyOp20
 70
     1
102
RTVSPropertyOp21
 70
     1
102
RTVSPropertyOp22
 70
     1
102
RTVSPropertyOp23
 70
     1
102
RTVSPropertyOp24
 70
     1
102
RTVSPropertyOp25
 70
     1
102
RTVSPropertyOp26
 70
     1
102
RTVSPropertyOp27
 70
     1
102
RTVSPropertyOp28
 70
     1
102
RTVSPropertyOp29
 70
     1
102
RTVSPropertyOp30
 70
     1
102
RTVSPropertyOp31
 70
     1
102
RTVSPropertyOp32
 70
     1
  0
XRECORD
  5
B2
102
{ACAD_REACTORS
330
B1
102
}
330
B1
100
AcDbXrecord
280
     1
102
RTVSPropertyOp0
 70
     1
102
RTVSPropertyOp1
 70
     1
102
RTVSPropertyOp2
 70
     1
102
RTVSPropertyOp3
 70
     1
102
RTVSPropertyOp4
 70
     1
102
RTVSPropertyOp5
 70
     1
102
RTVSPropertyOp6
 70
     1
102
RTVSPropertyOp7
 70
     1
102
RTVSPropertyOp8
 70
     1
102
RTVSPropertyOp9
 70
     1
102
RTVSPropertyOp10
 70
     1
102
RTVSPropertyOp11
 70
     1
102
RTVSPropertyOp12
 70
     1
102
RTVSPropertyOp13
 70
     1
102
RTVSPropertyOp14
 70
     1
102
RTVSPropertyOp15
 70
     1
102
RTVSPropertyOp16
 70
     1
102
RTVSPropertyOp17
 70
     1
102
RTVSPropertyOp18
 70
     1
102
RTVSPropertyOp19
 70
     1
102
RTVSPropertyOp20
 70
     1
102
RTVSPropertyOp21
 70
     1
102
RTVSPropertyOp22
 70
     1
102
RTVSPropertyOp23
 70
     1
102
RTVSPropertyOp24
 70
     1
102
RTVSPropertyOp25
 70
     1
102
RTVSPropertyOp26
 70
     1
102
RTVSPropertyOp27
 70
     1
102
RTVSPropertyOp28
 70
     1
102
RTVSPropertyOp29
 70
     1
102
RTVSPropertyOp30
 70
     1
102
RTVSPropertyOp31
 70
     1
102
RTVSPropertyOp32
 70
     1
  0
XRECORD
  5
C6
102
{ACAD_REACTORS
330
C5
102
}
330
C5
100
AcDbXrecord
280
     1
102
RTVSPropertyOp0
 70
     1
102
RTVSPropertyOp1
 70
     1
102
RTVSPropertyOp2
 70
     1
102
RTVSPropertyOp3
 70
     1
102
RTVSPropertyOp4
 70
     1
102
RTVSPropertyOp5
 70
     1
102
RTVSPropertyOp6
 70
     1
102
RTVSPropertyOp7
 70
     1
102
RTVSPropertyOp8
 70
     1
102
RTVSPropertyOp9
 70
     1
102
RTVSPropertyOp10
 70
     1
102
RTVSPropertyOp11
 70
     1
102
RTVSPropertyOp12
 70
     1
102
RTVSPropertyOp13
 70
     1
102
RTVSPropertyOp14
 70
     1
102
RTVSPropertyOp15
 70
     1
102
RTVSPropertyOp16
 70
     1
102
RTVSPropertyOp17
 70
     1
102
RTVSPropertyOp18
 70
     1
102
RTVSPropertyOp19
 70
     1
102
RTVSPropertyOp20
 70
     1
102
RTVSPropertyOp21
 70
     1
102
RTVSPropertyOp22
 70
     1
102
RTVSPropertyOp23
 70
     1
102
RTVSPropertyOp24
 70
     1
102
RTVSPropertyOp25
 70
     1
102
RTVSPropertyOp26
 70
     1
102
RTVSPropertyOp27
 70
     1
102
RTVSPropertyOp28
 70
     1
102
RTVSPropertyOp29
 70
     1
102
RTVSPropertyOp30
 70
     1
102
RTVSPropertyOp31
 70
     1
102
RTVSPropertyOp32
 70
     1
  0
XRECORD
  5
BC
102
{ACAD_REACTORS
330
BB
102
}
330
BB
100
AcDbXrecord
280
     1
102
RTVSPropertyOp0
 70
     1
102
RTVSPropertyOp1
 70
     1
102
RTVSPropertyOp2
 70
     1
102
RTVSPropertyOp3
 70
     1
102
RTVSPropertyOp4
 70
     1
102
RTVSPropertyOp5
 70
     1
102
RTVSPropertyOp6
 70
     1
102
RTVSPropertyOp7
 70
     1
102
RTVSPropertyOp8
 70
     1
102
RTVSPropertyOp9
 70
     1
102
RTVSPropertyOp10
 70
     1
102
RTVSPropertyOp11
 70
     1
102
RTVSPropertyOp12
 70
     1
102
RTVSPropertyOp13
 70
     1
102
RTVSPropertyOp14
 70
     1
102
RTVSPropertyOp15
 70
     1
102
RTVSPropertyOp16
 70
     1
102
RTVSPropertyOp17
 70
     1
102
RTVSPropertyOp18
 70
     1
102
RTVSPropertyOp19
 70
     1
102
RTVSPropertyOp20
 70
     1
102
RTVSPropertyOp21
 70
     1
102
RTVSPropertyOp22
 70
     1
102
RTVSPropertyOp23
 70
     1
102
RTVSPropertyOp24
 70
     1
102
RTVSPropertyOp25
 70
     1
102
RTVSPropertyOp26
 70
     1
102
RTVSPropertyOp27
 70
     1
102
RTVSPropertyOp28
 70
     1
102
RTVSPropertyOp29
 70
     1
102
RTVSPropertyOp30
 70
     1
102
RTVSPropertyOp31
 70
     1
102
RTVSPropertyOp32
 70
     1
  0
XRECORD
  5
C4
102
{ACAD_REACTORS
330
C3
102
}
330
C3
100
AcDbXrecord
280
     1
102
RTVSPropertyOp0
 70
     1
102
RTVSPropertyOp1
 70
     1
102
RTVSPropertyOp2
 70
     1
102
RTVSPropertyOp3
 70
     1
102
RTVSPropertyOp4
 70
     1
102
RTVSPropertyOp5
 70
     1
102
RTVSPropertyOp6
 70
     1
102
RTVSPropertyOp7
 70
     1
102
RTVSPropertyOp8
 70
     1
102
RTVSPropertyOp9
 70
     1
102
RTVSPropertyOp10
 70
     1
102
RTVSPropertyOp11
 70
     1
102
RTVSPropertyOp12
 70
     1
102
RTVSPropertyOp13
 70
     1
102
RTVSPropertyOp14
 70
     1
102
RTVSPropertyOp15
 70
     1
102
RTVSPropertyOp16
 70
     1
102
RTVSPropertyOp17
 70
     1
102
RTVSPropertyOp18
 70
     1
102
RTVSPropertyOp19
 70
     1
102
RTVSPropertyOp20
 70
     1
102
RTVSPropertyOp21
 70
     1
102
RTVSPropertyOp22
 70
     1
102
RTVSPropertyOp23
 70
     1
102
RTVSPropertyOp24
 70
     1
102
RTVSPropertyOp25
 70
     1
102
RTVSPropertyOp26
 70
     1
102
RTVSPropertyOp27
 70
     1
102
RTVSPropertyOp28
 70
     1
102
RTVSPropertyOp29
 70
     1
102
RTVSPropertyOp30
 70
     1
102
RTVSPropertyOp31
 70
     1
102
RTVSPropertyOp32
 70
     1
  0
ENDSEC
  0
EOF
