  0
SECTION
  2
HEADER
  9
$ACADVER
  1
AC1021
  9
$ACADMAINTVER
 70
    25
  9
$DWGCODEPAGE
  3
ANSI_1252
  9
$INSBASE
 10
0.0
 20
0.0
 30
0.0
  9
$EXTMIN
 10
-187.2443
 20
-114.8837
 30
0.0
  9
$EXTMAX
 10
-83.8753
 20
132.0785
 30
0.0
  9
$LIMMIN
 10
0.0
 20
0.0
  9
$LIMMAX
 10
12.0
 20
9.0
  9
$ORTHOMODE
 70
     0
  9
$REGENMODE
 70
     1
  9
$FILLMODE
 70
     1
  9
$QTEXTMODE
 70
     0
  9
$MIRRTEXT
 70
     1
  9
$LTSCALE
 40
1.0
  9
$ATTMODE
 70
     1
  9
$TEXTSIZE
 40
0.2
  9
$TRACEWID
 40
0.05
  9
$TEXTSTYLE
  7
Standard
  9
$CLAYER
  8
0
  9
$CELTYPE
  6
ByLayer
  9
$CECOLOR
 62
   256
  9
$CELTSCALE
 40
1.0
  9
$DISPSILH
 70
     0
  9
$DIMSCALE
 40
1.0
  9
$DIMASZ
 40
0.18
  9
$DIMEXO
 40
0.0625
  9
$DIMDLI
 40
0.38
  9
$DIMRND
 40
0.0
  9
$DIMDLE
 40
0.0
  9
$DIMEXE
 40
0.18
  9
$DIMTP
 40
0.0
  9
$DIMTM
 40
0.0
  9
$DIMTXT
 40
0.18
  9
$DIMCEN
 40
0.09
  9
$DIMTSZ
 40
0.0
  9
$DIMTOL
 70
     0
  9
$DIMLIM
 70
     0
  9
$DIMTIH
 70
     1
  9
$DIMTOH
 70
     1
  9
$DIMSE1
 70
     0
  9
$DIMSE2
 70
     0
  9
$DIMTAD
 70
     0
  9
$DIMZIN
 70
     0
  9
$DIMBLK
  1

  9
$DIMASO
 70
     1
  9
$DIMSHO
 70
     1
  9
$DIMPOST
  1

  9
$DIMAPOST
  1

  9
$DIMALT
 70
     0
  9
$DIMALTD
 70
     2
  9
$DIMALTF
 40
25.4
  9
$DIMLFAC
 40
1.0
  9
$DIMTOFL
 70
     0
  9
$DIMTVP
 40
0.0
  9
$DIMTIX
 70
     0
  9
$DIMSOXD
 70
     0
  9
$DIMSAH
 70
     0
  9
$DIMBLK1
  1

  9
$DIMBLK2
  1

  9
$DIMSTYLE
  2
Standard
  9
$DIMCLRD
 70
     0
  9
$DIMCLRE
 70
     0
  9
$DIMCLRT
 70
     0
  9
$DIMTFAC
 40
1.0
  9
$DIMGAP
 40
0.09
  9
$DIMJUST
 70
     0
  9
$DIMSD1
 70
     0
  9
$DIMSD2
 70
     0
  9
$DIMTOLJ
 70
     1
  9
$DIMTZIN
 70
     0
  9
$DIMALTZ
 70
     0
  9
$DIMALTTZ
 70
     0
  9
$DIMUPT
 70
     0
  9
$DIMDEC
 70
     4
  9
$DIMTDEC
 70
     4
  9
$DIMALTU
 70
     2
  9
$DIMALTTD
 70
     2
  9
$DIMTXSTY
  7
Standard
  9
$DIMAUNIT
 70
     0
  9
$DIMADEC
 70
     0
  9
$DIMALTRND
 40
0.0
  9
$DIMAZIN
 70
     0
  9
$DIMDSEP
 70
    46
  9
$DIMATFIT
 70
     3
  9
$DIMFRAC
 70
     0
  9
$DIMLDRBLK
  1

  9
$DIMLUNIT
 70
     2
  9
$DIMLWD
 70
    -2
  9
$DIMLWE
 70
    -2
  9
$DIMTMOVE
 70
     0
  9
$DIMFXL
 40
1.0
  9
$DIMFXLON
 70
     0
  9
$DIMJOGANG
 40
0.7853981633974483
  9
$DIMTFILL
 70
     0
  9
$DIMTFILLCLR
 70
     0
  9
$DIMARCSYM
 70
     0
  9
$DIMLTYPE
  6

  9
$DIMLTEX1
  6

  9
$DIMLTEX2
  6

  9
$LUNITS
 70
     2
  9
$LUPREC
 70
     4
  9
$SKETCHINC
 40
0.1
  9
$FILLETRAD
 40
0.5
  9
$AUNITS
 70
     0
  9
$AUPREC
 70
     0
  9
$MENU
  1
.
  9
$ELEVATION
 40
0.0
  9
$PELEVATION
 40
0.0
  9
$THICKNESS
 40
0.0
  9
$LIMCHECK
 70
     0
  9
$CHAMFERA
 40
0.5
  9
$CHAMFERB
 40
0.5
  9
$CHAMFERC
 40
1.0
  9
$CHAMFERD
 40
0.0
  9
$SKPOLY
 70
     0
  9
$TDCREATE
 40
2458492.548183067
  9
$TDUCREATE
 40
2458492.548183067
  9
$TDUPDATE
 40
2458492.548183194
  9
$TDUUPDATE
 40
2458492.548183194
  9
$TDINDWG
 40
0.0000000116
  9
$TDUSRTIMER
 40
0.0000000116
  9
$USRTIMER
 70
     1
  9
$ANGBASE
 50
0.0
  9
$ANGDIR
 70
     0
  9
$PDMODE
 70
     0
  9
$PDSIZE
 40
0.0
  9
$PLINEWID
 40
0.0
  9
$SPLFRAME
 70
     0
  9
$SPLINETYPE
 70
     6
  9
$SPLINESEGS
 70
     8
  9
$HANDSEED
  5
E5
  9
$SURFTAB1
 70
     6
  9
$SURFTAB2
 70
     6
  9
$SURFTYPE
 70
     6
  9
$SURFU
 70
     6
  9
$SURFV
 70
     6
  9
$UCSBASE
  2

  9
$UCSNAME
  2

  9
$UCSORG
 10
0.0
 20
0.0
 30
0.0
  9
$UCSXDIR
 10
1.0
 20
0.0
 30
0.0
  9
$UCSYDIR
 10
0.0
 20
1.0
 30
0.0
  9
$UCSORTHOREF
  2

  9
$UCSORTHOVIEW
 70
     0
  9
$UCSORGTOP
 10
0.0
 20
0.0
 30
0.0
  9
$UCSORGBOTTOM
 10
0.0
 20
0.0
 30
0.0
  9
$UCSORGLEFT
 10
0.0
 20
0.0
 30
0.0
  9
$UCSORGRIGHT
 10
0.0
 20
0.0
 30
0.0
  9
$UCSORGFRONT
 10
0.0
 20
0.0
 30
0.0
  9
$UCSORGBACK
 10
0.0
 20
0.0
 30
0.0
  9
$PUCSBASE
  2

  9
$PUCSNAME
  2

  9
$PUCSORG
 10
0.0
 20
0.0
 30
0.0
  9
$PUCSXDIR
 10
1.0
 20
0.0
 30
0.0
  9
$PUCSYDIR
 10
0.0
 20
1.0
 30
0.0
  9
$PUCSORTHOREF
  2

  9
$PUCSORTHOVIEW
 70
     0
  9
$PUCSORGTOP
 10
0.0
 20
0.0
 30
0.0
  9
$PUCSORGBOTTOM
 10
0.0
 20
0.0
 30
0.0
  9
$PUCSORGLEFT
 10
0.0
 20
0.0
 30
0.0
  9
$PUCSORGRIGHT
 10
0.0
 20
0.0
 30
0.0
  9
$PUCSORGFRONT
 10
0.0
 20
0.0
 30
0.0
  9
$PUCSORGBACK
 10
0.0
 20
0.0
 30
0.0
  9
$USERI1
 70
     0
  9
$USERI2
 70
     0
  9
$USERI3
 70
     0
  9
$USERI4
 70
     0
  9
$USERI5
 70
     0
  9
$USERR1
 40
0.0
  9
$USERR2
 40
0.0
  9
$USERR3
 40
0.0
  9
$USERR4
 40
0.0
  9
$USERR5
 40
0.0
  9
$WORLDVIEW
 70
     1
  9
$SHADEDGE
 70
     3
  9
$SHADEDIF
 70
    70
  9
$TILEMODE
 70
     1
  9
$MAXACTVP
 70
    64
  9
$PINSBASE
 10
0.0
 20
0.0
 30
0.0
  9
$PLIMCHECK
 70
     0
  9
$PEXTMIN
 10
1.000000000000000E+20
 20
1.000000000000000E+20
 30
1.000000000000000E+20
  9
$PEXTMAX
 10
-1.000000000000000E+20
 20
-1.000000000000000E+20
 30
-1.000000000000000E+20
  9
$PLIMMIN
 10
0.0
 20
0.0
  9
$PLIMMAX
 10
12.0
 20
9.0
  9
$UNITMODE
 70
     0
  9
$VISRETAIN
 70
     1
  9
$PLINEGEN
 70
     0
  9
$PSLTSCALE
 70
     1
  9
$TREEDEPTH
 70
  3020
  9
$CMLSTYLE
  2
Standard
  9
$CMLJUST
 70
     0
  9
$CMLSCALE
 40
1.0
  9
$PROXYGRAPHICS
 70
     1
  9
$MEASUREMENT
 70
     0
  9
$CELWEIGHT
370
    -1
  9
$ENDCAPS
280
     0
  9
$JOINSTYLE
280
     0
  9
$LWDISPLAY
290
     0
  9
$INSUNITS
 70
     4
  9
$HYPERLINKBASE
  1

  9
$STYLESHEET
  1

  9
$XEDIT
290
     1
  9
$CEPSNTYPE
380
     0
  9
$PSTYLEMODE
290
     1
  9
$FINGERPRINTGUID
  2
{0A7D9DD9-EBED-4A11-A5A6-F0A0F04A9BD9}
  9
$VERSIONGUID
  2
{FAEB1C32-E019-11D5-929B-00C0DF256EC4}
  9
$EXTNAMES
290
     1
  9
$PSVPSCALE
 40
0.0
  9
$OLESTARTUP
290
     0
  9
$SORTENTS
280
   127
  9
$INDEXCTL
280
     0
  9
$HIDETEXT
280
     1
  9
$XCLIPFRAME
290
     0
  9
$HALOGAP
280
     0
  9
$OBSCOLOR
 70
   257
  9
$OBSLTYPE
280
     0
  9
$INTERSECTIONDISPLAY
280
     0
  9
$INTERSECTIONCOLOR
 70
   257
  9
$DIMASSOC
280
     2
  9
$PROJECTNAME
  1

  9
$CAMERADISPLAY
290
     0
  9
$LENSLENGTH
 40
50.0
  9
$CAMERAHEIGHT
 40
0.0
  9
$STEPSPERSEC
 40
2.0
  9
$STEPSIZE
 40
6.0
  9
$3DDWFPREC
 40
2.0
  9
$PSOLWIDTH
 40
0.25
  9
$PSOLHEIGHT
 40
4.0
  9
$LOFTANG1
 40
1.570796326794897
  9
$LOFTANG2
 40
1.570796326794897
  9
$LOFTMAG1
 40
0.0
  9
$LOFTMAG2
 40
0.0
  9
$LOFTPARAM
 70
     7
  9
$LOFTNORMALS
280
     1
  9
$LATITUDE
 40
37.795
  9
$LONGITUDE
 40
-122.394
  9
$NORTHDIRECTION
 40
0.0
  9
$TIMEZONE
 70
 -8000
  9
$LIGHTGLYPHDISPLAY
280
     1
  9
$TILEMODELIGHTSYNCH
280
     1
  9
$SOLIDHIST
280
     1
  9
$SHOWHIST
280
     1
  9
$DWFFRAME
280
     2
  9
$DGNFRAME
280
     2
  9
$REALWORLDSCALE
290
     1
  9
$INTERFERECOLOR
 62
   256
  9
$CSHADOW
280
     0
  9
$SHADOWPLANELOCATION
 40
0.0
  0
ENDSEC
  0
SECTION
  2
CLASSES
  0
CLASS
  1
ACDBDICTIONARYWDFLT
  2
AcDbDictionaryWithDefault
  3
ObjectDBX Classes
 90
        0
 91
        4
280
     0
281
     0
  0
CLASS
  1
VISUALSTYLE
  2
AcDbVisualStyle
  3
ObjectDBX Classes
 90
     4095
 91
        4
280
     0
281
     0
  0
CLASS
  1
MATERIAL
  2
AcDbMaterial
  3
ObjectDBX Classes
 90
     1153
 91
        4
280
     0
281
     0
  0
ENDSEC
  0
SECTION
  2
TABLES
  0
TABLE
  2
VPORT
  5
8
330
0
100
AcDbSymbolTable
 70
     1
  0
VPORT
  5
29
330
8
100
AcDbSymbolTableRecord
100
AcDbViewportTableRecord
  2
*Active
 70
     0
 10
0.0
 20
0.0
 11
1.0
 21
1.0
 12
10.42990654205607
 22
4.5
 13
0.0
 23
0.0
 14
0.5
 24
0.5
 15
0.5
 25
0.5
 16
0.0
 26
0.0
 36
1.0
 17
0.0
 27
0.0
 37
0.0
 40
9.0
 41
1.972972972850329
 42
50.0
 43
0.0
 44
0.0
 50
0.0
 51
0.0
 71
     0
 72
   100
 73
     1
 74
     3
 75
     0
 76
     0
 77
     0
 78
     0
281
     0
 65
     1
110
0.0
120
0.0
130
0.0
111
1.0
121
0.0
131
0.0
112
0.0
122
1.0
132
0.0
 79
     0
146
0.0
 60
     3
 61
     5
292
     1
282
     1
141
0.0
142
0.0
 63
   250
  0
ENDTAB
  0
TABLE
  2
LTYPE
  5
5
330
0
100
AcDbSymbolTable
 70
     1
  0
LTYPE
  5
14
330
5
100
AcDbSymbolTableRecord
100
AcDbLinetypeTableRecord
  2
ByBlock
 70
     0
  3

 72
    65
 73
     0
 40
0.0
  0
LTYPE
  5
15
330
5
100
AcDbSymbolTableRecord
100
AcDbLinetypeTableRecord
  2
ByLayer
 70
     0
  3

 72
    65
 73
     0
 40
0.0
  0
LTYPE
  5
16
330
5
100
AcDbSymbolTableRecord
100
AcDbLinetypeTableRecord
  2
Continuous
 70
     0
  3
Solid line
 72
    65
 73
     0
 40
0.0
  0
ENDTAB
  0
TABLE
  2
LAYER
  5
2
330
0
100
AcDbSymbolTable
 70
     3
  0
LAYER
  5
10
330
2
100
AcDbSymbolTableRecord
100
AcDbLayerTableRecord
  2
0
 70
     0
 62
     7
  6
Continuous
370
    -3
390
F
347
3E
  0
LAYER
  5
40
330
2
100
AcDbSymbolTableRecord
100
AcDbLayerTableRecord
  2
layer 1
 70
     0
 62
     7
  6
Continuous
370
    -3
390
F
347
3E
  0
LAYER
  5
C2
330
2
100
AcDbSymbolTableRecord
100
AcDbLayerTableRecord
  2
Master Guides
 70
     0
 62
     7
  6
Continuous
370
    -3
390
F
347
3E
  0
ENDTAB
  0
TABLE
  2
STYLE
  5
3
330
0
100
AcDbSymbolTable
 70
     1
  0
STYLE
  5
11
330
3
100
AcDbSymbolTableRecord
100
AcDbTextStyleTableRecord
  2
Standard
 70
     0
 40
0.0
 41
1.0
 50
0.0
 71
     0
 42
0.2
  3
txt
  4

  0
ENDTAB
  0
TABLE
  2
VIEW
  5
6
330
0
100
AcDbSymbolTable
 70
     0
  0
ENDTAB
  0
TABLE
  2
UCS
  5
7
330
0
100
AcDbSymbolTable
 70
     0
  0
ENDTAB
  0
TABLE
  2
APPID
  5
9
330
0
100
AcDbSymbolTable
 70
     2
  0
APPID
  5
12
330
9
100
AcDbSymbolTableRecord
100
AcDbRegAppTableRecord
  2
ACAD
 70
     0
  0
APPID
  5
3F
330
9
100
AcDbSymbolTableRecord
100
AcDbRegAppTableRecord
  2
ODA
 70
     0
  0
ENDTAB
  0
TABLE
  2
DIMSTYLE
  5
A
330
0
100
AcDbSymbolTable
 70
     1
100
AcDbDimStyleTable
  0
DIMSTYLE
105
27
330
A
100
AcDbSymbolTableRecord
100
AcDbDimStyleTableRecord
  2
Standard
 70
     0
178
     0
340
11
  0
ENDTAB
  0
TABLE
  2
BLOCK_RECORD
  5
1
330
0
100
AcDbSymbolTable
 70
     1
  0
BLOCK_RECORD
  5
1F
330
1
100
AcDbSymbolTableRecord
100
AcDbBlockTableRecord
  2
*Model_Space
340
22
 70
     0
280
     1
281
     0
  0
BLOCK_RECORD
  5
1B
330
1
100
AcDbSymbolTableRecord
100
AcDbBlockTableRecord
  2
*Paper_Space
340
1E
 70
     0
280
     1
281
     0
  0
BLOCK_RECORD
  5
23
330
1
100
AcDbSymbolTableRecord
100
AcDbBlockTableRecord
  2
*Paper_Space0
340
26
 70
     0
280
     1
281
     0
  0
ENDTAB
  0
ENDSEC
  0
SECTION
  2
BLOCKS
  0
BLOCK
  5
20
330
1F
100
AcDbEntity
  8
0
100
AcDbBlockBegin
  2
*Model_Space
 70
     0
 10
0.0
 20
0.0
 30
0.0
  3
*Model_Space
  1

  0
ENDBLK
  5
21
330
1F
100
AcDbEntity
  8
0
100
AcDbBlockEnd
  0
BLOCK
  5
1C
330
1B
100
AcDbEntity
 67
     1
  8
0
100
AcDbBlockBegin
  2
*Paper_Space
 70
     0
 10
0.0
 20
0.0
 30
0.0
  3
*Paper_Space
  1

  0
ENDBLK
  5
1D
330
1B
100
AcDbEntity
 67
     1
  8
0
100
AcDbBlockEnd
  0
BLOCK
  5
24
330
23
100
AcDbEntity
  8
0
100
AcDbBlockBegin
  2
*Paper_Space0
 70
     0
 10
0.0
 20
0.0
 30
0.0
  3
*Paper_Space0
  1

  0
ENDBLK
  5
25
330
23
100
AcDbEntity
  8
0
100
AcDbBlockEnd
  0
ENDSEC
  0
SECTION
  2
ENTITIES
  0
SPLINE
  5
41
330
1F
100
AcDbEntity
  8
layer 1
100
AcDbSpline
210
0.0
220
0.0
230
1.0
 70
    11
 71
     3
 72
    20
 73
    16
 74
     0
 42
0.0000000001
 43
0.0000000001
 12
1.0
 22
0.0
 32
0.0
 13
1.0
 23
0.0
 33
0.0
 40
0.0
 40
0.0
 40
0.0
 40
0.0
 40
0.2
 40
0.2
 40
0.2
 40
0.2
 40
0.4
 40
0.4
 40
0.4
 40
0.4
 40
0.6
 40
0.6
 40
0.6
 40
0.6
 40
1.0
 40
1.0
 40
1.0
 40
1.0
 10
-187.2443
 20
132.0785
 30
0.0
 10
-187.2443
 20
132.0785
 30
0.0
 10
-83.8753
 20
132.0785
 30
0.0
 10
-83.8753
 20
132.0785
 30
0.0
 10
-83.8753
 20
132.0785
 30
0.0
 10
-83.8753
 20
132.0785
 30
0.0
 10
-83.8753
 20
-114.8837
 30
0.0
 10
-83.8753
 20
-114.8837
 30
0.0
 10
-83.8753
 20
-114.8837
 30
0.0
 10
-83.8753
 20
-114.8837
 30
0.0
 10
-187.2443
 20
-114.8837
 30
0.0
 10
-187.2443
 20
-114.8837
 30
0.0
 10
-187.2443
 20
-114.8837
 30
0.0
 10
-187.2443
 20
-114.8837
 30
0.0
 10
-187.2443
 20
132.0785
 30
0.0
 10
-187.2443
 20
132.0785
 30
0.0
  0
SPLINE
  5
42
330
1F
100
AcDbEntity
  8
layer 1
 62
     7
100
AcDbSpline
210
0.0
220
0.0
230
1.0
 70
    11
 71
     3
 72
    24
 73
    20
 74
     0
 42
0.0000000001
 43
0.0000000001
 12
1.0
 22
0.0
 32
0.0
 13
1.0
 23
0.0
 33
0.0
 40
0.0
 40
0.0
 40
0.0
 40
0.0
 40
0.1666666666666667
 40
0.1666666666666667
 40
0.1666666666666667
 40
0.1666666666666667
 40
0.3333333333333333
 40
0.3333333333333333
 40
0.3333333333333333
 40
0.3333333333333333
 40
0.5
 40
0.5
 40
0.5
 40
0.5
 40
0.6666666666666666
 40
0.6666666666666666
 40
0.6666666666666666
 40
0.6666666666666666
 40
1.0
 40
1.0
 40
1.0
 40
1.0
 10
-157.0979
 20
124.9045
 30
0.0
 10
-157.0979
 20
124.9045
 30
0.0
 10
-141.46
 20
124.9045
 30
0.0
 10
-141.46
 20
124.9045
 30
0.0
 10
-141.46
 20
124.9045
 30
0.0
 10
-143.242
 20
123.3812
 30
0.0
 10
-144.694
 20
121.6706
 30
0.0
 10
-145.6768
 20
119.4882
 30
0.0
 10
-145.6768
 20
119.4882
 30
0.0
 10
-146.2266
 20
120.4262
 30
0.0
 10
-146.7935
 20
121.4866
 30
0.0
 10
-147.708
 20
121.9079
 30
0.0
 10
-147.708
 20
121.9079
 30
0.0
 10
-148.4592
 20
120.9044
 30
0.0
 10
-148.8006
 20
119.7998
 30
0.0
 10
-148.8514
 20
118.1784
 30
0.0
 10
-148.8514
 20
118.1784
 30
0.0
 10
-149.9765
 20
119.8416
 30
0.0
 10
-152.4175
 20
123.1349
 30
0.0
 10
-157.0979
 20
124.9045
 30
0.0
  0
SPLINE
  5
43
330
1F
100
AcDbEntity
  8
layer 1
 62
     7
100
AcDbSpline
210
0.0
220
0.0
230
1.0
 70
    11
 71
     3
 72
    16
 73
    12
 74
     0
 42
0.0000000001
 43
0.0000000001
 12
1.0
 22
0.0
 32
0.0
 13
1.0
 23
0.0
 33
0.0
 40
0.0
 40
0.0
 40
0.0
 40
0.0
 40
0.25
 40
0.25
 40
0.25
 40
0.25
 40
0.5
 40
0.5
 40
0.5
 40
0.5
 40
1.0
 40
1.0
 40
1.0
 40
1.0
 10
-179.5617
 20
124.9045
 30
0.0
 10
-179.5617
 20
124.9045
 30
0.0
 10
-167.5295
 20
124.9045
 30
0.0
 10
-167.5295
 20
124.9045
 30
0.0
 10
-167.5295
 20
124.9045
 30
0.0
 10
-172.818
 20
123.3719
 30
0.0
 10
-177.3913
 20
118.9355
 30
0.0
 10
-179.5617
 20
112.5066
 30
0.0
 10
-179.5617
 20
112.5066
 30
0.0
 10
-179.5617
 20
115.6249
 30
0.0
 10
-179.5617
 20
120.3221
 30
0.0
 10
-179.5617
 20
124.9045
 30
0.0
  0
SPLINE
  5
44
330
1F
100
AcDbEntity
  8
layer 1
 62
     7
100
AcDbSpline
210
0.0
220
0.0
230
1.0
 70
    11
 71
     3
 72
    24
 73
    20
 74
     0
 42
0.0000000001
 43
0.0000000001
 12
1.0
 22
0.0
 32
0.0
 13
1.0
 23
0.0
 33
0.0
 40
0.0
 40
0.0
 40
0.0
 40
0.0
 40
0.1666666666666667
 40
0.1666666666666667
 40
0.1666666666666667
 40
0.1666666666666667
 40
0.3333333333333333
 40
0.3333333333333333
 40
0.3333333333333333
 40
0.3333333333333333
 40
0.5
 40
0.5
 40
0.5
 40
0.5
 40
0.6666666666666666
 40
0.6666666666666666
 40
0.6666666666666666
 40
0.6666666666666666
 40
1.0
 40
1.0
 40
1.0
 40
1.0
 10
-173.6886
 20
109.769
 30
0.0
 10
-172.6904
 20
109.7835
 30
0.0
 10
-172.1651
 20
109.8938
 30
0.0
 10
-171.4048
 20
110.3301
 30
0.0
 10
-171.4048
 20
110.3301
 30
0.0
 10
-171.3098
 20
108.9017
 30
0.0
 10
-168.8483
 20
108.5035
 30
0.0
 10
-168.1475
 20
108.8538
 30
0.0
 10
-168.1475
 20
108.8538
 30
0.0
 10
-168.7412
 20
105.2907
 30
0.0
 10
-163.85
 20
103.9155
 30
0.0
 10
-162.8435
 20
106.3033
 30
0.0
 10
-162.8435
 20
106.3033
 30
0.0
 10
-159.7047
 20
102.3032
 30
0.0
 10
-167.5446
 20
96.6527
 30
0.0
 10
-172.4235
 20
104.4478
 30
0.0
 10
-172.4235
 20
104.4478
 30
0.0
 10
-170.6888
 20
104.0493
 30
0.0
 10
-169.9908
 20
105.6558
 30
0.0
 10
-173.6886
 20
109.769
 30
0.0
  0
SPLINE
  5
45
330
1F
100
AcDbEntity
  8
layer 1
 62
     7
100
AcDbSpline
210
0.0
220
0.0
230
1.0
 70
    11
 71
     3
 72
    24
 73
    20
 74
     0
 42
0.0000000001
 43
0.0000000001
 12
1.0
 22
0.0
 32
0.0
 13
1.0
 23
0.0
 33
0.0
 40
0.0
 40
0.0
 40
0.0
 40
0.0
 40
0.1666666666666667
 40
0.1666666666666667
 40
0.1666666666666667
 40
0.1666666666666667
 40
0.3333333333333333
 40
0.3333333333333333
 40
0.3333333333333333
 40
0.3333333333333333
 40
0.5
 40
0.5
 40
0.5
 40
0.5
 40
0.6666666666666666
 40
0.6666666666666666
 40
0.6666666666666666
 40
0.6666666666666666
 40
1.0
 40
1.0
 40
1.0
 40
1.0
 10
-147.2596
 20
90.4639
 30
0.0
 10
-146.2653
 20
96.899
 30
0.0
 10
-142.4103
 20
97.4304
 30
0.0
 10
-140.3379
 20
96.9757
 30
0.0
 10
-140.3379
 20
96.9757
 30
0.0
 10
-139.5391
 20
97.0
 30
0.0
 10
-139.4471
 20
98.9416
 30
0.0
 10
-139.8212
 20
99.6691
 30
0.0
 10
-139.8212
 20
99.6691
 30
0.0
 10
-138.541
 20
99.9488
 30
0.0
 10
-137.2791
 20
99.8865
 30
0.0
 10
-136.4154
 20
99.5566
 30
0.0
 10
-136.4154
 20
99.5566
 30
0.0
 10
-136.4154
 20
99.5566
 30
0.0
 10
-136.3408
 20
88.1864
 30
0.0
 10
-136.3408
 20
88.1864
 30
0.0
 10
-136.3408
 20
88.1864
 30
0.0
 10
-138.7136
 20
93.3299
 30
0.0
 10
-144.7418
 20
94.1728
 30
0.0
 10
-147.2596
 20
90.4639
 30
0.0
  0
SPLINE
  5
46
330
1F
100
AcDbEntity
  8
layer 1
 62
     7
100
AcDbSpline
210
0.0
220
0.0
230
1.0
 70
    11
 71
     3
 72
    32
 73
    28
 74
     0
 42
0.0000000001
 43
0.0000000001
 12
1.0
 22
0.0
 32
0.0
 13
1.0
 23
0.0
 33
0.0
 40
0.0
 40
0.0
 40
0.0
 40
0.0
 40
0.125
 40
0.125
 40
0.125
 40
0.125
 40
0.25
 40
0.25
 40
0.25
 40
0.25
 40
0.375
 40
0.375
 40
0.375
 40
0.375
 40
0.5
 40
0.5
 40
0.5
 40
0.5
 40
0.625
 40
0.625
 40
0.625
 40
0.625
 40
0.75
 40
0.75
 40
0.75
 40
0.75
 40
1.0
 40
1.0
 40
1.0
 40
1.0
 10
-144.8216
 20
102.6924
 30
0.0
 10
-144.5304
 20
106.7845
 30
0.0
 10
-145.5491
 20
118.7036
 30
0.0
 10
-140.2901
 20
120.64
 30
0.0
 10
-140.2901
 20
120.64
 30
0.0
 10
-140.7592
 20
119.5384
 30
0.0
 10
-140.103
 20
117.451
 30
0.0
 10
-138.3212
 20
117.7093
 30
0.0
 10
-138.3212
 20
117.7093
 30
0.0
 10
-138.541
 20
117.0053
 30
0.0
 10
-138.1229
 20
116.144
 30
0.0
 10
-137.3534
 20
116.1921
 30
0.0
 10
-137.3534
 20
116.1921
 30
0.0
 10
-139.3908
 20
112.9643
 30
0.0
 10
-139.8332
 20
107.1586
 30
0.0
 10
-137.4189
 20
103.1348
 30
0.0
 10
-137.4189
 20
103.1348
 30
0.0
 10
-138.7993
 20
103.9125
 30
0.0
 10
-140.8572
 20
103.7705
 30
0.0
 10
-142.1222
 20
102.3297
 30
0.0
 10
-142.1222
 20
102.3297
 30
0.0
 10
-142.0332
 20
102.9592
 30
0.0
 10
-142.1047
 20
103.9338
 30
0.0
 10
-142.3092
 20
104.6522
 30
0.0
 10
-142.3092
 20
104.6522
 30
0.0
 10
-143.1888
 20
104.6971
 30
0.0
 10
-143.9101
 20
103.5477
 30
0.0
 10
-144.8216
 20
102.6924
 30
0.0
  0
SPLINE
  5
47
330
1F
100
AcDbEntity
  8
layer 1
 62
     7
100
AcDbSpline
210
0.0
220
0.0
230
1.0
 70
    11
 71
     3
 72
    64
 73
    60
 74
     0
 42
0.0000000001
 43
0.0000000001
 12
1.0
 22
0.0
 32
0.0
 13
1.0
 23
0.0
 33
0.0
 40
0.0
 40
0.0
 40
0.0
 40
0.0
 40
0.0625
 40
0.0625
 40
0.0625
 40
0.0625
 40
0.125
 40
0.125
 40
0.125
 40
0.125
 40
0.1875
 40
0.1875
 40
0.1875
 40
0.1875
 40
0.25
 40
0.25
 40
0.25
 40
0.25
 40
0.3125
 40
0.3125
 40
0.3125
 40
0.3125
 40
0.375
 40
0.375
 40
0.375
 40
0.375
 40
0.4375
 40
0.4375
 40
0.4375
 40
0.4375
 40
0.5
 40
0.5
 40
0.5
 40
0.5
 40
0.5625
 40
0.5625
 40
0.5625
 40
0.5625
 40
0.625
 40
0.625
 40
0.625
 40
0.625
 40
0.6875
 40
0.6875
 40
0.6875
 40
0.6875
 40
0.75
 40
0.75
 40
0.75
 40
0.75
 40
0.8125
 40
0.8125
 40
0.8125
 40
0.8125
 40
0.875
 40
0.875
 40
0.875
 40
0.875
 40
1.0
 40
1.0
 40
1.0
 40
1.0
 10
-144.8696
 20
69.0478
 30
0.0
 10
-147.2482
 20
69.44
 30
0.0
 10
-151.0309
 20
71.6104
 30
0.0
 10
-154.9566
 20
75.1416
 30
0.0
 10
-154.9566
 20
75.1416
 30
0.0
 10
-152.7056
 20
74.5531
 30
0.0
 10
-144.8339
 20
73.3595
 30
0.0
 10
-150.7846
 20
77.6919
 30
0.0
 10
-150.7846
 20
77.6919
 30
0.0
 10
-148.4295
 20
77.3773
 30
0.0
 10
-143.9223
 20
77.3742
 30
0.0
 10
-143.9542
 20
78.874
 30
0.0
 10
-143.9542
 20
78.874
 30
0.0
 10
-143.996
 20
80.9167
 30
0.0
 10
-148.3855
 20
80.142
 30
0.0
 10
-149.068
 20
80.4385
 30
0.0
 10
-149.068
 20
80.4385
 30
0.0
 10
-148.7624
 20
81.1964
 30
0.0
 10
-148.4235
 20
81.6472
 30
0.0
 10
-148.6736
 20
82.1018
 30
0.0
 10
-148.6736
 20
82.1018
 30
0.0
 10
-148.9464
 20
82.5944
 30
0.0
 10
-150.4137
 20
82.399
 30
0.0
 10
-151.3313
 20
82.675
 30
0.0
 10
-151.3313
 20
82.675
 30
0.0
 10
-149.7362
 20
84.0973
 30
0.0
 10
-149.1068
 20
84.8728
 30
0.0
 10
-148.9495
 20
86.4342
 30
0.0
 10
-148.9495
 20
86.4342
 30
0.0
 10
-148.403
 20
85.8108
 30
0.0
 10
-147.6662
 20
85.677
 30
0.0
 10
-146.7935
 20
86.2
 30
0.0
 10
-146.7935
 20
86.2
 30
0.0
 10
-146.3929
 20
85.9233
 30
0.0
 10
-146.7875
 20
83.4321
 30
0.0
 10
-145.8904
 20
83.3075
 30
0.0
 10
-145.8904
 20
83.3075
 30
0.0
 10
-145.0299
 20
83.192
 30
0.0
 10
-144.4447
 20
85.2253
 30
0.0
 10
-143.9991
 20
86.1399
 30
0.0
 10
-143.9991
 20
86.1399
 30
0.0
 10
-143.3789
 20
85.5432
 30
0.0
 10
-141.9679
 20
85.1874
 30
0.0
 10
-141.7931
 20
87.4384
 30
0.0
 10
-141.7931
 20
87.4384
 30
0.0
 10
-136.6496
 20
84.6827
 30
0.0
 10
-136.8905
 20
78.6392
 30
0.0
 10
-137.1368
 20
75.6279
 30
0.0
 10
-137.1368
 20
75.6279
 30
0.0
 10
-138.7554
 20
77.7186
 30
0.0
 10
-141.7011
 20
79.1234
 30
0.0
 10
-143.153
 20
74.0277
 30
0.0
 10
-143.153
 20
74.0277
 30
0.0
 10
-144.7981
 20
74.3753
 30
0.0
 10
-143.9786
 20
70.9452
 30
0.0
 10
-144.1831
 20
71.6642
 30
0.0
 10
-144.1831
 20
71.6642
 30
0.0
 10
-145.3446
 20
71.7563
 30
0.0
 10
-145.2672
 20
70.4198
 30
0.0
 10
-144.8696
 20
69.0478
 30
0.0
  0
SPLINE
  5
48
330
1F
100
AcDbEntity
  8
layer 1
 62
     7
100
AcDbSpline
210
0.0
220
0.0
230
1.0
 70
    11
 71
     3
 72
    56
 73
    52
 74
     0
 42
0.0000000001
 43
0.0000000001
 12
1.0
 22
0.0
 32
0.0
 13
1.0
 23
0.0
 33
0.0
 40
0.0
 40
0.0
 40
0.0
 40
0.0
 40
0.0714285714285714
 40
0.0714285714285714
 40
0.0714285714285714
 40
0.0714285714285714
 40
0.1428571428571428
 40
0.1428571428571428
 40
0.1428571428571428
 40
0.1428571428571428
 40
0.2142857142857143
 40
0.2142857142857143
 40
0.2142857142857143
 40
0.2142857142857143
 40
0.2857142857142857
 40
0.2857142857142857
 40
0.2857142857142857
 40
0.2857142857142857
 40
0.3571428571428572
 40
0.3571428571428572
 40
0.3571428571428572
 40
0.3571428571428572
 40
0.4285714285714285
 40
0.4285714285714285
 40
0.4285714285714285
 40
0.4285714285714285
 40
0.5
 40
0.5
 40
0.5
 40
0.5
 40
0.5714285714285714
 40
0.5714285714285714
 40
0.5714285714285714
 40
0.5714285714285714
 40
0.6428571428571429
 40
0.6428571428571429
 40
0.6428571428571429
 40
0.6428571428571429
 40
0.7142857142857143
 40
0.7142857142857143
 40
0.7142857142857143
 40
0.7142857142857143
 40
0.7857142857142857
 40
0.7857142857142857
 40
0.7857142857142857
 40
0.7857142857142857
 40
0.8571428571428571
 40
0.8571428571428571
 40
0.8571428571428571
 40
0.8571428571428571
 40
1.0
 40
1.0
 40
1.0
 40
1.0
 10
-148.1955
 20
54.6163
 30
0.0
 10
-149.4033
 20
55.9435
 30
0.0
 10
-150.5169
 20
55.9138
 30
0.0
 10
-151.8176
 20
55.8332
 30
0.0
 10
-151.8176
 20
55.8332
 30
0.0
 10
-149.6351
 20
60.3412
 30
0.0
 10
-150.3924
 20
65.6982
 30
0.0
 10
-151.69
 20
69.3329
 30
0.0
 10
-151.69
 20
69.3329
 30
0.0
 10
-145.8548
 20
63.2481
 30
0.0
 10
-137.086
 20
63.1684
 30
0.0
 10
-140.2399
 20
73.1041
 30
0.0
 10
-140.2399
 20
73.1041
 30
0.0
 10
-139.7412
 20
73.3983
 30
0.0
 10
-139.3818
 20
74.7104
 30
0.0
 10
-139.3818
 20
74.7104
 30
0.0
 10
-139.3818
 20
74.7104
 30
0.0
 10
-139.245
 20
73.9922
 30
0.0
 10
-138.8556
 20
73.3116
 30
0.0
 10
-138.221
 20
73.1276
 30
0.0
 10
-138.221
 20
73.1276
 30
0.0
 10
-138.7963
 20
70.7704
 30
0.0
 10
-137.6385
 20
68.1985
 30
0.0
 10
-136.5781
 20
66.8476
 30
0.0
 10
-136.5781
 20
66.8476
 30
0.0
 10
-137.6773
 20
66.3369
 30
0.0
 10
-138.3067
 20
64.267
 30
0.0
 10
-137.7837
 20
63.4412
 30
0.0
 10
-137.7837
 20
63.4412
 30
0.0
 10
-139.1917
 20
63.5485
 30
0.0
 10
-139.8507
 20
62.6842
 30
0.0
 10
-139.7824
 20
61.4936
 30
0.0
 10
-139.7824
 20
61.4936
 30
0.0
 10
-140.5219
 20
62.1619
 30
0.0
 10
-141.7808
 20
61.5234
 30
0.0
 10
-141.8849
 20
60.7274
 30
0.0
 10
-141.8849
 20
60.7274
 30
0.0
 10
-142.3693
 20
61.8647
 30
0.0
 10
-143.5446
 20
63.7825
 30
0.0
 10
-145.4305
 20
63.4944
 30
0.0
 10
-145.4305
 20
63.4944
 30
0.0
 10
-147.3751
 20
62.1619
 30
0.0
 10
-146.3869
 20
59.676
 30
0.0
 10
-145.9178
 20
57.9534
 30
0.0
 10
-145.9178
 20
57.9534
 30
0.0
 10
-147.1411
 20
58.301
 30
0.0
 10
-147.6785
 20
56.5137
 30
0.0
 10
-147.3219
 20
55.8272
 30
0.0
 10
-147.3219
 20
55.8272
 30
0.0
 10
-147.8268
 20
55.73
 30
0.0
 10
-148.3612
 20
55.2843
 30
0.0
 10
-148.1955
 20
54.6163
 30
0.0
  0
SPLINE
  5
49
330
1F
100
AcDbEntity
  8
layer 1
 62
     7
100
AcDbSpline
210
0.0
220
0.0
230
1.0
 70
    11
 71
     3
 72
    56
 73
    52
 74
     0
 42
0.0000000001
 43
0.0000000001
 12
1.0
 22
0.0
 32
0.0
 13
1.0
 23
0.0
 33
0.0
 40
0.0
 40
0.0
 40
0.0
 40
0.0
 40
0.0714285714285714
 40
0.0714285714285714
 40
0.0714285714285714
 40
0.0714285714285714
 40
0.1428571428571428
 40
0.1428571428571428
 40
0.1428571428571428
 40
0.1428571428571428
 40
0.2142857142857143
 40
0.2142857142857143
 40
0.2142857142857143
 40
0.2142857142857143
 40
0.2857142857142857
 40
0.2857142857142857
 40
0.2857142857142857
 40
0.2857142857142857
 40
0.3571428571428572
 40
0.3571428571428572
 40
0.3571428571428572
 40
0.3571428571428572
 40
0.4285714285714285
 40
0.4285714285714285
 40
0.4285714285714285
 40
0.4285714285714285
 40
0.5
 40
0.5
 40
0.5
 40
0.5
 40
0.5714285714285714
 40
0.5714285714285714
 40
0.5714285714285714
 40
0.5714285714285714
 40
0.6428571428571429
 40
0.6428571428571429
 40
0.6428571428571429
 40
0.6428571428571429
 40
0.7142857142857143
 40
0.7142857142857143
 40
0.7142857142857143
 40
0.7142857142857143
 40
0.7857142857142857
 40
0.7857142857142857
 40
0.7857142857142857
 40
0.7857142857142857
 40
0.8571428571428571
 40
0.8571428571428571
 40
0.8571428571428571
 40
0.8571428571428571
 40
1.0
 40
1.0
 40
1.0
 40
1.0
 10
-179.5617
 20
104.3437
 30
0.0
 10
-178.8495
 20
104.3581
 30
0.0
 10
-178.9711
 20
104.3732
 30
0.0
 10
-178.3059
 20
104.3822
 30
0.0
 10
-178.3059
 20
104.3822
 30
0.0
 10
-178.2496
 20
103.5416
 30
0.0
 10
-178.8465
 20
97.1156
 30
0.0
 10
-178.3028
 20
95.9845
 30
0.0
 10
-178.3028
 20
95.9845
 30
0.0
 10
-176.4412
 20
96.2398
 30
0.0
 10
-175.9273
 20
97.7868
 30
0.0
 10
-174.8317
 20
99.3043
 30
0.0
 10
-174.8317
 20
99.3043
 30
0.0
 10
-173.3289
 20
96.3258
 30
0.0
 10
-170.9359
 20
95.3042
 30
0.0
 10
-169.6465
 20
92.3082
 30
0.0
 10
-169.6465
 20
92.3082
 30
0.0
 10
-167.7049
 20
87.7972
 30
0.0
 10
-167.5651
 20
82.5533
 30
0.0
 10
-170.6948
 20
80.7684
 30
0.0
 10
-170.6948
 20
80.7684
 30
0.0
 10
-170.5496
 20
81.175
 30
0.0
 10
-170.0981
 20
82.5208
 30
0.0
 10
-170.6539
 20
83.4588
 30
0.0
 10
-170.6539
 20
83.4588
 30
0.0
 10
-171.0545
 20
83.7234
 30
0.0
 10
-171.6307
 20
83.6693
 30
0.0
 10
-172.4616
 20
83.334
 30
0.0
 10
-172.4616
 20
83.334
 30
0.0
 10
-172.8773
 20
83.331
 30
0.0
 10
-172.4616
 20
84.6827
 30
0.0
 10
-173.6588
 20
84.65
 30
0.0
 10
-173.6588
 20
84.65
 30
0.0
 10
-174.8106
 20
84.6196
 30
0.0
 10
-174.3924
 20
83.192
 30
0.0
 10
-174.7779
 20
82.9418
 30
0.0
 10
-174.7779
 20
82.9418
 30
0.0
 10
-175.1998
 20
82.669
 30
0.0
 10
-175.9394
 20
83.3995
 30
0.0
 10
-176.1826
 20
82.6895
 30
0.0
 10
-176.1826
 20
82.6895
 30
0.0
 10
-176.3492
 20
82.2143
 30
0.0
 10
-177.6529
 20
79.7588
 30
0.0
 10
-173.8368
 20
77.1187
 30
0.0
 10
-173.8368
 20
77.1187
 30
0.0
 10
-175.9182
 20
75.723
 30
0.0
 10
-178.2108
 20
72.1836
 30
0.0
 10
-179.5617
 20
68.1005
 30
0.0
 10
-179.5617
 20
68.1005
 30
0.0
 10
-179.5617
 20
68.1005
 30
0.0
 10
-179.5617
 20
104.3437
 30
0.0
 10
-179.5617
 20
104.3437
 30
0.0
  0
SPLINE
  5
4A
330
1F
100
AcDbEntity
  8
layer 1
 62
     7
100
AcDbSpline
210
0.0
220
0.0
230
1.0
 70
    11
 71
     3
 72
    32
 73
    28
 74
     0
 42
0.0000000001
 43
0.0000000001
 12
1.0
 22
0.0
 32
0.0
 13
1.0
 23
0.0
 33
0.0
 40
0.0
 40
0.0
 40
0.0
 40
0.0
 40
0.125
 40
0.125
 40
0.125
 40
0.125
 40
0.25
 40
0.25
 40
0.25
 40
0.25
 40
0.375
 40
0.375
 40
0.375
 40
0.375
 40
0.5
 40
0.5
 40
0.5
 40
0.5
 40
0.625
 40
0.625
 40
0.625
 40
0.625
 40
0.75
 40
0.75
 40
0.75
 40
0.75
 40
1.0
 40
1.0
 40
1.0
 40
1.0
 10
-171.3038
 20
115.6721
 30
0.0
 10
-173.1654
 20
118.7934
 30
0.0
 10
-168.3436
 20
121.3918
 30
0.0
 10
-167.1789
 20
121.0617
 30
0.0
 10
-167.1789
 20
121.0617
 30
0.0
 10
-170.6888
 20
116.6459
 30
0.0
 10
-168.9343
 20
116.4884
 30
0.0
 10
-167.984
 20
117.0083
 30
0.0
 10
-167.984
 20
117.0083
 30
0.0
 10
-168.8095
 20
113.8521
 30
0.0
 10
-166.9744
 20
112.946
 30
0.0
 10
-166.104
 20
112.4146
 30
0.0
 10
-166.104
 20
112.4146
 30
0.0
 10
-166.7813
 20
111.9842
 30
0.0
 10
-167.3302
 20
111.4522
 30
0.0
 10
-167.7461
 20
110.2679
 30
0.0
 10
-167.7461
 20
110.2679
 30
0.0
 10
-167.5151
 20
111.1641
 30
0.0
 10
-168.7533
 20
112.6669
 30
0.0
 10
-169.7385
 20
112.7649
 30
0.0
 10
-169.7385
 20
112.7649
 30
0.0
 10
-168.6789
 20
112.9998
 30
0.0
 10
-168.4438
 20
113.748
 30
0.0
 10
-169.3409
 20
114.3387
 30
0.0
 10
-169.3409
 20
114.3387
 30
0.0
 10
-169.9438
 20
114.7339
 30
0.0
 10
-170.7571
 20
114.594
 30
0.0
 10
-171.3038
 20
115.6721
 30
0.0
  0
SPLINE
  5
4B
330
1F
100
AcDbEntity
  8
layer 1
 62
     7
100
AcDbSpline
210
0.0
220
0.0
230
1.0
 70
    11
 71
     3
 72
    16
 73
    12
 74
     0
 42
0.0000000001
 43
0.0000000001
 12
1.0
 22
0.0
 32
0.0
 13
1.0
 23
0.0
 33
0.0
 40
0.0
 40
0.0
 40
0.0
 40
0.0
 40
0.25
 40
0.25
 40
0.25
 40
0.25
 40
0.5
 40
0.5
 40
0.5
 40
0.5
 40
1.0
 40
1.0
 40
1.0
 40
1.0
 10
-179.5617
 20
54.506
 30
0.0
 10
-178.7933
 20
51.133
 30
0.0
 10
-177.4385
 20
48.9027
 30
0.0
 10
-175.9182
 20
46.9816
 30
0.0
 10
-175.9182
 20
46.9816
 30
0.0
 10
-177.6409
 20
45.6451
 30
0.0
 10
-178.9232
 20
43.715
 30
0.0
 10
-179.5617
 20
41.1882
 30
0.0
 10
-179.5617
 20
41.1882
 30
0.0
 10
-179.5617
 20
41.1882
 30
0.0
 10
-179.5617
 20
54.506
 30
0.0
 10
-179.5617
 20
54.506
 30
0.0
  0
SPLINE
  5
4C
330
1F
100
AcDbEntity
  8
layer 1
 62
     7
100
AcDbSpline
210
0.0
220
0.0
230
1.0
 70
    11
 71
     3
 72
    28
 73
    24
 74
     0
 42
0.0000000001
 43
0.0000000001
 12
1.0
 22
0.0
 32
0.0
 13
1.0
 23
0.0
 33
0.0
 40
0.0
 40
0.0
 40
0.0
 40
0.0
 40
0.1428571428571428
 40
0.1428571428571428
 40
0.1428571428571428
 40
0.1428571428571428
 40
0.2857142857142857
 40
0.2857142857142857
 40
0.2857142857142857
 40
0.2857142857142857
 40
0.4285714285714285
 40
0.4285714285714285
 40
0.4285714285714285
 40
0.4285714285714285
 40
0.5714285714285714
 40
0.5714285714285714
 40
0.5714285714285714
 40
0.5714285714285714
 40
0.7142857142857143
 40
0.7142857142857143
 40
0.7142857142857143
 40
0.7142857142857143
 40
1.0
 40
1.0
 40
1.0
 40
1.0
 10
-174.2792
 20
44.4548
 30
0.0
 10
-172.0138
 20
41.7135
 30
0.0
 10
-170.1871
 20
39.997
 30
0.0
 10
-166.618
 20
37.0868
 30
0.0
 10
-166.618
 20
37.0868
 30
0.0
 10
-168.5184
 20
37.565
 30
0.0
 10
-170.0837
 20
36.6741
 30
0.0
 10
-170.2227
 20
34.7623
 30
0.0
 10
-170.2227
 20
34.7623
 30
0.0
 10
-171.9811
 20
36.475
 30
0.0
 10
-175.6187
 20
35.4327
 30
0.0
 10
-174.1217
 20
31.7685
 30
0.0
 10
-174.1217
 20
31.7685
 30
0.0
 10
-177.0379
 20
32.8139
 30
0.0
 10
-177.9257
 20
36.6924
 30
0.0
 10
-176.9132
 20
38.1526
 30
0.0
 10
-176.9132
 20
38.1526
 30
0.0
 10
-174.4365
 20
34.9576
 30
0.0
 10
-171.1077
 20
39.4533
 30
0.0
 10
-174.7012
 20
41.2147
 30
0.0
 10
-174.7012
 20
41.2147
 30
0.0
 10
-175.0067
 20
42.171
 30
0.0
 10
-174.7749
 20
43.1388
 30
0.0
 10
-174.2792
 20
44.4548
 30
0.0
  0
SPLINE
  5
4D
330
1F
100
AcDbEntity
  8
layer 1
 62
     7
100
AcDbSpline
210
0.0
220
0.0
230
1.0
 70
    11
 71
     3
 72
    68
 73
    64
 74
     0
 42
0.0000000001
 43
0.0000000001
 12
1.0
 22
0.0
 32
0.0
 13
1.0
 23
0.0
 33
0.0
 40
0.0
 40
0.0
 40
0.0
 40
0.0
 40
0.0588235294117647
 40
0.0588235294117647
 40
0.0588235294117647
 40
0.0588235294117647
 40
0.1176470588235294
 40
0.1176470588235294
 40
0.1176470588235294
 40
0.1176470588235294
 40
0.1764705882352941
 40
0.1764705882352941
 40
0.1764705882352941
 40
0.1764705882352941
 40
0.2352941176470588
 40
0.2352941176470588
 40
0.2352941176470588
 40
0.2352941176470588
 40
0.2941176470588235
 40
0.2941176470588235
 40
0.2941176470588235
 40
0.2941176470588235
 40
0.3529411764705883
 40
0.3529411764705883
 40
0.3529411764705883
 40
0.3529411764705883
 40
0.4117647058823529
 40
0.4117647058823529
 40
0.4117647058823529
 40
0.4117647058823529
 40
0.4705882352941176
 40
0.4705882352941176
 40
0.4705882352941176
 40
0.4705882352941176
 40
0.5294117647058824
 40
0.5294117647058824
 40
0.5294117647058824
 40
0.5294117647058824
 40
0.5882352941176471
 40
0.5882352941176471
 40
0.5882352941176471
 40
0.5882352941176471
 40
0.6470588235294118
 40
0.6470588235294118
 40
0.6470588235294118
 40
0.6470588235294118
 40
0.7058823529411765
 40
0.7058823529411765
 40
0.7058823529411765
 40
0.7058823529411765
 40
0.7647058823529411
 40
0.7647058823529411
 40
0.7647058823529411
 40
0.7647058823529411
 40
0.8235294117647058
 40
0.8235294117647058
 40
0.8235294117647058
 40
0.8235294117647058
 40
0.8823529411764706
 40
0.8823529411764706
 40
0.8823529411764706
 40
0.8823529411764706
 40
1.0
 40
1.0
 40
1.0
 40
1.0
 10
-179.5617
 20
31.8043
 30
0.0
 10
-178.3651
 20
27.5754
 30
0.0
 10
-171.8535
 20
25.586
 30
0.0
 10
-169.5249
 20
31.9974
 30
0.0
 10
-169.5249
 20
31.9974
 30
0.0
 10
-167.3037
 20
28.2914
 30
0.0
 10
-165.4
 20
30.1653
 30
0.0
 10
-166.8255
 20
32.9507
 30
0.0
 10
-166.8255
 20
32.9507
 30
0.0
 10
-166.5169
 20
32.9917
 30
0.0
 10
-165.5369
 20
33.5383
 30
0.0
 10
-166.7251
 20
34.1534
 30
0.0
 10
-166.7251
 20
34.1534
 30
0.0
 10
-164.1595
 20
34.9043
 30
0.0
 10
-159.7495
 20
32.0088
 30
0.0
 10
-159.0518
 20
30.7797
 30
0.0
 10
-159.0518
 20
30.7797
 30
0.0
 10
-161.5491
 20
31.6022
 30
0.0
 10
-167.2565
 20
30.3995
 30
0.0
 10
-164.1147
 20
26.2693
 30
0.0
 10
-164.1147
 20
26.2693
 30
0.0
 10
-165.4298
 20
26.5216
 30
0.0
 10
-166.7518
 20
25.5472
 30
0.0
 10
-166.665
 20
24.4997
 30
0.0
 10
-166.665
 20
24.4997
 30
0.0
 10
-167.6601
 20
25.3662
 30
0.0
 10
-168.3876
 20
25.1761
 30
0.0
 10
-168.9138
 20
24.8766
 30
0.0
 10
-168.9138
 20
24.8766
 30
0.0
 10
-170.5315
 20
26.8364
 30
0.0
 10
-173.6619
 20
27.0325
 30
0.0
 10
-172.3164
 20
22.8812
 30
0.0
 10
-172.3164
 20
22.8812
 30
0.0
 10
-173.4658
 20
22.2244
 30
0.0
 10
-173.1509
 20
20.7754
 30
0.0
 10
-172.3969
 20
20.158
 30
0.0
 10
-172.3969
 20
20.158
 30
0.0
 10
-173.4955
 20
20.2768
 30
0.0
 10
-174.2943
 20
20.0356
 30
0.0
 10
-174.7277
 20
19.0649
 30
0.0
 10
-174.7277
 20
19.0649
 30
0.0
 10
-177.1952
 20
20.4813
 30
0.0
 10
-179.5617
 20
18.1353
 30
0.0
 10
-175.681
 20
15.6951
 30
0.0
 10
-175.681
 20
15.6951
 30
0.0
 10
-176.4055
 20
14.7264
 30
0.0
 10
-176.2777
 20
13.6365
 30
0.0
 10
-175.1222
 20
13.2001
 30
0.0
 10
-175.1222
 20
13.2001
 30
0.0
 10
-175.9835
 20
12.7668
 30
0.0
 10
-176.3074
 20
11.8818
 30
0.0
 10
-176.0936
 20
11.2258
 30
0.0
 10
-176.0936
 20
11.2258
 30
0.0
 10
-177.5906
 20
11.4926
 30
0.0
 10
-178.2998
 20
11.2965
 30
0.0
 10
-178.5735
 20
10.3257
 30
0.0
 10
-178.5735
 20
10.3257
 30
0.0
 10
-179.0243
 20
10.1624
 30
0.0
 10
-179.0784
 20
10.1624
 30
0.0
 10
-179.5617
 20
10.1684
 30
0.0
 10
-179.5617
 20
10.1684
 30
0.0
 10
-179.5617
 20
10.1684
 30
0.0
 10
-179.5617
 20
31.8043
 30
0.0
 10
-179.5617
 20
31.8043
 30
0.0
  0
SPLINE
  5
4E
330
1F
100
AcDbEntity
  8
layer 1
 62
     7
100
AcDbSpline
210
0.0
220
0.0
230
1.0
 70
    11
 71
     3
 72
    20
 73
    16
 74
     0
 42
0.0000000001
 43
0.0000000001
 12
1.0
 22
0.0
 32
0.0
 13
1.0
 23
0.0
 33
0.0
 40
0.0
 40
0.0
 40
0.0
 40
0.0
 40
0.2
 40
0.2
 40
0.2
 40
0.2
 40
0.4
 40
0.4
 40
0.4
 40
0.4
 40
0.6
 40
0.6
 40
0.6
 40
0.6
 40
1.0
 40
1.0
 40
1.0
 40
1.0
 10
-138.4459
 20
28.4457
 30
0.0
 10
-138.4459
 20
27.0082
 30
0.0
 10
-139.6104
 20
25.8443
 30
0.0
 10
-141.0473
 20
25.8443
 30
0.0
 10
-141.0473
 20
25.8443
 30
0.0
 10
-142.4848
 20
25.8443
 30
0.0
 10
-143.6487
 20
27.0082
 30
0.0
 10
-143.6487
 20
28.4457
 30
0.0
 10
-143.6487
 20
28.4457
 30
0.0
 10
-143.6487
 20
29.8832
 30
0.0
 10
-142.4848
 20
31.0471
 30
0.0
 10
-141.0473
 20
31.0471
 30
0.0
 10
-141.0473
 20
31.0471
 30
0.0
 10
-139.6104
 20
31.0471
 30
0.0
 10
-138.4459
 20
29.8832
 30
0.0
 10
-138.4459
 20
28.4457
 30
0.0
  0
SPLINE
  5
4F
330
1F
100
AcDbEntity
  8
layer 1
 62
     7
100
AcDbSpline
210
0.0
220
0.0
230
1.0
 70
    11
 71
     3
 72
    20
 73
    16
 74
     0
 42
0.0000000001
 43
0.0000000001
 12
1.0
 22
0.0
 32
0.0
 13
1.0
 23
0.0
 33
0.0
 40
0.0
 40
0.0
 40
0.0
 40
0.0
 40
0.2
 40
0.2
 40
0.2
 40
0.2
 40
0.4
 40
0.4
 40
0.4
 40
0.4
 40
0.6
 40
0.6
 40
0.6
 40
0.6
 40
1.0
 40
1.0
 40
1.0
 40
1.0
 10
-151.512
 20
14.9044
 30
0.0
 10
-151.512
 20
13.7968
 30
0.0
 10
-152.4091
 20
12.9006
 30
0.0
 10
-153.5198
 20
12.9006
 30
0.0
 10
-153.5198
 20
12.9006
 30
0.0
 10
-154.6274
 20
12.9006
 30
0.0
 10
-155.5266
 20
13.7968
 30
0.0
 10
-155.5266
 20
14.9044
 30
0.0
 10
-155.5266
 20
14.9044
 30
0.0
 10
-155.5266
 20
16.0151
 30
0.0
 10
-154.6274
 20
16.9121
 30
0.0
 10
-153.5198
 20
16.9121
 30
0.0
 10
-153.5198
 20
16.9121
 30
0.0
 10
-152.4091
 20
16.9121
 30
0.0
 10
-151.512
 20
16.0151
 30
0.0
 10
-151.512
 20
14.9044
 30
0.0
  0
SPLINE
  5
50
330
1F
100
AcDbEntity
  8
layer 1
 62
     7
100
AcDbSpline
210
0.0
220
0.0
230
1.0
 70
    11
 71
     3
 72
    28
 73
    24
 74
     0
 42
0.0000000001
 43
0.0000000001
 12
1.0
 22
0.0
 32
0.0
 13
1.0
 23
0.0
 33
0.0
 40
0.0
 40
0.0
 40
0.0
 40
0.0
 40
0.1428571428571428
 40
0.1428571428571428
 40
0.1428571428571428
 40
0.1428571428571428
 40
0.2857142857142857
 40
0.2857142857142857
 40
0.2857142857142857
 40
0.2857142857142857
 40
0.4285714285714285
 40
0.4285714285714285
 40
0.4285714285714285
 40
0.4285714285714285
 40
0.5714285714285714
 40
0.5714285714285714
 40
0.5714285714285714
 40
0.5714285714285714
 40
0.7142857142857143
 40
0.7142857142857143
 40
0.7142857142857143
 40
0.7142857142857143
 40
1.0
 40
1.0
 40
1.0
 40
1.0
 10
-135.5745
 20
61.8975
 30
0.0
 10
-134.93
 20
61.8975
 30
0.0
 10
-134.3872
 20
61.3775
 30
0.0
 10
-134.4107
 20
60.7336
 30
0.0
 10
-134.4107
 20
60.7336
 30
0.0
 10
-134.4107
 20
60.7336
 30
0.0
 10
-134.9544
 20
46.5301
 30
0.0
 10
-134.9544
 20
46.5301
 30
0.0
 10
-134.9544
 20
46.5301
 30
0.0
 10
-134.9779
 20
45.8884
 30
0.0
 10
-135.1946
 20
45.3693
 30
0.0
 10
-135.5358
 20
45.3775
 30
0.0
 10
-135.5358
 20
45.3775
 30
0.0
 10
-135.9077
 20
45.3868
 30
0.0
 10
-136.0734
 20
45.8412
 30
0.0
 10
-136.1029
 20
46.5148
 30
0.0
 10
-136.1029
 20
46.5148
 30
0.0
 10
-136.1029
 20
46.5148
 30
0.0
 10
-136.7354
 20
60.7336
 30
0.0
 10
-136.7354
 20
60.7336
 30
0.0
 10
-136.7354
 20
60.7336
 30
0.0
 10
-136.7651
 20
61.3775
 30
0.0
 10
-136.2193
 20
61.8975
 30
0.0
 10
-135.5745
 20
61.8975
 30
0.0
  0
SPLINE
  5
51
330
1F
100
AcDbEntity
  8
layer 1
 62
     7
100
AcDbSpline
210
0.0
220
0.0
230
1.0
 70
    11
 71
     3
 72
    20
 73
    16
 74
     0
 42
0.0000000001
 43
0.0000000001
 12
1.0
 22
0.0
 32
0.0
 13
1.0
 23
0.0
 33
0.0
 40
0.0
 40
0.0
 40
0.0
 40
0.0
 40
0.2
 40
0.2
 40
0.2
 40
0.2
 40
0.4
 40
0.4
 40
0.4
 40
0.4
 40
0.6
 40
0.6
 40
0.6
 40
0.6
 40
1.0
 40
1.0
 40
1.0
 40
1.0
 10
-143.3013
 20
59.4655
 30
0.0
 10
-142.1222
 20
59.5424
 30
0.0
 10
-141.8371
 20
58.8535
 30
0.0
 10
-141.3802
 20
58.0249
 30
0.0
 10
-141.3802
 20
58.0249
 30
0.0
 10
-139.6218
 20
53.9869
 30
0.0
 10
-138.3425
 20
49.5054
 30
0.0
 10
-137.8255
 20
44.324
 30
0.0
 10
-137.8255
 20
44.324
 30
0.0
 10
-139.7412
 20
49.0927
 30
0.0
 10
-141.41
 20
53.5975
 30
0.0
 10
-143.4883
 20
56.9919
 30
0.0
 10
-143.4883
 20
56.9919
 30
0.0
 10
-144.0144
 20
57.8258
 30
0.0
 10
-144.2932
 20
59.061
 30
0.0
 10
-143.3013
 20
59.4655
 30
0.0
  0
SPLINE
  5
52
330
1F
100
AcDbEntity
  8
layer 1
 62
     7
100
AcDbSpline
210
0.0
220
0.0
230
1.0
 70
    11
 71
     3
 72
    20
 73
    16
 74
     0
 42
0.0000000001
 43
0.0000000001
 12
1.0
 22
0.0
 32
0.0
 13
1.0
 23
0.0
 33
0.0
 40
0.0
 40
0.0
 40
0.0
 40
0.0
 40
0.2
 40
0.2
 40
0.2
 40
0.2
 40
0.4
 40
0.4
 40
0.4
 40
0.4
 40
0.6
 40
0.6
 40
0.6
 40
0.6
 40
1.0
 40
1.0
 40
1.0
 40
1.0
 10
-148.0707
 20
52.8997
 30
0.0
 10
-147.5956
 20
53.3331
 30
0.0
 10
-146.903
 20
53.2562
 30
0.0
 10
-146.4278
 20
52.8222
 30
0.0
 10
-146.4278
 20
52.8222
 30
0.0
 10
-144.4568
 20
51.1504
 30
0.0
 10
-141.8963
 20
48.7688
 30
0.0
 10
-139.1467
 20
43.4596
 30
0.0
 10
-139.1467
 20
43.4596
 30
0.0
 10
-141.9618
 20
46.4084
 30
0.0
 10
-144.1124
 20
47.9851
 30
0.0
 10
-147.2299
 20
50.2566
 30
0.0
 10
-147.2299
 20
50.2566
 30
0.0
 10
-148.1209
 20
50.7528
 30
0.0
 10
-148.8842
 20
52.1098
 30
0.0
 10
-148.0707
 20
52.8997
 30
0.0
  0
SPLINE
  5
53
330
1F
100
AcDbEntity
  8
layer 1
 62
     7
100
AcDbSpline
210
0.0
220
0.0
230
1.0
 70
    11
 71
     3
 72
    20
 73
    16
 74
     0
 42
0.0000000001
 43
0.0000000001
 12
1.0
 22
0.0
 32
0.0
 13
1.0
 23
0.0
 33
0.0
 40
0.0
 40
0.0
 40
0.0
 40
0.0
 40
0.2
 40
0.2
 40
0.2
 40
0.2
 40
0.4
 40
0.4
 40
0.4
 40
0.4
 40
0.6
 40
0.6
 40
0.6
 40
0.6
 40
1.0
 40
1.0
 40
1.0
 40
1.0
 10
-150.4107
 20
44.3179
 30
0.0
 10
-150.3034
 20
44.9504
 30
0.0
 10
-149.7127
 20
45.3152
 30
0.0
 10
-149.0712
 20
45.265
 30
0.0
 10
-149.0712
 20
45.265
 30
0.0
 10
-146.4879
 20
45.1609
 30
0.0
 10
-143.3164
 20
44.3712
 30
0.0
 10
-139.7944
 20
41.3425
 30
0.0
 10
-139.7944
 20
41.3425
 30
0.0
 10
-143.6965
 20
42.2447
 30
0.0
 10
-144.9791
 20
42.7442
 30
0.0
 10
-148.1239
 20
42.7526
 30
0.0
 10
-148.1239
 20
42.7526
 30
0.0
 10
-149.1305
 20
42.5953
 30
0.0
 10
-150.568
 20
43.192
 30
0.0
 10
-150.4107
 20
44.3179
 30
0.0
  0
SPLINE
  5
54
330
1F
100
AcDbEntity
  8
layer 1
 62
     7
100
AcDbSpline
210
0.0
220
0.0
230
1.0
 70
    11
 71
     3
 72
    40
 73
    36
 74
     0
 42
0.0000000001
 43
0.0000000001
 12
1.0
 22
0.0
 32
0.0
 13
1.0
 23
0.0
 33
0.0
 40
0.0
 40
0.0
 40
0.0
 40
0.0
 40
0.1
 40
0.1
 40
0.1
 40
0.1
 40
0.2
 40
0.2
 40
0.2
 40
0.2
 40
0.3
 40
0.3
 40
0.3
 40
0.3
 40
0.4
 40
0.4
 40
0.4
 40
0.4
 40
0.5
 40
0.5
 40
0.5
 40
0.5
 40
0.6
 40
0.6
 40
0.6
 40
0.6
 40
0.7
 40
0.7
 40
0.7
 40
0.7
 40
0.8
 40
0.8
 40
0.8
 40
0.8
 40
1.0
 40
1.0
 40
1.0
 40
1.0
 10
-153.5251
 20
37.4639
 30
0.0
 10
-152.349
 20
37.3872
 30
0.0
 10
-151.4916
 20
38.8178
 30
0.0
 10
-151.5181
 20
39.9263
 30
0.0
 10
-151.5181
 20
39.9263
 30
0.0
 10
-149.5699
 20
40.4096
 30
0.0
 10
-146.6452
 20
40.187
 30
0.0
 10
-143.7202
 20
39.2193
 30
0.0
 10
-143.7202
 20
39.2193
 30
0.0
 10
-139.2243
 20
37.4639
 30
0.0
 10
-140.8693
 20
34.1296
 30
0.0
 10
-136.5453
 20
34.8033
 30
0.0
 10
-136.5453
 20
34.8033
 30
0.0
 10
-136.5636
 20
34.3281
 30
0.0
 10
-136.4746
 20
33.2951
 30
0.0
 10
-136.483
 20
32.585
 30
0.0
 10
-136.483
 20
32.585
 30
0.0
 10
-141.7481
 20
34.3137
 30
0.0
 10
-143.1888
 20
32.8404
 30
0.0
 10
-144.9677
 20
31.7541
 30
0.0
 10
-144.9677
 20
31.7541
 30
0.0
 10
-146.951
 20
30.5424
 30
0.0
 10
-148.7564
 20
30.9521
 30
0.0
 10
-149.4718
 20
34.0021
 30
0.0
 10
-149.4718
 20
34.0021
 30
0.0
 10
-150.3157
 20
33.7549
 30
0.0
 10
-150.6507
 20
33.007
 30
0.0
 10
-150.8083
 20
31.4804
 30
0.0
 10
-150.8083
 20
31.4804
 30
0.0
 10
-151.316
 20
34.0042
 30
0.0
 10
-152.3111
 20
34.8481
 30
0.0
 10
-154.597
 20
36.7957
 30
0.0
 10
-154.597
 20
36.7957
 30
0.0
 10
-156.017
 20
38.4681
 30
0.0
 10
-154.9034
 20
39.8722
 30
0.0
 10
-153.5251
 20
37.4639
 30
0.0
  0
SPLINE
  5
55
330
1F
100
AcDbEntity
  8
layer 1
 62
     7
100
AcDbSpline
210
0.0
220
0.0
230
1.0
 70
    11
 71
     3
 72
    80
 73
    76
 74
     0
 42
0.0000000001
 43
0.0000000001
 12
1.0
 22
0.0
 32
0.0
 13
1.0
 23
0.0
 33
0.0
 40
0.0
 40
0.0
 40
0.0
 40
0.0
 40
0.05
 40
0.05
 40
0.05
 40
0.05
 40
0.1
 40
0.1
 40
0.1
 40
0.1
 40
0.15
 40
0.15
 40
0.15
 40
0.15
 40
0.2
 40
0.2
 40
0.2
 40
0.2
 40
0.25
 40
0.25
 40
0.25
 40
0.25
 40
0.3
 40
0.3
 40
0.3
 40
0.3
 40
0.35
 40
0.35
 40
0.35
 40
0.35
 40
0.4
 40
0.4
 40
0.4
 40
0.4
 40
0.45
 40
0.45
 40
0.45
 40
0.45
 40
0.5
 40
0.5
 40
0.5
 40
0.5
 40
0.55
 40
0.55
 40
0.55
 40
0.55
 40
0.6
 40
0.6
 40
0.6
 40
0.6
 40
0.65
 40
0.65
 40
0.65
 40
0.65
 40
0.7
 40
0.7
 40
0.7
 40
0.7
 40
0.75
 40
0.75
 40
0.75
 40
0.75
 40
0.8
 40
0.8
 40
0.8
 40
0.8
 40
0.85
 40
0.85
 40
0.85
 40
0.85
 40
0.9
 40
0.9
 40
0.9
 40
0.9
 40
1.0
 40
1.0
 40
1.0
 40
1.0
 10
-165.9405
 20
116.0102
 30
0.0
 10
-164.2894
 20
115.2592
 30
0.0
 10
-163.8356
 20
115.8354
 30
0.0
 10
-164.0645
 20
116.5241
 30
0.0
 10
-164.0645
 20
116.5241
 30
0.0
 10
-164.2689
 20
117.1361
 30
0.0
 10
-165.115
 20
117.7535
 30
0.0
 10
-164.5366
 20
118.8284
 30
0.0
 10
-164.5366
 20
118.8284
 30
0.0
 10
-163.5087
 20
119.7489
 30
0.0
 10
-162.9385
 20
119.9991
 30
0.0
 10
-161.8135
 20
120.1769
 30
0.0
 10
-161.8135
 20
120.1769
 30
0.0
 10
-163.1286
 20
118.5053
 30
0.0
 10
-162.2621
 20
116.5752
 30
0.0
 10
-161.184
 20
116.1654
 30
0.0
 10
-161.184
 20
116.1654
 30
0.0
 10
-155.6309
 20
120.6072
 30
0.0
 10
-150.5855
 20
111.7228
 30
0.0
 10
-149.9293
 20
109.8815
 30
0.0
 10
-149.9293
 20
109.8815
 30
0.0
 10
-151.2627
 20
110.6213
 30
0.0
 10
-152.2426
 20
110.9268
 30
0.0
 10
-153.7068
 20
111.3335
 30
0.0
 10
-153.7068
 20
111.3335
 30
0.0
 10
-153.8908
 20
109.8694
 30
0.0
 10
-153.6497
 20
108.1886
 30
0.0
 10
-152.6289
 20
107.0605
 30
0.0
 10
-152.6289
 20
107.0605
 30
0.0
 10
-152.0434
 20
106.4106
 30
0.0
 10
-152.1508
 20
105.2399
 30
0.0
 10
-152.7117
 20
104.5367
 30
0.0
 10
-152.7117
 20
104.5367
 30
0.0
 10
-147.6397
 20
101.5757
 30
0.0
 10
-150.0838
 20
100.2781
 30
0.0
 10
-151.5243
 20
102.3032
 30
0.0
 10
-151.5243
 20
102.3032
 30
0.0
 10
-156.1151
 20
106.6332
 30
0.0
 10
-153.3859
 20
101.549
 30
0.0
 10
-153.1778
 20
100.3138
 30
0.0
 10
-153.1778
 20
100.3138
 30
0.0
 10
-152.7709
 20
98.8733
 30
0.0
 10
-152.8987
 20
98.1609
 30
0.0
 10
-153.8428
 20
97.3414
 30
0.0
 10
-153.8428
 20
97.3414
 30
0.0
 10
-148.498
 20
93.8225
 30
0.0
 10
-152.118
 20
88.4266
 30
0.0
 10
-154.0511
 20
86.2593
 30
0.0
 10
-154.0511
 20
86.2593
 30
0.0
 10
-154.3065
 20
85.5402
 30
0.0
 10
-152.9315
 20
90.1135
 30
0.0
 10
-153.9501
 20
92.2604
 30
0.0
 10
-153.9501
 20
92.2604
 30
0.0
 10
-154.692
 20
89.3063
 30
0.0
 10
-156.7743
 20
86.8827
 30
0.0
 10
-159.5709
 20
87.2955
 30
0.0
 10
-159.5709
 20
87.2955
 30
0.0
 10
-160.0764
 20
80.6764
 30
0.0
 10
-165.2671
 20
78.9005
 30
0.0
 10
-167.1257
 20
79.6875
 30
0.0
 10
-167.1257
 20
79.6875
 30
0.0
 10
-163.1818
 20
82.5677
 30
0.0
 10
-165.0148
 20
93.8285
 30
0.0
 10
-167.8327
 20
95.4022
 30
0.0
 10
-167.8327
 20
95.4022
 30
0.0
 10
-159.6157
 20
93.7214
 30
0.0
 10
-156.4625
 20
99.3635
 30
0.0
 10
-155.6339
 20
103.3873
 30
0.0
 10
-155.6339
 20
103.3873
 30
0.0
 10
-154.1492
 20
113.127
 30
0.0
 10
-162.4164
 20
115.2827
 30
0.0
 10
-164.9904
 20
113.1543
 30
0.0
 10
-164.9904
 20
113.1543
 30
0.0
 10
-166.2256
 20
113.3823
 30
0.0
 10
-166.2797
 20
115.4379
 30
0.0
 10
-165.9405
 20
116.0102
 30
0.0
  0
SPLINE
  5
56
330
1F
100
AcDbEntity
  8
layer 1
 62
     7
100
AcDbSpline
210
0.0
220
0.0
230
1.0
 70
    11
 71
     3
 72
    88
 73
    84
 74
     0
 42
0.0000000001
 43
0.0000000001
 12
1.0
 22
0.0
 32
0.0
 13
1.0
 23
0.0
 33
0.0
 40
0.0
 40
0.0
 40
0.0
 40
0.0
 40
0.0454545454545455
 40
0.0454545454545455
 40
0.0454545454545455
 40
0.0454545454545455
 40
0.0909090909090909
 40
0.0909090909090909
 40
0.0909090909090909
 40
0.0909090909090909
 40
0.1363636363636364
 40
0.1363636363636364
 40
0.1363636363636364
 40
0.1363636363636364
 40
0.1818181818181818
 40
0.1818181818181818
 40
0.1818181818181818
 40
0.1818181818181818
 40
0.2272727272727273
 40
0.2272727272727273
 40
0.2272727272727273
 40
0.2272727272727273
 40
0.2727272727272727
 40
0.2727272727272727
 40
0.2727272727272727
 40
0.2727272727272727
 40
0.3181818181818182
 40
0.3181818181818182
 40
0.3181818181818182
 40
0.3181818181818182
 40
0.3636363636363636
 40
0.3636363636363636
 40
0.3636363636363636
 40
0.3636363636363636
 40
0.4090909090909091
 40
0.4090909090909091
 40
0.4090909090909091
 40
0.4090909090909091
 40
0.4545454545454545
 40
0.4545454545454545
 40
0.4545454545454545
 40
0.4545454545454545
 40
0.5
 40
0.5
 40
0.5
 40
0.5
 40
0.5454545454545454
 40
0.5454545454545454
 40
0.5454545454545454
 40
0.5454545454545454
 40
0.5909090909090909
 40
0.5909090909090909
 40
0.5909090909090909
 40
0.5909090909090909
 40
0.6363636363636364
 40
0.6363636363636364
 40
0.6363636363636364
 40
0.6363636363636364
 40
0.6818181818181818
 40
0.6818181818181818
 40
0.6818181818181818
 40
0.6818181818181818
 40
0.7272727272727273
 40
0.7272727272727273
 40
0.7272727272727273
 40
0.7272727272727273
 40
0.7727272727272727
 40
0.7727272727272727
 40
0.7727272727272727
 40
0.7727272727272727
 40
0.8181818181818182
 40
0.8181818181818182
 40
0.8181818181818182
 40
0.8181818181818182
 40
0.8636363636363636
 40
0.8636363636363636
 40
0.8636363636363636
 40
0.8636363636363636
 40
0.9090909090909091
 40
0.9090909090909091
 40
0.9090909090909091
 40
0.9090909090909091
 40
1.0
 40
1.0
 40
1.0
 40
1.0
 10
-167.1882
 20
52.4336
 30
0.0
 10
-169.9234
 20
52.16
 30
0.0
 10
-171.182
 20
51.4743
 30
0.0
 10
-173.8664
 20
49.7965
 30
0.0
 10
-173.8664
 20
49.7965
 30
0.0
 10
-174.1012
 20
50.6722
 30
0.0
 10
-174.267
 20
52.5994
 30
0.0
 10
-173.9052
 20
54.1168
 30
0.0
 10
-173.9052
 20
54.1168
 30
0.0
 10
-173.3494
 20
54.3457
 30
0.0
 10
-172.9611
 20
54.8771
 30
0.0
 10
-173.1981
 20
55.6257
 30
0.0
 10
-173.1981
 20
55.6257
 30
0.0
 10
-172.8926
 20
55.97
 30
0.0
 10
-172.4974
 20
56.1868
 30
0.0
 10
-171.9864
 20
56.2103
 30
0.0
 10
-171.9864
 20
56.2103
 30
0.0
 10
-170.3739
 20
55.5543
 30
0.0
 10
-169.7477
 20
57.5916
 30
0.0
 10
-171.265
 20
58.5716
 30
0.0
 10
-171.265
 20
58.5716
 30
0.0
 10
-169.7538
 20
60.2401
 30
0.0
 10
-170.6295
 20
62.2774
 30
0.0
 10
-173.427
 20
60.1869
 30
0.0
 10
-173.427
 20
60.1869
 30
0.0
 10
-174.036
 20
59.8395
 30
0.0
 10
-174.0892
 20
60.653
 30
0.0
 10
-173.3707
 20
61.5288
 30
0.0
 10
-173.3707
 20
61.5288
 30
0.0
 10
-172.2478
 20
62.8325
 30
0.0
 10
-170.659
 20
62.4941
 30
0.0
 10
-170.5017
 20
63.0848
 30
0.0
 10
-170.5017
 20
63.0848
 30
0.0
 10
-170.4638
 20
64.0676
 30
0.0
 10
-171.3098
 20
64.4958
 30
0.0
 10
-172.1233
 20
64.8994
 30
0.0
 10
-172.1233
 20
64.8994
 30
0.0
 10
-168.9138
 20
66.3012
 30
0.0
 10
-169.4982
 20
68.5254
 30
0.0
 10
-167.7704
 20
68.9293
 30
0.0
 10
-167.7704
 20
68.9293
 30
0.0
 10
-167.2056
 20
69.0629
 30
0.0
 10
-167.1524
 20
69.2736
 30
0.0
 10
-167.553
 20
69.624
 30
0.0
 10
-167.553
 20
69.624
 30
0.0
 10
-168.1945
 20
70.0992
 30
0.0
 10
-169.2459
 20
70.2267
 30
0.0
 10
-171.455
 20
70.1226
 30
0.0
 10
-171.455
 20
70.1226
 30
0.0
 10
-167.5506
 20
74.2923
 30
0.0
 10
-158.8229
 20
73.5733
 30
0.0
 10
-158.41
 20
65.1015
 30
0.0
 10
-158.41
 20
65.1015
 30
0.0
 10
-159.726
 20
63.7888
 30
0.0
 10
-158.7544
 20
62.4469
 30
0.0
 10
-157.65
 20
61.9862
 30
0.0
 10
-157.65
 20
61.9862
 30
0.0
 10
-157.5373
 20
60.8612
 30
0.0
 10
-157.6082
 20
60.5048
 30
0.0
 10
-158.2353
 20
59.4859
 30
0.0
 10
-158.2353
 20
59.4859
 30
0.0
 10
-157.8278
 20
59.3849
 30
0.0
 10
-156.8958
 20
59.0968
 30
0.0
 10
-156.1478
 20
59.4922
 30
0.0
 10
-156.1478
 20
59.4922
 30
0.0
 10
-156.8038
 20
57.5825
 30
0.0
 10
-157.7631
 20
56.8815
 30
0.0
 10
-159.4021
 20
55.9252
 30
0.0
 10
-159.4021
 20
55.9252
 30
0.0
 10
-158.9863
 20
55.2753
 30
0.0
 10
-158.0984
 20
54.7941
 30
0.0
 10
-156.9755
 20
54.4618
 30
0.0
 10
-156.9755
 20
54.4618
 30
0.0
 10
-160.3137
 20
53.6447
 30
0.0
 10
-165.9437
 20
53.2411
 30
0.0
 10
-165.077
 20
59.4655
 30
0.0
 10
-165.077
 20
59.4655
 30
0.0
 10
-160.3934
 20
54.1556
 30
0.0
 10
-156.7118
 20
64.1657
 30
0.0
 10
-163.9604
 20
65.395
 30
0.0
 10
-163.9604
 20
65.395
 30
0.0
 10
-170.324
 20
66.3962
 30
0.0
 10
-171.5798
 20
56.0295
 30
0.0
 10
-167.1882
 20
52.4336
 30
0.0
  0
SPLINE
  5
57
330
1F
100
AcDbEntity
  8
layer 1
 62
     7
100
AcDbSpline
210
0.0
220
0.0
230
1.0
 70
    11
 71
     3
 72
    36
 73
    32
 74
     0
 42
0.0000000001
 43
0.0000000001
 12
1.0
 22
0.0
 32
0.0
 13
1.0
 23
0.0
 33
0.0
 40
0.0
 40
0.0
 40
0.0
 40
0.0
 40
0.1111111111111111
 40
0.1111111111111111
 40
0.1111111111111111
 40
0.1111111111111111
 40
0.2222222222222222
 40
0.2222222222222222
 40
0.2222222222222222
 40
0.2222222222222222
 40
0.3333333333333333
 40
0.3333333333333333
 40
0.3333333333333333
 40
0.3333333333333333
 40
0.4444444444444444
 40
0.4444444444444444
 40
0.4444444444444444
 40
0.4444444444444444
 40
0.5555555555555556
 40
0.5555555555555556
 40
0.5555555555555556
 40
0.5555555555555556
 40
0.6666666666666666
 40
0.6666666666666666
 40
0.6666666666666666
 40
0.6666666666666666
 40
0.7777777777777778
 40
0.7777777777777778
 40
0.7777777777777778
 40
0.7777777777777778
 40
1.0
 40
1.0
 40
1.0
 40
1.0
 10
-172.4616
 20
47.4712
 30
0.0
 10
-169.3614
 20
49.9092
 30
0.0
 10
-163.6037
 20
50.1113
 30
0.0
 10
-161.6113
 20
49.8172
 30
0.0
 10
-161.6113
 20
49.8172
 30
0.0
 10
-163.2092
 20
48.4008
 30
0.0
 10
-164.6286
 20
44.2464
 30
0.0
 10
-162.3806
 20
40.4424
 30
0.0
 10
-162.3806
 20
40.4424
 30
0.0
 10
-163.3279
 20
39.8282
 30
0.0
 10
-163.2176
 20
38.6461
 30
0.0
 10
-163.0428
 20
37.9574
 30
0.0
 10
-163.0428
 20
37.9574
 30
0.0
 10
-163.4374
 20
37.8951
 30
0.0
 10
-165.0443
 20
39.5462
 30
0.0
 10
-166.7874
 20
41.1936
 30
0.0
 10
-166.7874
 20
41.1936
 30
0.0
 10
-168.2958
 20
43.4954
 30
0.0
 10
-166.6354
 20
45.3868
 30
0.0
 10
-167.6069
 20
47.2369
 30
0.0
 10
-167.6069
 20
47.2369
 30
0.0
 10
-168.0555
 20
48.0922
 30
0.0
 10
-169.4299
 20
48.312
 30
0.0
 10
-170.3832
 20
47.7683
 30
0.0
 10
-170.3832
 20
47.7683
 30
0.0
 10
-171.0872
 20
47.1861
 30
0.0
 10
-170.8521
 20
46.2715
 30
0.0
 10
-170.7192
 20
45.1997
 30
0.0
 10
-170.7192
 20
45.1997
 30
0.0
 10
-171.7964
 20
46.0283
 30
0.0
 10
-172.0966
 20
46.7467
 30
0.0
 10
-172.4616
 20
47.4712
 30
0.0
  0
SPLINE
  5
58
330
1F
100
AcDbEntity
  8
layer 1
 62
     7
100
AcDbSpline
210
0.0
220
0.0
230
1.0
 70
    11
 71
     3
 72
    52
 73
    48
 74
     0
 42
0.0000000001
 43
0.0000000001
 12
1.0
 22
0.0
 32
0.0
 13
1.0
 23
0.0
 33
0.0
 40
0.0
 40
0.0
 40
0.0
 40
0.0
 40
0.0769230769230769
 40
0.0769230769230769
 40
0.0769230769230769
 40
0.0769230769230769
 40
0.1538461538461539
 40
0.1538461538461539
 40
0.1538461538461539
 40
0.1538461538461539
 40
0.2307692307692308
 40
0.2307692307692308
 40
0.2307692307692308
 40
0.2307692307692308
 40
0.3076923076923077
 40
0.3076923076923077
 40
0.3076923076923077
 40
0.3076923076923077
 40
0.3846153846153846
 40
0.3846153846153846
 40
0.3846153846153846
 40
0.3846153846153846
 40
0.4615384615384616
 40
0.4615384615384616
 40
0.4615384615384616
 40
0.4615384615384616
 40
0.5384615384615384
 40
0.5384615384615384
 40
0.5384615384615384
 40
0.5384615384615384
 40
0.6153846153846154
 40
0.6153846153846154
 40
0.6153846153846154
 40
0.6153846153846154
 40
0.6923076923076923
 40
0.6923076923076923
 40
0.6923076923076923
 40
0.6923076923076923
 40
0.7692307692307693
 40
0.7692307692307693
 40
0.7692307692307693
 40
0.7692307692307693
 40
0.8461538461538461
 40
0.8461538461538461
 40
0.8461538461538461
 40
0.8461538461538461
 40
1.0
 40
1.0
 40
1.0
 40
1.0
 10
-158.7012
 20
50.3188
 30
0.0
 10
-157.377
 20
50.2268
 30
0.0
 10
-156.3849
 20
50.6223
 30
0.0
 10
-155.1527
 20
51.7952
 30
0.0
 10
-155.1527
 20
51.7952
 30
0.0
 10
-158.4284
 20
48.7126
 30
0.0
 10
-153.8163
 20
44.0419
 30
0.0
 10
-151.9126
 20
48.1036
 30
0.0
 10
-151.9126
 20
48.1036
 30
0.0
 10
-151.601
 20
47.9972
 30
0.0
 10
-151.506
 20
47.9789
 30
0.0
 10
-151.2802
 20
47.9289
 30
0.0
 10
-151.2802
 20
47.9289
 30
0.0
 10
-151.1974
 20
47.7326
 30
0.0
 10
-151.1882
 20
47.3055
 30
0.0
 10
-151.1914
 20
46.768
 30
0.0
 10
-151.1914
 20
46.768
 30
0.0
 10
-151.7051
 20
46.6874
 30
0.0
 10
-152.0314
 20
45.9097
 30
0.0
 10
-151.8504
 20
45.1844
 30
0.0
 10
-151.8504
 20
45.1844
 30
0.0
 10
-154.0033
 20
45.3775
 30
0.0
 10
-155.2508
 20
43.6969
 30
0.0
 10
-154.7224
 20
41.7431
 30
0.0
 10
-154.7224
 20
41.7431
 30
0.0
 10
-157.0561
 20
42.1947
 30
0.0
 10
-158.2323
 20
39.9558
 30
0.0
 10
-157.8491
 20
37.6662
 30
0.0
 10
-157.8491
 20
37.6662
 30
0.0
 10
-159.3787
 20
39.1925
 30
0.0
 10
-160.0225
 20
40.618
 30
0.0
 10
-160.7735
 20
42.5923
 30
0.0
 10
-160.7735
 20
42.5923
 30
0.0
 10
-161.3088
 20
43.9971
 30
0.0
 10
-161.1659
 20
46.2
 30
0.0
 10
-159.907
 20
45.8649
 30
0.0
 10
-159.907
 20
45.8649
 30
0.0
 10
-158.312
 20
45.1967
 30
0.0
 10
-156.9878
 20
45.4376
 30
0.0
 10
-157.5701
 20
46.9518
 30
0.0
 10
-157.5701
 20
46.9518
 30
0.0
 10
-155.8475
 20
47.8453
 30
0.0
 10
-157.038
 20
49.1192
 30
0.0
 10
-158.4611
 20
49.3655
 30
0.0
 10
-158.4611
 20
49.3655
 30
0.0
 10
-158.22
 20
49.6422
 30
0.0
 10
-158.309
 20
50.1204
 30
0.0
 10
-158.7012
 20
50.3188
 30
0.0
  0
SPLINE
  5
59
330
1F
100
AcDbEntity
  8
layer 1
 62
     7
100
AcDbSpline
210
0.0
220
0.0
230
1.0
 70
    11
 71
     3
 72
    20
 73
    16
 74
     0
 42
0.0000000001
 43
0.0000000001
 12
1.0
 22
0.0
 32
0.0
 13
1.0
 23
0.0
 33
0.0
 40
0.0
 40
0.0
 40
0.0
 40
0.0
 40
0.2
 40
0.2
 40
0.2
 40
0.2
 40
0.4
 40
0.4
 40
0.4
 40
0.4
 40
0.6
 40
0.6
 40
0.6
 40
0.6
 40
1.0
 40
1.0
 40
1.0
 40
1.0
 10
-173.7599
 20
9.8088
 30
0.0
 10
-170.5853
 20
9.6485
 30
0.0
 10
-169.0528
 20
9.1916
 30
0.0
 10
-164.3168
 20
8.5977
 30
0.0
 10
-164.3168
 20
8.5977
 30
0.0
 10
-168.9875
 20
8.0778
 30
0.0
 10
-170.3892
 20
7.6681
 30
0.0
 10
-173.8603
 20
7.4871
 30
0.0
 10
-173.8603
 20
7.4871
 30
0.0
 10
-174.5286
 20
7.6179
 30
0.0
 10
-175.3099
 20
7.9235
 30
0.0
 10
-175.3099
 20
8.6061
 30
0.0
 10
-175.3099
 20
8.6061
 30
0.0
 10
-175.3929
 20
9.4172
 30
0.0
 10
-174.4068
 20
9.8446
 30
0.0
 10
-173.7599
 20
9.8088
 30
0.0
  0
SPLINE
  5
5A
330
1F
100
AcDbEntity
  8
layer 1
 62
     7
100
AcDbSpline
210
0.0
220
0.0
230
1.0
 70
    11
 71
     3
 72
    24
 73
    20
 74
     0
 42
0.0000000001
 43
0.0000000001
 12
1.0
 22
0.0
 32
0.0
 13
1.0
 23
0.0
 33
0.0
 40
0.0
 40
0.0
 40
0.0
 40
0.0
 40
0.1666666666666667
 40
0.1666666666666667
 40
0.1666666666666667
 40
0.1666666666666667
 40
0.3333333333333333
 40
0.3333333333333333
 40
0.3333333333333333
 40
0.3333333333333333
 40
0.5
 40
0.5
 40
0.5
 40
0.5
 40
0.6666666666666666
 40
0.6666666666666666
 40
0.6666666666666666
 40
0.6666666666666666
 40
1.0
 40
1.0
 40
1.0
 40
1.0
 10
-143.3963
 20
23.6739
 30
0.0
 10
-144.1389
 20
23.2938
 30
0.0
 10
-144.5395
 20
22.8424
 30
0.0
 10
-145.0116
 20
22.311
 30
0.0
 10
-145.0116
 20
22.311
 30
0.0
 10
-146.069
 20
23.3205
 30
0.0
 10
-148.3467
 20
26.1264
 30
0.0
 10
-149.3296
 20
27.0082
 30
0.0
 10
-149.3296
 20
27.0082
 30
0.0
 10
-148.4204
 20
27.0653
 30
0.0
 10
-148.3314
 20
27.754
 30
0.0
 10
-148.2455
 20
28.2231
 30
0.0
 10
-148.2455
 20
28.2231
 30
0.0
 10
-147.8746
 20
27.044
 30
0.0
 10
-146.4666
 20
26.4533
 30
0.0
 10
-145.6176
 20
27.1603
 30
0.0
 10
-145.6176
 20
27.1603
 30
0.0
 10
-145.7719
 20
25.4172
 30
0.0
 10
-144.9106
 20
23.95
 30
0.0
 10
-143.3963
 20
23.6739
 30
0.0
  0
SPLINE
  5
5B
330
1F
100
AcDbEntity
  8
layer 1
 62
     7
100
AcDbSpline
210
0.0
220
0.0
230
1.0
 70
    11
 71
     3
 72
    20
 73
    16
 74
     0
 42
0.0000000001
 43
0.0000000001
 12
1.0
 22
0.0
 32
0.0
 13
1.0
 23
0.0
 33
0.0
 40
0.0
 40
0.0
 40
0.0
 40
0.0
 40
0.2
 40
0.2
 40
0.2
 40
0.2
 40
0.4
 40
0.4
 40
0.4
 40
0.4
 40
0.6
 40
0.6
 40
0.6
 40
0.6
 40
1.0
 40
1.0
 40
1.0
 40
1.0
 10
-149.4306
 20
16.8141
 30
0.0
 10
-148.8309
 20
18.5427
 30
0.0
 10
-147.8061
 20
19.8876
 30
0.0
 10
-147.0308
 20
20.7069
 30
0.0
 10
-147.0308
 20
20.7069
 30
0.0
 10
-147.9901
 20
21.8085
 30
0.0
 10
-151.1737
 20
24.5824
 30
0.0
 10
-152.0107
 20
25.6073
 30
0.0
 10
-152.0107
 20
25.6073
 30
0.0
 10
-151.4437
 20
24.1605
 30
0.0
 10
-150.8645
 20
22.2959
 30
0.0
 10
-151.8094
 20
20.3809
 30
0.0
 10
-151.8094
 20
20.3809
 30
0.0
 10
-150.137
 20
20.1225
 30
0.0
 10
-149.3031
 20
18.7503
 30
0.0
 10
-149.4306
 20
16.8141
 30
0.0
  0
SPLINE
  5
5C
330
1F
100
AcDbEntity
  8
layer 1
 62
     7
100
AcDbSpline
210
0.0
220
0.0
230
1.0
 70
    11
 71
     3
 72
    20
 73
    16
 74
     0
 42
0.0000000001
 43
0.0000000001
 12
1.0
 22
0.0
 32
0.0
 13
1.0
 23
0.0
 33
0.0
 40
0.0
 40
0.0
 40
0.0
 40
0.0
 40
0.2
 40
0.2
 40
0.2
 40
0.2
 40
0.4
 40
0.4
 40
0.4
 40
0.4
 40
0.6
 40
0.6
 40
0.6
 40
0.6
 40
1.0
 40
1.0
 40
1.0
 40
1.0
 10
-171.9485
 20
16.3122
 30
0.0
 10
-169.813
 20
14.706
 30
0.0
 10
-168.0555
 20
12.9066
 30
0.0
 10
-163.8979
 20
10.661
 30
0.0
 10
-163.8979
 20
10.661
 30
0.0
 10
-168.6431
 20
11.5109
 30
0.0
 10
-171.452
 20
13.2213
 30
0.0
 10
-173.0766
 20
14.278
 30
0.0
 10
-173.0766
 20
14.278
 30
0.0
 10
-173.6201
 20
14.6969
 30
0.0
 10
-174.178
 20
15.3173
 30
0.0
 10
-173.8724
 20
15.9291
 30
0.0
 10
-173.8724
 20
15.9291
 30
0.0
 10
-173.5843
 20
16.6893
 30
0.0
 10
-172.587
 20
17.0755
 30
0.0
 10
-171.9485
 20
16.3122
 30
0.0
  0
SPLINE
  5
5D
330
1F
100
AcDbEntity
  8
layer 1
 62
     7
100
AcDbSpline
210
0.0
220
0.0
230
1.0
 70
    11
 71
     3
 72
    20
 73
    16
 74
     0
 42
0.0000000001
 43
0.0000000001
 12
1.0
 22
0.0
 32
0.0
 13
1.0
 23
0.0
 33
0.0
 40
0.0
 40
0.0
 40
0.0
 40
0.0
 40
0.2
 40
0.2
 40
0.2
 40
0.2
 40
0.4
 40
0.4
 40
0.4
 40
0.4
 40
0.6
 40
0.6
 40
0.6
 40
0.6
 40
1.0
 40
1.0
 40
1.0
 40
1.0
 10
-167.9544
 20
20.336
 30
0.0
 10
-166.6301
 20
17.5681
 30
0.0
 10
-165.6524
 20
16.3717
 30
0.0
 10
-162.8375
 20
12.4041
 30
0.0
 10
-162.8375
 20
12.4041
 30
0.0
 10
-166.526
 20
15.2497
 30
0.0
 10
-168.5358
 20
17.6336
 30
0.0
 10
-169.6109
 20
19.2489
 30
0.0
 10
-169.6109
 20
19.2489
 30
0.0
 10
-169.9408
 20
19.8456
 30
0.0
 10
-170.4341
 20
20.7519
 30
0.0
 10
-169.9111
 20
21.1913
 30
0.0
 10
-169.9111
 20
21.1913
 30
0.0
 10
-169.3439
 20
21.7766
 30
0.0
 10
-168.4233
 20
21.179
 30
0.0
 10
-167.9544
 20
20.336
 30
0.0
  0
SPLINE
  5
5E
330
1F
100
AcDbEntity
  8
layer 1
 62
     7
100
AcDbSpline
210
0.0
220
0.0
230
1.0
 70
    11
 71
     3
 72
    20
 73
    16
 74
     0
 42
0.0000000001
 43
0.0000000001
 12
1.0
 22
0.0
 32
0.0
 13
1.0
 23
0.0
 33
0.0
 40
0.0
 40
0.0
 40
0.0
 40
0.0
 40
0.2
 40
0.2
 40
0.2
 40
0.2
 40
0.4
 40
0.4
 40
0.4
 40
0.4
 40
0.6
 40
0.6
 40
0.6
 40
0.6
 40
1.0
 40
1.0
 40
1.0
 40
1.0
 10
-162.392
 20
20.247
 30
0.0
 10
-162.2203
 20
18.3048
 30
0.0
 10
-162.5349
 20
17.3933
 30
0.0
 10
-162.4817
 20
15.0921
 30
0.0
 10
-162.4817
 20
15.0921
 30
0.0
 10
-163.2266
 20
16.3215
 30
0.0
 10
-164.1412
 20
17.8715
 30
0.0
 10
-164.5571
 20
20.4043
 30
0.0
 10
-164.5571
 20
20.4043
 30
0.0
 10
-164.6642
 20
21.1555
 30
0.0
 10
-164.3495
 20
22.1026
 30
0.0
 10
-163.669
 20
22.1567
 30
0.0
 10
-163.669
 20
22.1567
 30
0.0
 10
-162.8672
 20
22.3019
 30
0.0
 10
-162.3571
 20
21.2413
 30
0.0
 10
-162.392
 20
20.247
 30
0.0
  0
SPLINE
  5
5F
330
1F
100
AcDbEntity
  8
layer 1
 62
     7
100
AcDbSpline
210
0.0
220
0.0
230
1.0
 70
    11
 71
     3
 72
    48
 73
    44
 74
     0
 42
0.0000000001
 43
0.0000000001
 12
1.0
 22
0.0
 32
0.0
 13
1.0
 23
0.0
 33
0.0
 40
0.0
 40
0.0
 40
0.0
 40
0.0
 40
0.0833333333333333
 40
0.0833333333333333
 40
0.0833333333333333
 40
0.0833333333333333
 40
0.1666666666666667
 40
0.1666666666666667
 40
0.1666666666666667
 40
0.1666666666666667
 40
0.25
 40
0.25
 40
0.25
 40
0.25
 40
0.3333333333333333
 40
0.3333333333333333
 40
0.3333333333333333
 40
0.3333333333333333
 40
0.4166666666666667
 40
0.4166666666666667
 40
0.4166666666666667
 40
0.4166666666666667
 40
0.5
 40
0.5
 40
0.5
 40
0.5
 40
0.5833333333333334
 40
0.5833333333333334
 40
0.5833333333333334
 40
0.5833333333333334
 40
0.6666666666666666
 40
0.6666666666666666
 40
0.6666666666666666
 40
0.6666666666666666
 40
0.75
 40
0.75
 40
0.75
 40
0.75
 40
0.8333333333333334
 40
0.8333333333333334
 40
0.8333333333333334
 40
0.8333333333333334
 40
1.0
 40
1.0
 40
1.0
 40
1.0
 10
-159.7107
 20
23.0355
 30
0.0
 10
-159.7997
 20
23.6498
 30
0.0
 10
-160.8899
 20
23.8132
 30
0.0
 10
-161.7329
 20
23.858
 30
0.0
 10
-161.7329
 20
23.858
 30
0.0
 10
-161.4631
 20
24.2441
 30
0.0
 10
-161.1127
 20
24.8173
 30
0.0
 10
-162.4489
 20
25.3722
 30
0.0
 10
-162.4489
 20
25.3722
 30
0.0
 10
-160.3759
 20
26.3613
 30
0.0
 10
-161.6318
 20
27.7898
 30
0.0
 10
-162.5677
 20
28.3272
 30
0.0
 10
-162.5677
 20
28.3272
 30
0.0
 10
-161.3413
 20
28.686
 30
0.0
 10
-160.3167
 20
28.4069
 30
0.0
 10
-159.815
 20
27.665
 30
0.0
 10
-159.815
 20
27.665
 30
0.0
 10
-159.3306
 20
26.9489
 30
0.0
 10
-157.7776
 20
26.8509
 30
0.0
 10
-156.943
 20
26.3492
 30
0.0
 10
-156.943
 20
26.3492
 30
0.0
 10
-157.6856
 20
26.201
 30
0.0
 10
-157.8636
 20
25.9598
 30
0.0
 10
-157.9024
 20
25.5593
 30
0.0
 10
-157.9024
 20
25.5593
 30
0.0
 10
-156.6252
 20
25.2242
 30
0.0
 10
-155.9365
 20
24.5262
 30
0.0
 10
-155.6399
 20
24.4047
 30
0.0
 10
-155.6399
 20
24.4047
 30
0.0
 10
-155.1049
 20
23.95
 30
0.0
 10
-155.1497
 20
22.8271
 30
0.0
 10
-155.6992
 20
21.7736
 30
0.0
 10
-155.6992
 20
21.7736
 30
0.0
 10
-158.9363
 20
17.1257
 30
0.0
 10
-158.4876
 20
11.6713
 30
0.0
 10
-156.2961
 20
10.5873
 30
0.0
 10
-156.2961
 20
10.5873
 30
0.0
 10
-158.8761
 20
9.5685
 30
0.0
 10
-158.8975
 20
13.999
 30
0.0
 10
-160.7888
 20
15.1568
 30
0.0
 10
-160.7888
 20
15.1568
 30
0.0
 10
-161.4273
 20
17.5978
 30
0.0
 10
-161.365
 20
20.992
 30
0.0
 10
-159.7107
 20
23.0355
 30
0.0
  0
SPLINE
  5
60
330
1F
100
AcDbEntity
  8
layer 1
 62
     7
100
AcDbSpline
210
0.0
220
0.0
230
1.0
 70
    11
 71
     3
 72
    32
 73
    28
 74
     0
 42
0.0000000001
 43
0.0000000001
 12
1.0
 22
0.0
 32
0.0
 13
1.0
 23
0.0
 33
0.0
 40
0.0
 40
0.0
 40
0.0
 40
0.0
 40
0.125
 40
0.125
 40
0.125
 40
0.125
 40
0.25
 40
0.25
 40
0.25
 40
0.25
 40
0.375
 40
0.375
 40
0.375
 40
0.375
 40
0.5
 40
0.5
 40
0.5
 40
0.5
 40
0.625
 40
0.625
 40
0.625
 40
0.625
 40
0.75
 40
0.75
 40
0.75
 40
0.75
 40
1.0
 40
1.0
 40
1.0
 40
1.0
 10
-153.754
 20
53.2144
 30
0.0
 10
-153.2788
 20
53.6477
 30
0.0
 10
-153.24
 20
53.5945
 30
0.0
 10
-152.8302
 20
54.328
 30
0.0
 10
-152.8302
 20
54.328
 30
0.0
 10
-152.8364
 20
53.5466
 30
0.0
 10
-152.4001
 20
51.0942
 30
0.0
 10
-150.5885
 20
50.2923
 30
0.0
 10
-150.5885
 20
50.2923
 30
0.0
 10
-150.9328
 20
50.0284
 30
0.0
 10
-150.9481
 20
49.4909
 30
0.0
 10
-151.0871
 20
48.9322
 30
0.0
 10
-151.0871
 20
48.9322
 30
0.0
 10
-151.2414
 20
48.8434
 30
0.0
 10
-151.417
 20
48.977
 30
0.0
 10
-151.7226
 20
49.0158
 30
0.0
 10
-151.7226
 20
49.0158
 30
0.0
 10
-151.5713
 20
49.6034
 30
0.0
 10
-151.8032
 20
50.0939
 30
0.0
 10
-152.3346
 20
50.471
 30
0.0
 10
-152.3346
 20
50.471
 30
0.0
 10
-152.3195
 20
49.5321
 30
0.0
 10
-153.0713
 20
48.7331
 30
0.0
 10
-153.944
 20
49.3009
 30
0.0
 10
-153.944
 20
49.3009
 30
0.0
 10
-154.8349
 20
49.7965
 30
0.0
 10
-154.5705
 20
52.4246
 30
0.0
 10
-153.754
 20
53.2144
 30
0.0
  0
SPLINE
  5
61
330
1F
100
AcDbEntity
  8
layer 1
 62
     7
100
AcDbSpline
210
0.0
220
0.0
230
1.0
 70
    11
 71
     3
 72
    68
 73
    64
 74
     0
 42
0.0000000001
 43
0.0000000001
 12
1.0
 22
0.0
 32
0.0
 13
1.0
 23
0.0
 33
0.0
 40
0.0
 40
0.0
 40
0.0
 40
0.0
 40
0.0588235294117647
 40
0.0588235294117647
 40
0.0588235294117647
 40
0.0588235294117647
 40
0.1176470588235294
 40
0.1176470588235294
 40
0.1176470588235294
 40
0.1176470588235294
 40
0.1764705882352941
 40
0.1764705882352941
 40
0.1764705882352941
 40
0.1764705882352941
 40
0.2352941176470588
 40
0.2352941176470588
 40
0.2352941176470588
 40
0.2352941176470588
 40
0.2941176470588235
 40
0.2941176470588235
 40
0.2941176470588235
 40
0.2941176470588235
 40
0.3529411764705883
 40
0.3529411764705883
 40
0.3529411764705883
 40
0.3529411764705883
 40
0.4117647058823529
 40
0.4117647058823529
 40
0.4117647058823529
 40
0.4117647058823529
 40
0.4705882352941176
 40
0.4705882352941176
 40
0.4705882352941176
 40
0.4705882352941176
 40
0.5294117647058824
 40
0.5294117647058824
 40
0.5294117647058824
 40
0.5294117647058824
 40
0.5882352941176471
 40
0.5882352941176471
 40
0.5882352941176471
 40
0.5882352941176471
 40
0.6470588235294118
 40
0.6470588235294118
 40
0.6470588235294118
 40
0.6470588235294118
 40
0.7058823529411765
 40
0.7058823529411765
 40
0.7058823529411765
 40
0.7058823529411765
 40
0.7647058823529411
 40
0.7647058823529411
 40
0.7647058823529411
 40
0.7647058823529411
 40
0.8235294117647058
 40
0.8235294117647058
 40
0.8235294117647058
 40
0.8235294117647058
 40
0.8823529411764706
 40
0.8823529411764706
 40
0.8823529411764706
 40
0.8823529411764706
 40
1.0
 40
1.0
 40
1.0
 40
1.0
 10
-142.6984
 20
17.47
 30
0.0
 10
-143.5332
 20
17.4351
 30
0.0
 10
-143.9786
 20
17.5446
 30
0.0
 10
-144.6733
 20
17.1524
 30
0.0
 10
-144.6733
 20
17.1524
 30
0.0
 10
-144.8871
 20
16.0211
 30
0.0
 10
-144.6194
 20
15.505
 30
0.0
 10
-144.3464
 20
14.6969
 30
0.0
 10
-144.3464
 20
14.6969
 30
0.0
 10
-145.1189
 20
14.5989
 30
0.0
 10
-145.8495
 20
14.2871
 30
0.0
 10
-146.2591
 20
13.8029
 30
0.0
 10
-146.2591
 20
13.8029
 30
0.0
 10
-146.2653
 20
13.3993
 30
0.0
 10
-145.8525
 20
12.6239
 30
0.0
 10
-145.0414
 20
12.639
 30
0.0
 10
-145.0414
 20
12.639
 30
0.0
 10
-145.0832
 20
12.0186
 30
0.0
 10
-145.4336
 20
11.7064
 30
0.0
 10
-145.8852
 20
11.7747
 30
0.0
 10
-145.8852
 20
11.7747
 30
0.0
 10
-146.6211
 20
11.888
 30
0.0
 10
-147.5005
 20
11.704
 30
0.0
 10
-147.3309
 20
10.7774
 30
0.0
 10
-147.3309
 20
10.7774
 30
0.0
 10
-147.8716
 20
10.7561
 30
0.0
 10
-148.2843
 20
10.4298
 30
0.0
 10
-148.5459
 20
10.338
 30
0.0
 10
-148.5459
 20
10.338
 30
0.0
 10
-148.1567
 20
13.9634
 30
0.0
 10
-146.6864
 20
17.15
 30
0.0
 10
-144.5845
 20
19.3409
 30
0.0
 10
-144.5845
 20
19.3409
 30
0.0
 10
-142.4969
 20
21.5417
 30
0.0
 10
-139.6934
 20
23.1092
 30
0.0
 10
-136.0945
 20
23.3647
 30
0.0
 10
-136.0945
 20
23.3647
 30
0.0
 10
-136.1714
 20
23.104
 30
0.0
 10
-136.48
 20
22.6758
 30
0.0
 10
-136.4777
 20
22.1323
 30
0.0
 10
-136.4777
 20
22.1323
 30
0.0
 10
-137.4096
 20
22.2601
 30
0.0
 10
-137.3025
 20
21.6488
 30
0.0
 10
-137.1573
 20
20.9153
 30
0.0
 10
-137.1573
 20
20.9153
 30
0.0
 10
-137.0683
 20
20.4699
 30
0.0
 10
-137.3627
 20
20.1042
 30
0.0
 10
-137.9798
 20
20.0356
 30
0.0
 10
-137.9798
 20
20.0356
 30
0.0
 10
-138.0035
 20
20.847
 30
0.0
 10
-138.7963
 20
21.2208
 30
0.0
 10
-139.2008
 20
21.1973
 30
0.0
 10
-139.2008
 20
21.1973
 30
0.0
 10
-139.6636
 20
20.7633
 30
0.0
 10
-139.9427
 20
20.0212
 30
0.0
 10
-140.005
 20
19.2429
 30
0.0
 10
-140.005
 20
19.2429
 30
0.0
 10
-140.8215
 20
19.4777
 30
0.0
 10
-141.3537
 20
19.724
 30
0.0
 10
-142.4725
 20
19.4603
 30
0.0
 10
-142.4725
 20
19.4603
 30
0.0
 10
-142.8322
 20
18.7442
 30
0.0
 10
-142.7014
 20
18.3048
 30
0.0
 10
-142.6984
 20
17.47
 30
0.0
  0
SPLINE
  5
62
330
1F
100
AcDbEntity
  8
layer 1
 62
     7
100
AcDbSpline
210
0.0
220
0.0
230
1.0
 70
    11
 71
     3
 72
    24
 73
    20
 74
     0
 42
0.0000000001
 43
0.0000000001
 12
1.0
 22
0.0
 32
0.0
 13
1.0
 23
0.0
 33
0.0
 40
0.0
 40
0.0
 40
0.0
 40
0.0
 40
0.1666666666666667
 40
0.1666666666666667
 40
0.1666666666666667
 40
0.1666666666666667
 40
0.3333333333333333
 40
0.3333333333333333
 40
0.3333333333333333
 40
0.3333333333333333
 40
0.5
 40
0.5
 40
0.5
 40
0.5
 40
0.6666666666666666
 40
0.6666666666666666
 40
0.6666666666666666
 40
0.6666666666666666
 40
1.0
 40
1.0
 40
1.0
 40
1.0
 10
-114.0216
 20
124.9045
 30
0.0
 10
-114.0216
 20
124.9045
 30
0.0
 10
-129.6596
 20
124.9045
 30
0.0
 10
-129.6596
 20
124.9045
 30
0.0
 10
-129.6596
 20
124.9045
 30
0.0
 10
-127.8808
 20
123.3812
 30
0.0
 10
-126.4258
 20
121.6706
 30
0.0
 10
-125.4427
 20
119.4882
 30
0.0
 10
-125.4427
 20
119.4882
 30
0.0
 10
-124.8932
 20
120.4262
 30
0.0
 10
-124.3291
 20
121.4866
 30
0.0
 10
-123.4145
 20
121.9079
 30
0.0
 10
-123.4145
 20
121.9079
 30
0.0
 10
-122.6636
 20
120.9044
 30
0.0
 10
-122.3192
 20
119.7998
 30
0.0
 10
-122.2681
 20
118.1784
 30
0.0
 10
-122.2681
 20
118.1784
 30
0.0
 10
-121.1461
 20
119.8416
 30
0.0
 10
-118.702
 20
123.1349
 30
0.0
 10
-114.0216
 20
124.9045
 30
0.0
  0
SPLINE
  5
63
330
1F
100
AcDbEntity
  8
layer 1
 62
     7
100
AcDbSpline
210
0.0
220
0.0
230
1.0
 70
    11
 71
     3
 72
    16
 73
    12
 74
     0
 42
0.0000000001
 43
0.0000000001
 12
1.0
 22
0.0
 32
0.0
 13
1.0
 23
0.0
 33
0.0
 40
0.0
 40
0.0
 40
0.0
 40
0.0
 40
0.25
 40
0.25
 40
0.25
 40
0.25
 40
0.5
 40
0.5
 40
0.5
 40
0.5
 40
1.0
 40
1.0
 40
1.0
 40
1.0
 10
-91.5609
 20
124.9045
 30
0.0
 10
-91.5609
 20
124.9045
 30
0.0
 10
-103.5903
 20
124.9045
 30
0.0
 10
-103.5903
 20
124.9045
 30
0.0
 10
-103.5903
 20
124.9045
 30
0.0
 10
-98.3016
 20
123.3719
 30
0.0
 10
-93.7282
 20
118.9355
 30
0.0
 10
-91.5609
 20
112.5066
 30
0.0
 10
-91.5609
 20
112.5066
 30
0.0
 10
-91.5609
 20
115.6249
 30
0.0
 10
-91.5609
 20
120.3221
 30
0.0
 10
-91.5609
 20
124.9045
 30
0.0
  0
SPLINE
  5
64
330
1F
100
AcDbEntity
  8
layer 1
 62
     7
100
AcDbSpline
210
0.0
220
0.0
230
1.0
 70
    11
 71
     3
 72
    24
 73
    20
 74
     0
 42
0.0000000001
 43
0.0000000001
 12
1.0
 22
0.0
 32
0.0
 13
1.0
 23
0.0
 33
0.0
 40
0.0
 40
0.0
 40
0.0
 40
0.0
 40
0.1666666666666667
 40
0.1666666666666667
 40
0.1666666666666667
 40
0.1666666666666667
 40
0.3333333333333333
 40
0.3333333333333333
 40
0.3333333333333333
 40
0.3333333333333333
 40
0.5
 40
0.5
 40
0.5
 40
0.5
 40
0.6666666666666666
 40
0.6666666666666666
 40
0.6666666666666666
 40
0.6666666666666666
 40
1.0
 40
1.0
 40
1.0
 40
1.0
 10
-97.4342
 20
109.769
 30
0.0
 10
-98.4293
 20
109.7835
 30
0.0
 10
-98.9575
 20
109.8938
 30
0.0
 10
-99.7177
 20
110.3301
 30
0.0
 10
-99.7177
 20
110.3301
 30
0.0
 10
-99.8128
 20
108.9017
 30
0.0
 10
-102.2713
 20
108.5035
 30
0.0
 10
-102.9753
 20
108.8538
 30
0.0
 10
-102.9753
 20
108.8538
 30
0.0
 10
-102.3784
 20
105.2907
 30
0.0
 10
-107.2725
 20
103.9155
 30
0.0
 10
-108.2791
 20
106.3033
 30
0.0
 10
-108.2791
 20
106.3033
 30
0.0
 10
-111.4179
 20
102.3032
 30
0.0
 10
-103.575
 20
96.6527
 30
0.0
 10
-98.6991
 20
104.4478
 30
0.0
 10
-98.6991
 20
104.4478
 30
0.0
 10
-100.4332
 20
104.0493
 30
0.0
 10
-101.1309
 20
105.6558
 30
0.0
 10
-97.4342
 20
109.769
 30
0.0
  0
SPLINE
  5
65
330
1F
100
AcDbEntity
  8
layer 1
 62
     7
100
AcDbSpline
210
0.0
220
0.0
230
1.0
 70
    11
 71
     3
 72
    24
 73
    20
 74
     0
 42
0.0000000001
 43
0.0000000001
 12
1.0
 22
0.0
 32
0.0
 13
1.0
 23
0.0
 33
0.0
 40
0.0
 40
0.0
 40
0.0
 40
0.0
 40
0.1666666666666667
 40
0.1666666666666667
 40
0.1666666666666667
 40
0.1666666666666667
 40
0.3333333333333333
 40
0.3333333333333333
 40
0.3333333333333333
 40
0.3333333333333333
 40
0.5
 40
0.5
 40
0.5
 40
0.5
 40
0.6666666666666666
 40
0.6666666666666666
 40
0.6666666666666666
 40
0.6666666666666666
 40
1.0
 40
1.0
 40
1.0
 40
1.0
 10
-123.863
 20
90.4639
 30
0.0
 10
-124.8575
 20
96.899
 30
0.0
 10
-128.7123
 20
97.4304
 30
0.0
 10
-130.7847
 20
96.9757
 30
0.0
 10
-130.7847
 20
96.9757
 30
0.0
 10
-131.5805
 20
97.0
 30
0.0
 10
-131.6755
 20
98.9416
 30
0.0
 10
-131.3016
 20
99.6691
 30
0.0
 10
-131.3016
 20
99.6691
 30
0.0
 10
-132.5786
 20
99.9488
 30
0.0
 10
-133.8407
 20
99.8865
 30
0.0
 10
-134.7072
 20
99.5566
 30
0.0
 10
-134.7072
 20
99.5566
 30
0.0
 10
-134.7072
 20
99.5566
 30
0.0
 10
-134.7818
 20
88.1864
 30
0.0
 10
-134.7818
 20
88.1864
 30
0.0
 10
-134.7818
 20
88.1864
 30
0.0
 10
-132.4062
 20
93.3299
 30
0.0
 10
-126.3807
 20
94.1728
 30
0.0
 10
-123.863
 20
90.4639
 30
0.0
  0
SPLINE
  5
66
330
1F
100
AcDbEntity
  8
layer 1
 62
     7
100
AcDbSpline
210
0.0
220
0.0
230
1.0
 70
    11
 71
     3
 72
    32
 73
    28
 74
     0
 42
0.0000000001
 43
0.0000000001
 12
1.0
 22
0.0
 32
0.0
 13
1.0
 23
0.0
 33
0.0
 40
0.0
 40
0.0
 40
0.0
 40
0.0
 40
0.125
 40
0.125
 40
0.125
 40
0.125
 40
0.25
 40
0.25
 40
0.25
 40
0.25
 40
0.375
 40
0.375
 40
0.375
 40
0.375
 40
0.5
 40
0.5
 40
0.5
 40
0.5
 40
0.625
 40
0.625
 40
0.625
 40
0.625
 40
0.75
 40
0.75
 40
0.75
 40
0.75
 40
1.0
 40
1.0
 40
1.0
 40
1.0
 10
-126.298
 20
102.6924
 30
0.0
 10
-126.5921
 20
106.7845
 30
0.0
 10
-125.5735
 20
118.7036
 30
0.0
 10
-130.8325
 20
120.64
 30
0.0
 10
-130.8325
 20
120.64
 30
0.0
 10
-130.3634
 20
119.5384
 30
0.0
 10
-131.0196
 20
117.451
 30
0.0
 10
-132.8014
 20
117.7093
 30
0.0
 10
-132.8014
 20
117.7093
 30
0.0
 10
-132.5786
 20
117.0053
 30
0.0
 10
-132.9969
 20
116.144
 30
0.0
 10
-133.7692
 20
116.1921
 30
0.0
 10
-133.7692
 20
116.1921
 30
0.0
 10
-131.7317
 20
112.9643
 30
0.0
 10
-131.2893
 20
107.1586
 30
0.0
 10
-133.7039
 20
103.1348
 30
0.0
 10
-133.7039
 20
103.1348
 30
0.0
 10
-132.3202
 20
103.9125
 30
0.0
 10
-130.2653
 20
103.7705
 30
0.0
 10
-129.0004
 20
102.3297
 30
0.0
 10
-129.0004
 20
102.3297
 30
0.0
 10
-129.0864
 20
102.9592
 30
0.0
 10
-129.0179
 20
103.9338
 30
0.0
 10
-128.8134
 20
104.6522
 30
0.0
 10
-128.8134
 20
104.6522
 30
0.0
 10
-127.934
 20
104.6971
 30
0.0
 10
-127.2125
 20
103.5477
 30
0.0
 10
-126.298
 20
102.6924
 30
0.0
  0
SPLINE
  5
67
330
1F
100
AcDbEntity
  8
layer 1
 62
     7
100
AcDbSpline
210
0.0
220
0.0
230
1.0
 70
    11
 71
     3
 72
    64
 73
    60
 74
     0
 42
0.0000000001
 43
0.0000000001
 12
1.0
 22
0.0
 32
0.0
 13
1.0
 23
0.0
 33
0.0
 40
0.0
 40
0.0
 40
0.0
 40
0.0
 40
0.0625
 40
0.0625
 40
0.0625
 40
0.0625
 40
0.125
 40
0.125
 40
0.125
 40
0.125
 40
0.1875
 40
0.1875
 40
0.1875
 40
0.1875
 40
0.25
 40
0.25
 40
0.25
 40
0.25
 40
0.3125
 40
0.3125
 40
0.3125
 40
0.3125
 40
0.375
 40
0.375
 40
0.375
 40
0.375
 40
0.4375
 40
0.4375
 40
0.4375
 40
0.4375
 40
0.5
 40
0.5
 40
0.5
 40
0.5
 40
0.5625
 40
0.5625
 40
0.5625
 40
0.5625
 40
0.625
 40
0.625
 40
0.625
 40
0.625
 40
0.6875
 40
0.6875
 40
0.6875
 40
0.6875
 40
0.75
 40
0.75
 40
0.75
 40
0.75
 40
0.8125
 40
0.8125
 40
0.8125
 40
0.8125
 40
0.875
 40
0.875
 40
0.875
 40
0.875
 40
1.0
 40
1.0
 40
1.0
 40
1.0
 10
-126.2532
 20
69.0478
 30
0.0
 10
-123.8744
 20
69.44
 30
0.0
 10
-120.0887
 20
71.6104
 30
0.0
 10
-116.1662
 20
75.1416
 30
0.0
 10
-116.1662
 20
75.1416
 30
0.0
 10
-118.4139
 20
74.5531
 30
0.0
 10
-126.2857
 20
73.3595
 30
0.0
 10
-120.335
 20
77.6919
 30
0.0
 10
-120.335
 20
77.6919
 30
0.0
 10
-122.6901
 20
77.3773
 30
0.0
 10
-127.1981
 20
77.3742
 30
0.0
 10
-127.1677
 20
78.874
 30
0.0
 10
-127.1677
 20
78.874
 30
0.0
 10
-127.1235
 20
80.9167
 30
0.0
 10
-122.7373
 20
80.142
 30
0.0
 10
-122.0546
 20
80.4385
 30
0.0
 10
-122.0546
 20
80.4385
 30
0.0
 10
-122.3602
 20
81.1964
 30
0.0
 10
-122.6991
 20
81.6472
 30
0.0
 10
-122.4468
 20
82.1018
 30
0.0
 10
-122.4468
 20
82.1018
 30
0.0
 10
-122.1761
 20
82.5944
 30
0.0
 10
-120.7061
 20
82.399
 30
0.0
 10
-119.7915
 20
82.675
 30
0.0
 10
-119.7915
 20
82.675
 30
0.0
 10
-121.3864
 20
84.0973
 30
0.0
 10
-122.0158
 20
84.8728
 30
0.0
 10
-122.1701
 20
86.4342
 30
0.0
 10
-122.1701
 20
86.4342
 30
0.0
 10
-122.7168
 20
85.8108
 30
0.0
 10
-123.4564
 20
85.677
 30
0.0
 10
-124.3261
 20
86.2
 30
0.0
 10
-124.3261
 20
86.2
 30
0.0
 10
-124.7275
 20
85.9233
 30
0.0
 10
-124.3321
 20
83.4321
 30
0.0
 10
-125.2322
 20
83.3075
 30
0.0
 10
-125.2322
 20
83.3075
 30
0.0
 10
-126.0926
 20
83.192
 30
0.0
 10
-126.6781
 20
85.2253
 30
0.0
 10
-127.1235
 20
86.1399
 30
0.0
 10
-127.1235
 20
86.1399
 30
0.0
 10
-127.7409
 20
85.5432
 30
0.0
 10
-129.1547
 20
85.1874
 30
0.0
 10
-129.3297
 20
87.4384
 30
0.0
 10
-129.3297
 20
87.4384
 30
0.0
 10
-134.4702
 20
84.6827
 30
0.0
 10
-134.2321
 20
78.6392
 30
0.0
 10
-133.9827
 20
75.6279
 30
0.0
 10
-133.9827
 20
75.6279
 30
0.0
 10
-132.3674
 20
77.7186
 30
0.0
 10
-129.4185
 20
79.1234
 30
0.0
 10
-127.9695
 20
74.0277
 30
0.0
 10
-127.9695
 20
74.0277
 30
0.0
 10
-126.3215
 20
74.3753
 30
0.0
 10
-127.144
 20
70.9452
 30
0.0
 10
-126.9395
 20
71.6642
 30
0.0
 10
-126.9395
 20
71.6642
 30
0.0
 10
-125.778
 20
71.7563
 30
0.0
 10
-125.8526
 20
70.4198
 30
0.0
 10
-126.2532
 20
69.0478
 30
0.0
  0
SPLINE
  5
68
330
1F
100
AcDbEntity
  8
layer 1
 62
     7
100
AcDbSpline
210
0.0
220
0.0
230
1.0
 70
    11
 71
     3
 72
    56
 73
    52
 74
     0
 42
0.0000000001
 43
0.0000000001
 12
1.0
 22
0.0
 32
0.0
 13
1.0
 23
0.0
 33
0.0
 40
0.0
 40
0.0
 40
0.0
 40
0.0
 40
0.0714285714285714
 40
0.0714285714285714
 40
0.0714285714285714
 40
0.0714285714285714
 40
0.1428571428571428
 40
0.1428571428571428
 40
0.1428571428571428
 40
0.1428571428571428
 40
0.2142857142857143
 40
0.2142857142857143
 40
0.2142857142857143
 40
0.2142857142857143
 40
0.2857142857142857
 40
0.2857142857142857
 40
0.2857142857142857
 40
0.2857142857142857
 40
0.3571428571428572
 40
0.3571428571428572
 40
0.3571428571428572
 40
0.3571428571428572
 40
0.4285714285714285
 40
0.4285714285714285
 40
0.4285714285714285
 40
0.4285714285714285
 40
0.5
 40
0.5
 40
0.5
 40
0.5
 40
0.5714285714285714
 40
0.5714285714285714
 40
0.5714285714285714
 40
0.5714285714285714
 40
0.6428571428571429
 40
0.6428571428571429
 40
0.6428571428571429
 40
0.6428571428571429
 40
0.7142857142857143
 40
0.7142857142857143
 40
0.7142857142857143
 40
0.7142857142857143
 40
0.7857142857142857
 40
0.7857142857142857
 40
0.7857142857142857
 40
0.7857142857142857
 40
0.8571428571428571
 40
0.8571428571428571
 40
0.8571428571428571
 40
0.8571428571428571
 40
1.0
 40
1.0
 40
1.0
 40
1.0
 10
-122.9243
 20
54.6163
 30
0.0
 10
-121.7187
 20
55.9435
 30
0.0
 10
-120.6057
 20
55.9138
 30
0.0
 10
-119.305
 20
55.8332
 30
0.0
 10
-119.305
 20
55.8332
 30
0.0
 10
-121.4874
 20
60.3412
 30
0.0
 10
-120.7302
 20
65.6982
 30
0.0
 10
-119.4295
 20
69.3329
 30
0.0
 10
-119.4295
 20
69.3329
 30
0.0
 10
-125.2649
 20
63.2481
 30
0.0
 10
-134.0338
 20
63.1684
 30
0.0
 10
-130.8827
 20
73.1041
 30
0.0
 10
-130.8827
 20
73.1041
 30
0.0
 10
-131.3814
 20
73.3983
 30
0.0
 10
-131.741
 20
74.7104
 30
0.0
 10
-131.741
 20
74.7104
 30
0.0
 10
-131.741
 20
74.7104
 30
0.0
 10
-131.8778
 20
73.9922
 30
0.0
 10
-132.264
 20
73.3116
 30
0.0
 10
-132.9018
 20
73.1276
 30
0.0
 10
-132.9018
 20
73.1276
 30
0.0
 10
-132.3233
 20
70.7704
 30
0.0
 10
-133.4811
 20
68.1985
 30
0.0
 10
-134.5415
 20
66.8476
 30
0.0
 10
-134.5415
 20
66.8476
 30
0.0
 10
-133.4423
 20
66.3369
 30
0.0
 10
-132.8128
 20
64.267
 30
0.0
 10
-133.3358
 20
63.4412
 30
0.0
 10
-133.3358
 20
63.4412
 30
0.0
 10
-131.9281
 20
63.5485
 30
0.0
 10
-131.2689
 20
62.6842
 30
0.0
 10
-131.3404
 20
61.4936
 30
0.0
 10
-131.3404
 20
61.4936
 30
0.0
 10
-130.6006
 20
62.1619
 30
0.0
 10
-129.3418
 20
61.5234
 30
0.0
 10
-129.2347
 20
60.7274
 30
0.0
 10
-129.2347
 20
60.7274
 30
0.0
 10
-128.7535
 20
61.8647
 30
0.0
 10
-127.5782
 20
63.7825
 30
0.0
 10
-125.689
 20
63.4944
 30
0.0
 10
-125.689
 20
63.4944
 30
0.0
 10
-123.7468
 20
62.1619
 30
0.0
 10
-124.7327
 20
59.676
 30
0.0
 10
-125.2048
 20
57.9534
 30
0.0
 10
-125.2048
 20
57.9534
 30
0.0
 10
-123.9787
 20
58.301
 30
0.0
 10
-123.4413
 20
56.5137
 30
0.0
 10
-123.8007
 20
55.8272
 30
0.0
 10
-123.8007
 20
55.8272
 30
0.0
 10
-123.296
 20
55.73
 30
0.0
 10
-122.7616
 20
55.2843
 30
0.0
 10
-122.9243
 20
54.6163
 30
0.0
  0
SPLINE
  5
69
330
1F
100
AcDbEntity
  8
layer 1
 62
     7
100
AcDbSpline
210
0.0
220
0.0
230
1.0
 70
    11
 71
     3
 72
    56
 73
    52
 74
     0
 42
0.0000000001
 43
0.0000000001
 12
1.0
 22
0.0
 32
0.0
 13
1.0
 23
0.0
 33
0.0
 40
0.0
 40
0.0
 40
0.0
 40
0.0
 40
0.0714285714285714
 40
0.0714285714285714
 40
0.0714285714285714
 40
0.0714285714285714
 40
0.1428571428571428
 40
0.1428571428571428
 40
0.1428571428571428
 40
0.1428571428571428
 40
0.2142857142857143
 40
0.2142857142857143
 40
0.2142857142857143
 40
0.2142857142857143
 40
0.2857142857142857
 40
0.2857142857142857
 40
0.2857142857142857
 40
0.2857142857142857
 40
0.3571428571428572
 40
0.3571428571428572
 40
0.3571428571428572
 40
0.3571428571428572
 40
0.4285714285714285
 40
0.4285714285714285
 40
0.4285714285714285
 40
0.4285714285714285
 40
0.5
 40
0.5
 40
0.5
 40
0.5
 40
0.5714285714285714
 40
0.5714285714285714
 40
0.5714285714285714
 40
0.5714285714285714
 40
0.6428571428571429
 40
0.6428571428571429
 40
0.6428571428571429
 40
0.6428571428571429
 40
0.7142857142857143
 40
0.7142857142857143
 40
0.7142857142857143
 40
0.7142857142857143
 40
0.7857142857142857
 40
0.7857142857142857
 40
0.7857142857142857
 40
0.7857142857142857
 40
0.8571428571428571
 40
0.8571428571428571
 40
0.8571428571428571
 40
0.8571428571428571
 40
1.0
 40
1.0
 40
1.0
 40
1.0
 10
-91.5609
 20
104.3437
 30
0.0
 10
-92.2703
 20
104.3581
 30
0.0
 10
-92.1485
 20
104.3732
 30
0.0
 10
-92.8167
 20
104.3822
 30
0.0
 10
-92.8167
 20
104.3822
 30
0.0
 10
-92.87
 20
103.5416
 30
0.0
 10
-92.2763
 20
97.1156
 30
0.0
 10
-92.8197
 20
95.9845
 30
0.0
 10
-92.8197
 20
95.9845
 30
0.0
 10
-94.6816
 20
96.2398
 30
0.0
 10
-95.1923
 20
97.7868
 30
0.0
 10
-96.2878
 20
99.3043
 30
0.0
 10
-96.2878
 20
99.3043
 30
0.0
 10
-97.7936
 20
96.3258
 30
0.0
 10
-100.1838
 20
95.3042
 30
0.0
 10
-101.4761
 20
92.3082
 30
0.0
 10
-101.4761
 20
92.3082
 30
0.0
 10
-103.4177
 20
87.7972
 30
0.0
 10
-103.5545
 20
82.5533
 30
0.0
 10
-100.4278
 20
80.7684
 30
0.0
 10
-100.4278
 20
80.7684
 30
0.0
 10
-100.57
 20
81.175
 30
0.0
 10
-101.0214
 20
82.5208
 30
0.0
 10
-100.4657
 20
83.4588
 30
0.0
 10
-100.4657
 20
83.4588
 30
0.0
 10
-100.0651
 20
83.7234
 30
0.0
 10
-99.4919
 20
83.6693
 30
0.0
 10
-98.658
 20
83.334
 30
0.0
 10
-98.658
 20
83.334
 30
0.0
 10
-98.2453
 20
83.331
 30
0.0
 10
-98.6603
 20
84.6827
 30
0.0
 10
-97.4637
 20
84.65
 30
0.0
 10
-97.4637
 20
84.65
 30
0.0
 10
-96.3122
 20
84.6196
 30
0.0
 10
-96.7272
 20
83.192
 30
0.0
 10
-96.3417
 20
82.9418
 30
0.0
 10
-96.3417
 20
82.9418
 30
0.0
 10
-95.9228
 20
82.669
 30
0.0
 10
-95.1832
 20
83.3995
 30
0.0
 10
-94.9369
 20
82.6895
 30
0.0
 10
-94.9369
 20
82.6895
 30
0.0
 10
-94.7734
 20
82.2143
 30
0.0
 10
-93.4697
 20
79.7588
 30
0.0
 10
-97.286
 20
77.1187
 30
0.0
 10
-97.286
 20
77.1187
 30
0.0
 10
-95.2046
 20
75.723
 30
0.0
 10
-92.9118
 20
72.1836
 30
0.0
 10
-91.5609
 20
68.1005
 30
0.0
 10
-91.5609
 20
68.1005
 30
0.0
 10
-91.5609
 20
68.1005
 30
0.0
 10
-91.5609
 20
104.3437
 30
0.0
 10
-91.5609
 20
104.3437
 30
0.0
  0
SPLINE
  5
6A
330
1F
100
AcDbEntity
  8
layer 1
 62
     7
100
AcDbSpline
210
0.0
220
0.0
230
1.0
 70
    11
 71
     3
 72
    32
 73
    28
 74
     0
 42
0.0000000001
 43
0.0000000001
 12
1.0
 22
0.0
 32
0.0
 13
1.0
 23
0.0
 33
0.0
 40
0.0
 40
0.0
 40
0.0
 40
0.0
 40
0.125
 40
0.125
 40
0.125
 40
0.125
 40
0.25
 40
0.25
 40
0.25
 40
0.25
 40
0.375
 40
0.375
 40
0.375
 40
0.375
 40
0.5
 40
0.5
 40
0.5
 40
0.5
 40
0.625
 40
0.625
 40
0.625
 40
0.625
 40
0.75
 40
0.75
 40
0.75
 40
0.75
 40
1.0
 40
1.0
 40
1.0
 40
1.0
 10
-99.8188
 20
115.6721
 30
0.0
 10
-97.9572
 20
118.7934
 30
0.0
 10
-102.7768
 20
121.3918
 30
0.0
 10
-103.9437
 20
121.0617
 30
0.0
 10
-103.9437
 20
121.0617
 30
0.0
 10
-100.4308
 20
116.6459
 30
0.0
 10
-102.1853
 20
116.4884
 30
0.0
 10
-103.1386
 20
117.0083
 30
0.0
 10
-103.1386
 20
117.0083
 30
0.0
 10
-102.3131
 20
113.8521
 30
0.0
 10
-104.1482
 20
112.946
 30
0.0
 10
-105.0155
 20
112.4146
 30
0.0
 10
-105.0155
 20
112.4146
 30
0.0
 10
-104.3413
 20
111.9842
 30
0.0
 10
-103.7894
 20
111.4522
 30
0.0
 10
-103.3735
 20
110.2679
 30
0.0
 10
-103.3735
 20
110.2679
 30
0.0
 10
-103.6077
 20
111.1641
 30
0.0
 10
-102.3693
 20
112.6669
 30
0.0
 10
-101.3811
 20
112.7649
 30
0.0
 10
-101.3811
 20
112.7649
 30
0.0
 10
-102.4439
 20
112.9998
 30
0.0
 10
-102.6757
 20
113.748
 30
0.0
 10
-101.7817
 20
114.3387
 30
0.0
 10
-101.7817
 20
114.3387
 30
0.0
 10
-101.179
 20
114.7339
 30
0.0
 10
-100.3655
 20
114.594
 30
0.0
 10
-99.8188
 20
115.6721
 30
0.0
  0
SPLINE
  5
6B
330
1F
100
AcDbEntity
  8
layer 1
 62
     7
100
AcDbSpline
210
0.0
220
0.0
230
1.0
 70
    11
 71
     3
 72
    16
 73
    12
 74
     0
 42
0.0000000001
 43
0.0000000001
 12
1.0
 22
0.0
 32
0.0
 13
1.0
 23
0.0
 33
0.0
 40
0.0
 40
0.0
 40
0.0
 40
0.0
 40
0.25
 40
0.25
 40
0.25
 40
0.25
 40
0.5
 40
0.5
 40
0.5
 40
0.5
 40
1.0
 40
1.0
 40
1.0
 40
1.0
 10
-91.5609
 20
54.506
 30
0.0
 10
-92.3295
 20
51.133
 30
0.0
 10
-93.6811
 20
48.9027
 30
0.0
 10
-95.2015
 20
46.9816
 30
0.0
 10
-95.2015
 20
46.9816
 30
0.0
 10
-93.4789
 20
45.6451
 30
0.0
 10
-92.1963
 20
43.715
 30
0.0
 10
-91.5609
 20
41.1882
 30
0.0
 10
-91.5609
 20
41.1882
 30
0.0
 10
-91.5609
 20
41.1882
 30
0.0
 10
-91.5609
 20
54.506
 30
0.0
 10
-91.5609
 20
54.506
 30
0.0
  0
SPLINE
  5
6C
330
1F
100
AcDbEntity
  8
layer 1
 62
     7
100
AcDbSpline
210
0.0
220
0.0
230
1.0
 70
    11
 71
     3
 72
    28
 73
    24
 74
     0
 42
0.0000000001
 43
0.0000000001
 12
1.0
 22
0.0
 32
0.0
 13
1.0
 23
0.0
 33
0.0
 40
0.0
 40
0.0
 40
0.0
 40
0.0
 40
0.1428571428571428
 40
0.1428571428571428
 40
0.1428571428571428
 40
0.1428571428571428
 40
0.2857142857142857
 40
0.2857142857142857
 40
0.2857142857142857
 40
0.2857142857142857
 40
0.4285714285714285
 40
0.4285714285714285
 40
0.4285714285714285
 40
0.4285714285714285
 40
0.5714285714285714
 40
0.5714285714285714
 40
0.5714285714285714
 40
0.5714285714285714
 40
0.7142857142857143
 40
0.7142857142857143
 40
0.7142857142857143
 40
0.7142857142857143
 40
1.0
 40
1.0
 40
1.0
 40
1.0
 10
-96.8436
 20
44.4548
 30
0.0
 10
-99.1088
 20
41.7135
 30
0.0
 10
-100.9327
 20
39.997
 30
0.0
 10
-104.5048
 20
37.0868
 30
0.0
 10
-104.5048
 20
37.0868
 30
0.0
 10
-102.6042
 20
37.565
 30
0.0
 10
-101.0389
 20
36.6741
 30
0.0
 10
-100.8999
 20
34.7623
 30
0.0
 10
-100.8999
 20
34.7623
 30
0.0
 10
-99.1415
 20
36.475
 30
0.0
 10
-95.5041
 20
35.4327
 30
0.0
 10
-97.0009
 20
31.7685
 30
0.0
 10
-97.0009
 20
31.7685
 30
0.0
 10
-94.0816
 20
32.8139
 30
0.0
 10
-93.1969
 20
36.6924
 30
0.0
 10
-94.2064
 20
38.1526
 30
0.0
 10
-94.2064
 20
38.1526
 30
0.0
 10
-96.686
 20
34.9576
 30
0.0
 10
-100.0119
 20
39.4533
 30
0.0
 10
-96.4186
 20
41.2147
 30
0.0
 10
-96.4186
 20
41.2147
 30
0.0
 10
-96.1161
 20
42.171
 30
0.0
 10
-96.3447
 20
43.1388
 30
0.0
 10
-96.8436
 20
44.4548
 30
0.0
  0
SPLINE
  5
6D
330
1F
100
AcDbEntity
  8
layer 1
 62
     7
100
AcDbSpline
210
0.0
220
0.0
230
1.0
 70
    11
 71
     3
 72
    68
 73
    64
 74
     0
 42
0.0000000001
 43
0.0000000001
 12
1.0
 22
0.0
 32
0.0
 13
1.0
 23
0.0
 33
0.0
 40
0.0
 40
0.0
 40
0.0
 40
0.0
 40
0.0588235294117647
 40
0.0588235294117647
 40
0.0588235294117647
 40
0.0588235294117647
 40
0.1176470588235294
 40
0.1176470588235294
 40
0.1176470588235294
 40
0.1176470588235294
 40
0.1764705882352941
 40
0.1764705882352941
 40
0.1764705882352941
 40
0.1764705882352941
 40
0.2352941176470588
 40
0.2352941176470588
 40
0.2352941176470588
 40
0.2352941176470588
 40
0.2941176470588235
 40
0.2941176470588235
 40
0.2941176470588235
 40
0.2941176470588235
 40
0.3529411764705883
 40
0.3529411764705883
 40
0.3529411764705883
 40
0.3529411764705883
 40
0.4117647058823529
 40
0.4117647058823529
 40
0.4117647058823529
 40
0.4117647058823529
 40
0.4705882352941176
 40
0.4705882352941176
 40
0.4705882352941176
 40
0.4705882352941176
 40
0.5294117647058824
 40
0.5294117647058824
 40
0.5294117647058824
 40
0.5294117647058824
 40
0.5882352941176471
 40
0.5882352941176471
 40
0.5882352941176471
 40
0.5882352941176471
 40
0.6470588235294118
 40
0.6470588235294118
 40
0.6470588235294118
 40
0.6470588235294118
 40
0.7058823529411765
 40
0.7058823529411765
 40
0.7058823529411765
 40
0.7058823529411765
 40
0.7647058823529411
 40
0.7647058823529411
 40
0.7647058823529411
 40
0.7647058823529411
 40
0.8235294117647058
 40
0.8235294117647058
 40
0.8235294117647058
 40
0.8235294117647058
 40
0.8823529411764706
 40
0.8823529411764706
 40
0.8823529411764706
 40
0.8823529411764706
 40
1.0
 40
1.0
 40
1.0
 40
1.0
 10
-91.5609
 20
31.8043
 30
0.0
 10
-92.7575
 20
27.5754
 30
0.0
 10
-99.2693
 20
25.586
 30
0.0
 10
-101.5977
 20
31.9974
 30
0.0
 10
-101.5977
 20
31.9974
 30
0.0
 10
-103.8159
 20
28.2914
 30
0.0
 10
-105.7195
 20
30.1653
 30
0.0
 10
-104.2941
 20
32.9507
 30
0.0
 10
-104.2941
 20
32.9507
 30
0.0
 10
-104.6059
 20
32.9917
 30
0.0
 10
-105.5857
 20
33.5383
 30
0.0
 10
-104.3975
 20
34.1534
 30
0.0
 10
-104.3975
 20
34.1534
 30
0.0
 10
-106.9631
 20
34.9043
 30
0.0
 10
-111.3731
 20
32.0088
 30
0.0
 10
-112.071
 20
30.7797
 30
0.0
 10
-112.071
 20
30.7797
 30
0.0
 10
-109.5737
 20
31.6022
 30
0.0
 10
-103.8631
 20
30.3995
 30
0.0
 10
-107.0049
 20
26.2693
 30
0.0
 10
-107.0049
 20
26.2693
 30
0.0
 10
-105.6922
 20
26.5216
 30
0.0
 10
-104.368
 20
25.5472
 30
0.0
 10
-104.4546
 20
24.4997
 30
0.0
 10
-104.4546
 20
24.4997
 30
0.0
 10
-103.4595
 20
25.3662
 30
0.0
 10
-102.735
 20
25.1761
 30
0.0
 10
-102.2066
 20
24.8766
 30
0.0
 10
-102.2066
 20
24.8766
 30
0.0
 10
-100.5881
 20
26.8364
 30
0.0
 10
-97.4607
 20
27.0325
 30
0.0
 10
-98.8062
 20
22.8812
 30
0.0
 10
-98.8062
 20
22.8812
 30
0.0
 10
-97.6568
 20
22.2244
 30
0.0
 10
-97.9686
 20
20.7754
 30
0.0
 10
-98.7226
 20
20.158
 30
0.0
 10
-98.7226
 20
20.158
 30
0.0
 10
-97.6243
 20
20.2768
 30
0.0
 10
-96.8283
 20
20.0356
 30
0.0
 10
-96.3919
 20
19.0649
 30
0.0
 10
-96.3919
 20
19.0649
 30
0.0
 10
-93.9274
 20
20.4813
 30
0.0
 10
-91.5609
 20
18.1353
 30
0.0
 10
-95.4386
 20
15.6951
 30
0.0
 10
-95.4386
 20
15.6951
 30
0.0
 10
-94.7171
 20
14.7264
 30
0.0
 10
-94.8419
 20
13.6365
 30
0.0
 10
-95.9997
 20
13.2001
 30
0.0
 10
-95.9997
 20
13.2001
 30
0.0
 10
-95.139
 20
12.7668
 30
0.0
 10
-94.8154
 20
11.8818
 30
0.0
 10
-95.0259
 20
11.2258
 30
0.0
 10
-95.0259
 20
11.2258
 30
0.0
 10
-93.5291
 20
11.4926
 30
0.0
 10
-92.8228
 20
11.2965
 30
0.0
 10
-92.5461
 20
10.3257
 30
0.0
 10
-92.5461
 20
10.3257
 30
0.0
 10
-92.0983
 20
10.1624
 30
0.0
 10
-92.0414
 20
10.1624
 30
0.0
 10
-91.5609
 20
10.1684
 30
0.0
 10
-91.5609
 20
10.1684
 30
0.0
 10
-91.5609
 20
10.1684
 30
0.0
 10
-91.5609
 20
31.8043
 30
0.0
 10
-91.5609
 20
31.8043
 30
0.0
  0
SPLINE
  5
6E
330
1F
100
AcDbEntity
  8
layer 1
 62
     7
100
AcDbSpline
210
0.0
220
0.0
230
1.0
 70
    11
 71
     3
 72
    20
 73
    16
 74
     0
 42
0.0000000001
 43
0.0000000001
 12
1.0
 22
0.0
 32
0.0
 13
1.0
 23
0.0
 33
0.0
 40
0.0
 40
0.0
 40
0.0
 40
0.0
 40
0.2
 40
0.2
 40
0.2
 40
0.2
 40
0.4
 40
0.4
 40
0.4
 40
0.4
 40
0.6
 40
0.6
 40
0.6
 40
0.6
 40
1.0
 40
1.0
 40
1.0
 40
1.0
 10
-132.6769
 20
28.4457
 30
0.0
 10
-132.6769
 20
27.0082
 30
0.0
 10
-131.5091
 20
25.8443
 30
0.0
 10
-130.0753
 20
25.8443
 30
0.0
 10
-130.0753
 20
25.8443
 30
0.0
 10
-128.6378
 20
25.8443
 30
0.0
 10
-127.4739
 20
27.0082
 30
0.0
 10
-127.4739
 20
28.4457
 30
0.0
 10
-127.4739
 20
28.4457
 30
0.0
 10
-127.4739
 20
29.8832
 30
0.0
 10
-128.6378
 20
31.0471
 30
0.0
 10
-130.0753
 20
31.0471
 30
0.0
 10
-130.0753
 20
31.0471
 30
0.0
 10
-131.5091
 20
31.0471
 30
0.0
 10
-132.6769
 20
29.8832
 30
0.0
 10
-132.6769
 20
28.4457
 30
0.0
  0
SPLINE
  5
6F
330
1F
100
AcDbEntity
  8
layer 1
 62
     7
100
AcDbSpline
210
0.0
220
0.0
230
1.0
 70
    11
 71
     3
 72
    20
 73
    16
 74
     0
 42
0.0000000001
 43
0.0000000001
 12
1.0
 22
0.0
 32
0.0
 13
1.0
 23
0.0
 33
0.0
 40
0.0
 40
0.0
 40
0.0
 40
0.0
 40
0.2
 40
0.2
 40
0.2
 40
0.2
 40
0.4
 40
0.4
 40
0.4
 40
0.4
 40
0.6
 40
0.6
 40
0.6
 40
0.6
 40
1.0
 40
1.0
 40
1.0
 40
1.0
 10
-119.6105
 20
14.9044
 30
0.0
 10
-119.6105
 20
13.7968
 30
0.0
 10
-118.7104
 20
12.9006
 30
0.0
 10
-117.6028
 20
12.9006
 30
0.0
 10
-117.6028
 20
12.9006
 30
0.0
 10
-116.4952
 20
12.9006
 30
0.0
 10
-115.596
 20
13.7968
 30
0.0
 10
-115.596
 20
14.9044
 30
0.0
 10
-115.596
 20
14.9044
 30
0.0
 10
-115.596
 20
16.0151
 30
0.0
 10
-116.4952
 20
16.9121
 30
0.0
 10
-117.6028
 20
16.9121
 30
0.0
 10
-117.6028
 20
16.9121
 30
0.0
 10
-118.7104
 20
16.9121
 30
0.0
 10
-119.6105
 20
16.0151
 30
0.0
 10
-119.6105
 20
14.9044
 30
0.0
  0
SPLINE
  5
70
330
1F
100
AcDbEntity
  8
layer 1
 62
     7
100
AcDbSpline
210
0.0
220
0.0
230
1.0
 70
    11
 71
     3
 72
    20
 73
    16
 74
     0
 42
0.0000000001
 43
0.0000000001
 12
1.0
 22
0.0
 32
0.0
 13
1.0
 23
0.0
 33
0.0
 40
0.0
 40
0.0
 40
0.0
 40
0.0
 40
0.2
 40
0.2
 40
0.2
 40
0.2
 40
0.4
 40
0.4
 40
0.4
 40
0.4
 40
0.6
 40
0.6
 40
0.6
 40
0.6
 40
1.0
 40
1.0
 40
1.0
 40
1.0
 10
-127.8183
 20
59.4655
 30
0.0
 10
-128.9974
 20
59.5424
 30
0.0
 10
-129.2855
 20
58.8535
 30
0.0
 10
-129.7424
 20
58.0249
 30
0.0
 10
-129.7424
 20
58.0249
 30
0.0
 10
-131.5007
 20
53.9869
 30
0.0
 10
-132.7771
 20
49.5054
 30
0.0
 10
-133.294
 20
44.324
 30
0.0
 10
-133.294
 20
44.324
 30
0.0
 10
-131.3814
 20
49.0927
 30
0.0
 10
-129.7098
 20
53.5975
 30
0.0
 10
-127.6314
 20
56.9919
 30
0.0
 10
-127.6314
 20
56.9919
 30
0.0
 10
-127.1052
 20
57.8258
 30
0.0
 10
-126.8294
 20
59.061
 30
0.0
 10
-127.8183
 20
59.4655
 30
0.0
  0
SPLINE
  5
71
330
1F
100
AcDbEntity
  8
layer 1
 62
     7
100
AcDbSpline
210
0.0
220
0.0
230
1.0
 70
    11
 71
     3
 72
    20
 73
    16
 74
     0
 42
0.0000000001
 43
0.0000000001
 12
1.0
 22
0.0
 32
0.0
 13
1.0
 23
0.0
 33
0.0
 40
0.0
 40
0.0
 40
0.0
 40
0.0
 40
0.2
 40
0.2
 40
0.2
 40
0.2
 40
0.4
 40
0.4
 40
0.4
 40
0.4
 40
0.6
 40
0.6
 40
0.6
 40
0.6
 40
1.0
 40
1.0
 40
1.0
 40
1.0
 10
-123.0519
 20
52.8997
 30
0.0
 10
-123.527
 20
53.3331
 30
0.0
 10
-124.2166
 20
53.2562
 30
0.0
 10
-124.6948
 20
52.8222
 30
0.0
 10
-124.6948
 20
52.8222
 30
0.0
 10
-126.6658
 20
51.1504
 30
0.0
 10
-129.2254
 20
48.7688
 30
0.0
 10
-131.9759
 20
43.4596
 30
0.0
 10
-131.9759
 20
43.4596
 30
0.0
 10
-129.1577
 20
46.4084
 30
0.0
 10
-127.0102
 20
47.9851
 30
0.0
 10
-123.8927
 20
50.2566
 30
0.0
 10
-123.8927
 20
50.2566
 30
0.0
 10
-123.0017
 20
50.7528
 30
0.0
 10
-122.2354
 20
52.1098
 30
0.0
 10
-123.0519
 20
52.8997
 30
0.0
  0
SPLINE
  5
72
330
1F
100
AcDbEntity
  8
layer 1
 62
     7
100
AcDbSpline
210
0.0
220
0.0
230
1.0
 70
    11
 71
     3
 72
    20
 73
    16
 74
     0
 42
0.0000000001
 43
0.0000000001
 12
1.0
 22
0.0
 32
0.0
 13
1.0
 23
0.0
 33
0.0
 40
0.0
 40
0.0
 40
0.0
 40
0.0
 40
0.2
 40
0.2
 40
0.2
 40
0.2
 40
0.4
 40
0.4
 40
0.4
 40
0.4
 40
0.6
 40
0.6
 40
0.6
 40
0.6
 40
1.0
 40
1.0
 40
1.0
 40
1.0
 10
-120.7091
 20
44.3179
 30
0.0
 10
-120.8192
 20
44.9504
 30
0.0
 10
-121.4099
 20
45.3152
 30
0.0
 10
-122.0516
 20
45.265
 30
0.0
 10
-122.0516
 20
45.265
 30
0.0
 10
-124.6346
 20
45.1609
 30
0.0
 10
-127.8062
 20
44.3712
 30
0.0
 10
-131.3251
 20
41.3425
 30
0.0
 10
-131.3251
 20
41.3425
 30
0.0
 10
-127.4261
 20
42.2447
 30
0.0
 10
-126.1437
 20
42.7442
 30
0.0
 10
-122.9987
 20
42.7526
 30
0.0
 10
-122.9987
 20
42.7526
 30
0.0
 10
-121.9923
 20
42.5953
 30
0.0
 10
-120.5516
 20
43.192
 30
0.0
 10
-120.7091
 20
44.3179
 30
0.0
  0
SPLINE
  5
73
330
1F
100
AcDbEntity
  8
layer 1
 62
     7
100
AcDbSpline
210
0.0
220
0.0
230
1.0
 70
    11
 71
     3
 72
    40
 73
    36
 74
     0
 42
0.0000000001
 43
0.0000000001
 12
1.0
 22
0.0
 32
0.0
 13
1.0
 23
0.0
 33
0.0
 40
0.0
 40
0.0
 40
0.0
 40
0.0
 40
0.1
 40
0.1
 40
0.1
 40
0.1
 40
0.2
 40
0.2
 40
0.2
 40
0.2
 40
0.3
 40
0.3
 40
0.3
 40
0.3
 40
0.4
 40
0.4
 40
0.4
 40
0.4
 40
0.5
 40
0.5
 40
0.5
 40
0.5
 40
0.6
 40
0.6
 40
0.6
 40
0.6
 40
0.7
 40
0.7
 40
0.7
 40
0.7
 40
0.8
 40
0.8
 40
0.8
 40
0.8
 40
1.0
 40
1.0
 40
1.0
 40
1.0
 10
-117.5944
 20
37.4639
 30
0.0
 10
-118.7706
 20
37.3872
 30
0.0
 10
-119.628
 20
38.8178
 30
0.0
 10
-119.6045
 20
39.9263
 30
0.0
 10
-119.6045
 20
39.9263
 30
0.0
 10
-121.5497
 20
40.4096
 30
0.0
 10
-124.4743
 20
40.187
 30
0.0
 10
-127.3996
 20
39.2193
 30
0.0
 10
-127.3996
 20
39.2193
 30
0.0
 10
-131.8983
 20
37.4639
 30
0.0
 10
-130.2533
 20
34.1296
 30
0.0
 10
-134.5742
 20
34.8033
 30
0.0
 10
-134.5742
 20
34.8033
 30
0.0
 10
-134.5589
 20
34.3281
 30
0.0
 10
-134.6479
 20
33.2951
 30
0.0
 10
-134.6365
 20
32.585
 30
0.0
 10
-134.6365
 20
32.585
 30
0.0
 10
-129.3745
 20
34.3137
 30
0.0
 10
-127.934
 20
32.8404
 30
0.0
 10
-126.1528
 20
31.7541
 30
0.0
 10
-126.1528
 20
31.7541
 30
0.0
 10
-124.1688
 20
30.5424
 30
0.0
 10
-122.3632
 20
30.9521
 30
0.0
 10
-121.6478
 20
34.0021
 30
0.0
 10
-121.6478
 20
34.0021
 30
0.0
 10
-120.8071
 20
33.7549
 30
0.0
 10
-120.4718
 20
33.007
 30
0.0
 10
-120.3145
 20
31.4804
 30
0.0
 10
-120.3145
 20
31.4804
 30
0.0
 10
-119.8066
 20
34.0042
 30
0.0
 10
-118.8085
 20
34.8481
 30
0.0
 10
-116.525
 20
36.7957
 30
0.0
 10
-116.525
 20
36.7957
 30
0.0
 10
-115.1055
 20
38.4681
 30
0.0
 10
-116.2164
 20
39.8722
 30
0.0
 10
-117.5944
 20
37.4639
 30
0.0
  0
SPLINE
  5
74
330
1F
100
AcDbEntity
  8
layer 1
 62
     7
100
AcDbSpline
210
0.0
220
0.0
230
1.0
 70
    11
 71
     3
 72
    16
 73
    12
 74
     0
 42
0.0000000001
 43
0.0000000001
 12
1.0
 22
0.0
 32
0.0
 13
1.0
 23
0.0
 33
0.0
 40
0.0
 40
0.0
 40
0.0
 40
0.0
 40
0.25
 40
0.25
 40
0.25
 40
0.25
 40
0.5
 40
0.5
 40
0.5
 40
0.5
 40
1.0
 40
1.0
 40
1.0
 40
1.0
 10
-133.7364
 20
124.9045
 30
0.0
 10
-134.9514
 20
124.9045
 30
0.0
 10
-136.1684
 20
124.9045
 30
0.0
 10
-137.3862
 20
124.9045
 30
0.0
 10
-137.3862
 20
124.9045
 30
0.0
 10
-136.3143
 20
124.2212
 30
0.0
 10
-135.8984
 20
123.8441
 30
0.0
 10
-135.5601
 20
121.9945
 30
0.0
 10
-135.5601
 20
121.9945
 30
0.0
 10
-135.2211
 20
123.8441
 30
0.0
 10
-134.8053
 20
124.2212
 30
0.0
 10
-133.7364
 20
124.9045
 30
0.0
  0
SPLINE
  5
75
330
1F
100
AcDbEntity
  8
layer 1
 62
     7
100
AcDbSpline
210
0.0
220
0.0
230
1.0
 70
    11
 71
     3
 72
    80
 73
    76
 74
     0
 42
0.0000000001
 43
0.0000000001
 12
1.0
 22
0.0
 32
0.0
 13
1.0
 23
0.0
 33
0.0
 40
0.0
 40
0.0
 40
0.0
 40
0.0
 40
0.05
 40
0.05
 40
0.05
 40
0.05
 40
0.1
 40
0.1
 40
0.1
 40
0.1
 40
0.15
 40
0.15
 40
0.15
 40
0.15
 40
0.2
 40
0.2
 40
0.2
 40
0.2
 40
0.25
 40
0.25
 40
0.25
 40
0.25
 40
0.3
 40
0.3
 40
0.3
 40
0.3
 40
0.35
 40
0.35
 40
0.35
 40
0.35
 40
0.4
 40
0.4
 40
0.4
 40
0.4
 40
0.45
 40
0.45
 40
0.45
 40
0.45
 40
0.5
 40
0.5
 40
0.5
 40
0.5
 40
0.55
 40
0.55
 40
0.55
 40
0.55
 40
0.6
 40
0.6
 40
0.6
 40
0.6
 40
0.65
 40
0.65
 40
0.65
 40
0.65
 40
0.7
 40
0.7
 40
0.7
 40
0.7
 40
0.75
 40
0.75
 40
0.75
 40
0.75
 40
0.8
 40
0.8
 40
0.8
 40
0.8
 40
0.85
 40
0.85
 40
0.85
 40
0.85
 40
0.9
 40
0.9
 40
0.9
 40
0.9
 40
1.0
 40
1.0
 40
1.0
 40
1.0
 10
-105.1821
 20
116.0102
 30
0.0
 10
-106.8325
 20
115.2592
 30
0.0
 10
-107.284
 20
115.8354
 30
0.0
 10
-107.0551
 20
116.5241
 30
0.0
 10
-107.0551
 20
116.5241
 30
0.0
 10
-106.8536
 20
117.1361
 30
0.0
 10
-106.0076
 20
117.7535
 30
0.0
 10
-106.5832
 20
118.8284
 30
0.0
 10
-106.5832
 20
118.8284
 30
0.0
 10
-107.6109
 20
119.7489
 30
0.0
 10
-108.1841
 20
119.9991
 30
0.0
 10
-109.3061
 20
120.1769
 30
0.0
 10
-109.3061
 20
120.1769
 30
0.0
 10
-107.991
 20
118.5053
 30
0.0
 10
-108.8607
 20
116.5752
 30
0.0
 10
-109.9386
 20
116.1654
 30
0.0
 10
-109.9386
 20
116.1654
 30
0.0
 10
-115.4887
 20
120.6072
 30
0.0
 10
-120.5341
 20
111.7228
 30
0.0
 10
-121.1933
 20
109.8815
 30
0.0
 10
-121.1933
 20
109.8815
 30
0.0
 10
-119.8568
 20
110.6213
 30
0.0
 10
-118.88
 20
110.9268
 30
0.0
 10
-117.4128
 20
111.3335
 30
0.0
 10
-117.4128
 20
111.3335
 30
0.0
 10
-117.232
 20
109.8694
 30
0.0
 10
-117.4729
 20
108.1886
 30
0.0
 10
-118.4909
 20
107.0605
 30
0.0
 10
-118.4909
 20
107.0605
 30
0.0
 10
-119.0761
 20
106.4106
 30
0.0
 10
-118.969
 20
105.2399
 30
0.0
 10
-118.4079
 20
104.5367
 30
0.0
 10
-118.4079
 20
104.5367
 30
0.0
 10
-123.4798
 20
101.5757
 30
0.0
 10
-121.036
 20
100.2781
 30
0.0
 10
-119.5985
 20
102.3032
 30
0.0
 10
-119.5985
 20
102.3032
 30
0.0
 10
-115.0045
 20
106.6332
 30
0.0
 10
-117.7366
 20
101.549
 30
0.0
 10
-117.942
 20
100.3138
 30
0.0
 10
-117.942
 20
100.3138
 30
0.0
 10
-118.3486
 20
98.8733
 30
0.0
 10
-118.2239
 20
98.1609
 30
0.0
 10
-117.2768
 20
97.3414
 30
0.0
 10
-117.2768
 20
97.3414
 30
0.0
 10
-122.6218
 20
93.8225
 30
0.0
 10
-119.0046
 20
88.4266
 30
0.0
 10
-117.0684
 20
86.2593
 30
0.0
 10
-117.0684
 20
86.2593
 30
0.0
 10
-116.8161
 20
85.5402
 30
0.0
 10
-118.1883
 20
90.1135
 30
0.0
 10
-117.1695
 20
92.2604
 30
0.0
 10
-117.1695
 20
92.2604
 30
0.0
 10
-116.4299
 20
89.3063
 30
0.0
 10
-114.3455
 20
86.8827
 30
0.0
 10
-111.5487
 20
87.2955
 30
0.0
 10
-111.5487
 20
87.2955
 30
0.0
 10
-111.044
 20
80.6764
 30
0.0
 10
-105.8555
 20
78.9005
 30
0.0
 10
-103.9939
 20
79.6875
 30
0.0
 10
-103.9939
 20
79.6875
 30
0.0
 10
-107.9378
 20
82.5677
 30
0.0
 10
-106.105
 20
93.8285
 30
0.0
 10
-103.2899
 20
95.4022
 30
0.0
 10
-103.2899
 20
95.4022
 30
0.0
 10
-111.5039
 20
93.7214
 30
0.0
 10
-114.6601
 20
99.3635
 30
0.0
 10
-115.4887
 20
103.3873
 30
0.0
 10
-115.4887
 20
103.3873
 30
0.0
 10
-116.9704
 20
113.127
 30
0.0
 10
-108.7032
 20
115.2827
 30
0.0
 10
-106.1324
 20
113.1543
 30
0.0
 10
-106.1324
 20
113.1543
 30
0.0
 10
-104.894
 20
113.3823
 30
0.0
 10
-104.8399
 20
115.4379
 30
0.0
 10
-105.1821
 20
116.0102
 30
0.0
  0
SPLINE
  5
76
330
1F
100
AcDbEntity
  8
layer 1
 62
     7
100
AcDbSpline
210
0.0
220
0.0
230
1.0
 70
    11
 71
     3
 72
    88
 73
    84
 74
     0
 42
0.0000000001
 43
0.0000000001
 12
1.0
 22
0.0
 32
0.0
 13
1.0
 23
0.0
 33
0.0
 40
0.0
 40
0.0
 40
0.0
 40
0.0
 40
0.0454545454545455
 40
0.0454545454545455
 40
0.0454545454545455
 40
0.0454545454545455
 40
0.0909090909090909
 40
0.0909090909090909
 40
0.0909090909090909
 40
0.0909090909090909
 40
0.1363636363636364
 40
0.1363636363636364
 40
0.1363636363636364
 40
0.1363636363636364
 40
0.1818181818181818
 40
0.1818181818181818
 40
0.1818181818181818
 40
0.1818181818181818
 40
0.2272727272727273
 40
0.2272727272727273
 40
0.2272727272727273
 40
0.2272727272727273
 40
0.2727272727272727
 40
0.2727272727272727
 40
0.2727272727272727
 40
0.2727272727272727
 40
0.3181818181818182
 40
0.3181818181818182
 40
0.3181818181818182
 40
0.3181818181818182
 40
0.3636363636363636
 40
0.3636363636363636
 40
0.3636363636363636
 40
0.3636363636363636
 40
0.4090909090909091
 40
0.4090909090909091
 40
0.4090909090909091
 40
0.4090909090909091
 40
0.4545454545454545
 40
0.4545454545454545
 40
0.4545454545454545
 40
0.4545454545454545
 40
0.5
 40
0.5
 40
0.5
 40
0.5
 40
0.5454545454545454
 40
0.5454545454545454
 40
0.5454545454545454
 40
0.5454545454545454
 40
0.5909090909090909
 40
0.5909090909090909
 40
0.5909090909090909
 40
0.5909090909090909
 40
0.6363636363636364
 40
0.6363636363636364
 40
0.6363636363636364
 40
0.6363636363636364
 40
0.6818181818181818
 40
0.6818181818181818
 40
0.6818181818181818
 40
0.6818181818181818
 40
0.7272727272727273
 40
0.7272727272727273
 40
0.7272727272727273
 40
0.7272727272727273
 40
0.7727272727272727
 40
0.7727272727272727
 40
0.7727272727272727
 40
0.7727272727272727
 40
0.8181818181818182
 40
0.8181818181818182
 40
0.8181818181818182
 40
0.8181818181818182
 40
0.8636363636363636
 40
0.8636363636363636
 40
0.8636363636363636
 40
0.8636363636363636
 40
0.9090909090909091
 40
0.9090909090909091
 40
0.9090909090909091
 40
0.9090909090909091
 40
1.0
 40
1.0
 40
1.0
 40
1.0
 10
-103.9316
 20
52.4336
 30
0.0
 10
-101.1964
 20
52.16
 30
0.0
 10
-99.9375
 20
51.4743
 30
0.0
 10
-97.2562
 20
49.7965
 30
0.0
 10
-97.2562
 20
49.7965
 30
0.0
 10
-97.0213
 20
50.6722
 30
0.0
 10
-96.855
 20
52.5994
 30
0.0
 10
-97.2174
 20
54.1168
 30
0.0
 10
-97.2174
 20
54.1168
 30
0.0
 10
-97.7702
 20
54.3457
 30
0.0
 10
-98.1587
 20
54.8771
 30
0.0
 10
-97.9214
 20
55.6257
 30
0.0
 10
-97.9214
 20
55.6257
 30
0.0
 10
-98.227
 20
55.97
 30
0.0
 10
-98.6254
 20
56.1868
 30
0.0
 10
-99.1355
 20
56.2103
 30
0.0
 10
-99.1355
 20
56.2103
 30
0.0
 10
-100.7456
 20
55.5543
 30
0.0
 10
-101.3751
 20
57.5916
 30
0.0
 10
-99.8546
 20
58.5716
 30
0.0
 10
-99.8546
 20
58.5716
 30
0.0
 10
-101.3688
 20
60.2401
 30
0.0
 10
-100.4901
 20
62.2774
 30
0.0
 10
-97.6926
 20
60.1869
 30
0.0
 10
-97.6926
 20
60.1869
 30
0.0
 10
-97.0836
 20
59.8395
 30
0.0
 10
-97.0304
 20
60.653
 30
0.0
 10
-97.7488
 20
61.5288
 30
0.0
 10
-97.7488
 20
61.5288
 30
0.0
 10
-98.8748
 20
62.8325
 30
0.0
 10
-100.4605
 20
62.4941
 30
0.0
 10
-100.6178
 20
63.0848
 30
0.0
 10
-100.6178
 20
63.0848
 30
0.0
 10
-100.659
 20
64.0676
 30
0.0
 10
-99.8098
 20
64.4958
 30
0.0
 10
-98.9993
 20
64.8994
 30
0.0
 10
-98.9993
 20
64.8994
 30
0.0
 10
-102.2066
 20
66.3012
 30
0.0
 10
-101.6244
 20
68.5254
 30
0.0
 10
-103.3522
 20
68.9293
 30
0.0
 10
-103.3522
 20
68.9293
 30
0.0
 10
-103.9172
 20
69.0629
 30
0.0
 10
-103.9672
 20
69.2736
 30
0.0
 10
-103.5666
 20
69.624
 30
0.0
 10
-103.5666
 20
69.624
 30
0.0
 10
-102.9251
 20
70.0992
 30
0.0
 10
-101.8737
 20
70.2267
 30
0.0
 10
-99.6645
 20
70.1226
 30
0.0
 10
-99.6645
 20
70.1226
 30
0.0
 10
-103.5689
 20
74.2923
 30
0.0
 10
-112.2966
 20
73.5733
 30
0.0
 10
-112.7125
 20
65.1015
 30
0.0
 10
-112.7125
 20
65.1015
 30
0.0
 10
-111.3935
 20
63.7888
 30
0.0
 10
-112.3652
 20
62.4469
 30
0.0
 10
-113.4728
 20
61.9862
 30
0.0
 10
-113.4728
 20
61.9862
 30
0.0
 10
-113.5853
 20
60.8612
 30
0.0
 10
-113.5116
 20
60.5048
 30
0.0
 10
-112.8873
 20
59.4859
 30
0.0
 10
-112.8873
 20
59.4859
 30
0.0
 10
-113.2918
 20
59.3849
 30
0.0
 10
-114.2238
 20
59.0968
 30
0.0
 10
-114.9719
 20
59.4922
 30
0.0
 10
-114.9719
 20
59.4922
 30
0.0
 10
-114.3158
 20
57.5825
 30
0.0
 10
-113.3594
 20
56.8815
 30
0.0
 10
-111.7174
 20
55.9252
 30
0.0
 10
-111.7174
 20
55.9252
 30
0.0
 10
-112.1363
 20
55.2753
 30
0.0
 10
-113.0211
 20
54.7941
 30
0.0
 10
-114.144
 20
54.4618
 30
0.0
 10
-114.144
 20
54.4618
 30
0.0
 10
-110.8089
 20
53.6447
 30
0.0
 10
-105.1761
 20
53.2411
 30
0.0
 10
-106.0425
 20
59.4655
 30
0.0
 10
-106.0425
 20
59.4655
 30
0.0
 10
-110.7283
 20
54.1556
 30
0.0
 10
-114.4108
 20
64.1657
 30
0.0
 10
-107.1594
 20
65.395
 30
0.0
 10
-107.1594
 20
65.395
 30
0.0
 10
-100.7958
 20
66.3962
 30
0.0
 10
-99.543
 20
56.0295
 30
0.0
 10
-103.9316
 20
52.4336
 30
0.0
  0
SPLINE
  5
77
330
1F
100
AcDbEntity
  8
layer 1
 62
     7
100
AcDbSpline
210
0.0
220
0.0
230
1.0
 70
    11
 71
     3
 72
    36
 73
    32
 74
     0
 42
0.0000000001
 43
0.0000000001
 12
1.0
 22
0.0
 32
0.0
 13
1.0
 23
0.0
 33
0.0
 40
0.0
 40
0.0
 40
0.0
 40
0.0
 40
0.1111111111111111
 40
0.1111111111111111
 40
0.1111111111111111
 40
0.1111111111111111
 40
0.2222222222222222
 40
0.2222222222222222
 40
0.2222222222222222
 40
0.2222222222222222
 40
0.3333333333333333
 40
0.3333333333333333
 40
0.3333333333333333
 40
0.3333333333333333
 40
0.4444444444444444
 40
0.4444444444444444
 40
0.4444444444444444
 40
0.4444444444444444
 40
0.5555555555555556
 40
0.5555555555555556
 40
0.5555555555555556
 40
0.5555555555555556
 40
0.6666666666666666
 40
0.6666666666666666
 40
0.6666666666666666
 40
0.6666666666666666
 40
0.7777777777777778
 40
0.7777777777777778
 40
0.7777777777777778
 40
0.7777777777777778
 40
1.0
 40
1.0
 40
1.0
 40
1.0
 10
-98.658
 20
47.4712
 30
0.0
 10
-101.7582
 20
49.9092
 30
0.0
 10
-107.5158
 20
50.1113
 30
0.0
 10
-109.5082
 20
49.8172
 30
0.0
 10
-109.5082
 20
49.8172
 30
0.0
 10
-107.9104
 20
48.4008
 30
0.0
 10
-106.4912
 20
44.2464
 30
0.0
 10
-108.742
 20
40.4424
 30
0.0
 10
-108.742
 20
40.4424
 30
0.0
 10
-107.7919
 20
39.8282
 30
0.0
 10
-107.902
 20
38.6461
 30
0.0
 10
-108.077
 20
37.9574
 30
0.0
 10
-108.077
 20
37.9574
 30
0.0
 10
-107.6824
 20
37.8951
 30
0.0
 10
-106.0783
 20
39.5462
 30
0.0
 10
-104.3352
 20
41.1936
 30
0.0
 10
-104.3352
 20
41.1936
 30
0.0
 10
-102.827
 20
43.4954
 30
0.0
 10
-104.4871
 20
45.3868
 30
0.0
 10
-103.5157
 20
47.2369
 30
0.0
 10
-103.5157
 20
47.2369
 30
0.0
 10
-103.0641
 20
48.0922
 30
0.0
 10
-101.6897
 20
48.312
 30
0.0
 10
-100.7364
 20
47.7683
 30
0.0
 10
-100.7364
 20
47.7683
 30
0.0
 10
-100.0326
 20
47.1861
 30
0.0
 10
-100.2705
 20
46.2715
 30
0.0
 10
-100.4013
 20
45.1997
 30
0.0
 10
-100.4013
 20
45.1997
 30
0.0
 10
-99.3232
 20
46.0283
 30
0.0
 10
-99.023
 20
46.7467
 30
0.0
 10
-98.658
 20
47.4712
 30
0.0
  0
SPLINE
  5
78
330
1F
100
AcDbEntity
  8
layer 1
 62
     7
100
AcDbSpline
210
0.0
220
0.0
230
1.0
 70
    11
 71
     3
 72
    52
 73
    48
 74
     0
 42
0.0000000001
 43
0.0000000001
 12
1.0
 22
0.0
 32
0.0
 13
1.0
 23
0.0
 33
0.0
 40
0.0
 40
0.0
 40
0.0
 40
0.0
 40
0.0769230769230769
 40
0.0769230769230769
 40
0.0769230769230769
 40
0.0769230769230769
 40
0.1538461538461539
 40
0.1538461538461539
 40
0.1538461538461539
 40
0.1538461538461539
 40
0.2307692307692308
 40
0.2307692307692308
 40
0.2307692307692308
 40
0.2307692307692308
 40
0.3076923076923077
 40
0.3076923076923077
 40
0.3076923076923077
 40
0.3076923076923077
 40
0.3846153846153846
 40
0.3846153846153846
 40
0.3846153846153846
 40
0.3846153846153846
 40
0.4615384615384616
 40
0.4615384615384616
 40
0.4615384615384616
 40
0.4615384615384616
 40
0.5384615384615384
 40
0.5384615384615384
 40
0.5384615384615384
 40
0.5384615384615384
 40
0.6153846153846154
 40
0.6153846153846154
 40
0.6153846153846154
 40
0.6153846153846154
 40
0.6923076923076923
 40
0.6923076923076923
 40
0.6923076923076923
 40
0.6923076923076923
 40
0.7692307692307693
 40
0.7692307692307693
 40
0.7692307692307693
 40
0.7692307692307693
 40
0.8461538461538461
 40
0.8461538461538461
 40
0.8461538461538461
 40
0.8461538461538461
 40
1.0
 40
1.0
 40
1.0
 40
1.0
 10
-112.4214
 20
50.3188
 30
0.0
 10
-113.7426
 20
50.2268
 30
0.0
 10
-114.7347
 20
50.6223
 30
0.0
 10
-115.9668
 20
51.7952
 30
0.0
 10
-115.9668
 20
51.7952
 30
0.0
 10
-112.6942
 20
48.7126
 30
0.0
 10
-117.3063
 20
44.0419
 30
0.0
 10
-119.2099
 20
48.1036
 30
0.0
 10
-119.2099
 20
48.1036
 30
0.0
 10
-119.5215
 20
47.9972
 30
0.0
 10
-119.6166
 20
47.9789
 30
0.0
 10
-119.8424
 20
47.9289
 30
0.0
 10
-119.8424
 20
47.9289
 30
0.0
 10
-119.9221
 20
47.7326
 30
0.0
 10
-119.9344
 20
47.3055
 30
0.0
 10
-119.9284
 20
46.768
 30
0.0
 10
-119.9284
 20
46.768
 30
0.0
 10
-119.4144
 20
46.6874
 30
0.0
 10
-119.0882
 20
45.9097
 30
0.0
 10
-119.2692
 20
45.1844
 30
0.0
 10
-119.2692
 20
45.1844
 30
0.0
 10
-117.1195
 20
45.3775
 30
0.0
 10
-115.8688
 20
43.6969
 30
0.0
 10
-116.3972
 20
41.7431
 30
0.0
 10
-116.3972
 20
41.7431
 30
0.0
 10
-114.0634
 20
42.1947
 30
0.0
 10
-112.8903
 20
39.9558
 30
0.0
 10
-113.2735
 20
37.6662
 30
0.0
 10
-113.2735
 20
37.6662
 30
0.0
 10
-111.7409
 20
39.1925
 30
0.0
 10
-111.1003
 20
40.618
 30
0.0
 10
-110.346
 20
42.5923
 30
0.0
 10
-110.346
 20
42.5923
 30
0.0
 10
-109.8108
 20
43.9971
 30
0.0
 10
-109.9539
 20
46.2
 30
0.0
 10
-111.2127
 20
45.8649
 30
0.0
 10
-111.2127
 20
45.8649
 30
0.0
 10
-112.8076
 20
45.1967
 30
0.0
 10
-114.1348
 20
45.4376
 30
0.0
 10
-113.5495
 20
46.9518
 30
0.0
 10
-113.5495
 20
46.9518
 30
0.0
 10
-115.2721
 20
47.8453
 30
0.0
 10
-114.0848
 20
49.1192
 30
0.0
 10
-112.6617
 20
49.3655
 30
0.0
 10
-112.6617
 20
49.3655
 30
0.0
 10
-112.9026
 20
49.6422
 30
0.0
 10
-112.8136
 20
50.1204
 30
0.0
 10
-112.4214
 20
50.3188
 30
0.0
  0
SPLINE
  5
79
330
1F
100
AcDbEntity
  8
layer 1
 62
     7
100
AcDbSpline
210
0.0
220
0.0
230
1.0
 70
    11
 71
     3
 72
    20
 73
    16
 74
     0
 42
0.0000000001
 43
0.0000000001
 12
1.0
 22
0.0
 32
0.0
 13
1.0
 23
0.0
 33
0.0
 40
0.0
 40
0.0
 40
0.0
 40
0.0
 40
0.2
 40
0.2
 40
0.2
 40
0.2
 40
0.4
 40
0.4
 40
0.4
 40
0.4
 40
0.6
 40
0.6
 40
0.6
 40
0.6
 40
1.0
 40
1.0
 40
1.0
 40
1.0
 10
-97.3605
 20
9.8088
 30
0.0
 10
-100.5372
 20
9.6485
 30
0.0
 10
-102.0698
 20
9.1916
 30
0.0
 10
-106.8058
 20
8.5977
 30
0.0
 10
-106.8058
 20
8.5977
 30
0.0
 10
-102.1321
 20
8.0778
 30
0.0
 10
-100.7333
 20
7.6681
 30
0.0
 10
-97.2623
 20
7.4871
 30
0.0
 10
-97.2623
 20
7.4871
 30
0.0
 10
-96.591
 20
7.6179
 30
0.0
 10
-95.8127
 20
7.9235
 30
0.0
 10
-95.8096
 20
8.6061
 30
0.0
 10
-95.8096
 20
8.6061
 30
0.0
 10
-95.7297
 20
9.4172
 30
0.0
 10
-96.7128
 20
9.8446
 30
0.0
 10
-97.3605
 20
9.8088
 30
0.0
  0
SPLINE
  5
7A
330
1F
100
AcDbEntity
  8
layer 1
 62
     7
100
AcDbSpline
210
0.0
220
0.0
230
1.0
 70
    11
 71
     3
 72
    24
 73
    20
 74
     0
 42
0.0000000001
 43
0.0000000001
 12
1.0
 22
0.0
 32
0.0
 13
1.0
 23
0.0
 33
0.0
 40
0.0
 40
0.0
 40
0.0
 40
0.0
 40
0.1666666666666667
 40
0.1666666666666667
 40
0.1666666666666667
 40
0.1666666666666667
 40
0.3333333333333333
 40
0.3333333333333333
 40
0.3333333333333333
 40
0.3333333333333333
 40
0.5
 40
0.5
 40
0.5
 40
0.5
 40
0.6666666666666666
 40
0.6666666666666666
 40
0.6666666666666666
 40
0.6666666666666666
 40
1.0
 40
1.0
 40
1.0
 40
1.0
 10
-127.7265
 20
23.6739
 30
0.0
 10
-126.9837
 20
23.2938
 30
0.0
 10
-126.5831
 20
22.8424
 30
0.0
 10
-126.1109
 20
22.311
 30
0.0
 10
-126.1109
 20
22.311
 30
0.0
 10
-125.0505
 20
23.3205
 30
0.0
 10
-122.7761
 20
26.1264
 30
0.0
 10
-121.79
 20
27.0082
 30
0.0
 10
-121.79
 20
27.0082
 30
0.0
 10
-122.6991
 20
27.0653
 30
0.0
 10
-122.7911
 20
27.754
 30
0.0
 10
-122.8771
 20
28.2231
 30
0.0
 10
-122.8771
 20
28.2231
 30
0.0
 10
-123.248
 20
27.044
 30
0.0
 10
-124.656
 20
26.4533
 30
0.0
 10
-125.502
 20
27.1603
 30
0.0
 10
-125.502
 20
27.1603
 30
0.0
 10
-125.3507
 20
25.4172
 30
0.0
 10
-126.212
 20
23.95
 30
0.0
 10
-127.7265
 20
23.6739
 30
0.0
  0
SPLINE
  5
7B
330
1F
100
AcDbEntity
  8
layer 1
 62
     7
100
AcDbSpline
210
0.0
220
0.0
230
1.0
 70
    11
 71
     3
 72
    20
 73
    16
 74
     0
 42
0.0000000001
 43
0.0000000001
 12
1.0
 22
0.0
 32
0.0
 13
1.0
 23
0.0
 33
0.0
 40
0.0
 40
0.0
 40
0.0
 40
0.0
 40
0.2
 40
0.2
 40
0.2
 40
0.2
 40
0.4
 40
0.4
 40
0.4
 40
0.4
 40
0.6
 40
0.6
 40
0.6
 40
0.6
 40
1.0
 40
1.0
 40
1.0
 40
1.0
 10
-121.6889
 20
16.8141
 30
0.0
 10
-122.2886
 20
18.5427
 30
0.0
 10
-123.3135
 20
19.8876
 30
0.0
 10
-124.0918
 20
20.7069
 30
0.0
 10
-124.0918
 20
20.7069
 30
0.0
 10
-123.1295
 20
21.8085
 30
0.0
 10
-119.9458
 20
24.5824
 30
0.0
 10
-119.1119
 20
25.6073
 30
0.0
 10
-119.1119
 20
25.6073
 30
0.0
 10
-119.6791
 20
24.1605
 30
0.0
 10
-120.2583
 20
22.2959
 30
0.0
 10
-119.311
 20
20.3809
 30
0.0
 10
-119.311
 20
20.3809
 30
0.0
 10
-120.9858
 20
20.1225
 30
0.0
 10
-121.8167
 20
18.7503
 30
0.0
 10
-121.6889
 20
16.8141
 30
0.0
  0
SPLINE
  5
7C
330
1F
100
AcDbEntity
  8
layer 1
 62
     7
100
AcDbSpline
210
0.0
220
0.0
230
1.0
 70
    11
 71
     3
 72
    20
 73
    16
 74
     0
 42
0.0000000001
 43
0.0000000001
 12
1.0
 22
0.0
 32
0.0
 13
1.0
 23
0.0
 33
0.0
 40
0.0
 40
0.0
 40
0.0
 40
0.0
 40
0.2
 40
0.2
 40
0.2
 40
0.2
 40
0.4
 40
0.4
 40
0.4
 40
0.4
 40
0.6
 40
0.6
 40
0.6
 40
0.6
 40
1.0
 40
1.0
 40
1.0
 40
1.0
 10
-99.1713
 20
16.3122
 30
0.0
 10
-101.3096
 20
14.706
 30
0.0
 10
-103.0673
 20
12.9066
 30
0.0
 10
-107.2217
 20
10.661
 30
0.0
 10
-107.2217
 20
10.661
 30
0.0
 10
-102.4764
 20
11.5109
 30
0.0
 10
-99.6675
 20
13.2213
 30
0.0
 10
-98.043
 20
14.278
 30
0.0
 10
-98.043
 20
14.278
 30
0.0
 10
-97.5025
 20
14.6969
 30
0.0
 10
-96.9416
 20
15.3173
 30
0.0
 10
-97.2472
 20
15.9291
 30
0.0
 10
-97.2472
 20
15.9291
 30
0.0
 10
-97.5383
 20
16.6893
 30
0.0
 10
-98.5356
 20
17.0755
 30
0.0
 10
-99.1713
 20
16.3122
 30
0.0
  0
SPLINE
  5
7D
330
1F
100
AcDbEntity
  8
layer 1
 62
     7
100
AcDbSpline
210
0.0
220
0.0
230
1.0
 70
    11
 71
     3
 72
    20
 73
    16
 74
     0
 42
0.0000000001
 43
0.0000000001
 12
1.0
 22
0.0
 32
0.0
 13
1.0
 23
0.0
 33
0.0
 40
0.0
 40
0.0
 40
0.0
 40
0.0
 40
0.2
 40
0.2
 40
0.2
 40
0.2
 40
0.4
 40
0.4
 40
0.4
 40
0.4
 40
0.6
 40
0.6
 40
0.6
 40
0.6
 40
1.0
 40
1.0
 40
1.0
 40
1.0
 10
-103.1653
 20
20.336
 30
0.0
 10
-104.4925
 20
17.5681
 30
0.0
 10
-105.4672
 20
16.3717
 30
0.0
 10
-108.2821
 20
12.4041
 30
0.0
 10
-108.2821
 20
12.4041
 30
0.0
 10
-104.5966
 20
15.2497
 30
0.0
 10
-102.5837
 20
17.6336
 30
0.0
 10
-101.511
 20
19.2489
 30
0.0
 10
-101.511
 20
19.2489
 30
0.0
 10
-101.179
 20
19.8456
 30
0.0
 10
-100.6885
 20
20.7519
 30
0.0
 10
-101.2115
 20
21.1913
 30
0.0
 10
-101.2115
 20
21.1913
 30
0.0
 10
-101.7787
 20
21.7766
 30
0.0
 10
-102.6992
 20
21.179
 30
0.0
 10
-103.1653
 20
20.336
 30
0.0
  0
SPLINE
  5
7E
330
1F
100
AcDbEntity
  8
layer 1
 62
     7
100
AcDbSpline
210
0.0
220
0.0
230
1.0
 70
    11
 71
     3
 72
    20
 73
    16
 74
     0
 42
0.0000000001
 43
0.0000000001
 12
1.0
 22
0.0
 32
0.0
 13
1.0
 23
0.0
 33
0.0
 40
0.0
 40
0.0
 40
0.0
 40
0.0
 40
0.2
 40
0.2
 40
0.2
 40
0.2
 40
0.4
 40
0.4
 40
0.4
 40
0.4
 40
0.6
 40
0.6
 40
0.6
 40
0.6
 40
1.0
 40
1.0
 40
1.0
 40
1.0
 10
-108.7275
 20
20.247
 30
0.0
 10
-108.9025
 20
18.3048
 30
0.0
 10
-108.5877
 20
17.3933
 30
0.0
 10
-108.6409
 20
15.0921
 30
0.0
 10
-108.6409
 20
15.0921
 30
0.0
 10
-107.8929
 20
16.3215
 30
0.0
 10
-106.9784
 20
17.8715
 30
0.0
 10
-106.5655
 20
20.4043
 30
0.0
 10
-106.5655
 20
20.4043
 30
0.0
 10
-106.4554
 20
21.1555
 30
0.0
 10
-106.77
 20
22.1026
 30
0.0
 10
-107.4536
 20
22.1567
 30
0.0
 10
-107.4536
 20
22.1567
 30
0.0
 10
-108.2526
 20
22.3019
 30
0.0
 10
-108.7633
 20
21.2413
 30
0.0
 10
-108.7275
 20
20.247
 30
0.0
  0
SPLINE
  5
7F
330
1F
100
AcDbEntity
  8
layer 1
 62
     7
100
AcDbSpline
210
0.0
220
0.0
230
1.0
 70
    11
 71
     3
 72
    48
 73
    44
 74
     0
 42
0.0000000001
 43
0.0000000001
 12
1.0
 22
0.0
 32
0.0
 13
1.0
 23
0.0
 33
0.0
 40
0.0
 40
0.0
 40
0.0
 40
0.0
 40
0.0833333333333333
 40
0.0833333333333333
 40
0.0833333333333333
 40
0.0833333333333333
 40
0.1666666666666667
 40
0.1666666666666667
 40
0.1666666666666667
 40
0.1666666666666667
 40
0.25
 40
0.25
 40
0.25
 40
0.25
 40
0.3333333333333333
 40
0.3333333333333333
 40
0.3333333333333333
 40
0.3333333333333333
 40
0.4166666666666667
 40
0.4166666666666667
 40
0.4166666666666667
 40
0.4166666666666667
 40
0.5
 40
0.5
 40
0.5
 40
0.5
 40
0.5833333333333334
 40
0.5833333333333334
 40
0.5833333333333334
 40
0.5833333333333334
 40
0.6666666666666666
 40
0.6666666666666666
 40
0.6666666666666666
 40
0.6666666666666666
 40
0.75
 40
0.75
 40
0.75
 40
0.75
 40
0.8333333333333334
 40
0.8333333333333334
 40
0.8333333333333334
 40
0.8333333333333334
 40
1.0
 40
1.0
 40
1.0
 40
1.0
 10
-111.4119
 20
23.0355
 30
0.0
 10
-111.3198
 20
23.6498
 30
0.0
 10
-110.2327
 20
23.8132
 30
0.0
 10
-109.3897
 20
23.858
 30
0.0
 10
-109.3897
 20
23.858
 30
0.0
 10
-109.6565
 20
24.2441
 30
0.0
 10
-110.0101
 20
24.8173
 30
0.0
 10
-108.6736
 20
25.3722
 30
0.0
 10
-108.6736
 20
25.3722
 30
0.0
 10
-110.7466
 20
26.3613
 30
0.0
 10
-109.4908
 20
27.7898
 30
0.0
 10
-108.5551
 20
28.3272
 30
0.0
 10
-108.5551
 20
28.3272
 30
0.0
 10
-109.7782
 20
28.686
 30
0.0
 10
-110.8059
 20
28.4069
 30
0.0
 10
-111.3078
 20
27.665
 30
0.0
 10
-111.3078
 20
27.665
 30
0.0
 10
-111.792
 20
26.9489
 30
0.0
 10
-113.345
 20
26.8509
 30
0.0
 10
-114.1766
 20
26.3492
 30
0.0
 10
-114.1766
 20
26.3492
 30
0.0
 10
-113.437
 20
26.201
 30
0.0
 10
-113.256
 20
25.9598
 30
0.0
 10
-113.2204
 20
25.5593
 30
0.0
 10
-113.2204
 20
25.5593
 30
0.0
 10
-114.4944
 20
25.2242
 30
0.0
 10
-115.1831
 20
24.5262
 30
0.0
 10
-115.4826
 20
24.4047
 30
0.0
 10
-115.4826
 20
24.4047
 30
0.0
 10
-116.0149
 20
23.95
 30
0.0
 10
-115.9731
 20
22.8271
 30
0.0
 10
-115.4234
 20
21.7736
 30
0.0
 10
-115.4234
 20
21.7736
 30
0.0
 10
-112.1842
 20
17.1257
 30
0.0
 10
-112.635
 20
11.6713
 30
0.0
 10
-114.8267
 20
10.5873
 30
0.0
 10
-114.8267
 20
10.5873
 30
0.0
 10
-112.2464
 20
9.5685
 30
0.0
 10
-112.2223
 20
13.999
 30
0.0
 10
-110.334
 20
15.1568
 30
0.0
 10
-110.334
 20
15.1568
 30
0.0
 10
-109.6923
 20
17.5978
 30
0.0
 10
-109.7545
 20
20.992
 30
0.0
 10
-111.4119
 20
23.0355
 30
0.0
  0
SPLINE
  5
80
330
1F
100
AcDbEntity
  8
layer 1
 62
     7
100
AcDbSpline
210
0.0
220
0.0
230
1.0
 70
    11
 71
     3
 72
    32
 73
    28
 74
     0
 42
0.0000000001
 43
0.0000000001
 12
1.0
 22
0.0
 32
0.0
 13
1.0
 23
0.0
 33
0.0
 40
0.0
 40
0.0
 40
0.0
 40
0.0
 40
0.125
 40
0.125
 40
0.125
 40
0.125
 40
0.25
 40
0.25
 40
0.25
 40
0.25
 40
0.375
 40
0.375
 40
0.375
 40
0.375
 40
0.5
 40
0.5
 40
0.5
 40
0.5
 40
0.625
 40
0.625
 40
0.625
 40
0.625
 40
0.75
 40
0.75
 40
0.75
 40
0.75
 40
1.0
 40
1.0
 40
1.0
 40
1.0
 10
-117.3658
 20
53.2144
 30
0.0
 10
-117.8437
 20
53.6477
 30
0.0
 10
-117.8825
 20
53.5945
 30
0.0
 10
-118.2894
 20
54.328
 30
0.0
 10
-118.2894
 20
54.328
 30
0.0
 10
-118.2833
 20
53.5466
 30
0.0
 10
-118.7227
 20
51.0942
 30
0.0
 10
-120.5341
 20
50.2923
 30
0.0
 10
-120.5341
 20
50.2923
 30
0.0
 10
-120.1867
 20
50.0284
 30
0.0
 10
-120.1747
 20
49.4909
 30
0.0
 10
-120.0355
 20
48.9322
 30
0.0
 10
-120.0355
 20
48.9322
 30
0.0
 10
-119.8782
 20
48.8434
 30
0.0
 10
-119.7056
 20
48.977
 30
0.0
 10
-119.397
 20
49.0158
 30
0.0
 10
-119.397
 20
49.0158
 30
0.0
 10
-119.5513
 20
49.6034
 30
0.0
 10
-119.3164
 20
50.0939
 30
0.0
 10
-118.785
 20
50.471
 30
0.0
 10
-118.785
 20
50.471
 30
0.0
 10
-118.8001
 20
49.5321
 30
0.0
 10
-118.0482
 20
48.7331
 30
0.0
 10
-117.1787
 20
49.3009
 30
0.0
 10
-117.1787
 20
49.3009
 30
0.0
 10
-116.2877
 20
49.7965
 30
0.0
 10
-116.5523
 20
52.4246
 30
0.0
 10
-117.3658
 20
53.2144
 30
0.0
  0
SPLINE
  5
81
330
1F
100
AcDbEntity
  8
layer 1
 62
     7
100
AcDbSpline
210
0.0
220
0.0
230
1.0
 70
    11
 71
     3
 72
    24
 73
    20
 74
     0
 42
0.0000000001
 43
0.0000000001
 12
1.0
 22
0.0
 32
0.0
 13
1.0
 23
0.0
 33
0.0
 40
0.0
 40
0.0
 40
0.0
 40
0.0
 40
0.1666666666666667
 40
0.1666666666666667
 40
0.1666666666666667
 40
0.1666666666666667
 40
0.3333333333333333
 40
0.3333333333333333
 40
0.3333333333333333
 40
0.3333333333333333
 40
0.5
 40
0.5
 40
0.5
 40
0.5
 40
0.6666666666666666
 40
0.6666666666666666
 40
0.6666666666666666
 40
0.6666666666666666
 40
1.0
 40
1.0
 40
1.0
 40
1.0
 10
-134.2594
 20
29.2531
 30
0.0
 10
-133.9265
 20
28.9771
 30
0.0
 10
-133.6802
 20
28.4989
 30
0.0
 10
-133.9888
 20
27.6947
 30
0.0
 10
-133.9888
 20
27.6947
 30
0.0
 10
-135.0964
 20
27.8878
 30
0.0
 10
-136.0557
 20
27.9227
 30
0.0
 10
-137.1338
 20
27.6947
 30
0.0
 10
-137.1338
 20
27.6947
 30
0.0
 10
-137.4424
 20
28.4989
 30
0.0
 10
-137.1961
 20
28.9771
 30
0.0
 10
-136.8632
 20
29.2531
 30
0.0
 10
-136.8632
 20
29.2531
 30
0.0
 10
-136.5158
 20
29.5145
 30
0.0
 10
-136.1273
 20
29.6035
 30
0.0
 10
-135.5601
 20
29.6156
 30
0.0
 10
-135.5601
 20
29.6156
 30
0.0
 10
-134.9953
 20
29.6035
 30
0.0
 10
-134.607
 20
29.5145
 30
0.0
 10
-134.2594
 20
29.2531
 30
0.0
  0
SPLINE
  5
82
330
1F
100
AcDbEntity
  8
layer 1
 62
     7
100
AcDbSpline
210
0.0
220
0.0
230
1.0
 70
    11
 71
     3
 72
    68
 73
    64
 74
     0
 42
0.0000000001
 43
0.0000000001
 12
1.0
 22
0.0
 32
0.0
 13
1.0
 23
0.0
 33
0.0
 40
0.0
 40
0.0
 40
0.0
 40
0.0
 40
0.0588235294117647
 40
0.0588235294117647
 40
0.0588235294117647
 40
0.0588235294117647
 40
0.1176470588235294
 40
0.1176470588235294
 40
0.1176470588235294
 40
0.1176470588235294
 40
0.1764705882352941
 40
0.1764705882352941
 40
0.1764705882352941
 40
0.1764705882352941
 40
0.2352941176470588
 40
0.2352941176470588
 40
0.2352941176470588
 40
0.2352941176470588
 40
0.2941176470588235
 40
0.2941176470588235
 40
0.2941176470588235
 40
0.2941176470588235
 40
0.3529411764705883
 40
0.3529411764705883
 40
0.3529411764705883
 40
0.3529411764705883
 40
0.4117647058823529
 40
0.4117647058823529
 40
0.4117647058823529
 40
0.4117647058823529
 40
0.4705882352941176
 40
0.4705882352941176
 40
0.4705882352941176
 40
0.4705882352941176
 40
0.5294117647058824
 40
0.5294117647058824
 40
0.5294117647058824
 40
0.5294117647058824
 40
0.5882352941176471
 40
0.5882352941176471
 40
0.5882352941176471
 40
0.5882352941176471
 40
0.6470588235294118
 40
0.6470588235294118
 40
0.6470588235294118
 40
0.6470588235294118
 40
0.7058823529411765
 40
0.7058823529411765
 40
0.7058823529411765
 40
0.7058823529411765
 40
0.7647058823529411
 40
0.7647058823529411
 40
0.7647058823529411
 40
0.7647058823529411
 40
0.8235294117647058
 40
0.8235294117647058
 40
0.8235294117647058
 40
0.8235294117647058
 40
0.8823529411764706
 40
0.8823529411764706
 40
0.8823529411764706
 40
0.8823529411764706
 40
1.0
 40
1.0
 40
1.0
 40
1.0
 10
-128.4212
 20
17.47
 30
0.0
 10
-127.5896
 20
17.4351
 30
0.0
 10
-127.144
 20
17.5446
 30
0.0
 10
-126.4462
 20
17.1524
 30
0.0
 10
-126.4462
 20
17.1524
 30
0.0
 10
-126.2327
 20
16.0211
 30
0.0
 10
-126.5025
 20
15.505
 30
0.0
 10
-126.7762
 20
14.6969
 30
0.0
 10
-126.7762
 20
14.6969
 30
0.0
 10
-126.0039
 20
14.5989
 30
0.0
 10
-125.2731
 20
14.2871
 30
0.0
 10
-124.8605
 20
13.8029
 30
0.0
 10
-124.8605
 20
13.8029
 30
0.0
 10
-124.8544
 20
13.3993
 30
0.0
 10
-125.2671
 20
12.6239
 30
0.0
 10
-126.0782
 20
12.639
 30
0.0
 10
-126.0782
 20
12.639
 30
0.0
 10
-126.0364
 20
12.0186
 30
0.0
 10
-125.686
 20
11.7064
 30
0.0
 10
-125.2376
 20
11.7747
 30
0.0
 10
-125.2376
 20
11.7747
 30
0.0
 10
-124.4987
 20
11.888
 30
0.0
 10
-123.6221
 20
11.704
 30
0.0
 10
-123.7916
 20
10.7774
 30
0.0
 10
-123.7916
 20
10.7774
 30
0.0
 10
-123.248
 20
10.7561
 30
0.0
 10
-122.8353
 20
10.4298
 30
0.0
 10
-122.5767
 20
10.338
 30
0.0
 10
-122.5767
 20
10.338
 30
0.0
 10
-122.9631
 20
13.9634
 30
0.0
 10
-124.4332
 20
17.15
 30
0.0
 10
-126.5352
 20
19.3409
 30
0.0
 10
-126.5352
 20
19.3409
 30
0.0
 10
-128.6257
 20
21.5417
 30
0.0
 10
-131.4262
 20
23.1092
 30
0.0
 10
-135.0281
 20
23.3647
 30
0.0
 10
-135.0281
 20
23.3647
 30
0.0
 10
-134.9483
 20
23.104
 30
0.0
 10
-134.6419
 20
22.6758
 30
0.0
 10
-134.6419
 20
22.1323
 30
0.0
 10
-134.6419
 20
22.1323
 30
0.0
 10
-133.7099
 20
22.2601
 30
0.0
 10
-133.817
 20
21.6488
 30
0.0
 10
-133.9653
 20
20.9153
 30
0.0
 10
-133.9653
 20
20.9153
 30
0.0
 10
-134.0543
 20
20.4699
 30
0.0
 10
-133.7601
 20
20.1042
 30
0.0
 10
-133.1428
 20
20.0356
 30
0.0
 10
-133.1428
 20
20.0356
 30
0.0
 10
-133.1163
 20
20.847
 30
0.0
 10
-132.3263
 20
21.2208
 30
0.0
 10
-131.9188
 20
21.1973
 30
0.0
 10
-131.9188
 20
21.1973
 30
0.0
 10
-131.4559
 20
20.7633
 30
0.0
 10
-131.1799
 20
20.0212
 30
0.0
 10
-131.1176
 20
19.2429
 30
0.0
 10
-131.1176
 20
19.2429
 30
0.0
 10
-130.2981
 20
19.4777
 30
0.0
 10
-129.7691
 20
19.724
 30
0.0
 10
-128.65
 20
19.4603
 30
0.0
 10
-128.65
 20
19.4603
 30
0.0
 10
-128.2904
 20
18.7442
 30
0.0
 10
-128.4182
 20
18.3048
 30
0.0
 10
-128.4212
 20
17.47
 30
0.0
  0
SPLINE
  5
83
330
1F
100
AcDbEntity
  8
layer 1
 62
     7
100
AcDbSpline
210
0.0
220
0.0
230
1.0
 70
    11
 71
     3
 72
    24
 73
    20
 74
     0
 42
0.0000000001
 43
0.0000000001
 12
1.0
 22
0.0
 32
0.0
 13
1.0
 23
0.0
 33
0.0
 40
0.0
 40
0.0
 40
0.0
 40
0.0
 40
0.1666666666666667
 40
0.1666666666666667
 40
0.1666666666666667
 40
0.1666666666666667
 40
0.3333333333333333
 40
0.3333333333333333
 40
0.3333333333333333
 40
0.3333333333333333
 40
0.5
 40
0.5
 40
0.5
 40
0.5
 40
0.6666666666666666
 40
0.6666666666666666
 40
0.6666666666666666
 40
0.6666666666666666
 40
1.0
 40
1.0
 40
1.0
 40
1.0
 10
-157.0979
 20
-107.712
 30
0.0
 10
-157.0979
 20
-107.712
 30
0.0
 10
-141.46
 20
-107.712
 30
0.0
 10
-141.46
 20
-107.712
 30
0.0
 10
-141.46
 20
-107.712
 30
0.0
 10
-143.242
 20
-106.1891
 30
0.0
 10
-144.694
 20
-104.4758
 30
0.0
 10
-145.6768
 20
-102.2955
 30
0.0
 10
-145.6768
 20
-102.2955
 30
0.0
 10
-146.2266
 20
-103.2344
 30
0.0
 10
-146.7935
 20
-104.2941
 30
0.0
 10
-147.708
 20
-104.7161
 30
0.0
 10
-147.708
 20
-104.7161
 30
0.0
 10
-148.4592
 20
-103.7125
 30
0.0
 10
-148.8006
 20
-102.6079
 30
0.0
 10
-148.8514
 20
-100.9834
 30
0.0
 10
-148.8514
 20
-100.9834
 30
0.0
 10
-149.9765
 20
-102.6491
 30
0.0
 10
-152.4175
 20
-105.9392
 30
0.0
 10
-157.0979
 20
-107.712
 30
0.0
  0
SPLINE
  5
84
330
1F
100
AcDbEntity
  8
layer 1
 62
     7
100
AcDbSpline
210
0.0
220
0.0
230
1.0
 70
    11
 71
     3
 72
    16
 73
    12
 74
     0
 42
0.0000000001
 43
0.0000000001
 12
1.0
 22
0.0
 32
0.0
 13
1.0
 23
0.0
 33
0.0
 40
0.0
 40
0.0
 40
0.0
 40
0.0
 40
0.25
 40
0.25
 40
0.25
 40
0.25
 40
0.5
 40
0.5
 40
0.5
 40
0.5
 40
1.0
 40
1.0
 40
1.0
 40
1.0
 10
-179.5617
 20
-107.712
 30
0.0
 10
-179.5617
 20
-107.712
 30
0.0
 10
-167.5295
 20
-107.712
 30
0.0
 10
-167.5295
 20
-107.712
 30
0.0
 10
-167.5295
 20
-107.712
 30
0.0
 10
-172.818
 20
-106.1801
 30
0.0
 10
-177.3913
 20
-101.7436
 30
0.0
 10
-179.5617
 20
-95.3148
 30
0.0
 10
-179.5617
 20
-95.3148
 30
0.0
 10
-179.5617
 20
-98.4322
 30
0.0
 10
-179.5617
 20
-103.1303
 30
0.0
 10
-179.5617
 20
-107.712
 30
0.0
  0
SPLINE
  5
85
330
1F
100
AcDbEntity
  8
layer 1
 62
     7
100
AcDbSpline
210
0.0
220
0.0
230
1.0
 70
    11
 71
     3
 72
    24
 73
    20
 74
     0
 42
0.0000000001
 43
0.0000000001
 12
1.0
 22
0.0
 32
0.0
 13
1.0
 23
0.0
 33
0.0
 40
0.0
 40
0.0
 40
0.0
 40
0.0
 40
0.1666666666666667
 40
0.1666666666666667
 40
0.1666666666666667
 40
0.1666666666666667
 40
0.3333333333333333
 40
0.3333333333333333
 40
0.3333333333333333
 40
0.3333333333333333
 40
0.5
 40
0.5
 40
0.5
 40
0.5
 40
0.6666666666666666
 40
0.6666666666666666
 40
0.6666666666666666
 40
0.6666666666666666
 40
1.0
 40
1.0
 40
1.0
 40
1.0
 10
-173.6886
 20
-92.5763
 30
0.0
 10
-172.6904
 20
-92.5916
 30
0.0
 10
-172.1651
 20
-92.7011
 30
0.0
 10
-171.4048
 20
-93.1381
 30
0.0
 10
-171.4048
 20
-93.1381
 30
0.0
 10
-171.3098
 20
-91.7098
 30
0.0
 10
-168.8483
 20
-91.3084
 30
0.0
 10
-168.1475
 20
-91.6588
 30
0.0
 10
-168.1475
 20
-91.6588
 30
0.0
 10
-168.7412
 20
-88.0989
 30
0.0
 10
-163.85
 20
-86.7237
 30
0.0
 10
-162.8435
 20
-89.1115
 30
0.0
 10
-162.8435
 20
-89.1115
 30
0.0
 10
-159.7047
 20
-85.1114
 30
0.0
 10
-167.5446
 20
-79.46
 30
0.0
 10
-172.4235
 20
-87.2551
 30
0.0
 10
-172.4235
 20
-87.2551
 30
0.0
 10
-170.6888
 20
-86.8575
 30
0.0
 10
-169.9908
 20
-88.4637
 30
0.0
 10
-173.6886
 20
-92.5763
 30
0.0
  0
SPLINE
  5
86
330
1F
100
AcDbEntity
  8
layer 1
 62
     7
100
AcDbSpline
210
0.0
220
0.0
230
1.0
 70
    11
 71
     3
 72
    24
 73
    20
 74
     0
 42
0.0000000001
 43
0.0000000001
 12
1.0
 22
0.0
 32
0.0
 13
1.0
 23
0.0
 33
0.0
 40
0.0
 40
0.0
 40
0.0
 40
0.0
 40
0.1666666666666667
 40
0.1666666666666667
 40
0.1666666666666667
 40
0.1666666666666667
 40
0.3333333333333333
 40
0.3333333333333333
 40
0.3333333333333333
 40
0.3333333333333333
 40
0.5
 40
0.5
 40
0.5
 40
0.5
 40
0.6666666666666666
 40
0.6666666666666666
 40
0.6666666666666666
 40
0.6666666666666666
 40
1.0
 40
1.0
 40
1.0
 40
1.0
 10
-147.2596
 20
-73.272
 30
0.0
 10
-146.2653
 20
-79.7072
 30
0.0
 10
-142.4103
 20
-80.2355
 30
0.0
 10
-140.3379
 20
-79.7839
 30
0.0
 10
-140.3379
 20
-79.7839
 30
0.0
 10
-139.5391
 20
-79.8043
 30
0.0
 10
-139.4471
 20
-81.7498
 30
0.0
 10
-139.8212
 20
-82.4742
 30
0.0
 10
-139.8212
 20
-82.4742
 30
0.0
 10
-138.541
 20
-82.7563
 30
0.0
 10
-137.2791
 20
-82.6938
 30
0.0
 10
-136.4154
 20
-82.3648
 30
0.0
 10
-136.4154
 20
-82.3648
 30
0.0
 10
-136.4154
 20
-82.3648
 30
0.0
 10
-136.3408
 20
-70.9945
 30
0.0
 10
-136.3408
 20
-70.9945
 30
0.0
 10
-136.3408
 20
-70.9945
 30
0.0
 10
-138.7136
 20
-76.1372
 30
0.0
 10
-144.7418
 20
-76.981
 30
0.0
 10
-147.2596
 20
-73.272
 30
0.0
  0
SPLINE
  5
87
330
1F
100
AcDbEntity
  8
layer 1
 62
     7
100
AcDbSpline
210
0.0
220
0.0
230
1.0
 70
    11
 71
     3
 72
    32
 73
    28
 74
     0
 42
0.0000000001
 43
0.0000000001
 12
1.0
 22
0.0
 32
0.0
 13
1.0
 23
0.0
 33
0.0
 40
0.0
 40
0.0
 40
0.0
 40
0.0
 40
0.125
 40
0.125
 40
0.125
 40
0.125
 40
0.25
 40
0.25
 40
0.25
 40
0.25
 40
0.375
 40
0.375
 40
0.375
 40
0.375
 40
0.5
 40
0.5
 40
0.5
 40
0.5
 40
0.625
 40
0.625
 40
0.625
 40
0.625
 40
0.75
 40
0.75
 40
0.75
 40
0.75
 40
1.0
 40
1.0
 40
1.0
 40
1.0
 10
-144.8216
 20
-85.5006
 30
0.0
 10
-144.5304
 20
-89.5918
 30
0.0
 10
-145.5491
 20
-101.5118
 30
0.0
 10
-140.2901
 20
-103.4479
 30
0.0
 10
-140.2901
 20
-103.4479
 30
0.0
 10
-140.7592
 20
-102.3463
 30
0.0
 10
-140.103
 20
-100.2589
 30
0.0
 10
-138.3212
 20
-100.5175
 30
0.0
 10
-138.3212
 20
-100.5175
 30
0.0
 10
-138.541
 20
-99.8135
 30
0.0
 10
-138.1229
 20
-98.9522
 30
0.0
 10
-137.3534
 20
-98.997
 30
0.0
 10
-137.3534
 20
-98.997
 30
0.0
 10
-139.3908
 20
-95.7716
 30
0.0
 10
-139.8332
 20
-89.9668
 30
0.0
 10
-137.4189
 20
-85.943
 30
0.0
 10
-137.4189
 20
-85.943
 30
0.0
 10
-138.7993
 20
-86.7207
 30
0.0
 10
-140.8572
 20
-86.5784
 30
0.0
 10
-142.1222
 20
-85.1349
 30
0.0
 10
-142.1222
 20
-85.1349
 30
0.0
 10
-142.0332
 20
-85.7643
 30
0.0
 10
-142.1047
 20
-86.7411
 30
0.0
 10
-142.3092
 20
-87.4604
 30
0.0
 10
-142.3092
 20
-87.4604
 30
0.0
 10
-143.1888
 20
-87.5044
 30
0.0
 10
-143.9101
 20
-86.3558
 30
0.0
 10
-144.8216
 20
-85.5006
 30
0.0
  0
SPLINE
  5
88
330
1F
100
AcDbEntity
  8
layer 1
 62
     7
100
AcDbSpline
210
0.0
220
0.0
230
1.0
 70
    11
 71
     3
 72
    64
 73
    60
 74
     0
 42
0.0000000001
 43
0.0000000001
 12
1.0
 22
0.0
 32
0.0
 13
1.0
 23
0.0
 33
0.0
 40
0.0
 40
0.0
 40
0.0
 40
0.0
 40
0.0625
 40
0.0625
 40
0.0625
 40
0.0625
 40
0.125
 40
0.125
 40
0.125
 40
0.125
 40
0.1875
 40
0.1875
 40
0.1875
 40
0.1875
 40
0.25
 40
0.25
 40
0.25
 40
0.25
 40
0.3125
 40
0.3125
 40
0.3125
 40
0.3125
 40
0.375
 40
0.375
 40
0.375
 40
0.375
 40
0.4375
 40
0.4375
 40
0.4375
 40
0.4375
 40
0.5
 40
0.5
 40
0.5
 40
0.5
 40
0.5625
 40
0.5625
 40
0.5625
 40
0.5625
 40
0.625
 40
0.625
 40
0.625
 40
0.625
 40
0.6875
 40
0.6875
 40
0.6875
 40
0.6875
 40
0.75
 40
0.75
 40
0.75
 40
0.75
 40
0.8125
 40
0.8125
 40
0.8125
 40
0.8125
 40
0.875
 40
0.875
 40
0.875
 40
0.875
 40
1.0
 40
1.0
 40
1.0
 40
1.0
 10
-144.8696
 20
-51.856
 30
0.0
 10
-147.2482
 20
-52.2473
 30
0.0
 10
-151.0309
 20
-54.4185
 30
0.0
 10
-154.9566
 20
-57.9489
 30
0.0
 10
-154.9566
 20
-57.9489
 30
0.0
 10
-152.7056
 20
-57.3612
 30
0.0
 10
-144.8339
 20
-56.1646
 30
0.0
 10
-150.7846
 20
-60.5
 30
0.0
 10
-150.7846
 20
-60.5
 30
0.0
 10
-148.4295
 20
-60.1852
 30
0.0
 10
-143.9223
 20
-60.1822
 30
0.0
 10
-143.9542
 20
-61.679
 30
0.0
 10
-143.9542
 20
-61.679
 30
0.0
 10
-143.996
 20
-63.7248
 30
0.0
 10
-148.3855
 20
-62.9501
 30
0.0
 10
-149.068
 20
-63.2436
 30
0.0
 10
-149.068
 20
-63.2436
 30
0.0
 10
-148.7624
 20
-64.0007
 30
0.0
 10
-148.4235
 20
-64.4553
 30
0.0
 10
-148.6736
 20
-64.91
 30
0.0
 10
-148.6736
 20
-64.91
 30
0.0
 10
-148.9464
 20
-65.4026
 30
0.0
 10
-150.4137
 20
-65.2063
 30
0.0
 10
-151.3313
 20
-65.483
 30
0.0
 10
-151.3313
 20
-65.483
 30
0.0
 10
-149.7362
 20
-66.9024
 30
0.0
 10
-149.1068
 20
-67.6801
 30
0.0
 10
-148.9495
 20
-69.2422
 30
0.0
 10
-148.9495
 20
-69.2422
 30
0.0
 10
-148.403
 20
-68.619
 30
0.0
 10
-147.6662
 20
-68.4822
 30
0.0
 10
-146.7935
 20
-69.0073
 30
0.0
 10
-146.7935
 20
-69.0073
 30
0.0
 10
-146.3929
 20
-68.7315
 30
0.0
 10
-146.7875
 20
-66.2402
 30
0.0
 10
-145.8904
 20
-66.1157
 30
0.0
 10
-145.8904
 20
-66.1157
 30
0.0
 10
-145.0299
 20
-65.9963
 30
0.0
 10
-144.4447
 20
-68.0305
 30
0.0
 10
-143.9991
 20
-68.948
 30
0.0
 10
-143.9991
 20
-68.948
 30
0.0
 10
-143.3789
 20
-68.3514
 30
0.0
 10
-141.9679
 20
-67.9947
 30
0.0
 10
-141.7931
 20
-70.2427
 30
0.0
 10
-141.7931
 20
-70.2427
 30
0.0
 10
-136.6496
 20
-67.4901
 30
0.0
 10
-136.8905
 20
-61.4441
 30
0.0
 10
-137.1368
 20
-58.4361
 30
0.0
 10
-137.1368
 20
-58.4361
 30
0.0
 10
-138.7554
 20
-60.5266
 30
0.0
 10
-141.7011
 20
-61.9315
 30
0.0
 10
-143.153
 20
-56.8329
 30
0.0
 10
-143.153
 20
-56.8329
 30
0.0
 10
-144.7981
 20
-57.1833
 30
0.0
 10
-143.9786
 20
-53.7533
 30
0.0
 10
-144.1831
 20
-54.4718
 30
0.0
 10
-144.1831
 20
-54.4718
 30
0.0
 10
-145.3446
 20
-54.5605
 30
0.0
 10
-145.2672
 20
-53.228
 30
0.0
 10
-144.8696
 20
-51.856
 30
0.0
  0
SPLINE
  5
89
330
1F
100
AcDbEntity
  8
layer 1
 62
     7
100
AcDbSpline
210
0.0
220
0.0
230
1.0
 70
    11
 71
     3
 72
    56
 73
    52
 74
     0
 42
0.0000000001
 43
0.0000000001
 12
1.0
 22
0.0
 32
0.0
 13
1.0
 23
0.0
 33
0.0
 40
0.0
 40
0.0
 40
0.0
 40
0.0
 40
0.0714285714285714
 40
0.0714285714285714
 40
0.0714285714285714
 40
0.0714285714285714
 40
0.1428571428571428
 40
0.1428571428571428
 40
0.1428571428571428
 40
0.1428571428571428
 40
0.2142857142857143
 40
0.2142857142857143
 40
0.2142857142857143
 40
0.2142857142857143
 40
0.2857142857142857
 40
0.2857142857142857
 40
0.2857142857142857
 40
0.2857142857142857
 40
0.3571428571428572
 40
0.3571428571428572
 40
0.3571428571428572
 40
0.3571428571428572
 40
0.4285714285714285
 40
0.4285714285714285
 40
0.4285714285714285
 40
0.4285714285714285
 40
0.5
 40
0.5
 40
0.5
 40
0.5
 40
0.5714285714285714
 40
0.5714285714285714
 40
0.5714285714285714
 40
0.5714285714285714
 40
0.6428571428571429
 40
0.6428571428571429
 40
0.6428571428571429
 40
0.6428571428571429
 40
0.7142857142857143
 40
0.7142857142857143
 40
0.7142857142857143
 40
0.7142857142857143
 40
0.7857142857142857
 40
0.7857142857142857
 40
0.7857142857142857
 40
0.7857142857142857
 40
0.8571428571428571
 40
0.8571428571428571
 40
0.8571428571428571
 40
0.8571428571428571
 40
1.0
 40
1.0
 40
1.0
 40
1.0
 10
-148.1955
 20
-37.4236
 30
0.0
 10
-149.4033
 20
-38.7517
 30
0.0
 10
-150.5169
 20
-38.722
 30
0.0
 10
-151.8176
 20
-38.6414
 30
0.0
 10
-151.8176
 20
-38.6414
 30
0.0
 10
-149.6351
 20
-43.1494
 30
0.0
 10
-150.3924
 20
-48.5064
 30
0.0
 10
-151.69
 20
-52.1408
 30
0.0
 10
-151.69
 20
-52.1408
 30
0.0
 10
-145.8548
 20
-46.0563
 30
0.0
 10
-137.086
 20
-45.9757
 30
0.0
 10
-140.2399
 20
-55.9123
 30
0.0
 10
-140.2399
 20
-55.9123
 30
0.0
 10
-139.7412
 20
-56.2064
 30
0.0
 10
-139.3818
 20
-57.5155
 30
0.0
 10
-139.3818
 20
-57.5155
 30
0.0
 10
-139.3818
 20
-57.5155
 30
0.0
 10
-139.245
 20
-56.8001
 30
0.0
 10
-138.8556
 20
-56.1168
 30
0.0
 10
-138.221
 20
-55.9358
 30
0.0
 10
-138.221
 20
-55.9358
 30
0.0
 10
-138.7963
 20
-53.5777
 30
0.0
 10
-137.6385
 20
-51.0067
 30
0.0
 10
-136.5781
 20
-49.6519
 30
0.0
 10
-136.5781
 20
-49.6519
 30
0.0
 10
-137.6773
 20
-49.1443
 30
0.0
 10
-138.3067
 20
-47.0749
 30
0.0
 10
-137.7837
 20
-46.2464
 30
0.0
 10
-137.7837
 20
-46.2464
 30
0.0
 10
-139.1917
 20
-46.3558
 30
0.0
 10
-139.8507
 20
-45.4922
 30
0.0
 10
-139.7824
 20
-44.3009
 30
0.0
 10
-139.7824
 20
-44.3009
 30
0.0
 10
-140.5219
 20
-44.9662
 30
0.0
 10
-141.7808
 20
-44.3307
 30
0.0
 10
-141.8849
 20
-43.5355
 30
0.0
 10
-141.8849
 20
-43.5355
 30
0.0
 10
-142.3693
 20
-44.6696
 30
0.0
 10
-143.5446
 20
-46.5907
 30
0.0
 10
-145.4305
 20
-46.2996
 30
0.0
 10
-145.4305
 20
-46.2996
 30
0.0
 10
-147.3751
 20
-44.9692
 30
0.0
 10
-146.3869
 20
-42.4842
 30
0.0
 10
-145.9178
 20
-40.7615
 30
0.0
 10
-145.9178
 20
-40.7615
 30
0.0
 10
-147.1411
 20
-41.1089
 30
0.0
 10
-147.6785
 20
-39.3219
 30
0.0
 10
-147.3219
 20
-38.6323
 30
0.0
 10
-147.3219
 20
-38.6323
 30
0.0
 10
-147.8268
 20
-38.5373
 30
0.0
 10
-148.3612
 20
-38.0919
 30
0.0
 10
-148.1955
 20
-37.4236
 30
0.0
  0
SPLINE
  5
8A
330
1F
100
AcDbEntity
  8
layer 1
 62
     7
100
AcDbSpline
210
0.0
220
0.0
230
1.0
 70
    11
 71
     3
 72
    56
 73
    52
 74
     0
 42
0.0000000001
 43
0.0000000001
 12
1.0
 22
0.0
 32
0.0
 13
1.0
 23
0.0
 33
0.0
 40
0.0
 40
0.0
 40
0.0
 40
0.0
 40
0.0714285714285714
 40
0.0714285714285714
 40
0.0714285714285714
 40
0.0714285714285714
 40
0.1428571428571428
 40
0.1428571428571428
 40
0.1428571428571428
 40
0.1428571428571428
 40
0.2142857142857143
 40
0.2142857142857143
 40
0.2142857142857143
 40
0.2142857142857143
 40
0.2857142857142857
 40
0.2857142857142857
 40
0.2857142857142857
 40
0.2857142857142857
 40
0.3571428571428572
 40
0.3571428571428572
 40
0.3571428571428572
 40
0.3571428571428572
 40
0.4285714285714285
 40
0.4285714285714285
 40
0.4285714285714285
 40
0.4285714285714285
 40
0.5
 40
0.5
 40
0.5
 40
0.5
 40
0.5714285714285714
 40
0.5714285714285714
 40
0.5714285714285714
 40
0.5714285714285714
 40
0.6428571428571429
 40
0.6428571428571429
 40
0.6428571428571429
 40
0.6428571428571429
 40
0.7142857142857143
 40
0.7142857142857143
 40
0.7142857142857143
 40
0.7142857142857143
 40
0.7857142857142857
 40
0.7857142857142857
 40
0.7857142857142857
 40
0.7857142857142857
 40
0.8571428571428571
 40
0.8571428571428571
 40
0.8571428571428571
 40
0.8571428571428571
 40
1.0
 40
1.0
 40
1.0
 40
1.0
 10
-179.5617
 20
-87.1486
 30
0.0
 10
-178.8495
 20
-87.1661
 30
0.0
 10
-178.9711
 20
-87.1783
 30
0.0
 10
-178.3059
 20
-87.1898
 30
0.0
 10
-178.3059
 20
-87.1898
 30
0.0
 10
-178.2496
 20
-86.3466
 30
0.0
 10
-178.8465
 20
-79.9237
 30
0.0
 10
-178.3028
 20
-78.7918
 30
0.0
 10
-178.3028
 20
-78.7918
 30
0.0
 10
-176.4412
 20
-79.0473
 30
0.0
 10
-175.9273
 20
-80.592
 30
0.0
 10
-174.8317
 20
-82.1124
 30
0.0
 10
-174.8317
 20
-82.1124
 30
0.0
 10
-173.3289
 20
-79.134
 30
0.0
 10
-170.9359
 20
-78.1121
 30
0.0
 10
-169.6465
 20
-75.1132
 30
0.0
 10
-169.6465
 20
-75.1132
 30
0.0
 10
-167.7049
 20
-70.6054
 30
0.0
 10
-167.5651
 20
-65.3606
 30
0.0
 10
-170.6948
 20
-63.5766
 30
0.0
 10
-170.6948
 20
-63.5766
 30
0.0
 10
-170.5496
 20
-63.9832
 30
0.0
 10
-170.0981
 20
-65.3287
 30
0.0
 10
-170.6539
 20
-66.2669
 30
0.0
 10
-170.6539
 20
-66.2669
 30
0.0
 10
-171.0545
 20
-66.5313
 30
0.0
 10
-171.6307
 20
-66.4745
 30
0.0
 10
-172.4616
 20
-66.1392
 30
0.0
 10
-172.4616
 20
-66.1392
 30
0.0
 10
-172.8773
 20
-66.1392
 30
0.0
 10
-172.4616
 20
-67.4901
 30
0.0
 10
-173.6588
 20
-67.4573
 30
0.0
 10
-173.6588
 20
-67.4573
 30
0.0
 10
-174.8106
 20
-67.4278
 30
0.0
 10
-174.3924
 20
-65.9993
 30
0.0
 10
-174.7779
 20
-65.747
 30
0.0
 10
-174.7779
 20
-65.747
 30
0.0
 10
-175.1998
 20
-65.4739
 30
0.0
 10
-175.9394
 20
-66.2075
 30
0.0
 10
-176.1826
 20
-65.4944
 30
0.0
 10
-176.1826
 20
-65.4944
 30
0.0
 10
-176.3492
 20
-65.0225
 30
0.0
 10
-177.6529
 20
-62.567
 30
0.0
 10
-173.8368
 20
-59.9269
 30
0.0
 10
-173.8368
 20
-59.9269
 30
0.0
 10
-175.9182
 20
-58.5311
 30
0.0
 10
-178.2108
 20
-54.9885
 30
0.0
 10
-179.5617
 20
-50.9057
 30
0.0
 10
-179.5617
 20
-50.9057
 30
0.0
 10
-179.5617
 20
-50.9057
 30
0.0
 10
-179.5617
 20
-87.1486
 30
0.0
 10
-179.5617
 20
-87.1486
 30
0.0
  0
SPLINE
  5
8B
330
1F
100
AcDbEntity
  8
layer 1
 62
     7
100
AcDbSpline
210
0.0
220
0.0
230
1.0
 70
    11
 71
     3
 72
    32
 73
    28
 74
     0
 42
0.0000000001
 43
0.0000000001
 12
1.0
 22
0.0
 32
0.0
 13
1.0
 23
0.0
 33
0.0
 40
0.0
 40
0.0
 40
0.0
 40
0.0
 40
0.125
 40
0.125
 40
0.125
 40
0.125
 40
0.25
 40
0.25
 40
0.25
 40
0.25
 40
0.375
 40
0.375
 40
0.375
 40
0.375
 40
0.5
 40
0.5
 40
0.5
 40
0.5
 40
0.625
 40
0.625
 40
0.625
 40
0.625
 40
0.75
 40
0.75
 40
0.75
 40
0.75
 40
1.0
 40
1.0
 40
1.0
 40
1.0
 10
-171.3038
 20
-98.4801
 30
0.0
 10
-173.1654
 20
-101.6008
 30
0.0
 10
-168.3436
 20
-104.1991
 30
0.0
 10
-167.1789
 20
-103.8698
 30
0.0
 10
-167.1789
 20
-103.8698
 30
0.0
 10
-170.6888
 20
-99.4538
 30
0.0
 10
-168.9343
 20
-99.2965
 30
0.0
 10
-167.984
 20
-99.8165
 30
0.0
 10
-167.984
 20
-99.8165
 30
0.0
 10
-168.8095
 20
-96.6564
 30
0.0
 10
-166.9744
 20
-95.7541
 30
0.0
 10
-166.104
 20
-95.2227
 30
0.0
 10
-166.104
 20
-95.2227
 30
0.0
 10
-166.7813
 20
-94.7915
 30
0.0
 10
-167.3302
 20
-94.2602
 30
0.0
 10
-167.7461
 20
-93.0758
 30
0.0
 10
-167.7461
 20
-93.0758
 30
0.0
 10
-167.5151
 20
-93.972
 30
0.0
 10
-168.7533
 20
-95.4751
 30
0.0
 10
-169.7385
 20
-95.5701
 30
0.0
 10
-169.7385
 20
-95.5701
 30
0.0
 10
-168.6789
 20
-95.8074
 30
0.0
 10
-168.4438
 20
-96.556
 30
0.0
 10
-169.3409
 20
-97.1436
 30
0.0
 10
-169.3409
 20
-97.1436
 30
0.0
 10
-169.9438
 20
-97.539
 30
0.0
 10
-170.7571
 20
-97.3992
 30
0.0
 10
-171.3038
 20
-98.4801
 30
0.0
  0
SPLINE
  5
8C
330
1F
100
AcDbEntity
  8
layer 1
 62
     7
100
AcDbSpline
210
0.0
220
0.0
230
1.0
 70
    11
 71
     3
 72
    16
 73
    12
 74
     0
 42
0.0000000001
 43
0.0000000001
 12
1.0
 22
0.0
 32
0.0
 13
1.0
 23
0.0
 33
0.0
 40
0.0
 40
0.0
 40
0.0
 40
0.0
 40
0.25
 40
0.25
 40
0.25
 40
0.25
 40
0.5
 40
0.5
 40
0.5
 40
0.5
 40
1.0
 40
1.0
 40
1.0
 40
1.0
 10
-179.5617
 20
-37.3142
 30
0.0
 10
-178.7933
 20
-33.9403
 30
0.0
 10
-177.4385
 20
-31.7106
 30
0.0
 10
-175.9182
 20
-29.7867
 30
0.0
 10
-175.9182
 20
-29.7867
 30
0.0
 10
-177.6409
 20
-28.4503
 30
0.0
 10
-178.9232
 20
-26.5232
 30
0.0
 10
-179.5617
 20
-23.9955
 30
0.0
 10
-179.5617
 20
-23.9955
 30
0.0
 10
-179.5617
 20
-23.9955
 30
0.0
 10
-179.5617
 20
-37.3142
 30
0.0
 10
-179.5617
 20
-37.3142
 30
0.0
  0
SPLINE
  5
8D
330
1F
100
AcDbEntity
  8
layer 1
 62
     7
100
AcDbSpline
210
0.0
220
0.0
230
1.0
 70
    11
 71
     3
 72
    28
 73
    24
 74
     0
 42
0.0000000001
 43
0.0000000001
 12
1.0
 22
0.0
 32
0.0
 13
1.0
 23
0.0
 33
0.0
 40
0.0
 40
0.0
 40
0.0
 40
0.0
 40
0.1428571428571428
 40
0.1428571428571428
 40
0.1428571428571428
 40
0.1428571428571428
 40
0.2857142857142857
 40
0.2857142857142857
 40
0.2857142857142857
 40
0.2857142857142857
 40
0.4285714285714285
 40
0.4285714285714285
 40
0.4285714285714285
 40
0.4285714285714285
 40
0.5714285714285714
 40
0.5714285714285714
 40
0.5714285714285714
 40
0.5714285714285714
 40
0.7142857142857143
 40
0.7142857142857143
 40
0.7142857142857143
 40
0.7142857142857143
 40
1.0
 40
1.0
 40
1.0
 40
1.0
 10
-174.2792
 20
-27.2621
 30
0.0
 10
-172.0138
 20
-24.5215
 30
0.0
 10
-170.1871
 20
-22.8019
 30
0.0
 10
-166.618
 20
-19.895
 30
0.0
 10
-166.618
 20
-19.895
 30
0.0
 10
-168.5184
 20
-20.3731
 30
0.0
 10
-170.0837
 20
-19.4823
 30
0.0
 10
-170.2227
 20
-17.5666
 30
0.0
 10
-170.2227
 20
-17.5666
 30
0.0
 10
-171.9811
 20
-19.28
 30
0.0
 10
-175.6187
 20
-18.2409
 30
0.0
 10
-174.1217
 20
-14.5767
 30
0.0
 10
-174.1217
 20
-14.5767
 30
0.0
 10
-177.0379
 20
-15.622
 30
0.0
 10
-177.9257
 20
-19.4998
 30
0.0
 10
-176.9132
 20
-20.9578
 30
0.0
 10
-176.9132
 20
-20.9578
 30
0.0
 10
-174.4365
 20
-17.7657
 30
0.0
 10
-171.1077
 20
-22.2615
 30
0.0
 10
-174.7012
 20
-24.0229
 30
0.0
 10
-174.7012
 20
-24.0229
 30
0.0
 10
-175.0067
 20
-24.9753
 30
0.0
 10
-174.7749
 20
-25.9469
 30
0.0
 10
-174.2792
 20
-27.2621
 30
0.0
  0
SPLINE
  5
8E
330
1F
100
AcDbEntity
  8
layer 1
 62
     7
100
AcDbSpline
210
0.0
220
0.0
230
1.0
 70
    11
 71
     3
 72
    68
 73
    64
 74
     0
 42
0.0000000001
 43
0.0000000001
 12
1.0
 22
0.0
 32
0.0
 13
1.0
 23
0.0
 33
0.0
 40
0.0
 40
0.0
 40
0.0
 40
0.0
 40
0.0588235294117647
 40
0.0588235294117647
 40
0.0588235294117647
 40
0.0588235294117647
 40
0.1176470588235294
 40
0.1176470588235294
 40
0.1176470588235294
 40
0.1176470588235294
 40
0.1764705882352941
 40
0.1764705882352941
 40
0.1764705882352941
 40
0.1764705882352941
 40
0.2352941176470588
 40
0.2352941176470588
 40
0.2352941176470588
 40
0.2352941176470588
 40
0.2941176470588235
 40
0.2941176470588235
 40
0.2941176470588235
 40
0.2941176470588235
 40
0.3529411764705883
 40
0.3529411764705883
 40
0.3529411764705883
 40
0.3529411764705883
 40
0.4117647058823529
 40
0.4117647058823529
 40
0.4117647058823529
 40
0.4117647058823529
 40
0.4705882352941176
 40
0.4705882352941176
 40
0.4705882352941176
 40
0.4705882352941176
 40
0.5294117647058824
 40
0.5294117647058824
 40
0.5294117647058824
 40
0.5294117647058824
 40
0.5882352941176471
 40
0.5882352941176471
 40
0.5882352941176471
 40
0.5882352941176471
 40
0.6470588235294118
 40
0.6470588235294118
 40
0.6470588235294118
 40
0.6470588235294118
 40
0.7058823529411765
 40
0.7058823529411765
 40
0.7058823529411765
 40
0.7058823529411765
 40
0.7647058823529411
 40
0.7647058823529411
 40
0.7647058823529411
 40
0.7647058823529411
 40
0.8235294117647058
 40
0.8235294117647058
 40
0.8235294117647058
 40
0.8235294117647058
 40
0.8823529411764706
 40
0.8823529411764706
 40
0.8823529411764706
 40
0.8823529411764706
 40
1.0
 40
1.0
 40
1.0
 40
1.0
 10
-179.5617
 20
-14.6095
 30
0.0
 10
-178.3651
 20
-10.3835
 30
0.0
 10
-171.8535
 20
-8.3939
 30
0.0
 10
-169.5249
 20
-14.8056
 30
0.0
 10
-169.5249
 20
-14.8056
 30
0.0
 10
-167.3037
 20
-11.0996
 30
0.0
 10
-165.4
 20
-12.9726
 30
0.0
 10
-166.8255
 20
-15.758
 30
0.0
 10
-166.8255
 20
-15.758
 30
0.0
 10
-166.5169
 20
-15.7998
 30
0.0
 10
-165.5369
 20
-16.3463
 30
0.0
 10
-166.7251
 20
-16.9613
 30
0.0
 10
-166.7251
 20
-16.9613
 30
0.0
 10
-164.1595
 20
-17.7125
 30
0.0
 10
-159.7495
 20
-14.8138
 30
0.0
 10
-159.0518
 20
-13.5876
 30
0.0
 10
-159.0518
 20
-13.5876
 30
0.0
 10
-161.5491
 20
-14.4101
 30
0.0
 10
-167.2565
 20
-13.2075
 30
0.0
 10
-164.1147
 20
-9.0766
 30
0.0
 10
-164.1147
 20
-9.0766
 30
0.0
 10
-165.4298
 20
-9.3268
 30
0.0
 10
-166.7518
 20
-8.3551
 30
0.0
 10
-166.665
 20
-7.307
 30
0.0
 10
-166.665
 20
-7.307
 30
0.0
 10
-167.6601
 20
-8.1743
 30
0.0
 10
-168.3876
 20
-7.9843
 30
0.0
 10
-168.9138
 20
-7.6839
 30
0.0
 10
-168.9138
 20
-7.6839
 30
0.0
 10
-170.5315
 20
-9.6446
 30
0.0
 10
-173.6619
 20
-9.8399
 30
0.0
 10
-172.3164
 20
-5.6885
 30
0.0
 10
-172.3164
 20
-5.6885
 30
0.0
 10
-173.4658
 20
-5.0325
 30
0.0
 10
-173.1509
 20
-3.5806
 30
0.0
 10
-172.3969
 20
-2.9656
 30
0.0
 10
-172.3969
 20
-2.9656
 30
0.0
 10
-173.4955
 20
-3.0847
 30
0.0
 10
-174.2943
 20
-2.8408
 30
0.0
 10
-174.7277
 20
-1.873
 30
0.0
 10
-174.7277
 20
-1.873
 30
0.0
 10
-177.1952
 20
-3.2892
 30
0.0
 10
-179.5617
 20
-0.9434
 30
0.0
 10
-175.681
 20
1.4976
 30
0.0
 10
-175.681
 20
1.4976
 30
0.0
 10
-176.4055
 20
2.4684
 30
0.0
 10
-176.2777
 20
3.5555
 30
0.0
 10
-175.1222
 20
3.9919
 30
0.0
 10
-175.1222
 20
3.9919
 30
0.0
 10
-175.9835
 20
4.4252
 30
0.0
 10
-176.3074
 20
5.31
 30
0.0
 10
-176.0936
 20
5.9669
 30
0.0
 10
-176.0936
 20
5.9669
 30
0.0
 10
-177.5906
 20
5.6992
 30
0.0
 10
-178.2998
 20
5.8953
 30
0.0
 10
-178.5735
 20
6.8661
 30
0.0
 10
-178.5735
 20
6.8661
 30
0.0
 10
-179.0243
 20
7.0296
 30
0.0
 10
-179.0784
 20
7.0296
 30
0.0
 10
-179.5617
 20
7.0234
 30
0.0
 10
-179.5617
 20
7.0234
 30
0.0
 10
-179.5617
 20
7.0234
 30
0.0
 10
-179.5617
 20
-14.6095
 30
0.0
 10
-179.5617
 20
-14.6095
 30
0.0
  0
SPLINE
  5
8F
330
1F
100
AcDbEntity
  8
layer 1
 62
     7
100
AcDbSpline
210
0.0
220
0.0
230
1.0
 70
    11
 71
     3
 72
    20
 73
    16
 74
     0
 42
0.0000000001
 43
0.0000000001
 12
1.0
 22
0.0
 32
0.0
 13
1.0
 23
0.0
 33
0.0
 40
0.0
 40
0.0
 40
0.0
 40
0.0
 40
0.2
 40
0.2
 40
0.2
 40
0.2
 40
0.4
 40
0.4
 40
0.4
 40
0.4
 40
0.6
 40
0.6
 40
0.6
 40
0.6
 40
1.0
 40
1.0
 40
1.0
 40
1.0
 10
-138.4459
 20
-11.2539
 30
0.0
 10
-138.4459
 20
-9.8164
 30
0.0
 10
-139.6104
 20
-8.6525
 30
0.0
 10
-141.0473
 20
-8.6525
 30
0.0
 10
-141.0473
 20
-8.6525
 30
0.0
 10
-142.4848
 20
-8.6525
 30
0.0
 10
-143.6487
 20
-9.8164
 30
0.0
 10
-143.6487
 20
-11.2539
 30
0.0
 10
-143.6487
 20
-11.2539
 30
0.0
 10
-143.6487
 20
-12.6905
 30
0.0
 10
-142.4848
 20
-13.8553
 30
0.0
 10
-141.0473
 20
-13.8553
 30
0.0
 10
-141.0473
 20
-13.8553
 30
0.0
 10
-139.6104
 20
-13.8553
 30
0.0
 10
-138.4459
 20
-12.6905
 30
0.0
 10
-138.4459
 20
-11.2539
 30
0.0
  0
SPLINE
  5
90
330
1F
100
AcDbEntity
  8
layer 1
 62
     7
100
AcDbSpline
210
0.0
220
0.0
230
1.0
 70
    11
 71
     3
 72
    20
 73
    16
 74
     0
 42
0.0000000001
 43
0.0000000001
 12
1.0
 22
0.0
 32
0.0
 13
1.0
 23
0.0
 33
0.0
 40
0.0
 40
0.0
 40
0.0
 40
0.0
 40
0.2
 40
0.2
 40
0.2
 40
0.2
 40
0.4
 40
0.4
 40
0.4
 40
0.4
 40
0.6
 40
0.6
 40
0.6
 40
0.6
 40
1.0
 40
1.0
 40
1.0
 40
1.0
 10
-151.512
 20
2.2874
 30
0.0
 10
-151.512
 20
3.395
 30
0.0
 10
-152.4091
 20
4.2944
 30
0.0
 10
-153.5198
 20
4.2944
 30
0.0
 10
-153.5198
 20
4.2944
 30
0.0
 10
-154.6274
 20
4.2944
 30
0.0
 10
-155.5266
 20
3.395
 30
0.0
 10
-155.5266
 20
2.2874
 30
0.0
 10
-155.5266
 20
2.2874
 30
0.0
 10
-155.5266
 20
1.1768
 30
0.0
 10
-154.6274
 20
0.2799
 30
0.0
 10
-153.5198
 20
0.2799
 30
0.0
 10
-153.5198
 20
0.2799
 30
0.0
 10
-152.4091
 20
0.2799
 30
0.0
 10
-151.512
 20
1.1768
 30
0.0
 10
-151.512
 20
2.2874
 30
0.0
  0
SPLINE
  5
91
330
1F
100
AcDbEntity
  8
layer 1
 62
     7
100
AcDbSpline
210
0.0
220
0.0
230
1.0
 70
    11
 71
     3
 72
    28
 73
    24
 74
     0
 42
0.0000000001
 43
0.0000000001
 12
1.0
 22
0.0
 32
0.0
 13
1.0
 23
0.0
 33
0.0
 40
0.0
 40
0.0
 40
0.0
 40
0.0
 40
0.1428571428571428
 40
0.1428571428571428
 40
0.1428571428571428
 40
0.1428571428571428
 40
0.2857142857142857
 40
0.2857142857142857
 40
0.2857142857142857
 40
0.2857142857142857
 40
0.4285714285714285
 40
0.4285714285714285
 40
0.4285714285714285
 40
0.4285714285714285
 40
0.5714285714285714
 40
0.5714285714285714
 40
0.5714285714285714
 40
0.5714285714285714
 40
0.7142857142857143
 40
0.7142857142857143
 40
0.7142857142857143
 40
0.7142857142857143
 40
1.0
 40
1.0
 40
1.0
 40
1.0
 10
-135.5745
 20
-44.7024
 30
0.0
 10
-134.93
 20
-44.7024
 30
0.0
 10
-134.3872
 20
-44.1854
 30
0.0
 10
-134.4107
 20
-43.5409
 30
0.0
 10
-134.4107
 20
-43.5409
 30
0.0
 10
-134.4107
 20
-43.5409
 30
0.0
 10
-134.9544
 20
-29.3381
 30
0.0
 10
-134.9544
 20
-29.3381
 30
0.0
 10
-134.9544
 20
-29.3381
 30
0.0
 10
-134.9779
 20
-28.6936
 30
0.0
 10
-135.1946
 20
-28.1766
 30
0.0
 10
-135.5358
 20
-28.1857
 30
0.0
 10
-135.5358
 20
-28.1857
 30
0.0
 10
-135.9077
 20
-28.1947
 30
0.0
 10
-136.0734
 20
-28.6494
 30
0.0
 10
-136.1029
 20
-29.323
 30
0.0
 10
-136.1029
 20
-29.323
 30
0.0
 10
-136.1029
 20
-29.323
 30
0.0
 10
-136.7354
 20
-43.5409
 30
0.0
 10
-136.7354
 20
-43.5409
 30
0.0
 10
-136.7354
 20
-43.5409
 30
0.0
 10
-136.7651
 20
-44.1854
 30
0.0
 10
-136.2193
 20
-44.7024
 30
0.0
 10
-135.5745
 20
-44.7024
 30
0.0
  0
SPLINE
  5
92
330
1F
100
AcDbEntity
  8
layer 1
 62
     7
100
AcDbSpline
210
0.0
220
0.0
230
1.0
 70
    11
 71
     3
 72
    20
 73
    16
 74
     0
 42
0.0000000001
 43
0.0000000001
 12
1.0
 22
0.0
 32
0.0
 13
1.0
 23
0.0
 33
0.0
 40
0.0
 40
0.0
 40
0.0
 40
0.0
 40
0.2
 40
0.2
 40
0.2
 40
0.2
 40
0.4
 40
0.4
 40
0.4
 40
0.4
 40
0.6
 40
0.6
 40
0.6
 40
0.6
 40
1.0
 40
1.0
 40
1.0
 40
1.0
 10
-143.3013
 20
-42.2728
 30
0.0
 10
-142.1222
 20
-42.3503
 30
0.0
 10
-141.8371
 20
-41.6616
 30
0.0
 10
-141.3802
 20
-40.8301
 30
0.0
 10
-141.3802
 20
-40.8301
 30
0.0
 10
-139.6218
 20
-36.7942
 30
0.0
 10
-138.3425
 20
-32.3135
 30
0.0
 10
-137.8255
 20
-27.1313
 30
0.0
 10
-137.8255
 20
-27.1313
 30
0.0
 10
-139.7412
 20
-31.9007
 30
0.0
 10
-141.41
 20
-36.4057
 30
0.0
 10
-143.4883
 20
-39.7992
 30
0.0
 10
-143.4883
 20
-39.7992
 30
0.0
 10
-144.0144
 20
-40.6338
 30
0.0
 10
-144.2932
 20
-41.8661
 30
0.0
 10
-143.3013
 20
-42.2728
 30
0.0
  0
SPLINE
  5
93
330
1F
100
AcDbEntity
  8
layer 1
 62
     7
100
AcDbSpline
210
0.0
220
0.0
230
1.0
 70
    11
 71
     3
 72
    20
 73
    16
 74
     0
 42
0.0000000001
 43
0.0000000001
 12
1.0
 22
0.0
 32
0.0
 13
1.0
 23
0.0
 33
0.0
 40
0.0
 40
0.0
 40
0.0
 40
0.0
 40
0.2
 40
0.2
 40
0.2
 40
0.2
 40
0.4
 40
0.4
 40
0.4
 40
0.4
 40
0.6
 40
0.6
 40
0.6
 40
0.6
 40
1.0
 40
1.0
 40
1.0
 40
1.0
 10
-148.0707
 20
-35.7077
 30
0.0
 10
-147.5956
 20
-36.141
 30
0.0
 10
-146.903
 20
-36.0635
 30
0.0
 10
-146.4278
 20
-35.6303
 30
0.0
 10
-146.4278
 20
-35.6303
 30
0.0
 10
-144.4568
 20
-33.9586
 30
0.0
 10
-141.8963
 20
-31.577
 30
0.0
 10
-139.1467
 20
-26.2678
 30
0.0
 10
-139.1467
 20
-26.2678
 30
0.0
 10
-141.9618
 20
-29.2166
 30
0.0
 10
-144.1124
 20
-30.7931
 30
0.0
 10
-147.2299
 20
-33.0645
 30
0.0
 10
-147.2299
 20
-33.0645
 30
0.0
 10
-148.1209
 20
-33.5601
 30
0.0
 10
-148.8842
 20
-34.9179
 30
0.0
 10
-148.0707
 20
-35.7077
 30
0.0
  0
SPLINE
  5
94
330
1F
100
AcDbEntity
  8
layer 1
 62
     7
100
AcDbSpline
210
0.0
220
0.0
230
1.0
 70
    11
 71
     3
 72
    20
 73
    16
 74
     0
 42
0.0000000001
 43
0.0000000001
 12
1.0
 22
0.0
 32
0.0
 13
1.0
 23
0.0
 33
0.0
 40
0.0
 40
0.0
 40
0.0
 40
0.0
 40
0.2
 40
0.2
 40
0.2
 40
0.2
 40
0.4
 40
0.4
 40
0.4
 40
0.4
 40
0.6
 40
0.6
 40
0.6
 40
0.6
 40
1.0
 40
1.0
 40
1.0
 40
1.0
 10
-150.4107
 20
-27.1229
 30
0.0
 10
-150.3034
 20
-27.7583
 30
0.0
 10
-149.7127
 20
-28.1234
 30
0.0
 10
-149.0712
 20
-28.0732
 30
0.0
 10
-149.0712
 20
-28.0732
 30
0.0
 10
-146.4879
 20
-27.9691
 30
0.0
 10
-143.3164
 20
-27.1761
 30
0.0
 10
-139.7944
 20
-24.1506
 30
0.0
 10
-139.7944
 20
-24.1506
 30
0.0
 10
-143.6965
 20
-25.0529
 30
0.0
 10
-144.9791
 20
-25.5515
 30
0.0
 10
-148.1239
 20
-25.5578
 30
0.0
 10
-148.1239
 20
-25.5578
 30
0.0
 10
-149.1305
 20
-25.4003
 30
0.0
 10
-150.568
 20
-26.0002
 30
0.0
 10
-150.4107
 20
-27.1229
 30
0.0
  0
SPLINE
  5
95
330
1F
100
AcDbEntity
  8
layer 1
 62
     7
100
AcDbSpline
210
0.0
220
0.0
230
1.0
 70
    11
 71
     3
 72
    40
 73
    36
 74
     0
 42
0.0000000001
 43
0.0000000001
 12
1.0
 22
0.0
 32
0.0
 13
1.0
 23
0.0
 33
0.0
 40
0.0
 40
0.0
 40
0.0
 40
0.0
 40
0.1
 40
0.1
 40
0.1
 40
0.1
 40
0.2
 40
0.2
 40
0.2
 40
0.2
 40
0.3
 40
0.3
 40
0.3
 40
0.3
 40
0.4
 40
0.4
 40
0.4
 40
0.4
 40
0.5
 40
0.5
 40
0.5
 40
0.5
 40
0.6
 40
0.6
 40
0.6
 40
0.6
 40
0.7
 40
0.7
 40
0.7
 40
0.7
 40
0.8
 40
0.8
 40
0.8
 40
0.8
 40
1.0
 40
1.0
 40
1.0
 40
1.0
 10
-153.5251
 20
-20.2721
 30
0.0
 10
-152.349
 20
-20.1945
 30
0.0
 10
-151.4916
 20
-21.626
 30
0.0
 10
-151.5181
 20
-22.7336
 30
0.0
 10
-151.5181
 20
-22.7336
 30
0.0
 10
-149.5699
 20
-23.2178
 30
0.0
 10
-146.6452
 20
-22.992
 30
0.0
 10
-143.7202
 20
-22.0274
 30
0.0
 10
-143.7202
 20
-22.0274
 30
0.0
 10
-139.2243
 20
-20.2691
 30
0.0
 10
-140.8693
 20
-16.9372
 30
0.0
 10
-136.5453
 20
-17.6114
 30
0.0
 10
-136.5453
 20
-17.6114
 30
0.0
 10
-136.5636
 20
-17.1333
 30
0.0
 10
-136.4746
 20
-16.1032
 30
0.0
 10
-136.483
 20
-15.3932
 30
0.0
 10
-136.483
 20
-15.3932
 30
0.0
 10
-141.7481
 20
-17.121
 30
0.0
 10
-143.1888
 20
-15.6486
 30
0.0
 10
-144.9677
 20
-14.5584
 30
0.0
 10
-144.9677
 20
-14.5584
 30
0.0
 10
-146.951
 20
-13.3474
 30
0.0
 10
-148.7564
 20
-13.7602
 30
0.0
 10
-149.4718
 20
-16.8094
 30
0.0
 10
-149.4718
 20
-16.8094
 30
0.0
 10
-150.3157
 20
-16.5601
 30
0.0
 10
-150.6507
 20
-15.8119
 30
0.0
 10
-150.8083
 20
-14.2856
 30
0.0
 10
-150.8083
 20
-14.2856
 30
0.0
 10
-151.316
 20
-16.8124
 30
0.0
 10
-152.3111
 20
-17.6532
 30
0.0
 10
-154.597
 20
-19.6008
 30
0.0
 10
-154.597
 20
-19.6008
 30
0.0
 10
-156.017
 20
-21.2724
 30
0.0
 10
-154.9034
 20
-22.6773
 30
0.0
 10
-153.5251
 20
-20.2721
 30
0.0
  0
SPLINE
  5
96
330
1F
100
AcDbEntity
  8
layer 1
 62
     7
100
AcDbSpline
210
0.0
220
0.0
230
1.0
 70
    11
 71
     3
 72
    80
 73
    76
 74
     0
 42
0.0000000001
 43
0.0000000001
 12
1.0
 22
0.0
 32
0.0
 13
1.0
 23
0.0
 33
0.0
 40
0.0
 40
0.0
 40
0.0
 40
0.0
 40
0.05
 40
0.05
 40
0.05
 40
0.05
 40
0.1
 40
0.1
 40
0.1
 40
0.1
 40
0.15
 40
0.15
 40
0.15
 40
0.15
 40
0.2
 40
0.2
 40
0.2
 40
0.2
 40
0.25
 40
0.25
 40
0.25
 40
0.25
 40
0.3
 40
0.3
 40
0.3
 40
0.3
 40
0.35
 40
0.35
 40
0.35
 40
0.35
 40
0.4
 40
0.4
 40
0.4
 40
0.4
 40
0.45
 40
0.45
 40
0.45
 40
0.45
 40
0.5
 40
0.5
 40
0.5
 40
0.5
 40
0.55
 40
0.55
 40
0.55
 40
0.55
 40
0.6
 40
0.6
 40
0.6
 40
0.6
 40
0.65
 40
0.65
 40
0.65
 40
0.65
 40
0.7
 40
0.7
 40
0.7
 40
0.7
 40
0.75
 40
0.75
 40
0.75
 40
0.75
 40
0.8
 40
0.8
 40
0.8
 40
0.8
 40
0.85
 40
0.85
 40
0.85
 40
0.85
 40
0.9
 40
0.9
 40
0.9
 40
0.9
 40
1.0
 40
1.0
 40
1.0
 40
1.0
 10
-165.9405
 20
-98.8184
 30
0.0
 10
-164.2894
 20
-98.0674
 30
0.0
 10
-163.8356
 20
-98.6406
 30
0.0
 10
-164.0645
 20
-99.3323
 30
0.0
 10
-164.0645
 20
-99.3323
 30
0.0
 10
-164.2689
 20
-99.9413
 30
0.0
 10
-165.115
 20
-100.5584
 30
0.0
 10
-164.5366
 20
-101.6365
 30
0.0
 10
-164.5366
 20
-101.6365
 30
0.0
 10
-163.5087
 20
-102.5571
 30
0.0
 10
-162.9385
 20
-102.8064
 30
0.0
 10
-161.8135
 20
-102.982
 30
0.0
 10
-161.8135
 20
-102.982
 30
0.0
 10
-163.1286
 20
-101.3103
 30
0.0
 10
-162.2621
 20
-99.3795
 30
0.0
 10
-161.184
 20
-98.9696
 30
0.0
 10
-161.184
 20
-98.9696
 30
0.0
 10
-155.6309
 20
-103.4154
 30
0.0
 10
-150.5855
 20
-94.5278
 30
0.0
 10
-149.9293
 20
-92.6897
 30
0.0
 10
-149.9293
 20
-92.6897
 30
0.0
 10
-151.2627
 20
-93.4286
 30
0.0
 10
-152.2426
 20
-93.735
 30
0.0
 10
-153.7068
 20
-94.1416
 30
0.0
 10
-153.7068
 20
-94.1416
 30
0.0
 10
-153.8908
 20
-92.6776
 30
0.0
 10
-153.6497
 20
-90.9968
 30
0.0
 10
-152.6289
 20
-89.8655
 30
0.0
 10
-152.6289
 20
-89.8655
 30
0.0
 10
-152.0434
 20
-89.2179
 30
0.0
 10
-152.1508
 20
-88.0478
 30
0.0
 10
-152.7117
 20
-87.3441
 30
0.0
 10
-152.7117
 20
-87.3441
 30
0.0
 10
-147.6397
 20
-84.3839
 30
0.0
 10
-150.0838
 20
-83.0862
 30
0.0
 10
-151.5243
 20
-85.1114
 30
0.0
 10
-151.5243
 20
-85.1114
 30
0.0
 10
-156.1151
 20
-89.4405
 30
0.0
 10
-153.3859
 20
-84.3572
 30
0.0
 10
-153.1778
 20
-83.1188
 30
0.0
 10
-153.1778
 20
-83.1188
 30
0.0
 10
-152.7709
 20
-81.6812
 30
0.0
 10
-152.8987
 20
-80.9691
 30
0.0
 10
-153.8428
 20
-80.1465
 30
0.0
 10
-153.8428
 20
-80.1465
 30
0.0
 10
-148.498
 20
-76.6306
 30
0.0
 10
-152.118
 20
-71.2348
 30
0.0
 10
-154.0511
 20
-69.0644
 30
0.0
 10
-154.0511
 20
-69.0644
 30
0.0
 10
-154.3065
 20
-68.3453
 30
0.0
 10
-152.9315
 20
-72.9216
 30
0.0
 10
-153.9501
 20
-75.0653
 30
0.0
 10
-153.9501
 20
-75.0653
 30
0.0
 10
-154.692
 20
-72.1136
 30
0.0
 10
-156.7743
 20
-69.6908
 30
0.0
 10
-159.5709
 20
-70.1035
 30
0.0
 10
-159.5709
 20
-70.1035
 30
0.0
 10
-160.0764
 20
-63.4846
 30
0.0
 10
-165.2671
 20
-61.7087
 30
0.0
 10
-167.1257
 20
-62.4955
 30
0.0
 10
-167.1257
 20
-62.4955
 30
0.0
 10
-163.1818
 20
-65.3759
 30
0.0
 10
-165.0148
 20
-76.6336
 30
0.0
 10
-167.8327
 20
-78.2104
 30
0.0
 10
-167.8327
 20
-78.2104
 30
0.0
 10
-159.6157
 20
-76.5296
 30
0.0
 10
-156.4625
 20
-82.1717
 30
0.0
 10
-155.6339
 20
-86.1953
 30
0.0
 10
-155.6339
 20
-86.1953
 30
0.0
 10
-154.1492
 20
-95.9349
 30
0.0
 10
-162.4164
 20
-98.0909
 30
0.0
 10
-164.9904
 20
-95.9616
 30
0.0
 10
-164.9904
 20
-95.9616
 30
0.0
 10
-166.2256
 20
-96.1873
 30
0.0
 10
-166.2797
 20
-98.2452
 30
0.0
 10
-165.9405
 20
-98.8184
 30
0.0
  0
SPLINE
  5
97
330
1F
100
AcDbEntity
  8
layer 1
 62
     7
100
AcDbSpline
210
0.0
220
0.0
230
1.0
 70
    11
 71
     3
 72
    88
 73
    84
 74
     0
 42
0.0000000001
 43
0.0000000001
 12
1.0
 22
0.0
 32
0.0
 13
1.0
 23
0.0
 33
0.0
 40
0.0
 40
0.0
 40
0.0
 40
0.0
 40
0.0454545454545455
 40
0.0454545454545455
 40
0.0454545454545455
 40
0.0454545454545455
 40
0.0909090909090909
 40
0.0909090909090909
 40
0.0909090909090909
 40
0.0909090909090909
 40
0.1363636363636364
 40
0.1363636363636364
 40
0.1363636363636364
 40
0.1363636363636364
 40
0.1818181818181818
 40
0.1818181818181818
 40
0.1818181818181818
 40
0.1818181818181818
 40
0.2272727272727273
 40
0.2272727272727273
 40
0.2272727272727273
 40
0.2272727272727273
 40
0.2727272727272727
 40
0.2727272727272727
 40
0.2727272727272727
 40
0.2727272727272727
 40
0.3181818181818182
 40
0.3181818181818182
 40
0.3181818181818182
 40
0.3181818181818182
 40
0.3636363636363636
 40
0.3636363636363636
 40
0.3636363636363636
 40
0.3636363636363636
 40
0.4090909090909091
 40
0.4090909090909091
 40
0.4090909090909091
 40
0.4090909090909091
 40
0.4545454545454545
 40
0.4545454545454545
 40
0.4545454545454545
 40
0.4545454545454545
 40
0.5
 40
0.5
 40
0.5
 40
0.5
 40
0.5454545454545454
 40
0.5454545454545454
 40
0.5454545454545454
 40
0.5454545454545454
 40
0.5909090909090909
 40
0.5909090909090909
 40
0.5909090909090909
 40
0.5909090909090909
 40
0.6363636363636364
 40
0.6363636363636364
 40
0.6363636363636364
 40
0.6363636363636364
 40
0.6818181818181818
 40
0.6818181818181818
 40
0.6818181818181818
 40
0.6818181818181818
 40
0.7272727272727273
 40
0.7272727272727273
 40
0.7272727272727273
 40
0.7272727272727273
 40
0.7727272727272727
 40
0.7727272727272727
 40
0.7727272727272727
 40
0.7727272727272727
 40
0.8181818181818182
 40
0.8181818181818182
 40
0.8181818181818182
 40
0.8181818181818182
 40
0.8636363636363636
 40
0.8636363636363636
 40
0.8636363636363636
 40
0.8636363636363636
 40
0.9090909090909091
 40
0.9090909090909091
 40
0.9090909090909091
 40
0.9090909090909091
 40
1.0
 40
1.0
 40
1.0
 40
1.0
 10
-167.1882
 20
-35.241
 30
0.0
 10
-169.9234
 20
-34.9681
 30
0.0
 10
-171.182
 20
-34.2825
 30
0.0
 10
-173.8664
 20
-32.6017
 30
0.0
 10
-173.8664
 20
-32.6017
 30
0.0
 10
-174.1012
 20
-33.4774
 30
0.0
 10
-174.267
 20
-35.4075
 30
0.0
 10
-173.9052
 20
-36.9248
 30
0.0
 10
-173.9052
 20
-36.9248
 30
0.0
 10
-173.3494
 20
-37.1536
 30
0.0
 10
-172.9611
 20
-37.685
 30
0.0
 10
-173.1981
 20
-38.4338
 30
0.0
 10
-173.1981
 20
-38.4338
 30
0.0
 10
-172.8926
 20
-38.7782
 30
0.0
 10
-172.4974
 20
-38.995
 30
0.0
 10
-171.9864
 20
-39.0185
 30
0.0
 10
-171.9864
 20
-39.0185
 30
0.0
 10
-170.3739
 20
-38.3623
 30
0.0
 10
-169.7477
 20
-40.3997
 30
0.0
 10
-171.265
 20
-41.3796
 30
0.0
 10
-171.265
 20
-41.3796
 30
0.0
 10
-169.7538
 20
-43.0483
 30
0.0
 10
-170.6295
 20
-45.0825
 30
0.0
 10
-173.427
 20
-42.9951
 30
0.0
 10
-173.427
 20
-42.9951
 30
0.0
 10
-174.036
 20
-42.6477
 30
0.0
 10
-174.0892
 20
-43.461
 30
0.0
 10
-173.3707
 20
-44.3367
 30
0.0
 10
-173.3707
 20
-44.3367
 30
0.0
 10
-172.2478
 20
-45.6404
 30
0.0
 10
-170.659
 20
-45.2991
 30
0.0
 10
-170.5017
 20
-45.893
 30
0.0
 10
-170.5017
 20
-45.893
 30
0.0
 10
-170.4638
 20
-46.8728
 30
0.0
 10
-171.3098
 20
-47.3008
 30
0.0
 10
-172.1233
 20
-47.7044
 30
0.0
 10
-172.1233
 20
-47.7044
 30
0.0
 10
-168.9138
 20
-49.1093
 30
0.0
 10
-169.4982
 20
-51.3297
 30
0.0
 10
-167.7704
 20
-51.7372
 30
0.0
 10
-167.7704
 20
-51.7372
 30
0.0
 10
-167.2056
 20
-51.8704
 30
0.0
 10
-167.1524
 20
-52.0816
 30
0.0
 10
-167.553
 20
-52.4322
 30
0.0
 10
-167.553
 20
-52.4322
 30
0.0
 10
-168.1945
 20
-52.9041
 30
0.0
 10
-169.2459
 20
-53.0349
 30
0.0
 10
-171.455
 20
-52.9278
 30
0.0
 10
-171.455
 20
-52.9278
 30
0.0
 10
-167.5506
 20
-57.0996
 30
0.0
 10
-158.8229
 20
-56.3812
 30
0.0
 10
-158.41
 20
-47.9067
 30
0.0
 10
-158.41
 20
-47.9067
 30
0.0
 10
-159.726
 20
-46.5968
 30
0.0
 10
-158.7544
 20
-45.2543
 30
0.0
 10
-157.65
 20
-44.7914
 30
0.0
 10
-157.65
 20
-44.7914
 30
0.0
 10
-157.5373
 20
-43.6685
 30
0.0
 10
-157.6082
 20
-43.3097
 30
0.0
 10
-158.2353
 20
-42.2941
 30
0.0
 10
-158.2353
 20
-42.2941
 30
0.0
 10
-157.8278
 20
-42.193
 30
0.0
 10
-156.8958
 20
-41.9049
 30
0.0
 10
-156.1478
 20
-42.2971
 30
0.0
 10
-156.1478
 20
-42.2971
 30
0.0
 10
-156.8038
 20
-40.3907
 30
0.0
 10
-157.7631
 20
-39.6897
 30
0.0
 10
-159.4021
 20
-38.7334
 30
0.0
 10
-159.4021
 20
-38.7334
 30
0.0
 10
-158.9863
 20
-38.0835
 30
0.0
 10
-158.0984
 20
-37.5993
 30
0.0
 10
-156.9755
 20
-37.2693
 30
0.0
 10
-156.9755
 20
-37.2693
 30
0.0
 10
-160.3137
 20
-36.4529
 30
0.0
 10
-165.9437
 20
-36.046
 30
0.0
 10
-165.077
 20
-42.2728
 30
0.0
 10
-165.077
 20
-42.2728
 30
0.0
 10
-160.3934
 20
-36.9636
 30
0.0
 10
-156.7118
 20
-46.9739
 30
0.0
 10
-163.9604
 20
-48.2032
 30
0.0
 10
-163.9604
 20
-48.2032
 30
0.0
 10
-170.324
 20
-49.2014
 30
0.0
 10
-171.5798
 20
-38.8375
 30
0.0
 10
-167.1882
 20
-35.241
 30
0.0
  0
SPLINE
  5
98
330
1F
100
AcDbEntity
  8
layer 1
 62
     7
100
AcDbSpline
210
0.0
220
0.0
230
1.0
 70
    11
 71
     3
 72
    36
 73
    32
 74
     0
 42
0.0000000001
 43
0.0000000001
 12
1.0
 22
0.0
 32
0.0
 13
1.0
 23
0.0
 33
0.0
 40
0.0
 40
0.0
 40
0.0
 40
0.0
 40
0.1111111111111111
 40
0.1111111111111111
 40
0.1111111111111111
 40
0.1111111111111111
 40
0.2222222222222222
 40
0.2222222222222222
 40
0.2222222222222222
 40
0.2222222222222222
 40
0.3333333333333333
 40
0.3333333333333333
 40
0.3333333333333333
 40
0.3333333333333333
 40
0.4444444444444444
 40
0.4444444444444444
 40
0.4444444444444444
 40
0.4444444444444444
 40
0.5555555555555556
 40
0.5555555555555556
 40
0.5555555555555556
 40
0.5555555555555556
 40
0.6666666666666666
 40
0.6666666666666666
 40
0.6666666666666666
 40
0.6666666666666666
 40
0.7777777777777778
 40
0.7777777777777778
 40
0.7777777777777778
 40
0.7777777777777778
 40
1.0
 40
1.0
 40
1.0
 40
1.0
 10
-172.4616
 20
-30.2793
 30
0.0
 10
-169.3614
 20
-32.7172
 30
0.0
 10
-163.6037
 20
-32.9163
 30
0.0
 10
-161.6113
 20
-32.6221
 30
0.0
 10
-161.6113
 20
-32.6221
 30
0.0
 10
-163.2092
 20
-31.2059
 30
0.0
 10
-164.6286
 20
-27.0546
 30
0.0
 10
-162.3806
 20
-23.2505
 30
0.0
 10
-162.3806
 20
-23.2505
 30
0.0
 10
-163.3279
 20
-22.6355
 30
0.0
 10
-163.2176
 20
-21.4542
 30
0.0
 10
-163.0428
 20
-20.7623
 30
0.0
 10
-163.0428
 20
-20.7623
 30
0.0
 10
-163.4374
 20
-20.7024
 30
0.0
 10
-165.0443
 20
-22.3535
 30
0.0
 10
-166.7874
 20
-24.0015
 30
0.0
 10
-166.7874
 20
-24.0015
 30
0.0
 10
-168.2958
 20
-26.3034
 30
0.0
 10
-166.6354
 20
-28.1947
 30
0.0
 10
-167.6069
 20
-30.0421
 30
0.0
 10
-167.6069
 20
-30.0421
 30
0.0
 10
-168.0555
 20
-30.8995
 30
0.0
 10
-169.4299
 20
-31.1169
 30
0.0
 10
-170.3832
 20
-30.5765
 30
0.0
 10
-170.3832
 20
-30.5765
 30
0.0
 10
-171.0872
 20
-29.9942
 30
0.0
 10
-170.8521
 20
-29.0797
 30
0.0
 10
-170.7192
 20
-28.0079
 30
0.0
 10
-170.7192
 20
-28.0079
 30
0.0
 10
-171.7964
 20
-28.8364
 30
0.0
 10
-172.0966
 20
-29.5549
 30
0.0
 10
-172.4616
 20
-30.2793
 30
0.0
  0
SPLINE
  5
99
330
1F
100
AcDbEntity
  8
layer 1
 62
     7
100
AcDbSpline
210
0.0
220
0.0
230
1.0
 70
    11
 71
     3
 72
    52
 73
    48
 74
     0
 42
0.0000000001
 43
0.0000000001
 12
1.0
 22
0.0
 32
0.0
 13
1.0
 23
0.0
 33
0.0
 40
0.0
 40
0.0
 40
0.0
 40
0.0
 40
0.0769230769230769
 40
0.0769230769230769
 40
0.0769230769230769
 40
0.0769230769230769
 40
0.1538461538461539
 40
0.1538461538461539
 40
0.1538461538461539
 40
0.1538461538461539
 40
0.2307692307692308
 40
0.2307692307692308
 40
0.2307692307692308
 40
0.2307692307692308
 40
0.3076923076923077
 40
0.3076923076923077
 40
0.3076923076923077
 40
0.3076923076923077
 40
0.3846153846153846
 40
0.3846153846153846
 40
0.3846153846153846
 40
0.3846153846153846
 40
0.4615384615384616
 40
0.4615384615384616
 40
0.4615384615384616
 40
0.4615384615384616
 40
0.5384615384615384
 40
0.5384615384615384
 40
0.5384615384615384
 40
0.5384615384615384
 40
0.6153846153846154
 40
0.6153846153846154
 40
0.6153846153846154
 40
0.6153846153846154
 40
0.6923076923076923
 40
0.6923076923076923
 40
0.6923076923076923
 40
0.6923076923076923
 40
0.7692307692307693
 40
0.7692307692307693
 40
0.7692307692307693
 40
0.7692307692307693
 40
0.8461538461538461
 40
0.8461538461538461
 40
0.8461538461538461
 40
0.8461538461538461
 40
1.0
 40
1.0
 40
1.0
 40
1.0
 10
-158.7012
 20
-33.127
 30
0.0
 10
-157.377
 20
-33.032
 30
0.0
 10
-156.3849
 20
-33.4272
 30
0.0
 10
-155.1527
 20
-34.6001
 30
0.0
 10
-155.1527
 20
-34.6001
 30
0.0
 10
-158.4284
 20
-31.5175
 30
0.0
 10
-153.8163
 20
-26.8492
 30
0.0
 10
-151.9126
 20
-30.9118
 30
0.0
 10
-151.9126
 20
-30.9118
 30
0.0
 10
-151.601
 20
-30.8045
 30
0.0
 10
-151.506
 20
-30.784
 30
0.0
 10
-151.2802
 20
-30.7368
 30
0.0
 10
-151.2802
 20
-30.7368
 30
0.0
 10
-151.1974
 20
-30.5377
 30
0.0
 10
-151.1882
 20
-30.1098
 30
0.0
 10
-151.1914
 20
-29.5753
 30
0.0
 10
-151.1914
 20
-29.5753
 30
0.0
 10
-151.7051
 20
-29.4924
 30
0.0
 10
-152.0314
 20
-28.714
 30
0.0
 10
-151.8504
 20
-27.9926
 30
0.0
 10
-151.8504
 20
-27.9926
 30
0.0
 10
-154.0033
 20
-28.1857
 30
0.0
 10
-155.2508
 20
-26.5048
 30
0.0
 10
-154.7224
 20
-24.5482
 30
0.0
 10
-154.7224
 20
-24.5482
 30
0.0
 10
-157.0561
 20
-25.0027
 30
0.0
 10
-158.2323
 20
-22.7601
 30
0.0
 10
-157.8491
 20
-20.4742
 30
0.0
 10
-157.8491
 20
-20.4742
 30
0.0
 10
-159.3787
 20
-22.0001
 30
0.0
 10
-160.0225
 20
-23.4253
 30
0.0
 10
-160.7735
 20
-25.3972
 30
0.0
 10
-160.7735
 20
-25.3972
 30
0.0
 10
-161.3088
 20
-26.8022
 30
0.0
 10
-161.1659
 20
-29.0082
 30
0.0
 10
-159.907
 20
-28.6729
 30
0.0
 10
-159.907
 20
-28.6729
 30
0.0
 10
-158.312
 20
-28.0046
 30
0.0
 10
-156.9878
 20
-28.2449
 30
0.0
 10
-157.5701
 20
-29.757
 30
0.0
 10
-157.5701
 20
-29.757
 30
0.0
 10
-155.8475
 20
-30.6532
 30
0.0
 10
-157.038
 20
-31.9274
 30
0.0
 10
-158.4611
 20
-32.1737
 30
0.0
 10
-158.4611
 20
-32.1737
 30
0.0
 10
-158.22
 20
-32.4474
 30
0.0
 10
-158.309
 20
-32.9277
 30
0.0
 10
-158.7012
 20
-33.127
 30
0.0
  0
SPLINE
  5
9A
330
1F
100
AcDbEntity
  8
layer 1
 62
     7
100
AcDbSpline
210
0.0
220
0.0
230
1.0
 70
    11
 71
     3
 72
    24
 73
    20
 74
     0
 42
0.0000000001
 43
0.0000000001
 12
1.0
 22
0.0
 32
0.0
 13
1.0
 23
0.0
 33
0.0
 40
0.0
 40
0.0
 40
0.0
 40
0.0
 40
0.1666666666666667
 40
0.1666666666666667
 40
0.1666666666666667
 40
0.1666666666666667
 40
0.3333333333333333
 40
0.3333333333333333
 40
0.3333333333333333
 40
0.3333333333333333
 40
0.5
 40
0.5
 40
0.5
 40
0.5
 40
0.6666666666666666
 40
0.6666666666666666
 40
0.6666666666666666
 40
0.6666666666666666
 40
1.0
 40
1.0
 40
1.0
 40
1.0
 10
-143.3963
 20
-6.4815
 30
0.0
 10
-144.1389
 20
-6.0983
 30
0.0
 10
-144.5395
 20
-5.6505
 30
0.0
 10
-145.0116
 20
-5.1153
 30
0.0
 10
-145.0116
 20
-5.1153
 30
0.0
 10
-146.069
 20
-6.1287
 30
0.0
 10
-148.3467
 20
-8.9346
 30
0.0
 10
-149.3296
 20
-9.8133
 30
0.0
 10
-149.3296
 20
-9.8133
 30
0.0
 10
-148.4204
 20
-9.8726
 30
0.0
 10
-148.3314
 20
-10.5592
 30
0.0
 10
-148.2455
 20
-11.0311
 30
0.0
 10
-148.2455
 20
-11.0311
 30
0.0
 10
-147.8746
 20
-9.8521
 30
0.0
 10
-146.4666
 20
-9.2583
 30
0.0
 10
-145.6176
 20
-9.9646
 30
0.0
 10
-145.6176
 20
-9.9646
 30
0.0
 10
-145.7719
 20
-8.2246
 30
0.0
 10
-144.9106
 20
-6.7551
 30
0.0
 10
-143.3963
 20
-6.4815
 30
0.0
  0
SPLINE
  5
9B
330
1F
100
AcDbEntity
  8
layer 1
 62
     7
100
AcDbSpline
210
0.0
220
0.0
230
1.0
 70
    11
 71
     3
 72
    20
 73
    16
 74
     0
 42
0.0000000001
 43
0.0000000001
 12
1.0
 22
0.0
 32
0.0
 13
1.0
 23
0.0
 33
0.0
 40
0.0
 40
0.0
 40
0.0
 40
0.0
 40
0.2
 40
0.2
 40
0.2
 40
0.2
 40
0.4
 40
0.4
 40
0.4
 40
0.4
 40
0.6
 40
0.6
 40
0.6
 40
0.6
 40
1.0
 40
1.0
 40
1.0
 40
1.0
 10
-149.4306
 20
0.3779
 30
0.0
 10
-148.8309
 20
-1.347
 30
0.0
 10
-147.8061
 20
-2.6956
 30
0.0
 10
-147.0308
 20
-3.5151
 30
0.0
 10
-147.0308
 20
-3.5151
 30
0.0
 10
-147.9901
 20
-4.6166
 30
0.0
 10
-151.1737
 20
-7.3906
 30
0.0
 10
-152.0107
 20
-8.4116
 30
0.0
 10
-152.0107
 20
-8.4116
 30
0.0
 10
-151.4437
 20
-6.9687
 30
0.0
 10
-150.8645
 20
-5.1008
 30
0.0
 10
-151.8094
 20
-3.1882
 30
0.0
 10
-151.8094
 20
-3.1882
 30
0.0
 10
-150.137
 20
-2.9298
 30
0.0
 10
-149.3031
 20
-1.5554
 30
0.0
 10
-149.4306
 20
0.3779
 30
0.0
  0
SPLINE
  5
9C
330
1F
100
AcDbEntity
  8
layer 1
 62
     7
100
AcDbSpline
210
0.0
220
0.0
230
1.0
 70
    11
 71
     3
 72
    20
 73
    16
 74
     0
 42
0.0000000001
 43
0.0000000001
 12
1.0
 22
0.0
 32
0.0
 13
1.0
 23
0.0
 33
0.0
 40
0.0
 40
0.0
 40
0.0
 40
0.0
 40
0.2
 40
0.2
 40
0.2
 40
0.2
 40
0.4
 40
0.4
 40
0.4
 40
0.4
 40
0.6
 40
0.6
 40
0.6
 40
0.6
 40
1.0
 40
1.0
 40
1.0
 40
1.0
 10
-171.9485
 20
0.8826
 30
0.0
 10
-169.813
 20
2.4867
 30
0.0
 10
-168.0555
 20
4.286
 30
0.0
 10
-163.8979
 20
6.5308
 30
0.0
 10
-163.8979
 20
6.5308
 30
0.0
 10
-168.6431
 20
5.6848
 30
0.0
 10
-171.452
 20
3.9712
 30
0.0
 10
-173.0766
 20
2.9138
 30
0.0
 10
-173.0766
 20
2.9138
 30
0.0
 10
-173.6201
 20
2.4981
 30
0.0
 10
-174.178
 20
1.8747
 30
0.0
 10
-173.8724
 20
1.2627
 30
0.0
 10
-173.8724
 20
1.2627
 30
0.0
 10
-173.5843
 20
0.5025
 30
0.0
 10
-172.587
 20
0.1163
 30
0.0
 10
-171.9485
 20
0.8826
 30
0.0
  0
SPLINE
  5
9D
330
1F
100
AcDbEntity
  8
layer 1
 62
     7
100
AcDbSpline
210
0.0
220
0.0
230
1.0
 70
    11
 71
     3
 72
    20
 73
    16
 74
     0
 42
0.0000000001
 43
0.0000000001
 12
1.0
 22
0.0
 32
0.0
 13
1.0
 23
0.0
 33
0.0
 40
0.0
 40
0.0
 40
0.0
 40
0.0
 40
0.2
 40
0.2
 40
0.2
 40
0.2
 40
0.4
 40
0.4
 40
0.4
 40
0.4
 40
0.6
 40
0.6
 40
0.6
 40
0.6
 40
1.0
 40
1.0
 40
1.0
 40
1.0
 10
-167.9544
 20
-3.141
 30
0.0
 10
-166.6301
 20
-0.3763
 30
0.0
 10
-165.6524
 20
0.8234
 30
0.0
 10
-162.8375
 20
4.7877
 30
0.0
 10
-162.8375
 20
4.7877
 30
0.0
 10
-166.526
 20
1.9461
 30
0.0
 10
-168.5358
 20
-0.4416
 30
0.0
 10
-169.6109
 20
-2.0571
 30
0.0
 10
-169.6109
 20
-2.0571
 30
0.0
 10
-169.9408
 20
-2.6538
 30
0.0
 10
-170.4341
 20
-3.5599
 30
0.0
 10
-169.9111
 20
-3.9993
 30
0.0
 10
-169.9111
 20
-3.9993
 30
0.0
 10
-169.3439
 20
-4.5839
 30
0.0
 10
-168.4233
 20
-3.9842
 30
0.0
 10
-167.9544
 20
-3.141
 30
0.0
  0
SPLINE
  5
9E
330
1F
100
AcDbEntity
  8
layer 1
 62
     7
100
AcDbSpline
210
0.0
220
0.0
230
1.0
 70
    11
 71
     3
 72
    20
 73
    16
 74
     0
 42
0.0000000001
 43
0.0000000001
 12
1.0
 22
0.0
 32
0.0
 13
1.0
 23
0.0
 33
0.0
 40
0.0
 40
0.0
 40
0.0
 40
0.0
 40
0.2
 40
0.2
 40
0.2
 40
0.2
 40
0.4
 40
0.4
 40
0.4
 40
0.4
 40
0.6
 40
0.6
 40
0.6
 40
0.6
 40
1.0
 40
1.0
 40
1.0
 40
1.0
 10
-162.392
 20
-3.0552
 30
0.0
 10
-162.2203
 20
-1.1098
 30
0.0
 10
-162.5349
 20
-0.2015
 30
0.0
 10
-162.4817
 20
2.1006
 30
0.0
 10
-162.4817
 20
2.1006
 30
0.0
 10
-163.2266
 20
0.8736
 30
0.0
 10
-164.1412
 20
-0.6797
 30
0.0
 10
-164.5571
 20
-3.2125
 30
0.0
 10
-164.5571
 20
-3.2125
 30
0.0
 10
-164.6642
 20
-3.9637
 30
0.0
 10
-164.3495
 20
-4.9108
 30
0.0
 10
-163.669
 20
-4.964
 30
0.0
 10
-163.669
 20
-4.964
 30
0.0
 10
-162.8672
 20
-5.1099
 30
0.0
 10
-162.3571
 20
-4.0495
 30
0.0
 10
-162.392
 20
-3.0552
 30
0.0
  0
SPLINE
  5
9F
330
1F
100
AcDbEntity
  8
layer 1
 62
     7
100
AcDbSpline
210
0.0
220
0.0
230
1.0
 70
    11
 71
     3
 72
    48
 73
    44
 74
     0
 42
0.0000000001
 43
0.0000000001
 12
1.0
 22
0.0
 32
0.0
 13
1.0
 23
0.0
 33
0.0
 40
0.0
 40
0.0
 40
0.0
 40
0.0
 40
0.0833333333333333
 40
0.0833333333333333
 40
0.0833333333333333
 40
0.0833333333333333
 40
0.1666666666666667
 40
0.1666666666666667
 40
0.1666666666666667
 40
0.1666666666666667
 40
0.25
 40
0.25
 40
0.25
 40
0.25
 40
0.3333333333333333
 40
0.3333333333333333
 40
0.3333333333333333
 40
0.3333333333333333
 40
0.4166666666666667
 40
0.4166666666666667
 40
0.4166666666666667
 40
0.4166666666666667
 40
0.5
 40
0.5
 40
0.5
 40
0.5
 40
0.5833333333333334
 40
0.5833333333333334
 40
0.5833333333333334
 40
0.5833333333333334
 40
0.6666666666666666
 40
0.6666666666666666
 40
0.6666666666666666
 40
0.6666666666666666
 40
0.75
 40
0.75
 40
0.75
 40
0.75
 40
0.8333333333333334
 40
0.8333333333333334
 40
0.8333333333333334
 40
0.8333333333333334
 40
1.0
 40
1.0
 40
1.0
 40
1.0
 10
-159.7107
 20
-5.8436
 30
0.0
 10
-159.7997
 20
-6.4578
 30
0.0
 10
-160.8899
 20
-6.6213
 30
0.0
 10
-161.7329
 20
-6.6661
 30
0.0
 10
-161.7329
 20
-6.6661
 30
0.0
 10
-161.4631
 20
-7.0484
 30
0.0
 10
-161.1127
 20
-7.6246
 30
0.0
 10
-162.4489
 20
-8.1804
 30
0.0
 10
-162.4489
 20
-8.1804
 30
0.0
 10
-160.3759
 20
-9.1695
 30
0.0
 10
-161.6318
 20
-10.5971
 30
0.0
 10
-162.5677
 20
-11.1345
 30
0.0
 10
-162.5677
 20
-11.1345
 30
0.0
 10
-161.3413
 20
-11.4942
 30
0.0
 10
-160.3167
 20
-11.2151
 30
0.0
 10
-159.815
 20
-10.4723
 30
0.0
 10
-159.815
 20
-10.4723
 30
0.0
 10
-159.3306
 20
-9.7541
 30
0.0
 10
-157.7776
 20
-9.6591
 30
0.0
 10
-156.943
 20
-9.1572
 30
0.0
 10
-156.943
 20
-9.1572
 30
0.0
 10
-157.6856
 20
-9.0059
 30
0.0
 10
-157.8636
 20
-8.768
 30
0.0
 10
-157.9024
 20
-8.3674
 30
0.0
 10
-157.9024
 20
-8.3674
 30
0.0
 10
-156.6252
 20
-8.0315
 30
0.0
 10
-155.9365
 20
-7.3314
 30
0.0
 10
-155.6399
 20
-7.212
 30
0.0
 10
-155.6399
 20
-7.212
 30
0.0
 10
-155.1049
 20
-6.7582
 30
0.0
 10
-155.1497
 20
-5.6352
 30
0.0
 10
-155.6992
 20
-4.5809
 30
0.0
 10
-155.6992
 20
-4.5809
 30
0.0
 10
-158.9363
 20
0.0661
 30
0.0
 10
-158.4876
 20
5.5245
 30
0.0
 10
-156.2961
 20
6.6047
 30
0.0
 10
-156.2961
 20
6.6047
 30
0.0
 10
-158.8761
 20
7.6233
 30
0.0
 10
-158.8975
 20
3.1929
 30
0.0
 10
-160.7888
 20
2.0381
 30
0.0
 10
-160.7888
 20
2.0381
 30
0.0
 10
-161.4273
 20
-0.406
 30
0.0
 10
-161.365
 20
-3.8002
 30
0.0
 10
-159.7107
 20
-5.8436
 30
0.0
  0
SPLINE
  5
A0
330
1F
100
AcDbEntity
  8
layer 1
 62
     7
100
AcDbSpline
210
0.0
220
0.0
230
1.0
 70
    11
 71
     3
 72
    32
 73
    28
 74
     0
 42
0.0000000001
 43
0.0000000001
 12
1.0
 22
0.0
 32
0.0
 13
1.0
 23
0.0
 33
0.0
 40
0.0
 40
0.0
 40
0.0
 40
0.0
 40
0.125
 40
0.125
 40
0.125
 40
0.125
 40
0.25
 40
0.25
 40
0.25
 40
0.25
 40
0.375
 40
0.375
 40
0.375
 40
0.375
 40
0.5
 40
0.5
 40
0.5
 40
0.5
 40
0.625
 40
0.625
 40
0.625
 40
0.625
 40
0.75
 40
0.75
 40
0.75
 40
0.75
 40
1.0
 40
1.0
 40
1.0
 40
1.0
 10
-153.754
 20
-36.0195
 30
0.0
 10
-153.2788
 20
-36.4529
 30
0.0
 10
-153.24
 20
-36.3996
 30
0.0
 10
-152.8302
 20
-37.1362
 30
0.0
 10
-152.8302
 20
-37.1362
 30
0.0
 10
-152.8364
 20
-36.3548
 30
0.0
 10
-152.4001
 20
-33.9023
 30
0.0
 10
-150.5885
 20
-33.1003
 30
0.0
 10
-150.5885
 20
-33.1003
 30
0.0
 10
-150.9328
 20
-32.8359
 30
0.0
 10
-150.9481
 20
-32.2982
 30
0.0
 10
-151.0871
 20
-31.7403
 30
0.0
 10
-151.0871
 20
-31.7403
 30
0.0
 10
-151.2414
 20
-31.6514
 30
0.0
 10
-151.417
 20
-31.7852
 30
0.0
 10
-151.7226
 20
-31.8233
 30
0.0
 10
-151.7226
 20
-31.8233
 30
0.0
 10
-151.5713
 20
-32.4116
 30
0.0
 10
-151.8032
 20
-32.9012
 30
0.0
 10
-152.3346
 20
-33.2783
 30
0.0
 10
-152.3346
 20
-33.2783
 30
0.0
 10
-152.3195
 20
-32.3401
 30
0.0
 10
-153.0713
 20
-31.5412
 30
0.0
 10
-153.944
 20
-32.1052
 30
0.0
 10
-153.944
 20
-32.1052
 30
0.0
 10
-154.8349
 20
-32.6017
 30
0.0
 10
-154.5705
 20
-35.2328
 30
0.0
 10
-153.754
 20
-36.0195
 30
0.0
  0
SPLINE
  5
A1
330
1F
100
AcDbEntity
  8
layer 1
 62
     7
100
AcDbSpline
210
0.0
220
0.0
230
1.0
 70
    11
 71
     3
 72
    68
 73
    64
 74
     0
 42
0.0000000001
 43
0.0000000001
 12
1.0
 22
0.0
 32
0.0
 13
1.0
 23
0.0
 33
0.0
 40
0.0
 40
0.0
 40
0.0
 40
0.0
 40
0.0588235294117647
 40
0.0588235294117647
 40
0.0588235294117647
 40
0.0588235294117647
 40
0.1176470588235294
 40
0.1176470588235294
 40
0.1176470588235294
 40
0.1176470588235294
 40
0.1764705882352941
 40
0.1764705882352941
 40
0.1764705882352941
 40
0.1764705882352941
 40
0.2352941176470588
 40
0.2352941176470588
 40
0.2352941176470588
 40
0.2352941176470588
 40
0.2941176470588235
 40
0.2941176470588235
 40
0.2941176470588235
 40
0.2941176470588235
 40
0.3529411764705883
 40
0.3529411764705883
 40
0.3529411764705883
 40
0.3529411764705883
 40
0.4117647058823529
 40
0.4117647058823529
 40
0.4117647058823529
 40
0.4117647058823529
 40
0.4705882352941176
 40
0.4705882352941176
 40
0.4705882352941176
 40
0.4705882352941176
 40
0.5294117647058824
 40
0.5294117647058824
 40
0.5294117647058824
 40
0.5294117647058824
 40
0.5882352941176471
 40
0.5882352941176471
 40
0.5882352941176471
 40
0.5882352941176471
 40
0.6470588235294118
 40
0.6470588235294118
 40
0.6470588235294118
 40
0.6470588235294118
 40
0.7058823529411765
 40
0.7058823529411765
 40
0.7058823529411765
 40
0.7058823529411765
 40
0.7647058823529411
 40
0.7647058823529411
 40
0.7647058823529411
 40
0.7647058823529411
 40
0.8235294117647058
 40
0.8235294117647058
 40
0.8235294117647058
 40
0.8235294117647058
 40
0.8823529411764706
 40
0.8823529411764706
 40
0.8823529411764706
 40
0.8823529411764706
 40
1.0
 40
1.0
 40
1.0
 40
1.0
 10
-142.6984
 20
-0.2782
 30
0.0
 10
-143.5332
 20
-0.2424
 30
0.0
 10
-143.9786
 20
-0.3495
 30
0.0
 10
-144.6733
 20
0.0426
 30
0.0
 10
-144.6733
 20
0.0426
 30
0.0
 10
-144.8871
 20
1.1707
 30
0.0
 10
-144.6194
 20
1.6907
 30
0.0
 10
-144.3464
 20
2.4949
 30
0.0
 10
-144.3464
 20
2.4949
 30
0.0
 10
-145.1189
 20
2.5932
 30
0.0
 10
-145.8495
 20
2.9048
 30
0.0
 10
-146.2591
 20
3.389
 30
0.0
 10
-146.2591
 20
3.389
 30
0.0
 10
-146.2653
 20
3.7958
 30
0.0
 10
-145.8525
 20
4.5681
 30
0.0
 10
-145.0414
 20
4.5558
 30
0.0
 10
-145.0414
 20
4.5558
 30
0.0
 10
-145.0832
 20
5.1769
 30
0.0
 10
-145.4336
 20
5.4857
 30
0.0
 10
-145.8852
 20
5.4171
 30
0.0
 10
-145.8852
 20
5.4171
 30
0.0
 10
-146.6211
 20
5.3047
 30
0.0
 10
-147.5005
 20
5.4887
 30
0.0
 10
-147.3309
 20
6.4146
 30
0.0
 10
-147.3309
 20
6.4146
 30
0.0
 10
-147.8716
 20
6.439
 30
0.0
 10
-148.2843
 20
6.765
 30
0.0
 10
-148.5459
 20
6.8547
 30
0.0
 10
-148.5459
 20
6.8547
 30
0.0
 10
-148.1567
 20
3.2286
 30
0.0
 10
-146.6864
 20
0.0426
 30
0.0
 10
-144.5845
 20
-2.1461
 30
0.0
 10
-144.5845
 20
-2.1461
 30
0.0
 10
-142.4969
 20
-4.3499
 30
0.0
 10
-139.6934
 20
-5.9143
 30
0.0
 10
-136.0945
 20
-6.1727
 30
0.0
 10
-136.0945
 20
-6.1727
 30
0.0
 10
-136.1714
 20
-5.9083
 30
0.0
 10
-136.48
 20
-5.481
 30
0.0
 10
-136.4777
 20
-4.9405
 30
0.0
 10
-136.4777
 20
-4.9405
 30
0.0
 10
-137.4096
 20
-5.0651
 30
0.0
 10
-137.3025
 20
-4.4563
 30
0.0
 10
-137.1573
 20
-3.7226
 30
0.0
 10
-137.1573
 20
-3.7226
 30
0.0
 10
-137.0683
 20
-3.2778
 30
0.0
 10
-137.3627
 20
-2.9123
 30
0.0
 10
-137.9798
 20
-2.8408
 30
0.0
 10
-137.9798
 20
-2.8408
 30
0.0
 10
-138.0035
 20
-3.6519
 30
0.0
 10
-138.7963
 20
-4.029
 30
0.0
 10
-139.2008
 20
-4.0055
 30
0.0
 10
-139.2008
 20
-4.0055
 30
0.0
 10
-139.6636
 20
-3.5713
 30
0.0
 10
-139.9427
 20
-2.8294
 30
0.0
 10
-140.005
 20
-2.051
 30
0.0
 10
-140.005
 20
-2.051
 30
0.0
 10
-140.8215
 20
-2.2859
 30
0.0
 10
-141.3537
 20
-2.5322
 30
0.0
 10
-142.4725
 20
-2.2646
 30
0.0
 10
-142.4725
 20
-2.2646
 30
0.0
 10
-142.8322
 20
-1.5522
 30
0.0
 10
-142.7014
 20
-1.1128
 30
0.0
 10
-142.6984
 20
-0.2782
 30
0.0
  0
SPLINE
  5
A2
330
1F
100
AcDbEntity
  8
layer 1
 62
     7
100
AcDbSpline
210
0.0
220
0.0
230
1.0
 70
    11
 71
     3
 72
    24
 73
    20
 74
     0
 42
0.0000000001
 43
0.0000000001
 12
1.0
 22
0.0
 32
0.0
 13
1.0
 23
0.0
 33
0.0
 40
0.0
 40
0.0
 40
0.0
 40
0.0
 40
0.1666666666666667
 40
0.1666666666666667
 40
0.1666666666666667
 40
0.1666666666666667
 40
0.3333333333333333
 40
0.3333333333333333
 40
0.3333333333333333
 40
0.3333333333333333
 40
0.5
 40
0.5
 40
0.5
 40
0.5
 40
0.6666666666666666
 40
0.6666666666666666
 40
0.6666666666666666
 40
0.6666666666666666
 40
1.0
 40
1.0
 40
1.0
 40
1.0
 10
-114.0216
 20
-107.712
 30
0.0
 10
-114.0216
 20
-107.712
 30
0.0
 10
-129.6596
 20
-107.712
 30
0.0
 10
-129.6596
 20
-107.712
 30
0.0
 10
-129.6596
 20
-107.712
 30
0.0
 10
-127.8808
 20
-106.1891
 30
0.0
 10
-126.4258
 20
-104.4758
 30
0.0
 10
-125.4427
 20
-102.2955
 30
0.0
 10
-125.4427
 20
-102.2955
 30
0.0
 10
-124.8932
 20
-103.2344
 30
0.0
 10
-124.3291
 20
-104.2941
 30
0.0
 10
-123.4145
 20
-104.7161
 30
0.0
 10
-123.4145
 20
-104.7161
 30
0.0
 10
-122.6636
 20
-103.7125
 30
0.0
 10
-122.3192
 20
-102.6079
 30
0.0
 10
-122.2681
 20
-100.9834
 30
0.0
 10
-122.2681
 20
-100.9834
 30
0.0
 10
-121.1461
 20
-102.6491
 30
0.0
 10
-118.702
 20
-105.9392
 30
0.0
 10
-114.0216
 20
-107.712
 30
0.0
  0
SPLINE
  5
A3
330
1F
100
AcDbEntity
  8
layer 1
 62
     7
100
AcDbSpline
210
0.0
220
0.0
230
1.0
 70
    11
 71
     3
 72
    16
 73
    12
 74
     0
 42
0.0000000001
 43
0.0000000001
 12
1.0
 22
0.0
 32
0.0
 13
1.0
 23
0.0
 33
0.0
 40
0.0
 40
0.0
 40
0.0
 40
0.0
 40
0.25
 40
0.25
 40
0.25
 40
0.25
 40
0.5
 40
0.5
 40
0.5
 40
0.5
 40
1.0
 40
1.0
 40
1.0
 40
1.0
 10
-91.5609
 20
-107.712
 30
0.0
 10
-91.5609
 20
-107.712
 30
0.0
 10
-103.5903
 20
-107.712
 30
0.0
 10
-103.5903
 20
-107.712
 30
0.0
 10
-103.5903
 20
-107.712
 30
0.0
 10
-98.3016
 20
-106.1801
 30
0.0
 10
-93.7282
 20
-101.7436
 30
0.0
 10
-91.5609
 20
-95.3148
 30
0.0
 10
-91.5609
 20
-95.3148
 30
0.0
 10
-91.5609
 20
-98.4322
 30
0.0
 10
-91.5609
 20
-103.1303
 30
0.0
 10
-91.5609
 20
-107.712
 30
0.0
  0
SPLINE
  5
A4
330
1F
100
AcDbEntity
  8
layer 1
 62
     7
100
AcDbSpline
210
0.0
220
0.0
230
1.0
 70
    11
 71
     3
 72
    24
 73
    20
 74
     0
 42
0.0000000001
 43
0.0000000001
 12
1.0
 22
0.0
 32
0.0
 13
1.0
 23
0.0
 33
0.0
 40
0.0
 40
0.0
 40
0.0
 40
0.0
 40
0.1666666666666667
 40
0.1666666666666667
 40
0.1666666666666667
 40
0.1666666666666667
 40
0.3333333333333333
 40
0.3333333333333333
 40
0.3333333333333333
 40
0.3333333333333333
 40
0.5
 40
0.5
 40
0.5
 40
0.5
 40
0.6666666666666666
 40
0.6666666666666666
 40
0.6666666666666666
 40
0.6666666666666666
 40
1.0
 40
1.0
 40
1.0
 40
1.0
 10
-97.4342
 20
-92.5763
 30
0.0
 10
-98.4293
 20
-92.5916
 30
0.0
 10
-98.9575
 20
-92.7011
 30
0.0
 10
-99.7177
 20
-93.1381
 30
0.0
 10
-99.7177
 20
-93.1381
 30
0.0
 10
-99.8128
 20
-91.7098
 30
0.0
 10
-102.2713
 20
-91.3084
 30
0.0
 10
-102.9753
 20
-91.6588
 30
0.0
 10
-102.9753
 20
-91.6588
 30
0.0
 10
-102.3784
 20
-88.0989
 30
0.0
 10
-107.2725
 20
-86.7237
 30
0.0
 10
-108.2791
 20
-89.1115
 30
0.0
 10
-108.2791
 20
-89.1115
 30
0.0
 10
-111.4179
 20
-85.1114
 30
0.0
 10
-103.575
 20
-79.46
 30
0.0
 10
-98.6991
 20
-87.2551
 30
0.0
 10
-98.6991
 20
-87.2551
 30
0.0
 10
-100.4332
 20
-86.8575
 30
0.0
 10
-101.1309
 20
-88.4637
 30
0.0
 10
-97.4342
 20
-92.5763
 30
0.0
  0
SPLINE
  5
A5
330
1F
100
AcDbEntity
  8
layer 1
 62
     7
100
AcDbSpline
210
0.0
220
0.0
230
1.0
 70
    11
 71
     3
 72
    24
 73
    20
 74
     0
 42
0.0000000001
 43
0.0000000001
 12
1.0
 22
0.0
 32
0.0
 13
1.0
 23
0.0
 33
0.0
 40
0.0
 40
0.0
 40
0.0
 40
0.0
 40
0.1666666666666667
 40
0.1666666666666667
 40
0.1666666666666667
 40
0.1666666666666667
 40
0.3333333333333333
 40
0.3333333333333333
 40
0.3333333333333333
 40
0.3333333333333333
 40
0.5
 40
0.5
 40
0.5
 40
0.5
 40
0.6666666666666666
 40
0.6666666666666666
 40
0.6666666666666666
 40
0.6666666666666666
 40
1.0
 40
1.0
 40
1.0
 40
1.0
 10
-123.863
 20
-73.272
 30
0.0
 10
-124.8575
 20
-79.7072
 30
0.0
 10
-128.7123
 20
-80.2355
 30
0.0
 10
-130.7847
 20
-79.7839
 30
0.0
 10
-130.7847
 20
-79.7839
 30
0.0
 10
-131.5805
 20
-79.8043
 30
0.0
 10
-131.6755
 20
-81.7498
 30
0.0
 10
-131.3016
 20
-82.4742
 30
0.0
 10
-131.3016
 20
-82.4742
 30
0.0
 10
-132.5786
 20
-82.7563
 30
0.0
 10
-133.8407
 20
-82.6938
 30
0.0
 10
-134.7072
 20
-82.3648
 30
0.0
 10
-134.7072
 20
-82.3648
 30
0.0
 10
-134.7072
 20
-82.3648
 30
0.0
 10
-134.7818
 20
-70.9945
 30
0.0
 10
-134.7818
 20
-70.9945
 30
0.0
 10
-134.7818
 20
-70.9945
 30
0.0
 10
-132.4062
 20
-76.1372
 30
0.0
 10
-126.3807
 20
-76.981
 30
0.0
 10
-123.863
 20
-73.272
 30
0.0
  0
SPLINE
  5
A6
330
1F
100
AcDbEntity
  8
layer 1
 62
     7
100
AcDbSpline
210
0.0
220
0.0
230
1.0
 70
    11
 71
     3
 72
    32
 73
    28
 74
     0
 42
0.0000000001
 43
0.0000000001
 12
1.0
 22
0.0
 32
0.0
 13
1.0
 23
0.0
 33
0.0
 40
0.0
 40
0.0
 40
0.0
 40
0.0
 40
0.125
 40
0.125
 40
0.125
 40
0.125
 40
0.25
 40
0.25
 40
0.25
 40
0.25
 40
0.375
 40
0.375
 40
0.375
 40
0.375
 40
0.5
 40
0.5
 40
0.5
 40
0.5
 40
0.625
 40
0.625
 40
0.625
 40
0.625
 40
0.75
 40
0.75
 40
0.75
 40
0.75
 40
1.0
 40
1.0
 40
1.0
 40
1.0
 10
-126.298
 20
-85.5006
 30
0.0
 10
-126.5921
 20
-89.5918
 30
0.0
 10
-125.5735
 20
-101.5118
 30
0.0
 10
-130.8325
 20
-103.4479
 30
0.0
 10
-130.8325
 20
-103.4479
 30
0.0
 10
-130.3634
 20
-102.3463
 30
0.0
 10
-131.0196
 20
-100.2589
 30
0.0
 10
-132.8014
 20
-100.5175
 30
0.0
 10
-132.8014
 20
-100.5175
 30
0.0
 10
-132.5786
 20
-99.8135
 30
0.0
 10
-132.9969
 20
-98.9522
 30
0.0
 10
-133.7692
 20
-98.997
 30
0.0
 10
-133.7692
 20
-98.997
 30
0.0
 10
-131.7317
 20
-95.7716
 30
0.0
 10
-131.2893
 20
-89.9668
 30
0.0
 10
-133.7039
 20
-85.943
 30
0.0
 10
-133.7039
 20
-85.943
 30
0.0
 10
-132.3202
 20
-86.7207
 30
0.0
 10
-130.2653
 20
-86.5784
 30
0.0
 10
-129.0004
 20
-85.1349
 30
0.0
 10
-129.0004
 20
-85.1349
 30
0.0
 10
-129.0864
 20
-85.7643
 30
0.0
 10
-129.0179
 20
-86.7411
 30
0.0
 10
-128.8134
 20
-87.4604
 30
0.0
 10
-128.8134
 20
-87.4604
 30
0.0
 10
-127.934
 20
-87.5044
 30
0.0
 10
-127.2125
 20
-86.3558
 30
0.0
 10
-126.298
 20
-85.5006
 30
0.0
  0
SPLINE
  5
A7
330
1F
100
AcDbEntity
  8
layer 1
 62
     7
100
AcDbSpline
210
0.0
220
0.0
230
1.0
 70
    11
 71
     3
 72
    64
 73
    60
 74
     0
 42
0.0000000001
 43
0.0000000001
 12
1.0
 22
0.0
 32
0.0
 13
1.0
 23
0.0
 33
0.0
 40
0.0
 40
0.0
 40
0.0
 40
0.0
 40
0.0625
 40
0.0625
 40
0.0625
 40
0.0625
 40
0.125
 40
0.125
 40
0.125
 40
0.125
 40
0.1875
 40
0.1875
 40
0.1875
 40
0.1875
 40
0.25
 40
0.25
 40
0.25
 40
0.25
 40
0.3125
 40
0.3125
 40
0.3125
 40
0.3125
 40
0.375
 40
0.375
 40
0.375
 40
0.375
 40
0.4375
 40
0.4375
 40
0.4375
 40
0.4375
 40
0.5
 40
0.5
 40
0.5
 40
0.5
 40
0.5625
 40
0.5625
 40
0.5625
 40
0.5625
 40
0.625
 40
0.625
 40
0.625
 40
0.625
 40
0.6875
 40
0.6875
 40
0.6875
 40
0.6875
 40
0.75
 40
0.75
 40
0.75
 40
0.75
 40
0.8125
 40
0.8125
 40
0.8125
 40
0.8125
 40
0.875
 40
0.875
 40
0.875
 40
0.875
 40
1.0
 40
1.0
 40
1.0
 40
1.0
 10
-126.2532
 20
-51.856
 30
0.0
 10
-123.8744
 20
-52.2473
 30
0.0
 10
-120.0887
 20
-54.4185
 30
0.0
 10
-116.1662
 20
-57.9489
 30
0.0
 10
-116.1662
 20
-57.9489
 30
0.0
 10
-118.4139
 20
-57.3612
 30
0.0
 10
-126.2857
 20
-56.1646
 30
0.0
 10
-120.335
 20
-60.5
 30
0.0
 10
-120.335
 20
-60.5
 30
0.0
 10
-122.6901
 20
-60.1852
 30
0.0
 10
-127.1981
 20
-60.1822
 30
0.0
 10
-127.1677
 20
-61.679
 30
0.0
 10
-127.1677
 20
-61.679
 30
0.0
 10
-127.1235
 20
-63.7248
 30
0.0
 10
-122.7373
 20
-62.9501
 30
0.0
 10
-122.0546
 20
-63.2436
 30
0.0
 10
-122.0546
 20
-63.2436
 30
0.0
 10
-122.3602
 20
-64.0007
 30
0.0
 10
-122.6991
 20
-64.4553
 30
0.0
 10
-122.4468
 20
-64.91
 30
0.0
 10
-122.4468
 20
-64.91
 30
0.0
 10
-122.1761
 20
-65.4026
 30
0.0
 10
-120.7061
 20
-65.2063
 30
0.0
 10
-119.7915
 20
-65.483
 30
0.0
 10
-119.7915
 20
-65.483
 30
0.0
 10
-121.3864
 20
-66.9024
 30
0.0
 10
-122.0158
 20
-67.6801
 30
0.0
 10
-122.1701
 20
-69.2422
 30
0.0
 10
-122.1701
 20
-69.2422
 30
0.0
 10
-122.7168
 20
-68.619
 30
0.0
 10
-123.4564
 20
-68.4822
 30
0.0
 10
-124.3261
 20
-69.0073
 30
0.0
 10
-124.3261
 20
-69.0073
 30
0.0
 10
-124.7275
 20
-68.7315
 30
0.0
 10
-124.3321
 20
-66.2402
 30
0.0
 10
-125.2322
 20
-66.1157
 30
0.0
 10
-125.2322
 20
-66.1157
 30
0.0
 10
-126.0926
 20
-65.9963
 30
0.0
 10
-126.6781
 20
-68.0305
 30
0.0
 10
-127.1235
 20
-68.948
 30
0.0
 10
-127.1235
 20
-68.948
 30
0.0
 10
-127.7409
 20
-68.3514
 30
0.0
 10
-129.1547
 20
-67.9947
 30
0.0
 10
-129.3297
 20
-70.2427
 30
0.0
 10
-129.3297
 20
-70.2427
 30
0.0
 10
-134.4702
 20
-67.4901
 30
0.0
 10
-134.2321
 20
-61.4441
 30
0.0
 10
-133.9827
 20
-58.4361
 30
0.0
 10
-133.9827
 20
-58.4361
 30
0.0
 10
-132.3674
 20
-60.5266
 30
0.0
 10
-129.4185
 20
-61.9315
 30
0.0
 10
-127.9695
 20
-56.8329
 30
0.0
 10
-127.9695
 20
-56.8329
 30
0.0
 10
-126.3215
 20
-57.1833
 30
0.0
 10
-127.144
 20
-53.7533
 30
0.0
 10
-126.9395
 20
-54.4718
 30
0.0
 10
-126.9395
 20
-54.4718
 30
0.0
 10
-125.778
 20
-54.5605
 30
0.0
 10
-125.8526
 20
-53.228
 30
0.0
 10
-126.2532
 20
-51.856
 30
0.0
  0
SPLINE
  5
A8
330
1F
100
AcDbEntity
  8
layer 1
 62
     7
100
AcDbSpline
210
0.0
220
0.0
230
1.0
 70
    11
 71
     3
 72
    56
 73
    52
 74
     0
 42
0.0000000001
 43
0.0000000001
 12
1.0
 22
0.0
 32
0.0
 13
1.0
 23
0.0
 33
0.0
 40
0.0
 40
0.0
 40
0.0
 40
0.0
 40
0.0714285714285714
 40
0.0714285714285714
 40
0.0714285714285714
 40
0.0714285714285714
 40
0.1428571428571428
 40
0.1428571428571428
 40
0.1428571428571428
 40
0.1428571428571428
 40
0.2142857142857143
 40
0.2142857142857143
 40
0.2142857142857143
 40
0.2142857142857143
 40
0.2857142857142857
 40
0.2857142857142857
 40
0.2857142857142857
 40
0.2857142857142857
 40
0.3571428571428572
 40
0.3571428571428572
 40
0.3571428571428572
 40
0.3571428571428572
 40
0.4285714285714285
 40
0.4285714285714285
 40
0.4285714285714285
 40
0.4285714285714285
 40
0.5
 40
0.5
 40
0.5
 40
0.5
 40
0.5714285714285714
 40
0.5714285714285714
 40
0.5714285714285714
 40
0.5714285714285714
 40
0.6428571428571429
 40
0.6428571428571429
 40
0.6428571428571429
 40
0.6428571428571429
 40
0.7142857142857143
 40
0.7142857142857143
 40
0.7142857142857143
 40
0.7142857142857143
 40
0.7857142857142857
 40
0.7857142857142857
 40
0.7857142857142857
 40
0.7857142857142857
 40
0.8571428571428571
 40
0.8571428571428571
 40
0.8571428571428571
 40
0.8571428571428571
 40
1.0
 40
1.0
 40
1.0
 40
1.0
 10
-122.9243
 20
-37.4236
 30
0.0
 10
-121.7187
 20
-38.7517
 30
0.0
 10
-120.6057
 20
-38.722
 30
0.0
 10
-119.305
 20
-38.6414
 30
0.0
 10
-119.305
 20
-38.6414
 30
0.0
 10
-121.4874
 20
-43.1494
 30
0.0
 10
-120.7302
 20
-48.5064
 30
0.0
 10
-119.4295
 20
-52.1408
 30
0.0
 10
-119.4295
 20
-52.1408
 30
0.0
 10
-125.2649
 20
-46.0563
 30
0.0
 10
-134.0338
 20
-45.9757
 30
0.0
 10
-130.8827
 20
-55.9123
 30
0.0
 10
-130.8827
 20
-55.9123
 30
0.0
 10
-131.3814
 20
-56.2064
 30
0.0
 10
-131.741
 20
-57.5155
 30
0.0
 10
-131.741
 20
-57.5155
 30
0.0
 10
-131.741
 20
-57.5155
 30
0.0
 10
-131.8778
 20
-56.8001
 30
0.0
 10
-132.264
 20
-56.1168
 30
0.0
 10
-132.9018
 20
-55.9358
 30
0.0
 10
-132.9018
 20
-55.9358
 30
0.0
 10
-132.3233
 20
-53.5777
 30
0.0
 10
-133.4811
 20
-51.0067
 30
0.0
 10
-134.5415
 20
-49.6519
 30
0.0
 10
-134.5415
 20
-49.6519
 30
0.0
 10
-133.4423
 20
-49.1443
 30
0.0
 10
-132.8128
 20
-47.0749
 30
0.0
 10
-133.3358
 20
-46.2464
 30
0.0
 10
-133.3358
 20
-46.2464
 30
0.0
 10
-131.9281
 20
-46.3558
 30
0.0
 10
-131.2689
 20
-45.4922
 30
0.0
 10
-131.3404
 20
-44.3009
 30
0.0
 10
-131.3404
 20
-44.3009
 30
0.0
 10
-130.6006
 20
-44.9662
 30
0.0
 10
-129.3418
 20
-44.3307
 30
0.0
 10
-129.2347
 20
-43.5355
 30
0.0
 10
-129.2347
 20
-43.5355
 30
0.0
 10
-128.7535
 20
-44.6696
 30
0.0
 10
-127.5782
 20
-46.5907
 30
0.0
 10
-125.689
 20
-46.2996
 30
0.0
 10
-125.689
 20
-46.2996
 30
0.0
 10
-123.7468
 20
-44.9692
 30
0.0
 10
-124.7327
 20
-42.4842
 30
0.0
 10
-125.2048
 20
-40.7615
 30
0.0
 10
-125.2048
 20
-40.7615
 30
0.0
 10
-123.9787
 20
-41.1089
 30
0.0
 10
-123.4413
 20
-39.3219
 30
0.0
 10
-123.8007
 20
-38.6323
 30
0.0
 10
-123.8007
 20
-38.6323
 30
0.0
 10
-123.296
 20
-38.5373
 30
0.0
 10
-122.7616
 20
-38.0919
 30
0.0
 10
-122.9243
 20
-37.4236
 30
0.0
  0
SPLINE
  5
A9
330
1F
100
AcDbEntity
  8
layer 1
 62
     7
100
AcDbSpline
210
0.0
220
0.0
230
1.0
 70
    11
 71
     3
 72
    56
 73
    52
 74
     0
 42
0.0000000001
 43
0.0000000001
 12
1.0
 22
0.0
 32
0.0
 13
1.0
 23
0.0
 33
0.0
 40
0.0
 40
0.0
 40
0.0
 40
0.0
 40
0.0714285714285714
 40
0.0714285714285714
 40
0.0714285714285714
 40
0.0714285714285714
 40
0.1428571428571428
 40
0.1428571428571428
 40
0.1428571428571428
 40
0.1428571428571428
 40
0.2142857142857143
 40
0.2142857142857143
 40
0.2142857142857143
 40
0.2142857142857143
 40
0.2857142857142857
 40
0.2857142857142857
 40
0.2857142857142857
 40
0.2857142857142857
 40
0.3571428571428572
 40
0.3571428571428572
 40
0.3571428571428572
 40
0.3571428571428572
 40
0.4285714285714285
 40
0.4285714285714285
 40
0.4285714285714285
 40
0.4285714285714285
 40
0.5
 40
0.5
 40
0.5
 40
0.5
 40
0.5714285714285714
 40
0.5714285714285714
 40
0.5714285714285714
 40
0.5714285714285714
 40
0.6428571428571429
 40
0.6428571428571429
 40
0.6428571428571429
 40
0.6428571428571429
 40
0.7142857142857143
 40
0.7142857142857143
 40
0.7142857142857143
 40
0.7142857142857143
 40
0.7857142857142857
 40
0.7857142857142857
 40
0.7857142857142857
 40
0.7857142857142857
 40
0.8571428571428571
 40
0.8571428571428571
 40
0.8571428571428571
 40
0.8571428571428571
 40
1.0
 40
1.0
 40
1.0
 40
1.0
 10
-91.5609
 20
-87.1486
 30
0.0
 10
-92.2703
 20
-87.1661
 30
0.0
 10
-92.1485
 20
-87.1783
 30
0.0
 10
-92.8167
 20
-87.1898
 30
0.0
 10
-92.8167
 20
-87.1898
 30
0.0
 10
-92.87
 20
-86.3466
 30
0.0
 10
-92.2763
 20
-79.9237
 30
0.0
 10
-92.8197
 20
-78.7918
 30
0.0
 10
-92.8197
 20
-78.7918
 30
0.0
 10
-94.6816
 20
-79.0473
 30
0.0
 10
-95.1923
 20
-80.592
 30
0.0
 10
-96.2878
 20
-82.1124
 30
0.0
 10
-96.2878
 20
-82.1124
 30
0.0
 10
-97.7936
 20
-79.134
 30
0.0
 10
-100.1838
 20
-78.1121
 30
0.0
 10
-101.4761
 20
-75.1132
 30
0.0
 10
-101.4761
 20
-75.1132
 30
0.0
 10
-103.4177
 20
-70.6054
 30
0.0
 10
-103.5545
 20
-65.3606
 30
0.0
 10
-100.4278
 20
-63.5766
 30
0.0
 10
-100.4278
 20
-63.5766
 30
0.0
 10
-100.57
 20
-63.9832
 30
0.0
 10
-101.0214
 20
-65.3287
 30
0.0
 10
-100.4657
 20
-66.2669
 30
0.0
 10
-100.4657
 20
-66.2669
 30
0.0
 10
-100.0651
 20
-66.5313
 30
0.0
 10
-99.4919
 20
-66.4745
 30
0.0
 10
-98.658
 20
-66.1392
 30
0.0
 10
-98.658
 20
-66.1392
 30
0.0
 10
-98.2453
 20
-66.1392
 30
0.0
 10
-98.6603
 20
-67.4901
 30
0.0
 10
-97.4637
 20
-67.4573
 30
0.0
 10
-97.4637
 20
-67.4573
 30
0.0
 10
-96.3122
 20
-67.4278
 30
0.0
 10
-96.7272
 20
-65.9993
 30
0.0
 10
-96.3417
 20
-65.747
 30
0.0
 10
-96.3417
 20
-65.747
 30
0.0
 10
-95.9228
 20
-65.4739
 30
0.0
 10
-95.1832
 20
-66.2075
 30
0.0
 10
-94.9369
 20
-65.4944
 30
0.0
 10
-94.9369
 20
-65.4944
 30
0.0
 10
-94.7734
 20
-65.0225
 30
0.0
 10
-93.4697
 20
-62.567
 30
0.0
 10
-97.286
 20
-59.9269
 30
0.0
 10
-97.286
 20
-59.9269
 30
0.0
 10
-95.2046
 20
-58.5311
 30
0.0
 10
-92.9118
 20
-54.9885
 30
0.0
 10
-91.5609
 20
-50.9057
 30
0.0
 10
-91.5609
 20
-50.9057
 30
0.0
 10
-91.5609
 20
-50.9057
 30
0.0
 10
-91.5609
 20
-87.1486
 30
0.0
 10
-91.5609
 20
-87.1486
 30
0.0
  0
SPLINE
  5
AA
330
1F
100
AcDbEntity
  8
layer 1
 62
     7
100
AcDbSpline
210
0.0
220
0.0
230
1.0
 70
    11
 71
     3
 72
    32
 73
    28
 74
     0
 42
0.0000000001
 43
0.0000000001
 12
1.0
 22
0.0
 32
0.0
 13
1.0
 23
0.0
 33
0.0
 40
0.0
 40
0.0
 40
0.0
 40
0.0
 40
0.125
 40
0.125
 40
0.125
 40
0.125
 40
0.25
 40
0.25
 40
0.25
 40
0.25
 40
0.375
 40
0.375
 40
0.375
 40
0.375
 40
0.5
 40
0.5
 40
0.5
 40
0.5
 40
0.625
 40
0.625
 40
0.625
 40
0.625
 40
0.75
 40
0.75
 40
0.75
 40
0.75
 40
1.0
 40
1.0
 40
1.0
 40
1.0
 10
-99.8188
 20
-98.4801
 30
0.0
 10
-97.9572
 20
-101.6008
 30
0.0
 10
-102.7768
 20
-104.1991
 30
0.0
 10
-103.9437
 20
-103.8698
 30
0.0
 10
-103.9437
 20
-103.8698
 30
0.0
 10
-100.4308
 20
-99.4538
 30
0.0
 10
-102.1853
 20
-99.2965
 30
0.0
 10
-103.1386
 20
-99.8165
 30
0.0
 10
-103.1386
 20
-99.8165
 30
0.0
 10
-102.3131
 20
-96.6564
 30
0.0
 10
-104.1482
 20
-95.7541
 30
0.0
 10
-105.0155
 20
-95.2227
 30
0.0
 10
-105.0155
 20
-95.2227
 30
0.0
 10
-104.3413
 20
-94.7915
 30
0.0
 10
-103.7894
 20
-94.2602
 30
0.0
 10
-103.3735
 20
-93.0758
 30
0.0
 10
-103.3735
 20
-93.0758
 30
0.0
 10
-103.6077
 20
-93.972
 30
0.0
 10
-102.3693
 20
-95.4751
 30
0.0
 10
-101.3811
 20
-95.5701
 30
0.0
 10
-101.3811
 20
-95.5701
 30
0.0
 10
-102.4439
 20
-95.8074
 30
0.0
 10
-102.6757
 20
-96.556
 30
0.0
 10
-101.7817
 20
-97.1436
 30
0.0
 10
-101.7817
 20
-97.1436
 30
0.0
 10
-101.179
 20
-97.539
 30
0.0
 10
-100.3655
 20
-97.3992
 30
0.0
 10
-99.8188
 20
-98.4801
 30
0.0
  0
SPLINE
  5
AB
330
1F
100
AcDbEntity
  8
layer 1
 62
     7
100
AcDbSpline
210
0.0
220
0.0
230
1.0
 70
    11
 71
     3
 72
    16
 73
    12
 74
     0
 42
0.0000000001
 43
0.0000000001
 12
1.0
 22
0.0
 32
0.0
 13
1.0
 23
0.0
 33
0.0
 40
0.0
 40
0.0
 40
0.0
 40
0.0
 40
0.25
 40
0.25
 40
0.25
 40
0.25
 40
0.5
 40
0.5
 40
0.5
 40
0.5
 40
1.0
 40
1.0
 40
1.0
 40
1.0
 10
-91.5609
 20
-37.3142
 30
0.0
 10
-92.3295
 20
-33.9403
 30
0.0
 10
-93.6811
 20
-31.7106
 30
0.0
 10
-95.2015
 20
-29.7867
 30
0.0
 10
-95.2015
 20
-29.7867
 30
0.0
 10
-93.4789
 20
-28.4503
 30
0.0
 10
-92.1963
 20
-26.5232
 30
0.0
 10
-91.5609
 20
-23.9955
 30
0.0
 10
-91.5609
 20
-23.9955
 30
0.0
 10
-91.5609
 20
-23.9955
 30
0.0
 10
-91.5609
 20
-37.3142
 30
0.0
 10
-91.5609
 20
-37.3142
 30
0.0
  0
SPLINE
  5
AC
330
1F
100
AcDbEntity
  8
layer 1
 62
     7
100
AcDbSpline
210
0.0
220
0.0
230
1.0
 70
    11
 71
     3
 72
    28
 73
    24
 74
     0
 42
0.0000000001
 43
0.0000000001
 12
1.0
 22
0.0
 32
0.0
 13
1.0
 23
0.0
 33
0.0
 40
0.0
 40
0.0
 40
0.0
 40
0.0
 40
0.1428571428571428
 40
0.1428571428571428
 40
0.1428571428571428
 40
0.1428571428571428
 40
0.2857142857142857
 40
0.2857142857142857
 40
0.2857142857142857
 40
0.2857142857142857
 40
0.4285714285714285
 40
0.4285714285714285
 40
0.4285714285714285
 40
0.4285714285714285
 40
0.5714285714285714
 40
0.5714285714285714
 40
0.5714285714285714
 40
0.5714285714285714
 40
0.7142857142857143
 40
0.7142857142857143
 40
0.7142857142857143
 40
0.7142857142857143
 40
1.0
 40
1.0
 40
1.0
 40
1.0
 10
-96.8436
 20
-27.2621
 30
0.0
 10
-99.1088
 20
-24.5215
 30
0.0
 10
-100.9327
 20
-22.8019
 30
0.0
 10
-104.5048
 20
-19.895
 30
0.0
 10
-104.5048
 20
-19.895
 30
0.0
 10
-102.6042
 20
-20.3731
 30
0.0
 10
-101.0389
 20
-19.4823
 30
0.0
 10
-100.8999
 20
-17.5666
 30
0.0
 10
-100.8999
 20
-17.5666
 30
0.0
 10
-99.1415
 20
-19.28
 30
0.0
 10
-95.5041
 20
-18.2409
 30
0.0
 10
-97.0009
 20
-14.5767
 30
0.0
 10
-97.0009
 20
-14.5767
 30
0.0
 10
-94.0816
 20
-15.622
 30
0.0
 10
-93.1969
 20
-19.4998
 30
0.0
 10
-94.2064
 20
-20.9578
 30
0.0
 10
-94.2064
 20
-20.9578
 30
0.0
 10
-96.686
 20
-17.7657
 30
0.0
 10
-100.0119
 20
-22.2615
 30
0.0
 10
-96.4186
 20
-24.0229
 30
0.0
 10
-96.4186
 20
-24.0229
 30
0.0
 10
-96.1161
 20
-24.9753
 30
0.0
 10
-96.3447
 20
-25.9469
 30
0.0
 10
-96.8436
 20
-27.2621
 30
0.0
  0
SPLINE
  5
AD
330
1F
100
AcDbEntity
  8
layer 1
 62
     7
100
AcDbSpline
210
0.0
220
0.0
230
1.0
 70
    11
 71
     3
 72
    68
 73
    64
 74
     0
 42
0.0000000001
 43
0.0000000001
 12
1.0
 22
0.0
 32
0.0
 13
1.0
 23
0.0
 33
0.0
 40
0.0
 40
0.0
 40
0.0
 40
0.0
 40
0.0588235294117647
 40
0.0588235294117647
 40
0.0588235294117647
 40
0.0588235294117647
 40
0.1176470588235294
 40
0.1176470588235294
 40
0.1176470588235294
 40
0.1176470588235294
 40
0.1764705882352941
 40
0.1764705882352941
 40
0.1764705882352941
 40
0.1764705882352941
 40
0.2352941176470588
 40
0.2352941176470588
 40
0.2352941176470588
 40
0.2352941176470588
 40
0.2941176470588235
 40
0.2941176470588235
 40
0.2941176470588235
 40
0.2941176470588235
 40
0.3529411764705883
 40
0.3529411764705883
 40
0.3529411764705883
 40
0.3529411764705883
 40
0.4117647058823529
 40
0.4117647058823529
 40
0.4117647058823529
 40
0.4117647058823529
 40
0.4705882352941176
 40
0.4705882352941176
 40
0.4705882352941176
 40
0.4705882352941176
 40
0.5294117647058824
 40
0.5294117647058824
 40
0.5294117647058824
 40
0.5294117647058824
 40
0.5882352941176471
 40
0.5882352941176471
 40
0.5882352941176471
 40
0.5882352941176471
 40
0.6470588235294118
 40
0.6470588235294118
 40
0.6470588235294118
 40
0.6470588235294118
 40
0.7058823529411765
 40
0.7058823529411765
 40
0.7058823529411765
 40
0.7058823529411765
 40
0.7647058823529411
 40
0.7647058823529411
 40
0.7647058823529411
 40
0.7647058823529411
 40
0.8235294117647058
 40
0.8235294117647058
 40
0.8235294117647058
 40
0.8235294117647058
 40
0.8823529411764706
 40
0.8823529411764706
 40
0.8823529411764706
 40
0.8823529411764706
 40
1.0
 40
1.0
 40
1.0
 40
1.0
 10
-91.5609
 20
-14.6095
 30
0.0
 10
-92.7575
 20
-10.3835
 30
0.0
 10
-99.2693
 20
-8.3939
 30
0.0
 10
-101.5977
 20
-14.8056
 30
0.0
 10
-101.5977
 20
-14.8056
 30
0.0
 10
-103.8159
 20
-11.0996
 30
0.0
 10
-105.7195
 20
-12.9726
 30
0.0
 10
-104.2941
 20
-15.758
 30
0.0
 10
-104.2941
 20
-15.758
 30
0.0
 10
-104.6059
 20
-15.7998
 30
0.0
 10
-105.5857
 20
-16.3463
 30
0.0
 10
-104.3975
 20
-16.9613
 30
0.0
 10
-104.3975
 20
-16.9613
 30
0.0
 10
-106.9631
 20
-17.7125
 30
0.0
 10
-111.3731
 20
-14.8138
 30
0.0
 10
-112.071
 20
-13.5876
 30
0.0
 10
-112.071
 20
-13.5876
 30
0.0
 10
-109.5737
 20
-14.4101
 30
0.0
 10
-103.8631
 20
-13.2075
 30
0.0
 10
-107.0049
 20
-9.0766
 30
0.0
 10
-107.0049
 20
-9.0766
 30
0.0
 10
-105.6922
 20
-9.3268
 30
0.0
 10
-104.368
 20
-8.3551
 30
0.0
 10
-104.4546
 20
-7.307
 30
0.0
 10
-104.4546
 20
-7.307
 30
0.0
 10
-103.4595
 20
-8.1743
 30
0.0
 10
-102.735
 20
-7.9843
 30
0.0
 10
-102.2066
 20
-7.6839
 30
0.0
 10
-102.2066
 20
-7.6839
 30
0.0
 10
-100.5881
 20
-9.6446
 30
0.0
 10
-97.4607
 20
-9.8399
 30
0.0
 10
-98.8062
 20
-5.6885
 30
0.0
 10
-98.8062
 20
-5.6885
 30
0.0
 10
-97.6568
 20
-5.0325
 30
0.0
 10
-97.9686
 20
-3.5806
 30
0.0
 10
-98.7226
 20
-2.9656
 30
0.0
 10
-98.7226
 20
-2.9656
 30
0.0
 10
-97.6243
 20
-3.0847
 30
0.0
 10
-96.8283
 20
-2.8408
 30
0.0
 10
-96.3919
 20
-1.873
 30
0.0
 10
-96.3919
 20
-1.873
 30
0.0
 10
-93.9274
 20
-3.2892
 30
0.0
 10
-91.5609
 20
-0.9434
 30
0.0
 10
-95.4386
 20
1.4976
 30
0.0
 10
-95.4386
 20
1.4976
 30
0.0
 10
-94.7171
 20
2.4684
 30
0.0
 10
-94.8419
 20
3.5555
 30
0.0
 10
-95.9997
 20
3.9919
 30
0.0
 10
-95.9997
 20
3.9919
 30
0.0
 10
-95.139
 20
4.4252
 30
0.0
 10
-94.8154
 20
5.31
 30
0.0
 10
-95.0259
 20
5.9669
 30
0.0
 10
-95.0259
 20
5.9669
 30
0.0
 10
-93.5291
 20
5.6992
 30
0.0
 10
-92.8228
 20
5.8953
 30
0.0
 10
-92.5461
 20
6.8661
 30
0.0
 10
-92.5461
 20
6.8661
 30
0.0
 10
-92.0983
 20
7.0296
 30
0.0
 10
-92.0414
 20
7.0296
 30
0.0
 10
-91.5609
 20
7.0234
 30
0.0
 10
-91.5609
 20
7.0234
 30
0.0
 10
-91.5609
 20
7.0234
 30
0.0
 10
-91.5609
 20
-14.6095
 30
0.0
 10
-91.5609
 20
-14.6095
 30
0.0
  0
SPLINE
  5
AE
330
1F
100
AcDbEntity
  8
layer 1
 62
     7
100
AcDbSpline
210
0.0
220
0.0
230
1.0
 70
    11
 71
     3
 72
    20
 73
    16
 74
     0
 42
0.0000000001
 43
0.0000000001
 12
1.0
 22
0.0
 32
0.0
 13
1.0
 23
0.0
 33
0.0
 40
0.0
 40
0.0
 40
0.0
 40
0.0
 40
0.2
 40
0.2
 40
0.2
 40
0.2
 40
0.4
 40
0.4
 40
0.4
 40
0.4
 40
0.6
 40
0.6
 40
0.6
 40
0.6
 40
1.0
 40
1.0
 40
1.0
 40
1.0
 10
-132.6769
 20
-11.2539
 30
0.0
 10
-132.6769
 20
-9.8164
 30
0.0
 10
-131.5091
 20
-8.6525
 30
0.0
 10
-130.0753
 20
-8.6525
 30
0.0
 10
-130.0753
 20
-8.6525
 30
0.0
 10
-128.6378
 20
-8.6525
 30
0.0
 10
-127.4739
 20
-9.8164
 30
0.0
 10
-127.4739
 20
-11.2539
 30
0.0
 10
-127.4739
 20
-11.2539
 30
0.0
 10
-127.4739
 20
-12.6905
 30
0.0
 10
-128.6378
 20
-13.8553
 30
0.0
 10
-130.0753
 20
-13.8553
 30
0.0
 10
-130.0753
 20
-13.8553
 30
0.0
 10
-131.5091
 20
-13.8553
 30
0.0
 10
-132.6769
 20
-12.6905
 30
0.0
 10
-132.6769
 20
-11.2539
 30
0.0
  0
SPLINE
  5
AF
330
1F
100
AcDbEntity
  8
layer 1
 62
     7
100
AcDbSpline
210
0.0
220
0.0
230
1.0
 70
    11
 71
     3
 72
    20
 73
    16
 74
     0
 42
0.0000000001
 43
0.0000000001
 12
1.0
 22
0.0
 32
0.0
 13
1.0
 23
0.0
 33
0.0
 40
0.0
 40
0.0
 40
0.0
 40
0.0
 40
0.2
 40
0.2
 40
0.2
 40
0.2
 40
0.4
 40
0.4
 40
0.4
 40
0.4
 40
0.6
 40
0.6
 40
0.6
 40
0.6
 40
1.0
 40
1.0
 40
1.0
 40
1.0
 10
-119.6105
 20
2.2874
 30
0.0
 10
-119.6105
 20
3.395
 30
0.0
 10
-118.7104
 20
4.2944
 30
0.0
 10
-117.6028
 20
4.2944
 30
0.0
 10
-117.6028
 20
4.2944
 30
0.0
 10
-116.4952
 20
4.2944
 30
0.0
 10
-115.596
 20
3.395
 30
0.0
 10
-115.596
 20
2.2874
 30
0.0
 10
-115.596
 20
2.2874
 30
0.0
 10
-115.596
 20
1.1768
 30
0.0
 10
-116.4952
 20
0.2799
 30
0.0
 10
-117.6028
 20
0.2799
 30
0.0
 10
-117.6028
 20
0.2799
 30
0.0
 10
-118.7104
 20
0.2799
 30
0.0
 10
-119.6105
 20
1.1768
 30
0.0
 10
-119.6105
 20
2.2874
 30
0.0
  0
SPLINE
  5
B0
330
1F
100
AcDbEntity
  8
layer 1
 62
     7
100
AcDbSpline
210
0.0
220
0.0
230
1.0
 70
    11
 71
     3
 72
    20
 73
    16
 74
     0
 42
0.0000000001
 43
0.0000000001
 12
1.0
 22
0.0
 32
0.0
 13
1.0
 23
0.0
 33
0.0
 40
0.0
 40
0.0
 40
0.0
 40
0.0
 40
0.2
 40
0.2
 40
0.2
 40
0.2
 40
0.4
 40
0.4
 40
0.4
 40
0.4
 40
0.6
 40
0.6
 40
0.6
 40
0.6
 40
1.0
 40
1.0
 40
1.0
 40
1.0
 10
-127.8183
 20
-42.2728
 30
0.0
 10
-128.9974
 20
-42.3503
 30
0.0
 10
-129.2855
 20
-41.6616
 30
0.0
 10
-129.7424
 20
-40.8301
 30
0.0
 10
-129.7424
 20
-40.8301
 30
0.0
 10
-131.5007
 20
-36.7942
 30
0.0
 10
-132.7771
 20
-32.3135
 30
0.0
 10
-133.294
 20
-27.1313
 30
0.0
 10
-133.294
 20
-27.1313
 30
0.0
 10
-131.3814
 20
-31.9007
 30
0.0
 10
-129.7098
 20
-36.4057
 30
0.0
 10
-127.6314
 20
-39.7992
 30
0.0
 10
-127.6314
 20
-39.7992
 30
0.0
 10
-127.1052
 20
-40.6338
 30
0.0
 10
-126.8294
 20
-41.8661
 30
0.0
 10
-127.8183
 20
-42.2728
 30
0.0
  0
SPLINE
  5
B1
330
1F
100
AcDbEntity
  8
layer 1
 62
     7
100
AcDbSpline
210
0.0
220
0.0
230
1.0
 70
    11
 71
     3
 72
    20
 73
    16
 74
     0
 42
0.0000000001
 43
0.0000000001
 12
1.0
 22
0.0
 32
0.0
 13
1.0
 23
0.0
 33
0.0
 40
0.0
 40
0.0
 40
0.0
 40
0.0
 40
0.2
 40
0.2
 40
0.2
 40
0.2
 40
0.4
 40
0.4
 40
0.4
 40
0.4
 40
0.6
 40
0.6
 40
0.6
 40
0.6
 40
1.0
 40
1.0
 40
1.0
 40
1.0
 10
-123.0519
 20
-35.7077
 30
0.0
 10
-123.527
 20
-36.141
 30
0.0
 10
-124.2166
 20
-36.0635
 30
0.0
 10
-124.6948
 20
-35.6303
 30
0.0
 10
-124.6948
 20
-35.6303
 30
0.0
 10
-126.6658
 20
-33.9586
 30
0.0
 10
-129.2254
 20
-31.577
 30
0.0
 10
-131.9759
 20
-26.2678
 30
0.0
 10
-131.9759
 20
-26.2678
 30
0.0
 10
-129.1577
 20
-29.2166
 30
0.0
 10
-127.0102
 20
-30.7931
 30
0.0
 10
-123.8927
 20
-33.0645
 30
0.0
 10
-123.8927
 20
-33.0645
 30
0.0
 10
-123.0017
 20
-33.5601
 30
0.0
 10
-122.2354
 20
-34.9179
 30
0.0
 10
-123.0519
 20
-35.7077
 30
0.0
  0
SPLINE
  5
B2
330
1F
100
AcDbEntity
  8
layer 1
 62
     7
100
AcDbSpline
210
0.0
220
0.0
230
1.0
 70
    11
 71
     3
 72
    20
 73
    16
 74
     0
 42
0.0000000001
 43
0.0000000001
 12
1.0
 22
0.0
 32
0.0
 13
1.0
 23
0.0
 33
0.0
 40
0.0
 40
0.0
 40
0.0
 40
0.0
 40
0.2
 40
0.2
 40
0.2
 40
0.2
 40
0.4
 40
0.4
 40
0.4
 40
0.4
 40
0.6
 40
0.6
 40
0.6
 40
0.6
 40
1.0
 40
1.0
 40
1.0
 40
1.0
 10
-120.7091
 20
-27.1229
 30
0.0
 10
-120.8192
 20
-27.7583
 30
0.0
 10
-121.4099
 20
-28.1234
 30
0.0
 10
-122.0516
 20
-28.0732
 30
0.0
 10
-122.0516
 20
-28.0732
 30
0.0
 10
-124.6346
 20
-27.9691
 30
0.0
 10
-127.8062
 20
-27.1761
 30
0.0
 10
-131.3251
 20
-24.1506
 30
0.0
 10
-131.3251
 20
-24.1506
 30
0.0
 10
-127.4261
 20
-25.0529
 30
0.0
 10
-126.1437
 20
-25.5515
 30
0.0
 10
-122.9987
 20
-25.5578
 30
0.0
 10
-122.9987
 20
-25.5578
 30
0.0
 10
-121.9923
 20
-25.4003
 30
0.0
 10
-120.5516
 20
-26.0002
 30
0.0
 10
-120.7091
 20
-27.1229
 30
0.0
  0
SPLINE
  5
B3
330
1F
100
AcDbEntity
  8
layer 1
 62
     7
100
AcDbSpline
210
0.0
220
0.0
230
1.0
 70
    11
 71
     3
 72
    40
 73
    36
 74
     0
 42
0.0000000001
 43
0.0000000001
 12
1.0
 22
0.0
 32
0.0
 13
1.0
 23
0.0
 33
0.0
 40
0.0
 40
0.0
 40
0.0
 40
0.0
 40
0.1
 40
0.1
 40
0.1
 40
0.1
 40
0.2
 40
0.2
 40
0.2
 40
0.2
 40
0.3
 40
0.3
 40
0.3
 40
0.3
 40
0.4
 40
0.4
 40
0.4
 40
0.4
 40
0.5
 40
0.5
 40
0.5
 40
0.5
 40
0.6
 40
0.6
 40
0.6
 40
0.6
 40
0.7
 40
0.7
 40
0.7
 40
0.7
 40
0.8
 40
0.8
 40
0.8
 40
0.8
 40
1.0
 40
1.0
 40
1.0
 40
1.0
 10
-117.5944
 20
-20.2721
 30
0.0
 10
-118.7706
 20
-20.1945
 30
0.0
 10
-119.628
 20
-21.626
 30
0.0
 10
-119.6045
 20
-22.7336
 30
0.0
 10
-119.6045
 20
-22.7336
 30
0.0
 10
-121.5497
 20
-23.2178
 30
0.0
 10
-124.4743
 20
-22.992
 30
0.0
 10
-127.3996
 20
-22.0274
 30
0.0
 10
-127.3996
 20
-22.0274
 30
0.0
 10
-131.8983
 20
-20.2691
 30
0.0
 10
-130.2533
 20
-16.9372
 30
0.0
 10
-134.5742
 20
-17.6114
 30
0.0
 10
-134.5742
 20
-17.6114
 30
0.0
 10
-134.5589
 20
-17.1333
 30
0.0
 10
-134.6479
 20
-16.1032
 30
0.0
 10
-134.6365
 20
-15.3932
 30
0.0
 10
-134.6365
 20
-15.3932
 30
0.0
 10
-129.3745
 20
-17.121
 30
0.0
 10
-127.934
 20
-15.6486
 30
0.0
 10
-126.1528
 20
-14.5584
 30
0.0
 10
-126.1528
 20
-14.5584
 30
0.0
 10
-124.1688
 20
-13.3474
 30
0.0
 10
-122.3632
 20
-13.7602
 30
0.0
 10
-121.6478
 20
-16.8094
 30
0.0
 10
-121.6478
 20
-16.8094
 30
0.0
 10
-120.8071
 20
-16.5601
 30
0.0
 10
-120.4718
 20
-15.8119
 30
0.0
 10
-120.3145
 20
-14.2856
 30
0.0
 10
-120.3145
 20
-14.2856
 30
0.0
 10
-119.8066
 20
-16.8124
 30
0.0
 10
-118.8085
 20
-17.6532
 30
0.0
 10
-116.525
 20
-19.6008
 30
0.0
 10
-116.525
 20
-19.6008
 30
0.0
 10
-115.1055
 20
-21.2724
 30
0.0
 10
-116.2164
 20
-22.6773
 30
0.0
 10
-117.5944
 20
-20.2721
 30
0.0
  0
SPLINE
  5
B4
330
1F
100
AcDbEntity
  8
layer 1
 62
     7
100
AcDbSpline
210
0.0
220
0.0
230
1.0
 70
    11
 71
     3
 72
    16
 73
    12
 74
     0
 42
0.0000000001
 43
0.0000000001
 12
1.0
 22
0.0
 32
0.0
 13
1.0
 23
0.0
 33
0.0
 40
0.0
 40
0.0
 40
0.0
 40
0.0
 40
0.25
 40
0.25
 40
0.25
 40
0.25
 40
0.5
 40
0.5
 40
0.5
 40
0.5
 40
1.0
 40
1.0
 40
1.0
 40
1.0
 10
-133.7364
 20
-107.712
 30
0.0
 10
-134.9514
 20
-107.712
 30
0.0
 10
-136.1684
 20
-107.712
 30
0.0
 10
-137.3862
 20
-107.712
 30
0.0
 10
-137.3862
 20
-107.712
 30
0.0
 10
-136.3143
 20
-107.0293
 30
0.0
 10
-135.8984
 20
-106.6522
 30
0.0
 10
-135.5601
 20
-104.8018
 30
0.0
 10
-135.5601
 20
-104.8018
 30
0.0
 10
-135.2211
 20
-106.6522
 30
0.0
 10
-134.8053
 20
-107.0293
 30
0.0
 10
-133.7364
 20
-107.712
 30
0.0
  0
SPLINE
  5
B5
330
1F
100
AcDbEntity
  8
layer 1
 62
     7
100
AcDbSpline
210
0.0
220
0.0
230
1.0
 70
    11
 71
     3
 72
    80
 73
    76
 74
     0
 42
0.0000000001
 43
0.0000000001
 12
1.0
 22
0.0
 32
0.0
 13
1.0
 23
0.0
 33
0.0
 40
0.0
 40
0.0
 40
0.0
 40
0.0
 40
0.05
 40
0.05
 40
0.05
 40
0.05
 40
0.1
 40
0.1
 40
0.1
 40
0.1
 40
0.15
 40
0.15
 40
0.15
 40
0.15
 40
0.2
 40
0.2
 40
0.2
 40
0.2
 40
0.25
 40
0.25
 40
0.25
 40
0.25
 40
0.3
 40
0.3
 40
0.3
 40
0.3
 40
0.35
 40
0.35
 40
0.35
 40
0.35
 40
0.4
 40
0.4
 40
0.4
 40
0.4
 40
0.45
 40
0.45
 40
0.45
 40
0.45
 40
0.5
 40
0.5
 40
0.5
 40
0.5
 40
0.55
 40
0.55
 40
0.55
 40
0.55
 40
0.6
 40
0.6
 40
0.6
 40
0.6
 40
0.65
 40
0.65
 40
0.65
 40
0.65
 40
0.7
 40
0.7
 40
0.7
 40
0.7
 40
0.75
 40
0.75
 40
0.75
 40
0.75
 40
0.8
 40
0.8
 40
0.8
 40
0.8
 40
0.85
 40
0.85
 40
0.85
 40
0.85
 40
0.9
 40
0.9
 40
0.9
 40
0.9
 40
1.0
 40
1.0
 40
1.0
 40
1.0
 10
-105.1821
 20
-98.8184
 30
0.0
 10
-106.8325
 20
-98.0674
 30
0.0
 10
-107.284
 20
-98.6406
 30
0.0
 10
-107.0551
 20
-99.3323
 30
0.0
 10
-107.0551
 20
-99.3323
 30
0.0
 10
-106.8536
 20
-99.9413
 30
0.0
 10
-106.0076
 20
-100.5584
 30
0.0
 10
-106.5832
 20
-101.6365
 30
0.0
 10
-106.5832
 20
-101.6365
 30
0.0
 10
-107.6109
 20
-102.5571
 30
0.0
 10
-108.1841
 20
-102.8064
 30
0.0
 10
-109.3061
 20
-102.982
 30
0.0
 10
-109.3061
 20
-102.982
 30
0.0
 10
-107.991
 20
-101.3103
 30
0.0
 10
-108.8607
 20
-99.3795
 30
0.0
 10
-109.9386
 20
-98.9696
 30
0.0
 10
-109.9386
 20
-98.9696
 30
0.0
 10
-115.4887
 20
-103.4154
 30
0.0
 10
-120.5341
 20
-94.5278
 30
0.0
 10
-121.1933
 20
-92.6897
 30
0.0
 10
-121.1933
 20
-92.6897
 30
0.0
 10
-119.8568
 20
-93.4286
 30
0.0
 10
-118.88
 20
-93.735
 30
0.0
 10
-117.4128
 20
-94.1416
 30
0.0
 10
-117.4128
 20
-94.1416
 30
0.0
 10
-117.232
 20
-92.6776
 30
0.0
 10
-117.4729
 20
-90.9968
 30
0.0
 10
-118.4909
 20
-89.8655
 30
0.0
 10
-118.4909
 20
-89.8655
 30
0.0
 10
-119.0761
 20
-89.2179
 30
0.0
 10
-118.969
 20
-88.0478
 30
0.0
 10
-118.4079
 20
-87.3441
 30
0.0
 10
-118.4079
 20
-87.3441
 30
0.0
 10
-123.4798
 20
-84.3839
 30
0.0
 10
-121.036
 20
-83.0862
 30
0.0
 10
-119.5985
 20
-85.1114
 30
0.0
 10
-119.5985
 20
-85.1114
 30
0.0
 10
-115.0045
 20
-89.4405
 30
0.0
 10
-117.7366
 20
-84.3572
 30
0.0
 10
-117.942
 20
-83.1188
 30
0.0
 10
-117.942
 20
-83.1188
 30
0.0
 10
-118.3486
 20
-81.6812
 30
0.0
 10
-118.2239
 20
-80.9691
 30
0.0
 10
-117.2768
 20
-80.1465
 30
0.0
 10
-117.2768
 20
-80.1465
 30
0.0
 10
-122.6218
 20
-76.6306
 30
0.0
 10
-119.0046
 20
-71.2348
 30
0.0
 10
-117.0684
 20
-69.0644
 30
0.0
 10
-117.0684
 20
-69.0644
 30
0.0
 10
-116.8161
 20
-68.3453
 30
0.0
 10
-118.1883
 20
-72.9216
 30
0.0
 10
-117.1695
 20
-75.0653
 30
0.0
 10
-117.1695
 20
-75.0653
 30
0.0
 10
-116.4299
 20
-72.1136
 30
0.0
 10
-114.3455
 20
-69.6908
 30
0.0
 10
-111.5487
 20
-70.1035
 30
0.0
 10
-111.5487
 20
-70.1035
 30
0.0
 10
-111.044
 20
-63.4846
 30
0.0
 10
-105.8555
 20
-61.7087
 30
0.0
 10
-103.9939
 20
-62.4955
 30
0.0
 10
-103.9939
 20
-62.4955
 30
0.0
 10
-107.9378
 20
-65.3759
 30
0.0
 10
-106.105
 20
-76.6336
 30
0.0
 10
-103.2899
 20
-78.2104
 30
0.0
 10
-103.2899
 20
-78.2104
 30
0.0
 10
-111.5039
 20
-76.5296
 30
0.0
 10
-114.6601
 20
-82.1717
 30
0.0
 10
-115.4887
 20
-86.1953
 30
0.0
 10
-115.4887
 20
-86.1953
 30
0.0
 10
-116.9704
 20
-95.9349
 30
0.0
 10
-108.7032
 20
-98.0909
 30
0.0
 10
-106.1324
 20
-95.9616
 30
0.0
 10
-106.1324
 20
-95.9616
 30
0.0
 10
-104.894
 20
-96.1873
 30
0.0
 10
-104.8399
 20
-98.2452
 30
0.0
 10
-105.1821
 20
-98.8184
 30
0.0
  0
SPLINE
  5
B6
330
1F
100
AcDbEntity
  8
layer 1
 62
     7
100
AcDbSpline
210
0.0
220
0.0
230
1.0
 70
    11
 71
     3
 72
    88
 73
    84
 74
     0
 42
0.0000000001
 43
0.0000000001
 12
1.0
 22
0.0
 32
0.0
 13
1.0
 23
0.0
 33
0.0
 40
0.0
 40
0.0
 40
0.0
 40
0.0
 40
0.0454545454545455
 40
0.0454545454545455
 40
0.0454545454545455
 40
0.0454545454545455
 40
0.0909090909090909
 40
0.0909090909090909
 40
0.0909090909090909
 40
0.0909090909090909
 40
0.1363636363636364
 40
0.1363636363636364
 40
0.1363636363636364
 40
0.1363636363636364
 40
0.1818181818181818
 40
0.1818181818181818
 40
0.1818181818181818
 40
0.1818181818181818
 40
0.2272727272727273
 40
0.2272727272727273
 40
0.2272727272727273
 40
0.2272727272727273
 40
0.2727272727272727
 40
0.2727272727272727
 40
0.2727272727272727
 40
0.2727272727272727
 40
0.3181818181818182
 40
0.3181818181818182
 40
0.3181818181818182
 40
0.3181818181818182
 40
0.3636363636363636
 40
0.3636363636363636
 40
0.3636363636363636
 40
0.3636363636363636
 40
0.4090909090909091
 40
0.4090909090909091
 40
0.4090909090909091
 40
0.4090909090909091
 40
0.4545454545454545
 40
0.4545454545454545
 40
0.4545454545454545
 40
0.4545454545454545
 40
0.5
 40
0.5
 40
0.5
 40
0.5
 40
0.5454545454545454
 40
0.5454545454545454
 40
0.5454545454545454
 40
0.5454545454545454
 40
0.5909090909090909
 40
0.5909090909090909
 40
0.5909090909090909
 40
0.5909090909090909
 40
0.6363636363636364
 40
0.6363636363636364
 40
0.6363636363636364
 40
0.6363636363636364
 40
0.6818181818181818
 40
0.6818181818181818
 40
0.6818181818181818
 40
0.6818181818181818
 40
0.7272727272727273
 40
0.7272727272727273
 40
0.7272727272727273
 40
0.7272727272727273
 40
0.7727272727272727
 40
0.7727272727272727
 40
0.7727272727272727
 40
0.7727272727272727
 40
0.8181818181818182
 40
0.8181818181818182
 40
0.8181818181818182
 40
0.8181818181818182
 40
0.8636363636363636
 40
0.8636363636363636
 40
0.8636363636363636
 40
0.8636363636363636
 40
0.9090909090909091
 40
0.9090909090909091
 40
0.9090909090909091
 40
0.9090909090909091
 40
1.0
 40
1.0
 40
1.0
 40
1.0
 10
-103.9316
 20
-35.241
 30
0.0
 10
-101.1964
 20
-34.9681
 30
0.0
 10
-99.9375
 20
-34.2825
 30
0.0
 10
-97.2562
 20
-32.6017
 30
0.0
 10
-97.2562
 20
-32.6017
 30
0.0
 10
-97.0213
 20
-33.4774
 30
0.0
 10
-96.855
 20
-35.4075
 30
0.0
 10
-97.2174
 20
-36.9248
 30
0.0
 10
-97.2174
 20
-36.9248
 30
0.0
 10
-97.7702
 20
-37.1536
 30
0.0
 10
-98.1587
 20
-37.685
 30
0.0
 10
-97.9214
 20
-38.4338
 30
0.0
 10
-97.9214
 20
-38.4338
 30
0.0
 10
-98.227
 20
-38.7782
 30
0.0
 10
-98.6254
 20
-38.995
 30
0.0
 10
-99.1355
 20
-39.0185
 30
0.0
 10
-99.1355
 20
-39.0185
 30
0.0
 10
-100.7456
 20
-38.3623
 30
0.0
 10
-101.3751
 20
-40.3997
 30
0.0
 10
-99.8546
 20
-41.3796
 30
0.0
 10
-99.8546
 20
-41.3796
 30
0.0
 10
-101.3688
 20
-43.0483
 30
0.0
 10
-100.4901
 20
-45.0825
 30
0.0
 10
-97.6926
 20
-42.9951
 30
0.0
 10
-97.6926
 20
-42.9951
 30
0.0
 10
-97.0836
 20
-42.6477
 30
0.0
 10
-97.0304
 20
-43.461
 30
0.0
 10
-97.7488
 20
-44.3367
 30
0.0
 10
-97.7488
 20
-44.3367
 30
0.0
 10
-98.8748
 20
-45.6404
 30
0.0
 10
-100.4605
 20
-45.2991
 30
0.0
 10
-100.6178
 20
-45.893
 30
0.0
 10
-100.6178
 20
-45.893
 30
0.0
 10
-100.659
 20
-46.8728
 30
0.0
 10
-99.8098
 20
-47.3008
 30
0.0
 10
-98.9993
 20
-47.7044
 30
0.0
 10
-98.9993
 20
-47.7044
 30
0.0
 10
-102.2066
 20
-49.1093
 30
0.0
 10
-101.6244
 20
-51.3297
 30
0.0
 10
-103.3522
 20
-51.7372
 30
0.0
 10
-103.3522
 20
-51.7372
 30
0.0
 10
-103.9172
 20
-51.8704
 30
0.0
 10
-103.9672
 20
-52.0816
 30
0.0
 10
-103.5666
 20
-52.4322
 30
0.0
 10
-103.5666
 20
-52.4322
 30
0.0
 10
-102.9251
 20
-52.9041
 30
0.0
 10
-101.8737
 20
-53.0349
 30
0.0
 10
-99.6645
 20
-52.9278
 30
0.0
 10
-99.6645
 20
-52.9278
 30
0.0
 10
-103.5689
 20
-57.0996
 30
0.0
 10
-112.2966
 20
-56.3812
 30
0.0
 10
-112.7125
 20
-47.9067
 30
0.0
 10
-112.7125
 20
-47.9067
 30
0.0
 10
-111.3935
 20
-46.5968
 30
0.0
 10
-112.3652
 20
-45.2543
 30
0.0
 10
-113.4728
 20
-44.7914
 30
0.0
 10
-113.4728
 20
-44.7914
 30
0.0
 10
-113.5853
 20
-43.6685
 30
0.0
 10
-113.5116
 20
-43.3097
 30
0.0
 10
-112.8873
 20
-42.2941
 30
0.0
 10
-112.8873
 20
-42.2941
 30
0.0
 10
-113.2918
 20
-42.193
 30
0.0
 10
-114.2238
 20
-41.9049
 30
0.0
 10
-114.9719
 20
-42.2971
 30
0.0
 10
-114.9719
 20
-42.2971
 30
0.0
 10
-114.3158
 20
-40.3907
 30
0.0
 10
-113.3594
 20
-39.6897
 30
0.0
 10
-111.7174
 20
-38.7334
 30
0.0
 10
-111.7174
 20
-38.7334
 30
0.0
 10
-112.1363
 20
-38.0835
 30
0.0
 10
-113.0211
 20
-37.5993
 30
0.0
 10
-114.144
 20
-37.2693
 30
0.0
 10
-114.144
 20
-37.2693
 30
0.0
 10
-110.8089
 20
-36.4529
 30
0.0
 10
-105.1761
 20
-36.046
 30
0.0
 10
-106.0425
 20
-42.2728
 30
0.0
 10
-106.0425
 20
-42.2728
 30
0.0
 10
-110.7283
 20
-36.9636
 30
0.0
 10
-114.4108
 20
-46.9739
 30
0.0
 10
-107.1594
 20
-48.2032
 30
0.0
 10
-107.1594
 20
-48.2032
 30
0.0
 10
-100.7958
 20
-49.2014
 30
0.0
 10
-99.543
 20
-38.8375
 30
0.0
 10
-103.9316
 20
-35.241
 30
0.0
  0
SPLINE
  5
B7
330
1F
100
AcDbEntity
  8
layer 1
 62
     7
100
AcDbSpline
210
0.0
220
0.0
230
1.0
 70
    11
 71
     3
 72
    36
 73
    32
 74
     0
 42
0.0000000001
 43
0.0000000001
 12
1.0
 22
0.0
 32
0.0
 13
1.0
 23
0.0
 33
0.0
 40
0.0
 40
0.0
 40
0.0
 40
0.0
 40
0.1111111111111111
 40
0.1111111111111111
 40
0.1111111111111111
 40
0.1111111111111111
 40
0.2222222222222222
 40
0.2222222222222222
 40
0.2222222222222222
 40
0.2222222222222222
 40
0.3333333333333333
 40
0.3333333333333333
 40
0.3333333333333333
 40
0.3333333333333333
 40
0.4444444444444444
 40
0.4444444444444444
 40
0.4444444444444444
 40
0.4444444444444444
 40
0.5555555555555556
 40
0.5555555555555556
 40
0.5555555555555556
 40
0.5555555555555556
 40
0.6666666666666666
 40
0.6666666666666666
 40
0.6666666666666666
 40
0.6666666666666666
 40
0.7777777777777778
 40
0.7777777777777778
 40
0.7777777777777778
 40
0.7777777777777778
 40
1.0
 40
1.0
 40
1.0
 40
1.0
 10
-98.658
 20
-30.2793
 30
0.0
 10
-101.7582
 20
-32.7172
 30
0.0
 10
-107.5158
 20
-32.9163
 30
0.0
 10
-109.5082
 20
-32.6221
 30
0.0
 10
-109.5082
 20
-32.6221
 30
0.0
 10
-107.9104
 20
-31.2059
 30
0.0
 10
-106.4912
 20
-27.0546
 30
0.0
 10
-108.742
 20
-23.2505
 30
0.0
 10
-108.742
 20
-23.2505
 30
0.0
 10
-107.7919
 20
-22.6355
 30
0.0
 10
-107.902
 20
-21.4542
 30
0.0
 10
-108.077
 20
-20.7623
 30
0.0
 10
-108.077
 20
-20.7623
 30
0.0
 10
-107.6824
 20
-20.7024
 30
0.0
 10
-106.0783
 20
-22.3535
 30
0.0
 10
-104.3352
 20
-24.0015
 30
0.0
 10
-104.3352
 20
-24.0015
 30
0.0
 10
-102.827
 20
-26.3034
 30
0.0
 10
-104.4871
 20
-28.1947
 30
0.0
 10
-103.5157
 20
-30.0421
 30
0.0
 10
-103.5157
 20
-30.0421
 30
0.0
 10
-103.0641
 20
-30.8995
 30
0.0
 10
-101.6897
 20
-31.1169
 30
0.0
 10
-100.7364
 20
-30.5765
 30
0.0
 10
-100.7364
 20
-30.5765
 30
0.0
 10
-100.0326
 20
-29.9942
 30
0.0
 10
-100.2705
 20
-29.0797
 30
0.0
 10
-100.4013
 20
-28.0079
 30
0.0
 10
-100.4013
 20
-28.0079
 30
0.0
 10
-99.3232
 20
-28.8364
 30
0.0
 10
-99.023
 20
-29.5549
 30
0.0
 10
-98.658
 20
-30.2793
 30
0.0
  0
SPLINE
  5
B8
330
1F
100
AcDbEntity
  8
layer 1
 62
     7
100
AcDbSpline
210
0.0
220
0.0
230
1.0
 70
    11
 71
     3
 72
    52
 73
    48
 74
     0
 42
0.0000000001
 43
0.0000000001
 12
1.0
 22
0.0
 32
0.0
 13
1.0
 23
0.0
 33
0.0
 40
0.0
 40
0.0
 40
0.0
 40
0.0
 40
0.0769230769230769
 40
0.0769230769230769
 40
0.0769230769230769
 40
0.0769230769230769
 40
0.1538461538461539
 40
0.1538461538461539
 40
0.1538461538461539
 40
0.1538461538461539
 40
0.2307692307692308
 40
0.2307692307692308
 40
0.2307692307692308
 40
0.2307692307692308
 40
0.3076923076923077
 40
0.3076923076923077
 40
0.3076923076923077
 40
0.3076923076923077
 40
0.3846153846153846
 40
0.3846153846153846
 40
0.3846153846153846
 40
0.3846153846153846
 40
0.4615384615384616
 40
0.4615384615384616
 40
0.4615384615384616
 40
0.4615384615384616
 40
0.5384615384615384
 40
0.5384615384615384
 40
0.5384615384615384
 40
0.5384615384615384
 40
0.6153846153846154
 40
0.6153846153846154
 40
0.6153846153846154
 40
0.6153846153846154
 40
0.6923076923076923
 40
0.6923076923076923
 40
0.6923076923076923
 40
0.6923076923076923
 40
0.7692307692307693
 40
0.7692307692307693
 40
0.7692307692307693
 40
0.7692307692307693
 40
0.8461538461538461
 40
0.8461538461538461
 40
0.8461538461538461
 40
0.8461538461538461
 40
1.0
 40
1.0
 40
1.0
 40
1.0
 10
-112.4214
 20
-33.127
 30
0.0
 10
-113.7426
 20
-33.032
 30
0.0
 10
-114.7347
 20
-33.4272
 30
0.0
 10
-115.9668
 20
-34.6001
 30
0.0
 10
-115.9668
 20
-34.6001
 30
0.0
 10
-112.6942
 20
-31.5175
 30
0.0
 10
-117.3063
 20
-26.8492
 30
0.0
 10
-119.2099
 20
-30.9118
 30
0.0
 10
-119.2099
 20
-30.9118
 30
0.0
 10
-119.5215
 20
-30.8045
 30
0.0
 10
-119.6166
 20
-30.784
 30
0.0
 10
-119.8424
 20
-30.7368
 30
0.0
 10
-119.8424
 20
-30.7368
 30
0.0
 10
-119.9221
 20
-30.5377
 30
0.0
 10
-119.9344
 20
-30.1098
 30
0.0
 10
-119.9284
 20
-29.5753
 30
0.0
 10
-119.9284
 20
-29.5753
 30
0.0
 10
-119.4144
 20
-29.4924
 30
0.0
 10
-119.0882
 20
-28.714
 30
0.0
 10
-119.2692
 20
-27.9926
 30
0.0
 10
-119.2692
 20
-27.9926
 30
0.0
 10
-117.1195
 20
-28.1857
 30
0.0
 10
-115.8688
 20
-26.5048
 30
0.0
 10
-116.3972
 20
-24.5482
 30
0.0
 10
-116.3972
 20
-24.5482
 30
0.0
 10
-114.0634
 20
-25.0027
 30
0.0
 10
-112.8903
 20
-22.7601
 30
0.0
 10
-113.2735
 20
-20.4742
 30
0.0
 10
-113.2735
 20
-20.4742
 30
0.0
 10
-111.7409
 20
-22.0001
 30
0.0
 10
-111.1003
 20
-23.4253
 30
0.0
 10
-110.346
 20
-25.3972
 30
0.0
 10
-110.346
 20
-25.3972
 30
0.0
 10
-109.8108
 20
-26.8022
 30
0.0
 10
-109.9539
 20
-29.0082
 30
0.0
 10
-111.2127
 20
-28.6729
 30
0.0
 10
-111.2127
 20
-28.6729
 30
0.0
 10
-112.8076
 20
-28.0046
 30
0.0
 10
-114.1348
 20
-28.2449
 30
0.0
 10
-113.5495
 20
-29.757
 30
0.0
 10
-113.5495
 20
-29.757
 30
0.0
 10
-115.2721
 20
-30.6532
 30
0.0
 10
-114.0848
 20
-31.9274
 30
0.0
 10
-112.6617
 20
-32.1737
 30
0.0
 10
-112.6617
 20
-32.1737
 30
0.0
 10
-112.9026
 20
-32.4474
 30
0.0
 10
-112.8136
 20
-32.9277
 30
0.0
 10
-112.4214
 20
-33.127
 30
0.0
  0
SPLINE
  5
B9
330
1F
100
AcDbEntity
  8
layer 1
 62
     7
100
AcDbSpline
210
0.0
220
0.0
230
1.0
 70
    11
 71
     3
 72
    24
 73
    20
 74
     0
 42
0.0000000001
 43
0.0000000001
 12
1.0
 22
0.0
 32
0.0
 13
1.0
 23
0.0
 33
0.0
 40
0.0
 40
0.0
 40
0.0
 40
0.0
 40
0.1666666666666667
 40
0.1666666666666667
 40
0.1666666666666667
 40
0.1666666666666667
 40
0.3333333333333333
 40
0.3333333333333333
 40
0.3333333333333333
 40
0.3333333333333333
 40
0.5
 40
0.5
 40
0.5
 40
0.5
 40
0.6666666666666666
 40
0.6666666666666666
 40
0.6666666666666666
 40
0.6666666666666666
 40
1.0
 40
1.0
 40
1.0
 40
1.0
 10
-127.7265
 20
-6.4815
 30
0.0
 10
-126.9837
 20
-6.0983
 30
0.0
 10
-126.5831
 20
-5.6505
 30
0.0
 10
-126.1109
 20
-5.1153
 30
0.0
 10
-126.1109
 20
-5.1153
 30
0.0
 10
-125.0505
 20
-6.1287
 30
0.0
 10
-122.7761
 20
-8.9346
 30
0.0
 10
-121.79
 20
-9.8133
 30
0.0
 10
-121.79
 20
-9.8133
 30
0.0
 10
-122.6991
 20
-9.8726
 30
0.0
 10
-122.7911
 20
-10.5592
 30
0.0
 10
-122.8771
 20
-11.0311
 30
0.0
 10
-122.8771
 20
-11.0311
 30
0.0
 10
-123.248
 20
-9.8521
 30
0.0
 10
-124.656
 20
-9.2583
 30
0.0
 10
-125.502
 20
-9.9646
 30
0.0
 10
-125.502
 20
-9.9646
 30
0.0
 10
-125.3507
 20
-8.2246
 30
0.0
 10
-126.212
 20
-6.7551
 30
0.0
 10
-127.7265
 20
-6.4815
 30
0.0
  0
SPLINE
  5
BA
330
1F
100
AcDbEntity
  8
layer 1
 62
     7
100
AcDbSpline
210
0.0
220
0.0
230
1.0
 70
    11
 71
     3
 72
    20
 73
    16
 74
     0
 42
0.0000000001
 43
0.0000000001
 12
1.0
 22
0.0
 32
0.0
 13
1.0
 23
0.0
 33
0.0
 40
0.0
 40
0.0
 40
0.0
 40
0.0
 40
0.2
 40
0.2
 40
0.2
 40
0.2
 40
0.4
 40
0.4
 40
0.4
 40
0.4
 40
0.6
 40
0.6
 40
0.6
 40
0.6
 40
1.0
 40
1.0
 40
1.0
 40
1.0
 10
-121.6889
 20
0.3779
 30
0.0
 10
-122.2886
 20
-1.347
 30
0.0
 10
-123.3135
 20
-2.6956
 30
0.0
 10
-124.0918
 20
-3.5151
 30
0.0
 10
-124.0918
 20
-3.5151
 30
0.0
 10
-123.1295
 20
-4.6166
 30
0.0
 10
-119.9458
 20
-7.3906
 30
0.0
 10
-119.1119
 20
-8.4116
 30
0.0
 10
-119.1119
 20
-8.4116
 30
0.0
 10
-119.6791
 20
-6.9687
 30
0.0
 10
-120.2583
 20
-5.1008
 30
0.0
 10
-119.311
 20
-3.1882
 30
0.0
 10
-119.311
 20
-3.1882
 30
0.0
 10
-120.9858
 20
-2.9298
 30
0.0
 10
-121.8167
 20
-1.5554
 30
0.0
 10
-121.6889
 20
0.3779
 30
0.0
  0
SPLINE
  5
BB
330
1F
100
AcDbEntity
  8
layer 1
 62
     7
100
AcDbSpline
210
0.0
220
0.0
230
1.0
 70
    11
 71
     3
 72
    20
 73
    16
 74
     0
 42
0.0000000001
 43
0.0000000001
 12
1.0
 22
0.0
 32
0.0
 13
1.0
 23
0.0
 33
0.0
 40
0.0
 40
0.0
 40
0.0
 40
0.0
 40
0.2
 40
0.2
 40
0.2
 40
0.2
 40
0.4
 40
0.4
 40
0.4
 40
0.4
 40
0.6
 40
0.6
 40
0.6
 40
0.6
 40
1.0
 40
1.0
 40
1.0
 40
1.0
 10
-99.1713
 20
0.8826
 30
0.0
 10
-101.3096
 20
2.4867
 30
0.0
 10
-103.0673
 20
4.286
 30
0.0
 10
-107.2217
 20
6.5308
 30
0.0
 10
-107.2217
 20
6.5308
 30
0.0
 10
-102.4764
 20
5.6848
 30
0.0
 10
-99.6675
 20
3.9712
 30
0.0
 10
-98.043
 20
2.9138
 30
0.0
 10
-98.043
 20
2.9138
 30
0.0
 10
-97.5025
 20
2.4981
 30
0.0
 10
-96.9416
 20
1.8747
 30
0.0
 10
-97.2472
 20
1.2627
 30
0.0
 10
-97.2472
 20
1.2627
 30
0.0
 10
-97.5383
 20
0.5025
 30
0.0
 10
-98.5356
 20
0.1163
 30
0.0
 10
-99.1713
 20
0.8826
 30
0.0
  0
SPLINE
  5
BC
330
1F
100
AcDbEntity
  8
layer 1
 62
     7
100
AcDbSpline
210
0.0
220
0.0
230
1.0
 70
    11
 71
     3
 72
    20
 73
    16
 74
     0
 42
0.0000000001
 43
0.0000000001
 12
1.0
 22
0.0
 32
0.0
 13
1.0
 23
0.0
 33
0.0
 40
0.0
 40
0.0
 40
0.0
 40
0.0
 40
0.2
 40
0.2
 40
0.2
 40
0.2
 40
0.4
 40
0.4
 40
0.4
 40
0.4
 40
0.6
 40
0.6
 40
0.6
 40
0.6
 40
1.0
 40
1.0
 40
1.0
 40
1.0
 10
-103.1653
 20
-3.141
 30
0.0
 10
-104.4925
 20
-0.3763
 30
0.0
 10
-105.4672
 20
0.8234
 30
0.0
 10
-108.2821
 20
4.7877
 30
0.0
 10
-108.2821
 20
4.7877
 30
0.0
 10
-104.5966
 20
1.9461
 30
0.0
 10
-102.5837
 20
-0.4416
 30
0.0
 10
-101.511
 20
-2.0571
 30
0.0
 10
-101.511
 20
-2.0571
 30
0.0
 10
-101.179
 20
-2.6538
 30
0.0
 10
-100.6885
 20
-3.5599
 30
0.0
 10
-101.2115
 20
-3.9993
 30
0.0
 10
-101.2115
 20
-3.9993
 30
0.0
 10
-101.7787
 20
-4.5839
 30
0.0
 10
-102.6992
 20
-3.9842
 30
0.0
 10
-103.1653
 20
-3.141
 30
0.0
  0
SPLINE
  5
BD
330
1F
100
AcDbEntity
  8
layer 1
 62
     7
100
AcDbSpline
210
0.0
220
0.0
230
1.0
 70
    11
 71
     3
 72
    20
 73
    16
 74
     0
 42
0.0000000001
 43
0.0000000001
 12
1.0
 22
0.0
 32
0.0
 13
1.0
 23
0.0
 33
0.0
 40
0.0
 40
0.0
 40
0.0
 40
0.0
 40
0.2
 40
0.2
 40
0.2
 40
0.2
 40
0.4
 40
0.4
 40
0.4
 40
0.4
 40
0.6
 40
0.6
 40
0.6
 40
0.6
 40
1.0
 40
1.0
 40
1.0
 40
1.0
 10
-108.7275
 20
-3.0552
 30
0.0
 10
-108.9025
 20
-1.1098
 30
0.0
 10
-108.5877
 20
-0.2015
 30
0.0
 10
-108.6409
 20
2.1006
 30
0.0
 10
-108.6409
 20
2.1006
 30
0.0
 10
-107.8929
 20
0.8736
 30
0.0
 10
-106.9784
 20
-0.6797
 30
0.0
 10
-106.5655
 20
-3.2125
 30
0.0
 10
-106.5655
 20
-3.2125
 30
0.0
 10
-106.4554
 20
-3.9637
 30
0.0
 10
-106.77
 20
-4.9108
 30
0.0
 10
-107.4536
 20
-4.964
 30
0.0
 10
-107.4536
 20
-4.964
 30
0.0
 10
-108.2526
 20
-5.1099
 30
0.0
 10
-108.7633
 20
-4.0495
 30
0.0
 10
-108.7275
 20
-3.0552
 30
0.0
  0
SPLINE
  5
BE
330
1F
100
AcDbEntity
  8
layer 1
 62
     7
100
AcDbSpline
210
0.0
220
0.0
230
1.0
 70
    11
 71
     3
 72
    48
 73
    44
 74
     0
 42
0.0000000001
 43
0.0000000001
 12
1.0
 22
0.0
 32
0.0
 13
1.0
 23
0.0
 33
0.0
 40
0.0
 40
0.0
 40
0.0
 40
0.0
 40
0.0833333333333333
 40
0.0833333333333333
 40
0.0833333333333333
 40
0.0833333333333333
 40
0.1666666666666667
 40
0.1666666666666667
 40
0.1666666666666667
 40
0.1666666666666667
 40
0.25
 40
0.25
 40
0.25
 40
0.25
 40
0.3333333333333333
 40
0.3333333333333333
 40
0.3333333333333333
 40
0.3333333333333333
 40
0.4166666666666667
 40
0.4166666666666667
 40
0.4166666666666667
 40
0.4166666666666667
 40
0.5
 40
0.5
 40
0.5
 40
0.5
 40
0.5833333333333334
 40
0.5833333333333334
 40
0.5833333333333334
 40
0.5833333333333334
 40
0.6666666666666666
 40
0.6666666666666666
 40
0.6666666666666666
 40
0.6666666666666666
 40
0.75
 40
0.75
 40
0.75
 40
0.75
 40
0.8333333333333334
 40
0.8333333333333334
 40
0.8333333333333334
 40
0.8333333333333334
 40
1.0
 40
1.0
 40
1.0
 40
1.0
 10
-111.4119
 20
-5.8436
 30
0.0
 10
-111.3198
 20
-6.4578
 30
0.0
 10
-110.2327
 20
-6.6213
 30
0.0
 10
-109.3897
 20
-6.6661
 30
0.0
 10
-109.3897
 20
-6.6661
 30
0.0
 10
-109.6565
 20
-7.0484
 30
0.0
 10
-110.0101
 20
-7.6246
 30
0.0
 10
-108.6736
 20
-8.1804
 30
0.0
 10
-108.6736
 20
-8.1804
 30
0.0
 10
-110.7466
 20
-9.1695
 30
0.0
 10
-109.4908
 20
-10.5971
 30
0.0
 10
-108.5551
 20
-11.1345
 30
0.0
 10
-108.5551
 20
-11.1345
 30
0.0
 10
-109.7782
 20
-11.4942
 30
0.0
 10
-110.8059
 20
-11.2151
 30
0.0
 10
-111.3078
 20
-10.4723
 30
0.0
 10
-111.3078
 20
-10.4723
 30
0.0
 10
-111.792
 20
-9.7541
 30
0.0
 10
-113.345
 20
-9.6591
 30
0.0
 10
-114.1766
 20
-9.1572
 30
0.0
 10
-114.1766
 20
-9.1572
 30
0.0
 10
-113.437
 20
-9.0059
 30
0.0
 10
-113.256
 20
-8.768
 30
0.0
 10
-113.2204
 20
-8.3674
 30
0.0
 10
-113.2204
 20
-8.3674
 30
0.0
 10
-114.4944
 20
-8.0315
 30
0.0
 10
-115.1831
 20
-7.3314
 30
0.0
 10
-115.4826
 20
-7.212
 30
0.0
 10
-115.4826
 20
-7.212
 30
0.0
 10
-116.0149
 20
-6.7582
 30
0.0
 10
-115.9731
 20
-5.6352
 30
0.0
 10
-115.4234
 20
-4.5809
 30
0.0
 10
-115.4234
 20
-4.5809
 30
0.0
 10
-112.1842
 20
0.0661
 30
0.0
 10
-112.635
 20
5.5245
 30
0.0
 10
-114.8267
 20
6.6047
 30
0.0
 10
-114.8267
 20
6.6047
 30
0.0
 10
-112.2464
 20
7.6233
 30
0.0
 10
-112.2223
 20
3.1929
 30
0.0
 10
-110.334
 20
2.0381
 30
0.0
 10
-110.334
 20
2.0381
 30
0.0
 10
-109.6923
 20
-0.406
 30
0.0
 10
-109.7545
 20
-3.8002
 30
0.0
 10
-111.4119
 20
-5.8436
 30
0.0
  0
SPLINE
  5
BF
330
1F
100
AcDbEntity
  8
layer 1
 62
     7
100
AcDbSpline
210
0.0
220
0.0
230
1.0
 70
    11
 71
     3
 72
    32
 73
    28
 74
     0
 42
0.0000000001
 43
0.0000000001
 12
1.0
 22
0.0
 32
0.0
 13
1.0
 23
0.0
 33
0.0
 40
0.0
 40
0.0
 40
0.0
 40
0.0
 40
0.125
 40
0.125
 40
0.125
 40
0.125
 40
0.25
 40
0.25
 40
0.25
 40
0.25
 40
0.375
 40
0.375
 40
0.375
 40
0.375
 40
0.5
 40
0.5
 40
0.5
 40
0.5
 40
0.625
 40
0.625
 40
0.625
 40
0.625
 40
0.75
 40
0.75
 40
0.75
 40
0.75
 40
1.0
 40
1.0
 40
1.0
 40
1.0
 10
-117.3658
 20
-36.0195
 30
0.0
 10
-117.8437
 20
-36.4529
 30
0.0
 10
-117.8825
 20
-36.3996
 30
0.0
 10
-118.2894
 20
-37.1362
 30
0.0
 10
-118.2894
 20
-37.1362
 30
0.0
 10
-118.2833
 20
-36.3548
 30
0.0
 10
-118.7227
 20
-33.9023
 30
0.0
 10
-120.5341
 20
-33.1003
 30
0.0
 10
-120.5341
 20
-33.1003
 30
0.0
 10
-120.1867
 20
-32.8359
 30
0.0
 10
-120.1747
 20
-32.2982
 30
0.0
 10
-120.0355
 20
-31.7403
 30
0.0
 10
-120.0355
 20
-31.7403
 30
0.0
 10
-119.8782
 20
-31.6514
 30
0.0
 10
-119.7056
 20
-31.7852
 30
0.0
 10
-119.397
 20
-31.8233
 30
0.0
 10
-119.397
 20
-31.8233
 30
0.0
 10
-119.5513
 20
-32.4116
 30
0.0
 10
-119.3164
 20
-32.9012
 30
0.0
 10
-118.785
 20
-33.2783
 30
0.0
 10
-118.785
 20
-33.2783
 30
0.0
 10
-118.8001
 20
-32.3401
 30
0.0
 10
-118.0482
 20
-31.5412
 30
0.0
 10
-117.1787
 20
-32.1052
 30
0.0
 10
-117.1787
 20
-32.1052
 30
0.0
 10
-116.2877
 20
-32.6017
 30
0.0
 10
-116.5523
 20
-35.2328
 30
0.0
 10
-117.3658
 20
-36.0195
 30
0.0
  0
SPLINE
  5
C0
330
1F
100
AcDbEntity
  8
layer 1
 62
     7
100
AcDbSpline
210
0.0
220
0.0
230
1.0
 70
    11
 71
     3
 72
    24
 73
    20
 74
     0
 42
0.0000000001
 43
0.0000000001
 12
1.0
 22
0.0
 32
0.0
 13
1.0
 23
0.0
 33
0.0
 40
0.0
 40
0.0
 40
0.0
 40
0.0
 40
0.1666666666666667
 40
0.1666666666666667
 40
0.1666666666666667
 40
0.1666666666666667
 40
0.3333333333333333
 40
0.3333333333333333
 40
0.3333333333333333
 40
0.3333333333333333
 40
0.5
 40
0.5
 40
0.5
 40
0.5
 40
0.6666666666666666
 40
0.6666666666666666
 40
0.6666666666666666
 40
0.6666666666666666
 40
1.0
 40
1.0
 40
1.0
 40
1.0
 10
-134.2594
 20
-12.0611
 30
0.0
 10
-133.9265
 20
-11.7853
 30
0.0
 10
-133.6802
 20
-11.3071
 30
0.0
 10
-133.9888
 20
-10.502
 30
0.0
 10
-133.9888
 20
-10.502
 30
0.0
 10
-135.0964
 20
-10.6951
 30
0.0
 10
-136.0557
 20
-10.7309
 30
0.0
 10
-137.1338
 20
-10.502
 30
0.0
 10
-137.1338
 20
-10.502
 30
0.0
 10
-137.4424
 20
-11.3071
 30
0.0
 10
-137.1961
 20
-11.7853
 30
0.0
 10
-136.8632
 20
-12.0611
 30
0.0
 10
-136.8632
 20
-12.0611
 30
0.0
 10
-136.5158
 20
-12.3227
 30
0.0
 10
-136.1273
 20
-12.4087
 30
0.0
 10
-135.5601
 20
-12.4238
 30
0.0
 10
-135.5601
 20
-12.4238
 30
0.0
 10
-134.9953
 20
-12.4087
 30
0.0
 10
-134.607
 20
-12.3227
 30
0.0
 10
-134.2594
 20
-12.0611
 30
0.0
  0
SPLINE
  5
C1
330
1F
100
AcDbEntity
  8
layer 1
 62
     7
100
AcDbSpline
210
0.0
220
0.0
230
1.0
 70
    11
 71
     3
 72
    68
 73
    64
 74
     0
 42
0.0000000001
 43
0.0000000001
 12
1.0
 22
0.0
 32
0.0
 13
1.0
 23
0.0
 33
0.0
 40
0.0
 40
0.0
 40
0.0
 40
0.0
 40
0.0588235294117647
 40
0.0588235294117647
 40
0.0588235294117647
 40
0.0588235294117647
 40
0.1176470588235294
 40
0.1176470588235294
 40
0.1176470588235294
 40
0.1176470588235294
 40
0.1764705882352941
 40
0.1764705882352941
 40
0.1764705882352941
 40
0.1764705882352941
 40
0.2352941176470588
 40
0.2352941176470588
 40
0.2352941176470588
 40
0.2352941176470588
 40
0.2941176470588235
 40
0.2941176470588235
 40
0.2941176470588235
 40
0.2941176470588235
 40
0.3529411764705883
 40
0.3529411764705883
 40
0.3529411764705883
 40
0.3529411764705883
 40
0.4117647058823529
 40
0.4117647058823529
 40
0.4117647058823529
 40
0.4117647058823529
 40
0.4705882352941176
 40
0.4705882352941176
 40
0.4705882352941176
 40
0.4705882352941176
 40
0.5294117647058824
 40
0.5294117647058824
 40
0.5294117647058824
 40
0.5294117647058824
 40
0.5882352941176471
 40
0.5882352941176471
 40
0.5882352941176471
 40
0.5882352941176471
 40
0.6470588235294118
 40
0.6470588235294118
 40
0.6470588235294118
 40
0.6470588235294118
 40
0.7058823529411765
 40
0.7058823529411765
 40
0.7058823529411765
 40
0.7058823529411765
 40
0.7647058823529411
 40
0.7647058823529411
 40
0.7647058823529411
 40
0.7647058823529411
 40
0.8235294117647058
 40
0.8235294117647058
 40
0.8235294117647058
 40
0.8235294117647058
 40
0.8823529411764706
 40
0.8823529411764706
 40
0.8823529411764706
 40
0.8823529411764706
 40
1.0
 40
1.0
 40
1.0
 40
1.0
 10
-128.4212
 20
-0.2782
 30
0.0
 10
-127.5896
 20
-0.2424
 30
0.0
 10
-127.144
 20
-0.3495
 30
0.0
 10
-126.4462
 20
0.0426
 30
0.0
 10
-126.4462
 20
0.0426
 30
0.0
 10
-126.2327
 20
1.1707
 30
0.0
 10
-126.5025
 20
1.6907
 30
0.0
 10
-126.7762
 20
2.4949
 30
0.0
 10
-126.7762
 20
2.4949
 30
0.0
 10
-126.0039
 20
2.5932
 30
0.0
 10
-125.2731
 20
2.9048
 30
0.0
 10
-124.8605
 20
3.389
 30
0.0
 10
-124.8605
 20
3.389
 30
0.0
 10
-124.8544
 20
3.7958
 30
0.0
 10
-125.2671
 20
4.5681
 30
0.0
 10
-126.0782
 20
4.5558
 30
0.0
 10
-126.0782
 20
4.5558
 30
0.0
 10
-126.0364
 20
5.1769
 30
0.0
 10
-125.686
 20
5.4857
 30
0.0
 10
-125.2376
 20
5.4171
 30
0.0
 10
-125.2376
 20
5.4171
 30
0.0
 10
-124.4987
 20
5.3047
 30
0.0
 10
-123.6221
 20
5.4887
 30
0.0
 10
-123.7916
 20
6.4146
 30
0.0
 10
-123.7916
 20
6.4146
 30
0.0
 10
-123.248
 20
6.439
 30
0.0
 10
-122.8353
 20
6.765
 30
0.0
 10
-122.5767
 20
6.8547
 30
0.0
 10
-122.5767
 20
6.8547
 30
0.0
 10
-122.9631
 20
3.2286
 30
0.0
 10
-124.4332
 20
0.0426
 30
0.0
 10
-126.5352
 20
-2.1461
 30
0.0
 10
-126.5352
 20
-2.1461
 30
0.0
 10
-128.6257
 20
-4.3499
 30
0.0
 10
-131.4262
 20
-5.9143
 30
0.0
 10
-135.0281
 20
-6.1727
 30
0.0
 10
-135.0281
 20
-6.1727
 30
0.0
 10
-134.9483
 20
-5.9083
 30
0.0
 10
-134.6419
 20
-5.481
 30
0.0
 10
-134.6419
 20
-4.9405
 30
0.0
 10
-134.6419
 20
-4.9405
 30
0.0
 10
-133.7099
 20
-5.0651
 30
0.0
 10
-133.817
 20
-4.4563
 30
0.0
 10
-133.9653
 20
-3.7226
 30
0.0
 10
-133.9653
 20
-3.7226
 30
0.0
 10
-134.0543
 20
-3.2778
 30
0.0
 10
-133.7601
 20
-2.9123
 30
0.0
 10
-133.1428
 20
-2.8408
 30
0.0
 10
-133.1428
 20
-2.8408
 30
0.0
 10
-133.1163
 20
-3.6519
 30
0.0
 10
-132.3263
 20
-4.029
 30
0.0
 10
-131.9188
 20
-4.0055
 30
0.0
 10
-131.9188
 20
-4.0055
 30
0.0
 10
-131.4559
 20
-3.5713
 30
0.0
 10
-131.1799
 20
-2.8294
 30
0.0
 10
-131.1176
 20
-2.051
 30
0.0
 10
-131.1176
 20
-2.051
 30
0.0
 10
-130.2981
 20
-2.2859
 30
0.0
 10
-129.7691
 20
-2.5322
 30
0.0
 10
-128.65
 20
-2.2646
 30
0.0
 10
-128.65
 20
-2.2646
 30
0.0
 10
-128.2904
 20
-1.5522
 30
0.0
 10
-128.4182
 20
-1.1128
 30
0.0
 10
-128.4212
 20
-0.2782
 30
0.0
  0
ENDSEC
  0
SECTION
  2
OBJECTS
  0
DICTIONARY
  5
C
330
0
100
AcDbDictionary
281
     1
  3
ACAD_GROUP
350
D
  3
ACAD_LAYOUT
350
1A
  3
ACAD_MATERIAL
350
3B
  3
ACAD_MLEADERSTYLE
350
E4
  3
ACAD_MLINESTYLE
350
17
  3
ACAD_PLOTSETTINGS
350
19
  3
ACAD_PLOTSTYLENAME
350
E
  3
ACAD_TABLESTYLE
350
E3
  3
ACAD_VISUALSTYLE
350
2A
  0
DICTIONARY
  5
D
102
{ACAD_REACTORS
330
C
102
}
330
C
100
AcDbDictionary
281
     1
  0
DICTIONARY
  5
1A
102
{ACAD_REACTORS
330
C
102
}
330
C
100
AcDbDictionary
281
     1
  3
Layout1
350
1E
  3
Layout2
350
26
  3
Model
350
22
  0
DICTIONARY
  5
3B
102
{ACAD_REACTORS
330
C
102
}
330
C
100
AcDbDictionary
281
     1
  3
ByBlock
350
3D
  3
ByLayer
350
3C
  3
Global
350
3E
  0
DICTIONARY
  5
E4
102
{ACAD_REACTORS
330
C
102
}
330
C
100
AcDbDictionary
281
     1
  0
DICTIONARY
  5
17
102
{ACAD_REACTORS
330
C
102
}
330
C
100
AcDbDictionary
281
     1
  3
Standard
350
18
  0
DICTIONARY
  5
19
102
{ACAD_REACTORS
330
C
102
}
330
C
100
AcDbDictionary
281
     1
  0
ACDBDICTIONARYWDFLT
  5
E
102
{ACAD_REACTORS
330
C
102
}
330
C
100
AcDbDictionary
281
     1
  3
Normal
350
F
100
AcDbDictionaryWithDefault
340
F
  0
DICTIONARY
  5
E3
102
{ACAD_REACTORS
330
C
102
}
330
C
100
AcDbDictionary
281
     1
  0
DICTIONARY
  5
2A
102
{ACAD_REACTORS
330
C
102
}
330
C
100
AcDbDictionary
281
     1
  3
2dWireframe
350
2F
  3
3D Hidden
350
31
  3
3dWireframe
350
30
  3
Basic
350
32
  3
Brighten
350
36
  3
ColorChange
350
3A
  3
Conceptual
350
34
  3
Dim
350
35
  3
Facepattern
350
39
  3
Flat
350
2B
  3
FlatWithEdges
350
2C
  3
Gouraud
350
2D
  3
GouraudWithEdges
350
2E
  3
Linepattern
350
38
  3
Realistic
350
33
  3
Thicken
350
37
  0
LAYOUT
  5
1E
102
{ACAD_REACTORS
330
1A
102
}
330
1A
100
AcDbPlotSettings
  1

  2
none_device
  4

  6

 40
0.0
 41
0.0
 42
0.0
 43
0.0
 44
0.0
 45
0.0
 46
0.0
 47
0.0
 48
0.0
 49
0.0
140
0.0
141
0.0
142
1.0
143
1.0
 70
   688
 72
     0
 73
     0
 74
     5
  7

 75
    16
 76
     0
 77
     2
 78
   300
147
1.0
148
0.0
149
0.0
100
AcDbLayout
  1
Layout1
 70
     1
 71
     1
 10
0.0
 20
0.0
 11
12.0
 21
9.0
 12
0.0
 22
0.0
 32
0.0
 14
1.000000000000000E+20
 24
1.000000000000000E+20
 34
1.000000000000000E+20
 15
-1.000000000000000E+20
 25
-1.000000000000000E+20
 35
-1.000000000000000E+20
146
0.0
 13
0.0
 23
0.0
 33
0.0
 16
1.0
 26
0.0
 36
0.0
 17
0.0
 27
1.0
 37
0.0
 76
     0
330
1B
  0
LAYOUT
  5
26
102
{ACAD_REACTORS
330
1A
102
}
330
1A
100
AcDbPlotSettings
  1

  2
none_device
  4

  6

 40
0.0
 41
0.0
 42
0.0
 43
0.0
 44
0.0
 45
0.0
 46
0.0
 47
0.0
 48
0.0
 49
0.0
140
0.0
141
0.0
142
1.0
143
1.0
 70
   688
 72
     0
 73
     0
 74
     5
  7

 75
    16
 76
     0
 77
     2
 78
   300
147
1.0
148
0.0
149
0.0
100
AcDbLayout
  1
Layout2
 70
     1
 71
     2
 10
0.0
 20
0.0
 11
0.0
 21
0.0
 12
0.0
 22
0.0
 32
0.0
 14
0.0
 24
0.0
 34
0.0
 15
0.0
 25
0.0
 35
0.0
146
0.0
 13
0.0
 23
0.0
 33
0.0
 16
1.0
 26
0.0
 36
0.0
 17
0.0
 27
1.0
 37
0.0
 76
     0
330
23
  0
LAYOUT
  5
22
102
{ACAD_REACTORS
330
1A
102
}
330
1A
100
AcDbPlotSettings
  1

  2
none_device
  4

  6

 40
0.0
 41
0.0
 42
0.0
 43
0.0
 44
0.0
 45
0.0
 46
0.0
 47
0.0
 48
0.0
 49
0.0
140
0.0
141
0.0
142
1.0
143
1.0
 70
  1712
 72
     0
 73
     0
 74
     0
  7

 75
     0
 76
     0
 77
     2
 78
   300
147
1.0
148
0.0
149
0.0
100
AcDbLayout
  1
Model
 70
     1
 71
     0
 10
0.0
 20
0.0
 11
12.0
 21
9.0
 12
0.0
 22
0.0
 32
0.0
 14
-187.2443
 24
-114.8837
 34
0.0
 15
-83.8753
 25
132.0785
 35
0.0
146
0.0
 13
0.0
 23
0.0
 33
0.0
 16
1.0
 26
0.0
 36
0.0
 17
0.0
 27
1.0
 37
0.0
 76
     0
330
1F
331
29
  0
MATERIAL
  5
3D
102
{ACAD_REACTORS
330
3B
102
}
330
3B
100
AcDbMaterial
  1
ByBlock
 72
     1
 94
      127
  0
MATERIAL
  5
3C
102
{ACAD_REACTORS
330
3B
102
}
330
3B
100
AcDbMaterial
  1
ByLayer
 72
     1
 94
      127
  0
MATERIAL
  5
3E
102
{ACAD_REACTORS
330
3B
102
}
330
3B
100
AcDbMaterial
  1
Global
 72
     1
 94
      127
  0
MLINESTYLE
  5
18
102
{ACAD_REACTORS
330
17
102
}
330
17
100
AcDbMlineStyle
  2
Standard
 70
     0
  3

 62
   256
 51
90.0
 52
90.0
 71
     2
 49
0.5
 62
   256
  6
BYLAYER
 49
-0.5
 62
   256
  6
BYLAYER
  0
ACDBPLACEHOLDER
  5
F
102
{ACAD_REACTORS
330
E
102
}
330
E
  0
VISUALSTYLE
  5
2F
102
{ACAD_REACTORS
330
2A
102
}
102
{ACAD_XDICTIONARY
360
CB
102
}
330
2A
100
AcDbVisualStyle
  2
2dWireframe
 70
     4
 71
     0
 72
     2
 73
     0
 90
        0
 40
-0.6
 41
-30.0
 62
     5
 63
     7
421
 16777215
 74
     1
 91
        4
 64
     7
 65
   257
 75
     1
175
     1
 42
1.0
 92
        0
 66
   257
 43
1.0
 76
     1
 77
     6
 78
     2
 67
     7
 79
     5
170
     0
171
     0
290
     0
174
     0
 93
        1
 44
0.0
173
     0
291
     0
 45
0.0
  0
VISUALSTYLE
  5
31
102
{ACAD_REACTORS
330
2A
102
}
102
{ACAD_XDICTIONARY
360
CF
102
}
330
2A
100
AcDbVisualStyle
  2
3D Hidden
 70
     6
 71
     1
 72
     2
 73
     2
 90
        0
 40
-0.6
 41
-30.0
 62
     5
 63
     7
421
 16777215
 74
     2
 91
        2
 64
     7
 65
   257
 75
     2
175
     1
 42
40.0
 92
        0
 66
   257
 43
1.0
 76
     1
 77
     6
 78
     2
 67
     7
 79
     3
170
     0
171
     0
290
     0
174
     0
 93
        1
 44
0.0
173
     0
291
     0
 45
0.0
  0
VISUALSTYLE
  5
30
102
{ACAD_REACTORS
330
2A
102
}
102
{ACAD_XDICTIONARY
360
CD
102
}
330
2A
100
AcDbVisualStyle
  2
3dWireframe
 70
     5
 71
     0
 72
     2
 73
     0
 90
        0
 40
-0.6
 41
-30.0
 62
     5
 63
     7
421
 16777215
 74
     1
 91
        4
 64
     7
 65
   257
 75
     1
175
     1
 42
1.0
 92
        0
 66
   257
 43
1.0
 76
     1
 77
     6
 78
     2
 67
     7
 79
     5
170
     0
171
     0
290
     0
174
     0
 93
        1
 44
0.0
173
     0
291
     0
 45
0.0
  0
VISUALSTYLE
  5
32
102
{ACAD_REACTORS
330
2A
102
}
102
{ACAD_XDICTIONARY
360
D1
102
}
330
2A
100
AcDbVisualStyle
  2
Basic
 70
     7
 71
     1
 72
     0
 73
     1
 90
        0
 40
-0.6
 41
-30.0
 62
     5
 63
     7
421
 16777215
 74
     0
 91
        4
 64
     7
 65
   257
 75
     1
175
     1
 42
1.0
 92
        8
 66
     7
 43
1.0
 76
     1
 77
     6
 78
     2
 67
     7
 79
     5
170
     0
171
     0
290
     0
174
     0
 93
        1
 44
0.0
173
     0
291
     1
 45
0.0
  0
VISUALSTYLE
  5
36
102
{ACAD_REACTORS
330
2A
102
}
102
{ACAD_XDICTIONARY
360
D9
102
}
330
2A
100
AcDbVisualStyle
  2
Brighten
 70
    12
 71
     2
 72
     2
 73
     0
 90
        0
 40
-0.6
 41
-30.0
 62
     5
 63
     7
421
 16777215
 74
     1
 91
        4
 64
     7
 65
   257
 75
     1
175
     1
 42
1.0
 92
        8
 66
     7
 43
1.0
 76
     1
 77
     6
 78
     2
 67
     7
 79
     5
170
     0
171
     0
290
     0
174
     0
 93
        1
 44
50.0
173
     0
291
     1
 45
0.0
  0
VISUALSTYLE
  5
3A
102
{ACAD_REACTORS
330
2A
102
}
102
{ACAD_XDICTIONARY
360
E1
102
}
330
2A
100
AcDbVisualStyle
  2
ColorChange
 70
    16
 71
     2
 72
     2
 73
     3
 90
        0
 40
-0.6
 41
-30.0
 62
     5
 63
     8
421
  8421504
 74
     1
 91
        4
 64
     7
 65
   257
 75
     1
175
     1
 42
1.0
 92
        8
 66
     8
424
  8421504
 43
1.0
 76
     1
 77
     6
 78
     2
 67
     7
 79
     5
170
     0
171
     0
290
     0
174
     0
 93
        1
 44
0.0
173
     0
291
     1
 45
0.0
  0
VISUALSTYLE
  5
34
102
{ACAD_REACTORS
330
2A
102
}
102
{ACAD_XDICTIONARY
360
D5
102
}
330
2A
100
AcDbVisualStyle
  2
Conceptual
 70
     9
 71
     3
 72
     2
 73
     0
 90
        0
 40
-0.6
 41
-30.0
 62
     5
 63
     7
421
 16777215
 74
     2
 91
        2
 64
     7
 65
   257
 75
     1
175
     1
 42
40.0
 92
        8
 66
     7
 43
1.0
 76
     1
 77
     6
 78
     2
 67
     7
 79
     3
170
     0
171
     0
290
     0
174
     0
 93
        1
 44
0.0
173
     0
291
     0
 45
0.0
  0
VISUALSTYLE
  5
35
102
{ACAD_REACTORS
330
2A
102
}
102
{ACAD_XDICTIONARY
360
D7
102
}
330
2A
100
AcDbVisualStyle
  2
Dim
 70
    11
 71
     2
 72
     2
 73
     0
 90
        0
 40
-0.6
 41
-30.0
 62
     5
 63
     7
421
 16777215
 74
     1
 91
        4
 64
     7
 65
   257
 75
     1
175
     1
 42
1.0
 92
        8
 66
     7
 43
1.0
 76
     1
 77
     6
 78
     2
 67
     7
 79
     5
170
     0
171
     0
290
     0
174
     0
 93
        1
 44
-50.0
173
     0
291
     1
 45
0.0
  0
VISUALSTYLE
  5
39
102
{ACAD_REACTORS
330
2A
102
}
102
{ACAD_XDICTIONARY
360
DF
102
}
330
2A
100
AcDbVisualStyle
  2
Facepattern
 70
    15
 71
     2
 72
     2
 73
     0
 90
        0
 40
-0.6
 41
-30.0
 62
     5
 63
     7
421
 16777215
 74
     1
 91
        4
 64
     7
 65
   257
 75
     1
175
     1
 42
1.0
 92
        8
 66
     7
 43
1.0
 76
     1
 77
     6
 78
     2
 67
     7
 79
     5
170
     0
171
     0
290
     0
174
     0
 93
        1
 44
0.0
173
     0
291
     1
 45
0.0
  0
VISUALSTYLE
  5
2B
102
{ACAD_REACTORS
330
2A
102
}
102
{ACAD_XDICTIONARY
360
C3
102
}
330
2A
100
AcDbVisualStyle
  2
Flat
 70
     0
 71
     2
 72
     1
 73
     1
 90
        2
 40
-0.6
 41
30.0
 62
     5
 63
     7
421
 16777215
 74
     0
 91
        4
 64
     7
 65
   257
 75
     1
175
     1
 42
1.0
 92
        8
 66
     7
 43
1.0
 76
     1
 77
     6
 78
     2
 67
     7
 79
     5
170
     0
171
     0
290
     0
174
     0
 93
       13
 44
0.0
173
     0
291
     1
 45
0.0
  0
VISUALSTYLE
  5
2C
102
{ACAD_REACTORS
330
2A
102
}
102
{ACAD_XDICTIONARY
360
C5
102
}
330
2A
100
AcDbVisualStyle
  2
FlatWithEdges
 70
     1
 71
     2
 72
     1
 73
     1
 90
        2
 40
-0.6
 41
30.0
 62
     5
 63
     7
421
 16777215
 74
     1
 91
        4
 64
     7
 65
   257
 75
     1
175
     1
 42
1.0
 92
        0
 66
   257
 43
1.0
 76
     1
 77
     6
 78
     2
 67
     7
 79
     5
170
     0
171
     0
290
     0
174
     0
 93
       13
 44
0.0
173
     0
291
     1
 45
0.0
  0
VISUALSTYLE
  5
2D
102
{ACAD_REACTORS
330
2A
102
}
102
{ACAD_XDICTIONARY
360
C7
102
}
330
2A
100
AcDbVisualStyle
  2
Gouraud
 70
     2
 71
     2
 72
     2
 73
     1
 90
        2
 40
-0.6
 41
30.0
 62
     5
 63
     7
421
 16777215
 74
     0
 91
        4
 64
     7
 65
   257
 75
     1
175
     1
 42
1.0
 92
        0
 66
     7
 43
1.0
 76
     1
 77
     6
 78
     2
 67
     7
 79
     5
170
     0
171
     0
290
     0
174
     0
 93
       13
 44
0.0
173
     0
291
     1
 45
0.0
  0
VISUALSTYLE
  5
2E
102
{ACAD_REACTORS
330
2A
102
}
102
{ACAD_XDICTIONARY
360
C9
102
}
330
2A
100
AcDbVisualStyle
  2
GouraudWithEdges
 70
     3
 71
     2
 72
     2
 73
     1
 90
        2
 40
-0.6
 41
30.0
 62
     5
 63
     7
421
 16777215
 74
     1
 91
        4
 64
     7
 65
   257
 75
     1
175
     1
 42
1.0
 92
        0
 66
   257
 43
1.0
 76
     1
 77
     6
 78
     2
 67
     7
 79
     5
170
     0
171
     0
290
     0
174
     0
 93
       13
 44
0.0
173
     0
291
     1
 45
0.0
  0
VISUALSTYLE
  5
38
102
{ACAD_REACTORS
330
2A
102
}
102
{ACAD_XDICTIONARY
360
DD
102
}
330
2A
100
AcDbVisualStyle
  2
Linepattern
 70
    14
 71
     2
 72
     2
 73
     0
 90
        0
 40
-0.6
 41
-30.0
 62
     5
 63
     7
421
 16777215
 74
     1
 91
        4
 64
     7
 65
   257
 75
     7
175
     7
 42
1.0
 92
        8
 66
     7
 43
1.0
 76
     1
 77
     6
 78
     2
 67
     7
 79
     5
170
     0
171
     0
290
     0
174
     0
 93
        1
 44
0.0
173
     0
291
     1
 45
0.0
  0
VISUALSTYLE
  5
33
102
{ACAD_REACTORS
330
2A
102
}
102
{ACAD_XDICTIONARY
360
D3
102
}
330
2A
100
AcDbVisualStyle
  2
Realistic
 70
     8
 71
     2
 72
     2
 73
     0
 90
        0
 40
-0.6
 41
-30.0
 62
     5
 63
     7
421
 16777215
 74
     1
 91
        0
 64
     7
 65
   257
 75
     1
175
     1
 42
1.0
 92
        8
 66
     8
424
  7895160
 43
1.0
 76
     1
 77
     6
 78
     2
 67
     7
 79
     5
170
     0
171
     0
290
     0
174
     0
 93
       13
 44
0.0
173
     0
291
     0
 45
0.0
  0
VISUALSTYLE
  5
37
102
{ACAD_REACTORS
330
2A
102
}
102
{ACAD_XDICTIONARY
360
DB
102
}
330
2A
100
AcDbVisualStyle
  2
Thicken
 70
    13
 71
     2
 72
     2
 73
     0
 90
        0
 40
-0.6
 41
-30.0
 62
     5
 63
     7
421
 16777215
 74
     1
 91
        4
 64
     7
 65
   257
 75
     1
175
     1
 42
1.0
 92
       12
 66
     7
 43
1.0
 76
     1
 77
     6
 78
     2
 67
     7
 79
     5
170
     0
171
     0
290
     0
174
     0
 93
        1
 44
0.0
173
     0
291
     1
 45
0.0
  0
DICTIONARY
  5
CB
330
2F
100
AcDbDictionary
280
     1
281
     1
  3
ACAD_XREC_ROUNDTRIP
360
CC
  0
DICTIONARY
  5
CF
330
31
100
AcDbDictionary
280
     1
281
     1
  3
ACAD_XREC_ROUNDTRIP
360
D0
  0
DICTIONARY
  5
CD
330
30
100
AcDbDictionary
280
     1
281
     1
  3
ACAD_XREC_ROUNDTRIP
360
CE
  0
DICTIONARY
  5
D1
330
32
100
AcDbDictionary
280
     1
281
     1
  3
ACAD_XREC_ROUNDTRIP
360
D2
  0
DICTIONARY
  5
D9
330
36
100
AcDbDictionary
280
     1
281
     1
  3
ACAD_XREC_ROUNDTRIP
360
DA
  0
DICTIONARY
  5
E1
330
3A
100
AcDbDictionary
280
     1
281
     1
  3
ACAD_XREC_ROUNDTRIP
360
E2
  0
DICTIONARY
  5
D5
330
34
100
AcDbDictionary
280
     1
281
     1
  3
ACAD_XREC_ROUNDTRIP
360
D6
  0
DICTIONARY
  5
D7
330
35
100
AcDbDictionary
280
     1
281
     1
  3
ACAD_XREC_ROUNDTRIP
360
D8
  0
DICTIONARY
  5
DF
330
39
100
AcDbDictionary
280
     1
281
     1
  3
ACAD_XREC_ROUNDTRIP
360
E0
  0
DICTIONARY
  5
C3
330
2B
100
AcDbDictionary
280
     1
281
     1
  3
ACAD_XREC_ROUNDTRIP
360
C4
  0
DICTIONARY
  5
C5
330
2C
100
AcDbDictionary
280
     1
281
     1
  3
ACAD_XREC_ROUNDTRIP
360
C6
  0
DICTIONARY
  5
C7
330
2D
100
AcDbDictionary
280
     1
281
     1
  3
ACAD_XREC_ROUNDTRIP
360
C8
  0
DICTIONARY
  5
C9
330
2E
100
AcDbDictionary
280
     1
281
     1
  3
ACAD_XREC_ROUNDTRIP
360
CA
  0
DICTIONARY
  5
DD
330
38
100
AcDbDictionary
280
     1
281
     1
  3
ACAD_XREC_ROUNDTRIP
360
DE
  0
DICTIONARY
  5
D3
330
33
100
AcDbDictionary
280
     1
281
     1
  3
ACAD_XREC_ROUNDTRIP
360
D4
  0
DICTIONARY
  5
DB
330
37
100
AcDbDictionary
280
     1
281
     1
  3
ACAD_XREC_ROUNDTRIP
360
DC
  0
XRECORD
  5
CC
102
{ACAD_REACTORS
330
CB
102
}
330
CB
100
AcDbXrecord
280
     1
102
RTVSPropertyOp0
 70
     1
102
RTVSPropertyOp1
 70
     1
102
RTVSPropertyOp2
 70
     1
102
RTVSPropertyOp3
 70
     1
102
RTVSPropertyOp4
 70
     1
102
RTVSPropertyOp5
 70
     1
102
RTVSPropertyOp6
 70
     1
102
RTVSPropertyOp7
 70
     1
102
RTVSPropertyOp8
 70
     1
102
RTVSPropertyOp9
 70
     1
102
RTVSPropertyOp10
 70
     1
102
RTVSPropertyOp11
 70
     1
102
RTVSPropertyOp12
 70
     1
102
RTVSPropertyOp13
 70
     1
102
RTVSPropertyOp14
 70
     1
102
RTVSPropertyOp15
 70
     1
102
RTVSPropertyOp16
 70
     1
102
RTVSPropertyOp17
 70
     1
102
RTVSPropertyOp18
 70
     1
102
RTVSPropertyOp19
 70
     1
102
RTVSPropertyOp20
 70
     1
102
RTVSPropertyOp21
 70
     1
102
RTVSPropertyOp22
 70
     1
102
RTVSPropertyOp23
 70
     1
102
RTVSPropertyOp24
 70
     1
102
RTVSPropertyOp25
 70
     1
102
RTVSPropertyOp26
 70
     1
102
RTVSPropertyOp27
 70
     1
102
RTVSPropertyOp28
 70
     1
102
RTVSPropertyOp29
 70
     1
102
RTVSPropertyOp30
 70
     1
102
RTVSPropertyOp31
 70
     1
102
RTVSPropertyOp32
 70
     1
  0
XRECORD
  5
D0
102
{ACAD_REACTORS
330
CF
102
}
330
CF
100
AcDbXrecord
280
     1
102
RTVSPropertyOp0
 70
     1
102
RTVSPropertyOp1
 70
     1
102
RTVSPropertyOp2
 70
     1
102
RTVSPropertyOp3
 70
     1
102
RTVSPropertyOp4
 70
     1
102
RTVSPropertyOp5
 70
     1
102
RTVSPropertyOp6
 70
     1
102
RTVSPropertyOp7
 70
     1
102
RTVSPropertyOp8
 70
     1
102
RTVSPropertyOp9
 70
     1
102
RTVSPropertyOp10
 70
     1
102
RTVSPropertyOp11
 70
     1
102
RTVSPropertyOp12
 70
     1
102
RTVSPropertyOp13
 70
     1
102
RTVSPropertyOp14
 70
     1
102
RTVSPropertyOp15
 70
     1
102
RTVSPropertyOp16
 70
     1
102
RTVSPropertyOp17
 70
     1
102
RTVSPropertyOp18
 70
     1
102
RTVSPropertyOp19
 70
     1
102
RTVSPropertyOp20
 70
     1
102
RTVSPropertyOp21
 70
     1
102
RTVSPropertyOp22
 70
     1
102
RTVSPropertyOp23
 70
     1
102
RTVSPropertyOp24
 70
     1
102
RTVSPropertyOp25
 70
     1
102
RTVSPropertyOp26
 70
     1
102
RTVSPropertyOp27
 70
     1
102
RTVSPropertyOp28
 70
     1
102
RTVSPropertyOp29
 70
     1
102
RTVSPropertyOp30
 70
     1
102
RTVSPropertyOp31
 70
     1
102
RTVSPropertyOp32
 70
     1
  0
XRECORD
  5
CE
102
{ACAD_REACTORS
330
CD
102
}
330
CD
100
AcDbXrecord
280
     1
102
RTVSPropertyOp0
 70
     1
102
RTVSPropertyOp1
 70
     1
102
RTVSPropertyOp2
 70
     1
102
RTVSPropertyOp3
 70
     1
102
RTVSPropertyOp4
 70
     1
102
RTVSPropertyOp5
 70
     1
102
RTVSPropertyOp6
 70
     1
102
RTVSPropertyOp7
 70
     1
102
RTVSPropertyOp8
 70
     1
102
RTVSPropertyOp9
 70
     1
102
RTVSPropertyOp10
 70
     1
102
RTVSPropertyOp11
 70
     1
102
RTVSPropertyOp12
 70
     1
102
RTVSPropertyOp13
 70
     1
102
RTVSPropertyOp14
 70
     1
102
RTVSPropertyOp15
 70
     1
102
RTVSPropertyOp16
 70
     1
102
RTVSPropertyOp17
 70
     1
102
RTVSPropertyOp18
 70
     1
102
RTVSPropertyOp19
 70
     1
102
RTVSPropertyOp20
 70
     1
102
RTVSPropertyOp21
 70
     1
102
RTVSPropertyOp22
 70
     1
102
RTVSPropertyOp23
 70
     1
102
RTVSPropertyOp24
 70
     1
102
RTVSPropertyOp25
 70
     1
102
RTVSPropertyOp26
 70
     1
102
RTVSPropertyOp27
 70
     1
102
RTVSPropertyOp28
 70
     1
102
RTVSPropertyOp29
 70
     1
102
RTVSPropertyOp30
 70
     1
102
RTVSPropertyOp31
 70
     1
102
RTVSPropertyOp32
 70
     1
  0
XRECORD
  5
D2
102
{ACAD_REACTORS
330
D1
102
}
330
D1
100
AcDbXrecord
280
     1
102
RTVSPropertyOp0
 70
     1
102
RTVSPropertyOp1
 70
     1
102
RTVSPropertyOp2
 70
     1
102
RTVSPropertyOp3
 70
     1
102
RTVSPropertyOp4
 70
     1
102
RTVSPropertyOp5
 70
     1
102
RTVSPropertyOp6
 70
     1
102
RTVSPropertyOp7
 70
     1
102
RTVSPropertyOp8
 70
     1
102
RTVSPropertyOp9
 70
     1
102
RTVSPropertyOp10
 70
     1
102
RTVSPropertyOp11
 70
     1
102
RTVSPropertyOp12
 70
     1
102
RTVSPropertyOp13
 70
     1
102
RTVSPropertyOp14
 70
     1
102
RTVSPropertyOp15
 70
     1
102
RTVSPropertyOp16
 70
     1
102
RTVSPropertyOp17
 70
     1
102
RTVSPropertyOp18
 70
     1
102
RTVSPropertyOp19
 70
     1
102
RTVSPropertyOp20
 70
     1
102
RTVSPropertyOp21
 70
     1
102
RTVSPropertyOp22
 70
     1
102
RTVSPropertyOp23
 70
     1
102
RTVSPropertyOp24
 70
     1
102
RTVSPropertyOp25
 70
     1
102
RTVSPropertyOp26
 70
     1
102
RTVSPropertyOp27
 70
     1
102
RTVSPropertyOp28
 70
     1
102
RTVSPropertyOp29
 70
     1
102
RTVSPropertyOp30
 70
     1
102
RTVSPropertyOp31
 70
     1
102
RTVSPropertyOp32
 70
     1
  0
XRECORD
  5
DA
102
{ACAD_REACTORS
330
D9
102
}
330
D9
100
AcDbXrecord
280
     1
102
RTVSPropertyOp0
 70
     1
102
RTVSPropertyOp1
 70
     1
102
RTVSPropertyOp2
 70
     1
102
RTVSPropertyOp3
 70
     1
102
RTVSPropertyOp4
 70
     1
102
RTVSPropertyOp5
 70
     1
102
RTVSPropertyOp6
 70
     1
102
RTVSPropertyOp7
 70
     1
102
RTVSPropertyOp8
 70
     1
102
RTVSPropertyOp9
 70
     1
102
RTVSPropertyOp10
 70
     1
102
RTVSPropertyOp11
 70
     1
102
RTVSPropertyOp12
 70
     1
102
RTVSPropertyOp13
 70
     1
102
RTVSPropertyOp14
 70
     1
102
RTVSPropertyOp15
 70
     1
102
RTVSPropertyOp16
 70
     1
102
RTVSPropertyOp17
 70
     1
102
RTVSPropertyOp18
 70
     1
102
RTVSPropertyOp19
 70
     1
102
RTVSPropertyOp20
 70
     1
102
RTVSPropertyOp21
 70
     1
102
RTVSPropertyOp22
 70
     1
102
RTVSPropertyOp23
 70
     1
102
RTVSPropertyOp24
 70
     1
102
RTVSPropertyOp25
 70
     1
102
RTVSPropertyOp26
 70
     1
102
RTVSPropertyOp27
 70
     1
102
RTVSPropertyOp28
 70
     1
102
RTVSPropertyOp29
 70
     1
102
RTVSPropertyOp30
 70
     1
102
RTVSPropertyOp31
 70
     1
102
RTVSPropertyOp32
 70
     1
  0
XRECORD
  5
E2
102
{ACAD_REACTORS
330
E1
102
}
330
E1
100
AcDbXrecord
280
     1
102
RTVSPropertyOp0
 70
     1
102
RTVSPropertyOp1
 70
     1
102
RTVSPropertyOp2
 70
     1
102
RTVSPropertyOp3
 70
     1
102
RTVSPropertyOp4
 70
     1
102
RTVSPropertyOp5
 70
     1
102
RTVSPropertyOp6
 70
     1
102
RTVSPropertyOp7
 70
     1
102
RTVSPropertyOp8
 70
     1
102
RTVSPropertyOp9
 70
     1
102
RTVSPropertyOp10
 70
     1
102
RTVSPropertyOp11
 70
     1
102
RTVSPropertyOp12
 70
     1
102
RTVSPropertyOp13
 70
     1
102
RTVSPropertyOp14
 70
     1
102
RTVSPropertyOp15
 70
     1
102
RTVSPropertyOp16
 70
     1
102
RTVSPropertyOp17
 70
     1
102
RTVSPropertyOp18
 70
     1
102
RTVSPropertyOp19
 70
     1
102
RTVSPropertyOp20
 70
     1
102
RTVSPropertyOp21
 70
     1
102
RTVSPropertyOp22
 70
     1
102
RTVSPropertyOp23
 70
     1
102
RTVSPropertyOp24
 70
     1
102
RTVSPropertyOp25
 70
     1
102
RTVSPropertyOp26
 70
     1
102
RTVSPropertyOp27
 70
     1
102
RTVSPropertyOp28
 70
     1
102
RTVSPropertyOp29
 70
     1
102
RTVSPropertyOp30
 70
     1
102
RTVSPropertyOp31
 70
     1
102
RTVSPropertyOp32
 70
     1
  0
XRECORD
  5
D6
102
{ACAD_REACTORS
330
D5
102
}
330
D5
100
AcDbXrecord
280
     1
102
RTVSPropertyOp0
 70
     1
102
RTVSPropertyOp1
 70
     1
102
RTVSPropertyOp2
 70
     1
102
RTVSPropertyOp3
 70
     1
102
RTVSPropertyOp4
 70
     1
102
RTVSPropertyOp5
 70
     1
102
RTVSPropertyOp6
 70
     1
102
RTVSPropertyOp7
 70
     1
102
RTVSPropertyOp8
 70
     1
102
RTVSPropertyOp9
 70
     1
102
RTVSPropertyOp10
 70
     1
102
RTVSPropertyOp11
 70
     1
102
RTVSPropertyOp12
 70
     1
102
RTVSPropertyOp13
 70
     1
102
RTVSPropertyOp14
 70
     1
102
RTVSPropertyOp15
 70
     1
102
RTVSPropertyOp16
 70
     1
102
RTVSPropertyOp17
 70
     1
102
RTVSPropertyOp18
 70
     1
102
RTVSPropertyOp19
 70
     1
102
RTVSPropertyOp20
 70
     1
102
RTVSPropertyOp21
 70
     1
102
RTVSPropertyOp22
 70
     1
102
RTVSPropertyOp23
 70
     1
102
RTVSPropertyOp24
 70
     1
102
RTVSPropertyOp25
 70
     1
102
RTVSPropertyOp26
 70
     1
102
RTVSPropertyOp27
 70
     1
102
RTVSPropertyOp28
 70
     1
102
RTVSPropertyOp29
 70
     1
102
RTVSPropertyOp30
 70
     1
102
RTVSPropertyOp31
 70
     1
102
RTVSPropertyOp32
 70
     1
  0
XRECORD
  5
D8
102
{ACAD_REACTORS
330
D7
102
}
330
D7
100
AcDbXrecord
280
     1
102
RTVSPropertyOp0
 70
     1
102
RTVSPropertyOp1
 70
     1
102
RTVSPropertyOp2
 70
     1
102
RTVSPropertyOp3
 70
     1
102
RTVSPropertyOp4
 70
     1
102
RTVSPropertyOp5
 70
     1
102
RTVSPropertyOp6
 70
     1
102
RTVSPropertyOp7
 70
     1
102
RTVSPropertyOp8
 70
     1
102
RTVSPropertyOp9
 70
     1
102
RTVSPropertyOp10
 70
     1
102
RTVSPropertyOp11
 70
     1
102
RTVSPropertyOp12
 70
     1
102
RTVSPropertyOp13
 70
     1
102
RTVSPropertyOp14
 70
     1
102
RTVSPropertyOp15
 70
     1
102
RTVSPropertyOp16
 70
     1
102
RTVSPropertyOp17
 70
     1
102
RTVSPropertyOp18
 70
     1
102
RTVSPropertyOp19
 70
     1
102
RTVSPropertyOp20
 70
     1
102
RTVSPropertyOp21
 70
     1
102
RTVSPropertyOp22
 70
     1
102
RTVSPropertyOp23
 70
     1
102
RTVSPropertyOp24
 70
     1
102
RTVSPropertyOp25
 70
     1
102
RTVSPropertyOp26
 70
     1
102
RTVSPropertyOp27
 70
     1
102
RTVSPropertyOp28
 70
     1
102
RTVSPropertyOp29
 70
     1
102
RTVSPropertyOp30
 70
     1
102
RTVSPropertyOp31
 70
     1
102
RTVSPropertyOp32
 70
     1
  0
XRECORD
  5
E0
102
{ACAD_REACTORS
330
DF
102
}
330
DF
100
AcDbXrecord
280
     1
102
RTVSPropertyOp0
 70
     1
102
RTVSPropertyOp1
 70
     1
102
RTVSPropertyOp2
 70
     1
102
RTVSPropertyOp3
 70
     1
102
RTVSPropertyOp4
 70
     1
102
RTVSPropertyOp5
 70
     1
102
RTVSPropertyOp6
 70
     1
102
RTVSPropertyOp7
 70
     1
102
RTVSPropertyOp8
 70
     1
102
RTVSPropertyOp9
 70
     1
102
RTVSPropertyOp10
 70
     1
102
RTVSPropertyOp11
 70
     1
102
RTVSPropertyOp12
 70
     1
102
RTVSPropertyOp13
 70
     1
102
RTVSPropertyOp14
 70
     1
102
RTVSPropertyOp15
 70
     1
102
RTVSPropertyOp16
 70
     1
102
RTVSPropertyOp17
 70
     1
102
RTVSPropertyOp18
 70
     1
102
RTVSPropertyOp19
 70
     1
102
RTVSPropertyOp20
 70
     1
102
RTVSPropertyOp21
 70
     1
102
RTVSPropertyOp22
 70
     1
102
RTVSPropertyOp23
 70
     1
102
RTVSPropertyOp24
 70
     1
102
RTVSPropertyOp25
 70
     1
102
RTVSPropertyOp26
 70
     1
102
RTVSPropertyOp27
 70
     1
102
RTVSPropertyOp28
 70
     1
102
RTVSPropertyOp29
 70
     1
102
RTVSPropertyOp30
 70
     1
102
RTVSPropertyOp31
 70
     1
102
RTVSPropertyOp32
 70
     1
  0
XRECORD
  5
C4
102
{ACAD_REACTORS
330
C3
102
}
330
C3
100
AcDbXrecord
280
     1
102
RTVSPropertyOp0
 70
     1
102
RTVSPropertyOp1
 70
     1
102
RTVSPropertyOp2
 70
     1
102
RTVSPropertyOp3
 70
     1
102
RTVSPropertyOp4
 70
     1
102
RTVSPropertyOp5
 70
     1
102
RTVSPropertyOp6
 70
     1
102
RTVSPropertyOp7
 70
     1
102
RTVSPropertyOp8
 70
     1
102
RTVSPropertyOp9
 70
     1
102
RTVSPropertyOp10
 70
     1
102
RTVSPropertyOp11
 70
     1
102
RTVSPropertyOp12
 70
     1
102
RTVSPropertyOp13
 70
     1
102
RTVSPropertyOp14
 70
     1
102
RTVSPropertyOp15
 70
     1
102
RTVSPropertyOp16
 70
     1
102
RTVSPropertyOp17
 70
     1
102
RTVSPropertyOp18
 70
     1
102
RTVSPropertyOp19
 70
     1
102
RTVSPropertyOp20
 70
     1
102
RTVSPropertyOp21
 70
     1
102
RTVSPropertyOp22
 70
     1
102
RTVSPropertyOp23
 70
     1
102
RTVSPropertyOp24
 70
     1
102
RTVSPropertyOp25
 70
     1
102
RTVSPropertyOp26
 70
     1
102
RTVSPropertyOp27
 70
     1
102
RTVSPropertyOp28
 70
     1
102
RTVSPropertyOp29
 70
     1
102
RTVSPropertyOp30
 70
     1
102
RTVSPropertyOp31
 70
     1
102
RTVSPropertyOp32
 70
     1
  0
XRECORD
  5
C6
102
{ACAD_REACTORS
330
C5
102
}
330
C5
100
AcDbXrecord
280
     1
102
RTVSPropertyOp0
 70
     1
102
RTVSPropertyOp1
 70
     1
102
RTVSPropertyOp2
 70
     1
102
RTVSPropertyOp3
 70
     1
102
RTVSPropertyOp4
 70
     1
102
RTVSPropertyOp5
 70
     1
102
RTVSPropertyOp6
 70
     1
102
RTVSPropertyOp7
 70
     1
102
RTVSPropertyOp8
 70
     1
102
RTVSPropertyOp9
 70
     1
102
RTVSPropertyOp10
 70
     1
102
RTVSPropertyOp11
 70
     1
102
RTVSPropertyOp12
 70
     1
102
RTVSPropertyOp13
 70
     1
102
RTVSPropertyOp14
 70
     1
102
RTVSPropertyOp15
 70
     1
102
RTVSPropertyOp16
 70
     1
102
RTVSPropertyOp17
 70
     1
102
RTVSPropertyOp18
 70
     1
102
RTVSPropertyOp19
 70
     1
102
RTVSPropertyOp20
 70
     1
102
RTVSPropertyOp21
 70
     1
102
RTVSPropertyOp22
 70
     1
102
RTVSPropertyOp23
 70
     1
102
RTVSPropertyOp24
 70
     1
102
RTVSPropertyOp25
 70
     1
102
RTVSPropertyOp26
 70
     1
102
RTVSPropertyOp27
 70
     1
102
RTVSPropertyOp28
 70
     1
102
RTVSPropertyOp29
 70
     1
102
RTVSPropertyOp30
 70
     1
102
RTVSPropertyOp31
 70
     1
102
RTVSPropertyOp32
 70
     1
  0
XRECORD
  5
C8
102
{ACAD_REACTORS
330
C7
102
}
330
C7
100
AcDbXrecord
280
     1
102
RTVSPropertyOp0
 70
     1
102
RTVSPropertyOp1
 70
     1
102
RTVSPropertyOp2
 70
     1
102
RTVSPropertyOp3
 70
     1
102
RTVSPropertyOp4
 70
     1
102
RTVSPropertyOp5
 70
     1
102
RTVSPropertyOp6
 70
     1
102
RTVSPropertyOp7
 70
     1
102
RTVSPropertyOp8
 70
     1
102
RTVSPropertyOp9
 70
     1
102
RTVSPropertyOp10
 70
     1
102
RTVSPropertyOp11
 70
     1
102
RTVSPropertyOp12
 70
     1
102
RTVSPropertyOp13
 70
     1
102
RTVSPropertyOp14
 70
     1
102
RTVSPropertyOp15
 70
     1
102
RTVSPropertyOp16
 70
     1
102
RTVSPropertyOp17
 70
     1
102
RTVSPropertyOp18
 70
     1
102
RTVSPropertyOp19
 70
     1
102
RTVSPropertyOp20
 70
     1
102
RTVSPropertyOp21
 70
     1
102
RTVSPropertyOp22
 70
     1
102
RTVSPropertyOp23
 70
     1
102
RTVSPropertyOp24
 70
     1
102
RTVSPropertyOp25
 70
     1
102
RTVSPropertyOp26
 70
     1
102
RTVSPropertyOp27
 70
     1
102
RTVSPropertyOp28
 70
     1
102
RTVSPropertyOp29
 70
     1
102
RTVSPropertyOp30
 70
     1
102
RTVSPropertyOp31
 70
     1
102
RTVSPropertyOp32
 70
     1
  0
XRECORD
  5
CA
102
{ACAD_REACTORS
330
C9
102
}
330
C9
100
AcDbXrecord
280
     1
102
RTVSPropertyOp0
 70
     1
102
RTVSPropertyOp1
 70
     1
102
RTVSPropertyOp2
 70
     1
102
RTVSPropertyOp3
 70
     1
102
RTVSPropertyOp4
 70
     1
102
RTVSPropertyOp5
 70
     1
102
RTVSPropertyOp6
 70
     1
102
RTVSPropertyOp7
 70
     1
102
RTVSPropertyOp8
 70
     1
102
RTVSPropertyOp9
 70
     1
102
RTVSPropertyOp10
 70
     1
102
RTVSPropertyOp11
 70
     1
102
RTVSPropertyOp12
 70
     1
102
RTVSPropertyOp13
 70
     1
102
RTVSPropertyOp14
 70
     1
102
RTVSPropertyOp15
 70
     1
102
RTVSPropertyOp16
 70
     1
102
RTVSPropertyOp17
 70
     1
102
RTVSPropertyOp18
 70
     1
102
RTVSPropertyOp19
 70
     1
102
RTVSPropertyOp20
 70
     1
102
RTVSPropertyOp21
 70
     1
102
RTVSPropertyOp22
 70
     1
102
RTVSPropertyOp23
 70
     1
102
RTVSPropertyOp24
 70
     1
102
RTVSPropertyOp25
 70
     1
102
RTVSPropertyOp26
 70
     1
102
RTVSPropertyOp27
 70
     1
102
RTVSPropertyOp28
 70
     1
102
RTVSPropertyOp29
 70
     1
102
RTVSPropertyOp30
 70
     1
102
RTVSPropertyOp31
 70
     1
102
RTVSPropertyOp32
 70
     1
  0
XRECORD
  5
DE
102
{ACAD_REACTORS
330
DD
102
}
330
DD
100
AcDbXrecord
280
     1
102
RTVSPropertyOp0
 70
     1
102
RTVSPropertyOp1
 70
     1
102
RTVSPropertyOp2
 70
     1
102
RTVSPropertyOp3
 70
     1
102
RTVSPropertyOp4
 70
     1
102
RTVSPropertyOp5
 70
     1
102
RTVSPropertyOp6
 70
     1
102
RTVSPropertyOp7
 70
     1
102
RTVSPropertyOp8
 70
     1
102
RTVSPropertyOp9
 70
     1
102
RTVSPropertyOp10
 70
     1
102
RTVSPropertyOp11
 70
     1
102
RTVSPropertyOp12
 70
     1
102
RTVSPropertyOp13
 70
     1
102
RTVSPropertyOp14
 70
     1
102
RTVSPropertyOp15
 70
     1
102
RTVSPropertyOp16
 70
     1
102
RTVSPropertyOp17
 70
     1
102
RTVSPropertyOp18
 70
     1
102
RTVSPropertyOp19
 70
     1
102
RTVSPropertyOp20
 70
     1
102
RTVSPropertyOp21
 70
     1
102
RTVSPropertyOp22
 70
     1
102
RTVSPropertyOp23
 70
     1
102
RTVSPropertyOp24
 70
     1
102
RTVSPropertyOp25
 70
     1
102
RTVSPropertyOp26
 70
     1
102
RTVSPropertyOp27
 70
     1
102
RTVSPropertyOp28
 70
     1
102
RTVSPropertyOp29
 70
     1
102
RTVSPropertyOp30
 70
     1
102
RTVSPropertyOp31
 70
     1
102
RTVSPropertyOp32
 70
     1
  0
XRECORD
  5
D4
102
{ACAD_REACTORS
330
D3
102
}
330
D3
100
AcDbXrecord
280
     1
102
RTVSPropertyOp0
 70
     1
102
RTVSPropertyOp1
 70
     1
102
RTVSPropertyOp2
 70
     1
102
RTVSPropertyOp3
 70
     1
102
RTVSPropertyOp4
 70
     1
102
RTVSPropertyOp5
 70
     1
102
RTVSPropertyOp6
 70
     1
102
RTVSPropertyOp7
 70
     1
102
RTVSPropertyOp8
 70
     1
102
RTVSPropertyOp9
 70
     1
102
RTVSPropertyOp10
 70
     1
102
RTVSPropertyOp11
 70
     1
102
RTVSPropertyOp12
 70
     1
102
RTVSPropertyOp13
 70
     1
102
RTVSPropertyOp14
 70
     1
102
RTVSPropertyOp15
 70
     1
102
RTVSPropertyOp16
 70
     1
102
RTVSPropertyOp17
 70
     1
102
RTVSPropertyOp18
 70
     1
102
RTVSPropertyOp19
 70
     1
102
RTVSPropertyOp20
 70
     1
102
RTVSPropertyOp21
 70
     1
102
RTVSPropertyOp22
 70
     1
102
RTVSPropertyOp23
 70
     1
102
RTVSPropertyOp24
 70
     1
102
RTVSPropertyOp25
 70
     1
102
RTVSPropertyOp26
 70
     1
102
RTVSPropertyOp27
 70
     1
102
RTVSPropertyOp28
 70
     1
102
RTVSPropertyOp29
 70
     1
102
RTVSPropertyOp30
 70
     1
102
RTVSPropertyOp31
 70
     1
102
RTVSPropertyOp32
 70
     1
  0
XRECORD
  5
DC
102
{ACAD_REACTORS
330
DB
102
}
330
DB
100
AcDbXrecord
280
     1
102
RTVSPropertyOp0
 70
     1
102
RTVSPropertyOp1
 70
     1
102
RTVSPropertyOp2
 70
     1
102
RTVSPropertyOp3
 70
     1
102
RTVSPropertyOp4
 70
     1
102
RTVSPropertyOp5
 70
     1
102
RTVSPropertyOp6
 70
     1
102
RTVSPropertyOp7
 70
     1
102
RTVSPropertyOp8
 70
     1
102
RTVSPropertyOp9
 70
     1
102
RTVSPropertyOp10
 70
     1
102
RTVSPropertyOp11
 70
     1
102
RTVSPropertyOp12
 70
     1
102
RTVSPropertyOp13
 70
     1
102
RTVSPropertyOp14
 70
     1
102
RTVSPropertyOp15
 70
     1
102
RTVSPropertyOp16
 70
     1
102
RTVSPropertyOp17
 70
     1
102
RTVSPropertyOp18
 70
     1
102
RTVSPropertyOp19
 70
     1
102
RTVSPropertyOp20
 70
     1
102
RTVSPropertyOp21
 70
     1
102
RTVSPropertyOp22
 70
     1
102
RTVSPropertyOp23
 70
     1
102
RTVSPropertyOp24
 70
     1
102
RTVSPropertyOp25
 70
     1
102
RTVSPropertyOp26
 70
     1
102
RTVSPropertyOp27
 70
     1
102
RTVSPropertyOp28
 70
     1
102
RTVSPropertyOp29
 70
     1
102
RTVSPropertyOp30
 70
     1
102
RTVSPropertyOp31
 70
     1
102
RTVSPropertyOp32
 70
     1
  0
ENDSEC
  0
EOF
