  0
SECTION
  2
HEADER
  9
$ACADVER
  1
AC1021
  9
$ACADMAINTVER
 70
    25
  9
$DWGCODEPAGE
  3
ANSI_1256
  9
$INSBASE
 10
0.0
 20
0.0
 30
0.0
  9
$EXTMIN
 10
5.5726
 20
-115.0177
 30
0.0
  9
$EXTMAX
 10
196.3096
 20
131.735
 30
0.0
  9
$LIMMIN
 10
0.0
 20
0.0
  9
$LIMMAX
 10
12.0
 20
9.0
  9
$ORTHOMODE
 70
     0
  9
$REGENMODE
 70
     1
  9
$FILLMODE
 70
     1
  9
$QTEXTMODE
 70
     0
  9
$MIRRTEXT
 70
     1
  9
$LTSCALE
 40
1.0
  9
$ATTMODE
 70
     1
  9
$TEXTSIZE
 40
0.2
  9
$TRACEWID
 40
0.05
  9
$TEXTSTYLE
  7
Standard
  9
$CLAYER
  8
0
  9
$CELTYPE
  6
ByLayer
  9
$CECOLOR
 62
   256
  9
$CELTSCALE
 40
1.0
  9
$DISPSILH
 70
     0
  9
$DIMSCALE
 40
1.0
  9
$DIMASZ
 40
0.18
  9
$DIMEXO
 40
0.0625
  9
$DIMDLI
 40
0.38
  9
$DIMRND
 40
0.0
  9
$DIMDLE
 40
0.0
  9
$DIMEXE
 40
0.18
  9
$DIMTP
 40
0.0
  9
$DIMTM
 40
0.0
  9
$DIMTXT
 40
0.18
  9
$DIMCEN
 40
0.09
  9
$DIMTSZ
 40
0.0
  9
$DIMTOL
 70
     0
  9
$DIMLIM
 70
     0
  9
$DIMTIH
 70
     1
  9
$DIMTOH
 70
     1
  9
$DIMSE1
 70
     0
  9
$DIMSE2
 70
     0
  9
$DIMTAD
 70
     0
  9
$DIMZIN
 70
     0
  9
$DIMBLK
  1

  9
$DIMASO
 70
     1
  9
$DIMSHO
 70
     1
  9
$DIMPOST
  1

  9
$DIMAPOST
  1

  9
$DIMALT
 70
     0
  9
$DIMALTD
 70
     2
  9
$DIMALTF
 40
25.4
  9
$DIMLFAC
 40
1.0
  9
$DIMTOFL
 70
     0
  9
$DIMTVP
 40
0.0
  9
$DIMTIX
 70
     0
  9
$DIMSOXD
 70
     0
  9
$DIMSAH
 70
     0
  9
$DIMBLK1
  1

  9
$DIMBLK2
  1

  9
$DIMSTYLE
  2
Standard
  9
$DIMCLRD
 70
     0
  9
$DIMCLRE
 70
     0
  9
$DIMCLRT
 70
     0
  9
$DIMTFAC
 40
1.0
  9
$DIMGAP
 40
0.09
  9
$DIMJUST
 70
     0
  9
$DIMSD1
 70
     0
  9
$DIMSD2
 70
     0
  9
$DIMTOLJ
 70
     1
  9
$DIMTZIN
 70
     0
  9
$DIMALTZ
 70
     0
  9
$DIMALTTZ
 70
     0
  9
$DIMUPT
 70
     0
  9
$DIMDEC
 70
     4
  9
$DIMTDEC
 70
     4
  9
$DIMALTU
 70
     2
  9
$DIMALTTD
 70
     2
  9
$DIMTXSTY
  7
Standard
  9
$DIMAUNIT
 70
     0
  9
$DIMADEC
 70
     0
  9
$DIMALTRND
 40
0.0
  9
$DIMAZIN
 70
     0
  9
$DIMDSEP
 70
    46
  9
$DIMATFIT
 70
     3
  9
$DIMFRAC
 70
     0
  9
$DIMLDRBLK
  1

  9
$DIMLUNIT
 70
     2
  9
$DIMLWD
 70
    -2
  9
$DIMLWE
 70
    -2
  9
$DIMTMOVE
 70
     0
  9
$DIMFXL
 40
1.0
  9
$DIMFXLON
 70
     0
  9
$DIMJOGANG
 40
0.7853981633974483
  9
$DIMTFILL
 70
     0
  9
$DIMTFILLCLR
 70
     0
  9
$DIMARCSYM
 70
     0
  9
$DIMLTYPE
  6

  9
$DIMLTEX1
  6

  9
$DIMLTEX2
  6

  9
$LUNITS
 70
     2
  9
$LUPREC
 70
     4
  9
$SKETCHINC
 40
0.1
  9
$FILLETRAD
 40
0.5
  9
$AUNITS
 70
     0
  9
$AUPREC
 70
     0
  9
$MENU
  1
.
  9
$ELEVATION
 40
0.0
  9
$PELEVATION
 40
0.0
  9
$THICKNESS
 40
0.0
  9
$LIMCHECK
 70
     0
  9
$CHAMFERA
 40
0.5
  9
$CHAMFERB
 40
0.5
  9
$CHAMFERC
 40
1.0
  9
$CHAMFERD
 40
0.0
  9
$SKPOLY
 70
     0
  9
$TDCREATE
 40
2458479.382704005
  9
$TDUCREATE
 40
2458479.216037338
  9
$TDUPDATE
 40
2458479.382704317
  9
$TDUUPDATE
 40
2458479.216037651
  9
$TDINDWG
 40
0.0000000116
  9
$TDUSRTIMER
 40
0.0000000116
  9
$USRTIMER
 70
     1
  9
$ANGBASE
 50
0.0
  9
$ANGDIR
 70
     0
  9
$PDMODE
 70
     0
  9
$PDSIZE
 40
0.0
  9
$PLINEWID
 40
0.0
  9
$SPLFRAME
 70
     0
  9
$SPLINETYPE
 70
     6
  9
$SPLINESEGS
 70
     8
  9
$HANDSEED
  5
12A
  9
$SURFTAB1
 70
     6
  9
$SURFTAB2
 70
     6
  9
$SURFTYPE
 70
     6
  9
$SURFU
 70
     6
  9
$SURFV
 70
     6
  9
$UCSBASE
  2

  9
$UCSNAME
  2

  9
$UCSORG
 10
0.0
 20
0.0
 30
0.0
  9
$UCSXDIR
 10
1.0
 20
0.0
 30
0.0
  9
$UCSYDIR
 10
0.0
 20
1.0
 30
0.0
  9
$UCSORTHOREF
  2

  9
$UCSORTHOVIEW
 70
     0
  9
$UCSORGTOP
 10
0.0
 20
0.0
 30
0.0
  9
$UCSORGBOTTOM
 10
0.0
 20
0.0
 30
0.0
  9
$UCSORGLEFT
 10
0.0
 20
0.0
 30
0.0
  9
$UCSORGRIGHT
 10
0.0
 20
0.0
 30
0.0
  9
$UCSORGFRONT
 10
0.0
 20
0.0
 30
0.0
  9
$UCSORGBACK
 10
0.0
 20
0.0
 30
0.0
  9
$PUCSBASE
  2

  9
$PUCSNAME
  2

  9
$PUCSORG
 10
0.0
 20
0.0
 30
0.0
  9
$PUCSXDIR
 10
1.0
 20
0.0
 30
0.0
  9
$PUCSYDIR
 10
0.0
 20
1.0
 30
0.0
  9
$PUCSORTHOREF
  2

  9
$PUCSORTHOVIEW
 70
     0
  9
$PUCSORGTOP
 10
0.0
 20
0.0
 30
0.0
  9
$PUCSORGBOTTOM
 10
0.0
 20
0.0
 30
0.0
  9
$PUCSORGLEFT
 10
0.0
 20
0.0
 30
0.0
  9
$PUCSORGRIGHT
 10
0.0
 20
0.0
 30
0.0
  9
$PUCSORGFRONT
 10
0.0
 20
0.0
 30
0.0
  9
$PUCSORGBACK
 10
0.0
 20
0.0
 30
0.0
  9
$USERI1
 70
     0
  9
$USERI2
 70
     0
  9
$USERI3
 70
     0
  9
$USERI4
 70
     0
  9
$USERI5
 70
     0
  9
$USERR1
 40
0.0
  9
$USERR2
 40
0.0
  9
$USERR3
 40
0.0
  9
$USERR4
 40
0.0
  9
$USERR5
 40
0.0
  9
$WORLDVIEW
 70
     1
  9
$SHADEDGE
 70
     3
  9
$SHADEDIF
 70
    70
  9
$TILEMODE
 70
     1
  9
$MAXACTVP
 70
    64
  9
$PINSBASE
 10
0.0
 20
0.0
 30
0.0
  9
$PLIMCHECK
 70
     0
  9
$PEXTMIN
 10
1.000000000000000E+20
 20
1.000000000000000E+20
 30
1.000000000000000E+20
  9
$PEXTMAX
 10
-1.000000000000000E+20
 20
-1.000000000000000E+20
 30
-1.000000000000000E+20
  9
$PLIMMIN
 10
0.0
 20
0.0
  9
$PLIMMAX
 10
12.0
 20
9.0
  9
$UNITMODE
 70
     0
  9
$VISRETAIN
 70
     1
  9
$PLINEGEN
 70
     0
  9
$PSLTSCALE
 70
     1
  9
$TREEDEPTH
 70
  3020
  9
$CMLSTYLE
  2
Standard
  9
$CMLJUST
 70
     0
  9
$CMLSCALE
 40
1.0
  9
$PROXYGRAPHICS
 70
     1
  9
$MEASUREMENT
 70
     0
  9
$CELWEIGHT
370
    -1
  9
$ENDCAPS
280
     0
  9
$JOINSTYLE
280
     0
  9
$LWDISPLAY
290
     0
  9
$INSUNITS
 70
     4
  9
$HYPERLINKBASE
  1

  9
$STYLESHEET
  1

  9
$XEDIT
290
     1
  9
$CEPSNTYPE
380
     0
  9
$PSTYLEMODE
290
     1
  9
$FINGERPRINTGUID
  2
{E17454FF-97BE-47E5-BA42-4B95F5A6CEA6}
  9
$VERSIONGUID
  2
{FAEB1C32-E019-11D5-929B-00C0DF256EC4}
  9
$EXTNAMES
290
     1
  9
$PSVPSCALE
 40
0.0
  9
$OLESTARTUP
290
     0
  9
$SORTENTS
280
   127
  9
$INDEXCTL
280
     0
  9
$HIDETEXT
280
     1
  9
$XCLIPFRAME
290
     0
  9
$HALOGAP
280
     0
  9
$OBSCOLOR
 70
   257
  9
$OBSLTYPE
280
     0
  9
$INTERSECTIONDISPLAY
280
     0
  9
$INTERSECTIONCOLOR
 70
   257
  9
$DIMASSOC
280
     2
  9
$PROJECTNAME
  1

  9
$CAMERADISPLAY
290
     0
  9
$LENSLENGTH
 40
50.0
  9
$CAMERAHEIGHT
 40
0.0
  9
$STEPSPERSEC
 40
2.0
  9
$STEPSIZE
 40
6.0
  9
$3DDWFPREC
 40
2.0
  9
$PSOLWIDTH
 40
0.25
  9
$PSOLHEIGHT
 40
4.0
  9
$LOFTANG1
 40
1.570796326794897
  9
$LOFTANG2
 40
1.570796326794897
  9
$LOFTMAG1
 40
0.0
  9
$LOFTMAG2
 40
0.0
  9
$LOFTPARAM
 70
     7
  9
$LOFTNORMALS
280
     1
  9
$LATITUDE
 40
37.795
  9
$LONGITUDE
 40
-122.394
  9
$NORTHDIRECTION
 40
0.0
  9
$TIMEZONE
 70
 -8000
  9
$LIGHTGLYPHDISPLAY
280
     1
  9
$TILEMODELIGHTSYNCH
280
     1
  9
$SOLIDHIST
280
     1
  9
$SHOWHIST
280
     1
  9
$DWFFRAME
280
     2
  9
$DGNFRAME
280
     2
  9
$REALWORLDSCALE
290
     1
  9
$INTERFERECOLOR
 62
   256
  9
$CSHADOW
280
     0
  9
$SHADOWPLANELOCATION
 40
0.0
  0
ENDSEC
  0
SECTION
  2
CLASSES
  0
CLASS
  1
ACDBDICTIONARYWDFLT
  2
AcDbDictionaryWithDefault
  3
ObjectDBX Classes
 90
        0
 91
        4
280
     0
281
     0
  0
CLASS
  1
VISUALSTYLE
  2
AcDbVisualStyle
  3
ObjectDBX Classes
 90
     4095
 91
        4
280
     0
281
     0
  0
CLASS
  1
MATERIAL
  2
AcDbMaterial
  3
ObjectDBX Classes
 90
     1153
 91
        4
280
     0
281
     0
  0
ENDSEC
  0
SECTION
  2
TABLES
  0
TABLE
  2
VPORT
  5
8
330
0
100
AcDbSymbolTable
 70
     1
  0
VPORT
  5
29
330
8
100
AcDbSymbolTableRecord
100
AcDbViewportTableRecord
  2
*Active
 70
     0
 10
0.0
 20
0.0
 11
1.0
 21
1.0
 12
10.42990654205607
 22
4.5
 13
0.0
 23
0.0
 14
0.5
 24
0.5
 15
0.5
 25
0.5
 16
0.0
 26
0.0
 36
1.0
 17
0.0
 27
0.0
 37
0.0
 40
9.0
 41
1.972972972850329
 42
50.0
 43
0.0
 44
0.0
 50
0.0
 51
0.0
 71
     0
 72
   100
 73
     1
 74
     3
 75
     0
 76
     0
 77
     0
 78
     0
281
     0
 65
     1
110
0.0
120
0.0
130
0.0
111
1.0
121
0.0
131
0.0
112
0.0
122
1.0
132
0.0
 79
     0
146
0.0
 60
     3
 61
     5
292
     1
282
     1
141
0.0
142
0.0
 63
   250
  0
ENDTAB
  0
TABLE
  2
LTYPE
  5
5
330
0
100
AcDbSymbolTable
 70
     1
  0
LTYPE
  5
14
330
5
100
AcDbSymbolTableRecord
100
AcDbLinetypeTableRecord
  2
ByBlock
 70
     0
  3

 72
    65
 73
     0
 40
0.0
  0
LTYPE
  5
15
330
5
100
AcDbSymbolTableRecord
100
AcDbLinetypeTableRecord
  2
ByLayer
 70
     0
  3

 72
    65
 73
     0
 40
0.0
  0
LTYPE
  5
16
330
5
100
AcDbSymbolTableRecord
100
AcDbLinetypeTableRecord
  2
Continuous
 70
     0
  3
Solid line
 72
    65
 73
     0
 40
0.0
  0
ENDTAB
  0
TABLE
  2
LAYER
  5
2
330
0
100
AcDbSymbolTable
 70
     3
  0
LAYER
  5
10
330
2
100
AcDbSymbolTableRecord
100
AcDbLayerTableRecord
  2
0
 70
     0
 62
     7
  6
Continuous
370
    -3
390
F
347
3E
  0
LAYER
  5
40
330
2
100
AcDbSymbolTableRecord
100
AcDbLayerTableRecord
  2
layer 1
 70
     0
 62
     7
  6
Continuous
370
    -3
390
F
347
3E
  0
LAYER
  5
107
330
2
100
AcDbSymbolTableRecord
100
AcDbLayerTableRecord
  2
Master Guides
 70
     0
 62
     7
  6
Continuous
370
    -3
390
F
347
3E
  0
ENDTAB
  0
TABLE
  2
STYLE
  5
3
330
0
100
AcDbSymbolTable
 70
     1
  0
STYLE
  5
11
330
3
100
AcDbSymbolTableRecord
100
AcDbTextStyleTableRecord
  2
Standard
 70
     0
 40
0.0
 41
1.0
 50
0.0
 71
     0
 42
0.2
  3
txt
  4

  0
ENDTAB
  0
TABLE
  2
VIEW
  5
6
330
0
100
AcDbSymbolTable
 70
     0
  0
ENDTAB
  0
TABLE
  2
UCS
  5
7
330
0
100
AcDbSymbolTable
 70
     0
  0
ENDTAB
  0
TABLE
  2
APPID
  5
9
330
0
100
AcDbSymbolTable
 70
     2
  0
APPID
  5
12
330
9
100
AcDbSymbolTableRecord
100
AcDbRegAppTableRecord
  2
ACAD
 70
     0
  0
APPID
  5
3F
330
9
100
AcDbSymbolTableRecord
100
AcDbRegAppTableRecord
  2
ODA
 70
     0
  0
ENDTAB
  0
TABLE
  2
DIMSTYLE
  5
A
330
0
100
AcDbSymbolTable
 70
     1
100
AcDbDimStyleTable
  0
DIMSTYLE
105
27
330
A
100
AcDbSymbolTableRecord
100
AcDbDimStyleTableRecord
  2
Standard
 70
     0
178
     0
340
11
  0
ENDTAB
  0
TABLE
  2
BLOCK_RECORD
  5
1
330
0
100
AcDbSymbolTable
 70
     1
  0
BLOCK_RECORD
  5
1F
330
1
100
AcDbSymbolTableRecord
100
AcDbBlockTableRecord
  2
*Model_Space
340
22
 70
     0
280
     1
281
     0
  0
BLOCK_RECORD
  5
1B
330
1
100
AcDbSymbolTableRecord
100
AcDbBlockTableRecord
  2
*Paper_Space
340
1E
 70
     0
280
     1
281
     0
  0
BLOCK_RECORD
  5
23
330
1
100
AcDbSymbolTableRecord
100
AcDbBlockTableRecord
  2
*Paper_Space0
340
26
 70
     0
280
     1
281
     0
  0
ENDTAB
  0
ENDSEC
  0
SECTION
  2
BLOCKS
  0
BLOCK
  5
20
330
1F
100
AcDbEntity
  8
0
100
AcDbBlockBegin
  2
*Model_Space
 70
     0
 10
0.0
 20
0.0
 30
0.0
  3
*Model_Space
  1

  0
ENDBLK
  5
21
330
1F
100
AcDbEntity
  8
0
100
AcDbBlockEnd
  0
BLOCK
  5
1C
330
1B
100
AcDbEntity
 67
     1
  8
0
100
AcDbBlockBegin
  2
*Paper_Space
 70
     0
 10
0.0
 20
0.0
 30
0.0
  3
*Paper_Space
  1

  0
ENDBLK
  5
1D
330
1B
100
AcDbEntity
 67
     1
  8
0
100
AcDbBlockEnd
  0
BLOCK
  5
24
330
23
100
AcDbEntity
  8
0
100
AcDbBlockBegin
  2
*Paper_Space0
 70
     0
 10
0.0
 20
0.0
 30
0.0
  3
*Paper_Space0
  1

  0
ENDBLK
  5
25
330
23
100
AcDbEntity
  8
0
100
AcDbBlockEnd
  0
ENDSEC
  0
SECTION
  2
ENTITIES
  0
SPLINE
  5
41
330
1F
100
AcDbEntity
  8
layer 1
 62
   250
100
AcDbSpline
210
0.0
220
0.0
230
1.0
 70
    11
 71
     3
 72
    20
 73
    16
 74
     0
 42
0.0000000001
 43
0.0000000001
 12
1.0
 22
0.0
 32
0.0
 13
1.0
 23
0.0
 33
0.0
 40
0.0
 40
0.0
 40
0.0
 40
0.0
 40
0.2
 40
0.2
 40
0.2
 40
0.2
 40
0.4
 40
0.4
 40
0.4
 40
0.4
 40
0.6
 40
0.6
 40
0.6
 40
0.6
 40
1.0
 40
1.0
 40
1.0
 40
1.0
 10
5.5726
 20
131.735
 30
0.0
 10
5.5726
 20
131.735
 30
0.0
 10
196.3096
 20
131.735
 30
0.0
 10
196.3096
 20
131.735
 30
0.0
 10
196.3096
 20
131.735
 30
0.0
 10
196.3096
 20
131.735
 30
0.0
 10
196.3096
 20
-115.0177
 30
0.0
 10
196.3096
 20
-115.0177
 30
0.0
 10
196.3096
 20
-115.0177
 30
0.0
 10
196.3096
 20
-115.0177
 30
0.0
 10
5.5726
 20
-115.0177
 30
0.0
 10
5.5726
 20
-115.0177
 30
0.0
 10
5.5726
 20
-115.0177
 30
0.0
 10
5.5726
 20
-115.0177
 30
0.0
 10
5.5726
 20
131.735
 30
0.0
 10
5.5726
 20
131.735
 30
0.0
  0
SPLINE
  5
42
330
1F
100
AcDbEntity
  8
layer 1
 62
     7
100
AcDbSpline
210
0.0
220
0.0
230
1.0
 70
    11
 71
     3
 72
    32
 73
    28
 74
     0
 42
0.0000000001
 43
0.0000000001
 12
1.0
 22
0.0
 32
0.0
 13
1.0
 23
0.0
 33
0.0
 40
0.0
 40
0.0
 40
0.0
 40
0.0
 40
0.125
 40
0.125
 40
0.125
 40
0.125
 40
0.25
 40
0.25
 40
0.25
 40
0.25
 40
0.375
 40
0.375
 40
0.375
 40
0.375
 40
0.5
 40
0.5
 40
0.5
 40
0.5
 40
0.625
 40
0.625
 40
0.625
 40
0.625
 40
0.75
 40
0.75
 40
0.75
 40
0.75
 40
1.0
 40
1.0
 40
1.0
 40
1.0
 10
59.4737
 20
95.3723
 30
0.0
 10
59.4737
 20
91.9849
 30
0.0
 10
58.4123
 20
88.8454
 30
0.0
 10
56.604
 20
86.268
 30
0.0
 10
56.604
 20
86.268
 30
0.0
 10
56.604
 20
86.268
 30
0.0
 10
49.0059
 20
93.2986
 30
0.0
 10
49.0059
 20
93.2986
 30
0.0
 10
49.0059
 20
93.2986
 30
0.0
 10
49.0059
 20
93.2986
 30
0.0
 10
50.9571
 20
95.2533
 30
0.0
 10
50.9571
 20
95.2533
 30
0.0
 10
50.9571
 20
95.2533
 30
0.0
 10
50.9571
 20
95.2533
 30
0.0
 10
49.0415
 20
97.2092
 30
0.0
 10
49.0415
 20
97.2092
 30
0.0
 10
49.0415
 20
97.2092
 30
0.0
 10
49.0415
 20
97.2092
 30
0.0
 10
56.5085
 20
104.611
 30
0.0
 10
56.5085
 20
104.611
 30
0.0
 10
56.5085
 20
104.611
 30
0.0
 10
58.3748
 20
102.0088
 30
0.0
 10
59.4737
 20
98.8188
 30
0.0
 10
59.4737
 20
95.3722
 30
0.0
 10
59.4737
 20
95.3722
 30
0.0
 10
59.4737
 20
95.3722
 30
0.0
 10
59.4737
 20
95.3723
 30
0.0
 10
59.4737
 20
95.3723
 30
0.0
  0
SPLINE
  5
43
330
1F
100
AcDbEntity
  8
layer 1
 62
     7
100
AcDbSpline
210
0.0
220
0.0
230
1.0
 70
    11
 71
     3
 72
    20
 73
    16
 74
     0
 42
0.0000000001
 43
0.0000000001
 12
1.0
 22
0.0
 32
0.0
 13
1.0
 23
0.0
 33
0.0
 40
0.0
 40
0.0
 40
0.0
 40
0.0
 40
0.2
 40
0.2
 40
0.2
 40
0.2
 40
0.4
 40
0.4
 40
0.4
 40
0.4
 40
0.6
 40
0.6
 40
0.6
 40
0.6
 40
1.0
 40
1.0
 40
1.0
 40
1.0
 10
65.7696
 20
106.6833
 30
0.0
 10
68.0365
 20
105.1024
 30
0.0
 10
76.1219
 20
104.834
 30
0.0
 10
79.0152
 20
106.6833
 30
0.0
 10
79.0152
 20
106.6833
 30
0.0
 10
78.3189
 20
105.5158
 30
0.0
 10
77.7717
 20
104.2861
 30
0.0
 10
77.3984
 20
102.9437
 30
0.0
 10
77.3984
 20
102.9437
 30
0.0
 10
74.6244
 20
102.5262
 30
0.0
 10
70.6325
 20
102.5388
 30
0.0
 10
67.3515
 20
103.0758
 30
0.0
 10
67.3515
 20
103.0758
 30
0.0
 10
66.9935
 20
104.3584
 30
0.0
 10
66.3981
 20
105.6957
 30
0.0
 10
65.7696
 20
106.6833
 30
0.0
  0
SPLINE
  5
44
330
1F
100
AcDbEntity
  8
layer 1
 62
     7
100
AcDbSpline
210
0.0
220
0.0
230
1.0
 70
    11
 71
     3
 72
    20
 73
    16
 74
     0
 42
0.0000000001
 43
0.0000000001
 12
1.0
 22
0.0
 32
0.0
 13
1.0
 23
0.0
 33
0.0
 40
0.0
 40
0.0
 40
0.0
 40
0.0
 40
0.2
 40
0.2
 40
0.2
 40
0.2
 40
0.4
 40
0.4
 40
0.4
 40
0.4
 40
0.6
 40
0.6
 40
0.6
 40
0.6
 40
1.0
 40
1.0
 40
1.0
 40
1.0
 10
68.0684
 20
99.823
 30
0.0
 10
69.7388
 20
98.9282
 30
0.0
 10
74.6901
 20
98.7492
 30
0.0
 10
76.7185
 20
99.823
 30
0.0
 10
76.7185
 20
99.823
 30
0.0
 10
76.1047
 20
98.06
 30
0.0
 10
76.1644
 20
92.718
 30
0.0
 10
76.6733
 20
91.1134
 30
0.0
 10
76.6733
 20
91.1134
 30
0.0
 10
73.8696
 20
91.7994
 30
0.0
 10
71.1109
 20
91.9485
 30
0.0
 10
68.0684
 20
91.0835
 30
0.0
 10
68.0684
 20
91.0835
 30
0.0
 10
68.5727
 20
93.0256
 30
0.0
 10
68.6904
 20
97.586
 30
0.0
 10
68.0684
 20
99.823
 30
0.0
  0
SPLINE
  5
45
330
1F
100
AcDbEntity
  8
layer 1
 62
     7
100
AcDbSpline
210
0.0
220
0.0
230
1.0
 70
    11
 71
     3
 72
    20
 73
    16
 74
     0
 42
0.0000000001
 43
0.0000000001
 12
1.0
 22
0.0
 32
0.0
 13
1.0
 23
0.0
 33
0.0
 40
0.0
 40
0.0
 40
0.0
 40
0.0
 40
0.2
 40
0.2
 40
0.2
 40
0.2
 40
0.4
 40
0.4
 40
0.4
 40
0.4
 40
0.6
 40
0.6
 40
0.6
 40
0.6
 40
1.0
 40
1.0
 40
1.0
 40
1.0
 10
65.7696
 20
84.3233
 30
0.0
 10
68.0365
 20
85.9042
 30
0.0
 10
76.1219
 20
86.1727
 30
0.0
 10
79.0152
 20
84.3233
 30
0.0
 10
79.0152
 20
84.3233
 30
0.0
 10
78.1502
 20
85.6407
 30
0.0
 10
77.9029
 20
86.6831
 30
0.0
 10
77.3797
 20
88.0629
 30
0.0
 10
77.3797
 20
88.0629
 30
0.0
 10
74.6057
 20
88.4805
 30
0.0
 10
70.6326
 20
88.4678
 30
0.0
 10
67.3515
 20
87.9309
 30
0.0
 10
67.3515
 20
87.9309
 30
0.0
 10
66.9935
 20
86.6482
 30
0.0
 10
66.3981
 20
85.3109
 30
0.0
 10
65.7696
 20
84.3233
 30
0.0
  0
SPLINE
  5
46
330
1F
100
AcDbEntity
  8
layer 1
 62
     7
100
AcDbSpline
210
0.0
220
0.0
230
1.0
 70
    11
 71
     3
 72
    32
 73
    28
 74
     0
 42
0.0000000001
 43
0.0000000001
 12
1.0
 22
0.0
 32
0.0
 13
1.0
 23
0.0
 33
0.0
 40
0.0
 40
0.0
 40
0.0
 40
0.0
 40
0.125
 40
0.125
 40
0.125
 40
0.125
 40
0.25
 40
0.25
 40
0.25
 40
0.25
 40
0.375
 40
0.375
 40
0.375
 40
0.375
 40
0.5
 40
0.5
 40
0.5
 40
0.5
 40
0.625
 40
0.625
 40
0.625
 40
0.625
 40
0.75
 40
0.75
 40
0.75
 40
0.75
 40
1.0
 40
1.0
 40
1.0
 40
1.0
 10
27.5732
 20
95.3723
 30
0.0
 10
27.5732
 20
91.9849
 30
0.0
 10
28.6346
 20
88.8454
 30
0.0
 10
30.4429
 20
86.268
 30
0.0
 10
30.4429
 20
86.268
 30
0.0
 10
30.4429
 20
86.268
 30
0.0
 10
38.0409
 20
93.2986
 30
0.0
 10
38.0409
 20
93.2986
 30
0.0
 10
38.0409
 20
93.2986
 30
0.0
 10
38.0409
 20
93.2986
 30
0.0
 10
36.0898
 20
95.2533
 30
0.0
 10
36.0898
 20
95.2533
 30
0.0
 10
36.0898
 20
95.2533
 30
0.0
 10
36.0898
 20
95.2533
 30
0.0
 10
38.0054
 20
97.2092
 30
0.0
 10
38.0054
 20
97.2092
 30
0.0
 10
38.0054
 20
97.2092
 30
0.0
 10
38.0054
 20
97.2092
 30
0.0
 10
30.5384
 20
104.611
 30
0.0
 10
30.5384
 20
104.611
 30
0.0
 10
30.5384
 20
104.611
 30
0.0
 10
28.6721
 20
102.0088
 30
0.0
 10
27.5732
 20
98.8188
 30
0.0
 10
27.5732
 20
95.3722
 30
0.0
 10
27.5732
 20
95.3722
 30
0.0
 10
27.5732
 20
95.3722
 30
0.0
 10
27.5732
 20
95.3723
 30
0.0
 10
27.5732
 20
95.3723
 30
0.0
  0
SPLINE
  5
47
330
1F
100
AcDbEntity
  8
layer 1
 62
     7
100
AcDbSpline
210
0.0
220
0.0
230
1.0
 70
    11
 71
     3
 72
    32
 73
    28
 74
     0
 42
0.0000000001
 43
0.0000000001
 12
1.0
 22
0.0
 32
0.0
 13
1.0
 23
0.0
 33
0.0
 40
0.0
 40
0.0
 40
0.0
 40
0.0
 40
0.125
 40
0.125
 40
0.125
 40
0.125
 40
0.25
 40
0.25
 40
0.25
 40
0.25
 40
0.375
 40
0.375
 40
0.375
 40
0.375
 40
0.5
 40
0.5
 40
0.5
 40
0.5
 40
0.625
 40
0.625
 40
0.625
 40
0.625
 40
0.75
 40
0.75
 40
0.75
 40
0.75
 40
1.0
 40
1.0
 40
1.0
 40
1.0
 10
43.5251
 20
111.3811
 30
0.0
 10
40.1377
 20
111.3811
 30
0.0
 10
36.9982
 20
110.3198
 30
0.0
 10
34.4209
 20
108.5114
 30
0.0
 10
34.4209
 20
108.5114
 30
0.0
 10
34.4209
 20
108.5114
 30
0.0
 10
41.4514
 20
100.9134
 30
0.0
 10
41.4514
 20
100.9134
 30
0.0
 10
41.4514
 20
100.9134
 30
0.0
 10
41.4514
 20
100.9134
 30
0.0
 10
43.4062
 20
102.8645
 30
0.0
 10
43.4062
 20
102.8645
 30
0.0
 10
43.4062
 20
102.8645
 30
0.0
 10
43.4062
 20
102.8645
 30
0.0
 10
45.362
 20
100.949
 30
0.0
 10
45.362
 20
100.949
 30
0.0
 10
45.362
 20
100.949
 30
0.0
 10
45.362
 20
100.949
 30
0.0
 10
52.7638
 20
108.416
 30
0.0
 10
52.7638
 20
108.416
 30
0.0
 10
52.7638
 20
108.416
 30
0.0
 10
50.1616
 20
110.2823
 30
0.0
 10
46.9716
 20
111.3811
 30
0.0
 10
43.525
 20
111.3811
 30
0.0
 10
43.525
 20
111.3811
 30
0.0
 10
43.525
 20
111.3811
 30
0.0
 10
43.5251
 20
111.3811
 30
0.0
 10
43.5251
 20
111.3811
 30
0.0
  0
SPLINE
  5
48
330
1F
100
AcDbEntity
  8
layer 1
 62
     7
100
AcDbSpline
210
0.0
220
0.0
230
1.0
 70
    11
 71
     3
 72
    32
 73
    28
 74
     0
 42
0.0000000001
 43
0.0000000001
 12
1.0
 22
0.0
 32
0.0
 13
1.0
 23
0.0
 33
0.0
 40
0.0
 40
0.0
 40
0.0
 40
0.0
 40
0.125
 40
0.125
 40
0.125
 40
0.125
 40
0.25
 40
0.25
 40
0.25
 40
0.25
 40
0.375
 40
0.375
 40
0.375
 40
0.375
 40
0.5
 40
0.5
 40
0.5
 40
0.5
 40
0.625
 40
0.625
 40
0.625
 40
0.625
 40
0.75
 40
0.75
 40
0.75
 40
0.75
 40
1.0
 40
1.0
 40
1.0
 40
1.0
 10
43.6287
 20
79.5239
 30
0.0
 10
40.2412
 20
79.5239
 30
0.0
 10
37.1017
 20
80.5853
 30
0.0
 10
34.5244
 20
82.3936
 30
0.0
 10
34.5244
 20
82.3936
 30
0.0
 10
34.5244
 20
82.3936
 30
0.0
 10
41.5549
 20
89.9916
 30
0.0
 10
41.5549
 20
89.9916
 30
0.0
 10
41.5549
 20
89.9916
 30
0.0
 10
41.5549
 20
89.9916
 30
0.0
 10
43.5097
 20
88.0405
 30
0.0
 10
43.5097
 20
88.0405
 30
0.0
 10
43.5097
 20
88.0405
 30
0.0
 10
43.5097
 20
88.0405
 30
0.0
 10
45.4655
 20
89.9561
 30
0.0
 10
45.4655
 20
89.9561
 30
0.0
 10
45.4655
 20
89.9561
 30
0.0
 10
45.4655
 20
89.9561
 30
0.0
 10
52.8673
 20
82.4891
 30
0.0
 10
52.8673
 20
82.4891
 30
0.0
 10
52.8673
 20
82.4891
 30
0.0
 10
50.2652
 20
80.6227
 30
0.0
 10
47.0751
 20
79.5239
 30
0.0
 10
43.6286
 20
79.5239
 30
0.0
 10
43.6286
 20
79.5239
 30
0.0
 10
43.6286
 20
79.5239
 30
0.0
 10
43.6287
 20
79.5239
 30
0.0
 10
43.6287
 20
79.5239
 30
0.0
  0
SPLINE
  5
49
330
1F
100
AcDbEntity
  8
layer 1
 62
     7
100
AcDbSpline
210
0.0
220
0.0
230
1.0
 70
    11
 71
     3
 72
    32
 73
    28
 74
     0
 42
0.0000000001
 43
0.0000000001
 12
1.0
 22
0.0
 32
0.0
 13
1.0
 23
0.0
 33
0.0
 40
0.0
 40
0.0
 40
0.0
 40
0.0
 40
0.125
 40
0.125
 40
0.125
 40
0.125
 40
0.25
 40
0.25
 40
0.25
 40
0.25
 40
0.375
 40
0.375
 40
0.375
 40
0.375
 40
0.5
 40
0.5
 40
0.5
 40
0.5
 40
0.625
 40
0.625
 40
0.625
 40
0.625
 40
0.75
 40
0.75
 40
0.75
 40
0.75
 40
1.0
 40
1.0
 40
1.0
 40
1.0
 10
117.0155
 20
95.3723
 30
0.0
 10
117.0155
 20
91.9849
 30
0.0
 10
115.9541
 20
88.8454
 30
0.0
 10
114.1458
 20
86.268
 30
0.0
 10
114.1458
 20
86.268
 30
0.0
 10
114.1458
 20
86.268
 30
0.0
 10
106.5478
 20
93.2986
 30
0.0
 10
106.5478
 20
93.2986
 30
0.0
 10
106.5478
 20
93.2986
 30
0.0
 10
106.5478
 20
93.2986
 30
0.0
 10
108.4989
 20
95.2533
 30
0.0
 10
108.4989
 20
95.2533
 30
0.0
 10
108.4989
 20
95.2533
 30
0.0
 10
108.4989
 20
95.2533
 30
0.0
 10
106.5833
 20
97.2092
 30
0.0
 10
106.5833
 20
97.2092
 30
0.0
 10
106.5833
 20
97.2092
 30
0.0
 10
106.5833
 20
97.2092
 30
0.0
 10
114.0503
 20
104.611
 30
0.0
 10
114.0503
 20
104.611
 30
0.0
 10
114.0503
 20
104.611
 30
0.0
 10
115.9167
 20
102.0088
 30
0.0
 10
117.0155
 20
98.8188
 30
0.0
 10
117.0155
 20
95.3722
 30
0.0
 10
117.0155
 20
95.3722
 30
0.0
 10
117.0155
 20
95.3722
 30
0.0
 10
117.0155
 20
95.3723
 30
0.0
 10
117.0155
 20
95.3723
 30
0.0
  0
SPLINE
  5
4A
330
1F
100
AcDbEntity
  8
layer 1
 62
     7
100
AcDbSpline
210
0.0
220
0.0
230
1.0
 70
    11
 71
     3
 72
    32
 73
    28
 74
     0
 42
0.0000000001
 43
0.0000000001
 12
1.0
 22
0.0
 32
0.0
 13
1.0
 23
0.0
 33
0.0
 40
0.0
 40
0.0
 40
0.0
 40
0.0
 40
0.125
 40
0.125
 40
0.125
 40
0.125
 40
0.25
 40
0.25
 40
0.25
 40
0.25
 40
0.375
 40
0.375
 40
0.375
 40
0.375
 40
0.5
 40
0.5
 40
0.5
 40
0.5
 40
0.625
 40
0.625
 40
0.625
 40
0.625
 40
0.75
 40
0.75
 40
0.75
 40
0.75
 40
1.0
 40
1.0
 40
1.0
 40
1.0
 10
174.5573
 20
95.3723
 30
0.0
 10
174.5573
 20
91.9849
 30
0.0
 10
173.496
 20
88.8454
 30
0.0
 10
171.6876
 20
86.268
 30
0.0
 10
171.6876
 20
86.268
 30
0.0
 10
171.6876
 20
86.268
 30
0.0
 10
164.0896
 20
93.2986
 30
0.0
 10
164.0896
 20
93.2986
 30
0.0
 10
164.0896
 20
93.2986
 30
0.0
 10
164.0896
 20
93.2986
 30
0.0
 10
166.0407
 20
95.2533
 30
0.0
 10
166.0407
 20
95.2533
 30
0.0
 10
166.0407
 20
95.2533
 30
0.0
 10
166.0407
 20
95.2533
 30
0.0
 10
164.1252
 20
97.2092
 30
0.0
 10
164.1252
 20
97.2092
 30
0.0
 10
164.1252
 20
97.2092
 30
0.0
 10
164.1252
 20
97.2092
 30
0.0
 10
171.5922
 20
104.611
 30
0.0
 10
171.5922
 20
104.611
 30
0.0
 10
171.5922
 20
104.611
 30
0.0
 10
173.4585
 20
102.0088
 30
0.0
 10
174.5573
 20
98.8188
 30
0.0
 10
174.5573
 20
95.3722
 30
0.0
 10
174.5573
 20
95.3722
 30
0.0
 10
174.5573
 20
95.3722
 30
0.0
 10
174.5573
 20
95.3723
 30
0.0
 10
174.5573
 20
95.3723
 30
0.0
  0
SPLINE
  5
4B
330
1F
100
AcDbEntity
  8
layer 1
 62
     7
100
AcDbSpline
210
0.0
220
0.0
230
1.0
 70
    11
 71
     3
 72
    20
 73
    16
 74
     0
 42
0.0000000001
 43
0.0000000001
 12
1.0
 22
0.0
 32
0.0
 13
1.0
 23
0.0
 33
0.0
 40
0.0
 40
0.0
 40
0.0
 40
0.0
 40
0.2
 40
0.2
 40
0.2
 40
0.2
 40
0.4
 40
0.4
 40
0.4
 40
0.4
 40
0.6
 40
0.6
 40
0.6
 40
0.6
 40
1.0
 40
1.0
 40
1.0
 40
1.0
 10
123.3114
 20
106.6833
 30
0.0
 10
125.5783
 20
105.1024
 30
0.0
 10
133.6637
 20
104.834
 30
0.0
 10
136.557
 20
106.6833
 30
0.0
 10
136.557
 20
106.6833
 30
0.0
 10
135.8607
 20
105.5158
 30
0.0
 10
135.3135
 20
104.2861
 30
0.0
 10
134.9403
 20
102.9437
 30
0.0
 10
134.9403
 20
102.9437
 30
0.0
 10
132.1662
 20
102.5262
 30
0.0
 10
128.1743
 20
102.5388
 30
0.0
 10
124.8933
 20
103.0758
 30
0.0
 10
124.8933
 20
103.0758
 30
0.0
 10
124.5353
 20
104.3584
 30
0.0
 10
123.9399
 20
105.6957
 30
0.0
 10
123.3114
 20
106.6833
 30
0.0
  0
SPLINE
  5
4C
330
1F
100
AcDbEntity
  8
layer 1
 62
     7
100
AcDbSpline
210
0.0
220
0.0
230
1.0
 70
    11
 71
     3
 72
    20
 73
    16
 74
     0
 42
0.0000000001
 43
0.0000000001
 12
1.0
 22
0.0
 32
0.0
 13
1.0
 23
0.0
 33
0.0
 40
0.0
 40
0.0
 40
0.0
 40
0.0
 40
0.2
 40
0.2
 40
0.2
 40
0.2
 40
0.4
 40
0.4
 40
0.4
 40
0.4
 40
0.6
 40
0.6
 40
0.6
 40
0.6
 40
1.0
 40
1.0
 40
1.0
 40
1.0
 10
180.8532
 20
106.6833
 30
0.0
 10
182.0001
 20
105.8836
 30
0.0
 10
184.6361
 20
105.4196
 30
0.0
 10
187.3357
 20
105.396
 30
0.0
 10
187.3357
 20
105.396
 30
0.0
 10
187.3357
 20
105.396
 30
0.0
 10
187.3359
 20
102.6563
 30
0.0
 10
187.3359
 20
102.6563
 30
0.0
 10
187.3359
 20
102.6563
 30
0.0
 10
185.6788
 20
102.6866
 30
0.0
 10
183.9784
 20
102.8232
 30
0.0
 10
182.4351
 20
103.0758
 30
0.0
 10
182.4351
 20
103.0758
 30
0.0
 10
182.0772
 20
104.3584
 30
0.0
 10
181.4817
 20
105.6957
 30
0.0
 10
180.8532
 20
106.6833
 30
0.0
  0
SPLINE
  5
4D
330
1F
100
AcDbEntity
  8
layer 1
 62
     7
100
AcDbSpline
210
0.0
220
0.0
230
1.0
 70
    11
 71
     3
 72
    20
 73
    16
 74
     0
 42
0.0000000001
 43
0.0000000001
 12
1.0
 22
0.0
 32
0.0
 13
1.0
 23
0.0
 33
0.0
 40
0.0
 40
0.0
 40
0.0
 40
0.0
 40
0.2
 40
0.2
 40
0.2
 40
0.2
 40
0.4
 40
0.4
 40
0.4
 40
0.4
 40
0.6
 40
0.6
 40
0.6
 40
0.6
 40
1.0
 40
1.0
 40
1.0
 40
1.0
 10
125.6103
 20
99.823
 30
0.0
 10
127.2806
 20
98.9282
 30
0.0
 10
132.232
 20
98.7492
 30
0.0
 10
134.2603
 20
99.823
 30
0.0
 10
134.2603
 20
99.823
 30
0.0
 10
133.6466
 20
98.06
 30
0.0
 10
133.7063
 20
92.718
 30
0.0
 10
134.2152
 20
91.1134
 30
0.0
 10
134.2152
 20
91.1134
 30
0.0
 10
131.4114
 20
91.7994
 30
0.0
 10
128.6527
 20
91.9485
 30
0.0
 10
125.6103
 20
91.0835
 30
0.0
 10
125.6103
 20
91.0835
 30
0.0
 10
126.1145
 20
93.0256
 30
0.0
 10
126.2322
 20
97.586
 30
0.0
 10
125.6103
 20
99.823
 30
0.0
  0
SPLINE
  5
4E
330
1F
100
AcDbEntity
  8
layer 1
 62
     7
100
AcDbSpline
210
0.0
220
0.0
230
1.0
 70
    11
 71
     3
 72
    20
 73
    16
 74
     0
 42
0.0000000001
 43
0.0000000001
 12
1.0
 22
0.0
 32
0.0
 13
1.0
 23
0.0
 33
0.0
 40
0.0
 40
0.0
 40
0.0
 40
0.0
 40
0.2
 40
0.2
 40
0.2
 40
0.2
 40
0.4
 40
0.4
 40
0.4
 40
0.4
 40
0.6
 40
0.6
 40
0.6
 40
0.6
 40
1.0
 40
1.0
 40
1.0
 40
1.0
 10
183.1521
 20
99.823
 30
0.0
 10
183.9861
 20
99.3762
 30
0.0
 10
185.6383
 20
99.1078
 30
0.0
 10
187.3361
 20
99.0849
 30
0.0
 10
187.3361
 20
99.0849
 30
0.0
 10
187.3361
 20
99.0849
 30
0.0
 10
187.3523
 20
91.6809
 30
0.0
 10
187.3523
 20
91.6809
 30
0.0
 10
187.3523
 20
91.6809
 30
0.0
 10
185.9931
 20
91.6784
 30
0.0
 10
184.605
 20
91.4966
 30
0.0
 10
183.1521
 20
91.0835
 30
0.0
 10
183.1521
 20
91.0835
 30
0.0
 10
183.6564
 20
93.0256
 30
0.0
 10
183.7741
 20
97.586
 30
0.0
 10
183.1521
 20
99.823
 30
0.0
  0
SPLINE
  5
4F
330
1F
100
AcDbEntity
  8
layer 1
 62
     7
100
AcDbSpline
210
0.0
220
0.0
230
1.0
 70
    11
 71
     3
 72
    20
 73
    16
 74
     0
 42
0.0000000001
 43
0.0000000001
 12
1.0
 22
0.0
 32
0.0
 13
1.0
 23
0.0
 33
0.0
 40
0.0
 40
0.0
 40
0.0
 40
0.0
 40
0.2
 40
0.2
 40
0.2
 40
0.2
 40
0.4
 40
0.4
 40
0.4
 40
0.4
 40
0.6
 40
0.6
 40
0.6
 40
0.6
 40
1.0
 40
1.0
 40
1.0
 40
1.0
 10
123.3114
 20
84.3233
 30
0.0
 10
125.5783
 20
85.9042
 30
0.0
 10
133.6637
 20
86.1727
 30
0.0
 10
136.557
 20
84.3233
 30
0.0
 10
136.557
 20
84.3233
 30
0.0
 10
135.6921
 20
85.6407
 30
0.0
 10
135.4447
 20
86.6831
 30
0.0
 10
134.9216
 20
88.0629
 30
0.0
 10
134.9216
 20
88.0629
 30
0.0
 10
132.1476
 20
88.4805
 30
0.0
 10
128.1744
 20
88.4678
 30
0.0
 10
124.8933
 20
87.9309
 30
0.0
 10
124.8933
 20
87.9309
 30
0.0
 10
124.5353
 20
86.6482
 30
0.0
 10
123.9399
 20
85.3109
 30
0.0
 10
123.3114
 20
84.3233
 30
0.0
  0
SPLINE
  5
50
330
1F
100
AcDbEntity
  8
layer 1
 62
     7
100
AcDbSpline
210
0.0
220
0.0
230
1.0
 70
    11
 71
     3
 72
    20
 73
    16
 74
     0
 42
0.0000000001
 43
0.0000000001
 12
1.0
 22
0.0
 32
0.0
 13
1.0
 23
0.0
 33
0.0
 40
0.0
 40
0.0
 40
0.0
 40
0.0
 40
0.2
 40
0.2
 40
0.2
 40
0.2
 40
0.4
 40
0.4
 40
0.4
 40
0.4
 40
0.6
 40
0.6
 40
0.6
 40
0.6
 40
1.0
 40
1.0
 40
1.0
 40
1.0
 10
180.8532
 20
84.3233
 30
0.0
 10
181.9977
 20
85.1215
 30
0.0
 10
184.6255
 20
85.5851
 30
0.0
 10
187.3192
 20
85.6105
 30
0.0
 10
187.3192
 20
85.6105
 30
0.0
 10
187.3192
 20
85.6105
 30
0.0
 10
187.3363
 20
88.3505
 30
0.0
 10
187.3363
 20
88.3505
 30
0.0
 10
187.3363
 20
88.3505
 30
0.0
 10
185.6808
 20
88.3206
 30
0.0
 10
183.9812
 20
88.1839
 30
0.0
 10
182.4351
 20
87.9309
 30
0.0
 10
182.4351
 20
87.9309
 30
0.0
 10
182.0772
 20
86.6482
 30
0.0
 10
181.4817
 20
85.3109
 30
0.0
 10
180.8532
 20
84.3233
 30
0.0
  0
SPLINE
  5
51
330
1F
100
AcDbEntity
  8
layer 1
 62
     7
100
AcDbSpline
210
0.0
220
0.0
230
1.0
 70
    11
 71
     3
 72
    32
 73
    28
 74
     0
 42
0.0000000001
 43
0.0000000001
 12
1.0
 22
0.0
 32
0.0
 13
1.0
 23
0.0
 33
0.0
 40
0.0
 40
0.0
 40
0.0
 40
0.0
 40
0.125
 40
0.125
 40
0.125
 40
0.125
 40
0.25
 40
0.25
 40
0.25
 40
0.25
 40
0.375
 40
0.375
 40
0.375
 40
0.375
 40
0.5
 40
0.5
 40
0.5
 40
0.5
 40
0.625
 40
0.625
 40
0.625
 40
0.625
 40
0.75
 40
0.75
 40
0.75
 40
0.75
 40
1.0
 40
1.0
 40
1.0
 40
1.0
 10
85.1151
 20
95.3723
 30
0.0
 10
85.1151
 20
91.9849
 30
0.0
 10
86.1764
 20
88.8454
 30
0.0
 10
87.9847
 20
86.268
 30
0.0
 10
87.9847
 20
86.268
 30
0.0
 10
87.9847
 20
86.268
 30
0.0
 10
95.5828
 20
93.2986
 30
0.0
 10
95.5828
 20
93.2986
 30
0.0
 10
95.5828
 20
93.2986
 30
0.0
 10
95.5828
 20
93.2986
 30
0.0
 10
93.6316
 20
95.2533
 30
0.0
 10
93.6316
 20
95.2533
 30
0.0
 10
93.6316
 20
95.2533
 30
0.0
 10
93.6316
 20
95.2533
 30
0.0
 10
95.5472
 20
97.2092
 30
0.0
 10
95.5472
 20
97.2092
 30
0.0
 10
95.5472
 20
97.2092
 30
0.0
 10
95.5472
 20
97.2092
 30
0.0
 10
88.0802
 20
104.611
 30
0.0
 10
88.0802
 20
104.611
 30
0.0
 10
88.0802
 20
104.611
 30
0.0
 10
86.2139
 20
102.0088
 30
0.0
 10
85.1151
 20
98.8188
 30
0.0
 10
85.1151
 20
95.3722
 30
0.0
 10
85.1151
 20
95.3722
 30
0.0
 10
85.1151
 20
95.3722
 30
0.0
 10
85.1151
 20
95.3723
 30
0.0
 10
85.1151
 20
95.3723
 30
0.0
  0
SPLINE
  5
52
330
1F
100
AcDbEntity
  8
layer 1
 62
     7
100
AcDbSpline
210
0.0
220
0.0
230
1.0
 70
    11
 71
     3
 72
    32
 73
    28
 74
     0
 42
0.0000000001
 43
0.0000000001
 12
1.0
 22
0.0
 32
0.0
 13
1.0
 23
0.0
 33
0.0
 40
0.0
 40
0.0
 40
0.0
 40
0.0
 40
0.125
 40
0.125
 40
0.125
 40
0.125
 40
0.25
 40
0.25
 40
0.25
 40
0.25
 40
0.375
 40
0.375
 40
0.375
 40
0.375
 40
0.5
 40
0.5
 40
0.5
 40
0.5
 40
0.625
 40
0.625
 40
0.625
 40
0.625
 40
0.75
 40
0.75
 40
0.75
 40
0.75
 40
1.0
 40
1.0
 40
1.0
 40
1.0
 10
142.6569
 20
95.3723
 30
0.0
 10
142.6569
 20
91.9849
 30
0.0
 10
143.7182
 20
88.8454
 30
0.0
 10
145.5266
 20
86.268
 30
0.0
 10
145.5266
 20
86.268
 30
0.0
 10
145.5266
 20
86.268
 30
0.0
 10
153.1246
 20
93.2986
 30
0.0
 10
153.1246
 20
93.2986
 30
0.0
 10
153.1246
 20
93.2986
 30
0.0
 10
153.1246
 20
93.2986
 30
0.0
 10
151.1735
 20
95.2533
 30
0.0
 10
151.1735
 20
95.2533
 30
0.0
 10
151.1735
 20
95.2533
 30
0.0
 10
151.1735
 20
95.2533
 30
0.0
 10
153.089
 20
97.2092
 30
0.0
 10
153.089
 20
97.2092
 30
0.0
 10
153.089
 20
97.2092
 30
0.0
 10
153.089
 20
97.2092
 30
0.0
 10
145.622
 20
104.611
 30
0.0
 10
145.622
 20
104.611
 30
0.0
 10
145.622
 20
104.611
 30
0.0
 10
143.7557
 20
102.0088
 30
0.0
 10
142.6569
 20
98.8188
 30
0.0
 10
142.6569
 20
95.3722
 30
0.0
 10
142.6569
 20
95.3722
 30
0.0
 10
142.6569
 20
95.3722
 30
0.0
 10
142.6569
 20
95.3723
 30
0.0
 10
142.6569
 20
95.3723
 30
0.0
  0
SPLINE
  5
53
330
1F
100
AcDbEntity
  8
layer 1
 62
     7
100
AcDbSpline
210
0.0
220
0.0
230
1.0
 70
    11
 71
     3
 72
    32
 73
    28
 74
     0
 42
0.0000000001
 43
0.0000000001
 12
1.0
 22
0.0
 32
0.0
 13
1.0
 23
0.0
 33
0.0
 40
0.0
 40
0.0
 40
0.0
 40
0.0
 40
0.125
 40
0.125
 40
0.125
 40
0.125
 40
0.25
 40
0.25
 40
0.25
 40
0.25
 40
0.375
 40
0.375
 40
0.375
 40
0.375
 40
0.5
 40
0.5
 40
0.5
 40
0.5
 40
0.625
 40
0.625
 40
0.625
 40
0.625
 40
0.75
 40
0.75
 40
0.75
 40
0.75
 40
1.0
 40
1.0
 40
1.0
 40
1.0
 10
101.067
 20
111.3811
 30
0.0
 10
97.6795
 20
111.3811
 30
0.0
 10
94.54
 20
110.3198
 30
0.0
 10
91.9627
 20
108.5114
 30
0.0
 10
91.9627
 20
108.5114
 30
0.0
 10
91.9627
 20
108.5114
 30
0.0
 10
98.9932
 20
100.9134
 30
0.0
 10
98.9932
 20
100.9134
 30
0.0
 10
98.9932
 20
100.9134
 30
0.0
 10
98.9932
 20
100.9134
 30
0.0
 10
100.948
 20
102.8645
 30
0.0
 10
100.948
 20
102.8645
 30
0.0
 10
100.948
 20
102.8645
 30
0.0
 10
100.948
 20
102.8645
 30
0.0
 10
102.9039
 20
100.949
 30
0.0
 10
102.9039
 20
100.949
 30
0.0
 10
102.9039
 20
100.949
 30
0.0
 10
102.9039
 20
100.949
 30
0.0
 10
110.3056
 20
108.416
 30
0.0
 10
110.3056
 20
108.416
 30
0.0
 10
110.3056
 20
108.416
 30
0.0
 10
107.7035
 20
110.2823
 30
0.0
 10
104.5134
 20
111.3811
 30
0.0
 10
101.0669
 20
111.3811
 30
0.0
 10
101.0669
 20
111.3811
 30
0.0
 10
101.0669
 20
111.3811
 30
0.0
 10
101.067
 20
111.3811
 30
0.0
 10
101.067
 20
111.3811
 30
0.0
  0
SPLINE
  5
54
330
1F
100
AcDbEntity
  8
layer 1
 62
     7
100
AcDbSpline
210
0.0
220
0.0
230
1.0
 70
    11
 71
     3
 72
    32
 73
    28
 74
     0
 42
0.0000000001
 43
0.0000000001
 12
1.0
 22
0.0
 32
0.0
 13
1.0
 23
0.0
 33
0.0
 40
0.0
 40
0.0
 40
0.0
 40
0.0
 40
0.125
 40
0.125
 40
0.125
 40
0.125
 40
0.25
 40
0.25
 40
0.25
 40
0.25
 40
0.375
 40
0.375
 40
0.375
 40
0.375
 40
0.5
 40
0.5
 40
0.5
 40
0.5
 40
0.625
 40
0.625
 40
0.625
 40
0.625
 40
0.75
 40
0.75
 40
0.75
 40
0.75
 40
1.0
 40
1.0
 40
1.0
 40
1.0
 10
158.6088
 20
111.3811
 30
0.0
 10
155.2214
 20
111.3811
 30
0.0
 10
152.0819
 20
110.3198
 30
0.0
 10
149.5045
 20
108.5114
 30
0.0
 10
149.5045
 20
108.5114
 30
0.0
 10
149.5045
 20
108.5114
 30
0.0
 10
156.5351
 20
100.9134
 30
0.0
 10
156.5351
 20
100.9134
 30
0.0
 10
156.5351
 20
100.9134
 30
0.0
 10
156.5351
 20
100.9134
 30
0.0
 10
158.4898
 20
102.8645
 30
0.0
 10
158.4898
 20
102.8645
 30
0.0
 10
158.4898
 20
102.8645
 30
0.0
 10
158.4898
 20
102.8645
 30
0.0
 10
160.4457
 20
100.949
 30
0.0
 10
160.4457
 20
100.949
 30
0.0
 10
160.4457
 20
100.949
 30
0.0
 10
160.4457
 20
100.949
 30
0.0
 10
167.8475
 20
108.416
 30
0.0
 10
167.8475
 20
108.416
 30
0.0
 10
167.8475
 20
108.416
 30
0.0
 10
165.2453
 20
110.2823
 30
0.0
 10
162.0552
 20
111.3811
 30
0.0
 10
158.6087
 20
111.3811
 30
0.0
 10
158.6087
 20
111.3811
 30
0.0
 10
158.6087
 20
111.3811
 30
0.0
 10
158.6088
 20
111.3811
 30
0.0
 10
158.6088
 20
111.3811
 30
0.0
  0
SPLINE
  5
55
330
1F
100
AcDbEntity
  8
layer 1
 62
     7
100
AcDbSpline
210
0.0
220
0.0
230
1.0
 70
    11
 71
     3
 72
    32
 73
    28
 74
     0
 42
0.0000000001
 43
0.0000000001
 12
1.0
 22
0.0
 32
0.0
 13
1.0
 23
0.0
 33
0.0
 40
0.0
 40
0.0
 40
0.0
 40
0.0
 40
0.125
 40
0.125
 40
0.125
 40
0.125
 40
0.25
 40
0.25
 40
0.25
 40
0.25
 40
0.375
 40
0.375
 40
0.375
 40
0.375
 40
0.5
 40
0.5
 40
0.5
 40
0.5
 40
0.625
 40
0.625
 40
0.625
 40
0.625
 40
0.75
 40
0.75
 40
0.75
 40
0.75
 40
1.0
 40
1.0
 40
1.0
 40
1.0
 10
101.1705
 20
79.5239
 30
0.0
 10
97.7831
 20
79.5239
 30
0.0
 10
94.6435
 20
80.5853
 30
0.0
 10
92.0662
 20
82.3936
 30
0.0
 10
92.0662
 20
82.3936
 30
0.0
 10
92.0662
 20
82.3936
 30
0.0
 10
99.0967
 20
89.9916
 30
0.0
 10
99.0967
 20
89.9916
 30
0.0
 10
99.0967
 20
89.9916
 30
0.0
 10
99.0967
 20
89.9916
 30
0.0
 10
101.0515
 20
88.0405
 30
0.0
 10
101.0515
 20
88.0405
 30
0.0
 10
101.0515
 20
88.0405
 30
0.0
 10
101.0515
 20
88.0405
 30
0.0
 10
103.0074
 20
89.9561
 30
0.0
 10
103.0074
 20
89.9561
 30
0.0
 10
103.0074
 20
89.9561
 30
0.0
 10
103.0074
 20
89.9561
 30
0.0
 10
110.4091
 20
82.4891
 30
0.0
 10
110.4091
 20
82.4891
 30
0.0
 10
110.4091
 20
82.4891
 30
0.0
 10
107.807
 20
80.6227
 30
0.0
 10
104.6169
 20
79.5239
 30
0.0
 10
101.1704
 20
79.5239
 30
0.0
 10
101.1704
 20
79.5239
 30
0.0
 10
101.1704
 20
79.5239
 30
0.0
 10
101.1705
 20
79.5239
 30
0.0
 10
101.1705
 20
79.5239
 30
0.0
  0
SPLINE
  5
56
330
1F
100
AcDbEntity
  8
layer 1
 62
     7
100
AcDbSpline
210
0.0
220
0.0
230
1.0
 70
    11
 71
     3
 72
    32
 73
    28
 74
     0
 42
0.0000000001
 43
0.0000000001
 12
1.0
 22
0.0
 32
0.0
 13
1.0
 23
0.0
 33
0.0
 40
0.0
 40
0.0
 40
0.0
 40
0.0
 40
0.125
 40
0.125
 40
0.125
 40
0.125
 40
0.25
 40
0.25
 40
0.25
 40
0.25
 40
0.375
 40
0.375
 40
0.375
 40
0.375
 40
0.5
 40
0.5
 40
0.5
 40
0.5
 40
0.625
 40
0.625
 40
0.625
 40
0.625
 40
0.75
 40
0.75
 40
0.75
 40
0.75
 40
1.0
 40
1.0
 40
1.0
 40
1.0
 10
158.7123
 20
79.5239
 30
0.0
 10
155.3249
 20
79.5239
 30
0.0
 10
152.1854
 20
80.5853
 30
0.0
 10
149.608
 20
82.3936
 30
0.0
 10
149.608
 20
82.3936
 30
0.0
 10
149.608
 20
82.3936
 30
0.0
 10
156.6386
 20
89.9916
 30
0.0
 10
156.6386
 20
89.9916
 30
0.0
 10
156.6386
 20
89.9916
 30
0.0
 10
156.6386
 20
89.9916
 30
0.0
 10
158.5933
 20
88.0405
 30
0.0
 10
158.5933
 20
88.0405
 30
0.0
 10
158.5933
 20
88.0405
 30
0.0
 10
158.5933
 20
88.0405
 30
0.0
 10
160.5492
 20
89.9561
 30
0.0
 10
160.5492
 20
89.9561
 30
0.0
 10
160.5492
 20
89.9561
 30
0.0
 10
160.5492
 20
89.9561
 30
0.0
 10
167.951
 20
82.4891
 30
0.0
 10
167.951
 20
82.4891
 30
0.0
 10
167.951
 20
82.4891
 30
0.0
 10
165.3488
 20
80.6227
 30
0.0
 10
162.1588
 20
79.5239
 30
0.0
 10
158.7122
 20
79.5239
 30
0.0
 10
158.7122
 20
79.5239
 30
0.0
 10
158.7122
 20
79.5239
 30
0.0
 10
158.7123
 20
79.5239
 30
0.0
 10
158.7123
 20
79.5239
 30
0.0
  0
SPLINE
  5
57
330
1F
100
AcDbEntity
  8
layer 1
 62
     7
100
AcDbSpline
210
0.0
220
0.0
230
1.0
 70
    11
 71
     3
 72
    32
 73
    28
 74
     0
 42
0.0000000001
 43
0.0000000001
 12
1.0
 22
0.0
 32
0.0
 13
1.0
 23
0.0
 33
0.0
 40
0.0
 40
0.0
 40
0.0
 40
0.0
 40
0.125
 40
0.125
 40
0.125
 40
0.125
 40
0.25
 40
0.25
 40
0.25
 40
0.25
 40
0.375
 40
0.375
 40
0.375
 40
0.375
 40
0.5
 40
0.5
 40
0.5
 40
0.5
 40
0.625
 40
0.625
 40
0.625
 40
0.625
 40
0.75
 40
0.75
 40
0.75
 40
0.75
 40
1.0
 40
1.0
 40
1.0
 40
1.0
 10
88.1093
 20
66.1016
 30
0.0
 10
88.1093
 20
62.7141
 30
0.0
 10
87.0479
 20
59.5746
 30
0.0
 10
85.2396
 20
56.9973
 30
0.0
 10
85.2396
 20
56.9973
 30
0.0
 10
85.2396
 20
56.9973
 30
0.0
 10
77.6415
 20
64.0278
 30
0.0
 10
77.6415
 20
64.0278
 30
0.0
 10
77.6415
 20
64.0278
 30
0.0
 10
77.6415
 20
64.0278
 30
0.0
 10
79.5927
 20
65.9826
 30
0.0
 10
79.5927
 20
65.9826
 30
0.0
 10
79.5927
 20
65.9826
 30
0.0
 10
79.5927
 20
65.9826
 30
0.0
 10
77.6771
 20
67.9385
 30
0.0
 10
77.6771
 20
67.9385
 30
0.0
 10
77.6771
 20
67.9385
 30
0.0
 10
77.6771
 20
67.9385
 30
0.0
 10
85.1441
 20
75.3402
 30
0.0
 10
85.1441
 20
75.3402
 30
0.0
 10
85.1441
 20
75.3402
 30
0.0
 10
87.0104
 20
72.7381
 30
0.0
 10
88.1093
 20
69.548
 30
0.0
 10
88.1093
 20
66.1015
 30
0.0
 10
88.1093
 20
66.1015
 30
0.0
 10
88.1093
 20
66.1015
 30
0.0
 10
88.1093
 20
66.1016
 30
0.0
 10
88.1093
 20
66.1016
 30
0.0
  0
SPLINE
  5
58
330
1F
100
AcDbEntity
  8
layer 1
 62
     7
100
AcDbSpline
210
0.0
220
0.0
230
1.0
 70
    11
 71
     3
 72
    20
 73
    16
 74
     0
 42
0.0000000001
 43
0.0000000001
 12
1.0
 22
0.0
 32
0.0
 13
1.0
 23
0.0
 33
0.0
 40
0.0
 40
0.0
 40
0.0
 40
0.0
 40
0.2
 40
0.2
 40
0.2
 40
0.2
 40
0.4
 40
0.4
 40
0.4
 40
0.4
 40
0.6
 40
0.6
 40
0.6
 40
0.6
 40
1.0
 40
1.0
 40
1.0
 40
1.0
 10
94.4052
 20
77.4126
 30
0.0
 10
96.6721
 20
75.8317
 30
0.0
 10
104.7575
 20
75.5632
 30
0.0
 10
107.6508
 20
77.4126
 30
0.0
 10
107.6508
 20
77.4126
 30
0.0
 10
106.9545
 20
76.2451
 30
0.0
 10
106.4073
 20
75.0153
 30
0.0
 10
106.034
 20
73.673
 30
0.0
 10
106.034
 20
73.673
 30
0.0
 10
103.26
 20
73.2554
 30
0.0
 10
99.2681
 20
73.2681
 30
0.0
 10
95.9871
 20
73.8051
 30
0.0
 10
95.9871
 20
73.8051
 30
0.0
 10
95.6291
 20
75.0877
 30
0.0
 10
95.0337
 20
76.425
 30
0.0
 10
94.4052
 20
77.4126
 30
0.0
  0
SPLINE
  5
59
330
1F
100
AcDbEntity
  8
layer 1
 62
     7
100
AcDbSpline
210
0.0
220
0.0
230
1.0
 70
    11
 71
     3
 72
    20
 73
    16
 74
     0
 42
0.0000000001
 43
0.0000000001
 12
1.0
 22
0.0
 32
0.0
 13
1.0
 23
0.0
 33
0.0
 40
0.0
 40
0.0
 40
0.0
 40
0.0
 40
0.2
 40
0.2
 40
0.2
 40
0.2
 40
0.4
 40
0.4
 40
0.4
 40
0.4
 40
0.6
 40
0.6
 40
0.6
 40
0.6
 40
1.0
 40
1.0
 40
1.0
 40
1.0
 10
96.704
 20
70.5523
 30
0.0
 10
98.3744
 20
69.6575
 30
0.0
 10
103.3257
 20
69.4785
 30
0.0
 10
105.3541
 20
70.5523
 30
0.0
 10
105.3541
 20
70.5523
 30
0.0
 10
104.7403
 20
68.7893
 30
0.0
 10
104.8
 20
63.4473
 30
0.0
 10
105.3089
 20
61.8426
 30
0.0
 10
105.3089
 20
61.8426
 30
0.0
 10
102.5052
 20
62.5286
 30
0.0
 10
99.7465
 20
62.6778
 30
0.0
 10
96.704
 20
61.8128
 30
0.0
 10
96.704
 20
61.8128
 30
0.0
 10
97.2083
 20
63.7549
 30
0.0
 10
97.326
 20
68.3152
 30
0.0
 10
96.704
 20
70.5523
 30
0.0
  0
SPLINE
  5
5A
330
1F
100
AcDbEntity
  8
layer 1
 62
     7
100
AcDbSpline
210
0.0
220
0.0
230
1.0
 70
    11
 71
     3
 72
    20
 73
    16
 74
     0
 42
0.0000000001
 43
0.0000000001
 12
1.0
 22
0.0
 32
0.0
 13
1.0
 23
0.0
 33
0.0
 40
0.0
 40
0.0
 40
0.0
 40
0.0
 40
0.2
 40
0.2
 40
0.2
 40
0.2
 40
0.4
 40
0.4
 40
0.4
 40
0.4
 40
0.6
 40
0.6
 40
0.6
 40
0.6
 40
1.0
 40
1.0
 40
1.0
 40
1.0
 10
94.4052
 20
55.0526
 30
0.0
 10
96.6721
 20
56.6335
 30
0.0
 10
104.7575
 20
56.9019
 30
0.0
 10
107.6508
 20
55.0526
 30
0.0
 10
107.6508
 20
55.0526
 30
0.0
 10
106.7858
 20
56.37
 30
0.0
 10
106.5385
 20
57.4123
 30
0.0
 10
106.0153
 20
58.7922
 30
0.0
 10
106.0153
 20
58.7922
 30
0.0
 10
103.2413
 20
59.2097
 30
0.0
 10
99.2682
 20
59.1971
 30
0.0
 10
95.9871
 20
58.6601
 30
0.0
 10
95.9871
 20
58.6601
 30
0.0
 10
95.6291
 20
57.3775
 30
0.0
 10
95.0337
 20
56.0402
 30
0.0
 10
94.4052
 20
55.0526
 30
0.0
  0
SPLINE
  5
5B
330
1F
100
AcDbEntity
  8
layer 1
 62
     7
100
AcDbSpline
210
0.0
220
0.0
230
1.0
 70
    11
 71
     3
 72
    32
 73
    28
 74
     0
 42
0.0000000001
 43
0.0000000001
 12
1.0
 22
0.0
 32
0.0
 13
1.0
 23
0.0
 33
0.0
 40
0.0
 40
0.0
 40
0.0
 40
0.0
 40
0.125
 40
0.125
 40
0.125
 40
0.125
 40
0.25
 40
0.25
 40
0.25
 40
0.25
 40
0.375
 40
0.375
 40
0.375
 40
0.375
 40
0.5
 40
0.5
 40
0.5
 40
0.5
 40
0.625
 40
0.625
 40
0.625
 40
0.625
 40
0.75
 40
0.75
 40
0.75
 40
0.75
 40
1.0
 40
1.0
 40
1.0
 40
1.0
 10
56.2088
 20
66.1016
 30
0.0
 10
56.2088
 20
62.7141
 30
0.0
 10
57.2702
 20
59.5746
 30
0.0
 10
59.0785
 20
56.9973
 30
0.0
 10
59.0785
 20
56.9973
 30
0.0
 10
59.0785
 20
56.9973
 30
0.0
 10
66.6765
 20
64.0278
 30
0.0
 10
66.6765
 20
64.0278
 30
0.0
 10
66.6765
 20
64.0278
 30
0.0
 10
66.6765
 20
64.0278
 30
0.0
 10
64.7254
 20
65.9826
 30
0.0
 10
64.7254
 20
65.9826
 30
0.0
 10
64.7254
 20
65.9826
 30
0.0
 10
64.7254
 20
65.9826
 30
0.0
 10
66.641
 20
67.9385
 30
0.0
 10
66.641
 20
67.9385
 30
0.0
 10
66.641
 20
67.9385
 30
0.0
 10
66.641
 20
67.9385
 30
0.0
 10
59.174
 20
75.3402
 30
0.0
 10
59.174
 20
75.3402
 30
0.0
 10
59.174
 20
75.3402
 30
0.0
 10
57.3077
 20
72.7381
 30
0.0
 10
56.2088
 20
69.548
 30
0.0
 10
56.2088
 20
66.1015
 30
0.0
 10
56.2088
 20
66.1015
 30
0.0
 10
56.2088
 20
66.1015
 30
0.0
 10
56.2088
 20
66.1016
 30
0.0
 10
56.2088
 20
66.1016
 30
0.0
  0
SPLINE
  5
5C
330
1F
100
AcDbEntity
  8
layer 1
 62
     7
100
AcDbSpline
210
0.0
220
0.0
230
1.0
 70
    11
 71
     3
 72
    32
 73
    28
 74
     0
 42
0.0000000001
 43
0.0000000001
 12
1.0
 22
0.0
 32
0.0
 13
1.0
 23
0.0
 33
0.0
 40
0.0
 40
0.0
 40
0.0
 40
0.0
 40
0.125
 40
0.125
 40
0.125
 40
0.125
 40
0.25
 40
0.25
 40
0.25
 40
0.25
 40
0.375
 40
0.375
 40
0.375
 40
0.375
 40
0.5
 40
0.5
 40
0.5
 40
0.5
 40
0.625
 40
0.625
 40
0.625
 40
0.625
 40
0.75
 40
0.75
 40
0.75
 40
0.75
 40
1.0
 40
1.0
 40
1.0
 40
1.0
 10
72.1607
 20
82.1104
 30
0.0
 10
68.7733
 20
82.1104
 30
0.0
 10
65.6338
 20
81.049
 30
0.0
 10
63.0565
 20
79.2407
 30
0.0
 10
63.0565
 20
79.2407
 30
0.0
 10
63.0565
 20
79.2407
 30
0.0
 10
70.087
 20
71.6427
 30
0.0
 10
70.087
 20
71.6427
 30
0.0
 10
70.087
 20
71.6427
 30
0.0
 10
70.087
 20
71.6427
 30
0.0
 10
72.0418
 20
73.5938
 30
0.0
 10
72.0418
 20
73.5938
 30
0.0
 10
72.0418
 20
73.5938
 30
0.0
 10
72.0418
 20
73.5938
 30
0.0
 10
73.9976
 20
71.6782
 30
0.0
 10
73.9976
 20
71.6782
 30
0.0
 10
73.9976
 20
71.6782
 30
0.0
 10
73.9976
 20
71.6782
 30
0.0
 10
81.3994
 20
79.1452
 30
0.0
 10
81.3994
 20
79.1452
 30
0.0
 10
81.3994
 20
79.1452
 30
0.0
 10
78.7972
 20
81.0116
 30
0.0
 10
75.6072
 20
82.1104
 30
0.0
 10
72.1606
 20
82.1104
 30
0.0
 10
72.1606
 20
82.1104
 30
0.0
 10
72.1606
 20
82.1104
 30
0.0
 10
72.1607
 20
82.1104
 30
0.0
 10
72.1607
 20
82.1104
 30
0.0
  0
SPLINE
  5
5D
330
1F
100
AcDbEntity
  8
layer 1
 62
     7
100
AcDbSpline
210
0.0
220
0.0
230
1.0
 70
    11
 71
     3
 72
    32
 73
    28
 74
     0
 42
0.0000000001
 43
0.0000000001
 12
1.0
 22
0.0
 32
0.0
 13
1.0
 23
0.0
 33
0.0
 40
0.0
 40
0.0
 40
0.0
 40
0.0
 40
0.125
 40
0.125
 40
0.125
 40
0.125
 40
0.25
 40
0.25
 40
0.25
 40
0.25
 40
0.375
 40
0.375
 40
0.375
 40
0.375
 40
0.5
 40
0.5
 40
0.5
 40
0.5
 40
0.625
 40
0.625
 40
0.625
 40
0.625
 40
0.75
 40
0.75
 40
0.75
 40
0.75
 40
1.0
 40
1.0
 40
1.0
 40
1.0
 10
72.2643
 20
50.2532
 30
0.0
 10
68.8768
 20
50.2532
 30
0.0
 10
65.7373
 20
51.3145
 30
0.0
 10
63.16
 20
53.1229
 30
0.0
 10
63.16
 20
53.1229
 30
0.0
 10
63.16
 20
53.1229
 30
0.0
 10
70.1905
 20
60.7209
 30
0.0
 10
70.1905
 20
60.7209
 30
0.0
 10
70.1905
 20
60.7209
 30
0.0
 10
70.1905
 20
60.7209
 30
0.0
 10
72.1453
 20
58.7698
 30
0.0
 10
72.1453
 20
58.7698
 30
0.0
 10
72.1453
 20
58.7698
 30
0.0
 10
72.1453
 20
58.7698
 30
0.0
 10
74.1011
 20
60.6853
 30
0.0
 10
74.1011
 20
60.6853
 30
0.0
 10
74.1011
 20
60.6853
 30
0.0
 10
74.1011
 20
60.6853
 30
0.0
 10
81.5029
 20
53.2183
 30
0.0
 10
81.5029
 20
53.2183
 30
0.0
 10
81.5029
 20
53.2183
 30
0.0
 10
78.9007
 20
51.352
 30
0.0
 10
75.7107
 20
50.2532
 30
0.0
 10
72.2642
 20
50.2532
 30
0.0
 10
72.2642
 20
50.2532
 30
0.0
 10
72.2642
 20
50.2532
 30
0.0
 10
72.2643
 20
50.2532
 30
0.0
 10
72.2643
 20
50.2532
 30
0.0
  0
SPLINE
  5
5E
330
1F
100
AcDbEntity
  8
layer 1
 62
     7
100
AcDbSpline
210
0.0
220
0.0
230
1.0
 70
    11
 71
     3
 72
    32
 73
    28
 74
     0
 42
0.0000000001
 43
0.0000000001
 12
1.0
 22
0.0
 32
0.0
 13
1.0
 23
0.0
 33
0.0
 40
0.0
 40
0.0
 40
0.0
 40
0.0
 40
0.125
 40
0.125
 40
0.125
 40
0.125
 40
0.25
 40
0.25
 40
0.25
 40
0.25
 40
0.375
 40
0.375
 40
0.375
 40
0.375
 40
0.5
 40
0.5
 40
0.5
 40
0.5
 40
0.625
 40
0.625
 40
0.625
 40
0.625
 40
0.75
 40
0.75
 40
0.75
 40
0.75
 40
1.0
 40
1.0
 40
1.0
 40
1.0
 10
30.4476
 20
66.1016
 30
0.0
 10
30.4476
 20
62.7141
 30
0.0
 10
29.3863
 20
59.5746
 30
0.0
 10
27.5779
 20
56.9973
 30
0.0
 10
27.5779
 20
56.9973
 30
0.0
 10
27.5779
 20
56.9973
 30
0.0
 10
19.9799
 20
64.0278
 30
0.0
 10
19.9799
 20
64.0278
 30
0.0
 10
19.9799
 20
64.0278
 30
0.0
 10
19.9799
 20
64.0278
 30
0.0
 10
21.931
 20
65.9826
 30
0.0
 10
21.931
 20
65.9826
 30
0.0
 10
21.931
 20
65.9826
 30
0.0
 10
21.931
 20
65.9826
 30
0.0
 10
20.0155
 20
67.9385
 30
0.0
 10
20.0155
 20
67.9385
 30
0.0
 10
20.0155
 20
67.9385
 30
0.0
 10
20.0155
 20
67.9385
 30
0.0
 10
27.4825
 20
75.3402
 30
0.0
 10
27.4825
 20
75.3402
 30
0.0
 10
27.4825
 20
75.3402
 30
0.0
 10
29.3488
 20
72.7381
 30
0.0
 10
30.4476
 20
69.548
 30
0.0
 10
30.4476
 20
66.1015
 30
0.0
 10
30.4476
 20
66.1015
 30
0.0
 10
30.4476
 20
66.1015
 30
0.0
 10
30.4476
 20
66.1016
 30
0.0
 10
30.4476
 20
66.1016
 30
0.0
  0
SPLINE
  5
5F
330
1F
100
AcDbEntity
  8
layer 1
 62
     7
100
AcDbSpline
210
0.0
220
0.0
230
1.0
 70
    11
 71
     3
 72
    20
 73
    16
 74
     0
 42
0.0000000001
 43
0.0000000001
 12
1.0
 22
0.0
 32
0.0
 13
1.0
 23
0.0
 33
0.0
 40
0.0
 40
0.0
 40
0.0
 40
0.0
 40
0.2
 40
0.2
 40
0.2
 40
0.2
 40
0.4
 40
0.4
 40
0.4
 40
0.4
 40
0.6
 40
0.6
 40
0.6
 40
0.6
 40
1.0
 40
1.0
 40
1.0
 40
1.0
 10
36.7435
 20
77.4126
 30
0.0
 10
39.0104
 20
75.8317
 30
0.0
 10
47.0959
 20
75.5632
 30
0.0
 10
49.9892
 20
77.4126
 30
0.0
 10
49.9892
 20
77.4126
 30
0.0
 10
49.2928
 20
76.2451
 30
0.0
 10
48.7456
 20
75.0153
 30
0.0
 10
48.3724
 20
73.673
 30
0.0
 10
48.3724
 20
73.673
 30
0.0
 10
45.5984
 20
73.2554
 30
0.0
 10
41.6065
 20
73.2681
 30
0.0
 10
38.3255
 20
73.8051
 30
0.0
 10
38.3255
 20
73.8051
 30
0.0
 10
37.9675
 20
75.0877
 30
0.0
 10
37.372
 20
76.425
 30
0.0
 10
36.7435
 20
77.4126
 30
0.0
  0
SPLINE
  5
60
330
1F
100
AcDbEntity
  8
layer 1
 62
     7
100
AcDbSpline
210
0.0
220
0.0
230
1.0
 70
    11
 71
     3
 72
    20
 73
    16
 74
     0
 42
0.0000000001
 43
0.0000000001
 12
1.0
 22
0.0
 32
0.0
 13
1.0
 23
0.0
 33
0.0
 40
0.0
 40
0.0
 40
0.0
 40
0.0
 40
0.2
 40
0.2
 40
0.2
 40
0.2
 40
0.4
 40
0.4
 40
0.4
 40
0.4
 40
0.6
 40
0.6
 40
0.6
 40
0.6
 40
1.0
 40
1.0
 40
1.0
 40
1.0
 10
39.0424
 20
70.5523
 30
0.0
 10
40.7128
 20
69.6575
 30
0.0
 10
45.6641
 20
69.4785
 30
0.0
 10
47.6924
 20
70.5523
 30
0.0
 10
47.6924
 20
70.5523
 30
0.0
 10
47.0787
 20
68.7893
 30
0.0
 10
47.1384
 20
63.4473
 30
0.0
 10
47.6473
 20
61.8426
 30
0.0
 10
47.6473
 20
61.8426
 30
0.0
 10
44.8436
 20
62.5286
 30
0.0
 10
42.0848
 20
62.6778
 30
0.0
 10
39.0424
 20
61.8128
 30
0.0
 10
39.0424
 20
61.8128
 30
0.0
 10
39.5467
 20
63.7549
 30
0.0
 10
39.6644
 20
68.3152
 30
0.0
 10
39.0424
 20
70.5523
 30
0.0
  0
SPLINE
  5
61
330
1F
100
AcDbEntity
  8
layer 1
 62
     7
100
AcDbSpline
210
0.0
220
0.0
230
1.0
 70
    11
 71
     3
 72
    20
 73
    16
 74
     0
 42
0.0000000001
 43
0.0000000001
 12
1.0
 22
0.0
 32
0.0
 13
1.0
 23
0.0
 33
0.0
 40
0.0
 40
0.0
 40
0.0
 40
0.0
 40
0.2
 40
0.2
 40
0.2
 40
0.2
 40
0.4
 40
0.4
 40
0.4
 40
0.4
 40
0.6
 40
0.6
 40
0.6
 40
0.6
 40
1.0
 40
1.0
 40
1.0
 40
1.0
 10
36.7435
 20
55.0526
 30
0.0
 10
39.0104
 20
56.6335
 30
0.0
 10
47.0959
 20
56.9019
 30
0.0
 10
49.9892
 20
55.0526
 30
0.0
 10
49.9892
 20
55.0526
 30
0.0
 10
49.1242
 20
56.37
 30
0.0
 10
48.8769
 20
57.4123
 30
0.0
 10
48.3537
 20
58.7922
 30
0.0
 10
48.3537
 20
58.7922
 30
0.0
 10
45.5797
 20
59.2097
 30
0.0
 10
41.6066
 20
59.1971
 30
0.0
 10
38.3255
 20
58.6601
 30
0.0
 10
38.3255
 20
58.6601
 30
0.0
 10
37.9675
 20
57.3775
 30
0.0
 10
37.372
 20
56.0402
 30
0.0
 10
36.7435
 20
55.0526
 30
0.0
  0
SPLINE
  5
62
330
1F
100
AcDbEntity
  8
layer 1
 62
     7
100
AcDbSpline
210
0.0
220
0.0
230
1.0
 70
    11
 71
     3
 72
    32
 73
    28
 74
     0
 42
0.0000000001
 43
0.0000000001
 12
1.0
 22
0.0
 32
0.0
 13
1.0
 23
0.0
 33
0.0
 40
0.0
 40
0.0
 40
0.0
 40
0.0
 40
0.125
 40
0.125
 40
0.125
 40
0.125
 40
0.25
 40
0.25
 40
0.25
 40
0.25
 40
0.375
 40
0.375
 40
0.375
 40
0.375
 40
0.5
 40
0.5
 40
0.5
 40
0.5
 40
0.625
 40
0.625
 40
0.625
 40
0.625
 40
0.75
 40
0.75
 40
0.75
 40
0.75
 40
1.0
 40
1.0
 40
1.0
 40
1.0
 10
145.6511
 20
66.1016
 30
0.0
 10
145.6511
 20
62.7141
 30
0.0
 10
144.5897
 20
59.5746
 30
0.0
 10
142.7814
 20
56.9973
 30
0.0
 10
142.7814
 20
56.9973
 30
0.0
 10
142.7814
 20
56.9973
 30
0.0
 10
135.1834
 20
64.0278
 30
0.0
 10
135.1834
 20
64.0278
 30
0.0
 10
135.1834
 20
64.0278
 30
0.0
 10
135.1834
 20
64.0278
 30
0.0
 10
137.1345
 20
65.9826
 30
0.0
 10
137.1345
 20
65.9826
 30
0.0
 10
137.1345
 20
65.9826
 30
0.0
 10
137.1345
 20
65.9826
 30
0.0
 10
135.2189
 20
67.9385
 30
0.0
 10
135.2189
 20
67.9385
 30
0.0
 10
135.2189
 20
67.9385
 30
0.0
 10
135.2189
 20
67.9385
 30
0.0
 10
142.6859
 20
75.3402
 30
0.0
 10
142.6859
 20
75.3402
 30
0.0
 10
142.6859
 20
75.3402
 30
0.0
 10
144.5523
 20
72.7381
 30
0.0
 10
145.6511
 20
69.548
 30
0.0
 10
145.6511
 20
66.1015
 30
0.0
 10
145.6511
 20
66.1015
 30
0.0
 10
145.6511
 20
66.1015
 30
0.0
 10
145.6511
 20
66.1016
 30
0.0
 10
145.6511
 20
66.1016
 30
0.0
  0
SPLINE
  5
63
330
1F
100
AcDbEntity
  8
layer 1
 62
     7
100
AcDbSpline
210
0.0
220
0.0
230
1.0
 70
    11
 71
     3
 72
    20
 73
    16
 74
     0
 42
0.0000000001
 43
0.0000000001
 12
1.0
 22
0.0
 32
0.0
 13
1.0
 23
0.0
 33
0.0
 40
0.0
 40
0.0
 40
0.0
 40
0.0
 40
0.2
 40
0.2
 40
0.2
 40
0.2
 40
0.4
 40
0.4
 40
0.4
 40
0.4
 40
0.6
 40
0.6
 40
0.6
 40
0.6
 40
1.0
 40
1.0
 40
1.0
 40
1.0
 10
151.947
 20
77.4126
 30
0.0
 10
154.2139
 20
75.8317
 30
0.0
 10
162.2993
 20
75.5632
 30
0.0
 10
165.1926
 20
77.4126
 30
0.0
 10
165.1926
 20
77.4126
 30
0.0
 10
164.4963
 20
76.2451
 30
0.0
 10
163.9491
 20
75.0153
 30
0.0
 10
163.5759
 20
73.673
 30
0.0
 10
163.5759
 20
73.673
 30
0.0
 10
160.8018
 20
73.2554
 30
0.0
 10
156.8099
 20
73.2681
 30
0.0
 10
153.5289
 20
73.8051
 30
0.0
 10
153.5289
 20
73.8051
 30
0.0
 10
153.1709
 20
75.0877
 30
0.0
 10
152.5755
 20
76.425
 30
0.0
 10
151.947
 20
77.4126
 30
0.0
  0
SPLINE
  5
64
330
1F
100
AcDbEntity
  8
layer 1
 62
     7
100
AcDbSpline
210
0.0
220
0.0
230
1.0
 70
    11
 71
     3
 72
    20
 73
    16
 74
     0
 42
0.0000000001
 43
0.0000000001
 12
1.0
 22
0.0
 32
0.0
 13
1.0
 23
0.0
 33
0.0
 40
0.0
 40
0.0
 40
0.0
 40
0.0
 40
0.2
 40
0.2
 40
0.2
 40
0.2
 40
0.4
 40
0.4
 40
0.4
 40
0.4
 40
0.6
 40
0.6
 40
0.6
 40
0.6
 40
1.0
 40
1.0
 40
1.0
 40
1.0
 10
154.2459
 20
70.5523
 30
0.0
 10
155.9162
 20
69.6575
 30
0.0
 10
160.8676
 20
69.4785
 30
0.0
 10
162.8959
 20
70.5523
 30
0.0
 10
162.8959
 20
70.5523
 30
0.0
 10
162.2822
 20
68.7893
 30
0.0
 10
162.3419
 20
63.4473
 30
0.0
 10
162.8508
 20
61.8426
 30
0.0
 10
162.8508
 20
61.8426
 30
0.0
 10
160.047
 20
62.5286
 30
0.0
 10
157.2883
 20
62.6778
 30
0.0
 10
154.2459
 20
61.8128
 30
0.0
 10
154.2459
 20
61.8128
 30
0.0
 10
154.7501
 20
63.7549
 30
0.0
 10
154.8678
 20
68.3152
 30
0.0
 10
154.2459
 20
70.5523
 30
0.0
  0
SPLINE
  5
65
330
1F
100
AcDbEntity
  8
layer 1
 62
     7
100
AcDbSpline
210
0.0
220
0.0
230
1.0
 70
    11
 71
     3
 72
    20
 73
    16
 74
     0
 42
0.0000000001
 43
0.0000000001
 12
1.0
 22
0.0
 32
0.0
 13
1.0
 23
0.0
 33
0.0
 40
0.0
 40
0.0
 40
0.0
 40
0.0
 40
0.2
 40
0.2
 40
0.2
 40
0.2
 40
0.4
 40
0.4
 40
0.4
 40
0.4
 40
0.6
 40
0.6
 40
0.6
 40
0.6
 40
1.0
 40
1.0
 40
1.0
 40
1.0
 10
151.947
 20
55.0526
 30
0.0
 10
154.2139
 20
56.6335
 30
0.0
 10
162.2993
 20
56.9019
 30
0.0
 10
165.1926
 20
55.0526
 30
0.0
 10
165.1926
 20
55.0526
 30
0.0
 10
164.3277
 20
56.37
 30
0.0
 10
164.0803
 20
57.4123
 30
0.0
 10
163.5572
 20
58.7922
 30
0.0
 10
163.5572
 20
58.7922
 30
0.0
 10
160.7832
 20
59.2097
 30
0.0
 10
156.81
 20
59.1971
 30
0.0
 10
153.5289
 20
58.6601
 30
0.0
 10
153.5289
 20
58.6601
 30
0.0
 10
153.1709
 20
57.3775
 30
0.0
 10
152.5755
 20
56.0402
 30
0.0
 10
151.947
 20
55.0526
 30
0.0
  0
SPLINE
  5
66
330
1F
100
AcDbEntity
  8
layer 1
 62
     7
100
AcDbSpline
210
0.0
220
0.0
230
1.0
 70
    11
 71
     3
 72
    32
 73
    28
 74
     0
 42
0.0000000001
 43
0.0000000001
 12
1.0
 22
0.0
 32
0.0
 13
1.0
 23
0.0
 33
0.0
 40
0.0
 40
0.0
 40
0.0
 40
0.0
 40
0.125
 40
0.125
 40
0.125
 40
0.125
 40
0.25
 40
0.25
 40
0.25
 40
0.25
 40
0.375
 40
0.375
 40
0.375
 40
0.375
 40
0.5
 40
0.5
 40
0.5
 40
0.5
 40
0.625
 40
0.625
 40
0.625
 40
0.625
 40
0.75
 40
0.75
 40
0.75
 40
0.75
 40
1.0
 40
1.0
 40
1.0
 40
1.0
 10
113.7507
 20
66.1016
 30
0.0
 10
113.7507
 20
62.7141
 30
0.0
 10
114.812
 20
59.5746
 30
0.0
 10
116.6203
 20
56.9973
 30
0.0
 10
116.6203
 20
56.9973
 30
0.0
 10
116.6203
 20
56.9973
 30
0.0
 10
124.2184
 20
64.0278
 30
0.0
 10
124.2184
 20
64.0278
 30
0.0
 10
124.2184
 20
64.0278
 30
0.0
 10
124.2184
 20
64.0278
 30
0.0
 10
122.2672
 20
65.9826
 30
0.0
 10
122.2672
 20
65.9826
 30
0.0
 10
122.2672
 20
65.9826
 30
0.0
 10
122.2672
 20
65.9826
 30
0.0
 10
124.1828
 20
67.9385
 30
0.0
 10
124.1828
 20
67.9385
 30
0.0
 10
124.1828
 20
67.9385
 30
0.0
 10
124.1828
 20
67.9385
 30
0.0
 10
116.7158
 20
75.3402
 30
0.0
 10
116.7158
 20
75.3402
 30
0.0
 10
116.7158
 20
75.3402
 30
0.0
 10
114.8495
 20
72.7381
 30
0.0
 10
113.7507
 20
69.548
 30
0.0
 10
113.7507
 20
66.1015
 30
0.0
 10
113.7507
 20
66.1015
 30
0.0
 10
113.7507
 20
66.1015
 30
0.0
 10
113.7507
 20
66.1016
 30
0.0
 10
113.7507
 20
66.1016
 30
0.0
  0
SPLINE
  5
67
330
1F
100
AcDbEntity
  8
layer 1
 62
     7
100
AcDbSpline
210
0.0
220
0.0
230
1.0
 70
    11
 71
     3
 72
    32
 73
    28
 74
     0
 42
0.0000000001
 43
0.0000000001
 12
1.0
 22
0.0
 32
0.0
 13
1.0
 23
0.0
 33
0.0
 40
0.0
 40
0.0
 40
0.0
 40
0.0
 40
0.125
 40
0.125
 40
0.125
 40
0.125
 40
0.25
 40
0.25
 40
0.25
 40
0.25
 40
0.375
 40
0.375
 40
0.375
 40
0.375
 40
0.5
 40
0.5
 40
0.5
 40
0.5
 40
0.625
 40
0.625
 40
0.625
 40
0.625
 40
0.75
 40
0.75
 40
0.75
 40
0.75
 40
1.0
 40
1.0
 40
1.0
 40
1.0
 10
171.2925
 20
66.1016
 30
0.0
 10
171.2925
 20
62.7141
 30
0.0
 10
172.3538
 20
59.5746
 30
0.0
 10
174.1622
 20
56.9973
 30
0.0
 10
174.1622
 20
56.9973
 30
0.0
 10
174.1622
 20
56.9973
 30
0.0
 10
181.7602
 20
64.0278
 30
0.0
 10
181.7602
 20
64.0278
 30
0.0
 10
181.7602
 20
64.0278
 30
0.0
 10
181.7602
 20
64.0278
 30
0.0
 10
179.8091
 20
65.9826
 30
0.0
 10
179.8091
 20
65.9826
 30
0.0
 10
179.8091
 20
65.9826
 30
0.0
 10
179.8091
 20
65.9826
 30
0.0
 10
181.7246
 20
67.9385
 30
0.0
 10
181.7246
 20
67.9385
 30
0.0
 10
181.7246
 20
67.9385
 30
0.0
 10
181.7246
 20
67.9385
 30
0.0
 10
174.2576
 20
75.3402
 30
0.0
 10
174.2576
 20
75.3402
 30
0.0
 10
174.2576
 20
75.3402
 30
0.0
 10
172.3913
 20
72.7381
 30
0.0
 10
171.2925
 20
69.548
 30
0.0
 10
171.2925
 20
66.1015
 30
0.0
 10
171.2925
 20
66.1015
 30
0.0
 10
171.2925
 20
66.1015
 30
0.0
 10
171.2925
 20
66.1016
 30
0.0
 10
171.2925
 20
66.1016
 30
0.0
  0
SPLINE
  5
68
330
1F
100
AcDbEntity
  8
layer 1
 62
     7
100
AcDbSpline
210
0.0
220
0.0
230
1.0
 70
    11
 71
     3
 72
    32
 73
    28
 74
     0
 42
0.0000000001
 43
0.0000000001
 12
1.0
 22
0.0
 32
0.0
 13
1.0
 23
0.0
 33
0.0
 40
0.0
 40
0.0
 40
0.0
 40
0.0
 40
0.125
 40
0.125
 40
0.125
 40
0.125
 40
0.25
 40
0.25
 40
0.25
 40
0.25
 40
0.375
 40
0.375
 40
0.375
 40
0.375
 40
0.5
 40
0.5
 40
0.5
 40
0.5
 40
0.625
 40
0.625
 40
0.625
 40
0.625
 40
0.75
 40
0.75
 40
0.75
 40
0.75
 40
1.0
 40
1.0
 40
1.0
 40
1.0
 10
129.7026
 20
82.1104
 30
0.0
 10
126.3151
 20
82.1104
 30
0.0
 10
123.1756
 20
81.049
 30
0.0
 10
120.5983
 20
79.2407
 30
0.0
 10
120.5983
 20
79.2407
 30
0.0
 10
120.5983
 20
79.2407
 30
0.0
 10
127.6288
 20
71.6427
 30
0.0
 10
127.6288
 20
71.6427
 30
0.0
 10
127.6288
 20
71.6427
 30
0.0
 10
127.6288
 20
71.6427
 30
0.0
 10
129.5836
 20
73.5938
 30
0.0
 10
129.5836
 20
73.5938
 30
0.0
 10
129.5836
 20
73.5938
 30
0.0
 10
129.5836
 20
73.5938
 30
0.0
 10
131.5395
 20
71.6782
 30
0.0
 10
131.5395
 20
71.6782
 30
0.0
 10
131.5395
 20
71.6782
 30
0.0
 10
131.5395
 20
71.6782
 30
0.0
 10
138.9412
 20
79.1452
 30
0.0
 10
138.9412
 20
79.1452
 30
0.0
 10
138.9412
 20
79.1452
 30
0.0
 10
136.3391
 20
81.0116
 30
0.0
 10
133.149
 20
82.1104
 30
0.0
 10
129.7025
 20
82.1104
 30
0.0
 10
129.7025
 20
82.1104
 30
0.0
 10
129.7025
 20
82.1104
 30
0.0
 10
129.7026
 20
82.1104
 30
0.0
 10
129.7026
 20
82.1104
 30
0.0
  0
SPLINE
  5
69
330
1F
100
AcDbEntity
  8
layer 1
 62
     7
100
AcDbSpline
210
0.0
220
0.0
230
1.0
 70
    11
 71
     3
 72
    20
 73
    16
 74
     0
 42
0.0000000001
 43
0.0000000001
 12
1.0
 22
0.0
 32
0.0
 13
1.0
 23
0.0
 33
0.0
 40
0.0
 40
0.0
 40
0.0
 40
0.0
 40
0.2
 40
0.2
 40
0.2
 40
0.2
 40
0.4
 40
0.4
 40
0.4
 40
0.4
 40
0.6
 40
0.6
 40
0.6
 40
0.6
 40
1.0
 40
1.0
 40
1.0
 40
1.0
 10
187.3358
 20
82.1071
 30
0.0
 10
183.9483
 20
82.1071
 30
0.0
 10
180.7175
 20
81.049
 30
0.0
 10
178.1401
 20
79.2407
 30
0.0
 10
178.1401
 20
79.2407
 30
0.0
 10
178.1401
 20
79.2407
 30
0.0
 10
185.1707
 20
71.6427
 30
0.0
 10
185.1707
 20
71.6427
 30
0.0
 10
185.1707
 20
71.6427
 30
0.0
 10
185.1707
 20
71.6427
 30
0.0
 10
187.3598
 20
73.7561
 30
0.0
 10
187.3598
 20
73.7561
 30
0.0
 10
187.3598
 20
73.7561
 30
0.0
 10
187.3598
 20
73.7561
 30
0.0
 10
187.3358
 20
82.1071
 30
0.0
 10
187.3358
 20
82.1071
 30
0.0
  0
SPLINE
  5
6A
330
1F
100
AcDbEntity
  8
layer 1
 62
     7
100
AcDbSpline
210
0.0
220
0.0
230
1.0
 70
    11
 71
     3
 72
    32
 73
    28
 74
     0
 42
0.0000000001
 43
0.0000000001
 12
1.0
 22
0.0
 32
0.0
 13
1.0
 23
0.0
 33
0.0
 40
0.0
 40
0.0
 40
0.0
 40
0.0
 40
0.125
 40
0.125
 40
0.125
 40
0.125
 40
0.25
 40
0.25
 40
0.25
 40
0.25
 40
0.375
 40
0.375
 40
0.375
 40
0.375
 40
0.5
 40
0.5
 40
0.5
 40
0.5
 40
0.625
 40
0.625
 40
0.625
 40
0.625
 40
0.75
 40
0.75
 40
0.75
 40
0.75
 40
1.0
 40
1.0
 40
1.0
 40
1.0
 10
129.8061
 20
50.2532
 30
0.0
 10
126.4186
 20
50.2532
 30
0.0
 10
123.2791
 20
51.3145
 30
0.0
 10
120.7018
 20
53.1229
 30
0.0
 10
120.7018
 20
53.1229
 30
0.0
 10
120.7018
 20
53.1229
 30
0.0
 10
127.7323
 20
60.7209
 30
0.0
 10
127.7323
 20
60.7209
 30
0.0
 10
127.7323
 20
60.7209
 30
0.0
 10
127.7323
 20
60.7209
 30
0.0
 10
129.6871
 20
58.7698
 30
0.0
 10
129.6871
 20
58.7698
 30
0.0
 10
129.6871
 20
58.7698
 30
0.0
 10
129.6871
 20
58.7698
 30
0.0
 10
131.643
 20
60.6853
 30
0.0
 10
131.643
 20
60.6853
 30
0.0
 10
131.643
 20
60.6853
 30
0.0
 10
131.643
 20
60.6853
 30
0.0
 10
139.0447
 20
53.2183
 30
0.0
 10
139.0447
 20
53.2183
 30
0.0
 10
139.0447
 20
53.2183
 30
0.0
 10
136.4426
 20
51.352
 30
0.0
 10
133.2525
 20
50.2532
 30
0.0
 10
129.806
 20
50.2532
 30
0.0
 10
129.806
 20
50.2532
 30
0.0
 10
129.806
 20
50.2532
 30
0.0
 10
129.8061
 20
50.2532
 30
0.0
 10
129.8061
 20
50.2532
 30
0.0
  0
SPLINE
  5
6B
330
1F
100
AcDbEntity
  8
layer 1
 62
     7
100
AcDbSpline
210
0.0
220
0.0
230
1.0
 70
    11
 71
     3
 72
    32
 73
    28
 74
     0
 42
0.0000000001
 43
0.0000000001
 12
1.0
 22
0.0
 32
0.0
 13
1.0
 23
0.0
 33
0.0
 40
0.0
 40
0.0
 40
0.0
 40
0.0
 40
0.125
 40
0.125
 40
0.125
 40
0.125
 40
0.25
 40
0.25
 40
0.25
 40
0.25
 40
0.375
 40
0.375
 40
0.375
 40
0.375
 40
0.5
 40
0.5
 40
0.5
 40
0.5
 40
0.625
 40
0.625
 40
0.625
 40
0.625
 40
0.75
 40
0.75
 40
0.75
 40
0.75
 40
1.0
 40
1.0
 40
1.0
 40
1.0
 10
59.4737
 20
37.513
 30
0.0
 10
59.4737
 20
34.1256
 30
0.0
 10
58.4123
 20
30.9861
 30
0.0
 10
56.604
 20
28.4087
 30
0.0
 10
56.604
 20
28.4087
 30
0.0
 10
56.604
 20
28.4087
 30
0.0
 10
49.0059
 20
35.4393
 30
0.0
 10
49.0059
 20
35.4393
 30
0.0
 10
49.0059
 20
35.4393
 30
0.0
 10
49.0059
 20
35.4393
 30
0.0
 10
50.9571
 20
37.394
 30
0.0
 10
50.9571
 20
37.394
 30
0.0
 10
50.9571
 20
37.394
 30
0.0
 10
50.9571
 20
37.394
 30
0.0
 10
49.0415
 20
39.3499
 30
0.0
 10
49.0415
 20
39.3499
 30
0.0
 10
49.0415
 20
39.3499
 30
0.0
 10
49.0415
 20
39.3499
 30
0.0
 10
56.5085
 20
46.7517
 30
0.0
 10
56.5085
 20
46.7517
 30
0.0
 10
56.5085
 20
46.7517
 30
0.0
 10
58.3748
 20
44.1495
 30
0.0
 10
59.4737
 20
40.9595
 30
0.0
 10
59.4737
 20
37.5129
 30
0.0
 10
59.4737
 20
37.5129
 30
0.0
 10
59.4737
 20
37.5129
 30
0.0
 10
59.4737
 20
37.513
 30
0.0
 10
59.4737
 20
37.513
 30
0.0
  0
SPLINE
  5
6C
330
1F
100
AcDbEntity
  8
layer 1
 62
     7
100
AcDbSpline
210
0.0
220
0.0
230
1.0
 70
    11
 71
     3
 72
    32
 73
    28
 74
     0
 42
0.0000000001
 43
0.0000000001
 12
1.0
 22
0.0
 32
0.0
 13
1.0
 23
0.0
 33
0.0
 40
0.0
 40
0.0
 40
0.0
 40
0.0
 40
0.125
 40
0.125
 40
0.125
 40
0.125
 40
0.25
 40
0.25
 40
0.25
 40
0.25
 40
0.375
 40
0.375
 40
0.375
 40
0.375
 40
0.5
 40
0.5
 40
0.5
 40
0.5
 40
0.625
 40
0.625
 40
0.625
 40
0.625
 40
0.75
 40
0.75
 40
0.75
 40
0.75
 40
1.0
 40
1.0
 40
1.0
 40
1.0
 10
59.4737
 20
-20.3463
 30
0.0
 10
59.4737
 20
-23.7337
 30
0.0
 10
58.4123
 20
-26.8732
 30
0.0
 10
56.604
 20
-29.4506
 30
0.0
 10
56.604
 20
-29.4506
 30
0.0
 10
56.604
 20
-29.4506
 30
0.0
 10
49.0059
 20
-22.42
 30
0.0
 10
49.0059
 20
-22.42
 30
0.0
 10
49.0059
 20
-22.42
 30
0.0
 10
49.0059
 20
-22.42
 30
0.0
 10
50.9571
 20
-20.4653
 30
0.0
 10
50.9571
 20
-20.4653
 30
0.0
 10
50.9571
 20
-20.4653
 30
0.0
 10
50.9571
 20
-20.4653
 30
0.0
 10
49.0415
 20
-18.5094
 30
0.0
 10
49.0415
 20
-18.5094
 30
0.0
 10
49.0415
 20
-18.5094
 30
0.0
 10
49.0415
 20
-18.5094
 30
0.0
 10
56.5085
 20
-11.1076
 30
0.0
 10
56.5085
 20
-11.1076
 30
0.0
 10
56.5085
 20
-11.1076
 30
0.0
 10
58.3748
 20
-13.7098
 30
0.0
 10
59.4737
 20
-16.8998
 30
0.0
 10
59.4737
 20
-20.3464
 30
0.0
 10
59.4737
 20
-20.3464
 30
0.0
 10
59.4737
 20
-20.3464
 30
0.0
 10
59.4737
 20
-20.3463
 30
0.0
 10
59.4737
 20
-20.3463
 30
0.0
  0
SPLINE
  5
6D
330
1F
100
AcDbEntity
  8
layer 1
 62
     7
100
AcDbSpline
210
0.0
220
0.0
230
1.0
 70
    11
 71
     3
 72
    32
 73
    28
 74
     0
 42
0.0000000001
 43
0.0000000001
 12
1.0
 22
0.0
 32
0.0
 13
1.0
 23
0.0
 33
0.0
 40
0.0
 40
0.0
 40
0.0
 40
0.0
 40
0.125
 40
0.125
 40
0.125
 40
0.125
 40
0.25
 40
0.25
 40
0.25
 40
0.25
 40
0.375
 40
0.375
 40
0.375
 40
0.375
 40
0.5
 40
0.5
 40
0.5
 40
0.5
 40
0.625
 40
0.625
 40
0.625
 40
0.625
 40
0.75
 40
0.75
 40
0.75
 40
0.75
 40
1.0
 40
1.0
 40
1.0
 40
1.0
 10
59.4737
 20
-78.2056
 30
0.0
 10
59.4737
 20
-81.593
 30
0.0
 10
58.4123
 20
-84.7325
 30
0.0
 10
56.604
 20
-87.3099
 30
0.0
 10
56.604
 20
-87.3099
 30
0.0
 10
56.604
 20
-87.3099
 30
0.0
 10
49.0059
 20
-80.2793
 30
0.0
 10
49.0059
 20
-80.2793
 30
0.0
 10
49.0059
 20
-80.2793
 30
0.0
 10
49.0059
 20
-80.2793
 30
0.0
 10
50.9571
 20
-78.3246
 30
0.0
 10
50.9571
 20
-78.3246
 30
0.0
 10
50.9571
 20
-78.3246
 30
0.0
 10
50.9571
 20
-78.3246
 30
0.0
 10
49.0415
 20
-76.3687
 30
0.0
 10
49.0415
 20
-76.3687
 30
0.0
 10
49.0415
 20
-76.3687
 30
0.0
 10
49.0415
 20
-76.3687
 30
0.0
 10
56.5085
 20
-68.9669
 30
0.0
 10
56.5085
 20
-68.9669
 30
0.0
 10
56.5085
 20
-68.9669
 30
0.0
 10
58.3748
 20
-71.5691
 30
0.0
 10
59.4737
 20
-74.7591
 30
0.0
 10
59.4737
 20
-78.2057
 30
0.0
 10
59.4737
 20
-78.2057
 30
0.0
 10
59.4737
 20
-78.2057
 30
0.0
 10
59.4737
 20
-78.2056
 30
0.0
 10
59.4737
 20
-78.2056
 30
0.0
  0
SPLINE
  5
6E
330
1F
100
AcDbEntity
  8
layer 1
 62
     7
100
AcDbSpline
210
0.0
220
0.0
230
1.0
 70
    11
 71
     3
 72
    20
 73
    16
 74
     0
 42
0.0000000001
 43
0.0000000001
 12
1.0
 22
0.0
 32
0.0
 13
1.0
 23
0.0
 33
0.0
 40
0.0
 40
0.0
 40
0.0
 40
0.0
 40
0.2
 40
0.2
 40
0.2
 40
0.2
 40
0.4
 40
0.4
 40
0.4
 40
0.4
 40
0.6
 40
0.6
 40
0.6
 40
0.6
 40
1.0
 40
1.0
 40
1.0
 40
1.0
 10
65.7696
 20
48.824
 30
0.0
 10
68.0365
 20
47.2431
 30
0.0
 10
76.1219
 20
46.9747
 30
0.0
 10
79.0152
 20
48.824
 30
0.0
 10
79.0152
 20
48.824
 30
0.0
 10
78.3189
 20
47.6565
 30
0.0
 10
77.7717
 20
46.4268
 30
0.0
 10
77.3984
 20
45.0844
 30
0.0
 10
77.3984
 20
45.0844
 30
0.0
 10
74.6244
 20
44.6669
 30
0.0
 10
70.6325
 20
44.6795
 30
0.0
 10
67.3515
 20
45.2165
 30
0.0
 10
67.3515
 20
45.2165
 30
0.0
 10
66.9935
 20
46.4991
 30
0.0
 10
66.3981
 20
47.8364
 30
0.0
 10
65.7696
 20
48.824
 30
0.0
  0
SPLINE
  5
6F
330
1F
100
AcDbEntity
  8
layer 1
 62
     7
100
AcDbSpline
210
0.0
220
0.0
230
1.0
 70
    11
 71
     3
 72
    20
 73
    16
 74
     0
 42
0.0000000001
 43
0.0000000001
 12
1.0
 22
0.0
 32
0.0
 13
1.0
 23
0.0
 33
0.0
 40
0.0
 40
0.0
 40
0.0
 40
0.0
 40
0.2
 40
0.2
 40
0.2
 40
0.2
 40
0.4
 40
0.4
 40
0.4
 40
0.4
 40
0.6
 40
0.6
 40
0.6
 40
0.6
 40
1.0
 40
1.0
 40
1.0
 40
1.0
 10
65.7696
 20
-9.0353
 30
0.0
 10
68.0365
 20
-10.6162
 30
0.0
 10
76.1219
 20
-10.8846
 30
0.0
 10
79.0152
 20
-9.0353
 30
0.0
 10
79.0152
 20
-9.0353
 30
0.0
 10
78.3189
 20
-10.2028
 30
0.0
 10
77.7717
 20
-11.4325
 30
0.0
 10
77.3984
 20
-12.7749
 30
0.0
 10
77.3984
 20
-12.7749
 30
0.0
 10
74.6244
 20
-13.1924
 30
0.0
 10
70.6325
 20
-13.1798
 30
0.0
 10
67.3515
 20
-12.6428
 30
0.0
 10
67.3515
 20
-12.6428
 30
0.0
 10
66.9935
 20
-11.3602
 30
0.0
 10
66.3981
 20
-10.0229
 30
0.0
 10
65.7696
 20
-9.0353
 30
0.0
  0
SPLINE
  5
70
330
1F
100
AcDbEntity
  8
layer 1
 62
     7
100
AcDbSpline
210
0.0
220
0.0
230
1.0
 70
    11
 71
     3
 72
    20
 73
    16
 74
     0
 42
0.0000000001
 43
0.0000000001
 12
1.0
 22
0.0
 32
0.0
 13
1.0
 23
0.0
 33
0.0
 40
0.0
 40
0.0
 40
0.0
 40
0.0
 40
0.2
 40
0.2
 40
0.2
 40
0.2
 40
0.4
 40
0.4
 40
0.4
 40
0.4
 40
0.6
 40
0.6
 40
0.6
 40
0.6
 40
1.0
 40
1.0
 40
1.0
 40
1.0
 10
65.7696
 20
-66.8946
 30
0.0
 10
68.0365
 20
-68.4755
 30
0.0
 10
76.1219
 20
-68.7439
 30
0.0
 10
79.0152
 20
-66.8946
 30
0.0
 10
79.0152
 20
-66.8946
 30
0.0
 10
78.3189
 20
-68.0621
 30
0.0
 10
77.7717
 20
-69.2918
 30
0.0
 10
77.3984
 20
-70.6342
 30
0.0
 10
77.3984
 20
-70.6342
 30
0.0
 10
74.6244
 20
-71.0517
 30
0.0
 10
70.6325
 20
-71.0391
 30
0.0
 10
67.3515
 20
-70.5021
 30
0.0
 10
67.3515
 20
-70.5021
 30
0.0
 10
66.9935
 20
-69.2195
 30
0.0
 10
66.3981
 20
-67.8822
 30
0.0
 10
65.7696
 20
-66.8946
 30
0.0
  0
SPLINE
  5
71
330
1F
100
AcDbEntity
  8
layer 1
 62
     7
100
AcDbSpline
210
0.0
220
0.0
230
1.0
 70
    11
 71
     3
 72
    20
 73
    16
 74
     0
 42
0.0000000001
 43
0.0000000001
 12
1.0
 22
0.0
 32
0.0
 13
1.0
 23
0.0
 33
0.0
 40
0.0
 40
0.0
 40
0.0
 40
0.0
 40
0.2
 40
0.2
 40
0.2
 40
0.2
 40
0.4
 40
0.4
 40
0.4
 40
0.4
 40
0.6
 40
0.6
 40
0.6
 40
0.6
 40
1.0
 40
1.0
 40
1.0
 40
1.0
 10
68.0684
 20
41.9637
 30
0.0
 10
69.7388
 20
41.0689
 30
0.0
 10
74.6901
 20
40.8899
 30
0.0
 10
76.7185
 20
41.9637
 30
0.0
 10
76.7185
 20
41.9637
 30
0.0
 10
76.1047
 20
40.2007
 30
0.0
 10
76.1644
 20
34.8587
 30
0.0
 10
76.6733
 20
33.2541
 30
0.0
 10
76.6733
 20
33.2541
 30
0.0
 10
73.8696
 20
33.9401
 30
0.0
 10
71.1109
 20
34.0892
 30
0.0
 10
68.0684
 20
33.2242
 30
0.0
 10
68.0684
 20
33.2242
 30
0.0
 10
68.5727
 20
35.1663
 30
0.0
 10
68.6904
 20
39.7267
 30
0.0
 10
68.0684
 20
41.9637
 30
0.0
  0
SPLINE
  5
72
330
1F
100
AcDbEntity
  8
layer 1
 62
     7
100
AcDbSpline
210
0.0
220
0.0
230
1.0
 70
    11
 71
     3
 72
    20
 73
    16
 74
     0
 42
0.0000000001
 43
0.0000000001
 12
1.0
 22
0.0
 32
0.0
 13
1.0
 23
0.0
 33
0.0
 40
0.0
 40
0.0
 40
0.0
 40
0.0
 40
0.2
 40
0.2
 40
0.2
 40
0.2
 40
0.4
 40
0.4
 40
0.4
 40
0.4
 40
0.6
 40
0.6
 40
0.6
 40
0.6
 40
1.0
 40
1.0
 40
1.0
 40
1.0
 10
68.0684
 20
-15.8956
 30
0.0
 10
69.7388
 20
-16.7904
 30
0.0
 10
74.6901
 20
-16.9694
 30
0.0
 10
76.7185
 20
-15.8956
 30
0.0
 10
76.7185
 20
-15.8956
 30
0.0
 10
76.1047
 20
-17.6586
 30
0.0
 10
76.1644
 20
-23.0006
 30
0.0
 10
76.6733
 20
-24.6052
 30
0.0
 10
76.6733
 20
-24.6052
 30
0.0
 10
73.8696
 20
-23.9192
 30
0.0
 10
71.1109
 20
-23.7701
 30
0.0
 10
68.0684
 20
-24.6351
 30
0.0
 10
68.0684
 20
-24.6351
 30
0.0
 10
68.5727
 20
-22.693
 30
0.0
 10
68.6904
 20
-18.1326
 30
0.0
 10
68.0684
 20
-15.8956
 30
0.0
  0
SPLINE
  5
73
330
1F
100
AcDbEntity
  8
layer 1
 62
     7
100
AcDbSpline
210
0.0
220
0.0
230
1.0
 70
    11
 71
     3
 72
    20
 73
    16
 74
     0
 42
0.0000000001
 43
0.0000000001
 12
1.0
 22
0.0
 32
0.0
 13
1.0
 23
0.0
 33
0.0
 40
0.0
 40
0.0
 40
0.0
 40
0.0
 40
0.2
 40
0.2
 40
0.2
 40
0.2
 40
0.4
 40
0.4
 40
0.4
 40
0.4
 40
0.6
 40
0.6
 40
0.6
 40
0.6
 40
1.0
 40
1.0
 40
1.0
 40
1.0
 10
68.0684
 20
-73.7549
 30
0.0
 10
69.7388
 20
-74.6497
 30
0.0
 10
74.6901
 20
-74.8287
 30
0.0
 10
76.7185
 20
-73.7549
 30
0.0
 10
76.7185
 20
-73.7549
 30
0.0
 10
76.1047
 20
-75.5179
 30
0.0
 10
76.1644
 20
-80.8599
 30
0.0
 10
76.6733
 20
-82.4645
 30
0.0
 10
76.6733
 20
-82.4645
 30
0.0
 10
73.8696
 20
-81.7785
 30
0.0
 10
71.1109
 20
-81.6294
 30
0.0
 10
68.0684
 20
-82.4944
 30
0.0
 10
68.0684
 20
-82.4944
 30
0.0
 10
68.5727
 20
-80.5523
 30
0.0
 10
68.6904
 20
-75.9919
 30
0.0
 10
68.0684
 20
-73.7549
 30
0.0
  0
SPLINE
  5
74
330
1F
100
AcDbEntity
  8
layer 1
 62
     7
100
AcDbSpline
210
0.0
220
0.0
230
1.0
 70
    11
 71
     3
 72
    20
 73
    16
 74
     0
 42
0.0000000001
 43
0.0000000001
 12
1.0
 22
0.0
 32
0.0
 13
1.0
 23
0.0
 33
0.0
 40
0.0
 40
0.0
 40
0.0
 40
0.0
 40
0.2
 40
0.2
 40
0.2
 40
0.2
 40
0.4
 40
0.4
 40
0.4
 40
0.4
 40
0.6
 40
0.6
 40
0.6
 40
0.6
 40
1.0
 40
1.0
 40
1.0
 40
1.0
 10
65.7696
 20
26.464
 30
0.0
 10
68.0365
 20
28.0449
 30
0.0
 10
76.1219
 20
28.3134
 30
0.0
 10
79.0152
 20
26.464
 30
0.0
 10
79.0152
 20
26.464
 30
0.0
 10
78.1502
 20
27.7814
 30
0.0
 10
77.9029
 20
28.8238
 30
0.0
 10
77.3797
 20
30.2036
 30
0.0
 10
77.3797
 20
30.2036
 30
0.0
 10
74.6057
 20
30.6212
 30
0.0
 10
70.6326
 20
30.6085
 30
0.0
 10
67.3515
 20
30.0716
 30
0.0
 10
67.3515
 20
30.0716
 30
0.0
 10
66.9935
 20
28.7889
 30
0.0
 10
66.3981
 20
27.4516
 30
0.0
 10
65.7696
 20
26.464
 30
0.0
  0
SPLINE
  5
75
330
1F
100
AcDbEntity
  8
layer 1
 62
     7
100
AcDbSpline
210
0.0
220
0.0
230
1.0
 70
    11
 71
     3
 72
    20
 73
    16
 74
     0
 42
0.0000000001
 43
0.0000000001
 12
1.0
 22
0.0
 32
0.0
 13
1.0
 23
0.0
 33
0.0
 40
0.0
 40
0.0
 40
0.0
 40
0.0
 40
0.2
 40
0.2
 40
0.2
 40
0.2
 40
0.4
 40
0.4
 40
0.4
 40
0.4
 40
0.6
 40
0.6
 40
0.6
 40
0.6
 40
1.0
 40
1.0
 40
1.0
 40
1.0
 10
65.7696
 20
-31.3953
 30
0.0
 10
68.0365
 20
-29.8144
 30
0.0
 10
76.1219
 20
-29.5459
 30
0.0
 10
79.0152
 20
-31.3953
 30
0.0
 10
79.0152
 20
-31.3953
 30
0.0
 10
78.1502
 20
-30.0779
 30
0.0
 10
77.9029
 20
-29.0355
 30
0.0
 10
77.3797
 20
-27.6557
 30
0.0
 10
77.3797
 20
-27.6557
 30
0.0
 10
74.6057
 20
-27.2381
 30
0.0
 10
70.6326
 20
-27.2508
 30
0.0
 10
67.3515
 20
-27.7877
 30
0.0
 10
67.3515
 20
-27.7877
 30
0.0
 10
66.9935
 20
-29.0704
 30
0.0
 10
66.3981
 20
-30.4077
 30
0.0
 10
65.7696
 20
-31.3953
 30
0.0
  0
SPLINE
  5
76
330
1F
100
AcDbEntity
  8
layer 1
 62
     7
100
AcDbSpline
210
0.0
220
0.0
230
1.0
 70
    11
 71
     3
 72
    20
 73
    16
 74
     0
 42
0.0000000001
 43
0.0000000001
 12
1.0
 22
0.0
 32
0.0
 13
1.0
 23
0.0
 33
0.0
 40
0.0
 40
0.0
 40
0.0
 40
0.0
 40
0.2
 40
0.2
 40
0.2
 40
0.2
 40
0.4
 40
0.4
 40
0.4
 40
0.4
 40
0.6
 40
0.6
 40
0.6
 40
0.6
 40
1.0
 40
1.0
 40
1.0
 40
1.0
 10
65.7696
 20
-89.2546
 30
0.0
 10
68.0365
 20
-87.6737
 30
0.0
 10
76.1219
 20
-87.4052
 30
0.0
 10
79.0152
 20
-89.2546
 30
0.0
 10
79.0152
 20
-89.2546
 30
0.0
 10
78.1502
 20
-87.9372
 30
0.0
 10
77.9029
 20
-86.8948
 30
0.0
 10
77.3797
 20
-85.515
 30
0.0
 10
77.3797
 20
-85.515
 30
0.0
 10
74.6057
 20
-85.0974
 30
0.0
 10
70.6326
 20
-85.1101
 30
0.0
 10
67.3515
 20
-85.647
 30
0.0
 10
67.3515
 20
-85.647
 30
0.0
 10
66.9935
 20
-86.9297
 30
0.0
 10
66.3981
 20
-88.267
 30
0.0
 10
65.7696
 20
-89.2546
 30
0.0
  0
SPLINE
  5
77
330
1F
100
AcDbEntity
  8
layer 1
 62
     7
100
AcDbSpline
210
0.0
220
0.0
230
1.0
 70
    11
 71
     3
 72
    32
 73
    28
 74
     0
 42
0.0000000001
 43
0.0000000001
 12
1.0
 22
0.0
 32
0.0
 13
1.0
 23
0.0
 33
0.0
 40
0.0
 40
0.0
 40
0.0
 40
0.0
 40
0.125
 40
0.125
 40
0.125
 40
0.125
 40
0.25
 40
0.25
 40
0.25
 40
0.25
 40
0.375
 40
0.375
 40
0.375
 40
0.375
 40
0.5
 40
0.5
 40
0.5
 40
0.5
 40
0.625
 40
0.625
 40
0.625
 40
0.625
 40
0.75
 40
0.75
 40
0.75
 40
0.75
 40
1.0
 40
1.0
 40
1.0
 40
1.0
 10
27.5732
 20
37.513
 30
0.0
 10
27.5732
 20
34.1256
 30
0.0
 10
28.6346
 20
30.9861
 30
0.0
 10
30.4429
 20
28.4087
 30
0.0
 10
30.4429
 20
28.4087
 30
0.0
 10
30.4429
 20
28.4087
 30
0.0
 10
38.0409
 20
35.4393
 30
0.0
 10
38.0409
 20
35.4393
 30
0.0
 10
38.0409
 20
35.4393
 30
0.0
 10
38.0409
 20
35.4393
 30
0.0
 10
36.0898
 20
37.394
 30
0.0
 10
36.0898
 20
37.394
 30
0.0
 10
36.0898
 20
37.394
 30
0.0
 10
36.0898
 20
37.394
 30
0.0
 10
38.0054
 20
39.3499
 30
0.0
 10
38.0054
 20
39.3499
 30
0.0
 10
38.0054
 20
39.3499
 30
0.0
 10
38.0054
 20
39.3499
 30
0.0
 10
30.5384
 20
46.7517
 30
0.0
 10
30.5384
 20
46.7517
 30
0.0
 10
30.5384
 20
46.7517
 30
0.0
 10
28.6721
 20
44.1495
 30
0.0
 10
27.5732
 20
40.9595
 30
0.0
 10
27.5732
 20
37.5129
 30
0.0
 10
27.5732
 20
37.5129
 30
0.0
 10
27.5732
 20
37.5129
 30
0.0
 10
27.5732
 20
37.513
 30
0.0
 10
27.5732
 20
37.513
 30
0.0
  0
SPLINE
  5
78
330
1F
100
AcDbEntity
  8
layer 1
 62
     7
100
AcDbSpline
210
0.0
220
0.0
230
1.0
 70
    11
 71
     3
 72
    32
 73
    28
 74
     0
 42
0.0000000001
 43
0.0000000001
 12
1.0
 22
0.0
 32
0.0
 13
1.0
 23
0.0
 33
0.0
 40
0.0
 40
0.0
 40
0.0
 40
0.0
 40
0.125
 40
0.125
 40
0.125
 40
0.125
 40
0.25
 40
0.25
 40
0.25
 40
0.25
 40
0.375
 40
0.375
 40
0.375
 40
0.375
 40
0.5
 40
0.5
 40
0.5
 40
0.5
 40
0.625
 40
0.625
 40
0.625
 40
0.625
 40
0.75
 40
0.75
 40
0.75
 40
0.75
 40
1.0
 40
1.0
 40
1.0
 40
1.0
 10
27.5732
 20
-20.3463
 30
0.0
 10
27.5732
 20
-23.7337
 30
0.0
 10
28.6346
 20
-26.8732
 30
0.0
 10
30.4429
 20
-29.4506
 30
0.0
 10
30.4429
 20
-29.4506
 30
0.0
 10
30.4429
 20
-29.4506
 30
0.0
 10
38.0409
 20
-22.42
 30
0.0
 10
38.0409
 20
-22.42
 30
0.0
 10
38.0409
 20
-22.42
 30
0.0
 10
38.0409
 20
-22.42
 30
0.0
 10
36.0898
 20
-20.4653
 30
0.0
 10
36.0898
 20
-20.4653
 30
0.0
 10
36.0898
 20
-20.4653
 30
0.0
 10
36.0898
 20
-20.4653
 30
0.0
 10
38.0054
 20
-18.5094
 30
0.0
 10
38.0054
 20
-18.5094
 30
0.0
 10
38.0054
 20
-18.5094
 30
0.0
 10
38.0054
 20
-18.5094
 30
0.0
 10
30.5384
 20
-11.1076
 30
0.0
 10
30.5384
 20
-11.1076
 30
0.0
 10
30.5384
 20
-11.1076
 30
0.0
 10
28.6721
 20
-13.7098
 30
0.0
 10
27.5732
 20
-16.8998
 30
0.0
 10
27.5732
 20
-20.3464
 30
0.0
 10
27.5732
 20
-20.3464
 30
0.0
 10
27.5732
 20
-20.3464
 30
0.0
 10
27.5732
 20
-20.3463
 30
0.0
 10
27.5732
 20
-20.3463
 30
0.0
  0
SPLINE
  5
79
330
1F
100
AcDbEntity
  8
layer 1
 62
     7
100
AcDbSpline
210
0.0
220
0.0
230
1.0
 70
    11
 71
     3
 72
    32
 73
    28
 74
     0
 42
0.0000000001
 43
0.0000000001
 12
1.0
 22
0.0
 32
0.0
 13
1.0
 23
0.0
 33
0.0
 40
0.0
 40
0.0
 40
0.0
 40
0.0
 40
0.125
 40
0.125
 40
0.125
 40
0.125
 40
0.25
 40
0.25
 40
0.25
 40
0.25
 40
0.375
 40
0.375
 40
0.375
 40
0.375
 40
0.5
 40
0.5
 40
0.5
 40
0.5
 40
0.625
 40
0.625
 40
0.625
 40
0.625
 40
0.75
 40
0.75
 40
0.75
 40
0.75
 40
1.0
 40
1.0
 40
1.0
 40
1.0
 10
27.5732
 20
-78.2056
 30
0.0
 10
27.5732
 20
-81.593
 30
0.0
 10
28.6346
 20
-84.7325
 30
0.0
 10
30.4429
 20
-87.3099
 30
0.0
 10
30.4429
 20
-87.3099
 30
0.0
 10
30.4429
 20
-87.3099
 30
0.0
 10
38.0409
 20
-80.2793
 30
0.0
 10
38.0409
 20
-80.2793
 30
0.0
 10
38.0409
 20
-80.2793
 30
0.0
 10
38.0409
 20
-80.2793
 30
0.0
 10
36.0898
 20
-78.3246
 30
0.0
 10
36.0898
 20
-78.3246
 30
0.0
 10
36.0898
 20
-78.3246
 30
0.0
 10
36.0898
 20
-78.3246
 30
0.0
 10
38.0054
 20
-76.3687
 30
0.0
 10
38.0054
 20
-76.3687
 30
0.0
 10
38.0054
 20
-76.3687
 30
0.0
 10
38.0054
 20
-76.3687
 30
0.0
 10
30.5384
 20
-68.9669
 30
0.0
 10
30.5384
 20
-68.9669
 30
0.0
 10
30.5384
 20
-68.9669
 30
0.0
 10
28.6721
 20
-71.5691
 30
0.0
 10
27.5732
 20
-74.7591
 30
0.0
 10
27.5732
 20
-78.2057
 30
0.0
 10
27.5732
 20
-78.2057
 30
0.0
 10
27.5732
 20
-78.2057
 30
0.0
 10
27.5732
 20
-78.2056
 30
0.0
 10
27.5732
 20
-78.2056
 30
0.0
  0
SPLINE
  5
7A
330
1F
100
AcDbEntity
  8
layer 1
 62
     7
100
AcDbSpline
210
0.0
220
0.0
230
1.0
 70
    11
 71
     3
 72
    32
 73
    28
 74
     0
 42
0.0000000001
 43
0.0000000001
 12
1.0
 22
0.0
 32
0.0
 13
1.0
 23
0.0
 33
0.0
 40
0.0
 40
0.0
 40
0.0
 40
0.0
 40
0.125
 40
0.125
 40
0.125
 40
0.125
 40
0.25
 40
0.25
 40
0.25
 40
0.25
 40
0.375
 40
0.375
 40
0.375
 40
0.375
 40
0.5
 40
0.5
 40
0.5
 40
0.5
 40
0.625
 40
0.625
 40
0.625
 40
0.625
 40
0.75
 40
0.75
 40
0.75
 40
0.75
 40
1.0
 40
1.0
 40
1.0
 40
1.0
 10
43.5251
 20
53.5218
 30
0.0
 10
40.1377
 20
53.5218
 30
0.0
 10
36.9982
 20
52.4605
 30
0.0
 10
34.4209
 20
50.6521
 30
0.0
 10
34.4209
 20
50.6521
 30
0.0
 10
34.4209
 20
50.6521
 30
0.0
 10
41.4514
 20
43.0541
 30
0.0
 10
41.4514
 20
43.0541
 30
0.0
 10
41.4514
 20
43.0541
 30
0.0
 10
41.4514
 20
43.0541
 30
0.0
 10
43.4062
 20
45.0052
 30
0.0
 10
43.4062
 20
45.0052
 30
0.0
 10
43.4062
 20
45.0052
 30
0.0
 10
43.4062
 20
45.0052
 30
0.0
 10
45.362
 20
43.0897
 30
0.0
 10
45.362
 20
43.0897
 30
0.0
 10
45.362
 20
43.0897
 30
0.0
 10
45.362
 20
43.0897
 30
0.0
 10
52.7638
 20
50.5567
 30
0.0
 10
52.7638
 20
50.5567
 30
0.0
 10
52.7638
 20
50.5567
 30
0.0
 10
50.1616
 20
52.423
 30
0.0
 10
46.9716
 20
53.5218
 30
0.0
 10
43.525
 20
53.5218
 30
0.0
 10
43.525
 20
53.5218
 30
0.0
 10
43.525
 20
53.5218
 30
0.0
 10
43.5251
 20
53.5218
 30
0.0
 10
43.5251
 20
53.5218
 30
0.0
  0
SPLINE
  5
7B
330
1F
100
AcDbEntity
  8
layer 1
 62
     7
100
AcDbSpline
210
0.0
220
0.0
230
1.0
 70
    11
 71
     3
 72
    32
 73
    28
 74
     0
 42
0.0000000001
 43
0.0000000001
 12
1.0
 22
0.0
 32
0.0
 13
1.0
 23
0.0
 33
0.0
 40
0.0
 40
0.0
 40
0.0
 40
0.0
 40
0.125
 40
0.125
 40
0.125
 40
0.125
 40
0.25
 40
0.25
 40
0.25
 40
0.25
 40
0.375
 40
0.375
 40
0.375
 40
0.375
 40
0.5
 40
0.5
 40
0.5
 40
0.5
 40
0.625
 40
0.625
 40
0.625
 40
0.625
 40
0.75
 40
0.75
 40
0.75
 40
0.75
 40
1.0
 40
1.0
 40
1.0
 40
1.0
 10
43.5251
 20
-4.3375
 30
0.0
 10
40.1377
 20
-4.3375
 30
0.0
 10
36.9982
 20
-5.3988
 30
0.0
 10
34.4209
 20
-7.2072
 30
0.0
 10
34.4209
 20
-7.2072
 30
0.0
 10
34.4209
 20
-7.2072
 30
0.0
 10
41.4514
 20
-14.8052
 30
0.0
 10
41.4514
 20
-14.8052
 30
0.0
 10
41.4514
 20
-14.8052
 30
0.0
 10
41.4514
 20
-14.8052
 30
0.0
 10
43.4062
 20
-12.8541
 30
0.0
 10
43.4062
 20
-12.8541
 30
0.0
 10
43.4062
 20
-12.8541
 30
0.0
 10
43.4062
 20
-12.8541
 30
0.0
 10
45.362
 20
-14.7696
 30
0.0
 10
45.362
 20
-14.7696
 30
0.0
 10
45.362
 20
-14.7696
 30
0.0
 10
45.362
 20
-14.7696
 30
0.0
 10
52.7638
 20
-7.3026
 30
0.0
 10
52.7638
 20
-7.3026
 30
0.0
 10
52.7638
 20
-7.3026
 30
0.0
 10
50.1616
 20
-5.4363
 30
0.0
 10
46.9716
 20
-4.3375
 30
0.0
 10
43.525
 20
-4.3375
 30
0.0
 10
43.525
 20
-4.3375
 30
0.0
 10
43.525
 20
-4.3375
 30
0.0
 10
43.5251
 20
-4.3375
 30
0.0
 10
43.5251
 20
-4.3375
 30
0.0
  0
SPLINE
  5
7C
330
1F
100
AcDbEntity
  8
layer 1
 62
     7
100
AcDbSpline
210
0.0
220
0.0
230
1.0
 70
    11
 71
     3
 72
    32
 73
    28
 74
     0
 42
0.0000000001
 43
0.0000000001
 12
1.0
 22
0.0
 32
0.0
 13
1.0
 23
0.0
 33
0.0
 40
0.0
 40
0.0
 40
0.0
 40
0.0
 40
0.125
 40
0.125
 40
0.125
 40
0.125
 40
0.25
 40
0.25
 40
0.25
 40
0.25
 40
0.375
 40
0.375
 40
0.375
 40
0.375
 40
0.5
 40
0.5
 40
0.5
 40
0.5
 40
0.625
 40
0.625
 40
0.625
 40
0.625
 40
0.75
 40
0.75
 40
0.75
 40
0.75
 40
1.0
 40
1.0
 40
1.0
 40
1.0
 10
43.5251
 20
-62.1968
 30
0.0
 10
40.1377
 20
-62.1968
 30
0.0
 10
36.9982
 20
-63.2581
 30
0.0
 10
34.4209
 20
-65.0665
 30
0.0
 10
34.4209
 20
-65.0665
 30
0.0
 10
34.4209
 20
-65.0665
 30
0.0
 10
41.4514
 20
-72.6645
 30
0.0
 10
41.4514
 20
-72.6645
 30
0.0
 10
41.4514
 20
-72.6645
 30
0.0
 10
41.4514
 20
-72.6645
 30
0.0
 10
43.4062
 20
-70.7134
 30
0.0
 10
43.4062
 20
-70.7134
 30
0.0
 10
43.4062
 20
-70.7134
 30
0.0
 10
43.4062
 20
-70.7134
 30
0.0
 10
45.362
 20
-72.6289
 30
0.0
 10
45.362
 20
-72.6289
 30
0.0
 10
45.362
 20
-72.6289
 30
0.0
 10
45.362
 20
-72.6289
 30
0.0
 10
52.7638
 20
-65.1619
 30
0.0
 10
52.7638
 20
-65.1619
 30
0.0
 10
52.7638
 20
-65.1619
 30
0.0
 10
50.1616
 20
-63.2956
 30
0.0
 10
46.9716
 20
-62.1968
 30
0.0
 10
43.525
 20
-62.1968
 30
0.0
 10
43.525
 20
-62.1968
 30
0.0
 10
43.525
 20
-62.1968
 30
0.0
 10
43.5251
 20
-62.1968
 30
0.0
 10
43.5251
 20
-62.1968
 30
0.0
  0
SPLINE
  5
7D
330
1F
100
AcDbEntity
  8
layer 1
 62
     7
100
AcDbSpline
210
0.0
220
0.0
230
1.0
 70
    11
 71
     3
 72
    32
 73
    28
 74
     0
 42
0.0000000001
 43
0.0000000001
 12
1.0
 22
0.0
 32
0.0
 13
1.0
 23
0.0
 33
0.0
 40
0.0
 40
0.0
 40
0.0
 40
0.0
 40
0.125
 40
0.125
 40
0.125
 40
0.125
 40
0.25
 40
0.25
 40
0.25
 40
0.25
 40
0.375
 40
0.375
 40
0.375
 40
0.375
 40
0.5
 40
0.5
 40
0.5
 40
0.5
 40
0.625
 40
0.625
 40
0.625
 40
0.625
 40
0.75
 40
0.75
 40
0.75
 40
0.75
 40
1.0
 40
1.0
 40
1.0
 40
1.0
 10
43.6287
 20
21.6646
 30
0.0
 10
40.2412
 20
21.6646
 30
0.0
 10
37.1017
 20
22.726
 30
0.0
 10
34.5244
 20
24.5343
 30
0.0
 10
34.5244
 20
24.5343
 30
0.0
 10
34.5244
 20
24.5343
 30
0.0
 10
41.5549
 20
32.1323
 30
0.0
 10
41.5549
 20
32.1323
 30
0.0
 10
41.5549
 20
32.1323
 30
0.0
 10
41.5549
 20
32.1323
 30
0.0
 10
43.5097
 20
30.1812
 30
0.0
 10
43.5097
 20
30.1812
 30
0.0
 10
43.5097
 20
30.1812
 30
0.0
 10
43.5097
 20
30.1812
 30
0.0
 10
45.4655
 20
32.0968
 30
0.0
 10
45.4655
 20
32.0968
 30
0.0
 10
45.4655
 20
32.0968
 30
0.0
 10
45.4655
 20
32.0968
 30
0.0
 10
52.8673
 20
24.6298
 30
0.0
 10
52.8673
 20
24.6298
 30
0.0
 10
52.8673
 20
24.6298
 30
0.0
 10
50.2652
 20
22.7634
 30
0.0
 10
47.0751
 20
21.6646
 30
0.0
 10
43.6286
 20
21.6646
 30
0.0
 10
43.6286
 20
21.6646
 30
0.0
 10
43.6286
 20
21.6646
 30
0.0
 10
43.6287
 20
21.6646
 30
0.0
 10
43.6287
 20
21.6646
 30
0.0
  0
SPLINE
  5
7E
330
1F
100
AcDbEntity
  8
layer 1
 62
     7
100
AcDbSpline
210
0.0
220
0.0
230
1.0
 70
    11
 71
     3
 72
    32
 73
    28
 74
     0
 42
0.0000000001
 43
0.0000000001
 12
1.0
 22
0.0
 32
0.0
 13
1.0
 23
0.0
 33
0.0
 40
0.0
 40
0.0
 40
0.0
 40
0.0
 40
0.125
 40
0.125
 40
0.125
 40
0.125
 40
0.25
 40
0.25
 40
0.25
 40
0.25
 40
0.375
 40
0.375
 40
0.375
 40
0.375
 40
0.5
 40
0.5
 40
0.5
 40
0.5
 40
0.625
 40
0.625
 40
0.625
 40
0.625
 40
0.75
 40
0.75
 40
0.75
 40
0.75
 40
1.0
 40
1.0
 40
1.0
 40
1.0
 10
43.6287
 20
-36.1947
 30
0.0
 10
40.2412
 20
-36.1947
 30
0.0
 10
37.1017
 20
-35.1333
 30
0.0
 10
34.5244
 20
-33.325
 30
0.0
 10
34.5244
 20
-33.325
 30
0.0
 10
34.5244
 20
-33.325
 30
0.0
 10
41.5549
 20
-25.727
 30
0.0
 10
41.5549
 20
-25.727
 30
0.0
 10
41.5549
 20
-25.727
 30
0.0
 10
41.5549
 20
-25.727
 30
0.0
 10
43.5097
 20
-27.6781
 30
0.0
 10
43.5097
 20
-27.6781
 30
0.0
 10
43.5097
 20
-27.6781
 30
0.0
 10
43.5097
 20
-27.6781
 30
0.0
 10
45.4655
 20
-25.7625
 30
0.0
 10
45.4655
 20
-25.7625
 30
0.0
 10
45.4655
 20
-25.7625
 30
0.0
 10
45.4655
 20
-25.7625
 30
0.0
 10
52.8673
 20
-33.2295
 30
0.0
 10
52.8673
 20
-33.2295
 30
0.0
 10
52.8673
 20
-33.2295
 30
0.0
 10
50.2652
 20
-35.0959
 30
0.0
 10
47.0751
 20
-36.1947
 30
0.0
 10
43.6286
 20
-36.1947
 30
0.0
 10
43.6286
 20
-36.1947
 30
0.0
 10
43.6286
 20
-36.1947
 30
0.0
 10
43.6287
 20
-36.1947
 30
0.0
 10
43.6287
 20
-36.1947
 30
0.0
  0
SPLINE
  5
7F
330
1F
100
AcDbEntity
  8
layer 1
 62
     7
100
AcDbSpline
210
0.0
220
0.0
230
1.0
 70
    11
 71
     3
 72
    32
 73
    28
 74
     0
 42
0.0000000001
 43
0.0000000001
 12
1.0
 22
0.0
 32
0.0
 13
1.0
 23
0.0
 33
0.0
 40
0.0
 40
0.0
 40
0.0
 40
0.0
 40
0.125
 40
0.125
 40
0.125
 40
0.125
 40
0.25
 40
0.25
 40
0.25
 40
0.25
 40
0.375
 40
0.375
 40
0.375
 40
0.375
 40
0.5
 40
0.5
 40
0.5
 40
0.5
 40
0.625
 40
0.625
 40
0.625
 40
0.625
 40
0.75
 40
0.75
 40
0.75
 40
0.75
 40
1.0
 40
1.0
 40
1.0
 40
1.0
 10
43.6287
 20
-94.054
 30
0.0
 10
40.2412
 20
-94.054
 30
0.0
 10
37.1017
 20
-92.9926
 30
0.0
 10
34.5244
 20
-91.1843
 30
0.0
 10
34.5244
 20
-91.1843
 30
0.0
 10
34.5244
 20
-91.1843
 30
0.0
 10
41.5549
 20
-83.5863
 30
0.0
 10
41.5549
 20
-83.5863
 30
0.0
 10
41.5549
 20
-83.5863
 30
0.0
 10
41.5549
 20
-83.5863
 30
0.0
 10
43.5097
 20
-85.5374
 30
0.0
 10
43.5097
 20
-85.5374
 30
0.0
 10
43.5097
 20
-85.5374
 30
0.0
 10
43.5097
 20
-85.5374
 30
0.0
 10
45.4655
 20
-83.6218
 30
0.0
 10
45.4655
 20
-83.6218
 30
0.0
 10
45.4655
 20
-83.6218
 30
0.0
 10
45.4655
 20
-83.6218
 30
0.0
 10
52.8673
 20
-91.0888
 30
0.0
 10
52.8673
 20
-91.0888
 30
0.0
 10
52.8673
 20
-91.0888
 30
0.0
 10
50.2652
 20
-92.9552
 30
0.0
 10
47.0751
 20
-94.054
 30
0.0
 10
43.6286
 20
-94.054
 30
0.0
 10
43.6286
 20
-94.054
 30
0.0
 10
43.6286
 20
-94.054
 30
0.0
 10
43.6287
 20
-94.054
 30
0.0
 10
43.6287
 20
-94.054
 30
0.0
  0
SPLINE
  5
80
330
1F
100
AcDbEntity
  8
layer 1
 62
     7
100
AcDbSpline
210
0.0
220
0.0
230
1.0
 70
    11
 71
     3
 72
    32
 73
    28
 74
     0
 42
0.0000000001
 43
0.0000000001
 12
1.0
 22
0.0
 32
0.0
 13
1.0
 23
0.0
 33
0.0
 40
0.0
 40
0.0
 40
0.0
 40
0.0
 40
0.125
 40
0.125
 40
0.125
 40
0.125
 40
0.25
 40
0.25
 40
0.25
 40
0.25
 40
0.375
 40
0.375
 40
0.375
 40
0.375
 40
0.5
 40
0.5
 40
0.5
 40
0.5
 40
0.625
 40
0.625
 40
0.625
 40
0.625
 40
0.75
 40
0.75
 40
0.75
 40
0.75
 40
1.0
 40
1.0
 40
1.0
 40
1.0
 10
117.0155
 20
37.513
 30
0.0
 10
117.0155
 20
34.1256
 30
0.0
 10
115.9541
 20
30.9861
 30
0.0
 10
114.1458
 20
28.4087
 30
0.0
 10
114.1458
 20
28.4087
 30
0.0
 10
114.1458
 20
28.4087
 30
0.0
 10
106.5478
 20
35.4393
 30
0.0
 10
106.5478
 20
35.4393
 30
0.0
 10
106.5478
 20
35.4393
 30
0.0
 10
106.5478
 20
35.4393
 30
0.0
 10
108.4989
 20
37.394
 30
0.0
 10
108.4989
 20
37.394
 30
0.0
 10
108.4989
 20
37.394
 30
0.0
 10
108.4989
 20
37.394
 30
0.0
 10
106.5833
 20
39.3499
 30
0.0
 10
106.5833
 20
39.3499
 30
0.0
 10
106.5833
 20
39.3499
 30
0.0
 10
106.5833
 20
39.3499
 30
0.0
 10
114.0503
 20
46.7517
 30
0.0
 10
114.0503
 20
46.7517
 30
0.0
 10
114.0503
 20
46.7517
 30
0.0
 10
115.9167
 20
44.1495
 30
0.0
 10
117.0155
 20
40.9595
 30
0.0
 10
117.0155
 20
37.5129
 30
0.0
 10
117.0155
 20
37.5129
 30
0.0
 10
117.0155
 20
37.5129
 30
0.0
 10
117.0155
 20
37.513
 30
0.0
 10
117.0155
 20
37.513
 30
0.0
  0
SPLINE
  5
81
330
1F
100
AcDbEntity
  8
layer 1
 62
     7
100
AcDbSpline
210
0.0
220
0.0
230
1.0
 70
    11
 71
     3
 72
    32
 73
    28
 74
     0
 42
0.0000000001
 43
0.0000000001
 12
1.0
 22
0.0
 32
0.0
 13
1.0
 23
0.0
 33
0.0
 40
0.0
 40
0.0
 40
0.0
 40
0.0
 40
0.125
 40
0.125
 40
0.125
 40
0.125
 40
0.25
 40
0.25
 40
0.25
 40
0.25
 40
0.375
 40
0.375
 40
0.375
 40
0.375
 40
0.5
 40
0.5
 40
0.5
 40
0.5
 40
0.625
 40
0.625
 40
0.625
 40
0.625
 40
0.75
 40
0.75
 40
0.75
 40
0.75
 40
1.0
 40
1.0
 40
1.0
 40
1.0
 10
117.0155
 20
-20.3463
 30
0.0
 10
117.0155
 20
-23.7337
 30
0.0
 10
115.9541
 20
-26.8732
 30
0.0
 10
114.1458
 20
-29.4506
 30
0.0
 10
114.1458
 20
-29.4506
 30
0.0
 10
114.1458
 20
-29.4506
 30
0.0
 10
106.5478
 20
-22.42
 30
0.0
 10
106.5478
 20
-22.42
 30
0.0
 10
106.5478
 20
-22.42
 30
0.0
 10
106.5478
 20
-22.42
 30
0.0
 10
108.4989
 20
-20.4653
 30
0.0
 10
108.4989
 20
-20.4653
 30
0.0
 10
108.4989
 20
-20.4653
 30
0.0
 10
108.4989
 20
-20.4653
 30
0.0
 10
106.5833
 20
-18.5094
 30
0.0
 10
106.5833
 20
-18.5094
 30
0.0
 10
106.5833
 20
-18.5094
 30
0.0
 10
106.5833
 20
-18.5094
 30
0.0
 10
114.0503
 20
-11.1076
 30
0.0
 10
114.0503
 20
-11.1076
 30
0.0
 10
114.0503
 20
-11.1076
 30
0.0
 10
115.9167
 20
-13.7098
 30
0.0
 10
117.0155
 20
-16.8998
 30
0.0
 10
117.0155
 20
-20.3464
 30
0.0
 10
117.0155
 20
-20.3464
 30
0.0
 10
117.0155
 20
-20.3464
 30
0.0
 10
117.0155
 20
-20.3463
 30
0.0
 10
117.0155
 20
-20.3463
 30
0.0
  0
SPLINE
  5
82
330
1F
100
AcDbEntity
  8
layer 1
 62
     7
100
AcDbSpline
210
0.0
220
0.0
230
1.0
 70
    11
 71
     3
 72
    32
 73
    28
 74
     0
 42
0.0000000001
 43
0.0000000001
 12
1.0
 22
0.0
 32
0.0
 13
1.0
 23
0.0
 33
0.0
 40
0.0
 40
0.0
 40
0.0
 40
0.0
 40
0.125
 40
0.125
 40
0.125
 40
0.125
 40
0.25
 40
0.25
 40
0.25
 40
0.25
 40
0.375
 40
0.375
 40
0.375
 40
0.375
 40
0.5
 40
0.5
 40
0.5
 40
0.5
 40
0.625
 40
0.625
 40
0.625
 40
0.625
 40
0.75
 40
0.75
 40
0.75
 40
0.75
 40
1.0
 40
1.0
 40
1.0
 40
1.0
 10
117.0155
 20
-78.2056
 30
0.0
 10
117.0155
 20
-81.593
 30
0.0
 10
115.9541
 20
-84.7325
 30
0.0
 10
114.1458
 20
-87.3099
 30
0.0
 10
114.1458
 20
-87.3099
 30
0.0
 10
114.1458
 20
-87.3099
 30
0.0
 10
106.5478
 20
-80.2793
 30
0.0
 10
106.5478
 20
-80.2793
 30
0.0
 10
106.5478
 20
-80.2793
 30
0.0
 10
106.5478
 20
-80.2793
 30
0.0
 10
108.4989
 20
-78.3246
 30
0.0
 10
108.4989
 20
-78.3246
 30
0.0
 10
108.4989
 20
-78.3246
 30
0.0
 10
108.4989
 20
-78.3246
 30
0.0
 10
106.5833
 20
-76.3687
 30
0.0
 10
106.5833
 20
-76.3687
 30
0.0
 10
106.5833
 20
-76.3687
 30
0.0
 10
106.5833
 20
-76.3687
 30
0.0
 10
114.0503
 20
-68.9669
 30
0.0
 10
114.0503
 20
-68.9669
 30
0.0
 10
114.0503
 20
-68.9669
 30
0.0
 10
115.9167
 20
-71.5691
 30
0.0
 10
117.0155
 20
-74.7591
 30
0.0
 10
117.0155
 20
-78.2057
 30
0.0
 10
117.0155
 20
-78.2057
 30
0.0
 10
117.0155
 20
-78.2057
 30
0.0
 10
117.0155
 20
-78.2056
 30
0.0
 10
117.0155
 20
-78.2056
 30
0.0
  0
SPLINE
  5
83
330
1F
100
AcDbEntity
  8
layer 1
 62
     7
100
AcDbSpline
210
0.0
220
0.0
230
1.0
 70
    11
 71
     3
 72
    32
 73
    28
 74
     0
 42
0.0000000001
 43
0.0000000001
 12
1.0
 22
0.0
 32
0.0
 13
1.0
 23
0.0
 33
0.0
 40
0.0
 40
0.0
 40
0.0
 40
0.0
 40
0.125
 40
0.125
 40
0.125
 40
0.125
 40
0.25
 40
0.25
 40
0.25
 40
0.25
 40
0.375
 40
0.375
 40
0.375
 40
0.375
 40
0.5
 40
0.5
 40
0.5
 40
0.5
 40
0.625
 40
0.625
 40
0.625
 40
0.625
 40
0.75
 40
0.75
 40
0.75
 40
0.75
 40
1.0
 40
1.0
 40
1.0
 40
1.0
 10
174.5573
 20
37.513
 30
0.0
 10
174.5573
 20
34.1256
 30
0.0
 10
173.496
 20
30.9861
 30
0.0
 10
171.6876
 20
28.4087
 30
0.0
 10
171.6876
 20
28.4087
 30
0.0
 10
171.6876
 20
28.4087
 30
0.0
 10
164.0896
 20
35.4393
 30
0.0
 10
164.0896
 20
35.4393
 30
0.0
 10
164.0896
 20
35.4393
 30
0.0
 10
164.0896
 20
35.4393
 30
0.0
 10
166.0407
 20
37.394
 30
0.0
 10
166.0407
 20
37.394
 30
0.0
 10
166.0407
 20
37.394
 30
0.0
 10
166.0407
 20
37.394
 30
0.0
 10
164.1252
 20
39.3499
 30
0.0
 10
164.1252
 20
39.3499
 30
0.0
 10
164.1252
 20
39.3499
 30
0.0
 10
164.1252
 20
39.3499
 30
0.0
 10
171.5922
 20
46.7517
 30
0.0
 10
171.5922
 20
46.7517
 30
0.0
 10
171.5922
 20
46.7517
 30
0.0
 10
173.4585
 20
44.1495
 30
0.0
 10
174.5573
 20
40.9595
 30
0.0
 10
174.5573
 20
37.5129
 30
0.0
 10
174.5573
 20
37.5129
 30
0.0
 10
174.5573
 20
37.5129
 30
0.0
 10
174.5573
 20
37.513
 30
0.0
 10
174.5573
 20
37.513
 30
0.0
  0
SPLINE
  5
84
330
1F
100
AcDbEntity
  8
layer 1
 62
     7
100
AcDbSpline
210
0.0
220
0.0
230
1.0
 70
    11
 71
     3
 72
    32
 73
    28
 74
     0
 42
0.0000000001
 43
0.0000000001
 12
1.0
 22
0.0
 32
0.0
 13
1.0
 23
0.0
 33
0.0
 40
0.0
 40
0.0
 40
0.0
 40
0.0
 40
0.125
 40
0.125
 40
0.125
 40
0.125
 40
0.25
 40
0.25
 40
0.25
 40
0.25
 40
0.375
 40
0.375
 40
0.375
 40
0.375
 40
0.5
 40
0.5
 40
0.5
 40
0.5
 40
0.625
 40
0.625
 40
0.625
 40
0.625
 40
0.75
 40
0.75
 40
0.75
 40
0.75
 40
1.0
 40
1.0
 40
1.0
 40
1.0
 10
174.5573
 20
-20.3463
 30
0.0
 10
174.5573
 20
-23.7337
 30
0.0
 10
173.496
 20
-26.8732
 30
0.0
 10
171.6876
 20
-29.4506
 30
0.0
 10
171.6876
 20
-29.4506
 30
0.0
 10
171.6876
 20
-29.4506
 30
0.0
 10
164.0896
 20
-22.42
 30
0.0
 10
164.0896
 20
-22.42
 30
0.0
 10
164.0896
 20
-22.42
 30
0.0
 10
164.0896
 20
-22.42
 30
0.0
 10
166.0407
 20
-20.4653
 30
0.0
 10
166.0407
 20
-20.4653
 30
0.0
 10
166.0407
 20
-20.4653
 30
0.0
 10
166.0407
 20
-20.4653
 30
0.0
 10
164.1252
 20
-18.5094
 30
0.0
 10
164.1252
 20
-18.5094
 30
0.0
 10
164.1252
 20
-18.5094
 30
0.0
 10
164.1252
 20
-18.5094
 30
0.0
 10
171.5922
 20
-11.1076
 30
0.0
 10
171.5922
 20
-11.1076
 30
0.0
 10
171.5922
 20
-11.1076
 30
0.0
 10
173.4585
 20
-13.7098
 30
0.0
 10
174.5573
 20
-16.8998
 30
0.0
 10
174.5573
 20
-20.3464
 30
0.0
 10
174.5573
 20
-20.3464
 30
0.0
 10
174.5573
 20
-20.3464
 30
0.0
 10
174.5573
 20
-20.3463
 30
0.0
 10
174.5573
 20
-20.3463
 30
0.0
  0
SPLINE
  5
85
330
1F
100
AcDbEntity
  8
layer 1
 62
     7
100
AcDbSpline
210
0.0
220
0.0
230
1.0
 70
    11
 71
     3
 72
    32
 73
    28
 74
     0
 42
0.0000000001
 43
0.0000000001
 12
1.0
 22
0.0
 32
0.0
 13
1.0
 23
0.0
 33
0.0
 40
0.0
 40
0.0
 40
0.0
 40
0.0
 40
0.125
 40
0.125
 40
0.125
 40
0.125
 40
0.25
 40
0.25
 40
0.25
 40
0.25
 40
0.375
 40
0.375
 40
0.375
 40
0.375
 40
0.5
 40
0.5
 40
0.5
 40
0.5
 40
0.625
 40
0.625
 40
0.625
 40
0.625
 40
0.75
 40
0.75
 40
0.75
 40
0.75
 40
1.0
 40
1.0
 40
1.0
 40
1.0
 10
174.5573
 20
-78.2056
 30
0.0
 10
174.5573
 20
-81.593
 30
0.0
 10
173.496
 20
-84.7325
 30
0.0
 10
171.6876
 20
-87.3099
 30
0.0
 10
171.6876
 20
-87.3099
 30
0.0
 10
171.6876
 20
-87.3099
 30
0.0
 10
164.0896
 20
-80.2793
 30
0.0
 10
164.0896
 20
-80.2793
 30
0.0
 10
164.0896
 20
-80.2793
 30
0.0
 10
164.0896
 20
-80.2793
 30
0.0
 10
166.0407
 20
-78.3246
 30
0.0
 10
166.0407
 20
-78.3246
 30
0.0
 10
166.0407
 20
-78.3246
 30
0.0
 10
166.0407
 20
-78.3246
 30
0.0
 10
164.1252
 20
-76.3687
 30
0.0
 10
164.1252
 20
-76.3687
 30
0.0
 10
164.1252
 20
-76.3687
 30
0.0
 10
164.1252
 20
-76.3687
 30
0.0
 10
171.5922
 20
-68.9669
 30
0.0
 10
171.5922
 20
-68.9669
 30
0.0
 10
171.5922
 20
-68.9669
 30
0.0
 10
173.4585
 20
-71.5691
 30
0.0
 10
174.5573
 20
-74.7591
 30
0.0
 10
174.5573
 20
-78.2057
 30
0.0
 10
174.5573
 20
-78.2057
 30
0.0
 10
174.5573
 20
-78.2057
 30
0.0
 10
174.5573
 20
-78.2056
 30
0.0
 10
174.5573
 20
-78.2056
 30
0.0
  0
SPLINE
  5
86
330
1F
100
AcDbEntity
  8
layer 1
 62
     7
100
AcDbSpline
210
0.0
220
0.0
230
1.0
 70
    11
 71
     3
 72
    20
 73
    16
 74
     0
 42
0.0000000001
 43
0.0000000001
 12
1.0
 22
0.0
 32
0.0
 13
1.0
 23
0.0
 33
0.0
 40
0.0
 40
0.0
 40
0.0
 40
0.0
 40
0.2
 40
0.2
 40
0.2
 40
0.2
 40
0.4
 40
0.4
 40
0.4
 40
0.4
 40
0.6
 40
0.6
 40
0.6
 40
0.6
 40
1.0
 40
1.0
 40
1.0
 40
1.0
 10
123.3114
 20
48.824
 30
0.0
 10
125.5783
 20
47.2431
 30
0.0
 10
133.6637
 20
46.9747
 30
0.0
 10
136.557
 20
48.824
 30
0.0
 10
136.557
 20
48.824
 30
0.0
 10
135.8607
 20
47.6565
 30
0.0
 10
135.3135
 20
46.4268
 30
0.0
 10
134.9403
 20
45.0844
 30
0.0
 10
134.9403
 20
45.0844
 30
0.0
 10
132.1662
 20
44.6669
 30
0.0
 10
128.1743
 20
44.6795
 30
0.0
 10
124.8933
 20
45.2165
 30
0.0
 10
124.8933
 20
45.2165
 30
0.0
 10
124.5353
 20
46.4991
 30
0.0
 10
123.9399
 20
47.8364
 30
0.0
 10
123.3114
 20
48.824
 30
0.0
  0
SPLINE
  5
87
330
1F
100
AcDbEntity
  8
layer 1
 62
     7
100
AcDbSpline
210
0.0
220
0.0
230
1.0
 70
    11
 71
     3
 72
    20
 73
    16
 74
     0
 42
0.0000000001
 43
0.0000000001
 12
1.0
 22
0.0
 32
0.0
 13
1.0
 23
0.0
 33
0.0
 40
0.0
 40
0.0
 40
0.0
 40
0.0
 40
0.2
 40
0.2
 40
0.2
 40
0.2
 40
0.4
 40
0.4
 40
0.4
 40
0.4
 40
0.6
 40
0.6
 40
0.6
 40
0.6
 40
1.0
 40
1.0
 40
1.0
 40
1.0
 10
123.3114
 20
-9.0353
 30
0.0
 10
125.5783
 20
-10.6162
 30
0.0
 10
133.6637
 20
-10.8846
 30
0.0
 10
136.557
 20
-9.0353
 30
0.0
 10
136.557
 20
-9.0353
 30
0.0
 10
135.8607
 20
-10.2028
 30
0.0
 10
135.3135
 20
-11.4325
 30
0.0
 10
134.9403
 20
-12.7749
 30
0.0
 10
134.9403
 20
-12.7749
 30
0.0
 10
132.1662
 20
-13.1924
 30
0.0
 10
128.1743
 20
-13.1798
 30
0.0
 10
124.8933
 20
-12.6428
 30
0.0
 10
124.8933
 20
-12.6428
 30
0.0
 10
124.5353
 20
-11.3602
 30
0.0
 10
123.9399
 20
-10.0229
 30
0.0
 10
123.3114
 20
-9.0353
 30
0.0
  0
SPLINE
  5
88
330
1F
100
AcDbEntity
  8
layer 1
 62
     7
100
AcDbSpline
210
0.0
220
0.0
230
1.0
 70
    11
 71
     3
 72
    20
 73
    16
 74
     0
 42
0.0000000001
 43
0.0000000001
 12
1.0
 22
0.0
 32
0.0
 13
1.0
 23
0.0
 33
0.0
 40
0.0
 40
0.0
 40
0.0
 40
0.0
 40
0.2
 40
0.2
 40
0.2
 40
0.2
 40
0.4
 40
0.4
 40
0.4
 40
0.4
 40
0.6
 40
0.6
 40
0.6
 40
0.6
 40
1.0
 40
1.0
 40
1.0
 40
1.0
 10
123.3114
 20
-66.8946
 30
0.0
 10
125.5783
 20
-68.4755
 30
0.0
 10
133.6637
 20
-68.7439
 30
0.0
 10
136.557
 20
-66.8946
 30
0.0
 10
136.557
 20
-66.8946
 30
0.0
 10
135.8607
 20
-68.0621
 30
0.0
 10
135.3135
 20
-69.2918
 30
0.0
 10
134.9403
 20
-70.6342
 30
0.0
 10
134.9403
 20
-70.6342
 30
0.0
 10
132.1662
 20
-71.0517
 30
0.0
 10
128.1743
 20
-71.0391
 30
0.0
 10
124.8933
 20
-70.5021
 30
0.0
 10
124.8933
 20
-70.5021
 30
0.0
 10
124.5353
 20
-69.2195
 30
0.0
 10
123.9399
 20
-67.8822
 30
0.0
 10
123.3114
 20
-66.8946
 30
0.0
  0
SPLINE
  5
89
330
1F
100
AcDbEntity
  8
layer 1
 62
     7
100
AcDbSpline
210
0.0
220
0.0
230
1.0
 70
    11
 71
     3
 72
    20
 73
    16
 74
     0
 42
0.0000000001
 43
0.0000000001
 12
1.0
 22
0.0
 32
0.0
 13
1.0
 23
0.0
 33
0.0
 40
0.0
 40
0.0
 40
0.0
 40
0.0
 40
0.2
 40
0.2
 40
0.2
 40
0.2
 40
0.4
 40
0.4
 40
0.4
 40
0.4
 40
0.6
 40
0.6
 40
0.6
 40
0.6
 40
1.0
 40
1.0
 40
1.0
 40
1.0
 10
125.6103
 20
41.9637
 30
0.0
 10
127.2806
 20
41.0689
 30
0.0
 10
132.232
 20
40.8899
 30
0.0
 10
134.2603
 20
41.9637
 30
0.0
 10
134.2603
 20
41.9637
 30
0.0
 10
133.6466
 20
40.2007
 30
0.0
 10
133.7063
 20
34.8587
 30
0.0
 10
134.2152
 20
33.2541
 30
0.0
 10
134.2152
 20
33.2541
 30
0.0
 10
131.4114
 20
33.9401
 30
0.0
 10
128.6527
 20
34.0892
 30
0.0
 10
125.6103
 20
33.2242
 30
0.0
 10
125.6103
 20
33.2242
 30
0.0
 10
126.1145
 20
35.1663
 30
0.0
 10
126.2322
 20
39.7267
 30
0.0
 10
125.6103
 20
41.9637
 30
0.0
  0
SPLINE
  5
8A
330
1F
100
AcDbEntity
  8
layer 1
 62
     7
100
AcDbSpline
210
0.0
220
0.0
230
1.0
 70
    11
 71
     3
 72
    20
 73
    16
 74
     0
 42
0.0000000001
 43
0.0000000001
 12
1.0
 22
0.0
 32
0.0
 13
1.0
 23
0.0
 33
0.0
 40
0.0
 40
0.0
 40
0.0
 40
0.0
 40
0.2
 40
0.2
 40
0.2
 40
0.2
 40
0.4
 40
0.4
 40
0.4
 40
0.4
 40
0.6
 40
0.6
 40
0.6
 40
0.6
 40
1.0
 40
1.0
 40
1.0
 40
1.0
 10
125.6103
 20
-15.8956
 30
0.0
 10
127.2806
 20
-16.7904
 30
0.0
 10
132.232
 20
-16.9694
 30
0.0
 10
134.2603
 20
-15.8956
 30
0.0
 10
134.2603
 20
-15.8956
 30
0.0
 10
133.6466
 20
-17.6586
 30
0.0
 10
133.7063
 20
-23.0006
 30
0.0
 10
134.2152
 20
-24.6052
 30
0.0
 10
134.2152
 20
-24.6052
 30
0.0
 10
131.4114
 20
-23.9192
 30
0.0
 10
128.6527
 20
-23.7701
 30
0.0
 10
125.6103
 20
-24.6351
 30
0.0
 10
125.6103
 20
-24.6351
 30
0.0
 10
126.1145
 20
-22.693
 30
0.0
 10
126.2322
 20
-18.1326
 30
0.0
 10
125.6103
 20
-15.8956
 30
0.0
  0
SPLINE
  5
8B
330
1F
100
AcDbEntity
  8
layer 1
 62
     7
100
AcDbSpline
210
0.0
220
0.0
230
1.0
 70
    11
 71
     3
 72
    20
 73
    16
 74
     0
 42
0.0000000001
 43
0.0000000001
 12
1.0
 22
0.0
 32
0.0
 13
1.0
 23
0.0
 33
0.0
 40
0.0
 40
0.0
 40
0.0
 40
0.0
 40
0.2
 40
0.2
 40
0.2
 40
0.2
 40
0.4
 40
0.4
 40
0.4
 40
0.4
 40
0.6
 40
0.6
 40
0.6
 40
0.6
 40
1.0
 40
1.0
 40
1.0
 40
1.0
 10
125.6103
 20
-73.7549
 30
0.0
 10
127.2806
 20
-74.6497
 30
0.0
 10
132.232
 20
-74.8287
 30
0.0
 10
134.2603
 20
-73.7549
 30
0.0
 10
134.2603
 20
-73.7549
 30
0.0
 10
133.6466
 20
-75.5179
 30
0.0
 10
133.7063
 20
-80.8599
 30
0.0
 10
134.2152
 20
-82.4645
 30
0.0
 10
134.2152
 20
-82.4645
 30
0.0
 10
131.4114
 20
-81.7785
 30
0.0
 10
128.6527
 20
-81.6294
 30
0.0
 10
125.6103
 20
-82.4944
 30
0.0
 10
125.6103
 20
-82.4944
 30
0.0
 10
126.1145
 20
-80.5523
 30
0.0
 10
126.2322
 20
-75.9919
 30
0.0
 10
125.6103
 20
-73.7549
 30
0.0
  0
SPLINE
  5
8C
330
1F
100
AcDbEntity
  8
layer 1
 62
     7
100
AcDbSpline
210
0.0
220
0.0
230
1.0
 70
    11
 71
     3
 72
    20
 73
    16
 74
     0
 42
0.0000000001
 43
0.0000000001
 12
1.0
 22
0.0
 32
0.0
 13
1.0
 23
0.0
 33
0.0
 40
0.0
 40
0.0
 40
0.0
 40
0.0
 40
0.2
 40
0.2
 40
0.2
 40
0.2
 40
0.4
 40
0.4
 40
0.4
 40
0.4
 40
0.6
 40
0.6
 40
0.6
 40
0.6
 40
1.0
 40
1.0
 40
1.0
 40
1.0
 10
123.3114
 20
26.464
 30
0.0
 10
125.5783
 20
28.0449
 30
0.0
 10
133.6637
 20
28.3134
 30
0.0
 10
136.557
 20
26.464
 30
0.0
 10
136.557
 20
26.464
 30
0.0
 10
135.6921
 20
27.7814
 30
0.0
 10
135.4447
 20
28.8238
 30
0.0
 10
134.9216
 20
30.2036
 30
0.0
 10
134.9216
 20
30.2036
 30
0.0
 10
132.1476
 20
30.6212
 30
0.0
 10
128.1744
 20
30.6085
 30
0.0
 10
124.8933
 20
30.0716
 30
0.0
 10
124.8933
 20
30.0716
 30
0.0
 10
124.5353
 20
28.7889
 30
0.0
 10
123.9399
 20
27.4516
 30
0.0
 10
123.3114
 20
26.464
 30
0.0
  0
SPLINE
  5
8D
330
1F
100
AcDbEntity
  8
layer 1
 62
     7
100
AcDbSpline
210
0.0
220
0.0
230
1.0
 70
    11
 71
     3
 72
    20
 73
    16
 74
     0
 42
0.0000000001
 43
0.0000000001
 12
1.0
 22
0.0
 32
0.0
 13
1.0
 23
0.0
 33
0.0
 40
0.0
 40
0.0
 40
0.0
 40
0.0
 40
0.2
 40
0.2
 40
0.2
 40
0.2
 40
0.4
 40
0.4
 40
0.4
 40
0.4
 40
0.6
 40
0.6
 40
0.6
 40
0.6
 40
1.0
 40
1.0
 40
1.0
 40
1.0
 10
123.3114
 20
-31.3953
 30
0.0
 10
125.5783
 20
-29.8144
 30
0.0
 10
133.6637
 20
-29.5459
 30
0.0
 10
136.557
 20
-31.3953
 30
0.0
 10
136.557
 20
-31.3953
 30
0.0
 10
135.6921
 20
-30.0779
 30
0.0
 10
135.4447
 20
-29.0355
 30
0.0
 10
134.9216
 20
-27.6557
 30
0.0
 10
134.9216
 20
-27.6557
 30
0.0
 10
132.1476
 20
-27.2381
 30
0.0
 10
128.1744
 20
-27.2508
 30
0.0
 10
124.8933
 20
-27.7877
 30
0.0
 10
124.8933
 20
-27.7877
 30
0.0
 10
124.5353
 20
-29.0704
 30
0.0
 10
123.9399
 20
-30.4077
 30
0.0
 10
123.3114
 20
-31.3953
 30
0.0
  0
SPLINE
  5
8E
330
1F
100
AcDbEntity
  8
layer 1
 62
     7
100
AcDbSpline
210
0.0
220
0.0
230
1.0
 70
    11
 71
     3
 72
    20
 73
    16
 74
     0
 42
0.0000000001
 43
0.0000000001
 12
1.0
 22
0.0
 32
0.0
 13
1.0
 23
0.0
 33
0.0
 40
0.0
 40
0.0
 40
0.0
 40
0.0
 40
0.2
 40
0.2
 40
0.2
 40
0.2
 40
0.4
 40
0.4
 40
0.4
 40
0.4
 40
0.6
 40
0.6
 40
0.6
 40
0.6
 40
1.0
 40
1.0
 40
1.0
 40
1.0
 10
123.3114
 20
-89.2546
 30
0.0
 10
125.5783
 20
-87.6737
 30
0.0
 10
133.6637
 20
-87.4052
 30
0.0
 10
136.557
 20
-89.2546
 30
0.0
 10
136.557
 20
-89.2546
 30
0.0
 10
135.6921
 20
-87.9372
 30
0.0
 10
135.4447
 20
-86.8948
 30
0.0
 10
134.9216
 20
-85.515
 30
0.0
 10
134.9216
 20
-85.515
 30
0.0
 10
132.1476
 20
-85.0974
 30
0.0
 10
128.1744
 20
-85.1101
 30
0.0
 10
124.8933
 20
-85.647
 30
0.0
 10
124.8933
 20
-85.647
 30
0.0
 10
124.5353
 20
-86.9297
 30
0.0
 10
123.9399
 20
-88.267
 30
0.0
 10
123.3114
 20
-89.2546
 30
0.0
  0
SPLINE
  5
8F
330
1F
100
AcDbEntity
  8
layer 1
 62
     7
100
AcDbSpline
210
0.0
220
0.0
230
1.0
 70
    11
 71
     3
 72
    32
 73
    28
 74
     0
 42
0.0000000001
 43
0.0000000001
 12
1.0
 22
0.0
 32
0.0
 13
1.0
 23
0.0
 33
0.0
 40
0.0
 40
0.0
 40
0.0
 40
0.0
 40
0.125
 40
0.125
 40
0.125
 40
0.125
 40
0.25
 40
0.25
 40
0.25
 40
0.25
 40
0.375
 40
0.375
 40
0.375
 40
0.375
 40
0.5
 40
0.5
 40
0.5
 40
0.5
 40
0.625
 40
0.625
 40
0.625
 40
0.625
 40
0.75
 40
0.75
 40
0.75
 40
0.75
 40
1.0
 40
1.0
 40
1.0
 40
1.0
 10
85.1151
 20
37.513
 30
0.0
 10
85.1151
 20
34.1256
 30
0.0
 10
86.1764
 20
30.9861
 30
0.0
 10
87.9847
 20
28.4087
 30
0.0
 10
87.9847
 20
28.4087
 30
0.0
 10
87.9847
 20
28.4087
 30
0.0
 10
95.5828
 20
35.4393
 30
0.0
 10
95.5828
 20
35.4393
 30
0.0
 10
95.5828
 20
35.4393
 30
0.0
 10
95.5828
 20
35.4393
 30
0.0
 10
93.6316
 20
37.394
 30
0.0
 10
93.6316
 20
37.394
 30
0.0
 10
93.6316
 20
37.394
 30
0.0
 10
93.6316
 20
37.394
 30
0.0
 10
95.5472
 20
39.3499
 30
0.0
 10
95.5472
 20
39.3499
 30
0.0
 10
95.5472
 20
39.3499
 30
0.0
 10
95.5472
 20
39.3499
 30
0.0
 10
88.0802
 20
46.7517
 30
0.0
 10
88.0802
 20
46.7517
 30
0.0
 10
88.0802
 20
46.7517
 30
0.0
 10
86.2139
 20
44.1495
 30
0.0
 10
85.1151
 20
40.9595
 30
0.0
 10
85.1151
 20
37.5129
 30
0.0
 10
85.1151
 20
37.5129
 30
0.0
 10
85.1151
 20
37.5129
 30
0.0
 10
85.1151
 20
37.513
 30
0.0
 10
85.1151
 20
37.513
 30
0.0
  0
SPLINE
  5
90
330
1F
100
AcDbEntity
  8
layer 1
 62
     7
100
AcDbSpline
210
0.0
220
0.0
230
1.0
 70
    11
 71
     3
 72
    32
 73
    28
 74
     0
 42
0.0000000001
 43
0.0000000001
 12
1.0
 22
0.0
 32
0.0
 13
1.0
 23
0.0
 33
0.0
 40
0.0
 40
0.0
 40
0.0
 40
0.0
 40
0.125
 40
0.125
 40
0.125
 40
0.125
 40
0.25
 40
0.25
 40
0.25
 40
0.25
 40
0.375
 40
0.375
 40
0.375
 40
0.375
 40
0.5
 40
0.5
 40
0.5
 40
0.5
 40
0.625
 40
0.625
 40
0.625
 40
0.625
 40
0.75
 40
0.75
 40
0.75
 40
0.75
 40
1.0
 40
1.0
 40
1.0
 40
1.0
 10
85.1151
 20
-20.3463
 30
0.0
 10
85.1151
 20
-23.7337
 30
0.0
 10
86.1764
 20
-26.8732
 30
0.0
 10
87.9847
 20
-29.4506
 30
0.0
 10
87.9847
 20
-29.4506
 30
0.0
 10
87.9847
 20
-29.4506
 30
0.0
 10
95.5828
 20
-22.42
 30
0.0
 10
95.5828
 20
-22.42
 30
0.0
 10
95.5828
 20
-22.42
 30
0.0
 10
95.5828
 20
-22.42
 30
0.0
 10
93.6316
 20
-20.4653
 30
0.0
 10
93.6316
 20
-20.4653
 30
0.0
 10
93.6316
 20
-20.4653
 30
0.0
 10
93.6316
 20
-20.4653
 30
0.0
 10
95.5472
 20
-18.5094
 30
0.0
 10
95.5472
 20
-18.5094
 30
0.0
 10
95.5472
 20
-18.5094
 30
0.0
 10
95.5472
 20
-18.5094
 30
0.0
 10
88.0802
 20
-11.1076
 30
0.0
 10
88.0802
 20
-11.1076
 30
0.0
 10
88.0802
 20
-11.1076
 30
0.0
 10
86.2139
 20
-13.7098
 30
0.0
 10
85.1151
 20
-16.8998
 30
0.0
 10
85.1151
 20
-20.3464
 30
0.0
 10
85.1151
 20
-20.3464
 30
0.0
 10
85.1151
 20
-20.3464
 30
0.0
 10
85.1151
 20
-20.3463
 30
0.0
 10
85.1151
 20
-20.3463
 30
0.0
  0
SPLINE
  5
91
330
1F
100
AcDbEntity
  8
layer 1
 62
     7
100
AcDbSpline
210
0.0
220
0.0
230
1.0
 70
    11
 71
     3
 72
    32
 73
    28
 74
     0
 42
0.0000000001
 43
0.0000000001
 12
1.0
 22
0.0
 32
0.0
 13
1.0
 23
0.0
 33
0.0
 40
0.0
 40
0.0
 40
0.0
 40
0.0
 40
0.125
 40
0.125
 40
0.125
 40
0.125
 40
0.25
 40
0.25
 40
0.25
 40
0.25
 40
0.375
 40
0.375
 40
0.375
 40
0.375
 40
0.5
 40
0.5
 40
0.5
 40
0.5
 40
0.625
 40
0.625
 40
0.625
 40
0.625
 40
0.75
 40
0.75
 40
0.75
 40
0.75
 40
1.0
 40
1.0
 40
1.0
 40
1.0
 10
85.1151
 20
-78.2056
 30
0.0
 10
85.1151
 20
-81.593
 30
0.0
 10
86.1764
 20
-84.7325
 30
0.0
 10
87.9847
 20
-87.3099
 30
0.0
 10
87.9847
 20
-87.3099
 30
0.0
 10
87.9847
 20
-87.3099
 30
0.0
 10
95.5828
 20
-80.2793
 30
0.0
 10
95.5828
 20
-80.2793
 30
0.0
 10
95.5828
 20
-80.2793
 30
0.0
 10
95.5828
 20
-80.2793
 30
0.0
 10
93.6316
 20
-78.3246
 30
0.0
 10
93.6316
 20
-78.3246
 30
0.0
 10
93.6316
 20
-78.3246
 30
0.0
 10
93.6316
 20
-78.3246
 30
0.0
 10
95.5472
 20
-76.3687
 30
0.0
 10
95.5472
 20
-76.3687
 30
0.0
 10
95.5472
 20
-76.3687
 30
0.0
 10
95.5472
 20
-76.3687
 30
0.0
 10
88.0802
 20
-68.9669
 30
0.0
 10
88.0802
 20
-68.9669
 30
0.0
 10
88.0802
 20
-68.9669
 30
0.0
 10
86.2139
 20
-71.5691
 30
0.0
 10
85.1151
 20
-74.7591
 30
0.0
 10
85.1151
 20
-78.2057
 30
0.0
 10
85.1151
 20
-78.2057
 30
0.0
 10
85.1151
 20
-78.2057
 30
0.0
 10
85.1151
 20
-78.2056
 30
0.0
 10
85.1151
 20
-78.2056
 30
0.0
  0
SPLINE
  5
92
330
1F
100
AcDbEntity
  8
layer 1
 62
     7
100
AcDbSpline
210
0.0
220
0.0
230
1.0
 70
    11
 71
     3
 72
    32
 73
    28
 74
     0
 42
0.0000000001
 43
0.0000000001
 12
1.0
 22
0.0
 32
0.0
 13
1.0
 23
0.0
 33
0.0
 40
0.0
 40
0.0
 40
0.0
 40
0.0
 40
0.125
 40
0.125
 40
0.125
 40
0.125
 40
0.25
 40
0.25
 40
0.25
 40
0.25
 40
0.375
 40
0.375
 40
0.375
 40
0.375
 40
0.5
 40
0.5
 40
0.5
 40
0.5
 40
0.625
 40
0.625
 40
0.625
 40
0.625
 40
0.75
 40
0.75
 40
0.75
 40
0.75
 40
1.0
 40
1.0
 40
1.0
 40
1.0
 10
142.6569
 20
37.513
 30
0.0
 10
142.6569
 20
34.1256
 30
0.0
 10
143.7182
 20
30.9861
 30
0.0
 10
145.5266
 20
28.4087
 30
0.0
 10
145.5266
 20
28.4087
 30
0.0
 10
145.5266
 20
28.4087
 30
0.0
 10
153.1246
 20
35.4393
 30
0.0
 10
153.1246
 20
35.4393
 30
0.0
 10
153.1246
 20
35.4393
 30
0.0
 10
153.1246
 20
35.4393
 30
0.0
 10
151.1735
 20
37.394
 30
0.0
 10
151.1735
 20
37.394
 30
0.0
 10
151.1735
 20
37.394
 30
0.0
 10
151.1735
 20
37.394
 30
0.0
 10
153.089
 20
39.3499
 30
0.0
 10
153.089
 20
39.3499
 30
0.0
 10
153.089
 20
39.3499
 30
0.0
 10
153.089
 20
39.3499
 30
0.0
 10
145.622
 20
46.7517
 30
0.0
 10
145.622
 20
46.7517
 30
0.0
 10
145.622
 20
46.7517
 30
0.0
 10
143.7557
 20
44.1495
 30
0.0
 10
142.6569
 20
40.9595
 30
0.0
 10
142.6569
 20
37.5129
 30
0.0
 10
142.6569
 20
37.5129
 30
0.0
 10
142.6569
 20
37.5129
 30
0.0
 10
142.6569
 20
37.513
 30
0.0
 10
142.6569
 20
37.513
 30
0.0
  0
SPLINE
  5
93
330
1F
100
AcDbEntity
  8
layer 1
 62
     7
100
AcDbSpline
210
0.0
220
0.0
230
1.0
 70
    11
 71
     3
 72
    32
 73
    28
 74
     0
 42
0.0000000001
 43
0.0000000001
 12
1.0
 22
0.0
 32
0.0
 13
1.0
 23
0.0
 33
0.0
 40
0.0
 40
0.0
 40
0.0
 40
0.0
 40
0.125
 40
0.125
 40
0.125
 40
0.125
 40
0.25
 40
0.25
 40
0.25
 40
0.25
 40
0.375
 40
0.375
 40
0.375
 40
0.375
 40
0.5
 40
0.5
 40
0.5
 40
0.5
 40
0.625
 40
0.625
 40
0.625
 40
0.625
 40
0.75
 40
0.75
 40
0.75
 40
0.75
 40
1.0
 40
1.0
 40
1.0
 40
1.0
 10
142.6569
 20
-20.3463
 30
0.0
 10
142.6569
 20
-23.7337
 30
0.0
 10
143.7182
 20
-26.8732
 30
0.0
 10
145.5266
 20
-29.4506
 30
0.0
 10
145.5266
 20
-29.4506
 30
0.0
 10
145.5266
 20
-29.4506
 30
0.0
 10
153.1246
 20
-22.42
 30
0.0
 10
153.1246
 20
-22.42
 30
0.0
 10
153.1246
 20
-22.42
 30
0.0
 10
153.1246
 20
-22.42
 30
0.0
 10
151.1735
 20
-20.4653
 30
0.0
 10
151.1735
 20
-20.4653
 30
0.0
 10
151.1735
 20
-20.4653
 30
0.0
 10
151.1735
 20
-20.4653
 30
0.0
 10
153.089
 20
-18.5094
 30
0.0
 10
153.089
 20
-18.5094
 30
0.0
 10
153.089
 20
-18.5094
 30
0.0
 10
153.089
 20
-18.5094
 30
0.0
 10
145.622
 20
-11.1076
 30
0.0
 10
145.622
 20
-11.1076
 30
0.0
 10
145.622
 20
-11.1076
 30
0.0
 10
143.7557
 20
-13.7098
 30
0.0
 10
142.6569
 20
-16.8998
 30
0.0
 10
142.6569
 20
-20.3464
 30
0.0
 10
142.6569
 20
-20.3464
 30
0.0
 10
142.6569
 20
-20.3464
 30
0.0
 10
142.6569
 20
-20.3463
 30
0.0
 10
142.6569
 20
-20.3463
 30
0.0
  0
SPLINE
  5
94
330
1F
100
AcDbEntity
  8
layer 1
 62
     7
100
AcDbSpline
210
0.0
220
0.0
230
1.0
 70
    11
 71
     3
 72
    32
 73
    28
 74
     0
 42
0.0000000001
 43
0.0000000001
 12
1.0
 22
0.0
 32
0.0
 13
1.0
 23
0.0
 33
0.0
 40
0.0
 40
0.0
 40
0.0
 40
0.0
 40
0.125
 40
0.125
 40
0.125
 40
0.125
 40
0.25
 40
0.25
 40
0.25
 40
0.25
 40
0.375
 40
0.375
 40
0.375
 40
0.375
 40
0.5
 40
0.5
 40
0.5
 40
0.5
 40
0.625
 40
0.625
 40
0.625
 40
0.625
 40
0.75
 40
0.75
 40
0.75
 40
0.75
 40
1.0
 40
1.0
 40
1.0
 40
1.0
 10
142.6569
 20
-78.2056
 30
0.0
 10
142.6569
 20
-81.593
 30
0.0
 10
143.7182
 20
-84.7325
 30
0.0
 10
145.5266
 20
-87.3099
 30
0.0
 10
145.5266
 20
-87.3099
 30
0.0
 10
145.5266
 20
-87.3099
 30
0.0
 10
153.1246
 20
-80.2793
 30
0.0
 10
153.1246
 20
-80.2793
 30
0.0
 10
153.1246
 20
-80.2793
 30
0.0
 10
153.1246
 20
-80.2793
 30
0.0
 10
151.1735
 20
-78.3246
 30
0.0
 10
151.1735
 20
-78.3246
 30
0.0
 10
151.1735
 20
-78.3246
 30
0.0
 10
151.1735
 20
-78.3246
 30
0.0
 10
153.089
 20
-76.3687
 30
0.0
 10
153.089
 20
-76.3687
 30
0.0
 10
153.089
 20
-76.3687
 30
0.0
 10
153.089
 20
-76.3687
 30
0.0
 10
145.622
 20
-68.9669
 30
0.0
 10
145.622
 20
-68.9669
 30
0.0
 10
145.622
 20
-68.9669
 30
0.0
 10
143.7557
 20
-71.5691
 30
0.0
 10
142.6569
 20
-74.7591
 30
0.0
 10
142.6569
 20
-78.2057
 30
0.0
 10
142.6569
 20
-78.2057
 30
0.0
 10
142.6569
 20
-78.2057
 30
0.0
 10
142.6569
 20
-78.2056
 30
0.0
 10
142.6569
 20
-78.2056
 30
0.0
  0
SPLINE
  5
95
330
1F
100
AcDbEntity
  8
layer 1
 62
     7
100
AcDbSpline
210
0.0
220
0.0
230
1.0
 70
    11
 71
     3
 72
    32
 73
    28
 74
     0
 42
0.0000000001
 43
0.0000000001
 12
1.0
 22
0.0
 32
0.0
 13
1.0
 23
0.0
 33
0.0
 40
0.0
 40
0.0
 40
0.0
 40
0.0
 40
0.125
 40
0.125
 40
0.125
 40
0.125
 40
0.25
 40
0.25
 40
0.25
 40
0.25
 40
0.375
 40
0.375
 40
0.375
 40
0.375
 40
0.5
 40
0.5
 40
0.5
 40
0.5
 40
0.625
 40
0.625
 40
0.625
 40
0.625
 40
0.75
 40
0.75
 40
0.75
 40
0.75
 40
1.0
 40
1.0
 40
1.0
 40
1.0
 10
101.067
 20
53.5218
 30
0.0
 10
97.6795
 20
53.5218
 30
0.0
 10
94.54
 20
52.4605
 30
0.0
 10
91.9627
 20
50.6521
 30
0.0
 10
91.9627
 20
50.6521
 30
0.0
 10
91.9627
 20
50.6521
 30
0.0
 10
98.9932
 20
43.0541
 30
0.0
 10
98.9932
 20
43.0541
 30
0.0
 10
98.9932
 20
43.0541
 30
0.0
 10
98.9932
 20
43.0541
 30
0.0
 10
100.948
 20
45.0052
 30
0.0
 10
100.948
 20
45.0052
 30
0.0
 10
100.948
 20
45.0052
 30
0.0
 10
100.948
 20
45.0052
 30
0.0
 10
102.9039
 20
43.0897
 30
0.0
 10
102.9039
 20
43.0897
 30
0.0
 10
102.9039
 20
43.0897
 30
0.0
 10
102.9039
 20
43.0897
 30
0.0
 10
110.3056
 20
50.5567
 30
0.0
 10
110.3056
 20
50.5567
 30
0.0
 10
110.3056
 20
50.5567
 30
0.0
 10
107.7035
 20
52.423
 30
0.0
 10
104.5134
 20
53.5218
 30
0.0
 10
101.0669
 20
53.5218
 30
0.0
 10
101.0669
 20
53.5218
 30
0.0
 10
101.0669
 20
53.5218
 30
0.0
 10
101.067
 20
53.5218
 30
0.0
 10
101.067
 20
53.5218
 30
0.0
  0
SPLINE
  5
96
330
1F
100
AcDbEntity
  8
layer 1
 62
     7
100
AcDbSpline
210
0.0
220
0.0
230
1.0
 70
    11
 71
     3
 72
    32
 73
    28
 74
     0
 42
0.0000000001
 43
0.0000000001
 12
1.0
 22
0.0
 32
0.0
 13
1.0
 23
0.0
 33
0.0
 40
0.0
 40
0.0
 40
0.0
 40
0.0
 40
0.125
 40
0.125
 40
0.125
 40
0.125
 40
0.25
 40
0.25
 40
0.25
 40
0.25
 40
0.375
 40
0.375
 40
0.375
 40
0.375
 40
0.5
 40
0.5
 40
0.5
 40
0.5
 40
0.625
 40
0.625
 40
0.625
 40
0.625
 40
0.75
 40
0.75
 40
0.75
 40
0.75
 40
1.0
 40
1.0
 40
1.0
 40
1.0
 10
101.067
 20
-4.3375
 30
0.0
 10
97.6795
 20
-4.3375
 30
0.0
 10
94.54
 20
-5.3988
 30
0.0
 10
91.9627
 20
-7.2072
 30
0.0
 10
91.9627
 20
-7.2072
 30
0.0
 10
91.9627
 20
-7.2072
 30
0.0
 10
98.9932
 20
-14.8052
 30
0.0
 10
98.9932
 20
-14.8052
 30
0.0
 10
98.9932
 20
-14.8052
 30
0.0
 10
98.9932
 20
-14.8052
 30
0.0
 10
100.948
 20
-12.8541
 30
0.0
 10
100.948
 20
-12.8541
 30
0.0
 10
100.948
 20
-12.8541
 30
0.0
 10
100.948
 20
-12.8541
 30
0.0
 10
102.9039
 20
-14.7696
 30
0.0
 10
102.9039
 20
-14.7696
 30
0.0
 10
102.9039
 20
-14.7696
 30
0.0
 10
102.9039
 20
-14.7696
 30
0.0
 10
110.3056
 20
-7.3026
 30
0.0
 10
110.3056
 20
-7.3026
 30
0.0
 10
110.3056
 20
-7.3026
 30
0.0
 10
107.7035
 20
-5.4363
 30
0.0
 10
104.5134
 20
-4.3375
 30
0.0
 10
101.0669
 20
-4.3375
 30
0.0
 10
101.0669
 20
-4.3375
 30
0.0
 10
101.0669
 20
-4.3375
 30
0.0
 10
101.067
 20
-4.3375
 30
0.0
 10
101.067
 20
-4.3375
 30
0.0
  0
SPLINE
  5
97
330
1F
100
AcDbEntity
  8
layer 1
 62
     7
100
AcDbSpline
210
0.0
220
0.0
230
1.0
 70
    11
 71
     3
 72
    32
 73
    28
 74
     0
 42
0.0000000001
 43
0.0000000001
 12
1.0
 22
0.0
 32
0.0
 13
1.0
 23
0.0
 33
0.0
 40
0.0
 40
0.0
 40
0.0
 40
0.0
 40
0.125
 40
0.125
 40
0.125
 40
0.125
 40
0.25
 40
0.25
 40
0.25
 40
0.25
 40
0.375
 40
0.375
 40
0.375
 40
0.375
 40
0.5
 40
0.5
 40
0.5
 40
0.5
 40
0.625
 40
0.625
 40
0.625
 40
0.625
 40
0.75
 40
0.75
 40
0.75
 40
0.75
 40
1.0
 40
1.0
 40
1.0
 40
1.0
 10
101.067
 20
-62.1968
 30
0.0
 10
97.6795
 20
-62.1968
 30
0.0
 10
94.54
 20
-63.2581
 30
0.0
 10
91.9627
 20
-65.0665
 30
0.0
 10
91.9627
 20
-65.0665
 30
0.0
 10
91.9627
 20
-65.0665
 30
0.0
 10
98.9932
 20
-72.6645
 30
0.0
 10
98.9932
 20
-72.6645
 30
0.0
 10
98.9932
 20
-72.6645
 30
0.0
 10
98.9932
 20
-72.6645
 30
0.0
 10
100.948
 20
-70.7134
 30
0.0
 10
100.948
 20
-70.7134
 30
0.0
 10
100.948
 20
-70.7134
 30
0.0
 10
100.948
 20
-70.7134
 30
0.0
 10
102.9039
 20
-72.6289
 30
0.0
 10
102.9039
 20
-72.6289
 30
0.0
 10
102.9039
 20
-72.6289
 30
0.0
 10
102.9039
 20
-72.6289
 30
0.0
 10
110.3056
 20
-65.1619
 30
0.0
 10
110.3056
 20
-65.1619
 30
0.0
 10
110.3056
 20
-65.1619
 30
0.0
 10
107.7035
 20
-63.2956
 30
0.0
 10
104.5134
 20
-62.1968
 30
0.0
 10
101.0669
 20
-62.1968
 30
0.0
 10
101.0669
 20
-62.1968
 30
0.0
 10
101.0669
 20
-62.1968
 30
0.0
 10
101.067
 20
-62.1968
 30
0.0
 10
101.067
 20
-62.1968
 30
0.0
  0
SPLINE
  5
98
330
1F
100
AcDbEntity
  8
layer 1
 62
     7
100
AcDbSpline
210
0.0
220
0.0
230
1.0
 70
    11
 71
     3
 72
    32
 73
    28
 74
     0
 42
0.0000000001
 43
0.0000000001
 12
1.0
 22
0.0
 32
0.0
 13
1.0
 23
0.0
 33
0.0
 40
0.0
 40
0.0
 40
0.0
 40
0.0
 40
0.125
 40
0.125
 40
0.125
 40
0.125
 40
0.25
 40
0.25
 40
0.25
 40
0.25
 40
0.375
 40
0.375
 40
0.375
 40
0.375
 40
0.5
 40
0.5
 40
0.5
 40
0.5
 40
0.625
 40
0.625
 40
0.625
 40
0.625
 40
0.75
 40
0.75
 40
0.75
 40
0.75
 40
1.0
 40
1.0
 40
1.0
 40
1.0
 10
158.6088
 20
53.5218
 30
0.0
 10
155.2214
 20
53.5218
 30
0.0
 10
152.0819
 20
52.4605
 30
0.0
 10
149.5045
 20
50.6521
 30
0.0
 10
149.5045
 20
50.6521
 30
0.0
 10
149.5045
 20
50.6521
 30
0.0
 10
156.5351
 20
43.0541
 30
0.0
 10
156.5351
 20
43.0541
 30
0.0
 10
156.5351
 20
43.0541
 30
0.0
 10
156.5351
 20
43.0541
 30
0.0
 10
158.4898
 20
45.0052
 30
0.0
 10
158.4898
 20
45.0052
 30
0.0
 10
158.4898
 20
45.0052
 30
0.0
 10
158.4898
 20
45.0052
 30
0.0
 10
160.4457
 20
43.0897
 30
0.0
 10
160.4457
 20
43.0897
 30
0.0
 10
160.4457
 20
43.0897
 30
0.0
 10
160.4457
 20
43.0897
 30
0.0
 10
167.8475
 20
50.5567
 30
0.0
 10
167.8475
 20
50.5567
 30
0.0
 10
167.8475
 20
50.5567
 30
0.0
 10
165.2453
 20
52.423
 30
0.0
 10
162.0552
 20
53.5218
 30
0.0
 10
158.6087
 20
53.5218
 30
0.0
 10
158.6087
 20
53.5218
 30
0.0
 10
158.6087
 20
53.5218
 30
0.0
 10
158.6088
 20
53.5218
 30
0.0
 10
158.6088
 20
53.5218
 30
0.0
  0
SPLINE
  5
99
330
1F
100
AcDbEntity
  8
layer 1
 62
     7
100
AcDbSpline
210
0.0
220
0.0
230
1.0
 70
    11
 71
     3
 72
    32
 73
    28
 74
     0
 42
0.0000000001
 43
0.0000000001
 12
1.0
 22
0.0
 32
0.0
 13
1.0
 23
0.0
 33
0.0
 40
0.0
 40
0.0
 40
0.0
 40
0.0
 40
0.125
 40
0.125
 40
0.125
 40
0.125
 40
0.25
 40
0.25
 40
0.25
 40
0.25
 40
0.375
 40
0.375
 40
0.375
 40
0.375
 40
0.5
 40
0.5
 40
0.5
 40
0.5
 40
0.625
 40
0.625
 40
0.625
 40
0.625
 40
0.75
 40
0.75
 40
0.75
 40
0.75
 40
1.0
 40
1.0
 40
1.0
 40
1.0
 10
158.6088
 20
-4.3375
 30
0.0
 10
155.2214
 20
-4.3375
 30
0.0
 10
152.0819
 20
-5.3988
 30
0.0
 10
149.5045
 20
-7.2072
 30
0.0
 10
149.5045
 20
-7.2072
 30
0.0
 10
149.5045
 20
-7.2072
 30
0.0
 10
156.5351
 20
-14.8052
 30
0.0
 10
156.5351
 20
-14.8052
 30
0.0
 10
156.5351
 20
-14.8052
 30
0.0
 10
156.5351
 20
-14.8052
 30
0.0
 10
158.4898
 20
-12.8541
 30
0.0
 10
158.4898
 20
-12.8541
 30
0.0
 10
158.4898
 20
-12.8541
 30
0.0
 10
158.4898
 20
-12.8541
 30
0.0
 10
160.4457
 20
-14.7696
 30
0.0
 10
160.4457
 20
-14.7696
 30
0.0
 10
160.4457
 20
-14.7696
 30
0.0
 10
160.4457
 20
-14.7696
 30
0.0
 10
167.8475
 20
-7.3026
 30
0.0
 10
167.8475
 20
-7.3026
 30
0.0
 10
167.8475
 20
-7.3026
 30
0.0
 10
165.2453
 20
-5.4363
 30
0.0
 10
162.0552
 20
-4.3375
 30
0.0
 10
158.6087
 20
-4.3375
 30
0.0
 10
158.6087
 20
-4.3375
 30
0.0
 10
158.6087
 20
-4.3375
 30
0.0
 10
158.6088
 20
-4.3375
 30
0.0
 10
158.6088
 20
-4.3375
 30
0.0
  0
SPLINE
  5
9A
330
1F
100
AcDbEntity
  8
layer 1
 62
     7
100
AcDbSpline
210
0.0
220
0.0
230
1.0
 70
    11
 71
     3
 72
    32
 73
    28
 74
     0
 42
0.0000000001
 43
0.0000000001
 12
1.0
 22
0.0
 32
0.0
 13
1.0
 23
0.0
 33
0.0
 40
0.0
 40
0.0
 40
0.0
 40
0.0
 40
0.125
 40
0.125
 40
0.125
 40
0.125
 40
0.25
 40
0.25
 40
0.25
 40
0.25
 40
0.375
 40
0.375
 40
0.375
 40
0.375
 40
0.5
 40
0.5
 40
0.5
 40
0.5
 40
0.625
 40
0.625
 40
0.625
 40
0.625
 40
0.75
 40
0.75
 40
0.75
 40
0.75
 40
1.0
 40
1.0
 40
1.0
 40
1.0
 10
158.6088
 20
-62.1968
 30
0.0
 10
155.2214
 20
-62.1968
 30
0.0
 10
152.0819
 20
-63.2581
 30
0.0
 10
149.5045
 20
-65.0665
 30
0.0
 10
149.5045
 20
-65.0665
 30
0.0
 10
149.5045
 20
-65.0665
 30
0.0
 10
156.5351
 20
-72.6645
 30
0.0
 10
156.5351
 20
-72.6645
 30
0.0
 10
156.5351
 20
-72.6645
 30
0.0
 10
156.5351
 20
-72.6645
 30
0.0
 10
158.4898
 20
-70.7134
 30
0.0
 10
158.4898
 20
-70.7134
 30
0.0
 10
158.4898
 20
-70.7134
 30
0.0
 10
158.4898
 20
-70.7134
 30
0.0
 10
160.4457
 20
-72.6289
 30
0.0
 10
160.4457
 20
-72.6289
 30
0.0
 10
160.4457
 20
-72.6289
 30
0.0
 10
160.4457
 20
-72.6289
 30
0.0
 10
167.8475
 20
-65.1619
 30
0.0
 10
167.8475
 20
-65.1619
 30
0.0
 10
167.8475
 20
-65.1619
 30
0.0
 10
165.2453
 20
-63.2956
 30
0.0
 10
162.0552
 20
-62.1968
 30
0.0
 10
158.6087
 20
-62.1968
 30
0.0
 10
158.6087
 20
-62.1968
 30
0.0
 10
158.6087
 20
-62.1968
 30
0.0
 10
158.6088
 20
-62.1968
 30
0.0
 10
158.6088
 20
-62.1968
 30
0.0
  0
SPLINE
  5
9B
330
1F
100
AcDbEntity
  8
layer 1
 62
     7
100
AcDbSpline
210
0.0
220
0.0
230
1.0
 70
    11
 71
     3
 72
    32
 73
    28
 74
     0
 42
0.0000000001
 43
0.0000000001
 12
1.0
 22
0.0
 32
0.0
 13
1.0
 23
0.0
 33
0.0
 40
0.0
 40
0.0
 40
0.0
 40
0.0
 40
0.125
 40
0.125
 40
0.125
 40
0.125
 40
0.25
 40
0.25
 40
0.25
 40
0.25
 40
0.375
 40
0.375
 40
0.375
 40
0.375
 40
0.5
 40
0.5
 40
0.5
 40
0.5
 40
0.625
 40
0.625
 40
0.625
 40
0.625
 40
0.75
 40
0.75
 40
0.75
 40
0.75
 40
1.0
 40
1.0
 40
1.0
 40
1.0
 10
101.1705
 20
21.6646
 30
0.0
 10
97.7831
 20
21.6646
 30
0.0
 10
94.6435
 20
22.726
 30
0.0
 10
92.0662
 20
24.5343
 30
0.0
 10
92.0662
 20
24.5343
 30
0.0
 10
92.0662
 20
24.5343
 30
0.0
 10
99.0967
 20
32.1323
 30
0.0
 10
99.0967
 20
32.1323
 30
0.0
 10
99.0967
 20
32.1323
 30
0.0
 10
99.0967
 20
32.1323
 30
0.0
 10
101.0515
 20
30.1812
 30
0.0
 10
101.0515
 20
30.1812
 30
0.0
 10
101.0515
 20
30.1812
 30
0.0
 10
101.0515
 20
30.1812
 30
0.0
 10
103.0074
 20
32.0968
 30
0.0
 10
103.0074
 20
32.0968
 30
0.0
 10
103.0074
 20
32.0968
 30
0.0
 10
103.0074
 20
32.0968
 30
0.0
 10
110.4091
 20
24.6298
 30
0.0
 10
110.4091
 20
24.6298
 30
0.0
 10
110.4091
 20
24.6298
 30
0.0
 10
107.807
 20
22.7634
 30
0.0
 10
104.6169
 20
21.6646
 30
0.0
 10
101.1704
 20
21.6646
 30
0.0
 10
101.1704
 20
21.6646
 30
0.0
 10
101.1704
 20
21.6646
 30
0.0
 10
101.1705
 20
21.6646
 30
0.0
 10
101.1705
 20
21.6646
 30
0.0
  0
SPLINE
  5
9C
330
1F
100
AcDbEntity
  8
layer 1
 62
     7
100
AcDbSpline
210
0.0
220
0.0
230
1.0
 70
    11
 71
     3
 72
    32
 73
    28
 74
     0
 42
0.0000000001
 43
0.0000000001
 12
1.0
 22
0.0
 32
0.0
 13
1.0
 23
0.0
 33
0.0
 40
0.0
 40
0.0
 40
0.0
 40
0.0
 40
0.125
 40
0.125
 40
0.125
 40
0.125
 40
0.25
 40
0.25
 40
0.25
 40
0.25
 40
0.375
 40
0.375
 40
0.375
 40
0.375
 40
0.5
 40
0.5
 40
0.5
 40
0.5
 40
0.625
 40
0.625
 40
0.625
 40
0.625
 40
0.75
 40
0.75
 40
0.75
 40
0.75
 40
1.0
 40
1.0
 40
1.0
 40
1.0
 10
101.1705
 20
-36.1947
 30
0.0
 10
97.7831
 20
-36.1947
 30
0.0
 10
94.6435
 20
-35.1333
 30
0.0
 10
92.0662
 20
-33.325
 30
0.0
 10
92.0662
 20
-33.325
 30
0.0
 10
92.0662
 20
-33.325
 30
0.0
 10
99.0967
 20
-25.727
 30
0.0
 10
99.0967
 20
-25.727
 30
0.0
 10
99.0967
 20
-25.727
 30
0.0
 10
99.0967
 20
-25.727
 30
0.0
 10
101.0515
 20
-27.6781
 30
0.0
 10
101.0515
 20
-27.6781
 30
0.0
 10
101.0515
 20
-27.6781
 30
0.0
 10
101.0515
 20
-27.6781
 30
0.0
 10
103.0074
 20
-25.7625
 30
0.0
 10
103.0074
 20
-25.7625
 30
0.0
 10
103.0074
 20
-25.7625
 30
0.0
 10
103.0074
 20
-25.7625
 30
0.0
 10
110.4091
 20
-33.2295
 30
0.0
 10
110.4091
 20
-33.2295
 30
0.0
 10
110.4091
 20
-33.2295
 30
0.0
 10
107.807
 20
-35.0959
 30
0.0
 10
104.6169
 20
-36.1947
 30
0.0
 10
101.1704
 20
-36.1947
 30
0.0
 10
101.1704
 20
-36.1947
 30
0.0
 10
101.1704
 20
-36.1947
 30
0.0
 10
101.1705
 20
-36.1947
 30
0.0
 10
101.1705
 20
-36.1947
 30
0.0
  0
SPLINE
  5
9D
330
1F
100
AcDbEntity
  8
layer 1
 62
     7
100
AcDbSpline
210
0.0
220
0.0
230
1.0
 70
    11
 71
     3
 72
    32
 73
    28
 74
     0
 42
0.0000000001
 43
0.0000000001
 12
1.0
 22
0.0
 32
0.0
 13
1.0
 23
0.0
 33
0.0
 40
0.0
 40
0.0
 40
0.0
 40
0.0
 40
0.125
 40
0.125
 40
0.125
 40
0.125
 40
0.25
 40
0.25
 40
0.25
 40
0.25
 40
0.375
 40
0.375
 40
0.375
 40
0.375
 40
0.5
 40
0.5
 40
0.5
 40
0.5
 40
0.625
 40
0.625
 40
0.625
 40
0.625
 40
0.75
 40
0.75
 40
0.75
 40
0.75
 40
1.0
 40
1.0
 40
1.0
 40
1.0
 10
101.1705
 20
-94.054
 30
0.0
 10
97.7831
 20
-94.054
 30
0.0
 10
94.6435
 20
-92.9926
 30
0.0
 10
92.0662
 20
-91.1843
 30
0.0
 10
92.0662
 20
-91.1843
 30
0.0
 10
92.0662
 20
-91.1843
 30
0.0
 10
99.0967
 20
-83.5863
 30
0.0
 10
99.0967
 20
-83.5863
 30
0.0
 10
99.0967
 20
-83.5863
 30
0.0
 10
99.0967
 20
-83.5863
 30
0.0
 10
101.0515
 20
-85.5374
 30
0.0
 10
101.0515
 20
-85.5374
 30
0.0
 10
101.0515
 20
-85.5374
 30
0.0
 10
101.0515
 20
-85.5374
 30
0.0
 10
103.0074
 20
-83.6218
 30
0.0
 10
103.0074
 20
-83.6218
 30
0.0
 10
103.0074
 20
-83.6218
 30
0.0
 10
103.0074
 20
-83.6218
 30
0.0
 10
110.4091
 20
-91.0888
 30
0.0
 10
110.4091
 20
-91.0888
 30
0.0
 10
110.4091
 20
-91.0888
 30
0.0
 10
107.807
 20
-92.9552
 30
0.0
 10
104.6169
 20
-94.054
 30
0.0
 10
101.1704
 20
-94.054
 30
0.0
 10
101.1704
 20
-94.054
 30
0.0
 10
101.1704
 20
-94.054
 30
0.0
 10
101.1705
 20
-94.054
 30
0.0
 10
101.1705
 20
-94.054
 30
0.0
  0
SPLINE
  5
9E
330
1F
100
AcDbEntity
  8
layer 1
 62
     7
100
AcDbSpline
210
0.0
220
0.0
230
1.0
 70
    11
 71
     3
 72
    32
 73
    28
 74
     0
 42
0.0000000001
 43
0.0000000001
 12
1.0
 22
0.0
 32
0.0
 13
1.0
 23
0.0
 33
0.0
 40
0.0
 40
0.0
 40
0.0
 40
0.0
 40
0.125
 40
0.125
 40
0.125
 40
0.125
 40
0.25
 40
0.25
 40
0.25
 40
0.25
 40
0.375
 40
0.375
 40
0.375
 40
0.375
 40
0.5
 40
0.5
 40
0.5
 40
0.5
 40
0.625
 40
0.625
 40
0.625
 40
0.625
 40
0.75
 40
0.75
 40
0.75
 40
0.75
 40
1.0
 40
1.0
 40
1.0
 40
1.0
 10
158.7123
 20
21.6646
 30
0.0
 10
155.3249
 20
21.6646
 30
0.0
 10
152.1854
 20
22.726
 30
0.0
 10
149.608
 20
24.5343
 30
0.0
 10
149.608
 20
24.5343
 30
0.0
 10
149.608
 20
24.5343
 30
0.0
 10
156.6386
 20
32.1323
 30
0.0
 10
156.6386
 20
32.1323
 30
0.0
 10
156.6386
 20
32.1323
 30
0.0
 10
156.6386
 20
32.1323
 30
0.0
 10
158.5933
 20
30.1812
 30
0.0
 10
158.5933
 20
30.1812
 30
0.0
 10
158.5933
 20
30.1812
 30
0.0
 10
158.5933
 20
30.1812
 30
0.0
 10
160.5492
 20
32.0968
 30
0.0
 10
160.5492
 20
32.0968
 30
0.0
 10
160.5492
 20
32.0968
 30
0.0
 10
160.5492
 20
32.0968
 30
0.0
 10
167.951
 20
24.6298
 30
0.0
 10
167.951
 20
24.6298
 30
0.0
 10
167.951
 20
24.6298
 30
0.0
 10
165.3488
 20
22.7634
 30
0.0
 10
162.1588
 20
21.6646
 30
0.0
 10
158.7122
 20
21.6646
 30
0.0
 10
158.7122
 20
21.6646
 30
0.0
 10
158.7122
 20
21.6646
 30
0.0
 10
158.7123
 20
21.6646
 30
0.0
 10
158.7123
 20
21.6646
 30
0.0
  0
SPLINE
  5
9F
330
1F
100
AcDbEntity
  8
layer 1
 62
     7
100
AcDbSpline
210
0.0
220
0.0
230
1.0
 70
    11
 71
     3
 72
    32
 73
    28
 74
     0
 42
0.0000000001
 43
0.0000000001
 12
1.0
 22
0.0
 32
0.0
 13
1.0
 23
0.0
 33
0.0
 40
0.0
 40
0.0
 40
0.0
 40
0.0
 40
0.125
 40
0.125
 40
0.125
 40
0.125
 40
0.25
 40
0.25
 40
0.25
 40
0.25
 40
0.375
 40
0.375
 40
0.375
 40
0.375
 40
0.5
 40
0.5
 40
0.5
 40
0.5
 40
0.625
 40
0.625
 40
0.625
 40
0.625
 40
0.75
 40
0.75
 40
0.75
 40
0.75
 40
1.0
 40
1.0
 40
1.0
 40
1.0
 10
158.7123
 20
-36.1947
 30
0.0
 10
155.3249
 20
-36.1947
 30
0.0
 10
152.1854
 20
-35.1333
 30
0.0
 10
149.608
 20
-33.325
 30
0.0
 10
149.608
 20
-33.325
 30
0.0
 10
149.608
 20
-33.325
 30
0.0
 10
156.6386
 20
-25.727
 30
0.0
 10
156.6386
 20
-25.727
 30
0.0
 10
156.6386
 20
-25.727
 30
0.0
 10
156.6386
 20
-25.727
 30
0.0
 10
158.5933
 20
-27.6781
 30
0.0
 10
158.5933
 20
-27.6781
 30
0.0
 10
158.5933
 20
-27.6781
 30
0.0
 10
158.5933
 20
-27.6781
 30
0.0
 10
160.5492
 20
-25.7625
 30
0.0
 10
160.5492
 20
-25.7625
 30
0.0
 10
160.5492
 20
-25.7625
 30
0.0
 10
160.5492
 20
-25.7625
 30
0.0
 10
167.951
 20
-33.2295
 30
0.0
 10
167.951
 20
-33.2295
 30
0.0
 10
167.951
 20
-33.2295
 30
0.0
 10
165.3488
 20
-35.0959
 30
0.0
 10
162.1588
 20
-36.1947
 30
0.0
 10
158.7122
 20
-36.1947
 30
0.0
 10
158.7122
 20
-36.1947
 30
0.0
 10
158.7122
 20
-36.1947
 30
0.0
 10
158.7123
 20
-36.1947
 30
0.0
 10
158.7123
 20
-36.1947
 30
0.0
  0
SPLINE
  5
A0
330
1F
100
AcDbEntity
  8
layer 1
 62
     7
100
AcDbSpline
210
0.0
220
0.0
230
1.0
 70
    11
 71
     3
 72
    32
 73
    28
 74
     0
 42
0.0000000001
 43
0.0000000001
 12
1.0
 22
0.0
 32
0.0
 13
1.0
 23
0.0
 33
0.0
 40
0.0
 40
0.0
 40
0.0
 40
0.0
 40
0.125
 40
0.125
 40
0.125
 40
0.125
 40
0.25
 40
0.25
 40
0.25
 40
0.25
 40
0.375
 40
0.375
 40
0.375
 40
0.375
 40
0.5
 40
0.5
 40
0.5
 40
0.5
 40
0.625
 40
0.625
 40
0.625
 40
0.625
 40
0.75
 40
0.75
 40
0.75
 40
0.75
 40
1.0
 40
1.0
 40
1.0
 40
1.0
 10
158.7123
 20
-94.054
 30
0.0
 10
155.3249
 20
-94.054
 30
0.0
 10
152.1854
 20
-92.9926
 30
0.0
 10
149.608
 20
-91.1843
 30
0.0
 10
149.608
 20
-91.1843
 30
0.0
 10
149.608
 20
-91.1843
 30
0.0
 10
156.6386
 20
-83.5863
 30
0.0
 10
156.6386
 20
-83.5863
 30
0.0
 10
156.6386
 20
-83.5863
 30
0.0
 10
156.6386
 20
-83.5863
 30
0.0
 10
158.5933
 20
-85.5374
 30
0.0
 10
158.5933
 20
-85.5374
 30
0.0
 10
158.5933
 20
-85.5374
 30
0.0
 10
158.5933
 20
-85.5374
 30
0.0
 10
160.5492
 20
-83.6218
 30
0.0
 10
160.5492
 20
-83.6218
 30
0.0
 10
160.5492
 20
-83.6218
 30
0.0
 10
160.5492
 20
-83.6218
 30
0.0
 10
167.951
 20
-91.0888
 30
0.0
 10
167.951
 20
-91.0888
 30
0.0
 10
167.951
 20
-91.0888
 30
0.0
 10
165.3488
 20
-92.9552
 30
0.0
 10
162.1588
 20
-94.054
 30
0.0
 10
158.7122
 20
-94.054
 30
0.0
 10
158.7122
 20
-94.054
 30
0.0
 10
158.7122
 20
-94.054
 30
0.0
 10
158.7123
 20
-94.054
 30
0.0
 10
158.7123
 20
-94.054
 30
0.0
  0
SPLINE
  5
A1
330
1F
100
AcDbEntity
  8
layer 1
 62
     7
100
AcDbSpline
210
0.0
220
0.0
230
1.0
 70
    11
 71
     3
 72
    32
 73
    28
 74
     0
 42
0.0000000001
 43
0.0000000001
 12
1.0
 22
0.0
 32
0.0
 13
1.0
 23
0.0
 33
0.0
 40
0.0
 40
0.0
 40
0.0
 40
0.0
 40
0.125
 40
0.125
 40
0.125
 40
0.125
 40
0.25
 40
0.25
 40
0.25
 40
0.25
 40
0.375
 40
0.375
 40
0.375
 40
0.375
 40
0.5
 40
0.5
 40
0.5
 40
0.5
 40
0.625
 40
0.625
 40
0.625
 40
0.625
 40
0.75
 40
0.75
 40
0.75
 40
0.75
 40
1.0
 40
1.0
 40
1.0
 40
1.0
 10
88.1093
 20
8.2423
 30
0.0
 10
88.1093
 20
4.8548
 30
0.0
 10
87.0479
 20
1.7153
 30
0.0
 10
85.2396
 20
-0.862
 30
0.0
 10
85.2396
 20
-0.862
 30
0.0
 10
85.2396
 20
-0.862
 30
0.0
 10
77.6415
 20
6.1685
 30
0.0
 10
77.6415
 20
6.1685
 30
0.0
 10
77.6415
 20
6.1685
 30
0.0
 10
77.6415
 20
6.1685
 30
0.0
 10
79.5927
 20
8.1233
 30
0.0
 10
79.5927
 20
8.1233
 30
0.0
 10
79.5927
 20
8.1233
 30
0.0
 10
79.5927
 20
8.1233
 30
0.0
 10
77.6771
 20
10.0792
 30
0.0
 10
77.6771
 20
10.0792
 30
0.0
 10
77.6771
 20
10.0792
 30
0.0
 10
77.6771
 20
10.0792
 30
0.0
 10
85.1441
 20
17.4809
 30
0.0
 10
85.1441
 20
17.4809
 30
0.0
 10
85.1441
 20
17.4809
 30
0.0
 10
87.0104
 20
14.8788
 30
0.0
 10
88.1093
 20
11.6887
 30
0.0
 10
88.1093
 20
8.2422
 30
0.0
 10
88.1093
 20
8.2422
 30
0.0
 10
88.1093
 20
8.2422
 30
0.0
 10
88.1093
 20
8.2423
 30
0.0
 10
88.1093
 20
8.2423
 30
0.0
  0
SPLINE
  5
A2
330
1F
100
AcDbEntity
  8
layer 1
 62
     7
100
AcDbSpline
210
0.0
220
0.0
230
1.0
 70
    11
 71
     3
 72
    32
 73
    28
 74
     0
 42
0.0000000001
 43
0.0000000001
 12
1.0
 22
0.0
 32
0.0
 13
1.0
 23
0.0
 33
0.0
 40
0.0
 40
0.0
 40
0.0
 40
0.0
 40
0.125
 40
0.125
 40
0.125
 40
0.125
 40
0.25
 40
0.25
 40
0.25
 40
0.25
 40
0.375
 40
0.375
 40
0.375
 40
0.375
 40
0.5
 40
0.5
 40
0.5
 40
0.5
 40
0.625
 40
0.625
 40
0.625
 40
0.625
 40
0.75
 40
0.75
 40
0.75
 40
0.75
 40
1.0
 40
1.0
 40
1.0
 40
1.0
 10
88.1093
 20
-49.617
 30
0.0
 10
88.1093
 20
-53.0045
 30
0.0
 10
87.0479
 20
-56.144
 30
0.0
 10
85.2396
 20
-58.7213
 30
0.0
 10
85.2396
 20
-58.7213
 30
0.0
 10
85.2396
 20
-58.7213
 30
0.0
 10
77.6415
 20
-51.6908
 30
0.0
 10
77.6415
 20
-51.6908
 30
0.0
 10
77.6415
 20
-51.6908
 30
0.0
 10
77.6415
 20
-51.6908
 30
0.0
 10
79.5927
 20
-49.736
 30
0.0
 10
79.5927
 20
-49.736
 30
0.0
 10
79.5927
 20
-49.736
 30
0.0
 10
79.5927
 20
-49.736
 30
0.0
 10
77.6771
 20
-47.7801
 30
0.0
 10
77.6771
 20
-47.7801
 30
0.0
 10
77.6771
 20
-47.7801
 30
0.0
 10
77.6771
 20
-47.7801
 30
0.0
 10
85.1441
 20
-40.3784
 30
0.0
 10
85.1441
 20
-40.3784
 30
0.0
 10
85.1441
 20
-40.3784
 30
0.0
 10
87.0104
 20
-42.9805
 30
0.0
 10
88.1093
 20
-46.1706
 30
0.0
 10
88.1093
 20
-49.6171
 30
0.0
 10
88.1093
 20
-49.6171
 30
0.0
 10
88.1093
 20
-49.6171
 30
0.0
 10
88.1093
 20
-49.617
 30
0.0
 10
88.1093
 20
-49.617
 30
0.0
  0
SPLINE
  5
A3
330
1F
100
AcDbEntity
  8
layer 1
 62
     7
100
AcDbSpline
210
0.0
220
0.0
230
1.0
 70
    11
 71
     3
 72
    20
 73
    16
 74
     0
 42
0.0000000001
 43
0.0000000001
 12
1.0
 22
0.0
 32
0.0
 13
1.0
 23
0.0
 33
0.0
 40
0.0
 40
0.0
 40
0.0
 40
0.0
 40
0.2
 40
0.2
 40
0.2
 40
0.2
 40
0.4
 40
0.4
 40
0.4
 40
0.4
 40
0.6
 40
0.6
 40
0.6
 40
0.6
 40
1.0
 40
1.0
 40
1.0
 40
1.0
 10
79.5927
 20
-107.5953
 30
0.0
 10
79.5927
 20
-107.5953
 30
0.0
 10
77.6771
 20
-105.6394
 30
0.0
 10
77.6771
 20
-105.6394
 30
0.0
 10
77.6771
 20
-105.6394
 30
0.0
 10
77.6771
 20
-105.6394
 30
0.0
 10
85.1441
 20
-98.2377
 30
0.0
 10
85.1441
 20
-98.2377
 30
0.0
 10
85.1441
 20
-98.2377
 30
0.0
 10
87.0104
 20
-100.8398
 30
0.0
 10
88.1164
 20
-104.1693
 30
0.0
 10
88.1164
 20
-107.6158
 30
0.0
 10
88.1164
 20
-107.6158
 30
0.0
 10
88.1164
 20
-107.6158
 30
0.0
 10
79.5927
 20
-107.5953
 30
0.0
 10
79.5927
 20
-107.5953
 30
0.0
  0
SPLINE
  5
A4
330
1F
100
AcDbEntity
  8
layer 1
 62
     7
100
AcDbSpline
210
0.0
220
0.0
230
1.0
 70
    11
 71
     3
 72
    20
 73
    16
 74
     0
 42
0.0000000001
 43
0.0000000001
 12
1.0
 22
0.0
 32
0.0
 13
1.0
 23
0.0
 33
0.0
 40
0.0
 40
0.0
 40
0.0
 40
0.0
 40
0.2
 40
0.2
 40
0.2
 40
0.2
 40
0.4
 40
0.4
 40
0.4
 40
0.4
 40
0.6
 40
0.6
 40
0.6
 40
0.6
 40
1.0
 40
1.0
 40
1.0
 40
1.0
 10
94.4052
 20
19.5533
 30
0.0
 10
96.6721
 20
17.9724
 30
0.0
 10
104.7575
 20
17.7039
 30
0.0
 10
107.6508
 20
19.5533
 30
0.0
 10
107.6508
 20
19.5533
 30
0.0
 10
106.9545
 20
18.3858
 30
0.0
 10
106.4073
 20
17.156
 30
0.0
 10
106.034
 20
15.8137
 30
0.0
 10
106.034
 20
15.8137
 30
0.0
 10
103.26
 20
15.3961
 30
0.0
 10
99.2681
 20
15.4088
 30
0.0
 10
95.9871
 20
15.9458
 30
0.0
 10
95.9871
 20
15.9458
 30
0.0
 10
95.6291
 20
17.2284
 30
0.0
 10
95.0337
 20
18.5657
 30
0.0
 10
94.4052
 20
19.5533
 30
0.0
  0
SPLINE
  5
A5
330
1F
100
AcDbEntity
  8
layer 1
 62
     7
100
AcDbSpline
210
0.0
220
0.0
230
1.0
 70
    11
 71
     3
 72
    20
 73
    16
 74
     0
 42
0.0000000001
 43
0.0000000001
 12
1.0
 22
0.0
 32
0.0
 13
1.0
 23
0.0
 33
0.0
 40
0.0
 40
0.0
 40
0.0
 40
0.0
 40
0.2
 40
0.2
 40
0.2
 40
0.2
 40
0.4
 40
0.4
 40
0.4
 40
0.4
 40
0.6
 40
0.6
 40
0.6
 40
0.6
 40
1.0
 40
1.0
 40
1.0
 40
1.0
 10
94.4052
 20
-38.306
 30
0.0
 10
96.6721
 20
-39.8869
 30
0.0
 10
104.7575
 20
-40.1554
 30
0.0
 10
107.6508
 20
-38.306
 30
0.0
 10
107.6508
 20
-38.306
 30
0.0
 10
106.9545
 20
-39.4735
 30
0.0
 10
106.4073
 20
-40.7033
 30
0.0
 10
106.034
 20
-42.0456
 30
0.0
 10
106.034
 20
-42.0456
 30
0.0
 10
103.26
 20
-42.4632
 30
0.0
 10
99.2681
 20
-42.4505
 30
0.0
 10
95.9871
 20
-41.9135
 30
0.0
 10
95.9871
 20
-41.9135
 30
0.0
 10
95.6291
 20
-40.6309
 30
0.0
 10
95.0337
 20
-39.2936
 30
0.0
 10
94.4052
 20
-38.306
 30
0.0
  0
SPLINE
  5
A6
330
1F
100
AcDbEntity
  8
layer 1
 62
     7
100
AcDbSpline
210
0.0
220
0.0
230
1.0
 70
    11
 71
     3
 72
    20
 73
    16
 74
     0
 42
0.0000000001
 43
0.0000000001
 12
1.0
 22
0.0
 32
0.0
 13
1.0
 23
0.0
 33
0.0
 40
0.0
 40
0.0
 40
0.0
 40
0.0
 40
0.2
 40
0.2
 40
0.2
 40
0.2
 40
0.4
 40
0.4
 40
0.4
 40
0.4
 40
0.6
 40
0.6
 40
0.6
 40
0.6
 40
1.0
 40
1.0
 40
1.0
 40
1.0
 10
94.4052
 20
-96.1653
 30
0.0
 10
96.6721
 20
-97.7462
 30
0.0
 10
104.7575
 20
-98.0147
 30
0.0
 10
107.6508
 20
-96.1653
 30
0.0
 10
107.6508
 20
-96.1653
 30
0.0
 10
106.9545
 20
-97.3328
 30
0.0
 10
106.4073
 20
-98.5626
 30
0.0
 10
106.034
 20
-99.9049
 30
0.0
 10
106.034
 20
-99.9049
 30
0.0
 10
103.26
 20
-100.3225
 30
0.0
 10
99.2681
 20
-100.3098
 30
0.0
 10
95.9871
 20
-99.7728
 30
0.0
 10
95.9871
 20
-99.7728
 30
0.0
 10
95.6291
 20
-98.4902
 30
0.0
 10
95.0337
 20
-97.1529
 30
0.0
 10
94.4052
 20
-96.1653
 30
0.0
  0
SPLINE
  5
A7
330
1F
100
AcDbEntity
  8
layer 1
 62
     7
100
AcDbSpline
210
0.0
220
0.0
230
1.0
 70
    11
 71
     3
 72
    20
 73
    16
 74
     0
 42
0.0000000001
 43
0.0000000001
 12
1.0
 22
0.0
 32
0.0
 13
1.0
 23
0.0
 33
0.0
 40
0.0
 40
0.0
 40
0.0
 40
0.0
 40
0.2
 40
0.2
 40
0.2
 40
0.2
 40
0.4
 40
0.4
 40
0.4
 40
0.4
 40
0.6
 40
0.6
 40
0.6
 40
0.6
 40
1.0
 40
1.0
 40
1.0
 40
1.0
 10
96.704
 20
12.693
 30
0.0
 10
98.3744
 20
11.7982
 30
0.0
 10
103.3257
 20
11.6192
 30
0.0
 10
105.3541
 20
12.693
 30
0.0
 10
105.3541
 20
12.693
 30
0.0
 10
104.7403
 20
10.93
 30
0.0
 10
104.8
 20
5.588
 30
0.0
 10
105.3089
 20
3.9833
 30
0.0
 10
105.3089
 20
3.9833
 30
0.0
 10
102.5052
 20
4.6693
 30
0.0
 10
99.7465
 20
4.8185
 30
0.0
 10
96.704
 20
3.9535
 30
0.0
 10
96.704
 20
3.9535
 30
0.0
 10
97.2083
 20
5.8956
 30
0.0
 10
97.326
 20
10.4559
 30
0.0
 10
96.704
 20
12.693
 30
0.0
  0
SPLINE
  5
A8
330
1F
100
AcDbEntity
  8
layer 1
 62
     7
100
AcDbSpline
210
0.0
220
0.0
230
1.0
 70
    11
 71
     3
 72
    20
 73
    16
 74
     0
 42
0.0000000001
 43
0.0000000001
 12
1.0
 22
0.0
 32
0.0
 13
1.0
 23
0.0
 33
0.0
 40
0.0
 40
0.0
 40
0.0
 40
0.0
 40
0.2
 40
0.2
 40
0.2
 40
0.2
 40
0.4
 40
0.4
 40
0.4
 40
0.4
 40
0.6
 40
0.6
 40
0.6
 40
0.6
 40
1.0
 40
1.0
 40
1.0
 40
1.0
 10
96.704
 20
-45.1663
 30
0.0
 10
98.3744
 20
-46.0611
 30
0.0
 10
103.3257
 20
-46.2401
 30
0.0
 10
105.3541
 20
-45.1663
 30
0.0
 10
105.3541
 20
-45.1663
 30
0.0
 10
104.7403
 20
-46.9293
 30
0.0
 10
104.8
 20
-52.2713
 30
0.0
 10
105.3089
 20
-53.876
 30
0.0
 10
105.3089
 20
-53.876
 30
0.0
 10
102.5052
 20
-53.19
 30
0.0
 10
99.7465
 20
-53.0408
 30
0.0
 10
96.704
 20
-53.9058
 30
0.0
 10
96.704
 20
-53.9058
 30
0.0
 10
97.2083
 20
-51.9637
 30
0.0
 10
97.326
 20
-47.4034
 30
0.0
 10
96.704
 20
-45.1663
 30
0.0
  0
SPLINE
  5
A9
330
1F
100
AcDbEntity
  8
layer 1
 62
     7
100
AcDbSpline
210
0.0
220
0.0
230
1.0
 70
    11
 71
     3
 72
    20
 73
    16
 74
     0
 42
0.0000000001
 43
0.0000000001
 12
1.0
 22
0.0
 32
0.0
 13
1.0
 23
0.0
 33
0.0
 40
0.0
 40
0.0
 40
0.0
 40
0.0
 40
0.2
 40
0.2
 40
0.2
 40
0.2
 40
0.4
 40
0.4
 40
0.4
 40
0.4
 40
0.6
 40
0.6
 40
0.6
 40
0.6
 40
1.0
 40
1.0
 40
1.0
 40
1.0
 10
96.704
 20
-103.0256
 30
0.0
 10
98.3744
 20
-103.9204
 30
0.0
 10
103.3257
 20
-104.0994
 30
0.0
 10
105.3541
 20
-103.0256
 30
0.0
 10
105.3541
 20
-103.0256
 30
0.0
 10
105.0366
 20
-103.9376
 30
0.0
 10
104.8993
 20
-105.8074
 30
0.0
 10
104.9112
 20
-107.6218
 30
0.0
 10
104.9112
 20
-107.6218
 30
0.0
 10
104.9112
 20
-107.6218
 30
0.0
 10
97.1251
 20
-107.6217
 30
0.0
 10
97.1251
 20
-107.6217
 30
0.0
 10
97.1251
 20
-107.6217
 30
0.0
 10
97.1467
 20
-105.9227
 30
0.0
 10
97.0222
 20
-104.1701
 30
0.0
 10
96.704
 20
-103.0256
 30
0.0
  0
SPLINE
  5
AA
330
1F
100
AcDbEntity
  8
layer 1
 62
     7
100
AcDbSpline
210
0.0
220
0.0
230
1.0
 70
    11
 71
     3
 72
    20
 73
    16
 74
     0
 42
0.0000000001
 43
0.0000000001
 12
1.0
 22
0.0
 32
0.0
 13
1.0
 23
0.0
 33
0.0
 40
0.0
 40
0.0
 40
0.0
 40
0.0
 40
0.2
 40
0.2
 40
0.2
 40
0.2
 40
0.4
 40
0.4
 40
0.4
 40
0.4
 40
0.6
 40
0.6
 40
0.6
 40
0.6
 40
1.0
 40
1.0
 40
1.0
 40
1.0
 10
94.4052
 20
-2.8067
 30
0.0
 10
96.6721
 20
-1.2258
 30
0.0
 10
104.7575
 20
-0.9574
 30
0.0
 10
107.6508
 20
-2.8067
 30
0.0
 10
107.6508
 20
-2.8067
 30
0.0
 10
106.7858
 20
-1.4893
 30
0.0
 10
106.5385
 20
-0.4469
 30
0.0
 10
106.0153
 20
0.9329
 30
0.0
 10
106.0153
 20
0.9329
 30
0.0
 10
103.2413
 20
1.3504
 30
0.0
 10
99.2682
 20
1.3378
 30
0.0
 10
95.9871
 20
0.8008
 30
0.0
 10
95.9871
 20
0.8008
 30
0.0
 10
95.6291
 20
-0.4818
 30
0.0
 10
95.0337
 20
-1.8191
 30
0.0
 10
94.4052
 20
-2.8067
 30
0.0
  0
SPLINE
  5
AB
330
1F
100
AcDbEntity
  8
layer 1
 62
     7
100
AcDbSpline
210
0.0
220
0.0
230
1.0
 70
    11
 71
     3
 72
    20
 73
    16
 74
     0
 42
0.0000000001
 43
0.0000000001
 12
1.0
 22
0.0
 32
0.0
 13
1.0
 23
0.0
 33
0.0
 40
0.0
 40
0.0
 40
0.0
 40
0.0
 40
0.2
 40
0.2
 40
0.2
 40
0.2
 40
0.4
 40
0.4
 40
0.4
 40
0.4
 40
0.6
 40
0.6
 40
0.6
 40
0.6
 40
1.0
 40
1.0
 40
1.0
 40
1.0
 10
94.4052
 20
-60.666
 30
0.0
 10
96.6721
 20
-59.0851
 30
0.0
 10
104.7575
 20
-58.8167
 30
0.0
 10
107.6508
 20
-60.666
 30
0.0
 10
107.6508
 20
-60.666
 30
0.0
 10
106.7858
 20
-59.3486
 30
0.0
 10
106.5385
 20
-58.3062
 30
0.0
 10
106.0153
 20
-56.9264
 30
0.0
 10
106.0153
 20
-56.9264
 30
0.0
 10
103.2413
 20
-56.5089
 30
0.0
 10
99.2682
 20
-56.5215
 30
0.0
 10
95.9871
 20
-57.0585
 30
0.0
 10
95.9871
 20
-57.0585
 30
0.0
 10
95.6291
 20
-58.3411
 30
0.0
 10
95.0337
 20
-59.6784
 30
0.0
 10
94.4052
 20
-60.666
 30
0.0
  0
SPLINE
  5
AC
330
1F
100
AcDbEntity
  8
layer 1
 62
     7
100
AcDbSpline
210
0.0
220
0.0
230
1.0
 70
    11
 71
     3
 72
    32
 73
    28
 74
     0
 42
0.0000000001
 43
0.0000000001
 12
1.0
 22
0.0
 32
0.0
 13
1.0
 23
0.0
 33
0.0
 40
0.0
 40
0.0
 40
0.0
 40
0.0
 40
0.125
 40
0.125
 40
0.125
 40
0.125
 40
0.25
 40
0.25
 40
0.25
 40
0.25
 40
0.375
 40
0.375
 40
0.375
 40
0.375
 40
0.5
 40
0.5
 40
0.5
 40
0.5
 40
0.625
 40
0.625
 40
0.625
 40
0.625
 40
0.75
 40
0.75
 40
0.75
 40
0.75
 40
1.0
 40
1.0
 40
1.0
 40
1.0
 10
56.2088
 20
8.2423
 30
0.0
 10
56.2088
 20
4.8548
 30
0.0
 10
57.2702
 20
1.7153
 30
0.0
 10
59.0785
 20
-0.862
 30
0.0
 10
59.0785
 20
-0.862
 30
0.0
 10
59.0785
 20
-0.862
 30
0.0
 10
66.6765
 20
6.1685
 30
0.0
 10
66.6765
 20
6.1685
 30
0.0
 10
66.6765
 20
6.1685
 30
0.0
 10
66.6765
 20
6.1685
 30
0.0
 10
64.7254
 20
8.1233
 30
0.0
 10
64.7254
 20
8.1233
 30
0.0
 10
64.7254
 20
8.1233
 30
0.0
 10
64.7254
 20
8.1233
 30
0.0
 10
66.641
 20
10.0792
 30
0.0
 10
66.641
 20
10.0792
 30
0.0
 10
66.641
 20
10.0792
 30
0.0
 10
66.641
 20
10.0792
 30
0.0
 10
59.174
 20
17.4809
 30
0.0
 10
59.174
 20
17.4809
 30
0.0
 10
59.174
 20
17.4809
 30
0.0
 10
57.3077
 20
14.8788
 30
0.0
 10
56.2088
 20
11.6887
 30
0.0
 10
56.2088
 20
8.2422
 30
0.0
 10
56.2088
 20
8.2422
 30
0.0
 10
56.2088
 20
8.2422
 30
0.0
 10
56.2088
 20
8.2423
 30
0.0
 10
56.2088
 20
8.2423
 30
0.0
  0
SPLINE
  5
AD
330
1F
100
AcDbEntity
  8
layer 1
 62
     7
100
AcDbSpline
210
0.0
220
0.0
230
1.0
 70
    11
 71
     3
 72
    32
 73
    28
 74
     0
 42
0.0000000001
 43
0.0000000001
 12
1.0
 22
0.0
 32
0.0
 13
1.0
 23
0.0
 33
0.0
 40
0.0
 40
0.0
 40
0.0
 40
0.0
 40
0.125
 40
0.125
 40
0.125
 40
0.125
 40
0.25
 40
0.25
 40
0.25
 40
0.25
 40
0.375
 40
0.375
 40
0.375
 40
0.375
 40
0.5
 40
0.5
 40
0.5
 40
0.5
 40
0.625
 40
0.625
 40
0.625
 40
0.625
 40
0.75
 40
0.75
 40
0.75
 40
0.75
 40
1.0
 40
1.0
 40
1.0
 40
1.0
 10
56.2088
 20
-49.617
 30
0.0
 10
56.2088
 20
-53.0045
 30
0.0
 10
57.2702
 20
-56.144
 30
0.0
 10
59.0785
 20
-58.7213
 30
0.0
 10
59.0785
 20
-58.7213
 30
0.0
 10
59.0785
 20
-58.7213
 30
0.0
 10
66.6765
 20
-51.6908
 30
0.0
 10
66.6765
 20
-51.6908
 30
0.0
 10
66.6765
 20
-51.6908
 30
0.0
 10
66.6765
 20
-51.6908
 30
0.0
 10
64.7254
 20
-49.736
 30
0.0
 10
64.7254
 20
-49.736
 30
0.0
 10
64.7254
 20
-49.736
 30
0.0
 10
64.7254
 20
-49.736
 30
0.0
 10
66.641
 20
-47.7801
 30
0.0
 10
66.641
 20
-47.7801
 30
0.0
 10
66.641
 20
-47.7801
 30
0.0
 10
66.641
 20
-47.7801
 30
0.0
 10
59.174
 20
-40.3784
 30
0.0
 10
59.174
 20
-40.3784
 30
0.0
 10
59.174
 20
-40.3784
 30
0.0
 10
57.3077
 20
-42.9805
 30
0.0
 10
56.2088
 20
-46.1706
 30
0.0
 10
56.2088
 20
-49.6171
 30
0.0
 10
56.2088
 20
-49.6171
 30
0.0
 10
56.2088
 20
-49.6171
 30
0.0
 10
56.2088
 20
-49.617
 30
0.0
 10
56.2088
 20
-49.617
 30
0.0
  0
SPLINE
  5
AE
330
1F
100
AcDbEntity
  8
layer 1
 62
     7
100
AcDbSpline
210
0.0
220
0.0
230
1.0
 70
    11
 71
     3
 72
    32
 73
    28
 74
     0
 42
0.0000000001
 43
0.0000000001
 12
1.0
 22
0.0
 32
0.0
 13
1.0
 23
0.0
 33
0.0
 40
0.0
 40
0.0
 40
0.0
 40
0.0
 40
0.125
 40
0.125
 40
0.125
 40
0.125
 40
0.25
 40
0.25
 40
0.25
 40
0.25
 40
0.375
 40
0.375
 40
0.375
 40
0.375
 40
0.5
 40
0.5
 40
0.5
 40
0.5
 40
0.625
 40
0.625
 40
0.625
 40
0.625
 40
0.75
 40
0.75
 40
0.75
 40
0.75
 40
1.0
 40
1.0
 40
1.0
 40
1.0
 10
72.1607
 20
24.2511
 30
0.0
 10
68.7733
 20
24.2511
 30
0.0
 10
65.6338
 20
23.1897
 30
0.0
 10
63.0565
 20
21.3814
 30
0.0
 10
63.0565
 20
21.3814
 30
0.0
 10
63.0565
 20
21.3814
 30
0.0
 10
70.087
 20
13.7834
 30
0.0
 10
70.087
 20
13.7834
 30
0.0
 10
70.087
 20
13.7834
 30
0.0
 10
70.087
 20
13.7834
 30
0.0
 10
72.0418
 20
15.7345
 30
0.0
 10
72.0418
 20
15.7345
 30
0.0
 10
72.0418
 20
15.7345
 30
0.0
 10
72.0418
 20
15.7345
 30
0.0
 10
73.9976
 20
13.8189
 30
0.0
 10
73.9976
 20
13.8189
 30
0.0
 10
73.9976
 20
13.8189
 30
0.0
 10
73.9976
 20
13.8189
 30
0.0
 10
81.3994
 20
21.2859
 30
0.0
 10
81.3994
 20
21.2859
 30
0.0
 10
81.3994
 20
21.2859
 30
0.0
 10
78.7972
 20
23.1523
 30
0.0
 10
75.6072
 20
24.2511
 30
0.0
 10
72.1606
 20
24.2511
 30
0.0
 10
72.1606
 20
24.2511
 30
0.0
 10
72.1606
 20
24.2511
 30
0.0
 10
72.1607
 20
24.2511
 30
0.0
 10
72.1607
 20
24.2511
 30
0.0
  0
SPLINE
  5
AF
330
1F
100
AcDbEntity
  8
layer 1
 62
     7
100
AcDbSpline
210
0.0
220
0.0
230
1.0
 70
    11
 71
     3
 72
    32
 73
    28
 74
     0
 42
0.0000000001
 43
0.0000000001
 12
1.0
 22
0.0
 32
0.0
 13
1.0
 23
0.0
 33
0.0
 40
0.0
 40
0.0
 40
0.0
 40
0.0
 40
0.125
 40
0.125
 40
0.125
 40
0.125
 40
0.25
 40
0.25
 40
0.25
 40
0.25
 40
0.375
 40
0.375
 40
0.375
 40
0.375
 40
0.5
 40
0.5
 40
0.5
 40
0.5
 40
0.625
 40
0.625
 40
0.625
 40
0.625
 40
0.75
 40
0.75
 40
0.75
 40
0.75
 40
1.0
 40
1.0
 40
1.0
 40
1.0
 10
72.1607
 20
-33.6082
 30
0.0
 10
68.7733
 20
-33.6082
 30
0.0
 10
65.6338
 20
-34.6696
 30
0.0
 10
63.0565
 20
-36.4779
 30
0.0
 10
63.0565
 20
-36.4779
 30
0.0
 10
63.0565
 20
-36.4779
 30
0.0
 10
70.087
 20
-44.0759
 30
0.0
 10
70.087
 20
-44.0759
 30
0.0
 10
70.087
 20
-44.0759
 30
0.0
 10
70.087
 20
-44.0759
 30
0.0
 10
72.0418
 20
-42.1248
 30
0.0
 10
72.0418
 20
-42.1248
 30
0.0
 10
72.0418
 20
-42.1248
 30
0.0
 10
72.0418
 20
-42.1248
 30
0.0
 10
73.9976
 20
-44.0404
 30
0.0
 10
73.9976
 20
-44.0404
 30
0.0
 10
73.9976
 20
-44.0404
 30
0.0
 10
73.9976
 20
-44.0404
 30
0.0
 10
81.3994
 20
-36.5734
 30
0.0
 10
81.3994
 20
-36.5734
 30
0.0
 10
81.3994
 20
-36.5734
 30
0.0
 10
78.7972
 20
-34.707
 30
0.0
 10
75.6072
 20
-33.6082
 30
0.0
 10
72.1606
 20
-33.6082
 30
0.0
 10
72.1606
 20
-33.6082
 30
0.0
 10
72.1606
 20
-33.6082
 30
0.0
 10
72.1607
 20
-33.6082
 30
0.0
 10
72.1607
 20
-33.6082
 30
0.0
  0
SPLINE
  5
B0
330
1F
100
AcDbEntity
  8
layer 1
 62
     7
100
AcDbSpline
210
0.0
220
0.0
230
1.0
 70
    11
 71
     3
 72
    32
 73
    28
 74
     0
 42
0.0000000001
 43
0.0000000001
 12
1.0
 22
0.0
 32
0.0
 13
1.0
 23
0.0
 33
0.0
 40
0.0
 40
0.0
 40
0.0
 40
0.0
 40
0.125
 40
0.125
 40
0.125
 40
0.125
 40
0.25
 40
0.25
 40
0.25
 40
0.25
 40
0.375
 40
0.375
 40
0.375
 40
0.375
 40
0.5
 40
0.5
 40
0.5
 40
0.5
 40
0.625
 40
0.625
 40
0.625
 40
0.625
 40
0.75
 40
0.75
 40
0.75
 40
0.75
 40
1.0
 40
1.0
 40
1.0
 40
1.0
 10
72.1607
 20
-91.4675
 30
0.0
 10
68.7733
 20
-91.4675
 30
0.0
 10
65.6338
 20
-92.5289
 30
0.0
 10
63.0565
 20
-94.3372
 30
0.0
 10
63.0565
 20
-94.3372
 30
0.0
 10
63.0565
 20
-94.3372
 30
0.0
 10
70.087
 20
-101.9352
 30
0.0
 10
70.087
 20
-101.9352
 30
0.0
 10
70.087
 20
-101.9352
 30
0.0
 10
70.087
 20
-101.9352
 30
0.0
 10
72.0418
 20
-99.9841
 30
0.0
 10
72.0418
 20
-99.9841
 30
0.0
 10
72.0418
 20
-99.9841
 30
0.0
 10
72.0418
 20
-99.9841
 30
0.0
 10
73.9976
 20
-101.8997
 30
0.0
 10
73.9976
 20
-101.8997
 30
0.0
 10
73.9976
 20
-101.8997
 30
0.0
 10
73.9976
 20
-101.8997
 30
0.0
 10
81.3994
 20
-94.4327
 30
0.0
 10
81.3994
 20
-94.4327
 30
0.0
 10
81.3994
 20
-94.4327
 30
0.0
 10
78.7972
 20
-92.5663
 30
0.0
 10
75.6072
 20
-91.4675
 30
0.0
 10
72.1606
 20
-91.4675
 30
0.0
 10
72.1606
 20
-91.4675
 30
0.0
 10
72.1606
 20
-91.4675
 30
0.0
 10
72.1607
 20
-91.4675
 30
0.0
 10
72.1607
 20
-91.4675
 30
0.0
  0
SPLINE
  5
B1
330
1F
100
AcDbEntity
  8
layer 1
 62
     7
100
AcDbSpline
210
0.0
220
0.0
230
1.0
 70
    11
 71
     3
 72
    32
 73
    28
 74
     0
 42
0.0000000001
 43
0.0000000001
 12
1.0
 22
0.0
 32
0.0
 13
1.0
 23
0.0
 33
0.0
 40
0.0
 40
0.0
 40
0.0
 40
0.0
 40
0.125
 40
0.125
 40
0.125
 40
0.125
 40
0.25
 40
0.25
 40
0.25
 40
0.25
 40
0.375
 40
0.375
 40
0.375
 40
0.375
 40
0.5
 40
0.5
 40
0.5
 40
0.5
 40
0.625
 40
0.625
 40
0.625
 40
0.625
 40
0.75
 40
0.75
 40
0.75
 40
0.75
 40
1.0
 40
1.0
 40
1.0
 40
1.0
 10
72.2643
 20
-7.6061
 30
0.0
 10
68.8768
 20
-7.6061
 30
0.0
 10
65.7373
 20
-6.5448
 30
0.0
 10
63.16
 20
-4.7364
 30
0.0
 10
63.16
 20
-4.7364
 30
0.0
 10
63.16
 20
-4.7364
 30
0.0
 10
70.1905
 20
2.8616
 30
0.0
 10
70.1905
 20
2.8616
 30
0.0
 10
70.1905
 20
2.8616
 30
0.0
 10
70.1905
 20
2.8616
 30
0.0
 10
72.1453
 20
0.9105
 30
0.0
 10
72.1453
 20
0.9105
 30
0.0
 10
72.1453
 20
0.9105
 30
0.0
 10
72.1453
 20
0.9105
 30
0.0
 10
74.1011
 20
2.826
 30
0.0
 10
74.1011
 20
2.826
 30
0.0
 10
74.1011
 20
2.826
 30
0.0
 10
74.1011
 20
2.826
 30
0.0
 10
81.5029
 20
-4.641
 30
0.0
 10
81.5029
 20
-4.641
 30
0.0
 10
81.5029
 20
-4.641
 30
0.0
 10
78.9007
 20
-6.5073
 30
0.0
 10
75.7107
 20
-7.6061
 30
0.0
 10
72.2642
 20
-7.6061
 30
0.0
 10
72.2642
 20
-7.6061
 30
0.0
 10
72.2642
 20
-7.6061
 30
0.0
 10
72.2643
 20
-7.6061
 30
0.0
 10
72.2643
 20
-7.6061
 30
0.0
  0
SPLINE
  5
B2
330
1F
100
AcDbEntity
  8
layer 1
 62
     7
100
AcDbSpline
210
0.0
220
0.0
230
1.0
 70
    11
 71
     3
 72
    32
 73
    28
 74
     0
 42
0.0000000001
 43
0.0000000001
 12
1.0
 22
0.0
 32
0.0
 13
1.0
 23
0.0
 33
0.0
 40
0.0
 40
0.0
 40
0.0
 40
0.0
 40
0.125
 40
0.125
 40
0.125
 40
0.125
 40
0.25
 40
0.25
 40
0.25
 40
0.25
 40
0.375
 40
0.375
 40
0.375
 40
0.375
 40
0.5
 40
0.5
 40
0.5
 40
0.5
 40
0.625
 40
0.625
 40
0.625
 40
0.625
 40
0.75
 40
0.75
 40
0.75
 40
0.75
 40
1.0
 40
1.0
 40
1.0
 40
1.0
 10
72.2643
 20
-65.4654
 30
0.0
 10
68.8768
 20
-65.4654
 30
0.0
 10
65.7373
 20
-64.4041
 30
0.0
 10
63.16
 20
-62.5957
 30
0.0
 10
63.16
 20
-62.5957
 30
0.0
 10
63.16
 20
-62.5957
 30
0.0
 10
70.1905
 20
-54.9977
 30
0.0
 10
70.1905
 20
-54.9977
 30
0.0
 10
70.1905
 20
-54.9977
 30
0.0
 10
70.1905
 20
-54.9977
 30
0.0
 10
72.1453
 20
-56.9488
 30
0.0
 10
72.1453
 20
-56.9488
 30
0.0
 10
72.1453
 20
-56.9488
 30
0.0
 10
72.1453
 20
-56.9488
 30
0.0
 10
74.1011
 20
-55.0333
 30
0.0
 10
74.1011
 20
-55.0333
 30
0.0
 10
74.1011
 20
-55.0333
 30
0.0
 10
74.1011
 20
-55.0333
 30
0.0
 10
81.5029
 20
-62.5003
 30
0.0
 10
81.5029
 20
-62.5003
 30
0.0
 10
81.5029
 20
-62.5003
 30
0.0
 10
78.9007
 20
-64.3666
 30
0.0
 10
75.7107
 20
-65.4654
 30
0.0
 10
72.2642
 20
-65.4654
 30
0.0
 10
72.2642
 20
-65.4654
 30
0.0
 10
72.2642
 20
-65.4654
 30
0.0
 10
72.2643
 20
-65.4654
 30
0.0
 10
72.2643
 20
-65.4654
 30
0.0
  0
SPLINE
  5
B3
330
1F
100
AcDbEntity
  8
layer 1
 62
     7
100
AcDbSpline
210
0.0
220
0.0
230
1.0
 70
    11
 71
     3
 72
    32
 73
    28
 74
     0
 42
0.0000000001
 43
0.0000000001
 12
1.0
 22
0.0
 32
0.0
 13
1.0
 23
0.0
 33
0.0
 40
0.0
 40
0.0
 40
0.0
 40
0.0
 40
0.125
 40
0.125
 40
0.125
 40
0.125
 40
0.25
 40
0.25
 40
0.25
 40
0.25
 40
0.375
 40
0.375
 40
0.375
 40
0.375
 40
0.5
 40
0.5
 40
0.5
 40
0.5
 40
0.625
 40
0.625
 40
0.625
 40
0.625
 40
0.75
 40
0.75
 40
0.75
 40
0.75
 40
1.0
 40
1.0
 40
1.0
 40
1.0
 10
30.4476
 20
8.2423
 30
0.0
 10
30.4476
 20
4.8548
 30
0.0
 10
29.3863
 20
1.7153
 30
0.0
 10
27.5779
 20
-0.862
 30
0.0
 10
27.5779
 20
-0.862
 30
0.0
 10
27.5779
 20
-0.862
 30
0.0
 10
19.9799
 20
6.1685
 30
0.0
 10
19.9799
 20
6.1685
 30
0.0
 10
19.9799
 20
6.1685
 30
0.0
 10
19.9799
 20
6.1685
 30
0.0
 10
21.931
 20
8.1233
 30
0.0
 10
21.931
 20
8.1233
 30
0.0
 10
21.931
 20
8.1233
 30
0.0
 10
21.931
 20
8.1233
 30
0.0
 10
20.0155
 20
10.0792
 30
0.0
 10
20.0155
 20
10.0792
 30
0.0
 10
20.0155
 20
10.0792
 30
0.0
 10
20.0155
 20
10.0792
 30
0.0
 10
27.4825
 20
17.4809
 30
0.0
 10
27.4825
 20
17.4809
 30
0.0
 10
27.4825
 20
17.4809
 30
0.0
 10
29.3488
 20
14.8788
 30
0.0
 10
30.4476
 20
11.6887
 30
0.0
 10
30.4476
 20
8.2422
 30
0.0
 10
30.4476
 20
8.2422
 30
0.0
 10
30.4476
 20
8.2422
 30
0.0
 10
30.4476
 20
8.2423
 30
0.0
 10
30.4476
 20
8.2423
 30
0.0
  0
SPLINE
  5
B4
330
1F
100
AcDbEntity
  8
layer 1
 62
     7
100
AcDbSpline
210
0.0
220
0.0
230
1.0
 70
    11
 71
     3
 72
    32
 73
    28
 74
     0
 42
0.0000000001
 43
0.0000000001
 12
1.0
 22
0.0
 32
0.0
 13
1.0
 23
0.0
 33
0.0
 40
0.0
 40
0.0
 40
0.0
 40
0.0
 40
0.125
 40
0.125
 40
0.125
 40
0.125
 40
0.25
 40
0.25
 40
0.25
 40
0.25
 40
0.375
 40
0.375
 40
0.375
 40
0.375
 40
0.5
 40
0.5
 40
0.5
 40
0.5
 40
0.625
 40
0.625
 40
0.625
 40
0.625
 40
0.75
 40
0.75
 40
0.75
 40
0.75
 40
1.0
 40
1.0
 40
1.0
 40
1.0
 10
30.4476
 20
-49.617
 30
0.0
 10
30.4476
 20
-53.0045
 30
0.0
 10
29.3863
 20
-56.144
 30
0.0
 10
27.5779
 20
-58.7213
 30
0.0
 10
27.5779
 20
-58.7213
 30
0.0
 10
27.5779
 20
-58.7213
 30
0.0
 10
19.9799
 20
-51.6908
 30
0.0
 10
19.9799
 20
-51.6908
 30
0.0
 10
19.9799
 20
-51.6908
 30
0.0
 10
19.9799
 20
-51.6908
 30
0.0
 10
21.931
 20
-49.736
 30
0.0
 10
21.931
 20
-49.736
 30
0.0
 10
21.931
 20
-49.736
 30
0.0
 10
21.931
 20
-49.736
 30
0.0
 10
20.0155
 20
-47.7801
 30
0.0
 10
20.0155
 20
-47.7801
 30
0.0
 10
20.0155
 20
-47.7801
 30
0.0
 10
20.0155
 20
-47.7801
 30
0.0
 10
27.4825
 20
-40.3784
 30
0.0
 10
27.4825
 20
-40.3784
 30
0.0
 10
27.4825
 20
-40.3784
 30
0.0
 10
29.3488
 20
-42.9805
 30
0.0
 10
30.4476
 20
-46.1706
 30
0.0
 10
30.4476
 20
-49.6171
 30
0.0
 10
30.4476
 20
-49.6171
 30
0.0
 10
30.4476
 20
-49.6171
 30
0.0
 10
30.4476
 20
-49.617
 30
0.0
 10
30.4476
 20
-49.617
 30
0.0
  0
SPLINE
  5
B5
330
1F
100
AcDbEntity
  8
layer 1
 62
     7
100
AcDbSpline
210
0.0
220
0.0
230
1.0
 70
    11
 71
     3
 72
    20
 73
    16
 74
     0
 42
0.0000000001
 43
0.0000000001
 12
1.0
 22
0.0
 32
0.0
 13
1.0
 23
0.0
 33
0.0
 40
0.0
 40
0.0
 40
0.0
 40
0.0
 40
0.2
 40
0.2
 40
0.2
 40
0.2
 40
0.4
 40
0.4
 40
0.4
 40
0.4
 40
0.6
 40
0.6
 40
0.6
 40
0.6
 40
1.0
 40
1.0
 40
1.0
 40
1.0
 10
36.7435
 20
19.5533
 30
0.0
 10
39.0104
 20
17.9724
 30
0.0
 10
47.0959
 20
17.7039
 30
0.0
 10
49.9892
 20
19.5533
 30
0.0
 10
49.9892
 20
19.5533
 30
0.0
 10
49.2928
 20
18.3858
 30
0.0
 10
48.7456
 20
17.156
 30
0.0
 10
48.3724
 20
15.8137
 30
0.0
 10
48.3724
 20
15.8137
 30
0.0
 10
45.5984
 20
15.3961
 30
0.0
 10
41.6065
 20
15.4088
 30
0.0
 10
38.3255
 20
15.9458
 30
0.0
 10
38.3255
 20
15.9458
 30
0.0
 10
37.9675
 20
17.2284
 30
0.0
 10
37.372
 20
18.5657
 30
0.0
 10
36.7435
 20
19.5533
 30
0.0
  0
SPLINE
  5
B6
330
1F
100
AcDbEntity
  8
layer 1
 62
     7
100
AcDbSpline
210
0.0
220
0.0
230
1.0
 70
    11
 71
     3
 72
    20
 73
    16
 74
     0
 42
0.0000000001
 43
0.0000000001
 12
1.0
 22
0.0
 32
0.0
 13
1.0
 23
0.0
 33
0.0
 40
0.0
 40
0.0
 40
0.0
 40
0.0
 40
0.2
 40
0.2
 40
0.2
 40
0.2
 40
0.4
 40
0.4
 40
0.4
 40
0.4
 40
0.6
 40
0.6
 40
0.6
 40
0.6
 40
1.0
 40
1.0
 40
1.0
 40
1.0
 10
36.7435
 20
-38.306
 30
0.0
 10
39.0104
 20
-39.8869
 30
0.0
 10
47.0959
 20
-40.1554
 30
0.0
 10
49.9892
 20
-38.306
 30
0.0
 10
49.9892
 20
-38.306
 30
0.0
 10
49.2928
 20
-39.4735
 30
0.0
 10
48.7456
 20
-40.7033
 30
0.0
 10
48.3724
 20
-42.0456
 30
0.0
 10
48.3724
 20
-42.0456
 30
0.0
 10
45.5984
 20
-42.4632
 30
0.0
 10
41.6065
 20
-42.4505
 30
0.0
 10
38.3255
 20
-41.9135
 30
0.0
 10
38.3255
 20
-41.9135
 30
0.0
 10
37.9675
 20
-40.6309
 30
0.0
 10
37.372
 20
-39.2936
 30
0.0
 10
36.7435
 20
-38.306
 30
0.0
  0
SPLINE
  5
B7
330
1F
100
AcDbEntity
  8
layer 1
 62
     7
100
AcDbSpline
210
0.0
220
0.0
230
1.0
 70
    11
 71
     3
 72
    20
 73
    16
 74
     0
 42
0.0000000001
 43
0.0000000001
 12
1.0
 22
0.0
 32
0.0
 13
1.0
 23
0.0
 33
0.0
 40
0.0
 40
0.0
 40
0.0
 40
0.0
 40
0.2
 40
0.2
 40
0.2
 40
0.2
 40
0.4
 40
0.4
 40
0.4
 40
0.4
 40
0.6
 40
0.6
 40
0.6
 40
0.6
 40
1.0
 40
1.0
 40
1.0
 40
1.0
 10
36.7435
 20
-96.1653
 30
0.0
 10
39.0104
 20
-97.7462
 30
0.0
 10
47.0959
 20
-98.0147
 30
0.0
 10
49.9892
 20
-96.1653
 30
0.0
 10
49.9892
 20
-96.1653
 30
0.0
 10
49.2928
 20
-97.3328
 30
0.0
 10
48.7456
 20
-98.5626
 30
0.0
 10
48.3724
 20
-99.9049
 30
0.0
 10
48.3724
 20
-99.9049
 30
0.0
 10
45.5984
 20
-100.3225
 30
0.0
 10
41.6065
 20
-100.3098
 30
0.0
 10
38.3255
 20
-99.7728
 30
0.0
 10
38.3255
 20
-99.7728
 30
0.0
 10
37.9675
 20
-98.4902
 30
0.0
 10
37.372
 20
-97.1529
 30
0.0
 10
36.7435
 20
-96.1653
 30
0.0
  0
SPLINE
  5
B8
330
1F
100
AcDbEntity
  8
layer 1
 62
     7
100
AcDbSpline
210
0.0
220
0.0
230
1.0
 70
    11
 71
     3
 72
    20
 73
    16
 74
     0
 42
0.0000000001
 43
0.0000000001
 12
1.0
 22
0.0
 32
0.0
 13
1.0
 23
0.0
 33
0.0
 40
0.0
 40
0.0
 40
0.0
 40
0.0
 40
0.2
 40
0.2
 40
0.2
 40
0.2
 40
0.4
 40
0.4
 40
0.4
 40
0.4
 40
0.6
 40
0.6
 40
0.6
 40
0.6
 40
1.0
 40
1.0
 40
1.0
 40
1.0
 10
39.0424
 20
12.693
 30
0.0
 10
40.7128
 20
11.7982
 30
0.0
 10
45.6641
 20
11.6192
 30
0.0
 10
47.6924
 20
12.693
 30
0.0
 10
47.6924
 20
12.693
 30
0.0
 10
47.0787
 20
10.93
 30
0.0
 10
47.1384
 20
5.588
 30
0.0
 10
47.6473
 20
3.9833
 30
0.0
 10
47.6473
 20
3.9833
 30
0.0
 10
44.8436
 20
4.6693
 30
0.0
 10
42.0848
 20
4.8185
 30
0.0
 10
39.0424
 20
3.9535
 30
0.0
 10
39.0424
 20
3.9535
 30
0.0
 10
39.5467
 20
5.8956
 30
0.0
 10
39.6644
 20
10.4559
 30
0.0
 10
39.0424
 20
12.693
 30
0.0
  0
SPLINE
  5
B9
330
1F
100
AcDbEntity
  8
layer 1
 62
     7
100
AcDbSpline
210
0.0
220
0.0
230
1.0
 70
    11
 71
     3
 72
    20
 73
    16
 74
     0
 42
0.0000000001
 43
0.0000000001
 12
1.0
 22
0.0
 32
0.0
 13
1.0
 23
0.0
 33
0.0
 40
0.0
 40
0.0
 40
0.0
 40
0.0
 40
0.2
 40
0.2
 40
0.2
 40
0.2
 40
0.4
 40
0.4
 40
0.4
 40
0.4
 40
0.6
 40
0.6
 40
0.6
 40
0.6
 40
1.0
 40
1.0
 40
1.0
 40
1.0
 10
39.0424
 20
-45.1663
 30
0.0
 10
40.7128
 20
-46.0611
 30
0.0
 10
45.6641
 20
-46.2401
 30
0.0
 10
47.6924
 20
-45.1663
 30
0.0
 10
47.6924
 20
-45.1663
 30
0.0
 10
47.0787
 20
-46.9293
 30
0.0
 10
47.1384
 20
-52.2713
 30
0.0
 10
47.6473
 20
-53.876
 30
0.0
 10
47.6473
 20
-53.876
 30
0.0
 10
44.8436
 20
-53.19
 30
0.0
 10
42.0848
 20
-53.0408
 30
0.0
 10
39.0424
 20
-53.9058
 30
0.0
 10
39.0424
 20
-53.9058
 30
0.0
 10
39.5467
 20
-51.9637
 30
0.0
 10
39.6644
 20
-47.4034
 30
0.0
 10
39.0424
 20
-45.1663
 30
0.0
  0
SPLINE
  5
BA
330
1F
100
AcDbEntity
  8
layer 1
 62
     7
100
AcDbSpline
210
0.0
220
0.0
230
1.0
 70
    11
 71
     3
 72
    20
 73
    16
 74
     0
 42
0.0000000001
 43
0.0000000001
 12
1.0
 22
0.0
 32
0.0
 13
1.0
 23
0.0
 33
0.0
 40
0.0
 40
0.0
 40
0.0
 40
0.0
 40
0.2
 40
0.2
 40
0.2
 40
0.2
 40
0.4
 40
0.4
 40
0.4
 40
0.4
 40
0.6
 40
0.6
 40
0.6
 40
0.6
 40
1.0
 40
1.0
 40
1.0
 40
1.0
 10
36.7435
 20
-2.8067
 30
0.0
 10
39.0104
 20
-1.2258
 30
0.0
 10
47.0959
 20
-0.9574
 30
0.0
 10
49.9892
 20
-2.8067
 30
0.0
 10
49.9892
 20
-2.8067
 30
0.0
 10
49.1242
 20
-1.4893
 30
0.0
 10
48.8769
 20
-0.4469
 30
0.0
 10
48.3537
 20
0.9329
 30
0.0
 10
48.3537
 20
0.9329
 30
0.0
 10
45.5797
 20
1.3504
 30
0.0
 10
41.6066
 20
1.3378
 30
0.0
 10
38.3255
 20
0.8008
 30
0.0
 10
38.3255
 20
0.8008
 30
0.0
 10
37.9675
 20
-0.4818
 30
0.0
 10
37.372
 20
-1.8191
 30
0.0
 10
36.7435
 20
-2.8067
 30
0.0
  0
SPLINE
  5
BB
330
1F
100
AcDbEntity
  8
layer 1
 62
     7
100
AcDbSpline
210
0.0
220
0.0
230
1.0
 70
    11
 71
     3
 72
    20
 73
    16
 74
     0
 42
0.0000000001
 43
0.0000000001
 12
1.0
 22
0.0
 32
0.0
 13
1.0
 23
0.0
 33
0.0
 40
0.0
 40
0.0
 40
0.0
 40
0.0
 40
0.2
 40
0.2
 40
0.2
 40
0.2
 40
0.4
 40
0.4
 40
0.4
 40
0.4
 40
0.6
 40
0.6
 40
0.6
 40
0.6
 40
1.0
 40
1.0
 40
1.0
 40
1.0
 10
36.7435
 20
-60.666
 30
0.0
 10
39.0104
 20
-59.0851
 30
0.0
 10
47.0959
 20
-58.8167
 30
0.0
 10
49.9892
 20
-60.666
 30
0.0
 10
49.9892
 20
-60.666
 30
0.0
 10
49.1242
 20
-59.3486
 30
0.0
 10
48.8769
 20
-58.3062
 30
0.0
 10
48.3537
 20
-56.9264
 30
0.0
 10
48.3537
 20
-56.9264
 30
0.0
 10
45.5797
 20
-56.5089
 30
0.0
 10
41.6066
 20
-56.5215
 30
0.0
 10
38.3255
 20
-57.0585
 30
0.0
 10
38.3255
 20
-57.0585
 30
0.0
 10
37.9675
 20
-58.3411
 30
0.0
 10
37.372
 20
-59.6784
 30
0.0
 10
36.7435
 20
-60.666
 30
0.0
  0
SPLINE
  5
BC
330
1F
100
AcDbEntity
  8
layer 1
 62
     7
100
AcDbSpline
210
0.0
220
0.0
230
1.0
 70
    11
 71
     3
 72
    32
 73
    28
 74
     0
 42
0.0000000001
 43
0.0000000001
 12
1.0
 22
0.0
 32
0.0
 13
1.0
 23
0.0
 33
0.0
 40
0.0
 40
0.0
 40
0.0
 40
0.0
 40
0.125
 40
0.125
 40
0.125
 40
0.125
 40
0.25
 40
0.25
 40
0.25
 40
0.25
 40
0.375
 40
0.375
 40
0.375
 40
0.375
 40
0.5
 40
0.5
 40
0.5
 40
0.5
 40
0.625
 40
0.625
 40
0.625
 40
0.625
 40
0.75
 40
0.75
 40
0.75
 40
0.75
 40
1.0
 40
1.0
 40
1.0
 40
1.0
 10
145.6511
 20
8.2423
 30
0.0
 10
145.6511
 20
4.8548
 30
0.0
 10
144.5897
 20
1.7153
 30
0.0
 10
142.7814
 20
-0.862
 30
0.0
 10
142.7814
 20
-0.862
 30
0.0
 10
142.7814
 20
-0.862
 30
0.0
 10
135.1834
 20
6.1685
 30
0.0
 10
135.1834
 20
6.1685
 30
0.0
 10
135.1834
 20
6.1685
 30
0.0
 10
135.1834
 20
6.1685
 30
0.0
 10
137.1345
 20
8.1233
 30
0.0
 10
137.1345
 20
8.1233
 30
0.0
 10
137.1345
 20
8.1233
 30
0.0
 10
137.1345
 20
8.1233
 30
0.0
 10
135.2189
 20
10.0792
 30
0.0
 10
135.2189
 20
10.0792
 30
0.0
 10
135.2189
 20
10.0792
 30
0.0
 10
135.2189
 20
10.0792
 30
0.0
 10
142.6859
 20
17.4809
 30
0.0
 10
142.6859
 20
17.4809
 30
0.0
 10
142.6859
 20
17.4809
 30
0.0
 10
144.5523
 20
14.8788
 30
0.0
 10
145.6511
 20
11.6887
 30
0.0
 10
145.6511
 20
8.2422
 30
0.0
 10
145.6511
 20
8.2422
 30
0.0
 10
145.6511
 20
8.2422
 30
0.0
 10
145.6511
 20
8.2423
 30
0.0
 10
145.6511
 20
8.2423
 30
0.0
  0
SPLINE
  5
BD
330
1F
100
AcDbEntity
  8
layer 1
 62
     7
100
AcDbSpline
210
0.0
220
0.0
230
1.0
 70
    11
 71
     3
 72
    32
 73
    28
 74
     0
 42
0.0000000001
 43
0.0000000001
 12
1.0
 22
0.0
 32
0.0
 13
1.0
 23
0.0
 33
0.0
 40
0.0
 40
0.0
 40
0.0
 40
0.0
 40
0.125
 40
0.125
 40
0.125
 40
0.125
 40
0.25
 40
0.25
 40
0.25
 40
0.25
 40
0.375
 40
0.375
 40
0.375
 40
0.375
 40
0.5
 40
0.5
 40
0.5
 40
0.5
 40
0.625
 40
0.625
 40
0.625
 40
0.625
 40
0.75
 40
0.75
 40
0.75
 40
0.75
 40
1.0
 40
1.0
 40
1.0
 40
1.0
 10
145.6511
 20
-49.617
 30
0.0
 10
145.6511
 20
-53.0045
 30
0.0
 10
144.5897
 20
-56.144
 30
0.0
 10
142.7814
 20
-58.7213
 30
0.0
 10
142.7814
 20
-58.7213
 30
0.0
 10
142.7814
 20
-58.7213
 30
0.0
 10
135.1834
 20
-51.6908
 30
0.0
 10
135.1834
 20
-51.6908
 30
0.0
 10
135.1834
 20
-51.6908
 30
0.0
 10
135.1834
 20
-51.6908
 30
0.0
 10
137.1345
 20
-49.736
 30
0.0
 10
137.1345
 20
-49.736
 30
0.0
 10
137.1345
 20
-49.736
 30
0.0
 10
137.1345
 20
-49.736
 30
0.0
 10
135.2189
 20
-47.7801
 30
0.0
 10
135.2189
 20
-47.7801
 30
0.0
 10
135.2189
 20
-47.7801
 30
0.0
 10
135.2189
 20
-47.7801
 30
0.0
 10
142.6859
 20
-40.3784
 30
0.0
 10
142.6859
 20
-40.3784
 30
0.0
 10
142.6859
 20
-40.3784
 30
0.0
 10
144.5523
 20
-42.9805
 30
0.0
 10
145.6511
 20
-46.1706
 30
0.0
 10
145.6511
 20
-49.6171
 30
0.0
 10
145.6511
 20
-49.6171
 30
0.0
 10
145.6511
 20
-49.6171
 30
0.0
 10
145.6511
 20
-49.617
 30
0.0
 10
145.6511
 20
-49.617
 30
0.0
  0
SPLINE
  5
BE
330
1F
100
AcDbEntity
  8
layer 1
 62
     7
100
AcDbSpline
210
0.0
220
0.0
230
1.0
 70
    11
 71
     3
 72
    20
 73
    16
 74
     0
 42
0.0000000001
 43
0.0000000001
 12
1.0
 22
0.0
 32
0.0
 13
1.0
 23
0.0
 33
0.0
 40
0.0
 40
0.0
 40
0.0
 40
0.0
 40
0.2
 40
0.2
 40
0.2
 40
0.2
 40
0.4
 40
0.4
 40
0.4
 40
0.4
 40
0.6
 40
0.6
 40
0.6
 40
0.6
 40
1.0
 40
1.0
 40
1.0
 40
1.0
 10
151.947
 20
19.5533
 30
0.0
 10
154.2139
 20
17.9724
 30
0.0
 10
162.2993
 20
17.7039
 30
0.0
 10
165.1926
 20
19.5533
 30
0.0
 10
165.1926
 20
19.5533
 30
0.0
 10
164.4963
 20
18.3858
 30
0.0
 10
163.9491
 20
17.156
 30
0.0
 10
163.5759
 20
15.8137
 30
0.0
 10
163.5759
 20
15.8137
 30
0.0
 10
160.8018
 20
15.3961
 30
0.0
 10
156.8099
 20
15.4088
 30
0.0
 10
153.5289
 20
15.9458
 30
0.0
 10
153.5289
 20
15.9458
 30
0.0
 10
153.1709
 20
17.2284
 30
0.0
 10
152.5755
 20
18.5657
 30
0.0
 10
151.947
 20
19.5533
 30
0.0
  0
SPLINE
  5
BF
330
1F
100
AcDbEntity
  8
layer 1
 62
     7
100
AcDbSpline
210
0.0
220
0.0
230
1.0
 70
    11
 71
     3
 72
    20
 73
    16
 74
     0
 42
0.0000000001
 43
0.0000000001
 12
1.0
 22
0.0
 32
0.0
 13
1.0
 23
0.0
 33
0.0
 40
0.0
 40
0.0
 40
0.0
 40
0.0
 40
0.2
 40
0.2
 40
0.2
 40
0.2
 40
0.4
 40
0.4
 40
0.4
 40
0.4
 40
0.6
 40
0.6
 40
0.6
 40
0.6
 40
1.0
 40
1.0
 40
1.0
 40
1.0
 10
151.947
 20
-38.306
 30
0.0
 10
154.2139
 20
-39.8869
 30
0.0
 10
162.2993
 20
-40.1554
 30
0.0
 10
165.1926
 20
-38.306
 30
0.0
 10
165.1926
 20
-38.306
 30
0.0
 10
164.4963
 20
-39.4735
 30
0.0
 10
163.9491
 20
-40.7033
 30
0.0
 10
163.5759
 20
-42.0456
 30
0.0
 10
163.5759
 20
-42.0456
 30
0.0
 10
160.8018
 20
-42.4632
 30
0.0
 10
156.8099
 20
-42.4505
 30
0.0
 10
153.5289
 20
-41.9135
 30
0.0
 10
153.5289
 20
-41.9135
 30
0.0
 10
153.1709
 20
-40.6309
 30
0.0
 10
152.5755
 20
-39.2936
 30
0.0
 10
151.947
 20
-38.306
 30
0.0
  0
SPLINE
  5
C0
330
1F
100
AcDbEntity
  8
layer 1
 62
     7
100
AcDbSpline
210
0.0
220
0.0
230
1.0
 70
    11
 71
     3
 72
    20
 73
    16
 74
     0
 42
0.0000000001
 43
0.0000000001
 12
1.0
 22
0.0
 32
0.0
 13
1.0
 23
0.0
 33
0.0
 40
0.0
 40
0.0
 40
0.0
 40
0.0
 40
0.2
 40
0.2
 40
0.2
 40
0.2
 40
0.4
 40
0.4
 40
0.4
 40
0.4
 40
0.6
 40
0.6
 40
0.6
 40
0.6
 40
1.0
 40
1.0
 40
1.0
 40
1.0
 10
151.947
 20
-96.1653
 30
0.0
 10
154.2139
 20
-97.7462
 30
0.0
 10
162.2993
 20
-98.0147
 30
0.0
 10
165.1926
 20
-96.1653
 30
0.0
 10
165.1926
 20
-96.1653
 30
0.0
 10
164.4963
 20
-97.3328
 30
0.0
 10
163.9491
 20
-98.5626
 30
0.0
 10
163.5759
 20
-99.9049
 30
0.0
 10
163.5759
 20
-99.9049
 30
0.0
 10
160.8018
 20
-100.3225
 30
0.0
 10
156.8099
 20
-100.3098
 30
0.0
 10
153.5289
 20
-99.7728
 30
0.0
 10
153.5289
 20
-99.7728
 30
0.0
 10
153.1709
 20
-98.4902
 30
0.0
 10
152.5755
 20
-97.1529
 30
0.0
 10
151.947
 20
-96.1653
 30
0.0
  0
SPLINE
  5
C1
330
1F
100
AcDbEntity
  8
layer 1
 62
     7
100
AcDbSpline
210
0.0
220
0.0
230
1.0
 70
    11
 71
     3
 72
    20
 73
    16
 74
     0
 42
0.0000000001
 43
0.0000000001
 12
1.0
 22
0.0
 32
0.0
 13
1.0
 23
0.0
 33
0.0
 40
0.0
 40
0.0
 40
0.0
 40
0.0
 40
0.2
 40
0.2
 40
0.2
 40
0.2
 40
0.4
 40
0.4
 40
0.4
 40
0.4
 40
0.6
 40
0.6
 40
0.6
 40
0.6
 40
1.0
 40
1.0
 40
1.0
 40
1.0
 10
154.2459
 20
12.693
 30
0.0
 10
155.9162
 20
11.7982
 30
0.0
 10
160.8676
 20
11.6192
 30
0.0
 10
162.8959
 20
12.693
 30
0.0
 10
162.8959
 20
12.693
 30
0.0
 10
162.2822
 20
10.93
 30
0.0
 10
162.3419
 20
5.588
 30
0.0
 10
162.8508
 20
3.9833
 30
0.0
 10
162.8508
 20
3.9833
 30
0.0
 10
160.047
 20
4.6693
 30
0.0
 10
157.2883
 20
4.8185
 30
0.0
 10
154.2459
 20
3.9535
 30
0.0
 10
154.2459
 20
3.9535
 30
0.0
 10
154.7501
 20
5.8956
 30
0.0
 10
154.8678
 20
10.4559
 30
0.0
 10
154.2459
 20
12.693
 30
0.0
  0
SPLINE
  5
C2
330
1F
100
AcDbEntity
  8
layer 1
 62
     7
100
AcDbSpline
210
0.0
220
0.0
230
1.0
 70
    11
 71
     3
 72
    20
 73
    16
 74
     0
 42
0.0000000001
 43
0.0000000001
 12
1.0
 22
0.0
 32
0.0
 13
1.0
 23
0.0
 33
0.0
 40
0.0
 40
0.0
 40
0.0
 40
0.0
 40
0.2
 40
0.2
 40
0.2
 40
0.2
 40
0.4
 40
0.4
 40
0.4
 40
0.4
 40
0.6
 40
0.6
 40
0.6
 40
0.6
 40
1.0
 40
1.0
 40
1.0
 40
1.0
 10
154.2459
 20
-45.1663
 30
0.0
 10
155.9162
 20
-46.0611
 30
0.0
 10
160.8676
 20
-46.2401
 30
0.0
 10
162.8959
 20
-45.1663
 30
0.0
 10
162.8959
 20
-45.1663
 30
0.0
 10
162.2822
 20
-46.9293
 30
0.0
 10
162.3419
 20
-52.2713
 30
0.0
 10
162.8508
 20
-53.876
 30
0.0
 10
162.8508
 20
-53.876
 30
0.0
 10
160.047
 20
-53.19
 30
0.0
 10
157.2883
 20
-53.0408
 30
0.0
 10
154.2459
 20
-53.9058
 30
0.0
 10
154.2459
 20
-53.9058
 30
0.0
 10
154.7501
 20
-51.9637
 30
0.0
 10
154.8678
 20
-47.4034
 30
0.0
 10
154.2459
 20
-45.1663
 30
0.0
  0
SPLINE
  5
C3
330
1F
100
AcDbEntity
  8
layer 1
 62
     7
100
AcDbSpline
210
0.0
220
0.0
230
1.0
 70
    11
 71
     3
 72
    20
 73
    16
 74
     0
 42
0.0000000001
 43
0.0000000001
 12
1.0
 22
0.0
 32
0.0
 13
1.0
 23
0.0
 33
0.0
 40
0.0
 40
0.0
 40
0.0
 40
0.0
 40
0.2
 40
0.2
 40
0.2
 40
0.2
 40
0.4
 40
0.4
 40
0.4
 40
0.4
 40
0.6
 40
0.6
 40
0.6
 40
0.6
 40
1.0
 40
1.0
 40
1.0
 40
1.0
 10
151.947
 20
-2.8067
 30
0.0
 10
154.2139
 20
-1.2258
 30
0.0
 10
162.2993
 20
-0.9574
 30
0.0
 10
165.1926
 20
-2.8067
 30
0.0
 10
165.1926
 20
-2.8067
 30
0.0
 10
164.3277
 20
-1.4893
 30
0.0
 10
164.0803
 20
-0.4469
 30
0.0
 10
163.5572
 20
0.9329
 30
0.0
 10
163.5572
 20
0.9329
 30
0.0
 10
160.7832
 20
1.3504
 30
0.0
 10
156.81
 20
1.3378
 30
0.0
 10
153.5289
 20
0.8008
 30
0.0
 10
153.5289
 20
0.8008
 30
0.0
 10
153.1709
 20
-0.4818
 30
0.0
 10
152.5755
 20
-1.8191
 30
0.0
 10
151.947
 20
-2.8067
 30
0.0
  0
SPLINE
  5
C4
330
1F
100
AcDbEntity
  8
layer 1
 62
     7
100
AcDbSpline
210
0.0
220
0.0
230
1.0
 70
    11
 71
     3
 72
    20
 73
    16
 74
     0
 42
0.0000000001
 43
0.0000000001
 12
1.0
 22
0.0
 32
0.0
 13
1.0
 23
0.0
 33
0.0
 40
0.0
 40
0.0
 40
0.0
 40
0.0
 40
0.2
 40
0.2
 40
0.2
 40
0.2
 40
0.4
 40
0.4
 40
0.4
 40
0.4
 40
0.6
 40
0.6
 40
0.6
 40
0.6
 40
1.0
 40
1.0
 40
1.0
 40
1.0
 10
151.947
 20
-60.666
 30
0.0
 10
154.2139
 20
-59.0851
 30
0.0
 10
162.2993
 20
-58.8167
 30
0.0
 10
165.1926
 20
-60.666
 30
0.0
 10
165.1926
 20
-60.666
 30
0.0
 10
164.3277
 20
-59.3486
 30
0.0
 10
164.0803
 20
-58.3062
 30
0.0
 10
163.5572
 20
-56.9264
 30
0.0
 10
163.5572
 20
-56.9264
 30
0.0
 10
160.7832
 20
-56.5089
 30
0.0
 10
156.81
 20
-56.5215
 30
0.0
 10
153.5289
 20
-57.0585
 30
0.0
 10
153.5289
 20
-57.0585
 30
0.0
 10
153.1709
 20
-58.3411
 30
0.0
 10
152.5755
 20
-59.6784
 30
0.0
 10
151.947
 20
-60.666
 30
0.0
  0
SPLINE
  5
C5
330
1F
100
AcDbEntity
  8
layer 1
 62
     7
100
AcDbSpline
210
0.0
220
0.0
230
1.0
 70
    11
 71
     3
 72
    32
 73
    28
 74
     0
 42
0.0000000001
 43
0.0000000001
 12
1.0
 22
0.0
 32
0.0
 13
1.0
 23
0.0
 33
0.0
 40
0.0
 40
0.0
 40
0.0
 40
0.0
 40
0.125
 40
0.125
 40
0.125
 40
0.125
 40
0.25
 40
0.25
 40
0.25
 40
0.25
 40
0.375
 40
0.375
 40
0.375
 40
0.375
 40
0.5
 40
0.5
 40
0.5
 40
0.5
 40
0.625
 40
0.625
 40
0.625
 40
0.625
 40
0.75
 40
0.75
 40
0.75
 40
0.75
 40
1.0
 40
1.0
 40
1.0
 40
1.0
 10
113.7507
 20
8.2423
 30
0.0
 10
113.7507
 20
4.8548
 30
0.0
 10
114.812
 20
1.7153
 30
0.0
 10
116.6203
 20
-0.862
 30
0.0
 10
116.6203
 20
-0.862
 30
0.0
 10
116.6203
 20
-0.862
 30
0.0
 10
124.2184
 20
6.1685
 30
0.0
 10
124.2184
 20
6.1685
 30
0.0
 10
124.2184
 20
6.1685
 30
0.0
 10
124.2184
 20
6.1685
 30
0.0
 10
122.2672
 20
8.1233
 30
0.0
 10
122.2672
 20
8.1233
 30
0.0
 10
122.2672
 20
8.1233
 30
0.0
 10
122.2672
 20
8.1233
 30
0.0
 10
124.1828
 20
10.0792
 30
0.0
 10
124.1828
 20
10.0792
 30
0.0
 10
124.1828
 20
10.0792
 30
0.0
 10
124.1828
 20
10.0792
 30
0.0
 10
116.7158
 20
17.4809
 30
0.0
 10
116.7158
 20
17.4809
 30
0.0
 10
116.7158
 20
17.4809
 30
0.0
 10
114.8495
 20
14.8788
 30
0.0
 10
113.7507
 20
11.6887
 30
0.0
 10
113.7507
 20
8.2422
 30
0.0
 10
113.7507
 20
8.2422
 30
0.0
 10
113.7507
 20
8.2422
 30
0.0
 10
113.7507
 20
8.2423
 30
0.0
 10
113.7507
 20
8.2423
 30
0.0
  0
SPLINE
  5
C6
330
1F
100
AcDbEntity
  8
layer 1
 62
     7
100
AcDbSpline
210
0.0
220
0.0
230
1.0
 70
    11
 71
     3
 72
    32
 73
    28
 74
     0
 42
0.0000000001
 43
0.0000000001
 12
1.0
 22
0.0
 32
0.0
 13
1.0
 23
0.0
 33
0.0
 40
0.0
 40
0.0
 40
0.0
 40
0.0
 40
0.125
 40
0.125
 40
0.125
 40
0.125
 40
0.25
 40
0.25
 40
0.25
 40
0.25
 40
0.375
 40
0.375
 40
0.375
 40
0.375
 40
0.5
 40
0.5
 40
0.5
 40
0.5
 40
0.625
 40
0.625
 40
0.625
 40
0.625
 40
0.75
 40
0.75
 40
0.75
 40
0.75
 40
1.0
 40
1.0
 40
1.0
 40
1.0
 10
113.7507
 20
-49.617
 30
0.0
 10
113.7507
 20
-53.0045
 30
0.0
 10
114.812
 20
-56.144
 30
0.0
 10
116.6203
 20
-58.7213
 30
0.0
 10
116.6203
 20
-58.7213
 30
0.0
 10
116.6203
 20
-58.7213
 30
0.0
 10
124.2184
 20
-51.6908
 30
0.0
 10
124.2184
 20
-51.6908
 30
0.0
 10
124.2184
 20
-51.6908
 30
0.0
 10
124.2184
 20
-51.6908
 30
0.0
 10
122.2672
 20
-49.736
 30
0.0
 10
122.2672
 20
-49.736
 30
0.0
 10
122.2672
 20
-49.736
 30
0.0
 10
122.2672
 20
-49.736
 30
0.0
 10
124.1828
 20
-47.7801
 30
0.0
 10
124.1828
 20
-47.7801
 30
0.0
 10
124.1828
 20
-47.7801
 30
0.0
 10
124.1828
 20
-47.7801
 30
0.0
 10
116.7158
 20
-40.3784
 30
0.0
 10
116.7158
 20
-40.3784
 30
0.0
 10
116.7158
 20
-40.3784
 30
0.0
 10
114.8495
 20
-42.9805
 30
0.0
 10
113.7507
 20
-46.1706
 30
0.0
 10
113.7507
 20
-49.6171
 30
0.0
 10
113.7507
 20
-49.6171
 30
0.0
 10
113.7507
 20
-49.6171
 30
0.0
 10
113.7507
 20
-49.617
 30
0.0
 10
113.7507
 20
-49.617
 30
0.0
  0
SPLINE
  5
C7
330
1F
100
AcDbEntity
  8
layer 1
 62
     7
100
AcDbSpline
210
0.0
220
0.0
230
1.0
 70
    11
 71
     3
 72
    32
 73
    28
 74
     0
 42
0.0000000001
 43
0.0000000001
 12
1.0
 22
0.0
 32
0.0
 13
1.0
 23
0.0
 33
0.0
 40
0.0
 40
0.0
 40
0.0
 40
0.0
 40
0.125
 40
0.125
 40
0.125
 40
0.125
 40
0.25
 40
0.25
 40
0.25
 40
0.25
 40
0.375
 40
0.375
 40
0.375
 40
0.375
 40
0.5
 40
0.5
 40
0.5
 40
0.5
 40
0.625
 40
0.625
 40
0.625
 40
0.625
 40
0.75
 40
0.75
 40
0.75
 40
0.75
 40
1.0
 40
1.0
 40
1.0
 40
1.0
 10
171.2925
 20
8.2423
 30
0.0
 10
171.2925
 20
4.8548
 30
0.0
 10
172.3538
 20
1.7153
 30
0.0
 10
174.1622
 20
-0.862
 30
0.0
 10
174.1622
 20
-0.862
 30
0.0
 10
174.1622
 20
-0.862
 30
0.0
 10
181.7602
 20
6.1685
 30
0.0
 10
181.7602
 20
6.1685
 30
0.0
 10
181.7602
 20
6.1685
 30
0.0
 10
181.7602
 20
6.1685
 30
0.0
 10
179.8091
 20
8.1233
 30
0.0
 10
179.8091
 20
8.1233
 30
0.0
 10
179.8091
 20
8.1233
 30
0.0
 10
179.8091
 20
8.1233
 30
0.0
 10
181.7246
 20
10.0792
 30
0.0
 10
181.7246
 20
10.0792
 30
0.0
 10
181.7246
 20
10.0792
 30
0.0
 10
181.7246
 20
10.0792
 30
0.0
 10
174.2576
 20
17.4809
 30
0.0
 10
174.2576
 20
17.4809
 30
0.0
 10
174.2576
 20
17.4809
 30
0.0
 10
172.3913
 20
14.8788
 30
0.0
 10
171.2925
 20
11.6887
 30
0.0
 10
171.2925
 20
8.2422
 30
0.0
 10
171.2925
 20
8.2422
 30
0.0
 10
171.2925
 20
8.2422
 30
0.0
 10
171.2925
 20
8.2423
 30
0.0
 10
171.2925
 20
8.2423
 30
0.0
  0
SPLINE
  5
C8
330
1F
100
AcDbEntity
  8
layer 1
 62
     7
100
AcDbSpline
210
0.0
220
0.0
230
1.0
 70
    11
 71
     3
 72
    32
 73
    28
 74
     0
 42
0.0000000001
 43
0.0000000001
 12
1.0
 22
0.0
 32
0.0
 13
1.0
 23
0.0
 33
0.0
 40
0.0
 40
0.0
 40
0.0
 40
0.0
 40
0.125
 40
0.125
 40
0.125
 40
0.125
 40
0.25
 40
0.25
 40
0.25
 40
0.25
 40
0.375
 40
0.375
 40
0.375
 40
0.375
 40
0.5
 40
0.5
 40
0.5
 40
0.5
 40
0.625
 40
0.625
 40
0.625
 40
0.625
 40
0.75
 40
0.75
 40
0.75
 40
0.75
 40
1.0
 40
1.0
 40
1.0
 40
1.0
 10
171.2925
 20
-49.617
 30
0.0
 10
171.2925
 20
-53.0045
 30
0.0
 10
172.3538
 20
-56.144
 30
0.0
 10
174.1622
 20
-58.7213
 30
0.0
 10
174.1622
 20
-58.7213
 30
0.0
 10
174.1622
 20
-58.7213
 30
0.0
 10
181.7602
 20
-51.6908
 30
0.0
 10
181.7602
 20
-51.6908
 30
0.0
 10
181.7602
 20
-51.6908
 30
0.0
 10
181.7602
 20
-51.6908
 30
0.0
 10
179.8091
 20
-49.736
 30
0.0
 10
179.8091
 20
-49.736
 30
0.0
 10
179.8091
 20
-49.736
 30
0.0
 10
179.8091
 20
-49.736
 30
0.0
 10
181.7246
 20
-47.7801
 30
0.0
 10
181.7246
 20
-47.7801
 30
0.0
 10
181.7246
 20
-47.7801
 30
0.0
 10
181.7246
 20
-47.7801
 30
0.0
 10
174.2576
 20
-40.3784
 30
0.0
 10
174.2576
 20
-40.3784
 30
0.0
 10
174.2576
 20
-40.3784
 30
0.0
 10
172.3913
 20
-42.9805
 30
0.0
 10
171.2925
 20
-46.1706
 30
0.0
 10
171.2925
 20
-49.6171
 30
0.0
 10
171.2925
 20
-49.6171
 30
0.0
 10
171.2925
 20
-49.6171
 30
0.0
 10
171.2925
 20
-49.617
 30
0.0
 10
171.2925
 20
-49.617
 30
0.0
  0
SPLINE
  5
C9
330
1F
100
AcDbEntity
  8
layer 1
 62
     7
100
AcDbSpline
210
0.0
220
0.0
230
1.0
 70
    11
 71
     3
 72
    32
 73
    28
 74
     0
 42
0.0000000001
 43
0.0000000001
 12
1.0
 22
0.0
 32
0.0
 13
1.0
 23
0.0
 33
0.0
 40
0.0
 40
0.0
 40
0.0
 40
0.0
 40
0.125
 40
0.125
 40
0.125
 40
0.125
 40
0.25
 40
0.25
 40
0.25
 40
0.25
 40
0.375
 40
0.375
 40
0.375
 40
0.375
 40
0.5
 40
0.5
 40
0.5
 40
0.5
 40
0.625
 40
0.625
 40
0.625
 40
0.625
 40
0.75
 40
0.75
 40
0.75
 40
0.75
 40
1.0
 40
1.0
 40
1.0
 40
1.0
 10
129.7026
 20
24.2511
 30
0.0
 10
126.3151
 20
24.2511
 30
0.0
 10
123.1756
 20
23.1897
 30
0.0
 10
120.5983
 20
21.3814
 30
0.0
 10
120.5983
 20
21.3814
 30
0.0
 10
120.5983
 20
21.3814
 30
0.0
 10
127.6288
 20
13.7834
 30
0.0
 10
127.6288
 20
13.7834
 30
0.0
 10
127.6288
 20
13.7834
 30
0.0
 10
127.6288
 20
13.7834
 30
0.0
 10
129.5836
 20
15.7345
 30
0.0
 10
129.5836
 20
15.7345
 30
0.0
 10
129.5836
 20
15.7345
 30
0.0
 10
129.5836
 20
15.7345
 30
0.0
 10
131.5395
 20
13.8189
 30
0.0
 10
131.5395
 20
13.8189
 30
0.0
 10
131.5395
 20
13.8189
 30
0.0
 10
131.5395
 20
13.8189
 30
0.0
 10
138.9412
 20
21.2859
 30
0.0
 10
138.9412
 20
21.2859
 30
0.0
 10
138.9412
 20
21.2859
 30
0.0
 10
136.3391
 20
23.1523
 30
0.0
 10
133.149
 20
24.2511
 30
0.0
 10
129.7025
 20
24.2511
 30
0.0
 10
129.7025
 20
24.2511
 30
0.0
 10
129.7025
 20
24.2511
 30
0.0
 10
129.7026
 20
24.2511
 30
0.0
 10
129.7026
 20
24.2511
 30
0.0
  0
SPLINE
  5
CA
330
1F
100
AcDbEntity
  8
layer 1
 62
     7
100
AcDbSpline
210
0.0
220
0.0
230
1.0
 70
    11
 71
     3
 72
    32
 73
    28
 74
     0
 42
0.0000000001
 43
0.0000000001
 12
1.0
 22
0.0
 32
0.0
 13
1.0
 23
0.0
 33
0.0
 40
0.0
 40
0.0
 40
0.0
 40
0.0
 40
0.125
 40
0.125
 40
0.125
 40
0.125
 40
0.25
 40
0.25
 40
0.25
 40
0.25
 40
0.375
 40
0.375
 40
0.375
 40
0.375
 40
0.5
 40
0.5
 40
0.5
 40
0.5
 40
0.625
 40
0.625
 40
0.625
 40
0.625
 40
0.75
 40
0.75
 40
0.75
 40
0.75
 40
1.0
 40
1.0
 40
1.0
 40
1.0
 10
129.7026
 20
-33.6082
 30
0.0
 10
126.3151
 20
-33.6082
 30
0.0
 10
123.1756
 20
-34.6696
 30
0.0
 10
120.5983
 20
-36.4779
 30
0.0
 10
120.5983
 20
-36.4779
 30
0.0
 10
120.5983
 20
-36.4779
 30
0.0
 10
127.6288
 20
-44.0759
 30
0.0
 10
127.6288
 20
-44.0759
 30
0.0
 10
127.6288
 20
-44.0759
 30
0.0
 10
127.6288
 20
-44.0759
 30
0.0
 10
129.5836
 20
-42.1248
 30
0.0
 10
129.5836
 20
-42.1248
 30
0.0
 10
129.5836
 20
-42.1248
 30
0.0
 10
129.5836
 20
-42.1248
 30
0.0
 10
131.5395
 20
-44.0404
 30
0.0
 10
131.5395
 20
-44.0404
 30
0.0
 10
131.5395
 20
-44.0404
 30
0.0
 10
131.5395
 20
-44.0404
 30
0.0
 10
138.9412
 20
-36.5734
 30
0.0
 10
138.9412
 20
-36.5734
 30
0.0
 10
138.9412
 20
-36.5734
 30
0.0
 10
136.3391
 20
-34.707
 30
0.0
 10
133.149
 20
-33.6082
 30
0.0
 10
129.7025
 20
-33.6082
 30
0.0
 10
129.7025
 20
-33.6082
 30
0.0
 10
129.7025
 20
-33.6082
 30
0.0
 10
129.7026
 20
-33.6082
 30
0.0
 10
129.7026
 20
-33.6082
 30
0.0
  0
SPLINE
  5
CB
330
1F
100
AcDbEntity
  8
layer 1
 62
     7
100
AcDbSpline
210
0.0
220
0.0
230
1.0
 70
    11
 71
     3
 72
    32
 73
    28
 74
     0
 42
0.0000000001
 43
0.0000000001
 12
1.0
 22
0.0
 32
0.0
 13
1.0
 23
0.0
 33
0.0
 40
0.0
 40
0.0
 40
0.0
 40
0.0
 40
0.125
 40
0.125
 40
0.125
 40
0.125
 40
0.25
 40
0.25
 40
0.25
 40
0.25
 40
0.375
 40
0.375
 40
0.375
 40
0.375
 40
0.5
 40
0.5
 40
0.5
 40
0.5
 40
0.625
 40
0.625
 40
0.625
 40
0.625
 40
0.75
 40
0.75
 40
0.75
 40
0.75
 40
1.0
 40
1.0
 40
1.0
 40
1.0
 10
129.7026
 20
-91.4675
 30
0.0
 10
126.3151
 20
-91.4675
 30
0.0
 10
123.1756
 20
-92.5289
 30
0.0
 10
120.5983
 20
-94.3372
 30
0.0
 10
120.5983
 20
-94.3372
 30
0.0
 10
120.5983
 20
-94.3372
 30
0.0
 10
127.6288
 20
-101.9352
 30
0.0
 10
127.6288
 20
-101.9352
 30
0.0
 10
127.6288
 20
-101.9352
 30
0.0
 10
127.6288
 20
-101.9352
 30
0.0
 10
129.5836
 20
-99.9841
 30
0.0
 10
129.5836
 20
-99.9841
 30
0.0
 10
129.5836
 20
-99.9841
 30
0.0
 10
129.5836
 20
-99.9841
 30
0.0
 10
131.5395
 20
-101.8997
 30
0.0
 10
131.5395
 20
-101.8997
 30
0.0
 10
131.5395
 20
-101.8997
 30
0.0
 10
131.5395
 20
-101.8997
 30
0.0
 10
138.9412
 20
-94.4327
 30
0.0
 10
138.9412
 20
-94.4327
 30
0.0
 10
138.9412
 20
-94.4327
 30
0.0
 10
136.3391
 20
-92.5663
 30
0.0
 10
133.149
 20
-91.4675
 30
0.0
 10
129.7025
 20
-91.4675
 30
0.0
 10
129.7025
 20
-91.4675
 30
0.0
 10
129.7025
 20
-91.4675
 30
0.0
 10
129.7026
 20
-91.4675
 30
0.0
 10
129.7026
 20
-91.4675
 30
0.0
  0
SPLINE
  5
CC
330
1F
100
AcDbEntity
  8
layer 1
 62
     7
100
AcDbSpline
210
0.0
220
0.0
230
1.0
 70
    11
 71
     3
 72
    32
 73
    28
 74
     0
 42
0.0000000001
 43
0.0000000001
 12
1.0
 22
0.0
 32
0.0
 13
1.0
 23
0.0
 33
0.0
 40
0.0
 40
0.0
 40
0.0
 40
0.0
 40
0.125
 40
0.125
 40
0.125
 40
0.125
 40
0.25
 40
0.25
 40
0.25
 40
0.25
 40
0.375
 40
0.375
 40
0.375
 40
0.375
 40
0.5
 40
0.5
 40
0.5
 40
0.5
 40
0.625
 40
0.625
 40
0.625
 40
0.625
 40
0.75
 40
0.75
 40
0.75
 40
0.75
 40
1.0
 40
1.0
 40
1.0
 40
1.0
 10
129.8061
 20
-7.6061
 30
0.0
 10
126.4186
 20
-7.6061
 30
0.0
 10
123.2791
 20
-6.5448
 30
0.0
 10
120.7018
 20
-4.7364
 30
0.0
 10
120.7018
 20
-4.7364
 30
0.0
 10
120.7018
 20
-4.7364
 30
0.0
 10
127.7323
 20
2.8616
 30
0.0
 10
127.7323
 20
2.8616
 30
0.0
 10
127.7323
 20
2.8616
 30
0.0
 10
127.7323
 20
2.8616
 30
0.0
 10
129.6871
 20
0.9105
 30
0.0
 10
129.6871
 20
0.9105
 30
0.0
 10
129.6871
 20
0.9105
 30
0.0
 10
129.6871
 20
0.9105
 30
0.0
 10
131.643
 20
2.826
 30
0.0
 10
131.643
 20
2.826
 30
0.0
 10
131.643
 20
2.826
 30
0.0
 10
131.643
 20
2.826
 30
0.0
 10
139.0447
 20
-4.641
 30
0.0
 10
139.0447
 20
-4.641
 30
0.0
 10
139.0447
 20
-4.641
 30
0.0
 10
136.4426
 20
-6.5073
 30
0.0
 10
133.2525
 20
-7.6061
 30
0.0
 10
129.806
 20
-7.6061
 30
0.0
 10
129.806
 20
-7.6061
 30
0.0
 10
129.806
 20
-7.6061
 30
0.0
 10
129.8061
 20
-7.6061
 30
0.0
 10
129.8061
 20
-7.6061
 30
0.0
  0
SPLINE
  5
CD
330
1F
100
AcDbEntity
  8
layer 1
 62
     7
100
AcDbSpline
210
0.0
220
0.0
230
1.0
 70
    11
 71
     3
 72
    32
 73
    28
 74
     0
 42
0.0000000001
 43
0.0000000001
 12
1.0
 22
0.0
 32
0.0
 13
1.0
 23
0.0
 33
0.0
 40
0.0
 40
0.0
 40
0.0
 40
0.0
 40
0.125
 40
0.125
 40
0.125
 40
0.125
 40
0.25
 40
0.25
 40
0.25
 40
0.25
 40
0.375
 40
0.375
 40
0.375
 40
0.375
 40
0.5
 40
0.5
 40
0.5
 40
0.5
 40
0.625
 40
0.625
 40
0.625
 40
0.625
 40
0.75
 40
0.75
 40
0.75
 40
0.75
 40
1.0
 40
1.0
 40
1.0
 40
1.0
 10
129.8061
 20
-65.4654
 30
0.0
 10
126.4186
 20
-65.4654
 30
0.0
 10
123.2791
 20
-64.4041
 30
0.0
 10
120.7018
 20
-62.5957
 30
0.0
 10
120.7018
 20
-62.5957
 30
0.0
 10
120.7018
 20
-62.5957
 30
0.0
 10
127.7323
 20
-54.9977
 30
0.0
 10
127.7323
 20
-54.9977
 30
0.0
 10
127.7323
 20
-54.9977
 30
0.0
 10
127.7323
 20
-54.9977
 30
0.0
 10
129.6871
 20
-56.9488
 30
0.0
 10
129.6871
 20
-56.9488
 30
0.0
 10
129.6871
 20
-56.9488
 30
0.0
 10
129.6871
 20
-56.9488
 30
0.0
 10
131.643
 20
-55.0333
 30
0.0
 10
131.643
 20
-55.0333
 30
0.0
 10
131.643
 20
-55.0333
 30
0.0
 10
131.643
 20
-55.0333
 30
0.0
 10
139.0447
 20
-62.5003
 30
0.0
 10
139.0447
 20
-62.5003
 30
0.0
 10
139.0447
 20
-62.5003
 30
0.0
 10
136.4426
 20
-64.3666
 30
0.0
 10
133.2525
 20
-65.4654
 30
0.0
 10
129.806
 20
-65.4654
 30
0.0
 10
129.806
 20
-65.4654
 30
0.0
 10
129.806
 20
-65.4654
 30
0.0
 10
129.8061
 20
-65.4654
 30
0.0
 10
129.8061
 20
-65.4654
 30
0.0
  0
SPLINE
  5
CE
330
1F
100
AcDbEntity
  8
layer 1
 62
     7
100
AcDbSpline
210
0.0
220
0.0
230
1.0
 70
    11
 71
     3
 72
    20
 73
    16
 74
     0
 42
0.0000000001
 43
0.0000000001
 12
1.0
 22
0.0
 32
0.0
 13
1.0
 23
0.0
 33
0.0
 40
0.0
 40
0.0
 40
0.0
 40
0.0
 40
0.2
 40
0.2
 40
0.2
 40
0.2
 40
0.4
 40
0.4
 40
0.4
 40
0.4
 40
0.6
 40
0.6
 40
0.6
 40
0.6
 40
1.0
 40
1.0
 40
1.0
 40
1.0
 10
94.5059
 20
113.2766
 30
0.0
 10
96.7728
 20
114.8575
 30
0.0
 10
104.8582
 20
115.1259
 30
0.0
 10
107.7515
 20
113.2766
 30
0.0
 10
107.7515
 20
113.2766
 30
0.0
 10
106.8865
 20
114.594
 30
0.0
 10
106.6392
 20
115.6364
 30
0.0
 10
106.116
 20
117.0162
 30
0.0
 10
106.116
 20
117.0162
 30
0.0
 10
103.342
 20
117.4337
 30
0.0
 10
99.3689
 20
117.4211
 30
0.0
 10
96.0878
 20
116.8841
 30
0.0
 10
96.0878
 20
116.8841
 30
0.0
 10
95.7298
 20
115.6015
 30
0.0
 10
95.1344
 20
114.2642
 30
0.0
 10
94.5059
 20
113.2766
 30
0.0
  0
SPLINE
  5
CF
330
1F
100
AcDbEntity
  8
layer 1
 62
     7
100
AcDbSpline
210
0.0
220
0.0
230
1.0
 70
    11
 71
     3
 72
    32
 73
    28
 74
     0
 42
0.0000000001
 43
0.0000000001
 12
1.0
 22
0.0
 32
0.0
 13
1.0
 23
0.0
 33
0.0
 40
0.0
 40
0.0
 40
0.0
 40
0.0
 40
0.125
 40
0.125
 40
0.125
 40
0.125
 40
0.25
 40
0.25
 40
0.25
 40
0.25
 40
0.375
 40
0.375
 40
0.375
 40
0.375
 40
0.5
 40
0.5
 40
0.5
 40
0.5
 40
0.625
 40
0.625
 40
0.625
 40
0.625
 40
0.75
 40
0.75
 40
0.75
 40
0.75
 40
1.0
 40
1.0
 40
1.0
 40
1.0
 10
72.365
 20
108.4772
 30
0.0
 10
68.9775
 20
108.4772
 30
0.0
 10
65.838
 20
109.5385
 30
0.0
 10
63.2607
 20
111.3469
 30
0.0
 10
63.2607
 20
111.3469
 30
0.0
 10
63.2607
 20
111.3469
 30
0.0
 10
70.2912
 20
118.9449
 30
0.0
 10
70.2912
 20
118.9449
 30
0.0
 10
70.2912
 20
118.9449
 30
0.0
 10
70.2912
 20
118.9449
 30
0.0
 10
72.246
 20
116.9938
 30
0.0
 10
72.246
 20
116.9938
 30
0.0
 10
72.246
 20
116.9938
 30
0.0
 10
72.246
 20
116.9938
 30
0.0
 10
74.2018
 20
118.9093
 30
0.0
 10
74.2018
 20
118.9093
 30
0.0
 10
74.2018
 20
118.9093
 30
0.0
 10
74.2018
 20
118.9093
 30
0.0
 10
81.6036
 20
111.4423
 30
0.0
 10
81.6036
 20
111.4423
 30
0.0
 10
81.6036
 20
111.4423
 30
0.0
 10
79.0014
 20
109.576
 30
0.0
 10
75.8114
 20
108.4772
 30
0.0
 10
72.3649
 20
108.4772
 30
0.0
 10
72.3649
 20
108.4772
 30
0.0
 10
72.3649
 20
108.4772
 30
0.0
 10
72.365
 20
108.4772
 30
0.0
 10
72.365
 20
108.4772
 30
0.0
  0
SPLINE
  5
D0
330
1F
100
AcDbEntity
  8
layer 1
 62
     7
100
AcDbSpline
210
0.0
220
0.0
230
1.0
 70
    11
 71
     3
 72
    20
 73
    16
 74
     0
 42
0.0000000001
 43
0.0000000001
 12
1.0
 22
0.0
 32
0.0
 13
1.0
 23
0.0
 33
0.0
 40
0.0
 40
0.0
 40
0.0
 40
0.0
 40
0.2
 40
0.2
 40
0.2
 40
0.2
 40
0.4
 40
0.4
 40
0.4
 40
0.4
 40
0.6
 40
0.6
 40
0.6
 40
0.6
 40
1.0
 40
1.0
 40
1.0
 40
1.0
 10
36.8442
 20
113.2766
 30
0.0
 10
39.1111
 20
114.8575
 30
0.0
 10
47.1966
 20
115.1259
 30
0.0
 10
50.0899
 20
113.2766
 30
0.0
 10
50.0899
 20
113.2766
 30
0.0
 10
49.2249
 20
114.594
 30
0.0
 10
48.9776
 20
115.6364
 30
0.0
 10
48.4544
 20
117.0162
 30
0.0
 10
48.4544
 20
117.0162
 30
0.0
 10
45.6804
 20
117.4337
 30
0.0
 10
41.7073
 20
117.4211
 30
0.0
 10
38.4262
 20
116.8841
 30
0.0
 10
38.4262
 20
116.8841
 30
0.0
 10
38.0682
 20
115.6015
 30
0.0
 10
37.4727
 20
114.2642
 30
0.0
 10
36.8442
 20
113.2766
 30
0.0
  0
SPLINE
  5
D1
330
1F
100
AcDbEntity
  8
layer 1
 62
     7
100
AcDbSpline
210
0.0
220
0.0
230
1.0
 70
    11
 71
     3
 72
    20
 73
    16
 74
     0
 42
0.0000000001
 43
0.0000000001
 12
1.0
 22
0.0
 32
0.0
 13
1.0
 23
0.0
 33
0.0
 40
0.0
 40
0.0
 40
0.0
 40
0.0
 40
0.2
 40
0.2
 40
0.2
 40
0.2
 40
0.4
 40
0.4
 40
0.4
 40
0.4
 40
0.6
 40
0.6
 40
0.6
 40
0.6
 40
1.0
 40
1.0
 40
1.0
 40
1.0
 10
152.0477
 20
113.2766
 30
0.0
 10
154.3146
 20
114.8575
 30
0.0
 10
162.4
 20
115.1259
 30
0.0
 10
165.2933
 20
113.2766
 30
0.0
 10
165.2933
 20
113.2766
 30
0.0
 10
164.4284
 20
114.594
 30
0.0
 10
164.181
 20
115.6364
 30
0.0
 10
163.6579
 20
117.0162
 30
0.0
 10
163.6579
 20
117.0162
 30
0.0
 10
160.8839
 20
117.4337
 30
0.0
 10
156.9107
 20
117.4211
 30
0.0
 10
153.6296
 20
116.8841
 30
0.0
 10
153.6296
 20
116.8841
 30
0.0
 10
153.2716
 20
115.6015
 30
0.0
 10
152.6762
 20
114.2642
 30
0.0
 10
152.0477
 20
113.2766
 30
0.0
  0
SPLINE
  5
D2
330
1F
100
AcDbEntity
  8
layer 1
 62
     7
100
AcDbSpline
210
0.0
220
0.0
230
1.0
 70
    11
 71
     3
 72
    32
 73
    28
 74
     0
 42
0.0000000001
 43
0.0000000001
 12
1.0
 22
0.0
 32
0.0
 13
1.0
 23
0.0
 33
0.0
 40
0.0
 40
0.0
 40
0.0
 40
0.0
 40
0.125
 40
0.125
 40
0.125
 40
0.125
 40
0.25
 40
0.25
 40
0.25
 40
0.25
 40
0.375
 40
0.375
 40
0.375
 40
0.375
 40
0.5
 40
0.5
 40
0.5
 40
0.5
 40
0.625
 40
0.625
 40
0.625
 40
0.625
 40
0.75
 40
0.75
 40
0.75
 40
0.75
 40
1.0
 40
1.0
 40
1.0
 40
1.0
 10
129.9068
 20
108.4772
 30
0.0
 10
126.5193
 20
108.4772
 30
0.0
 10
123.3798
 20
109.5385
 30
0.0
 10
120.8025
 20
111.3469
 30
0.0
 10
120.8025
 20
111.3469
 30
0.0
 10
120.8025
 20
111.3469
 30
0.0
 10
127.833
 20
118.9449
 30
0.0
 10
127.833
 20
118.9449
 30
0.0
 10
127.833
 20
118.9449
 30
0.0
 10
127.833
 20
118.9449
 30
0.0
 10
129.7878
 20
116.9938
 30
0.0
 10
129.7878
 20
116.9938
 30
0.0
 10
129.7878
 20
116.9938
 30
0.0
 10
129.7878
 20
116.9938
 30
0.0
 10
131.7437
 20
118.9093
 30
0.0
 10
131.7437
 20
118.9093
 30
0.0
 10
131.7437
 20
118.9093
 30
0.0
 10
131.7437
 20
118.9093
 30
0.0
 10
139.1454
 20
111.4423
 30
0.0
 10
139.1454
 20
111.4423
 30
0.0
 10
139.1454
 20
111.4423
 30
0.0
 10
136.5433
 20
109.576
 30
0.0
 10
133.3532
 20
108.4772
 30
0.0
 10
129.9067
 20
108.4772
 30
0.0
 10
129.9067
 20
108.4772
 30
0.0
 10
129.9067
 20
108.4772
 30
0.0
 10
129.9068
 20
108.4772
 30
0.0
 10
129.9068
 20
108.4772
 30
0.0
  0
SPLINE
  5
D3
330
1F
100
AcDbEntity
  8
layer 1
 62
     7
100
AcDbSpline
210
0.0
220
0.0
230
1.0
 70
    11
 71
     3
 72
    20
 73
    16
 74
     0
 42
0.0000000001
 43
0.0000000001
 12
1.0
 22
0.0
 32
0.0
 13
1.0
 23
0.0
 33
0.0
 40
0.0
 40
0.0
 40
0.0
 40
0.0
 40
0.2
 40
0.2
 40
0.2
 40
0.2
 40
0.4
 40
0.4
 40
0.4
 40
0.4
 40
0.6
 40
0.6
 40
0.6
 40
0.6
 40
1.0
 40
1.0
 40
1.0
 40
1.0
 10
178.3443
 20
111.3469
 30
0.0
 10
178.3443
 20
111.3469
 30
0.0
 10
185.3749
 20
118.9449
 30
0.0
 10
185.3749
 20
118.9449
 30
0.0
 10
185.3749
 20
118.9449
 30
0.0
 10
185.3749
 20
118.9449
 30
0.0
 10
187.3296
 20
116.9938
 30
0.0
 10
187.3296
 20
116.9938
 30
0.0
 10
187.3296
 20
116.9938
 30
0.0
 10
187.3296
 20
116.9938
 30
0.0
 10
187.3414
 20
108.48
 30
0.0
 10
187.3414
 20
108.48
 30
0.0
 10
187.3414
 20
108.48
 30
0.0
 10
184.0401
 20
108.4742
 30
0.0
 10
181.0438
 20
109.4528
 30
0.0
 10
178.3443
 20
111.3469
 30
0.0
  0
SPLINE
  5
D4
330
1F
100
AcDbEntity
  8
layer 1
 62
     7
100
AcDbSpline
210
0.0
220
0.0
230
1.0
 70
    11
 71
     3
 72
    20
 73
    16
 74
     0
 42
0.0000000001
 43
0.0000000001
 12
1.0
 22
0.0
 32
0.0
 13
1.0
 23
0.0
 33
0.0
 40
0.0
 40
0.0
 40
0.0
 40
0.0
 40
0.2
 40
0.2
 40
0.2
 40
0.2
 40
0.4
 40
0.4
 40
0.4
 40
0.4
 40
0.6
 40
0.6
 40
0.6
 40
0.6
 40
1.0
 40
1.0
 40
1.0
 40
1.0
 10
64.7421
 20
-107.5953
 30
0.0
 10
64.7421
 20
-107.5953
 30
0.0
 10
66.6577
 20
-105.6394
 30
0.0
 10
66.6577
 20
-105.6394
 30
0.0
 10
66.6577
 20
-105.6394
 30
0.0
 10
66.6577
 20
-105.6394
 30
0.0
 10
59.1907
 20
-98.2377
 30
0.0
 10
59.1907
 20
-98.2377
 30
0.0
 10
59.1907
 20
-98.2377
 30
0.0
 10
57.3243
 20
-100.8398
 30
0.0
 10
56.2184
 20
-104.1693
 30
0.0
 10
56.2184
 20
-107.6158
 30
0.0
 10
56.2184
 20
-107.6158
 30
0.0
 10
56.2184
 20
-107.6158
 30
0.0
 10
64.7421
 20
-107.5953
 30
0.0
 10
64.7421
 20
-107.5953
 30
0.0
  0
SPLINE
  5
D5
330
1F
100
AcDbEntity
  8
layer 1
 62
     7
100
AcDbSpline
210
0.0
220
0.0
230
1.0
 70
    11
 71
     3
 72
    20
 73
    16
 74
     0
 42
0.0000000001
 43
0.0000000001
 12
1.0
 22
0.0
 32
0.0
 13
1.0
 23
0.0
 33
0.0
 40
0.0
 40
0.0
 40
0.0
 40
0.0
 40
0.2
 40
0.2
 40
0.2
 40
0.2
 40
0.4
 40
0.4
 40
0.4
 40
0.4
 40
0.6
 40
0.6
 40
0.6
 40
0.6
 40
1.0
 40
1.0
 40
1.0
 40
1.0
 10
137.0827
 20
-107.5953
 30
0.0
 10
137.0827
 20
-107.5953
 30
0.0
 10
135.1672
 20
-105.6394
 30
0.0
 10
135.1672
 20
-105.6394
 30
0.0
 10
135.1672
 20
-105.6394
 30
0.0
 10
135.1672
 20
-105.6394
 30
0.0
 10
142.6342
 20
-98.2377
 30
0.0
 10
142.6342
 20
-98.2377
 30
0.0
 10
142.6342
 20
-98.2377
 30
0.0
 10
144.5005
 20
-100.8398
 30
0.0
 10
145.6065
 20
-104.1693
 30
0.0
 10
145.6065
 20
-107.6158
 30
0.0
 10
145.6065
 20
-107.6158
 30
0.0
 10
145.6065
 20
-107.6158
 30
0.0
 10
137.0827
 20
-107.5953
 30
0.0
 10
137.0827
 20
-107.5953
 30
0.0
  0
SPLINE
  5
D6
330
1F
100
AcDbEntity
  8
layer 1
 62
     7
100
AcDbSpline
210
0.0
220
0.0
230
1.0
 70
    11
 71
     3
 72
    20
 73
    16
 74
     0
 42
0.0000000001
 43
0.0000000001
 12
1.0
 22
0.0
 32
0.0
 13
1.0
 23
0.0
 33
0.0
 40
0.0
 40
0.0
 40
0.0
 40
0.0
 40
0.2
 40
0.2
 40
0.2
 40
0.2
 40
0.4
 40
0.4
 40
0.4
 40
0.4
 40
0.6
 40
0.6
 40
0.6
 40
0.6
 40
1.0
 40
1.0
 40
1.0
 40
1.0
 10
122.2322
 20
-107.5953
 30
0.0
 10
122.2322
 20
-107.5953
 30
0.0
 10
124.1477
 20
-105.6394
 30
0.0
 10
124.1477
 20
-105.6394
 30
0.0
 10
124.1477
 20
-105.6394
 30
0.0
 10
124.1477
 20
-105.6394
 30
0.0
 10
116.6807
 20
-98.2377
 30
0.0
 10
116.6807
 20
-98.2377
 30
0.0
 10
116.6807
 20
-98.2377
 30
0.0
 10
114.8144
 20
-100.8398
 30
0.0
 10
113.7084
 20
-104.1693
 30
0.0
 10
113.7084
 20
-107.6158
 30
0.0
 10
113.7084
 20
-107.6158
 30
0.0
 10
113.7084
 20
-107.6158
 30
0.0
 10
122.2322
 20
-107.5953
 30
0.0
 10
122.2322
 20
-107.5953
 30
0.0
  0
SPLINE
  5
D7
330
1F
100
AcDbEntity
  8
layer 1
 62
     7
100
AcDbSpline
210
0.0
220
0.0
230
1.0
 70
    11
 71
     3
 72
    20
 73
    16
 74
     0
 42
0.0000000001
 43
0.0000000001
 12
1.0
 22
0.0
 32
0.0
 13
1.0
 23
0.0
 33
0.0
 40
0.0
 40
0.0
 40
0.0
 40
0.0
 40
0.2
 40
0.2
 40
0.2
 40
0.2
 40
0.4
 40
0.4
 40
0.4
 40
0.4
 40
0.6
 40
0.6
 40
0.6
 40
0.6
 40
1.0
 40
1.0
 40
1.0
 40
1.0
 10
21.9175
 20
-107.5953
 30
0.0
 10
21.9175
 20
-107.5953
 30
0.0
 10
20.0019
 20
-105.6394
 30
0.0
 10
20.0019
 20
-105.6394
 30
0.0
 10
20.0019
 20
-105.6394
 30
0.0
 10
20.0019
 20
-105.6394
 30
0.0
 10
27.4689
 20
-98.2377
 30
0.0
 10
27.4689
 20
-98.2377
 30
0.0
 10
27.4689
 20
-98.2377
 30
0.0
 10
29.3352
 20
-100.8398
 30
0.0
 10
30.4412
 20
-104.1693
 30
0.0
 10
30.4412
 20
-107.6158
 30
0.0
 10
30.4412
 20
-107.6158
 30
0.0
 10
30.4412
 20
-107.6158
 30
0.0
 10
21.9175
 20
-107.5953
 30
0.0
 10
21.9175
 20
-107.5953
 30
0.0
  0
SPLINE
  5
D8
330
1F
100
AcDbEntity
  8
layer 1
 62
     7
100
AcDbSpline
210
0.0
220
0.0
230
1.0
 70
    11
 71
     3
 72
    20
 73
    16
 74
     0
 42
0.0000000001
 43
0.0000000001
 12
1.0
 22
0.0
 32
0.0
 13
1.0
 23
0.0
 33
0.0
 40
0.0
 40
0.0
 40
0.0
 40
0.0
 40
0.2
 40
0.2
 40
0.2
 40
0.2
 40
0.4
 40
0.4
 40
0.4
 40
0.4
 40
0.6
 40
0.6
 40
0.6
 40
0.6
 40
1.0
 40
1.0
 40
1.0
 40
1.0
 10
39.0288
 20
-103.0256
 30
0.0
 10
40.6992
 20
-103.9204
 30
0.0
 10
45.6505
 20
-104.0994
 30
0.0
 10
47.6789
 20
-103.0256
 30
0.0
 10
47.6789
 20
-103.0256
 30
0.0
 10
47.3614
 20
-103.9376
 30
0.0
 10
47.2241
 20
-105.8074
 30
0.0
 10
47.236
 20
-107.6218
 30
0.0
 10
47.236
 20
-107.6218
 30
0.0
 10
47.236
 20
-107.6218
 30
0.0
 10
39.4499
 20
-107.6217
 30
0.0
 10
39.4499
 20
-107.6217
 30
0.0
 10
39.4499
 20
-107.6217
 30
0.0
 10
39.4715
 20
-105.9227
 30
0.0
 10
39.347
 20
-104.1701
 30
0.0
 10
39.0288
 20
-103.0256
 30
0.0
  0
SPLINE
  5
D9
330
1F
100
AcDbEntity
  8
layer 1
 62
     7
100
AcDbSpline
210
0.0
220
0.0
230
1.0
 70
    11
 71
     3
 72
    20
 73
    16
 74
     0
 42
0.0000000001
 43
0.0000000001
 12
1.0
 22
0.0
 32
0.0
 13
1.0
 23
0.0
 33
0.0
 40
0.0
 40
0.0
 40
0.0
 40
0.0
 40
0.2
 40
0.2
 40
0.2
 40
0.2
 40
0.4
 40
0.4
 40
0.4
 40
0.4
 40
0.6
 40
0.6
 40
0.6
 40
0.6
 40
1.0
 40
1.0
 40
1.0
 40
1.0
 10
179.7972
 20
-107.5953
 30
0.0
 10
179.7972
 20
-107.5953
 30
0.0
 10
181.7128
 20
-105.6394
 30
0.0
 10
181.7128
 20
-105.6394
 30
0.0
 10
181.7128
 20
-105.6394
 30
0.0
 10
181.7128
 20
-105.6394
 30
0.0
 10
174.2458
 20
-98.2377
 30
0.0
 10
174.2458
 20
-98.2377
 30
0.0
 10
174.2458
 20
-98.2377
 30
0.0
 10
172.3795
 20
-100.8398
 30
0.0
 10
171.2735
 20
-104.1693
 30
0.0
 10
171.2735
 20
-107.6158
 30
0.0
 10
171.2735
 20
-107.6158
 30
0.0
 10
171.2735
 20
-107.6158
 30
0.0
 10
179.7972
 20
-107.5953
 30
0.0
 10
179.7972
 20
-107.5953
 30
0.0
  0
SPLINE
  5
DA
330
1F
100
AcDbEntity
  8
layer 1
 62
     7
100
AcDbSpline
210
0.0
220
0.0
230
1.0
 70
    11
 71
     3
 72
    20
 73
    16
 74
     0
 42
0.0000000001
 43
0.0000000001
 12
1.0
 22
0.0
 32
0.0
 13
1.0
 23
0.0
 33
0.0
 40
0.0
 40
0.0
 40
0.0
 40
0.0
 40
0.2
 40
0.2
 40
0.2
 40
0.2
 40
0.4
 40
0.4
 40
0.4
 40
0.4
 40
0.6
 40
0.6
 40
0.6
 40
0.6
 40
1.0
 40
1.0
 40
1.0
 40
1.0
 10
154.2771
 20
-103.0256
 30
0.0
 10
155.9475
 20
-103.9204
 30
0.0
 10
160.8988
 20
-104.0994
 30
0.0
 10
162.9271
 20
-103.0256
 30
0.0
 10
162.9271
 20
-103.0256
 30
0.0
 10
162.6097
 20
-103.9376
 30
0.0
 10
162.4724
 20
-105.8074
 30
0.0
 10
162.4843
 20
-107.6218
 30
0.0
 10
162.4843
 20
-107.6218
 30
0.0
 10
162.4843
 20
-107.6218
 30
0.0
 10
154.6982
 20
-107.6217
 30
0.0
 10
154.6982
 20
-107.6217
 30
0.0
 10
154.6982
 20
-107.6217
 30
0.0
 10
154.7198
 20
-105.9227
 30
0.0
 10
154.5953
 20
-104.1701
 30
0.0
 10
154.2771
 20
-103.0256
 30
0.0
  0
SPLINE
  5
DB
330
1F
100
AcDbEntity
  8
layer 1
 62
     7
100
AcDbSpline
210
0.0
220
0.0
230
1.0
 70
    11
 71
     3
 72
    20
 73
    16
 74
     0
 42
0.0000000001
 43
0.0000000001
 12
1.0
 22
0.0
 32
0.0
 13
1.0
 23
0.0
 33
0.0
 40
0.0
 40
0.0
 40
0.0
 40
0.0
 40
0.2
 40
0.2
 40
0.2
 40
0.2
 40
0.4
 40
0.4
 40
0.4
 40
0.4
 40
0.6
 40
0.6
 40
0.6
 40
0.6
 40
1.0
 40
1.0
 40
1.0
 40
1.0
 10
79.5927
 20
124.3125
 30
0.0
 10
79.5927
 20
124.3125
 30
0.0
 10
77.6771
 20
122.3567
 30
0.0
 10
77.6771
 20
122.3567
 30
0.0
 10
77.6771
 20
122.3567
 30
0.0
 10
77.6771
 20
122.3567
 30
0.0
 10
85.1441
 20
114.9549
 30
0.0
 10
85.1441
 20
114.9549
 30
0.0
 10
85.1441
 20
114.9549
 30
0.0
 10
87.0104
 20
117.557
 30
0.0
 10
88.1164
 20
120.8865
 30
0.0
 10
88.1164
 20
124.333
 30
0.0
 10
88.1164
 20
124.333
 30
0.0
 10
88.1164
 20
124.333
 30
0.0
 10
79.5927
 20
124.3125
 30
0.0
 10
79.5927
 20
124.3125
 30
0.0
  0
SPLINE
  5
DC
330
1F
100
AcDbEntity
  8
layer 1
 62
     7
100
AcDbSpline
210
0.0
220
0.0
230
1.0
 70
    11
 71
     3
 72
    20
 73
    16
 74
     0
 42
0.0000000001
 43
0.0000000001
 12
1.0
 22
0.0
 32
0.0
 13
1.0
 23
0.0
 33
0.0
 40
0.0
 40
0.0
 40
0.0
 40
0.0
 40
0.2
 40
0.2
 40
0.2
 40
0.2
 40
0.4
 40
0.4
 40
0.4
 40
0.4
 40
0.6
 40
0.6
 40
0.6
 40
0.6
 40
1.0
 40
1.0
 40
1.0
 40
1.0
 10
96.704
 20
119.7428
 30
0.0
 10
98.3744
 20
120.6377
 30
0.0
 10
103.3257
 20
120.8166
 30
0.0
 10
105.3541
 20
119.7428
 30
0.0
 10
105.3541
 20
119.7428
 30
0.0
 10
105.0366
 20
120.6548
 30
0.0
 10
104.8993
 20
122.5246
 30
0.0
 10
104.9112
 20
124.3391
 30
0.0
 10
104.9112
 20
124.3391
 30
0.0
 10
104.9112
 20
124.3391
 30
0.0
 10
97.1251
 20
124.339
 30
0.0
 10
97.1251
 20
124.339
 30
0.0
 10
97.1251
 20
124.339
 30
0.0
 10
97.1467
 20
122.64
 30
0.0
 10
97.0222
 20
120.8873
 30
0.0
 10
96.704
 20
119.7428
 30
0.0
  0
SPLINE
  5
DD
330
1F
100
AcDbEntity
  8
layer 1
 62
     7
100
AcDbSpline
210
0.0
220
0.0
230
1.0
 70
    11
 71
     3
 72
    20
 73
    16
 74
     0
 42
0.0000000001
 43
0.0000000001
 12
1.0
 22
0.0
 32
0.0
 13
1.0
 23
0.0
 33
0.0
 40
0.0
 40
0.0
 40
0.0
 40
0.0
 40
0.2
 40
0.2
 40
0.2
 40
0.2
 40
0.4
 40
0.4
 40
0.4
 40
0.4
 40
0.6
 40
0.6
 40
0.6
 40
0.6
 40
1.0
 40
1.0
 40
1.0
 40
1.0
 10
64.7421
 20
124.3125
 30
0.0
 10
64.7421
 20
124.3125
 30
0.0
 10
66.6577
 20
122.3567
 30
0.0
 10
66.6577
 20
122.3567
 30
0.0
 10
66.6577
 20
122.3567
 30
0.0
 10
66.6577
 20
122.3567
 30
0.0
 10
59.1907
 20
114.9549
 30
0.0
 10
59.1907
 20
114.9549
 30
0.0
 10
59.1907
 20
114.9549
 30
0.0
 10
57.3243
 20
117.557
 30
0.0
 10
56.2184
 20
120.8865
 30
0.0
 10
56.2184
 20
124.333
 30
0.0
 10
56.2184
 20
124.333
 30
0.0
 10
56.2184
 20
124.333
 30
0.0
 10
64.7421
 20
124.3125
 30
0.0
 10
64.7421
 20
124.3125
 30
0.0
  0
SPLINE
  5
DE
330
1F
100
AcDbEntity
  8
layer 1
 62
     7
100
AcDbSpline
210
0.0
220
0.0
230
1.0
 70
    11
 71
     3
 72
    20
 73
    16
 74
     0
 42
0.0000000001
 43
0.0000000001
 12
1.0
 22
0.0
 32
0.0
 13
1.0
 23
0.0
 33
0.0
 40
0.0
 40
0.0
 40
0.0
 40
0.0
 40
0.2
 40
0.2
 40
0.2
 40
0.2
 40
0.4
 40
0.4
 40
0.4
 40
0.4
 40
0.6
 40
0.6
 40
0.6
 40
0.6
 40
1.0
 40
1.0
 40
1.0
 40
1.0
 10
137.0827
 20
124.3125
 30
0.0
 10
137.0827
 20
124.3125
 30
0.0
 10
135.1672
 20
122.3567
 30
0.0
 10
135.1672
 20
122.3567
 30
0.0
 10
135.1672
 20
122.3567
 30
0.0
 10
135.1672
 20
122.3567
 30
0.0
 10
142.6342
 20
114.9549
 30
0.0
 10
142.6342
 20
114.9549
 30
0.0
 10
142.6342
 20
114.9549
 30
0.0
 10
144.5005
 20
117.557
 30
0.0
 10
145.6065
 20
120.8865
 30
0.0
 10
145.6065
 20
124.333
 30
0.0
 10
145.6065
 20
124.333
 30
0.0
 10
145.6065
 20
124.333
 30
0.0
 10
137.0827
 20
124.3125
 30
0.0
 10
137.0827
 20
124.3125
 30
0.0
  0
SPLINE
  5
DF
330
1F
100
AcDbEntity
  8
layer 1
 62
     7
100
AcDbSpline
210
0.0
220
0.0
230
1.0
 70
    11
 71
     3
 72
    20
 73
    16
 74
     0
 42
0.0000000001
 43
0.0000000001
 12
1.0
 22
0.0
 32
0.0
 13
1.0
 23
0.0
 33
0.0
 40
0.0
 40
0.0
 40
0.0
 40
0.0
 40
0.2
 40
0.2
 40
0.2
 40
0.2
 40
0.4
 40
0.4
 40
0.4
 40
0.4
 40
0.6
 40
0.6
 40
0.6
 40
0.6
 40
1.0
 40
1.0
 40
1.0
 40
1.0
 10
122.2322
 20
124.3125
 30
0.0
 10
122.2322
 20
124.3125
 30
0.0
 10
124.1477
 20
122.3567
 30
0.0
 10
124.1477
 20
122.3567
 30
0.0
 10
124.1477
 20
122.3567
 30
0.0
 10
124.1477
 20
122.3567
 30
0.0
 10
116.6807
 20
114.9549
 30
0.0
 10
116.6807
 20
114.9549
 30
0.0
 10
116.6807
 20
114.9549
 30
0.0
 10
114.8144
 20
117.557
 30
0.0
 10
113.7084
 20
120.8865
 30
0.0
 10
113.7084
 20
124.333
 30
0.0
 10
113.7084
 20
124.333
 30
0.0
 10
113.7084
 20
124.333
 30
0.0
 10
122.2322
 20
124.3125
 30
0.0
 10
122.2322
 20
124.3125
 30
0.0
  0
SPLINE
  5
E0
330
1F
100
AcDbEntity
  8
layer 1
 62
     7
100
AcDbSpline
210
0.0
220
0.0
230
1.0
 70
    11
 71
     3
 72
    20
 73
    16
 74
     0
 42
0.0000000001
 43
0.0000000001
 12
1.0
 22
0.0
 32
0.0
 13
1.0
 23
0.0
 33
0.0
 40
0.0
 40
0.0
 40
0.0
 40
0.0
 40
0.2
 40
0.2
 40
0.2
 40
0.2
 40
0.4
 40
0.4
 40
0.4
 40
0.4
 40
0.6
 40
0.6
 40
0.6
 40
0.6
 40
1.0
 40
1.0
 40
1.0
 40
1.0
 10
21.9175
 20
124.3125
 30
0.0
 10
21.9175
 20
124.3125
 30
0.0
 10
20.0019
 20
122.3567
 30
0.0
 10
20.0019
 20
122.3567
 30
0.0
 10
20.0019
 20
122.3567
 30
0.0
 10
20.0019
 20
122.3567
 30
0.0
 10
27.4689
 20
114.9549
 30
0.0
 10
27.4689
 20
114.9549
 30
0.0
 10
27.4689
 20
114.9549
 30
0.0
 10
29.3352
 20
117.557
 30
0.0
 10
30.4412
 20
120.8865
 30
0.0
 10
30.4412
 20
124.333
 30
0.0
 10
30.4412
 20
124.333
 30
0.0
 10
30.4412
 20
124.333
 30
0.0
 10
21.9175
 20
124.3125
 30
0.0
 10
21.9175
 20
124.3125
 30
0.0
  0
SPLINE
  5
E1
330
1F
100
AcDbEntity
  8
layer 1
 62
     7
100
AcDbSpline
210
0.0
220
0.0
230
1.0
 70
    11
 71
     3
 72
    20
 73
    16
 74
     0
 42
0.0000000001
 43
0.0000000001
 12
1.0
 22
0.0
 32
0.0
 13
1.0
 23
0.0
 33
0.0
 40
0.0
 40
0.0
 40
0.0
 40
0.0
 40
0.2
 40
0.2
 40
0.2
 40
0.2
 40
0.4
 40
0.4
 40
0.4
 40
0.4
 40
0.6
 40
0.6
 40
0.6
 40
0.6
 40
1.0
 40
1.0
 40
1.0
 40
1.0
 10
39.0288
 20
119.7428
 30
0.0
 10
40.6992
 20
120.6377
 30
0.0
 10
45.6505
 20
120.8166
 30
0.0
 10
47.6789
 20
119.7428
 30
0.0
 10
47.6789
 20
119.7428
 30
0.0
 10
47.3614
 20
120.6548
 30
0.0
 10
47.2241
 20
122.5246
 30
0.0
 10
47.236
 20
124.3391
 30
0.0
 10
47.236
 20
124.3391
 30
0.0
 10
47.236
 20
124.3391
 30
0.0
 10
39.4499
 20
124.339
 30
0.0
 10
39.4499
 20
124.339
 30
0.0
 10
39.4499
 20
124.339
 30
0.0
 10
39.4715
 20
122.64
 30
0.0
 10
39.347
 20
120.8873
 30
0.0
 10
39.0288
 20
119.7428
 30
0.0
  0
SPLINE
  5
E2
330
1F
100
AcDbEntity
  8
layer 1
 62
     7
100
AcDbSpline
210
0.0
220
0.0
230
1.0
 70
    11
 71
     3
 72
    20
 73
    16
 74
     0
 42
0.0000000001
 43
0.0000000001
 12
1.0
 22
0.0
 32
0.0
 13
1.0
 23
0.0
 33
0.0
 40
0.0
 40
0.0
 40
0.0
 40
0.0
 40
0.2
 40
0.2
 40
0.2
 40
0.2
 40
0.4
 40
0.4
 40
0.4
 40
0.4
 40
0.6
 40
0.6
 40
0.6
 40
0.6
 40
1.0
 40
1.0
 40
1.0
 40
1.0
 10
179.7972
 20
124.3125
 30
0.0
 10
179.7972
 20
124.3125
 30
0.0
 10
181.7128
 20
122.3567
 30
0.0
 10
181.7128
 20
122.3567
 30
0.0
 10
181.7128
 20
122.3567
 30
0.0
 10
181.7128
 20
122.3567
 30
0.0
 10
174.2458
 20
114.9549
 30
0.0
 10
174.2458
 20
114.9549
 30
0.0
 10
174.2458
 20
114.9549
 30
0.0
 10
172.3795
 20
117.557
 30
0.0
 10
171.2735
 20
120.8865
 30
0.0
 10
171.2735
 20
124.333
 30
0.0
 10
171.2735
 20
124.333
 30
0.0
 10
171.2735
 20
124.333
 30
0.0
 10
179.7972
 20
124.3125
 30
0.0
 10
179.7972
 20
124.3125
 30
0.0
  0
SPLINE
  5
E3
330
1F
100
AcDbEntity
  8
layer 1
 62
     7
100
AcDbSpline
210
0.0
220
0.0
230
1.0
 70
    11
 71
     3
 72
    20
 73
    16
 74
     0
 42
0.0000000001
 43
0.0000000001
 12
1.0
 22
0.0
 32
0.0
 13
1.0
 23
0.0
 33
0.0
 40
0.0
 40
0.0
 40
0.0
 40
0.0
 40
0.2
 40
0.2
 40
0.2
 40
0.2
 40
0.4
 40
0.4
 40
0.4
 40
0.4
 40
0.6
 40
0.6
 40
0.6
 40
0.6
 40
1.0
 40
1.0
 40
1.0
 40
1.0
 10
154.2771
 20
119.7428
 30
0.0
 10
155.9475
 20
120.6377
 30
0.0
 10
160.8988
 20
120.8166
 30
0.0
 10
162.9271
 20
119.7428
 30
0.0
 10
162.9271
 20
119.7428
 30
0.0
 10
162.6097
 20
120.6548
 30
0.0
 10
162.4724
 20
122.5246
 30
0.0
 10
162.4843
 20
124.3391
 30
0.0
 10
162.4843
 20
124.3391
 30
0.0
 10
162.4843
 20
124.3391
 30
0.0
 10
154.6982
 20
124.339
 30
0.0
 10
154.6982
 20
124.339
 30
0.0
 10
154.6982
 20
124.339
 30
0.0
 10
154.7198
 20
122.64
 30
0.0
 10
154.5953
 20
120.8873
 30
0.0
 10
154.2771
 20
119.7428
 30
0.0
  0
SPLINE
  5
E4
330
1F
100
AcDbEntity
  8
layer 1
 62
     7
100
AcDbSpline
210
0.0
220
0.0
230
1.0
 70
    11
 71
     3
 72
    20
 73
    16
 74
     0
 42
0.0000000001
 43
0.0000000001
 12
1.0
 22
0.0
 32
0.0
 13
1.0
 23
0.0
 33
0.0
 40
0.0
 40
0.0
 40
0.0
 40
0.0
 40
0.2
 40
0.2
 40
0.2
 40
0.2
 40
0.4
 40
0.4
 40
0.4
 40
0.4
 40
0.6
 40
0.6
 40
0.6
 40
0.6
 40
1.0
 40
1.0
 40
1.0
 40
1.0
 10
180.8532
 20
48.3631
 30
0.0
 10
182.0001
 20
47.5634
 30
0.0
 10
184.6361
 20
47.0994
 30
0.0
 10
187.3357
 20
47.0758
 30
0.0
 10
187.3357
 20
47.0758
 30
0.0
 10
187.3357
 20
47.0758
 30
0.0
 10
187.3359
 20
44.3361
 30
0.0
 10
187.3359
 20
44.3361
 30
0.0
 10
187.3359
 20
44.3361
 30
0.0
 10
185.6788
 20
44.3664
 30
0.0
 10
183.9784
 20
44.5031
 30
0.0
 10
182.4351
 20
44.7556
 30
0.0
 10
182.4351
 20
44.7556
 30
0.0
 10
182.0772
 20
46.0382
 30
0.0
 10
181.4817
 20
47.3756
 30
0.0
 10
180.8532
 20
48.3631
 30
0.0
  0
SPLINE
  5
E5
330
1F
100
AcDbEntity
  8
layer 1
 62
     7
100
AcDbSpline
210
0.0
220
0.0
230
1.0
 70
    11
 71
     3
 72
    20
 73
    16
 74
     0
 42
0.0000000001
 43
0.0000000001
 12
1.0
 22
0.0
 32
0.0
 13
1.0
 23
0.0
 33
0.0
 40
0.0
 40
0.0
 40
0.0
 40
0.0
 40
0.2
 40
0.2
 40
0.2
 40
0.2
 40
0.4
 40
0.4
 40
0.4
 40
0.4
 40
0.6
 40
0.6
 40
0.6
 40
0.6
 40
1.0
 40
1.0
 40
1.0
 40
1.0
 10
183.1521
 20
41.5028
 30
0.0
 10
183.9861
 20
41.056
 30
0.0
 10
185.6383
 20
40.7876
 30
0.0
 10
187.3361
 20
40.7647
 30
0.0
 10
187.3361
 20
40.7647
 30
0.0
 10
187.3361
 20
40.7647
 30
0.0
 10
187.3523
 20
33.3607
 30
0.0
 10
187.3523
 20
33.3607
 30
0.0
 10
187.3523
 20
33.3607
 30
0.0
 10
185.9931
 20
33.3582
 30
0.0
 10
184.605
 20
33.1764
 30
0.0
 10
183.1521
 20
32.7634
 30
0.0
 10
183.1521
 20
32.7634
 30
0.0
 10
183.6564
 20
34.7054
 30
0.0
 10
183.7741
 20
39.2658
 30
0.0
 10
183.1521
 20
41.5028
 30
0.0
  0
SPLINE
  5
E6
330
1F
100
AcDbEntity
  8
layer 1
 62
     7
100
AcDbSpline
210
0.0
220
0.0
230
1.0
 70
    11
 71
     3
 72
    20
 73
    16
 74
     0
 42
0.0000000001
 43
0.0000000001
 12
1.0
 22
0.0
 32
0.0
 13
1.0
 23
0.0
 33
0.0
 40
0.0
 40
0.0
 40
0.0
 40
0.0
 40
0.2
 40
0.2
 40
0.2
 40
0.2
 40
0.4
 40
0.4
 40
0.4
 40
0.4
 40
0.6
 40
0.6
 40
0.6
 40
0.6
 40
1.0
 40
1.0
 40
1.0
 40
1.0
 10
180.8532
 20
26.0031
 30
0.0
 10
181.9977
 20
26.8013
 30
0.0
 10
184.6255
 20
27.2649
 30
0.0
 10
187.3192
 20
27.2903
 30
0.0
 10
187.3192
 20
27.2903
 30
0.0
 10
187.3192
 20
27.2903
 30
0.0
 10
187.3363
 20
30.0303
 30
0.0
 10
187.3363
 20
30.0303
 30
0.0
 10
187.3363
 20
30.0303
 30
0.0
 10
185.6808
 20
30.0004
 30
0.0
 10
183.9812
 20
29.8637
 30
0.0
 10
182.4351
 20
29.6107
 30
0.0
 10
182.4351
 20
29.6107
 30
0.0
 10
182.0772
 20
28.328
 30
0.0
 10
181.4817
 20
26.9907
 30
0.0
 10
180.8532
 20
26.0031
 30
0.0
  0
SPLINE
  5
E7
330
1F
100
AcDbEntity
  8
layer 1
 62
     7
100
AcDbSpline
210
0.0
220
0.0
230
1.0
 70
    11
 71
     3
 72
    20
 73
    16
 74
     0
 42
0.0000000001
 43
0.0000000001
 12
1.0
 22
0.0
 32
0.0
 13
1.0
 23
0.0
 33
0.0
 40
0.0
 40
0.0
 40
0.0
 40
0.0
 40
0.2
 40
0.2
 40
0.2
 40
0.2
 40
0.4
 40
0.4
 40
0.4
 40
0.4
 40
0.6
 40
0.6
 40
0.6
 40
0.6
 40
1.0
 40
1.0
 40
1.0
 40
1.0
 10
187.3358
 20
24.2894
 30
0.0
 10
183.9483
 20
24.2894
 30
0.0
 10
180.7175
 20
23.2314
 30
0.0
 10
178.1401
 20
21.423
 30
0.0
 10
178.1401
 20
21.423
 30
0.0
 10
178.1401
 20
21.423
 30
0.0
 10
185.1707
 20
13.825
 30
0.0
 10
185.1707
 20
13.825
 30
0.0
 10
185.1707
 20
13.825
 30
0.0
 10
185.1707
 20
13.825
 30
0.0
 10
187.3598
 20
15.9384
 30
0.0
 10
187.3598
 20
15.9384
 30
0.0
 10
187.3598
 20
15.9384
 30
0.0
 10
187.3598
 20
15.9384
 30
0.0
 10
187.3358
 20
24.2894
 30
0.0
 10
187.3358
 20
24.2894
 30
0.0
  0
SPLINE
  5
E8
330
1F
100
AcDbEntity
  8
layer 1
 62
     7
100
AcDbSpline
210
0.0
220
0.0
230
1.0
 70
    11
 71
     3
 72
    20
 73
    16
 74
     0
 42
0.0000000001
 43
0.0000000001
 12
1.0
 22
0.0
 32
0.0
 13
1.0
 23
0.0
 33
0.0
 40
0.0
 40
0.0
 40
0.0
 40
0.0
 40
0.2
 40
0.2
 40
0.2
 40
0.2
 40
0.4
 40
0.4
 40
0.4
 40
0.4
 40
0.6
 40
0.6
 40
0.6
 40
0.6
 40
1.0
 40
1.0
 40
1.0
 40
1.0
 10
178.3443
 20
53.0267
 30
0.0
 10
178.3443
 20
53.0267
 30
0.0
 10
185.3749
 20
60.6247
 30
0.0
 10
185.3749
 20
60.6247
 30
0.0
 10
185.3749
 20
60.6247
 30
0.0
 10
185.3749
 20
60.6247
 30
0.0
 10
187.3296
 20
58.6736
 30
0.0
 10
187.3296
 20
58.6736
 30
0.0
 10
187.3296
 20
58.6736
 30
0.0
 10
187.3296
 20
58.6736
 30
0.0
 10
187.3414
 20
50.1598
 30
0.0
 10
187.3414
 20
50.1598
 30
0.0
 10
187.3414
 20
50.1598
 30
0.0
 10
184.0401
 20
50.154
 30
0.0
 10
181.0438
 20
51.1326
 30
0.0
 10
178.3443
 20
53.0267
 30
0.0
  0
SPLINE
  5
E9
330
1F
100
AcDbEntity
  8
layer 1
 62
     7
100
AcDbSpline
210
0.0
220
0.0
230
1.0
 70
    11
 71
     3
 72
    20
 73
    16
 74
     0
 42
0.0000000001
 43
0.0000000001
 12
1.0
 22
0.0
 32
0.0
 13
1.0
 23
0.0
 33
0.0
 40
0.0
 40
0.0
 40
0.0
 40
0.0
 40
0.2
 40
0.2
 40
0.2
 40
0.2
 40
0.4
 40
0.4
 40
0.4
 40
0.4
 40
0.6
 40
0.6
 40
0.6
 40
0.6
 40
1.0
 40
1.0
 40
1.0
 40
1.0
 10
180.8532
 20
-9.5176
 30
0.0
 10
182.0001
 20
-10.3173
 30
0.0
 10
184.6361
 20
-10.7813
 30
0.0
 10
187.3357
 20
-10.8049
 30
0.0
 10
187.3357
 20
-10.8049
 30
0.0
 10
187.3357
 20
-10.8049
 30
0.0
 10
187.3359
 20
-13.5446
 30
0.0
 10
187.3359
 20
-13.5446
 30
0.0
 10
187.3359
 20
-13.5446
 30
0.0
 10
185.6788
 20
-13.5143
 30
0.0
 10
183.9784
 20
-13.3776
 30
0.0
 10
182.4351
 20
-13.1251
 30
0.0
 10
182.4351
 20
-13.1251
 30
0.0
 10
182.0772
 20
-11.8425
 30
0.0
 10
181.4817
 20
-10.5052
 30
0.0
 10
180.8532
 20
-9.5176
 30
0.0
  0
SPLINE
  5
EA
330
1F
100
AcDbEntity
  8
layer 1
 62
     7
100
AcDbSpline
210
0.0
220
0.0
230
1.0
 70
    11
 71
     3
 72
    20
 73
    16
 74
     0
 42
0.0000000001
 43
0.0000000001
 12
1.0
 22
0.0
 32
0.0
 13
1.0
 23
0.0
 33
0.0
 40
0.0
 40
0.0
 40
0.0
 40
0.0
 40
0.2
 40
0.2
 40
0.2
 40
0.2
 40
0.4
 40
0.4
 40
0.4
 40
0.4
 40
0.6
 40
0.6
 40
0.6
 40
0.6
 40
1.0
 40
1.0
 40
1.0
 40
1.0
 10
183.1521
 20
-16.3779
 30
0.0
 10
183.9861
 20
-16.8247
 30
0.0
 10
185.6383
 20
-17.0931
 30
0.0
 10
187.3361
 20
-17.116
 30
0.0
 10
187.3361
 20
-17.116
 30
0.0
 10
187.3361
 20
-17.116
 30
0.0
 10
187.3523
 20
-24.52
 30
0.0
 10
187.3523
 20
-24.52
 30
0.0
 10
187.3523
 20
-24.52
 30
0.0
 10
185.9931
 20
-24.5225
 30
0.0
 10
184.605
 20
-24.7043
 30
0.0
 10
183.1521
 20
-25.1174
 30
0.0
 10
183.1521
 20
-25.1174
 30
0.0
 10
183.6564
 20
-23.1753
 30
0.0
 10
183.7741
 20
-18.6149
 30
0.0
 10
183.1521
 20
-16.3779
 30
0.0
  0
SPLINE
  5
EB
330
1F
100
AcDbEntity
  8
layer 1
 62
     7
100
AcDbSpline
210
0.0
220
0.0
230
1.0
 70
    11
 71
     3
 72
    20
 73
    16
 74
     0
 42
0.0000000001
 43
0.0000000001
 12
1.0
 22
0.0
 32
0.0
 13
1.0
 23
0.0
 33
0.0
 40
0.0
 40
0.0
 40
0.0
 40
0.0
 40
0.2
 40
0.2
 40
0.2
 40
0.2
 40
0.4
 40
0.4
 40
0.4
 40
0.4
 40
0.6
 40
0.6
 40
0.6
 40
0.6
 40
1.0
 40
1.0
 40
1.0
 40
1.0
 10
180.8532
 20
-31.8776
 30
0.0
 10
181.9977
 20
-31.0794
 30
0.0
 10
184.6255
 20
-30.6158
 30
0.0
 10
187.3192
 20
-30.5904
 30
0.0
 10
187.3192
 20
-30.5904
 30
0.0
 10
187.3192
 20
-30.5904
 30
0.0
 10
187.3363
 20
-27.8504
 30
0.0
 10
187.3363
 20
-27.8504
 30
0.0
 10
187.3363
 20
-27.8504
 30
0.0
 10
185.6808
 20
-27.8803
 30
0.0
 10
183.9812
 20
-28.017
 30
0.0
 10
182.4351
 20
-28.27
 30
0.0
 10
182.4351
 20
-28.27
 30
0.0
 10
182.0772
 20
-29.5527
 30
0.0
 10
181.4817
 20
-30.89
 30
0.0
 10
180.8532
 20
-31.8776
 30
0.0
  0
SPLINE
  5
EC
330
1F
100
AcDbEntity
  8
layer 1
 62
     7
100
AcDbSpline
210
0.0
220
0.0
230
1.0
 70
    11
 71
     3
 72
    20
 73
    16
 74
     0
 42
0.0000000001
 43
0.0000000001
 12
1.0
 22
0.0
 32
0.0
 13
1.0
 23
0.0
 33
0.0
 40
0.0
 40
0.0
 40
0.0
 40
0.0
 40
0.2
 40
0.2
 40
0.2
 40
0.2
 40
0.4
 40
0.4
 40
0.4
 40
0.4
 40
0.6
 40
0.6
 40
0.6
 40
0.6
 40
1.0
 40
1.0
 40
1.0
 40
1.0
 10
187.3358
 20
-33.5913
 30
0.0
 10
183.9483
 20
-33.5913
 30
0.0
 10
180.7175
 20
-34.6494
 30
0.0
 10
178.1401
 20
-36.4577
 30
0.0
 10
178.1401
 20
-36.4577
 30
0.0
 10
178.1401
 20
-36.4577
 30
0.0
 10
185.1707
 20
-44.0557
 30
0.0
 10
185.1707
 20
-44.0557
 30
0.0
 10
185.1707
 20
-44.0557
 30
0.0
 10
185.1707
 20
-44.0557
 30
0.0
 10
187.3598
 20
-41.9423
 30
0.0
 10
187.3598
 20
-41.9423
 30
0.0
 10
187.3598
 20
-41.9423
 30
0.0
 10
187.3598
 20
-41.9423
 30
0.0
 10
187.3358
 20
-33.5913
 30
0.0
 10
187.3358
 20
-33.5913
 30
0.0
  0
SPLINE
  5
ED
330
1F
100
AcDbEntity
  8
layer 1
 62
     7
100
AcDbSpline
210
0.0
220
0.0
230
1.0
 70
    11
 71
     3
 72
    20
 73
    16
 74
     0
 42
0.0000000001
 43
0.0000000001
 12
1.0
 22
0.0
 32
0.0
 13
1.0
 23
0.0
 33
0.0
 40
0.0
 40
0.0
 40
0.0
 40
0.0
 40
0.2
 40
0.2
 40
0.2
 40
0.2
 40
0.4
 40
0.4
 40
0.4
 40
0.4
 40
0.6
 40
0.6
 40
0.6
 40
0.6
 40
1.0
 40
1.0
 40
1.0
 40
1.0
 10
178.3443
 20
-4.854
 30
0.0
 10
178.3443
 20
-4.854
 30
0.0
 10
185.3749
 20
2.744
 30
0.0
 10
185.3749
 20
2.744
 30
0.0
 10
185.3749
 20
2.744
 30
0.0
 10
185.3749
 20
2.744
 30
0.0
 10
187.3296
 20
0.7929
 30
0.0
 10
187.3296
 20
0.7929
 30
0.0
 10
187.3296
 20
0.7929
 30
0.0
 10
187.3296
 20
0.7929
 30
0.0
 10
187.3414
 20
-7.7209
 30
0.0
 10
187.3414
 20
-7.7209
 30
0.0
 10
187.3414
 20
-7.7209
 30
0.0
 10
184.0401
 20
-7.7267
 30
0.0
 10
181.0438
 20
-6.7481
 30
0.0
 10
178.3443
 20
-4.854
 30
0.0
  0
SPLINE
  5
EE
330
1F
100
AcDbEntity
  8
layer 1
 62
     7
100
AcDbSpline
210
0.0
220
0.0
230
1.0
 70
    11
 71
     3
 72
    20
 73
    16
 74
     0
 42
0.0000000001
 43
0.0000000001
 12
1.0
 22
0.0
 32
0.0
 13
1.0
 23
0.0
 33
0.0
 40
0.0
 40
0.0
 40
0.0
 40
0.0
 40
0.2
 40
0.2
 40
0.2
 40
0.2
 40
0.4
 40
0.4
 40
0.4
 40
0.4
 40
0.6
 40
0.6
 40
0.6
 40
0.6
 40
1.0
 40
1.0
 40
1.0
 40
1.0
 10
180.8532
 20
-67.3376
 30
0.0
 10
182.0001
 20
-68.1373
 30
0.0
 10
184.6361
 20
-68.6013
 30
0.0
 10
187.3357
 20
-68.6249
 30
0.0
 10
187.3357
 20
-68.6249
 30
0.0
 10
187.3357
 20
-68.6249
 30
0.0
 10
187.3359
 20
-71.3646
 30
0.0
 10
187.3359
 20
-71.3646
 30
0.0
 10
187.3359
 20
-71.3646
 30
0.0
 10
185.6788
 20
-71.3343
 30
0.0
 10
183.9784
 20
-71.1976
 30
0.0
 10
182.4351
 20
-70.9451
 30
0.0
 10
182.4351
 20
-70.9451
 30
0.0
 10
182.0772
 20
-69.6625
 30
0.0
 10
181.4817
 20
-68.3252
 30
0.0
 10
180.8532
 20
-67.3376
 30
0.0
  0
SPLINE
  5
EF
330
1F
100
AcDbEntity
  8
layer 1
 62
     7
100
AcDbSpline
210
0.0
220
0.0
230
1.0
 70
    11
 71
     3
 72
    20
 73
    16
 74
     0
 42
0.0000000001
 43
0.0000000001
 12
1.0
 22
0.0
 32
0.0
 13
1.0
 23
0.0
 33
0.0
 40
0.0
 40
0.0
 40
0.0
 40
0.0
 40
0.2
 40
0.2
 40
0.2
 40
0.2
 40
0.4
 40
0.4
 40
0.4
 40
0.4
 40
0.6
 40
0.6
 40
0.6
 40
0.6
 40
1.0
 40
1.0
 40
1.0
 40
1.0
 10
183.1521
 20
-74.1979
 30
0.0
 10
183.9861
 20
-74.6447
 30
0.0
 10
185.6383
 20
-74.9131
 30
0.0
 10
187.3361
 20
-74.936
 30
0.0
 10
187.3361
 20
-74.936
 30
0.0
 10
187.3361
 20
-74.936
 30
0.0
 10
187.3523
 20
-82.34
 30
0.0
 10
187.3523
 20
-82.34
 30
0.0
 10
187.3523
 20
-82.34
 30
0.0
 10
185.9931
 20
-82.3425
 30
0.0
 10
184.605
 20
-82.5243
 30
0.0
 10
183.1521
 20
-82.9374
 30
0.0
 10
183.1521
 20
-82.9374
 30
0.0
 10
183.6564
 20
-80.9953
 30
0.0
 10
183.7741
 20
-76.4349
 30
0.0
 10
183.1521
 20
-74.1979
 30
0.0
  0
SPLINE
  5
F0
330
1F
100
AcDbEntity
  8
layer 1
 62
     7
100
AcDbSpline
210
0.0
220
0.0
230
1.0
 70
    11
 71
     3
 72
    20
 73
    16
 74
     0
 42
0.0000000001
 43
0.0000000001
 12
1.0
 22
0.0
 32
0.0
 13
1.0
 23
0.0
 33
0.0
 40
0.0
 40
0.0
 40
0.0
 40
0.0
 40
0.2
 40
0.2
 40
0.2
 40
0.2
 40
0.4
 40
0.4
 40
0.4
 40
0.4
 40
0.6
 40
0.6
 40
0.6
 40
0.6
 40
1.0
 40
1.0
 40
1.0
 40
1.0
 10
180.8532
 20
-89.6976
 30
0.0
 10
181.9977
 20
-88.8994
 30
0.0
 10
184.6255
 20
-88.4358
 30
0.0
 10
187.3192
 20
-88.4104
 30
0.0
 10
187.3192
 20
-88.4104
 30
0.0
 10
187.3192
 20
-88.4104
 30
0.0
 10
187.3363
 20
-85.6704
 30
0.0
 10
187.3363
 20
-85.6704
 30
0.0
 10
187.3363
 20
-85.6704
 30
0.0
 10
185.6808
 20
-85.7003
 30
0.0
 10
183.9812
 20
-85.837
 30
0.0
 10
182.4351
 20
-86.09
 30
0.0
 10
182.4351
 20
-86.09
 30
0.0
 10
182.0772
 20
-87.3727
 30
0.0
 10
181.4817
 20
-88.71
 30
0.0
 10
180.8532
 20
-89.6976
 30
0.0
  0
SPLINE
  5
F1
330
1F
100
AcDbEntity
  8
layer 1
 62
     7
100
AcDbSpline
210
0.0
220
0.0
230
1.0
 70
    11
 71
     3
 72
    20
 73
    16
 74
     0
 42
0.0000000001
 43
0.0000000001
 12
1.0
 22
0.0
 32
0.0
 13
1.0
 23
0.0
 33
0.0
 40
0.0
 40
0.0
 40
0.0
 40
0.0
 40
0.2
 40
0.2
 40
0.2
 40
0.2
 40
0.4
 40
0.4
 40
0.4
 40
0.4
 40
0.6
 40
0.6
 40
0.6
 40
0.6
 40
1.0
 40
1.0
 40
1.0
 40
1.0
 10
187.3358
 20
-91.4113
 30
0.0
 10
183.9483
 20
-91.4113
 30
0.0
 10
180.7175
 20
-92.4694
 30
0.0
 10
178.1401
 20
-94.2777
 30
0.0
 10
178.1401
 20
-94.2777
 30
0.0
 10
178.1401
 20
-94.2777
 30
0.0
 10
185.1707
 20
-101.8757
 30
0.0
 10
185.1707
 20
-101.8757
 30
0.0
 10
185.1707
 20
-101.8757
 30
0.0
 10
185.1707
 20
-101.8757
 30
0.0
 10
187.3598
 20
-99.7623
 30
0.0
 10
187.3598
 20
-99.7623
 30
0.0
 10
187.3598
 20
-99.7623
 30
0.0
 10
187.3598
 20
-99.7623
 30
0.0
 10
187.3358
 20
-91.4113
 30
0.0
 10
187.3358
 20
-91.4113
 30
0.0
  0
SPLINE
  5
F2
330
1F
100
AcDbEntity
  8
layer 1
 62
     7
100
AcDbSpline
210
0.0
220
0.0
230
1.0
 70
    11
 71
     3
 72
    20
 73
    16
 74
     0
 42
0.0000000001
 43
0.0000000001
 12
1.0
 22
0.0
 32
0.0
 13
1.0
 23
0.0
 33
0.0
 40
0.0
 40
0.0
 40
0.0
 40
0.0
 40
0.2
 40
0.2
 40
0.2
 40
0.2
 40
0.4
 40
0.4
 40
0.4
 40
0.4
 40
0.6
 40
0.6
 40
0.6
 40
0.6
 40
1.0
 40
1.0
 40
1.0
 40
1.0
 10
178.3443
 20
-62.674
 30
0.0
 10
178.3443
 20
-62.674
 30
0.0
 10
185.3749
 20
-55.076
 30
0.0
 10
185.3749
 20
-55.076
 30
0.0
 10
185.3749
 20
-55.076
 30
0.0
 10
185.3749
 20
-55.076
 30
0.0
 10
187.3296
 20
-57.0271
 30
0.0
 10
187.3296
 20
-57.0271
 30
0.0
 10
187.3296
 20
-57.0271
 30
0.0
 10
187.3296
 20
-57.0271
 30
0.0
 10
187.3414
 20
-65.5409
 30
0.0
 10
187.3414
 20
-65.5409
 30
0.0
 10
187.3414
 20
-65.5409
 30
0.0
 10
184.0401
 20
-65.5467
 30
0.0
 10
181.0438
 20
-64.5681
 30
0.0
 10
178.3443
 20
-62.674
 30
0.0
  0
SPLINE
  5
F3
330
1F
100
AcDbEntity
  8
layer 1
 62
     7
100
AcDbSpline
210
0.0
220
0.0
230
1.0
 70
    11
 71
     3
 72
    20
 73
    16
 74
     0
 42
0.0000000001
 43
0.0000000001
 12
1.0
 22
0.0
 32
0.0
 13
1.0
 23
0.0
 33
0.0
 40
0.0
 40
0.0
 40
0.0
 40
0.0
 40
0.2
 40
0.2
 40
0.2
 40
0.2
 40
0.4
 40
0.4
 40
0.4
 40
0.4
 40
0.6
 40
0.6
 40
0.6
 40
0.6
 40
1.0
 40
1.0
 40
1.0
 40
1.0
 10
21.0291
 20
106.6833
 30
0.0
 10
19.8822
 20
105.8836
 30
0.0
 10
17.2462
 20
105.4196
 30
0.0
 10
14.5467
 20
105.396
 30
0.0
 10
14.5467
 20
105.396
 30
0.0
 10
14.5467
 20
105.396
 30
0.0
 10
14.5465
 20
102.6563
 30
0.0
 10
14.5465
 20
102.6563
 30
0.0
 10
14.5465
 20
102.6563
 30
0.0
 10
16.2035
 20
102.6866
 30
0.0
 10
17.9039
 20
102.8232
 30
0.0
 10
19.4472
 20
103.0758
 30
0.0
 10
19.4472
 20
103.0758
 30
0.0
 10
19.8051
 20
104.3584
 30
0.0
 10
20.4006
 20
105.6957
 30
0.0
 10
21.0291
 20
106.6833
 30
0.0
  0
SPLINE
  5
F4
330
1F
100
AcDbEntity
  8
layer 1
 62
     7
100
AcDbSpline
210
0.0
220
0.0
230
1.0
 70
    11
 71
     3
 72
    20
 73
    16
 74
     0
 42
0.0000000001
 43
0.0000000001
 12
1.0
 22
0.0
 32
0.0
 13
1.0
 23
0.0
 33
0.0
 40
0.0
 40
0.0
 40
0.0
 40
0.0
 40
0.2
 40
0.2
 40
0.2
 40
0.2
 40
0.4
 40
0.4
 40
0.4
 40
0.4
 40
0.6
 40
0.6
 40
0.6
 40
0.6
 40
1.0
 40
1.0
 40
1.0
 40
1.0
 10
18.7302
 20
99.823
 30
0.0
 10
17.8962
 20
99.3762
 30
0.0
 10
16.244
 20
99.1078
 30
0.0
 10
14.5463
 20
99.0849
 30
0.0
 10
14.5463
 20
99.0849
 30
0.0
 10
14.5463
 20
99.0849
 30
0.0
 10
14.53
 20
91.6809
 30
0.0
 10
14.53
 20
91.6809
 30
0.0
 10
14.53
 20
91.6809
 30
0.0
 10
15.8892
 20
91.6784
 30
0.0
 10
17.2773
 20
91.4966
 30
0.0
 10
18.7302
 20
91.0835
 30
0.0
 10
18.7302
 20
91.0835
 30
0.0
 10
18.2259
 20
93.0256
 30
0.0
 10
18.1083
 20
97.586
 30
0.0
 10
18.7302
 20
99.823
 30
0.0
  0
SPLINE
  5
F5
330
1F
100
AcDbEntity
  8
layer 1
 62
     7
100
AcDbSpline
210
0.0
220
0.0
230
1.0
 70
    11
 71
     3
 72
    20
 73
    16
 74
     0
 42
0.0000000001
 43
0.0000000001
 12
1.0
 22
0.0
 32
0.0
 13
1.0
 23
0.0
 33
0.0
 40
0.0
 40
0.0
 40
0.0
 40
0.0
 40
0.2
 40
0.2
 40
0.2
 40
0.2
 40
0.4
 40
0.4
 40
0.4
 40
0.4
 40
0.6
 40
0.6
 40
0.6
 40
0.6
 40
1.0
 40
1.0
 40
1.0
 40
1.0
 10
21.0291
 20
84.3233
 30
0.0
 10
19.8846
 20
85.1215
 30
0.0
 10
17.2568
 20
85.5851
 30
0.0
 10
14.5631
 20
85.6105
 30
0.0
 10
14.5631
 20
85.6105
 30
0.0
 10
14.5631
 20
85.6105
 30
0.0
 10
14.5461
 20
88.3505
 30
0.0
 10
14.5461
 20
88.3505
 30
0.0
 10
14.5461
 20
88.3505
 30
0.0
 10
16.2015
 20
88.3206
 30
0.0
 10
17.9011
 20
88.1839
 30
0.0
 10
19.4472
 20
87.9309
 30
0.0
 10
19.4472
 20
87.9309
 30
0.0
 10
19.8051
 20
86.6482
 30
0.0
 10
20.4006
 20
85.3109
 30
0.0
 10
21.0291
 20
84.3233
 30
0.0
  0
SPLINE
  5
F6
330
1F
100
AcDbEntity
  8
layer 1
 62
     7
100
AcDbSpline
210
0.0
220
0.0
230
1.0
 70
    11
 71
     3
 72
    20
 73
    16
 74
     0
 42
0.0000000001
 43
0.0000000001
 12
1.0
 22
0.0
 32
0.0
 13
1.0
 23
0.0
 33
0.0
 40
0.0
 40
0.0
 40
0.0
 40
0.0
 40
0.2
 40
0.2
 40
0.2
 40
0.2
 40
0.4
 40
0.4
 40
0.4
 40
0.4
 40
0.6
 40
0.6
 40
0.6
 40
0.6
 40
1.0
 40
1.0
 40
1.0
 40
1.0
 10
14.5466
 20
82.1071
 30
0.0
 10
17.934
 20
82.1071
 30
0.0
 10
21.1649
 20
81.049
 30
0.0
 10
23.7422
 20
79.2407
 30
0.0
 10
23.7422
 20
79.2407
 30
0.0
 10
23.7422
 20
79.2407
 30
0.0
 10
16.7117
 20
71.6427
 30
0.0
 10
16.7117
 20
71.6427
 30
0.0
 10
16.7117
 20
71.6427
 30
0.0
 10
16.7117
 20
71.6427
 30
0.0
 10
14.5225
 20
73.7561
 30
0.0
 10
14.5225
 20
73.7561
 30
0.0
 10
14.5225
 20
73.7561
 30
0.0
 10
14.5225
 20
73.7561
 30
0.0
 10
14.5466
 20
82.1071
 30
0.0
 10
14.5466
 20
82.1071
 30
0.0
  0
SPLINE
  5
F7
330
1F
100
AcDbEntity
  8
layer 1
 62
     7
100
AcDbSpline
210
0.0
220
0.0
230
1.0
 70
    11
 71
     3
 72
    20
 73
    16
 74
     0
 42
0.0000000001
 43
0.0000000001
 12
1.0
 22
0.0
 32
0.0
 13
1.0
 23
0.0
 33
0.0
 40
0.0
 40
0.0
 40
0.0
 40
0.0
 40
0.2
 40
0.2
 40
0.2
 40
0.2
 40
0.4
 40
0.4
 40
0.4
 40
0.4
 40
0.6
 40
0.6
 40
0.6
 40
0.6
 40
1.0
 40
1.0
 40
1.0
 40
1.0
 10
23.538
 20
111.3469
 30
0.0
 10
23.538
 20
111.3469
 30
0.0
 10
16.5074
 20
118.9449
 30
0.0
 10
16.5074
 20
118.9449
 30
0.0
 10
16.5074
 20
118.9449
 30
0.0
 10
16.5074
 20
118.9449
 30
0.0
 10
14.5527
 20
116.9938
 30
0.0
 10
14.5527
 20
116.9938
 30
0.0
 10
14.5527
 20
116.9938
 30
0.0
 10
14.5527
 20
116.9938
 30
0.0
 10
14.5409
 20
108.48
 30
0.0
 10
14.5409
 20
108.48
 30
0.0
 10
14.5409
 20
108.48
 30
0.0
 10
17.8422
 20
108.4742
 30
0.0
 10
20.8385
 20
109.4528
 30
0.0
 10
23.538
 20
111.3469
 30
0.0
  0
SPLINE
  5
F8
330
1F
100
AcDbEntity
  8
layer 1
 62
     7
100
AcDbSpline
210
0.0
220
0.0
230
1.0
 70
    11
 71
     3
 72
    20
 73
    16
 74
     0
 42
0.0000000001
 43
0.0000000001
 12
1.0
 22
0.0
 32
0.0
 13
1.0
 23
0.0
 33
0.0
 40
0.0
 40
0.0
 40
0.0
 40
0.0
 40
0.2
 40
0.2
 40
0.2
 40
0.2
 40
0.4
 40
0.4
 40
0.4
 40
0.4
 40
0.6
 40
0.6
 40
0.6
 40
0.6
 40
1.0
 40
1.0
 40
1.0
 40
1.0
 10
21.0291
 20
48.3631
 30
0.0
 10
19.8822
 20
47.5634
 30
0.0
 10
17.2462
 20
47.0994
 30
0.0
 10
14.5467
 20
47.0758
 30
0.0
 10
14.5467
 20
47.0758
 30
0.0
 10
14.5467
 20
47.0758
 30
0.0
 10
14.5465
 20
44.3361
 30
0.0
 10
14.5465
 20
44.3361
 30
0.0
 10
14.5465
 20
44.3361
 30
0.0
 10
16.2035
 20
44.3664
 30
0.0
 10
17.9039
 20
44.5031
 30
0.0
 10
19.4472
 20
44.7556
 30
0.0
 10
19.4472
 20
44.7556
 30
0.0
 10
19.8051
 20
46.0382
 30
0.0
 10
20.4006
 20
47.3756
 30
0.0
 10
21.0291
 20
48.3631
 30
0.0
  0
SPLINE
  5
F9
330
1F
100
AcDbEntity
  8
layer 1
 62
     7
100
AcDbSpline
210
0.0
220
0.0
230
1.0
 70
    11
 71
     3
 72
    20
 73
    16
 74
     0
 42
0.0000000001
 43
0.0000000001
 12
1.0
 22
0.0
 32
0.0
 13
1.0
 23
0.0
 33
0.0
 40
0.0
 40
0.0
 40
0.0
 40
0.0
 40
0.2
 40
0.2
 40
0.2
 40
0.2
 40
0.4
 40
0.4
 40
0.4
 40
0.4
 40
0.6
 40
0.6
 40
0.6
 40
0.6
 40
1.0
 40
1.0
 40
1.0
 40
1.0
 10
18.7302
 20
41.5028
 30
0.0
 10
17.8962
 20
41.056
 30
0.0
 10
16.244
 20
40.7876
 30
0.0
 10
14.5463
 20
40.7647
 30
0.0
 10
14.5463
 20
40.7647
 30
0.0
 10
14.5463
 20
40.7647
 30
0.0
 10
14.53
 20
33.3607
 30
0.0
 10
14.53
 20
33.3607
 30
0.0
 10
14.53
 20
33.3607
 30
0.0
 10
15.8892
 20
33.3582
 30
0.0
 10
17.2773
 20
33.1764
 30
0.0
 10
18.7302
 20
32.7634
 30
0.0
 10
18.7302
 20
32.7634
 30
0.0
 10
18.2259
 20
34.7054
 30
0.0
 10
18.1083
 20
39.2658
 30
0.0
 10
18.7302
 20
41.5028
 30
0.0
  0
SPLINE
  5
FA
330
1F
100
AcDbEntity
  8
layer 1
 62
     7
100
AcDbSpline
210
0.0
220
0.0
230
1.0
 70
    11
 71
     3
 72
    20
 73
    16
 74
     0
 42
0.0000000001
 43
0.0000000001
 12
1.0
 22
0.0
 32
0.0
 13
1.0
 23
0.0
 33
0.0
 40
0.0
 40
0.0
 40
0.0
 40
0.0
 40
0.2
 40
0.2
 40
0.2
 40
0.2
 40
0.4
 40
0.4
 40
0.4
 40
0.4
 40
0.6
 40
0.6
 40
0.6
 40
0.6
 40
1.0
 40
1.0
 40
1.0
 40
1.0
 10
21.0291
 20
26.0031
 30
0.0
 10
19.8846
 20
26.8013
 30
0.0
 10
17.2568
 20
27.2649
 30
0.0
 10
14.5631
 20
27.2903
 30
0.0
 10
14.5631
 20
27.2903
 30
0.0
 10
14.5631
 20
27.2903
 30
0.0
 10
14.5461
 20
30.0303
 30
0.0
 10
14.5461
 20
30.0303
 30
0.0
 10
14.5461
 20
30.0303
 30
0.0
 10
16.2015
 20
30.0004
 30
0.0
 10
17.9011
 20
29.8637
 30
0.0
 10
19.4472
 20
29.6107
 30
0.0
 10
19.4472
 20
29.6107
 30
0.0
 10
19.8051
 20
28.328
 30
0.0
 10
20.4006
 20
26.9907
 30
0.0
 10
21.0291
 20
26.0031
 30
0.0
  0
SPLINE
  5
FB
330
1F
100
AcDbEntity
  8
layer 1
 62
     7
100
AcDbSpline
210
0.0
220
0.0
230
1.0
 70
    11
 71
     3
 72
    20
 73
    16
 74
     0
 42
0.0000000001
 43
0.0000000001
 12
1.0
 22
0.0
 32
0.0
 13
1.0
 23
0.0
 33
0.0
 40
0.0
 40
0.0
 40
0.0
 40
0.0
 40
0.2
 40
0.2
 40
0.2
 40
0.2
 40
0.4
 40
0.4
 40
0.4
 40
0.4
 40
0.6
 40
0.6
 40
0.6
 40
0.6
 40
1.0
 40
1.0
 40
1.0
 40
1.0
 10
14.5466
 20
24.2894
 30
0.0
 10
17.934
 20
24.2894
 30
0.0
 10
21.1649
 20
23.2314
 30
0.0
 10
23.7422
 20
21.423
 30
0.0
 10
23.7422
 20
21.423
 30
0.0
 10
23.7422
 20
21.423
 30
0.0
 10
16.7117
 20
13.825
 30
0.0
 10
16.7117
 20
13.825
 30
0.0
 10
16.7117
 20
13.825
 30
0.0
 10
16.7117
 20
13.825
 30
0.0
 10
14.5225
 20
15.9384
 30
0.0
 10
14.5225
 20
15.9384
 30
0.0
 10
14.5225
 20
15.9384
 30
0.0
 10
14.5225
 20
15.9384
 30
0.0
 10
14.5466
 20
24.2894
 30
0.0
 10
14.5466
 20
24.2894
 30
0.0
  0
SPLINE
  5
FC
330
1F
100
AcDbEntity
  8
layer 1
 62
     7
100
AcDbSpline
210
0.0
220
0.0
230
1.0
 70
    11
 71
     3
 72
    20
 73
    16
 74
     0
 42
0.0000000001
 43
0.0000000001
 12
1.0
 22
0.0
 32
0.0
 13
1.0
 23
0.0
 33
0.0
 40
0.0
 40
0.0
 40
0.0
 40
0.0
 40
0.2
 40
0.2
 40
0.2
 40
0.2
 40
0.4
 40
0.4
 40
0.4
 40
0.4
 40
0.6
 40
0.6
 40
0.6
 40
0.6
 40
1.0
 40
1.0
 40
1.0
 40
1.0
 10
23.538
 20
53.0267
 30
0.0
 10
23.538
 20
53.0267
 30
0.0
 10
16.5074
 20
60.6247
 30
0.0
 10
16.5074
 20
60.6247
 30
0.0
 10
16.5074
 20
60.6247
 30
0.0
 10
16.5074
 20
60.6247
 30
0.0
 10
14.5527
 20
58.6736
 30
0.0
 10
14.5527
 20
58.6736
 30
0.0
 10
14.5527
 20
58.6736
 30
0.0
 10
14.5527
 20
58.6736
 30
0.0
 10
14.5409
 20
50.1598
 30
0.0
 10
14.5409
 20
50.1598
 30
0.0
 10
14.5409
 20
50.1598
 30
0.0
 10
17.8422
 20
50.154
 30
0.0
 10
20.8385
 20
51.1326
 30
0.0
 10
23.538
 20
53.0267
 30
0.0
  0
SPLINE
  5
FD
330
1F
100
AcDbEntity
  8
layer 1
 62
     7
100
AcDbSpline
210
0.0
220
0.0
230
1.0
 70
    11
 71
     3
 72
    20
 73
    16
 74
     0
 42
0.0000000001
 43
0.0000000001
 12
1.0
 22
0.0
 32
0.0
 13
1.0
 23
0.0
 33
0.0
 40
0.0
 40
0.0
 40
0.0
 40
0.0
 40
0.2
 40
0.2
 40
0.2
 40
0.2
 40
0.4
 40
0.4
 40
0.4
 40
0.4
 40
0.6
 40
0.6
 40
0.6
 40
0.6
 40
1.0
 40
1.0
 40
1.0
 40
1.0
 10
21.0291
 20
-9.5176
 30
0.0
 10
19.8822
 20
-10.3173
 30
0.0
 10
17.2462
 20
-10.7813
 30
0.0
 10
14.5467
 20
-10.8049
 30
0.0
 10
14.5467
 20
-10.8049
 30
0.0
 10
14.5467
 20
-10.8049
 30
0.0
 10
14.5465
 20
-13.5446
 30
0.0
 10
14.5465
 20
-13.5446
 30
0.0
 10
14.5465
 20
-13.5446
 30
0.0
 10
16.2035
 20
-13.5143
 30
0.0
 10
17.9039
 20
-13.3776
 30
0.0
 10
19.4472
 20
-13.1251
 30
0.0
 10
19.4472
 20
-13.1251
 30
0.0
 10
19.8051
 20
-11.8425
 30
0.0
 10
20.4006
 20
-10.5052
 30
0.0
 10
21.0291
 20
-9.5176
 30
0.0
  0
SPLINE
  5
FE
330
1F
100
AcDbEntity
  8
layer 1
 62
     7
100
AcDbSpline
210
0.0
220
0.0
230
1.0
 70
    11
 71
     3
 72
    20
 73
    16
 74
     0
 42
0.0000000001
 43
0.0000000001
 12
1.0
 22
0.0
 32
0.0
 13
1.0
 23
0.0
 33
0.0
 40
0.0
 40
0.0
 40
0.0
 40
0.0
 40
0.2
 40
0.2
 40
0.2
 40
0.2
 40
0.4
 40
0.4
 40
0.4
 40
0.4
 40
0.6
 40
0.6
 40
0.6
 40
0.6
 40
1.0
 40
1.0
 40
1.0
 40
1.0
 10
18.7302
 20
-16.3779
 30
0.0
 10
17.8962
 20
-16.8247
 30
0.0
 10
16.244
 20
-17.0931
 30
0.0
 10
14.5463
 20
-17.116
 30
0.0
 10
14.5463
 20
-17.116
 30
0.0
 10
14.5463
 20
-17.116
 30
0.0
 10
14.53
 20
-24.52
 30
0.0
 10
14.53
 20
-24.52
 30
0.0
 10
14.53
 20
-24.52
 30
0.0
 10
15.8892
 20
-24.5225
 30
0.0
 10
17.2773
 20
-24.7043
 30
0.0
 10
18.7302
 20
-25.1174
 30
0.0
 10
18.7302
 20
-25.1174
 30
0.0
 10
18.2259
 20
-23.1753
 30
0.0
 10
18.1083
 20
-18.6149
 30
0.0
 10
18.7302
 20
-16.3779
 30
0.0
  0
SPLINE
  5
FF
330
1F
100
AcDbEntity
  8
layer 1
 62
     7
100
AcDbSpline
210
0.0
220
0.0
230
1.0
 70
    11
 71
     3
 72
    20
 73
    16
 74
     0
 42
0.0000000001
 43
0.0000000001
 12
1.0
 22
0.0
 32
0.0
 13
1.0
 23
0.0
 33
0.0
 40
0.0
 40
0.0
 40
0.0
 40
0.0
 40
0.2
 40
0.2
 40
0.2
 40
0.2
 40
0.4
 40
0.4
 40
0.4
 40
0.4
 40
0.6
 40
0.6
 40
0.6
 40
0.6
 40
1.0
 40
1.0
 40
1.0
 40
1.0
 10
21.0291
 20
-31.8776
 30
0.0
 10
19.8846
 20
-31.0794
 30
0.0
 10
17.2568
 20
-30.6158
 30
0.0
 10
14.5631
 20
-30.5904
 30
0.0
 10
14.5631
 20
-30.5904
 30
0.0
 10
14.5631
 20
-30.5904
 30
0.0
 10
14.5461
 20
-27.8504
 30
0.0
 10
14.5461
 20
-27.8504
 30
0.0
 10
14.5461
 20
-27.8504
 30
0.0
 10
16.2015
 20
-27.8803
 30
0.0
 10
17.9011
 20
-28.017
 30
0.0
 10
19.4472
 20
-28.27
 30
0.0
 10
19.4472
 20
-28.27
 30
0.0
 10
19.8051
 20
-29.5527
 30
0.0
 10
20.4006
 20
-30.89
 30
0.0
 10
21.0291
 20
-31.8776
 30
0.0
  0
SPLINE
  5
100
330
1F
100
AcDbEntity
  8
layer 1
 62
     7
100
AcDbSpline
210
0.0
220
0.0
230
1.0
 70
    11
 71
     3
 72
    20
 73
    16
 74
     0
 42
0.0000000001
 43
0.0000000001
 12
1.0
 22
0.0
 32
0.0
 13
1.0
 23
0.0
 33
0.0
 40
0.0
 40
0.0
 40
0.0
 40
0.0
 40
0.2
 40
0.2
 40
0.2
 40
0.2
 40
0.4
 40
0.4
 40
0.4
 40
0.4
 40
0.6
 40
0.6
 40
0.6
 40
0.6
 40
1.0
 40
1.0
 40
1.0
 40
1.0
 10
14.5466
 20
-33.5913
 30
0.0
 10
17.934
 20
-33.5913
 30
0.0
 10
21.1649
 20
-34.6494
 30
0.0
 10
23.7422
 20
-36.4577
 30
0.0
 10
23.7422
 20
-36.4577
 30
0.0
 10
23.7422
 20
-36.4577
 30
0.0
 10
16.7117
 20
-44.0557
 30
0.0
 10
16.7117
 20
-44.0557
 30
0.0
 10
16.7117
 20
-44.0557
 30
0.0
 10
16.7117
 20
-44.0557
 30
0.0
 10
14.5225
 20
-41.9423
 30
0.0
 10
14.5225
 20
-41.9423
 30
0.0
 10
14.5225
 20
-41.9423
 30
0.0
 10
14.5225
 20
-41.9423
 30
0.0
 10
14.5466
 20
-33.5913
 30
0.0
 10
14.5466
 20
-33.5913
 30
0.0
  0
SPLINE
  5
101
330
1F
100
AcDbEntity
  8
layer 1
 62
     7
100
AcDbSpline
210
0.0
220
0.0
230
1.0
 70
    11
 71
     3
 72
    20
 73
    16
 74
     0
 42
0.0000000001
 43
0.0000000001
 12
1.0
 22
0.0
 32
0.0
 13
1.0
 23
0.0
 33
0.0
 40
0.0
 40
0.0
 40
0.0
 40
0.0
 40
0.2
 40
0.2
 40
0.2
 40
0.2
 40
0.4
 40
0.4
 40
0.4
 40
0.4
 40
0.6
 40
0.6
 40
0.6
 40
0.6
 40
1.0
 40
1.0
 40
1.0
 40
1.0
 10
23.538
 20
-4.854
 30
0.0
 10
23.538
 20
-4.854
 30
0.0
 10
16.5074
 20
2.744
 30
0.0
 10
16.5074
 20
2.744
 30
0.0
 10
16.5074
 20
2.744
 30
0.0
 10
16.5074
 20
2.744
 30
0.0
 10
14.5527
 20
0.7929
 30
0.0
 10
14.5527
 20
0.7929
 30
0.0
 10
14.5527
 20
0.7929
 30
0.0
 10
14.5527
 20
0.7929
 30
0.0
 10
14.5409
 20
-7.7209
 30
0.0
 10
14.5409
 20
-7.7209
 30
0.0
 10
14.5409
 20
-7.7209
 30
0.0
 10
17.8422
 20
-7.7267
 30
0.0
 10
20.8385
 20
-6.7481
 30
0.0
 10
23.538
 20
-4.854
 30
0.0
  0
SPLINE
  5
102
330
1F
100
AcDbEntity
  8
layer 1
 62
     7
100
AcDbSpline
210
0.0
220
0.0
230
1.0
 70
    11
 71
     3
 72
    20
 73
    16
 74
     0
 42
0.0000000001
 43
0.0000000001
 12
1.0
 22
0.0
 32
0.0
 13
1.0
 23
0.0
 33
0.0
 40
0.0
 40
0.0
 40
0.0
 40
0.0
 40
0.2
 40
0.2
 40
0.2
 40
0.2
 40
0.4
 40
0.4
 40
0.4
 40
0.4
 40
0.6
 40
0.6
 40
0.6
 40
0.6
 40
1.0
 40
1.0
 40
1.0
 40
1.0
 10
21.0291
 20
-67.3376
 30
0.0
 10
19.8822
 20
-68.1373
 30
0.0
 10
17.2462
 20
-68.6013
 30
0.0
 10
14.5467
 20
-68.6249
 30
0.0
 10
14.5467
 20
-68.6249
 30
0.0
 10
14.5467
 20
-68.6249
 30
0.0
 10
14.5465
 20
-71.3646
 30
0.0
 10
14.5465
 20
-71.3646
 30
0.0
 10
14.5465
 20
-71.3646
 30
0.0
 10
16.2035
 20
-71.3343
 30
0.0
 10
17.9039
 20
-71.1976
 30
0.0
 10
19.4472
 20
-70.9451
 30
0.0
 10
19.4472
 20
-70.9451
 30
0.0
 10
19.8051
 20
-69.6625
 30
0.0
 10
20.4006
 20
-68.3252
 30
0.0
 10
21.0291
 20
-67.3376
 30
0.0
  0
SPLINE
  5
103
330
1F
100
AcDbEntity
  8
layer 1
 62
     7
100
AcDbSpline
210
0.0
220
0.0
230
1.0
 70
    11
 71
     3
 72
    20
 73
    16
 74
     0
 42
0.0000000001
 43
0.0000000001
 12
1.0
 22
0.0
 32
0.0
 13
1.0
 23
0.0
 33
0.0
 40
0.0
 40
0.0
 40
0.0
 40
0.0
 40
0.2
 40
0.2
 40
0.2
 40
0.2
 40
0.4
 40
0.4
 40
0.4
 40
0.4
 40
0.6
 40
0.6
 40
0.6
 40
0.6
 40
1.0
 40
1.0
 40
1.0
 40
1.0
 10
18.7302
 20
-74.1979
 30
0.0
 10
17.8962
 20
-74.6447
 30
0.0
 10
16.244
 20
-74.9131
 30
0.0
 10
14.5463
 20
-74.936
 30
0.0
 10
14.5463
 20
-74.936
 30
0.0
 10
14.5463
 20
-74.936
 30
0.0
 10
14.53
 20
-82.34
 30
0.0
 10
14.53
 20
-82.34
 30
0.0
 10
14.53
 20
-82.34
 30
0.0
 10
15.8892
 20
-82.3425
 30
0.0
 10
17.2773
 20
-82.5243
 30
0.0
 10
18.7302
 20
-82.9374
 30
0.0
 10
18.7302
 20
-82.9374
 30
0.0
 10
18.2259
 20
-80.9953
 30
0.0
 10
18.1083
 20
-76.4349
 30
0.0
 10
18.7302
 20
-74.1979
 30
0.0
  0
SPLINE
  5
104
330
1F
100
AcDbEntity
  8
layer 1
 62
     7
100
AcDbSpline
210
0.0
220
0.0
230
1.0
 70
    11
 71
     3
 72
    20
 73
    16
 74
     0
 42
0.0000000001
 43
0.0000000001
 12
1.0
 22
0.0
 32
0.0
 13
1.0
 23
0.0
 33
0.0
 40
0.0
 40
0.0
 40
0.0
 40
0.0
 40
0.2
 40
0.2
 40
0.2
 40
0.2
 40
0.4
 40
0.4
 40
0.4
 40
0.4
 40
0.6
 40
0.6
 40
0.6
 40
0.6
 40
1.0
 40
1.0
 40
1.0
 40
1.0
 10
21.0291
 20
-89.6976
 30
0.0
 10
19.8846
 20
-88.8994
 30
0.0
 10
17.2568
 20
-88.4358
 30
0.0
 10
14.5631
 20
-88.4104
 30
0.0
 10
14.5631
 20
-88.4104
 30
0.0
 10
14.5631
 20
-88.4104
 30
0.0
 10
14.5461
 20
-85.6704
 30
0.0
 10
14.5461
 20
-85.6704
 30
0.0
 10
14.5461
 20
-85.6704
 30
0.0
 10
16.2015
 20
-85.7003
 30
0.0
 10
17.9011
 20
-85.837
 30
0.0
 10
19.4472
 20
-86.09
 30
0.0
 10
19.4472
 20
-86.09
 30
0.0
 10
19.8051
 20
-87.3727
 30
0.0
 10
20.4006
 20
-88.71
 30
0.0
 10
21.0291
 20
-89.6976
 30
0.0
  0
SPLINE
  5
105
330
1F
100
AcDbEntity
  8
layer 1
 62
     7
100
AcDbSpline
210
0.0
220
0.0
230
1.0
 70
    11
 71
     3
 72
    20
 73
    16
 74
     0
 42
0.0000000001
 43
0.0000000001
 12
1.0
 22
0.0
 32
0.0
 13
1.0
 23
0.0
 33
0.0
 40
0.0
 40
0.0
 40
0.0
 40
0.0
 40
0.2
 40
0.2
 40
0.2
 40
0.2
 40
0.4
 40
0.4
 40
0.4
 40
0.4
 40
0.6
 40
0.6
 40
0.6
 40
0.6
 40
1.0
 40
1.0
 40
1.0
 40
1.0
 10
14.5466
 20
-91.4113
 30
0.0
 10
17.934
 20
-91.4113
 30
0.0
 10
21.1649
 20
-92.4694
 30
0.0
 10
23.7422
 20
-94.2777
 30
0.0
 10
23.7422
 20
-94.2777
 30
0.0
 10
23.7422
 20
-94.2777
 30
0.0
 10
16.7117
 20
-101.8757
 30
0.0
 10
16.7117
 20
-101.8757
 30
0.0
 10
16.7117
 20
-101.8757
 30
0.0
 10
16.7117
 20
-101.8757
 30
0.0
 10
14.5225
 20
-99.7623
 30
0.0
 10
14.5225
 20
-99.7623
 30
0.0
 10
14.5225
 20
-99.7623
 30
0.0
 10
14.5225
 20
-99.7623
 30
0.0
 10
14.5466
 20
-91.4113
 30
0.0
 10
14.5466
 20
-91.4113
 30
0.0
  0
SPLINE
  5
106
330
1F
100
AcDbEntity
  8
layer 1
 62
     7
100
AcDbSpline
210
0.0
220
0.0
230
1.0
 70
    11
 71
     3
 72
    20
 73
    16
 74
     0
 42
0.0000000001
 43
0.0000000001
 12
1.0
 22
0.0
 32
0.0
 13
1.0
 23
0.0
 33
0.0
 40
0.0
 40
0.0
 40
0.0
 40
0.0
 40
0.2
 40
0.2
 40
0.2
 40
0.2
 40
0.4
 40
0.4
 40
0.4
 40
0.4
 40
0.6
 40
0.6
 40
0.6
 40
0.6
 40
1.0
 40
1.0
 40
1.0
 40
1.0
 10
23.538
 20
-62.674
 30
0.0
 10
23.538
 20
-62.674
 30
0.0
 10
16.5074
 20
-55.076
 30
0.0
 10
16.5074
 20
-55.076
 30
0.0
 10
16.5074
 20
-55.076
 30
0.0
 10
16.5074
 20
-55.076
 30
0.0
 10
14.5527
 20
-57.0271
 30
0.0
 10
14.5527
 20
-57.0271
 30
0.0
 10
14.5527
 20
-57.0271
 30
0.0
 10
14.5527
 20
-57.0271
 30
0.0
 10
14.5409
 20
-65.5409
 30
0.0
 10
14.5409
 20
-65.5409
 30
0.0
 10
14.5409
 20
-65.5409
 30
0.0
 10
17.8422
 20
-65.5467
 30
0.0
 10
20.8385
 20
-64.5681
 30
0.0
 10
23.538
 20
-62.674
 30
0.0
  0
ENDSEC
  0
SECTION
  2
OBJECTS
  0
DICTIONARY
  5
C
330
0
100
AcDbDictionary
281
     1
  3
ACAD_GROUP
350
D
  3
ACAD_LAYOUT
350
1A
  3
ACAD_MATERIAL
350
3B
  3
ACAD_MLEADERSTYLE
350
129
  3
ACAD_MLINESTYLE
350
17
  3
ACAD_PLOTSETTINGS
350
19
  3
ACAD_PLOTSTYLENAME
350
E
  3
ACAD_TABLESTYLE
350
128
  3
ACAD_VISUALSTYLE
350
2A
  0
DICTIONARY
  5
D
102
{ACAD_REACTORS
330
C
102
}
330
C
100
AcDbDictionary
281
     1
  0
DICTIONARY
  5
1A
102
{ACAD_REACTORS
330
C
102
}
330
C
100
AcDbDictionary
281
     1
  3
Layout1
350
1E
  3
Layout2
350
26
  3
Model
350
22
  0
DICTIONARY
  5
3B
102
{ACAD_REACTORS
330
C
102
}
330
C
100
AcDbDictionary
281
     1
  3
ByBlock
350
3D
  3
ByLayer
350
3C
  3
Global
350
3E
  0
DICTIONARY
  5
129
102
{ACAD_REACTORS
330
C
102
}
330
C
100
AcDbDictionary
281
     1
  0
DICTIONARY
  5
17
102
{ACAD_REACTORS
330
C
102
}
330
C
100
AcDbDictionary
281
     1
  3
Standard
350
18
  0
DICTIONARY
  5
19
102
{ACAD_REACTORS
330
C
102
}
330
C
100
AcDbDictionary
281
     1
  0
ACDBDICTIONARYWDFLT
  5
E
102
{ACAD_REACTORS
330
C
102
}
330
C
100
AcDbDictionary
281
     1
  3
Normal
350
F
100
AcDbDictionaryWithDefault
340
F
  0
DICTIONARY
  5
128
102
{ACAD_REACTORS
330
C
102
}
330
C
100
AcDbDictionary
281
     1
  0
DICTIONARY
  5
2A
102
{ACAD_REACTORS
330
C
102
}
330
C
100
AcDbDictionary
281
     1
  3
2dWireframe
350
2F
  3
3D Hidden
350
31
  3
3dWireframe
350
30
  3
Basic
350
32
  3
Brighten
350
36
  3
ColorChange
350
3A
  3
Conceptual
350
34
  3
Dim
350
35
  3
Facepattern
350
39
  3
Flat
350
2B
  3
FlatWithEdges
350
2C
  3
Gouraud
350
2D
  3
GouraudWithEdges
350
2E
  3
Linepattern
350
38
  3
Realistic
350
33
  3
Thicken
350
37
  0
LAYOUT
  5
1E
102
{ACAD_REACTORS
330
1A
102
}
330
1A
100
AcDbPlotSettings
  1

  2
none_device
  4

  6

 40
0.0
 41
0.0
 42
0.0
 43
0.0
 44
0.0
 45
0.0
 46
0.0
 47
0.0
 48
0.0
 49
0.0
140
0.0
141
0.0
142
1.0
143
1.0
 70
   688
 72
     0
 73
     0
 74
     5
  7

 75
    16
 76
     0
 77
     2
 78
   300
147
1.0
148
0.0
149
0.0
100
AcDbLayout
  1
Layout1
 70
     1
 71
     1
 10
0.0
 20
0.0
 11
12.0
 21
9.0
 12
0.0
 22
0.0
 32
0.0
 14
1.000000000000000E+20
 24
1.000000000000000E+20
 34
1.000000000000000E+20
 15
-1.000000000000000E+20
 25
-1.000000000000000E+20
 35
-1.000000000000000E+20
146
0.0
 13
0.0
 23
0.0
 33
0.0
 16
1.0
 26
0.0
 36
0.0
 17
0.0
 27
1.0
 37
0.0
 76
     0
330
1B
  0
LAYOUT
  5
26
102
{ACAD_REACTORS
330
1A
102
}
330
1A
100
AcDbPlotSettings
  1

  2
none_device
  4

  6

 40
0.0
 41
0.0
 42
0.0
 43
0.0
 44
0.0
 45
0.0
 46
0.0
 47
0.0
 48
0.0
 49
0.0
140
0.0
141
0.0
142
1.0
143
1.0
 70
   688
 72
     0
 73
     0
 74
     5
  7

 75
    16
 76
     0
 77
     2
 78
   300
147
1.0
148
0.0
149
0.0
100
AcDbLayout
  1
Layout2
 70
     1
 71
     2
 10
0.0
 20
0.0
 11
0.0
 21
0.0
 12
0.0
 22
0.0
 32
0.0
 14
0.0
 24
0.0
 34
0.0
 15
0.0
 25
0.0
 35
0.0
146
0.0
 13
0.0
 23
0.0
 33
0.0
 16
1.0
 26
0.0
 36
0.0
 17
0.0
 27
1.0
 37
0.0
 76
     0
330
23
  0
LAYOUT
  5
22
102
{ACAD_REACTORS
330
1A
102
}
330
1A
100
AcDbPlotSettings
  1

  2
none_device
  4

  6

 40
0.0
 41
0.0
 42
0.0
 43
0.0
 44
0.0
 45
0.0
 46
0.0
 47
0.0
 48
0.0
 49
0.0
140
0.0
141
0.0
142
1.0
143
1.0
 70
  1712
 72
     0
 73
     0
 74
     0
  7

 75
     0
 76
     0
 77
     2
 78
   300
147
1.0
148
0.0
149
0.0
100
AcDbLayout
  1
Model
 70
     1
 71
     0
 10
0.0
 20
0.0
 11
12.0
 21
9.0
 12
0.0
 22
0.0
 32
0.0
 14
5.5726
 24
-115.0177
 34
0.0
 15
196.3096
 25
131.735
 35
0.0
146
0.0
 13
0.0
 23
0.0
 33
0.0
 16
1.0
 26
0.0
 36
0.0
 17
0.0
 27
1.0
 37
0.0
 76
     0
330
1F
331
29
  0
MATERIAL
  5
3D
102
{ACAD_REACTORS
330
3B
102
}
330
3B
100
AcDbMaterial
  1
ByBlock
 72
     1
 94
      127
  0
MATERIAL
  5
3C
102
{ACAD_REACTORS
330
3B
102
}
330
3B
100
AcDbMaterial
  1
ByLayer
 72
     1
 94
      127
  0
MATERIAL
  5
3E
102
{ACAD_REACTORS
330
3B
102
}
330
3B
100
AcDbMaterial
  1
Global
 72
     1
 94
      127
  0
MLINESTYLE
  5
18
102
{ACAD_REACTORS
330
17
102
}
330
17
100
AcDbMlineStyle
  2
Standard
 70
     0
  3

 62
   256
 51
90.0
 52
90.0
 71
     2
 49
0.5
 62
   256
  6
BYLAYER
 49
-0.5
 62
   256
  6
BYLAYER
  0
ACDBPLACEHOLDER
  5
F
102
{ACAD_REACTORS
330
E
102
}
330
E
  0
VISUALSTYLE
  5
2F
102
{ACAD_REACTORS
330
2A
102
}
102
{ACAD_XDICTIONARY
360
110
102
}
330
2A
100
AcDbVisualStyle
  2
2dWireframe
 70
     4
 71
     0
 72
     2
 73
     0
 90
        0
 40
-0.6
 41
-30.0
 62
     5
 63
     7
421
 16777215
 74
     1
 91
        4
 64
     7
 65
   257
 75
     1
175
     1
 42
1.0
 92
        0
 66
   257
 43
1.0
 76
     1
 77
     6
 78
     2
 67
     7
 79
     5
170
     0
171
     0
290
     0
174
     0
 93
        1
 44
0.0
173
     0
291
     0
 45
0.0
  0
VISUALSTYLE
  5
31
102
{ACAD_REACTORS
330
2A
102
}
102
{ACAD_XDICTIONARY
360
114
102
}
330
2A
100
AcDbVisualStyle
  2
3D Hidden
 70
     6
 71
     1
 72
     2
 73
     2
 90
        0
 40
-0.6
 41
-30.0
 62
     5
 63
     7
421
 16777215
 74
     2
 91
        2
 64
     7
 65
   257
 75
     2
175
     1
 42
40.0
 92
        0
 66
   257
 43
1.0
 76
     1
 77
     6
 78
     2
 67
     7
 79
     3
170
     0
171
     0
290
     0
174
     0
 93
        1
 44
0.0
173
     0
291
     0
 45
0.0
  0
VISUALSTYLE
  5
30
102
{ACAD_REACTORS
330
2A
102
}
102
{ACAD_XDICTIONARY
360
112
102
}
330
2A
100
AcDbVisualStyle
  2
3dWireframe
 70
     5
 71
     0
 72
     2
 73
     0
 90
        0
 40
-0.6
 41
-30.0
 62
     5
 63
     7
421
 16777215
 74
     1
 91
        4
 64
     7
 65
   257
 75
     1
175
     1
 42
1.0
 92
        0
 66
   257
 43
1.0
 76
     1
 77
     6
 78
     2
 67
     7
 79
     5
170
     0
171
     0
290
     0
174
     0
 93
        1
 44
0.0
173
     0
291
     0
 45
0.0
  0
VISUALSTYLE
  5
32
102
{ACAD_REACTORS
330
2A
102
}
102
{ACAD_XDICTIONARY
360
116
102
}
330
2A
100
AcDbVisualStyle
  2
Basic
 70
     7
 71
     1
 72
     0
 73
     1
 90
        0
 40
-0.6
 41
-30.0
 62
     5
 63
     7
421
 16777215
 74
     0
 91
        4
 64
     7
 65
   257
 75
     1
175
     1
 42
1.0
 92
        8
 66
     7
 43
1.0
 76
     1
 77
     6
 78
     2
 67
     7
 79
     5
170
     0
171
     0
290
     0
174
     0
 93
        1
 44
0.0
173
     0
291
     1
 45
0.0
  0
VISUALSTYLE
  5
36
102
{ACAD_REACTORS
330
2A
102
}
102
{ACAD_XDICTIONARY
360
11E
102
}
330
2A
100
AcDbVisualStyle
  2
Brighten
 70
    12
 71
     2
 72
     2
 73
     0
 90
        0
 40
-0.6
 41
-30.0
 62
     5
 63
     7
421
 16777215
 74
     1
 91
        4
 64
     7
 65
   257
 75
     1
175
     1
 42
1.0
 92
        8
 66
     7
 43
1.0
 76
     1
 77
     6
 78
     2
 67
     7
 79
     5
170
     0
171
     0
290
     0
174
     0
 93
        1
 44
50.0
173
     0
291
     1
 45
0.0
  0
VISUALSTYLE
  5
3A
102
{ACAD_REACTORS
330
2A
102
}
102
{ACAD_XDICTIONARY
360
126
102
}
330
2A
100
AcDbVisualStyle
  2
ColorChange
 70
    16
 71
     2
 72
     2
 73
     3
 90
        0
 40
-0.6
 41
-30.0
 62
     5
 63
     8
421
  8421504
 74
     1
 91
        4
 64
     7
 65
   257
 75
     1
175
     1
 42
1.0
 92
        8
 66
     8
424
  8421504
 43
1.0
 76
     1
 77
     6
 78
     2
 67
     7
 79
     5
170
     0
171
     0
290
     0
174
     0
 93
        1
 44
0.0
173
     0
291
     1
 45
0.0
  0
VISUALSTYLE
  5
34
102
{ACAD_REACTORS
330
2A
102
}
102
{ACAD_XDICTIONARY
360
11A
102
}
330
2A
100
AcDbVisualStyle
  2
Conceptual
 70
     9
 71
     3
 72
     2
 73
     0
 90
        0
 40
-0.6
 41
-30.0
 62
     5
 63
     7
421
 16777215
 74
     2
 91
        2
 64
     7
 65
   257
 75
     1
175
     1
 42
40.0
 92
        8
 66
     7
 43
1.0
 76
     1
 77
     6
 78
     2
 67
     7
 79
     3
170
     0
171
     0
290
     0
174
     0
 93
        1
 44
0.0
173
     0
291
     0
 45
0.0
  0
VISUALSTYLE
  5
35
102
{ACAD_REACTORS
330
2A
102
}
102
{ACAD_XDICTIONARY
360
11C
102
}
330
2A
100
AcDbVisualStyle
  2
Dim
 70
    11
 71
     2
 72
     2
 73
     0
 90
        0
 40
-0.6
 41
-30.0
 62
     5
 63
     7
421
 16777215
 74
     1
 91
        4
 64
     7
 65
   257
 75
     1
175
     1
 42
1.0
 92
        8
 66
     7
 43
1.0
 76
     1
 77
     6
 78
     2
 67
     7
 79
     5
170
     0
171
     0
290
     0
174
     0
 93
        1
 44
-50.0
173
     0
291
     1
 45
0.0
  0
VISUALSTYLE
  5
39
102
{ACAD_REACTORS
330
2A
102
}
102
{ACAD_XDICTIONARY
360
124
102
}
330
2A
100
AcDbVisualStyle
  2
Facepattern
 70
    15
 71
     2
 72
     2
 73
     0
 90
        0
 40
-0.6
 41
-30.0
 62
     5
 63
     7
421
 16777215
 74
     1
 91
        4
 64
     7
 65
   257
 75
     1
175
     1
 42
1.0
 92
        8
 66
     7
 43
1.0
 76
     1
 77
     6
 78
     2
 67
     7
 79
     5
170
     0
171
     0
290
     0
174
     0
 93
        1
 44
0.0
173
     0
291
     1
 45
0.0
  0
VISUALSTYLE
  5
2B
102
{ACAD_REACTORS
330
2A
102
}
102
{ACAD_XDICTIONARY
360
108
102
}
330
2A
100
AcDbVisualStyle
  2
Flat
 70
     0
 71
     2
 72
     1
 73
     1
 90
        2
 40
-0.6
 41
30.0
 62
     5
 63
     7
421
 16777215
 74
     0
 91
        4
 64
     7
 65
   257
 75
     1
175
     1
 42
1.0
 92
        8
 66
     7
 43
1.0
 76
     1
 77
     6
 78
     2
 67
     7
 79
     5
170
     0
171
     0
290
     0
174
     0
 93
       13
 44
0.0
173
     0
291
     1
 45
0.0
  0
VISUALSTYLE
  5
2C
102
{ACAD_REACTORS
330
2A
102
}
102
{ACAD_XDICTIONARY
360
10A
102
}
330
2A
100
AcDbVisualStyle
  2
FlatWithEdges
 70
     1
 71
     2
 72
     1
 73
     1
 90
        2
 40
-0.6
 41
30.0
 62
     5
 63
     7
421
 16777215
 74
     1
 91
        4
 64
     7
 65
   257
 75
     1
175
     1
 42
1.0
 92
        0
 66
   257
 43
1.0
 76
     1
 77
     6
 78
     2
 67
     7
 79
     5
170
     0
171
     0
290
     0
174
     0
 93
       13
 44
0.0
173
     0
291
     1
 45
0.0
  0
VISUALSTYLE
  5
2D
102
{ACAD_REACTORS
330
2A
102
}
102
{ACAD_XDICTIONARY
360
10C
102
}
330
2A
100
AcDbVisualStyle
  2
Gouraud
 70
     2
 71
     2
 72
     2
 73
     1
 90
        2
 40
-0.6
 41
30.0
 62
     5
 63
     7
421
 16777215
 74
     0
 91
        4
 64
     7
 65
   257
 75
     1
175
     1
 42
1.0
 92
        0
 66
     7
 43
1.0
 76
     1
 77
     6
 78
     2
 67
     7
 79
     5
170
     0
171
     0
290
     0
174
     0
 93
       13
 44
0.0
173
     0
291
     1
 45
0.0
  0
VISUALSTYLE
  5
2E
102
{ACAD_REACTORS
330
2A
102
}
102
{ACAD_XDICTIONARY
360
10E
102
}
330
2A
100
AcDbVisualStyle
  2
GouraudWithEdges
 70
     3
 71
     2
 72
     2
 73
     1
 90
        2
 40
-0.6
 41
30.0
 62
     5
 63
     7
421
 16777215
 74
     1
 91
        4
 64
     7
 65
   257
 75
     1
175
     1
 42
1.0
 92
        0
 66
   257
 43
1.0
 76
     1
 77
     6
 78
     2
 67
     7
 79
     5
170
     0
171
     0
290
     0
174
     0
 93
       13
 44
0.0
173
     0
291
     1
 45
0.0
  0
VISUALSTYLE
  5
38
102
{ACAD_REACTORS
330
2A
102
}
102
{ACAD_XDICTIONARY
360
122
102
}
330
2A
100
AcDbVisualStyle
  2
Linepattern
 70
    14
 71
     2
 72
     2
 73
     0
 90
        0
 40
-0.6
 41
-30.0
 62
     5
 63
     7
421
 16777215
 74
     1
 91
        4
 64
     7
 65
   257
 75
     7
175
     7
 42
1.0
 92
        8
 66
     7
 43
1.0
 76
     1
 77
     6
 78
     2
 67
     7
 79
     5
170
     0
171
     0
290
     0
174
     0
 93
        1
 44
0.0
173
     0
291
     1
 45
0.0
  0
VISUALSTYLE
  5
33
102
{ACAD_REACTORS
330
2A
102
}
102
{ACAD_XDICTIONARY
360
118
102
}
330
2A
100
AcDbVisualStyle
  2
Realistic
 70
     8
 71
     2
 72
     2
 73
     0
 90
        0
 40
-0.6
 41
-30.0
 62
     5
 63
     7
421
 16777215
 74
     1
 91
        0
 64
     7
 65
   257
 75
     1
175
     1
 42
1.0
 92
        8
 66
     8
424
  7895160
 43
1.0
 76
     1
 77
     6
 78
     2
 67
     7
 79
     5
170
     0
171
     0
290
     0
174
     0
 93
       13
 44
0.0
173
     0
291
     0
 45
0.0
  0
VISUALSTYLE
  5
37
102
{ACAD_REACTORS
330
2A
102
}
102
{ACAD_XDICTIONARY
360
120
102
}
330
2A
100
AcDbVisualStyle
  2
Thicken
 70
    13
 71
     2
 72
     2
 73
     0
 90
        0
 40
-0.6
 41
-30.0
 62
     5
 63
     7
421
 16777215
 74
     1
 91
        4
 64
     7
 65
   257
 75
     1
175
     1
 42
1.0
 92
       12
 66
     7
 43
1.0
 76
     1
 77
     6
 78
     2
 67
     7
 79
     5
170
     0
171
     0
290
     0
174
     0
 93
        1
 44
0.0
173
     0
291
     1
 45
0.0
  0
DICTIONARY
  5
110
330
2F
100
AcDbDictionary
280
     1
281
     1
  3
ACAD_XREC_ROUNDTRIP
360
111
  0
DICTIONARY
  5
114
330
31
100
AcDbDictionary
280
     1
281
     1
  3
ACAD_XREC_ROUNDTRIP
360
115
  0
DICTIONARY
  5
112
330
30
100
AcDbDictionary
280
     1
281
     1
  3
ACAD_XREC_ROUNDTRIP
360
113
  0
DICTIONARY
  5
116
330
32
100
AcDbDictionary
280
     1
281
     1
  3
ACAD_XREC_ROUNDTRIP
360
117
  0
DICTIONARY
  5
11E
330
36
100
AcDbDictionary
280
     1
281
     1
  3
ACAD_XREC_ROUNDTRIP
360
11F
  0
DICTIONARY
  5
126
330
3A
100
AcDbDictionary
280
     1
281
     1
  3
ACAD_XREC_ROUNDTRIP
360
127
  0
DICTIONARY
  5
11A
330
34
100
AcDbDictionary
280
     1
281
     1
  3
ACAD_XREC_ROUNDTRIP
360
11B
  0
DICTIONARY
  5
11C
330
35
100
AcDbDictionary
280
     1
281
     1
  3
ACAD_XREC_ROUNDTRIP
360
11D
  0
DICTIONARY
  5
124
330
39
100
AcDbDictionary
280
     1
281
     1
  3
ACAD_XREC_ROUNDTRIP
360
125
  0
DICTIONARY
  5
108
330
2B
100
AcDbDictionary
280
     1
281
     1
  3
ACAD_XREC_ROUNDTRIP
360
109
  0
DICTIONARY
  5
10A
330
2C
100
AcDbDictionary
280
     1
281
     1
  3
ACAD_XREC_ROUNDTRIP
360
10B
  0
DICTIONARY
  5
10C
330
2D
100
AcDbDictionary
280
     1
281
     1
  3
ACAD_XREC_ROUNDTRIP
360
10D
  0
DICTIONARY
  5
10E
330
2E
100
AcDbDictionary
280
     1
281
     1
  3
ACAD_XREC_ROUNDTRIP
360
10F
  0
DICTIONARY
  5
122
330
38
100
AcDbDictionary
280
     1
281
     1
  3
ACAD_XREC_ROUNDTRIP
360
123
  0
DICTIONARY
  5
118
330
33
100
AcDbDictionary
280
     1
281
     1
  3
ACAD_XREC_ROUNDTRIP
360
119
  0
DICTIONARY
  5
120
330
37
100
AcDbDictionary
280
     1
281
     1
  3
ACAD_XREC_ROUNDTRIP
360
121
  0
XRECORD
  5
111
102
{ACAD_REACTORS
330
110
102
}
330
110
100
AcDbXrecord
280
     1
102
RTVSPropertyOp0
 70
     1
102
RTVSPropertyOp1
 70
     1
102
RTVSPropertyOp2
 70
     1
102
RTVSPropertyOp3
 70
     1
102
RTVSPropertyOp4
 70
     1
102
RTVSPropertyOp5
 70
     1
102
RTVSPropertyOp6
 70
     1
102
RTVSPropertyOp7
 70
     1
102
RTVSPropertyOp8
 70
     1
102
RTVSPropertyOp9
 70
     1
102
RTVSPropertyOp10
 70
     1
102
RTVSPropertyOp11
 70
     1
102
RTVSPropertyOp12
 70
     1
102
RTVSPropertyOp13
 70
     1
102
RTVSPropertyOp14
 70
     1
102
RTVSPropertyOp15
 70
     1
102
RTVSPropertyOp16
 70
     1
102
RTVSPropertyOp17
 70
     1
102
RTVSPropertyOp18
 70
     1
102
RTVSPropertyOp19
 70
     1
102
RTVSPropertyOp20
 70
     1
102
RTVSPropertyOp21
 70
     1
102
RTVSPropertyOp22
 70
     1
102
RTVSPropertyOp23
 70
     1
102
RTVSPropertyOp24
 70
     1
102
RTVSPropertyOp25
 70
     1
102
RTVSPropertyOp26
 70
     1
102
RTVSPropertyOp27
 70
     1
102
RTVSPropertyOp28
 70
     1
102
RTVSPropertyOp29
 70
     1
102
RTVSPropertyOp30
 70
     1
102
RTVSPropertyOp31
 70
     1
102
RTVSPropertyOp32
 70
     1
  0
XRECORD
  5
115
102
{ACAD_REACTORS
330
114
102
}
330
114
100
AcDbXrecord
280
     1
102
RTVSPropertyOp0
 70
     1
102
RTVSPropertyOp1
 70
     1
102
RTVSPropertyOp2
 70
     1
102
RTVSPropertyOp3
 70
     1
102
RTVSPropertyOp4
 70
     1
102
RTVSPropertyOp5
 70
     1
102
RTVSPropertyOp6
 70
     1
102
RTVSPropertyOp7
 70
     1
102
RTVSPropertyOp8
 70
     1
102
RTVSPropertyOp9
 70
     1
102
RTVSPropertyOp10
 70
     1
102
RTVSPropertyOp11
 70
     1
102
RTVSPropertyOp12
 70
     1
102
RTVSPropertyOp13
 70
     1
102
RTVSPropertyOp14
 70
     1
102
RTVSPropertyOp15
 70
     1
102
RTVSPropertyOp16
 70
     1
102
RTVSPropertyOp17
 70
     1
102
RTVSPropertyOp18
 70
     1
102
RTVSPropertyOp19
 70
     1
102
RTVSPropertyOp20
 70
     1
102
RTVSPropertyOp21
 70
     1
102
RTVSPropertyOp22
 70
     1
102
RTVSPropertyOp23
 70
     1
102
RTVSPropertyOp24
 70
     1
102
RTVSPropertyOp25
 70
     1
102
RTVSPropertyOp26
 70
     1
102
RTVSPropertyOp27
 70
     1
102
RTVSPropertyOp28
 70
     1
102
RTVSPropertyOp29
 70
     1
102
RTVSPropertyOp30
 70
     1
102
RTVSPropertyOp31
 70
     1
102
RTVSPropertyOp32
 70
     1
  0
XRECORD
  5
113
102
{ACAD_REACTORS
330
112
102
}
330
112
100
AcDbXrecord
280
     1
102
RTVSPropertyOp0
 70
     1
102
RTVSPropertyOp1
 70
     1
102
RTVSPropertyOp2
 70
     1
102
RTVSPropertyOp3
 70
     1
102
RTVSPropertyOp4
 70
     1
102
RTVSPropertyOp5
 70
     1
102
RTVSPropertyOp6
 70
     1
102
RTVSPropertyOp7
 70
     1
102
RTVSPropertyOp8
 70
     1
102
RTVSPropertyOp9
 70
     1
102
RTVSPropertyOp10
 70
     1
102
RTVSPropertyOp11
 70
     1
102
RTVSPropertyOp12
 70
     1
102
RTVSPropertyOp13
 70
     1
102
RTVSPropertyOp14
 70
     1
102
RTVSPropertyOp15
 70
     1
102
RTVSPropertyOp16
 70
     1
102
RTVSPropertyOp17
 70
     1
102
RTVSPropertyOp18
 70
     1
102
RTVSPropertyOp19
 70
     1
102
RTVSPropertyOp20
 70
     1
102
RTVSPropertyOp21
 70
     1
102
RTVSPropertyOp22
 70
     1
102
RTVSPropertyOp23
 70
     1
102
RTVSPropertyOp24
 70
     1
102
RTVSPropertyOp25
 70
     1
102
RTVSPropertyOp26
 70
     1
102
RTVSPropertyOp27
 70
     1
102
RTVSPropertyOp28
 70
     1
102
RTVSPropertyOp29
 70
     1
102
RTVSPropertyOp30
 70
     1
102
RTVSPropertyOp31
 70
     1
102
RTVSPropertyOp32
 70
     1
  0
XRECORD
  5
117
102
{ACAD_REACTORS
330
116
102
}
330
116
100
AcDbXrecord
280
     1
102
RTVSPropertyOp0
 70
     1
102
RTVSPropertyOp1
 70
     1
102
RTVSPropertyOp2
 70
     1
102
RTVSPropertyOp3
 70
     1
102
RTVSPropertyOp4
 70
     1
102
RTVSPropertyOp5
 70
     1
102
RTVSPropertyOp6
 70
     1
102
RTVSPropertyOp7
 70
     1
102
RTVSPropertyOp8
 70
     1
102
RTVSPropertyOp9
 70
     1
102
RTVSPropertyOp10
 70
     1
102
RTVSPropertyOp11
 70
     1
102
RTVSPropertyOp12
 70
     1
102
RTVSPropertyOp13
 70
     1
102
RTVSPropertyOp14
 70
     1
102
RTVSPropertyOp15
 70
     1
102
RTVSPropertyOp16
 70
     1
102
RTVSPropertyOp17
 70
     1
102
RTVSPropertyOp18
 70
     1
102
RTVSPropertyOp19
 70
     1
102
RTVSPropertyOp20
 70
     1
102
RTVSPropertyOp21
 70
     1
102
RTVSPropertyOp22
 70
     1
102
RTVSPropertyOp23
 70
     1
102
RTVSPropertyOp24
 70
     1
102
RTVSPropertyOp25
 70
     1
102
RTVSPropertyOp26
 70
     1
102
RTVSPropertyOp27
 70
     1
102
RTVSPropertyOp28
 70
     1
102
RTVSPropertyOp29
 70
     1
102
RTVSPropertyOp30
 70
     1
102
RTVSPropertyOp31
 70
     1
102
RTVSPropertyOp32
 70
     1
  0
XRECORD
  5
11F
102
{ACAD_REACTORS
330
11E
102
}
330
11E
100
AcDbXrecord
280
     1
102
RTVSPropertyOp0
 70
     1
102
RTVSPropertyOp1
 70
     1
102
RTVSPropertyOp2
 70
     1
102
RTVSPropertyOp3
 70
     1
102
RTVSPropertyOp4
 70
     1
102
RTVSPropertyOp5
 70
     1
102
RTVSPropertyOp6
 70
     1
102
RTVSPropertyOp7
 70
     1
102
RTVSPropertyOp8
 70
     1
102
RTVSPropertyOp9
 70
     1
102
RTVSPropertyOp10
 70
     1
102
RTVSPropertyOp11
 70
     1
102
RTVSPropertyOp12
 70
     1
102
RTVSPropertyOp13
 70
     1
102
RTVSPropertyOp14
 70
     1
102
RTVSPropertyOp15
 70
     1
102
RTVSPropertyOp16
 70
     1
102
RTVSPropertyOp17
 70
     1
102
RTVSPropertyOp18
 70
     1
102
RTVSPropertyOp19
 70
     1
102
RTVSPropertyOp20
 70
     1
102
RTVSPropertyOp21
 70
     1
102
RTVSPropertyOp22
 70
     1
102
RTVSPropertyOp23
 70
     1
102
RTVSPropertyOp24
 70
     1
102
RTVSPropertyOp25
 70
     1
102
RTVSPropertyOp26
 70
     1
102
RTVSPropertyOp27
 70
     1
102
RTVSPropertyOp28
 70
     1
102
RTVSPropertyOp29
 70
     1
102
RTVSPropertyOp30
 70
     1
102
RTVSPropertyOp31
 70
     1
102
RTVSPropertyOp32
 70
     1
  0
XRECORD
  5
127
102
{ACAD_REACTORS
330
126
102
}
330
126
100
AcDbXrecord
280
     1
102
RTVSPropertyOp0
 70
     1
102
RTVSPropertyOp1
 70
     1
102
RTVSPropertyOp2
 70
     1
102
RTVSPropertyOp3
 70
     1
102
RTVSPropertyOp4
 70
     1
102
RTVSPropertyOp5
 70
     1
102
RTVSPropertyOp6
 70
     1
102
RTVSPropertyOp7
 70
     1
102
RTVSPropertyOp8
 70
     1
102
RTVSPropertyOp9
 70
     1
102
RTVSPropertyOp10
 70
     1
102
RTVSPropertyOp11
 70
     1
102
RTVSPropertyOp12
 70
     1
102
RTVSPropertyOp13
 70
     1
102
RTVSPropertyOp14
 70
     1
102
RTVSPropertyOp15
 70
     1
102
RTVSPropertyOp16
 70
     1
102
RTVSPropertyOp17
 70
     1
102
RTVSPropertyOp18
 70
     1
102
RTVSPropertyOp19
 70
     1
102
RTVSPropertyOp20
 70
     1
102
RTVSPropertyOp21
 70
     1
102
RTVSPropertyOp22
 70
     1
102
RTVSPropertyOp23
 70
     1
102
RTVSPropertyOp24
 70
     1
102
RTVSPropertyOp25
 70
     1
102
RTVSPropertyOp26
 70
     1
102
RTVSPropertyOp27
 70
     1
102
RTVSPropertyOp28
 70
     1
102
RTVSPropertyOp29
 70
     1
102
RTVSPropertyOp30
 70
     1
102
RTVSPropertyOp31
 70
     1
102
RTVSPropertyOp32
 70
     1
  0
XRECORD
  5
11B
102
{ACAD_REACTORS
330
11A
102
}
330
11A
100
AcDbXrecord
280
     1
102
RTVSPropertyOp0
 70
     1
102
RTVSPropertyOp1
 70
     1
102
RTVSPropertyOp2
 70
     1
102
RTVSPropertyOp3
 70
     1
102
RTVSPropertyOp4
 70
     1
102
RTVSPropertyOp5
 70
     1
102
RTVSPropertyOp6
 70
     1
102
RTVSPropertyOp7
 70
     1
102
RTVSPropertyOp8
 70
     1
102
RTVSPropertyOp9
 70
     1
102
RTVSPropertyOp10
 70
     1
102
RTVSPropertyOp11
 70
     1
102
RTVSPropertyOp12
 70
     1
102
RTVSPropertyOp13
 70
     1
102
RTVSPropertyOp14
 70
     1
102
RTVSPropertyOp15
 70
     1
102
RTVSPropertyOp16
 70
     1
102
RTVSPropertyOp17
 70
     1
102
RTVSPropertyOp18
 70
     1
102
RTVSPropertyOp19
 70
     1
102
RTVSPropertyOp20
 70
     1
102
RTVSPropertyOp21
 70
     1
102
RTVSPropertyOp22
 70
     1
102
RTVSPropertyOp23
 70
     1
102
RTVSPropertyOp24
 70
     1
102
RTVSPropertyOp25
 70
     1
102
RTVSPropertyOp26
 70
     1
102
RTVSPropertyOp27
 70
     1
102
RTVSPropertyOp28
 70
     1
102
RTVSPropertyOp29
 70
     1
102
RTVSPropertyOp30
 70
     1
102
RTVSPropertyOp31
 70
     1
102
RTVSPropertyOp32
 70
     1
  0
XRECORD
  5
11D
102
{ACAD_REACTORS
330
11C
102
}
330
11C
100
AcDbXrecord
280
     1
102
RTVSPropertyOp0
 70
     1
102
RTVSPropertyOp1
 70
     1
102
RTVSPropertyOp2
 70
     1
102
RTVSPropertyOp3
 70
     1
102
RTVSPropertyOp4
 70
     1
102
RTVSPropertyOp5
 70
     1
102
RTVSPropertyOp6
 70
     1
102
RTVSPropertyOp7
 70
     1
102
RTVSPropertyOp8
 70
     1
102
RTVSPropertyOp9
 70
     1
102
RTVSPropertyOp10
 70
     1
102
RTVSPropertyOp11
 70
     1
102
RTVSPropertyOp12
 70
     1
102
RTVSPropertyOp13
 70
     1
102
RTVSPropertyOp14
 70
     1
102
RTVSPropertyOp15
 70
     1
102
RTVSPropertyOp16
 70
     1
102
RTVSPropertyOp17
 70
     1
102
RTVSPropertyOp18
 70
     1
102
RTVSPropertyOp19
 70
     1
102
RTVSPropertyOp20
 70
     1
102
RTVSPropertyOp21
 70
     1
102
RTVSPropertyOp22
 70
     1
102
RTVSPropertyOp23
 70
     1
102
RTVSPropertyOp24
 70
     1
102
RTVSPropertyOp25
 70
     1
102
RTVSPropertyOp26
 70
     1
102
RTVSPropertyOp27
 70
     1
102
RTVSPropertyOp28
 70
     1
102
RTVSPropertyOp29
 70
     1
102
RTVSPropertyOp30
 70
     1
102
RTVSPropertyOp31
 70
     1
102
RTVSPropertyOp32
 70
     1
  0
XRECORD
  5
125
102
{ACAD_REACTORS
330
124
102
}
330
124
100
AcDbXrecord
280
     1
102
RTVSPropertyOp0
 70
     1
102
RTVSPropertyOp1
 70
     1
102
RTVSPropertyOp2
 70
     1
102
RTVSPropertyOp3
 70
     1
102
RTVSPropertyOp4
 70
     1
102
RTVSPropertyOp5
 70
     1
102
RTVSPropertyOp6
 70
     1
102
RTVSPropertyOp7
 70
     1
102
RTVSPropertyOp8
 70
     1
102
RTVSPropertyOp9
 70
     1
102
RTVSPropertyOp10
 70
     1
102
RTVSPropertyOp11
 70
     1
102
RTVSPropertyOp12
 70
     1
102
RTVSPropertyOp13
 70
     1
102
RTVSPropertyOp14
 70
     1
102
RTVSPropertyOp15
 70
     1
102
RTVSPropertyOp16
 70
     1
102
RTVSPropertyOp17
 70
     1
102
RTVSPropertyOp18
 70
     1
102
RTVSPropertyOp19
 70
     1
102
RTVSPropertyOp20
 70
     1
102
RTVSPropertyOp21
 70
     1
102
RTVSPropertyOp22
 70
     1
102
RTVSPropertyOp23
 70
     1
102
RTVSPropertyOp24
 70
     1
102
RTVSPropertyOp25
 70
     1
102
RTVSPropertyOp26
 70
     1
102
RTVSPropertyOp27
 70
     1
102
RTVSPropertyOp28
 70
     1
102
RTVSPropertyOp29
 70
     1
102
RTVSPropertyOp30
 70
     1
102
RTVSPropertyOp31
 70
     1
102
RTVSPropertyOp32
 70
     1
  0
XRECORD
  5
109
102
{ACAD_REACTORS
330
108
102
}
330
108
100
AcDbXrecord
280
     1
102
RTVSPropertyOp0
 70
     1
102
RTVSPropertyOp1
 70
     1
102
RTVSPropertyOp2
 70
     1
102
RTVSPropertyOp3
 70
     1
102
RTVSPropertyOp4
 70
     1
102
RTVSPropertyOp5
 70
     1
102
RTVSPropertyOp6
 70
     1
102
RTVSPropertyOp7
 70
     1
102
RTVSPropertyOp8
 70
     1
102
RTVSPropertyOp9
 70
     1
102
RTVSPropertyOp10
 70
     1
102
RTVSPropertyOp11
 70
     1
102
RTVSPropertyOp12
 70
     1
102
RTVSPropertyOp13
 70
     1
102
RTVSPropertyOp14
 70
     1
102
RTVSPropertyOp15
 70
     1
102
RTVSPropertyOp16
 70
     1
102
RTVSPropertyOp17
 70
     1
102
RTVSPropertyOp18
 70
     1
102
RTVSPropertyOp19
 70
     1
102
RTVSPropertyOp20
 70
     1
102
RTVSPropertyOp21
 70
     1
102
RTVSPropertyOp22
 70
     1
102
RTVSPropertyOp23
 70
     1
102
RTVSPropertyOp24
 70
     1
102
RTVSPropertyOp25
 70
     1
102
RTVSPropertyOp26
 70
     1
102
RTVSPropertyOp27
 70
     1
102
RTVSPropertyOp28
 70
     1
102
RTVSPropertyOp29
 70
     1
102
RTVSPropertyOp30
 70
     1
102
RTVSPropertyOp31
 70
     1
102
RTVSPropertyOp32
 70
     1
  0
XRECORD
  5
10B
102
{ACAD_REACTORS
330
10A
102
}
330
10A
100
AcDbXrecord
280
     1
102
RTVSPropertyOp0
 70
     1
102
RTVSPropertyOp1
 70
     1
102
RTVSPropertyOp2
 70
     1
102
RTVSPropertyOp3
 70
     1
102
RTVSPropertyOp4
 70
     1
102
RTVSPropertyOp5
 70
     1
102
RTVSPropertyOp6
 70
     1
102
RTVSPropertyOp7
 70
     1
102
RTVSPropertyOp8
 70
     1
102
RTVSPropertyOp9
 70
     1
102
RTVSPropertyOp10
 70
     1
102
RTVSPropertyOp11
 70
     1
102
RTVSPropertyOp12
 70
     1
102
RTVSPropertyOp13
 70
     1
102
RTVSPropertyOp14
 70
     1
102
RTVSPropertyOp15
 70
     1
102
RTVSPropertyOp16
 70
     1
102
RTVSPropertyOp17
 70
     1
102
RTVSPropertyOp18
 70
     1
102
RTVSPropertyOp19
 70
     1
102
RTVSPropertyOp20
 70
     1
102
RTVSPropertyOp21
 70
     1
102
RTVSPropertyOp22
 70
     1
102
RTVSPropertyOp23
 70
     1
102
RTVSPropertyOp24
 70
     1
102
RTVSPropertyOp25
 70
     1
102
RTVSPropertyOp26
 70
     1
102
RTVSPropertyOp27
 70
     1
102
RTVSPropertyOp28
 70
     1
102
RTVSPropertyOp29
 70
     1
102
RTVSPropertyOp30
 70
     1
102
RTVSPropertyOp31
 70
     1
102
RTVSPropertyOp32
 70
     1
  0
XRECORD
  5
10D
102
{ACAD_REACTORS
330
10C
102
}
330
10C
100
AcDbXrecord
280
     1
102
RTVSPropertyOp0
 70
     1
102
RTVSPropertyOp1
 70
     1
102
RTVSPropertyOp2
 70
     1
102
RTVSPropertyOp3
 70
     1
102
RTVSPropertyOp4
 70
     1
102
RTVSPropertyOp5
 70
     1
102
RTVSPropertyOp6
 70
     1
102
RTVSPropertyOp7
 70
     1
102
RTVSPropertyOp8
 70
     1
102
RTVSPropertyOp9
 70
     1
102
RTVSPropertyOp10
 70
     1
102
RTVSPropertyOp11
 70
     1
102
RTVSPropertyOp12
 70
     1
102
RTVSPropertyOp13
 70
     1
102
RTVSPropertyOp14
 70
     1
102
RTVSPropertyOp15
 70
     1
102
RTVSPropertyOp16
 70
     1
102
RTVSPropertyOp17
 70
     1
102
RTVSPropertyOp18
 70
     1
102
RTVSPropertyOp19
 70
     1
102
RTVSPropertyOp20
 70
     1
102
RTVSPropertyOp21
 70
     1
102
RTVSPropertyOp22
 70
     1
102
RTVSPropertyOp23
 70
     1
102
RTVSPropertyOp24
 70
     1
102
RTVSPropertyOp25
 70
     1
102
RTVSPropertyOp26
 70
     1
102
RTVSPropertyOp27
 70
     1
102
RTVSPropertyOp28
 70
     1
102
RTVSPropertyOp29
 70
     1
102
RTVSPropertyOp30
 70
     1
102
RTVSPropertyOp31
 70
     1
102
RTVSPropertyOp32
 70
     1
  0
XRECORD
  5
10F
102
{ACAD_REACTORS
330
10E
102
}
330
10E
100
AcDbXrecord
280
     1
102
RTVSPropertyOp0
 70
     1
102
RTVSPropertyOp1
 70
     1
102
RTVSPropertyOp2
 70
     1
102
RTVSPropertyOp3
 70
     1
102
RTVSPropertyOp4
 70
     1
102
RTVSPropertyOp5
 70
     1
102
RTVSPropertyOp6
 70
     1
102
RTVSPropertyOp7
 70
     1
102
RTVSPropertyOp8
 70
     1
102
RTVSPropertyOp9
 70
     1
102
RTVSPropertyOp10
 70
     1
102
RTVSPropertyOp11
 70
     1
102
RTVSPropertyOp12
 70
     1
102
RTVSPropertyOp13
 70
     1
102
RTVSPropertyOp14
 70
     1
102
RTVSPropertyOp15
 70
     1
102
RTVSPropertyOp16
 70
     1
102
RTVSPropertyOp17
 70
     1
102
RTVSPropertyOp18
 70
     1
102
RTVSPropertyOp19
 70
     1
102
RTVSPropertyOp20
 70
     1
102
RTVSPropertyOp21
 70
     1
102
RTVSPropertyOp22
 70
     1
102
RTVSPropertyOp23
 70
     1
102
RTVSPropertyOp24
 70
     1
102
RTVSPropertyOp25
 70
     1
102
RTVSPropertyOp26
 70
     1
102
RTVSPropertyOp27
 70
     1
102
RTVSPropertyOp28
 70
     1
102
RTVSPropertyOp29
 70
     1
102
RTVSPropertyOp30
 70
     1
102
RTVSPropertyOp31
 70
     1
102
RTVSPropertyOp32
 70
     1
  0
XRECORD
  5
123
102
{ACAD_REACTORS
330
122
102
}
330
122
100
AcDbXrecord
280
     1
102
RTVSPropertyOp0
 70
     1
102
RTVSPropertyOp1
 70
     1
102
RTVSPropertyOp2
 70
     1
102
RTVSPropertyOp3
 70
     1
102
RTVSPropertyOp4
 70
     1
102
RTVSPropertyOp5
 70
     1
102
RTVSPropertyOp6
 70
     1
102
RTVSPropertyOp7
 70
     1
102
RTVSPropertyOp8
 70
     1
102
RTVSPropertyOp9
 70
     1
102
RTVSPropertyOp10
 70
     1
102
RTVSPropertyOp11
 70
     1
102
RTVSPropertyOp12
 70
     1
102
RTVSPropertyOp13
 70
     1
102
RTVSPropertyOp14
 70
     1
102
RTVSPropertyOp15
 70
     1
102
RTVSPropertyOp16
 70
     1
102
RTVSPropertyOp17
 70
     1
102
RTVSPropertyOp18
 70
     1
102
RTVSPropertyOp19
 70
     1
102
RTVSPropertyOp20
 70
     1
102
RTVSPropertyOp21
 70
     1
102
RTVSPropertyOp22
 70
     1
102
RTVSPropertyOp23
 70
     1
102
RTVSPropertyOp24
 70
     1
102
RTVSPropertyOp25
 70
     1
102
RTVSPropertyOp26
 70
     1
102
RTVSPropertyOp27
 70
     1
102
RTVSPropertyOp28
 70
     1
102
RTVSPropertyOp29
 70
     1
102
RTVSPropertyOp30
 70
     1
102
RTVSPropertyOp31
 70
     1
102
RTVSPropertyOp32
 70
     1
  0
XRECORD
  5
119
102
{ACAD_REACTORS
330
118
102
}
330
118
100
AcDbXrecord
280
     1
102
RTVSPropertyOp0
 70
     1
102
RTVSPropertyOp1
 70
     1
102
RTVSPropertyOp2
 70
     1
102
RTVSPropertyOp3
 70
     1
102
RTVSPropertyOp4
 70
     1
102
RTVSPropertyOp5
 70
     1
102
RTVSPropertyOp6
 70
     1
102
RTVSPropertyOp7
 70
     1
102
RTVSPropertyOp8
 70
     1
102
RTVSPropertyOp9
 70
     1
102
RTVSPropertyOp10
 70
     1
102
RTVSPropertyOp11
 70
     1
102
RTVSPropertyOp12
 70
     1
102
RTVSPropertyOp13
 70
     1
102
RTVSPropertyOp14
 70
     1
102
RTVSPropertyOp15
 70
     1
102
RTVSPropertyOp16
 70
     1
102
RTVSPropertyOp17
 70
     1
102
RTVSPropertyOp18
 70
     1
102
RTVSPropertyOp19
 70
     1
102
RTVSPropertyOp20
 70
     1
102
RTVSPropertyOp21
 70
     1
102
RTVSPropertyOp22
 70
     1
102
RTVSPropertyOp23
 70
     1
102
RTVSPropertyOp24
 70
     1
102
RTVSPropertyOp25
 70
     1
102
RTVSPropertyOp26
 70
     1
102
RTVSPropertyOp27
 70
     1
102
RTVSPropertyOp28
 70
     1
102
RTVSPropertyOp29
 70
     1
102
RTVSPropertyOp30
 70
     1
102
RTVSPropertyOp31
 70
     1
102
RTVSPropertyOp32
 70
     1
  0
XRECORD
  5
121
102
{ACAD_REACTORS
330
120
102
}
330
120
100
AcDbXrecord
280
     1
102
RTVSPropertyOp0
 70
     1
102
RTVSPropertyOp1
 70
     1
102
RTVSPropertyOp2
 70
     1
102
RTVSPropertyOp3
 70
     1
102
RTVSPropertyOp4
 70
     1
102
RTVSPropertyOp5
 70
     1
102
RTVSPropertyOp6
 70
     1
102
RTVSPropertyOp7
 70
     1
102
RTVSPropertyOp8
 70
     1
102
RTVSPropertyOp9
 70
     1
102
RTVSPropertyOp10
 70
     1
102
RTVSPropertyOp11
 70
     1
102
RTVSPropertyOp12
 70
     1
102
RTVSPropertyOp13
 70
     1
102
RTVSPropertyOp14
 70
     1
102
RTVSPropertyOp15
 70
     1
102
RTVSPropertyOp16
 70
     1
102
RTVSPropertyOp17
 70
     1
102
RTVSPropertyOp18
 70
     1
102
RTVSPropertyOp19
 70
     1
102
RTVSPropertyOp20
 70
     1
102
RTVSPropertyOp21
 70
     1
102
RTVSPropertyOp22
 70
     1
102
RTVSPropertyOp23
 70
     1
102
RTVSPropertyOp24
 70
     1
102
RTVSPropertyOp25
 70
     1
102
RTVSPropertyOp26
 70
     1
102
RTVSPropertyOp27
 70
     1
102
RTVSPropertyOp28
 70
     1
102
RTVSPropertyOp29
 70
     1
102
RTVSPropertyOp30
 70
     1
102
RTVSPropertyOp31
 70
     1
102
RTVSPropertyOp32
 70
     1
  0
ENDSEC
  0
EOF
