  0
SECTION
  2
HEADER
  9
$ACADVER
  1
AC1021
  9
$ACADMAINTVER
 70
    25
  9
$DWGCODEPAGE
  3
ANSI_1256
  9
$INSBASE
 10
0.0
 20
0.0
 30
0.0
  9
$EXTMIN
 10
55.7677
 20
-111.9103
 30
0.0
  9
$EXTMAX
 10
124.5789
 20
127.584
 30
0.0
  9
$LIMMIN
 10
0.0
 20
0.0
  9
$LIMMAX
 10
12.0
 20
9.0
  9
$ORTHOMODE
 70
     0
  9
$REGENMODE
 70
     1
  9
$FILLMODE
 70
     1
  9
$QTEXTMODE
 70
     0
  9
$MIRRTEXT
 70
     1
  9
$LTSCALE
 40
1.0
  9
$ATTMODE
 70
     1
  9
$TEXTSIZE
 40
0.2
  9
$TRACEWID
 40
0.05
  9
$TEXTSTYLE
  7
Standard
  9
$CLAYER
  8
0
  9
$CELTYPE
  6
ByLayer
  9
$CECOLOR
 62
   256
  9
$CELTSCALE
 40
1.0
  9
$DISPSILH
 70
     0
  9
$DIMSCALE
 40
1.0
  9
$DIMASZ
 40
0.18
  9
$DIMEXO
 40
0.0625
  9
$DIMDLI
 40
0.38
  9
$DIMRND
 40
0.0
  9
$DIMDLE
 40
0.0
  9
$DIMEXE
 40
0.18
  9
$DIMTP
 40
0.0
  9
$DIMTM
 40
0.0
  9
$DIMTXT
 40
0.18
  9
$DIMCEN
 40
0.09
  9
$DIMTSZ
 40
0.0
  9
$DIMTOL
 70
     0
  9
$DIMLIM
 70
     0
  9
$DIMTIH
 70
     1
  9
$DIMTOH
 70
     1
  9
$DIMSE1
 70
     0
  9
$DIMSE2
 70
     0
  9
$DIMTAD
 70
     0
  9
$DIMZIN
 70
     0
  9
$DIMBLK
  1

  9
$DIMASO
 70
     1
  9
$DIMSHO
 70
     1
  9
$DIMPOST
  1

  9
$DIMAPOST
  1

  9
$DIMALT
 70
     0
  9
$DIMALTD
 70
     2
  9
$DIMALTF
 40
25.4
  9
$DIMLFAC
 40
1.0
  9
$DIMTOFL
 70
     0
  9
$DIMTVP
 40
0.0
  9
$DIMTIX
 70
     0
  9
$DIMSOXD
 70
     0
  9
$DIMSAH
 70
     0
  9
$DIMBLK1
  1

  9
$DIMBLK2
  1

  9
$DIMSTYLE
  2
Standard
  9
$DIMCLRD
 70
     0
  9
$DIMCLRE
 70
     0
  9
$DIMCLRT
 70
     0
  9
$DIMTFAC
 40
1.0
  9
$DIMGAP
 40
0.09
  9
$DIMJUST
 70
     0
  9
$DIMSD1
 70
     0
  9
$DIMSD2
 70
     0
  9
$DIMTOLJ
 70
     1
  9
$DIMTZIN
 70
     0
  9
$DIMALTZ
 70
     0
  9
$DIMALTTZ
 70
     0
  9
$DIMUPT
 70
     0
  9
$DIMDEC
 70
     4
  9
$DIMTDEC
 70
     4
  9
$DIMALTU
 70
     2
  9
$DIMALTTD
 70
     2
  9
$DIMTXSTY
  7
Standard
  9
$DIMAUNIT
 70
     0
  9
$DIMADEC
 70
     0
  9
$DIMALTRND
 40
0.0
  9
$DIMAZIN
 70
     0
  9
$DIMDSEP
 70
    46
  9
$DIMATFIT
 70
     3
  9
$DIMFRAC
 70
     0
  9
$DIMLDRBLK
  1

  9
$DIMLUNIT
 70
     2
  9
$DIMLWD
 70
    -2
  9
$DIMLWE
 70
    -2
  9
$DIMTMOVE
 70
     0
  9
$DIMFXL
 40
1.0
  9
$DIMFXLON
 70
     0
  9
$DIMJOGANG
 40
0.7853981633974483
  9
$DIMTFILL
 70
     0
  9
$DIMTFILLCLR
 70
     0
  9
$DIMARCSYM
 70
     0
  9
$DIMLTYPE
  6

  9
$DIMLTEX1
  6

  9
$DIMLTEX2
  6

  9
$LUNITS
 70
     2
  9
$LUPREC
 70
     4
  9
$SKETCHINC
 40
0.1
  9
$FILLETRAD
 40
0.5
  9
$AUNITS
 70
     0
  9
$AUPREC
 70
     0
  9
$MENU
  1
.
  9
$ELEVATION
 40
0.0
  9
$PELEVATION
 40
0.0
  9
$THICKNESS
 40
0.0
  9
$LIMCHECK
 70
     0
  9
$CHAMFERA
 40
0.5
  9
$CHAMFERB
 40
0.5
  9
$CHAMFERC
 40
1.0
  9
$CHAMFERD
 40
0.0
  9
$SKPOLY
 70
     0
  9
$TDCREATE
 40
2458479.380978391
  9
$TDUCREATE
 40
2458479.214311725
  9
$TDUPDATE
 40
2458479.380978622
  9
$TDUUPDATE
 40
2458479.214311956
  9
$TDINDWG
 40
0.0000000116
  9
$TDUSRTIMER
 40
0.0000000116
  9
$USRTIMER
 70
     1
  9
$ANGBASE
 50
0.0
  9
$ANGDIR
 70
     0
  9
$PDMODE
 70
     0
  9
$PDSIZE
 40
0.0
  9
$PLINEWID
 40
0.0
  9
$SPLFRAME
 70
     0
  9
$SPLINETYPE
 70
     6
  9
$SPLINESEGS
 70
     8
  9
$HANDSEED
  5
E5
  9
$SURFTAB1
 70
     6
  9
$SURFTAB2
 70
     6
  9
$SURFTYPE
 70
     6
  9
$SURFU
 70
     6
  9
$SURFV
 70
     6
  9
$UCSBASE
  2

  9
$UCSNAME
  2

  9
$UCSORG
 10
0.0
 20
0.0
 30
0.0
  9
$UCSXDIR
 10
1.0
 20
0.0
 30
0.0
  9
$UCSYDIR
 10
0.0
 20
1.0
 30
0.0
  9
$UCSORTHOREF
  2

  9
$UCSORTHOVIEW
 70
     0
  9
$UCSORGTOP
 10
0.0
 20
0.0
 30
0.0
  9
$UCSORGBOTTOM
 10
0.0
 20
0.0
 30
0.0
  9
$UCSORGLEFT
 10
0.0
 20
0.0
 30
0.0
  9
$UCSORGRIGHT
 10
0.0
 20
0.0
 30
0.0
  9
$UCSORGFRONT
 10
0.0
 20
0.0
 30
0.0
  9
$UCSORGBACK
 10
0.0
 20
0.0
 30
0.0
  9
$PUCSBASE
  2

  9
$PUCSNAME
  2

  9
$PUCSORG
 10
0.0
 20
0.0
 30
0.0
  9
$PUCSXDIR
 10
1.0
 20
0.0
 30
0.0
  9
$PUCSYDIR
 10
0.0
 20
1.0
 30
0.0
  9
$PUCSORTHOREF
  2

  9
$PUCSORTHOVIEW
 70
     0
  9
$PUCSORGTOP
 10
0.0
 20
0.0
 30
0.0
  9
$PUCSORGBOTTOM
 10
0.0
 20
0.0
 30
0.0
  9
$PUCSORGLEFT
 10
0.0
 20
0.0
 30
0.0
  9
$PUCSORGRIGHT
 10
0.0
 20
0.0
 30
0.0
  9
$PUCSORGFRONT
 10
0.0
 20
0.0
 30
0.0
  9
$PUCSORGBACK
 10
0.0
 20
0.0
 30
0.0
  9
$USERI1
 70
     0
  9
$USERI2
 70
     0
  9
$USERI3
 70
     0
  9
$USERI4
 70
     0
  9
$USERI5
 70
     0
  9
$USERR1
 40
0.0
  9
$USERR2
 40
0.0
  9
$USERR3
 40
0.0
  9
$USERR4
 40
0.0
  9
$USERR5
 40
0.0
  9
$WORLDVIEW
 70
     1
  9
$SHADEDGE
 70
     3
  9
$SHADEDIF
 70
    70
  9
$TILEMODE
 70
     1
  9
$MAXACTVP
 70
    64
  9
$PINSBASE
 10
0.0
 20
0.0
 30
0.0
  9
$PLIMCHECK
 70
     0
  9
$PEXTMIN
 10
1.000000000000000E+20
 20
1.000000000000000E+20
 30
1.000000000000000E+20
  9
$PEXTMAX
 10
-1.000000000000000E+20
 20
-1.000000000000000E+20
 30
-1.000000000000000E+20
  9
$PLIMMIN
 10
0.0
 20
0.0
  9
$PLIMMAX
 10
12.0
 20
9.0
  9
$UNITMODE
 70
     0
  9
$VISRETAIN
 70
     1
  9
$PLINEGEN
 70
     0
  9
$PSLTSCALE
 70
     1
  9
$TREEDEPTH
 70
  3020
  9
$CMLSTYLE
  2
Standard
  9
$CMLJUST
 70
     0
  9
$CMLSCALE
 40
1.0
  9
$PROXYGRAPHICS
 70
     1
  9
$MEASUREMENT
 70
     0
  9
$CELWEIGHT
370
    -1
  9
$ENDCAPS
280
     0
  9
$JOINSTYLE
280
     0
  9
$LWDISPLAY
290
     0
  9
$INSUNITS
 70
     4
  9
$HYPERLINKBASE
  1

  9
$STYLESHEET
  1

  9
$XEDIT
290
     1
  9
$CEPSNTYPE
380
     0
  9
$PSTYLEMODE
290
     1
  9
$FINGERPRINTGUID
  2
{0AFD570A-22F3-4A36-9C84-A164E64765EF}
  9
$VERSIONGUID
  2
{FAEB1C32-E019-11D5-929B-00C0DF256EC4}
  9
$EXTNAMES
290
     1
  9
$PSVPSCALE
 40
0.0
  9
$OLESTARTUP
290
     0
  9
$SORTENTS
280
   127
  9
$INDEXCTL
280
     0
  9
$HIDETEXT
280
     1
  9
$XCLIPFRAME
290
     0
  9
$HALOGAP
280
     0
  9
$OBSCOLOR
 70
   257
  9
$OBSLTYPE
280
     0
  9
$INTERSECTIONDISPLAY
280
     0
  9
$INTERSECTIONCOLOR
 70
   257
  9
$DIMASSOC
280
     2
  9
$PROJECTNAME
  1

  9
$CAMERADISPLAY
290
     0
  9
$LENSLENGTH
 40
50.0
  9
$CAMERAHEIGHT
 40
0.0
  9
$STEPSPERSEC
 40
2.0
  9
$STEPSIZE
 40
6.0
  9
$3DDWFPREC
 40
2.0
  9
$PSOLWIDTH
 40
0.25
  9
$PSOLHEIGHT
 40
4.0
  9
$LOFTANG1
 40
1.570796326794897
  9
$LOFTANG2
 40
1.570796326794897
  9
$LOFTMAG1
 40
0.0
  9
$LOFTMAG2
 40
0.0
  9
$LOFTPARAM
 70
     7
  9
$LOFTNORMALS
280
     1
  9
$LATITUDE
 40
37.795
  9
$LONGITUDE
 40
-122.394
  9
$NORTHDIRECTION
 40
0.0
  9
$TIMEZONE
 70
 -8000
  9
$LIGHTGLYPHDISPLAY
280
     1
  9
$TILEMODELIGHTSYNCH
280
     1
  9
$SOLIDHIST
280
     1
  9
$SHOWHIST
280
     1
  9
$DWFFRAME
280
     2
  9
$DGNFRAME
280
     2
  9
$REALWORLDSCALE
290
     1
  9
$INTERFERECOLOR
 62
   256
  9
$CSHADOW
280
     0
  9
$SHADOWPLANELOCATION
 40
0.0
  0
ENDSEC
  0
SECTION
  2
CLASSES
  0
CLASS
  1
ACDBDICTIONARYWDFLT
  2
AcDbDictionaryWithDefault
  3
ObjectDBX Classes
 90
        0
 91
        4
280
     0
281
     0
  0
CLASS
  1
VISUALSTYLE
  2
AcDbVisualStyle
  3
ObjectDBX Classes
 90
     4095
 91
        4
280
     0
281
     0
  0
CLASS
  1
MATERIAL
  2
AcDbMaterial
  3
ObjectDBX Classes
 90
     1153
 91
        4
280
     0
281
     0
  0
ENDSEC
  0
SECTION
  2
TABLES
  0
TABLE
  2
VPORT
  5
8
330
0
100
AcDbSymbolTable
 70
     1
  0
VPORT
  5
29
330
8
100
AcDbSymbolTableRecord
100
AcDbViewportTableRecord
  2
*Active
 70
     0
 10
0.0
 20
0.0
 11
1.0
 21
1.0
 12
10.42990654205607
 22
4.5
 13
0.0
 23
0.0
 14
0.5
 24
0.5
 15
0.5
 25
0.5
 16
0.0
 26
0.0
 36
1.0
 17
0.0
 27
0.0
 37
0.0
 40
9.0
 41
1.972972972850329
 42
50.0
 43
0.0
 44
0.0
 50
0.0
 51
0.0
 71
     0
 72
   100
 73
     1
 74
     3
 75
     0
 76
     0
 77
     0
 78
     0
281
     0
 65
     1
110
0.0
120
0.0
130
0.0
111
1.0
121
0.0
131
0.0
112
0.0
122
1.0
132
0.0
 79
     0
146
0.0
 60
     3
 61
     5
292
     1
282
     1
141
0.0
142
0.0
 63
   250
  0
ENDTAB
  0
TABLE
  2
LTYPE
  5
5
330
0
100
AcDbSymbolTable
 70
     1
  0
LTYPE
  5
14
330
5
100
AcDbSymbolTableRecord
100
AcDbLinetypeTableRecord
  2
ByBlock
 70
     0
  3

 72
    65
 73
     0
 40
0.0
  0
LTYPE
  5
15
330
5
100
AcDbSymbolTableRecord
100
AcDbLinetypeTableRecord
  2
ByLayer
 70
     0
  3

 72
    65
 73
     0
 40
0.0
  0
LTYPE
  5
16
330
5
100
AcDbSymbolTableRecord
100
AcDbLinetypeTableRecord
  2
Continuous
 70
     0
  3
Solid line
 72
    65
 73
     0
 40
0.0
  0
ENDTAB
  0
TABLE
  2
LAYER
  5
2
330
0
100
AcDbSymbolTable
 70
     3
  0
LAYER
  5
10
330
2
100
AcDbSymbolTableRecord
100
AcDbLayerTableRecord
  2
0
 70
     0
 62
     7
  6
Continuous
370
    -3
390
F
347
3E
  0
LAYER
  5
40
330
2
100
AcDbSymbolTableRecord
100
AcDbLayerTableRecord
  2
layer 1
 70
     0
 62
     7
  6
Continuous
370
    -3
390
F
347
3E
  0
LAYER
  5
C2
330
2
100
AcDbSymbolTableRecord
100
AcDbLayerTableRecord
  2
Master Guides
 70
     0
 62
     7
  6
Continuous
370
    -3
390
F
347
3E
  0
ENDTAB
  0
TABLE
  2
STYLE
  5
3
330
0
100
AcDbSymbolTable
 70
     1
  0
STYLE
  5
11
330
3
100
AcDbSymbolTableRecord
100
AcDbTextStyleTableRecord
  2
Standard
 70
     0
 40
0.0
 41
1.0
 50
0.0
 71
     0
 42
0.2
  3
txt
  4

  0
ENDTAB
  0
TABLE
  2
VIEW
  5
6
330
0
100
AcDbSymbolTable
 70
     0
  0
ENDTAB
  0
TABLE
  2
UCS
  5
7
330
0
100
AcDbSymbolTable
 70
     0
  0
ENDTAB
  0
TABLE
  2
APPID
  5
9
330
0
100
AcDbSymbolTable
 70
     2
  0
APPID
  5
12
330
9
100
AcDbSymbolTableRecord
100
AcDbRegAppTableRecord
  2
ACAD
 70
     0
  0
APPID
  5
3F
330
9
100
AcDbSymbolTableRecord
100
AcDbRegAppTableRecord
  2
ODA
 70
     0
  0
ENDTAB
  0
TABLE
  2
DIMSTYLE
  5
A
330
0
100
AcDbSymbolTable
 70
     1
100
AcDbDimStyleTable
  0
DIMSTYLE
105
27
330
A
100
AcDbSymbolTableRecord
100
AcDbDimStyleTableRecord
  2
Standard
 70
     0
178
     0
340
11
  0
ENDTAB
  0
TABLE
  2
BLOCK_RECORD
  5
1
330
0
100
AcDbSymbolTable
 70
     1
  0
BLOCK_RECORD
  5
1F
330
1
100
AcDbSymbolTableRecord
100
AcDbBlockTableRecord
  2
*Model_Space
340
22
 70
     0
280
     1
281
     0
  0
BLOCK_RECORD
  5
1B
330
1
100
AcDbSymbolTableRecord
100
AcDbBlockTableRecord
  2
*Paper_Space
340
1E
 70
     0
280
     1
281
     0
  0
BLOCK_RECORD
  5
23
330
1
100
AcDbSymbolTableRecord
100
AcDbBlockTableRecord
  2
*Paper_Space0
340
26
 70
     0
280
     1
281
     0
  0
ENDTAB
  0
ENDSEC
  0
SECTION
  2
BLOCKS
  0
BLOCK
  5
20
330
1F
100
AcDbEntity
  8
0
100
AcDbBlockBegin
  2
*Model_Space
 70
     0
 10
0.0
 20
0.0
 30
0.0
  3
*Model_Space
  1

  0
ENDBLK
  5
21
330
1F
100
AcDbEntity
  8
0
100
AcDbBlockEnd
  0
BLOCK
  5
1C
330
1B
100
AcDbEntity
 67
     1
  8
0
100
AcDbBlockBegin
  2
*Paper_Space
 70
     0
 10
0.0
 20
0.0
 30
0.0
  3
*Paper_Space
  1

  0
ENDBLK
  5
1D
330
1B
100
AcDbEntity
 67
     1
  8
0
100
AcDbBlockEnd
  0
BLOCK
  5
24
330
23
100
AcDbEntity
  8
0
100
AcDbBlockBegin
  2
*Paper_Space0
 70
     0
 10
0.0
 20
0.0
 30
0.0
  3
*Paper_Space0
  1

  0
ENDBLK
  5
25
330
23
100
AcDbEntity
  8
0
100
AcDbBlockEnd
  0
ENDSEC
  0
SECTION
  2
ENTITIES
  0
SPLINE
  5
41
330
1F
100
AcDbEntity
  8
layer 1
 62
   250
100
AcDbSpline
210
0.0
220
0.0
230
1.0
 70
    11
 71
     3
 72
    20
 73
    16
 74
     0
 42
0.0000000001
 43
0.0000000001
 12
1.0
 22
0.0
 32
0.0
 13
1.0
 23
0.0
 33
0.0
 40
0.0
 40
0.0
 40
0.0
 40
0.0
 40
0.2
 40
0.2
 40
0.2
 40
0.2
 40
0.4
 40
0.4
 40
0.4
 40
0.4
 40
0.6
 40
0.6
 40
0.6
 40
0.6
 40
1.0
 40
1.0
 40
1.0
 40
1.0
 10
55.7677
 20
127.584
 30
0.0
 10
78.7048
 20
127.584
 30
0.0
 10
101.6419
 20
127.584
 30
0.0
 10
124.5789
 20
127.584
 30
0.0
 10
124.5789
 20
127.584
 30
0.0
 10
124.5789
 20
127.584
 30
0.0
 10
124.5789
 20
-111.9103
 30
0.0
 10
124.5789
 20
-111.9103
 30
0.0
 10
124.5789
 20
-111.9103
 30
0.0
 10
101.6419
 20
-111.9103
 30
0.0
 10
78.7048
 20
-111.9103
 30
0.0
 10
55.7677
 20
-111.9103
 30
0.0
 10
55.7677
 20
-111.9103
 30
0.0
 10
55.7677
 20
-111.9103
 30
0.0
 10
55.7677
 20
127.584
 30
0.0
 10
55.7677
 20
127.584
 30
0.0
  0
SPLINE
  5
42
330
1F
100
AcDbEntity
  8
layer 1
 62
     7
100
AcDbSpline
210
0.0
220
0.0
230
1.0
 70
    11
 71
     3
 72
    16
 73
    12
 74
     0
 42
0.0000000001
 43
0.0000000001
 12
1.0
 22
0.0
 32
0.0
 13
1.0
 23
0.0
 33
0.0
 40
0.0
 40
0.0
 40
0.0
 40
0.0
 40
0.25
 40
0.25
 40
0.25
 40
0.25
 40
0.5
 40
0.5
 40
0.5
 40
0.5
 40
1.0
 40
1.0
 40
1.0
 40
1.0
 10
92.0269
 20
10.8066
 30
0.0
 10
92.8435
 20
12.5154
 30
0.0
 10
93.9774
 20
14.0498
 30
0.0
 10
95.3562
 20
15.4096
 30
0.0
 10
95.3562
 20
15.4096
 30
0.0
 10
97.3045
 20
17.332
 30
0.0
 10
100.8076
 20
19.8327
 30
0.0
 10
103.8149
 20
18.7286
 30
0.0
 10
103.8149
 20
18.7286
 30
0.0
 10
100.1431
 20
15.7625
 30
0.0
 10
96.1522
 20
13.188
 30
0.0
 10
92.0269
 20
10.8066
 30
0.0
  0
SPLINE
  5
43
330
1F
100
AcDbEntity
  8
layer 1
 62
     7
100
AcDbSpline
210
0.0
220
0.0
230
1.0
 70
    11
 71
     3
 72
    16
 73
    12
 74
     0
 42
0.0000000001
 43
0.0000000001
 12
1.0
 22
0.0
 32
0.0
 13
1.0
 23
0.0
 33
0.0
 40
0.0
 40
0.0
 40
0.0
 40
0.0
 40
0.25
 40
0.25
 40
0.25
 40
0.25
 40
0.5
 40
0.5
 40
0.5
 40
0.5
 40
1.0
 40
1.0
 40
1.0
 40
1.0
 10
88.5532
 20
10.716
 30
0.0
 10
84.3647
 20
13.1393
 30
0.0
 10
80.3074
 20
15.7473
 30
0.0
 10
76.5831
 20
18.7677
 30
0.0
 10
76.5831
 20
18.7677
 30
0.0
 10
78.4901
 20
19.5254
 30
0.0
 10
80.4777
 20
18.7901
 30
0.0
 10
82.133
 20
17.8238
 30
0.0
 10
82.133
 20
17.8238
 30
0.0
 10
84.8553
 20
16.2344
 30
0.0
 10
87.2399
 20
13.4594
 30
0.0
 10
88.5532
 20
10.716
 30
0.0
  0
SPLINE
  5
44
330
1F
100
AcDbEntity
  8
layer 1
 62
     7
100
AcDbSpline
210
0.0
220
0.0
230
1.0
 70
    11
 71
     3
 72
    12
 73
     8
 74
     0
 42
0.0000000001
 43
0.0000000001
 12
1.0
 22
0.0
 32
0.0
 13
1.0
 23
0.0
 33
0.0
 40
0.0
 40
0.0
 40
0.0
 40
0.0
 40
0.3333333333333333
 40
0.3333333333333333
 40
0.3333333333333333
 40
0.3333333333333333
 40
1.0
 40
1.0
 40
1.0
 40
1.0
 10
90.2128
 20
59.7592
 30
0.0
 10
91.6908
 20
58.5597
 30
0.0
 10
90.4743
 20
56.4219
 30
0.0
 10
89.6748
 20
57.6752
 30
0.0
 10
89.6748
 20
57.6752
 30
0.0
 10
89.2805
 20
58.2927
 30
0.0
 10
89.6763
 20
59.2958
 30
0.0
 10
90.2128
 20
59.7592
 30
0.0
  0
SPLINE
  5
45
330
1F
100
AcDbEntity
  8
layer 1
 62
     7
100
AcDbSpline
210
0.0
220
0.0
230
1.0
 70
    11
 71
     3
 72
    20
 73
    16
 74
     0
 42
0.0000000001
 43
0.0000000001
 12
1.0
 22
0.0
 32
0.0
 13
1.0
 23
0.0
 33
0.0
 40
0.0
 40
0.0
 40
0.0
 40
0.0
 40
0.2
 40
0.2
 40
0.2
 40
0.2
 40
0.4
 40
0.4
 40
0.4
 40
0.4
 40
0.6
 40
0.6
 40
0.6
 40
0.6
 40
1.0
 40
1.0
 40
1.0
 40
1.0
 10
89.4535
 20
30.5649
 30
0.0
 10
89.6877
 20
29.4368
 30
0.0
 10
90.7481
 20
29.355
 30
0.0
 10
91.016
 20
30.4974
 30
0.0
 10
91.016
 20
30.4974
 30
0.0
 10
92.2276
 20
23.948
 30
0.0
 10
92.3683
 20
17.4769
 30
0.0
 10
90.3029
 20
11.0425
 30
0.0
 10
90.3029
 20
11.0425
 30
0.0
 10
90.2728
 20
10.9495
 30
0.0
 10
90.2441
 20
10.8564
 30
0.0
 10
90.2148
 20
10.7638
 30
0.0
 10
90.2148
 20
10.7638
 30
0.0
 10
88.0273
 20
17.2139
 30
0.0
 10
88.2169
 20
23.9612
 30
0.0
 10
89.4535
 20
30.5649
 30
0.0
  0
SPLINE
  5
46
330
1F
100
AcDbEntity
  8
layer 1
 62
     7
100
AcDbSpline
210
0.0
220
0.0
230
1.0
 70
    11
 71
     3
 72
    44
 73
    40
 74
     0
 42
0.0000000001
 43
0.0000000001
 12
1.0
 22
0.0
 32
0.0
 13
1.0
 23
0.0
 33
0.0
 40
0.0
 40
0.0
 40
0.0
 40
0.0
 40
0.0909090909090909
 40
0.0909090909090909
 40
0.0909090909090909
 40
0.0909090909090909
 40
0.1818181818181818
 40
0.1818181818181818
 40
0.1818181818181818
 40
0.1818181818181818
 40
0.2727272727272727
 40
0.2727272727272727
 40
0.2727272727272727
 40
0.2727272727272727
 40
0.3636363636363636
 40
0.3636363636363636
 40
0.3636363636363636
 40
0.3636363636363636
 40
0.4545454545454545
 40
0.4545454545454545
 40
0.4545454545454545
 40
0.4545454545454545
 40
0.5454545454545454
 40
0.5454545454545454
 40
0.5454545454545454
 40
0.5454545454545454
 40
0.6363636363636364
 40
0.6363636363636364
 40
0.6363636363636364
 40
0.6363636363636364
 40
0.7272727272727273
 40
0.7272727272727273
 40
0.7272727272727273
 40
0.7272727272727273
 40
0.8181818181818182
 40
0.8181818181818182
 40
0.8181818181818182
 40
0.8181818181818182
 40
1.0
 40
1.0
 40
1.0
 40
1.0
 10
88.7808
 20
46.9435
 30
0.0
 10
88.0278
 20
49.5496
 30
0.0
 10
87.2901
 20
52.1605
 30
0.0
 10
86.6529
 20
54.7937
 30
0.0
 10
86.6529
 20
54.7937
 30
0.0
 10
86.4127
 20
55.7836
 30
0.0
 10
86.607
 20
56.9954
 30
0.0
 10
86.9504
 20
57.977
 30
0.0
 10
86.9504
 20
57.977
 30
0.0
 10
86.8299
 20
56.5707
 30
0.0
 10
88.4532
 20
55.1306
 30
0.0
 10
90.2148
 20
55.5681
 30
0.0
 10
90.2148
 20
55.5681
 30
0.0
 10
90.6039
 20
55.616
 30
0.0
 10
92.1743
 20
55.0927
 30
0.0
 10
93.1837
 20
56.7101
 30
0.0
 10
93.1837
 20
56.7101
 30
0.0
 10
93.5052
 20
57.2258
 30
0.0
 10
93.574
 20
57.8082
 30
0.0
 10
93.3942
 20
58.357
 30
0.0
 10
93.3942
 20
58.357
 30
0.0
 10
93.768
 20
57.5032
 30
0.0
 10
94.0489
 20
56.0275
 30
0.0
 10
93.9232
 20
55.1139
 30
0.0
 10
93.9232
 20
55.1139
 30
0.0
 10
93.73
 20
53.7048
 30
0.0
 10
92.1802
 20
48.5752
 30
0.0
 10
91.7018
 20
46.9335
 30
0.0
 10
91.7018
 20
46.9335
 30
0.0
 10
91.6169
 20
48.2343
 30
0.0
 10
91.496
 20
50.2122
 30
0.0
 10
91.0551
 20
51.4616
 30
0.0
 10
91.0551
 20
51.4616
 30
0.0
 10
90.69
 20
52.4962
 30
0.0
 10
89.7917
 20
52.497
 30
0.0
 10
89.4267
 20
51.4619
 30
0.0
 10
89.4267
 20
51.4619
 30
0.0
 10
88.9869
 20
50.2141
 30
0.0
 10
88.866
 20
48.2432
 30
0.0
 10
88.7808
 20
46.9435
 30
0.0
  0
SPLINE
  5
47
330
1F
100
AcDbEntity
  8
layer 1
 62
     7
100
AcDbSpline
210
0.0
220
0.0
230
1.0
 70
    11
 71
     3
 72
    16
 73
    12
 74
     0
 42
0.0000000001
 43
0.0000000001
 12
1.0
 22
0.0
 32
0.0
 13
1.0
 23
0.0
 33
0.0
 40
0.0
 40
0.0
 40
0.0
 40
0.0
 40
0.25
 40
0.25
 40
0.25
 40
0.25
 40
0.5
 40
0.5
 40
0.5
 40
0.5
 40
1.0
 40
1.0
 40
1.0
 40
1.0
 10
75.074
 20
17.7855
 30
0.0
 10
76.6333
 20
16.5545
 30
0.0
 10
78.2463
 20
15.3841
 30
0.0
 10
79.902
 20
14.2685
 30
0.0
 10
79.902
 20
14.2685
 30
0.0
 10
79.1648
 20
13.8506
 30
0.0
 10
78.8461
 20
13.4949
 30
0.0
 10
77.8872
 20
13.3317
 30
0.0
 10
77.8872
 20
13.3317
 30
0.0
 10
74.9267
 20
12.8271
 30
0.0
 10
72.9268
 20
15.6552
 30
0.0
 10
75.074
 20
17.7855
 30
0.0
  0
SPLINE
  5
48
330
1F
100
AcDbEntity
  8
layer 1
 62
     7
100
AcDbSpline
210
0.0
220
0.0
230
1.0
 70
    11
 71
     3
 72
    16
 73
    12
 74
     0
 42
0.0000000001
 43
0.0000000001
 12
1.0
 22
0.0
 32
0.0
 13
1.0
 23
0.0
 33
0.0
 40
0.0
 40
0.0
 40
0.0
 40
0.0
 40
0.25
 40
0.25
 40
0.25
 40
0.25
 40
0.5
 40
0.5
 40
0.5
 40
0.5
 40
1.0
 40
1.0
 40
1.0
 40
1.0
 10
88.4986
 20
66.5042
 30
0.0
 10
87.4386
 20
66.4423
 30
0.0
 10
88.1766
 20
65.1443
 30
0.0
 10
87.5975
 20
64.9219
 30
0.0
 10
87.5975
 20
64.9219
 30
0.0
 10
87.0472
 20
64.7108
 30
0.0
 10
86.2282
 20
65.3802
 30
0.0
 10
86.9598
 20
66.2675
 30
0.0
 10
86.9598
 20
66.2675
 30
0.0
 10
87.3558
 20
66.7476
 30
0.0
 10
87.9613
 20
66.7349
 30
0.0
 10
88.4986
 20
66.5042
 30
0.0
  0
SPLINE
  5
49
330
1F
100
AcDbEntity
  8
layer 1
 62
     7
100
AcDbSpline
210
0.0
220
0.0
230
1.0
 70
    11
 71
     3
 72
    12
 73
     8
 74
     0
 42
0.0000000001
 43
0.0000000001
 12
1.0
 22
0.0
 32
0.0
 13
1.0
 23
0.0
 33
0.0
 40
0.0
 40
0.0
 40
0.0
 40
0.0
 40
0.3333333333333333
 40
0.3333333333333333
 40
0.3333333333333333
 40
0.3333333333333333
 40
1.0
 40
1.0
 40
1.0
 40
1.0
 10
92.0696
 20
66.4958
 30
0.0
 10
93.6277
 20
67.1656
 30
0.0
 10
94.3709
 20
65.1498
 30
0.0
 10
93.2832
 20
64.8768
 30
0.0
 10
93.2832
 20
64.8768
 30
0.0
 10
92.2829
 20
64.6262
 30
0.0
 10
93.096
 20
66.4319
 30
0.0
 10
92.0696
 20
66.4958
 30
0.0
  0
SPLINE
  5
4A
330
1F
100
AcDbEntity
  8
layer 1
 62
     7
100
AcDbSpline
210
0.0
220
0.0
230
1.0
 70
    11
 71
     3
 72
    16
 73
    12
 74
     0
 42
0.0000000001
 43
0.0000000001
 12
1.0
 22
0.0
 32
0.0
 13
1.0
 23
0.0
 33
0.0
 40
0.0
 40
0.0
 40
0.0
 40
0.0
 40
0.25
 40
0.25
 40
0.25
 40
0.25
 40
0.5
 40
0.5
 40
0.5
 40
0.5
 40
1.0
 40
1.0
 40
1.0
 40
1.0
 10
100.5777
 20
14.298
 30
0.0
 10
102.212
 20
15.3989
 30
0.0
 10
103.8057
 20
16.5528
 30
0.0
 10
105.3473
 20
17.7659
 30
0.0
 10
105.3473
 20
17.7659
 30
0.0
 10
106.9299
 20
16.2024
 30
0.0
 10
106.4234
 20
13.8154
 30
0.0
 10
104.2395
 20
13.3891
 30
0.0
 10
104.2395
 20
13.3891
 30
0.0
 10
102.1737
 20
12.9856
 30
0.0
 10
101.5827
 20
13.7504
 30
0.0
 10
100.5777
 20
14.298
 30
0.0
  0
SPLINE
  5
4B
330
1F
100
AcDbEntity
  8
layer 1
 62
     7
100
AcDbSpline
210
0.0
220
0.0
230
1.0
 70
    11
 71
     3
 72
    20
 73
    16
 74
     0
 42
0.0000000001
 43
0.0000000001
 12
1.0
 22
0.0
 32
0.0
 13
1.0
 23
0.0
 33
0.0
 40
0.0
 40
0.0
 40
0.0
 40
0.0
 40
0.2
 40
0.2
 40
0.2
 40
0.2
 40
0.4
 40
0.4
 40
0.4
 40
0.4
 40
0.6
 40
0.6
 40
0.6
 40
0.6
 40
1.0
 40
1.0
 40
1.0
 40
1.0
 10
85.431
 20
64.4473
 30
0.0
 10
86.0335
 20
63.2243
 30
0.0
 10
87.6994
 20
62.5381
 30
0.0
 10
88.9218
 20
63.4231
 30
0.0
 10
88.9218
 20
63.4231
 30
0.0
 10
88.936
 20
62.8878
 30
0.0
 10
89.1003
 20
62.0172
 30
0.0
 10
89.1931
 20
61.4505
 30
0.0
 10
89.1931
 20
61.4505
 30
0.0
 10
87.5141
 20
61.4029
 30
0.0
 10
86.3333
 20
60.1141
 30
0.0
 10
85.7896
 20
58.7378
 30
0.0
 10
85.7896
 20
58.7378
 30
0.0
 10
85.4278
 20
60.6234
 30
0.0
 10
85.3053
 20
62.5342
 30
0.0
 10
85.431
 20
64.4473
 30
0.0
  0
SPLINE
  5
4C
330
1F
100
AcDbEntity
  8
layer 1
 62
     7
100
AcDbSpline
210
0.0
220
0.0
230
1.0
 70
    11
 71
     3
 72
    20
 73
    16
 74
     0
 42
0.0000000001
 43
0.0000000001
 12
1.0
 22
0.0
 32
0.0
 13
1.0
 23
0.0
 33
0.0
 40
0.0
 40
0.0
 40
0.0
 40
0.0
 40
0.2
 40
0.2
 40
0.2
 40
0.2
 40
0.4
 40
0.4
 40
0.4
 40
0.4
 40
0.6
 40
0.6
 40
0.6
 40
0.6
 40
1.0
 40
1.0
 40
1.0
 40
1.0
 10
91.2956
 20
61.4776
 30
0.0
 10
91.3929
 20
62.0831
 30
0.0
 10
91.5406
 20
62.8515
 30
0.0
 10
91.5631
 20
63.445
 30
0.0
 10
91.5631
 20
63.445
 30
0.0
 10
92.7219
 20
62.5637
 30
0.0
 10
94.423
 20
63.1999
 30
0.0
 10
95.0539
 20
64.3539
 30
0.0
 10
95.0539
 20
64.3539
 30
0.0
 10
95.1883
 20
62.4659
 30
0.0
 10
95.0662
 20
60.5847
 30
0.0
 10
94.7079
 20
58.7234
 30
0.0
 10
94.7079
 20
58.7234
 30
0.0
 10
94.1891
 20
60.0909
 30
0.0
 10
92.9423
 20
61.4273
 30
0.0
 10
91.2956
 20
61.4776
 30
0.0
  0
SPLINE
  5
4D
330
1F
100
AcDbEntity
  8
layer 1
 62
     7
100
AcDbSpline
210
0.0
220
0.0
230
1.0
 70
    11
 71
     3
 72
    20
 73
    16
 74
     0
 42
0.0000000001
 43
0.0000000001
 12
1.0
 22
0.0
 32
0.0
 13
1.0
 23
0.0
 33
0.0
 40
0.0
 40
0.0
 40
0.0
 40
0.0
 40
0.2
 40
0.2
 40
0.2
 40
0.2
 40
0.4
 40
0.4
 40
0.4
 40
0.4
 40
0.6
 40
0.6
 40
0.6
 40
0.6
 40
1.0
 40
1.0
 40
1.0
 40
1.0
 10
117.3912
 20
35.9387
 30
0.0
 10
117.2419
 20
36.4808
 30
0.0
 10
116.6836
 20
37.2915
 30
0.0
 10
116.0065
 20
36.9131
 30
0.0
 10
116.0065
 20
36.9131
 30
0.0
 10
115.4794
 20
36.6189
 30
0.0
 10
115.8599
 20
35.726
 30
0.0
 10
115.4107
 20
35.3799
 30
0.0
 10
115.4107
 20
35.3799
 30
0.0
 10
114.5091
 20
34.6869
 30
0.0
 10
113.4061
 20
35.4242
 30
0.0
 10
113.7925
 20
36.4472
 30
0.0
 10
113.7925
 20
36.4472
 30
0.0
 10
114.5262
 20
38.3875
 30
0.0
 10
116.9925
 20
38.0526
 30
0.0
 10
117.3912
 20
35.9387
 30
0.0
  0
SPLINE
  5
4E
330
1F
100
AcDbEntity
  8
layer 1
 62
     7
100
AcDbSpline
210
0.0
220
0.0
230
1.0
 70
    11
 71
     3
 72
    20
 73
    16
 74
     0
 42
0.0000000001
 43
0.0000000001
 12
1.0
 22
0.0
 32
0.0
 13
1.0
 23
0.0
 33
0.0
 40
0.0
 40
0.0
 40
0.0
 40
0.0
 40
0.2
 40
0.2
 40
0.2
 40
0.2
 40
0.4
 40
0.4
 40
0.4
 40
0.4
 40
0.6
 40
0.6
 40
0.6
 40
0.6
 40
1.0
 40
1.0
 40
1.0
 40
1.0
 10
63.1913
 20
36.2501
 30
0.0
 10
64.0521
 20
38.8542
 30
0.0
 10
66.8286
 20
37.4503
 30
0.0
 10
66.6971
 20
35.9575
 30
0.0
 10
66.6971
 20
35.9575
 30
0.0
 10
66.6437
 20
35.3552
 30
0.0
 10
66.0528
 20
34.9029
 30
0.0
 10
65.4207
 20
35.1372
 30
0.0
 10
65.4207
 20
35.1372
 30
0.0
 10
64.3575
 20
35.5312
 30
0.0
 10
65.1726
 20
36.8141
 30
0.0
 10
64.2481
 20
36.9885
 30
0.0
 10
64.2481
 20
36.9885
 30
0.0
 10
63.7381
 20
37.0843
 30
0.0
 10
63.3782
 20
36.6644
 30
0.0
 10
63.1913
 20
36.2501
 30
0.0
  0
SPLINE
  5
4F
330
1F
100
AcDbEntity
  8
layer 1
 62
     7
100
AcDbSpline
210
0.0
220
0.0
230
1.0
 70
    11
 71
     3
 72
    12
 73
     8
 74
     0
 42
0.0000000001
 43
0.0000000001
 12
1.0
 22
0.0
 32
0.0
 13
1.0
 23
0.0
 33
0.0
 40
0.0
 40
0.0
 40
0.0
 40
0.0
 40
0.3333333333333333
 40
0.3333333333333333
 40
0.3333333333333333
 40
0.3333333333333333
 40
1.0
 40
1.0
 40
1.0
 40
1.0
 10
90.2128
 20
103.0857
 30
0.0
 10
91.6908
 20
104.2852
 30
0.0
 10
90.4743
 20
106.4231
 30
0.0
 10
89.6748
 20
105.1698
 30
0.0
 10
89.6748
 20
105.1698
 30
0.0
 10
89.2805
 20
104.5523
 30
0.0
 10
89.6763
 20
103.5492
 30
0.0
 10
90.2128
 20
103.0857
 30
0.0
  0
SPLINE
  5
50
330
1F
100
AcDbEntity
  8
layer 1
 62
     7
100
AcDbSpline
210
0.0
220
0.0
230
1.0
 70
    11
 71
     3
 72
    44
 73
    40
 74
     0
 42
0.0000000001
 43
0.0000000001
 12
1.0
 22
0.0
 32
0.0
 13
1.0
 23
0.0
 33
0.0
 40
0.0
 40
0.0
 40
0.0
 40
0.0
 40
0.0909090909090909
 40
0.0909090909090909
 40
0.0909090909090909
 40
0.0909090909090909
 40
0.1818181818181818
 40
0.1818181818181818
 40
0.1818181818181818
 40
0.1818181818181818
 40
0.2727272727272727
 40
0.2727272727272727
 40
0.2727272727272727
 40
0.2727272727272727
 40
0.3636363636363636
 40
0.3636363636363636
 40
0.3636363636363636
 40
0.3636363636363636
 40
0.4545454545454545
 40
0.4545454545454545
 40
0.4545454545454545
 40
0.4545454545454545
 40
0.5454545454545454
 40
0.5454545454545454
 40
0.5454545454545454
 40
0.5454545454545454
 40
0.6363636363636364
 40
0.6363636363636364
 40
0.6363636363636364
 40
0.6363636363636364
 40
0.7272727272727273
 40
0.7272727272727273
 40
0.7272727272727273
 40
0.7272727272727273
 40
0.8181818181818182
 40
0.8181818181818182
 40
0.8181818181818182
 40
0.8181818181818182
 40
1.0
 40
1.0
 40
1.0
 40
1.0
 10
88.7808
 20
115.9011
 30
0.0
 10
88.0278
 20
113.2954
 30
0.0
 10
87.2901
 20
110.6841
 30
0.0
 10
86.6529
 20
108.0513
 30
0.0
 10
86.6529
 20
108.0513
 30
0.0
 10
86.4127
 20
107.0613
 30
0.0
 10
86.607
 20
105.8495
 30
0.0
 10
86.9504
 20
104.8675
 30
0.0
 10
86.9504
 20
104.8675
 30
0.0
 10
86.8299
 20
106.2742
 30
0.0
 10
88.4532
 20
107.7144
 30
0.0
 10
90.2148
 20
107.2765
 30
0.0
 10
90.2148
 20
107.2765
 30
0.0
 10
90.6039
 20
107.229
 30
0.0
 10
92.1743
 20
107.7523
 30
0.0
 10
93.1837
 20
106.1349
 30
0.0
 10
93.1837
 20
106.1349
 30
0.0
 10
93.5052
 20
105.6192
 30
0.0
 10
93.574
 20
105.0368
 30
0.0
 10
93.3942
 20
104.488
 30
0.0
 10
93.3942
 20
104.488
 30
0.0
 10
93.768
 20
105.3418
 30
0.0
 10
94.0489
 20
106.8171
 30
0.0
 10
93.9232
 20
107.7311
 30
0.0
 10
93.9232
 20
107.7311
 30
0.0
 10
93.73
 20
109.1402
 30
0.0
 10
92.1802
 20
114.2694
 30
0.0
 10
91.7018
 20
115.911
 30
0.0
 10
91.7018
 20
115.911
 30
0.0
 10
91.6169
 20
114.6102
 30
0.0
 10
91.496
 20
112.6323
 30
0.0
 10
91.0551
 20
111.383
 30
0.0
 10
91.0551
 20
111.383
 30
0.0
 10
90.69
 20
110.3488
 30
0.0
 10
89.7917
 20
110.348
 30
0.0
 10
89.4267
 20
111.383
 30
0.0
 10
89.4267
 20
111.383
 30
0.0
 10
88.9869
 20
112.6308
 30
0.0
 10
88.866
 20
114.6018
 30
0.0
 10
88.7808
 20
115.9011
 30
0.0
  0
SPLINE
  5
51
330
1F
100
AcDbEntity
  8
layer 1
 62
     7
100
AcDbSpline
210
0.0
220
0.0
230
1.0
 70
    11
 71
     3
 72
    16
 73
    12
 74
     0
 42
0.0000000001
 43
0.0000000001
 12
1.0
 22
0.0
 32
0.0
 13
1.0
 23
0.0
 33
0.0
 40
0.0
 40
0.0
 40
0.0
 40
0.0
 40
0.25
 40
0.25
 40
0.25
 40
0.25
 40
0.5
 40
0.5
 40
0.5
 40
0.5
 40
1.0
 40
1.0
 40
1.0
 40
1.0
 10
88.4986
 20
96.3403
 30
0.0
 10
87.4386
 20
96.4019
 30
0.0
 10
88.1766
 20
97.7007
 30
0.0
 10
87.5975
 20
97.9226
 30
0.0
 10
87.5975
 20
97.9226
 30
0.0
 10
87.0472
 20
98.1342
 30
0.0
 10
86.2282
 20
97.4648
 30
0.0
 10
86.9598
 20
96.5775
 30
0.0
 10
86.9598
 20
96.5775
 30
0.0
 10
87.3558
 20
96.0973
 30
0.0
 10
87.9613
 20
96.1096
 30
0.0
 10
88.4986
 20
96.3403
 30
0.0
  0
SPLINE
  5
52
330
1F
100
AcDbEntity
  8
layer 1
 62
     7
100
AcDbSpline
210
0.0
220
0.0
230
1.0
 70
    11
 71
     3
 72
    12
 73
     8
 74
     0
 42
0.0000000001
 43
0.0000000001
 12
1.0
 22
0.0
 32
0.0
 13
1.0
 23
0.0
 33
0.0
 40
0.0
 40
0.0
 40
0.0
 40
0.0
 40
0.3333333333333333
 40
0.3333333333333333
 40
0.3333333333333333
 40
0.3333333333333333
 40
1.0
 40
1.0
 40
1.0
 40
1.0
 10
92.0696
 20
96.3492
 30
0.0
 10
93.6277
 20
95.6793
 30
0.0
 10
94.3709
 20
97.6951
 30
0.0
 10
93.2832
 20
97.9677
 30
0.0
 10
93.2832
 20
97.9677
 30
0.0
 10
92.2829
 20
98.2188
 30
0.0
 10
93.096
 20
96.4126
 30
0.0
 10
92.0696
 20
96.3492
 30
0.0
  0
SPLINE
  5
53
330
1F
100
AcDbEntity
  8
layer 1
 62
     7
100
AcDbSpline
210
0.0
220
0.0
230
1.0
 70
    11
 71
     3
 72
    20
 73
    16
 74
     0
 42
0.0000000001
 43
0.0000000001
 12
1.0
 22
0.0
 32
0.0
 13
1.0
 23
0.0
 33
0.0
 40
0.0
 40
0.0
 40
0.0
 40
0.0
 40
0.2
 40
0.2
 40
0.2
 40
0.2
 40
0.4
 40
0.4
 40
0.4
 40
0.4
 40
0.6
 40
0.6
 40
0.6
 40
0.6
 40
1.0
 40
1.0
 40
1.0
 40
1.0
 10
85.431
 20
98.3977
 30
0.0
 10
86.0335
 20
99.6206
 30
0.0
 10
87.6994
 20
100.3068
 30
0.0
 10
88.9218
 20
99.4211
 30
0.0
 10
88.9218
 20
99.4211
 30
0.0
 10
88.936
 20
99.9567
 30
0.0
 10
89.1003
 20
100.8277
 30
0.0
 10
89.1931
 20
101.3945
 30
0.0
 10
89.1931
 20
101.3945
 30
0.0
 10
87.5141
 20
101.4417
 30
0.0
 10
86.3333
 20
102.7305
 30
0.0
 10
85.7896
 20
104.1072
 30
0.0
 10
85.7896
 20
104.1072
 30
0.0
 10
85.4278
 20
102.2212
 30
0.0
 10
85.3053
 20
100.3108
 30
0.0
 10
85.431
 20
98.3977
 30
0.0
  0
SPLINE
  5
54
330
1F
100
AcDbEntity
  8
layer 1
 62
     7
100
AcDbSpline
210
0.0
220
0.0
230
1.0
 70
    11
 71
     3
 72
    20
 73
    16
 74
     0
 42
0.0000000001
 43
0.0000000001
 12
1.0
 22
0.0
 32
0.0
 13
1.0
 23
0.0
 33
0.0
 40
0.0
 40
0.0
 40
0.0
 40
0.0
 40
0.2
 40
0.2
 40
0.2
 40
0.2
 40
0.4
 40
0.4
 40
0.4
 40
0.4
 40
0.6
 40
0.6
 40
0.6
 40
0.6
 40
1.0
 40
1.0
 40
1.0
 40
1.0
 10
91.2956
 20
101.3673
 30
0.0
 10
91.3929
 20
100.7614
 30
0.0
 10
91.5406
 20
99.9934
 30
0.0
 10
91.5631
 20
99.4
 30
0.0
 10
91.5631
 20
99.4
 30
0.0
 10
92.7219
 20
100.2813
 30
0.0
 10
94.423
 20
99.6442
 30
0.0
 10
95.0539
 20
98.491
 30
0.0
 10
95.0539
 20
98.491
 30
0.0
 10
95.1883
 20
100.3786
 30
0.0
 10
95.0662
 20
102.2599
 30
0.0
 10
94.7079
 20
104.1211
 30
0.0
 10
94.7079
 20
104.1211
 30
0.0
 10
94.1891
 20
102.754
 30
0.0
 10
92.9423
 20
101.4176
 30
0.0
 10
91.2956
 20
101.3673
 30
0.0
  0
SPLINE
  5
55
330
1F
100
AcDbEntity
  8
layer 1
 62
     7
100
AcDbSpline
210
0.0
220
0.0
230
1.0
 70
    11
 71
     3
 72
    12
 73
     8
 74
     0
 42
0.0000000001
 43
0.0000000001
 12
1.0
 22
0.0
 32
0.0
 13
1.0
 23
0.0
 33
0.0
 40
0.0
 40
0.0
 40
0.0
 40
0.0
 40
0.3333333333333333
 40
0.3333333333333333
 40
0.3333333333333333
 40
0.3333333333333333
 40
1.0
 40
1.0
 40
1.0
 40
1.0
 10
113.4287
 20
81.4247
 30
0.0
 10
114.7142
 20
82.8042
 30
0.0
 10
117.0055
 20
81.6689
 30
0.0
 10
115.6624
 20
80.9225
 30
0.0
 10
115.6624
 20
80.9225
 30
0.0
 10
115.0003
 20
80.5553
 30
0.0
 10
113.9253
 20
80.9242
 30
0.0
 10
113.4287
 20
81.4247
 30
0.0
  0
SPLINE
  5
56
330
1F
100
AcDbEntity
  8
layer 1
 62
     7
100
AcDbSpline
210
0.0
220
0.0
230
1.0
 70
    11
 71
     3
 72
    16
 73
    12
 74
     0
 42
0.0000000001
 43
0.0000000001
 12
1.0
 22
0.0
 32
0.0
 13
1.0
 23
0.0
 33
0.0
 40
0.0
 40
0.0
 40
0.0
 40
0.0
 40
0.25
 40
0.25
 40
0.25
 40
0.25
 40
0.5
 40
0.5
 40
0.5
 40
0.5
 40
1.0
 40
1.0
 40
1.0
 40
1.0
 10
106.1994
 20
79.8257
 30
0.0
 10
106.2654
 20
78.8365
 30
0.0
 10
107.6568
 20
79.5251
 30
0.0
 10
107.895
 20
78.985
 30
0.0
 10
107.895
 20
78.985
 30
0.0
 10
108.1218
 20
78.4709
 30
0.0
 10
107.4044
 20
77.7069
 30
0.0
 10
106.4531
 20
78.3894
 30
0.0
 10
106.4531
 20
78.3894
 30
0.0
 10
105.9386
 20
78.7591
 30
0.0
 10
105.9521
 20
79.3243
 30
0.0
 10
106.1994
 20
79.8257
 30
0.0
  0
SPLINE
  5
57
330
1F
100
AcDbEntity
  8
layer 1
 62
     7
100
AcDbSpline
210
0.0
220
0.0
230
1.0
 70
    11
 71
     3
 72
    12
 73
     8
 74
     0
 42
0.0000000001
 43
0.0000000001
 12
1.0
 22
0.0
 32
0.0
 13
1.0
 23
0.0
 33
0.0
 40
0.0
 40
0.0
 40
0.0
 40
0.0
 40
0.3333333333333333
 40
0.3333333333333333
 40
0.3333333333333333
 40
0.3333333333333333
 40
1.0
 40
1.0
 40
1.0
 40
1.0
 10
106.2089
 20
83.1574
 30
0.0
 10
105.4906
 20
84.6107
 30
0.0
 10
107.6517
 20
85.3045
 30
0.0
 10
107.9433
 20
84.2898
 30
0.0
 10
107.9433
 20
84.2898
 30
0.0
 10
108.2123
 20
83.3566
 30
0.0
 10
106.2769
 20
84.1146
 30
0.0
 10
106.2089
 20
83.1574
 30
0.0
  0
SPLINE
  5
58
330
1F
100
AcDbEntity
  8
layer 1
 62
     7
100
AcDbSpline
210
0.0
220
0.0
230
1.0
 70
    11
 71
     3
 72
    20
 73
    16
 74
     0
 42
0.0000000001
 43
0.0000000001
 12
1.0
 22
0.0
 32
0.0
 13
1.0
 23
0.0
 33
0.0
 40
0.0
 40
0.0
 40
0.0
 40
0.0
 40
0.2
 40
0.2
 40
0.2
 40
0.2
 40
0.4
 40
0.4
 40
0.4
 40
0.4
 40
0.6
 40
0.6
 40
0.6
 40
0.6
 40
1.0
 40
1.0
 40
1.0
 40
1.0
 10
108.4039
 20
76.9633
 30
0.0
 10
109.7147
 20
77.5253
 30
0.0
 10
110.4503
 20
79.0797
 30
0.0
 10
109.5013
 20
80.2205
 30
0.0
 10
109.5013
 20
80.2205
 30
0.0
 10
110.0754
 20
80.2336
 30
0.0
 10
111.0085
 20
80.3868
 30
0.0
 10
111.6161
 20
80.4735
 30
0.0
 10
111.6161
 20
80.4735
 30
0.0
 10
111.6667
 20
78.9072
 30
0.0
 10
113.0482
 20
77.8052
 30
0.0
 10
114.5238
 20
77.2982
 30
0.0
 10
114.5238
 20
77.2982
 30
0.0
 10
112.5018
 20
76.9601
 30
0.0
 10
110.4547
 20
76.8459
 30
0.0
 10
108.4039
 20
76.9633
 30
0.0
  0
SPLINE
  5
59
330
1F
100
AcDbEntity
  8
layer 1
 62
     7
100
AcDbSpline
210
0.0
220
0.0
230
1.0
 70
    11
 71
     3
 72
    20
 73
    16
 74
     0
 42
0.0000000001
 43
0.0000000001
 12
1.0
 22
0.0
 32
0.0
 13
1.0
 23
0.0
 33
0.0
 40
0.0
 40
0.0
 40
0.0
 40
0.0
 40
0.2
 40
0.2
 40
0.2
 40
0.2
 40
0.4
 40
0.4
 40
0.4
 40
0.4
 40
0.6
 40
0.6
 40
0.6
 40
0.6
 40
1.0
 40
1.0
 40
1.0
 40
1.0
 10
111.5873
 20
82.4353
 30
0.0
 10
110.9378
 20
82.5255
 30
0.0
 10
110.1145
 20
82.6636
 30
0.0
 10
109.4785
 20
82.6848
 30
0.0
 10
109.4785
 20
82.6848
 30
0.0
 10
110.4231
 20
83.7661
 30
0.0
 10
109.7408
 20
85.3528
 30
0.0
 10
108.5043
 20
85.9415
 30
0.0
 10
108.5043
 20
85.9415
 30
0.0
 10
110.5274
 20
86.0669
 30
0.0
 10
112.5442
 20
85.9535
 30
0.0
 10
114.5384
 20
85.619
 30
0.0
 10
114.5384
 20
85.619
 30
0.0
 10
113.0732
 20
85.1348
 30
0.0
 10
111.641
 20
83.9713
 30
0.0
 10
111.5873
 20
82.4353
 30
0.0
  0
SPLINE
  5
5A
330
1F
100
AcDbEntity
  8
layer 1
 62
     7
100
AcDbSpline
210
0.0
220
0.0
230
1.0
 70
    11
 71
     3
 72
    12
 73
     8
 74
     0
 42
0.0000000001
 43
0.0000000001
 12
1.0
 22
0.0
 32
0.0
 13
1.0
 23
0.0
 33
0.0
 40
0.0
 40
0.0
 40
0.0
 40
0.0
 40
0.3333333333333333
 40
0.3333333333333333
 40
0.3333333333333333
 40
0.3333333333333333
 40
1.0
 40
1.0
 40
1.0
 40
1.0
 10
66.9922
 20
81.4247
 30
0.0
 10
65.707
 20
82.8042
 30
0.0
 10
63.4153
 20
81.6689
 30
0.0
 10
64.7585
 20
80.9225
 30
0.0
 10
64.7585
 20
80.9225
 30
0.0
 10
65.4207
 20
80.5553
 30
0.0
 10
66.4956
 20
80.9242
 30
0.0
 10
66.9922
 20
81.4247
 30
0.0
  0
SPLINE
  5
5B
330
1F
100
AcDbEntity
  8
layer 1
 62
     7
100
AcDbSpline
210
0.0
220
0.0
230
1.0
 70
    11
 71
     3
 72
    16
 73
    12
 74
     0
 42
0.0000000001
 43
0.0000000001
 12
1.0
 22
0.0
 32
0.0
 13
1.0
 23
0.0
 33
0.0
 40
0.0
 40
0.0
 40
0.0
 40
0.0
 40
0.25
 40
0.25
 40
0.25
 40
0.25
 40
0.5
 40
0.5
 40
0.5
 40
0.5
 40
1.0
 40
1.0
 40
1.0
 40
1.0
 10
74.2214
 20
79.8257
 30
0.0
 10
74.1559
 20
78.8365
 30
0.0
 10
72.7641
 20
79.5251
 30
0.0
 10
72.5258
 20
78.985
 30
0.0
 10
72.5258
 20
78.985
 30
0.0
 10
72.2991
 20
78.4709
 30
0.0
 10
73.0165
 20
77.7069
 30
0.0
 10
73.9678
 20
78.3894
 30
0.0
 10
73.9678
 20
78.3894
 30
0.0
 10
74.4822
 20
78.7591
 30
0.0
 10
74.4692
 20
79.3243
 30
0.0
 10
74.2214
 20
79.8257
 30
0.0
  0
SPLINE
  5
5C
330
1F
100
AcDbEntity
  8
layer 1
 62
     7
100
AcDbSpline
210
0.0
220
0.0
230
1.0
 70
    11
 71
     3
 72
    12
 73
     8
 74
     0
 42
0.0000000001
 43
0.0000000001
 12
1.0
 22
0.0
 32
0.0
 13
1.0
 23
0.0
 33
0.0
 40
0.0
 40
0.0
 40
0.0
 40
0.0
 40
0.3333333333333333
 40
0.3333333333333333
 40
0.3333333333333333
 40
0.3333333333333333
 40
1.0
 40
1.0
 40
1.0
 40
1.0
 10
74.2123
 20
83.1574
 30
0.0
 10
74.9302
 20
84.6107
 30
0.0
 10
72.7696
 20
85.3045
 30
0.0
 10
72.4777
 20
84.2898
 30
0.0
 10
72.4777
 20
84.2898
 30
0.0
 10
72.2086
 20
83.3566
 30
0.0
 10
74.1444
 20
84.1146
 30
0.0
 10
74.2123
 20
83.1574
 30
0.0
  0
SPLINE
  5
5D
330
1F
100
AcDbEntity
  8
layer 1
 62
     7
100
AcDbSpline
210
0.0
220
0.0
230
1.0
 70
    11
 71
     3
 72
    20
 73
    16
 74
     0
 42
0.0000000001
 43
0.0000000001
 12
1.0
 22
0.0
 32
0.0
 13
1.0
 23
0.0
 33
0.0
 40
0.0
 40
0.0
 40
0.0
 40
0.0
 40
0.2
 40
0.2
 40
0.2
 40
0.2
 40
0.4
 40
0.4
 40
0.4
 40
0.4
 40
0.6
 40
0.6
 40
0.6
 40
0.6
 40
1.0
 40
1.0
 40
1.0
 40
1.0
 10
72.017
 20
76.9633
 30
0.0
 10
70.7062
 20
77.5253
 30
0.0
 10
69.9706
 20
79.0797
 30
0.0
 10
70.9199
 20
80.2205
 30
0.0
 10
70.9199
 20
80.2205
 30
0.0
 10
70.3459
 20
80.2336
 30
0.0
 10
69.4124
 20
80.3868
 30
0.0
 10
68.8048
 20
80.4735
 30
0.0
 10
68.8048
 20
80.4735
 30
0.0
 10
68.7542
 20
78.9072
 30
0.0
 10
67.3731
 20
77.8052
 30
0.0
 10
65.8975
 20
77.2982
 30
0.0
 10
65.8975
 20
77.2982
 30
0.0
 10
67.919
 20
76.9601
 30
0.0
 10
69.9662
 20
76.8459
 30
0.0
 10
72.017
 20
76.9633
 30
0.0
  0
SPLINE
  5
5E
330
1F
100
AcDbEntity
  8
layer 1
 62
     7
100
AcDbSpline
210
0.0
220
0.0
230
1.0
 70
    11
 71
     3
 72
    20
 73
    16
 74
     0
 42
0.0000000001
 43
0.0000000001
 12
1.0
 22
0.0
 32
0.0
 13
1.0
 23
0.0
 33
0.0
 40
0.0
 40
0.0
 40
0.0
 40
0.0
 40
0.2
 40
0.2
 40
0.2
 40
0.2
 40
0.4
 40
0.4
 40
0.4
 40
0.4
 40
0.6
 40
0.6
 40
0.6
 40
0.6
 40
1.0
 40
1.0
 40
1.0
 40
1.0
 10
68.834
 20
82.4353
 30
0.0
 10
69.4835
 20
82.5255
 30
0.0
 10
70.3064
 20
82.6636
 30
0.0
 10
70.9425
 20
82.6848
 30
0.0
 10
70.9425
 20
82.6848
 30
0.0
 10
69.9983
 20
83.7661
 30
0.0
 10
70.6805
 20
85.3528
 30
0.0
 10
71.9166
 20
85.9415
 30
0.0
 10
71.9166
 20
85.9415
 30
0.0
 10
69.8936
 20
86.0669
 30
0.0
 10
67.8772
 20
85.9535
 30
0.0
 10
65.8824
 20
85.619
 30
0.0
 10
65.8824
 20
85.619
 30
0.0
 10
67.3478
 20
85.1348
 30
0.0
 10
68.7798
 20
83.9713
 30
0.0
 10
68.834
 20
82.4353
 30
0.0
  0
SPLINE
  5
5F
330
1F
100
AcDbEntity
  8
layer 1
 62
     7
100
AcDbSpline
210
0.0
220
0.0
230
1.0
 70
    11
 71
     3
 72
    20
 73
    16
 74
     0
 42
0.0000000001
 43
0.0000000001
 12
1.0
 22
0.0
 32
0.0
 13
1.0
 23
0.0
 33
0.0
 40
0.0
 40
0.0
 40
0.0
 40
0.0
 40
0.2
 40
0.2
 40
0.2
 40
0.2
 40
0.4
 40
0.4
 40
0.4
 40
0.4
 40
0.6
 40
0.6
 40
0.6
 40
0.6
 40
1.0
 40
1.0
 40
1.0
 40
1.0
 10
90.2073
 20
81.4195
 30
0.0
 10
90.2073
 20
81.4195
 30
0.0
 10
90.2069
 20
81.4195
 30
0.0
 10
90.2069
 20
81.4195
 30
0.0
 10
90.2069
 20
81.4195
 30
0.0
 10
90.2069
 20
81.4195
 30
0.0
 10
90.2065
 20
81.4198
 30
0.0
 10
90.2065
 20
81.4198
 30
0.0
 10
90.2065
 20
81.4198
 30
0.0
 10
90.2065
 20
81.4198
 30
0.0
 10
90.2077
 20
81.4203
 30
0.0
 10
90.2077
 20
81.4203
 30
0.0
 10
90.2077
 20
81.4203
 30
0.0
 10
90.2077
 20
81.4203
 30
0.0
 10
90.2073
 20
81.4195
 30
0.0
 10
90.2073
 20
81.4195
 30
0.0
  0
SPLINE
  5
60
330
1F
100
AcDbEntity
  8
layer 1
 62
     7
100
AcDbSpline
210
0.0
220
0.0
230
1.0
 70
    11
 71
     3
 72
    52
 73
    48
 74
     0
 42
0.0000000001
 43
0.0000000001
 12
1.0
 22
0.0
 32
0.0
 13
1.0
 23
0.0
 33
0.0
 40
0.0
 40
0.0
 40
0.0
 40
0.0
 40
0.0769230769230769
 40
0.0769230769230769
 40
0.0769230769230769
 40
0.0769230769230769
 40
0.1538461538461539
 40
0.1538461538461539
 40
0.1538461538461539
 40
0.1538461538461539
 40
0.2307692307692308
 40
0.2307692307692308
 40
0.2307692307692308
 40
0.2307692307692308
 40
0.3076923076923077
 40
0.3076923076923077
 40
0.3076923076923077
 40
0.3076923076923077
 40
0.3846153846153846
 40
0.3846153846153846
 40
0.3846153846153846
 40
0.3846153846153846
 40
0.4615384615384616
 40
0.4615384615384616
 40
0.4615384615384616
 40
0.4615384615384616
 40
0.5384615384615384
 40
0.5384615384615384
 40
0.5384615384615384
 40
0.5384615384615384
 40
0.6153846153846154
 40
0.6153846153846154
 40
0.6153846153846154
 40
0.6153846153846154
 40
0.6923076923076923
 40
0.6923076923076923
 40
0.6923076923076923
 40
0.6923076923076923
 40
0.7692307692307693
 40
0.7692307692307693
 40
0.7692307692307693
 40
0.7692307692307693
 40
0.8461538461538461
 40
0.8461538461538461
 40
0.8461538461538461
 40
0.8461538461538461
 40
1.0
 40
1.0
 40
1.0
 40
1.0
 10
89.958
 20
79.4979
 30
0.0
 10
90.0402
 20
79.563
 30
0.0
 10
90.1259
 20
79.6337
 30
0.0
 10
90.2108
 20
79.7087
 30
0.0
 10
90.2108
 20
79.7087
 30
0.0
 10
90.2768
 20
79.65
 30
0.0
 10
90.3436
 20
79.5941
 30
0.0
 10
90.4088
 20
79.541
 30
0.0
 10
90.4088
 20
79.541
 30
0.0
 10
90.5095
 20
79.1694
 30
0.0
 10
90.6158
 20
78.8465
 30
0.0
 10
90.673
 20
78.6529
 30
0.0
 10
90.673
 20
78.6529
 30
0.0
 10
91.8389
 20
74.7093
 30
0.0
 10
93.9565
 20
71.1544
 30
0.0
 10
94.7054
 20
67.063
 30
0.0
 10
94.7054
 20
67.063
 30
0.0
 10
93.9979
 20
67.8905
 30
0.0
 10
92.8494
 20
68.1934
 30
0.0
 10
91.7891
 20
67.8362
 30
0.0
 10
91.7891
 20
67.8362
 30
0.0
 10
91.9526
 20
68.4169
 30
0.0
 10
92.1688
 20
69.1837
 30
0.0
 10
92.1032
 20
69.7486
 30
0.0
 10
92.1032
 20
69.7486
 30
0.0
 10
91.9938
 20
70.6901
 30
0.0
 10
91.6362
 20
73.6946
 30
0.0
 10
90.2416
 20
73.6946
 30
0.0
 10
90.2416
 20
73.6946
 30
0.0
 10
88.8475
 20
73.6946
 30
0.0
 10
88.4899
 20
70.6938
 30
0.0
 10
88.3797
 20
69.7521
 30
0.0
 10
88.3797
 20
69.7521
 30
0.0
 10
88.3137
 20
69.1873
 30
0.0
 10
88.5785
 20
68.4098
 30
0.0
 10
88.7732
 20
67.8338
 30
0.0
 10
88.7732
 20
67.8338
 30
0.0
 10
87.6453
 20
68.219
 30
0.0
 10
86.4624
 20
67.9583
 30
0.0
 10
85.734
 20
67.0215
 30
0.0
 10
85.734
 20
67.0215
 30
0.0
 10
86.1199
 20
69.3178
 30
0.0
 10
86.7971
 20
71.5695
 30
0.0
 10
87.6544
 20
73.7497
 30
0.0
 10
87.6544
 20
73.7497
 30
0.0
 10
88.3485
 20
75.4668
 30
0.0
 10
89.4334
 20
77.5832
 30
0.0
 10
89.958
 20
79.4979
 30
0.0
  0
SPLINE
  5
61
330
1F
100
AcDbEntity
  8
layer 1
 62
     7
100
AcDbSpline
210
0.0
220
0.0
230
1.0
 70
    11
 71
     3
 72
    52
 73
    48
 74
     0
 42
0.0000000001
 43
0.0000000001
 12
1.0
 22
0.0
 32
0.0
 13
1.0
 23
0.0
 33
0.0
 40
0.0
 40
0.0
 40
0.0
 40
0.0
 40
0.0769230769230769
 40
0.0769230769230769
 40
0.0769230769230769
 40
0.0769230769230769
 40
0.1538461538461539
 40
0.1538461538461539
 40
0.1538461538461539
 40
0.1538461538461539
 40
0.2307692307692308
 40
0.2307692307692308
 40
0.2307692307692308
 40
0.2307692307692308
 40
0.3076923076923077
 40
0.3076923076923077
 40
0.3076923076923077
 40
0.3076923076923077
 40
0.3846153846153846
 40
0.3846153846153846
 40
0.3846153846153846
 40
0.3846153846153846
 40
0.4615384615384616
 40
0.4615384615384616
 40
0.4615384615384616
 40
0.4615384615384616
 40
0.5384615384615384
 40
0.5384615384615384
 40
0.5384615384615384
 40
0.5384615384615384
 40
0.6153846153846154
 40
0.6153846153846154
 40
0.6153846153846154
 40
0.6153846153846154
 40
0.6923076923076923
 40
0.6923076923076923
 40
0.6923076923076923
 40
0.6923076923076923
 40
0.7692307692307693
 40
0.7692307692307693
 40
0.7692307692307693
 40
0.7692307692307693
 40
0.8461538461538461
 40
0.8461538461538461
 40
0.8461538461538461
 40
0.8461538461538461
 40
1.0
 40
1.0
 40
1.0
 40
1.0
 10
90.4139
 20
83.3227
 30
0.0
 10
90.3428
 20
83.258
 30
0.0
 10
90.2744
 20
83.1941
 30
0.0
 10
90.2108
 20
83.1303
 30
0.0
 10
90.2108
 20
83.1303
 30
0.0
 10
90.1298
 20
83.2105
 30
0.0
 10
90.0429
 20
83.2915
 30
0.0
 10
89.9513
 20
83.3726
 30
0.0
 10
89.9513
 20
83.3726
 30
0.0
 10
89.4235
 20
85.2801
 30
0.0
 10
88.3453
 20
87.3853
 30
0.0
 10
87.6544
 20
89.0953
 30
0.0
 10
87.6544
 20
89.0953
 30
0.0
 10
86.7971
 20
91.2751
 30
0.0
 10
86.1199
 20
93.5267
 30
0.0
 10
85.734
 20
95.823
 30
0.0
 10
85.734
 20
95.823
 30
0.0
 10
86.4624
 20
94.8862
 30
0.0
 10
87.6453
 20
94.6256
 30
0.0
 10
88.7732
 20
95.0112
 30
0.0
 10
88.7732
 20
95.0112
 30
0.0
 10
88.5785
 20
94.4348
 30
0.0
 10
88.3137
 20
93.6576
 30
0.0
 10
88.3797
 20
93.0925
 30
0.0
 10
88.3797
 20
93.0925
 30
0.0
 10
88.4899
 20
92.1512
 30
0.0
 10
88.8475
 20
89.15
 30
0.0
 10
90.2416
 20
89.1504
 30
0.0
 10
90.2416
 20
89.1504
 30
0.0
 10
91.6362
 20
89.1504
 30
0.0
 10
91.9938
 20
92.1544
 30
0.0
 10
92.1032
 20
93.0964
 30
0.0
 10
92.1032
 20
93.0964
 30
0.0
 10
92.1688
 20
93.6609
 30
0.0
 10
91.9526
 20
94.4281
 30
0.0
 10
91.7891
 20
95.0084
 30
0.0
 10
91.7891
 20
95.0084
 30
0.0
 10
92.8494
 20
94.6515
 30
0.0
 10
93.9979
 20
94.9545
 30
0.0
 10
94.7054
 20
95.782
 30
0.0
 10
94.7054
 20
95.782
 30
0.0
 10
93.9565
 20
91.6906
 30
0.0
 10
91.8389
 20
88.1349
 30
0.0
 10
90.673
 20
84.1916
 30
0.0
 10
90.673
 20
84.1916
 30
0.0
 10
90.6166
 20
84.0016
 30
0.0
 10
90.5131
 20
83.6859
 30
0.0
 10
90.4139
 20
83.3227
 30
0.0
  0
SPLINE
  5
62
330
1F
100
AcDbEntity
  8
layer 1
 62
     7
100
AcDbSpline
210
0.0
220
0.0
230
1.0
 70
    11
 71
     3
 72
    20
 73
    16
 74
     0
 42
0.0000000001
 43
0.0000000001
 12
1.0
 22
0.0
 32
0.0
 13
1.0
 23
0.0
 33
0.0
 40
0.0
 40
0.0
 40
0.0
 40
0.0
 40
0.2
 40
0.2
 40
0.2
 40
0.2
 40
0.4
 40
0.4
 40
0.4
 40
0.4
 40
0.6
 40
0.6
 40
0.6
 40
0.6
 40
1.0
 40
1.0
 40
1.0
 40
1.0
 10
105.0968
 20
67.4334
 30
0.0
 10
106.5036
 20
67.5815
 30
0.0
 10
107.8101
 20
66.877
 30
0.0
 10
108.1748
 20
65.4437
 30
0.0
 10
108.1748
 20
65.4437
 30
0.0
 10
108.2494
 20
65.1514
 30
0.0
 10
108.2728
 20
64.9036
 30
0.0
 10
108.255
 20
64.6768
 30
0.0
 10
108.255
 20
64.6768
 30
0.0
 10
106.7324
 20
64.5048
 30
0.0
 10
105.1939
 20
65.4752
 30
0.0
 10
105.1003
 20
67.075
 30
0.0
 10
105.1003
 20
67.075
 30
0.0
 10
105.0933
 20
67.1975
 30
0.0
 10
105.0928
 20
67.3168
 30
0.0
 10
105.0968
 20
67.4334
 30
0.0
  0
SPLINE
  5
63
330
1F
100
AcDbEntity
  8
layer 1
 62
     7
100
AcDbSpline
210
0.0
220
0.0
230
1.0
 70
    11
 71
     3
 72
    20
 73
    16
 74
     0
 42
0.0000000001
 43
0.0000000001
 12
1.0
 22
0.0
 32
0.0
 13
1.0
 23
0.0
 33
0.0
 40
0.0
 40
0.0
 40
0.0
 40
0.0
 40
0.2
 40
0.2
 40
0.2
 40
0.2
 40
0.4
 40
0.4
 40
0.4
 40
0.4
 40
0.6
 40
0.6
 40
0.6
 40
0.6
 40
1.0
 40
1.0
 40
1.0
 40
1.0
 10
72.2532
 20
64.6681
 30
0.0
 10
72.1186
 20
66.0615
 30
0.0
 10
73.1508
 20
67.4442
 30
0.0
 10
74.8331
 20
67.53
 30
0.0
 10
74.8331
 20
67.53
 30
0.0
 10
75.0002
 20
67.538
 30
0.0
 10
75.1621
 20
67.5372
 30
0.0
 10
75.3197
 20
67.5289
 30
0.0
 10
75.3197
 20
67.5289
 30
0.0
 10
75.3284
 20
67.3819
 30
0.0
 10
75.3296
 20
67.231
 30
0.0
 10
75.3209
 20
67.075
 30
0.0
 10
75.3209
 20
67.075
 30
0.0
 10
75.2292
 20
65.5055
 30
0.0
 10
73.747
 20
64.5423
 30
0.0
 10
72.2532
 20
64.6681
 30
0.0
  0
SPLINE
  5
64
330
1F
100
AcDbEntity
  8
layer 1
 62
     7
100
AcDbSpline
210
0.0
220
0.0
230
1.0
 70
    11
 71
     3
 72
    52
 73
    48
 74
     0
 42
0.0000000001
 43
0.0000000001
 12
1.0
 22
0.0
 32
0.0
 13
1.0
 23
0.0
 33
0.0
 40
0.0
 40
0.0
 40
0.0
 40
0.0
 40
0.0769230769230769
 40
0.0769230769230769
 40
0.0769230769230769
 40
0.0769230769230769
 40
0.1538461538461539
 40
0.1538461538461539
 40
0.1538461538461539
 40
0.1538461538461539
 40
0.2307692307692308
 40
0.2307692307692308
 40
0.2307692307692308
 40
0.2307692307692308
 40
0.3076923076923077
 40
0.3076923076923077
 40
0.3076923076923077
 40
0.3076923076923077
 40
0.3846153846153846
 40
0.3846153846153846
 40
0.3846153846153846
 40
0.3846153846153846
 40
0.4615384615384616
 40
0.4615384615384616
 40
0.4615384615384616
 40
0.4615384615384616
 40
0.5384615384615384
 40
0.5384615384615384
 40
0.5384615384615384
 40
0.5384615384615384
 40
0.6153846153846154
 40
0.6153846153846154
 40
0.6153846153846154
 40
0.6153846153846154
 40
0.6923076923076923
 40
0.6923076923076923
 40
0.6923076923076923
 40
0.6923076923076923
 40
0.7692307692307693
 40
0.7692307692307693
 40
0.7692307692307693
 40
0.7692307692307693
 40
0.8461538461538461
 40
0.8461538461538461
 40
0.8461538461538461
 40
0.8461538461538461
 40
1.0
 40
1.0
 40
1.0
 40
1.0
 10
88.1929
 20
81.6078
 30
0.0
 10
88.2498
 20
81.5468
 30
0.0
 10
88.3102
 20
81.4841
 30
0.0
 10
88.3738
 20
81.4223
 30
0.0
 10
88.3738
 20
81.4223
 30
0.0
 10
88.2932
 20
81.3437
 30
0.0
 10
88.2174
 20
81.2635
 30
0.0
 10
88.1474
 20
81.1872
 30
0.0
 10
88.1474
 20
81.1872
 30
0.0
 10
86.0955
 20
80.697
 30
0.0
 10
83.8274
 20
79.6851
 30
0.0
 10
81.9872
 20
79.0377
 30
0.0
 10
81.9872
 20
79.0377
 30
0.0
 10
79.6508
 20
78.2378
 30
0.0
 10
77.2374
 20
77.6059
 30
0.0
 10
74.7762
 20
77.2459
 30
0.0
 10
74.7762
 20
77.2459
 30
0.0
 10
75.78
 20
77.9256
 30
0.0
 10
76.0597
 20
79.0297
 30
0.0
 10
75.6469
 20
80.0819
 30
0.0
 10
75.6469
 20
80.0819
 30
0.0
 10
76.2639
 20
79.8999
 30
0.0
 10
77.0967
 20
79.6528
 30
0.0
 10
77.7031
 20
79.7143
 30
0.0
 10
77.7031
 20
79.7143
 30
0.0
 10
78.7117
 20
79.8173
 30
0.0
 10
81.9284
 20
80.1505
 30
0.0
 10
81.9284
 20
81.4515
 30
0.0
 10
81.9284
 20
81.4515
 30
0.0
 10
81.9284
 20
82.7527
 30
0.0
 10
78.7082
 20
83.0863
 30
0.0
 10
77.6984
 20
83.1885
 30
0.0
 10
77.6984
 20
83.1885
 30
0.0
 10
77.0936
 20
83.2501
 30
0.0
 10
76.2714
 20
83.048
 30
0.0
 10
75.6492
 20
82.8956
 30
0.0
 10
75.6492
 20
82.8956
 30
0.0
 10
76.032
 20
83.8851
 30
0.0
 10
75.7073
 20
84.9568
 30
0.0
 10
74.8207
 20
85.6166
 30
0.0
 10
74.8207
 20
85.6166
 30
0.0
 10
79.2056
 20
84.9177
 30
0.0
 10
83.0159
 20
82.9423
 30
0.0
 10
87.2423
 20
81.8542
 30
0.0
 10
87.2423
 20
81.8542
 30
0.0
 10
87.4494
 20
81.8007
 30
0.0
 10
87.7954
 20
81.7017
 30
0.0
 10
88.1929
 20
81.6078
 30
0.0
  0
SPLINE
  5
65
330
1F
100
AcDbEntity
  8
layer 1
 62
     7
100
AcDbSpline
210
0.0
220
0.0
230
1.0
 70
    11
 71
     3
 72
    20
 73
    16
 74
     0
 42
0.0000000001
 43
0.0000000001
 12
1.0
 22
0.0
 32
0.0
 13
1.0
 23
0.0
 33
0.0
 40
0.0
 40
0.0
 40
0.0
 40
0.0
 40
0.2
 40
0.2
 40
0.2
 40
0.2
 40
0.4
 40
0.4
 40
0.4
 40
0.4
 40
0.6
 40
0.6
 40
0.6
 40
0.6
 40
1.0
 40
1.0
 40
1.0
 40
1.0
 10
75.2178
 20
95.3117
 30
0.0
 10
75.0921
 20
95.3078
 30
0.0
 10
74.9646
 20
95.3086
 30
0.0
 10
74.8331
 20
95.3149
 30
0.0
 10
74.8331
 20
95.3149
 30
0.0
 10
73.1181
 20
95.4024
 30
0.0
 10
72.0783
 20
96.8381
 30
0.0
 10
72.2623
 20
98.2583
 30
0.0
 10
72.2623
 20
98.2583
 30
0.0
 10
72.5053
 20
98.2751
 30
0.0
 10
72.7716
 20
98.2535
 30
0.0
 10
73.0848
 20
98.1841
 30
0.0
 10
73.0848
 20
98.1841
 30
0.0
 10
74.6208
 20
97.8436
 30
0.0
 10
75.3766
 20
96.6242
 30
0.0
 10
75.2178
 20
95.3117
 30
0.0
  0
SPLINE
  5
66
330
1F
100
AcDbEntity
  8
layer 1
 62
     7
100
AcDbSpline
210
0.0
220
0.0
230
1.0
 70
    11
 71
     3
 72
    20
 73
    16
 74
     0
 42
0.0000000001
 43
0.0000000001
 12
1.0
 22
0.0
 32
0.0
 13
1.0
 23
0.0
 33
0.0
 40
0.0
 40
0.0
 40
0.0
 40
0.0
 40
0.2
 40
0.2
 40
0.2
 40
0.2
 40
0.4
 40
0.4
 40
0.4
 40
0.4
 40
0.6
 40
0.6
 40
0.6
 40
0.6
 40
1.0
 40
1.0
 40
1.0
 40
1.0
 10
108.2462
 20
98.2508
 30
0.0
 10
108.2775
 20
98.0013
 30
0.0
 10
108.2585
 20
97.7294
 30
0.0
 10
108.1748
 20
97.4013
 30
0.0
 10
108.1748
 20
97.4013
 30
0.0
 10
107.8188
 20
96.0007
 30
0.0
 10
106.5633
 20
95.2958
 30
0.0
 10
105.1939
 20
95.4019
 30
0.0
 10
105.1939
 20
95.4019
 30
0.0
 10
105.0798
 20
96.6801
 30
0.0
 10
105.8352
 20
97.8516
 30
0.0
 10
107.336
 20
98.1841
 30
0.0
 10
107.336
 20
98.1841
 30
0.0
 10
107.6877
 20
98.2623
 30
0.0
 10
107.9792
 20
98.2799
 30
0.0
 10
108.2462
 20
98.2508
 30
0.0
  0
SPLINE
  5
67
330
1F
100
AcDbEntity
  8
layer 1
 62
     7
100
AcDbSpline
210
0.0
220
0.0
230
1.0
 70
    11
 71
     3
 72
    52
 73
    48
 74
     0
 42
0.0000000001
 43
0.0000000001
 12
1.0
 22
0.0
 32
0.0
 13
1.0
 23
0.0
 33
0.0
 40
0.0
 40
0.0
 40
0.0
 40
0.0
 40
0.0769230769230769
 40
0.0769230769230769
 40
0.0769230769230769
 40
0.0769230769230769
 40
0.1538461538461539
 40
0.1538461538461539
 40
0.1538461538461539
 40
0.1538461538461539
 40
0.2307692307692308
 40
0.2307692307692308
 40
0.2307692307692308
 40
0.2307692307692308
 40
0.3076923076923077
 40
0.3076923076923077
 40
0.3076923076923077
 40
0.3076923076923077
 40
0.3846153846153846
 40
0.3846153846153846
 40
0.3846153846153846
 40
0.3846153846153846
 40
0.4615384615384616
 40
0.4615384615384616
 40
0.4615384615384616
 40
0.4615384615384616
 40
0.5384615384615384
 40
0.5384615384615384
 40
0.5384615384615384
 40
0.5384615384615384
 40
0.6153846153846154
 40
0.6153846153846154
 40
0.6153846153846154
 40
0.6153846153846154
 40
0.6923076923076923
 40
0.6923076923076923
 40
0.6923076923076923
 40
0.6923076923076923
 40
0.7692307692307693
 40
0.7692307692307693
 40
0.7692307692307693
 40
0.7692307692307693
 40
0.8461538461538461
 40
0.8461538461538461
 40
0.8461538461538461
 40
0.8461538461538461
 40
1.0
 40
1.0
 40
1.0
 40
1.0
 10
92.2995
 20
81.1812
 30
0.0
 10
92.213
 20
81.2662
 30
0.0
 10
92.1265
 20
81.3477
 30
0.0
 10
92.0408
 20
81.4223
 30
0.0
 10
92.0408
 20
81.4223
 30
0.0
 10
92.1091
 20
81.4822
 30
0.0
 10
92.1779
 20
81.5456
 30
0.0
 10
92.247
 20
81.6127
 30
0.0
 10
92.247
 20
81.6127
 30
0.0
 10
92.6365
 20
81.7048
 30
0.0
 10
92.9747
 20
81.8015
 30
0.0
 10
93.1785
 20
81.8542
 30
0.0
 10
93.1785
 20
81.8542
 30
0.0
 10
97.4049
 20
82.9423
 30
0.0
 10
101.2153
 20
84.9177
 30
0.0
 10
105.6005
 20
85.6166
 30
0.0
 10
105.6005
 20
85.6166
 30
0.0
 10
104.714
 20
84.9568
 30
0.0
 10
104.3892
 20
83.8851
 30
0.0
 10
104.7717
 20
82.8956
 30
0.0
 10
104.7717
 20
82.8956
 30
0.0
 10
104.1494
 20
83.048
 30
0.0
 10
103.3277
 20
83.2501
 30
0.0
 10
102.7225
 20
83.1885
 30
0.0
 10
102.7225
 20
83.1885
 30
0.0
 10
101.7127
 20
83.0863
 30
0.0
 10
98.4929
 20
82.7527
 30
0.0
 10
98.4929
 20
81.4515
 30
0.0
 10
98.4929
 20
81.4515
 30
0.0
 10
98.4925
 20
80.1505
 30
0.0
 10
101.7091
 20
79.8173
 30
0.0
 10
102.7181
 20
79.7143
 30
0.0
 10
102.7181
 20
79.7143
 30
0.0
 10
103.3242
 20
79.6528
 30
0.0
 10
104.1569
 20
79.8999
 30
0.0
 10
104.7744
 20
80.0819
 30
0.0
 10
104.7744
 20
80.0819
 30
0.0
 10
104.3616
 20
79.0297
 30
0.0
 10
104.6409
 20
77.9256
 30
0.0
 10
105.6448
 20
77.2459
 30
0.0
 10
105.6448
 20
77.2459
 30
0.0
 10
103.184
 20
77.6059
 30
0.0
 10
100.7704
 20
78.2378
 30
0.0
 10
98.4341
 20
79.0377
 30
0.0
 10
98.4341
 20
79.0377
 30
0.0
 10
96.6014
 20
79.6828
 30
0.0
 10
94.3443
 20
80.689
 30
0.0
 10
92.2995
 20
81.1812
 30
0.0
  0
SPLINE
  5
68
330
1F
100
AcDbEntity
  8
layer 1
 62
     7
100
AcDbSpline
210
0.0
220
0.0
230
1.0
 70
    11
 71
     3
 72
    12
 73
     8
 74
     0
 42
0.0000000001
 43
0.0000000001
 12
1.0
 22
0.0
 32
0.0
 13
1.0
 23
0.0
 33
0.0
 40
0.0
 40
0.0
 40
0.0
 40
0.0
 40
0.3333333333333333
 40
0.3333333333333333
 40
0.3333333333333333
 40
0.3333333333333333
 40
1.0
 40
1.0
 40
1.0
 40
1.0
 10
90.2128
 20
-87.3378
 30
0.0
 10
91.6908
 20
-88.5373
 30
0.0
 10
90.4743
 20
-90.6752
 30
0.0
 10
89.6748
 20
-89.4218
 30
0.0
 10
89.6748
 20
-89.4218
 30
0.0
 10
89.2805
 20
-88.8039
 30
0.0
 10
89.6763
 20
-87.8008
 30
0.0
 10
90.2128
 20
-87.3378
 30
0.0
  0
SPLINE
  5
69
330
1F
100
AcDbEntity
  8
layer 1
 62
     7
100
AcDbSpline
210
0.0
220
0.0
230
1.0
 70
    11
 71
     3
 72
    44
 73
    40
 74
     0
 42
0.0000000001
 43
0.0000000001
 12
1.0
 22
0.0
 32
0.0
 13
1.0
 23
0.0
 33
0.0
 40
0.0
 40
0.0
 40
0.0
 40
0.0
 40
0.0909090909090909
 40
0.0909090909090909
 40
0.0909090909090909
 40
0.0909090909090909
 40
0.1818181818181818
 40
0.1818181818181818
 40
0.1818181818181818
 40
0.1818181818181818
 40
0.2727272727272727
 40
0.2727272727272727
 40
0.2727272727272727
 40
0.2727272727272727
 40
0.3636363636363636
 40
0.3636363636363636
 40
0.3636363636363636
 40
0.3636363636363636
 40
0.4545454545454545
 40
0.4545454545454545
 40
0.4545454545454545
 40
0.4545454545454545
 40
0.5454545454545454
 40
0.5454545454545454
 40
0.5454545454545454
 40
0.5454545454545454
 40
0.6363636363636364
 40
0.6363636363636364
 40
0.6363636363636364
 40
0.6363636363636364
 40
0.7272727272727273
 40
0.7272727272727273
 40
0.7272727272727273
 40
0.7272727272727273
 40
0.8181818181818182
 40
0.8181818181818182
 40
0.8181818181818182
 40
0.8181818181818182
 40
1.0
 40
1.0
 40
1.0
 40
1.0
 10
88.7808
 20
-100.1531
 30
0.0
 10
88.0278
 20
-97.547
 30
0.0
 10
87.2901
 20
-94.9361
 30
0.0
 10
86.6529
 20
-92.3033
 30
0.0
 10
86.6529
 20
-92.3033
 30
0.0
 10
86.4127
 20
-91.3134
 30
0.0
 10
86.607
 20
-90.1015
 30
0.0
 10
86.9504
 20
-89.1196
 30
0.0
 10
86.9504
 20
-89.1196
 30
0.0
 10
86.8299
 20
-90.5263
 30
0.0
 10
88.4532
 20
-91.9664
 30
0.0
 10
90.2148
 20
-91.5286
 30
0.0
 10
90.2148
 20
-91.5286
 30
0.0
 10
90.6039
 20
-91.4806
 30
0.0
 10
92.1743
 20
-92.0043
 30
0.0
 10
93.1837
 20
-90.387
 30
0.0
 10
93.1837
 20
-90.387
 30
0.0
 10
93.5052
 20
-89.8713
 30
0.0
 10
93.574
 20
-89.2889
 30
0.0
 10
93.3942
 20
-88.74
 30
0.0
 10
93.3942
 20
-88.74
 30
0.0
 10
93.768
 20
-89.5939
 30
0.0
 10
94.0489
 20
-91.0691
 30
0.0
 10
93.9232
 20
-91.9832
 30
0.0
 10
93.9232
 20
-91.9832
 30
0.0
 10
93.73
 20
-93.3922
 30
0.0
 10
92.1802
 20
-98.5213
 30
0.0
 10
91.7018
 20
-100.1631
 30
0.0
 10
91.7018
 20
-100.1631
 30
0.0
 10
91.6169
 20
-98.8623
 30
0.0
 10
91.496
 20
-96.8844
 30
0.0
 10
91.0551
 20
-95.6351
 30
0.0
 10
91.0551
 20
-95.6351
 30
0.0
 10
90.69
 20
-94.6009
 30
0.0
 10
89.7917
 20
-94.6
 30
0.0
 10
89.4267
 20
-95.6351
 30
0.0
 10
89.4267
 20
-95.6351
 30
0.0
 10
88.9869
 20
-96.8828
 30
0.0
 10
88.866
 20
-98.8539
 30
0.0
 10
88.7808
 20
-100.1531
 30
0.0
  0
SPLINE
  5
6A
330
1F
100
AcDbEntity
  8
layer 1
 62
     7
100
AcDbSpline
210
0.0
220
0.0
230
1.0
 70
    11
 71
     3
 72
    16
 73
    12
 74
     0
 42
0.0000000001
 43
0.0000000001
 12
1.0
 22
0.0
 32
0.0
 13
1.0
 23
0.0
 33
0.0
 40
0.0
 40
0.0
 40
0.0
 40
0.0
 40
0.25
 40
0.25
 40
0.25
 40
0.25
 40
0.5
 40
0.5
 40
0.5
 40
0.5
 40
1.0
 40
1.0
 40
1.0
 40
1.0
 10
88.4986
 20
-80.5924
 30
0.0
 10
87.4386
 20
-80.6539
 30
0.0
 10
88.1766
 20
-81.9524
 30
0.0
 10
87.5975
 20
-82.1747
 30
0.0
 10
87.5975
 20
-82.1747
 30
0.0
 10
87.0472
 20
-82.3858
 30
0.0
 10
86.2282
 20
-81.7169
 30
0.0
 10
86.9598
 20
-80.8295
 30
0.0
 10
86.9598
 20
-80.8295
 30
0.0
 10
87.3558
 20
-80.3493
 30
0.0
 10
87.9613
 20
-80.3617
 30
0.0
 10
88.4986
 20
-80.5924
 30
0.0
  0
SPLINE
  5
6B
330
1F
100
AcDbEntity
  8
layer 1
 62
     7
100
AcDbSpline
210
0.0
220
0.0
230
1.0
 70
    11
 71
     3
 72
    12
 73
     8
 74
     0
 42
0.0000000001
 43
0.0000000001
 12
1.0
 22
0.0
 32
0.0
 13
1.0
 23
0.0
 33
0.0
 40
0.0
 40
0.0
 40
0.0
 40
0.0
 40
0.3333333333333333
 40
0.3333333333333333
 40
0.3333333333333333
 40
0.3333333333333333
 40
1.0
 40
1.0
 40
1.0
 40
1.0
 10
92.0696
 20
-80.6013
 30
0.0
 10
93.6277
 20
-79.9314
 30
0.0
 10
94.3709
 20
-81.9472
 30
0.0
 10
93.2832
 20
-82.2198
 30
0.0
 10
93.2832
 20
-82.2198
 30
0.0
 10
92.2829
 20
-82.4709
 30
0.0
 10
93.096
 20
-80.6647
 30
0.0
 10
92.0696
 20
-80.6013
 30
0.0
  0
SPLINE
  5
6C
330
1F
100
AcDbEntity
  8
layer 1
 62
     7
100
AcDbSpline
210
0.0
220
0.0
230
1.0
 70
    11
 71
     3
 72
    20
 73
    16
 74
     0
 42
0.0000000001
 43
0.0000000001
 12
1.0
 22
0.0
 32
0.0
 13
1.0
 23
0.0
 33
0.0
 40
0.0
 40
0.0
 40
0.0
 40
0.0
 40
0.2
 40
0.2
 40
0.2
 40
0.2
 40
0.4
 40
0.4
 40
0.4
 40
0.4
 40
0.6
 40
0.6
 40
0.6
 40
0.6
 40
1.0
 40
1.0
 40
1.0
 40
1.0
 10
85.431
 20
-82.6497
 30
0.0
 10
86.0335
 20
-83.8723
 30
0.0
 10
87.6994
 20
-84.5588
 30
0.0
 10
88.9218
 20
-83.6731
 30
0.0
 10
88.9218
 20
-83.6731
 30
0.0
 10
88.936
 20
-84.2088
 30
0.0
 10
89.1003
 20
-85.0793
 30
0.0
 10
89.1931
 20
-85.6466
 30
0.0
 10
89.1931
 20
-85.6466
 30
0.0
 10
87.5141
 20
-85.6936
 30
0.0
 10
86.3333
 20
-86.9825
 30
0.0
 10
85.7896
 20
-88.3592
 30
0.0
 10
85.7896
 20
-88.3592
 30
0.0
 10
85.4278
 20
-86.4733
 30
0.0
 10
85.3053
 20
-84.5628
 30
0.0
 10
85.431
 20
-82.6497
 30
0.0
  0
SPLINE
  5
6D
330
1F
100
AcDbEntity
  8
layer 1
 62
     7
100
AcDbSpline
210
0.0
220
0.0
230
1.0
 70
    11
 71
     3
 72
    20
 73
    16
 74
     0
 42
0.0000000001
 43
0.0000000001
 12
1.0
 22
0.0
 32
0.0
 13
1.0
 23
0.0
 33
0.0
 40
0.0
 40
0.0
 40
0.0
 40
0.0
 40
0.2
 40
0.2
 40
0.2
 40
0.2
 40
0.4
 40
0.4
 40
0.4
 40
0.4
 40
0.6
 40
0.6
 40
0.6
 40
0.6
 40
1.0
 40
1.0
 40
1.0
 40
1.0
 10
91.2956
 20
-85.6194
 30
0.0
 10
91.3929
 20
-85.0135
 30
0.0
 10
91.5406
 20
-84.2455
 30
0.0
 10
91.5631
 20
-83.6519
 30
0.0
 10
91.5631
 20
-83.6519
 30
0.0
 10
92.7219
 20
-84.5329
 30
0.0
 10
94.423
 20
-83.8963
 30
0.0
 10
95.0539
 20
-82.7431
 30
0.0
 10
95.0539
 20
-82.7431
 30
0.0
 10
95.1883
 20
-84.6307
 30
0.0
 10
95.0662
 20
-86.5119
 30
0.0
 10
94.7079
 20
-88.3728
 30
0.0
 10
94.7079
 20
-88.3728
 30
0.0
 10
94.1891
 20
-87.0061
 30
0.0
 10
92.9423
 20
-85.6697
 30
0.0
 10
91.2956
 20
-85.6194
 30
0.0
  0
SPLINE
  5
6E
330
1F
100
AcDbEntity
  8
layer 1
 62
     7
100
AcDbSpline
210
0.0
220
0.0
230
1.0
 70
    11
 71
     3
 72
    16
 73
    12
 74
     0
 42
0.0000000001
 43
0.0000000001
 12
1.0
 22
0.0
 32
0.0
 13
1.0
 23
0.0
 33
0.0
 40
0.0
 40
0.0
 40
0.0
 40
0.0
 40
0.25
 40
0.25
 40
0.25
 40
0.25
 40
0.5
 40
0.5
 40
0.5
 40
0.5
 40
1.0
 40
1.0
 40
1.0
 40
1.0
 10
92.0269
 20
4.9414
 30
0.0
 10
92.8435
 20
3.2326
 30
0.0
 10
93.9774
 20
1.6982
 30
0.0
 10
95.3562
 20
0.3383
 30
0.0
 10
95.3562
 20
0.3383
 30
0.0
 10
97.3045
 20
-1.5841
 30
0.0
 10
100.8076
 20
-4.0848
 30
0.0
 10
103.8149
 20
-2.9803
 30
0.0
 10
103.8149
 20
-2.9803
 30
0.0
 10
100.1431
 20
-0.0146
 30
0.0
 10
96.1522
 20
2.56
 30
0.0
 10
92.0269
 20
4.9414
 30
0.0
  0
SPLINE
  5
6F
330
1F
100
AcDbEntity
  8
layer 1
 62
     7
100
AcDbSpline
210
0.0
220
0.0
230
1.0
 70
    11
 71
     3
 72
    16
 73
    12
 74
     0
 42
0.0000000001
 43
0.0000000001
 12
1.0
 22
0.0
 32
0.0
 13
1.0
 23
0.0
 33
0.0
 40
0.0
 40
0.0
 40
0.0
 40
0.0
 40
0.25
 40
0.25
 40
0.25
 40
0.25
 40
0.5
 40
0.5
 40
0.5
 40
0.5
 40
1.0
 40
1.0
 40
1.0
 40
1.0
 10
88.5532
 20
5.032
 30
0.0
 10
84.3647
 20
2.6087
 30
0.0
 10
80.3074
 20
0.0006
 30
0.0
 10
76.5831
 20
-3.0198
 30
0.0
 10
76.5831
 20
-3.0198
 30
0.0
 10
78.4901
 20
-3.7774
 30
0.0
 10
80.4777
 20
-3.0422
 30
0.0
 10
82.133
 20
-2.0759
 30
0.0
 10
82.133
 20
-2.0759
 30
0.0
 10
84.8553
 20
-0.4863
 30
0.0
 10
87.2399
 20
2.2885
 30
0.0
 10
88.5532
 20
5.032
 30
0.0
  0
SPLINE
  5
70
330
1F
100
AcDbEntity
  8
layer 1
 62
     7
100
AcDbSpline
210
0.0
220
0.0
230
1.0
 70
    11
 71
     3
 72
    12
 73
     8
 74
     0
 42
0.0000000001
 43
0.0000000001
 12
1.0
 22
0.0
 32
0.0
 13
1.0
 23
0.0
 33
0.0
 40
0.0
 40
0.0
 40
0.0
 40
0.0
 40
0.3333333333333333
 40
0.3333333333333333
 40
0.3333333333333333
 40
0.3333333333333333
 40
1.0
 40
1.0
 40
1.0
 40
1.0
 10
90.2128
 20
-44.0113
 30
0.0
 10
91.6908
 20
-42.8118
 30
0.0
 10
90.4743
 20
-40.6739
 30
0.0
 10
89.6748
 20
-41.9273
 30
0.0
 10
89.6748
 20
-41.9273
 30
0.0
 10
89.2805
 20
-42.5448
 30
0.0
 10
89.6763
 20
-43.5479
 30
0.0
 10
90.2128
 20
-44.0113
 30
0.0
  0
SPLINE
  5
71
330
1F
100
AcDbEntity
  8
layer 1
 62
     7
100
AcDbSpline
210
0.0
220
0.0
230
1.0
 70
    11
 71
     3
 72
    20
 73
    16
 74
     0
 42
0.0000000001
 43
0.0000000001
 12
1.0
 22
0.0
 32
0.0
 13
1.0
 23
0.0
 33
0.0
 40
0.0
 40
0.0
 40
0.0
 40
0.0
 40
0.2
 40
0.2
 40
0.2
 40
0.2
 40
0.4
 40
0.4
 40
0.4
 40
0.4
 40
0.6
 40
0.6
 40
0.6
 40
0.6
 40
1.0
 40
1.0
 40
1.0
 40
1.0
 10
89.4535
 20
-14.8169
 30
0.0
 10
89.6877
 20
-13.6889
 30
0.0
 10
90.7481
 20
-13.6071
 30
0.0
 10
91.016
 20
-14.7495
 30
0.0
 10
91.016
 20
-14.7495
 30
0.0
 10
92.2276
 20
-8.2001
 30
0.0
 10
92.3683
 20
-1.729
 30
0.0
 10
90.3029
 20
4.7054
 30
0.0
 10
90.3029
 20
4.7054
 30
0.0
 10
90.2728
 20
4.7985
 30
0.0
 10
90.2441
 20
4.8915
 30
0.0
 10
90.2148
 20
4.9841
 30
0.0
 10
90.2148
 20
4.9841
 30
0.0
 10
88.0273
 20
-1.4659
 30
0.0
 10
88.2169
 20
-8.2133
 30
0.0
 10
89.4535
 20
-14.8169
 30
0.0
  0
SPLINE
  5
72
330
1F
100
AcDbEntity
  8
layer 1
 62
     7
100
AcDbSpline
210
0.0
220
0.0
230
1.0
 70
    11
 71
     3
 72
    44
 73
    40
 74
     0
 42
0.0000000001
 43
0.0000000001
 12
1.0
 22
0.0
 32
0.0
 13
1.0
 23
0.0
 33
0.0
 40
0.0
 40
0.0
 40
0.0
 40
0.0
 40
0.0909090909090909
 40
0.0909090909090909
 40
0.0909090909090909
 40
0.0909090909090909
 40
0.1818181818181818
 40
0.1818181818181818
 40
0.1818181818181818
 40
0.1818181818181818
 40
0.2727272727272727
 40
0.2727272727272727
 40
0.2727272727272727
 40
0.2727272727272727
 40
0.3636363636363636
 40
0.3636363636363636
 40
0.3636363636363636
 40
0.3636363636363636
 40
0.4545454545454545
 40
0.4545454545454545
 40
0.4545454545454545
 40
0.4545454545454545
 40
0.5454545454545454
 40
0.5454545454545454
 40
0.5454545454545454
 40
0.5454545454545454
 40
0.6363636363636364
 40
0.6363636363636364
 40
0.6363636363636364
 40
0.6363636363636364
 40
0.7272727272727273
 40
0.7272727272727273
 40
0.7272727272727273
 40
0.7272727272727273
 40
0.8181818181818182
 40
0.8181818181818182
 40
0.8181818181818182
 40
0.8181818181818182
 40
1.0
 40
1.0
 40
1.0
 40
1.0
 10
88.7808
 20
-31.1956
 30
0.0
 10
88.0278
 20
-33.8016
 30
0.0
 10
87.2901
 20
-36.4125
 30
0.0
 10
86.6529
 20
-39.0458
 30
0.0
 10
86.6529
 20
-39.0458
 30
0.0
 10
86.4127
 20
-40.0357
 30
0.0
 10
86.607
 20
-41.2471
 30
0.0
 10
86.9504
 20
-42.2291
 30
0.0
 10
86.9504
 20
-42.2291
 30
0.0
 10
86.8299
 20
-40.8228
 30
0.0
 10
88.4532
 20
-39.3826
 30
0.0
 10
90.2148
 20
-39.8201
 30
0.0
 10
90.2148
 20
-39.8201
 30
0.0
 10
90.6039
 20
-39.8681
 30
0.0
 10
92.1743
 20
-39.3443
 30
0.0
 10
93.1837
 20
-40.9621
 30
0.0
 10
93.1837
 20
-40.9621
 30
0.0
 10
93.5052
 20
-41.4778
 30
0.0
 10
93.574
 20
-42.0602
 30
0.0
 10
93.3942
 20
-42.609
 30
0.0
 10
93.3942
 20
-42.609
 30
0.0
 10
93.768
 20
-41.7552
 30
0.0
 10
94.0489
 20
-40.2795
 30
0.0
 10
93.9232
 20
-39.3658
 30
0.0
 10
93.9232
 20
-39.3658
 30
0.0
 10
93.73
 20
-37.9568
 30
0.0
 10
92.1802
 20
-32.8273
 30
0.0
 10
91.7018
 20
-31.1856
 30
0.0
 10
91.7018
 20
-31.1856
 30
0.0
 10
91.6169
 20
-32.4864
 30
0.0
 10
91.496
 20
-34.4642
 30
0.0
 10
91.0551
 20
-35.7136
 30
0.0
 10
91.0551
 20
-35.7136
 30
0.0
 10
90.69
 20
-36.7478
 30
0.0
 10
89.7917
 20
-36.749
 30
0.0
 10
89.4267
 20
-35.714
 30
0.0
 10
89.4267
 20
-35.714
 30
0.0
 10
88.9869
 20
-34.4662
 30
0.0
 10
88.866
 20
-32.4944
 30
0.0
 10
88.7808
 20
-31.1956
 30
0.0
  0
SPLINE
  5
73
330
1F
100
AcDbEntity
  8
layer 1
 62
     7
100
AcDbSpline
210
0.0
220
0.0
230
1.0
 70
    11
 71
     3
 72
    16
 73
    12
 74
     0
 42
0.0000000001
 43
0.0000000001
 12
1.0
 22
0.0
 32
0.0
 13
1.0
 23
0.0
 33
0.0
 40
0.0
 40
0.0
 40
0.0
 40
0.0
 40
0.25
 40
0.25
 40
0.25
 40
0.25
 40
0.5
 40
0.5
 40
0.5
 40
0.5
 40
1.0
 40
1.0
 40
1.0
 40
1.0
 10
75.074
 20
-2.0375
 30
0.0
 10
76.6333
 20
-0.8065
 30
0.0
 10
78.2463
 20
0.3638
 30
0.0
 10
79.902
 20
1.4794
 30
0.0
 10
79.902
 20
1.4794
 30
0.0
 10
79.1648
 20
1.8974
 30
0.0
 10
78.8461
 20
2.2534
 30
0.0
 10
77.8872
 20
2.4163
 30
0.0
 10
77.8872
 20
2.4163
 30
0.0
 10
74.9267
 20
2.9209
 30
0.0
 10
72.9268
 20
0.0928
 30
0.0
 10
75.074
 20
-2.0375
 30
0.0
  0
SPLINE
  5
74
330
1F
100
AcDbEntity
  8
layer 1
 62
     7
100
AcDbSpline
210
0.0
220
0.0
230
1.0
 70
    11
 71
     3
 72
    16
 73
    12
 74
     0
 42
0.0000000001
 43
0.0000000001
 12
1.0
 22
0.0
 32
0.0
 13
1.0
 23
0.0
 33
0.0
 40
0.0
 40
0.0
 40
0.0
 40
0.0
 40
0.25
 40
0.25
 40
0.25
 40
0.25
 40
0.5
 40
0.5
 40
0.5
 40
0.5
 40
1.0
 40
1.0
 40
1.0
 40
1.0
 10
88.4986
 20
-50.7562
 30
0.0
 10
87.4386
 20
-50.6943
 30
0.0
 10
88.1766
 20
-49.3963
 30
0.0
 10
87.5975
 20
-49.174
 30
0.0
 10
87.5975
 20
-49.174
 30
0.0
 10
87.0472
 20
-48.9628
 30
0.0
 10
86.2282
 20
-49.6322
 30
0.0
 10
86.9598
 20
-50.5196
 30
0.0
 10
86.9598
 20
-50.5196
 30
0.0
 10
87.3558
 20
-50.9997
 30
0.0
 10
87.9613
 20
-50.9869
 30
0.0
 10
88.4986
 20
-50.7562
 30
0.0
  0
SPLINE
  5
75
330
1F
100
AcDbEntity
  8
layer 1
 62
     7
100
AcDbSpline
210
0.0
220
0.0
230
1.0
 70
    11
 71
     3
 72
    12
 73
     8
 74
     0
 42
0.0000000001
 43
0.0000000001
 12
1.0
 22
0.0
 32
0.0
 13
1.0
 23
0.0
 33
0.0
 40
0.0
 40
0.0
 40
0.0
 40
0.0
 40
0.3333333333333333
 40
0.3333333333333333
 40
0.3333333333333333
 40
0.3333333333333333
 40
1.0
 40
1.0
 40
1.0
 40
1.0
 10
92.0696
 20
-50.7478
 30
0.0
 10
93.6277
 20
-51.4176
 30
0.0
 10
94.3709
 20
-49.4019
 30
0.0
 10
93.2832
 20
-49.1289
 30
0.0
 10
93.2832
 20
-49.1289
 30
0.0
 10
92.2829
 20
-48.8782
 30
0.0
 10
93.096
 20
-50.684
 30
0.0
 10
92.0696
 20
-50.7478
 30
0.0
  0
SPLINE
  5
76
330
1F
100
AcDbEntity
  8
layer 1
 62
     7
100
AcDbSpline
210
0.0
220
0.0
230
1.0
 70
    11
 71
     3
 72
    16
 73
    12
 74
     0
 42
0.0000000001
 43
0.0000000001
 12
1.0
 22
0.0
 32
0.0
 13
1.0
 23
0.0
 33
0.0
 40
0.0
 40
0.0
 40
0.0
 40
0.0
 40
0.25
 40
0.25
 40
0.25
 40
0.25
 40
0.5
 40
0.5
 40
0.5
 40
0.5
 40
1.0
 40
1.0
 40
1.0
 40
1.0
 10
100.5777
 20
1.45
 30
0.0
 10
102.212
 20
0.3491
 30
0.0
 10
103.8057
 20
-0.8049
 30
0.0
 10
105.3473
 20
-2.018
 30
0.0
 10
105.3473
 20
-2.018
 30
0.0
 10
106.9299
 20
-0.4545
 30
0.0
 10
106.4234
 20
1.9325
 30
0.0
 10
104.2395
 20
2.3588
 30
0.0
 10
104.2395
 20
2.3588
 30
0.0
 10
102.1737
 20
2.7623
 30
0.0
 10
101.5827
 20
1.9975
 30
0.0
 10
100.5777
 20
1.45
 30
0.0
  0
SPLINE
  5
77
330
1F
100
AcDbEntity
  8
layer 1
 62
     7
100
AcDbSpline
210
0.0
220
0.0
230
1.0
 70
    11
 71
     3
 72
    20
 73
    16
 74
     0
 42
0.0000000001
 43
0.0000000001
 12
1.0
 22
0.0
 32
0.0
 13
1.0
 23
0.0
 33
0.0
 40
0.0
 40
0.0
 40
0.0
 40
0.0
 40
0.2
 40
0.2
 40
0.2
 40
0.2
 40
0.4
 40
0.4
 40
0.4
 40
0.4
 40
0.6
 40
0.6
 40
0.6
 40
0.6
 40
1.0
 40
1.0
 40
1.0
 40
1.0
 10
85.431
 20
-48.6994
 30
0.0
 10
86.0335
 20
-47.4764
 30
0.0
 10
87.6994
 20
-46.7902
 30
0.0
 10
88.9218
 20
-47.6751
 30
0.0
 10
88.9218
 20
-47.6751
 30
0.0
 10
88.936
 20
-47.1399
 30
0.0
 10
89.1003
 20
-46.2693
 30
0.0
 10
89.1931
 20
-45.7025
 30
0.0
 10
89.1931
 20
-45.7025
 30
0.0
 10
87.5141
 20
-45.655
 30
0.0
 10
86.3333
 20
-44.3661
 30
0.0
 10
85.7896
 20
-42.9895
 30
0.0
 10
85.7896
 20
-42.9895
 30
0.0
 10
85.4278
 20
-44.8754
 30
0.0
 10
85.3053
 20
-46.7862
 30
0.0
 10
85.431
 20
-48.6994
 30
0.0
  0
SPLINE
  5
78
330
1F
100
AcDbEntity
  8
layer 1
 62
     7
100
AcDbSpline
210
0.0
220
0.0
230
1.0
 70
    11
 71
     3
 72
    20
 73
    16
 74
     0
 42
0.0000000001
 43
0.0000000001
 12
1.0
 22
0.0
 32
0.0
 13
1.0
 23
0.0
 33
0.0
 40
0.0
 40
0.0
 40
0.0
 40
0.0
 40
0.2
 40
0.2
 40
0.2
 40
0.2
 40
0.4
 40
0.4
 40
0.4
 40
0.4
 40
0.6
 40
0.6
 40
0.6
 40
0.6
 40
1.0
 40
1.0
 40
1.0
 40
1.0
 10
91.2956
 20
-45.7297
 30
0.0
 10
91.3929
 20
-46.3351
 30
0.0
 10
91.5406
 20
-47.1035
 30
0.0
 10
91.5631
 20
-47.6971
 30
0.0
 10
91.5631
 20
-47.6971
 30
0.0
 10
92.7219
 20
-46.8157
 30
0.0
 10
94.423
 20
-47.452
 30
0.0
 10
95.0539
 20
-48.6059
 30
0.0
 10
95.0539
 20
-48.6059
 30
0.0
 10
95.1883
 20
-46.7179
 30
0.0
 10
95.0662
 20
-44.8364
 30
0.0
 10
94.7079
 20
-42.9754
 30
0.0
 10
94.7079
 20
-42.9754
 30
0.0
 10
94.1891
 20
-44.343
 30
0.0
 10
92.9423
 20
-45.679
 30
0.0
 10
91.2956
 20
-45.7297
 30
0.0
  0
SPLINE
  5
79
330
1F
100
AcDbEntity
  8
layer 1
 62
     7
100
AcDbSpline
210
0.0
220
0.0
230
1.0
 70
    11
 71
     3
 72
    20
 73
    16
 74
     0
 42
0.0000000001
 43
0.0000000001
 12
1.0
 22
0.0
 32
0.0
 13
1.0
 23
0.0
 33
0.0
 40
0.0
 40
0.0
 40
0.0
 40
0.0
 40
0.2
 40
0.2
 40
0.2
 40
0.2
 40
0.4
 40
0.4
 40
0.4
 40
0.4
 40
0.6
 40
0.6
 40
0.6
 40
0.6
 40
1.0
 40
1.0
 40
1.0
 40
1.0
 10
117.3912
 20
-20.1907
 30
0.0
 10
117.2419
 20
-20.7329
 30
0.0
 10
116.6836
 20
-21.5436
 30
0.0
 10
116.0065
 20
-21.1647
 30
0.0
 10
116.0065
 20
-21.1647
 30
0.0
 10
115.4794
 20
-20.8709
 30
0.0
 10
115.8599
 20
-19.978
 30
0.0
 10
115.4107
 20
-19.632
 30
0.0
 10
115.4107
 20
-19.632
 30
0.0
 10
114.5091
 20
-18.939
 30
0.0
 10
113.4061
 20
-19.6763
 30
0.0
 10
113.7925
 20
-20.6993
 30
0.0
 10
113.7925
 20
-20.6993
 30
0.0
 10
114.5262
 20
-22.6396
 30
0.0
 10
116.9925
 20
-22.3047
 30
0.0
 10
117.3912
 20
-20.1907
 30
0.0
  0
SPLINE
  5
7A
330
1F
100
AcDbEntity
  8
layer 1
 62
     7
100
AcDbSpline
210
0.0
220
0.0
230
1.0
 70
    11
 71
     3
 72
    20
 73
    16
 74
     0
 42
0.0000000001
 43
0.0000000001
 12
1.0
 22
0.0
 32
0.0
 13
1.0
 23
0.0
 33
0.0
 40
0.0
 40
0.0
 40
0.0
 40
0.0
 40
0.2
 40
0.2
 40
0.2
 40
0.2
 40
0.4
 40
0.4
 40
0.4
 40
0.4
 40
0.6
 40
0.6
 40
0.6
 40
0.6
 40
1.0
 40
1.0
 40
1.0
 40
1.0
 10
63.1913
 20
-20.5021
 30
0.0
 10
64.0521
 20
-23.1062
 30
0.0
 10
66.8286
 20
-21.702
 30
0.0
 10
66.6971
 20
-20.2096
 30
0.0
 10
66.6971
 20
-20.2096
 30
0.0
 10
66.6437
 20
-19.6072
 30
0.0
 10
66.0528
 20
-19.155
 30
0.0
 10
65.4207
 20
-19.3889
 30
0.0
 10
65.4207
 20
-19.3889
 30
0.0
 10
64.3575
 20
-19.7824
 30
0.0
 10
65.1726
 20
-21.0661
 30
0.0
 10
64.2481
 20
-21.2405
 30
0.0
 10
64.2481
 20
-21.2405
 30
0.0
 10
63.7381
 20
-21.3364
 30
0.0
 10
63.3782
 20
-20.9164
 30
0.0
 10
63.1913
 20
-20.5021
 30
0.0
  0
SPLINE
  5
7B
330
1F
100
AcDbEntity
  8
layer 1
 62
     7
100
AcDbSpline
210
0.0
220
0.0
230
1.0
 70
    11
 71
     3
 72
    12
 73
     8
 74
     0
 42
0.0000000001
 43
0.0000000001
 12
1.0
 22
0.0
 32
0.0
 13
1.0
 23
0.0
 33
0.0
 40
0.0
 40
0.0
 40
0.0
 40
0.0
 40
0.3333333333333333
 40
0.3333333333333333
 40
0.3333333333333333
 40
0.3333333333333333
 40
1.0
 40
1.0
 40
1.0
 40
1.0
 10
113.4287
 20
-65.6724
 30
0.0
 10
114.7142
 20
-64.2928
 30
0.0
 10
117.0055
 20
-65.4276
 30
0.0
 10
115.6624
 20
-66.174
 30
0.0
 10
115.6624
 20
-66.174
 30
0.0
 10
115.0003
 20
-66.5417
 30
0.0
 10
113.9253
 20
-66.1721
 30
0.0
 10
113.4287
 20
-65.6724
 30
0.0
  0
SPLINE
  5
7C
330
1F
100
AcDbEntity
  8
layer 1
 62
     7
100
AcDbSpline
210
0.0
220
0.0
230
1.0
 70
    11
 71
     3
 72
    16
 73
    12
 74
     0
 42
0.0000000001
 43
0.0000000001
 12
1.0
 22
0.0
 32
0.0
 13
1.0
 23
0.0
 33
0.0
 40
0.0
 40
0.0
 40
0.0
 40
0.0
 40
0.25
 40
0.25
 40
0.25
 40
0.25
 40
0.5
 40
0.5
 40
0.5
 40
0.5
 40
1.0
 40
1.0
 40
1.0
 40
1.0
 10
106.1994
 20
-67.271
 30
0.0
 10
106.2654
 20
-68.26
 30
0.0
 10
107.6568
 20
-67.572
 30
0.0
 10
107.895
 20
-68.112
 30
0.0
 10
107.895
 20
-68.112
 30
0.0
 10
108.1218
 20
-68.6257
 30
0.0
 10
107.4044
 20
-69.3897
 30
0.0
 10
106.4531
 20
-68.7071
 30
0.0
 10
106.4531
 20
-68.7071
 30
0.0
 10
105.9386
 20
-68.3379
 30
0.0
 10
105.9521
 20
-67.7727
 30
0.0
 10
106.1994
 20
-67.271
 30
0.0
  0
SPLINE
  5
7D
330
1F
100
AcDbEntity
  8
layer 1
 62
     7
100
AcDbSpline
210
0.0
220
0.0
230
1.0
 70
    11
 71
     3
 72
    12
 73
     8
 74
     0
 42
0.0000000001
 43
0.0000000001
 12
1.0
 22
0.0
 32
0.0
 13
1.0
 23
0.0
 33
0.0
 40
0.0
 40
0.0
 40
0.0
 40
0.0
 40
0.3333333333333333
 40
0.3333333333333333
 40
0.3333333333333333
 40
0.3333333333333333
 40
1.0
 40
1.0
 40
1.0
 40
1.0
 10
106.2089
 20
-63.9392
 30
0.0
 10
105.4906
 20
-62.4855
 30
0.0
 10
107.6517
 20
-61.7921
 30
0.0
 10
107.9433
 20
-62.8067
 30
0.0
 10
107.9433
 20
-62.8067
 30
0.0
 10
108.2123
 20
-63.7404
 30
0.0
 10
106.2769
 20
-62.982
 30
0.0
 10
106.2089
 20
-63.9392
 30
0.0
  0
SPLINE
  5
7E
330
1F
100
AcDbEntity
  8
layer 1
 62
     7
100
AcDbSpline
210
0.0
220
0.0
230
1.0
 70
    11
 71
     3
 72
    20
 73
    16
 74
     0
 42
0.0000000001
 43
0.0000000001
 12
1.0
 22
0.0
 32
0.0
 13
1.0
 23
0.0
 33
0.0
 40
0.0
 40
0.0
 40
0.0
 40
0.0
 40
0.2
 40
0.2
 40
0.2
 40
0.2
 40
0.4
 40
0.4
 40
0.4
 40
0.4
 40
0.6
 40
0.6
 40
0.6
 40
0.6
 40
1.0
 40
1.0
 40
1.0
 40
1.0
 10
108.4039
 20
-70.1337
 30
0.0
 10
109.7147
 20
-69.5717
 30
0.0
 10
110.4503
 20
-68.0166
 30
0.0
 10
109.5013
 20
-66.8766
 30
0.0
 10
109.5013
 20
-66.8766
 30
0.0
 10
110.0754
 20
-66.8634
 30
0.0
 10
111.0085
 20
-66.7102
 30
0.0
 10
111.6161
 20
-66.6231
 30
0.0
 10
111.6161
 20
-66.6231
 30
0.0
 10
111.6667
 20
-68.1894
 30
0.0
 10
113.0482
 20
-69.2915
 30
0.0
 10
114.5238
 20
-69.7985
 30
0.0
 10
114.5238
 20
-69.7985
 30
0.0
 10
112.5018
 20
-70.1369
 30
0.0
 10
110.4547
 20
-70.2511
 30
0.0
 10
108.4039
 20
-70.1337
 30
0.0
  0
SPLINE
  5
7F
330
1F
100
AcDbEntity
  8
layer 1
 62
     7
100
AcDbSpline
210
0.0
220
0.0
230
1.0
 70
    11
 71
     3
 72
    20
 73
    16
 74
     0
 42
0.0000000001
 43
0.0000000001
 12
1.0
 22
0.0
 32
0.0
 13
1.0
 23
0.0
 33
0.0
 40
0.0
 40
0.0
 40
0.0
 40
0.0
 40
0.2
 40
0.2
 40
0.2
 40
0.2
 40
0.4
 40
0.4
 40
0.4
 40
0.4
 40
0.6
 40
0.6
 40
0.6
 40
0.6
 40
1.0
 40
1.0
 40
1.0
 40
1.0
 10
111.5873
 20
-64.6617
 30
0.0
 10
110.9378
 20
-64.571
 30
0.0
 10
110.1145
 20
-64.4325
 30
0.0
 10
109.4785
 20
-64.4122
 30
0.0
 10
109.4785
 20
-64.4122
 30
0.0
 10
110.4231
 20
-63.3305
 30
0.0
 10
109.7408
 20
-61.7438
 30
0.0
 10
108.5043
 20
-61.1551
 30
0.0
 10
108.5043
 20
-61.1551
 30
0.0
 10
110.5274
 20
-61.0298
 30
0.0
 10
112.5442
 20
-61.1435
 30
0.0
 10
114.5384
 20
-61.478
 30
0.0
 10
114.5384
 20
-61.478
 30
0.0
 10
113.0732
 20
-61.9622
 30
0.0
 10
111.641
 20
-63.1249
 30
0.0
 10
111.5873
 20
-64.6617
 30
0.0
  0
SPLINE
  5
80
330
1F
100
AcDbEntity
  8
layer 1
 62
     7
100
AcDbSpline
210
0.0
220
0.0
230
1.0
 70
    11
 71
     3
 72
    52
 73
    48
 74
     0
 42
0.0000000001
 43
0.0000000001
 12
1.0
 22
0.0
 32
0.0
 13
1.0
 23
0.0
 33
0.0
 40
0.0
 40
0.0
 40
0.0
 40
0.0
 40
0.0769230769230769
 40
0.0769230769230769
 40
0.0769230769230769
 40
0.0769230769230769
 40
0.1538461538461539
 40
0.1538461538461539
 40
0.1538461538461539
 40
0.1538461538461539
 40
0.2307692307692308
 40
0.2307692307692308
 40
0.2307692307692308
 40
0.2307692307692308
 40
0.3076923076923077
 40
0.3076923076923077
 40
0.3076923076923077
 40
0.3076923076923077
 40
0.3846153846153846
 40
0.3846153846153846
 40
0.3846153846153846
 40
0.3846153846153846
 40
0.4615384615384616
 40
0.4615384615384616
 40
0.4615384615384616
 40
0.4615384615384616
 40
0.5384615384615384
 40
0.5384615384615384
 40
0.5384615384615384
 40
0.5384615384615384
 40
0.6153846153846154
 40
0.6153846153846154
 40
0.6153846153846154
 40
0.6153846153846154
 40
0.6923076923076923
 40
0.6923076923076923
 40
0.6923076923076923
 40
0.6923076923076923
 40
0.7692307692307693
 40
0.7692307692307693
 40
0.7692307692307693
 40
0.7692307692307693
 40
0.8461538461538461
 40
0.8461538461538461
 40
0.8461538461538461
 40
0.8461538461538461
 40
1.0
 40
1.0
 40
1.0
 40
1.0
 10
92.247
 20
-65.4844
 30
0.0
 10
92.6365
 20
-65.3921
 30
0.0
 10
92.9747
 20
-65.2951
 30
0.0
 10
93.1785
 20
-65.2429
 30
0.0
 10
93.1785
 20
-65.2429
 30
0.0
 10
97.4049
 20
-64.1548
 30
0.0
 10
101.2153
 20
-62.1793
 30
0.0
 10
105.6005
 20
-61.48
 30
0.0
 10
105.6005
 20
-61.48
 30
0.0
 10
104.714
 20
-62.1402
 30
0.0
 10
104.3892
 20
-63.2115
 30
0.0
 10
104.7717
 20
-64.201
 30
0.0
 10
104.7717
 20
-64.201
 30
0.0
 10
104.1494
 20
-64.049
 30
0.0
 10
103.3277
 20
-63.847
 30
0.0
 10
102.7225
 20
-63.9081
 30
0.0
 10
102.7225
 20
-63.9081
 30
0.0
 10
101.7127
 20
-64.0102
 30
0.0
 10
98.4929
 20
-64.3436
 30
0.0
 10
98.4929
 20
-65.6452
 30
0.0
 10
98.4929
 20
-65.6452
 30
0.0
 10
98.4925
 20
-66.9456
 30
0.0
 10
101.7091
 20
-67.2797
 30
0.0
 10
102.7181
 20
-67.3824
 30
0.0
 10
102.7181
 20
-67.3824
 30
0.0
 10
103.3242
 20
-67.4442
 30
0.0
 10
104.1569
 20
-67.1971
 30
0.0
 10
104.7744
 20
-67.0151
 30
0.0
 10
104.7744
 20
-67.0151
 30
0.0
 10
104.3616
 20
-68.0673
 30
0.0
 10
104.6409
 20
-69.1709
 30
0.0
 10
105.6448
 20
-69.8507
 30
0.0
 10
105.6448
 20
-69.8507
 30
0.0
 10
103.184
 20
-69.4907
 30
0.0
 10
100.7704
 20
-68.8592
 30
0.0
 10
98.4341
 20
-68.0589
 30
0.0
 10
98.4341
 20
-68.0589
 30
0.0
 10
96.6014
 20
-67.4142
 30
0.0
 10
94.3443
 20
-66.408
 30
0.0
 10
92.2995
 20
-65.9158
 30
0.0
 10
92.2995
 20
-65.9158
 30
0.0
 10
92.213
 20
-65.83
 30
0.0
 10
92.1265
 20
-65.7494
 30
0.0
 10
92.0408
 20
-65.6743
 30
0.0
 10
92.0408
 20
-65.6743
 30
0.0
 10
92.1091
 20
-65.6145
 30
0.0
 10
92.1779
 20
-65.551
 30
0.0
 10
92.247
 20
-65.4844
 30
0.0
  0
SPLINE
  5
81
330
1F
100
AcDbEntity
  8
layer 1
 62
     7
100
AcDbSpline
210
0.0
220
0.0
230
1.0
 70
    11
 71
     3
 72
    12
 73
     8
 74
     0
 42
0.0000000001
 43
0.0000000001
 12
1.0
 22
0.0
 32
0.0
 13
1.0
 23
0.0
 33
0.0
 40
0.0
 40
0.0
 40
0.0
 40
0.0
 40
0.3333333333333333
 40
0.3333333333333333
 40
0.3333333333333333
 40
0.3333333333333333
 40
1.0
 40
1.0
 40
1.0
 40
1.0
 10
66.9922
 20
-65.6724
 30
0.0
 10
65.707
 20
-64.2928
 30
0.0
 10
63.4153
 20
-65.4276
 30
0.0
 10
64.7585
 20
-66.174
 30
0.0
 10
64.7585
 20
-66.174
 30
0.0
 10
65.4207
 20
-66.5417
 30
0.0
 10
66.4956
 20
-66.1721
 30
0.0
 10
66.9922
 20
-65.6724
 30
0.0
  0
SPLINE
  5
82
330
1F
100
AcDbEntity
  8
layer 1
 62
     7
100
AcDbSpline
210
0.0
220
0.0
230
1.0
 70
    11
 71
     3
 72
    16
 73
    12
 74
     0
 42
0.0000000001
 43
0.0000000001
 12
1.0
 22
0.0
 32
0.0
 13
1.0
 23
0.0
 33
0.0
 40
0.0
 40
0.0
 40
0.0
 40
0.0
 40
0.25
 40
0.25
 40
0.25
 40
0.25
 40
0.5
 40
0.5
 40
0.5
 40
0.5
 40
1.0
 40
1.0
 40
1.0
 40
1.0
 10
74.2214
 20
-67.271
 30
0.0
 10
74.1559
 20
-68.26
 30
0.0
 10
72.7641
 20
-67.572
 30
0.0
 10
72.5258
 20
-68.112
 30
0.0
 10
72.5258
 20
-68.112
 30
0.0
 10
72.2991
 20
-68.6257
 30
0.0
 10
73.0165
 20
-69.3897
 30
0.0
 10
73.9678
 20
-68.7071
 30
0.0
 10
73.9678
 20
-68.7071
 30
0.0
 10
74.4822
 20
-68.3379
 30
0.0
 10
74.4692
 20
-67.7727
 30
0.0
 10
74.2214
 20
-67.271
 30
0.0
  0
SPLINE
  5
83
330
1F
100
AcDbEntity
  8
layer 1
 62
     7
100
AcDbSpline
210
0.0
220
0.0
230
1.0
 70
    11
 71
     3
 72
    12
 73
     8
 74
     0
 42
0.0000000001
 43
0.0000000001
 12
1.0
 22
0.0
 32
0.0
 13
1.0
 23
0.0
 33
0.0
 40
0.0
 40
0.0
 40
0.0
 40
0.0
 40
0.3333333333333333
 40
0.3333333333333333
 40
0.3333333333333333
 40
0.3333333333333333
 40
1.0
 40
1.0
 40
1.0
 40
1.0
 10
74.2123
 20
-63.9392
 30
0.0
 10
74.9302
 20
-62.4855
 30
0.0
 10
72.7696
 20
-61.7921
 30
0.0
 10
72.4777
 20
-62.8067
 30
0.0
 10
72.4777
 20
-62.8067
 30
0.0
 10
72.2086
 20
-63.7404
 30
0.0
 10
74.1444
 20
-62.982
 30
0.0
 10
74.2123
 20
-63.9392
 30
0.0
  0
SPLINE
  5
84
330
1F
100
AcDbEntity
  8
layer 1
 62
     7
100
AcDbSpline
210
0.0
220
0.0
230
1.0
 70
    11
 71
     3
 72
    20
 73
    16
 74
     0
 42
0.0000000001
 43
0.0000000001
 12
1.0
 22
0.0
 32
0.0
 13
1.0
 23
0.0
 33
0.0
 40
0.0
 40
0.0
 40
0.0
 40
0.0
 40
0.2
 40
0.2
 40
0.2
 40
0.2
 40
0.4
 40
0.4
 40
0.4
 40
0.4
 40
0.6
 40
0.6
 40
0.6
 40
0.6
 40
1.0
 40
1.0
 40
1.0
 40
1.0
 10
72.017
 20
-70.1337
 30
0.0
 10
70.7062
 20
-69.5717
 30
0.0
 10
69.9706
 20
-68.0166
 30
0.0
 10
70.9199
 20
-66.8766
 30
0.0
 10
70.9199
 20
-66.8766
 30
0.0
 10
70.3459
 20
-66.8634
 30
0.0
 10
69.4124
 20
-66.7102
 30
0.0
 10
68.8048
 20
-66.6231
 30
0.0
 10
68.8048
 20
-66.6231
 30
0.0
 10
68.7542
 20
-68.1894
 30
0.0
 10
67.3731
 20
-69.2915
 30
0.0
 10
65.8975
 20
-69.7985
 30
0.0
 10
65.8975
 20
-69.7985
 30
0.0
 10
67.919
 20
-70.1369
 30
0.0
 10
69.9662
 20
-70.2511
 30
0.0
 10
72.017
 20
-70.1337
 30
0.0
  0
SPLINE
  5
85
330
1F
100
AcDbEntity
  8
layer 1
 62
     7
100
AcDbSpline
210
0.0
220
0.0
230
1.0
 70
    11
 71
     3
 72
    20
 73
    16
 74
     0
 42
0.0000000001
 43
0.0000000001
 12
1.0
 22
0.0
 32
0.0
 13
1.0
 23
0.0
 33
0.0
 40
0.0
 40
0.0
 40
0.0
 40
0.0
 40
0.2
 40
0.2
 40
0.2
 40
0.2
 40
0.4
 40
0.4
 40
0.4
 40
0.4
 40
0.6
 40
0.6
 40
0.6
 40
0.6
 40
1.0
 40
1.0
 40
1.0
 40
1.0
 10
68.834
 20
-64.6617
 30
0.0
 10
69.4835
 20
-64.571
 30
0.0
 10
70.3064
 20
-64.4325
 30
0.0
 10
70.9425
 20
-64.4122
 30
0.0
 10
70.9425
 20
-64.4122
 30
0.0
 10
69.9983
 20
-63.3305
 30
0.0
 10
70.6805
 20
-61.7438
 30
0.0
 10
71.9166
 20
-61.1551
 30
0.0
 10
71.9166
 20
-61.1551
 30
0.0
 10
69.8936
 20
-61.0298
 30
0.0
 10
67.8772
 20
-61.1435
 30
0.0
 10
65.8824
 20
-61.478
 30
0.0
 10
65.8824
 20
-61.478
 30
0.0
 10
67.3478
 20
-61.9622
 30
0.0
 10
68.7798
 20
-63.1249
 30
0.0
 10
68.834
 20
-64.6617
 30
0.0
  0
SPLINE
  5
86
330
1F
100
AcDbEntity
  8
layer 1
 62
     7
100
AcDbSpline
210
0.0
220
0.0
230
1.0
 70
    11
 71
     3
 72
    52
 73
    48
 74
     0
 42
0.0000000001
 43
0.0000000001
 12
1.0
 22
0.0
 32
0.0
 13
1.0
 23
0.0
 33
0.0
 40
0.0
 40
0.0
 40
0.0
 40
0.0
 40
0.0769230769230769
 40
0.0769230769230769
 40
0.0769230769230769
 40
0.0769230769230769
 40
0.1538461538461539
 40
0.1538461538461539
 40
0.1538461538461539
 40
0.1538461538461539
 40
0.2307692307692308
 40
0.2307692307692308
 40
0.2307692307692308
 40
0.2307692307692308
 40
0.3076923076923077
 40
0.3076923076923077
 40
0.3076923076923077
 40
0.3076923076923077
 40
0.3846153846153846
 40
0.3846153846153846
 40
0.3846153846153846
 40
0.3846153846153846
 40
0.4615384615384616
 40
0.4615384615384616
 40
0.4615384615384616
 40
0.4615384615384616
 40
0.5384615384615384
 40
0.5384615384615384
 40
0.5384615384615384
 40
0.5384615384615384
 40
0.6153846153846154
 40
0.6153846153846154
 40
0.6153846153846154
 40
0.6153846153846154
 40
0.6923076923076923
 40
0.6923076923076923
 40
0.6923076923076923
 40
0.6923076923076923
 40
0.7692307692307693
 40
0.7692307692307693
 40
0.7692307692307693
 40
0.7692307692307693
 40
0.8461538461538461
 40
0.8461538461538461
 40
0.8461538461538461
 40
0.8461538461538461
 40
1.0
 40
1.0
 40
1.0
 40
1.0
 10
88.1929
 20
-65.4887
 30
0.0
 10
87.7954
 20
-65.395
 30
0.0
 10
87.4494
 20
-65.2959
 30
0.0
 10
87.2423
 20
-65.2429
 30
0.0
 10
87.2423
 20
-65.2429
 30
0.0
 10
83.0159
 20
-64.1548
 30
0.0
 10
79.2056
 20
-62.1793
 30
0.0
 10
74.8207
 20
-61.48
 30
0.0
 10
74.8207
 20
-61.48
 30
0.0
 10
75.7073
 20
-62.1402
 30
0.0
 10
76.032
 20
-63.2115
 30
0.0
 10
75.6492
 20
-64.201
 30
0.0
 10
75.6492
 20
-64.201
 30
0.0
 10
76.2714
 20
-64.049
 30
0.0
 10
77.0936
 20
-63.847
 30
0.0
 10
77.6984
 20
-63.9081
 30
0.0
 10
77.6984
 20
-63.9081
 30
0.0
 10
78.7082
 20
-64.0102
 30
0.0
 10
81.9284
 20
-64.3436
 30
0.0
 10
81.9284
 20
-65.6452
 30
0.0
 10
81.9284
 20
-65.6452
 30
0.0
 10
81.9284
 20
-66.9456
 30
0.0
 10
78.7117
 20
-67.2797
 30
0.0
 10
77.7031
 20
-67.3824
 30
0.0
 10
77.7031
 20
-67.3824
 30
0.0
 10
77.0967
 20
-67.4442
 30
0.0
 10
76.2639
 20
-67.1971
 30
0.0
 10
75.6469
 20
-67.0151
 30
0.0
 10
75.6469
 20
-67.0151
 30
0.0
 10
76.0597
 20
-68.0673
 30
0.0
 10
75.78
 20
-69.1709
 30
0.0
 10
74.7762
 20
-69.8507
 30
0.0
 10
74.7762
 20
-69.8507
 30
0.0
 10
77.2374
 20
-69.4907
 30
0.0
 10
79.6508
 20
-68.8592
 30
0.0
 10
81.9872
 20
-68.0589
 30
0.0
 10
81.9872
 20
-68.0589
 30
0.0
 10
83.8274
 20
-67.4115
 30
0.0
 10
86.0955
 20
-66.3996
 30
0.0
 10
88.1474
 20
-65.9098
 30
0.0
 10
88.1474
 20
-65.9098
 30
0.0
 10
88.2174
 20
-65.8332
 30
0.0
 10
88.2932
 20
-65.7529
 30
0.0
 10
88.3738
 20
-65.6743
 30
0.0
 10
88.3738
 20
-65.6743
 30
0.0
 10
88.3102
 20
-65.6124
 30
0.0
 10
88.2498
 20
-65.5502
 30
0.0
 10
88.1929
 20
-65.4887
 30
0.0
  0
SPLINE
  5
87
330
1F
100
AcDbEntity
  8
layer 1
 62
     7
100
AcDbSpline
210
0.0
220
0.0
230
1.0
 70
    11
 71
     3
 72
    20
 73
    16
 74
     0
 42
0.0000000001
 43
0.0000000001
 12
1.0
 22
0.0
 32
0.0
 13
1.0
 23
0.0
 33
0.0
 40
0.0
 40
0.0
 40
0.0
 40
0.0
 40
0.2
 40
0.2
 40
0.2
 40
0.2
 40
0.4
 40
0.4
 40
0.4
 40
0.4
 40
0.6
 40
0.6
 40
0.6
 40
0.6
 40
1.0
 40
1.0
 40
1.0
 40
1.0
 10
90.2073
 20
-65.6775
 30
0.0
 10
90.2073
 20
-65.6775
 30
0.0
 10
90.2069
 20
-65.6771
 30
0.0
 10
90.2069
 20
-65.6771
 30
0.0
 10
90.2069
 20
-65.6771
 30
0.0
 10
90.2069
 20
-65.6771
 30
0.0
 10
90.2065
 20
-65.6767
 30
0.0
 10
90.2065
 20
-65.6767
 30
0.0
 10
90.2065
 20
-65.6767
 30
0.0
 10
90.2065
 20
-65.6767
 30
0.0
 10
90.2077
 20
-65.6767
 30
0.0
 10
90.2077
 20
-65.6767
 30
0.0
 10
90.2077
 20
-65.6767
 30
0.0
 10
90.2077
 20
-65.6767
 30
0.0
 10
90.2073
 20
-65.6775
 30
0.0
 10
90.2073
 20
-65.6775
 30
0.0
  0
SPLINE
  5
88
330
1F
100
AcDbEntity
  8
layer 1
 62
     7
100
AcDbSpline
210
0.0
220
0.0
230
1.0
 70
    11
 71
     3
 72
    20
 73
    16
 74
     0
 42
0.0000000001
 43
0.0000000001
 12
1.0
 22
0.0
 32
0.0
 13
1.0
 23
0.0
 33
0.0
 40
0.0
 40
0.0
 40
0.0
 40
0.0
 40
0.2
 40
0.2
 40
0.2
 40
0.2
 40
0.4
 40
0.4
 40
0.4
 40
0.4
 40
0.6
 40
0.6
 40
0.6
 40
0.6
 40
1.0
 40
1.0
 40
1.0
 40
1.0
 10
105.1939
 20
-51.6947
 30
0.0
 10
105.0798
 20
-50.4169
 30
0.0
 10
105.8352
 20
-49.2451
 30
0.0
 10
107.336
 20
-48.9129
 30
0.0
 10
107.336
 20
-48.9129
 30
0.0
 10
107.6877
 20
-48.8347
 30
0.0
 10
107.9792
 20
-48.8167
 30
0.0
 10
108.2462
 20
-48.8463
 30
0.0
 10
108.2462
 20
-48.8463
 30
0.0
 10
108.2775
 20
-49.0954
 30
0.0
 10
108.2585
 20
-49.3676
 30
0.0
 10
108.1748
 20
-49.6956
 30
0.0
 10
108.1748
 20
-49.6956
 30
0.0
 10
107.8188
 20
-51.0955
 30
0.0
 10
106.5633
 20
-51.8009
 30
0.0
 10
105.1939
 20
-51.6947
 30
0.0
  0
SPLINE
  5
89
330
1F
100
AcDbEntity
  8
layer 1
 62
     7
100
AcDbSpline
210
0.0
220
0.0
230
1.0
 70
    11
 71
     3
 72
    20
 73
    16
 74
     0
 42
0.0000000001
 43
0.0000000001
 12
1.0
 22
0.0
 32
0.0
 13
1.0
 23
0.0
 33
0.0
 40
0.0
 40
0.0
 40
0.0
 40
0.0
 40
0.2
 40
0.2
 40
0.2
 40
0.2
 40
0.4
 40
0.4
 40
0.4
 40
0.4
 40
0.6
 40
0.6
 40
0.6
 40
0.6
 40
1.0
 40
1.0
 40
1.0
 40
1.0
 10
108.255
 20
-82.4202
 30
0.0
 10
106.7324
 20
-82.5918
 30
0.0
 10
105.1939
 20
-81.6215
 30
0.0
 10
105.1003
 20
-80.0221
 30
0.0
 10
105.1003
 20
-80.0221
 30
0.0
 10
105.0933
 20
-79.8995
 30
0.0
 10
105.0928
 20
-79.7801
 30
0.0
 10
105.0968
 20
-79.6632
 30
0.0
 10
105.0968
 20
-79.6632
 30
0.0
 10
106.5036
 20
-79.5151
 30
0.0
 10
107.8101
 20
-80.22
 30
0.0
 10
108.1748
 20
-81.6534
 30
0.0
 10
108.1748
 20
-81.6534
 30
0.0
 10
108.2494
 20
-81.9452
 30
0.0
 10
108.2728
 20
-82.1935
 30
0.0
 10
108.255
 20
-82.4202
 30
0.0
  0
SPLINE
  5
8A
330
1F
100
AcDbEntity
  8
layer 1
 62
     7
100
AcDbSpline
210
0.0
220
0.0
230
1.0
 70
    11
 71
     3
 72
    52
 73
    48
 74
     0
 42
0.0000000001
 43
0.0000000001
 12
1.0
 22
0.0
 32
0.0
 13
1.0
 23
0.0
 33
0.0
 40
0.0
 40
0.0
 40
0.0
 40
0.0
 40
0.0769230769230769
 40
0.0769230769230769
 40
0.0769230769230769
 40
0.0769230769230769
 40
0.1538461538461539
 40
0.1538461538461539
 40
0.1538461538461539
 40
0.1538461538461539
 40
0.2307692307692308
 40
0.2307692307692308
 40
0.2307692307692308
 40
0.2307692307692308
 40
0.3076923076923077
 40
0.3076923076923077
 40
0.3076923076923077
 40
0.3076923076923077
 40
0.3846153846153846
 40
0.3846153846153846
 40
0.3846153846153846
 40
0.3846153846153846
 40
0.4615384615384616
 40
0.4615384615384616
 40
0.4615384615384616
 40
0.4615384615384616
 40
0.5384615384615384
 40
0.5384615384615384
 40
0.5384615384615384
 40
0.5384615384615384
 40
0.6153846153846154
 40
0.6153846153846154
 40
0.6153846153846154
 40
0.6153846153846154
 40
0.6923076923076923
 40
0.6923076923076923
 40
0.6923076923076923
 40
0.6923076923076923
 40
0.7692307692307693
 40
0.7692307692307693
 40
0.7692307692307693
 40
0.7692307692307693
 40
0.8461538461538461
 40
0.8461538461538461
 40
0.8461538461538461
 40
0.8461538461538461
 40
1.0
 40
1.0
 40
1.0
 40
1.0
 10
89.958
 20
-67.599
 30
0.0
 10
90.0402
 20
-67.534
 30
0.0
 10
90.1259
 20
-67.4629
 30
0.0
 10
90.2108
 20
-67.3879
 30
0.0
 10
90.2108
 20
-67.3879
 30
0.0
 10
90.2768
 20
-67.4466
 30
0.0
 10
90.3436
 20
-67.5028
 30
0.0
 10
90.4088
 20
-67.5555
 30
0.0
 10
90.4088
 20
-67.5555
 30
0.0
 10
90.5095
 20
-67.9272
 30
0.0
 10
90.6158
 20
-68.2505
 30
0.0
 10
90.673
 20
-68.4437
 30
0.0
 10
90.673
 20
-68.4437
 30
0.0
 10
91.8389
 20
-72.3869
 30
0.0
 10
93.9565
 20
-75.9422
 30
0.0
 10
94.7054
 20
-80.034
 30
0.0
 10
94.7054
 20
-80.034
 30
0.0
 10
93.9979
 20
-79.2065
 30
0.0
 10
92.8494
 20
-78.9036
 30
0.0
 10
91.7891
 20
-79.2605
 30
0.0
 10
91.7891
 20
-79.2605
 30
0.0
 10
91.9526
 20
-78.6797
 30
0.0
 10
92.1688
 20
-77.9129
 30
0.0
 10
92.1032
 20
-77.3485
 30
0.0
 10
92.1032
 20
-77.3485
 30
0.0
 10
91.9938
 20
-76.4065
 30
0.0
 10
91.6362
 20
-73.4024
 30
0.0
 10
90.2416
 20
-73.4024
 30
0.0
 10
90.2416
 20
-73.4024
 30
0.0
 10
88.8475
 20
-73.402
 30
0.0
 10
88.4899
 20
-76.4029
 30
0.0
 10
88.3797
 20
-77.3445
 30
0.0
 10
88.3797
 20
-77.3445
 30
0.0
 10
88.3137
 20
-77.9097
 30
0.0
 10
88.5785
 20
-78.6868
 30
0.0
 10
88.7732
 20
-79.2628
 30
0.0
 10
88.7732
 20
-79.2628
 30
0.0
 10
87.6453
 20
-78.8777
 30
0.0
 10
86.4624
 20
-79.1383
 30
0.0
 10
85.734
 20
-80.0751
 30
0.0
 10
85.734
 20
-80.0751
 30
0.0
 10
86.1199
 20
-77.7788
 30
0.0
 10
86.7971
 20
-75.5271
 30
0.0
 10
87.6544
 20
-73.3473
 30
0.0
 10
87.6544
 20
-73.3473
 30
0.0
 10
88.3485
 20
-71.6297
 30
0.0
 10
89.4334
 20
-69.5138
 30
0.0
 10
89.958
 20
-67.599
 30
0.0
  0
SPLINE
  5
8B
330
1F
100
AcDbEntity
  8
layer 1
 62
     7
100
AcDbSpline
210
0.0
220
0.0
230
1.0
 70
    11
 71
     3
 72
    20
 73
    16
 74
     0
 42
0.0000000001
 43
0.0000000001
 12
1.0
 22
0.0
 32
0.0
 13
1.0
 23
0.0
 33
0.0
 40
0.0
 40
0.0
 40
0.0
 40
0.0
 40
0.2
 40
0.2
 40
0.2
 40
0.2
 40
0.4
 40
0.4
 40
0.4
 40
0.4
 40
0.6
 40
0.6
 40
0.6
 40
0.6
 40
1.0
 40
1.0
 40
1.0
 40
1.0
 10
75.3197
 20
-79.5682
 30
0.0
 10
75.3284
 20
-79.7146
 30
0.0
 10
75.3296
 20
-79.8656
 30
0.0
 10
75.3209
 20
-80.0221
 30
0.0
 10
75.3209
 20
-80.0221
 30
0.0
 10
75.2292
 20
-81.5908
 30
0.0
 10
73.747
 20
-82.5547
 30
0.0
 10
72.2532
 20
-82.4285
 30
0.0
 10
72.2532
 20
-82.4285
 30
0.0
 10
72.1186
 20
-81.0355
 30
0.0
 10
73.1508
 20
-79.6524
 30
0.0
 10
74.8331
 20
-79.567
 30
0.0
 10
74.8331
 20
-79.567
 30
0.0
 10
75.0002
 20
-79.5586
 30
0.0
 10
75.1621
 20
-79.5598
 30
0.0
 10
75.3197
 20
-79.5682
 30
0.0
  0
SPLINE
  5
8C
330
1F
100
AcDbEntity
  8
layer 1
 62
     7
100
AcDbSpline
210
0.0
220
0.0
230
1.0
 70
    11
 71
     3
 72
    20
 73
    16
 74
     0
 42
0.0000000001
 43
0.0000000001
 12
1.0
 22
0.0
 32
0.0
 13
1.0
 23
0.0
 33
0.0
 40
0.0
 40
0.0
 40
0.0
 40
0.0
 40
0.2
 40
0.2
 40
0.2
 40
0.2
 40
0.4
 40
0.4
 40
0.4
 40
0.4
 40
0.6
 40
0.6
 40
0.6
 40
0.6
 40
1.0
 40
1.0
 40
1.0
 40
1.0
 10
72.2623
 20
-48.8387
 30
0.0
 10
72.5053
 20
-48.8211
 30
0.0
 10
72.7716
 20
-48.8431
 30
0.0
 10
73.0848
 20
-48.9129
 30
0.0
 10
73.0848
 20
-48.9129
 30
0.0
 10
74.6208
 20
-49.2527
 30
0.0
 10
75.3766
 20
-50.4729
 30
0.0
 10
75.2178
 20
-51.7852
 30
0.0
 10
75.2178
 20
-51.7852
 30
0.0
 10
75.0921
 20
-51.7889
 30
0.0
 10
74.9646
 20
-51.7884
 30
0.0
 10
74.8331
 20
-51.7821
 30
0.0
 10
74.8331
 20
-51.7821
 30
0.0
 10
73.1181
 20
-51.6947
 30
0.0
 10
72.0783
 20
-50.2589
 30
0.0
 10
72.2623
 20
-48.8387
 30
0.0
  0
SPLINE
  5
8D
330
1F
100
AcDbEntity
  8
layer 1
 62
     7
100
AcDbSpline
210
0.0
220
0.0
230
1.0
 70
    11
 71
     3
 72
    52
 73
    48
 74
     0
 42
0.0000000001
 43
0.0000000001
 12
1.0
 22
0.0
 32
0.0
 13
1.0
 23
0.0
 33
0.0
 40
0.0
 40
0.0
 40
0.0
 40
0.0
 40
0.0769230769230769
 40
0.0769230769230769
 40
0.0769230769230769
 40
0.0769230769230769
 40
0.1538461538461539
 40
0.1538461538461539
 40
0.1538461538461539
 40
0.1538461538461539
 40
0.2307692307692308
 40
0.2307692307692308
 40
0.2307692307692308
 40
0.2307692307692308
 40
0.3076923076923077
 40
0.3076923076923077
 40
0.3076923076923077
 40
0.3076923076923077
 40
0.3846153846153846
 40
0.3846153846153846
 40
0.3846153846153846
 40
0.3846153846153846
 40
0.4615384615384616
 40
0.4615384615384616
 40
0.4615384615384616
 40
0.4615384615384616
 40
0.5384615384615384
 40
0.5384615384615384
 40
0.5384615384615384
 40
0.5384615384615384
 40
0.6153846153846154
 40
0.6153846153846154
 40
0.6153846153846154
 40
0.6153846153846154
 40
0.6923076923076923
 40
0.6923076923076923
 40
0.6923076923076923
 40
0.6923076923076923
 40
0.7692307692307693
 40
0.7692307692307693
 40
0.7692307692307693
 40
0.7692307692307693
 40
0.8461538461538461
 40
0.8461538461538461
 40
0.8461538461538461
 40
0.8461538461538461
 40
1.0
 40
1.0
 40
1.0
 40
1.0
 10
90.4139
 20
-63.7744
 30
0.0
 10
90.3428
 20
-63.8386
 30
0.0
 10
90.2744
 20
-63.9029
 30
0.0
 10
90.2108
 20
-63.9663
 30
0.0
 10
90.2108
 20
-63.9663
 30
0.0
 10
90.1298
 20
-63.8865
 30
0.0
 10
90.0429
 20
-63.8051
 30
0.0
 10
89.9513
 20
-63.7244
 30
0.0
 10
89.9513
 20
-63.7244
 30
0.0
 10
89.4235
 20
-61.8161
 30
0.0
 10
88.3453
 20
-59.7113
 30
0.0
 10
87.6544
 20
-58.0017
 30
0.0
 10
87.6544
 20
-58.0017
 30
0.0
 10
86.7971
 20
-55.8216
 30
0.0
 10
86.1199
 20
-53.5699
 30
0.0
 10
85.734
 20
-51.2735
 30
0.0
 10
85.734
 20
-51.2735
 30
0.0
 10
86.4624
 20
-52.2104
 30
0.0
 10
87.6453
 20
-52.4711
 30
0.0
 10
88.7732
 20
-52.0858
 30
0.0
 10
88.7732
 20
-52.0858
 30
0.0
 10
88.5785
 20
-52.6618
 30
0.0
 10
88.3137
 20
-53.4389
 30
0.0
 10
88.3797
 20
-54.0042
 30
0.0
 10
88.3797
 20
-54.0042
 30
0.0
 10
88.4899
 20
-54.9457
 30
0.0
 10
88.8475
 20
-57.9467
 30
0.0
 10
90.2416
 20
-57.9467
 30
0.0
 10
90.2416
 20
-57.9467
 30
0.0
 10
91.6362
 20
-57.9467
 30
0.0
 10
91.9938
 20
-54.9422
 30
0.0
 10
92.1032
 20
-54.0005
 30
0.0
 10
92.1032
 20
-54.0005
 30
0.0
 10
92.1688
 20
-53.4358
 30
0.0
 10
91.9526
 20
-52.669
 30
0.0
 10
91.7891
 20
-52.0883
 30
0.0
 10
91.7891
 20
-52.0883
 30
0.0
 10
92.8494
 20
-52.4454
 30
0.0
 10
93.9979
 20
-52.1425
 30
0.0
 10
94.7054
 20
-51.3151
 30
0.0
 10
94.7054
 20
-51.3151
 30
0.0
 10
93.9565
 20
-55.4064
 30
0.0
 10
91.8389
 20
-58.9613
 30
0.0
 10
90.673
 20
-62.905
 30
0.0
 10
90.673
 20
-62.905
 30
0.0
 10
90.6166
 20
-63.095
 30
0.0
 10
90.5131
 20
-63.4107
 30
0.0
 10
90.4139
 20
-63.7744
 30
0.0
  0
SPLINE
  5
8E
330
1F
100
AcDbEntity
  8
layer 1
 62
     7
100
AcDbSpline
210
0.0
220
0.0
230
1.0
 70
    11
 71
     3
 72
    16
 73
    12
 74
     0
 42
0.0000000001
 43
0.0000000001
 12
1.0
 22
0.0
 32
0.0
 13
1.0
 23
0.0
 33
0.0
 40
0.0
 40
0.0
 40
0.0
 40
0.0
 40
0.25
 40
0.25
 40
0.25
 40
0.25
 40
0.5
 40
0.5
 40
0.5
 40
0.5
 40
1.0
 40
1.0
 40
1.0
 40
1.0
 10
70.3471
 20
9.5684
 30
0.0
 10
68.5156
 20
10.3307
 30
0.0
 10
66.8713
 20
11.3889
 30
0.0
 10
65.4139
 20
12.675
 30
0.0
 10
65.4139
 20
12.675
 30
0.0
 10
63.3537
 20
14.4928
 30
0.0
 10
60.6728
 20
17.7607
 30
0.0
 10
61.8564
 20
20.5668
 30
0.0
 10
61.8564
 20
20.5668
 30
0.0
 10
65.0355
 20
17.1416
 30
0.0
 10
67.7945
 20
13.4175
 30
0.0
 10
70.3471
 20
9.5684
 30
0.0
  0
SPLINE
  5
8F
330
1F
100
AcDbEntity
  8
layer 1
 62
     7
100
AcDbSpline
210
0.0
220
0.0
230
1.0
 70
    11
 71
     3
 72
    16
 73
    12
 74
     0
 42
0.0000000001
 43
0.0000000001
 12
1.0
 22
0.0
 32
0.0
 13
1.0
 23
0.0
 33
0.0
 40
0.0
 40
0.0
 40
0.0
 40
0.0
 40
0.25
 40
0.25
 40
0.25
 40
0.25
 40
0.5
 40
0.5
 40
0.5
 40
0.5
 40
1.0
 40
1.0
 40
1.0
 40
1.0
 10
70.4443
 20
6.3276
 30
0.0
 10
67.8471
 20
2.4199
 30
0.0
 10
65.0516
 20
-1.3661
 30
0.0
 10
61.8145
 20
-4.8412
 30
0.0
 10
61.8145
 20
-4.8412
 30
0.0
 10
61.0026
 20
-3.0618
 30
0.0
 10
61.7904
 20
-1.2073
 30
0.0
 10
62.8267
 20
0.3375
 30
0.0
 10
62.8267
 20
0.3375
 30
0.0
 10
64.5301
 20
2.8769
 30
0.0
 10
67.5042
 20
5.1023
 30
0.0
 10
70.4443
 20
6.3276
 30
0.0
  0
SPLINE
  5
90
330
1F
100
AcDbEntity
  8
layer 1
 62
     7
100
AcDbSpline
210
0.0
220
0.0
230
1.0
 70
    11
 71
     3
 72
    16
 73
    12
 74
     0
 42
0.0000000001
 43
0.0000000001
 12
1.0
 22
0.0
 32
0.0
 13
1.0
 23
0.0
 33
0.0
 40
0.0
 40
0.0
 40
0.0
 40
0.0
 40
0.25
 40
0.25
 40
0.25
 40
0.25
 40
0.5
 40
0.5
 40
0.5
 40
0.5
 40
1.0
 40
1.0
 40
1.0
 40
1.0
 10
62.8674
 20
-6.2486
 30
0.0
 10
64.1865
 20
-4.7941
 30
0.0
 10
65.4412
 20
-3.2893
 30
0.0
 10
66.637
 20
-1.7441
 30
0.0
 10
66.637
 20
-1.7441
 30
0.0
 10
67.0842
 20
-2.4323
 30
0.0
 10
67.4659
 20
-2.7296
 30
0.0
 10
67.6409
 20
-3.6242
 30
0.0
 10
67.6409
 20
-3.6242
 30
0.0
 10
68.1817
 20
-6.3867
 30
0.0
 10
65.1508
 20
-8.2524
 30
0.0
 10
62.8674
 20
-6.2486
 30
0.0
  0
SPLINE
  5
91
330
1F
100
AcDbEntity
  8
layer 1
 62
     7
100
AcDbSpline
210
0.0
220
0.0
230
1.0
 70
    11
 71
     3
 72
    16
 73
    12
 74
     0
 42
0.0000000001
 43
0.0000000001
 12
1.0
 22
0.0
 32
0.0
 13
1.0
 23
0.0
 33
0.0
 40
0.0
 40
0.0
 40
0.0
 40
0.0
 40
0.25
 40
0.25
 40
0.25
 40
0.25
 40
0.5
 40
0.5
 40
0.5
 40
0.5
 40
1.0
 40
1.0
 40
1.0
 40
1.0
 10
66.6054
 20
17.5467
 30
0.0
 10
65.425
 20
19.0719
 30
0.0
 10
64.1881
 20
20.5588
 30
0.0
 10
62.8886
 20
21.9966
 30
0.0
 10
62.8886
 20
21.9966
 30
0.0
 10
64.5645
 20
23.4735
 30
0.0
 10
67.1222
 20
23.0013
 30
0.0
 10
67.5793
 20
20.9631
 30
0.0
 10
67.5793
 20
20.9631
 30
0.0
 10
68.0115
 20
19.036
 30
0.0
 10
67.1917
 20
18.4848
 30
0.0
 10
66.6054
 20
17.5467
 30
0.0
  0
SPLINE
  5
92
330
1F
100
AcDbEntity
  8
layer 1
 62
     7
100
AcDbSpline
210
0.0
220
0.0
230
1.0
 70
    11
 71
     3
 72
    16
 73
    12
 74
     0
 42
0.0000000001
 43
0.0000000001
 12
1.0
 22
0.0
 32
0.0
 13
1.0
 23
0.0
 33
0.0
 40
0.0
 40
0.0
 40
0.0
 40
0.0
 40
0.25
 40
0.25
 40
0.25
 40
0.25
 40
0.5
 40
0.5
 40
0.5
 40
0.5
 40
1.0
 40
1.0
 40
1.0
 40
1.0
 10
110.1058
 20
9.5684
 30
0.0
 10
111.9373
 20
10.3307
 30
0.0
 10
113.5815
 20
11.3889
 30
0.0
 10
115.0393
 20
12.675
 30
0.0
 10
115.0393
 20
12.675
 30
0.0
 10
117.0992
 20
14.4928
 30
0.0
 10
119.7801
 20
17.7607
 30
0.0
 10
118.5961
 20
20.5668
 30
0.0
 10
118.5961
 20
20.5668
 30
0.0
 10
115.4175
 20
17.1416
 30
0.0
 10
112.6583
 20
13.4175
 30
0.0
 10
110.1058
 20
9.5684
 30
0.0
  0
SPLINE
  5
93
330
1F
100
AcDbEntity
  8
layer 1
 62
     7
100
AcDbSpline
210
0.0
220
0.0
230
1.0
 70
    11
 71
     3
 72
    16
 73
    12
 74
     0
 42
0.0000000001
 43
0.0000000001
 12
1.0
 22
0.0
 32
0.0
 13
1.0
 23
0.0
 33
0.0
 40
0.0
 40
0.0
 40
0.0
 40
0.0
 40
0.25
 40
0.25
 40
0.25
 40
0.25
 40
0.5
 40
0.5
 40
0.5
 40
0.5
 40
1.0
 40
1.0
 40
1.0
 40
1.0
 10
110.0086
 20
6.3276
 30
0.0
 10
112.6053
 20
2.4199
 30
0.0
 10
115.4012
 20
-1.3661
 30
0.0
 10
118.6384
 20
-4.8412
 30
0.0
 10
118.6384
 20
-4.8412
 30
0.0
 10
119.4502
 20
-3.0618
 30
0.0
 10
118.6625
 20
-1.2073
 30
0.0
 10
117.6263
 20
0.3375
 30
0.0
 10
117.6263
 20
0.3375
 30
0.0
 10
115.9232
 20
2.8769
 30
0.0
 10
112.9491
 20
5.1023
 30
0.0
 10
110.0086
 20
6.3276
 30
0.0
  0
SPLINE
  5
94
330
1F
100
AcDbEntity
  8
layer 1
 62
     7
100
AcDbSpline
210
0.0
220
0.0
230
1.0
 70
    11
 71
     3
 72
    16
 73
    12
 74
     0
 42
0.0000000001
 43
0.0000000001
 12
1.0
 22
0.0
 32
0.0
 13
1.0
 23
0.0
 33
0.0
 40
0.0
 40
0.0
 40
0.0
 40
0.0
 40
0.25
 40
0.25
 40
0.25
 40
0.25
 40
0.5
 40
0.5
 40
0.5
 40
0.5
 40
1.0
 40
1.0
 40
1.0
 40
1.0
 10
117.5859
 20
-6.2486
 30
0.0
 10
116.2664
 20
-4.7941
 30
0.0
 10
115.0117
 20
-3.2893
 30
0.0
 10
113.8163
 20
-1.7441
 30
0.0
 10
113.8163
 20
-1.7441
 30
0.0
 10
113.3683
 20
-2.4323
 30
0.0
 10
112.987
 20
-2.7296
 30
0.0
 10
112.8116
 20
-3.6242
 30
0.0
 10
112.8116
 20
-3.6242
 30
0.0
 10
112.2711
 20
-6.3867
 30
0.0
 10
115.3021
 20
-8.2524
 30
0.0
 10
117.5859
 20
-6.2486
 30
0.0
  0
SPLINE
  5
95
330
1F
100
AcDbEntity
  8
layer 1
 62
     7
100
AcDbSpline
210
0.0
220
0.0
230
1.0
 70
    11
 71
     3
 72
    16
 73
    12
 74
     0
 42
0.0000000001
 43
0.0000000001
 12
1.0
 22
0.0
 32
0.0
 13
1.0
 23
0.0
 33
0.0
 40
0.0
 40
0.0
 40
0.0
 40
0.0
 40
0.25
 40
0.25
 40
0.25
 40
0.25
 40
0.5
 40
0.5
 40
0.5
 40
0.5
 40
1.0
 40
1.0
 40
1.0
 40
1.0
 10
113.8479
 20
17.5467
 30
0.0
 10
115.0275
 20
19.0719
 30
0.0
 10
116.2644
 20
20.5588
 30
0.0
 10
117.5642
 20
21.9966
 30
0.0
 10
117.5642
 20
21.9966
 30
0.0
 10
115.8883
 20
23.4735
 30
0.0
 10
113.3311
 20
23.0013
 30
0.0
 10
112.8736
 20
20.9631
 30
0.0
 10
112.8736
 20
20.9631
 30
0.0
 10
112.4415
 20
19.036
 30
0.0
 10
113.2608
 20
18.4848
 30
0.0
 10
113.8479
 20
17.5467
 30
0.0
  0
SPLINE
  5
96
330
1F
100
AcDbEntity
  8
layer 1
 62
     7
100
AcDbSpline
210
0.0
220
0.0
230
1.0
 70
    11
 71
     3
 72
    76
 73
    72
 74
     0
 42
0.0000000001
 43
0.0000000001
 12
1.0
 22
0.0
 32
0.0
 13
1.0
 23
0.0
 33
0.0
 40
0.0
 40
0.0
 40
0.0
 40
0.0
 40
0.0526315789473684
 40
0.0526315789473684
 40
0.0526315789473684
 40
0.0526315789473684
 40
0.1052631578947368
 40
0.1052631578947368
 40
0.1052631578947368
 40
0.1052631578947368
 40
0.1578947368421053
 40
0.1578947368421053
 40
0.1578947368421053
 40
0.1578947368421053
 40
0.2105263157894737
 40
0.2105263157894737
 40
0.2105263157894737
 40
0.2105263157894737
 40
0.2631578947368421
 40
0.2631578947368421
 40
0.2631578947368421
 40
0.2631578947368421
 40
0.3157894736842105
 40
0.3157894736842105
 40
0.3157894736842105
 40
0.3157894736842105
 40
0.3684210526315789
 40
0.3684210526315789
 40
0.3684210526315789
 40
0.3684210526315789
 40
0.4210526315789473
 40
0.4210526315789473
 40
0.4210526315789473
 40
0.4210526315789473
 40
0.4736842105263158
 40
0.4736842105263158
 40
0.4736842105263158
 40
0.4736842105263158
 40
0.5263157894736842
 40
0.5263157894736842
 40
0.5263157894736842
 40
0.5263157894736842
 40
0.5789473684210527
 40
0.5789473684210527
 40
0.5789473684210527
 40
0.5789473684210527
 40
0.631578947368421
 40
0.631578947368421
 40
0.631578947368421
 40
0.631578947368421
 40
0.6842105263157895
 40
0.6842105263157895
 40
0.6842105263157895
 40
0.6842105263157895
 40
0.7368421052631579
 40
0.7368421052631579
 40
0.7368421052631579
 40
0.7368421052631579
 40
0.7894736842105263
 40
0.7894736842105263
 40
0.7894736842105263
 40
0.7894736842105263
 40
0.8421052631578947
 40
0.8421052631578947
 40
0.8421052631578947
 40
0.8421052631578947
 40
0.8947368421052632
 40
0.8947368421052632
 40
0.8947368421052632
 40
0.8947368421052632
 40
1.0
 40
1.0
 40
1.0
 40
1.0
 10
109.2983
 20
-5.3513
 30
0.0
 10
109.1813
 20
-4.5342
 30
0.0
 10
109.3129
 20
-3.6429
 30
0.0
 10
109.7676
 20
-2.7241
 30
0.0
 10
109.7676
 20
-2.7241
 30
0.0
 10
110.2954
 20
-1.6587
 30
0.0
 10
111.4703
 20
-0.3862
 30
0.0
 10
112.8527
 20
-0.4728
 30
0.0
 10
112.8527
 20
-0.4728
 30
0.0
 10
111.1001
 20
1.8922
 30
0.0
 10
109.484
 20
4.3658
 30
0.0
 10
108.1633
 20
6.9651
 30
0.0
 10
108.1633
 20
6.9651
 30
0.0
 10
108.1633
 20
6.9651
 30
0.0
 10
106.2832
 20
7.4049
 30
0.0
 10
106.2832
 20
7.4049
 30
0.0
 10
106.2832
 20
7.4049
 30
0.0
 10
105.5495
 20
7.565
 30
0.0
 10
105.5625
 20
8.299
 30
0.0
 10
106.2922
 20
8.4547
 30
0.0
 10
106.2922
 20
8.4547
 30
0.0
 10
106.9449
 20
8.5937
 30
0.0
 10
107.5948
 20
8.7286
 30
0.0
 10
108.2352
 20
8.9133
 30
0.0
 10
108.2352
 20
8.9133
 30
0.0
 10
109.5732
 20
11.5008
 30
0.0
 10
111.1784
 20
13.9719
 30
0.0
 10
112.9289
 20
16.3333
 30
0.0
 10
112.9289
 20
16.3333
 30
0.0
 10
110.9022
 20
16.1369
 30
0.0
 10
109.0988
 20
18.7326
 30
0.0
 10
109.3086
 20
21.1088
 30
0.0
 10
109.3086
 20
21.1088
 30
0.0
 10
108.5232
 20
20.3988
 30
0.0
 10
107.7322
 20
19.7145
 30
0.0
 10
106.9453
 20
19.0595
 30
0.0
 10
106.9453
 20
19.0595
 30
0.0
 10
109.4176
 20
16.6183
 30
0.0
 10
109.5598
 20
12.7289
 30
0.0
 10
106.4183
 20
10.7116
 30
0.0
 10
106.4183
 20
10.7116
 30
0.0
 10
103.652
 20
8.9361
 30
0.0
 10
99.0077
 20
11.0173
 30
0.0
 10
99.2776
 20
13.4406
 30
0.0
 10
99.2776
 20
13.4406
 30
0.0
 10
96.746
 20
11.8076
 30
0.0
 10
94.0978
 20
10.3097
 30
0.0
 10
91.3249
 20
9.0611
 30
0.0
 10
91.3249
 20
9.0611
 30
0.0
 10
91.1945
 20
8.6687
 30
0.0
 10
91.0874
 20
8.2723
 30
0.0
 10
90.9871
 20
7.8744
 30
0.0
 10
90.9871
 20
7.8744
 30
0.0
 10
91.0874
 20
7.4756
 30
0.0
 10
91.1945
 20
7.0792
 30
0.0
 10
91.3249
 20
6.6869
 30
0.0
 10
91.3249
 20
6.6869
 30
0.0
 10
94.0978
 20
5.4383
 30
0.0
 10
96.746
 20
3.9403
 30
0.0
 10
99.2776
 20
2.3073
 30
0.0
 10
99.2776
 20
2.3073
 30
0.0
 10
99.0077
 20
4.7306
 30
0.0
 10
103.652
 20
6.8118
 30
0.0
 10
106.4183
 20
5.0363
 30
0.0
 10
106.4183
 20
5.0363
 30
0.0
 10
109.5598
 20
3.019
 30
0.0
 10
109.4176
 20
-0.8704
 30
0.0
 10
106.9453
 20
-3.3116
 30
0.0
 10
106.9453
 20
-3.3116
 30
0.0
 10
107.7287
 20
-3.9638
 30
0.0
 10
108.5157
 20
-4.6444
 30
0.0
 10
109.2983
 20
-5.3513
 30
0.0
  0
SPLINE
  5
97
330
1F
100
AcDbEntity
  8
layer 1
 62
     7
100
AcDbSpline
210
0.0
220
0.0
230
1.0
 70
    11
 71
     3
 72
    76
 73
    72
 74
     0
 42
0.0000000001
 43
0.0000000001
 12
1.0
 22
0.0
 32
0.0
 13
1.0
 23
0.0
 33
0.0
 40
0.0
 40
0.0
 40
0.0
 40
0.0
 40
0.0526315789473684
 40
0.0526315789473684
 40
0.0526315789473684
 40
0.0526315789473684
 40
0.1052631578947368
 40
0.1052631578947368
 40
0.1052631578947368
 40
0.1052631578947368
 40
0.1578947368421053
 40
0.1578947368421053
 40
0.1578947368421053
 40
0.1578947368421053
 40
0.2105263157894737
 40
0.2105263157894737
 40
0.2105263157894737
 40
0.2105263157894737
 40
0.2631578947368421
 40
0.2631578947368421
 40
0.2631578947368421
 40
0.2631578947368421
 40
0.3157894736842105
 40
0.3157894736842105
 40
0.3157894736842105
 40
0.3157894736842105
 40
0.3684210526315789
 40
0.3684210526315789
 40
0.3684210526315789
 40
0.3684210526315789
 40
0.4210526315789473
 40
0.4210526315789473
 40
0.4210526315789473
 40
0.4210526315789473
 40
0.4736842105263158
 40
0.4736842105263158
 40
0.4736842105263158
 40
0.4736842105263158
 40
0.5263157894736842
 40
0.5263157894736842
 40
0.5263157894736842
 40
0.5263157894736842
 40
0.5789473684210527
 40
0.5789473684210527
 40
0.5789473684210527
 40
0.5789473684210527
 40
0.631578947368421
 40
0.631578947368421
 40
0.631578947368421
 40
0.631578947368421
 40
0.6842105263157895
 40
0.6842105263157895
 40
0.6842105263157895
 40
0.6842105263157895
 40
0.7368421052631579
 40
0.7368421052631579
 40
0.7368421052631579
 40
0.7368421052631579
 40
0.7894736842105263
 40
0.7894736842105263
 40
0.7894736842105263
 40
0.7894736842105263
 40
0.8421052631578947
 40
0.8421052631578947
 40
0.8421052631578947
 40
0.8421052631578947
 40
0.8947368421052632
 40
0.8947368421052632
 40
0.8947368421052632
 40
0.8947368421052632
 40
1.0
 40
1.0
 40
1.0
 40
1.0
 10
71.1534
 20
-5.3645
 30
0.0
 10
71.2731
 20
-4.5442
 30
0.0
 10
71.1424
 20
-3.6477
 30
0.0
 10
70.6853
 20
-2.7241
 30
0.0
 10
70.6853
 20
-2.7241
 30
0.0
 10
70.1574
 20
-1.6587
 30
0.0
 10
68.9825
 20
-0.3862
 30
0.0
 10
67.6002
 20
-0.4728
 30
0.0
 10
67.6002
 20
-0.4728
 30
0.0
 10
69.3527
 20
1.8922
 30
0.0
 10
70.9689
 20
4.3658
 30
0.0
 10
72.2892
 20
6.9651
 30
0.0
 10
72.2892
 20
6.9651
 30
0.0
 10
72.2892
 20
6.9651
 30
0.0
 10
74.1701
 20
7.4049
 30
0.0
 10
74.1701
 20
7.4049
 30
0.0
 10
74.1701
 20
7.4049
 30
0.0
 10
74.9033
 20
7.565
 30
0.0
 10
74.8903
 20
8.299
 30
0.0
 10
74.1606
 20
8.4547
 30
0.0
 10
74.1606
 20
8.4547
 30
0.0
 10
73.5084
 20
8.5937
 30
0.0
 10
72.8581
 20
8.7286
 30
0.0
 10
72.2177
 20
8.9133
 30
0.0
 10
72.2177
 20
8.9133
 30
0.0
 10
70.8796
 20
11.5008
 30
0.0
 10
69.2741
 20
13.9719
 30
0.0
 10
67.5239
 20
16.3333
 30
0.0
 10
67.5239
 20
16.3333
 30
0.0
 10
69.5542
 20
16.1369
 30
0.0
 10
71.3604
 20
18.7414
 30
0.0
 10
71.1435
 20
21.1208
 30
0.0
 10
71.1435
 20
21.1208
 30
0.0
 10
71.9348
 20
20.3999
 30
0.0
 10
72.7186
 20
19.7178
 30
0.0
 10
73.4811
 20
19.0799
 30
0.0
 10
73.4811
 20
19.0799
 30
0.0
 10
69.0726
 20
14.6712
 30
0.0
 10
73.5419
 20
8.2029
 30
0.0
 10
78.852
 20
10.4912
 30
0.0
 10
78.852
 20
10.4912
 30
0.0
 10
79.9941
 20
10.9838
 30
0.0
 10
81.3575
 20
12.0799
 30
0.0
 10
81.265
 20
13.3695
 30
0.0
 10
81.265
 20
13.3695
 30
0.0
 10
83.7994
 20
11.7342
 30
0.0
 10
86.4502
 20
10.2266
 30
0.0
 10
89.2366
 20
8.9944
 30
0.0
 10
89.2366
 20
8.9944
 30
0.0
 10
89.2366
 20
8.9944
 30
0.0
 10
89.5377
 20
7.8744
 30
0.0
 10
89.5377
 20
7.8744
 30
0.0
 10
89.5377
 20
7.8744
 30
0.0
 10
89.5377
 20
7.8744
 30
0.0
 10
89.2366
 20
6.7536
 30
0.0
 10
89.2366
 20
6.7536
 30
0.0
 10
89.2366
 20
6.7536
 30
0.0
 10
86.4502
 20
5.5213
 30
0.0
 10
83.7994
 20
4.0137
 30
0.0
 10
81.265
 20
2.3784
 30
0.0
 10
81.265
 20
2.3784
 30
0.0
 10
81.3575
 20
3.6681
 30
0.0
 10
79.9941
 20
4.7641
 30
0.0
 10
78.852
 20
5.2571
 30
0.0
 10
78.852
 20
5.2571
 30
0.0
 10
73.5419
 20
7.5451
 30
0.0
 10
69.0726
 20
1.0767
 30
0.0
 10
73.4811
 20
-3.332
 30
0.0
 10
73.4811
 20
-3.332
 30
0.0
 10
72.7218
 20
-3.9671
 30
0.0
 10
71.9412
 20
-4.6464
 30
0.0
 10
71.1534
 20
-5.3645
 30
0.0
  0
SPLINE
  5
98
330
1F
100
AcDbEntity
  8
layer 1
 62
     7
100
AcDbSpline
210
0.0
220
0.0
230
1.0
 70
    11
 71
     3
 72
    24
 73
    20
 74
     0
 42
0.0000000001
 43
0.0000000001
 12
1.0
 22
0.0
 32
0.0
 13
1.0
 23
0.0
 33
0.0
 40
0.0
 40
0.0
 40
0.0
 40
0.0
 40
0.1666666666666667
 40
0.1666666666666667
 40
0.1666666666666667
 40
0.1666666666666667
 40
0.3333333333333333
 40
0.3333333333333333
 40
0.3333333333333333
 40
0.3333333333333333
 40
0.5
 40
0.5
 40
0.5
 40
0.5
 40
0.6666666666666666
 40
0.6666666666666666
 40
0.6666666666666666
 40
0.6666666666666666
 40
1.0
 40
1.0
 40
1.0
 40
1.0
 10
59.0008
 20
-90.7565
 30
0.0
 10
61.6493
 20
-88.6411
 30
0.0
 10
63.183
 20
-85.5384
 30
0.0
 10
62.4087
 20
-81.7915
 30
0.0
 10
62.4087
 20
-81.7915
 30
0.0
 10
61.9362
 20
-79.5032
 30
0.0
 10
60.6218
 20
-77.6881
 30
0.0
 10
59.0008
 20
-76.4935
 30
0.0
 10
59.0008
 20
-76.4935
 30
0.0
 10
59.0008
 20
-76.4935
 30
0.0
 10
59.0008
 20
-80.2125
 30
0.0
 10
59.0008
 20
-80.2125
 30
0.0
 10
59.0008
 20
-80.2125
 30
0.0
 10
60.269
 20
-82.1527
 30
0.0
 10
60.3034
 20
-84.9177
 30
0.0
 10
59.0008
 20
-87.062
 30
0.0
 10
59.0008
 20
-87.062
 30
0.0
 10
59.0008
 20
-87.062
 30
0.0
 10
59.0008
 20
-90.7565
 30
0.0
 10
59.0008
 20
-90.7565
 30
0.0
  0
SPLINE
  5
99
330
1F
100
AcDbEntity
  8
layer 1
 62
     7
100
AcDbSpline
210
0.0
220
0.0
230
1.0
 70
    11
 71
     3
 72
    76
 73
    72
 74
     0
 42
0.0000000001
 43
0.0000000001
 12
1.0
 22
0.0
 32
0.0
 13
1.0
 23
0.0
 33
0.0
 40
0.0
 40
0.0
 40
0.0
 40
0.0
 40
0.0526315789473684
 40
0.0526315789473684
 40
0.0526315789473684
 40
0.0526315789473684
 40
0.1052631578947368
 40
0.1052631578947368
 40
0.1052631578947368
 40
0.1052631578947368
 40
0.1578947368421053
 40
0.1578947368421053
 40
0.1578947368421053
 40
0.1578947368421053
 40
0.2105263157894737
 40
0.2105263157894737
 40
0.2105263157894737
 40
0.2105263157894737
 40
0.2631578947368421
 40
0.2631578947368421
 40
0.2631578947368421
 40
0.2631578947368421
 40
0.3157894736842105
 40
0.3157894736842105
 40
0.3157894736842105
 40
0.3157894736842105
 40
0.3684210526315789
 40
0.3684210526315789
 40
0.3684210526315789
 40
0.3684210526315789
 40
0.4210526315789473
 40
0.4210526315789473
 40
0.4210526315789473
 40
0.4210526315789473
 40
0.4736842105263158
 40
0.4736842105263158
 40
0.4736842105263158
 40
0.4736842105263158
 40
0.5263157894736842
 40
0.5263157894736842
 40
0.5263157894736842
 40
0.5263157894736842
 40
0.5789473684210527
 40
0.5789473684210527
 40
0.5789473684210527
 40
0.5789473684210527
 40
0.631578947368421
 40
0.631578947368421
 40
0.631578947368421
 40
0.631578947368421
 40
0.6842105263157895
 40
0.6842105263157895
 40
0.6842105263157895
 40
0.6842105263157895
 40
0.7368421052631579
 40
0.7368421052631579
 40
0.7368421052631579
 40
0.7368421052631579
 40
0.7894736842105263
 40
0.7894736842105263
 40
0.7894736842105263
 40
0.7894736842105263
 40
0.8421052631578947
 40
0.8421052631578947
 40
0.8421052631578947
 40
0.8421052631578947
 40
0.8947368421052632
 40
0.8947368421052632
 40
0.8947368421052632
 40
0.8947368421052632
 40
1.0
 40
1.0
 40
1.0
 40
1.0
 10
59.0008
 20
-97.8113
 30
0.0
 10
59.0388
 20
-97.7195
 30
0.0
 10
59.0779
 20
-97.628
 30
0.0
 10
59.1182
 20
-97.5367
 30
0.0
 10
59.1182
 20
-97.5367
 30
0.0
 10
60.4669
 20
-94.4688
 30
0.0
 10
62.8555
 20
-91.6471
 30
0.0
 10
66.1835
 20
-90.3135
 30
0.0
 10
66.1835
 20
-90.3135
 30
0.0
 10
69.1457
 20
-89.1264
 30
0.0
 10
72.8289
 20
-89.5252
 30
0.0
 10
75.5729
 20
-88.1197
 30
0.0
 10
75.5729
 20
-88.1197
 30
0.0
 10
79.1973
 20
-86.2641
 30
0.0
 10
79.528
 20
-82.0338
 30
0.0
 10
77.3693
 20
-80.3118
 30
0.0
 10
77.3693
 20
-80.3118
 30
0.0
 10
77.2022
 20
-82.223
 30
0.0
 10
75.9902
 20
-84.0076
 30
0.0
 10
74.2262
 20
-84.9073
 30
0.0
 10
74.2262
 20
-84.9073
 30
0.0
 10
74.3396
 20
-84.9429
 30
0.0
 10
74.4604
 20
-84.9724
 30
0.0
 10
74.5905
 20
-84.9948
 30
0.0
 10
74.5905
 20
-84.9948
 30
0.0
 10
75.1704
 20
-85.0961
 30
0.0
 10
76.1754
 20
-85.004
 30
0.0
 10
76.4785
 20
-85.5819
 30
0.0
 10
76.4785
 20
-85.5819
 30
0.0
 10
76.6725
 20
-85.9515
 30
0.0
 10
76.448
 20
-86.3228
 30
0.0
 10
76.1896
 20
-86.6029
 30
0.0
 10
76.1896
 20
-86.6029
 30
0.0
 10
74.5597
 20
-88.3708
 30
0.0
 10
70.8041
 20
-87.6332
 30
0.0
 10
69.4459
 20
-85.0478
 30
0.0
 10
69.4459
 20
-85.0478
 30
0.0
 10
66.6754
 20
-83.7801
 30
0.0
 10
65.8852
 20
-80.2763
 30
0.0
 10
67.7795
 20
-78.7559
 30
0.0
 10
67.7795
 20
-78.7559
 30
0.0
 10
68.0802
 20
-78.5145
 30
0.0
 10
68.4784
 20
-78.3053
 30
0.0
 10
68.8742
 20
-78.4865
 30
0.0
 10
68.8742
 20
-78.4865
 30
0.0
 10
69.4937
 20
-78.7694
 30
0.0
 10
69.3946
 20
-79.7071
 30
0.0
 10
69.5032
 20
-80.2479
 30
0.0
 10
69.5032
 20
-80.2479
 30
0.0
 10
69.5278
 20
-80.3689
 30
0.0
 10
69.5589
 20
-80.4819
 30
0.0
 10
69.5969
 20
-80.5877
 30
0.0
 10
69.5969
 20
-80.5877
 30
0.0
 10
70.5616
 20
-78.9419
 30
0.0
 10
72.4745
 20
-77.8115
 30
0.0
 10
74.5229
 20
-77.6554
 30
0.0
 10
74.5229
 20
-77.6554
 30
0.0
 10
72.6768
 20
-75.6412
 30
0.0
 10
68.1434
 20
-75.9495
 30
0.0
 10
66.1539
 20
-79.3311
 30
0.0
 10
66.1539
 20
-79.3311
 30
0.0
 10
64.6479
 20
-81.8917
 30
0.0
 10
65.0754
 20
-85.3281
 30
0.0
 10
63.8029
 20
-88.0922
 30
0.0
 10
63.8029
 20
-88.0922
 30
0.0
 10
62.8164
 20
-90.2353
 30
0.0
 10
61.0694
 20
-91.9608
 30
0.0
 10
59.0008
 20
-93.2381
 30
0.0
 10
59.0008
 20
-93.2381
 30
0.0
 10
59.0008
 20
-93.2381
 30
0.0
 10
59.0008
 20
-97.8113
 30
0.0
 10
59.0008
 20
-97.8113
 30
0.0
  0
SPLINE
  5
9A
330
1F
100
AcDbEntity
  8
layer 1
 62
     7
100
AcDbSpline
210
0.0
220
0.0
230
1.0
 70
    11
 71
     3
 72
    72
 73
    68
 74
     0
 42
0.0000000001
 43
0.0000000001
 12
1.0
 22
0.0
 32
0.0
 13
1.0
 23
0.0
 33
0.0
 40
0.0
 40
0.0
 40
0.0
 40
0.0
 40
0.0555555555555556
 40
0.0555555555555556
 40
0.0555555555555556
 40
0.0555555555555556
 40
0.1111111111111111
 40
0.1111111111111111
 40
0.1111111111111111
 40
0.1111111111111111
 40
0.1666666666666667
 40
0.1666666666666667
 40
0.1666666666666667
 40
0.1666666666666667
 40
0.2222222222222222
 40
0.2222222222222222
 40
0.2222222222222222
 40
0.2222222222222222
 40
0.2777777777777778
 40
0.2777777777777778
 40
0.2777777777777778
 40
0.2777777777777778
 40
0.3333333333333333
 40
0.3333333333333333
 40
0.3333333333333333
 40
0.3333333333333333
 40
0.3888888888888889
 40
0.3888888888888889
 40
0.3888888888888889
 40
0.3888888888888889
 40
0.4444444444444444
 40
0.4444444444444444
 40
0.4444444444444444
 40
0.4444444444444444
 40
0.5
 40
0.5
 40
0.5
 40
0.5
 40
0.5555555555555556
 40
0.5555555555555556
 40
0.5555555555555556
 40
0.5555555555555556
 40
0.6111111111111112
 40
0.6111111111111112
 40
0.6111111111111112
 40
0.6111111111111112
 40
0.6666666666666666
 40
0.6666666666666666
 40
0.6666666666666666
 40
0.6666666666666666
 40
0.7222222222222222
 40
0.7222222222222222
 40
0.7222222222222222
 40
0.7222222222222222
 40
0.7777777777777778
 40
0.7777777777777778
 40
0.7777777777777778
 40
0.7777777777777778
 40
0.8333333333333334
 40
0.8333333333333334
 40
0.8333333333333334
 40
0.8333333333333334
 40
0.8888888888888888
 40
0.8888888888888888
 40
0.8888888888888888
 40
0.8888888888888888
 40
1.0
 40
1.0
 40
1.0
 40
1.0
 10
121.3454
 20
-93.1918
 30
0.0
 10
119.3096
 20
-91.9193
 30
0.0
 10
117.5927
 20
-90.2098
 30
0.0
 10
116.618
 20
-88.0922
 30
0.0
 10
116.618
 20
-88.0922
 30
0.0
 10
115.3456
 20
-85.3281
 30
0.0
 10
115.773
 20
-81.8917
 30
0.0
 10
114.267
 20
-79.3311
 30
0.0
 10
114.267
 20
-79.3311
 30
0.0
 10
112.2581
 20
-75.9159
 30
0.0
 10
107.6533
 20
-75.6349
 30
0.0
 10
105.8439
 20
-77.7157
 30
0.0
 10
105.8439
 20
-77.7157
 30
0.0
 10
106.632
 20
-77.7516
 30
0.0
 10
107.4233
 20
-77.9325
 30
0.0
 10
108.166
 20
-78.2689
 30
0.0
 10
108.166
 20
-78.2689
 30
0.0
 10
109.3765
 20
-78.817
 30
0.0
 10
110.2677
 20
-79.6357
 30
0.0
 10
110.8323
 20
-80.5645
 30
0.0
 10
110.8323
 20
-80.5645
 30
0.0
 10
110.8663
 20
-80.4655
 30
0.0
 10
110.8952
 20
-80.3606
 30
0.0
 10
110.9177
 20
-80.2479
 30
0.0
 10
110.9177
 20
-80.2479
 30
0.0
 10
111.0267
 20
-79.7071
 30
0.0
 10
110.9271
 20
-78.7694
 30
0.0
 10
111.547
 20
-78.4865
 30
0.0
 10
111.547
 20
-78.4865
 30
0.0
 10
111.9428
 20
-78.3053
 30
0.0
 10
112.3407
 20
-78.5145
 30
0.0
 10
112.6417
 20
-78.7559
 30
0.0
 10
112.6417
 20
-78.7559
 30
0.0
 10
114.5029
 20
-80.2503
 30
0.0
 10
113.772
 20
-83.6595
 30
0.0
 10
111.1168
 20
-84.9799
 30
0.0
 10
111.1168
 20
-84.9799
 30
0.0
 10
110.7103
 20
-85.7987
 30
0.0
 10
110.0217
 20
-86.5084
 30
0.0
 10
109.0419
 20
-86.9881
 30
0.0
 10
109.0419
 20
-86.9881
 30
0.0
 10
106.0532
 20
-88.4539
 30
0.0
 10
103.5107
 20
-86.6034
 30
0.0
 10
103.9906
 20
-85.6178
 30
0.0
 10
103.9906
 20
-85.6178
 30
0.0
 10
104.2451
 20
-85.0953
 30
0.0
 10
105.22
 20
-85.1568
 30
0.0
 10
106.1572
 20
-84.8878
 30
0.0
 10
106.1572
 20
-84.8878
 30
0.0
 10
104.4718
 20
-84.012
 30
0.0
 10
103.2984
 20
-82.3268
 30
0.0
 10
103.0713
 20
-80.5011
 30
0.0
 10
103.0713
 20
-80.5011
 30
0.0
 10
100.998
 20
-82.1843
 30
0.0
 10
101.608
 20
-85.6645
 30
0.0
 10
104.091
 20
-87.5601
 30
0.0
 10
104.091
 20
-87.5601
 30
0.0
 10
108.0203
 20
-90.5598
 30
0.0
 10
113.2762
 20
-87.616
 30
0.0
 10
118.4673
 20
-93.0769
 30
0.0
 10
118.4673
 20
-93.0769
 30
0.0
 10
119.7323
 20
-94.4077
 30
0.0
 10
120.6836
 20
-95.8894
 30
0.0
 10
121.3454
 20
-97.4612
 30
0.0
 10
121.3454
 20
-97.4612
 30
0.0
 10
121.3454
 20
-97.4612
 30
0.0
 10
121.3454
 20
-93.1918
 30
0.0
 10
121.3454
 20
-93.1918
 30
0.0
  0
SPLINE
  5
9B
330
1F
100
AcDbEntity
  8
layer 1
 62
     7
100
AcDbSpline
210
0.0
220
0.0
230
1.0
 70
    11
 71
     3
 72
    24
 73
    20
 74
     0
 42
0.0000000001
 43
0.0000000001
 12
1.0
 22
0.0
 32
0.0
 13
1.0
 23
0.0
 33
0.0
 40
0.0
 40
0.0
 40
0.0
 40
0.0
 40
0.1666666666666667
 40
0.1666666666666667
 40
0.1666666666666667
 40
0.1666666666666667
 40
0.3333333333333333
 40
0.3333333333333333
 40
0.3333333333333333
 40
0.3333333333333333
 40
0.5
 40
0.5
 40
0.5
 40
0.5
 40
0.6666666666666666
 40
0.6666666666666666
 40
0.6666666666666666
 40
0.6666666666666666
 40
1.0
 40
1.0
 40
1.0
 40
1.0
 10
121.3454
 20
-76.5489
 30
0.0
 10
119.7592
 20
-77.744
 30
0.0
 10
118.4776
 20
-79.5383
 30
0.0
 10
118.0126
 20
-81.7915
 30
0.0
 10
118.0126
 20
-81.7915
 30
0.0
 10
117.2458
 20
-85.5029
 30
0.0
 10
118.743
 20
-88.5816
 30
0.0
 10
121.3454
 20
-90.6959
 30
0.0
 10
121.3454
 20
-90.6959
 30
0.0
 10
121.3454
 20
-90.6959
 30
0.0
 10
121.3454
 20
-86.9363
 30
0.0
 10
121.3454
 20
-86.9363
 30
0.0
 10
121.3454
 20
-86.9363
 30
0.0
 10
120.1444
 20
-84.8538
 30
0.0
 10
120.1747
 20
-82.2242
 30
0.0
 10
121.3454
 20
-80.329
 30
0.0
 10
121.3454
 20
-80.329
 30
0.0
 10
121.3454
 20
-80.329
 30
0.0
 10
121.3454
 20
-76.5489
 30
0.0
 10
121.3454
 20
-76.5489
 30
0.0
  0
SPLINE
  5
9C
330
1F
100
AcDbEntity
  8
layer 1
 62
     7
100
AcDbSpline
210
0.0
220
0.0
230
1.0
 70
    11
 71
     3
 72
    20
 73
    16
 74
     0
 42
0.0000000001
 43
0.0000000001
 12
1.0
 22
0.0
 32
0.0
 13
1.0
 23
0.0
 33
0.0
 40
0.0
 40
0.0
 40
0.0
 40
0.0
 40
0.2
 40
0.2
 40
0.2
 40
0.2
 40
0.4
 40
0.4
 40
0.4
 40
0.4
 40
0.6
 40
0.6
 40
0.6
 40
0.6
 40
1.0
 40
1.0
 40
1.0
 40
1.0
 10
121.3454
 20
106.5193
 30
0.0
 10
115.9374
 20
102.1913
 30
0.0
 10
117.1284
 20
95.182
 30
0.0
 10
121.3454
 20
92.124
 30
0.0
 10
121.3454
 20
92.124
 30
0.0
 10
121.3454
 20
92.124
 30
0.0
 10
121.3454
 20
96.0981
 30
0.0
 10
121.3454
 20
96.0981
 30
0.0
 10
121.3454
 20
96.0981
 30
0.0
 10
120.1669
 20
97.9653
 30
0.0
 10
120.048
 20
100.5511
 30
0.0
 10
121.3454
 20
102.7764
 30
0.0
 10
121.3454
 20
102.7764
 30
0.0
 10
121.3454
 20
102.7764
 30
0.0
 10
121.3454
 20
106.5193
 30
0.0
 10
121.3454
 20
106.5193
 30
0.0
  0
SPLINE
  5
9D
330
1F
100
AcDbEntity
  8
layer 1
 62
     7
100
AcDbSpline
210
0.0
220
0.0
230
1.0
 70
    11
 71
     3
 72
    72
 73
    68
 74
     0
 42
0.0000000001
 43
0.0000000001
 12
1.0
 22
0.0
 32
0.0
 13
1.0
 23
0.0
 33
0.0
 40
0.0
 40
0.0
 40
0.0
 40
0.0
 40
0.0555555555555556
 40
0.0555555555555556
 40
0.0555555555555556
 40
0.0555555555555556
 40
0.1111111111111111
 40
0.1111111111111111
 40
0.1111111111111111
 40
0.1111111111111111
 40
0.1666666666666667
 40
0.1666666666666667
 40
0.1666666666666667
 40
0.1666666666666667
 40
0.2222222222222222
 40
0.2222222222222222
 40
0.2222222222222222
 40
0.2222222222222222
 40
0.2777777777777778
 40
0.2777777777777778
 40
0.2777777777777778
 40
0.2777777777777778
 40
0.3333333333333333
 40
0.3333333333333333
 40
0.3333333333333333
 40
0.3333333333333333
 40
0.3888888888888889
 40
0.3888888888888889
 40
0.3888888888888889
 40
0.3888888888888889
 40
0.4444444444444444
 40
0.4444444444444444
 40
0.4444444444444444
 40
0.4444444444444444
 40
0.5
 40
0.5
 40
0.5
 40
0.5
 40
0.5555555555555556
 40
0.5555555555555556
 40
0.5555555555555556
 40
0.5555555555555556
 40
0.6111111111111112
 40
0.6111111111111112
 40
0.6111111111111112
 40
0.6111111111111112
 40
0.6666666666666666
 40
0.6666666666666666
 40
0.6666666666666666
 40
0.6666666666666666
 40
0.7222222222222222
 40
0.7222222222222222
 40
0.7222222222222222
 40
0.7222222222222222
 40
0.7777777777777778
 40
0.7777777777777778
 40
0.7777777777777778
 40
0.7777777777777778
 40
0.8333333333333334
 40
0.8333333333333334
 40
0.8333333333333334
 40
0.8333333333333334
 40
0.8888888888888888
 40
0.8888888888888888
 40
0.8888888888888888
 40
0.8888888888888888
 40
1.0
 40
1.0
 40
1.0
 40
1.0
 10
121.3454
 20
113.2091
 30
0.0
 10
120.6836
 20
111.6373
 30
0.0
 10
119.7323
 20
110.1556
 30
0.0
 10
118.4673
 20
108.8248
 30
0.0
 10
118.4673
 20
108.8248
 30
0.0
 10
113.2762
 20
103.3639
 30
0.0
 10
108.0203
 20
106.3077
 30
0.0
 10
104.091
 20
103.308
 30
0.0
 10
104.091
 20
103.308
 30
0.0
 10
101.5851
 20
101.3953
 30
0.0
 10
100.9869
 20
97.8683
 30
0.0
 10
103.1294
 20
96.2034
 30
0.0
 10
103.1294
 20
96.2034
 30
0.0
 10
103.1898
 20
96.8741
 30
0.0
 10
103.3803
 20
97.5438
 30
0.0
 10
103.7089
 20
98.1757
 30
0.0
 10
103.7089
 20
98.1757
 30
0.0
 10
104.2885
 20
99.291
 30
0.0
 10
105.1517
 20
100.1156
 30
0.0
 10
106.1315
 20
100.6433
 30
0.0
 10
106.1315
 20
100.6433
 30
0.0
 10
105.2027
 20
100.904
 30
0.0
 10
104.2427
 20
100.8481
 30
0.0
 10
103.9906
 20
101.3657
 30
0.0
 10
103.9906
 20
101.3657
 30
0.0
 10
103.5107
 20
102.3517
 30
0.0
 10
106.0532
 20
104.2018
 30
0.0
 10
109.0419
 20
102.7361
 30
0.0
 10
109.0419
 20
102.7361
 30
0.0
 10
109.9671
 20
102.2831
 30
0.0
 10
110.6329
 20
101.6248
 30
0.0
 10
111.046
 20
100.8633
 30
0.0
 10
111.046
 20
100.8633
 30
0.0
 10
111.8626
 20
100.4781
 30
0.0
 10
112.5683
 20
99.8565
 30
0.0
 10
113.0546
 20
98.9932
 30
0.0
 10
113.0546
 20
98.9932
 30
0.0
 10
114.6245
 20
96.2042
 30
0.0
 10
112.6421
 20
93.8325
 30
0.0
 10
111.5853
 20
94.2803
 30
0.0
 10
111.5853
 20
94.2803
 30
0.0
 10
111.0307
 20
94.5154
 30
0.0
 10
111.0903
 20
95.4111
 30
0.0
 10
110.8106
 20
96.2781
 30
0.0
 10
110.8106
 20
96.2781
 30
0.0
 10
110.2452
 20
95.3633
 30
0.0
 10
109.3615
 20
94.5577
 30
0.0
 10
108.166
 20
94.0169
 30
0.0
 10
108.166
 20
94.0169
 30
0.0
 10
107.4893
 20
93.7103
 30
0.0
 10
106.7718
 20
93.5327
 30
0.0
 10
106.0529
 20
93.4764
 30
0.0
 10
106.0529
 20
93.4764
 30
0.0
 10
107.8374
 20
91.4774
 30
0.0
 10
111.6174
 20
92.0359
 30
0.0
 10
113.6669
 20
94.3733
 30
0.0
 10
113.6669
 20
94.3733
 30
0.0
 10
116.8819
 20
98.04
 30
0.0
 10
113.7269
 20
102.9436
 30
0.0
 10
119.5794
 20
107.787
 30
0.0
 10
119.5794
 20
107.787
 30
0.0
 10
120.1439
 20
108.254
 30
0.0
 10
120.7342
 20
108.6751
 30
0.0
 10
121.3454
 20
109.0523
 30
0.0
 10
121.3454
 20
109.0523
 30
0.0
 10
121.3454
 20
109.0523
 30
0.0
 10
121.3454
 20
113.2091
 30
0.0
 10
121.3454
 20
113.2091
 30
0.0
  0
SPLINE
  5
9E
330
1F
100
AcDbEntity
  8
layer 1
 62
     7
100
AcDbSpline
210
0.0
220
0.0
230
1.0
 70
    11
 71
     3
 72
    76
 73
    72
 74
     0
 42
0.0000000001
 43
0.0000000001
 12
1.0
 22
0.0
 32
0.0
 13
1.0
 23
0.0
 33
0.0
 40
0.0
 40
0.0
 40
0.0
 40
0.0
 40
0.0526315789473684
 40
0.0526315789473684
 40
0.0526315789473684
 40
0.0526315789473684
 40
0.1052631578947368
 40
0.1052631578947368
 40
0.1052631578947368
 40
0.1052631578947368
 40
0.1578947368421053
 40
0.1578947368421053
 40
0.1578947368421053
 40
0.1578947368421053
 40
0.2105263157894737
 40
0.2105263157894737
 40
0.2105263157894737
 40
0.2105263157894737
 40
0.2631578947368421
 40
0.2631578947368421
 40
0.2631578947368421
 40
0.2631578947368421
 40
0.3157894736842105
 40
0.3157894736842105
 40
0.3157894736842105
 40
0.3157894736842105
 40
0.3684210526315789
 40
0.3684210526315789
 40
0.3684210526315789
 40
0.3684210526315789
 40
0.4210526315789473
 40
0.4210526315789473
 40
0.4210526315789473
 40
0.4210526315789473
 40
0.4736842105263158
 40
0.4736842105263158
 40
0.4736842105263158
 40
0.4736842105263158
 40
0.5263157894736842
 40
0.5263157894736842
 40
0.5263157894736842
 40
0.5263157894736842
 40
0.5789473684210527
 40
0.5789473684210527
 40
0.5789473684210527
 40
0.5789473684210527
 40
0.631578947368421
 40
0.631578947368421
 40
0.631578947368421
 40
0.631578947368421
 40
0.6842105263157895
 40
0.6842105263157895
 40
0.6842105263157895
 40
0.6842105263157895
 40
0.7368421052631579
 40
0.7368421052631579
 40
0.7368421052631579
 40
0.7368421052631579
 40
0.7894736842105263
 40
0.7894736842105263
 40
0.7894736842105263
 40
0.7894736842105263
 40
0.8421052631578947
 40
0.8421052631578947
 40
0.8421052631578947
 40
0.8421052631578947
 40
0.8947368421052632
 40
0.8947368421052632
 40
0.8947368421052632
 40
0.8947368421052632
 40
1.0
 40
1.0
 40
1.0
 40
1.0
 10
59.0008
 20
109.0979
 30
0.0
 10
59.6389
 20
108.7094
 30
0.0
 10
60.254
 20
108.2732
 30
0.0
 10
60.8415
 20
107.787
 30
0.0
 10
60.8415
 20
107.787
 30
0.0
 10
66.6943
 20
102.9436
 30
0.0
 10
63.5389
 20
98.04
 30
0.0
 10
66.7544
 20
94.3733
 30
0.0
 10
66.7544
 20
94.3733
 30
0.0
 10
68.7854
 20
92.0571
 30
0.0
 10
72.5147
 20
91.4879
 30
0.0
 10
74.3191
 20
93.4221
 30
0.0
 10
74.3191
 20
93.4221
 30
0.0
 10
72.3631
 20
93.6337
 30
0.0
 10
70.5565
 20
94.7286
 30
0.0
 10
69.6174
 20
96.3009
 30
0.0
 10
69.6174
 20
96.3009
 30
0.0
 10
69.3297
 20
95.4271
 30
0.0
 10
69.3954
 20
94.5175
 30
0.0
 10
68.8356
 20
94.2803
 30
0.0
 10
68.8356
 20
94.2803
 30
0.0
 10
67.7792
 20
93.8325
 30
0.0
 10
65.7963
 20
96.2042
 30
0.0
 10
67.3667
 20
98.9932
 30
0.0
 10
67.3667
 20
98.9932
 30
0.0
 10
67.8811
 20
99.9069
 30
0.0
 10
68.6419
 20
100.5499
 30
0.0
 10
69.519
 20
100.9287
 30
0.0
 10
69.519
 20
100.9287
 30
0.0
 10
70.9342
 20
103.4058
 30
0.0
 10
74.5881
 20
104.088
 30
0.0
 10
76.1896
 20
102.3513
 30
0.0
 10
76.1896
 20
102.3513
 30
0.0
 10
76.448
 20
102.0707
 30
0.0
 10
76.6725
 20
101.6995
 30
0.0
 10
76.4785
 20
101.3303
 30
0.0
 10
76.4785
 20
101.3303
 30
0.0
 10
76.1754
 20
100.7519
 30
0.0
 10
75.1704
 20
100.8441
 30
0.0
 10
74.5905
 20
100.7427
 30
0.0
 10
74.5905
 20
100.7427
 30
0.0
 10
74.4704
 20
100.722
 30
0.0
 10
74.3577
 20
100.6952
 30
0.0
 10
74.2519
 20
100.6633
 30
0.0
 10
74.2519
 20
100.6633
 30
0.0
 10
75.2475
 20
100.1368
 30
0.0
 10
76.1249
 20
99.3053
 30
0.0
 10
76.7119
 20
98.1757
 30
0.0
 10
76.7119
 20
98.1757
 30
0.0
 10
77.0722
 20
97.4828
 30
0.0
 10
77.2666
 20
96.7443
 30
0.0
 10
77.3053
 20
96.0091
 30
0.0
 10
77.3053
 20
96.0091
 30
0.0
 10
79.5342
 20
97.6975
 30
0.0
 10
79.2336
 20
101.9933
 30
0.0
 10
75.5729
 20
103.8681
 30
0.0
 10
75.5729
 20
103.8681
 30
0.0
 10
72.8289
 20
105.2731
 30
0.0
 10
69.1457
 20
104.8743
 30
0.0
 10
66.1835
 20
106.0615
 30
0.0
 10
66.1835
 20
106.0615
 30
0.0
 10
62.8555
 20
107.395
 30
0.0
 10
60.4669
 20
110.217
 30
0.0
 10
59.1182
 20
113.2846
 30
0.0
 10
59.1182
 20
113.2846
 30
0.0
 10
59.1182
 20
113.2846
 30
0.0
 10
59.0008
 20
113.5584
 30
0.0
 10
59.0008
 20
113.5584
 30
0.0
 10
59.0008
 20
113.5584
 30
0.0
 10
59.0008
 20
113.5584
 30
0.0
 10
59.0008
 20
109.0979
 30
0.0
 10
59.0008
 20
109.0979
 30
0.0
  0
SPLINE
  5
9F
330
1F
100
AcDbEntity
  8
layer 1
 62
     7
100
AcDbSpline
210
0.0
220
0.0
230
1.0
 70
    11
 71
     3
 72
    20
 73
    16
 74
     0
 42
0.0000000001
 43
0.0000000001
 12
1.0
 22
0.0
 32
0.0
 13
1.0
 23
0.0
 33
0.0
 40
0.0
 40
0.0
 40
0.0
 40
0.0
 40
0.2
 40
0.2
 40
0.2
 40
0.2
 40
0.4
 40
0.4
 40
0.4
 40
0.4
 40
0.6
 40
0.6
 40
0.6
 40
0.6
 40
1.0
 40
1.0
 40
1.0
 40
1.0
 10
59.0008
 20
92.071
 30
0.0
 10
63.2976
 20
95.1146
 30
0.0
 10
64.527
 20
102.2307
 30
0.0
 10
59.0008
 20
106.5791
 30
0.0
 10
59.0008
 20
106.5791
 30
0.0
 10
59.0008
 20
106.5791
 30
0.0
 10
59.0008
 20
102.9021
 30
0.0
 10
59.0008
 20
102.9021
 30
0.0
 10
59.0008
 20
102.9021
 30
0.0
 10
60.4061
 20
100.6026
 30
0.0
 10
60.2718
 20
97.8911
 30
0.0
 10
59.0008
 20
95.9816
 30
0.0
 10
59.0008
 20
95.9816
 30
0.0
 10
59.0008
 20
95.9816
 30
0.0
 10
59.0008
 20
92.071
 30
0.0
 10
59.0008
 20
92.071
 30
0.0
  0
SPLINE
  5
A0
330
1F
100
AcDbEntity
  8
layer 1
 62
     7
100
AcDbSpline
210
0.0
220
0.0
230
1.0
 70
    11
 71
     3
 72
    24
 73
    20
 74
     0
 42
0.0000000001
 43
0.0000000001
 12
1.0
 22
0.0
 32
0.0
 13
1.0
 23
0.0
 33
0.0
 40
0.0
 40
0.0
 40
0.0
 40
0.0
 40
0.1666666666666667
 40
0.1666666666666667
 40
0.1666666666666667
 40
0.1666666666666667
 40
0.3333333333333333
 40
0.3333333333333333
 40
0.3333333333333333
 40
0.3333333333333333
 40
0.5
 40
0.5
 40
0.5
 40
0.5
 40
0.6666666666666666
 40
0.6666666666666666
 40
0.6666666666666666
 40
0.6666666666666666
 40
1.0
 40
1.0
 40
1.0
 40
1.0
 10
121.3454
 20
56.4007
 30
0.0
 10
118.743
 20
58.5154
 30
0.0
 10
117.2458
 20
61.5937
 30
0.0
 10
118.0126
 20
65.3055
 30
0.0
 10
118.0126
 20
65.3055
 30
0.0
 10
118.4776
 20
67.5583
 30
0.0
 10
119.7592
 20
69.353
 30
0.0
 10
121.3454
 20
70.548
 30
0.0
 10
121.3454
 20
70.548
 30
0.0
 10
121.3454
 20
70.548
 30
0.0
 10
121.3454
 20
66.768
 30
0.0
 10
121.3454
 20
66.768
 30
0.0
 10
121.3454
 20
66.768
 30
0.0
 10
120.1747
 20
64.8732
 30
0.0
 10
120.1444
 20
62.2436
 30
0.0
 10
121.3454
 20
60.1608
 30
0.0
 10
121.3454
 20
60.1608
 30
0.0
 10
121.3454
 20
60.1608
 30
0.0
 10
121.3454
 20
56.4007
 30
0.0
 10
121.3454
 20
56.4007
 30
0.0
  0
SPLINE
  5
A1
330
1F
100
AcDbEntity
  8
layer 1
 62
     7
100
AcDbSpline
210
0.0
220
0.0
230
1.0
 70
    11
 71
     3
 72
    72
 73
    68
 74
     0
 42
0.0000000001
 43
0.0000000001
 12
1.0
 22
0.0
 32
0.0
 13
1.0
 23
0.0
 33
0.0
 40
0.0
 40
0.0
 40
0.0
 40
0.0
 40
0.0555555555555556
 40
0.0555555555555556
 40
0.0555555555555556
 40
0.0555555555555556
 40
0.1111111111111111
 40
0.1111111111111111
 40
0.1111111111111111
 40
0.1111111111111111
 40
0.1666666666666667
 40
0.1666666666666667
 40
0.1666666666666667
 40
0.1666666666666667
 40
0.2222222222222222
 40
0.2222222222222222
 40
0.2222222222222222
 40
0.2222222222222222
 40
0.2777777777777778
 40
0.2777777777777778
 40
0.2777777777777778
 40
0.2777777777777778
 40
0.3333333333333333
 40
0.3333333333333333
 40
0.3333333333333333
 40
0.3333333333333333
 40
0.3888888888888889
 40
0.3888888888888889
 40
0.3888888888888889
 40
0.3888888888888889
 40
0.4444444444444444
 40
0.4444444444444444
 40
0.4444444444444444
 40
0.4444444444444444
 40
0.5
 40
0.5
 40
0.5
 40
0.5
 40
0.5555555555555556
 40
0.5555555555555556
 40
0.5555555555555556
 40
0.5555555555555556
 40
0.6111111111111112
 40
0.6111111111111112
 40
0.6111111111111112
 40
0.6111111111111112
 40
0.6666666666666666
 40
0.6666666666666666
 40
0.6666666666666666
 40
0.6666666666666666
 40
0.7222222222222222
 40
0.7222222222222222
 40
0.7222222222222222
 40
0.7222222222222222
 40
0.7777777777777778
 40
0.7777777777777778
 40
0.7777777777777778
 40
0.7777777777777778
 40
0.8333333333333334
 40
0.8333333333333334
 40
0.8333333333333334
 40
0.8333333333333334
 40
0.8888888888888888
 40
0.8888888888888888
 40
0.8888888888888888
 40
0.8888888888888888
 40
1.0
 40
1.0
 40
1.0
 40
1.0
 10
121.3454
 20
49.6358
 30
0.0
 10
120.6836
 20
51.2077
 30
0.0
 10
119.7323
 20
52.6894
 30
0.0
 10
118.4673
 20
54.0201
 30
0.0
 10
118.4673
 20
54.0201
 30
0.0
 10
113.2762
 20
59.4806
 30
0.0
 10
108.0203
 20
56.5372
 30
0.0
 10
104.091
 20
59.5369
 30
0.0
 10
104.091
 20
59.5369
 30
0.0
 10
101.608
 20
61.4321
 30
0.0
 10
100.998
 20
64.9123
 30
0.0
 10
103.0713
 20
66.5956
 30
0.0
 10
103.0713
 20
66.5956
 30
0.0
 10
103.2984
 20
64.7702
 30
0.0
 10
104.4718
 20
63.085
 30
0.0
 10
106.1572
 20
62.2088
 30
0.0
 10
106.1572
 20
62.2088
 30
0.0
 10
105.22
 20
61.9398
 30
0.0
 10
104.2451
 20
62.0013
 30
0.0
 10
103.9906
 20
61.4792
 30
0.0
 10
103.9906
 20
61.4792
 30
0.0
 10
103.5107
 20
60.4933
 30
0.0
 10
106.0532
 20
58.6432
 30
0.0
 10
109.0419
 20
60.1081
 30
0.0
 10
109.0419
 20
60.1081
 30
0.0
 10
110.0217
 20
60.5887
 30
0.0
 10
110.7103
 20
61.2984
 30
0.0
 10
111.1168
 20
62.1167
 30
0.0
 10
111.1168
 20
62.1167
 30
0.0
 10
113.772
 20
63.4371
 30
0.0
 10
114.5029
 20
66.8467
 30
0.0
 10
112.6417
 20
68.3407
 30
0.0
 10
112.6417
 20
68.3407
 30
0.0
 10
112.3407
 20
68.5822
 30
0.0
 10
111.9428
 20
68.7909
 30
0.0
 10
111.547
 20
68.6102
 30
0.0
 10
111.547
 20
68.6102
 30
0.0
 10
110.9271
 20
68.3271
 30
0.0
 10
111.0267
 20
67.3895
 30
0.0
 10
110.9177
 20
66.8486
 30
0.0
 10
110.9177
 20
66.8486
 30
0.0
 10
110.8952
 20
66.7365
 30
0.0
 10
110.8663
 20
66.6311
 30
0.0
 10
110.8323
 20
66.5321
 30
0.0
 10
110.8323
 20
66.5321
 30
0.0
 10
110.2677
 20
67.4613
 30
0.0
 10
109.3765
 20
68.2801
 30
0.0
 10
108.166
 20
68.8281
 30
0.0
 10
108.166
 20
68.8281
 30
0.0
 10
107.4233
 20
69.1642
 30
0.0
 10
106.632
 20
69.3454
 30
0.0
 10
105.8439
 20
69.3813
 30
0.0
 10
105.8439
 20
69.3813
 30
0.0
 10
107.6533
 20
71.4617
 30
0.0
 10
112.2581
 20
71.1811
 30
0.0
 10
114.267
 20
67.7655
 30
0.0
 10
114.267
 20
67.7655
 30
0.0
 10
115.773
 20
65.2049
 30
0.0
 10
115.3456
 20
61.7686
 30
0.0
 10
116.618
 20
59.0044
 30
0.0
 10
116.618
 20
59.0044
 30
0.0
 10
117.5927
 20
56.8869
 30
0.0
 10
119.3096
 20
55.1773
 30
0.0
 10
121.3454
 20
53.9047
 30
0.0
 10
121.3454
 20
53.9047
 30
0.0
 10
121.3454
 20
53.9047
 30
0.0
 10
121.3454
 20
49.6358
 30
0.0
 10
121.3454
 20
49.6358
 30
0.0
  0
SPLINE
  5
A2
330
1F
100
AcDbEntity
  8
layer 1
 62
     7
100
AcDbSpline
210
0.0
220
0.0
230
1.0
 70
    11
 71
     3
 72
    20
 73
    16
 74
     0
 42
0.0000000001
 43
0.0000000001
 12
1.0
 22
0.0
 32
0.0
 13
1.0
 23
0.0
 33
0.0
 40
0.0
 40
0.0
 40
0.0
 40
0.0
 40
0.2
 40
0.2
 40
0.2
 40
0.2
 40
0.4
 40
0.4
 40
0.4
 40
0.4
 40
0.6
 40
0.6
 40
0.6
 40
0.6
 40
1.0
 40
1.0
 40
1.0
 40
1.0
 10
121.3454
 20
25.8831
 30
0.0
 10
120.5133
 20
25.0876
 30
0.0
 10
119.7137
 20
24.2857
 30
0.0
 10
118.9509
 20
23.4878
 30
0.0
 10
118.9509
 20
23.4878
 30
0.0
 10
117.3927
 20
24.8617
 30
0.0
 10
115.2831
 20
25.4644
 30
0.0
 10
113.3758
 20
25.108
 30
0.0
 10
113.3758
 20
25.108
 30
0.0
 10
116.7883
 20
28.7831
 30
0.0
 10
119.7425
 20
32.9279
 30
0.0
 10
121.3454
 20
37.3086
 30
0.0
 10
121.3454
 20
37.3086
 30
0.0
 10
121.3454
 20
37.3086
 30
0.0
 10
121.3454
 20
25.8831
 30
0.0
 10
121.3454
 20
25.8831
 30
0.0
  0
SPLINE
  5
A3
330
1F
100
AcDbEntity
  8
layer 1
 62
     7
100
AcDbSpline
210
0.0
220
0.0
230
1.0
 70
    11
 71
     3
 72
    20
 73
    16
 74
     0
 42
0.0000000001
 43
0.0000000001
 12
1.0
 22
0.0
 32
0.0
 13
1.0
 23
0.0
 33
0.0
 40
0.0
 40
0.0
 40
0.0
 40
0.0
 40
0.2
 40
0.2
 40
0.2
 40
0.2
 40
0.4
 40
0.4
 40
0.4
 40
0.4
 40
0.6
 40
0.6
 40
0.6
 40
0.6
 40
1.0
 40
1.0
 40
1.0
 40
1.0
 10
121.3454
 20
11.0732
 30
0.0
 10
119.2184
 20
11.0205
 30
0.0
 10
117.0984
 20
10.8257
 30
0.0
 10
115.0058
 20
10.451
 30
0.0
 10
115.0058
 20
10.451
 30
0.0
 10
118.6277
 20
13.0027
 30
0.0
 10
122.8458
 20
17.8413
 30
0.0
 10
120.1056
 20
22.1434
 30
0.0
 10
120.1056
 20
22.1434
 30
0.0
 10
120.5138
 20
22.5574
 30
0.0
 10
120.927
 20
22.9665
 30
0.0
 10
121.3454
 20
23.3713
 30
0.0
 10
121.3454
 20
23.3713
 30
0.0
 10
121.3454
 20
23.3713
 30
0.0
 10
121.3454
 20
11.0732
 30
0.0
 10
121.3454
 20
11.0732
 30
0.0
  0
SPLINE
  5
A4
330
1F
100
AcDbEntity
  8
layer 1
 62
     7
100
AcDbSpline
210
0.0
220
0.0
230
1.0
 70
    11
 71
     3
 72
    20
 73
    16
 74
     0
 42
0.0000000001
 43
0.0000000001
 12
1.0
 22
0.0
 32
0.0
 13
1.0
 23
0.0
 33
0.0
 40
0.0
 40
0.0
 40
0.0
 40
0.0
 40
0.2
 40
0.2
 40
0.2
 40
0.2
 40
0.4
 40
0.4
 40
0.4
 40
0.4
 40
0.6
 40
0.6
 40
0.6
 40
0.6
 40
1.0
 40
1.0
 40
1.0
 40
1.0
 10
121.3454
 20
6.3168
 30
0.0
 10
117.5405
 20
6.33
 30
0.0
 10
113.755
 20
6.7871
 30
0.0
 10
110.0596
 20
7.8779
 30
0.0
 10
110.0596
 20
7.8779
 30
0.0
 10
110.1595
 20
7.9051
 30
0.0
 10
110.2591
 20
7.9319
 30
0.0
 10
110.3582
 20
7.9597
 30
0.0
 10
110.3582
 20
7.9597
 30
0.0
 10
114.0075
 20
8.9796
 30
0.0
 10
117.6677
 20
9.4227
 30
0.0
 10
121.3454
 20
9.4466
 30
0.0
 10
121.3454
 20
9.4466
 30
0.0
 10
121.3454
 20
9.4466
 30
0.0
 10
121.3454
 20
6.3168
 30
0.0
 10
121.3454
 20
6.3168
 30
0.0
  0
SPLINE
  5
A5
330
1F
100
AcDbEntity
  8
layer 1
 62
     7
100
AcDbSpline
210
0.0
220
0.0
230
1.0
 70
    11
 71
     3
 72
    20
 73
    16
 74
     0
 42
0.0000000001
 43
0.0000000001
 12
1.0
 22
0.0
 32
0.0
 13
1.0
 23
0.0
 33
0.0
 40
0.0
 40
0.0
 40
0.0
 40
0.0
 40
0.2
 40
0.2
 40
0.2
 40
0.2
 40
0.4
 40
0.4
 40
0.4
 40
0.4
 40
0.6
 40
0.6
 40
0.6
 40
0.6
 40
1.0
 40
1.0
 40
1.0
 40
1.0
 10
121.3454
 20
-7.5942
 30
0.0
 10
120.938
 20
-7.2014
 30
0.0
 10
120.5358
 20
-6.8043
 30
0.0
 10
120.1388
 20
-6.4027
 30
0.0
 10
120.1388
 20
-6.4027
 30
0.0
 10
122.9438
 20
-2.1126
 30
0.0
 10
118.8379
 20
2.6526
 30
0.0
 10
115.2562
 20
5.2559
 30
0.0
 10
115.2562
 20
5.2559
 30
0.0
 10
117.2553
 20
4.9146
 30
0.0
 10
119.295
 20
4.737
 30
0.0
 10
121.3454
 20
4.6907
 30
0.0
 10
121.3454
 20
4.6907
 30
0.0
 10
121.3454
 20
4.6907
 30
0.0
 10
121.3454
 20
-7.5942
 30
0.0
 10
121.3454
 20
-7.5942
 30
0.0
  0
SPLINE
  5
A6
330
1F
100
AcDbEntity
  8
layer 1
 62
     7
100
AcDbSpline
210
0.0
220
0.0
230
1.0
 70
    11
 71
     3
 72
    20
 73
    16
 74
     0
 42
0.0000000001
 43
0.0000000001
 12
1.0
 22
0.0
 32
0.0
 13
1.0
 23
0.0
 33
0.0
 40
0.0
 40
0.0
 40
0.0
 40
0.0
 40
0.2
 40
0.2
 40
0.2
 40
0.2
 40
0.4
 40
0.4
 40
0.4
 40
0.4
 40
0.6
 40
0.6
 40
0.6
 40
0.6
 40
1.0
 40
1.0
 40
1.0
 40
1.0
 10
121.3454
 20
-21.5611
 30
0.0
 10
119.7264
 20
-17.1352
 30
0.0
 10
116.7282
 20
-12.9508
 30
0.0
 10
113.2718
 20
-9.2479
 30
0.0
 10
113.2718
 20
-9.2479
 30
0.0
 10
115.0678
 20
-9.6634
 30
0.0
 10
117.179
 20
-9.2966
 30
0.0
 10
118.973
 20
-7.7351
 30
0.0
 10
118.973
 20
-7.7351
 30
0.0
 10
119.7106
 20
-8.503
 30
0.0
 10
120.5039
 20
-9.2942
 30
0.0
 10
121.3454
 20
-10.0921
 30
0.0
 10
121.3454
 20
-10.0921
 30
0.0
 10
121.3454
 20
-10.0921
 30
0.0
 10
121.3454
 20
-21.5611
 30
0.0
 10
121.3454
 20
-21.5611
 30
0.0
  0
SPLINE
  5
A7
330
1F
100
AcDbEntity
  8
layer 1
 62
     7
100
AcDbSpline
210
0.0
220
0.0
230
1.0
 70
    11
 71
     3
 72
    72
 73
    68
 74
     0
 42
0.0000000001
 43
0.0000000001
 12
1.0
 22
0.0
 32
0.0
 13
1.0
 23
0.0
 33
0.0
 40
0.0
 40
0.0
 40
0.0
 40
0.0
 40
0.0555555555555556
 40
0.0555555555555556
 40
0.0555555555555556
 40
0.0555555555555556
 40
0.1111111111111111
 40
0.1111111111111111
 40
0.1111111111111111
 40
0.1111111111111111
 40
0.1666666666666667
 40
0.1666666666666667
 40
0.1666666666666667
 40
0.1666666666666667
 40
0.2222222222222222
 40
0.2222222222222222
 40
0.2222222222222222
 40
0.2222222222222222
 40
0.2777777777777778
 40
0.2777777777777778
 40
0.2777777777777778
 40
0.2777777777777778
 40
0.3333333333333333
 40
0.3333333333333333
 40
0.3333333333333333
 40
0.3333333333333333
 40
0.3888888888888889
 40
0.3888888888888889
 40
0.3888888888888889
 40
0.3888888888888889
 40
0.4444444444444444
 40
0.4444444444444444
 40
0.4444444444444444
 40
0.4444444444444444
 40
0.5
 40
0.5
 40
0.5
 40
0.5
 40
0.5555555555555556
 40
0.5555555555555556
 40
0.5555555555555556
 40
0.5555555555555556
 40
0.6111111111111112
 40
0.6111111111111112
 40
0.6111111111111112
 40
0.6111111111111112
 40
0.6666666666666666
 40
0.6666666666666666
 40
0.6666666666666666
 40
0.6666666666666666
 40
0.7222222222222222
 40
0.7222222222222222
 40
0.7222222222222222
 40
0.7222222222222222
 40
0.7777777777777778
 40
0.7777777777777778
 40
0.7777777777777778
 40
0.7777777777777778
 40
0.8333333333333334
 40
0.8333333333333334
 40
0.8333333333333334
 40
0.8333333333333334
 40
0.8888888888888888
 40
0.8888888888888888
 40
0.8888888888888888
 40
0.8888888888888888
 40
1.0
 40
1.0
 40
1.0
 40
1.0
 10
121.3454
 20
-38.0443
 30
0.0
 10
120.7342
 20
-38.4211
 30
0.0
 10
120.1439
 20
-38.843
 30
0.0
 10
119.5794
 20
-39.31
 30
0.0
 10
119.5794
 20
-39.31
 30
0.0
 10
113.7269
 20
-44.1534
 30
0.0
 10
116.8819
 20
-49.0571
 30
0.0
 10
113.6669
 20
-52.7233
 30
0.0
 10
113.6669
 20
-52.7233
 30
0.0
 10
111.6174
 20
-55.0608
 30
0.0
 10
107.8374
 20
-55.6195
 30
0.0
 10
106.0529
 20
-53.6202
 30
0.0
 10
106.0529
 20
-53.6202
 30
0.0
 10
106.7718
 20
-53.5639
 30
0.0
 10
107.4893
 20
-53.3863
 30
0.0
 10
108.166
 20
-53.0801
 30
0.0
 10
108.166
 20
-53.0801
 30
0.0
 10
109.3615
 20
-52.5393
 30
0.0
 10
110.2452
 20
-51.7333
 30
0.0
 10
110.8106
 20
-50.8189
 30
0.0
 10
110.8106
 20
-50.8189
 30
0.0
 10
111.0903
 20
-51.6855
 30
0.0
 10
111.0307
 20
-52.5815
 30
0.0
 10
111.5853
 20
-52.8167
 30
0.0
 10
111.5853
 20
-52.8167
 30
0.0
 10
112.6421
 20
-53.2642
 30
0.0
 10
114.6245
 20
-50.8924
 30
0.0
 10
113.0546
 20
-48.1035
 30
0.0
 10
113.0546
 20
-48.1035
 30
0.0
 10
112.5683
 20
-47.2404
 30
0.0
 10
111.8626
 20
-46.6185
 30
0.0
 10
111.046
 20
-46.233
 30
0.0
 10
111.046
 20
-46.233
 30
0.0
 10
110.6329
 20
-45.4722
 30
0.0
 10
109.9671
 20
-44.814
 30
0.0
 10
109.0419
 20
-44.3602
 30
0.0
 10
109.0419
 20
-44.3602
 30
0.0
 10
106.0532
 20
-42.8952
 30
0.0
 10
103.5107
 20
-44.7454
 30
0.0
 10
103.9906
 20
-45.7312
 30
0.0
 10
103.9906
 20
-45.7312
 30
0.0
 10
104.2427
 20
-46.2485
 30
0.0
 10
105.2027
 20
-46.193
 30
0.0
 10
106.1315
 20
-46.4538
 30
0.0
 10
106.1315
 20
-46.4538
 30
0.0
 10
105.1517
 20
-46.9814
 30
0.0
 10
104.2885
 20
-47.806
 30
0.0
 10
103.7089
 20
-48.9209
 30
0.0
 10
103.7089
 20
-48.9209
 30
0.0
 10
103.3803
 20
-49.5532
 30
0.0
 10
103.1898
 20
-50.2226
 30
0.0
 10
103.1294
 20
-50.8935
 30
0.0
 10
103.1294
 20
-50.8935
 30
0.0
 10
100.9869
 20
-49.2286
 30
0.0
 10
101.5851
 20
-45.7017
 30
0.0
 10
104.091
 20
-43.7889
 30
0.0
 10
104.091
 20
-43.7889
 30
0.0
 10
108.0203
 20
-40.7892
 30
0.0
 10
113.2762
 20
-43.7326
 30
0.0
 10
118.4673
 20
-38.2722
 30
0.0
 10
118.4673
 20
-38.2722
 30
0.0
 10
119.7323
 20
-36.9414
 30
0.0
 10
120.6836
 20
-35.4597
 30
0.0
 10
121.3454
 20
-33.8878
 30
0.0
 10
121.3454
 20
-33.8878
 30
0.0
 10
121.3454
 20
-33.8878
 30
0.0
 10
121.3454
 20
-38.0443
 30
0.0
 10
121.3454
 20
-38.0443
 30
0.0
  0
SPLINE
  5
A8
330
1F
100
AcDbEntity
  8
layer 1
 62
     7
100
AcDbSpline
210
0.0
220
0.0
230
1.0
 70
    11
 71
     3
 72
    20
 73
    16
 74
     0
 42
0.0000000001
 43
0.0000000001
 12
1.0
 22
0.0
 32
0.0
 13
1.0
 23
0.0
 33
0.0
 40
0.0
 40
0.0
 40
0.0
 40
0.0
 40
0.2
 40
0.2
 40
0.2
 40
0.2
 40
0.4
 40
0.4
 40
0.4
 40
0.4
 40
0.6
 40
0.6
 40
0.6
 40
0.6
 40
1.0
 40
1.0
 40
1.0
 40
1.0
 10
121.3454
 20
-54.9729
 30
0.0
 10
117.1281
 20
-51.9142
 30
0.0
 10
115.9374
 20
-44.9058
 30
0.0
 10
121.3454
 20
-40.5777
 30
0.0
 10
121.3454
 20
-40.5777
 30
0.0
 10
121.3454
 20
-40.5777
 30
0.0
 10
121.3454
 20
-44.3198
 30
0.0
 10
121.3454
 20
-44.3198
 30
0.0
 10
121.3454
 20
-44.3198
 30
0.0
 10
120.048
 20
-46.5451
 30
0.0
 10
120.1669
 20
-49.1316
 30
0.0
 10
121.3454
 20
-50.9989
 30
0.0
 10
121.3454
 20
-50.9989
 30
0.0
 10
121.3454
 20
-50.9989
 30
0.0
 10
121.3454
 20
-54.9729
 30
0.0
 10
121.3454
 20
-54.9729
 30
0.0
  0
SPLINE
  5
A9
330
1F
100
AcDbEntity
  8
layer 1
 62
     7
100
AcDbSpline
210
0.0
220
0.0
230
1.0
 70
    11
 71
     3
 72
   256
 73
   252
 74
     0
 42
0.0000000001
 43
0.0000000001
 12
1.0
 22
0.0
 32
0.0
 13
1.0
 23
0.0
 33
0.0
 40
0.0
 40
0.0
 40
0.0
 40
0.0
 40
0.015625
 40
0.015625
 40
0.015625
 40
0.015625
 40
0.03125
 40
0.03125
 40
0.03125
 40
0.03125
 40
0.046875
 40
0.046875
 40
0.046875
 40
0.046875
 40
0.0625
 40
0.0625
 40
0.0625
 40
0.0625
 40
0.078125
 40
0.078125
 40
0.078125
 40
0.078125
 40
0.09375
 40
0.09375
 40
0.09375
 40
0.09375
 40
0.109375
 40
0.109375
 40
0.109375
 40
0.109375
 40
0.125
 40
0.125
 40
0.125
 40
0.125
 40
0.140625
 40
0.140625
 40
0.140625
 40
0.140625
 40
0.15625
 40
0.15625
 40
0.15625
 40
0.15625
 40
0.171875
 40
0.171875
 40
0.171875
 40
0.171875
 40
0.1875
 40
0.1875
 40
0.1875
 40
0.1875
 40
0.203125
 40
0.203125
 40
0.203125
 40
0.203125
 40
0.21875
 40
0.21875
 40
0.21875
 40
0.21875
 40
0.234375
 40
0.234375
 40
0.234375
 40
0.234375
 40
0.25
 40
0.25
 40
0.25
 40
0.25
 40
0.265625
 40
0.265625
 40
0.265625
 40
0.265625
 40
0.28125
 40
0.28125
 40
0.28125
 40
0.28125
 40
0.296875
 40
0.296875
 40
0.296875
 40
0.296875
 40
0.3125
 40
0.3125
 40
0.3125
 40
0.3125
 40
0.328125
 40
0.328125
 40
0.328125
 40
0.328125
 40
0.34375
 40
0.34375
 40
0.34375
 40
0.34375
 40
0.359375
 40
0.359375
 40
0.359375
 40
0.359375
 40
0.375
 40
0.375
 40
0.375
 40
0.375
 40
0.390625
 40
0.390625
 40
0.390625
 40
0.390625
 40
0.40625
 40
0.40625
 40
0.40625
 40
0.40625
 40
0.421875
 40
0.421875
 40
0.421875
 40
0.421875
 40
0.4375
 40
0.4375
 40
0.4375
 40
0.4375
 40
0.453125
 40
0.453125
 40
0.453125
 40
0.453125
 40
0.46875
 40
0.46875
 40
0.46875
 40
0.46875
 40
0.484375
 40
0.484375
 40
0.484375
 40
0.484375
 40
0.5
 40
0.5
 40
0.5
 40
0.5
 40
0.515625
 40
0.515625
 40
0.515625
 40
0.515625
 40
0.53125
 40
0.53125
 40
0.53125
 40
0.53125
 40
0.546875
 40
0.546875
 40
0.546875
 40
0.546875
 40
0.5625
 40
0.5625
 40
0.5625
 40
0.5625
 40
0.578125
 40
0.578125
 40
0.578125
 40
0.578125
 40
0.59375
 40
0.59375
 40
0.59375
 40
0.59375
 40
0.609375
 40
0.609375
 40
0.609375
 40
0.609375
 40
0.625
 40
0.625
 40
0.625
 40
0.625
 40
0.640625
 40
0.640625
 40
0.640625
 40
0.640625
 40
0.65625
 40
0.65625
 40
0.65625
 40
0.65625
 40
0.671875
 40
0.671875
 40
0.671875
 40
0.671875
 40
0.6875
 40
0.6875
 40
0.6875
 40
0.6875
 40
0.703125
 40
0.703125
 40
0.703125
 40
0.703125
 40
0.71875
 40
0.71875
 40
0.71875
 40
0.71875
 40
0.734375
 40
0.734375
 40
0.734375
 40
0.734375
 40
0.75
 40
0.75
 40
0.75
 40
0.75
 40
0.765625
 40
0.765625
 40
0.765625
 40
0.765625
 40
0.78125
 40
0.78125
 40
0.78125
 40
0.78125
 40
0.796875
 40
0.796875
 40
0.796875
 40
0.796875
 40
0.8125
 40
0.8125
 40
0.8125
 40
0.8125
 40
0.828125
 40
0.828125
 40
0.828125
 40
0.828125
 40
0.84375
 40
0.84375
 40
0.84375
 40
0.84375
 40
0.859375
 40
0.859375
 40
0.859375
 40
0.859375
 40
0.875
 40
0.875
 40
0.875
 40
0.875
 40
0.890625
 40
0.890625
 40
0.890625
 40
0.890625
 40
0.90625
 40
0.90625
 40
0.90625
 40
0.90625
 40
0.921875
 40
0.921875
 40
0.921875
 40
0.921875
 40
0.9375
 40
0.9375
 40
0.9375
 40
0.9375
 40
0.953125
 40
0.953125
 40
0.953125
 40
0.953125
 40
0.96875
 40
0.96875
 40
0.96875
 40
0.96875
 40
1.0
 40
1.0
 40
1.0
 40
1.0
 10
121.3454
 20
-60.8521
 30
0.0
 10
118.9778
 20
-60.2937
 30
0.0
 10
116.5955
 20
-59.7876
 30
0.0
 10
114.1824
 20
-59.4327
 30
0.0
 10
114.1824
 20
-59.4327
 30
0.0
 10
107.8567
 20
-58.5031
 30
0.0
 10
101.2505
 20
-58.9154
 30
0.0
 10
95.2242
 20
-60.9962
 30
0.0
 10
95.2242
 20
-60.9962
 30
0.0
 10
97.4539
 20
-55.3736
 30
0.0
 10
97.8964
 20
-49.2099
 30
0.0
 10
96.9
 20
-43.308
 30
0.0
 10
96.9
 20
-43.308
 30
0.0
 10
96.3932
 20
-40.3039
 30
0.0
 10
95.5952
 20
-37.3501
 30
0.0
 10
94.7639
 20
-34.4119
 30
0.0
 10
94.7639
 20
-34.4119
 30
0.0
 10
94.1863
 20
-32.3703
 30
0.0
 10
91.2609
 20
-22.7633
 30
0.0
 10
91.2581
 20
-22.4073
 30
0.0
 10
91.2581
 20
-22.4073
 30
0.0
 10
91.3458
 20
-22.0712
 30
0.0
 10
91.432
 20
-21.7355
 30
0.0
 10
91.5162
 20
-21.3986
 30
0.0
 10
91.5162
 20
-21.3986
 30
0.0
 10
93.126
 20
-25.0038
 30
0.0
 10
97.9964
 20
-26.9094
 30
0.0
 10
100.6951
 20
-23.7145
 30
0.0
 10
100.6951
 20
-23.7145
 30
0.0
 10
103.3692
 20
-20.5488
 30
0.0
 10
100.9435
 20
-16.4734
 30
0.0
 10
97.5621
 20
-16.3528
 30
0.0
 10
97.5621
 20
-16.3528
 30
0.0
 10
93.8735
 20
-16.2216
 30
0.0
 10
92.8107
 20
-20.8685
 30
0.0
 10
95.2151
 20
-22.1419
 30
0.0
 10
95.2151
 20
-22.1419
 30
0.0
 10
95.5094
 20
-22.2979
 30
0.0
 10
95.8562
 20
-22.3918
 30
0.0
 10
96.1629
 20
-22.2045
 30
0.0
 10
96.1629
 20
-22.2045
 30
0.0
 10
96.6586
 20
-21.902
 30
0.0
 10
96.5164
 20
-21.1915
 30
0.0
 10
96.5587
 20
-20.718
 30
0.0
 10
96.5587
 20
-20.718
 30
0.0
 10
96.8554
 20
-17.3795
 30
0.0
 10
101.6096
 20
-19.7437
 30
0.0
 10
99.2008
 20
-22.642
 30
0.0
 10
99.2008
 20
-22.642
 30
0.0
 10
97.7486
 20
-24.3895
 30
0.0
 10
95.4904
 20
-23.5477
 30
0.0
 10
94.1184
 20
-22.2017
 30
0.0
 10
94.1184
 20
-22.2017
 30
0.0
 10
93.6029
 20
-21.696
 30
0.0
 10
93.1659
 20
-21.0789
 30
0.0
 10
92.9249
 20
-20.4151
 30
0.0
 10
92.9249
 20
-20.4151
 30
0.0
 10
92.5781
 20
-19.4635
 30
0.0
 10
92.3781
 20
-18.1459
 30
0.0
 10
92.4915
 20
-17.1456
 30
0.0
 10
92.4915
 20
-17.1456
 30
0.0
 10
92.6034
 20
-16.5963
 30
0.0
 10
92.7092
 20
-16.0447
 30
0.0
 10
92.8088
 20
-15.4907
 30
0.0
 10
92.8088
 20
-15.4907
 30
0.0
 10
93.7475
 20
-10.2689
 30
0.0
 10
94.0473
 20
-4.8559
 30
0.0
 10
92.9723
 20
0.3695
 30
0.0
 10
92.9723
 20
0.3695
 30
0.0
 10
95.7077
 20
-3.0099
 30
0.0
 10
100.8933
 20
-6.9456
 30
0.0
 10
105.5045
 20
-4.389
 30
0.0
 10
105.5045
 20
-4.389
 30
0.0
 10
107.7927
 20
-6.3532
 30
0.0
 10
109.9545
 20
-8.4451
 30
0.0
 10
111.9555
 20
-10.6661
 30
0.0
 10
111.9555
 20
-10.6661
 30
0.0
 10
110.1619
 20
-9.9828
 30
0.0
 10
108.1546
 20
-10.728
 30
0.0
 10
107.5726
 20
-12.5006
 30
0.0
 10
107.5726
 20
-12.5006
 30
0.0
 10
106.8292
 20
-14.767
 30
0.0
 10
109.4702
 20
-16.2942
 30
0.0
 10
110.382
 20
-15.5434
 30
0.0
 10
110.382
 20
-15.5434
 30
0.0
 10
111.2788
 20
-14.805
 30
0.0
 10
109.2082
 20
-14.1192
 30
0.0
 10
109.9102
 20
-12.8299
 30
0.0
 10
109.9102
 20
-12.8299
 30
0.0
 10
110.6249
 20
-11.5183
 30
0.0
 10
112.7982
 20
-12.2471
 30
0.0
 10
112.6287
 20
-14.2964
 30
0.0
 10
112.6287
 20
-14.2964
 30
0.0
 10
112.4149
 20
-16.8821
 30
0.0
 10
109.4334
 20
-16.7256
 30
0.0
 10
107.6541
 20
-14.7774
 30
0.0
 10
107.6541
 20
-14.7774
 30
0.0
 10
106.0682
 20
-13.0403
 30
0.0
 10
105.4603
 20
-10.7718
 30
0.0
 10
105.16
 20
-8.5473
 30
0.0
 10
105.16
 20
-8.5473
 30
0.0
 10
105.1111
 20
-8.1805
 30
0.0
 10
105.1166
 20
-7.3594
 30
0.0
 10
104.735
 20
-7.1587
 30
0.0
 10
104.735
 20
-7.1587
 30
0.0
 10
104.6792
 20
-6.6498
 30
0.0
 10
104.6302
 20
-5.556
 30
0.0
 10
103.8902
 20
-5.578
 30
0.0
 10
103.8902
 20
-5.578
 30
0.0
 10
102.406
 20
-5.6231
 30
0.0
 10
104.181
 20
-10.2697
 30
0.0
 10
101.1039
 20
-11.7765
 30
0.0
 10
101.1039
 20
-11.7765
 30
0.0
 10
98.888
 20
-12.8614
 30
0.0
 10
95.5758
 20
-10.7918
 30
0.0
 10
98.4562
 20
-9.0483
 30
0.0
 10
98.4562
 20
-9.0483
 30
0.0
 10
99.7986
 20
-8.2356
 30
0.0
 10
98.5096
 20
-7.1315
 30
0.0
 10
96.6291
 20
-8.2188
 30
0.0
 10
96.6291
 20
-8.2188
 30
0.0
 10
93.6329
 20
-9.9504
 30
0.0
 10
95.2941
 20
-14.007
 30
0.0
 10
98.9484
 20
-13.8841
 30
0.0
 10
98.9484
 20
-13.8841
 30
0.0
 10
100.9336
 20
-13.8174
 30
0.0
 10
103.0804
 20
-12.7581
 30
0.0
 10
104.1108
 20
-11.1395
 30
0.0
 10
104.1108
 20
-11.1395
 30
0.0
 10
105.0403
 20
-15.907
 30
0.0
 10
108.3217
 20
-20.0327
 30
0.0
 10
111.6063
 20
-23.649
 30
0.0
 10
111.6063
 20
-23.649
 30
0.0
 10
113.5962
 20
-25.8393
 30
0.0
 10
114.9749
 20
-27.6626
 30
0.0
 10
114.6309
 20
-30.6715
 30
0.0
 10
114.6309
 20
-30.6715
 30
0.0
 10
114.3472
 20
-33.1534
 30
0.0
 10
112.9945
 20
-34.849
 30
0.0
 10
110.1252
 20
-34.5716
 30
0.0
 10
110.1252
 20
-34.5716
 30
0.0
 10
108.6804
 20
-34.4319
 30
0.0
 10
108.1574
 20
-33.9418
 30
0.0
 10
107.2495
 20
-32.9531
 30
0.0
 10
107.2495
 20
-32.9531
 30
0.0
 10
106.3744
 20
-32.0006
 30
0.0
 10
106.4333
 20
-31.1117
 30
0.0
 10
106.4929
 20
-29.9641
 30
0.0
 10
106.4929
 20
-29.9641
 30
0.0
 10
106.6063
 20
-27.7887
 30
0.0
 10
103.0567
 20
-29.1406
 30
0.0
 10
103.2151
 20
-32.4581
 30
0.0
 10
103.2151
 20
-32.4581
 30
0.0
 10
103.4261
 20
-36.8723
 30
0.0
 10
109.1502
 20
-38.8729
 30
0.0
 10
113.42
 20
-36.4524
 30
0.0
 10
113.42
 20
-36.4524
 30
0.0
 10
116.8677
 20
-34.4966
 30
0.0
 10
117.6646
 20
-29.761
 30
0.0
 10
116.1404
 20
-26.4927
 30
0.0
 10
116.1404
 20
-26.4927
 30
0.0
 10
115.2444
 20
-24.5699
 30
0.0
 10
113.6089
 20
-22.8827
 30
0.0
 10
112.1689
 20
-21.2953
 30
0.0
 10
112.1689
 20
-21.2953
 30
0.0
 10
111.0054
 20
-20.0127
 30
0.0
 10
109.8589
 20
-18.7115
 30
0.0
 10
108.846
 20
-17.3208
 30
0.0
 10
108.846
 20
-17.3208
 30
0.0
 10
111.986
 20
-18.5754
 30
0.0
 10
114.7667
 20
-16.3121
 30
0.0
 10
114.1521
 20
-13.2406
 30
0.0
 10
114.1521
 20
-13.2406
 30
0.0
 10
115.2531
 20
-14.6149
 30
0.0
 10
116.2684
 20
-16.0511
 30
0.0
 10
117.1589
 20
-17.5528
 30
0.0
 10
117.1589
 20
-17.5528
 30
0.0
 10
117.3694
 20
-18.0402
 30
0.0
 10
117.4579
 20
-18.943
 30
0.0
 10
117.4559
 20
-19.4755
 30
0.0
 10
117.4559
 20
-19.4755
 30
0.0
 10
117.4058
 20
-18.9222
 30
0.0
 10
117.1193
 20
-18.4154
 30
0.0
 10
116.6275
 20
-18.0449
 30
0.0
 10
116.6275
 20
-18.0449
 30
0.0
 10
113.8787
 20
-15.9776
 30
0.0
 10
110.3843
 20
-19.8499
 30
0.0
 10
113.3125
 20
-22.4707
 30
0.0
 10
113.3125
 20
-22.4707
 30
0.0
 10
115.466
 20
-24.3979
 30
0.0
 10
118.1797
 20
-23.0352
 30
0.0
 10
118.7024
 20
-20.5389
 30
0.0
 10
118.7024
 20
-20.5389
 30
0.0
 10
120.4331
 20
-24.4853
 30
0.0
 10
121.1613
 20
-29.0525
 30
0.0
 10
119.3819
 20
-33.0907
 30
0.0
 10
119.3819
 20
-33.0907
 30
0.0
 10
114.3464
 20
-44.5198
 30
0.0
 10
99.4861
 20
-40.1406
 30
0.0
 10
100.0795
 20
-31.8099
 30
0.0
 10
100.0795
 20
-31.8099
 30
0.0
 10
100.2442
 20
-29.4967
 30
0.0
 10
102.3776
 20
-27.9879
 30
0.0
 10
104.7523
 20
-27.7911
 30
0.0
 10
104.7523
 20
-27.7911
 30
0.0
 10
108.7077
 20
-27.4638
 30
0.0
 10
109.962
 20
-30.3597
 30
0.0
 10
111.2294
 20
-29.8065
 30
0.0
 10
111.2294
 20
-29.8065
 30
0.0
 10
112.6338
 20
-29.1922
 30
0.0
 10
111.0362
 20
-25.2557
 30
0.0
 10
107.1168
 20
-24.4905
 30
0.0
 10
107.1168
 20
-24.4905
 30
0.0
 10
104.9708
 20
-24.0722
 30
0.0
 10
102.6719
 20
-24.5069
 30
0.0
 10
100.8281
 20
-25.6002
 30
0.0
 10
100.8281
 20
-25.6002
 30
0.0
 10
94.3776
 20
-29.4253
 30
0.0
 10
96.7594
 20
-38.5317
 30
0.0
 10
105.0368
 20
-41.3002
 30
0.0
 10
105.0368
 20
-41.3002
 30
0.0
 10
103.1254
 20
-41.9804
 30
0.0
 10
101.5562
 20
-43.2126
 30
0.0
 10
100.6176
 20
-44.9289
 30
0.0
 10
100.6176
 20
-44.9289
 30
0.0
 10
99.6043
 20
-46.7802
 30
0.0
 10
99.4466
 20
-49.1014
 30
0.0
 10
100.548
 20
-50.953
 30
0.0
 10
100.548
 20
-50.953
 30
0.0
 10
101.2181
 20
-52.0807
 30
0.0
 10
102.2733
 20
-52.8741
 30
0.0
 10
103.4802
 20
-53.2936
 30
0.0
 10
103.4802
 20
-53.2936
 30
0.0
 10
103.9302
 20
-54.4193
 30
0.0
 10
104.7803
 20
-55.4032
 30
0.0
 10
105.9888
 20
-56.0287
 30
0.0
 10
105.9888
 20
-56.0287
 30
0.0
 10
107.9728
 20
-57.0561
 30
0.0
 10
110.4609
 20
-56.9092
 30
0.0
 10
112.4449
 20
-55.9645
 30
0.0
 10
112.4449
 20
-55.9645
 30
0.0
 10
114.2843
 20
-55.0878
 30
0.0
 10
115.6051
 20
-53.6238
 30
0.0
 10
116.3348
 20
-51.8408
 30
0.0
 10
116.3348
 20
-51.8408
 30
0.0
 10
117.3623
 20
-54.5155
 30
0.0
 10
119.2053
 20
-56.5304
 30
0.0
 10
121.3454
 20
-57.7718
 30
0.0
 10
121.3454
 20
-57.7718
 30
0.0
 10
121.3454
 20
-57.7718
 30
0.0
 10
121.3454
 20
-60.8521
 30
0.0
 10
121.3454
 20
-60.8521
 30
0.0
  0
SPLINE
  5
AA
330
1F
100
AcDbEntity
  8
layer 1
 62
     7
100
AcDbSpline
210
0.0
220
0.0
230
1.0
 70
    11
 71
     3
 72
    36
 73
    32
 74
     0
 42
0.0000000001
 43
0.0000000001
 12
1.0
 22
0.0
 32
0.0
 13
1.0
 23
0.0
 33
0.0
 40
0.0
 40
0.0
 40
0.0
 40
0.0
 40
0.1111111111111111
 40
0.1111111111111111
 40
0.1111111111111111
 40
0.1111111111111111
 40
0.2222222222222222
 40
0.2222222222222222
 40
0.2222222222222222
 40
0.2222222222222222
 40
0.3333333333333333
 40
0.3333333333333333
 40
0.3333333333333333
 40
0.3333333333333333
 40
0.4444444444444444
 40
0.4444444444444444
 40
0.4444444444444444
 40
0.4444444444444444
 40
0.5555555555555556
 40
0.5555555555555556
 40
0.5555555555555556
 40
0.5555555555555556
 40
0.6666666666666666
 40
0.6666666666666666
 40
0.6666666666666666
 40
0.6666666666666666
 40
0.7777777777777778
 40
0.7777777777777778
 40
0.7777777777777778
 40
0.7777777777777778
 40
1.0
 40
1.0
 40
1.0
 40
1.0
 10
121.3454
 20
-68.4213
 30
0.0
 10
120.4825
 20
-68.6193
 30
0.0
 10
119.6178
 20
-68.8109
 30
0.0
 10
118.7505
 20
-68.9937
 30
0.0
 10
118.7505
 20
-68.9937
 30
0.0
 10
117.6899
 20
-69.2172
 30
0.0
 10
116.3909
 20
-69.036
 30
0.0
 10
115.3388
 20
-68.7155
 30
0.0
 10
115.3388
 20
-68.7155
 30
0.0
 10
116.8459
 20
-68.8281
 30
0.0
 10
118.3894
 20
-67.3133
 30
0.0
 10
117.9201
 20
-65.67
 30
0.0
 10
117.9201
 20
-65.67
 30
0.0
 10
117.8692
 20
-65.3071
 30
0.0
 10
118.4302
 20
-63.8422
 30
0.0
 10
116.6966
 20
-62.8998
 30
0.0
 10
116.6966
 20
-62.8998
 30
0.0
 10
116.1444
 20
-62.5996
 30
0.0
 10
115.5197
 20
-62.5358
 30
0.0
 10
114.9315
 20
-62.7038
 30
0.0
 10
114.9315
 20
-62.7038
 30
0.0
 10
115.8461
 20
-62.3549
 30
0.0
 10
117.4279
 20
-62.0927
 30
0.0
 10
118.408
 20
-62.21
 30
0.0
 10
118.408
 20
-62.21
 30
0.0
 10
118.9686
 20
-62.2771
 30
0.0
 10
120.08
 20
-62.5186
 30
0.0
 10
121.3454
 20
-62.8188
 30
0.0
 10
121.3454
 20
-62.8188
 30
0.0
 10
121.3454
 20
-62.8188
 30
0.0
 10
121.3454
 20
-68.4213
 30
0.0
 10
121.3454
 20
-68.4213
 30
0.0
  0
SPLINE
  5
AB
330
1F
100
AcDbEntity
  8
layer 1
 62
     7
100
AcDbSpline
210
0.0
220
0.0
230
1.0
 70
    11
 71
     3
 72
   148
 73
   144
 74
     0
 42
0.0000000001
 43
0.0000000001
 12
1.0
 22
0.0
 32
0.0
 13
1.0
 23
0.0
 33
0.0
 40
0.0
 40
0.0
 40
0.0
 40
0.0
 40
0.027027027027027
 40
0.027027027027027
 40
0.027027027027027
 40
0.027027027027027
 40
0.0540540540540541
 40
0.0540540540540541
 40
0.0540540540540541
 40
0.0540540540540541
 40
0.0810810810810811
 40
0.0810810810810811
 40
0.0810810810810811
 40
0.0810810810810811
 40
0.1081081081081081
 40
0.1081081081081081
 40
0.1081081081081081
 40
0.1081081081081081
 40
0.1351351351351351
 40
0.1351351351351351
 40
0.1351351351351351
 40
0.1351351351351351
 40
0.1621621621621622
 40
0.1621621621621622
 40
0.1621621621621622
 40
0.1621621621621622
 40
0.1891891891891892
 40
0.1891891891891892
 40
0.1891891891891892
 40
0.1891891891891892
 40
0.2162162162162162
 40
0.2162162162162162
 40
0.2162162162162162
 40
0.2162162162162162
 40
0.2432432432432433
 40
0.2432432432432433
 40
0.2432432432432433
 40
0.2432432432432433
 40
0.2702702702702703
 40
0.2702702702702703
 40
0.2702702702702703
 40
0.2702702702702703
 40
0.2972972972972973
 40
0.2972972972972973
 40
0.2972972972972973
 40
0.2972972972972973
 40
0.3243243243243243
 40
0.3243243243243243
 40
0.3243243243243243
 40
0.3243243243243243
 40
0.3513513513513514
 40
0.3513513513513514
 40
0.3513513513513514
 40
0.3513513513513514
 40
0.3783783783783784
 40
0.3783783783783784
 40
0.3783783783783784
 40
0.3783783783783784
 40
0.4054054054054054
 40
0.4054054054054054
 40
0.4054054054054054
 40
0.4054054054054054
 40
0.4324324324324325
 40
0.4324324324324325
 40
0.4324324324324325
 40
0.4324324324324325
 40
0.4594594594594595
 40
0.4594594594594595
 40
0.4594594594594595
 40
0.4594594594594595
 40
0.4864864864864865
 40
0.4864864864864865
 40
0.4864864864864865
 40
0.4864864864864865
 40
0.5135135135135135
 40
0.5135135135135135
 40
0.5135135135135135
 40
0.5135135135135135
 40
0.5405405405405406
 40
0.5405405405405406
 40
0.5405405405405406
 40
0.5405405405405406
 40
0.5675675675675675
 40
0.5675675675675675
 40
0.5675675675675675
 40
0.5675675675675675
 40
0.5945945945945946
 40
0.5945945945945946
 40
0.5945945945945946
 40
0.5945945945945946
 40
0.6216216216216216
 40
0.6216216216216216
 40
0.6216216216216216
 40
0.6216216216216216
 40
0.6486486486486487
 40
0.6486486486486487
 40
0.6486486486486487
 40
0.6486486486486487
 40
0.6756756756756757
 40
0.6756756756756757
 40
0.6756756756756757
 40
0.6756756756756757
 40
0.7027027027027027
 40
0.7027027027027027
 40
0.7027027027027027
 40
0.7027027027027027
 40
0.7297297297297297
 40
0.7297297297297297
 40
0.7297297297297297
 40
0.7297297297297297
 40
0.7567567567567568
 40
0.7567567567567568
 40
0.7567567567567568
 40
0.7567567567567568
 40
0.7837837837837838
 40
0.7837837837837838
 40
0.7837837837837838
 40
0.7837837837837838
 40
0.8108108108108109
 40
0.8108108108108109
 40
0.8108108108108109
 40
0.8108108108108109
 40
0.8378378378378378
 40
0.8378378378378378
 40
0.8378378378378378
 40
0.8378378378378378
 40
0.8648648648648649
 40
0.8648648648648649
 40
0.8648648648648649
 40
0.8648648648648649
 40
0.8918918918918919
 40
0.8918918918918919
 40
0.8918918918918919
 40
0.8918918918918919
 40
0.918918918918919
 40
0.918918918918919
 40
0.918918918918919
 40
0.918918918918919
 40
0.9459459459459459
 40
0.9459459459459459
 40
0.9459459459459459
 40
0.9459459459459459
 40
1.0
 40
1.0
 40
1.0
 40
1.0
 10
101.367
 20
-108.6432
 30
0.0
 10
101.1948
 20
-108.3007
 30
0.0
 10
100.9724
 20
-107.9627
 30
0.0
 10
100.6951
 20
-107.6342
 30
0.0
 10
100.6951
 20
-107.6342
 30
0.0
 10
98.3456
 20
-104.8532
 30
0.0
 10
94.3511
 20
-105.9373
 30
0.0
 10
92.294
 20
-108.6432
 30
0.0
 10
92.294
 20
-108.6432
 30
0.0
 10
92.294
 20
-108.6432
 30
0.0
 10
91.3233
 20
-108.6432
 30
0.0
 10
91.3233
 20
-108.6432
 30
0.0
 10
91.3233
 20
-108.6432
 30
0.0
 10
91.7575
 20
-106.9536
 30
0.0
 10
94.2373
 20
-98.7992
 30
0.0
 10
94.7639
 20
-96.9363
 30
0.0
 10
94.7639
 20
-96.9363
 30
0.0
 10
95.5952
 20
-93.999
 30
0.0
 10
96.3932
 20
-91.0452
 30
0.0
 10
96.9
 20
-88.0411
 30
0.0
 10
96.9
 20
-88.0411
 30
0.0
 10
97.8987
 20
-82.1252
 30
0.0
 10
97.4524
 20
-75.9471
 30
0.0
 10
95.2092
 20
-70.3142
 30
0.0
 10
95.2092
 20
-70.3142
 30
0.0
 10
96.1395
 20
-70.685
 30
0.0
 10
97.1007
 20
-70.9899
 30
0.0
 10
98.0801
 20
-71.2306
 30
0.0
 10
98.0801
 20
-71.2306
 30
0.0
 10
106.2737
 20
-73.24
 30
0.0
 10
113.627
 20
-72.2133
 30
0.0
 10
121.3454
 20
-70.4259
 30
0.0
 10
121.3454
 20
-70.4259
 30
0.0
 10
121.3454
 20
-70.4259
 30
0.0
 10
121.3454
 20
-73.6598
 30
0.0
 10
121.3454
 20
-73.6598
 30
0.0
 10
121.3454
 20
-73.6598
 30
0.0
 10
121.17
 20
-73.7633
 30
0.0
 10
120.9981
 20
-73.8714
 30
0.0
 10
120.8298
 20
-73.9836
 30
0.0
 10
120.8298
 20
-73.9836
 30
0.0
 10
118.7549
 20
-75.3659
 30
0.0
 10
117.2438
 20
-77.3273
 30
0.0
 10
116.4071
 20
-79.5634
 30
0.0
 10
116.4071
 20
-79.5634
 30
0.0
 10
114.12
 20
-73.6834
 30
0.0
 10
106.0418
 20
-72.7721
 30
0.0
 10
103.5912
 20
-77.5473
 30
0.0
 10
103.5912
 20
-77.5473
 30
0.0
 10
103.4968
 20
-77.7309
 30
0.0
 10
103.4158
 20
-77.9165
 30
0.0
 10
103.3463
 20
-78.1037
 30
0.0
 10
103.3463
 20
-78.1037
 30
0.0
 10
102.1954
 20
-78.5344
 30
0.0
 10
101.1936
 20
-79.3103
 30
0.0
 10
100.548
 20
-80.3957
 30
0.0
 10
100.548
 20
-80.3957
 30
0.0
 10
99.4466
 20
-82.2469
 30
0.0
 10
99.6043
 20
-84.5688
 30
0.0
 10
100.6176
 20
-86.4201
 30
0.0
 10
100.6176
 20
-86.4201
 30
0.0
 10
101.5562
 20
-88.1365
 30
0.0
 10
103.1254
 20
-89.3683
 30
0.0
 10
105.0368
 20
-90.0489
 30
0.0
 10
105.0368
 20
-90.0489
 30
0.0
 10
96.7594
 20
-92.8166
 30
0.0
 10
94.3776
 20
-101.9238
 30
0.0
 10
100.8281
 20
-105.7485
 30
0.0
 10
100.8281
 20
-105.7485
 30
0.0
 10
102.6719
 20
-106.8422
 30
0.0
 10
104.9708
 20
-107.2769
 30
0.0
 10
107.1168
 20
-106.8582
 30
0.0
 10
107.1168
 20
-106.8582
 30
0.0
 10
111.0362
 20
-106.0934
 30
0.0
 10
112.6338
 20
-102.1561
 30
0.0
 10
111.2294
 20
-101.5426
 30
0.0
 10
111.2294
 20
-101.5426
 30
0.0
 10
109.962
 20
-100.989
 30
0.0
 10
108.7077
 20
-103.8852
 30
0.0
 10
104.7523
 20
-103.5575
 30
0.0
 10
104.7523
 20
-103.5575
 30
0.0
 10
102.3776
 20
-103.3608
 30
0.0
 10
100.2442
 20
-101.8524
 30
0.0
 10
100.0795
 20
-99.5388
 30
0.0
 10
100.0795
 20
-99.5388
 30
0.0
 10
99.4861
 20
-91.2085
 30
0.0
 10
114.3464
 20
-86.8293
 30
0.0
 10
119.3819
 20
-98.258
 30
0.0
 10
119.3819
 20
-98.258
 30
0.0
 10
120.8436
 20
-101.5753
 30
0.0
 10
120.6133
 20
-105.2496
 30
0.0
 10
119.5249
 20
-108.6432
 30
0.0
 10
119.5249
 20
-108.6432
 30
0.0
 10
119.5249
 20
-108.6432
 30
0.0
 10
117.3987
 20
-108.6432
 30
0.0
 10
117.3987
 20
-108.6432
 30
0.0
 10
117.3987
 20
-108.6432
 30
0.0
 10
116.3604
 20
-107.8193
 30
0.0
 10
114.903
 20
-107.6693
 30
0.0
 10
113.5998
 20
-108.6432
 30
0.0
 10
113.5998
 20
-108.6432
 30
0.0
 10
113.5998
 20
-108.6432
 30
0.0
 10
113.4488
 20
-108.6432
 30
0.0
 10
113.4488
 20
-108.6432
 30
0.0
 10
113.4488
 20
-108.6432
 30
0.0
 10
114.4957
 20
-107.4673
 30
0.0
 10
115.5044
 20
-106.2207
 30
0.0
 10
116.1404
 20
-104.8564
 30
0.0
 10
116.1404
 20
-104.8564
 30
0.0
 10
117.6646
 20
-101.5881
 30
0.0
 10
116.8677
 20
-96.8521
 30
0.0
 10
113.42
 20
-94.8967
 30
0.0
 10
113.42
 20
-94.8967
 30
0.0
 10
109.1502
 20
-92.4754
 30
0.0
 10
103.4261
 20
-94.4764
 30
0.0
 10
103.2151
 20
-98.891
 30
0.0
 10
103.2151
 20
-98.891
 30
0.0
 10
103.0567
 20
-102.2084
 30
0.0
 10
106.6063
 20
-103.5603
 30
0.0
 10
106.4929
 20
-101.3849
 30
0.0
 10
106.4929
 20
-101.3849
 30
0.0
 10
106.4333
 20
-100.2365
 30
0.0
 10
106.3744
 20
-99.348
 30
0.0
 10
107.2495
 20
-98.3957
 30
0.0
 10
107.2495
 20
-98.3957
 30
0.0
 10
108.1574
 20
-97.4073
 30
0.0
 10
108.6804
 20
-96.9167
 30
0.0
 10
110.1252
 20
-96.7775
 30
0.0
 10
110.1252
 20
-96.7775
 30
0.0
 10
112.9945
 20
-96.4997
 30
0.0
 10
114.3472
 20
-98.1957
 30
0.0
 10
114.6309
 20
-100.6776
 30
0.0
 10
114.6309
 20
-100.6776
 30
0.0
 10
114.9749
 20
-103.6857
 30
0.0
 10
113.5962
 20
-105.5098
 30
0.0
 10
111.6063
 20
-107.6996
 30
0.0
 10
111.6063
 20
-107.6996
 30
0.0
 10
111.3241
 20
-108.0102
 30
0.0
 10
111.0421
 20
-108.3246
 30
0.0
 10
110.7616
 20
-108.6432
 30
0.0
 10
110.7616
 20
-108.6432
 30
0.0
 10
110.7616
 20
-108.6432
 30
0.0
 10
101.367
 20
-108.6432
 30
0.0
 10
101.367
 20
-108.6432
 30
0.0
  0
SPLINE
  5
AC
330
1F
100
AcDbEntity
  8
layer 1
 62
     7
100
AcDbSpline
210
0.0
220
0.0
230
1.0
 70
    11
 71
     3
 72
    12
 73
     8
 74
     0
 42
0.0000000001
 43
0.0000000001
 12
1.0
 22
0.0
 32
0.0
 13
1.0
 23
0.0
 33
0.0
 40
0.0
 40
0.0
 40
0.0
 40
0.0
 40
0.3333333333333333
 40
0.3333333333333333
 40
0.3333333333333333
 40
0.3333333333333333
 40
1.0
 40
1.0
 40
1.0
 40
1.0
 10
94.7074
 20
-108.6432
 30
0.0
 10
96.0558
 20
-107.6385
 30
0.0
 10
97.8877
 20
-107.2034
 30
0.0
 10
99.146
 20
-108.6432
 30
0.0
 10
99.146
 20
-108.6432
 30
0.0
 10
99.146
 20
-108.6432
 30
0.0
 10
94.7074
 20
-108.6432
 30
0.0
 10
94.7074
 20
-108.6432
 30
0.0
  0
SPLINE
  5
AD
330
1F
100
AcDbEntity
  8
layer 1
 62
     7
100
AcDbSpline
210
0.0
220
0.0
230
1.0
 70
    11
 71
     3
 72
    12
 73
     8
 74
     0
 42
0.0000000001
 43
0.0000000001
 12
1.0
 22
0.0
 32
0.0
 13
1.0
 23
0.0
 33
0.0
 40
0.0
 40
0.0
 40
0.0
 40
0.0
 40
0.3333333333333333
 40
0.3333333333333333
 40
0.3333333333333333
 40
0.3333333333333333
 40
1.0
 40
1.0
 40
1.0
 40
1.0
 10
81.3195
 20
-108.6432
 30
0.0
 10
82.6177
 20
-107.1296
 30
0.0
 10
84.4975
 20
-107.5619
 30
0.0
 10
85.9019
 20
-108.6432
 30
0.0
 10
85.9019
 20
-108.6432
 30
0.0
 10
85.9019
 20
-108.6432
 30
0.0
 10
81.3195
 20
-108.6432
 30
0.0
 10
81.3195
 20
-108.6432
 30
0.0
  0
SPLINE
  5
AE
330
1F
100
AcDbEntity
  8
layer 1
 62
     7
100
AcDbSpline
210
0.0
220
0.0
230
1.0
 70
    11
 71
     3
 72
   156
 73
   152
 74
     0
 42
0.0000000001
 43
0.0000000001
 12
1.0
 22
0.0
 32
0.0
 13
1.0
 23
0.0
 33
0.0
 40
0.0
 40
0.0
 40
0.0
 40
0.0
 40
0.0256410256410256
 40
0.0256410256410256
 40
0.0256410256410256
 40
0.0256410256410256
 40
0.0512820512820513
 40
0.0512820512820513
 40
0.0512820512820513
 40
0.0512820512820513
 40
0.0769230769230769
 40
0.0769230769230769
 40
0.0769230769230769
 40
0.0769230769230769
 40
0.1025641025641026
 40
0.1025641025641026
 40
0.1025641025641026
 40
0.1025641025641026
 40
0.1282051282051282
 40
0.1282051282051282
 40
0.1282051282051282
 40
0.1282051282051282
 40
0.1538461538461539
 40
0.1538461538461539
 40
0.1538461538461539
 40
0.1538461538461539
 40
0.1794871794871795
 40
0.1794871794871795
 40
0.1794871794871795
 40
0.1794871794871795
 40
0.2051282051282051
 40
0.2051282051282051
 40
0.2051282051282051
 40
0.2051282051282051
 40
0.2307692307692308
 40
0.2307692307692308
 40
0.2307692307692308
 40
0.2307692307692308
 40
0.2564102564102564
 40
0.2564102564102564
 40
0.2564102564102564
 40
0.2564102564102564
 40
0.282051282051282
 40
0.282051282051282
 40
0.282051282051282
 40
0.282051282051282
 40
0.3076923076923077
 40
0.3076923076923077
 40
0.3076923076923077
 40
0.3076923076923077
 40
0.3333333333333333
 40
0.3333333333333333
 40
0.3333333333333333
 40
0.3333333333333333
 40
0.358974358974359
 40
0.358974358974359
 40
0.358974358974359
 40
0.358974358974359
 40
0.3846153846153846
 40
0.3846153846153846
 40
0.3846153846153846
 40
0.3846153846153846
 40
0.4102564102564102
 40
0.4102564102564102
 40
0.4102564102564102
 40
0.4102564102564102
 40
0.4358974358974359
 40
0.4358974358974359
 40
0.4358974358974359
 40
0.4358974358974359
 40
0.4615384615384616
 40
0.4615384615384616
 40
0.4615384615384616
 40
0.4615384615384616
 40
0.4871794871794872
 40
0.4871794871794872
 40
0.4871794871794872
 40
0.4871794871794872
 40
0.5128205128205128
 40
0.5128205128205128
 40
0.5128205128205128
 40
0.5128205128205128
 40
0.5384615384615384
 40
0.5384615384615384
 40
0.5384615384615384
 40
0.5384615384615384
 40
0.5641025641025641
 40
0.5641025641025641
 40
0.5641025641025641
 40
0.5641025641025641
 40
0.5897435897435898
 40
0.5897435897435898
 40
0.5897435897435898
 40
0.5897435897435898
 40
0.6153846153846154
 40
0.6153846153846154
 40
0.6153846153846154
 40
0.6153846153846154
 40
0.6410256410256411
 40
0.6410256410256411
 40
0.6410256410256411
 40
0.6410256410256411
 40
0.6666666666666666
 40
0.6666666666666666
 40
0.6666666666666666
 40
0.6666666666666666
 40
0.6923076923076923
 40
0.6923076923076923
 40
0.6923076923076923
 40
0.6923076923076923
 40
0.717948717948718
 40
0.717948717948718
 40
0.717948717948718
 40
0.717948717948718
 40
0.7435897435897436
 40
0.7435897435897436
 40
0.7435897435897436
 40
0.7435897435897436
 40
0.7692307692307693
 40
0.7692307692307693
 40
0.7692307692307693
 40
0.7692307692307693
 40
0.7948717948717948
 40
0.7948717948717948
 40
0.7948717948717948
 40
0.7948717948717948
 40
0.8205128205128205
 40
0.8205128205128205
 40
0.8205128205128205
 40
0.8205128205128205
 40
0.8461538461538461
 40
0.8461538461538461
 40
0.8461538461538461
 40
0.8461538461538461
 40
0.8717948717948718
 40
0.8717948717948718
 40
0.8717948717948718
 40
0.8717948717948718
 40
0.8974358974358975
 40
0.8974358974358975
 40
0.8974358974358975
 40
0.8974358974358975
 40
0.9230769230769231
 40
0.9230769230769231
 40
0.9230769230769231
 40
0.9230769230769231
 40
0.9487179487179487
 40
0.9487179487179487
 40
0.9487179487179487
 40
0.9487179487179487
 40
1.0
 40
1.0
 40
1.0
 40
1.0
 10
59.0008
 20
-70.4084
 30
0.0
 10
66.7464
 20
-72.2062
 30
0.0
 10
74.1207
 20
-73.2463
 30
0.0
 10
82.3408
 20
-71.2306
 30
0.0
 10
82.3408
 20
-71.2306
 30
0.0
 10
83.3359
 20
-70.9863
 30
0.0
 10
84.3121
 20
-70.6753
 30
0.0
 10
85.2567
 20
-70.2962
 30
0.0
 10
85.2567
 20
-70.2962
 30
0.0
 10
84.8503
 20
-71.1775
 30
0.0
 10
84.5172
 20
-72.088
 30
0.0
 10
84.2552
 20
-73.0172
 30
0.0
 10
84.2552
 20
-73.0172
 30
0.0
 10
81.6336
 20
-82.3236
 30
0.0
 10
83.833
 20
-90.4668
 30
0.0
 10
86.4569
 20
-99.4785
 30
0.0
 10
86.4569
 20
-99.4785
 30
0.0
 10
87.3431
 20
-102.5349
 30
0.0
 10
88.2829
 20
-105.5777
 30
0.0
 10
89.1292
 20
-108.6432
 30
0.0
 10
89.1292
 20
-108.6432
 30
0.0
 10
89.1292
 20
-108.6432
 30
0.0
 10
88.3051
 20
-108.6432
 30
0.0
 10
88.3051
 20
-108.6432
 30
0.0
 10
88.3051
 20
-108.6432
 30
0.0
 10
86.2733
 20
-105.9549
 30
0.0
 10
82.2515
 20
-104.7331
 30
0.0
 10
79.8211
 20
-107.5731
 30
0.0
 10
79.8211
 20
-107.5731
 30
0.0
 10
79.528
 20
-107.9151
 30
0.0
 10
79.2957
 20
-108.2748
 30
0.0
 10
79.1187
 20
-108.6432
 30
0.0
 10
79.1187
 20
-108.6432
 30
0.0
 10
79.1187
 20
-108.6432
 30
0.0
 10
69.6818
 20
-108.6432
 30
0.0
 10
69.6818
 20
-108.6432
 30
0.0
 10
69.6818
 20
-108.6432
 30
0.0
 10
68.2528
 20
-107.0207
 30
0.0
 10
66.9854
 20
-105.596
 30
0.0
 10
66.2906
 20
-104.0393
 30
0.0
 10
66.2906
 20
-104.0393
 30
0.0
 10
65.5451
 20
-102.3684
 30
0.0
 10
65.6375
 20
-100.1408
 30
0.0
 10
66.5079
 20
-98.5246
 30
0.0
 10
66.5079
 20
-98.5246
 30
0.0
 10
67.5658
 20
-96.5607
 30
0.0
 10
70.5395
 20
-96.2059
 30
0.0
 10
72.3098
 20
-97.5259
 30
0.0
 10
72.3098
 20
-97.5259
 30
0.0
 10
72.6578
 20
-97.7858
 30
0.0
 10
72.9118
 20
-98.141
 30
0.0
 10
73.1955
 20
-98.4579
 30
0.0
 10
73.1955
 20
-98.4579
 30
0.0
 10
74.5055
 20
-99.9208
 30
0.0
 10
73.5348
 20
-101.638
 30
0.0
 10
74.0903
 20
-102.1861
 30
0.0
 10
74.0903
 20
-102.1861
 30
0.0
 10
75.0879
 20
-103.1712
 30
0.0
 10
77.1987
 20
-101.2548
 30
0.0
 10
77.1658
 20
-99.0215
 30
0.0
 10
77.1658
 20
-99.0215
 30
0.0
 10
77.0928
 20
-94.1055
 30
0.0
 10
70.7694
 20
-92.6026
 30
0.0
 10
66.8547
 20
-95.0423
 30
0.0
 10
66.8547
 20
-95.0423
 30
0.0
 10
63.6266
 20
-97.0541
 30
0.0
 10
62.8563
 20
-101.5925
 30
0.0
 10
64.305
 20
-104.773
 30
0.0
 10
64.305
 20
-104.773
 30
0.0
 10
64.9422
 20
-106.1717
 30
0.0
 10
65.9742
 20
-107.4449
 30
0.0
 10
67.0364
 20
-108.6432
 30
0.0
 10
67.0364
 20
-108.6432
 30
0.0
 10
67.0364
 20
-108.6432
 30
0.0
 10
66.8128
 20
-108.6432
 30
0.0
 10
66.8128
 20
-108.6432
 30
0.0
 10
66.8128
 20
-108.6432
 30
0.0
 10
66.2574
 20
-108.2528
 30
0.0
 10
65.5775
 20
-108.0193
 30
0.0
 10
64.8431
 20
-108.0429
 30
0.0
 10
64.8431
 20
-108.0429
 30
0.0
 10
64.1675
 20
-108.0648
 30
0.0
 10
63.5792
 20
-108.2884
 30
0.0
 10
63.1001
 20
-108.6432
 30
0.0
 10
63.1001
 20
-108.6432
 30
0.0
 10
63.1001
 20
-108.6432
 30
0.0
 10
60.9339
 20
-108.6432
 30
0.0
 10
60.9339
 20
-108.6432
 30
0.0
 10
60.9339
 20
-108.6432
 30
0.0
 10
60.3658
 20
-106.9064
 30
0.0
 10
60.0237
 20
-105.0991
 30
0.0
 10
60.0427
 20
-103.2921
 30
0.0
 10
60.0427
 20
-103.2921
 30
0.0
 10
60.111
 20
-96.7084
 30
0.0
 10
65.2654
 20
-90.2349
 30
0.0
 10
72.9363
 20
-91.6139
 30
0.0
 10
72.9363
 20
-91.6139
 30
0.0
 10
80.3738
 20
-92.9515
 30
0.0
 10
83.1519
 20
-101.5099
 30
0.0
 10
76.8514
 20
-103.3639
 30
0.0
 10
76.8514
 20
-103.3639
 30
0.0
 10
75.7124
 20
-103.6988
 30
0.0
 10
74.8081
 20
-103.6521
 30
0.0
 10
73.6565
 20
-103.4146
 30
0.0
 10
73.6565
 20
-103.4146
 30
0.0
 10
71.4141
 20
-102.9516
 30
0.0
 10
70.0705
 20
-100.979
 30
0.0
 10
69.0809
 20
-101.5941
 30
0.0
 10
69.0809
 20
-101.5941
 30
0.0
 10
67.953
 20
-102.2942
 30
0.0
 10
69.4199
 20
-104.6241
 30
0.0
 10
70.3711
 20
-105.442
 30
0.0
 10
70.3711
 20
-105.442
 30
0.0
 10
74.2949
 20
-108.8149
 30
0.0
 10
81.5942
 20
-106.477
 30
0.0
 10
83.0009
 20
-101.5359
 30
0.0
 10
83.0009
 20
-101.5359
 30
0.0
 10
83.7156
 20
-99.0239
 30
0.0
 10
82.8923
 20
-96.3176
 30
0.0
 10
81.3045
 20
-94.2428
 30
0.0
 10
81.3045
 20
-94.2428
 30
0.0
 10
79.8231
 20
-92.3073
 30
0.0
 10
77.7209
 20
-90.8975
 30
0.0
 10
75.3245
 20
-90.1163
 30
0.0
 10
75.3245
 20
-90.1163
 30
0.0
 10
81.6261
 20
-87.9828
 30
0.0
 10
82.6031
 20
-80.4456
 30
0.0
 10
77.4847
 20
-78.1588
 30
0.0
 10
77.4847
 20
-78.1588
 30
0.0
 10
77.3334
 20
-78.0909
 30
0.0
 10
77.1797
 20
-78.031
 30
0.0
 10
77.0256
 20
-77.9768
 30
0.0
 10
77.0256
 20
-77.9768
 30
0.0
 10
76.9676
 20
-77.8326
 30
0.0
 10
76.9027
 20
-77.6894
 30
0.0
 10
76.8301
 20
-77.5473
 30
0.0
 10
76.8301
 20
-77.5473
 30
0.0
 10
74.3791
 20
-72.7721
 30
0.0
 10
66.3009
 20
-73.6834
 30
0.0
 10
64.0138
 20
-79.5634
 30
0.0
 10
64.0138
 20
-79.5634
 30
0.0
 10
63.177
 20
-77.3273
 30
0.0
 10
61.666
 20
-75.3659
 30
0.0
 10
59.5915
 20
-73.9836
 30
0.0
 10
59.5915
 20
-73.9836
 30
0.0
 10
59.3994
 20
-73.8554
 30
0.0
 10
59.2023
 20
-73.7329
 30
0.0
 10
59.0008
 20
-73.6163
 30
0.0
 10
59.0008
 20
-73.6163
 30
0.0
 10
59.0008
 20
-73.6163
 30
0.0
 10
59.0008
 20
-70.4084
 30
0.0
 10
59.0008
 20
-70.4084
 30
0.0
  0
SPLINE
  5
AF
330
1F
100
AcDbEntity
  8
layer 1
 62
     7
100
AcDbSpline
210
0.0
220
0.0
230
1.0
 70
    11
 71
     3
 72
    36
 73
    32
 74
     0
 42
0.0000000001
 43
0.0000000001
 12
1.0
 22
0.0
 32
0.0
 13
1.0
 23
0.0
 33
0.0
 40
0.0
 40
0.0
 40
0.0
 40
0.0
 40
0.1111111111111111
 40
0.1111111111111111
 40
0.1111111111111111
 40
0.1111111111111111
 40
0.2222222222222222
 40
0.2222222222222222
 40
0.2222222222222222
 40
0.2222222222222222
 40
0.3333333333333333
 40
0.3333333333333333
 40
0.3333333333333333
 40
0.3333333333333333
 40
0.4444444444444444
 40
0.4444444444444444
 40
0.4444444444444444
 40
0.4444444444444444
 40
0.5555555555555556
 40
0.5555555555555556
 40
0.5555555555555556
 40
0.5555555555555556
 40
0.6666666666666666
 40
0.6666666666666666
 40
0.6666666666666666
 40
0.6666666666666666
 40
0.7777777777777778
 40
0.7777777777777778
 40
0.7777777777777778
 40
0.7777777777777778
 40
1.0
 40
1.0
 40
1.0
 40
1.0
 10
59.0008
 20
-62.8368
 30
0.0
 10
60.297
 20
-62.5285
 30
0.0
 10
61.4411
 20
-62.2783
 30
0.0
 10
62.0136
 20
-62.21
 30
0.0
 10
62.0136
 20
-62.21
 30
0.0
 10
62.993
 20
-62.0927
 30
0.0
 10
64.5748
 20
-62.3549
 30
0.0
 10
65.4894
 20
-62.7038
 30
0.0
 10
65.4894
 20
-62.7038
 30
0.0
 10
64.9011
 20
-62.5358
 30
0.0
 10
64.2766
 20
-62.5996
 30
0.0
 10
63.7243
 20
-62.8998
 30
0.0
 10
63.7243
 20
-62.8998
 30
0.0
 10
61.9907
 20
-63.8422
 30
0.0
 10
62.5521
 20
-65.3071
 30
0.0
 10
62.5008
 20
-65.67
 30
0.0
 10
62.5008
 20
-65.67
 30
0.0
 10
62.0314
 20
-67.3133
 30
0.0
 10
63.5749
 20
-68.8281
 30
0.0
 10
65.0825
 20
-68.7155
 30
0.0
 10
65.0825
 20
-68.7155
 30
0.0
 10
64.0304
 20
-69.036
 30
0.0
 10
62.731
 20
-69.2172
 30
0.0
 10
61.6703
 20
-68.9937
 30
0.0
 10
61.6703
 20
-68.9937
 30
0.0
 10
60.7786
 20
-68.8053
 30
0.0
 10
59.889
 20
-68.6082
 30
0.0
 10
59.0008
 20
-68.4042
 30
0.0
 10
59.0008
 20
-68.4042
 30
0.0
 10
59.0008
 20
-68.4042
 30
0.0
 10
59.0008
 20
-62.8368
 30
0.0
 10
59.0008
 20
-62.8368
 30
0.0
  0
SPLINE
  5
B0
330
1F
100
AcDbEntity
  8
layer 1
 62
     7
100
AcDbSpline
210
0.0
220
0.0
230
1.0
 70
    11
 71
     3
 72
   268
 73
   264
 74
     0
 42
0.0000000001
 43
0.0000000001
 12
1.0
 22
0.0
 32
0.0
 13
1.0
 23
0.0
 33
0.0
 40
0.0
 40
0.0
 40
0.0
 40
0.0
 40
0.0149253731343284
 40
0.0149253731343284
 40
0.0149253731343284
 40
0.0149253731343284
 40
0.0298507462686567
 40
0.0298507462686567
 40
0.0298507462686567
 40
0.0298507462686567
 40
0.0447761194029851
 40
0.0447761194029851
 40
0.0447761194029851
 40
0.0447761194029851
 40
0.0597014925373134
 40
0.0597014925373134
 40
0.0597014925373134
 40
0.0597014925373134
 40
0.0746268656716418
 40
0.0746268656716418
 40
0.0746268656716418
 40
0.0746268656716418
 40
0.0895522388059701
 40
0.0895522388059701
 40
0.0895522388059701
 40
0.0895522388059701
 40
0.1044776119402985
 40
0.1044776119402985
 40
0.1044776119402985
 40
0.1044776119402985
 40
0.1194029850746269
 40
0.1194029850746269
 40
0.1194029850746269
 40
0.1194029850746269
 40
0.1343283582089552
 40
0.1343283582089552
 40
0.1343283582089552
 40
0.1343283582089552
 40
0.1492537313432836
 40
0.1492537313432836
 40
0.1492537313432836
 40
0.1492537313432836
 40
0.1641791044776119
 40
0.1641791044776119
 40
0.1641791044776119
 40
0.1641791044776119
 40
0.1791044776119403
 40
0.1791044776119403
 40
0.1791044776119403
 40
0.1791044776119403
 40
0.1940298507462687
 40
0.1940298507462687
 40
0.1940298507462687
 40
0.1940298507462687
 40
0.208955223880597
 40
0.208955223880597
 40
0.208955223880597
 40
0.208955223880597
 40
0.2238805970149254
 40
0.2238805970149254
 40
0.2238805970149254
 40
0.2238805970149254
 40
0.2388059701492537
 40
0.2388059701492537
 40
0.2388059701492537
 40
0.2388059701492537
 40
0.2537313432835821
 40
0.2537313432835821
 40
0.2537313432835821
 40
0.2537313432835821
 40
0.2686567164179104
 40
0.2686567164179104
 40
0.2686567164179104
 40
0.2686567164179104
 40
0.2835820895522388
 40
0.2835820895522388
 40
0.2835820895522388
 40
0.2835820895522388
 40
0.2985074626865671
 40
0.2985074626865671
 40
0.2985074626865671
 40
0.2985074626865671
 40
0.3134328358208955
 40
0.3134328358208955
 40
0.3134328358208955
 40
0.3134328358208955
 40
0.3283582089552239
 40
0.3283582089552239
 40
0.3283582089552239
 40
0.3283582089552239
 40
0.3432835820895522
 40
0.3432835820895522
 40
0.3432835820895522
 40
0.3432835820895522
 40
0.3582089552238806
 40
0.3582089552238806
 40
0.3582089552238806
 40
0.3582089552238806
 40
0.373134328358209
 40
0.373134328358209
 40
0.373134328358209
 40
0.373134328358209
 40
0.3880597014925373
 40
0.3880597014925373
 40
0.3880597014925373
 40
0.3880597014925373
 40
0.4029850746268657
 40
0.4029850746268657
 40
0.4029850746268657
 40
0.4029850746268657
 40
0.417910447761194
 40
0.417910447761194
 40
0.417910447761194
 40
0.417910447761194
 40
0.4328358208955224
 40
0.4328358208955224
 40
0.4328358208955224
 40
0.4328358208955224
 40
0.4477611940298508
 40
0.4477611940298508
 40
0.4477611940298508
 40
0.4477611940298508
 40
0.4626865671641791
 40
0.4626865671641791
 40
0.4626865671641791
 40
0.4626865671641791
 40
0.4776119402985075
 40
0.4776119402985075
 40
0.4776119402985075
 40
0.4776119402985075
 40
0.4925373134328358
 40
0.4925373134328358
 40
0.4925373134328358
 40
0.4925373134328358
 40
0.5074626865671642
 40
0.5074626865671642
 40
0.5074626865671642
 40
0.5074626865671642
 40
0.5223880597014925
 40
0.5223880597014925
 40
0.5223880597014925
 40
0.5223880597014925
 40
0.5373134328358209
 40
0.5373134328358209
 40
0.5373134328358209
 40
0.5373134328358209
 40
0.5522388059701493
 40
0.5522388059701493
 40
0.5522388059701493
 40
0.5522388059701493
 40
0.5671641791044776
 40
0.5671641791044776
 40
0.5671641791044776
 40
0.5671641791044776
 40
0.582089552238806
 40
0.582089552238806
 40
0.582089552238806
 40
0.582089552238806
 40
0.5970149253731343
 40
0.5970149253731343
 40
0.5970149253731343
 40
0.5970149253731343
 40
0.6119402985074627
 40
0.6119402985074627
 40
0.6119402985074627
 40
0.6119402985074627
 40
0.6268656716417911
 40
0.6268656716417911
 40
0.6268656716417911
 40
0.6268656716417911
 40
0.6417910447761194
 40
0.6417910447761194
 40
0.6417910447761194
 40
0.6417910447761194
 40
0.6567164179104478
 40
0.6567164179104478
 40
0.6567164179104478
 40
0.6567164179104478
 40
0.6716417910447762
 40
0.6716417910447762
 40
0.6716417910447762
 40
0.6716417910447762
 40
0.6865671641791045
 40
0.6865671641791045
 40
0.6865671641791045
 40
0.6865671641791045
 40
0.7014925373134329
 40
0.7014925373134329
 40
0.7014925373134329
 40
0.7014925373134329
 40
0.7164179104477612
 40
0.7164179104477612
 40
0.7164179104477612
 40
0.7164179104477612
 40
0.7313432835820896
 40
0.7313432835820896
 40
0.7313432835820896
 40
0.7313432835820896
 40
0.746268656716418
 40
0.746268656716418
 40
0.746268656716418
 40
0.746268656716418
 40
0.7611940298507462
 40
0.7611940298507462
 40
0.7611940298507462
 40
0.7611940298507462
 40
0.7761194029850746
 40
0.7761194029850746
 40
0.7761194029850746
 40
0.7761194029850746
 40
0.7910447761194029
 40
0.7910447761194029
 40
0.7910447761194029
 40
0.7910447761194029
 40
0.8059701492537313
 40
0.8059701492537313
 40
0.8059701492537313
 40
0.8059701492537313
 40
0.8208955223880597
 40
0.8208955223880597
 40
0.8208955223880597
 40
0.8208955223880597
 40
0.835820895522388
 40
0.835820895522388
 40
0.835820895522388
 40
0.835820895522388
 40
0.8507462686567164
 40
0.8507462686567164
 40
0.8507462686567164
 40
0.8507462686567164
 40
0.8656716417910447
 40
0.8656716417910447
 40
0.8656716417910447
 40
0.8656716417910447
 40
0.8805970149253731
 40
0.8805970149253731
 40
0.8805970149253731
 40
0.8805970149253731
 40
0.8955223880597015
 40
0.8955223880597015
 40
0.8955223880597015
 40
0.8955223880597015
 40
0.9104477611940298
 40
0.9104477611940298
 40
0.9104477611940298
 40
0.9104477611940298
 40
0.9253731343283582
 40
0.9253731343283582
 40
0.9253731343283582
 40
0.9253731343283582
 40
0.9402985074626866
 40
0.9402985074626866
 40
0.9402985074626866
 40
0.9402985074626866
 40
0.9552238805970149
 40
0.9552238805970149
 40
0.9552238805970149
 40
0.9552238805970149
 40
0.9701492537313433
 40
0.9701492537313433
 40
0.9701492537313433
 40
0.9701492537313433
 40
1.0
 40
1.0
 40
1.0
 40
1.0
 10
59.0008
 20
-57.8153
 30
0.0
 10
61.1729
 20
-56.5775
 30
0.0
 10
63.0471
 20
-54.5466
 30
0.0
 10
64.0865
 20
-51.8408
 30
0.0
 10
64.0865
 20
-51.8408
 30
0.0
 10
64.8158
 20
-53.6238
 30
0.0
 10
66.1365
 20
-55.0878
 30
0.0
 10
67.9759
 20
-55.9645
 30
0.0
 10
67.9759
 20
-55.9645
 30
0.0
 10
69.9603
 20
-56.9092
 30
0.0
 10
72.4484
 20
-57.0561
 30
0.0
 10
74.4324
 20
-56.0287
 30
0.0
 10
74.4324
 20
-56.0287
 30
0.0
 10
75.5959
 20
-55.4268
 30
0.0
 10
76.4275
 20
-54.4919
 30
0.0
 10
76.889
 20
-53.4186
 30
0.0
 10
76.889
 20
-53.4186
 30
0.0
 10
77.0896
 20
-53.3536
 30
0.0
 10
77.2884
 20
-53.2777
 30
0.0
 10
77.4847
 20
-53.1899
 30
0.0
 10
77.4847
 20
-53.1899
 30
0.0
 10
82.6031
 20
-50.9027
 30
0.0
 10
81.6261
 20
-43.3663
 30
0.0
 10
75.3245
 20
-41.2323
 30
0.0
 10
75.3245
 20
-41.2323
 30
0.0
 10
77.7209
 20
-40.4516
 30
0.0
 10
79.8231
 20
-39.0414
 30
0.0
 10
81.3045
 20
-37.1059
 30
0.0
 10
81.3045
 20
-37.1059
 30
0.0
 10
82.8923
 20
-35.0315
 30
0.0
 10
83.7156
 20
-32.3252
 30
0.0
 10
83.0009
 20
-29.8133
 30
0.0
 10
83.0009
 20
-29.8133
 30
0.0
 10
81.5942
 20
-24.8721
 30
0.0
 10
74.2949
 20
-22.5339
 30
0.0
 10
70.3711
 20
-25.9063
 30
0.0
 10
70.3711
 20
-25.9063
 30
0.0
 10
69.4199
 20
-26.7245
 30
0.0
 10
67.953
 20
-29.0545
 30
0.0
 10
69.0809
 20
-29.7546
 30
0.0
 10
69.0809
 20
-29.7546
 30
0.0
 10
70.0705
 20
-30.37
 30
0.0
 10
71.4141
 20
-28.397
 30
0.0
 10
73.6565
 20
-27.9345
 30
0.0
 10
73.6565
 20
-27.9345
 30
0.0
 10
74.8081
 20
-27.6965
 30
0.0
 10
75.7124
 20
-27.6502
 30
0.0
 10
76.8514
 20
-27.9851
 30
0.0
 10
76.8514
 20
-27.9851
 30
0.0
 10
83.1519
 20
-29.8392
 30
0.0
 10
80.3738
 20
-38.3972
 30
0.0
 10
72.9363
 20
-39.7343
 30
0.0
 10
72.9363
 20
-39.7343
 30
0.0
 10
65.2654
 20
-41.1138
 30
0.0
 10
60.111
 20
-34.6406
 30
0.0
 10
60.0427
 20
-28.057
 30
0.0
 10
60.0427
 20
-28.057
 30
0.0
 10
60.0158
 20
-25.4872
 30
0.0
 10
60.719
 20
-22.9166
 30
0.0
 10
61.7644
 20
-20.5492
 30
0.0
 10
61.7644
 20
-20.5492
 30
0.0
 10
62.0547
 20
-21.9838
 30
0.0
 10
63.1858
 20
-23.2523
 30
0.0
 10
64.8431
 20
-23.3058
 30
0.0
 10
64.8431
 20
-23.3058
 30
0.0
 10
67.3928
 20
-23.3884
 30
0.0
 10
69.2863
 20
-20.3688
 30
0.0
 10
67.5899
 20
-18.4624
 30
0.0
 10
67.5899
 20
-18.4624
 30
0.0
 10
66.1649
 20
-16.8606
 30
0.0
 10
63.2735
 20
-17.3344
 30
0.0
 10
63.0265
 20
-19.43
 30
0.0
 10
63.0265
 20
-19.43
 30
0.0
 10
63.0277
 20
-18.9111
 30
0.0
 10
63.1167
 20
-18.0158
 30
0.0
 10
63.3221
 20
-17.5396
 30
0.0
 10
63.3221
 20
-17.5396
 30
0.0
 10
64.2141
 20
-16.0339
 30
0.0
 10
65.231
 20
-14.5953
 30
0.0
 10
66.334
 20
-13.2175
 30
0.0
 10
66.334
 20
-13.2175
 30
0.0
 10
65.7181
 20
-16.2455
 30
0.0
 10
68.401
 20
-18.557
 30
0.0
 10
71.5441
 20
-17.3991
 30
0.0
 10
71.5441
 20
-17.3991
 30
0.0
 10
70.5074
 20
-18.8268
 30
0.0
 10
69.3314
 20
-20.1608
 30
0.0
 10
68.1418
 20
-21.4793
 30
0.0
 10
68.1418
 20
-21.4793
 30
0.0
 10
66.7394
 20
-23.0331
 30
0.0
 10
65.1643
 20
-24.6905
 30
0.0
 10
64.305
 20
-26.5753
 30
0.0
 10
64.305
 20
-26.5753
 30
0.0
 10
62.8563
 20
-29.7565
 30
0.0
 10
63.6266
 20
-34.295
 30
0.0
 10
66.8547
 20
-36.3068
 30
0.0
 10
66.8547
 20
-36.3068
 30
0.0
 10
70.7694
 20
-38.7464
 30
0.0
 10
77.0928
 20
-37.2431
 30
0.0
 10
77.1658
 20
-32.3275
 30
0.0
 10
77.1658
 20
-32.3275
 30
0.0
 10
77.1987
 20
-30.0942
 30
0.0
 10
75.0879
 20
-28.1779
 30
0.0
 10
74.0903
 20
-29.1623
 30
0.0
 10
74.0903
 20
-29.1623
 30
0.0
 10
73.5348
 20
-29.7106
 30
0.0
 10
74.5055
 20
-31.4282
 30
0.0
 10
73.1955
 20
-32.8907
 30
0.0
 10
73.1955
 20
-32.8907
 30
0.0
 10
72.9118
 20
-33.2073
 30
0.0
 10
72.6578
 20
-33.5633
 30
0.0
 10
72.3098
 20
-33.8232
 30
0.0
 10
72.3098
 20
-33.8232
 30
0.0
 10
70.5395
 20
-35.1428
 30
0.0
 10
67.5658
 20
-34.7884
 30
0.0
 10
66.5079
 20
-32.8245
 30
0.0
 10
66.5079
 20
-32.8245
 30
0.0
 10
65.6375
 20
-31.2079
 30
0.0
 10
65.5451
 20
-28.9806
 30
0.0
 10
66.2906
 20
-27.3097
 30
0.0
 10
66.2906
 20
-27.3097
 30
0.0
 10
68.1664
 20
-23.1074
 30
0.0
 10
74.2112
 20
-19.869
 30
0.0
 10
76.354
 20
-11.1068
 30
0.0
 10
76.354
 20
-11.1068
 30
0.0
 10
77.5285
 20
-13.1026
 30
0.0
 10
81.3811
 20
-14.5419
 30
0.0
 10
83.6054
 20
-13.4941
 30
0.0
 10
83.6054
 20
-13.4941
 30
0.0
 10
84.9656
 20
-12.8531
 30
0.0
 10
85.6463
 20
-11.2908
 30
0.0
 10
85.2536
 20
-9.9325
 30
0.0
 10
85.2536
 20
-9.9325
 30
0.0
 10
84.6144
 20
-7.7219
 30
0.0
 10
81.6522
 20
-7.2349
 30
0.0
 10
81.4941
 20
-8.3082
 30
0.0
 10
81.4941
 20
-8.3082
 30
0.0
 10
81.4372
 20
-8.7042
 30
0.0
 10
81.8845
 20
-8.9273
 30
0.0
 10
82.165
 20
-9.1321
 30
0.0
 10
82.165
 20
-9.1321
 30
0.0
 10
82.8986
 20
-9.667
 30
0.0
 10
83.5821
 20
-10.3483
 30
0.0
 10
82.854
 20
-11.1973
 30
0.0
 10
82.854
 20
-11.1973
 30
0.0
 10
81.6723
 20
-12.5748
 30
0.0
 10
78.9752
 20
-12.0947
 30
0.0
 10
78.1211
 20
-10.627
 30
0.0
 10
78.1211
 20
-10.627
 30
0.0
 10
76.819
 20
-8.3885
 30
0.0
 10
77.7794
 20
-5.6411
 30
0.0
 10
76.5839
 20
-5.5988
 30
0.0
 10
76.5839
 20
-5.5988
 30
0.0
 10
75.8538
 20
-5.5725
 30
0.0
 10
75.7791
 20
-6.6757
 30
0.0
 10
75.7227
 20
-7.1563
 30
0.0
 10
75.7227
 20
-7.1563
 30
0.0
 10
75.3122
 20
-7.3431
 30
0.0
 10
75.2901
 20
-8.1869
 30
0.0
 10
75.2407
 20
-8.5605
 30
0.0
 10
75.2407
 20
-8.5605
 30
0.0
 10
75.0317
 20
-10.1436
 30
0.0
 10
74.5652
 20
-12.1785
 30
0.0
 10
73.7909
 20
-13.6023
 30
0.0
 10
73.7909
 20
-13.6023
 30
0.0
 10
72.9585
 20
-15.1327
 30
0.0
 10
70.4636
 20
-17.2765
 30
0.0
 10
68.6132
 20
-15.8092
 30
0.0
 10
68.6132
 20
-15.8092
 30
0.0
 10
67.2723
 20
-14.7463
 30
0.0
 10
67.75
 20
-11.6787
 30
0.0
 10
69.8773
 20
-12.2416
 30
0.0
 10
69.8773
 20
-12.2416
 30
0.0
 10
70.7283
 20
-12.4666
 30
0.0
 10
71.0163
 20
-13.5803
 30
0.0
 10
70.483
 20
-14.2002
 30
0.0
 10
70.483
 20
-14.2002
 30
0.0
 10
70.2278
 20
-14.498
 30
0.0
 10
69.7995
 20
-14.8209
 30
0.0
 10
69.9473
 20
-15.2524
 30
0.0
 10
69.9473
 20
-15.2524
 30
0.0
 10
70.2396
 20
-16.1257
 30
0.0
 10
71.5651
 20
-15.6116
 30
0.0
 10
72.0735
 20
-15.2413
 30
0.0
 10
72.0735
 20
-15.2413
 30
0.0
 10
74.6426
 20
-13.3688
 30
0.0
 10
72.0142
 20
-9.3077
 30
0.0
 10
68.5156
 20
-10.6581
 30
0.0
 10
68.5156
 20
-10.6581
 30
0.0
 10
70.4996
 20
-8.4519
 30
0.0
 10
72.6424
 20
-6.3732
 30
0.0
 10
74.9097
 20
-4.4197
 30
0.0
 10
74.9097
 20
-4.4197
 30
0.0
 10
79.507
 20
-7.0366
 30
0.0
 10
84.6144
 20
-3.2058
 30
0.0
 10
87.4047
 20
0.1355
 30
0.0
 10
87.4047
 20
0.1355
 30
0.0
 10
86.3961
 20
-5.0017
 30
0.0
 10
86.7193
 20
-10.4298
 30
0.0
 10
87.6572
 20
-15.5526
 30
0.0
 10
87.6572
 20
-15.5526
 30
0.0
 10
87.7891
 20
-16.2759
 30
0.0
 10
87.9329
 20
-16.9967
 30
0.0
 10
88.0866
 20
-17.7164
 30
0.0
 10
88.0866
 20
-17.7164
 30
0.0
 10
88.0795
 20
-18.6369
 30
0.0
 10
87.9756
 20
-19.5737
 30
0.0
 10
87.6512
 20
-20.4479
 30
0.0
 10
87.6512
 20
-20.4479
 30
0.0
 10
86.8429
 20
-22.6619
 30
0.0
 10
83.3229
 20
-25.1168
 30
0.0
 10
81.2848
 20
-22.6655
 30
0.0
 10
81.2848
 20
-22.6655
 30
0.0
 10
79.281
 20
-20.255
 30
0.0
 10
82.1943
 20
-18.2912
 30
0.0
 10
83.3565
 20
-19.3601
 30
0.0
 10
83.3565
 20
-19.3601
 30
0.0
 10
84.5385
 20
-20.4474
 30
0.0
 10
83.5841
 20
-21.6864
 30
0.0
 10
84.3296
 20
-22.1938
 30
0.0
 10
84.3296
 20
-22.1938
 30
0.0
 10
84.644
 20
-22.4077
 30
0.0
 10
85.0154
 20
-22.3139
 30
0.0
 10
85.3279
 20
-22.1526
 30
0.0
 10
85.3279
 20
-22.1526
 30
0.0
 10
87.5552
 20
-21.0051
 30
0.0
 10
86.9089
 20
-16.873
 30
0.0
 10
83.6726
 20
-16.4219
 30
0.0
 10
83.6726
 20
-16.4219
 30
0.0
 10
79.6224
 20
-15.8583
 30
0.0
 10
77.0805
 20
-20.574
 30
0.0
 10
79.8211
 20
-23.7756
 30
0.0
 10
79.8211
 20
-23.7756
 30
0.0
 10
82.5711
 20
-26.9893
 30
0.0
 10
87.3584
 20
-25.0034
 30
0.0
 10
88.9956
 20
-21.5759
 30
0.0
 10
88.9956
 20
-21.5759
 30
0.0
 10
89.0667
 20
-21.8533
 30
0.0
 10
89.1386
 20
-22.1307
 30
0.0
 10
89.2113
 20
-22.4077
 30
0.0
 10
89.2113
 20
-22.4077
 30
0.0
 10
88.3442
 20
-25.5746
 30
0.0
 10
87.3719
 20
-28.7148
 30
0.0
 10
86.4569
 20
-31.8697
 30
0.0
 10
86.4569
 20
-31.8697
 30
0.0
 10
83.833
 20
-40.8815
 30
0.0
 10
81.6336
 20
-49.0255
 30
0.0
 10
84.2552
 20
-58.3318
 30
0.0
 10
84.2552
 20
-58.3318
 30
0.0
 10
84.5125
 20
-59.2459
 30
0.0
 10
84.84
 20
-60.142
 30
0.0
 10
85.2374
 20
-61.0098
 30
0.0
 10
85.2374
 20
-61.0098
 30
0.0
 10
79.2
 20
-58.9174
 30
0.0
 10
72.5784
 20
-58.5007
 30
0.0
 10
66.2384
 20
-59.4327
 30
0.0
 10
66.2384
 20
-59.4327
 30
0.0
 10
63.8004
 20
-59.7912
 30
0.0
 10
61.3934
 20
-60.3045
 30
0.0
 10
59.0008
 20
-60.8697
 30
0.0
 10
59.0008
 20
-60.8697
 30
0.0
 10
59.0008
 20
-60.8697
 30
0.0
 10
59.0008
 20
-57.8153
 30
0.0
 10
59.0008
 20
-57.8153
 30
0.0
  0
SPLINE
  5
B1
330
1F
100
AcDbEntity
  8
layer 1
 62
     7
100
AcDbSpline
210
0.0
220
0.0
230
1.0
 70
    11
 71
     3
 72
    20
 73
    16
 74
     0
 42
0.0000000001
 43
0.0000000001
 12
1.0
 22
0.0
 32
0.0
 13
1.0
 23
0.0
 33
0.0
 40
0.0
 40
0.0
 40
0.0
 40
0.0
 40
0.2
 40
0.2
 40
0.2
 40
0.2
 40
0.4
 40
0.4
 40
0.4
 40
0.4
 40
0.6
 40
0.6
 40
0.6
 40
0.6
 40
1.0
 40
1.0
 40
1.0
 40
1.0
 10
59.0008
 20
-40.5175
 30
0.0
 10
64.527
 20
-44.8655
 30
0.0
 10
63.2972
 20
-51.9824
 30
0.0
 10
59.0008
 20
-55.0252
 30
0.0
 10
59.0008
 20
-55.0252
 30
0.0
 10
59.0008
 20
-55.0252
 30
0.0
 10
59.0008
 20
-51.1155
 30
0.0
 10
59.0008
 20
-51.1155
 30
0.0
 10
59.0008
 20
-51.1155
 30
0.0
 10
60.2718
 20
-49.2059
 30
0.0
 10
60.4061
 20
-46.4937
 30
0.0
 10
59.0008
 20
-44.1941
 30
0.0
 10
59.0008
 20
-44.1941
 30
0.0
 10
59.0008
 20
-44.1941
 30
0.0
 10
59.0008
 20
-40.5175
 30
0.0
 10
59.0008
 20
-40.5175
 30
0.0
  0
SPLINE
  5
B2
330
1F
100
AcDbEntity
  8
layer 1
 62
     7
100
AcDbSpline
210
0.0
220
0.0
230
1.0
 70
    11
 71
     3
 72
    76
 73
    72
 74
     0
 42
0.0000000001
 43
0.0000000001
 12
1.0
 22
0.0
 32
0.0
 13
1.0
 23
0.0
 33
0.0
 40
0.0
 40
0.0
 40
0.0
 40
0.0
 40
0.0526315789473684
 40
0.0526315789473684
 40
0.0526315789473684
 40
0.0526315789473684
 40
0.1052631578947368
 40
0.1052631578947368
 40
0.1052631578947368
 40
0.1052631578947368
 40
0.1578947368421053
 40
0.1578947368421053
 40
0.1578947368421053
 40
0.1578947368421053
 40
0.2105263157894737
 40
0.2105263157894737
 40
0.2105263157894737
 40
0.2105263157894737
 40
0.2631578947368421
 40
0.2631578947368421
 40
0.2631578947368421
 40
0.2631578947368421
 40
0.3157894736842105
 40
0.3157894736842105
 40
0.3157894736842105
 40
0.3157894736842105
 40
0.3684210526315789
 40
0.3684210526315789
 40
0.3684210526315789
 40
0.3684210526315789
 40
0.4210526315789473
 40
0.4210526315789473
 40
0.4210526315789473
 40
0.4210526315789473
 40
0.4736842105263158
 40
0.4736842105263158
 40
0.4736842105263158
 40
0.4736842105263158
 40
0.5263157894736842
 40
0.5263157894736842
 40
0.5263157894736842
 40
0.5263157894736842
 40
0.5789473684210527
 40
0.5789473684210527
 40
0.5789473684210527
 40
0.5789473684210527
 40
0.631578947368421
 40
0.631578947368421
 40
0.631578947368421
 40
0.631578947368421
 40
0.6842105263157895
 40
0.6842105263157895
 40
0.6842105263157895
 40
0.6842105263157895
 40
0.7368421052631579
 40
0.7368421052631579
 40
0.7368421052631579
 40
0.7368421052631579
 40
0.7894736842105263
 40
0.7894736842105263
 40
0.7894736842105263
 40
0.7894736842105263
 40
0.8421052631578947
 40
0.8421052631578947
 40
0.8421052631578947
 40
0.8421052631578947
 40
0.8947368421052632
 40
0.8947368421052632
 40
0.8947368421052632
 40
0.8947368421052632
 40
1.0
 40
1.0
 40
1.0
 40
1.0
 10
59.0008
 20
-33.5378
 30
0.0
 10
59.0008
 20
-33.5378
 30
0.0
 10
59.1182
 20
-33.8124
 30
0.0
 10
59.1182
 20
-33.8124
 30
0.0
 10
59.1182
 20
-33.8124
 30
0.0
 10
60.4669
 20
-36.8799
 30
0.0
 10
62.8555
 20
-39.7016
 30
0.0
 10
66.1835
 20
-41.0356
 30
0.0
 10
66.1835
 20
-41.0356
 30
0.0
 10
69.1457
 20
-42.2226
 30
0.0
 10
72.8289
 20
-41.8235
 30
0.0
 10
75.5729
 20
-43.2289
 30
0.0
 10
75.5729
 20
-43.2289
 30
0.0
 10
79.2336
 20
-45.1033
 30
0.0
 10
79.5342
 20
-49.3991
 30
0.0
 10
77.3053
 20
-51.088
 30
0.0
 10
77.3053
 20
-51.088
 30
0.0
 10
77.2666
 20
-50.3519
 30
0.0
 10
77.0722
 20
-49.6138
 30
0.0
 10
76.7119
 20
-48.9209
 30
0.0
 10
76.7119
 20
-48.9209
 30
0.0
 10
76.1249
 20
-47.7917
 30
0.0
 10
75.2475
 20
-46.9599
 30
0.0
 10
74.2519
 20
-46.4337
 30
0.0
 10
74.2519
 20
-46.4337
 30
0.0
 10
74.3577
 20
-46.4019
 30
0.0
 10
74.4704
 20
-46.3751
 30
0.0
 10
74.5905
 20
-46.3543
 30
0.0
 10
74.5905
 20
-46.3543
 30
0.0
 10
75.1704
 20
-46.2525
 30
0.0
 10
76.1754
 20
-46.3451
 30
0.0
 10
76.4785
 20
-45.7668
 30
0.0
 10
76.4785
 20
-45.7668
 30
0.0
 10
76.6725
 20
-45.3975
 30
0.0
 10
76.448
 20
-45.0259
 30
0.0
 10
76.1896
 20
-44.7457
 30
0.0
 10
76.1896
 20
-44.7457
 30
0.0
 10
74.5881
 20
-43.009
 30
0.0
 10
70.9342
 20
-43.6908
 30
0.0
 10
69.519
 20
-46.1679
 30
0.0
 10
69.519
 20
-46.1679
 30
0.0
 10
68.6419
 20
-46.5471
 30
0.0
 10
67.8811
 20
-47.1901
 30
0.0
 10
67.3667
 20
-48.1035
 30
0.0
 10
67.3667
 20
-48.1035
 30
0.0
 10
65.7963
 20
-50.8924
 30
0.0
 10
67.7792
 20
-53.2642
 30
0.0
 10
68.8356
 20
-52.8167
 30
0.0
 10
68.8356
 20
-52.8167
 30
0.0
 10
69.3954
 20
-52.5796
 30
0.0
 10
69.3297
 20
-51.6699
 30
0.0
 10
69.6174
 20
-50.7957
 30
0.0
 10
69.6174
 20
-50.7957
 30
0.0
 10
70.5565
 20
-52.3684
 30
0.0
 10
72.3631
 20
-53.4633
 30
0.0
 10
74.3191
 20
-53.6745
 30
0.0
 10
74.3191
 20
-53.6745
 30
0.0
 10
72.5147
 20
-55.6092
 30
0.0
 10
68.7854
 20
-55.0396
 30
0.0
 10
66.7544
 20
-52.7233
 30
0.0
 10
66.7544
 20
-52.7233
 30
0.0
 10
63.5389
 20
-49.0571
 30
0.0
 10
66.6943
 20
-44.1534
 30
0.0
 10
60.8415
 20
-39.31
 30
0.0
 10
60.8415
 20
-39.31
 30
0.0
 10
60.254
 20
-38.8238
 30
0.0
 10
59.6389
 20
-38.388
 30
0.0
 10
59.0008
 20
-37.9992
 30
0.0
 10
59.0008
 20
-37.9992
 30
0.0
 10
59.0008
 20
-37.9992
 30
0.0
 10
59.0008
 20
-33.5378
 30
0.0
 10
59.0008
 20
-33.5378
 30
0.0
  0
SPLINE
  5
B3
330
1F
100
AcDbEntity
  8
layer 1
 62
     7
100
AcDbSpline
210
0.0
220
0.0
230
1.0
 70
    11
 71
     3
 72
    20
 73
    16
 74
     0
 42
0.0000000001
 43
0.0000000001
 12
1.0
 22
0.0
 32
0.0
 13
1.0
 23
0.0
 33
0.0
 40
0.0
 40
0.0
 40
0.0
 40
0.0
 40
0.2
 40
0.2
 40
0.2
 40
0.2
 40
0.4
 40
0.4
 40
0.4
 40
0.4
 40
0.6
 40
0.6
 40
0.6
 40
0.6
 40
1.0
 40
1.0
 40
1.0
 40
1.0
 10
59.0008
 20
-10.1926
 30
0.0
 10
59.8823
 20
-9.3609
 30
0.0
 10
60.7111
 20
-8.5353
 30
0.0
 10
61.4799
 20
-7.7351
 30
0.0
 10
61.4799
 20
-7.7351
 30
0.0
 10
63.2921
 20
-9.3126
 30
0.0
 10
65.4293
 20
-9.6706
 30
0.0
 10
67.2368
 20
-9.2343
 30
0.0
 10
67.2368
 20
-9.2343
 30
0.0
 10
63.7641
 20
-12.9744
 30
0.0
 10
60.6048
 20
-17.3384
 30
0.0
 10
59.0008
 20
-21.8924
 30
0.0
 10
59.0008
 20
-21.8924
 30
0.0
 10
59.0008
 20
-21.8924
 30
0.0
 10
59.0008
 20
-10.1926
 30
0.0
 10
59.0008
 20
-10.1926
 30
0.0
  0
SPLINE
  5
B4
330
1F
100
AcDbEntity
  8
layer 1
 62
     7
100
AcDbSpline
210
0.0
220
0.0
230
1.0
 70
    11
 71
     3
 72
    32
 73
    28
 74
     0
 42
0.0000000001
 43
0.0000000001
 12
1.0
 22
0.0
 32
0.0
 13
1.0
 23
0.0
 33
0.0
 40
0.0
 40
0.0
 40
0.0
 40
0.0
 40
0.125
 40
0.125
 40
0.125
 40
0.125
 40
0.25
 40
0.25
 40
0.25
 40
0.25
 40
0.375
 40
0.375
 40
0.375
 40
0.375
 40
0.5
 40
0.5
 40
0.5
 40
0.5
 40
0.625
 40
0.625
 40
0.625
 40
0.625
 40
0.75
 40
0.75
 40
0.75
 40
0.75
 40
1.0
 40
1.0
 40
1.0
 40
1.0
 10
59.0008
 20
4.6883
 30
0.0
 10
61.0872
 20
4.7302
 30
0.0
 10
63.1628
 20
4.9083
 30
0.0
 10
65.1967
 20
5.2559
 30
0.0
 10
65.1967
 20
5.2559
 30
0.0
 10
61.615
 20
2.6526
 30
0.0
 10
57.5095
 20
-2.1126
 30
0.0
 10
60.314
 20
-6.4027
 30
0.0
 10
60.314
 20
-6.4027
 30
0.0
 10
59.8823
 20
-6.8389
 30
0.0
 10
59.4445
 20
-7.2705
 30
0.0
 10
59.0008
 20
-7.6968
 30
0.0
 10
59.0008
 20
-7.6968
 30
0.0
 10
59.0008
 20
-7.6968
 30
0.0
 10
59.0008
 20
-5.083
 30
0.0
 10
59.0008
 20
-5.083
 30
0.0
 10
59.0008
 20
-5.083
 30
0.0
 10
59.0364
 20
-5.012
 30
0.0
 10
59.0546
 20
-4.9318
 30
0.0
 10
59.0507
 20
-4.8404
 30
0.0
 10
59.0507
 20
-4.8404
 30
0.0
 10
59.0475
 20
-4.7634
 30
0.0
 10
59.0305
 20
-4.6959
 30
0.0
 10
59.0008
 20
-4.6368
 30
0.0
 10
59.0008
 20
-4.6368
 30
0.0
 10
59.0008
 20
-4.6368
 30
0.0
 10
59.0008
 20
4.6883
 30
0.0
 10
59.0008
 20
4.6883
 30
0.0
  0
SPLINE
  5
B5
330
1F
100
AcDbEntity
  8
layer 1
 62
     7
100
AcDbSpline
210
0.0
220
0.0
230
1.0
 70
    11
 71
     3
 72
    20
 73
    16
 74
     0
 42
0.0000000001
 43
0.0000000001
 12
1.0
 22
0.0
 32
0.0
 13
1.0
 23
0.0
 33
0.0
 40
0.0
 40
0.0
 40
0.0
 40
0.0
 40
0.2
 40
0.2
 40
0.2
 40
0.2
 40
0.4
 40
0.4
 40
0.4
 40
0.4
 40
0.6
 40
0.6
 40
0.6
 40
0.6
 40
1.0
 40
1.0
 40
1.0
 40
1.0
 10
59.0008
 20
9.4474
 30
0.0
 10
62.7148
 20
9.4315
 30
0.0
 10
66.4103
 20
8.9896
 30
0.0
 10
70.0946
 20
7.9597
 30
0.0
 10
70.0946
 20
7.9597
 30
0.0
 10
70.1938
 20
7.9319
 30
0.0
 10
70.2933
 20
7.9051
 30
0.0
 10
70.3929
 20
7.8779
 30
0.0
 10
70.3929
 20
7.8779
 30
0.0
 10
66.6635
 20
6.7767
 30
0.0
 10
62.8413
 20
6.3212
 30
0.0
 10
59.0008
 20
6.316
 30
0.0
 10
59.0008
 20
6.316
 30
0.0
 10
59.0008
 20
6.316
 30
0.0
 10
59.0008
 20
9.4474
 30
0.0
 10
59.0008
 20
9.4474
 30
0.0
  0
SPLINE
  5
B6
330
1F
100
AcDbEntity
  8
layer 1
 62
     7
100
AcDbSpline
210
0.0
220
0.0
230
1.0
 70
    11
 71
     3
 72
    32
 73
    28
 74
     0
 42
0.0000000001
 43
0.0000000001
 12
1.0
 22
0.0
 32
0.0
 13
1.0
 23
0.0
 33
0.0
 40
0.0
 40
0.0
 40
0.0
 40
0.0
 40
0.125
 40
0.125
 40
0.125
 40
0.125
 40
0.25
 40
0.25
 40
0.25
 40
0.25
 40
0.375
 40
0.375
 40
0.375
 40
0.375
 40
0.5
 40
0.5
 40
0.5
 40
0.5
 40
0.625
 40
0.625
 40
0.625
 40
0.625
 40
0.75
 40
0.75
 40
0.75
 40
0.75
 40
1.0
 40
1.0
 40
1.0
 40
1.0
 10
59.0008
 20
23.4746
 30
0.0
 10
59.4556
 20
23.0364
 30
0.0
 10
59.9043
 20
22.5925
 30
0.0
 10
60.3472
 20
22.1434
 30
0.0
 10
60.3472
 20
22.1434
 30
0.0
 10
57.6067
 20
17.8413
 30
0.0
 10
61.8252
 20
13.0027
 30
0.0
 10
65.4467
 20
10.451
 30
0.0
 10
65.4467
 20
10.451
 30
0.0
 10
63.3197
 20
10.8317
 30
0.0
 10
61.1638
 20
11.0277
 30
0.0
 10
59.0008
 20
11.076
 30
0.0
 10
59.0008
 20
11.076
 30
0.0
 10
59.0008
 20
11.076
 30
0.0
 10
59.0008
 20
20.4011
 30
0.0
 10
59.0008
 20
20.4011
 30
0.0
 10
59.0008
 20
20.4011
 30
0.0
 10
59.0447
 20
20.4682
 30
0.0
 10
59.0693
 20
20.546
 30
0.0
 10
59.0724
 20
20.6374
 30
0.0
 10
59.0724
 20
20.6374
 30
0.0
 10
59.0763
 20
20.7468
 30
0.0
 10
59.0499
 20
20.8398
 30
0.0
 10
59.0008
 20
20.9196
 30
0.0
 10
59.0008
 20
20.9196
 30
0.0
 10
59.0008
 20
20.9196
 30
0.0
 10
59.0008
 20
23.4746
 30
0.0
 10
59.0008
 20
23.4746
 30
0.0
  0
SPLINE
  5
B7
330
1F
100
AcDbEntity
  8
layer 1
 62
     7
100
AcDbSpline
210
0.0
220
0.0
230
1.0
 70
    11
 71
     3
 72
    20
 73
    16
 74
     0
 42
0.0000000001
 43
0.0000000001
 12
1.0
 22
0.0
 32
0.0
 13
1.0
 23
0.0
 33
0.0
 40
0.0
 40
0.0
 40
0.0
 40
0.0
 40
0.2
 40
0.2
 40
0.2
 40
0.2
 40
0.4
 40
0.4
 40
0.4
 40
0.4
 40
0.6
 40
0.6
 40
0.6
 40
0.6
 40
1.0
 40
1.0
 40
1.0
 40
1.0
 10
59.0008
 20
37.6391
 30
0.0
 10
60.5887
 20
33.1323
 30
0.0
 10
63.7001
 20
28.8114
 30
0.0
 10
67.1305
 20
25.0972
 30
0.0
 10
67.1305
 20
25.0972
 30
0.0
 10
65.2089
 20
25.4752
 30
0.0
 10
63.0751
 20
24.8744
 30
0.0
 10
61.502
 20
23.4878
 30
0.0
 10
61.502
 20
23.4878
 30
0.0
 10
60.7064
 20
24.3196
 30
0.0
 10
59.8712
 20
25.1559
 30
0.0
 10
59.0008
 20
25.9845
 30
0.0
 10
59.0008
 20
25.9845
 30
0.0
 10
59.0008
 20
25.9845
 30
0.0
 10
59.0008
 20
37.6391
 30
0.0
 10
59.0008
 20
37.6391
 30
0.0
  0
SPLINE
  5
B8
330
1F
100
AcDbEntity
  8
layer 1
 62
     7
100
AcDbSpline
210
0.0
220
0.0
230
1.0
 70
    11
 71
     3
 72
    76
 73
    72
 74
     0
 42
0.0000000001
 43
0.0000000001
 12
1.0
 22
0.0
 32
0.0
 13
1.0
 23
0.0
 33
0.0
 40
0.0
 40
0.0
 40
0.0
 40
0.0
 40
0.0526315789473684
 40
0.0526315789473684
 40
0.0526315789473684
 40
0.0526315789473684
 40
0.1052631578947368
 40
0.1052631578947368
 40
0.1052631578947368
 40
0.1052631578947368
 40
0.1578947368421053
 40
0.1578947368421053
 40
0.1578947368421053
 40
0.1578947368421053
 40
0.2105263157894737
 40
0.2105263157894737
 40
0.2105263157894737
 40
0.2105263157894737
 40
0.2631578947368421
 40
0.2631578947368421
 40
0.2631578947368421
 40
0.2631578947368421
 40
0.3157894736842105
 40
0.3157894736842105
 40
0.3157894736842105
 40
0.3157894736842105
 40
0.3684210526315789
 40
0.3684210526315789
 40
0.3684210526315789
 40
0.3684210526315789
 40
0.4210526315789473
 40
0.4210526315789473
 40
0.4210526315789473
 40
0.4210526315789473
 40
0.4736842105263158
 40
0.4736842105263158
 40
0.4736842105263158
 40
0.4736842105263158
 40
0.5263157894736842
 40
0.5263157894736842
 40
0.5263157894736842
 40
0.5263157894736842
 40
0.5789473684210527
 40
0.5789473684210527
 40
0.5789473684210527
 40
0.5789473684210527
 40
0.631578947368421
 40
0.631578947368421
 40
0.631578947368421
 40
0.631578947368421
 40
0.6842105263157895
 40
0.6842105263157895
 40
0.6842105263157895
 40
0.6842105263157895
 40
0.7368421052631579
 40
0.7368421052631579
 40
0.7368421052631579
 40
0.7368421052631579
 40
0.7894736842105263
 40
0.7894736842105263
 40
0.7894736842105263
 40
0.7894736842105263
 40
0.8421052631578947
 40
0.8421052631578947
 40
0.8421052631578947
 40
0.8421052631578947
 40
0.8947368421052632
 40
0.8947368421052632
 40
0.8947368421052632
 40
0.8947368421052632
 40
1.0
 40
1.0
 40
1.0
 40
1.0
 10
59.0008
 20
53.8588
 30
0.0
 10
61.0694
 20
55.1357
 30
0.0
 10
62.8164
 20
56.8614
 30
0.0
 10
63.8029
 20
59.0044
 30
0.0
 10
63.8029
 20
59.0044
 30
0.0
 10
65.0754
 20
61.7686
 30
0.0
 10
64.6479
 20
65.2049
 30
0.0
 10
66.1539
 20
67.7655
 30
0.0
 10
66.1539
 20
67.7655
 30
0.0
 10
68.1434
 20
71.1476
 30
0.0
 10
72.6768
 20
71.4557
 30
0.0
 10
74.5229
 20
69.4411
 30
0.0
 10
74.5229
 20
69.4411
 30
0.0
 10
72.4745
 20
69.2855
 30
0.0
 10
70.5616
 20
68.1551
 30
0.0
 10
69.5969
 20
66.509
 30
0.0
 10
69.5969
 20
66.509
 30
0.0
 10
69.5589
 20
66.6152
 30
0.0
 10
69.5278
 20
66.7281
 30
0.0
 10
69.5032
 20
66.8486
 30
0.0
 10
69.5032
 20
66.8486
 30
0.0
 10
69.3946
 20
67.3895
 30
0.0
 10
69.4937
 20
68.3271
 30
0.0
 10
68.8742
 20
68.6102
 30
0.0
 10
68.8742
 20
68.6102
 30
0.0
 10
68.4784
 20
68.7909
 30
0.0
 10
68.0802
 20
68.5822
 30
0.0
 10
67.7795
 20
68.3407
 30
0.0
 10
67.7795
 20
68.3407
 30
0.0
 10
65.8852
 20
66.8203
 30
0.0
 10
66.6754
 20
63.3165
 30
0.0
 10
69.4459
 20
62.0492
 30
0.0
 10
69.4459
 20
62.0492
 30
0.0
 10
70.8041
 20
59.4639
 30
0.0
 10
74.5597
 20
58.7262
 30
0.0
 10
76.1896
 20
60.4936
 30
0.0
 10
76.1896
 20
60.4936
 30
0.0
 10
76.448
 20
60.7743
 30
0.0
 10
76.6725
 20
61.1455
 30
0.0
 10
76.4785
 20
61.5147
 30
0.0
 10
76.4785
 20
61.5147
 30
0.0
 10
76.1754
 20
62.0931
 30
0.0
 10
75.1704
 20
62.0005
 30
0.0
 10
74.5905
 20
62.1023
 30
0.0
 10
74.5905
 20
62.1023
 30
0.0
 10
74.4604
 20
62.1246
 30
0.0
 10
74.3396
 20
62.1538
 30
0.0
 10
74.2262
 20
62.1889
 30
0.0
 10
74.2262
 20
62.1889
 30
0.0
 10
75.9902
 20
63.0894
 30
0.0
 10
77.2022
 20
64.874
 30
0.0
 10
77.3693
 20
66.7851
 30
0.0
 10
77.3693
 20
66.7851
 30
0.0
 10
79.528
 20
65.0628
 30
0.0
 10
79.1973
 20
60.833
 30
0.0
 10
75.5729
 20
58.9768
 30
0.0
 10
75.5729
 20
58.9768
 30
0.0
 10
72.8289
 20
57.5714
 30
0.0
 10
69.1457
 20
57.9706
 30
0.0
 10
66.1835
 20
56.7835
 30
0.0
 10
66.1835
 20
56.7835
 30
0.0
 10
62.8555
 20
55.4495
 30
0.0
 10
60.4669
 20
52.6279
 30
0.0
 10
59.1182
 20
49.5604
 30
0.0
 10
59.1182
 20
49.5604
 30
0.0
 10
59.0779
 20
49.4689
 30
0.0
 10
59.0388
 20
49.3775
 30
0.0
 10
59.0008
 20
49.2857
 30
0.0
 10
59.0008
 20
49.2857
 30
0.0
 10
59.0008
 20
49.2857
 30
0.0
 10
59.0008
 20
53.8588
 30
0.0
 10
59.0008
 20
53.8588
 30
0.0
  0
SPLINE
  5
B9
330
1F
100
AcDbEntity
  8
layer 1
 62
     7
100
AcDbSpline
210
0.0
220
0.0
230
1.0
 70
    11
 71
     3
 72
    24
 73
    20
 74
     0
 42
0.0000000001
 43
0.0000000001
 12
1.0
 22
0.0
 32
0.0
 13
1.0
 23
0.0
 33
0.0
 40
0.0
 40
0.0
 40
0.0
 40
0.0
 40
0.1666666666666667
 40
0.1666666666666667
 40
0.1666666666666667
 40
0.1666666666666667
 40
0.3333333333333333
 40
0.3333333333333333
 40
0.3333333333333333
 40
0.3333333333333333
 40
0.5
 40
0.5
 40
0.5
 40
0.5
 40
0.6666666666666666
 40
0.6666666666666666
 40
0.6666666666666666
 40
0.6666666666666666
 40
1.0
 40
1.0
 40
1.0
 40
1.0
 10
59.0008
 20
70.6031
 30
0.0
 10
60.6218
 20
69.4088
 30
0.0
 10
61.9362
 20
67.5935
 30
0.0
 10
62.4087
 20
65.3055
 30
0.0
 10
62.4087
 20
65.3055
 30
0.0
 10
63.183
 20
61.5586
 30
0.0
 10
61.6493
 20
58.4556
 30
0.0
 10
59.0008
 20
56.34
 30
0.0
 10
59.0008
 20
56.34
 30
0.0
 10
59.0008
 20
56.34
 30
0.0
 10
59.0008
 20
60.0347
 30
0.0
 10
59.0008
 20
60.0347
 30
0.0
 10
59.0008
 20
60.0347
 30
0.0
 10
60.3034
 20
62.1789
 30
0.0
 10
60.269
 20
64.9439
 30
0.0
 10
59.0008
 20
66.8842
 30
0.0
 10
59.0008
 20
66.8842
 30
0.0
 10
59.0008
 20
66.8842
 30
0.0
 10
59.0008
 20
70.6031
 30
0.0
 10
59.0008
 20
70.6031
 30
0.0
  0
SPLINE
  5
BA
330
1F
100
AcDbEntity
  8
layer 1
 62
     7
100
AcDbSpline
210
0.0
220
0.0
230
1.0
 70
    11
 71
     3
 72
   268
 73
   264
 74
     0
 42
0.0000000001
 43
0.0000000001
 12
1.0
 22
0.0
 32
0.0
 13
1.0
 23
0.0
 33
0.0
 40
0.0
 40
0.0
 40
0.0
 40
0.0
 40
0.0149253731343284
 40
0.0149253731343284
 40
0.0149253731343284
 40
0.0149253731343284
 40
0.0298507462686567
 40
0.0298507462686567
 40
0.0298507462686567
 40
0.0298507462686567
 40
0.0447761194029851
 40
0.0447761194029851
 40
0.0447761194029851
 40
0.0447761194029851
 40
0.0597014925373134
 40
0.0597014925373134
 40
0.0597014925373134
 40
0.0597014925373134
 40
0.0746268656716418
 40
0.0746268656716418
 40
0.0746268656716418
 40
0.0746268656716418
 40
0.0895522388059701
 40
0.0895522388059701
 40
0.0895522388059701
 40
0.0895522388059701
 40
0.1044776119402985
 40
0.1044776119402985
 40
0.1044776119402985
 40
0.1044776119402985
 40
0.1194029850746269
 40
0.1194029850746269
 40
0.1194029850746269
 40
0.1194029850746269
 40
0.1343283582089552
 40
0.1343283582089552
 40
0.1343283582089552
 40
0.1343283582089552
 40
0.1492537313432836
 40
0.1492537313432836
 40
0.1492537313432836
 40
0.1492537313432836
 40
0.1641791044776119
 40
0.1641791044776119
 40
0.1641791044776119
 40
0.1641791044776119
 40
0.1791044776119403
 40
0.1791044776119403
 40
0.1791044776119403
 40
0.1791044776119403
 40
0.1940298507462687
 40
0.1940298507462687
 40
0.1940298507462687
 40
0.1940298507462687
 40
0.208955223880597
 40
0.208955223880597
 40
0.208955223880597
 40
0.208955223880597
 40
0.2238805970149254
 40
0.2238805970149254
 40
0.2238805970149254
 40
0.2238805970149254
 40
0.2388059701492537
 40
0.2388059701492537
 40
0.2388059701492537
 40
0.2388059701492537
 40
0.2537313432835821
 40
0.2537313432835821
 40
0.2537313432835821
 40
0.2537313432835821
 40
0.2686567164179104
 40
0.2686567164179104
 40
0.2686567164179104
 40
0.2686567164179104
 40
0.2835820895522388
 40
0.2835820895522388
 40
0.2835820895522388
 40
0.2835820895522388
 40
0.2985074626865671
 40
0.2985074626865671
 40
0.2985074626865671
 40
0.2985074626865671
 40
0.3134328358208955
 40
0.3134328358208955
 40
0.3134328358208955
 40
0.3134328358208955
 40
0.3283582089552239
 40
0.3283582089552239
 40
0.3283582089552239
 40
0.3283582089552239
 40
0.3432835820895522
 40
0.3432835820895522
 40
0.3432835820895522
 40
0.3432835820895522
 40
0.3582089552238806
 40
0.3582089552238806
 40
0.3582089552238806
 40
0.3582089552238806
 40
0.373134328358209
 40
0.373134328358209
 40
0.373134328358209
 40
0.373134328358209
 40
0.3880597014925373
 40
0.3880597014925373
 40
0.3880597014925373
 40
0.3880597014925373
 40
0.4029850746268657
 40
0.4029850746268657
 40
0.4029850746268657
 40
0.4029850746268657
 40
0.417910447761194
 40
0.417910447761194
 40
0.417910447761194
 40
0.417910447761194
 40
0.4328358208955224
 40
0.4328358208955224
 40
0.4328358208955224
 40
0.4328358208955224
 40
0.4477611940298508
 40
0.4477611940298508
 40
0.4477611940298508
 40
0.4477611940298508
 40
0.4626865671641791
 40
0.4626865671641791
 40
0.4626865671641791
 40
0.4626865671641791
 40
0.4776119402985075
 40
0.4776119402985075
 40
0.4776119402985075
 40
0.4776119402985075
 40
0.4925373134328358
 40
0.4925373134328358
 40
0.4925373134328358
 40
0.4925373134328358
 40
0.5074626865671642
 40
0.5074626865671642
 40
0.5074626865671642
 40
0.5074626865671642
 40
0.5223880597014925
 40
0.5223880597014925
 40
0.5223880597014925
 40
0.5223880597014925
 40
0.5373134328358209
 40
0.5373134328358209
 40
0.5373134328358209
 40
0.5373134328358209
 40
0.5522388059701493
 40
0.5522388059701493
 40
0.5522388059701493
 40
0.5522388059701493
 40
0.5671641791044776
 40
0.5671641791044776
 40
0.5671641791044776
 40
0.5671641791044776
 40
0.582089552238806
 40
0.582089552238806
 40
0.582089552238806
 40
0.582089552238806
 40
0.5970149253731343
 40
0.5970149253731343
 40
0.5970149253731343
 40
0.5970149253731343
 40
0.6119402985074627
 40
0.6119402985074627
 40
0.6119402985074627
 40
0.6119402985074627
 40
0.6268656716417911
 40
0.6268656716417911
 40
0.6268656716417911
 40
0.6268656716417911
 40
0.6417910447761194
 40
0.6417910447761194
 40
0.6417910447761194
 40
0.6417910447761194
 40
0.6567164179104478
 40
0.6567164179104478
 40
0.6567164179104478
 40
0.6567164179104478
 40
0.6716417910447762
 40
0.6716417910447762
 40
0.6716417910447762
 40
0.6716417910447762
 40
0.6865671641791045
 40
0.6865671641791045
 40
0.6865671641791045
 40
0.6865671641791045
 40
0.7014925373134329
 40
0.7014925373134329
 40
0.7014925373134329
 40
0.7014925373134329
 40
0.7164179104477612
 40
0.7164179104477612
 40
0.7164179104477612
 40
0.7164179104477612
 40
0.7313432835820896
 40
0.7313432835820896
 40
0.7313432835820896
 40
0.7313432835820896
 40
0.746268656716418
 40
0.746268656716418
 40
0.746268656716418
 40
0.746268656716418
 40
0.7611940298507462
 40
0.7611940298507462
 40
0.7611940298507462
 40
0.7611940298507462
 40
0.7761194029850746
 40
0.7761194029850746
 40
0.7761194029850746
 40
0.7761194029850746
 40
0.7910447761194029
 40
0.7910447761194029
 40
0.7910447761194029
 40
0.7910447761194029
 40
0.8059701492537313
 40
0.8059701492537313
 40
0.8059701492537313
 40
0.8059701492537313
 40
0.8208955223880597
 40
0.8208955223880597
 40
0.8208955223880597
 40
0.8208955223880597
 40
0.835820895522388
 40
0.835820895522388
 40
0.835820895522388
 40
0.835820895522388
 40
0.8507462686567164
 40
0.8507462686567164
 40
0.8507462686567164
 40
0.8507462686567164
 40
0.8656716417910447
 40
0.8656716417910447
 40
0.8656716417910447
 40
0.8656716417910447
 40
0.8805970149253731
 40
0.8805970149253731
 40
0.8805970149253731
 40
0.8805970149253731
 40
0.8955223880597015
 40
0.8955223880597015
 40
0.8955223880597015
 40
0.8955223880597015
 40
0.9104477611940298
 40
0.9104477611940298
 40
0.9104477611940298
 40
0.9104477611940298
 40
0.9253731343283582
 40
0.9253731343283582
 40
0.9253731343283582
 40
0.9253731343283582
 40
0.9402985074626866
 40
0.9402985074626866
 40
0.9402985074626866
 40
0.9402985074626866
 40
0.9552238805970149
 40
0.9552238805970149
 40
0.9552238805970149
 40
0.9552238805970149
 40
0.9701492537313433
 40
0.9701492537313433
 40
0.9701492537313433
 40
0.9701492537313433
 40
1.0
 40
1.0
 40
1.0
 40
1.0
 10
59.0008
 20
76.6883
 30
0.0
 10
66.7464
 20
74.8901
 30
0.0
 10
74.1207
 20
73.8506
 30
0.0
 10
82.3408
 20
75.8664
 30
0.0
 10
82.3408
 20
75.8664
 30
0.0
 10
83.3359
 20
76.1107
 30
0.0
 10
84.3121
 20
76.4216
 30
0.0
 10
85.2567
 20
76.8005
 30
0.0
 10
85.2567
 20
76.8005
 30
0.0
 10
84.8503
 20
75.9195
 30
0.0
 10
84.5172
 20
75.0086
 30
0.0
 10
84.2552
 20
74.0798
 30
0.0
 10
84.2552
 20
74.0798
 30
0.0
 10
81.6336
 20
64.7735
 30
0.0
 10
83.833
 20
56.6299
 30
0.0
 10
86.4569
 20
47.6176
 30
0.0
 10
86.4569
 20
47.6176
 30
0.0
 10
87.3719
 20
44.4627
 30
0.0
 10
88.3442
 20
41.3226
 30
0.0
 10
89.2113
 20
38.1556
 30
0.0
 10
89.2113
 20
38.1556
 30
0.0
 10
89.1386
 20
37.8786
 30
0.0
 10
89.0667
 20
37.6016
 30
0.0
 10
88.9956
 20
37.3238
 30
0.0
 10
88.9956
 20
37.3238
 30
0.0
 10
87.3584
 20
40.7514
 30
0.0
 10
82.5711
 20
42.7372
 30
0.0
 10
79.8211
 20
39.5235
 30
0.0
 10
79.8211
 20
39.5235
 30
0.0
 10
77.0805
 20
36.3219
 30
0.0
 10
79.6224
 20
31.6067
 30
0.0
 10
83.6726
 20
32.1703
 30
0.0
 10
83.6726
 20
32.1703
 30
0.0
 10
86.9089
 20
32.6209
 30
0.0
 10
87.5552
 20
36.753
 30
0.0
 10
85.3279
 20
37.9006
 30
0.0
 10
85.3279
 20
37.9006
 30
0.0
 10
85.0154
 20
38.0618
 30
0.0
 10
84.644
 20
38.1556
 30
0.0
 10
84.3296
 20
37.9417
 30
0.0
 10
84.3296
 20
37.9417
 30
0.0
 10
83.5841
 20
37.4344
 30
0.0
 10
84.5385
 20
36.1953
 30
0.0
 10
83.3565
 20
35.108
 30
0.0
 10
83.3565
 20
35.108
 30
0.0
 10
82.1943
 20
34.0391
 30
0.0
 10
79.281
 20
36.003
 30
0.0
 10
81.2848
 20
38.4135
 30
0.0
 10
81.2848
 20
38.4135
 30
0.0
 10
83.3229
 20
40.8647
 30
0.0
 10
86.8429
 20
38.4099
 30
0.0
 10
87.6512
 20
36.1958
 30
0.0
 10
87.6512
 20
36.1958
 30
0.0
 10
87.9756
 20
35.322
 30
0.0
 10
88.0795
 20
34.3848
 30
0.0
 10
88.0866
 20
33.4643
 30
0.0
 10
88.0866
 20
33.4643
 30
0.0
 10
87.9329
 20
32.7446
 30
0.0
 10
87.7891
 20
32.0238
 30
0.0
 10
87.6572
 20
31.3005
 30
0.0
 10
87.6572
 20
31.3005
 30
0.0
 10
86.7193
 20
26.1781
 30
0.0
 10
86.3961
 20
20.7496
 30
0.0
 10
87.4047
 20
15.6125
 30
0.0
 10
87.4047
 20
15.6125
 30
0.0
 10
84.6144
 20
18.9538
 30
0.0
 10
79.507
 20
22.7845
 30
0.0
 10
74.9097
 20
20.1676
 30
0.0
 10
74.9097
 20
20.1676
 30
0.0
 10
72.6424
 20
22.1211
 30
0.0
 10
70.4996
 20
24.2003
 30
0.0
 10
68.5156
 20
26.4061
 30
0.0
 10
68.5156
 20
26.4061
 30
0.0
 10
72.0142
 20
25.0557
 30
0.0
 10
74.6426
 20
29.1167
 30
0.0
 10
72.0735
 20
30.9892
 30
0.0
 10
72.0735
 20
30.9892
 30
0.0
 10
71.5651
 20
31.36
 30
0.0
 10
70.2396
 20
31.8737
 30
0.0
 10
69.9473
 20
31.0003
 30
0.0
 10
69.9473
 20
31.0003
 30
0.0
 10
69.7995
 20
30.5689
 30
0.0
 10
70.2278
 20
30.2459
 30
0.0
 10
70.483
 20
29.9481
 30
0.0
 10
70.483
 20
29.9481
 30
0.0
 10
71.0163
 20
29.3283
 30
0.0
 10
70.7283
 20
28.215
 30
0.0
 10
69.8773
 20
27.9895
 30
0.0
 10
69.8773
 20
27.9895
 30
0.0
 10
67.75
 20
27.4271
 30
0.0
 10
67.2723
 20
30.4942
 30
0.0
 10
68.6132
 20
31.5571
 30
0.0
 10
68.6132
 20
31.5571
 30
0.0
 10
70.4636
 20
33.0245
 30
0.0
 10
72.9585
 20
30.8806
 30
0.0
 10
73.7909
 20
29.3502
 30
0.0
 10
73.7909
 20
29.3502
 30
0.0
 10
74.5652
 20
27.9264
 30
0.0
 10
75.0317
 20
25.8915
 30
0.0
 10
75.2407
 20
24.3085
 30
0.0
 10
75.2407
 20
24.3085
 30
0.0
 10
75.2901
 20
23.9349
 30
0.0
 10
75.3122
 20
23.091
 30
0.0
 10
75.7227
 20
22.9043
 30
0.0
 10
75.7227
 20
22.9043
 30
0.0
 10
75.7791
 20
22.4237
 30
0.0
 10
75.8538
 20
21.3204
 30
0.0
 10
76.5839
 20
21.3467
 30
0.0
 10
76.5839
 20
21.3467
 30
0.0
 10
77.7794
 20
21.3891
 30
0.0
 10
76.819
 20
24.1364
 30
0.0
 10
78.1211
 20
26.3749
 30
0.0
 10
78.1211
 20
26.3749
 30
0.0
 10
78.9752
 20
27.843
 30
0.0
 10
81.6723
 20
28.3228
 30
0.0
 10
82.854
 20
26.9453
 30
0.0
 10
82.854
 20
26.9453
 30
0.0
 10
83.5821
 20
26.0967
 30
0.0
 10
82.8986
 20
25.415
 30
0.0
 10
82.165
 20
24.8801
 30
0.0
 10
82.165
 20
24.8801
 30
0.0
 10
81.8845
 20
24.6753
 30
0.0
 10
81.4372
 20
24.4522
 30
0.0
 10
81.4941
 20
24.0562
 30
0.0
 10
81.4941
 20
24.0562
 30
0.0
 10
81.6522
 20
22.9829
 30
0.0
 10
84.6144
 20
23.4698
 30
0.0
 10
85.2536
 20
25.6804
 30
0.0
 10
85.2536
 20
25.6804
 30
0.0
 10
85.6463
 20
27.0387
 30
0.0
 10
84.9656
 20
28.6014
 30
0.0
 10
83.6054
 20
29.242
 30
0.0
 10
83.6054
 20
29.242
 30
0.0
 10
81.3811
 20
30.2899
 30
0.0
 10
77.5285
 20
28.8505
 30
0.0
 10
76.354
 20
26.8547
 30
0.0
 10
76.354
 20
26.8547
 30
0.0
 10
74.2112
 20
35.6169
 30
0.0
 10
68.1664
 20
38.8554
 30
0.0
 10
66.2906
 20
43.0576
 30
0.0
 10
66.2906
 20
43.0576
 30
0.0
 10
65.5451
 20
44.7285
 30
0.0
 10
65.6375
 20
46.9558
 30
0.0
 10
66.5079
 20
48.5725
 30
0.0
 10
66.5079
 20
48.5725
 30
0.0
 10
67.5658
 20
50.5363
 30
0.0
 10
70.5395
 20
50.8908
 30
0.0
 10
72.3098
 20
49.5712
 30
0.0
 10
72.3098
 20
49.5712
 30
0.0
 10
72.6578
 20
49.3113
 30
0.0
 10
72.9118
 20
48.9553
 30
0.0
 10
73.1955
 20
48.6387
 30
0.0
 10
73.1955
 20
48.6387
 30
0.0
 10
74.5055
 20
47.1761
 30
0.0
 10
73.5348
 20
45.4586
 30
0.0
 10
74.0903
 20
44.9102
 30
0.0
 10
74.0903
 20
44.9102
 30
0.0
 10
75.0879
 20
43.9259
 30
0.0
 10
77.1987
 20
45.8422
 30
0.0
 10
77.1658
 20
48.0755
 30
0.0
 10
77.1658
 20
48.0755
 30
0.0
 10
77.0928
 20
52.9915
 30
0.0
 10
70.7694
 20
54.4943
 30
0.0
 10
66.8547
 20
52.0547
 30
0.0
 10
66.8547
 20
52.0547
 30
0.0
 10
63.6266
 20
50.0429
 30
0.0
 10
62.8563
 20
45.5046
 30
0.0
 10
64.305
 20
42.3232
 30
0.0
 10
64.305
 20
42.3232
 30
0.0
 10
65.1643
 20
40.4384
 30
0.0
 10
66.7394
 20
38.7811
 30
0.0
 10
68.1418
 20
37.2272
 30
0.0
 10
68.1418
 20
37.2272
 30
0.0
 10
69.3314
 20
35.9087
 30
0.0
 10
70.5074
 20
34.5748
 30
0.0
 10
71.5441
 20
33.147
 30
0.0
 10
71.5441
 20
33.147
 30
0.0
 10
68.401
 20
34.3049
 30
0.0
 10
65.7181
 20
31.9934
 30
0.0
 10
66.334
 20
28.9654
 30
0.0
 10
66.334
 20
28.9654
 30
0.0
 10
65.231
 20
30.3434
 30
0.0
 10
64.2141
 20
31.7819
 30
0.0
 10
63.3221
 20
33.2875
 30
0.0
 10
63.3221
 20
33.2875
 30
0.0
 10
63.1167
 20
33.7637
 30
0.0
 10
63.0277
 20
34.659
 30
0.0
 10
63.0265
 20
35.1779
 30
0.0
 10
63.0265
 20
35.1779
 30
0.0
 10
63.2735
 20
33.0823
 30
0.0
 10
66.1649
 20
32.6085
 30
0.0
 10
67.5899
 20
34.2104
 30
0.0
 10
67.5899
 20
34.2104
 30
0.0
 10
69.2863
 20
36.1167
 30
0.0
 10
67.3928
 20
39.1363
 30
0.0
 10
64.8431
 20
39.0542
 30
0.0
 10
64.8431
 20
39.0542
 30
0.0
 10
63.1858
 20
39.0002
 30
0.0
 10
62.0547
 20
37.7317
 30
0.0
 10
61.7644
 20
36.2972
 30
0.0
 10
61.7644
 20
36.2972
 30
0.0
 10
60.719
 20
38.6646
 30
0.0
 10
60.0158
 20
41.2351
 30
0.0
 10
60.0427
 20
43.8049
 30
0.0
 10
60.0427
 20
43.8049
 30
0.0
 10
60.111
 20
50.3886
 30
0.0
 10
65.2654
 20
56.8617
 30
0.0
 10
72.9363
 20
55.4823
 30
0.0
 10
72.9363
 20
55.4823
 30
0.0
 10
80.3738
 20
54.1451
 30
0.0
 10
83.1519
 20
45.5872
 30
0.0
 10
76.8514
 20
43.733
 30
0.0
 10
76.8514
 20
43.733
 30
0.0
 10
75.7124
 20
43.3982
 30
0.0
 10
74.8081
 20
43.4445
 30
0.0
 10
73.6565
 20
43.6824
 30
0.0
 10
73.6565
 20
43.6824
 30
0.0
 10
71.4141
 20
44.145
 30
0.0
 10
70.0705
 20
46.118
 30
0.0
 10
69.0809
 20
45.5029
 30
0.0
 10
69.0809
 20
45.5029
 30
0.0
 10
67.953
 20
44.8024
 30
0.0
 10
69.4199
 20
42.4725
 30
0.0
 10
70.3711
 20
41.6543
 30
0.0
 10
70.3711
 20
41.6543
 30
0.0
 10
74.2949
 20
38.2818
 30
0.0
 10
81.5942
 20
40.62
 30
0.0
 10
83.0009
 20
45.5612
 30
0.0
 10
83.0009
 20
45.5612
 30
0.0
 10
83.7156
 20
48.0731
 30
0.0
 10
82.8923
 20
50.7794
 30
0.0
 10
81.3045
 20
52.8538
 30
0.0
 10
81.3045
 20
52.8538
 30
0.0
 10
79.8231
 20
54.7893
 30
0.0
 10
77.7209
 20
56.1996
 30
0.0
 10
75.3245
 20
56.9802
 30
0.0
 10
75.3245
 20
56.9802
 30
0.0
 10
81.6261
 20
59.1142
 30
0.0
 10
82.6031
 20
66.6514
 30
0.0
 10
77.4847
 20
68.9379
 30
0.0
 10
77.4847
 20
68.9379
 30
0.0
 10
77.3334
 20
69.0057
 30
0.0
 10
77.1797
 20
69.0659
 30
0.0
 10
77.0256
 20
69.1202
 30
0.0
 10
77.0256
 20
69.1202
 30
0.0
 10
76.9676
 20
69.2639
 30
0.0
 10
76.9027
 20
69.4077
 30
0.0
 10
76.8301
 20
69.5489
 30
0.0
 10
76.8301
 20
69.5489
 30
0.0
 10
74.3791
 20
74.3249
 30
0.0
 10
66.3009
 20
73.4132
 30
0.0
 10
64.0138
 20
67.5336
 30
0.0
 10
64.0138
 20
67.5336
 30
0.0
 10
63.177
 20
69.7693
 30
0.0
 10
61.666
 20
71.7308
 30
0.0
 10
59.5915
 20
73.113
 30
0.0
 10
59.5915
 20
73.113
 30
0.0
 10
59.3994
 20
73.2412
 30
0.0
 10
59.2023
 20
73.3633
 30
0.0
 10
59.0008
 20
73.4802
 30
0.0
 10
59.0008
 20
73.4802
 30
0.0
 10
59.0008
 20
73.4802
 30
0.0
 10
59.0008
 20
76.6883
 30
0.0
 10
59.0008
 20
76.6883
 30
0.0
  0
SPLINE
  5
BB
330
1F
100
AcDbEntity
  8
layer 1
 62
     7
100
AcDbSpline
210
0.0
220
0.0
230
1.0
 70
    11
 71
     3
 72
    36
 73
    32
 74
     0
 42
0.0000000001
 43
0.0000000001
 12
1.0
 22
0.0
 32
0.0
 13
1.0
 23
0.0
 33
0.0
 40
0.0
 40
0.0
 40
0.0
 40
0.0
 40
0.1111111111111111
 40
0.1111111111111111
 40
0.1111111111111111
 40
0.1111111111111111
 40
0.2222222222222222
 40
0.2222222222222222
 40
0.2222222222222222
 40
0.2222222222222222
 40
0.3333333333333333
 40
0.3333333333333333
 40
0.3333333333333333
 40
0.3333333333333333
 40
0.4444444444444444
 40
0.4444444444444444
 40
0.4444444444444444
 40
0.4444444444444444
 40
0.5555555555555556
 40
0.5555555555555556
 40
0.5555555555555556
 40
0.5555555555555556
 40
0.6666666666666666
 40
0.6666666666666666
 40
0.6666666666666666
 40
0.6666666666666666
 40
0.7777777777777778
 40
0.7777777777777778
 40
0.7777777777777778
 40
0.7777777777777778
 40
1.0
 40
1.0
 40
1.0
 40
1.0
 10
59.0008
 20
84.2603
 30
0.0
 10
60.297
 20
84.5689
 30
0.0
 10
61.4411
 20
84.8188
 30
0.0
 10
62.0136
 20
84.887
 30
0.0
 10
62.0136
 20
84.887
 30
0.0
 10
62.993
 20
85.0043
 30
0.0
 10
64.5748
 20
84.742
 30
0.0
 10
65.4894
 20
84.3932
 30
0.0
 10
65.4894
 20
84.3932
 30
0.0
 10
64.9011
 20
84.5608
 30
0.0
 10
64.2766
 20
84.497
 30
0.0
 10
63.7243
 20
84.1969
 30
0.0
 10
63.7243
 20
84.1969
 30
0.0
 10
61.9907
 20
83.2548
 30
0.0
 10
62.5521
 20
81.7899
 30
0.0
 10
62.5008
 20
81.4266
 30
0.0
 10
62.5008
 20
81.4266
 30
0.0
 10
62.0314
 20
79.7834
 30
0.0
 10
63.5749
 20
78.2685
 30
0.0
 10
65.0825
 20
78.3807
 30
0.0
 10
65.0825
 20
78.3807
 30
0.0
 10
64.0304
 20
78.0606
 30
0.0
 10
62.731
 20
77.8797
 30
0.0
 10
61.6703
 20
78.1033
 30
0.0
 10
61.6703
 20
78.1033
 30
0.0
 10
60.7786
 20
78.2909
 30
0.0
 10
59.889
 20
78.488
 30
0.0
 10
59.0008
 20
78.6925
 30
0.0
 10
59.0008
 20
78.6925
 30
0.0
 10
59.0008
 20
78.6925
 30
0.0
 10
59.0008
 20
84.2603
 30
0.0
 10
59.0008
 20
84.2603
 30
0.0
  0
SPLINE
  5
BC
330
1F
100
AcDbEntity
  8
layer 1
 62
     7
100
AcDbSpline
210
0.0
220
0.0
230
1.0
 70
    11
 71
     3
 72
   156
 73
   152
 74
     0
 42
0.0000000001
 43
0.0000000001
 12
1.0
 22
0.0
 32
0.0
 13
1.0
 23
0.0
 33
0.0
 40
0.0
 40
0.0
 40
0.0
 40
0.0
 40
0.0256410256410256
 40
0.0256410256410256
 40
0.0256410256410256
 40
0.0256410256410256
 40
0.0512820512820513
 40
0.0512820512820513
 40
0.0512820512820513
 40
0.0512820512820513
 40
0.0769230769230769
 40
0.0769230769230769
 40
0.0769230769230769
 40
0.0769230769230769
 40
0.1025641025641026
 40
0.1025641025641026
 40
0.1025641025641026
 40
0.1025641025641026
 40
0.1282051282051282
 40
0.1282051282051282
 40
0.1282051282051282
 40
0.1282051282051282
 40
0.1538461538461539
 40
0.1538461538461539
 40
0.1538461538461539
 40
0.1538461538461539
 40
0.1794871794871795
 40
0.1794871794871795
 40
0.1794871794871795
 40
0.1794871794871795
 40
0.2051282051282051
 40
0.2051282051282051
 40
0.2051282051282051
 40
0.2051282051282051
 40
0.2307692307692308
 40
0.2307692307692308
 40
0.2307692307692308
 40
0.2307692307692308
 40
0.2564102564102564
 40
0.2564102564102564
 40
0.2564102564102564
 40
0.2564102564102564
 40
0.282051282051282
 40
0.282051282051282
 40
0.282051282051282
 40
0.282051282051282
 40
0.3076923076923077
 40
0.3076923076923077
 40
0.3076923076923077
 40
0.3076923076923077
 40
0.3333333333333333
 40
0.3333333333333333
 40
0.3333333333333333
 40
0.3333333333333333
 40
0.358974358974359
 40
0.358974358974359
 40
0.358974358974359
 40
0.358974358974359
 40
0.3846153846153846
 40
0.3846153846153846
 40
0.3846153846153846
 40
0.3846153846153846
 40
0.4102564102564102
 40
0.4102564102564102
 40
0.4102564102564102
 40
0.4102564102564102
 40
0.4358974358974359
 40
0.4358974358974359
 40
0.4358974358974359
 40
0.4358974358974359
 40
0.4615384615384616
 40
0.4615384615384616
 40
0.4615384615384616
 40
0.4615384615384616
 40
0.4871794871794872
 40
0.4871794871794872
 40
0.4871794871794872
 40
0.4871794871794872
 40
0.5128205128205128
 40
0.5128205128205128
 40
0.5128205128205128
 40
0.5128205128205128
 40
0.5384615384615384
 40
0.5384615384615384
 40
0.5384615384615384
 40
0.5384615384615384
 40
0.5641025641025641
 40
0.5641025641025641
 40
0.5641025641025641
 40
0.5641025641025641
 40
0.5897435897435898
 40
0.5897435897435898
 40
0.5897435897435898
 40
0.5897435897435898
 40
0.6153846153846154
 40
0.6153846153846154
 40
0.6153846153846154
 40
0.6153846153846154
 40
0.6410256410256411
 40
0.6410256410256411
 40
0.6410256410256411
 40
0.6410256410256411
 40
0.6666666666666666
 40
0.6666666666666666
 40
0.6666666666666666
 40
0.6666666666666666
 40
0.6923076923076923
 40
0.6923076923076923
 40
0.6923076923076923
 40
0.6923076923076923
 40
0.717948717948718
 40
0.717948717948718
 40
0.717948717948718
 40
0.717948717948718
 40
0.7435897435897436
 40
0.7435897435897436
 40
0.7435897435897436
 40
0.7435897435897436
 40
0.7692307692307693
 40
0.7692307692307693
 40
0.7692307692307693
 40
0.7692307692307693
 40
0.7948717948717948
 40
0.7948717948717948
 40
0.7948717948717948
 40
0.7948717948717948
 40
0.8205128205128205
 40
0.8205128205128205
 40
0.8205128205128205
 40
0.8205128205128205
 40
0.8461538461538461
 40
0.8461538461538461
 40
0.8461538461538461
 40
0.8461538461538461
 40
0.8717948717948718
 40
0.8717948717948718
 40
0.8717948717948718
 40
0.8717948717948718
 40
0.8974358974358975
 40
0.8974358974358975
 40
0.8974358974358975
 40
0.8974358974358975
 40
0.9230769230769231
 40
0.9230769230769231
 40
0.9230769230769231
 40
0.9230769230769231
 40
0.9487179487179487
 40
0.9487179487179487
 40
0.9487179487179487
 40
0.9487179487179487
 40
1.0
 40
1.0
 40
1.0
 40
1.0
 10
79.1558
 20
124.3169
 30
0.0
 10
79.3277
 20
123.9744
 30
0.0
 10
79.5481
 20
123.6404
 30
0.0
 10
79.8211
 20
123.3214
 30
0.0
 10
79.8211
 20
123.3214
 30
0.0
 10
82.229
 20
120.5074
 30
0.0
 10
86.1993
 20
121.6805
 30
0.0
 10
88.249
 20
124.3169
 30
0.0
 10
88.249
 20
124.3169
 30
0.0
 10
88.249
 20
124.3169
 30
0.0
 10
89.109
 20
124.3169
 30
0.0
 10
89.109
 20
124.3169
 30
0.0
 10
89.109
 20
124.3169
 30
0.0
 10
88.2679
 20
121.2765
 30
0.0
 10
87.3359
 20
118.2581
 30
0.0
 10
86.4569
 20
115.2265
 30
0.0
 10
86.4569
 20
115.2265
 30
0.0
 10
83.833
 20
106.2147
 30
0.0
 10
81.6336
 20
98.0715
 30
0.0
 10
84.2552
 20
88.7651
 30
0.0
 10
84.2552
 20
88.7651
 30
0.0
 10
84.5125
 20
87.8511
 30
0.0
 10
84.84
 20
86.955
 30
0.0
 10
85.2374
 20
86.0868
 30
0.0
 10
85.2374
 20
86.0868
 30
0.0
 10
79.2
 20
88.1793
 30
0.0
 10
72.5784
 20
88.5959
 30
0.0
 10
66.2384
 20
87.6643
 30
0.0
 10
66.2384
 20
87.6643
 30
0.0
 10
63.8004
 20
87.3059
 30
0.0
 10
61.3934
 20
86.7926
 30
0.0
 10
59.0008
 20
86.2273
 30
0.0
 10
59.0008
 20
86.2273
 30
0.0
 10
59.0008
 20
86.2273
 30
0.0
 10
59.0008
 20
89.2813
 30
0.0
 10
59.0008
 20
89.2813
 30
0.0
 10
59.0008
 20
89.2813
 30
0.0
 10
61.1729
 20
90.5186
 30
0.0
 10
63.0471
 20
92.5496
 30
0.0
 10
64.0865
 20
95.2559
 30
0.0
 10
64.0865
 20
95.2559
 30
0.0
 10
64.8158
 20
93.4724
 30
0.0
 10
66.1365
 20
92.0091
 30
0.0
 10
67.9759
 20
91.1326
 30
0.0
 10
67.9759
 20
91.1326
 30
0.0
 10
69.9603
 20
90.187
 30
0.0
 10
72.4484
 20
90.0405
 30
0.0
 10
74.4324
 20
91.0679
 30
0.0
 10
74.4324
 20
91.0679
 30
0.0
 10
75.5959
 20
91.6702
 30
0.0
 10
76.4275
 20
92.6051
 30
0.0
 10
76.889
 20
93.6784
 30
0.0
 10
76.889
 20
93.6784
 30
0.0
 10
77.0896
 20
93.7435
 30
0.0
 10
77.2884
 20
93.8193
 30
0.0
 10
77.4847
 20
93.9071
 30
0.0
 10
77.4847
 20
93.9071
 30
0.0
 10
82.6031
 20
96.1935
 30
0.0
 10
81.6261
 20
103.7308
 30
0.0
 10
75.3245
 20
105.8643
 30
0.0
 10
75.3245
 20
105.8643
 30
0.0
 10
77.7209
 20
106.6454
 30
0.0
 10
79.8231
 20
108.0552
 30
0.0
 10
81.3045
 20
109.9907
 30
0.0
 10
81.3045
 20
109.9907
 30
0.0
 10
82.8923
 20
112.0656
 30
0.0
 10
83.7156
 20
114.7718
 30
0.0
 10
83.0009
 20
117.2838
 30
0.0
 10
83.0009
 20
117.2838
 30
0.0
 10
81.5942
 20
122.2249
 30
0.0
 10
74.2949
 20
124.5632
 30
0.0
 10
70.3711
 20
121.1903
 30
0.0
 10
70.3711
 20
121.1903
 30
0.0
 10
69.4199
 20
120.3721
 30
0.0
 10
67.953
 20
118.0426
 30
0.0
 10
69.0809
 20
117.342
 30
0.0
 10
69.0809
 20
117.342
 30
0.0
 10
70.0705
 20
116.7269
 30
0.0
 10
71.4141
 20
118.6996
 30
0.0
 10
73.6565
 20
119.1626
 30
0.0
 10
73.6565
 20
119.1626
 30
0.0
 10
74.8081
 20
119.4001
 30
0.0
 10
75.7124
 20
119.4468
 30
0.0
 10
76.8514
 20
119.1119
 30
0.0
 10
76.8514
 20
119.1119
 30
0.0
 10
83.1519
 20
117.2578
 30
0.0
 10
80.3738
 20
108.6995
 30
0.0
 10
72.9363
 20
107.3623
 30
0.0
 10
72.9363
 20
107.3623
 30
0.0
 10
65.2654
 20
105.9828
 30
0.0
 10
60.111
 20
112.4564
 30
0.0
 10
60.0427
 20
119.04
 30
0.0
 10
60.0427
 20
119.04
 30
0.0
 10
60.0241
 20
120.8215
 30
0.0
 10
60.3563
 20
122.6029
 30
0.0
 10
60.9098
 20
124.3169
 30
0.0
 10
60.9098
 20
124.3169
 30
0.0
 10
60.9098
 20
124.3169
 30
0.0
 10
63.2051
 20
124.3169
 30
0.0
 10
63.2051
 20
124.3169
 30
0.0
 10
63.2051
 20
124.3169
 30
0.0
 10
63.6642
 20
124.0056
 30
0.0
 10
64.2161
 20
123.8111
 30
0.0
 10
64.8431
 20
123.7908
 30
0.0
 10
64.8431
 20
123.7908
 30
0.0
 10
65.5296
 20
123.7685
 30
0.0
 10
66.1689
 20
123.9712
 30
0.0
 10
66.7026
 20
124.3169
 30
0.0
 10
66.7026
 20
124.3169
 30
0.0
 10
66.7026
 20
124.3169
 30
0.0
 10
66.9704
 20
124.3169
 30
0.0
 10
66.9704
 20
124.3169
 30
0.0
 10
66.9704
 20
124.3169
 30
0.0
 10
65.9315
 20
123.1402
 30
0.0
 10
64.9292
 20
121.8908
 30
0.0
 10
64.305
 20
120.5213
 30
0.0
 10
64.305
 20
120.5213
 30
0.0
 10
62.8563
 20
117.3404
 30
0.0
 10
63.6266
 20
112.802
 30
0.0
 10
66.8547
 20
110.7903
 30
0.0
 10
66.8547
 20
110.7903
 30
0.0
 10
70.7694
 20
108.3507
 30
0.0
 10
77.0928
 20
109.8534
 30
0.0
 10
77.1658
 20
114.7694
 30
0.0
 10
77.1658
 20
114.7694
 30
0.0
 10
77.1987
 20
117.0028
 30
0.0
 10
75.0879
 20
118.9191
 30
0.0
 10
74.0903
 20
117.9344
 30
0.0
 10
74.0903
 20
117.9344
 30
0.0
 10
73.5348
 20
117.386
 30
0.0
 10
74.5055
 20
115.6688
 30
0.0
 10
73.1955
 20
114.2059
 30
0.0
 10
73.1955
 20
114.2059
 30
0.0
 10
72.9118
 20
113.8889
 30
0.0
 10
72.6578
 20
113.5337
 30
0.0
 10
72.3098
 20
113.2738
 30
0.0
 10
72.3098
 20
113.2738
 30
0.0
 10
70.5395
 20
111.9538
 30
0.0
 10
67.5658
 20
112.3087
 30
0.0
 10
66.5079
 20
114.2725
 30
0.0
 10
66.5079
 20
114.2725
 30
0.0
 10
65.6375
 20
115.8887
 30
0.0
 10
65.5451
 20
118.1164
 30
0.0
 10
66.2906
 20
119.7873
 30
0.0
 10
66.2906
 20
119.7873
 30
0.0
 10
66.9752
 20
121.32
 30
0.0
 10
68.2149
 20
122.7251
 30
0.0
 10
69.617
 20
124.3169
 30
0.0
 10
69.617
 20
124.3169
 30
0.0
 10
69.617
 20
124.3169
 30
0.0
 10
79.1558
 20
124.3169
 30
0.0
 10
79.1558
 20
124.3169
 30
0.0
  0
SPLINE
  5
BD
330
1F
100
AcDbEntity
  8
layer 1
 62
     7
100
AcDbSpline
210
0.0
220
0.0
230
1.0
 70
    11
 71
     3
 72
    12
 73
     8
 74
     0
 42
0.0000000001
 43
0.0000000001
 12
1.0
 22
0.0
 32
0.0
 13
1.0
 23
0.0
 33
0.0
 40
0.0
 40
0.0
 40
0.0
 40
0.0
 40
0.3333333333333333
 40
0.3333333333333333
 40
0.3333333333333333
 40
0.3333333333333333
 40
1.0
 40
1.0
 40
1.0
 40
1.0
 10
85.8035
 20
124.3169
 30
0.0
 10
84.4342
 20
123.3082
 30
0.0
 10
82.6493
 20
122.9246
 30
0.0
 10
81.3844
 20
124.3169
 30
0.0
 10
81.3844
 20
124.3169
 30
0.0
 10
81.3844
 20
124.3169
 30
0.0
 10
85.8035
 20
124.3169
 30
0.0
 10
85.8035
 20
124.3169
 30
0.0
  0
SPLINE
  5
BE
330
1F
100
AcDbEntity
  8
layer 1
 62
     7
100
AcDbSpline
210
0.0
220
0.0
230
1.0
 70
    11
 71
     3
 72
    12
 73
     8
 74
     0
 42
0.0000000001
 43
0.0000000001
 12
1.0
 22
0.0
 32
0.0
 13
1.0
 23
0.0
 33
0.0
 40
0.0
 40
0.0
 40
0.0
 40
0.0
 40
0.3333333333333333
 40
0.3333333333333333
 40
0.3333333333333333
 40
0.3333333333333333
 40
1.0
 40
1.0
 40
1.0
 40
1.0
 10
99.0792
 20
124.3169
 30
0.0
 10
97.8553
 20
123.0021
 30
0.0
 10
96.1221
 20
123.3829
 30
0.0
 10
94.809
 20
124.3169
 30
0.0
 10
94.809
 20
124.3169
 30
0.0
 10
94.809
 20
124.3169
 30
0.0
 10
99.0792
 20
124.3169
 30
0.0
 10
99.0792
 20
124.3169
 30
0.0
  0
SPLINE
  5
BF
330
1F
100
AcDbEntity
  8
layer 1
 62
     7
100
AcDbSpline
210
0.0
220
0.0
230
1.0
 70
    11
 71
     3
 72
   148
 73
   144
 74
     0
 42
0.0000000001
 43
0.0000000001
 12
1.0
 22
0.0
 32
0.0
 13
1.0
 23
0.0
 33
0.0
 40
0.0
 40
0.0
 40
0.0
 40
0.0
 40
0.027027027027027
 40
0.027027027027027
 40
0.027027027027027
 40
0.027027027027027
 40
0.0540540540540541
 40
0.0540540540540541
 40
0.0540540540540541
 40
0.0540540540540541
 40
0.0810810810810811
 40
0.0810810810810811
 40
0.0810810810810811
 40
0.0810810810810811
 40
0.1081081081081081
 40
0.1081081081081081
 40
0.1081081081081081
 40
0.1081081081081081
 40
0.1351351351351351
 40
0.1351351351351351
 40
0.1351351351351351
 40
0.1351351351351351
 40
0.1621621621621622
 40
0.1621621621621622
 40
0.1621621621621622
 40
0.1621621621621622
 40
0.1891891891891892
 40
0.1891891891891892
 40
0.1891891891891892
 40
0.1891891891891892
 40
0.2162162162162162
 40
0.2162162162162162
 40
0.2162162162162162
 40
0.2162162162162162
 40
0.2432432432432433
 40
0.2432432432432433
 40
0.2432432432432433
 40
0.2432432432432433
 40
0.2702702702702703
 40
0.2702702702702703
 40
0.2702702702702703
 40
0.2702702702702703
 40
0.2972972972972973
 40
0.2972972972972973
 40
0.2972972972972973
 40
0.2972972972972973
 40
0.3243243243243243
 40
0.3243243243243243
 40
0.3243243243243243
 40
0.3243243243243243
 40
0.3513513513513514
 40
0.3513513513513514
 40
0.3513513513513514
 40
0.3513513513513514
 40
0.3783783783783784
 40
0.3783783783783784
 40
0.3783783783783784
 40
0.3783783783783784
 40
0.4054054054054054
 40
0.4054054054054054
 40
0.4054054054054054
 40
0.4054054054054054
 40
0.4324324324324325
 40
0.4324324324324325
 40
0.4324324324324325
 40
0.4324324324324325
 40
0.4594594594594595
 40
0.4594594594594595
 40
0.4594594594594595
 40
0.4594594594594595
 40
0.4864864864864865
 40
0.4864864864864865
 40
0.4864864864864865
 40
0.4864864864864865
 40
0.5135135135135135
 40
0.5135135135135135
 40
0.5135135135135135
 40
0.5135135135135135
 40
0.5405405405405406
 40
0.5405405405405406
 40
0.5405405405405406
 40
0.5405405405405406
 40
0.5675675675675675
 40
0.5675675675675675
 40
0.5675675675675675
 40
0.5675675675675675
 40
0.5945945945945946
 40
0.5945945945945946
 40
0.5945945945945946
 40
0.5945945945945946
 40
0.6216216216216216
 40
0.6216216216216216
 40
0.6216216216216216
 40
0.6216216216216216
 40
0.6486486486486487
 40
0.6486486486486487
 40
0.6486486486486487
 40
0.6486486486486487
 40
0.6756756756756757
 40
0.6756756756756757
 40
0.6756756756756757
 40
0.6756756756756757
 40
0.7027027027027027
 40
0.7027027027027027
 40
0.7027027027027027
 40
0.7027027027027027
 40
0.7297297297297297
 40
0.7297297297297297
 40
0.7297297297297297
 40
0.7297297297297297
 40
0.7567567567567568
 40
0.7567567567567568
 40
0.7567567567567568
 40
0.7567567567567568
 40
0.7837837837837838
 40
0.7837837837837838
 40
0.7837837837837838
 40
0.7837837837837838
 40
0.8108108108108109
 40
0.8108108108108109
 40
0.8108108108108109
 40
0.8108108108108109
 40
0.8378378378378378
 40
0.8378378378378378
 40
0.8378378378378378
 40
0.8378378378378378
 40
0.8648648648648649
 40
0.8648648648648649
 40
0.8648648648648649
 40
0.8648648648648649
 40
0.8918918918918919
 40
0.8918918918918919
 40
0.8918918918918919
 40
0.8918918918918919
 40
0.918918918918919
 40
0.918918918918919
 40
0.918918918918919
 40
0.918918918918919
 40
0.9459459459459459
 40
0.9459459459459459
 40
0.9459459459459459
 40
0.9459459459459459
 40
1.0
 40
1.0
 40
1.0
 40
1.0
 10
121.3454
 20
86.2445
 30
0.0
 10
118.9778
 20
86.8029
 30
0.0
 10
116.5955
 20
87.3094
 30
0.0
 10
114.1824
 20
87.6643
 30
0.0
 10
114.1824
 20
87.6643
 30
0.0
 10
107.8567
 20
88.5939
 30
0.0
 10
101.2505
 20
88.1812
 30
0.0
 10
95.2242
 20
86.1008
 30
0.0
 10
95.2242
 20
86.1008
 30
0.0
 10
97.4539
 20
91.7233
 30
0.0
 10
97.8964
 20
97.8867
 30
0.0
 10
96.9
 20
103.7891
 30
0.0
 10
96.9
 20
103.7891
 30
0.0
 10
96.3932
 20
106.7931
 30
0.0
 10
95.5952
 20
109.7469
 30
0.0
 10
94.7639
 20
112.6847
 30
0.0
 10
94.7639
 20
112.6847
 30
0.0
 10
94.2444
 20
114.5212
 30
0.0
 10
91.8262
 20
122.476
 30
0.0
 10
91.3427
 20
124.3169
 30
0.0
 10
91.3427
 20
124.3169
 30
0.0
 10
91.3427
 20
124.3169
 30
0.0
 10
92.3513
 20
124.3169
 30
0.0
 10
92.3513
 20
124.3169
 30
0.0
 10
92.3513
 20
124.3169
 30
0.0
 10
94.4245
 20
121.6661
 30
0.0
 10
98.3673
 20
120.6267
 30
0.0
 10
100.6951
 20
123.3821
 30
0.0
 10
100.6951
 20
123.3821
 30
0.0
 10
100.9522
 20
123.6866
 30
0.0
 10
101.162
 20
123.9996
 30
0.0
 10
101.3287
 20
124.3169
 30
0.0
 10
101.3287
 20
124.3169
 30
0.0
 10
101.3287
 20
124.3169
 30
0.0
 10
110.8272
 20
124.3169
 30
0.0
 10
110.8272
 20
124.3169
 30
0.0
 10
110.8272
 20
124.3169
 30
0.0
 10
111.0859
 20
124.0239
 30
0.0
 10
111.3463
 20
123.7342
 30
0.0
 10
111.6063
 20
123.4476
 30
0.0
 10
111.6063
 20
123.4476
 30
0.0
 10
113.5962
 20
121.2578
 30
0.0
 10
114.9749
 20
119.4336
 30
0.0
 10
114.6309
 20
116.4256
 30
0.0
 10
114.6309
 20
116.4256
 30
0.0
 10
114.3472
 20
113.9436
 30
0.0
 10
112.9945
 20
112.2476
 30
0.0
 10
110.1252
 20
112.5254
 30
0.0
 10
110.1252
 20
112.5254
 30
0.0
 10
108.6804
 20
112.6647
 30
0.0
 10
108.1574
 20
113.1553
 30
0.0
 10
107.2495
 20
114.1436
 30
0.0
 10
107.2495
 20
114.1436
 30
0.0
 10
106.3744
 20
115.096
 30
0.0
 10
106.4333
 20
115.9845
 30
0.0
 10
106.4929
 20
117.1328
 30
0.0
 10
106.4929
 20
117.1328
 30
0.0
 10
106.6063
 20
119.3082
 30
0.0
 10
103.0567
 20
117.9563
 30
0.0
 10
103.2151
 20
114.6389
 30
0.0
 10
103.2151
 20
114.6389
 30
0.0
 10
103.4261
 20
110.2243
 30
0.0
 10
109.1502
 20
108.2233
 30
0.0
 10
113.42
 20
110.6446
 30
0.0
 10
113.42
 20
110.6446
 30
0.0
 10
116.8677
 20
112.6
 30
0.0
 10
117.6646
 20
117.336
 30
0.0
 10
116.1404
 20
120.6044
 30
0.0
 10
116.1404
 20
120.6044
 30
0.0
 10
115.5178
 20
121.9403
 30
0.0
 10
114.5376
 20
123.1626
 30
0.0
 10
113.5148
 20
124.3169
 30
0.0
 10
113.5148
 20
124.3169
 30
0.0
 10
113.5148
 20
124.3169
 30
0.0
 10
113.7025
 20
124.3169
 30
0.0
 10
113.7025
 20
124.3169
 30
0.0
 10
113.7025
 20
124.3169
 30
0.0
 10
114.9387
 20
123.4539
 30
0.0
 10
116.298
 20
123.5796
 30
0.0
 10
117.3011
 20
124.3169
 30
0.0
 10
117.3011
 20
124.3169
 30
0.0
 10
117.3011
 20
124.3169
 30
0.0
 10
119.549
 20
124.3169
 30
0.0
 10
119.549
 20
124.3169
 30
0.0
 10
119.549
 20
124.3169
 30
0.0
 10
120.6168
 20
120.9437
 30
0.0
 10
120.833
 20
117.2993
 30
0.0
 10
119.3819
 20
114.0059
 30
0.0
 10
119.3819
 20
114.0059
 30
0.0
 10
114.3464
 20
102.5772
 30
0.0
 10
99.4861
 20
106.9564
 30
0.0
 10
100.0795
 20
115.2867
 30
0.0
 10
100.0795
 20
115.2867
 30
0.0
 10
100.2442
 20
117.6003
 30
0.0
 10
102.3776
 20
119.1091
 30
0.0
 10
104.7523
 20
119.3055
 30
0.0
 10
104.7523
 20
119.3055
 30
0.0
 10
108.7077
 20
119.6332
 30
0.0
 10
109.962
 20
116.7369
 30
0.0
 10
111.2294
 20
117.2906
 30
0.0
 10
111.2294
 20
117.2906
 30
0.0
 10
112.6338
 20
117.9044
 30
0.0
 10
111.0362
 20
121.8413
 30
0.0
 10
107.1168
 20
122.6061
 30
0.0
 10
107.1168
 20
122.6061
 30
0.0
 10
104.9708
 20
123.0248
 30
0.0
 10
102.6719
 20
122.5901
 30
0.0
 10
100.8281
 20
121.4965
 30
0.0
 10
100.8281
 20
121.4965
 30
0.0
 10
94.3776
 20
117.6718
 30
0.0
 10
96.7594
 20
108.565
 30
0.0
 10
105.0368
 20
105.7968
 30
0.0
 10
105.0368
 20
105.7968
 30
0.0
 10
103.1254
 20
105.1163
 30
0.0
 10
101.5562
 20
103.8845
 30
0.0
 10
100.6176
 20
102.168
 30
0.0
 10
100.6176
 20
102.168
 30
0.0
 10
99.6043
 20
100.3168
 30
0.0
 10
99.4466
 20
97.9953
 30
0.0
 10
100.548
 20
96.1436
 30
0.0
 10
100.548
 20
96.1436
 30
0.0
 10
101.2181
 20
95.016
 30
0.0
 10
102.2733
 20
94.2228
 30
0.0
 10
103.4802
 20
93.8033
 30
0.0
 10
103.4802
 20
93.8033
 30
0.0
 10
103.9302
 20
92.6777
 30
0.0
 10
104.7803
 20
91.6934
 30
0.0
 10
105.9888
 20
91.0679
 30
0.0
 10
105.9888
 20
91.0679
 30
0.0
 10
107.9728
 20
90.0405
 30
0.0
 10
110.4609
 20
90.187
 30
0.0
 10
112.4449
 20
91.1326
 30
0.0
 10
112.4449
 20
91.1326
 30
0.0
 10
114.2843
 20
92.0091
 30
0.0
 10
115.6051
 20
93.4724
 30
0.0
 10
116.3348
 20
95.2559
 30
0.0
 10
116.3348
 20
95.2559
 30
0.0
 10
117.3623
 20
92.5807
 30
0.0
 10
119.2053
 20
90.5662
 30
0.0
 10
121.3454
 20
89.3252
 30
0.0
 10
121.3454
 20
89.3252
 30
0.0
 10
121.3454
 20
89.3252
 30
0.0
 10
121.3454
 20
86.2445
 30
0.0
 10
121.3454
 20
86.2445
 30
0.0
  0
SPLINE
  5
C0
330
1F
100
AcDbEntity
  8
layer 1
 62
     7
100
AcDbSpline
210
0.0
220
0.0
230
1.0
 70
    11
 71
     3
 72
    36
 73
    32
 74
     0
 42
0.0000000001
 43
0.0000000001
 12
1.0
 22
0.0
 32
0.0
 13
1.0
 23
0.0
 33
0.0
 40
0.0
 40
0.0
 40
0.0
 40
0.0
 40
0.1111111111111111
 40
0.1111111111111111
 40
0.1111111111111111
 40
0.1111111111111111
 40
0.2222222222222222
 40
0.2222222222222222
 40
0.2222222222222222
 40
0.2222222222222222
 40
0.3333333333333333
 40
0.3333333333333333
 40
0.3333333333333333
 40
0.3333333333333333
 40
0.4444444444444444
 40
0.4444444444444444
 40
0.4444444444444444
 40
0.4444444444444444
 40
0.5555555555555556
 40
0.5555555555555556
 40
0.5555555555555556
 40
0.5555555555555556
 40
0.6666666666666666
 40
0.6666666666666666
 40
0.6666666666666666
 40
0.6666666666666666
 40
0.7777777777777778
 40
0.7777777777777778
 40
0.7777777777777778
 40
0.7777777777777778
 40
1.0
 40
1.0
 40
1.0
 40
1.0
 10
121.3454
 20
78.6757
 30
0.0
 10
120.4825
 20
78.4777
 30
0.0
 10
119.6178
 20
78.2861
 30
0.0
 10
118.7505
 20
78.1033
 30
0.0
 10
118.7505
 20
78.1033
 30
0.0
 10
117.6899
 20
77.8797
 30
0.0
 10
116.3909
 20
78.0606
 30
0.0
 10
115.3388
 20
78.3807
 30
0.0
 10
115.3388
 20
78.3807
 30
0.0
 10
116.8459
 20
78.2685
 30
0.0
 10
118.3894
 20
79.7834
 30
0.0
 10
117.9201
 20
81.4266
 30
0.0
 10
117.9201
 20
81.4266
 30
0.0
 10
117.8692
 20
81.7899
 30
0.0
 10
118.4302
 20
83.2548
 30
0.0
 10
116.6966
 20
84.1969
 30
0.0
 10
116.6966
 20
84.1969
 30
0.0
 10
116.1444
 20
84.497
 30
0.0
 10
115.5197
 20
84.5608
 30
0.0
 10
114.9315
 20
84.3932
 30
0.0
 10
114.9315
 20
84.3932
 30
0.0
 10
115.8461
 20
84.742
 30
0.0
 10
117.4279
 20
85.0043
 30
0.0
 10
118.408
 20
84.887
 30
0.0
 10
118.408
 20
84.887
 30
0.0
 10
118.9686
 20
84.8199
 30
0.0
 10
120.08
 20
84.5781
 30
0.0
 10
121.3454
 20
84.2779
 30
0.0
 10
121.3454
 20
84.2779
 30
0.0
 10
121.3454
 20
84.2779
 30
0.0
 10
121.3454
 20
78.6757
 30
0.0
 10
121.3454
 20
78.6757
 30
0.0
  0
SPLINE
  5
C1
330
1F
100
AcDbEntity
  8
layer 1
 62
     7
100
AcDbSpline
210
0.0
220
0.0
230
1.0
 70
    11
 71
     3
 72
   256
 73
   252
 74
     0
 42
0.0000000001
 43
0.0000000001
 12
1.0
 22
0.0
 32
0.0
 13
1.0
 23
0.0
 33
0.0
 40
0.0
 40
0.0
 40
0.0
 40
0.0
 40
0.015625
 40
0.015625
 40
0.015625
 40
0.015625
 40
0.03125
 40
0.03125
 40
0.03125
 40
0.03125
 40
0.046875
 40
0.046875
 40
0.046875
 40
0.046875
 40
0.0625
 40
0.0625
 40
0.0625
 40
0.0625
 40
0.078125
 40
0.078125
 40
0.078125
 40
0.078125
 40
0.09375
 40
0.09375
 40
0.09375
 40
0.09375
 40
0.109375
 40
0.109375
 40
0.109375
 40
0.109375
 40
0.125
 40
0.125
 40
0.125
 40
0.125
 40
0.140625
 40
0.140625
 40
0.140625
 40
0.140625
 40
0.15625
 40
0.15625
 40
0.15625
 40
0.15625
 40
0.171875
 40
0.171875
 40
0.171875
 40
0.171875
 40
0.1875
 40
0.1875
 40
0.1875
 40
0.1875
 40
0.203125
 40
0.203125
 40
0.203125
 40
0.203125
 40
0.21875
 40
0.21875
 40
0.21875
 40
0.21875
 40
0.234375
 40
0.234375
 40
0.234375
 40
0.234375
 40
0.25
 40
0.25
 40
0.25
 40
0.25
 40
0.265625
 40
0.265625
 40
0.265625
 40
0.265625
 40
0.28125
 40
0.28125
 40
0.28125
 40
0.28125
 40
0.296875
 40
0.296875
 40
0.296875
 40
0.296875
 40
0.3125
 40
0.3125
 40
0.3125
 40
0.3125
 40
0.328125
 40
0.328125
 40
0.328125
 40
0.328125
 40
0.34375
 40
0.34375
 40
0.34375
 40
0.34375
 40
0.359375
 40
0.359375
 40
0.359375
 40
0.359375
 40
0.375
 40
0.375
 40
0.375
 40
0.375
 40
0.390625
 40
0.390625
 40
0.390625
 40
0.390625
 40
0.40625
 40
0.40625
 40
0.40625
 40
0.40625
 40
0.421875
 40
0.421875
 40
0.421875
 40
0.421875
 40
0.4375
 40
0.4375
 40
0.4375
 40
0.4375
 40
0.453125
 40
0.453125
 40
0.453125
 40
0.453125
 40
0.46875
 40
0.46875
 40
0.46875
 40
0.46875
 40
0.484375
 40
0.484375
 40
0.484375
 40
0.484375
 40
0.5
 40
0.5
 40
0.5
 40
0.5
 40
0.515625
 40
0.515625
 40
0.515625
 40
0.515625
 40
0.53125
 40
0.53125
 40
0.53125
 40
0.53125
 40
0.546875
 40
0.546875
 40
0.546875
 40
0.546875
 40
0.5625
 40
0.5625
 40
0.5625
 40
0.5625
 40
0.578125
 40
0.578125
 40
0.578125
 40
0.578125
 40
0.59375
 40
0.59375
 40
0.59375
 40
0.59375
 40
0.609375
 40
0.609375
 40
0.609375
 40
0.609375
 40
0.625
 40
0.625
 40
0.625
 40
0.625
 40
0.640625
 40
0.640625
 40
0.640625
 40
0.640625
 40
0.65625
 40
0.65625
 40
0.65625
 40
0.65625
 40
0.671875
 40
0.671875
 40
0.671875
 40
0.671875
 40
0.6875
 40
0.6875
 40
0.6875
 40
0.6875
 40
0.703125
 40
0.703125
 40
0.703125
 40
0.703125
 40
0.71875
 40
0.71875
 40
0.71875
 40
0.71875
 40
0.734375
 40
0.734375
 40
0.734375
 40
0.734375
 40
0.75
 40
0.75
 40
0.75
 40
0.75
 40
0.765625
 40
0.765625
 40
0.765625
 40
0.765625
 40
0.78125
 40
0.78125
 40
0.78125
 40
0.78125
 40
0.796875
 40
0.796875
 40
0.796875
 40
0.796875
 40
0.8125
 40
0.8125
 40
0.8125
 40
0.8125
 40
0.828125
 40
0.828125
 40
0.828125
 40
0.828125
 40
0.84375
 40
0.84375
 40
0.84375
 40
0.84375
 40
0.859375
 40
0.859375
 40
0.859375
 40
0.859375
 40
0.875
 40
0.875
 40
0.875
 40
0.875
 40
0.890625
 40
0.890625
 40
0.890625
 40
0.890625
 40
0.90625
 40
0.90625
 40
0.90625
 40
0.90625
 40
0.921875
 40
0.921875
 40
0.921875
 40
0.921875
 40
0.9375
 40
0.9375
 40
0.9375
 40
0.9375
 40
0.953125
 40
0.953125
 40
0.953125
 40
0.953125
 40
0.96875
 40
0.96875
 40
0.96875
 40
0.96875
 40
1.0
 40
1.0
 40
1.0
 40
1.0
 10
92.9723
 20
15.3786
 30
0.0
 10
94.0473
 20
20.6039
 30
0.0
 10
93.7475
 20
26.0173
 30
0.0
 10
92.8088
 20
31.2386
 30
0.0
 10
92.8088
 20
31.2386
 30
0.0
 10
92.7092
 20
31.7926
 30
0.0
 10
92.6034
 20
32.3443
 30
0.0
 10
92.4915
 20
32.894
 30
0.0
 10
92.4915
 20
32.894
 30
0.0
 10
92.3781
 20
33.8946
 30
0.0
 10
92.5781
 20
35.2115
 30
0.0
 10
92.9249
 20
36.163
 30
0.0
 10
92.9249
 20
36.163
 30
0.0
 10
93.1659
 20
36.8269
 30
0.0
 10
93.6029
 20
37.4439
 30
0.0
 10
94.1184
 20
37.9496
 30
0.0
 10
94.1184
 20
37.9496
 30
0.0
 10
95.4904
 20
39.2956
 30
0.0
 10
97.7486
 20
40.1375
 30
0.0
 10
99.2008
 20
38.3899
 30
0.0
 10
99.2008
 20
38.3899
 30
0.0
 10
101.6096
 20
35.4916
 30
0.0
 10
96.8554
 20
33.1274
 30
0.0
 10
96.5587
 20
36.466
 30
0.0
 10
96.5587
 20
36.466
 30
0.0
 10
96.5164
 20
36.9394
 30
0.0
 10
96.6586
 20
37.6499
 30
0.0
 10
96.1629
 20
37.9525
 30
0.0
 10
96.1629
 20
37.9525
 30
0.0
 10
95.8562
 20
38.1397
 30
0.0
 10
95.5094
 20
38.0458
 30
0.0
 10
95.2151
 20
37.8898
 30
0.0
 10
95.2151
 20
37.8898
 30
0.0
 10
92.8107
 20
36.6165
 30
0.0
 10
93.8735
 20
31.9695
 30
0.0
 10
97.5621
 20
32.1012
 30
0.0
 10
97.5621
 20
32.1012
 30
0.0
 10
100.9435
 20
32.2213
 30
0.0
 10
103.3692
 20
36.2968
 30
0.0
 10
100.6951
 20
39.4625
 30
0.0
 10
100.6951
 20
39.4625
 30
0.0
 10
97.9964
 20
42.6573
 30
0.0
 10
93.126
 20
40.7517
 30
0.0
 10
91.5162
 20
37.1465
 30
0.0
 10
91.5162
 20
37.1465
 30
0.0
 10
91.432
 20
37.4834
 30
0.0
 10
91.3458
 20
37.8191
 30
0.0
 10
91.2581
 20
38.1552
 30
0.0
 10
91.2581
 20
38.1552
 30
0.0
 10
91.2609
 20
38.5113
 30
0.0
 10
94.1863
 20
48.1182
 30
0.0
 10
94.7639
 20
50.1599
 30
0.0
 10
94.7639
 20
50.1599
 30
0.0
 10
95.5952
 20
53.0981
 30
0.0
 10
96.3932
 20
56.0518
 30
0.0
 10
96.9
 20
59.0559
 30
0.0
 10
96.9
 20
59.0559
 30
0.0
 10
97.8987
 20
64.9714
 30
0.0
 10
97.4524
 20
71.1495
 30
0.0
 10
95.2092
 20
76.7829
 30
0.0
 10
95.2092
 20
76.7829
 30
0.0
 10
96.1395
 20
76.4117
 30
0.0
 10
97.1007
 20
76.1063
 30
0.0
 10
98.0801
 20
75.8664
 30
0.0
 10
98.0801
 20
75.8664
 30
0.0
 10
106.2737
 20
73.8566
 30
0.0
 10
113.627
 20
74.8837
 30
0.0
 10
121.3454
 20
76.6711
 30
0.0
 10
121.3454
 20
76.6711
 30
0.0
 10
121.3454
 20
76.6711
 30
0.0
 10
121.3454
 20
73.4368
 30
0.0
 10
121.3454
 20
73.4368
 30
0.0
 10
121.3454
 20
73.4368
 30
0.0
 10
121.17
 20
73.333
 30
0.0
 10
120.9981
 20
73.2252
 30
0.0
 10
120.8298
 20
73.113
 30
0.0
 10
120.8298
 20
73.113
 30
0.0
 10
118.7549
 20
71.7308
 30
0.0
 10
117.2438
 20
69.7693
 30
0.0
 10
116.4071
 20
67.5336
 30
0.0
 10
116.4071
 20
67.5336
 30
0.0
 10
114.12
 20
73.4132
 30
0.0
 10
106.0418
 20
74.3249
 30
0.0
 10
103.5912
 20
69.5489
 30
0.0
 10
103.5912
 20
69.5489
 30
0.0
 10
103.4968
 20
69.3661
 30
0.0
 10
103.4158
 20
69.1805
 30
0.0
 10
103.3463
 20
68.9933
 30
0.0
 10
103.3463
 20
68.9933
 30
0.0
 10
102.1954
 20
68.5622
 30
0.0
 10
101.1936
 20
67.7867
 30
0.0
 10
100.548
 20
66.7009
 30
0.0
 10
100.548
 20
66.7009
 30
0.0
 10
99.4466
 20
64.8493
 30
0.0
 10
99.6043
 20
62.5282
 30
0.0
 10
100.6176
 20
60.6769
 30
0.0
 10
100.6176
 20
60.6769
 30
0.0
 10
101.5562
 20
58.9605
 30
0.0
 10
103.1254
 20
57.7283
 30
0.0
 10
105.0368
 20
57.0481
 30
0.0
 10
105.0368
 20
57.0481
 30
0.0
 10
96.7594
 20
54.2799
 30
0.0
 10
94.3776
 20
45.1732
 30
0.0
 10
100.8281
 20
41.3481
 30
0.0
 10
100.8281
 20
41.3481
 30
0.0
 10
102.6719
 20
40.2548
 30
0.0
 10
104.9708
 20
39.8201
 30
0.0
 10
107.1168
 20
40.2385
 30
0.0
 10
107.1168
 20
40.2385
 30
0.0
 10
111.0362
 20
41.0036
 30
0.0
 10
112.6338
 20
44.9401
 30
0.0
 10
111.2294
 20
45.5544
 30
0.0
 10
111.2294
 20
45.5544
 30
0.0
 10
109.962
 20
46.1076
 30
0.0
 10
108.7077
 20
43.2118
 30
0.0
 10
104.7523
 20
43.5395
 30
0.0
 10
104.7523
 20
43.5395
 30
0.0
 10
102.3776
 20
43.7359
 30
0.0
 10
100.2442
 20
45.2447
 30
0.0
 10
100.0795
 20
47.5578
 30
0.0
 10
100.0795
 20
47.5578
 30
0.0
 10
99.4861
 20
55.8886
 30
0.0
 10
114.3464
 20
60.2678
 30
0.0
 10
119.3819
 20
48.8387
 30
0.0
 10
119.3819
 20
48.8387
 30
0.0
 10
121.1613
 20
44.8004
 30
0.0
 10
120.4331
 20
40.2333
 30
0.0
 10
118.7024
 20
36.2868
 30
0.0
 10
118.7024
 20
36.2868
 30
0.0
 10
118.1797
 20
38.7831
 30
0.0
 10
115.466
 20
40.1458
 30
0.0
 10
113.3125
 20
38.2187
 30
0.0
 10
113.3125
 20
38.2187
 30
0.0
 10
110.3843
 20
35.5978
 30
0.0
 10
113.8787
 20
31.7256
 30
0.0
 10
116.6275
 20
33.7928
 30
0.0
 10
116.6275
 20
33.7928
 30
0.0
 10
117.1193
 20
34.1633
 30
0.0
 10
117.4058
 20
34.6702
 30
0.0
 10
117.4559
 20
35.2234
 30
0.0
 10
117.4559
 20
35.2234
 30
0.0
 10
117.4579
 20
34.6909
 30
0.0
 10
117.3694
 20
33.7881
 30
0.0
 10
117.1589
 20
33.3007
 30
0.0
 10
117.1589
 20
33.3007
 30
0.0
 10
116.2684
 20
31.7991
 30
0.0
 10
115.2531
 20
30.3629
 30
0.0
 10
114.1521
 20
28.9886
 30
0.0
 10
114.1521
 20
28.9886
 30
0.0
 10
114.7667
 20
32.0601
 30
0.0
 10
111.986
 20
34.3233
 30
0.0
 10
108.846
 20
33.0688
 30
0.0
 10
108.846
 20
33.0688
 30
0.0
 10
109.8589
 20
34.4603
 30
0.0
 10
111.0054
 20
35.7607
 30
0.0
 10
112.1689
 20
37.0432
 30
0.0
 10
112.1689
 20
37.0432
 30
0.0
 10
113.6089
 20
38.6306
 30
0.0
 10
115.2444
 20
40.3182
 30
0.0
 10
116.1404
 20
42.2406
 30
0.0
 10
116.1404
 20
42.2406
 30
0.0
 10
117.6646
 20
45.5089
 30
0.0
 10
116.8677
 20
50.2445
 30
0.0
 10
113.42
 20
52.2004
 30
0.0
 10
113.42
 20
52.2004
 30
0.0
 10
109.1502
 20
54.6209
 30
0.0
 10
103.4261
 20
52.6207
 30
0.0
 10
103.2151
 20
48.206
 30
0.0
 10
103.2151
 20
48.206
 30
0.0
 10
103.0567
 20
44.8887
 30
0.0
 10
106.6063
 20
43.5366
 30
0.0
 10
106.4929
 20
45.7121
 30
0.0
 10
106.4929
 20
45.7121
 30
0.0
 10
106.4333
 20
46.8596
 30
0.0
 10
106.3744
 20
47.7486
 30
0.0
 10
107.2495
 20
48.701
 30
0.0
 10
107.2495
 20
48.701
 30
0.0
 10
108.1574
 20
49.6897
 30
0.0
 10
108.6804
 20
50.1798
 30
0.0
 10
110.1252
 20
50.3195
 30
0.0
 10
110.1252
 20
50.3195
 30
0.0
 10
112.9945
 20
50.5969
 30
0.0
 10
114.3472
 20
48.9013
 30
0.0
 10
114.6309
 20
46.4194
 30
0.0
 10
114.6309
 20
46.4194
 30
0.0
 10
114.9749
 20
43.411
 30
0.0
 10
113.5962
 20
41.5872
 30
0.0
 10
111.6063
 20
39.397
 30
0.0
 10
111.6063
 20
39.397
 30
0.0
 10
108.3217
 20
35.7807
 30
0.0
 10
105.0403
 20
31.6549
 30
0.0
 10
104.1108
 20
26.8875
 30
0.0
 10
104.1108
 20
26.8875
 30
0.0
 10
103.0804
 20
28.506
 30
0.0
 10
100.9336
 20
29.5653
 30
0.0
 10
98.9484
 20
29.6321
 30
0.0
 10
98.9484
 20
29.6321
 30
0.0
 10
95.2941
 20
29.755
 30
0.0
 10
93.6329
 20
25.6987
 30
0.0
 10
96.6291
 20
23.9668
 30
0.0
 10
96.6291
 20
23.9668
 30
0.0
 10
98.5096
 20
22.8794
 30
0.0
 10
99.7986
 20
23.9835
 30
0.0
 10
98.4562
 20
24.7962
 30
0.0
 10
98.4562
 20
24.7962
 30
0.0
 10
95.5758
 20
26.5398
 30
0.0
 10
98.888
 20
28.6094
 30
0.0
 10
101.1039
 20
27.5245
 30
0.0
 10
101.1039
 20
27.5245
 30
0.0
 10
104.181
 20
26.0176
 30
0.0
 10
102.406
 20
21.371
 30
0.0
 10
103.8902
 20
21.3259
 30
0.0
 10
103.8902
 20
21.3259
 30
0.0
 10
104.6302
 20
21.304
 30
0.0
 10
104.6792
 20
22.3977
 30
0.0
 10
104.735
 20
22.907
 30
0.0
 10
104.735
 20
22.907
 30
0.0
 10
105.1166
 20
23.1074
 30
0.0
 10
105.1111
 20
23.9284
 30
0.0
 10
105.16
 20
24.2953
 30
0.0
 10
105.16
 20
24.2953
 30
0.0
 10
105.4603
 20
26.5202
 30
0.0
 10
106.0682
 20
28.7882
 30
0.0
 10
107.6541
 20
30.5254
 30
0.0
 10
107.6541
 20
30.5254
 30
0.0
 10
109.4334
 20
32.4737
 30
0.0
 10
112.4149
 20
32.6301
 30
0.0
 10
112.6287
 20
30.0443
 30
0.0
 10
112.6287
 20
30.0443
 30
0.0
 10
112.7982
 20
27.9951
 30
0.0
 10
110.6249
 20
27.2662
 30
0.0
 10
109.9102
 20
28.5779
 30
0.0
 10
109.9102
 20
28.5779
 30
0.0
 10
109.2082
 20
29.8671
 30
0.0
 10
111.2788
 20
30.5529
 30
0.0
 10
110.382
 20
31.2913
 30
0.0
 10
110.382
 20
31.2913
 30
0.0
 10
109.4702
 20
32.0422
 30
0.0
 10
106.8292
 20
30.5149
 30
0.0
 10
107.5726
 20
28.2485
 30
0.0
 10
107.5726
 20
28.2485
 30
0.0
 10
108.1546
 20
26.4759
 30
0.0
 10
110.1619
 20
25.7307
 30
0.0
 10
111.9555
 20
26.414
 30
0.0
 10
111.9555
 20
26.414
 30
0.0
 10
109.9545
 20
24.1932
 30
0.0
 10
107.7927
 20
22.1012
 30
0.0
 10
105.5045
 20
20.1369
 30
0.0
 10
105.5045
 20
20.1369
 30
0.0
 10
100.8933
 20
22.6935
 30
0.0
 10
95.7077
 20
18.7582
 30
0.0
 10
92.9723
 20
15.3786
 30
0.0
  0
ENDSEC
  0
SECTION
  2
OBJECTS
  0
DICTIONARY
  5
C
330
0
100
AcDbDictionary
281
     1
  3
ACAD_GROUP
350
D
  3
ACAD_LAYOUT
350
1A
  3
ACAD_MATERIAL
350
3B
  3
ACAD_MLEADERSTYLE
350
E4
  3
ACAD_MLINESTYLE
350
17
  3
ACAD_PLOTSETTINGS
350
19
  3
ACAD_PLOTSTYLENAME
350
E
  3
ACAD_TABLESTYLE
350
E3
  3
ACAD_VISUALSTYLE
350
2A
  0
DICTIONARY
  5
D
102
{ACAD_REACTORS
330
C
102
}
330
C
100
AcDbDictionary
281
     1
  0
DICTIONARY
  5
1A
102
{ACAD_REACTORS
330
C
102
}
330
C
100
AcDbDictionary
281
     1
  3
Layout1
350
1E
  3
Layout2
350
26
  3
Model
350
22
  0
DICTIONARY
  5
3B
102
{ACAD_REACTORS
330
C
102
}
330
C
100
AcDbDictionary
281
     1
  3
ByBlock
350
3D
  3
ByLayer
350
3C
  3
Global
350
3E
  0
DICTIONARY
  5
E4
102
{ACAD_REACTORS
330
C
102
}
330
C
100
AcDbDictionary
281
     1
  0
DICTIONARY
  5
17
102
{ACAD_REACTORS
330
C
102
}
330
C
100
AcDbDictionary
281
     1
  3
Standard
350
18
  0
DICTIONARY
  5
19
102
{ACAD_REACTORS
330
C
102
}
330
C
100
AcDbDictionary
281
     1
  0
ACDBDICTIONARYWDFLT
  5
E
102
{ACAD_REACTORS
330
C
102
}
330
C
100
AcDbDictionary
281
     1
  3
Normal
350
F
100
AcDbDictionaryWithDefault
340
F
  0
DICTIONARY
  5
E3
102
{ACAD_REACTORS
330
C
102
}
330
C
100
AcDbDictionary
281
     1
  0
DICTIONARY
  5
2A
102
{ACAD_REACTORS
330
C
102
}
330
C
100
AcDbDictionary
281
     1
  3
2dWireframe
350
2F
  3
3D Hidden
350
31
  3
3dWireframe
350
30
  3
Basic
350
32
  3
Brighten
350
36
  3
ColorChange
350
3A
  3
Conceptual
350
34
  3
Dim
350
35
  3
Facepattern
350
39
  3
Flat
350
2B
  3
FlatWithEdges
350
2C
  3
Gouraud
350
2D
  3
GouraudWithEdges
350
2E
  3
Linepattern
350
38
  3
Realistic
350
33
  3
Thicken
350
37
  0
LAYOUT
  5
1E
102
{ACAD_REACTORS
330
1A
102
}
330
1A
100
AcDbPlotSettings
  1

  2
none_device
  4

  6

 40
0.0
 41
0.0
 42
0.0
 43
0.0
 44
0.0
 45
0.0
 46
0.0
 47
0.0
 48
0.0
 49
0.0
140
0.0
141
0.0
142
1.0
143
1.0
 70
   688
 72
     0
 73
     0
 74
     5
  7

 75
    16
 76
     0
 77
     2
 78
   300
147
1.0
148
0.0
149
0.0
100
AcDbLayout
  1
Layout1
 70
     1
 71
     1
 10
0.0
 20
0.0
 11
12.0
 21
9.0
 12
0.0
 22
0.0
 32
0.0
 14
1.000000000000000E+20
 24
1.000000000000000E+20
 34
1.000000000000000E+20
 15
-1.000000000000000E+20
 25
-1.000000000000000E+20
 35
-1.000000000000000E+20
146
0.0
 13
0.0
 23
0.0
 33
0.0
 16
1.0
 26
0.0
 36
0.0
 17
0.0
 27
1.0
 37
0.0
 76
     0
330
1B
  0
LAYOUT
  5
26
102
{ACAD_REACTORS
330
1A
102
}
330
1A
100
AcDbPlotSettings
  1

  2
none_device
  4

  6

 40
0.0
 41
0.0
 42
0.0
 43
0.0
 44
0.0
 45
0.0
 46
0.0
 47
0.0
 48
0.0
 49
0.0
140
0.0
141
0.0
142
1.0
143
1.0
 70
   688
 72
     0
 73
     0
 74
     5
  7

 75
    16
 76
     0
 77
     2
 78
   300
147
1.0
148
0.0
149
0.0
100
AcDbLayout
  1
Layout2
 70
     1
 71
     2
 10
0.0
 20
0.0
 11
0.0
 21
0.0
 12
0.0
 22
0.0
 32
0.0
 14
0.0
 24
0.0
 34
0.0
 15
0.0
 25
0.0
 35
0.0
146
0.0
 13
0.0
 23
0.0
 33
0.0
 16
1.0
 26
0.0
 36
0.0
 17
0.0
 27
1.0
 37
0.0
 76
     0
330
23
  0
LAYOUT
  5
22
102
{ACAD_REACTORS
330
1A
102
}
330
1A
100
AcDbPlotSettings
  1

  2
none_device
  4

  6

 40
0.0
 41
0.0
 42
0.0
 43
0.0
 44
0.0
 45
0.0
 46
0.0
 47
0.0
 48
0.0
 49
0.0
140
0.0
141
0.0
142
1.0
143
1.0
 70
  1712
 72
     0
 73
     0
 74
     0
  7

 75
     0
 76
     0
 77
     2
 78
   300
147
1.0
148
0.0
149
0.0
100
AcDbLayout
  1
Model
 70
     1
 71
     0
 10
0.0
 20
0.0
 11
12.0
 21
9.0
 12
0.0
 22
0.0
 32
0.0
 14
55.7677
 24
-111.9103
 34
0.0
 15
124.5789
 25
127.584
 35
0.0
146
0.0
 13
0.0
 23
0.0
 33
0.0
 16
1.0
 26
0.0
 36
0.0
 17
0.0
 27
1.0
 37
0.0
 76
     0
330
1F
331
29
  0
MATERIAL
  5
3D
102
{ACAD_REACTORS
330
3B
102
}
330
3B
100
AcDbMaterial
  1
ByBlock
 72
     1
 94
      127
  0
MATERIAL
  5
3C
102
{ACAD_REACTORS
330
3B
102
}
330
3B
100
AcDbMaterial
  1
ByLayer
 72
     1
 94
      127
  0
MATERIAL
  5
3E
102
{ACAD_REACTORS
330
3B
102
}
330
3B
100
AcDbMaterial
  1
Global
 72
     1
 94
      127
  0
MLINESTYLE
  5
18
102
{ACAD_REACTORS
330
17
102
}
330
17
100
AcDbMlineStyle
  2
Standard
 70
     0
  3

 62
   256
 51
90.0
 52
90.0
 71
     2
 49
0.5
 62
   256
  6
BYLAYER
 49
-0.5
 62
   256
  6
BYLAYER
  0
ACDBPLACEHOLDER
  5
F
102
{ACAD_REACTORS
330
E
102
}
330
E
  0
VISUALSTYLE
  5
2F
102
{ACAD_REACTORS
330
2A
102
}
102
{ACAD_XDICTIONARY
360
CB
102
}
330
2A
100
AcDbVisualStyle
  2
2dWireframe
 70
     4
 71
     0
 72
     2
 73
     0
 90
        0
 40
-0.6
 41
-30.0
 62
     5
 63
     7
421
 16777215
 74
     1
 91
        4
 64
     7
 65
   257
 75
     1
175
     1
 42
1.0
 92
        0
 66
   257
 43
1.0
 76
     1
 77
     6
 78
     2
 67
     7
 79
     5
170
     0
171
     0
290
     0
174
     0
 93
        1
 44
0.0
173
     0
291
     0
 45
0.0
  0
VISUALSTYLE
  5
31
102
{ACAD_REACTORS
330
2A
102
}
102
{ACAD_XDICTIONARY
360
CF
102
}
330
2A
100
AcDbVisualStyle
  2
3D Hidden
 70
     6
 71
     1
 72
     2
 73
     2
 90
        0
 40
-0.6
 41
-30.0
 62
     5
 63
     7
421
 16777215
 74
     2
 91
        2
 64
     7
 65
   257
 75
     2
175
     1
 42
40.0
 92
        0
 66
   257
 43
1.0
 76
     1
 77
     6
 78
     2
 67
     7
 79
     3
170
     0
171
     0
290
     0
174
     0
 93
        1
 44
0.0
173
     0
291
     0
 45
0.0
  0
VISUALSTYLE
  5
30
102
{ACAD_REACTORS
330
2A
102
}
102
{ACAD_XDICTIONARY
360
CD
102
}
330
2A
100
AcDbVisualStyle
  2
3dWireframe
 70
     5
 71
     0
 72
     2
 73
     0
 90
        0
 40
-0.6
 41
-30.0
 62
     5
 63
     7
421
 16777215
 74
     1
 91
        4
 64
     7
 65
   257
 75
     1
175
     1
 42
1.0
 92
        0
 66
   257
 43
1.0
 76
     1
 77
     6
 78
     2
 67
     7
 79
     5
170
     0
171
     0
290
     0
174
     0
 93
        1
 44
0.0
173
     0
291
     0
 45
0.0
  0
VISUALSTYLE
  5
32
102
{ACAD_REACTORS
330
2A
102
}
102
{ACAD_XDICTIONARY
360
D1
102
}
330
2A
100
AcDbVisualStyle
  2
Basic
 70
     7
 71
     1
 72
     0
 73
     1
 90
        0
 40
-0.6
 41
-30.0
 62
     5
 63
     7
421
 16777215
 74
     0
 91
        4
 64
     7
 65
   257
 75
     1
175
     1
 42
1.0
 92
        8
 66
     7
 43
1.0
 76
     1
 77
     6
 78
     2
 67
     7
 79
     5
170
     0
171
     0
290
     0
174
     0
 93
        1
 44
0.0
173
     0
291
     1
 45
0.0
  0
VISUALSTYLE
  5
36
102
{ACAD_REACTORS
330
2A
102
}
102
{ACAD_XDICTIONARY
360
D9
102
}
330
2A
100
AcDbVisualStyle
  2
Brighten
 70
    12
 71
     2
 72
     2
 73
     0
 90
        0
 40
-0.6
 41
-30.0
 62
     5
 63
     7
421
 16777215
 74
     1
 91
        4
 64
     7
 65
   257
 75
     1
175
     1
 42
1.0
 92
        8
 66
     7
 43
1.0
 76
     1
 77
     6
 78
     2
 67
     7
 79
     5
170
     0
171
     0
290
     0
174
     0
 93
        1
 44
50.0
173
     0
291
     1
 45
0.0
  0
VISUALSTYLE
  5
3A
102
{ACAD_REACTORS
330
2A
102
}
102
{ACAD_XDICTIONARY
360
E1
102
}
330
2A
100
AcDbVisualStyle
  2
ColorChange
 70
    16
 71
     2
 72
     2
 73
     3
 90
        0
 40
-0.6
 41
-30.0
 62
     5
 63
     8
421
  8421504
 74
     1
 91
        4
 64
     7
 65
   257
 75
     1
175
     1
 42
1.0
 92
        8
 66
     8
424
  8421504
 43
1.0
 76
     1
 77
     6
 78
     2
 67
     7
 79
     5
170
     0
171
     0
290
     0
174
     0
 93
        1
 44
0.0
173
     0
291
     1
 45
0.0
  0
VISUALSTYLE
  5
34
102
{ACAD_REACTORS
330
2A
102
}
102
{ACAD_XDICTIONARY
360
D5
102
}
330
2A
100
AcDbVisualStyle
  2
Conceptual
 70
     9
 71
     3
 72
     2
 73
     0
 90
        0
 40
-0.6
 41
-30.0
 62
     5
 63
     7
421
 16777215
 74
     2
 91
        2
 64
     7
 65
   257
 75
     1
175
     1
 42
40.0
 92
        8
 66
     7
 43
1.0
 76
     1
 77
     6
 78
     2
 67
     7
 79
     3
170
     0
171
     0
290
     0
174
     0
 93
        1
 44
0.0
173
     0
291
     0
 45
0.0
  0
VISUALSTYLE
  5
35
102
{ACAD_REACTORS
330
2A
102
}
102
{ACAD_XDICTIONARY
360
D7
102
}
330
2A
100
AcDbVisualStyle
  2
Dim
 70
    11
 71
     2
 72
     2
 73
     0
 90
        0
 40
-0.6
 41
-30.0
 62
     5
 63
     7
421
 16777215
 74
     1
 91
        4
 64
     7
 65
   257
 75
     1
175
     1
 42
1.0
 92
        8
 66
     7
 43
1.0
 76
     1
 77
     6
 78
     2
 67
     7
 79
     5
170
     0
171
     0
290
     0
174
     0
 93
        1
 44
-50.0
173
     0
291
     1
 45
0.0
  0
VISUALSTYLE
  5
39
102
{ACAD_REACTORS
330
2A
102
}
102
{ACAD_XDICTIONARY
360
DF
102
}
330
2A
100
AcDbVisualStyle
  2
Facepattern
 70
    15
 71
     2
 72
     2
 73
     0
 90
        0
 40
-0.6
 41
-30.0
 62
     5
 63
     7
421
 16777215
 74
     1
 91
        4
 64
     7
 65
   257
 75
     1
175
     1
 42
1.0
 92
        8
 66
     7
 43
1.0
 76
     1
 77
     6
 78
     2
 67
     7
 79
     5
170
     0
171
     0
290
     0
174
     0
 93
        1
 44
0.0
173
     0
291
     1
 45
0.0
  0
VISUALSTYLE
  5
2B
102
{ACAD_REACTORS
330
2A
102
}
102
{ACAD_XDICTIONARY
360
C3
102
}
330
2A
100
AcDbVisualStyle
  2
Flat
 70
     0
 71
     2
 72
     1
 73
     1
 90
        2
 40
-0.6
 41
30.0
 62
     5
 63
     7
421
 16777215
 74
     0
 91
        4
 64
     7
 65
   257
 75
     1
175
     1
 42
1.0
 92
        8
 66
     7
 43
1.0
 76
     1
 77
     6
 78
     2
 67
     7
 79
     5
170
     0
171
     0
290
     0
174
     0
 93
       13
 44
0.0
173
     0
291
     1
 45
0.0
  0
VISUALSTYLE
  5
2C
102
{ACAD_REACTORS
330
2A
102
}
102
{ACAD_XDICTIONARY
360
C5
102
}
330
2A
100
AcDbVisualStyle
  2
FlatWithEdges
 70
     1
 71
     2
 72
     1
 73
     1
 90
        2
 40
-0.6
 41
30.0
 62
     5
 63
     7
421
 16777215
 74
     1
 91
        4
 64
     7
 65
   257
 75
     1
175
     1
 42
1.0
 92
        0
 66
   257
 43
1.0
 76
     1
 77
     6
 78
     2
 67
     7
 79
     5
170
     0
171
     0
290
     0
174
     0
 93
       13
 44
0.0
173
     0
291
     1
 45
0.0
  0
VISUALSTYLE
  5
2D
102
{ACAD_REACTORS
330
2A
102
}
102
{ACAD_XDICTIONARY
360
C7
102
}
330
2A
100
AcDbVisualStyle
  2
Gouraud
 70
     2
 71
     2
 72
     2
 73
     1
 90
        2
 40
-0.6
 41
30.0
 62
     5
 63
     7
421
 16777215
 74
     0
 91
        4
 64
     7
 65
   257
 75
     1
175
     1
 42
1.0
 92
        0
 66
     7
 43
1.0
 76
     1
 77
     6
 78
     2
 67
     7
 79
     5
170
     0
171
     0
290
     0
174
     0
 93
       13
 44
0.0
173
     0
291
     1
 45
0.0
  0
VISUALSTYLE
  5
2E
102
{ACAD_REACTORS
330
2A
102
}
102
{ACAD_XDICTIONARY
360
C9
102
}
330
2A
100
AcDbVisualStyle
  2
GouraudWithEdges
 70
     3
 71
     2
 72
     2
 73
     1
 90
        2
 40
-0.6
 41
30.0
 62
     5
 63
     7
421
 16777215
 74
     1
 91
        4
 64
     7
 65
   257
 75
     1
175
     1
 42
1.0
 92
        0
 66
   257
 43
1.0
 76
     1
 77
     6
 78
     2
 67
     7
 79
     5
170
     0
171
     0
290
     0
174
     0
 93
       13
 44
0.0
173
     0
291
     1
 45
0.0
  0
VISUALSTYLE
  5
38
102
{ACAD_REACTORS
330
2A
102
}
102
{ACAD_XDICTIONARY
360
DD
102
}
330
2A
100
AcDbVisualStyle
  2
Linepattern
 70
    14
 71
     2
 72
     2
 73
     0
 90
        0
 40
-0.6
 41
-30.0
 62
     5
 63
     7
421
 16777215
 74
     1
 91
        4
 64
     7
 65
   257
 75
     7
175
     7
 42
1.0
 92
        8
 66
     7
 43
1.0
 76
     1
 77
     6
 78
     2
 67
     7
 79
     5
170
     0
171
     0
290
     0
174
     0
 93
        1
 44
0.0
173
     0
291
     1
 45
0.0
  0
VISUALSTYLE
  5
33
102
{ACAD_REACTORS
330
2A
102
}
102
{ACAD_XDICTIONARY
360
D3
102
}
330
2A
100
AcDbVisualStyle
  2
Realistic
 70
     8
 71
     2
 72
     2
 73
     0
 90
        0
 40
-0.6
 41
-30.0
 62
     5
 63
     7
421
 16777215
 74
     1
 91
        0
 64
     7
 65
   257
 75
     1
175
     1
 42
1.0
 92
        8
 66
     8
424
  7895160
 43
1.0
 76
     1
 77
     6
 78
     2
 67
     7
 79
     5
170
     0
171
     0
290
     0
174
     0
 93
       13
 44
0.0
173
     0
291
     0
 45
0.0
  0
VISUALSTYLE
  5
37
102
{ACAD_REACTORS
330
2A
102
}
102
{ACAD_XDICTIONARY
360
DB
102
}
330
2A
100
AcDbVisualStyle
  2
Thicken
 70
    13
 71
     2
 72
     2
 73
     0
 90
        0
 40
-0.6
 41
-30.0
 62
     5
 63
     7
421
 16777215
 74
     1
 91
        4
 64
     7
 65
   257
 75
     1
175
     1
 42
1.0
 92
       12
 66
     7
 43
1.0
 76
     1
 77
     6
 78
     2
 67
     7
 79
     5
170
     0
171
     0
290
     0
174
     0
 93
        1
 44
0.0
173
     0
291
     1
 45
0.0
  0
DICTIONARY
  5
CB
330
2F
100
AcDbDictionary
280
     1
281
     1
  3
ACAD_XREC_ROUNDTRIP
360
CC
  0
DICTIONARY
  5
CF
330
31
100
AcDbDictionary
280
     1
281
     1
  3
ACAD_XREC_ROUNDTRIP
360
D0
  0
DICTIONARY
  5
CD
330
30
100
AcDbDictionary
280
     1
281
     1
  3
ACAD_XREC_ROUNDTRIP
360
CE
  0
DICTIONARY
  5
D1
330
32
100
AcDbDictionary
280
     1
281
     1
  3
ACAD_XREC_ROUNDTRIP
360
D2
  0
DICTIONARY
  5
D9
330
36
100
AcDbDictionary
280
     1
281
     1
  3
ACAD_XREC_ROUNDTRIP
360
DA
  0
DICTIONARY
  5
E1
330
3A
100
AcDbDictionary
280
     1
281
     1
  3
ACAD_XREC_ROUNDTRIP
360
E2
  0
DICTIONARY
  5
D5
330
34
100
AcDbDictionary
280
     1
281
     1
  3
ACAD_XREC_ROUNDTRIP
360
D6
  0
DICTIONARY
  5
D7
330
35
100
AcDbDictionary
280
     1
281
     1
  3
ACAD_XREC_ROUNDTRIP
360
D8
  0
DICTIONARY
  5
DF
330
39
100
AcDbDictionary
280
     1
281
     1
  3
ACAD_XREC_ROUNDTRIP
360
E0
  0
DICTIONARY
  5
C3
330
2B
100
AcDbDictionary
280
     1
281
     1
  3
ACAD_XREC_ROUNDTRIP
360
C4
  0
DICTIONARY
  5
C5
330
2C
100
AcDbDictionary
280
     1
281
     1
  3
ACAD_XREC_ROUNDTRIP
360
C6
  0
DICTIONARY
  5
C7
330
2D
100
AcDbDictionary
280
     1
281
     1
  3
ACAD_XREC_ROUNDTRIP
360
C8
  0
DICTIONARY
  5
C9
330
2E
100
AcDbDictionary
280
     1
281
     1
  3
ACAD_XREC_ROUNDTRIP
360
CA
  0
DICTIONARY
  5
DD
330
38
100
AcDbDictionary
280
     1
281
     1
  3
ACAD_XREC_ROUNDTRIP
360
DE
  0
DICTIONARY
  5
D3
330
33
100
AcDbDictionary
280
     1
281
     1
  3
ACAD_XREC_ROUNDTRIP
360
D4
  0
DICTIONARY
  5
DB
330
37
100
AcDbDictionary
280
     1
281
     1
  3
ACAD_XREC_ROUNDTRIP
360
DC
  0
XRECORD
  5
CC
102
{ACAD_REACTORS
330
CB
102
}
330
CB
100
AcDbXrecord
280
     1
102
RTVSPropertyOp0
 70
     1
102
RTVSPropertyOp1
 70
     1
102
RTVSPropertyOp2
 70
     1
102
RTVSPropertyOp3
 70
     1
102
RTVSPropertyOp4
 70
     1
102
RTVSPropertyOp5
 70
     1
102
RTVSPropertyOp6
 70
     1
102
RTVSPropertyOp7
 70
     1
102
RTVSPropertyOp8
 70
     1
102
RTVSPropertyOp9
 70
     1
102
RTVSPropertyOp10
 70
     1
102
RTVSPropertyOp11
 70
     1
102
RTVSPropertyOp12
 70
     1
102
RTVSPropertyOp13
 70
     1
102
RTVSPropertyOp14
 70
     1
102
RTVSPropertyOp15
 70
     1
102
RTVSPropertyOp16
 70
     1
102
RTVSPropertyOp17
 70
     1
102
RTVSPropertyOp18
 70
     1
102
RTVSPropertyOp19
 70
     1
102
RTVSPropertyOp20
 70
     1
102
RTVSPropertyOp21
 70
     1
102
RTVSPropertyOp22
 70
     1
102
RTVSPropertyOp23
 70
     1
102
RTVSPropertyOp24
 70
     1
102
RTVSPropertyOp25
 70
     1
102
RTVSPropertyOp26
 70
     1
102
RTVSPropertyOp27
 70
     1
102
RTVSPropertyOp28
 70
     1
102
RTVSPropertyOp29
 70
     1
102
RTVSPropertyOp30
 70
     1
102
RTVSPropertyOp31
 70
     1
102
RTVSPropertyOp32
 70
     1
  0
XRECORD
  5
D0
102
{ACAD_REACTORS
330
CF
102
}
330
CF
100
AcDbXrecord
280
     1
102
RTVSPropertyOp0
 70
     1
102
RTVSPropertyOp1
 70
     1
102
RTVSPropertyOp2
 70
     1
102
RTVSPropertyOp3
 70
     1
102
RTVSPropertyOp4
 70
     1
102
RTVSPropertyOp5
 70
     1
102
RTVSPropertyOp6
 70
     1
102
RTVSPropertyOp7
 70
     1
102
RTVSPropertyOp8
 70
     1
102
RTVSPropertyOp9
 70
     1
102
RTVSPropertyOp10
 70
     1
102
RTVSPropertyOp11
 70
     1
102
RTVSPropertyOp12
 70
     1
102
RTVSPropertyOp13
 70
     1
102
RTVSPropertyOp14
 70
     1
102
RTVSPropertyOp15
 70
     1
102
RTVSPropertyOp16
 70
     1
102
RTVSPropertyOp17
 70
     1
102
RTVSPropertyOp18
 70
     1
102
RTVSPropertyOp19
 70
     1
102
RTVSPropertyOp20
 70
     1
102
RTVSPropertyOp21
 70
     1
102
RTVSPropertyOp22
 70
     1
102
RTVSPropertyOp23
 70
     1
102
RTVSPropertyOp24
 70
     1
102
RTVSPropertyOp25
 70
     1
102
RTVSPropertyOp26
 70
     1
102
RTVSPropertyOp27
 70
     1
102
RTVSPropertyOp28
 70
     1
102
RTVSPropertyOp29
 70
     1
102
RTVSPropertyOp30
 70
     1
102
RTVSPropertyOp31
 70
     1
102
RTVSPropertyOp32
 70
     1
  0
XRECORD
  5
CE
102
{ACAD_REACTORS
330
CD
102
}
330
CD
100
AcDbXrecord
280
     1
102
RTVSPropertyOp0
 70
     1
102
RTVSPropertyOp1
 70
     1
102
RTVSPropertyOp2
 70
     1
102
RTVSPropertyOp3
 70
     1
102
RTVSPropertyOp4
 70
     1
102
RTVSPropertyOp5
 70
     1
102
RTVSPropertyOp6
 70
     1
102
RTVSPropertyOp7
 70
     1
102
RTVSPropertyOp8
 70
     1
102
RTVSPropertyOp9
 70
     1
102
RTVSPropertyOp10
 70
     1
102
RTVSPropertyOp11
 70
     1
102
RTVSPropertyOp12
 70
     1
102
RTVSPropertyOp13
 70
     1
102
RTVSPropertyOp14
 70
     1
102
RTVSPropertyOp15
 70
     1
102
RTVSPropertyOp16
 70
     1
102
RTVSPropertyOp17
 70
     1
102
RTVSPropertyOp18
 70
     1
102
RTVSPropertyOp19
 70
     1
102
RTVSPropertyOp20
 70
     1
102
RTVSPropertyOp21
 70
     1
102
RTVSPropertyOp22
 70
     1
102
RTVSPropertyOp23
 70
     1
102
RTVSPropertyOp24
 70
     1
102
RTVSPropertyOp25
 70
     1
102
RTVSPropertyOp26
 70
     1
102
RTVSPropertyOp27
 70
     1
102
RTVSPropertyOp28
 70
     1
102
RTVSPropertyOp29
 70
     1
102
RTVSPropertyOp30
 70
     1
102
RTVSPropertyOp31
 70
     1
102
RTVSPropertyOp32
 70
     1
  0
XRECORD
  5
D2
102
{ACAD_REACTORS
330
D1
102
}
330
D1
100
AcDbXrecord
280
     1
102
RTVSPropertyOp0
 70
     1
102
RTVSPropertyOp1
 70
     1
102
RTVSPropertyOp2
 70
     1
102
RTVSPropertyOp3
 70
     1
102
RTVSPropertyOp4
 70
     1
102
RTVSPropertyOp5
 70
     1
102
RTVSPropertyOp6
 70
     1
102
RTVSPropertyOp7
 70
     1
102
RTVSPropertyOp8
 70
     1
102
RTVSPropertyOp9
 70
     1
102
RTVSPropertyOp10
 70
     1
102
RTVSPropertyOp11
 70
     1
102
RTVSPropertyOp12
 70
     1
102
RTVSPropertyOp13
 70
     1
102
RTVSPropertyOp14
 70
     1
102
RTVSPropertyOp15
 70
     1
102
RTVSPropertyOp16
 70
     1
102
RTVSPropertyOp17
 70
     1
102
RTVSPropertyOp18
 70
     1
102
RTVSPropertyOp19
 70
     1
102
RTVSPropertyOp20
 70
     1
102
RTVSPropertyOp21
 70
     1
102
RTVSPropertyOp22
 70
     1
102
RTVSPropertyOp23
 70
     1
102
RTVSPropertyOp24
 70
     1
102
RTVSPropertyOp25
 70
     1
102
RTVSPropertyOp26
 70
     1
102
RTVSPropertyOp27
 70
     1
102
RTVSPropertyOp28
 70
     1
102
RTVSPropertyOp29
 70
     1
102
RTVSPropertyOp30
 70
     1
102
RTVSPropertyOp31
 70
     1
102
RTVSPropertyOp32
 70
     1
  0
XRECORD
  5
DA
102
{ACAD_REACTORS
330
D9
102
}
330
D9
100
AcDbXrecord
280
     1
102
RTVSPropertyOp0
 70
     1
102
RTVSPropertyOp1
 70
     1
102
RTVSPropertyOp2
 70
     1
102
RTVSPropertyOp3
 70
     1
102
RTVSPropertyOp4
 70
     1
102
RTVSPropertyOp5
 70
     1
102
RTVSPropertyOp6
 70
     1
102
RTVSPropertyOp7
 70
     1
102
RTVSPropertyOp8
 70
     1
102
RTVSPropertyOp9
 70
     1
102
RTVSPropertyOp10
 70
     1
102
RTVSPropertyOp11
 70
     1
102
RTVSPropertyOp12
 70
     1
102
RTVSPropertyOp13
 70
     1
102
RTVSPropertyOp14
 70
     1
102
RTVSPropertyOp15
 70
     1
102
RTVSPropertyOp16
 70
     1
102
RTVSPropertyOp17
 70
     1
102
RTVSPropertyOp18
 70
     1
102
RTVSPropertyOp19
 70
     1
102
RTVSPropertyOp20
 70
     1
102
RTVSPropertyOp21
 70
     1
102
RTVSPropertyOp22
 70
     1
102
RTVSPropertyOp23
 70
     1
102
RTVSPropertyOp24
 70
     1
102
RTVSPropertyOp25
 70
     1
102
RTVSPropertyOp26
 70
     1
102
RTVSPropertyOp27
 70
     1
102
RTVSPropertyOp28
 70
     1
102
RTVSPropertyOp29
 70
     1
102
RTVSPropertyOp30
 70
     1
102
RTVSPropertyOp31
 70
     1
102
RTVSPropertyOp32
 70
     1
  0
XRECORD
  5
E2
102
{ACAD_REACTORS
330
E1
102
}
330
E1
100
AcDbXrecord
280
     1
102
RTVSPropertyOp0
 70
     1
102
RTVSPropertyOp1
 70
     1
102
RTVSPropertyOp2
 70
     1
102
RTVSPropertyOp3
 70
     1
102
RTVSPropertyOp4
 70
     1
102
RTVSPropertyOp5
 70
     1
102
RTVSPropertyOp6
 70
     1
102
RTVSPropertyOp7
 70
     1
102
RTVSPropertyOp8
 70
     1
102
RTVSPropertyOp9
 70
     1
102
RTVSPropertyOp10
 70
     1
102
RTVSPropertyOp11
 70
     1
102
RTVSPropertyOp12
 70
     1
102
RTVSPropertyOp13
 70
     1
102
RTVSPropertyOp14
 70
     1
102
RTVSPropertyOp15
 70
     1
102
RTVSPropertyOp16
 70
     1
102
RTVSPropertyOp17
 70
     1
102
RTVSPropertyOp18
 70
     1
102
RTVSPropertyOp19
 70
     1
102
RTVSPropertyOp20
 70
     1
102
RTVSPropertyOp21
 70
     1
102
RTVSPropertyOp22
 70
     1
102
RTVSPropertyOp23
 70
     1
102
RTVSPropertyOp24
 70
     1
102
RTVSPropertyOp25
 70
     1
102
RTVSPropertyOp26
 70
     1
102
RTVSPropertyOp27
 70
     1
102
RTVSPropertyOp28
 70
     1
102
RTVSPropertyOp29
 70
     1
102
RTVSPropertyOp30
 70
     1
102
RTVSPropertyOp31
 70
     1
102
RTVSPropertyOp32
 70
     1
  0
XRECORD
  5
D6
102
{ACAD_REACTORS
330
D5
102
}
330
D5
100
AcDbXrecord
280
     1
102
RTVSPropertyOp0
 70
     1
102
RTVSPropertyOp1
 70
     1
102
RTVSPropertyOp2
 70
     1
102
RTVSPropertyOp3
 70
     1
102
RTVSPropertyOp4
 70
     1
102
RTVSPropertyOp5
 70
     1
102
RTVSPropertyOp6
 70
     1
102
RTVSPropertyOp7
 70
     1
102
RTVSPropertyOp8
 70
     1
102
RTVSPropertyOp9
 70
     1
102
RTVSPropertyOp10
 70
     1
102
RTVSPropertyOp11
 70
     1
102
RTVSPropertyOp12
 70
     1
102
RTVSPropertyOp13
 70
     1
102
RTVSPropertyOp14
 70
     1
102
RTVSPropertyOp15
 70
     1
102
RTVSPropertyOp16
 70
     1
102
RTVSPropertyOp17
 70
     1
102
RTVSPropertyOp18
 70
     1
102
RTVSPropertyOp19
 70
     1
102
RTVSPropertyOp20
 70
     1
102
RTVSPropertyOp21
 70
     1
102
RTVSPropertyOp22
 70
     1
102
RTVSPropertyOp23
 70
     1
102
RTVSPropertyOp24
 70
     1
102
RTVSPropertyOp25
 70
     1
102
RTVSPropertyOp26
 70
     1
102
RTVSPropertyOp27
 70
     1
102
RTVSPropertyOp28
 70
     1
102
RTVSPropertyOp29
 70
     1
102
RTVSPropertyOp30
 70
     1
102
RTVSPropertyOp31
 70
     1
102
RTVSPropertyOp32
 70
     1
  0
XRECORD
  5
D8
102
{ACAD_REACTORS
330
D7
102
}
330
D7
100
AcDbXrecord
280
     1
102
RTVSPropertyOp0
 70
     1
102
RTVSPropertyOp1
 70
     1
102
RTVSPropertyOp2
 70
     1
102
RTVSPropertyOp3
 70
     1
102
RTVSPropertyOp4
 70
     1
102
RTVSPropertyOp5
 70
     1
102
RTVSPropertyOp6
 70
     1
102
RTVSPropertyOp7
 70
     1
102
RTVSPropertyOp8
 70
     1
102
RTVSPropertyOp9
 70
     1
102
RTVSPropertyOp10
 70
     1
102
RTVSPropertyOp11
 70
     1
102
RTVSPropertyOp12
 70
     1
102
RTVSPropertyOp13
 70
     1
102
RTVSPropertyOp14
 70
     1
102
RTVSPropertyOp15
 70
     1
102
RTVSPropertyOp16
 70
     1
102
RTVSPropertyOp17
 70
     1
102
RTVSPropertyOp18
 70
     1
102
RTVSPropertyOp19
 70
     1
102
RTVSPropertyOp20
 70
     1
102
RTVSPropertyOp21
 70
     1
102
RTVSPropertyOp22
 70
     1
102
RTVSPropertyOp23
 70
     1
102
RTVSPropertyOp24
 70
     1
102
RTVSPropertyOp25
 70
     1
102
RTVSPropertyOp26
 70
     1
102
RTVSPropertyOp27
 70
     1
102
RTVSPropertyOp28
 70
     1
102
RTVSPropertyOp29
 70
     1
102
RTVSPropertyOp30
 70
     1
102
RTVSPropertyOp31
 70
     1
102
RTVSPropertyOp32
 70
     1
  0
XRECORD
  5
E0
102
{ACAD_REACTORS
330
DF
102
}
330
DF
100
AcDbXrecord
280
     1
102
RTVSPropertyOp0
 70
     1
102
RTVSPropertyOp1
 70
     1
102
RTVSPropertyOp2
 70
     1
102
RTVSPropertyOp3
 70
     1
102
RTVSPropertyOp4
 70
     1
102
RTVSPropertyOp5
 70
     1
102
RTVSPropertyOp6
 70
     1
102
RTVSPropertyOp7
 70
     1
102
RTVSPropertyOp8
 70
     1
102
RTVSPropertyOp9
 70
     1
102
RTVSPropertyOp10
 70
     1
102
RTVSPropertyOp11
 70
     1
102
RTVSPropertyOp12
 70
     1
102
RTVSPropertyOp13
 70
     1
102
RTVSPropertyOp14
 70
     1
102
RTVSPropertyOp15
 70
     1
102
RTVSPropertyOp16
 70
     1
102
RTVSPropertyOp17
 70
     1
102
RTVSPropertyOp18
 70
     1
102
RTVSPropertyOp19
 70
     1
102
RTVSPropertyOp20
 70
     1
102
RTVSPropertyOp21
 70
     1
102
RTVSPropertyOp22
 70
     1
102
RTVSPropertyOp23
 70
     1
102
RTVSPropertyOp24
 70
     1
102
RTVSPropertyOp25
 70
     1
102
RTVSPropertyOp26
 70
     1
102
RTVSPropertyOp27
 70
     1
102
RTVSPropertyOp28
 70
     1
102
RTVSPropertyOp29
 70
     1
102
RTVSPropertyOp30
 70
     1
102
RTVSPropertyOp31
 70
     1
102
RTVSPropertyOp32
 70
     1
  0
XRECORD
  5
C4
102
{ACAD_REACTORS
330
C3
102
}
330
C3
100
AcDbXrecord
280
     1
102
RTVSPropertyOp0
 70
     1
102
RTVSPropertyOp1
 70
     1
102
RTVSPropertyOp2
 70
     1
102
RTVSPropertyOp3
 70
     1
102
RTVSPropertyOp4
 70
     1
102
RTVSPropertyOp5
 70
     1
102
RTVSPropertyOp6
 70
     1
102
RTVSPropertyOp7
 70
     1
102
RTVSPropertyOp8
 70
     1
102
RTVSPropertyOp9
 70
     1
102
RTVSPropertyOp10
 70
     1
102
RTVSPropertyOp11
 70
     1
102
RTVSPropertyOp12
 70
     1
102
RTVSPropertyOp13
 70
     1
102
RTVSPropertyOp14
 70
     1
102
RTVSPropertyOp15
 70
     1
102
RTVSPropertyOp16
 70
     1
102
RTVSPropertyOp17
 70
     1
102
RTVSPropertyOp18
 70
     1
102
RTVSPropertyOp19
 70
     1
102
RTVSPropertyOp20
 70
     1
102
RTVSPropertyOp21
 70
     1
102
RTVSPropertyOp22
 70
     1
102
RTVSPropertyOp23
 70
     1
102
RTVSPropertyOp24
 70
     1
102
RTVSPropertyOp25
 70
     1
102
RTVSPropertyOp26
 70
     1
102
RTVSPropertyOp27
 70
     1
102
RTVSPropertyOp28
 70
     1
102
RTVSPropertyOp29
 70
     1
102
RTVSPropertyOp30
 70
     1
102
RTVSPropertyOp31
 70
     1
102
RTVSPropertyOp32
 70
     1
  0
XRECORD
  5
C6
102
{ACAD_REACTORS
330
C5
102
}
330
C5
100
AcDbXrecord
280
     1
102
RTVSPropertyOp0
 70
     1
102
RTVSPropertyOp1
 70
     1
102
RTVSPropertyOp2
 70
     1
102
RTVSPropertyOp3
 70
     1
102
RTVSPropertyOp4
 70
     1
102
RTVSPropertyOp5
 70
     1
102
RTVSPropertyOp6
 70
     1
102
RTVSPropertyOp7
 70
     1
102
RTVSPropertyOp8
 70
     1
102
RTVSPropertyOp9
 70
     1
102
RTVSPropertyOp10
 70
     1
102
RTVSPropertyOp11
 70
     1
102
RTVSPropertyOp12
 70
     1
102
RTVSPropertyOp13
 70
     1
102
RTVSPropertyOp14
 70
     1
102
RTVSPropertyOp15
 70
     1
102
RTVSPropertyOp16
 70
     1
102
RTVSPropertyOp17
 70
     1
102
RTVSPropertyOp18
 70
     1
102
RTVSPropertyOp19
 70
     1
102
RTVSPropertyOp20
 70
     1
102
RTVSPropertyOp21
 70
     1
102
RTVSPropertyOp22
 70
     1
102
RTVSPropertyOp23
 70
     1
102
RTVSPropertyOp24
 70
     1
102
RTVSPropertyOp25
 70
     1
102
RTVSPropertyOp26
 70
     1
102
RTVSPropertyOp27
 70
     1
102
RTVSPropertyOp28
 70
     1
102
RTVSPropertyOp29
 70
     1
102
RTVSPropertyOp30
 70
     1
102
RTVSPropertyOp31
 70
     1
102
RTVSPropertyOp32
 70
     1
  0
XRECORD
  5
C8
102
{ACAD_REACTORS
330
C7
102
}
330
C7
100
AcDbXrecord
280
     1
102
RTVSPropertyOp0
 70
     1
102
RTVSPropertyOp1
 70
     1
102
RTVSPropertyOp2
 70
     1
102
RTVSPropertyOp3
 70
     1
102
RTVSPropertyOp4
 70
     1
102
RTVSPropertyOp5
 70
     1
102
RTVSPropertyOp6
 70
     1
102
RTVSPropertyOp7
 70
     1
102
RTVSPropertyOp8
 70
     1
102
RTVSPropertyOp9
 70
     1
102
RTVSPropertyOp10
 70
     1
102
RTVSPropertyOp11
 70
     1
102
RTVSPropertyOp12
 70
     1
102
RTVSPropertyOp13
 70
     1
102
RTVSPropertyOp14
 70
     1
102
RTVSPropertyOp15
 70
     1
102
RTVSPropertyOp16
 70
     1
102
RTVSPropertyOp17
 70
     1
102
RTVSPropertyOp18
 70
     1
102
RTVSPropertyOp19
 70
     1
102
RTVSPropertyOp20
 70
     1
102
RTVSPropertyOp21
 70
     1
102
RTVSPropertyOp22
 70
     1
102
RTVSPropertyOp23
 70
     1
102
RTVSPropertyOp24
 70
     1
102
RTVSPropertyOp25
 70
     1
102
RTVSPropertyOp26
 70
     1
102
RTVSPropertyOp27
 70
     1
102
RTVSPropertyOp28
 70
     1
102
RTVSPropertyOp29
 70
     1
102
RTVSPropertyOp30
 70
     1
102
RTVSPropertyOp31
 70
     1
102
RTVSPropertyOp32
 70
     1
  0
XRECORD
  5
CA
102
{ACAD_REACTORS
330
C9
102
}
330
C9
100
AcDbXrecord
280
     1
102
RTVSPropertyOp0
 70
     1
102
RTVSPropertyOp1
 70
     1
102
RTVSPropertyOp2
 70
     1
102
RTVSPropertyOp3
 70
     1
102
RTVSPropertyOp4
 70
     1
102
RTVSPropertyOp5
 70
     1
102
RTVSPropertyOp6
 70
     1
102
RTVSPropertyOp7
 70
     1
102
RTVSPropertyOp8
 70
     1
102
RTVSPropertyOp9
 70
     1
102
RTVSPropertyOp10
 70
     1
102
RTVSPropertyOp11
 70
     1
102
RTVSPropertyOp12
 70
     1
102
RTVSPropertyOp13
 70
     1
102
RTVSPropertyOp14
 70
     1
102
RTVSPropertyOp15
 70
     1
102
RTVSPropertyOp16
 70
     1
102
RTVSPropertyOp17
 70
     1
102
RTVSPropertyOp18
 70
     1
102
RTVSPropertyOp19
 70
     1
102
RTVSPropertyOp20
 70
     1
102
RTVSPropertyOp21
 70
     1
102
RTVSPropertyOp22
 70
     1
102
RTVSPropertyOp23
 70
     1
102
RTVSPropertyOp24
 70
     1
102
RTVSPropertyOp25
 70
     1
102
RTVSPropertyOp26
 70
     1
102
RTVSPropertyOp27
 70
     1
102
RTVSPropertyOp28
 70
     1
102
RTVSPropertyOp29
 70
     1
102
RTVSPropertyOp30
 70
     1
102
RTVSPropertyOp31
 70
     1
102
RTVSPropertyOp32
 70
     1
  0
XRECORD
  5
DE
102
{ACAD_REACTORS
330
DD
102
}
330
DD
100
AcDbXrecord
280
     1
102
RTVSPropertyOp0
 70
     1
102
RTVSPropertyOp1
 70
     1
102
RTVSPropertyOp2
 70
     1
102
RTVSPropertyOp3
 70
     1
102
RTVSPropertyOp4
 70
     1
102
RTVSPropertyOp5
 70
     1
102
RTVSPropertyOp6
 70
     1
102
RTVSPropertyOp7
 70
     1
102
RTVSPropertyOp8
 70
     1
102
RTVSPropertyOp9
 70
     1
102
RTVSPropertyOp10
 70
     1
102
RTVSPropertyOp11
 70
     1
102
RTVSPropertyOp12
 70
     1
102
RTVSPropertyOp13
 70
     1
102
RTVSPropertyOp14
 70
     1
102
RTVSPropertyOp15
 70
     1
102
RTVSPropertyOp16
 70
     1
102
RTVSPropertyOp17
 70
     1
102
RTVSPropertyOp18
 70
     1
102
RTVSPropertyOp19
 70
     1
102
RTVSPropertyOp20
 70
     1
102
RTVSPropertyOp21
 70
     1
102
RTVSPropertyOp22
 70
     1
102
RTVSPropertyOp23
 70
     1
102
RTVSPropertyOp24
 70
     1
102
RTVSPropertyOp25
 70
     1
102
RTVSPropertyOp26
 70
     1
102
RTVSPropertyOp27
 70
     1
102
RTVSPropertyOp28
 70
     1
102
RTVSPropertyOp29
 70
     1
102
RTVSPropertyOp30
 70
     1
102
RTVSPropertyOp31
 70
     1
102
RTVSPropertyOp32
 70
     1
  0
XRECORD
  5
D4
102
{ACAD_REACTORS
330
D3
102
}
330
D3
100
AcDbXrecord
280
     1
102
RTVSPropertyOp0
 70
     1
102
RTVSPropertyOp1
 70
     1
102
RTVSPropertyOp2
 70
     1
102
RTVSPropertyOp3
 70
     1
102
RTVSPropertyOp4
 70
     1
102
RTVSPropertyOp5
 70
     1
102
RTVSPropertyOp6
 70
     1
102
RTVSPropertyOp7
 70
     1
102
RTVSPropertyOp8
 70
     1
102
RTVSPropertyOp9
 70
     1
102
RTVSPropertyOp10
 70
     1
102
RTVSPropertyOp11
 70
     1
102
RTVSPropertyOp12
 70
     1
102
RTVSPropertyOp13
 70
     1
102
RTVSPropertyOp14
 70
     1
102
RTVSPropertyOp15
 70
     1
102
RTVSPropertyOp16
 70
     1
102
RTVSPropertyOp17
 70
     1
102
RTVSPropertyOp18
 70
     1
102
RTVSPropertyOp19
 70
     1
102
RTVSPropertyOp20
 70
     1
102
RTVSPropertyOp21
 70
     1
102
RTVSPropertyOp22
 70
     1
102
RTVSPropertyOp23
 70
     1
102
RTVSPropertyOp24
 70
     1
102
RTVSPropertyOp25
 70
     1
102
RTVSPropertyOp26
 70
     1
102
RTVSPropertyOp27
 70
     1
102
RTVSPropertyOp28
 70
     1
102
RTVSPropertyOp29
 70
     1
102
RTVSPropertyOp30
 70
     1
102
RTVSPropertyOp31
 70
     1
102
RTVSPropertyOp32
 70
     1
  0
XRECORD
  5
DC
102
{ACAD_REACTORS
330
DB
102
}
330
DB
100
AcDbXrecord
280
     1
102
RTVSPropertyOp0
 70
     1
102
RTVSPropertyOp1
 70
     1
102
RTVSPropertyOp2
 70
     1
102
RTVSPropertyOp3
 70
     1
102
RTVSPropertyOp4
 70
     1
102
RTVSPropertyOp5
 70
     1
102
RTVSPropertyOp6
 70
     1
102
RTVSPropertyOp7
 70
     1
102
RTVSPropertyOp8
 70
     1
102
RTVSPropertyOp9
 70
     1
102
RTVSPropertyOp10
 70
     1
102
RTVSPropertyOp11
 70
     1
102
RTVSPropertyOp12
 70
     1
102
RTVSPropertyOp13
 70
     1
102
RTVSPropertyOp14
 70
     1
102
RTVSPropertyOp15
 70
     1
102
RTVSPropertyOp16
 70
     1
102
RTVSPropertyOp17
 70
     1
102
RTVSPropertyOp18
 70
     1
102
RTVSPropertyOp19
 70
     1
102
RTVSPropertyOp20
 70
     1
102
RTVSPropertyOp21
 70
     1
102
RTVSPropertyOp22
 70
     1
102
RTVSPropertyOp23
 70
     1
102
RTVSPropertyOp24
 70
     1
102
RTVSPropertyOp25
 70
     1
102
RTVSPropertyOp26
 70
     1
102
RTVSPropertyOp27
 70
     1
102
RTVSPropertyOp28
 70
     1
102
RTVSPropertyOp29
 70
     1
102
RTVSPropertyOp30
 70
     1
102
RTVSPropertyOp31
 70
     1
102
RTVSPropertyOp32
 70
     1
  0
ENDSEC
  0
EOF
