  0
SECTION
  2
HEADER
  9
$ACADVER
  1
AC1021
  9
$ACADMAINTVER
 70
    25
  9
$DWGCODEPAGE
  3
ANSI_1256
  9
$INSBASE
 10
0.0
 20
0.0
 30
0.0
  9
$EXTMIN
 10
41.075
 20
-115.0462
 30
0.0
  9
$EXTMAX
 10
196.362
 20
131.8105
 30
0.0
  9
$LIMMIN
 10
0.0
 20
0.0
  9
$LIMMAX
 10
12.0
 20
9.0
  9
$ORTHOMODE
 70
     0
  9
$REGENMODE
 70
     1
  9
$FILLMODE
 70
     1
  9
$QTEXTMODE
 70
     0
  9
$MIRRTEXT
 70
     1
  9
$LTSCALE
 40
1.0
  9
$ATTMODE
 70
     1
  9
$TEXTSIZE
 40
0.2
  9
$TRACEWID
 40
0.05
  9
$TEXTSTYLE
  7
Standard
  9
$CLAYER
  8
0
  9
$CELTYPE
  6
ByLayer
  9
$CECOLOR
 62
   256
  9
$CELTSCALE
 40
1.0
  9
$DISPSILH
 70
     0
  9
$DIMSCALE
 40
1.0
  9
$DIMASZ
 40
0.18
  9
$DIMEXO
 40
0.0625
  9
$DIMDLI
 40
0.38
  9
$DIMRND
 40
0.0
  9
$DIMDLE
 40
0.0
  9
$DIMEXE
 40
0.18
  9
$DIMTP
 40
0.0
  9
$DIMTM
 40
0.0
  9
$DIMTXT
 40
0.18
  9
$DIMCEN
 40
0.09
  9
$DIMTSZ
 40
0.0
  9
$DIMTOL
 70
     0
  9
$DIMLIM
 70
     0
  9
$DIMTIH
 70
     1
  9
$DIMTOH
 70
     1
  9
$DIMSE1
 70
     0
  9
$DIMSE2
 70
     0
  9
$DIMTAD
 70
     0
  9
$DIMZIN
 70
     0
  9
$DIMBLK
  1

  9
$DIMASO
 70
     1
  9
$DIMSHO
 70
     1
  9
$DIMPOST
  1

  9
$DIMAPOST
  1

  9
$DIMALT
 70
     0
  9
$DIMALTD
 70
     2
  9
$DIMALTF
 40
25.4
  9
$DIMLFAC
 40
1.0
  9
$DIMTOFL
 70
     0
  9
$DIMTVP
 40
0.0
  9
$DIMTIX
 70
     0
  9
$DIMSOXD
 70
     0
  9
$DIMSAH
 70
     0
  9
$DIMBLK1
  1

  9
$DIMBLK2
  1

  9
$DIMSTYLE
  2
Standard
  9
$DIMCLRD
 70
     0
  9
$DIMCLRE
 70
     0
  9
$DIMCLRT
 70
     0
  9
$DIMTFAC
 40
1.0
  9
$DIMGAP
 40
0.09
  9
$DIMJUST
 70
     0
  9
$DIMSD1
 70
     0
  9
$DIMSD2
 70
     0
  9
$DIMTOLJ
 70
     1
  9
$DIMTZIN
 70
     0
  9
$DIMALTZ
 70
     0
  9
$DIMALTTZ
 70
     0
  9
$DIMUPT
 70
     0
  9
$DIMDEC
 70
     4
  9
$DIMTDEC
 70
     4
  9
$DIMALTU
 70
     2
  9
$DIMALTTD
 70
     2
  9
$DIMTXSTY
  7
Standard
  9
$DIMAUNIT
 70
     0
  9
$DIMADEC
 70
     0
  9
$DIMALTRND
 40
0.0
  9
$DIMAZIN
 70
     0
  9
$DIMDSEP
 70
    46
  9
$DIMATFIT
 70
     3
  9
$DIMFRAC
 70
     0
  9
$DIMLDRBLK
  1

  9
$DIMLUNIT
 70
     2
  9
$DIMLWD
 70
    -2
  9
$DIMLWE
 70
    -2
  9
$DIMTMOVE
 70
     0
  9
$DIMFXL
 40
1.0
  9
$DIMFXLON
 70
     0
  9
$DIMJOGANG
 40
0.7853981633974483
  9
$DIMTFILL
 70
     0
  9
$DIMTFILLCLR
 70
     0
  9
$DIMARCSYM
 70
     0
  9
$DIMLTYPE
  6

  9
$DIMLTEX1
  6

  9
$DIMLTEX2
  6

  9
$LUNITS
 70
     2
  9
$LUPREC
 70
     4
  9
$SKETCHINC
 40
0.1
  9
$FILLETRAD
 40
0.5
  9
$AUNITS
 70
     0
  9
$AUPREC
 70
     0
  9
$MENU
  1
.
  9
$ELEVATION
 40
0.0
  9
$PELEVATION
 40
0.0
  9
$THICKNESS
 40
0.0
  9
$LIMCHECK
 70
     0
  9
$CHAMFERA
 40
0.5
  9
$CHAMFERB
 40
0.5
  9
$CHAMFERC
 40
1.0
  9
$CHAMFERD
 40
0.0
  9
$SKPOLY
 70
     0
  9
$TDCREATE
 40
2458479.374894213
  9
$TDUCREATE
 40
2458479.208227546
  9
$TDUPDATE
 40
2458479.374894525
  9
$TDUUPDATE
 40
2458479.208227859
  9
$TDINDWG
 40
0.0000000116
  9
$TDUSRTIMER
 40
0.0000000116
  9
$USRTIMER
 70
     1
  9
$ANGBASE
 50
0.0
  9
$ANGDIR
 70
     0
  9
$PDMODE
 70
     0
  9
$PDSIZE
 40
0.0
  9
$PLINEWID
 40
0.0
  9
$SPLFRAME
 70
     0
  9
$SPLINETYPE
 70
     6
  9
$SPLINESEGS
 70
     8
  9
$HANDSEED
  5
137
  9
$SURFTAB1
 70
     6
  9
$SURFTAB2
 70
     6
  9
$SURFTYPE
 70
     6
  9
$SURFU
 70
     6
  9
$SURFV
 70
     6
  9
$UCSBASE
  2

  9
$UCSNAME
  2

  9
$UCSORG
 10
0.0
 20
0.0
 30
0.0
  9
$UCSXDIR
 10
1.0
 20
0.0
 30
0.0
  9
$UCSYDIR
 10
0.0
 20
1.0
 30
0.0
  9
$UCSORTHOREF
  2

  9
$UCSORTHOVIEW
 70
     0
  9
$UCSORGTOP
 10
0.0
 20
0.0
 30
0.0
  9
$UCSORGBOTTOM
 10
0.0
 20
0.0
 30
0.0
  9
$UCSORGLEFT
 10
0.0
 20
0.0
 30
0.0
  9
$UCSORGRIGHT
 10
0.0
 20
0.0
 30
0.0
  9
$UCSORGFRONT
 10
0.0
 20
0.0
 30
0.0
  9
$UCSORGBACK
 10
0.0
 20
0.0
 30
0.0
  9
$PUCSBASE
  2

  9
$PUCSNAME
  2

  9
$PUCSORG
 10
0.0
 20
0.0
 30
0.0
  9
$PUCSXDIR
 10
1.0
 20
0.0
 30
0.0
  9
$PUCSYDIR
 10
0.0
 20
1.0
 30
0.0
  9
$PUCSORTHOREF
  2

  9
$PUCSORTHOVIEW
 70
     0
  9
$PUCSORGTOP
 10
0.0
 20
0.0
 30
0.0
  9
$PUCSORGBOTTOM
 10
0.0
 20
0.0
 30
0.0
  9
$PUCSORGLEFT
 10
0.0
 20
0.0
 30
0.0
  9
$PUCSORGRIGHT
 10
0.0
 20
0.0
 30
0.0
  9
$PUCSORGFRONT
 10
0.0
 20
0.0
 30
0.0
  9
$PUCSORGBACK
 10
0.0
 20
0.0
 30
0.0
  9
$USERI1
 70
     0
  9
$USERI2
 70
     0
  9
$USERI3
 70
     0
  9
$USERI4
 70
     0
  9
$USERI5
 70
     0
  9
$USERR1
 40
0.0
  9
$USERR2
 40
0.0
  9
$USERR3
 40
0.0
  9
$USERR4
 40
0.0
  9
$USERR5
 40
0.0
  9
$WORLDVIEW
 70
     1
  9
$SHADEDGE
 70
     3
  9
$SHADEDIF
 70
    70
  9
$TILEMODE
 70
     1
  9
$MAXACTVP
 70
    64
  9
$PINSBASE
 10
0.0
 20
0.0
 30
0.0
  9
$PLIMCHECK
 70
     0
  9
$PEXTMIN
 10
1.000000000000000E+20
 20
1.000000000000000E+20
 30
1.000000000000000E+20
  9
$PEXTMAX
 10
-1.000000000000000E+20
 20
-1.000000000000000E+20
 30
-1.000000000000000E+20
  9
$PLIMMIN
 10
0.0
 20
0.0
  9
$PLIMMAX
 10
12.0
 20
9.0
  9
$UNITMODE
 70
     0
  9
$VISRETAIN
 70
     1
  9
$PLINEGEN
 70
     0
  9
$PSLTSCALE
 70
     1
  9
$TREEDEPTH
 70
  3020
  9
$CMLSTYLE
  2
Standard
  9
$CMLJUST
 70
     0
  9
$CMLSCALE
 40
1.0
  9
$PROXYGRAPHICS
 70
     1
  9
$MEASUREMENT
 70
     0
  9
$CELWEIGHT
370
    -1
  9
$ENDCAPS
280
     0
  9
$JOINSTYLE
280
     0
  9
$LWDISPLAY
290
     0
  9
$INSUNITS
 70
     4
  9
$HYPERLINKBASE
  1

  9
$STYLESHEET
  1

  9
$XEDIT
290
     1
  9
$CEPSNTYPE
380
     0
  9
$PSTYLEMODE
290
     1
  9
$FINGERPRINTGUID
  2
{57FA9D02-3811-4DCF-BA91-F577FF57A40D}
  9
$VERSIONGUID
  2
{FAEB1C32-E019-11D5-929B-00C0DF256EC4}
  9
$EXTNAMES
290
     1
  9
$PSVPSCALE
 40
0.0
  9
$OLESTARTUP
290
     0
  9
$SORTENTS
280
   127
  9
$INDEXCTL
280
     0
  9
$HIDETEXT
280
     1
  9
$XCLIPFRAME
290
     0
  9
$HALOGAP
280
     0
  9
$OBSCOLOR
 70
   257
  9
$OBSLTYPE
280
     0
  9
$INTERSECTIONDISPLAY
280
     0
  9
$INTERSECTIONCOLOR
 70
   257
  9
$DIMASSOC
280
     2
  9
$PROJECTNAME
  1

  9
$CAMERADISPLAY
290
     0
  9
$LENSLENGTH
 40
50.0
  9
$CAMERAHEIGHT
 40
0.0
  9
$STEPSPERSEC
 40
2.0
  9
$STEPSIZE
 40
6.0
  9
$3DDWFPREC
 40
2.0
  9
$PSOLWIDTH
 40
0.25
  9
$PSOLHEIGHT
 40
4.0
  9
$LOFTANG1
 40
1.570796326794897
  9
$LOFTANG2
 40
1.570796326794897
  9
$LOFTMAG1
 40
0.0
  9
$LOFTMAG2
 40
0.0
  9
$LOFTPARAM
 70
     7
  9
$LOFTNORMALS
280
     1
  9
$LATITUDE
 40
37.795
  9
$LONGITUDE
 40
-122.394
  9
$NORTHDIRECTION
 40
0.0
  9
$TIMEZONE
 70
 -8000
  9
$LIGHTGLYPHDISPLAY
280
     1
  9
$TILEMODELIGHTSYNCH
280
     1
  9
$SOLIDHIST
280
     1
  9
$SHOWHIST
280
     1
  9
$DWFFRAME
280
     2
  9
$DGNFRAME
280
     2
  9
$REALWORLDSCALE
290
     1
  9
$INTERFERECOLOR
 62
   256
  9
$CSHADOW
280
     0
  9
$SHADOWPLANELOCATION
 40
0.0
  0
ENDSEC
  0
SECTION
  2
CLASSES
  0
CLASS
  1
ACDBDICTIONARYWDFLT
  2
AcDbDictionaryWithDefault
  3
ObjectDBX Classes
 90
        0
 91
        4
280
     0
281
     0
  0
CLASS
  1
VISUALSTYLE
  2
AcDbVisualStyle
  3
ObjectDBX Classes
 90
     4095
 91
        4
280
     0
281
     0
  0
CLASS
  1
MATERIAL
  2
AcDbMaterial
  3
ObjectDBX Classes
 90
     1153
 91
        4
280
     0
281
     0
  0
ENDSEC
  0
SECTION
  2
TABLES
  0
TABLE
  2
VPORT
  5
8
330
0
100
AcDbSymbolTable
 70
     1
  0
VPORT
  5
29
330
8
100
AcDbSymbolTableRecord
100
AcDbViewportTableRecord
  2
*Active
 70
     0
 10
0.0
 20
0.0
 11
1.0
 21
1.0
 12
10.42990654205607
 22
4.5
 13
0.0
 23
0.0
 14
0.5
 24
0.5
 15
0.5
 25
0.5
 16
0.0
 26
0.0
 36
1.0
 17
0.0
 27
0.0
 37
0.0
 40
9.0
 41
1.972972972850329
 42
50.0
 43
0.0
 44
0.0
 50
0.0
 51
0.0
 71
     0
 72
   100
 73
     1
 74
     3
 75
     0
 76
     0
 77
     0
 78
     0
281
     0
 65
     1
110
0.0
120
0.0
130
0.0
111
1.0
121
0.0
131
0.0
112
0.0
122
1.0
132
0.0
 79
     0
146
0.0
 60
     3
 61
     5
292
     1
282
     1
141
0.0
142
0.0
 63
   250
  0
ENDTAB
  0
TABLE
  2
LTYPE
  5
5
330
0
100
AcDbSymbolTable
 70
     1
  0
LTYPE
  5
14
330
5
100
AcDbSymbolTableRecord
100
AcDbLinetypeTableRecord
  2
ByBlock
 70
     0
  3

 72
    65
 73
     0
 40
0.0
  0
LTYPE
  5
15
330
5
100
AcDbSymbolTableRecord
100
AcDbLinetypeTableRecord
  2
ByLayer
 70
     0
  3

 72
    65
 73
     0
 40
0.0
  0
LTYPE
  5
16
330
5
100
AcDbSymbolTableRecord
100
AcDbLinetypeTableRecord
  2
Continuous
 70
     0
  3
Solid line
 72
    65
 73
     0
 40
0.0
  0
ENDTAB
  0
TABLE
  2
LAYER
  5
2
330
0
100
AcDbSymbolTable
 70
     3
  0
LAYER
  5
10
330
2
100
AcDbSymbolTableRecord
100
AcDbLayerTableRecord
  2
0
 70
     0
 62
     7
  6
Continuous
370
    -3
390
F
347
3E
  0
LAYER
  5
40
330
2
100
AcDbSymbolTableRecord
100
AcDbLayerTableRecord
  2
layer 1
 70
     0
 62
     7
  6
Continuous
370
    -3
390
F
347
3E
  0
LAYER
  5
114
330
2
100
AcDbSymbolTableRecord
100
AcDbLayerTableRecord
  2
Master Guides
 70
     0
 62
     7
  6
Continuous
370
    -3
390
F
347
3E
  0
ENDTAB
  0
TABLE
  2
STYLE
  5
3
330
0
100
AcDbSymbolTable
 70
     1
  0
STYLE
  5
11
330
3
100
AcDbSymbolTableRecord
100
AcDbTextStyleTableRecord
  2
Standard
 70
     0
 40
0.0
 41
1.0
 50
0.0
 71
     0
 42
0.2
  3
txt
  4

  0
ENDTAB
  0
TABLE
  2
VIEW
  5
6
330
0
100
AcDbSymbolTable
 70
     0
  0
ENDTAB
  0
TABLE
  2
UCS
  5
7
330
0
100
AcDbSymbolTable
 70
     0
  0
ENDTAB
  0
TABLE
  2
APPID
  5
9
330
0
100
AcDbSymbolTable
 70
     2
  0
APPID
  5
12
330
9
100
AcDbSymbolTableRecord
100
AcDbRegAppTableRecord
  2
ACAD
 70
     0
  0
APPID
  5
3F
330
9
100
AcDbSymbolTableRecord
100
AcDbRegAppTableRecord
  2
ODA
 70
     0
  0
ENDTAB
  0
TABLE
  2
DIMSTYLE
  5
A
330
0
100
AcDbSymbolTable
 70
     1
100
AcDbDimStyleTable
  0
DIMSTYLE
105
27
330
A
100
AcDbSymbolTableRecord
100
AcDbDimStyleTableRecord
  2
Standard
 70
     0
178
     0
340
11
  0
ENDTAB
  0
TABLE
  2
BLOCK_RECORD
  5
1
330
0
100
AcDbSymbolTable
 70
     1
  0
BLOCK_RECORD
  5
1F
330
1
100
AcDbSymbolTableRecord
100
AcDbBlockTableRecord
  2
*Model_Space
340
22
 70
     0
280
     1
281
     0
  0
BLOCK_RECORD
  5
1B
330
1
100
AcDbSymbolTableRecord
100
AcDbBlockTableRecord
  2
*Paper_Space
340
1E
 70
     0
280
     1
281
     0
  0
BLOCK_RECORD
  5
23
330
1
100
AcDbSymbolTableRecord
100
AcDbBlockTableRecord
  2
*Paper_Space0
340
26
 70
     0
280
     1
281
     0
  0
ENDTAB
  0
ENDSEC
  0
SECTION
  2
BLOCKS
  0
BLOCK
  5
20
330
1F
100
AcDbEntity
  8
0
100
AcDbBlockBegin
  2
*Model_Space
 70
     0
 10
0.0
 20
0.0
 30
0.0
  3
*Model_Space
  1

  0
ENDBLK
  5
21
330
1F
100
AcDbEntity
  8
0
100
AcDbBlockEnd
  0
BLOCK
  5
1C
330
1B
100
AcDbEntity
 67
     1
  8
0
100
AcDbBlockBegin
  2
*Paper_Space
 70
     0
 10
0.0
 20
0.0
 30
0.0
  3
*Paper_Space
  1

  0
ENDBLK
  5
1D
330
1B
100
AcDbEntity
 67
     1
  8
0
100
AcDbBlockEnd
  0
BLOCK
  5
24
330
23
100
AcDbEntity
  8
0
100
AcDbBlockBegin
  2
*Paper_Space0
 70
     0
 10
0.0
 20
0.0
 30
0.0
  3
*Paper_Space0
  1

  0
ENDBLK
  5
25
330
23
100
AcDbEntity
  8
0
100
AcDbBlockEnd
  0
ENDSEC
  0
SECTION
  2
ENTITIES
  0
SPLINE
  5
41
330
1F
100
AcDbEntity
  8
layer 1
 62
   250
100
AcDbSpline
210
0.0
220
0.0
230
1.0
 70
    11
 71
     3
 72
    20
 73
    16
 74
     0
 42
0.0000000001
 43
0.0000000001
 12
1.0
 22
0.0
 32
0.0
 13
1.0
 23
0.0
 33
0.0
 40
0.0
 40
0.0
 40
0.0
 40
0.0
 40
0.2
 40
0.2
 40
0.2
 40
0.2
 40
0.4
 40
0.4
 40
0.4
 40
0.4
 40
0.6
 40
0.6
 40
0.6
 40
0.6
 40
1.0
 40
1.0
 40
1.0
 40
1.0
 10
41.075
 20
-115.0462
 30
0.0
 10
41.075
 20
-115.0462
 30
0.0
 10
41.075
 20
131.8105
 30
0.0
 10
41.075
 20
131.8105
 30
0.0
 10
41.075
 20
131.8105
 30
0.0
 10
41.075
 20
131.8105
 30
0.0
 10
196.362
 20
131.8105
 30
0.0
 10
196.362
 20
131.8105
 30
0.0
 10
196.362
 20
131.8105
 30
0.0
 10
196.362
 20
131.8105
 30
0.0
 10
196.362
 20
-115.0462
 30
0.0
 10
196.362
 20
-115.0462
 30
0.0
 10
196.362
 20
-115.0462
 30
0.0
 10
196.362
 20
-115.0462
 30
0.0
 10
41.075
 20
-115.0462
 30
0.0
 10
41.075
 20
-115.0462
 30
0.0
  0
SPLINE
  5
42
330
1F
100
AcDbEntity
  8
layer 1
 62
     7
100
AcDbSpline
210
0.0
220
0.0
230
1.0
 70
    11
 71
     3
 72
    68
 73
    64
 74
     0
 42
0.0000000001
 43
0.0000000001
 12
1.0
 22
0.0
 32
0.0
 13
1.0
 23
0.0
 33
0.0
 40
0.0
 40
0.0
 40
0.0
 40
0.0
 40
0.0588235294117647
 40
0.0588235294117647
 40
0.0588235294117647
 40
0.0588235294117647
 40
0.1176470588235294
 40
0.1176470588235294
 40
0.1176470588235294
 40
0.1176470588235294
 40
0.1764705882352941
 40
0.1764705882352941
 40
0.1764705882352941
 40
0.1764705882352941
 40
0.2352941176470588
 40
0.2352941176470588
 40
0.2352941176470588
 40
0.2352941176470588
 40
0.2941176470588235
 40
0.2941176470588235
 40
0.2941176470588235
 40
0.2941176470588235
 40
0.3529411764705883
 40
0.3529411764705883
 40
0.3529411764705883
 40
0.3529411764705883
 40
0.4117647058823529
 40
0.4117647058823529
 40
0.4117647058823529
 40
0.4117647058823529
 40
0.4705882352941176
 40
0.4705882352941176
 40
0.4705882352941176
 40
0.4705882352941176
 40
0.5294117647058824
 40
0.5294117647058824
 40
0.5294117647058824
 40
0.5294117647058824
 40
0.5882352941176471
 40
0.5882352941176471
 40
0.5882352941176471
 40
0.5882352941176471
 40
0.6470588235294118
 40
0.6470588235294118
 40
0.6470588235294118
 40
0.6470588235294118
 40
0.7058823529411765
 40
0.7058823529411765
 40
0.7058823529411765
 40
0.7058823529411765
 40
0.7647058823529411
 40
0.7647058823529411
 40
0.7647058823529411
 40
0.7647058823529411
 40
0.8235294117647058
 40
0.8235294117647058
 40
0.8235294117647058
 40
0.8235294117647058
 40
0.8823529411764706
 40
0.8823529411764706
 40
0.8823529411764706
 40
0.8823529411764706
 40
1.0
 40
1.0
 40
1.0
 40
1.0
 10
79.7685
 20
-72.11
 30
0.0
 10
79.7685
 20
-72.11
 30
0.0
 10
75.1344
 20
-77.4312
 30
0.0
 10
75.1344
 20
-77.4312
 30
0.0
 10
75.1344
 20
-77.4312
 30
0.0
 10
75.1344
 20
-77.4312
 30
0.0
 10
70.5739
 20
-72.11
 30
0.0
 10
70.5739
 20
-72.11
 30
0.0
 10
70.5739
 20
-72.11
 30
0.0
 10
70.5739
 20
-72.11
 30
0.0
 10
70.5491
 20
-62.625
 30
0.0
 10
70.5491
 20
-62.625
 30
0.0
 10
70.5491
 20
-62.625
 30
0.0
 10
70.5491
 20
-62.625
 30
0.0
 10
61.1051
 20
-62.6411
 30
0.0
 10
61.1051
 20
-62.6411
 30
0.0
 10
61.1051
 20
-62.6411
 30
0.0
 10
61.1051
 20
-62.6411
 30
0.0
 10
55.7839
 20
-58.007
 30
0.0
 10
55.7839
 20
-58.007
 30
0.0
 10
55.7839
 20
-58.007
 30
0.0
 10
55.7839
 20
-58.007
 30
0.0
 10
61.1051
 20
-53.4465
 30
0.0
 10
61.1051
 20
-53.4465
 30
0.0
 10
61.1051
 20
-53.4465
 30
0.0
 10
61.1051
 20
-53.4465
 30
0.0
 10
70.6061
 20
-53.4096
 30
0.0
 10
70.6061
 20
-53.4096
 30
0.0
 10
70.6061
 20
-53.4096
 30
0.0
 10
70.6061
 20
-53.4096
 30
0.0
 10
70.574
 20
-43.1794
 30
0.0
 10
70.574
 20
-43.1794
 30
0.0
 10
70.574
 20
-43.1794
 30
0.0
 10
70.574
 20
-43.1794
 30
0.0
 10
75.1345
 20
-38.6564
 30
0.0
 10
75.1345
 20
-38.6564
 30
0.0
 10
75.1345
 20
-38.6564
 30
0.0
 10
75.1345
 20
-38.6564
 30
0.0
 10
79.7686
 20
-43.1794
 30
0.0
 10
79.7686
 20
-43.1794
 30
0.0
 10
79.7686
 20
-43.1794
 30
0.0
 10
79.7686
 20
-43.1794
 30
0.0
 10
79.7455
 20
-53.4666
 30
0.0
 10
79.7455
 20
-53.4666
 30
0.0
 10
79.7455
 20
-53.4666
 30
0.0
 10
79.7455
 20
-53.4666
 30
0.0
 10
90.0357
 20
-53.4464
 30
0.0
 10
90.0357
 20
-53.4464
 30
0.0
 10
90.0357
 20
-53.4464
 30
0.0
 10
90.0357
 20
-53.4464
 30
0.0
 10
94.5587
 20
-58.0069
 30
0.0
 10
94.5587
 20
-58.0069
 30
0.0
 10
94.5587
 20
-58.0069
 30
0.0
 10
94.5587
 20
-58.0069
 30
0.0
 10
90.0357
 20
-62.641
 30
0.0
 10
90.0357
 20
-62.641
 30
0.0
 10
90.0357
 20
-62.641
 30
0.0
 10
90.0357
 20
-62.641
 30
0.0
 10
79.7646
 20
-62.6629
 30
0.0
 10
79.7646
 20
-62.6629
 30
0.0
 10
79.7646
 20
-62.6629
 30
0.0
 10
79.7646
 20
-62.6629
 30
0.0
 10
79.7685
 20
-72.11
 30
0.0
 10
79.7685
 20
-72.11
 30
0.0
  0
SPLINE
  5
43
330
1F
100
AcDbEntity
  8
layer 1
 62
     7
100
AcDbSpline
210
0.0
220
0.0
230
1.0
 70
    11
 71
     3
 72
    20
 73
    16
 74
     0
 42
0.0000000001
 43
0.0000000001
 12
1.0
 22
0.0
 32
0.0
 13
1.0
 23
0.0
 33
0.0
 40
0.0
 40
0.0
 40
0.0
 40
0.0
 40
0.2
 40
0.2
 40
0.2
 40
0.2
 40
0.4
 40
0.4
 40
0.4
 40
0.4
 40
0.6
 40
0.6
 40
0.6
 40
0.6
 40
1.0
 40
1.0
 40
1.0
 40
1.0
 10
81.8508
 20
-39.506
 30
0.0
 10
81.8508
 20
-39.506
 30
0.0
 10
78.1957
 20
-35.8509
 30
0.0
 10
78.1957
 20
-35.8509
 30
0.0
 10
78.1957
 20
-35.8509
 30
0.0
 10
78.1957
 20
-35.8509
 30
0.0
 10
81.8508
 20
-32.1957
 30
0.0
 10
81.8508
 20
-32.1957
 30
0.0
 10
81.8508
 20
-32.1957
 30
0.0
 10
81.8508
 20
-32.1957
 30
0.0
 10
85.506
 20
-35.8509
 30
0.0
 10
85.506
 20
-35.8509
 30
0.0
 10
85.506
 20
-35.8509
 30
0.0
 10
85.506
 20
-35.8509
 30
0.0
 10
81.8508
 20
-39.506
 30
0.0
 10
81.8508
 20
-39.506
 30
0.0
  0
SPLINE
  5
44
330
1F
100
AcDbEntity
  8
layer 1
 62
     7
100
AcDbSpline
210
0.0
220
0.0
230
1.0
 70
    11
 71
     3
 72
    20
 73
    16
 74
     0
 42
0.0000000001
 43
0.0000000001
 12
1.0
 22
0.0
 32
0.0
 13
1.0
 23
0.0
 33
0.0
 40
0.0
 40
0.0
 40
0.0
 40
0.0
 40
0.2
 40
0.2
 40
0.2
 40
0.2
 40
0.4
 40
0.4
 40
0.4
 40
0.4
 40
0.6
 40
0.6
 40
0.6
 40
0.6
 40
1.0
 40
1.0
 40
1.0
 40
1.0
 10
97.3584
 20
-43.4589
 30
0.0
 10
97.3584
 20
-43.4589
 30
0.0
 10
89.7503
 20
-35.8509
 30
0.0
 10
89.7503
 20
-35.8509
 30
0.0
 10
89.7503
 20
-35.8509
 30
0.0
 10
89.7503
 20
-35.8509
 30
0.0
 10
97.3584
 20
-28.2428
 30
0.0
 10
97.3584
 20
-28.2428
 30
0.0
 10
97.3584
 20
-28.2428
 30
0.0
 10
97.3584
 20
-28.2428
 30
0.0
 10
104.9664
 20
-35.8509
 30
0.0
 10
104.9664
 20
-35.8509
 30
0.0
 10
104.9664
 20
-35.8509
 30
0.0
 10
104.9664
 20
-35.8509
 30
0.0
 10
97.3584
 20
-43.4589
 30
0.0
 10
97.3584
 20
-43.4589
 30
0.0
  0
SPLINE
  5
45
330
1F
100
AcDbEntity
  8
layer 1
 62
     7
100
AcDbSpline
210
0.0
220
0.0
230
1.0
 70
    11
 71
     3
 72
    20
 73
    16
 74
     0
 42
0.0000000001
 43
0.0000000001
 12
1.0
 22
0.0
 32
0.0
 13
1.0
 23
0.0
 33
0.0
 40
0.0
 40
0.0
 40
0.0
 40
0.0
 40
0.2
 40
0.2
 40
0.2
 40
0.2
 40
0.4
 40
0.4
 40
0.4
 40
0.4
 40
0.6
 40
0.6
 40
0.6
 40
0.6
 40
1.0
 40
1.0
 40
1.0
 40
1.0
 10
97.2063
 20
-55.0135
 30
0.0
 10
97.2063
 20
-55.0135
 30
0.0
 10
93.5512
 20
-51.3584
 30
0.0
 10
93.5512
 20
-51.3584
 30
0.0
 10
93.5512
 20
-51.3584
 30
0.0
 10
93.5512
 20
-51.3584
 30
0.0
 10
97.2063
 20
-47.7033
 30
0.0
 10
97.2063
 20
-47.7033
 30
0.0
 10
97.2063
 20
-47.7033
 30
0.0
 10
97.2063
 20
-47.7033
 30
0.0
 10
100.8614
 20
-51.3584
 30
0.0
 10
100.8614
 20
-51.3584
 30
0.0
 10
100.8614
 20
-51.3584
 30
0.0
 10
100.8614
 20
-51.3584
 30
0.0
 10
97.2063
 20
-55.0135
 30
0.0
 10
97.2063
 20
-55.0135
 30
0.0
  0
SPLINE
  5
46
330
1F
100
AcDbEntity
  8
layer 1
 62
     7
100
AcDbSpline
210
0.0
220
0.0
230
1.0
 70
    11
 71
     3
 72
    20
 73
    16
 74
     0
 42
0.0000000001
 43
0.0000000001
 12
1.0
 22
0.0
 32
0.0
 13
1.0
 23
0.0
 33
0.0
 40
0.0
 40
0.0
 40
0.0
 40
0.0
 40
0.2
 40
0.2
 40
0.2
 40
0.2
 40
0.4
 40
0.4
 40
0.4
 40
0.4
 40
0.6
 40
0.6
 40
0.6
 40
0.6
 40
1.0
 40
1.0
 40
1.0
 40
1.0
 10
97.2063
 20
-23.9225
 30
0.0
 10
97.2063
 20
-23.9225
 30
0.0
 10
93.5512
 20
-20.2674
 30
0.0
 10
93.5512
 20
-20.2674
 30
0.0
 10
93.5512
 20
-20.2674
 30
0.0
 10
93.5512
 20
-20.2674
 30
0.0
 10
97.2063
 20
-16.6122
 30
0.0
 10
97.2063
 20
-16.6122
 30
0.0
 10
97.2063
 20
-16.6122
 30
0.0
 10
97.2063
 20
-16.6122
 30
0.0
 10
100.8614
 20
-20.2674
 30
0.0
 10
100.8614
 20
-20.2674
 30
0.0
 10
100.8614
 20
-20.2674
 30
0.0
 10
100.8614
 20
-20.2674
 30
0.0
 10
97.2063
 20
-23.9225
 30
0.0
 10
97.2063
 20
-23.9225
 30
0.0
  0
SPLINE
  5
47
330
1F
100
AcDbEntity
  8
layer 1
 62
     7
100
AcDbSpline
210
0.0
220
0.0
230
1.0
 70
    11
 71
     3
 72
    24
 73
    20
 74
     0
 42
0.0000000001
 43
0.0000000001
 12
1.0
 22
0.0
 32
0.0
 13
1.0
 23
0.0
 33
0.0
 40
0.0
 40
0.0
 40
0.0
 40
0.0
 40
0.1666666666666667
 40
0.1666666666666667
 40
0.1666666666666667
 40
0.1666666666666667
 40
0.3333333333333333
 40
0.3333333333333333
 40
0.3333333333333333
 40
0.3333333333333333
 40
0.5
 40
0.5
 40
0.5
 40
0.5
 40
0.6666666666666666
 40
0.6666666666666666
 40
0.6666666666666666
 40
0.6666666666666666
 40
1.0
 40
1.0
 40
1.0
 40
1.0
 10
91.277
 20
-49.3819
 30
0.0
 10
91.277
 20
-49.3819
 30
0.0
 10
83.6753
 20
-49.3819
 30
0.0
 10
83.6753
 20
-49.3819
 30
0.0
 10
83.6753
 20
-49.3819
 30
0.0
 10
83.6753
 20
-49.3819
 30
0.0
 10
83.6753
 20
-41.5522
 30
0.0
 10
83.6753
 20
-41.5522
 30
0.0
 10
83.6753
 20
-41.5522
 30
0.0
 10
83.6753
 20
-41.5522
 30
0.0
 10
87.5521
 20
-37.973
 30
0.0
 10
87.5521
 20
-37.973
 30
0.0
 10
87.5521
 20
-37.973
 30
0.0
 10
87.5521
 20
-37.973
 30
0.0
 10
95.1602
 20
-45.581
 30
0.0
 10
95.1602
 20
-45.581
 30
0.0
 10
95.1602
 20
-45.581
 30
0.0
 10
95.1602
 20
-45.581
 30
0.0
 10
91.277
 20
-49.3819
 30
0.0
 10
91.277
 20
-49.3819
 30
0.0
  0
SPLINE
  5
48
330
1F
100
AcDbEntity
  8
layer 1
 62
     7
100
AcDbSpline
210
0.0
220
0.0
230
1.0
 70
    11
 71
     3
 72
    24
 73
    20
 74
     0
 42
0.0000000001
 43
0.0000000001
 12
1.0
 22
0.0
 32
0.0
 13
1.0
 23
0.0
 33
0.0
 40
0.0
 40
0.0
 40
0.0
 40
0.0
 40
0.1666666666666667
 40
0.1666666666666667
 40
0.1666666666666667
 40
0.1666666666666667
 40
0.3333333333333333
 40
0.3333333333333333
 40
0.3333333333333333
 40
0.3333333333333333
 40
0.5
 40
0.5
 40
0.5
 40
0.5
 40
0.6666666666666666
 40
0.6666666666666666
 40
0.6666666666666666
 40
0.6666666666666666
 40
1.0
 40
1.0
 40
1.0
 40
1.0
 10
91.277
 20
-22.1614
 30
0.0
 10
91.277
 20
-22.1614
 30
0.0
 10
83.6753
 20
-22.1614
 30
0.0
 10
83.6753
 20
-22.1614
 30
0.0
 10
83.6753
 20
-22.1614
 30
0.0
 10
83.6753
 20
-22.1614
 30
0.0
 10
83.6753
 20
-29.9911
 30
0.0
 10
83.6753
 20
-29.9911
 30
0.0
 10
83.6753
 20
-29.9911
 30
0.0
 10
83.6753
 20
-29.9911
 30
0.0
 10
87.5521
 20
-33.5703
 30
0.0
 10
87.5521
 20
-33.5703
 30
0.0
 10
87.5521
 20
-33.5703
 30
0.0
 10
87.5521
 20
-33.5703
 30
0.0
 10
95.1602
 20
-25.9622
 30
0.0
 10
95.1602
 20
-25.9622
 30
0.0
 10
95.1602
 20
-25.9622
 30
0.0
 10
95.1602
 20
-25.9622
 30
0.0
 10
91.277
 20
-22.1614
 30
0.0
 10
91.277
 20
-22.1614
 30
0.0
  0
SPLINE
  5
49
330
1F
100
AcDbEntity
  8
layer 1
 62
     7
100
AcDbSpline
210
0.0
220
0.0
230
1.0
 70
    11
 71
     3
 72
    24
 73
    20
 74
     0
 42
0.0000000001
 43
0.0000000001
 12
1.0
 22
0.0
 32
0.0
 13
1.0
 23
0.0
 33
0.0
 40
0.0
 40
0.0
 40
0.0
 40
0.0
 40
0.1666666666666667
 40
0.1666666666666667
 40
0.1666666666666667
 40
0.1666666666666667
 40
0.3333333333333333
 40
0.3333333333333333
 40
0.3333333333333333
 40
0.3333333333333333
 40
0.5
 40
0.5
 40
0.5
 40
0.5
 40
0.6666666666666666
 40
0.6666666666666666
 40
0.6666666666666666
 40
0.6666666666666666
 40
1.0
 40
1.0
 40
1.0
 40
1.0
 10
103.142
 20
-49.3819
 30
0.0
 10
103.142
 20
-49.3819
 30
0.0
 10
110.7438
 20
-49.3819
 30
0.0
 10
110.7438
 20
-49.3819
 30
0.0
 10
110.7438
 20
-49.3819
 30
0.0
 10
110.7438
 20
-49.3819
 30
0.0
 10
110.7438
 20
-41.5522
 30
0.0
 10
110.7438
 20
-41.5522
 30
0.0
 10
110.7438
 20
-41.5522
 30
0.0
 10
110.7438
 20
-41.5522
 30
0.0
 10
106.8669
 20
-37.973
 30
0.0
 10
106.8669
 20
-37.973
 30
0.0
 10
106.8669
 20
-37.973
 30
0.0
 10
106.8669
 20
-37.973
 30
0.0
 10
99.2589
 20
-45.581
 30
0.0
 10
99.2589
 20
-45.581
 30
0.0
 10
99.2589
 20
-45.581
 30
0.0
 10
99.2589
 20
-45.581
 30
0.0
 10
103.142
 20
-49.3819
 30
0.0
 10
103.142
 20
-49.3819
 30
0.0
  0
SPLINE
  5
4A
330
1F
100
AcDbEntity
  8
layer 1
 62
     7
100
AcDbSpline
210
0.0
220
0.0
230
1.0
 70
    11
 71
     3
 72
    24
 73
    20
 74
     0
 42
0.0000000001
 43
0.0000000001
 12
1.0
 22
0.0
 32
0.0
 13
1.0
 23
0.0
 33
0.0
 40
0.0
 40
0.0
 40
0.0
 40
0.0
 40
0.1666666666666667
 40
0.1666666666666667
 40
0.1666666666666667
 40
0.1666666666666667
 40
0.3333333333333333
 40
0.3333333333333333
 40
0.3333333333333333
 40
0.3333333333333333
 40
0.5
 40
0.5
 40
0.5
 40
0.5
 40
0.6666666666666666
 40
0.6666666666666666
 40
0.6666666666666666
 40
0.6666666666666666
 40
1.0
 40
1.0
 40
1.0
 40
1.0
 10
103.142
 20
-22.1614
 30
0.0
 10
103.142
 20
-22.1614
 30
0.0
 10
110.7438
 20
-22.1614
 30
0.0
 10
110.7438
 20
-22.1614
 30
0.0
 10
110.7438
 20
-22.1614
 30
0.0
 10
110.7438
 20
-22.1614
 30
0.0
 10
110.7438
 20
-29.9911
 30
0.0
 10
110.7438
 20
-29.9911
 30
0.0
 10
110.7438
 20
-29.9911
 30
0.0
 10
110.7438
 20
-29.9911
 30
0.0
 10
106.8669
 20
-33.5703
 30
0.0
 10
106.8669
 20
-33.5703
 30
0.0
 10
106.8669
 20
-33.5703
 30
0.0
 10
106.8669
 20
-33.5703
 30
0.0
 10
99.2589
 20
-25.9622
 30
0.0
 10
99.2589
 20
-25.9622
 30
0.0
 10
99.2589
 20
-25.9622
 30
0.0
 10
99.2589
 20
-25.9622
 30
0.0
 10
103.142
 20
-22.1614
 30
0.0
 10
103.142
 20
-22.1614
 30
0.0
  0
SPLINE
  5
4B
330
1F
100
AcDbEntity
  8
layer 1
 62
     7
100
AcDbSpline
210
0.0
220
0.0
230
1.0
 70
    11
 71
     3
 72
    20
 73
    16
 74
     0
 42
0.0000000001
 43
0.0000000001
 12
1.0
 22
0.0
 32
0.0
 13
1.0
 23
0.0
 33
0.0
 40
0.0
 40
0.0
 40
0.0
 40
0.0
 40
0.2
 40
0.2
 40
0.2
 40
0.2
 40
0.4
 40
0.4
 40
0.4
 40
0.4
 40
0.6
 40
0.6
 40
0.6
 40
0.6
 40
1.0
 40
1.0
 40
1.0
 40
1.0
 10
112.7899
 20
-39.506
 30
0.0
 10
112.7899
 20
-39.506
 30
0.0
 10
109.1348
 20
-35.8509
 30
0.0
 10
109.1348
 20
-35.8509
 30
0.0
 10
109.1348
 20
-35.8509
 30
0.0
 10
109.1348
 20
-35.8509
 30
0.0
 10
112.7899
 20
-32.1957
 30
0.0
 10
112.7899
 20
-32.1957
 30
0.0
 10
112.7899
 20
-32.1957
 30
0.0
 10
112.7899
 20
-32.1957
 30
0.0
 10
116.445
 20
-35.8509
 30
0.0
 10
116.445
 20
-35.8509
 30
0.0
 10
116.445
 20
-35.8509
 30
0.0
 10
116.445
 20
-35.8509
 30
0.0
 10
112.7899
 20
-39.506
 30
0.0
 10
112.7899
 20
-39.506
 30
0.0
  0
SPLINE
  5
4C
330
1F
100
AcDbEntity
  8
layer 1
 62
     7
100
AcDbSpline
210
0.0
220
0.0
230
1.0
 70
    11
 71
     3
 72
    64
 73
    60
 74
     0
 42
0.0000000001
 43
0.0000000001
 12
1.0
 22
0.0
 32
0.0
 13
1.0
 23
0.0
 33
0.0
 40
0.0
 40
0.0
 40
0.0
 40
0.0
 40
0.0625
 40
0.0625
 40
0.0625
 40
0.0625
 40
0.125
 40
0.125
 40
0.125
 40
0.125
 40
0.1875
 40
0.1875
 40
0.1875
 40
0.1875
 40
0.25
 40
0.25
 40
0.25
 40
0.25
 40
0.3125
 40
0.3125
 40
0.3125
 40
0.3125
 40
0.375
 40
0.375
 40
0.375
 40
0.375
 40
0.4375
 40
0.4375
 40
0.4375
 40
0.4375
 40
0.5
 40
0.5
 40
0.5
 40
0.5
 40
0.5625
 40
0.5625
 40
0.5625
 40
0.5625
 40
0.625
 40
0.625
 40
0.625
 40
0.625
 40
0.6875
 40
0.6875
 40
0.6875
 40
0.6875
 40
0.75
 40
0.75
 40
0.75
 40
0.75
 40
0.8125
 40
0.8125
 40
0.8125
 40
0.8125
 40
0.875
 40
0.875
 40
0.875
 40
0.875
 40
1.0
 40
1.0
 40
1.0
 40
1.0
 10
70.5515
 20
-107.8644
 30
0.0
 10
70.5515
 20
-107.8644
 30
0.0
 10
70.5491
 20
-106.9442
 30
0.0
 10
70.5491
 20
-106.9442
 30
0.0
 10
70.5491
 20
-106.9442
 30
0.0
 10
70.5491
 20
-106.9442
 30
0.0
 10
61.1051
 20
-106.9603
 30
0.0
 10
61.1051
 20
-106.9603
 30
0.0
 10
61.1051
 20
-106.9603
 30
0.0
 10
61.1051
 20
-106.9603
 30
0.0
 10
55.7839
 20
-102.3262
 30
0.0
 10
55.7839
 20
-102.3262
 30
0.0
 10
55.7839
 20
-102.3262
 30
0.0
 10
55.7839
 20
-102.3262
 30
0.0
 10
61.1051
 20
-97.7657
 30
0.0
 10
61.1051
 20
-97.7657
 30
0.0
 10
61.1051
 20
-97.7657
 30
0.0
 10
61.1051
 20
-97.7657
 30
0.0
 10
70.6061
 20
-97.7288
 30
0.0
 10
70.6061
 20
-97.7288
 30
0.0
 10
70.6061
 20
-97.7288
 30
0.0
 10
70.6061
 20
-97.7288
 30
0.0
 10
70.574
 20
-87.4986
 30
0.0
 10
70.574
 20
-87.4986
 30
0.0
 10
70.574
 20
-87.4986
 30
0.0
 10
70.574
 20
-87.4986
 30
0.0
 10
75.1345
 20
-82.9755
 30
0.0
 10
75.1345
 20
-82.9755
 30
0.0
 10
75.1345
 20
-82.9755
 30
0.0
 10
75.1345
 20
-82.9755
 30
0.0
 10
79.7686
 20
-87.4986
 30
0.0
 10
79.7686
 20
-87.4986
 30
0.0
 10
79.7686
 20
-87.4986
 30
0.0
 10
79.7686
 20
-87.4986
 30
0.0
 10
79.7455
 20
-97.7858
 30
0.0
 10
79.7455
 20
-97.7858
 30
0.0
 10
79.7455
 20
-97.7858
 30
0.0
 10
79.7455
 20
-97.7858
 30
0.0
 10
90.0357
 20
-97.7656
 30
0.0
 10
90.0357
 20
-97.7656
 30
0.0
 10
90.0357
 20
-97.7656
 30
0.0
 10
90.0357
 20
-97.7656
 30
0.0
 10
94.5587
 20
-102.3261
 30
0.0
 10
94.5587
 20
-102.3261
 30
0.0
 10
94.5587
 20
-102.3261
 30
0.0
 10
94.5587
 20
-102.3261
 30
0.0
 10
90.0357
 20
-106.9602
 30
0.0
 10
90.0357
 20
-106.9602
 30
0.0
 10
90.0357
 20
-106.9602
 30
0.0
 10
90.0357
 20
-106.9602
 30
0.0
 10
79.7646
 20
-106.9821
 30
0.0
 10
79.7646
 20
-106.9821
 30
0.0
 10
79.7646
 20
-106.9821
 30
0.0
 10
79.7646
 20
-106.9821
 30
0.0
 10
79.7649
 20
-107.8643
 30
0.0
 10
79.7649
 20
-107.8643
 30
0.0
 10
79.7649
 20
-107.8643
 30
0.0
 10
79.7649
 20
-107.8643
 30
0.0
 10
70.5515
 20
-107.8644
 30
0.0
 10
70.5515
 20
-107.8644
 30
0.0
  0
SPLINE
  5
4D
330
1F
100
AcDbEntity
  8
layer 1
 62
     7
100
AcDbSpline
210
0.0
220
0.0
230
1.0
 70
    11
 71
     3
 72
    20
 73
    16
 74
     0
 42
0.0000000001
 43
0.0000000001
 12
1.0
 22
0.0
 32
0.0
 13
1.0
 23
0.0
 33
0.0
 40
0.0
 40
0.0
 40
0.0
 40
0.0
 40
0.2
 40
0.2
 40
0.2
 40
0.2
 40
0.4
 40
0.4
 40
0.4
 40
0.4
 40
0.6
 40
0.6
 40
0.6
 40
0.6
 40
1.0
 40
1.0
 40
1.0
 40
1.0
 10
81.8508
 20
-83.8252
 30
0.0
 10
81.8508
 20
-83.8252
 30
0.0
 10
78.1957
 20
-80.1701
 30
0.0
 10
78.1957
 20
-80.1701
 30
0.0
 10
78.1957
 20
-80.1701
 30
0.0
 10
78.1957
 20
-80.1701
 30
0.0
 10
81.8508
 20
-76.5149
 30
0.0
 10
81.8508
 20
-76.5149
 30
0.0
 10
81.8508
 20
-76.5149
 30
0.0
 10
81.8508
 20
-76.5149
 30
0.0
 10
85.506
 20
-80.1701
 30
0.0
 10
85.506
 20
-80.1701
 30
0.0
 10
85.506
 20
-80.1701
 30
0.0
 10
85.506
 20
-80.1701
 30
0.0
 10
81.8508
 20
-83.8252
 30
0.0
 10
81.8508
 20
-83.8252
 30
0.0
  0
SPLINE
  5
4E
330
1F
100
AcDbEntity
  8
layer 1
 62
     7
100
AcDbSpline
210
0.0
220
0.0
230
1.0
 70
    11
 71
     3
 72
    20
 73
    16
 74
     0
 42
0.0000000001
 43
0.0000000001
 12
1.0
 22
0.0
 32
0.0
 13
1.0
 23
0.0
 33
0.0
 40
0.0
 40
0.0
 40
0.0
 40
0.0
 40
0.2
 40
0.2
 40
0.2
 40
0.2
 40
0.4
 40
0.4
 40
0.4
 40
0.4
 40
0.6
 40
0.6
 40
0.6
 40
0.6
 40
1.0
 40
1.0
 40
1.0
 40
1.0
 10
97.3584
 20
-87.7781
 30
0.0
 10
97.3584
 20
-87.7781
 30
0.0
 10
89.7503
 20
-80.1701
 30
0.0
 10
89.7503
 20
-80.1701
 30
0.0
 10
89.7503
 20
-80.1701
 30
0.0
 10
89.7503
 20
-80.1701
 30
0.0
 10
97.3584
 20
-72.562
 30
0.0
 10
97.3584
 20
-72.562
 30
0.0
 10
97.3584
 20
-72.562
 30
0.0
 10
97.3584
 20
-72.562
 30
0.0
 10
104.9664
 20
-80.1701
 30
0.0
 10
104.9664
 20
-80.1701
 30
0.0
 10
104.9664
 20
-80.1701
 30
0.0
 10
104.9664
 20
-80.1701
 30
0.0
 10
97.3584
 20
-87.7781
 30
0.0
 10
97.3584
 20
-87.7781
 30
0.0
  0
SPLINE
  5
4F
330
1F
100
AcDbEntity
  8
layer 1
 62
     7
100
AcDbSpline
210
0.0
220
0.0
230
1.0
 70
    11
 71
     3
 72
    20
 73
    16
 74
     0
 42
0.0000000001
 43
0.0000000001
 12
1.0
 22
0.0
 32
0.0
 13
1.0
 23
0.0
 33
0.0
 40
0.0
 40
0.0
 40
0.0
 40
0.0
 40
0.2
 40
0.2
 40
0.2
 40
0.2
 40
0.4
 40
0.4
 40
0.4
 40
0.4
 40
0.6
 40
0.6
 40
0.6
 40
0.6
 40
1.0
 40
1.0
 40
1.0
 40
1.0
 10
97.2063
 20
-99.3327
 30
0.0
 10
97.2063
 20
-99.3327
 30
0.0
 10
93.5512
 20
-95.6776
 30
0.0
 10
93.5512
 20
-95.6776
 30
0.0
 10
93.5512
 20
-95.6776
 30
0.0
 10
93.5512
 20
-95.6776
 30
0.0
 10
97.2063
 20
-92.0225
 30
0.0
 10
97.2063
 20
-92.0225
 30
0.0
 10
97.2063
 20
-92.0225
 30
0.0
 10
97.2063
 20
-92.0225
 30
0.0
 10
100.8614
 20
-95.6776
 30
0.0
 10
100.8614
 20
-95.6776
 30
0.0
 10
100.8614
 20
-95.6776
 30
0.0
 10
100.8614
 20
-95.6776
 30
0.0
 10
97.2063
 20
-99.3327
 30
0.0
 10
97.2063
 20
-99.3327
 30
0.0
  0
SPLINE
  5
50
330
1F
100
AcDbEntity
  8
layer 1
 62
     7
100
AcDbSpline
210
0.0
220
0.0
230
1.0
 70
    11
 71
     3
 72
    20
 73
    16
 74
     0
 42
0.0000000001
 43
0.0000000001
 12
1.0
 22
0.0
 32
0.0
 13
1.0
 23
0.0
 33
0.0
 40
0.0
 40
0.0
 40
0.0
 40
0.0
 40
0.2
 40
0.2
 40
0.2
 40
0.2
 40
0.4
 40
0.4
 40
0.4
 40
0.4
 40
0.6
 40
0.6
 40
0.6
 40
0.6
 40
1.0
 40
1.0
 40
1.0
 40
1.0
 10
97.2063
 20
-68.2417
 30
0.0
 10
97.2063
 20
-68.2417
 30
0.0
 10
93.5512
 20
-64.5865
 30
0.0
 10
93.5512
 20
-64.5865
 30
0.0
 10
93.5512
 20
-64.5865
 30
0.0
 10
93.5512
 20
-64.5865
 30
0.0
 10
97.2063
 20
-60.9314
 30
0.0
 10
97.2063
 20
-60.9314
 30
0.0
 10
97.2063
 20
-60.9314
 30
0.0
 10
97.2063
 20
-60.9314
 30
0.0
 10
100.8614
 20
-64.5865
 30
0.0
 10
100.8614
 20
-64.5865
 30
0.0
 10
100.8614
 20
-64.5865
 30
0.0
 10
100.8614
 20
-64.5865
 30
0.0
 10
97.2063
 20
-68.2417
 30
0.0
 10
97.2063
 20
-68.2417
 30
0.0
  0
SPLINE
  5
51
330
1F
100
AcDbEntity
  8
layer 1
 62
     7
100
AcDbSpline
210
0.0
220
0.0
230
1.0
 70
    11
 71
     3
 72
    24
 73
    20
 74
     0
 42
0.0000000001
 43
0.0000000001
 12
1.0
 22
0.0
 32
0.0
 13
1.0
 23
0.0
 33
0.0
 40
0.0
 40
0.0
 40
0.0
 40
0.0
 40
0.1666666666666667
 40
0.1666666666666667
 40
0.1666666666666667
 40
0.1666666666666667
 40
0.3333333333333333
 40
0.3333333333333333
 40
0.3333333333333333
 40
0.3333333333333333
 40
0.5
 40
0.5
 40
0.5
 40
0.5
 40
0.6666666666666666
 40
0.6666666666666666
 40
0.6666666666666666
 40
0.6666666666666666
 40
1.0
 40
1.0
 40
1.0
 40
1.0
 10
91.277
 20
-93.7011
 30
0.0
 10
91.277
 20
-93.7011
 30
0.0
 10
83.6753
 20
-93.7011
 30
0.0
 10
83.6753
 20
-93.7011
 30
0.0
 10
83.6753
 20
-93.7011
 30
0.0
 10
83.6753
 20
-93.7011
 30
0.0
 10
83.6753
 20
-85.8713
 30
0.0
 10
83.6753
 20
-85.8713
 30
0.0
 10
83.6753
 20
-85.8713
 30
0.0
 10
83.6753
 20
-85.8713
 30
0.0
 10
87.5521
 20
-82.2922
 30
0.0
 10
87.5521
 20
-82.2922
 30
0.0
 10
87.5521
 20
-82.2922
 30
0.0
 10
87.5521
 20
-82.2922
 30
0.0
 10
95.1602
 20
-89.9002
 30
0.0
 10
95.1602
 20
-89.9002
 30
0.0
 10
95.1602
 20
-89.9002
 30
0.0
 10
95.1602
 20
-89.9002
 30
0.0
 10
91.277
 20
-93.7011
 30
0.0
 10
91.277
 20
-93.7011
 30
0.0
  0
SPLINE
  5
52
330
1F
100
AcDbEntity
  8
layer 1
 62
     7
100
AcDbSpline
210
0.0
220
0.0
230
1.0
 70
    11
 71
     3
 72
    24
 73
    20
 74
     0
 42
0.0000000001
 43
0.0000000001
 12
1.0
 22
0.0
 32
0.0
 13
1.0
 23
0.0
 33
0.0
 40
0.0
 40
0.0
 40
0.0
 40
0.0
 40
0.1666666666666667
 40
0.1666666666666667
 40
0.1666666666666667
 40
0.1666666666666667
 40
0.3333333333333333
 40
0.3333333333333333
 40
0.3333333333333333
 40
0.3333333333333333
 40
0.5
 40
0.5
 40
0.5
 40
0.5
 40
0.6666666666666666
 40
0.6666666666666666
 40
0.6666666666666666
 40
0.6666666666666666
 40
1.0
 40
1.0
 40
1.0
 40
1.0
 10
91.277
 20
-66.4806
 30
0.0
 10
91.277
 20
-66.4806
 30
0.0
 10
83.6753
 20
-66.4806
 30
0.0
 10
83.6753
 20
-66.4806
 30
0.0
 10
83.6753
 20
-66.4806
 30
0.0
 10
83.6753
 20
-66.4806
 30
0.0
 10
83.6753
 20
-74.3103
 30
0.0
 10
83.6753
 20
-74.3103
 30
0.0
 10
83.6753
 20
-74.3103
 30
0.0
 10
83.6753
 20
-74.3103
 30
0.0
 10
87.5521
 20
-77.8895
 30
0.0
 10
87.5521
 20
-77.8895
 30
0.0
 10
87.5521
 20
-77.8895
 30
0.0
 10
87.5521
 20
-77.8895
 30
0.0
 10
95.1602
 20
-70.2814
 30
0.0
 10
95.1602
 20
-70.2814
 30
0.0
 10
95.1602
 20
-70.2814
 30
0.0
 10
95.1602
 20
-70.2814
 30
0.0
 10
91.277
 20
-66.4806
 30
0.0
 10
91.277
 20
-66.4806
 30
0.0
  0
SPLINE
  5
53
330
1F
100
AcDbEntity
  8
layer 1
 62
     7
100
AcDbSpline
210
0.0
220
0.0
230
1.0
 70
    11
 71
     3
 72
    24
 73
    20
 74
     0
 42
0.0000000001
 43
0.0000000001
 12
1.0
 22
0.0
 32
0.0
 13
1.0
 23
0.0
 33
0.0
 40
0.0
 40
0.0
 40
0.0
 40
0.0
 40
0.1666666666666667
 40
0.1666666666666667
 40
0.1666666666666667
 40
0.1666666666666667
 40
0.3333333333333333
 40
0.3333333333333333
 40
0.3333333333333333
 40
0.3333333333333333
 40
0.5
 40
0.5
 40
0.5
 40
0.5
 40
0.6666666666666666
 40
0.6666666666666666
 40
0.6666666666666666
 40
0.6666666666666666
 40
1.0
 40
1.0
 40
1.0
 40
1.0
 10
103.142
 20
-93.7011
 30
0.0
 10
103.142
 20
-93.7011
 30
0.0
 10
110.7438
 20
-93.7011
 30
0.0
 10
110.7438
 20
-93.7011
 30
0.0
 10
110.7438
 20
-93.7011
 30
0.0
 10
110.7438
 20
-93.7011
 30
0.0
 10
110.7438
 20
-85.8713
 30
0.0
 10
110.7438
 20
-85.8713
 30
0.0
 10
110.7438
 20
-85.8713
 30
0.0
 10
110.7438
 20
-85.8713
 30
0.0
 10
106.8669
 20
-82.2922
 30
0.0
 10
106.8669
 20
-82.2922
 30
0.0
 10
106.8669
 20
-82.2922
 30
0.0
 10
106.8669
 20
-82.2922
 30
0.0
 10
99.2589
 20
-89.9002
 30
0.0
 10
99.2589
 20
-89.9002
 30
0.0
 10
99.2589
 20
-89.9002
 30
0.0
 10
99.2589
 20
-89.9002
 30
0.0
 10
103.142
 20
-93.7011
 30
0.0
 10
103.142
 20
-93.7011
 30
0.0
  0
SPLINE
  5
54
330
1F
100
AcDbEntity
  8
layer 1
 62
     7
100
AcDbSpline
210
0.0
220
0.0
230
1.0
 70
    11
 71
     3
 72
    24
 73
    20
 74
     0
 42
0.0000000001
 43
0.0000000001
 12
1.0
 22
0.0
 32
0.0
 13
1.0
 23
0.0
 33
0.0
 40
0.0
 40
0.0
 40
0.0
 40
0.0
 40
0.1666666666666667
 40
0.1666666666666667
 40
0.1666666666666667
 40
0.1666666666666667
 40
0.3333333333333333
 40
0.3333333333333333
 40
0.3333333333333333
 40
0.3333333333333333
 40
0.5
 40
0.5
 40
0.5
 40
0.5
 40
0.6666666666666666
 40
0.6666666666666666
 40
0.6666666666666666
 40
0.6666666666666666
 40
1.0
 40
1.0
 40
1.0
 40
1.0
 10
103.142
 20
-66.4806
 30
0.0
 10
103.142
 20
-66.4806
 30
0.0
 10
110.7438
 20
-66.4806
 30
0.0
 10
110.7438
 20
-66.4806
 30
0.0
 10
110.7438
 20
-66.4806
 30
0.0
 10
110.7438
 20
-66.4806
 30
0.0
 10
110.7438
 20
-74.3103
 30
0.0
 10
110.7438
 20
-74.3103
 30
0.0
 10
110.7438
 20
-74.3103
 30
0.0
 10
110.7438
 20
-74.3103
 30
0.0
 10
106.8669
 20
-77.8895
 30
0.0
 10
106.8669
 20
-77.8895
 30
0.0
 10
106.8669
 20
-77.8895
 30
0.0
 10
106.8669
 20
-77.8895
 30
0.0
 10
99.2589
 20
-70.2814
 30
0.0
 10
99.2589
 20
-70.2814
 30
0.0
 10
99.2589
 20
-70.2814
 30
0.0
 10
99.2589
 20
-70.2814
 30
0.0
 10
103.142
 20
-66.4806
 30
0.0
 10
103.142
 20
-66.4806
 30
0.0
  0
SPLINE
  5
55
330
1F
100
AcDbEntity
  8
layer 1
 62
     7
100
AcDbSpline
210
0.0
220
0.0
230
1.0
 70
    11
 71
     3
 72
    20
 73
    16
 74
     0
 42
0.0000000001
 43
0.0000000001
 12
1.0
 22
0.0
 32
0.0
 13
1.0
 23
0.0
 33
0.0
 40
0.0
 40
0.0
 40
0.0
 40
0.0
 40
0.2
 40
0.2
 40
0.2
 40
0.2
 40
0.4
 40
0.4
 40
0.4
 40
0.4
 40
0.6
 40
0.6
 40
0.6
 40
0.6
 40
1.0
 40
1.0
 40
1.0
 40
1.0
 10
112.7899
 20
-83.8252
 30
0.0
 10
112.7899
 20
-83.8252
 30
0.0
 10
109.1348
 20
-80.1701
 30
0.0
 10
109.1348
 20
-80.1701
 30
0.0
 10
109.1348
 20
-80.1701
 30
0.0
 10
109.1348
 20
-80.1701
 30
0.0
 10
112.7899
 20
-76.5149
 30
0.0
 10
112.7899
 20
-76.5149
 30
0.0
 10
112.7899
 20
-76.5149
 30
0.0
 10
112.7899
 20
-76.5149
 30
0.0
 10
116.445
 20
-80.1701
 30
0.0
 10
116.445
 20
-80.1701
 30
0.0
 10
116.445
 20
-80.1701
 30
0.0
 10
116.445
 20
-80.1701
 30
0.0
 10
112.7899
 20
-83.8252
 30
0.0
 10
112.7899
 20
-83.8252
 30
0.0
  0
SPLINE
  5
56
330
1F
100
AcDbEntity
  8
layer 1
 62
     7
100
AcDbSpline
210
0.0
220
0.0
230
1.0
 70
    11
 71
     3
 72
    68
 73
    64
 74
     0
 42
0.0000000001
 43
0.0000000001
 12
1.0
 22
0.0
 32
0.0
 13
1.0
 23
0.0
 33
0.0
 40
0.0
 40
0.0
 40
0.0
 40
0.0
 40
0.0588235294117647
 40
0.0588235294117647
 40
0.0588235294117647
 40
0.0588235294117647
 40
0.1176470588235294
 40
0.1176470588235294
 40
0.1176470588235294
 40
0.1176470588235294
 40
0.1764705882352941
 40
0.1764705882352941
 40
0.1764705882352941
 40
0.1764705882352941
 40
0.2352941176470588
 40
0.2352941176470588
 40
0.2352941176470588
 40
0.2352941176470588
 40
0.2941176470588235
 40
0.2941176470588235
 40
0.2941176470588235
 40
0.2941176470588235
 40
0.3529411764705883
 40
0.3529411764705883
 40
0.3529411764705883
 40
0.3529411764705883
 40
0.4117647058823529
 40
0.4117647058823529
 40
0.4117647058823529
 40
0.4117647058823529
 40
0.4705882352941176
 40
0.4705882352941176
 40
0.4705882352941176
 40
0.4705882352941176
 40
0.5294117647058824
 40
0.5294117647058824
 40
0.5294117647058824
 40
0.5294117647058824
 40
0.5882352941176471
 40
0.5882352941176471
 40
0.5882352941176471
 40
0.5882352941176471
 40
0.6470588235294118
 40
0.6470588235294118
 40
0.6470588235294118
 40
0.6470588235294118
 40
0.7058823529411765
 40
0.7058823529411765
 40
0.7058823529411765
 40
0.7058823529411765
 40
0.7647058823529411
 40
0.7647058823529411
 40
0.7647058823529411
 40
0.7647058823529411
 40
0.8235294117647058
 40
0.8235294117647058
 40
0.8235294117647058
 40
0.8235294117647058
 40
0.8823529411764706
 40
0.8823529411764706
 40
0.8823529411764706
 40
0.8823529411764706
 40
1.0
 40
1.0
 40
1.0
 40
1.0
 10
79.7685
 20
-28.0654
 30
0.0
 10
79.7685
 20
-28.0654
 30
0.0
 10
75.1344
 20
-33.3867
 30
0.0
 10
75.1344
 20
-33.3867
 30
0.0
 10
75.1344
 20
-33.3867
 30
0.0
 10
75.1344
 20
-33.3867
 30
0.0
 10
70.5739
 20
-28.0654
 30
0.0
 10
70.5739
 20
-28.0654
 30
0.0
 10
70.5739
 20
-28.0654
 30
0.0
 10
70.5739
 20
-28.0654
 30
0.0
 10
70.5491
 20
-18.5804
 30
0.0
 10
70.5491
 20
-18.5804
 30
0.0
 10
70.5491
 20
-18.5804
 30
0.0
 10
70.5491
 20
-18.5804
 30
0.0
 10
61.1051
 20
-18.5965
 30
0.0
 10
61.1051
 20
-18.5965
 30
0.0
 10
61.1051
 20
-18.5965
 30
0.0
 10
61.1051
 20
-18.5965
 30
0.0
 10
55.7839
 20
-13.9624
 30
0.0
 10
55.7839
 20
-13.9624
 30
0.0
 10
55.7839
 20
-13.9624
 30
0.0
 10
55.7839
 20
-13.9624
 30
0.0
 10
61.1051
 20
-9.4019
 30
0.0
 10
61.1051
 20
-9.4019
 30
0.0
 10
61.1051
 20
-9.4019
 30
0.0
 10
61.1051
 20
-9.4019
 30
0.0
 10
70.6061
 20
-9.365
 30
0.0
 10
70.6061
 20
-9.365
 30
0.0
 10
70.6061
 20
-9.365
 30
0.0
 10
70.6061
 20
-9.365
 30
0.0
 10
70.574
 20
0.8652
 30
0.0
 10
70.574
 20
0.8652
 30
0.0
 10
70.574
 20
0.8652
 30
0.0
 10
70.574
 20
0.8652
 30
0.0
 10
75.1345
 20
5.3882
 30
0.0
 10
75.1345
 20
5.3882
 30
0.0
 10
75.1345
 20
5.3882
 30
0.0
 10
75.1345
 20
5.3882
 30
0.0
 10
79.7686
 20
0.8652
 30
0.0
 10
79.7686
 20
0.8652
 30
0.0
 10
79.7686
 20
0.8652
 30
0.0
 10
79.7686
 20
0.8652
 30
0.0
 10
79.7455
 20
-9.422
 30
0.0
 10
79.7455
 20
-9.422
 30
0.0
 10
79.7455
 20
-9.422
 30
0.0
 10
79.7455
 20
-9.422
 30
0.0
 10
90.0357
 20
-9.4018
 30
0.0
 10
90.0357
 20
-9.4018
 30
0.0
 10
90.0357
 20
-9.4018
 30
0.0
 10
90.0357
 20
-9.4018
 30
0.0
 10
94.5587
 20
-13.9624
 30
0.0
 10
94.5587
 20
-13.9624
 30
0.0
 10
94.5587
 20
-13.9624
 30
0.0
 10
94.5587
 20
-13.9624
 30
0.0
 10
90.0357
 20
-18.5964
 30
0.0
 10
90.0357
 20
-18.5964
 30
0.0
 10
90.0357
 20
-18.5964
 30
0.0
 10
90.0357
 20
-18.5964
 30
0.0
 10
79.7646
 20
-18.6184
 30
0.0
 10
79.7646
 20
-18.6184
 30
0.0
 10
79.7646
 20
-18.6184
 30
0.0
 10
79.7646
 20
-18.6184
 30
0.0
 10
79.7685
 20
-28.0654
 30
0.0
 10
79.7685
 20
-28.0654
 30
0.0
  0
SPLINE
  5
57
330
1F
100
AcDbEntity
  8
layer 1
 62
     7
100
AcDbSpline
210
0.0
220
0.0
230
1.0
 70
    11
 71
     3
 72
    68
 73
    64
 74
     0
 42
0.0000000001
 43
0.0000000001
 12
1.0
 22
0.0
 32
0.0
 13
1.0
 23
0.0
 33
0.0
 40
0.0
 40
0.0
 40
0.0
 40
0.0
 40
0.0588235294117647
 40
0.0588235294117647
 40
0.0588235294117647
 40
0.0588235294117647
 40
0.1176470588235294
 40
0.1176470588235294
 40
0.1176470588235294
 40
0.1176470588235294
 40
0.1764705882352941
 40
0.1764705882352941
 40
0.1764705882352941
 40
0.1764705882352941
 40
0.2352941176470588
 40
0.2352941176470588
 40
0.2352941176470588
 40
0.2352941176470588
 40
0.2941176470588235
 40
0.2941176470588235
 40
0.2941176470588235
 40
0.2941176470588235
 40
0.3529411764705883
 40
0.3529411764705883
 40
0.3529411764705883
 40
0.3529411764705883
 40
0.4117647058823529
 40
0.4117647058823529
 40
0.4117647058823529
 40
0.4117647058823529
 40
0.4705882352941176
 40
0.4705882352941176
 40
0.4705882352941176
 40
0.4705882352941176
 40
0.5294117647058824
 40
0.5294117647058824
 40
0.5294117647058824
 40
0.5294117647058824
 40
0.5882352941176471
 40
0.5882352941176471
 40
0.5882352941176471
 40
0.5882352941176471
 40
0.6470588235294118
 40
0.6470588235294118
 40
0.6470588235294118
 40
0.6470588235294118
 40
0.7058823529411765
 40
0.7058823529411765
 40
0.7058823529411765
 40
0.7058823529411765
 40
0.7647058823529411
 40
0.7647058823529411
 40
0.7647058823529411
 40
0.7647058823529411
 40
0.8235294117647058
 40
0.8235294117647058
 40
0.8235294117647058
 40
0.8235294117647058
 40
0.8823529411764706
 40
0.8823529411764706
 40
0.8823529411764706
 40
0.8823529411764706
 40
1.0
 40
1.0
 40
1.0
 40
1.0
 10
79.7685
 20
15.9791
 30
0.0
 10
79.7685
 20
15.9791
 30
0.0
 10
75.1344
 20
10.6579
 30
0.0
 10
75.1344
 20
10.6579
 30
0.0
 10
75.1344
 20
10.6579
 30
0.0
 10
75.1344
 20
10.6579
 30
0.0
 10
70.5739
 20
15.9791
 30
0.0
 10
70.5739
 20
15.9791
 30
0.0
 10
70.5739
 20
15.9791
 30
0.0
 10
70.5739
 20
15.9791
 30
0.0
 10
70.5491
 20
25.4642
 30
0.0
 10
70.5491
 20
25.4642
 30
0.0
 10
70.5491
 20
25.4642
 30
0.0
 10
70.5491
 20
25.4642
 30
0.0
 10
61.1051
 20
25.448
 30
0.0
 10
61.1051
 20
25.448
 30
0.0
 10
61.1051
 20
25.448
 30
0.0
 10
61.1051
 20
25.448
 30
0.0
 10
55.7839
 20
30.0821
 30
0.0
 10
55.7839
 20
30.0821
 30
0.0
 10
55.7839
 20
30.0821
 30
0.0
 10
55.7839
 20
30.0821
 30
0.0
 10
61.1051
 20
34.6427
 30
0.0
 10
61.1051
 20
34.6427
 30
0.0
 10
61.1051
 20
34.6427
 30
0.0
 10
61.1051
 20
34.6427
 30
0.0
 10
70.6061
 20
34.6795
 30
0.0
 10
70.6061
 20
34.6795
 30
0.0
 10
70.6061
 20
34.6795
 30
0.0
 10
70.6061
 20
34.6795
 30
0.0
 10
70.574
 20
44.9097
 30
0.0
 10
70.574
 20
44.9097
 30
0.0
 10
70.574
 20
44.9097
 30
0.0
 10
70.574
 20
44.9097
 30
0.0
 10
75.1345
 20
49.4328
 30
0.0
 10
75.1345
 20
49.4328
 30
0.0
 10
75.1345
 20
49.4328
 30
0.0
 10
75.1345
 20
49.4328
 30
0.0
 10
79.7686
 20
44.9097
 30
0.0
 10
79.7686
 20
44.9097
 30
0.0
 10
79.7686
 20
44.9097
 30
0.0
 10
79.7686
 20
44.9097
 30
0.0
 10
79.7455
 20
34.6226
 30
0.0
 10
79.7455
 20
34.6226
 30
0.0
 10
79.7455
 20
34.6226
 30
0.0
 10
79.7455
 20
34.6226
 30
0.0
 10
90.0357
 20
34.6428
 30
0.0
 10
90.0357
 20
34.6428
 30
0.0
 10
90.0357
 20
34.6428
 30
0.0
 10
90.0357
 20
34.6428
 30
0.0
 10
94.5587
 20
30.0822
 30
0.0
 10
94.5587
 20
30.0822
 30
0.0
 10
94.5587
 20
30.0822
 30
0.0
 10
94.5587
 20
30.0822
 30
0.0
 10
90.0357
 20
25.4481
 30
0.0
 10
90.0357
 20
25.4481
 30
0.0
 10
90.0357
 20
25.4481
 30
0.0
 10
90.0357
 20
25.4481
 30
0.0
 10
79.7646
 20
25.4262
 30
0.0
 10
79.7646
 20
25.4262
 30
0.0
 10
79.7646
 20
25.4262
 30
0.0
 10
79.7646
 20
25.4262
 30
0.0
 10
79.7685
 20
15.9791
 30
0.0
 10
79.7685
 20
15.9791
 30
0.0
  0
SPLINE
  5
58
330
1F
100
AcDbEntity
  8
layer 1
 62
     7
100
AcDbSpline
210
0.0
220
0.0
230
1.0
 70
    11
 71
     3
 72
    68
 73
    64
 74
     0
 42
0.0000000001
 43
0.0000000001
 12
1.0
 22
0.0
 32
0.0
 13
1.0
 23
0.0
 33
0.0
 40
0.0
 40
0.0
 40
0.0
 40
0.0
 40
0.0588235294117647
 40
0.0588235294117647
 40
0.0588235294117647
 40
0.0588235294117647
 40
0.1176470588235294
 40
0.1176470588235294
 40
0.1176470588235294
 40
0.1176470588235294
 40
0.1764705882352941
 40
0.1764705882352941
 40
0.1764705882352941
 40
0.1764705882352941
 40
0.2352941176470588
 40
0.2352941176470588
 40
0.2352941176470588
 40
0.2352941176470588
 40
0.2941176470588235
 40
0.2941176470588235
 40
0.2941176470588235
 40
0.2941176470588235
 40
0.3529411764705883
 40
0.3529411764705883
 40
0.3529411764705883
 40
0.3529411764705883
 40
0.4117647058823529
 40
0.4117647058823529
 40
0.4117647058823529
 40
0.4117647058823529
 40
0.4705882352941176
 40
0.4705882352941176
 40
0.4705882352941176
 40
0.4705882352941176
 40
0.5294117647058824
 40
0.5294117647058824
 40
0.5294117647058824
 40
0.5294117647058824
 40
0.5882352941176471
 40
0.5882352941176471
 40
0.5882352941176471
 40
0.5882352941176471
 40
0.6470588235294118
 40
0.6470588235294118
 40
0.6470588235294118
 40
0.6470588235294118
 40
0.7058823529411765
 40
0.7058823529411765
 40
0.7058823529411765
 40
0.7058823529411765
 40
0.7647058823529411
 40
0.7647058823529411
 40
0.7647058823529411
 40
0.7647058823529411
 40
0.8235294117647058
 40
0.8235294117647058
 40
0.8235294117647058
 40
0.8235294117647058
 40
0.8823529411764706
 40
0.8823529411764706
 40
0.8823529411764706
 40
0.8823529411764706
 40
1.0
 40
1.0
 40
1.0
 40
1.0
 10
79.7685
 20
60.0237
 30
0.0
 10
79.7685
 20
60.0237
 30
0.0
 10
75.1344
 20
54.7025
 30
0.0
 10
75.1344
 20
54.7025
 30
0.0
 10
75.1344
 20
54.7025
 30
0.0
 10
75.1344
 20
54.7025
 30
0.0
 10
70.5739
 20
60.0237
 30
0.0
 10
70.5739
 20
60.0237
 30
0.0
 10
70.5739
 20
60.0237
 30
0.0
 10
70.5739
 20
60.0237
 30
0.0
 10
70.5491
 20
69.5087
 30
0.0
 10
70.5491
 20
69.5087
 30
0.0
 10
70.5491
 20
69.5087
 30
0.0
 10
70.5491
 20
69.5087
 30
0.0
 10
61.1051
 20
69.4926
 30
0.0
 10
61.1051
 20
69.4926
 30
0.0
 10
61.1051
 20
69.4926
 30
0.0
 10
61.1051
 20
69.4926
 30
0.0
 10
55.7839
 20
74.1267
 30
0.0
 10
55.7839
 20
74.1267
 30
0.0
 10
55.7839
 20
74.1267
 30
0.0
 10
55.7839
 20
74.1267
 30
0.0
 10
61.1051
 20
78.6872
 30
0.0
 10
61.1051
 20
78.6872
 30
0.0
 10
61.1051
 20
78.6872
 30
0.0
 10
61.1051
 20
78.6872
 30
0.0
 10
70.6061
 20
78.7241
 30
0.0
 10
70.6061
 20
78.7241
 30
0.0
 10
70.6061
 20
78.7241
 30
0.0
 10
70.6061
 20
78.7241
 30
0.0
 10
70.574
 20
88.9543
 30
0.0
 10
70.574
 20
88.9543
 30
0.0
 10
70.574
 20
88.9543
 30
0.0
 10
70.574
 20
88.9543
 30
0.0
 10
75.1345
 20
93.4774
 30
0.0
 10
75.1345
 20
93.4774
 30
0.0
 10
75.1345
 20
93.4774
 30
0.0
 10
75.1345
 20
93.4774
 30
0.0
 10
79.7686
 20
88.9543
 30
0.0
 10
79.7686
 20
88.9543
 30
0.0
 10
79.7686
 20
88.9543
 30
0.0
 10
79.7686
 20
88.9543
 30
0.0
 10
79.7455
 20
78.6671
 30
0.0
 10
79.7455
 20
78.6671
 30
0.0
 10
79.7455
 20
78.6671
 30
0.0
 10
79.7455
 20
78.6671
 30
0.0
 10
90.0357
 20
78.6873
 30
0.0
 10
90.0357
 20
78.6873
 30
0.0
 10
90.0357
 20
78.6873
 30
0.0
 10
90.0357
 20
78.6873
 30
0.0
 10
94.5587
 20
74.1268
 30
0.0
 10
94.5587
 20
74.1268
 30
0.0
 10
94.5587
 20
74.1268
 30
0.0
 10
94.5587
 20
74.1268
 30
0.0
 10
90.0357
 20
69.4927
 30
0.0
 10
90.0357
 20
69.4927
 30
0.0
 10
90.0357
 20
69.4927
 30
0.0
 10
90.0357
 20
69.4927
 30
0.0
 10
79.7646
 20
69.4708
 30
0.0
 10
79.7646
 20
69.4708
 30
0.0
 10
79.7646
 20
69.4708
 30
0.0
 10
79.7646
 20
69.4708
 30
0.0
 10
79.7685
 20
60.0237
 30
0.0
 10
79.7685
 20
60.0237
 30
0.0
  0
SPLINE
  5
59
330
1F
100
AcDbEntity
  8
layer 1
 62
     7
100
AcDbSpline
210
0.0
220
0.0
230
1.0
 70
    11
 71
     3
 72
    20
 73
    16
 74
     0
 42
0.0000000001
 43
0.0000000001
 12
1.0
 22
0.0
 32
0.0
 13
1.0
 23
0.0
 33
0.0
 40
0.0
 40
0.0
 40
0.0
 40
0.0
 40
0.2
 40
0.2
 40
0.2
 40
0.2
 40
0.4
 40
0.4
 40
0.4
 40
0.4
 40
0.6
 40
0.6
 40
0.6
 40
0.6
 40
1.0
 40
1.0
 40
1.0
 40
1.0
 10
81.8508
 20
4.5386
 30
0.0
 10
81.8508
 20
4.5386
 30
0.0
 10
78.1957
 20
8.1937
 30
0.0
 10
78.1957
 20
8.1937
 30
0.0
 10
78.1957
 20
8.1937
 30
0.0
 10
78.1957
 20
8.1937
 30
0.0
 10
81.8508
 20
11.8488
 30
0.0
 10
81.8508
 20
11.8488
 30
0.0
 10
81.8508
 20
11.8488
 30
0.0
 10
81.8508
 20
11.8488
 30
0.0
 10
85.506
 20
8.1937
 30
0.0
 10
85.506
 20
8.1937
 30
0.0
 10
85.506
 20
8.1937
 30
0.0
 10
85.506
 20
8.1937
 30
0.0
 10
81.8508
 20
4.5386
 30
0.0
 10
81.8508
 20
4.5386
 30
0.0
  0
SPLINE
  5
5A
330
1F
100
AcDbEntity
  8
layer 1
 62
     7
100
AcDbSpline
210
0.0
220
0.0
230
1.0
 70
    11
 71
     3
 72
    20
 73
    16
 74
     0
 42
0.0000000001
 43
0.0000000001
 12
1.0
 22
0.0
 32
0.0
 13
1.0
 23
0.0
 33
0.0
 40
0.0
 40
0.0
 40
0.0
 40
0.0
 40
0.2
 40
0.2
 40
0.2
 40
0.2
 40
0.4
 40
0.4
 40
0.4
 40
0.4
 40
0.6
 40
0.6
 40
0.6
 40
0.6
 40
1.0
 40
1.0
 40
1.0
 40
1.0
 10
81.8508
 20
48.5832
 30
0.0
 10
81.8508
 20
48.5832
 30
0.0
 10
78.1957
 20
52.2383
 30
0.0
 10
78.1957
 20
52.2383
 30
0.0
 10
78.1957
 20
52.2383
 30
0.0
 10
78.1957
 20
52.2383
 30
0.0
 10
81.8508
 20
55.8934
 30
0.0
 10
81.8508
 20
55.8934
 30
0.0
 10
81.8508
 20
55.8934
 30
0.0
 10
81.8508
 20
55.8934
 30
0.0
 10
85.506
 20
52.2383
 30
0.0
 10
85.506
 20
52.2383
 30
0.0
 10
85.506
 20
52.2383
 30
0.0
 10
85.506
 20
52.2383
 30
0.0
 10
81.8508
 20
48.5832
 30
0.0
 10
81.8508
 20
48.5832
 30
0.0
  0
SPLINE
  5
5B
330
1F
100
AcDbEntity
  8
layer 1
 62
     7
100
AcDbSpline
210
0.0
220
0.0
230
1.0
 70
    11
 71
     3
 72
    20
 73
    16
 74
     0
 42
0.0000000001
 43
0.0000000001
 12
1.0
 22
0.0
 32
0.0
 13
1.0
 23
0.0
 33
0.0
 40
0.0
 40
0.0
 40
0.0
 40
0.0
 40
0.2
 40
0.2
 40
0.2
 40
0.2
 40
0.4
 40
0.4
 40
0.4
 40
0.4
 40
0.6
 40
0.6
 40
0.6
 40
0.6
 40
1.0
 40
1.0
 40
1.0
 40
1.0
 10
81.8508
 20
92.6277
 30
0.0
 10
81.8508
 20
92.6277
 30
0.0
 10
78.1957
 20
96.2829
 30
0.0
 10
78.1957
 20
96.2829
 30
0.0
 10
78.1957
 20
96.2829
 30
0.0
 10
78.1957
 20
96.2829
 30
0.0
 10
81.8508
 20
99.938
 30
0.0
 10
81.8508
 20
99.938
 30
0.0
 10
81.8508
 20
99.938
 30
0.0
 10
81.8508
 20
99.938
 30
0.0
 10
85.506
 20
96.2829
 30
0.0
 10
85.506
 20
96.2829
 30
0.0
 10
85.506
 20
96.2829
 30
0.0
 10
85.506
 20
96.2829
 30
0.0
 10
81.8508
 20
92.6277
 30
0.0
 10
81.8508
 20
92.6277
 30
0.0
  0
SPLINE
  5
5C
330
1F
100
AcDbEntity
  8
layer 1
 62
     7
100
AcDbSpline
210
0.0
220
0.0
230
1.0
 70
    11
 71
     3
 72
    20
 73
    16
 74
     0
 42
0.0000000001
 43
0.0000000001
 12
1.0
 22
0.0
 32
0.0
 13
1.0
 23
0.0
 33
0.0
 40
0.0
 40
0.0
 40
0.0
 40
0.0
 40
0.2
 40
0.2
 40
0.2
 40
0.2
 40
0.4
 40
0.4
 40
0.4
 40
0.4
 40
0.6
 40
0.6
 40
0.6
 40
0.6
 40
1.0
 40
1.0
 40
1.0
 40
1.0
 10
97.3584
 20
0.5857
 30
0.0
 10
97.3584
 20
0.5857
 30
0.0
 10
89.7503
 20
8.1937
 30
0.0
 10
89.7503
 20
8.1937
 30
0.0
 10
89.7503
 20
8.1937
 30
0.0
 10
89.7503
 20
8.1937
 30
0.0
 10
97.3584
 20
15.8017
 30
0.0
 10
97.3584
 20
15.8017
 30
0.0
 10
97.3584
 20
15.8017
 30
0.0
 10
97.3584
 20
15.8017
 30
0.0
 10
104.9664
 20
8.1937
 30
0.0
 10
104.9664
 20
8.1937
 30
0.0
 10
104.9664
 20
8.1937
 30
0.0
 10
104.9664
 20
8.1937
 30
0.0
 10
97.3584
 20
0.5857
 30
0.0
 10
97.3584
 20
0.5857
 30
0.0
  0
SPLINE
  5
5D
330
1F
100
AcDbEntity
  8
layer 1
 62
     7
100
AcDbSpline
210
0.0
220
0.0
230
1.0
 70
    11
 71
     3
 72
    20
 73
    16
 74
     0
 42
0.0000000001
 43
0.0000000001
 12
1.0
 22
0.0
 32
0.0
 13
1.0
 23
0.0
 33
0.0
 40
0.0
 40
0.0
 40
0.0
 40
0.0
 40
0.2
 40
0.2
 40
0.2
 40
0.2
 40
0.4
 40
0.4
 40
0.4
 40
0.4
 40
0.6
 40
0.6
 40
0.6
 40
0.6
 40
1.0
 40
1.0
 40
1.0
 40
1.0
 10
97.3584
 20
44.6303
 30
0.0
 10
97.3584
 20
44.6303
 30
0.0
 10
89.7503
 20
52.2383
 30
0.0
 10
89.7503
 20
52.2383
 30
0.0
 10
89.7503
 20
52.2383
 30
0.0
 10
89.7503
 20
52.2383
 30
0.0
 10
97.3584
 20
59.8463
 30
0.0
 10
97.3584
 20
59.8463
 30
0.0
 10
97.3584
 20
59.8463
 30
0.0
 10
97.3584
 20
59.8463
 30
0.0
 10
104.9664
 20
52.2383
 30
0.0
 10
104.9664
 20
52.2383
 30
0.0
 10
104.9664
 20
52.2383
 30
0.0
 10
104.9664
 20
52.2383
 30
0.0
 10
97.3584
 20
44.6303
 30
0.0
 10
97.3584
 20
44.6303
 30
0.0
  0
SPLINE
  5
5E
330
1F
100
AcDbEntity
  8
layer 1
 62
     7
100
AcDbSpline
210
0.0
220
0.0
230
1.0
 70
    11
 71
     3
 72
    20
 73
    16
 74
     0
 42
0.0000000001
 43
0.0000000001
 12
1.0
 22
0.0
 32
0.0
 13
1.0
 23
0.0
 33
0.0
 40
0.0
 40
0.0
 40
0.0
 40
0.0
 40
0.2
 40
0.2
 40
0.2
 40
0.2
 40
0.4
 40
0.4
 40
0.4
 40
0.4
 40
0.6
 40
0.6
 40
0.6
 40
0.6
 40
1.0
 40
1.0
 40
1.0
 40
1.0
 10
97.3584
 20
88.6748
 30
0.0
 10
97.3584
 20
88.6748
 30
0.0
 10
89.7503
 20
96.2829
 30
0.0
 10
89.7503
 20
96.2829
 30
0.0
 10
89.7503
 20
96.2829
 30
0.0
 10
89.7503
 20
96.2829
 30
0.0
 10
97.3584
 20
103.8909
 30
0.0
 10
97.3584
 20
103.8909
 30
0.0
 10
97.3584
 20
103.8909
 30
0.0
 10
97.3584
 20
103.8909
 30
0.0
 10
104.9664
 20
96.2829
 30
0.0
 10
104.9664
 20
96.2829
 30
0.0
 10
104.9664
 20
96.2829
 30
0.0
 10
104.9664
 20
96.2829
 30
0.0
 10
97.3584
 20
88.6748
 30
0.0
 10
97.3584
 20
88.6748
 30
0.0
  0
SPLINE
  5
5F
330
1F
100
AcDbEntity
  8
layer 1
 62
     7
100
AcDbSpline
210
0.0
220
0.0
230
1.0
 70
    11
 71
     3
 72
    20
 73
    16
 74
     0
 42
0.0000000001
 43
0.0000000001
 12
1.0
 22
0.0
 32
0.0
 13
1.0
 23
0.0
 33
0.0
 40
0.0
 40
0.0
 40
0.0
 40
0.0
 40
0.2
 40
0.2
 40
0.2
 40
0.2
 40
0.4
 40
0.4
 40
0.4
 40
0.4
 40
0.6
 40
0.6
 40
0.6
 40
0.6
 40
1.0
 40
1.0
 40
1.0
 40
1.0
 10
97.2063
 20
-10.969
 30
0.0
 10
97.2063
 20
-10.969
 30
0.0
 10
93.5512
 20
-7.3138
 30
0.0
 10
93.5512
 20
-7.3138
 30
0.0
 10
93.5512
 20
-7.3138
 30
0.0
 10
93.5512
 20
-7.3138
 30
0.0
 10
97.2063
 20
-3.6587
 30
0.0
 10
97.2063
 20
-3.6587
 30
0.0
 10
97.2063
 20
-3.6587
 30
0.0
 10
97.2063
 20
-3.6587
 30
0.0
 10
100.8614
 20
-7.3138
 30
0.0
 10
100.8614
 20
-7.3138
 30
0.0
 10
100.8614
 20
-7.3138
 30
0.0
 10
100.8614
 20
-7.3138
 30
0.0
 10
97.2063
 20
-10.969
 30
0.0
 10
97.2063
 20
-10.969
 30
0.0
  0
SPLINE
  5
60
330
1F
100
AcDbEntity
  8
layer 1
 62
     7
100
AcDbSpline
210
0.0
220
0.0
230
1.0
 70
    11
 71
     3
 72
    20
 73
    16
 74
     0
 42
0.0000000001
 43
0.0000000001
 12
1.0
 22
0.0
 32
0.0
 13
1.0
 23
0.0
 33
0.0
 40
0.0
 40
0.0
 40
0.0
 40
0.0
 40
0.2
 40
0.2
 40
0.2
 40
0.2
 40
0.4
 40
0.4
 40
0.4
 40
0.4
 40
0.6
 40
0.6
 40
0.6
 40
0.6
 40
1.0
 40
1.0
 40
1.0
 40
1.0
 10
97.2063
 20
33.0756
 30
0.0
 10
97.2063
 20
33.0756
 30
0.0
 10
93.5512
 20
36.7307
 30
0.0
 10
93.5512
 20
36.7307
 30
0.0
 10
93.5512
 20
36.7307
 30
0.0
 10
93.5512
 20
36.7307
 30
0.0
 10
97.2063
 20
40.3859
 30
0.0
 10
97.2063
 20
40.3859
 30
0.0
 10
97.2063
 20
40.3859
 30
0.0
 10
97.2063
 20
40.3859
 30
0.0
 10
100.8614
 20
36.7307
 30
0.0
 10
100.8614
 20
36.7307
 30
0.0
 10
100.8614
 20
36.7307
 30
0.0
 10
100.8614
 20
36.7307
 30
0.0
 10
97.2063
 20
33.0756
 30
0.0
 10
97.2063
 20
33.0756
 30
0.0
  0
SPLINE
  5
61
330
1F
100
AcDbEntity
  8
layer 1
 62
     7
100
AcDbSpline
210
0.0
220
0.0
230
1.0
 70
    11
 71
     3
 72
    20
 73
    16
 74
     0
 42
0.0000000001
 43
0.0000000001
 12
1.0
 22
0.0
 32
0.0
 13
1.0
 23
0.0
 33
0.0
 40
0.0
 40
0.0
 40
0.0
 40
0.0
 40
0.2
 40
0.2
 40
0.2
 40
0.2
 40
0.4
 40
0.4
 40
0.4
 40
0.4
 40
0.6
 40
0.6
 40
0.6
 40
0.6
 40
1.0
 40
1.0
 40
1.0
 40
1.0
 10
97.2063
 20
77.1202
 30
0.0
 10
97.2063
 20
77.1202
 30
0.0
 10
93.5512
 20
80.7753
 30
0.0
 10
93.5512
 20
80.7753
 30
0.0
 10
93.5512
 20
80.7753
 30
0.0
 10
93.5512
 20
80.7753
 30
0.0
 10
97.2063
 20
84.4304
 30
0.0
 10
97.2063
 20
84.4304
 30
0.0
 10
97.2063
 20
84.4304
 30
0.0
 10
97.2063
 20
84.4304
 30
0.0
 10
100.8614
 20
80.7753
 30
0.0
 10
100.8614
 20
80.7753
 30
0.0
 10
100.8614
 20
80.7753
 30
0.0
 10
100.8614
 20
80.7753
 30
0.0
 10
97.2063
 20
77.1202
 30
0.0
 10
97.2063
 20
77.1202
 30
0.0
  0
SPLINE
  5
62
330
1F
100
AcDbEntity
  8
layer 1
 62
     7
100
AcDbSpline
210
0.0
220
0.0
230
1.0
 70
    11
 71
     3
 72
    20
 73
    16
 74
     0
 42
0.0000000001
 43
0.0000000001
 12
1.0
 22
0.0
 32
0.0
 13
1.0
 23
0.0
 33
0.0
 40
0.0
 40
0.0
 40
0.0
 40
0.0
 40
0.2
 40
0.2
 40
0.2
 40
0.2
 40
0.4
 40
0.4
 40
0.4
 40
0.4
 40
0.6
 40
0.6
 40
0.6
 40
0.6
 40
1.0
 40
1.0
 40
1.0
 40
1.0
 10
97.2063
 20
20.1221
 30
0.0
 10
97.2063
 20
20.1221
 30
0.0
 10
93.5512
 20
23.7772
 30
0.0
 10
93.5512
 20
23.7772
 30
0.0
 10
93.5512
 20
23.7772
 30
0.0
 10
93.5512
 20
23.7772
 30
0.0
 10
97.2063
 20
27.4323
 30
0.0
 10
97.2063
 20
27.4323
 30
0.0
 10
97.2063
 20
27.4323
 30
0.0
 10
97.2063
 20
27.4323
 30
0.0
 10
100.8614
 20
23.7772
 30
0.0
 10
100.8614
 20
23.7772
 30
0.0
 10
100.8614
 20
23.7772
 30
0.0
 10
100.8614
 20
23.7772
 30
0.0
 10
97.2063
 20
20.1221
 30
0.0
 10
97.2063
 20
20.1221
 30
0.0
  0
SPLINE
  5
63
330
1F
100
AcDbEntity
  8
layer 1
 62
     7
100
AcDbSpline
210
0.0
220
0.0
230
1.0
 70
    11
 71
     3
 72
    20
 73
    16
 74
     0
 42
0.0000000001
 43
0.0000000001
 12
1.0
 22
0.0
 32
0.0
 13
1.0
 23
0.0
 33
0.0
 40
0.0
 40
0.0
 40
0.0
 40
0.0
 40
0.2
 40
0.2
 40
0.2
 40
0.2
 40
0.4
 40
0.4
 40
0.4
 40
0.4
 40
0.6
 40
0.6
 40
0.6
 40
0.6
 40
1.0
 40
1.0
 40
1.0
 40
1.0
 10
97.2063
 20
64.1667
 30
0.0
 10
97.2063
 20
64.1667
 30
0.0
 10
93.5512
 20
67.8218
 30
0.0
 10
93.5512
 20
67.8218
 30
0.0
 10
93.5512
 20
67.8218
 30
0.0
 10
93.5512
 20
67.8218
 30
0.0
 10
97.2063
 20
71.4769
 30
0.0
 10
97.2063
 20
71.4769
 30
0.0
 10
97.2063
 20
71.4769
 30
0.0
 10
97.2063
 20
71.4769
 30
0.0
 10
100.8614
 20
67.8218
 30
0.0
 10
100.8614
 20
67.8218
 30
0.0
 10
100.8614
 20
67.8218
 30
0.0
 10
100.8614
 20
67.8218
 30
0.0
 10
97.2063
 20
64.1667
 30
0.0
 10
97.2063
 20
64.1667
 30
0.0
  0
SPLINE
  5
64
330
1F
100
AcDbEntity
  8
layer 1
 62
     7
100
AcDbSpline
210
0.0
220
0.0
230
1.0
 70
    11
 71
     3
 72
    20
 73
    16
 74
     0
 42
0.0000000001
 43
0.0000000001
 12
1.0
 22
0.0
 32
0.0
 13
1.0
 23
0.0
 33
0.0
 40
0.0
 40
0.0
 40
0.0
 40
0.0
 40
0.2
 40
0.2
 40
0.2
 40
0.2
 40
0.4
 40
0.4
 40
0.4
 40
0.4
 40
0.6
 40
0.6
 40
0.6
 40
0.6
 40
1.0
 40
1.0
 40
1.0
 40
1.0
 10
97.2063
 20
108.2112
 30
0.0
 10
97.2063
 20
108.2112
 30
0.0
 10
93.5512
 20
111.8664
 30
0.0
 10
93.5512
 20
111.8664
 30
0.0
 10
93.5512
 20
111.8664
 30
0.0
 10
93.5512
 20
111.8664
 30
0.0
 10
97.2063
 20
115.5215
 30
0.0
 10
97.2063
 20
115.5215
 30
0.0
 10
97.2063
 20
115.5215
 30
0.0
 10
97.2063
 20
115.5215
 30
0.0
 10
100.8614
 20
111.8664
 30
0.0
 10
100.8614
 20
111.8664
 30
0.0
 10
100.8614
 20
111.8664
 30
0.0
 10
100.8614
 20
111.8664
 30
0.0
 10
97.2063
 20
108.2112
 30
0.0
 10
97.2063
 20
108.2112
 30
0.0
  0
SPLINE
  5
65
330
1F
100
AcDbEntity
  8
layer 1
 62
     7
100
AcDbSpline
210
0.0
220
0.0
230
1.0
 70
    11
 71
     3
 72
    24
 73
    20
 74
     0
 42
0.0000000001
 43
0.0000000001
 12
1.0
 22
0.0
 32
0.0
 13
1.0
 23
0.0
 33
0.0
 40
0.0
 40
0.0
 40
0.0
 40
0.0
 40
0.1666666666666667
 40
0.1666666666666667
 40
0.1666666666666667
 40
0.1666666666666667
 40
0.3333333333333333
 40
0.3333333333333333
 40
0.3333333333333333
 40
0.3333333333333333
 40
0.5
 40
0.5
 40
0.5
 40
0.5
 40
0.6666666666666666
 40
0.6666666666666666
 40
0.6666666666666666
 40
0.6666666666666666
 40
1.0
 40
1.0
 40
1.0
 40
1.0
 10
91.277
 20
-5.3373
 30
0.0
 10
91.277
 20
-5.3373
 30
0.0
 10
83.6753
 20
-5.3373
 30
0.0
 10
83.6753
 20
-5.3373
 30
0.0
 10
83.6753
 20
-5.3373
 30
0.0
 10
83.6753
 20
-5.3373
 30
0.0
 10
83.6753
 20
2.4924
 30
0.0
 10
83.6753
 20
2.4924
 30
0.0
 10
83.6753
 20
2.4924
 30
0.0
 10
83.6753
 20
2.4924
 30
0.0
 10
87.5521
 20
6.0716
 30
0.0
 10
87.5521
 20
6.0716
 30
0.0
 10
87.5521
 20
6.0716
 30
0.0
 10
87.5521
 20
6.0716
 30
0.0
 10
95.1602
 20
-1.5365
 30
0.0
 10
95.1602
 20
-1.5365
 30
0.0
 10
95.1602
 20
-1.5365
 30
0.0
 10
95.1602
 20
-1.5365
 30
0.0
 10
91.277
 20
-5.3373
 30
0.0
 10
91.277
 20
-5.3373
 30
0.0
  0
SPLINE
  5
66
330
1F
100
AcDbEntity
  8
layer 1
 62
     7
100
AcDbSpline
210
0.0
220
0.0
230
1.0
 70
    11
 71
     3
 72
    24
 73
    20
 74
     0
 42
0.0000000001
 43
0.0000000001
 12
1.0
 22
0.0
 32
0.0
 13
1.0
 23
0.0
 33
0.0
 40
0.0
 40
0.0
 40
0.0
 40
0.0
 40
0.1666666666666667
 40
0.1666666666666667
 40
0.1666666666666667
 40
0.1666666666666667
 40
0.3333333333333333
 40
0.3333333333333333
 40
0.3333333333333333
 40
0.3333333333333333
 40
0.5
 40
0.5
 40
0.5
 40
0.5
 40
0.6666666666666666
 40
0.6666666666666666
 40
0.6666666666666666
 40
0.6666666666666666
 40
1.0
 40
1.0
 40
1.0
 40
1.0
 10
91.277
 20
38.7072
 30
0.0
 10
91.277
 20
38.7072
 30
0.0
 10
83.6753
 20
38.7072
 30
0.0
 10
83.6753
 20
38.7072
 30
0.0
 10
83.6753
 20
38.7072
 30
0.0
 10
83.6753
 20
38.7072
 30
0.0
 10
83.6753
 20
46.537
 30
0.0
 10
83.6753
 20
46.537
 30
0.0
 10
83.6753
 20
46.537
 30
0.0
 10
83.6753
 20
46.537
 30
0.0
 10
87.5521
 20
50.1161
 30
0.0
 10
87.5521
 20
50.1161
 30
0.0
 10
87.5521
 20
50.1161
 30
0.0
 10
87.5521
 20
50.1161
 30
0.0
 10
95.1602
 20
42.5081
 30
0.0
 10
95.1602
 20
42.5081
 30
0.0
 10
95.1602
 20
42.5081
 30
0.0
 10
95.1602
 20
42.5081
 30
0.0
 10
91.277
 20
38.7072
 30
0.0
 10
91.277
 20
38.7072
 30
0.0
  0
SPLINE
  5
67
330
1F
100
AcDbEntity
  8
layer 1
 62
     7
100
AcDbSpline
210
0.0
220
0.0
230
1.0
 70
    11
 71
     3
 72
    24
 73
    20
 74
     0
 42
0.0000000001
 43
0.0000000001
 12
1.0
 22
0.0
 32
0.0
 13
1.0
 23
0.0
 33
0.0
 40
0.0
 40
0.0
 40
0.0
 40
0.0
 40
0.1666666666666667
 40
0.1666666666666667
 40
0.1666666666666667
 40
0.1666666666666667
 40
0.3333333333333333
 40
0.3333333333333333
 40
0.3333333333333333
 40
0.3333333333333333
 40
0.5
 40
0.5
 40
0.5
 40
0.5
 40
0.6666666666666666
 40
0.6666666666666666
 40
0.6666666666666666
 40
0.6666666666666666
 40
1.0
 40
1.0
 40
1.0
 40
1.0
 10
91.277
 20
82.7518
 30
0.0
 10
91.277
 20
82.7518
 30
0.0
 10
83.6753
 20
82.7518
 30
0.0
 10
83.6753
 20
82.7518
 30
0.0
 10
83.6753
 20
82.7518
 30
0.0
 10
83.6753
 20
82.7518
 30
0.0
 10
83.6753
 20
90.5816
 30
0.0
 10
83.6753
 20
90.5816
 30
0.0
 10
83.6753
 20
90.5816
 30
0.0
 10
83.6753
 20
90.5816
 30
0.0
 10
87.5521
 20
94.1607
 30
0.0
 10
87.5521
 20
94.1607
 30
0.0
 10
87.5521
 20
94.1607
 30
0.0
 10
87.5521
 20
94.1607
 30
0.0
 10
95.1602
 20
86.5527
 30
0.0
 10
95.1602
 20
86.5527
 30
0.0
 10
95.1602
 20
86.5527
 30
0.0
 10
95.1602
 20
86.5527
 30
0.0
 10
91.277
 20
82.7518
 30
0.0
 10
91.277
 20
82.7518
 30
0.0
  0
SPLINE
  5
68
330
1F
100
AcDbEntity
  8
layer 1
 62
     7
100
AcDbSpline
210
0.0
220
0.0
230
1.0
 70
    11
 71
     3
 72
    24
 73
    20
 74
     0
 42
0.0000000001
 43
0.0000000001
 12
1.0
 22
0.0
 32
0.0
 13
1.0
 23
0.0
 33
0.0
 40
0.0
 40
0.0
 40
0.0
 40
0.0
 40
0.1666666666666667
 40
0.1666666666666667
 40
0.1666666666666667
 40
0.1666666666666667
 40
0.3333333333333333
 40
0.3333333333333333
 40
0.3333333333333333
 40
0.3333333333333333
 40
0.5
 40
0.5
 40
0.5
 40
0.5
 40
0.6666666666666666
 40
0.6666666666666666
 40
0.6666666666666666
 40
0.6666666666666666
 40
1.0
 40
1.0
 40
1.0
 40
1.0
 10
91.277
 20
21.8832
 30
0.0
 10
91.277
 20
21.8832
 30
0.0
 10
83.6753
 20
21.8832
 30
0.0
 10
83.6753
 20
21.8832
 30
0.0
 10
83.6753
 20
21.8832
 30
0.0
 10
83.6753
 20
21.8832
 30
0.0
 10
83.6753
 20
14.0534
 30
0.0
 10
83.6753
 20
14.0534
 30
0.0
 10
83.6753
 20
14.0534
 30
0.0
 10
83.6753
 20
14.0534
 30
0.0
 10
87.5521
 20
10.4743
 30
0.0
 10
87.5521
 20
10.4743
 30
0.0
 10
87.5521
 20
10.4743
 30
0.0
 10
87.5521
 20
10.4743
 30
0.0
 10
95.1602
 20
18.0823
 30
0.0
 10
95.1602
 20
18.0823
 30
0.0
 10
95.1602
 20
18.0823
 30
0.0
 10
95.1602
 20
18.0823
 30
0.0
 10
91.277
 20
21.8832
 30
0.0
 10
91.277
 20
21.8832
 30
0.0
  0
SPLINE
  5
69
330
1F
100
AcDbEntity
  8
layer 1
 62
     7
100
AcDbSpline
210
0.0
220
0.0
230
1.0
 70
    11
 71
     3
 72
    24
 73
    20
 74
     0
 42
0.0000000001
 43
0.0000000001
 12
1.0
 22
0.0
 32
0.0
 13
1.0
 23
0.0
 33
0.0
 40
0.0
 40
0.0
 40
0.0
 40
0.0
 40
0.1666666666666667
 40
0.1666666666666667
 40
0.1666666666666667
 40
0.1666666666666667
 40
0.3333333333333333
 40
0.3333333333333333
 40
0.3333333333333333
 40
0.3333333333333333
 40
0.5
 40
0.5
 40
0.5
 40
0.5
 40
0.6666666666666666
 40
0.6666666666666666
 40
0.6666666666666666
 40
0.6666666666666666
 40
1.0
 40
1.0
 40
1.0
 40
1.0
 10
91.277
 20
65.9278
 30
0.0
 10
91.277
 20
65.9278
 30
0.0
 10
83.6753
 20
65.9278
 30
0.0
 10
83.6753
 20
65.9278
 30
0.0
 10
83.6753
 20
65.9278
 30
0.0
 10
83.6753
 20
65.9278
 30
0.0
 10
83.6753
 20
58.098
 30
0.0
 10
83.6753
 20
58.098
 30
0.0
 10
83.6753
 20
58.098
 30
0.0
 10
83.6753
 20
58.098
 30
0.0
 10
87.5521
 20
54.5189
 30
0.0
 10
87.5521
 20
54.5189
 30
0.0
 10
87.5521
 20
54.5189
 30
0.0
 10
87.5521
 20
54.5189
 30
0.0
 10
95.1602
 20
62.1269
 30
0.0
 10
95.1602
 20
62.1269
 30
0.0
 10
95.1602
 20
62.1269
 30
0.0
 10
95.1602
 20
62.1269
 30
0.0
 10
91.277
 20
65.9278
 30
0.0
 10
91.277
 20
65.9278
 30
0.0
  0
SPLINE
  5
6A
330
1F
100
AcDbEntity
  8
layer 1
 62
     7
100
AcDbSpline
210
0.0
220
0.0
230
1.0
 70
    11
 71
     3
 72
    24
 73
    20
 74
     0
 42
0.0000000001
 43
0.0000000001
 12
1.0
 22
0.0
 32
0.0
 13
1.0
 23
0.0
 33
0.0
 40
0.0
 40
0.0
 40
0.0
 40
0.0
 40
0.1666666666666667
 40
0.1666666666666667
 40
0.1666666666666667
 40
0.1666666666666667
 40
0.3333333333333333
 40
0.3333333333333333
 40
0.3333333333333333
 40
0.3333333333333333
 40
0.5
 40
0.5
 40
0.5
 40
0.5
 40
0.6666666666666666
 40
0.6666666666666666
 40
0.6666666666666666
 40
0.6666666666666666
 40
1.0
 40
1.0
 40
1.0
 40
1.0
 10
91.277
 20
109.9723
 30
0.0
 10
91.277
 20
109.9723
 30
0.0
 10
83.6753
 20
109.9723
 30
0.0
 10
83.6753
 20
109.9723
 30
0.0
 10
83.6753
 20
109.9723
 30
0.0
 10
83.6753
 20
109.9723
 30
0.0
 10
83.6753
 20
102.1426
 30
0.0
 10
83.6753
 20
102.1426
 30
0.0
 10
83.6753
 20
102.1426
 30
0.0
 10
83.6753
 20
102.1426
 30
0.0
 10
87.5521
 20
98.5634
 30
0.0
 10
87.5521
 20
98.5634
 30
0.0
 10
87.5521
 20
98.5634
 30
0.0
 10
87.5521
 20
98.5634
 30
0.0
 10
95.1602
 20
106.1715
 30
0.0
 10
95.1602
 20
106.1715
 30
0.0
 10
95.1602
 20
106.1715
 30
0.0
 10
95.1602
 20
106.1715
 30
0.0
 10
91.277
 20
109.9723
 30
0.0
 10
91.277
 20
109.9723
 30
0.0
  0
SPLINE
  5
6B
330
1F
100
AcDbEntity
  8
layer 1
 62
     7
100
AcDbSpline
210
0.0
220
0.0
230
1.0
 70
    11
 71
     3
 72
    24
 73
    20
 74
     0
 42
0.0000000001
 43
0.0000000001
 12
1.0
 22
0.0
 32
0.0
 13
1.0
 23
0.0
 33
0.0
 40
0.0
 40
0.0
 40
0.0
 40
0.0
 40
0.1666666666666667
 40
0.1666666666666667
 40
0.1666666666666667
 40
0.1666666666666667
 40
0.3333333333333333
 40
0.3333333333333333
 40
0.3333333333333333
 40
0.3333333333333333
 40
0.5
 40
0.5
 40
0.5
 40
0.5
 40
0.6666666666666666
 40
0.6666666666666666
 40
0.6666666666666666
 40
0.6666666666666666
 40
1.0
 40
1.0
 40
1.0
 40
1.0
 10
103.142
 20
-5.3373
 30
0.0
 10
103.142
 20
-5.3373
 30
0.0
 10
110.7438
 20
-5.3373
 30
0.0
 10
110.7438
 20
-5.3373
 30
0.0
 10
110.7438
 20
-5.3373
 30
0.0
 10
110.7438
 20
-5.3373
 30
0.0
 10
110.7438
 20
2.4924
 30
0.0
 10
110.7438
 20
2.4924
 30
0.0
 10
110.7438
 20
2.4924
 30
0.0
 10
110.7438
 20
2.4924
 30
0.0
 10
106.8669
 20
6.0716
 30
0.0
 10
106.8669
 20
6.0716
 30
0.0
 10
106.8669
 20
6.0716
 30
0.0
 10
106.8669
 20
6.0716
 30
0.0
 10
99.2589
 20
-1.5365
 30
0.0
 10
99.2589
 20
-1.5365
 30
0.0
 10
99.2589
 20
-1.5365
 30
0.0
 10
99.2589
 20
-1.5365
 30
0.0
 10
103.142
 20
-5.3373
 30
0.0
 10
103.142
 20
-5.3373
 30
0.0
  0
SPLINE
  5
6C
330
1F
100
AcDbEntity
  8
layer 1
 62
     7
100
AcDbSpline
210
0.0
220
0.0
230
1.0
 70
    11
 71
     3
 72
    24
 73
    20
 74
     0
 42
0.0000000001
 43
0.0000000001
 12
1.0
 22
0.0
 32
0.0
 13
1.0
 23
0.0
 33
0.0
 40
0.0
 40
0.0
 40
0.0
 40
0.0
 40
0.1666666666666667
 40
0.1666666666666667
 40
0.1666666666666667
 40
0.1666666666666667
 40
0.3333333333333333
 40
0.3333333333333333
 40
0.3333333333333333
 40
0.3333333333333333
 40
0.5
 40
0.5
 40
0.5
 40
0.5
 40
0.6666666666666666
 40
0.6666666666666666
 40
0.6666666666666666
 40
0.6666666666666666
 40
1.0
 40
1.0
 40
1.0
 40
1.0
 10
103.142
 20
38.7072
 30
0.0
 10
103.142
 20
38.7072
 30
0.0
 10
110.7438
 20
38.7072
 30
0.0
 10
110.7438
 20
38.7072
 30
0.0
 10
110.7438
 20
38.7072
 30
0.0
 10
110.7438
 20
38.7072
 30
0.0
 10
110.7438
 20
46.537
 30
0.0
 10
110.7438
 20
46.537
 30
0.0
 10
110.7438
 20
46.537
 30
0.0
 10
110.7438
 20
46.537
 30
0.0
 10
106.8669
 20
50.1161
 30
0.0
 10
106.8669
 20
50.1161
 30
0.0
 10
106.8669
 20
50.1161
 30
0.0
 10
106.8669
 20
50.1161
 30
0.0
 10
99.2589
 20
42.5081
 30
0.0
 10
99.2589
 20
42.5081
 30
0.0
 10
99.2589
 20
42.5081
 30
0.0
 10
99.2589
 20
42.5081
 30
0.0
 10
103.142
 20
38.7072
 30
0.0
 10
103.142
 20
38.7072
 30
0.0
  0
SPLINE
  5
6D
330
1F
100
AcDbEntity
  8
layer 1
 62
     7
100
AcDbSpline
210
0.0
220
0.0
230
1.0
 70
    11
 71
     3
 72
    24
 73
    20
 74
     0
 42
0.0000000001
 43
0.0000000001
 12
1.0
 22
0.0
 32
0.0
 13
1.0
 23
0.0
 33
0.0
 40
0.0
 40
0.0
 40
0.0
 40
0.0
 40
0.1666666666666667
 40
0.1666666666666667
 40
0.1666666666666667
 40
0.1666666666666667
 40
0.3333333333333333
 40
0.3333333333333333
 40
0.3333333333333333
 40
0.3333333333333333
 40
0.5
 40
0.5
 40
0.5
 40
0.5
 40
0.6666666666666666
 40
0.6666666666666666
 40
0.6666666666666666
 40
0.6666666666666666
 40
1.0
 40
1.0
 40
1.0
 40
1.0
 10
103.142
 20
82.7518
 30
0.0
 10
103.142
 20
82.7518
 30
0.0
 10
110.7438
 20
82.7518
 30
0.0
 10
110.7438
 20
82.7518
 30
0.0
 10
110.7438
 20
82.7518
 30
0.0
 10
110.7438
 20
82.7518
 30
0.0
 10
110.7438
 20
90.5816
 30
0.0
 10
110.7438
 20
90.5816
 30
0.0
 10
110.7438
 20
90.5816
 30
0.0
 10
110.7438
 20
90.5816
 30
0.0
 10
106.8669
 20
94.1607
 30
0.0
 10
106.8669
 20
94.1607
 30
0.0
 10
106.8669
 20
94.1607
 30
0.0
 10
106.8669
 20
94.1607
 30
0.0
 10
99.2589
 20
86.5527
 30
0.0
 10
99.2589
 20
86.5527
 30
0.0
 10
99.2589
 20
86.5527
 30
0.0
 10
99.2589
 20
86.5527
 30
0.0
 10
103.142
 20
82.7518
 30
0.0
 10
103.142
 20
82.7518
 30
0.0
  0
SPLINE
  5
6E
330
1F
100
AcDbEntity
  8
layer 1
 62
     7
100
AcDbSpline
210
0.0
220
0.0
230
1.0
 70
    11
 71
     3
 72
    24
 73
    20
 74
     0
 42
0.0000000001
 43
0.0000000001
 12
1.0
 22
0.0
 32
0.0
 13
1.0
 23
0.0
 33
0.0
 40
0.0
 40
0.0
 40
0.0
 40
0.0
 40
0.1666666666666667
 40
0.1666666666666667
 40
0.1666666666666667
 40
0.1666666666666667
 40
0.3333333333333333
 40
0.3333333333333333
 40
0.3333333333333333
 40
0.3333333333333333
 40
0.5
 40
0.5
 40
0.5
 40
0.5
 40
0.6666666666666666
 40
0.6666666666666666
 40
0.6666666666666666
 40
0.6666666666666666
 40
1.0
 40
1.0
 40
1.0
 40
1.0
 10
103.142
 20
21.8832
 30
0.0
 10
103.142
 20
21.8832
 30
0.0
 10
110.7438
 20
21.8832
 30
0.0
 10
110.7438
 20
21.8832
 30
0.0
 10
110.7438
 20
21.8832
 30
0.0
 10
110.7438
 20
21.8832
 30
0.0
 10
110.7438
 20
14.0534
 30
0.0
 10
110.7438
 20
14.0534
 30
0.0
 10
110.7438
 20
14.0534
 30
0.0
 10
110.7438
 20
14.0534
 30
0.0
 10
106.8669
 20
10.4743
 30
0.0
 10
106.8669
 20
10.4743
 30
0.0
 10
106.8669
 20
10.4743
 30
0.0
 10
106.8669
 20
10.4743
 30
0.0
 10
99.2589
 20
18.0823
 30
0.0
 10
99.2589
 20
18.0823
 30
0.0
 10
99.2589
 20
18.0823
 30
0.0
 10
99.2589
 20
18.0823
 30
0.0
 10
103.142
 20
21.8832
 30
0.0
 10
103.142
 20
21.8832
 30
0.0
  0
SPLINE
  5
6F
330
1F
100
AcDbEntity
  8
layer 1
 62
     7
100
AcDbSpline
210
0.0
220
0.0
230
1.0
 70
    11
 71
     3
 72
    24
 73
    20
 74
     0
 42
0.0000000001
 43
0.0000000001
 12
1.0
 22
0.0
 32
0.0
 13
1.0
 23
0.0
 33
0.0
 40
0.0
 40
0.0
 40
0.0
 40
0.0
 40
0.1666666666666667
 40
0.1666666666666667
 40
0.1666666666666667
 40
0.1666666666666667
 40
0.3333333333333333
 40
0.3333333333333333
 40
0.3333333333333333
 40
0.3333333333333333
 40
0.5
 40
0.5
 40
0.5
 40
0.5
 40
0.6666666666666666
 40
0.6666666666666666
 40
0.6666666666666666
 40
0.6666666666666666
 40
1.0
 40
1.0
 40
1.0
 40
1.0
 10
103.142
 20
65.9278
 30
0.0
 10
103.142
 20
65.9278
 30
0.0
 10
110.7438
 20
65.9278
 30
0.0
 10
110.7438
 20
65.9278
 30
0.0
 10
110.7438
 20
65.9278
 30
0.0
 10
110.7438
 20
65.9278
 30
0.0
 10
110.7438
 20
58.098
 30
0.0
 10
110.7438
 20
58.098
 30
0.0
 10
110.7438
 20
58.098
 30
0.0
 10
110.7438
 20
58.098
 30
0.0
 10
106.8669
 20
54.5189
 30
0.0
 10
106.8669
 20
54.5189
 30
0.0
 10
106.8669
 20
54.5189
 30
0.0
 10
106.8669
 20
54.5189
 30
0.0
 10
99.2589
 20
62.1269
 30
0.0
 10
99.2589
 20
62.1269
 30
0.0
 10
99.2589
 20
62.1269
 30
0.0
 10
99.2589
 20
62.1269
 30
0.0
 10
103.142
 20
65.9278
 30
0.0
 10
103.142
 20
65.9278
 30
0.0
  0
SPLINE
  5
70
330
1F
100
AcDbEntity
  8
layer 1
 62
     7
100
AcDbSpline
210
0.0
220
0.0
230
1.0
 70
    11
 71
     3
 72
    24
 73
    20
 74
     0
 42
0.0000000001
 43
0.0000000001
 12
1.0
 22
0.0
 32
0.0
 13
1.0
 23
0.0
 33
0.0
 40
0.0
 40
0.0
 40
0.0
 40
0.0
 40
0.1666666666666667
 40
0.1666666666666667
 40
0.1666666666666667
 40
0.1666666666666667
 40
0.3333333333333333
 40
0.3333333333333333
 40
0.3333333333333333
 40
0.3333333333333333
 40
0.5
 40
0.5
 40
0.5
 40
0.5
 40
0.6666666666666666
 40
0.6666666666666666
 40
0.6666666666666666
 40
0.6666666666666666
 40
1.0
 40
1.0
 40
1.0
 40
1.0
 10
103.142
 20
109.9723
 30
0.0
 10
103.142
 20
109.9723
 30
0.0
 10
110.7438
 20
109.9723
 30
0.0
 10
110.7438
 20
109.9723
 30
0.0
 10
110.7438
 20
109.9723
 30
0.0
 10
110.7438
 20
109.9723
 30
0.0
 10
110.7438
 20
102.1426
 30
0.0
 10
110.7438
 20
102.1426
 30
0.0
 10
110.7438
 20
102.1426
 30
0.0
 10
110.7438
 20
102.1426
 30
0.0
 10
106.8669
 20
98.5634
 30
0.0
 10
106.8669
 20
98.5634
 30
0.0
 10
106.8669
 20
98.5634
 30
0.0
 10
106.8669
 20
98.5634
 30
0.0
 10
99.2589
 20
106.1715
 30
0.0
 10
99.2589
 20
106.1715
 30
0.0
 10
99.2589
 20
106.1715
 30
0.0
 10
99.2589
 20
106.1715
 30
0.0
 10
103.142
 20
109.9723
 30
0.0
 10
103.142
 20
109.9723
 30
0.0
  0
SPLINE
  5
71
330
1F
100
AcDbEntity
  8
layer 1
 62
     7
100
AcDbSpline
210
0.0
220
0.0
230
1.0
 70
    11
 71
     3
 72
    20
 73
    16
 74
     0
 42
0.0000000001
 43
0.0000000001
 12
1.0
 22
0.0
 32
0.0
 13
1.0
 23
0.0
 33
0.0
 40
0.0
 40
0.0
 40
0.0
 40
0.0
 40
0.2
 40
0.2
 40
0.2
 40
0.2
 40
0.4
 40
0.4
 40
0.4
 40
0.4
 40
0.6
 40
0.6
 40
0.6
 40
0.6
 40
1.0
 40
1.0
 40
1.0
 40
1.0
 10
112.7899
 20
4.5386
 30
0.0
 10
112.7899
 20
4.5386
 30
0.0
 10
109.1348
 20
8.1937
 30
0.0
 10
109.1348
 20
8.1937
 30
0.0
 10
109.1348
 20
8.1937
 30
0.0
 10
109.1348
 20
8.1937
 30
0.0
 10
112.7899
 20
11.8488
 30
0.0
 10
112.7899
 20
11.8488
 30
0.0
 10
112.7899
 20
11.8488
 30
0.0
 10
112.7899
 20
11.8488
 30
0.0
 10
116.445
 20
8.1937
 30
0.0
 10
116.445
 20
8.1937
 30
0.0
 10
116.445
 20
8.1937
 30
0.0
 10
116.445
 20
8.1937
 30
0.0
 10
112.7899
 20
4.5386
 30
0.0
 10
112.7899
 20
4.5386
 30
0.0
  0
SPLINE
  5
72
330
1F
100
AcDbEntity
  8
layer 1
 62
     7
100
AcDbSpline
210
0.0
220
0.0
230
1.0
 70
    11
 71
     3
 72
    20
 73
    16
 74
     0
 42
0.0000000001
 43
0.0000000001
 12
1.0
 22
0.0
 32
0.0
 13
1.0
 23
0.0
 33
0.0
 40
0.0
 40
0.0
 40
0.0
 40
0.0
 40
0.2
 40
0.2
 40
0.2
 40
0.2
 40
0.4
 40
0.4
 40
0.4
 40
0.4
 40
0.6
 40
0.6
 40
0.6
 40
0.6
 40
1.0
 40
1.0
 40
1.0
 40
1.0
 10
112.7899
 20
48.5832
 30
0.0
 10
112.7899
 20
48.5832
 30
0.0
 10
109.1348
 20
52.2383
 30
0.0
 10
109.1348
 20
52.2383
 30
0.0
 10
109.1348
 20
52.2383
 30
0.0
 10
109.1348
 20
52.2383
 30
0.0
 10
112.7899
 20
55.8934
 30
0.0
 10
112.7899
 20
55.8934
 30
0.0
 10
112.7899
 20
55.8934
 30
0.0
 10
112.7899
 20
55.8934
 30
0.0
 10
116.445
 20
52.2383
 30
0.0
 10
116.445
 20
52.2383
 30
0.0
 10
116.445
 20
52.2383
 30
0.0
 10
116.445
 20
52.2383
 30
0.0
 10
112.7899
 20
48.5832
 30
0.0
 10
112.7899
 20
48.5832
 30
0.0
  0
SPLINE
  5
73
330
1F
100
AcDbEntity
  8
layer 1
 62
     7
100
AcDbSpline
210
0.0
220
0.0
230
1.0
 70
    11
 71
     3
 72
    20
 73
    16
 74
     0
 42
0.0000000001
 43
0.0000000001
 12
1.0
 22
0.0
 32
0.0
 13
1.0
 23
0.0
 33
0.0
 40
0.0
 40
0.0
 40
0.0
 40
0.0
 40
0.2
 40
0.2
 40
0.2
 40
0.2
 40
0.4
 40
0.4
 40
0.4
 40
0.4
 40
0.6
 40
0.6
 40
0.6
 40
0.6
 40
1.0
 40
1.0
 40
1.0
 40
1.0
 10
112.7899
 20
92.6277
 30
0.0
 10
112.7899
 20
92.6277
 30
0.0
 10
109.1348
 20
96.2829
 30
0.0
 10
109.1348
 20
96.2829
 30
0.0
 10
109.1348
 20
96.2829
 30
0.0
 10
109.1348
 20
96.2829
 30
0.0
 10
112.7899
 20
99.938
 30
0.0
 10
112.7899
 20
99.938
 30
0.0
 10
112.7899
 20
99.938
 30
0.0
 10
112.7899
 20
99.938
 30
0.0
 10
116.445
 20
96.2829
 30
0.0
 10
116.445
 20
96.2829
 30
0.0
 10
116.445
 20
96.2829
 30
0.0
 10
116.445
 20
96.2829
 30
0.0
 10
112.7899
 20
92.6277
 30
0.0
 10
112.7899
 20
92.6277
 30
0.0
  0
SPLINE
  5
74
330
1F
100
AcDbEntity
  8
layer 1
 62
     7
100
AcDbSpline
210
0.0
220
0.0
230
1.0
 70
    11
 71
     3
 72
    68
 73
    64
 74
     0
 42
0.0000000001
 43
0.0000000001
 12
1.0
 22
0.0
 32
0.0
 13
1.0
 23
0.0
 33
0.0
 40
0.0
 40
0.0
 40
0.0
 40
0.0
 40
0.0588235294117647
 40
0.0588235294117647
 40
0.0588235294117647
 40
0.0588235294117647
 40
0.1176470588235294
 40
0.1176470588235294
 40
0.1176470588235294
 40
0.1176470588235294
 40
0.1764705882352941
 40
0.1764705882352941
 40
0.1764705882352941
 40
0.1764705882352941
 40
0.2352941176470588
 40
0.2352941176470588
 40
0.2352941176470588
 40
0.2352941176470588
 40
0.2941176470588235
 40
0.2941176470588235
 40
0.2941176470588235
 40
0.2941176470588235
 40
0.3529411764705883
 40
0.3529411764705883
 40
0.3529411764705883
 40
0.3529411764705883
 40
0.4117647058823529
 40
0.4117647058823529
 40
0.4117647058823529
 40
0.4117647058823529
 40
0.4705882352941176
 40
0.4705882352941176
 40
0.4705882352941176
 40
0.4705882352941176
 40
0.5294117647058824
 40
0.5294117647058824
 40
0.5294117647058824
 40
0.5294117647058824
 40
0.5882352941176471
 40
0.5882352941176471
 40
0.5882352941176471
 40
0.5882352941176471
 40
0.6470588235294118
 40
0.6470588235294118
 40
0.6470588235294118
 40
0.6470588235294118
 40
0.7058823529411765
 40
0.7058823529411765
 40
0.7058823529411765
 40
0.7058823529411765
 40
0.7647058823529411
 40
0.7647058823529411
 40
0.7647058823529411
 40
0.7647058823529411
 40
0.8235294117647058
 40
0.8235294117647058
 40
0.8235294117647058
 40
0.8235294117647058
 40
0.8823529411764706
 40
0.8823529411764706
 40
0.8823529411764706
 40
0.8823529411764706
 40
1.0
 40
1.0
 40
1.0
 40
1.0
 10
123.9751
 20
-72.11
 30
0.0
 10
123.9751
 20
-72.11
 30
0.0
 10
119.341
 20
-77.4312
 30
0.0
 10
119.341
 20
-77.4312
 30
0.0
 10
119.341
 20
-77.4312
 30
0.0
 10
119.341
 20
-77.4312
 30
0.0
 10
114.7804
 20
-72.11
 30
0.0
 10
114.7804
 20
-72.11
 30
0.0
 10
114.7804
 20
-72.11
 30
0.0
 10
114.7804
 20
-72.11
 30
0.0
 10
114.7556
 20
-62.625
 30
0.0
 10
114.7556
 20
-62.625
 30
0.0
 10
114.7556
 20
-62.625
 30
0.0
 10
114.7556
 20
-62.625
 30
0.0
 10
105.3116
 20
-62.6411
 30
0.0
 10
105.3116
 20
-62.6411
 30
0.0
 10
105.3116
 20
-62.6411
 30
0.0
 10
105.3116
 20
-62.6411
 30
0.0
 10
99.9904
 20
-58.007
 30
0.0
 10
99.9904
 20
-58.007
 30
0.0
 10
99.9904
 20
-58.007
 30
0.0
 10
99.9904
 20
-58.007
 30
0.0
 10
105.3116
 20
-53.4465
 30
0.0
 10
105.3116
 20
-53.4465
 30
0.0
 10
105.3116
 20
-53.4465
 30
0.0
 10
105.3116
 20
-53.4465
 30
0.0
 10
114.8127
 20
-53.4096
 30
0.0
 10
114.8127
 20
-53.4096
 30
0.0
 10
114.8127
 20
-53.4096
 30
0.0
 10
114.8127
 20
-53.4096
 30
0.0
 10
114.7805
 20
-43.1794
 30
0.0
 10
114.7805
 20
-43.1794
 30
0.0
 10
114.7805
 20
-43.1794
 30
0.0
 10
114.7805
 20
-43.1794
 30
0.0
 10
119.3411
 20
-38.6564
 30
0.0
 10
119.3411
 20
-38.6564
 30
0.0
 10
119.3411
 20
-38.6564
 30
0.0
 10
119.3411
 20
-38.6564
 30
0.0
 10
123.9751
 20
-43.1794
 30
0.0
 10
123.9751
 20
-43.1794
 30
0.0
 10
123.9751
 20
-43.1794
 30
0.0
 10
123.9751
 20
-43.1794
 30
0.0
 10
123.9521
 20
-53.4666
 30
0.0
 10
123.9521
 20
-53.4666
 30
0.0
 10
123.9521
 20
-53.4666
 30
0.0
 10
123.9521
 20
-53.4666
 30
0.0
 10
134.2422
 20
-53.4464
 30
0.0
 10
134.2422
 20
-53.4464
 30
0.0
 10
134.2422
 20
-53.4464
 30
0.0
 10
134.2422
 20
-53.4464
 30
0.0
 10
138.7653
 20
-58.0069
 30
0.0
 10
138.7653
 20
-58.0069
 30
0.0
 10
138.7653
 20
-58.0069
 30
0.0
 10
138.7653
 20
-58.0069
 30
0.0
 10
134.2422
 20
-62.641
 30
0.0
 10
134.2422
 20
-62.641
 30
0.0
 10
134.2422
 20
-62.641
 30
0.0
 10
134.2422
 20
-62.641
 30
0.0
 10
123.9711
 20
-62.6629
 30
0.0
 10
123.9711
 20
-62.6629
 30
0.0
 10
123.9711
 20
-62.6629
 30
0.0
 10
123.9711
 20
-62.6629
 30
0.0
 10
123.9751
 20
-72.11
 30
0.0
 10
123.9751
 20
-72.11
 30
0.0
  0
SPLINE
  5
75
330
1F
100
AcDbEntity
  8
layer 1
 62
     7
100
AcDbSpline
210
0.0
220
0.0
230
1.0
 70
    11
 71
     3
 72
    68
 73
    64
 74
     0
 42
0.0000000001
 43
0.0000000001
 12
1.0
 22
0.0
 32
0.0
 13
1.0
 23
0.0
 33
0.0
 40
0.0
 40
0.0
 40
0.0
 40
0.0
 40
0.0588235294117647
 40
0.0588235294117647
 40
0.0588235294117647
 40
0.0588235294117647
 40
0.1176470588235294
 40
0.1176470588235294
 40
0.1176470588235294
 40
0.1176470588235294
 40
0.1764705882352941
 40
0.1764705882352941
 40
0.1764705882352941
 40
0.1764705882352941
 40
0.2352941176470588
 40
0.2352941176470588
 40
0.2352941176470588
 40
0.2352941176470588
 40
0.2941176470588235
 40
0.2941176470588235
 40
0.2941176470588235
 40
0.2941176470588235
 40
0.3529411764705883
 40
0.3529411764705883
 40
0.3529411764705883
 40
0.3529411764705883
 40
0.4117647058823529
 40
0.4117647058823529
 40
0.4117647058823529
 40
0.4117647058823529
 40
0.4705882352941176
 40
0.4705882352941176
 40
0.4705882352941176
 40
0.4705882352941176
 40
0.5294117647058824
 40
0.5294117647058824
 40
0.5294117647058824
 40
0.5294117647058824
 40
0.5882352941176471
 40
0.5882352941176471
 40
0.5882352941176471
 40
0.5882352941176471
 40
0.6470588235294118
 40
0.6470588235294118
 40
0.6470588235294118
 40
0.6470588235294118
 40
0.7058823529411765
 40
0.7058823529411765
 40
0.7058823529411765
 40
0.7058823529411765
 40
0.7647058823529411
 40
0.7647058823529411
 40
0.7647058823529411
 40
0.7647058823529411
 40
0.8235294117647058
 40
0.8235294117647058
 40
0.8235294117647058
 40
0.8235294117647058
 40
0.8823529411764706
 40
0.8823529411764706
 40
0.8823529411764706
 40
0.8823529411764706
 40
1.0
 40
1.0
 40
1.0
 40
1.0
 10
168.1816
 20
-72.11
 30
0.0
 10
168.1816
 20
-72.11
 30
0.0
 10
163.5475
 20
-77.4312
 30
0.0
 10
163.5475
 20
-77.4312
 30
0.0
 10
163.5475
 20
-77.4312
 30
0.0
 10
163.5475
 20
-77.4312
 30
0.0
 10
158.9869
 20
-72.11
 30
0.0
 10
158.9869
 20
-72.11
 30
0.0
 10
158.9869
 20
-72.11
 30
0.0
 10
158.9869
 20
-72.11
 30
0.0
 10
158.9622
 20
-62.625
 30
0.0
 10
158.9622
 20
-62.625
 30
0.0
 10
158.9622
 20
-62.625
 30
0.0
 10
158.9622
 20
-62.625
 30
0.0
 10
149.5181
 20
-62.6411
 30
0.0
 10
149.5181
 20
-62.6411
 30
0.0
 10
149.5181
 20
-62.6411
 30
0.0
 10
149.5181
 20
-62.6411
 30
0.0
 10
144.1969
 20
-58.007
 30
0.0
 10
144.1969
 20
-58.007
 30
0.0
 10
144.1969
 20
-58.007
 30
0.0
 10
144.1969
 20
-58.007
 30
0.0
 10
149.5181
 20
-53.4465
 30
0.0
 10
149.5181
 20
-53.4465
 30
0.0
 10
149.5181
 20
-53.4465
 30
0.0
 10
149.5181
 20
-53.4465
 30
0.0
 10
159.0192
 20
-53.4096
 30
0.0
 10
159.0192
 20
-53.4096
 30
0.0
 10
159.0192
 20
-53.4096
 30
0.0
 10
159.0192
 20
-53.4096
 30
0.0
 10
158.987
 20
-43.1794
 30
0.0
 10
158.987
 20
-43.1794
 30
0.0
 10
158.987
 20
-43.1794
 30
0.0
 10
158.987
 20
-43.1794
 30
0.0
 10
163.5476
 20
-38.6564
 30
0.0
 10
163.5476
 20
-38.6564
 30
0.0
 10
163.5476
 20
-38.6564
 30
0.0
 10
163.5476
 20
-38.6564
 30
0.0
 10
168.1817
 20
-43.1794
 30
0.0
 10
168.1817
 20
-43.1794
 30
0.0
 10
168.1817
 20
-43.1794
 30
0.0
 10
168.1817
 20
-43.1794
 30
0.0
 10
168.1586
 20
-53.4666
 30
0.0
 10
168.1586
 20
-53.4666
 30
0.0
 10
168.1586
 20
-53.4666
 30
0.0
 10
168.1586
 20
-53.4666
 30
0.0
 10
178.4487
 20
-53.4464
 30
0.0
 10
178.4487
 20
-53.4464
 30
0.0
 10
178.4487
 20
-53.4464
 30
0.0
 10
178.4487
 20
-53.4464
 30
0.0
 10
182.9718
 20
-58.0069
 30
0.0
 10
182.9718
 20
-58.0069
 30
0.0
 10
182.9718
 20
-58.0069
 30
0.0
 10
182.9718
 20
-58.0069
 30
0.0
 10
178.4487
 20
-62.641
 30
0.0
 10
178.4487
 20
-62.641
 30
0.0
 10
178.4487
 20
-62.641
 30
0.0
 10
178.4487
 20
-62.641
 30
0.0
 10
168.1776
 20
-62.6629
 30
0.0
 10
168.1776
 20
-62.6629
 30
0.0
 10
168.1776
 20
-62.6629
 30
0.0
 10
168.1776
 20
-62.6629
 30
0.0
 10
168.1816
 20
-72.11
 30
0.0
 10
168.1816
 20
-72.11
 30
0.0
  0
SPLINE
  5
76
330
1F
100
AcDbEntity
  8
layer 1
 62
     7
100
AcDbSpline
210
0.0
220
0.0
230
1.0
 70
    11
 71
     3
 72
    20
 73
    16
 74
     0
 42
0.0000000001
 43
0.0000000001
 12
1.0
 22
0.0
 32
0.0
 13
1.0
 23
0.0
 33
0.0
 40
0.0
 40
0.0
 40
0.0
 40
0.0
 40
0.2
 40
0.2
 40
0.2
 40
0.2
 40
0.4
 40
0.4
 40
0.4
 40
0.4
 40
0.6
 40
0.6
 40
0.6
 40
0.6
 40
1.0
 40
1.0
 40
1.0
 40
1.0
 10
126.0574
 20
-39.506
 30
0.0
 10
126.0574
 20
-39.506
 30
0.0
 10
122.4022
 20
-35.8509
 30
0.0
 10
122.4022
 20
-35.8509
 30
0.0
 10
122.4022
 20
-35.8509
 30
0.0
 10
122.4022
 20
-35.8509
 30
0.0
 10
126.0574
 20
-32.1957
 30
0.0
 10
126.0574
 20
-32.1957
 30
0.0
 10
126.0574
 20
-32.1957
 30
0.0
 10
126.0574
 20
-32.1957
 30
0.0
 10
129.7125
 20
-35.8509
 30
0.0
 10
129.7125
 20
-35.8509
 30
0.0
 10
129.7125
 20
-35.8509
 30
0.0
 10
129.7125
 20
-35.8509
 30
0.0
 10
126.0574
 20
-39.506
 30
0.0
 10
126.0574
 20
-39.506
 30
0.0
  0
SPLINE
  5
77
330
1F
100
AcDbEntity
  8
layer 1
 62
     7
100
AcDbSpline
210
0.0
220
0.0
230
1.0
 70
    11
 71
     3
 72
    20
 73
    16
 74
     0
 42
0.0000000001
 43
0.0000000001
 12
1.0
 22
0.0
 32
0.0
 13
1.0
 23
0.0
 33
0.0
 40
0.0
 40
0.0
 40
0.0
 40
0.0
 40
0.2
 40
0.2
 40
0.2
 40
0.2
 40
0.4
 40
0.4
 40
0.4
 40
0.4
 40
0.6
 40
0.6
 40
0.6
 40
0.6
 40
1.0
 40
1.0
 40
1.0
 40
1.0
 10
170.2639
 20
-39.506
 30
0.0
 10
170.2639
 20
-39.506
 30
0.0
 10
166.6088
 20
-35.8509
 30
0.0
 10
166.6088
 20
-35.8509
 30
0.0
 10
166.6088
 20
-35.8509
 30
0.0
 10
166.6088
 20
-35.8509
 30
0.0
 10
170.2639
 20
-32.1957
 30
0.0
 10
170.2639
 20
-32.1957
 30
0.0
 10
170.2639
 20
-32.1957
 30
0.0
 10
170.2639
 20
-32.1957
 30
0.0
 10
173.919
 20
-35.8509
 30
0.0
 10
173.919
 20
-35.8509
 30
0.0
 10
173.919
 20
-35.8509
 30
0.0
 10
173.919
 20
-35.8509
 30
0.0
 10
170.2639
 20
-39.506
 30
0.0
 10
170.2639
 20
-39.506
 30
0.0
  0
SPLINE
  5
78
330
1F
100
AcDbEntity
  8
layer 1
 62
     7
100
AcDbSpline
210
0.0
220
0.0
230
1.0
 70
    11
 71
     3
 72
    20
 73
    16
 74
     0
 42
0.0000000001
 43
0.0000000001
 12
1.0
 22
0.0
 32
0.0
 13
1.0
 23
0.0
 33
0.0
 40
0.0
 40
0.0
 40
0.0
 40
0.0
 40
0.2
 40
0.2
 40
0.2
 40
0.2
 40
0.4
 40
0.4
 40
0.4
 40
0.4
 40
0.6
 40
0.6
 40
0.6
 40
0.6
 40
1.0
 40
1.0
 40
1.0
 40
1.0
 10
141.5649
 20
-43.4589
 30
0.0
 10
141.5649
 20
-43.4589
 30
0.0
 10
133.9569
 20
-35.8509
 30
0.0
 10
133.9569
 20
-35.8509
 30
0.0
 10
133.9569
 20
-35.8509
 30
0.0
 10
133.9569
 20
-35.8509
 30
0.0
 10
141.5649
 20
-28.2428
 30
0.0
 10
141.5649
 20
-28.2428
 30
0.0
 10
141.5649
 20
-28.2428
 30
0.0
 10
141.5649
 20
-28.2428
 30
0.0
 10
149.1729
 20
-35.8509
 30
0.0
 10
149.1729
 20
-35.8509
 30
0.0
 10
149.1729
 20
-35.8509
 30
0.0
 10
149.1729
 20
-35.8509
 30
0.0
 10
141.5649
 20
-43.4589
 30
0.0
 10
141.5649
 20
-43.4589
 30
0.0
  0
SPLINE
  5
79
330
1F
100
AcDbEntity
  8
layer 1
 62
     7
100
AcDbSpline
210
0.0
220
0.0
230
1.0
 70
    11
 71
     3
 72
    20
 73
    16
 74
     0
 42
0.0000000001
 43
0.0000000001
 12
1.0
 22
0.0
 32
0.0
 13
1.0
 23
0.0
 33
0.0
 40
0.0
 40
0.0
 40
0.0
 40
0.0
 40
0.2
 40
0.2
 40
0.2
 40
0.2
 40
0.4
 40
0.4
 40
0.4
 40
0.4
 40
0.6
 40
0.6
 40
0.6
 40
0.6
 40
1.0
 40
1.0
 40
1.0
 40
1.0
 10
141.4128
 20
-55.0135
 30
0.0
 10
141.4128
 20
-55.0135
 30
0.0
 10
137.7577
 20
-51.3584
 30
0.0
 10
137.7577
 20
-51.3584
 30
0.0
 10
137.7577
 20
-51.3584
 30
0.0
 10
137.7577
 20
-51.3584
 30
0.0
 10
141.4128
 20
-47.7033
 30
0.0
 10
141.4128
 20
-47.7033
 30
0.0
 10
141.4128
 20
-47.7033
 30
0.0
 10
141.4128
 20
-47.7033
 30
0.0
 10
145.068
 20
-51.3584
 30
0.0
 10
145.068
 20
-51.3584
 30
0.0
 10
145.068
 20
-51.3584
 30
0.0
 10
145.068
 20
-51.3584
 30
0.0
 10
141.4128
 20
-55.0135
 30
0.0
 10
141.4128
 20
-55.0135
 30
0.0
  0
SPLINE
  5
7A
330
1F
100
AcDbEntity
  8
layer 1
 62
     7
100
AcDbSpline
210
0.0
220
0.0
230
1.0
 70
    11
 71
     3
 72
    20
 73
    16
 74
     0
 42
0.0000000001
 43
0.0000000001
 12
1.0
 22
0.0
 32
0.0
 13
1.0
 23
0.0
 33
0.0
 40
0.0
 40
0.0
 40
0.0
 40
0.0
 40
0.2
 40
0.2
 40
0.2
 40
0.2
 40
0.4
 40
0.4
 40
0.4
 40
0.4
 40
0.6
 40
0.6
 40
0.6
 40
0.6
 40
1.0
 40
1.0
 40
1.0
 40
1.0
 10
185.6194
 20
-55.0135
 30
0.0
 10
185.6194
 20
-55.0135
 30
0.0
 10
181.9643
 20
-51.3584
 30
0.0
 10
181.9643
 20
-51.3584
 30
0.0
 10
181.9643
 20
-51.3584
 30
0.0
 10
181.9643
 20
-51.3584
 30
0.0
 10
185.6194
 20
-47.7033
 30
0.0
 10
185.6194
 20
-47.7033
 30
0.0
 10
185.6194
 20
-47.7033
 30
0.0
 10
185.6194
 20
-47.7033
 30
0.0
 10
189.2745
 20
-51.3584
 30
0.0
 10
189.2745
 20
-51.3584
 30
0.0
 10
189.2745
 20
-51.3584
 30
0.0
 10
189.2745
 20
-51.3584
 30
0.0
 10
185.6194
 20
-55.0135
 30
0.0
 10
185.6194
 20
-55.0135
 30
0.0
  0
SPLINE
  5
7B
330
1F
100
AcDbEntity
  8
layer 1
 62
     7
100
AcDbSpline
210
0.0
220
0.0
230
1.0
 70
    11
 71
     3
 72
    20
 73
    16
 74
     0
 42
0.0000000001
 43
0.0000000001
 12
1.0
 22
0.0
 32
0.0
 13
1.0
 23
0.0
 33
0.0
 40
0.0
 40
0.0
 40
0.0
 40
0.0
 40
0.2
 40
0.2
 40
0.2
 40
0.2
 40
0.4
 40
0.4
 40
0.4
 40
0.4
 40
0.6
 40
0.6
 40
0.6
 40
0.6
 40
1.0
 40
1.0
 40
1.0
 40
1.0
 10
141.4128
 20
-23.9225
 30
0.0
 10
141.4128
 20
-23.9225
 30
0.0
 10
137.7577
 20
-20.2674
 30
0.0
 10
137.7577
 20
-20.2674
 30
0.0
 10
137.7577
 20
-20.2674
 30
0.0
 10
137.7577
 20
-20.2674
 30
0.0
 10
141.4128
 20
-16.6122
 30
0.0
 10
141.4128
 20
-16.6122
 30
0.0
 10
141.4128
 20
-16.6122
 30
0.0
 10
141.4128
 20
-16.6122
 30
0.0
 10
145.068
 20
-20.2674
 30
0.0
 10
145.068
 20
-20.2674
 30
0.0
 10
145.068
 20
-20.2674
 30
0.0
 10
145.068
 20
-20.2674
 30
0.0
 10
141.4128
 20
-23.9225
 30
0.0
 10
141.4128
 20
-23.9225
 30
0.0
  0
SPLINE
  5
7C
330
1F
100
AcDbEntity
  8
layer 1
 62
     7
100
AcDbSpline
210
0.0
220
0.0
230
1.0
 70
    11
 71
     3
 72
    20
 73
    16
 74
     0
 42
0.0000000001
 43
0.0000000001
 12
1.0
 22
0.0
 32
0.0
 13
1.0
 23
0.0
 33
0.0
 40
0.0
 40
0.0
 40
0.0
 40
0.0
 40
0.2
 40
0.2
 40
0.2
 40
0.2
 40
0.4
 40
0.4
 40
0.4
 40
0.4
 40
0.6
 40
0.6
 40
0.6
 40
0.6
 40
1.0
 40
1.0
 40
1.0
 40
1.0
 10
185.6194
 20
-23.9225
 30
0.0
 10
185.6194
 20
-23.9225
 30
0.0
 10
181.9643
 20
-20.2674
 30
0.0
 10
181.9643
 20
-20.2674
 30
0.0
 10
181.9643
 20
-20.2674
 30
0.0
 10
181.9643
 20
-20.2674
 30
0.0
 10
185.6194
 20
-16.6122
 30
0.0
 10
185.6194
 20
-16.6122
 30
0.0
 10
185.6194
 20
-16.6122
 30
0.0
 10
185.6194
 20
-16.6122
 30
0.0
 10
189.2745
 20
-20.2674
 30
0.0
 10
189.2745
 20
-20.2674
 30
0.0
 10
189.2745
 20
-20.2674
 30
0.0
 10
189.2745
 20
-20.2674
 30
0.0
 10
185.6194
 20
-23.9225
 30
0.0
 10
185.6194
 20
-23.9225
 30
0.0
  0
SPLINE
  5
7D
330
1F
100
AcDbEntity
  8
layer 1
 62
     7
100
AcDbSpline
210
0.0
220
0.0
230
1.0
 70
    11
 71
     3
 72
    24
 73
    20
 74
     0
 42
0.0000000001
 43
0.0000000001
 12
1.0
 22
0.0
 32
0.0
 13
1.0
 23
0.0
 33
0.0
 40
0.0
 40
0.0
 40
0.0
 40
0.0
 40
0.1666666666666667
 40
0.1666666666666667
 40
0.1666666666666667
 40
0.1666666666666667
 40
0.3333333333333333
 40
0.3333333333333333
 40
0.3333333333333333
 40
0.3333333333333333
 40
0.5
 40
0.5
 40
0.5
 40
0.5
 40
0.6666666666666666
 40
0.6666666666666666
 40
0.6666666666666666
 40
0.6666666666666666
 40
1.0
 40
1.0
 40
1.0
 40
1.0
 10
135.4835
 20
-49.3819
 30
0.0
 10
135.4835
 20
-49.3819
 30
0.0
 10
127.8818
 20
-49.3819
 30
0.0
 10
127.8818
 20
-49.3819
 30
0.0
 10
127.8818
 20
-49.3819
 30
0.0
 10
127.8818
 20
-49.3819
 30
0.0
 10
127.8818
 20
-41.5522
 30
0.0
 10
127.8818
 20
-41.5522
 30
0.0
 10
127.8818
 20
-41.5522
 30
0.0
 10
127.8818
 20
-41.5522
 30
0.0
 10
131.7587
 20
-37.973
 30
0.0
 10
131.7587
 20
-37.973
 30
0.0
 10
131.7587
 20
-37.973
 30
0.0
 10
131.7587
 20
-37.973
 30
0.0
 10
139.3667
 20
-45.581
 30
0.0
 10
139.3667
 20
-45.581
 30
0.0
 10
139.3667
 20
-45.581
 30
0.0
 10
139.3667
 20
-45.581
 30
0.0
 10
135.4835
 20
-49.3819
 30
0.0
 10
135.4835
 20
-49.3819
 30
0.0
  0
SPLINE
  5
7E
330
1F
100
AcDbEntity
  8
layer 1
 62
     7
100
AcDbSpline
210
0.0
220
0.0
230
1.0
 70
    11
 71
     3
 72
    24
 73
    20
 74
     0
 42
0.0000000001
 43
0.0000000001
 12
1.0
 22
0.0
 32
0.0
 13
1.0
 23
0.0
 33
0.0
 40
0.0
 40
0.0
 40
0.0
 40
0.0
 40
0.1666666666666667
 40
0.1666666666666667
 40
0.1666666666666667
 40
0.1666666666666667
 40
0.3333333333333333
 40
0.3333333333333333
 40
0.3333333333333333
 40
0.3333333333333333
 40
0.5
 40
0.5
 40
0.5
 40
0.5
 40
0.6666666666666666
 40
0.6666666666666666
 40
0.6666666666666666
 40
0.6666666666666666
 40
1.0
 40
1.0
 40
1.0
 40
1.0
 10
179.6901
 20
-49.3819
 30
0.0
 10
179.6901
 20
-49.3819
 30
0.0
 10
172.0883
 20
-49.3819
 30
0.0
 10
172.0883
 20
-49.3819
 30
0.0
 10
172.0883
 20
-49.3819
 30
0.0
 10
172.0883
 20
-49.3819
 30
0.0
 10
172.0883
 20
-41.5522
 30
0.0
 10
172.0883
 20
-41.5522
 30
0.0
 10
172.0883
 20
-41.5522
 30
0.0
 10
172.0883
 20
-41.5522
 30
0.0
 10
175.9652
 20
-37.973
 30
0.0
 10
175.9652
 20
-37.973
 30
0.0
 10
175.9652
 20
-37.973
 30
0.0
 10
175.9652
 20
-37.973
 30
0.0
 10
183.5732
 20
-45.581
 30
0.0
 10
183.5732
 20
-45.581
 30
0.0
 10
183.5732
 20
-45.581
 30
0.0
 10
183.5732
 20
-45.581
 30
0.0
 10
179.6901
 20
-49.3819
 30
0.0
 10
179.6901
 20
-49.3819
 30
0.0
  0
SPLINE
  5
7F
330
1F
100
AcDbEntity
  8
layer 1
 62
     7
100
AcDbSpline
210
0.0
220
0.0
230
1.0
 70
    11
 71
     3
 72
    24
 73
    20
 74
     0
 42
0.0000000001
 43
0.0000000001
 12
1.0
 22
0.0
 32
0.0
 13
1.0
 23
0.0
 33
0.0
 40
0.0
 40
0.0
 40
0.0
 40
0.0
 40
0.1666666666666667
 40
0.1666666666666667
 40
0.1666666666666667
 40
0.1666666666666667
 40
0.3333333333333333
 40
0.3333333333333333
 40
0.3333333333333333
 40
0.3333333333333333
 40
0.5
 40
0.5
 40
0.5
 40
0.5
 40
0.6666666666666666
 40
0.6666666666666666
 40
0.6666666666666666
 40
0.6666666666666666
 40
1.0
 40
1.0
 40
1.0
 40
1.0
 10
135.4835
 20
-22.1614
 30
0.0
 10
135.4835
 20
-22.1614
 30
0.0
 10
127.8818
 20
-22.1614
 30
0.0
 10
127.8818
 20
-22.1614
 30
0.0
 10
127.8818
 20
-22.1614
 30
0.0
 10
127.8818
 20
-22.1614
 30
0.0
 10
127.8818
 20
-29.9911
 30
0.0
 10
127.8818
 20
-29.9911
 30
0.0
 10
127.8818
 20
-29.9911
 30
0.0
 10
127.8818
 20
-29.9911
 30
0.0
 10
131.7587
 20
-33.5703
 30
0.0
 10
131.7587
 20
-33.5703
 30
0.0
 10
131.7587
 20
-33.5703
 30
0.0
 10
131.7587
 20
-33.5703
 30
0.0
 10
139.3667
 20
-25.9622
 30
0.0
 10
139.3667
 20
-25.9622
 30
0.0
 10
139.3667
 20
-25.9622
 30
0.0
 10
139.3667
 20
-25.9622
 30
0.0
 10
135.4835
 20
-22.1614
 30
0.0
 10
135.4835
 20
-22.1614
 30
0.0
  0
SPLINE
  5
80
330
1F
100
AcDbEntity
  8
layer 1
 62
     7
100
AcDbSpline
210
0.0
220
0.0
230
1.0
 70
    11
 71
     3
 72
    24
 73
    20
 74
     0
 42
0.0000000001
 43
0.0000000001
 12
1.0
 22
0.0
 32
0.0
 13
1.0
 23
0.0
 33
0.0
 40
0.0
 40
0.0
 40
0.0
 40
0.0
 40
0.1666666666666667
 40
0.1666666666666667
 40
0.1666666666666667
 40
0.1666666666666667
 40
0.3333333333333333
 40
0.3333333333333333
 40
0.3333333333333333
 40
0.3333333333333333
 40
0.5
 40
0.5
 40
0.5
 40
0.5
 40
0.6666666666666666
 40
0.6666666666666666
 40
0.6666666666666666
 40
0.6666666666666666
 40
1.0
 40
1.0
 40
1.0
 40
1.0
 10
179.6901
 20
-22.1614
 30
0.0
 10
179.6901
 20
-22.1614
 30
0.0
 10
172.0883
 20
-22.1614
 30
0.0
 10
172.0883
 20
-22.1614
 30
0.0
 10
172.0883
 20
-22.1614
 30
0.0
 10
172.0883
 20
-22.1614
 30
0.0
 10
172.0883
 20
-29.9911
 30
0.0
 10
172.0883
 20
-29.9911
 30
0.0
 10
172.0883
 20
-29.9911
 30
0.0
 10
172.0883
 20
-29.9911
 30
0.0
 10
175.9652
 20
-33.5703
 30
0.0
 10
175.9652
 20
-33.5703
 30
0.0
 10
175.9652
 20
-33.5703
 30
0.0
 10
175.9652
 20
-33.5703
 30
0.0
 10
183.5732
 20
-25.9622
 30
0.0
 10
183.5732
 20
-25.9622
 30
0.0
 10
183.5732
 20
-25.9622
 30
0.0
 10
183.5732
 20
-25.9622
 30
0.0
 10
179.6901
 20
-22.1614
 30
0.0
 10
179.6901
 20
-22.1614
 30
0.0
  0
SPLINE
  5
81
330
1F
100
AcDbEntity
  8
layer 1
 62
     7
100
AcDbSpline
210
0.0
220
0.0
230
1.0
 70
    11
 71
     3
 72
    24
 73
    20
 74
     0
 42
0.0000000001
 43
0.0000000001
 12
1.0
 22
0.0
 32
0.0
 13
1.0
 23
0.0
 33
0.0
 40
0.0
 40
0.0
 40
0.0
 40
0.0
 40
0.1666666666666667
 40
0.1666666666666667
 40
0.1666666666666667
 40
0.1666666666666667
 40
0.3333333333333333
 40
0.3333333333333333
 40
0.3333333333333333
 40
0.3333333333333333
 40
0.5
 40
0.5
 40
0.5
 40
0.5
 40
0.6666666666666666
 40
0.6666666666666666
 40
0.6666666666666666
 40
0.6666666666666666
 40
1.0
 40
1.0
 40
1.0
 40
1.0
 10
147.3486
 20
-49.3819
 30
0.0
 10
147.3486
 20
-49.3819
 30
0.0
 10
154.9503
 20
-49.3819
 30
0.0
 10
154.9503
 20
-49.3819
 30
0.0
 10
154.9503
 20
-49.3819
 30
0.0
 10
154.9503
 20
-49.3819
 30
0.0
 10
154.9503
 20
-41.5522
 30
0.0
 10
154.9503
 20
-41.5522
 30
0.0
 10
154.9503
 20
-41.5522
 30
0.0
 10
154.9503
 20
-41.5522
 30
0.0
 10
151.0734
 20
-37.973
 30
0.0
 10
151.0734
 20
-37.973
 30
0.0
 10
151.0734
 20
-37.973
 30
0.0
 10
151.0734
 20
-37.973
 30
0.0
 10
143.4654
 20
-45.581
 30
0.0
 10
143.4654
 20
-45.581
 30
0.0
 10
143.4654
 20
-45.581
 30
0.0
 10
143.4654
 20
-45.581
 30
0.0
 10
147.3486
 20
-49.3819
 30
0.0
 10
147.3486
 20
-49.3819
 30
0.0
  0
SPLINE
  5
82
330
1F
100
AcDbEntity
  8
layer 1
 62
     7
100
AcDbSpline
210
0.0
220
0.0
230
1.0
 70
    11
 71
     3
 72
    24
 73
    20
 74
     0
 42
0.0000000001
 43
0.0000000001
 12
1.0
 22
0.0
 32
0.0
 13
1.0
 23
0.0
 33
0.0
 40
0.0
 40
0.0
 40
0.0
 40
0.0
 40
0.1666666666666667
 40
0.1666666666666667
 40
0.1666666666666667
 40
0.1666666666666667
 40
0.3333333333333333
 40
0.3333333333333333
 40
0.3333333333333333
 40
0.3333333333333333
 40
0.5
 40
0.5
 40
0.5
 40
0.5
 40
0.6666666666666666
 40
0.6666666666666666
 40
0.6666666666666666
 40
0.6666666666666666
 40
1.0
 40
1.0
 40
1.0
 40
1.0
 10
147.3486
 20
-22.1614
 30
0.0
 10
147.3486
 20
-22.1614
 30
0.0
 10
154.9503
 20
-22.1614
 30
0.0
 10
154.9503
 20
-22.1614
 30
0.0
 10
154.9503
 20
-22.1614
 30
0.0
 10
154.9503
 20
-22.1614
 30
0.0
 10
154.9503
 20
-29.9911
 30
0.0
 10
154.9503
 20
-29.9911
 30
0.0
 10
154.9503
 20
-29.9911
 30
0.0
 10
154.9503
 20
-29.9911
 30
0.0
 10
151.0734
 20
-33.5703
 30
0.0
 10
151.0734
 20
-33.5703
 30
0.0
 10
151.0734
 20
-33.5703
 30
0.0
 10
151.0734
 20
-33.5703
 30
0.0
 10
143.4654
 20
-25.9622
 30
0.0
 10
143.4654
 20
-25.9622
 30
0.0
 10
143.4654
 20
-25.9622
 30
0.0
 10
143.4654
 20
-25.9622
 30
0.0
 10
147.3486
 20
-22.1614
 30
0.0
 10
147.3486
 20
-22.1614
 30
0.0
  0
SPLINE
  5
83
330
1F
100
AcDbEntity
  8
layer 1
 62
     7
100
AcDbSpline
210
0.0
220
0.0
230
1.0
 70
    11
 71
     3
 72
    20
 73
    16
 74
     0
 42
0.0000000001
 43
0.0000000001
 12
1.0
 22
0.0
 32
0.0
 13
1.0
 23
0.0
 33
0.0
 40
0.0
 40
0.0
 40
0.0
 40
0.0
 40
0.2
 40
0.2
 40
0.2
 40
0.2
 40
0.4
 40
0.4
 40
0.4
 40
0.4
 40
0.6
 40
0.6
 40
0.6
 40
0.6
 40
1.0
 40
1.0
 40
1.0
 40
1.0
 10
156.9965
 20
-39.506
 30
0.0
 10
156.9965
 20
-39.506
 30
0.0
 10
153.3413
 20
-35.8509
 30
0.0
 10
153.3413
 20
-35.8509
 30
0.0
 10
153.3413
 20
-35.8509
 30
0.0
 10
153.3413
 20
-35.8509
 30
0.0
 10
156.9965
 20
-32.1957
 30
0.0
 10
156.9965
 20
-32.1957
 30
0.0
 10
156.9965
 20
-32.1957
 30
0.0
 10
156.9965
 20
-32.1957
 30
0.0
 10
160.6516
 20
-35.8509
 30
0.0
 10
160.6516
 20
-35.8509
 30
0.0
 10
160.6516
 20
-35.8509
 30
0.0
 10
160.6516
 20
-35.8509
 30
0.0
 10
156.9965
 20
-39.506
 30
0.0
 10
156.9965
 20
-39.506
 30
0.0
  0
SPLINE
  5
84
330
1F
100
AcDbEntity
  8
layer 1
 62
     7
100
AcDbSpline
210
0.0
220
0.0
230
1.0
 70
    11
 71
     3
 72
    20
 73
    16
 74
     0
 42
0.0000000001
 43
0.0000000001
 12
1.0
 22
0.0
 32
0.0
 13
1.0
 23
0.0
 33
0.0
 40
0.0
 40
0.0
 40
0.0
 40
0.0
 40
0.2
 40
0.2
 40
0.2
 40
0.2
 40
0.4
 40
0.4
 40
0.4
 40
0.4
 40
0.6
 40
0.6
 40
0.6
 40
0.6
 40
1.0
 40
1.0
 40
1.0
 40
1.0
 10
126.0574
 20
-83.8252
 30
0.0
 10
126.0574
 20
-83.8252
 30
0.0
 10
122.4022
 20
-80.1701
 30
0.0
 10
122.4022
 20
-80.1701
 30
0.0
 10
122.4022
 20
-80.1701
 30
0.0
 10
122.4022
 20
-80.1701
 30
0.0
 10
126.0574
 20
-76.5149
 30
0.0
 10
126.0574
 20
-76.5149
 30
0.0
 10
126.0574
 20
-76.5149
 30
0.0
 10
126.0574
 20
-76.5149
 30
0.0
 10
129.7125
 20
-80.1701
 30
0.0
 10
129.7125
 20
-80.1701
 30
0.0
 10
129.7125
 20
-80.1701
 30
0.0
 10
129.7125
 20
-80.1701
 30
0.0
 10
126.0574
 20
-83.8252
 30
0.0
 10
126.0574
 20
-83.8252
 30
0.0
  0
SPLINE
  5
85
330
1F
100
AcDbEntity
  8
layer 1
 62
     7
100
AcDbSpline
210
0.0
220
0.0
230
1.0
 70
    11
 71
     3
 72
    20
 73
    16
 74
     0
 42
0.0000000001
 43
0.0000000001
 12
1.0
 22
0.0
 32
0.0
 13
1.0
 23
0.0
 33
0.0
 40
0.0
 40
0.0
 40
0.0
 40
0.0
 40
0.2
 40
0.2
 40
0.2
 40
0.2
 40
0.4
 40
0.4
 40
0.4
 40
0.4
 40
0.6
 40
0.6
 40
0.6
 40
0.6
 40
1.0
 40
1.0
 40
1.0
 40
1.0
 10
170.2639
 20
-83.8252
 30
0.0
 10
170.2639
 20
-83.8252
 30
0.0
 10
166.6088
 20
-80.1701
 30
0.0
 10
166.6088
 20
-80.1701
 30
0.0
 10
166.6088
 20
-80.1701
 30
0.0
 10
166.6088
 20
-80.1701
 30
0.0
 10
170.2639
 20
-76.5149
 30
0.0
 10
170.2639
 20
-76.5149
 30
0.0
 10
170.2639
 20
-76.5149
 30
0.0
 10
170.2639
 20
-76.5149
 30
0.0
 10
173.919
 20
-80.1701
 30
0.0
 10
173.919
 20
-80.1701
 30
0.0
 10
173.919
 20
-80.1701
 30
0.0
 10
173.919
 20
-80.1701
 30
0.0
 10
170.2639
 20
-83.8252
 30
0.0
 10
170.2639
 20
-83.8252
 30
0.0
  0
SPLINE
  5
86
330
1F
100
AcDbEntity
  8
layer 1
 62
     7
100
AcDbSpline
210
0.0
220
0.0
230
1.0
 70
    11
 71
     3
 72
    20
 73
    16
 74
     0
 42
0.0000000001
 43
0.0000000001
 12
1.0
 22
0.0
 32
0.0
 13
1.0
 23
0.0
 33
0.0
 40
0.0
 40
0.0
 40
0.0
 40
0.0
 40
0.2
 40
0.2
 40
0.2
 40
0.2
 40
0.4
 40
0.4
 40
0.4
 40
0.4
 40
0.6
 40
0.6
 40
0.6
 40
0.6
 40
1.0
 40
1.0
 40
1.0
 40
1.0
 10
141.5649
 20
-87.7781
 30
0.0
 10
141.5649
 20
-87.7781
 30
0.0
 10
133.9569
 20
-80.1701
 30
0.0
 10
133.9569
 20
-80.1701
 30
0.0
 10
133.9569
 20
-80.1701
 30
0.0
 10
133.9569
 20
-80.1701
 30
0.0
 10
141.5649
 20
-72.562
 30
0.0
 10
141.5649
 20
-72.562
 30
0.0
 10
141.5649
 20
-72.562
 30
0.0
 10
141.5649
 20
-72.562
 30
0.0
 10
149.1729
 20
-80.1701
 30
0.0
 10
149.1729
 20
-80.1701
 30
0.0
 10
149.1729
 20
-80.1701
 30
0.0
 10
149.1729
 20
-80.1701
 30
0.0
 10
141.5649
 20
-87.7781
 30
0.0
 10
141.5649
 20
-87.7781
 30
0.0
  0
SPLINE
  5
87
330
1F
100
AcDbEntity
  8
layer 1
 62
     7
100
AcDbSpline
210
0.0
220
0.0
230
1.0
 70
    11
 71
     3
 72
    24
 73
    20
 74
     0
 42
0.0000000001
 43
0.0000000001
 12
1.0
 22
0.0
 32
0.0
 13
1.0
 23
0.0
 33
0.0
 40
0.0
 40
0.0
 40
0.0
 40
0.0
 40
0.1666666666666667
 40
0.1666666666666667
 40
0.1666666666666667
 40
0.1666666666666667
 40
0.3333333333333333
 40
0.3333333333333333
 40
0.3333333333333333
 40
0.3333333333333333
 40
0.5
 40
0.5
 40
0.5
 40
0.5
 40
0.6666666666666666
 40
0.6666666666666666
 40
0.6666666666666666
 40
0.6666666666666666
 40
1.0
 40
1.0
 40
1.0
 40
1.0
 10
185.7714
 20
-87.7781
 30
0.0
 10
185.7714
 20
-87.7781
 30
0.0
 10
178.1634
 20
-80.1701
 30
0.0
 10
178.1634
 20
-80.1701
 30
0.0
 10
178.1634
 20
-80.1701
 30
0.0
 10
178.1634
 20
-80.1701
 30
0.0
 10
185.7714
 20
-72.562
 30
0.0
 10
185.7714
 20
-72.562
 30
0.0
 10
185.7714
 20
-72.562
 30
0.0
 10
185.7714
 20
-72.562
 30
0.0
 10
191.6046
 20
-78.3952
 30
0.0
 10
191.6046
 20
-78.3952
 30
0.0
 10
191.6046
 20
-78.3952
 30
0.0
 10
191.6046
 20
-78.3952
 30
0.0
 10
191.6007
 20
-81.9488
 30
0.0
 10
191.6007
 20
-81.9488
 30
0.0
 10
191.6007
 20
-81.9488
 30
0.0
 10
191.6007
 20
-81.9488
 30
0.0
 10
185.7714
 20
-87.7781
 30
0.0
 10
185.7714
 20
-87.7781
 30
0.0
  0
SPLINE
  5
88
330
1F
100
AcDbEntity
  8
layer 1
 62
     7
100
AcDbSpline
210
0.0
220
0.0
230
1.0
 70
    11
 71
     3
 72
    20
 73
    16
 74
     0
 42
0.0000000001
 43
0.0000000001
 12
1.0
 22
0.0
 32
0.0
 13
1.0
 23
0.0
 33
0.0
 40
0.0
 40
0.0
 40
0.0
 40
0.0
 40
0.2
 40
0.2
 40
0.2
 40
0.2
 40
0.4
 40
0.4
 40
0.4
 40
0.4
 40
0.6
 40
0.6
 40
0.6
 40
0.6
 40
1.0
 40
1.0
 40
1.0
 40
1.0
 10
141.4128
 20
-99.3327
 30
0.0
 10
141.4128
 20
-99.3327
 30
0.0
 10
137.7577
 20
-95.6776
 30
0.0
 10
137.7577
 20
-95.6776
 30
0.0
 10
137.7577
 20
-95.6776
 30
0.0
 10
137.7577
 20
-95.6776
 30
0.0
 10
141.4128
 20
-92.0225
 30
0.0
 10
141.4128
 20
-92.0225
 30
0.0
 10
141.4128
 20
-92.0225
 30
0.0
 10
141.4128
 20
-92.0225
 30
0.0
 10
145.068
 20
-95.6776
 30
0.0
 10
145.068
 20
-95.6776
 30
0.0
 10
145.068
 20
-95.6776
 30
0.0
 10
145.068
 20
-95.6776
 30
0.0
 10
141.4128
 20
-99.3327
 30
0.0
 10
141.4128
 20
-99.3327
 30
0.0
  0
SPLINE
  5
89
330
1F
100
AcDbEntity
  8
layer 1
 62
     7
100
AcDbSpline
210
0.0
220
0.0
230
1.0
 70
    11
 71
     3
 72
    20
 73
    16
 74
     0
 42
0.0000000001
 43
0.0000000001
 12
1.0
 22
0.0
 32
0.0
 13
1.0
 23
0.0
 33
0.0
 40
0.0
 40
0.0
 40
0.0
 40
0.0
 40
0.2
 40
0.2
 40
0.2
 40
0.2
 40
0.4
 40
0.4
 40
0.4
 40
0.4
 40
0.6
 40
0.6
 40
0.6
 40
0.6
 40
1.0
 40
1.0
 40
1.0
 40
1.0
 10
185.6194
 20
-99.3327
 30
0.0
 10
185.6194
 20
-99.3327
 30
0.0
 10
181.9643
 20
-95.6776
 30
0.0
 10
181.9643
 20
-95.6776
 30
0.0
 10
181.9643
 20
-95.6776
 30
0.0
 10
181.9643
 20
-95.6776
 30
0.0
 10
185.6194
 20
-92.0225
 30
0.0
 10
185.6194
 20
-92.0225
 30
0.0
 10
185.6194
 20
-92.0225
 30
0.0
 10
185.6194
 20
-92.0225
 30
0.0
 10
189.2745
 20
-95.6776
 30
0.0
 10
189.2745
 20
-95.6776
 30
0.0
 10
189.2745
 20
-95.6776
 30
0.0
 10
189.2745
 20
-95.6776
 30
0.0
 10
185.6194
 20
-99.3327
 30
0.0
 10
185.6194
 20
-99.3327
 30
0.0
  0
SPLINE
  5
8A
330
1F
100
AcDbEntity
  8
layer 1
 62
     7
100
AcDbSpline
210
0.0
220
0.0
230
1.0
 70
    11
 71
     3
 72
    20
 73
    16
 74
     0
 42
0.0000000001
 43
0.0000000001
 12
1.0
 22
0.0
 32
0.0
 13
1.0
 23
0.0
 33
0.0
 40
0.0
 40
0.0
 40
0.0
 40
0.0
 40
0.2
 40
0.2
 40
0.2
 40
0.2
 40
0.4
 40
0.4
 40
0.4
 40
0.4
 40
0.6
 40
0.6
 40
0.6
 40
0.6
 40
1.0
 40
1.0
 40
1.0
 40
1.0
 10
141.4128
 20
-68.2417
 30
0.0
 10
141.4128
 20
-68.2417
 30
0.0
 10
137.7577
 20
-64.5865
 30
0.0
 10
137.7577
 20
-64.5865
 30
0.0
 10
137.7577
 20
-64.5865
 30
0.0
 10
137.7577
 20
-64.5865
 30
0.0
 10
141.4128
 20
-60.9314
 30
0.0
 10
141.4128
 20
-60.9314
 30
0.0
 10
141.4128
 20
-60.9314
 30
0.0
 10
141.4128
 20
-60.9314
 30
0.0
 10
145.068
 20
-64.5865
 30
0.0
 10
145.068
 20
-64.5865
 30
0.0
 10
145.068
 20
-64.5865
 30
0.0
 10
145.068
 20
-64.5865
 30
0.0
 10
141.4128
 20
-68.2417
 30
0.0
 10
141.4128
 20
-68.2417
 30
0.0
  0
SPLINE
  5
8B
330
1F
100
AcDbEntity
  8
layer 1
 62
     7
100
AcDbSpline
210
0.0
220
0.0
230
1.0
 70
    11
 71
     3
 72
    20
 73
    16
 74
     0
 42
0.0000000001
 43
0.0000000001
 12
1.0
 22
0.0
 32
0.0
 13
1.0
 23
0.0
 33
0.0
 40
0.0
 40
0.0
 40
0.0
 40
0.0
 40
0.2
 40
0.2
 40
0.2
 40
0.2
 40
0.4
 40
0.4
 40
0.4
 40
0.4
 40
0.6
 40
0.6
 40
0.6
 40
0.6
 40
1.0
 40
1.0
 40
1.0
 40
1.0
 10
185.6194
 20
-68.2417
 30
0.0
 10
185.6194
 20
-68.2417
 30
0.0
 10
181.9643
 20
-64.5865
 30
0.0
 10
181.9643
 20
-64.5865
 30
0.0
 10
181.9643
 20
-64.5865
 30
0.0
 10
181.9643
 20
-64.5865
 30
0.0
 10
185.6194
 20
-60.9314
 30
0.0
 10
185.6194
 20
-60.9314
 30
0.0
 10
185.6194
 20
-60.9314
 30
0.0
 10
185.6194
 20
-60.9314
 30
0.0
 10
189.2745
 20
-64.5865
 30
0.0
 10
189.2745
 20
-64.5865
 30
0.0
 10
189.2745
 20
-64.5865
 30
0.0
 10
189.2745
 20
-64.5865
 30
0.0
 10
185.6194
 20
-68.2417
 30
0.0
 10
185.6194
 20
-68.2417
 30
0.0
  0
SPLINE
  5
8C
330
1F
100
AcDbEntity
  8
layer 1
 62
     7
100
AcDbSpline
210
0.0
220
0.0
230
1.0
 70
    11
 71
     3
 72
    24
 73
    20
 74
     0
 42
0.0000000001
 43
0.0000000001
 12
1.0
 22
0.0
 32
0.0
 13
1.0
 23
0.0
 33
0.0
 40
0.0
 40
0.0
 40
0.0
 40
0.0
 40
0.1666666666666667
 40
0.1666666666666667
 40
0.1666666666666667
 40
0.1666666666666667
 40
0.3333333333333333
 40
0.3333333333333333
 40
0.3333333333333333
 40
0.3333333333333333
 40
0.5
 40
0.5
 40
0.5
 40
0.5
 40
0.6666666666666666
 40
0.6666666666666666
 40
0.6666666666666666
 40
0.6666666666666666
 40
1.0
 40
1.0
 40
1.0
 40
1.0
 10
135.4835
 20
-93.7011
 30
0.0
 10
135.4835
 20
-93.7011
 30
0.0
 10
127.8818
 20
-93.7011
 30
0.0
 10
127.8818
 20
-93.7011
 30
0.0
 10
127.8818
 20
-93.7011
 30
0.0
 10
127.8818
 20
-93.7011
 30
0.0
 10
127.8818
 20
-85.8713
 30
0.0
 10
127.8818
 20
-85.8713
 30
0.0
 10
127.8818
 20
-85.8713
 30
0.0
 10
127.8818
 20
-85.8713
 30
0.0
 10
131.7587
 20
-82.2922
 30
0.0
 10
131.7587
 20
-82.2922
 30
0.0
 10
131.7587
 20
-82.2922
 30
0.0
 10
131.7587
 20
-82.2922
 30
0.0
 10
139.3667
 20
-89.9002
 30
0.0
 10
139.3667
 20
-89.9002
 30
0.0
 10
139.3667
 20
-89.9002
 30
0.0
 10
139.3667
 20
-89.9002
 30
0.0
 10
135.4835
 20
-93.7011
 30
0.0
 10
135.4835
 20
-93.7011
 30
0.0
  0
SPLINE
  5
8D
330
1F
100
AcDbEntity
  8
layer 1
 62
     7
100
AcDbSpline
210
0.0
220
0.0
230
1.0
 70
    11
 71
     3
 72
    24
 73
    20
 74
     0
 42
0.0000000001
 43
0.0000000001
 12
1.0
 22
0.0
 32
0.0
 13
1.0
 23
0.0
 33
0.0
 40
0.0
 40
0.0
 40
0.0
 40
0.0
 40
0.1666666666666667
 40
0.1666666666666667
 40
0.1666666666666667
 40
0.1666666666666667
 40
0.3333333333333333
 40
0.3333333333333333
 40
0.3333333333333333
 40
0.3333333333333333
 40
0.5
 40
0.5
 40
0.5
 40
0.5
 40
0.6666666666666666
 40
0.6666666666666666
 40
0.6666666666666666
 40
0.6666666666666666
 40
1.0
 40
1.0
 40
1.0
 40
1.0
 10
179.6901
 20
-93.7011
 30
0.0
 10
179.6901
 20
-93.7011
 30
0.0
 10
172.0883
 20
-93.7011
 30
0.0
 10
172.0883
 20
-93.7011
 30
0.0
 10
172.0883
 20
-93.7011
 30
0.0
 10
172.0883
 20
-93.7011
 30
0.0
 10
172.0883
 20
-85.8713
 30
0.0
 10
172.0883
 20
-85.8713
 30
0.0
 10
172.0883
 20
-85.8713
 30
0.0
 10
172.0883
 20
-85.8713
 30
0.0
 10
175.9652
 20
-82.2922
 30
0.0
 10
175.9652
 20
-82.2922
 30
0.0
 10
175.9652
 20
-82.2922
 30
0.0
 10
175.9652
 20
-82.2922
 30
0.0
 10
183.5732
 20
-89.9002
 30
0.0
 10
183.5732
 20
-89.9002
 30
0.0
 10
183.5732
 20
-89.9002
 30
0.0
 10
183.5732
 20
-89.9002
 30
0.0
 10
179.6901
 20
-93.7011
 30
0.0
 10
179.6901
 20
-93.7011
 30
0.0
  0
SPLINE
  5
8E
330
1F
100
AcDbEntity
  8
layer 1
 62
     7
100
AcDbSpline
210
0.0
220
0.0
230
1.0
 70
    11
 71
     3
 72
    24
 73
    20
 74
     0
 42
0.0000000001
 43
0.0000000001
 12
1.0
 22
0.0
 32
0.0
 13
1.0
 23
0.0
 33
0.0
 40
0.0
 40
0.0
 40
0.0
 40
0.0
 40
0.1666666666666667
 40
0.1666666666666667
 40
0.1666666666666667
 40
0.1666666666666667
 40
0.3333333333333333
 40
0.3333333333333333
 40
0.3333333333333333
 40
0.3333333333333333
 40
0.5
 40
0.5
 40
0.5
 40
0.5
 40
0.6666666666666666
 40
0.6666666666666666
 40
0.6666666666666666
 40
0.6666666666666666
 40
1.0
 40
1.0
 40
1.0
 40
1.0
 10
135.4835
 20
-66.4806
 30
0.0
 10
135.4835
 20
-66.4806
 30
0.0
 10
127.8818
 20
-66.4806
 30
0.0
 10
127.8818
 20
-66.4806
 30
0.0
 10
127.8818
 20
-66.4806
 30
0.0
 10
127.8818
 20
-66.4806
 30
0.0
 10
127.8818
 20
-74.3103
 30
0.0
 10
127.8818
 20
-74.3103
 30
0.0
 10
127.8818
 20
-74.3103
 30
0.0
 10
127.8818
 20
-74.3103
 30
0.0
 10
131.7587
 20
-77.8895
 30
0.0
 10
131.7587
 20
-77.8895
 30
0.0
 10
131.7587
 20
-77.8895
 30
0.0
 10
131.7587
 20
-77.8895
 30
0.0
 10
139.3667
 20
-70.2814
 30
0.0
 10
139.3667
 20
-70.2814
 30
0.0
 10
139.3667
 20
-70.2814
 30
0.0
 10
139.3667
 20
-70.2814
 30
0.0
 10
135.4835
 20
-66.4806
 30
0.0
 10
135.4835
 20
-66.4806
 30
0.0
  0
SPLINE
  5
8F
330
1F
100
AcDbEntity
  8
layer 1
 62
     7
100
AcDbSpline
210
0.0
220
0.0
230
1.0
 70
    11
 71
     3
 72
    24
 73
    20
 74
     0
 42
0.0000000001
 43
0.0000000001
 12
1.0
 22
0.0
 32
0.0
 13
1.0
 23
0.0
 33
0.0
 40
0.0
 40
0.0
 40
0.0
 40
0.0
 40
0.1666666666666667
 40
0.1666666666666667
 40
0.1666666666666667
 40
0.1666666666666667
 40
0.3333333333333333
 40
0.3333333333333333
 40
0.3333333333333333
 40
0.3333333333333333
 40
0.5
 40
0.5
 40
0.5
 40
0.5
 40
0.6666666666666666
 40
0.6666666666666666
 40
0.6666666666666666
 40
0.6666666666666666
 40
1.0
 40
1.0
 40
1.0
 40
1.0
 10
179.6901
 20
-66.4806
 30
0.0
 10
179.6901
 20
-66.4806
 30
0.0
 10
172.0883
 20
-66.4806
 30
0.0
 10
172.0883
 20
-66.4806
 30
0.0
 10
172.0883
 20
-66.4806
 30
0.0
 10
172.0883
 20
-66.4806
 30
0.0
 10
172.0883
 20
-74.3103
 30
0.0
 10
172.0883
 20
-74.3103
 30
0.0
 10
172.0883
 20
-74.3103
 30
0.0
 10
172.0883
 20
-74.3103
 30
0.0
 10
175.9652
 20
-77.8895
 30
0.0
 10
175.9652
 20
-77.8895
 30
0.0
 10
175.9652
 20
-77.8895
 30
0.0
 10
175.9652
 20
-77.8895
 30
0.0
 10
183.5732
 20
-70.2814
 30
0.0
 10
183.5732
 20
-70.2814
 30
0.0
 10
183.5732
 20
-70.2814
 30
0.0
 10
183.5732
 20
-70.2814
 30
0.0
 10
179.6901
 20
-66.4806
 30
0.0
 10
179.6901
 20
-66.4806
 30
0.0
  0
SPLINE
  5
90
330
1F
100
AcDbEntity
  8
layer 1
 62
     7
100
AcDbSpline
210
0.0
220
0.0
230
1.0
 70
    11
 71
     3
 72
    24
 73
    20
 74
     0
 42
0.0000000001
 43
0.0000000001
 12
1.0
 22
0.0
 32
0.0
 13
1.0
 23
0.0
 33
0.0
 40
0.0
 40
0.0
 40
0.0
 40
0.0
 40
0.1666666666666667
 40
0.1666666666666667
 40
0.1666666666666667
 40
0.1666666666666667
 40
0.3333333333333333
 40
0.3333333333333333
 40
0.3333333333333333
 40
0.3333333333333333
 40
0.5
 40
0.5
 40
0.5
 40
0.5
 40
0.6666666666666666
 40
0.6666666666666666
 40
0.6666666666666666
 40
0.6666666666666666
 40
1.0
 40
1.0
 40
1.0
 40
1.0
 10
147.3486
 20
-93.7011
 30
0.0
 10
147.3486
 20
-93.7011
 30
0.0
 10
154.9503
 20
-93.7011
 30
0.0
 10
154.9503
 20
-93.7011
 30
0.0
 10
154.9503
 20
-93.7011
 30
0.0
 10
154.9503
 20
-93.7011
 30
0.0
 10
154.9503
 20
-85.8713
 30
0.0
 10
154.9503
 20
-85.8713
 30
0.0
 10
154.9503
 20
-85.8713
 30
0.0
 10
154.9503
 20
-85.8713
 30
0.0
 10
151.0734
 20
-82.2922
 30
0.0
 10
151.0734
 20
-82.2922
 30
0.0
 10
151.0734
 20
-82.2922
 30
0.0
 10
151.0734
 20
-82.2922
 30
0.0
 10
143.4654
 20
-89.9002
 30
0.0
 10
143.4654
 20
-89.9002
 30
0.0
 10
143.4654
 20
-89.9002
 30
0.0
 10
143.4654
 20
-89.9002
 30
0.0
 10
147.3486
 20
-93.7011
 30
0.0
 10
147.3486
 20
-93.7011
 30
0.0
  0
SPLINE
  5
91
330
1F
100
AcDbEntity
  8
layer 1
 62
     7
100
AcDbSpline
210
0.0
220
0.0
230
1.0
 70
    11
 71
     3
 72
    16
 73
    12
 74
     0
 42
0.0000000001
 43
0.0000000001
 12
1.0
 22
0.0
 32
0.0
 13
1.0
 23
0.0
 33
0.0
 40
0.0
 40
0.0
 40
0.0
 40
0.0
 40
0.25
 40
0.25
 40
0.25
 40
0.25
 40
0.5
 40
0.5
 40
0.5
 40
0.5
 40
1.0
 40
1.0
 40
1.0
 40
1.0
 10
191.5551
 20
-93.7011
 30
0.0
 10
191.5551
 20
-93.7011
 30
0.0
 10
191.5876
 20
-85.9845
 30
0.0
 10
191.5876
 20
-85.9845
 30
0.0
 10
191.5876
 20
-85.9845
 30
0.0
 10
191.5876
 20
-85.9845
 30
0.0
 10
187.6719
 20
-89.9002
 30
0.0
 10
187.6719
 20
-89.9002
 30
0.0
 10
187.6719
 20
-89.9002
 30
0.0
 10
187.6719
 20
-89.9002
 30
0.0
 10
191.5551
 20
-93.7011
 30
0.0
 10
191.5551
 20
-93.7011
 30
0.0
  0
SPLINE
  5
92
330
1F
100
AcDbEntity
  8
layer 1
 62
     7
100
AcDbSpline
210
0.0
220
0.0
230
1.0
 70
    11
 71
     3
 72
    24
 73
    20
 74
     0
 42
0.0000000001
 43
0.0000000001
 12
1.0
 22
0.0
 32
0.0
 13
1.0
 23
0.0
 33
0.0
 40
0.0
 40
0.0
 40
0.0
 40
0.0
 40
0.1666666666666667
 40
0.1666666666666667
 40
0.1666666666666667
 40
0.1666666666666667
 40
0.3333333333333333
 40
0.3333333333333333
 40
0.3333333333333333
 40
0.3333333333333333
 40
0.5
 40
0.5
 40
0.5
 40
0.5
 40
0.6666666666666666
 40
0.6666666666666666
 40
0.6666666666666666
 40
0.6666666666666666
 40
1.0
 40
1.0
 40
1.0
 40
1.0
 10
147.3486
 20
-66.4806
 30
0.0
 10
147.3486
 20
-66.4806
 30
0.0
 10
154.9503
 20
-66.4806
 30
0.0
 10
154.9503
 20
-66.4806
 30
0.0
 10
154.9503
 20
-66.4806
 30
0.0
 10
154.9503
 20
-66.4806
 30
0.0
 10
154.9503
 20
-74.3103
 30
0.0
 10
154.9503
 20
-74.3103
 30
0.0
 10
154.9503
 20
-74.3103
 30
0.0
 10
154.9503
 20
-74.3103
 30
0.0
 10
151.0734
 20
-77.8895
 30
0.0
 10
151.0734
 20
-77.8895
 30
0.0
 10
151.0734
 20
-77.8895
 30
0.0
 10
151.0734
 20
-77.8895
 30
0.0
 10
143.4654
 20
-70.2814
 30
0.0
 10
143.4654
 20
-70.2814
 30
0.0
 10
143.4654
 20
-70.2814
 30
0.0
 10
143.4654
 20
-70.2814
 30
0.0
 10
147.3486
 20
-66.4806
 30
0.0
 10
147.3486
 20
-66.4806
 30
0.0
  0
SPLINE
  5
93
330
1F
100
AcDbEntity
  8
layer 1
 62
     7
100
AcDbSpline
210
0.0
220
0.0
230
1.0
 70
    11
 71
     3
 72
    20
 73
    16
 74
     0
 42
0.0000000001
 43
0.0000000001
 12
1.0
 22
0.0
 32
0.0
 13
1.0
 23
0.0
 33
0.0
 40
0.0
 40
0.0
 40
0.0
 40
0.0
 40
0.2
 40
0.2
 40
0.2
 40
0.2
 40
0.4
 40
0.4
 40
0.4
 40
0.4
 40
0.6
 40
0.6
 40
0.6
 40
0.6
 40
1.0
 40
1.0
 40
1.0
 40
1.0
 10
156.9965
 20
-83.8252
 30
0.0
 10
156.9965
 20
-83.8252
 30
0.0
 10
153.3413
 20
-80.1701
 30
0.0
 10
153.3413
 20
-80.1701
 30
0.0
 10
153.3413
 20
-80.1701
 30
0.0
 10
153.3413
 20
-80.1701
 30
0.0
 10
156.9965
 20
-76.5149
 30
0.0
 10
156.9965
 20
-76.5149
 30
0.0
 10
156.9965
 20
-76.5149
 30
0.0
 10
156.9965
 20
-76.5149
 30
0.0
 10
160.6516
 20
-80.1701
 30
0.0
 10
160.6516
 20
-80.1701
 30
0.0
 10
160.6516
 20
-80.1701
 30
0.0
 10
160.6516
 20
-80.1701
 30
0.0
 10
156.9965
 20
-83.8252
 30
0.0
 10
156.9965
 20
-83.8252
 30
0.0
  0
SPLINE
  5
94
330
1F
100
AcDbEntity
  8
layer 1
 62
     7
100
AcDbSpline
210
0.0
220
0.0
230
1.0
 70
    11
 71
     3
 72
    68
 73
    64
 74
     0
 42
0.0000000001
 43
0.0000000001
 12
1.0
 22
0.0
 32
0.0
 13
1.0
 23
0.0
 33
0.0
 40
0.0
 40
0.0
 40
0.0
 40
0.0
 40
0.0588235294117647
 40
0.0588235294117647
 40
0.0588235294117647
 40
0.0588235294117647
 40
0.1176470588235294
 40
0.1176470588235294
 40
0.1176470588235294
 40
0.1176470588235294
 40
0.1764705882352941
 40
0.1764705882352941
 40
0.1764705882352941
 40
0.1764705882352941
 40
0.2352941176470588
 40
0.2352941176470588
 40
0.2352941176470588
 40
0.2352941176470588
 40
0.2941176470588235
 40
0.2941176470588235
 40
0.2941176470588235
 40
0.2941176470588235
 40
0.3529411764705883
 40
0.3529411764705883
 40
0.3529411764705883
 40
0.3529411764705883
 40
0.4117647058823529
 40
0.4117647058823529
 40
0.4117647058823529
 40
0.4117647058823529
 40
0.4705882352941176
 40
0.4705882352941176
 40
0.4705882352941176
 40
0.4705882352941176
 40
0.5294117647058824
 40
0.5294117647058824
 40
0.5294117647058824
 40
0.5294117647058824
 40
0.5882352941176471
 40
0.5882352941176471
 40
0.5882352941176471
 40
0.5882352941176471
 40
0.6470588235294118
 40
0.6470588235294118
 40
0.6470588235294118
 40
0.6470588235294118
 40
0.7058823529411765
 40
0.7058823529411765
 40
0.7058823529411765
 40
0.7058823529411765
 40
0.7647058823529411
 40
0.7647058823529411
 40
0.7647058823529411
 40
0.7647058823529411
 40
0.8235294117647058
 40
0.8235294117647058
 40
0.8235294117647058
 40
0.8235294117647058
 40
0.8823529411764706
 40
0.8823529411764706
 40
0.8823529411764706
 40
0.8823529411764706
 40
1.0
 40
1.0
 40
1.0
 40
1.0
 10
123.9751
 20
-28.0654
 30
0.0
 10
123.9751
 20
-28.0654
 30
0.0
 10
119.341
 20
-33.3867
 30
0.0
 10
119.341
 20
-33.3867
 30
0.0
 10
119.341
 20
-33.3867
 30
0.0
 10
119.341
 20
-33.3867
 30
0.0
 10
114.7804
 20
-28.0654
 30
0.0
 10
114.7804
 20
-28.0654
 30
0.0
 10
114.7804
 20
-28.0654
 30
0.0
 10
114.7804
 20
-28.0654
 30
0.0
 10
114.7556
 20
-18.5804
 30
0.0
 10
114.7556
 20
-18.5804
 30
0.0
 10
114.7556
 20
-18.5804
 30
0.0
 10
114.7556
 20
-18.5804
 30
0.0
 10
105.3116
 20
-18.5965
 30
0.0
 10
105.3116
 20
-18.5965
 30
0.0
 10
105.3116
 20
-18.5965
 30
0.0
 10
105.3116
 20
-18.5965
 30
0.0
 10
99.9904
 20
-13.9624
 30
0.0
 10
99.9904
 20
-13.9624
 30
0.0
 10
99.9904
 20
-13.9624
 30
0.0
 10
99.9904
 20
-13.9624
 30
0.0
 10
105.3116
 20
-9.4019
 30
0.0
 10
105.3116
 20
-9.4019
 30
0.0
 10
105.3116
 20
-9.4019
 30
0.0
 10
105.3116
 20
-9.4019
 30
0.0
 10
114.8127
 20
-9.365
 30
0.0
 10
114.8127
 20
-9.365
 30
0.0
 10
114.8127
 20
-9.365
 30
0.0
 10
114.8127
 20
-9.365
 30
0.0
 10
114.7805
 20
0.8652
 30
0.0
 10
114.7805
 20
0.8652
 30
0.0
 10
114.7805
 20
0.8652
 30
0.0
 10
114.7805
 20
0.8652
 30
0.0
 10
119.3411
 20
5.3882
 30
0.0
 10
119.3411
 20
5.3882
 30
0.0
 10
119.3411
 20
5.3882
 30
0.0
 10
119.3411
 20
5.3882
 30
0.0
 10
123.9751
 20
0.8652
 30
0.0
 10
123.9751
 20
0.8652
 30
0.0
 10
123.9751
 20
0.8652
 30
0.0
 10
123.9751
 20
0.8652
 30
0.0
 10
123.9521
 20
-9.422
 30
0.0
 10
123.9521
 20
-9.422
 30
0.0
 10
123.9521
 20
-9.422
 30
0.0
 10
123.9521
 20
-9.422
 30
0.0
 10
134.2422
 20
-9.4018
 30
0.0
 10
134.2422
 20
-9.4018
 30
0.0
 10
134.2422
 20
-9.4018
 30
0.0
 10
134.2422
 20
-9.4018
 30
0.0
 10
138.7653
 20
-13.9624
 30
0.0
 10
138.7653
 20
-13.9624
 30
0.0
 10
138.7653
 20
-13.9624
 30
0.0
 10
138.7653
 20
-13.9624
 30
0.0
 10
134.2422
 20
-18.5964
 30
0.0
 10
134.2422
 20
-18.5964
 30
0.0
 10
134.2422
 20
-18.5964
 30
0.0
 10
134.2422
 20
-18.5964
 30
0.0
 10
123.9711
 20
-18.6184
 30
0.0
 10
123.9711
 20
-18.6184
 30
0.0
 10
123.9711
 20
-18.6184
 30
0.0
 10
123.9711
 20
-18.6184
 30
0.0
 10
123.9751
 20
-28.0654
 30
0.0
 10
123.9751
 20
-28.0654
 30
0.0
  0
SPLINE
  5
95
330
1F
100
AcDbEntity
  8
layer 1
 62
     7
100
AcDbSpline
210
0.0
220
0.0
230
1.0
 70
    11
 71
     3
 72
    68
 73
    64
 74
     0
 42
0.0000000001
 43
0.0000000001
 12
1.0
 22
0.0
 32
0.0
 13
1.0
 23
0.0
 33
0.0
 40
0.0
 40
0.0
 40
0.0
 40
0.0
 40
0.0588235294117647
 40
0.0588235294117647
 40
0.0588235294117647
 40
0.0588235294117647
 40
0.1176470588235294
 40
0.1176470588235294
 40
0.1176470588235294
 40
0.1176470588235294
 40
0.1764705882352941
 40
0.1764705882352941
 40
0.1764705882352941
 40
0.1764705882352941
 40
0.2352941176470588
 40
0.2352941176470588
 40
0.2352941176470588
 40
0.2352941176470588
 40
0.2941176470588235
 40
0.2941176470588235
 40
0.2941176470588235
 40
0.2941176470588235
 40
0.3529411764705883
 40
0.3529411764705883
 40
0.3529411764705883
 40
0.3529411764705883
 40
0.4117647058823529
 40
0.4117647058823529
 40
0.4117647058823529
 40
0.4117647058823529
 40
0.4705882352941176
 40
0.4705882352941176
 40
0.4705882352941176
 40
0.4705882352941176
 40
0.5294117647058824
 40
0.5294117647058824
 40
0.5294117647058824
 40
0.5294117647058824
 40
0.5882352941176471
 40
0.5882352941176471
 40
0.5882352941176471
 40
0.5882352941176471
 40
0.6470588235294118
 40
0.6470588235294118
 40
0.6470588235294118
 40
0.6470588235294118
 40
0.7058823529411765
 40
0.7058823529411765
 40
0.7058823529411765
 40
0.7058823529411765
 40
0.7647058823529411
 40
0.7647058823529411
 40
0.7647058823529411
 40
0.7647058823529411
 40
0.8235294117647058
 40
0.8235294117647058
 40
0.8235294117647058
 40
0.8235294117647058
 40
0.8823529411764706
 40
0.8823529411764706
 40
0.8823529411764706
 40
0.8823529411764706
 40
1.0
 40
1.0
 40
1.0
 40
1.0
 10
168.1816
 20
-28.0654
 30
0.0
 10
168.1816
 20
-28.0654
 30
0.0
 10
163.5475
 20
-33.3867
 30
0.0
 10
163.5475
 20
-33.3867
 30
0.0
 10
163.5475
 20
-33.3867
 30
0.0
 10
163.5475
 20
-33.3867
 30
0.0
 10
158.9869
 20
-28.0654
 30
0.0
 10
158.9869
 20
-28.0654
 30
0.0
 10
158.9869
 20
-28.0654
 30
0.0
 10
158.9869
 20
-28.0654
 30
0.0
 10
158.9622
 20
-18.5804
 30
0.0
 10
158.9622
 20
-18.5804
 30
0.0
 10
158.9622
 20
-18.5804
 30
0.0
 10
158.9622
 20
-18.5804
 30
0.0
 10
149.5181
 20
-18.5965
 30
0.0
 10
149.5181
 20
-18.5965
 30
0.0
 10
149.5181
 20
-18.5965
 30
0.0
 10
149.5181
 20
-18.5965
 30
0.0
 10
144.1969
 20
-13.9624
 30
0.0
 10
144.1969
 20
-13.9624
 30
0.0
 10
144.1969
 20
-13.9624
 30
0.0
 10
144.1969
 20
-13.9624
 30
0.0
 10
149.5181
 20
-9.4019
 30
0.0
 10
149.5181
 20
-9.4019
 30
0.0
 10
149.5181
 20
-9.4019
 30
0.0
 10
149.5181
 20
-9.4019
 30
0.0
 10
159.0192
 20
-9.365
 30
0.0
 10
159.0192
 20
-9.365
 30
0.0
 10
159.0192
 20
-9.365
 30
0.0
 10
159.0192
 20
-9.365
 30
0.0
 10
158.987
 20
0.8652
 30
0.0
 10
158.987
 20
0.8652
 30
0.0
 10
158.987
 20
0.8652
 30
0.0
 10
158.987
 20
0.8652
 30
0.0
 10
163.5476
 20
5.3882
 30
0.0
 10
163.5476
 20
5.3882
 30
0.0
 10
163.5476
 20
5.3882
 30
0.0
 10
163.5476
 20
5.3882
 30
0.0
 10
168.1817
 20
0.8652
 30
0.0
 10
168.1817
 20
0.8652
 30
0.0
 10
168.1817
 20
0.8652
 30
0.0
 10
168.1817
 20
0.8652
 30
0.0
 10
168.1586
 20
-9.422
 30
0.0
 10
168.1586
 20
-9.422
 30
0.0
 10
168.1586
 20
-9.422
 30
0.0
 10
168.1586
 20
-9.422
 30
0.0
 10
178.4487
 20
-9.4018
 30
0.0
 10
178.4487
 20
-9.4018
 30
0.0
 10
178.4487
 20
-9.4018
 30
0.0
 10
178.4487
 20
-9.4018
 30
0.0
 10
182.9718
 20
-13.9624
 30
0.0
 10
182.9718
 20
-13.9624
 30
0.0
 10
182.9718
 20
-13.9624
 30
0.0
 10
182.9718
 20
-13.9624
 30
0.0
 10
178.4487
 20
-18.5964
 30
0.0
 10
178.4487
 20
-18.5964
 30
0.0
 10
178.4487
 20
-18.5964
 30
0.0
 10
178.4487
 20
-18.5964
 30
0.0
 10
168.1776
 20
-18.6184
 30
0.0
 10
168.1776
 20
-18.6184
 30
0.0
 10
168.1776
 20
-18.6184
 30
0.0
 10
168.1776
 20
-18.6184
 30
0.0
 10
168.1816
 20
-28.0654
 30
0.0
 10
168.1816
 20
-28.0654
 30
0.0
  0
SPLINE
  5
96
330
1F
100
AcDbEntity
  8
layer 1
 62
     7
100
AcDbSpline
210
0.0
220
0.0
230
1.0
 70
    11
 71
     3
 72
    68
 73
    64
 74
     0
 42
0.0000000001
 43
0.0000000001
 12
1.0
 22
0.0
 32
0.0
 13
1.0
 23
0.0
 33
0.0
 40
0.0
 40
0.0
 40
0.0
 40
0.0
 40
0.0588235294117647
 40
0.0588235294117647
 40
0.0588235294117647
 40
0.0588235294117647
 40
0.1176470588235294
 40
0.1176470588235294
 40
0.1176470588235294
 40
0.1176470588235294
 40
0.1764705882352941
 40
0.1764705882352941
 40
0.1764705882352941
 40
0.1764705882352941
 40
0.2352941176470588
 40
0.2352941176470588
 40
0.2352941176470588
 40
0.2352941176470588
 40
0.2941176470588235
 40
0.2941176470588235
 40
0.2941176470588235
 40
0.2941176470588235
 40
0.3529411764705883
 40
0.3529411764705883
 40
0.3529411764705883
 40
0.3529411764705883
 40
0.4117647058823529
 40
0.4117647058823529
 40
0.4117647058823529
 40
0.4117647058823529
 40
0.4705882352941176
 40
0.4705882352941176
 40
0.4705882352941176
 40
0.4705882352941176
 40
0.5294117647058824
 40
0.5294117647058824
 40
0.5294117647058824
 40
0.5294117647058824
 40
0.5882352941176471
 40
0.5882352941176471
 40
0.5882352941176471
 40
0.5882352941176471
 40
0.6470588235294118
 40
0.6470588235294118
 40
0.6470588235294118
 40
0.6470588235294118
 40
0.7058823529411765
 40
0.7058823529411765
 40
0.7058823529411765
 40
0.7058823529411765
 40
0.7647058823529411
 40
0.7647058823529411
 40
0.7647058823529411
 40
0.7647058823529411
 40
0.8235294117647058
 40
0.8235294117647058
 40
0.8235294117647058
 40
0.8235294117647058
 40
0.8823529411764706
 40
0.8823529411764706
 40
0.8823529411764706
 40
0.8823529411764706
 40
1.0
 40
1.0
 40
1.0
 40
1.0
 10
123.9751
 20
15.9791
 30
0.0
 10
123.9751
 20
15.9791
 30
0.0
 10
119.341
 20
10.6579
 30
0.0
 10
119.341
 20
10.6579
 30
0.0
 10
119.341
 20
10.6579
 30
0.0
 10
119.341
 20
10.6579
 30
0.0
 10
114.7804
 20
15.9791
 30
0.0
 10
114.7804
 20
15.9791
 30
0.0
 10
114.7804
 20
15.9791
 30
0.0
 10
114.7804
 20
15.9791
 30
0.0
 10
114.7556
 20
25.4642
 30
0.0
 10
114.7556
 20
25.4642
 30
0.0
 10
114.7556
 20
25.4642
 30
0.0
 10
114.7556
 20
25.4642
 30
0.0
 10
105.3116
 20
25.448
 30
0.0
 10
105.3116
 20
25.448
 30
0.0
 10
105.3116
 20
25.448
 30
0.0
 10
105.3116
 20
25.448
 30
0.0
 10
99.9904
 20
30.0821
 30
0.0
 10
99.9904
 20
30.0821
 30
0.0
 10
99.9904
 20
30.0821
 30
0.0
 10
99.9904
 20
30.0821
 30
0.0
 10
105.3116
 20
34.6427
 30
0.0
 10
105.3116
 20
34.6427
 30
0.0
 10
105.3116
 20
34.6427
 30
0.0
 10
105.3116
 20
34.6427
 30
0.0
 10
114.8127
 20
34.6795
 30
0.0
 10
114.8127
 20
34.6795
 30
0.0
 10
114.8127
 20
34.6795
 30
0.0
 10
114.8127
 20
34.6795
 30
0.0
 10
114.7805
 20
44.9097
 30
0.0
 10
114.7805
 20
44.9097
 30
0.0
 10
114.7805
 20
44.9097
 30
0.0
 10
114.7805
 20
44.9097
 30
0.0
 10
119.3411
 20
49.4328
 30
0.0
 10
119.3411
 20
49.4328
 30
0.0
 10
119.3411
 20
49.4328
 30
0.0
 10
119.3411
 20
49.4328
 30
0.0
 10
123.9751
 20
44.9097
 30
0.0
 10
123.9751
 20
44.9097
 30
0.0
 10
123.9751
 20
44.9097
 30
0.0
 10
123.9751
 20
44.9097
 30
0.0
 10
123.9521
 20
34.6226
 30
0.0
 10
123.9521
 20
34.6226
 30
0.0
 10
123.9521
 20
34.6226
 30
0.0
 10
123.9521
 20
34.6226
 30
0.0
 10
134.2422
 20
34.6428
 30
0.0
 10
134.2422
 20
34.6428
 30
0.0
 10
134.2422
 20
34.6428
 30
0.0
 10
134.2422
 20
34.6428
 30
0.0
 10
138.7653
 20
30.0822
 30
0.0
 10
138.7653
 20
30.0822
 30
0.0
 10
138.7653
 20
30.0822
 30
0.0
 10
138.7653
 20
30.0822
 30
0.0
 10
134.2422
 20
25.4481
 30
0.0
 10
134.2422
 20
25.4481
 30
0.0
 10
134.2422
 20
25.4481
 30
0.0
 10
134.2422
 20
25.4481
 30
0.0
 10
123.9711
 20
25.4262
 30
0.0
 10
123.9711
 20
25.4262
 30
0.0
 10
123.9711
 20
25.4262
 30
0.0
 10
123.9711
 20
25.4262
 30
0.0
 10
123.9751
 20
15.9791
 30
0.0
 10
123.9751
 20
15.9791
 30
0.0
  0
SPLINE
  5
97
330
1F
100
AcDbEntity
  8
layer 1
 62
     7
100
AcDbSpline
210
0.0
220
0.0
230
1.0
 70
    11
 71
     3
 72
    68
 73
    64
 74
     0
 42
0.0000000001
 43
0.0000000001
 12
1.0
 22
0.0
 32
0.0
 13
1.0
 23
0.0
 33
0.0
 40
0.0
 40
0.0
 40
0.0
 40
0.0
 40
0.0588235294117647
 40
0.0588235294117647
 40
0.0588235294117647
 40
0.0588235294117647
 40
0.1176470588235294
 40
0.1176470588235294
 40
0.1176470588235294
 40
0.1176470588235294
 40
0.1764705882352941
 40
0.1764705882352941
 40
0.1764705882352941
 40
0.1764705882352941
 40
0.2352941176470588
 40
0.2352941176470588
 40
0.2352941176470588
 40
0.2352941176470588
 40
0.2941176470588235
 40
0.2941176470588235
 40
0.2941176470588235
 40
0.2941176470588235
 40
0.3529411764705883
 40
0.3529411764705883
 40
0.3529411764705883
 40
0.3529411764705883
 40
0.4117647058823529
 40
0.4117647058823529
 40
0.4117647058823529
 40
0.4117647058823529
 40
0.4705882352941176
 40
0.4705882352941176
 40
0.4705882352941176
 40
0.4705882352941176
 40
0.5294117647058824
 40
0.5294117647058824
 40
0.5294117647058824
 40
0.5294117647058824
 40
0.5882352941176471
 40
0.5882352941176471
 40
0.5882352941176471
 40
0.5882352941176471
 40
0.6470588235294118
 40
0.6470588235294118
 40
0.6470588235294118
 40
0.6470588235294118
 40
0.7058823529411765
 40
0.7058823529411765
 40
0.7058823529411765
 40
0.7058823529411765
 40
0.7647058823529411
 40
0.7647058823529411
 40
0.7647058823529411
 40
0.7647058823529411
 40
0.8235294117647058
 40
0.8235294117647058
 40
0.8235294117647058
 40
0.8235294117647058
 40
0.8823529411764706
 40
0.8823529411764706
 40
0.8823529411764706
 40
0.8823529411764706
 40
1.0
 40
1.0
 40
1.0
 40
1.0
 10
168.1816
 20
15.9791
 30
0.0
 10
168.1816
 20
15.9791
 30
0.0
 10
163.5475
 20
10.6579
 30
0.0
 10
163.5475
 20
10.6579
 30
0.0
 10
163.5475
 20
10.6579
 30
0.0
 10
163.5475
 20
10.6579
 30
0.0
 10
158.9869
 20
15.9791
 30
0.0
 10
158.9869
 20
15.9791
 30
0.0
 10
158.9869
 20
15.9791
 30
0.0
 10
158.9869
 20
15.9791
 30
0.0
 10
158.9622
 20
25.4642
 30
0.0
 10
158.9622
 20
25.4642
 30
0.0
 10
158.9622
 20
25.4642
 30
0.0
 10
158.9622
 20
25.4642
 30
0.0
 10
149.5181
 20
25.448
 30
0.0
 10
149.5181
 20
25.448
 30
0.0
 10
149.5181
 20
25.448
 30
0.0
 10
149.5181
 20
25.448
 30
0.0
 10
144.1969
 20
30.0821
 30
0.0
 10
144.1969
 20
30.0821
 30
0.0
 10
144.1969
 20
30.0821
 30
0.0
 10
144.1969
 20
30.0821
 30
0.0
 10
149.5181
 20
34.6427
 30
0.0
 10
149.5181
 20
34.6427
 30
0.0
 10
149.5181
 20
34.6427
 30
0.0
 10
149.5181
 20
34.6427
 30
0.0
 10
159.0192
 20
34.6795
 30
0.0
 10
159.0192
 20
34.6795
 30
0.0
 10
159.0192
 20
34.6795
 30
0.0
 10
159.0192
 20
34.6795
 30
0.0
 10
158.987
 20
44.9097
 30
0.0
 10
158.987
 20
44.9097
 30
0.0
 10
158.987
 20
44.9097
 30
0.0
 10
158.987
 20
44.9097
 30
0.0
 10
163.5476
 20
49.4328
 30
0.0
 10
163.5476
 20
49.4328
 30
0.0
 10
163.5476
 20
49.4328
 30
0.0
 10
163.5476
 20
49.4328
 30
0.0
 10
168.1817
 20
44.9097
 30
0.0
 10
168.1817
 20
44.9097
 30
0.0
 10
168.1817
 20
44.9097
 30
0.0
 10
168.1817
 20
44.9097
 30
0.0
 10
168.1586
 20
34.6226
 30
0.0
 10
168.1586
 20
34.6226
 30
0.0
 10
168.1586
 20
34.6226
 30
0.0
 10
168.1586
 20
34.6226
 30
0.0
 10
178.4487
 20
34.6428
 30
0.0
 10
178.4487
 20
34.6428
 30
0.0
 10
178.4487
 20
34.6428
 30
0.0
 10
178.4487
 20
34.6428
 30
0.0
 10
182.9718
 20
30.0822
 30
0.0
 10
182.9718
 20
30.0822
 30
0.0
 10
182.9718
 20
30.0822
 30
0.0
 10
182.9718
 20
30.0822
 30
0.0
 10
178.4487
 20
25.4481
 30
0.0
 10
178.4487
 20
25.4481
 30
0.0
 10
178.4487
 20
25.4481
 30
0.0
 10
178.4487
 20
25.4481
 30
0.0
 10
168.1776
 20
25.4262
 30
0.0
 10
168.1776
 20
25.4262
 30
0.0
 10
168.1776
 20
25.4262
 30
0.0
 10
168.1776
 20
25.4262
 30
0.0
 10
168.1816
 20
15.9791
 30
0.0
 10
168.1816
 20
15.9791
 30
0.0
  0
SPLINE
  5
98
330
1F
100
AcDbEntity
  8
layer 1
 62
     7
100
AcDbSpline
210
0.0
220
0.0
230
1.0
 70
    11
 71
     3
 72
    68
 73
    64
 74
     0
 42
0.0000000001
 43
0.0000000001
 12
1.0
 22
0.0
 32
0.0
 13
1.0
 23
0.0
 33
0.0
 40
0.0
 40
0.0
 40
0.0
 40
0.0
 40
0.0588235294117647
 40
0.0588235294117647
 40
0.0588235294117647
 40
0.0588235294117647
 40
0.1176470588235294
 40
0.1176470588235294
 40
0.1176470588235294
 40
0.1176470588235294
 40
0.1764705882352941
 40
0.1764705882352941
 40
0.1764705882352941
 40
0.1764705882352941
 40
0.2352941176470588
 40
0.2352941176470588
 40
0.2352941176470588
 40
0.2352941176470588
 40
0.2941176470588235
 40
0.2941176470588235
 40
0.2941176470588235
 40
0.2941176470588235
 40
0.3529411764705883
 40
0.3529411764705883
 40
0.3529411764705883
 40
0.3529411764705883
 40
0.4117647058823529
 40
0.4117647058823529
 40
0.4117647058823529
 40
0.4117647058823529
 40
0.4705882352941176
 40
0.4705882352941176
 40
0.4705882352941176
 40
0.4705882352941176
 40
0.5294117647058824
 40
0.5294117647058824
 40
0.5294117647058824
 40
0.5294117647058824
 40
0.5882352941176471
 40
0.5882352941176471
 40
0.5882352941176471
 40
0.5882352941176471
 40
0.6470588235294118
 40
0.6470588235294118
 40
0.6470588235294118
 40
0.6470588235294118
 40
0.7058823529411765
 40
0.7058823529411765
 40
0.7058823529411765
 40
0.7058823529411765
 40
0.7647058823529411
 40
0.7647058823529411
 40
0.7647058823529411
 40
0.7647058823529411
 40
0.8235294117647058
 40
0.8235294117647058
 40
0.8235294117647058
 40
0.8235294117647058
 40
0.8823529411764706
 40
0.8823529411764706
 40
0.8823529411764706
 40
0.8823529411764706
 40
1.0
 40
1.0
 40
1.0
 40
1.0
 10
123.9751
 20
60.0237
 30
0.0
 10
123.9751
 20
60.0237
 30
0.0
 10
119.341
 20
54.7025
 30
0.0
 10
119.341
 20
54.7025
 30
0.0
 10
119.341
 20
54.7025
 30
0.0
 10
119.341
 20
54.7025
 30
0.0
 10
114.7804
 20
60.0237
 30
0.0
 10
114.7804
 20
60.0237
 30
0.0
 10
114.7804
 20
60.0237
 30
0.0
 10
114.7804
 20
60.0237
 30
0.0
 10
114.7556
 20
69.5087
 30
0.0
 10
114.7556
 20
69.5087
 30
0.0
 10
114.7556
 20
69.5087
 30
0.0
 10
114.7556
 20
69.5087
 30
0.0
 10
105.3116
 20
69.4926
 30
0.0
 10
105.3116
 20
69.4926
 30
0.0
 10
105.3116
 20
69.4926
 30
0.0
 10
105.3116
 20
69.4926
 30
0.0
 10
99.9904
 20
74.1267
 30
0.0
 10
99.9904
 20
74.1267
 30
0.0
 10
99.9904
 20
74.1267
 30
0.0
 10
99.9904
 20
74.1267
 30
0.0
 10
105.3116
 20
78.6872
 30
0.0
 10
105.3116
 20
78.6872
 30
0.0
 10
105.3116
 20
78.6872
 30
0.0
 10
105.3116
 20
78.6872
 30
0.0
 10
114.8127
 20
78.7241
 30
0.0
 10
114.8127
 20
78.7241
 30
0.0
 10
114.8127
 20
78.7241
 30
0.0
 10
114.8127
 20
78.7241
 30
0.0
 10
114.7805
 20
88.9543
 30
0.0
 10
114.7805
 20
88.9543
 30
0.0
 10
114.7805
 20
88.9543
 30
0.0
 10
114.7805
 20
88.9543
 30
0.0
 10
119.3411
 20
93.4774
 30
0.0
 10
119.3411
 20
93.4774
 30
0.0
 10
119.3411
 20
93.4774
 30
0.0
 10
119.3411
 20
93.4774
 30
0.0
 10
123.9751
 20
88.9543
 30
0.0
 10
123.9751
 20
88.9543
 30
0.0
 10
123.9751
 20
88.9543
 30
0.0
 10
123.9751
 20
88.9543
 30
0.0
 10
123.9521
 20
78.6671
 30
0.0
 10
123.9521
 20
78.6671
 30
0.0
 10
123.9521
 20
78.6671
 30
0.0
 10
123.9521
 20
78.6671
 30
0.0
 10
134.2422
 20
78.6873
 30
0.0
 10
134.2422
 20
78.6873
 30
0.0
 10
134.2422
 20
78.6873
 30
0.0
 10
134.2422
 20
78.6873
 30
0.0
 10
138.7653
 20
74.1268
 30
0.0
 10
138.7653
 20
74.1268
 30
0.0
 10
138.7653
 20
74.1268
 30
0.0
 10
138.7653
 20
74.1268
 30
0.0
 10
134.2422
 20
69.4927
 30
0.0
 10
134.2422
 20
69.4927
 30
0.0
 10
134.2422
 20
69.4927
 30
0.0
 10
134.2422
 20
69.4927
 30
0.0
 10
123.9711
 20
69.4708
 30
0.0
 10
123.9711
 20
69.4708
 30
0.0
 10
123.9711
 20
69.4708
 30
0.0
 10
123.9711
 20
69.4708
 30
0.0
 10
123.9751
 20
60.0237
 30
0.0
 10
123.9751
 20
60.0237
 30
0.0
  0
SPLINE
  5
99
330
1F
100
AcDbEntity
  8
layer 1
 62
     7
100
AcDbSpline
210
0.0
220
0.0
230
1.0
 70
    11
 71
     3
 72
    68
 73
    64
 74
     0
 42
0.0000000001
 43
0.0000000001
 12
1.0
 22
0.0
 32
0.0
 13
1.0
 23
0.0
 33
0.0
 40
0.0
 40
0.0
 40
0.0
 40
0.0
 40
0.0588235294117647
 40
0.0588235294117647
 40
0.0588235294117647
 40
0.0588235294117647
 40
0.1176470588235294
 40
0.1176470588235294
 40
0.1176470588235294
 40
0.1176470588235294
 40
0.1764705882352941
 40
0.1764705882352941
 40
0.1764705882352941
 40
0.1764705882352941
 40
0.2352941176470588
 40
0.2352941176470588
 40
0.2352941176470588
 40
0.2352941176470588
 40
0.2941176470588235
 40
0.2941176470588235
 40
0.2941176470588235
 40
0.2941176470588235
 40
0.3529411764705883
 40
0.3529411764705883
 40
0.3529411764705883
 40
0.3529411764705883
 40
0.4117647058823529
 40
0.4117647058823529
 40
0.4117647058823529
 40
0.4117647058823529
 40
0.4705882352941176
 40
0.4705882352941176
 40
0.4705882352941176
 40
0.4705882352941176
 40
0.5294117647058824
 40
0.5294117647058824
 40
0.5294117647058824
 40
0.5294117647058824
 40
0.5882352941176471
 40
0.5882352941176471
 40
0.5882352941176471
 40
0.5882352941176471
 40
0.6470588235294118
 40
0.6470588235294118
 40
0.6470588235294118
 40
0.6470588235294118
 40
0.7058823529411765
 40
0.7058823529411765
 40
0.7058823529411765
 40
0.7058823529411765
 40
0.7647058823529411
 40
0.7647058823529411
 40
0.7647058823529411
 40
0.7647058823529411
 40
0.8235294117647058
 40
0.8235294117647058
 40
0.8235294117647058
 40
0.8235294117647058
 40
0.8823529411764706
 40
0.8823529411764706
 40
0.8823529411764706
 40
0.8823529411764706
 40
1.0
 40
1.0
 40
1.0
 40
1.0
 10
168.1816
 20
60.0237
 30
0.0
 10
168.1816
 20
60.0237
 30
0.0
 10
163.5475
 20
54.7025
 30
0.0
 10
163.5475
 20
54.7025
 30
0.0
 10
163.5475
 20
54.7025
 30
0.0
 10
163.5475
 20
54.7025
 30
0.0
 10
158.9869
 20
60.0237
 30
0.0
 10
158.9869
 20
60.0237
 30
0.0
 10
158.9869
 20
60.0237
 30
0.0
 10
158.9869
 20
60.0237
 30
0.0
 10
158.9622
 20
69.5087
 30
0.0
 10
158.9622
 20
69.5087
 30
0.0
 10
158.9622
 20
69.5087
 30
0.0
 10
158.9622
 20
69.5087
 30
0.0
 10
149.5181
 20
69.4926
 30
0.0
 10
149.5181
 20
69.4926
 30
0.0
 10
149.5181
 20
69.4926
 30
0.0
 10
149.5181
 20
69.4926
 30
0.0
 10
144.1969
 20
74.1267
 30
0.0
 10
144.1969
 20
74.1267
 30
0.0
 10
144.1969
 20
74.1267
 30
0.0
 10
144.1969
 20
74.1267
 30
0.0
 10
149.5181
 20
78.6872
 30
0.0
 10
149.5181
 20
78.6872
 30
0.0
 10
149.5181
 20
78.6872
 30
0.0
 10
149.5181
 20
78.6872
 30
0.0
 10
159.0192
 20
78.7241
 30
0.0
 10
159.0192
 20
78.7241
 30
0.0
 10
159.0192
 20
78.7241
 30
0.0
 10
159.0192
 20
78.7241
 30
0.0
 10
158.987
 20
88.9543
 30
0.0
 10
158.987
 20
88.9543
 30
0.0
 10
158.987
 20
88.9543
 30
0.0
 10
158.987
 20
88.9543
 30
0.0
 10
163.5476
 20
93.4774
 30
0.0
 10
163.5476
 20
93.4774
 30
0.0
 10
163.5476
 20
93.4774
 30
0.0
 10
163.5476
 20
93.4774
 30
0.0
 10
168.1817
 20
88.9543
 30
0.0
 10
168.1817
 20
88.9543
 30
0.0
 10
168.1817
 20
88.9543
 30
0.0
 10
168.1817
 20
88.9543
 30
0.0
 10
168.1586
 20
78.6671
 30
0.0
 10
168.1586
 20
78.6671
 30
0.0
 10
168.1586
 20
78.6671
 30
0.0
 10
168.1586
 20
78.6671
 30
0.0
 10
178.4487
 20
78.6873
 30
0.0
 10
178.4487
 20
78.6873
 30
0.0
 10
178.4487
 20
78.6873
 30
0.0
 10
178.4487
 20
78.6873
 30
0.0
 10
182.9718
 20
74.1268
 30
0.0
 10
182.9718
 20
74.1268
 30
0.0
 10
182.9718
 20
74.1268
 30
0.0
 10
182.9718
 20
74.1268
 30
0.0
 10
178.4487
 20
69.4927
 30
0.0
 10
178.4487
 20
69.4927
 30
0.0
 10
178.4487
 20
69.4927
 30
0.0
 10
178.4487
 20
69.4927
 30
0.0
 10
168.1776
 20
69.4708
 30
0.0
 10
168.1776
 20
69.4708
 30
0.0
 10
168.1776
 20
69.4708
 30
0.0
 10
168.1776
 20
69.4708
 30
0.0
 10
168.1816
 20
60.0237
 30
0.0
 10
168.1816
 20
60.0237
 30
0.0
  0
SPLINE
  5
9A
330
1F
100
AcDbEntity
  8
layer 1
 62
     7
100
AcDbSpline
210
0.0
220
0.0
230
1.0
 70
    11
 71
     3
 72
    20
 73
    16
 74
     0
 42
0.0000000001
 43
0.0000000001
 12
1.0
 22
0.0
 32
0.0
 13
1.0
 23
0.0
 33
0.0
 40
0.0
 40
0.0
 40
0.0
 40
0.0
 40
0.2
 40
0.2
 40
0.2
 40
0.2
 40
0.4
 40
0.4
 40
0.4
 40
0.4
 40
0.6
 40
0.6
 40
0.6
 40
0.6
 40
1.0
 40
1.0
 40
1.0
 40
1.0
 10
126.0574
 20
4.5386
 30
0.0
 10
126.0574
 20
4.5386
 30
0.0
 10
122.4022
 20
8.1937
 30
0.0
 10
122.4022
 20
8.1937
 30
0.0
 10
122.4022
 20
8.1937
 30
0.0
 10
122.4022
 20
8.1937
 30
0.0
 10
126.0574
 20
11.8488
 30
0.0
 10
126.0574
 20
11.8488
 30
0.0
 10
126.0574
 20
11.8488
 30
0.0
 10
126.0574
 20
11.8488
 30
0.0
 10
129.7125
 20
8.1937
 30
0.0
 10
129.7125
 20
8.1937
 30
0.0
 10
129.7125
 20
8.1937
 30
0.0
 10
129.7125
 20
8.1937
 30
0.0
 10
126.0574
 20
4.5386
 30
0.0
 10
126.0574
 20
4.5386
 30
0.0
  0
SPLINE
  5
9B
330
1F
100
AcDbEntity
  8
layer 1
 62
     7
100
AcDbSpline
210
0.0
220
0.0
230
1.0
 70
    11
 71
     3
 72
    20
 73
    16
 74
     0
 42
0.0000000001
 43
0.0000000001
 12
1.0
 22
0.0
 32
0.0
 13
1.0
 23
0.0
 33
0.0
 40
0.0
 40
0.0
 40
0.0
 40
0.0
 40
0.2
 40
0.2
 40
0.2
 40
0.2
 40
0.4
 40
0.4
 40
0.4
 40
0.4
 40
0.6
 40
0.6
 40
0.6
 40
0.6
 40
1.0
 40
1.0
 40
1.0
 40
1.0
 10
170.2639
 20
4.5386
 30
0.0
 10
170.2639
 20
4.5386
 30
0.0
 10
166.6088
 20
8.1937
 30
0.0
 10
166.6088
 20
8.1937
 30
0.0
 10
166.6088
 20
8.1937
 30
0.0
 10
166.6088
 20
8.1937
 30
0.0
 10
170.2639
 20
11.8488
 30
0.0
 10
170.2639
 20
11.8488
 30
0.0
 10
170.2639
 20
11.8488
 30
0.0
 10
170.2639
 20
11.8488
 30
0.0
 10
173.919
 20
8.1937
 30
0.0
 10
173.919
 20
8.1937
 30
0.0
 10
173.919
 20
8.1937
 30
0.0
 10
173.919
 20
8.1937
 30
0.0
 10
170.2639
 20
4.5386
 30
0.0
 10
170.2639
 20
4.5386
 30
0.0
  0
SPLINE
  5
9C
330
1F
100
AcDbEntity
  8
layer 1
 62
     7
100
AcDbSpline
210
0.0
220
0.0
230
1.0
 70
    11
 71
     3
 72
    20
 73
    16
 74
     0
 42
0.0000000001
 43
0.0000000001
 12
1.0
 22
0.0
 32
0.0
 13
1.0
 23
0.0
 33
0.0
 40
0.0
 40
0.0
 40
0.0
 40
0.0
 40
0.2
 40
0.2
 40
0.2
 40
0.2
 40
0.4
 40
0.4
 40
0.4
 40
0.4
 40
0.6
 40
0.6
 40
0.6
 40
0.6
 40
1.0
 40
1.0
 40
1.0
 40
1.0
 10
126.0574
 20
48.5832
 30
0.0
 10
126.0574
 20
48.5832
 30
0.0
 10
122.4022
 20
52.2383
 30
0.0
 10
122.4022
 20
52.2383
 30
0.0
 10
122.4022
 20
52.2383
 30
0.0
 10
122.4022
 20
52.2383
 30
0.0
 10
126.0574
 20
55.8934
 30
0.0
 10
126.0574
 20
55.8934
 30
0.0
 10
126.0574
 20
55.8934
 30
0.0
 10
126.0574
 20
55.8934
 30
0.0
 10
129.7125
 20
52.2383
 30
0.0
 10
129.7125
 20
52.2383
 30
0.0
 10
129.7125
 20
52.2383
 30
0.0
 10
129.7125
 20
52.2383
 30
0.0
 10
126.0574
 20
48.5832
 30
0.0
 10
126.0574
 20
48.5832
 30
0.0
  0
SPLINE
  5
9D
330
1F
100
AcDbEntity
  8
layer 1
 62
     7
100
AcDbSpline
210
0.0
220
0.0
230
1.0
 70
    11
 71
     3
 72
    20
 73
    16
 74
     0
 42
0.0000000001
 43
0.0000000001
 12
1.0
 22
0.0
 32
0.0
 13
1.0
 23
0.0
 33
0.0
 40
0.0
 40
0.0
 40
0.0
 40
0.0
 40
0.2
 40
0.2
 40
0.2
 40
0.2
 40
0.4
 40
0.4
 40
0.4
 40
0.4
 40
0.6
 40
0.6
 40
0.6
 40
0.6
 40
1.0
 40
1.0
 40
1.0
 40
1.0
 10
170.2639
 20
48.5832
 30
0.0
 10
170.2639
 20
48.5832
 30
0.0
 10
166.6088
 20
52.2383
 30
0.0
 10
166.6088
 20
52.2383
 30
0.0
 10
166.6088
 20
52.2383
 30
0.0
 10
166.6088
 20
52.2383
 30
0.0
 10
170.2639
 20
55.8934
 30
0.0
 10
170.2639
 20
55.8934
 30
0.0
 10
170.2639
 20
55.8934
 30
0.0
 10
170.2639
 20
55.8934
 30
0.0
 10
173.919
 20
52.2383
 30
0.0
 10
173.919
 20
52.2383
 30
0.0
 10
173.919
 20
52.2383
 30
0.0
 10
173.919
 20
52.2383
 30
0.0
 10
170.2639
 20
48.5832
 30
0.0
 10
170.2639
 20
48.5832
 30
0.0
  0
SPLINE
  5
9E
330
1F
100
AcDbEntity
  8
layer 1
 62
     7
100
AcDbSpline
210
0.0
220
0.0
230
1.0
 70
    11
 71
     3
 72
    20
 73
    16
 74
     0
 42
0.0000000001
 43
0.0000000001
 12
1.0
 22
0.0
 32
0.0
 13
1.0
 23
0.0
 33
0.0
 40
0.0
 40
0.0
 40
0.0
 40
0.0
 40
0.2
 40
0.2
 40
0.2
 40
0.2
 40
0.4
 40
0.4
 40
0.4
 40
0.4
 40
0.6
 40
0.6
 40
0.6
 40
0.6
 40
1.0
 40
1.0
 40
1.0
 40
1.0
 10
126.0574
 20
92.6277
 30
0.0
 10
126.0574
 20
92.6277
 30
0.0
 10
122.4022
 20
96.2829
 30
0.0
 10
122.4022
 20
96.2829
 30
0.0
 10
122.4022
 20
96.2829
 30
0.0
 10
122.4022
 20
96.2829
 30
0.0
 10
126.0574
 20
99.938
 30
0.0
 10
126.0574
 20
99.938
 30
0.0
 10
126.0574
 20
99.938
 30
0.0
 10
126.0574
 20
99.938
 30
0.0
 10
129.7125
 20
96.2829
 30
0.0
 10
129.7125
 20
96.2829
 30
0.0
 10
129.7125
 20
96.2829
 30
0.0
 10
129.7125
 20
96.2829
 30
0.0
 10
126.0574
 20
92.6277
 30
0.0
 10
126.0574
 20
92.6277
 30
0.0
  0
SPLINE
  5
9F
330
1F
100
AcDbEntity
  8
layer 1
 62
     7
100
AcDbSpline
210
0.0
220
0.0
230
1.0
 70
    11
 71
     3
 72
    20
 73
    16
 74
     0
 42
0.0000000001
 43
0.0000000001
 12
1.0
 22
0.0
 32
0.0
 13
1.0
 23
0.0
 33
0.0
 40
0.0
 40
0.0
 40
0.0
 40
0.0
 40
0.2
 40
0.2
 40
0.2
 40
0.2
 40
0.4
 40
0.4
 40
0.4
 40
0.4
 40
0.6
 40
0.6
 40
0.6
 40
0.6
 40
1.0
 40
1.0
 40
1.0
 40
1.0
 10
170.2639
 20
92.6277
 30
0.0
 10
170.2639
 20
92.6277
 30
0.0
 10
166.6088
 20
96.2829
 30
0.0
 10
166.6088
 20
96.2829
 30
0.0
 10
166.6088
 20
96.2829
 30
0.0
 10
166.6088
 20
96.2829
 30
0.0
 10
170.2639
 20
99.938
 30
0.0
 10
170.2639
 20
99.938
 30
0.0
 10
170.2639
 20
99.938
 30
0.0
 10
170.2639
 20
99.938
 30
0.0
 10
173.919
 20
96.2829
 30
0.0
 10
173.919
 20
96.2829
 30
0.0
 10
173.919
 20
96.2829
 30
0.0
 10
173.919
 20
96.2829
 30
0.0
 10
170.2639
 20
92.6277
 30
0.0
 10
170.2639
 20
92.6277
 30
0.0
  0
SPLINE
  5
A0
330
1F
100
AcDbEntity
  8
layer 1
 62
     7
100
AcDbSpline
210
0.0
220
0.0
230
1.0
 70
    11
 71
     3
 72
    20
 73
    16
 74
     0
 42
0.0000000001
 43
0.0000000001
 12
1.0
 22
0.0
 32
0.0
 13
1.0
 23
0.0
 33
0.0
 40
0.0
 40
0.0
 40
0.0
 40
0.0
 40
0.2
 40
0.2
 40
0.2
 40
0.2
 40
0.4
 40
0.4
 40
0.4
 40
0.4
 40
0.6
 40
0.6
 40
0.6
 40
0.6
 40
1.0
 40
1.0
 40
1.0
 40
1.0
 10
141.5649
 20
0.5857
 30
0.0
 10
141.5649
 20
0.5857
 30
0.0
 10
133.9569
 20
8.1937
 30
0.0
 10
133.9569
 20
8.1937
 30
0.0
 10
133.9569
 20
8.1937
 30
0.0
 10
133.9569
 20
8.1937
 30
0.0
 10
141.5649
 20
15.8017
 30
0.0
 10
141.5649
 20
15.8017
 30
0.0
 10
141.5649
 20
15.8017
 30
0.0
 10
141.5649
 20
15.8017
 30
0.0
 10
149.1729
 20
8.1937
 30
0.0
 10
149.1729
 20
8.1937
 30
0.0
 10
149.1729
 20
8.1937
 30
0.0
 10
149.1729
 20
8.1937
 30
0.0
 10
141.5649
 20
0.5857
 30
0.0
 10
141.5649
 20
0.5857
 30
0.0
  0
SPLINE
  5
A1
330
1F
100
AcDbEntity
  8
layer 1
 62
     7
100
AcDbSpline
210
0.0
220
0.0
230
1.0
 70
    11
 71
     3
 72
    20
 73
    16
 74
     0
 42
0.0000000001
 43
0.0000000001
 12
1.0
 22
0.0
 32
0.0
 13
1.0
 23
0.0
 33
0.0
 40
0.0
 40
0.0
 40
0.0
 40
0.0
 40
0.2
 40
0.2
 40
0.2
 40
0.2
 40
0.4
 40
0.4
 40
0.4
 40
0.4
 40
0.6
 40
0.6
 40
0.6
 40
0.6
 40
1.0
 40
1.0
 40
1.0
 40
1.0
 10
141.5649
 20
44.6303
 30
0.0
 10
141.5649
 20
44.6303
 30
0.0
 10
133.9569
 20
52.2383
 30
0.0
 10
133.9569
 20
52.2383
 30
0.0
 10
133.9569
 20
52.2383
 30
0.0
 10
133.9569
 20
52.2383
 30
0.0
 10
141.5649
 20
59.8463
 30
0.0
 10
141.5649
 20
59.8463
 30
0.0
 10
141.5649
 20
59.8463
 30
0.0
 10
141.5649
 20
59.8463
 30
0.0
 10
149.1729
 20
52.2383
 30
0.0
 10
149.1729
 20
52.2383
 30
0.0
 10
149.1729
 20
52.2383
 30
0.0
 10
149.1729
 20
52.2383
 30
0.0
 10
141.5649
 20
44.6303
 30
0.0
 10
141.5649
 20
44.6303
 30
0.0
  0
SPLINE
  5
A2
330
1F
100
AcDbEntity
  8
layer 1
 62
     7
100
AcDbSpline
210
0.0
220
0.0
230
1.0
 70
    11
 71
     3
 72
    20
 73
    16
 74
     0
 42
0.0000000001
 43
0.0000000001
 12
1.0
 22
0.0
 32
0.0
 13
1.0
 23
0.0
 33
0.0
 40
0.0
 40
0.0
 40
0.0
 40
0.0
 40
0.2
 40
0.2
 40
0.2
 40
0.2
 40
0.4
 40
0.4
 40
0.4
 40
0.4
 40
0.6
 40
0.6
 40
0.6
 40
0.6
 40
1.0
 40
1.0
 40
1.0
 40
1.0
 10
141.5649
 20
88.6748
 30
0.0
 10
141.5649
 20
88.6748
 30
0.0
 10
133.9569
 20
96.2829
 30
0.0
 10
133.9569
 20
96.2829
 30
0.0
 10
133.9569
 20
96.2829
 30
0.0
 10
133.9569
 20
96.2829
 30
0.0
 10
141.5649
 20
103.8909
 30
0.0
 10
141.5649
 20
103.8909
 30
0.0
 10
141.5649
 20
103.8909
 30
0.0
 10
141.5649
 20
103.8909
 30
0.0
 10
149.1729
 20
96.2829
 30
0.0
 10
149.1729
 20
96.2829
 30
0.0
 10
149.1729
 20
96.2829
 30
0.0
 10
149.1729
 20
96.2829
 30
0.0
 10
141.5649
 20
88.6748
 30
0.0
 10
141.5649
 20
88.6748
 30
0.0
  0
SPLINE
  5
A3
330
1F
100
AcDbEntity
  8
layer 1
 62
     7
100
AcDbSpline
210
0.0
220
0.0
230
1.0
 70
    11
 71
     3
 72
    20
 73
    16
 74
     0
 42
0.0000000001
 43
0.0000000001
 12
1.0
 22
0.0
 32
0.0
 13
1.0
 23
0.0
 33
0.0
 40
0.0
 40
0.0
 40
0.0
 40
0.0
 40
0.2
 40
0.2
 40
0.2
 40
0.2
 40
0.4
 40
0.4
 40
0.4
 40
0.4
 40
0.6
 40
0.6
 40
0.6
 40
0.6
 40
1.0
 40
1.0
 40
1.0
 40
1.0
 10
141.4128
 20
-10.969
 30
0.0
 10
141.4128
 20
-10.969
 30
0.0
 10
137.7577
 20
-7.3138
 30
0.0
 10
137.7577
 20
-7.3138
 30
0.0
 10
137.7577
 20
-7.3138
 30
0.0
 10
137.7577
 20
-7.3138
 30
0.0
 10
141.4128
 20
-3.6587
 30
0.0
 10
141.4128
 20
-3.6587
 30
0.0
 10
141.4128
 20
-3.6587
 30
0.0
 10
141.4128
 20
-3.6587
 30
0.0
 10
145.068
 20
-7.3138
 30
0.0
 10
145.068
 20
-7.3138
 30
0.0
 10
145.068
 20
-7.3138
 30
0.0
 10
145.068
 20
-7.3138
 30
0.0
 10
141.4128
 20
-10.969
 30
0.0
 10
141.4128
 20
-10.969
 30
0.0
  0
SPLINE
  5
A4
330
1F
100
AcDbEntity
  8
layer 1
 62
     7
100
AcDbSpline
210
0.0
220
0.0
230
1.0
 70
    11
 71
     3
 72
    20
 73
    16
 74
     0
 42
0.0000000001
 43
0.0000000001
 12
1.0
 22
0.0
 32
0.0
 13
1.0
 23
0.0
 33
0.0
 40
0.0
 40
0.0
 40
0.0
 40
0.0
 40
0.2
 40
0.2
 40
0.2
 40
0.2
 40
0.4
 40
0.4
 40
0.4
 40
0.4
 40
0.6
 40
0.6
 40
0.6
 40
0.6
 40
1.0
 40
1.0
 40
1.0
 40
1.0
 10
185.6194
 20
-10.969
 30
0.0
 10
185.6194
 20
-10.969
 30
0.0
 10
181.9643
 20
-7.3138
 30
0.0
 10
181.9643
 20
-7.3138
 30
0.0
 10
181.9643
 20
-7.3138
 30
0.0
 10
181.9643
 20
-7.3138
 30
0.0
 10
185.6194
 20
-3.6587
 30
0.0
 10
185.6194
 20
-3.6587
 30
0.0
 10
185.6194
 20
-3.6587
 30
0.0
 10
185.6194
 20
-3.6587
 30
0.0
 10
189.2745
 20
-7.3138
 30
0.0
 10
189.2745
 20
-7.3138
 30
0.0
 10
189.2745
 20
-7.3138
 30
0.0
 10
189.2745
 20
-7.3138
 30
0.0
 10
185.6194
 20
-10.969
 30
0.0
 10
185.6194
 20
-10.969
 30
0.0
  0
SPLINE
  5
A5
330
1F
100
AcDbEntity
  8
layer 1
 62
     7
100
AcDbSpline
210
0.0
220
0.0
230
1.0
 70
    11
 71
     3
 72
    20
 73
    16
 74
     0
 42
0.0000000001
 43
0.0000000001
 12
1.0
 22
0.0
 32
0.0
 13
1.0
 23
0.0
 33
0.0
 40
0.0
 40
0.0
 40
0.0
 40
0.0
 40
0.2
 40
0.2
 40
0.2
 40
0.2
 40
0.4
 40
0.4
 40
0.4
 40
0.4
 40
0.6
 40
0.6
 40
0.6
 40
0.6
 40
1.0
 40
1.0
 40
1.0
 40
1.0
 10
141.4128
 20
33.0756
 30
0.0
 10
141.4128
 20
33.0756
 30
0.0
 10
137.7577
 20
36.7307
 30
0.0
 10
137.7577
 20
36.7307
 30
0.0
 10
137.7577
 20
36.7307
 30
0.0
 10
137.7577
 20
36.7307
 30
0.0
 10
141.4128
 20
40.3859
 30
0.0
 10
141.4128
 20
40.3859
 30
0.0
 10
141.4128
 20
40.3859
 30
0.0
 10
141.4128
 20
40.3859
 30
0.0
 10
145.068
 20
36.7307
 30
0.0
 10
145.068
 20
36.7307
 30
0.0
 10
145.068
 20
36.7307
 30
0.0
 10
145.068
 20
36.7307
 30
0.0
 10
141.4128
 20
33.0756
 30
0.0
 10
141.4128
 20
33.0756
 30
0.0
  0
SPLINE
  5
A6
330
1F
100
AcDbEntity
  8
layer 1
 62
     7
100
AcDbSpline
210
0.0
220
0.0
230
1.0
 70
    11
 71
     3
 72
    20
 73
    16
 74
     0
 42
0.0000000001
 43
0.0000000001
 12
1.0
 22
0.0
 32
0.0
 13
1.0
 23
0.0
 33
0.0
 40
0.0
 40
0.0
 40
0.0
 40
0.0
 40
0.2
 40
0.2
 40
0.2
 40
0.2
 40
0.4
 40
0.4
 40
0.4
 40
0.4
 40
0.6
 40
0.6
 40
0.6
 40
0.6
 40
1.0
 40
1.0
 40
1.0
 40
1.0
 10
185.6194
 20
33.0756
 30
0.0
 10
185.6194
 20
33.0756
 30
0.0
 10
181.9643
 20
36.7307
 30
0.0
 10
181.9643
 20
36.7307
 30
0.0
 10
181.9643
 20
36.7307
 30
0.0
 10
181.9643
 20
36.7307
 30
0.0
 10
185.6194
 20
40.3859
 30
0.0
 10
185.6194
 20
40.3859
 30
0.0
 10
185.6194
 20
40.3859
 30
0.0
 10
185.6194
 20
40.3859
 30
0.0
 10
189.2745
 20
36.7307
 30
0.0
 10
189.2745
 20
36.7307
 30
0.0
 10
189.2745
 20
36.7307
 30
0.0
 10
189.2745
 20
36.7307
 30
0.0
 10
185.6194
 20
33.0756
 30
0.0
 10
185.6194
 20
33.0756
 30
0.0
  0
SPLINE
  5
A7
330
1F
100
AcDbEntity
  8
layer 1
 62
     7
100
AcDbSpline
210
0.0
220
0.0
230
1.0
 70
    11
 71
     3
 72
    20
 73
    16
 74
     0
 42
0.0000000001
 43
0.0000000001
 12
1.0
 22
0.0
 32
0.0
 13
1.0
 23
0.0
 33
0.0
 40
0.0
 40
0.0
 40
0.0
 40
0.0
 40
0.2
 40
0.2
 40
0.2
 40
0.2
 40
0.4
 40
0.4
 40
0.4
 40
0.4
 40
0.6
 40
0.6
 40
0.6
 40
0.6
 40
1.0
 40
1.0
 40
1.0
 40
1.0
 10
141.4128
 20
77.1202
 30
0.0
 10
141.4128
 20
77.1202
 30
0.0
 10
137.7577
 20
80.7753
 30
0.0
 10
137.7577
 20
80.7753
 30
0.0
 10
137.7577
 20
80.7753
 30
0.0
 10
137.7577
 20
80.7753
 30
0.0
 10
141.4128
 20
84.4304
 30
0.0
 10
141.4128
 20
84.4304
 30
0.0
 10
141.4128
 20
84.4304
 30
0.0
 10
141.4128
 20
84.4304
 30
0.0
 10
145.068
 20
80.7753
 30
0.0
 10
145.068
 20
80.7753
 30
0.0
 10
145.068
 20
80.7753
 30
0.0
 10
145.068
 20
80.7753
 30
0.0
 10
141.4128
 20
77.1202
 30
0.0
 10
141.4128
 20
77.1202
 30
0.0
  0
SPLINE
  5
A8
330
1F
100
AcDbEntity
  8
layer 1
 62
     7
100
AcDbSpline
210
0.0
220
0.0
230
1.0
 70
    11
 71
     3
 72
    20
 73
    16
 74
     0
 42
0.0000000001
 43
0.0000000001
 12
1.0
 22
0.0
 32
0.0
 13
1.0
 23
0.0
 33
0.0
 40
0.0
 40
0.0
 40
0.0
 40
0.0
 40
0.2
 40
0.2
 40
0.2
 40
0.2
 40
0.4
 40
0.4
 40
0.4
 40
0.4
 40
0.6
 40
0.6
 40
0.6
 40
0.6
 40
1.0
 40
1.0
 40
1.0
 40
1.0
 10
185.6194
 20
77.1202
 30
0.0
 10
185.6194
 20
77.1202
 30
0.0
 10
181.9643
 20
80.7753
 30
0.0
 10
181.9643
 20
80.7753
 30
0.0
 10
181.9643
 20
80.7753
 30
0.0
 10
181.9643
 20
80.7753
 30
0.0
 10
185.6194
 20
84.4304
 30
0.0
 10
185.6194
 20
84.4304
 30
0.0
 10
185.6194
 20
84.4304
 30
0.0
 10
185.6194
 20
84.4304
 30
0.0
 10
189.2745
 20
80.7753
 30
0.0
 10
189.2745
 20
80.7753
 30
0.0
 10
189.2745
 20
80.7753
 30
0.0
 10
189.2745
 20
80.7753
 30
0.0
 10
185.6194
 20
77.1202
 30
0.0
 10
185.6194
 20
77.1202
 30
0.0
  0
SPLINE
  5
A9
330
1F
100
AcDbEntity
  8
layer 1
 62
     7
100
AcDbSpline
210
0.0
220
0.0
230
1.0
 70
    11
 71
     3
 72
    20
 73
    16
 74
     0
 42
0.0000000001
 43
0.0000000001
 12
1.0
 22
0.0
 32
0.0
 13
1.0
 23
0.0
 33
0.0
 40
0.0
 40
0.0
 40
0.0
 40
0.0
 40
0.2
 40
0.2
 40
0.2
 40
0.2
 40
0.4
 40
0.4
 40
0.4
 40
0.4
 40
0.6
 40
0.6
 40
0.6
 40
0.6
 40
1.0
 40
1.0
 40
1.0
 40
1.0
 10
141.4128
 20
20.1221
 30
0.0
 10
141.4128
 20
20.1221
 30
0.0
 10
137.7577
 20
23.7772
 30
0.0
 10
137.7577
 20
23.7772
 30
0.0
 10
137.7577
 20
23.7772
 30
0.0
 10
137.7577
 20
23.7772
 30
0.0
 10
141.4128
 20
27.4323
 30
0.0
 10
141.4128
 20
27.4323
 30
0.0
 10
141.4128
 20
27.4323
 30
0.0
 10
141.4128
 20
27.4323
 30
0.0
 10
145.068
 20
23.7772
 30
0.0
 10
145.068
 20
23.7772
 30
0.0
 10
145.068
 20
23.7772
 30
0.0
 10
145.068
 20
23.7772
 30
0.0
 10
141.4128
 20
20.1221
 30
0.0
 10
141.4128
 20
20.1221
 30
0.0
  0
SPLINE
  5
AA
330
1F
100
AcDbEntity
  8
layer 1
 62
     7
100
AcDbSpline
210
0.0
220
0.0
230
1.0
 70
    11
 71
     3
 72
    20
 73
    16
 74
     0
 42
0.0000000001
 43
0.0000000001
 12
1.0
 22
0.0
 32
0.0
 13
1.0
 23
0.0
 33
0.0
 40
0.0
 40
0.0
 40
0.0
 40
0.0
 40
0.2
 40
0.2
 40
0.2
 40
0.2
 40
0.4
 40
0.4
 40
0.4
 40
0.4
 40
0.6
 40
0.6
 40
0.6
 40
0.6
 40
1.0
 40
1.0
 40
1.0
 40
1.0
 10
185.6194
 20
20.1221
 30
0.0
 10
185.6194
 20
20.1221
 30
0.0
 10
181.9643
 20
23.7772
 30
0.0
 10
181.9643
 20
23.7772
 30
0.0
 10
181.9643
 20
23.7772
 30
0.0
 10
181.9643
 20
23.7772
 30
0.0
 10
185.6194
 20
27.4323
 30
0.0
 10
185.6194
 20
27.4323
 30
0.0
 10
185.6194
 20
27.4323
 30
0.0
 10
185.6194
 20
27.4323
 30
0.0
 10
189.2745
 20
23.7772
 30
0.0
 10
189.2745
 20
23.7772
 30
0.0
 10
189.2745
 20
23.7772
 30
0.0
 10
189.2745
 20
23.7772
 30
0.0
 10
185.6194
 20
20.1221
 30
0.0
 10
185.6194
 20
20.1221
 30
0.0
  0
SPLINE
  5
AB
330
1F
100
AcDbEntity
  8
layer 1
 62
     7
100
AcDbSpline
210
0.0
220
0.0
230
1.0
 70
    11
 71
     3
 72
    20
 73
    16
 74
     0
 42
0.0000000001
 43
0.0000000001
 12
1.0
 22
0.0
 32
0.0
 13
1.0
 23
0.0
 33
0.0
 40
0.0
 40
0.0
 40
0.0
 40
0.0
 40
0.2
 40
0.2
 40
0.2
 40
0.2
 40
0.4
 40
0.4
 40
0.4
 40
0.4
 40
0.6
 40
0.6
 40
0.6
 40
0.6
 40
1.0
 40
1.0
 40
1.0
 40
1.0
 10
141.4128
 20
64.1667
 30
0.0
 10
141.4128
 20
64.1667
 30
0.0
 10
137.7577
 20
67.8218
 30
0.0
 10
137.7577
 20
67.8218
 30
0.0
 10
137.7577
 20
67.8218
 30
0.0
 10
137.7577
 20
67.8218
 30
0.0
 10
141.4128
 20
71.4769
 30
0.0
 10
141.4128
 20
71.4769
 30
0.0
 10
141.4128
 20
71.4769
 30
0.0
 10
141.4128
 20
71.4769
 30
0.0
 10
145.068
 20
67.8218
 30
0.0
 10
145.068
 20
67.8218
 30
0.0
 10
145.068
 20
67.8218
 30
0.0
 10
145.068
 20
67.8218
 30
0.0
 10
141.4128
 20
64.1667
 30
0.0
 10
141.4128
 20
64.1667
 30
0.0
  0
SPLINE
  5
AC
330
1F
100
AcDbEntity
  8
layer 1
 62
     7
100
AcDbSpline
210
0.0
220
0.0
230
1.0
 70
    11
 71
     3
 72
    20
 73
    16
 74
     0
 42
0.0000000001
 43
0.0000000001
 12
1.0
 22
0.0
 32
0.0
 13
1.0
 23
0.0
 33
0.0
 40
0.0
 40
0.0
 40
0.0
 40
0.0
 40
0.2
 40
0.2
 40
0.2
 40
0.2
 40
0.4
 40
0.4
 40
0.4
 40
0.4
 40
0.6
 40
0.6
 40
0.6
 40
0.6
 40
1.0
 40
1.0
 40
1.0
 40
1.0
 10
185.6194
 20
64.1667
 30
0.0
 10
185.6194
 20
64.1667
 30
0.0
 10
181.9643
 20
67.8218
 30
0.0
 10
181.9643
 20
67.8218
 30
0.0
 10
181.9643
 20
67.8218
 30
0.0
 10
181.9643
 20
67.8218
 30
0.0
 10
185.6194
 20
71.4769
 30
0.0
 10
185.6194
 20
71.4769
 30
0.0
 10
185.6194
 20
71.4769
 30
0.0
 10
185.6194
 20
71.4769
 30
0.0
 10
189.2745
 20
67.8218
 30
0.0
 10
189.2745
 20
67.8218
 30
0.0
 10
189.2745
 20
67.8218
 30
0.0
 10
189.2745
 20
67.8218
 30
0.0
 10
185.6194
 20
64.1667
 30
0.0
 10
185.6194
 20
64.1667
 30
0.0
  0
SPLINE
  5
AD
330
1F
100
AcDbEntity
  8
layer 1
 62
     7
100
AcDbSpline
210
0.0
220
0.0
230
1.0
 70
    11
 71
     3
 72
    20
 73
    16
 74
     0
 42
0.0000000001
 43
0.0000000001
 12
1.0
 22
0.0
 32
0.0
 13
1.0
 23
0.0
 33
0.0
 40
0.0
 40
0.0
 40
0.0
 40
0.0
 40
0.2
 40
0.2
 40
0.2
 40
0.2
 40
0.4
 40
0.4
 40
0.4
 40
0.4
 40
0.6
 40
0.6
 40
0.6
 40
0.6
 40
1.0
 40
1.0
 40
1.0
 40
1.0
 10
141.4128
 20
108.2112
 30
0.0
 10
141.4128
 20
108.2112
 30
0.0
 10
137.7577
 20
111.8664
 30
0.0
 10
137.7577
 20
111.8664
 30
0.0
 10
137.7577
 20
111.8664
 30
0.0
 10
137.7577
 20
111.8664
 30
0.0
 10
141.4128
 20
115.5215
 30
0.0
 10
141.4128
 20
115.5215
 30
0.0
 10
141.4128
 20
115.5215
 30
0.0
 10
141.4128
 20
115.5215
 30
0.0
 10
145.068
 20
111.8664
 30
0.0
 10
145.068
 20
111.8664
 30
0.0
 10
145.068
 20
111.8664
 30
0.0
 10
145.068
 20
111.8664
 30
0.0
 10
141.4128
 20
108.2112
 30
0.0
 10
141.4128
 20
108.2112
 30
0.0
  0
SPLINE
  5
AE
330
1F
100
AcDbEntity
  8
layer 1
 62
     7
100
AcDbSpline
210
0.0
220
0.0
230
1.0
 70
    11
 71
     3
 72
    20
 73
    16
 74
     0
 42
0.0000000001
 43
0.0000000001
 12
1.0
 22
0.0
 32
0.0
 13
1.0
 23
0.0
 33
0.0
 40
0.0
 40
0.0
 40
0.0
 40
0.0
 40
0.2
 40
0.2
 40
0.2
 40
0.2
 40
0.4
 40
0.4
 40
0.4
 40
0.4
 40
0.6
 40
0.6
 40
0.6
 40
0.6
 40
1.0
 40
1.0
 40
1.0
 40
1.0
 10
185.6194
 20
108.2112
 30
0.0
 10
185.6194
 20
108.2112
 30
0.0
 10
181.9643
 20
111.8664
 30
0.0
 10
181.9643
 20
111.8664
 30
0.0
 10
181.9643
 20
111.8664
 30
0.0
 10
181.9643
 20
111.8664
 30
0.0
 10
185.6194
 20
115.5215
 30
0.0
 10
185.6194
 20
115.5215
 30
0.0
 10
185.6194
 20
115.5215
 30
0.0
 10
185.6194
 20
115.5215
 30
0.0
 10
189.2745
 20
111.8664
 30
0.0
 10
189.2745
 20
111.8664
 30
0.0
 10
189.2745
 20
111.8664
 30
0.0
 10
189.2745
 20
111.8664
 30
0.0
 10
185.6194
 20
108.2112
 30
0.0
 10
185.6194
 20
108.2112
 30
0.0
  0
SPLINE
  5
AF
330
1F
100
AcDbEntity
  8
layer 1
 62
     7
100
AcDbSpline
210
0.0
220
0.0
230
1.0
 70
    11
 71
     3
 72
    24
 73
    20
 74
     0
 42
0.0000000001
 43
0.0000000001
 12
1.0
 22
0.0
 32
0.0
 13
1.0
 23
0.0
 33
0.0
 40
0.0
 40
0.0
 40
0.0
 40
0.0
 40
0.1666666666666667
 40
0.1666666666666667
 40
0.1666666666666667
 40
0.1666666666666667
 40
0.3333333333333333
 40
0.3333333333333333
 40
0.3333333333333333
 40
0.3333333333333333
 40
0.5
 40
0.5
 40
0.5
 40
0.5
 40
0.6666666666666666
 40
0.6666666666666666
 40
0.6666666666666666
 40
0.6666666666666666
 40
1.0
 40
1.0
 40
1.0
 40
1.0
 10
135.4835
 20
-5.3373
 30
0.0
 10
135.4835
 20
-5.3373
 30
0.0
 10
127.8818
 20
-5.3373
 30
0.0
 10
127.8818
 20
-5.3373
 30
0.0
 10
127.8818
 20
-5.3373
 30
0.0
 10
127.8818
 20
-5.3373
 30
0.0
 10
127.8818
 20
2.4924
 30
0.0
 10
127.8818
 20
2.4924
 30
0.0
 10
127.8818
 20
2.4924
 30
0.0
 10
127.8818
 20
2.4924
 30
0.0
 10
131.7587
 20
6.0716
 30
0.0
 10
131.7587
 20
6.0716
 30
0.0
 10
131.7587
 20
6.0716
 30
0.0
 10
131.7587
 20
6.0716
 30
0.0
 10
139.3667
 20
-1.5365
 30
0.0
 10
139.3667
 20
-1.5365
 30
0.0
 10
139.3667
 20
-1.5365
 30
0.0
 10
139.3667
 20
-1.5365
 30
0.0
 10
135.4835
 20
-5.3373
 30
0.0
 10
135.4835
 20
-5.3373
 30
0.0
  0
SPLINE
  5
B0
330
1F
100
AcDbEntity
  8
layer 1
 62
     7
100
AcDbSpline
210
0.0
220
0.0
230
1.0
 70
    11
 71
     3
 72
    24
 73
    20
 74
     0
 42
0.0000000001
 43
0.0000000001
 12
1.0
 22
0.0
 32
0.0
 13
1.0
 23
0.0
 33
0.0
 40
0.0
 40
0.0
 40
0.0
 40
0.0
 40
0.1666666666666667
 40
0.1666666666666667
 40
0.1666666666666667
 40
0.1666666666666667
 40
0.3333333333333333
 40
0.3333333333333333
 40
0.3333333333333333
 40
0.3333333333333333
 40
0.5
 40
0.5
 40
0.5
 40
0.5
 40
0.6666666666666666
 40
0.6666666666666666
 40
0.6666666666666666
 40
0.6666666666666666
 40
1.0
 40
1.0
 40
1.0
 40
1.0
 10
179.6901
 20
-5.3373
 30
0.0
 10
179.6901
 20
-5.3373
 30
0.0
 10
172.0883
 20
-5.3373
 30
0.0
 10
172.0883
 20
-5.3373
 30
0.0
 10
172.0883
 20
-5.3373
 30
0.0
 10
172.0883
 20
-5.3373
 30
0.0
 10
172.0883
 20
2.4924
 30
0.0
 10
172.0883
 20
2.4924
 30
0.0
 10
172.0883
 20
2.4924
 30
0.0
 10
172.0883
 20
2.4924
 30
0.0
 10
175.9652
 20
6.0716
 30
0.0
 10
175.9652
 20
6.0716
 30
0.0
 10
175.9652
 20
6.0716
 30
0.0
 10
175.9652
 20
6.0716
 30
0.0
 10
183.5732
 20
-1.5365
 30
0.0
 10
183.5732
 20
-1.5365
 30
0.0
 10
183.5732
 20
-1.5365
 30
0.0
 10
183.5732
 20
-1.5365
 30
0.0
 10
179.6901
 20
-5.3373
 30
0.0
 10
179.6901
 20
-5.3373
 30
0.0
  0
SPLINE
  5
B1
330
1F
100
AcDbEntity
  8
layer 1
 62
     7
100
AcDbSpline
210
0.0
220
0.0
230
1.0
 70
    11
 71
     3
 72
    24
 73
    20
 74
     0
 42
0.0000000001
 43
0.0000000001
 12
1.0
 22
0.0
 32
0.0
 13
1.0
 23
0.0
 33
0.0
 40
0.0
 40
0.0
 40
0.0
 40
0.0
 40
0.1666666666666667
 40
0.1666666666666667
 40
0.1666666666666667
 40
0.1666666666666667
 40
0.3333333333333333
 40
0.3333333333333333
 40
0.3333333333333333
 40
0.3333333333333333
 40
0.5
 40
0.5
 40
0.5
 40
0.5
 40
0.6666666666666666
 40
0.6666666666666666
 40
0.6666666666666666
 40
0.6666666666666666
 40
1.0
 40
1.0
 40
1.0
 40
1.0
 10
135.4835
 20
38.7072
 30
0.0
 10
135.4835
 20
38.7072
 30
0.0
 10
127.8818
 20
38.7072
 30
0.0
 10
127.8818
 20
38.7072
 30
0.0
 10
127.8818
 20
38.7072
 30
0.0
 10
127.8818
 20
38.7072
 30
0.0
 10
127.8818
 20
46.537
 30
0.0
 10
127.8818
 20
46.537
 30
0.0
 10
127.8818
 20
46.537
 30
0.0
 10
127.8818
 20
46.537
 30
0.0
 10
131.7587
 20
50.1161
 30
0.0
 10
131.7587
 20
50.1161
 30
0.0
 10
131.7587
 20
50.1161
 30
0.0
 10
131.7587
 20
50.1161
 30
0.0
 10
139.3667
 20
42.5081
 30
0.0
 10
139.3667
 20
42.5081
 30
0.0
 10
139.3667
 20
42.5081
 30
0.0
 10
139.3667
 20
42.5081
 30
0.0
 10
135.4835
 20
38.7072
 30
0.0
 10
135.4835
 20
38.7072
 30
0.0
  0
SPLINE
  5
B2
330
1F
100
AcDbEntity
  8
layer 1
 62
     7
100
AcDbSpline
210
0.0
220
0.0
230
1.0
 70
    11
 71
     3
 72
    24
 73
    20
 74
     0
 42
0.0000000001
 43
0.0000000001
 12
1.0
 22
0.0
 32
0.0
 13
1.0
 23
0.0
 33
0.0
 40
0.0
 40
0.0
 40
0.0
 40
0.0
 40
0.1666666666666667
 40
0.1666666666666667
 40
0.1666666666666667
 40
0.1666666666666667
 40
0.3333333333333333
 40
0.3333333333333333
 40
0.3333333333333333
 40
0.3333333333333333
 40
0.5
 40
0.5
 40
0.5
 40
0.5
 40
0.6666666666666666
 40
0.6666666666666666
 40
0.6666666666666666
 40
0.6666666666666666
 40
1.0
 40
1.0
 40
1.0
 40
1.0
 10
179.6901
 20
38.7072
 30
0.0
 10
179.6901
 20
38.7072
 30
0.0
 10
172.0883
 20
38.7072
 30
0.0
 10
172.0883
 20
38.7072
 30
0.0
 10
172.0883
 20
38.7072
 30
0.0
 10
172.0883
 20
38.7072
 30
0.0
 10
172.0883
 20
46.537
 30
0.0
 10
172.0883
 20
46.537
 30
0.0
 10
172.0883
 20
46.537
 30
0.0
 10
172.0883
 20
46.537
 30
0.0
 10
175.9652
 20
50.1161
 30
0.0
 10
175.9652
 20
50.1161
 30
0.0
 10
175.9652
 20
50.1161
 30
0.0
 10
175.9652
 20
50.1161
 30
0.0
 10
183.5732
 20
42.5081
 30
0.0
 10
183.5732
 20
42.5081
 30
0.0
 10
183.5732
 20
42.5081
 30
0.0
 10
183.5732
 20
42.5081
 30
0.0
 10
179.6901
 20
38.7072
 30
0.0
 10
179.6901
 20
38.7072
 30
0.0
  0
SPLINE
  5
B3
330
1F
100
AcDbEntity
  8
layer 1
 62
     7
100
AcDbSpline
210
0.0
220
0.0
230
1.0
 70
    11
 71
     3
 72
    24
 73
    20
 74
     0
 42
0.0000000001
 43
0.0000000001
 12
1.0
 22
0.0
 32
0.0
 13
1.0
 23
0.0
 33
0.0
 40
0.0
 40
0.0
 40
0.0
 40
0.0
 40
0.1666666666666667
 40
0.1666666666666667
 40
0.1666666666666667
 40
0.1666666666666667
 40
0.3333333333333333
 40
0.3333333333333333
 40
0.3333333333333333
 40
0.3333333333333333
 40
0.5
 40
0.5
 40
0.5
 40
0.5
 40
0.6666666666666666
 40
0.6666666666666666
 40
0.6666666666666666
 40
0.6666666666666666
 40
1.0
 40
1.0
 40
1.0
 40
1.0
 10
135.4835
 20
82.7518
 30
0.0
 10
135.4835
 20
82.7518
 30
0.0
 10
127.8818
 20
82.7518
 30
0.0
 10
127.8818
 20
82.7518
 30
0.0
 10
127.8818
 20
82.7518
 30
0.0
 10
127.8818
 20
82.7518
 30
0.0
 10
127.8818
 20
90.5816
 30
0.0
 10
127.8818
 20
90.5816
 30
0.0
 10
127.8818
 20
90.5816
 30
0.0
 10
127.8818
 20
90.5816
 30
0.0
 10
131.7587
 20
94.1607
 30
0.0
 10
131.7587
 20
94.1607
 30
0.0
 10
131.7587
 20
94.1607
 30
0.0
 10
131.7587
 20
94.1607
 30
0.0
 10
139.3667
 20
86.5527
 30
0.0
 10
139.3667
 20
86.5527
 30
0.0
 10
139.3667
 20
86.5527
 30
0.0
 10
139.3667
 20
86.5527
 30
0.0
 10
135.4835
 20
82.7518
 30
0.0
 10
135.4835
 20
82.7518
 30
0.0
  0
SPLINE
  5
B4
330
1F
100
AcDbEntity
  8
layer 1
 62
     7
100
AcDbSpline
210
0.0
220
0.0
230
1.0
 70
    11
 71
     3
 72
    24
 73
    20
 74
     0
 42
0.0000000001
 43
0.0000000001
 12
1.0
 22
0.0
 32
0.0
 13
1.0
 23
0.0
 33
0.0
 40
0.0
 40
0.0
 40
0.0
 40
0.0
 40
0.1666666666666667
 40
0.1666666666666667
 40
0.1666666666666667
 40
0.1666666666666667
 40
0.3333333333333333
 40
0.3333333333333333
 40
0.3333333333333333
 40
0.3333333333333333
 40
0.5
 40
0.5
 40
0.5
 40
0.5
 40
0.6666666666666666
 40
0.6666666666666666
 40
0.6666666666666666
 40
0.6666666666666666
 40
1.0
 40
1.0
 40
1.0
 40
1.0
 10
179.6901
 20
82.7518
 30
0.0
 10
179.6901
 20
82.7518
 30
0.0
 10
172.0883
 20
82.7518
 30
0.0
 10
172.0883
 20
82.7518
 30
0.0
 10
172.0883
 20
82.7518
 30
0.0
 10
172.0883
 20
82.7518
 30
0.0
 10
172.0883
 20
90.5816
 30
0.0
 10
172.0883
 20
90.5816
 30
0.0
 10
172.0883
 20
90.5816
 30
0.0
 10
172.0883
 20
90.5816
 30
0.0
 10
175.9652
 20
94.1607
 30
0.0
 10
175.9652
 20
94.1607
 30
0.0
 10
175.9652
 20
94.1607
 30
0.0
 10
175.9652
 20
94.1607
 30
0.0
 10
183.5732
 20
86.5527
 30
0.0
 10
183.5732
 20
86.5527
 30
0.0
 10
183.5732
 20
86.5527
 30
0.0
 10
183.5732
 20
86.5527
 30
0.0
 10
179.6901
 20
82.7518
 30
0.0
 10
179.6901
 20
82.7518
 30
0.0
  0
SPLINE
  5
B5
330
1F
100
AcDbEntity
  8
layer 1
 62
     7
100
AcDbSpline
210
0.0
220
0.0
230
1.0
 70
    11
 71
     3
 72
    24
 73
    20
 74
     0
 42
0.0000000001
 43
0.0000000001
 12
1.0
 22
0.0
 32
0.0
 13
1.0
 23
0.0
 33
0.0
 40
0.0
 40
0.0
 40
0.0
 40
0.0
 40
0.1666666666666667
 40
0.1666666666666667
 40
0.1666666666666667
 40
0.1666666666666667
 40
0.3333333333333333
 40
0.3333333333333333
 40
0.3333333333333333
 40
0.3333333333333333
 40
0.5
 40
0.5
 40
0.5
 40
0.5
 40
0.6666666666666666
 40
0.6666666666666666
 40
0.6666666666666666
 40
0.6666666666666666
 40
1.0
 40
1.0
 40
1.0
 40
1.0
 10
135.4835
 20
21.8832
 30
0.0
 10
135.4835
 20
21.8832
 30
0.0
 10
127.8818
 20
21.8832
 30
0.0
 10
127.8818
 20
21.8832
 30
0.0
 10
127.8818
 20
21.8832
 30
0.0
 10
127.8818
 20
21.8832
 30
0.0
 10
127.8818
 20
14.0534
 30
0.0
 10
127.8818
 20
14.0534
 30
0.0
 10
127.8818
 20
14.0534
 30
0.0
 10
127.8818
 20
14.0534
 30
0.0
 10
131.7587
 20
10.4743
 30
0.0
 10
131.7587
 20
10.4743
 30
0.0
 10
131.7587
 20
10.4743
 30
0.0
 10
131.7587
 20
10.4743
 30
0.0
 10
139.3667
 20
18.0823
 30
0.0
 10
139.3667
 20
18.0823
 30
0.0
 10
139.3667
 20
18.0823
 30
0.0
 10
139.3667
 20
18.0823
 30
0.0
 10
135.4835
 20
21.8832
 30
0.0
 10
135.4835
 20
21.8832
 30
0.0
  0
SPLINE
  5
B6
330
1F
100
AcDbEntity
  8
layer 1
 62
     7
100
AcDbSpline
210
0.0
220
0.0
230
1.0
 70
    11
 71
     3
 72
    24
 73
    20
 74
     0
 42
0.0000000001
 43
0.0000000001
 12
1.0
 22
0.0
 32
0.0
 13
1.0
 23
0.0
 33
0.0
 40
0.0
 40
0.0
 40
0.0
 40
0.0
 40
0.1666666666666667
 40
0.1666666666666667
 40
0.1666666666666667
 40
0.1666666666666667
 40
0.3333333333333333
 40
0.3333333333333333
 40
0.3333333333333333
 40
0.3333333333333333
 40
0.5
 40
0.5
 40
0.5
 40
0.5
 40
0.6666666666666666
 40
0.6666666666666666
 40
0.6666666666666666
 40
0.6666666666666666
 40
1.0
 40
1.0
 40
1.0
 40
1.0
 10
179.6901
 20
21.8832
 30
0.0
 10
179.6901
 20
21.8832
 30
0.0
 10
172.0883
 20
21.8832
 30
0.0
 10
172.0883
 20
21.8832
 30
0.0
 10
172.0883
 20
21.8832
 30
0.0
 10
172.0883
 20
21.8832
 30
0.0
 10
172.0883
 20
14.0534
 30
0.0
 10
172.0883
 20
14.0534
 30
0.0
 10
172.0883
 20
14.0534
 30
0.0
 10
172.0883
 20
14.0534
 30
0.0
 10
175.9652
 20
10.4743
 30
0.0
 10
175.9652
 20
10.4743
 30
0.0
 10
175.9652
 20
10.4743
 30
0.0
 10
175.9652
 20
10.4743
 30
0.0
 10
183.5732
 20
18.0823
 30
0.0
 10
183.5732
 20
18.0823
 30
0.0
 10
183.5732
 20
18.0823
 30
0.0
 10
183.5732
 20
18.0823
 30
0.0
 10
179.6901
 20
21.8832
 30
0.0
 10
179.6901
 20
21.8832
 30
0.0
  0
SPLINE
  5
B7
330
1F
100
AcDbEntity
  8
layer 1
 62
     7
100
AcDbSpline
210
0.0
220
0.0
230
1.0
 70
    11
 71
     3
 72
    24
 73
    20
 74
     0
 42
0.0000000001
 43
0.0000000001
 12
1.0
 22
0.0
 32
0.0
 13
1.0
 23
0.0
 33
0.0
 40
0.0
 40
0.0
 40
0.0
 40
0.0
 40
0.1666666666666667
 40
0.1666666666666667
 40
0.1666666666666667
 40
0.1666666666666667
 40
0.3333333333333333
 40
0.3333333333333333
 40
0.3333333333333333
 40
0.3333333333333333
 40
0.5
 40
0.5
 40
0.5
 40
0.5
 40
0.6666666666666666
 40
0.6666666666666666
 40
0.6666666666666666
 40
0.6666666666666666
 40
1.0
 40
1.0
 40
1.0
 40
1.0
 10
135.4835
 20
65.9278
 30
0.0
 10
135.4835
 20
65.9278
 30
0.0
 10
127.8818
 20
65.9278
 30
0.0
 10
127.8818
 20
65.9278
 30
0.0
 10
127.8818
 20
65.9278
 30
0.0
 10
127.8818
 20
65.9278
 30
0.0
 10
127.8818
 20
58.098
 30
0.0
 10
127.8818
 20
58.098
 30
0.0
 10
127.8818
 20
58.098
 30
0.0
 10
127.8818
 20
58.098
 30
0.0
 10
131.7587
 20
54.5189
 30
0.0
 10
131.7587
 20
54.5189
 30
0.0
 10
131.7587
 20
54.5189
 30
0.0
 10
131.7587
 20
54.5189
 30
0.0
 10
139.3667
 20
62.1269
 30
0.0
 10
139.3667
 20
62.1269
 30
0.0
 10
139.3667
 20
62.1269
 30
0.0
 10
139.3667
 20
62.1269
 30
0.0
 10
135.4835
 20
65.9278
 30
0.0
 10
135.4835
 20
65.9278
 30
0.0
  0
SPLINE
  5
B8
330
1F
100
AcDbEntity
  8
layer 1
 62
     7
100
AcDbSpline
210
0.0
220
0.0
230
1.0
 70
    11
 71
     3
 72
    24
 73
    20
 74
     0
 42
0.0000000001
 43
0.0000000001
 12
1.0
 22
0.0
 32
0.0
 13
1.0
 23
0.0
 33
0.0
 40
0.0
 40
0.0
 40
0.0
 40
0.0
 40
0.1666666666666667
 40
0.1666666666666667
 40
0.1666666666666667
 40
0.1666666666666667
 40
0.3333333333333333
 40
0.3333333333333333
 40
0.3333333333333333
 40
0.3333333333333333
 40
0.5
 40
0.5
 40
0.5
 40
0.5
 40
0.6666666666666666
 40
0.6666666666666666
 40
0.6666666666666666
 40
0.6666666666666666
 40
1.0
 40
1.0
 40
1.0
 40
1.0
 10
179.6901
 20
65.9278
 30
0.0
 10
179.6901
 20
65.9278
 30
0.0
 10
172.0883
 20
65.9278
 30
0.0
 10
172.0883
 20
65.9278
 30
0.0
 10
172.0883
 20
65.9278
 30
0.0
 10
172.0883
 20
65.9278
 30
0.0
 10
172.0883
 20
58.098
 30
0.0
 10
172.0883
 20
58.098
 30
0.0
 10
172.0883
 20
58.098
 30
0.0
 10
172.0883
 20
58.098
 30
0.0
 10
175.9652
 20
54.5189
 30
0.0
 10
175.9652
 20
54.5189
 30
0.0
 10
175.9652
 20
54.5189
 30
0.0
 10
175.9652
 20
54.5189
 30
0.0
 10
183.5732
 20
62.1269
 30
0.0
 10
183.5732
 20
62.1269
 30
0.0
 10
183.5732
 20
62.1269
 30
0.0
 10
183.5732
 20
62.1269
 30
0.0
 10
179.6901
 20
65.9278
 30
0.0
 10
179.6901
 20
65.9278
 30
0.0
  0
SPLINE
  5
B9
330
1F
100
AcDbEntity
  8
layer 1
 62
     7
100
AcDbSpline
210
0.0
220
0.0
230
1.0
 70
    11
 71
     3
 72
    24
 73
    20
 74
     0
 42
0.0000000001
 43
0.0000000001
 12
1.0
 22
0.0
 32
0.0
 13
1.0
 23
0.0
 33
0.0
 40
0.0
 40
0.0
 40
0.0
 40
0.0
 40
0.1666666666666667
 40
0.1666666666666667
 40
0.1666666666666667
 40
0.1666666666666667
 40
0.3333333333333333
 40
0.3333333333333333
 40
0.3333333333333333
 40
0.3333333333333333
 40
0.5
 40
0.5
 40
0.5
 40
0.5
 40
0.6666666666666666
 40
0.6666666666666666
 40
0.6666666666666666
 40
0.6666666666666666
 40
1.0
 40
1.0
 40
1.0
 40
1.0
 10
135.4835
 20
109.9723
 30
0.0
 10
135.4835
 20
109.9723
 30
0.0
 10
127.8818
 20
109.9723
 30
0.0
 10
127.8818
 20
109.9723
 30
0.0
 10
127.8818
 20
109.9723
 30
0.0
 10
127.8818
 20
109.9723
 30
0.0
 10
127.8818
 20
102.1426
 30
0.0
 10
127.8818
 20
102.1426
 30
0.0
 10
127.8818
 20
102.1426
 30
0.0
 10
127.8818
 20
102.1426
 30
0.0
 10
131.7587
 20
98.5634
 30
0.0
 10
131.7587
 20
98.5634
 30
0.0
 10
131.7587
 20
98.5634
 30
0.0
 10
131.7587
 20
98.5634
 30
0.0
 10
139.3667
 20
106.1715
 30
0.0
 10
139.3667
 20
106.1715
 30
0.0
 10
139.3667
 20
106.1715
 30
0.0
 10
139.3667
 20
106.1715
 30
0.0
 10
135.4835
 20
109.9723
 30
0.0
 10
135.4835
 20
109.9723
 30
0.0
  0
SPLINE
  5
BA
330
1F
100
AcDbEntity
  8
layer 1
 62
     7
100
AcDbSpline
210
0.0
220
0.0
230
1.0
 70
    11
 71
     3
 72
    24
 73
    20
 74
     0
 42
0.0000000001
 43
0.0000000001
 12
1.0
 22
0.0
 32
0.0
 13
1.0
 23
0.0
 33
0.0
 40
0.0
 40
0.0
 40
0.0
 40
0.0
 40
0.1666666666666667
 40
0.1666666666666667
 40
0.1666666666666667
 40
0.1666666666666667
 40
0.3333333333333333
 40
0.3333333333333333
 40
0.3333333333333333
 40
0.3333333333333333
 40
0.5
 40
0.5
 40
0.5
 40
0.5
 40
0.6666666666666666
 40
0.6666666666666666
 40
0.6666666666666666
 40
0.6666666666666666
 40
1.0
 40
1.0
 40
1.0
 40
1.0
 10
179.6901
 20
109.9723
 30
0.0
 10
179.6901
 20
109.9723
 30
0.0
 10
172.0883
 20
109.9723
 30
0.0
 10
172.0883
 20
109.9723
 30
0.0
 10
172.0883
 20
109.9723
 30
0.0
 10
172.0883
 20
109.9723
 30
0.0
 10
172.0883
 20
102.1426
 30
0.0
 10
172.0883
 20
102.1426
 30
0.0
 10
172.0883
 20
102.1426
 30
0.0
 10
172.0883
 20
102.1426
 30
0.0
 10
175.9652
 20
98.5634
 30
0.0
 10
175.9652
 20
98.5634
 30
0.0
 10
175.9652
 20
98.5634
 30
0.0
 10
175.9652
 20
98.5634
 30
0.0
 10
183.5732
 20
106.1715
 30
0.0
 10
183.5732
 20
106.1715
 30
0.0
 10
183.5732
 20
106.1715
 30
0.0
 10
183.5732
 20
106.1715
 30
0.0
 10
179.6901
 20
109.9723
 30
0.0
 10
179.6901
 20
109.9723
 30
0.0
  0
SPLINE
  5
BB
330
1F
100
AcDbEntity
  8
layer 1
 62
     7
100
AcDbSpline
210
0.0
220
0.0
230
1.0
 70
    11
 71
     3
 72
    24
 73
    20
 74
     0
 42
0.0000000001
 43
0.0000000001
 12
1.0
 22
0.0
 32
0.0
 13
1.0
 23
0.0
 33
0.0
 40
0.0
 40
0.0
 40
0.0
 40
0.0
 40
0.1666666666666667
 40
0.1666666666666667
 40
0.1666666666666667
 40
0.1666666666666667
 40
0.3333333333333333
 40
0.3333333333333333
 40
0.3333333333333333
 40
0.3333333333333333
 40
0.5
 40
0.5
 40
0.5
 40
0.5
 40
0.6666666666666666
 40
0.6666666666666666
 40
0.6666666666666666
 40
0.6666666666666666
 40
1.0
 40
1.0
 40
1.0
 40
1.0
 10
147.3486
 20
-5.3373
 30
0.0
 10
147.3486
 20
-5.3373
 30
0.0
 10
154.9503
 20
-5.3373
 30
0.0
 10
154.9503
 20
-5.3373
 30
0.0
 10
154.9503
 20
-5.3373
 30
0.0
 10
154.9503
 20
-5.3373
 30
0.0
 10
154.9503
 20
2.4924
 30
0.0
 10
154.9503
 20
2.4924
 30
0.0
 10
154.9503
 20
2.4924
 30
0.0
 10
154.9503
 20
2.4924
 30
0.0
 10
151.0734
 20
6.0716
 30
0.0
 10
151.0734
 20
6.0716
 30
0.0
 10
151.0734
 20
6.0716
 30
0.0
 10
151.0734
 20
6.0716
 30
0.0
 10
143.4654
 20
-1.5365
 30
0.0
 10
143.4654
 20
-1.5365
 30
0.0
 10
143.4654
 20
-1.5365
 30
0.0
 10
143.4654
 20
-1.5365
 30
0.0
 10
147.3486
 20
-5.3373
 30
0.0
 10
147.3486
 20
-5.3373
 30
0.0
  0
SPLINE
  5
BC
330
1F
100
AcDbEntity
  8
layer 1
 62
     7
100
AcDbSpline
210
0.0
220
0.0
230
1.0
 70
    11
 71
     3
 72
    24
 73
    20
 74
     0
 42
0.0000000001
 43
0.0000000001
 12
1.0
 22
0.0
 32
0.0
 13
1.0
 23
0.0
 33
0.0
 40
0.0
 40
0.0
 40
0.0
 40
0.0
 40
0.1666666666666667
 40
0.1666666666666667
 40
0.1666666666666667
 40
0.1666666666666667
 40
0.3333333333333333
 40
0.3333333333333333
 40
0.3333333333333333
 40
0.3333333333333333
 40
0.5
 40
0.5
 40
0.5
 40
0.5
 40
0.6666666666666666
 40
0.6666666666666666
 40
0.6666666666666666
 40
0.6666666666666666
 40
1.0
 40
1.0
 40
1.0
 40
1.0
 10
147.3486
 20
38.7072
 30
0.0
 10
147.3486
 20
38.7072
 30
0.0
 10
154.9503
 20
38.7072
 30
0.0
 10
154.9503
 20
38.7072
 30
0.0
 10
154.9503
 20
38.7072
 30
0.0
 10
154.9503
 20
38.7072
 30
0.0
 10
154.9503
 20
46.537
 30
0.0
 10
154.9503
 20
46.537
 30
0.0
 10
154.9503
 20
46.537
 30
0.0
 10
154.9503
 20
46.537
 30
0.0
 10
151.0734
 20
50.1161
 30
0.0
 10
151.0734
 20
50.1161
 30
0.0
 10
151.0734
 20
50.1161
 30
0.0
 10
151.0734
 20
50.1161
 30
0.0
 10
143.4654
 20
42.5081
 30
0.0
 10
143.4654
 20
42.5081
 30
0.0
 10
143.4654
 20
42.5081
 30
0.0
 10
143.4654
 20
42.5081
 30
0.0
 10
147.3486
 20
38.7072
 30
0.0
 10
147.3486
 20
38.7072
 30
0.0
  0
SPLINE
  5
BD
330
1F
100
AcDbEntity
  8
layer 1
 62
     7
100
AcDbSpline
210
0.0
220
0.0
230
1.0
 70
    11
 71
     3
 72
    24
 73
    20
 74
     0
 42
0.0000000001
 43
0.0000000001
 12
1.0
 22
0.0
 32
0.0
 13
1.0
 23
0.0
 33
0.0
 40
0.0
 40
0.0
 40
0.0
 40
0.0
 40
0.1666666666666667
 40
0.1666666666666667
 40
0.1666666666666667
 40
0.1666666666666667
 40
0.3333333333333333
 40
0.3333333333333333
 40
0.3333333333333333
 40
0.3333333333333333
 40
0.5
 40
0.5
 40
0.5
 40
0.5
 40
0.6666666666666666
 40
0.6666666666666666
 40
0.6666666666666666
 40
0.6666666666666666
 40
1.0
 40
1.0
 40
1.0
 40
1.0
 10
147.3486
 20
82.7518
 30
0.0
 10
147.3486
 20
82.7518
 30
0.0
 10
154.9503
 20
82.7518
 30
0.0
 10
154.9503
 20
82.7518
 30
0.0
 10
154.9503
 20
82.7518
 30
0.0
 10
154.9503
 20
82.7518
 30
0.0
 10
154.9503
 20
90.5816
 30
0.0
 10
154.9503
 20
90.5816
 30
0.0
 10
154.9503
 20
90.5816
 30
0.0
 10
154.9503
 20
90.5816
 30
0.0
 10
151.0734
 20
94.1607
 30
0.0
 10
151.0734
 20
94.1607
 30
0.0
 10
151.0734
 20
94.1607
 30
0.0
 10
151.0734
 20
94.1607
 30
0.0
 10
143.4654
 20
86.5527
 30
0.0
 10
143.4654
 20
86.5527
 30
0.0
 10
143.4654
 20
86.5527
 30
0.0
 10
143.4654
 20
86.5527
 30
0.0
 10
147.3486
 20
82.7518
 30
0.0
 10
147.3486
 20
82.7518
 30
0.0
  0
SPLINE
  5
BE
330
1F
100
AcDbEntity
  8
layer 1
 62
     7
100
AcDbSpline
210
0.0
220
0.0
230
1.0
 70
    11
 71
     3
 72
    24
 73
    20
 74
     0
 42
0.0000000001
 43
0.0000000001
 12
1.0
 22
0.0
 32
0.0
 13
1.0
 23
0.0
 33
0.0
 40
0.0
 40
0.0
 40
0.0
 40
0.0
 40
0.1666666666666667
 40
0.1666666666666667
 40
0.1666666666666667
 40
0.1666666666666667
 40
0.3333333333333333
 40
0.3333333333333333
 40
0.3333333333333333
 40
0.3333333333333333
 40
0.5
 40
0.5
 40
0.5
 40
0.5
 40
0.6666666666666666
 40
0.6666666666666666
 40
0.6666666666666666
 40
0.6666666666666666
 40
1.0
 40
1.0
 40
1.0
 40
1.0
 10
147.3486
 20
21.8832
 30
0.0
 10
147.3486
 20
21.8832
 30
0.0
 10
154.9503
 20
21.8832
 30
0.0
 10
154.9503
 20
21.8832
 30
0.0
 10
154.9503
 20
21.8832
 30
0.0
 10
154.9503
 20
21.8832
 30
0.0
 10
154.9503
 20
14.0534
 30
0.0
 10
154.9503
 20
14.0534
 30
0.0
 10
154.9503
 20
14.0534
 30
0.0
 10
154.9503
 20
14.0534
 30
0.0
 10
151.0734
 20
10.4743
 30
0.0
 10
151.0734
 20
10.4743
 30
0.0
 10
151.0734
 20
10.4743
 30
0.0
 10
151.0734
 20
10.4743
 30
0.0
 10
143.4654
 20
18.0823
 30
0.0
 10
143.4654
 20
18.0823
 30
0.0
 10
143.4654
 20
18.0823
 30
0.0
 10
143.4654
 20
18.0823
 30
0.0
 10
147.3486
 20
21.8832
 30
0.0
 10
147.3486
 20
21.8832
 30
0.0
  0
SPLINE
  5
BF
330
1F
100
AcDbEntity
  8
layer 1
 62
     7
100
AcDbSpline
210
0.0
220
0.0
230
1.0
 70
    11
 71
     3
 72
    24
 73
    20
 74
     0
 42
0.0000000001
 43
0.0000000001
 12
1.0
 22
0.0
 32
0.0
 13
1.0
 23
0.0
 33
0.0
 40
0.0
 40
0.0
 40
0.0
 40
0.0
 40
0.1666666666666667
 40
0.1666666666666667
 40
0.1666666666666667
 40
0.1666666666666667
 40
0.3333333333333333
 40
0.3333333333333333
 40
0.3333333333333333
 40
0.3333333333333333
 40
0.5
 40
0.5
 40
0.5
 40
0.5
 40
0.6666666666666666
 40
0.6666666666666666
 40
0.6666666666666666
 40
0.6666666666666666
 40
1.0
 40
1.0
 40
1.0
 40
1.0
 10
147.3486
 20
65.9278
 30
0.0
 10
147.3486
 20
65.9278
 30
0.0
 10
154.9503
 20
65.9278
 30
0.0
 10
154.9503
 20
65.9278
 30
0.0
 10
154.9503
 20
65.9278
 30
0.0
 10
154.9503
 20
65.9278
 30
0.0
 10
154.9503
 20
58.098
 30
0.0
 10
154.9503
 20
58.098
 30
0.0
 10
154.9503
 20
58.098
 30
0.0
 10
154.9503
 20
58.098
 30
0.0
 10
151.0734
 20
54.5189
 30
0.0
 10
151.0734
 20
54.5189
 30
0.0
 10
151.0734
 20
54.5189
 30
0.0
 10
151.0734
 20
54.5189
 30
0.0
 10
143.4654
 20
62.1269
 30
0.0
 10
143.4654
 20
62.1269
 30
0.0
 10
143.4654
 20
62.1269
 30
0.0
 10
143.4654
 20
62.1269
 30
0.0
 10
147.3486
 20
65.9278
 30
0.0
 10
147.3486
 20
65.9278
 30
0.0
  0
SPLINE
  5
C0
330
1F
100
AcDbEntity
  8
layer 1
 62
     7
100
AcDbSpline
210
0.0
220
0.0
230
1.0
 70
    11
 71
     3
 72
    24
 73
    20
 74
     0
 42
0.0000000001
 43
0.0000000001
 12
1.0
 22
0.0
 32
0.0
 13
1.0
 23
0.0
 33
0.0
 40
0.0
 40
0.0
 40
0.0
 40
0.0
 40
0.1666666666666667
 40
0.1666666666666667
 40
0.1666666666666667
 40
0.1666666666666667
 40
0.3333333333333333
 40
0.3333333333333333
 40
0.3333333333333333
 40
0.3333333333333333
 40
0.5
 40
0.5
 40
0.5
 40
0.5
 40
0.6666666666666666
 40
0.6666666666666666
 40
0.6666666666666666
 40
0.6666666666666666
 40
1.0
 40
1.0
 40
1.0
 40
1.0
 10
147.3486
 20
109.9723
 30
0.0
 10
147.3486
 20
109.9723
 30
0.0
 10
154.9503
 20
109.9723
 30
0.0
 10
154.9503
 20
109.9723
 30
0.0
 10
154.9503
 20
109.9723
 30
0.0
 10
154.9503
 20
109.9723
 30
0.0
 10
154.9503
 20
102.1426
 30
0.0
 10
154.9503
 20
102.1426
 30
0.0
 10
154.9503
 20
102.1426
 30
0.0
 10
154.9503
 20
102.1426
 30
0.0
 10
151.0734
 20
98.5634
 30
0.0
 10
151.0734
 20
98.5634
 30
0.0
 10
151.0734
 20
98.5634
 30
0.0
 10
151.0734
 20
98.5634
 30
0.0
 10
143.4654
 20
106.1715
 30
0.0
 10
143.4654
 20
106.1715
 30
0.0
 10
143.4654
 20
106.1715
 30
0.0
 10
143.4654
 20
106.1715
 30
0.0
 10
147.3486
 20
109.9723
 30
0.0
 10
147.3486
 20
109.9723
 30
0.0
  0
SPLINE
  5
C1
330
1F
100
AcDbEntity
  8
layer 1
 62
     7
100
AcDbSpline
210
0.0
220
0.0
230
1.0
 70
    11
 71
     3
 72
    20
 73
    16
 74
     0
 42
0.0000000001
 43
0.0000000001
 12
1.0
 22
0.0
 32
0.0
 13
1.0
 23
0.0
 33
0.0
 40
0.0
 40
0.0
 40
0.0
 40
0.0
 40
0.2
 40
0.2
 40
0.2
 40
0.2
 40
0.4
 40
0.4
 40
0.4
 40
0.4
 40
0.6
 40
0.6
 40
0.6
 40
0.6
 40
1.0
 40
1.0
 40
1.0
 40
1.0
 10
156.9965
 20
4.5386
 30
0.0
 10
156.9965
 20
4.5386
 30
0.0
 10
153.3413
 20
8.1937
 30
0.0
 10
153.3413
 20
8.1937
 30
0.0
 10
153.3413
 20
8.1937
 30
0.0
 10
153.3413
 20
8.1937
 30
0.0
 10
156.9965
 20
11.8488
 30
0.0
 10
156.9965
 20
11.8488
 30
0.0
 10
156.9965
 20
11.8488
 30
0.0
 10
156.9965
 20
11.8488
 30
0.0
 10
160.6516
 20
8.1937
 30
0.0
 10
160.6516
 20
8.1937
 30
0.0
 10
160.6516
 20
8.1937
 30
0.0
 10
160.6516
 20
8.1937
 30
0.0
 10
156.9965
 20
4.5386
 30
0.0
 10
156.9965
 20
4.5386
 30
0.0
  0
SPLINE
  5
C2
330
1F
100
AcDbEntity
  8
layer 1
 62
     7
100
AcDbSpline
210
0.0
220
0.0
230
1.0
 70
    11
 71
     3
 72
    20
 73
    16
 74
     0
 42
0.0000000001
 43
0.0000000001
 12
1.0
 22
0.0
 32
0.0
 13
1.0
 23
0.0
 33
0.0
 40
0.0
 40
0.0
 40
0.0
 40
0.0
 40
0.2
 40
0.2
 40
0.2
 40
0.2
 40
0.4
 40
0.4
 40
0.4
 40
0.4
 40
0.6
 40
0.6
 40
0.6
 40
0.6
 40
1.0
 40
1.0
 40
1.0
 40
1.0
 10
156.9965
 20
48.5832
 30
0.0
 10
156.9965
 20
48.5832
 30
0.0
 10
153.3413
 20
52.2383
 30
0.0
 10
153.3413
 20
52.2383
 30
0.0
 10
153.3413
 20
52.2383
 30
0.0
 10
153.3413
 20
52.2383
 30
0.0
 10
156.9965
 20
55.8934
 30
0.0
 10
156.9965
 20
55.8934
 30
0.0
 10
156.9965
 20
55.8934
 30
0.0
 10
156.9965
 20
55.8934
 30
0.0
 10
160.6516
 20
52.2383
 30
0.0
 10
160.6516
 20
52.2383
 30
0.0
 10
160.6516
 20
52.2383
 30
0.0
 10
160.6516
 20
52.2383
 30
0.0
 10
156.9965
 20
48.5832
 30
0.0
 10
156.9965
 20
48.5832
 30
0.0
  0
SPLINE
  5
C3
330
1F
100
AcDbEntity
  8
layer 1
 62
     7
100
AcDbSpline
210
0.0
220
0.0
230
1.0
 70
    11
 71
     3
 72
    20
 73
    16
 74
     0
 42
0.0000000001
 43
0.0000000001
 12
1.0
 22
0.0
 32
0.0
 13
1.0
 23
0.0
 33
0.0
 40
0.0
 40
0.0
 40
0.0
 40
0.0
 40
0.2
 40
0.2
 40
0.2
 40
0.2
 40
0.4
 40
0.4
 40
0.4
 40
0.4
 40
0.6
 40
0.6
 40
0.6
 40
0.6
 40
1.0
 40
1.0
 40
1.0
 40
1.0
 10
156.9965
 20
92.6277
 30
0.0
 10
156.9965
 20
92.6277
 30
0.0
 10
153.3413
 20
96.2829
 30
0.0
 10
153.3413
 20
96.2829
 30
0.0
 10
153.3413
 20
96.2829
 30
0.0
 10
153.3413
 20
96.2829
 30
0.0
 10
156.9965
 20
99.938
 30
0.0
 10
156.9965
 20
99.938
 30
0.0
 10
156.9965
 20
99.938
 30
0.0
 10
156.9965
 20
99.938
 30
0.0
 10
160.6516
 20
96.2829
 30
0.0
 10
160.6516
 20
96.2829
 30
0.0
 10
160.6516
 20
96.2829
 30
0.0
 10
160.6516
 20
96.2829
 30
0.0
 10
156.9965
 20
92.6277
 30
0.0
 10
156.9965
 20
92.6277
 30
0.0
  0
SPLINE
  5
C4
330
1F
100
AcDbEntity
  8
layer 1
 62
     7
100
AcDbSpline
210
0.0
220
0.0
230
1.0
 70
    11
 71
     3
 72
    20
 73
    16
 74
     0
 42
0.0000000001
 43
0.0000000001
 12
1.0
 22
0.0
 32
0.0
 13
1.0
 23
0.0
 33
0.0
 40
0.0
 40
0.0
 40
0.0
 40
0.0
 40
0.2
 40
0.2
 40
0.2
 40
0.2
 40
0.4
 40
0.4
 40
0.4
 40
0.4
 40
0.6
 40
0.6
 40
0.6
 40
0.6
 40
1.0
 40
1.0
 40
1.0
 40
1.0
 10
53.2457
 20
-55.0135
 30
0.0
 10
53.2457
 20
-55.0135
 30
0.0
 10
49.5906
 20
-51.3584
 30
0.0
 10
49.5906
 20
-51.3584
 30
0.0
 10
49.5906
 20
-51.3584
 30
0.0
 10
49.5906
 20
-51.3584
 30
0.0
 10
53.2457
 20
-47.7033
 30
0.0
 10
53.2457
 20
-47.7033
 30
0.0
 10
53.2457
 20
-47.7033
 30
0.0
 10
53.2457
 20
-47.7033
 30
0.0
 10
56.9009
 20
-51.3584
 30
0.0
 10
56.9009
 20
-51.3584
 30
0.0
 10
56.9009
 20
-51.3584
 30
0.0
 10
56.9009
 20
-51.3584
 30
0.0
 10
53.2457
 20
-55.0135
 30
0.0
 10
53.2457
 20
-55.0135
 30
0.0
  0
SPLINE
  5
C5
330
1F
100
AcDbEntity
  8
layer 1
 62
     7
100
AcDbSpline
210
0.0
220
0.0
230
1.0
 70
    11
 71
     3
 72
    20
 73
    16
 74
     0
 42
0.0000000001
 43
0.0000000001
 12
1.0
 22
0.0
 32
0.0
 13
1.0
 23
0.0
 33
0.0
 40
0.0
 40
0.0
 40
0.0
 40
0.0
 40
0.2
 40
0.2
 40
0.2
 40
0.2
 40
0.4
 40
0.4
 40
0.4
 40
0.4
 40
0.6
 40
0.6
 40
0.6
 40
0.6
 40
1.0
 40
1.0
 40
1.0
 40
1.0
 10
53.2457
 20
-23.9225
 30
0.0
 10
53.2457
 20
-23.9225
 30
0.0
 10
49.5906
 20
-20.2674
 30
0.0
 10
49.5906
 20
-20.2674
 30
0.0
 10
49.5906
 20
-20.2674
 30
0.0
 10
49.5906
 20
-20.2674
 30
0.0
 10
53.2457
 20
-16.6122
 30
0.0
 10
53.2457
 20
-16.6122
 30
0.0
 10
53.2457
 20
-16.6122
 30
0.0
 10
53.2457
 20
-16.6122
 30
0.0
 10
56.9009
 20
-20.2674
 30
0.0
 10
56.9009
 20
-20.2674
 30
0.0
 10
56.9009
 20
-20.2674
 30
0.0
 10
56.9009
 20
-20.2674
 30
0.0
 10
53.2457
 20
-23.9225
 30
0.0
 10
53.2457
 20
-23.9225
 30
0.0
  0
SPLINE
  5
C6
330
1F
100
AcDbEntity
  8
layer 1
 62
     7
100
AcDbSpline
210
0.0
220
0.0
230
1.0
 70
    11
 71
     3
 72
    24
 73
    20
 74
     0
 42
0.0000000001
 43
0.0000000001
 12
1.0
 22
0.0
 32
0.0
 13
1.0
 23
0.0
 33
0.0
 40
0.0
 40
0.0
 40
0.0
 40
0.0
 40
0.1666666666666667
 40
0.1666666666666667
 40
0.1666666666666667
 40
0.1666666666666667
 40
0.3333333333333333
 40
0.3333333333333333
 40
0.3333333333333333
 40
0.3333333333333333
 40
0.5
 40
0.5
 40
0.5
 40
0.5
 40
0.6666666666666666
 40
0.6666666666666666
 40
0.6666666666666666
 40
0.6666666666666666
 40
1.0
 40
1.0
 40
1.0
 40
1.0
 10
59.1815
 20
-49.3819
 30
0.0
 10
59.1815
 20
-49.3819
 30
0.0
 10
66.7832
 20
-49.3819
 30
0.0
 10
66.7832
 20
-49.3819
 30
0.0
 10
66.7832
 20
-49.3819
 30
0.0
 10
66.7832
 20
-49.3819
 30
0.0
 10
66.7832
 20
-41.5522
 30
0.0
 10
66.7832
 20
-41.5522
 30
0.0
 10
66.7832
 20
-41.5522
 30
0.0
 10
66.7832
 20
-41.5522
 30
0.0
 10
62.9063
 20
-37.973
 30
0.0
 10
62.9063
 20
-37.973
 30
0.0
 10
62.9063
 20
-37.973
 30
0.0
 10
62.9063
 20
-37.973
 30
0.0
 10
55.2983
 20
-45.581
 30
0.0
 10
55.2983
 20
-45.581
 30
0.0
 10
55.2983
 20
-45.581
 30
0.0
 10
55.2983
 20
-45.581
 30
0.0
 10
59.1815
 20
-49.3819
 30
0.0
 10
59.1815
 20
-49.3819
 30
0.0
  0
SPLINE
  5
C7
330
1F
100
AcDbEntity
  8
layer 1
 62
     7
100
AcDbSpline
210
0.0
220
0.0
230
1.0
 70
    11
 71
     3
 72
    24
 73
    20
 74
     0
 42
0.0000000001
 43
0.0000000001
 12
1.0
 22
0.0
 32
0.0
 13
1.0
 23
0.0
 33
0.0
 40
0.0
 40
0.0
 40
0.0
 40
0.0
 40
0.1666666666666667
 40
0.1666666666666667
 40
0.1666666666666667
 40
0.1666666666666667
 40
0.3333333333333333
 40
0.3333333333333333
 40
0.3333333333333333
 40
0.3333333333333333
 40
0.5
 40
0.5
 40
0.5
 40
0.5
 40
0.6666666666666666
 40
0.6666666666666666
 40
0.6666666666666666
 40
0.6666666666666666
 40
1.0
 40
1.0
 40
1.0
 40
1.0
 10
59.1815
 20
-22.1614
 30
0.0
 10
59.1815
 20
-22.1614
 30
0.0
 10
66.7832
 20
-22.1614
 30
0.0
 10
66.7832
 20
-22.1614
 30
0.0
 10
66.7832
 20
-22.1614
 30
0.0
 10
66.7832
 20
-22.1614
 30
0.0
 10
66.7832
 20
-29.9911
 30
0.0
 10
66.7832
 20
-29.9911
 30
0.0
 10
66.7832
 20
-29.9911
 30
0.0
 10
66.7832
 20
-29.9911
 30
0.0
 10
62.9063
 20
-33.5703
 30
0.0
 10
62.9063
 20
-33.5703
 30
0.0
 10
62.9063
 20
-33.5703
 30
0.0
 10
62.9063
 20
-33.5703
 30
0.0
 10
55.2983
 20
-25.9622
 30
0.0
 10
55.2983
 20
-25.9622
 30
0.0
 10
55.2983
 20
-25.9622
 30
0.0
 10
55.2983
 20
-25.9622
 30
0.0
 10
59.1815
 20
-22.1614
 30
0.0
 10
59.1815
 20
-22.1614
 30
0.0
  0
SPLINE
  5
C8
330
1F
100
AcDbEntity
  8
layer 1
 62
     7
100
AcDbSpline
210
0.0
220
0.0
230
1.0
 70
    11
 71
     3
 72
    20
 73
    16
 74
     0
 42
0.0000000001
 43
0.0000000001
 12
1.0
 22
0.0
 32
0.0
 13
1.0
 23
0.0
 33
0.0
 40
0.0
 40
0.0
 40
0.0
 40
0.0
 40
0.2
 40
0.2
 40
0.2
 40
0.2
 40
0.4
 40
0.4
 40
0.4
 40
0.4
 40
0.6
 40
0.6
 40
0.6
 40
0.6
 40
1.0
 40
1.0
 40
1.0
 40
1.0
 10
68.8293
 20
-39.506
 30
0.0
 10
68.8293
 20
-39.506
 30
0.0
 10
65.1742
 20
-35.8509
 30
0.0
 10
65.1742
 20
-35.8509
 30
0.0
 10
65.1742
 20
-35.8509
 30
0.0
 10
65.1742
 20
-35.8509
 30
0.0
 10
68.8293
 20
-32.1957
 30
0.0
 10
68.8293
 20
-32.1957
 30
0.0
 10
68.8293
 20
-32.1957
 30
0.0
 10
68.8293
 20
-32.1957
 30
0.0
 10
72.4845
 20
-35.8509
 30
0.0
 10
72.4845
 20
-35.8509
 30
0.0
 10
72.4845
 20
-35.8509
 30
0.0
 10
72.4845
 20
-35.8509
 30
0.0
 10
68.8293
 20
-39.506
 30
0.0
 10
68.8293
 20
-39.506
 30
0.0
  0
SPLINE
  5
C9
330
1F
100
AcDbEntity
  8
layer 1
 62
     7
100
AcDbSpline
210
0.0
220
0.0
230
1.0
 70
    11
 71
     3
 72
    20
 73
    16
 74
     0
 42
0.0000000001
 43
0.0000000001
 12
1.0
 22
0.0
 32
0.0
 13
1.0
 23
0.0
 33
0.0
 40
0.0
 40
0.0
 40
0.0
 40
0.0
 40
0.2
 40
0.2
 40
0.2
 40
0.2
 40
0.4
 40
0.4
 40
0.4
 40
0.4
 40
0.6
 40
0.6
 40
0.6
 40
0.6
 40
1.0
 40
1.0
 40
1.0
 40
1.0
 10
53.2457
 20
-99.3327
 30
0.0
 10
53.2457
 20
-99.3327
 30
0.0
 10
49.5906
 20
-95.6776
 30
0.0
 10
49.5906
 20
-95.6776
 30
0.0
 10
49.5906
 20
-95.6776
 30
0.0
 10
49.5906
 20
-95.6776
 30
0.0
 10
53.2457
 20
-92.0225
 30
0.0
 10
53.2457
 20
-92.0225
 30
0.0
 10
53.2457
 20
-92.0225
 30
0.0
 10
53.2457
 20
-92.0225
 30
0.0
 10
56.9009
 20
-95.6776
 30
0.0
 10
56.9009
 20
-95.6776
 30
0.0
 10
56.9009
 20
-95.6776
 30
0.0
 10
56.9009
 20
-95.6776
 30
0.0
 10
53.2457
 20
-99.3327
 30
0.0
 10
53.2457
 20
-99.3327
 30
0.0
  0
SPLINE
  5
CA
330
1F
100
AcDbEntity
  8
layer 1
 62
     7
100
AcDbSpline
210
0.0
220
0.0
230
1.0
 70
    11
 71
     3
 72
    20
 73
    16
 74
     0
 42
0.0000000001
 43
0.0000000001
 12
1.0
 22
0.0
 32
0.0
 13
1.0
 23
0.0
 33
0.0
 40
0.0
 40
0.0
 40
0.0
 40
0.0
 40
0.2
 40
0.2
 40
0.2
 40
0.2
 40
0.4
 40
0.4
 40
0.4
 40
0.4
 40
0.6
 40
0.6
 40
0.6
 40
0.6
 40
1.0
 40
1.0
 40
1.0
 40
1.0
 10
53.2457
 20
-68.2417
 30
0.0
 10
53.2457
 20
-68.2417
 30
0.0
 10
49.5906
 20
-64.5865
 30
0.0
 10
49.5906
 20
-64.5865
 30
0.0
 10
49.5906
 20
-64.5865
 30
0.0
 10
49.5906
 20
-64.5865
 30
0.0
 10
53.2457
 20
-60.9314
 30
0.0
 10
53.2457
 20
-60.9314
 30
0.0
 10
53.2457
 20
-60.9314
 30
0.0
 10
53.2457
 20
-60.9314
 30
0.0
 10
56.9009
 20
-64.5865
 30
0.0
 10
56.9009
 20
-64.5865
 30
0.0
 10
56.9009
 20
-64.5865
 30
0.0
 10
56.9009
 20
-64.5865
 30
0.0
 10
53.2457
 20
-68.2417
 30
0.0
 10
53.2457
 20
-68.2417
 30
0.0
  0
SPLINE
  5
CB
330
1F
100
AcDbEntity
  8
layer 1
 62
     7
100
AcDbSpline
210
0.0
220
0.0
230
1.0
 70
    11
 71
     3
 72
    24
 73
    20
 74
     0
 42
0.0000000001
 43
0.0000000001
 12
1.0
 22
0.0
 32
0.0
 13
1.0
 23
0.0
 33
0.0
 40
0.0
 40
0.0
 40
0.0
 40
0.0
 40
0.1666666666666667
 40
0.1666666666666667
 40
0.1666666666666667
 40
0.1666666666666667
 40
0.3333333333333333
 40
0.3333333333333333
 40
0.3333333333333333
 40
0.3333333333333333
 40
0.5
 40
0.5
 40
0.5
 40
0.5
 40
0.6666666666666666
 40
0.6666666666666666
 40
0.6666666666666666
 40
0.6666666666666666
 40
1.0
 40
1.0
 40
1.0
 40
1.0
 10
59.1815
 20
-93.7011
 30
0.0
 10
59.1815
 20
-93.7011
 30
0.0
 10
66.7832
 20
-93.7011
 30
0.0
 10
66.7832
 20
-93.7011
 30
0.0
 10
66.7832
 20
-93.7011
 30
0.0
 10
66.7832
 20
-93.7011
 30
0.0
 10
66.7832
 20
-85.8713
 30
0.0
 10
66.7832
 20
-85.8713
 30
0.0
 10
66.7832
 20
-85.8713
 30
0.0
 10
66.7832
 20
-85.8713
 30
0.0
 10
62.9063
 20
-82.2922
 30
0.0
 10
62.9063
 20
-82.2922
 30
0.0
 10
62.9063
 20
-82.2922
 30
0.0
 10
62.9063
 20
-82.2922
 30
0.0
 10
55.2983
 20
-89.9002
 30
0.0
 10
55.2983
 20
-89.9002
 30
0.0
 10
55.2983
 20
-89.9002
 30
0.0
 10
55.2983
 20
-89.9002
 30
0.0
 10
59.1815
 20
-93.7011
 30
0.0
 10
59.1815
 20
-93.7011
 30
0.0
  0
SPLINE
  5
CC
330
1F
100
AcDbEntity
  8
layer 1
 62
     7
100
AcDbSpline
210
0.0
220
0.0
230
1.0
 70
    11
 71
     3
 72
    24
 73
    20
 74
     0
 42
0.0000000001
 43
0.0000000001
 12
1.0
 22
0.0
 32
0.0
 13
1.0
 23
0.0
 33
0.0
 40
0.0
 40
0.0
 40
0.0
 40
0.0
 40
0.1666666666666667
 40
0.1666666666666667
 40
0.1666666666666667
 40
0.1666666666666667
 40
0.3333333333333333
 40
0.3333333333333333
 40
0.3333333333333333
 40
0.3333333333333333
 40
0.5
 40
0.5
 40
0.5
 40
0.5
 40
0.6666666666666666
 40
0.6666666666666666
 40
0.6666666666666666
 40
0.6666666666666666
 40
1.0
 40
1.0
 40
1.0
 40
1.0
 10
59.1815
 20
-66.4806
 30
0.0
 10
59.1815
 20
-66.4806
 30
0.0
 10
66.7832
 20
-66.4806
 30
0.0
 10
66.7832
 20
-66.4806
 30
0.0
 10
66.7832
 20
-66.4806
 30
0.0
 10
66.7832
 20
-66.4806
 30
0.0
 10
66.7832
 20
-74.3103
 30
0.0
 10
66.7832
 20
-74.3103
 30
0.0
 10
66.7832
 20
-74.3103
 30
0.0
 10
66.7832
 20
-74.3103
 30
0.0
 10
62.9063
 20
-77.8895
 30
0.0
 10
62.9063
 20
-77.8895
 30
0.0
 10
62.9063
 20
-77.8895
 30
0.0
 10
62.9063
 20
-77.8895
 30
0.0
 10
55.2983
 20
-70.2814
 30
0.0
 10
55.2983
 20
-70.2814
 30
0.0
 10
55.2983
 20
-70.2814
 30
0.0
 10
55.2983
 20
-70.2814
 30
0.0
 10
59.1815
 20
-66.4806
 30
0.0
 10
59.1815
 20
-66.4806
 30
0.0
  0
SPLINE
  5
CD
330
1F
100
AcDbEntity
  8
layer 1
 62
     7
100
AcDbSpline
210
0.0
220
0.0
230
1.0
 70
    11
 71
     3
 72
    20
 73
    16
 74
     0
 42
0.0000000001
 43
0.0000000001
 12
1.0
 22
0.0
 32
0.0
 13
1.0
 23
0.0
 33
0.0
 40
0.0
 40
0.0
 40
0.0
 40
0.0
 40
0.2
 40
0.2
 40
0.2
 40
0.2
 40
0.4
 40
0.4
 40
0.4
 40
0.4
 40
0.6
 40
0.6
 40
0.6
 40
0.6
 40
1.0
 40
1.0
 40
1.0
 40
1.0
 10
68.8293
 20
-83.8252
 30
0.0
 10
68.8293
 20
-83.8252
 30
0.0
 10
65.1742
 20
-80.1701
 30
0.0
 10
65.1742
 20
-80.1701
 30
0.0
 10
65.1742
 20
-80.1701
 30
0.0
 10
65.1742
 20
-80.1701
 30
0.0
 10
68.8293
 20
-76.5149
 30
0.0
 10
68.8293
 20
-76.5149
 30
0.0
 10
68.8293
 20
-76.5149
 30
0.0
 10
68.8293
 20
-76.5149
 30
0.0
 10
72.4845
 20
-80.1701
 30
0.0
 10
72.4845
 20
-80.1701
 30
0.0
 10
72.4845
 20
-80.1701
 30
0.0
 10
72.4845
 20
-80.1701
 30
0.0
 10
68.8293
 20
-83.8252
 30
0.0
 10
68.8293
 20
-83.8252
 30
0.0
  0
SPLINE
  5
CE
330
1F
100
AcDbEntity
  8
layer 1
 62
     7
100
AcDbSpline
210
0.0
220
0.0
230
1.0
 70
    11
 71
     3
 72
    20
 73
    16
 74
     0
 42
0.0000000001
 43
0.0000000001
 12
1.0
 22
0.0
 32
0.0
 13
1.0
 23
0.0
 33
0.0
 40
0.0
 40
0.0
 40
0.0
 40
0.0
 40
0.2
 40
0.2
 40
0.2
 40
0.2
 40
0.4
 40
0.4
 40
0.4
 40
0.4
 40
0.6
 40
0.6
 40
0.6
 40
0.6
 40
1.0
 40
1.0
 40
1.0
 40
1.0
 10
53.3978
 20
0.5857
 30
0.0
 10
53.3978
 20
0.5857
 30
0.0
 10
45.7898
 20
8.1937
 30
0.0
 10
45.7898
 20
8.1937
 30
0.0
 10
45.7898
 20
8.1937
 30
0.0
 10
45.7898
 20
8.1937
 30
0.0
 10
53.3978
 20
15.8017
 30
0.0
 10
53.3978
 20
15.8017
 30
0.0
 10
53.3978
 20
15.8017
 30
0.0
 10
53.3978
 20
15.8017
 30
0.0
 10
61.0058
 20
8.1937
 30
0.0
 10
61.0058
 20
8.1937
 30
0.0
 10
61.0058
 20
8.1937
 30
0.0
 10
61.0058
 20
8.1937
 30
0.0
 10
53.3978
 20
0.5857
 30
0.0
 10
53.3978
 20
0.5857
 30
0.0
  0
SPLINE
  5
CF
330
1F
100
AcDbEntity
  8
layer 1
 62
     7
100
AcDbSpline
210
0.0
220
0.0
230
1.0
 70
    11
 71
     3
 72
    20
 73
    16
 74
     0
 42
0.0000000001
 43
0.0000000001
 12
1.0
 22
0.0
 32
0.0
 13
1.0
 23
0.0
 33
0.0
 40
0.0
 40
0.0
 40
0.0
 40
0.0
 40
0.2
 40
0.2
 40
0.2
 40
0.2
 40
0.4
 40
0.4
 40
0.4
 40
0.4
 40
0.6
 40
0.6
 40
0.6
 40
0.6
 40
1.0
 40
1.0
 40
1.0
 40
1.0
 10
53.3978
 20
88.6748
 30
0.0
 10
53.3978
 20
88.6748
 30
0.0
 10
45.7898
 20
96.2829
 30
0.0
 10
45.7898
 20
96.2829
 30
0.0
 10
45.7898
 20
96.2829
 30
0.0
 10
45.7898
 20
96.2829
 30
0.0
 10
53.3978
 20
103.8909
 30
0.0
 10
53.3978
 20
103.8909
 30
0.0
 10
53.3978
 20
103.8909
 30
0.0
 10
53.3978
 20
103.8909
 30
0.0
 10
61.0058
 20
96.2829
 30
0.0
 10
61.0058
 20
96.2829
 30
0.0
 10
61.0058
 20
96.2829
 30
0.0
 10
61.0058
 20
96.2829
 30
0.0
 10
53.3978
 20
88.6748
 30
0.0
 10
53.3978
 20
88.6748
 30
0.0
  0
SPLINE
  5
D0
330
1F
100
AcDbEntity
  8
layer 1
 62
     7
100
AcDbSpline
210
0.0
220
0.0
230
1.0
 70
    11
 71
     3
 72
    20
 73
    16
 74
     0
 42
0.0000000001
 43
0.0000000001
 12
1.0
 22
0.0
 32
0.0
 13
1.0
 23
0.0
 33
0.0
 40
0.0
 40
0.0
 40
0.0
 40
0.0
 40
0.2
 40
0.2
 40
0.2
 40
0.2
 40
0.4
 40
0.4
 40
0.4
 40
0.4
 40
0.6
 40
0.6
 40
0.6
 40
0.6
 40
1.0
 40
1.0
 40
1.0
 40
1.0
 10
53.2457
 20
-10.969
 30
0.0
 10
53.2457
 20
-10.969
 30
0.0
 10
49.5906
 20
-7.3138
 30
0.0
 10
49.5906
 20
-7.3138
 30
0.0
 10
49.5906
 20
-7.3138
 30
0.0
 10
49.5906
 20
-7.3138
 30
0.0
 10
53.2457
 20
-3.6587
 30
0.0
 10
53.2457
 20
-3.6587
 30
0.0
 10
53.2457
 20
-3.6587
 30
0.0
 10
53.2457
 20
-3.6587
 30
0.0
 10
56.9009
 20
-7.3138
 30
0.0
 10
56.9009
 20
-7.3138
 30
0.0
 10
56.9009
 20
-7.3138
 30
0.0
 10
56.9009
 20
-7.3138
 30
0.0
 10
53.2457
 20
-10.969
 30
0.0
 10
53.2457
 20
-10.969
 30
0.0
  0
SPLINE
  5
D1
330
1F
100
AcDbEntity
  8
layer 1
 62
     7
100
AcDbSpline
210
0.0
220
0.0
230
1.0
 70
    11
 71
     3
 72
    20
 73
    16
 74
     0
 42
0.0000000001
 43
0.0000000001
 12
1.0
 22
0.0
 32
0.0
 13
1.0
 23
0.0
 33
0.0
 40
0.0
 40
0.0
 40
0.0
 40
0.0
 40
0.2
 40
0.2
 40
0.2
 40
0.2
 40
0.4
 40
0.4
 40
0.4
 40
0.4
 40
0.6
 40
0.6
 40
0.6
 40
0.6
 40
1.0
 40
1.0
 40
1.0
 40
1.0
 10
53.2457
 20
33.0756
 30
0.0
 10
53.2457
 20
33.0756
 30
0.0
 10
49.5906
 20
36.7307
 30
0.0
 10
49.5906
 20
36.7307
 30
0.0
 10
49.5906
 20
36.7307
 30
0.0
 10
49.5906
 20
36.7307
 30
0.0
 10
53.2457
 20
40.3859
 30
0.0
 10
53.2457
 20
40.3859
 30
0.0
 10
53.2457
 20
40.3859
 30
0.0
 10
53.2457
 20
40.3859
 30
0.0
 10
56.9009
 20
36.7307
 30
0.0
 10
56.9009
 20
36.7307
 30
0.0
 10
56.9009
 20
36.7307
 30
0.0
 10
56.9009
 20
36.7307
 30
0.0
 10
53.2457
 20
33.0756
 30
0.0
 10
53.2457
 20
33.0756
 30
0.0
  0
SPLINE
  5
D2
330
1F
100
AcDbEntity
  8
layer 1
 62
     7
100
AcDbSpline
210
0.0
220
0.0
230
1.0
 70
    11
 71
     3
 72
    20
 73
    16
 74
     0
 42
0.0000000001
 43
0.0000000001
 12
1.0
 22
0.0
 32
0.0
 13
1.0
 23
0.0
 33
0.0
 40
0.0
 40
0.0
 40
0.0
 40
0.0
 40
0.2
 40
0.2
 40
0.2
 40
0.2
 40
0.4
 40
0.4
 40
0.4
 40
0.4
 40
0.6
 40
0.6
 40
0.6
 40
0.6
 40
1.0
 40
1.0
 40
1.0
 40
1.0
 10
53.2457
 20
77.1202
 30
0.0
 10
53.2457
 20
77.1202
 30
0.0
 10
49.5906
 20
80.7753
 30
0.0
 10
49.5906
 20
80.7753
 30
0.0
 10
49.5906
 20
80.7753
 30
0.0
 10
49.5906
 20
80.7753
 30
0.0
 10
53.2457
 20
84.4304
 30
0.0
 10
53.2457
 20
84.4304
 30
0.0
 10
53.2457
 20
84.4304
 30
0.0
 10
53.2457
 20
84.4304
 30
0.0
 10
56.9009
 20
80.7753
 30
0.0
 10
56.9009
 20
80.7753
 30
0.0
 10
56.9009
 20
80.7753
 30
0.0
 10
56.9009
 20
80.7753
 30
0.0
 10
53.2457
 20
77.1202
 30
0.0
 10
53.2457
 20
77.1202
 30
0.0
  0
SPLINE
  5
D3
330
1F
100
AcDbEntity
  8
layer 1
 62
     7
100
AcDbSpline
210
0.0
220
0.0
230
1.0
 70
    11
 71
     3
 72
    20
 73
    16
 74
     0
 42
0.0000000001
 43
0.0000000001
 12
1.0
 22
0.0
 32
0.0
 13
1.0
 23
0.0
 33
0.0
 40
0.0
 40
0.0
 40
0.0
 40
0.0
 40
0.2
 40
0.2
 40
0.2
 40
0.2
 40
0.4
 40
0.4
 40
0.4
 40
0.4
 40
0.6
 40
0.6
 40
0.6
 40
0.6
 40
1.0
 40
1.0
 40
1.0
 40
1.0
 10
53.2457
 20
20.1221
 30
0.0
 10
53.2457
 20
20.1221
 30
0.0
 10
49.5906
 20
23.7772
 30
0.0
 10
49.5906
 20
23.7772
 30
0.0
 10
49.5906
 20
23.7772
 30
0.0
 10
49.5906
 20
23.7772
 30
0.0
 10
53.2457
 20
27.4323
 30
0.0
 10
53.2457
 20
27.4323
 30
0.0
 10
53.2457
 20
27.4323
 30
0.0
 10
53.2457
 20
27.4323
 30
0.0
 10
56.9009
 20
23.7772
 30
0.0
 10
56.9009
 20
23.7772
 30
0.0
 10
56.9009
 20
23.7772
 30
0.0
 10
56.9009
 20
23.7772
 30
0.0
 10
53.2457
 20
20.1221
 30
0.0
 10
53.2457
 20
20.1221
 30
0.0
  0
SPLINE
  5
D4
330
1F
100
AcDbEntity
  8
layer 1
 62
     7
100
AcDbSpline
210
0.0
220
0.0
230
1.0
 70
    11
 71
     3
 72
    20
 73
    16
 74
     0
 42
0.0000000001
 43
0.0000000001
 12
1.0
 22
0.0
 32
0.0
 13
1.0
 23
0.0
 33
0.0
 40
0.0
 40
0.0
 40
0.0
 40
0.0
 40
0.2
 40
0.2
 40
0.2
 40
0.2
 40
0.4
 40
0.4
 40
0.4
 40
0.4
 40
0.6
 40
0.6
 40
0.6
 40
0.6
 40
1.0
 40
1.0
 40
1.0
 40
1.0
 10
53.2457
 20
64.1667
 30
0.0
 10
53.2457
 20
64.1667
 30
0.0
 10
49.5906
 20
67.8218
 30
0.0
 10
49.5906
 20
67.8218
 30
0.0
 10
49.5906
 20
67.8218
 30
0.0
 10
49.5906
 20
67.8218
 30
0.0
 10
53.2457
 20
71.4769
 30
0.0
 10
53.2457
 20
71.4769
 30
0.0
 10
53.2457
 20
71.4769
 30
0.0
 10
53.2457
 20
71.4769
 30
0.0
 10
56.9009
 20
67.8218
 30
0.0
 10
56.9009
 20
67.8218
 30
0.0
 10
56.9009
 20
67.8218
 30
0.0
 10
56.9009
 20
67.8218
 30
0.0
 10
53.2457
 20
64.1667
 30
0.0
 10
53.2457
 20
64.1667
 30
0.0
  0
SPLINE
  5
D5
330
1F
100
AcDbEntity
  8
layer 1
 62
     7
100
AcDbSpline
210
0.0
220
0.0
230
1.0
 70
    11
 71
     3
 72
    20
 73
    16
 74
     0
 42
0.0000000001
 43
0.0000000001
 12
1.0
 22
0.0
 32
0.0
 13
1.0
 23
0.0
 33
0.0
 40
0.0
 40
0.0
 40
0.0
 40
0.0
 40
0.2
 40
0.2
 40
0.2
 40
0.2
 40
0.4
 40
0.4
 40
0.4
 40
0.4
 40
0.6
 40
0.6
 40
0.6
 40
0.6
 40
1.0
 40
1.0
 40
1.0
 40
1.0
 10
53.2457
 20
108.2112
 30
0.0
 10
53.2457
 20
108.2112
 30
0.0
 10
49.5906
 20
111.8664
 30
0.0
 10
49.5906
 20
111.8664
 30
0.0
 10
49.5906
 20
111.8664
 30
0.0
 10
49.5906
 20
111.8664
 30
0.0
 10
53.2457
 20
115.5215
 30
0.0
 10
53.2457
 20
115.5215
 30
0.0
 10
53.2457
 20
115.5215
 30
0.0
 10
53.2457
 20
115.5215
 30
0.0
 10
56.9009
 20
111.8664
 30
0.0
 10
56.9009
 20
111.8664
 30
0.0
 10
56.9009
 20
111.8664
 30
0.0
 10
56.9009
 20
111.8664
 30
0.0
 10
53.2457
 20
108.2112
 30
0.0
 10
53.2457
 20
108.2112
 30
0.0
  0
SPLINE
  5
D6
330
1F
100
AcDbEntity
  8
layer 1
 62
     7
100
AcDbSpline
210
0.0
220
0.0
230
1.0
 70
    11
 71
     3
 72
    24
 73
    20
 74
     0
 42
0.0000000001
 43
0.0000000001
 12
1.0
 22
0.0
 32
0.0
 13
1.0
 23
0.0
 33
0.0
 40
0.0
 40
0.0
 40
0.0
 40
0.0
 40
0.1666666666666667
 40
0.1666666666666667
 40
0.1666666666666667
 40
0.1666666666666667
 40
0.3333333333333333
 40
0.3333333333333333
 40
0.3333333333333333
 40
0.3333333333333333
 40
0.5
 40
0.5
 40
0.5
 40
0.5
 40
0.6666666666666666
 40
0.6666666666666666
 40
0.6666666666666666
 40
0.6666666666666666
 40
1.0
 40
1.0
 40
1.0
 40
1.0
 10
59.1815
 20
-5.3373
 30
0.0
 10
59.1815
 20
-5.3373
 30
0.0
 10
66.7832
 20
-5.3373
 30
0.0
 10
66.7832
 20
-5.3373
 30
0.0
 10
66.7832
 20
-5.3373
 30
0.0
 10
66.7832
 20
-5.3373
 30
0.0
 10
66.7832
 20
2.4924
 30
0.0
 10
66.7832
 20
2.4924
 30
0.0
 10
66.7832
 20
2.4924
 30
0.0
 10
66.7832
 20
2.4924
 30
0.0
 10
62.9063
 20
6.0716
 30
0.0
 10
62.9063
 20
6.0716
 30
0.0
 10
62.9063
 20
6.0716
 30
0.0
 10
62.9063
 20
6.0716
 30
0.0
 10
55.2983
 20
-1.5365
 30
0.0
 10
55.2983
 20
-1.5365
 30
0.0
 10
55.2983
 20
-1.5365
 30
0.0
 10
55.2983
 20
-1.5365
 30
0.0
 10
59.1815
 20
-5.3373
 30
0.0
 10
59.1815
 20
-5.3373
 30
0.0
  0
SPLINE
  5
D7
330
1F
100
AcDbEntity
  8
layer 1
 62
     7
100
AcDbSpline
210
0.0
220
0.0
230
1.0
 70
    11
 71
     3
 72
    24
 73
    20
 74
     0
 42
0.0000000001
 43
0.0000000001
 12
1.0
 22
0.0
 32
0.0
 13
1.0
 23
0.0
 33
0.0
 40
0.0
 40
0.0
 40
0.0
 40
0.0
 40
0.1666666666666667
 40
0.1666666666666667
 40
0.1666666666666667
 40
0.1666666666666667
 40
0.3333333333333333
 40
0.3333333333333333
 40
0.3333333333333333
 40
0.3333333333333333
 40
0.5
 40
0.5
 40
0.5
 40
0.5
 40
0.6666666666666666
 40
0.6666666666666666
 40
0.6666666666666666
 40
0.6666666666666666
 40
1.0
 40
1.0
 40
1.0
 40
1.0
 10
59.1815
 20
38.7072
 30
0.0
 10
59.1815
 20
38.7072
 30
0.0
 10
66.7832
 20
38.7072
 30
0.0
 10
66.7832
 20
38.7072
 30
0.0
 10
66.7832
 20
38.7072
 30
0.0
 10
66.7832
 20
38.7072
 30
0.0
 10
66.7832
 20
46.537
 30
0.0
 10
66.7832
 20
46.537
 30
0.0
 10
66.7832
 20
46.537
 30
0.0
 10
66.7832
 20
46.537
 30
0.0
 10
62.9063
 20
50.1161
 30
0.0
 10
62.9063
 20
50.1161
 30
0.0
 10
62.9063
 20
50.1161
 30
0.0
 10
62.9063
 20
50.1161
 30
0.0
 10
55.2983
 20
42.5081
 30
0.0
 10
55.2983
 20
42.5081
 30
0.0
 10
55.2983
 20
42.5081
 30
0.0
 10
55.2983
 20
42.5081
 30
0.0
 10
59.1815
 20
38.7072
 30
0.0
 10
59.1815
 20
38.7072
 30
0.0
  0
SPLINE
  5
D8
330
1F
100
AcDbEntity
  8
layer 1
 62
     7
100
AcDbSpline
210
0.0
220
0.0
230
1.0
 70
    11
 71
     3
 72
    24
 73
    20
 74
     0
 42
0.0000000001
 43
0.0000000001
 12
1.0
 22
0.0
 32
0.0
 13
1.0
 23
0.0
 33
0.0
 40
0.0
 40
0.0
 40
0.0
 40
0.0
 40
0.1666666666666667
 40
0.1666666666666667
 40
0.1666666666666667
 40
0.1666666666666667
 40
0.3333333333333333
 40
0.3333333333333333
 40
0.3333333333333333
 40
0.3333333333333333
 40
0.5
 40
0.5
 40
0.5
 40
0.5
 40
0.6666666666666666
 40
0.6666666666666666
 40
0.6666666666666666
 40
0.6666666666666666
 40
1.0
 40
1.0
 40
1.0
 40
1.0
 10
59.1815
 20
82.7518
 30
0.0
 10
59.1815
 20
82.7518
 30
0.0
 10
66.7832
 20
82.7518
 30
0.0
 10
66.7832
 20
82.7518
 30
0.0
 10
66.7832
 20
82.7518
 30
0.0
 10
66.7832
 20
82.7518
 30
0.0
 10
66.7832
 20
90.5816
 30
0.0
 10
66.7832
 20
90.5816
 30
0.0
 10
66.7832
 20
90.5816
 30
0.0
 10
66.7832
 20
90.5816
 30
0.0
 10
62.9063
 20
94.1607
 30
0.0
 10
62.9063
 20
94.1607
 30
0.0
 10
62.9063
 20
94.1607
 30
0.0
 10
62.9063
 20
94.1607
 30
0.0
 10
55.2983
 20
86.5527
 30
0.0
 10
55.2983
 20
86.5527
 30
0.0
 10
55.2983
 20
86.5527
 30
0.0
 10
55.2983
 20
86.5527
 30
0.0
 10
59.1815
 20
82.7518
 30
0.0
 10
59.1815
 20
82.7518
 30
0.0
  0
SPLINE
  5
D9
330
1F
100
AcDbEntity
  8
layer 1
 62
     7
100
AcDbSpline
210
0.0
220
0.0
230
1.0
 70
    11
 71
     3
 72
    24
 73
    20
 74
     0
 42
0.0000000001
 43
0.0000000001
 12
1.0
 22
0.0
 32
0.0
 13
1.0
 23
0.0
 33
0.0
 40
0.0
 40
0.0
 40
0.0
 40
0.0
 40
0.1666666666666667
 40
0.1666666666666667
 40
0.1666666666666667
 40
0.1666666666666667
 40
0.3333333333333333
 40
0.3333333333333333
 40
0.3333333333333333
 40
0.3333333333333333
 40
0.5
 40
0.5
 40
0.5
 40
0.5
 40
0.6666666666666666
 40
0.6666666666666666
 40
0.6666666666666666
 40
0.6666666666666666
 40
1.0
 40
1.0
 40
1.0
 40
1.0
 10
59.1815
 20
21.8832
 30
0.0
 10
59.1815
 20
21.8832
 30
0.0
 10
66.7832
 20
21.8832
 30
0.0
 10
66.7832
 20
21.8832
 30
0.0
 10
66.7832
 20
21.8832
 30
0.0
 10
66.7832
 20
21.8832
 30
0.0
 10
66.7832
 20
14.0534
 30
0.0
 10
66.7832
 20
14.0534
 30
0.0
 10
66.7832
 20
14.0534
 30
0.0
 10
66.7832
 20
14.0534
 30
0.0
 10
62.9063
 20
10.4743
 30
0.0
 10
62.9063
 20
10.4743
 30
0.0
 10
62.9063
 20
10.4743
 30
0.0
 10
62.9063
 20
10.4743
 30
0.0
 10
55.2983
 20
18.0823
 30
0.0
 10
55.2983
 20
18.0823
 30
0.0
 10
55.2983
 20
18.0823
 30
0.0
 10
55.2983
 20
18.0823
 30
0.0
 10
59.1815
 20
21.8832
 30
0.0
 10
59.1815
 20
21.8832
 30
0.0
  0
SPLINE
  5
DA
330
1F
100
AcDbEntity
  8
layer 1
 62
     7
100
AcDbSpline
210
0.0
220
0.0
230
1.0
 70
    11
 71
     3
 72
    24
 73
    20
 74
     0
 42
0.0000000001
 43
0.0000000001
 12
1.0
 22
0.0
 32
0.0
 13
1.0
 23
0.0
 33
0.0
 40
0.0
 40
0.0
 40
0.0
 40
0.0
 40
0.1666666666666667
 40
0.1666666666666667
 40
0.1666666666666667
 40
0.1666666666666667
 40
0.3333333333333333
 40
0.3333333333333333
 40
0.3333333333333333
 40
0.3333333333333333
 40
0.5
 40
0.5
 40
0.5
 40
0.5
 40
0.6666666666666666
 40
0.6666666666666666
 40
0.6666666666666666
 40
0.6666666666666666
 40
1.0
 40
1.0
 40
1.0
 40
1.0
 10
59.1815
 20
65.9278
 30
0.0
 10
59.1815
 20
65.9278
 30
0.0
 10
66.7832
 20
65.9278
 30
0.0
 10
66.7832
 20
65.9278
 30
0.0
 10
66.7832
 20
65.9278
 30
0.0
 10
66.7832
 20
65.9278
 30
0.0
 10
66.7832
 20
58.098
 30
0.0
 10
66.7832
 20
58.098
 30
0.0
 10
66.7832
 20
58.098
 30
0.0
 10
66.7832
 20
58.098
 30
0.0
 10
62.9063
 20
54.5189
 30
0.0
 10
62.9063
 20
54.5189
 30
0.0
 10
62.9063
 20
54.5189
 30
0.0
 10
62.9063
 20
54.5189
 30
0.0
 10
55.2983
 20
62.1269
 30
0.0
 10
55.2983
 20
62.1269
 30
0.0
 10
55.2983
 20
62.1269
 30
0.0
 10
55.2983
 20
62.1269
 30
0.0
 10
59.1815
 20
65.9278
 30
0.0
 10
59.1815
 20
65.9278
 30
0.0
  0
SPLINE
  5
DB
330
1F
100
AcDbEntity
  8
layer 1
 62
     7
100
AcDbSpline
210
0.0
220
0.0
230
1.0
 70
    11
 71
     3
 72
    24
 73
    20
 74
     0
 42
0.0000000001
 43
0.0000000001
 12
1.0
 22
0.0
 32
0.0
 13
1.0
 23
0.0
 33
0.0
 40
0.0
 40
0.0
 40
0.0
 40
0.0
 40
0.1666666666666667
 40
0.1666666666666667
 40
0.1666666666666667
 40
0.1666666666666667
 40
0.3333333333333333
 40
0.3333333333333333
 40
0.3333333333333333
 40
0.3333333333333333
 40
0.5
 40
0.5
 40
0.5
 40
0.5
 40
0.6666666666666666
 40
0.6666666666666666
 40
0.6666666666666666
 40
0.6666666666666666
 40
1.0
 40
1.0
 40
1.0
 40
1.0
 10
59.1815
 20
109.9723
 30
0.0
 10
59.1815
 20
109.9723
 30
0.0
 10
66.7832
 20
109.9723
 30
0.0
 10
66.7832
 20
109.9723
 30
0.0
 10
66.7832
 20
109.9723
 30
0.0
 10
66.7832
 20
109.9723
 30
0.0
 10
66.7832
 20
102.1426
 30
0.0
 10
66.7832
 20
102.1426
 30
0.0
 10
66.7832
 20
102.1426
 30
0.0
 10
66.7832
 20
102.1426
 30
0.0
 10
62.9063
 20
98.5634
 30
0.0
 10
62.9063
 20
98.5634
 30
0.0
 10
62.9063
 20
98.5634
 30
0.0
 10
62.9063
 20
98.5634
 30
0.0
 10
55.2983
 20
106.1715
 30
0.0
 10
55.2983
 20
106.1715
 30
0.0
 10
55.2983
 20
106.1715
 30
0.0
 10
55.2983
 20
106.1715
 30
0.0
 10
59.1815
 20
109.9723
 30
0.0
 10
59.1815
 20
109.9723
 30
0.0
  0
SPLINE
  5
DC
330
1F
100
AcDbEntity
  8
layer 1
 62
     7
100
AcDbSpline
210
0.0
220
0.0
230
1.0
 70
    11
 71
     3
 72
    20
 73
    16
 74
     0
 42
0.0000000001
 43
0.0000000001
 12
1.0
 22
0.0
 32
0.0
 13
1.0
 23
0.0
 33
0.0
 40
0.0
 40
0.0
 40
0.0
 40
0.0
 40
0.2
 40
0.2
 40
0.2
 40
0.2
 40
0.4
 40
0.4
 40
0.4
 40
0.4
 40
0.6
 40
0.6
 40
0.6
 40
0.6
 40
1.0
 40
1.0
 40
1.0
 40
1.0
 10
68.8293
 20
4.5386
 30
0.0
 10
68.8293
 20
4.5386
 30
0.0
 10
65.1742
 20
8.1937
 30
0.0
 10
65.1742
 20
8.1937
 30
0.0
 10
65.1742
 20
8.1937
 30
0.0
 10
65.1742
 20
8.1937
 30
0.0
 10
68.8293
 20
11.8488
 30
0.0
 10
68.8293
 20
11.8488
 30
0.0
 10
68.8293
 20
11.8488
 30
0.0
 10
68.8293
 20
11.8488
 30
0.0
 10
72.4845
 20
8.1937
 30
0.0
 10
72.4845
 20
8.1937
 30
0.0
 10
72.4845
 20
8.1937
 30
0.0
 10
72.4845
 20
8.1937
 30
0.0
 10
68.8293
 20
4.5386
 30
0.0
 10
68.8293
 20
4.5386
 30
0.0
  0
SPLINE
  5
DD
330
1F
100
AcDbEntity
  8
layer 1
 62
     7
100
AcDbSpline
210
0.0
220
0.0
230
1.0
 70
    11
 71
     3
 72
    20
 73
    16
 74
     0
 42
0.0000000001
 43
0.0000000001
 12
1.0
 22
0.0
 32
0.0
 13
1.0
 23
0.0
 33
0.0
 40
0.0
 40
0.0
 40
0.0
 40
0.0
 40
0.2
 40
0.2
 40
0.2
 40
0.2
 40
0.4
 40
0.4
 40
0.4
 40
0.4
 40
0.6
 40
0.6
 40
0.6
 40
0.6
 40
1.0
 40
1.0
 40
1.0
 40
1.0
 10
68.8293
 20
48.5832
 30
0.0
 10
68.8293
 20
48.5832
 30
0.0
 10
65.1742
 20
52.2383
 30
0.0
 10
65.1742
 20
52.2383
 30
0.0
 10
65.1742
 20
52.2383
 30
0.0
 10
65.1742
 20
52.2383
 30
0.0
 10
68.8293
 20
55.8934
 30
0.0
 10
68.8293
 20
55.8934
 30
0.0
 10
68.8293
 20
55.8934
 30
0.0
 10
68.8293
 20
55.8934
 30
0.0
 10
72.4845
 20
52.2383
 30
0.0
 10
72.4845
 20
52.2383
 30
0.0
 10
72.4845
 20
52.2383
 30
0.0
 10
72.4845
 20
52.2383
 30
0.0
 10
68.8293
 20
48.5832
 30
0.0
 10
68.8293
 20
48.5832
 30
0.0
  0
SPLINE
  5
DE
330
1F
100
AcDbEntity
  8
layer 1
 62
     7
100
AcDbSpline
210
0.0
220
0.0
230
1.0
 70
    11
 71
     3
 72
    20
 73
    16
 74
     0
 42
0.0000000001
 43
0.0000000001
 12
1.0
 22
0.0
 32
0.0
 13
1.0
 23
0.0
 33
0.0
 40
0.0
 40
0.0
 40
0.0
 40
0.0
 40
0.2
 40
0.2
 40
0.2
 40
0.2
 40
0.4
 40
0.4
 40
0.4
 40
0.4
 40
0.6
 40
0.6
 40
0.6
 40
0.6
 40
1.0
 40
1.0
 40
1.0
 40
1.0
 10
68.8293
 20
92.6277
 30
0.0
 10
68.8293
 20
92.6277
 30
0.0
 10
65.1742
 20
96.2829
 30
0.0
 10
65.1742
 20
96.2829
 30
0.0
 10
65.1742
 20
96.2829
 30
0.0
 10
65.1742
 20
96.2829
 30
0.0
 10
68.8293
 20
99.938
 30
0.0
 10
68.8293
 20
99.938
 30
0.0
 10
68.8293
 20
99.938
 30
0.0
 10
68.8293
 20
99.938
 30
0.0
 10
72.4845
 20
96.2829
 30
0.0
 10
72.4845
 20
96.2829
 30
0.0
 10
72.4845
 20
96.2829
 30
0.0
 10
72.4845
 20
96.2829
 30
0.0
 10
68.8293
 20
92.6277
 30
0.0
 10
68.8293
 20
92.6277
 30
0.0
  0
SPLINE
  5
DF
330
1F
100
AcDbEntity
  8
layer 1
 62
     7
100
AcDbSpline
210
0.0
220
0.0
230
1.0
 70
    11
 71
     3
 72
    16
 73
    12
 74
     0
 42
0.0000000001
 43
0.0000000001
 12
1.0
 22
0.0
 32
0.0
 13
1.0
 23
0.0
 33
0.0
 40
0.0
 40
0.0
 40
0.0
 40
0.0
 40
0.25
 40
0.25
 40
0.25
 40
0.25
 40
0.5
 40
0.5
 40
0.5
 40
0.5
 40
1.0
 40
1.0
 40
1.0
 40
1.0
 10
50.425
 20
-107.8732
 30
0.0
 10
50.425
 20
-107.8732
 30
0.0
 10
53.2457
 20
-105.0525
 30
0.0
 10
53.2457
 20
-105.0525
 30
0.0
 10
53.2457
 20
-105.0525
 30
0.0
 10
53.2457
 20
-105.0525
 30
0.0
 10
56.0516
 20
-107.8583
 30
0.0
 10
56.0516
 20
-107.8583
 30
0.0
 10
56.0516
 20
-107.8583
 30
0.0
 10
56.0516
 20
-107.8583
 30
0.0
 10
50.425
 20
-107.8732
 30
0.0
 10
50.425
 20
-107.8732
 30
0.0
  0
SPLINE
  5
E0
330
1F
100
AcDbEntity
  8
layer 1
 62
     7
100
AcDbSpline
210
0.0
220
0.0
230
1.0
 70
    11
 71
     3
 72
    64
 73
    60
 74
     0
 42
0.0000000001
 43
0.0000000001
 12
1.0
 22
0.0
 32
0.0
 13
1.0
 23
0.0
 33
0.0
 40
0.0
 40
0.0
 40
0.0
 40
0.0
 40
0.0625
 40
0.0625
 40
0.0625
 40
0.0625
 40
0.125
 40
0.125
 40
0.125
 40
0.125
 40
0.1875
 40
0.1875
 40
0.1875
 40
0.1875
 40
0.25
 40
0.25
 40
0.25
 40
0.25
 40
0.3125
 40
0.3125
 40
0.3125
 40
0.3125
 40
0.375
 40
0.375
 40
0.375
 40
0.375
 40
0.4375
 40
0.4375
 40
0.4375
 40
0.4375
 40
0.5
 40
0.5
 40
0.5
 40
0.5
 40
0.5625
 40
0.5625
 40
0.5625
 40
0.5625
 40
0.625
 40
0.625
 40
0.625
 40
0.625
 40
0.6875
 40
0.6875
 40
0.6875
 40
0.6875
 40
0.75
 40
0.75
 40
0.75
 40
0.75
 40
0.8125
 40
0.8125
 40
0.8125
 40
0.8125
 40
0.875
 40
0.875
 40
0.875
 40
0.875
 40
1.0
 40
1.0
 40
1.0
 40
1.0
 10
114.6351
 20
-107.8644
 30
0.0
 10
114.6351
 20
-107.8644
 30
0.0
 10
114.6327
 20
-106.9442
 30
0.0
 10
114.6327
 20
-106.9442
 30
0.0
 10
114.6327
 20
-106.9442
 30
0.0
 10
114.6327
 20
-106.9442
 30
0.0
 10
105.1887
 20
-106.9603
 30
0.0
 10
105.1887
 20
-106.9603
 30
0.0
 10
105.1887
 20
-106.9603
 30
0.0
 10
105.1887
 20
-106.9603
 30
0.0
 10
99.8675
 20
-102.3262
 30
0.0
 10
99.8675
 20
-102.3262
 30
0.0
 10
99.8675
 20
-102.3262
 30
0.0
 10
99.8675
 20
-102.3262
 30
0.0
 10
105.1887
 20
-97.7657
 30
0.0
 10
105.1887
 20
-97.7657
 30
0.0
 10
105.1887
 20
-97.7657
 30
0.0
 10
105.1887
 20
-97.7657
 30
0.0
 10
114.6897
 20
-97.7288
 30
0.0
 10
114.6897
 20
-97.7288
 30
0.0
 10
114.6897
 20
-97.7288
 30
0.0
 10
114.6897
 20
-97.7288
 30
0.0
 10
114.6576
 20
-87.4986
 30
0.0
 10
114.6576
 20
-87.4986
 30
0.0
 10
114.6576
 20
-87.4986
 30
0.0
 10
114.6576
 20
-87.4986
 30
0.0
 10
119.2181
 20
-82.9755
 30
0.0
 10
119.2181
 20
-82.9755
 30
0.0
 10
119.2181
 20
-82.9755
 30
0.0
 10
119.2181
 20
-82.9755
 30
0.0
 10
123.8522
 20
-87.4986
 30
0.0
 10
123.8522
 20
-87.4986
 30
0.0
 10
123.8522
 20
-87.4986
 30
0.0
 10
123.8522
 20
-87.4986
 30
0.0
 10
123.8291
 20
-97.7858
 30
0.0
 10
123.8291
 20
-97.7858
 30
0.0
 10
123.8291
 20
-97.7858
 30
0.0
 10
123.8291
 20
-97.7858
 30
0.0
 10
134.1193
 20
-97.7656
 30
0.0
 10
134.1193
 20
-97.7656
 30
0.0
 10
134.1193
 20
-97.7656
 30
0.0
 10
134.1193
 20
-97.7656
 30
0.0
 10
138.6423
 20
-102.3261
 30
0.0
 10
138.6423
 20
-102.3261
 30
0.0
 10
138.6423
 20
-102.3261
 30
0.0
 10
138.6423
 20
-102.3261
 30
0.0
 10
134.1193
 20
-106.9602
 30
0.0
 10
134.1193
 20
-106.9602
 30
0.0
 10
134.1193
 20
-106.9602
 30
0.0
 10
134.1193
 20
-106.9602
 30
0.0
 10
123.8482
 20
-106.9821
 30
0.0
 10
123.8482
 20
-106.9821
 30
0.0
 10
123.8482
 20
-106.9821
 30
0.0
 10
123.8482
 20
-106.9821
 30
0.0
 10
123.8485
 20
-107.8643
 30
0.0
 10
123.8485
 20
-107.8643
 30
0.0
 10
123.8485
 20
-107.8643
 30
0.0
 10
123.8485
 20
-107.8643
 30
0.0
 10
114.6351
 20
-107.8644
 30
0.0
 10
114.6351
 20
-107.8644
 30
0.0
  0
SPLINE
  5
E1
330
1F
100
AcDbEntity
  8
layer 1
 62
     7
100
AcDbSpline
210
0.0
220
0.0
230
1.0
 70
    11
 71
     3
 72
    16
 73
    12
 74
     0
 42
0.0000000001
 43
0.0000000001
 12
1.0
 22
0.0
 32
0.0
 13
1.0
 23
0.0
 33
0.0
 40
0.0
 40
0.0
 40
0.0
 40
0.0
 40
0.25
 40
0.25
 40
0.25
 40
0.25
 40
0.5
 40
0.5
 40
0.5
 40
0.5
 40
1.0
 40
1.0
 40
1.0
 40
1.0
 10
94.5086
 20
-107.8732
 30
0.0
 10
94.5086
 20
-107.8732
 30
0.0
 10
97.3293
 20
-105.0525
 30
0.0
 10
97.3293
 20
-105.0525
 30
0.0
 10
97.3293
 20
-105.0525
 30
0.0
 10
97.3293
 20
-105.0525
 30
0.0
 10
100.1352
 20
-107.8583
 30
0.0
 10
100.1352
 20
-107.8583
 30
0.0
 10
100.1352
 20
-107.8583
 30
0.0
 10
100.1352
 20
-107.8583
 30
0.0
 10
94.5086
 20
-107.8732
 30
0.0
 10
94.5086
 20
-107.8732
 30
0.0
  0
SPLINE
  5
E2
330
1F
100
AcDbEntity
  8
layer 1
 62
     7
100
AcDbSpline
210
0.0
220
0.0
230
1.0
 70
    11
 71
     3
 72
    64
 73
    60
 74
     0
 42
0.0000000001
 43
0.0000000001
 12
1.0
 22
0.0
 32
0.0
 13
1.0
 23
0.0
 33
0.0
 40
0.0
 40
0.0
 40
0.0
 40
0.0
 40
0.0625
 40
0.0625
 40
0.0625
 40
0.0625
 40
0.125
 40
0.125
 40
0.125
 40
0.125
 40
0.1875
 40
0.1875
 40
0.1875
 40
0.1875
 40
0.25
 40
0.25
 40
0.25
 40
0.25
 40
0.3125
 40
0.3125
 40
0.3125
 40
0.3125
 40
0.375
 40
0.375
 40
0.375
 40
0.375
 40
0.4375
 40
0.4375
 40
0.4375
 40
0.4375
 40
0.5
 40
0.5
 40
0.5
 40
0.5
 40
0.5625
 40
0.5625
 40
0.5625
 40
0.5625
 40
0.625
 40
0.625
 40
0.625
 40
0.625
 40
0.6875
 40
0.6875
 40
0.6875
 40
0.6875
 40
0.75
 40
0.75
 40
0.75
 40
0.75
 40
0.8125
 40
0.8125
 40
0.8125
 40
0.8125
 40
0.875
 40
0.875
 40
0.875
 40
0.875
 40
1.0
 40
1.0
 40
1.0
 40
1.0
 10
158.9936
 20
-107.8644
 30
0.0
 10
158.9936
 20
-107.8644
 30
0.0
 10
158.9912
 20
-106.9442
 30
0.0
 10
158.9912
 20
-106.9442
 30
0.0
 10
158.9912
 20
-106.9442
 30
0.0
 10
158.9912
 20
-106.9442
 30
0.0
 10
149.5472
 20
-106.9603
 30
0.0
 10
149.5472
 20
-106.9603
 30
0.0
 10
149.5472
 20
-106.9603
 30
0.0
 10
149.5472
 20
-106.9603
 30
0.0
 10
144.2259
 20
-102.3262
 30
0.0
 10
144.2259
 20
-102.3262
 30
0.0
 10
144.2259
 20
-102.3262
 30
0.0
 10
144.2259
 20
-102.3262
 30
0.0
 10
149.5472
 20
-97.7657
 30
0.0
 10
149.5472
 20
-97.7657
 30
0.0
 10
149.5472
 20
-97.7657
 30
0.0
 10
149.5472
 20
-97.7657
 30
0.0
 10
159.0482
 20
-97.7288
 30
0.0
 10
159.0482
 20
-97.7288
 30
0.0
 10
159.0482
 20
-97.7288
 30
0.0
 10
159.0482
 20
-97.7288
 30
0.0
 10
159.0161
 20
-87.4986
 30
0.0
 10
159.0161
 20
-87.4986
 30
0.0
 10
159.0161
 20
-87.4986
 30
0.0
 10
159.0161
 20
-87.4986
 30
0.0
 10
163.5766
 20
-82.9755
 30
0.0
 10
163.5766
 20
-82.9755
 30
0.0
 10
163.5766
 20
-82.9755
 30
0.0
 10
163.5766
 20
-82.9755
 30
0.0
 10
168.2107
 20
-87.4986
 30
0.0
 10
168.2107
 20
-87.4986
 30
0.0
 10
168.2107
 20
-87.4986
 30
0.0
 10
168.2107
 20
-87.4986
 30
0.0
 10
168.1876
 20
-97.7858
 30
0.0
 10
168.1876
 20
-97.7858
 30
0.0
 10
168.1876
 20
-97.7858
 30
0.0
 10
168.1876
 20
-97.7858
 30
0.0
 10
178.4778
 20
-97.7656
 30
0.0
 10
178.4778
 20
-97.7656
 30
0.0
 10
178.4778
 20
-97.7656
 30
0.0
 10
178.4778
 20
-97.7656
 30
0.0
 10
183.0008
 20
-102.3261
 30
0.0
 10
183.0008
 20
-102.3261
 30
0.0
 10
183.0008
 20
-102.3261
 30
0.0
 10
183.0008
 20
-102.3261
 30
0.0
 10
178.4778
 20
-106.9602
 30
0.0
 10
178.4778
 20
-106.9602
 30
0.0
 10
178.4778
 20
-106.9602
 30
0.0
 10
178.4778
 20
-106.9602
 30
0.0
 10
168.2066
 20
-106.9821
 30
0.0
 10
168.2066
 20
-106.9821
 30
0.0
 10
168.2066
 20
-106.9821
 30
0.0
 10
168.2066
 20
-106.9821
 30
0.0
 10
168.207
 20
-107.8643
 30
0.0
 10
168.207
 20
-107.8643
 30
0.0
 10
168.207
 20
-107.8643
 30
0.0
 10
168.207
 20
-107.8643
 30
0.0
 10
158.9936
 20
-107.8644
 30
0.0
 10
158.9936
 20
-107.8644
 30
0.0
  0
SPLINE
  5
E3
330
1F
100
AcDbEntity
  8
layer 1
 62
     7
100
AcDbSpline
210
0.0
220
0.0
230
1.0
 70
    11
 71
     3
 72
    16
 73
    12
 74
     0
 42
0.0000000001
 43
0.0000000001
 12
1.0
 22
0.0
 32
0.0
 13
1.0
 23
0.0
 33
0.0
 40
0.0
 40
0.0
 40
0.0
 40
0.0
 40
0.25
 40
0.25
 40
0.25
 40
0.25
 40
0.5
 40
0.5
 40
0.5
 40
0.5
 40
1.0
 40
1.0
 40
1.0
 40
1.0
 10
138.8671
 20
-107.8732
 30
0.0
 10
138.8671
 20
-107.8732
 30
0.0
 10
141.6878
 20
-105.0525
 30
0.0
 10
141.6878
 20
-105.0525
 30
0.0
 10
141.6878
 20
-105.0525
 30
0.0
 10
141.6878
 20
-105.0525
 30
0.0
 10
144.4937
 20
-107.8583
 30
0.0
 10
144.4937
 20
-107.8583
 30
0.0
 10
144.4937
 20
-107.8583
 30
0.0
 10
144.4937
 20
-107.8583
 30
0.0
 10
138.8671
 20
-107.8732
 30
0.0
 10
138.8671
 20
-107.8732
 30
0.0
  0
SPLINE
  5
E4
330
1F
100
AcDbEntity
  8
layer 1
 62
     7
100
AcDbSpline
210
0.0
220
0.0
230
1.0
 70
    11
 71
     3
 72
    16
 73
    12
 74
     0
 42
0.0000000001
 43
0.0000000001
 12
1.0
 22
0.0
 32
0.0
 13
1.0
 23
0.0
 33
0.0
 40
0.0
 40
0.0
 40
0.0
 40
0.0
 40
0.25
 40
0.25
 40
0.25
 40
0.25
 40
0.5
 40
0.5
 40
0.5
 40
0.5
 40
1.0
 40
1.0
 40
1.0
 40
1.0
 10
182.8407
 20
-107.8732
 30
0.0
 10
182.8407
 20
-107.8732
 30
0.0
 10
185.6615
 20
-105.0525
 30
0.0
 10
185.6615
 20
-105.0525
 30
0.0
 10
185.6615
 20
-105.0525
 30
0.0
 10
185.6615
 20
-105.0525
 30
0.0
 10
188.4673
 20
-107.8583
 30
0.0
 10
188.4673
 20
-107.8583
 30
0.0
 10
188.4673
 20
-107.8583
 30
0.0
 10
188.4673
 20
-107.8583
 30
0.0
 10
182.8407
 20
-107.8732
 30
0.0
 10
182.8407
 20
-107.8732
 30
0.0
  0
SPLINE
  5
E5
330
1F
100
AcDbEntity
  8
layer 1
 62
     7
100
AcDbSpline
210
0.0
220
0.0
230
1.0
 70
    11
 71
     3
 72
    64
 73
    60
 74
     0
 42
0.0000000001
 43
0.0000000001
 12
1.0
 22
0.0
 32
0.0
 13
1.0
 23
0.0
 33
0.0
 40
0.0
 40
0.0
 40
0.0
 40
0.0
 40
0.0625
 40
0.0625
 40
0.0625
 40
0.0625
 40
0.125
 40
0.125
 40
0.125
 40
0.125
 40
0.1875
 40
0.1875
 40
0.1875
 40
0.1875
 40
0.25
 40
0.25
 40
0.25
 40
0.25
 40
0.3125
 40
0.3125
 40
0.3125
 40
0.3125
 40
0.375
 40
0.375
 40
0.375
 40
0.375
 40
0.4375
 40
0.4375
 40
0.4375
 40
0.4375
 40
0.5
 40
0.5
 40
0.5
 40
0.5
 40
0.5625
 40
0.5625
 40
0.5625
 40
0.5625
 40
0.625
 40
0.625
 40
0.625
 40
0.625
 40
0.6875
 40
0.6875
 40
0.6875
 40
0.6875
 40
0.75
 40
0.75
 40
0.75
 40
0.75
 40
0.8125
 40
0.8125
 40
0.8125
 40
0.8125
 40
0.875
 40
0.875
 40
0.875
 40
0.875
 40
1.0
 40
1.0
 40
1.0
 40
1.0
 10
70.5515
 20
124.6286
 30
0.0
 10
70.5515
 20
124.6286
 30
0.0
 10
70.5491
 20
123.7084
 30
0.0
 10
70.5491
 20
123.7084
 30
0.0
 10
70.5491
 20
123.7084
 30
0.0
 10
70.5491
 20
123.7084
 30
0.0
 10
61.1051
 20
123.7245
 30
0.0
 10
61.1051
 20
123.7245
 30
0.0
 10
61.1051
 20
123.7245
 30
0.0
 10
61.1051
 20
123.7245
 30
0.0
 10
55.7839
 20
119.0905
 30
0.0
 10
55.7839
 20
119.0905
 30
0.0
 10
55.7839
 20
119.0905
 30
0.0
 10
55.7839
 20
119.0905
 30
0.0
 10
61.1051
 20
114.5299
 30
0.0
 10
61.1051
 20
114.5299
 30
0.0
 10
61.1051
 20
114.5299
 30
0.0
 10
61.1051
 20
114.5299
 30
0.0
 10
70.6061
 20
114.493
 30
0.0
 10
70.6061
 20
114.493
 30
0.0
 10
70.6061
 20
114.493
 30
0.0
 10
70.6061
 20
114.493
 30
0.0
 10
70.574
 20
104.2628
 30
0.0
 10
70.574
 20
104.2628
 30
0.0
 10
70.574
 20
104.2628
 30
0.0
 10
70.574
 20
104.2628
 30
0.0
 10
75.1345
 20
99.7398
 30
0.0
 10
75.1345
 20
99.7398
 30
0.0
 10
75.1345
 20
99.7398
 30
0.0
 10
75.1345
 20
99.7398
 30
0.0
 10
79.7686
 20
104.2628
 30
0.0
 10
79.7686
 20
104.2628
 30
0.0
 10
79.7686
 20
104.2628
 30
0.0
 10
79.7686
 20
104.2628
 30
0.0
 10
79.7455
 20
114.55
 30
0.0
 10
79.7455
 20
114.55
 30
0.0
 10
79.7455
 20
114.55
 30
0.0
 10
79.7455
 20
114.55
 30
0.0
 10
90.0357
 20
114.5298
 30
0.0
 10
90.0357
 20
114.5298
 30
0.0
 10
90.0357
 20
114.5298
 30
0.0
 10
90.0357
 20
114.5298
 30
0.0
 10
94.5587
 20
119.0904
 30
0.0
 10
94.5587
 20
119.0904
 30
0.0
 10
94.5587
 20
119.0904
 30
0.0
 10
94.5587
 20
119.0904
 30
0.0
 10
90.0357
 20
123.7245
 30
0.0
 10
90.0357
 20
123.7245
 30
0.0
 10
90.0357
 20
123.7245
 30
0.0
 10
90.0357
 20
123.7245
 30
0.0
 10
79.7646
 20
123.7464
 30
0.0
 10
79.7646
 20
123.7464
 30
0.0
 10
79.7646
 20
123.7464
 30
0.0
 10
79.7646
 20
123.7464
 30
0.0
 10
79.7649
 20
124.6285
 30
0.0
 10
79.7649
 20
124.6285
 30
0.0
 10
79.7649
 20
124.6285
 30
0.0
 10
79.7649
 20
124.6285
 30
0.0
 10
70.5515
 20
124.6286
 30
0.0
 10
70.5515
 20
124.6286
 30
0.0
  0
SPLINE
  5
E6
330
1F
100
AcDbEntity
  8
layer 1
 62
     7
100
AcDbSpline
210
0.0
220
0.0
230
1.0
 70
    11
 71
     3
 72
    16
 73
    12
 74
     0
 42
0.0000000001
 43
0.0000000001
 12
1.0
 22
0.0
 32
0.0
 13
1.0
 23
0.0
 33
0.0
 40
0.0
 40
0.0
 40
0.0
 40
0.0
 40
0.25
 40
0.25
 40
0.25
 40
0.25
 40
0.5
 40
0.5
 40
0.5
 40
0.5
 40
1.0
 40
1.0
 40
1.0
 40
1.0
 10
50.425
 20
124.6375
 30
0.0
 10
50.425
 20
124.6375
 30
0.0
 10
53.2457
 20
121.8167
 30
0.0
 10
53.2457
 20
121.8167
 30
0.0
 10
53.2457
 20
121.8167
 30
0.0
 10
53.2457
 20
121.8167
 30
0.0
 10
56.0516
 20
124.6226
 30
0.0
 10
56.0516
 20
124.6226
 30
0.0
 10
56.0516
 20
124.6226
 30
0.0
 10
56.0516
 20
124.6226
 30
0.0
 10
50.425
 20
124.6375
 30
0.0
 10
50.425
 20
124.6375
 30
0.0
  0
SPLINE
  5
E7
330
1F
100
AcDbEntity
  8
layer 1
 62
     7
100
AcDbSpline
210
0.0
220
0.0
230
1.0
 70
    11
 71
     3
 72
    64
 73
    60
 74
     0
 42
0.0000000001
 43
0.0000000001
 12
1.0
 22
0.0
 32
0.0
 13
1.0
 23
0.0
 33
0.0
 40
0.0
 40
0.0
 40
0.0
 40
0.0
 40
0.0625
 40
0.0625
 40
0.0625
 40
0.0625
 40
0.125
 40
0.125
 40
0.125
 40
0.125
 40
0.1875
 40
0.1875
 40
0.1875
 40
0.1875
 40
0.25
 40
0.25
 40
0.25
 40
0.25
 40
0.3125
 40
0.3125
 40
0.3125
 40
0.3125
 40
0.375
 40
0.375
 40
0.375
 40
0.375
 40
0.4375
 40
0.4375
 40
0.4375
 40
0.4375
 40
0.5
 40
0.5
 40
0.5
 40
0.5
 40
0.5625
 40
0.5625
 40
0.5625
 40
0.5625
 40
0.625
 40
0.625
 40
0.625
 40
0.625
 40
0.6875
 40
0.6875
 40
0.6875
 40
0.6875
 40
0.75
 40
0.75
 40
0.75
 40
0.75
 40
0.8125
 40
0.8125
 40
0.8125
 40
0.8125
 40
0.875
 40
0.875
 40
0.875
 40
0.875
 40
1.0
 40
1.0
 40
1.0
 40
1.0
 10
114.6351
 20
124.6286
 30
0.0
 10
114.6351
 20
124.6286
 30
0.0
 10
114.6327
 20
123.7084
 30
0.0
 10
114.6327
 20
123.7084
 30
0.0
 10
114.6327
 20
123.7084
 30
0.0
 10
114.6327
 20
123.7084
 30
0.0
 10
105.1887
 20
123.7245
 30
0.0
 10
105.1887
 20
123.7245
 30
0.0
 10
105.1887
 20
123.7245
 30
0.0
 10
105.1887
 20
123.7245
 30
0.0
 10
99.8675
 20
119.0905
 30
0.0
 10
99.8675
 20
119.0905
 30
0.0
 10
99.8675
 20
119.0905
 30
0.0
 10
99.8675
 20
119.0905
 30
0.0
 10
105.1887
 20
114.5299
 30
0.0
 10
105.1887
 20
114.5299
 30
0.0
 10
105.1887
 20
114.5299
 30
0.0
 10
105.1887
 20
114.5299
 30
0.0
 10
114.6897
 20
114.493
 30
0.0
 10
114.6897
 20
114.493
 30
0.0
 10
114.6897
 20
114.493
 30
0.0
 10
114.6897
 20
114.493
 30
0.0
 10
114.6576
 20
104.2628
 30
0.0
 10
114.6576
 20
104.2628
 30
0.0
 10
114.6576
 20
104.2628
 30
0.0
 10
114.6576
 20
104.2628
 30
0.0
 10
119.2181
 20
99.7398
 30
0.0
 10
119.2181
 20
99.7398
 30
0.0
 10
119.2181
 20
99.7398
 30
0.0
 10
119.2181
 20
99.7398
 30
0.0
 10
123.8522
 20
104.2628
 30
0.0
 10
123.8522
 20
104.2628
 30
0.0
 10
123.8522
 20
104.2628
 30
0.0
 10
123.8522
 20
104.2628
 30
0.0
 10
123.8291
 20
114.55
 30
0.0
 10
123.8291
 20
114.55
 30
0.0
 10
123.8291
 20
114.55
 30
0.0
 10
123.8291
 20
114.55
 30
0.0
 10
134.1193
 20
114.5298
 30
0.0
 10
134.1193
 20
114.5298
 30
0.0
 10
134.1193
 20
114.5298
 30
0.0
 10
134.1193
 20
114.5298
 30
0.0
 10
138.6423
 20
119.0904
 30
0.0
 10
138.6423
 20
119.0904
 30
0.0
 10
138.6423
 20
119.0904
 30
0.0
 10
138.6423
 20
119.0904
 30
0.0
 10
134.1193
 20
123.7245
 30
0.0
 10
134.1193
 20
123.7245
 30
0.0
 10
134.1193
 20
123.7245
 30
0.0
 10
134.1193
 20
123.7245
 30
0.0
 10
123.8482
 20
123.7464
 30
0.0
 10
123.8482
 20
123.7464
 30
0.0
 10
123.8482
 20
123.7464
 30
0.0
 10
123.8482
 20
123.7464
 30
0.0
 10
123.8485
 20
124.6285
 30
0.0
 10
123.8485
 20
124.6285
 30
0.0
 10
123.8485
 20
124.6285
 30
0.0
 10
123.8485
 20
124.6285
 30
0.0
 10
114.6351
 20
124.6286
 30
0.0
 10
114.6351
 20
124.6286
 30
0.0
  0
SPLINE
  5
E8
330
1F
100
AcDbEntity
  8
layer 1
 62
     7
100
AcDbSpline
210
0.0
220
0.0
230
1.0
 70
    11
 71
     3
 72
    16
 73
    12
 74
     0
 42
0.0000000001
 43
0.0000000001
 12
1.0
 22
0.0
 32
0.0
 13
1.0
 23
0.0
 33
0.0
 40
0.0
 40
0.0
 40
0.0
 40
0.0
 40
0.25
 40
0.25
 40
0.25
 40
0.25
 40
0.5
 40
0.5
 40
0.5
 40
0.5
 40
1.0
 40
1.0
 40
1.0
 40
1.0
 10
94.5086
 20
124.6375
 30
0.0
 10
94.5086
 20
124.6375
 30
0.0
 10
97.3293
 20
121.8167
 30
0.0
 10
97.3293
 20
121.8167
 30
0.0
 10
97.3293
 20
121.8167
 30
0.0
 10
97.3293
 20
121.8167
 30
0.0
 10
100.1352
 20
124.6226
 30
0.0
 10
100.1352
 20
124.6226
 30
0.0
 10
100.1352
 20
124.6226
 30
0.0
 10
100.1352
 20
124.6226
 30
0.0
 10
94.5086
 20
124.6375
 30
0.0
 10
94.5086
 20
124.6375
 30
0.0
  0
SPLINE
  5
E9
330
1F
100
AcDbEntity
  8
layer 1
 62
     7
100
AcDbSpline
210
0.0
220
0.0
230
1.0
 70
    11
 71
     3
 72
    64
 73
    60
 74
     0
 42
0.0000000001
 43
0.0000000001
 12
1.0
 22
0.0
 32
0.0
 13
1.0
 23
0.0
 33
0.0
 40
0.0
 40
0.0
 40
0.0
 40
0.0
 40
0.0625
 40
0.0625
 40
0.0625
 40
0.0625
 40
0.125
 40
0.125
 40
0.125
 40
0.125
 40
0.1875
 40
0.1875
 40
0.1875
 40
0.1875
 40
0.25
 40
0.25
 40
0.25
 40
0.25
 40
0.3125
 40
0.3125
 40
0.3125
 40
0.3125
 40
0.375
 40
0.375
 40
0.375
 40
0.375
 40
0.4375
 40
0.4375
 40
0.4375
 40
0.4375
 40
0.5
 40
0.5
 40
0.5
 40
0.5
 40
0.5625
 40
0.5625
 40
0.5625
 40
0.5625
 40
0.625
 40
0.625
 40
0.625
 40
0.625
 40
0.6875
 40
0.6875
 40
0.6875
 40
0.6875
 40
0.75
 40
0.75
 40
0.75
 40
0.75
 40
0.8125
 40
0.8125
 40
0.8125
 40
0.8125
 40
0.875
 40
0.875
 40
0.875
 40
0.875
 40
1.0
 40
1.0
 40
1.0
 40
1.0
 10
158.9936
 20
124.6286
 30
0.0
 10
158.9936
 20
124.6286
 30
0.0
 10
158.9912
 20
123.7084
 30
0.0
 10
158.9912
 20
123.7084
 30
0.0
 10
158.9912
 20
123.7084
 30
0.0
 10
158.9912
 20
123.7084
 30
0.0
 10
149.5472
 20
123.7245
 30
0.0
 10
149.5472
 20
123.7245
 30
0.0
 10
149.5472
 20
123.7245
 30
0.0
 10
149.5472
 20
123.7245
 30
0.0
 10
144.2259
 20
119.0905
 30
0.0
 10
144.2259
 20
119.0905
 30
0.0
 10
144.2259
 20
119.0905
 30
0.0
 10
144.2259
 20
119.0905
 30
0.0
 10
149.5472
 20
114.5299
 30
0.0
 10
149.5472
 20
114.5299
 30
0.0
 10
149.5472
 20
114.5299
 30
0.0
 10
149.5472
 20
114.5299
 30
0.0
 10
159.0482
 20
114.493
 30
0.0
 10
159.0482
 20
114.493
 30
0.0
 10
159.0482
 20
114.493
 30
0.0
 10
159.0482
 20
114.493
 30
0.0
 10
159.0161
 20
104.2628
 30
0.0
 10
159.0161
 20
104.2628
 30
0.0
 10
159.0161
 20
104.2628
 30
0.0
 10
159.0161
 20
104.2628
 30
0.0
 10
163.5766
 20
99.7398
 30
0.0
 10
163.5766
 20
99.7398
 30
0.0
 10
163.5766
 20
99.7398
 30
0.0
 10
163.5766
 20
99.7398
 30
0.0
 10
168.2107
 20
104.2628
 30
0.0
 10
168.2107
 20
104.2628
 30
0.0
 10
168.2107
 20
104.2628
 30
0.0
 10
168.2107
 20
104.2628
 30
0.0
 10
168.1876
 20
114.55
 30
0.0
 10
168.1876
 20
114.55
 30
0.0
 10
168.1876
 20
114.55
 30
0.0
 10
168.1876
 20
114.55
 30
0.0
 10
178.4778
 20
114.5298
 30
0.0
 10
178.4778
 20
114.5298
 30
0.0
 10
178.4778
 20
114.5298
 30
0.0
 10
178.4778
 20
114.5298
 30
0.0
 10
183.0008
 20
119.0904
 30
0.0
 10
183.0008
 20
119.0904
 30
0.0
 10
183.0008
 20
119.0904
 30
0.0
 10
183.0008
 20
119.0904
 30
0.0
 10
178.4778
 20
123.7245
 30
0.0
 10
178.4778
 20
123.7245
 30
0.0
 10
178.4778
 20
123.7245
 30
0.0
 10
178.4778
 20
123.7245
 30
0.0
 10
168.2066
 20
123.7464
 30
0.0
 10
168.2066
 20
123.7464
 30
0.0
 10
168.2066
 20
123.7464
 30
0.0
 10
168.2066
 20
123.7464
 30
0.0
 10
168.207
 20
124.6285
 30
0.0
 10
168.207
 20
124.6285
 30
0.0
 10
168.207
 20
124.6285
 30
0.0
 10
168.207
 20
124.6285
 30
0.0
 10
158.9936
 20
124.6286
 30
0.0
 10
158.9936
 20
124.6286
 30
0.0
  0
SPLINE
  5
EA
330
1F
100
AcDbEntity
  8
layer 1
 62
     7
100
AcDbSpline
210
0.0
220
0.0
230
1.0
 70
    11
 71
     3
 72
    16
 73
    12
 74
     0
 42
0.0000000001
 43
0.0000000001
 12
1.0
 22
0.0
 32
0.0
 13
1.0
 23
0.0
 33
0.0
 40
0.0
 40
0.0
 40
0.0
 40
0.0
 40
0.25
 40
0.25
 40
0.25
 40
0.25
 40
0.5
 40
0.5
 40
0.5
 40
0.5
 40
1.0
 40
1.0
 40
1.0
 40
1.0
 10
138.8671
 20
124.6375
 30
0.0
 10
138.8671
 20
124.6375
 30
0.0
 10
141.6878
 20
121.8167
 30
0.0
 10
141.6878
 20
121.8167
 30
0.0
 10
141.6878
 20
121.8167
 30
0.0
 10
141.6878
 20
121.8167
 30
0.0
 10
144.4937
 20
124.6226
 30
0.0
 10
144.4937
 20
124.6226
 30
0.0
 10
144.4937
 20
124.6226
 30
0.0
 10
144.4937
 20
124.6226
 30
0.0
 10
138.8671
 20
124.6375
 30
0.0
 10
138.8671
 20
124.6375
 30
0.0
  0
SPLINE
  5
EB
330
1F
100
AcDbEntity
  8
layer 1
 62
     7
100
AcDbSpline
210
0.0
220
0.0
230
1.0
 70
    11
 71
     3
 72
    16
 73
    12
 74
     0
 42
0.0000000001
 43
0.0000000001
 12
1.0
 22
0.0
 32
0.0
 13
1.0
 23
0.0
 33
0.0
 40
0.0
 40
0.0
 40
0.0
 40
0.0
 40
0.25
 40
0.25
 40
0.25
 40
0.25
 40
0.5
 40
0.5
 40
0.5
 40
0.5
 40
1.0
 40
1.0
 40
1.0
 40
1.0
 10
182.8407
 20
124.6375
 30
0.0
 10
182.8407
 20
124.6375
 30
0.0
 10
185.6615
 20
121.8167
 30
0.0
 10
185.6615
 20
121.8167
 30
0.0
 10
185.6615
 20
121.8167
 30
0.0
 10
185.6615
 20
121.8167
 30
0.0
 10
188.4673
 20
124.6226
 30
0.0
 10
188.4673
 20
124.6226
 30
0.0
 10
188.4673
 20
124.6226
 30
0.0
 10
188.4673
 20
124.6226
 30
0.0
 10
182.8407
 20
124.6375
 30
0.0
 10
182.8407
 20
124.6375
 30
0.0
  0
SPLINE
  5
EC
330
1F
100
AcDbEntity
  8
layer 1
 62
     7
100
AcDbSpline
210
0.0
220
0.0
230
1.0
 70
    11
 71
     3
 72
    16
 73
    12
 74
     0
 42
0.0000000001
 43
0.0000000001
 12
1.0
 22
0.0
 32
0.0
 13
1.0
 23
0.0
 33
0.0
 40
0.0
 40
0.0
 40
0.0
 40
0.0
 40
0.25
 40
0.25
 40
0.25
 40
0.25
 40
0.5
 40
0.5
 40
0.5
 40
0.5
 40
1.0
 40
1.0
 40
1.0
 40
1.0
 10
191.6474
 20
-104.5911
 30
0.0
 10
191.6474
 20
-104.5911
 30
0.0
 10
188.8266
 20
-101.7704
 30
0.0
 10
188.8266
 20
-101.7704
 30
0.0
 10
188.8266
 20
-101.7704
 30
0.0
 10
188.8266
 20
-101.7704
 30
0.0
 10
191.6325
 20
-98.9645
 30
0.0
 10
191.6325
 20
-98.9645
 30
0.0
 10
191.6325
 20
-98.9645
 30
0.0
 10
191.6325
 20
-98.9645
 30
0.0
 10
191.6474
 20
-104.5911
 30
0.0
 10
191.6474
 20
-104.5911
 30
0.0
  0
SPLINE
  5
ED
330
1F
100
AcDbEntity
  8
layer 1
 62
     7
100
AcDbSpline
210
0.0
220
0.0
230
1.0
 70
    11
 71
     3
 72
    16
 73
    12
 74
     0
 42
0.0000000001
 43
0.0000000001
 12
1.0
 22
0.0
 32
0.0
 13
1.0
 23
0.0
 33
0.0
 40
0.0
 40
0.0
 40
0.0
 40
0.0
 40
0.25
 40
0.25
 40
0.25
 40
0.25
 40
0.5
 40
0.5
 40
0.5
 40
0.5
 40
1.0
 40
1.0
 40
1.0
 40
1.0
 10
191.5551
 20
-66.3968
 30
0.0
 10
191.5551
 20
-66.3968
 30
0.0
 10
191.5876
 20
-74.1134
 30
0.0
 10
191.5876
 20
-74.1134
 30
0.0
 10
191.5876
 20
-74.1134
 30
0.0
 10
191.5876
 20
-74.1134
 30
0.0
 10
187.6719
 20
-70.1977
 30
0.0
 10
187.6719
 20
-70.1977
 30
0.0
 10
187.6719
 20
-70.1977
 30
0.0
 10
187.6719
 20
-70.1977
 30
0.0
 10
191.5551
 20
-66.3968
 30
0.0
 10
191.5551
 20
-66.3968
 30
0.0
  0
SPLINE
  5
EE
330
1F
100
AcDbEntity
  8
layer 1
 62
     7
100
AcDbSpline
210
0.0
220
0.0
230
1.0
 70
    11
 71
     3
 72
    16
 73
    12
 74
     0
 42
0.0000000001
 43
0.0000000001
 12
1.0
 22
0.0
 32
0.0
 13
1.0
 23
0.0
 33
0.0
 40
0.0
 40
0.0
 40
0.0
 40
0.0
 40
0.25
 40
0.25
 40
0.25
 40
0.25
 40
0.5
 40
0.5
 40
0.5
 40
0.5
 40
1.0
 40
1.0
 40
1.0
 40
1.0
 10
191.6474
 20
-55.1463
 30
0.0
 10
191.6474
 20
-55.1463
 30
0.0
 10
188.8266
 20
-57.967
 30
0.0
 10
188.8266
 20
-57.967
 30
0.0
 10
188.8266
 20
-57.967
 30
0.0
 10
188.8266
 20
-57.967
 30
0.0
 10
191.6325
 20
-60.7729
 30
0.0
 10
191.6325
 20
-60.7729
 30
0.0
 10
191.6325
 20
-60.7729
 30
0.0
 10
191.6325
 20
-60.7729
 30
0.0
 10
191.6474
 20
-55.1463
 30
0.0
 10
191.6474
 20
-55.1463
 30
0.0
  0
SPLINE
  5
EF
330
1F
100
AcDbEntity
  8
layer 1
 62
     7
100
AcDbSpline
210
0.0
220
0.0
230
1.0
 70
    11
 71
     3
 72
    24
 73
    20
 74
     0
 42
0.0000000001
 43
0.0000000001
 12
1.0
 22
0.0
 32
0.0
 13
1.0
 23
0.0
 33
0.0
 40
0.0
 40
0.0
 40
0.0
 40
0.0
 40
0.1666666666666667
 40
0.1666666666666667
 40
0.1666666666666667
 40
0.1666666666666667
 40
0.3333333333333333
 40
0.3333333333333333
 40
0.3333333333333333
 40
0.3333333333333333
 40
0.5
 40
0.5
 40
0.5
 40
0.5
 40
0.6666666666666666
 40
0.6666666666666666
 40
0.6666666666666666
 40
0.6666666666666666
 40
1.0
 40
1.0
 40
1.0
 40
1.0
 10
185.7714
 20
-43.4721
 30
0.0
 10
185.7714
 20
-43.4721
 30
0.0
 10
178.1634
 20
-35.864
 30
0.0
 10
178.1634
 20
-35.864
 30
0.0
 10
178.1634
 20
-35.864
 30
0.0
 10
178.1634
 20
-35.864
 30
0.0
 10
185.7714
 20
-28.256
 30
0.0
 10
185.7714
 20
-28.256
 30
0.0
 10
185.7714
 20
-28.256
 30
0.0
 10
185.7714
 20
-28.256
 30
0.0
 10
191.6046
 20
-34.0891
 30
0.0
 10
191.6046
 20
-34.0891
 30
0.0
 10
191.6046
 20
-34.0891
 30
0.0
 10
191.6046
 20
-34.0891
 30
0.0
 10
191.6007
 20
-37.6428
 30
0.0
 10
191.6007
 20
-37.6428
 30
0.0
 10
191.6007
 20
-37.6428
 30
0.0
 10
191.6007
 20
-37.6428
 30
0.0
 10
185.7714
 20
-43.4721
 30
0.0
 10
185.7714
 20
-43.4721
 30
0.0
  0
SPLINE
  5
F0
330
1F
100
AcDbEntity
  8
layer 1
 62
     7
100
AcDbSpline
210
0.0
220
0.0
230
1.0
 70
    11
 71
     3
 72
    16
 73
    12
 74
     0
 42
0.0000000001
 43
0.0000000001
 12
1.0
 22
0.0
 32
0.0
 13
1.0
 23
0.0
 33
0.0
 40
0.0
 40
0.0
 40
0.0
 40
0.0
 40
0.25
 40
0.25
 40
0.25
 40
0.25
 40
0.5
 40
0.5
 40
0.5
 40
0.5
 40
1.0
 40
1.0
 40
1.0
 40
1.0
 10
191.5551
 20
-49.3951
 30
0.0
 10
191.5551
 20
-49.3951
 30
0.0
 10
191.5876
 20
-41.6785
 30
0.0
 10
191.5876
 20
-41.6785
 30
0.0
 10
191.5876
 20
-41.6785
 30
0.0
 10
191.5876
 20
-41.6785
 30
0.0
 10
187.6719
 20
-45.5942
 30
0.0
 10
187.6719
 20
-45.5942
 30
0.0
 10
187.6719
 20
-45.5942
 30
0.0
 10
187.6719
 20
-45.5942
 30
0.0
 10
191.5551
 20
-49.3951
 30
0.0
 10
191.5551
 20
-49.3951
 30
0.0
  0
SPLINE
  5
F1
330
1F
100
AcDbEntity
  8
layer 1
 62
     7
100
AcDbSpline
210
0.0
220
0.0
230
1.0
 70
    11
 71
     3
 72
    16
 73
    12
 74
     0
 42
0.0000000001
 43
0.0000000001
 12
1.0
 22
0.0
 32
0.0
 13
1.0
 23
0.0
 33
0.0
 40
0.0
 40
0.0
 40
0.0
 40
0.0
 40
0.25
 40
0.25
 40
0.25
 40
0.25
 40
0.5
 40
0.5
 40
0.5
 40
0.5
 40
1.0
 40
1.0
 40
1.0
 40
1.0
 10
191.5551
 20
-22.0908
 30
0.0
 10
191.5551
 20
-22.0908
 30
0.0
 10
191.5876
 20
-29.8074
 30
0.0
 10
191.5876
 20
-29.8074
 30
0.0
 10
191.5876
 20
-29.8074
 30
0.0
 10
191.5876
 20
-29.8074
 30
0.0
 10
187.6719
 20
-25.8917
 30
0.0
 10
187.6719
 20
-25.8917
 30
0.0
 10
187.6719
 20
-25.8917
 30
0.0
 10
187.6719
 20
-25.8917
 30
0.0
 10
191.5551
 20
-22.0908
 30
0.0
 10
191.5551
 20
-22.0908
 30
0.0
  0
SPLINE
  5
F2
330
1F
100
AcDbEntity
  8
layer 1
 62
     7
100
AcDbSpline
210
0.0
220
0.0
230
1.0
 70
    11
 71
     3
 72
    16
 73
    12
 74
     0
 42
0.0000000001
 43
0.0000000001
 12
1.0
 22
0.0
 32
0.0
 13
1.0
 23
0.0
 33
0.0
 40
0.0
 40
0.0
 40
0.0
 40
0.0
 40
0.25
 40
0.25
 40
0.25
 40
0.25
 40
0.5
 40
0.5
 40
0.5
 40
0.5
 40
1.0
 40
1.0
 40
1.0
 40
1.0
 10
191.6474
 20
-10.8403
 30
0.0
 10
191.6474
 20
-10.8403
 30
0.0
 10
188.8266
 20
-13.661
 30
0.0
 10
188.8266
 20
-13.661
 30
0.0
 10
188.8266
 20
-13.661
 30
0.0
 10
188.8266
 20
-13.661
 30
0.0
 10
191.6325
 20
-16.4668
 30
0.0
 10
191.6325
 20
-16.4668
 30
0.0
 10
191.6325
 20
-16.4668
 30
0.0
 10
191.6325
 20
-16.4668
 30
0.0
 10
191.6474
 20
-10.8403
 30
0.0
 10
191.6474
 20
-10.8403
 30
0.0
  0
SPLINE
  5
F3
330
1F
100
AcDbEntity
  8
layer 1
 62
     7
100
AcDbSpline
210
0.0
220
0.0
230
1.0
 70
    11
 71
     3
 72
    24
 73
    20
 74
     0
 42
0.0000000001
 43
0.0000000001
 12
1.0
 22
0.0
 32
0.0
 13
1.0
 23
0.0
 33
0.0
 40
0.0
 40
0.0
 40
0.0
 40
0.0
 40
0.1666666666666667
 40
0.1666666666666667
 40
0.1666666666666667
 40
0.1666666666666667
 40
0.3333333333333333
 40
0.3333333333333333
 40
0.3333333333333333
 40
0.3333333333333333
 40
0.5
 40
0.5
 40
0.5
 40
0.5
 40
0.6666666666666666
 40
0.6666666666666666
 40
0.6666666666666666
 40
0.6666666666666666
 40
1.0
 40
1.0
 40
1.0
 40
1.0
 10
185.7714
 20
0.4967
 30
0.0
 10
185.7714
 20
0.4967
 30
0.0
 10
178.1634
 20
8.1048
 30
0.0
 10
178.1634
 20
8.1048
 30
0.0
 10
178.1634
 20
8.1048
 30
0.0
 10
178.1634
 20
8.1048
 30
0.0
 10
185.7714
 20
15.7128
 30
0.0
 10
185.7714
 20
15.7128
 30
0.0
 10
185.7714
 20
15.7128
 30
0.0
 10
185.7714
 20
15.7128
 30
0.0
 10
191.6046
 20
9.8796
 30
0.0
 10
191.6046
 20
9.8796
 30
0.0
 10
191.6046
 20
9.8796
 30
0.0
 10
191.6046
 20
9.8796
 30
0.0
 10
191.6007
 20
6.326
 30
0.0
 10
191.6007
 20
6.326
 30
0.0
 10
191.6007
 20
6.326
 30
0.0
 10
191.6007
 20
6.326
 30
0.0
 10
185.7714
 20
0.4967
 30
0.0
 10
185.7714
 20
0.4967
 30
0.0
  0
SPLINE
  5
F4
330
1F
100
AcDbEntity
  8
layer 1
 62
     7
100
AcDbSpline
210
0.0
220
0.0
230
1.0
 70
    11
 71
     3
 72
    16
 73
    12
 74
     0
 42
0.0000000001
 43
0.0000000001
 12
1.0
 22
0.0
 32
0.0
 13
1.0
 23
0.0
 33
0.0
 40
0.0
 40
0.0
 40
0.0
 40
0.0
 40
0.25
 40
0.25
 40
0.25
 40
0.25
 40
0.5
 40
0.5
 40
0.5
 40
0.5
 40
1.0
 40
1.0
 40
1.0
 40
1.0
 10
191.5551
 20
-5.4263
 30
0.0
 10
191.5551
 20
-5.4263
 30
0.0
 10
191.5876
 20
2.2903
 30
0.0
 10
191.5876
 20
2.2903
 30
0.0
 10
191.5876
 20
2.2903
 30
0.0
 10
191.5876
 20
2.2903
 30
0.0
 10
187.6719
 20
-1.6254
 30
0.0
 10
187.6719
 20
-1.6254
 30
0.0
 10
187.6719
 20
-1.6254
 30
0.0
 10
187.6719
 20
-1.6254
 30
0.0
 10
191.5551
 20
-5.4263
 30
0.0
 10
191.5551
 20
-5.4263
 30
0.0
  0
SPLINE
  5
F5
330
1F
100
AcDbEntity
  8
layer 1
 62
     7
100
AcDbSpline
210
0.0
220
0.0
230
1.0
 70
    11
 71
     3
 72
    16
 73
    12
 74
     0
 42
0.0000000001
 43
0.0000000001
 12
1.0
 22
0.0
 32
0.0
 13
1.0
 23
0.0
 33
0.0
 40
0.0
 40
0.0
 40
0.0
 40
0.0
 40
0.25
 40
0.25
 40
0.25
 40
0.25
 40
0.5
 40
0.5
 40
0.5
 40
0.5
 40
1.0
 40
1.0
 40
1.0
 40
1.0
 10
191.5551
 20
21.878
 30
0.0
 10
191.5551
 20
21.878
 30
0.0
 10
191.5876
 20
14.1614
 30
0.0
 10
191.5876
 20
14.1614
 30
0.0
 10
191.5876
 20
14.1614
 30
0.0
 10
191.5876
 20
14.1614
 30
0.0
 10
187.6719
 20
18.0771
 30
0.0
 10
187.6719
 20
18.0771
 30
0.0
 10
187.6719
 20
18.0771
 30
0.0
 10
187.6719
 20
18.0771
 30
0.0
 10
191.5551
 20
21.878
 30
0.0
 10
191.5551
 20
21.878
 30
0.0
  0
SPLINE
  5
F6
330
1F
100
AcDbEntity
  8
layer 1
 62
     7
100
AcDbSpline
210
0.0
220
0.0
230
1.0
 70
    11
 71
     3
 72
    16
 73
    12
 74
     0
 42
0.0000000001
 43
0.0000000001
 12
1.0
 22
0.0
 32
0.0
 13
1.0
 23
0.0
 33
0.0
 40
0.0
 40
0.0
 40
0.0
 40
0.0
 40
0.25
 40
0.25
 40
0.25
 40
0.25
 40
0.5
 40
0.5
 40
0.5
 40
0.5
 40
1.0
 40
1.0
 40
1.0
 40
1.0
 10
191.6474
 20
33.1285
 30
0.0
 10
191.6474
 20
33.1285
 30
0.0
 10
188.8266
 20
30.3078
 30
0.0
 10
188.8266
 20
30.3078
 30
0.0
 10
188.8266
 20
30.3078
 30
0.0
 10
188.8266
 20
30.3078
 30
0.0
 10
191.6325
 20
27.5019
 30
0.0
 10
191.6325
 20
27.5019
 30
0.0
 10
191.6325
 20
27.5019
 30
0.0
 10
191.6325
 20
27.5019
 30
0.0
 10
191.6474
 20
33.1285
 30
0.0
 10
191.6474
 20
33.1285
 30
0.0
  0
SPLINE
  5
F7
330
1F
100
AcDbEntity
  8
layer 1
 62
     7
100
AcDbSpline
210
0.0
220
0.0
230
1.0
 70
    11
 71
     3
 72
    24
 73
    20
 74
     0
 42
0.0000000001
 43
0.0000000001
 12
1.0
 22
0.0
 32
0.0
 13
1.0
 23
0.0
 33
0.0
 40
0.0
 40
0.0
 40
0.0
 40
0.0
 40
0.1666666666666667
 40
0.1666666666666667
 40
0.1666666666666667
 40
0.1666666666666667
 40
0.3333333333333333
 40
0.3333333333333333
 40
0.3333333333333333
 40
0.3333333333333333
 40
0.5
 40
0.5
 40
0.5
 40
0.5
 40
0.6666666666666666
 40
0.6666666666666666
 40
0.6666666666666666
 40
0.6666666666666666
 40
1.0
 40
1.0
 40
1.0
 40
1.0
 10
185.7714
 20
44.5946
 30
0.0
 10
185.7714
 20
44.5946
 30
0.0
 10
178.1634
 20
52.2027
 30
0.0
 10
178.1634
 20
52.2027
 30
0.0
 10
178.1634
 20
52.2027
 30
0.0
 10
178.1634
 20
52.2027
 30
0.0
 10
185.7714
 20
59.8107
 30
0.0
 10
185.7714
 20
59.8107
 30
0.0
 10
185.7714
 20
59.8107
 30
0.0
 10
185.7714
 20
59.8107
 30
0.0
 10
191.6046
 20
53.9776
 30
0.0
 10
191.6046
 20
53.9776
 30
0.0
 10
191.6046
 20
53.9776
 30
0.0
 10
191.6046
 20
53.9776
 30
0.0
 10
191.6007
 20
50.4239
 30
0.0
 10
191.6007
 20
50.4239
 30
0.0
 10
191.6007
 20
50.4239
 30
0.0
 10
191.6007
 20
50.4239
 30
0.0
 10
185.7714
 20
44.5946
 30
0.0
 10
185.7714
 20
44.5946
 30
0.0
  0
SPLINE
  5
F8
330
1F
100
AcDbEntity
  8
layer 1
 62
     7
100
AcDbSpline
210
0.0
220
0.0
230
1.0
 70
    11
 71
     3
 72
    16
 73
    12
 74
     0
 42
0.0000000001
 43
0.0000000001
 12
1.0
 22
0.0
 32
0.0
 13
1.0
 23
0.0
 33
0.0
 40
0.0
 40
0.0
 40
0.0
 40
0.0
 40
0.25
 40
0.25
 40
0.25
 40
0.25
 40
0.5
 40
0.5
 40
0.5
 40
0.5
 40
1.0
 40
1.0
 40
1.0
 40
1.0
 10
191.5551
 20
38.6716
 30
0.0
 10
191.5551
 20
38.6716
 30
0.0
 10
191.5876
 20
46.3882
 30
0.0
 10
191.5876
 20
46.3882
 30
0.0
 10
191.5876
 20
46.3882
 30
0.0
 10
191.5876
 20
46.3882
 30
0.0
 10
187.6719
 20
42.4725
 30
0.0
 10
187.6719
 20
42.4725
 30
0.0
 10
187.6719
 20
42.4725
 30
0.0
 10
187.6719
 20
42.4725
 30
0.0
 10
191.5551
 20
38.6716
 30
0.0
 10
191.5551
 20
38.6716
 30
0.0
  0
SPLINE
  5
F9
330
1F
100
AcDbEntity
  8
layer 1
 62
     7
100
AcDbSpline
210
0.0
220
0.0
230
1.0
 70
    11
 71
     3
 72
    16
 73
    12
 74
     0
 42
0.0000000001
 43
0.0000000001
 12
1.0
 22
0.0
 32
0.0
 13
1.0
 23
0.0
 33
0.0
 40
0.0
 40
0.0
 40
0.0
 40
0.0
 40
0.25
 40
0.25
 40
0.25
 40
0.25
 40
0.5
 40
0.5
 40
0.5
 40
0.5
 40
1.0
 40
1.0
 40
1.0
 40
1.0
 10
191.5551
 20
65.9759
 30
0.0
 10
191.5551
 20
65.9759
 30
0.0
 10
191.5876
 20
58.2593
 30
0.0
 10
191.5876
 20
58.2593
 30
0.0
 10
191.5876
 20
58.2593
 30
0.0
 10
191.5876
 20
58.2593
 30
0.0
 10
187.6719
 20
62.175
 30
0.0
 10
187.6719
 20
62.175
 30
0.0
 10
187.6719
 20
62.175
 30
0.0
 10
187.6719
 20
62.175
 30
0.0
 10
191.5551
 20
65.9759
 30
0.0
 10
191.5551
 20
65.9759
 30
0.0
  0
SPLINE
  5
FA
330
1F
100
AcDbEntity
  8
layer 1
 62
     7
100
AcDbSpline
210
0.0
220
0.0
230
1.0
 70
    11
 71
     3
 72
    16
 73
    12
 74
     0
 42
0.0000000001
 43
0.0000000001
 12
1.0
 22
0.0
 32
0.0
 13
1.0
 23
0.0
 33
0.0
 40
0.0
 40
0.0
 40
0.0
 40
0.0
 40
0.25
 40
0.25
 40
0.25
 40
0.25
 40
0.5
 40
0.5
 40
0.5
 40
0.5
 40
1.0
 40
1.0
 40
1.0
 40
1.0
 10
191.6474
 20
77.2264
 30
0.0
 10
191.6474
 20
77.2264
 30
0.0
 10
188.8266
 20
74.4057
 30
0.0
 10
188.8266
 20
74.4057
 30
0.0
 10
188.8266
 20
74.4057
 30
0.0
 10
188.8266
 20
74.4057
 30
0.0
 10
191.6325
 20
71.5999
 30
0.0
 10
191.6325
 20
71.5999
 30
0.0
 10
191.6325
 20
71.5999
 30
0.0
 10
191.6325
 20
71.5999
 30
0.0
 10
191.6474
 20
77.2264
 30
0.0
 10
191.6474
 20
77.2264
 30
0.0
  0
SPLINE
  5
FB
330
1F
100
AcDbEntity
  8
layer 1
 62
     7
100
AcDbSpline
210
0.0
220
0.0
230
1.0
 70
    11
 71
     3
 72
    24
 73
    20
 74
     0
 42
0.0000000001
 43
0.0000000001
 12
1.0
 22
0.0
 32
0.0
 13
1.0
 23
0.0
 33
0.0
 40
0.0
 40
0.0
 40
0.0
 40
0.0
 40
0.1666666666666667
 40
0.1666666666666667
 40
0.1666666666666667
 40
0.1666666666666667
 40
0.3333333333333333
 40
0.3333333333333333
 40
0.3333333333333333
 40
0.3333333333333333
 40
0.5
 40
0.5
 40
0.5
 40
0.5
 40
0.6666666666666666
 40
0.6666666666666666
 40
0.6666666666666666
 40
0.6666666666666666
 40
1.0
 40
1.0
 40
1.0
 40
1.0
 10
185.7714
 20
88.7147
 30
0.0
 10
185.7714
 20
88.7147
 30
0.0
 10
178.1634
 20
96.3227
 30
0.0
 10
178.1634
 20
96.3227
 30
0.0
 10
178.1634
 20
96.3227
 30
0.0
 10
178.1634
 20
96.3227
 30
0.0
 10
185.7714
 20
103.9307
 30
0.0
 10
185.7714
 20
103.9307
 30
0.0
 10
185.7714
 20
103.9307
 30
0.0
 10
185.7714
 20
103.9307
 30
0.0
 10
191.6046
 20
98.0976
 30
0.0
 10
191.6046
 20
98.0976
 30
0.0
 10
191.6046
 20
98.0976
 30
0.0
 10
191.6046
 20
98.0976
 30
0.0
 10
191.6007
 20
94.5439
 30
0.0
 10
191.6007
 20
94.5439
 30
0.0
 10
191.6007
 20
94.5439
 30
0.0
 10
191.6007
 20
94.5439
 30
0.0
 10
185.7714
 20
88.7147
 30
0.0
 10
185.7714
 20
88.7147
 30
0.0
  0
SPLINE
  5
FC
330
1F
100
AcDbEntity
  8
layer 1
 62
     7
100
AcDbSpline
210
0.0
220
0.0
230
1.0
 70
    11
 71
     3
 72
    16
 73
    12
 74
     0
 42
0.0000000001
 43
0.0000000001
 12
1.0
 22
0.0
 32
0.0
 13
1.0
 23
0.0
 33
0.0
 40
0.0
 40
0.0
 40
0.0
 40
0.0
 40
0.25
 40
0.25
 40
0.25
 40
0.25
 40
0.5
 40
0.5
 40
0.5
 40
0.5
 40
1.0
 40
1.0
 40
1.0
 40
1.0
 10
191.5551
 20
82.7917
 30
0.0
 10
191.5551
 20
82.7917
 30
0.0
 10
191.5876
 20
90.5082
 30
0.0
 10
191.5876
 20
90.5082
 30
0.0
 10
191.5876
 20
90.5082
 30
0.0
 10
191.5876
 20
90.5082
 30
0.0
 10
187.6719
 20
86.5925
 30
0.0
 10
187.6719
 20
86.5925
 30
0.0
 10
187.6719
 20
86.5925
 30
0.0
 10
187.6719
 20
86.5925
 30
0.0
 10
191.5551
 20
82.7917
 30
0.0
 10
191.5551
 20
82.7917
 30
0.0
  0
SPLINE
  5
FD
330
1F
100
AcDbEntity
  8
layer 1
 62
     7
100
AcDbSpline
210
0.0
220
0.0
230
1.0
 70
    11
 71
     3
 72
    16
 73
    12
 74
     0
 42
0.0000000001
 43
0.0000000001
 12
1.0
 22
0.0
 32
0.0
 13
1.0
 23
0.0
 33
0.0
 40
0.0
 40
0.0
 40
0.0
 40
0.0
 40
0.25
 40
0.25
 40
0.25
 40
0.25
 40
0.5
 40
0.5
 40
0.5
 40
0.5
 40
1.0
 40
1.0
 40
1.0
 40
1.0
 10
191.5551
 20
110.0959
 30
0.0
 10
191.5551
 20
110.0959
 30
0.0
 10
191.5876
 20
102.3794
 30
0.0
 10
191.5876
 20
102.3794
 30
0.0
 10
191.5876
 20
102.3794
 30
0.0
 10
191.5876
 20
102.3794
 30
0.0
 10
187.6719
 20
106.295
 30
0.0
 10
187.6719
 20
106.295
 30
0.0
 10
187.6719
 20
106.295
 30
0.0
 10
187.6719
 20
106.295
 30
0.0
 10
191.5551
 20
110.0959
 30
0.0
 10
191.5551
 20
110.0959
 30
0.0
  0
SPLINE
  5
FE
330
1F
100
AcDbEntity
  8
layer 1
 62
     7
100
AcDbSpline
210
0.0
220
0.0
230
1.0
 70
    11
 71
     3
 72
    16
 73
    12
 74
     0
 42
0.0000000001
 43
0.0000000001
 12
1.0
 22
0.0
 32
0.0
 13
1.0
 23
0.0
 33
0.0
 40
0.0
 40
0.0
 40
0.0
 40
0.0
 40
0.25
 40
0.25
 40
0.25
 40
0.25
 40
0.5
 40
0.5
 40
0.5
 40
0.5
 40
1.0
 40
1.0
 40
1.0
 40
1.0
 10
191.6474
 20
121.3464
 30
0.0
 10
191.6474
 20
121.3464
 30
0.0
 10
188.8266
 20
118.5257
 30
0.0
 10
188.8266
 20
118.5257
 30
0.0
 10
188.8266
 20
118.5257
 30
0.0
 10
188.8266
 20
118.5257
 30
0.0
 10
191.6325
 20
115.7199
 30
0.0
 10
191.6325
 20
115.7199
 30
0.0
 10
191.6325
 20
115.7199
 30
0.0
 10
191.6325
 20
115.7199
 30
0.0
 10
191.6474
 20
121.3464
 30
0.0
 10
191.6474
 20
121.3464
 30
0.0
  0
SPLINE
  5
FF
330
1F
100
AcDbEntity
  8
layer 1
 62
     7
100
AcDbSpline
210
0.0
220
0.0
230
1.0
 70
    11
 71
     3
 72
    24
 73
    20
 74
     0
 42
0.0000000001
 43
0.0000000001
 12
1.0
 22
0.0
 32
0.0
 13
1.0
 23
0.0
 33
0.0
 40
0.0
 40
0.0
 40
0.0
 40
0.0
 40
0.1666666666666667
 40
0.1666666666666667
 40
0.1666666666666667
 40
0.1666666666666667
 40
0.3333333333333333
 40
0.3333333333333333
 40
0.3333333333333333
 40
0.3333333333333333
 40
0.5
 40
0.5
 40
0.5
 40
0.5
 40
0.6666666666666666
 40
0.6666666666666666
 40
0.6666666666666666
 40
0.6666666666666666
 40
1.0
 40
1.0
 40
1.0
 40
1.0
 10
53.6213
 20
-87.7781
 30
0.0
 10
53.6213
 20
-87.7781
 30
0.0
 10
61.2293
 20
-80.1701
 30
0.0
 10
61.2293
 20
-80.1701
 30
0.0
 10
61.2293
 20
-80.1701
 30
0.0
 10
61.2293
 20
-80.1701
 30
0.0
 10
53.6213
 20
-72.562
 30
0.0
 10
53.6213
 20
-72.562
 30
0.0
 10
53.6213
 20
-72.562
 30
0.0
 10
53.6213
 20
-72.562
 30
0.0
 10
47.7881
 20
-78.3952
 30
0.0
 10
47.7881
 20
-78.3952
 30
0.0
 10
47.7881
 20
-78.3952
 30
0.0
 10
47.7881
 20
-78.3952
 30
0.0
 10
47.792
 20
-81.9488
 30
0.0
 10
47.792
 20
-81.9488
 30
0.0
 10
47.792
 20
-81.9488
 30
0.0
 10
47.792
 20
-81.9488
 30
0.0
 10
53.6213
 20
-87.7781
 30
0.0
 10
53.6213
 20
-87.7781
 30
0.0
  0
SPLINE
  5
100
330
1F
100
AcDbEntity
  8
layer 1
 62
     7
100
AcDbSpline
210
0.0
220
0.0
230
1.0
 70
    11
 71
     3
 72
    16
 73
    12
 74
     0
 42
0.0000000001
 43
0.0000000001
 12
1.0
 22
0.0
 32
0.0
 13
1.0
 23
0.0
 33
0.0
 40
0.0
 40
0.0
 40
0.0
 40
0.0
 40
0.25
 40
0.25
 40
0.25
 40
0.25
 40
0.5
 40
0.5
 40
0.5
 40
0.5
 40
1.0
 40
1.0
 40
1.0
 40
1.0
 10
47.8376
 20
-93.7011
 30
0.0
 10
47.8376
 20
-93.7011
 30
0.0
 10
47.8051
 20
-85.9845
 30
0.0
 10
47.8051
 20
-85.9845
 30
0.0
 10
47.8051
 20
-85.9845
 30
0.0
 10
47.8051
 20
-85.9845
 30
0.0
 10
51.7208
 20
-89.9002
 30
0.0
 10
51.7208
 20
-89.9002
 30
0.0
 10
51.7208
 20
-89.9002
 30
0.0
 10
51.7208
 20
-89.9002
 30
0.0
 10
47.8376
 20
-93.7011
 30
0.0
 10
47.8376
 20
-93.7011
 30
0.0
  0
SPLINE
  5
101
330
1F
100
AcDbEntity
  8
layer 1
 62
     7
100
AcDbSpline
210
0.0
220
0.0
230
1.0
 70
    11
 71
     3
 72
    16
 73
    12
 74
     0
 42
0.0000000001
 43
0.0000000001
 12
1.0
 22
0.0
 32
0.0
 13
1.0
 23
0.0
 33
0.0
 40
0.0
 40
0.0
 40
0.0
 40
0.0
 40
0.25
 40
0.25
 40
0.25
 40
0.25
 40
0.5
 40
0.5
 40
0.5
 40
0.5
 40
1.0
 40
1.0
 40
1.0
 40
1.0
 10
47.7453
 20
-104.5911
 30
0.0
 10
47.7453
 20
-104.5911
 30
0.0
 10
50.5661
 20
-101.7704
 30
0.0
 10
50.5661
 20
-101.7704
 30
0.0
 10
50.5661
 20
-101.7704
 30
0.0
 10
50.5661
 20
-101.7704
 30
0.0
 10
47.7602
 20
-98.9645
 30
0.0
 10
47.7602
 20
-98.9645
 30
0.0
 10
47.7602
 20
-98.9645
 30
0.0
 10
47.7602
 20
-98.9645
 30
0.0
 10
47.7453
 20
-104.5911
 30
0.0
 10
47.7453
 20
-104.5911
 30
0.0
  0
SPLINE
  5
102
330
1F
100
AcDbEntity
  8
layer 1
 62
     7
100
AcDbSpline
210
0.0
220
0.0
230
1.0
 70
    11
 71
     3
 72
    16
 73
    12
 74
     0
 42
0.0000000001
 43
0.0000000001
 12
1.0
 22
0.0
 32
0.0
 13
1.0
 23
0.0
 33
0.0
 40
0.0
 40
0.0
 40
0.0
 40
0.0
 40
0.25
 40
0.25
 40
0.25
 40
0.25
 40
0.5
 40
0.5
 40
0.5
 40
0.5
 40
1.0
 40
1.0
 40
1.0
 40
1.0
 10
47.8376
 20
-66.3968
 30
0.0
 10
47.8376
 20
-66.3968
 30
0.0
 10
47.8051
 20
-74.1134
 30
0.0
 10
47.8051
 20
-74.1134
 30
0.0
 10
47.8051
 20
-74.1134
 30
0.0
 10
47.8051
 20
-74.1134
 30
0.0
 10
51.7208
 20
-70.1977
 30
0.0
 10
51.7208
 20
-70.1977
 30
0.0
 10
51.7208
 20
-70.1977
 30
0.0
 10
51.7208
 20
-70.1977
 30
0.0
 10
47.8376
 20
-66.3968
 30
0.0
 10
47.8376
 20
-66.3968
 30
0.0
  0
SPLINE
  5
103
330
1F
100
AcDbEntity
  8
layer 1
 62
     7
100
AcDbSpline
210
0.0
220
0.0
230
1.0
 70
    11
 71
     3
 72
    16
 73
    12
 74
     0
 42
0.0000000001
 43
0.0000000001
 12
1.0
 22
0.0
 32
0.0
 13
1.0
 23
0.0
 33
0.0
 40
0.0
 40
0.0
 40
0.0
 40
0.0
 40
0.25
 40
0.25
 40
0.25
 40
0.25
 40
0.5
 40
0.5
 40
0.5
 40
0.5
 40
1.0
 40
1.0
 40
1.0
 40
1.0
 10
47.7453
 20
-55.1463
 30
0.0
 10
47.7453
 20
-55.1463
 30
0.0
 10
50.5661
 20
-57.967
 30
0.0
 10
50.5661
 20
-57.967
 30
0.0
 10
50.5661
 20
-57.967
 30
0.0
 10
50.5661
 20
-57.967
 30
0.0
 10
47.7602
 20
-60.7729
 30
0.0
 10
47.7602
 20
-60.7729
 30
0.0
 10
47.7602
 20
-60.7729
 30
0.0
 10
47.7602
 20
-60.7729
 30
0.0
 10
47.7453
 20
-55.1463
 30
0.0
 10
47.7453
 20
-55.1463
 30
0.0
  0
SPLINE
  5
104
330
1F
100
AcDbEntity
  8
layer 1
 62
     7
100
AcDbSpline
210
0.0
220
0.0
230
1.0
 70
    11
 71
     3
 72
    24
 73
    20
 74
     0
 42
0.0000000001
 43
0.0000000001
 12
1.0
 22
0.0
 32
0.0
 13
1.0
 23
0.0
 33
0.0
 40
0.0
 40
0.0
 40
0.0
 40
0.0
 40
0.1666666666666667
 40
0.1666666666666667
 40
0.1666666666666667
 40
0.1666666666666667
 40
0.3333333333333333
 40
0.3333333333333333
 40
0.3333333333333333
 40
0.3333333333333333
 40
0.5
 40
0.5
 40
0.5
 40
0.5
 40
0.6666666666666666
 40
0.6666666666666666
 40
0.6666666666666666
 40
0.6666666666666666
 40
1.0
 40
1.0
 40
1.0
 40
1.0
 10
53.6213
 20
-43.4721
 30
0.0
 10
53.6213
 20
-43.4721
 30
0.0
 10
61.2293
 20
-35.864
 30
0.0
 10
61.2293
 20
-35.864
 30
0.0
 10
61.2293
 20
-35.864
 30
0.0
 10
61.2293
 20
-35.864
 30
0.0
 10
53.6213
 20
-28.256
 30
0.0
 10
53.6213
 20
-28.256
 30
0.0
 10
53.6213
 20
-28.256
 30
0.0
 10
53.6213
 20
-28.256
 30
0.0
 10
47.7881
 20
-34.0891
 30
0.0
 10
47.7881
 20
-34.0891
 30
0.0
 10
47.7881
 20
-34.0891
 30
0.0
 10
47.7881
 20
-34.0891
 30
0.0
 10
47.792
 20
-37.6428
 30
0.0
 10
47.792
 20
-37.6428
 30
0.0
 10
47.792
 20
-37.6428
 30
0.0
 10
47.792
 20
-37.6428
 30
0.0
 10
53.6213
 20
-43.4721
 30
0.0
 10
53.6213
 20
-43.4721
 30
0.0
  0
SPLINE
  5
105
330
1F
100
AcDbEntity
  8
layer 1
 62
     7
100
AcDbSpline
210
0.0
220
0.0
230
1.0
 70
    11
 71
     3
 72
    16
 73
    12
 74
     0
 42
0.0000000001
 43
0.0000000001
 12
1.0
 22
0.0
 32
0.0
 13
1.0
 23
0.0
 33
0.0
 40
0.0
 40
0.0
 40
0.0
 40
0.0
 40
0.25
 40
0.25
 40
0.25
 40
0.25
 40
0.5
 40
0.5
 40
0.5
 40
0.5
 40
1.0
 40
1.0
 40
1.0
 40
1.0
 10
47.8376
 20
-49.3951
 30
0.0
 10
47.8376
 20
-49.3951
 30
0.0
 10
47.8051
 20
-41.6785
 30
0.0
 10
47.8051
 20
-41.6785
 30
0.0
 10
47.8051
 20
-41.6785
 30
0.0
 10
47.8051
 20
-41.6785
 30
0.0
 10
51.7208
 20
-45.5942
 30
0.0
 10
51.7208
 20
-45.5942
 30
0.0
 10
51.7208
 20
-45.5942
 30
0.0
 10
51.7208
 20
-45.5942
 30
0.0
 10
47.8376
 20
-49.3951
 30
0.0
 10
47.8376
 20
-49.3951
 30
0.0
  0
SPLINE
  5
106
330
1F
100
AcDbEntity
  8
layer 1
 62
     7
100
AcDbSpline
210
0.0
220
0.0
230
1.0
 70
    11
 71
     3
 72
    16
 73
    12
 74
     0
 42
0.0000000001
 43
0.0000000001
 12
1.0
 22
0.0
 32
0.0
 13
1.0
 23
0.0
 33
0.0
 40
0.0
 40
0.0
 40
0.0
 40
0.0
 40
0.25
 40
0.25
 40
0.25
 40
0.25
 40
0.5
 40
0.5
 40
0.5
 40
0.5
 40
1.0
 40
1.0
 40
1.0
 40
1.0
 10
47.8376
 20
-22.0908
 30
0.0
 10
47.8376
 20
-22.0908
 30
0.0
 10
47.8051
 20
-29.8074
 30
0.0
 10
47.8051
 20
-29.8074
 30
0.0
 10
47.8051
 20
-29.8074
 30
0.0
 10
47.8051
 20
-29.8074
 30
0.0
 10
51.7208
 20
-25.8917
 30
0.0
 10
51.7208
 20
-25.8917
 30
0.0
 10
51.7208
 20
-25.8917
 30
0.0
 10
51.7208
 20
-25.8917
 30
0.0
 10
47.8376
 20
-22.0908
 30
0.0
 10
47.8376
 20
-22.0908
 30
0.0
  0
SPLINE
  5
107
330
1F
100
AcDbEntity
  8
layer 1
 62
     7
100
AcDbSpline
210
0.0
220
0.0
230
1.0
 70
    11
 71
     3
 72
    16
 73
    12
 74
     0
 42
0.0000000001
 43
0.0000000001
 12
1.0
 22
0.0
 32
0.0
 13
1.0
 23
0.0
 33
0.0
 40
0.0
 40
0.0
 40
0.0
 40
0.0
 40
0.25
 40
0.25
 40
0.25
 40
0.25
 40
0.5
 40
0.5
 40
0.5
 40
0.5
 40
1.0
 40
1.0
 40
1.0
 40
1.0
 10
47.7453
 20
-10.8403
 30
0.0
 10
47.7453
 20
-10.8403
 30
0.0
 10
50.5661
 20
-13.661
 30
0.0
 10
50.5661
 20
-13.661
 30
0.0
 10
50.5661
 20
-13.661
 30
0.0
 10
50.5661
 20
-13.661
 30
0.0
 10
47.7602
 20
-16.4668
 30
0.0
 10
47.7602
 20
-16.4668
 30
0.0
 10
47.7602
 20
-16.4668
 30
0.0
 10
47.7602
 20
-16.4668
 30
0.0
 10
47.7453
 20
-10.8403
 30
0.0
 10
47.7453
 20
-10.8403
 30
0.0
  0
SPLINE
  5
108
330
1F
100
AcDbEntity
  8
layer 1
 62
     7
100
AcDbSpline
210
0.0
220
0.0
230
1.0
 70
    11
 71
     3
 72
    24
 73
    20
 74
     0
 42
0.0000000001
 43
0.0000000001
 12
1.0
 22
0.0
 32
0.0
 13
1.0
 23
0.0
 33
0.0
 40
0.0
 40
0.0
 40
0.0
 40
0.0
 40
0.1666666666666667
 40
0.1666666666666667
 40
0.1666666666666667
 40
0.1666666666666667
 40
0.3333333333333333
 40
0.3333333333333333
 40
0.3333333333333333
 40
0.3333333333333333
 40
0.5
 40
0.5
 40
0.5
 40
0.5
 40
0.6666666666666666
 40
0.6666666666666666
 40
0.6666666666666666
 40
0.6666666666666666
 40
1.0
 40
1.0
 40
1.0
 40
1.0
 10
53.6213
 20
0.4967
 30
0.0
 10
53.6213
 20
0.4967
 30
0.0
 10
61.2293
 20
8.1048
 30
0.0
 10
61.2293
 20
8.1048
 30
0.0
 10
61.2293
 20
8.1048
 30
0.0
 10
61.2293
 20
8.1048
 30
0.0
 10
53.6213
 20
15.7128
 30
0.0
 10
53.6213
 20
15.7128
 30
0.0
 10
53.6213
 20
15.7128
 30
0.0
 10
53.6213
 20
15.7128
 30
0.0
 10
47.7881
 20
9.8796
 30
0.0
 10
47.7881
 20
9.8796
 30
0.0
 10
47.7881
 20
9.8796
 30
0.0
 10
47.7881
 20
9.8796
 30
0.0
 10
47.792
 20
6.326
 30
0.0
 10
47.792
 20
6.326
 30
0.0
 10
47.792
 20
6.326
 30
0.0
 10
47.792
 20
6.326
 30
0.0
 10
53.6213
 20
0.4967
 30
0.0
 10
53.6213
 20
0.4967
 30
0.0
  0
SPLINE
  5
109
330
1F
100
AcDbEntity
  8
layer 1
 62
     7
100
AcDbSpline
210
0.0
220
0.0
230
1.0
 70
    11
 71
     3
 72
    16
 73
    12
 74
     0
 42
0.0000000001
 43
0.0000000001
 12
1.0
 22
0.0
 32
0.0
 13
1.0
 23
0.0
 33
0.0
 40
0.0
 40
0.0
 40
0.0
 40
0.0
 40
0.25
 40
0.25
 40
0.25
 40
0.25
 40
0.5
 40
0.5
 40
0.5
 40
0.5
 40
1.0
 40
1.0
 40
1.0
 40
1.0
 10
47.8376
 20
-5.4263
 30
0.0
 10
47.8376
 20
-5.4263
 30
0.0
 10
47.8051
 20
2.2903
 30
0.0
 10
47.8051
 20
2.2903
 30
0.0
 10
47.8051
 20
2.2903
 30
0.0
 10
47.8051
 20
2.2903
 30
0.0
 10
51.7208
 20
-1.6254
 30
0.0
 10
51.7208
 20
-1.6254
 30
0.0
 10
51.7208
 20
-1.6254
 30
0.0
 10
51.7208
 20
-1.6254
 30
0.0
 10
47.8376
 20
-5.4263
 30
0.0
 10
47.8376
 20
-5.4263
 30
0.0
  0
SPLINE
  5
10A
330
1F
100
AcDbEntity
  8
layer 1
 62
     7
100
AcDbSpline
210
0.0
220
0.0
230
1.0
 70
    11
 71
     3
 72
    16
 73
    12
 74
     0
 42
0.0000000001
 43
0.0000000001
 12
1.0
 22
0.0
 32
0.0
 13
1.0
 23
0.0
 33
0.0
 40
0.0
 40
0.0
 40
0.0
 40
0.0
 40
0.25
 40
0.25
 40
0.25
 40
0.25
 40
0.5
 40
0.5
 40
0.5
 40
0.5
 40
1.0
 40
1.0
 40
1.0
 40
1.0
 10
47.8376
 20
21.878
 30
0.0
 10
47.8376
 20
21.878
 30
0.0
 10
47.8051
 20
14.1614
 30
0.0
 10
47.8051
 20
14.1614
 30
0.0
 10
47.8051
 20
14.1614
 30
0.0
 10
47.8051
 20
14.1614
 30
0.0
 10
51.7208
 20
18.0771
 30
0.0
 10
51.7208
 20
18.0771
 30
0.0
 10
51.7208
 20
18.0771
 30
0.0
 10
51.7208
 20
18.0771
 30
0.0
 10
47.8376
 20
21.878
 30
0.0
 10
47.8376
 20
21.878
 30
0.0
  0
SPLINE
  5
10B
330
1F
100
AcDbEntity
  8
layer 1
 62
     7
100
AcDbSpline
210
0.0
220
0.0
230
1.0
 70
    11
 71
     3
 72
    16
 73
    12
 74
     0
 42
0.0000000001
 43
0.0000000001
 12
1.0
 22
0.0
 32
0.0
 13
1.0
 23
0.0
 33
0.0
 40
0.0
 40
0.0
 40
0.0
 40
0.0
 40
0.25
 40
0.25
 40
0.25
 40
0.25
 40
0.5
 40
0.5
 40
0.5
 40
0.5
 40
1.0
 40
1.0
 40
1.0
 40
1.0
 10
47.7453
 20
33.1285
 30
0.0
 10
47.7453
 20
33.1285
 30
0.0
 10
50.5661
 20
30.3078
 30
0.0
 10
50.5661
 20
30.3078
 30
0.0
 10
50.5661
 20
30.3078
 30
0.0
 10
50.5661
 20
30.3078
 30
0.0
 10
47.7602
 20
27.5019
 30
0.0
 10
47.7602
 20
27.5019
 30
0.0
 10
47.7602
 20
27.5019
 30
0.0
 10
47.7602
 20
27.5019
 30
0.0
 10
47.7453
 20
33.1285
 30
0.0
 10
47.7453
 20
33.1285
 30
0.0
  0
SPLINE
  5
10C
330
1F
100
AcDbEntity
  8
layer 1
 62
     7
100
AcDbSpline
210
0.0
220
0.0
230
1.0
 70
    11
 71
     3
 72
    24
 73
    20
 74
     0
 42
0.0000000001
 43
0.0000000001
 12
1.0
 22
0.0
 32
0.0
 13
1.0
 23
0.0
 33
0.0
 40
0.0
 40
0.0
 40
0.0
 40
0.0
 40
0.1666666666666667
 40
0.1666666666666667
 40
0.1666666666666667
 40
0.1666666666666667
 40
0.3333333333333333
 40
0.3333333333333333
 40
0.3333333333333333
 40
0.3333333333333333
 40
0.5
 40
0.5
 40
0.5
 40
0.5
 40
0.6666666666666666
 40
0.6666666666666666
 40
0.6666666666666666
 40
0.6666666666666666
 40
1.0
 40
1.0
 40
1.0
 40
1.0
 10
53.6213
 20
44.5946
 30
0.0
 10
53.6213
 20
44.5946
 30
0.0
 10
61.2293
 20
52.2027
 30
0.0
 10
61.2293
 20
52.2027
 30
0.0
 10
61.2293
 20
52.2027
 30
0.0
 10
61.2293
 20
52.2027
 30
0.0
 10
53.6213
 20
59.8107
 30
0.0
 10
53.6213
 20
59.8107
 30
0.0
 10
53.6213
 20
59.8107
 30
0.0
 10
53.6213
 20
59.8107
 30
0.0
 10
47.7881
 20
53.9776
 30
0.0
 10
47.7881
 20
53.9776
 30
0.0
 10
47.7881
 20
53.9776
 30
0.0
 10
47.7881
 20
53.9776
 30
0.0
 10
47.792
 20
50.4239
 30
0.0
 10
47.792
 20
50.4239
 30
0.0
 10
47.792
 20
50.4239
 30
0.0
 10
47.792
 20
50.4239
 30
0.0
 10
53.6213
 20
44.5946
 30
0.0
 10
53.6213
 20
44.5946
 30
0.0
  0
SPLINE
  5
10D
330
1F
100
AcDbEntity
  8
layer 1
 62
     7
100
AcDbSpline
210
0.0
220
0.0
230
1.0
 70
    11
 71
     3
 72
    16
 73
    12
 74
     0
 42
0.0000000001
 43
0.0000000001
 12
1.0
 22
0.0
 32
0.0
 13
1.0
 23
0.0
 33
0.0
 40
0.0
 40
0.0
 40
0.0
 40
0.0
 40
0.25
 40
0.25
 40
0.25
 40
0.25
 40
0.5
 40
0.5
 40
0.5
 40
0.5
 40
1.0
 40
1.0
 40
1.0
 40
1.0
 10
47.8376
 20
38.6716
 30
0.0
 10
47.8376
 20
38.6716
 30
0.0
 10
47.8051
 20
46.3882
 30
0.0
 10
47.8051
 20
46.3882
 30
0.0
 10
47.8051
 20
46.3882
 30
0.0
 10
47.8051
 20
46.3882
 30
0.0
 10
51.7208
 20
42.4725
 30
0.0
 10
51.7208
 20
42.4725
 30
0.0
 10
51.7208
 20
42.4725
 30
0.0
 10
51.7208
 20
42.4725
 30
0.0
 10
47.8376
 20
38.6716
 30
0.0
 10
47.8376
 20
38.6716
 30
0.0
  0
SPLINE
  5
10E
330
1F
100
AcDbEntity
  8
layer 1
 62
     7
100
AcDbSpline
210
0.0
220
0.0
230
1.0
 70
    11
 71
     3
 72
    16
 73
    12
 74
     0
 42
0.0000000001
 43
0.0000000001
 12
1.0
 22
0.0
 32
0.0
 13
1.0
 23
0.0
 33
0.0
 40
0.0
 40
0.0
 40
0.0
 40
0.0
 40
0.25
 40
0.25
 40
0.25
 40
0.25
 40
0.5
 40
0.5
 40
0.5
 40
0.5
 40
1.0
 40
1.0
 40
1.0
 40
1.0
 10
47.8376
 20
65.9759
 30
0.0
 10
47.8376
 20
65.9759
 30
0.0
 10
47.8051
 20
58.2593
 30
0.0
 10
47.8051
 20
58.2593
 30
0.0
 10
47.8051
 20
58.2593
 30
0.0
 10
47.8051
 20
58.2593
 30
0.0
 10
51.7208
 20
62.175
 30
0.0
 10
51.7208
 20
62.175
 30
0.0
 10
51.7208
 20
62.175
 30
0.0
 10
51.7208
 20
62.175
 30
0.0
 10
47.8376
 20
65.9759
 30
0.0
 10
47.8376
 20
65.9759
 30
0.0
  0
SPLINE
  5
10F
330
1F
100
AcDbEntity
  8
layer 1
 62
     7
100
AcDbSpline
210
0.0
220
0.0
230
1.0
 70
    11
 71
     3
 72
    16
 73
    12
 74
     0
 42
0.0000000001
 43
0.0000000001
 12
1.0
 22
0.0
 32
0.0
 13
1.0
 23
0.0
 33
0.0
 40
0.0
 40
0.0
 40
0.0
 40
0.0
 40
0.25
 40
0.25
 40
0.25
 40
0.25
 40
0.5
 40
0.5
 40
0.5
 40
0.5
 40
1.0
 40
1.0
 40
1.0
 40
1.0
 10
47.7453
 20
77.2264
 30
0.0
 10
47.7453
 20
77.2264
 30
0.0
 10
50.5661
 20
74.4057
 30
0.0
 10
50.5661
 20
74.4057
 30
0.0
 10
50.5661
 20
74.4057
 30
0.0
 10
50.5661
 20
74.4057
 30
0.0
 10
47.7602
 20
71.5999
 30
0.0
 10
47.7602
 20
71.5999
 30
0.0
 10
47.7602
 20
71.5999
 30
0.0
 10
47.7602
 20
71.5999
 30
0.0
 10
47.7453
 20
77.2264
 30
0.0
 10
47.7453
 20
77.2264
 30
0.0
  0
SPLINE
  5
110
330
1F
100
AcDbEntity
  8
layer 1
 62
     7
100
AcDbSpline
210
0.0
220
0.0
230
1.0
 70
    11
 71
     3
 72
    24
 73
    20
 74
     0
 42
0.0000000001
 43
0.0000000001
 12
1.0
 22
0.0
 32
0.0
 13
1.0
 23
0.0
 33
0.0
 40
0.0
 40
0.0
 40
0.0
 40
0.0
 40
0.1666666666666667
 40
0.1666666666666667
 40
0.1666666666666667
 40
0.1666666666666667
 40
0.3333333333333333
 40
0.3333333333333333
 40
0.3333333333333333
 40
0.3333333333333333
 40
0.5
 40
0.5
 40
0.5
 40
0.5
 40
0.6666666666666666
 40
0.6666666666666666
 40
0.6666666666666666
 40
0.6666666666666666
 40
1.0
 40
1.0
 40
1.0
 40
1.0
 10
53.6213
 20
88.7147
 30
0.0
 10
53.6213
 20
88.7147
 30
0.0
 10
61.2293
 20
96.3227
 30
0.0
 10
61.2293
 20
96.3227
 30
0.0
 10
61.2293
 20
96.3227
 30
0.0
 10
61.2293
 20
96.3227
 30
0.0
 10
53.6213
 20
103.9307
 30
0.0
 10
53.6213
 20
103.9307
 30
0.0
 10
53.6213
 20
103.9307
 30
0.0
 10
53.6213
 20
103.9307
 30
0.0
 10
47.7881
 20
98.0976
 30
0.0
 10
47.7881
 20
98.0976
 30
0.0
 10
47.7881
 20
98.0976
 30
0.0
 10
47.7881
 20
98.0976
 30
0.0
 10
47.792
 20
94.5439
 30
0.0
 10
47.792
 20
94.5439
 30
0.0
 10
47.792
 20
94.5439
 30
0.0
 10
47.792
 20
94.5439
 30
0.0
 10
53.6213
 20
88.7147
 30
0.0
 10
53.6213
 20
88.7147
 30
0.0
  0
SPLINE
  5
111
330
1F
100
AcDbEntity
  8
layer 1
 62
     7
100
AcDbSpline
210
0.0
220
0.0
230
1.0
 70
    11
 71
     3
 72
    16
 73
    12
 74
     0
 42
0.0000000001
 43
0.0000000001
 12
1.0
 22
0.0
 32
0.0
 13
1.0
 23
0.0
 33
0.0
 40
0.0
 40
0.0
 40
0.0
 40
0.0
 40
0.25
 40
0.25
 40
0.25
 40
0.25
 40
0.5
 40
0.5
 40
0.5
 40
0.5
 40
1.0
 40
1.0
 40
1.0
 40
1.0
 10
47.8376
 20
82.7917
 30
0.0
 10
47.8376
 20
82.7917
 30
0.0
 10
47.8051
 20
90.5082
 30
0.0
 10
47.8051
 20
90.5082
 30
0.0
 10
47.8051
 20
90.5082
 30
0.0
 10
47.8051
 20
90.5082
 30
0.0
 10
51.7208
 20
86.5925
 30
0.0
 10
51.7208
 20
86.5925
 30
0.0
 10
51.7208
 20
86.5925
 30
0.0
 10
51.7208
 20
86.5925
 30
0.0
 10
47.8376
 20
82.7917
 30
0.0
 10
47.8376
 20
82.7917
 30
0.0
  0
SPLINE
  5
112
330
1F
100
AcDbEntity
  8
layer 1
 62
     7
100
AcDbSpline
210
0.0
220
0.0
230
1.0
 70
    11
 71
     3
 72
    16
 73
    12
 74
     0
 42
0.0000000001
 43
0.0000000001
 12
1.0
 22
0.0
 32
0.0
 13
1.0
 23
0.0
 33
0.0
 40
0.0
 40
0.0
 40
0.0
 40
0.0
 40
0.25
 40
0.25
 40
0.25
 40
0.25
 40
0.5
 40
0.5
 40
0.5
 40
0.5
 40
1.0
 40
1.0
 40
1.0
 40
1.0
 10
47.8376
 20
110.0959
 30
0.0
 10
47.8376
 20
110.0959
 30
0.0
 10
47.8051
 20
102.3794
 30
0.0
 10
47.8051
 20
102.3794
 30
0.0
 10
47.8051
 20
102.3794
 30
0.0
 10
47.8051
 20
102.3794
 30
0.0
 10
51.7208
 20
106.295
 30
0.0
 10
51.7208
 20
106.295
 30
0.0
 10
51.7208
 20
106.295
 30
0.0
 10
51.7208
 20
106.295
 30
0.0
 10
47.8376
 20
110.0959
 30
0.0
 10
47.8376
 20
110.0959
 30
0.0
  0
SPLINE
  5
113
330
1F
100
AcDbEntity
  8
layer 1
 62
     7
100
AcDbSpline
210
0.0
220
0.0
230
1.0
 70
    11
 71
     3
 72
    16
 73
    12
 74
     0
 42
0.0000000001
 43
0.0000000001
 12
1.0
 22
0.0
 32
0.0
 13
1.0
 23
0.0
 33
0.0
 40
0.0
 40
0.0
 40
0.0
 40
0.0
 40
0.25
 40
0.25
 40
0.25
 40
0.25
 40
0.5
 40
0.5
 40
0.5
 40
0.5
 40
1.0
 40
1.0
 40
1.0
 40
1.0
 10
47.7453
 20
121.3464
 30
0.0
 10
47.7453
 20
121.3464
 30
0.0
 10
50.5661
 20
118.5257
 30
0.0
 10
50.5661
 20
118.5257
 30
0.0
 10
50.5661
 20
118.5257
 30
0.0
 10
50.5661
 20
118.5257
 30
0.0
 10
47.7602
 20
115.7199
 30
0.0
 10
47.7602
 20
115.7199
 30
0.0
 10
47.7602
 20
115.7199
 30
0.0
 10
47.7602
 20
115.7199
 30
0.0
 10
47.7453
 20
121.3464
 30
0.0
 10
47.7453
 20
121.3464
 30
0.0
  0
ENDSEC
  0
SECTION
  2
OBJECTS
  0
DICTIONARY
  5
C
330
0
100
AcDbDictionary
281
     1
  3
ACAD_GROUP
350
D
  3
ACAD_LAYOUT
350
1A
  3
ACAD_MATERIAL
350
3B
  3
ACAD_MLEADERSTYLE
350
136
  3
ACAD_MLINESTYLE
350
17
  3
ACAD_PLOTSETTINGS
350
19
  3
ACAD_PLOTSTYLENAME
350
E
  3
ACAD_TABLESTYLE
350
135
  3
ACAD_VISUALSTYLE
350
2A
  0
DICTIONARY
  5
D
102
{ACAD_REACTORS
330
C
102
}
330
C
100
AcDbDictionary
281
     1
  0
DICTIONARY
  5
1A
102
{ACAD_REACTORS
330
C
102
}
330
C
100
AcDbDictionary
281
     1
  3
Layout1
350
1E
  3
Layout2
350
26
  3
Model
350
22
  0
DICTIONARY
  5
3B
102
{ACAD_REACTORS
330
C
102
}
330
C
100
AcDbDictionary
281
     1
  3
ByBlock
350
3D
  3
ByLayer
350
3C
  3
Global
350
3E
  0
DICTIONARY
  5
136
102
{ACAD_REACTORS
330
C
102
}
330
C
100
AcDbDictionary
281
     1
  0
DICTIONARY
  5
17
102
{ACAD_REACTORS
330
C
102
}
330
C
100
AcDbDictionary
281
     1
  3
Standard
350
18
  0
DICTIONARY
  5
19
102
{ACAD_REACTORS
330
C
102
}
330
C
100
AcDbDictionary
281
     1
  0
ACDBDICTIONARYWDFLT
  5
E
102
{ACAD_REACTORS
330
C
102
}
330
C
100
AcDbDictionary
281
     1
  3
Normal
350
F
100
AcDbDictionaryWithDefault
340
F
  0
DICTIONARY
  5
135
102
{ACAD_REACTORS
330
C
102
}
330
C
100
AcDbDictionary
281
     1
  0
DICTIONARY
  5
2A
102
{ACAD_REACTORS
330
C
102
}
330
C
100
AcDbDictionary
281
     1
  3
2dWireframe
350
2F
  3
3D Hidden
350
31
  3
3dWireframe
350
30
  3
Basic
350
32
  3
Brighten
350
36
  3
ColorChange
350
3A
  3
Conceptual
350
34
  3
Dim
350
35
  3
Facepattern
350
39
  3
Flat
350
2B
  3
FlatWithEdges
350
2C
  3
Gouraud
350
2D
  3
GouraudWithEdges
350
2E
  3
Linepattern
350
38
  3
Realistic
350
33
  3
Thicken
350
37
  0
LAYOUT
  5
1E
102
{ACAD_REACTORS
330
1A
102
}
330
1A
100
AcDbPlotSettings
  1

  2
none_device
  4

  6

 40
0.0
 41
0.0
 42
0.0
 43
0.0
 44
0.0
 45
0.0
 46
0.0
 47
0.0
 48
0.0
 49
0.0
140
0.0
141
0.0
142
1.0
143
1.0
 70
   688
 72
     0
 73
     0
 74
     5
  7

 75
    16
 76
     0
 77
     2
 78
   300
147
1.0
148
0.0
149
0.0
100
AcDbLayout
  1
Layout1
 70
     1
 71
     1
 10
0.0
 20
0.0
 11
12.0
 21
9.0
 12
0.0
 22
0.0
 32
0.0
 14
1.000000000000000E+20
 24
1.000000000000000E+20
 34
1.000000000000000E+20
 15
-1.000000000000000E+20
 25
-1.000000000000000E+20
 35
-1.000000000000000E+20
146
0.0
 13
0.0
 23
0.0
 33
0.0
 16
1.0
 26
0.0
 36
0.0
 17
0.0
 27
1.0
 37
0.0
 76
     0
330
1B
  0
LAYOUT
  5
26
102
{ACAD_REACTORS
330
1A
102
}
330
1A
100
AcDbPlotSettings
  1

  2
none_device
  4

  6

 40
0.0
 41
0.0
 42
0.0
 43
0.0
 44
0.0
 45
0.0
 46
0.0
 47
0.0
 48
0.0
 49
0.0
140
0.0
141
0.0
142
1.0
143
1.0
 70
   688
 72
     0
 73
     0
 74
     5
  7

 75
    16
 76
     0
 77
     2
 78
   300
147
1.0
148
0.0
149
0.0
100
AcDbLayout
  1
Layout2
 70
     1
 71
     2
 10
0.0
 20
0.0
 11
0.0
 21
0.0
 12
0.0
 22
0.0
 32
0.0
 14
0.0
 24
0.0
 34
0.0
 15
0.0
 25
0.0
 35
0.0
146
0.0
 13
0.0
 23
0.0
 33
0.0
 16
1.0
 26
0.0
 36
0.0
 17
0.0
 27
1.0
 37
0.0
 76
     0
330
23
  0
LAYOUT
  5
22
102
{ACAD_REACTORS
330
1A
102
}
330
1A
100
AcDbPlotSettings
  1

  2
none_device
  4

  6

 40
0.0
 41
0.0
 42
0.0
 43
0.0
 44
0.0
 45
0.0
 46
0.0
 47
0.0
 48
0.0
 49
0.0
140
0.0
141
0.0
142
1.0
143
1.0
 70
  1712
 72
     0
 73
     0
 74
     0
  7

 75
     0
 76
     0
 77
     2
 78
   300
147
1.0
148
0.0
149
0.0
100
AcDbLayout
  1
Model
 70
     1
 71
     0
 10
0.0
 20
0.0
 11
12.0
 21
9.0
 12
0.0
 22
0.0
 32
0.0
 14
41.075
 24
-115.0462
 34
0.0
 15
196.362
 25
131.8105
 35
0.0
146
0.0
 13
0.0
 23
0.0
 33
0.0
 16
1.0
 26
0.0
 36
0.0
 17
0.0
 27
1.0
 37
0.0
 76
     0
330
1F
331
29
  0
MATERIAL
  5
3D
102
{ACAD_REACTORS
330
3B
102
}
330
3B
100
AcDbMaterial
  1
ByBlock
 72
     1
 94
      127
  0
MATERIAL
  5
3C
102
{ACAD_REACTORS
330
3B
102
}
330
3B
100
AcDbMaterial
  1
ByLayer
 72
     1
 94
      127
  0
MATERIAL
  5
3E
102
{ACAD_REACTORS
330
3B
102
}
330
3B
100
AcDbMaterial
  1
Global
 72
     1
 94
      127
  0
MLINESTYLE
  5
18
102
{ACAD_REACTORS
330
17
102
}
330
17
100
AcDbMlineStyle
  2
Standard
 70
     0
  3

 62
   256
 51
90.0
 52
90.0
 71
     2
 49
0.5
 62
   256
  6
BYLAYER
 49
-0.5
 62
   256
  6
BYLAYER
  0
ACDBPLACEHOLDER
  5
F
102
{ACAD_REACTORS
330
E
102
}
330
E
  0
VISUALSTYLE
  5
2F
102
{ACAD_REACTORS
330
2A
102
}
102
{ACAD_XDICTIONARY
360
11D
102
}
330
2A
100
AcDbVisualStyle
  2
2dWireframe
 70
     4
 71
     0
 72
     2
 73
     0
 90
        0
 40
-0.6
 41
-30.0
 62
     5
 63
     7
421
 16777215
 74
     1
 91
        4
 64
     7
 65
   257
 75
     1
175
     1
 42
1.0
 92
        0
 66
   257
 43
1.0
 76
     1
 77
     6
 78
     2
 67
     7
 79
     5
170
     0
171
     0
290
     0
174
     0
 93
        1
 44
0.0
173
     0
291
     0
 45
0.0
  0
VISUALSTYLE
  5
31
102
{ACAD_REACTORS
330
2A
102
}
102
{ACAD_XDICTIONARY
360
121
102
}
330
2A
100
AcDbVisualStyle
  2
3D Hidden
 70
     6
 71
     1
 72
     2
 73
     2
 90
        0
 40
-0.6
 41
-30.0
 62
     5
 63
     7
421
 16777215
 74
     2
 91
        2
 64
     7
 65
   257
 75
     2
175
     1
 42
40.0
 92
        0
 66
   257
 43
1.0
 76
     1
 77
     6
 78
     2
 67
     7
 79
     3
170
     0
171
     0
290
     0
174
     0
 93
        1
 44
0.0
173
     0
291
     0
 45
0.0
  0
VISUALSTYLE
  5
30
102
{ACAD_REACTORS
330
2A
102
}
102
{ACAD_XDICTIONARY
360
11F
102
}
330
2A
100
AcDbVisualStyle
  2
3dWireframe
 70
     5
 71
     0
 72
     2
 73
     0
 90
        0
 40
-0.6
 41
-30.0
 62
     5
 63
     7
421
 16777215
 74
     1
 91
        4
 64
     7
 65
   257
 75
     1
175
     1
 42
1.0
 92
        0
 66
   257
 43
1.0
 76
     1
 77
     6
 78
     2
 67
     7
 79
     5
170
     0
171
     0
290
     0
174
     0
 93
        1
 44
0.0
173
     0
291
     0
 45
0.0
  0
VISUALSTYLE
  5
32
102
{ACAD_REACTORS
330
2A
102
}
102
{ACAD_XDICTIONARY
360
123
102
}
330
2A
100
AcDbVisualStyle
  2
Basic
 70
     7
 71
     1
 72
     0
 73
     1
 90
        0
 40
-0.6
 41
-30.0
 62
     5
 63
     7
421
 16777215
 74
     0
 91
        4
 64
     7
 65
   257
 75
     1
175
     1
 42
1.0
 92
        8
 66
     7
 43
1.0
 76
     1
 77
     6
 78
     2
 67
     7
 79
     5
170
     0
171
     0
290
     0
174
     0
 93
        1
 44
0.0
173
     0
291
     1
 45
0.0
  0
VISUALSTYLE
  5
36
102
{ACAD_REACTORS
330
2A
102
}
102
{ACAD_XDICTIONARY
360
12B
102
}
330
2A
100
AcDbVisualStyle
  2
Brighten
 70
    12
 71
     2
 72
     2
 73
     0
 90
        0
 40
-0.6
 41
-30.0
 62
     5
 63
     7
421
 16777215
 74
     1
 91
        4
 64
     7
 65
   257
 75
     1
175
     1
 42
1.0
 92
        8
 66
     7
 43
1.0
 76
     1
 77
     6
 78
     2
 67
     7
 79
     5
170
     0
171
     0
290
     0
174
     0
 93
        1
 44
50.0
173
     0
291
     1
 45
0.0
  0
VISUALSTYLE
  5
3A
102
{ACAD_REACTORS
330
2A
102
}
102
{ACAD_XDICTIONARY
360
133
102
}
330
2A
100
AcDbVisualStyle
  2
ColorChange
 70
    16
 71
     2
 72
     2
 73
     3
 90
        0
 40
-0.6
 41
-30.0
 62
     5
 63
     8
421
  8421504
 74
     1
 91
        4
 64
     7
 65
   257
 75
     1
175
     1
 42
1.0
 92
        8
 66
     8
424
  8421504
 43
1.0
 76
     1
 77
     6
 78
     2
 67
     7
 79
     5
170
     0
171
     0
290
     0
174
     0
 93
        1
 44
0.0
173
     0
291
     1
 45
0.0
  0
VISUALSTYLE
  5
34
102
{ACAD_REACTORS
330
2A
102
}
102
{ACAD_XDICTIONARY
360
127
102
}
330
2A
100
AcDbVisualStyle
  2
Conceptual
 70
     9
 71
     3
 72
     2
 73
     0
 90
        0
 40
-0.6
 41
-30.0
 62
     5
 63
     7
421
 16777215
 74
     2
 91
        2
 64
     7
 65
   257
 75
     1
175
     1
 42
40.0
 92
        8
 66
     7
 43
1.0
 76
     1
 77
     6
 78
     2
 67
     7
 79
     3
170
     0
171
     0
290
     0
174
     0
 93
        1
 44
0.0
173
     0
291
     0
 45
0.0
  0
VISUALSTYLE
  5
35
102
{ACAD_REACTORS
330
2A
102
}
102
{ACAD_XDICTIONARY
360
129
102
}
330
2A
100
AcDbVisualStyle
  2
Dim
 70
    11
 71
     2
 72
     2
 73
     0
 90
        0
 40
-0.6
 41
-30.0
 62
     5
 63
     7
421
 16777215
 74
     1
 91
        4
 64
     7
 65
   257
 75
     1
175
     1
 42
1.0
 92
        8
 66
     7
 43
1.0
 76
     1
 77
     6
 78
     2
 67
     7
 79
     5
170
     0
171
     0
290
     0
174
     0
 93
        1
 44
-50.0
173
     0
291
     1
 45
0.0
  0
VISUALSTYLE
  5
39
102
{ACAD_REACTORS
330
2A
102
}
102
{ACAD_XDICTIONARY
360
131
102
}
330
2A
100
AcDbVisualStyle
  2
Facepattern
 70
    15
 71
     2
 72
     2
 73
     0
 90
        0
 40
-0.6
 41
-30.0
 62
     5
 63
     7
421
 16777215
 74
     1
 91
        4
 64
     7
 65
   257
 75
     1
175
     1
 42
1.0
 92
        8
 66
     7
 43
1.0
 76
     1
 77
     6
 78
     2
 67
     7
 79
     5
170
     0
171
     0
290
     0
174
     0
 93
        1
 44
0.0
173
     0
291
     1
 45
0.0
  0
VISUALSTYLE
  5
2B
102
{ACAD_REACTORS
330
2A
102
}
102
{ACAD_XDICTIONARY
360
115
102
}
330
2A
100
AcDbVisualStyle
  2
Flat
 70
     0
 71
     2
 72
     1
 73
     1
 90
        2
 40
-0.6
 41
30.0
 62
     5
 63
     7
421
 16777215
 74
     0
 91
        4
 64
     7
 65
   257
 75
     1
175
     1
 42
1.0
 92
        8
 66
     7
 43
1.0
 76
     1
 77
     6
 78
     2
 67
     7
 79
     5
170
     0
171
     0
290
     0
174
     0
 93
       13
 44
0.0
173
     0
291
     1
 45
0.0
  0
VISUALSTYLE
  5
2C
102
{ACAD_REACTORS
330
2A
102
}
102
{ACAD_XDICTIONARY
360
117
102
}
330
2A
100
AcDbVisualStyle
  2
FlatWithEdges
 70
     1
 71
     2
 72
     1
 73
     1
 90
        2
 40
-0.6
 41
30.0
 62
     5
 63
     7
421
 16777215
 74
     1
 91
        4
 64
     7
 65
   257
 75
     1
175
     1
 42
1.0
 92
        0
 66
   257
 43
1.0
 76
     1
 77
     6
 78
     2
 67
     7
 79
     5
170
     0
171
     0
290
     0
174
     0
 93
       13
 44
0.0
173
     0
291
     1
 45
0.0
  0
VISUALSTYLE
  5
2D
102
{ACAD_REACTORS
330
2A
102
}
102
{ACAD_XDICTIONARY
360
119
102
}
330
2A
100
AcDbVisualStyle
  2
Gouraud
 70
     2
 71
     2
 72
     2
 73
     1
 90
        2
 40
-0.6
 41
30.0
 62
     5
 63
     7
421
 16777215
 74
     0
 91
        4
 64
     7
 65
   257
 75
     1
175
     1
 42
1.0
 92
        0
 66
     7
 43
1.0
 76
     1
 77
     6
 78
     2
 67
     7
 79
     5
170
     0
171
     0
290
     0
174
     0
 93
       13
 44
0.0
173
     0
291
     1
 45
0.0
  0
VISUALSTYLE
  5
2E
102
{ACAD_REACTORS
330
2A
102
}
102
{ACAD_XDICTIONARY
360
11B
102
}
330
2A
100
AcDbVisualStyle
  2
GouraudWithEdges
 70
     3
 71
     2
 72
     2
 73
     1
 90
        2
 40
-0.6
 41
30.0
 62
     5
 63
     7
421
 16777215
 74
     1
 91
        4
 64
     7
 65
   257
 75
     1
175
     1
 42
1.0
 92
        0
 66
   257
 43
1.0
 76
     1
 77
     6
 78
     2
 67
     7
 79
     5
170
     0
171
     0
290
     0
174
     0
 93
       13
 44
0.0
173
     0
291
     1
 45
0.0
  0
VISUALSTYLE
  5
38
102
{ACAD_REACTORS
330
2A
102
}
102
{ACAD_XDICTIONARY
360
12F
102
}
330
2A
100
AcDbVisualStyle
  2
Linepattern
 70
    14
 71
     2
 72
     2
 73
     0
 90
        0
 40
-0.6
 41
-30.0
 62
     5
 63
     7
421
 16777215
 74
     1
 91
        4
 64
     7
 65
   257
 75
     7
175
     7
 42
1.0
 92
        8
 66
     7
 43
1.0
 76
     1
 77
     6
 78
     2
 67
     7
 79
     5
170
     0
171
     0
290
     0
174
     0
 93
        1
 44
0.0
173
     0
291
     1
 45
0.0
  0
VISUALSTYLE
  5
33
102
{ACAD_REACTORS
330
2A
102
}
102
{ACAD_XDICTIONARY
360
125
102
}
330
2A
100
AcDbVisualStyle
  2
Realistic
 70
     8
 71
     2
 72
     2
 73
     0
 90
        0
 40
-0.6
 41
-30.0
 62
     5
 63
     7
421
 16777215
 74
     1
 91
        0
 64
     7
 65
   257
 75
     1
175
     1
 42
1.0
 92
        8
 66
     8
424
  7895160
 43
1.0
 76
     1
 77
     6
 78
     2
 67
     7
 79
     5
170
     0
171
     0
290
     0
174
     0
 93
       13
 44
0.0
173
     0
291
     0
 45
0.0
  0
VISUALSTYLE
  5
37
102
{ACAD_REACTORS
330
2A
102
}
102
{ACAD_XDICTIONARY
360
12D
102
}
330
2A
100
AcDbVisualStyle
  2
Thicken
 70
    13
 71
     2
 72
     2
 73
     0
 90
        0
 40
-0.6
 41
-30.0
 62
     5
 63
     7
421
 16777215
 74
     1
 91
        4
 64
     7
 65
   257
 75
     1
175
     1
 42
1.0
 92
       12
 66
     7
 43
1.0
 76
     1
 77
     6
 78
     2
 67
     7
 79
     5
170
     0
171
     0
290
     0
174
     0
 93
        1
 44
0.0
173
     0
291
     1
 45
0.0
  0
DICTIONARY
  5
11D
330
2F
100
AcDbDictionary
280
     1
281
     1
  3
ACAD_XREC_ROUNDTRIP
360
11E
  0
DICTIONARY
  5
121
330
31
100
AcDbDictionary
280
     1
281
     1
  3
ACAD_XREC_ROUNDTRIP
360
122
  0
DICTIONARY
  5
11F
330
30
100
AcDbDictionary
280
     1
281
     1
  3
ACAD_XREC_ROUNDTRIP
360
120
  0
DICTIONARY
  5
123
330
32
100
AcDbDictionary
280
     1
281
     1
  3
ACAD_XREC_ROUNDTRIP
360
124
  0
DICTIONARY
  5
12B
330
36
100
AcDbDictionary
280
     1
281
     1
  3
ACAD_XREC_ROUNDTRIP
360
12C
  0
DICTIONARY
  5
133
330
3A
100
AcDbDictionary
280
     1
281
     1
  3
ACAD_XREC_ROUNDTRIP
360
134
  0
DICTIONARY
  5
127
330
34
100
AcDbDictionary
280
     1
281
     1
  3
ACAD_XREC_ROUNDTRIP
360
128
  0
DICTIONARY
  5
129
330
35
100
AcDbDictionary
280
     1
281
     1
  3
ACAD_XREC_ROUNDTRIP
360
12A
  0
DICTIONARY
  5
131
330
39
100
AcDbDictionary
280
     1
281
     1
  3
ACAD_XREC_ROUNDTRIP
360
132
  0
DICTIONARY
  5
115
330
2B
100
AcDbDictionary
280
     1
281
     1
  3
ACAD_XREC_ROUNDTRIP
360
116
  0
DICTIONARY
  5
117
330
2C
100
AcDbDictionary
280
     1
281
     1
  3
ACAD_XREC_ROUNDTRIP
360
118
  0
DICTIONARY
  5
119
330
2D
100
AcDbDictionary
280
     1
281
     1
  3
ACAD_XREC_ROUNDTRIP
360
11A
  0
DICTIONARY
  5
11B
330
2E
100
AcDbDictionary
280
     1
281
     1
  3
ACAD_XREC_ROUNDTRIP
360
11C
  0
DICTIONARY
  5
12F
330
38
100
AcDbDictionary
280
     1
281
     1
  3
ACAD_XREC_ROUNDTRIP
360
130
  0
DICTIONARY
  5
125
330
33
100
AcDbDictionary
280
     1
281
     1
  3
ACAD_XREC_ROUNDTRIP
360
126
  0
DICTIONARY
  5
12D
330
37
100
AcDbDictionary
280
     1
281
     1
  3
ACAD_XREC_ROUNDTRIP
360
12E
  0
XRECORD
  5
11E
102
{ACAD_REACTORS
330
11D
102
}
330
11D
100
AcDbXrecord
280
     1
102
RTVSPropertyOp0
 70
     1
102
RTVSPropertyOp1
 70
     1
102
RTVSPropertyOp2
 70
     1
102
RTVSPropertyOp3
 70
     1
102
RTVSPropertyOp4
 70
     1
102
RTVSPropertyOp5
 70
     1
102
RTVSPropertyOp6
 70
     1
102
RTVSPropertyOp7
 70
     1
102
RTVSPropertyOp8
 70
     1
102
RTVSPropertyOp9
 70
     1
102
RTVSPropertyOp10
 70
     1
102
RTVSPropertyOp11
 70
     1
102
RTVSPropertyOp12
 70
     1
102
RTVSPropertyOp13
 70
     1
102
RTVSPropertyOp14
 70
     1
102
RTVSPropertyOp15
 70
     1
102
RTVSPropertyOp16
 70
     1
102
RTVSPropertyOp17
 70
     1
102
RTVSPropertyOp18
 70
     1
102
RTVSPropertyOp19
 70
     1
102
RTVSPropertyOp20
 70
     1
102
RTVSPropertyOp21
 70
     1
102
RTVSPropertyOp22
 70
     1
102
RTVSPropertyOp23
 70
     1
102
RTVSPropertyOp24
 70
     1
102
RTVSPropertyOp25
 70
     1
102
RTVSPropertyOp26
 70
     1
102
RTVSPropertyOp27
 70
     1
102
RTVSPropertyOp28
 70
     1
102
RTVSPropertyOp29
 70
     1
102
RTVSPropertyOp30
 70
     1
102
RTVSPropertyOp31
 70
     1
102
RTVSPropertyOp32
 70
     1
  0
XRECORD
  5
122
102
{ACAD_REACTORS
330
121
102
}
330
121
100
AcDbXrecord
280
     1
102
RTVSPropertyOp0
 70
     1
102
RTVSPropertyOp1
 70
     1
102
RTVSPropertyOp2
 70
     1
102
RTVSPropertyOp3
 70
     1
102
RTVSPropertyOp4
 70
     1
102
RTVSPropertyOp5
 70
     1
102
RTVSPropertyOp6
 70
     1
102
RTVSPropertyOp7
 70
     1
102
RTVSPropertyOp8
 70
     1
102
RTVSPropertyOp9
 70
     1
102
RTVSPropertyOp10
 70
     1
102
RTVSPropertyOp11
 70
     1
102
RTVSPropertyOp12
 70
     1
102
RTVSPropertyOp13
 70
     1
102
RTVSPropertyOp14
 70
     1
102
RTVSPropertyOp15
 70
     1
102
RTVSPropertyOp16
 70
     1
102
RTVSPropertyOp17
 70
     1
102
RTVSPropertyOp18
 70
     1
102
RTVSPropertyOp19
 70
     1
102
RTVSPropertyOp20
 70
     1
102
RTVSPropertyOp21
 70
     1
102
RTVSPropertyOp22
 70
     1
102
RTVSPropertyOp23
 70
     1
102
RTVSPropertyOp24
 70
     1
102
RTVSPropertyOp25
 70
     1
102
RTVSPropertyOp26
 70
     1
102
RTVSPropertyOp27
 70
     1
102
RTVSPropertyOp28
 70
     1
102
RTVSPropertyOp29
 70
     1
102
RTVSPropertyOp30
 70
     1
102
RTVSPropertyOp31
 70
     1
102
RTVSPropertyOp32
 70
     1
  0
XRECORD
  5
120
102
{ACAD_REACTORS
330
11F
102
}
330
11F
100
AcDbXrecord
280
     1
102
RTVSPropertyOp0
 70
     1
102
RTVSPropertyOp1
 70
     1
102
RTVSPropertyOp2
 70
     1
102
RTVSPropertyOp3
 70
     1
102
RTVSPropertyOp4
 70
     1
102
RTVSPropertyOp5
 70
     1
102
RTVSPropertyOp6
 70
     1
102
RTVSPropertyOp7
 70
     1
102
RTVSPropertyOp8
 70
     1
102
RTVSPropertyOp9
 70
     1
102
RTVSPropertyOp10
 70
     1
102
RTVSPropertyOp11
 70
     1
102
RTVSPropertyOp12
 70
     1
102
RTVSPropertyOp13
 70
     1
102
RTVSPropertyOp14
 70
     1
102
RTVSPropertyOp15
 70
     1
102
RTVSPropertyOp16
 70
     1
102
RTVSPropertyOp17
 70
     1
102
RTVSPropertyOp18
 70
     1
102
RTVSPropertyOp19
 70
     1
102
RTVSPropertyOp20
 70
     1
102
RTVSPropertyOp21
 70
     1
102
RTVSPropertyOp22
 70
     1
102
RTVSPropertyOp23
 70
     1
102
RTVSPropertyOp24
 70
     1
102
RTVSPropertyOp25
 70
     1
102
RTVSPropertyOp26
 70
     1
102
RTVSPropertyOp27
 70
     1
102
RTVSPropertyOp28
 70
     1
102
RTVSPropertyOp29
 70
     1
102
RTVSPropertyOp30
 70
     1
102
RTVSPropertyOp31
 70
     1
102
RTVSPropertyOp32
 70
     1
  0
XRECORD
  5
124
102
{ACAD_REACTORS
330
123
102
}
330
123
100
AcDbXrecord
280
     1
102
RTVSPropertyOp0
 70
     1
102
RTVSPropertyOp1
 70
     1
102
RTVSPropertyOp2
 70
     1
102
RTVSPropertyOp3
 70
     1
102
RTVSPropertyOp4
 70
     1
102
RTVSPropertyOp5
 70
     1
102
RTVSPropertyOp6
 70
     1
102
RTVSPropertyOp7
 70
     1
102
RTVSPropertyOp8
 70
     1
102
RTVSPropertyOp9
 70
     1
102
RTVSPropertyOp10
 70
     1
102
RTVSPropertyOp11
 70
     1
102
RTVSPropertyOp12
 70
     1
102
RTVSPropertyOp13
 70
     1
102
RTVSPropertyOp14
 70
     1
102
RTVSPropertyOp15
 70
     1
102
RTVSPropertyOp16
 70
     1
102
RTVSPropertyOp17
 70
     1
102
RTVSPropertyOp18
 70
     1
102
RTVSPropertyOp19
 70
     1
102
RTVSPropertyOp20
 70
     1
102
RTVSPropertyOp21
 70
     1
102
RTVSPropertyOp22
 70
     1
102
RTVSPropertyOp23
 70
     1
102
RTVSPropertyOp24
 70
     1
102
RTVSPropertyOp25
 70
     1
102
RTVSPropertyOp26
 70
     1
102
RTVSPropertyOp27
 70
     1
102
RTVSPropertyOp28
 70
     1
102
RTVSPropertyOp29
 70
     1
102
RTVSPropertyOp30
 70
     1
102
RTVSPropertyOp31
 70
     1
102
RTVSPropertyOp32
 70
     1
  0
XRECORD
  5
12C
102
{ACAD_REACTORS
330
12B
102
}
330
12B
100
AcDbXrecord
280
     1
102
RTVSPropertyOp0
 70
     1
102
RTVSPropertyOp1
 70
     1
102
RTVSPropertyOp2
 70
     1
102
RTVSPropertyOp3
 70
     1
102
RTVSPropertyOp4
 70
     1
102
RTVSPropertyOp5
 70
     1
102
RTVSPropertyOp6
 70
     1
102
RTVSPropertyOp7
 70
     1
102
RTVSPropertyOp8
 70
     1
102
RTVSPropertyOp9
 70
     1
102
RTVSPropertyOp10
 70
     1
102
RTVSPropertyOp11
 70
     1
102
RTVSPropertyOp12
 70
     1
102
RTVSPropertyOp13
 70
     1
102
RTVSPropertyOp14
 70
     1
102
RTVSPropertyOp15
 70
     1
102
RTVSPropertyOp16
 70
     1
102
RTVSPropertyOp17
 70
     1
102
RTVSPropertyOp18
 70
     1
102
RTVSPropertyOp19
 70
     1
102
RTVSPropertyOp20
 70
     1
102
RTVSPropertyOp21
 70
     1
102
RTVSPropertyOp22
 70
     1
102
RTVSPropertyOp23
 70
     1
102
RTVSPropertyOp24
 70
     1
102
RTVSPropertyOp25
 70
     1
102
RTVSPropertyOp26
 70
     1
102
RTVSPropertyOp27
 70
     1
102
RTVSPropertyOp28
 70
     1
102
RTVSPropertyOp29
 70
     1
102
RTVSPropertyOp30
 70
     1
102
RTVSPropertyOp31
 70
     1
102
RTVSPropertyOp32
 70
     1
  0
XRECORD
  5
134
102
{ACAD_REACTORS
330
133
102
}
330
133
100
AcDbXrecord
280
     1
102
RTVSPropertyOp0
 70
     1
102
RTVSPropertyOp1
 70
     1
102
RTVSPropertyOp2
 70
     1
102
RTVSPropertyOp3
 70
     1
102
RTVSPropertyOp4
 70
     1
102
RTVSPropertyOp5
 70
     1
102
RTVSPropertyOp6
 70
     1
102
RTVSPropertyOp7
 70
     1
102
RTVSPropertyOp8
 70
     1
102
RTVSPropertyOp9
 70
     1
102
RTVSPropertyOp10
 70
     1
102
RTVSPropertyOp11
 70
     1
102
RTVSPropertyOp12
 70
     1
102
RTVSPropertyOp13
 70
     1
102
RTVSPropertyOp14
 70
     1
102
RTVSPropertyOp15
 70
     1
102
RTVSPropertyOp16
 70
     1
102
RTVSPropertyOp17
 70
     1
102
RTVSPropertyOp18
 70
     1
102
RTVSPropertyOp19
 70
     1
102
RTVSPropertyOp20
 70
     1
102
RTVSPropertyOp21
 70
     1
102
RTVSPropertyOp22
 70
     1
102
RTVSPropertyOp23
 70
     1
102
RTVSPropertyOp24
 70
     1
102
RTVSPropertyOp25
 70
     1
102
RTVSPropertyOp26
 70
     1
102
RTVSPropertyOp27
 70
     1
102
RTVSPropertyOp28
 70
     1
102
RTVSPropertyOp29
 70
     1
102
RTVSPropertyOp30
 70
     1
102
RTVSPropertyOp31
 70
     1
102
RTVSPropertyOp32
 70
     1
  0
XRECORD
  5
128
102
{ACAD_REACTORS
330
127
102
}
330
127
100
AcDbXrecord
280
     1
102
RTVSPropertyOp0
 70
     1
102
RTVSPropertyOp1
 70
     1
102
RTVSPropertyOp2
 70
     1
102
RTVSPropertyOp3
 70
     1
102
RTVSPropertyOp4
 70
     1
102
RTVSPropertyOp5
 70
     1
102
RTVSPropertyOp6
 70
     1
102
RTVSPropertyOp7
 70
     1
102
RTVSPropertyOp8
 70
     1
102
RTVSPropertyOp9
 70
     1
102
RTVSPropertyOp10
 70
     1
102
RTVSPropertyOp11
 70
     1
102
RTVSPropertyOp12
 70
     1
102
RTVSPropertyOp13
 70
     1
102
RTVSPropertyOp14
 70
     1
102
RTVSPropertyOp15
 70
     1
102
RTVSPropertyOp16
 70
     1
102
RTVSPropertyOp17
 70
     1
102
RTVSPropertyOp18
 70
     1
102
RTVSPropertyOp19
 70
     1
102
RTVSPropertyOp20
 70
     1
102
RTVSPropertyOp21
 70
     1
102
RTVSPropertyOp22
 70
     1
102
RTVSPropertyOp23
 70
     1
102
RTVSPropertyOp24
 70
     1
102
RTVSPropertyOp25
 70
     1
102
RTVSPropertyOp26
 70
     1
102
RTVSPropertyOp27
 70
     1
102
RTVSPropertyOp28
 70
     1
102
RTVSPropertyOp29
 70
     1
102
RTVSPropertyOp30
 70
     1
102
RTVSPropertyOp31
 70
     1
102
RTVSPropertyOp32
 70
     1
  0
XRECORD
  5
12A
102
{ACAD_REACTORS
330
129
102
}
330
129
100
AcDbXrecord
280
     1
102
RTVSPropertyOp0
 70
     1
102
RTVSPropertyOp1
 70
     1
102
RTVSPropertyOp2
 70
     1
102
RTVSPropertyOp3
 70
     1
102
RTVSPropertyOp4
 70
     1
102
RTVSPropertyOp5
 70
     1
102
RTVSPropertyOp6
 70
     1
102
RTVSPropertyOp7
 70
     1
102
RTVSPropertyOp8
 70
     1
102
RTVSPropertyOp9
 70
     1
102
RTVSPropertyOp10
 70
     1
102
RTVSPropertyOp11
 70
     1
102
RTVSPropertyOp12
 70
     1
102
RTVSPropertyOp13
 70
     1
102
RTVSPropertyOp14
 70
     1
102
RTVSPropertyOp15
 70
     1
102
RTVSPropertyOp16
 70
     1
102
RTVSPropertyOp17
 70
     1
102
RTVSPropertyOp18
 70
     1
102
RTVSPropertyOp19
 70
     1
102
RTVSPropertyOp20
 70
     1
102
RTVSPropertyOp21
 70
     1
102
RTVSPropertyOp22
 70
     1
102
RTVSPropertyOp23
 70
     1
102
RTVSPropertyOp24
 70
     1
102
RTVSPropertyOp25
 70
     1
102
RTVSPropertyOp26
 70
     1
102
RTVSPropertyOp27
 70
     1
102
RTVSPropertyOp28
 70
     1
102
RTVSPropertyOp29
 70
     1
102
RTVSPropertyOp30
 70
     1
102
RTVSPropertyOp31
 70
     1
102
RTVSPropertyOp32
 70
     1
  0
XRECORD
  5
132
102
{ACAD_REACTORS
330
131
102
}
330
131
100
AcDbXrecord
280
     1
102
RTVSPropertyOp0
 70
     1
102
RTVSPropertyOp1
 70
     1
102
RTVSPropertyOp2
 70
     1
102
RTVSPropertyOp3
 70
     1
102
RTVSPropertyOp4
 70
     1
102
RTVSPropertyOp5
 70
     1
102
RTVSPropertyOp6
 70
     1
102
RTVSPropertyOp7
 70
     1
102
RTVSPropertyOp8
 70
     1
102
RTVSPropertyOp9
 70
     1
102
RTVSPropertyOp10
 70
     1
102
RTVSPropertyOp11
 70
     1
102
RTVSPropertyOp12
 70
     1
102
RTVSPropertyOp13
 70
     1
102
RTVSPropertyOp14
 70
     1
102
RTVSPropertyOp15
 70
     1
102
RTVSPropertyOp16
 70
     1
102
RTVSPropertyOp17
 70
     1
102
RTVSPropertyOp18
 70
     1
102
RTVSPropertyOp19
 70
     1
102
RTVSPropertyOp20
 70
     1
102
RTVSPropertyOp21
 70
     1
102
RTVSPropertyOp22
 70
     1
102
RTVSPropertyOp23
 70
     1
102
RTVSPropertyOp24
 70
     1
102
RTVSPropertyOp25
 70
     1
102
RTVSPropertyOp26
 70
     1
102
RTVSPropertyOp27
 70
     1
102
RTVSPropertyOp28
 70
     1
102
RTVSPropertyOp29
 70
     1
102
RTVSPropertyOp30
 70
     1
102
RTVSPropertyOp31
 70
     1
102
RTVSPropertyOp32
 70
     1
  0
XRECORD
  5
116
102
{ACAD_REACTORS
330
115
102
}
330
115
100
AcDbXrecord
280
     1
102
RTVSPropertyOp0
 70
     1
102
RTVSPropertyOp1
 70
     1
102
RTVSPropertyOp2
 70
     1
102
RTVSPropertyOp3
 70
     1
102
RTVSPropertyOp4
 70
     1
102
RTVSPropertyOp5
 70
     1
102
RTVSPropertyOp6
 70
     1
102
RTVSPropertyOp7
 70
     1
102
RTVSPropertyOp8
 70
     1
102
RTVSPropertyOp9
 70
     1
102
RTVSPropertyOp10
 70
     1
102
RTVSPropertyOp11
 70
     1
102
RTVSPropertyOp12
 70
     1
102
RTVSPropertyOp13
 70
     1
102
RTVSPropertyOp14
 70
     1
102
RTVSPropertyOp15
 70
     1
102
RTVSPropertyOp16
 70
     1
102
RTVSPropertyOp17
 70
     1
102
RTVSPropertyOp18
 70
     1
102
RTVSPropertyOp19
 70
     1
102
RTVSPropertyOp20
 70
     1
102
RTVSPropertyOp21
 70
     1
102
RTVSPropertyOp22
 70
     1
102
RTVSPropertyOp23
 70
     1
102
RTVSPropertyOp24
 70
     1
102
RTVSPropertyOp25
 70
     1
102
RTVSPropertyOp26
 70
     1
102
RTVSPropertyOp27
 70
     1
102
RTVSPropertyOp28
 70
     1
102
RTVSPropertyOp29
 70
     1
102
RTVSPropertyOp30
 70
     1
102
RTVSPropertyOp31
 70
     1
102
RTVSPropertyOp32
 70
     1
  0
XRECORD
  5
118
102
{ACAD_REACTORS
330
117
102
}
330
117
100
AcDbXrecord
280
     1
102
RTVSPropertyOp0
 70
     1
102
RTVSPropertyOp1
 70
     1
102
RTVSPropertyOp2
 70
     1
102
RTVSPropertyOp3
 70
     1
102
RTVSPropertyOp4
 70
     1
102
RTVSPropertyOp5
 70
     1
102
RTVSPropertyOp6
 70
     1
102
RTVSPropertyOp7
 70
     1
102
RTVSPropertyOp8
 70
     1
102
RTVSPropertyOp9
 70
     1
102
RTVSPropertyOp10
 70
     1
102
RTVSPropertyOp11
 70
     1
102
RTVSPropertyOp12
 70
     1
102
RTVSPropertyOp13
 70
     1
102
RTVSPropertyOp14
 70
     1
102
RTVSPropertyOp15
 70
     1
102
RTVSPropertyOp16
 70
     1
102
RTVSPropertyOp17
 70
     1
102
RTVSPropertyOp18
 70
     1
102
RTVSPropertyOp19
 70
     1
102
RTVSPropertyOp20
 70
     1
102
RTVSPropertyOp21
 70
     1
102
RTVSPropertyOp22
 70
     1
102
RTVSPropertyOp23
 70
     1
102
RTVSPropertyOp24
 70
     1
102
RTVSPropertyOp25
 70
     1
102
RTVSPropertyOp26
 70
     1
102
RTVSPropertyOp27
 70
     1
102
RTVSPropertyOp28
 70
     1
102
RTVSPropertyOp29
 70
     1
102
RTVSPropertyOp30
 70
     1
102
RTVSPropertyOp31
 70
     1
102
RTVSPropertyOp32
 70
     1
  0
XRECORD
  5
11A
102
{ACAD_REACTORS
330
119
102
}
330
119
100
AcDbXrecord
280
     1
102
RTVSPropertyOp0
 70
     1
102
RTVSPropertyOp1
 70
     1
102
RTVSPropertyOp2
 70
     1
102
RTVSPropertyOp3
 70
     1
102
RTVSPropertyOp4
 70
     1
102
RTVSPropertyOp5
 70
     1
102
RTVSPropertyOp6
 70
     1
102
RTVSPropertyOp7
 70
     1
102
RTVSPropertyOp8
 70
     1
102
RTVSPropertyOp9
 70
     1
102
RTVSPropertyOp10
 70
     1
102
RTVSPropertyOp11
 70
     1
102
RTVSPropertyOp12
 70
     1
102
RTVSPropertyOp13
 70
     1
102
RTVSPropertyOp14
 70
     1
102
RTVSPropertyOp15
 70
     1
102
RTVSPropertyOp16
 70
     1
102
RTVSPropertyOp17
 70
     1
102
RTVSPropertyOp18
 70
     1
102
RTVSPropertyOp19
 70
     1
102
RTVSPropertyOp20
 70
     1
102
RTVSPropertyOp21
 70
     1
102
RTVSPropertyOp22
 70
     1
102
RTVSPropertyOp23
 70
     1
102
RTVSPropertyOp24
 70
     1
102
RTVSPropertyOp25
 70
     1
102
RTVSPropertyOp26
 70
     1
102
RTVSPropertyOp27
 70
     1
102
RTVSPropertyOp28
 70
     1
102
RTVSPropertyOp29
 70
     1
102
RTVSPropertyOp30
 70
     1
102
RTVSPropertyOp31
 70
     1
102
RTVSPropertyOp32
 70
     1
  0
XRECORD
  5
11C
102
{ACAD_REACTORS
330
11B
102
}
330
11B
100
AcDbXrecord
280
     1
102
RTVSPropertyOp0
 70
     1
102
RTVSPropertyOp1
 70
     1
102
RTVSPropertyOp2
 70
     1
102
RTVSPropertyOp3
 70
     1
102
RTVSPropertyOp4
 70
     1
102
RTVSPropertyOp5
 70
     1
102
RTVSPropertyOp6
 70
     1
102
RTVSPropertyOp7
 70
     1
102
RTVSPropertyOp8
 70
     1
102
RTVSPropertyOp9
 70
     1
102
RTVSPropertyOp10
 70
     1
102
RTVSPropertyOp11
 70
     1
102
RTVSPropertyOp12
 70
     1
102
RTVSPropertyOp13
 70
     1
102
RTVSPropertyOp14
 70
     1
102
RTVSPropertyOp15
 70
     1
102
RTVSPropertyOp16
 70
     1
102
RTVSPropertyOp17
 70
     1
102
RTVSPropertyOp18
 70
     1
102
RTVSPropertyOp19
 70
     1
102
RTVSPropertyOp20
 70
     1
102
RTVSPropertyOp21
 70
     1
102
RTVSPropertyOp22
 70
     1
102
RTVSPropertyOp23
 70
     1
102
RTVSPropertyOp24
 70
     1
102
RTVSPropertyOp25
 70
     1
102
RTVSPropertyOp26
 70
     1
102
RTVSPropertyOp27
 70
     1
102
RTVSPropertyOp28
 70
     1
102
RTVSPropertyOp29
 70
     1
102
RTVSPropertyOp30
 70
     1
102
RTVSPropertyOp31
 70
     1
102
RTVSPropertyOp32
 70
     1
  0
XRECORD
  5
130
102
{ACAD_REACTORS
330
12F
102
}
330
12F
100
AcDbXrecord
280
     1
102
RTVSPropertyOp0
 70
     1
102
RTVSPropertyOp1
 70
     1
102
RTVSPropertyOp2
 70
     1
102
RTVSPropertyOp3
 70
     1
102
RTVSPropertyOp4
 70
     1
102
RTVSPropertyOp5
 70
     1
102
RTVSPropertyOp6
 70
     1
102
RTVSPropertyOp7
 70
     1
102
RTVSPropertyOp8
 70
     1
102
RTVSPropertyOp9
 70
     1
102
RTVSPropertyOp10
 70
     1
102
RTVSPropertyOp11
 70
     1
102
RTVSPropertyOp12
 70
     1
102
RTVSPropertyOp13
 70
     1
102
RTVSPropertyOp14
 70
     1
102
RTVSPropertyOp15
 70
     1
102
RTVSPropertyOp16
 70
     1
102
RTVSPropertyOp17
 70
     1
102
RTVSPropertyOp18
 70
     1
102
RTVSPropertyOp19
 70
     1
102
RTVSPropertyOp20
 70
     1
102
RTVSPropertyOp21
 70
     1
102
RTVSPropertyOp22
 70
     1
102
RTVSPropertyOp23
 70
     1
102
RTVSPropertyOp24
 70
     1
102
RTVSPropertyOp25
 70
     1
102
RTVSPropertyOp26
 70
     1
102
RTVSPropertyOp27
 70
     1
102
RTVSPropertyOp28
 70
     1
102
RTVSPropertyOp29
 70
     1
102
RTVSPropertyOp30
 70
     1
102
RTVSPropertyOp31
 70
     1
102
RTVSPropertyOp32
 70
     1
  0
XRECORD
  5
126
102
{ACAD_REACTORS
330
125
102
}
330
125
100
AcDbXrecord
280
     1
102
RTVSPropertyOp0
 70
     1
102
RTVSPropertyOp1
 70
     1
102
RTVSPropertyOp2
 70
     1
102
RTVSPropertyOp3
 70
     1
102
RTVSPropertyOp4
 70
     1
102
RTVSPropertyOp5
 70
     1
102
RTVSPropertyOp6
 70
     1
102
RTVSPropertyOp7
 70
     1
102
RTVSPropertyOp8
 70
     1
102
RTVSPropertyOp9
 70
     1
102
RTVSPropertyOp10
 70
     1
102
RTVSPropertyOp11
 70
     1
102
RTVSPropertyOp12
 70
     1
102
RTVSPropertyOp13
 70
     1
102
RTVSPropertyOp14
 70
     1
102
RTVSPropertyOp15
 70
     1
102
RTVSPropertyOp16
 70
     1
102
RTVSPropertyOp17
 70
     1
102
RTVSPropertyOp18
 70
     1
102
RTVSPropertyOp19
 70
     1
102
RTVSPropertyOp20
 70
     1
102
RTVSPropertyOp21
 70
     1
102
RTVSPropertyOp22
 70
     1
102
RTVSPropertyOp23
 70
     1
102
RTVSPropertyOp24
 70
     1
102
RTVSPropertyOp25
 70
     1
102
RTVSPropertyOp26
 70
     1
102
RTVSPropertyOp27
 70
     1
102
RTVSPropertyOp28
 70
     1
102
RTVSPropertyOp29
 70
     1
102
RTVSPropertyOp30
 70
     1
102
RTVSPropertyOp31
 70
     1
102
RTVSPropertyOp32
 70
     1
  0
XRECORD
  5
12E
102
{ACAD_REACTORS
330
12D
102
}
330
12D
100
AcDbXrecord
280
     1
102
RTVSPropertyOp0
 70
     1
102
RTVSPropertyOp1
 70
     1
102
RTVSPropertyOp2
 70
     1
102
RTVSPropertyOp3
 70
     1
102
RTVSPropertyOp4
 70
     1
102
RTVSPropertyOp5
 70
     1
102
RTVSPropertyOp6
 70
     1
102
RTVSPropertyOp7
 70
     1
102
RTVSPropertyOp8
 70
     1
102
RTVSPropertyOp9
 70
     1
102
RTVSPropertyOp10
 70
     1
102
RTVSPropertyOp11
 70
     1
102
RTVSPropertyOp12
 70
     1
102
RTVSPropertyOp13
 70
     1
102
RTVSPropertyOp14
 70
     1
102
RTVSPropertyOp15
 70
     1
102
RTVSPropertyOp16
 70
     1
102
RTVSPropertyOp17
 70
     1
102
RTVSPropertyOp18
 70
     1
102
RTVSPropertyOp19
 70
     1
102
RTVSPropertyOp20
 70
     1
102
RTVSPropertyOp21
 70
     1
102
RTVSPropertyOp22
 70
     1
102
RTVSPropertyOp23
 70
     1
102
RTVSPropertyOp24
 70
     1
102
RTVSPropertyOp25
 70
     1
102
RTVSPropertyOp26
 70
     1
102
RTVSPropertyOp27
 70
     1
102
RTVSPropertyOp28
 70
     1
102
RTVSPropertyOp29
 70
     1
102
RTVSPropertyOp30
 70
     1
102
RTVSPropertyOp31
 70
     1
102
RTVSPropertyOp32
 70
     1
  0
ENDSEC
  0
EOF
