  0
SECTION
  2
HEADER
  9
$ACADVER
  1
AC1021
  9
$ACADMAINTVER
 70
    25
  9
$DWGCODEPAGE
  3
ANSI_1256
  9
$INSBASE
 10
0.0
 20
0.0
 30
0.0
  9
$EXTMIN
 10
-188.6497
 20
-103.3681
 30
0.0
  9
$EXTMAX
 10
-65.7543
 20
120.2946
 30
0.0
  9
$LIMMIN
 10
0.0
 20
0.0
  9
$LIMMAX
 10
12.0
 20
9.0
  9
$ORTHOMODE
 70
     0
  9
$REGENMODE
 70
     1
  9
$FILLMODE
 70
     1
  9
$QTEXTMODE
 70
     0
  9
$MIRRTEXT
 70
     1
  9
$LTSCALE
 40
1.0
  9
$ATTMODE
 70
     1
  9
$TEXTSIZE
 40
0.2
  9
$TRACEWID
 40
0.05
  9
$TEXTSTYLE
  7
Standard
  9
$CLAYER
  8
0
  9
$CELTYPE
  6
ByLayer
  9
$CECOLOR
 62
   256
  9
$CELTSCALE
 40
1.0
  9
$DISPSILH
 70
     0
  9
$DIMSCALE
 40
1.0
  9
$DIMASZ
 40
0.18
  9
$DIMEXO
 40
0.0625
  9
$DIMDLI
 40
0.38
  9
$DIMRND
 40
0.0
  9
$DIMDLE
 40
0.0
  9
$DIMEXE
 40
0.18
  9
$DIMTP
 40
0.0
  9
$DIMTM
 40
0.0
  9
$DIMTXT
 40
0.18
  9
$DIMCEN
 40
0.09
  9
$DIMTSZ
 40
0.0
  9
$DIMTOL
 70
     0
  9
$DIMLIM
 70
     0
  9
$DIMTIH
 70
     1
  9
$DIMTOH
 70
     1
  9
$DIMSE1
 70
     0
  9
$DIMSE2
 70
     0
  9
$DIMTAD
 70
     0
  9
$DIMZIN
 70
     0
  9
$DIMBLK
  1

  9
$DIMASO
 70
     1
  9
$DIMSHO
 70
     1
  9
$DIMPOST
  1

  9
$DIMAPOST
  1

  9
$DIMALT
 70
     0
  9
$DIMALTD
 70
     2
  9
$DIMALTF
 40
25.4
  9
$DIMLFAC
 40
1.0
  9
$DIMTOFL
 70
     0
  9
$DIMTVP
 40
0.0
  9
$DIMTIX
 70
     0
  9
$DIMSOXD
 70
     0
  9
$DIMSAH
 70
     0
  9
$DIMBLK1
  1

  9
$DIMBLK2
  1

  9
$DIMSTYLE
  2
Standard
  9
$DIMCLRD
 70
     0
  9
$DIMCLRE
 70
     0
  9
$DIMCLRT
 70
     0
  9
$DIMTFAC
 40
1.0
  9
$DIMGAP
 40
0.09
  9
$DIMJUST
 70
     0
  9
$DIMSD1
 70
     0
  9
$DIMSD2
 70
     0
  9
$DIMTOLJ
 70
     1
  9
$DIMTZIN
 70
     0
  9
$DIMALTZ
 70
     0
  9
$DIMALTTZ
 70
     0
  9
$DIMUPT
 70
     0
  9
$DIMDEC
 70
     4
  9
$DIMTDEC
 70
     4
  9
$DIMALTU
 70
     2
  9
$DIMALTTD
 70
     2
  9
$DIMTXSTY
  7
Standard
  9
$DIMAUNIT
 70
     0
  9
$DIMADEC
 70
     0
  9
$DIMALTRND
 40
0.0
  9
$DIMAZIN
 70
     0
  9
$DIMDSEP
 70
    46
  9
$DIMATFIT
 70
     3
  9
$DIMFRAC
 70
     0
  9
$DIMLDRBLK
  1

  9
$DIMLUNIT
 70
     2
  9
$DIMLWD
 70
    -2
  9
$DIMLWE
 70
    -2
  9
$DIMTMOVE
 70
     0
  9
$DIMFXL
 40
1.0
  9
$DIMFXLON
 70
     0
  9
$DIMJOGANG
 40
0.7853981633974483
  9
$DIMTFILL
 70
     0
  9
$DIMTFILLCLR
 70
     0
  9
$DIMARCSYM
 70
     0
  9
$DIMLTYPE
  6

  9
$DIMLTEX1
  6

  9
$DIMLTEX2
  6

  9
$LUNITS
 70
     2
  9
$LUPREC
 70
     4
  9
$SKETCHINC
 40
0.1
  9
$FILLETRAD
 40
0.5
  9
$AUNITS
 70
     0
  9
$AUPREC
 70
     0
  9
$MENU
  1
.
  9
$ELEVATION
 40
0.0
  9
$PELEVATION
 40
0.0
  9
$THICKNESS
 40
0.0
  9
$LIMCHECK
 70
     0
  9
$CHAMFERA
 40
0.5
  9
$CHAMFERB
 40
0.5
  9
$CHAMFERC
 40
1.0
  9
$CHAMFERD
 40
0.0
  9
$SKPOLY
 70
     0
  9
$TDCREATE
 40
2458479.342668299
  9
$TDUCREATE
 40
2458479.176001632
  9
$TDUPDATE
 40
2458479.342668599
  9
$TDUUPDATE
 40
2458479.176001933
  9
$TDINDWG
 40
0.0000000116
  9
$TDUSRTIMER
 40
0.0000000116
  9
$USRTIMER
 70
     1
  9
$ANGBASE
 50
0.0
  9
$ANGDIR
 70
     0
  9
$PDMODE
 70
     0
  9
$PDSIZE
 40
0.0
  9
$PLINEWID
 40
0.0
  9
$SPLFRAME
 70
     0
  9
$SPLINETYPE
 70
     6
  9
$SPLINESEGS
 70
     8
  9
$HANDSEED
  5
112
  9
$SURFTAB1
 70
     6
  9
$SURFTAB2
 70
     6
  9
$SURFTYPE
 70
     6
  9
$SURFU
 70
     6
  9
$SURFV
 70
     6
  9
$UCSBASE
  2

  9
$UCSNAME
  2

  9
$UCSORG
 10
0.0
 20
0.0
 30
0.0
  9
$UCSXDIR
 10
1.0
 20
0.0
 30
0.0
  9
$UCSYDIR
 10
0.0
 20
1.0
 30
0.0
  9
$UCSORTHOREF
  2

  9
$UCSORTHOVIEW
 70
     0
  9
$UCSORGTOP
 10
0.0
 20
0.0
 30
0.0
  9
$UCSORGBOTTOM
 10
0.0
 20
0.0
 30
0.0
  9
$UCSORGLEFT
 10
0.0
 20
0.0
 30
0.0
  9
$UCSORGRIGHT
 10
0.0
 20
0.0
 30
0.0
  9
$UCSORGFRONT
 10
0.0
 20
0.0
 30
0.0
  9
$UCSORGBACK
 10
0.0
 20
0.0
 30
0.0
  9
$PUCSBASE
  2

  9
$PUCSNAME
  2

  9
$PUCSORG
 10
0.0
 20
0.0
 30
0.0
  9
$PUCSXDIR
 10
1.0
 20
0.0
 30
0.0
  9
$PUCSYDIR
 10
0.0
 20
1.0
 30
0.0
  9
$PUCSORTHOREF
  2

  9
$PUCSORTHOVIEW
 70
     0
  9
$PUCSORGTOP
 10
0.0
 20
0.0
 30
0.0
  9
$PUCSORGBOTTOM
 10
0.0
 20
0.0
 30
0.0
  9
$PUCSORGLEFT
 10
0.0
 20
0.0
 30
0.0
  9
$PUCSORGRIGHT
 10
0.0
 20
0.0
 30
0.0
  9
$PUCSORGFRONT
 10
0.0
 20
0.0
 30
0.0
  9
$PUCSORGBACK
 10
0.0
 20
0.0
 30
0.0
  9
$USERI1
 70
     0
  9
$USERI2
 70
     0
  9
$USERI3
 70
     0
  9
$USERI4
 70
     0
  9
$USERI5
 70
     0
  9
$USERR1
 40
0.0
  9
$USERR2
 40
0.0
  9
$USERR3
 40
0.0
  9
$USERR4
 40
0.0
  9
$USERR5
 40
0.0
  9
$WORLDVIEW
 70
     1
  9
$SHADEDGE
 70
     3
  9
$SHADEDIF
 70
    70
  9
$TILEMODE
 70
     1
  9
$MAXACTVP
 70
    64
  9
$PINSBASE
 10
0.0
 20
0.0
 30
0.0
  9
$PLIMCHECK
 70
     0
  9
$PEXTMIN
 10
1.000000000000000E+20
 20
1.000000000000000E+20
 30
1.000000000000000E+20
  9
$PEXTMAX
 10
-1.000000000000000E+20
 20
-1.000000000000000E+20
 30
-1.000000000000000E+20
  9
$PLIMMIN
 10
0.0
 20
0.0
  9
$PLIMMAX
 10
12.0
 20
9.0
  9
$UNITMODE
 70
     0
  9
$VISRETAIN
 70
     1
  9
$PLINEGEN
 70
     0
  9
$PSLTSCALE
 70
     1
  9
$TREEDEPTH
 70
  3020
  9
$CMLSTYLE
  2
Standard
  9
$CMLJUST
 70
     0
  9
$CMLSCALE
 40
1.0
  9
$PROXYGRAPHICS
 70
     1
  9
$MEASUREMENT
 70
     0
  9
$CELWEIGHT
370
    -1
  9
$ENDCAPS
280
     0
  9
$JOINSTYLE
280
     0
  9
$LWDISPLAY
290
     0
  9
$INSUNITS
 70
     4
  9
$HYPERLINKBASE
  1

  9
$STYLESHEET
  1

  9
$XEDIT
290
     1
  9
$CEPSNTYPE
380
     0
  9
$PSTYLEMODE
290
     1
  9
$FINGERPRINTGUID
  2
{5A64155E-528F-4545-BBC4-34F15315E17C}
  9
$VERSIONGUID
  2
{FAEB1C32-E019-11D5-929B-00C0DF256EC4}
  9
$EXTNAMES
290
     1
  9
$PSVPSCALE
 40
0.0
  9
$OLESTARTUP
290
     0
  9
$SORTENTS
280
   127
  9
$INDEXCTL
280
     0
  9
$HIDETEXT
280
     1
  9
$XCLIPFRAME
290
     0
  9
$HALOGAP
280
     0
  9
$OBSCOLOR
 70
   257
  9
$OBSLTYPE
280
     0
  9
$INTERSECTIONDISPLAY
280
     0
  9
$INTERSECTIONCOLOR
 70
   257
  9
$DIMASSOC
280
     2
  9
$PROJECTNAME
  1

  9
$CAMERADISPLAY
290
     0
  9
$LENSLENGTH
 40
50.0
  9
$CAMERAHEIGHT
 40
0.0
  9
$STEPSPERSEC
 40
2.0
  9
$STEPSIZE
 40
6.0
  9
$3DDWFPREC
 40
2.0
  9
$PSOLWIDTH
 40
0.25
  9
$PSOLHEIGHT
 40
4.0
  9
$LOFTANG1
 40
1.570796326794897
  9
$LOFTANG2
 40
1.570796326794897
  9
$LOFTMAG1
 40
0.0
  9
$LOFTMAG2
 40
0.0
  9
$LOFTPARAM
 70
     7
  9
$LOFTNORMALS
280
     1
  9
$LATITUDE
 40
37.795
  9
$LONGITUDE
 40
-122.394
  9
$NORTHDIRECTION
 40
0.0
  9
$TIMEZONE
 70
 -8000
  9
$LIGHTGLYPHDISPLAY
280
     1
  9
$TILEMODELIGHTSYNCH
280
     1
  9
$SOLIDHIST
280
     1
  9
$SHOWHIST
280
     1
  9
$DWFFRAME
280
     2
  9
$DGNFRAME
280
     2
  9
$REALWORLDSCALE
290
     1
  9
$INTERFERECOLOR
 62
   256
  9
$CSHADOW
280
     0
  9
$SHADOWPLANELOCATION
 40
0.0
  0
ENDSEC
  0
SECTION
  2
CLASSES
  0
CLASS
  1
ACDBDICTIONARYWDFLT
  2
AcDbDictionaryWithDefault
  3
ObjectDBX Classes
 90
        0
 91
        4
280
     0
281
     0
  0
CLASS
  1
VISUALSTYLE
  2
AcDbVisualStyle
  3
ObjectDBX Classes
 90
     4095
 91
        4
280
     0
281
     0
  0
CLASS
  1
MATERIAL
  2
AcDbMaterial
  3
ObjectDBX Classes
 90
     1153
 91
        4
280
     0
281
     0
  0
ENDSEC
  0
SECTION
  2
TABLES
  0
TABLE
  2
VPORT
  5
8
330
0
100
AcDbSymbolTable
 70
     1
  0
VPORT
  5
29
330
8
100
AcDbSymbolTableRecord
100
AcDbViewportTableRecord
  2
*Active
 70
     0
 10
0.0
 20
0.0
 11
1.0
 21
1.0
 12
10.42990654205607
 22
4.5
 13
0.0
 23
0.0
 14
0.5
 24
0.5
 15
0.5
 25
0.5
 16
0.0
 26
0.0
 36
1.0
 17
0.0
 27
0.0
 37
0.0
 40
9.0
 41
1.972972972850329
 42
50.0
 43
0.0
 44
0.0
 50
0.0
 51
0.0
 71
     0
 72
   100
 73
     1
 74
     3
 75
     0
 76
     0
 77
     0
 78
     0
281
     0
 65
     1
110
0.0
120
0.0
130
0.0
111
1.0
121
0.0
131
0.0
112
0.0
122
1.0
132
0.0
 79
     0
146
0.0
 60
     3
 61
     5
292
     1
282
     1
141
0.0
142
0.0
 63
   250
  0
ENDTAB
  0
TABLE
  2
LTYPE
  5
5
330
0
100
AcDbSymbolTable
 70
     1
  0
LTYPE
  5
14
330
5
100
AcDbSymbolTableRecord
100
AcDbLinetypeTableRecord
  2
ByBlock
 70
     0
  3

 72
    65
 73
     0
 40
0.0
  0
LTYPE
  5
15
330
5
100
AcDbSymbolTableRecord
100
AcDbLinetypeTableRecord
  2
ByLayer
 70
     0
  3

 72
    65
 73
     0
 40
0.0
  0
LTYPE
  5
16
330
5
100
AcDbSymbolTableRecord
100
AcDbLinetypeTableRecord
  2
Continuous
 70
     0
  3
Solid line
 72
    65
 73
     0
 40
0.0
  0
ENDTAB
  0
TABLE
  2
LAYER
  5
2
330
0
100
AcDbSymbolTable
 70
     3
  0
LAYER
  5
10
330
2
100
AcDbSymbolTableRecord
100
AcDbLayerTableRecord
  2
0
 70
     0
 62
     7
  6
Continuous
370
    -3
390
F
347
3E
  0
LAYER
  5
40
330
2
100
AcDbSymbolTableRecord
100
AcDbLayerTableRecord
  2
layer 1
 70
     0
 62
     7
  6
Continuous
370
    -3
390
F
347
3E
  0
LAYER
  5
EF
330
2
100
AcDbSymbolTableRecord
100
AcDbLayerTableRecord
  2
Master Guides
 70
     0
 62
     7
  6
Continuous
370
    -3
390
F
347
3E
  0
ENDTAB
  0
TABLE
  2
STYLE
  5
3
330
0
100
AcDbSymbolTable
 70
     1
  0
STYLE
  5
11
330
3
100
AcDbSymbolTableRecord
100
AcDbTextStyleTableRecord
  2
Standard
 70
     0
 40
0.0
 41
1.0
 50
0.0
 71
     0
 42
0.2
  3
txt
  4

  0
ENDTAB
  0
TABLE
  2
VIEW
  5
6
330
0
100
AcDbSymbolTable
 70
     0
  0
ENDTAB
  0
TABLE
  2
UCS
  5
7
330
0
100
AcDbSymbolTable
 70
     0
  0
ENDTAB
  0
TABLE
  2
APPID
  5
9
330
0
100
AcDbSymbolTable
 70
     2
  0
APPID
  5
12
330
9
100
AcDbSymbolTableRecord
100
AcDbRegAppTableRecord
  2
ACAD
 70
     0
  0
APPID
  5
3F
330
9
100
AcDbSymbolTableRecord
100
AcDbRegAppTableRecord
  2
ODA
 70
     0
  0
ENDTAB
  0
TABLE
  2
DIMSTYLE
  5
A
330
0
100
AcDbSymbolTable
 70
     1
100
AcDbDimStyleTable
  0
DIMSTYLE
105
27
330
A
100
AcDbSymbolTableRecord
100
AcDbDimStyleTableRecord
  2
Standard
 70
     0
178
     0
340
11
  0
ENDTAB
  0
TABLE
  2
BLOCK_RECORD
  5
1
330
0
100
AcDbSymbolTable
 70
     1
  0
BLOCK_RECORD
  5
1F
330
1
100
AcDbSymbolTableRecord
100
AcDbBlockTableRecord
  2
*Model_Space
340
22
 70
     0
280
     1
281
     0
  0
BLOCK_RECORD
  5
1B
330
1
100
AcDbSymbolTableRecord
100
AcDbBlockTableRecord
  2
*Paper_Space
340
1E
 70
     0
280
     1
281
     0
  0
BLOCK_RECORD
  5
23
330
1
100
AcDbSymbolTableRecord
100
AcDbBlockTableRecord
  2
*Paper_Space0
340
26
 70
     0
280
     1
281
     0
  0
ENDTAB
  0
ENDSEC
  0
SECTION
  2
BLOCKS
  0
BLOCK
  5
20
330
1F
100
AcDbEntity
  8
0
100
AcDbBlockBegin
  2
*Model_Space
 70
     0
 10
0.0
 20
0.0
 30
0.0
  3
*Model_Space
  1

  0
ENDBLK
  5
21
330
1F
100
AcDbEntity
  8
0
100
AcDbBlockEnd
  0
BLOCK
  5
1C
330
1B
100
AcDbEntity
 67
     1
  8
0
100
AcDbBlockBegin
  2
*Paper_Space
 70
     0
 10
0.0
 20
0.0
 30
0.0
  3
*Paper_Space
  1

  0
ENDBLK
  5
1D
330
1B
100
AcDbEntity
 67
     1
  8
0
100
AcDbBlockEnd
  0
BLOCK
  5
24
330
23
100
AcDbEntity
  8
0
100
AcDbBlockBegin
  2
*Paper_Space0
 70
     0
 10
0.0
 20
0.0
 30
0.0
  3
*Paper_Space0
  1

  0
ENDBLK
  5
25
330
23
100
AcDbEntity
  8
0
100
AcDbBlockEnd
  0
ENDSEC
  0
SECTION
  2
ENTITIES
  0
SPLINE
  5
41
330
1F
100
AcDbEntity
  8
layer 1
 62
   250
100
AcDbSpline
210
0.0
220
0.0
230
1.0
 70
    11
 71
     3
 72
    20
 73
    16
 74
     0
 42
0.0000000001
 43
0.0000000001
 12
1.0
 22
0.0
 32
0.0
 13
1.0
 23
0.0
 33
0.0
 40
0.0
 40
0.0
 40
0.0
 40
0.0
 40
0.2
 40
0.2
 40
0.2
 40
0.2
 40
0.4
 40
0.4
 40
0.4
 40
0.4
 40
0.6
 40
0.6
 40
0.6
 40
0.6
 40
1.0
 40
1.0
 40
1.0
 40
1.0
 10
-188.6497
 20
120.2946
 30
0.0
 10
-188.6497
 20
120.2946
 30
0.0
 10
-65.7543
 20
120.2946
 30
0.0
 10
-65.7543
 20
120.2946
 30
0.0
 10
-65.7543
 20
120.2946
 30
0.0
 10
-65.7543
 20
120.2946
 30
0.0
 10
-65.7543
 20
-103.3681
 30
0.0
 10
-65.7543
 20
-103.3681
 30
0.0
 10
-65.7543
 20
-103.3681
 30
0.0
 10
-65.7543
 20
-103.3681
 30
0.0
 10
-188.6497
 20
-103.3681
 30
0.0
 10
-188.6497
 20
-103.3681
 30
0.0
 10
-188.6497
 20
-103.3681
 30
0.0
 10
-188.6497
 20
-103.3681
 30
0.0
 10
-188.6497
 20
120.2946
 30
0.0
 10
-188.6497
 20
120.2946
 30
0.0
  0
SPLINE
  5
42
330
1F
100
AcDbEntity
  8
layer 1
 62
     7
100
AcDbSpline
210
0.0
220
0.0
230
1.0
 70
    11
 71
     3
 72
    36
 73
    32
 74
     0
 42
0.0000000001
 43
0.0000000001
 12
1.0
 22
0.0
 32
0.0
 13
1.0
 23
0.0
 33
0.0
 40
0.0
 40
0.0
 40
0.0
 40
0.0
 40
0.1111111111111111
 40
0.1111111111111111
 40
0.1111111111111111
 40
0.1111111111111111
 40
0.2222222222222222
 40
0.2222222222222222
 40
0.2222222222222222
 40
0.2222222222222222
 40
0.3333333333333333
 40
0.3333333333333333
 40
0.3333333333333333
 40
0.3333333333333333
 40
0.4444444444444444
 40
0.4444444444444444
 40
0.4444444444444444
 40
0.4444444444444444
 40
0.5555555555555556
 40
0.5555555555555556
 40
0.5555555555555556
 40
0.5555555555555556
 40
0.6666666666666666
 40
0.6666666666666666
 40
0.6666666666666666
 40
0.6666666666666666
 40
0.7777777777777778
 40
0.7777777777777778
 40
0.7777777777777778
 40
0.7777777777777778
 40
1.0
 40
1.0
 40
1.0
 40
1.0
 10
-183.4447
 20
-1.4307
 30
0.0
 10
-179.1075
 20
-11.9988
 30
0.0
 10
-174.5107
 20
-16.0073
 30
0.0
 10
-162.7591
 20
-20.351
 30
0.0
 10
-162.7591
 20
-20.351
 30
0.0
 10
-162.7903
 20
-20.6075
 30
0.0
 10
-162.8078
 20
-20.8763
 30
0.0
 10
-162.8078
 20
-21.143
 30
0.0
 10
-162.8078
 20
-21.143
 30
0.0
 10
-162.8075
 20
-21.3387
 30
0.0
 10
-162.8029
 20
-21.5334
 30
0.0
 10
-162.7858
 20
-21.7243
 30
0.0
 10
-162.7858
 20
-21.7243
 30
0.0
 10
-170.0154
 20
-23.003
 30
0.0
 10
-179.1087
 20
-28.631
 30
0.0
 10
-183.4453
 20
-39.2
 30
0.0
 10
-183.4453
 20
-39.2
 30
0.0
 10
-183.4453
 20
-39.2
 30
0.0
 10
-183.4447
 20
-32.4376
 30
0.0
 10
-183.4447
 20
-32.4376
 30
0.0
 10
-183.4447
 20
-32.4376
 30
0.0
 10
-179.0855
 20
-31.3261
 30
0.0
 10
-173.893
 20
-26.8165
 30
0.0
 10
-173.893
 20
-21.1405
 30
0.0
 10
-173.893
 20
-21.1405
 30
0.0
 10
-173.8927
 20
-15.4646
 30
0.0
 10
-178.0262
 20
-10.7494
 30
0.0
 10
-183.4453
 20
-9.8424
 30
0.0
 10
-183.4453
 20
-9.8424
 30
0.0
 10
-183.4453
 20
-9.8424
 30
0.0
 10
-183.4447
 20
-1.4307
 30
0.0
 10
-183.4447
 20
-1.4307
 30
0.0
  0
SPLINE
  5
43
330
1F
100
AcDbEntity
  8
layer 1
 62
     7
100
AcDbSpline
210
0.0
220
0.0
230
1.0
 70
    11
 71
     3
 72
    36
 73
    32
 74
     0
 42
0.0000000001
 43
0.0000000001
 12
1.0
 22
0.0
 32
0.0
 13
1.0
 23
0.0
 33
0.0
 40
0.0
 40
0.0
 40
0.0
 40
0.0
 40
0.1111111111111111
 40
0.1111111111111111
 40
0.1111111111111111
 40
0.1111111111111111
 40
0.2222222222222222
 40
0.2222222222222222
 40
0.2222222222222222
 40
0.2222222222222222
 40
0.3333333333333333
 40
0.3333333333333333
 40
0.3333333333333333
 40
0.3333333333333333
 40
0.4444444444444444
 40
0.4444444444444444
 40
0.4444444444444444
 40
0.4444444444444444
 40
0.5555555555555556
 40
0.5555555555555556
 40
0.5555555555555556
 40
0.5555555555555556
 40
0.6666666666666666
 40
0.6666666666666666
 40
0.6666666666666666
 40
0.6666666666666666
 40
0.7777777777777778
 40
0.7777777777777778
 40
0.7777777777777778
 40
0.7777777777777778
 40
1.0
 40
1.0
 40
1.0
 40
1.0
 10
-70.5108
 20
-43.303
 30
0.0
 10
-75.2425
 20
-30.5751
 30
0.0
 10
-79.6231
 20
-26.318
 30
0.0
 10
-92.5946
 20
-21.564
 30
0.0
 10
-92.5946
 20
-21.564
 30
0.0
 10
-92.5754
 20
-21.3698
 30
0.0
 10
-92.5681
 20
-21.1597
 30
0.0
 10
-92.5681
 20
-20.957
 30
0.0
 10
-92.5681
 20
-20.957
 30
0.0
 10
-92.5674
 20
-20.787
 30
0.0
 10
-92.5681
 20
-20.6207
 30
0.0
 10
-92.5825
 20
-20.4574
 30
0.0
 10
-92.5825
 20
-20.4574
 30
0.0
 10
-80.6417
 20
-17.2341
 30
0.0
 10
-74.4609
 20
-10.6262
 30
0.0
 10
-70.5111
 20
-0.1553
 30
0.0
 10
-70.5111
 20
-0.1553
 30
0.0
 10
-70.5111
 20
-0.1553
 30
0.0
 10
-70.5108
 20
-9.6835
 30
0.0
 10
-70.5108
 20
-9.6835
 30
0.0
 10
-70.5108
 20
-9.6835
 30
0.0
 10
-76.5338
 20
-10.0198
 30
0.0
 10
-81.3186
 20
-15.0129
 30
0.0
 10
-81.3186
 20
-21.12
 30
0.0
 10
-81.3186
 20
-21.12
 30
0.0
 10
-81.3183
 20
-27.2271
 30
0.0
 10
-76.5344
 20
-32.2205
 30
0.0
 10
-70.5111
 20
-32.5572
 30
0.0
 10
-70.5111
 20
-32.5572
 30
0.0
 10
-70.5111
 20
-32.5572
 30
0.0
 10
-70.5108
 20
-43.303
 30
0.0
 10
-70.5108
 20
-43.303
 30
0.0
  0
SPLINE
  5
44
330
1F
100
AcDbEntity
  8
layer 1
 62
     7
100
AcDbSpline
210
0.0
220
0.0
230
1.0
 70
    11
 71
     3
 72
    36
 73
    32
 74
     0
 42
0.0000000001
 43
0.0000000001
 12
1.0
 22
0.0
 32
0.0
 13
1.0
 23
0.0
 33
0.0
 40
0.0
 40
0.0
 40
0.0
 40
0.0
 40
0.1111111111111111
 40
0.1111111111111111
 40
0.1111111111111111
 40
0.1111111111111111
 40
0.2222222222222222
 40
0.2222222222222222
 40
0.2222222222222222
 40
0.2222222222222222
 40
0.3333333333333333
 40
0.3333333333333333
 40
0.3333333333333333
 40
0.3333333333333333
 40
0.4444444444444444
 40
0.4444444444444444
 40
0.4444444444444444
 40
0.4444444444444444
 40
0.5555555555555556
 40
0.5555555555555556
 40
0.5555555555555556
 40
0.5555555555555556
 40
0.6666666666666666
 40
0.6666666666666666
 40
0.6666666666666666
 40
0.6666666666666666
 40
0.7777777777777778
 40
0.7777777777777778
 40
0.7777777777777778
 40
0.7777777777777778
 40
1.0
 40
1.0
 40
1.0
 40
1.0
 10
-156.5306
 20
-83.9399
 30
0.0
 10
-155.6607
 20
-88.5523
 30
0.0
 10
-152.9264
 20
-93.3488
 30
0.0
 10
-149.1277
 20
-97.2885
 30
0.0
 10
-149.1277
 20
-97.2885
 30
0.0
 10
-149.1277
 20
-97.2885
 30
0.0
 10
-150.4227
 20
-97.2885
 30
0.0
 10
-150.4227
 20
-97.2885
 30
0.0
 10
-150.4227
 20
-97.2885
 30
0.0
 10
-152.35
 20
-95.8171
 30
0.0
 10
-154.7556
 20
-94.9432
 30
0.0
 10
-157.366
 20
-94.9432
 30
0.0
 10
-157.366
 20
-94.9432
 30
0.0
 10
-159.9759
 20
-94.9432
 30
0.0
 10
-162.3824
 20
-95.8171
 30
0.0
 10
-164.3091
 20
-97.2885
 30
0.0
 10
-164.3091
 20
-97.2885
 30
0.0
 10
-164.3091
 20
-97.2885
 30
0.0
 10
-164.7211
 20
-97.2885
 30
0.0
 10
-164.7211
 20
-97.2885
 30
0.0
 10
-164.7211
 20
-97.2885
 30
0.0
 10
-161.189
 20
-93.747
 30
0.0
 10
-158.8409
 20
-89.3042
 30
0.0
 10
-157.9725
 20
-83.8901
 30
0.0
 10
-157.9725
 20
-83.8901
 30
0.0
 10
-157.6654
 20
-83.9356
 30
0.0
 10
-157.3529
 20
-83.9601
 30
0.0
 10
-157.0337
 20
-83.9601
 30
0.0
 10
-157.0337
 20
-83.9601
 30
0.0
 10
-156.864
 20
-83.9601
 30
0.0
 10
-156.697
 20
-83.9527
 30
0.0
 10
-156.5306
 20
-83.9399
 30
0.0
  0
SPLINE
  5
45
330
1F
100
AcDbEntity
  8
layer 1
 62
     7
100
AcDbSpline
210
0.0
220
0.0
230
1.0
 70
    11
 71
     3
 72
    16
 73
    12
 74
     0
 42
0.0000000001
 43
0.0000000001
 12
1.0
 22
0.0
 32
0.0
 13
1.0
 23
0.0
 33
0.0
 40
0.0
 40
0.0
 40
0.0
 40
0.0
 40
0.25
 40
0.25
 40
0.25
 40
0.25
 40
0.5
 40
0.5
 40
0.5
 40
0.5
 40
1.0
 40
1.0
 40
1.0
 40
1.0
 10
-162.2855
 20
-98.2251
 30
0.0
 10
-161.3806
 20
-97.6224
 30
0.0
 10
-160.371
 20
-97.1635
 30
0.0
 10
-159.2901
 20
-96.884
 30
0.0
 10
-159.2901
 20
-96.884
 30
0.0
 10
-159.3952
 20
-97.3442
 30
0.0
 10
-159.5344
 20
-97.7922
 30
0.0
 10
-159.7022
 20
-98.2251
 30
0.0
 10
-159.7022
 20
-98.2251
 30
0.0
 10
-159.7022
 20
-98.2251
 30
0.0
 10
-162.2855
 20
-98.2251
 30
0.0
 10
-162.2855
 20
-98.2251
 30
0.0
  0
SPLINE
  5
46
330
1F
100
AcDbEntity
  8
layer 1
 62
     7
100
AcDbSpline
210
0.0
220
0.0
230
1.0
 70
    11
 71
     3
 72
    16
 73
    12
 74
     0
 42
0.0000000001
 43
0.0000000001
 12
1.0
 22
0.0
 32
0.0
 13
1.0
 23
0.0
 33
0.0
 40
0.0
 40
0.0
 40
0.0
 40
0.0
 40
0.25
 40
0.25
 40
0.25
 40
0.25
 40
0.5
 40
0.5
 40
0.5
 40
0.5
 40
1.0
 40
1.0
 40
1.0
 40
1.0
 10
-154.7572
 20
-96.7828
 30
0.0
 10
-153.5102
 20
-97.0451
 30
0.0
 10
-152.3515
 20
-97.5417
 30
0.0
 10
-151.3259
 20
-98.2251
 30
0.0
 10
-151.3259
 20
-98.2251
 30
0.0
 10
-151.3259
 20
-98.2251
 30
0.0
 10
-154.3669
 20
-98.2251
 30
0.0
 10
-154.3669
 20
-98.2251
 30
0.0
 10
-154.3669
 20
-98.2251
 30
0.0
 10
-154.532
 20
-97.7592
 30
0.0
 10
-154.6633
 20
-97.2778
 30
0.0
 10
-154.7572
 20
-96.7828
 30
0.0
  0
SPLINE
  5
47
330
1F
100
AcDbEntity
  8
layer 1
 62
     7
100
AcDbSpline
210
0.0
220
0.0
230
1.0
 70
    11
 71
     3
 72
    24
 73
    20
 74
     0
 42
0.0000000001
 43
0.0000000001
 12
1.0
 22
0.0
 32
0.0
 13
1.0
 23
0.0
 33
0.0
 40
0.0
 40
0.0
 40
0.0
 40
0.0
 40
0.1666666666666667
 40
0.1666666666666667
 40
0.1666666666666667
 40
0.1666666666666667
 40
0.3333333333333333
 40
0.3333333333333333
 40
0.3333333333333333
 40
0.3333333333333333
 40
0.5
 40
0.5
 40
0.5
 40
0.5
 40
0.6666666666666666
 40
0.6666666666666666
 40
0.6666666666666666
 40
0.6666666666666666
 40
1.0
 40
1.0
 40
1.0
 40
1.0
 10
-156.805
 20
-96.5699
 30
0.0
 10
-156.805
 20
-96.5699
 30
0.0
 10
-156.7025
 20
-96.5711
 30
0.0
 10
-156.7025
 20
-96.5711
 30
0.0
 10
-156.7025
 20
-96.5711
 30
0.0
 10
-156.5258
 20
-97.1632
 30
0.0
 10
-156.3518
 20
-97.7123
 30
0.0
 10
-156.1741
 20
-98.2251
 30
0.0
 10
-156.1741
 20
-98.2251
 30
0.0
 10
-156.1741
 20
-98.2251
 30
0.0
 10
-157.5798
 20
-98.2251
 30
0.0
 10
-157.5798
 20
-98.2251
 30
0.0
 10
-157.5798
 20
-98.2251
 30
0.0
 10
-157.4027
 20
-97.7129
 30
0.0
 10
-157.2287
 20
-97.1643
 30
0.0
 10
-157.0523
 20
-96.573
 30
0.0
 10
-157.0523
 20
-96.573
 30
0.0
 10
-156.9701
 20
-96.5709
 30
0.0
 10
-156.8881
 20
-96.5699
 30
0.0
 10
-156.805
 20
-96.5699
 30
0.0
  0
SPLINE
  5
48
330
1F
100
AcDbEntity
  8
layer 1
 62
     7
100
AcDbSpline
210
0.0
220
0.0
230
1.0
 70
    11
 71
     3
 72
    20
 73
    16
 74
     0
 42
0.0000000001
 43
0.0000000001
 12
1.0
 22
0.0
 32
0.0
 13
1.0
 23
0.0
 33
0.0
 40
0.0
 40
0.0
 40
0.0
 40
0.0
 40
0.2
 40
0.2
 40
0.2
 40
0.2
 40
0.4
 40
0.4
 40
0.4
 40
0.4
 40
0.6
 40
0.6
 40
0.6
 40
0.6
 40
1.0
 40
1.0
 40
1.0
 40
1.0
 10
-127.9777
 20
-9.5083
 30
0.0
 10
-121.6538
 20
-9.5083
 30
0.0
 10
-116.523
 20
-14.6395
 30
0.0
 10
-116.523
 20
-20.964
 30
0.0
 10
-116.523
 20
-20.964
 30
0.0
 10
-116.5228
 20
-27.2883
 30
0.0
 10
-121.654
 20
-32.4195
 30
0.0
 10
-127.9783
 20
-32.4195
 30
0.0
 10
-127.9783
 20
-32.4195
 30
0.0
 10
-134.3031
 20
-32.4195
 30
0.0
 10
-139.4341
 20
-27.2883
 30
0.0
 10
-139.4341
 20
-20.964
 30
0.0
 10
-139.4341
 20
-20.964
 30
0.0
 10
-139.4338
 20
-14.6395
 30
0.0
 10
-134.3031
 20
-9.5083
 30
0.0
 10
-127.9777
 20
-9.5083
 30
0.0
  0
SPLINE
  5
49
330
1F
100
AcDbEntity
  8
layer 1
 62
     7
100
AcDbSpline
210
0.0
220
0.0
230
1.0
 70
    11
 71
     3
 72
    52
 73
    48
 74
     0
 42
0.0000000001
 43
0.0000000001
 12
1.0
 22
0.0
 32
0.0
 13
1.0
 23
0.0
 33
0.0
 40
0.0
 40
0.0
 40
0.0
 40
0.0
 40
0.0769230769230769
 40
0.0769230769230769
 40
0.0769230769230769
 40
0.0769230769230769
 40
0.1538461538461539
 40
0.1538461538461539
 40
0.1538461538461539
 40
0.1538461538461539
 40
0.2307692307692308
 40
0.2307692307692308
 40
0.2307692307692308
 40
0.2307692307692308
 40
0.3076923076923077
 40
0.3076923076923077
 40
0.3076923076923077
 40
0.3076923076923077
 40
0.3846153846153846
 40
0.3846153846153846
 40
0.3846153846153846
 40
0.3846153846153846
 40
0.4615384615384616
 40
0.4615384615384616
 40
0.4615384615384616
 40
0.4615384615384616
 40
0.5384615384615384
 40
0.5384615384615384
 40
0.5384615384615384
 40
0.5384615384615384
 40
0.6153846153846154
 40
0.6153846153846154
 40
0.6153846153846154
 40
0.6153846153846154
 40
0.6923076923076923
 40
0.6923076923076923
 40
0.6923076923076923
 40
0.6923076923076923
 40
0.7692307692307693
 40
0.7692307692307693
 40
0.7692307692307693
 40
0.7692307692307693
 40
0.8461538461538461
 40
0.8461538461538461
 40
0.8461538461538461
 40
0.8461538461538461
 40
1.0
 40
1.0
 40
1.0
 40
1.0
 10
-127.1429
 20
1.4951
 30
0.0
 10
-125.3711
 20
-7.8961
 30
0.0
 10
-115.8726
 20
-18.0564
 30
0.0
 10
-105.3914
 20
-20.1754
 30
0.0
 10
-105.3914
 20
-20.1754
 30
0.0
 10
-105.4229
 20
-20.4332
 30
0.0
 10
-105.4396
 20
-20.6971
 30
0.0
 10
-105.4396
 20
-20.964
 30
0.0
 10
-105.4396
 20
-20.964
 30
0.0
 10
-105.4394
 20
-21.1613
 30
0.0
 10
-105.4305
 20
-21.3557
 30
0.0
 10
-105.4127
 20
-21.5484
 30
0.0
 10
-105.4127
 20
-21.5484
 30
0.0
 10
-117.168
 20
-24.7622
 30
0.0
 10
-125.2021
 20
-33.1379
 30
0.0
 10
-127.1438
 20
-43.2125
 30
0.0
 10
-127.1438
 20
-43.2125
 30
0.0
 10
-127.4554
 20
-43.1654
 30
0.0
 10
-127.7746
 20
-43.1413
 30
0.0
 10
-128.0999
 20
-43.1413
 30
0.0
 10
-128.0999
 20
-43.1413
 30
0.0
 10
-128.2752
 20
-43.1413
 30
0.0
 10
-128.4492
 20
-43.1482
 30
0.0
 10
-128.6213
 20
-43.1623
 30
0.0
 10
-128.6213
 20
-43.1623
 30
0.0
 10
-133.3564
 20
-30.4216
 30
0.0
 10
-137.7324
 20
-26.1587
 30
0.0
 10
-150.7079
 20
-21.4117
 30
0.0
 10
-150.7079
 20
-21.4117
 30
0.0
 10
-150.6887
 20
-21.2108
 30
0.0
 10
-150.6786
 20
-21.0075
 30
0.0
 10
-150.6786
 20
-20.8013
 30
0.0
 10
-150.6786
 20
-20.8013
 30
0.0
 10
-150.6783
 20
-20.6332
 30
0.0
 10
-150.6851
 20
-20.4659
 30
0.0
 10
-150.6979
 20
-20.3008
 30
0.0
 10
-150.6979
 20
-20.3008
 30
0.0
 10
-140.8416
 20
-18.0852
 30
0.0
 10
-130.3986
 20
-9.7645
 30
0.0
 10
-128.5847
 20
1.5448
 30
0.0
 10
-128.5847
 20
1.5448
 30
0.0
 10
-128.2783
 20
1.4993
 30
0.0
 10
-127.9651
 20
1.4749
 30
0.0
 10
-127.6459
 20
1.4749
 30
0.0
 10
-127.6459
 20
1.4749
 30
0.0
 10
-127.4759
 20
1.4749
 30
0.0
 10
-127.3092
 20
1.4822
 30
0.0
 10
-127.1429
 20
1.4951
 30
0.0
  0
SPLINE
  5
4A
330
1F
100
AcDbEntity
  8
layer 1
 62
     7
100
AcDbSpline
210
0.0
220
0.0
230
1.0
 70
    11
 71
     3
 72
    20
 73
    16
 74
     0
 42
0.0000000001
 43
0.0000000001
 12
1.0
 22
0.0
 32
0.0
 13
1.0
 23
0.0
 33
0.0
 40
0.0
 40
0.0
 40
0.0
 40
0.0
 40
0.2
 40
0.2
 40
0.2
 40
0.2
 40
0.4
 40
0.4
 40
0.4
 40
0.4
 40
0.6
 40
0.6
 40
0.6
 40
0.6
 40
1.0
 40
1.0
 40
1.0
 40
1.0
 10
-95.184
 20
-15.9982
 30
0.0
 10
-93.0882
 20
-5.96
 30
0.0
 10
-85.1816
 20
1.9488
 30
0.0
 10
-75.1447
 20
4.0468
 30
0.0
 10
-75.1447
 20
4.0468
 30
0.0
 10
-74.566
 20
3.1298
 30
0.0
 10
-73.7594
 20
2.3717
 30
0.0
 10
-72.8036
 20
1.8522
 30
0.0
 10
-72.8036
 20
1.8522
 30
0.0
 10
-77.0114
 20
-9.1664
 30
0.0
 10
-82.032
 20
-14.0987
 30
0.0
 10
-93.2084
 20
-18.2864
 30
0.0
 10
-93.2084
 20
-18.2864
 30
0.0
 10
-93.6738
 20
-17.3733
 30
0.0
 10
-94.3548
 20
-16.5884
 30
0.0
 10
-95.184
 20
-15.9982
 30
0.0
  0
SPLINE
  5
4B
330
1F
100
AcDbEntity
  8
layer 1
 62
     7
100
AcDbSpline
210
0.0
220
0.0
230
1.0
 70
    11
 71
     3
 72
    20
 73
    16
 74
     0
 42
0.0000000001
 43
0.0000000001
 12
1.0
 22
0.0
 32
0.0
 13
1.0
 23
0.0
 33
0.0
 40
0.0
 40
0.0
 40
0.0
 40
0.0
 40
0.2
 40
0.2
 40
0.2
 40
0.2
 40
0.4
 40
0.4
 40
0.4
 40
0.4
 40
0.6
 40
0.6
 40
0.6
 40
0.6
 40
1.0
 40
1.0
 40
1.0
 40
1.0
 10
-75.4009
 20
-46.6247
 30
0.0
 10
-85.4106
 20
-44.4255
 30
0.0
 10
-93.2546
 20
-36.4379
 30
0.0
 10
-95.2428
 20
-26.3516
 30
0.0
 10
-95.2428
 20
-26.3516
 30
0.0
 10
-94.4166
 20
-25.7774
 30
0.0
 10
-93.7334
 20
-25.0114
 30
0.0
 10
-93.2586
 20
-24.1182
 30
0.0
 10
-93.2586
 20
-24.1182
 30
0.0
 10
-82.0749
 20
-28.3004
 30
0.0
 10
-77.0423
 20
-33.2156
 30
0.0
 10
-72.8342
 20
-44.1931
 30
0.0
 10
-72.8342
 20
-44.1931
 30
0.0
 10
-73.9028
 20
-44.7438
 30
0.0
 10
-74.7948
 20
-45.5905
 30
0.0
 10
-75.4009
 20
-46.6247
 30
0.0
  0
SPLINE
  5
4C
330
1F
100
AcDbEntity
  8
layer 1
 62
     7
100
AcDbSpline
210
0.0
220
0.0
230
1.0
 70
    11
 71
     3
 72
    20
 73
    16
 74
     0
 42
0.0000000001
 43
0.0000000001
 12
1.0
 22
0.0
 32
0.0
 13
1.0
 23
0.0
 33
0.0
 40
0.0
 40
0.0
 40
0.0
 40
0.0
 40
0.2
 40
0.2
 40
0.2
 40
0.2
 40
0.4
 40
0.4
 40
0.4
 40
0.4
 40
0.6
 40
0.6
 40
0.6
 40
0.6
 40
1.0
 40
1.0
 40
1.0
 40
1.0
 10
-159.8625
 20
-26.6263
 30
0.0
 10
-161.9421
 20
-36.6715
 30
0.0
 10
-170.2639
 20
-43.7235
 30
0.0
 10
-180.2958
 20
-45.8376
 30
0.0
 10
-180.2958
 20
-45.8376
 30
0.0
 10
-180.8312
 20
-44.9056
 30
0.0
 10
-181.1718
 20
-44.9921
 30
0.0
 10
-182.0907
 20
-44.4368
 30
0.0
 10
-182.0907
 20
-44.4368
 30
0.0
 10
-179.7148
 20
-34.3402
 30
0.0
 10
-172.4081
 20
-27.3268
 30
0.0
 10
-161.97
 20
-24.2974
 30
0.0
 10
-161.97
 20
-24.2974
 30
0.0
 10
-161.473
 20
-25.2389
 30
0.0
 10
-160.7456
 20
-26.0406
 30
0.0
 10
-159.8625
 20
-26.6263
 30
0.0
  0
SPLINE
  5
4D
330
1F
100
AcDbEntity
  8
layer 1
 62
     7
100
AcDbSpline
210
0.0
220
0.0
230
1.0
 70
    11
 71
     3
 72
    20
 73
    16
 74
     0
 42
0.0000000001
 43
0.0000000001
 12
1.0
 22
0.0
 32
0.0
 13
1.0
 23
0.0
 33
0.0
 40
0.0
 40
0.0
 40
0.0
 40
0.0
 40
0.2
 40
0.2
 40
0.2
 40
0.2
 40
0.4
 40
0.4
 40
0.4
 40
0.4
 40
0.6
 40
0.6
 40
0.6
 40
0.6
 40
1.0
 40
1.0
 40
1.0
 40
1.0
 10
-179.8597
 20
4.0003
 30
0.0
 10
-169.8328
 20
1.8828
 30
0.0
 10
-161.9412
 20
-6.0367
 30
0.0
 10
-159.8634
 20
-16.0789
 30
0.0
 10
-159.8634
 20
-16.0789
 30
0.0
 10
-160.6909
 20
-16.6277
 30
0.0
 10
-161.3825
 20
-17.3659
 30
0.0
 10
-161.8745
 20
-18.2322
 30
0.0
 10
-161.8745
 20
-18.2322
 30
0.0
 10
-172.9083
 20
-14.0537
 30
0.0
 10
-177.8862
 20
-9.1022
 30
0.0
 10
-182.0696
 20
1.8867
 30
0.0
 10
-182.0696
 20
1.8867
 30
0.0
 10
-181.1718
 20
2.4007
 30
0.0
 10
-180.4125
 20
3.1285
 30
0.0
 10
-179.8597
 20
4.0003
 30
0.0
  0
SPLINE
  5
4E
330
1F
100
AcDbEntity
  8
layer 1
 62
     7
100
AcDbSpline
210
0.0
220
0.0
230
1.0
 70
    11
 71
     3
 72
    20
 73
    16
 74
     0
 42
0.0000000001
 43
0.0000000001
 12
1.0
 22
0.0
 32
0.0
 13
1.0
 23
0.0
 33
0.0
 40
0.0
 40
0.0
 40
0.0
 40
0.0
 40
0.2
 40
0.2
 40
0.2
 40
0.2
 40
0.4
 40
0.4
 40
0.4
 40
0.4
 40
0.6
 40
0.6
 40
0.6
 40
0.6
 40
1.0
 40
1.0
 40
1.0
 40
1.0
 10
-152.7105
 20
-16.196
 30
0.0
 10
-150.6147
 20
-6.1578
 30
0.0
 10
-142.7084
 20
1.751
 30
0.0
 10
-132.6711
 20
3.8493
 30
0.0
 10
-132.6711
 20
3.8493
 30
0.0
 10
-132.0922
 20
2.9322
 30
0.0
 10
-131.2859
 20
2.1741
 30
0.0
 10
-130.3301
 20
1.6547
 30
0.0
 10
-130.3301
 20
1.6547
 30
0.0
 10
-134.5379
 20
-9.3642
 30
0.0
 10
-139.5588
 20
-14.2965
 30
0.0
 10
-150.7349
 20
-18.4842
 30
0.0
 10
-150.7349
 20
-18.4842
 30
0.0
 10
-151.2
 20
-17.5711
 30
0.0
 10
-151.8816
 20
-16.7859
 30
0.0
 10
-152.7105
 20
-16.196
 30
0.0
  0
SPLINE
  5
4F
330
1F
100
AcDbEntity
  8
layer 1
 62
     7
100
AcDbSpline
210
0.0
220
0.0
230
1.0
 70
    11
 71
     3
 72
    20
 73
    16
 74
     0
 42
0.0000000001
 43
0.0000000001
 12
1.0
 22
0.0
 32
0.0
 13
1.0
 23
0.0
 33
0.0
 40
0.0
 40
0.0
 40
0.0
 40
0.0
 40
0.2
 40
0.2
 40
0.2
 40
0.2
 40
0.4
 40
0.4
 40
0.4
 40
0.4
 40
0.6
 40
0.6
 40
0.6
 40
0.6
 40
1.0
 40
1.0
 40
1.0
 40
1.0
 10
-132.9274
 20
-46.8225
 30
0.0
 10
-142.9368
 20
-44.6233
 30
0.0
 10
-150.7811
 20
-36.6357
 30
0.0
 10
-152.7693
 20
-26.5495
 30
0.0
 10
-152.7693
 20
-26.5495
 30
0.0
 10
-151.9428
 20
-25.9752
 30
0.0
 10
-151.2599
 20
-25.2093
 30
0.0
 10
-150.785
 20
-24.3161
 30
0.0
 10
-150.785
 20
-24.3161
 30
0.0
 10
-139.6014
 20
-28.4983
 30
0.0
 10
-134.5688
 20
-33.4134
 30
0.0
 10
-130.3606
 20
-44.3909
 30
0.0
 10
-130.3606
 20
-44.3909
 30
0.0
 10
-131.4293
 20
-44.9414
 30
0.0
 10
-132.3213
 20
-45.7884
 30
0.0
 10
-132.9274
 20
-46.8225
 30
0.0
  0
SPLINE
  5
50
330
1F
100
AcDbEntity
  8
layer 1
 62
     7
100
AcDbSpline
210
0.0
220
0.0
230
1.0
 70
    11
 71
     3
 72
    20
 73
    16
 74
     0
 42
0.0000000001
 43
0.0000000001
 12
1.0
 22
0.0
 32
0.0
 13
1.0
 23
0.0
 33
0.0
 40
0.0
 40
0.0
 40
0.0
 40
0.0
 40
0.2
 40
0.2
 40
0.2
 40
0.2
 40
0.4
 40
0.4
 40
0.4
 40
0.4
 40
0.6
 40
0.6
 40
0.6
 40
0.6
 40
1.0
 40
1.0
 40
1.0
 40
1.0
 10
-101.9764
 20
-26.7886
 30
0.0
 10
-104.7755
 20
-36.8341
 30
0.0
 10
-112.3122
 20
-44.2142
 30
0.0
 10
-122.3436
 20
-46.3284
 30
0.0
 10
-122.3436
 20
-46.3284
 30
0.0
 10
-122.8797
 20
-45.3964
 30
0.0
 10
-123.2851
 20
-45.1544
 30
0.0
 10
-124.204
 20
-44.5995
 30
0.0
 10
-124.204
 20
-44.5995
 30
0.0
 10
-122.0082
 20
-33.9623
 30
0.0
 10
-114.7101
 20
-27.9172
 30
0.0
 10
-104.083
 20
-24.46
 30
0.0
 10
-104.083
 20
-24.46
 30
0.0
 10
-103.5857
 20
-25.4013
 30
0.0
 10
-102.8589
 20
-26.2033
 30
0.0
 10
-101.9764
 20
-26.7886
 30
0.0
  0
SPLINE
  5
51
330
1F
100
AcDbEntity
  8
layer 1
 62
     7
100
AcDbSpline
210
0.0
220
0.0
230
1.0
 70
    11
 71
     3
 72
    20
 73
    16
 74
     0
 42
0.0000000001
 43
0.0000000001
 12
1.0
 22
0.0
 32
0.0
 13
1.0
 23
0.0
 33
0.0
 40
0.0
 40
0.0
 40
0.0
 40
0.0
 40
0.2
 40
0.2
 40
0.2
 40
0.2
 40
0.4
 40
0.4
 40
0.4
 40
0.4
 40
0.6
 40
0.6
 40
0.6
 40
0.6
 40
1.0
 40
1.0
 40
1.0
 40
1.0
 10
-121.9736
 20
3.8376
 30
0.0
 10
-111.9458
 20
1.7204
 30
0.0
 10
-104.0545
 20
-6.1994
 30
0.0
 10
-101.9766
 20
-16.2415
 30
0.0
 10
-101.9766
 20
-16.2415
 30
0.0
 10
-102.8041
 20
-16.7904
 30
0.0
 10
-103.4956
 20
-17.5286
 30
0.0
 10
-103.9878
 20
-18.3945
 30
0.0
 10
-103.9878
 20
-18.3945
 30
0.0
 10
-115.0217
 20
-14.3883
 30
0.0
 10
-120.5159
 20
-9.2649
 30
0.0
 10
-124.1829
 20
1.724
 30
0.0
 10
-124.1829
 20
1.724
 30
0.0
 10
-123.2848
 20
2.2384
 30
0.0
 10
-122.5258
 20
2.9658
 30
0.0
 10
-121.9736
 20
3.8376
 30
0.0
  0
SPLINE
  5
52
330
1F
100
AcDbEntity
  8
layer 1
 62
     7
100
AcDbSpline
210
0.0
220
0.0
230
1.0
 70
    11
 71
     3
 72
    52
 73
    48
 74
     0
 42
0.0000000001
 43
0.0000000001
 12
1.0
 22
0.0
 32
0.0
 13
1.0
 23
0.0
 33
0.0
 40
0.0
 40
0.0
 40
0.0
 40
0.0
 40
0.0769230769230769
 40
0.0769230769230769
 40
0.0769230769230769
 40
0.0769230769230769
 40
0.1538461538461539
 40
0.1538461538461539
 40
0.1538461538461539
 40
0.1538461538461539
 40
0.2307692307692308
 40
0.2307692307692308
 40
0.2307692307692308
 40
0.2307692307692308
 40
0.3076923076923077
 40
0.3076923076923077
 40
0.3076923076923077
 40
0.3076923076923077
 40
0.3846153846153846
 40
0.3846153846153846
 40
0.3846153846153846
 40
0.3846153846153846
 40
0.4615384615384616
 40
0.4615384615384616
 40
0.4615384615384616
 40
0.4615384615384616
 40
0.5384615384615384
 40
0.5384615384615384
 40
0.5384615384615384
 40
0.5384615384615384
 40
0.6153846153846154
 40
0.6153846153846154
 40
0.6153846153846154
 40
0.6153846153846154
 40
0.6923076923076923
 40
0.6923076923076923
 40
0.6923076923076923
 40
0.6923076923076923
 40
0.7692307692307693
 40
0.7692307692307693
 40
0.7692307692307693
 40
0.7692307692307693
 40
0.8461538461538461
 40
0.8461538461538461
 40
0.8461538461538461
 40
0.8461538461538461
 40
1.0
 40
1.0
 40
1.0
 40
1.0
 10
-97.8398
 20
-27.6195
 30
0.0
 10
-95.3789
 20
-37.8717
 30
0.0
 10
-87.7263
 20
-46.8103
 30
0.0
 10
-76.0882
 20
-49.2899
 30
0.0
 10
-76.0882
 20
-49.2899
 30
0.0
 10
-76.1201
 20
-49.548
 30
0.0
 10
-76.1366
 20
-49.8468
 30
0.0
 10
-76.1366
 20
-50.0785
 30
0.0
 10
-76.1366
 20
-50.0785
 30
0.0
 10
-76.1363
 20
-50.3102
 30
0.0
 10
-76.154
 20
-49.8858
 30
0.0
 10
-76.1366
 20
-50.0785
 30
0.0
 10
-76.1366
 20
-50.0785
 30
0.0
 10
-88.8393
 20
-54.7774
 30
0.0
 10
-94.1
 20
-59.5985
 30
0.0
 10
-98.7969
 20
-72.2557
 30
0.0
 10
-98.7969
 20
-72.2557
 30
0.0
 10
-99.1088
 20
-72.2083
 30
0.0
 10
-98.5465
 20
-72.2557
 30
0.0
 10
-98.7969
 20
-72.2557
 30
0.0
 10
-98.7969
 20
-72.2557
 30
0.0
 10
-99.0467
 20
-72.2557
 30
0.0
 10
-99.146
 20
-72.2627
 30
0.0
 10
-99.3182
 20
-72.2767
 30
0.0
 10
-99.3182
 20
-72.2767
 30
0.0
 10
-104.0532
 20
-59.536
 30
0.0
 10
-108.429
 20
-55.2731
 30
0.0
 10
-121.4046
 20
-50.5265
 30
0.0
 10
-121.4046
 20
-50.5265
 30
0.0
 10
-121.385
 20
-50.3253
 30
0.0
 10
-121.3755
 20
-50.1219
 30
0.0
 10
-121.3755
 20
-49.9161
 30
0.0
 10
-121.3755
 20
-49.9161
 30
0.0
 10
-121.3752
 20
-49.7477
 30
0.0
 10
-121.3816
 20
-49.5804
 30
0.0
 10
-121.3947
 20
-49.4153
 30
0.0
 10
-121.3947
 20
-49.4153
 30
0.0
 10
-108.3932
 20
-44.6576
 30
0.0
 10
-101.6272
 20
-36.7436
 30
0.0
 10
-99.2815
 20
-27.5696
 30
0.0
 10
-99.2815
 20
-27.5696
 30
0.0
 10
-98.9745
 20
-27.6151
 30
0.0
 10
-98.6617
 20
-27.6399
 30
0.0
 10
-98.3428
 20
-27.6399
 30
0.0
 10
-98.3428
 20
-27.6399
 30
0.0
 10
-98.1724
 20
-27.6399
 30
0.0
 10
-98.0061
 20
-27.6326
 30
0.0
 10
-97.8398
 20
-27.6195
 30
0.0
  0
SPLINE
  5
53
330
1F
100
AcDbEntity
  8
layer 1
 62
     7
100
AcDbSpline
210
0.0
220
0.0
230
1.0
 70
    11
 71
     3
 72
    20
 73
    16
 74
     0
 42
0.0000000001
 43
0.0000000001
 12
1.0
 22
0.0
 32
0.0
 13
1.0
 23
0.0
 33
0.0
 40
0.0
 40
0.0
 40
0.0
 40
0.0
 40
0.2
 40
0.2
 40
0.2
 40
0.2
 40
0.4
 40
0.4
 40
0.4
 40
0.4
 40
0.6
 40
0.6
 40
0.6
 40
0.6
 40
1.0
 40
1.0
 40
1.0
 40
1.0
 10
-156.6328
 20
-38.3304
 30
0.0
 10
-150.3086
 20
-38.3304
 30
0.0
 10
-145.1776
 20
-43.4614
 30
0.0
 10
-145.1776
 20
-49.7859
 30
0.0
 10
-145.1776
 20
-49.7859
 30
0.0
 10
-145.1772
 20
-56.1104
 30
0.0
 10
-150.3089
 20
-61.2414
 30
0.0
 10
-156.6328
 20
-61.2414
 30
0.0
 10
-156.6328
 20
-61.2414
 30
0.0
 10
-162.9573
 20
-61.2414
 30
0.0
 10
-168.0889
 20
-56.1104
 30
0.0
 10
-168.0889
 20
-49.7859
 30
0.0
 10
-168.0889
 20
-49.7859
 30
0.0
 10
-168.0889
 20
-43.4614
 30
0.0
 10
-162.9576
 20
-38.3304
 30
0.0
 10
-156.6328
 20
-38.3304
 30
0.0
  0
SPLINE
  5
54
330
1F
100
AcDbEntity
  8
layer 1
 62
     7
100
AcDbSpline
210
0.0
220
0.0
230
1.0
 70
    11
 71
     3
 72
    52
 73
    48
 74
     0
 42
0.0000000001
 43
0.0000000001
 12
1.0
 22
0.0
 32
0.0
 13
1.0
 23
0.0
 33
0.0
 40
0.0
 40
0.0
 40
0.0
 40
0.0
 40
0.0769230769230769
 40
0.0769230769230769
 40
0.0769230769230769
 40
0.0769230769230769
 40
0.1538461538461539
 40
0.1538461538461539
 40
0.1538461538461539
 40
0.1538461538461539
 40
0.2307692307692308
 40
0.2307692307692308
 40
0.2307692307692308
 40
0.2307692307692308
 40
0.3076923076923077
 40
0.3076923076923077
 40
0.3076923076923077
 40
0.3076923076923077
 40
0.3846153846153846
 40
0.3846153846153846
 40
0.3846153846153846
 40
0.3846153846153846
 40
0.4615384615384616
 40
0.4615384615384616
 40
0.4615384615384616
 40
0.4615384615384616
 40
0.5384615384615384
 40
0.5384615384615384
 40
0.5384615384615384
 40
0.5384615384615384
 40
0.6153846153846154
 40
0.6153846153846154
 40
0.6153846153846154
 40
0.6153846153846154
 40
0.6923076923076923
 40
0.6923076923076923
 40
0.6923076923076923
 40
0.6923076923076923
 40
0.7692307692307693
 40
0.7692307692307693
 40
0.7692307692307693
 40
0.7692307692307693
 40
0.8461538461538461
 40
0.8461538461538461
 40
0.8461538461538461
 40
0.8461538461538461
 40
1.0
 40
1.0
 40
1.0
 40
1.0
 10
-155.728
 20
-27.4595
 30
0.0
 10
-152.7432
 20
-39.008
 30
0.0
 10
-143.7272
 20
-46.8699
 30
0.0
 10
-133.9728
 20
-49.1266
 30
0.0
 10
-133.9728
 20
-49.1266
 30
0.0
 10
-134.0037
 20
-49.3832
 30
0.0
 10
-134.0215
 20
-49.6519
 30
0.0
 10
-134.0215
 20
-49.9183
 30
0.0
 10
-134.0215
 20
-49.9183
 30
0.0
 10
-134.0215
 20
-50.114
 30
0.0
 10
-134.0165
 20
-50.3088
 30
0.0
 10
-133.9995
 20
-50.4996
 30
0.0
 10
-133.9995
 20
-50.4996
 30
0.0
 10
-146.231
 20
-54.5903
 30
0.0
 10
-153.1414
 20
-60.6989
 30
0.0
 10
-155.7283
 20
-72.1646
 30
0.0
 10
-155.7283
 20
-72.1646
 30
0.0
 10
-156.0387
 20
-72.1217
 30
0.0
 10
-156.3558
 20
-72.0909
 30
0.0
 10
-156.6854
 20
-72.0909
 30
0.0
 10
-156.6854
 20
-72.0909
 30
0.0
 10
-156.8615
 20
-72.0909
 30
0.0
 10
-157.0324
 20
-72.1031
 30
0.0
 10
-157.2049
 20
-72.1123
 30
0.0
 10
-157.2049
 20
-72.1123
 30
0.0
 10
-161.9384
 20
-59.374
 30
0.0
 10
-166.3172
 20
-55.1157
 30
0.0
 10
-179.2937
 20
-50.3601
 30
0.0
 10
-179.2937
 20
-50.3601
 30
0.0
 10
-179.2751
 20
-50.1657
 30
0.0
 10
-179.2671
 20
-49.9556
 30
0.0
 10
-179.2671
 20
-49.7529
 30
0.0
 10
-179.2671
 20
-49.7529
 30
0.0
 10
-179.2671
 20
-49.5831
 30
0.0
 10
-179.2671
 20
-49.4168
 30
0.0
 10
-179.2815
 20
-49.2535
 30
0.0
 10
-179.2815
 20
-49.2535
 30
0.0
 10
-168.8764
 20
-46.5063
 30
0.0
 10
-159.5028
 20
-37.4638
 30
0.0
 10
-157.1716
 20
-27.4072
 30
0.0
 10
-157.1716
 20
-27.4072
 30
0.0
 10
-156.8658
 20
-27.4485
 30
0.0
 10
-156.5456
 20
-27.4809
 30
0.0
 10
-156.2289
 20
-27.4809
 30
0.0
 10
-156.2289
 20
-27.4809
 30
0.0
 10
-156.0586
 20
-27.4809
 30
0.0
 10
-155.8943
 20
-27.4675
 30
0.0
 10
-155.728
 20
-27.4595
 30
0.0
  0
SPLINE
  5
55
330
1F
100
AcDbEntity
  8
layer 1
 62
     7
100
AcDbSpline
210
0.0
220
0.0
230
1.0
 70
    11
 71
     3
 72
    12
 73
     8
 74
     0
 42
0.0000000001
 43
0.0000000001
 12
1.0
 22
0.0
 32
0.0
 13
1.0
 23
0.0
 33
0.0
 40
0.0
 40
0.0
 40
0.0
 40
0.0
 40
0.3333333333333333
 40
0.3333333333333333
 40
0.3333333333333333
 40
0.3333333333333333
 40
1.0
 40
1.0
 40
1.0
 40
1.0
 10
-166.2701
 20
-47.5072
 30
0.0
 10
-165.4292
 20
-43.9384
 30
0.0
 10
-162.657
 20
-41.1136
 30
0.0
 10
-159.1176
 20
-40.198
 30
0.0
 10
-159.1176
 20
-40.198
 30
0.0
 10
-159.9395
 20
-43.7772
 30
0.0
 10
-162.7206
 20
-46.6097
 30
0.0
 10
-166.2701
 20
-47.5072
 30
0.0
  0
SPLINE
  5
56
330
1F
100
AcDbEntity
  8
layer 1
 62
     7
100
AcDbSpline
210
0.0
220
0.0
230
1.0
 70
    11
 71
     3
 72
    12
 73
     8
 74
     0
 42
0.0000000001
 43
0.0000000001
 12
1.0
 22
0.0
 32
0.0
 13
1.0
 23
0.0
 33
0.0
 40
0.0
 40
0.0
 40
0.0
 40
0.0
 40
0.3333333333333333
 40
0.3333333333333333
 40
0.3333333333333333
 40
0.3333333333333333
 40
1.0
 40
1.0
 40
1.0
 40
1.0
 10
-154.5841
 20
-40.0969
 30
0.0
 10
-150.7165
 20
-40.9112
 30
0.0
 10
-147.6792
 20
-43.9849
 30
0.0
 10
-146.9175
 20
-47.8723
 30
0.0
 10
-146.9175
 20
-47.8723
 30
0.0
 10
-150.7973
 20
-47.0797
 30
0.0
 10
-153.8453
 20
-43.9956
 30
0.0
 10
-154.5841
 20
-40.0969
 30
0.0
  0
SPLINE
  5
57
330
1F
100
AcDbEntity
  8
layer 1
 62
     7
100
AcDbSpline
210
0.0
220
0.0
230
1.0
 70
    11
 71
     3
 72
    12
 73
     8
 74
     0
 42
0.0000000001
 43
0.0000000001
 12
1.0
 22
0.0
 32
0.0
 13
1.0
 23
0.0
 33
0.0
 40
0.0
 40
0.0
 40
0.0
 40
0.0
 40
0.3333333333333333
 40
0.3333333333333333
 40
0.3333333333333333
 40
0.3333333333333333
 40
1.0
 40
1.0
 40
1.0
 40
1.0
 10
-146.9719
 20
-51.9606
 30
0.0
 10
-147.8434
 20
-55.8382
 30
0.0
 10
-150.9892
 20
-58.8578
 30
0.0
 10
-154.9342
 20
-59.5409
 30
0.0
 10
-154.9342
 20
-59.5409
 30
0.0
 10
-154.0859
 20
-55.6507
 30
0.0
 10
-150.9293
 20
-52.621
 30
0.0
 10
-146.9719
 20
-51.9606
 30
0.0
  0
SPLINE
  5
58
330
1F
100
AcDbEntity
  8
layer 1
 62
     7
100
AcDbSpline
210
0.0
220
0.0
230
1.0
 70
    11
 71
     3
 72
    12
 73
     8
 74
     0
 42
0.0000000001
 43
0.0000000001
 12
1.0
 22
0.0
 32
0.0
 13
1.0
 23
0.0
 33
0.0
 40
0.0
 40
0.0
 40
0.0
 40
0.0
 40
0.3333333333333333
 40
0.3333333333333333
 40
0.3333333333333333
 40
0.3333333333333333
 40
1.0
 40
1.0
 40
1.0
 40
1.0
 10
-158.6562
 20
-59.4801
 30
0.0
 10
-162.499
 20
-58.6807
 30
0.0
 10
-165.5274
 20
-55.6533
 30
0.0
 10
-166.3267
 20
-51.8104
 30
0.0
 10
-166.3267
 20
-51.8104
 30
0.0
 10
-162.4717
 20
-52.5872
 30
0.0
 10
-159.434
 20
-55.6251
 30
0.0
 10
-158.6562
 20
-59.4801
 30
0.0
  0
SPLINE
  5
59
330
1F
100
AcDbEntity
  8
layer 1
 62
     7
100
AcDbSpline
210
0.0
220
0.0
230
1.0
 70
    11
 71
     3
 72
    48
 73
    44
 74
     0
 42
0.0000000001
 43
0.0000000001
 12
1.0
 22
0.0
 32
0.0
 13
1.0
 23
0.0
 33
0.0
 40
0.0
 40
0.0
 40
0.0
 40
0.0
 40
0.0833333333333333
 40
0.0833333333333333
 40
0.0833333333333333
 40
0.0833333333333333
 40
0.1666666666666667
 40
0.1666666666666667
 40
0.1666666666666667
 40
0.1666666666666667
 40
0.25
 40
0.25
 40
0.25
 40
0.25
 40
0.3333333333333333
 40
0.3333333333333333
 40
0.3333333333333333
 40
0.3333333333333333
 40
0.4166666666666667
 40
0.4166666666666667
 40
0.4166666666666667
 40
0.4166666666666667
 40
0.5
 40
0.5
 40
0.5
 40
0.5
 40
0.5833333333333334
 40
0.5833333333333334
 40
0.5833333333333334
 40
0.5833333333333334
 40
0.6666666666666666
 40
0.6666666666666666
 40
0.6666666666666666
 40
0.6666666666666666
 40
0.75
 40
0.75
 40
0.75
 40
0.75
 40
0.8333333333333334
 40
0.8333333333333334
 40
0.8333333333333334
 40
0.8333333333333334
 40
1.0
 40
1.0
 40
1.0
 40
1.0
 10
-156.6328
 20
-39.884
 30
0.0
 10
-156.6328
 20
-39.884
 30
0.0
 10
-156.5301
 20
-39.8853
 30
0.0
 10
-156.5301
 20
-39.8853
 30
0.0
 10
-156.5301
 20
-39.8853
 30
0.0
 10
-154.6807
 20
-46.0752
 30
0.0
 10
-153.0228
 20
-47.6857
 30
0.0
 10
-146.7349
 20
-49.5404
 30
0.0
 10
-146.7349
 20
-49.5404
 30
0.0
 10
-146.7321
 20
-49.6168
 30
0.0
 10
-146.7319
 20
-49.6935
 30
0.0
 10
-146.7316
 20
-49.7706
 30
0.0
 10
-146.7316
 20
-49.7706
 30
0.0
 10
-153.1095
 20
-51.65
 30
0.0
 10
-154.7253
 20
-53.2795
 30
0.0
 10
-156.6075
 20
-59.6874
 30
0.0
 10
-156.6075
 20
-59.6874
 30
0.0
 10
-156.6075
 20
-59.6874
 30
0.0
 10
-156.6328
 20
-59.6877
 30
0.0
 10
-156.6328
 20
-59.6877
 30
0.0
 10
-156.6328
 20
-59.6877
 30
0.0
 10
-156.6328
 20
-59.6877
 30
0.0
 10
-156.8019
 20
-59.6852
 30
0.0
 10
-156.8019
 20
-59.6852
 30
0.0
 10
-156.8019
 20
-59.6852
 30
0.0
 10
-158.6684
 20
-53.3271
 30
0.0
 10
-160.2752
 20
-51.6744
 30
0.0
 10
-166.5346
 20
-49.8128
 30
0.0
 10
-166.5346
 20
-49.8128
 30
0.0
 10
-166.5346
 20
-49.8128
 30
0.0
 10
-166.535
 20
-49.7859
 30
0.0
 10
-166.535
 20
-49.7859
 30
0.0
 10
-166.535
 20
-49.7859
 30
0.0
 10
-166.535
 20
-49.6896
 30
0.0
 10
-166.5332
 20
-49.5933
 30
0.0
 10
-166.5304
 20
-49.4972
 30
0.0
 10
-166.5304
 20
-49.4972
 30
0.0
 10
-160.3609
 20
-47.6613
 30
0.0
 10
-158.7137
 20
-46.0278
 30
0.0
 10
-156.8799
 20
-39.8871
 30
0.0
 10
-156.8799
 20
-39.8871
 30
0.0
 10
-156.7977
 20
-39.885
 30
0.0
 10
-156.7156
 20
-39.884
 30
0.0
 10
-156.6328
 20
-39.884
 30
0.0
  0
SPLINE
  5
5A
330
1F
100
AcDbEntity
  8
layer 1
 62
     7
100
AcDbSpline
210
0.0
220
0.0
230
1.0
 70
    11
 71
     3
 72
    20
 73
    16
 74
     0
 42
0.0000000001
 43
0.0000000001
 12
1.0
 22
0.0
 32
0.0
 13
1.0
 23
0.0
 33
0.0
 40
0.0
 40
0.0
 40
0.0
 40
0.0
 40
0.2
 40
0.2
 40
0.2
 40
0.2
 40
0.4
 40
0.4
 40
0.4
 40
0.4
 40
0.6
 40
0.6
 40
0.6
 40
0.6
 40
1.0
 40
1.0
 40
1.0
 40
1.0
 10
-98.7458
 20
-38.4927
 30
0.0
 10
-92.4213
 20
-38.4927
 30
0.0
 10
-87.2909
 20
-43.6241
 30
0.0
 10
-87.2909
 20
-49.9483
 30
0.0
 10
-87.2909
 20
-49.9483
 30
0.0
 10
-87.2902
 20
-56.2727
 30
0.0
 10
-92.4219
 20
-61.4041
 30
0.0
 10
-98.7461
 20
-61.4041
 30
0.0
 10
-98.7461
 20
-61.4041
 30
0.0
 10
-105.0702
 20
-61.4041
 30
0.0
 10
-110.2019
 20
-56.2727
 30
0.0
 10
-110.2019
 20
-49.9483
 30
0.0
 10
-110.2019
 20
-49.9483
 30
0.0
 10
-110.2013
 20
-43.6241
 30
0.0
 10
-105.0709
 20
-38.4927
 30
0.0
 10
-98.7458
 20
-38.4927
 30
0.0
  0
SPLINE
  5
5B
330
1F
100
AcDbEntity
  8
layer 1
 62
     7
100
AcDbSpline
210
0.0
220
0.0
230
1.0
 70
    11
 71
     3
 72
    12
 73
     8
 74
     0
 42
0.0000000001
 43
0.0000000001
 12
1.0
 22
0.0
 32
0.0
 13
1.0
 23
0.0
 33
0.0
 40
0.0
 40
0.0
 40
0.0
 40
0.0
 40
0.3333333333333333
 40
0.3333333333333333
 40
0.3333333333333333
 40
0.3333333333333333
 40
1.0
 40
1.0
 40
1.0
 40
1.0
 10
-108.3828
 20
-47.6695
 30
0.0
 10
-107.5426
 20
-44.1008
 30
0.0
 10
-104.7703
 20
-41.2759
 30
0.0
 10
-101.2309
 20
-40.3607
 30
0.0
 10
-101.2309
 20
-40.3607
 30
0.0
 10
-102.0528
 20
-43.9399
 30
0.0
 10
-104.8339
 20
-46.7724
 30
0.0
 10
-108.3828
 20
-47.6695
 30
0.0
  0
SPLINE
  5
5C
330
1F
100
AcDbEntity
  8
layer 1
 62
     7
100
AcDbSpline
210
0.0
220
0.0
230
1.0
 70
    11
 71
     3
 72
    12
 73
     8
 74
     0
 42
0.0000000001
 43
0.0000000001
 12
1.0
 22
0.0
 32
0.0
 13
1.0
 23
0.0
 33
0.0
 40
0.0
 40
0.0
 40
0.0
 40
0.0
 40
0.3333333333333333
 40
0.3333333333333333
 40
0.3333333333333333
 40
0.3333333333333333
 40
1.0
 40
1.0
 40
1.0
 40
1.0
 10
-96.6973
 20
-40.2592
 30
0.0
 10
-92.8298
 20
-41.0739
 30
0.0
 10
-89.7925
 20
-44.1473
 30
0.0
 10
-89.0308
 20
-48.0347
 30
0.0
 10
-89.0308
 20
-48.0347
 30
0.0
 10
-92.9103
 20
-47.242
 30
0.0
 10
-95.9586
 20
-44.1583
 30
0.0
 10
-96.6973
 20
-40.2592
 30
0.0
  0
SPLINE
  5
5D
330
1F
100
AcDbEntity
  8
layer 1
 62
     7
100
AcDbSpline
210
0.0
220
0.0
230
1.0
 70
    11
 71
     3
 72
    12
 73
     8
 74
     0
 42
0.0000000001
 43
0.0000000001
 12
1.0
 22
0.0
 32
0.0
 13
1.0
 23
0.0
 33
0.0
 40
0.0
 40
0.0
 40
0.0
 40
0.0
 40
0.3333333333333333
 40
0.3333333333333333
 40
0.3333333333333333
 40
0.3333333333333333
 40
1.0
 40
1.0
 40
1.0
 40
1.0
 10
-89.0858
 20
-52.123
 30
0.0
 10
-89.956
 20
-56.0006
 30
0.0
 10
-93.1026
 20
-59.0205
 30
0.0
 10
-97.0474
 20
-59.7036
 30
0.0
 10
-97.0474
 20
-59.7036
 30
0.0
 10
-96.1999
 20
-55.8132
 30
0.0
 10
-93.0427
 20
-52.7834
 30
0.0
 10
-89.0858
 20
-52.123
 30
0.0
  0
SPLINE
  5
5E
330
1F
100
AcDbEntity
  8
layer 1
 62
     7
100
AcDbSpline
210
0.0
220
0.0
230
1.0
 70
    11
 71
     3
 72
    12
 73
     8
 74
     0
 42
0.0000000001
 43
0.0000000001
 12
1.0
 22
0.0
 32
0.0
 13
1.0
 23
0.0
 33
0.0
 40
0.0
 40
0.0
 40
0.0
 40
0.0
 40
0.3333333333333333
 40
0.3333333333333333
 40
0.3333333333333333
 40
0.3333333333333333
 40
1.0
 40
1.0
 40
1.0
 40
1.0
 10
-100.7694
 20
-59.6425
 30
0.0
 10
-104.6128
 20
-58.8432
 30
0.0
 10
-107.6407
 20
-55.8156
 30
0.0
 10
-108.44
 20
-51.9728
 30
0.0
 10
-108.44
 20
-51.9728
 30
0.0
 10
-104.585
 20
-52.7499
 30
0.0
 10
-101.5474
 20
-55.7878
 30
0.0
 10
-100.7694
 20
-59.6425
 30
0.0
  0
SPLINE
  5
5F
330
1F
100
AcDbEntity
  8
layer 1
 62
     7
100
AcDbSpline
210
0.0
220
0.0
230
1.0
 70
    11
 71
     3
 72
    48
 73
    44
 74
     0
 42
0.0000000001
 43
0.0000000001
 12
1.0
 22
0.0
 32
0.0
 13
1.0
 23
0.0
 33
0.0
 40
0.0
 40
0.0
 40
0.0
 40
0.0
 40
0.0833333333333333
 40
0.0833333333333333
 40
0.0833333333333333
 40
0.0833333333333333
 40
0.1666666666666667
 40
0.1666666666666667
 40
0.1666666666666667
 40
0.1666666666666667
 40
0.25
 40
0.25
 40
0.25
 40
0.25
 40
0.3333333333333333
 40
0.3333333333333333
 40
0.3333333333333333
 40
0.3333333333333333
 40
0.4166666666666667
 40
0.4166666666666667
 40
0.4166666666666667
 40
0.4166666666666667
 40
0.5
 40
0.5
 40
0.5
 40
0.5
 40
0.5833333333333334
 40
0.5833333333333334
 40
0.5833333333333334
 40
0.5833333333333334
 40
0.6666666666666666
 40
0.6666666666666666
 40
0.6666666666666666
 40
0.6666666666666666
 40
0.75
 40
0.75
 40
0.75
 40
0.75
 40
0.8333333333333334
 40
0.8333333333333334
 40
0.8333333333333334
 40
0.8333333333333334
 40
1.0
 40
1.0
 40
1.0
 40
1.0
 10
-98.7458
 20
-40.0464
 30
0.0
 10
-98.7458
 20
-40.0464
 30
0.0
 10
-98.6433
 20
-40.0476
 30
0.0
 10
-98.6433
 20
-40.0476
 30
0.0
 10
-98.6433
 20
-40.0476
 30
0.0
 10
-96.7936
 20
-46.2376
 30
0.0
 10
-95.1358
 20
-47.8484
 30
0.0
 10
-88.8482
 20
-49.7027
 30
0.0
 10
-88.8482
 20
-49.7027
 30
0.0
 10
-88.8461
 20
-49.7794
 30
0.0
 10
-88.8451
 20
-49.8562
 30
0.0
 10
-88.8448
 20
-49.9329
 30
0.0
 10
-88.8448
 20
-49.9329
 30
0.0
 10
-95.2229
 20
-51.8123
 30
0.0
 10
-96.8386
 20
-53.4421
 30
0.0
 10
-98.7207
 20
-59.8497
 30
0.0
 10
-98.7207
 20
-59.8497
 30
0.0
 10
-98.7207
 20
-59.8497
 30
0.0
 10
-98.7458
 20
-59.85
 30
0.0
 10
-98.7458
 20
-59.85
 30
0.0
 10
-98.7458
 20
-59.85
 30
0.0
 10
-98.7458
 20
-59.85
 30
0.0
 10
-98.9158
 20
-59.8479
 30
0.0
 10
-98.9158
 20
-59.8479
 30
0.0
 10
-98.9158
 20
-59.8479
 30
0.0
 10
-100.7817
 20
-53.4895
 30
0.0
 10
-102.3886
 20
-51.8368
 30
0.0
 10
-108.648
 20
-49.9755
 30
0.0
 10
-108.648
 20
-49.9755
 30
0.0
 10
-108.648
 20
-49.9755
 30
0.0
 10
-108.648
 20
-49.9483
 30
0.0
 10
-108.648
 20
-49.9483
 30
0.0
 10
-108.648
 20
-49.9483
 30
0.0
 10
-108.648
 20
-49.8519
 30
0.0
 10
-108.6461
 20
-49.7556
 30
0.0
 10
-108.6436
 20
-49.6598
 30
0.0
 10
-108.6436
 20
-49.6598
 30
0.0
 10
-102.4739
 20
-47.8236
 30
0.0
 10
-100.8267
 20
-46.1902
 30
0.0
 10
-98.9929
 20
-40.0494
 30
0.0
 10
-98.9929
 20
-40.0494
 30
0.0
 10
-98.9103
 20
-40.0473
 30
0.0
 10
-98.8286
 20
-40.0464
 30
0.0
 10
-98.7458
 20
-40.0464
 30
0.0
  0
SPLINE
  5
60
330
1F
100
AcDbEntity
  8
layer 1
 62
     7
100
AcDbSpline
210
0.0
220
0.0
230
1.0
 70
    11
 71
     3
 72
    16
 73
    12
 74
     0
 42
0.0000000001
 43
0.0000000001
 12
1.0
 22
0.0
 32
0.0
 13
1.0
 23
0.0
 33
0.0
 40
0.0
 40
0.0
 40
0.0
 40
0.0
 40
0.25
 40
0.25
 40
0.25
 40
0.25
 40
0.5
 40
0.5
 40
0.5
 40
0.5
 40
1.0
 40
1.0
 40
1.0
 40
1.0
 10
-70.2827
 20
-53.4917
 30
0.0
 10
-71.9162
 20
-53.2541
 30
0.0
 10
-73.172
 20
-51.8481
 30
0.0
 10
-73.172
 20
-50.1488
 30
0.0
 10
-73.172
 20
-50.1488
 30
0.0
 10
-73.1717
 20
-48.4496
 30
0.0
 10
-71.9164
 20
-47.0427
 30
0.0
 10
-70.283
 20
-46.8051
 30
0.0
 10
-70.283
 20
-46.8051
 30
0.0
 10
-70.283
 20
-46.8051
 30
0.0
 10
-70.2827
 20
-53.4917
 30
0.0
 10
-70.2827
 20
-53.4917
 30
0.0
  0
SPLINE
  5
61
330
1F
100
AcDbEntity
  8
layer 1
 62
     7
100
AcDbSpline
210
0.0
220
0.0
230
1.0
 70
    11
 71
     3
 72
    12
 73
     8
 74
     0
 42
0.0000000001
 43
0.0000000001
 12
1.0
 22
0.0
 32
0.0
 13
1.0
 23
0.0
 33
0.0
 40
0.0
 40
0.0
 40
0.0
 40
0.0
 40
0.3333333333333333
 40
0.3333333333333333
 40
0.3333333333333333
 40
0.3333333333333333
 40
1.0
 40
1.0
 40
1.0
 40
1.0
 10
-79.2723
 20
-19.2409
 30
0.0
 10
-78.4306
 20
-15.6722
 30
0.0
 10
-75.6589
 20
-12.8471
 30
0.0
 10
-72.1195
 20
-11.9318
 30
0.0
 10
-72.1195
 20
-11.9318
 30
0.0
 10
-72.9418
 20
-15.511
 30
0.0
 10
-75.7225
 20
-18.3435
 30
0.0
 10
-79.2723
 20
-19.2409
 30
0.0
  0
SPLINE
  5
62
330
1F
100
AcDbEntity
  8
layer 1
 62
     7
100
AcDbSpline
210
0.0
220
0.0
230
1.0
 70
    11
 71
     3
 72
    12
 73
     8
 74
     0
 42
0.0000000001
 43
0.0000000001
 12
1.0
 22
0.0
 32
0.0
 13
1.0
 23
0.0
 33
0.0
 40
0.0
 40
0.0
 40
0.0
 40
0.0
 40
0.3333333333333333
 40
0.3333333333333333
 40
0.3333333333333333
 40
0.3333333333333333
 40
1.0
 40
1.0
 40
1.0
 40
1.0
 10
-71.6584
 20
-31.2136
 30
0.0
 10
-75.5011
 20
-30.4146
 30
0.0
 10
-78.5293
 20
-27.3867
 30
0.0
 10
-79.3286
 20
-23.5443
 30
0.0
 10
-79.3286
 20
-23.5443
 30
0.0
 10
-75.4736
 20
-24.321
 30
0.0
 10
-72.436
 20
-27.3589
 30
0.0
 10
-71.6584
 20
-31.2136
 30
0.0
  0
SPLINE
  5
63
330
1F
100
AcDbEntity
  8
layer 1
 62
     7
100
AcDbSpline
210
0.0
220
0.0
230
1.0
 70
    11
 71
     3
 72
    24
 73
    20
 74
     0
 42
0.0000000001
 43
0.0000000001
 12
1.0
 22
0.0
 32
0.0
 13
1.0
 23
0.0
 33
0.0
 40
0.0
 40
0.0
 40
0.0
 40
0.0
 40
0.1666666666666667
 40
0.1666666666666667
 40
0.1666666666666667
 40
0.1666666666666667
 40
0.3333333333333333
 40
0.3333333333333333
 40
0.3333333333333333
 40
0.3333333333333333
 40
0.5
 40
0.5
 40
0.5
 40
0.5
 40
0.6666666666666666
 40
0.6666666666666666
 40
0.6666666666666666
 40
0.6666666666666666
 40
1.0
 40
1.0
 40
1.0
 40
1.0
 10
-70.2827
 20
-29.8792
 30
0.0
 10
-71.9804
 20
-24.775
 30
0.0
 10
-73.816
 20
-23.2479
 30
0.0
 10
-79.5366
 20
-21.5466
 30
0.0
 10
-79.5366
 20
-21.5466
 30
0.0
 10
-79.5366
 20
-21.5466
 30
0.0
 10
-79.5369
 20
-21.5197
 30
0.0
 10
-79.5369
 20
-21.5197
 30
0.0
 10
-79.5369
 20
-21.5197
 30
0.0
 10
-79.5369
 20
-21.4234
 30
0.0
 10
-79.535
 20
-21.3267
 30
0.0
 10
-79.5323
 20
-21.231
 30
0.0
 10
-79.5323
 20
-21.231
 30
0.0
 10
-73.8141
 20
-19.5297
 30
0.0
 10
-71.9807
 20
-18.0007
 30
0.0
 10
-70.283
 20
-12.8981
 30
0.0
 10
-70.283
 20
-12.8981
 30
0.0
 10
-70.283
 20
-12.8981
 30
0.0
 10
-70.2827
 20
-29.8792
 30
0.0
 10
-70.2827
 20
-29.8792
 30
0.0
  0
SPLINE
  5
64
330
1F
100
AcDbEntity
  8
layer 1
 62
     7
100
AcDbSpline
210
0.0
220
0.0
230
1.0
 70
    11
 71
     3
 72
    16
 73
    12
 74
     0
 42
0.0000000001
 43
0.0000000001
 12
1.0
 22
0.0
 32
0.0
 13
1.0
 23
0.0
 33
0.0
 40
0.0
 40
0.0
 40
0.0
 40
0.0
 40
0.25
 40
0.25
 40
0.25
 40
0.25
 40
0.5
 40
0.5
 40
0.5
 40
0.5
 40
1.0
 40
1.0
 40
1.0
 40
1.0
 10
-183.5056
 20
-47.1457
 30
0.0
 10
-182.7044
 20
-47.7637
 30
0.0
 10
-182.1874
 20
-48.734
 30
0.0
 10
-182.1874
 20
-49.8238
 30
0.0
 10
-182.1874
 20
-49.8238
 30
0.0
 10
-182.187
 20
-50.9136
 30
0.0
 10
-182.7047
 20
-51.882
 30
0.0
 10
-183.5056
 20
-52.5
 30
0.0
 10
-183.5056
 20
-52.5
 30
0.0
 10
-183.5056
 20
-52.5
 30
0.0
 10
-183.5056
 20
-47.1457
 30
0.0
 10
-183.5056
 20
-47.1457
 30
0.0
  0
SPLINE
  5
65
330
1F
100
AcDbEntity
  8
layer 1
 62
     7
100
AcDbSpline
210
0.0
220
0.0
230
1.0
 70
    11
 71
     3
 72
    12
 73
     8
 74
     0
 42
0.0000000001
 43
0.0000000001
 12
1.0
 22
0.0
 32
0.0
 13
1.0
 23
0.0
 33
0.0
 40
0.0
 40
0.0
 40
0.0
 40
0.0
 40
0.3333333333333333
 40
0.3333333333333333
 40
0.3333333333333333
 40
0.3333333333333333
 40
1.0
 40
1.0
 40
1.0
 40
1.0
 10
-183.3596
 20
-11.5056
 30
0.0
 10
-179.4921
 20
-12.3199
 30
0.0
 10
-176.4548
 20
-15.3936
 30
0.0
 10
-175.6928
 20
-19.281
 30
0.0
 10
-175.6928
 20
-19.281
 30
0.0
 10
-179.5729
 20
-18.4884
 30
0.0
 10
-182.6209
 20
-15.4043
 30
0.0
 10
-183.3596
 20
-11.5056
 30
0.0
  0
SPLINE
  5
66
330
1F
100
AcDbEntity
  8
layer 1
 62
     7
100
AcDbSpline
210
0.0
220
0.0
230
1.0
 70
    11
 71
     3
 72
    12
 73
     8
 74
     0
 42
0.0000000001
 43
0.0000000001
 12
1.0
 22
0.0
 32
0.0
 13
1.0
 23
0.0
 33
0.0
 40
0.0
 40
0.0
 40
0.0
 40
0.0
 40
0.3333333333333333
 40
0.3333333333333333
 40
0.3333333333333333
 40
0.3333333333333333
 40
1.0
 40
1.0
 40
1.0
 40
1.0
 10
-175.7475
 20
-23.3693
 30
0.0
 10
-176.6185
 20
-27.247
 30
0.0
 10
-179.7649
 20
-30.2665
 30
0.0
 10
-183.7098
 20
-30.9497
 30
0.0
 10
-183.7098
 20
-30.9497
 30
0.0
 10
-182.8616
 20
-27.0596
 30
0.0
 10
-179.705
 20
-24.0298
 30
0.0
 10
-175.7475
 20
-23.3693
 30
0.0
  0
SPLINE
  5
67
330
1F
100
AcDbEntity
  8
layer 1
 62
     7
100
AcDbSpline
210
0.0
220
0.0
230
1.0
 70
    11
 71
     3
 72
    20
 73
    16
 74
     0
 42
0.0000000001
 43
0.0000000001
 12
1.0
 22
0.0
 32
0.0
 13
1.0
 23
0.0
 33
0.0
 40
0.0
 40
0.0
 40
0.0
 40
0.0
 40
0.2
 40
0.2
 40
0.2
 40
0.2
 40
0.4
 40
0.4
 40
0.4
 40
0.4
 40
0.6
 40
0.6
 40
0.6
 40
0.6
 40
1.0
 40
1.0
 40
1.0
 40
1.0
 10
-183.5056
 20
-15.8597
 30
0.0
 10
-181.991
 20
-18.501
 30
0.0
 10
-179.8563
 20
-19.6673
 30
0.0
 10
-175.5105
 20
-20.9491
 30
0.0
 10
-175.5105
 20
-20.9491
 30
0.0
 10
-175.5081
 20
-21.0258
 30
0.0
 10
-175.5075
 20
-21.1022
 30
0.0
 10
-175.5072
 20
-21.1793
 30
0.0
 10
-175.5072
 20
-21.1793
 30
0.0
 10
-179.8557
 20
-22.4609
 30
0.0
 10
-181.991
 20
-23.6259
 30
0.0
 10
-183.5056
 20
-26.2685
 30
0.0
 10
-183.5056
 20
-26.2685
 30
0.0
 10
-183.5056
 20
-26.2685
 30
0.0
 10
-183.5056
 20
-15.8597
 30
0.0
 10
-183.5056
 20
-15.8597
 30
0.0
  0
SPLINE
  5
68
330
1F
100
AcDbEntity
  8
layer 1
 62
     7
100
AcDbSpline
210
0.0
220
0.0
230
1.0
 70
    11
 71
     3
 72
    20
 73
    16
 74
     0
 42
0.0000000001
 43
0.0000000001
 12
1.0
 22
0.0
 32
0.0
 13
1.0
 23
0.0
 33
0.0
 40
0.0
 40
0.0
 40
0.0
 40
0.0
 40
0.2
 40
0.2
 40
0.2
 40
0.2
 40
0.4
 40
0.4
 40
0.4
 40
0.4
 40
0.6
 40
0.6
 40
0.6
 40
0.6
 40
1.0
 40
1.0
 40
1.0
 40
1.0
 10
-127.6792
 20
-46.6073
 30
0.0
 10
-125.8133
 20
-46.6073
 30
0.0
 10
-124.3006
 20
-48.1206
 30
0.0
 10
-124.3006
 20
-49.9862
 30
0.0
 10
-124.3006
 20
-49.9862
 30
0.0
 10
-124.3
 20
-51.852
 30
0.0
 10
-125.814
 20
-53.3653
 30
0.0
 10
-127.6798
 20
-53.3653
 30
0.0
 10
-127.6798
 20
-53.3653
 30
0.0
 10
-129.5451
 20
-53.3653
 30
0.0
 10
-131.0587
 20
-51.852
 30
0.0
 10
-131.0587
 20
-49.9862
 30
0.0
 10
-131.0587
 20
-49.9862
 30
0.0
 10
-131.0584
 20
-48.1206
 30
0.0
 10
-129.5454
 20
-46.6073
 30
0.0
 10
-127.6792
 20
-46.6073
 30
0.0
  0
SPLINE
  5
69
330
1F
100
AcDbEntity
  8
layer 1
 62
     7
100
AcDbSpline
210
0.0
220
0.0
230
1.0
 70
    11
 71
     3
 72
    12
 73
     8
 74
     0
 42
0.0000000001
 43
0.0000000001
 12
1.0
 22
0.0
 32
0.0
 13
1.0
 23
0.0
 33
0.0
 40
0.0
 40
0.0
 40
0.0
 40
0.0
 40
0.3333333333333333
 40
0.3333333333333333
 40
0.3333333333333333
 40
0.3333333333333333
 40
1.0
 40
1.0
 40
1.0
 40
1.0
 10
-137.1591
 20
-19.0786
 30
0.0
 10
-136.3182
 20
-15.5095
 30
0.0
 10
-133.5456
 20
-12.6847
 30
0.0
 10
-130.0062
 20
-11.7695
 30
0.0
 10
-130.0062
 20
-11.7695
 30
0.0
 10
-130.8285
 20
-15.3487
 30
0.0
 10
-133.6092
 20
-18.1812
 30
0.0
 10
-137.1591
 20
-19.0786
 30
0.0
  0
SPLINE
  5
6A
330
1F
100
AcDbEntity
  8
layer 1
 62
     7
100
AcDbSpline
210
0.0
220
0.0
230
1.0
 70
    11
 71
     3
 72
    12
 73
     8
 74
     0
 42
0.0000000001
 43
0.0000000001
 12
1.0
 22
0.0
 32
0.0
 13
1.0
 23
0.0
 33
0.0
 40
0.0
 40
0.0
 40
0.0
 40
0.0
 40
0.3333333333333333
 40
0.3333333333333333
 40
0.3333333333333333
 40
0.3333333333333333
 40
1.0
 40
1.0
 40
1.0
 40
1.0
 10
-125.473
 20
-11.668
 30
0.0
 10
-121.6055
 20
-12.4826
 30
0.0
 10
-118.5682
 20
-15.556
 30
0.0
 10
-117.8061
 20
-19.4434
 30
0.0
 10
-117.8061
 20
-19.4434
 30
0.0
 10
-121.6859
 20
-18.6508
 30
0.0
 10
-124.7339
 20
-15.567
 30
0.0
 10
-125.473
 20
-11.668
 30
0.0
  0
SPLINE
  5
6B
330
1F
100
AcDbEntity
  8
layer 1
 62
     7
100
AcDbSpline
210
0.0
220
0.0
230
1.0
 70
    11
 71
     3
 72
    12
 73
     8
 74
     0
 42
0.0000000001
 43
0.0000000001
 12
1.0
 22
0.0
 32
0.0
 13
1.0
 23
0.0
 33
0.0
 40
0.0
 40
0.0
 40
0.0
 40
0.0
 40
0.3333333333333333
 40
0.3333333333333333
 40
0.3333333333333333
 40
0.3333333333333333
 40
1.0
 40
1.0
 40
1.0
 40
1.0
 10
-117.8608
 20
-23.5317
 30
0.0
 10
-118.7317
 20
-27.4094
 30
0.0
 10
-121.8779
 20
-30.4292
 30
0.0
 10
-125.8231
 20
-31.1124
 30
0.0
 10
-125.8231
 20
-31.1124
 30
0.0
 10
-124.9749
 20
-27.2219
 30
0.0
 10
-121.818
 20
-24.1922
 30
0.0
 10
-117.8608
 20
-23.5317
 30
0.0
  0
SPLINE
  5
6C
330
1F
100
AcDbEntity
  8
layer 1
 62
     7
100
AcDbSpline
210
0.0
220
0.0
230
1.0
 70
    11
 71
     3
 72
    12
 73
     8
 74
     0
 42
0.0000000001
 43
0.0000000001
 12
1.0
 22
0.0
 32
0.0
 13
1.0
 23
0.0
 33
0.0
 40
0.0
 40
0.0
 40
0.0
 40
0.0
 40
0.3333333333333333
 40
0.3333333333333333
 40
0.3333333333333333
 40
0.3333333333333333
 40
1.0
 40
1.0
 40
1.0
 40
1.0
 10
-129.5451
 20
-31.0512
 30
0.0
 10
-133.3878
 20
-30.2519
 30
0.0
 10
-136.4163
 20
-27.2244
 30
0.0
 10
-137.2153
 20
-23.3816
 30
0.0
 10
-137.2153
 20
-23.3816
 30
0.0
 10
-133.3606
 20
-24.1586
 30
0.0
 10
-130.3227
 20
-27.1965
 30
0.0
 10
-129.5451
 20
-31.0512
 30
0.0
  0
SPLINE
  5
6D
330
1F
100
AcDbEntity
  8
layer 1
 62
     7
100
AcDbSpline
210
0.0
220
0.0
230
1.0
 70
    11
 71
     3
 72
    48
 73
    44
 74
     0
 42
0.0000000001
 43
0.0000000001
 12
1.0
 22
0.0
 32
0.0
 13
1.0
 23
0.0
 33
0.0
 40
0.0
 40
0.0
 40
0.0
 40
0.0
 40
0.0833333333333333
 40
0.0833333333333333
 40
0.0833333333333333
 40
0.0833333333333333
 40
0.1666666666666667
 40
0.1666666666666667
 40
0.1666666666666667
 40
0.1666666666666667
 40
0.25
 40
0.25
 40
0.25
 40
0.25
 40
0.3333333333333333
 40
0.3333333333333333
 40
0.3333333333333333
 40
0.3333333333333333
 40
0.4166666666666667
 40
0.4166666666666667
 40
0.4166666666666667
 40
0.4166666666666667
 40
0.5
 40
0.5
 40
0.5
 40
0.5
 40
0.5833333333333334
 40
0.5833333333333334
 40
0.5833333333333334
 40
0.5833333333333334
 40
0.6666666666666666
 40
0.6666666666666666
 40
0.6666666666666666
 40
0.6666666666666666
 40
0.75
 40
0.75
 40
0.75
 40
0.75
 40
0.8333333333333334
 40
0.8333333333333334
 40
0.8333333333333334
 40
0.8333333333333334
 40
1.0
 40
1.0
 40
1.0
 40
1.0
 10
-127.5214
 20
-11.4551
 30
0.0
 10
-127.5214
 20
-11.4551
 30
0.0
 10
-127.4189
 20
-11.4564
 30
0.0
 10
-127.4189
 20
-11.4564
 30
0.0
 10
-127.4189
 20
-11.4564
 30
0.0
 10
-125.5687
 20
-17.6463
 30
0.0
 10
-123.9114
 20
-19.2572
 30
0.0
 10
-117.6235
 20
-21.1115
 30
0.0
 10
-117.6235
 20
-21.1115
 30
0.0
 10
-117.6211
 20
-21.1882
 30
0.0
 10
-117.6208
 20
-21.2649
 30
0.0
 10
-117.6205
 20
-21.3417
 30
0.0
 10
-117.6205
 20
-21.3417
 30
0.0
 10
-123.9985
 20
-23.2211
 30
0.0
 10
-125.6139
 20
-24.8509
 30
0.0
 10
-127.496
 20
-31.2586
 30
0.0
 10
-127.496
 20
-31.2586
 30
0.0
 10
-127.496
 20
-31.2586
 30
0.0
 10
-127.5214
 20
-31.2588
 30
0.0
 10
-127.5214
 20
-31.2588
 30
0.0
 10
-127.5214
 20
-31.2588
 30
0.0
 10
-127.5214
 20
-31.2588
 30
0.0
 10
-127.6908
 20
-31.2567
 30
0.0
 10
-127.6908
 20
-31.2567
 30
0.0
 10
-127.6908
 20
-31.2567
 30
0.0
 10
-129.5573
 20
-24.8982
 30
0.0
 10
-131.1639
 20
-23.2455
 30
0.0
 10
-137.4236
 20
-21.3842
 30
0.0
 10
-137.4236
 20
-21.3842
 30
0.0
 10
-137.4236
 20
-21.3842
 30
0.0
 10
-137.4236
 20
-21.357
 30
0.0
 10
-137.4236
 20
-21.357
 30
0.0
 10
-137.4236
 20
-21.357
 30
0.0
 10
-137.4236
 20
-21.2607
 30
0.0
 10
-137.4217
 20
-21.1644
 30
0.0
 10
-137.4189
 20
-21.0687
 30
0.0
 10
-137.4189
 20
-21.0687
 30
0.0
 10
-131.2495
 20
-19.2325
 30
0.0
 10
-129.6023
 20
-17.5989
 30
0.0
 10
-127.7685
 20
-11.4582
 30
0.0
 10
-127.7685
 20
-11.4582
 30
0.0
 10
-127.6865
 20
-11.4561
 30
0.0
 10
-127.6043
 20
-11.4554
 30
0.0
 10
-127.5214
 20
-11.4551
 30
0.0
  0
SPLINE
  5
6E
330
1F
100
AcDbEntity
  8
layer 1
 62
     7
100
AcDbSpline
210
0.0
220
0.0
230
1.0
 70
    11
 71
     3
 72
    36
 73
    32
 74
     0
 42
0.0000000001
 43
0.0000000001
 12
1.0
 22
0.0
 32
0.0
 13
1.0
 23
0.0
 33
0.0
 40
0.0
 40
0.0
 40
0.0
 40
0.0
 40
0.1111111111111111
 40
0.1111111111111111
 40
0.1111111111111111
 40
0.1111111111111111
 40
0.2222222222222222
 40
0.2222222222222222
 40
0.2222222222222222
 40
0.2222222222222222
 40
0.3333333333333333
 40
0.3333333333333333
 40
0.3333333333333333
 40
0.3333333333333333
 40
0.4444444444444444
 40
0.4444444444444444
 40
0.4444444444444444
 40
0.4444444444444444
 40
0.5555555555555556
 40
0.5555555555555556
 40
0.5555555555555556
 40
0.5555555555555556
 40
0.6666666666666666
 40
0.6666666666666666
 40
0.6666666666666666
 40
0.6666666666666666
 40
0.7777777777777778
 40
0.7777777777777778
 40
0.7777777777777778
 40
0.7777777777777778
 40
1.0
 40
1.0
 40
1.0
 40
1.0
 10
-98.7513
 20
-84.7276
 30
0.0
 10
-97.881
 20
-89.34
 30
0.0
 10
-95.1474
 20
-94.1368
 30
0.0
 10
-91.3483
 20
-98.0765
 30
0.0
 10
-91.3483
 20
-98.0765
 30
0.0
 10
-91.3483
 20
-98.0765
 30
0.0
 10
-92.6439
 20
-98.0765
 30
0.0
 10
-92.6439
 20
-98.0765
 30
0.0
 10
-92.6439
 20
-98.0765
 30
0.0
 10
-94.5712
 20
-96.6048
 30
0.0
 10
-96.9765
 20
-95.7312
 30
0.0
 10
-99.5867
 20
-95.7312
 30
0.0
 10
-99.5867
 20
-95.7312
 30
0.0
 10
-102.1966
 20
-95.7312
 30
0.0
 10
-104.6031
 20
-96.6048
 30
0.0
 10
-106.5301
 20
-98.0765
 30
0.0
 10
-106.5301
 20
-98.0765
 30
0.0
 10
-106.5301
 20
-98.0765
 30
0.0
 10
-106.9417
 20
-98.0765
 30
0.0
 10
-106.9417
 20
-98.0765
 30
0.0
 10
-106.9417
 20
-98.0765
 30
0.0
 10
-103.4102
 20
-94.5346
 30
0.0
 10
-101.0614
 20
-90.0919
 30
0.0
 10
-100.1933
 20
-84.6777
 30
0.0
 10
-100.1933
 20
-84.6777
 30
0.0
 10
-99.8867
 20
-84.7233
 30
0.0
 10
-99.5735
 20
-84.7481
 30
0.0
 10
-99.2546
 20
-84.7481
 30
0.0
 10
-99.2546
 20
-84.7481
 30
0.0
 10
-99.0843
 20
-84.7481
 30
0.0
 10
-98.9176
 20
-84.7407
 30
0.0
 10
-98.7513
 20
-84.7276
 30
0.0
  0
SPLINE
  5
6F
330
1F
100
AcDbEntity
  8
layer 1
 62
     7
100
AcDbSpline
210
0.0
220
0.0
230
1.0
 70
    11
 71
     3
 72
    16
 73
    12
 74
     0
 42
0.0000000001
 43
0.0000000001
 12
1.0
 22
0.0
 32
0.0
 13
1.0
 23
0.0
 33
0.0
 40
0.0
 40
0.0
 40
0.0
 40
0.0
 40
0.25
 40
0.25
 40
0.25
 40
0.25
 40
0.5
 40
0.5
 40
0.5
 40
0.5
 40
1.0
 40
1.0
 40
1.0
 40
1.0
 10
-104.4716
 20
-98.922
 30
0.0
 10
-103.5668
 20
-98.3193
 30
0.0
 10
-102.5568
 20
-97.8603
 30
0.0
 10
-101.4758
 20
-97.5811
 30
0.0
 10
-101.4758
 20
-97.5811
 30
0.0
 10
-101.5813
 20
-98.041
 30
0.0
 10
-101.7202
 20
-98.4894
 30
0.0
 10
-101.888
 20
-98.922
 30
0.0
 10
-101.888
 20
-98.922
 30
0.0
 10
-101.888
 20
-98.922
 30
0.0
 10
-104.4716
 20
-98.922
 30
0.0
 10
-104.4716
 20
-98.922
 30
0.0
  0
SPLINE
  5
70
330
1F
100
AcDbEntity
  8
layer 1
 62
     7
100
AcDbSpline
210
0.0
220
0.0
230
1.0
 70
    11
 71
     3
 72
    16
 73
    12
 74
     0
 42
0.0000000001
 43
0.0000000001
 12
1.0
 22
0.0
 32
0.0
 13
1.0
 23
0.0
 33
0.0
 40
0.0
 40
0.0
 40
0.0
 40
0.0
 40
0.25
 40
0.25
 40
0.25
 40
0.25
 40
0.5
 40
0.5
 40
0.5
 40
0.5
 40
1.0
 40
1.0
 40
1.0
 40
1.0
 10
-96.9426
 20
-97.4796
 30
0.0
 10
-95.6962
 20
-97.742
 30
0.0
 10
-94.5373
 20
-98.2386
 30
0.0
 10
-93.5117
 20
-98.922
 30
0.0
 10
-93.5117
 20
-98.922
 30
0.0
 10
-93.5117
 20
-98.922
 30
0.0
 10
-96.5524
 20
-98.922
 30
0.0
 10
-96.5524
 20
-98.922
 30
0.0
 10
-96.5524
 20
-98.922
 30
0.0
 10
-96.7172
 20
-98.456
 30
0.0
 10
-96.8493
 20
-97.9747
 30
0.0
 10
-96.9426
 20
-97.4796
 30
0.0
  0
SPLINE
  5
71
330
1F
100
AcDbEntity
  8
layer 1
 62
     7
100
AcDbSpline
210
0.0
220
0.0
230
1.0
 70
    11
 71
     3
 72
    24
 73
    20
 74
     0
 42
0.0000000001
 43
0.0000000001
 12
1.0
 22
0.0
 32
0.0
 13
1.0
 23
0.0
 33
0.0
 40
0.0
 40
0.0
 40
0.0
 40
0.0
 40
0.1666666666666667
 40
0.1666666666666667
 40
0.1666666666666667
 40
0.1666666666666667
 40
0.3333333333333333
 40
0.3333333333333333
 40
0.3333333333333333
 40
0.3333333333333333
 40
0.5
 40
0.5
 40
0.5
 40
0.5
 40
0.6666666666666666
 40
0.6666666666666666
 40
0.6666666666666666
 40
0.6666666666666666
 40
1.0
 40
1.0
 40
1.0
 40
1.0
 10
-98.991
 20
-97.2668
 30
0.0
 10
-98.991
 20
-97.2668
 30
0.0
 10
-98.8883
 20
-97.2681
 30
0.0
 10
-98.8883
 20
-97.2681
 30
0.0
 10
-98.8883
 20
-97.2681
 30
0.0
 10
-98.7119
 20
-97.86
 30
0.0
 10
-98.5376
 20
-98.4092
 30
0.0
 10
-98.3599
 20
-98.922
 30
0.0
 10
-98.3599
 20
-98.922
 30
0.0
 10
-98.3599
 20
-98.922
 30
0.0
 10
-99.7665
 20
-98.922
 30
0.0
 10
-99.7665
 20
-98.922
 30
0.0
 10
-99.7665
 20
-98.922
 30
0.0
 10
-99.5886
 20
-98.4098
 30
0.0
 10
-99.4146
 20
-97.8612
 30
0.0
 10
-99.2381
 20
-97.2699
 30
0.0
 10
-99.2381
 20
-97.2699
 30
0.0
 10
-99.1561
 20
-97.2677
 30
0.0
 10
-99.0739
 20
-97.2668
 30
0.0
 10
-98.991
 20
-97.2668
 30
0.0
  0
SPLINE
  5
72
330
1F
100
AcDbEntity
  8
layer 1
 62
     7
100
AcDbSpline
210
0.0
220
0.0
230
1.0
 70
    11
 71
     3
 72
    16
 73
    12
 74
     0
 42
0.0000000001
 43
0.0000000001
 12
1.0
 22
0.0
 32
0.0
 13
1.0
 23
0.0
 33
0.0
 40
0.0
 40
0.0
 40
0.0
 40
0.0
 40
0.25
 40
0.25
 40
0.25
 40
0.25
 40
0.5
 40
0.5
 40
0.5
 40
0.5
 40
1.0
 40
1.0
 40
1.0
 40
1.0
 10
-70.5279
 20
-53.4464
 30
0.0
 10
-72.04
 20
-53.1107
 30
0.0
 10
-73.172
 20
-51.7618
 30
0.0
 10
-73.172
 20
-50.1488
 30
0.0
 10
-73.172
 20
-50.1488
 30
0.0
 10
-73.1717
 20
-48.5355
 30
0.0
 10
-72.0404
 20
-47.1858
 30
0.0
 10
-70.5282
 20
-46.85
 30
0.0
 10
-70.5282
 20
-46.85
 30
0.0
 10
-70.5282
 20
-46.85
 30
0.0
 10
-70.5279
 20
-53.4464
 30
0.0
 10
-70.5279
 20
-53.4464
 30
0.0
  0
SPLINE
  5
73
330
1F
100
AcDbEntity
  8
layer 1
 62
     7
100
AcDbSpline
210
0.0
220
0.0
230
1.0
 70
    11
 71
     3
 72
    40
 73
    36
 74
     0
 42
0.0000000001
 43
0.0000000001
 12
1.0
 22
0.0
 32
0.0
 13
1.0
 23
0.0
 33
0.0
 40
0.0
 40
0.0
 40
0.0
 40
0.0
 40
0.1
 40
0.1
 40
0.1
 40
0.1
 40
0.2
 40
0.2
 40
0.2
 40
0.2
 40
0.3
 40
0.3
 40
0.3
 40
0.3
 40
0.4
 40
0.4
 40
0.4
 40
0.4
 40
0.5
 40
0.5
 40
0.5
 40
0.5
 40
0.6
 40
0.6
 40
0.6
 40
0.6
 40
0.7
 40
0.7
 40
0.7
 40
0.7
 40
0.8
 40
0.8
 40
0.8
 40
0.8
 40
1.0
 40
1.0
 40
1.0
 40
1.0
 10
-71.648
 20
-98.0585
 30
0.0
 10
-76.006
 20
-87.5194
 30
0.0
 10
-80.6661
 20
-83.5616
 30
0.0
 10
-92.6118
 20
-79.1841
 30
0.0
 10
-92.6118
 20
-79.1841
 30
0.0
 10
-92.5932
 20
-78.9896
 30
0.0
 10
-92.5852
 20
-78.7795
 30
0.0
 10
-92.5852
 20
-78.5768
 30
0.0
 10
-92.5852
 20
-78.5768
 30
0.0
 10
-92.5852
 20
-78.4071
 30
0.0
 10
-92.5852
 20
-78.2407
 30
0.0
 10
-92.5996
 20
-78.0774
 30
0.0
 10
-92.5996
 20
-78.0774
 30
0.0
 10
-81.5593
 20
-74.6741
 30
0.0
 10
-75.3632
 20
-68.6814
 30
0.0
 10
-70.5282
 20
-56.3342
 30
0.0
 10
-70.5282
 20
-56.3342
 30
0.0
 10
-70.5282
 20
-56.3342
 30
0.0
 10
-70.5279
 20
-67.3035
 30
0.0
 10
-70.5279
 20
-67.3035
 30
0.0
 10
-70.5279
 20
-67.3035
 30
0.0
 10
-76.551
 20
-67.6399
 30
0.0
 10
-81.3358
 20
-72.633
 30
0.0
 10
-81.3358
 20
-78.7401
 30
0.0
 10
-81.3358
 20
-78.7401
 30
0.0
 10
-81.3351
 20
-84.8469
 30
0.0
 10
-76.5512
 20
-89.8406
 30
0.0
 10
-70.5282
 20
-90.177
 30
0.0
 10
-70.5282
 20
-90.177
 30
0.0
 10
-70.5282
 20
-90.177
 30
0.0
 10
-70.5279
 20
-98.0585
 30
0.0
 10
-70.5279
 20
-98.0585
 30
0.0
 10
-70.5279
 20
-98.0585
 30
0.0
 10
-70.5279
 20
-98.0585
 30
0.0
 10
-71.648
 20
-98.0585
 30
0.0
 10
-71.648
 20
-98.0585
 30
0.0
  0
SPLINE
  5
74
330
1F
100
AcDbEntity
  8
layer 1
 62
     7
100
AcDbSpline
210
0.0
220
0.0
230
1.0
 70
    11
 71
     3
 72
    12
 73
     8
 74
     0
 42
0.0000000001
 43
0.0000000001
 12
1.0
 22
0.0
 32
0.0
 13
1.0
 23
0.0
 33
0.0
 40
0.0
 40
0.0
 40
0.0
 40
0.0
 40
0.3333333333333333
 40
0.3333333333333333
 40
0.3333333333333333
 40
0.3333333333333333
 40
1.0
 40
1.0
 40
1.0
 40
1.0
 10
-79.5167
 20
-76.4614
 30
0.0
 10
-78.6758
 20
-72.8926
 30
0.0
 10
-75.9042
 20
-70.0674
 30
0.0
 10
-72.3644
 20
-69.1522
 30
0.0
 10
-72.3644
 20
-69.1522
 30
0.0
 10
-73.1861
 20
-72.7314
 30
0.0
 10
-75.9675
 20
-75.5639
 30
0.0
 10
-79.5167
 20
-76.4614
 30
0.0
  0
SPLINE
  5
75
330
1F
100
AcDbEntity
  8
layer 1
 62
     7
100
AcDbSpline
210
0.0
220
0.0
230
1.0
 70
    11
 71
     3
 72
    12
 73
     8
 74
     0
 42
0.0000000001
 43
0.0000000001
 12
1.0
 22
0.0
 32
0.0
 13
1.0
 23
0.0
 33
0.0
 40
0.0
 40
0.0
 40
0.0
 40
0.0
 40
0.3333333333333333
 40
0.3333333333333333
 40
0.3333333333333333
 40
0.3333333333333333
 40
1.0
 40
1.0
 40
1.0
 40
1.0
 10
-71.9033
 20
-88.434
 30
0.0
 10
-75.746
 20
-87.635
 30
0.0
 10
-78.7746
 20
-84.6071
 30
0.0
 10
-79.5735
 20
-80.7644
 30
0.0
 10
-79.5735
 20
-80.7644
 30
0.0
 10
-75.7183
 20
-81.5414
 30
0.0
 10
-72.6809
 20
-84.5793
 30
0.0
 10
-71.9033
 20
-88.434
 30
0.0
  0
SPLINE
  5
76
330
1F
100
AcDbEntity
  8
layer 1
 62
     7
100
AcDbSpline
210
0.0
220
0.0
230
1.0
 70
    11
 71
     3
 72
    24
 73
    20
 74
     0
 42
0.0000000001
 43
0.0000000001
 12
1.0
 22
0.0
 32
0.0
 13
1.0
 23
0.0
 33
0.0
 40
0.0
 40
0.0
 40
0.0
 40
0.0
 40
0.1666666666666667
 40
0.1666666666666667
 40
0.1666666666666667
 40
0.1666666666666667
 40
0.3333333333333333
 40
0.3333333333333333
 40
0.3333333333333333
 40
0.3333333333333333
 40
0.5
 40
0.5
 40
0.5
 40
0.5
 40
0.6666666666666666
 40
0.6666666666666666
 40
0.6666666666666666
 40
0.6666666666666666
 40
1.0
 40
1.0
 40
1.0
 40
1.0
 10
-70.5279
 20
-87.0996
 30
0.0
 10
-72.2256
 20
-81.9954
 30
0.0
 10
-74.0613
 20
-80.4684
 30
0.0
 10
-79.7818
 20
-78.767
 30
0.0
 10
-79.7818
 20
-78.767
 30
0.0
 10
-79.7818
 20
-78.767
 30
0.0
 10
-79.7818
 20
-78.7401
 30
0.0
 10
-79.7818
 20
-78.7401
 30
0.0
 10
-79.7818
 20
-78.7401
 30
0.0
 10
-79.7818
 20
-78.6438
 30
0.0
 10
-79.7799
 20
-78.5471
 30
0.0
 10
-79.7772
 20
-78.4515
 30
0.0
 10
-79.7772
 20
-78.4515
 30
0.0
 10
-74.06
 20
-76.7498
 30
0.0
 10
-72.2259
 20
-75.2211
 30
0.0
 10
-70.5282
 20
-70.1182
 30
0.0
 10
-70.5282
 20
-70.1182
 30
0.0
 10
-70.5282
 20
-70.1182
 30
0.0
 10
-70.5279
 20
-87.0996
 30
0.0
 10
-70.5279
 20
-87.0996
 30
0.0
  0
SPLINE
  5
77
330
1F
100
AcDbEntity
  8
layer 1
 62
     7
100
AcDbSpline
210
0.0
220
0.0
230
1.0
 70
    11
 71
     3
 72
    20
 73
    16
 74
     0
 42
0.0000000001
 43
0.0000000001
 12
1.0
 22
0.0
 32
0.0
 13
1.0
 23
0.0
 33
0.0
 40
0.0
 40
0.0
 40
0.0
 40
0.0
 40
0.2
 40
0.2
 40
0.2
 40
0.2
 40
0.4
 40
0.4
 40
0.4
 40
0.4
 40
0.6
 40
0.6
 40
0.6
 40
0.6
 40
1.0
 40
1.0
 40
1.0
 40
1.0
 10
-95.422
 20
-73.2403
 30
0.0
 10
-93.3267
 20
-63.2021
 30
0.0
 10
-85.4202
 20
-55.2933
 30
0.0
 10
-75.3828
 20
-53.1953
 30
0.0
 10
-75.3828
 20
-53.1953
 30
0.0
 10
-74.8046
 20
-54.1123
 30
0.0
 10
-73.9977
 20
-54.8704
 30
0.0
 10
-73.0417
 20
-55.3899
 30
0.0
 10
-73.0417
 20
-55.3899
 30
0.0
 10
-77.2499
 20
-66.4085
 30
0.0
 10
-82.2706
 20
-71.3408
 30
0.0
 10
-93.4466
 20
-75.5285
 30
0.0
 10
-93.4466
 20
-75.5285
 30
0.0
 10
-93.9117
 20
-74.6154
 30
0.0
 10
-94.5932
 20
-73.8305
 30
0.0
 10
-95.422
 20
-73.2403
 30
0.0
  0
SPLINE
  5
78
330
1F
100
AcDbEntity
  8
layer 1
 62
     7
100
AcDbSpline
210
0.0
220
0.0
230
1.0
 70
    11
 71
     3
 72
    20
 73
    16
 74
     0
 42
0.0000000001
 43
0.0000000001
 12
1.0
 22
0.0
 32
0.0
 13
1.0
 23
0.0
 33
0.0
 40
0.0
 40
0.0
 40
0.0
 40
0.0
 40
0.2
 40
0.2
 40
0.2
 40
0.2
 40
0.4
 40
0.4
 40
0.4
 40
0.4
 40
0.6
 40
0.6
 40
0.6
 40
0.6
 40
1.0
 40
1.0
 40
1.0
 40
1.0
 10
-87.3205
 20
-97.8783
 30
0.0
 10
-91.4364
 20
-94.198
 30
0.0
 10
-94.3716
 20
-89.2226
 30
0.0
 10
-95.4812
 20
-83.5937
 30
0.0
 10
-95.4812
 20
-83.5937
 30
0.0
 10
-94.6544
 20
-83.0195
 30
0.0
 10
-93.9716
 20
-82.2535
 30
0.0
 10
-93.4967
 20
-81.3603
 30
0.0
 10
-93.4967
 20
-81.3603
 30
0.0
 10
-83.6004
 20
-85.0612
 30
0.0
 10
-78.522
 20
-89.3372
 30
0.0
 10
-74.5676
 20
-97.8783
 30
0.0
 10
-74.5676
 20
-97.8783
 30
0.0
 10
-74.5676
 20
-97.8783
 30
0.0
 10
-87.3205
 20
-97.8783
 30
0.0
 10
-87.3205
 20
-97.8783
 30
0.0
  0
SPLINE
  5
79
330
1F
100
AcDbEntity
  8
layer 1
 62
     7
100
AcDbSpline
210
0.0
220
0.0
230
1.0
 70
    11
 71
     3
 72
    16
 73
    12
 74
     0
 42
0.0000000001
 43
0.0000000001
 12
1.0
 22
0.0
 32
0.0
 13
1.0
 23
0.0
 33
0.0
 40
0.0
 40
0.0
 40
0.0
 40
0.0
 40
0.25
 40
0.25
 40
0.25
 40
0.25
 40
0.5
 40
0.5
 40
0.5
 40
0.5
 40
1.0
 40
1.0
 40
1.0
 40
1.0
 10
-183.7499
 20
-46.9736
 30
0.0
 10
-182.8105
 20
-47.5738
 30
0.0
 10
-182.1874
 20
-48.6263
 30
0.0
 10
-182.1874
 20
-49.8238
 30
0.0
 10
-182.1874
 20
-49.8238
 30
0.0
 10
-182.187
 20
-51.0213
 30
0.0
 10
-182.8111
 20
-52.0725
 30
0.0
 10
-183.7505
 20
-52.6728
 30
0.0
 10
-183.7505
 20
-52.6728
 30
0.0
 10
-183.7505
 20
-52.6728
 30
0.0
 10
-183.7499
 20
-46.9736
 30
0.0
 10
-183.7499
 20
-46.9736
 30
0.0
  0
SPLINE
  5
7A
330
1F
100
AcDbEntity
  8
layer 1
 62
     7
100
AcDbSpline
210
0.0
220
0.0
230
1.0
 70
    11
 71
     3
 72
    36
 73
    32
 74
     0
 42
0.0000000001
 43
0.0000000001
 12
1.0
 22
0.0
 32
0.0
 13
1.0
 23
0.0
 33
0.0
 40
0.0
 40
0.0
 40
0.0
 40
0.0
 40
0.1111111111111111
 40
0.1111111111111111
 40
0.1111111111111111
 40
0.1111111111111111
 40
0.2222222222222222
 40
0.2222222222222222
 40
0.2222222222222222
 40
0.2222222222222222
 40
0.3333333333333333
 40
0.3333333333333333
 40
0.3333333333333333
 40
0.3333333333333333
 40
0.4444444444444444
 40
0.4444444444444444
 40
0.4444444444444444
 40
0.4444444444444444
 40
0.5555555555555556
 40
0.5555555555555556
 40
0.5555555555555556
 40
0.5555555555555556
 40
0.6666666666666666
 40
0.6666666666666666
 40
0.6666666666666666
 40
0.6666666666666666
 40
0.7777777777777778
 40
0.7777777777777778
 40
0.7777777777777778
 40
0.7777777777777778
 40
1.0
 40
1.0
 40
1.0
 40
1.0
 10
-183.7499
 20
-58.7053
 30
0.0
 10
-179.4126
 20
-69.2736
 30
0.0
 10
-174.8158
 20
-73.2819
 30
0.0
 10
-163.0643
 20
-77.6255
 30
0.0
 10
-163.0643
 20
-77.6255
 30
0.0
 10
-163.0955
 20
-77.882
 30
0.0
 10
-163.1132
 20
-78.1863
 30
0.0
 10
-163.1132
 20
-78.4175
 30
0.0
 10
-163.1132
 20
-78.4175
 30
0.0
 10
-163.1132
 20
-78.6483
 30
0.0
 10
-163.1255
 20
-78.5175
 30
0.0
 10
-163.1084
 20
-78.7082
 30
0.0
 10
-163.1084
 20
-78.7082
 30
0.0
 10
-174.8794
 20
-81.4392
 30
0.0
 10
-181.4131
 20
-88.9296
 30
0.0
 10
-183.7505
 20
-97.9154
 30
0.0
 10
-183.7505
 20
-97.9154
 30
0.0
 10
-183.7505
 20
-97.9154
 30
0.0
 10
-183.7499
 20
-89.7118
 30
0.0
 10
-183.7499
 20
-89.7118
 30
0.0
 10
-183.7499
 20
-89.7118
 30
0.0
 10
-178.6124
 20
-88.6878
 30
0.0
 10
-174.6666
 20
-83.476
 30
0.0
 10
-174.1981
 20
-78.4151
 30
0.0
 10
-174.1981
 20
-78.4151
 30
0.0
 10
-173.7293
 20
-73.354
 30
0.0
 10
-178.3314
 20
-66.9433
 30
0.0
 10
-183.7505
 20
-66.0361
 30
0.0
 10
-183.7505
 20
-66.0361
 30
0.0
 10
-183.7505
 20
-66.0361
 30
0.0
 10
-183.7499
 20
-58.7053
 30
0.0
 10
-183.7499
 20
-58.7053
 30
0.0
  0
SPLINE
  5
7B
330
1F
100
AcDbEntity
  8
layer 1
 62
     7
100
AcDbSpline
210
0.0
220
0.0
230
1.0
 70
    11
 71
     3
 72
    12
 73
     8
 74
     0
 42
0.0000000001
 43
0.0000000001
 12
1.0
 22
0.0
 32
0.0
 13
1.0
 23
0.0
 33
0.0
 40
0.0
 40
0.0
 40
0.0
 40
0.0
 40
0.3333333333333333
 40
0.3333333333333333
 40
0.3333333333333333
 40
0.3333333333333333
 40
1.0
 40
1.0
 40
1.0
 40
1.0
 10
-183.8465
 20
-68.5588
 30
0.0
 10
-179.9787
 20
-69.3733
 30
0.0
 10
-176.9413
 20
-72.4467
 30
0.0
 10
-176.1796
 20
-76.3341
 30
0.0
 10
-176.1796
 20
-76.3341
 30
0.0
 10
-180.0588
 20
-75.5416
 30
0.0
 10
-183.1074
 20
-72.4575
 30
0.0
 10
-183.8465
 20
-68.5588
 30
0.0
  0
SPLINE
  5
7C
330
1F
100
AcDbEntity
  8
layer 1
 62
     7
100
AcDbSpline
210
0.0
220
0.0
230
1.0
 70
    11
 71
     3
 72
    12
 73
     8
 74
     0
 42
0.0000000001
 43
0.0000000001
 12
1.0
 22
0.0
 32
0.0
 13
1.0
 23
0.0
 33
0.0
 40
0.0
 40
0.0
 40
0.0
 40
0.0
 40
0.3333333333333333
 40
0.3333333333333333
 40
0.3333333333333333
 40
0.3333333333333333
 40
1.0
 40
1.0
 40
1.0
 40
1.0
 10
-176.2344
 20
-80.4225
 30
0.0
 10
-177.1049
 20
-84.3001
 30
0.0
 10
-180.2514
 20
-87.3197
 30
0.0
 10
-184.1963
 20
-88.0031
 30
0.0
 10
-184.1963
 20
-88.0031
 30
0.0
 10
-183.3484
 20
-84.1126
 30
0.0
 10
-180.1915
 20
-81.083
 30
0.0
 10
-176.2344
 20
-80.4225
 30
0.0
  0
SPLINE
  5
7D
330
1F
100
AcDbEntity
  8
layer 1
 62
     7
100
AcDbSpline
210
0.0
220
0.0
230
1.0
 70
    11
 71
     3
 72
    20
 73
    16
 74
     0
 42
0.0000000001
 43
0.0000000001
 12
1.0
 22
0.0
 32
0.0
 13
1.0
 23
0.0
 33
0.0
 40
0.0
 40
0.0
 40
0.0
 40
0.0
 40
0.2
 40
0.2
 40
0.2
 40
0.2
 40
0.4
 40
0.4
 40
0.4
 40
0.4
 40
0.6
 40
0.6
 40
0.6
 40
0.6
 40
1.0
 40
1.0
 40
1.0
 40
1.0
 10
-183.8052
 20
-72.5819
 30
0.0
 10
-182.2913
 20
-75.2232
 30
0.0
 10
-180.1566
 20
-76.3895
 30
0.0
 10
-175.8106
 20
-77.6713
 30
0.0
 10
-175.8106
 20
-77.6713
 30
0.0
 10
-175.8084
 20
-77.7482
 30
0.0
 10
-175.8075
 20
-77.8246
 30
0.0
 10
-175.8072
 20
-77.9016
 30
0.0
 10
-175.8072
 20
-77.9016
 30
0.0
 10
-180.156
 20
-79.1831
 30
0.0
 10
-182.291
 20
-80.3482
 30
0.0
 10
-183.8055
 20
-82.9907
 30
0.0
 10
-183.8055
 20
-82.9907
 30
0.0
 10
-183.8055
 20
-82.9907
 30
0.0
 10
-183.8052
 20
-72.5819
 30
0.0
 10
-183.8052
 20
-72.5819
 30
0.0
  0
SPLINE
  5
7E
330
1F
100
AcDbEntity
  8
layer 1
 62
     7
100
AcDbSpline
210
0.0
220
0.0
230
1.0
 70
    11
 71
     3
 72
    20
 73
    16
 74
     0
 42
0.0000000001
 43
0.0000000001
 12
1.0
 22
0.0
 32
0.0
 13
1.0
 23
0.0
 33
0.0
 40
0.0
 40
0.0
 40
0.0
 40
0.0
 40
0.2
 40
0.2
 40
0.2
 40
0.2
 40
0.4
 40
0.4
 40
0.4
 40
0.4
 40
0.6
 40
0.6
 40
0.6
 40
0.6
 40
1.0
 40
1.0
 40
1.0
 40
1.0
 10
-160.8214
 20
-83.3277
 30
0.0
 10
-162.0008
 20
-89.026
 30
0.0
 10
-165.0534
 20
-94.0396
 30
0.0
 10
-169.3044
 20
-97.6983
 30
0.0
 10
-169.3044
 20
-97.6983
 30
0.0
 10
-169.3044
 20
-97.6983
 30
0.0
 10
-181.6244
 20
-97.6983
 30
0.0
 10
-181.6244
 20
-97.6983
 30
0.0
 10
-181.6244
 20
-97.6983
 30
0.0
 10
-177.6991
 20
-89.0504
 30
0.0
 10
-172.6986
 20
-84.7141
 30
0.0
 10
-162.9286
 20
-80.9991
 30
0.0
 10
-162.9286
 20
-80.9991
 30
0.0
 10
-162.431
 20
-81.9407
 30
0.0
 10
-161.7045
 20
-82.7424
 30
0.0
 10
-160.8214
 20
-83.3277
 30
0.0
  0
SPLINE
  5
7F
330
1F
100
AcDbEntity
  8
layer 1
 62
     7
100
AcDbSpline
210
0.0
220
0.0
230
1.0
 70
    11
 71
     3
 72
    20
 73
    16
 74
     0
 42
0.0000000001
 43
0.0000000001
 12
1.0
 22
0.0
 32
0.0
 13
1.0
 23
0.0
 33
0.0
 40
0.0
 40
0.0
 40
0.0
 40
0.0
 40
0.2
 40
0.2
 40
0.2
 40
0.2
 40
0.4
 40
0.4
 40
0.4
 40
0.4
 40
0.6
 40
0.6
 40
0.6
 40
0.6
 40
1.0
 40
1.0
 40
1.0
 40
1.0
 10
-180.8186
 20
-52.7015
 30
0.0
 10
-170.7914
 20
-54.819
 30
0.0
 10
-162.2403
 20
-61.7386
 30
0.0
 10
-160.3673
 20
-72.4581
 30
0.0
 10
-160.3673
 20
-72.4581
 30
0.0
 10
-161.1951
 20
-73.0069
 30
0.0
 10
-162.3411
 20
-74.0677
 30
0.0
 10
-162.8334
 20
-74.934
 30
0.0
 10
-162.8334
 20
-74.934
 30
0.0
 10
-173.8673
 20
-70.7555
 30
0.0
 10
-178.8448
 20
-65.804
 30
0.0
 10
-183.0286
 20
-54.8151
 30
0.0
 10
-183.0286
 20
-54.8151
 30
0.0
 10
-182.1304
 20
-54.3007
 30
0.0
 10
-181.3715
 20
-53.5733
 30
0.0
 10
-180.8186
 20
-52.7015
 30
0.0
  0
SPLINE
  5
80
330
1F
100
AcDbEntity
  8
layer 1
 62
     7
100
AcDbSpline
210
0.0
220
0.0
230
1.0
 70
    11
 71
     3
 72
    20
 73
    16
 74
     0
 42
0.0000000001
 43
0.0000000001
 12
1.0
 22
0.0
 32
0.0
 13
1.0
 23
0.0
 33
0.0
 40
0.0
 40
0.0
 40
0.0
 40
0.0
 40
0.2
 40
0.2
 40
0.2
 40
0.2
 40
0.4
 40
0.4
 40
0.4
 40
0.4
 40
0.6
 40
0.6
 40
0.6
 40
0.6
 40
1.0
 40
1.0
 40
1.0
 40
1.0
 10
-156.9676
 20
-74.5872
 30
0.0
 10
-155.1018
 20
-74.5872
 30
0.0
 10
-153.5888
 20
-76.1005
 30
0.0
 10
-153.5888
 20
-77.9664
 30
0.0
 10
-153.5888
 20
-77.9664
 30
0.0
 10
-153.5885
 20
-79.832
 30
0.0
 10
-155.1021
 20
-81.3453
 30
0.0
 10
-156.968
 20
-81.3453
 30
0.0
 10
-156.968
 20
-81.3453
 30
0.0
 10
-158.8335
 20
-81.3453
 30
0.0
 10
-160.3468
 20
-79.832
 30
0.0
 10
-160.3468
 20
-77.9664
 30
0.0
 10
-160.3468
 20
-77.9664
 30
0.0
 10
-160.3468
 20
-76.1005
 30
0.0
 10
-158.8338
 20
-74.5872
 30
0.0
 10
-156.9676
 20
-74.5872
 30
0.0
  0
SPLINE
  5
81
330
1F
100
AcDbEntity
  8
layer 1
 62
     7
100
AcDbSpline
210
0.0
220
0.0
230
1.0
 70
    11
 71
     3
 72
    20
 73
    16
 74
     0
 42
0.0000000001
 43
0.0000000001
 12
1.0
 22
0.0
 32
0.0
 13
1.0
 23
0.0
 33
0.0
 40
0.0
 40
0.0
 40
0.0
 40
0.0
 40
0.2
 40
0.2
 40
0.2
 40
0.2
 40
0.4
 40
0.4
 40
0.4
 40
0.4
 40
0.6
 40
0.6
 40
0.6
 40
0.6
 40
1.0
 40
1.0
 40
1.0
 40
1.0
 10
-127.6792
 20
-46.6073
 30
0.0
 10
-125.8133
 20
-46.6073
 30
0.0
 10
-124.3006
 20
-48.1206
 30
0.0
 10
-124.3006
 20
-49.9862
 30
0.0
 10
-124.3006
 20
-49.9862
 30
0.0
 10
-124.3
 20
-51.852
 30
0.0
 10
-125.814
 20
-53.3653
 30
0.0
 10
-127.6798
 20
-53.3653
 30
0.0
 10
-127.6798
 20
-53.3653
 30
0.0
 10
-129.5451
 20
-53.3653
 30
0.0
 10
-131.0587
 20
-51.852
 30
0.0
 10
-131.0587
 20
-49.9862
 30
0.0
 10
-131.0587
 20
-49.9862
 30
0.0
 10
-131.0584
 20
-48.1206
 30
0.0
 10
-129.5454
 20
-46.6073
 30
0.0
 10
-127.6792
 20
-46.6073
 30
0.0
  0
SPLINE
  5
82
330
1F
100
AcDbEntity
  8
layer 1
 62
     7
100
AcDbSpline
210
0.0
220
0.0
230
1.0
 70
    11
 71
     3
 72
    20
 73
    16
 74
     0
 42
0.0000000001
 43
0.0000000001
 12
1.0
 22
0.0
 32
0.0
 13
1.0
 23
0.0
 33
0.0
 40
0.0
 40
0.0
 40
0.0
 40
0.0
 40
0.2
 40
0.2
 40
0.2
 40
0.2
 40
0.4
 40
0.4
 40
0.4
 40
0.4
 40
0.6
 40
0.6
 40
0.6
 40
0.6
 40
1.0
 40
1.0
 40
1.0
 40
1.0
 10
-127.7666
 20
-67.1219
 30
0.0
 10
-121.4421
 20
-67.1219
 30
0.0
 10
-116.3114
 20
-72.2532
 30
0.0
 10
-116.3114
 20
-78.5774
 30
0.0
 10
-116.3114
 20
-78.5774
 30
0.0
 10
-116.3111
 20
-84.9019
 30
0.0
 10
-121.4425
 20
-90.0332
 30
0.0
 10
-127.7666
 20
-90.0332
 30
0.0
 10
-127.7666
 20
-90.0332
 30
0.0
 10
-134.0911
 20
-90.0332
 30
0.0
 10
-139.2225
 20
-84.9019
 30
0.0
 10
-139.2225
 20
-78.5774
 30
0.0
 10
-139.2225
 20
-78.5774
 30
0.0
 10
-139.2221
 20
-72.2532
 30
0.0
 10
-134.0914
 20
-67.1219
 30
0.0
 10
-127.7666
 20
-67.1219
 30
0.0
  0
SPLINE
  5
83
330
1F
100
AcDbEntity
  8
layer 1
 62
     7
100
AcDbSpline
210
0.0
220
0.0
230
1.0
 70
    11
 71
     3
 72
    48
 73
    44
 74
     0
 42
0.0000000001
 43
0.0000000001
 12
1.0
 22
0.0
 32
0.0
 13
1.0
 23
0.0
 33
0.0
 40
0.0
 40
0.0
 40
0.0
 40
0.0
 40
0.0833333333333333
 40
0.0833333333333333
 40
0.0833333333333333
 40
0.0833333333333333
 40
0.1666666666666667
 40
0.1666666666666667
 40
0.1666666666666667
 40
0.1666666666666667
 40
0.25
 40
0.25
 40
0.25
 40
0.25
 40
0.3333333333333333
 40
0.3333333333333333
 40
0.3333333333333333
 40
0.3333333333333333
 40
0.4166666666666667
 40
0.4166666666666667
 40
0.4166666666666667
 40
0.4166666666666667
 40
0.5
 40
0.5
 40
0.5
 40
0.5
 40
0.5833333333333334
 40
0.5833333333333334
 40
0.5833333333333334
 40
0.5833333333333334
 40
0.6666666666666666
 40
0.6666666666666666
 40
0.6666666666666666
 40
0.6666666666666666
 40
0.75
 40
0.75
 40
0.75
 40
0.75
 40
0.8333333333333334
 40
0.8333333333333334
 40
0.8333333333333334
 40
0.8333333333333334
 40
1.0
 40
1.0
 40
1.0
 40
1.0
 10
-126.9309
 20
-56.1186
 30
0.0
 10
-124.4718
 20
-66.5235
 30
0.0
 10
-116.9282
 20
-74.8613
 30
0.0
 10
-105.1798
 20
-77.7888
 30
0.0
 10
-105.1798
 20
-77.7888
 30
0.0
 10
-105.2119
 20
-78.0468
 30
0.0
 10
-105.2281
 20
-78.3108
 30
0.0
 10
-105.2281
 20
-78.5774
 30
0.0
 10
-105.2281
 20
-78.5774
 30
0.0
 10
-105.2274
 20
-78.7746
 30
0.0
 10
-105.2189
 20
-78.9691
 30
0.0
 10
-105.2015
 20
-79.1621
 30
0.0
 10
-105.2015
 20
-79.1621
 30
0.0
 10
-116.3268
 20
-82.2939
 30
0.0
 10
-123.0662
 20
-88.5832
 30
0.0
 10
-126.3736
 20
-98.922
 30
0.0
 10
-126.3736
 20
-98.922
 30
0.0
 10
-126.3736
 20
-98.922
 30
0.0
 10
-129.1203
 20
-98.922
 30
0.0
 10
-129.1203
 20
-98.922
 30
0.0
 10
-129.1203
 20
-98.922
 30
0.0
 10
-133.6053
 20
-87.6065
 30
0.0
 10
-138.1715
 20
-83.5341
 30
0.0
 10
-150.4964
 20
-79.0253
 30
0.0
 10
-150.4964
 20
-79.0253
 30
0.0
 10
-150.4768
 20
-78.8241
 30
0.0
 10
-150.4673
 20
-78.6211
 30
0.0
 10
-150.4673
 20
-78.4151
 30
0.0
 10
-150.4673
 20
-78.4151
 30
0.0
 10
-150.467
 20
-78.2466
 30
0.0
 10
-150.4734
 20
-78.0795
 30
0.0
 10
-150.4863
 20
-77.9144
 30
0.0
 10
-150.4863
 20
-77.9144
 30
0.0
 10
-138.1219
 20
-73.6742
 30
0.0
 10
-131.8607
 20
-66.3605
 30
0.0
 10
-128.373
 20
-56.0685
 30
0.0
 10
-128.373
 20
-56.0685
 30
0.0
 10
-128.0664
 20
-56.114
 30
0.0
 10
-127.7535
 20
-56.1388
 30
0.0
 10
-127.4343
 20
-56.1388
 30
0.0
 10
-127.4343
 20
-56.1388
 30
0.0
 10
-127.2648
 20
-56.1388
 30
0.0
 10
-127.0976
 20
-56.1315
 30
0.0
 10
-126.9309
 20
-56.1186
 30
0.0
  0
SPLINE
  5
84
330
1F
100
AcDbEntity
  8
layer 1
 62
     7
100
AcDbSpline
210
0.0
220
0.0
230
1.0
 70
    11
 71
     3
 72
    12
 73
     8
 74
     0
 42
0.0000000001
 43
0.0000000001
 12
1.0
 22
0.0
 32
0.0
 13
1.0
 23
0.0
 33
0.0
 40
0.0
 40
0.0
 40
0.0
 40
0.0
 40
0.3333333333333333
 40
0.3333333333333333
 40
0.3333333333333333
 40
0.3333333333333333
 40
1.0
 40
1.0
 40
1.0
 40
1.0
 10
-137.4037
 20
-76.2987
 30
0.0
 10
-136.5625
 20
-72.73
 30
0.0
 10
-133.7908
 20
-69.9051
 30
0.0
 10
-130.2514
 20
-68.9899
 30
0.0
 10
-130.2514
 20
-68.9899
 30
0.0
 10
-131.0731
 20
-72.5691
 30
0.0
 10
-133.8541
 20
-75.4016
 30
0.0
 10
-137.4037
 20
-76.2987
 30
0.0
  0
SPLINE
  5
85
330
1F
100
AcDbEntity
  8
layer 1
 62
     7
100
AcDbSpline
210
0.0
220
0.0
230
1.0
 70
    11
 71
     3
 72
    12
 73
     8
 74
     0
 42
0.0000000001
 43
0.0000000001
 12
1.0
 22
0.0
 32
0.0
 13
1.0
 23
0.0
 33
0.0
 40
0.0
 40
0.0
 40
0.0
 40
0.0
 40
0.3333333333333333
 40
0.3333333333333333
 40
0.3333333333333333
 40
0.3333333333333333
 40
1.0
 40
1.0
 40
1.0
 40
1.0
 10
-125.7182
 20
-68.8884
 30
0.0
 10
-121.8504
 20
-69.703
 30
0.0
 10
-118.8131
 20
-72.7764
 30
0.0
 10
-118.051
 20
-76.6638
 30
0.0
 10
-118.051
 20
-76.6638
 30
0.0
 10
-121.9305
 20
-75.8712
 30
0.0
 10
-124.9791
 20
-72.7871
 30
0.0
 10
-125.7182
 20
-68.8884
 30
0.0
  0
SPLINE
  5
86
330
1F
100
AcDbEntity
  8
layer 1
 62
     7
100
AcDbSpline
210
0.0
220
0.0
230
1.0
 70
    11
 71
     3
 72
    12
 73
     8
 74
     0
 42
0.0000000001
 43
0.0000000001
 12
1.0
 22
0.0
 32
0.0
 13
1.0
 23
0.0
 33
0.0
 40
0.0
 40
0.0
 40
0.0
 40
0.0
 40
0.3333333333333333
 40
0.3333333333333333
 40
0.3333333333333333
 40
0.3333333333333333
 40
1.0
 40
1.0
 40
1.0
 40
1.0
 10
-118.1061
 20
-80.7521
 30
0.0
 10
-118.9767
 20
-84.6298
 30
0.0
 10
-122.1231
 20
-87.6496
 30
0.0
 10
-126.068
 20
-88.3328
 30
0.0
 10
-126.068
 20
-88.3328
 30
0.0
 10
-125.2198
 20
-84.4423
 30
0.0
 10
-122.0632
 20
-81.4126
 30
0.0
 10
-118.1061
 20
-80.7521
 30
0.0
  0
SPLINE
  5
87
330
1F
100
AcDbEntity
  8
layer 1
 62
     7
100
AcDbSpline
210
0.0
220
0.0
230
1.0
 70
    11
 71
     3
 72
    12
 73
     8
 74
     0
 42
0.0000000001
 43
0.0000000001
 12
1.0
 22
0.0
 32
0.0
 13
1.0
 23
0.0
 33
0.0
 40
0.0
 40
0.0
 40
0.0
 40
0.0
 40
0.3333333333333333
 40
0.3333333333333333
 40
0.3333333333333333
 40
0.3333333333333333
 40
1.0
 40
1.0
 40
1.0
 40
1.0
 10
-129.7903
 20
-88.2716
 30
0.0
 10
-133.6331
 20
-87.4723
 30
0.0
 10
-136.6612
 20
-84.4448
 30
0.0
 10
-137.4605
 20
-80.602
 30
0.0
 10
-137.4605
 20
-80.602
 30
0.0
 10
-133.6053
 20
-81.379
 30
0.0
 10
-130.5679
 20
-84.4169
 30
0.0
 10
-129.7903
 20
-88.2716
 30
0.0
  0
SPLINE
  5
88
330
1F
100
AcDbEntity
  8
layer 1
 62
     7
100
AcDbSpline
210
0.0
220
0.0
230
1.0
 70
    11
 71
     3
 72
    48
 73
    44
 74
     0
 42
0.0000000001
 43
0.0000000001
 12
1.0
 22
0.0
 32
0.0
 13
1.0
 23
0.0
 33
0.0
 40
0.0
 40
0.0
 40
0.0
 40
0.0
 40
0.0833333333333333
 40
0.0833333333333333
 40
0.0833333333333333
 40
0.0833333333333333
 40
0.1666666666666667
 40
0.1666666666666667
 40
0.1666666666666667
 40
0.1666666666666667
 40
0.25
 40
0.25
 40
0.25
 40
0.25
 40
0.3333333333333333
 40
0.3333333333333333
 40
0.3333333333333333
 40
0.3333333333333333
 40
0.4166666666666667
 40
0.4166666666666667
 40
0.4166666666666667
 40
0.4166666666666667
 40
0.5
 40
0.5
 40
0.5
 40
0.5
 40
0.5833333333333334
 40
0.5833333333333334
 40
0.5833333333333334
 40
0.5833333333333334
 40
0.6666666666666666
 40
0.6666666666666666
 40
0.6666666666666666
 40
0.6666666666666666
 40
0.75
 40
0.75
 40
0.75
 40
0.75
 40
0.8333333333333334
 40
0.8333333333333334
 40
0.8333333333333334
 40
0.8333333333333334
 40
1.0
 40
1.0
 40
1.0
 40
1.0
 10
-127.7666
 20
-68.6755
 30
0.0
 10
-127.7666
 20
-68.6755
 30
0.0
 10
-127.6642
 20
-68.6768
 30
0.0
 10
-127.6642
 20
-68.6768
 30
0.0
 10
-127.6642
 20
-68.6768
 30
0.0
 10
-125.814
 20
-74.8668
 30
0.0
 10
-124.1563
 20
-76.4775
 30
0.0
 10
-117.8688
 20
-78.3319
 30
0.0
 10
-117.8688
 20
-78.3319
 30
0.0
 10
-117.8663
 20
-78.4086
 30
0.0
 10
-117.8657
 20
-78.4853
 30
0.0
 10
-117.8655
 20
-78.5621
 30
0.0
 10
-117.8655
 20
-78.5621
 30
0.0
 10
-124.2437
 20
-80.4415
 30
0.0
 10
-125.8592
 20
-82.0713
 30
0.0
 10
-127.7413
 20
-88.4789
 30
0.0
 10
-127.7413
 20
-88.4789
 30
0.0
 10
-127.7413
 20
-88.4789
 30
0.0
 10
-127.7666
 20
-88.4792
 30
0.0
 10
-127.7666
 20
-88.4792
 30
0.0
 10
-127.7666
 20
-88.4792
 30
0.0
 10
-127.7666
 20
-88.4792
 30
0.0
 10
-127.9361
 20
-88.4771
 30
0.0
 10
-127.9361
 20
-88.4771
 30
0.0
 10
-127.9361
 20
-88.4771
 30
0.0
 10
-129.8023
 20
-82.1186
 30
0.0
 10
-131.4091
 20
-80.4659
 30
0.0
 10
-137.6685
 20
-78.6046
 30
0.0
 10
-137.6685
 20
-78.6046
 30
0.0
 10
-137.6685
 20
-78.6046
 30
0.0
 10
-137.6688
 20
-78.5774
 30
0.0
 10
-137.6688
 20
-78.5774
 30
0.0
 10
-137.6688
 20
-78.5774
 30
0.0
 10
-137.6688
 20
-78.4811
 30
0.0
 10
-137.6667
 20
-78.3848
 30
0.0
 10
-137.6642
 20
-78.289
 30
0.0
 10
-137.6642
 20
-78.289
 30
0.0
 10
-131.4947
 20
-76.4528
 30
0.0
 10
-129.8472
 20
-74.8193
 30
0.0
 10
-128.0134
 20
-68.6786
 30
0.0
 10
-128.0134
 20
-68.6786
 30
0.0
 10
-127.9312
 20
-68.6765
 30
0.0
 10
-127.8492
 20
-68.6755
 30
0.0
 10
-127.7666
 20
-68.6755
 30
0.0
  0
SPLINE
  5
89
330
1F
100
AcDbEntity
  8
layer 1
 62
     7
100
AcDbSpline
210
0.0
220
0.0
230
1.0
 70
    11
 71
     3
 72
    20
 73
    16
 74
     0
 42
0.0000000001
 43
0.0000000001
 12
1.0
 22
0.0
 32
0.0
 13
1.0
 23
0.0
 33
0.0
 40
0.0
 40
0.0
 40
0.0
 40
0.0
 40
0.2
 40
0.2
 40
0.2
 40
0.2
 40
0.4
 40
0.4
 40
0.4
 40
0.4
 40
0.6
 40
0.6
 40
0.6
 40
0.6
 40
1.0
 40
1.0
 40
1.0
 40
1.0
 10
-153.1291
 20
-73.258
 30
0.0
 10
-151.0333
 20
-63.2198
 30
0.0
 10
-143.1267
 20
-55.3111
 30
0.0
 10
-133.0894
 20
-53.2128
 30
0.0
 10
-133.0894
 20
-53.2128
 30
0.0
 10
-132.5111
 20
-54.1298
 30
0.0
 10
-131.7042
 20
-54.8878
 30
0.0
 10
-130.7484
 20
-55.4074
 30
0.0
 10
-130.7484
 20
-55.4074
 30
0.0
 10
-134.9566
 20
-66.4262
 30
0.0
 10
-139.9772
 20
-71.3585
 30
0.0
 10
-151.1532
 20
-75.5462
 30
0.0
 10
-151.1532
 20
-75.5462
 30
0.0
 10
-151.6183
 20
-74.6331
 30
0.0
 10
-152.2999
 20
-73.8478
 30
0.0
 10
-153.1291
 20
-73.258
 30
0.0
  0
SPLINE
  5
8A
330
1F
100
AcDbEntity
  8
layer 1
 62
     7
100
AcDbSpline
210
0.0
220
0.0
230
1.0
 70
    11
 71
     3
 72
    20
 73
    16
 74
     0
 42
0.0000000001
 43
0.0000000001
 12
1.0
 22
0.0
 32
0.0
 13
1.0
 23
0.0
 33
0.0
 40
0.0
 40
0.0
 40
0.0
 40
0.0
 40
0.2
 40
0.2
 40
0.2
 40
0.2
 40
0.4
 40
0.4
 40
0.4
 40
0.4
 40
0.6
 40
0.6
 40
0.6
 40
0.6
 40
1.0
 40
1.0
 40
1.0
 40
1.0
 10
-144.8422
 20
-98.0585
 30
0.0
 10
-149.0552
 20
-94.3627
 30
0.0
 10
-152.0616
 20
-89.3244
 30
0.0
 10
-153.1879
 20
-83.6115
 30
0.0
 10
-153.1879
 20
-83.6115
 30
0.0
 10
-152.3617
 20
-83.0372
 30
0.0
 10
-151.6785
 20
-82.2712
 30
0.0
 10
-151.2037
 20
-81.3781
 30
0.0
 10
-151.2037
 20
-81.3781
 30
0.0
 10
-141.244
 20
-85.1021
 30
0.0
 10
-136.1619
 20
-89.4076
 30
0.0
 10
-132.1971
 20
-98.0585
 30
0.0
 10
-132.1971
 20
-98.0585
 30
0.0
 10
-132.1971
 20
-98.0585
 30
0.0
 10
-144.8422
 20
-98.0585
 30
0.0
 10
-144.8422
 20
-98.0585
 30
0.0
  0
SPLINE
  5
8B
330
1F
100
AcDbEntity
  8
layer 1
 62
     7
100
AcDbSpline
210
0.0
220
0.0
230
1.0
 70
    11
 71
     3
 72
    20
 73
    16
 74
     0
 42
0.0000000001
 43
0.0000000001
 12
1.0
 22
0.0
 32
0.0
 13
1.0
 23
0.0
 33
0.0
 40
0.0
 40
0.0
 40
0.0
 40
0.0
 40
0.2
 40
0.2
 40
0.2
 40
0.2
 40
0.4
 40
0.4
 40
0.4
 40
0.4
 40
0.6
 40
0.6
 40
0.6
 40
0.6
 40
1.0
 40
1.0
 40
1.0
 40
1.0
 10
-102.3944
 20
-83.8506
 30
0.0
 10
-103.5564
 20
-89.4648
 30
0.0
 10
-106.5368
 20
-94.4142
 30
0.0
 10
-110.6903
 20
-98.0585
 30
0.0
 10
-110.6903
 20
-98.0585
 30
0.0
 10
-110.6903
 20
-98.0585
 30
0.0
 10
-123.1228
 20
-98.0585
 30
0.0
 10
-123.1228
 20
-98.0585
 30
0.0
 10
-123.1228
 20
-98.0585
 30
0.0
 10
-120.967
 20
-89.1547
 30
0.0
 10
-114.2095
 20
-85.2135
 30
0.0
 10
-104.5016
 20
-81.5221
 30
0.0
 10
-104.5016
 20
-81.5221
 30
0.0
 10
-104.0043
 20
-82.4632
 30
0.0
 10
-103.2775
 20
-83.2653
 30
0.0
 10
-102.3944
 20
-83.8506
 30
0.0
  0
SPLINE
  5
8C
330
1F
100
AcDbEntity
  8
layer 1
 62
     7
100
AcDbSpline
210
0.0
220
0.0
230
1.0
 70
    11
 71
     3
 72
    20
 73
    16
 74
     0
 42
0.0000000001
 43
0.0000000001
 12
1.0
 22
0.0
 32
0.0
 13
1.0
 23
0.0
 33
0.0
 40
0.0
 40
0.0
 40
0.0
 40
0.0
 40
0.2
 40
0.2
 40
0.2
 40
0.2
 40
0.4
 40
0.4
 40
0.4
 40
0.4
 40
0.6
 40
0.6
 40
0.6
 40
0.6
 40
1.0
 40
1.0
 40
1.0
 40
1.0
 10
-122.3916
 20
-53.2243
 30
0.0
 10
-112.3644
 20
-55.3417
 30
0.0
 10
-104.4728
 20
-63.2614
 30
0.0
 10
-102.395
 20
-73.3036
 30
0.0
 10
-102.395
 20
-73.3036
 30
0.0
 10
-103.2228
 20
-73.8525
 30
0.0
 10
-103.9141
 20
-74.5906
 30
0.0
 10
-104.4061
 20
-75.4566
 30
0.0
 10
-104.4061
 20
-75.4566
 30
0.0
 10
-115.4403
 20
-71.4502
 30
0.0
 10
-120.9342
 20
-66.3268
 30
0.0
 10
-124.6012
 20
-55.338
 30
0.0
 10
-124.6012
 20
-55.338
 30
0.0
 10
-123.7034
 20
-54.8236
 30
0.0
 10
-122.9444
 20
-54.0961
 30
0.0
 10
-122.3916
 20
-53.2243
 30
0.0
  0
SPLINE
  5
8D
330
1F
100
AcDbEntity
  8
layer 1
 62
     7
100
AcDbSpline
210
0.0
220
0.0
230
1.0
 70
    11
 71
     3
 72
    20
 73
    16
 74
     0
 42
0.0000000001
 43
0.0000000001
 12
1.0
 22
0.0
 32
0.0
 13
1.0
 23
0.0
 33
0.0
 40
0.0
 40
0.0
 40
0.0
 40
0.0
 40
0.2
 40
0.2
 40
0.2
 40
0.2
 40
0.4
 40
0.4
 40
0.4
 40
0.4
 40
0.6
 40
0.6
 40
0.6
 40
0.6
 40
1.0
 40
1.0
 40
1.0
 40
1.0
 10
-99.1501
 20
-74.9474
 30
0.0
 10
-97.2841
 20
-74.9474
 30
0.0
 10
-95.7708
 20
-76.4608
 30
0.0
 10
-95.7708
 20
-78.3267
 30
0.0
 10
-95.7708
 20
-78.3267
 30
0.0
 10
-95.7708
 20
-80.1925
 30
0.0
 10
-97.2841
 20
-81.7055
 30
0.0
 10
-99.1501
 20
-81.7055
 30
0.0
 10
-99.1501
 20
-81.7055
 30
0.0
 10
-101.0153
 20
-81.7055
 30
0.0
 10
-102.5289
 20
-80.1925
 30
0.0
 10
-102.5289
 20
-78.3267
 30
0.0
 10
-102.5289
 20
-78.3267
 30
0.0
 10
-102.5286
 20
-76.4608
 30
0.0
 10
-101.0156
 20
-74.9474
 30
0.0
 10
-99.1501
 20
-74.9474
 30
0.0
  0
SPLINE
  5
8E
330
1F
100
AcDbEntity
  8
layer 1
 62
     7
100
AcDbSpline
210
0.0
220
0.0
230
1.0
 70
    11
 71
     3
 72
    36
 73
    32
 74
     0
 42
0.0000000001
 43
0.0000000001
 12
1.0
 22
0.0
 32
0.0
 13
1.0
 23
0.0
 33
0.0
 40
0.0
 40
0.0
 40
0.0
 40
0.0
 40
0.1111111111111111
 40
0.1111111111111111
 40
0.1111111111111111
 40
0.1111111111111111
 40
0.2222222222222222
 40
0.2222222222222222
 40
0.2222222222222222
 40
0.2222222222222222
 40
0.3333333333333333
 40
0.3333333333333333
 40
0.3333333333333333
 40
0.3333333333333333
 40
0.4444444444444444
 40
0.4444444444444444
 40
0.4444444444444444
 40
0.4444444444444444
 40
0.5555555555555556
 40
0.5555555555555556
 40
0.5555555555555556
 40
0.5555555555555556
 40
0.6666666666666666
 40
0.6666666666666666
 40
0.6666666666666666
 40
0.6666666666666666
 40
0.7777777777777778
 40
0.7777777777777778
 40
0.7777777777777778
 40
0.7777777777777778
 40
1.0
 40
1.0
 40
1.0
 40
1.0
 10
-145.1122
 20
115.0081
 30
0.0
 10
-149.6661
 20
111.5203
 30
0.0
 10
-153.4218
 20
107.0813
 30
0.0
 10
-155.2476
 20
99.2071
 30
0.0
 10
-155.2476
 20
99.2071
 30
0.0
 10
-155.5579
 20
99.2499
 30
0.0
 10
-155.875
 20
99.2808
 30
0.0
 10
-156.2047
 20
99.2808
 30
0.0
 10
-156.2047
 20
99.2808
 30
0.0
 10
-156.3809
 20
99.2808
 30
0.0
 10
-156.5518
 20
99.2689
 30
0.0
 10
-156.7242
 20
99.2594
 30
0.0
 10
-156.7242
 20
99.2594
 30
0.0
 10
-158.1969
 20
106.5865
 30
0.0
 10
-162.2977
 20
111.527
 30
0.0
 10
-166.8462
 20
115.0081
 30
0.0
 10
-166.8462
 20
115.0081
 30
0.0
 10
-166.8462
 20
115.0081
 30
0.0
 10
-165.5986
 20
115.0081
 30
0.0
 10
-165.5986
 20
115.0081
 30
0.0
 10
-165.5986
 20
115.0081
 30
0.0
 10
-163.5499
 20
111.8922
 30
0.0
 10
-160.0251
 20
109.8342
 30
0.0
 10
-156.0197
 20
109.8342
 30
0.0
 10
-156.0197
 20
109.8342
 30
0.0
 10
-152.0143
 20
109.8342
 30
0.0
 10
-148.488
 20
111.8922
 30
0.0
 10
-146.4401
 20
115.0081
 30
0.0
 10
-146.4401
 20
115.0081
 30
0.0
 10
-146.4401
 20
115.0081
 30
0.0
 10
-145.1122
 20
115.0081
 30
0.0
 10
-145.1122
 20
115.0081
 30
0.0
  0
SPLINE
  5
8F
330
1F
100
AcDbEntity
  8
layer 1
 62
     7
100
AcDbSpline
210
0.0
220
0.0
230
1.0
 70
    11
 71
     3
 72
    16
 73
    12
 74
     0
 42
0.0000000001
 43
0.0000000001
 12
1.0
 22
0.0
 32
0.0
 13
1.0
 23
0.0
 33
0.0
 40
0.0
 40
0.0
 40
0.0
 40
0.0
 40
0.25
 40
0.25
 40
0.25
 40
0.25
 40
0.5
 40
0.5
 40
0.5
 40
0.5
 40
1.0
 40
1.0
 40
1.0
 40
1.0
 10
-90.7285
 20
114.8359
 30
0.0
 10
-92.1846
 20
113.1997
 30
0.0
 10
-94.1765
 20
112.0481
 30
0.0
 10
-96.4273
 20
111.6586
 30
0.0
 10
-96.4273
 20
111.6586
 30
0.0
 10
-96.1772
 20
112.8049
 30
0.0
 10
-95.7259
 20
113.8773
 30
0.0
 10
-95.1134
 20
114.8359
 30
0.0
 10
-95.1134
 20
114.8359
 30
0.0
 10
-95.1134
 20
114.8359
 30
0.0
 10
-90.7285
 20
114.8359
 30
0.0
 10
-90.7285
 20
114.8359
 30
0.0
  0
SPLINE
  5
90
330
1F
100
AcDbEntity
  8
layer 1
 62
     7
100
AcDbSpline
210
0.0
220
0.0
230
1.0
 70
    11
 71
     3
 72
    16
 73
    12
 74
     0
 42
0.0000000001
 43
0.0000000001
 12
1.0
 22
0.0
 32
0.0
 13
1.0
 23
0.0
 33
0.0
 40
0.0
 40
0.0
 40
0.0
 40
0.0
 40
0.25
 40
0.25
 40
0.25
 40
0.25
 40
0.5
 40
0.5
 40
0.5
 40
0.5
 40
1.0
 40
1.0
 40
1.0
 40
1.0
 10
-100.1493
 20
111.7194
 30
0.0
 10
-102.2675
 20
112.1604
 30
0.0
 10
-104.1377
 20
113.2776
 30
0.0
 10
-105.5241
 20
114.8359
 30
0.0
 10
-105.5241
 20
114.8359
 30
0.0
 10
-105.5241
 20
114.8359
 30
0.0
 10
-101.3636
 20
114.8359
 30
0.0
 10
-101.3636
 20
114.8359
 30
0.0
 10
-101.3636
 20
114.8359
 30
0.0
 10
-100.7911
 20
113.8893
 30
0.0
 10
-100.3756
 20
112.8394
 30
0.0
 10
-100.1493
 20
111.7194
 30
0.0
  0
SPLINE
  5
91
330
1F
100
AcDbEntity
  8
layer 1
 62
     7
100
AcDbSpline
210
0.0
220
0.0
230
1.0
 70
    11
 71
     3
 72
    24
 73
    20
 74
     0
 42
0.0000000001
 43
0.0000000001
 12
1.0
 22
0.0
 32
0.0
 13
1.0
 23
0.0
 33
0.0
 40
0.0
 40
0.0
 40
0.0
 40
0.0
 40
0.1666666666666667
 40
0.1666666666666667
 40
0.1666666666666667
 40
0.1666666666666667
 40
0.3333333333333333
 40
0.3333333333333333
 40
0.3333333333333333
 40
0.3333333333333333
 40
0.5
 40
0.5
 40
0.5
 40
0.5
 40
0.6666666666666666
 40
0.6666666666666666
 40
0.6666666666666666
 40
0.6666666666666666
 40
1.0
 40
1.0
 40
1.0
 40
1.0
 10
-96.9582
 20
114.8359
 30
0.0
 10
-97.3558
 20
113.8938
 30
0.0
 10
-97.7224
 20
112.7991
 30
0.0
 10
-98.1002
 20
111.5121
 30
0.0
 10
-98.1002
 20
111.5121
 30
0.0
 10
-98.1002
 20
111.5121
 30
0.0
 10
-98.1256
 20
111.5118
 30
0.0
 10
-98.1256
 20
111.5118
 30
0.0
 10
-98.1256
 20
111.5118
 30
0.0
 10
-98.1256
 20
111.5118
 30
0.0
 10
-98.2951
 20
111.5142
 30
0.0
 10
-98.2951
 20
111.5142
 30
0.0
 10
-98.2951
 20
111.5142
 30
0.0
 10
-98.673
 20
112.8004
 30
0.0
 10
-99.0387
 20
113.8941
 30
0.0
 10
-99.4359
 20
114.8359
 30
0.0
 10
-99.4359
 20
114.8359
 30
0.0
 10
-99.4359
 20
114.8359
 30
0.0
 10
-96.9582
 20
114.8359
 30
0.0
 10
-96.9582
 20
114.8359
 30
0.0
  0
SPLINE
  5
92
330
1F
100
AcDbEntity
  8
layer 1
 62
     7
100
AcDbSpline
210
0.0
220
0.0
230
1.0
 70
    11
 71
     3
 72
    16
 73
    12
 74
     0
 42
0.0000000001
 43
0.0000000001
 12
1.0
 22
0.0
 32
0.0
 13
1.0
 23
0.0
 33
0.0
 40
0.0
 40
0.0
 40
0.0
 40
0.0
 40
0.25
 40
0.25
 40
0.25
 40
0.25
 40
0.5
 40
0.5
 40
0.5
 40
0.5
 40
1.0
 40
1.0
 40
1.0
 40
1.0
 10
-148.7207
 20
114.8359
 30
0.0
 10
-150.0811
 20
113.6
 30
0.0
 10
-151.7877
 20
112.7361
 30
0.0
 10
-153.6765
 20
112.4092
 30
0.0
 10
-153.6765
 20
112.4092
 30
0.0
 10
-153.4894
 20
113.2651
 30
0.0
 10
-153.1906
 20
114.0795
 30
0.0
 10
-152.7971
 20
114.8359
 30
0.0
 10
-152.7971
 20
114.8359
 30
0.0
 10
-152.7971
 20
114.8359
 30
0.0
 10
-148.7207
 20
114.8359
 30
0.0
 10
-148.7207
 20
114.8359
 30
0.0
  0
SPLINE
  5
93
330
1F
100
AcDbEntity
  8
layer 1
 62
     7
100
AcDbSpline
210
0.0
220
0.0
230
1.0
 70
    11
 71
     3
 72
    16
 73
    12
 74
     0
 42
0.0000000001
 43
0.0000000001
 12
1.0
 22
0.0
 32
0.0
 13
1.0
 23
0.0
 33
0.0
 40
0.0
 40
0.0
 40
0.0
 40
0.0
 40
0.25
 40
0.25
 40
0.25
 40
0.25
 40
0.5
 40
0.5
 40
0.5
 40
0.5
 40
1.0
 40
1.0
 40
1.0
 40
1.0
 10
-158.2237
 20
112.4624
 30
0.0
 10
-159.9845
 20
112.8284
 30
0.0
 10
-161.5733
 20
113.6623
 30
0.0
 10
-162.8561
 20
114.828
 30
0.0
 10
-162.8561
 20
114.828
 30
0.0
 10
-162.8561
 20
114.828
 30
0.0
 10
-159.0277
 20
114.828
 30
0.0
 10
-159.0277
 20
114.828
 30
0.0
 10
-159.0277
 20
114.828
 30
0.0
 10
-158.6641
 20
114.0871
 30
0.0
 10
-158.3919
 20
113.2939
 30
0.0
 10
-158.2237
 20
112.4624
 30
0.0
  0
SPLINE
  5
94
330
1F
100
AcDbEntity
  8
layer 1
 62
     7
100
AcDbSpline
210
0.0
220
0.0
230
1.0
 70
    11
 71
     3
 72
    24
 73
    20
 74
     0
 42
0.0000000001
 43
0.0000000001
 12
1.0
 22
0.0
 32
0.0
 13
1.0
 23
0.0
 33
0.0
 40
0.0
 40
0.0
 40
0.0
 40
0.0
 40
0.1666666666666667
 40
0.1666666666666667
 40
0.1666666666666667
 40
0.1666666666666667
 40
0.3333333333333333
 40
0.3333333333333333
 40
0.3333333333333333
 40
0.3333333333333333
 40
0.5
 40
0.5
 40
0.5
 40
0.5
 40
0.6666666666666666
 40
0.6666666666666666
 40
0.6666666666666666
 40
0.6666666666666666
 40
1.0
 40
1.0
 40
1.0
 40
1.0
 10
-155.3281
 20
114.8359
 30
0.0
 10
-155.6164
 20
114.0721
 30
0.0
 10
-155.8922
 20
113.2174
 30
0.0
 10
-156.1748
 20
112.2548
 30
0.0
 10
-156.1748
 20
112.2548
 30
0.0
 10
-156.1748
 20
112.2548
 30
0.0
 10
-156.2001
 20
112.2546
 30
0.0
 10
-156.2001
 20
112.2546
 30
0.0
 10
-156.2001
 20
112.2546
 30
0.0
 10
-156.2001
 20
112.2546
 30
0.0
 10
-156.3692
 20
112.257
 30
0.0
 10
-156.3692
 20
112.257
 30
0.0
 10
-156.3692
 20
112.257
 30
0.0
 10
-156.652
 20
113.2183
 30
0.0
 10
-156.9278
 20
114.0727
 30
0.0
 10
-157.2153
 20
114.8359
 30
0.0
 10
-157.2153
 20
114.8359
 30
0.0
 10
-157.2153
 20
114.8359
 30
0.0
 10
-155.3281
 20
114.8359
 30
0.0
 10
-155.3281
 20
114.8359
 30
0.0
  0
SPLINE
  5
95
330
1F
100
AcDbEntity
  8
layer 1
 62
     7
100
AcDbSpline
210
0.0
220
0.0
230
1.0
 70
    11
 71
     3
 72
    36
 73
    32
 74
     0
 42
0.0000000001
 43
0.0000000001
 12
1.0
 22
0.0
 32
0.0
 13
1.0
 23
0.0
 33
0.0
 40
0.0
 40
0.0
 40
0.0
 40
0.0
 40
0.1111111111111111
 40
0.1111111111111111
 40
0.1111111111111111
 40
0.1111111111111111
 40
0.2222222222222222
 40
0.2222222222222222
 40
0.2222222222222222
 40
0.2222222222222222
 40
0.3333333333333333
 40
0.3333333333333333
 40
0.3333333333333333
 40
0.3333333333333333
 40
0.4444444444444444
 40
0.4444444444444444
 40
0.4444444444444444
 40
0.4444444444444444
 40
0.5555555555555556
 40
0.5555555555555556
 40
0.5555555555555556
 40
0.5555555555555556
 40
0.6666666666666666
 40
0.6666666666666666
 40
0.6666666666666666
 40
0.6666666666666666
 40
0.7777777777777778
 40
0.7777777777777778
 40
0.7777777777777778
 40
0.7777777777777778
 40
1.0
 40
1.0
 40
1.0
 40
1.0
 10
-87.0857
 20
114.8359
 30
0.0
 10
-91.6391
 20
111.3481
 30
0.0
 10
-95.9118
 20
106.737
 30
0.0
 10
-97.2211
 20
99.0349
 30
0.0
 10
-97.2211
 20
99.0349
 30
0.0
 10
-97.5316
 20
99.0778
 30
0.0
 10
-97.849
 20
99.1087
 30
0.0
 10
-98.1786
 20
99.1087
 30
0.0
 10
-98.1786
 20
99.1087
 30
0.0
 10
-98.3544
 20
99.1087
 30
0.0
 10
-98.5256
 20
99.0967
 30
0.0
 10
-98.6981
 20
99.0872
 30
0.0
 10
-98.6981
 20
99.0872
 30
0.0
 10
-101.548
 20
106.7587
 30
0.0
 10
-104.2713
 20
111.3549
 30
0.0
 10
-108.8197
 20
114.8359
 30
0.0
 10
-108.8197
 20
114.8359
 30
0.0
 10
-108.8197
 20
114.8359
 30
0.0
 10
-107.5722
 20
114.8359
 30
0.0
 10
-107.5722
 20
114.8359
 30
0.0
 10
-107.5722
 20
114.8359
 30
0.0
 10
-105.5244
 20
111.72
 30
0.0
 10
-101.999
 20
109.6621
 30
0.0
 10
-97.9932
 20
109.6621
 30
0.0
 10
-97.9932
 20
109.6621
 30
0.0
 10
-93.9881
 20
109.6621
 30
0.0
 10
-90.4615
 20
111.72
 30
0.0
 10
-88.4141
 20
114.8359
 30
0.0
 10
-88.4141
 20
114.8359
 30
0.0
 10
-88.4141
 20
114.8359
 30
0.0
 10
-87.0857
 20
114.8359
 30
0.0
 10
-87.0857
 20
114.8359
 30
0.0
  0
SPLINE
  5
96
330
1F
100
AcDbEntity
  8
layer 1
 62
     7
100
AcDbSpline
210
0.0
220
0.0
230
1.0
 70
    11
 71
     3
 72
    20
 73
    16
 74
     0
 42
0.0000000001
 43
0.0000000001
 12
1.0
 22
0.0
 32
0.0
 13
1.0
 23
0.0
 33
0.0
 40
0.0
 40
0.0
 40
0.0
 40
0.0
 40
0.2
 40
0.2
 40
0.2
 40
0.2
 40
0.4
 40
0.4
 40
0.4
 40
0.4
 40
0.6
 40
0.6
 40
0.6
 40
0.6
 40
1.0
 40
1.0
 40
1.0
 40
1.0
 10
-98.2556
 20
75.9481
 30
0.0
 10
-91.9318
 20
75.9481
 30
0.0
 10
-86.8007
 20
70.8167
 30
0.0
 10
-86.8007
 20
64.4922
 30
0.0
 10
-86.8007
 20
64.4922
 30
0.0
 10
-86.8007
 20
58.1681
 30
0.0
 10
-91.9321
 20
53.0367
 30
0.0
 10
-98.2559
 20
53.0367
 30
0.0
 10
-98.2559
 20
53.0367
 30
0.0
 10
-104.5801
 20
53.0367
 30
0.0
 10
-109.7121
 20
58.1681
 30
0.0
 10
-109.7121
 20
64.4922
 30
0.0
 10
-109.7121
 20
64.4922
 30
0.0
 10
-109.7118
 20
70.8167
 30
0.0
 10
-104.5807
 20
75.9481
 30
0.0
 10
-98.2556
 20
75.9481
 30
0.0
  0
SPLINE
  5
97
330
1F
100
AcDbEntity
  8
layer 1
 62
     7
100
AcDbSpline
210
0.0
220
0.0
230
1.0
 70
    11
 71
     3
 72
    52
 73
    48
 74
     0
 42
0.0000000001
 43
0.0000000001
 12
1.0
 22
0.0
 32
0.0
 13
1.0
 23
0.0
 33
0.0
 40
0.0
 40
0.0
 40
0.0
 40
0.0
 40
0.0769230769230769
 40
0.0769230769230769
 40
0.0769230769230769
 40
0.0769230769230769
 40
0.1538461538461539
 40
0.1538461538461539
 40
0.1538461538461539
 40
0.1538461538461539
 40
0.2307692307692308
 40
0.2307692307692308
 40
0.2307692307692308
 40
0.2307692307692308
 40
0.3076923076923077
 40
0.3076923076923077
 40
0.3076923076923077
 40
0.3076923076923077
 40
0.3846153846153846
 40
0.3846153846153846
 40
0.3846153846153846
 40
0.3846153846153846
 40
0.4615384615384616
 40
0.4615384615384616
 40
0.4615384615384616
 40
0.4615384615384616
 40
0.5384615384615384
 40
0.5384615384615384
 40
0.5384615384615384
 40
0.5384615384615384
 40
0.6153846153846154
 40
0.6153846153846154
 40
0.6153846153846154
 40
0.6153846153846154
 40
0.6923076923076923
 40
0.6923076923076923
 40
0.6923076923076923
 40
0.6923076923076923
 40
0.7692307692307693
 40
0.7692307692307693
 40
0.7692307692307693
 40
0.7692307692307693
 40
0.8461538461538461
 40
0.8461538461538461
 40
0.8461538461538461
 40
0.8461538461538461
 40
1.0
 40
1.0
 40
1.0
 40
1.0
 10
-97.3496
 20
86.821
 30
0.0
 10
-94.8883
 20
76.5691
 30
0.0
 10
-87.2362
 20
67.6305
 30
0.0
 10
-75.5981
 20
65.1509
 30
0.0
 10
-75.5981
 20
65.1509
 30
0.0
 10
-75.6296
 20
64.8932
 30
0.0
 10
-75.6464
 20
64.629
 30
0.0
 10
-75.6464
 20
64.3623
 30
0.0
 10
-75.6464
 20
64.3623
 30
0.0
 10
-75.6461
 20
64.1651
 30
0.0
 10
-75.6372
 20
63.9706
 30
0.0
 10
-75.6195
 20
63.7776
 30
0.0
 10
-75.6195
 20
63.7776
 30
0.0
 10
-88.3232
 20
59.0787
 30
0.0
 10
-92.654
 20
54.7708
 30
0.0
 10
-97.3505
 20
42.1136
 30
0.0
 10
-97.3505
 20
42.1136
 30
0.0
 10
-97.6621
 20
42.161
 30
0.0
 10
-97.9814
 20
42.1851
 30
0.0
 10
-98.3067
 20
42.1851
 30
0.0
 10
-98.3067
 20
42.1851
 30
0.0
 10
-98.4819
 20
42.1851
 30
0.0
 10
-98.6559
 20
42.1778
 30
0.0
 10
-98.828
 20
42.1638
 30
0.0
 10
-98.828
 20
42.1638
 30
0.0
 10
-103.5631
 20
54.9048
 30
0.0
 10
-107.9388
 20
59.1676
 30
0.0
 10
-120.9147
 20
63.9144
 30
0.0
 10
-120.9147
 20
63.9144
 30
0.0
 10
-120.8955
 20
64.1156
 30
0.0
 10
-120.8853
 20
64.3186
 30
0.0
 10
-120.8853
 20
64.5246
 30
0.0
 10
-120.8853
 20
64.5246
 30
0.0
 10
-120.885
 20
64.6931
 30
0.0
 10
-120.8918
 20
64.8601
 30
0.0
 10
-120.9046
 20
65.0253
 30
0.0
 10
-120.9046
 20
65.0253
 30
0.0
 10
-107.9027
 20
69.7832
 30
0.0
 10
-100.9569
 20
77.1569
 30
0.0
 10
-98.7914
 20
86.8712
 30
0.0
 10
-98.7914
 20
86.8712
 30
0.0
 10
-98.485
 20
86.8257
 30
0.0
 10
-98.1719
 20
86.8009
 30
0.0
 10
-97.8526
 20
86.8009
 30
0.0
 10
-97.8526
 20
86.8009
 30
0.0
 10
-97.6829
 20
86.8009
 30
0.0
 10
-97.5159
 20
86.8082
 30
0.0
 10
-97.3496
 20
86.821
 30
0.0
  0
SPLINE
  5
98
330
1F
100
AcDbEntity
  8
layer 1
 62
     7
100
AcDbSpline
210
0.0
220
0.0
230
1.0
 70
    11
 71
     3
 72
    20
 73
    16
 74
     0
 42
0.0000000001
 43
0.0000000001
 12
1.0
 22
0.0
 32
0.0
 13
1.0
 23
0.0
 33
0.0
 40
0.0
 40
0.0
 40
0.0
 40
0.0
 40
0.2
 40
0.2
 40
0.2
 40
0.2
 40
0.4
 40
0.4
 40
0.4
 40
0.4
 40
0.6
 40
0.6
 40
0.6
 40
0.6
 40
1.0
 40
1.0
 40
1.0
 40
1.0
 10
-156.1423
 20
76.1104
 30
0.0
 10
-149.8184
 20
76.1104
 30
0.0
 10
-144.6874
 20
70.9794
 30
0.0
 10
-144.6874
 20
64.6549
 30
0.0
 10
-144.6874
 20
64.6549
 30
0.0
 10
-144.6868
 20
58.3308
 30
0.0
 10
-149.8188
 20
53.1994
 30
0.0
 10
-156.1429
 20
53.1994
 30
0.0
 10
-156.1429
 20
53.1994
 30
0.0
 10
-162.4668
 20
53.1994
 30
0.0
 10
-167.5988
 20
58.3304
 30
0.0
 10
-167.5988
 20
64.6549
 30
0.0
 10
-167.5988
 20
64.6549
 30
0.0
 10
-167.5984
 20
70.9794
 30
0.0
 10
-162.4674
 20
76.1104
 30
0.0
 10
-156.1423
 20
76.1104
 30
0.0
  0
SPLINE
  5
99
330
1F
100
AcDbEntity
  8
layer 1
 62
     7
100
AcDbSpline
210
0.0
220
0.0
230
1.0
 70
    11
 71
     3
 72
    52
 73
    48
 74
     0
 42
0.0000000001
 43
0.0000000001
 12
1.0
 22
0.0
 32
0.0
 13
1.0
 23
0.0
 33
0.0
 40
0.0
 40
0.0
 40
0.0
 40
0.0
 40
0.0769230769230769
 40
0.0769230769230769
 40
0.0769230769230769
 40
0.0769230769230769
 40
0.1538461538461539
 40
0.1538461538461539
 40
0.1538461538461539
 40
0.1538461538461539
 40
0.2307692307692308
 40
0.2307692307692308
 40
0.2307692307692308
 40
0.2307692307692308
 40
0.3076923076923077
 40
0.3076923076923077
 40
0.3076923076923077
 40
0.3076923076923077
 40
0.3846153846153846
 40
0.3846153846153846
 40
0.3846153846153846
 40
0.3846153846153846
 40
0.4615384615384616
 40
0.4615384615384616
 40
0.4615384615384616
 40
0.4615384615384616
 40
0.5384615384615384
 40
0.5384615384615384
 40
0.5384615384615384
 40
0.5384615384615384
 40
0.6153846153846154
 40
0.6153846153846154
 40
0.6153846153846154
 40
0.6153846153846154
 40
0.6923076923076923
 40
0.6923076923076923
 40
0.6923076923076923
 40
0.6923076923076923
 40
0.7692307692307693
 40
0.7692307692307693
 40
0.7692307692307693
 40
0.7692307692307693
 40
0.8461538461538461
 40
0.8461538461538461
 40
0.8461538461538461
 40
0.8461538461538461
 40
1.0
 40
1.0
 40
1.0
 40
1.0
 10
-155.2376
 20
86.9813
 30
0.0
 10
-152.2528
 20
75.4328
 30
0.0
 10
-145.2185
 20
68.1112
 30
0.0
 10
-133.4826
 20
65.3142
 30
0.0
 10
-133.4826
 20
65.3142
 30
0.0
 10
-133.5142
 20
65.0576
 30
0.0
 10
-133.5312
 20
64.7889
 30
0.0
 10
-133.5312
 20
64.5222
 30
0.0
 10
-133.5312
 20
64.5222
 30
0.0
 10
-133.531
 20
64.3265
 30
0.0
 10
-133.5263
 20
64.1318
 30
0.0
 10
-133.5092
 20
63.9412
 30
0.0
 10
-133.5092
 20
63.9412
 30
0.0
 10
-145.7415
 20
59.8505
 30
0.0
 10
-152.6513
 20
53.7415
 30
0.0
 10
-155.2381
 20
42.276
 30
0.0
 10
-155.2381
 20
42.276
 30
0.0
 10
-155.5488
 20
42.319
 30
0.0
 10
-155.8659
 20
42.3499
 30
0.0
 10
-156.1955
 20
42.3499
 30
0.0
 10
-156.1955
 20
42.3499
 30
0.0
 10
-156.371
 20
42.3499
 30
0.0
 10
-156.5426
 20
42.3378
 30
0.0
 10
-156.7151
 20
42.3282
 30
0.0
 10
-156.7151
 20
42.3282
 30
0.0
 10
-161.4483
 20
55.0669
 30
0.0
 10
-165.8274
 20
59.3251
 30
0.0
 10
-178.8035
 20
64.0806
 30
0.0
 10
-178.8035
 20
64.0806
 30
0.0
 10
-178.7846
 20
64.2749
 30
0.0
 10
-178.777
 20
64.4849
 30
0.0
 10
-178.777
 20
64.6876
 30
0.0
 10
-178.777
 20
64.6876
 30
0.0
 10
-178.7767
 20
64.8577
 30
0.0
 10
-178.777
 20
65.024
 30
0.0
 10
-178.7913
 20
65.1873
 30
0.0
 10
-178.7913
 20
65.1873
 30
0.0
 10
-166.9456
 20
68.4748
 30
0.0
 10
-159.0127
 20
76.9771
 30
0.0
 10
-156.6814
 20
87.0336
 30
0.0
 10
-156.6814
 20
87.0336
 30
0.0
 10
-156.376
 20
86.9923
 30
0.0
 10
-156.0555
 20
86.9599
 30
0.0
 10
-155.7387
 20
86.9599
 30
0.0
 10
-155.7387
 20
86.9599
 30
0.0
 10
-155.569
 20
86.9599
 30
0.0
 10
-155.4042
 20
86.9734
 30
0.0
 10
-155.2376
 20
86.9813
 30
0.0
  0
SPLINE
  5
9A
330
1F
100
AcDbEntity
  8
layer 1
 62
     7
100
AcDbSpline
210
0.0
220
0.0
230
1.0
 70
    11
 71
     3
 72
    12
 73
     8
 74
     0
 42
0.0000000001
 43
0.0000000001
 12
1.0
 22
0.0
 32
0.0
 13
1.0
 23
0.0
 33
0.0
 40
0.0
 40
0.0
 40
0.0
 40
0.0
 40
0.3333333333333333
 40
0.3333333333333333
 40
0.3333333333333333
 40
0.3333333333333333
 40
1.0
 40
1.0
 40
1.0
 40
1.0
 10
-165.78
 20
66.9337
 30
0.0
 10
-164.9391
 20
70.5024
 30
0.0
 10
-162.1668
 20
73.3273
 30
0.0
 10
-158.6274
 20
74.2425
 30
0.0
 10
-158.6274
 20
74.2425
 30
0.0
 10
-159.4494
 20
70.6636
 30
0.0
 10
-162.2304
 20
67.8308
 30
0.0
 10
-165.78
 20
66.9337
 30
0.0
  0
SPLINE
  5
9B
330
1F
100
AcDbEntity
  8
layer 1
 62
     7
100
AcDbSpline
210
0.0
220
0.0
230
1.0
 70
    11
 71
     3
 72
    12
 73
     8
 74
     0
 42
0.0000000001
 43
0.0000000001
 12
1.0
 22
0.0
 32
0.0
 13
1.0
 23
0.0
 33
0.0
 40
0.0
 40
0.0
 40
0.0
 40
0.0
 40
0.3333333333333333
 40
0.3333333333333333
 40
0.3333333333333333
 40
0.3333333333333333
 40
1.0
 40
1.0
 40
1.0
 40
1.0
 10
-154.0939
 20
74.344
 30
0.0
 10
-150.227
 20
73.5293
 30
0.0
 10
-147.1894
 20
70.4559
 30
0.0
 10
-146.4273
 20
66.5685
 30
0.0
 10
-146.4273
 20
66.5685
 30
0.0
 10
-150.3068
 20
67.3612
 30
0.0
 10
-153.3551
 20
70.4452
 30
0.0
 10
-154.0939
 20
74.344
 30
0.0
  0
SPLINE
  5
9C
330
1F
100
AcDbEntity
  8
layer 1
 62
     7
100
AcDbSpline
210
0.0
220
0.0
230
1.0
 70
    11
 71
     3
 72
    12
 73
     8
 74
     0
 42
0.0000000001
 43
0.0000000001
 12
1.0
 22
0.0
 32
0.0
 13
1.0
 23
0.0
 33
0.0
 40
0.0
 40
0.0
 40
0.0
 40
0.0
 40
0.3333333333333333
 40
0.3333333333333333
 40
0.3333333333333333
 40
0.3333333333333333
 40
1.0
 40
1.0
 40
1.0
 40
1.0
 10
-146.4824
 20
62.4802
 30
0.0
 10
-147.3532
 20
58.6026
 30
0.0
 10
-150.4991
 20
55.5827
 30
0.0
 10
-154.4443
 20
54.8995
 30
0.0
 10
-154.4443
 20
54.8995
 30
0.0
 10
-153.5964
 20
58.79
 30
0.0
 10
-150.4392
 20
61.8197
 30
0.0
 10
-146.4824
 20
62.4802
 30
0.0
  0
SPLINE
  5
9D
330
1F
100
AcDbEntity
  8
layer 1
 62
     7
100
AcDbSpline
210
0.0
220
0.0
230
1.0
 70
    11
 71
     3
 72
    12
 73
     8
 74
     0
 42
0.0000000001
 43
0.0000000001
 12
1.0
 22
0.0
 32
0.0
 13
1.0
 23
0.0
 33
0.0
 40
0.0
 40
0.0
 40
0.0
 40
0.0
 40
0.3333333333333333
 40
0.3333333333333333
 40
0.3333333333333333
 40
0.3333333333333333
 40
1.0
 40
1.0
 40
1.0
 40
1.0
 10
-158.1666
 20
54.9607
 30
0.0
 10
-162.0088
 20
55.76
 30
0.0
 10
-165.0375
 20
58.7876
 30
0.0
 10
-165.8365
 20
62.6303
 30
0.0
 10
-165.8365
 20
62.6303
 30
0.0
 10
-161.9815
 20
61.8533
 30
0.0
 10
-158.9439
 20
58.8154
 30
0.0
 10
-158.1666
 20
54.9607
 30
0.0
  0
SPLINE
  5
9E
330
1F
100
AcDbEntity
  8
layer 1
 62
     7
100
AcDbSpline
210
0.0
220
0.0
230
1.0
 70
    11
 71
     3
 72
    48
 73
    44
 74
     0
 42
0.0000000001
 43
0.0000000001
 12
1.0
 22
0.0
 32
0.0
 13
1.0
 23
0.0
 33
0.0
 40
0.0
 40
0.0
 40
0.0
 40
0.0
 40
0.0833333333333333
 40
0.0833333333333333
 40
0.0833333333333333
 40
0.0833333333333333
 40
0.1666666666666667
 40
0.1666666666666667
 40
0.1666666666666667
 40
0.1666666666666667
 40
0.25
 40
0.25
 40
0.25
 40
0.25
 40
0.3333333333333333
 40
0.3333333333333333
 40
0.3333333333333333
 40
0.3333333333333333
 40
0.4166666666666667
 40
0.4166666666666667
 40
0.4166666666666667
 40
0.4166666666666667
 40
0.5
 40
0.5
 40
0.5
 40
0.5
 40
0.5833333333333334
 40
0.5833333333333334
 40
0.5833333333333334
 40
0.5833333333333334
 40
0.6666666666666666
 40
0.6666666666666666
 40
0.6666666666666666
 40
0.6666666666666666
 40
0.75
 40
0.75
 40
0.75
 40
0.75
 40
0.8333333333333334
 40
0.8333333333333334
 40
0.8333333333333334
 40
0.8333333333333334
 40
1.0
 40
1.0
 40
1.0
 40
1.0
 10
-156.1423
 20
74.5568
 30
0.0
 10
-156.1423
 20
74.5568
 30
0.0
 10
-156.0399
 20
74.5555
 30
0.0
 10
-156.0399
 20
74.5555
 30
0.0
 10
-156.0399
 20
74.5555
 30
0.0
 10
-154.1902
 20
68.3656
 30
0.0
 10
-152.5326
 20
66.7548
 30
0.0
 10
-146.2447
 20
64.9005
 30
0.0
 10
-146.2447
 20
64.9005
 30
0.0
 10
-146.2426
 20
64.8237
 30
0.0
 10
-146.242
 20
64.747
 30
0.0
 10
-146.2417
 20
64.6703
 30
0.0
 10
-146.2417
 20
64.6703
 30
0.0
 10
-152.6194
 20
62.7909
 30
0.0
 10
-154.2352
 20
61.161
 30
0.0
 10
-156.1172
 20
54.7534
 30
0.0
 10
-156.1172
 20
54.7534
 30
0.0
 10
-156.1172
 20
54.7534
 30
0.0
 10
-156.1423
 20
54.7531
 30
0.0
 10
-156.1423
 20
54.7531
 30
0.0
 10
-156.1423
 20
54.7531
 30
0.0
 10
-156.1423
 20
54.7531
 30
0.0
 10
-156.3124
 20
54.7556
 30
0.0
 10
-156.3124
 20
54.7556
 30
0.0
 10
-156.3124
 20
54.7556
 30
0.0
 10
-158.1789
 20
61.1137
 30
0.0
 10
-159.7851
 20
62.7664
 30
0.0
 10
-166.0448
 20
64.6277
 30
0.0
 10
-166.0448
 20
64.6277
 30
0.0
 10
-166.0448
 20
64.6277
 30
0.0
 10
-166.0445
 20
64.6549
 30
0.0
 10
-166.0445
 20
64.6549
 30
0.0
 10
-166.0445
 20
64.6549
 30
0.0
 10
-166.0445
 20
64.7512
 30
0.0
 10
-166.0429
 20
64.8476
 30
0.0
 10
-166.0402
 20
64.9433
 30
0.0
 10
-166.0402
 20
64.9433
 30
0.0
 10
-159.8704
 20
66.7796
 30
0.0
 10
-158.2235
 20
68.413
 30
0.0
 10
-156.3897
 20
74.5537
 30
0.0
 10
-156.3897
 20
74.5537
 30
0.0
 10
-156.3074
 20
74.5559
 30
0.0
 10
-156.2255
 20
74.5568
 30
0.0
 10
-156.1423
 20
74.5568
 30
0.0
  0
SPLINE
  5
9F
330
1F
100
AcDbEntity
  8
layer 1
 62
     7
100
AcDbSpline
210
0.0
220
0.0
230
1.0
 70
    11
 71
     3
 72
    12
 73
     8
 74
     0
 42
0.0000000001
 43
0.0000000001
 12
1.0
 22
0.0
 32
0.0
 13
1.0
 23
0.0
 33
0.0
 40
0.0
 40
0.0
 40
0.0
 40
0.0
 40
0.3333333333333333
 40
0.3333333333333333
 40
0.3333333333333333
 40
0.3333333333333333
 40
1.0
 40
1.0
 40
1.0
 40
1.0
 10
-107.8933
 20
66.771
 30
0.0
 10
-107.0521
 20
70.34
 30
0.0
 10
-104.2801
 20
73.1649
 30
0.0
 10
-100.7407
 20
74.0801
 30
0.0
 10
-100.7407
 20
74.0801
 30
0.0
 10
-101.5627
 20
70.5009
 30
0.0
 10
-104.3438
 20
67.6684
 30
0.0
 10
-107.8933
 20
66.771
 30
0.0
  0
SPLINE
  5
A0
330
1F
100
AcDbEntity
  8
layer 1
 62
     7
100
AcDbSpline
210
0.0
220
0.0
230
1.0
 70
    11
 71
     3
 72
    12
 73
     8
 74
     0
 42
0.0000000001
 43
0.0000000001
 12
1.0
 22
0.0
 32
0.0
 13
1.0
 23
0.0
 33
0.0
 40
0.0
 40
0.0
 40
0.0
 40
0.0
 40
0.3333333333333333
 40
0.3333333333333333
 40
0.3333333333333333
 40
0.3333333333333333
 40
1.0
 40
1.0
 40
1.0
 40
1.0
 10
-96.2078
 20
74.1816
 30
0.0
 10
-92.3394
 20
73.367
 30
0.0
 10
-89.3024
 20
70.2936
 30
0.0
 10
-88.5406
 20
66.4062
 30
0.0
 10
-88.5406
 20
66.4062
 30
0.0
 10
-92.4206
 20
67.1985
 30
0.0
 10
-95.4684
 20
70.2826
 30
0.0
 10
-96.2078
 20
74.1816
 30
0.0
  0
SPLINE
  5
A1
330
1F
100
AcDbEntity
  8
layer 1
 62
     7
100
AcDbSpline
210
0.0
220
0.0
230
1.0
 70
    11
 71
     3
 72
    12
 73
     8
 74
     0
 42
0.0000000001
 43
0.0000000001
 12
1.0
 22
0.0
 32
0.0
 13
1.0
 23
0.0
 33
0.0
 40
0.0
 40
0.0
 40
0.0
 40
0.0
 40
0.3333333333333333
 40
0.3333333333333333
 40
0.3333333333333333
 40
0.3333333333333333
 40
1.0
 40
1.0
 40
1.0
 40
1.0
 10
-88.5957
 20
62.3179
 30
0.0
 10
-89.4662
 20
58.4399
 30
0.0
 10
-92.6124
 20
55.4204
 30
0.0
 10
-96.5573
 20
54.7372
 30
0.0
 10
-96.5573
 20
54.7372
 30
0.0
 10
-95.7094
 20
58.6273
 30
0.0
 10
-92.5525
 20
61.657
 30
0.0
 10
-88.5957
 20
62.3179
 30
0.0
  0
SPLINE
  5
A2
330
1F
100
AcDbEntity
  8
layer 1
 62
     7
100
AcDbSpline
210
0.0
220
0.0
230
1.0
 70
    11
 71
     3
 72
    12
 73
     8
 74
     0
 42
0.0000000001
 43
0.0000000001
 12
1.0
 22
0.0
 32
0.0
 13
1.0
 23
0.0
 33
0.0
 40
0.0
 40
0.0
 40
0.0
 40
0.0
 40
0.3333333333333333
 40
0.3333333333333333
 40
0.3333333333333333
 40
0.3333333333333333
 40
1.0
 40
1.0
 40
1.0
 40
1.0
 10
-100.2793
 20
54.7983
 30
0.0
 10
-104.1227
 20
55.5976
 30
0.0
 10
-107.1505
 20
58.6252
 30
0.0
 10
-107.9498
 20
62.4679
 30
0.0
 10
-107.9498
 20
62.4679
 30
0.0
 10
-104.0945
 20
61.691
 30
0.0
 10
-101.0572
 20
58.653
 30
0.0
 10
-100.2793
 20
54.7983
 30
0.0
  0
SPLINE
  5
A3
330
1F
100
AcDbEntity
  8
layer 1
 62
     7
100
AcDbSpline
210
0.0
220
0.0
230
1.0
 70
    11
 71
     3
 72
    48
 73
    44
 74
     0
 42
0.0000000001
 43
0.0000000001
 12
1.0
 22
0.0
 32
0.0
 13
1.0
 23
0.0
 33
0.0
 40
0.0
 40
0.0
 40
0.0
 40
0.0
 40
0.0833333333333333
 40
0.0833333333333333
 40
0.0833333333333333
 40
0.0833333333333333
 40
0.1666666666666667
 40
0.1666666666666667
 40
0.1666666666666667
 40
0.1666666666666667
 40
0.25
 40
0.25
 40
0.25
 40
0.25
 40
0.3333333333333333
 40
0.3333333333333333
 40
0.3333333333333333
 40
0.3333333333333333
 40
0.4166666666666667
 40
0.4166666666666667
 40
0.4166666666666667
 40
0.4166666666666667
 40
0.5
 40
0.5
 40
0.5
 40
0.5
 40
0.5833333333333334
 40
0.5833333333333334
 40
0.5833333333333334
 40
0.5833333333333334
 40
0.6666666666666666
 40
0.6666666666666666
 40
0.6666666666666666
 40
0.6666666666666666
 40
0.75
 40
0.75
 40
0.75
 40
0.75
 40
0.8333333333333334
 40
0.8333333333333334
 40
0.8333333333333334
 40
0.8333333333333334
 40
1.0
 40
1.0
 40
1.0
 40
1.0
 10
-98.2556
 20
74.3941
 30
0.0
 10
-98.2556
 20
74.3941
 30
0.0
 10
-98.1528
 20
74.3929
 30
0.0
 10
-98.1528
 20
74.3929
 30
0.0
 10
-98.1528
 20
74.3929
 30
0.0
 10
-96.3035
 20
68.2032
 30
0.0
 10
-94.6458
 20
66.5923
 30
0.0
 10
-88.3581
 20
64.7381
 30
0.0
 10
-88.3581
 20
64.7381
 30
0.0
 10
-88.356
 20
64.6614
 30
0.0
 10
-88.355
 20
64.5846
 30
0.0
 10
-88.3547
 20
64.5076
 30
0.0
 10
-88.3547
 20
64.5076
 30
0.0
 10
-94.7327
 20
62.6282
 30
0.0
 10
-96.3485
 20
60.9987
 30
0.0
 10
-98.2305
 20
54.5907
 30
0.0
 10
-98.2305
 20
54.5907
 30
0.0
 10
-98.2305
 20
54.5907
 30
0.0
 10
-98.2556
 20
54.5905
 30
0.0
 10
-98.2556
 20
54.5905
 30
0.0
 10
-98.2556
 20
54.5905
 30
0.0
 10
-98.2556
 20
54.5905
 30
0.0
 10
-98.4254
 20
54.5929
 30
0.0
 10
-98.4254
 20
54.5929
 30
0.0
 10
-98.4254
 20
54.5929
 30
0.0
 10
-100.2919
 20
60.951
 30
0.0
 10
-101.8984
 20
62.6041
 30
0.0
 10
-108.1578
 20
64.4654
 30
0.0
 10
-108.1578
 20
64.4654
 30
0.0
 10
-108.1578
 20
64.4654
 30
0.0
 10
-108.1578
 20
64.4922
 30
0.0
 10
-108.1578
 20
64.4922
 30
0.0
 10
-108.1578
 20
64.4922
 30
0.0
 10
-108.1578
 20
64.5889
 30
0.0
 10
-108.1562
 20
64.6852
 30
0.0
 10
-108.1535
 20
64.7809
 30
0.0
 10
-108.1535
 20
64.7809
 30
0.0
 10
-101.9844
 20
66.6171
 30
0.0
 10
-100.3368
 20
68.2503
 30
0.0
 10
-98.503
 20
74.3914
 30
0.0
 10
-98.503
 20
74.3914
 30
0.0
 10
-98.4207
 20
74.3932
 30
0.0
 10
-98.3385
 20
74.3941
 30
0.0
 10
-98.2556
 20
74.3941
 30
0.0
  0
SPLINE
  5
A4
330
1F
100
AcDbEntity
  8
layer 1
 62
     7
100
AcDbSpline
210
0.0
220
0.0
230
1.0
 70
    11
 71
     3
 72
    16
 73
    12
 74
     0
 42
0.0000000001
 43
0.0000000001
 12
1.0
 22
0.0
 32
0.0
 13
1.0
 23
0.0
 33
0.0
 40
0.0
 40
0.0
 40
0.0
 40
0.0
 40
0.25
 40
0.25
 40
0.25
 40
0.25
 40
0.5
 40
0.5
 40
0.5
 40
0.5
 40
1.0
 40
1.0
 40
1.0
 40
1.0
 10
-69.7925
 20
60.9491
 30
0.0
 10
-71.426
 20
61.1868
 30
0.0
 10
-72.6819
 20
62.5927
 30
0.0
 10
-72.6819
 20
64.292
 30
0.0
 10
-72.6819
 20
64.292
 30
0.0
 10
-72.6812
 20
65.9912
 30
0.0
 10
-71.4263
 20
67.3981
 30
0.0
 10
-69.7928
 20
67.6357
 30
0.0
 10
-69.7928
 20
67.6357
 30
0.0
 10
-69.7928
 20
67.6357
 30
0.0
 10
-69.7925
 20
60.9491
 30
0.0
 10
-69.7925
 20
60.9491
 30
0.0
  0
SPLINE
  5
A5
330
1F
100
AcDbEntity
  8
layer 1
 62
     7
100
AcDbSpline
210
0.0
220
0.0
230
1.0
 70
    11
 71
     3
 72
    40
 73
    36
 74
     0
 42
0.0000000001
 43
0.0000000001
 12
1.0
 22
0.0
 32
0.0
 13
1.0
 23
0.0
 33
0.0
 40
0.0
 40
0.0
 40
0.0
 40
0.0
 40
0.1
 40
0.1
 40
0.1
 40
0.1
 40
0.2
 40
0.2
 40
0.2
 40
0.2
 40
0.3
 40
0.3
 40
0.3
 40
0.3
 40
0.4
 40
0.4
 40
0.4
 40
0.4
 40
0.5
 40
0.5
 40
0.5
 40
0.5
 40
0.6
 40
0.6
 40
0.6
 40
0.6
 40
0.7
 40
0.7
 40
0.7
 40
0.7
 40
0.8
 40
0.8
 40
0.8
 40
0.8
 40
1.0
 40
1.0
 40
1.0
 40
1.0
 10
-69.7925
 20
70.7382
 30
0.0
 10
-74.4501
 20
82.7674
 30
0.0
 10
-78.9048
 20
87.7231
 30
0.0
 10
-91.8767
 20
92.4771
 30
0.0
 10
-91.8767
 20
92.4771
 30
0.0
 10
-91.8578
 20
92.6713
 30
0.0
 10
-91.8501
 20
92.8814
 30
0.0
 10
-91.8501
 20
93.0841
 30
0.0
 10
-91.8501
 20
93.0841
 30
0.0
 10
-91.8498
 20
93.2541
 30
0.0
 10
-91.8501
 20
93.4205
 30
0.0
 10
-91.8645
 20
93.5838
 30
0.0
 10
-91.8645
 20
93.5838
 30
0.0
 10
-81.7898
 20
94.8265
 30
0.0
 10
-69.7928
 20
107.9956
 30
0.0
 10
-69.9763
 20
114.8359
 30
0.0
 10
-69.9763
 20
114.8359
 30
0.0
 10
-69.9763
 20
114.8359
 30
0.0
 10
-69.7925
 20
114.8359
 30
0.0
 10
-69.7925
 20
114.8359
 30
0.0
 10
-69.7925
 20
114.8359
 30
0.0
 10
-69.7925
 20
114.8359
 30
0.0
 10
-69.7925
 20
104.3577
 30
0.0
 10
-69.7925
 20
104.3577
 30
0.0
 10
-69.7925
 20
104.3577
 30
0.0
 10
-75.8161
 20
104.021
 30
0.0
 10
-80.6007
 20
99.0282
 30
0.0
 10
-80.6007
 20
92.9211
 30
0.0
 10
-80.6007
 20
92.9211
 30
0.0
 10
-80.6004
 20
86.8141
 30
0.0
 10
-75.8161
 20
81.8203
 30
0.0
 10
-69.7928
 20
81.4839
 30
0.0
 10
-69.7928
 20
81.4839
 30
0.0
 10
-69.7928
 20
81.4839
 30
0.0
 10
-69.7925
 20
70.7382
 30
0.0
 10
-69.7925
 20
70.7382
 30
0.0
  0
SPLINE
  5
A6
330
1F
100
AcDbEntity
  8
layer 1
 62
     7
100
AcDbSpline
210
0.0
220
0.0
230
1.0
 70
    11
 71
     3
 72
    12
 73
     8
 74
     0
 42
0.0000000001
 43
0.0000000001
 12
1.0
 22
0.0
 32
0.0
 13
1.0
 23
0.0
 33
0.0
 40
0.0
 40
0.0
 40
0.0
 40
0.0
 40
0.3333333333333333
 40
0.3333333333333333
 40
0.3333333333333333
 40
0.3333333333333333
 40
1.0
 40
1.0
 40
1.0
 40
1.0
 10
-78.7819
 20
95.1998
 30
0.0
 10
-77.941
 20
98.7686
 30
0.0
 10
-75.1688
 20
101.5934
 30
0.0
 10
-71.6294
 20
102.5089
 30
0.0
 10
-71.6294
 20
102.5089
 30
0.0
 10
-72.4512
 20
98.9298
 30
0.0
 10
-75.2324
 20
96.097
 30
0.0
 10
-78.7819
 20
95.1998
 30
0.0
  0
SPLINE
  5
A7
330
1F
100
AcDbEntity
  8
layer 1
 62
     7
100
AcDbSpline
210
0.0
220
0.0
230
1.0
 70
    11
 71
     3
 72
    12
 73
     8
 74
     0
 42
0.0000000001
 43
0.0000000001
 12
1.0
 22
0.0
 32
0.0
 13
1.0
 23
0.0
 33
0.0
 40
0.0
 40
0.0
 40
0.0
 40
0.0
 40
0.3333333333333333
 40
0.3333333333333333
 40
0.3333333333333333
 40
0.3333333333333333
 40
1.0
 40
1.0
 40
1.0
 40
1.0
 10
-71.1679
 20
83.2269
 30
0.0
 10
-75.0107
 20
84.0262
 30
0.0
 10
-78.0395
 20
87.0538
 30
0.0
 10
-78.8385
 20
90.8965
 30
0.0
 10
-78.8385
 20
90.8965
 30
0.0
 10
-74.9835
 20
90.1199
 30
0.0
 10
-71.9458
 20
87.0819
 30
0.0
 10
-71.1679
 20
83.2269
 30
0.0
  0
SPLINE
  5
A8
330
1F
100
AcDbEntity
  8
layer 1
 62
     7
100
AcDbSpline
210
0.0
220
0.0
230
1.0
 70
    11
 71
     3
 72
    24
 73
    20
 74
     0
 42
0.0000000001
 43
0.0000000001
 12
1.0
 22
0.0
 32
0.0
 13
1.0
 23
0.0
 33
0.0
 40
0.0
 40
0.0
 40
0.0
 40
0.0
 40
0.1666666666666667
 40
0.1666666666666667
 40
0.1666666666666667
 40
0.1666666666666667
 40
0.3333333333333333
 40
0.3333333333333333
 40
0.3333333333333333
 40
0.3333333333333333
 40
0.5
 40
0.5
 40
0.5
 40
0.5
 40
0.6666666666666666
 40
0.6666666666666666
 40
0.6666666666666666
 40
0.6666666666666666
 40
1.0
 40
1.0
 40
1.0
 40
1.0
 10
-69.7925
 20
84.5617
 30
0.0
 10
-71.4908
 20
89.6658
 30
0.0
 10
-73.3258
 20
91.1929
 30
0.0
 10
-79.0467
 20
92.8943
 30
0.0
 10
-79.0467
 20
92.8943
 30
0.0
 10
-79.0467
 20
92.8943
 30
0.0
 10
-79.0464
 20
92.9211
 30
0.0
 10
-79.0464
 20
92.9211
 30
0.0
 10
-79.0464
 20
92.9211
 30
0.0
 10
-79.0464
 20
93.0175
 30
0.0
 10
-79.0449
 20
93.1138
 30
0.0
 10
-79.0421
 20
93.2098
 30
0.0
 10
-79.0421
 20
93.2098
 30
0.0
 10
-73.3246
 20
94.9112
 30
0.0
 10
-71.4908
 20
96.4401
 30
0.0
 10
-69.7928
 20
101.5427
 30
0.0
 10
-69.7928
 20
101.5427
 30
0.0
 10
-69.7928
 20
101.5427
 30
0.0
 10
-69.7925
 20
84.5617
 30
0.0
 10
-69.7925
 20
84.5617
 30
0.0
  0
SPLINE
  5
A9
330
1F
100
AcDbEntity
  8
layer 1
 62
     7
100
AcDbSpline
210
0.0
220
0.0
230
1.0
 70
    11
 71
     3
 72
    20
 73
    16
 74
     0
 42
0.0000000001
 43
0.0000000001
 12
1.0
 22
0.0
 32
0.0
 13
1.0
 23
0.0
 33
0.0
 40
0.0
 40
0.0
 40
0.0
 40
0.0
 40
0.2
 40
0.2
 40
0.2
 40
0.2
 40
0.4
 40
0.4
 40
0.4
 40
0.4
 40
0.6
 40
0.6
 40
0.6
 40
0.6
 40
1.0
 40
1.0
 40
1.0
 40
1.0
 10
-94.3346
 20
97.8962
 30
0.0
 10
-92.8332
 20
105.087
 30
0.0
 10
-88.3495
 20
111.184
 30
0.0
 10
-82.2375
 20
114.8359
 30
0.0
 10
-82.2375
 20
114.8359
 30
0.0
 10
-82.2375
 20
114.8359
 30
0.0
 10
-72.3106
 20
114.8359
 30
0.0
 10
-72.3106
 20
114.8359
 30
0.0
 10
-72.3106
 20
114.8359
 30
0.0
 10
-76.4488
 20
104.4528
 30
0.0
 10
-81.496
 20
99.6786
 30
0.0
 10
-92.3593
 20
95.6083
 30
0.0
 10
-92.3593
 20
95.6083
 30
0.0
 10
-92.8243
 20
96.5211
 30
0.0
 10
-93.5056
 20
97.3063
 30
0.0
 10
-94.3346
 20
97.8962
 30
0.0
  0
SPLINE
  5
AA
330
1F
100
AcDbEntity
  8
layer 1
 62
     7
100
AcDbSpline
210
0.0
220
0.0
230
1.0
 70
    11
 71
     3
 72
    20
 73
    16
 74
     0
 42
0.0000000001
 43
0.0000000001
 12
1.0
 22
0.0
 32
0.0
 13
1.0
 23
0.0
 33
0.0
 40
0.0
 40
0.0
 40
0.0
 40
0.0
 40
0.2
 40
0.2
 40
0.2
 40
0.2
 40
0.4
 40
0.4
 40
0.4
 40
0.4
 40
0.6
 40
0.6
 40
0.6
 40
0.6
 40
1.0
 40
1.0
 40
1.0
 40
1.0
 10
-74.5514
 20
67.2697
 30
0.0
 10
-84.5608
 20
69.4689
 30
0.0
 10
-92.4054
 20
77.4565
 30
0.0
 10
-94.3936
 20
87.5428
 30
0.0
 10
-94.3936
 20
87.5428
 30
0.0
 10
-93.5671
 20
88.117
 30
0.0
 10
-92.8842
 20
88.883
 30
0.0
 10
-92.4094
 20
89.7762
 30
0.0
 10
-92.4094
 20
89.7762
 30
0.0
 10
-81.2254
 20
85.5943
 30
0.0
 10
-76.1931
 20
80.6788
 30
0.0
 10
-71.985
 20
69.7013
 30
0.0
 10
-71.985
 20
69.7013
 30
0.0
 10
-73.0534
 20
69.1508
 30
0.0
 10
-73.9456
 20
68.3039
 30
0.0
 10
-74.5514
 20
67.2697
 30
0.0
  0
SPLINE
  5
AB
330
1F
100
AcDbEntity
  8
layer 1
 62
     7
100
AcDbSpline
210
0.0
220
0.0
230
1.0
 70
    11
 71
     3
 72
    16
 73
    12
 74
     0
 42
0.0000000001
 43
0.0000000001
 12
1.0
 22
0.0
 32
0.0
 13
1.0
 23
0.0
 33
0.0
 40
0.0
 40
0.0
 40
0.0
 40
0.0
 40
0.25
 40
0.25
 40
0.25
 40
0.25
 40
0.5
 40
0.5
 40
0.5
 40
0.5
 40
1.0
 40
1.0
 40
1.0
 40
1.0
 10
-183.015
 20
67.2951
 30
0.0
 10
-182.2142
 20
66.6771
 30
0.0
 10
-181.6974
 20
65.7069
 30
0.0
 10
-181.6974
 20
64.617
 30
0.0
 10
-181.6974
 20
64.617
 30
0.0
 10
-181.6971
 20
63.5272
 30
0.0
 10
-182.2146
 20
62.5588
 30
0.0
 10
-183.0153
 20
61.9409
 30
0.0
 10
-183.0153
 20
61.9409
 30
0.0
 10
-183.0153
 20
61.9409
 30
0.0
 10
-183.015
 20
67.2951
 30
0.0
 10
-183.015
 20
67.2951
 30
0.0
  0
SPLINE
  5
AC
330
1F
100
AcDbEntity
  8
layer 1
 62
     7
100
AcDbSpline
210
0.0
220
0.0
230
1.0
 70
    11
 71
     3
 72
    36
 73
    32
 74
     0
 42
0.0000000001
 43
0.0000000001
 12
1.0
 22
0.0
 32
0.0
 13
1.0
 23
0.0
 33
0.0
 40
0.0
 40
0.0
 40
0.0
 40
0.0
 40
0.1111111111111111
 40
0.1111111111111111
 40
0.1111111111111111
 40
0.1111111111111111
 40
0.2222222222222222
 40
0.2222222222222222
 40
0.2222222222222222
 40
0.2222222222222222
 40
0.3333333333333333
 40
0.3333333333333333
 40
0.3333333333333333
 40
0.3333333333333333
 40
0.4444444444444444
 40
0.4444444444444444
 40
0.4444444444444444
 40
0.4444444444444444
 40
0.5555555555555556
 40
0.5555555555555556
 40
0.5555555555555556
 40
0.5555555555555556
 40
0.6666666666666666
 40
0.6666666666666666
 40
0.6666666666666666
 40
0.6666666666666666
 40
0.7777777777777778
 40
0.7777777777777778
 40
0.7777777777777778
 40
0.7777777777777778
 40
1.0
 40
1.0
 40
1.0
 40
1.0
 10
-183.015
 20
112.956
 30
0.0
 10
-178.6779
 20
102.3875
 30
0.0
 10
-174.0807
 20
98.3793
 30
0.0
 10
-162.3292
 20
94.0358
 30
0.0
 10
-162.3292
 20
94.0358
 30
0.0
 10
-162.3607
 20
93.7792
 30
0.0
 10
-162.3779
 20
93.5104
 30
0.0
 10
-162.3779
 20
93.2437
 30
0.0
 10
-162.3779
 20
93.2437
 30
0.0
 10
-162.3779
 20
93.0481
 30
0.0
 10
-162.3729
 20
92.8532
 30
0.0
 10
-162.3559
 20
92.6625
 30
0.0
 10
-162.3559
 20
92.6625
 30
0.0
 10
-174.0887
 20
88.3215
 30
0.0
 10
-178.6788
 20
84.3149
 30
0.0
 10
-183.0153
 20
73.7459
 30
0.0
 10
-183.0153
 20
73.7459
 30
0.0
 10
-183.0153
 20
73.7459
 30
0.0
 10
-183.015
 20
81.949
 30
0.0
 10
-183.015
 20
81.949
 30
0.0
 10
-183.015
 20
81.949
 30
0.0
 10
-177.596
 20
82.8563
 30
0.0
 10
-173.463
 20
87.5703
 30
0.0
 10
-173.463
 20
93.2462
 30
0.0
 10
-173.463
 20
93.2462
 30
0.0
 10
-173.4624
 20
98.9221
 30
0.0
 10
-177.5963
 20
103.6373
 30
0.0
 10
-183.0153
 20
104.5442
 30
0.0
 10
-183.0153
 20
104.5442
 30
0.0
 10
-183.0153
 20
104.5442
 30
0.0
 10
-183.015
 20
112.956
 30
0.0
 10
-183.015
 20
112.956
 30
0.0
  0
SPLINE
  5
AD
330
1F
100
AcDbEntity
  8
layer 1
 62
     7
100
AcDbSpline
210
0.0
220
0.0
230
1.0
 70
    11
 71
     3
 72
    12
 73
     8
 74
     0
 42
0.0000000001
 43
0.0000000001
 12
1.0
 22
0.0
 32
0.0
 13
1.0
 23
0.0
 33
0.0
 40
0.0
 40
0.0
 40
0.0
 40
0.0
 40
0.3333333333333333
 40
0.3333333333333333
 40
0.3333333333333333
 40
0.3333333333333333
 40
1.0
 40
1.0
 40
1.0
 40
1.0
 10
-182.8695
 20
102.9352
 30
0.0
 10
-179.002
 20
102.1206
 30
0.0
 10
-175.9647
 20
99.0472
 30
0.0
 10
-175.2026
 20
95.1598
 30
0.0
 10
-175.2026
 20
95.1598
 30
0.0
 10
-179.0824
 20
95.9523
 30
0.0
 10
-182.1307
 20
99.0365
 30
0.0
 10
-182.8695
 20
102.9352
 30
0.0
  0
SPLINE
  5
AE
330
1F
100
AcDbEntity
  8
layer 1
 62
     7
100
AcDbSpline
210
0.0
220
0.0
230
1.0
 70
    11
 71
     3
 72
    12
 73
     8
 74
     0
 42
0.0000000001
 43
0.0000000001
 12
1.0
 22
0.0
 32
0.0
 13
1.0
 23
0.0
 33
0.0
 40
0.0
 40
0.0
 40
0.0
 40
0.0
 40
0.3333333333333333
 40
0.3333333333333333
 40
0.3333333333333333
 40
0.3333333333333333
 40
1.0
 40
1.0
 40
1.0
 40
1.0
 10
-175.258
 20
91.0715
 30
0.0
 10
-176.1282
 20
87.1938
 30
0.0
 10
-179.2747
 20
84.174
 30
0.0
 10
-183.2196
 20
83.4908
 30
0.0
 10
-183.2196
 20
83.4908
 30
0.0
 10
-182.372
 20
87.3813
 30
0.0
 10
-179.2148
 20
90.4109
 30
0.0
 10
-175.258
 20
91.0715
 30
0.0
  0
SPLINE
  5
AF
330
1F
100
AcDbEntity
  8
layer 1
 62
     7
100
AcDbSpline
210
0.0
220
0.0
230
1.0
 70
    11
 71
     3
 72
    20
 73
    16
 74
     0
 42
0.0000000001
 43
0.0000000001
 12
1.0
 22
0.0
 32
0.0
 13
1.0
 23
0.0
 33
0.0
 40
0.0
 40
0.0
 40
0.0
 40
0.0
 40
0.2
 40
0.2
 40
0.2
 40
0.2
 40
0.4
 40
0.4
 40
0.4
 40
0.4
 40
0.6
 40
0.6
 40
0.6
 40
0.6
 40
1.0
 40
1.0
 40
1.0
 40
1.0
 10
-183.015
 20
98.5812
 30
0.0
 10
-181.5006
 20
95.9395
 30
0.0
 10
-179.3665
 20
94.7736
 30
0.0
 10
-175.0204
 20
93.4917
 30
0.0
 10
-175.0204
 20
93.4917
 30
0.0
 10
-175.0176
 20
93.415
 30
0.0
 10
-175.0173
 20
93.3383
 30
0.0
 10
-175.017
 20
93.2614
 30
0.0
 10
-175.017
 20
93.2614
 30
0.0
 10
-179.3652
 20
91.9799
 30
0.0
 10
-181.5009
 20
90.8149
 30
0.0
 10
-183.0153
 20
88.1723
 30
0.0
 10
-183.0153
 20
88.1723
 30
0.0
 10
-183.0153
 20
88.1723
 30
0.0
 10
-183.015
 20
98.5812
 30
0.0
 10
-183.015
 20
98.5812
 30
0.0
  0
SPLINE
  5
B0
330
1F
100
AcDbEntity
  8
layer 1
 62
     7
100
AcDbSpline
210
0.0
220
0.0
230
1.0
 70
    11
 71
     3
 72
    20
 73
    16
 74
     0
 42
0.0000000001
 43
0.0000000001
 12
1.0
 22
0.0
 32
0.0
 13
1.0
 23
0.0
 33
0.0
 40
0.0
 40
0.0
 40
0.0
 40
0.0
 40
0.2
 40
0.2
 40
0.2
 40
0.2
 40
0.4
 40
0.4
 40
0.4
 40
0.4
 40
0.6
 40
0.6
 40
0.6
 40
0.6
 40
1.0
 40
1.0
 40
1.0
 40
1.0
 10
-159.546
 20
87.973
 30
0.0
 10
-161.6253
 20
77.9274
 30
0.0
 10
-169.5219
 20
70.0071
 30
0.0
 10
-179.5536
 20
67.8929
 30
0.0
 10
-179.5536
 20
67.8929
 30
0.0
 10
-180.0894
 20
68.8249
 30
0.0
 10
-180.8554
 20
69.6071
 30
0.0
 10
-181.7739
 20
70.1621
 30
0.0
 10
-181.7739
 20
70.1621
 30
0.0
 10
-177.5973
 20
81.1595
 30
0.0
 10
-172.6402
 20
86.1239
 30
0.0
 10
-161.6532
 20
90.3015
 30
0.0
 10
-161.6532
 20
90.3015
 30
0.0
 10
-161.1563
 20
89.3603
 30
0.0
 10
-160.4291
 20
88.5582
 30
0.0
 10
-159.546
 20
87.973
 30
0.0
  0
SPLINE
  5
B1
330
1F
100
AcDbEntity
  8
layer 1
 62
     7
100
AcDbSpline
210
0.0
220
0.0
230
1.0
 70
    11
 71
     3
 72
    20
 73
    16
 74
     0
 42
0.0000000001
 43
0.0000000001
 12
1.0
 22
0.0
 32
0.0
 13
1.0
 23
0.0
 33
0.0
 40
0.0
 40
0.0
 40
0.0
 40
0.0
 40
0.2
 40
0.2
 40
0.2
 40
0.2
 40
0.4
 40
0.4
 40
0.4
 40
0.4
 40
0.6
 40
0.6
 40
0.6
 40
0.6
 40
1.0
 40
1.0
 40
1.0
 40
1.0
 10
-170.5783
 20
114.828
 30
0.0
 10
-165.0051
 20
111.1155
 30
0.0
 10
-160.9499
 20
105.3016
 30
0.0
 10
-159.5466
 20
98.52
 30
0.0
 10
-159.5466
 20
98.52
 30
0.0
 10
-160.374
 20
97.9711
 30
0.0
 10
-161.0658
 20
97.233
 30
0.0
 10
-161.5577
 20
96.367
 30
0.0
 10
-161.5577
 20
96.367
 30
0.0
 10
-172.8811
 20
100.3293
 30
0.0
 10
-177.0367
 20
104.9876
 30
0.0
 10
-181.0954
 20
114.828
 30
0.0
 10
-181.0954
 20
114.828
 30
0.0
 10
-181.0954
 20
114.828
 30
0.0
 10
-170.5783
 20
114.828
 30
0.0
 10
-170.5783
 20
114.828
 30
0.0
  0
SPLINE
  5
B2
330
1F
100
AcDbEntity
  8
layer 1
 62
     7
100
AcDbSpline
210
0.0
220
0.0
230
1.0
 70
    11
 71
     3
 72
    20
 73
    16
 74
     0
 42
0.0000000001
 43
0.0000000001
 12
1.0
 22
0.0
 32
0.0
 13
1.0
 23
0.0
 33
0.0
 40
0.0
 40
0.0
 40
0.0
 40
0.0
 40
0.2
 40
0.2
 40
0.2
 40
0.2
 40
0.4
 40
0.4
 40
0.4
 40
0.4
 40
0.6
 40
0.6
 40
0.6
 40
0.6
 40
1.0
 40
1.0
 40
1.0
 40
1.0
 10
-127.1897
 20
67.8335
 30
0.0
 10
-125.3237
 20
67.8335
 30
0.0
 10
-123.8104
 20
66.3202
 30
0.0
 10
-123.8104
 20
64.4544
 30
0.0
 10
-123.8104
 20
64.4544
 30
0.0
 10
-123.8104
 20
62.5888
 30
0.0
 10
-125.3237
 20
61.0754
 30
0.0
 10
-127.1897
 20
61.0754
 30
0.0
 10
-127.1897
 20
61.0754
 30
0.0
 10
-129.0555
 20
61.0754
 30
0.0
 10
-130.5685
 20
62.5888
 30
0.0
 10
-130.5685
 20
64.4544
 30
0.0
 10
-130.5685
 20
64.4544
 30
0.0
 10
-130.5682
 20
66.3202
 30
0.0
 10
-129.0555
 20
67.8335
 30
0.0
 10
-127.1897
 20
67.8335
 30
0.0
  0
SPLINE
  5
B3
330
1F
100
AcDbEntity
  8
layer 1
 62
     7
100
AcDbSpline
210
0.0
220
0.0
230
1.0
 70
    11
 71
     3
 72
    20
 73
    16
 74
     0
 42
0.0000000001
 43
0.0000000001
 12
1.0
 22
0.0
 32
0.0
 13
1.0
 23
0.0
 33
0.0
 40
0.0
 40
0.0
 40
0.0
 40
0.0
 40
0.2
 40
0.2
 40
0.2
 40
0.2
 40
0.4
 40
0.4
 40
0.4
 40
0.4
 40
0.6
 40
0.6
 40
0.6
 40
0.6
 40
1.0
 40
1.0
 40
1.0
 40
1.0
 10
-156.0555
 20
96.625
 30
0.0
 10
-154.1896
 20
96.625
 30
0.0
 10
-152.6769
 20
95.112
 30
0.0
 10
-152.6769
 20
93.2462
 30
0.0
 10
-152.6769
 20
93.2462
 30
0.0
 10
-152.6763
 20
91.3803
 30
0.0
 10
-154.1899
 20
89.867
 30
0.0
 10
-156.0558
 20
89.867
 30
0.0
 10
-156.0558
 20
89.867
 30
0.0
 10
-157.9214
 20
89.867
 30
0.0
 10
-159.435
 20
91.3803
 30
0.0
 10
-159.435
 20
93.2462
 30
0.0
 10
-159.435
 20
93.2462
 30
0.0
 10
-159.4347
 20
95.112
 30
0.0
 10
-157.9217
 20
96.625
 30
0.0
 10
-156.0555
 20
96.625
 30
0.0
  0
SPLINE
  5
B4
330
1F
100
AcDbEntity
  8
layer 1
 62
     7
100
AcDbSpline
210
0.0
220
0.0
230
1.0
 70
    11
 71
     3
 72
    20
 73
    16
 74
     0
 42
0.0000000001
 43
0.0000000001
 12
1.0
 22
0.0
 32
0.0
 13
1.0
 23
0.0
 33
0.0
 40
0.0
 40
0.0
 40
0.0
 40
0.0
 40
0.2
 40
0.2
 40
0.2
 40
0.2
 40
0.4
 40
0.4
 40
0.4
 40
0.4
 40
0.6
 40
0.6
 40
0.6
 40
0.6
 40
1.0
 40
1.0
 40
1.0
 40
1.0
 10
-127.0312
 20
104.5393
 30
0.0
 10
-120.7074
 20
104.5393
 30
0.0
 10
-115.5764
 20
99.408
 30
0.0
 10
-115.5764
 20
93.0835
 30
0.0
 10
-115.5764
 20
93.0835
 30
0.0
 10
-115.5764
 20
86.7593
 30
0.0
 10
-120.7074
 20
81.628
 30
0.0
 10
-127.0316
 20
81.628
 30
0.0
 10
-127.0316
 20
81.628
 30
0.0
 10
-133.3564
 20
81.628
 30
0.0
 10
-138.4874
 20
86.7593
 30
0.0
 10
-138.4874
 20
93.0835
 30
0.0
 10
-138.4874
 20
93.0835
 30
0.0
 10
-138.4874
 20
99.408
 30
0.0
 10
-133.3564
 20
104.5393
 30
0.0
 10
-127.0312
 20
104.5393
 30
0.0
  0
SPLINE
  5
B5
330
1F
100
AcDbEntity
  8
layer 1
 62
     7
100
AcDbSpline
210
0.0
220
0.0
230
1.0
 70
    11
 71
     3
 72
    52
 73
    48
 74
     0
 42
0.0000000001
 43
0.0000000001
 12
1.0
 22
0.0
 32
0.0
 13
1.0
 23
0.0
 33
0.0
 40
0.0
 40
0.0
 40
0.0
 40
0.0
 40
0.0769230769230769
 40
0.0769230769230769
 40
0.0769230769230769
 40
0.0769230769230769
 40
0.1538461538461539
 40
0.1538461538461539
 40
0.1538461538461539
 40
0.1538461538461539
 40
0.2307692307692308
 40
0.2307692307692308
 40
0.2307692307692308
 40
0.2307692307692308
 40
0.3076923076923077
 40
0.3076923076923077
 40
0.3076923076923077
 40
0.3076923076923077
 40
0.3846153846153846
 40
0.3846153846153846
 40
0.3846153846153846
 40
0.3846153846153846
 40
0.4615384615384616
 40
0.4615384615384616
 40
0.4615384615384616
 40
0.4615384615384616
 40
0.5384615384615384
 40
0.5384615384615384
 40
0.5384615384615384
 40
0.5384615384615384
 40
0.6153846153846154
 40
0.6153846153846154
 40
0.6153846153846154
 40
0.6153846153846154
 40
0.6923076923076923
 40
0.6923076923076923
 40
0.6923076923076923
 40
0.6923076923076923
 40
0.7692307692307693
 40
0.7692307692307693
 40
0.7692307692307693
 40
0.7692307692307693
 40
0.8461538461538461
 40
0.8461538461538461
 40
0.8461538461538461
 40
0.8461538461538461
 40
1.0
 40
1.0
 40
1.0
 40
1.0
 10
-126.1962
 20
115.5426
 30
0.0
 10
-124.2187
 20
104.1902
 30
0.0
 10
-114.0652
 20
95.4744
 30
0.0
 10
-104.4446
 20
93.8721
 30
0.0
 10
-104.4446
 20
93.8721
 30
0.0
 10
-104.4765
 20
93.6143
 30
0.0
 10
-104.493
 20
93.3504
 30
0.0
 10
-104.493
 20
93.0835
 30
0.0
 10
-104.493
 20
93.0835
 30
0.0
 10
-104.4927
 20
92.8865
 30
0.0
 10
-104.4838
 20
92.6918
 30
0.0
 10
-104.4661
 20
92.4992
 30
0.0
 10
-104.4661
 20
92.4992
 30
0.0
 10
-117.1698
 20
87.8002
 30
0.0
 10
-121.5006
 20
83.4924
 30
0.0
 10
-126.1971
 20
70.8351
 30
0.0
 10
-126.1971
 20
70.8351
 30
0.0
 10
-126.5087
 20
70.8822
 30
0.0
 10
-126.8279
 20
70.9064
 30
0.0
 10
-127.1533
 20
70.9064
 30
0.0
 10
-127.1533
 20
70.9064
 30
0.0
 10
-127.3285
 20
70.9064
 30
0.0
 10
-127.5025
 20
70.8993
 30
0.0
 10
-127.6747
 20
70.8852
 30
0.0
 10
-127.6747
 20
70.8852
 30
0.0
 10
-132.4096
 20
83.6259
 30
0.0
 10
-136.7854
 20
87.8889
 30
0.0
 10
-149.7613
 20
92.6358
 30
0.0
 10
-149.7613
 20
92.6358
 30
0.0
 10
-149.742
 20
92.8367
 30
0.0
 10
-149.7319
 20
93.0401
 30
0.0
 10
-149.7319
 20
93.2462
 30
0.0
 10
-149.7319
 20
93.2462
 30
0.0
 10
-149.7317
 20
93.4144
 30
0.0
 10
-149.7383
 20
93.5816
 30
0.0
 10
-149.7511
 20
93.7467
 30
0.0
 10
-149.7511
 20
93.7467
 30
0.0
 10
-139.6766
 20
96.2661
 30
0.0
 10
-129.4591
 20
105.5337
 30
0.0
 10
-127.6379
 20
115.5924
 30
0.0
 10
-127.6379
 20
115.5924
 30
0.0
 10
-127.3315
 20
115.5468
 30
0.0
 10
-127.0184
 20
115.5224
 30
0.0
 10
-126.6992
 20
115.5224
 30
0.0
 10
-126.6992
 20
115.5224
 30
0.0
 10
-126.5295
 20
115.5224
 30
0.0
 10
-126.3625
 20
115.5298
 30
0.0
 10
-126.1962
 20
115.5426
 30
0.0
  0
SPLINE
  5
B6
330
1F
100
AcDbEntity
  8
layer 1
 62
     7
100
AcDbSpline
210
0.0
220
0.0
230
1.0
 70
    11
 71
     3
 72
    12
 73
     8
 74
     0
 42
0.0000000001
 43
0.0000000001
 12
1.0
 22
0.0
 32
0.0
 13
1.0
 23
0.0
 33
0.0
 40
0.0
 40
0.0
 40
0.0
 40
0.0
 40
0.3333333333333333
 40
0.3333333333333333
 40
0.3333333333333333
 40
0.3333333333333333
 40
1.0
 40
1.0
 40
1.0
 40
1.0
 10
-136.6689
 20
95.3622
 30
0.0
 10
-135.8277
 20
98.9313
 30
0.0
 10
-133.0558
 20
101.7561
 30
0.0
 10
-129.5161
 20
102.6713
 30
0.0
 10
-129.5161
 20
102.6713
 30
0.0
 10
-130.3383
 20
99.0922
 30
0.0
 10
-133.1191
 20
96.2597
 30
0.0
 10
-136.6689
 20
95.3622
 30
0.0
  0
SPLINE
  5
B7
330
1F
100
AcDbEntity
  8
layer 1
 62
     7
100
AcDbSpline
210
0.0
220
0.0
230
1.0
 70
    11
 71
     3
 72
    12
 73
     8
 74
     0
 42
0.0000000001
 43
0.0000000001
 12
1.0
 22
0.0
 32
0.0
 13
1.0
 23
0.0
 33
0.0
 40
0.0
 40
0.0
 40
0.0
 40
0.0
 40
0.3333333333333333
 40
0.3333333333333333
 40
0.3333333333333333
 40
0.3333333333333333
 40
1.0
 40
1.0
 40
1.0
 40
1.0
 10
-124.9828
 20
102.7729
 30
0.0
 10
-121.115
 20
101.9582
 30
0.0
 10
-118.0779
 20
98.8848
 30
0.0
 10
-117.316
 20
94.9974
 30
0.0
 10
-117.316
 20
94.9974
 30
0.0
 10
-121.1957
 20
95.7896
 30
0.0
 10
-124.2441
 20
98.8738
 30
0.0
 10
-124.9828
 20
102.7729
 30
0.0
  0
SPLINE
  5
B8
330
1F
100
AcDbEntity
  8
layer 1
 62
     7
100
AcDbSpline
210
0.0
220
0.0
230
1.0
 70
    11
 71
     3
 72
    12
 73
     8
 74
     0
 42
0.0000000001
 43
0.0000000001
 12
1.0
 22
0.0
 32
0.0
 13
1.0
 23
0.0
 33
0.0
 40
0.0
 40
0.0
 40
0.0
 40
0.0
 40
0.3333333333333333
 40
0.3333333333333333
 40
0.3333333333333333
 40
0.3333333333333333
 40
1.0
 40
1.0
 40
1.0
 40
1.0
 10
-117.3713
 20
90.9091
 30
0.0
 10
-118.2412
 20
87.0311
 30
0.0
 10
-121.3881
 20
84.0115
 30
0.0
 10
-125.3329
 20
83.3284
 30
0.0
 10
-125.3329
 20
83.3284
 30
0.0
 10
-124.485
 20
87.2186
 30
0.0
 10
-121.3282
 20
90.2483
 30
0.0
 10
-117.3713
 20
90.9091
 30
0.0
  0
SPLINE
  5
B9
330
1F
100
AcDbEntity
  8
layer 1
 62
     7
100
AcDbSpline
210
0.0
220
0.0
230
1.0
 70
    11
 71
     3
 72
    12
 73
     8
 74
     0
 42
0.0000000001
 43
0.0000000001
 12
1.0
 22
0.0
 32
0.0
 13
1.0
 23
0.0
 33
0.0
 40
0.0
 40
0.0
 40
0.0
 40
0.0
 40
0.3333333333333333
 40
0.3333333333333333
 40
0.3333333333333333
 40
0.3333333333333333
 40
1.0
 40
1.0
 40
1.0
 40
1.0
 10
-129.0549
 20
83.3896
 30
0.0
 10
-132.8983
 20
84.1886
 30
0.0
 10
-135.9262
 20
87.2165
 30
0.0
 10
-136.7252
 20
91.0592
 30
0.0
 10
-136.7252
 20
91.0592
 30
0.0
 10
-132.8701
 20
90.2822
 30
0.0
 10
-129.8325
 20
87.2443
 30
0.0
 10
-129.0549
 20
83.3896
 30
0.0
  0
SPLINE
  5
BA
330
1F
100
AcDbEntity
  8
layer 1
 62
     7
100
AcDbSpline
210
0.0
220
0.0
230
1.0
 70
    11
 71
     3
 72
    48
 73
    44
 74
     0
 42
0.0000000001
 43
0.0000000001
 12
1.0
 22
0.0
 32
0.0
 13
1.0
 23
0.0
 33
0.0
 40
0.0
 40
0.0
 40
0.0
 40
0.0
 40
0.0833333333333333
 40
0.0833333333333333
 40
0.0833333333333333
 40
0.0833333333333333
 40
0.1666666666666667
 40
0.1666666666666667
 40
0.1666666666666667
 40
0.1666666666666667
 40
0.25
 40
0.25
 40
0.25
 40
0.25
 40
0.3333333333333333
 40
0.3333333333333333
 40
0.3333333333333333
 40
0.3333333333333333
 40
0.4166666666666667
 40
0.4166666666666667
 40
0.4166666666666667
 40
0.4166666666666667
 40
0.5
 40
0.5
 40
0.5
 40
0.5
 40
0.5833333333333334
 40
0.5833333333333334
 40
0.5833333333333334
 40
0.5833333333333334
 40
0.6666666666666666
 40
0.6666666666666666
 40
0.6666666666666666
 40
0.6666666666666666
 40
0.75
 40
0.75
 40
0.75
 40
0.75
 40
0.8333333333333334
 40
0.8333333333333334
 40
0.8333333333333334
 40
0.8333333333333334
 40
1.0
 40
1.0
 40
1.0
 40
1.0
 10
-127.0312
 20
102.9854
 30
0.0
 10
-127.0312
 20
102.9854
 30
0.0
 10
-126.9285
 20
102.9841
 30
0.0
 10
-126.9285
 20
102.9841
 30
0.0
 10
-126.9285
 20
102.9841
 30
0.0
 10
-125.0791
 20
96.7945
 30
0.0
 10
-123.4211
 20
95.1836
 30
0.0
 10
-117.1334
 20
93.3294
 30
0.0
 10
-117.1334
 20
93.3294
 30
0.0
 10
-117.1316
 20
93.2526
 30
0.0
 10
-117.1306
 20
93.1758
 30
0.0
 10
-117.1303
 20
93.0988
 30
0.0
 10
-117.1303
 20
93.0988
 30
0.0
 10
-123.5084
 20
91.2194
 30
0.0
 10
-125.1241
 20
89.5899
 30
0.0
 10
-127.0058
 20
83.1819
 30
0.0
 10
-127.0058
 20
83.1819
 30
0.0
 10
-127.0058
 20
83.1819
 30
0.0
 10
-127.0312
 20
83.1816
 30
0.0
 10
-127.0312
 20
83.1816
 30
0.0
 10
-127.0312
 20
83.1816
 30
0.0
 10
-127.0312
 20
83.1816
 30
0.0
 10
-127.2004
 20
83.1844
 30
0.0
 10
-127.2004
 20
83.1844
 30
0.0
 10
-127.2004
 20
83.1844
 30
0.0
 10
-129.0669
 20
89.5422
 30
0.0
 10
-130.6737
 20
91.1953
 30
0.0
 10
-136.9334
 20
93.0566
 30
0.0
 10
-136.9334
 20
93.0566
 30
0.0
 10
-136.9334
 20
93.0566
 30
0.0
 10
-136.9334
 20
93.0835
 30
0.0
 10
-136.9334
 20
93.0835
 30
0.0
 10
-136.9334
 20
93.0835
 30
0.0
 10
-136.9334
 20
93.1801
 30
0.0
 10
-136.9315
 20
93.2765
 30
0.0
 10
-136.9288
 20
93.3721
 30
0.0
 10
-136.9288
 20
93.3721
 30
0.0
 10
-130.7594
 20
95.2084
 30
0.0
 10
-129.1121
 20
96.8416
 30
0.0
 10
-127.2783
 20
102.9826
 30
0.0
 10
-127.2783
 20
102.9826
 30
0.0
 10
-127.1964
 20
102.9844
 30
0.0
 10
-127.1141
 20
102.9854
 30
0.0
 10
-127.0312
 20
102.9854
 30
0.0
  0
SPLINE
  5
BB
330
1F
100
AcDbEntity
  8
layer 1
 62
     7
100
AcDbSpline
210
0.0
220
0.0
230
1.0
 70
    11
 71
     3
 72
    20
 73
    16
 74
     0
 42
0.0000000001
 43
0.0000000001
 12
1.0
 22
0.0
 32
0.0
 13
1.0
 23
0.0
 33
0.0
 40
0.0
 40
0.0
 40
0.0
 40
0.0
 40
0.2
 40
0.2
 40
0.2
 40
0.2
 40
0.4
 40
0.4
 40
0.4
 40
0.4
 40
0.6
 40
0.6
 40
0.6
 40
0.6
 40
1.0
 40
1.0
 40
1.0
 40
1.0
 10
-152.5653
 20
98.0588
 30
0.0
 10
-151.0878
 20
105.1378
 30
0.0
 10
-146.7193
 20
111.1576
 30
0.0
 10
-140.7526
 20
114.828
 30
0.0
 10
-140.7526
 20
114.828
 30
0.0
 10
-140.7526
 20
114.828
 30
0.0
 10
-130.6089
 20
114.828
 30
0.0
 10
-130.6089
 20
114.828
 30
0.0
 10
-130.6089
 20
114.828
 30
0.0
 10
-134.7342
 20
104.5632
 30
0.0
 10
-139.7867
 20
99.8187
 30
0.0
 10
-150.5902
 20
95.7707
 30
0.0
 10
-150.5902
 20
95.7707
 30
0.0
 10
-151.0551
 20
96.6835
 30
0.0
 10
-151.7369
 20
97.4687
 30
0.0
 10
-152.5653
 20
98.0588
 30
0.0
  0
SPLINE
  5
BC
330
1F
100
AcDbEntity
  8
layer 1
 62
     7
100
AcDbSpline
210
0.0
220
0.0
230
1.0
 70
    11
 71
     3
 72
    20
 73
    16
 74
     0
 42
0.0000000001
 43
0.0000000001
 12
1.0
 22
0.0
 32
0.0
 13
1.0
 23
0.0
 33
0.0
 40
0.0
 40
0.0
 40
0.0
 40
0.0
 40
0.2
 40
0.2
 40
0.2
 40
0.2
 40
0.4
 40
0.4
 40
0.4
 40
0.4
 40
0.6
 40
0.6
 40
0.6
 40
0.6
 40
1.0
 40
1.0
 40
1.0
 40
1.0
 10
-132.783
 20
67.4321
 30
0.0
 10
-142.7925
 20
69.6315
 30
0.0
 10
-150.6364
 20
77.6189
 30
0.0
 10
-152.6249
 20
87.7054
 30
0.0
 10
-152.6249
 20
87.7054
 30
0.0
 10
-151.7984
 20
88.2793
 30
0.0
 10
-151.1153
 20
89.0454
 30
0.0
 10
-150.6407
 20
89.9389
 30
0.0
 10
-150.6407
 20
89.9389
 30
0.0
 10
-138.94
 20
86.2731
 30
0.0
 10
-134.0799
 20
80.8415
 30
0.0
 10
-130.216
 20
69.864
 30
0.0
 10
-130.216
 20
69.864
 30
0.0
 10
-131.2841
 20
69.3133
 30
0.0
 10
-132.177
 20
68.4665
 30
0.0
 10
-132.783
 20
67.4321
 30
0.0
  0
SPLINE
  5
BD
330
1F
100
AcDbEntity
  8
layer 1
 62
     7
100
AcDbSpline
210
0.0
220
0.0
230
1.0
 70
    11
 71
     3
 72
    20
 73
    16
 74
     0
 42
0.0000000001
 43
0.0000000001
 12
1.0
 22
0.0
 32
0.0
 13
1.0
 23
0.0
 33
0.0
 40
0.0
 40
0.0
 40
0.0
 40
0.0
 40
0.2
 40
0.2
 40
0.2
 40
0.2
 40
0.4
 40
0.4
 40
0.4
 40
0.4
 40
0.6
 40
0.6
 40
0.6
 40
0.6
 40
1.0
 40
1.0
 40
1.0
 40
1.0
 10
-101.8314
 20
87.4663
 30
0.0
 10
-103.9101
 20
77.4207
 30
0.0
 10
-111.8073
 20
69.5001
 30
0.0
 10
-121.839
 20
67.3859
 30
0.0
 10
-121.839
 20
67.3859
 30
0.0
 10
-122.3748
 20
68.3179
 30
0.0
 10
-123.1405
 20
69.1001
 30
0.0
 10
-124.0594
 20
69.6553
 30
0.0
 10
-124.0594
 20
69.6553
 30
0.0
 10
-120.3992
 20
80.6529
 30
0.0
 10
-114.9257
 20
85.6169
 30
0.0
 10
-103.9386
 20
89.7948
 30
0.0
 10
-103.9386
 20
89.7948
 30
0.0
 10
-103.4417
 20
88.8536
 30
0.0
 10
-102.7142
 20
88.0515
 30
0.0
 10
-101.8314
 20
87.4663
 30
0.0
  0
SPLINE
  5
BE
330
1F
100
AcDbEntity
  8
layer 1
 62
     7
100
AcDbSpline
210
0.0
220
0.0
230
1.0
 70
    11
 71
     3
 72
    20
 73
    16
 74
     0
 42
0.0000000001
 43
0.0000000001
 12
1.0
 22
0.0
 32
0.0
 13
1.0
 23
0.0
 33
0.0
 40
0.0
 40
0.0
 40
0.0
 40
0.0
 40
0.2
 40
0.2
 40
0.2
 40
0.2
 40
0.4
 40
0.4
 40
0.4
 40
0.4
 40
0.6
 40
0.6
 40
0.6
 40
0.6
 40
1.0
 40
1.0
 40
1.0
 40
1.0
 10
-113.6545
 20
114.828
 30
0.0
 10
-107.6753
 20
111.1503
 30
0.0
 10
-103.3007
 20
105.1117
 30
0.0
 10
-101.8321
 20
98.0133
 30
0.0
 10
-101.8321
 20
98.0133
 30
0.0
 10
-102.6595
 20
97.4644
 30
0.0
 10
-103.3512
 20
96.7263
 30
0.0
 10
-103.8431
 20
95.86
 30
0.0
 10
-103.8431
 20
95.86
 30
0.0
 10
-114.4841
 20
99.8896
 30
0.0
 10
-119.4919
 20
104.6394
 30
0.0
 10
-123.5872
 20
114.828
 30
0.0
 10
-123.5872
 20
114.828
 30
0.0
 10
-123.5872
 20
114.828
 30
0.0
 10
-113.6545
 20
114.828
 30
0.0
 10
-113.6545
 20
114.828
 30
0.0
  0
SPLINE
  5
BF
330
1F
100
AcDbEntity
  8
layer 1
 62
     7
100
AcDbSpline
210
0.0
220
0.0
230
1.0
 70
    11
 71
     3
 72
    20
 73
    16
 74
     0
 42
0.0000000001
 43
0.0000000001
 12
1.0
 22
0.0
 32
0.0
 13
1.0
 23
0.0
 33
0.0
 40
0.0
 40
0.0
 40
0.0
 40
0.0
 40
0.2
 40
0.2
 40
0.2
 40
0.2
 40
0.4
 40
0.4
 40
0.4
 40
0.4
 40
0.6
 40
0.6
 40
0.6
 40
0.6
 40
1.0
 40
1.0
 40
1.0
 40
1.0
 10
-98.1688
 20
96.4627
 30
0.0
 10
-96.3029
 20
96.4627
 30
0.0
 10
-94.7899
 20
94.9494
 30
0.0
 10
-94.7899
 20
93.0835
 30
0.0
 10
-94.7899
 20
93.0835
 30
0.0
 10
-94.7896
 20
91.218
 30
0.0
 10
-96.3032
 20
89.7047
 30
0.0
 10
-98.1691
 20
89.7047
 30
0.0
 10
-98.1691
 20
89.7047
 30
0.0
 10
-100.0347
 20
89.7047
 30
0.0
 10
-101.5483
 20
91.218
 30
0.0
 10
-101.5483
 20
93.0835
 30
0.0
 10
-101.5483
 20
93.0835
 30
0.0
 10
-101.548
 20
94.9494
 30
0.0
 10
-100.035
 20
96.4627
 30
0.0
 10
-98.1688
 20
96.4627
 30
0.0
  0
SPLINE
  5
C0
330
1F
100
AcDbEntity
  8
layer 1
 62
     7
100
AcDbSpline
210
0.0
220
0.0
230
1.0
 70
    11
 71
     3
 72
    20
 73
    16
 74
     0
 42
0.0000000001
 43
0.0000000001
 12
1.0
 22
0.0
 32
0.0
 13
1.0
 23
0.0
 33
0.0
 40
0.0
 40
0.0
 40
0.0
 40
0.0
 40
0.2
 40
0.2
 40
0.2
 40
0.2
 40
0.4
 40
0.4
 40
0.4
 40
0.4
 40
0.6
 40
0.6
 40
0.6
 40
0.6
 40
1.0
 40
1.0
 40
1.0
 40
1.0
 10
-156.546
 20
-17.8157
 30
0.0
 10
-154.6801
 20
-17.8157
 30
0.0
 10
-153.167
 20
-19.3288
 30
0.0
 10
-153.167
 20
-21.1946
 30
0.0
 10
-153.167
 20
-21.1946
 30
0.0
 10
-153.1668
 20
-23.0605
 30
0.0
 10
-154.6801
 20
-24.5738
 30
0.0
 10
-156.546
 20
-24.5738
 30
0.0
 10
-156.546
 20
-24.5738
 30
0.0
 10
-158.4118
 20
-24.5738
 30
0.0
 10
-159.9251
 20
-23.0605
 30
0.0
 10
-159.9251
 20
-21.1946
 30
0.0
 10
-159.9251
 20
-21.1946
 30
0.0
 10
-159.9251
 20
-19.3288
 30
0.0
 10
-158.4118
 20
-17.8157
 30
0.0
 10
-156.546
 20
-17.8157
 30
0.0
  0
SPLINE
  5
C1
330
1F
100
AcDbEntity
  8
layer 1
 62
     7
100
AcDbSpline
210
0.0
220
0.0
230
1.0
 70
    11
 71
     3
 72
    20
 73
    16
 74
     0
 42
0.0000000001
 43
0.0000000001
 12
1.0
 22
0.0
 32
0.0
 13
1.0
 23
0.0
 33
0.0
 40
0.0
 40
0.0
 40
0.0
 40
0.0
 40
0.2
 40
0.2
 40
0.2
 40
0.2
 40
0.4
 40
0.4
 40
0.4
 40
0.4
 40
0.6
 40
0.6
 40
0.6
 40
0.6
 40
1.0
 40
1.0
 40
1.0
 40
1.0
 10
-156.3875
 20
18.89
 30
0.0
 10
-150.0637
 20
18.89
 30
0.0
 10
-144.9326
 20
13.759
 30
0.0
 10
-144.9326
 20
7.4345
 30
0.0
 10
-144.9326
 20
7.4345
 30
0.0
 10
-144.9326
 20
1.11
 30
0.0
 10
-150.0637
 20
-4.021
 30
0.0
 10
-156.3878
 20
-4.021
 30
0.0
 10
-156.3878
 20
-4.021
 30
0.0
 10
-162.7126
 20
-4.021
 30
0.0
 10
-167.8437
 20
1.11
 30
0.0
 10
-167.8437
 20
7.4345
 30
0.0
 10
-167.8437
 20
7.4345
 30
0.0
 10
-167.8437
 20
13.759
 30
0.0
 10
-162.7126
 20
18.89
 30
0.0
 10
-156.3875
 20
18.89
 30
0.0
  0
SPLINE
  5
C2
330
1F
100
AcDbEntity
  8
layer 1
 62
     7
100
AcDbSpline
210
0.0
220
0.0
230
1.0
 70
    11
 71
     3
 72
    52
 73
    48
 74
     0
 42
0.0000000001
 43
0.0000000001
 12
1.0
 22
0.0
 32
0.0
 13
1.0
 23
0.0
 33
0.0
 40
0.0
 40
0.0
 40
0.0
 40
0.0
 40
0.0769230769230769
 40
0.0769230769230769
 40
0.0769230769230769
 40
0.0769230769230769
 40
0.1538461538461539
 40
0.1538461538461539
 40
0.1538461538461539
 40
0.1538461538461539
 40
0.2307692307692308
 40
0.2307692307692308
 40
0.2307692307692308
 40
0.2307692307692308
 40
0.3076923076923077
 40
0.3076923076923077
 40
0.3076923076923077
 40
0.3076923076923077
 40
0.3846153846153846
 40
0.3846153846153846
 40
0.3846153846153846
 40
0.3846153846153846
 40
0.4615384615384616
 40
0.4615384615384616
 40
0.4615384615384616
 40
0.4615384615384616
 40
0.5384615384615384
 40
0.5384615384615384
 40
0.5384615384615384
 40
0.5384615384615384
 40
0.6153846153846154
 40
0.6153846153846154
 40
0.6153846153846154
 40
0.6153846153846154
 40
0.6923076923076923
 40
0.6923076923076923
 40
0.6923076923076923
 40
0.6923076923076923
 40
0.7692307692307693
 40
0.7692307692307693
 40
0.7692307692307693
 40
0.7692307692307693
 40
0.8461538461538461
 40
0.8461538461538461
 40
0.8461538461538461
 40
0.8461538461538461
 40
1.0
 40
1.0
 40
1.0
 40
1.0
 10
-155.5524
 20
29.8936
 30
0.0
 10
-152.8729
 20
18.3406
 30
0.0
 10
-144.2348
 20
10.541
 30
0.0
 10
-133.801
 20
8.2231
 30
0.0
 10
-133.801
 20
8.2231
 30
0.0
 10
-133.8328
 20
7.9651
 30
0.0
 10
-133.8493
 20
7.7012
 30
0.0
 10
-133.8493
 20
7.4345
 30
0.0
 10
-133.8493
 20
7.4345
 30
0.0
 10
-133.849
 20
7.2373
 30
0.0
 10
-133.8401
 20
7.0428
 30
0.0
 10
-133.8227
 20
6.8502
 30
0.0
 10
-133.8227
 20
6.8502
 30
0.0
 10
-146.0047
 20
2.5903
 30
0.0
 10
-152.4298
 20
-1.6423
 30
0.0
 10
-155.5534
 20
-14.8142
 30
0.0
 10
-155.5534
 20
-14.8142
 30
0.0
 10
-155.865
 20
-14.7668
 30
0.0
 10
-156.1842
 20
-14.7426
 30
0.0
 10
-156.5096
 20
-14.7426
 30
0.0
 10
-156.5096
 20
-14.7426
 30
0.0
 10
-156.6848
 20
-14.7426
 30
0.0
 10
-156.8587
 20
-14.7496
 30
0.0
 10
-157.0312
 20
-14.7637
 30
0.0
 10
-157.0312
 20
-14.7637
 30
0.0
 10
-161.766
 20
-2.023
 30
0.0
 10
-166.142
 20
2.2399
 30
0.0
 10
-179.1176
 20
6.9866
 30
0.0
 10
-179.1176
 20
6.9866
 30
0.0
 10
-179.0983
 20
7.1878
 30
0.0
 10
-179.0886
 20
7.3911
 30
0.0
 10
-179.0886
 20
7.5969
 30
0.0
 10
-179.0886
 20
7.5969
 30
0.0
 10
-179.0879
 20
7.7654
 30
0.0
 10
-179.0946
 20
7.9327
 30
0.0
 10
-179.1075
 20
8.0978
 30
0.0
 10
-179.1075
 20
8.0978
 30
0.0
 10
-166.9278
 20
11.9277
 30
0.0
 10
-158.9876
 20
20.4012
 30
0.0
 10
-156.9942
 20
29.9435
 30
0.0
 10
-156.9942
 20
29.9435
 30
0.0
 10
-156.6873
 20
29.8979
 30
0.0
 10
-156.3747
 20
29.8732
 30
0.0
 10
-156.0555
 20
29.8732
 30
0.0
 10
-156.0555
 20
29.8732
 30
0.0
 10
-155.8857
 20
29.8732
 30
0.0
 10
-155.7188
 20
29.8805
 30
0.0
 10
-155.5524
 20
29.8936
 30
0.0
  0
SPLINE
  5
C3
330
1F
100
AcDbEntity
  8
layer 1
 62
     7
100
AcDbSpline
210
0.0
220
0.0
230
1.0
 70
    11
 71
     3
 72
    12
 73
     8
 74
     0
 42
0.0000000001
 43
0.0000000001
 12
1.0
 22
0.0
 32
0.0
 13
1.0
 23
0.0
 33
0.0
 40
0.0
 40
0.0
 40
0.0
 40
0.0
 40
0.3333333333333333
 40
0.3333333333333333
 40
0.3333333333333333
 40
0.3333333333333333
 40
1.0
 40
1.0
 40
1.0
 40
1.0
 10
-166.0252
 20
9.7132
 30
0.0
 10
-165.184
 20
13.2823
 30
0.0
 10
-162.4121
 20
16.1068
 30
0.0
 10
-158.8727
 20
17.0224
 30
0.0
 10
-158.8727
 20
17.0224
 30
0.0
 10
-159.6946
 20
13.4432
 30
0.0
 10
-162.4754
 20
10.6104
 30
0.0
 10
-166.0252
 20
9.7132
 30
0.0
  0
SPLINE
  5
C4
330
1F
100
AcDbEntity
  8
layer 1
 62
     7
100
AcDbSpline
210
0.0
220
0.0
230
1.0
 70
    11
 71
     3
 72
    12
 73
     8
 74
     0
 42
0.0000000001
 43
0.0000000001
 12
1.0
 22
0.0
 32
0.0
 13
1.0
 23
0.0
 33
0.0
 40
0.0
 40
0.0
 40
0.0
 40
0.0
 40
0.3333333333333333
 40
0.3333333333333333
 40
0.3333333333333333
 40
0.3333333333333333
 40
1.0
 40
1.0
 40
1.0
 40
1.0
 10
-154.3397
 20
17.1235
 30
0.0
 10
-150.4713
 20
16.3089
 30
0.0
 10
-147.4343
 20
13.2355
 30
0.0
 10
-146.6722
 20
9.3481
 30
0.0
 10
-146.6722
 20
9.3481
 30
0.0
 10
-150.552
 20
10.1407
 30
0.0
 10
-153.6003
 20
13.2248
 30
0.0
 10
-154.3397
 20
17.1235
 30
0.0
  0
SPLINE
  5
C5
330
1F
100
AcDbEntity
  8
layer 1
 62
     7
100
AcDbSpline
210
0.0
220
0.0
230
1.0
 70
    11
 71
     3
 72
    12
 73
     8
 74
     0
 42
0.0000000001
 43
0.0000000001
 12
1.0
 22
0.0
 32
0.0
 13
1.0
 23
0.0
 33
0.0
 40
0.0
 40
0.0
 40
0.0
 40
0.0
 40
0.3333333333333333
 40
0.3333333333333333
 40
0.3333333333333333
 40
0.3333333333333333
 40
1.0
 40
1.0
 40
1.0
 40
1.0
 10
-146.7276
 20
5.2598
 30
0.0
 10
-147.5976
 20
1.3821
 30
0.0
 10
-150.7443
 20
-1.6374
 30
0.0
 10
-154.6892
 20
-2.3208
 30
0.0
 10
-154.6892
 20
-2.3208
 30
0.0
 10
-153.8413
 20
1.5696
 30
0.0
 10
-150.6844
 20
4.5994
 30
0.0
 10
-146.7276
 20
5.2598
 30
0.0
  0
SPLINE
  5
C6
330
1F
100
AcDbEntity
  8
layer 1
 62
     7
100
AcDbSpline
210
0.0
220
0.0
230
1.0
 70
    11
 71
     3
 72
    12
 73
     8
 74
     0
 42
0.0000000001
 43
0.0000000001
 12
1.0
 22
0.0
 32
0.0
 13
1.0
 23
0.0
 33
0.0
 40
0.0
 40
0.0
 40
0.0
 40
0.0
 40
0.3333333333333333
 40
0.3333333333333333
 40
0.3333333333333333
 40
0.3333333333333333
 40
1.0
 40
1.0
 40
1.0
 40
1.0
 10
-158.4112
 20
-2.2597
 30
0.0
 10
-162.2546
 20
-1.4604
 30
0.0
 10
-165.2824
 20
1.5672
 30
0.0
 10
-166.0818
 20
5.41
 30
0.0
 10
-166.0818
 20
5.41
 30
0.0
 10
-162.2267
 20
4.6329
 30
0.0
 10
-159.1891
 20
1.5953
 30
0.0
 10
-158.4112
 20
-2.2597
 30
0.0
  0
SPLINE
  5
C7
330
1F
100
AcDbEntity
  8
layer 1
 62
     7
100
AcDbSpline
210
0.0
220
0.0
230
1.0
 70
    11
 71
     3
 72
    48
 73
    44
 74
     0
 42
0.0000000001
 43
0.0000000001
 12
1.0
 22
0.0
 32
0.0
 13
1.0
 23
0.0
 33
0.0
 40
0.0
 40
0.0
 40
0.0
 40
0.0
 40
0.0833333333333333
 40
0.0833333333333333
 40
0.0833333333333333
 40
0.0833333333333333
 40
0.1666666666666667
 40
0.1666666666666667
 40
0.1666666666666667
 40
0.1666666666666667
 40
0.25
 40
0.25
 40
0.25
 40
0.25
 40
0.3333333333333333
 40
0.3333333333333333
 40
0.3333333333333333
 40
0.3333333333333333
 40
0.4166666666666667
 40
0.4166666666666667
 40
0.4166666666666667
 40
0.4166666666666667
 40
0.5
 40
0.5
 40
0.5
 40
0.5
 40
0.5833333333333334
 40
0.5833333333333334
 40
0.5833333333333334
 40
0.5833333333333334
 40
0.6666666666666666
 40
0.6666666666666666
 40
0.6666666666666666
 40
0.6666666666666666
 40
0.75
 40
0.75
 40
0.75
 40
0.75
 40
0.8333333333333334
 40
0.8333333333333334
 40
0.8333333333333334
 40
0.8333333333333334
 40
1.0
 40
1.0
 40
1.0
 40
1.0
 10
-156.3875
 20
17.3364
 30
0.0
 10
-156.3875
 20
17.3364
 30
0.0
 10
-156.2852
 20
17.3351
 30
0.0
 10
-156.2852
 20
17.3351
 30
0.0
 10
-156.2852
 20
17.3351
 30
0.0
 10
-154.4354
 20
11.1452
 30
0.0
 10
-152.7775
 20
9.5347
 30
0.0
 10
-146.49
 20
7.6801
 30
0.0
 10
-146.49
 20
7.6801
 30
0.0
 10
-146.4879
 20
7.6033
 30
0.0
 10
-146.4869
 20
7.5269
 30
0.0
 10
-146.4867
 20
7.4499
 30
0.0
 10
-146.4867
 20
7.4499
 30
0.0
 10
-152.8646
 20
5.5705
 30
0.0
 10
-154.4804
 20
3.9409
 30
0.0
 10
-156.3622
 20
-2.467
 30
0.0
 10
-156.3622
 20
-2.467
 30
0.0
 10
-156.3622
 20
-2.467
 30
0.0
 10
-156.3875
 20
-2.4673
 30
0.0
 10
-156.3875
 20
-2.4673
 30
0.0
 10
-156.3875
 20
-2.4673
 30
0.0
 10
-156.3875
 20
-2.4673
 30
0.0
 10
-156.5573
 20
-2.4648
 30
0.0
 10
-156.5573
 20
-2.4648
 30
0.0
 10
-156.5573
 20
-2.4648
 30
0.0
 10
-158.4231
 20
3.8933
 30
0.0
 10
-160.0303
 20
5.546
 30
0.0
 10
-166.2897
 20
7.4073
 30
0.0
 10
-166.2897
 20
7.4073
 30
0.0
 10
-166.2897
 20
7.4073
 30
0.0
 10
-166.2897
 20
7.4345
 30
0.0
 10
-166.2897
 20
7.4345
 30
0.0
 10
-166.2897
 20
7.4345
 30
0.0
 10
-166.2897
 20
7.5308
 30
0.0
 10
-166.2879
 20
7.6271
 30
0.0
 10
-166.2854
 20
7.7229
 30
0.0
 10
-166.2854
 20
7.7229
 30
0.0
 10
-160.1156
 20
9.5591
 30
0.0
 10
-158.4684
 20
11.1926
 30
0.0
 10
-156.6347
 20
17.3333
 30
0.0
 10
-156.6347
 20
17.3333
 30
0.0
 10
-156.5527
 20
17.3354
 30
0.0
 10
-156.4704
 20
17.3364
 30
0.0
 10
-156.3875
 20
17.3364
 30
0.0
  0
SPLINE
  5
C8
330
1F
100
AcDbEntity
  8
layer 1
 62
     7
100
AcDbSpline
210
0.0
220
0.0
230
1.0
 70
    11
 71
     3
 72
    20
 73
    16
 74
     0
 42
0.0000000001
 43
0.0000000001
 12
1.0
 22
0.0
 32
0.0
 13
1.0
 23
0.0
 33
0.0
 40
0.0
 40
0.0
 40
0.0
 40
0.0
 40
0.2
 40
0.2
 40
0.2
 40
0.2
 40
0.4
 40
0.4
 40
0.4
 40
0.4
 40
0.6
 40
0.6
 40
0.6
 40
0.6
 40
1.0
 40
1.0
 40
1.0
 40
1.0
 10
-98.659
 20
-17.9781
 30
0.0
 10
-96.7931
 20
-17.9781
 30
0.0
 10
-95.28
 20
-19.4915
 30
0.0
 10
-95.28
 20
-21.357
 30
0.0
 10
-95.28
 20
-21.357
 30
0.0
 10
-95.2797
 20
-23.2229
 30
0.0
 10
-96.7933
 20
-24.7362
 30
0.0
 10
-98.6593
 20
-24.7362
 30
0.0
 10
-98.6593
 20
-24.7362
 30
0.0
 10
-100.5248
 20
-24.7362
 30
0.0
 10
-102.0381
 20
-23.2229
 30
0.0
 10
-102.0381
 20
-21.357
 30
0.0
 10
-102.0381
 20
-21.357
 30
0.0
 10
-102.0375
 20
-19.4915
 30
0.0
 10
-100.5251
 20
-17.9781
 30
0.0
 10
-98.659
 20
-17.9781
 30
0.0
  0
SPLINE
  5
C9
330
1F
100
AcDbEntity
  8
layer 1
 62
     7
100
AcDbSpline
210
0.0
220
0.0
230
1.0
 70
    11
 71
     3
 72
    20
 73
    16
 74
     0
 42
0.0000000001
 43
0.0000000001
 12
1.0
 22
0.0
 32
0.0
 13
1.0
 23
0.0
 33
0.0
 40
0.0
 40
0.0
 40
0.0
 40
0.0
 40
0.2
 40
0.2
 40
0.2
 40
0.2
 40
0.4
 40
0.4
 40
0.4
 40
0.4
 40
0.6
 40
0.6
 40
0.6
 40
0.6
 40
1.0
 40
1.0
 40
1.0
 40
1.0
 10
-98.5005
 20
18.7277
 30
0.0
 10
-92.1767
 20
18.7277
 30
0.0
 10
-87.046
 20
13.5963
 30
0.0
 10
-87.046
 20
7.2718
 30
0.0
 10
-87.046
 20
7.2718
 30
0.0
 10
-87.0457
 20
0.9477
 30
0.0
 10
-92.177
 20
-4.1837
 30
0.0
 10
-98.5012
 20
-4.1837
 30
0.0
 10
-98.5012
 20
-4.1837
 30
0.0
 10
-104.826
 20
-4.1837
 30
0.0
 10
-109.957
 20
0.9477
 30
0.0
 10
-109.957
 20
7.2718
 30
0.0
 10
-109.957
 20
7.2718
 30
0.0
 10
-109.9567
 20
13.5963
 30
0.0
 10
-104.826
 20
18.7277
 30
0.0
 10
-98.5005
 20
18.7277
 30
0.0
  0
SPLINE
  5
CA
330
1F
100
AcDbEntity
  8
layer 1
 62
     7
100
AcDbSpline
210
0.0
220
0.0
230
1.0
 70
    11
 71
     3
 72
    52
 73
    48
 74
     0
 42
0.0000000001
 43
0.0000000001
 12
1.0
 22
0.0
 32
0.0
 13
1.0
 23
0.0
 33
0.0
 40
0.0
 40
0.0
 40
0.0
 40
0.0
 40
0.0769230769230769
 40
0.0769230769230769
 40
0.0769230769230769
 40
0.0769230769230769
 40
0.1538461538461539
 40
0.1538461538461539
 40
0.1538461538461539
 40
0.1538461538461539
 40
0.2307692307692308
 40
0.2307692307692308
 40
0.2307692307692308
 40
0.2307692307692308
 40
0.3076923076923077
 40
0.3076923076923077
 40
0.3076923076923077
 40
0.3076923076923077
 40
0.3846153846153846
 40
0.3846153846153846
 40
0.3846153846153846
 40
0.3846153846153846
 40
0.4615384615384616
 40
0.4615384615384616
 40
0.4615384615384616
 40
0.4615384615384616
 40
0.5384615384615384
 40
0.5384615384615384
 40
0.5384615384615384
 40
0.5384615384615384
 40
0.6153846153846154
 40
0.6153846153846154
 40
0.6153846153846154
 40
0.6153846153846154
 40
0.6923076923076923
 40
0.6923076923076923
 40
0.6923076923076923
 40
0.6923076923076923
 40
0.7692307692307693
 40
0.7692307692307693
 40
0.7692307692307693
 40
0.7692307692307693
 40
0.8461538461538461
 40
0.8461538461538461
 40
0.8461538461538461
 40
0.8461538461538461
 40
1.0
 40
1.0
 40
1.0
 40
1.0
 10
-97.6658
 20
29.7309
 30
0.0
 10
-95.8941
 20
20.3397
 30
0.0
 10
-86.3956
 20
10.1796
 30
0.0
 10
-75.9142
 20
8.0608
 30
0.0
 10
-75.9142
 20
8.0608
 30
0.0
 10
-75.9458
 20
7.8027
 30
0.0
 10
-75.9626
 20
7.5388
 30
0.0
 10
-75.9626
 20
7.2718
 30
0.0
 10
-75.9626
 20
7.2718
 30
0.0
 10
-75.9623
 20
7.075
 30
0.0
 10
-75.9534
 20
6.8804
 30
0.0
 10
-75.9357
 20
6.6875
 30
0.0
 10
-75.9357
 20
6.6875
 30
0.0
 10
-87.6909
 20
3.4738
 30
0.0
 10
-95.725
 20
-4.9019
 30
0.0
 10
-97.6667
 20
-14.9765
 30
0.0
 10
-97.6667
 20
-14.9765
 30
0.0
 10
-97.9783
 20
-14.9291
 30
0.0
 10
-98.2975
 20
-14.9053
 30
0.0
 10
-98.6229
 20
-14.9053
 30
0.0
 10
-98.6229
 20
-14.9053
 30
0.0
 10
-98.798
 20
-14.9053
 30
0.0
 10
-98.972
 20
-14.9123
 30
0.0
 10
-99.1442
 20
-14.9264
 30
0.0
 10
-99.1442
 20
-14.9264
 30
0.0
 10
-103.8792
 20
-2.1856
 30
0.0
 10
-108.255
 20
2.0772
 30
0.0
 10
-121.2306
 20
6.8242
 30
0.0
 10
-121.2306
 20
6.8242
 30
0.0
 10
-121.2116
 20
7.0251
 30
0.0
 10
-121.2016
 20
7.2284
 30
0.0
 10
-121.2016
 20
7.4345
 30
0.0
 10
-121.2016
 20
7.4345
 30
0.0
 10
-121.2012
 20
7.6027
 30
0.0
 10
-121.2079
 20
7.77
 30
0.0
 10
-121.2208
 20
7.9351
 30
0.0
 10
-121.2208
 20
7.9351
 30
0.0
 10
-109.1928
 20
11.392
 30
0.0
 10
-99.3699
 20
22.195
 30
0.0
 10
-99.1075
 20
29.7808
 30
0.0
 10
-99.1075
 20
29.7808
 30
0.0
 10
-98.8011
 20
29.7356
 30
0.0
 10
-98.488
 20
29.7108
 30
0.0
 10
-98.1688
 20
29.7108
 30
0.0
 10
-98.1688
 20
29.7108
 30
0.0
 10
-97.9987
 20
29.7108
 30
0.0
 10
-97.8321
 20
29.7181
 30
0.0
 10
-97.6658
 20
29.7309
 30
0.0
  0
SPLINE
  5
CB
330
1F
100
AcDbEntity
  8
layer 1
 62
     7
100
AcDbSpline
210
0.0
220
0.0
230
1.0
 70
    11
 71
     3
 72
    12
 73
     8
 74
     0
 42
0.0000000001
 43
0.0000000001
 12
1.0
 22
0.0
 32
0.0
 13
1.0
 23
0.0
 33
0.0
 40
0.0
 40
0.0
 40
0.0
 40
0.0
 40
0.3333333333333333
 40
0.3333333333333333
 40
0.3333333333333333
 40
0.3333333333333333
 40
1.0
 40
1.0
 40
1.0
 40
1.0
 10
-108.1382
 20
9.5506
 30
0.0
 10
-107.2973
 20
13.1196
 30
0.0
 10
-104.5254
 20
15.9445
 30
0.0
 10
-100.9857
 20
16.8597
 30
0.0
 10
-100.9857
 20
16.8597
 30
0.0
 10
-101.8076
 20
13.2805
 30
0.0
 10
-104.5887
 20
10.448
 30
0.0
 10
-108.1382
 20
9.5506
 30
0.0
  0
SPLINE
  5
CC
330
1F
100
AcDbEntity
  8
layer 1
 62
     7
100
AcDbSpline
210
0.0
220
0.0
230
1.0
 70
    11
 71
     3
 72
    12
 73
     8
 74
     0
 42
0.0000000001
 43
0.0000000001
 12
1.0
 22
0.0
 32
0.0
 13
1.0
 23
0.0
 33
0.0
 40
0.0
 40
0.0
 40
0.0
 40
0.0
 40
0.3333333333333333
 40
0.3333333333333333
 40
0.3333333333333333
 40
0.3333333333333333
 40
1.0
 40
1.0
 40
1.0
 40
1.0
 10
-96.4521
 20
16.9612
 30
0.0
 10
-92.5852
 20
16.1465
 30
0.0
 10
-89.5476
 20
13.0731
 30
0.0
 10
-88.7856
 20
9.1857
 30
0.0
 10
-88.7856
 20
9.1857
 30
0.0
 10
-92.6653
 20
9.9784
 30
0.0
 10
-95.7136
 20
13.0621
 30
0.0
 10
-96.4521
 20
16.9612
 30
0.0
  0
SPLINE
  5
CD
330
1F
100
AcDbEntity
  8
layer 1
 62
     7
100
AcDbSpline
210
0.0
220
0.0
230
1.0
 70
    11
 71
     3
 72
    12
 73
     8
 74
     0
 42
0.0000000001
 43
0.0000000001
 12
1.0
 22
0.0
 32
0.0
 13
1.0
 23
0.0
 33
0.0
 40
0.0
 40
0.0
 40
0.0
 40
0.0
 40
0.3333333333333333
 40
0.3333333333333333
 40
0.3333333333333333
 40
0.3333333333333333
 40
1.0
 40
1.0
 40
1.0
 40
1.0
 10
-88.8406
 20
5.0975
 30
0.0
 10
-89.7114
 20
1.2198
 30
0.0
 10
-92.8577
 20
-1.8001
 30
0.0
 10
-96.8025
 20
-2.4832
 30
0.0
 10
-96.8025
 20
-2.4832
 30
0.0
 10
-95.9546
 20
1.4072
 30
0.0
 10
-92.7974
 20
4.4369
 30
0.0
 10
-88.8406
 20
5.0975
 30
0.0
  0
SPLINE
  5
CE
330
1F
100
AcDbEntity
  8
layer 1
 62
     7
100
AcDbSpline
210
0.0
220
0.0
230
1.0
 70
    11
 71
     3
 72
    12
 73
     8
 74
     0
 42
0.0000000001
 43
0.0000000001
 12
1.0
 22
0.0
 32
0.0
 13
1.0
 23
0.0
 33
0.0
 40
0.0
 40
0.0
 40
0.0
 40
0.0
 40
0.3333333333333333
 40
0.3333333333333333
 40
0.3333333333333333
 40
0.3333333333333333
 40
1.0
 40
1.0
 40
1.0
 40
1.0
 10
-100.5242
 20
-2.4221
 30
0.0
 10
-104.367
 20
-1.6228
 30
0.0
 10
-107.3958
 20
1.4048
 30
0.0
 10
-108.1948
 20
5.2475
 30
0.0
 10
-108.1948
 20
5.2475
 30
0.0
 10
-104.3397
 20
4.4706
 30
0.0
 10
-101.3021
 20
1.4326
 30
0.0
 10
-100.5242
 20
-2.4221
 30
0.0
  0
SPLINE
  5
CF
330
1F
100
AcDbEntity
  8
layer 1
 62
     7
100
AcDbSpline
210
0.0
220
0.0
230
1.0
 70
    11
 71
     3
 72
    48
 73
    44
 74
     0
 42
0.0000000001
 43
0.0000000001
 12
1.0
 22
0.0
 32
0.0
 13
1.0
 23
0.0
 33
0.0
 40
0.0
 40
0.0
 40
0.0
 40
0.0
 40
0.0833333333333333
 40
0.0833333333333333
 40
0.0833333333333333
 40
0.0833333333333333
 40
0.1666666666666667
 40
0.1666666666666667
 40
0.1666666666666667
 40
0.1666666666666667
 40
0.25
 40
0.25
 40
0.25
 40
0.25
 40
0.3333333333333333
 40
0.3333333333333333
 40
0.3333333333333333
 40
0.3333333333333333
 40
0.4166666666666667
 40
0.4166666666666667
 40
0.4166666666666667
 40
0.4166666666666667
 40
0.5
 40
0.5
 40
0.5
 40
0.5
 40
0.5833333333333334
 40
0.5833333333333334
 40
0.5833333333333334
 40
0.5833333333333334
 40
0.6666666666666666
 40
0.6666666666666666
 40
0.6666666666666666
 40
0.6666666666666666
 40
0.75
 40
0.75
 40
0.75
 40
0.75
 40
0.8333333333333334
 40
0.8333333333333334
 40
0.8333333333333334
 40
0.8333333333333334
 40
1.0
 40
1.0
 40
1.0
 40
1.0
 10
-98.5005
 20
17.1737
 30
0.0
 10
-98.5005
 20
17.1737
 30
0.0
 10
-98.3981
 20
17.1728
 30
0.0
 10
-98.3981
 20
17.1728
 30
0.0
 10
-98.3981
 20
17.1728
 30
0.0
 10
-96.5487
 20
10.9828
 30
0.0
 10
-94.8908
 20
9.372
 30
0.0
 10
-88.603
 20
7.5177
 30
0.0
 10
-88.603
 20
7.5177
 30
0.0
 10
-88.6009
 20
7.441
 30
0.0
 10
-88.6002
 20
7.3642
 30
0.0
 10
-88.5999
 20
7.2872
 30
0.0
 10
-88.5999
 20
7.2872
 30
0.0
 10
-94.9776
 20
5.4078
 30
0.0
 10
-96.5937
 20
3.7783
 30
0.0
 10
-98.4754
 20
-2.6294
 30
0.0
 10
-98.4754
 20
-2.6294
 30
0.0
 10
-98.4754
 20
-2.6294
 30
0.0
 10
-98.5005
 20
-2.6296
 30
0.0
 10
-98.5005
 20
-2.6296
 30
0.0
 10
-98.5005
 20
-2.6296
 30
0.0
 10
-98.5005
 20
-2.6296
 30
0.0
 10
-98.67
 20
-2.6275
 30
0.0
 10
-98.67
 20
-2.6275
 30
0.0
 10
-98.67
 20
-2.6275
 30
0.0
 10
-100.5365
 20
3.7309
 30
0.0
 10
-102.1433
 20
5.3836
 30
0.0
 10
-108.403
 20
7.245
 30
0.0
 10
-108.403
 20
7.245
 30
0.0
 10
-108.403
 20
7.245
 30
0.0
 10
-108.4027
 20
7.2718
 30
0.0
 10
-108.4027
 20
7.2718
 30
0.0
 10
-108.4027
 20
7.2718
 30
0.0
 10
-108.4027
 20
7.3685
 30
0.0
 10
-108.4011
 20
7.4648
 30
0.0
 10
-108.3984
 20
7.5606
 30
0.0
 10
-108.3984
 20
7.5606
 30
0.0
 10
-102.2286
 20
9.3968
 30
0.0
 10
-100.5817
 20
11.0302
 30
0.0
 10
-98.748
 20
17.171
 30
0.0
 10
-98.748
 20
17.171
 30
0.0
 10
-98.6656
 20
17.1731
 30
0.0
 10
-98.5837
 20
17.1737
 30
0.0
 10
-98.5005
 20
17.1737
 30
0.0
  0
SPLINE
  5
D0
330
1F
100
AcDbEntity
  8
layer 1
 62
     7
100
AcDbSpline
210
0.0
220
0.0
230
1.0
 70
    11
 71
     3
 72
    16
 73
    12
 74
     0
 42
0.0000000001
 43
0.0000000001
 12
1.0
 22
0.0
 32
0.0
 13
1.0
 23
0.0
 33
0.0
 40
0.0
 40
0.0
 40
0.0
 40
0.0
 40
0.25
 40
0.25
 40
0.25
 40
0.25
 40
0.5
 40
0.5
 40
0.5
 40
0.5
 40
1.0
 40
1.0
 40
1.0
 40
1.0
 10
-70.0374
 20
3.729
 30
0.0
 10
-71.671
 20
3.9663
 30
0.0
 10
-72.9271
 20
5.3723
 30
0.0
 10
-72.9271
 20
7.0716
 30
0.0
 10
-72.9271
 20
7.0716
 30
0.0
 10
-72.9271
 20
8.7708
 30
0.0
 10
-71.6715
 20
10.1777
 30
0.0
 10
-70.0381
 20
10.4153
 30
0.0
 10
-70.0381
 20
10.4153
 30
0.0
 10
-70.0381
 20
10.4153
 30
0.0
 10
-70.0374
 20
3.729
 30
0.0
 10
-70.0374
 20
3.729
 30
0.0
  0
SPLINE
  5
D1
330
1F
100
AcDbEntity
  8
layer 1
 62
     7
100
AcDbSpline
210
0.0
220
0.0
230
1.0
 70
    11
 71
     3
 72
    16
 73
    12
 74
     0
 42
0.0000000001
 43
0.0000000001
 12
1.0
 22
0.0
 32
0.0
 13
1.0
 23
0.0
 33
0.0
 40
0.0
 40
0.0
 40
0.0
 40
0.0
 40
0.25
 40
0.25
 40
0.25
 40
0.25
 40
0.5
 40
0.5
 40
0.5
 40
0.5
 40
1.0
 40
1.0
 40
1.0
 40
1.0
 10
-70.0374
 20
60.9944
 30
0.0
 10
-71.5496
 20
61.3302
 30
0.0
 10
-72.6819
 20
62.679
 30
0.0
 10
-72.6819
 20
64.292
 30
0.0
 10
-72.6819
 20
64.292
 30
0.0
 10
-72.6812
 20
65.905
 30
0.0
 10
-71.5501
 20
67.255
 30
0.0
 10
-70.0381
 20
67.5907
 30
0.0
 10
-70.0381
 20
67.5907
 30
0.0
 10
-70.0381
 20
67.5907
 30
0.0
 10
-70.0374
 20
60.9944
 30
0.0
 10
-70.0374
 20
60.9944
 30
0.0
  0
SPLINE
  5
D2
330
1F
100
AcDbEntity
  8
layer 1
 62
     7
100
AcDbSpline
210
0.0
220
0.0
230
1.0
 70
    11
 71
     3
 72
    36
 73
    32
 74
     0
 42
0.0000000001
 43
0.0000000001
 12
1.0
 22
0.0
 32
0.0
 13
1.0
 23
0.0
 33
0.0
 40
0.0
 40
0.0
 40
0.0
 40
0.0
 40
0.1111111111111111
 40
0.1111111111111111
 40
0.1111111111111111
 40
0.1111111111111111
 40
0.2222222222222222
 40
0.2222222222222222
 40
0.2222222222222222
 40
0.2222222222222222
 40
0.3333333333333333
 40
0.3333333333333333
 40
0.3333333333333333
 40
0.3333333333333333
 40
0.4444444444444444
 40
0.4444444444444444
 40
0.4444444444444444
 40
0.4444444444444444
 40
0.5555555555555556
 40
0.5555555555555556
 40
0.5555555555555556
 40
0.5555555555555556
 40
0.6666666666666666
 40
0.6666666666666666
 40
0.6666666666666666
 40
0.6666666666666666
 40
0.7777777777777778
 40
0.7777777777777778
 40
0.7777777777777778
 40
0.7777777777777778
 40
1.0
 40
1.0
 40
1.0
 40
1.0
 10
-70.0374
 20
13.5178
 30
0.0
 10
-74.7694
 20
26.2456
 30
0.0
 10
-79.1501
 20
30.5027
 30
0.0
 10
-92.1216
 20
35.2567
 30
0.0
 10
-92.1216
 20
35.2567
 30
0.0
 10
-92.1027
 20
35.451
 30
0.0
 10
-92.0951
 20
35.6609
 30
0.0
 10
-92.0951
 20
35.8637
 30
0.0
 10
-92.0951
 20
35.8637
 30
0.0
 10
-92.0948
 20
36.0337
 30
0.0
 10
-92.0951
 20
36.2001
 30
0.0
 10
-92.1094
 20
36.3634
 30
0.0
 10
-92.1094
 20
36.3634
 30
0.0
 10
-80.1686
 20
39.5867
 30
0.0
 10
-74.7651
 20
45.3757
 30
0.0
 10
-70.0381
 20
58.1066
 30
0.0
 10
-70.0381
 20
58.1066
 30
0.0
 10
-70.0381
 20
58.1066
 30
0.0
 10
-70.0374
 20
47.1373
 30
0.0
 10
-70.0374
 20
47.1373
 30
0.0
 10
-70.0374
 20
47.1373
 30
0.0
 10
-76.061
 20
46.8009
 30
0.0
 10
-80.8456
 20
41.8078
 30
0.0
 10
-80.8456
 20
35.7007
 30
0.0
 10
-80.8456
 20
35.7007
 30
0.0
 10
-80.845
 20
29.5936
 30
0.0
 10
-76.0613
 20
24.6002
 30
0.0
 10
-70.0381
 20
24.2635
 30
0.0
 10
-70.0381
 20
24.2635
 30
0.0
 10
-70.0381
 20
24.2635
 30
0.0
 10
-70.0374
 20
13.5178
 30
0.0
 10
-70.0374
 20
13.5178
 30
0.0
  0
SPLINE
  5
D3
330
1F
100
AcDbEntity
  8
layer 1
 62
     7
100
AcDbSpline
210
0.0
220
0.0
230
1.0
 70
    11
 71
     3
 72
    12
 73
     8
 74
     0
 42
0.0000000001
 43
0.0000000001
 12
1.0
 22
0.0
 32
0.0
 13
1.0
 23
0.0
 33
0.0
 40
0.0
 40
0.0
 40
0.0
 40
0.0
 40
0.3333333333333333
 40
0.3333333333333333
 40
0.3333333333333333
 40
0.3333333333333333
 40
1.0
 40
1.0
 40
1.0
 40
1.0
 10
-79.0266
 20
37.9794
 30
0.0
 10
-78.1862
 20
41.5482
 30
0.0
 10
-75.414
 20
44.3733
 30
0.0
 10
-71.8746
 20
45.2885
 30
0.0
 10
-71.8746
 20
45.2885
 30
0.0
 10
-72.6966
 20
41.7097
 30
0.0
 10
-75.4773
 20
38.8769
 30
0.0
 10
-79.0266
 20
37.9794
 30
0.0
  0
SPLINE
  5
D4
330
1F
100
AcDbEntity
  8
layer 1
 62
     7
100
AcDbSpline
210
0.0
220
0.0
230
1.0
 70
    11
 71
     3
 72
    12
 73
     8
 74
     0
 42
0.0000000001
 43
0.0000000001
 12
1.0
 22
0.0
 32
0.0
 13
1.0
 23
0.0
 33
0.0
 40
0.0
 40
0.0
 40
0.0
 40
0.0
 40
0.3333333333333333
 40
0.3333333333333333
 40
0.3333333333333333
 40
0.3333333333333333
 40
1.0
 40
1.0
 40
1.0
 40
1.0
 10
-71.4132
 20
26.0068
 30
0.0
 10
-75.2565
 20
26.8058
 30
0.0
 10
-78.2844
 20
29.8334
 30
0.0
 10
-79.0837
 20
33.6761
 30
0.0
 10
-79.0837
 20
33.6761
 30
0.0
 10
-75.2287
 20
32.8995
 30
0.0
 10
-72.1908
 20
29.8615
 30
0.0
 10
-71.4132
 20
26.0068
 30
0.0
  0
SPLINE
  5
D5
330
1F
100
AcDbEntity
  8
layer 1
 62
     7
100
AcDbSpline
210
0.0
220
0.0
230
1.0
 70
    11
 71
     3
 72
    24
 73
    20
 74
     0
 42
0.0000000001
 43
0.0000000001
 12
1.0
 22
0.0
 32
0.0
 13
1.0
 23
0.0
 33
0.0
 40
0.0
 40
0.0
 40
0.0
 40
0.0
 40
0.1666666666666667
 40
0.1666666666666667
 40
0.1666666666666667
 40
0.1666666666666667
 40
0.3333333333333333
 40
0.3333333333333333
 40
0.3333333333333333
 40
0.3333333333333333
 40
0.5
 40
0.5
 40
0.5
 40
0.5
 40
0.6666666666666666
 40
0.6666666666666666
 40
0.6666666666666666
 40
0.6666666666666666
 40
1.0
 40
1.0
 40
1.0
 40
1.0
 10
-70.0374
 20
27.3413
 30
0.0
 10
-71.7361
 20
32.4454
 30
0.0
 10
-73.571
 20
33.9725
 30
0.0
 10
-79.2916
 20
35.6739
 30
0.0
 10
-79.2916
 20
35.6739
 30
0.0
 10
-79.2916
 20
35.6739
 30
0.0
 10
-79.2916
 20
35.7007
 30
0.0
 10
-79.2916
 20
35.7007
 30
0.0
 10
-79.2916
 20
35.7007
 30
0.0
 10
-79.2916
 20
35.7971
 30
0.0
 10
-79.2898
 20
35.8934
 30
0.0
 10
-79.2873
 20
35.9894
 30
0.0
 10
-79.2873
 20
35.9894
 30
0.0
 10
-73.5695
 20
37.6907
 30
0.0
 10
-71.7358
 20
39.2197
 30
0.0
 10
-70.0381
 20
44.3223
 30
0.0
 10
-70.0381
 20
44.3223
 30
0.0
 10
-70.0381
 20
44.3223
 30
0.0
 10
-70.0374
 20
27.3413
 30
0.0
 10
-70.0374
 20
27.3413
 30
0.0
  0
SPLINE
  5
D6
330
1F
100
AcDbEntity
  8
layer 1
 62
     7
100
AcDbSpline
210
0.0
220
0.0
230
1.0
 70
    11
 71
     3
 72
    20
 73
    16
 74
     0
 42
0.0000000001
 43
0.0000000001
 12
1.0
 22
0.0
 32
0.0
 13
1.0
 23
0.0
 33
0.0
 40
0.0
 40
0.0
 40
0.0
 40
0.0
 40
0.2
 40
0.2
 40
0.2
 40
0.2
 40
0.4
 40
0.4
 40
0.4
 40
0.4
 40
0.6
 40
0.6
 40
0.6
 40
0.6
 40
1.0
 40
1.0
 40
1.0
 40
1.0
 10
-94.752
 20
41.0202
 30
0.0
 10
-92.6561
 20
51.0584
 30
0.0
 10
-84.7499
 20
58.9671
 30
0.0
 10
-74.7125
 20
61.0654
 30
0.0
 10
-74.7125
 20
61.0654
 30
0.0
 10
-74.134
 20
60.1483
 30
0.0
 10
-73.3274
 20
59.3903
 30
0.0
 10
-72.3714
 20
58.8708
 30
0.0
 10
-72.3714
 20
58.8708
 30
0.0
 10
-76.58
 20
47.8523
 30
0.0
 10
-81.6003
 20
42.92
 30
0.0
 10
-92.7763
 20
38.7322
 30
0.0
 10
-92.7763
 20
38.7322
 30
0.0
 10
-93.2411
 20
39.645
 30
0.0
 10
-93.923
 20
40.4303
 30
0.0
 10
-94.752
 20
41.0202
 30
0.0
  0
SPLINE
  5
D7
330
1F
100
AcDbEntity
  8
layer 1
 62
     7
100
AcDbSpline
210
0.0
220
0.0
230
1.0
 70
    11
 71
     3
 72
    20
 73
    16
 74
     0
 42
0.0000000001
 43
0.0000000001
 12
1.0
 22
0.0
 32
0.0
 13
1.0
 23
0.0
 33
0.0
 40
0.0
 40
0.0
 40
0.0
 40
0.0
 40
0.2
 40
0.2
 40
0.2
 40
0.2
 40
0.4
 40
0.4
 40
0.4
 40
0.4
 40
0.6
 40
0.6
 40
0.6
 40
0.6
 40
1.0
 40
1.0
 40
1.0
 40
1.0
 10
-74.9688
 20
10.3936
 30
0.0
 10
-84.9786
 20
12.5931
 30
0.0
 10
-92.8225
 20
20.5804
 30
0.0
 10
-94.811
 20
30.667
 30
0.0
 10
-94.811
 20
30.667
 30
0.0
 10
-93.9844
 20
31.2409
 30
0.0
 10
-93.3013
 20
32.0069
 30
0.0
 10
-92.8268
 20
32.9004
 30
0.0
 10
-92.8268
 20
32.9004
 30
0.0
 10
-81.6431
 20
28.7182
 30
0.0
 10
-76.6105
 20
23.803
 30
0.0
 10
-72.402
 20
12.8255
 30
0.0
 10
-72.402
 20
12.8255
 30
0.0
 10
-73.4702
 20
12.2748
 30
0.0
 10
-74.363
 20
11.4281
 30
0.0
 10
-74.9688
 20
10.3936
 30
0.0
  0
SPLINE
  5
D8
330
1F
100
AcDbEntity
  8
layer 1
 62
     7
100
AcDbSpline
210
0.0
220
0.0
230
1.0
 70
    11
 71
     3
 72
    16
 73
    12
 74
     0
 42
0.0000000001
 43
0.0000000001
 12
1.0
 22
0.0
 32
0.0
 13
1.0
 23
0.0
 33
0.0
 40
0.0
 40
0.0
 40
0.0
 40
0.0
 40
0.25
 40
0.25
 40
0.25
 40
0.25
 40
0.5
 40
0.5
 40
0.5
 40
0.5
 40
1.0
 40
1.0
 40
1.0
 40
1.0
 10
-183.2604
 20
10.0747
 30
0.0
 10
-182.4595
 20
9.4567
 30
0.0
 10
-181.9424
 20
8.4865
 30
0.0
 10
-181.9424
 20
7.3966
 30
0.0
 10
-181.9424
 20
7.3966
 30
0.0
 10
-181.9424
 20
6.3068
 30
0.0
 10
-182.4595
 20
5.3384
 30
0.0
 10
-183.2606
 20
4.7204
 30
0.0
 10
-183.2606
 20
4.7204
 30
0.0
 10
-183.2606
 20
4.7204
 30
0.0
 10
-183.2604
 20
10.0747
 30
0.0
 10
-183.2604
 20
10.0747
 30
0.0
  0
SPLINE
  5
D9
330
1F
100
AcDbEntity
  8
layer 1
 62
     7
100
AcDbSpline
210
0.0
220
0.0
230
1.0
 70
    11
 71
     3
 72
    16
 73
    12
 74
     0
 42
0.0000000001
 43
0.0000000001
 12
1.0
 22
0.0
 32
0.0
 13
1.0
 23
0.0
 33
0.0
 40
0.0
 40
0.0
 40
0.0
 40
0.0
 40
0.25
 40
0.25
 40
0.25
 40
0.25
 40
0.5
 40
0.5
 40
0.5
 40
0.5
 40
1.0
 40
1.0
 40
1.0
 40
1.0
 10
-183.2604
 20
67.4672
 30
0.0
 10
-182.3209
 20
66.867
 30
0.0
 10
-181.6974
 20
65.8145
 30
0.0
 10
-181.6974
 20
64.617
 30
0.0
 10
-181.6974
 20
64.617
 30
0.0
 10
-181.6971
 20
63.4196
 30
0.0
 10
-182.3212
 20
62.3683
 30
0.0
 10
-183.2606
 20
61.768
 30
0.0
 10
-183.2606
 20
61.768
 30
0.0
 10
-183.2606
 20
61.768
 30
0.0
 10
-183.2604
 20
67.4672
 30
0.0
 10
-183.2604
 20
67.4672
 30
0.0
  0
SPLINE
  5
DA
330
1F
100
AcDbEntity
  8
layer 1
 62
     7
100
AcDbSpline
210
0.0
220
0.0
230
1.0
 70
    11
 71
     3
 72
    36
 73
    32
 74
     0
 42
0.0000000001
 43
0.0000000001
 12
1.0
 22
0.0
 32
0.0
 13
1.0
 23
0.0
 33
0.0
 40
0.0
 40
0.0
 40
0.0
 40
0.0
 40
0.1111111111111111
 40
0.1111111111111111
 40
0.1111111111111111
 40
0.1111111111111111
 40
0.2222222222222222
 40
0.2222222222222222
 40
0.2222222222222222
 40
0.2222222222222222
 40
0.3333333333333333
 40
0.3333333333333333
 40
0.3333333333333333
 40
0.3333333333333333
 40
0.4444444444444444
 40
0.4444444444444444
 40
0.4444444444444444
 40
0.4444444444444444
 40
0.5555555555555556
 40
0.5555555555555556
 40
0.5555555555555556
 40
0.5555555555555556
 40
0.6666666666666666
 40
0.6666666666666666
 40
0.6666666666666666
 40
0.6666666666666666
 40
0.7777777777777778
 40
0.7777777777777778
 40
0.7777777777777778
 40
0.7777777777777778
 40
1.0
 40
1.0
 40
1.0
 40
1.0
 10
-183.2604
 20
55.7356
 30
0.0
 10
-178.9231
 20
45.1671
 30
0.0
 10
-174.3256
 20
41.1589
 30
0.0
 10
-162.5741
 20
36.8153
 30
0.0
 10
-162.5741
 20
36.8153
 30
0.0
 10
-162.606
 20
36.5588
 30
0.0
 10
-162.6231
 20
36.2899
 30
0.0
 10
-162.6231
 20
36.0233
 30
0.0
 10
-162.6231
 20
36.0233
 30
0.0
 10
-162.6228
 20
35.8276
 30
0.0
 10
-162.6179
 20
35.6329
 30
0.0
 10
-162.6011
 20
35.4421
 30
0.0
 10
-162.6011
 20
35.4421
 30
0.0
 10
-174.3333
 20
31.1011
 30
0.0
 10
-178.9237
 20
27.0945
 30
0.0
 10
-183.2606
 20
16.5254
 30
0.0
 10
-183.2606
 20
16.5254
 30
0.0
 10
-183.2606
 20
16.5254
 30
0.0
 10
-183.2604
 20
24.7287
 30
0.0
 10
-183.2604
 20
24.7287
 30
0.0
 10
-183.2604
 20
24.7287
 30
0.0
 10
-177.8409
 20
25.636
 30
0.0
 10
-173.708
 20
30.3499
 30
0.0
 10
-173.708
 20
36.0258
 30
0.0
 10
-173.708
 20
36.0258
 30
0.0
 10
-173.7076
 20
41.7017
 30
0.0
 10
-177.8412
 20
46.4169
 30
0.0
 10
-183.2606
 20
47.3238
 30
0.0
 10
-183.2606
 20
47.3238
 30
0.0
 10
-183.2606
 20
47.3238
 30
0.0
 10
-183.2604
 20
55.7356
 30
0.0
 10
-183.2604
 20
55.7356
 30
0.0
  0
SPLINE
  5
DB
330
1F
100
AcDbEntity
  8
layer 1
 62
     7
100
AcDbSpline
210
0.0
220
0.0
230
1.0
 70
    11
 71
     3
 72
    12
 73
     8
 74
     0
 42
0.0000000001
 43
0.0000000001
 12
1.0
 22
0.0
 32
0.0
 13
1.0
 23
0.0
 33
0.0
 40
0.0
 40
0.0
 40
0.0
 40
0.0
 40
0.3333333333333333
 40
0.3333333333333333
 40
0.3333333333333333
 40
0.3333333333333333
 40
1.0
 40
1.0
 40
1.0
 40
1.0
 10
-183.1147
 20
45.7148
 30
0.0
 10
-179.2469
 20
44.9002
 30
0.0
 10
-176.2099
 20
41.8268
 30
0.0
 10
-175.4479
 20
37.9394
 30
0.0
 10
-175.4479
 20
37.9394
 30
0.0
 10
-179.3277
 20
38.732
 30
0.0
 10
-182.3756
 20
41.8161
 30
0.0
 10
-183.1147
 20
45.7148
 30
0.0
  0
SPLINE
  5
DC
330
1F
100
AcDbEntity
  8
layer 1
 62
     7
100
AcDbSpline
210
0.0
220
0.0
230
1.0
 70
    11
 71
     3
 72
    12
 73
     8
 74
     0
 42
0.0000000001
 43
0.0000000001
 12
1.0
 22
0.0
 32
0.0
 13
1.0
 23
0.0
 33
0.0
 40
0.0
 40
0.0
 40
0.0
 40
0.0
 40
0.3333333333333333
 40
0.3333333333333333
 40
0.3333333333333333
 40
0.3333333333333333
 40
1.0
 40
1.0
 40
1.0
 40
1.0
 10
-175.5032
 20
33.8511
 30
0.0
 10
-176.3732
 20
29.9734
 30
0.0
 10
-179.5197
 20
26.9539
 30
0.0
 10
-183.4645
 20
26.2704
 30
0.0
 10
-183.4645
 20
26.2704
 30
0.0
 10
-182.6163
 20
30.1608
 30
0.0
 10
-179.4597
 20
33.1905
 30
0.0
 10
-175.5032
 20
33.8511
 30
0.0
  0
SPLINE
  5
DD
330
1F
100
AcDbEntity
  8
layer 1
 62
     7
100
AcDbSpline
210
0.0
220
0.0
230
1.0
 70
    11
 71
     3
 72
    20
 73
    16
 74
     0
 42
0.0000000001
 43
0.0000000001
 12
1.0
 22
0.0
 32
0.0
 13
1.0
 23
0.0
 33
0.0
 40
0.0
 40
0.0
 40
0.0
 40
0.0
 40
0.2
 40
0.2
 40
0.2
 40
0.2
 40
0.4
 40
0.4
 40
0.4
 40
0.4
 40
0.6
 40
0.6
 40
0.6
 40
0.6
 40
1.0
 40
1.0
 40
1.0
 40
1.0
 10
-183.2604
 20
41.3608
 30
0.0
 10
-181.7458
 20
38.7194
 30
0.0
 10
-179.6114
 20
37.5532
 30
0.0
 10
-175.2653
 20
36.2713
 30
0.0
 10
-175.2653
 20
36.2713
 30
0.0
 10
-175.2629
 20
36.1949
 30
0.0
 10
-175.2625
 20
36.1182
 30
0.0
 10
-175.2622
 20
36.0411
 30
0.0
 10
-175.2622
 20
36.0411
 30
0.0
 10
-179.6105
 20
34.7595
 30
0.0
 10
-181.7458
 20
33.5945
 30
0.0
 10
-183.2606
 20
30.9519
 30
0.0
 10
-183.2606
 20
30.9519
 30
0.0
 10
-183.2606
 20
30.9519
 30
0.0
 10
-183.2604
 20
41.3608
 30
0.0
 10
-183.2604
 20
41.3608
 30
0.0
  0
SPLINE
  5
DE
330
1F
100
AcDbEntity
  8
layer 1
 62
     7
100
AcDbSpline
210
0.0
220
0.0
230
1.0
 70
    11
 71
     3
 72
    20
 73
    16
 74
     0
 42
0.0000000001
 43
0.0000000001
 12
1.0
 22
0.0
 32
0.0
 13
1.0
 23
0.0
 33
0.0
 40
0.0
 40
0.0
 40
0.0
 40
0.0
 40
0.2
 40
0.2
 40
0.2
 40
0.2
 40
0.4
 40
0.4
 40
0.4
 40
0.4
 40
0.6
 40
0.6
 40
0.6
 40
0.6
 40
1.0
 40
1.0
 40
1.0
 40
1.0
 10
-159.7909
 20
30.7526
 30
0.0
 10
-161.8706
 20
20.707
 30
0.0
 10
-169.7668
 20
12.7866
 30
0.0
 10
-179.7985
 20
10.6725
 30
0.0
 10
-179.7985
 20
10.6725
 30
0.0
 10
-180.3343
 20
11.6045
 30
0.0
 10
-181.1003
 20
12.3867
 30
0.0
 10
-182.0192
 20
12.9417
 30
0.0
 10
-182.0192
 20
12.9417
 30
0.0
 10
-177.8422
 20
23.9394
 30
0.0
 10
-172.8855
 20
28.9035
 30
0.0
 10
-161.8981
 20
33.0811
 30
0.0
 10
-161.8981
 20
33.0811
 30
0.0
 10
-161.4009
 20
32.1399
 30
0.0
 10
-160.6741
 20
31.3378
 30
0.0
 10
-159.7909
 20
30.7526
 30
0.0
  0
SPLINE
  5
DF
330
1F
100
AcDbEntity
  8
layer 1
 62
     7
100
AcDbSpline
210
0.0
220
0.0
230
1.0
 70
    11
 71
     3
 72
    20
 73
    16
 74
     0
 42
0.0000000001
 43
0.0000000001
 12
1.0
 22
0.0
 32
0.0
 13
1.0
 23
0.0
 33
0.0
 40
0.0
 40
0.0
 40
0.0
 40
0.0
 40
0.2
 40
0.2
 40
0.2
 40
0.2
 40
0.4
 40
0.4
 40
0.4
 40
0.4
 40
0.6
 40
0.6
 40
0.6
 40
0.6
 40
1.0
 40
1.0
 40
1.0
 40
1.0
 10
-179.7882
 20
61.3787
 30
0.0
 10
-169.761
 20
59.2618
 30
0.0
 10
-161.8696
 20
51.3421
 30
0.0
 10
-159.7916
 20
41.2996
 30
0.0
 10
-159.7916
 20
41.2996
 30
0.0
 10
-160.6193
 20
40.7507
 30
0.0
 10
-161.3107
 20
40.0129
 30
0.0
 10
-161.8029
 20
39.1466
 30
0.0
 10
-161.8029
 20
39.1466
 30
0.0
 10
-172.8368
 20
43.3251
 30
0.0
 10
-177.8144
 20
48.2764
 30
0.0
 10
-181.998
 20
59.2655
 30
0.0
 10
-181.998
 20
59.2655
 30
0.0
 10
-181.1003
 20
59.7795
 30
0.0
 10
-180.341
 20
60.507
 30
0.0
 10
-179.7882
 20
61.3787
 30
0.0
  0
SPLINE
  5
E0
330
1F
100
AcDbEntity
  8
layer 1
 62
     7
100
AcDbSpline
210
0.0
220
0.0
230
1.0
 70
    11
 71
     3
 72
    20
 73
    16
 74
     0
 42
0.0000000001
 43
0.0000000001
 12
1.0
 22
0.0
 32
0.0
 13
1.0
 23
0.0
 33
0.0
 40
0.0
 40
0.0
 40
0.0
 40
0.0
 40
0.2
 40
0.2
 40
0.2
 40
0.2
 40
0.4
 40
0.4
 40
0.4
 40
0.4
 40
0.6
 40
0.6
 40
0.6
 40
0.6
 40
1.0
 40
1.0
 40
1.0
 40
1.0
 10
-127.434
 20
10.6131
 30
0.0
 10
-125.5681
 20
10.6131
 30
0.0
 10
-124.0557
 20
9.0998
 30
0.0
 10
-124.0557
 20
7.2343
 30
0.0
 10
-124.0557
 20
7.2343
 30
0.0
 10
-124.0553
 20
5.3684
 30
0.0
 10
-125.5687
 20
3.8551
 30
0.0
 10
-127.4346
 20
3.8551
 30
0.0
 10
-127.4346
 20
3.8551
 30
0.0
 10
-129.2998
 20
3.8551
 30
0.0
 10
-130.8138
 20
5.3684
 30
0.0
 10
-130.8138
 20
7.2343
 30
0.0
 10
-130.8138
 20
7.2343
 30
0.0
 10
-130.8131
 20
9.0998
 30
0.0
 10
-129.3005
 20
10.6131
 30
0.0
 10
-127.434
 20
10.6131
 30
0.0
  0
SPLINE
  5
E1
330
1F
100
AcDbEntity
  8
layer 1
 62
     7
100
AcDbSpline
210
0.0
220
0.0
230
1.0
 70
    11
 71
     3
 72
    20
 73
    16
 74
     0
 42
0.0000000001
 43
0.0000000001
 12
1.0
 22
0.0
 32
0.0
 13
1.0
 23
0.0
 33
0.0
 40
0.0
 40
0.0
 40
0.0
 40
0.0
 40
0.2
 40
0.2
 40
0.2
 40
0.2
 40
0.4
 40
0.4
 40
0.4
 40
0.4
 40
0.6
 40
0.6
 40
0.6
 40
0.6
 40
1.0
 40
1.0
 40
1.0
 40
1.0
 10
-156.3007
 20
39.4047
 30
0.0
 10
-154.4349
 20
39.4047
 30
0.0
 10
-152.9218
 20
37.8916
 30
0.0
 10
-152.9218
 20
36.0258
 30
0.0
 10
-152.9218
 20
36.0258
 30
0.0
 10
-152.9216
 20
34.1599
 30
0.0
 10
-154.4352
 20
32.6466
 30
0.0
 10
-156.3011
 20
32.6466
 30
0.0
 10
-156.3011
 20
32.6466
 30
0.0
 10
-158.1666
 20
32.6466
 30
0.0
 10
-159.6799
 20
34.1599
 30
0.0
 10
-159.6799
 20
36.0258
 30
0.0
 10
-159.6799
 20
36.0258
 30
0.0
 10
-159.6799
 20
37.8916
 30
0.0
 10
-158.1666
 20
39.4047
 30
0.0
 10
-156.3007
 20
39.4047
 30
0.0
  0
SPLINE
  5
E2
330
1F
100
AcDbEntity
  8
layer 1
 62
     7
100
AcDbSpline
210
0.0
220
0.0
230
1.0
 70
    11
 71
     3
 72
    20
 73
    16
 74
     0
 42
0.0000000001
 43
0.0000000001
 12
1.0
 22
0.0
 32
0.0
 13
1.0
 23
0.0
 33
0.0
 40
0.0
 40
0.0
 40
0.0
 40
0.0
 40
0.2
 40
0.2
 40
0.2
 40
0.2
 40
0.4
 40
0.4
 40
0.4
 40
0.4
 40
0.6
 40
0.6
 40
0.6
 40
0.6
 40
1.0
 40
1.0
 40
1.0
 40
1.0
 10
-127.1897
 20
67.8335
 30
0.0
 10
-125.3237
 20
67.8335
 30
0.0
 10
-123.8104
 20
66.3202
 30
0.0
 10
-123.8104
 20
64.4544
 30
0.0
 10
-123.8104
 20
64.4544
 30
0.0
 10
-123.8104
 20
62.5888
 30
0.0
 10
-125.3237
 20
61.0754
 30
0.0
 10
-127.1897
 20
61.0754
 30
0.0
 10
-127.1897
 20
61.0754
 30
0.0
 10
-129.0555
 20
61.0754
 30
0.0
 10
-130.5685
 20
62.5888
 30
0.0
 10
-130.5685
 20
64.4544
 30
0.0
 10
-130.5685
 20
64.4544
 30
0.0
 10
-130.5682
 20
66.3202
 30
0.0
 10
-129.0555
 20
67.8335
 30
0.0
 10
-127.1897
 20
67.8335
 30
0.0
  0
SPLINE
  5
E3
330
1F
100
AcDbEntity
  8
layer 1
 62
     7
100
AcDbSpline
210
0.0
220
0.0
230
1.0
 70
    11
 71
     3
 72
    20
 73
    16
 74
     0
 42
0.0000000001
 43
0.0000000001
 12
1.0
 22
0.0
 32
0.0
 13
1.0
 23
0.0
 33
0.0
 40
0.0
 40
0.0
 40
0.0
 40
0.0
 40
0.2
 40
0.2
 40
0.2
 40
0.2
 40
0.4
 40
0.4
 40
0.4
 40
0.4
 40
0.6
 40
0.6
 40
0.6
 40
0.6
 40
1.0
 40
1.0
 40
1.0
 40
1.0
 10
-127.2762
 20
47.3189
 30
0.0
 10
-120.9517
 20
47.3189
 30
0.0
 10
-115.8213
 20
42.1876
 30
0.0
 10
-115.8213
 20
35.8631
 30
0.0
 10
-115.8213
 20
35.8631
 30
0.0
 10
-115.8207
 20
29.5389
 30
0.0
 10
-120.9523
 20
24.4076
 30
0.0
 10
-127.2765
 20
24.4076
 30
0.0
 10
-127.2765
 20
24.4076
 30
0.0
 10
-133.601
 20
24.4076
 30
0.0
 10
-138.7326
 20
29.5389
 30
0.0
 10
-138.7326
 20
35.8631
 30
0.0
 10
-138.7326
 20
35.8631
 30
0.0
 10
-138.7323
 20
42.1876
 30
0.0
 10
-133.6013
 20
47.3189
 30
0.0
 10
-127.2762
 20
47.3189
 30
0.0
  0
SPLINE
  5
E4
330
1F
100
AcDbEntity
  8
layer 1
 62
     7
100
AcDbSpline
210
0.0
220
0.0
230
1.0
 70
    11
 71
     3
 72
    52
 73
    48
 74
     0
 42
0.0000000001
 43
0.0000000001
 12
1.0
 22
0.0
 32
0.0
 13
1.0
 23
0.0
 33
0.0
 40
0.0
 40
0.0
 40
0.0
 40
0.0
 40
0.0769230769230769
 40
0.0769230769230769
 40
0.0769230769230769
 40
0.0769230769230769
 40
0.1538461538461539
 40
0.1538461538461539
 40
0.1538461538461539
 40
0.1538461538461539
 40
0.2307692307692308
 40
0.2307692307692308
 40
0.2307692307692308
 40
0.2307692307692308
 40
0.3076923076923077
 40
0.3076923076923077
 40
0.3076923076923077
 40
0.3076923076923077
 40
0.3846153846153846
 40
0.3846153846153846
 40
0.3846153846153846
 40
0.3846153846153846
 40
0.4615384615384616
 40
0.4615384615384616
 40
0.4615384615384616
 40
0.4615384615384616
 40
0.5384615384615384
 40
0.5384615384615384
 40
0.5384615384615384
 40
0.5384615384615384
 40
0.6153846153846154
 40
0.6153846153846154
 40
0.6153846153846154
 40
0.6153846153846154
 40
0.6923076923076923
 40
0.6923076923076923
 40
0.6923076923076923
 40
0.6923076923076923
 40
0.7692307692307693
 40
0.7692307692307693
 40
0.7692307692307693
 40
0.7692307692307693
 40
0.8461538461538461
 40
0.8461538461538461
 40
0.8461538461538461
 40
0.8461538461538461
 40
1.0
 40
1.0
 40
1.0
 40
1.0
 10
-126.4408
 20
58.3222
 30
0.0
 10
-123.9814
 20
46.8367
 30
0.0
 10
-116.438
 20
39.5796
 30
0.0
 10
-104.6899
 20
36.652
 30
0.0
 10
-104.6899
 20
36.652
 30
0.0
 10
-104.7214
 20
36.394
 30
0.0
 10
-104.7379
 20
36.13
 30
0.0
 10
-104.7379
 20
35.8631
 30
0.0
 10
-104.7379
 20
35.8631
 30
0.0
 10
-104.7379
 20
35.6662
 30
0.0
 10
-104.7287
 20
35.4717
 30
0.0
 10
-104.7113
 20
35.2788
 30
0.0
 10
-104.7113
 20
35.2788
 30
0.0
 10
-117.4141
 20
30.5798
 30
0.0
 10
-121.7455
 20
26.272
 30
0.0
 10
-126.442
 20
13.6147
 30
0.0
 10
-126.442
 20
13.6147
 30
0.0
 10
-126.7539
 20
13.6621
 30
0.0
 10
-127.0728
 20
13.686
 30
0.0
 10
-127.3982
 20
13.686
 30
0.0
 10
-127.3982
 20
13.686
 30
0.0
 10
-127.5737
 20
13.686
 30
0.0
 10
-127.7477
 20
13.6789
 30
0.0
 10
-127.9199
 20
13.6648
 30
0.0
 10
-127.9199
 20
13.6648
 30
0.0
 10
-132.6549
 20
26.4055
 30
0.0
 10
-137.0306
 20
30.6685
 30
0.0
 10
-150.0062
 20
35.4154
 30
0.0
 10
-150.0062
 20
35.4154
 30
0.0
 10
-149.9866
 20
35.6164
 30
0.0
 10
-149.9771
 20
35.8197
 30
0.0
 10
-149.9771
 20
36.0258
 30
0.0
 10
-149.9771
 20
36.0258
 30
0.0
 10
-149.9769
 20
36.1943
 30
0.0
 10
-149.9832
 20
36.3612
 30
0.0
 10
-149.9961
 20
36.5264
 30
0.0
 10
-149.9961
 20
36.5264
 30
0.0
 10
-136.9945
 20
41.284
 30
0.0
 10
-132.6314
 20
45.5585
 30
0.0
 10
-127.8832
 20
58.372
 30
0.0
 10
-127.8832
 20
58.372
 30
0.0
 10
-127.5761
 20
58.3265
 30
0.0
 10
-127.2634
 20
58.302
 30
0.0
 10
-126.9445
 20
58.302
 30
0.0
 10
-126.9445
 20
58.302
 30
0.0
 10
-126.7744
 20
58.302
 30
0.0
 10
-126.6075
 20
58.3094
 30
0.0
 10
-126.4408
 20
58.3222
 30
0.0
  0
SPLINE
  5
E5
330
1F
100
AcDbEntity
  8
layer 1
 62
     7
100
AcDbSpline
210
0.0
220
0.0
230
1.0
 70
    11
 71
     3
 72
    12
 73
     8
 74
     0
 42
0.0000000001
 43
0.0000000001
 12
1.0
 22
0.0
 32
0.0
 13
1.0
 23
0.0
 33
0.0
 40
0.0
 40
0.0
 40
0.0
 40
0.0
 40
0.3333333333333333
 40
0.3333333333333333
 40
0.3333333333333333
 40
0.3333333333333333
 40
1.0
 40
1.0
 40
1.0
 40
1.0
 10
-136.9132
 20
38.1418
 30
0.0
 10
-136.073
 20
41.7109
 30
0.0
 10
-133.3007
 20
44.5357
 30
0.0
 10
-129.7613
 20
45.4509
 30
0.0
 10
-129.7613
 20
45.4509
 30
0.0
 10
-130.5826
 20
41.8717
 30
0.0
 10
-133.3643
 20
39.0393
 30
0.0
 10
-136.9132
 20
38.1418
 30
0.0
  0
SPLINE
  5
E6
330
1F
100
AcDbEntity
  8
layer 1
 62
     7
100
AcDbSpline
210
0.0
220
0.0
230
1.0
 70
    11
 71
     3
 72
    12
 73
     8
 74
     0
 42
0.0000000001
 43
0.0000000001
 12
1.0
 22
0.0
 32
0.0
 13
1.0
 23
0.0
 33
0.0
 40
0.0
 40
0.0
 40
0.0
 40
0.0
 40
0.3333333333333333
 40
0.3333333333333333
 40
0.3333333333333333
 40
0.3333333333333333
 40
1.0
 40
1.0
 40
1.0
 40
1.0
 10
-125.2277
 20
45.5525
 30
0.0
 10
-121.3602
 20
44.7378
 30
0.0
 10
-118.3229
 20
41.6644
 30
0.0
 10
-117.5612
 20
37.777
 30
0.0
 10
-117.5612
 20
37.777
 30
0.0
 10
-121.441
 20
38.5693
 30
0.0
 10
-124.489
 20
41.6534
 30
0.0
 10
-125.2277
 20
45.5525
 30
0.0
  0
SPLINE
  5
E7
330
1F
100
AcDbEntity
  8
layer 1
 62
     7
100
AcDbSpline
210
0.0
220
0.0
230
1.0
 70
    11
 71
     3
 72
    12
 73
     8
 74
     0
 42
0.0000000001
 43
0.0000000001
 12
1.0
 22
0.0
 32
0.0
 13
1.0
 23
0.0
 33
0.0
 40
0.0
 40
0.0
 40
0.0
 40
0.0
 40
0.3333333333333333
 40
0.3333333333333333
 40
0.3333333333333333
 40
0.3333333333333333
 40
1.0
 40
1.0
 40
1.0
 40
1.0
 10
-117.6156
 20
33.6887
 30
0.0
 10
-118.4865
 20
29.8107
 30
0.0
 10
-121.633
 20
26.7912
 30
0.0
 10
-125.5779
 20
26.108
 30
0.0
 10
-125.5779
 20
26.108
 30
0.0
 10
-124.7296
 20
29.9985
 30
0.0
 10
-121.5731
 20
33.0282
 30
0.0
 10
-117.6156
 20
33.6887
 30
0.0
  0
SPLINE
  5
E8
330
1F
100
AcDbEntity
  8
layer 1
 62
     7
100
AcDbSpline
210
0.0
220
0.0
230
1.0
 70
    11
 71
     3
 72
    12
 73
     8
 74
     0
 42
0.0000000001
 43
0.0000000001
 12
1.0
 22
0.0
 32
0.0
 13
1.0
 23
0.0
 33
0.0
 40
0.0
 40
0.0
 40
0.0
 40
0.0
 40
0.3333333333333333
 40
0.3333333333333333
 40
0.3333333333333333
 40
0.3333333333333333
 40
1.0
 40
1.0
 40
1.0
 40
1.0
 10
-129.2998
 20
26.1692
 30
0.0
 10
-133.1426
 20
26.9685
 30
0.0
 10
-136.1711
 20
29.9961
 30
0.0
 10
-136.9704
 20
33.8388
 30
0.0
 10
-136.9704
 20
33.8388
 30
0.0
 10
-133.1154
 20
33.0618
 30
0.0
 10
-130.0778
 20
30.0239
 30
0.0
 10
-129.2998
 20
26.1692
 30
0.0
  0
SPLINE
  5
E9
330
1F
100
AcDbEntity
  8
layer 1
 62
     7
100
AcDbSpline
210
0.0
220
0.0
230
1.0
 70
    11
 71
     3
 72
    48
 73
    44
 74
     0
 42
0.0000000001
 43
0.0000000001
 12
1.0
 22
0.0
 32
0.0
 13
1.0
 23
0.0
 33
0.0
 40
0.0
 40
0.0
 40
0.0
 40
0.0
 40
0.0833333333333333
 40
0.0833333333333333
 40
0.0833333333333333
 40
0.0833333333333333
 40
0.1666666666666667
 40
0.1666666666666667
 40
0.1666666666666667
 40
0.1666666666666667
 40
0.25
 40
0.25
 40
0.25
 40
0.25
 40
0.3333333333333333
 40
0.3333333333333333
 40
0.3333333333333333
 40
0.3333333333333333
 40
0.4166666666666667
 40
0.4166666666666667
 40
0.4166666666666667
 40
0.4166666666666667
 40
0.5
 40
0.5
 40
0.5
 40
0.5
 40
0.5833333333333334
 40
0.5833333333333334
 40
0.5833333333333334
 40
0.5833333333333334
 40
0.6666666666666666
 40
0.6666666666666666
 40
0.6666666666666666
 40
0.6666666666666666
 40
0.75
 40
0.75
 40
0.75
 40
0.75
 40
0.8333333333333334
 40
0.8333333333333334
 40
0.8333333333333334
 40
0.8333333333333334
 40
1.0
 40
1.0
 40
1.0
 40
1.0
 10
-127.2762
 20
45.765
 30
0.0
 10
-127.2762
 20
45.765
 30
0.0
 10
-127.1737
 20
45.764
 30
0.0
 10
-127.1737
 20
45.764
 30
0.0
 10
-127.1737
 20
45.764
 30
0.0
 10
-125.3244
 20
39.5741
 30
0.0
 10
-123.6664
 20
37.9632
 30
0.0
 10
-117.3786
 20
36.109
 30
0.0
 10
-117.3786
 20
36.109
 30
0.0
 10
-117.3759
 20
36.0322
 30
0.0
 10
-117.3756
 20
35.9555
 30
0.0
 10
-117.3752
 20
35.8784
 30
0.0
 10
-117.3752
 20
35.8784
 30
0.0
 10
-123.7533
 20
33.999
 30
0.0
 10
-125.369
 20
32.3695
 30
0.0
 10
-127.2511
 20
25.9615
 30
0.0
 10
-127.2511
 20
25.9615
 30
0.0
 10
-127.2511
 20
25.9615
 30
0.0
 10
-127.2762
 20
25.9615
 30
0.0
 10
-127.2762
 20
25.9615
 30
0.0
 10
-127.2762
 20
25.9615
 30
0.0
 10
-127.2762
 20
25.9615
 30
0.0
 10
-127.4456
 20
25.9637
 30
0.0
 10
-127.4456
 20
25.9637
 30
0.0
 10
-127.4456
 20
25.9637
 30
0.0
 10
-129.3121
 20
32.3219
 30
0.0
 10
-130.919
 20
33.9749
 30
0.0
 10
-137.1784
 20
35.8362
 30
0.0
 10
-137.1784
 20
35.8362
 30
0.0
 10
-137.1784
 20
35.8362
 30
0.0
 10
-137.1787
 20
35.8631
 30
0.0
 10
-137.1787
 20
35.8631
 30
0.0
 10
-137.1787
 20
35.8631
 30
0.0
 10
-137.1787
 20
35.9597
 30
0.0
 10
-137.1765
 20
36.056
 30
0.0
 10
-137.174
 20
36.1517
 30
0.0
 10
-137.174
 20
36.1517
 30
0.0
 10
-131.0043
 20
37.9879
 30
0.0
 10
-129.3573
 20
39.6215
 30
0.0
 10
-127.5233
 20
45.7622
 30
0.0
 10
-127.5233
 20
45.7622
 30
0.0
 10
-127.4407
 20
45.764
 30
0.0
 10
-127.359
 20
45.765
 30
0.0
 10
-127.2762
 20
45.765
 30
0.0
  0
SPLINE
  5
EA
330
1F
100
AcDbEntity
  8
layer 1
 62
     7
100
AcDbSpline
210
0.0
220
0.0
230
1.0
 70
    11
 71
     3
 72
    20
 73
    16
 74
     0
 42
0.0000000001
 43
0.0000000001
 12
1.0
 22
0.0
 32
0.0
 13
1.0
 23
0.0
 33
0.0
 40
0.0
 40
0.0
 40
0.0
 40
0.0
 40
0.2
 40
0.2
 40
0.2
 40
0.2
 40
0.4
 40
0.4
 40
0.4
 40
0.4
 40
0.6
 40
0.6
 40
0.6
 40
0.6
 40
1.0
 40
1.0
 40
1.0
 40
1.0
 10
-152.6387
 20
41.1828
 30
0.0
 10
-150.5428
 20
51.221
 30
0.0
 10
-142.6365
 20
59.1297
 30
0.0
 10
-132.5993
 20
61.228
 30
0.0
 10
-132.5993
 20
61.228
 30
0.0
 10
-132.0207
 20
60.3113
 30
0.0
 10
-131.2144
 20
59.5527
 30
0.0
 10
-130.2585
 20
59.0331
 30
0.0
 10
-130.2585
 20
59.0331
 30
0.0
 10
-134.466
 20
48.0146
 30
0.0
 10
-139.487
 20
43.0823
 30
0.0
 10
-150.6634
 20
38.8947
 30
0.0
 10
-150.6634
 20
38.8947
 30
0.0
 10
-151.1284
 20
39.8077
 30
0.0
 10
-151.8097
 20
40.5927
 30
0.0
 10
-152.6387
 20
41.1828
 30
0.0
  0
SPLINE
  5
EB
330
1F
100
AcDbEntity
  8
layer 1
 62
     7
100
AcDbSpline
210
0.0
220
0.0
230
1.0
 70
    11
 71
     3
 72
    20
 73
    16
 74
     0
 42
0.0000000001
 43
0.0000000001
 12
1.0
 22
0.0
 32
0.0
 13
1.0
 23
0.0
 33
0.0
 40
0.0
 40
0.0
 40
0.0
 40
0.0
 40
0.2
 40
0.2
 40
0.2
 40
0.2
 40
0.4
 40
0.4
 40
0.4
 40
0.4
 40
0.6
 40
0.6
 40
0.6
 40
0.6
 40
1.0
 40
1.0
 40
1.0
 40
1.0
 10
-132.8557
 20
10.5563
 30
0.0
 10
-142.8653
 20
12.7554
 30
0.0
 10
-150.7092
 20
20.7431
 30
0.0
 10
-152.6977
 20
30.8293
 30
0.0
 10
-152.6977
 20
30.8293
 30
0.0
 10
-151.8712
 20
31.4036
 30
0.0
 10
-151.1883
 20
32.1696
 30
0.0
 10
-150.7134
 20
33.0628
 30
0.0
 10
-150.7134
 20
33.0628
 30
0.0
 10
-139.5292
 20
28.8806
 30
0.0
 10
-134.4972
 20
23.9654
 30
0.0
 10
-130.289
 20
12.9878
 30
0.0
 10
-130.289
 20
12.9878
 30
0.0
 10
-131.3568
 20
12.4372
 30
0.0
 10
-132.2497
 20
11.5904
 30
0.0
 10
-132.8557
 20
10.5563
 30
0.0
  0
SPLINE
  5
EC
330
1F
100
AcDbEntity
  8
layer 1
 62
     7
100
AcDbSpline
210
0.0
220
0.0
230
1.0
 70
    11
 71
     3
 72
    20
 73
    16
 74
     0
 42
0.0000000001
 43
0.0000000001
 12
1.0
 22
0.0
 32
0.0
 13
1.0
 23
0.0
 33
0.0
 40
0.0
 40
0.0
 40
0.0
 40
0.0
 40
0.2
 40
0.2
 40
0.2
 40
0.2
 40
0.4
 40
0.4
 40
0.4
 40
0.4
 40
0.6
 40
0.6
 40
0.6
 40
0.6
 40
1.0
 40
1.0
 40
1.0
 40
1.0
 10
-101.9042
 20
30.5902
 30
0.0
 10
-103.9836
 20
20.5449
 30
0.0
 10
-111.88
 20
12.6243
 30
0.0
 10
-121.9119
 20
10.5101
 30
0.0
 10
-121.9119
 20
10.5101
 30
0.0
 10
-122.4476
 20
11.4421
 30
0.0
 10
-123.2136
 20
12.2243
 30
0.0
 10
-124.1324
 20
12.7793
 30
0.0
 10
-124.1324
 20
12.7793
 30
0.0
 10
-119.9554
 20
23.7768
 30
0.0
 10
-114.9984
 20
28.7411
 30
0.0
 10
-104.0113
 20
32.9187
 30
0.0
 10
-104.0113
 20
32.9187
 30
0.0
 10
-103.5139
 20
31.9772
 30
0.0
 10
-102.7873
 20
31.1754
 30
0.0
 10
-101.9042
 20
30.5902
 30
0.0
  0
SPLINE
  5
ED
330
1F
100
AcDbEntity
  8
layer 1
 62
     7
100
AcDbSpline
210
0.0
220
0.0
230
1.0
 70
    11
 71
     3
 72
    20
 73
    16
 74
     0
 42
0.0000000001
 43
0.0000000001
 12
1.0
 22
0.0
 32
0.0
 13
1.0
 23
0.0
 33
0.0
 40
0.0
 40
0.0
 40
0.0
 40
0.0
 40
0.2
 40
0.2
 40
0.2
 40
0.2
 40
0.4
 40
0.4
 40
0.4
 40
0.4
 40
0.6
 40
0.6
 40
0.6
 40
0.6
 40
1.0
 40
1.0
 40
1.0
 40
1.0
 10
-121.9015
 20
61.2164
 30
0.0
 10
-111.8743
 20
59.0992
 30
0.0
 10
-103.9829
 20
51.1794
 30
0.0
 10
-101.9049
 20
41.1372
 30
0.0
 10
-101.9049
 20
41.1372
 30
0.0
 10
-102.7326
 20
40.5883
 30
0.0
 10
-103.424
 20
39.8502
 30
0.0
 10
-103.9163
 20
38.9839
 30
0.0
 10
-103.9163
 20
38.9839
 30
0.0
 10
-114.9501
 20
42.9906
 30
0.0
 10
-120.4441
 20
48.114
 30
0.0
 10
-124.111
 20
59.1029
 30
0.0
 10
-124.111
 20
59.1029
 30
0.0
 10
-123.2133
 20
59.6171
 30
0.0
 10
-122.4543
 20
60.3447
 30
0.0
 10
-121.9015
 20
61.2164
 30
0.0
  0
SPLINE
  5
EE
330
1F
100
AcDbEntity
  8
layer 1
 62
     7
100
AcDbSpline
210
0.0
220
0.0
230
1.0
 70
    11
 71
     3
 72
    20
 73
    16
 74
     0
 42
0.0000000001
 43
0.0000000001
 12
1.0
 22
0.0
 32
0.0
 13
1.0
 23
0.0
 33
0.0
 40
0.0
 40
0.0
 40
0.0
 40
0.0
 40
0.2
 40
0.2
 40
0.2
 40
0.2
 40
0.4
 40
0.4
 40
0.4
 40
0.4
 40
0.6
 40
0.6
 40
0.6
 40
0.6
 40
1.0
 40
1.0
 40
1.0
 40
1.0
 10
-98.4141
 20
39.2423
 30
0.0
 10
-96.5481
 20
39.2423
 30
0.0
 10
-95.0351
 20
37.729
 30
0.0
 10
-95.0351
 20
35.8631
 30
0.0
 10
-95.0351
 20
35.8631
 30
0.0
 10
-95.0348
 20
33.9976
 30
0.0
 10
-96.5484
 20
32.4842
 30
0.0
 10
-98.4141
 20
32.4842
 30
0.0
 10
-98.4141
 20
32.4842
 30
0.0
 10
-100.2799
 20
32.4842
 30
0.0
 10
-101.7932
 20
33.9976
 30
0.0
 10
-101.7932
 20
35.8631
 30
0.0
 10
-101.7932
 20
35.8631
 30
0.0
 10
-101.7932
 20
37.729
 30
0.0
 10
-100.2799
 20
39.2423
 30
0.0
 10
-98.4141
 20
39.2423
 30
0.0
  0
ENDSEC
  0
SECTION
  2
OBJECTS
  0
DICTIONARY
  5
C
330
0
100
AcDbDictionary
281
     1
  3
ACAD_GROUP
350
D
  3
ACAD_LAYOUT
350
1A
  3
ACAD_MATERIAL
350
3B
  3
ACAD_MLEADERSTYLE
350
111
  3
ACAD_MLINESTYLE
350
17
  3
ACAD_PLOTSETTINGS
350
19
  3
ACAD_PLOTSTYLENAME
350
E
  3
ACAD_TABLESTYLE
350
110
  3
ACAD_VISUALSTYLE
350
2A
  0
DICTIONARY
  5
D
102
{ACAD_REACTORS
330
C
102
}
330
C
100
AcDbDictionary
281
     1
  0
DICTIONARY
  5
1A
102
{ACAD_REACTORS
330
C
102
}
330
C
100
AcDbDictionary
281
     1
  3
Layout1
350
1E
  3
Layout2
350
26
  3
Model
350
22
  0
DICTIONARY
  5
3B
102
{ACAD_REACTORS
330
C
102
}
330
C
100
AcDbDictionary
281
     1
  3
ByBlock
350
3D
  3
ByLayer
350
3C
  3
Global
350
3E
  0
DICTIONARY
  5
111
102
{ACAD_REACTORS
330
C
102
}
330
C
100
AcDbDictionary
281
     1
  0
DICTIONARY
  5
17
102
{ACAD_REACTORS
330
C
102
}
330
C
100
AcDbDictionary
281
     1
  3
Standard
350
18
  0
DICTIONARY
  5
19
102
{ACAD_REACTORS
330
C
102
}
330
C
100
AcDbDictionary
281
     1
  0
ACDBDICTIONARYWDFLT
  5
E
102
{ACAD_REACTORS
330
C
102
}
330
C
100
AcDbDictionary
281
     1
  3
Normal
350
F
100
AcDbDictionaryWithDefault
340
F
  0
DICTIONARY
  5
110
102
{ACAD_REACTORS
330
C
102
}
330
C
100
AcDbDictionary
281
     1
  0
DICTIONARY
  5
2A
102
{ACAD_REACTORS
330
C
102
}
330
C
100
AcDbDictionary
281
     1
  3
2dWireframe
350
2F
  3
3D Hidden
350
31
  3
3dWireframe
350
30
  3
Basic
350
32
  3
Brighten
350
36
  3
ColorChange
350
3A
  3
Conceptual
350
34
  3
Dim
350
35
  3
Facepattern
350
39
  3
Flat
350
2B
  3
FlatWithEdges
350
2C
  3
Gouraud
350
2D
  3
GouraudWithEdges
350
2E
  3
Linepattern
350
38
  3
Realistic
350
33
  3
Thicken
350
37
  0
LAYOUT
  5
1E
102
{ACAD_REACTORS
330
1A
102
}
330
1A
100
AcDbPlotSettings
  1

  2
none_device
  4

  6

 40
0.0
 41
0.0
 42
0.0
 43
0.0
 44
0.0
 45
0.0
 46
0.0
 47
0.0
 48
0.0
 49
0.0
140
0.0
141
0.0
142
1.0
143
1.0
 70
   688
 72
     0
 73
     0
 74
     5
  7

 75
    16
 76
     0
 77
     2
 78
   300
147
1.0
148
0.0
149
0.0
100
AcDbLayout
  1
Layout1
 70
     1
 71
     1
 10
0.0
 20
0.0
 11
12.0
 21
9.0
 12
0.0
 22
0.0
 32
0.0
 14
1.000000000000000E+20
 24
1.000000000000000E+20
 34
1.000000000000000E+20
 15
-1.000000000000000E+20
 25
-1.000000000000000E+20
 35
-1.000000000000000E+20
146
0.0
 13
0.0
 23
0.0
 33
0.0
 16
1.0
 26
0.0
 36
0.0
 17
0.0
 27
1.0
 37
0.0
 76
     0
330
1B
  0
LAYOUT
  5
26
102
{ACAD_REACTORS
330
1A
102
}
330
1A
100
AcDbPlotSettings
  1

  2
none_device
  4

  6

 40
0.0
 41
0.0
 42
0.0
 43
0.0
 44
0.0
 45
0.0
 46
0.0
 47
0.0
 48
0.0
 49
0.0
140
0.0
141
0.0
142
1.0
143
1.0
 70
   688
 72
     0
 73
     0
 74
     5
  7

 75
    16
 76
     0
 77
     2
 78
   300
147
1.0
148
0.0
149
0.0
100
AcDbLayout
  1
Layout2
 70
     1
 71
     2
 10
0.0
 20
0.0
 11
0.0
 21
0.0
 12
0.0
 22
0.0
 32
0.0
 14
0.0
 24
0.0
 34
0.0
 15
0.0
 25
0.0
 35
0.0
146
0.0
 13
0.0
 23
0.0
 33
0.0
 16
1.0
 26
0.0
 36
0.0
 17
0.0
 27
1.0
 37
0.0
 76
     0
330
23
  0
LAYOUT
  5
22
102
{ACAD_REACTORS
330
1A
102
}
330
1A
100
AcDbPlotSettings
  1

  2
none_device
  4

  6

 40
0.0
 41
0.0
 42
0.0
 43
0.0
 44
0.0
 45
0.0
 46
0.0
 47
0.0
 48
0.0
 49
0.0
140
0.0
141
0.0
142
1.0
143
1.0
 70
  1712
 72
     0
 73
     0
 74
     0
  7

 75
     0
 76
     0
 77
     2
 78
   300
147
1.0
148
0.0
149
0.0
100
AcDbLayout
  1
Model
 70
     1
 71
     0
 10
0.0
 20
0.0
 11
12.0
 21
9.0
 12
0.0
 22
0.0
 32
0.0
 14
-188.6497
 24
-103.3681
 34
0.0
 15
-65.7543
 25
120.2946
 35
0.0
146
0.0
 13
0.0
 23
0.0
 33
0.0
 16
1.0
 26
0.0
 36
0.0
 17
0.0
 27
1.0
 37
0.0
 76
     0
330
1F
331
29
  0
MATERIAL
  5
3D
102
{ACAD_REACTORS
330
3B
102
}
330
3B
100
AcDbMaterial
  1
ByBlock
 72
     1
 94
      127
  0
MATERIAL
  5
3C
102
{ACAD_REACTORS
330
3B
102
}
330
3B
100
AcDbMaterial
  1
ByLayer
 72
     1
 94
      127
  0
MATERIAL
  5
3E
102
{ACAD_REACTORS
330
3B
102
}
330
3B
100
AcDbMaterial
  1
Global
 72
     1
 94
      127
  0
MLINESTYLE
  5
18
102
{ACAD_REACTORS
330
17
102
}
330
17
100
AcDbMlineStyle
  2
Standard
 70
     0
  3

 62
   256
 51
90.0
 52
90.0
 71
     2
 49
0.5
 62
   256
  6
BYLAYER
 49
-0.5
 62
   256
  6
BYLAYER
  0
ACDBPLACEHOLDER
  5
F
102
{ACAD_REACTORS
330
E
102
}
330
E
  0
VISUALSTYLE
  5
2F
102
{ACAD_REACTORS
330
2A
102
}
102
{ACAD_XDICTIONARY
360
F8
102
}
330
2A
100
AcDbVisualStyle
  2
2dWireframe
 70
     4
 71
     0
 72
     2
 73
     0
 90
        0
 40
-0.6
 41
-30.0
 62
     5
 63
     7
421
 16777215
 74
     1
 91
        4
 64
     7
 65
   257
 75
     1
175
     1
 42
1.0
 92
        0
 66
   257
 43
1.0
 76
     1
 77
     6
 78
     2
 67
     7
 79
     5
170
     0
171
     0
290
     0
174
     0
 93
        1
 44
0.0
173
     0
291
     0
 45
0.0
  0
VISUALSTYLE
  5
31
102
{ACAD_REACTORS
330
2A
102
}
102
{ACAD_XDICTIONARY
360
FC
102
}
330
2A
100
AcDbVisualStyle
  2
3D Hidden
 70
     6
 71
     1
 72
     2
 73
     2
 90
        0
 40
-0.6
 41
-30.0
 62
     5
 63
     7
421
 16777215
 74
     2
 91
        2
 64
     7
 65
   257
 75
     2
175
     1
 42
40.0
 92
        0
 66
   257
 43
1.0
 76
     1
 77
     6
 78
     2
 67
     7
 79
     3
170
     0
171
     0
290
     0
174
     0
 93
        1
 44
0.0
173
     0
291
     0
 45
0.0
  0
VISUALSTYLE
  5
30
102
{ACAD_REACTORS
330
2A
102
}
102
{ACAD_XDICTIONARY
360
FA
102
}
330
2A
100
AcDbVisualStyle
  2
3dWireframe
 70
     5
 71
     0
 72
     2
 73
     0
 90
        0
 40
-0.6
 41
-30.0
 62
     5
 63
     7
421
 16777215
 74
     1
 91
        4
 64
     7
 65
   257
 75
     1
175
     1
 42
1.0
 92
        0
 66
   257
 43
1.0
 76
     1
 77
     6
 78
     2
 67
     7
 79
     5
170
     0
171
     0
290
     0
174
     0
 93
        1
 44
0.0
173
     0
291
     0
 45
0.0
  0
VISUALSTYLE
  5
32
102
{ACAD_REACTORS
330
2A
102
}
102
{ACAD_XDICTIONARY
360
FE
102
}
330
2A
100
AcDbVisualStyle
  2
Basic
 70
     7
 71
     1
 72
     0
 73
     1
 90
        0
 40
-0.6
 41
-30.0
 62
     5
 63
     7
421
 16777215
 74
     0
 91
        4
 64
     7
 65
   257
 75
     1
175
     1
 42
1.0
 92
        8
 66
     7
 43
1.0
 76
     1
 77
     6
 78
     2
 67
     7
 79
     5
170
     0
171
     0
290
     0
174
     0
 93
        1
 44
0.0
173
     0
291
     1
 45
0.0
  0
VISUALSTYLE
  5
36
102
{ACAD_REACTORS
330
2A
102
}
102
{ACAD_XDICTIONARY
360
106
102
}
330
2A
100
AcDbVisualStyle
  2
Brighten
 70
    12
 71
     2
 72
     2
 73
     0
 90
        0
 40
-0.6
 41
-30.0
 62
     5
 63
     7
421
 16777215
 74
     1
 91
        4
 64
     7
 65
   257
 75
     1
175
     1
 42
1.0
 92
        8
 66
     7
 43
1.0
 76
     1
 77
     6
 78
     2
 67
     7
 79
     5
170
     0
171
     0
290
     0
174
     0
 93
        1
 44
50.0
173
     0
291
     1
 45
0.0
  0
VISUALSTYLE
  5
3A
102
{ACAD_REACTORS
330
2A
102
}
102
{ACAD_XDICTIONARY
360
10E
102
}
330
2A
100
AcDbVisualStyle
  2
ColorChange
 70
    16
 71
     2
 72
     2
 73
     3
 90
        0
 40
-0.6
 41
-30.0
 62
     5
 63
     8
421
  8421504
 74
     1
 91
        4
 64
     7
 65
   257
 75
     1
175
     1
 42
1.0
 92
        8
 66
     8
424
  8421504
 43
1.0
 76
     1
 77
     6
 78
     2
 67
     7
 79
     5
170
     0
171
     0
290
     0
174
     0
 93
        1
 44
0.0
173
     0
291
     1
 45
0.0
  0
VISUALSTYLE
  5
34
102
{ACAD_REACTORS
330
2A
102
}
102
{ACAD_XDICTIONARY
360
102
102
}
330
2A
100
AcDbVisualStyle
  2
Conceptual
 70
     9
 71
     3
 72
     2
 73
     0
 90
        0
 40
-0.6
 41
-30.0
 62
     5
 63
     7
421
 16777215
 74
     2
 91
        2
 64
     7
 65
   257
 75
     1
175
     1
 42
40.0
 92
        8
 66
     7
 43
1.0
 76
     1
 77
     6
 78
     2
 67
     7
 79
     3
170
     0
171
     0
290
     0
174
     0
 93
        1
 44
0.0
173
     0
291
     0
 45
0.0
  0
VISUALSTYLE
  5
35
102
{ACAD_REACTORS
330
2A
102
}
102
{ACAD_XDICTIONARY
360
104
102
}
330
2A
100
AcDbVisualStyle
  2
Dim
 70
    11
 71
     2
 72
     2
 73
     0
 90
        0
 40
-0.6
 41
-30.0
 62
     5
 63
     7
421
 16777215
 74
     1
 91
        4
 64
     7
 65
   257
 75
     1
175
     1
 42
1.0
 92
        8
 66
     7
 43
1.0
 76
     1
 77
     6
 78
     2
 67
     7
 79
     5
170
     0
171
     0
290
     0
174
     0
 93
        1
 44
-50.0
173
     0
291
     1
 45
0.0
  0
VISUALSTYLE
  5
39
102
{ACAD_REACTORS
330
2A
102
}
102
{ACAD_XDICTIONARY
360
10C
102
}
330
2A
100
AcDbVisualStyle
  2
Facepattern
 70
    15
 71
     2
 72
     2
 73
     0
 90
        0
 40
-0.6
 41
-30.0
 62
     5
 63
     7
421
 16777215
 74
     1
 91
        4
 64
     7
 65
   257
 75
     1
175
     1
 42
1.0
 92
        8
 66
     7
 43
1.0
 76
     1
 77
     6
 78
     2
 67
     7
 79
     5
170
     0
171
     0
290
     0
174
     0
 93
        1
 44
0.0
173
     0
291
     1
 45
0.0
  0
VISUALSTYLE
  5
2B
102
{ACAD_REACTORS
330
2A
102
}
102
{ACAD_XDICTIONARY
360
F0
102
}
330
2A
100
AcDbVisualStyle
  2
Flat
 70
     0
 71
     2
 72
     1
 73
     1
 90
        2
 40
-0.6
 41
30.0
 62
     5
 63
     7
421
 16777215
 74
     0
 91
        4
 64
     7
 65
   257
 75
     1
175
     1
 42
1.0
 92
        8
 66
     7
 43
1.0
 76
     1
 77
     6
 78
     2
 67
     7
 79
     5
170
     0
171
     0
290
     0
174
     0
 93
       13
 44
0.0
173
     0
291
     1
 45
0.0
  0
VISUALSTYLE
  5
2C
102
{ACAD_REACTORS
330
2A
102
}
102
{ACAD_XDICTIONARY
360
F2
102
}
330
2A
100
AcDbVisualStyle
  2
FlatWithEdges
 70
     1
 71
     2
 72
     1
 73
     1
 90
        2
 40
-0.6
 41
30.0
 62
     5
 63
     7
421
 16777215
 74
     1
 91
        4
 64
     7
 65
   257
 75
     1
175
     1
 42
1.0
 92
        0
 66
   257
 43
1.0
 76
     1
 77
     6
 78
     2
 67
     7
 79
     5
170
     0
171
     0
290
     0
174
     0
 93
       13
 44
0.0
173
     0
291
     1
 45
0.0
  0
VISUALSTYLE
  5
2D
102
{ACAD_REACTORS
330
2A
102
}
102
{ACAD_XDICTIONARY
360
F4
102
}
330
2A
100
AcDbVisualStyle
  2
Gouraud
 70
     2
 71
     2
 72
     2
 73
     1
 90
        2
 40
-0.6
 41
30.0
 62
     5
 63
     7
421
 16777215
 74
     0
 91
        4
 64
     7
 65
   257
 75
     1
175
     1
 42
1.0
 92
        0
 66
     7
 43
1.0
 76
     1
 77
     6
 78
     2
 67
     7
 79
     5
170
     0
171
     0
290
     0
174
     0
 93
       13
 44
0.0
173
     0
291
     1
 45
0.0
  0
VISUALSTYLE
  5
2E
102
{ACAD_REACTORS
330
2A
102
}
102
{ACAD_XDICTIONARY
360
F6
102
}
330
2A
100
AcDbVisualStyle
  2
GouraudWithEdges
 70
     3
 71
     2
 72
     2
 73
     1
 90
        2
 40
-0.6
 41
30.0
 62
     5
 63
     7
421
 16777215
 74
     1
 91
        4
 64
     7
 65
   257
 75
     1
175
     1
 42
1.0
 92
        0
 66
   257
 43
1.0
 76
     1
 77
     6
 78
     2
 67
     7
 79
     5
170
     0
171
     0
290
     0
174
     0
 93
       13
 44
0.0
173
     0
291
     1
 45
0.0
  0
VISUALSTYLE
  5
38
102
{ACAD_REACTORS
330
2A
102
}
102
{ACAD_XDICTIONARY
360
10A
102
}
330
2A
100
AcDbVisualStyle
  2
Linepattern
 70
    14
 71
     2
 72
     2
 73
     0
 90
        0
 40
-0.6
 41
-30.0
 62
     5
 63
     7
421
 16777215
 74
     1
 91
        4
 64
     7
 65
   257
 75
     7
175
     7
 42
1.0
 92
        8
 66
     7
 43
1.0
 76
     1
 77
     6
 78
     2
 67
     7
 79
     5
170
     0
171
     0
290
     0
174
     0
 93
        1
 44
0.0
173
     0
291
     1
 45
0.0
  0
VISUALSTYLE
  5
33
102
{ACAD_REACTORS
330
2A
102
}
102
{ACAD_XDICTIONARY
360
100
102
}
330
2A
100
AcDbVisualStyle
  2
Realistic
 70
     8
 71
     2
 72
     2
 73
     0
 90
        0
 40
-0.6
 41
-30.0
 62
     5
 63
     7
421
 16777215
 74
     1
 91
        0
 64
     7
 65
   257
 75
     1
175
     1
 42
1.0
 92
        8
 66
     8
424
  7895160
 43
1.0
 76
     1
 77
     6
 78
     2
 67
     7
 79
     5
170
     0
171
     0
290
     0
174
     0
 93
       13
 44
0.0
173
     0
291
     0
 45
0.0
  0
VISUALSTYLE
  5
37
102
{ACAD_REACTORS
330
2A
102
}
102
{ACAD_XDICTIONARY
360
108
102
}
330
2A
100
AcDbVisualStyle
  2
Thicken
 70
    13
 71
     2
 72
     2
 73
     0
 90
        0
 40
-0.6
 41
-30.0
 62
     5
 63
     7
421
 16777215
 74
     1
 91
        4
 64
     7
 65
   257
 75
     1
175
     1
 42
1.0
 92
       12
 66
     7
 43
1.0
 76
     1
 77
     6
 78
     2
 67
     7
 79
     5
170
     0
171
     0
290
     0
174
     0
 93
        1
 44
0.0
173
     0
291
     1
 45
0.0
  0
DICTIONARY
  5
F8
330
2F
100
AcDbDictionary
280
     1
281
     1
  3
ACAD_XREC_ROUNDTRIP
360
F9
  0
DICTIONARY
  5
FC
330
31
100
AcDbDictionary
280
     1
281
     1
  3
ACAD_XREC_ROUNDTRIP
360
FD
  0
DICTIONARY
  5
FA
330
30
100
AcDbDictionary
280
     1
281
     1
  3
ACAD_XREC_ROUNDTRIP
360
FB
  0
DICTIONARY
  5
FE
330
32
100
AcDbDictionary
280
     1
281
     1
  3
ACAD_XREC_ROUNDTRIP
360
FF
  0
DICTIONARY
  5
106
330
36
100
AcDbDictionary
280
     1
281
     1
  3
ACAD_XREC_ROUNDTRIP
360
107
  0
DICTIONARY
  5
10E
330
3A
100
AcDbDictionary
280
     1
281
     1
  3
ACAD_XREC_ROUNDTRIP
360
10F
  0
DICTIONARY
  5
102
330
34
100
AcDbDictionary
280
     1
281
     1
  3
ACAD_XREC_ROUNDTRIP
360
103
  0
DICTIONARY
  5
104
330
35
100
AcDbDictionary
280
     1
281
     1
  3
ACAD_XREC_ROUNDTRIP
360
105
  0
DICTIONARY
  5
10C
330
39
100
AcDbDictionary
280
     1
281
     1
  3
ACAD_XREC_ROUNDTRIP
360
10D
  0
DICTIONARY
  5
F0
330
2B
100
AcDbDictionary
280
     1
281
     1
  3
ACAD_XREC_ROUNDTRIP
360
F1
  0
DICTIONARY
  5
F2
330
2C
100
AcDbDictionary
280
     1
281
     1
  3
ACAD_XREC_ROUNDTRIP
360
F3
  0
DICTIONARY
  5
F4
330
2D
100
AcDbDictionary
280
     1
281
     1
  3
ACAD_XREC_ROUNDTRIP
360
F5
  0
DICTIONARY
  5
F6
330
2E
100
AcDbDictionary
280
     1
281
     1
  3
ACAD_XREC_ROUNDTRIP
360
F7
  0
DICTIONARY
  5
10A
330
38
100
AcDbDictionary
280
     1
281
     1
  3
ACAD_XREC_ROUNDTRIP
360
10B
  0
DICTIONARY
  5
100
330
33
100
AcDbDictionary
280
     1
281
     1
  3
ACAD_XREC_ROUNDTRIP
360
101
  0
DICTIONARY
  5
108
330
37
100
AcDbDictionary
280
     1
281
     1
  3
ACAD_XREC_ROUNDTRIP
360
109
  0
XRECORD
  5
F9
102
{ACAD_REACTORS
330
F8
102
}
330
F8
100
AcDbXrecord
280
     1
102
RTVSPropertyOp0
 70
     1
102
RTVSPropertyOp1
 70
     1
102
RTVSPropertyOp2
 70
     1
102
RTVSPropertyOp3
 70
     1
102
RTVSPropertyOp4
 70
     1
102
RTVSPropertyOp5
 70
     1
102
RTVSPropertyOp6
 70
     1
102
RTVSPropertyOp7
 70
     1
102
RTVSPropertyOp8
 70
     1
102
RTVSPropertyOp9
 70
     1
102
RTVSPropertyOp10
 70
     1
102
RTVSPropertyOp11
 70
     1
102
RTVSPropertyOp12
 70
     1
102
RTVSPropertyOp13
 70
     1
102
RTVSPropertyOp14
 70
     1
102
RTVSPropertyOp15
 70
     1
102
RTVSPropertyOp16
 70
     1
102
RTVSPropertyOp17
 70
     1
102
RTVSPropertyOp18
 70
     1
102
RTVSPropertyOp19
 70
     1
102
RTVSPropertyOp20
 70
     1
102
RTVSPropertyOp21
 70
     1
102
RTVSPropertyOp22
 70
     1
102
RTVSPropertyOp23
 70
     1
102
RTVSPropertyOp24
 70
     1
102
RTVSPropertyOp25
 70
     1
102
RTVSPropertyOp26
 70
     1
102
RTVSPropertyOp27
 70
     1
102
RTVSPropertyOp28
 70
     1
102
RTVSPropertyOp29
 70
     1
102
RTVSPropertyOp30
 70
     1
102
RTVSPropertyOp31
 70
     1
102
RTVSPropertyOp32
 70
     1
  0
XRECORD
  5
FD
102
{ACAD_REACTORS
330
FC
102
}
330
FC
100
AcDbXrecord
280
     1
102
RTVSPropertyOp0
 70
     1
102
RTVSPropertyOp1
 70
     1
102
RTVSPropertyOp2
 70
     1
102
RTVSPropertyOp3
 70
     1
102
RTVSPropertyOp4
 70
     1
102
RTVSPropertyOp5
 70
     1
102
RTVSPropertyOp6
 70
     1
102
RTVSPropertyOp7
 70
     1
102
RTVSPropertyOp8
 70
     1
102
RTVSPropertyOp9
 70
     1
102
RTVSPropertyOp10
 70
     1
102
RTVSPropertyOp11
 70
     1
102
RTVSPropertyOp12
 70
     1
102
RTVSPropertyOp13
 70
     1
102
RTVSPropertyOp14
 70
     1
102
RTVSPropertyOp15
 70
     1
102
RTVSPropertyOp16
 70
     1
102
RTVSPropertyOp17
 70
     1
102
RTVSPropertyOp18
 70
     1
102
RTVSPropertyOp19
 70
     1
102
RTVSPropertyOp20
 70
     1
102
RTVSPropertyOp21
 70
     1
102
RTVSPropertyOp22
 70
     1
102
RTVSPropertyOp23
 70
     1
102
RTVSPropertyOp24
 70
     1
102
RTVSPropertyOp25
 70
     1
102
RTVSPropertyOp26
 70
     1
102
RTVSPropertyOp27
 70
     1
102
RTVSPropertyOp28
 70
     1
102
RTVSPropertyOp29
 70
     1
102
RTVSPropertyOp30
 70
     1
102
RTVSPropertyOp31
 70
     1
102
RTVSPropertyOp32
 70
     1
  0
XRECORD
  5
FB
102
{ACAD_REACTORS
330
FA
102
}
330
FA
100
AcDbXrecord
280
     1
102
RTVSPropertyOp0
 70
     1
102
RTVSPropertyOp1
 70
     1
102
RTVSPropertyOp2
 70
     1
102
RTVSPropertyOp3
 70
     1
102
RTVSPropertyOp4
 70
     1
102
RTVSPropertyOp5
 70
     1
102
RTVSPropertyOp6
 70
     1
102
RTVSPropertyOp7
 70
     1
102
RTVSPropertyOp8
 70
     1
102
RTVSPropertyOp9
 70
     1
102
RTVSPropertyOp10
 70
     1
102
RTVSPropertyOp11
 70
     1
102
RTVSPropertyOp12
 70
     1
102
RTVSPropertyOp13
 70
     1
102
RTVSPropertyOp14
 70
     1
102
RTVSPropertyOp15
 70
     1
102
RTVSPropertyOp16
 70
     1
102
RTVSPropertyOp17
 70
     1
102
RTVSPropertyOp18
 70
     1
102
RTVSPropertyOp19
 70
     1
102
RTVSPropertyOp20
 70
     1
102
RTVSPropertyOp21
 70
     1
102
RTVSPropertyOp22
 70
     1
102
RTVSPropertyOp23
 70
     1
102
RTVSPropertyOp24
 70
     1
102
RTVSPropertyOp25
 70
     1
102
RTVSPropertyOp26
 70
     1
102
RTVSPropertyOp27
 70
     1
102
RTVSPropertyOp28
 70
     1
102
RTVSPropertyOp29
 70
     1
102
RTVSPropertyOp30
 70
     1
102
RTVSPropertyOp31
 70
     1
102
RTVSPropertyOp32
 70
     1
  0
XRECORD
  5
FF
102
{ACAD_REACTORS
330
FE
102
}
330
FE
100
AcDbXrecord
280
     1
102
RTVSPropertyOp0
 70
     1
102
RTVSPropertyOp1
 70
     1
102
RTVSPropertyOp2
 70
     1
102
RTVSPropertyOp3
 70
     1
102
RTVSPropertyOp4
 70
     1
102
RTVSPropertyOp5
 70
     1
102
RTVSPropertyOp6
 70
     1
102
RTVSPropertyOp7
 70
     1
102
RTVSPropertyOp8
 70
     1
102
RTVSPropertyOp9
 70
     1
102
RTVSPropertyOp10
 70
     1
102
RTVSPropertyOp11
 70
     1
102
RTVSPropertyOp12
 70
     1
102
RTVSPropertyOp13
 70
     1
102
RTVSPropertyOp14
 70
     1
102
RTVSPropertyOp15
 70
     1
102
RTVSPropertyOp16
 70
     1
102
RTVSPropertyOp17
 70
     1
102
RTVSPropertyOp18
 70
     1
102
RTVSPropertyOp19
 70
     1
102
RTVSPropertyOp20
 70
     1
102
RTVSPropertyOp21
 70
     1
102
RTVSPropertyOp22
 70
     1
102
RTVSPropertyOp23
 70
     1
102
RTVSPropertyOp24
 70
     1
102
RTVSPropertyOp25
 70
     1
102
RTVSPropertyOp26
 70
     1
102
RTVSPropertyOp27
 70
     1
102
RTVSPropertyOp28
 70
     1
102
RTVSPropertyOp29
 70
     1
102
RTVSPropertyOp30
 70
     1
102
RTVSPropertyOp31
 70
     1
102
RTVSPropertyOp32
 70
     1
  0
XRECORD
  5
107
102
{ACAD_REACTORS
330
106
102
}
330
106
100
AcDbXrecord
280
     1
102
RTVSPropertyOp0
 70
     1
102
RTVSPropertyOp1
 70
     1
102
RTVSPropertyOp2
 70
     1
102
RTVSPropertyOp3
 70
     1
102
RTVSPropertyOp4
 70
     1
102
RTVSPropertyOp5
 70
     1
102
RTVSPropertyOp6
 70
     1
102
RTVSPropertyOp7
 70
     1
102
RTVSPropertyOp8
 70
     1
102
RTVSPropertyOp9
 70
     1
102
RTVSPropertyOp10
 70
     1
102
RTVSPropertyOp11
 70
     1
102
RTVSPropertyOp12
 70
     1
102
RTVSPropertyOp13
 70
     1
102
RTVSPropertyOp14
 70
     1
102
RTVSPropertyOp15
 70
     1
102
RTVSPropertyOp16
 70
     1
102
RTVSPropertyOp17
 70
     1
102
RTVSPropertyOp18
 70
     1
102
RTVSPropertyOp19
 70
     1
102
RTVSPropertyOp20
 70
     1
102
RTVSPropertyOp21
 70
     1
102
RTVSPropertyOp22
 70
     1
102
RTVSPropertyOp23
 70
     1
102
RTVSPropertyOp24
 70
     1
102
RTVSPropertyOp25
 70
     1
102
RTVSPropertyOp26
 70
     1
102
RTVSPropertyOp27
 70
     1
102
RTVSPropertyOp28
 70
     1
102
RTVSPropertyOp29
 70
     1
102
RTVSPropertyOp30
 70
     1
102
RTVSPropertyOp31
 70
     1
102
RTVSPropertyOp32
 70
     1
  0
XRECORD
  5
10F
102
{ACAD_REACTORS
330
10E
102
}
330
10E
100
AcDbXrecord
280
     1
102
RTVSPropertyOp0
 70
     1
102
RTVSPropertyOp1
 70
     1
102
RTVSPropertyOp2
 70
     1
102
RTVSPropertyOp3
 70
     1
102
RTVSPropertyOp4
 70
     1
102
RTVSPropertyOp5
 70
     1
102
RTVSPropertyOp6
 70
     1
102
RTVSPropertyOp7
 70
     1
102
RTVSPropertyOp8
 70
     1
102
RTVSPropertyOp9
 70
     1
102
RTVSPropertyOp10
 70
     1
102
RTVSPropertyOp11
 70
     1
102
RTVSPropertyOp12
 70
     1
102
RTVSPropertyOp13
 70
     1
102
RTVSPropertyOp14
 70
     1
102
RTVSPropertyOp15
 70
     1
102
RTVSPropertyOp16
 70
     1
102
RTVSPropertyOp17
 70
     1
102
RTVSPropertyOp18
 70
     1
102
RTVSPropertyOp19
 70
     1
102
RTVSPropertyOp20
 70
     1
102
RTVSPropertyOp21
 70
     1
102
RTVSPropertyOp22
 70
     1
102
RTVSPropertyOp23
 70
     1
102
RTVSPropertyOp24
 70
     1
102
RTVSPropertyOp25
 70
     1
102
RTVSPropertyOp26
 70
     1
102
RTVSPropertyOp27
 70
     1
102
RTVSPropertyOp28
 70
     1
102
RTVSPropertyOp29
 70
     1
102
RTVSPropertyOp30
 70
     1
102
RTVSPropertyOp31
 70
     1
102
RTVSPropertyOp32
 70
     1
  0
XRECORD
  5
103
102
{ACAD_REACTORS
330
102
102
}
330
102
100
AcDbXrecord
280
     1
102
RTVSPropertyOp0
 70
     1
102
RTVSPropertyOp1
 70
     1
102
RTVSPropertyOp2
 70
     1
102
RTVSPropertyOp3
 70
     1
102
RTVSPropertyOp4
 70
     1
102
RTVSPropertyOp5
 70
     1
102
RTVSPropertyOp6
 70
     1
102
RTVSPropertyOp7
 70
     1
102
RTVSPropertyOp8
 70
     1
102
RTVSPropertyOp9
 70
     1
102
RTVSPropertyOp10
 70
     1
102
RTVSPropertyOp11
 70
     1
102
RTVSPropertyOp12
 70
     1
102
RTVSPropertyOp13
 70
     1
102
RTVSPropertyOp14
 70
     1
102
RTVSPropertyOp15
 70
     1
102
RTVSPropertyOp16
 70
     1
102
RTVSPropertyOp17
 70
     1
102
RTVSPropertyOp18
 70
     1
102
RTVSPropertyOp19
 70
     1
102
RTVSPropertyOp20
 70
     1
102
RTVSPropertyOp21
 70
     1
102
RTVSPropertyOp22
 70
     1
102
RTVSPropertyOp23
 70
     1
102
RTVSPropertyOp24
 70
     1
102
RTVSPropertyOp25
 70
     1
102
RTVSPropertyOp26
 70
     1
102
RTVSPropertyOp27
 70
     1
102
RTVSPropertyOp28
 70
     1
102
RTVSPropertyOp29
 70
     1
102
RTVSPropertyOp30
 70
     1
102
RTVSPropertyOp31
 70
     1
102
RTVSPropertyOp32
 70
     1
  0
XRECORD
  5
105
102
{ACAD_REACTORS
330
104
102
}
330
104
100
AcDbXrecord
280
     1
102
RTVSPropertyOp0
 70
     1
102
RTVSPropertyOp1
 70
     1
102
RTVSPropertyOp2
 70
     1
102
RTVSPropertyOp3
 70
     1
102
RTVSPropertyOp4
 70
     1
102
RTVSPropertyOp5
 70
     1
102
RTVSPropertyOp6
 70
     1
102
RTVSPropertyOp7
 70
     1
102
RTVSPropertyOp8
 70
     1
102
RTVSPropertyOp9
 70
     1
102
RTVSPropertyOp10
 70
     1
102
RTVSPropertyOp11
 70
     1
102
RTVSPropertyOp12
 70
     1
102
RTVSPropertyOp13
 70
     1
102
RTVSPropertyOp14
 70
     1
102
RTVSPropertyOp15
 70
     1
102
RTVSPropertyOp16
 70
     1
102
RTVSPropertyOp17
 70
     1
102
RTVSPropertyOp18
 70
     1
102
RTVSPropertyOp19
 70
     1
102
RTVSPropertyOp20
 70
     1
102
RTVSPropertyOp21
 70
     1
102
RTVSPropertyOp22
 70
     1
102
RTVSPropertyOp23
 70
     1
102
RTVSPropertyOp24
 70
     1
102
RTVSPropertyOp25
 70
     1
102
RTVSPropertyOp26
 70
     1
102
RTVSPropertyOp27
 70
     1
102
RTVSPropertyOp28
 70
     1
102
RTVSPropertyOp29
 70
     1
102
RTVSPropertyOp30
 70
     1
102
RTVSPropertyOp31
 70
     1
102
RTVSPropertyOp32
 70
     1
  0
XRECORD
  5
10D
102
{ACAD_REACTORS
330
10C
102
}
330
10C
100
AcDbXrecord
280
     1
102
RTVSPropertyOp0
 70
     1
102
RTVSPropertyOp1
 70
     1
102
RTVSPropertyOp2
 70
     1
102
RTVSPropertyOp3
 70
     1
102
RTVSPropertyOp4
 70
     1
102
RTVSPropertyOp5
 70
     1
102
RTVSPropertyOp6
 70
     1
102
RTVSPropertyOp7
 70
     1
102
RTVSPropertyOp8
 70
     1
102
RTVSPropertyOp9
 70
     1
102
RTVSPropertyOp10
 70
     1
102
RTVSPropertyOp11
 70
     1
102
RTVSPropertyOp12
 70
     1
102
RTVSPropertyOp13
 70
     1
102
RTVSPropertyOp14
 70
     1
102
RTVSPropertyOp15
 70
     1
102
RTVSPropertyOp16
 70
     1
102
RTVSPropertyOp17
 70
     1
102
RTVSPropertyOp18
 70
     1
102
RTVSPropertyOp19
 70
     1
102
RTVSPropertyOp20
 70
     1
102
RTVSPropertyOp21
 70
     1
102
RTVSPropertyOp22
 70
     1
102
RTVSPropertyOp23
 70
     1
102
RTVSPropertyOp24
 70
     1
102
RTVSPropertyOp25
 70
     1
102
RTVSPropertyOp26
 70
     1
102
RTVSPropertyOp27
 70
     1
102
RTVSPropertyOp28
 70
     1
102
RTVSPropertyOp29
 70
     1
102
RTVSPropertyOp30
 70
     1
102
RTVSPropertyOp31
 70
     1
102
RTVSPropertyOp32
 70
     1
  0
XRECORD
  5
F1
102
{ACAD_REACTORS
330
F0
102
}
330
F0
100
AcDbXrecord
280
     1
102
RTVSPropertyOp0
 70
     1
102
RTVSPropertyOp1
 70
     1
102
RTVSPropertyOp2
 70
     1
102
RTVSPropertyOp3
 70
     1
102
RTVSPropertyOp4
 70
     1
102
RTVSPropertyOp5
 70
     1
102
RTVSPropertyOp6
 70
     1
102
RTVSPropertyOp7
 70
     1
102
RTVSPropertyOp8
 70
     1
102
RTVSPropertyOp9
 70
     1
102
RTVSPropertyOp10
 70
     1
102
RTVSPropertyOp11
 70
     1
102
RTVSPropertyOp12
 70
     1
102
RTVSPropertyOp13
 70
     1
102
RTVSPropertyOp14
 70
     1
102
RTVSPropertyOp15
 70
     1
102
RTVSPropertyOp16
 70
     1
102
RTVSPropertyOp17
 70
     1
102
RTVSPropertyOp18
 70
     1
102
RTVSPropertyOp19
 70
     1
102
RTVSPropertyOp20
 70
     1
102
RTVSPropertyOp21
 70
     1
102
RTVSPropertyOp22
 70
     1
102
RTVSPropertyOp23
 70
     1
102
RTVSPropertyOp24
 70
     1
102
RTVSPropertyOp25
 70
     1
102
RTVSPropertyOp26
 70
     1
102
RTVSPropertyOp27
 70
     1
102
RTVSPropertyOp28
 70
     1
102
RTVSPropertyOp29
 70
     1
102
RTVSPropertyOp30
 70
     1
102
RTVSPropertyOp31
 70
     1
102
RTVSPropertyOp32
 70
     1
  0
XRECORD
  5
F3
102
{ACAD_REACTORS
330
F2
102
}
330
F2
100
AcDbXrecord
280
     1
102
RTVSPropertyOp0
 70
     1
102
RTVSPropertyOp1
 70
     1
102
RTVSPropertyOp2
 70
     1
102
RTVSPropertyOp3
 70
     1
102
RTVSPropertyOp4
 70
     1
102
RTVSPropertyOp5
 70
     1
102
RTVSPropertyOp6
 70
     1
102
RTVSPropertyOp7
 70
     1
102
RTVSPropertyOp8
 70
     1
102
RTVSPropertyOp9
 70
     1
102
RTVSPropertyOp10
 70
     1
102
RTVSPropertyOp11
 70
     1
102
RTVSPropertyOp12
 70
     1
102
RTVSPropertyOp13
 70
     1
102
RTVSPropertyOp14
 70
     1
102
RTVSPropertyOp15
 70
     1
102
RTVSPropertyOp16
 70
     1
102
RTVSPropertyOp17
 70
     1
102
RTVSPropertyOp18
 70
     1
102
RTVSPropertyOp19
 70
     1
102
RTVSPropertyOp20
 70
     1
102
RTVSPropertyOp21
 70
     1
102
RTVSPropertyOp22
 70
     1
102
RTVSPropertyOp23
 70
     1
102
RTVSPropertyOp24
 70
     1
102
RTVSPropertyOp25
 70
     1
102
RTVSPropertyOp26
 70
     1
102
RTVSPropertyOp27
 70
     1
102
RTVSPropertyOp28
 70
     1
102
RTVSPropertyOp29
 70
     1
102
RTVSPropertyOp30
 70
     1
102
RTVSPropertyOp31
 70
     1
102
RTVSPropertyOp32
 70
     1
  0
XRECORD
  5
F5
102
{ACAD_REACTORS
330
F4
102
}
330
F4
100
AcDbXrecord
280
     1
102
RTVSPropertyOp0
 70
     1
102
RTVSPropertyOp1
 70
     1
102
RTVSPropertyOp2
 70
     1
102
RTVSPropertyOp3
 70
     1
102
RTVSPropertyOp4
 70
     1
102
RTVSPropertyOp5
 70
     1
102
RTVSPropertyOp6
 70
     1
102
RTVSPropertyOp7
 70
     1
102
RTVSPropertyOp8
 70
     1
102
RTVSPropertyOp9
 70
     1
102
RTVSPropertyOp10
 70
     1
102
RTVSPropertyOp11
 70
     1
102
RTVSPropertyOp12
 70
     1
102
RTVSPropertyOp13
 70
     1
102
RTVSPropertyOp14
 70
     1
102
RTVSPropertyOp15
 70
     1
102
RTVSPropertyOp16
 70
     1
102
RTVSPropertyOp17
 70
     1
102
RTVSPropertyOp18
 70
     1
102
RTVSPropertyOp19
 70
     1
102
RTVSPropertyOp20
 70
     1
102
RTVSPropertyOp21
 70
     1
102
RTVSPropertyOp22
 70
     1
102
RTVSPropertyOp23
 70
     1
102
RTVSPropertyOp24
 70
     1
102
RTVSPropertyOp25
 70
     1
102
RTVSPropertyOp26
 70
     1
102
RTVSPropertyOp27
 70
     1
102
RTVSPropertyOp28
 70
     1
102
RTVSPropertyOp29
 70
     1
102
RTVSPropertyOp30
 70
     1
102
RTVSPropertyOp31
 70
     1
102
RTVSPropertyOp32
 70
     1
  0
XRECORD
  5
F7
102
{ACAD_REACTORS
330
F6
102
}
330
F6
100
AcDbXrecord
280
     1
102
RTVSPropertyOp0
 70
     1
102
RTVSPropertyOp1
 70
     1
102
RTVSPropertyOp2
 70
     1
102
RTVSPropertyOp3
 70
     1
102
RTVSPropertyOp4
 70
     1
102
RTVSPropertyOp5
 70
     1
102
RTVSPropertyOp6
 70
     1
102
RTVSPropertyOp7
 70
     1
102
RTVSPropertyOp8
 70
     1
102
RTVSPropertyOp9
 70
     1
102
RTVSPropertyOp10
 70
     1
102
RTVSPropertyOp11
 70
     1
102
RTVSPropertyOp12
 70
     1
102
RTVSPropertyOp13
 70
     1
102
RTVSPropertyOp14
 70
     1
102
RTVSPropertyOp15
 70
     1
102
RTVSPropertyOp16
 70
     1
102
RTVSPropertyOp17
 70
     1
102
RTVSPropertyOp18
 70
     1
102
RTVSPropertyOp19
 70
     1
102
RTVSPropertyOp20
 70
     1
102
RTVSPropertyOp21
 70
     1
102
RTVSPropertyOp22
 70
     1
102
RTVSPropertyOp23
 70
     1
102
RTVSPropertyOp24
 70
     1
102
RTVSPropertyOp25
 70
     1
102
RTVSPropertyOp26
 70
     1
102
RTVSPropertyOp27
 70
     1
102
RTVSPropertyOp28
 70
     1
102
RTVSPropertyOp29
 70
     1
102
RTVSPropertyOp30
 70
     1
102
RTVSPropertyOp31
 70
     1
102
RTVSPropertyOp32
 70
     1
  0
XRECORD
  5
10B
102
{ACAD_REACTORS
330
10A
102
}
330
10A
100
AcDbXrecord
280
     1
102
RTVSPropertyOp0
 70
     1
102
RTVSPropertyOp1
 70
     1
102
RTVSPropertyOp2
 70
     1
102
RTVSPropertyOp3
 70
     1
102
RTVSPropertyOp4
 70
     1
102
RTVSPropertyOp5
 70
     1
102
RTVSPropertyOp6
 70
     1
102
RTVSPropertyOp7
 70
     1
102
RTVSPropertyOp8
 70
     1
102
RTVSPropertyOp9
 70
     1
102
RTVSPropertyOp10
 70
     1
102
RTVSPropertyOp11
 70
     1
102
RTVSPropertyOp12
 70
     1
102
RTVSPropertyOp13
 70
     1
102
RTVSPropertyOp14
 70
     1
102
RTVSPropertyOp15
 70
     1
102
RTVSPropertyOp16
 70
     1
102
RTVSPropertyOp17
 70
     1
102
RTVSPropertyOp18
 70
     1
102
RTVSPropertyOp19
 70
     1
102
RTVSPropertyOp20
 70
     1
102
RTVSPropertyOp21
 70
     1
102
RTVSPropertyOp22
 70
     1
102
RTVSPropertyOp23
 70
     1
102
RTVSPropertyOp24
 70
     1
102
RTVSPropertyOp25
 70
     1
102
RTVSPropertyOp26
 70
     1
102
RTVSPropertyOp27
 70
     1
102
RTVSPropertyOp28
 70
     1
102
RTVSPropertyOp29
 70
     1
102
RTVSPropertyOp30
 70
     1
102
RTVSPropertyOp31
 70
     1
102
RTVSPropertyOp32
 70
     1
  0
XRECORD
  5
101
102
{ACAD_REACTORS
330
100
102
}
330
100
100
AcDbXrecord
280
     1
102
RTVSPropertyOp0
 70
     1
102
RTVSPropertyOp1
 70
     1
102
RTVSPropertyOp2
 70
     1
102
RTVSPropertyOp3
 70
     1
102
RTVSPropertyOp4
 70
     1
102
RTVSPropertyOp5
 70
     1
102
RTVSPropertyOp6
 70
     1
102
RTVSPropertyOp7
 70
     1
102
RTVSPropertyOp8
 70
     1
102
RTVSPropertyOp9
 70
     1
102
RTVSPropertyOp10
 70
     1
102
RTVSPropertyOp11
 70
     1
102
RTVSPropertyOp12
 70
     1
102
RTVSPropertyOp13
 70
     1
102
RTVSPropertyOp14
 70
     1
102
RTVSPropertyOp15
 70
     1
102
RTVSPropertyOp16
 70
     1
102
RTVSPropertyOp17
 70
     1
102
RTVSPropertyOp18
 70
     1
102
RTVSPropertyOp19
 70
     1
102
RTVSPropertyOp20
 70
     1
102
RTVSPropertyOp21
 70
     1
102
RTVSPropertyOp22
 70
     1
102
RTVSPropertyOp23
 70
     1
102
RTVSPropertyOp24
 70
     1
102
RTVSPropertyOp25
 70
     1
102
RTVSPropertyOp26
 70
     1
102
RTVSPropertyOp27
 70
     1
102
RTVSPropertyOp28
 70
     1
102
RTVSPropertyOp29
 70
     1
102
RTVSPropertyOp30
 70
     1
102
RTVSPropertyOp31
 70
     1
102
RTVSPropertyOp32
 70
     1
  0
XRECORD
  5
109
102
{ACAD_REACTORS
330
108
102
}
330
108
100
AcDbXrecord
280
     1
102
RTVSPropertyOp0
 70
     1
102
RTVSPropertyOp1
 70
     1
102
RTVSPropertyOp2
 70
     1
102
RTVSPropertyOp3
 70
     1
102
RTVSPropertyOp4
 70
     1
102
RTVSPropertyOp5
 70
     1
102
RTVSPropertyOp6
 70
     1
102
RTVSPropertyOp7
 70
     1
102
RTVSPropertyOp8
 70
     1
102
RTVSPropertyOp9
 70
     1
102
RTVSPropertyOp10
 70
     1
102
RTVSPropertyOp11
 70
     1
102
RTVSPropertyOp12
 70
     1
102
RTVSPropertyOp13
 70
     1
102
RTVSPropertyOp14
 70
     1
102
RTVSPropertyOp15
 70
     1
102
RTVSPropertyOp16
 70
     1
102
RTVSPropertyOp17
 70
     1
102
RTVSPropertyOp18
 70
     1
102
RTVSPropertyOp19
 70
     1
102
RTVSPropertyOp20
 70
     1
102
RTVSPropertyOp21
 70
     1
102
RTVSPropertyOp22
 70
     1
102
RTVSPropertyOp23
 70
     1
102
RTVSPropertyOp24
 70
     1
102
RTVSPropertyOp25
 70
     1
102
RTVSPropertyOp26
 70
     1
102
RTVSPropertyOp27
 70
     1
102
RTVSPropertyOp28
 70
     1
102
RTVSPropertyOp29
 70
     1
102
RTVSPropertyOp30
 70
     1
102
RTVSPropertyOp31
 70
     1
102
RTVSPropertyOp32
 70
     1
  0
ENDSEC
  0
EOF
