  0
SECTION
  2
HEADER
  9
$ACADVER
  1
AC1021
  9
$ACADMAINTVER
 70
    25
  9
$DWGCODEPAGE
  3
ANSI_1256
  9
$INSBASE
 10
0.0
 20
0.0
 30
0.0
  9
$EXTMIN
 10
-58.2983
 20
-106.3563
 30
0.0
  9
$EXTMAX
 10
70.2881
 20
121.5359
 30
0.0
  9
$LIMMIN
 10
0.0
 20
0.0
  9
$LIMMAX
 10
12.0
 20
9.0
  9
$ORTHOMODE
 70
     0
  9
$REGENMODE
 70
     1
  9
$FILLMODE
 70
     1
  9
$QTEXTMODE
 70
     0
  9
$MIRRTEXT
 70
     1
  9
$LTSCALE
 40
1.0
  9
$ATTMODE
 70
     1
  9
$TEXTSIZE
 40
0.2
  9
$TRACEWID
 40
0.05
  9
$TEXTSTYLE
  7
Standard
  9
$CLAYER
  8
0
  9
$CELTYPE
  6
ByLayer
  9
$CECOLOR
 62
   256
  9
$CELTSCALE
 40
1.0
  9
$DISPSILH
 70
     0
  9
$DIMSCALE
 40
1.0
  9
$DIMASZ
 40
0.18
  9
$DIMEXO
 40
0.0625
  9
$DIMDLI
 40
0.38
  9
$DIMRND
 40
0.0
  9
$DIMDLE
 40
0.0
  9
$DIMEXE
 40
0.18
  9
$DIMTP
 40
0.0
  9
$DIMTM
 40
0.0
  9
$DIMTXT
 40
0.18
  9
$DIMCEN
 40
0.09
  9
$DIMTSZ
 40
0.0
  9
$DIMTOL
 70
     0
  9
$DIMLIM
 70
     0
  9
$DIMTIH
 70
     1
  9
$DIMTOH
 70
     1
  9
$DIMSE1
 70
     0
  9
$DIMSE2
 70
     0
  9
$DIMTAD
 70
     0
  9
$DIMZIN
 70
     0
  9
$DIMBLK
  1

  9
$DIMASO
 70
     1
  9
$DIMSHO
 70
     1
  9
$DIMPOST
  1

  9
$DIMAPOST
  1

  9
$DIMALT
 70
     0
  9
$DIMALTD
 70
     2
  9
$DIMALTF
 40
25.4
  9
$DIMLFAC
 40
1.0
  9
$DIMTOFL
 70
     0
  9
$DIMTVP
 40
0.0
  9
$DIMTIX
 70
     0
  9
$DIMSOXD
 70
     0
  9
$DIMSAH
 70
     0
  9
$DIMBLK1
  1

  9
$DIMBLK2
  1

  9
$DIMSTYLE
  2
Standard
  9
$DIMCLRD
 70
     0
  9
$DIMCLRE
 70
     0
  9
$DIMCLRT
 70
     0
  9
$DIMTFAC
 40
1.0
  9
$DIMGAP
 40
0.09
  9
$DIMJUST
 70
     0
  9
$DIMSD1
 70
     0
  9
$DIMSD2
 70
     0
  9
$DIMTOLJ
 70
     1
  9
$DIMTZIN
 70
     0
  9
$DIMALTZ
 70
     0
  9
$DIMALTTZ
 70
     0
  9
$DIMUPT
 70
     0
  9
$DIMDEC
 70
     4
  9
$DIMTDEC
 70
     4
  9
$DIMALTU
 70
     2
  9
$DIMALTTD
 70
     2
  9
$DIMTXSTY
  7
Standard
  9
$DIMAUNIT
 70
     0
  9
$DIMADEC
 70
     0
  9
$DIMALTRND
 40
0.0
  9
$DIMAZIN
 70
     0
  9
$DIMDSEP
 70
    46
  9
$DIMATFIT
 70
     3
  9
$DIMFRAC
 70
     0
  9
$DIMLDRBLK
  1

  9
$DIMLUNIT
 70
     2
  9
$DIMLWD
 70
    -2
  9
$DIMLWE
 70
    -2
  9
$DIMTMOVE
 70
     0
  9
$DIMFXL
 40
1.0
  9
$DIMFXLON
 70
     0
  9
$DIMJOGANG
 40
0.7853981633974483
  9
$DIMTFILL
 70
     0
  9
$DIMTFILLCLR
 70
     0
  9
$DIMARCSYM
 70
     0
  9
$DIMLTYPE
  6

  9
$DIMLTEX1
  6

  9
$DIMLTEX2
  6

  9
$LUNITS
 70
     2
  9
$LUPREC
 70
     4
  9
$SKETCHINC
 40
0.1
  9
$FILLETRAD
 40
0.5
  9
$AUNITS
 70
     0
  9
$AUPREC
 70
     0
  9
$MENU
  1
.
  9
$ELEVATION
 40
0.0
  9
$PELEVATION
 40
0.0
  9
$THICKNESS
 40
0.0
  9
$LIMCHECK
 70
     0
  9
$CHAMFERA
 40
0.5
  9
$CHAMFERB
 40
0.5
  9
$CHAMFERC
 40
1.0
  9
$CHAMFERD
 40
0.0
  9
$SKPOLY
 70
     0
  9
$TDCREATE
 40
2458479.311164271
  9
$TDUCREATE
 40
2458479.144497604
  9
$TDUPDATE
 40
2458479.311164352
  9
$TDUUPDATE
 40
2458479.144497685
  9
$TDINDWG
 40
0.0000000116
  9
$TDUSRTIMER
 40
0.0000000116
  9
$USRTIMER
 70
     1
  9
$ANGBASE
 50
0.0
  9
$ANGDIR
 70
     0
  9
$PDMODE
 70
     0
  9
$PDSIZE
 40
0.0
  9
$PLINEWID
 40
0.0
  9
$SPLFRAME
 70
     0
  9
$SPLINETYPE
 70
     6
  9
$SPLINESEGS
 70
     8
  9
$HANDSEED
  5
D9
  9
$SURFTAB1
 70
     6
  9
$SURFTAB2
 70
     6
  9
$SURFTYPE
 70
     6
  9
$SURFU
 70
     6
  9
$SURFV
 70
     6
  9
$UCSBASE
  2

  9
$UCSNAME
  2

  9
$UCSORG
 10
0.0
 20
0.0
 30
0.0
  9
$UCSXDIR
 10
1.0
 20
0.0
 30
0.0
  9
$UCSYDIR
 10
0.0
 20
1.0
 30
0.0
  9
$UCSORTHOREF
  2

  9
$UCSORTHOVIEW
 70
     0
  9
$UCSORGTOP
 10
0.0
 20
0.0
 30
0.0
  9
$UCSORGBOTTOM
 10
0.0
 20
0.0
 30
0.0
  9
$UCSORGLEFT
 10
0.0
 20
0.0
 30
0.0
  9
$UCSORGRIGHT
 10
0.0
 20
0.0
 30
0.0
  9
$UCSORGFRONT
 10
0.0
 20
0.0
 30
0.0
  9
$UCSORGBACK
 10
0.0
 20
0.0
 30
0.0
  9
$PUCSBASE
  2

  9
$PUCSNAME
  2

  9
$PUCSORG
 10
0.0
 20
0.0
 30
0.0
  9
$PUCSXDIR
 10
1.0
 20
0.0
 30
0.0
  9
$PUCSYDIR
 10
0.0
 20
1.0
 30
0.0
  9
$PUCSORTHOREF
  2

  9
$PUCSORTHOVIEW
 70
     0
  9
$PUCSORGTOP
 10
0.0
 20
0.0
 30
0.0
  9
$PUCSORGBOTTOM
 10
0.0
 20
0.0
 30
0.0
  9
$PUCSORGLEFT
 10
0.0
 20
0.0
 30
0.0
  9
$PUCSORGRIGHT
 10
0.0
 20
0.0
 30
0.0
  9
$PUCSORGFRONT
 10
0.0
 20
0.0
 30
0.0
  9
$PUCSORGBACK
 10
0.0
 20
0.0
 30
0.0
  9
$USERI1
 70
     0
  9
$USERI2
 70
     0
  9
$USERI3
 70
     0
  9
$USERI4
 70
     0
  9
$USERI5
 70
     0
  9
$USERR1
 40
0.0
  9
$USERR2
 40
0.0
  9
$USERR3
 40
0.0
  9
$USERR4
 40
0.0
  9
$USERR5
 40
0.0
  9
$WORLDVIEW
 70
     1
  9
$SHADEDGE
 70
     3
  9
$SHADEDIF
 70
    70
  9
$TILEMODE
 70
     1
  9
$MAXACTVP
 70
    64
  9
$PINSBASE
 10
0.0
 20
0.0
 30
0.0
  9
$PLIMCHECK
 70
     0
  9
$PEXTMIN
 10
1.000000000000000E+20
 20
1.000000000000000E+20
 30
1.000000000000000E+20
  9
$PEXTMAX
 10
-1.000000000000000E+20
 20
-1.000000000000000E+20
 30
-1.000000000000000E+20
  9
$PLIMMIN
 10
0.0
 20
0.0
  9
$PLIMMAX
 10
12.0
 20
9.0
  9
$UNITMODE
 70
     0
  9
$VISRETAIN
 70
     1
  9
$PLINEGEN
 70
     0
  9
$PSLTSCALE
 70
     1
  9
$TREEDEPTH
 70
  3020
  9
$CMLSTYLE
  2
Standard
  9
$CMLJUST
 70
     0
  9
$CMLSCALE
 40
1.0
  9
$PROXYGRAPHICS
 70
     1
  9
$MEASUREMENT
 70
     0
  9
$CELWEIGHT
370
    -1
  9
$ENDCAPS
280
     0
  9
$JOINSTYLE
280
     0
  9
$LWDISPLAY
290
     0
  9
$INSUNITS
 70
     4
  9
$HYPERLINKBASE
  1

  9
$STYLESHEET
  1

  9
$XEDIT
290
     1
  9
$CEPSNTYPE
380
     0
  9
$PSTYLEMODE
290
     1
  9
$FINGERPRINTGUID
  2
{66B4514A-144F-4901-B6C5-95353F29E2E1}
  9
$VERSIONGUID
  2
{FAEB1C32-E019-11D5-929B-00C0DF256EC4}
  9
$EXTNAMES
290
     1
  9
$PSVPSCALE
 40
0.0
  9
$OLESTARTUP
290
     0
  9
$SORTENTS
280
   127
  9
$INDEXCTL
280
     0
  9
$HIDETEXT
280
     1
  9
$XCLIPFRAME
290
     0
  9
$HALOGAP
280
     0
  9
$OBSCOLOR
 70
   257
  9
$OBSLTYPE
280
     0
  9
$INTERSECTIONDISPLAY
280
     0
  9
$INTERSECTIONCOLOR
 70
   257
  9
$DIMASSOC
280
     2
  9
$PROJECTNAME
  1

  9
$CAMERADISPLAY
290
     0
  9
$LENSLENGTH
 40
50.0
  9
$CAMERAHEIGHT
 40
0.0
  9
$STEPSPERSEC
 40
2.0
  9
$STEPSIZE
 40
6.0
  9
$3DDWFPREC
 40
2.0
  9
$PSOLWIDTH
 40
0.25
  9
$PSOLHEIGHT
 40
4.0
  9
$LOFTANG1
 40
1.570796326794897
  9
$LOFTANG2
 40
1.570796326794897
  9
$LOFTMAG1
 40
0.0
  9
$LOFTMAG2
 40
0.0
  9
$LOFTPARAM
 70
     7
  9
$LOFTNORMALS
280
     1
  9
$LATITUDE
 40
37.795
  9
$LONGITUDE
 40
-122.394
  9
$NORTHDIRECTION
 40
0.0
  9
$TIMEZONE
 70
 -8000
  9
$LIGHTGLYPHDISPLAY
280
     1
  9
$TILEMODELIGHTSYNCH
280
     1
  9
$SOLIDHIST
280
     1
  9
$SHOWHIST
280
     1
  9
$DWFFRAME
280
     2
  9
$DGNFRAME
280
     2
  9
$REALWORLDSCALE
290
     1
  9
$INTERFERECOLOR
 62
   256
  9
$CSHADOW
280
     0
  9
$SHADOWPLANELOCATION
 40
0.0
  0
ENDSEC
  0
SECTION
  2
CLASSES
  0
CLASS
  1
ACDBDICTIONARYWDFLT
  2
AcDbDictionaryWithDefault
  3
ObjectDBX Classes
 90
        0
 91
        4
280
     0
281
     0
  0
CLASS
  1
VISUALSTYLE
  2
AcDbVisualStyle
  3
ObjectDBX Classes
 90
     4095
 91
        4
280
     0
281
     0
  0
CLASS
  1
MATERIAL
  2
AcDbMaterial
  3
ObjectDBX Classes
 90
     1153
 91
        4
280
     0
281
     0
  0
ENDSEC
  0
SECTION
  2
TABLES
  0
TABLE
  2
VPORT
  5
8
330
0
100
AcDbSymbolTable
 70
     1
  0
VPORT
  5
29
330
8
100
AcDbSymbolTableRecord
100
AcDbViewportTableRecord
  2
*Active
 70
     0
 10
0.0
 20
0.0
 11
1.0
 21
1.0
 12
10.42990654205607
 22
4.5
 13
0.0
 23
0.0
 14
0.5
 24
0.5
 15
0.5
 25
0.5
 16
0.0
 26
0.0
 36
1.0
 17
0.0
 27
0.0
 37
0.0
 40
9.0
 41
1.972972972850329
 42
50.0
 43
0.0
 44
0.0
 50
0.0
 51
0.0
 71
     0
 72
   100
 73
     1
 74
     3
 75
     0
 76
     0
 77
     0
 78
     0
281
     0
 65
     1
110
0.0
120
0.0
130
0.0
111
1.0
121
0.0
131
0.0
112
0.0
122
1.0
132
0.0
 79
     0
146
0.0
 60
     3
 61
     5
292
     1
282
     1
141
0.0
142
0.0
 63
   250
  0
ENDTAB
  0
TABLE
  2
LTYPE
  5
5
330
0
100
AcDbSymbolTable
 70
     1
  0
LTYPE
  5
14
330
5
100
AcDbSymbolTableRecord
100
AcDbLinetypeTableRecord
  2
ByBlock
 70
     0
  3

 72
    65
 73
     0
 40
0.0
  0
LTYPE
  5
15
330
5
100
AcDbSymbolTableRecord
100
AcDbLinetypeTableRecord
  2
ByLayer
 70
     0
  3

 72
    65
 73
     0
 40
0.0
  0
LTYPE
  5
16
330
5
100
AcDbSymbolTableRecord
100
AcDbLinetypeTableRecord
  2
Continuous
 70
     0
  3
Solid line
 72
    65
 73
     0
 40
0.0
  0
ENDTAB
  0
TABLE
  2
LAYER
  5
2
330
0
100
AcDbSymbolTable
 70
     3
  0
LAYER
  5
10
330
2
100
AcDbSymbolTableRecord
100
AcDbLayerTableRecord
  2
0
 70
     0
 62
     7
  6
Continuous
370
    -3
390
F
347
3E
  0
LAYER
  5
40
330
2
100
AcDbSymbolTableRecord
100
AcDbLayerTableRecord
  2
layer 1
 70
     0
 62
     7
  6
Continuous
370
    -3
390
F
347
3E
  0
LAYER
  5
B6
330
2
100
AcDbSymbolTableRecord
100
AcDbLayerTableRecord
  2
Master Guides
 70
     0
 62
     7
  6
Continuous
370
    -3
390
F
347
3E
  0
ENDTAB
  0
TABLE
  2
STYLE
  5
3
330
0
100
AcDbSymbolTable
 70
     1
  0
STYLE
  5
11
330
3
100
AcDbSymbolTableRecord
100
AcDbTextStyleTableRecord
  2
Standard
 70
     0
 40
0.0
 41
1.0
 50
0.0
 71
     0
 42
0.2
  3
txt
  4

  0
ENDTAB
  0
TABLE
  2
VIEW
  5
6
330
0
100
AcDbSymbolTable
 70
     0
  0
ENDTAB
  0
TABLE
  2
UCS
  5
7
330
0
100
AcDbSymbolTable
 70
     0
  0
ENDTAB
  0
TABLE
  2
APPID
  5
9
330
0
100
AcDbSymbolTable
 70
     2
  0
APPID
  5
12
330
9
100
AcDbSymbolTableRecord
100
AcDbRegAppTableRecord
  2
ACAD
 70
     0
  0
APPID
  5
3F
330
9
100
AcDbSymbolTableRecord
100
AcDbRegAppTableRecord
  2
ODA
 70
     0
  0
ENDTAB
  0
TABLE
  2
DIMSTYLE
  5
A
330
0
100
AcDbSymbolTable
 70
     1
100
AcDbDimStyleTable
  0
DIMSTYLE
105
27
330
A
100
AcDbSymbolTableRecord
100
AcDbDimStyleTableRecord
  2
Standard
 70
     0
178
     0
340
11
  0
ENDTAB
  0
TABLE
  2
BLOCK_RECORD
  5
1
330
0
100
AcDbSymbolTable
 70
     1
  0
BLOCK_RECORD
  5
1F
330
1
100
AcDbSymbolTableRecord
100
AcDbBlockTableRecord
  2
*Model_Space
340
22
 70
     0
280
     1
281
     0
  0
BLOCK_RECORD
  5
1B
330
1
100
AcDbSymbolTableRecord
100
AcDbBlockTableRecord
  2
*Paper_Space
340
1E
 70
     0
280
     1
281
     0
  0
BLOCK_RECORD
  5
23
330
1
100
AcDbSymbolTableRecord
100
AcDbBlockTableRecord
  2
*Paper_Space0
340
26
 70
     0
280
     1
281
     0
  0
ENDTAB
  0
ENDSEC
  0
SECTION
  2
BLOCKS
  0
BLOCK
  5
20
330
1F
100
AcDbEntity
  8
0
100
AcDbBlockBegin
  2
*Model_Space
 70
     0
 10
0.0
 20
0.0
 30
0.0
  3
*Model_Space
  1

  0
ENDBLK
  5
21
330
1F
100
AcDbEntity
  8
0
100
AcDbBlockEnd
  0
BLOCK
  5
1C
330
1B
100
AcDbEntity
 67
     1
  8
0
100
AcDbBlockBegin
  2
*Paper_Space
 70
     0
 10
0.0
 20
0.0
 30
0.0
  3
*Paper_Space
  1

  0
ENDBLK
  5
1D
330
1B
100
AcDbEntity
 67
     1
  8
0
100
AcDbBlockEnd
  0
BLOCK
  5
24
330
23
100
AcDbEntity
  8
0
100
AcDbBlockBegin
  2
*Paper_Space0
 70
     0
 10
0.0
 20
0.0
 30
0.0
  3
*Paper_Space0
  1

  0
ENDBLK
  5
25
330
23
100
AcDbEntity
  8
0
100
AcDbBlockEnd
  0
ENDSEC
  0
SECTION
  2
ENTITIES
  0
SPLINE
  5
41
330
1F
100
AcDbEntity
  8
layer 1
 62
   250
100
AcDbSpline
210
0.0
220
0.0
230
1.0
 70
    11
 71
     3
 72
    20
 73
    16
 74
     0
 42
0.0000000001
 43
0.0000000001
 12
1.0
 22
0.0
 32
0.0
 13
1.0
 23
0.0
 33
0.0
 40
0.0
 40
0.0
 40
0.0
 40
0.0
 40
0.2
 40
0.2
 40
0.2
 40
0.2
 40
0.4
 40
0.4
 40
0.4
 40
0.4
 40
0.6
 40
0.6
 40
0.6
 40
0.6
 40
1.0
 40
1.0
 40
1.0
 40
1.0
 10
-58.2983
 20
121.5359
 30
0.0
 10
-58.2983
 20
121.5359
 30
0.0
 10
70.2881
 20
121.5359
 30
0.0
 10
70.2881
 20
121.5359
 30
0.0
 10
70.2881
 20
121.5359
 30
0.0
 10
70.2881
 20
121.5359
 30
0.0
 10
70.2881
 20
-106.3563
 30
0.0
 10
70.2881
 20
-106.3563
 30
0.0
 10
70.2881
 20
-106.3563
 30
0.0
 10
70.2881
 20
-106.3563
 30
0.0
 10
-58.2983
 20
-106.3563
 30
0.0
 10
-58.2983
 20
-106.3563
 30
0.0
 10
-58.2983
 20
-106.3563
 30
0.0
 10
-58.2983
 20
-106.3563
 30
0.0
 10
-58.2983
 20
121.5359
 30
0.0
 10
-58.2983
 20
121.5359
 30
0.0
  0
SPLINE
  5
42
330
1F
100
AcDbEntity
  8
layer 1
 62
   250
100
AcDbSpline
210
0.0
220
0.0
230
1.0
 70
    11
 71
     3
 72
    24
 73
    20
 74
     0
 42
0.0000000001
 43
0.0000000001
 12
1.0
 22
0.0
 32
0.0
 13
1.0
 23
0.0
 33
0.0
 40
0.0
 40
0.0
 40
0.0
 40
0.0
 40
0.1666666666666667
 40
0.1666666666666667
 40
0.1666666666666667
 40
0.1666666666666667
 40
0.3333333333333333
 40
0.3333333333333333
 40
0.3333333333333333
 40
0.3333333333333333
 40
0.5
 40
0.5
 40
0.5
 40
0.5
 40
0.6666666666666666
 40
0.6666666666666666
 40
0.6666666666666666
 40
0.6666666666666666
 40
1.0
 40
1.0
 40
1.0
 40
1.0
 10
-52.079
 20
116.1035
 30
0.0
 10
-52.079
 20
116.1035
 30
0.0
 10
-52.079
 20
113.3938
 30
0.0
 10
-52.079
 20
113.3938
 30
0.0
 10
-52.079
 20
113.3938
 30
0.0
 10
-52.079
 20
113.3938
 30
0.0
 10
-44.3242
 20
105.5453
 30
0.0
 10
-44.3242
 20
105.5453
 30
0.0
 10
-44.3242
 20
105.5453
 30
0.0
 10
-44.3242
 20
105.5453
 30
0.0
 10
-36.1018
 20
113.8615
 30
0.0
 10
-36.1018
 20
113.8615
 30
0.0
 10
-36.1018
 20
113.8615
 30
0.0
 10
-36.1018
 20
113.8615
 30
0.0
 10
-38.1573
 20
116.1035
 30
0.0
 10
-38.1573
 20
116.1035
 30
0.0
 10
-38.1573
 20
116.1035
 30
0.0
 10
-38.1573
 20
116.1035
 30
0.0
 10
-52.079
 20
116.1035
 30
0.0
 10
-52.079
 20
116.1035
 30
0.0
  0
SPLINE
  5
43
330
1F
100
AcDbEntity
  8
layer 1
 62
   250
100
AcDbSpline
210
0.0
220
0.0
230
1.0
 70
    11
 71
     3
 72
    20
 73
    16
 74
     0
 42
0.0000000001
 43
0.0000000001
 12
1.0
 22
0.0
 32
0.0
 13
1.0
 23
0.0
 33
0.0
 40
0.0
 40
0.0
 40
0.0
 40
0.0
 40
0.2
 40
0.2
 40
0.2
 40
0.2
 40
0.4
 40
0.4
 40
0.4
 40
0.4
 40
0.6
 40
0.6
 40
0.6
 40
0.6
 40
1.0
 40
1.0
 40
1.0
 40
1.0
 10
-29.1874
 20
116.0104
 30
0.0
 10
-29.1874
 20
116.0104
 30
0.0
 10
-31.15
 20
113.768
 30
0.0
 10
-31.15
 20
113.768
 30
0.0
 10
-31.15
 20
113.768
 30
0.0
 10
-31.15
 20
113.768
 30
0.0
 10
-25.8236
 20
108.1618
 30
0.0
 10
-25.8236
 20
108.1618
 30
0.0
 10
-25.8236
 20
108.1618
 30
0.0
 10
-25.8236
 20
108.1618
 30
0.0
 10
-18.1624
 20
116.0104
 30
0.0
 10
-18.1624
 20
116.0104
 30
0.0
 10
-18.1624
 20
116.0104
 30
0.0
 10
-18.1624
 20
116.0104
 30
0.0
 10
-29.1874
 20
116.0104
 30
0.0
 10
-29.1874
 20
116.0104
 30
0.0
  0
SPLINE
  5
44
330
1F
100
AcDbEntity
  8
layer 1
 62
   250
100
AcDbSpline
210
0.0
220
0.0
230
1.0
 70
    11
 71
     3
 72
    16
 73
    12
 74
     0
 42
0.0000000001
 43
0.0000000001
 12
1.0
 22
0.0
 32
0.0
 13
1.0
 23
0.0
 33
0.0
 40
0.0
 40
0.0
 40
0.0
 40
0.0
 40
0.25
 40
0.25
 40
0.25
 40
0.25
 40
0.5
 40
0.5
 40
0.5
 40
0.5
 40
1.0
 40
1.0
 40
1.0
 40
1.0
 10
-12.3687
 20
115.9166
 30
0.0
 10
-12.3687
 20
115.9166
 30
0.0
 10
-8.1643
 20
111.8054
 30
0.0
 10
-8.1643
 20
111.8054
 30
0.0
 10
-8.1643
 20
111.8054
 30
0.0
 10
-8.1643
 20
111.8054
 30
0.0
 10
-7.5106
 20
116.1035
 30
0.0
 10
-7.5106
 20
116.1035
 30
0.0
 10
-7.5106
 20
116.1035
 30
0.0
 10
-7.5106
 20
116.1035
 30
0.0
 10
-12.3687
 20
115.9166
 30
0.0
 10
-12.3687
 20
115.9166
 30
0.0
  0
SPLINE
  5
45
330
1F
100
AcDbEntity
  8
layer 1
 62
   250
100
AcDbSpline
210
0.0
220
0.0
230
1.0
 70
    11
 71
     3
 72
    20
 73
    16
 74
     0
 42
0.0000000001
 43
0.0000000001
 12
1.0
 22
0.0
 32
0.0
 13
1.0
 23
0.0
 33
0.0
 40
0.0
 40
0.0
 40
0.0
 40
0.0
 40
0.2
 40
0.2
 40
0.2
 40
0.2
 40
0.4
 40
0.4
 40
0.4
 40
0.4
 40
0.6
 40
0.6
 40
0.6
 40
0.6
 40
1.0
 40
1.0
 40
1.0
 40
1.0
 10
-3.9596
 20
116.1035
 30
0.0
 10
-3.9596
 20
116.1035
 30
0.0
 10
-4.8946
 20
108.255
 30
0.0
 10
-4.8946
 20
108.255
 30
0.0
 10
-4.8946
 20
108.255
 30
0.0
 10
-4.8946
 20
108.255
 30
0.0
 10
3.9818
 20
99.3786
 30
0.0
 10
3.9818
 20
99.3786
 30
0.0
 10
3.9818
 20
99.3786
 30
0.0
 10
3.9818
 20
99.3786
 30
0.0
 10
3.9818
 20
116.0104
 30
0.0
 10
3.9818
 20
116.0104
 30
0.0
 10
3.9818
 20
116.0104
 30
0.0
 10
3.9818
 20
116.0104
 30
0.0
 10
-3.9596
 20
116.1035
 30
0.0
 10
-3.9596
 20
116.1035
 30
0.0
  0
SPLINE
  5
46
330
1F
100
AcDbEntity
  8
layer 1
 62
   250
100
AcDbSpline
210
0.0
220
0.0
230
1.0
 70
    11
 71
     3
 72
    20
 73
    16
 74
     0
 42
0.0000000001
 43
0.0000000001
 12
1.0
 22
0.0
 32
0.0
 13
1.0
 23
0.0
 33
0.0
 40
0.0
 40
0.0
 40
0.0
 40
0.0
 40
0.2
 40
0.2
 40
0.2
 40
0.2
 40
0.4
 40
0.4
 40
0.4
 40
0.4
 40
0.6
 40
0.6
 40
0.6
 40
0.6
 40
1.0
 40
1.0
 40
1.0
 40
1.0
 10
-15.0787
 20
113.6742
 30
0.0
 10
-15.0787
 20
113.6742
 30
0.0
 10
-9.7533
 20
108.3488
 30
0.0
 10
-9.7533
 20
108.3488
 30
0.0
 10
-9.7533
 20
108.3488
 30
0.0
 10
-9.7533
 20
108.3488
 30
0.0
 10
-17.7882
 20
100.0329
 30
0.0
 10
-17.7882
 20
100.0329
 30
0.0
 10
-17.7882
 20
100.0329
 30
0.0
 10
-17.7882
 20
100.0329
 30
0.0
 10
-23.3943
 20
105.4521
 30
0.0
 10
-23.3943
 20
105.4521
 30
0.0
 10
-23.3943
 20
105.4521
 30
0.0
 10
-23.3943
 20
105.4521
 30
0.0
 10
-15.0787
 20
113.6742
 30
0.0
 10
-15.0787
 20
113.6742
 30
0.0
  0
SPLINE
  5
47
330
1F
100
AcDbEntity
  8
layer 1
 62
   250
100
AcDbSpline
210
0.0
220
0.0
230
1.0
 70
    11
 71
     3
 72
    20
 73
    16
 74
     0
 42
0.0000000001
 43
0.0000000001
 12
1.0
 22
0.0
 32
0.0
 13
1.0
 23
0.0
 33
0.0
 40
0.0
 40
0.0
 40
0.0
 40
0.0
 40
0.2
 40
0.2
 40
0.2
 40
0.2
 40
0.4
 40
0.4
 40
0.4
 40
0.4
 40
0.6
 40
0.6
 40
0.6
 40
0.6
 40
1.0
 40
1.0
 40
1.0
 40
1.0
 10
-33.5793
 20
111.3386
 30
0.0
 10
-33.5793
 20
111.3386
 30
0.0
 10
-28.253
 20
105.5453
 30
0.0
 10
-28.253
 20
105.5453
 30
0.0
 10
-28.253
 20
105.5453
 30
0.0
 10
-28.253
 20
105.5453
 30
0.0
 10
-36.4754
 20
97.2294
 30
0.0
 10
-36.4754
 20
97.2294
 30
0.0
 10
-36.4754
 20
97.2294
 30
0.0
 10
-36.4754
 20
97.2294
 30
0.0
 10
-41.9884
 20
103.0228
 30
0.0
 10
-41.9884
 20
103.0228
 30
0.0
 10
-41.9884
 20
103.0228
 30
0.0
 10
-41.9884
 20
103.0228
 30
0.0
 10
-33.5793
 20
111.3386
 30
0.0
 10
-33.5793
 20
111.3386
 30
0.0
  0
SPLINE
  5
48
330
1F
100
AcDbEntity
  8
layer 1
 62
   250
100
AcDbSpline
210
0.0
220
0.0
230
1.0
 70
    11
 71
     3
 72
    20
 73
    16
 74
     0
 42
0.0000000001
 43
0.0000000001
 12
1.0
 22
0.0
 32
0.0
 13
1.0
 23
0.0
 33
0.0
 40
0.0
 40
0.0
 40
0.0
 40
0.0
 40
0.2
 40
0.2
 40
0.2
 40
0.2
 40
0.4
 40
0.4
 40
0.4
 40
0.4
 40
0.6
 40
0.6
 40
0.6
 40
0.6
 40
1.0
 40
1.0
 40
1.0
 40
1.0
 10
-52.079
 20
108.3488
 30
0.0
 10
-52.079
 20
108.3488
 30
0.0
 10
-52.079
 20
81.2519
 30
0.0
 10
-52.079
 20
81.2519
 30
0.0
 10
-52.079
 20
81.2519
 30
0.0
 10
-52.079
 20
81.2519
 30
0.0
 10
-48.342
 20
85.083
 30
0.0
 10
-48.342
 20
85.083
 30
0.0
 10
-48.342
 20
85.083
 30
0.0
 10
-48.342
 20
85.083
 30
0.0
 10
-46.7536
 20
102.929
 30
0.0
 10
-46.7536
 20
102.929
 30
0.0
 10
-46.7536
 20
102.929
 30
0.0
 10
-46.7536
 20
102.929
 30
0.0
 10
-52.079
 20
108.3488
 30
0.0
 10
-52.079
 20
108.3488
 30
0.0
  0
SPLINE
  5
49
330
1F
100
AcDbEntity
  8
layer 1
 62
   250
100
AcDbSpline
210
0.0
220
0.0
230
1.0
 70
    11
 71
     3
 72
    16
 73
    12
 74
     0
 42
0.0000000001
 43
0.0000000001
 12
1.0
 22
0.0
 32
0.0
 13
1.0
 23
0.0
 33
0.0
 40
0.0
 40
0.0
 40
0.0
 40
0.0
 40
0.25
 40
0.25
 40
0.25
 40
0.25
 40
0.5
 40
0.5
 40
0.5
 40
0.5
 40
1.0
 40
1.0
 40
1.0
 40
1.0
 10
-43.5768
 20
99.6587
 30
0.0
 10
-43.5768
 20
99.6587
 30
0.0
 10
-44.3242
 20
89.2874
 30
0.0
 10
-44.3242
 20
89.2874
 30
0.0
 10
-44.3242
 20
89.2874
 30
0.0
 10
-44.3242
 20
89.2874
 30
0.0
 10
-38.9047
 20
94.8
 30
0.0
 10
-38.9047
 20
94.8
 30
0.0
 10
-38.9047
 20
94.8
 30
0.0
 10
-38.9047
 20
94.8
 30
0.0
 10
-43.5768
 20
99.6587
 30
0.0
 10
-43.5768
 20
99.6587
 30
0.0
  0
SPLINE
  5
4A
330
1F
100
AcDbEntity
  8
layer 1
 62
   250
100
AcDbSpline
210
0.0
220
0.0
230
1.0
 70
    11
 71
     3
 72
    16
 73
    12
 74
     0
 42
0.0000000001
 43
0.0000000001
 12
1.0
 22
0.0
 32
0.0
 13
1.0
 23
0.0
 33
0.0
 40
0.0
 40
0.0
 40
0.0
 40
0.0
 40
0.25
 40
0.25
 40
0.25
 40
0.25
 40
0.5
 40
0.5
 40
0.5
 40
0.5
 40
1.0
 40
1.0
 40
1.0
 40
1.0
 10
-36.3819
 20
92.1844
 30
0.0
 10
-36.3819
 20
92.1844
 30
0.0
 10
-42.3616
 20
86.2043
 30
0.0
 10
-42.3616
 20
86.2043
 30
0.0
 10
-42.3616
 20
86.2043
 30
0.0
 10
-42.3616
 20
86.2043
 30
0.0
 10
-32.0841
 20
87.6058
 30
0.0
 10
-32.0841
 20
87.6058
 30
0.0
 10
-32.0841
 20
87.6058
 30
0.0
 10
-32.0841
 20
87.6058
 30
0.0
 10
-36.3819
 20
92.1844
 30
0.0
 10
-36.3819
 20
92.1844
 30
0.0
  0
SPLINE
  5
4B
330
1F
100
AcDbEntity
  8
layer 1
 62
   250
100
AcDbSpline
210
0.0
220
0.0
230
1.0
 70
    11
 71
     3
 72
    20
 73
    16
 74
     0
 42
0.0000000001
 43
0.0000000001
 12
1.0
 22
0.0
 32
0.0
 13
1.0
 23
0.0
 33
0.0
 40
0.0
 40
0.0
 40
0.0
 40
0.0
 40
0.2
 40
0.2
 40
0.2
 40
0.2
 40
0.4
 40
0.4
 40
0.4
 40
0.4
 40
0.6
 40
0.6
 40
0.6
 40
0.6
 40
1.0
 40
1.0
 40
1.0
 40
1.0
 10
-33.8594
 20
94.6137
 30
0.0
 10
-33.8594
 20
94.6137
 30
0.0
 10
-28.4399
 20
89.1004
 30
0.0
 10
-28.4399
 20
89.1004
 30
0.0
 10
-28.4399
 20
89.1004
 30
0.0
 10
-28.4399
 20
89.1004
 30
0.0
 10
-20.311
 20
97.4163
 30
0.0
 10
-20.311
 20
97.4163
 30
0.0
 10
-20.311
 20
97.4163
 30
0.0
 10
-20.311
 20
97.4163
 30
0.0
 10
-25.9171
 20
103.0228
 30
0.0
 10
-25.9171
 20
103.0228
 30
0.0
 10
-25.9171
 20
103.0228
 30
0.0
 10
-25.9171
 20
103.0228
 30
0.0
 10
-33.8594
 20
94.6137
 30
0.0
 10
-33.8594
 20
94.6137
 30
0.0
  0
SPLINE
  5
4C
330
1F
100
AcDbEntity
  8
layer 1
 62
   250
100
AcDbSpline
210
0.0
220
0.0
230
1.0
 70
    11
 71
     3
 72
    24
 73
    20
 74
     0
 42
0.0000000001
 43
0.0000000001
 12
1.0
 22
0.0
 32
0.0
 13
1.0
 23
0.0
 33
0.0
 40
0.0
 40
0.0
 40
0.0
 40
0.0
 40
0.1666666666666667
 40
0.1666666666666667
 40
0.1666666666666667
 40
0.1666666666666667
 40
0.3333333333333333
 40
0.3333333333333333
 40
0.3333333333333333
 40
0.3333333333333333
 40
0.5
 40
0.5
 40
0.5
 40
0.5
 40
0.6666666666666666
 40
0.6666666666666666
 40
0.6666666666666666
 40
0.6666666666666666
 40
1.0
 40
1.0
 40
1.0
 40
1.0
 10
-52.1724
 20
76.0199
 30
0.0
 10
-52.1724
 20
76.0199
 30
0.0
 10
-52.1724
 20
74.8051
 30
0.0
 10
-52.1724
 20
74.8051
 30
0.0
 10
-52.1724
 20
74.8051
 30
0.0
 10
-52.1724
 20
74.8051
 30
0.0
 10
-19.6567
 20
74.7113
 30
0.0
 10
-19.6567
 20
74.7113
 30
0.0
 10
-19.6567
 20
74.7113
 30
0.0
 10
-19.6567
 20
74.7113
 30
0.0
 10
-29.1874
 20
84.8026
 30
0.0
 10
-29.1874
 20
84.8026
 30
0.0
 10
-29.1874
 20
84.8026
 30
0.0
 10
-29.1874
 20
84.8026
 30
0.0
 10
-46.7181
 20
82.0972
 30
0.0
 10
-46.7181
 20
82.0972
 30
0.0
 10
-46.7181
 20
82.0972
 30
0.0
 10
-46.7181
 20
82.0972
 30
0.0
 10
-52.1724
 20
76.0199
 30
0.0
 10
-52.1724
 20
76.0199
 30
0.0
  0
SPLINE
  5
4D
330
1F
100
AcDbEntity
  8
layer 1
 62
   250
100
AcDbSpline
210
0.0
220
0.0
230
1.0
 70
    11
 71
     3
 72
    20
 73
    16
 74
     0
 42
0.0000000001
 43
0.0000000001
 12
1.0
 22
0.0
 32
0.0
 13
1.0
 23
0.0
 33
0.0
 40
0.0
 40
0.0
 40
0.0
 40
0.0
 40
0.2
 40
0.2
 40
0.2
 40
0.2
 40
0.4
 40
0.4
 40
0.4
 40
0.4
 40
0.6
 40
0.6
 40
0.6
 40
0.6
 40
1.0
 40
1.0
 40
1.0
 40
1.0
 10
-17.6947
 20
94.8938
 30
0.0
 10
-17.6947
 20
94.8938
 30
0.0
 10
-25.9171
 20
86.5779
 30
0.0
 10
-25.9171
 20
86.5779
 30
0.0
 10
-25.9171
 20
86.5779
 30
0.0
 10
-25.9171
 20
86.5779
 30
0.0
 10
-14.6114
 20
74.6182
 30
0.0
 10
-14.6114
 20
74.6182
 30
0.0
 10
-14.6114
 20
74.6182
 30
0.0
 10
-14.6114
 20
74.6182
 30
0.0
 10
1.5524
 20
74.6182
 30
0.0
 10
1.5524
 20
74.6182
 30
0.0
 10
1.5524
 20
74.6182
 30
0.0
 10
1.5524
 20
74.6182
 30
0.0
 10
-17.6947
 20
94.8938
 30
0.0
 10
-17.6947
 20
94.8938
 30
0.0
  0
SPLINE
  5
4E
330
1F
100
AcDbEntity
  8
layer 1
 62
   250
100
AcDbSpline
210
0.0
220
0.0
230
1.0
 70
    11
 71
     3
 72
    20
 73
    16
 74
     0
 42
0.0000000001
 43
0.0000000001
 12
1.0
 22
0.0
 32
0.0
 13
1.0
 23
0.0
 33
0.0
 40
0.0
 40
0.0
 40
0.0
 40
0.0
 40
0.2
 40
0.2
 40
0.2
 40
0.2
 40
0.4
 40
0.4
 40
0.4
 40
0.4
 40
0.6
 40
0.6
 40
0.6
 40
0.6
 40
1.0
 40
1.0
 40
1.0
 40
1.0
 10
-15.3588
 20
97.4163
 30
0.0
 10
-15.3588
 20
97.4163
 30
0.0
 10
4.0752
 20
77.2345
 30
0.0
 10
4.0752
 20
77.2345
 30
0.0
 10
4.0752
 20
77.2345
 30
0.0
 10
4.0752
 20
77.2345
 30
0.0
 10
4.0752
 20
94.2395
 30
0.0
 10
4.0752
 20
94.2395
 30
0.0
 10
4.0752
 20
94.2395
 30
0.0
 10
4.0752
 20
94.2395
 30
0.0
 10
-7.2299
 20
105.7325
 30
0.0
 10
-7.2299
 20
105.7325
 30
0.0
 10
-7.2299
 20
105.7325
 30
0.0
 10
-7.2299
 20
105.7325
 30
0.0
 10
-15.3588
 20
97.4163
 30
0.0
 10
-15.3588
 20
97.4163
 30
0.0
  0
SPLINE
  5
4F
330
1F
100
AcDbEntity
  8
layer 1
 62
   250
100
AcDbSpline
210
0.0
220
0.0
230
1.0
 70
    11
 71
     3
 72
    24
 73
    20
 74
     0
 42
0.0000000001
 43
0.0000000001
 12
1.0
 22
0.0
 32
0.0
 13
1.0
 23
0.0
 33
0.0
 40
0.0
 40
0.0
 40
0.0
 40
0.0
 40
0.1666666666666667
 40
0.1666666666666667
 40
0.1666666666666667
 40
0.1666666666666667
 40
0.3333333333333333
 40
0.3333333333333333
 40
0.3333333333333333
 40
0.3333333333333333
 40
0.5
 40
0.5
 40
0.5
 40
0.5
 40
0.6666666666666666
 40
0.6666666666666666
 40
0.6666666666666666
 40
0.6666666666666666
 40
1.0
 40
1.0
 40
1.0
 40
1.0
 10
64.3247
 20
115.7748
 30
0.0
 10
64.3247
 20
115.7748
 30
0.0
 10
64.3247
 20
113.0651
 30
0.0
 10
64.3247
 20
113.0651
 30
0.0
 10
64.3247
 20
113.0651
 30
0.0
 10
64.3247
 20
113.0651
 30
0.0
 10
55.9075
 20
104.9044
 30
0.0
 10
55.9075
 20
104.9044
 30
0.0
 10
55.9075
 20
104.9044
 30
0.0
 10
55.9075
 20
104.9044
 30
0.0
 10
47.9473
 20
113.5321
 30
0.0
 10
47.9473
 20
113.5321
 30
0.0
 10
47.9473
 20
113.5321
 30
0.0
 10
47.9473
 20
113.5321
 30
0.0
 10
50.0542
 20
115.7748
 30
0.0
 10
50.0542
 20
115.7748
 30
0.0
 10
50.0542
 20
115.7748
 30
0.0
 10
50.0542
 20
115.7748
 30
0.0
 10
64.3247
 20
115.7748
 30
0.0
 10
64.3247
 20
115.7748
 30
0.0
  0
SPLINE
  5
50
330
1F
100
AcDbEntity
  8
layer 1
 62
   250
100
AcDbSpline
210
0.0
220
0.0
230
1.0
 70
    11
 71
     3
 72
    20
 73
    16
 74
     0
 42
0.0000000001
 43
0.0000000001
 12
1.0
 22
0.0
 32
0.0
 13
1.0
 23
0.0
 33
0.0
 40
0.0
 40
0.0
 40
0.0
 40
0.0
 40
0.2
 40
0.2
 40
0.2
 40
0.2
 40
0.4
 40
0.4
 40
0.4
 40
0.4
 40
0.6
 40
0.6
 40
0.6
 40
0.6
 40
1.0
 40
1.0
 40
1.0
 40
1.0
 10
41.0165
 20
115.6431
 30
0.0
 10
41.0165
 20
115.6431
 30
0.0
 10
43.0274
 20
113.4001
 30
0.0
 10
43.0274
 20
113.4001
 30
0.0
 10
43.0274
 20
113.4001
 30
0.0
 10
43.0274
 20
113.4001
 30
0.0
 10
37.5681
 20
107.7942
 30
0.0
 10
37.5681
 20
107.7942
 30
0.0
 10
37.5681
 20
107.7942
 30
0.0
 10
37.5681
 20
107.7942
 30
0.0
 10
29.7149
 20
115.6431
 30
0.0
 10
29.7149
 20
115.6431
 30
0.0
 10
29.7149
 20
115.6431
 30
0.0
 10
29.7149
 20
115.6431
 30
0.0
 10
41.0165
 20
115.6431
 30
0.0
 10
41.0165
 20
115.6431
 30
0.0
  0
SPLINE
  5
51
330
1F
100
AcDbEntity
  8
layer 1
 62
   250
100
AcDbSpline
210
0.0
220
0.0
230
1.0
 70
    11
 71
     3
 72
    16
 73
    12
 74
     0
 42
0.0000000001
 43
0.0000000001
 12
1.0
 22
0.0
 32
0.0
 13
1.0
 23
0.0
 33
0.0
 40
0.0
 40
0.0
 40
0.0
 40
0.0
 40
0.25
 40
0.25
 40
0.25
 40
0.25
 40
0.5
 40
0.5
 40
0.5
 40
0.5
 40
1.0
 40
1.0
 40
1.0
 40
1.0
 10
24.0576
 20
115.6766
 30
0.0
 10
24.0576
 20
115.6766
 30
0.0
 10
19.7482
 20
111.5651
 30
0.0
 10
19.7482
 20
111.5651
 30
0.0
 10
19.7482
 20
111.5651
 30
0.0
 10
19.7482
 20
111.5651
 30
0.0
 10
19.0775
 20
115.8633
 30
0.0
 10
19.0775
 20
115.8633
 30
0.0
 10
19.0775
 20
115.8633
 30
0.0
 10
19.0775
 20
115.8633
 30
0.0
 10
24.0576
 20
115.6766
 30
0.0
 10
24.0576
 20
115.6766
 30
0.0
  0
SPLINE
  5
52
330
1F
100
AcDbEntity
  8
layer 1
 62
   250
100
AcDbSpline
210
0.0
220
0.0
230
1.0
 70
    11
 71
     3
 72
    20
 73
    16
 74
     0
 42
0.0000000001
 43
0.0000000001
 12
1.0
 22
0.0
 32
0.0
 13
1.0
 23
0.0
 33
0.0
 40
0.0
 40
0.0
 40
0.0
 40
0.0
 40
0.2
 40
0.2
 40
0.2
 40
0.2
 40
0.4
 40
0.4
 40
0.4
 40
0.4
 40
0.6
 40
0.6
 40
0.6
 40
0.6
 40
1.0
 40
1.0
 40
1.0
 40
1.0
 10
15.5281
 20
115.8633
 30
0.0
 10
15.5281
 20
115.8633
 30
0.0
 10
16.486
 20
108.0147
 30
0.0
 10
16.486
 20
108.0147
 30
0.0
 10
16.486
 20
108.0147
 30
0.0
 10
16.486
 20
108.0147
 30
0.0
 10
7.3872
 20
99.1383
 30
0.0
 10
7.3872
 20
99.1383
 30
0.0
 10
7.3872
 20
99.1383
 30
0.0
 10
7.3872
 20
99.1383
 30
0.0
 10
7.3872
 20
115.7701
 30
0.0
 10
7.3872
 20
115.7701
 30
0.0
 10
7.3872
 20
115.7701
 30
0.0
 10
7.3872
 20
115.7701
 30
0.0
 10
15.5281
 20
115.8633
 30
0.0
 10
15.5281
 20
115.8633
 30
0.0
  0
SPLINE
  5
53
330
1F
100
AcDbEntity
  8
layer 1
 62
   250
100
AcDbSpline
210
0.0
220
0.0
230
1.0
 70
    11
 71
     3
 72
    20
 73
    16
 74
     0
 42
0.0000000001
 43
0.0000000001
 12
1.0
 22
0.0
 32
0.0
 13
1.0
 23
0.0
 33
0.0
 40
0.0
 40
0.0
 40
0.0
 40
0.0
 40
0.2
 40
0.2
 40
0.2
 40
0.2
 40
0.4
 40
0.4
 40
0.4
 40
0.4
 40
0.6
 40
0.6
 40
0.6
 40
0.6
 40
1.0
 40
1.0
 40
1.0
 40
1.0
 10
26.6475
 20
113.7071
 30
0.0
 10
26.6475
 20
113.7071
 30
0.0
 10
21.0659
 20
108.2249
 30
0.0
 10
21.0659
 20
108.2249
 30
0.0
 10
21.0659
 20
108.2249
 30
0.0
 10
21.0659
 20
108.2249
 30
0.0
 10
29.3024
 20
99.9093
 30
0.0
 10
29.3024
 20
99.9093
 30
0.0
 10
29.3024
 20
99.9093
 30
0.0
 10
29.3024
 20
99.9093
 30
0.0
 10
35.0487
 20
105.3285
 30
0.0
 10
35.0487
 20
105.3285
 30
0.0
 10
35.0487
 20
105.3285
 30
0.0
 10
35.0487
 20
105.3285
 30
0.0
 10
26.6475
 20
113.7071
 30
0.0
 10
26.6475
 20
113.7071
 30
0.0
  0
SPLINE
  5
54
330
1F
100
AcDbEntity
  8
layer 1
 62
   250
100
AcDbSpline
210
0.0
220
0.0
230
1.0
 70
    11
 71
     3
 72
    20
 73
    16
 74
     0
 42
0.0000000001
 43
0.0000000001
 12
1.0
 22
0.0
 32
0.0
 13
1.0
 23
0.0
 33
0.0
 40
0.0
 40
0.0
 40
0.0
 40
0.0
 40
0.2
 40
0.2
 40
0.2
 40
0.2
 40
0.4
 40
0.4
 40
0.4
 40
0.4
 40
0.6
 40
0.6
 40
0.6
 40
0.6
 40
1.0
 40
1.0
 40
1.0
 40
1.0
 10
45.2055
 20
111.1649
 30
0.0
 10
45.2055
 20
111.1649
 30
0.0
 10
39.7462
 20
105.3721
 30
0.0
 10
39.7462
 20
105.3721
 30
0.0
 10
39.7462
 20
105.3721
 30
0.0
 10
39.7462
 20
105.3721
 30
0.0
 10
48.1744
 20
96.7444
 30
0.0
 10
48.1744
 20
96.7444
 30
0.0
 10
48.1744
 20
96.7444
 30
0.0
 10
48.1744
 20
96.7444
 30
0.0
 10
53.513
 20
102.8493
 30
0.0
 10
53.513
 20
102.8493
 30
0.0
 10
53.513
 20
102.8493
 30
0.0
 10
53.513
 20
102.8493
 30
0.0
 10
45.2055
 20
111.1649
 30
0.0
 10
45.2055
 20
111.1649
 30
0.0
  0
SPLINE
  5
55
330
1F
100
AcDbEntity
  8
layer 1
 62
   250
100
AcDbSpline
210
0.0
220
0.0
230
1.0
 70
    11
 71
     3
 72
    20
 73
    16
 74
     0
 42
0.0000000001
 43
0.0000000001
 12
1.0
 22
0.0
 32
0.0
 13
1.0
 23
0.0
 33
0.0
 40
0.0
 40
0.0
 40
0.0
 40
0.0
 40
0.2
 40
0.2
 40
0.2
 40
0.2
 40
0.4
 40
0.4
 40
0.4
 40
0.4
 40
0.6
 40
0.6
 40
0.6
 40
0.6
 40
1.0
 40
1.0
 40
1.0
 40
1.0
 10
64.6352
 20
108.6427
 30
0.0
 10
64.6352
 20
108.6427
 30
0.0
 10
64.5753
 20
79.3065
 30
0.0
 10
64.5753
 20
79.3065
 30
0.0
 10
64.5753
 20
79.3065
 30
0.0
 10
64.5753
 20
79.3065
 30
0.0
 10
59.8916
 20
84.4419
 30
0.0
 10
59.8916
 20
84.4419
 30
0.0
 10
59.8916
 20
84.4419
 30
0.0
 10
59.8916
 20
84.4419
 30
0.0
 10
58.0313
 20
102.444
 30
0.0
 10
58.0313
 20
102.444
 30
0.0
 10
58.0313
 20
102.444
 30
0.0
 10
58.0313
 20
102.444
 30
0.0
 10
64.6352
 20
108.6427
 30
0.0
 10
64.6352
 20
108.6427
 30
0.0
  0
SPLINE
  5
56
330
1F
100
AcDbEntity
  8
layer 1
 62
   250
100
AcDbSpline
210
0.0
220
0.0
230
1.0
 70
    11
 71
     3
 72
    16
 73
    12
 74
     0
 42
0.0000000001
 43
0.0000000001
 12
1.0
 22
0.0
 32
0.0
 13
1.0
 23
0.0
 33
0.0
 40
0.0
 40
0.0
 40
0.0
 40
0.0
 40
0.25
 40
0.25
 40
0.25
 40
0.25
 40
0.5
 40
0.5
 40
0.5
 40
0.5
 40
1.0
 40
1.0
 40
1.0
 40
1.0
 10
55.0509
 20
99.2064
 30
0.0
 10
55.0509
 20
99.2064
 30
0.0
 10
55.9777
 20
88.6127
 30
0.0
 10
55.9777
 20
88.6127
 30
0.0
 10
55.9777
 20
88.6127
 30
0.0
 10
55.9777
 20
88.6127
 30
0.0
 10
50.4265
 20
94.3976
 30
0.0
 10
50.4265
 20
94.3976
 30
0.0
 10
50.4265
 20
94.3976
 30
0.0
 10
50.4265
 20
94.3976
 30
0.0
 10
55.0509
 20
99.2064
 30
0.0
 10
55.0509
 20
99.2064
 30
0.0
  0
SPLINE
  5
57
330
1F
100
AcDbEntity
  8
layer 1
 62
   250
100
AcDbSpline
210
0.0
220
0.0
230
1.0
 70
    11
 71
     3
 72
    16
 73
    12
 74
     0
 42
0.0000000001
 43
0.0000000001
 12
1.0
 22
0.0
 32
0.0
 13
1.0
 23
0.0
 33
0.0
 40
0.0
 40
0.0
 40
0.0
 40
0.0
 40
0.25
 40
0.25
 40
0.25
 40
0.25
 40
0.5
 40
0.5
 40
0.5
 40
0.5
 40
1.0
 40
1.0
 40
1.0
 40
1.0
 10
47.664
 20
91.8017
 30
0.0
 10
47.664
 20
91.8017
 30
0.0
 10
53.7931
 20
85.822
 30
0.0
 10
53.7931
 20
85.822
 30
0.0
 10
53.7931
 20
85.822
 30
0.0
 10
53.7931
 20
85.822
 30
0.0
 10
43.2583
 20
87.2234
 30
0.0
 10
43.2583
 20
87.2234
 30
0.0
 10
43.2583
 20
87.2234
 30
0.0
 10
43.2583
 20
87.2234
 30
0.0
 10
47.664
 20
91.8017
 30
0.0
 10
47.664
 20
91.8017
 30
0.0
  0
SPLINE
  5
58
330
1F
100
AcDbEntity
  8
layer 1
 62
   250
100
AcDbSpline
210
0.0
220
0.0
230
1.0
 70
    11
 71
     3
 72
    20
 73
    16
 74
     0
 42
0.0000000001
 43
0.0000000001
 12
1.0
 22
0.0
 32
0.0
 13
1.0
 23
0.0
 33
0.0
 40
0.0
 40
0.0
 40
0.0
 40
0.0
 40
0.2
 40
0.2
 40
0.2
 40
0.2
 40
0.4
 40
0.4
 40
0.4
 40
0.4
 40
0.6
 40
0.6
 40
0.6
 40
0.6
 40
1.0
 40
1.0
 40
1.0
 40
1.0
 10
45.5283
 20
94.1808
 30
0.0
 10
45.5283
 20
94.1808
 30
0.0
 10
39.9739
 20
88.6679
 30
0.0
 10
39.9739
 20
88.6679
 30
0.0
 10
39.9739
 20
88.6679
 30
0.0
 10
39.9739
 20
88.6679
 30
0.0
 10
31.8227
 20
97.262
 30
0.0
 10
31.8227
 20
97.262
 30
0.0
 10
31.8227
 20
97.262
 30
0.0
 10
31.8227
 20
97.262
 30
0.0
 10
37.1506
 20
103.1482
 30
0.0
 10
37.1506
 20
103.1482
 30
0.0
 10
37.1506
 20
103.1482
 30
0.0
 10
37.1506
 20
103.1482
 30
0.0
 10
45.5283
 20
94.1808
 30
0.0
 10
45.5283
 20
94.1808
 30
0.0
  0
SPLINE
  5
59
330
1F
100
AcDbEntity
  8
layer 1
 62
   250
100
AcDbSpline
210
0.0
220
0.0
230
1.0
 70
    11
 71
     3
 72
    24
 73
    20
 74
     0
 42
0.0000000001
 43
0.0000000001
 12
1.0
 22
0.0
 32
0.0
 13
1.0
 23
0.0
 33
0.0
 40
0.0
 40
0.0
 40
0.0
 40
0.0
 40
0.1666666666666667
 40
0.1666666666666667
 40
0.1666666666666667
 40
0.1666666666666667
 40
0.3333333333333333
 40
0.3333333333333333
 40
0.3333333333333333
 40
0.3333333333333333
 40
0.5
 40
0.5
 40
0.5
 40
0.5
 40
0.6666666666666666
 40
0.6666666666666666
 40
0.6666666666666666
 40
0.6666666666666666
 40
1.0
 40
1.0
 40
1.0
 40
1.0
 10
63.5402
 20
75.5874
 30
0.0
 10
63.5402
 20
75.5874
 30
0.0
 10
64.5715
 20
74.1552
 30
0.0
 10
64.5715
 20
74.1552
 30
0.0
 10
64.5715
 20
74.1552
 30
0.0
 10
64.5715
 20
74.1552
 30
0.0
 10
30.6232
 20
74.3826
 30
0.0
 10
30.6232
 20
74.3826
 30
0.0
 10
30.6232
 20
74.3826
 30
0.0
 10
30.6232
 20
74.3826
 30
0.0
 10
40.392
 20
84.4732
 30
0.0
 10
40.392
 20
84.4732
 30
0.0
 10
40.392
 20
84.4732
 30
0.0
 10
40.392
 20
84.4732
 30
0.0
 10
58.361
 20
81.4219
 30
0.0
 10
58.361
 20
81.4219
 30
0.0
 10
58.361
 20
81.4219
 30
0.0
 10
58.361
 20
81.4219
 30
0.0
 10
63.5402
 20
75.5874
 30
0.0
 10
63.5402
 20
75.5874
 30
0.0
  0
SPLINE
  5
5A
330
1F
100
AcDbEntity
  8
layer 1
 62
   250
100
AcDbSpline
210
0.0
220
0.0
230
1.0
 70
    11
 71
     3
 72
    20
 73
    16
 74
     0
 42
0.0000000001
 43
0.0000000001
 12
1.0
 22
0.0
 32
0.0
 13
1.0
 23
0.0
 33
0.0
 40
0.0
 40
0.0
 40
0.0
 40
0.0
 40
0.2
 40
0.2
 40
0.2
 40
0.2
 40
0.4
 40
0.4
 40
0.4
 40
0.4
 40
0.6
 40
0.6
 40
0.6
 40
0.6
 40
1.0
 40
1.0
 40
1.0
 40
1.0
 10
29.2745
 20
94.6482
 30
0.0
 10
29.2745
 20
94.6482
 30
0.0
 10
37.5606
 20
86.1855
 30
0.0
 10
37.5606
 20
86.1855
 30
0.0
 10
37.5606
 20
86.1855
 30
0.0
 10
37.5606
 20
86.1855
 30
0.0
 10
26.146
 20
74.4099
 30
0.0
 10
26.146
 20
74.4099
 30
0.0
 10
26.146
 20
74.4099
 30
0.0
 10
26.146
 20
74.4099
 30
0.0
 10
9.6161
 20
74.4814
 30
0.0
 10
9.6161
 20
74.4814
 30
0.0
 10
9.6161
 20
74.4814
 30
0.0
 10
9.6161
 20
74.4814
 30
0.0
 10
29.2745
 20
94.6482
 30
0.0
 10
29.2745
 20
94.6482
 30
0.0
  0
SPLINE
  5
5B
330
1F
100
AcDbEntity
  8
layer 1
 62
   250
100
AcDbSpline
210
0.0
220
0.0
230
1.0
 70
    11
 71
     3
 72
    20
 73
    16
 74
     0
 42
0.0000000001
 43
0.0000000001
 12
1.0
 22
0.0
 32
0.0
 13
1.0
 23
0.0
 33
0.0
 40
0.0
 40
0.0
 40
0.0
 40
0.0
 40
0.2
 40
0.2
 40
0.2
 40
0.2
 40
0.4
 40
0.4
 40
0.4
 40
0.4
 40
0.6
 40
0.6
 40
0.6
 40
0.6
 40
1.0
 40
1.0
 40
1.0
 40
1.0
 10
27.1532
 20
97.2115
 30
0.0
 10
27.1532
 20
97.2115
 30
0.0
 10
7.2317
 20
77.029
 30
0.0
 10
7.2317
 20
77.029
 30
0.0
 10
7.2317
 20
77.029
 30
0.0
 10
7.2317
 20
77.029
 30
0.0
 10
7.2317
 20
94.0344
 30
0.0
 10
7.2317
 20
94.0344
 30
0.0
 10
7.2317
 20
94.0344
 30
0.0
 10
7.2317
 20
94.0344
 30
0.0
 10
18.7777
 20
105.6939
 30
0.0
 10
18.7777
 20
105.6939
 30
0.0
 10
18.7777
 20
105.6939
 30
0.0
 10
18.7777
 20
105.6939
 30
0.0
 10
27.1532
 20
97.2115
 30
0.0
 10
27.1532
 20
97.2115
 30
0.0
  0
SPLINE
  5
5C
330
1F
100
AcDbEntity
  8
layer 1
 62
   250
100
AcDbSpline
210
0.0
220
0.0
230
1.0
 70
    11
 71
     3
 72
    24
 73
    20
 74
     0
 42
0.0000000001
 43
0.0000000001
 12
1.0
 22
0.0
 32
0.0
 13
1.0
 23
0.0
 33
0.0
 40
0.0
 40
0.0
 40
0.0
 40
0.0
 40
0.1666666666666667
 40
0.1666666666666667
 40
0.1666666666666667
 40
0.1666666666666667
 40
0.3333333333333333
 40
0.3333333333333333
 40
0.3333333333333333
 40
0.3333333333333333
 40
0.5
 40
0.5
 40
0.5
 40
0.5
 40
0.6666666666666666
 40
0.6666666666666666
 40
0.6666666666666666
 40
0.6666666666666666
 40
1.0
 40
1.0
 40
1.0
 40
1.0
 10
-52.1724
 20
70.2814
 30
0.0
 10
-52.1724
 20
70.2814
 30
0.0
 10
-52.1724
 20
71.4088
 30
0.0
 10
-52.1724
 20
71.4088
 30
0.0
 10
-52.1724
 20
71.4088
 30
0.0
 10
-52.1724
 20
71.4088
 30
0.0
 10
-19.6567
 20
71.4953
 30
0.0
 10
-19.6567
 20
71.4953
 30
0.0
 10
-19.6567
 20
71.4953
 30
0.0
 10
-19.6567
 20
71.4953
 30
0.0
 10
-29.1874
 20
61.2887
 30
0.0
 10
-29.1874
 20
61.2887
 30
0.0
 10
-29.1874
 20
61.2887
 30
0.0
 10
-29.1874
 20
61.2887
 30
0.0
 10
-46.7181
 20
64.6392
 30
0.0
 10
-46.7181
 20
64.6392
 30
0.0
 10
-46.7181
 20
64.6392
 30
0.0
 10
-46.7181
 20
64.6392
 30
0.0
 10
-52.1724
 20
70.2814
 30
0.0
 10
-52.1724
 20
70.2814
 30
0.0
  0
SPLINE
  5
5D
330
1F
100
AcDbEntity
  8
layer 1
 62
   250
100
AcDbSpline
210
0.0
220
0.0
230
1.0
 70
    11
 71
     3
 72
    20
 73
    16
 74
     0
 42
0.0000000001
 43
0.0000000001
 12
1.0
 22
0.0
 32
0.0
 13
1.0
 23
0.0
 33
0.0
 40
0.0
 40
0.0
 40
0.0
 40
0.0
 40
0.2
 40
0.2
 40
0.2
 40
0.2
 40
0.4
 40
0.4
 40
0.4
 40
0.4
 40
0.6
 40
0.6
 40
0.6
 40
0.6
 40
1.0
 40
1.0
 40
1.0
 40
1.0
 10
-14.6524
 20
71.2162
 30
0.0
 10
-14.6524
 20
71.2162
 30
0.0
 10
1.5383
 20
71.2162
 30
0.0
 10
1.5383
 20
71.2162
 30
0.0
 10
1.5383
 20
71.2162
 30
0.0
 10
1.5383
 20
71.2162
 30
0.0
 10
-17.8622
 20
51.2219
 30
0.0
 10
-17.8622
 20
51.2219
 30
0.0
 10
-17.8622
 20
51.2219
 30
0.0
 10
-17.8622
 20
51.2219
 30
0.0
 10
-25.9576
 20
59.4713
 30
0.0
 10
-25.9576
 20
59.4713
 30
0.0
 10
-25.9576
 20
59.4713
 30
0.0
 10
-25.9576
 20
59.4713
 30
0.0
 10
-14.6524
 20
71.2162
 30
0.0
 10
-14.6524
 20
71.2162
 30
0.0
  0
SPLINE
  5
5E
330
1F
100
AcDbEntity
  8
layer 1
 62
   250
100
AcDbSpline
210
0.0
220
0.0
230
1.0
 70
    11
 71
     3
 72
    20
 73
    16
 74
     0
 42
0.0000000001
 43
0.0000000001
 12
1.0
 22
0.0
 32
0.0
 13
1.0
 23
0.0
 33
0.0
 40
0.0
 40
0.0
 40
0.0
 40
0.0
 40
0.2
 40
0.2
 40
0.2
 40
0.2
 40
0.4
 40
0.4
 40
0.4
 40
0.4
 40
0.6
 40
0.6
 40
0.6
 40
0.6
 40
1.0
 40
1.0
 40
1.0
 40
1.0
 10
3.9109
 20
68.2803
 30
0.0
 10
3.9109
 20
68.2803
 30
0.0
 10
3.9746
 20
51.8552
 30
0.0
 10
3.9746
 20
51.8552
 30
0.0
 10
3.9746
 20
51.8552
 30
0.0
 10
3.9746
 20
51.8552
 30
0.0
 10
-7.424
 20
40.1116
 30
0.0
 10
-7.424
 20
40.1116
 30
0.0
 10
-7.424
 20
40.1116
 30
0.0
 10
-7.424
 20
40.1116
 30
0.0
 10
-15.5985
 20
48.5165
 30
0.0
 10
-15.5985
 20
48.5165
 30
0.0
 10
-15.5985
 20
48.5165
 30
0.0
 10
-15.5985
 20
48.5165
 30
0.0
 10
3.9109
 20
68.2803
 30
0.0
 10
3.9109
 20
68.2803
 30
0.0
  0
SPLINE
  5
5F
330
1F
100
AcDbEntity
  8
layer 1
 62
   250
100
AcDbSpline
210
0.0
220
0.0
230
1.0
 70
    11
 71
     3
 72
    20
 73
    16
 74
     0
 42
0.0000000001
 43
0.0000000001
 12
1.0
 22
0.0
 32
0.0
 13
1.0
 23
0.0
 33
0.0
 40
0.0
 40
0.0
 40
0.0
 40
0.0
 40
0.2
 40
0.2
 40
0.2
 40
0.2
 40
0.4
 40
0.4
 40
0.4
 40
0.4
 40
0.6
 40
0.6
 40
0.6
 40
0.6
 40
1.0
 40
1.0
 40
1.0
 40
1.0
 10
-52.3274
 20
64.866
 30
0.0
 10
-52.3274
 20
64.866
 30
0.0
 10
-52.3274
 20
37.6935
 30
0.0
 10
-52.3274
 20
37.6935
 30
0.0
 10
-52.3274
 20
37.6935
 30
0.0
 10
-52.3274
 20
37.6935
 30
0.0
 10
-46.8009
 20
43.4502
 30
0.0
 10
-46.8009
 20
43.4502
 30
0.0
 10
-46.8009
 20
43.4502
 30
0.0
 10
-46.8009
 20
43.4502
 30
0.0
 10
-48.528
 20
61.2965
 30
0.0
 10
-48.528
 20
61.2965
 30
0.0
 10
-48.528
 20
61.2965
 30
0.0
 10
-48.528
 20
61.2965
 30
0.0
 10
-52.3274
 20
64.866
 30
0.0
 10
-52.3274
 20
64.866
 30
0.0
  0
SPLINE
  5
60
330
1F
100
AcDbEntity
  8
layer 1
 62
   250
100
AcDbSpline
210
0.0
220
0.0
230
1.0
 70
    11
 71
     3
 72
    16
 73
    12
 74
     0
 42
0.0000000001
 43
0.0000000001
 12
1.0
 22
0.0
 32
0.0
 13
1.0
 23
0.0
 33
0.0
 40
0.0
 40
0.0
 40
0.0
 40
0.0
 40
0.25
 40
0.25
 40
0.25
 40
0.25
 40
0.5
 40
0.5
 40
0.5
 40
0.5
 40
1.0
 40
1.0
 40
1.0
 40
1.0
 10
-44.6137
 20
56.9212
 30
0.0
 10
-44.6137
 20
56.9212
 30
0.0
 10
-43.6925
 20
46.5589
 30
0.0
 10
-43.6925
 20
46.5589
 30
0.0
 10
-43.6925
 20
46.5589
 30
0.0
 10
-43.6925
 20
46.5589
 30
0.0
 10
-38.9718
 20
51.5102
 30
0.0
 10
-38.9718
 20
51.5102
 30
0.0
 10
-38.9718
 20
51.5102
 30
0.0
 10
-38.9718
 20
51.5102
 30
0.0
 10
-44.6137
 20
56.9212
 30
0.0
 10
-44.6137
 20
56.9212
 30
0.0
  0
SPLINE
  5
61
330
1F
100
AcDbEntity
  8
layer 1
 62
   250
100
AcDbSpline
210
0.0
220
0.0
230
1.0
 70
    11
 71
     3
 72
    16
 73
    12
 74
     0
 42
0.0000000001
 43
0.0000000001
 12
1.0
 22
0.0
 32
0.0
 13
1.0
 23
0.0
 33
0.0
 40
0.0
 40
0.0
 40
0.0
 40
0.0
 40
0.25
 40
0.25
 40
0.25
 40
0.25
 40
0.5
 40
0.5
 40
0.5
 40
0.5
 40
1.0
 40
1.0
 40
1.0
 40
1.0
 10
-42.1954
 20
60.0302
 30
0.0
 10
-42.1954
 20
60.0302
 30
0.0
 10
-36.6689
 20
54.1578
 30
0.0
 10
-36.6689
 20
54.1578
 30
0.0
 10
-36.6689
 20
54.1578
 30
0.0
 10
-36.6689
 20
54.1578
 30
0.0
 10
-32.1788
 20
58.418
 30
0.0
 10
-32.1788
 20
58.418
 30
0.0
 10
-32.1788
 20
58.418
 30
0.0
 10
-32.1788
 20
58.418
 30
0.0
 10
-42.1954
 20
60.0302
 30
0.0
 10
-42.1954
 20
60.0302
 30
0.0
  0
SPLINE
  5
62
330
1F
100
AcDbEntity
  8
layer 1
 62
   250
100
AcDbSpline
210
0.0
220
0.0
230
1.0
 70
    11
 71
     3
 72
    20
 73
    16
 74
     0
 42
0.0000000001
 43
0.0000000001
 12
1.0
 22
0.0
 32
0.0
 13
1.0
 23
0.0
 33
0.0
 40
0.0
 40
0.0
 40
0.0
 40
0.0
 40
0.2
 40
0.2
 40
0.2
 40
0.2
 40
0.4
 40
0.4
 40
0.4
 40
0.4
 40
0.6
 40
0.6
 40
0.6
 40
0.6
 40
1.0
 40
1.0
 40
1.0
 40
1.0
 10
-52.5576
 20
32.2819
 30
0.0
 10
-52.5576
 20
32.2819
 30
0.0
 10
-52.5576
 20
15.8176
 30
0.0
 10
-52.5576
 20
15.8176
 30
0.0
 10
-52.5576
 20
15.8176
 30
0.0
 10
-52.5576
 20
15.8176
 30
0.0
 10
-36.3236
 20
32.1667
 30
0.0
 10
-36.3236
 20
32.1667
 30
0.0
 10
-36.3236
 20
32.1667
 30
0.0
 10
-36.3236
 20
32.1667
 30
0.0
 10
-44.6137
 20
40.4566
 30
0.0
 10
-44.6137
 20
40.4566
 30
0.0
 10
-44.6137
 20
40.4566
 30
0.0
 10
-44.6137
 20
40.4566
 30
0.0
 10
-52.5576
 20
32.2819
 30
0.0
 10
-52.5576
 20
32.2819
 30
0.0
  0
SPLINE
  5
63
330
1F
100
AcDbEntity
  8
layer 1
 62
   250
100
AcDbSpline
210
0.0
220
0.0
230
1.0
 70
    11
 71
     3
 72
    20
 73
    16
 74
     0
 42
0.0000000001
 43
0.0000000001
 12
1.0
 22
0.0
 32
0.0
 13
1.0
 23
0.0
 33
0.0
 40
0.0
 40
0.0
 40
0.0
 40
0.0
 40
0.2
 40
0.2
 40
0.2
 40
0.2
 40
0.4
 40
0.4
 40
0.4
 40
0.4
 40
0.6
 40
0.6
 40
0.6
 40
0.6
 40
1.0
 40
1.0
 40
1.0
 40
1.0
 10
-42.1599
 20
43.1365
 30
0.0
 10
-42.1599
 20
43.1365
 30
0.0
 10
-33.7907
 20
34.5851
 30
0.0
 10
-33.7907
 20
34.5851
 30
0.0
 10
-33.7907
 20
34.5851
 30
0.0
 10
-33.7907
 20
34.5851
 30
0.0
 10
-28.4939
 20
40.4566
 30
0.0
 10
-28.4939
 20
40.4566
 30
0.0
 10
-28.4939
 20
40.4566
 30
0.0
 10
-28.4939
 20
40.4566
 30
0.0
 10
-36.5538
 20
48.9767
 30
0.0
 10
-36.5538
 20
48.9767
 30
0.0
 10
-36.5538
 20
48.9767
 30
0.0
 10
-36.5538
 20
48.9767
 30
0.0
 10
-42.1599
 20
43.1365
 30
0.0
 10
-42.1599
 20
43.1365
 30
0.0
  0
SPLINE
  5
64
330
1F
100
AcDbEntity
  8
layer 1
 62
   250
100
AcDbSpline
210
0.0
220
0.0
230
1.0
 70
    11
 71
     3
 72
    20
 73
    16
 74
     0
 42
0.0000000001
 43
0.0000000001
 12
1.0
 22
0.0
 32
0.0
 13
1.0
 23
0.0
 33
0.0
 40
0.0
 40
0.0
 40
0.0
 40
0.0
 40
0.2
 40
0.2
 40
0.2
 40
0.2
 40
0.4
 40
0.4
 40
0.4
 40
0.4
 40
0.6
 40
0.6
 40
0.6
 40
0.6
 40
1.0
 40
1.0
 40
1.0
 40
1.0
 10
-34.0213
 20
51.395
 30
0.0
 10
-34.0213
 20
51.395
 30
0.0
 10
-26.0764
 20
42.875
 30
0.0
 10
-26.0764
 20
42.875
 30
0.0
 10
-26.0764
 20
42.875
 30
0.0
 10
-26.0764
 20
42.875
 30
0.0
 10
-20.55
 20
48.6313
 30
0.0
 10
-20.55
 20
48.6313
 30
0.0
 10
-20.55
 20
48.6313
 30
0.0
 10
-20.55
 20
48.6313
 30
0.0
 10
-28.3787
 20
57.2665
 30
0.0
 10
-28.3787
 20
57.2665
 30
0.0
 10
-28.3787
 20
57.2665
 30
0.0
 10
-28.3787
 20
57.2665
 30
0.0
 10
-34.0213
 20
51.395
 30
0.0
 10
-34.0213
 20
51.395
 30
0.0
  0
SPLINE
  5
65
330
1F
100
AcDbEntity
  8
layer 1
 62
   250
100
AcDbSpline
210
0.0
220
0.0
230
1.0
 70
    11
 71
     3
 72
    20
 73
    16
 74
     0
 42
0.0000000001
 43
0.0000000001
 12
1.0
 22
0.0
 32
0.0
 13
1.0
 23
0.0
 33
0.0
 40
0.0
 40
0.0
 40
0.0
 40
0.0
 40
0.2
 40
0.2
 40
0.2
 40
0.2
 40
0.4
 40
0.4
 40
0.4
 40
0.4
 40
0.6
 40
0.6
 40
0.6
 40
0.6
 40
1.0
 40
1.0
 40
1.0
 40
1.0
 10
-31.3727
 20
32.1667
 30
0.0
 10
-31.3727
 20
32.1667
 30
0.0
 10
-23.3127
 20
23.6467
 30
0.0
 10
-23.3127
 20
23.6467
 30
0.0
 10
-23.3127
 20
23.6467
 30
0.0
 10
-23.3127
 20
23.6467
 30
0.0
 10
-17.7863
 20
29.2885
 30
0.0
 10
-17.7863
 20
29.2885
 30
0.0
 10
-17.7863
 20
29.2885
 30
0.0
 10
-17.7863
 20
29.2885
 30
0.0
 10
-25.9613
 20
37.6935
 30
0.0
 10
-25.9613
 20
37.6935
 30
0.0
 10
-25.9613
 20
37.6935
 30
0.0
 10
-25.9613
 20
37.6935
 30
0.0
 10
-31.3727
 20
32.1667
 30
0.0
 10
-31.3727
 20
32.1667
 30
0.0
  0
SPLINE
  5
66
330
1F
100
AcDbEntity
  8
layer 1
 62
   250
100
AcDbSpline
210
0.0
220
0.0
230
1.0
 70
    11
 71
     3
 72
    20
 73
    16
 74
     0
 42
0.0000000001
 43
0.0000000001
 12
1.0
 22
0.0
 32
0.0
 13
1.0
 23
0.0
 33
0.0
 40
0.0
 40
0.0
 40
0.0
 40
0.0
 40
0.2
 40
0.2
 40
0.2
 40
0.2
 40
0.4
 40
0.4
 40
0.4
 40
0.4
 40
0.6
 40
0.6
 40
0.6
 40
0.6
 40
1.0
 40
1.0
 40
1.0
 40
1.0
 10
-23.6584
 20
40.2264
 30
0.0
 10
-23.6584
 20
40.2264
 30
0.0
 10
-15.1386
 20
31.5915
 30
0.0
 10
-15.1386
 20
31.5915
 30
0.0
 10
-15.1386
 20
31.5915
 30
0.0
 10
-15.1386
 20
31.5915
 30
0.0
 10
-9.7452
 20
37.3824
 30
0.0
 10
-9.7452
 20
37.3824
 30
0.0
 10
-9.7452
 20
37.3824
 30
0.0
 10
-9.7452
 20
37.3824
 30
0.0
 10
-18.0165
 20
45.8679
 30
0.0
 10
-18.0165
 20
45.8679
 30
0.0
 10
-18.0165
 20
45.8679
 30
0.0
 10
-18.0165
 20
45.8679
 30
0.0
 10
-23.6584
 20
40.2264
 30
0.0
 10
-23.6584
 20
40.2264
 30
0.0
  0
SPLINE
  5
67
330
1F
100
AcDbEntity
  8
layer 1
 62
   250
100
AcDbSpline
210
0.0
220
0.0
230
1.0
 70
    11
 71
     3
 72
    20
 73
    16
 74
     0
 42
0.0000000001
 43
0.0000000001
 12
1.0
 22
0.0
 32
0.0
 13
1.0
 23
0.0
 33
0.0
 40
0.0
 40
0.0
 40
0.0
 40
0.0
 40
0.2
 40
0.2
 40
0.2
 40
0.2
 40
0.4
 40
0.4
 40
0.4
 40
0.4
 40
0.6
 40
0.6
 40
0.6
 40
0.6
 40
1.0
 40
1.0
 40
1.0
 40
1.0
 10
3.8594
 20
46.5589
 30
0.0
 10
3.8594
 20
46.5589
 30
0.0
 10
-5.006
 20
37.3479
 30
0.0
 10
-5.006
 20
37.3479
 30
0.0
 10
-5.006
 20
37.3479
 30
0.0
 10
-5.006
 20
37.3479
 30
0.0
 10
-3.1641
 20
18.9263
 30
0.0
 10
-3.1641
 20
18.9263
 30
0.0
 10
-3.1641
 20
18.9263
 30
0.0
 10
-3.1641
 20
18.9263
 30
0.0
 10
3.8594
 20
11.7876
 30
0.0
 10
3.8594
 20
11.7876
 30
0.0
 10
3.8594
 20
11.7876
 30
0.0
 10
3.8594
 20
11.7876
 30
0.0
 10
3.8594
 20
46.5589
 30
0.0
 10
3.8594
 20
46.5589
 30
0.0
  0
SPLINE
  5
68
330
1F
100
AcDbEntity
  8
layer 1
 62
   250
100
AcDbSpline
210
0.0
220
0.0
230
1.0
 70
    11
 71
     3
 72
    16
 73
    12
 74
     0
 42
0.0000000001
 43
0.0000000001
 12
1.0
 22
0.0
 32
0.0
 13
1.0
 23
0.0
 33
0.0
 40
0.0
 40
0.0
 40
0.0
 40
0.0
 40
0.25
 40
0.25
 40
0.25
 40
0.25
 40
0.5
 40
0.5
 40
0.5
 40
0.5
 40
1.0
 40
1.0
 40
1.0
 40
1.0
 10
-8.2302
 20
34.0089
 30
0.0
 10
-8.2302
 20
34.0089
 30
0.0
 10
-13.181
 20
29.1734
 30
0.0
 10
-13.181
 20
29.1734
 30
0.0
 10
-13.181
 20
29.1734
 30
0.0
 10
-13.181
 20
29.1734
 30
0.0
 10
-7.0787
 20
23.0714
 30
0.0
 10
-7.0787
 20
23.0714
 30
0.0
 10
-7.0787
 20
23.0714
 30
0.0
 10
-7.0787
 20
23.0714
 30
0.0
 10
-8.2302
 20
34.0089
 30
0.0
 10
-8.2302
 20
34.0089
 30
0.0
  0
SPLINE
  5
69
330
1F
100
AcDbEntity
  8
layer 1
 62
   250
100
AcDbSpline
210
0.0
220
0.0
230
1.0
 70
    11
 71
     3
 72
    16
 73
    12
 74
     0
 42
0.0000000001
 43
0.0000000001
 12
1.0
 22
0.0
 32
0.0
 13
1.0
 23
0.0
 33
0.0
 40
0.0
 40
0.0
 40
0.0
 40
0.0
 40
0.25
 40
0.25
 40
0.25
 40
0.25
 40
0.5
 40
0.5
 40
0.5
 40
0.5
 40
1.0
 40
1.0
 40
1.0
 40
1.0
 10
-15.3689
 20
26.7554
 30
0.0
 10
-15.3689
 20
26.7554
 30
0.0
 10
-19.859
 20
22.2653
 30
0.0
 10
-19.859
 20
22.2653
 30
0.0
 10
-19.859
 20
22.2653
 30
0.0
 10
-19.859
 20
22.2653
 30
0.0
 10
-9.9575
 20
20.8836
 30
0.0
 10
-9.9575
 20
20.8836
 30
0.0
 10
-9.9575
 20
20.8836
 30
0.0
 10
-9.9575
 20
20.8836
 30
0.0
 10
-15.3689
 20
26.7554
 30
0.0
 10
-15.3689
 20
26.7554
 30
0.0
  0
SPLINE
  5
6A
330
1F
100
AcDbEntity
  8
layer 1
 62
   250
100
AcDbSpline
210
0.0
220
0.0
230
1.0
 70
    11
 71
     3
 72
    24
 73
    20
 74
     0
 42
0.0000000001
 43
0.0000000001
 12
1.0
 22
0.0
 32
0.0
 13
1.0
 23
0.0
 33
0.0
 40
0.0
 40
0.0
 40
0.0
 40
0.0
 40
0.1666666666666667
 40
0.1666666666666667
 40
0.1666666666666667
 40
0.1666666666666667
 40
0.3333333333333333
 40
0.3333333333333333
 40
0.3333333333333333
 40
0.3333333333333333
 40
0.5
 40
0.5
 40
0.5
 40
0.5
 40
0.6666666666666666
 40
0.6666666666666666
 40
0.6666666666666666
 40
0.6666666666666666
 40
1.0
 40
1.0
 40
1.0
 40
1.0
 10
-33.9058
 20
29.5188
 30
0.0
 10
-33.9058
 20
29.5188
 30
0.0
 10
-25.8462
 20
21.1138
 30
0.0
 10
-25.8462
 20
21.1138
 30
0.0
 10
-25.8462
 20
21.1138
 30
0.0
 10
-25.8462
 20
21.1138
 30
0.0
 10
-37.2448
 20
9.3699
 30
0.0
 10
-37.2448
 20
9.3699
 30
0.0
 10
-37.2448
 20
9.3699
 30
0.0
 10
-37.2448
 20
9.3699
 30
0.0
 10
-52.5576
 20
9.3699
 30
0.0
 10
-52.5576
 20
9.3699
 30
0.0
 10
-52.5576
 20
9.3699
 30
0.0
 10
-52.5576
 20
9.3699
 30
0.0
 10
-52.5576
 20
10.7516
 30
0.0
 10
-52.5576
 20
10.7516
 30
0.0
 10
-52.5576
 20
10.7516
 30
0.0
 10
-52.5576
 20
10.7516
 30
0.0
 10
-33.9058
 20
29.5188
 30
0.0
 10
-33.9058
 20
29.5188
 30
0.0
  0
SPLINE
  5
6B
330
1F
100
AcDbEntity
  8
layer 1
 62
   250
100
AcDbSpline
210
0.0
220
0.0
230
1.0
 70
    11
 71
     3
 72
    20
 73
    16
 74
     0
 42
0.0000000001
 43
0.0000000001
 12
1.0
 22
0.0
 32
0.0
 13
1.0
 23
0.0
 33
0.0
 40
0.0
 40
0.0
 40
0.0
 40
0.0
 40
0.2
 40
0.2
 40
0.2
 40
0.2
 40
0.4
 40
0.4
 40
0.4
 40
0.4
 40
0.6
 40
0.6
 40
0.6
 40
0.6
 40
1.0
 40
1.0
 40
1.0
 40
1.0
 10
-23.0825
 20
19.2713
 30
0.0
 10
-23.0825
 20
19.2713
 30
0.0
 10
-32.409
 20
9.3699
 30
0.0
 10
-32.409
 20
9.3699
 30
0.0
 10
-32.409
 20
9.3699
 30
0.0
 10
-32.409
 20
9.3699
 30
0.0
 10
1.0964
 20
9.2548
 30
0.0
 10
1.0964
 20
9.2548
 30
0.0
 10
1.0964
 20
9.2548
 30
0.0
 10
1.0964
 20
9.2548
 30
0.0
 10
-5.8121
 20
16.6237
 30
0.0
 10
-5.8121
 20
16.6237
 30
0.0
 10
-5.8121
 20
16.6237
 30
0.0
 10
-5.8121
 20
16.6237
 30
0.0
 10
-23.0825
 20
19.2713
 30
0.0
 10
-23.0825
 20
19.2713
 30
0.0
  0
SPLINE
  5
6C
330
1F
100
AcDbEntity
  8
layer 1
 62
   250
100
AcDbSpline
210
0.0
220
0.0
230
1.0
 70
    11
 71
     3
 72
    24
 73
    20
 74
     0
 42
0.0000000001
 43
0.0000000001
 12
1.0
 22
0.0
 32
0.0
 13
1.0
 23
0.0
 33
0.0
 40
0.0
 40
0.0
 40
0.0
 40
0.0
 40
0.1666666666666667
 40
0.1666666666666667
 40
0.1666666666666667
 40
0.1666666666666667
 40
0.3333333333333333
 40
0.3333333333333333
 40
0.3333333333333333
 40
0.3333333333333333
 40
0.5
 40
0.5
 40
0.5
 40
0.5
 40
0.6666666666666666
 40
0.6666666666666666
 40
0.6666666666666666
 40
0.6666666666666666
 40
1.0
 40
1.0
 40
1.0
 40
1.0
 10
63.9649
 20
69.981
 30
0.0
 10
63.9649
 20
69.981
 30
0.0
 10
63.9649
 20
71.1086
 30
0.0
 10
63.9649
 20
71.1086
 30
0.0
 10
63.9649
 20
71.1086
 30
0.0
 10
63.9649
 20
71.1086
 30
0.0
 10
30.8629
 20
71.1955
 30
0.0
 10
30.8629
 20
71.1955
 30
0.0
 10
30.8629
 20
71.1955
 30
0.0
 10
30.8629
 20
71.1955
 30
0.0
 10
40.5652
 20
60.9888
 30
0.0
 10
40.5652
 20
60.9888
 30
0.0
 10
40.5652
 20
60.9888
 30
0.0
 10
40.5652
 20
60.9888
 30
0.0
 10
58.1825
 20
63.6484
 30
0.0
 10
58.1825
 20
63.6484
 30
0.0
 10
58.1825
 20
63.6484
 30
0.0
 10
58.1825
 20
63.6484
 30
0.0
 10
63.9649
 20
69.981
 30
0.0
 10
63.9649
 20
69.981
 30
0.0
  0
SPLINE
  5
6D
330
1F
100
AcDbEntity
  8
layer 1
 62
   250
100
AcDbSpline
210
0.0
220
0.0
230
1.0
 70
    11
 71
     3
 72
    20
 73
    16
 74
     0
 42
0.0000000001
 43
0.0000000001
 12
1.0
 22
0.0
 32
0.0
 13
1.0
 23
0.0
 33
0.0
 40
0.0
 40
0.0
 40
0.0
 40
0.0
 40
0.2
 40
0.2
 40
0.2
 40
0.2
 40
0.4
 40
0.4
 40
0.4
 40
0.4
 40
0.6
 40
0.6
 40
0.6
 40
0.6
 40
1.0
 40
1.0
 40
1.0
 40
1.0
 10
26.1585
 20
70.9163
 30
0.0
 10
26.1585
 20
70.9163
 30
0.0
 10
9.5453
 20
71.1766
 30
0.0
 10
9.5453
 20
71.1766
 30
0.0
 10
9.5453
 20
71.1766
 30
0.0
 10
9.5453
 20
71.1766
 30
0.0
 10
29.4263
 20
50.9217
 30
0.0
 10
29.4263
 20
50.9217
 30
0.0
 10
29.4263
 20
50.9217
 30
0.0
 10
29.4263
 20
50.9217
 30
0.0
 10
37.6678
 20
59.1708
 30
0.0
 10
37.6678
 20
59.1708
 30
0.0
 10
37.6678
 20
59.1708
 30
0.0
 10
37.6678
 20
59.1708
 30
0.0
 10
26.1585
 20
70.9163
 30
0.0
 10
26.1585
 20
70.9163
 30
0.0
  0
SPLINE
  5
6E
330
1F
100
AcDbEntity
  8
layer 1
 62
   250
100
AcDbSpline
210
0.0
220
0.0
230
1.0
 70
    11
 71
     3
 72
    20
 73
    16
 74
     0
 42
0.0000000001
 43
0.0000000001
 12
1.0
 22
0.0
 32
0.0
 13
1.0
 23
0.0
 33
0.0
 40
0.0
 40
0.0
 40
0.0
 40
0.0
 40
0.2
 40
0.2
 40
0.2
 40
0.2
 40
0.4
 40
0.4
 40
0.4
 40
0.4
 40
0.6
 40
0.6
 40
0.6
 40
0.6
 40
1.0
 40
1.0
 40
1.0
 40
1.0
 10
7.651
 20
68.3706
 30
0.0
 10
7.651
 20
68.3706
 30
0.0
 10
7.5908
 20
51.2959
 30
0.0
 10
7.5908
 20
51.2959
 30
0.0
 10
7.5908
 20
51.2959
 30
0.0
 10
7.5908
 20
51.2959
 30
0.0
 10
18.7827
 20
39.6944
 30
0.0
 10
18.7827
 20
39.6944
 30
0.0
 10
18.7827
 20
39.6944
 30
0.0
 10
18.7827
 20
39.6944
 30
0.0
 10
26.8859
 20
48.2427
 30
0.0
 10
26.8859
 20
48.2427
 30
0.0
 10
26.8859
 20
48.2427
 30
0.0
 10
26.8859
 20
48.2427
 30
0.0
 10
7.651
 20
68.3706
 30
0.0
 10
7.651
 20
68.3706
 30
0.0
  0
SPLINE
  5
6F
330
1F
100
AcDbEntity
  8
layer 1
 62
   250
100
AcDbSpline
210
0.0
220
0.0
230
1.0
 70
    11
 71
     3
 72
    20
 73
    16
 74
     0
 42
0.0000000001
 43
0.0000000001
 12
1.0
 22
0.0
 32
0.0
 13
1.0
 23
0.0
 33
0.0
 40
0.0
 40
0.0
 40
0.0
 40
0.0
 40
0.2
 40
0.2
 40
0.2
 40
0.2
 40
0.4
 40
0.4
 40
0.4
 40
0.4
 40
0.6
 40
0.6
 40
0.6
 40
0.6
 40
1.0
 40
1.0
 40
1.0
 40
1.0
 10
64.7732
 20
65.6075
 30
0.0
 10
64.7732
 20
65.6075
 30
0.0
 10
64.5126
 20
36.2215
 30
0.0
 10
64.5126
 20
36.2215
 30
0.0
 10
64.5126
 20
36.2215
 30
0.0
 10
64.5126
 20
36.2215
 30
0.0
 10
58.3167
 20
42.4703
 30
0.0
 10
58.3167
 20
42.4703
 30
0.0
 10
58.3167
 20
42.4703
 30
0.0
 10
58.3167
 20
42.4703
 30
0.0
 10
59.7336
 20
60.9966
 30
0.0
 10
59.7336
 20
60.9966
 30
0.0
 10
59.7336
 20
60.9966
 30
0.0
 10
59.7336
 20
60.9966
 30
0.0
 10
64.7732
 20
65.6075
 30
0.0
 10
64.7732
 20
65.6075
 30
0.0
  0
SPLINE
  5
70
330
1F
100
AcDbEntity
  8
layer 1
 62
   250
100
AcDbSpline
210
0.0
220
0.0
230
1.0
 70
    11
 71
     3
 72
    16
 73
    12
 74
     0
 42
0.0000000001
 43
0.0000000001
 12
1.0
 22
0.0
 32
0.0
 13
1.0
 23
0.0
 33
0.0
 40
0.0
 40
0.0
 40
0.0
 40
0.0
 40
0.25
 40
0.25
 40
0.25
 40
0.25
 40
0.5
 40
0.5
 40
0.5
 40
0.5
 40
1.0
 40
1.0
 40
1.0
 40
1.0
 10
55.8899
 20
56.4745
 30
0.0
 10
55.8899
 20
56.4745
 30
0.0
 10
55.0932
 20
46.0712
 30
0.0
 10
55.0932
 20
46.0712
 30
0.0
 10
55.0932
 20
46.0712
 30
0.0
 10
55.0932
 20
46.0712
 30
0.0
 10
50.2875
 20
51.0221
 30
0.0
 10
50.2875
 20
51.0221
 30
0.0
 10
50.2875
 20
51.0221
 30
0.0
 10
50.2875
 20
51.0221
 30
0.0
 10
55.8899
 20
56.4745
 30
0.0
 10
55.8899
 20
56.4745
 30
0.0
  0
SPLINE
  5
71
330
1F
100
AcDbEntity
  8
layer 1
 62
   250
100
AcDbSpline
210
0.0
220
0.0
230
1.0
 70
    11
 71
     3
 72
    16
 73
    12
 74
     0
 42
0.0000000001
 43
0.0000000001
 12
1.0
 22
0.0
 32
0.0
 13
1.0
 23
0.0
 33
0.0
 40
0.0
 40
0.0
 40
0.0
 40
0.0
 40
0.25
 40
0.25
 40
0.25
 40
0.25
 40
0.5
 40
0.5
 40
0.5
 40
0.5
 40
1.0
 40
1.0
 40
1.0
 40
1.0
 10
53.831
 20
59.657
 30
0.0
 10
53.831
 20
59.657
 30
0.0
 10
48.2042
 20
53.7855
 30
0.0
 10
48.2042
 20
53.7855
 30
0.0
 10
48.2042
 20
53.7855
 30
0.0
 10
48.2042
 20
53.7855
 30
0.0
 10
43.6331
 20
58.0454
 30
0.0
 10
43.6331
 20
58.0454
 30
0.0
 10
43.6331
 20
58.0454
 30
0.0
 10
43.6331
 20
58.0454
 30
0.0
 10
53.831
 20
59.657
 30
0.0
 10
53.831
 20
59.657
 30
0.0
  0
SPLINE
  5
72
330
1F
100
AcDbEntity
  8
layer 1
 62
   250
100
AcDbSpline
210
0.0
220
0.0
230
1.0
 70
    11
 71
     3
 72
    20
 73
    16
 74
     0
 42
0.0000000001
 43
0.0000000001
 12
1.0
 22
0.0
 32
0.0
 13
1.0
 23
0.0
 33
0.0
 40
0.0
 40
0.0
 40
0.0
 40
0.0
 40
0.2
 40
0.2
 40
0.2
 40
0.2
 40
0.4
 40
0.4
 40
0.4
 40
0.4
 40
0.6
 40
0.6
 40
0.6
 40
0.6
 40
1.0
 40
1.0
 40
1.0
 40
1.0
 10
64.7472
 20
30.8098
 30
0.0
 10
64.7472
 20
30.8098
 30
0.0
 10
64.4526
 20
14.1147
 30
0.0
 10
64.4526
 20
14.1147
 30
0.0
 10
64.4526
 20
14.1147
 30
0.0
 10
64.4526
 20
14.1147
 30
0.0
 10
47.5787
 20
31.7323
 30
0.0
 10
47.5787
 20
31.7323
 30
0.0
 10
47.5787
 20
31.7323
 30
0.0
 10
47.5787
 20
31.7323
 30
0.0
 10
56.0455
 20
40.2245
 30
0.0
 10
56.0455
 20
40.2245
 30
0.0
 10
56.0455
 20
40.2245
 30
0.0
 10
56.0455
 20
40.2245
 30
0.0
 10
64.7472
 20
30.8098
 30
0.0
 10
64.7472
 20
30.8098
 30
0.0
  0
SPLINE
  5
73
330
1F
100
AcDbEntity
  8
layer 1
 62
   250
100
AcDbSpline
210
0.0
220
0.0
230
1.0
 70
    11
 71
     3
 72
    20
 73
    16
 74
     0
 42
0.0000000001
 43
0.0000000001
 12
1.0
 22
0.0
 32
0.0
 13
1.0
 23
0.0
 33
0.0
 40
0.0
 40
0.0
 40
0.0
 40
0.0
 40
0.2
 40
0.2
 40
0.2
 40
0.2
 40
0.4
 40
0.4
 40
0.4
 40
0.4
 40
0.6
 40
0.6
 40
0.6
 40
0.6
 40
1.0
 40
1.0
 40
1.0
 40
1.0
 10
53.6579
 20
42.8078
 30
0.0
 10
53.6579
 20
42.8078
 30
0.0
 10
45.1375
 20
34.2564
 30
0.0
 10
45.1375
 20
34.2564
 30
0.0
 10
45.1375
 20
34.2564
 30
0.0
 10
45.1375
 20
34.2564
 30
0.0
 10
39.7456
 20
40.1285
 30
0.0
 10
39.7456
 20
40.1285
 30
0.0
 10
39.7456
 20
40.1285
 30
0.0
 10
39.7456
 20
40.1285
 30
0.0
 10
47.951
 20
48.6486
 30
0.0
 10
47.951
 20
48.6486
 30
0.0
 10
47.951
 20
48.6486
 30
0.0
 10
47.951
 20
48.6486
 30
0.0
 10
53.6579
 20
42.8078
 30
0.0
 10
53.6579
 20
42.8078
 30
0.0
  0
SPLINE
  5
74
330
1F
100
AcDbEntity
  8
layer 1
 62
   250
100
AcDbSpline
210
0.0
220
0.0
230
1.0
 70
    11
 71
     3
 72
    20
 73
    16
 74
     0
 42
0.0000000001
 43
0.0000000001
 12
1.0
 22
0.0
 32
0.0
 13
1.0
 23
0.0
 33
0.0
 40
0.0
 40
0.0
 40
0.0
 40
0.0
 40
0.2
 40
0.2
 40
0.2
 40
0.2
 40
0.4
 40
0.4
 40
0.4
 40
0.4
 40
0.6
 40
0.6
 40
0.6
 40
0.6
 40
1.0
 40
1.0
 40
1.0
 40
1.0
 10
45.2582
 20
51.1513
 30
0.0
 10
45.2582
 20
51.1513
 30
0.0
 10
37.171
 20
42.6312
 30
0.0
 10
37.171
 20
42.6312
 30
0.0
 10
37.171
 20
42.6312
 30
0.0
 10
37.171
 20
42.6312
 30
0.0
 10
31.5445
 20
48.3879
 30
0.0
 10
31.5445
 20
48.3879
 30
0.0
 10
31.5445
 20
48.3879
 30
0.0
 10
31.5445
 20
48.3879
 30
0.0
 10
39.515
 20
57.0231
 30
0.0
 10
39.515
 20
57.0231
 30
0.0
 10
39.515
 20
57.0231
 30
0.0
 10
39.515
 20
57.0231
 30
0.0
 10
45.2582
 20
51.1513
 30
0.0
 10
45.2582
 20
51.1513
 30
0.0
  0
SPLINE
  5
75
330
1F
100
AcDbEntity
  8
layer 1
 62
   250
100
AcDbSpline
210
0.0
220
0.0
230
1.0
 70
    11
 71
     3
 72
    20
 73
    16
 74
     0
 42
0.0000000001
 43
0.0000000001
 12
1.0
 22
0.0
 32
0.0
 13
1.0
 23
0.0
 33
0.0
 40
0.0
 40
0.0
 40
0.0
 40
0.0
 40
0.2
 40
0.2
 40
0.2
 40
0.2
 40
0.4
 40
0.4
 40
0.4
 40
0.4
 40
0.6
 40
0.6
 40
0.6
 40
0.6
 40
1.0
 40
1.0
 40
1.0
 40
1.0
 10
42.9129
 20
31.924
 30
0.0
 10
42.9129
 20
31.924
 30
0.0
 10
34.4964
 20
23.3778
 30
0.0
 10
34.4964
 20
23.3778
 30
0.0
 10
34.4964
 20
23.3778
 30
0.0
 10
34.4964
 20
23.3778
 30
0.0
 10
29.0819
 20
29.0458
 30
0.0
 10
29.0819
 20
29.0458
 30
0.0
 10
29.0819
 20
29.0458
 30
0.0
 10
29.0819
 20
29.0458
 30
0.0
 10
37.4037
 20
37.4507
 30
0.0
 10
37.4037
 20
37.4507
 30
0.0
 10
37.4037
 20
37.4507
 30
0.0
 10
37.4037
 20
37.4507
 30
0.0
 10
42.9129
 20
31.924
 30
0.0
 10
42.9129
 20
31.924
 30
0.0
  0
SPLINE
  5
76
330
1F
100
AcDbEntity
  8
layer 1
 62
   250
100
AcDbSpline
210
0.0
220
0.0
230
1.0
 70
    11
 71
     3
 72
    20
 73
    16
 74
     0
 42
0.0000000001
 43
0.0000000001
 12
1.0
 22
0.0
 32
0.0
 13
1.0
 23
0.0
 33
0.0
 40
0.0
 40
0.0
 40
0.0
 40
0.0
 40
0.2
 40
0.2
 40
0.2
 40
0.2
 40
0.4
 40
0.4
 40
0.4
 40
0.4
 40
0.6
 40
0.6
 40
0.6
 40
0.6
 40
1.0
 40
1.0
 40
1.0
 40
1.0
 10
34.8947
 20
39.8892
 30
0.0
 10
34.8947
 20
39.8892
 30
0.0
 10
26.6488
 20
31.4255
 30
0.0
 10
26.6488
 20
31.4255
 30
0.0
 10
26.6488
 20
31.4255
 30
0.0
 10
26.6488
 20
31.4255
 30
0.0
 10
21.1578
 20
37.2167
 30
0.0
 10
21.1578
 20
37.2167
 30
0.0
 10
21.1578
 20
37.2167
 30
0.0
 10
21.1578
 20
37.2167
 30
0.0
 10
29.1518
 20
45.5308
 30
0.0
 10
29.1518
 20
45.5308
 30
0.0
 10
29.1518
 20
45.5308
 30
0.0
 10
29.1518
 20
45.5308
 30
0.0
 10
34.8947
 20
39.8892
 30
0.0
 10
34.8947
 20
39.8892
 30
0.0
  0
SPLINE
  5
77
330
1F
100
AcDbEntity
  8
layer 1
 62
   250
100
AcDbSpline
210
0.0
220
0.0
230
1.0
 70
    11
 71
     3
 72
    20
 73
    16
 74
     0
 42
0.0000000001
 43
0.0000000001
 12
1.0
 22
0.0
 32
0.0
 13
1.0
 23
0.0
 33
0.0
 40
0.0
 40
0.0
 40
0.0
 40
0.0
 40
0.2
 40
0.2
 40
0.2
 40
0.2
 40
0.4
 40
0.4
 40
0.4
 40
0.4
 40
0.6
 40
0.6
 40
0.6
 40
0.6
 40
1.0
 40
1.0
 40
1.0
 40
1.0
 10
7.4434
 20
46.3889
 30
0.0
 10
7.4434
 20
46.3889
 30
0.0
 10
16.4685
 20
37.1782
 30
0.0
 10
16.4685
 20
37.1782
 30
0.0
 10
16.4685
 20
37.1782
 30
0.0
 10
16.4685
 20
37.1782
 30
0.0
 10
14.1201
 20
18.8749
 30
0.0
 10
14.1201
 20
18.8749
 30
0.0
 10
14.1201
 20
18.8749
 30
0.0
 10
14.1201
 20
18.8749
 30
0.0
 10
6.9694
 20
11.973
 30
0.0
 10
6.9694
 20
11.973
 30
0.0
 10
6.9694
 20
11.973
 30
0.0
 10
6.9694
 20
11.973
 30
0.0
 10
7.4434
 20
46.3889
 30
0.0
 10
7.4434
 20
46.3889
 30
0.0
  0
SPLINE
  5
78
330
1F
100
AcDbEntity
  8
layer 1
 62
   250
100
AcDbSpline
210
0.0
220
0.0
230
1.0
 70
    11
 71
     3
 72
    16
 73
    12
 74
     0
 42
0.0000000001
 43
0.0000000001
 12
1.0
 22
0.0
 32
0.0
 13
1.0
 23
0.0
 33
0.0
 40
0.0
 40
0.0
 40
0.0
 40
0.0
 40
0.25
 40
0.25
 40
0.25
 40
0.25
 40
0.5
 40
0.5
 40
0.5
 40
0.5
 40
1.0
 40
1.0
 40
1.0
 40
1.0
 10
19.6205
 20
33.709
 30
0.0
 10
19.6205
 20
33.709
 30
0.0
 10
24.6601
 20
28.8729
 30
0.0
 10
24.6601
 20
28.8729
 30
0.0
 10
24.6601
 20
28.8729
 30
0.0
 10
24.6601
 20
28.8729
 30
0.0
 10
18.2106
 20
23.126
 30
0.0
 10
18.2106
 20
23.126
 30
0.0
 10
18.2106
 20
23.126
 30
0.0
 10
18.2106
 20
23.126
 30
0.0
 10
19.6205
 20
33.709
 30
0.0
 10
19.6205
 20
33.709
 30
0.0
  0
SPLINE
  5
79
330
1F
100
AcDbEntity
  8
layer 1
 62
   250
100
AcDbSpline
210
0.0
220
0.0
230
1.0
 70
    11
 71
     3
 72
    16
 73
    12
 74
     0
 42
0.0000000001
 43
0.0000000001
 12
1.0
 22
0.0
 32
0.0
 13
1.0
 23
0.0
 33
0.0
 40
0.0
 40
0.0
 40
0.0
 40
0.0
 40
0.25
 40
0.25
 40
0.25
 40
0.25
 40
0.5
 40
0.5
 40
0.5
 40
0.5
 40
1.0
 40
1.0
 40
1.0
 40
1.0
 10
26.545
 20
26.1939
 30
0.0
 10
26.545
 20
26.1939
 30
0.0
 10
31.116
 20
21.7035
 30
0.0
 10
31.116
 20
21.7035
 30
0.0
 10
31.116
 20
21.7035
 30
0.0
 10
31.116
 20
21.7035
 30
0.0
 10
20.7453
 20
20.7703
 30
0.0
 10
20.7453
 20
20.7703
 30
0.0
 10
20.7453
 20
20.7703
 30
0.0
 10
20.7453
 20
20.7703
 30
0.0
 10
26.545
 20
26.1939
 30
0.0
 10
26.545
 20
26.1939
 30
0.0
  0
SPLINE
  5
7A
330
1F
100
AcDbEntity
  8
layer 1
 62
   250
100
AcDbSpline
210
0.0
220
0.0
230
1.0
 70
    11
 71
     3
 72
    24
 73
    20
 74
     0
 42
0.0000000001
 43
0.0000000001
 12
1.0
 22
0.0
 32
0.0
 13
1.0
 23
0.0
 33
0.0
 40
0.0
 40
0.0
 40
0.0
 40
0.0
 40
0.1666666666666667
 40
0.1666666666666667
 40
0.1666666666666667
 40
0.1666666666666667
 40
0.3333333333333333
 40
0.3333333333333333
 40
0.3333333333333333
 40
0.3333333333333333
 40
0.5
 40
0.5
 40
0.5
 40
0.5
 40
0.6666666666666666
 40
0.6666666666666666
 40
0.6666666666666666
 40
0.6666666666666666
 40
1.0
 40
1.0
 40
1.0
 40
1.0
 10
45.0722
 20
29.0843
 30
0.0
 10
45.0722
 20
29.0843
 30
0.0
 10
36.8674
 20
20.6794
 30
0.0
 10
36.8674
 20
20.6794
 30
0.0
 10
36.8674
 20
20.6794
 30
0.0
 10
36.8674
 20
20.6794
 30
0.0
 10
48.4714
 20
8.9354
 30
0.0
 10
48.4714
 20
8.9354
 30
0.0
 10
48.4714
 20
8.9354
 30
0.0
 10
48.4714
 20
8.9354
 30
0.0
 10
64.0606
 20
8.9354
 30
0.0
 10
64.0606
 20
8.9354
 30
0.0
 10
64.0606
 20
8.9354
 30
0.0
 10
64.0606
 20
8.9354
 30
0.0
 10
63.4103
 20
10.3168
 30
0.0
 10
63.4103
 20
10.3168
 30
0.0
 10
63.4103
 20
10.3168
 30
0.0
 10
63.4103
 20
10.3168
 30
0.0
 10
45.0722
 20
29.0843
 30
0.0
 10
45.0722
 20
29.0843
 30
0.0
  0
SPLINE
  5
7B
330
1F
100
AcDbEntity
  8
layer 1
 62
   250
100
AcDbSpline
210
0.0
220
0.0
230
1.0
 70
    11
 71
     3
 72
    20
 73
    16
 74
     0
 42
0.0000000001
 43
0.0000000001
 12
1.0
 22
0.0
 32
0.0
 13
1.0
 23
0.0
 33
0.0
 40
0.0
 40
0.0
 40
0.0
 40
0.0
 40
0.2
 40
0.2
 40
0.2
 40
0.2
 40
0.4
 40
0.4
 40
0.4
 40
0.4
 40
0.6
 40
0.6
 40
0.6
 40
0.6
 40
1.0
 40
1.0
 40
1.0
 40
1.0
 10
33.5485
 20
18.995
 30
0.0
 10
33.5485
 20
18.995
 30
0.0
 10
43.1981
 20
9.0857
 30
0.0
 10
43.1981
 20
9.0857
 30
0.0
 10
43.1981
 20
9.0857
 30
0.0
 10
43.1981
 20
9.0857
 30
0.0
 10
9.7996
 20
9.326
 30
0.0
 10
9.7996
 20
9.326
 30
0.0
 10
9.7996
 20
9.326
 30
0.0
 10
9.7996
 20
9.326
 30
0.0
 10
16.3938
 20
16.2956
 30
0.0
 10
16.3938
 20
16.2956
 30
0.0
 10
16.3938
 20
16.2956
 30
0.0
 10
16.3938
 20
16.2956
 30
0.0
 10
33.5485
 20
18.995
 30
0.0
 10
33.5485
 20
18.995
 30
0.0
  0
SPLINE
  5
7C
330
1F
100
AcDbEntity
  8
layer 1
 62
   250
100
AcDbSpline
210
0.0
220
0.0
230
1.0
 70
    11
 71
     3
 72
    24
 73
    20
 74
     0
 42
0.0000000001
 43
0.0000000001
 12
1.0
 22
0.0
 32
0.0
 13
1.0
 23
0.0
 33
0.0
 40
0.0
 40
0.0
 40
0.0
 40
0.0
 40
0.1666666666666667
 40
0.1666666666666667
 40
0.1666666666666667
 40
0.1666666666666667
 40
0.3333333333333333
 40
0.3333333333333333
 40
0.3333333333333333
 40
0.3333333333333333
 40
0.5
 40
0.5
 40
0.5
 40
0.5
 40
0.6666666666666666
 40
0.6666666666666666
 40
0.6666666666666666
 40
0.6666666666666666
 40
1.0
 40
1.0
 40
1.0
 40
1.0
 10
-52.6649
 20
-60.5555
 30
0.0
 10
-52.6649
 20
-60.5555
 30
0.0
 10
-52.6649
 20
-59.4282
 30
0.0
 10
-52.6649
 20
-59.4282
 30
0.0
 10
-52.6649
 20
-59.4282
 30
0.0
 10
-52.6649
 20
-59.4282
 30
0.0
 10
-20.1491
 20
-59.3413
 30
0.0
 10
-20.1491
 20
-59.3413
 30
0.0
 10
-20.1491
 20
-59.3413
 30
0.0
 10
-20.1491
 20
-59.3413
 30
0.0
 10
-29.6798
 20
-69.548
 30
0.0
 10
-29.6798
 20
-69.548
 30
0.0
 10
-29.6798
 20
-69.548
 30
0.0
 10
-29.6798
 20
-69.548
 30
0.0
 10
-47.2096
 20
-66.1974
 30
0.0
 10
-47.2096
 20
-66.1974
 30
0.0
 10
-47.2096
 20
-66.1974
 30
0.0
 10
-47.2096
 20
-66.1974
 30
0.0
 10
-52.6649
 20
-60.5555
 30
0.0
 10
-52.6649
 20
-60.5555
 30
0.0
  0
SPLINE
  5
7D
330
1F
100
AcDbEntity
  8
layer 1
 62
   250
100
AcDbSpline
210
0.0
220
0.0
230
1.0
 70
    11
 71
     3
 72
    20
 73
    16
 74
     0
 42
0.0000000001
 43
0.0000000001
 12
1.0
 22
0.0
 32
0.0
 13
1.0
 23
0.0
 33
0.0
 40
0.0
 40
0.0
 40
0.0
 40
0.0
 40
0.2
 40
0.2
 40
0.2
 40
0.2
 40
0.4
 40
0.4
 40
0.4
 40
0.4
 40
0.6
 40
0.6
 40
0.6
 40
0.6
 40
1.0
 40
1.0
 40
1.0
 40
1.0
 10
-15.144
 20
-59.6205
 30
0.0
 10
-15.144
 20
-59.6205
 30
0.0
 10
1.0465
 20
-59.6205
 30
0.0
 10
1.0465
 20
-59.6205
 30
0.0
 10
1.0465
 20
-59.6205
 30
0.0
 10
1.0465
 20
-59.6205
 30
0.0
 10
-18.354
 20
-79.6154
 30
0.0
 10
-18.354
 20
-79.6154
 30
0.0
 10
-18.354
 20
-79.6154
 30
0.0
 10
-18.354
 20
-79.6154
 30
0.0
 10
-26.4494
 20
-71.366
 30
0.0
 10
-26.4494
 20
-71.366
 30
0.0
 10
-26.4494
 20
-71.366
 30
0.0
 10
-26.4494
 20
-71.366
 30
0.0
 10
-15.144
 20
-59.6205
 30
0.0
 10
-15.144
 20
-59.6205
 30
0.0
  0
SPLINE
  5
7E
330
1F
100
AcDbEntity
  8
layer 1
 62
   250
100
AcDbSpline
210
0.0
220
0.0
230
1.0
 70
    11
 71
     3
 72
    20
 73
    16
 74
     0
 42
0.0000000001
 43
0.0000000001
 12
1.0
 22
0.0
 32
0.0
 13
1.0
 23
0.0
 33
0.0
 40
0.0
 40
0.0
 40
0.0
 40
0.0
 40
0.2
 40
0.2
 40
0.2
 40
0.2
 40
0.4
 40
0.4
 40
0.4
 40
0.4
 40
0.6
 40
0.6
 40
0.6
 40
0.6
 40
1.0
 40
1.0
 40
1.0
 40
1.0
 10
3.4194
 20
-62.557
 30
0.0
 10
3.4194
 20
-62.557
 30
0.0
 10
3.4821
 20
-78.9815
 30
0.0
 10
3.4821
 20
-78.9815
 30
0.0
 10
3.4821
 20
-78.9815
 30
0.0
 10
3.4821
 20
-78.9815
 30
0.0
 10
-7.9165
 20
-90.7257
 30
0.0
 10
-7.9165
 20
-90.7257
 30
0.0
 10
-7.9165
 20
-90.7257
 30
0.0
 10
-7.9165
 20
-90.7257
 30
0.0
 10
-16.0909
 20
-82.3207
 30
0.0
 10
-16.0909
 20
-82.3207
 30
0.0
 10
-16.0909
 20
-82.3207
 30
0.0
 10
-16.0909
 20
-82.3207
 30
0.0
 10
3.4194
 20
-62.557
 30
0.0
 10
3.4194
 20
-62.557
 30
0.0
  0
SPLINE
  5
7F
330
1F
100
AcDbEntity
  8
layer 1
 62
   250
100
AcDbSpline
210
0.0
220
0.0
230
1.0
 70
    11
 71
     3
 72
    20
 73
    16
 74
     0
 42
0.0000000001
 43
0.0000000001
 12
1.0
 22
0.0
 32
0.0
 13
1.0
 23
0.0
 33
0.0
 40
0.0
 40
0.0
 40
0.0
 40
0.0
 40
0.2
 40
0.2
 40
0.2
 40
0.2
 40
0.4
 40
0.4
 40
0.4
 40
0.4
 40
0.6
 40
0.6
 40
0.6
 40
0.6
 40
1.0
 40
1.0
 40
1.0
 40
1.0
 10
-52.8199
 20
-65.9712
 30
0.0
 10
-52.8199
 20
-65.9712
 30
0.0
 10
-52.8199
 20
-93.1437
 30
0.0
 10
-52.8199
 20
-93.1437
 30
0.0
 10
-52.8199
 20
-93.1437
 30
0.0
 10
-52.8199
 20
-93.1437
 30
0.0
 10
-47.2931
 20
-87.3864
 30
0.0
 10
-47.2931
 20
-87.3864
 30
0.0
 10
-47.2931
 20
-87.3864
 30
0.0
 10
-47.2931
 20
-87.3864
 30
0.0
 10
-49.0204
 20
-69.5401
 30
0.0
 10
-49.0204
 20
-69.5401
 30
0.0
 10
-49.0204
 20
-69.5401
 30
0.0
 10
-49.0204
 20
-69.5401
 30
0.0
 10
-52.8199
 20
-65.9712
 30
0.0
 10
-52.8199
 20
-65.9712
 30
0.0
  0
SPLINE
  5
80
330
1F
100
AcDbEntity
  8
layer 1
 62
   250
100
AcDbSpline
210
0.0
220
0.0
230
1.0
 70
    11
 71
     3
 72
    16
 73
    12
 74
     0
 42
0.0000000001
 43
0.0000000001
 12
1.0
 22
0.0
 32
0.0
 13
1.0
 23
0.0
 33
0.0
 40
0.0
 40
0.0
 40
0.0
 40
0.0
 40
0.25
 40
0.25
 40
0.25
 40
0.25
 40
0.5
 40
0.5
 40
0.5
 40
0.5
 40
1.0
 40
1.0
 40
1.0
 40
1.0
 10
-45.1053
 20
-73.9158
 30
0.0
 10
-45.1053
 20
-73.9158
 30
0.0
 10
-44.184
 20
-84.2777
 30
0.0
 10
-44.184
 20
-84.2777
 30
0.0
 10
-44.184
 20
-84.2777
 30
0.0
 10
-44.184
 20
-84.2777
 30
0.0
 10
-39.4637
 20
-79.3271
 30
0.0
 10
-39.4637
 20
-79.3271
 30
0.0
 10
-39.4637
 20
-79.3271
 30
0.0
 10
-39.4637
 20
-79.3271
 30
0.0
 10
-45.1053
 20
-73.9158
 30
0.0
 10
-45.1053
 20
-73.9158
 30
0.0
  0
SPLINE
  5
81
330
1F
100
AcDbEntity
  8
layer 1
 62
   250
100
AcDbSpline
210
0.0
220
0.0
230
1.0
 70
    11
 71
     3
 72
    16
 73
    12
 74
     0
 42
0.0000000001
 43
0.0000000001
 12
1.0
 22
0.0
 32
0.0
 13
1.0
 23
0.0
 33
0.0
 40
0.0
 40
0.0
 40
0.0
 40
0.0
 40
0.25
 40
0.25
 40
0.25
 40
0.25
 40
0.5
 40
0.5
 40
0.5
 40
0.5
 40
1.0
 40
1.0
 40
1.0
 40
1.0
 10
-42.6878
 20
-70.807
 30
0.0
 10
-42.6878
 20
-70.807
 30
0.0
 10
-37.1607
 20
-76.6788
 30
0.0
 10
-37.1607
 20
-76.6788
 30
0.0
 10
-37.1607
 20
-76.6788
 30
0.0
 10
-37.1607
 20
-76.6788
 30
0.0
 10
-32.6703
 20
-72.4186
 30
0.0
 10
-32.6703
 20
-72.4186
 30
0.0
 10
-32.6703
 20
-72.4186
 30
0.0
 10
-32.6703
 20
-72.4186
 30
0.0
 10
-42.6878
 20
-70.807
 30
0.0
 10
-42.6878
 20
-70.807
 30
0.0
  0
SPLINE
  5
82
330
1F
100
AcDbEntity
  8
layer 1
 62
   250
100
AcDbSpline
210
0.0
220
0.0
230
1.0
 70
    11
 71
     3
 72
    24
 73
    20
 74
     0
 42
0.0000000001
 43
0.0000000001
 12
1.0
 22
0.0
 32
0.0
 13
1.0
 23
0.0
 33
0.0
 40
0.0
 40
0.0
 40
0.0
 40
0.0
 40
0.1666666666666667
 40
0.1666666666666667
 40
0.1666666666666667
 40
0.1666666666666667
 40
0.3333333333333333
 40
0.3333333333333333
 40
0.3333333333333333
 40
0.3333333333333333
 40
0.5
 40
0.5
 40
0.5
 40
0.5
 40
0.6666666666666666
 40
0.6666666666666666
 40
0.6666666666666666
 40
0.6666666666666666
 40
1.0
 40
1.0
 40
1.0
 40
1.0
 10
-53.0501
 20
-98.5548
 30
0.0
 10
-53.0501
 20
-98.5548
 30
0.0
 10
-53.0501
 20
-101.3442
 30
0.0
 10
-53.0501
 20
-101.3442
 30
0.0
 10
-53.0501
 20
-101.3442
 30
0.0
 10
-53.0501
 20
-101.3442
 30
0.0
 10
-39.4712
 20
-101.3442
 30
0.0
 10
-39.4712
 20
-101.3442
 30
0.0
 10
-39.4712
 20
-101.3442
 30
0.0
 10
-39.4712
 20
-101.3442
 30
0.0
 10
-36.8151
 20
-98.6699
 30
0.0
 10
-36.8151
 20
-98.6699
 30
0.0
 10
-36.8151
 20
-98.6699
 30
0.0
 10
-36.8151
 20
-98.6699
 30
0.0
 10
-45.1053
 20
-90.38
 30
0.0
 10
-45.1053
 20
-90.38
 30
0.0
 10
-45.1053
 20
-90.38
 30
0.0
 10
-45.1053
 20
-90.38
 30
0.0
 10
-53.0501
 20
-98.5548
 30
0.0
 10
-53.0501
 20
-98.5548
 30
0.0
  0
SPLINE
  5
83
330
1F
100
AcDbEntity
  8
layer 1
 62
   250
100
AcDbSpline
210
0.0
220
0.0
230
1.0
 70
    11
 71
     3
 72
    20
 73
    16
 74
     0
 42
0.0000000001
 43
0.0000000001
 12
1.0
 22
0.0
 32
0.0
 13
1.0
 23
0.0
 33
0.0
 40
0.0
 40
0.0
 40
0.0
 40
0.0
 40
0.2
 40
0.2
 40
0.2
 40
0.2
 40
0.4
 40
0.4
 40
0.4
 40
0.4
 40
0.6
 40
0.6
 40
0.6
 40
0.6
 40
1.0
 40
1.0
 40
1.0
 40
1.0
 10
-42.6518
 20
-87.7007
 30
0.0
 10
-42.6518
 20
-87.7007
 30
0.0
 10
-34.2826
 20
-96.2525
 30
0.0
 10
-34.2826
 20
-96.2525
 30
0.0
 10
-34.2826
 20
-96.2525
 30
0.0
 10
-34.2826
 20
-96.2525
 30
0.0
 10
-28.9863
 20
-90.38
 30
0.0
 10
-28.9863
 20
-90.38
 30
0.0
 10
-28.9863
 20
-90.38
 30
0.0
 10
-28.9863
 20
-90.38
 30
0.0
 10
-37.0456
 20
-81.86
 30
0.0
 10
-37.0456
 20
-81.86
 30
0.0
 10
-37.0456
 20
-81.86
 30
0.0
 10
-37.0456
 20
-81.86
 30
0.0
 10
-42.6518
 20
-87.7007
 30
0.0
 10
-42.6518
 20
-87.7007
 30
0.0
  0
SPLINE
  5
84
330
1F
100
AcDbEntity
  8
layer 1
 62
   250
100
AcDbSpline
210
0.0
220
0.0
230
1.0
 70
    11
 71
     3
 72
    20
 73
    16
 74
     0
 42
0.0000000001
 43
0.0000000001
 12
1.0
 22
0.0
 32
0.0
 13
1.0
 23
0.0
 33
0.0
 40
0.0
 40
0.0
 40
0.0
 40
0.0
 40
0.2
 40
0.2
 40
0.2
 40
0.2
 40
0.4
 40
0.4
 40
0.4
 40
0.4
 40
0.6
 40
0.6
 40
0.6
 40
0.6
 40
1.0
 40
1.0
 40
1.0
 40
1.0
 10
-34.5128
 20
-79.4422
 30
0.0
 10
-34.5128
 20
-79.4422
 30
0.0
 10
-26.5683
 20
-87.9626
 30
0.0
 10
-26.5683
 20
-87.9626
 30
0.0
 10
-26.5683
 20
-87.9626
 30
0.0
 10
-26.5683
 20
-87.9626
 30
0.0
 10
-21.0415
 20
-82.2056
 30
0.0
 10
-21.0415
 20
-82.2056
 30
0.0
 10
-21.0415
 20
-82.2056
 30
0.0
 10
-21.0415
 20
-82.2056
 30
0.0
 10
-28.8712
 20
-73.5701
 30
0.0
 10
-28.8712
 20
-73.5701
 30
0.0
 10
-28.8712
 20
-73.5701
 30
0.0
 10
-28.8712
 20
-73.5701
 30
0.0
 10
-34.5128
 20
-79.4422
 30
0.0
 10
-34.5128
 20
-79.4422
 30
0.0
  0
SPLINE
  5
85
330
1F
100
AcDbEntity
  8
layer 1
 62
   250
100
AcDbSpline
210
0.0
220
0.0
230
1.0
 70
    11
 71
     3
 72
    20
 73
    16
 74
     0
 42
0.0000000001
 43
0.0000000001
 12
1.0
 22
0.0
 32
0.0
 13
1.0
 23
0.0
 33
0.0
 40
0.0
 40
0.0
 40
0.0
 40
0.0
 40
0.2
 40
0.2
 40
0.2
 40
0.2
 40
0.4
 40
0.4
 40
0.4
 40
0.4
 40
0.6
 40
0.6
 40
0.6
 40
0.6
 40
1.0
 40
1.0
 40
1.0
 40
1.0
 10
-31.8645
 20
-98.6699
 30
0.0
 10
-31.8645
 20
-98.6699
 30
0.0
 10
-29.3348
 20
-101.3442
 30
0.0
 10
-29.3348
 20
-101.3442
 30
0.0
 10
-29.3348
 20
-101.3442
 30
0.0
 10
-29.3348
 20
-101.3442
 30
0.0
 10
-18.4767
 20
-101.3442
 30
0.0
 10
-18.4767
 20
-101.3442
 30
0.0
 10
-18.4767
 20
-101.3442
 30
0.0
 10
-18.4767
 20
-101.3442
 30
0.0
 10
-26.4532
 20
-93.1437
 30
0.0
 10
-26.4532
 20
-93.1437
 30
0.0
 10
-26.4532
 20
-93.1437
 30
0.0
 10
-26.4532
 20
-93.1437
 30
0.0
 10
-31.8645
 20
-98.6699
 30
0.0
 10
-31.8645
 20
-98.6699
 30
0.0
  0
SPLINE
  5
86
330
1F
100
AcDbEntity
  8
layer 1
 62
   250
100
AcDbSpline
210
0.0
220
0.0
230
1.0
 70
    11
 71
     3
 72
    20
 73
    16
 74
     0
 42
0.0000000001
 43
0.0000000001
 12
1.0
 22
0.0
 32
0.0
 13
1.0
 23
0.0
 33
0.0
 40
0.0
 40
0.0
 40
0.0
 40
0.0
 40
0.2
 40
0.2
 40
0.2
 40
0.2
 40
0.4
 40
0.4
 40
0.4
 40
0.4
 40
0.6
 40
0.6
 40
0.6
 40
0.6
 40
1.0
 40
1.0
 40
1.0
 40
1.0
 10
-24.1505
 20
-90.6106
 30
0.0
 10
-24.1505
 20
-90.6106
 30
0.0
 10
-15.6301
 20
-99.2461
 30
0.0
 10
-15.6301
 20
-99.2461
 30
0.0
 10
-15.6301
 20
-99.2461
 30
0.0
 10
-15.6301
 20
-99.2461
 30
0.0
 10
-10.237
 20
-93.4543
 30
0.0
 10
-10.237
 20
-93.4543
 30
0.0
 10
-10.237
 20
-93.4543
 30
0.0
 10
-10.237
 20
-93.4543
 30
0.0
 10
-18.5083
 20
-84.9687
 30
0.0
 10
-18.5083
 20
-84.9687
 30
0.0
 10
-18.5083
 20
-84.9687
 30
0.0
 10
-18.5083
 20
-84.9687
 30
0.0
 10
-24.1505
 20
-90.6106
 30
0.0
 10
-24.1505
 20
-90.6106
 30
0.0
  0
SPLINE
  5
87
330
1F
100
AcDbEntity
  8
layer 1
 62
   250
100
AcDbSpline
210
0.0
220
0.0
230
1.0
 70
    11
 71
     3
 72
    20
 73
    16
 74
     0
 42
0.0000000001
 43
0.0000000001
 12
1.0
 22
0.0
 32
0.0
 13
1.0
 23
0.0
 33
0.0
 40
0.0
 40
0.0
 40
0.0
 40
0.0
 40
0.2
 40
0.2
 40
0.2
 40
0.2
 40
0.4
 40
0.4
 40
0.4
 40
0.4
 40
0.6
 40
0.6
 40
0.6
 40
0.6
 40
1.0
 40
1.0
 40
1.0
 40
1.0
 10
3.3676
 20
-84.2777
 30
0.0
 10
3.3676
 20
-84.2777
 30
0.0
 10
-5.4984
 20
-93.4888
 30
0.0
 10
-5.4984
 20
-93.4888
 30
0.0
 10
-5.4984
 20
-93.4888
 30
0.0
 10
-5.4984
 20
-93.4888
 30
0.0
 10
-4.7127
 20
-101.3442
 30
0.0
 10
-4.7127
 20
-101.3442
 30
0.0
 10
-4.7127
 20
-101.3442
 30
0.0
 10
-4.7127
 20
-101.3442
 30
0.0
 10
3.3676
 20
-101.3442
 30
0.0
 10
3.3676
 20
-101.3442
 30
0.0
 10
3.3676
 20
-101.3442
 30
0.0
 10
3.3676
 20
-101.3442
 30
0.0
 10
3.3676
 20
-84.2777
 30
0.0
 10
3.3676
 20
-84.2777
 30
0.0
  0
SPLINE
  5
88
330
1F
100
AcDbEntity
  8
layer 1
 62
   250
100
AcDbSpline
210
0.0
220
0.0
230
1.0
 70
    11
 71
     3
 72
    16
 73
    12
 74
     0
 42
0.0000000001
 43
0.0000000001
 12
1.0
 22
0.0
 32
0.0
 13
1.0
 23
0.0
 33
0.0
 40
0.0
 40
0.0
 40
0.0
 40
0.0
 40
0.25
 40
0.25
 40
0.25
 40
0.25
 40
0.5
 40
0.5
 40
0.5
 40
0.5
 40
1.0
 40
1.0
 40
1.0
 40
1.0
 10
-8.722
 20
-96.8277
 30
0.0
 10
-8.722
 20
-96.8277
 30
0.0
 10
-13.3467
 20
-101.3442
 30
0.0
 10
-13.3467
 20
-101.3442
 30
0.0
 10
-13.3467
 20
-101.3442
 30
0.0
 10
-13.3467
 20
-101.3442
 30
0.0
 10
-8.2471
 20
-101.3442
 30
0.0
 10
-8.2471
 20
-101.3442
 30
0.0
 10
-8.2471
 20
-101.3442
 30
0.0
 10
-8.2471
 20
-101.3442
 30
0.0
 10
-8.722
 20
-96.8277
 30
0.0
 10
-8.722
 20
-96.8277
 30
0.0
  0
SPLINE
  5
89
330
1F
100
AcDbEntity
  8
layer 1
 62
   250
100
AcDbSpline
210
0.0
220
0.0
230
1.0
 70
    11
 71
     3
 72
    24
 73
    20
 74
     0
 42
0.0000000001
 43
0.0000000001
 12
1.0
 22
0.0
 32
0.0
 13
1.0
 23
0.0
 33
0.0
 40
0.0
 40
0.0
 40
0.0
 40
0.0
 40
0.1666666666666667
 40
0.1666666666666667
 40
0.1666666666666667
 40
0.1666666666666667
 40
0.3333333333333333
 40
0.3333333333333333
 40
0.3333333333333333
 40
0.3333333333333333
 40
0.5
 40
0.5
 40
0.5
 40
0.5
 40
0.6666666666666666
 40
0.6666666666666666
 40
0.6666666666666666
 40
0.6666666666666666
 40
1.0
 40
1.0
 40
1.0
 40
1.0
 10
63.4731
 20
-60.856
 30
0.0
 10
63.4731
 20
-60.856
 30
0.0
 10
63.4731
 20
-59.7287
 30
0.0
 10
63.4731
 20
-59.7287
 30
0.0
 10
63.4731
 20
-59.7287
 30
0.0
 10
63.4731
 20
-59.7287
 30
0.0
 10
30.371
 20
-59.6418
 30
0.0
 10
30.371
 20
-59.6418
 30
0.0
 10
30.371
 20
-59.6418
 30
0.0
 10
30.371
 20
-59.6418
 30
0.0
 10
40.0727
 20
-69.8488
 30
0.0
 10
40.0727
 20
-69.8488
 30
0.0
 10
40.0727
 20
-69.8488
 30
0.0
 10
40.0727
 20
-69.8488
 30
0.0
 10
57.6907
 20
-67.1883
 30
0.0
 10
57.6907
 20
-67.1883
 30
0.0
 10
57.6907
 20
-67.1883
 30
0.0
 10
57.6907
 20
-67.1883
 30
0.0
 10
63.4731
 20
-60.856
 30
0.0
 10
63.4731
 20
-60.856
 30
0.0
  0
SPLINE
  5
8A
330
1F
100
AcDbEntity
  8
layer 1
 62
   250
100
AcDbSpline
210
0.0
220
0.0
230
1.0
 70
    11
 71
     3
 72
    20
 73
    16
 74
     0
 42
0.0000000001
 43
0.0000000001
 12
1.0
 22
0.0
 32
0.0
 13
1.0
 23
0.0
 33
0.0
 40
0.0
 40
0.0
 40
0.0
 40
0.0
 40
0.2
 40
0.2
 40
0.2
 40
0.2
 40
0.4
 40
0.4
 40
0.4
 40
0.4
 40
0.6
 40
0.6
 40
0.6
 40
0.6
 40
1.0
 40
1.0
 40
1.0
 40
1.0
 10
25.6667
 20
-59.921
 30
0.0
 10
25.6667
 20
-59.921
 30
0.0
 10
9.0534
 20
-59.6603
 30
0.0
 10
9.0534
 20
-59.6603
 30
0.0
 10
9.0534
 20
-59.6603
 30
0.0
 10
9.0534
 20
-59.6603
 30
0.0
 10
28.9345
 20
-79.9155
 30
0.0
 10
28.9345
 20
-79.9155
 30
0.0
 10
28.9345
 20
-79.9155
 30
0.0
 10
28.9345
 20
-79.9155
 30
0.0
 10
37.1754
 20
-71.6658
 30
0.0
 10
37.1754
 20
-71.6658
 30
0.0
 10
37.1754
 20
-71.6658
 30
0.0
 10
37.1754
 20
-71.6658
 30
0.0
 10
25.6667
 20
-59.921
 30
0.0
 10
25.6667
 20
-59.921
 30
0.0
  0
SPLINE
  5
8B
330
1F
100
AcDbEntity
  8
layer 1
 62
   250
100
AcDbSpline
210
0.0
220
0.0
230
1.0
 70
    11
 71
     3
 72
    20
 73
    16
 74
     0
 42
0.0000000001
 43
0.0000000001
 12
1.0
 22
0.0
 32
0.0
 13
1.0
 23
0.0
 33
0.0
 40
0.0
 40
0.0
 40
0.0
 40
0.0
 40
0.2
 40
0.2
 40
0.2
 40
0.2
 40
0.4
 40
0.4
 40
0.4
 40
0.4
 40
0.6
 40
0.6
 40
0.6
 40
0.6
 40
1.0
 40
1.0
 40
1.0
 40
1.0
 10
7.1595
 20
-62.4667
 30
0.0
 10
7.1595
 20
-62.4667
 30
0.0
 10
7.0983
 20
-79.541
 30
0.0
 10
7.0983
 20
-79.541
 30
0.0
 10
7.0983
 20
-79.541
 30
0.0
 10
7.0983
 20
-79.541
 30
0.0
 10
18.2909
 20
-91.1422
 30
0.0
 10
18.2909
 20
-91.1422
 30
0.0
 10
18.2909
 20
-91.1422
 30
0.0
 10
18.2909
 20
-91.1422
 30
0.0
 10
26.3944
 20
-82.5949
 30
0.0
 10
26.3944
 20
-82.5949
 30
0.0
 10
26.3944
 20
-82.5949
 30
0.0
 10
26.3944
 20
-82.5949
 30
0.0
 10
7.1595
 20
-62.4667
 30
0.0
 10
7.1595
 20
-62.4667
 30
0.0
  0
SPLINE
  5
8C
330
1F
100
AcDbEntity
  8
layer 1
 62
   250
100
AcDbSpline
210
0.0
220
0.0
230
1.0
 70
    11
 71
     3
 72
    20
 73
    16
 74
     0
 42
0.0000000001
 43
0.0000000001
 12
1.0
 22
0.0
 32
0.0
 13
1.0
 23
0.0
 33
0.0
 40
0.0
 40
0.0
 40
0.0
 40
0.0
 40
0.2
 40
0.2
 40
0.2
 40
0.2
 40
0.4
 40
0.4
 40
0.4
 40
0.4
 40
0.6
 40
0.6
 40
0.6
 40
0.6
 40
1.0
 40
1.0
 40
1.0
 40
1.0
 10
64.2817
 20
-65.2297
 30
0.0
 10
64.2817
 20
-65.2297
 30
0.0
 10
64.0207
 20
-94.6158
 30
0.0
 10
64.0207
 20
-94.6158
 30
0.0
 10
64.0207
 20
-94.6158
 30
0.0
 10
64.0207
 20
-94.6158
 30
0.0
 10
57.8252
 20
-88.3669
 30
0.0
 10
57.8252
 20
-88.3669
 30
0.0
 10
57.8252
 20
-88.3669
 30
0.0
 10
57.8252
 20
-88.3669
 30
0.0
 10
59.2411
 20
-69.8409
 30
0.0
 10
59.2411
 20
-69.8409
 30
0.0
 10
59.2411
 20
-69.8409
 30
0.0
 10
59.2411
 20
-69.8409
 30
0.0
 10
64.2817
 20
-65.2297
 30
0.0
 10
64.2817
 20
-65.2297
 30
0.0
  0
SPLINE
  5
8D
330
1F
100
AcDbEntity
  8
layer 1
 62
   250
100
AcDbSpline
210
0.0
220
0.0
230
1.0
 70
    11
 71
     3
 72
    16
 73
    12
 74
     0
 42
0.0000000001
 43
0.0000000001
 12
1.0
 22
0.0
 32
0.0
 13
1.0
 23
0.0
 33
0.0
 40
0.0
 40
0.0
 40
0.0
 40
0.0
 40
0.25
 40
0.25
 40
0.25
 40
0.25
 40
0.5
 40
0.5
 40
0.5
 40
0.5
 40
1.0
 40
1.0
 40
1.0
 40
1.0
 10
55.3984
 20
-74.3621
 30
0.0
 10
55.3984
 20
-74.3621
 30
0.0
 10
54.6017
 20
-84.7654
 30
0.0
 10
54.6017
 20
-84.7654
 30
0.0
 10
54.6017
 20
-84.7654
 30
0.0
 10
54.6017
 20
-84.7654
 30
0.0
 10
49.7951
 20
-79.8149
 30
0.0
 10
49.7951
 20
-79.8149
 30
0.0
 10
49.7951
 20
-79.8149
 30
0.0
 10
49.7951
 20
-79.8149
 30
0.0
 10
55.3984
 20
-74.3621
 30
0.0
 10
55.3984
 20
-74.3621
 30
0.0
  0
SPLINE
  5
8E
330
1F
100
AcDbEntity
  8
layer 1
 62
   250
100
AcDbSpline
210
0.0
220
0.0
230
1.0
 70
    11
 71
     3
 72
    16
 73
    12
 74
     0
 42
0.0000000001
 43
0.0000000001
 12
1.0
 22
0.0
 32
0.0
 13
1.0
 23
0.0
 33
0.0
 40
0.0
 40
0.0
 40
0.0
 40
0.0
 40
0.25
 40
0.25
 40
0.25
 40
0.25
 40
0.5
 40
0.5
 40
0.5
 40
0.5
 40
1.0
 40
1.0
 40
1.0
 40
1.0
 10
53.3386
 20
-71.1797
 30
0.0
 10
53.3386
 20
-71.1797
 30
0.0
 10
47.7127
 20
-77.0518
 30
0.0
 10
47.7127
 20
-77.0518
 30
0.0
 10
47.7127
 20
-77.0518
 30
0.0
 10
47.7127
 20
-77.0518
 30
0.0
 10
43.1413
 20
-72.7919
 30
0.0
 10
43.1413
 20
-72.7919
 30
0.0
 10
43.1413
 20
-72.7919
 30
0.0
 10
43.1413
 20
-72.7919
 30
0.0
 10
53.3386
 20
-71.1797
 30
0.0
 10
53.3386
 20
-71.1797
 30
0.0
  0
SPLINE
  5
8F
330
1F
100
AcDbEntity
  8
layer 1
 62
   250
100
AcDbSpline
210
0.0
220
0.0
230
1.0
 70
    11
 71
     3
 72
    24
 73
    20
 74
     0
 42
0.0000000001
 43
0.0000000001
 12
1.0
 22
0.0
 32
0.0
 13
1.0
 23
0.0
 33
0.0
 40
0.0
 40
0.0
 40
0.0
 40
0.0
 40
0.1666666666666667
 40
0.1666666666666667
 40
0.1666666666666667
 40
0.1666666666666667
 40
0.3333333333333333
 40
0.3333333333333333
 40
0.3333333333333333
 40
0.3333333333333333
 40
0.5
 40
0.5
 40
0.5
 40
0.5
 40
0.6666666666666666
 40
0.6666666666666666
 40
0.6666666666666666
 40
0.6666666666666666
 40
1.0
 40
1.0
 40
1.0
 40
1.0
 10
64.2554
 20
-100.0268
 30
0.0
 10
64.2554
 20
-100.0268
 30
0.0
 10
64.2325
 20
-101.3442
 30
0.0
 10
64.2325
 20
-101.3442
 30
0.0
 10
64.2325
 20
-101.3442
 30
0.0
 10
64.2325
 20
-101.3442
 30
0.0
 10
49.2324
 20
-101.3442
 30
0.0
 10
49.2324
 20
-101.3442
 30
0.0
 10
49.2324
 20
-101.3442
 30
0.0
 10
49.2324
 20
-101.3442
 30
0.0
 10
47.0869
 20
-99.1043
 30
0.0
 10
47.0869
 20
-99.1043
 30
0.0
 10
47.0869
 20
-99.1043
 30
0.0
 10
47.0869
 20
-99.1043
 30
0.0
 10
55.554
 20
-90.6122
 30
0.0
 10
55.554
 20
-90.6122
 30
0.0
 10
55.554
 20
-90.6122
 30
0.0
 10
55.554
 20
-90.6122
 30
0.0
 10
64.2554
 20
-100.0268
 30
0.0
 10
64.2554
 20
-100.0268
 30
0.0
  0
SPLINE
  5
90
330
1F
100
AcDbEntity
  8
layer 1
 62
   250
100
AcDbSpline
210
0.0
220
0.0
230
1.0
 70
    11
 71
     3
 72
    20
 73
    16
 74
     0
 42
0.0000000001
 43
0.0000000001
 12
1.0
 22
0.0
 32
0.0
 13
1.0
 23
0.0
 33
0.0
 40
0.0
 40
0.0
 40
0.0
 40
0.0
 40
0.2
 40
0.2
 40
0.2
 40
0.2
 40
0.4
 40
0.4
 40
0.4
 40
0.4
 40
0.6
 40
0.6
 40
0.6
 40
0.6
 40
1.0
 40
1.0
 40
1.0
 40
1.0
 10
53.1664
 20
-88.0288
 30
0.0
 10
53.1664
 20
-88.0288
 30
0.0
 10
44.6459
 20
-96.5809
 30
0.0
 10
44.6459
 20
-96.5809
 30
0.0
 10
44.6459
 20
-96.5809
 30
0.0
 10
44.6459
 20
-96.5809
 30
0.0
 10
39.2537
 20
-90.7091
 30
0.0
 10
39.2537
 20
-90.7091
 30
0.0
 10
39.2537
 20
-90.7091
 30
0.0
 10
39.2537
 20
-90.7091
 30
0.0
 10
47.4586
 20
-82.1887
 30
0.0
 10
47.4586
 20
-82.1887
 30
0.0
 10
47.4586
 20
-82.1887
 30
0.0
 10
47.4586
 20
-82.1887
 30
0.0
 10
53.1664
 20
-88.0288
 30
0.0
 10
53.1664
 20
-88.0288
 30
0.0
  0
SPLINE
  5
91
330
1F
100
AcDbEntity
  8
layer 1
 62
   250
100
AcDbSpline
210
0.0
220
0.0
230
1.0
 70
    11
 71
     3
 72
    20
 73
    16
 74
     0
 42
0.0000000001
 43
0.0000000001
 12
1.0
 22
0.0
 32
0.0
 13
1.0
 23
0.0
 33
0.0
 40
0.0
 40
0.0
 40
0.0
 40
0.0
 40
0.2
 40
0.2
 40
0.2
 40
0.2
 40
0.4
 40
0.4
 40
0.4
 40
0.4
 40
0.6
 40
0.6
 40
0.6
 40
0.6
 40
1.0
 40
1.0
 40
1.0
 40
1.0
 10
44.7667
 20
-79.6859
 30
0.0
 10
44.7667
 20
-79.6859
 30
0.0
 10
36.6795
 20
-88.206
 30
0.0
 10
36.6795
 20
-88.206
 30
0.0
 10
36.6795
 20
-88.206
 30
0.0
 10
36.6795
 20
-88.206
 30
0.0
 10
31.0526
 20
-82.449
 30
0.0
 10
31.0526
 20
-82.449
 30
0.0
 10
31.0526
 20
-82.449
 30
0.0
 10
31.0526
 20
-82.449
 30
0.0
 10
39.0235
 20
-73.8135
 30
0.0
 10
39.0235
 20
-73.8135
 30
0.0
 10
39.0235
 20
-73.8135
 30
0.0
 10
39.0235
 20
-73.8135
 30
0.0
 10
44.7667
 20
-79.6859
 30
0.0
 10
44.7667
 20
-79.6859
 30
0.0
  0
SPLINE
  5
92
330
1F
100
AcDbEntity
  8
layer 1
 62
   250
100
AcDbSpline
210
0.0
220
0.0
230
1.0
 70
    11
 71
     3
 72
    20
 73
    16
 74
     0
 42
0.0000000001
 43
0.0000000001
 12
1.0
 22
0.0
 32
0.0
 13
1.0
 23
0.0
 33
0.0
 40
0.0
 40
0.0
 40
0.0
 40
0.0
 40
0.2
 40
0.2
 40
0.2
 40
0.2
 40
0.4
 40
0.4
 40
0.4
 40
0.4
 40
0.6
 40
0.6
 40
0.6
 40
0.6
 40
1.0
 40
1.0
 40
1.0
 40
1.0
 10
42.4211
 20
-98.913
 30
0.0
 10
42.4211
 20
-98.913
 30
0.0
 10
40.0269
 20
-101.3442
 30
0.0
 10
40.0269
 20
-101.3442
 30
0.0
 10
40.0269
 20
-101.3442
 30
0.0
 10
40.0269
 20
-101.3442
 30
0.0
 10
29.0323
 20
-101.3442
 30
0.0
 10
29.0323
 20
-101.3442
 30
0.0
 10
29.0323
 20
-101.3442
 30
0.0
 10
29.0323
 20
-101.3442
 30
0.0
 10
36.9122
 20
-93.3865
 30
0.0
 10
36.9122
 20
-93.3865
 30
0.0
 10
36.9122
 20
-93.3865
 30
0.0
 10
36.9122
 20
-93.3865
 30
0.0
 10
42.4211
 20
-98.913
 30
0.0
 10
42.4211
 20
-98.913
 30
0.0
  0
SPLINE
  5
93
330
1F
100
AcDbEntity
  8
layer 1
 62
   250
100
AcDbSpline
210
0.0
220
0.0
230
1.0
 70
    11
 71
     3
 72
    20
 73
    16
 74
     0
 42
0.0000000001
 43
0.0000000001
 12
1.0
 22
0.0
 32
0.0
 13
1.0
 23
0.0
 33
0.0
 40
0.0
 40
0.0
 40
0.0
 40
0.0
 40
0.2
 40
0.2
 40
0.2
 40
0.2
 40
0.4
 40
0.4
 40
0.4
 40
0.4
 40
0.6
 40
0.6
 40
0.6
 40
0.6
 40
1.0
 40
1.0
 40
1.0
 40
1.0
 10
34.4032
 20
-90.9481
 30
0.0
 10
34.4032
 20
-90.9481
 30
0.0
 10
26.1573
 20
-99.4117
 30
0.0
 10
26.1573
 20
-99.4117
 30
0.0
 10
26.1573
 20
-99.4117
 30
0.0
 10
26.1573
 20
-99.4117
 30
0.0
 10
20.6662
 20
-93.6205
 30
0.0
 10
20.6662
 20
-93.6205
 30
0.0
 10
20.6662
 20
-93.6205
 30
0.0
 10
20.6662
 20
-93.6205
 30
0.0
 10
28.6594
 20
-85.3065
 30
0.0
 10
28.6594
 20
-85.3065
 30
0.0
 10
28.6594
 20
-85.3065
 30
0.0
 10
28.6594
 20
-85.3065
 30
0.0
 10
34.4032
 20
-90.9481
 30
0.0
 10
34.4032
 20
-90.9481
 30
0.0
  0
SPLINE
  5
94
330
1F
100
AcDbEntity
  8
layer 1
 62
   250
100
AcDbSpline
210
0.0
220
0.0
230
1.0
 70
    11
 71
     3
 72
    20
 73
    16
 74
     0
 42
0.0000000001
 43
0.0000000001
 12
1.0
 22
0.0
 32
0.0
 13
1.0
 23
0.0
 33
0.0
 40
0.0
 40
0.0
 40
0.0
 40
0.0
 40
0.2
 40
0.2
 40
0.2
 40
0.2
 40
0.4
 40
0.4
 40
0.4
 40
0.4
 40
0.6
 40
0.6
 40
0.6
 40
0.6
 40
1.0
 40
1.0
 40
1.0
 40
1.0
 10
6.9516
 20
-84.4477
 30
0.0
 10
6.9516
 20
-84.4477
 30
0.0
 10
15.9766
 20
-93.6591
 30
0.0
 10
15.9766
 20
-93.6591
 30
0.0
 10
15.9766
 20
-93.6591
 30
0.0
 10
15.9766
 20
-93.6591
 30
0.0
 10
14.9902
 20
-101.3442
 30
0.0
 10
14.9902
 20
-101.3442
 30
0.0
 10
14.9902
 20
-101.3442
 30
0.0
 10
14.9902
 20
-101.3442
 30
0.0
 10
6.7194
 20
-101.3442
 30
0.0
 10
6.7194
 20
-101.3442
 30
0.0
 10
6.7194
 20
-101.3442
 30
0.0
 10
6.7194
 20
-101.3442
 30
0.0
 10
6.9516
 20
-84.4477
 30
0.0
 10
6.9516
 20
-84.4477
 30
0.0
  0
SPLINE
  5
95
330
1F
100
AcDbEntity
  8
layer 1
 62
   250
100
AcDbSpline
210
0.0
220
0.0
230
1.0
 70
    11
 71
     3
 72
    16
 73
    12
 74
     0
 42
0.0000000001
 43
0.0000000001
 12
1.0
 22
0.0
 32
0.0
 13
1.0
 23
0.0
 33
0.0
 40
0.0
 40
0.0
 40
0.0
 40
0.0
 40
0.25
 40
0.25
 40
0.25
 40
0.25
 40
0.5
 40
0.5
 40
0.5
 40
0.5
 40
1.0
 40
1.0
 40
1.0
 40
1.0
 10
19.128
 20
-97.1282
 30
0.0
 10
19.128
 20
-97.1282
 30
0.0
 10
23.5231
 20
-101.3442
 30
0.0
 10
23.5231
 20
-101.3442
 30
0.0
 10
23.5231
 20
-101.3442
 30
0.0
 10
23.5231
 20
-101.3442
 30
0.0
 10
18.5666
 20
-101.3442
 30
0.0
 10
18.5666
 20
-101.3442
 30
0.0
 10
18.5666
 20
-101.3442
 30
0.0
 10
18.5666
 20
-101.3442
 30
0.0
 10
19.128
 20
-97.1282
 30
0.0
 10
19.128
 20
-97.1282
 30
0.0
  0
SPLINE
  5
96
330
1F
100
AcDbEntity
  8
layer 1
 62
   250
100
AcDbSpline
210
0.0
220
0.0
230
1.0
 70
    11
 71
     3
 72
    24
 73
    20
 74
     0
 42
0.0000000001
 43
0.0000000001
 12
1.0
 22
0.0
 32
0.0
 13
1.0
 23
0.0
 33
0.0
 40
0.0
 40
0.0
 40
0.0
 40
0.0
 40
0.1666666666666667
 40
0.1666666666666667
 40
0.1666666666666667
 40
0.1666666666666667
 40
0.3333333333333333
 40
0.3333333333333333
 40
0.3333333333333333
 40
0.3333333333333333
 40
0.5
 40
0.5
 40
0.5
 40
0.5
 40
0.6666666666666666
 40
0.6666666666666666
 40
0.6666666666666666
 40
0.6666666666666666
 40
1.0
 40
1.0
 40
1.0
 40
1.0
 10
-52.5203
 20
-54.6705
 30
0.0
 10
-52.5203
 20
-54.6705
 30
0.0
 10
-52.5203
 20
-55.7906
 30
0.0
 10
-52.5203
 20
-55.7906
 30
0.0
 10
-52.5203
 20
-55.7906
 30
0.0
 10
-52.5203
 20
-55.7906
 30
0.0
 10
-20.0045
 20
-55.8762
 30
0.0
 10
-20.0045
 20
-55.8762
 30
0.0
 10
-20.0045
 20
-55.8762
 30
0.0
 10
-20.0045
 20
-55.8762
 30
0.0
 10
-29.5346
 20
-45.7389
 30
0.0
 10
-29.5346
 20
-45.7389
 30
0.0
 10
-29.5346
 20
-45.7389
 30
0.0
 10
-29.5346
 20
-45.7389
 30
0.0
 10
-47.0654
 20
-49.0666
 30
0.0
 10
-47.0654
 20
-49.0666
 30
0.0
 10
-47.0654
 20
-49.0666
 30
0.0
 10
-47.0654
 20
-49.0666
 30
0.0
 10
-52.5203
 20
-54.6705
 30
0.0
 10
-52.5203
 20
-54.6705
 30
0.0
  0
SPLINE
  5
97
330
1F
100
AcDbEntity
  8
layer 1
 62
   250
100
AcDbSpline
210
0.0
220
0.0
230
1.0
 70
    11
 71
     3
 72
    20
 73
    16
 74
     0
 42
0.0000000001
 43
0.0000000001
 12
1.0
 22
0.0
 32
0.0
 13
1.0
 23
0.0
 33
0.0
 40
0.0
 40
0.0
 40
0.0
 40
0.0
 40
0.2
 40
0.2
 40
0.2
 40
0.2
 40
0.4
 40
0.4
 40
0.4
 40
0.4
 40
0.6
 40
0.6
 40
0.6
 40
0.6
 40
1.0
 40
1.0
 40
1.0
 40
1.0
 10
-15.0564
 20
-55.9111
 30
0.0
 10
-15.0564
 20
-55.9111
 30
0.0
 10
1.5364
 20
-56.2897
 30
0.0
 10
1.5364
 20
-56.2897
 30
0.0
 10
1.5364
 20
-56.2897
 30
0.0
 10
1.5364
 20
-56.2897
 30
0.0
 10
-18.2094
 20
-35.7396
 30
0.0
 10
-18.2094
 20
-35.7396
 30
0.0
 10
-18.2094
 20
-35.7396
 30
0.0
 10
-18.2094
 20
-35.7396
 30
0.0
 10
-26.3622
 20
-44.2452
 30
0.0
 10
-26.3622
 20
-44.2452
 30
0.0
 10
-26.3622
 20
-44.2452
 30
0.0
 10
-26.3622
 20
-44.2452
 30
0.0
 10
-15.0564
 20
-55.9111
 30
0.0
 10
-15.0564
 20
-55.9111
 30
0.0
  0
SPLINE
  5
98
330
1F
100
AcDbEntity
  8
layer 1
 62
   250
100
AcDbSpline
210
0.0
220
0.0
230
1.0
 70
    11
 71
     3
 72
    20
 73
    16
 74
     0
 42
0.0000000001
 43
0.0000000001
 12
1.0
 22
0.0
 32
0.0
 13
1.0
 23
0.0
 33
0.0
 40
0.0
 40
0.0
 40
0.0
 40
0.0
 40
0.2
 40
0.2
 40
0.2
 40
0.2
 40
0.4
 40
0.4
 40
0.4
 40
0.4
 40
0.6
 40
0.6
 40
0.6
 40
0.6
 40
1.0
 40
1.0
 40
1.0
 40
1.0
 10
3.4485
 20
-53.2587
 30
0.0
 10
3.4485
 20
-53.2587
 30
0.0
 10
3.7421
 20
-36.599
 30
0.0
 10
3.7421
 20
-36.599
 30
0.0
 10
3.7421
 20
-36.599
 30
0.0
 10
3.7421
 20
-36.599
 30
0.0
 10
-7.6561
 20
-24.9347
 30
0.0
 10
-7.6561
 20
-24.9347
 30
0.0
 10
-7.6561
 20
-24.9347
 30
0.0
 10
-7.6561
 20
-24.9347
 30
0.0
 10
-15.8312
 20
-33.2829
 30
0.0
 10
-15.8312
 20
-33.2829
 30
0.0
 10
-15.8312
 20
-33.2829
 30
0.0
 10
-15.8312
 20
-33.2829
 30
0.0
 10
3.4485
 20
-53.2587
 30
0.0
 10
3.4485
 20
-53.2587
 30
0.0
  0
SPLINE
  5
99
330
1F
100
AcDbEntity
  8
layer 1
 62
   250
100
AcDbSpline
210
0.0
220
0.0
230
1.0
 70
    11
 71
     3
 72
    20
 73
    16
 74
     0
 42
0.0000000001
 43
0.0000000001
 12
1.0
 22
0.0
 32
0.0
 13
1.0
 23
0.0
 33
0.0
 40
0.0
 40
0.0
 40
0.0
 40
0.0
 40
0.2
 40
0.2
 40
0.2
 40
0.2
 40
0.4
 40
0.4
 40
0.4
 40
0.4
 40
0.6
 40
0.6
 40
0.6
 40
0.6
 40
1.0
 40
1.0
 40
1.0
 40
1.0
 10
-52.6753
 20
-49.2918
 30
0.0
 10
-52.6753
 20
-49.2918
 30
0.0
 10
-52.6753
 20
-22.3385
 30
0.0
 10
-52.6753
 20
-22.3385
 30
0.0
 10
-52.6753
 20
-22.3385
 30
0.0
 10
-52.6753
 20
-22.3385
 30
0.0
 10
-47.1325
 20
-27.5733
 30
0.0
 10
-47.1325
 20
-27.5733
 30
0.0
 10
-47.1325
 20
-27.5733
 30
0.0
 10
-47.1325
 20
-27.5733
 30
0.0
 10
-48.8755
 20
-45.7467
 30
0.0
 10
-48.8755
 20
-45.7467
 30
0.0
 10
-48.8755
 20
-45.7467
 30
0.0
 10
-48.8755
 20
-45.7467
 30
0.0
 10
-52.6753
 20
-49.2918
 30
0.0
 10
-52.6753
 20
-49.2918
 30
0.0
  0
SPLINE
  5
9A
330
1F
100
AcDbEntity
  8
layer 1
 62
   250
100
AcDbSpline
210
0.0
220
0.0
230
1.0
 70
    11
 71
     3
 72
    16
 73
    12
 74
     0
 42
0.0000000001
 43
0.0000000001
 12
1.0
 22
0.0
 32
0.0
 13
1.0
 23
0.0
 33
0.0
 40
0.0
 40
0.0
 40
0.0
 40
0.0
 40
0.25
 40
0.25
 40
0.25
 40
0.25
 40
0.5
 40
0.5
 40
0.5
 40
0.5
 40
1.0
 40
1.0
 40
1.0
 40
1.0
 10
-44.961
 20
-41.4009
 30
0.0
 10
-44.961
 20
-41.4009
 30
0.0
 10
-44.0397
 20
-31.1083
 30
0.0
 10
-44.0397
 20
-31.1083
 30
0.0
 10
-44.0397
 20
-31.1083
 30
0.0
 10
-44.0397
 20
-31.1083
 30
0.0
 10
-39.3194
 20
-36.0259
 30
0.0
 10
-39.3194
 20
-36.0259
 30
0.0
 10
-39.3194
 20
-36.0259
 30
0.0
 10
-39.3194
 20
-36.0259
 30
0.0
 10
-44.961
 20
-41.4009
 30
0.0
 10
-44.961
 20
-41.4009
 30
0.0
  0
SPLINE
  5
9B
330
1F
100
AcDbEntity
  8
layer 1
 62
   250
100
AcDbSpline
210
0.0
220
0.0
230
1.0
 70
    11
 71
     3
 72
    16
 73
    12
 74
     0
 42
0.0000000001
 43
0.0000000001
 12
1.0
 22
0.0
 32
0.0
 13
1.0
 23
0.0
 33
0.0
 40
0.0
 40
0.0
 40
0.0
 40
0.0
 40
0.25
 40
0.25
 40
0.25
 40
0.25
 40
0.5
 40
0.5
 40
0.5
 40
0.5
 40
1.0
 40
1.0
 40
1.0
 40
1.0
 10
-42.5436
 20
-44.4886
 30
0.0
 10
-42.5436
 20
-44.4886
 30
0.0
 10
-37.0161
 20
-38.6563
 30
0.0
 10
-37.0161
 20
-38.6563
 30
0.0
 10
-37.0161
 20
-38.6563
 30
0.0
 10
-37.0161
 20
-38.6563
 30
0.0
 10
-32.526
 20
-42.8877
 30
0.0
 10
-32.526
 20
-42.8877
 30
0.0
 10
-32.526
 20
-42.8877
 30
0.0
 10
-32.526
 20
-42.8877
 30
0.0
 10
-42.5436
 20
-44.4886
 30
0.0
 10
-42.5436
 20
-44.4886
 30
0.0
  0
SPLINE
  5
9C
330
1F
100
AcDbEntity
  8
layer 1
 62
   250
100
AcDbSpline
210
0.0
220
0.0
230
1.0
 70
    11
 71
     3
 72
    20
 73
    16
 74
     0
 42
0.0000000001
 43
0.0000000001
 12
1.0
 22
0.0
 32
0.0
 13
1.0
 23
0.0
 33
0.0
 40
0.0
 40
0.0
 40
0.0
 40
0.0
 40
0.2
 40
0.2
 40
0.2
 40
0.2
 40
0.4
 40
0.4
 40
0.4
 40
0.4
 40
0.6
 40
0.6
 40
0.6
 40
0.6
 40
1.0
 40
1.0
 40
1.0
 40
1.0
 10
-52.9058
 20
-16.9278
 30
0.0
 10
-52.9058
 20
-16.9278
 30
0.0
 10
-52.7904
 20
-0.1138
 30
0.0
 10
-52.7904
 20
-0.1138
 30
0.0
 10
-52.7904
 20
-0.1138
 30
0.0
 10
-52.7904
 20
-0.1138
 30
0.0
 10
-36.6714
 20
-16.8136
 30
0.0
 10
-36.6714
 20
-16.8136
 30
0.0
 10
-36.6714
 20
-16.8136
 30
0.0
 10
-36.6714
 20
-16.8136
 30
0.0
 10
-44.961
 20
-25.0474
 30
0.0
 10
-44.961
 20
-25.0474
 30
0.0
 10
-44.961
 20
-25.0474
 30
0.0
 10
-44.961
 20
-25.0474
 30
0.0
 10
-52.9058
 20
-16.9278
 30
0.0
 10
-52.9058
 20
-16.9278
 30
0.0
  0
SPLINE
  5
9D
330
1F
100
AcDbEntity
  8
layer 1
 62
   250
100
AcDbSpline
210
0.0
220
0.0
230
1.0
 70
    11
 71
     3
 72
    20
 73
    16
 74
     0
 42
0.0000000001
 43
0.0000000001
 12
1.0
 22
0.0
 32
0.0
 13
1.0
 23
0.0
 33
0.0
 40
0.0
 40
0.0
 40
0.0
 40
0.0
 40
0.2
 40
0.2
 40
0.2
 40
0.2
 40
0.4
 40
0.4
 40
0.4
 40
0.4
 40
0.6
 40
0.6
 40
0.6
 40
0.6
 40
1.0
 40
1.0
 40
1.0
 40
1.0
 10
-42.5081
 20
-27.7097
 30
0.0
 10
-42.5081
 20
-27.7097
 30
0.0
 10
-34.1383
 20
-19.2154
 30
0.0
 10
-34.1383
 20
-19.2154
 30
0.0
 10
-34.1383
 20
-19.2154
 30
0.0
 10
-34.1383
 20
-19.2154
 30
0.0
 10
-28.842
 20
-25.0474
 30
0.0
 10
-28.842
 20
-25.0474
 30
0.0
 10
-28.842
 20
-25.0474
 30
0.0
 10
-28.842
 20
-25.0474
 30
0.0
 10
-36.901
 20
-33.5104
 30
0.0
 10
-36.901
 20
-33.5104
 30
0.0
 10
-36.901
 20
-33.5104
 30
0.0
 10
-36.901
 20
-33.5104
 30
0.0
 10
-42.5081
 20
-27.7097
 30
0.0
 10
-42.5081
 20
-27.7097
 30
0.0
  0
SPLINE
  5
9E
330
1F
100
AcDbEntity
  8
layer 1
 62
   250
100
AcDbSpline
210
0.0
220
0.0
230
1.0
 70
    11
 71
     3
 72
    20
 73
    16
 74
     0
 42
0.0000000001
 43
0.0000000001
 12
1.0
 22
0.0
 32
0.0
 13
1.0
 23
0.0
 33
0.0
 40
0.0
 40
0.0
 40
0.0
 40
0.0
 40
0.2
 40
0.2
 40
0.2
 40
0.2
 40
0.4
 40
0.4
 40
0.4
 40
0.4
 40
0.6
 40
0.6
 40
0.6
 40
0.6
 40
1.0
 40
1.0
 40
1.0
 40
1.0
 10
-34.3685
 20
-35.9115
 30
0.0
 10
-34.3685
 20
-35.9115
 30
0.0
 10
-26.4237
 20
-27.4488
 30
0.0
 10
-26.4237
 20
-27.4488
 30
0.0
 10
-26.4237
 20
-27.4488
 30
0.0
 10
-26.4237
 20
-27.4488
 30
0.0
 10
-20.8972
 20
-33.1669
 30
0.0
 10
-20.8972
 20
-33.1669
 30
0.0
 10
-20.8972
 20
-33.1669
 30
0.0
 10
-20.8972
 20
-33.1669
 30
0.0
 10
-28.7266
 20
-41.7441
 30
0.0
 10
-28.7266
 20
-41.7441
 30
0.0
 10
-28.7266
 20
-41.7441
 30
0.0
 10
-28.7266
 20
-41.7441
 30
0.0
 10
-34.3685
 20
-35.9115
 30
0.0
 10
-34.3685
 20
-35.9115
 30
0.0
  0
SPLINE
  5
9F
330
1F
100
AcDbEntity
  8
layer 1
 62
   250
100
AcDbSpline
210
0.0
220
0.0
230
1.0
 70
    11
 71
     3
 72
    20
 73
    16
 74
     0
 42
0.0000000001
 43
0.0000000001
 12
1.0
 22
0.0
 32
0.0
 13
1.0
 23
0.0
 33
0.0
 40
0.0
 40
0.0
 40
0.0
 40
0.0
 40
0.2
 40
0.2
 40
0.2
 40
0.2
 40
0.4
 40
0.4
 40
0.4
 40
0.4
 40
0.6
 40
0.6
 40
0.6
 40
0.6
 40
1.0
 40
1.0
 40
1.0
 40
1.0
 10
-31.7199
 20
-16.8136
 30
0.0
 10
-31.7199
 20
-16.8136
 30
0.0
 10
-23.6609
 20
-8.351
 30
0.0
 10
-23.6609
 20
-8.351
 30
0.0
 10
-23.6609
 20
-8.351
 30
0.0
 10
-23.6609
 20
-8.351
 30
0.0
 10
-17.7154
 20
-14.0895
 30
0.0
 10
-17.7154
 20
-14.0895
 30
0.0
 10
-17.7154
 20
-14.0895
 30
0.0
 10
-17.7154
 20
-14.0895
 30
0.0
 10
-26.3086
 20
-22.3028
 30
0.0
 10
-26.3086
 20
-22.3028
 30
0.0
 10
-26.3086
 20
-22.3028
 30
0.0
 10
-26.3086
 20
-22.3028
 30
0.0
 10
-31.7199
 20
-16.8136
 30
0.0
 10
-31.7199
 20
-16.8136
 30
0.0
  0
SPLINE
  5
A0
330
1F
100
AcDbEntity
  8
layer 1
 62
   250
100
AcDbSpline
210
0.0
220
0.0
230
1.0
 70
    11
 71
     3
 72
    20
 73
    16
 74
     0
 42
0.0000000001
 43
0.0000000001
 12
1.0
 22
0.0
 32
0.0
 13
1.0
 23
0.0
 33
0.0
 40
0.0
 40
0.0
 40
0.0
 40
0.0
 40
0.2
 40
0.2
 40
0.2
 40
0.2
 40
0.4
 40
0.4
 40
0.4
 40
0.4
 40
0.6
 40
0.6
 40
0.6
 40
0.6
 40
1.0
 40
1.0
 40
1.0
 40
1.0
 10
-24.0063
 20
-24.8187
 30
0.0
 10
-24.0063
 20
-24.8187
 30
0.0
 10
-15.4859
 20
-16.2418
 30
0.0
 10
-15.4859
 20
-16.2418
 30
0.0
 10
-15.4859
 20
-16.2418
 30
0.0
 10
-15.4859
 20
-16.2418
 30
0.0
 10
-10.0924
 20
-21.9938
 30
0.0
 10
-10.0924
 20
-21.9938
 30
0.0
 10
-10.0924
 20
-21.9938
 30
0.0
 10
-10.0924
 20
-21.9938
 30
0.0
 10
-18.3744
 20
-30.6491
 30
0.0
 10
-18.3744
 20
-30.6491
 30
0.0
 10
-18.3744
 20
-30.6491
 30
0.0
 10
-18.3744
 20
-30.6491
 30
0.0
 10
-24.0063
 20
-24.8187
 30
0.0
 10
-24.0063
 20
-24.8187
 30
0.0
  0
SPLINE
  5
A1
330
1F
100
AcDbEntity
  8
layer 1
 62
   250
100
AcDbSpline
210
0.0
220
0.0
230
1.0
 70
    11
 71
     3
 72
    20
 73
    16
 74
     0
 42
0.0000000001
 43
0.0000000001
 12
1.0
 22
0.0
 32
0.0
 13
1.0
 23
0.0
 33
0.0
 40
0.0
 40
0.0
 40
0.0
 40
0.0
 40
0.2
 40
0.2
 40
0.2
 40
0.2
 40
0.4
 40
0.4
 40
0.4
 40
0.4
 40
0.6
 40
0.6
 40
0.6
 40
0.6
 40
1.0
 40
1.0
 40
1.0
 40
1.0
 10
3.5113
 20
-31.3385
 30
0.0
 10
3.5113
 20
-31.3385
 30
0.0
 10
-5.3538
 20
-22.1896
 30
0.0
 10
-5.3538
 20
-22.1896
 30
0.0
 10
-5.3538
 20
-22.1896
 30
0.0
 10
-5.3538
 20
-22.1896
 30
0.0
 10
-3.5114
 20
-3.8922
 30
0.0
 10
-3.5114
 20
-3.8922
 30
0.0
 10
-3.5114
 20
-3.8922
 30
0.0
 10
-3.5114
 20
-3.8922
 30
0.0
 10
3.5113
 20
3.1982
 30
0.0
 10
3.5113
 20
3.1982
 30
0.0
 10
3.5113
 20
3.1982
 30
0.0
 10
3.5113
 20
3.1982
 30
0.0
 10
3.5113
 20
-31.3385
 30
0.0
 10
3.5113
 20
-31.3385
 30
0.0
  0
SPLINE
  5
A2
330
1F
100
AcDbEntity
  8
layer 1
 62
   250
100
AcDbSpline
210
0.0
220
0.0
230
1.0
 70
    11
 71
     3
 72
    16
 73
    12
 74
     0
 42
0.0000000001
 43
0.0000000001
 12
1.0
 22
0.0
 32
0.0
 13
1.0
 23
0.0
 33
0.0
 40
0.0
 40
0.0
 40
0.0
 40
0.0
 40
0.25
 40
0.25
 40
0.25
 40
0.25
 40
0.5
 40
0.5
 40
0.5
 40
0.5
 40
1.0
 40
1.0
 40
1.0
 40
1.0
 10
-8.5774
 20
-18.6433
 30
0.0
 10
-8.5774
 20
-18.6433
 30
0.0
 10
-13.5289
 20
-13.8407
 30
0.0
 10
-13.5289
 20
-13.8407
 30
0.0
 10
-13.5289
 20
-13.8407
 30
0.0
 10
-13.5289
 20
-13.8407
 30
0.0
 10
-7.4259
 20
-7.7795
 30
0.0
 10
-7.4259
 20
-7.7795
 30
0.0
 10
-7.4259
 20
-7.7795
 30
0.0
 10
-7.4259
 20
-7.7795
 30
0.0
 10
-8.5774
 20
-18.6433
 30
0.0
 10
-8.5774
 20
-18.6433
 30
0.0
  0
SPLINE
  5
A3
330
1F
100
AcDbEntity
  8
layer 1
 62
   250
100
AcDbSpline
210
0.0
220
0.0
230
1.0
 70
    11
 71
     3
 72
    16
 73
    12
 74
     0
 42
0.0000000001
 43
0.0000000001
 12
1.0
 22
0.0
 32
0.0
 13
1.0
 23
0.0
 33
0.0
 40
0.0
 40
0.0
 40
0.0
 40
0.0
 40
0.25
 40
0.25
 40
0.25
 40
0.25
 40
0.5
 40
0.5
 40
0.5
 40
0.5
 40
1.0
 40
1.0
 40
1.0
 40
1.0
 10
-15.35
 20
-11.9691
 30
0.0
 10
-15.35
 20
-11.9691
 30
0.0
 10
-20.2062
 20
-6.979
 30
0.0
 10
-20.2062
 20
-6.979
 30
0.0
 10
-20.2062
 20
-6.979
 30
0.0
 10
-20.2062
 20
-6.979
 30
0.0
 10
-9.9594
 20
-5.9373
 30
0.0
 10
-9.9594
 20
-5.9373
 30
0.0
 10
-9.9594
 20
-5.9373
 30
0.0
 10
-9.9594
 20
-5.9373
 30
0.0
 10
-15.35
 20
-11.9691
 30
0.0
 10
-15.35
 20
-11.9691
 30
0.0
  0
SPLINE
  5
A4
330
1F
100
AcDbEntity
  8
layer 1
 62
   250
100
AcDbSpline
210
0.0
220
0.0
230
1.0
 70
    11
 71
     3
 72
    24
 73
    20
 74
     0
 42
0.0000000001
 43
0.0000000001
 12
1.0
 22
0.0
 32
0.0
 13
1.0
 23
0.0
 33
0.0
 40
0.0
 40
0.0
 40
0.0
 40
0.0
 40
0.1666666666666667
 40
0.1666666666666667
 40
0.1666666666666667
 40
0.1666666666666667
 40
0.3333333333333333
 40
0.3333333333333333
 40
0.3333333333333333
 40
0.3333333333333333
 40
0.5
 40
0.5
 40
0.5
 40
0.5
 40
0.6666666666666666
 40
0.6666666666666666
 40
0.6666666666666666
 40
0.6666666666666666
 40
1.0
 40
1.0
 40
1.0
 40
1.0
 10
-33.7926
 20
-14.4135
 30
0.0
 10
-33.7926
 20
-14.4135
 30
0.0
 10
-25.855
 20
-6.0433
 30
0.0
 10
-25.855
 20
-6.0433
 30
0.0
 10
-25.855
 20
-6.0433
 30
0.0
 10
-25.855
 20
-6.0433
 30
0.0
 10
-37.3618
 20
6.0598
 30
0.0
 10
-37.3618
 20
6.0598
 30
0.0
 10
-37.3618
 20
6.0598
 30
0.0
 10
-37.3618
 20
6.0598
 30
0.0
 10
-52.6753
 20
6.0598
 30
0.0
 10
-52.6753
 20
6.0598
 30
0.0
 10
-52.6753
 20
6.0598
 30
0.0
 10
-52.6753
 20
6.0598
 30
0.0
 10
-52.6753
 20
4.6872
 30
0.0
 10
-52.6753
 20
4.6872
 30
0.0
 10
-52.6753
 20
4.6872
 30
0.0
 10
-52.6753
 20
4.6872
 30
0.0
 10
-33.7926
 20
-14.4135
 30
0.0
 10
-33.7926
 20
-14.4135
 30
0.0
  0
SPLINE
  5
A5
330
1F
100
AcDbEntity
  8
layer 1
 62
   250
100
AcDbSpline
210
0.0
220
0.0
230
1.0
 70
    11
 71
     3
 72
    20
 73
    16
 74
     0
 42
0.0000000001
 43
0.0000000001
 12
1.0
 22
0.0
 32
0.0
 13
1.0
 23
0.0
 33
0.0
 40
0.0
 40
0.0
 40
0.0
 40
0.0
 40
0.2
 40
0.2
 40
0.2
 40
0.2
 40
0.4
 40
0.4
 40
0.4
 40
0.4
 40
0.6
 40
0.6
 40
0.6
 40
0.6
 40
1.0
 40
1.0
 40
1.0
 40
1.0
 10
-23.085
 20
-3.89
 30
0.0
 10
-23.085
 20
-3.89
 30
0.0
 10
-32.4109
 20
5.9446
 30
0.0
 10
-32.4109
 20
5.9446
 30
0.0
 10
-32.4109
 20
5.9446
 30
0.0
 10
-32.4109
 20
5.9446
 30
0.0
 10
1.4392
 20
5.7288
 30
0.0
 10
1.4392
 20
5.7288
 30
0.0
 10
1.4392
 20
5.7288
 30
0.0
 10
1.4392
 20
5.7288
 30
0.0
 10
-5.469
 20
-1.5899
 30
0.0
 10
-5.469
 20
-1.5899
 30
0.0
 10
-5.469
 20
-1.5899
 30
0.0
 10
-5.469
 20
-1.5899
 30
0.0
 10
-23.085
 20
-3.89
 30
0.0
 10
-23.085
 20
-3.89
 30
0.0
  0
SPLINE
  5
A6
330
1F
100
AcDbEntity
  8
layer 1
 62
   250
100
AcDbSpline
210
0.0
220
0.0
230
1.0
 70
    11
 71
     3
 72
    20
 73
    16
 74
     0
 42
0.0000000001
 43
0.0000000001
 12
1.0
 22
0.0
 32
0.0
 13
1.0
 23
0.0
 33
0.0
 40
0.0
 40
0.0
 40
0.0
 40
0.0
 40
0.2
 40
0.2
 40
0.2
 40
0.2
 40
0.4
 40
0.4
 40
0.4
 40
0.4
 40
0.6
 40
0.6
 40
0.6
 40
0.6
 40
1.0
 40
1.0
 40
1.0
 40
1.0
 10
64.7939
 20
-56.6381
 30
0.0
 10
64.7939
 20
-56.6381
 30
0.0
 10
30.4253
 20
-56.4945
 30
0.0
 10
30.4253
 20
-56.4945
 30
0.0
 10
30.4253
 20
-56.4945
 30
0.0
 10
30.4253
 20
-56.4945
 30
0.0
 10
40.127
 20
-46.3565
 30
0.0
 10
40.127
 20
-46.3565
 30
0.0
 10
40.127
 20
-46.3565
 30
0.0
 10
40.127
 20
-46.3565
 30
0.0
 10
57.7449
 20
-48.9982
 30
0.0
 10
57.7449
 20
-48.9982
 30
0.0
 10
57.7449
 20
-48.9982
 30
0.0
 10
57.7449
 20
-48.9982
 30
0.0
 10
64.7939
 20
-56.6381
 30
0.0
 10
64.7939
 20
-56.6381
 30
0.0
  0
SPLINE
  5
A7
330
1F
100
AcDbEntity
  8
layer 1
 62
   250
100
AcDbSpline
210
0.0
220
0.0
230
1.0
 70
    11
 71
     3
 72
    20
 73
    16
 74
     0
 42
0.0000000001
 43
0.0000000001
 12
1.0
 22
0.0
 32
0.0
 13
1.0
 23
0.0
 33
0.0
 40
0.0
 40
0.0
 40
0.0
 40
0.0
 40
0.2
 40
0.2
 40
0.2
 40
0.2
 40
0.4
 40
0.4
 40
0.4
 40
0.4
 40
0.6
 40
0.6
 40
0.6
 40
0.6
 40
1.0
 40
1.0
 40
1.0
 40
1.0
 10
25.5782
 20
-56.4408
 30
0.0
 10
25.5782
 20
-56.4408
 30
0.0
 10
9.3131
 20
-56.1353
 30
0.0
 10
9.3131
 20
-56.1353
 30
0.0
 10
9.3131
 20
-56.1353
 30
0.0
 10
9.3131
 20
-56.1353
 30
0.0
 10
29.1935
 20
-36.0172
 30
0.0
 10
29.1935
 20
-36.0172
 30
0.0
 10
29.1935
 20
-36.0172
 30
0.0
 10
29.1935
 20
-36.0172
 30
0.0
 10
37.283
 20
-44.5178
 30
0.0
 10
37.283
 20
-44.5178
 30
0.0
 10
37.283
 20
-44.5178
 30
0.0
 10
37.283
 20
-44.5178
 30
0.0
 10
25.5782
 20
-56.4408
 30
0.0
 10
25.5782
 20
-56.4408
 30
0.0
  0
SPLINE
  5
A8
330
1F
100
AcDbEntity
  8
layer 1
 62
   250
100
AcDbSpline
210
0.0
220
0.0
230
1.0
 70
    11
 71
     3
 72
    20
 73
    16
 74
     0
 42
0.0000000001
 43
0.0000000001
 12
1.0
 22
0.0
 32
0.0
 13
1.0
 23
0.0
 33
0.0
 40
0.0
 40
0.0
 40
0.0
 40
0.0
 40
0.2
 40
0.2
 40
0.2
 40
0.2
 40
0.4
 40
0.4
 40
0.4
 40
0.4
 40
0.6
 40
0.6
 40
0.6
 40
0.6
 40
1.0
 40
1.0
 40
1.0
 40
1.0
 10
7.3032
 20
-53.0031
 30
0.0
 10
7.3032
 20
-53.0031
 30
0.0
 10
7.2429
 20
-36.0435
 30
0.0
 10
7.2429
 20
-36.0435
 30
0.0
 10
7.2429
 20
-36.0435
 30
0.0
 10
7.2429
 20
-36.0435
 30
0.0
 10
18.4355
 20
-24.5207
 30
0.0
 10
18.4355
 20
-24.5207
 30
0.0
 10
18.4355
 20
-24.5207
 30
0.0
 10
18.4355
 20
-24.5207
 30
0.0
 10
26.6544
 20
-33.702
 30
0.0
 10
26.6544
 20
-33.702
 30
0.0
 10
26.6544
 20
-33.702
 30
0.0
 10
26.6544
 20
-33.702
 30
0.0
 10
7.3032
 20
-53.0031
 30
0.0
 10
7.3032
 20
-53.0031
 30
0.0
  0
SPLINE
  5
A9
330
1F
100
AcDbEntity
  8
layer 1
 62
   250
100
AcDbSpline
210
0.0
220
0.0
230
1.0
 70
    11
 71
     3
 72
    20
 73
    16
 74
     0
 42
0.0000000001
 43
0.0000000001
 12
1.0
 22
0.0
 32
0.0
 13
1.0
 23
0.0
 33
0.0
 40
0.0
 40
0.0
 40
0.0
 40
0.0
 40
0.2
 40
0.2
 40
0.2
 40
0.2
 40
0.4
 40
0.4
 40
0.4
 40
0.4
 40
0.6
 40
0.6
 40
0.6
 40
0.6
 40
1.0
 40
1.0
 40
1.0
 40
1.0
 10
64.5411
 20
-51.1794
 30
0.0
 10
64.5411
 20
-51.1794
 30
0.0
 10
64.2804
 20
-21.9916
 30
0.0
 10
64.2804
 20
-21.9916
 30
0.0
 10
64.2804
 20
-21.9916
 30
0.0
 10
64.2804
 20
-21.9916
 30
0.0
 10
58.084
 20
-28.1987
 30
0.0
 10
58.084
 20
-28.1987
 30
0.0
 10
58.084
 20
-28.1987
 30
0.0
 10
58.084
 20
-28.1987
 30
0.0
 10
59.5008
 20
-46.5996
 30
0.0
 10
59.5008
 20
-46.5996
 30
0.0
 10
59.5008
 20
-46.5996
 30
0.0
 10
59.5008
 20
-46.5996
 30
0.0
 10
64.5411
 20
-51.1794
 30
0.0
 10
64.5411
 20
-51.1794
 30
0.0
  0
SPLINE
  5
AA
330
1F
100
AcDbEntity
  8
layer 1
 62
   250
100
AcDbSpline
210
0.0
220
0.0
230
1.0
 70
    11
 71
     3
 72
    16
 73
    12
 74
     0
 42
0.0000000001
 43
0.0000000001
 12
1.0
 22
0.0
 32
0.0
 13
1.0
 23
0.0
 33
0.0
 40
0.0
 40
0.0
 40
0.0
 40
0.0
 40
0.25
 40
0.25
 40
0.25
 40
0.25
 40
0.5
 40
0.5
 40
0.5
 40
0.5
 40
1.0
 40
1.0
 40
1.0
 40
1.0
 10
55.7089
 20
-41.852
 30
0.0
 10
55.7089
 20
-41.852
 30
0.0
 10
54.9122
 20
-31.5186
 30
0.0
 10
54.9122
 20
-31.5186
 30
0.0
 10
54.9122
 20
-31.5186
 30
0.0
 10
54.9122
 20
-31.5186
 30
0.0
 10
50.1065
 20
-36.4356
 30
0.0
 10
50.1065
 20
-36.4356
 30
0.0
 10
50.1065
 20
-36.4356
 30
0.0
 10
50.1065
 20
-36.4356
 30
0.0
 10
55.7089
 20
-41.852
 30
0.0
 10
55.7089
 20
-41.852
 30
0.0
  0
SPLINE
  5
AB
330
1F
100
AcDbEntity
  8
layer 1
 62
   250
100
AcDbSpline
210
0.0
220
0.0
230
1.0
 70
    11
 71
     3
 72
    16
 73
    12
 74
     0
 42
0.0000000001
 43
0.0000000001
 12
1.0
 22
0.0
 32
0.0
 13
1.0
 23
0.0
 33
0.0
 40
0.0
 40
0.0
 40
0.0
 40
0.0
 40
0.25
 40
0.25
 40
0.25
 40
0.25
 40
0.5
 40
0.5
 40
0.5
 40
0.5
 40
1.0
 40
1.0
 40
1.0
 40
1.0
 10
53.4364
 20
-44.8908
 30
0.0
 10
53.4364
 20
-44.8908
 30
0.0
 10
47.8096
 20
-39.0591
 30
0.0
 10
47.8096
 20
-39.0591
 30
0.0
 10
47.8096
 20
-39.0591
 30
0.0
 10
47.8096
 20
-39.0591
 30
0.0
 10
43.2392
 20
-43.2898
 30
0.0
 10
43.2392
 20
-43.2898
 30
0.0
 10
43.2392
 20
-43.2898
 30
0.0
 10
43.2392
 20
-43.2898
 30
0.0
 10
53.4364
 20
-44.8908
 30
0.0
 10
53.4364
 20
-44.8908
 30
0.0
  0
SPLINE
  5
AC
330
1F
100
AcDbEntity
  8
layer 1
 62
   250
100
AcDbSpline
210
0.0
220
0.0
230
1.0
 70
    11
 71
     3
 72
    20
 73
    16
 74
     0
 42
0.0000000001
 43
0.0000000001
 12
1.0
 22
0.0
 32
0.0
 13
1.0
 23
0.0
 33
0.0
 40
0.0
 40
0.0
 40
0.0
 40
0.0
 40
0.2
 40
0.2
 40
0.2
 40
0.2
 40
0.4
 40
0.4
 40
0.4
 40
0.4
 40
0.6
 40
0.6
 40
0.6
 40
0.6
 40
1.0
 40
1.0
 40
1.0
 40
1.0
 10
64.3698
 20
-16.6982
 30
0.0
 10
64.3698
 20
-16.6982
 30
0.0
 10
64.3046
 20
-0.1151
 30
0.0
 10
64.3046
 20
-0.1151
 30
0.0
 10
64.3046
 20
-0.1151
 30
0.0
 10
64.3046
 20
-0.1151
 30
0.0
 10
47.0863
 20
-17.1537
 30
0.0
 10
47.0863
 20
-17.1537
 30
0.0
 10
47.0863
 20
-17.1537
 30
0.0
 10
47.0863
 20
-17.1537
 30
0.0
 10
55.5533
 20
-25.5884
 30
0.0
 10
55.5533
 20
-25.5884
 30
0.0
 10
55.5533
 20
-25.5884
 30
0.0
 10
55.5533
 20
-25.5884
 30
0.0
 10
64.3698
 20
-16.6982
 30
0.0
 10
64.3698
 20
-16.6982
 30
0.0
  0
SPLINE
  5
AD
330
1F
100
AcDbEntity
  8
layer 1
 62
   250
100
AcDbSpline
210
0.0
220
0.0
230
1.0
 70
    11
 71
     3
 72
    20
 73
    16
 74
     0
 42
0.0000000001
 43
0.0000000001
 12
1.0
 22
0.0
 32
0.0
 13
1.0
 23
0.0
 33
0.0
 40
0.0
 40
0.0
 40
0.0
 40
0.0
 40
0.2
 40
0.2
 40
0.2
 40
0.2
 40
0.4
 40
0.4
 40
0.4
 40
0.4
 40
0.6
 40
0.6
 40
0.6
 40
0.6
 40
1.0
 40
1.0
 40
1.0
 40
1.0
 10
53.3106
 20
-28.0733
 30
0.0
 10
53.3106
 20
-28.0733
 30
0.0
 10
45.2501
 20
-19.5799
 30
0.0
 10
45.2501
 20
-19.5799
 30
0.0
 10
45.2501
 20
-19.5799
 30
0.0
 10
45.2501
 20
-19.5799
 30
0.0
 10
39.5382
 20
-25.223
 30
0.0
 10
39.5382
 20
-25.223
 30
0.0
 10
39.5382
 20
-25.223
 30
0.0
 10
39.5382
 20
-25.223
 30
0.0
 10
47.6029
 20
-33.9899
 30
0.0
 10
47.6029
 20
-33.9899
 30
0.0
 10
47.6029
 20
-33.9899
 30
0.0
 10
47.6029
 20
-33.9899
 30
0.0
 10
53.3106
 20
-28.0733
 30
0.0
 10
53.3106
 20
-28.0733
 30
0.0
  0
SPLINE
  5
AE
330
1F
100
AcDbEntity
  8
layer 1
 62
   250
100
AcDbSpline
210
0.0
220
0.0
230
1.0
 70
    11
 71
     3
 72
    20
 73
    16
 74
     0
 42
0.0000000001
 43
0.0000000001
 12
1.0
 22
0.0
 32
0.0
 13
1.0
 23
0.0
 33
0.0
 40
0.0
 40
0.0
 40
0.0
 40
0.0
 40
0.2
 40
0.2
 40
0.2
 40
0.2
 40
0.4
 40
0.4
 40
0.4
 40
0.4
 40
0.6
 40
0.6
 40
0.6
 40
0.6
 40
1.0
 40
1.0
 40
1.0
 40
1.0
 10
45.4869
 20
-36.2452
 30
0.0
 10
45.4869
 20
-36.2452
 30
0.0
 10
37.399
 20
-27.7828
 30
0.0
 10
37.399
 20
-27.7828
 30
0.0
 10
37.399
 20
-27.7828
 30
0.0
 10
37.399
 20
-27.7828
 30
0.0
 10
31.5492
 20
-33.6528
 30
0.0
 10
31.5492
 20
-33.6528
 30
0.0
 10
31.5492
 20
-33.6528
 30
0.0
 10
31.5492
 20
-33.6528
 30
0.0
 10
39.7437
 20
-42.0781
 30
0.0
 10
39.7437
 20
-42.0781
 30
0.0
 10
39.7437
 20
-42.0781
 30
0.0
 10
39.7437
 20
-42.0781
 30
0.0
 10
45.4869
 20
-36.2452
 30
0.0
 10
45.4869
 20
-36.2452
 30
0.0
  0
SPLINE
  5
AF
330
1F
100
AcDbEntity
  8
layer 1
 62
   250
100
AcDbSpline
210
0.0
220
0.0
230
1.0
 70
    11
 71
     3
 72
    20
 73
    16
 74
     0
 42
0.0000000001
 43
0.0000000001
 12
1.0
 22
0.0
 32
0.0
 13
1.0
 23
0.0
 33
0.0
 40
0.0
 40
0.0
 40
0.0
 40
0.0
 40
0.2
 40
0.2
 40
0.2
 40
0.2
 40
0.4
 40
0.4
 40
0.4
 40
0.4
 40
0.6
 40
0.6
 40
0.6
 40
0.6
 40
1.0
 40
1.0
 40
1.0
 40
1.0
 10
42.7605
 20
-17.4134
 30
0.0
 10
42.7605
 20
-17.4134
 30
0.0
 10
34.3433
 20
-8.925
 30
0.0
 10
34.3433
 20
-8.925
 30
0.0
 10
34.3433
 20
-8.925
 30
0.0
 10
34.3433
 20
-8.925
 30
0.0
 10
28.9294
 20
-14.5543
 30
0.0
 10
28.9294
 20
-14.5543
 30
0.0
 10
28.9294
 20
-14.5543
 30
0.0
 10
28.9294
 20
-14.5543
 30
0.0
 10
37.2513
 20
-22.9025
 30
0.0
 10
37.2513
 20
-22.9025
 30
0.0
 10
37.2513
 20
-22.9025
 30
0.0
 10
37.2513
 20
-22.9025
 30
0.0
 10
42.7605
 20
-17.4134
 30
0.0
 10
42.7605
 20
-17.4134
 30
0.0
  0
SPLINE
  5
B0
330
1F
100
AcDbEntity
  8
layer 1
 62
   250
100
AcDbSpline
210
0.0
220
0.0
230
1.0
 70
    11
 71
     3
 72
    20
 73
    16
 74
     0
 42
0.0000000001
 43
0.0000000001
 12
1.0
 22
0.0
 32
0.0
 13
1.0
 23
0.0
 33
0.0
 40
0.0
 40
0.0
 40
0.0
 40
0.0
 40
0.2
 40
0.2
 40
0.2
 40
0.2
 40
0.4
 40
0.4
 40
0.4
 40
0.4
 40
0.6
 40
0.6
 40
0.6
 40
0.6
 40
1.0
 40
1.0
 40
1.0
 40
1.0
 10
34.4424
 20
-25.2876
 30
0.0
 10
34.4424
 20
-25.2876
 30
0.0
 10
26.1959
 20
-16.8814
 30
0.0
 10
26.1959
 20
-16.8814
 30
0.0
 10
26.1959
 20
-16.8814
 30
0.0
 10
26.1959
 20
-16.8814
 30
0.0
 10
20.7055
 20
-22.6337
 30
0.0
 10
20.7055
 20
-22.6337
 30
0.0
 10
20.7055
 20
-22.6337
 30
0.0
 10
20.7055
 20
-22.6337
 30
0.0
 10
29.0938
 20
-31.082
 30
0.0
 10
29.0938
 20
-31.082
 30
0.0
 10
29.0938
 20
-31.082
 30
0.0
 10
29.0938
 20
-31.082
 30
0.0
 10
34.4424
 20
-25.2876
 30
0.0
 10
34.4424
 20
-25.2876
 30
0.0
  0
SPLINE
  5
B1
330
1F
100
AcDbEntity
  8
layer 1
 62
   250
100
AcDbSpline
210
0.0
220
0.0
230
1.0
 70
    11
 71
     3
 72
    20
 73
    16
 74
     0
 42
0.0000000001
 43
0.0000000001
 12
1.0
 22
0.0
 32
0.0
 13
1.0
 23
0.0
 33
0.0
 40
0.0
 40
0.0
 40
0.0
 40
0.0
 40
0.2
 40
0.2
 40
0.2
 40
0.2
 40
0.4
 40
0.4
 40
0.4
 40
0.4
 40
0.6
 40
0.6
 40
0.6
 40
0.6
 40
1.0
 40
1.0
 40
1.0
 40
1.0
 10
7.2373
 20
-31.209
 30
0.0
 10
7.2373
 20
-31.209
 30
0.0
 10
16.1946
 20
-22.5879
 30
0.0
 10
16.1946
 20
-22.5879
 30
0.0
 10
16.1946
 20
-22.5879
 30
0.0
 10
16.1946
 20
-22.5879
 30
0.0
 10
13.7722
 20
-3.8417
 30
0.0
 10
13.7722
 20
-3.8417
 30
0.0
 10
13.7722
 20
-3.8417
 30
0.0
 10
13.7722
 20
-3.8417
 30
0.0
 10
7.1981
 20
2.8977
 30
0.0
 10
7.1981
 20
2.8977
 30
0.0
 10
7.1981
 20
2.8977
 30
0.0
 10
7.1981
 20
2.8977
 30
0.0
 10
7.2373
 20
-31.209
 30
0.0
 10
7.2373
 20
-31.209
 30
0.0
  0
SPLINE
  5
B2
330
1F
100
AcDbEntity
  8
layer 1
 62
   250
100
AcDbSpline
210
0.0
220
0.0
230
1.0
 70
    11
 71
     3
 72
    16
 73
    12
 74
     0
 42
0.0000000001
 43
0.0000000001
 12
1.0
 22
0.0
 32
0.0
 13
1.0
 23
0.0
 33
0.0
 40
0.0
 40
0.0
 40
0.0
 40
0.0
 40
0.25
 40
0.25
 40
0.25
 40
0.25
 40
0.5
 40
0.5
 40
0.5
 40
0.5
 40
1.0
 40
1.0
 40
1.0
 40
1.0
 10
19.2278
 20
-19.0846
 30
0.0
 10
19.2278
 20
-19.0846
 30
0.0
 10
24.0733
 20
-14.4715
 30
0.0
 10
24.0733
 20
-14.4715
 30
0.0
 10
24.0733
 20
-14.4715
 30
0.0
 10
24.0733
 20
-14.4715
 30
0.0
 10
18.2005
 20
-8.509
 30
0.0
 10
18.2005
 20
-8.509
 30
0.0
 10
18.2005
 20
-8.509
 30
0.0
 10
18.2005
 20
-8.509
 30
0.0
 10
19.2278
 20
-19.0846
 30
0.0
 10
19.2278
 20
-19.0846
 30
0.0
  0
SPLINE
  5
B3
330
1F
100
AcDbEntity
  8
layer 1
 62
   250
100
AcDbSpline
210
0.0
220
0.0
230
1.0
 70
    11
 71
     3
 72
    16
 73
    12
 74
     0
 42
0.0000000001
 43
0.0000000001
 12
1.0
 22
0.0
 32
0.0
 13
1.0
 23
0.0
 33
0.0
 40
0.0
 40
0.0
 40
0.0
 40
0.0
 40
0.25
 40
0.25
 40
0.25
 40
0.25
 40
0.5
 40
0.5
 40
0.5
 40
0.5
 40
1.0
 40
1.0
 40
1.0
 40
1.0
 10
26.7623
 20
-12.1632
 30
0.0
 10
26.7623
 20
-12.1632
 30
0.0
 10
30.7409
 20
-7.5944
 30
0.0
 10
30.7409
 20
-7.5944
 30
0.0
 10
30.7409
 20
-7.5944
 30
0.0
 10
30.7409
 20
-7.5944
 30
0.0
 10
20.665
 20
-6.0135
 30
0.0
 10
20.665
 20
-6.0135
 30
0.0
 10
20.665
 20
-6.0135
 30
0.0
 10
20.665
 20
-6.0135
 30
0.0
 10
26.7623
 20
-12.1632
 30
0.0
 10
26.7623
 20
-12.1632
 30
0.0
  0
SPLINE
  5
B4
330
1F
100
AcDbEntity
  8
layer 1
 62
   250
100
AcDbSpline
210
0.0
220
0.0
230
1.0
 70
    11
 71
     3
 72
    24
 73
    20
 74
     0
 42
0.0000000001
 43
0.0000000001
 12
1.0
 22
0.0
 32
0.0
 13
1.0
 23
0.0
 33
0.0
 40
0.0
 40
0.0
 40
0.0
 40
0.0
 40
0.1666666666666667
 40
0.1666666666666667
 40
0.1666666666666667
 40
0.1666666666666667
 40
0.3333333333333333
 40
0.3333333333333333
 40
0.3333333333333333
 40
0.3333333333333333
 40
0.5
 40
0.5
 40
0.5
 40
0.5
 40
0.6666666666666666
 40
0.6666666666666666
 40
0.6666666666666666
 40
0.6666666666666666
 40
1.0
 40
1.0
 40
1.0
 40
1.0
 10
44.8401
 20
-14.6729
 30
0.0
 10
44.8401
 20
-14.6729
 30
0.0
 10
36.6353
 20
-6.3247
 30
0.0
 10
36.6353
 20
-6.3247
 30
0.0
 10
36.6353
 20
-6.3247
 30
0.0
 10
36.6353
 20
-6.3247
 30
0.0
 10
48.2409
 20
5.7113
 30
0.0
 10
48.2409
 20
5.7113
 30
0.0
 10
48.2409
 20
5.7113
 30
0.0
 10
48.2409
 20
5.7113
 30
0.0
 10
63.8285
 20
5.3402
 30
0.0
 10
63.8285
 20
5.3402
 30
0.0
 10
63.8285
 20
5.3402
 30
0.0
 10
63.8285
 20
5.3402
 30
0.0
 10
63.1779
 20
3.9676
 30
0.0
 10
63.1779
 20
3.9676
 30
0.0
 10
63.1779
 20
3.9676
 30
0.0
 10
63.1779
 20
3.9676
 30
0.0
 10
44.8401
 20
-14.6729
 30
0.0
 10
44.8401
 20
-14.6729
 30
0.0
  0
SPLINE
  5
B5
330
1F
100
AcDbEntity
  8
layer 1
 62
   250
100
AcDbSpline
210
0.0
220
0.0
230
1.0
 70
    11
 71
     3
 72
    20
 73
    16
 74
     0
 42
0.0000000001
 43
0.0000000001
 12
1.0
 22
0.0
 32
0.0
 13
1.0
 23
0.0
 33
0.0
 40
0.0
 40
0.0
 40
0.0
 40
0.0
 40
0.2
 40
0.2
 40
0.2
 40
0.2
 40
0.4
 40
0.4
 40
0.4
 40
0.4
 40
0.6
 40
0.6
 40
0.6
 40
0.6
 40
1.0
 40
1.0
 40
1.0
 40
1.0
 10
33.6617
 20
-4.6522
 30
0.0
 10
33.6617
 20
-4.6522
 30
0.0
 10
43.1695
 20
5.3791
 30
0.0
 10
43.1695
 20
5.3791
 30
0.0
 10
43.1695
 20
5.3791
 30
0.0
 10
43.1695
 20
5.3791
 30
0.0
 10
9.3373
 20
5.6426
 30
0.0
 10
9.3373
 20
5.6426
 30
0.0
 10
9.3373
 20
5.6426
 30
0.0
 10
9.3373
 20
5.6426
 30
0.0
 10
16.4773
 20
-1.695
 30
0.0
 10
16.4773
 20
-1.695
 30
0.0
 10
16.4773
 20
-1.695
 30
0.0
 10
16.4773
 20
-1.695
 30
0.0
 10
33.6617
 20
-4.6522
 30
0.0
 10
33.6617
 20
-4.6522
 30
0.0
  0
ENDSEC
  0
SECTION
  2
OBJECTS
  0
DICTIONARY
  5
C
330
0
100
AcDbDictionary
281
     1
  3
ACAD_GROUP
350
D
  3
ACAD_LAYOUT
350
1A
  3
ACAD_MATERIAL
350
3B
  3
ACAD_MLEADERSTYLE
350
D8
  3
ACAD_MLINESTYLE
350
17
  3
ACAD_PLOTSETTINGS
350
19
  3
ACAD_PLOTSTYLENAME
350
E
  3
ACAD_TABLESTYLE
350
D7
  3
ACAD_VISUALSTYLE
350
2A
  0
DICTIONARY
  5
D
102
{ACAD_REACTORS
330
C
102
}
330
C
100
AcDbDictionary
281
     1
  0
DICTIONARY
  5
1A
102
{ACAD_REACTORS
330
C
102
}
330
C
100
AcDbDictionary
281
     1
  3
Layout1
350
1E
  3
Layout2
350
26
  3
Model
350
22
  0
DICTIONARY
  5
3B
102
{ACAD_REACTORS
330
C
102
}
330
C
100
AcDbDictionary
281
     1
  3
ByBlock
350
3D
  3
ByLayer
350
3C
  3
Global
350
3E
  0
DICTIONARY
  5
D8
102
{ACAD_REACTORS
330
C
102
}
330
C
100
AcDbDictionary
281
     1
  0
DICTIONARY
  5
17
102
{ACAD_REACTORS
330
C
102
}
330
C
100
AcDbDictionary
281
     1
  3
Standard
350
18
  0
DICTIONARY
  5
19
102
{ACAD_REACTORS
330
C
102
}
330
C
100
AcDbDictionary
281
     1
  0
ACDBDICTIONARYWDFLT
  5
E
102
{ACAD_REACTORS
330
C
102
}
330
C
100
AcDbDictionary
281
     1
  3
Normal
350
F
100
AcDbDictionaryWithDefault
340
F
  0
DICTIONARY
  5
D7
102
{ACAD_REACTORS
330
C
102
}
330
C
100
AcDbDictionary
281
     1
  0
DICTIONARY
  5
2A
102
{ACAD_REACTORS
330
C
102
}
330
C
100
AcDbDictionary
281
     1
  3
2dWireframe
350
2F
  3
3D Hidden
350
31
  3
3dWireframe
350
30
  3
Basic
350
32
  3
Brighten
350
36
  3
ColorChange
350
3A
  3
Conceptual
350
34
  3
Dim
350
35
  3
Facepattern
350
39
  3
Flat
350
2B
  3
FlatWithEdges
350
2C
  3
Gouraud
350
2D
  3
GouraudWithEdges
350
2E
  3
Linepattern
350
38
  3
Realistic
350
33
  3
Thicken
350
37
  0
LAYOUT
  5
1E
102
{ACAD_REACTORS
330
1A
102
}
330
1A
100
AcDbPlotSettings
  1

  2
none_device
  4

  6

 40
0.0
 41
0.0
 42
0.0
 43
0.0
 44
0.0
 45
0.0
 46
0.0
 47
0.0
 48
0.0
 49
0.0
140
0.0
141
0.0
142
1.0
143
1.0
 70
   688
 72
     0
 73
     0
 74
     5
  7

 75
    16
 76
     0
 77
     2
 78
   300
147
1.0
148
0.0
149
0.0
100
AcDbLayout
  1
Layout1
 70
     1
 71
     1
 10
0.0
 20
0.0
 11
12.0
 21
9.0
 12
0.0
 22
0.0
 32
0.0
 14
1.000000000000000E+20
 24
1.000000000000000E+20
 34
1.000000000000000E+20
 15
-1.000000000000000E+20
 25
-1.000000000000000E+20
 35
-1.000000000000000E+20
146
0.0
 13
0.0
 23
0.0
 33
0.0
 16
1.0
 26
0.0
 36
0.0
 17
0.0
 27
1.0
 37
0.0
 76
     0
330
1B
  0
LAYOUT
  5
26
102
{ACAD_REACTORS
330
1A
102
}
330
1A
100
AcDbPlotSettings
  1

  2
none_device
  4

  6

 40
0.0
 41
0.0
 42
0.0
 43
0.0
 44
0.0
 45
0.0
 46
0.0
 47
0.0
 48
0.0
 49
0.0
140
0.0
141
0.0
142
1.0
143
1.0
 70
   688
 72
     0
 73
     0
 74
     5
  7

 75
    16
 76
     0
 77
     2
 78
   300
147
1.0
148
0.0
149
0.0
100
AcDbLayout
  1
Layout2
 70
     1
 71
     2
 10
0.0
 20
0.0
 11
0.0
 21
0.0
 12
0.0
 22
0.0
 32
0.0
 14
0.0
 24
0.0
 34
0.0
 15
0.0
 25
0.0
 35
0.0
146
0.0
 13
0.0
 23
0.0
 33
0.0
 16
1.0
 26
0.0
 36
0.0
 17
0.0
 27
1.0
 37
0.0
 76
     0
330
23
  0
LAYOUT
  5
22
102
{ACAD_REACTORS
330
1A
102
}
330
1A
100
AcDbPlotSettings
  1

  2
none_device
  4

  6

 40
0.0
 41
0.0
 42
0.0
 43
0.0
 44
0.0
 45
0.0
 46
0.0
 47
0.0
 48
0.0
 49
0.0
140
0.0
141
0.0
142
1.0
143
1.0
 70
  1712
 72
     0
 73
     0
 74
     0
  7

 75
     0
 76
     0
 77
     2
 78
   300
147
1.0
148
0.0
149
0.0
100
AcDbLayout
  1
Model
 70
     1
 71
     0
 10
0.0
 20
0.0
 11
12.0
 21
9.0
 12
0.0
 22
0.0
 32
0.0
 14
-58.2983
 24
-106.3563
 34
0.0
 15
70.2881
 25
121.5359
 35
0.0
146
0.0
 13
0.0
 23
0.0
 33
0.0
 16
1.0
 26
0.0
 36
0.0
 17
0.0
 27
1.0
 37
0.0
 76
     0
330
1F
331
29
  0
MATERIAL
  5
3D
102
{ACAD_REACTORS
330
3B
102
}
330
3B
100
AcDbMaterial
  1
ByBlock
 72
     1
 94
      127
  0
MATERIAL
  5
3C
102
{ACAD_REACTORS
330
3B
102
}
330
3B
100
AcDbMaterial
  1
ByLayer
 72
     1
 94
      127
  0
MATERIAL
  5
3E
102
{ACAD_REACTORS
330
3B
102
}
330
3B
100
AcDbMaterial
  1
Global
 72
     1
 94
      127
  0
MLINESTYLE
  5
18
102
{ACAD_REACTORS
330
17
102
}
330
17
100
AcDbMlineStyle
  2
Standard
 70
     0
  3

 62
   256
 51
90.0
 52
90.0
 71
     2
 49
0.5
 62
   256
  6
BYLAYER
 49
-0.5
 62
   256
  6
BYLAYER
  0
ACDBPLACEHOLDER
  5
F
102
{ACAD_REACTORS
330
E
102
}
330
E
  0
VISUALSTYLE
  5
2F
102
{ACAD_REACTORS
330
2A
102
}
102
{ACAD_XDICTIONARY
360
BF
102
}
330
2A
100
AcDbVisualStyle
  2
2dWireframe
 70
     4
 71
     0
 72
     2
 73
     0
 90
        0
 40
-0.6
 41
-30.0
 62
     5
 63
     7
421
 16777215
 74
     1
 91
        4
 64
     7
 65
   257
 75
     1
175
     1
 42
1.0
 92
        0
 66
   257
 43
1.0
 76
     1
 77
     6
 78
     2
 67
     7
 79
     5
170
     0
171
     0
290
     0
174
     0
 93
        1
 44
0.0
173
     0
291
     0
 45
0.0
  0
VISUALSTYLE
  5
31
102
{ACAD_REACTORS
330
2A
102
}
102
{ACAD_XDICTIONARY
360
C3
102
}
330
2A
100
AcDbVisualStyle
  2
3D Hidden
 70
     6
 71
     1
 72
     2
 73
     2
 90
        0
 40
-0.6
 41
-30.0
 62
     5
 63
     7
421
 16777215
 74
     2
 91
        2
 64
     7
 65
   257
 75
     2
175
     1
 42
40.0
 92
        0
 66
   257
 43
1.0
 76
     1
 77
     6
 78
     2
 67
     7
 79
     3
170
     0
171
     0
290
     0
174
     0
 93
        1
 44
0.0
173
     0
291
     0
 45
0.0
  0
VISUALSTYLE
  5
30
102
{ACAD_REACTORS
330
2A
102
}
102
{ACAD_XDICTIONARY
360
C1
102
}
330
2A
100
AcDbVisualStyle
  2
3dWireframe
 70
     5
 71
     0
 72
     2
 73
     0
 90
        0
 40
-0.6
 41
-30.0
 62
     5
 63
     7
421
 16777215
 74
     1
 91
        4
 64
     7
 65
   257
 75
     1
175
     1
 42
1.0
 92
        0
 66
   257
 43
1.0
 76
     1
 77
     6
 78
     2
 67
     7
 79
     5
170
     0
171
     0
290
     0
174
     0
 93
        1
 44
0.0
173
     0
291
     0
 45
0.0
  0
VISUALSTYLE
  5
32
102
{ACAD_REACTORS
330
2A
102
}
102
{ACAD_XDICTIONARY
360
C5
102
}
330
2A
100
AcDbVisualStyle
  2
Basic
 70
     7
 71
     1
 72
     0
 73
     1
 90
        0
 40
-0.6
 41
-30.0
 62
     5
 63
     7
421
 16777215
 74
     0
 91
        4
 64
     7
 65
   257
 75
     1
175
     1
 42
1.0
 92
        8
 66
     7
 43
1.0
 76
     1
 77
     6
 78
     2
 67
     7
 79
     5
170
     0
171
     0
290
     0
174
     0
 93
        1
 44
0.0
173
     0
291
     1
 45
0.0
  0
VISUALSTYLE
  5
36
102
{ACAD_REACTORS
330
2A
102
}
102
{ACAD_XDICTIONARY
360
CD
102
}
330
2A
100
AcDbVisualStyle
  2
Brighten
 70
    12
 71
     2
 72
     2
 73
     0
 90
        0
 40
-0.6
 41
-30.0
 62
     5
 63
     7
421
 16777215
 74
     1
 91
        4
 64
     7
 65
   257
 75
     1
175
     1
 42
1.0
 92
        8
 66
     7
 43
1.0
 76
     1
 77
     6
 78
     2
 67
     7
 79
     5
170
     0
171
     0
290
     0
174
     0
 93
        1
 44
50.0
173
     0
291
     1
 45
0.0
  0
VISUALSTYLE
  5
3A
102
{ACAD_REACTORS
330
2A
102
}
102
{ACAD_XDICTIONARY
360
D5
102
}
330
2A
100
AcDbVisualStyle
  2
ColorChange
 70
    16
 71
     2
 72
     2
 73
     3
 90
        0
 40
-0.6
 41
-30.0
 62
     5
 63
     8
421
  8421504
 74
     1
 91
        4
 64
     7
 65
   257
 75
     1
175
     1
 42
1.0
 92
        8
 66
     8
424
  8421504
 43
1.0
 76
     1
 77
     6
 78
     2
 67
     7
 79
     5
170
     0
171
     0
290
     0
174
     0
 93
        1
 44
0.0
173
     0
291
     1
 45
0.0
  0
VISUALSTYLE
  5
34
102
{ACAD_REACTORS
330
2A
102
}
102
{ACAD_XDICTIONARY
360
C9
102
}
330
2A
100
AcDbVisualStyle
  2
Conceptual
 70
     9
 71
     3
 72
     2
 73
     0
 90
        0
 40
-0.6
 41
-30.0
 62
     5
 63
     7
421
 16777215
 74
     2
 91
        2
 64
     7
 65
   257
 75
     1
175
     1
 42
40.0
 92
        8
 66
     7
 43
1.0
 76
     1
 77
     6
 78
     2
 67
     7
 79
     3
170
     0
171
     0
290
     0
174
     0
 93
        1
 44
0.0
173
     0
291
     0
 45
0.0
  0
VISUALSTYLE
  5
35
102
{ACAD_REACTORS
330
2A
102
}
102
{ACAD_XDICTIONARY
360
CB
102
}
330
2A
100
AcDbVisualStyle
  2
Dim
 70
    11
 71
     2
 72
     2
 73
     0
 90
        0
 40
-0.6
 41
-30.0
 62
     5
 63
     7
421
 16777215
 74
     1
 91
        4
 64
     7
 65
   257
 75
     1
175
     1
 42
1.0
 92
        8
 66
     7
 43
1.0
 76
     1
 77
     6
 78
     2
 67
     7
 79
     5
170
     0
171
     0
290
     0
174
     0
 93
        1
 44
-50.0
173
     0
291
     1
 45
0.0
  0
VISUALSTYLE
  5
39
102
{ACAD_REACTORS
330
2A
102
}
102
{ACAD_XDICTIONARY
360
D3
102
}
330
2A
100
AcDbVisualStyle
  2
Facepattern
 70
    15
 71
     2
 72
     2
 73
     0
 90
        0
 40
-0.6
 41
-30.0
 62
     5
 63
     7
421
 16777215
 74
     1
 91
        4
 64
     7
 65
   257
 75
     1
175
     1
 42
1.0
 92
        8
 66
     7
 43
1.0
 76
     1
 77
     6
 78
     2
 67
     7
 79
     5
170
     0
171
     0
290
     0
174
     0
 93
        1
 44
0.0
173
     0
291
     1
 45
0.0
  0
VISUALSTYLE
  5
2B
102
{ACAD_REACTORS
330
2A
102
}
102
{ACAD_XDICTIONARY
360
B7
102
}
330
2A
100
AcDbVisualStyle
  2
Flat
 70
     0
 71
     2
 72
     1
 73
     1
 90
        2
 40
-0.6
 41
30.0
 62
     5
 63
     7
421
 16777215
 74
     0
 91
        4
 64
     7
 65
   257
 75
     1
175
     1
 42
1.0
 92
        8
 66
     7
 43
1.0
 76
     1
 77
     6
 78
     2
 67
     7
 79
     5
170
     0
171
     0
290
     0
174
     0
 93
       13
 44
0.0
173
     0
291
     1
 45
0.0
  0
VISUALSTYLE
  5
2C
102
{ACAD_REACTORS
330
2A
102
}
102
{ACAD_XDICTIONARY
360
B9
102
}
330
2A
100
AcDbVisualStyle
  2
FlatWithEdges
 70
     1
 71
     2
 72
     1
 73
     1
 90
        2
 40
-0.6
 41
30.0
 62
     5
 63
     7
421
 16777215
 74
     1
 91
        4
 64
     7
 65
   257
 75
     1
175
     1
 42
1.0
 92
        0
 66
   257
 43
1.0
 76
     1
 77
     6
 78
     2
 67
     7
 79
     5
170
     0
171
     0
290
     0
174
     0
 93
       13
 44
0.0
173
     0
291
     1
 45
0.0
  0
VISUALSTYLE
  5
2D
102
{ACAD_REACTORS
330
2A
102
}
102
{ACAD_XDICTIONARY
360
BB
102
}
330
2A
100
AcDbVisualStyle
  2
Gouraud
 70
     2
 71
     2
 72
     2
 73
     1
 90
        2
 40
-0.6
 41
30.0
 62
     5
 63
     7
421
 16777215
 74
     0
 91
        4
 64
     7
 65
   257
 75
     1
175
     1
 42
1.0
 92
        0
 66
     7
 43
1.0
 76
     1
 77
     6
 78
     2
 67
     7
 79
     5
170
     0
171
     0
290
     0
174
     0
 93
       13
 44
0.0
173
     0
291
     1
 45
0.0
  0
VISUALSTYLE
  5
2E
102
{ACAD_REACTORS
330
2A
102
}
102
{ACAD_XDICTIONARY
360
BD
102
}
330
2A
100
AcDbVisualStyle
  2
GouraudWithEdges
 70
     3
 71
     2
 72
     2
 73
     1
 90
        2
 40
-0.6
 41
30.0
 62
     5
 63
     7
421
 16777215
 74
     1
 91
        4
 64
     7
 65
   257
 75
     1
175
     1
 42
1.0
 92
        0
 66
   257
 43
1.0
 76
     1
 77
     6
 78
     2
 67
     7
 79
     5
170
     0
171
     0
290
     0
174
     0
 93
       13
 44
0.0
173
     0
291
     1
 45
0.0
  0
VISUALSTYLE
  5
38
102
{ACAD_REACTORS
330
2A
102
}
102
{ACAD_XDICTIONARY
360
D1
102
}
330
2A
100
AcDbVisualStyle
  2
Linepattern
 70
    14
 71
     2
 72
     2
 73
     0
 90
        0
 40
-0.6
 41
-30.0
 62
     5
 63
     7
421
 16777215
 74
     1
 91
        4
 64
     7
 65
   257
 75
     7
175
     7
 42
1.0
 92
        8
 66
     7
 43
1.0
 76
     1
 77
     6
 78
     2
 67
     7
 79
     5
170
     0
171
     0
290
     0
174
     0
 93
        1
 44
0.0
173
     0
291
     1
 45
0.0
  0
VISUALSTYLE
  5
33
102
{ACAD_REACTORS
330
2A
102
}
102
{ACAD_XDICTIONARY
360
C7
102
}
330
2A
100
AcDbVisualStyle
  2
Realistic
 70
     8
 71
     2
 72
     2
 73
     0
 90
        0
 40
-0.6
 41
-30.0
 62
     5
 63
     7
421
 16777215
 74
     1
 91
        0
 64
     7
 65
   257
 75
     1
175
     1
 42
1.0
 92
        8
 66
     8
424
  7895160
 43
1.0
 76
     1
 77
     6
 78
     2
 67
     7
 79
     5
170
     0
171
     0
290
     0
174
     0
 93
       13
 44
0.0
173
     0
291
     0
 45
0.0
  0
VISUALSTYLE
  5
37
102
{ACAD_REACTORS
330
2A
102
}
102
{ACAD_XDICTIONARY
360
CF
102
}
330
2A
100
AcDbVisualStyle
  2
Thicken
 70
    13
 71
     2
 72
     2
 73
     0
 90
        0
 40
-0.6
 41
-30.0
 62
     5
 63
     7
421
 16777215
 74
     1
 91
        4
 64
     7
 65
   257
 75
     1
175
     1
 42
1.0
 92
       12
 66
     7
 43
1.0
 76
     1
 77
     6
 78
     2
 67
     7
 79
     5
170
     0
171
     0
290
     0
174
     0
 93
        1
 44
0.0
173
     0
291
     1
 45
0.0
  0
DICTIONARY
  5
BF
330
2F
100
AcDbDictionary
280
     1
281
     1
  3
ACAD_XREC_ROUNDTRIP
360
C0
  0
DICTIONARY
  5
C3
330
31
100
AcDbDictionary
280
     1
281
     1
  3
ACAD_XREC_ROUNDTRIP
360
C4
  0
DICTIONARY
  5
C1
330
30
100
AcDbDictionary
280
     1
281
     1
  3
ACAD_XREC_ROUNDTRIP
360
C2
  0
DICTIONARY
  5
C5
330
32
100
AcDbDictionary
280
     1
281
     1
  3
ACAD_XREC_ROUNDTRIP
360
C6
  0
DICTIONARY
  5
CD
330
36
100
AcDbDictionary
280
     1
281
     1
  3
ACAD_XREC_ROUNDTRIP
360
CE
  0
DICTIONARY
  5
D5
330
3A
100
AcDbDictionary
280
     1
281
     1
  3
ACAD_XREC_ROUNDTRIP
360
D6
  0
DICTIONARY
  5
C9
330
34
100
AcDbDictionary
280
     1
281
     1
  3
ACAD_XREC_ROUNDTRIP
360
CA
  0
DICTIONARY
  5
CB
330
35
100
AcDbDictionary
280
     1
281
     1
  3
ACAD_XREC_ROUNDTRIP
360
CC
  0
DICTIONARY
  5
D3
330
39
100
AcDbDictionary
280
     1
281
     1
  3
ACAD_XREC_ROUNDTRIP
360
D4
  0
DICTIONARY
  5
B7
330
2B
100
AcDbDictionary
280
     1
281
     1
  3
ACAD_XREC_ROUNDTRIP
360
B8
  0
DICTIONARY
  5
B9
330
2C
100
AcDbDictionary
280
     1
281
     1
  3
ACAD_XREC_ROUNDTRIP
360
BA
  0
DICTIONARY
  5
BB
330
2D
100
AcDbDictionary
280
     1
281
     1
  3
ACAD_XREC_ROUNDTRIP
360
BC
  0
DICTIONARY
  5
BD
330
2E
100
AcDbDictionary
280
     1
281
     1
  3
ACAD_XREC_ROUNDTRIP
360
BE
  0
DICTIONARY
  5
D1
330
38
100
AcDbDictionary
280
     1
281
     1
  3
ACAD_XREC_ROUNDTRIP
360
D2
  0
DICTIONARY
  5
C7
330
33
100
AcDbDictionary
280
     1
281
     1
  3
ACAD_XREC_ROUNDTRIP
360
C8
  0
DICTIONARY
  5
CF
330
37
100
AcDbDictionary
280
     1
281
     1
  3
ACAD_XREC_ROUNDTRIP
360
D0
  0
XRECORD
  5
C0
102
{ACAD_REACTORS
330
BF
102
}
330
BF
100
AcDbXrecord
280
     1
102
RTVSPropertyOp0
 70
     1
102
RTVSPropertyOp1
 70
     1
102
RTVSPropertyOp2
 70
     1
102
RTVSPropertyOp3
 70
     1
102
RTVSPropertyOp4
 70
     1
102
RTVSPropertyOp5
 70
     1
102
RTVSPropertyOp6
 70
     1
102
RTVSPropertyOp7
 70
     1
102
RTVSPropertyOp8
 70
     1
102
RTVSPropertyOp9
 70
     1
102
RTVSPropertyOp10
 70
     1
102
RTVSPropertyOp11
 70
     1
102
RTVSPropertyOp12
 70
     1
102
RTVSPropertyOp13
 70
     1
102
RTVSPropertyOp14
 70
     1
102
RTVSPropertyOp15
 70
     1
102
RTVSPropertyOp16
 70
     1
102
RTVSPropertyOp17
 70
     1
102
RTVSPropertyOp18
 70
     1
102
RTVSPropertyOp19
 70
     1
102
RTVSPropertyOp20
 70
     1
102
RTVSPropertyOp21
 70
     1
102
RTVSPropertyOp22
 70
     1
102
RTVSPropertyOp23
 70
     1
102
RTVSPropertyOp24
 70
     1
102
RTVSPropertyOp25
 70
     1
102
RTVSPropertyOp26
 70
     1
102
RTVSPropertyOp27
 70
     1
102
RTVSPropertyOp28
 70
     1
102
RTVSPropertyOp29
 70
     1
102
RTVSPropertyOp30
 70
     1
102
RTVSPropertyOp31
 70
     1
102
RTVSPropertyOp32
 70
     1
  0
XRECORD
  5
C4
102
{ACAD_REACTORS
330
C3
102
}
330
C3
100
AcDbXrecord
280
     1
102
RTVSPropertyOp0
 70
     1
102
RTVSPropertyOp1
 70
     1
102
RTVSPropertyOp2
 70
     1
102
RTVSPropertyOp3
 70
     1
102
RTVSPropertyOp4
 70
     1
102
RTVSPropertyOp5
 70
     1
102
RTVSPropertyOp6
 70
     1
102
RTVSPropertyOp7
 70
     1
102
RTVSPropertyOp8
 70
     1
102
RTVSPropertyOp9
 70
     1
102
RTVSPropertyOp10
 70
     1
102
RTVSPropertyOp11
 70
     1
102
RTVSPropertyOp12
 70
     1
102
RTVSPropertyOp13
 70
     1
102
RTVSPropertyOp14
 70
     1
102
RTVSPropertyOp15
 70
     1
102
RTVSPropertyOp16
 70
     1
102
RTVSPropertyOp17
 70
     1
102
RTVSPropertyOp18
 70
     1
102
RTVSPropertyOp19
 70
     1
102
RTVSPropertyOp20
 70
     1
102
RTVSPropertyOp21
 70
     1
102
RTVSPropertyOp22
 70
     1
102
RTVSPropertyOp23
 70
     1
102
RTVSPropertyOp24
 70
     1
102
RTVSPropertyOp25
 70
     1
102
RTVSPropertyOp26
 70
     1
102
RTVSPropertyOp27
 70
     1
102
RTVSPropertyOp28
 70
     1
102
RTVSPropertyOp29
 70
     1
102
RTVSPropertyOp30
 70
     1
102
RTVSPropertyOp31
 70
     1
102
RTVSPropertyOp32
 70
     1
  0
XRECORD
  5
C2
102
{ACAD_REACTORS
330
C1
102
}
330
C1
100
AcDbXrecord
280
     1
102
RTVSPropertyOp0
 70
     1
102
RTVSPropertyOp1
 70
     1
102
RTVSPropertyOp2
 70
     1
102
RTVSPropertyOp3
 70
     1
102
RTVSPropertyOp4
 70
     1
102
RTVSPropertyOp5
 70
     1
102
RTVSPropertyOp6
 70
     1
102
RTVSPropertyOp7
 70
     1
102
RTVSPropertyOp8
 70
     1
102
RTVSPropertyOp9
 70
     1
102
RTVSPropertyOp10
 70
     1
102
RTVSPropertyOp11
 70
     1
102
RTVSPropertyOp12
 70
     1
102
RTVSPropertyOp13
 70
     1
102
RTVSPropertyOp14
 70
     1
102
RTVSPropertyOp15
 70
     1
102
RTVSPropertyOp16
 70
     1
102
RTVSPropertyOp17
 70
     1
102
RTVSPropertyOp18
 70
     1
102
RTVSPropertyOp19
 70
     1
102
RTVSPropertyOp20
 70
     1
102
RTVSPropertyOp21
 70
     1
102
RTVSPropertyOp22
 70
     1
102
RTVSPropertyOp23
 70
     1
102
RTVSPropertyOp24
 70
     1
102
RTVSPropertyOp25
 70
     1
102
RTVSPropertyOp26
 70
     1
102
RTVSPropertyOp27
 70
     1
102
RTVSPropertyOp28
 70
     1
102
RTVSPropertyOp29
 70
     1
102
RTVSPropertyOp30
 70
     1
102
RTVSPropertyOp31
 70
     1
102
RTVSPropertyOp32
 70
     1
  0
XRECORD
  5
C6
102
{ACAD_REACTORS
330
C5
102
}
330
C5
100
AcDbXrecord
280
     1
102
RTVSPropertyOp0
 70
     1
102
RTVSPropertyOp1
 70
     1
102
RTVSPropertyOp2
 70
     1
102
RTVSPropertyOp3
 70
     1
102
RTVSPropertyOp4
 70
     1
102
RTVSPropertyOp5
 70
     1
102
RTVSPropertyOp6
 70
     1
102
RTVSPropertyOp7
 70
     1
102
RTVSPropertyOp8
 70
     1
102
RTVSPropertyOp9
 70
     1
102
RTVSPropertyOp10
 70
     1
102
RTVSPropertyOp11
 70
     1
102
RTVSPropertyOp12
 70
     1
102
RTVSPropertyOp13
 70
     1
102
RTVSPropertyOp14
 70
     1
102
RTVSPropertyOp15
 70
     1
102
RTVSPropertyOp16
 70
     1
102
RTVSPropertyOp17
 70
     1
102
RTVSPropertyOp18
 70
     1
102
RTVSPropertyOp19
 70
     1
102
RTVSPropertyOp20
 70
     1
102
RTVSPropertyOp21
 70
     1
102
RTVSPropertyOp22
 70
     1
102
RTVSPropertyOp23
 70
     1
102
RTVSPropertyOp24
 70
     1
102
RTVSPropertyOp25
 70
     1
102
RTVSPropertyOp26
 70
     1
102
RTVSPropertyOp27
 70
     1
102
RTVSPropertyOp28
 70
     1
102
RTVSPropertyOp29
 70
     1
102
RTVSPropertyOp30
 70
     1
102
RTVSPropertyOp31
 70
     1
102
RTVSPropertyOp32
 70
     1
  0
XRECORD
  5
CE
102
{ACAD_REACTORS
330
CD
102
}
330
CD
100
AcDbXrecord
280
     1
102
RTVSPropertyOp0
 70
     1
102
RTVSPropertyOp1
 70
     1
102
RTVSPropertyOp2
 70
     1
102
RTVSPropertyOp3
 70
     1
102
RTVSPropertyOp4
 70
     1
102
RTVSPropertyOp5
 70
     1
102
RTVSPropertyOp6
 70
     1
102
RTVSPropertyOp7
 70
     1
102
RTVSPropertyOp8
 70
     1
102
RTVSPropertyOp9
 70
     1
102
RTVSPropertyOp10
 70
     1
102
RTVSPropertyOp11
 70
     1
102
RTVSPropertyOp12
 70
     1
102
RTVSPropertyOp13
 70
     1
102
RTVSPropertyOp14
 70
     1
102
RTVSPropertyOp15
 70
     1
102
RTVSPropertyOp16
 70
     1
102
RTVSPropertyOp17
 70
     1
102
RTVSPropertyOp18
 70
     1
102
RTVSPropertyOp19
 70
     1
102
RTVSPropertyOp20
 70
     1
102
RTVSPropertyOp21
 70
     1
102
RTVSPropertyOp22
 70
     1
102
RTVSPropertyOp23
 70
     1
102
RTVSPropertyOp24
 70
     1
102
RTVSPropertyOp25
 70
     1
102
RTVSPropertyOp26
 70
     1
102
RTVSPropertyOp27
 70
     1
102
RTVSPropertyOp28
 70
     1
102
RTVSPropertyOp29
 70
     1
102
RTVSPropertyOp30
 70
     1
102
RTVSPropertyOp31
 70
     1
102
RTVSPropertyOp32
 70
     1
  0
XRECORD
  5
D6
102
{ACAD_REACTORS
330
D5
102
}
330
D5
100
AcDbXrecord
280
     1
102
RTVSPropertyOp0
 70
     1
102
RTVSPropertyOp1
 70
     1
102
RTVSPropertyOp2
 70
     1
102
RTVSPropertyOp3
 70
     1
102
RTVSPropertyOp4
 70
     1
102
RTVSPropertyOp5
 70
     1
102
RTVSPropertyOp6
 70
     1
102
RTVSPropertyOp7
 70
     1
102
RTVSPropertyOp8
 70
     1
102
RTVSPropertyOp9
 70
     1
102
RTVSPropertyOp10
 70
     1
102
RTVSPropertyOp11
 70
     1
102
RTVSPropertyOp12
 70
     1
102
RTVSPropertyOp13
 70
     1
102
RTVSPropertyOp14
 70
     1
102
RTVSPropertyOp15
 70
     1
102
RTVSPropertyOp16
 70
     1
102
RTVSPropertyOp17
 70
     1
102
RTVSPropertyOp18
 70
     1
102
RTVSPropertyOp19
 70
     1
102
RTVSPropertyOp20
 70
     1
102
RTVSPropertyOp21
 70
     1
102
RTVSPropertyOp22
 70
     1
102
RTVSPropertyOp23
 70
     1
102
RTVSPropertyOp24
 70
     1
102
RTVSPropertyOp25
 70
     1
102
RTVSPropertyOp26
 70
     1
102
RTVSPropertyOp27
 70
     1
102
RTVSPropertyOp28
 70
     1
102
RTVSPropertyOp29
 70
     1
102
RTVSPropertyOp30
 70
     1
102
RTVSPropertyOp31
 70
     1
102
RTVSPropertyOp32
 70
     1
  0
XRECORD
  5
CA
102
{ACAD_REACTORS
330
C9
102
}
330
C9
100
AcDbXrecord
280
     1
102
RTVSPropertyOp0
 70
     1
102
RTVSPropertyOp1
 70
     1
102
RTVSPropertyOp2
 70
     1
102
RTVSPropertyOp3
 70
     1
102
RTVSPropertyOp4
 70
     1
102
RTVSPropertyOp5
 70
     1
102
RTVSPropertyOp6
 70
     1
102
RTVSPropertyOp7
 70
     1
102
RTVSPropertyOp8
 70
     1
102
RTVSPropertyOp9
 70
     1
102
RTVSPropertyOp10
 70
     1
102
RTVSPropertyOp11
 70
     1
102
RTVSPropertyOp12
 70
     1
102
RTVSPropertyOp13
 70
     1
102
RTVSPropertyOp14
 70
     1
102
RTVSPropertyOp15
 70
     1
102
RTVSPropertyOp16
 70
     1
102
RTVSPropertyOp17
 70
     1
102
RTVSPropertyOp18
 70
     1
102
RTVSPropertyOp19
 70
     1
102
RTVSPropertyOp20
 70
     1
102
RTVSPropertyOp21
 70
     1
102
RTVSPropertyOp22
 70
     1
102
RTVSPropertyOp23
 70
     1
102
RTVSPropertyOp24
 70
     1
102
RTVSPropertyOp25
 70
     1
102
RTVSPropertyOp26
 70
     1
102
RTVSPropertyOp27
 70
     1
102
RTVSPropertyOp28
 70
     1
102
RTVSPropertyOp29
 70
     1
102
RTVSPropertyOp30
 70
     1
102
RTVSPropertyOp31
 70
     1
102
RTVSPropertyOp32
 70
     1
  0
XRECORD
  5
CC
102
{ACAD_REACTORS
330
CB
102
}
330
CB
100
AcDbXrecord
280
     1
102
RTVSPropertyOp0
 70
     1
102
RTVSPropertyOp1
 70
     1
102
RTVSPropertyOp2
 70
     1
102
RTVSPropertyOp3
 70
     1
102
RTVSPropertyOp4
 70
     1
102
RTVSPropertyOp5
 70
     1
102
RTVSPropertyOp6
 70
     1
102
RTVSPropertyOp7
 70
     1
102
RTVSPropertyOp8
 70
     1
102
RTVSPropertyOp9
 70
     1
102
RTVSPropertyOp10
 70
     1
102
RTVSPropertyOp11
 70
     1
102
RTVSPropertyOp12
 70
     1
102
RTVSPropertyOp13
 70
     1
102
RTVSPropertyOp14
 70
     1
102
RTVSPropertyOp15
 70
     1
102
RTVSPropertyOp16
 70
     1
102
RTVSPropertyOp17
 70
     1
102
RTVSPropertyOp18
 70
     1
102
RTVSPropertyOp19
 70
     1
102
RTVSPropertyOp20
 70
     1
102
RTVSPropertyOp21
 70
     1
102
RTVSPropertyOp22
 70
     1
102
RTVSPropertyOp23
 70
     1
102
RTVSPropertyOp24
 70
     1
102
RTVSPropertyOp25
 70
     1
102
RTVSPropertyOp26
 70
     1
102
RTVSPropertyOp27
 70
     1
102
RTVSPropertyOp28
 70
     1
102
RTVSPropertyOp29
 70
     1
102
RTVSPropertyOp30
 70
     1
102
RTVSPropertyOp31
 70
     1
102
RTVSPropertyOp32
 70
     1
  0
XRECORD
  5
D4
102
{ACAD_REACTORS
330
D3
102
}
330
D3
100
AcDbXrecord
280
     1
102
RTVSPropertyOp0
 70
     1
102
RTVSPropertyOp1
 70
     1
102
RTVSPropertyOp2
 70
     1
102
RTVSPropertyOp3
 70
     1
102
RTVSPropertyOp4
 70
     1
102
RTVSPropertyOp5
 70
     1
102
RTVSPropertyOp6
 70
     1
102
RTVSPropertyOp7
 70
     1
102
RTVSPropertyOp8
 70
     1
102
RTVSPropertyOp9
 70
     1
102
RTVSPropertyOp10
 70
     1
102
RTVSPropertyOp11
 70
     1
102
RTVSPropertyOp12
 70
     1
102
RTVSPropertyOp13
 70
     1
102
RTVSPropertyOp14
 70
     1
102
RTVSPropertyOp15
 70
     1
102
RTVSPropertyOp16
 70
     1
102
RTVSPropertyOp17
 70
     1
102
RTVSPropertyOp18
 70
     1
102
RTVSPropertyOp19
 70
     1
102
RTVSPropertyOp20
 70
     1
102
RTVSPropertyOp21
 70
     1
102
RTVSPropertyOp22
 70
     1
102
RTVSPropertyOp23
 70
     1
102
RTVSPropertyOp24
 70
     1
102
RTVSPropertyOp25
 70
     1
102
RTVSPropertyOp26
 70
     1
102
RTVSPropertyOp27
 70
     1
102
RTVSPropertyOp28
 70
     1
102
RTVSPropertyOp29
 70
     1
102
RTVSPropertyOp30
 70
     1
102
RTVSPropertyOp31
 70
     1
102
RTVSPropertyOp32
 70
     1
  0
XRECORD
  5
B8
102
{ACAD_REACTORS
330
B7
102
}
330
B7
100
AcDbXrecord
280
     1
102
RTVSPropertyOp0
 70
     1
102
RTVSPropertyOp1
 70
     1
102
RTVSPropertyOp2
 70
     1
102
RTVSPropertyOp3
 70
     1
102
RTVSPropertyOp4
 70
     1
102
RTVSPropertyOp5
 70
     1
102
RTVSPropertyOp6
 70
     1
102
RTVSPropertyOp7
 70
     1
102
RTVSPropertyOp8
 70
     1
102
RTVSPropertyOp9
 70
     1
102
RTVSPropertyOp10
 70
     1
102
RTVSPropertyOp11
 70
     1
102
RTVSPropertyOp12
 70
     1
102
RTVSPropertyOp13
 70
     1
102
RTVSPropertyOp14
 70
     1
102
RTVSPropertyOp15
 70
     1
102
RTVSPropertyOp16
 70
     1
102
RTVSPropertyOp17
 70
     1
102
RTVSPropertyOp18
 70
     1
102
RTVSPropertyOp19
 70
     1
102
RTVSPropertyOp20
 70
     1
102
RTVSPropertyOp21
 70
     1
102
RTVSPropertyOp22
 70
     1
102
RTVSPropertyOp23
 70
     1
102
RTVSPropertyOp24
 70
     1
102
RTVSPropertyOp25
 70
     1
102
RTVSPropertyOp26
 70
     1
102
RTVSPropertyOp27
 70
     1
102
RTVSPropertyOp28
 70
     1
102
RTVSPropertyOp29
 70
     1
102
RTVSPropertyOp30
 70
     1
102
RTVSPropertyOp31
 70
     1
102
RTVSPropertyOp32
 70
     1
  0
XRECORD
  5
BA
102
{ACAD_REACTORS
330
B9
102
}
330
B9
100
AcDbXrecord
280
     1
102
RTVSPropertyOp0
 70
     1
102
RTVSPropertyOp1
 70
     1
102
RTVSPropertyOp2
 70
     1
102
RTVSPropertyOp3
 70
     1
102
RTVSPropertyOp4
 70
     1
102
RTVSPropertyOp5
 70
     1
102
RTVSPropertyOp6
 70
     1
102
RTVSPropertyOp7
 70
     1
102
RTVSPropertyOp8
 70
     1
102
RTVSPropertyOp9
 70
     1
102
RTVSPropertyOp10
 70
     1
102
RTVSPropertyOp11
 70
     1
102
RTVSPropertyOp12
 70
     1
102
RTVSPropertyOp13
 70
     1
102
RTVSPropertyOp14
 70
     1
102
RTVSPropertyOp15
 70
     1
102
RTVSPropertyOp16
 70
     1
102
RTVSPropertyOp17
 70
     1
102
RTVSPropertyOp18
 70
     1
102
RTVSPropertyOp19
 70
     1
102
RTVSPropertyOp20
 70
     1
102
RTVSPropertyOp21
 70
     1
102
RTVSPropertyOp22
 70
     1
102
RTVSPropertyOp23
 70
     1
102
RTVSPropertyOp24
 70
     1
102
RTVSPropertyOp25
 70
     1
102
RTVSPropertyOp26
 70
     1
102
RTVSPropertyOp27
 70
     1
102
RTVSPropertyOp28
 70
     1
102
RTVSPropertyOp29
 70
     1
102
RTVSPropertyOp30
 70
     1
102
RTVSPropertyOp31
 70
     1
102
RTVSPropertyOp32
 70
     1
  0
XRECORD
  5
BC
102
{ACAD_REACTORS
330
BB
102
}
330
BB
100
AcDbXrecord
280
     1
102
RTVSPropertyOp0
 70
     1
102
RTVSPropertyOp1
 70
     1
102
RTVSPropertyOp2
 70
     1
102
RTVSPropertyOp3
 70
     1
102
RTVSPropertyOp4
 70
     1
102
RTVSPropertyOp5
 70
     1
102
RTVSPropertyOp6
 70
     1
102
RTVSPropertyOp7
 70
     1
102
RTVSPropertyOp8
 70
     1
102
RTVSPropertyOp9
 70
     1
102
RTVSPropertyOp10
 70
     1
102
RTVSPropertyOp11
 70
     1
102
RTVSPropertyOp12
 70
     1
102
RTVSPropertyOp13
 70
     1
102
RTVSPropertyOp14
 70
     1
102
RTVSPropertyOp15
 70
     1
102
RTVSPropertyOp16
 70
     1
102
RTVSPropertyOp17
 70
     1
102
RTVSPropertyOp18
 70
     1
102
RTVSPropertyOp19
 70
     1
102
RTVSPropertyOp20
 70
     1
102
RTVSPropertyOp21
 70
     1
102
RTVSPropertyOp22
 70
     1
102
RTVSPropertyOp23
 70
     1
102
RTVSPropertyOp24
 70
     1
102
RTVSPropertyOp25
 70
     1
102
RTVSPropertyOp26
 70
     1
102
RTVSPropertyOp27
 70
     1
102
RTVSPropertyOp28
 70
     1
102
RTVSPropertyOp29
 70
     1
102
RTVSPropertyOp30
 70
     1
102
RTVSPropertyOp31
 70
     1
102
RTVSPropertyOp32
 70
     1
  0
XRECORD
  5
BE
102
{ACAD_REACTORS
330
BD
102
}
330
BD
100
AcDbXrecord
280
     1
102
RTVSPropertyOp0
 70
     1
102
RTVSPropertyOp1
 70
     1
102
RTVSPropertyOp2
 70
     1
102
RTVSPropertyOp3
 70
     1
102
RTVSPropertyOp4
 70
     1
102
RTVSPropertyOp5
 70
     1
102
RTVSPropertyOp6
 70
     1
102
RTVSPropertyOp7
 70
     1
102
RTVSPropertyOp8
 70
     1
102
RTVSPropertyOp9
 70
     1
102
RTVSPropertyOp10
 70
     1
102
RTVSPropertyOp11
 70
     1
102
RTVSPropertyOp12
 70
     1
102
RTVSPropertyOp13
 70
     1
102
RTVSPropertyOp14
 70
     1
102
RTVSPropertyOp15
 70
     1
102
RTVSPropertyOp16
 70
     1
102
RTVSPropertyOp17
 70
     1
102
RTVSPropertyOp18
 70
     1
102
RTVSPropertyOp19
 70
     1
102
RTVSPropertyOp20
 70
     1
102
RTVSPropertyOp21
 70
     1
102
RTVSPropertyOp22
 70
     1
102
RTVSPropertyOp23
 70
     1
102
RTVSPropertyOp24
 70
     1
102
RTVSPropertyOp25
 70
     1
102
RTVSPropertyOp26
 70
     1
102
RTVSPropertyOp27
 70
     1
102
RTVSPropertyOp28
 70
     1
102
RTVSPropertyOp29
 70
     1
102
RTVSPropertyOp30
 70
     1
102
RTVSPropertyOp31
 70
     1
102
RTVSPropertyOp32
 70
     1
  0
XRECORD
  5
D2
102
{ACAD_REACTORS
330
D1
102
}
330
D1
100
AcDbXrecord
280
     1
102
RTVSPropertyOp0
 70
     1
102
RTVSPropertyOp1
 70
     1
102
RTVSPropertyOp2
 70
     1
102
RTVSPropertyOp3
 70
     1
102
RTVSPropertyOp4
 70
     1
102
RTVSPropertyOp5
 70
     1
102
RTVSPropertyOp6
 70
     1
102
RTVSPropertyOp7
 70
     1
102
RTVSPropertyOp8
 70
     1
102
RTVSPropertyOp9
 70
     1
102
RTVSPropertyOp10
 70
     1
102
RTVSPropertyOp11
 70
     1
102
RTVSPropertyOp12
 70
     1
102
RTVSPropertyOp13
 70
     1
102
RTVSPropertyOp14
 70
     1
102
RTVSPropertyOp15
 70
     1
102
RTVSPropertyOp16
 70
     1
102
RTVSPropertyOp17
 70
     1
102
RTVSPropertyOp18
 70
     1
102
RTVSPropertyOp19
 70
     1
102
RTVSPropertyOp20
 70
     1
102
RTVSPropertyOp21
 70
     1
102
RTVSPropertyOp22
 70
     1
102
RTVSPropertyOp23
 70
     1
102
RTVSPropertyOp24
 70
     1
102
RTVSPropertyOp25
 70
     1
102
RTVSPropertyOp26
 70
     1
102
RTVSPropertyOp27
 70
     1
102
RTVSPropertyOp28
 70
     1
102
RTVSPropertyOp29
 70
     1
102
RTVSPropertyOp30
 70
     1
102
RTVSPropertyOp31
 70
     1
102
RTVSPropertyOp32
 70
     1
  0
XRECORD
  5
C8
102
{ACAD_REACTORS
330
C7
102
}
330
C7
100
AcDbXrecord
280
     1
102
RTVSPropertyOp0
 70
     1
102
RTVSPropertyOp1
 70
     1
102
RTVSPropertyOp2
 70
     1
102
RTVSPropertyOp3
 70
     1
102
RTVSPropertyOp4
 70
     1
102
RTVSPropertyOp5
 70
     1
102
RTVSPropertyOp6
 70
     1
102
RTVSPropertyOp7
 70
     1
102
RTVSPropertyOp8
 70
     1
102
RTVSPropertyOp9
 70
     1
102
RTVSPropertyOp10
 70
     1
102
RTVSPropertyOp11
 70
     1
102
RTVSPropertyOp12
 70
     1
102
RTVSPropertyOp13
 70
     1
102
RTVSPropertyOp14
 70
     1
102
RTVSPropertyOp15
 70
     1
102
RTVSPropertyOp16
 70
     1
102
RTVSPropertyOp17
 70
     1
102
RTVSPropertyOp18
 70
     1
102
RTVSPropertyOp19
 70
     1
102
RTVSPropertyOp20
 70
     1
102
RTVSPropertyOp21
 70
     1
102
RTVSPropertyOp22
 70
     1
102
RTVSPropertyOp23
 70
     1
102
RTVSPropertyOp24
 70
     1
102
RTVSPropertyOp25
 70
     1
102
RTVSPropertyOp26
 70
     1
102
RTVSPropertyOp27
 70
     1
102
RTVSPropertyOp28
 70
     1
102
RTVSPropertyOp29
 70
     1
102
RTVSPropertyOp30
 70
     1
102
RTVSPropertyOp31
 70
     1
102
RTVSPropertyOp32
 70
     1
  0
XRECORD
  5
D0
102
{ACAD_REACTORS
330
CF
102
}
330
CF
100
AcDbXrecord
280
     1
102
RTVSPropertyOp0
 70
     1
102
RTVSPropertyOp1
 70
     1
102
RTVSPropertyOp2
 70
     1
102
RTVSPropertyOp3
 70
     1
102
RTVSPropertyOp4
 70
     1
102
RTVSPropertyOp5
 70
     1
102
RTVSPropertyOp6
 70
     1
102
RTVSPropertyOp7
 70
     1
102
RTVSPropertyOp8
 70
     1
102
RTVSPropertyOp9
 70
     1
102
RTVSPropertyOp10
 70
     1
102
RTVSPropertyOp11
 70
     1
102
RTVSPropertyOp12
 70
     1
102
RTVSPropertyOp13
 70
     1
102
RTVSPropertyOp14
 70
     1
102
RTVSPropertyOp15
 70
     1
102
RTVSPropertyOp16
 70
     1
102
RTVSPropertyOp17
 70
     1
102
RTVSPropertyOp18
 70
     1
102
RTVSPropertyOp19
 70
     1
102
RTVSPropertyOp20
 70
     1
102
RTVSPropertyOp21
 70
     1
102
RTVSPropertyOp22
 70
     1
102
RTVSPropertyOp23
 70
     1
102
RTVSPropertyOp24
 70
     1
102
RTVSPropertyOp25
 70
     1
102
RTVSPropertyOp26
 70
     1
102
RTVSPropertyOp27
 70
     1
102
RTVSPropertyOp28
 70
     1
102
RTVSPropertyOp29
 70
     1
102
RTVSPropertyOp30
 70
     1
102
RTVSPropertyOp31
 70
     1
102
RTVSPropertyOp32
 70
     1
  0
ENDSEC
  0
EOF
