  0
SECTION
  2
HEADER
  9
$ACADVER
  1
AC1021
  9
$ACADMAINTVER
 70
    25
  9
$DWGCODEPAGE
  3
ANSI_1256
  9
$INSBASE
 10
0.0
 20
0.0
 30
0.0
  9
$EXTMIN
 10
20.4306
 20
-109.5884
 30
0.0
  9
$EXTMAX
 10
100.8807
 20
126.3973
 30
0.0
  9
$LIMMIN
 10
0.0
 20
0.0
  9
$LIMMAX
 10
12.0
 20
9.0
  9
$ORTHOMODE
 70
     0
  9
$REGENMODE
 70
     1
  9
$FILLMODE
 70
     1
  9
$QTEXTMODE
 70
     0
  9
$MIRRTEXT
 70
     1
  9
$LTSCALE
 40
1.0
  9
$ATTMODE
 70
     1
  9
$TEXTSIZE
 40
0.2
  9
$TRACEWID
 40
0.05
  9
$TEXTSTYLE
  7
Standard
  9
$CLAYER
  8
0
  9
$CELTYPE
  6
ByLayer
  9
$CECOLOR
 62
   256
  9
$CELTSCALE
 40
1.0
  9
$DISPSILH
 70
     0
  9
$DIMSCALE
 40
1.0
  9
$DIMASZ
 40
0.18
  9
$DIMEXO
 40
0.0625
  9
$DIMDLI
 40
0.38
  9
$DIMRND
 40
0.0
  9
$DIMDLE
 40
0.0
  9
$DIMEXE
 40
0.18
  9
$DIMTP
 40
0.0
  9
$DIMTM
 40
0.0
  9
$DIMTXT
 40
0.18
  9
$DIMCEN
 40
0.09
  9
$DIMTSZ
 40
0.0
  9
$DIMTOL
 70
     0
  9
$DIMLIM
 70
     0
  9
$DIMTIH
 70
     1
  9
$DIMTOH
 70
     1
  9
$DIMSE1
 70
     0
  9
$DIMSE2
 70
     0
  9
$DIMTAD
 70
     0
  9
$DIMZIN
 70
     0
  9
$DIMBLK
  1

  9
$DIMASO
 70
     1
  9
$DIMSHO
 70
     1
  9
$DIMPOST
  1

  9
$DIMAPOST
  1

  9
$DIMALT
 70
     0
  9
$DIMALTD
 70
     2
  9
$DIMALTF
 40
25.4
  9
$DIMLFAC
 40
1.0
  9
$DIMTOFL
 70
     0
  9
$DIMTVP
 40
0.0
  9
$DIMTIX
 70
     0
  9
$DIMSOXD
 70
     0
  9
$DIMSAH
 70
     0
  9
$DIMBLK1
  1

  9
$DIMBLK2
  1

  9
$DIMSTYLE
  2
Standard
  9
$DIMCLRD
 70
     0
  9
$DIMCLRE
 70
     0
  9
$DIMCLRT
 70
     0
  9
$DIMTFAC
 40
1.0
  9
$DIMGAP
 40
0.09
  9
$DIMJUST
 70
     0
  9
$DIMSD1
 70
     0
  9
$DIMSD2
 70
     0
  9
$DIMTOLJ
 70
     1
  9
$DIMTZIN
 70
     0
  9
$DIMALTZ
 70
     0
  9
$DIMALTTZ
 70
     0
  9
$DIMUPT
 70
     0
  9
$DIMDEC
 70
     4
  9
$DIMTDEC
 70
     4
  9
$DIMALTU
 70
     2
  9
$DIMALTTD
 70
     2
  9
$DIMTXSTY
  7
Standard
  9
$DIMAUNIT
 70
     0
  9
$DIMADEC
 70
     0
  9
$DIMALTRND
 40
0.0
  9
$DIMAZIN
 70
     0
  9
$DIMDSEP
 70
    46
  9
$DIMATFIT
 70
     3
  9
$DIMFRAC
 70
     0
  9
$DIMLDRBLK
  1

  9
$DIMLUNIT
 70
     2
  9
$DIMLWD
 70
    -2
  9
$DIMLWE
 70
    -2
  9
$DIMTMOVE
 70
     0
  9
$DIMFXL
 40
1.0
  9
$DIMFXLON
 70
     0
  9
$DIMJOGANG
 40
0.7853981633974483
  9
$DIMTFILL
 70
     0
  9
$DIMTFILLCLR
 70
     0
  9
$DIMARCSYM
 70
     0
  9
$DIMLTYPE
  6

  9
$DIMLTEX1
  6

  9
$DIMLTEX2
  6

  9
$LUNITS
 70
     2
  9
$LUPREC
 70
     4
  9
$SKETCHINC
 40
0.1
  9
$FILLETRAD
 40
0.5
  9
$AUNITS
 70
     0
  9
$AUPREC
 70
     0
  9
$MENU
  1
.
  9
$ELEVATION
 40
0.0
  9
$PELEVATION
 40
0.0
  9
$THICKNESS
 40
0.0
  9
$LIMCHECK
 70
     0
  9
$CHAMFERA
 40
0.5
  9
$CHAMFERB
 40
0.5
  9
$CHAMFERC
 40
1.0
  9
$CHAMFERD
 40
0.0
  9
$SKPOLY
 70
     0
  9
$TDCREATE
 40
2458479.309736586
  9
$TDUCREATE
 40
2458479.143069919
  9
$TDUPDATE
 40
2458479.309736782
  9
$TDUUPDATE
 40
2458479.143070116
  9
$TDINDWG
 40
0.0000000116
  9
$TDUSRTIMER
 40
0.0000000116
  9
$USRTIMER
 70
     1
  9
$ANGBASE
 50
0.0
  9
$ANGDIR
 70
     0
  9
$PDMODE
 70
     0
  9
$PDSIZE
 40
0.0
  9
$PLINEWID
 40
0.0
  9
$SPLFRAME
 70
     0
  9
$SPLINETYPE
 70
     6
  9
$SPLINESEGS
 70
     8
  9
$HANDSEED
  5
EA
  9
$SURFTAB1
 70
     6
  9
$SURFTAB2
 70
     6
  9
$SURFTYPE
 70
     6
  9
$SURFU
 70
     6
  9
$SURFV
 70
     6
  9
$UCSBASE
  2

  9
$UCSNAME
  2

  9
$UCSORG
 10
0.0
 20
0.0
 30
0.0
  9
$UCSXDIR
 10
1.0
 20
0.0
 30
0.0
  9
$UCSYDIR
 10
0.0
 20
1.0
 30
0.0
  9
$UCSORTHOREF
  2

  9
$UCSORTHOVIEW
 70
     0
  9
$UCSORGTOP
 10
0.0
 20
0.0
 30
0.0
  9
$UCSORGBOTTOM
 10
0.0
 20
0.0
 30
0.0
  9
$UCSORGLEFT
 10
0.0
 20
0.0
 30
0.0
  9
$UCSORGRIGHT
 10
0.0
 20
0.0
 30
0.0
  9
$UCSORGFRONT
 10
0.0
 20
0.0
 30
0.0
  9
$UCSORGBACK
 10
0.0
 20
0.0
 30
0.0
  9
$PUCSBASE
  2

  9
$PUCSNAME
  2

  9
$PUCSORG
 10
0.0
 20
0.0
 30
0.0
  9
$PUCSXDIR
 10
1.0
 20
0.0
 30
0.0
  9
$PUCSYDIR
 10
0.0
 20
1.0
 30
0.0
  9
$PUCSORTHOREF
  2

  9
$PUCSORTHOVIEW
 70
     0
  9
$PUCSORGTOP
 10
0.0
 20
0.0
 30
0.0
  9
$PUCSORGBOTTOM
 10
0.0
 20
0.0
 30
0.0
  9
$PUCSORGLEFT
 10
0.0
 20
0.0
 30
0.0
  9
$PUCSORGRIGHT
 10
0.0
 20
0.0
 30
0.0
  9
$PUCSORGFRONT
 10
0.0
 20
0.0
 30
0.0
  9
$PUCSORGBACK
 10
0.0
 20
0.0
 30
0.0
  9
$USERI1
 70
     0
  9
$USERI2
 70
     0
  9
$USERI3
 70
     0
  9
$USERI4
 70
     0
  9
$USERI5
 70
     0
  9
$USERR1
 40
0.0
  9
$USERR2
 40
0.0
  9
$USERR3
 40
0.0
  9
$USERR4
 40
0.0
  9
$USERR5
 40
0.0
  9
$WORLDVIEW
 70
     1
  9
$SHADEDGE
 70
     3
  9
$SHADEDIF
 70
    70
  9
$TILEMODE
 70
     1
  9
$MAXACTVP
 70
    64
  9
$PINSBASE
 10
0.0
 20
0.0
 30
0.0
  9
$PLIMCHECK
 70
     0
  9
$PEXTMIN
 10
1.000000000000000E+20
 20
1.000000000000000E+20
 30
1.000000000000000E+20
  9
$PEXTMAX
 10
-1.000000000000000E+20
 20
-1.000000000000000E+20
 30
-1.000000000000000E+20
  9
$PLIMMIN
 10
0.0
 20
0.0
  9
$PLIMMAX
 10
12.0
 20
9.0
  9
$UNITMODE
 70
     0
  9
$VISRETAIN
 70
     1
  9
$PLINEGEN
 70
     0
  9
$PSLTSCALE
 70
     1
  9
$TREEDEPTH
 70
  3020
  9
$CMLSTYLE
  2
Standard
  9
$CMLJUST
 70
     0
  9
$CMLSCALE
 40
1.0
  9
$PROXYGRAPHICS
 70
     1
  9
$MEASUREMENT
 70
     0
  9
$CELWEIGHT
370
    -1
  9
$ENDCAPS
280
     0
  9
$JOINSTYLE
280
     0
  9
$LWDISPLAY
290
     0
  9
$INSUNITS
 70
     4
  9
$HYPERLINKBASE
  1

  9
$STYLESHEET
  1

  9
$XEDIT
290
     1
  9
$CEPSNTYPE
380
     0
  9
$PSTYLEMODE
290
     1
  9
$FINGERPRINTGUID
  2
{9CB91BD7-A0A3-45DC-A658-8DF78D5DBA31}
  9
$VERSIONGUID
  2
{FAEB1C32-E019-11D5-929B-00C0DF256EC4}
  9
$EXTNAMES
290
     1
  9
$PSVPSCALE
 40
0.0
  9
$OLESTARTUP
290
     0
  9
$SORTENTS
280
   127
  9
$INDEXCTL
280
     0
  9
$HIDETEXT
280
     1
  9
$XCLIPFRAME
290
     0
  9
$HALOGAP
280
     0
  9
$OBSCOLOR
 70
   257
  9
$OBSLTYPE
280
     0
  9
$INTERSECTIONDISPLAY
280
     0
  9
$INTERSECTIONCOLOR
 70
   257
  9
$DIMASSOC
280
     2
  9
$PROJECTNAME
  1

  9
$CAMERADISPLAY
290
     0
  9
$LENSLENGTH
 40
50.0
  9
$CAMERAHEIGHT
 40
0.0
  9
$STEPSPERSEC
 40
2.0
  9
$STEPSIZE
 40
6.0
  9
$3DDWFPREC
 40
2.0
  9
$PSOLWIDTH
 40
0.25
  9
$PSOLHEIGHT
 40
4.0
  9
$LOFTANG1
 40
1.570796326794897
  9
$LOFTANG2
 40
1.570796326794897
  9
$LOFTMAG1
 40
0.0
  9
$LOFTMAG2
 40
0.0
  9
$LOFTPARAM
 70
     7
  9
$LOFTNORMALS
280
     1
  9
$LATITUDE
 40
37.795
  9
$LONGITUDE
 40
-122.394
  9
$NORTHDIRECTION
 40
0.0
  9
$TIMEZONE
 70
 -8000
  9
$LIGHTGLYPHDISPLAY
280
     1
  9
$TILEMODELIGHTSYNCH
280
     1
  9
$SOLIDHIST
280
     1
  9
$SHOWHIST
280
     1
  9
$DWFFRAME
280
     2
  9
$DGNFRAME
280
     2
  9
$REALWORLDSCALE
290
     1
  9
$INTERFERECOLOR
 62
   256
  9
$CSHADOW
280
     0
  9
$SHADOWPLANELOCATION
 40
0.0
  0
ENDSEC
  0
SECTION
  2
CLASSES
  0
CLASS
  1
ACDBDICTIONARYWDFLT
  2
AcDbDictionaryWithDefault
  3
ObjectDBX Classes
 90
        0
 91
        4
280
     0
281
     0
  0
CLASS
  1
VISUALSTYLE
  2
AcDbVisualStyle
  3
ObjectDBX Classes
 90
     4095
 91
        4
280
     0
281
     0
  0
CLASS
  1
MATERIAL
  2
AcDbMaterial
  3
ObjectDBX Classes
 90
     1153
 91
        4
280
     0
281
     0
  0
ENDSEC
  0
SECTION
  2
TABLES
  0
TABLE
  2
VPORT
  5
8
330
0
100
AcDbSymbolTable
 70
     1
  0
VPORT
  5
29
330
8
100
AcDbSymbolTableRecord
100
AcDbViewportTableRecord
  2
*Active
 70
     0
 10
0.0
 20
0.0
 11
1.0
 21
1.0
 12
10.42990654205607
 22
4.5
 13
0.0
 23
0.0
 14
0.5
 24
0.5
 15
0.5
 25
0.5
 16
0.0
 26
0.0
 36
1.0
 17
0.0
 27
0.0
 37
0.0
 40
9.0
 41
1.972972972850329
 42
50.0
 43
0.0
 44
0.0
 50
0.0
 51
0.0
 71
     0
 72
   100
 73
     1
 74
     3
 75
     0
 76
     0
 77
     0
 78
     0
281
     0
 65
     1
110
0.0
120
0.0
130
0.0
111
1.0
121
0.0
131
0.0
112
0.0
122
1.0
132
0.0
 79
     0
146
0.0
 60
     3
 61
     5
292
     1
282
     1
141
0.0
142
0.0
 63
   250
  0
ENDTAB
  0
TABLE
  2
LTYPE
  5
5
330
0
100
AcDbSymbolTable
 70
     1
  0
LTYPE
  5
14
330
5
100
AcDbSymbolTableRecord
100
AcDbLinetypeTableRecord
  2
ByBlock
 70
     0
  3

 72
    65
 73
     0
 40
0.0
  0
LTYPE
  5
15
330
5
100
AcDbSymbolTableRecord
100
AcDbLinetypeTableRecord
  2
ByLayer
 70
     0
  3

 72
    65
 73
     0
 40
0.0
  0
LTYPE
  5
16
330
5
100
AcDbSymbolTableRecord
100
AcDbLinetypeTableRecord
  2
Continuous
 70
     0
  3
Solid line
 72
    65
 73
     0
 40
0.0
  0
ENDTAB
  0
TABLE
  2
LAYER
  5
2
330
0
100
AcDbSymbolTable
 70
     3
  0
LAYER
  5
10
330
2
100
AcDbSymbolTableRecord
100
AcDbLayerTableRecord
  2
0
 70
     0
 62
     7
  6
Continuous
370
    -3
390
F
347
3E
  0
LAYER
  5
40
330
2
100
AcDbSymbolTableRecord
100
AcDbLayerTableRecord
  2
layer 1
 70
     0
 62
     7
  6
Continuous
370
    -3
390
F
347
3E
  0
LAYER
  5
C7
330
2
100
AcDbSymbolTableRecord
100
AcDbLayerTableRecord
  2
Master Guides
 70
     0
 62
     7
  6
Continuous
370
    -3
390
F
347
3E
  0
ENDTAB
  0
TABLE
  2
STYLE
  5
3
330
0
100
AcDbSymbolTable
 70
     1
  0
STYLE
  5
11
330
3
100
AcDbSymbolTableRecord
100
AcDbTextStyleTableRecord
  2
Standard
 70
     0
 40
0.0
 41
1.0
 50
0.0
 71
     0
 42
0.2
  3
txt
  4

  0
ENDTAB
  0
TABLE
  2
VIEW
  5
6
330
0
100
AcDbSymbolTable
 70
     0
  0
ENDTAB
  0
TABLE
  2
UCS
  5
7
330
0
100
AcDbSymbolTable
 70
     0
  0
ENDTAB
  0
TABLE
  2
APPID
  5
9
330
0
100
AcDbSymbolTable
 70
     2
  0
APPID
  5
12
330
9
100
AcDbSymbolTableRecord
100
AcDbRegAppTableRecord
  2
ACAD
 70
     0
  0
APPID
  5
3F
330
9
100
AcDbSymbolTableRecord
100
AcDbRegAppTableRecord
  2
ODA
 70
     0
  0
ENDTAB
  0
TABLE
  2
DIMSTYLE
  5
A
330
0
100
AcDbSymbolTable
 70
     1
100
AcDbDimStyleTable
  0
DIMSTYLE
105
27
330
A
100
AcDbSymbolTableRecord
100
AcDbDimStyleTableRecord
  2
Standard
 70
     0
178
     0
340
11
  0
ENDTAB
  0
TABLE
  2
BLOCK_RECORD
  5
1
330
0
100
AcDbSymbolTable
 70
     1
  0
BLOCK_RECORD
  5
1F
330
1
100
AcDbSymbolTableRecord
100
AcDbBlockTableRecord
  2
*Model_Space
340
22
 70
     0
280
     1
281
     0
  0
BLOCK_RECORD
  5
1B
330
1
100
AcDbSymbolTableRecord
100
AcDbBlockTableRecord
  2
*Paper_Space
340
1E
 70
     0
280
     1
281
     0
  0
BLOCK_RECORD
  5
23
330
1
100
AcDbSymbolTableRecord
100
AcDbBlockTableRecord
  2
*Paper_Space0
340
26
 70
     0
280
     1
281
     0
  0
ENDTAB
  0
ENDSEC
  0
SECTION
  2
BLOCKS
  0
BLOCK
  5
20
330
1F
100
AcDbEntity
  8
0
100
AcDbBlockBegin
  2
*Model_Space
 70
     0
 10
0.0
 20
0.0
 30
0.0
  3
*Model_Space
  1

  0
ENDBLK
  5
21
330
1F
100
AcDbEntity
  8
0
100
AcDbBlockEnd
  0
BLOCK
  5
1C
330
1B
100
AcDbEntity
 67
     1
  8
0
100
AcDbBlockBegin
  2
*Paper_Space
 70
     0
 10
0.0
 20
0.0
 30
0.0
  3
*Paper_Space
  1

  0
ENDBLK
  5
1D
330
1B
100
AcDbEntity
 67
     1
  8
0
100
AcDbBlockEnd
  0
BLOCK
  5
24
330
23
100
AcDbEntity
  8
0
100
AcDbBlockBegin
  2
*Paper_Space0
 70
     0
 10
0.0
 20
0.0
 30
0.0
  3
*Paper_Space0
  1

  0
ENDBLK
  5
25
330
23
100
AcDbEntity
  8
0
100
AcDbBlockEnd
  0
ENDSEC
  0
SECTION
  2
ENTITIES
  0
SPLINE
  5
41
330
1F
100
AcDbEntity
  8
layer 1
 62
   250
100
AcDbSpline
210
0.0
220
0.0
230
1.0
 70
    11
 71
     3
 72
    20
 73
    16
 74
     0
 42
0.0000000001
 43
0.0000000001
 12
1.0
 22
0.0
 32
0.0
 13
1.0
 23
0.0
 33
0.0
 40
0.0
 40
0.0
 40
0.0
 40
0.0
 40
0.2
 40
0.2
 40
0.2
 40
0.2
 40
0.4
 40
0.4
 40
0.4
 40
0.4
 40
0.6
 40
0.6
 40
0.6
 40
0.6
 40
1.0
 40
1.0
 40
1.0
 40
1.0
 10
20.4306
 20
126.3973
 30
0.0
 10
20.4306
 20
126.3973
 30
0.0
 10
100.8807
 20
126.3973
 30
0.0
 10
100.8807
 20
126.3973
 30
0.0
 10
100.8807
 20
126.3973
 30
0.0
 10
100.8807
 20
126.3973
 30
0.0
 10
100.8807
 20
-109.5884
 30
0.0
 10
100.8807
 20
-109.5884
 30
0.0
 10
100.8807
 20
-109.5884
 30
0.0
 10
100.8807
 20
-109.5884
 30
0.0
 10
20.4306
 20
-109.5884
 30
0.0
 10
20.4306
 20
-109.5884
 30
0.0
 10
20.4306
 20
-109.5884
 30
0.0
 10
20.4306
 20
-109.5884
 30
0.0
 10
20.4306
 20
126.3973
 30
0.0
 10
20.4306
 20
126.3973
 30
0.0
  0
SPLINE
  5
42
330
1F
100
AcDbEntity
  8
layer 1
 62
     7
100
AcDbSpline
210
0.0
220
0.0
230
1.0
 70
    11
 71
     3
 72
    16
 73
    12
 74
     0
 42
0.0000000001
 43
0.0000000001
 12
1.0
 22
0.0
 32
0.0
 13
1.0
 23
0.0
 33
0.0
 40
0.0
 40
0.0
 40
0.0
 40
0.0
 40
0.25
 40
0.25
 40
0.25
 40
0.25
 40
0.5
 40
0.5
 40
0.5
 40
0.5
 40
1.0
 40
1.0
 40
1.0
 40
1.0
 10
49.192
 20
-92.9297
 30
0.0
 10
49.192
 20
-92.9297
 30
0.0
 10
49.6833
 20
-95.137
 30
0.0
 10
51.0207
 20
-96.083
 30
0.0
 10
51.0207
 20
-96.083
 30
0.0
 10
51.0207
 20
-96.083
 30
0.0
 10
49.8206
 20
-97.2669
 30
0.0
 10
47.8818
 20
-95.8823
 30
0.0
 10
47.8818
 20
-95.8823
 30
0.0
 10
47.8818
 20
-95.8823
 30
0.0
 10
48.919
 20
-94.7356
 30
0.0
 10
49.192
 20
-92.9297
 30
0.0
  0
SPLINE
  5
43
330
1F
100
AcDbEntity
  8
layer 1
 62
     7
100
AcDbSpline
210
0.0
220
0.0
230
1.0
 70
    11
 71
     3
 72
    20
 73
    16
 74
     0
 42
0.0000000001
 43
0.0000000001
 12
1.0
 22
0.0
 32
0.0
 13
1.0
 23
0.0
 33
0.0
 40
0.0
 40
0.0
 40
0.0
 40
0.0
 40
0.2
 40
0.2
 40
0.2
 40
0.2
 40
0.4
 40
0.4
 40
0.4
 40
0.4
 40
0.6
 40
0.6
 40
0.6
 40
0.6
 40
1.0
 40
1.0
 40
1.0
 40
1.0
 10
49.4457
 20
-25.5613
 30
0.0
 10
48.2754
 20
-26.7369
 30
0.0
 10
46.2345
 20
-29.1808
 30
0.0
 10
45.6982
 20
-32.3585
 30
0.0
 10
45.6982
 20
-32.3585
 30
0.0
 10
44.9339
 20
-36.8878
 30
0.0
 10
47.6635
 20
-40.2416
 30
0.0
 10
48.6734
 20
-41.933
 30
0.0
 10
48.6734
 20
-41.933
 30
0.0
 10
48.9866
 20
-42.4576
 30
0.0
 10
49.2867
 20
-43.0484
 30
0.0
 10
49.4457
 20
-43.655
 30
0.0
 10
49.4457
 20
-43.655
 30
0.0
 10
49.4457
 20
-43.655
 30
0.0
 10
49.4457
 20
-25.5613
 30
0.0
 10
49.4457
 20
-25.5613
 30
0.0
  0
SPLINE
  5
44
330
1F
100
AcDbEntity
  8
layer 1
 62
     7
100
AcDbSpline
210
0.0
220
0.0
230
1.0
 70
    11
 71
     3
 72
    20
 73
    16
 74
     0
 42
0.0000000001
 43
0.0000000001
 12
1.0
 22
0.0
 32
0.0
 13
1.0
 23
0.0
 33
0.0
 40
0.0
 40
0.0
 40
0.0
 40
0.0
 40
0.2
 40
0.2
 40
0.2
 40
0.2
 40
0.4
 40
0.4
 40
0.4
 40
0.4
 40
0.6
 40
0.6
 40
0.6
 40
0.6
 40
1.0
 40
1.0
 40
1.0
 40
1.0
 10
48.5683
 20
6.9711
 30
0.0
 10
47.106
 20
5.5494
 30
0.0
 10
44.8488
 20
2.8013
 30
0.0
 10
43.6238
 20
-0.654
 30
0.0
 10
43.6238
 20
-0.654
 30
0.0
 10
41.9733
 20
-5.3096
 30
0.0
 10
47.5735
 20
-14.4993
 30
0.0
 10
49.4457
 20
-18.3937
 30
0.0
 10
49.4457
 20
-18.3937
 30
0.0
 10
49.4457
 20
-18.3937
 30
0.0
 10
49.4457
 20
6.9711
 30
0.0
 10
49.4457
 20
6.9711
 30
0.0
 10
49.4457
 20
6.9711
 30
0.0
 10
49.4457
 20
6.9711
 30
0.0
 10
48.5683
 20
6.9711
 30
0.0
 10
48.5683
 20
6.9711
 30
0.0
  0
SPLINE
  5
45
330
1F
100
AcDbEntity
  8
layer 1
 62
     7
100
AcDbSpline
210
0.0
220
0.0
230
1.0
 70
    11
 71
     3
 72
    24
 73
    20
 74
     0
 42
0.0000000001
 43
0.0000000001
 12
1.0
 22
0.0
 32
0.0
 13
1.0
 23
0.0
 33
0.0
 40
0.0
 40
0.0
 40
0.0
 40
0.0
 40
0.1666666666666667
 40
0.1666666666666667
 40
0.1666666666666667
 40
0.1666666666666667
 40
0.3333333333333333
 40
0.3333333333333333
 40
0.3333333333333333
 40
0.3333333333333333
 40
0.5
 40
0.5
 40
0.5
 40
0.5
 40
0.6666666666666666
 40
0.6666666666666666
 40
0.6666666666666666
 40
0.6666666666666666
 40
1.0
 40
1.0
 40
1.0
 40
1.0
 10
47.6163
 20
-86.001
 30
0.0
 10
46.664
 20
-83.6828
 30
0.0
 10
43.4313
 20
-79.5165
 30
0.0
 10
41.6231
 20
-77.9445
 30
0.0
 10
41.6231
 20
-77.9445
 30
0.0
 10
41.6231
 20
-77.9445
 30
0.0
 10
41.6231
 20
-85.3331
 30
0.0
 10
41.6231
 20
-85.3331
 30
0.0
 10
41.6231
 20
-85.3331
 30
0.0
 10
41.6231
 20
-85.3331
 30
0.0
 10
41.6231
 20
-86.001
 30
0.0
 10
41.6231
 20
-86.001
 30
0.0
 10
41.6231
 20
-86.001
 30
0.0
 10
41.6231
 20
-86.001
 30
0.0
 10
41.9861
 20
-86.001
 30
0.0
 10
41.9861
 20
-86.001
 30
0.0
 10
41.9861
 20
-86.001
 30
0.0
 10
41.9861
 20
-86.001
 30
0.0
 10
47.6163
 20
-86.001
 30
0.0
 10
47.6163
 20
-86.001
 30
0.0
  0
SPLINE
  5
46
330
1F
100
AcDbEntity
  8
layer 1
 62
     7
100
AcDbSpline
210
0.0
220
0.0
230
1.0
 70
    11
 71
     3
 72
    20
 73
    16
 74
     0
 42
0.0000000001
 43
0.0000000001
 12
1.0
 22
0.0
 32
0.0
 13
1.0
 23
0.0
 33
0.0
 40
0.0
 40
0.0
 40
0.0
 40
0.0
 40
0.2
 40
0.2
 40
0.2
 40
0.2
 40
0.4
 40
0.4
 40
0.4
 40
0.4
 40
0.6
 40
0.6
 40
0.6
 40
0.6
 40
1.0
 40
1.0
 40
1.0
 40
1.0
 10
43.2062
 20
-96.7603
 30
0.0
 10
43.6823
 20
-96.5796
 30
0.0
 10
44.2065
 20
-96.2784
 30
0.0
 10
44.7702
 20
-95.8249
 30
0.0
 10
44.7702
 20
-95.8249
 30
0.0
 10
46.8329
 20
-94.1657
 30
0.0
 10
47.4489
 20
-90.8022
 30
0.0
 10
47.7247
 20
-88.5639
 30
0.0
 10
47.7247
 20
-88.5639
 30
0.0
 10
47.7247
 20
-88.5639
 30
0.0
 10
43.2062
 20
-88.5639
 30
0.0
 10
43.2062
 20
-88.5639
 30
0.0
 10
43.2062
 20
-88.5639
 30
0.0
 10
43.2062
 20
-88.5639
 30
0.0
 10
43.2062
 20
-96.7603
 30
0.0
 10
43.2062
 20
-96.7603
 30
0.0
  0
SPLINE
  5
47
330
1F
100
AcDbEntity
  8
layer 1
 62
     7
100
AcDbSpline
210
0.0
220
0.0
230
1.0
 70
    11
 71
     3
 72
    24
 73
    20
 74
     0
 42
0.0000000001
 43
0.0000000001
 12
1.0
 22
0.0
 32
0.0
 13
1.0
 23
0.0
 33
0.0
 40
0.0
 40
0.0
 40
0.0
 40
0.0
 40
0.1666666666666667
 40
0.1666666666666667
 40
0.1666666666666667
 40
0.1666666666666667
 40
0.3333333333333333
 40
0.3333333333333333
 40
0.3333333333333333
 40
0.3333333333333333
 40
0.5
 40
0.5
 40
0.5
 40
0.5
 40
0.6666666666666666
 40
0.6666666666666666
 40
0.6666666666666666
 40
0.6666666666666666
 40
1.0
 40
1.0
 40
1.0
 40
1.0
 10
50.4292
 20
-88.5639
 30
0.0
 10
52.4707
 20
-95.4177
 30
0.0
 10
53.2875
 20
-95.7597
 30
0.0
 10
55.5243
 20
-95.6529
 30
0.0
 10
55.5243
 20
-95.6529
 30
0.0
 10
57.9263
 20
-95.5382
 30
0.0
 10
56.507
 20
-92.6143
 30
0.0
 10
56.1794
 20
-91.353
 30
0.0
 10
56.1794
 20
-91.353
 30
0.0
 10
55.8519
 20
-90.0918
 30
0.0
 10
58.9635
 20
-90.321
 30
0.0
 10
59.4002
 20
-93.1304
 30
0.0
 10
59.4002
 20
-93.1304
 30
0.0
 10
59.4002
 20
-93.1304
 30
0.0
 10
59.4002
 20
-88.5639
 30
0.0
 10
59.4002
 20
-88.5639
 30
0.0
 10
59.4002
 20
-88.5639
 30
0.0
 10
59.4002
 20
-88.5639
 30
0.0
 10
50.4292
 20
-88.5639
 30
0.0
 10
50.4292
 20
-88.5639
 30
0.0
  0
SPLINE
  5
48
330
1F
100
AcDbEntity
  8
layer 1
 62
     7
100
AcDbSpline
210
0.0
220
0.0
230
1.0
 70
    11
 71
     3
 72
    24
 73
    20
 74
     0
 42
0.0000000001
 43
0.0000000001
 12
1.0
 22
0.0
 32
0.0
 13
1.0
 23
0.0
 33
0.0
 40
0.0
 40
0.0
 40
0.0
 40
0.0
 40
0.1666666666666667
 40
0.1666666666666667
 40
0.1666666666666667
 40
0.1666666666666667
 40
0.3333333333333333
 40
0.3333333333333333
 40
0.3333333333333333
 40
0.3333333333333333
 40
0.5
 40
0.5
 40
0.5
 40
0.5
 40
0.6666666666666666
 40
0.6666666666666666
 40
0.6666666666666666
 40
0.6666666666666666
 40
1.0
 40
1.0
 40
1.0
 40
1.0
 10
50.4283
 20
-66.702
 30
0.0
 10
50.2188
 20
-67.8957
 30
0.0
 10
49.8739
 20
-68.988
 30
0.0
 10
49.4103
 20
-69.8536
 30
0.0
 10
49.4103
 20
-69.8536
 30
0.0
 10
47.4451
 20
-73.5228
 30
0.0
 10
42.4774
 20
-75.6441
 30
0.0
 10
42.4774
 20
-75.6441
 30
0.0
 10
42.4774
 20
-75.6441
 30
0.0
 10
42.4774
 20
-75.6441
 30
0.0
 10
47.1746
 20
-78.2976
 30
0.0
 10
49.6703
 20
-86.001
 30
0.0
 10
49.6703
 20
-86.001
 30
0.0
 10
49.6703
 20
-86.001
 30
0.0
 10
50.4283
 20
-86.001
 30
0.0
 10
50.4283
 20
-86.001
 30
0.0
 10
50.4283
 20
-86.001
 30
0.0
 10
50.4283
 20
-86.001
 30
0.0
 10
50.4283
 20
-66.702
 30
0.0
 10
50.4283
 20
-66.702
 30
0.0
  0
SPLINE
  5
49
330
1F
100
AcDbEntity
  8
layer 1
 62
     7
100
AcDbSpline
210
0.0
220
0.0
230
1.0
 70
    11
 71
     3
 72
    28
 73
    24
 74
     0
 42
0.0000000001
 43
0.0000000001
 12
1.0
 22
0.0
 32
0.0
 13
1.0
 23
0.0
 33
0.0
 40
0.0
 40
0.0
 40
0.0
 40
0.0
 40
0.1428571428571428
 40
0.1428571428571428
 40
0.1428571428571428
 40
0.1428571428571428
 40
0.2857142857142857
 40
0.2857142857142857
 40
0.2857142857142857
 40
0.2857142857142857
 40
0.4285714285714285
 40
0.4285714285714285
 40
0.4285714285714285
 40
0.4285714285714285
 40
0.5714285714285714
 40
0.5714285714285714
 40
0.5714285714285714
 40
0.5714285714285714
 40
0.7142857142857143
 40
0.7142857142857143
 40
0.7142857142857143
 40
0.7142857142857143
 40
1.0
 40
1.0
 40
1.0
 40
1.0
 10
41.6231
 20
-56.7629
 30
0.0
 10
42.8604
 20
-55.3127
 30
0.0
 10
45.1587
 20
-54.5917
 30
0.0
 10
47.6088
 20
-56.1513
 30
0.0
 10
47.6088
 20
-56.1513
 30
0.0
 10
49.1257
 20
-57.1167
 30
0.0
 10
50.0328
 20
-59.0477
 30
0.0
 10
50.4283
 20
-61.2337
 30
0.0
 10
50.4283
 20
-61.2337
 30
0.0
 10
50.4283
 20
-61.2337
 30
0.0
 10
50.4283
 20
-52.4247
 30
0.0
 10
50.4283
 20
-52.4247
 30
0.0
 10
50.4283
 20
-52.4247
 30
0.0
 10
50.4283
 20
-52.4247
 30
0.0
 10
50.4283
 20
-51.7568
 30
0.0
 10
50.4283
 20
-51.7568
 30
0.0
 10
50.4283
 20
-51.7568
 30
0.0
 10
50.4283
 20
-51.7568
 30
0.0
 10
41.6231
 20
-51.7568
 30
0.0
 10
41.6231
 20
-51.7568
 30
0.0
 10
41.6231
 20
-51.7568
 30
0.0
 10
41.6231
 20
-51.7568
 30
0.0
 10
41.6231
 20
-56.7629
 30
0.0
 10
41.6231
 20
-56.7629
 30
0.0
  0
SPLINE
  5
4A
330
1F
100
AcDbEntity
  8
layer 1
 62
     7
100
AcDbSpline
210
0.0
220
0.0
230
1.0
 70
    11
 71
     3
 72
    24
 73
    20
 74
     0
 42
0.0000000001
 43
0.0000000001
 12
1.0
 22
0.0
 32
0.0
 13
1.0
 23
0.0
 33
0.0
 40
0.0
 40
0.0
 40
0.0
 40
0.0
 40
0.1666666666666667
 40
0.1666666666666667
 40
0.1666666666666667
 40
0.1666666666666667
 40
0.3333333333333333
 40
0.3333333333333333
 40
0.3333333333333333
 40
0.3333333333333333
 40
0.5
 40
0.5
 40
0.5
 40
0.5
 40
0.6666666666666666
 40
0.6666666666666666
 40
0.6666666666666666
 40
0.6666666666666666
 40
1.0
 40
1.0
 40
1.0
 40
1.0
 10
41.6231
 20
-73.615
 30
0.0
 10
46.388
 20
-72.6333
 30
0.0
 10
49.5633
 20
-66.5795
 30
0.0
 10
48.8098
 20
-61.8844
 30
0.0
 10
48.8098
 20
-61.8844
 30
0.0
 10
47.991
 20
-56.7819
 30
0.0
 10
44.8248
 20
-56.5526
 30
0.0
 10
44.0059
 20
-58.1579
 30
0.0
 10
44.0059
 20
-58.1579
 30
0.0
 10
43.1871
 20
-59.7631
 30
0.0
 10
44.7702
 20
-61.5978
 30
0.0
 10
43.6784
 20
-62.2284
 30
0.0
 10
43.6784
 20
-62.2284
 30
0.0
 10
43.0955
 20
-62.5651
 30
0.0
 10
42.2637
 20
-62.4114
 30
0.0
 10
41.6231
 20
-61.7938
 30
0.0
 10
41.6231
 20
-61.7938
 30
0.0
 10
41.6231
 20
-61.7938
 30
0.0
 10
41.6231
 20
-73.615
 30
0.0
 10
41.6231
 20
-73.615
 30
0.0
  0
SPLINE
  5
4B
330
1F
100
AcDbEntity
  8
layer 1
 62
     7
100
AcDbSpline
210
0.0
220
0.0
230
1.0
 70
    11
 71
     3
 72
    16
 73
    12
 74
     0
 42
0.0000000001
 43
0.0000000001
 12
1.0
 22
0.0
 32
0.0
 13
1.0
 23
0.0
 33
0.0
 40
0.0
 40
0.0
 40
0.0
 40
0.0
 40
0.25
 40
0.25
 40
0.25
 40
0.25
 40
0.5
 40
0.5
 40
0.5
 40
0.5
 40
1.0
 40
1.0
 40
1.0
 40
1.0
 10
39.1828
 20
-65.4375
 30
0.0
 10
37.8698
 20
-67.6729
 30
0.0
 10
34.6838
 20
-68.7898
 30
0.0
 10
31.5595
 20
-66.0697
 30
0.0
 10
31.5595
 20
-66.0697
 30
0.0
 10
31.5595
 20
-66.0697
 30
0.0
 10
34.4194
 20
-72.7151
 30
0.0
 10
39.1828
 20
-73.644
 30
0.0
 10
39.1828
 20
-73.644
 30
0.0
 10
39.1828
 20
-73.644
 30
0.0
 10
39.1828
 20
-65.4375
 30
0.0
 10
39.1828
 20
-65.4375
 30
0.0
  0
SPLINE
  5
4C
330
1F
100
AcDbEntity
  8
layer 1
 62
     7
100
AcDbSpline
210
0.0
220
0.0
230
1.0
 70
    11
 71
     3
 72
    24
 73
    20
 74
     0
 42
0.0000000001
 43
0.0000000001
 12
1.0
 22
0.0
 32
0.0
 13
1.0
 23
0.0
 33
0.0
 40
0.0
 40
0.0
 40
0.0
 40
0.0
 40
0.1666666666666667
 40
0.1666666666666667
 40
0.1666666666666667
 40
0.1666666666666667
 40
0.3333333333333333
 40
0.3333333333333333
 40
0.3333333333333333
 40
0.3333333333333333
 40
0.5
 40
0.5
 40
0.5
 40
0.5
 40
0.6666666666666666
 40
0.6666666666666666
 40
0.6666666666666666
 40
0.6666666666666666
 40
1.0
 40
1.0
 40
1.0
 40
1.0
 10
29.9956
 20
-51.7568
 30
0.0
 10
29.1545
 20
-59.6043
 30
0.0
 10
33.8092
 20
-65.2037
 30
0.0
 10
35.3261
 20
-64.4071
 30
0.0
 10
35.3261
 20
-64.4071
 30
0.0
 10
36.9639
 20
-63.5471
 30
0.0
 10
35.49
 20
-62.0564
 30
0.0
 10
35.7083
 20
-60.6804
 30
0.0
 10
35.7083
 20
-60.6804
 30
0.0
 10
35.875
 20
-59.6302
 30
0.0
 10
38.0768
 20
-59.4488
 30
0.0
 10
39.1828
 20
-61.002
 30
0.0
 10
39.1828
 20
-61.002
 30
0.0
 10
39.1828
 20
-61.002
 30
0.0
 10
39.1828
 20
-51.7568
 30
0.0
 10
39.1828
 20
-51.7568
 30
0.0
 10
39.1828
 20
-51.7568
 30
0.0
 10
39.1828
 20
-51.7568
 30
0.0
 10
29.9956
 20
-51.7568
 30
0.0
 10
29.9956
 20
-51.7568
 30
0.0
  0
SPLINE
  5
4D
330
1F
100
AcDbEntity
  8
layer 1
 62
     7
100
AcDbSpline
210
0.0
220
0.0
230
1.0
 70
    11
 71
     3
 72
    48
 73
    44
 74
     0
 42
0.0000000001
 43
0.0000000001
 12
1.0
 22
0.0
 32
0.0
 13
1.0
 23
0.0
 33
0.0
 40
0.0
 40
0.0
 40
0.0
 40
0.0
 40
0.0833333333333333
 40
0.0833333333333333
 40
0.0833333333333333
 40
0.0833333333333333
 40
0.1666666666666667
 40
0.1666666666666667
 40
0.1666666666666667
 40
0.1666666666666667
 40
0.25
 40
0.25
 40
0.25
 40
0.25
 40
0.3333333333333333
 40
0.3333333333333333
 40
0.3333333333333333
 40
0.3333333333333333
 40
0.4166666666666667
 40
0.4166666666666667
 40
0.4166666666666667
 40
0.4166666666666667
 40
0.5
 40
0.5
 40
0.5
 40
0.5
 40
0.5833333333333334
 40
0.5833333333333334
 40
0.5833333333333334
 40
0.5833333333333334
 40
0.6666666666666666
 40
0.6666666666666666
 40
0.6666666666666666
 40
0.6666666666666666
 40
0.75
 40
0.75
 40
0.75
 40
0.75
 40
0.8333333333333334
 40
0.8333333333333334
 40
0.8333333333333334
 40
0.8333333333333334
 40
1.0
 40
1.0
 40
1.0
 40
1.0
 10
34.877
 20
-40.4052
 30
0.0
 10
33.0008
 20
-43.0202
 30
0.0
 10
31.2698
 20
-46.0692
 30
0.0
 10
30.4601
 20
-49.194
 30
0.0
 10
30.4601
 20
-49.194
 30
0.0
 10
30.4601
 20
-49.194
 30
0.0
 10
49.4457
 20
-49.194
 30
0.0
 10
49.4457
 20
-49.194
 30
0.0
 10
49.4457
 20
-49.194
 30
0.0
 10
49.4457
 20
-49.194
 30
0.0
 10
49.4457
 20
-45.2736
 30
0.0
 10
49.4457
 20
-45.2736
 30
0.0
 10
49.4457
 20
-45.2736
 30
0.0
 10
49.1887
 20
-46.0675
 30
0.0
 10
48.478
 20
-46.8096
 30
0.0
 10
47.0083
 20
-47.3795
 30
0.0
 10
47.0083
 20
-47.3795
 30
0.0
 10
47.0083
 20
-47.3795
 30
0.0
 10
47.8545
 20
-44.9428
 30
0.0
 10
46.8992
 20
-42.707
 30
0.0
 10
46.8992
 20
-42.707
 30
0.0
 10
45.9438
 20
-40.471
 30
0.0
 10
44.1424
 20
-41.2736
 30
0.0
 10
44.1424
 20
-39.4677
 30
0.0
 10
44.1424
 20
-39.4677
 30
0.0
 10
44.1424
 20
-37.8848
 30
0.0
 10
44.1004
 20
-37.1386
 30
0.0
 10
43.0425
 20
-35.1835
 30
0.0
 10
43.0425
 20
-35.1835
 30
0.0
 10
43.0425
 20
-35.1835
 30
0.0
 10
43.0425
 20
-39.1237
 30
0.0
 10
43.0425
 20
-39.1237
 30
0.0
 10
43.0425
 20
-39.1237
 30
0.0
 10
43.0425
 20
-39.1237
 30
0.0
 10
43.0425
 20
-40.4052
 30
0.0
 10
43.0425
 20
-40.4052
 30
0.0
 10
43.0425
 20
-40.4052
 30
0.0
 10
43.0425
 20
-40.4052
 30
0.0
 10
41.8223
 20
-40.4052
 30
0.0
 10
41.8223
 20
-40.4052
 30
0.0
 10
41.8223
 20
-40.4052
 30
0.0
 10
41.8223
 20
-40.4052
 30
0.0
 10
34.877
 20
-40.4052
 30
0.0
 10
34.877
 20
-40.4052
 30
0.0
  0
SPLINE
  5
4E
330
1F
100
AcDbEntity
  8
layer 1
 62
     7
100
AcDbSpline
210
0.0
220
0.0
230
1.0
 70
    11
 71
     3
 72
    16
 73
    12
 74
     0
 42
0.0000000001
 43
0.0000000001
 12
1.0
 22
0.0
 32
0.0
 13
1.0
 23
0.0
 33
0.0
 40
0.0
 40
0.0
 40
0.0
 40
0.0
 40
0.25
 40
0.25
 40
0.25
 40
0.25
 40
0.5
 40
0.5
 40
0.5
 40
0.5
 40
1.0
 40
1.0
 40
1.0
 40
1.0
 10
40.6022
 20
-33.7821
 30
0.0
 10
39.6605
 20
-34.7023
 30
0.0
 10
38.2977
 20
-36.1084
 30
0.0
 10
36.8596
 20
-37.8422
 30
0.0
 10
36.8596
 20
-37.8422
 30
0.0
 10
36.8596
 20
-37.8422
 30
0.0
 10
40.6022
 20
-37.8422
 30
0.0
 10
40.6022
 20
-37.8422
 30
0.0
 10
40.6022
 20
-37.8422
 30
0.0
 10
40.6022
 20
-37.8422
 30
0.0
 10
40.6022
 20
-33.7821
 30
0.0
 10
40.6022
 20
-33.7821
 30
0.0
  0
SPLINE
  5
4F
330
1F
100
AcDbEntity
  8
layer 1
 62
     7
100
AcDbSpline
210
0.0
220
0.0
230
1.0
 70
    11
 71
     3
 72
    16
 73
    12
 74
     0
 42
0.0000000001
 43
0.0000000001
 12
1.0
 22
0.0
 32
0.0
 13
1.0
 23
0.0
 33
0.0
 40
0.0
 40
0.0
 40
0.0
 40
0.0
 40
0.25
 40
0.25
 40
0.25
 40
0.25
 40
0.5
 40
0.5
 40
0.5
 40
0.5
 40
1.0
 40
1.0
 40
1.0
 40
1.0
 10
30.0575
 20
-21.6003
 30
0.0
 10
30.0104
 20
-27.3106
 30
0.0
 10
34.3968
 20
-33.327
 30
0.0
 10
40.6022
 20
-31.0399
 30
0.0
 10
40.6022
 20
-31.0399
 30
0.0
 10
40.6022
 20
-31.0399
 30
0.0
 10
40.6022
 20
-21.6003
 30
0.0
 10
40.6022
 20
-21.6003
 30
0.0
 10
40.6022
 20
-21.6003
 30
0.0
 10
40.6022
 20
-21.6003
 30
0.0
 10
30.0575
 20
-21.6003
 30
0.0
 10
30.0575
 20
-21.6003
 30
0.0
  0
SPLINE
  5
50
330
1F
100
AcDbEntity
  8
layer 1
 62
     7
100
AcDbSpline
210
0.0
220
0.0
230
1.0
 70
    11
 71
     3
 72
    16
 73
    12
 74
     0
 42
0.0000000001
 43
0.0000000001
 12
1.0
 22
0.0
 32
0.0
 13
1.0
 23
0.0
 33
0.0
 40
0.0
 40
0.0
 40
0.0
 40
0.0
 40
0.25
 40
0.25
 40
0.25
 40
0.25
 40
0.5
 40
0.5
 40
0.5
 40
0.5
 40
1.0
 40
1.0
 40
1.0
 40
1.0
 10
35.1432
 20
-13.6453
 30
0.0
 10
33.2327
 20
-14.0375
 30
0.0
 10
31.1301
 20
-15.5543
 30
0.0
 10
30.353
 20
-19.0374
 30
0.0
 10
30.353
 20
-19.0374
 30
0.0
 10
30.353
 20
-19.0374
 30
0.0
 10
35.1432
 20
-19.0374
 30
0.0
 10
35.1432
 20
-19.0374
 30
0.0
 10
35.1432
 20
-19.0374
 30
0.0
 10
35.1432
 20
-19.0374
 30
0.0
 10
35.1432
 20
-13.6453
 30
0.0
 10
35.1432
 20
-13.6453
 30
0.0
  0
SPLINE
  5
51
330
1F
100
AcDbEntity
  8
layer 1
 62
     7
100
AcDbSpline
210
0.0
220
0.0
230
1.0
 70
    11
 71
     3
 72
    76
 73
    72
 74
     0
 42
0.0000000001
 43
0.0000000001
 12
1.0
 22
0.0
 32
0.0
 13
1.0
 23
0.0
 33
0.0
 40
0.0
 40
0.0
 40
0.0
 40
0.0
 40
0.0526315789473684
 40
0.0526315789473684
 40
0.0526315789473684
 40
0.0526315789473684
 40
0.1052631578947368
 40
0.1052631578947368
 40
0.1052631578947368
 40
0.1052631578947368
 40
0.1578947368421053
 40
0.1578947368421053
 40
0.1578947368421053
 40
0.1578947368421053
 40
0.2105263157894737
 40
0.2105263157894737
 40
0.2105263157894737
 40
0.2105263157894737
 40
0.2631578947368421
 40
0.2631578947368421
 40
0.2631578947368421
 40
0.2631578947368421
 40
0.3157894736842105
 40
0.3157894736842105
 40
0.3157894736842105
 40
0.3157894736842105
 40
0.3684210526315789
 40
0.3684210526315789
 40
0.3684210526315789
 40
0.3684210526315789
 40
0.4210526315789473
 40
0.4210526315789473
 40
0.4210526315789473
 40
0.4210526315789473
 40
0.4736842105263158
 40
0.4736842105263158
 40
0.4736842105263158
 40
0.4736842105263158
 40
0.5263157894736842
 40
0.5263157894736842
 40
0.5263157894736842
 40
0.5263157894736842
 40
0.5789473684210527
 40
0.5789473684210527
 40
0.5789473684210527
 40
0.5789473684210527
 40
0.631578947368421
 40
0.631578947368421
 40
0.631578947368421
 40
0.631578947368421
 40
0.6842105263157895
 40
0.6842105263157895
 40
0.6842105263157895
 40
0.6842105263157895
 40
0.7368421052631579
 40
0.7368421052631579
 40
0.7368421052631579
 40
0.7368421052631579
 40
0.7894736842105263
 40
0.7894736842105263
 40
0.7894736842105263
 40
0.7894736842105263
 40
0.8421052631578947
 40
0.8421052631578947
 40
0.8421052631578947
 40
0.8421052631578947
 40
0.8947368421052632
 40
0.8947368421052632
 40
0.8947368421052632
 40
0.8947368421052632
 40
1.0
 40
1.0
 40
1.0
 40
1.0
 10
37.5835
 20
-11.6207
 30
0.0
 10
38.1228
 20
-11.7126
 30
0.0
 10
38.6429
 20
-11.8876
 30
0.0
 10
39.0929
 20
-12.1777
 30
0.0
 10
39.0929
 20
-12.1777
 30
0.0
 10
40.6487
 20
-13.1811
 30
0.0
 10
41.2764
 20
-14.987
 30
0.0
 10
40.3484
 20
-16.5062
 30
0.0
 10
40.3484
 20
-16.5062
 30
0.0
 10
39.4204
 20
-18.0256
 30
0.0
 10
37.7008
 20
-17.6816
 30
0.0
 10
38.4105
 20
-16.4489
 30
0.0
 10
38.4105
 20
-16.4489
 30
0.0
 10
39.0055
 20
-15.4154
 30
0.0
 10
39.0245
 20
-14.2209
 30
0.0
 10
37.5835
 20
-13.7436
 30
0.0
 10
37.5835
 20
-13.7436
 30
0.0
 10
37.5835
 20
-13.7436
 30
0.0
 10
37.5835
 20
-19.0374
 30
0.0
 10
37.5835
 20
-19.0374
 30
0.0
 10
37.5835
 20
-19.0374
 30
0.0
 10
37.5835
 20
-19.0374
 30
0.0
 10
41.8223
 20
-19.0374
 30
0.0
 10
41.8223
 20
-19.0374
 30
0.0
 10
41.8223
 20
-19.0374
 30
0.0
 10
41.8223
 20
-19.0374
 30
0.0
 10
43.0425
 20
-19.0374
 30
0.0
 10
43.0425
 20
-19.0374
 30
0.0
 10
43.0425
 20
-19.0374
 30
0.0
 10
43.0425
 20
-19.0374
 30
0.0
 10
43.0425
 20
-20.3188
 30
0.0
 10
43.0425
 20
-20.3188
 30
0.0
 10
43.0425
 20
-20.3188
 30
0.0
 10
43.0425
 20
-20.3188
 30
0.0
 10
43.0425
 20
-29.8499
 30
0.0
 10
43.0425
 20
-29.8499
 30
0.0
 10
43.0425
 20
-29.8499
 30
0.0
 10
44.0672
 20
-29.0884
 30
0.0
 10
45.7002
 20
-27.4014
 30
0.0
 10
46.79
 20
-23.9308
 30
0.0
 10
46.79
 20
-23.9308
 30
0.0
 10
48.4823
 20
-18.5415
 30
0.0
 10
47.7453
 20
-18.1403
 30
0.0
 10
46.5443
 20
-17.7676
 30
0.0
 10
46.5443
 20
-17.7676
 30
0.0
 10
45.3434
 20
-17.3949
 30
0.0
 10
44.8248
 20
-16.7069
 30
0.0
 10
44.6883
 20
-15.5029
 30
0.0
 10
44.6883
 20
-15.5029
 30
0.0
 10
44.5518
 20
-14.299
 30
0.0
 10
43.1052
 20
-14.6143
 30
0.0
 10
41.9861
 20
-12.8657
 30
0.0
 10
41.9861
 20
-12.8657
 30
0.0
 10
40.867
 20
-11.1171
 30
0.0
 10
41.9588
 20
-10.4578
 30
0.0
 10
40.7033
 20
-8.7951
 30
0.0
 10
40.7033
 20
-8.7951
 30
0.0
 10
39.4477
 20
-7.1325
 30
0.0
 10
40.7033
 20
-6.2439
 30
0.0
 10
40.212
 20
-4.1513
 30
0.0
 10
40.212
 20
-4.1513
 30
0.0
 10
39.7438
 20
-2.1573
 30
0.0
 10
41.5806
 20
3.7411
 30
0.0
 10
44.5413
 20
6.9711
 30
0.0
 10
44.5413
 20
6.9711
 30
0.0
 10
44.5413
 20
6.9711
 30
0.0
 10
37.5835
 20
6.9711
 30
0.0
 10
37.5835
 20
6.9711
 30
0.0
 10
37.5835
 20
6.9711
 30
0.0
 10
37.5835
 20
6.9711
 30
0.0
 10
37.5835
 20
-11.6207
 30
0.0
 10
37.5835
 20
-11.6207
 30
0.0
  0
SPLINE
  5
52
330
1F
100
AcDbEntity
  8
layer 1
 62
     7
100
AcDbSpline
210
0.0
220
0.0
230
1.0
 70
    11
 71
     3
 72
    36
 73
    32
 74
     0
 42
0.0000000001
 43
0.0000000001
 12
1.0
 22
0.0
 32
0.0
 13
1.0
 23
0.0
 33
0.0
 40
0.0
 40
0.0
 40
0.0
 40
0.0
 40
0.1111111111111111
 40
0.1111111111111111
 40
0.1111111111111111
 40
0.1111111111111111
 40
0.2222222222222222
 40
0.2222222222222222
 40
0.2222222222222222
 40
0.2222222222222222
 40
0.3333333333333333
 40
0.3333333333333333
 40
0.3333333333333333
 40
0.3333333333333333
 40
0.4444444444444444
 40
0.4444444444444444
 40
0.4444444444444444
 40
0.4444444444444444
 40
0.5555555555555556
 40
0.5555555555555556
 40
0.5555555555555556
 40
0.5555555555555556
 40
0.6666666666666666
 40
0.6666666666666666
 40
0.6666666666666666
 40
0.6666666666666666
 40
0.7777777777777778
 40
0.7777777777777778
 40
0.7777777777777778
 40
0.7777777777777778
 40
1.0
 40
1.0
 40
1.0
 40
1.0
 10
52.3284
 20
6.9711
 30
0.0
 10
52.3284
 20
6.9711
 30
0.0
 10
51.886
 20
6.9711
 30
0.0
 10
51.886
 20
6.9711
 30
0.0
 10
51.886
 20
6.9711
 30
0.0
 10
51.886
 20
6.9711
 30
0.0
 10
51.886
 20
-3.8251
 30
0.0
 10
51.886
 20
-3.8251
 30
0.0
 10
51.886
 20
-3.8251
 30
0.0
 10
53.2033
 20
-3.9002
 30
0.0
 10
55.5898
 20
-4.3851
 30
0.0
 10
57.1219
 20
-6.7532
 30
0.0
 10
57.1219
 20
-6.7532
 30
0.0
 10
57.1219
 20
-6.7532
 30
0.0
 10
59.4002
 20
-6.7532
 30
0.0
 10
59.4002
 20
-6.7532
 30
0.0
 10
59.4002
 20
-6.7532
 30
0.0
 10
59.4002
 20
-6.7532
 30
0.0
 10
59.4002
 20
-0.8294
 30
0.0
 10
59.4002
 20
-0.8294
 30
0.0
 10
59.4002
 20
-0.8294
 30
0.0
 10
58.1671
 20
-0.3736
 30
0.0
 10
56.9602
 20
1.1258
 30
0.0
 10
56.6161
 20
2.184
 30
0.0
 10
56.6161
 20
2.184
 30
0.0
 10
56.234
 20
3.3592
 30
0.0
 10
55.9884
 20
2.9579
 30
0.0
 10
54.2688
 20
4.1332
 30
0.0
 10
54.2688
 20
4.1332
 30
0.0
 10
53.3261
 20
4.7775
 30
0.0
 10
52.701
 20
5.9989
 30
0.0
 10
52.3284
 20
6.9711
 30
0.0
  0
SPLINE
  5
53
330
1F
100
AcDbEntity
  8
layer 1
 62
     7
100
AcDbSpline
210
0.0
220
0.0
230
1.0
 70
    11
 71
     3
 72
    56
 73
    52
 74
     0
 42
0.0000000001
 43
0.0000000001
 12
1.0
 22
0.0
 32
0.0
 13
1.0
 23
0.0
 33
0.0
 40
0.0
 40
0.0
 40
0.0
 40
0.0
 40
0.0714285714285714
 40
0.0714285714285714
 40
0.0714285714285714
 40
0.0714285714285714
 40
0.1428571428571428
 40
0.1428571428571428
 40
0.1428571428571428
 40
0.1428571428571428
 40
0.2142857142857143
 40
0.2142857142857143
 40
0.2142857142857143
 40
0.2142857142857143
 40
0.2857142857142857
 40
0.2857142857142857
 40
0.2857142857142857
 40
0.2857142857142857
 40
0.3571428571428572
 40
0.3571428571428572
 40
0.3571428571428572
 40
0.3571428571428572
 40
0.4285714285714285
 40
0.4285714285714285
 40
0.4285714285714285
 40
0.4285714285714285
 40
0.5
 40
0.5
 40
0.5
 40
0.5
 40
0.5714285714285714
 40
0.5714285714285714
 40
0.5714285714285714
 40
0.5714285714285714
 40
0.6428571428571429
 40
0.6428571428571429
 40
0.6428571428571429
 40
0.6428571428571429
 40
0.7142857142857143
 40
0.7142857142857143
 40
0.7142857142857143
 40
0.7142857142857143
 40
0.7857142857142857
 40
0.7857142857142857
 40
0.7857142857142857
 40
0.7857142857142857
 40
0.8571428571428571
 40
0.8571428571428571
 40
0.8571428571428571
 40
0.8571428571428571
 40
1.0
 40
1.0
 40
1.0
 40
1.0
 10
59.4002
 20
-28.4882
 30
0.0
 10
58.2391
 20
-28.048
 30
0.0
 10
57.3478
 20
-27.0147
 30
0.0
 10
57.0579
 20
-25.7367
 30
0.0
 10
57.0579
 20
-25.7367
 30
0.0
 10
57.0579
 20
-25.7367
 30
0.0
 10
51.886
 20
-25.7367
 30
0.0
 10
51.886
 20
-25.7367
 30
0.0
 10
51.886
 20
-25.7367
 30
0.0
 10
51.886
 20
-25.7367
 30
0.0
 10
51.886
 20
-31.2845
 30
0.0
 10
51.886
 20
-31.2845
 30
0.0
 10
51.886
 20
-31.2845
 30
0.0
 10
51.886
 20
-31.2845
 30
0.0
 10
55.8519
 20
-31.2845
 30
0.0
 10
55.8519
 20
-31.2845
 30
0.0
 10
55.8519
 20
-31.2845
 30
0.0
 10
55.8519
 20
-31.2845
 30
0.0
 10
58.2286
 20
-31.122
 30
0.0
 10
56.5643
 20
-35.0761
 30
0.0
 10
56.5643
 20
-35.0761
 30
0.0
 10
56.5643
 20
-35.0761
 30
0.0
 10
56.9265
 20
-33.1763
 30
0.0
 10
55.8519
 20
-33.1763
 30
0.0
 10
55.8519
 20
-33.1763
 30
0.0
 10
55.8519
 20
-33.1763
 30
0.0
 10
51.886
 20
-33.1763
 30
0.0
 10
51.886
 20
-33.1763
 30
0.0
 10
51.886
 20
-33.1763
 30
0.0
 10
51.886
 20
-33.1763
 30
0.0
 10
51.886
 20
-43.5453
 30
0.0
 10
51.886
 20
-43.5453
 30
0.0
 10
51.886
 20
-43.5453
 30
0.0
 10
52.8586
 20
-43.4764
 30
0.0
 10
54.5785
 20
-43.0766
 30
0.0
 10
55.5418
 20
-41.2114
 30
0.0
 10
55.5418
 20
-41.2114
 30
0.0
 10
55.5418
 20
-41.2114
 30
0.0
 10
55.8535
 20
-40.6076
 30
0.0
 10
55.8535
 20
-40.6076
 30
0.0
 10
55.8535
 20
-40.6076
 30
0.0
 10
55.8535
 20
-40.6076
 30
0.0
 10
56.507
 20
-40.6076
 30
0.0
 10
56.507
 20
-40.6076
 30
0.0
 10
56.507
 20
-40.6076
 30
0.0
 10
56.507
 20
-40.6076
 30
0.0
 10
59.4002
 20
-40.6076
 30
0.0
 10
59.4002
 20
-40.6076
 30
0.0
 10
59.4002
 20
-40.6076
 30
0.0
 10
59.4002
 20
-40.6076
 30
0.0
 10
59.4002
 20
-28.4882
 30
0.0
 10
59.4002
 20
-28.4882
 30
0.0
  0
SPLINE
  5
54
330
1F
100
AcDbEntity
  8
layer 1
 62
     7
100
AcDbSpline
210
0.0
220
0.0
230
1.0
 70
    11
 71
     3
 72
    56
 73
    52
 74
     0
 42
0.0000000001
 43
0.0000000001
 12
1.0
 22
0.0
 32
0.0
 13
1.0
 23
0.0
 33
0.0
 40
0.0
 40
0.0
 40
0.0
 40
0.0
 40
0.0714285714285714
 40
0.0714285714285714
 40
0.0714285714285714
 40
0.0714285714285714
 40
0.1428571428571428
 40
0.1428571428571428
 40
0.1428571428571428
 40
0.1428571428571428
 40
0.2142857142857143
 40
0.2142857142857143
 40
0.2142857142857143
 40
0.2142857142857143
 40
0.2857142857142857
 40
0.2857142857142857
 40
0.2857142857142857
 40
0.2857142857142857
 40
0.3571428571428572
 40
0.3571428571428572
 40
0.3571428571428572
 40
0.3571428571428572
 40
0.4285714285714285
 40
0.4285714285714285
 40
0.4285714285714285
 40
0.4285714285714285
 40
0.5
 40
0.5
 40
0.5
 40
0.5
 40
0.5714285714285714
 40
0.5714285714285714
 40
0.5714285714285714
 40
0.5714285714285714
 40
0.6428571428571429
 40
0.6428571428571429
 40
0.6428571428571429
 40
0.6428571428571429
 40
0.7142857142857143
 40
0.7142857142857143
 40
0.7142857142857143
 40
0.7142857142857143
 40
0.7857142857142857
 40
0.7857142857142857
 40
0.7857142857142857
 40
0.7857142857142857
 40
0.8571428571428571
 40
0.8571428571428571
 40
0.8571428571428571
 40
0.8571428571428571
 40
1.0
 40
1.0
 40
1.0
 40
1.0
 10
51.886
 20
-23.9308
 30
0.0
 10
51.886
 20
-23.9308
 30
0.0
 10
57.0579
 20
-23.9308
 30
0.0
 10
57.0579
 20
-23.9308
 30
0.0
 10
57.0579
 20
-23.9308
 30
0.0
 10
57.3478
 20
-22.6527
 30
0.0
 10
58.2391
 20
-21.6194
 30
0.0
 10
59.4002
 20
-21.1793
 30
0.0
 10
59.4002
 20
-21.1793
 30
0.0
 10
59.4002
 20
-21.1793
 30
0.0
 10
59.4002
 20
-9.0598
 30
0.0
 10
59.4002
 20
-9.0598
 30
0.0
 10
59.4002
 20
-9.0598
 30
0.0
 10
59.4002
 20
-9.0598
 30
0.0
 10
56.507
 20
-9.0598
 30
0.0
 10
56.507
 20
-9.0598
 30
0.0
 10
56.507
 20
-9.0598
 30
0.0
 10
56.507
 20
-9.0598
 30
0.0
 10
55.8535
 20
-9.0598
 30
0.0
 10
55.8535
 20
-9.0598
 30
0.0
 10
55.8535
 20
-9.0598
 30
0.0
 10
55.8535
 20
-9.0598
 30
0.0
 10
55.5418
 20
-8.4561
 30
0.0
 10
55.5418
 20
-8.4561
 30
0.0
 10
55.5418
 20
-8.4561
 30
0.0
 10
54.5785
 20
-6.5908
 30
0.0
 10
52.8586
 20
-6.191
 30
0.0
 10
51.886
 20
-6.1222
 30
0.0
 10
51.886
 20
-6.1222
 30
0.0
 10
51.886
 20
-6.1222
 30
0.0
 10
51.886
 20
-16.4911
 30
0.0
 10
51.886
 20
-16.4911
 30
0.0
 10
51.886
 20
-16.4911
 30
0.0
 10
51.886
 20
-16.4911
 30
0.0
 10
55.8519
 20
-16.4911
 30
0.0
 10
55.8519
 20
-16.4911
 30
0.0
 10
55.8519
 20
-16.4911
 30
0.0
 10
56.9265
 20
-16.4911
 30
0.0
 10
56.5643
 20
-14.5913
 30
0.0
 10
56.5643
 20
-14.5913
 30
0.0
 10
56.5643
 20
-14.5913
 30
0.0
 10
58.2286
 20
-18.5455
 30
0.0
 10
55.8519
 20
-18.383
 30
0.0
 10
55.8519
 20
-18.383
 30
0.0
 10
55.8519
 20
-18.383
 30
0.0
 10
55.8519
 20
-18.383
 30
0.0
 10
51.886
 20
-18.383
 30
0.0
 10
51.886
 20
-18.383
 30
0.0
 10
51.886
 20
-18.383
 30
0.0
 10
51.886
 20
-18.383
 30
0.0
 10
51.886
 20
-23.9308
 30
0.0
 10
51.886
 20
-23.9308
 30
0.0
  0
SPLINE
  5
55
330
1F
100
AcDbEntity
  8
layer 1
 62
     7
100
AcDbSpline
210
0.0
220
0.0
230
1.0
 70
    11
 71
     3
 72
    44
 73
    40
 74
     0
 42
0.0000000001
 43
0.0000000001
 12
1.0
 22
0.0
 32
0.0
 13
1.0
 23
0.0
 33
0.0
 40
0.0
 40
0.0
 40
0.0
 40
0.0
 40
0.0909090909090909
 40
0.0909090909090909
 40
0.0909090909090909
 40
0.0909090909090909
 40
0.1818181818181818
 40
0.1818181818181818
 40
0.1818181818181818
 40
0.1818181818181818
 40
0.2727272727272727
 40
0.2727272727272727
 40
0.2727272727272727
 40
0.2727272727272727
 40
0.3636363636363636
 40
0.3636363636363636
 40
0.3636363636363636
 40
0.3636363636363636
 40
0.4545454545454545
 40
0.4545454545454545
 40
0.4545454545454545
 40
0.4545454545454545
 40
0.5454545454545454
 40
0.5454545454545454
 40
0.5454545454545454
 40
0.5454545454545454
 40
0.6363636363636364
 40
0.6363636363636364
 40
0.6363636363636364
 40
0.6363636363636364
 40
0.7272727272727273
 40
0.7272727272727273
 40
0.7272727272727273
 40
0.7272727272727273
 40
0.8181818181818182
 40
0.8181818181818182
 40
0.8181818181818182
 40
0.8181818181818182
 40
1.0
 40
1.0
 40
1.0
 40
1.0
 10
59.4002
 20
-75.8013
 30
0.0
 10
58.2391
 20
-75.3611
 30
0.0
 10
57.3478
 20
-74.3279
 30
0.0
 10
57.0579
 20
-73.0498
 30
0.0
 10
57.0579
 20
-73.0498
 30
0.0
 10
57.0579
 20
-73.0498
 30
0.0
 10
52.8686
 20
-73.0498
 30
0.0
 10
52.8686
 20
-73.0498
 30
0.0
 10
52.8686
 20
-73.0498
 30
0.0
 10
52.8686
 20
-73.0498
 30
0.0
 10
52.8686
 20
-78.5975
 30
0.0
 10
52.8686
 20
-78.5975
 30
0.0
 10
52.8686
 20
-78.5975
 30
0.0
 10
52.8686
 20
-78.5975
 30
0.0
 10
55.8519
 20
-78.5975
 30
0.0
 10
55.8519
 20
-78.5975
 30
0.0
 10
55.8519
 20
-78.5975
 30
0.0
 10
55.8519
 20
-78.5975
 30
0.0
 10
58.2286
 20
-78.4351
 30
0.0
 10
56.5643
 20
-82.3893
 30
0.0
 10
56.5643
 20
-82.3893
 30
0.0
 10
56.5643
 20
-82.3893
 30
0.0
 10
56.9265
 20
-80.4895
 30
0.0
 10
55.8519
 20
-80.4895
 30
0.0
 10
55.8519
 20
-80.4895
 30
0.0
 10
55.8519
 20
-80.4895
 30
0.0
 10
52.8686
 20
-80.4895
 30
0.0
 10
52.8686
 20
-80.4895
 30
0.0
 10
52.8686
 20
-80.4895
 30
0.0
 10
52.8686
 20
-80.4895
 30
0.0
 10
52.8686
 20
-86.001
 30
0.0
 10
52.8686
 20
-86.001
 30
0.0
 10
52.8686
 20
-86.001
 30
0.0
 10
52.8686
 20
-86.001
 30
0.0
 10
59.4002
 20
-86.001
 30
0.0
 10
59.4002
 20
-86.001
 30
0.0
 10
59.4002
 20
-86.001
 30
0.0
 10
59.4002
 20
-86.001
 30
0.0
 10
59.4002
 20
-75.8013
 30
0.0
 10
59.4002
 20
-75.8013
 30
0.0
  0
SPLINE
  5
56
330
1F
100
AcDbEntity
  8
layer 1
 62
     7
100
AcDbSpline
210
0.0
220
0.0
230
1.0
 70
    11
 71
     3
 72
    56
 73
    52
 74
     0
 42
0.0000000001
 43
0.0000000001
 12
1.0
 22
0.0
 32
0.0
 13
1.0
 23
0.0
 33
0.0
 40
0.0
 40
0.0
 40
0.0
 40
0.0
 40
0.0714285714285714
 40
0.0714285714285714
 40
0.0714285714285714
 40
0.0714285714285714
 40
0.1428571428571428
 40
0.1428571428571428
 40
0.1428571428571428
 40
0.1428571428571428
 40
0.2142857142857143
 40
0.2142857142857143
 40
0.2142857142857143
 40
0.2142857142857143
 40
0.2857142857142857
 40
0.2857142857142857
 40
0.2857142857142857
 40
0.2857142857142857
 40
0.3571428571428572
 40
0.3571428571428572
 40
0.3571428571428572
 40
0.3571428571428572
 40
0.4285714285714285
 40
0.4285714285714285
 40
0.4285714285714285
 40
0.4285714285714285
 40
0.5
 40
0.5
 40
0.5
 40
0.5
 40
0.5714285714285714
 40
0.5714285714285714
 40
0.5714285714285714
 40
0.5714285714285714
 40
0.6428571428571429
 40
0.6428571428571429
 40
0.6428571428571429
 40
0.6428571428571429
 40
0.7142857142857143
 40
0.7142857142857143
 40
0.7142857142857143
 40
0.7142857142857143
 40
0.7857142857142857
 40
0.7857142857142857
 40
0.7857142857142857
 40
0.7857142857142857
 40
0.8571428571428571
 40
0.8571428571428571
 40
0.8571428571428571
 40
0.8571428571428571
 40
1.0
 40
1.0
 40
1.0
 40
1.0
 10
52.8686
 20
-71.2438
 30
0.0
 10
52.8686
 20
-71.2438
 30
0.0
 10
57.0579
 20
-71.2438
 30
0.0
 10
57.0579
 20
-71.2438
 30
0.0
 10
57.0579
 20
-71.2438
 30
0.0
 10
57.3478
 20
-69.9659
 30
0.0
 10
58.2391
 20
-68.9325
 30
0.0
 10
59.4002
 20
-68.4923
 30
0.0
 10
59.4002
 20
-68.4923
 30
0.0
 10
59.4002
 20
-68.4923
 30
0.0
 10
59.4002
 20
-56.3434
 30
0.0
 10
59.4002
 20
-56.3434
 30
0.0
 10
59.4002
 20
-56.3434
 30
0.0
 10
59.4002
 20
-56.3434
 30
0.0
 10
55.9611
 20
-56.3434
 30
0.0
 10
55.9611
 20
-56.3434
 30
0.0
 10
55.9611
 20
-56.3434
 30
0.0
 10
55.9611
 20
-56.3434
 30
0.0
 10
55.2685
 20
-56.3434
 30
0.0
 10
55.2685
 20
-56.3434
 30
0.0
 10
55.2685
 20
-56.3434
 30
0.0
 10
55.2685
 20
-56.3434
 30
0.0
 10
54.9124
 20
-55.7077
 30
0.0
 10
54.9124
 20
-55.7077
 30
0.0
 10
54.9124
 20
-55.7077
 30
0.0
 10
54.2911
 20
-54.5982
 30
0.0
 10
53.5025
 20
-54.0953
 30
0.0
 10
52.8686
 20
-53.8697
 30
0.0
 10
52.8686
 20
-53.8697
 30
0.0
 10
52.8686
 20
-53.8697
 30
0.0
 10
52.8686
 20
-63.8042
 30
0.0
 10
52.8686
 20
-63.8042
 30
0.0
 10
52.8686
 20
-63.8042
 30
0.0
 10
52.8686
 20
-63.8042
 30
0.0
 10
55.8519
 20
-63.8042
 30
0.0
 10
55.8519
 20
-63.8042
 30
0.0
 10
55.8519
 20
-63.8042
 30
0.0
 10
56.9265
 20
-63.8042
 30
0.0
 10
56.5643
 20
-61.9044
 30
0.0
 10
56.5643
 20
-61.9044
 30
0.0
 10
56.5643
 20
-61.9044
 30
0.0
 10
58.2286
 20
-65.8585
 30
0.0
 10
55.8519
 20
-65.6962
 30
0.0
 10
55.8519
 20
-65.6962
 30
0.0
 10
55.8519
 20
-65.6962
 30
0.0
 10
55.8519
 20
-65.6962
 30
0.0
 10
52.8686
 20
-65.6962
 30
0.0
 10
52.8686
 20
-65.6962
 30
0.0
 10
52.8686
 20
-65.6962
 30
0.0
 10
52.8686
 20
-65.6962
 30
0.0
 10
52.8686
 20
-71.2438
 30
0.0
 10
52.8686
 20
-71.2438
 30
0.0
  0
SPLINE
  5
57
330
1F
100
AcDbEntity
  8
layer 1
 62
     7
100
AcDbSpline
210
0.0
220
0.0
230
1.0
 70
    11
 71
     3
 72
    36
 73
    32
 74
     0
 42
0.0000000001
 43
0.0000000001
 12
1.0
 22
0.0
 32
0.0
 13
1.0
 23
0.0
 33
0.0
 40
0.0
 40
0.0
 40
0.0
 40
0.0
 40
0.1111111111111111
 40
0.1111111111111111
 40
0.1111111111111111
 40
0.1111111111111111
 40
0.2222222222222222
 40
0.2222222222222222
 40
0.2222222222222222
 40
0.2222222222222222
 40
0.3333333333333333
 40
0.3333333333333333
 40
0.3333333333333333
 40
0.3333333333333333
 40
0.4444444444444444
 40
0.4444444444444444
 40
0.4444444444444444
 40
0.4444444444444444
 40
0.5555555555555556
 40
0.5555555555555556
 40
0.5555555555555556
 40
0.5555555555555556
 40
0.6666666666666666
 40
0.6666666666666666
 40
0.6666666666666666
 40
0.6666666666666666
 40
0.7777777777777778
 40
0.7777777777777778
 40
0.7777777777777778
 40
0.7777777777777778
 40
1.0
 40
1.0
 40
1.0
 40
1.0
 10
59.1895
 20
-42.9142
 30
0.0
 10
59.1895
 20
-42.9142
 30
0.0
 10
57.1219
 20
-42.9142
 30
0.0
 10
57.1219
 20
-42.9142
 30
0.0
 10
57.1219
 20
-42.9142
 30
0.0
 10
55.5898
 20
-45.2823
 30
0.0
 10
53.2033
 20
-45.7672
 30
0.0
 10
51.886
 20
-45.8424
 30
0.0
 10
51.886
 20
-45.8424
 30
0.0
 10
51.886
 20
-45.8424
 30
0.0
 10
51.886
 20
-50.4754
 30
0.0
 10
51.886
 20
-50.4754
 30
0.0
 10
51.886
 20
-50.4754
 30
0.0
 10
51.886
 20
-50.4754
 30
0.0
 10
51.886
 20
-51.1432
 30
0.0
 10
51.886
 20
-51.1432
 30
0.0
 10
51.886
 20
-51.1432
 30
0.0
 10
52.7332
 20
-51.1565
 30
0.0
 10
54.9773
 20
-51.4289
 30
0.0
 10
56.6127
 20
-53.7805
 30
0.0
 10
56.6127
 20
-53.7805
 30
0.0
 10
56.6127
 20
-53.7805
 30
0.0
 10
59.1895
 20
-53.7805
 30
0.0
 10
59.1895
 20
-53.7805
 30
0.0
 10
59.1895
 20
-53.7805
 30
0.0
 10
56.9335
 20
-53.1101
 30
0.0
 10
55.2798
 20
-50.9312
 30
0.0
 10
55.2798
 20
-48.3474
 30
0.0
 10
55.2798
 20
-48.3474
 30
0.0
 10
55.2798
 20
-45.7636
 30
0.0
 10
56.9335
 20
-43.5847
 30
0.0
 10
59.1895
 20
-42.9142
 30
0.0
  0
SPLINE
  5
58
330
1F
100
AcDbEntity
  8
layer 1
 62
     7
100
AcDbSpline
210
0.0
220
0.0
230
1.0
 70
    11
 71
     3
 72
    32
 73
    28
 74
     0
 42
0.0000000001
 43
0.0000000001
 12
1.0
 22
0.0
 32
0.0
 13
1.0
 23
0.0
 33
0.0
 40
0.0
 40
0.0
 40
0.0
 40
0.0
 40
0.125
 40
0.125
 40
0.125
 40
0.125
 40
0.25
 40
0.25
 40
0.25
 40
0.25
 40
0.375
 40
0.375
 40
0.375
 40
0.375
 40
0.5
 40
0.5
 40
0.5
 40
0.5
 40
0.625
 40
0.625
 40
0.625
 40
0.625
 40
0.75
 40
0.75
 40
0.75
 40
0.75
 40
1.0
 40
1.0
 40
1.0
 40
1.0
 10
25.6638
 20
-84.0517
 30
0.0
 10
25.6638
 20
-84.0517
 30
0.0
 10
39.1828
 20
-84.0517
 30
0.0
 10
39.1828
 20
-84.0517
 30
0.0
 10
39.1828
 20
-84.0517
 30
0.0
 10
39.1828
 20
-84.0517
 30
0.0
 10
39.1828
 20
-76.7529
 30
0.0
 10
39.1828
 20
-76.7529
 30
0.0
 10
39.1828
 20
-76.7529
 30
0.0
 10
37.3203
 20
-76.024
 30
0.0
 10
34.7851
 20
-74.8881
 30
0.0
 10
33.361
 20
-73.1788
 30
0.0
 10
33.361
 20
-73.1788
 30
0.0
 10
33.361
 20
-73.1788
 30
0.0
 10
32.5421
 20
-75.5867
 30
0.0
 10
32.6513
 20
-77.3641
 30
0.0
 10
32.6513
 20
-77.3641
 30
0.0
 10
32.6513
 20
-77.3641
 30
0.0
 10
31.6483
 20
-76.6606
 30
0.0
 10
31.6374
 20
-74.747
 30
0.0
 10
31.6374
 20
-74.747
 30
0.0
 10
31.6374
 20
-74.747
 30
0.0
 10
25.6638
 20
-74.747
 30
0.0
 10
25.6638
 20
-74.747
 30
0.0
 10
25.6638
 20
-74.747
 30
0.0
 10
25.6638
 20
-74.747
 30
0.0
 10
25.6638
 20
-84.0517
 30
0.0
 10
25.6638
 20
-84.0517
 30
0.0
  0
SPLINE
  5
59
330
1F
100
AcDbEntity
  8
layer 1
 62
     7
100
AcDbSpline
210
0.0
220
0.0
230
1.0
 70
    11
 71
     3
 72
    24
 73
    20
 74
     0
 42
0.0000000001
 43
0.0000000001
 12
1.0
 22
0.0
 32
0.0
 13
1.0
 23
0.0
 33
0.0
 40
0.0
 40
0.0
 40
0.0
 40
0.0
 40
0.1666666666666667
 40
0.1666666666666667
 40
0.1666666666666667
 40
0.1666666666666667
 40
0.3333333333333333
 40
0.3333333333333333
 40
0.3333333333333333
 40
0.3333333333333333
 40
0.5
 40
0.5
 40
0.5
 40
0.5
 40
0.6666666666666666
 40
0.6666666666666666
 40
0.6666666666666666
 40
0.6666666666666666
 40
1.0
 40
1.0
 40
1.0
 40
1.0
 10
50.4283
 20
-104.2527
 30
0.0
 10
50.4283
 20
-104.2527
 30
0.0
 10
50.4283
 20
-99.3879
 30
0.0
 10
50.4283
 20
-99.3879
 30
0.0
 10
50.4283
 20
-99.3879
 30
0.0
 10
49.5295
 20
-99.2365
 30
0.0
 10
48.2919
 20
-98.5689
 30
0.0
 10
47.3905
 20
-96.2835
 30
0.0
 10
47.3905
 20
-96.2835
 30
0.0
 10
47.3905
 20
-96.2835
 30
0.0
 10
45.983
 20
-98.9701
 30
0.0
 10
43.2062
 20
-99.1986
 30
0.0
 10
43.2062
 20
-99.1986
 30
0.0
 10
43.2062
 20
-99.1986
 30
0.0
 10
43.2062
 20
-104.2527
 30
0.0
 10
43.2062
 20
-104.2527
 30
0.0
 10
43.2062
 20
-104.2527
 30
0.0
 10
43.2062
 20
-104.2527
 30
0.0
 10
50.4283
 20
-104.2527
 30
0.0
 10
50.4283
 20
-104.2527
 30
0.0
  0
SPLINE
  5
5A
330
1F
100
AcDbEntity
  8
layer 1
 62
     7
100
AcDbSpline
210
0.0
220
0.0
230
1.0
 70
    11
 71
     3
 72
    16
 73
    12
 74
     0
 42
0.0000000001
 43
0.0000000001
 12
1.0
 22
0.0
 32
0.0
 13
1.0
 23
0.0
 33
0.0
 40
0.0
 40
0.0
 40
0.0
 40
0.0
 40
0.25
 40
0.25
 40
0.25
 40
0.25
 40
0.5
 40
0.5
 40
0.5
 40
0.5
 40
1.0
 40
1.0
 40
1.0
 40
1.0
 10
72.1193
 20
-92.9297
 30
0.0
 10
72.1193
 20
-92.9297
 30
0.0
 10
71.628
 20
-95.137
 30
0.0
 10
70.2906
 20
-96.083
 30
0.0
 10
70.2906
 20
-96.083
 30
0.0
 10
70.2906
 20
-96.083
 30
0.0
 10
71.4906
 20
-97.2669
 30
0.0
 10
73.4294
 20
-95.8823
 30
0.0
 10
73.4294
 20
-95.8823
 30
0.0
 10
73.4294
 20
-95.8823
 30
0.0
 10
72.3922
 20
-94.7356
 30
0.0
 10
72.1193
 20
-92.9297
 30
0.0
  0
SPLINE
  5
5B
330
1F
100
AcDbEntity
  8
layer 1
 62
     7
100
AcDbSpline
210
0.0
220
0.0
230
1.0
 70
    11
 71
     3
 72
    20
 73
    16
 74
     0
 42
0.0000000001
 43
0.0000000001
 12
1.0
 22
0.0
 32
0.0
 13
1.0
 23
0.0
 33
0.0
 40
0.0
 40
0.0
 40
0.0
 40
0.0
 40
0.2
 40
0.2
 40
0.2
 40
0.2
 40
0.4
 40
0.4
 40
0.4
 40
0.4
 40
0.6
 40
0.6
 40
0.6
 40
0.6
 40
1.0
 40
1.0
 40
1.0
 40
1.0
 10
71.8656
 20
-25.5613
 30
0.0
 10
73.0359
 20
-26.7369
 30
0.0
 10
75.0769
 20
-29.1808
 30
0.0
 10
75.613
 20
-32.3585
 30
0.0
 10
75.613
 20
-32.3585
 30
0.0
 10
76.3773
 20
-36.8878
 30
0.0
 10
73.6479
 20
-40.2416
 30
0.0
 10
72.6379
 20
-41.933
 30
0.0
 10
72.6379
 20
-41.933
 30
0.0
 10
72.3247
 20
-42.4576
 30
0.0
 10
72.0247
 20
-43.0484
 30
0.0
 10
71.8656
 20
-43.655
 30
0.0
 10
71.8656
 20
-43.655
 30
0.0
 10
71.8656
 20
-43.655
 30
0.0
 10
71.8656
 20
-25.5613
 30
0.0
 10
71.8656
 20
-25.5613
 30
0.0
  0
SPLINE
  5
5C
330
1F
100
AcDbEntity
  8
layer 1
 62
     7
100
AcDbSpline
210
0.0
220
0.0
230
1.0
 70
    11
 71
     3
 72
    20
 73
    16
 74
     0
 42
0.0000000001
 43
0.0000000001
 12
1.0
 22
0.0
 32
0.0
 13
1.0
 23
0.0
 33
0.0
 40
0.0
 40
0.0
 40
0.0
 40
0.0
 40
0.2
 40
0.2
 40
0.2
 40
0.2
 40
0.4
 40
0.4
 40
0.4
 40
0.4
 40
0.6
 40
0.6
 40
0.6
 40
0.6
 40
1.0
 40
1.0
 40
1.0
 40
1.0
 10
72.743
 20
6.9711
 30
0.0
 10
74.2053
 20
5.5494
 30
0.0
 10
76.4624
 20
2.8013
 30
0.0
 10
77.6874
 20
-0.654
 30
0.0
 10
77.6874
 20
-0.654
 30
0.0
 10
79.338
 20
-5.3096
 30
0.0
 10
73.7377
 20
-14.4993
 30
0.0
 10
71.8656
 20
-18.3937
 30
0.0
 10
71.8656
 20
-18.3937
 30
0.0
 10
71.8656
 20
-18.3937
 30
0.0
 10
71.8656
 20
6.9711
 30
0.0
 10
71.8656
 20
6.9711
 30
0.0
 10
71.8656
 20
6.9711
 30
0.0
 10
71.8656
 20
6.9711
 30
0.0
 10
72.743
 20
6.9711
 30
0.0
 10
72.743
 20
6.9711
 30
0.0
  0
SPLINE
  5
5D
330
1F
100
AcDbEntity
  8
layer 1
 62
     7
100
AcDbSpline
210
0.0
220
0.0
230
1.0
 70
    11
 71
     3
 72
    24
 73
    20
 74
     0
 42
0.0000000001
 43
0.0000000001
 12
1.0
 22
0.0
 32
0.0
 13
1.0
 23
0.0
 33
0.0
 40
0.0
 40
0.0
 40
0.0
 40
0.0
 40
0.1666666666666667
 40
0.1666666666666667
 40
0.1666666666666667
 40
0.1666666666666667
 40
0.3333333333333333
 40
0.3333333333333333
 40
0.3333333333333333
 40
0.3333333333333333
 40
0.5
 40
0.5
 40
0.5
 40
0.5
 40
0.6666666666666666
 40
0.6666666666666666
 40
0.6666666666666666
 40
0.6666666666666666
 40
1.0
 40
1.0
 40
1.0
 40
1.0
 10
73.695
 20
-86.001
 30
0.0
 10
74.6472
 20
-83.6828
 30
0.0
 10
77.8799
 20
-79.5165
 30
0.0
 10
79.6881
 20
-77.9445
 30
0.0
 10
79.6881
 20
-77.9445
 30
0.0
 10
79.6881
 20
-77.9445
 30
0.0
 10
79.6881
 20
-85.3331
 30
0.0
 10
79.6881
 20
-85.3331
 30
0.0
 10
79.6881
 20
-85.3331
 30
0.0
 10
79.6881
 20
-85.3331
 30
0.0
 10
79.6881
 20
-86.001
 30
0.0
 10
79.6881
 20
-86.001
 30
0.0
 10
79.6881
 20
-86.001
 30
0.0
 10
79.6881
 20
-86.001
 30
0.0
 10
79.3252
 20
-86.001
 30
0.0
 10
79.3252
 20
-86.001
 30
0.0
 10
79.3252
 20
-86.001
 30
0.0
 10
79.3252
 20
-86.001
 30
0.0
 10
73.695
 20
-86.001
 30
0.0
 10
73.695
 20
-86.001
 30
0.0
  0
SPLINE
  5
5E
330
1F
100
AcDbEntity
  8
layer 1
 62
     7
100
AcDbSpline
210
0.0
220
0.0
230
1.0
 70
    11
 71
     3
 72
    20
 73
    16
 74
     0
 42
0.0000000001
 43
0.0000000001
 12
1.0
 22
0.0
 32
0.0
 13
1.0
 23
0.0
 33
0.0
 40
0.0
 40
0.0
 40
0.0
 40
0.0
 40
0.2
 40
0.2
 40
0.2
 40
0.2
 40
0.4
 40
0.4
 40
0.4
 40
0.4
 40
0.6
 40
0.6
 40
0.6
 40
0.6
 40
1.0
 40
1.0
 40
1.0
 40
1.0
 10
78.105
 20
-96.7603
 30
0.0
 10
77.629
 20
-96.5796
 30
0.0
 10
77.1049
 20
-96.2784
 30
0.0
 10
76.541
 20
-95.8249
 30
0.0
 10
76.541
 20
-95.8249
 30
0.0
 10
74.4784
 20
-94.1657
 30
0.0
 10
73.8624
 20
-90.8022
 30
0.0
 10
73.5866
 20
-88.5639
 30
0.0
 10
73.5866
 20
-88.5639
 30
0.0
 10
73.5866
 20
-88.5639
 30
0.0
 10
78.105
 20
-88.5639
 30
0.0
 10
78.105
 20
-88.5639
 30
0.0
 10
78.105
 20
-88.5639
 30
0.0
 10
78.105
 20
-88.5639
 30
0.0
 10
78.105
 20
-96.7603
 30
0.0
 10
78.105
 20
-96.7603
 30
0.0
  0
SPLINE
  5
5F
330
1F
100
AcDbEntity
  8
layer 1
 62
     7
100
AcDbSpline
210
0.0
220
0.0
230
1.0
 70
    11
 71
     3
 72
    24
 73
    20
 74
     0
 42
0.0000000001
 43
0.0000000001
 12
1.0
 22
0.0
 32
0.0
 13
1.0
 23
0.0
 33
0.0
 40
0.0
 40
0.0
 40
0.0
 40
0.0
 40
0.1666666666666667
 40
0.1666666666666667
 40
0.1666666666666667
 40
0.1666666666666667
 40
0.3333333333333333
 40
0.3333333333333333
 40
0.3333333333333333
 40
0.3333333333333333
 40
0.5
 40
0.5
 40
0.5
 40
0.5
 40
0.6666666666666666
 40
0.6666666666666666
 40
0.6666666666666666
 40
0.6666666666666666
 40
1.0
 40
1.0
 40
1.0
 40
1.0
 10
70.8821
 20
-88.5639
 30
0.0
 10
68.8406
 20
-95.4177
 30
0.0
 10
68.0237
 20
-95.7597
 30
0.0
 10
65.7869
 20
-95.6529
 30
0.0
 10
65.7869
 20
-95.6529
 30
0.0
 10
63.3849
 20
-95.5382
 30
0.0
 10
64.8043
 20
-92.6143
 30
0.0
 10
65.1318
 20
-91.353
 30
0.0
 10
65.1318
 20
-91.353
 30
0.0
 10
65.4593
 20
-90.0918
 30
0.0
 10
62.3477
 20
-90.321
 30
0.0
 10
61.911
 20
-93.1304
 30
0.0
 10
61.911
 20
-93.1304
 30
0.0
 10
61.911
 20
-93.1304
 30
0.0
 10
61.911
 20
-88.5639
 30
0.0
 10
61.911
 20
-88.5639
 30
0.0
 10
61.911
 20
-88.5639
 30
0.0
 10
61.911
 20
-88.5639
 30
0.0
 10
70.8821
 20
-88.5639
 30
0.0
 10
70.8821
 20
-88.5639
 30
0.0
  0
SPLINE
  5
60
330
1F
100
AcDbEntity
  8
layer 1
 62
     7
100
AcDbSpline
210
0.0
220
0.0
230
1.0
 70
    11
 71
     3
 72
    24
 73
    20
 74
     0
 42
0.0000000001
 43
0.0000000001
 12
1.0
 22
0.0
 32
0.0
 13
1.0
 23
0.0
 33
0.0
 40
0.0
 40
0.0
 40
0.0
 40
0.0
 40
0.1666666666666667
 40
0.1666666666666667
 40
0.1666666666666667
 40
0.1666666666666667
 40
0.3333333333333333
 40
0.3333333333333333
 40
0.3333333333333333
 40
0.3333333333333333
 40
0.5
 40
0.5
 40
0.5
 40
0.5
 40
0.6666666666666666
 40
0.6666666666666666
 40
0.6666666666666666
 40
0.6666666666666666
 40
1.0
 40
1.0
 40
1.0
 40
1.0
 10
70.8829
 20
-66.702
 30
0.0
 10
71.0924
 20
-67.8957
 30
0.0
 10
71.4373
 20
-68.988
 30
0.0
 10
71.9009
 20
-69.8536
 30
0.0
 10
71.9009
 20
-69.8536
 30
0.0
 10
73.8662
 20
-73.5228
 30
0.0
 10
78.8339
 20
-75.6441
 30
0.0
 10
78.8339
 20
-75.6441
 30
0.0
 10
78.8339
 20
-75.6441
 30
0.0
 10
78.8339
 20
-75.6441
 30
0.0
 10
74.1366
 20
-78.2976
 30
0.0
 10
71.6409
 20
-86.001
 30
0.0
 10
71.6409
 20
-86.001
 30
0.0
 10
71.6409
 20
-86.001
 30
0.0
 10
70.8829
 20
-86.001
 30
0.0
 10
70.8829
 20
-86.001
 30
0.0
 10
70.8829
 20
-86.001
 30
0.0
 10
70.8829
 20
-86.001
 30
0.0
 10
70.8829
 20
-66.702
 30
0.0
 10
70.8829
 20
-66.702
 30
0.0
  0
SPLINE
  5
61
330
1F
100
AcDbEntity
  8
layer 1
 62
     7
100
AcDbSpline
210
0.0
220
0.0
230
1.0
 70
    11
 71
     3
 72
    28
 73
    24
 74
     0
 42
0.0000000001
 43
0.0000000001
 12
1.0
 22
0.0
 32
0.0
 13
1.0
 23
0.0
 33
0.0
 40
0.0
 40
0.0
 40
0.0
 40
0.0
 40
0.1428571428571428
 40
0.1428571428571428
 40
0.1428571428571428
 40
0.1428571428571428
 40
0.2857142857142857
 40
0.2857142857142857
 40
0.2857142857142857
 40
0.2857142857142857
 40
0.4285714285714285
 40
0.4285714285714285
 40
0.4285714285714285
 40
0.4285714285714285
 40
0.5714285714285714
 40
0.5714285714285714
 40
0.5714285714285714
 40
0.5714285714285714
 40
0.7142857142857143
 40
0.7142857142857143
 40
0.7142857142857143
 40
0.7142857142857143
 40
1.0
 40
1.0
 40
1.0
 40
1.0
 10
79.6881
 20
-56.7629
 30
0.0
 10
78.4508
 20
-55.3127
 30
0.0
 10
76.1526
 20
-54.5917
 30
0.0
 10
73.7024
 20
-56.1513
 30
0.0
 10
73.7024
 20
-56.1513
 30
0.0
 10
72.1856
 20
-57.1167
 30
0.0
 10
71.2784
 20
-59.0477
 30
0.0
 10
70.8829
 20
-61.2337
 30
0.0
 10
70.8829
 20
-61.2337
 30
0.0
 10
70.8829
 20
-61.2337
 30
0.0
 10
70.8829
 20
-52.4247
 30
0.0
 10
70.8829
 20
-52.4247
 30
0.0
 10
70.8829
 20
-52.4247
 30
0.0
 10
70.8829
 20
-52.4247
 30
0.0
 10
70.8829
 20
-51.7568
 30
0.0
 10
70.8829
 20
-51.7568
 30
0.0
 10
70.8829
 20
-51.7568
 30
0.0
 10
70.8829
 20
-51.7568
 30
0.0
 10
79.6881
 20
-51.7568
 30
0.0
 10
79.6881
 20
-51.7568
 30
0.0
 10
79.6881
 20
-51.7568
 30
0.0
 10
79.6881
 20
-51.7568
 30
0.0
 10
79.6881
 20
-56.7629
 30
0.0
 10
79.6881
 20
-56.7629
 30
0.0
  0
SPLINE
  5
62
330
1F
100
AcDbEntity
  8
layer 1
 62
     7
100
AcDbSpline
210
0.0
220
0.0
230
1.0
 70
    11
 71
     3
 72
    24
 73
    20
 74
     0
 42
0.0000000001
 43
0.0000000001
 12
1.0
 22
0.0
 32
0.0
 13
1.0
 23
0.0
 33
0.0
 40
0.0
 40
0.0
 40
0.0
 40
0.0
 40
0.1666666666666667
 40
0.1666666666666667
 40
0.1666666666666667
 40
0.1666666666666667
 40
0.3333333333333333
 40
0.3333333333333333
 40
0.3333333333333333
 40
0.3333333333333333
 40
0.5
 40
0.5
 40
0.5
 40
0.5
 40
0.6666666666666666
 40
0.6666666666666666
 40
0.6666666666666666
 40
0.6666666666666666
 40
1.0
 40
1.0
 40
1.0
 40
1.0
 10
79.6881
 20
-73.615
 30
0.0
 10
74.9233
 20
-72.6333
 30
0.0
 10
71.7479
 20
-66.5795
 30
0.0
 10
72.5014
 20
-61.8844
 30
0.0
 10
72.5014
 20
-61.8844
 30
0.0
 10
73.3203
 20
-56.7819
 30
0.0
 10
76.4865
 20
-56.5526
 30
0.0
 10
77.3053
 20
-58.1579
 30
0.0
 10
77.3053
 20
-58.1579
 30
0.0
 10
78.1241
 20
-59.7631
 30
0.0
 10
76.541
 20
-61.5978
 30
0.0
 10
77.6328
 20
-62.2284
 30
0.0
 10
77.6328
 20
-62.2284
 30
0.0
 10
78.2158
 20
-62.5651
 30
0.0
 10
79.0475
 20
-62.4114
 30
0.0
 10
79.6881
 20
-61.7938
 30
0.0
 10
79.6881
 20
-61.7938
 30
0.0
 10
79.6881
 20
-61.7938
 30
0.0
 10
79.6881
 20
-73.615
 30
0.0
 10
79.6881
 20
-73.615
 30
0.0
  0
SPLINE
  5
63
330
1F
100
AcDbEntity
  8
layer 1
 62
     7
100
AcDbSpline
210
0.0
220
0.0
230
1.0
 70
    11
 71
     3
 72
    16
 73
    12
 74
     0
 42
0.0000000001
 43
0.0000000001
 12
1.0
 22
0.0
 32
0.0
 13
1.0
 23
0.0
 33
0.0
 40
0.0
 40
0.0
 40
0.0
 40
0.0
 40
0.25
 40
0.25
 40
0.25
 40
0.25
 40
0.5
 40
0.5
 40
0.5
 40
0.5
 40
1.0
 40
1.0
 40
1.0
 40
1.0
 10
82.1284
 20
-65.4375
 30
0.0
 10
83.4415
 20
-67.6729
 30
0.0
 10
86.6274
 20
-68.7898
 30
0.0
 10
89.7517
 20
-66.0697
 30
0.0
 10
89.7517
 20
-66.0697
 30
0.0
 10
89.7517
 20
-66.0697
 30
0.0
 10
86.8919
 20
-72.7151
 30
0.0
 10
82.1284
 20
-73.644
 30
0.0
 10
82.1284
 20
-73.644
 30
0.0
 10
82.1284
 20
-73.644
 30
0.0
 10
82.1284
 20
-65.4375
 30
0.0
 10
82.1284
 20
-65.4375
 30
0.0
  0
SPLINE
  5
64
330
1F
100
AcDbEntity
  8
layer 1
 62
     7
100
AcDbSpline
210
0.0
220
0.0
230
1.0
 70
    11
 71
     3
 72
    24
 73
    20
 74
     0
 42
0.0000000001
 43
0.0000000001
 12
1.0
 22
0.0
 32
0.0
 13
1.0
 23
0.0
 33
0.0
 40
0.0
 40
0.0
 40
0.0
 40
0.0
 40
0.1666666666666667
 40
0.1666666666666667
 40
0.1666666666666667
 40
0.1666666666666667
 40
0.3333333333333333
 40
0.3333333333333333
 40
0.3333333333333333
 40
0.3333333333333333
 40
0.5
 40
0.5
 40
0.5
 40
0.5
 40
0.6666666666666666
 40
0.6666666666666666
 40
0.6666666666666666
 40
0.6666666666666666
 40
1.0
 40
1.0
 40
1.0
 40
1.0
 10
91.3156
 20
-51.7568
 30
0.0
 10
92.1568
 20
-59.6043
 30
0.0
 10
87.5022
 20
-65.2037
 30
0.0
 10
85.9851
 20
-64.4071
 30
0.0
 10
85.9851
 20
-64.4071
 30
0.0
 10
84.3474
 20
-63.5471
 30
0.0
 10
85.8213
 20
-62.0564
 30
0.0
 10
85.6029
 20
-60.6804
 30
0.0
 10
85.6029
 20
-60.6804
 30
0.0
 10
85.4363
 20
-59.6302
 30
0.0
 10
83.2345
 20
-59.4488
 30
0.0
 10
82.1284
 20
-61.002
 30
0.0
 10
82.1284
 20
-61.002
 30
0.0
 10
82.1284
 20
-61.002
 30
0.0
 10
82.1284
 20
-51.7568
 30
0.0
 10
82.1284
 20
-51.7568
 30
0.0
 10
82.1284
 20
-51.7568
 30
0.0
 10
82.1284
 20
-51.7568
 30
0.0
 10
91.3156
 20
-51.7568
 30
0.0
 10
91.3156
 20
-51.7568
 30
0.0
  0
SPLINE
  5
65
330
1F
100
AcDbEntity
  8
layer 1
 62
     7
100
AcDbSpline
210
0.0
220
0.0
230
1.0
 70
    11
 71
     3
 72
    48
 73
    44
 74
     0
 42
0.0000000001
 43
0.0000000001
 12
1.0
 22
0.0
 32
0.0
 13
1.0
 23
0.0
 33
0.0
 40
0.0
 40
0.0
 40
0.0
 40
0.0
 40
0.0833333333333333
 40
0.0833333333333333
 40
0.0833333333333333
 40
0.0833333333333333
 40
0.1666666666666667
 40
0.1666666666666667
 40
0.1666666666666667
 40
0.1666666666666667
 40
0.25
 40
0.25
 40
0.25
 40
0.25
 40
0.3333333333333333
 40
0.3333333333333333
 40
0.3333333333333333
 40
0.3333333333333333
 40
0.4166666666666667
 40
0.4166666666666667
 40
0.4166666666666667
 40
0.4166666666666667
 40
0.5
 40
0.5
 40
0.5
 40
0.5
 40
0.5833333333333334
 40
0.5833333333333334
 40
0.5833333333333334
 40
0.5833333333333334
 40
0.6666666666666666
 40
0.6666666666666666
 40
0.6666666666666666
 40
0.6666666666666666
 40
0.75
 40
0.75
 40
0.75
 40
0.75
 40
0.8333333333333334
 40
0.8333333333333334
 40
0.8333333333333334
 40
0.8333333333333334
 40
1.0
 40
1.0
 40
1.0
 40
1.0
 10
86.4342
 20
-40.4052
 30
0.0
 10
88.3104
 20
-43.0202
 30
0.0
 10
90.0414
 20
-46.0692
 30
0.0
 10
90.8512
 20
-49.194
 30
0.0
 10
90.8512
 20
-49.194
 30
0.0
 10
90.8512
 20
-49.194
 30
0.0
 10
71.8656
 20
-49.194
 30
0.0
 10
71.8656
 20
-49.194
 30
0.0
 10
71.8656
 20
-49.194
 30
0.0
 10
71.8656
 20
-49.194
 30
0.0
 10
71.8656
 20
-45.2736
 30
0.0
 10
71.8656
 20
-45.2736
 30
0.0
 10
71.8656
 20
-45.2736
 30
0.0
 10
72.1225
 20
-46.0675
 30
0.0
 10
72.8332
 20
-46.8096
 30
0.0
 10
74.3029
 20
-47.3795
 30
0.0
 10
74.3029
 20
-47.3795
 30
0.0
 10
74.3029
 20
-47.3795
 30
0.0
 10
73.4567
 20
-44.9428
 30
0.0
 10
74.4121
 20
-42.707
 30
0.0
 10
74.4121
 20
-42.707
 30
0.0
 10
75.3674
 20
-40.471
 30
0.0
 10
77.1689
 20
-41.2736
 30
0.0
 10
77.1689
 20
-39.4677
 30
0.0
 10
77.1689
 20
-39.4677
 30
0.0
 10
77.1689
 20
-37.8848
 30
0.0
 10
77.2109
 20
-37.1386
 30
0.0
 10
78.2688
 20
-35.1835
 30
0.0
 10
78.2688
 20
-35.1835
 30
0.0
 10
78.2688
 20
-35.1835
 30
0.0
 10
78.2688
 20
-39.1237
 30
0.0
 10
78.2688
 20
-39.1237
 30
0.0
 10
78.2688
 20
-39.1237
 30
0.0
 10
78.2688
 20
-39.1237
 30
0.0
 10
78.2688
 20
-40.4052
 30
0.0
 10
78.2688
 20
-40.4052
 30
0.0
 10
78.2688
 20
-40.4052
 30
0.0
 10
78.2688
 20
-40.4052
 30
0.0
 10
79.4889
 20
-40.4052
 30
0.0
 10
79.4889
 20
-40.4052
 30
0.0
 10
79.4889
 20
-40.4052
 30
0.0
 10
79.4889
 20
-40.4052
 30
0.0
 10
86.4342
 20
-40.4052
 30
0.0
 10
86.4342
 20
-40.4052
 30
0.0
  0
SPLINE
  5
66
330
1F
100
AcDbEntity
  8
layer 1
 62
     7
100
AcDbSpline
210
0.0
220
0.0
230
1.0
 70
    11
 71
     3
 72
    16
 73
    12
 74
     0
 42
0.0000000001
 43
0.0000000001
 12
1.0
 22
0.0
 32
0.0
 13
1.0
 23
0.0
 33
0.0
 40
0.0
 40
0.0
 40
0.0
 40
0.0
 40
0.25
 40
0.25
 40
0.25
 40
0.25
 40
0.5
 40
0.5
 40
0.5
 40
0.5
 40
1.0
 40
1.0
 40
1.0
 40
1.0
 10
80.7091
 20
-33.7821
 30
0.0
 10
81.6507
 20
-34.7023
 30
0.0
 10
83.0135
 20
-36.1084
 30
0.0
 10
84.4518
 20
-37.8422
 30
0.0
 10
84.4518
 20
-37.8422
 30
0.0
 10
84.4518
 20
-37.8422
 30
0.0
 10
80.7091
 20
-37.8422
 30
0.0
 10
80.7091
 20
-37.8422
 30
0.0
 10
80.7091
 20
-37.8422
 30
0.0
 10
80.7091
 20
-37.8422
 30
0.0
 10
80.7091
 20
-33.7821
 30
0.0
 10
80.7091
 20
-33.7821
 30
0.0
  0
SPLINE
  5
67
330
1F
100
AcDbEntity
  8
layer 1
 62
     7
100
AcDbSpline
210
0.0
220
0.0
230
1.0
 70
    11
 71
     3
 72
    16
 73
    12
 74
     0
 42
0.0000000001
 43
0.0000000001
 12
1.0
 22
0.0
 32
0.0
 13
1.0
 23
0.0
 33
0.0
 40
0.0
 40
0.0
 40
0.0
 40
0.0
 40
0.25
 40
0.25
 40
0.25
 40
0.25
 40
0.5
 40
0.5
 40
0.5
 40
0.5
 40
1.0
 40
1.0
 40
1.0
 40
1.0
 10
91.2538
 20
-21.6003
 30
0.0
 10
91.3008
 20
-27.3106
 30
0.0
 10
86.9144
 20
-33.327
 30
0.0
 10
80.7091
 20
-31.0399
 30
0.0
 10
80.7091
 20
-31.0399
 30
0.0
 10
80.7091
 20
-31.0399
 30
0.0
 10
80.7091
 20
-21.6003
 30
0.0
 10
80.7091
 20
-21.6003
 30
0.0
 10
80.7091
 20
-21.6003
 30
0.0
 10
80.7091
 20
-21.6003
 30
0.0
 10
91.2538
 20
-21.6003
 30
0.0
 10
91.2538
 20
-21.6003
 30
0.0
  0
SPLINE
  5
68
330
1F
100
AcDbEntity
  8
layer 1
 62
     7
100
AcDbSpline
210
0.0
220
0.0
230
1.0
 70
    11
 71
     3
 72
    16
 73
    12
 74
     0
 42
0.0000000001
 43
0.0000000001
 12
1.0
 22
0.0
 32
0.0
 13
1.0
 23
0.0
 33
0.0
 40
0.0
 40
0.0
 40
0.0
 40
0.0
 40
0.25
 40
0.25
 40
0.25
 40
0.25
 40
0.5
 40
0.5
 40
0.5
 40
0.5
 40
1.0
 40
1.0
 40
1.0
 40
1.0
 10
86.168
 20
-13.6453
 30
0.0
 10
88.0785
 20
-14.0375
 30
0.0
 10
90.1812
 20
-15.5543
 30
0.0
 10
90.9582
 20
-19.0374
 30
0.0
 10
90.9582
 20
-19.0374
 30
0.0
 10
90.9582
 20
-19.0374
 30
0.0
 10
86.168
 20
-19.0374
 30
0.0
 10
86.168
 20
-19.0374
 30
0.0
 10
86.168
 20
-19.0374
 30
0.0
 10
86.168
 20
-19.0374
 30
0.0
 10
86.168
 20
-13.6453
 30
0.0
 10
86.168
 20
-13.6453
 30
0.0
  0
SPLINE
  5
69
330
1F
100
AcDbEntity
  8
layer 1
 62
     7
100
AcDbSpline
210
0.0
220
0.0
230
1.0
 70
    11
 71
     3
 72
    76
 73
    72
 74
     0
 42
0.0000000001
 43
0.0000000001
 12
1.0
 22
0.0
 32
0.0
 13
1.0
 23
0.0
 33
0.0
 40
0.0
 40
0.0
 40
0.0
 40
0.0
 40
0.0526315789473684
 40
0.0526315789473684
 40
0.0526315789473684
 40
0.0526315789473684
 40
0.1052631578947368
 40
0.1052631578947368
 40
0.1052631578947368
 40
0.1052631578947368
 40
0.1578947368421053
 40
0.1578947368421053
 40
0.1578947368421053
 40
0.1578947368421053
 40
0.2105263157894737
 40
0.2105263157894737
 40
0.2105263157894737
 40
0.2105263157894737
 40
0.2631578947368421
 40
0.2631578947368421
 40
0.2631578947368421
 40
0.2631578947368421
 40
0.3157894736842105
 40
0.3157894736842105
 40
0.3157894736842105
 40
0.3157894736842105
 40
0.3684210526315789
 40
0.3684210526315789
 40
0.3684210526315789
 40
0.3684210526315789
 40
0.4210526315789473
 40
0.4210526315789473
 40
0.4210526315789473
 40
0.4210526315789473
 40
0.4736842105263158
 40
0.4736842105263158
 40
0.4736842105263158
 40
0.4736842105263158
 40
0.5263157894736842
 40
0.5263157894736842
 40
0.5263157894736842
 40
0.5263157894736842
 40
0.5789473684210527
 40
0.5789473684210527
 40
0.5789473684210527
 40
0.5789473684210527
 40
0.631578947368421
 40
0.631578947368421
 40
0.631578947368421
 40
0.631578947368421
 40
0.6842105263157895
 40
0.6842105263157895
 40
0.6842105263157895
 40
0.6842105263157895
 40
0.7368421052631579
 40
0.7368421052631579
 40
0.7368421052631579
 40
0.7368421052631579
 40
0.7894736842105263
 40
0.7894736842105263
 40
0.7894736842105263
 40
0.7894736842105263
 40
0.8421052631578947
 40
0.8421052631578947
 40
0.8421052631578947
 40
0.8421052631578947
 40
0.8947368421052632
 40
0.8947368421052632
 40
0.8947368421052632
 40
0.8947368421052632
 40
1.0
 40
1.0
 40
1.0
 40
1.0
 10
83.7277
 20
-11.6207
 30
0.0
 10
83.1885
 20
-11.7126
 30
0.0
 10
82.6684
 20
-11.8876
 30
0.0
 10
82.2184
 20
-12.1777
 30
0.0
 10
82.2184
 20
-12.1777
 30
0.0
 10
80.6626
 20
-13.1811
 30
0.0
 10
80.0348
 20
-14.987
 30
0.0
 10
80.9628
 20
-16.5062
 30
0.0
 10
80.9628
 20
-16.5062
 30
0.0
 10
81.8909
 20
-18.0256
 30
0.0
 10
83.6104
 20
-17.6816
 30
0.0
 10
82.9008
 20
-16.4489
 30
0.0
 10
82.9008
 20
-16.4489
 30
0.0
 10
82.3057
 20
-15.4154
 30
0.0
 10
82.2867
 20
-14.2209
 30
0.0
 10
83.7277
 20
-13.7436
 30
0.0
 10
83.7277
 20
-13.7436
 30
0.0
 10
83.7277
 20
-13.7436
 30
0.0
 10
83.7277
 20
-19.0374
 30
0.0
 10
83.7277
 20
-19.0374
 30
0.0
 10
83.7277
 20
-19.0374
 30
0.0
 10
83.7277
 20
-19.0374
 30
0.0
 10
79.4889
 20
-19.0374
 30
0.0
 10
79.4889
 20
-19.0374
 30
0.0
 10
79.4889
 20
-19.0374
 30
0.0
 10
79.4889
 20
-19.0374
 30
0.0
 10
78.2688
 20
-19.0374
 30
0.0
 10
78.2688
 20
-19.0374
 30
0.0
 10
78.2688
 20
-19.0374
 30
0.0
 10
78.2688
 20
-19.0374
 30
0.0
 10
78.2688
 20
-20.3188
 30
0.0
 10
78.2688
 20
-20.3188
 30
0.0
 10
78.2688
 20
-20.3188
 30
0.0
 10
78.2688
 20
-20.3188
 30
0.0
 10
78.2688
 20
-29.8499
 30
0.0
 10
78.2688
 20
-29.8499
 30
0.0
 10
78.2688
 20
-29.8499
 30
0.0
 10
77.2441
 20
-29.0884
 30
0.0
 10
75.611
 20
-27.4014
 30
0.0
 10
74.5212
 20
-23.9308
 30
0.0
 10
74.5212
 20
-23.9308
 30
0.0
 10
72.829
 20
-18.5415
 30
0.0
 10
73.5659
 20
-18.1403
 30
0.0
 10
74.7669
 20
-17.7676
 30
0.0
 10
74.7669
 20
-17.7676
 30
0.0
 10
75.9679
 20
-17.3949
 30
0.0
 10
76.4865
 20
-16.7069
 30
0.0
 10
76.6229
 20
-15.5029
 30
0.0
 10
76.6229
 20
-15.5029
 30
0.0
 10
76.7595
 20
-14.299
 30
0.0
 10
78.2061
 20
-14.6143
 30
0.0
 10
79.3252
 20
-12.8657
 30
0.0
 10
79.3252
 20
-12.8657
 30
0.0
 10
80.4442
 20
-11.1171
 30
0.0
 10
79.3525
 20
-10.4578
 30
0.0
 10
80.608
 20
-8.7951
 30
0.0
 10
80.608
 20
-8.7951
 30
0.0
 10
81.8636
 20
-7.1325
 30
0.0
 10
80.608
 20
-6.2439
 30
0.0
 10
81.0993
 20
-4.1513
 30
0.0
 10
81.0993
 20
-4.1513
 30
0.0
 10
81.5674
 20
-2.1573
 30
0.0
 10
79.7307
 20
3.7411
 30
0.0
 10
76.7699
 20
6.9711
 30
0.0
 10
76.7699
 20
6.9711
 30
0.0
 10
76.7699
 20
6.9711
 30
0.0
 10
83.7277
 20
6.9711
 30
0.0
 10
83.7277
 20
6.9711
 30
0.0
 10
83.7277
 20
6.9711
 30
0.0
 10
83.7277
 20
6.9711
 30
0.0
 10
83.7277
 20
-11.6207
 30
0.0
 10
83.7277
 20
-11.6207
 30
0.0
  0
SPLINE
  5
6A
330
1F
100
AcDbEntity
  8
layer 1
 62
     7
100
AcDbSpline
210
0.0
220
0.0
230
1.0
 70
    11
 71
     3
 72
    36
 73
    32
 74
     0
 42
0.0000000001
 43
0.0000000001
 12
1.0
 22
0.0
 32
0.0
 13
1.0
 23
0.0
 33
0.0
 40
0.0
 40
0.0
 40
0.0
 40
0.0
 40
0.1111111111111111
 40
0.1111111111111111
 40
0.1111111111111111
 40
0.1111111111111111
 40
0.2222222222222222
 40
0.2222222222222222
 40
0.2222222222222222
 40
0.2222222222222222
 40
0.3333333333333333
 40
0.3333333333333333
 40
0.3333333333333333
 40
0.3333333333333333
 40
0.4444444444444444
 40
0.4444444444444444
 40
0.4444444444444444
 40
0.4444444444444444
 40
0.5555555555555556
 40
0.5555555555555556
 40
0.5555555555555556
 40
0.5555555555555556
 40
0.6666666666666666
 40
0.6666666666666666
 40
0.6666666666666666
 40
0.6666666666666666
 40
0.7777777777777778
 40
0.7777777777777778
 40
0.7777777777777778
 40
0.7777777777777778
 40
1.0
 40
1.0
 40
1.0
 40
1.0
 10
68.9828
 20
6.9711
 30
0.0
 10
68.9828
 20
6.9711
 30
0.0
 10
69.4253
 20
6.9711
 30
0.0
 10
69.4253
 20
6.9711
 30
0.0
 10
69.4253
 20
6.9711
 30
0.0
 10
69.4253
 20
6.9711
 30
0.0
 10
69.4253
 20
-3.8251
 30
0.0
 10
69.4253
 20
-3.8251
 30
0.0
 10
69.4253
 20
-3.8251
 30
0.0
 10
68.108
 20
-3.9002
 30
0.0
 10
65.7215
 20
-4.3851
 30
0.0
 10
64.1893
 20
-6.7532
 30
0.0
 10
64.1893
 20
-6.7532
 30
0.0
 10
64.1893
 20
-6.7532
 30
0.0
 10
61.911
 20
-6.7532
 30
0.0
 10
61.911
 20
-6.7532
 30
0.0
 10
61.911
 20
-6.7532
 30
0.0
 10
61.911
 20
-6.7532
 30
0.0
 10
61.911
 20
-0.8294
 30
0.0
 10
61.911
 20
-0.8294
 30
0.0
 10
61.911
 20
-0.8294
 30
0.0
 10
63.1441
 20
-0.3736
 30
0.0
 10
64.3511
 20
1.1258
 30
0.0
 10
64.6951
 20
2.184
 30
0.0
 10
64.6951
 20
2.184
 30
0.0
 10
65.0773
 20
3.3592
 30
0.0
 10
65.3229
 20
2.9579
 30
0.0
 10
67.0425
 20
4.1332
 30
0.0
 10
67.0425
 20
4.1332
 30
0.0
 10
67.9851
 20
4.7775
 30
0.0
 10
68.6103
 20
5.9989
 30
0.0
 10
68.9828
 20
6.9711
 30
0.0
  0
SPLINE
  5
6B
330
1F
100
AcDbEntity
  8
layer 1
 62
     7
100
AcDbSpline
210
0.0
220
0.0
230
1.0
 70
    11
 71
     3
 72
    56
 73
    52
 74
     0
 42
0.0000000001
 43
0.0000000001
 12
1.0
 22
0.0
 32
0.0
 13
1.0
 23
0.0
 33
0.0
 40
0.0
 40
0.0
 40
0.0
 40
0.0
 40
0.0714285714285714
 40
0.0714285714285714
 40
0.0714285714285714
 40
0.0714285714285714
 40
0.1428571428571428
 40
0.1428571428571428
 40
0.1428571428571428
 40
0.1428571428571428
 40
0.2142857142857143
 40
0.2142857142857143
 40
0.2142857142857143
 40
0.2142857142857143
 40
0.2857142857142857
 40
0.2857142857142857
 40
0.2857142857142857
 40
0.2857142857142857
 40
0.3571428571428572
 40
0.3571428571428572
 40
0.3571428571428572
 40
0.3571428571428572
 40
0.4285714285714285
 40
0.4285714285714285
 40
0.4285714285714285
 40
0.4285714285714285
 40
0.5
 40
0.5
 40
0.5
 40
0.5
 40
0.5714285714285714
 40
0.5714285714285714
 40
0.5714285714285714
 40
0.5714285714285714
 40
0.6428571428571429
 40
0.6428571428571429
 40
0.6428571428571429
 40
0.6428571428571429
 40
0.7142857142857143
 40
0.7142857142857143
 40
0.7142857142857143
 40
0.7142857142857143
 40
0.7857142857142857
 40
0.7857142857142857
 40
0.7857142857142857
 40
0.7857142857142857
 40
0.8571428571428571
 40
0.8571428571428571
 40
0.8571428571428571
 40
0.8571428571428571
 40
1.0
 40
1.0
 40
1.0
 40
1.0
 10
61.911
 20
-28.4882
 30
0.0
 10
63.0721
 20
-28.048
 30
0.0
 10
63.9635
 20
-27.0147
 30
0.0
 10
64.2534
 20
-25.7367
 30
0.0
 10
64.2534
 20
-25.7367
 30
0.0
 10
64.2534
 20
-25.7367
 30
0.0
 10
69.4253
 20
-25.7367
 30
0.0
 10
69.4253
 20
-25.7367
 30
0.0
 10
69.4253
 20
-25.7367
 30
0.0
 10
69.4253
 20
-25.7367
 30
0.0
 10
69.4253
 20
-31.2845
 30
0.0
 10
69.4253
 20
-31.2845
 30
0.0
 10
69.4253
 20
-31.2845
 30
0.0
 10
69.4253
 20
-31.2845
 30
0.0
 10
65.4593
 20
-31.2845
 30
0.0
 10
65.4593
 20
-31.2845
 30
0.0
 10
65.4593
 20
-31.2845
 30
0.0
 10
65.4593
 20
-31.2845
 30
0.0
 10
63.0827
 20
-31.122
 30
0.0
 10
64.7469
 20
-35.0761
 30
0.0
 10
64.7469
 20
-35.0761
 30
0.0
 10
64.7469
 20
-35.0761
 30
0.0
 10
64.3848
 20
-33.1763
 30
0.0
 10
65.4593
 20
-33.1763
 30
0.0
 10
65.4593
 20
-33.1763
 30
0.0
 10
65.4593
 20
-33.1763
 30
0.0
 10
69.4253
 20
-33.1763
 30
0.0
 10
69.4253
 20
-33.1763
 30
0.0
 10
69.4253
 20
-33.1763
 30
0.0
 10
69.4253
 20
-33.1763
 30
0.0
 10
69.4253
 20
-43.5453
 30
0.0
 10
69.4253
 20
-43.5453
 30
0.0
 10
69.4253
 20
-43.5453
 30
0.0
 10
68.4526
 20
-43.4764
 30
0.0
 10
66.7328
 20
-43.0766
 30
0.0
 10
65.7695
 20
-41.2114
 30
0.0
 10
65.7695
 20
-41.2114
 30
0.0
 10
65.7695
 20
-41.2114
 30
0.0
 10
65.4577
 20
-40.6076
 30
0.0
 10
65.4577
 20
-40.6076
 30
0.0
 10
65.4577
 20
-40.6076
 30
0.0
 10
65.4577
 20
-40.6076
 30
0.0
 10
64.8043
 20
-40.6076
 30
0.0
 10
64.8043
 20
-40.6076
 30
0.0
 10
64.8043
 20
-40.6076
 30
0.0
 10
64.8043
 20
-40.6076
 30
0.0
 10
61.911
 20
-40.6076
 30
0.0
 10
61.911
 20
-40.6076
 30
0.0
 10
61.911
 20
-40.6076
 30
0.0
 10
61.911
 20
-40.6076
 30
0.0
 10
61.911
 20
-28.4882
 30
0.0
 10
61.911
 20
-28.4882
 30
0.0
  0
SPLINE
  5
6C
330
1F
100
AcDbEntity
  8
layer 1
 62
     7
100
AcDbSpline
210
0.0
220
0.0
230
1.0
 70
    11
 71
     3
 72
    56
 73
    52
 74
     0
 42
0.0000000001
 43
0.0000000001
 12
1.0
 22
0.0
 32
0.0
 13
1.0
 23
0.0
 33
0.0
 40
0.0
 40
0.0
 40
0.0
 40
0.0
 40
0.0714285714285714
 40
0.0714285714285714
 40
0.0714285714285714
 40
0.0714285714285714
 40
0.1428571428571428
 40
0.1428571428571428
 40
0.1428571428571428
 40
0.1428571428571428
 40
0.2142857142857143
 40
0.2142857142857143
 40
0.2142857142857143
 40
0.2142857142857143
 40
0.2857142857142857
 40
0.2857142857142857
 40
0.2857142857142857
 40
0.2857142857142857
 40
0.3571428571428572
 40
0.3571428571428572
 40
0.3571428571428572
 40
0.3571428571428572
 40
0.4285714285714285
 40
0.4285714285714285
 40
0.4285714285714285
 40
0.4285714285714285
 40
0.5
 40
0.5
 40
0.5
 40
0.5
 40
0.5714285714285714
 40
0.5714285714285714
 40
0.5714285714285714
 40
0.5714285714285714
 40
0.6428571428571429
 40
0.6428571428571429
 40
0.6428571428571429
 40
0.6428571428571429
 40
0.7142857142857143
 40
0.7142857142857143
 40
0.7142857142857143
 40
0.7142857142857143
 40
0.7857142857142857
 40
0.7857142857142857
 40
0.7857142857142857
 40
0.7857142857142857
 40
0.8571428571428571
 40
0.8571428571428571
 40
0.8571428571428571
 40
0.8571428571428571
 40
1.0
 40
1.0
 40
1.0
 40
1.0
 10
69.4253
 20
-23.9308
 30
0.0
 10
69.4253
 20
-23.9308
 30
0.0
 10
64.2534
 20
-23.9308
 30
0.0
 10
64.2534
 20
-23.9308
 30
0.0
 10
64.2534
 20
-23.9308
 30
0.0
 10
63.9635
 20
-22.6527
 30
0.0
 10
63.0721
 20
-21.6194
 30
0.0
 10
61.911
 20
-21.1793
 30
0.0
 10
61.911
 20
-21.1793
 30
0.0
 10
61.911
 20
-21.1793
 30
0.0
 10
61.911
 20
-9.0598
 30
0.0
 10
61.911
 20
-9.0598
 30
0.0
 10
61.911
 20
-9.0598
 30
0.0
 10
61.911
 20
-9.0598
 30
0.0
 10
64.8043
 20
-9.0598
 30
0.0
 10
64.8043
 20
-9.0598
 30
0.0
 10
64.8043
 20
-9.0598
 30
0.0
 10
64.8043
 20
-9.0598
 30
0.0
 10
65.4577
 20
-9.0598
 30
0.0
 10
65.4577
 20
-9.0598
 30
0.0
 10
65.4577
 20
-9.0598
 30
0.0
 10
65.4577
 20
-9.0598
 30
0.0
 10
65.7695
 20
-8.4561
 30
0.0
 10
65.7695
 20
-8.4561
 30
0.0
 10
65.7695
 20
-8.4561
 30
0.0
 10
66.7328
 20
-6.5908
 30
0.0
 10
68.4526
 20
-6.191
 30
0.0
 10
69.4253
 20
-6.1222
 30
0.0
 10
69.4253
 20
-6.1222
 30
0.0
 10
69.4253
 20
-6.1222
 30
0.0
 10
69.4253
 20
-16.4911
 30
0.0
 10
69.4253
 20
-16.4911
 30
0.0
 10
69.4253
 20
-16.4911
 30
0.0
 10
69.4253
 20
-16.4911
 30
0.0
 10
65.4593
 20
-16.4911
 30
0.0
 10
65.4593
 20
-16.4911
 30
0.0
 10
65.4593
 20
-16.4911
 30
0.0
 10
64.3848
 20
-16.4911
 30
0.0
 10
64.7469
 20
-14.5913
 30
0.0
 10
64.7469
 20
-14.5913
 30
0.0
 10
64.7469
 20
-14.5913
 30
0.0
 10
63.0827
 20
-18.5455
 30
0.0
 10
65.4593
 20
-18.383
 30
0.0
 10
65.4593
 20
-18.383
 30
0.0
 10
65.4593
 20
-18.383
 30
0.0
 10
65.4593
 20
-18.383
 30
0.0
 10
69.4253
 20
-18.383
 30
0.0
 10
69.4253
 20
-18.383
 30
0.0
 10
69.4253
 20
-18.383
 30
0.0
 10
69.4253
 20
-18.383
 30
0.0
 10
69.4253
 20
-23.9308
 30
0.0
 10
69.4253
 20
-23.9308
 30
0.0
  0
SPLINE
  5
6D
330
1F
100
AcDbEntity
  8
layer 1
 62
     7
100
AcDbSpline
210
0.0
220
0.0
230
1.0
 70
    11
 71
     3
 72
    44
 73
    40
 74
     0
 42
0.0000000001
 43
0.0000000001
 12
1.0
 22
0.0
 32
0.0
 13
1.0
 23
0.0
 33
0.0
 40
0.0
 40
0.0
 40
0.0
 40
0.0
 40
0.0909090909090909
 40
0.0909090909090909
 40
0.0909090909090909
 40
0.0909090909090909
 40
0.1818181818181818
 40
0.1818181818181818
 40
0.1818181818181818
 40
0.1818181818181818
 40
0.2727272727272727
 40
0.2727272727272727
 40
0.2727272727272727
 40
0.2727272727272727
 40
0.3636363636363636
 40
0.3636363636363636
 40
0.3636363636363636
 40
0.3636363636363636
 40
0.4545454545454545
 40
0.4545454545454545
 40
0.4545454545454545
 40
0.4545454545454545
 40
0.5454545454545454
 40
0.5454545454545454
 40
0.5454545454545454
 40
0.5454545454545454
 40
0.6363636363636364
 40
0.6363636363636364
 40
0.6363636363636364
 40
0.6363636363636364
 40
0.7272727272727273
 40
0.7272727272727273
 40
0.7272727272727273
 40
0.7272727272727273
 40
0.8181818181818182
 40
0.8181818181818182
 40
0.8181818181818182
 40
0.8181818181818182
 40
1.0
 40
1.0
 40
1.0
 40
1.0
 10
61.911
 20
-75.8013
 30
0.0
 10
63.0721
 20
-75.3611
 30
0.0
 10
63.9635
 20
-74.3279
 30
0.0
 10
64.2534
 20
-73.0498
 30
0.0
 10
64.2534
 20
-73.0498
 30
0.0
 10
64.2534
 20
-73.0498
 30
0.0
 10
68.4426
 20
-73.0498
 30
0.0
 10
68.4426
 20
-73.0498
 30
0.0
 10
68.4426
 20
-73.0498
 30
0.0
 10
68.4426
 20
-73.0498
 30
0.0
 10
68.4426
 20
-78.5975
 30
0.0
 10
68.4426
 20
-78.5975
 30
0.0
 10
68.4426
 20
-78.5975
 30
0.0
 10
68.4426
 20
-78.5975
 30
0.0
 10
65.4593
 20
-78.5975
 30
0.0
 10
65.4593
 20
-78.5975
 30
0.0
 10
65.4593
 20
-78.5975
 30
0.0
 10
65.4593
 20
-78.5975
 30
0.0
 10
63.0827
 20
-78.4351
 30
0.0
 10
64.7469
 20
-82.3893
 30
0.0
 10
64.7469
 20
-82.3893
 30
0.0
 10
64.7469
 20
-82.3893
 30
0.0
 10
64.3848
 20
-80.4895
 30
0.0
 10
65.4593
 20
-80.4895
 30
0.0
 10
65.4593
 20
-80.4895
 30
0.0
 10
65.4593
 20
-80.4895
 30
0.0
 10
68.4426
 20
-80.4895
 30
0.0
 10
68.4426
 20
-80.4895
 30
0.0
 10
68.4426
 20
-80.4895
 30
0.0
 10
68.4426
 20
-80.4895
 30
0.0
 10
68.4426
 20
-86.001
 30
0.0
 10
68.4426
 20
-86.001
 30
0.0
 10
68.4426
 20
-86.001
 30
0.0
 10
68.4426
 20
-86.001
 30
0.0
 10
61.911
 20
-86.001
 30
0.0
 10
61.911
 20
-86.001
 30
0.0
 10
61.911
 20
-86.001
 30
0.0
 10
61.911
 20
-86.001
 30
0.0
 10
61.911
 20
-75.8013
 30
0.0
 10
61.911
 20
-75.8013
 30
0.0
  0
SPLINE
  5
6E
330
1F
100
AcDbEntity
  8
layer 1
 62
     7
100
AcDbSpline
210
0.0
220
0.0
230
1.0
 70
    11
 71
     3
 72
    56
 73
    52
 74
     0
 42
0.0000000001
 43
0.0000000001
 12
1.0
 22
0.0
 32
0.0
 13
1.0
 23
0.0
 33
0.0
 40
0.0
 40
0.0
 40
0.0
 40
0.0
 40
0.0714285714285714
 40
0.0714285714285714
 40
0.0714285714285714
 40
0.0714285714285714
 40
0.1428571428571428
 40
0.1428571428571428
 40
0.1428571428571428
 40
0.1428571428571428
 40
0.2142857142857143
 40
0.2142857142857143
 40
0.2142857142857143
 40
0.2142857142857143
 40
0.2857142857142857
 40
0.2857142857142857
 40
0.2857142857142857
 40
0.2857142857142857
 40
0.3571428571428572
 40
0.3571428571428572
 40
0.3571428571428572
 40
0.3571428571428572
 40
0.4285714285714285
 40
0.4285714285714285
 40
0.4285714285714285
 40
0.4285714285714285
 40
0.5
 40
0.5
 40
0.5
 40
0.5
 40
0.5714285714285714
 40
0.5714285714285714
 40
0.5714285714285714
 40
0.5714285714285714
 40
0.6428571428571429
 40
0.6428571428571429
 40
0.6428571428571429
 40
0.6428571428571429
 40
0.7142857142857143
 40
0.7142857142857143
 40
0.7142857142857143
 40
0.7142857142857143
 40
0.7857142857142857
 40
0.7857142857142857
 40
0.7857142857142857
 40
0.7857142857142857
 40
0.8571428571428571
 40
0.8571428571428571
 40
0.8571428571428571
 40
0.8571428571428571
 40
1.0
 40
1.0
 40
1.0
 40
1.0
 10
68.4426
 20
-71.2438
 30
0.0
 10
68.4426
 20
-71.2438
 30
0.0
 10
64.2534
 20
-71.2438
 30
0.0
 10
64.2534
 20
-71.2438
 30
0.0
 10
64.2534
 20
-71.2438
 30
0.0
 10
63.9635
 20
-69.9659
 30
0.0
 10
63.0721
 20
-68.9325
 30
0.0
 10
61.911
 20
-68.4923
 30
0.0
 10
61.911
 20
-68.4923
 30
0.0
 10
61.911
 20
-68.4923
 30
0.0
 10
61.911
 20
-56.3434
 30
0.0
 10
61.911
 20
-56.3434
 30
0.0
 10
61.911
 20
-56.3434
 30
0.0
 10
61.911
 20
-56.3434
 30
0.0
 10
65.3502
 20
-56.3434
 30
0.0
 10
65.3502
 20
-56.3434
 30
0.0
 10
65.3502
 20
-56.3434
 30
0.0
 10
65.3502
 20
-56.3434
 30
0.0
 10
66.0427
 20
-56.3434
 30
0.0
 10
66.0427
 20
-56.3434
 30
0.0
 10
66.0427
 20
-56.3434
 30
0.0
 10
66.0427
 20
-56.3434
 30
0.0
 10
66.3988
 20
-55.7077
 30
0.0
 10
66.3988
 20
-55.7077
 30
0.0
 10
66.3988
 20
-55.7077
 30
0.0
 10
67.0201
 20
-54.5982
 30
0.0
 10
67.8088
 20
-54.0953
 30
0.0
 10
68.4426
 20
-53.8697
 30
0.0
 10
68.4426
 20
-53.8697
 30
0.0
 10
68.4426
 20
-53.8697
 30
0.0
 10
68.4426
 20
-63.8042
 30
0.0
 10
68.4426
 20
-63.8042
 30
0.0
 10
68.4426
 20
-63.8042
 30
0.0
 10
68.4426
 20
-63.8042
 30
0.0
 10
65.4593
 20
-63.8042
 30
0.0
 10
65.4593
 20
-63.8042
 30
0.0
 10
65.4593
 20
-63.8042
 30
0.0
 10
64.3848
 20
-63.8042
 30
0.0
 10
64.7469
 20
-61.9044
 30
0.0
 10
64.7469
 20
-61.9044
 30
0.0
 10
64.7469
 20
-61.9044
 30
0.0
 10
63.0827
 20
-65.8585
 30
0.0
 10
65.4593
 20
-65.6962
 30
0.0
 10
65.4593
 20
-65.6962
 30
0.0
 10
65.4593
 20
-65.6962
 30
0.0
 10
65.4593
 20
-65.6962
 30
0.0
 10
68.4426
 20
-65.6962
 30
0.0
 10
68.4426
 20
-65.6962
 30
0.0
 10
68.4426
 20
-65.6962
 30
0.0
 10
68.4426
 20
-65.6962
 30
0.0
 10
68.4426
 20
-71.2438
 30
0.0
 10
68.4426
 20
-71.2438
 30
0.0
  0
SPLINE
  5
6F
330
1F
100
AcDbEntity
  8
layer 1
 62
     7
100
AcDbSpline
210
0.0
220
0.0
230
1.0
 70
    11
 71
     3
 72
    36
 73
    32
 74
     0
 42
0.0000000001
 43
0.0000000001
 12
1.0
 22
0.0
 32
0.0
 13
1.0
 23
0.0
 33
0.0
 40
0.0
 40
0.0
 40
0.0
 40
0.0
 40
0.1111111111111111
 40
0.1111111111111111
 40
0.1111111111111111
 40
0.1111111111111111
 40
0.2222222222222222
 40
0.2222222222222222
 40
0.2222222222222222
 40
0.2222222222222222
 40
0.3333333333333333
 40
0.3333333333333333
 40
0.3333333333333333
 40
0.3333333333333333
 40
0.4444444444444444
 40
0.4444444444444444
 40
0.4444444444444444
 40
0.4444444444444444
 40
0.5555555555555556
 40
0.5555555555555556
 40
0.5555555555555556
 40
0.5555555555555556
 40
0.6666666666666666
 40
0.6666666666666666
 40
0.6666666666666666
 40
0.6666666666666666
 40
0.7777777777777778
 40
0.7777777777777778
 40
0.7777777777777778
 40
0.7777777777777778
 40
1.0
 40
1.0
 40
1.0
 40
1.0
 10
62.1217
 20
-42.9142
 30
0.0
 10
62.1217
 20
-42.9142
 30
0.0
 10
64.1893
 20
-42.9142
 30
0.0
 10
64.1893
 20
-42.9142
 30
0.0
 10
64.1893
 20
-42.9142
 30
0.0
 10
65.7215
 20
-45.2823
 30
0.0
 10
68.108
 20
-45.7672
 30
0.0
 10
69.4253
 20
-45.8424
 30
0.0
 10
69.4253
 20
-45.8424
 30
0.0
 10
69.4253
 20
-45.8424
 30
0.0
 10
69.4253
 20
-50.4754
 30
0.0
 10
69.4253
 20
-50.4754
 30
0.0
 10
69.4253
 20
-50.4754
 30
0.0
 10
69.4253
 20
-50.4754
 30
0.0
 10
69.4253
 20
-51.1432
 30
0.0
 10
69.4253
 20
-51.1432
 30
0.0
 10
69.4253
 20
-51.1432
 30
0.0
 10
68.578
 20
-51.1565
 30
0.0
 10
66.334
 20
-51.4289
 30
0.0
 10
64.6986
 20
-53.7805
 30
0.0
 10
64.6986
 20
-53.7805
 30
0.0
 10
64.6986
 20
-53.7805
 30
0.0
 10
62.1217
 20
-53.7805
 30
0.0
 10
62.1217
 20
-53.7805
 30
0.0
 10
62.1217
 20
-53.7805
 30
0.0
 10
64.3779
 20
-53.1101
 30
0.0
 10
66.0314
 20
-50.9312
 30
0.0
 10
66.0314
 20
-48.3474
 30
0.0
 10
66.0314
 20
-48.3474
 30
0.0
 10
66.0314
 20
-45.7636
 30
0.0
 10
64.3779
 20
-43.5847
 30
0.0
 10
62.1217
 20
-42.9142
 30
0.0
  0
SPLINE
  5
70
330
1F
100
AcDbEntity
  8
layer 1
 62
     7
100
AcDbSpline
210
0.0
220
0.0
230
1.0
 70
    11
 71
     3
 72
    32
 73
    28
 74
     0
 42
0.0000000001
 43
0.0000000001
 12
1.0
 22
0.0
 32
0.0
 13
1.0
 23
0.0
 33
0.0
 40
0.0
 40
0.0
 40
0.0
 40
0.0
 40
0.125
 40
0.125
 40
0.125
 40
0.125
 40
0.25
 40
0.25
 40
0.25
 40
0.25
 40
0.375
 40
0.375
 40
0.375
 40
0.375
 40
0.5
 40
0.5
 40
0.5
 40
0.5
 40
0.625
 40
0.625
 40
0.625
 40
0.625
 40
0.75
 40
0.75
 40
0.75
 40
0.75
 40
1.0
 40
1.0
 40
1.0
 40
1.0
 10
95.6475
 20
-84.0517
 30
0.0
 10
95.6475
 20
-84.0517
 30
0.0
 10
82.1284
 20
-84.0517
 30
0.0
 10
82.1284
 20
-84.0517
 30
0.0
 10
82.1284
 20
-84.0517
 30
0.0
 10
82.1284
 20
-84.0517
 30
0.0
 10
82.1284
 20
-76.7529
 30
0.0
 10
82.1284
 20
-76.7529
 30
0.0
 10
82.1284
 20
-76.7529
 30
0.0
 10
83.9909
 20
-76.024
 30
0.0
 10
86.5263
 20
-74.8881
 30
0.0
 10
87.9503
 20
-73.1788
 30
0.0
 10
87.9503
 20
-73.1788
 30
0.0
 10
87.9503
 20
-73.1788
 30
0.0
 10
88.7691
 20
-75.5867
 30
0.0
 10
88.66
 20
-77.3641
 30
0.0
 10
88.66
 20
-77.3641
 30
0.0
 10
88.66
 20
-77.3641
 30
0.0
 10
89.663
 20
-76.6606
 30
0.0
 10
89.6738
 20
-74.747
 30
0.0
 10
89.6738
 20
-74.747
 30
0.0
 10
89.6738
 20
-74.747
 30
0.0
 10
95.6475
 20
-74.747
 30
0.0
 10
95.6475
 20
-74.747
 30
0.0
 10
95.6475
 20
-74.747
 30
0.0
 10
95.6475
 20
-74.747
 30
0.0
 10
95.6475
 20
-84.0517
 30
0.0
 10
95.6475
 20
-84.0517
 30
0.0
  0
SPLINE
  5
71
330
1F
100
AcDbEntity
  8
layer 1
 62
     7
100
AcDbSpline
210
0.0
220
0.0
230
1.0
 70
    11
 71
     3
 72
    24
 73
    20
 74
     0
 42
0.0000000001
 43
0.0000000001
 12
1.0
 22
0.0
 32
0.0
 13
1.0
 23
0.0
 33
0.0
 40
0.0
 40
0.0
 40
0.0
 40
0.0
 40
0.1666666666666667
 40
0.1666666666666667
 40
0.1666666666666667
 40
0.1666666666666667
 40
0.3333333333333333
 40
0.3333333333333333
 40
0.3333333333333333
 40
0.3333333333333333
 40
0.5
 40
0.5
 40
0.5
 40
0.5
 40
0.6666666666666666
 40
0.6666666666666666
 40
0.6666666666666666
 40
0.6666666666666666
 40
1.0
 40
1.0
 40
1.0
 40
1.0
 10
70.8829
 20
-104.2527
 30
0.0
 10
70.8829
 20
-104.2527
 30
0.0
 10
70.8829
 20
-99.3879
 30
0.0
 10
70.8829
 20
-99.3879
 30
0.0
 10
70.8829
 20
-99.3879
 30
0.0
 10
71.7817
 20
-99.2365
 30
0.0
 10
73.0193
 20
-98.5689
 30
0.0
 10
73.9208
 20
-96.2835
 30
0.0
 10
73.9208
 20
-96.2835
 30
0.0
 10
73.9208
 20
-96.2835
 30
0.0
 10
75.3283
 20
-98.9701
 30
0.0
 10
78.105
 20
-99.1986
 30
0.0
 10
78.105
 20
-99.1986
 30
0.0
 10
78.105
 20
-99.1986
 30
0.0
 10
78.105
 20
-104.2527
 30
0.0
 10
78.105
 20
-104.2527
 30
0.0
 10
78.105
 20
-104.2527
 30
0.0
 10
78.105
 20
-104.2527
 30
0.0
 10
70.8829
 20
-104.2527
 30
0.0
 10
70.8829
 20
-104.2527
 30
0.0
  0
SPLINE
  5
72
330
1F
100
AcDbEntity
  8
layer 1
 62
     7
100
AcDbSpline
210
0.0
220
0.0
230
1.0
 70
    11
 71
     3
 72
    20
 73
    16
 74
     0
 42
0.0000000001
 43
0.0000000001
 12
1.0
 22
0.0
 32
0.0
 13
1.0
 23
0.0
 33
0.0
 40
0.0
 40
0.0
 40
0.0
 40
0.0
 40
0.2
 40
0.2
 40
0.2
 40
0.2
 40
0.4
 40
0.4
 40
0.4
 40
0.4
 40
0.6
 40
0.6
 40
0.6
 40
0.6
 40
1.0
 40
1.0
 40
1.0
 40
1.0
 10
60.6557
 20
1.1233
 30
0.0
 10
60.6557
 20
1.1233
 30
0.0
 10
59.2956
 20
1.3504
 30
0.0
 10
58.8271
 20
3.1873
 30
0.0
 10
58.8271
 20
3.1873
 30
0.0
 10
58.8271
 20
3.1873
 30
0.0
 10
59.7001
 20
3.5599
 30
0.0
 10
60.6557
 20
3.5599
 30
0.0
 10
60.6557
 20
3.5599
 30
0.0
 10
61.6111
 20
3.5599
 30
0.0
 10
62.4843
 20
3.1873
 30
0.0
 10
62.4843
 20
3.1873
 30
0.0
 10
62.4843
 20
3.1873
 30
0.0
 10
62.0156
 20
1.3504
 30
0.0
 10
60.6557
 20
1.1233
 30
0.0
 10
60.6557
 20
1.1233
 30
0.0
  0
SPLINE
  5
73
330
1F
100
AcDbEntity
  8
layer 1
 62
     7
100
AcDbSpline
210
0.0
220
0.0
230
1.0
 70
    11
 71
     3
 72
    28
 73
    24
 74
     0
 42
0.0000000001
 43
0.0000000001
 12
1.0
 22
0.0
 32
0.0
 13
1.0
 23
0.0
 33
0.0
 40
0.0
 40
0.0
 40
0.0
 40
0.0
 40
0.1428571428571428
 40
0.1428571428571428
 40
0.1428571428571428
 40
0.1428571428571428
 40
0.2857142857142857
 40
0.2857142857142857
 40
0.2857142857142857
 40
0.2857142857142857
 40
0.4285714285714285
 40
0.4285714285714285
 40
0.4285714285714285
 40
0.4285714285714285
 40
0.5714285714285714
 40
0.5714285714285714
 40
0.5714285714285714
 40
0.5714285714285714
 40
0.7142857142857143
 40
0.7142857142857143
 40
0.7142857142857143
 40
0.7142857142857143
 40
1.0
 40
1.0
 40
1.0
 40
1.0
 10
60.6557
 20
-50.4417
 30
0.0
 10
59.1155
 20
-50.4963
 30
0.0
 10
57.9125
 20
-51.2283
 30
0.0
 10
57.9125
 20
-51.2283
 30
0.0
 10
57.9125
 20
-51.2283
 30
0.0
 10
58.7587
 20
-48.5337
 30
0.0
 10
57.9125
 20
-45.4665
 30
0.0
 10
57.9125
 20
-45.4665
 30
0.0
 10
57.9125
 20
-45.4665
 30
0.0
 10
57.9125
 20
-45.4665
 30
0.0
 10
59.1155
 20
-45.8325
 30
0.0
 10
60.6557
 20
-45.8597
 30
0.0
 10
60.6557
 20
-45.8597
 30
0.0
 10
62.1957
 20
-45.8325
 30
0.0
 10
63.3987
 20
-45.4665
 30
0.0
 10
63.3987
 20
-45.4665
 30
0.0
 10
63.3987
 20
-45.4665
 30
0.0
 10
63.3987
 20
-45.4665
 30
0.0
 10
62.5525
 20
-48.5337
 30
0.0
 10
63.3987
 20
-51.2283
 30
0.0
 10
63.3987
 20
-51.2283
 30
0.0
 10
63.3987
 20
-51.2283
 30
0.0
 10
62.1957
 20
-50.4963
 30
0.0
 10
60.6557
 20
-50.4417
 30
0.0
  0
SPLINE
  5
74
330
1F
100
AcDbEntity
  8
layer 1
 62
     7
100
AcDbSpline
210
0.0
220
0.0
230
1.0
 70
    11
 71
     3
 72
    16
 73
    12
 74
     0
 42
0.0000000001
 43
0.0000000001
 12
1.0
 22
0.0
 32
0.0
 13
1.0
 23
0.0
 33
0.0
 40
0.0
 40
0.0
 40
0.0
 40
0.0
 40
0.25
 40
0.25
 40
0.25
 40
0.25
 40
0.5
 40
0.5
 40
0.5
 40
0.5
 40
1.0
 40
1.0
 40
1.0
 40
1.0
 10
49.192
 20
109.7385
 30
0.0
 10
49.192
 20
109.7385
 30
0.0
 10
49.6833
 20
111.9458
 30
0.0
 10
51.0207
 20
112.8917
 30
0.0
 10
51.0207
 20
112.8917
 30
0.0
 10
51.0207
 20
112.8917
 30
0.0
 10
49.8206
 20
114.0758
 30
0.0
 10
47.8818
 20
112.6911
 30
0.0
 10
47.8818
 20
112.6911
 30
0.0
 10
47.8818
 20
112.6911
 30
0.0
 10
48.919
 20
111.5444
 30
0.0
 10
49.192
 20
109.7385
 30
0.0
  0
SPLINE
  5
75
330
1F
100
AcDbEntity
  8
layer 1
 62
     7
100
AcDbSpline
210
0.0
220
0.0
230
1.0
 70
    11
 71
     3
 72
    20
 73
    16
 74
     0
 42
0.0000000001
 43
0.0000000001
 12
1.0
 22
0.0
 32
0.0
 13
1.0
 23
0.0
 33
0.0
 40
0.0
 40
0.0
 40
0.0
 40
0.0
 40
0.2
 40
0.2
 40
0.2
 40
0.2
 40
0.4
 40
0.4
 40
0.4
 40
0.4
 40
0.6
 40
0.6
 40
0.6
 40
0.6
 40
1.0
 40
1.0
 40
1.0
 40
1.0
 10
49.4457
 20
42.3701
 30
0.0
 10
48.2754
 20
43.5457
 30
0.0
 10
46.2345
 20
45.9896
 30
0.0
 10
45.6982
 20
49.1674
 30
0.0
 10
45.6982
 20
49.1674
 30
0.0
 10
44.9339
 20
53.6966
 30
0.0
 10
47.6635
 20
57.0505
 30
0.0
 10
48.6734
 20
58.7418
 30
0.0
 10
48.6734
 20
58.7418
 30
0.0
 10
48.9866
 20
59.2664
 30
0.0
 10
49.2867
 20
59.8572
 30
0.0
 10
49.4457
 20
60.4638
 30
0.0
 10
49.4457
 20
60.4638
 30
0.0
 10
49.4457
 20
60.4638
 30
0.0
 10
49.4457
 20
42.3701
 30
0.0
 10
49.4457
 20
42.3701
 30
0.0
  0
SPLINE
  5
76
330
1F
100
AcDbEntity
  8
layer 1
 62
     7
100
AcDbSpline
210
0.0
220
0.0
230
1.0
 70
    11
 71
     3
 72
    20
 73
    16
 74
     0
 42
0.0000000001
 43
0.0000000001
 12
1.0
 22
0.0
 32
0.0
 13
1.0
 23
0.0
 33
0.0
 40
0.0
 40
0.0
 40
0.0
 40
0.0
 40
0.2
 40
0.2
 40
0.2
 40
0.2
 40
0.4
 40
0.4
 40
0.4
 40
0.4
 40
0.6
 40
0.6
 40
0.6
 40
0.6
 40
1.0
 40
1.0
 40
1.0
 40
1.0
 10
48.5683
 20
9.8377
 30
0.0
 10
47.106
 20
11.2594
 30
0.0
 10
44.8488
 20
14.0075
 30
0.0
 10
43.6238
 20
17.4628
 30
0.0
 10
43.6238
 20
17.4628
 30
0.0
 10
41.9733
 20
22.1184
 30
0.0
 10
47.5735
 20
31.3082
 30
0.0
 10
49.4457
 20
35.2026
 30
0.0
 10
49.4457
 20
35.2026
 30
0.0
 10
49.4457
 20
35.2026
 30
0.0
 10
49.4457
 20
9.8377
 30
0.0
 10
49.4457
 20
9.8377
 30
0.0
 10
49.4457
 20
9.8377
 30
0.0
 10
49.4457
 20
9.8377
 30
0.0
 10
48.5683
 20
9.8377
 30
0.0
 10
48.5683
 20
9.8377
 30
0.0
  0
SPLINE
  5
77
330
1F
100
AcDbEntity
  8
layer 1
 62
     7
100
AcDbSpline
210
0.0
220
0.0
230
1.0
 70
    11
 71
     3
 72
    24
 73
    20
 74
     0
 42
0.0000000001
 43
0.0000000001
 12
1.0
 22
0.0
 32
0.0
 13
1.0
 23
0.0
 33
0.0
 40
0.0
 40
0.0
 40
0.0
 40
0.0
 40
0.1666666666666667
 40
0.1666666666666667
 40
0.1666666666666667
 40
0.1666666666666667
 40
0.3333333333333333
 40
0.3333333333333333
 40
0.3333333333333333
 40
0.3333333333333333
 40
0.5
 40
0.5
 40
0.5
 40
0.5
 40
0.6666666666666666
 40
0.6666666666666666
 40
0.6666666666666666
 40
0.6666666666666666
 40
1.0
 40
1.0
 40
1.0
 40
1.0
 10
47.6163
 20
102.8099
 30
0.0
 10
46.664
 20
100.4915
 30
0.0
 10
43.4313
 20
96.3253
 30
0.0
 10
41.6231
 20
94.7532
 30
0.0
 10
41.6231
 20
94.7532
 30
0.0
 10
41.6231
 20
94.7532
 30
0.0
 10
41.6231
 20
102.142
 30
0.0
 10
41.6231
 20
102.142
 30
0.0
 10
41.6231
 20
102.142
 30
0.0
 10
41.6231
 20
102.142
 30
0.0
 10
41.6231
 20
102.8099
 30
0.0
 10
41.6231
 20
102.8099
 30
0.0
 10
41.6231
 20
102.8099
 30
0.0
 10
41.6231
 20
102.8099
 30
0.0
 10
41.9861
 20
102.8099
 30
0.0
 10
41.9861
 20
102.8099
 30
0.0
 10
41.9861
 20
102.8099
 30
0.0
 10
41.9861
 20
102.8099
 30
0.0
 10
47.6163
 20
102.8099
 30
0.0
 10
47.6163
 20
102.8099
 30
0.0
  0
SPLINE
  5
78
330
1F
100
AcDbEntity
  8
layer 1
 62
     7
100
AcDbSpline
210
0.0
220
0.0
230
1.0
 70
    11
 71
     3
 72
    20
 73
    16
 74
     0
 42
0.0000000001
 43
0.0000000001
 12
1.0
 22
0.0
 32
0.0
 13
1.0
 23
0.0
 33
0.0
 40
0.0
 40
0.0
 40
0.0
 40
0.0
 40
0.2
 40
0.2
 40
0.2
 40
0.2
 40
0.4
 40
0.4
 40
0.4
 40
0.4
 40
0.6
 40
0.6
 40
0.6
 40
0.6
 40
1.0
 40
1.0
 40
1.0
 40
1.0
 10
43.2062
 20
113.569
 30
0.0
 10
43.6823
 20
113.3884
 30
0.0
 10
44.2065
 20
113.0872
 30
0.0
 10
44.7702
 20
112.6337
 30
0.0
 10
44.7702
 20
112.6337
 30
0.0
 10
46.8329
 20
110.9745
 30
0.0
 10
47.4489
 20
107.6111
 30
0.0
 10
47.7247
 20
105.3727
 30
0.0
 10
47.7247
 20
105.3727
 30
0.0
 10
47.7247
 20
105.3727
 30
0.0
 10
43.2062
 20
105.3727
 30
0.0
 10
43.2062
 20
105.3727
 30
0.0
 10
43.2062
 20
105.3727
 30
0.0
 10
43.2062
 20
105.3727
 30
0.0
 10
43.2062
 20
113.569
 30
0.0
 10
43.2062
 20
113.569
 30
0.0
  0
SPLINE
  5
79
330
1F
100
AcDbEntity
  8
layer 1
 62
     7
100
AcDbSpline
210
0.0
220
0.0
230
1.0
 70
    11
 71
     3
 72
    24
 73
    20
 74
     0
 42
0.0000000001
 43
0.0000000001
 12
1.0
 22
0.0
 32
0.0
 13
1.0
 23
0.0
 33
0.0
 40
0.0
 40
0.0
 40
0.0
 40
0.0
 40
0.1666666666666667
 40
0.1666666666666667
 40
0.1666666666666667
 40
0.1666666666666667
 40
0.3333333333333333
 40
0.3333333333333333
 40
0.3333333333333333
 40
0.3333333333333333
 40
0.5
 40
0.5
 40
0.5
 40
0.5
 40
0.6666666666666666
 40
0.6666666666666666
 40
0.6666666666666666
 40
0.6666666666666666
 40
1.0
 40
1.0
 40
1.0
 40
1.0
 10
50.4292
 20
105.3727
 30
0.0
 10
52.4707
 20
112.2265
 30
0.0
 10
53.2875
 20
112.5685
 30
0.0
 10
55.5243
 20
112.4617
 30
0.0
 10
55.5243
 20
112.4617
 30
0.0
 10
57.9263
 20
112.3471
 30
0.0
 10
56.507
 20
109.4232
 30
0.0
 10
56.1794
 20
108.1619
 30
0.0
 10
56.1794
 20
108.1619
 30
0.0
 10
55.8519
 20
106.9005
 30
0.0
 10
58.9635
 20
107.1299
 30
0.0
 10
59.4002
 20
109.9391
 30
0.0
 10
59.4002
 20
109.9391
 30
0.0
 10
59.4002
 20
109.9391
 30
0.0
 10
59.4002
 20
105.3727
 30
0.0
 10
59.4002
 20
105.3727
 30
0.0
 10
59.4002
 20
105.3727
 30
0.0
 10
59.4002
 20
105.3727
 30
0.0
 10
50.4292
 20
105.3727
 30
0.0
 10
50.4292
 20
105.3727
 30
0.0
  0
SPLINE
  5
7A
330
1F
100
AcDbEntity
  8
layer 1
 62
     7
100
AcDbSpline
210
0.0
220
0.0
230
1.0
 70
    11
 71
     3
 72
    24
 73
    20
 74
     0
 42
0.0000000001
 43
0.0000000001
 12
1.0
 22
0.0
 32
0.0
 13
1.0
 23
0.0
 33
0.0
 40
0.0
 40
0.0
 40
0.0
 40
0.0
 40
0.1666666666666667
 40
0.1666666666666667
 40
0.1666666666666667
 40
0.1666666666666667
 40
0.3333333333333333
 40
0.3333333333333333
 40
0.3333333333333333
 40
0.3333333333333333
 40
0.5
 40
0.5
 40
0.5
 40
0.5
 40
0.6666666666666666
 40
0.6666666666666666
 40
0.6666666666666666
 40
0.6666666666666666
 40
1.0
 40
1.0
 40
1.0
 40
1.0
 10
50.4283
 20
83.5108
 30
0.0
 10
50.2188
 20
84.7045
 30
0.0
 10
49.8739
 20
85.7968
 30
0.0
 10
49.4103
 20
86.6624
 30
0.0
 10
49.4103
 20
86.6624
 30
0.0
 10
47.4451
 20
90.3317
 30
0.0
 10
42.4774
 20
92.4529
 30
0.0
 10
42.4774
 20
92.4529
 30
0.0
 10
42.4774
 20
92.4529
 30
0.0
 10
42.4774
 20
92.4529
 30
0.0
 10
47.1746
 20
95.1064
 30
0.0
 10
49.6703
 20
102.8099
 30
0.0
 10
49.6703
 20
102.8099
 30
0.0
 10
49.6703
 20
102.8099
 30
0.0
 10
50.4283
 20
102.8099
 30
0.0
 10
50.4283
 20
102.8099
 30
0.0
 10
50.4283
 20
102.8099
 30
0.0
 10
50.4283
 20
102.8099
 30
0.0
 10
50.4283
 20
83.5108
 30
0.0
 10
50.4283
 20
83.5108
 30
0.0
  0
SPLINE
  5
7B
330
1F
100
AcDbEntity
  8
layer 1
 62
     7
100
AcDbSpline
210
0.0
220
0.0
230
1.0
 70
    11
 71
     3
 72
    28
 73
    24
 74
     0
 42
0.0000000001
 43
0.0000000001
 12
1.0
 22
0.0
 32
0.0
 13
1.0
 23
0.0
 33
0.0
 40
0.0
 40
0.0
 40
0.0
 40
0.0
 40
0.1428571428571428
 40
0.1428571428571428
 40
0.1428571428571428
 40
0.1428571428571428
 40
0.2857142857142857
 40
0.2857142857142857
 40
0.2857142857142857
 40
0.2857142857142857
 40
0.4285714285714285
 40
0.4285714285714285
 40
0.4285714285714285
 40
0.4285714285714285
 40
0.5714285714285714
 40
0.5714285714285714
 40
0.5714285714285714
 40
0.5714285714285714
 40
0.7142857142857143
 40
0.7142857142857143
 40
0.7142857142857143
 40
0.7142857142857143
 40
1.0
 40
1.0
 40
1.0
 40
1.0
 10
41.6231
 20
73.5717
 30
0.0
 10
42.8604
 20
72.1215
 30
0.0
 10
45.1587
 20
71.4006
 30
0.0
 10
47.6088
 20
72.9601
 30
0.0
 10
47.6088
 20
72.9601
 30
0.0
 10
49.1257
 20
73.9256
 30
0.0
 10
50.0328
 20
75.8565
 30
0.0
 10
50.4283
 20
78.0426
 30
0.0
 10
50.4283
 20
78.0426
 30
0.0
 10
50.4283
 20
78.0426
 30
0.0
 10
50.4283
 20
69.2335
 30
0.0
 10
50.4283
 20
69.2335
 30
0.0
 10
50.4283
 20
69.2335
 30
0.0
 10
50.4283
 20
69.2335
 30
0.0
 10
50.4283
 20
68.5656
 30
0.0
 10
50.4283
 20
68.5656
 30
0.0
 10
50.4283
 20
68.5656
 30
0.0
 10
50.4283
 20
68.5656
 30
0.0
 10
41.6231
 20
68.5656
 30
0.0
 10
41.6231
 20
68.5656
 30
0.0
 10
41.6231
 20
68.5656
 30
0.0
 10
41.6231
 20
68.5656
 30
0.0
 10
41.6231
 20
73.5717
 30
0.0
 10
41.6231
 20
73.5717
 30
0.0
  0
SPLINE
  5
7C
330
1F
100
AcDbEntity
  8
layer 1
 62
     7
100
AcDbSpline
210
0.0
220
0.0
230
1.0
 70
    11
 71
     3
 72
    24
 73
    20
 74
     0
 42
0.0000000001
 43
0.0000000001
 12
1.0
 22
0.0
 32
0.0
 13
1.0
 23
0.0
 33
0.0
 40
0.0
 40
0.0
 40
0.0
 40
0.0
 40
0.1666666666666667
 40
0.1666666666666667
 40
0.1666666666666667
 40
0.1666666666666667
 40
0.3333333333333333
 40
0.3333333333333333
 40
0.3333333333333333
 40
0.3333333333333333
 40
0.5
 40
0.5
 40
0.5
 40
0.5
 40
0.6666666666666666
 40
0.6666666666666666
 40
0.6666666666666666
 40
0.6666666666666666
 40
1.0
 40
1.0
 40
1.0
 40
1.0
 10
41.6231
 20
90.4238
 30
0.0
 10
46.388
 20
89.4422
 30
0.0
 10
49.5633
 20
83.3884
 30
0.0
 10
48.8098
 20
78.6933
 30
0.0
 10
48.8098
 20
78.6933
 30
0.0
 10
47.991
 20
73.5907
 30
0.0
 10
44.8248
 20
73.3614
 30
0.0
 10
44.0059
 20
74.9667
 30
0.0
 10
44.0059
 20
74.9667
 30
0.0
 10
43.1871
 20
76.572
 30
0.0
 10
44.7702
 20
78.4066
 30
0.0
 10
43.6784
 20
79.0372
 30
0.0
 10
43.6784
 20
79.0372
 30
0.0
 10
43.0955
 20
79.374
 30
0.0
 10
42.2637
 20
79.2203
 30
0.0
 10
41.6231
 20
78.6026
 30
0.0
 10
41.6231
 20
78.6026
 30
0.0
 10
41.6231
 20
78.6026
 30
0.0
 10
41.6231
 20
90.4238
 30
0.0
 10
41.6231
 20
90.4238
 30
0.0
  0
SPLINE
  5
7D
330
1F
100
AcDbEntity
  8
layer 1
 62
     7
100
AcDbSpline
210
0.0
220
0.0
230
1.0
 70
    11
 71
     3
 72
    16
 73
    12
 74
     0
 42
0.0000000001
 43
0.0000000001
 12
1.0
 22
0.0
 32
0.0
 13
1.0
 23
0.0
 33
0.0
 40
0.0
 40
0.0
 40
0.0
 40
0.0
 40
0.25
 40
0.25
 40
0.25
 40
0.25
 40
0.5
 40
0.5
 40
0.5
 40
0.5
 40
1.0
 40
1.0
 40
1.0
 40
1.0
 10
39.1828
 20
82.2463
 30
0.0
 10
37.8698
 20
84.4816
 30
0.0
 10
34.6838
 20
85.5985
 30
0.0
 10
31.5595
 20
82.8785
 30
0.0
 10
31.5595
 20
82.8785
 30
0.0
 10
31.5595
 20
82.8785
 30
0.0
 10
34.4194
 20
89.5239
 30
0.0
 10
39.1828
 20
90.4529
 30
0.0
 10
39.1828
 20
90.4529
 30
0.0
 10
39.1828
 20
90.4529
 30
0.0
 10
39.1828
 20
82.2463
 30
0.0
 10
39.1828
 20
82.2463
 30
0.0
  0
SPLINE
  5
7E
330
1F
100
AcDbEntity
  8
layer 1
 62
     7
100
AcDbSpline
210
0.0
220
0.0
230
1.0
 70
    11
 71
     3
 72
    24
 73
    20
 74
     0
 42
0.0000000001
 43
0.0000000001
 12
1.0
 22
0.0
 32
0.0
 13
1.0
 23
0.0
 33
0.0
 40
0.0
 40
0.0
 40
0.0
 40
0.0
 40
0.1666666666666667
 40
0.1666666666666667
 40
0.1666666666666667
 40
0.1666666666666667
 40
0.3333333333333333
 40
0.3333333333333333
 40
0.3333333333333333
 40
0.3333333333333333
 40
0.5
 40
0.5
 40
0.5
 40
0.5
 40
0.6666666666666666
 40
0.6666666666666666
 40
0.6666666666666666
 40
0.6666666666666666
 40
1.0
 40
1.0
 40
1.0
 40
1.0
 10
29.9956
 20
68.5656
 30
0.0
 10
29.1545
 20
76.4131
 30
0.0
 10
33.8092
 20
82.0125
 30
0.0
 10
35.3261
 20
81.2159
 30
0.0
 10
35.3261
 20
81.2159
 30
0.0
 10
36.9639
 20
80.3559
 30
0.0
 10
35.49
 20
78.8652
 30
0.0
 10
35.7083
 20
77.4893
 30
0.0
 10
35.7083
 20
77.4893
 30
0.0
 10
35.875
 20
76.4391
 30
0.0
 10
38.0768
 20
76.2575
 30
0.0
 10
39.1828
 20
77.8108
 30
0.0
 10
39.1828
 20
77.8108
 30
0.0
 10
39.1828
 20
77.8108
 30
0.0
 10
39.1828
 20
68.5656
 30
0.0
 10
39.1828
 20
68.5656
 30
0.0
 10
39.1828
 20
68.5656
 30
0.0
 10
39.1828
 20
68.5656
 30
0.0
 10
29.9956
 20
68.5656
 30
0.0
 10
29.9956
 20
68.5656
 30
0.0
  0
SPLINE
  5
7F
330
1F
100
AcDbEntity
  8
layer 1
 62
     7
100
AcDbSpline
210
0.0
220
0.0
230
1.0
 70
    11
 71
     3
 72
    48
 73
    44
 74
     0
 42
0.0000000001
 43
0.0000000001
 12
1.0
 22
0.0
 32
0.0
 13
1.0
 23
0.0
 33
0.0
 40
0.0
 40
0.0
 40
0.0
 40
0.0
 40
0.0833333333333333
 40
0.0833333333333333
 40
0.0833333333333333
 40
0.0833333333333333
 40
0.1666666666666667
 40
0.1666666666666667
 40
0.1666666666666667
 40
0.1666666666666667
 40
0.25
 40
0.25
 40
0.25
 40
0.25
 40
0.3333333333333333
 40
0.3333333333333333
 40
0.3333333333333333
 40
0.3333333333333333
 40
0.4166666666666667
 40
0.4166666666666667
 40
0.4166666666666667
 40
0.4166666666666667
 40
0.5
 40
0.5
 40
0.5
 40
0.5
 40
0.5833333333333334
 40
0.5833333333333334
 40
0.5833333333333334
 40
0.5833333333333334
 40
0.6666666666666666
 40
0.6666666666666666
 40
0.6666666666666666
 40
0.6666666666666666
 40
0.75
 40
0.75
 40
0.75
 40
0.75
 40
0.8333333333333334
 40
0.8333333333333334
 40
0.8333333333333334
 40
0.8333333333333334
 40
1.0
 40
1.0
 40
1.0
 40
1.0
 10
34.877
 20
57.214
 30
0.0
 10
33.0008
 20
59.829
 30
0.0
 10
31.2698
 20
62.8781
 30
0.0
 10
30.4601
 20
66.0028
 30
0.0
 10
30.4601
 20
66.0028
 30
0.0
 10
30.4601
 20
66.0028
 30
0.0
 10
49.4457
 20
66.0028
 30
0.0
 10
49.4457
 20
66.0028
 30
0.0
 10
49.4457
 20
66.0028
 30
0.0
 10
49.4457
 20
66.0028
 30
0.0
 10
49.4457
 20
62.0823
 30
0.0
 10
49.4457
 20
62.0823
 30
0.0
 10
49.4457
 20
62.0823
 30
0.0
 10
49.1887
 20
62.8763
 30
0.0
 10
48.478
 20
63.6184
 30
0.0
 10
47.0083
 20
64.1883
 30
0.0
 10
47.0083
 20
64.1883
 30
0.0
 10
47.0083
 20
64.1883
 30
0.0
 10
47.8545
 20
61.7517
 30
0.0
 10
46.8992
 20
59.5157
 30
0.0
 10
46.8992
 20
59.5157
 30
0.0
 10
45.9438
 20
57.2798
 30
0.0
 10
44.1424
 20
58.0825
 30
0.0
 10
44.1424
 20
56.2766
 30
0.0
 10
44.1424
 20
56.2766
 30
0.0
 10
44.1424
 20
54.6937
 30
0.0
 10
44.1004
 20
53.9475
 30
0.0
 10
43.0425
 20
51.9923
 30
0.0
 10
43.0425
 20
51.9923
 30
0.0
 10
43.0425
 20
51.9923
 30
0.0
 10
43.0425
 20
55.9325
 30
0.0
 10
43.0425
 20
55.9325
 30
0.0
 10
43.0425
 20
55.9325
 30
0.0
 10
43.0425
 20
55.9325
 30
0.0
 10
43.0425
 20
57.214
 30
0.0
 10
43.0425
 20
57.214
 30
0.0
 10
43.0425
 20
57.214
 30
0.0
 10
43.0425
 20
57.214
 30
0.0
 10
41.8223
 20
57.214
 30
0.0
 10
41.8223
 20
57.214
 30
0.0
 10
41.8223
 20
57.214
 30
0.0
 10
41.8223
 20
57.214
 30
0.0
 10
34.877
 20
57.214
 30
0.0
 10
34.877
 20
57.214
 30
0.0
  0
SPLINE
  5
80
330
1F
100
AcDbEntity
  8
layer 1
 62
     7
100
AcDbSpline
210
0.0
220
0.0
230
1.0
 70
    11
 71
     3
 72
    16
 73
    12
 74
     0
 42
0.0000000001
 43
0.0000000001
 12
1.0
 22
0.0
 32
0.0
 13
1.0
 23
0.0
 33
0.0
 40
0.0
 40
0.0
 40
0.0
 40
0.0
 40
0.25
 40
0.25
 40
0.25
 40
0.25
 40
0.5
 40
0.5
 40
0.5
 40
0.5
 40
1.0
 40
1.0
 40
1.0
 40
1.0
 10
40.6022
 20
50.5909
 30
0.0
 10
39.6605
 20
51.5111
 30
0.0
 10
38.2977
 20
52.9173
 30
0.0
 10
36.8596
 20
54.6511
 30
0.0
 10
36.8596
 20
54.6511
 30
0.0
 10
36.8596
 20
54.6511
 30
0.0
 10
40.6022
 20
54.6511
 30
0.0
 10
40.6022
 20
54.6511
 30
0.0
 10
40.6022
 20
54.6511
 30
0.0
 10
40.6022
 20
54.6511
 30
0.0
 10
40.6022
 20
50.5909
 30
0.0
 10
40.6022
 20
50.5909
 30
0.0
  0
SPLINE
  5
81
330
1F
100
AcDbEntity
  8
layer 1
 62
     7
100
AcDbSpline
210
0.0
220
0.0
230
1.0
 70
    11
 71
     3
 72
    16
 73
    12
 74
     0
 42
0.0000000001
 43
0.0000000001
 12
1.0
 22
0.0
 32
0.0
 13
1.0
 23
0.0
 33
0.0
 40
0.0
 40
0.0
 40
0.0
 40
0.0
 40
0.25
 40
0.25
 40
0.25
 40
0.25
 40
0.5
 40
0.5
 40
0.5
 40
0.5
 40
1.0
 40
1.0
 40
1.0
 40
1.0
 10
30.0575
 20
38.4091
 30
0.0
 10
30.0104
 20
44.1194
 30
0.0
 10
34.3968
 20
50.1359
 30
0.0
 10
40.6022
 20
47.8487
 30
0.0
 10
40.6022
 20
47.8487
 30
0.0
 10
40.6022
 20
47.8487
 30
0.0
 10
40.6022
 20
38.4091
 30
0.0
 10
40.6022
 20
38.4091
 30
0.0
 10
40.6022
 20
38.4091
 30
0.0
 10
40.6022
 20
38.4091
 30
0.0
 10
30.0575
 20
38.4091
 30
0.0
 10
30.0575
 20
38.4091
 30
0.0
  0
SPLINE
  5
82
330
1F
100
AcDbEntity
  8
layer 1
 62
     7
100
AcDbSpline
210
0.0
220
0.0
230
1.0
 70
    11
 71
     3
 72
    16
 73
    12
 74
     0
 42
0.0000000001
 43
0.0000000001
 12
1.0
 22
0.0
 32
0.0
 13
1.0
 23
0.0
 33
0.0
 40
0.0
 40
0.0
 40
0.0
 40
0.0
 40
0.25
 40
0.25
 40
0.25
 40
0.25
 40
0.5
 40
0.5
 40
0.5
 40
0.5
 40
1.0
 40
1.0
 40
1.0
 40
1.0
 10
35.1432
 20
30.4541
 30
0.0
 10
33.2327
 20
30.8463
 30
0.0
 10
31.1301
 20
32.363
 30
0.0
 10
30.353
 20
35.8462
 30
0.0
 10
30.353
 20
35.8462
 30
0.0
 10
30.353
 20
35.8462
 30
0.0
 10
35.1432
 20
35.8462
 30
0.0
 10
35.1432
 20
35.8462
 30
0.0
 10
35.1432
 20
35.8462
 30
0.0
 10
35.1432
 20
35.8462
 30
0.0
 10
35.1432
 20
30.4541
 30
0.0
 10
35.1432
 20
30.4541
 30
0.0
  0
SPLINE
  5
83
330
1F
100
AcDbEntity
  8
layer 1
 62
     7
100
AcDbSpline
210
0.0
220
0.0
230
1.0
 70
    11
 71
     3
 72
    76
 73
    72
 74
     0
 42
0.0000000001
 43
0.0000000001
 12
1.0
 22
0.0
 32
0.0
 13
1.0
 23
0.0
 33
0.0
 40
0.0
 40
0.0
 40
0.0
 40
0.0
 40
0.0526315789473684
 40
0.0526315789473684
 40
0.0526315789473684
 40
0.0526315789473684
 40
0.1052631578947368
 40
0.1052631578947368
 40
0.1052631578947368
 40
0.1052631578947368
 40
0.1578947368421053
 40
0.1578947368421053
 40
0.1578947368421053
 40
0.1578947368421053
 40
0.2105263157894737
 40
0.2105263157894737
 40
0.2105263157894737
 40
0.2105263157894737
 40
0.2631578947368421
 40
0.2631578947368421
 40
0.2631578947368421
 40
0.2631578947368421
 40
0.3157894736842105
 40
0.3157894736842105
 40
0.3157894736842105
 40
0.3157894736842105
 40
0.3684210526315789
 40
0.3684210526315789
 40
0.3684210526315789
 40
0.3684210526315789
 40
0.4210526315789473
 40
0.4210526315789473
 40
0.4210526315789473
 40
0.4210526315789473
 40
0.4736842105263158
 40
0.4736842105263158
 40
0.4736842105263158
 40
0.4736842105263158
 40
0.5263157894736842
 40
0.5263157894736842
 40
0.5263157894736842
 40
0.5263157894736842
 40
0.5789473684210527
 40
0.5789473684210527
 40
0.5789473684210527
 40
0.5789473684210527
 40
0.631578947368421
 40
0.631578947368421
 40
0.631578947368421
 40
0.631578947368421
 40
0.6842105263157895
 40
0.6842105263157895
 40
0.6842105263157895
 40
0.6842105263157895
 40
0.7368421052631579
 40
0.7368421052631579
 40
0.7368421052631579
 40
0.7368421052631579
 40
0.7894736842105263
 40
0.7894736842105263
 40
0.7894736842105263
 40
0.7894736842105263
 40
0.8421052631578947
 40
0.8421052631578947
 40
0.8421052631578947
 40
0.8421052631578947
 40
0.8947368421052632
 40
0.8947368421052632
 40
0.8947368421052632
 40
0.8947368421052632
 40
1.0
 40
1.0
 40
1.0
 40
1.0
 10
37.5835
 20
28.4296
 30
0.0
 10
38.1228
 20
28.5215
 30
0.0
 10
38.6429
 20
28.6964
 30
0.0
 10
39.0929
 20
28.9865
 30
0.0
 10
39.0929
 20
28.9865
 30
0.0
 10
40.6487
 20
29.9898
 30
0.0
 10
41.2764
 20
31.7958
 30
0.0
 10
40.3484
 20
33.3151
 30
0.0
 10
40.3484
 20
33.3151
 30
0.0
 10
39.4204
 20
34.8344
 30
0.0
 10
37.7008
 20
34.4904
 30
0.0
 10
38.4105
 20
33.2578
 30
0.0
 10
38.4105
 20
33.2578
 30
0.0
 10
39.0055
 20
32.2243
 30
0.0
 10
39.0245
 20
31.0298
 30
0.0
 10
37.5835
 20
30.5525
 30
0.0
 10
37.5835
 20
30.5525
 30
0.0
 10
37.5835
 20
30.5525
 30
0.0
 10
37.5835
 20
35.8462
 30
0.0
 10
37.5835
 20
35.8462
 30
0.0
 10
37.5835
 20
35.8462
 30
0.0
 10
37.5835
 20
35.8462
 30
0.0
 10
41.8223
 20
35.8462
 30
0.0
 10
41.8223
 20
35.8462
 30
0.0
 10
41.8223
 20
35.8462
 30
0.0
 10
41.8223
 20
35.8462
 30
0.0
 10
43.0425
 20
35.8462
 30
0.0
 10
43.0425
 20
35.8462
 30
0.0
 10
43.0425
 20
35.8462
 30
0.0
 10
43.0425
 20
35.8462
 30
0.0
 10
43.0425
 20
37.1277
 30
0.0
 10
43.0425
 20
37.1277
 30
0.0
 10
43.0425
 20
37.1277
 30
0.0
 10
43.0425
 20
37.1277
 30
0.0
 10
43.0425
 20
46.6587
 30
0.0
 10
43.0425
 20
46.6587
 30
0.0
 10
43.0425
 20
46.6587
 30
0.0
 10
44.0672
 20
45.8972
 30
0.0
 10
45.7002
 20
44.2101
 30
0.0
 10
46.79
 20
40.7395
 30
0.0
 10
46.79
 20
40.7395
 30
0.0
 10
48.4823
 20
35.3504
 30
0.0
 10
47.7453
 20
34.949
 30
0.0
 10
46.5443
 20
34.5764
 30
0.0
 10
46.5443
 20
34.5764
 30
0.0
 10
45.3434
 20
34.2038
 30
0.0
 10
44.8248
 20
33.5158
 30
0.0
 10
44.6883
 20
32.3118
 30
0.0
 10
44.6883
 20
32.3118
 30
0.0
 10
44.5518
 20
31.1078
 30
0.0
 10
43.1052
 20
31.4232
 30
0.0
 10
41.9861
 20
29.6745
 30
0.0
 10
41.9861
 20
29.6745
 30
0.0
 10
40.867
 20
27.9259
 30
0.0
 10
41.9588
 20
27.2666
 30
0.0
 10
40.7033
 20
25.604
 30
0.0
 10
40.7033
 20
25.604
 30
0.0
 10
39.4477
 20
23.9413
 30
0.0
 10
40.7033
 20
23.0527
 30
0.0
 10
40.212
 20
20.96
 30
0.0
 10
40.212
 20
20.96
 30
0.0
 10
39.7438
 20
18.966
 30
0.0
 10
41.5806
 20
13.0677
 30
0.0
 10
44.5413
 20
9.8377
 30
0.0
 10
44.5413
 20
9.8377
 30
0.0
 10
44.5413
 20
9.8377
 30
0.0
 10
37.5835
 20
9.8377
 30
0.0
 10
37.5835
 20
9.8377
 30
0.0
 10
37.5835
 20
9.8377
 30
0.0
 10
37.5835
 20
9.8377
 30
0.0
 10
37.5835
 20
28.4296
 30
0.0
 10
37.5835
 20
28.4296
 30
0.0
  0
SPLINE
  5
84
330
1F
100
AcDbEntity
  8
layer 1
 62
     7
100
AcDbSpline
210
0.0
220
0.0
230
1.0
 70
    11
 71
     3
 72
    36
 73
    32
 74
     0
 42
0.0000000001
 43
0.0000000001
 12
1.0
 22
0.0
 32
0.0
 13
1.0
 23
0.0
 33
0.0
 40
0.0
 40
0.0
 40
0.0
 40
0.0
 40
0.1111111111111111
 40
0.1111111111111111
 40
0.1111111111111111
 40
0.1111111111111111
 40
0.2222222222222222
 40
0.2222222222222222
 40
0.2222222222222222
 40
0.2222222222222222
 40
0.3333333333333333
 40
0.3333333333333333
 40
0.3333333333333333
 40
0.3333333333333333
 40
0.4444444444444444
 40
0.4444444444444444
 40
0.4444444444444444
 40
0.4444444444444444
 40
0.5555555555555556
 40
0.5555555555555556
 40
0.5555555555555556
 40
0.5555555555555556
 40
0.6666666666666666
 40
0.6666666666666666
 40
0.6666666666666666
 40
0.6666666666666666
 40
0.7777777777777778
 40
0.7777777777777778
 40
0.7777777777777778
 40
0.7777777777777778
 40
1.0
 40
1.0
 40
1.0
 40
1.0
 10
52.3284
 20
9.8377
 30
0.0
 10
52.3284
 20
9.8377
 30
0.0
 10
51.886
 20
9.8377
 30
0.0
 10
51.886
 20
9.8377
 30
0.0
 10
51.886
 20
9.8377
 30
0.0
 10
51.886
 20
9.8377
 30
0.0
 10
51.886
 20
20.6339
 30
0.0
 10
51.886
 20
20.6339
 30
0.0
 10
51.886
 20
20.6339
 30
0.0
 10
53.2033
 20
20.709
 30
0.0
 10
55.5898
 20
21.1939
 30
0.0
 10
57.1219
 20
23.562
 30
0.0
 10
57.1219
 20
23.562
 30
0.0
 10
57.1219
 20
23.562
 30
0.0
 10
59.4002
 20
23.562
 30
0.0
 10
59.4002
 20
23.562
 30
0.0
 10
59.4002
 20
23.562
 30
0.0
 10
59.4002
 20
23.562
 30
0.0
 10
59.4002
 20
17.6383
 30
0.0
 10
59.4002
 20
17.6383
 30
0.0
 10
59.4002
 20
17.6383
 30
0.0
 10
58.1671
 20
17.1825
 30
0.0
 10
56.9602
 20
15.683
 30
0.0
 10
56.6161
 20
14.6249
 30
0.0
 10
56.6161
 20
14.6249
 30
0.0
 10
56.234
 20
13.4496
 30
0.0
 10
55.9884
 20
13.851
 30
0.0
 10
54.2688
 20
12.6756
 30
0.0
 10
54.2688
 20
12.6756
 30
0.0
 10
53.3261
 20
12.0313
 30
0.0
 10
52.701
 20
10.8099
 30
0.0
 10
52.3284
 20
9.8377
 30
0.0
  0
SPLINE
  5
85
330
1F
100
AcDbEntity
  8
layer 1
 62
     7
100
AcDbSpline
210
0.0
220
0.0
230
1.0
 70
    11
 71
     3
 72
    56
 73
    52
 74
     0
 42
0.0000000001
 43
0.0000000001
 12
1.0
 22
0.0
 32
0.0
 13
1.0
 23
0.0
 33
0.0
 40
0.0
 40
0.0
 40
0.0
 40
0.0
 40
0.0714285714285714
 40
0.0714285714285714
 40
0.0714285714285714
 40
0.0714285714285714
 40
0.1428571428571428
 40
0.1428571428571428
 40
0.1428571428571428
 40
0.1428571428571428
 40
0.2142857142857143
 40
0.2142857142857143
 40
0.2142857142857143
 40
0.2142857142857143
 40
0.2857142857142857
 40
0.2857142857142857
 40
0.2857142857142857
 40
0.2857142857142857
 40
0.3571428571428572
 40
0.3571428571428572
 40
0.3571428571428572
 40
0.3571428571428572
 40
0.4285714285714285
 40
0.4285714285714285
 40
0.4285714285714285
 40
0.4285714285714285
 40
0.5
 40
0.5
 40
0.5
 40
0.5
 40
0.5714285714285714
 40
0.5714285714285714
 40
0.5714285714285714
 40
0.5714285714285714
 40
0.6428571428571429
 40
0.6428571428571429
 40
0.6428571428571429
 40
0.6428571428571429
 40
0.7142857142857143
 40
0.7142857142857143
 40
0.7142857142857143
 40
0.7142857142857143
 40
0.7857142857142857
 40
0.7857142857142857
 40
0.7857142857142857
 40
0.7857142857142857
 40
0.8571428571428571
 40
0.8571428571428571
 40
0.8571428571428571
 40
0.8571428571428571
 40
1.0
 40
1.0
 40
1.0
 40
1.0
 10
59.4002
 20
45.297
 30
0.0
 10
58.2391
 20
44.8568
 30
0.0
 10
57.3478
 20
43.8236
 30
0.0
 10
57.0579
 20
42.5455
 30
0.0
 10
57.0579
 20
42.5455
 30
0.0
 10
57.0579
 20
42.5455
 30
0.0
 10
51.886
 20
42.5455
 30
0.0
 10
51.886
 20
42.5455
 30
0.0
 10
51.886
 20
42.5455
 30
0.0
 10
51.886
 20
42.5455
 30
0.0
 10
51.886
 20
48.0932
 30
0.0
 10
51.886
 20
48.0932
 30
0.0
 10
51.886
 20
48.0932
 30
0.0
 10
51.886
 20
48.0932
 30
0.0
 10
55.8519
 20
48.0932
 30
0.0
 10
55.8519
 20
48.0932
 30
0.0
 10
55.8519
 20
48.0932
 30
0.0
 10
55.8519
 20
48.0932
 30
0.0
 10
58.2286
 20
47.9308
 30
0.0
 10
56.5643
 20
51.885
 30
0.0
 10
56.5643
 20
51.885
 30
0.0
 10
56.5643
 20
51.885
 30
0.0
 10
56.9265
 20
49.9852
 30
0.0
 10
55.8519
 20
49.9852
 30
0.0
 10
55.8519
 20
49.9852
 30
0.0
 10
55.8519
 20
49.9852
 30
0.0
 10
51.886
 20
49.9852
 30
0.0
 10
51.886
 20
49.9852
 30
0.0
 10
51.886
 20
49.9852
 30
0.0
 10
51.886
 20
49.9852
 30
0.0
 10
51.886
 20
60.3541
 30
0.0
 10
51.886
 20
60.3541
 30
0.0
 10
51.886
 20
60.3541
 30
0.0
 10
52.8586
 20
60.2853
 30
0.0
 10
54.5785
 20
59.8855
 30
0.0
 10
55.5418
 20
58.0201
 30
0.0
 10
55.5418
 20
58.0201
 30
0.0
 10
55.5418
 20
58.0201
 30
0.0
 10
55.8535
 20
57.4165
 30
0.0
 10
55.8535
 20
57.4165
 30
0.0
 10
55.8535
 20
57.4165
 30
0.0
 10
55.8535
 20
57.4165
 30
0.0
 10
56.507
 20
57.4165
 30
0.0
 10
56.507
 20
57.4165
 30
0.0
 10
56.507
 20
57.4165
 30
0.0
 10
56.507
 20
57.4165
 30
0.0
 10
59.4002
 20
57.4165
 30
0.0
 10
59.4002
 20
57.4165
 30
0.0
 10
59.4002
 20
57.4165
 30
0.0
 10
59.4002
 20
57.4165
 30
0.0
 10
59.4002
 20
45.297
 30
0.0
 10
59.4002
 20
45.297
 30
0.0
  0
SPLINE
  5
86
330
1F
100
AcDbEntity
  8
layer 1
 62
     7
100
AcDbSpline
210
0.0
220
0.0
230
1.0
 70
    11
 71
     3
 72
    56
 73
    52
 74
     0
 42
0.0000000001
 43
0.0000000001
 12
1.0
 22
0.0
 32
0.0
 13
1.0
 23
0.0
 33
0.0
 40
0.0
 40
0.0
 40
0.0
 40
0.0
 40
0.0714285714285714
 40
0.0714285714285714
 40
0.0714285714285714
 40
0.0714285714285714
 40
0.1428571428571428
 40
0.1428571428571428
 40
0.1428571428571428
 40
0.1428571428571428
 40
0.2142857142857143
 40
0.2142857142857143
 40
0.2142857142857143
 40
0.2142857142857143
 40
0.2857142857142857
 40
0.2857142857142857
 40
0.2857142857142857
 40
0.2857142857142857
 40
0.3571428571428572
 40
0.3571428571428572
 40
0.3571428571428572
 40
0.3571428571428572
 40
0.4285714285714285
 40
0.4285714285714285
 40
0.4285714285714285
 40
0.4285714285714285
 40
0.5
 40
0.5
 40
0.5
 40
0.5
 40
0.5714285714285714
 40
0.5714285714285714
 40
0.5714285714285714
 40
0.5714285714285714
 40
0.6428571428571429
 40
0.6428571428571429
 40
0.6428571428571429
 40
0.6428571428571429
 40
0.7142857142857143
 40
0.7142857142857143
 40
0.7142857142857143
 40
0.7142857142857143
 40
0.7857142857142857
 40
0.7857142857142857
 40
0.7857142857142857
 40
0.7857142857142857
 40
0.8571428571428571
 40
0.8571428571428571
 40
0.8571428571428571
 40
0.8571428571428571
 40
1.0
 40
1.0
 40
1.0
 40
1.0
 10
51.886
 20
40.7395
 30
0.0
 10
51.886
 20
40.7395
 30
0.0
 10
57.0579
 20
40.7395
 30
0.0
 10
57.0579
 20
40.7395
 30
0.0
 10
57.0579
 20
40.7395
 30
0.0
 10
57.3478
 20
39.4616
 30
0.0
 10
58.2391
 20
38.4282
 30
0.0
 10
59.4002
 20
37.988
 30
0.0
 10
59.4002
 20
37.988
 30
0.0
 10
59.4002
 20
37.988
 30
0.0
 10
59.4002
 20
25.8686
 30
0.0
 10
59.4002
 20
25.8686
 30
0.0
 10
59.4002
 20
25.8686
 30
0.0
 10
59.4002
 20
25.8686
 30
0.0
 10
56.507
 20
25.8686
 30
0.0
 10
56.507
 20
25.8686
 30
0.0
 10
56.507
 20
25.8686
 30
0.0
 10
56.507
 20
25.8686
 30
0.0
 10
55.8535
 20
25.8686
 30
0.0
 10
55.8535
 20
25.8686
 30
0.0
 10
55.8535
 20
25.8686
 30
0.0
 10
55.8535
 20
25.8686
 30
0.0
 10
55.5418
 20
25.2649
 30
0.0
 10
55.5418
 20
25.2649
 30
0.0
 10
55.5418
 20
25.2649
 30
0.0
 10
54.5785
 20
23.3997
 30
0.0
 10
52.8586
 20
22.9999
 30
0.0
 10
51.886
 20
22.931
 30
0.0
 10
51.886
 20
22.931
 30
0.0
 10
51.886
 20
22.931
 30
0.0
 10
51.886
 20
33.2999
 30
0.0
 10
51.886
 20
33.2999
 30
0.0
 10
51.886
 20
33.2999
 30
0.0
 10
51.886
 20
33.2999
 30
0.0
 10
55.8519
 20
33.2999
 30
0.0
 10
55.8519
 20
33.2999
 30
0.0
 10
55.8519
 20
33.2999
 30
0.0
 10
56.9265
 20
33.2999
 30
0.0
 10
56.5643
 20
31.4001
 30
0.0
 10
56.5643
 20
31.4001
 30
0.0
 10
56.5643
 20
31.4001
 30
0.0
 10
58.2286
 20
35.3542
 30
0.0
 10
55.8519
 20
35.1919
 30
0.0
 10
55.8519
 20
35.1919
 30
0.0
 10
55.8519
 20
35.1919
 30
0.0
 10
55.8519
 20
35.1919
 30
0.0
 10
51.886
 20
35.1919
 30
0.0
 10
51.886
 20
35.1919
 30
0.0
 10
51.886
 20
35.1919
 30
0.0
 10
51.886
 20
35.1919
 30
0.0
 10
51.886
 20
40.7395
 30
0.0
 10
51.886
 20
40.7395
 30
0.0
  0
SPLINE
  5
87
330
1F
100
AcDbEntity
  8
layer 1
 62
     7
100
AcDbSpline
210
0.0
220
0.0
230
1.0
 70
    11
 71
     3
 72
    44
 73
    40
 74
     0
 42
0.0000000001
 43
0.0000000001
 12
1.0
 22
0.0
 32
0.0
 13
1.0
 23
0.0
 33
0.0
 40
0.0
 40
0.0
 40
0.0
 40
0.0
 40
0.0909090909090909
 40
0.0909090909090909
 40
0.0909090909090909
 40
0.0909090909090909
 40
0.1818181818181818
 40
0.1818181818181818
 40
0.1818181818181818
 40
0.1818181818181818
 40
0.2727272727272727
 40
0.2727272727272727
 40
0.2727272727272727
 40
0.2727272727272727
 40
0.3636363636363636
 40
0.3636363636363636
 40
0.3636363636363636
 40
0.3636363636363636
 40
0.4545454545454545
 40
0.4545454545454545
 40
0.4545454545454545
 40
0.4545454545454545
 40
0.5454545454545454
 40
0.5454545454545454
 40
0.5454545454545454
 40
0.5454545454545454
 40
0.6363636363636364
 40
0.6363636363636364
 40
0.6363636363636364
 40
0.6363636363636364
 40
0.7272727272727273
 40
0.7272727272727273
 40
0.7272727272727273
 40
0.7272727272727273
 40
0.8181818181818182
 40
0.8181818181818182
 40
0.8181818181818182
 40
0.8181818181818182
 40
1.0
 40
1.0
 40
1.0
 40
1.0
 10
59.4002
 20
92.6102
 30
0.0
 10
58.2391
 20
92.1699
 30
0.0
 10
57.3478
 20
91.1366
 30
0.0
 10
57.0579
 20
89.8587
 30
0.0
 10
57.0579
 20
89.8587
 30
0.0
 10
57.0579
 20
89.8587
 30
0.0
 10
52.8686
 20
89.8587
 30
0.0
 10
52.8686
 20
89.8587
 30
0.0
 10
52.8686
 20
89.8587
 30
0.0
 10
52.8686
 20
89.8587
 30
0.0
 10
52.8686
 20
95.4063
 30
0.0
 10
52.8686
 20
95.4063
 30
0.0
 10
52.8686
 20
95.4063
 30
0.0
 10
52.8686
 20
95.4063
 30
0.0
 10
55.8519
 20
95.4063
 30
0.0
 10
55.8519
 20
95.4063
 30
0.0
 10
55.8519
 20
95.4063
 30
0.0
 10
55.8519
 20
95.4063
 30
0.0
 10
58.2286
 20
95.244
 30
0.0
 10
56.5643
 20
99.1981
 30
0.0
 10
56.5643
 20
99.1981
 30
0.0
 10
56.5643
 20
99.1981
 30
0.0
 10
56.9265
 20
97.2983
 30
0.0
 10
55.8519
 20
97.2983
 30
0.0
 10
55.8519
 20
97.2983
 30
0.0
 10
55.8519
 20
97.2983
 30
0.0
 10
52.8686
 20
97.2983
 30
0.0
 10
52.8686
 20
97.2983
 30
0.0
 10
52.8686
 20
97.2983
 30
0.0
 10
52.8686
 20
97.2983
 30
0.0
 10
52.8686
 20
102.8099
 30
0.0
 10
52.8686
 20
102.8099
 30
0.0
 10
52.8686
 20
102.8099
 30
0.0
 10
52.8686
 20
102.8099
 30
0.0
 10
59.4002
 20
102.8099
 30
0.0
 10
59.4002
 20
102.8099
 30
0.0
 10
59.4002
 20
102.8099
 30
0.0
 10
59.4002
 20
102.8099
 30
0.0
 10
59.4002
 20
92.6102
 30
0.0
 10
59.4002
 20
92.6102
 30
0.0
  0
SPLINE
  5
88
330
1F
100
AcDbEntity
  8
layer 1
 62
     7
100
AcDbSpline
210
0.0
220
0.0
230
1.0
 70
    11
 71
     3
 72
    56
 73
    52
 74
     0
 42
0.0000000001
 43
0.0000000001
 12
1.0
 22
0.0
 32
0.0
 13
1.0
 23
0.0
 33
0.0
 40
0.0
 40
0.0
 40
0.0
 40
0.0
 40
0.0714285714285714
 40
0.0714285714285714
 40
0.0714285714285714
 40
0.0714285714285714
 40
0.1428571428571428
 40
0.1428571428571428
 40
0.1428571428571428
 40
0.1428571428571428
 40
0.2142857142857143
 40
0.2142857142857143
 40
0.2142857142857143
 40
0.2142857142857143
 40
0.2857142857142857
 40
0.2857142857142857
 40
0.2857142857142857
 40
0.2857142857142857
 40
0.3571428571428572
 40
0.3571428571428572
 40
0.3571428571428572
 40
0.3571428571428572
 40
0.4285714285714285
 40
0.4285714285714285
 40
0.4285714285714285
 40
0.4285714285714285
 40
0.5
 40
0.5
 40
0.5
 40
0.5
 40
0.5714285714285714
 40
0.5714285714285714
 40
0.5714285714285714
 40
0.5714285714285714
 40
0.6428571428571429
 40
0.6428571428571429
 40
0.6428571428571429
 40
0.6428571428571429
 40
0.7142857142857143
 40
0.7142857142857143
 40
0.7142857142857143
 40
0.7142857142857143
 40
0.7857142857142857
 40
0.7857142857142857
 40
0.7857142857142857
 40
0.7857142857142857
 40
0.8571428571428571
 40
0.8571428571428571
 40
0.8571428571428571
 40
0.8571428571428571
 40
1.0
 40
1.0
 40
1.0
 40
1.0
 10
52.8686
 20
88.0527
 30
0.0
 10
52.8686
 20
88.0527
 30
0.0
 10
57.0579
 20
88.0527
 30
0.0
 10
57.0579
 20
88.0527
 30
0.0
 10
57.0579
 20
88.0527
 30
0.0
 10
57.3478
 20
86.7747
 30
0.0
 10
58.2391
 20
85.7414
 30
0.0
 10
59.4002
 20
85.3012
 30
0.0
 10
59.4002
 20
85.3012
 30
0.0
 10
59.4002
 20
85.3012
 30
0.0
 10
59.4002
 20
73.1522
 30
0.0
 10
59.4002
 20
73.1522
 30
0.0
 10
59.4002
 20
73.1522
 30
0.0
 10
59.4002
 20
73.1522
 30
0.0
 10
55.9611
 20
73.1522
 30
0.0
 10
55.9611
 20
73.1522
 30
0.0
 10
55.9611
 20
73.1522
 30
0.0
 10
55.9611
 20
73.1522
 30
0.0
 10
55.2685
 20
73.1522
 30
0.0
 10
55.2685
 20
73.1522
 30
0.0
 10
55.2685
 20
73.1522
 30
0.0
 10
55.2685
 20
73.1522
 30
0.0
 10
54.9124
 20
72.5165
 30
0.0
 10
54.9124
 20
72.5165
 30
0.0
 10
54.9124
 20
72.5165
 30
0.0
 10
54.2911
 20
71.4071
 30
0.0
 10
53.5025
 20
70.9041
 30
0.0
 10
52.8686
 20
70.6785
 30
0.0
 10
52.8686
 20
70.6785
 30
0.0
 10
52.8686
 20
70.6785
 30
0.0
 10
52.8686
 20
80.613
 30
0.0
 10
52.8686
 20
80.613
 30
0.0
 10
52.8686
 20
80.613
 30
0.0
 10
52.8686
 20
80.613
 30
0.0
 10
55.8519
 20
80.613
 30
0.0
 10
55.8519
 20
80.613
 30
0.0
 10
55.8519
 20
80.613
 30
0.0
 10
56.9265
 20
80.613
 30
0.0
 10
56.5643
 20
78.7132
 30
0.0
 10
56.5643
 20
78.7132
 30
0.0
 10
56.5643
 20
78.7132
 30
0.0
 10
58.2286
 20
82.6674
 30
0.0
 10
55.8519
 20
82.505
 30
0.0
 10
55.8519
 20
82.505
 30
0.0
 10
55.8519
 20
82.505
 30
0.0
 10
55.8519
 20
82.505
 30
0.0
 10
52.8686
 20
82.505
 30
0.0
 10
52.8686
 20
82.505
 30
0.0
 10
52.8686
 20
82.505
 30
0.0
 10
52.8686
 20
82.505
 30
0.0
 10
52.8686
 20
88.0527
 30
0.0
 10
52.8686
 20
88.0527
 30
0.0
  0
SPLINE
  5
89
330
1F
100
AcDbEntity
  8
layer 1
 62
     7
100
AcDbSpline
210
0.0
220
0.0
230
1.0
 70
    11
 71
     3
 72
    36
 73
    32
 74
     0
 42
0.0000000001
 43
0.0000000001
 12
1.0
 22
0.0
 32
0.0
 13
1.0
 23
0.0
 33
0.0
 40
0.0
 40
0.0
 40
0.0
 40
0.0
 40
0.1111111111111111
 40
0.1111111111111111
 40
0.1111111111111111
 40
0.1111111111111111
 40
0.2222222222222222
 40
0.2222222222222222
 40
0.2222222222222222
 40
0.2222222222222222
 40
0.3333333333333333
 40
0.3333333333333333
 40
0.3333333333333333
 40
0.3333333333333333
 40
0.4444444444444444
 40
0.4444444444444444
 40
0.4444444444444444
 40
0.4444444444444444
 40
0.5555555555555556
 40
0.5555555555555556
 40
0.5555555555555556
 40
0.5555555555555556
 40
0.6666666666666666
 40
0.6666666666666666
 40
0.6666666666666666
 40
0.6666666666666666
 40
0.7777777777777778
 40
0.7777777777777778
 40
0.7777777777777778
 40
0.7777777777777778
 40
1.0
 40
1.0
 40
1.0
 40
1.0
 10
59.1895
 20
59.7231
 30
0.0
 10
59.1895
 20
59.7231
 30
0.0
 10
57.1219
 20
59.7231
 30
0.0
 10
57.1219
 20
59.7231
 30
0.0
 10
57.1219
 20
59.7231
 30
0.0
 10
55.5898
 20
62.0912
 30
0.0
 10
53.2033
 20
62.576
 30
0.0
 10
51.886
 20
62.6512
 30
0.0
 10
51.886
 20
62.6512
 30
0.0
 10
51.886
 20
62.6512
 30
0.0
 10
51.886
 20
67.2842
 30
0.0
 10
51.886
 20
67.2842
 30
0.0
 10
51.886
 20
67.2842
 30
0.0
 10
51.886
 20
67.2842
 30
0.0
 10
51.886
 20
67.952
 30
0.0
 10
51.886
 20
67.952
 30
0.0
 10
51.886
 20
67.952
 30
0.0
 10
52.7332
 20
67.9654
 30
0.0
 10
54.9773
 20
68.2378
 30
0.0
 10
56.6127
 20
70.5893
 30
0.0
 10
56.6127
 20
70.5893
 30
0.0
 10
56.6127
 20
70.5893
 30
0.0
 10
59.1895
 20
70.5893
 30
0.0
 10
59.1895
 20
70.5893
 30
0.0
 10
59.1895
 20
70.5893
 30
0.0
 10
56.9335
 20
69.9189
 30
0.0
 10
55.2798
 20
67.7399
 30
0.0
 10
55.2798
 20
65.1562
 30
0.0
 10
55.2798
 20
65.1562
 30
0.0
 10
55.2798
 20
62.5725
 30
0.0
 10
56.9335
 20
60.3935
 30
0.0
 10
59.1895
 20
59.7231
 30
0.0
  0
SPLINE
  5
8A
330
1F
100
AcDbEntity
  8
layer 1
 62
     7
100
AcDbSpline
210
0.0
220
0.0
230
1.0
 70
    11
 71
     3
 72
    32
 73
    28
 74
     0
 42
0.0000000001
 43
0.0000000001
 12
1.0
 22
0.0
 32
0.0
 13
1.0
 23
0.0
 33
0.0
 40
0.0
 40
0.0
 40
0.0
 40
0.0
 40
0.125
 40
0.125
 40
0.125
 40
0.125
 40
0.25
 40
0.25
 40
0.25
 40
0.25
 40
0.375
 40
0.375
 40
0.375
 40
0.375
 40
0.5
 40
0.5
 40
0.5
 40
0.5
 40
0.625
 40
0.625
 40
0.625
 40
0.625
 40
0.75
 40
0.75
 40
0.75
 40
0.75
 40
1.0
 40
1.0
 40
1.0
 40
1.0
 10
25.6638
 20
100.8606
 30
0.0
 10
25.6638
 20
100.8606
 30
0.0
 10
39.1828
 20
100.8606
 30
0.0
 10
39.1828
 20
100.8606
 30
0.0
 10
39.1828
 20
100.8606
 30
0.0
 10
39.1828
 20
100.8606
 30
0.0
 10
39.1828
 20
93.5617
 30
0.0
 10
39.1828
 20
93.5617
 30
0.0
 10
39.1828
 20
93.5617
 30
0.0
 10
37.3203
 20
92.8328
 30
0.0
 10
34.7851
 20
91.6969
 30
0.0
 10
33.361
 20
89.9876
 30
0.0
 10
33.361
 20
89.9876
 30
0.0
 10
33.361
 20
89.9876
 30
0.0
 10
32.5421
 20
92.3956
 30
0.0
 10
32.6513
 20
94.1729
 30
0.0
 10
32.6513
 20
94.1729
 30
0.0
 10
32.6513
 20
94.1729
 30
0.0
 10
31.6483
 20
93.4694
 30
0.0
 10
31.6374
 20
91.5557
 30
0.0
 10
31.6374
 20
91.5557
 30
0.0
 10
31.6374
 20
91.5557
 30
0.0
 10
25.6638
 20
91.5557
 30
0.0
 10
25.6638
 20
91.5557
 30
0.0
 10
25.6638
 20
91.5557
 30
0.0
 10
25.6638
 20
91.5557
 30
0.0
 10
25.6638
 20
100.8606
 30
0.0
 10
25.6638
 20
100.8606
 30
0.0
  0
SPLINE
  5
8B
330
1F
100
AcDbEntity
  8
layer 1
 62
     7
100
AcDbSpline
210
0.0
220
0.0
230
1.0
 70
    11
 71
     3
 72
    24
 73
    20
 74
     0
 42
0.0000000001
 43
0.0000000001
 12
1.0
 22
0.0
 32
0.0
 13
1.0
 23
0.0
 33
0.0
 40
0.0
 40
0.0
 40
0.0
 40
0.0
 40
0.1666666666666667
 40
0.1666666666666667
 40
0.1666666666666667
 40
0.1666666666666667
 40
0.3333333333333333
 40
0.3333333333333333
 40
0.3333333333333333
 40
0.3333333333333333
 40
0.5
 40
0.5
 40
0.5
 40
0.5
 40
0.6666666666666666
 40
0.6666666666666666
 40
0.6666666666666666
 40
0.6666666666666666
 40
1.0
 40
1.0
 40
1.0
 40
1.0
 10
50.4283
 20
121.0616
 30
0.0
 10
50.4283
 20
121.0616
 30
0.0
 10
50.4283
 20
116.1968
 30
0.0
 10
50.4283
 20
116.1968
 30
0.0
 10
50.4283
 20
116.1968
 30
0.0
 10
49.5295
 20
116.0453
 30
0.0
 10
48.2919
 20
115.3776
 30
0.0
 10
47.3905
 20
113.0924
 30
0.0
 10
47.3905
 20
113.0924
 30
0.0
 10
47.3905
 20
113.0924
 30
0.0
 10
45.983
 20
115.7789
 30
0.0
 10
43.2062
 20
116.0075
 30
0.0
 10
43.2062
 20
116.0075
 30
0.0
 10
43.2062
 20
116.0075
 30
0.0
 10
43.2062
 20
121.0616
 30
0.0
 10
43.2062
 20
121.0616
 30
0.0
 10
43.2062
 20
121.0616
 30
0.0
 10
43.2062
 20
121.0616
 30
0.0
 10
50.4283
 20
121.0616
 30
0.0
 10
50.4283
 20
121.0616
 30
0.0
  0
SPLINE
  5
8C
330
1F
100
AcDbEntity
  8
layer 1
 62
     7
100
AcDbSpline
210
0.0
220
0.0
230
1.0
 70
    11
 71
     3
 72
    16
 73
    12
 74
     0
 42
0.0000000001
 43
0.0000000001
 12
1.0
 22
0.0
 32
0.0
 13
1.0
 23
0.0
 33
0.0
 40
0.0
 40
0.0
 40
0.0
 40
0.0
 40
0.25
 40
0.25
 40
0.25
 40
0.25
 40
0.5
 40
0.5
 40
0.5
 40
0.5
 40
1.0
 40
1.0
 40
1.0
 40
1.0
 10
72.1193
 20
109.7385
 30
0.0
 10
72.1193
 20
109.7385
 30
0.0
 10
71.628
 20
111.9458
 30
0.0
 10
70.2906
 20
112.8917
 30
0.0
 10
70.2906
 20
112.8917
 30
0.0
 10
70.2906
 20
112.8917
 30
0.0
 10
71.4906
 20
114.0758
 30
0.0
 10
73.4294
 20
112.6911
 30
0.0
 10
73.4294
 20
112.6911
 30
0.0
 10
73.4294
 20
112.6911
 30
0.0
 10
72.3922
 20
111.5444
 30
0.0
 10
72.1193
 20
109.7385
 30
0.0
  0
SPLINE
  5
8D
330
1F
100
AcDbEntity
  8
layer 1
 62
     7
100
AcDbSpline
210
0.0
220
0.0
230
1.0
 70
    11
 71
     3
 72
    20
 73
    16
 74
     0
 42
0.0000000001
 43
0.0000000001
 12
1.0
 22
0.0
 32
0.0
 13
1.0
 23
0.0
 33
0.0
 40
0.0
 40
0.0
 40
0.0
 40
0.0
 40
0.2
 40
0.2
 40
0.2
 40
0.2
 40
0.4
 40
0.4
 40
0.4
 40
0.4
 40
0.6
 40
0.6
 40
0.6
 40
0.6
 40
1.0
 40
1.0
 40
1.0
 40
1.0
 10
71.8656
 20
42.3701
 30
0.0
 10
73.0359
 20
43.5457
 30
0.0
 10
75.0769
 20
45.9896
 30
0.0
 10
75.613
 20
49.1674
 30
0.0
 10
75.613
 20
49.1674
 30
0.0
 10
76.3773
 20
53.6966
 30
0.0
 10
73.6479
 20
57.0505
 30
0.0
 10
72.6379
 20
58.7418
 30
0.0
 10
72.6379
 20
58.7418
 30
0.0
 10
72.3247
 20
59.2664
 30
0.0
 10
72.0247
 20
59.8572
 30
0.0
 10
71.8656
 20
60.4638
 30
0.0
 10
71.8656
 20
60.4638
 30
0.0
 10
71.8656
 20
60.4638
 30
0.0
 10
71.8656
 20
42.3701
 30
0.0
 10
71.8656
 20
42.3701
 30
0.0
  0
SPLINE
  5
8E
330
1F
100
AcDbEntity
  8
layer 1
 62
     7
100
AcDbSpline
210
0.0
220
0.0
230
1.0
 70
    11
 71
     3
 72
    20
 73
    16
 74
     0
 42
0.0000000001
 43
0.0000000001
 12
1.0
 22
0.0
 32
0.0
 13
1.0
 23
0.0
 33
0.0
 40
0.0
 40
0.0
 40
0.0
 40
0.0
 40
0.2
 40
0.2
 40
0.2
 40
0.2
 40
0.4
 40
0.4
 40
0.4
 40
0.4
 40
0.6
 40
0.6
 40
0.6
 40
0.6
 40
1.0
 40
1.0
 40
1.0
 40
1.0
 10
72.743
 20
9.8377
 30
0.0
 10
74.2053
 20
11.2594
 30
0.0
 10
76.4624
 20
14.0075
 30
0.0
 10
77.6874
 20
17.4628
 30
0.0
 10
77.6874
 20
17.4628
 30
0.0
 10
79.338
 20
22.1184
 30
0.0
 10
73.7377
 20
31.3082
 30
0.0
 10
71.8656
 20
35.2026
 30
0.0
 10
71.8656
 20
35.2026
 30
0.0
 10
71.8656
 20
35.2026
 30
0.0
 10
71.8656
 20
9.8377
 30
0.0
 10
71.8656
 20
9.8377
 30
0.0
 10
71.8656
 20
9.8377
 30
0.0
 10
71.8656
 20
9.8377
 30
0.0
 10
72.743
 20
9.8377
 30
0.0
 10
72.743
 20
9.8377
 30
0.0
  0
SPLINE
  5
8F
330
1F
100
AcDbEntity
  8
layer 1
 62
     7
100
AcDbSpline
210
0.0
220
0.0
230
1.0
 70
    11
 71
     3
 72
    24
 73
    20
 74
     0
 42
0.0000000001
 43
0.0000000001
 12
1.0
 22
0.0
 32
0.0
 13
1.0
 23
0.0
 33
0.0
 40
0.0
 40
0.0
 40
0.0
 40
0.0
 40
0.1666666666666667
 40
0.1666666666666667
 40
0.1666666666666667
 40
0.1666666666666667
 40
0.3333333333333333
 40
0.3333333333333333
 40
0.3333333333333333
 40
0.3333333333333333
 40
0.5
 40
0.5
 40
0.5
 40
0.5
 40
0.6666666666666666
 40
0.6666666666666666
 40
0.6666666666666666
 40
0.6666666666666666
 40
1.0
 40
1.0
 40
1.0
 40
1.0
 10
73.695
 20
102.8099
 30
0.0
 10
74.6472
 20
100.4915
 30
0.0
 10
77.8799
 20
96.3253
 30
0.0
 10
79.6881
 20
94.7532
 30
0.0
 10
79.6881
 20
94.7532
 30
0.0
 10
79.6881
 20
94.7532
 30
0.0
 10
79.6881
 20
102.142
 30
0.0
 10
79.6881
 20
102.142
 30
0.0
 10
79.6881
 20
102.142
 30
0.0
 10
79.6881
 20
102.142
 30
0.0
 10
79.6881
 20
102.8099
 30
0.0
 10
79.6881
 20
102.8099
 30
0.0
 10
79.6881
 20
102.8099
 30
0.0
 10
79.6881
 20
102.8099
 30
0.0
 10
79.3252
 20
102.8099
 30
0.0
 10
79.3252
 20
102.8099
 30
0.0
 10
79.3252
 20
102.8099
 30
0.0
 10
79.3252
 20
102.8099
 30
0.0
 10
73.695
 20
102.8099
 30
0.0
 10
73.695
 20
102.8099
 30
0.0
  0
SPLINE
  5
90
330
1F
100
AcDbEntity
  8
layer 1
 62
     7
100
AcDbSpline
210
0.0
220
0.0
230
1.0
 70
    11
 71
     3
 72
    20
 73
    16
 74
     0
 42
0.0000000001
 43
0.0000000001
 12
1.0
 22
0.0
 32
0.0
 13
1.0
 23
0.0
 33
0.0
 40
0.0
 40
0.0
 40
0.0
 40
0.0
 40
0.2
 40
0.2
 40
0.2
 40
0.2
 40
0.4
 40
0.4
 40
0.4
 40
0.4
 40
0.6
 40
0.6
 40
0.6
 40
0.6
 40
1.0
 40
1.0
 40
1.0
 40
1.0
 10
78.105
 20
113.569
 30
0.0
 10
77.629
 20
113.3884
 30
0.0
 10
77.1049
 20
113.0872
 30
0.0
 10
76.541
 20
112.6337
 30
0.0
 10
76.541
 20
112.6337
 30
0.0
 10
74.4784
 20
110.9745
 30
0.0
 10
73.8624
 20
107.6111
 30
0.0
 10
73.5866
 20
105.3727
 30
0.0
 10
73.5866
 20
105.3727
 30
0.0
 10
73.5866
 20
105.3727
 30
0.0
 10
78.105
 20
105.3727
 30
0.0
 10
78.105
 20
105.3727
 30
0.0
 10
78.105
 20
105.3727
 30
0.0
 10
78.105
 20
105.3727
 30
0.0
 10
78.105
 20
113.569
 30
0.0
 10
78.105
 20
113.569
 30
0.0
  0
SPLINE
  5
91
330
1F
100
AcDbEntity
  8
layer 1
 62
     7
100
AcDbSpline
210
0.0
220
0.0
230
1.0
 70
    11
 71
     3
 72
    24
 73
    20
 74
     0
 42
0.0000000001
 43
0.0000000001
 12
1.0
 22
0.0
 32
0.0
 13
1.0
 23
0.0
 33
0.0
 40
0.0
 40
0.0
 40
0.0
 40
0.0
 40
0.1666666666666667
 40
0.1666666666666667
 40
0.1666666666666667
 40
0.1666666666666667
 40
0.3333333333333333
 40
0.3333333333333333
 40
0.3333333333333333
 40
0.3333333333333333
 40
0.5
 40
0.5
 40
0.5
 40
0.5
 40
0.6666666666666666
 40
0.6666666666666666
 40
0.6666666666666666
 40
0.6666666666666666
 40
1.0
 40
1.0
 40
1.0
 40
1.0
 10
70.8821
 20
105.3727
 30
0.0
 10
68.8406
 20
112.2265
 30
0.0
 10
68.0237
 20
112.5685
 30
0.0
 10
65.7869
 20
112.4617
 30
0.0
 10
65.7869
 20
112.4617
 30
0.0
 10
63.3849
 20
112.3471
 30
0.0
 10
64.8043
 20
109.4232
 30
0.0
 10
65.1318
 20
108.1619
 30
0.0
 10
65.1318
 20
108.1619
 30
0.0
 10
65.4593
 20
106.9005
 30
0.0
 10
62.3477
 20
107.1299
 30
0.0
 10
61.911
 20
109.9391
 30
0.0
 10
61.911
 20
109.9391
 30
0.0
 10
61.911
 20
109.9391
 30
0.0
 10
61.911
 20
105.3727
 30
0.0
 10
61.911
 20
105.3727
 30
0.0
 10
61.911
 20
105.3727
 30
0.0
 10
61.911
 20
105.3727
 30
0.0
 10
70.8821
 20
105.3727
 30
0.0
 10
70.8821
 20
105.3727
 30
0.0
  0
SPLINE
  5
92
330
1F
100
AcDbEntity
  8
layer 1
 62
     7
100
AcDbSpline
210
0.0
220
0.0
230
1.0
 70
    11
 71
     3
 72
    24
 73
    20
 74
     0
 42
0.0000000001
 43
0.0000000001
 12
1.0
 22
0.0
 32
0.0
 13
1.0
 23
0.0
 33
0.0
 40
0.0
 40
0.0
 40
0.0
 40
0.0
 40
0.1666666666666667
 40
0.1666666666666667
 40
0.1666666666666667
 40
0.1666666666666667
 40
0.3333333333333333
 40
0.3333333333333333
 40
0.3333333333333333
 40
0.3333333333333333
 40
0.5
 40
0.5
 40
0.5
 40
0.5
 40
0.6666666666666666
 40
0.6666666666666666
 40
0.6666666666666666
 40
0.6666666666666666
 40
1.0
 40
1.0
 40
1.0
 40
1.0
 10
70.8829
 20
83.5108
 30
0.0
 10
71.0924
 20
84.7045
 30
0.0
 10
71.4373
 20
85.7968
 30
0.0
 10
71.9009
 20
86.6624
 30
0.0
 10
71.9009
 20
86.6624
 30
0.0
 10
73.8662
 20
90.3317
 30
0.0
 10
78.8339
 20
92.4529
 30
0.0
 10
78.8339
 20
92.4529
 30
0.0
 10
78.8339
 20
92.4529
 30
0.0
 10
78.8339
 20
92.4529
 30
0.0
 10
74.1366
 20
95.1064
 30
0.0
 10
71.6409
 20
102.8099
 30
0.0
 10
71.6409
 20
102.8099
 30
0.0
 10
71.6409
 20
102.8099
 30
0.0
 10
70.8829
 20
102.8099
 30
0.0
 10
70.8829
 20
102.8099
 30
0.0
 10
70.8829
 20
102.8099
 30
0.0
 10
70.8829
 20
102.8099
 30
0.0
 10
70.8829
 20
83.5108
 30
0.0
 10
70.8829
 20
83.5108
 30
0.0
  0
SPLINE
  5
93
330
1F
100
AcDbEntity
  8
layer 1
 62
     7
100
AcDbSpline
210
0.0
220
0.0
230
1.0
 70
    11
 71
     3
 72
    28
 73
    24
 74
     0
 42
0.0000000001
 43
0.0000000001
 12
1.0
 22
0.0
 32
0.0
 13
1.0
 23
0.0
 33
0.0
 40
0.0
 40
0.0
 40
0.0
 40
0.0
 40
0.1428571428571428
 40
0.1428571428571428
 40
0.1428571428571428
 40
0.1428571428571428
 40
0.2857142857142857
 40
0.2857142857142857
 40
0.2857142857142857
 40
0.2857142857142857
 40
0.4285714285714285
 40
0.4285714285714285
 40
0.4285714285714285
 40
0.4285714285714285
 40
0.5714285714285714
 40
0.5714285714285714
 40
0.5714285714285714
 40
0.5714285714285714
 40
0.7142857142857143
 40
0.7142857142857143
 40
0.7142857142857143
 40
0.7142857142857143
 40
1.0
 40
1.0
 40
1.0
 40
1.0
 10
79.6881
 20
73.5717
 30
0.0
 10
78.4508
 20
72.1215
 30
0.0
 10
76.1526
 20
71.4006
 30
0.0
 10
73.7024
 20
72.9601
 30
0.0
 10
73.7024
 20
72.9601
 30
0.0
 10
72.1856
 20
73.9256
 30
0.0
 10
71.2784
 20
75.8565
 30
0.0
 10
70.8829
 20
78.0426
 30
0.0
 10
70.8829
 20
78.0426
 30
0.0
 10
70.8829
 20
78.0426
 30
0.0
 10
70.8829
 20
69.2335
 30
0.0
 10
70.8829
 20
69.2335
 30
0.0
 10
70.8829
 20
69.2335
 30
0.0
 10
70.8829
 20
69.2335
 30
0.0
 10
70.8829
 20
68.5656
 30
0.0
 10
70.8829
 20
68.5656
 30
0.0
 10
70.8829
 20
68.5656
 30
0.0
 10
70.8829
 20
68.5656
 30
0.0
 10
79.6881
 20
68.5656
 30
0.0
 10
79.6881
 20
68.5656
 30
0.0
 10
79.6881
 20
68.5656
 30
0.0
 10
79.6881
 20
68.5656
 30
0.0
 10
79.6881
 20
73.5717
 30
0.0
 10
79.6881
 20
73.5717
 30
0.0
  0
SPLINE
  5
94
330
1F
100
AcDbEntity
  8
layer 1
 62
     7
100
AcDbSpline
210
0.0
220
0.0
230
1.0
 70
    11
 71
     3
 72
    24
 73
    20
 74
     0
 42
0.0000000001
 43
0.0000000001
 12
1.0
 22
0.0
 32
0.0
 13
1.0
 23
0.0
 33
0.0
 40
0.0
 40
0.0
 40
0.0
 40
0.0
 40
0.1666666666666667
 40
0.1666666666666667
 40
0.1666666666666667
 40
0.1666666666666667
 40
0.3333333333333333
 40
0.3333333333333333
 40
0.3333333333333333
 40
0.3333333333333333
 40
0.5
 40
0.5
 40
0.5
 40
0.5
 40
0.6666666666666666
 40
0.6666666666666666
 40
0.6666666666666666
 40
0.6666666666666666
 40
1.0
 40
1.0
 40
1.0
 40
1.0
 10
79.6881
 20
90.4238
 30
0.0
 10
74.9233
 20
89.4422
 30
0.0
 10
71.7479
 20
83.3884
 30
0.0
 10
72.5014
 20
78.6933
 30
0.0
 10
72.5014
 20
78.6933
 30
0.0
 10
73.3203
 20
73.5907
 30
0.0
 10
76.4865
 20
73.3614
 30
0.0
 10
77.3053
 20
74.9667
 30
0.0
 10
77.3053
 20
74.9667
 30
0.0
 10
78.1241
 20
76.572
 30
0.0
 10
76.541
 20
78.4066
 30
0.0
 10
77.6328
 20
79.0372
 30
0.0
 10
77.6328
 20
79.0372
 30
0.0
 10
78.2158
 20
79.374
 30
0.0
 10
79.0475
 20
79.2203
 30
0.0
 10
79.6881
 20
78.6026
 30
0.0
 10
79.6881
 20
78.6026
 30
0.0
 10
79.6881
 20
78.6026
 30
0.0
 10
79.6881
 20
90.4238
 30
0.0
 10
79.6881
 20
90.4238
 30
0.0
  0
SPLINE
  5
95
330
1F
100
AcDbEntity
  8
layer 1
 62
     7
100
AcDbSpline
210
0.0
220
0.0
230
1.0
 70
    11
 71
     3
 72
    16
 73
    12
 74
     0
 42
0.0000000001
 43
0.0000000001
 12
1.0
 22
0.0
 32
0.0
 13
1.0
 23
0.0
 33
0.0
 40
0.0
 40
0.0
 40
0.0
 40
0.0
 40
0.25
 40
0.25
 40
0.25
 40
0.25
 40
0.5
 40
0.5
 40
0.5
 40
0.5
 40
1.0
 40
1.0
 40
1.0
 40
1.0
 10
82.1284
 20
82.2463
 30
0.0
 10
83.4415
 20
84.4816
 30
0.0
 10
86.6274
 20
85.5985
 30
0.0
 10
89.7517
 20
82.8785
 30
0.0
 10
89.7517
 20
82.8785
 30
0.0
 10
89.7517
 20
82.8785
 30
0.0
 10
86.8919
 20
89.5239
 30
0.0
 10
82.1284
 20
90.4529
 30
0.0
 10
82.1284
 20
90.4529
 30
0.0
 10
82.1284
 20
90.4529
 30
0.0
 10
82.1284
 20
82.2463
 30
0.0
 10
82.1284
 20
82.2463
 30
0.0
  0
SPLINE
  5
96
330
1F
100
AcDbEntity
  8
layer 1
 62
     7
100
AcDbSpline
210
0.0
220
0.0
230
1.0
 70
    11
 71
     3
 72
    24
 73
    20
 74
     0
 42
0.0000000001
 43
0.0000000001
 12
1.0
 22
0.0
 32
0.0
 13
1.0
 23
0.0
 33
0.0
 40
0.0
 40
0.0
 40
0.0
 40
0.0
 40
0.1666666666666667
 40
0.1666666666666667
 40
0.1666666666666667
 40
0.1666666666666667
 40
0.3333333333333333
 40
0.3333333333333333
 40
0.3333333333333333
 40
0.3333333333333333
 40
0.5
 40
0.5
 40
0.5
 40
0.5
 40
0.6666666666666666
 40
0.6666666666666666
 40
0.6666666666666666
 40
0.6666666666666666
 40
1.0
 40
1.0
 40
1.0
 40
1.0
 10
91.3156
 20
68.5656
 30
0.0
 10
92.1568
 20
76.4131
 30
0.0
 10
87.5022
 20
82.0125
 30
0.0
 10
85.9851
 20
81.2159
 30
0.0
 10
85.9851
 20
81.2159
 30
0.0
 10
84.3474
 20
80.3559
 30
0.0
 10
85.8213
 20
78.8652
 30
0.0
 10
85.6029
 20
77.4893
 30
0.0
 10
85.6029
 20
77.4893
 30
0.0
 10
85.4363
 20
76.4391
 30
0.0
 10
83.2345
 20
76.2575
 30
0.0
 10
82.1284
 20
77.8108
 30
0.0
 10
82.1284
 20
77.8108
 30
0.0
 10
82.1284
 20
77.8108
 30
0.0
 10
82.1284
 20
68.5656
 30
0.0
 10
82.1284
 20
68.5656
 30
0.0
 10
82.1284
 20
68.5656
 30
0.0
 10
82.1284
 20
68.5656
 30
0.0
 10
91.3156
 20
68.5656
 30
0.0
 10
91.3156
 20
68.5656
 30
0.0
  0
SPLINE
  5
97
330
1F
100
AcDbEntity
  8
layer 1
 62
     7
100
AcDbSpline
210
0.0
220
0.0
230
1.0
 70
    11
 71
     3
 72
    48
 73
    44
 74
     0
 42
0.0000000001
 43
0.0000000001
 12
1.0
 22
0.0
 32
0.0
 13
1.0
 23
0.0
 33
0.0
 40
0.0
 40
0.0
 40
0.0
 40
0.0
 40
0.0833333333333333
 40
0.0833333333333333
 40
0.0833333333333333
 40
0.0833333333333333
 40
0.1666666666666667
 40
0.1666666666666667
 40
0.1666666666666667
 40
0.1666666666666667
 40
0.25
 40
0.25
 40
0.25
 40
0.25
 40
0.3333333333333333
 40
0.3333333333333333
 40
0.3333333333333333
 40
0.3333333333333333
 40
0.4166666666666667
 40
0.4166666666666667
 40
0.4166666666666667
 40
0.4166666666666667
 40
0.5
 40
0.5
 40
0.5
 40
0.5
 40
0.5833333333333334
 40
0.5833333333333334
 40
0.5833333333333334
 40
0.5833333333333334
 40
0.6666666666666666
 40
0.6666666666666666
 40
0.6666666666666666
 40
0.6666666666666666
 40
0.75
 40
0.75
 40
0.75
 40
0.75
 40
0.8333333333333334
 40
0.8333333333333334
 40
0.8333333333333334
 40
0.8333333333333334
 40
1.0
 40
1.0
 40
1.0
 40
1.0
 10
86.4342
 20
57.214
 30
0.0
 10
88.3104
 20
59.829
 30
0.0
 10
90.0414
 20
62.8781
 30
0.0
 10
90.8512
 20
66.0028
 30
0.0
 10
90.8512
 20
66.0028
 30
0.0
 10
90.8512
 20
66.0028
 30
0.0
 10
71.8656
 20
66.0028
 30
0.0
 10
71.8656
 20
66.0028
 30
0.0
 10
71.8656
 20
66.0028
 30
0.0
 10
71.8656
 20
66.0028
 30
0.0
 10
71.8656
 20
62.0823
 30
0.0
 10
71.8656
 20
62.0823
 30
0.0
 10
71.8656
 20
62.0823
 30
0.0
 10
72.1225
 20
62.8763
 30
0.0
 10
72.8332
 20
63.6184
 30
0.0
 10
74.3029
 20
64.1883
 30
0.0
 10
74.3029
 20
64.1883
 30
0.0
 10
74.3029
 20
64.1883
 30
0.0
 10
73.4567
 20
61.7517
 30
0.0
 10
74.4121
 20
59.5157
 30
0.0
 10
74.4121
 20
59.5157
 30
0.0
 10
75.3674
 20
57.2798
 30
0.0
 10
77.1689
 20
58.0825
 30
0.0
 10
77.1689
 20
56.2766
 30
0.0
 10
77.1689
 20
56.2766
 30
0.0
 10
77.1689
 20
54.6937
 30
0.0
 10
77.2109
 20
53.9475
 30
0.0
 10
78.2688
 20
51.9923
 30
0.0
 10
78.2688
 20
51.9923
 30
0.0
 10
78.2688
 20
51.9923
 30
0.0
 10
78.2688
 20
55.9325
 30
0.0
 10
78.2688
 20
55.9325
 30
0.0
 10
78.2688
 20
55.9325
 30
0.0
 10
78.2688
 20
55.9325
 30
0.0
 10
78.2688
 20
57.214
 30
0.0
 10
78.2688
 20
57.214
 30
0.0
 10
78.2688
 20
57.214
 30
0.0
 10
78.2688
 20
57.214
 30
0.0
 10
79.4889
 20
57.214
 30
0.0
 10
79.4889
 20
57.214
 30
0.0
 10
79.4889
 20
57.214
 30
0.0
 10
79.4889
 20
57.214
 30
0.0
 10
86.4342
 20
57.214
 30
0.0
 10
86.4342
 20
57.214
 30
0.0
  0
SPLINE
  5
98
330
1F
100
AcDbEntity
  8
layer 1
 62
     7
100
AcDbSpline
210
0.0
220
0.0
230
1.0
 70
    11
 71
     3
 72
    16
 73
    12
 74
     0
 42
0.0000000001
 43
0.0000000001
 12
1.0
 22
0.0
 32
0.0
 13
1.0
 23
0.0
 33
0.0
 40
0.0
 40
0.0
 40
0.0
 40
0.0
 40
0.25
 40
0.25
 40
0.25
 40
0.25
 40
0.5
 40
0.5
 40
0.5
 40
0.5
 40
1.0
 40
1.0
 40
1.0
 40
1.0
 10
80.7091
 20
50.5909
 30
0.0
 10
81.6507
 20
51.5111
 30
0.0
 10
83.0135
 20
52.9173
 30
0.0
 10
84.4518
 20
54.6511
 30
0.0
 10
84.4518
 20
54.6511
 30
0.0
 10
84.4518
 20
54.6511
 30
0.0
 10
80.7091
 20
54.6511
 30
0.0
 10
80.7091
 20
54.6511
 30
0.0
 10
80.7091
 20
54.6511
 30
0.0
 10
80.7091
 20
54.6511
 30
0.0
 10
80.7091
 20
50.5909
 30
0.0
 10
80.7091
 20
50.5909
 30
0.0
  0
SPLINE
  5
99
330
1F
100
AcDbEntity
  8
layer 1
 62
     7
100
AcDbSpline
210
0.0
220
0.0
230
1.0
 70
    11
 71
     3
 72
    16
 73
    12
 74
     0
 42
0.0000000001
 43
0.0000000001
 12
1.0
 22
0.0
 32
0.0
 13
1.0
 23
0.0
 33
0.0
 40
0.0
 40
0.0
 40
0.0
 40
0.0
 40
0.25
 40
0.25
 40
0.25
 40
0.25
 40
0.5
 40
0.5
 40
0.5
 40
0.5
 40
1.0
 40
1.0
 40
1.0
 40
1.0
 10
91.2538
 20
38.4091
 30
0.0
 10
91.3008
 20
44.1194
 30
0.0
 10
86.9144
 20
50.1359
 30
0.0
 10
80.7091
 20
47.8487
 30
0.0
 10
80.7091
 20
47.8487
 30
0.0
 10
80.7091
 20
47.8487
 30
0.0
 10
80.7091
 20
38.4091
 30
0.0
 10
80.7091
 20
38.4091
 30
0.0
 10
80.7091
 20
38.4091
 30
0.0
 10
80.7091
 20
38.4091
 30
0.0
 10
91.2538
 20
38.4091
 30
0.0
 10
91.2538
 20
38.4091
 30
0.0
  0
SPLINE
  5
9A
330
1F
100
AcDbEntity
  8
layer 1
 62
     7
100
AcDbSpline
210
0.0
220
0.0
230
1.0
 70
    11
 71
     3
 72
    16
 73
    12
 74
     0
 42
0.0000000001
 43
0.0000000001
 12
1.0
 22
0.0
 32
0.0
 13
1.0
 23
0.0
 33
0.0
 40
0.0
 40
0.0
 40
0.0
 40
0.0
 40
0.25
 40
0.25
 40
0.25
 40
0.25
 40
0.5
 40
0.5
 40
0.5
 40
0.5
 40
1.0
 40
1.0
 40
1.0
 40
1.0
 10
86.168
 20
30.4541
 30
0.0
 10
88.0785
 20
30.8463
 30
0.0
 10
90.1812
 20
32.363
 30
0.0
 10
90.9582
 20
35.8462
 30
0.0
 10
90.9582
 20
35.8462
 30
0.0
 10
90.9582
 20
35.8462
 30
0.0
 10
86.168
 20
35.8462
 30
0.0
 10
86.168
 20
35.8462
 30
0.0
 10
86.168
 20
35.8462
 30
0.0
 10
86.168
 20
35.8462
 30
0.0
 10
86.168
 20
30.4541
 30
0.0
 10
86.168
 20
30.4541
 30
0.0
  0
SPLINE
  5
9B
330
1F
100
AcDbEntity
  8
layer 1
 62
     7
100
AcDbSpline
210
0.0
220
0.0
230
1.0
 70
    11
 71
     3
 72
    76
 73
    72
 74
     0
 42
0.0000000001
 43
0.0000000001
 12
1.0
 22
0.0
 32
0.0
 13
1.0
 23
0.0
 33
0.0
 40
0.0
 40
0.0
 40
0.0
 40
0.0
 40
0.0526315789473684
 40
0.0526315789473684
 40
0.0526315789473684
 40
0.0526315789473684
 40
0.1052631578947368
 40
0.1052631578947368
 40
0.1052631578947368
 40
0.1052631578947368
 40
0.1578947368421053
 40
0.1578947368421053
 40
0.1578947368421053
 40
0.1578947368421053
 40
0.2105263157894737
 40
0.2105263157894737
 40
0.2105263157894737
 40
0.2105263157894737
 40
0.2631578947368421
 40
0.2631578947368421
 40
0.2631578947368421
 40
0.2631578947368421
 40
0.3157894736842105
 40
0.3157894736842105
 40
0.3157894736842105
 40
0.3157894736842105
 40
0.3684210526315789
 40
0.3684210526315789
 40
0.3684210526315789
 40
0.3684210526315789
 40
0.4210526315789473
 40
0.4210526315789473
 40
0.4210526315789473
 40
0.4210526315789473
 40
0.4736842105263158
 40
0.4736842105263158
 40
0.4736842105263158
 40
0.4736842105263158
 40
0.5263157894736842
 40
0.5263157894736842
 40
0.5263157894736842
 40
0.5263157894736842
 40
0.5789473684210527
 40
0.5789473684210527
 40
0.5789473684210527
 40
0.5789473684210527
 40
0.631578947368421
 40
0.631578947368421
 40
0.631578947368421
 40
0.631578947368421
 40
0.6842105263157895
 40
0.6842105263157895
 40
0.6842105263157895
 40
0.6842105263157895
 40
0.7368421052631579
 40
0.7368421052631579
 40
0.7368421052631579
 40
0.7368421052631579
 40
0.7894736842105263
 40
0.7894736842105263
 40
0.7894736842105263
 40
0.7894736842105263
 40
0.8421052631578947
 40
0.8421052631578947
 40
0.8421052631578947
 40
0.8421052631578947
 40
0.8947368421052632
 40
0.8947368421052632
 40
0.8947368421052632
 40
0.8947368421052632
 40
1.0
 40
1.0
 40
1.0
 40
1.0
 10
83.7277
 20
28.4296
 30
0.0
 10
83.1885
 20
28.5215
 30
0.0
 10
82.6684
 20
28.6964
 30
0.0
 10
82.2184
 20
28.9865
 30
0.0
 10
82.2184
 20
28.9865
 30
0.0
 10
80.6626
 20
29.9898
 30
0.0
 10
80.0348
 20
31.7958
 30
0.0
 10
80.9628
 20
33.3151
 30
0.0
 10
80.9628
 20
33.3151
 30
0.0
 10
81.8909
 20
34.8344
 30
0.0
 10
83.6104
 20
34.4904
 30
0.0
 10
82.9008
 20
33.2578
 30
0.0
 10
82.9008
 20
33.2578
 30
0.0
 10
82.3057
 20
32.2243
 30
0.0
 10
82.2867
 20
31.0298
 30
0.0
 10
83.7277
 20
30.5525
 30
0.0
 10
83.7277
 20
30.5525
 30
0.0
 10
83.7277
 20
30.5525
 30
0.0
 10
83.7277
 20
35.8462
 30
0.0
 10
83.7277
 20
35.8462
 30
0.0
 10
83.7277
 20
35.8462
 30
0.0
 10
83.7277
 20
35.8462
 30
0.0
 10
79.4889
 20
35.8462
 30
0.0
 10
79.4889
 20
35.8462
 30
0.0
 10
79.4889
 20
35.8462
 30
0.0
 10
79.4889
 20
35.8462
 30
0.0
 10
78.2688
 20
35.8462
 30
0.0
 10
78.2688
 20
35.8462
 30
0.0
 10
78.2688
 20
35.8462
 30
0.0
 10
78.2688
 20
35.8462
 30
0.0
 10
78.2688
 20
37.1277
 30
0.0
 10
78.2688
 20
37.1277
 30
0.0
 10
78.2688
 20
37.1277
 30
0.0
 10
78.2688
 20
37.1277
 30
0.0
 10
78.2688
 20
46.6587
 30
0.0
 10
78.2688
 20
46.6587
 30
0.0
 10
78.2688
 20
46.6587
 30
0.0
 10
77.2441
 20
45.8972
 30
0.0
 10
75.611
 20
44.2101
 30
0.0
 10
74.5212
 20
40.7395
 30
0.0
 10
74.5212
 20
40.7395
 30
0.0
 10
72.829
 20
35.3504
 30
0.0
 10
73.5659
 20
34.949
 30
0.0
 10
74.7669
 20
34.5764
 30
0.0
 10
74.7669
 20
34.5764
 30
0.0
 10
75.9679
 20
34.2038
 30
0.0
 10
76.4865
 20
33.5158
 30
0.0
 10
76.6229
 20
32.3118
 30
0.0
 10
76.6229
 20
32.3118
 30
0.0
 10
76.7595
 20
31.1078
 30
0.0
 10
78.2061
 20
31.4232
 30
0.0
 10
79.3252
 20
29.6745
 30
0.0
 10
79.3252
 20
29.6745
 30
0.0
 10
80.4442
 20
27.9259
 30
0.0
 10
79.3525
 20
27.2666
 30
0.0
 10
80.608
 20
25.604
 30
0.0
 10
80.608
 20
25.604
 30
0.0
 10
81.8636
 20
23.9413
 30
0.0
 10
80.608
 20
23.0527
 30
0.0
 10
81.0993
 20
20.96
 30
0.0
 10
81.0993
 20
20.96
 30
0.0
 10
81.5674
 20
18.966
 30
0.0
 10
79.7307
 20
13.0677
 30
0.0
 10
76.7699
 20
9.8377
 30
0.0
 10
76.7699
 20
9.8377
 30
0.0
 10
76.7699
 20
9.8377
 30
0.0
 10
83.7277
 20
9.8377
 30
0.0
 10
83.7277
 20
9.8377
 30
0.0
 10
83.7277
 20
9.8377
 30
0.0
 10
83.7277
 20
9.8377
 30
0.0
 10
83.7277
 20
28.4296
 30
0.0
 10
83.7277
 20
28.4296
 30
0.0
  0
SPLINE
  5
9C
330
1F
100
AcDbEntity
  8
layer 1
 62
     7
100
AcDbSpline
210
0.0
220
0.0
230
1.0
 70
    11
 71
     3
 72
    36
 73
    32
 74
     0
 42
0.0000000001
 43
0.0000000001
 12
1.0
 22
0.0
 32
0.0
 13
1.0
 23
0.0
 33
0.0
 40
0.0
 40
0.0
 40
0.0
 40
0.0
 40
0.1111111111111111
 40
0.1111111111111111
 40
0.1111111111111111
 40
0.1111111111111111
 40
0.2222222222222222
 40
0.2222222222222222
 40
0.2222222222222222
 40
0.2222222222222222
 40
0.3333333333333333
 40
0.3333333333333333
 40
0.3333333333333333
 40
0.3333333333333333
 40
0.4444444444444444
 40
0.4444444444444444
 40
0.4444444444444444
 40
0.4444444444444444
 40
0.5555555555555556
 40
0.5555555555555556
 40
0.5555555555555556
 40
0.5555555555555556
 40
0.6666666666666666
 40
0.6666666666666666
 40
0.6666666666666666
 40
0.6666666666666666
 40
0.7777777777777778
 40
0.7777777777777778
 40
0.7777777777777778
 40
0.7777777777777778
 40
1.0
 40
1.0
 40
1.0
 40
1.0
 10
68.9828
 20
9.8377
 30
0.0
 10
68.9828
 20
9.8377
 30
0.0
 10
69.4253
 20
9.8377
 30
0.0
 10
69.4253
 20
9.8377
 30
0.0
 10
69.4253
 20
9.8377
 30
0.0
 10
69.4253
 20
9.8377
 30
0.0
 10
69.4253
 20
20.6339
 30
0.0
 10
69.4253
 20
20.6339
 30
0.0
 10
69.4253
 20
20.6339
 30
0.0
 10
68.108
 20
20.709
 30
0.0
 10
65.7215
 20
21.1939
 30
0.0
 10
64.1893
 20
23.562
 30
0.0
 10
64.1893
 20
23.562
 30
0.0
 10
64.1893
 20
23.562
 30
0.0
 10
61.911
 20
23.562
 30
0.0
 10
61.911
 20
23.562
 30
0.0
 10
61.911
 20
23.562
 30
0.0
 10
61.911
 20
23.562
 30
0.0
 10
61.911
 20
17.6383
 30
0.0
 10
61.911
 20
17.6383
 30
0.0
 10
61.911
 20
17.6383
 30
0.0
 10
63.1441
 20
17.1825
 30
0.0
 10
64.3511
 20
15.683
 30
0.0
 10
64.6951
 20
14.6249
 30
0.0
 10
64.6951
 20
14.6249
 30
0.0
 10
65.0773
 20
13.4496
 30
0.0
 10
65.3229
 20
13.851
 30
0.0
 10
67.0425
 20
12.6756
 30
0.0
 10
67.0425
 20
12.6756
 30
0.0
 10
67.9851
 20
12.0313
 30
0.0
 10
68.6103
 20
10.8099
 30
0.0
 10
68.9828
 20
9.8377
 30
0.0
  0
SPLINE
  5
9D
330
1F
100
AcDbEntity
  8
layer 1
 62
     7
100
AcDbSpline
210
0.0
220
0.0
230
1.0
 70
    11
 71
     3
 72
    56
 73
    52
 74
     0
 42
0.0000000001
 43
0.0000000001
 12
1.0
 22
0.0
 32
0.0
 13
1.0
 23
0.0
 33
0.0
 40
0.0
 40
0.0
 40
0.0
 40
0.0
 40
0.0714285714285714
 40
0.0714285714285714
 40
0.0714285714285714
 40
0.0714285714285714
 40
0.1428571428571428
 40
0.1428571428571428
 40
0.1428571428571428
 40
0.1428571428571428
 40
0.2142857142857143
 40
0.2142857142857143
 40
0.2142857142857143
 40
0.2142857142857143
 40
0.2857142857142857
 40
0.2857142857142857
 40
0.2857142857142857
 40
0.2857142857142857
 40
0.3571428571428572
 40
0.3571428571428572
 40
0.3571428571428572
 40
0.3571428571428572
 40
0.4285714285714285
 40
0.4285714285714285
 40
0.4285714285714285
 40
0.4285714285714285
 40
0.5
 40
0.5
 40
0.5
 40
0.5
 40
0.5714285714285714
 40
0.5714285714285714
 40
0.5714285714285714
 40
0.5714285714285714
 40
0.6428571428571429
 40
0.6428571428571429
 40
0.6428571428571429
 40
0.6428571428571429
 40
0.7142857142857143
 40
0.7142857142857143
 40
0.7142857142857143
 40
0.7142857142857143
 40
0.7857142857142857
 40
0.7857142857142857
 40
0.7857142857142857
 40
0.7857142857142857
 40
0.8571428571428571
 40
0.8571428571428571
 40
0.8571428571428571
 40
0.8571428571428571
 40
1.0
 40
1.0
 40
1.0
 40
1.0
 10
61.911
 20
45.297
 30
0.0
 10
63.0721
 20
44.8568
 30
0.0
 10
63.9635
 20
43.8236
 30
0.0
 10
64.2534
 20
42.5455
 30
0.0
 10
64.2534
 20
42.5455
 30
0.0
 10
64.2534
 20
42.5455
 30
0.0
 10
69.4253
 20
42.5455
 30
0.0
 10
69.4253
 20
42.5455
 30
0.0
 10
69.4253
 20
42.5455
 30
0.0
 10
69.4253
 20
42.5455
 30
0.0
 10
69.4253
 20
48.0932
 30
0.0
 10
69.4253
 20
48.0932
 30
0.0
 10
69.4253
 20
48.0932
 30
0.0
 10
69.4253
 20
48.0932
 30
0.0
 10
65.4593
 20
48.0932
 30
0.0
 10
65.4593
 20
48.0932
 30
0.0
 10
65.4593
 20
48.0932
 30
0.0
 10
65.4593
 20
48.0932
 30
0.0
 10
63.0827
 20
47.9308
 30
0.0
 10
64.7469
 20
51.885
 30
0.0
 10
64.7469
 20
51.885
 30
0.0
 10
64.7469
 20
51.885
 30
0.0
 10
64.3848
 20
49.9852
 30
0.0
 10
65.4593
 20
49.9852
 30
0.0
 10
65.4593
 20
49.9852
 30
0.0
 10
65.4593
 20
49.9852
 30
0.0
 10
69.4253
 20
49.9852
 30
0.0
 10
69.4253
 20
49.9852
 30
0.0
 10
69.4253
 20
49.9852
 30
0.0
 10
69.4253
 20
49.9852
 30
0.0
 10
69.4253
 20
60.3541
 30
0.0
 10
69.4253
 20
60.3541
 30
0.0
 10
69.4253
 20
60.3541
 30
0.0
 10
68.4526
 20
60.2853
 30
0.0
 10
66.7328
 20
59.8855
 30
0.0
 10
65.7695
 20
58.0201
 30
0.0
 10
65.7695
 20
58.0201
 30
0.0
 10
65.7695
 20
58.0201
 30
0.0
 10
65.4577
 20
57.4165
 30
0.0
 10
65.4577
 20
57.4165
 30
0.0
 10
65.4577
 20
57.4165
 30
0.0
 10
65.4577
 20
57.4165
 30
0.0
 10
64.8043
 20
57.4165
 30
0.0
 10
64.8043
 20
57.4165
 30
0.0
 10
64.8043
 20
57.4165
 30
0.0
 10
64.8043
 20
57.4165
 30
0.0
 10
61.911
 20
57.4165
 30
0.0
 10
61.911
 20
57.4165
 30
0.0
 10
61.911
 20
57.4165
 30
0.0
 10
61.911
 20
57.4165
 30
0.0
 10
61.911
 20
45.297
 30
0.0
 10
61.911
 20
45.297
 30
0.0
  0
SPLINE
  5
9E
330
1F
100
AcDbEntity
  8
layer 1
 62
     7
100
AcDbSpline
210
0.0
220
0.0
230
1.0
 70
    11
 71
     3
 72
    56
 73
    52
 74
     0
 42
0.0000000001
 43
0.0000000001
 12
1.0
 22
0.0
 32
0.0
 13
1.0
 23
0.0
 33
0.0
 40
0.0
 40
0.0
 40
0.0
 40
0.0
 40
0.0714285714285714
 40
0.0714285714285714
 40
0.0714285714285714
 40
0.0714285714285714
 40
0.1428571428571428
 40
0.1428571428571428
 40
0.1428571428571428
 40
0.1428571428571428
 40
0.2142857142857143
 40
0.2142857142857143
 40
0.2142857142857143
 40
0.2142857142857143
 40
0.2857142857142857
 40
0.2857142857142857
 40
0.2857142857142857
 40
0.2857142857142857
 40
0.3571428571428572
 40
0.3571428571428572
 40
0.3571428571428572
 40
0.3571428571428572
 40
0.4285714285714285
 40
0.4285714285714285
 40
0.4285714285714285
 40
0.4285714285714285
 40
0.5
 40
0.5
 40
0.5
 40
0.5
 40
0.5714285714285714
 40
0.5714285714285714
 40
0.5714285714285714
 40
0.5714285714285714
 40
0.6428571428571429
 40
0.6428571428571429
 40
0.6428571428571429
 40
0.6428571428571429
 40
0.7142857142857143
 40
0.7142857142857143
 40
0.7142857142857143
 40
0.7142857142857143
 40
0.7857142857142857
 40
0.7857142857142857
 40
0.7857142857142857
 40
0.7857142857142857
 40
0.8571428571428571
 40
0.8571428571428571
 40
0.8571428571428571
 40
0.8571428571428571
 40
1.0
 40
1.0
 40
1.0
 40
1.0
 10
69.4253
 20
40.7395
 30
0.0
 10
69.4253
 20
40.7395
 30
0.0
 10
64.2534
 20
40.7395
 30
0.0
 10
64.2534
 20
40.7395
 30
0.0
 10
64.2534
 20
40.7395
 30
0.0
 10
63.9635
 20
39.4616
 30
0.0
 10
63.0721
 20
38.4282
 30
0.0
 10
61.911
 20
37.988
 30
0.0
 10
61.911
 20
37.988
 30
0.0
 10
61.911
 20
37.988
 30
0.0
 10
61.911
 20
25.8686
 30
0.0
 10
61.911
 20
25.8686
 30
0.0
 10
61.911
 20
25.8686
 30
0.0
 10
61.911
 20
25.8686
 30
0.0
 10
64.8043
 20
25.8686
 30
0.0
 10
64.8043
 20
25.8686
 30
0.0
 10
64.8043
 20
25.8686
 30
0.0
 10
64.8043
 20
25.8686
 30
0.0
 10
65.4577
 20
25.8686
 30
0.0
 10
65.4577
 20
25.8686
 30
0.0
 10
65.4577
 20
25.8686
 30
0.0
 10
65.4577
 20
25.8686
 30
0.0
 10
65.7695
 20
25.2649
 30
0.0
 10
65.7695
 20
25.2649
 30
0.0
 10
65.7695
 20
25.2649
 30
0.0
 10
66.7328
 20
23.3997
 30
0.0
 10
68.4526
 20
22.9999
 30
0.0
 10
69.4253
 20
22.931
 30
0.0
 10
69.4253
 20
22.931
 30
0.0
 10
69.4253
 20
22.931
 30
0.0
 10
69.4253
 20
33.2999
 30
0.0
 10
69.4253
 20
33.2999
 30
0.0
 10
69.4253
 20
33.2999
 30
0.0
 10
69.4253
 20
33.2999
 30
0.0
 10
65.4593
 20
33.2999
 30
0.0
 10
65.4593
 20
33.2999
 30
0.0
 10
65.4593
 20
33.2999
 30
0.0
 10
64.3848
 20
33.2999
 30
0.0
 10
64.7469
 20
31.4001
 30
0.0
 10
64.7469
 20
31.4001
 30
0.0
 10
64.7469
 20
31.4001
 30
0.0
 10
63.0827
 20
35.3542
 30
0.0
 10
65.4593
 20
35.1919
 30
0.0
 10
65.4593
 20
35.1919
 30
0.0
 10
65.4593
 20
35.1919
 30
0.0
 10
65.4593
 20
35.1919
 30
0.0
 10
69.4253
 20
35.1919
 30
0.0
 10
69.4253
 20
35.1919
 30
0.0
 10
69.4253
 20
35.1919
 30
0.0
 10
69.4253
 20
35.1919
 30
0.0
 10
69.4253
 20
40.7395
 30
0.0
 10
69.4253
 20
40.7395
 30
0.0
  0
SPLINE
  5
9F
330
1F
100
AcDbEntity
  8
layer 1
 62
     7
100
AcDbSpline
210
0.0
220
0.0
230
1.0
 70
    11
 71
     3
 72
    44
 73
    40
 74
     0
 42
0.0000000001
 43
0.0000000001
 12
1.0
 22
0.0
 32
0.0
 13
1.0
 23
0.0
 33
0.0
 40
0.0
 40
0.0
 40
0.0
 40
0.0
 40
0.0909090909090909
 40
0.0909090909090909
 40
0.0909090909090909
 40
0.0909090909090909
 40
0.1818181818181818
 40
0.1818181818181818
 40
0.1818181818181818
 40
0.1818181818181818
 40
0.2727272727272727
 40
0.2727272727272727
 40
0.2727272727272727
 40
0.2727272727272727
 40
0.3636363636363636
 40
0.3636363636363636
 40
0.3636363636363636
 40
0.3636363636363636
 40
0.4545454545454545
 40
0.4545454545454545
 40
0.4545454545454545
 40
0.4545454545454545
 40
0.5454545454545454
 40
0.5454545454545454
 40
0.5454545454545454
 40
0.5454545454545454
 40
0.6363636363636364
 40
0.6363636363636364
 40
0.6363636363636364
 40
0.6363636363636364
 40
0.7272727272727273
 40
0.7272727272727273
 40
0.7272727272727273
 40
0.7272727272727273
 40
0.8181818181818182
 40
0.8181818181818182
 40
0.8181818181818182
 40
0.8181818181818182
 40
1.0
 40
1.0
 40
1.0
 40
1.0
 10
61.911
 20
92.6102
 30
0.0
 10
63.0721
 20
92.1699
 30
0.0
 10
63.9635
 20
91.1366
 30
0.0
 10
64.2534
 20
89.8587
 30
0.0
 10
64.2534
 20
89.8587
 30
0.0
 10
64.2534
 20
89.8587
 30
0.0
 10
68.4426
 20
89.8587
 30
0.0
 10
68.4426
 20
89.8587
 30
0.0
 10
68.4426
 20
89.8587
 30
0.0
 10
68.4426
 20
89.8587
 30
0.0
 10
68.4426
 20
95.4063
 30
0.0
 10
68.4426
 20
95.4063
 30
0.0
 10
68.4426
 20
95.4063
 30
0.0
 10
68.4426
 20
95.4063
 30
0.0
 10
65.4593
 20
95.4063
 30
0.0
 10
65.4593
 20
95.4063
 30
0.0
 10
65.4593
 20
95.4063
 30
0.0
 10
65.4593
 20
95.4063
 30
0.0
 10
63.0827
 20
95.244
 30
0.0
 10
64.7469
 20
99.1981
 30
0.0
 10
64.7469
 20
99.1981
 30
0.0
 10
64.7469
 20
99.1981
 30
0.0
 10
64.3848
 20
97.2983
 30
0.0
 10
65.4593
 20
97.2983
 30
0.0
 10
65.4593
 20
97.2983
 30
0.0
 10
65.4593
 20
97.2983
 30
0.0
 10
68.4426
 20
97.2983
 30
0.0
 10
68.4426
 20
97.2983
 30
0.0
 10
68.4426
 20
97.2983
 30
0.0
 10
68.4426
 20
97.2983
 30
0.0
 10
68.4426
 20
102.8099
 30
0.0
 10
68.4426
 20
102.8099
 30
0.0
 10
68.4426
 20
102.8099
 30
0.0
 10
68.4426
 20
102.8099
 30
0.0
 10
61.911
 20
102.8099
 30
0.0
 10
61.911
 20
102.8099
 30
0.0
 10
61.911
 20
102.8099
 30
0.0
 10
61.911
 20
102.8099
 30
0.0
 10
61.911
 20
92.6102
 30
0.0
 10
61.911
 20
92.6102
 30
0.0
  0
SPLINE
  5
A0
330
1F
100
AcDbEntity
  8
layer 1
 62
     7
100
AcDbSpline
210
0.0
220
0.0
230
1.0
 70
    11
 71
     3
 72
    56
 73
    52
 74
     0
 42
0.0000000001
 43
0.0000000001
 12
1.0
 22
0.0
 32
0.0
 13
1.0
 23
0.0
 33
0.0
 40
0.0
 40
0.0
 40
0.0
 40
0.0
 40
0.0714285714285714
 40
0.0714285714285714
 40
0.0714285714285714
 40
0.0714285714285714
 40
0.1428571428571428
 40
0.1428571428571428
 40
0.1428571428571428
 40
0.1428571428571428
 40
0.2142857142857143
 40
0.2142857142857143
 40
0.2142857142857143
 40
0.2142857142857143
 40
0.2857142857142857
 40
0.2857142857142857
 40
0.2857142857142857
 40
0.2857142857142857
 40
0.3571428571428572
 40
0.3571428571428572
 40
0.3571428571428572
 40
0.3571428571428572
 40
0.4285714285714285
 40
0.4285714285714285
 40
0.4285714285714285
 40
0.4285714285714285
 40
0.5
 40
0.5
 40
0.5
 40
0.5
 40
0.5714285714285714
 40
0.5714285714285714
 40
0.5714285714285714
 40
0.5714285714285714
 40
0.6428571428571429
 40
0.6428571428571429
 40
0.6428571428571429
 40
0.6428571428571429
 40
0.7142857142857143
 40
0.7142857142857143
 40
0.7142857142857143
 40
0.7142857142857143
 40
0.7857142857142857
 40
0.7857142857142857
 40
0.7857142857142857
 40
0.7857142857142857
 40
0.8571428571428571
 40
0.8571428571428571
 40
0.8571428571428571
 40
0.8571428571428571
 40
1.0
 40
1.0
 40
1.0
 40
1.0
 10
68.4426
 20
88.0527
 30
0.0
 10
68.4426
 20
88.0527
 30
0.0
 10
64.2534
 20
88.0527
 30
0.0
 10
64.2534
 20
88.0527
 30
0.0
 10
64.2534
 20
88.0527
 30
0.0
 10
63.9635
 20
86.7747
 30
0.0
 10
63.0721
 20
85.7414
 30
0.0
 10
61.911
 20
85.3012
 30
0.0
 10
61.911
 20
85.3012
 30
0.0
 10
61.911
 20
85.3012
 30
0.0
 10
61.911
 20
73.1522
 30
0.0
 10
61.911
 20
73.1522
 30
0.0
 10
61.911
 20
73.1522
 30
0.0
 10
61.911
 20
73.1522
 30
0.0
 10
65.3502
 20
73.1522
 30
0.0
 10
65.3502
 20
73.1522
 30
0.0
 10
65.3502
 20
73.1522
 30
0.0
 10
65.3502
 20
73.1522
 30
0.0
 10
66.0427
 20
73.1522
 30
0.0
 10
66.0427
 20
73.1522
 30
0.0
 10
66.0427
 20
73.1522
 30
0.0
 10
66.0427
 20
73.1522
 30
0.0
 10
66.3988
 20
72.5165
 30
0.0
 10
66.3988
 20
72.5165
 30
0.0
 10
66.3988
 20
72.5165
 30
0.0
 10
67.0201
 20
71.4071
 30
0.0
 10
67.8088
 20
70.9041
 30
0.0
 10
68.4426
 20
70.6785
 30
0.0
 10
68.4426
 20
70.6785
 30
0.0
 10
68.4426
 20
70.6785
 30
0.0
 10
68.4426
 20
80.613
 30
0.0
 10
68.4426
 20
80.613
 30
0.0
 10
68.4426
 20
80.613
 30
0.0
 10
68.4426
 20
80.613
 30
0.0
 10
65.4593
 20
80.613
 30
0.0
 10
65.4593
 20
80.613
 30
0.0
 10
65.4593
 20
80.613
 30
0.0
 10
64.3848
 20
80.613
 30
0.0
 10
64.7469
 20
78.7132
 30
0.0
 10
64.7469
 20
78.7132
 30
0.0
 10
64.7469
 20
78.7132
 30
0.0
 10
63.0827
 20
82.6674
 30
0.0
 10
65.4593
 20
82.505
 30
0.0
 10
65.4593
 20
82.505
 30
0.0
 10
65.4593
 20
82.505
 30
0.0
 10
65.4593
 20
82.505
 30
0.0
 10
68.4426
 20
82.505
 30
0.0
 10
68.4426
 20
82.505
 30
0.0
 10
68.4426
 20
82.505
 30
0.0
 10
68.4426
 20
82.505
 30
0.0
 10
68.4426
 20
88.0527
 30
0.0
 10
68.4426
 20
88.0527
 30
0.0
  0
SPLINE
  5
A1
330
1F
100
AcDbEntity
  8
layer 1
 62
     7
100
AcDbSpline
210
0.0
220
0.0
230
1.0
 70
    11
 71
     3
 72
    36
 73
    32
 74
     0
 42
0.0000000001
 43
0.0000000001
 12
1.0
 22
0.0
 32
0.0
 13
1.0
 23
0.0
 33
0.0
 40
0.0
 40
0.0
 40
0.0
 40
0.0
 40
0.1111111111111111
 40
0.1111111111111111
 40
0.1111111111111111
 40
0.1111111111111111
 40
0.2222222222222222
 40
0.2222222222222222
 40
0.2222222222222222
 40
0.2222222222222222
 40
0.3333333333333333
 40
0.3333333333333333
 40
0.3333333333333333
 40
0.3333333333333333
 40
0.4444444444444444
 40
0.4444444444444444
 40
0.4444444444444444
 40
0.4444444444444444
 40
0.5555555555555556
 40
0.5555555555555556
 40
0.5555555555555556
 40
0.5555555555555556
 40
0.6666666666666666
 40
0.6666666666666666
 40
0.6666666666666666
 40
0.6666666666666666
 40
0.7777777777777778
 40
0.7777777777777778
 40
0.7777777777777778
 40
0.7777777777777778
 40
1.0
 40
1.0
 40
1.0
 40
1.0
 10
62.1217
 20
59.7231
 30
0.0
 10
62.1217
 20
59.7231
 30
0.0
 10
64.1893
 20
59.7231
 30
0.0
 10
64.1893
 20
59.7231
 30
0.0
 10
64.1893
 20
59.7231
 30
0.0
 10
65.7215
 20
62.0912
 30
0.0
 10
68.108
 20
62.576
 30
0.0
 10
69.4253
 20
62.6512
 30
0.0
 10
69.4253
 20
62.6512
 30
0.0
 10
69.4253
 20
62.6512
 30
0.0
 10
69.4253
 20
67.2842
 30
0.0
 10
69.4253
 20
67.2842
 30
0.0
 10
69.4253
 20
67.2842
 30
0.0
 10
69.4253
 20
67.2842
 30
0.0
 10
69.4253
 20
67.952
 30
0.0
 10
69.4253
 20
67.952
 30
0.0
 10
69.4253
 20
67.952
 30
0.0
 10
68.578
 20
67.9654
 30
0.0
 10
66.334
 20
68.2378
 30
0.0
 10
64.6986
 20
70.5893
 30
0.0
 10
64.6986
 20
70.5893
 30
0.0
 10
64.6986
 20
70.5893
 30
0.0
 10
62.1217
 20
70.5893
 30
0.0
 10
62.1217
 20
70.5893
 30
0.0
 10
62.1217
 20
70.5893
 30
0.0
 10
64.3779
 20
69.9189
 30
0.0
 10
66.0314
 20
67.7399
 30
0.0
 10
66.0314
 20
65.1562
 30
0.0
 10
66.0314
 20
65.1562
 30
0.0
 10
66.0314
 20
62.5725
 30
0.0
 10
64.3779
 20
60.3935
 30
0.0
 10
62.1217
 20
59.7231
 30
0.0
  0
SPLINE
  5
A2
330
1F
100
AcDbEntity
  8
layer 1
 62
     7
100
AcDbSpline
210
0.0
220
0.0
230
1.0
 70
    11
 71
     3
 72
    32
 73
    28
 74
     0
 42
0.0000000001
 43
0.0000000001
 12
1.0
 22
0.0
 32
0.0
 13
1.0
 23
0.0
 33
0.0
 40
0.0
 40
0.0
 40
0.0
 40
0.0
 40
0.125
 40
0.125
 40
0.125
 40
0.125
 40
0.25
 40
0.25
 40
0.25
 40
0.25
 40
0.375
 40
0.375
 40
0.375
 40
0.375
 40
0.5
 40
0.5
 40
0.5
 40
0.5
 40
0.625
 40
0.625
 40
0.625
 40
0.625
 40
0.75
 40
0.75
 40
0.75
 40
0.75
 40
1.0
 40
1.0
 40
1.0
 40
1.0
 10
95.6475
 20
100.8606
 30
0.0
 10
95.6475
 20
100.8606
 30
0.0
 10
82.1284
 20
100.8606
 30
0.0
 10
82.1284
 20
100.8606
 30
0.0
 10
82.1284
 20
100.8606
 30
0.0
 10
82.1284
 20
100.8606
 30
0.0
 10
82.1284
 20
93.5617
 30
0.0
 10
82.1284
 20
93.5617
 30
0.0
 10
82.1284
 20
93.5617
 30
0.0
 10
83.9909
 20
92.8328
 30
0.0
 10
86.5263
 20
91.6969
 30
0.0
 10
87.9503
 20
89.9876
 30
0.0
 10
87.9503
 20
89.9876
 30
0.0
 10
87.9503
 20
89.9876
 30
0.0
 10
88.7691
 20
92.3956
 30
0.0
 10
88.66
 20
94.1729
 30
0.0
 10
88.66
 20
94.1729
 30
0.0
 10
88.66
 20
94.1729
 30
0.0
 10
89.663
 20
93.4694
 30
0.0
 10
89.6738
 20
91.5557
 30
0.0
 10
89.6738
 20
91.5557
 30
0.0
 10
89.6738
 20
91.5557
 30
0.0
 10
95.6475
 20
91.5557
 30
0.0
 10
95.6475
 20
91.5557
 30
0.0
 10
95.6475
 20
91.5557
 30
0.0
 10
95.6475
 20
91.5557
 30
0.0
 10
95.6475
 20
100.8606
 30
0.0
 10
95.6475
 20
100.8606
 30
0.0
  0
SPLINE
  5
A3
330
1F
100
AcDbEntity
  8
layer 1
 62
     7
100
AcDbSpline
210
0.0
220
0.0
230
1.0
 70
    11
 71
     3
 72
    24
 73
    20
 74
     0
 42
0.0000000001
 43
0.0000000001
 12
1.0
 22
0.0
 32
0.0
 13
1.0
 23
0.0
 33
0.0
 40
0.0
 40
0.0
 40
0.0
 40
0.0
 40
0.1666666666666667
 40
0.1666666666666667
 40
0.1666666666666667
 40
0.1666666666666667
 40
0.3333333333333333
 40
0.3333333333333333
 40
0.3333333333333333
 40
0.3333333333333333
 40
0.5
 40
0.5
 40
0.5
 40
0.5
 40
0.6666666666666666
 40
0.6666666666666666
 40
0.6666666666666666
 40
0.6666666666666666
 40
1.0
 40
1.0
 40
1.0
 40
1.0
 10
70.8829
 20
121.0616
 30
0.0
 10
70.8829
 20
121.0616
 30
0.0
 10
70.8829
 20
116.1968
 30
0.0
 10
70.8829
 20
116.1968
 30
0.0
 10
70.8829
 20
116.1968
 30
0.0
 10
71.7817
 20
116.0453
 30
0.0
 10
73.0193
 20
115.3776
 30
0.0
 10
73.9208
 20
113.0924
 30
0.0
 10
73.9208
 20
113.0924
 30
0.0
 10
73.9208
 20
113.0924
 30
0.0
 10
75.3283
 20
115.7789
 30
0.0
 10
78.105
 20
116.0075
 30
0.0
 10
78.105
 20
116.0075
 30
0.0
 10
78.105
 20
116.0075
 30
0.0
 10
78.105
 20
121.0616
 30
0.0
 10
78.105
 20
121.0616
 30
0.0
 10
78.105
 20
121.0616
 30
0.0
 10
78.105
 20
121.0616
 30
0.0
 10
70.8829
 20
121.0616
 30
0.0
 10
70.8829
 20
121.0616
 30
0.0
  0
SPLINE
  5
A4
330
1F
100
AcDbEntity
  8
layer 1
 62
     7
100
AcDbSpline
210
0.0
220
0.0
230
1.0
 70
    11
 71
     3
 72
    20
 73
    16
 74
     0
 42
0.0000000001
 43
0.0000000001
 12
1.0
 22
0.0
 32
0.0
 13
1.0
 23
0.0
 33
0.0
 40
0.0
 40
0.0
 40
0.0
 40
0.0
 40
0.2
 40
0.2
 40
0.2
 40
0.2
 40
0.4
 40
0.4
 40
0.4
 40
0.4
 40
0.6
 40
0.6
 40
0.6
 40
0.6
 40
1.0
 40
1.0
 40
1.0
 40
1.0
 10
60.6557
 20
15.6856
 30
0.0
 10
60.6557
 20
15.6856
 30
0.0
 10
59.2956
 20
15.4585
 30
0.0
 10
58.8271
 20
13.6216
 30
0.0
 10
58.8271
 20
13.6216
 30
0.0
 10
58.8271
 20
13.6216
 30
0.0
 10
59.7001
 20
13.2489
 30
0.0
 10
60.6557
 20
13.2489
 30
0.0
 10
60.6557
 20
13.2489
 30
0.0
 10
61.6111
 20
13.2489
 30
0.0
 10
62.4843
 20
13.6216
 30
0.0
 10
62.4843
 20
13.6216
 30
0.0
 10
62.4843
 20
13.6216
 30
0.0
 10
62.0156
 20
15.4585
 30
0.0
 10
60.6557
 20
15.6856
 30
0.0
 10
60.6557
 20
15.6856
 30
0.0
  0
SPLINE
  5
A5
330
1F
100
AcDbEntity
  8
layer 1
 62
     7
100
AcDbSpline
210
0.0
220
0.0
230
1.0
 70
    11
 71
     3
 72
    28
 73
    24
 74
     0
 42
0.0000000001
 43
0.0000000001
 12
1.0
 22
0.0
 32
0.0
 13
1.0
 23
0.0
 33
0.0
 40
0.0
 40
0.0
 40
0.0
 40
0.0
 40
0.1428571428571428
 40
0.1428571428571428
 40
0.1428571428571428
 40
0.1428571428571428
 40
0.2857142857142857
 40
0.2857142857142857
 40
0.2857142857142857
 40
0.2857142857142857
 40
0.4285714285714285
 40
0.4285714285714285
 40
0.4285714285714285
 40
0.4285714285714285
 40
0.5714285714285714
 40
0.5714285714285714
 40
0.5714285714285714
 40
0.5714285714285714
 40
0.7142857142857143
 40
0.7142857142857143
 40
0.7142857142857143
 40
0.7142857142857143
 40
1.0
 40
1.0
 40
1.0
 40
1.0
 10
60.6557
 20
67.2505
 30
0.0
 10
59.1155
 20
67.3052
 30
0.0
 10
57.9125
 20
68.0372
 30
0.0
 10
57.9125
 20
68.0372
 30
0.0
 10
57.9125
 20
68.0372
 30
0.0
 10
58.7587
 20
65.3425
 30
0.0
 10
57.9125
 20
62.2753
 30
0.0
 10
57.9125
 20
62.2752
 30
0.0
 10
57.9125
 20
62.2752
 30
0.0
 10
57.9125
 20
62.2752
 30
0.0
 10
59.1155
 20
62.6412
 30
0.0
 10
60.6557
 20
62.6685
 30
0.0
 10
60.6557
 20
62.6685
 30
0.0
 10
62.1957
 20
62.6412
 30
0.0
 10
63.3987
 20
62.2752
 30
0.0
 10
63.3987
 20
62.2752
 30
0.0
 10
63.3987
 20
62.2752
 30
0.0
 10
63.3987
 20
62.2753
 30
0.0
 10
62.5525
 20
65.3425
 30
0.0
 10
63.3987
 20
68.0372
 30
0.0
 10
63.3987
 20
68.0372
 30
0.0
 10
63.3987
 20
68.0372
 30
0.0
 10
62.1957
 20
67.3052
 30
0.0
 10
60.6557
 20
67.2505
 30
0.0
  0
SPLINE
  5
A6
330
1F
100
AcDbEntity
  8
layer 1
 62
     7
100
AcDbSpline
210
0.0
220
0.0
230
1.0
 70
    11
 71
     3
 72
    36
 73
    32
 74
     0
 42
0.0000000001
 43
0.0000000001
 12
1.0
 22
0.0
 32
0.0
 13
1.0
 23
0.0
 33
0.0
 40
0.0
 40
0.0
 40
0.0
 40
0.0
 40
0.1111111111111111
 40
0.1111111111111111
 40
0.1111111111111111
 40
0.1111111111111111
 40
0.2222222222222222
 40
0.2222222222222222
 40
0.2222222222222222
 40
0.2222222222222222
 40
0.3333333333333333
 40
0.3333333333333333
 40
0.3333333333333333
 40
0.3333333333333333
 40
0.4444444444444444
 40
0.4444444444444444
 40
0.4444444444444444
 40
0.4444444444444444
 40
0.5555555555555556
 40
0.5555555555555556
 40
0.5555555555555556
 40
0.5555555555555556
 40
0.6666666666666666
 40
0.6666666666666666
 40
0.6666666666666666
 40
0.6666666666666666
 40
0.7777777777777778
 40
0.7777777777777778
 40
0.7777777777777778
 40
0.7777777777777778
 40
1.0
 40
1.0
 40
1.0
 40
1.0
 10
62.7572
 20
8.4044
 30
0.0
 10
62.7572
 20
6.9711
 30
0.0
 10
63.2212
 20
5.1365
 30
0.0
 10
63.2212
 20
5.1365
 30
0.0
 10
63.2212
 20
5.1365
 30
0.0
 10
62.1021
 20
5.4805
 30
0.0
 10
60.6557
 20
5.5378
 30
0.0
 10
60.6557
 20
5.5378
 30
0.0
 10
60.6557
 20
5.5378
 30
0.0
 10
60.6557
 20
5.5378
 30
0.0
 10
59.2091
 20
5.4805
 30
0.0
 10
58.0901
 20
5.1365
 30
0.0
 10
58.0901
 20
5.1365
 30
0.0
 10
58.0901
 20
5.1365
 30
0.0
 10
58.5541
 20
6.9711
 30
0.0
 10
58.5541
 20
8.4044
 30
0.0
 10
58.5541
 20
8.4044
 30
0.0
 10
58.5541
 20
9.8377
 30
0.0
 10
58.0901
 20
11.6723
 30
0.0
 10
58.0901
 20
11.6723
 30
0.0
 10
58.0901
 20
11.6723
 30
0.0
 10
59.2091
 20
11.3283
 30
0.0
 10
60.6557
 20
11.271
 30
0.0
 10
60.6557
 20
11.271
 30
0.0
 10
60.6557
 20
11.271
 30
0.0
 10
60.6557
 20
11.271
 30
0.0
 10
62.1021
 20
11.3283
 30
0.0
 10
63.2212
 20
11.6723
 30
0.0
 10
63.2212
 20
11.6723
 30
0.0
 10
63.2212
 20
11.6723
 30
0.0
 10
62.7572
 20
9.8377
 30
0.0
 10
62.7572
 20
8.4044
 30
0.0
  0
SPLINE
  5
A7
330
1F
100
AcDbEntity
  8
layer 1
 62
     7
100
AcDbSpline
210
0.0
220
0.0
230
1.0
 70
    11
 71
     3
 72
    20
 73
    16
 74
     0
 42
0.0000000001
 43
0.0000000001
 12
1.0
 22
0.0
 32
0.0
 13
1.0
 23
0.0
 33
0.0
 40
0.0
 40
0.0
 40
0.0
 40
0.0
 40
0.2
 40
0.2
 40
0.2
 40
0.2
 40
0.4
 40
0.4
 40
0.4
 40
0.4
 40
0.6
 40
0.6
 40
0.6
 40
0.6
 40
1.0
 40
1.0
 40
1.0
 40
1.0
 10
67.5884
 20
8.4044
 30
0.0
 10
67.5884
 20
6.4838
 30
0.0
 10
65.432
 20
6.0825
 30
0.0
 10
65.432
 20
6.0825
 30
0.0
 10
65.432
 20
6.0825
 30
0.0
 10
64.9954
 20
6.9425
 30
0.0
 10
64.9134
 20
8.4044
 30
0.0
 10
64.9134
 20
8.4044
 30
0.0
 10
64.9134
 20
8.4044
 30
0.0
 10
64.9134
 20
8.4044
 30
0.0
 10
64.9954
 20
9.8664
 30
0.0
 10
65.432
 20
10.7264
 30
0.0
 10
65.432
 20
10.7264
 30
0.0
 10
65.432
 20
10.7264
 30
0.0
 10
67.5884
 20
10.3251
 30
0.0
 10
67.5884
 20
8.4044
 30
0.0
  0
SPLINE
  5
A8
330
1F
100
AcDbEntity
  8
layer 1
 62
     7
100
AcDbSpline
210
0.0
220
0.0
230
1.0
 70
    11
 71
     3
 72
    20
 73
    16
 74
     0
 42
0.0000000001
 43
0.0000000001
 12
1.0
 22
0.0
 32
0.0
 13
1.0
 23
0.0
 33
0.0
 40
0.0
 40
0.0
 40
0.0
 40
0.0
 40
0.2
 40
0.2
 40
0.2
 40
0.2
 40
0.4
 40
0.4
 40
0.4
 40
0.4
 40
0.6
 40
0.6
 40
0.6
 40
0.6
 40
1.0
 40
1.0
 40
1.0
 40
1.0
 10
88.7691
 20
8.4044
 30
0.0
 10
88.7691
 20
5.5951
 30
0.0
 10
86.168
 20
4.3338
 30
0.0
 10
86.168
 20
4.3338
 30
0.0
 10
86.168
 20
4.3338
 30
0.0
 10
86.168
 20
4.3338
 30
0.0
 10
86.168
 20
8.4044
 30
0.0
 10
86.168
 20
8.4044
 30
0.0
 10
86.168
 20
8.4044
 30
0.0
 10
86.168
 20
8.4044
 30
0.0
 10
86.168
 20
12.475
 30
0.0
 10
86.168
 20
12.475
 30
0.0
 10
86.168
 20
12.475
 30
0.0
 10
86.168
 20
12.475
 30
0.0
 10
88.7691
 20
11.2136
 30
0.0
 10
88.7691
 20
8.4044
 30
0.0
  0
SPLINE
  5
A9
330
1F
100
AcDbEntity
  8
layer 1
 62
     7
100
AcDbSpline
210
0.0
220
0.0
230
1.0
 70
    11
 71
     3
 72
    40
 73
    36
 74
     0
 42
0.0000000001
 43
0.0000000001
 12
1.0
 22
0.0
 32
0.0
 13
1.0
 23
0.0
 33
0.0
 40
0.0
 40
0.0
 40
0.0
 40
0.0
 40
0.1
 40
0.1
 40
0.1
 40
0.1
 40
0.2
 40
0.2
 40
0.2
 40
0.2
 40
0.3
 40
0.3
 40
0.3
 40
0.3
 40
0.4
 40
0.4
 40
0.4
 40
0.4
 40
0.5
 40
0.5
 40
0.5
 40
0.5
 40
0.6
 40
0.6
 40
0.6
 40
0.6
 40
0.7
 40
0.7
 40
0.7
 40
0.7
 40
0.8
 40
0.8
 40
0.8
 40
0.8
 40
1.0
 40
1.0
 40
1.0
 40
1.0
 10
23.6746
 20
18.6987
 30
0.0
 10
24.6244
 20
18.2089
 30
0.0
 10
26.1623
 20
17.7627
 30
0.0
 10
28.4206
 20
18.0648
 30
0.0
 10
28.4206
 20
18.0648
 30
0.0
 10
32.7059
 20
18.6382
 30
0.0
 10
32.5694
 20
25.8046
 30
0.0
 10
32.433
 20
27.2666
 30
0.0
 10
32.433
 20
27.2666
 30
0.0
 10
32.2964
 20
28.7286
 30
0.0
 10
32.8888
 20
29.2159
 30
0.0
 10
34.016
 20
28.7858
 30
0.0
 10
34.016
 20
28.7858
 30
0.0
 10
34.3155
 20
28.6717
 30
0.0
 10
34.7044
 20
28.5614
 30
0.0
 10
35.1432
 20
28.48
 30
0.0
 10
35.1432
 20
28.48
 30
0.0
 10
35.1432
 20
28.48
 30
0.0
 10
35.1432
 20
17.4628
 30
0.0
 10
35.1432
 20
17.4628
 30
0.0
 10
35.1432
 20
17.4628
 30
0.0
 10
31.5757
 20
17.2908
 30
0.0
 10
31.5595
 20
13.5069
 30
0.0
 10
31.5595
 20
13.5069
 30
0.0
 10
31.5595
 20
13.5069
 30
0.0
 10
28.6558
 20
13.4697
 30
0.0
 10
27.8885
 20
11.3339
 30
0.0
 10
27.7077
 20
9.8377
 30
0.0
 10
27.7077
 20
9.8377
 30
0.0
 10
27.7077
 20
9.8377
 30
0.0
 10
23.6746
 20
9.8377
 30
0.0
 10
23.6746
 20
9.8377
 30
0.0
 10
23.6746
 20
9.8377
 30
0.0
 10
23.6746
 20
9.8377
 30
0.0
 10
23.6746
 20
18.6987
 30
0.0
 10
23.6746
 20
18.6987
 30
0.0
  0
SPLINE
  5
AA
330
1F
100
AcDbEntity
  8
layer 1
 62
     7
100
AcDbSpline
210
0.0
220
0.0
230
1.0
 70
    11
 71
     3
 72
    28
 73
    24
 74
     0
 42
0.0000000001
 43
0.0000000001
 12
1.0
 22
0.0
 32
0.0
 13
1.0
 23
0.0
 33
0.0
 40
0.0
 40
0.0
 40
0.0
 40
0.0
 40
0.1428571428571428
 40
0.1428571428571428
 40
0.1428571428571428
 40
0.1428571428571428
 40
0.2857142857142857
 40
0.2857142857142857
 40
0.2857142857142857
 40
0.2857142857142857
 40
0.4285714285714285
 40
0.4285714285714285
 40
0.4285714285714285
 40
0.4285714285714285
 40
0.5714285714285714
 40
0.5714285714285714
 40
0.5714285714285714
 40
0.5714285714285714
 40
0.7142857142857143
 40
0.7142857142857143
 40
0.7142857142857143
 40
0.7142857142857143
 40
1.0
 40
1.0
 40
1.0
 40
1.0
 10
23.6746
 20
35.8462
 30
0.0
 10
23.6746
 20
35.8462
 30
0.0
 10
27.7931
 20
35.8462
 30
0.0
 10
27.7931
 20
35.8462
 30
0.0
 10
27.7931
 20
35.8462
 30
0.0
 10
28.5003
 20
30.9187
 30
0.0
 10
31.5743
 20
29.401
 30
0.0
 10
30.9044
 20
24.2853
 30
0.0
 10
30.9044
 20
24.2853
 30
0.0
 10
30.1891
 20
18.8226
 30
0.0
 10
27.2469
 20
18.8388
 30
0.0
 10
26.4281
 20
19.8135
 30
0.0
 10
26.4281
 20
19.8135
 30
0.0
 10
25.6092
 20
20.7881
 30
0.0
 10
26.7303
 20
22.2214
 30
0.0
 10
24.7904
 20
22.2214
 30
0.0
 10
24.7904
 20
22.2214
 30
0.0
 10
24.3408
 20
22.2214
 30
0.0
 10
23.9736
 20
22.0811
 30
0.0
 10
23.6746
 20
21.8658
 30
0.0
 10
23.6746
 20
21.8658
 30
0.0
 10
23.6746
 20
21.8658
 30
0.0
 10
23.6746
 20
35.8462
 30
0.0
 10
23.6746
 20
35.8462
 30
0.0
  0
SPLINE
  5
AB
330
1F
100
AcDbEntity
  8
layer 1
 62
     7
100
AcDbSpline
210
0.0
220
0.0
230
1.0
 70
    11
 71
     3
 72
    56
 73
    52
 74
     0
 42
0.0000000001
 43
0.0000000001
 12
1.0
 22
0.0
 32
0.0
 13
1.0
 23
0.0
 33
0.0
 40
0.0
 40
0.0
 40
0.0
 40
0.0
 40
0.0714285714285714
 40
0.0714285714285714
 40
0.0714285714285714
 40
0.0714285714285714
 40
0.1428571428571428
 40
0.1428571428571428
 40
0.1428571428571428
 40
0.1428571428571428
 40
0.2142857142857143
 40
0.2142857142857143
 40
0.2142857142857143
 40
0.2142857142857143
 40
0.2857142857142857
 40
0.2857142857142857
 40
0.2857142857142857
 40
0.2857142857142857
 40
0.3571428571428572
 40
0.3571428571428572
 40
0.3571428571428572
 40
0.3571428571428572
 40
0.4285714285714285
 40
0.4285714285714285
 40
0.4285714285714285
 40
0.4285714285714285
 40
0.5
 40
0.5
 40
0.5
 40
0.5
 40
0.5714285714285714
 40
0.5714285714285714
 40
0.5714285714285714
 40
0.5714285714285714
 40
0.6428571428571429
 40
0.6428571428571429
 40
0.6428571428571429
 40
0.6428571428571429
 40
0.7142857142857143
 40
0.7142857142857143
 40
0.7142857142857143
 40
0.7142857142857143
 40
0.7857142857142857
 40
0.7857142857142857
 40
0.7857142857142857
 40
0.7857142857142857
 40
0.8571428571428571
 40
0.8571428571428571
 40
0.8571428571428571
 40
0.8571428571428571
 40
1.0
 40
1.0
 40
1.0
 40
1.0
 10
23.6746
 20
66.0028
 30
0.0
 10
23.6746
 20
66.0028
 30
0.0
 10
27.7734
 20
66.0028
 30
0.0
 10
27.7734
 20
66.0028
 30
0.0
 10
27.7734
 20
66.0028
 30
0.0
 10
28.5279
 20
62.3344
 30
0.0
 10
30.1271
 20
57.7632
 30
0.0
 10
33.1972
 20
54.6139
 30
0.0
 10
33.1972
 20
54.6139
 30
0.0
 10
33.1972
 20
54.6139
 30
0.0
 10
32.6513
 20
52.7793
 30
0.0
 10
33.7431
 20
51.4033
 30
0.0
 10
33.7431
 20
51.4033
 30
0.0
 10
33.7431
 20
51.4033
 30
0.0
 10
33.7976
 20
53.0086
 30
0.0
 10
34.3435
 20
53.238
 30
0.0
 10
34.3435
 20
53.238
 30
0.0
 10
34.3435
 20
53.238
 30
0.0
 10
36.0904
 20
51.4606
 30
0.0
 10
37.0731
 20
50.7726
 30
0.0
 10
37.0731
 20
50.7726
 30
0.0
 10
37.0731
 20
50.7726
 30
0.0
 10
34.1798
 20
49.7407
 30
0.0
 10
32.5421
 20
48.3648
 30
0.0
 10
32.5421
 20
48.3648
 30
0.0
 10
30.9044
 20
46.9888
 30
0.0
 10
28.7754
 20
48.0781
 30
0.0
 10
28.1749
 20
49.2247
 30
0.0
 10
28.1749
 20
49.2247
 30
0.0
 10
27.5744
 20
50.3713
 30
0.0
 10
28.83
 20
51.2313
 30
0.0
 10
27.9566
 20
51.9193
 30
0.0
 10
27.9566
 20
51.9193
 30
0.0
 10
27.0831
 20
52.6073
 30
0.0
 10
25.773
 20
51.3459
 30
0.0
 10
25.8276
 20
49.3966
 30
0.0
 10
25.8276
 20
49.3966
 30
0.0
 10
25.8822
 20
47.4474
 30
0.0
 10
27.9566
 20
45.7274
 30
0.0
 10
29.5397
 20
45.6701
 30
0.0
 10
29.5397
 20
45.6701
 30
0.0
 10
29.5397
 20
45.6701
 30
0.0
 10
27.6906
 20
43.2065
 30
0.0
 10
27.6409
 20
38.4091
 30
0.0
 10
27.6409
 20
38.4091
 30
0.0
 10
27.6409
 20
38.4091
 30
0.0
 10
23.6746
 20
38.4091
 30
0.0
 10
23.6746
 20
38.4091
 30
0.0
 10
23.6746
 20
38.4091
 30
0.0
 10
23.6746
 20
38.4091
 30
0.0
 10
23.6746
 20
66.0028
 30
0.0
 10
23.6746
 20
66.0028
 30
0.0
  0
SPLINE
  5
AC
330
1F
100
AcDbEntity
  8
layer 1
 62
     7
100
AcDbSpline
210
0.0
220
0.0
230
1.0
 70
    11
 71
     3
 72
    32
 73
    28
 74
     0
 42
0.0000000001
 43
0.0000000001
 12
1.0
 22
0.0
 32
0.0
 13
1.0
 23
0.0
 33
0.0
 40
0.0
 40
0.0
 40
0.0
 40
0.0
 40
0.125
 40
0.125
 40
0.125
 40
0.125
 40
0.25
 40
0.25
 40
0.25
 40
0.25
 40
0.375
 40
0.375
 40
0.375
 40
0.375
 40
0.5
 40
0.5
 40
0.5
 40
0.5
 40
0.625
 40
0.625
 40
0.625
 40
0.625
 40
0.75
 40
0.75
 40
0.75
 40
0.75
 40
1.0
 40
1.0
 40
1.0
 40
1.0
 10
23.6746
 20
88.9929
 30
0.0
 10
23.6746
 20
88.9929
 30
0.0
 10
32.1054
 20
88.9929
 30
0.0
 10
32.1054
 20
88.9929
 30
0.0
 10
32.1054
 20
88.9929
 30
0.0
 10
32.1054
 20
88.9929
 30
0.0
 10
27.7382
 20
82.0557
 30
0.0
 10
27.7382
 20
75.3107
 30
0.0
 10
27.7382
 20
75.3107
 30
0.0
 10
27.7382
 20
75.3107
 30
0.0
 10
25.1725
 20
76.572
 30
0.0
 10
24.3537
 20
73.6481
 30
0.0
 10
24.3537
 20
73.6481
 30
0.0
 10
24.3537
 20
73.6481
 30
0.0
 10
27.1377
 20
73.8773
 30
0.0
 10
27.1923
 20
70.7242
 30
0.0
 10
27.1923
 20
70.7242
 30
0.0
 10
27.2022
 20
70.1524
 30
0.0
 10
27.2519
 20
69.4159
 30
0.0
 10
27.3541
 20
68.5656
 30
0.0
 10
27.3541
 20
68.5656
 30
0.0
 10
27.3541
 20
68.5656
 30
0.0
 10
23.6746
 20
68.5656
 30
0.0
 10
23.6746
 20
68.5656
 30
0.0
 10
23.6746
 20
68.5656
 30
0.0
 10
23.6746
 20
68.5656
 30
0.0
 10
23.6746
 20
88.9929
 30
0.0
 10
23.6746
 20
88.9929
 30
0.0
  0
SPLINE
  5
AD
330
1F
100
AcDbEntity
  8
layer 1
 62
     7
100
AcDbSpline
210
0.0
220
0.0
230
1.0
 70
    11
 71
     3
 72
    28
 73
    24
 74
     0
 42
0.0000000001
 43
0.0000000001
 12
1.0
 22
0.0
 32
0.0
 13
1.0
 23
0.0
 33
0.0
 40
0.0
 40
0.0
 40
0.0
 40
0.0
 40
0.1428571428571428
 40
0.1428571428571428
 40
0.1428571428571428
 40
0.1428571428571428
 40
0.2857142857142857
 40
0.2857142857142857
 40
0.2857142857142857
 40
0.2857142857142857
 40
0.4285714285714285
 40
0.4285714285714285
 40
0.4285714285714285
 40
0.4285714285714285
 40
0.5714285714285714
 40
0.5714285714285714
 40
0.5714285714285714
 40
0.5714285714285714
 40
0.7142857142857143
 40
0.7142857142857143
 40
0.7142857142857143
 40
0.7142857142857143
 40
1.0
 40
1.0
 40
1.0
 40
1.0
 10
32.2044
 20
123.1202
 30
0.0
 10
30.9839
 20
122.2714
 30
0.0
 10
30.9448
 20
120.4218
 30
0.0
 10
30.9446
 20
120.4136
 30
0.0
 10
30.9446
 20
120.4136
 30
0.0
 10
30.9446
 20
120.4136
 30
0.0
 10
30.9398
 20
120.3735
 30
0.0
 10
30.9398
 20
120.3735
 30
0.0
 10
30.9398
 20
120.3735
 30
0.0
 10
30.9398
 20
120.3735
 30
0.0
 10
30.9398
 20
103.4234
 30
0.0
 10
30.9398
 20
103.4234
 30
0.0
 10
30.9398
 20
103.4234
 30
0.0
 10
30.9398
 20
103.4234
 30
0.0
 10
23.6746
 20
103.4234
 30
0.0
 10
23.6746
 20
103.4234
 30
0.0
 10
23.6746
 20
103.4234
 30
0.0
 10
23.6746
 20
103.4234
 30
0.0
 10
23.6746
 20
123.1202
 30
0.0
 10
23.6746
 20
123.1202
 30
0.0
 10
23.6746
 20
123.1202
 30
0.0
 10
23.6746
 20
123.1202
 30
0.0
 10
32.2044
 20
123.1202
 30
0.0
 10
32.2044
 20
123.1202
 30
0.0
  0
SPLINE
  5
AE
330
1F
100
AcDbEntity
  8
layer 1
 62
     7
100
AcDbSpline
210
0.0
220
0.0
230
1.0
 70
    11
 71
     3
 72
    56
 73
    52
 74
     0
 42
0.0000000001
 43
0.0000000001
 12
1.0
 22
0.0
 32
0.0
 13
1.0
 23
0.0
 33
0.0
 40
0.0
 40
0.0
 40
0.0
 40
0.0
 40
0.0714285714285714
 40
0.0714285714285714
 40
0.0714285714285714
 40
0.0714285714285714
 40
0.1428571428571428
 40
0.1428571428571428
 40
0.1428571428571428
 40
0.1428571428571428
 40
0.2142857142857143
 40
0.2142857142857143
 40
0.2142857142857143
 40
0.2142857142857143
 40
0.2857142857142857
 40
0.2857142857142857
 40
0.2857142857142857
 40
0.2857142857142857
 40
0.3571428571428572
 40
0.3571428571428572
 40
0.3571428571428572
 40
0.3571428571428572
 40
0.4285714285714285
 40
0.4285714285714285
 40
0.4285714285714285
 40
0.4285714285714285
 40
0.5
 40
0.5
 40
0.5
 40
0.5
 40
0.5714285714285714
 40
0.5714285714285714
 40
0.5714285714285714
 40
0.5714285714285714
 40
0.6428571428571429
 40
0.6428571428571429
 40
0.6428571428571429
 40
0.6428571428571429
 40
0.7142857142857143
 40
0.7142857142857143
 40
0.7142857142857143
 40
0.7142857142857143
 40
0.7857142857142857
 40
0.7857142857142857
 40
0.7857142857142857
 40
0.7857142857142857
 40
0.8571428571428571
 40
0.8571428571428571
 40
0.8571428571428571
 40
0.8571428571428571
 40
1.0
 40
1.0
 40
1.0
 40
1.0
 10
40.7659
 20
123.1202
 30
0.0
 10
40.7659
 20
123.1202
 30
0.0
 10
40.7659
 20
115.5052
 30
0.0
 10
40.7659
 20
115.5052
 30
0.0
 10
40.7659
 20
115.5052
 30
0.0
 10
38.6729
 20
114.2252
 30
0.0
 10
39.1942
 20
110.9876
 30
0.0
 10
39.4749
 20
110.7418
 30
0.0
 10
39.4749
 20
110.7418
 30
0.0
 10
39.8025
 20
110.4552
 30
0.0
 10
40.2392
 20
111.0858
 30
0.0
 10
40.3484
 20
112.3471
 30
0.0
 10
40.3484
 20
112.3471
 30
0.0
 10
40.3774
 20
112.6818
 30
0.0
 10
40.5217
 20
113.0043
 30
0.0
 10
40.7659
 20
113.2591
 30
0.0
 10
40.7659
 20
113.2591
 30
0.0
 10
40.7659
 20
113.2591
 30
0.0
 10
40.7659
 20
104.0913
 30
0.0
 10
40.7659
 20
104.0913
 30
0.0
 10
40.7659
 20
104.0913
 30
0.0
 10
40.7659
 20
104.0913
 30
0.0
 10
40.7659
 20
103.4234
 30
0.0
 10
40.7659
 20
103.4234
 30
0.0
 10
40.7659
 20
103.4234
 30
0.0
 10
40.7659
 20
103.4234
 30
0.0
 10
40.403
 20
103.4234
 30
0.0
 10
40.403
 20
103.4234
 30
0.0
 10
40.403
 20
103.4234
 30
0.0
 10
40.403
 20
103.4234
 30
0.0
 10
33.3801
 20
103.4234
 30
0.0
 10
33.3801
 20
103.4234
 30
0.0
 10
33.3801
 20
103.4234
 30
0.0
 10
33.3801
 20
103.4234
 30
0.0
 10
33.3801
 20
120.3735
 30
0.0
 10
33.3801
 20
120.3735
 30
0.0
 10
33.3801
 20
120.3735
 30
0.0
 10
33.3801
 20
120.3735
 30
0.0
 10
33.3787
 20
120.3735
 30
0.0
 10
33.3787
 20
120.3735
 30
0.0
 10
33.3787
 20
120.3735
 30
0.0
 10
33.4955
 20
120.9101
 30
0.0
 10
34.1957
 20
121.2736
 30
0.0
 10
34.979
 20
120.5635
 30
0.0
 10
34.979
 20
120.5635
 30
0.0
 10
35.4216
 20
121.0908
 30
0.0
 10
35.7532
 20
122.4286
 30
0.0
 10
35.0494
 20
123.1202
 30
0.0
 10
35.0494
 20
123.1202
 30
0.0
 10
35.0494
 20
123.1202
 30
0.0
 10
40.7659
 20
123.1202
 30
0.0
 10
40.7659
 20
123.1202
 30
0.0
  0
SPLINE
  5
AF
330
1F
100
AcDbEntity
  8
layer 1
 62
     7
100
AcDbSpline
210
0.0
220
0.0
230
1.0
 70
    11
 71
     3
 72
    24
 73
    20
 74
     0
 42
0.0000000001
 43
0.0000000001
 12
1.0
 22
0.0
 32
0.0
 13
1.0
 23
0.0
 33
0.0
 40
0.0
 40
0.0
 40
0.0
 40
0.0
 40
0.1666666666666667
 40
0.1666666666666667
 40
0.1666666666666667
 40
0.1666666666666667
 40
0.3333333333333333
 40
0.3333333333333333
 40
0.3333333333333333
 40
0.3333333333333333
 40
0.5
 40
0.5
 40
0.5
 40
0.5
 40
0.6666666666666666
 40
0.6666666666666666
 40
0.6666666666666666
 40
0.6666666666666666
 40
1.0
 40
1.0
 40
1.0
 40
1.0
 10
59.4002
 20
123.1202
 30
0.0
 10
59.4002
 20
123.1202
 30
0.0
 10
59.4002
 20
112.2898
 30
0.0
 10
59.4002
 20
112.2898
 30
0.0
 10
59.4002
 20
112.2898
 30
0.0
 10
59.4002
 20
112.2898
 30
0.0
 10
57.7079
 20
115.2137
 30
0.0
 10
54.3234
 20
114.6977
 30
0.0
 10
54.3234
 20
114.6977
 30
0.0
 10
53.6938
 20
114.6017
 30
0.0
 10
53.2212
 20
114.4918
 30
0.0
 10
52.8686
 20
114.3765
 30
0.0
 10
52.8686
 20
114.3765
 30
0.0
 10
52.8686
 20
114.3765
 30
0.0
 10
52.8686
 20
123.1202
 30
0.0
 10
52.8686
 20
123.1202
 30
0.0
 10
52.8686
 20
123.1202
 30
0.0
 10
52.8686
 20
123.1202
 30
0.0
 10
59.4002
 20
123.1202
 30
0.0
 10
59.4002
 20
123.1202
 30
0.0
  0
SPLINE
  5
B0
330
1F
100
AcDbEntity
  8
layer 1
 62
     7
100
AcDbSpline
210
0.0
220
0.0
230
1.0
 70
    11
 71
     3
 72
    24
 73
    20
 74
     0
 42
0.0000000001
 43
0.0000000001
 12
1.0
 22
0.0
 32
0.0
 13
1.0
 23
0.0
 33
0.0
 40
0.0
 40
0.0
 40
0.0
 40
0.0
 40
0.1666666666666667
 40
0.1666666666666667
 40
0.1666666666666667
 40
0.1666666666666667
 40
0.3333333333333333
 40
0.3333333333333333
 40
0.3333333333333333
 40
0.3333333333333333
 40
0.5
 40
0.5
 40
0.5
 40
0.5
 40
0.6666666666666666
 40
0.6666666666666666
 40
0.6666666666666666
 40
0.6666666666666666
 40
1.0
 40
1.0
 40
1.0
 40
1.0
 10
68.4426
 20
123.1202
 30
0.0
 10
68.4426
 20
123.1202
 30
0.0
 10
68.4426
 20
114.3765
 30
0.0
 10
68.4426
 20
114.3765
 30
0.0
 10
68.4426
 20
114.3765
 30
0.0
 10
68.09
 20
114.4918
 30
0.0
 10
67.6175
 20
114.6017
 30
0.0
 10
66.9878
 20
114.6977
 30
0.0
 10
66.9878
 20
114.6977
 30
0.0
 10
63.6033
 20
115.2137
 30
0.0
 10
61.911
 20
112.2898
 30
0.0
 10
61.911
 20
112.2898
 30
0.0
 10
61.911
 20
112.2898
 30
0.0
 10
61.911
 20
112.2898
 30
0.0
 10
61.911
 20
123.1202
 30
0.0
 10
61.911
 20
123.1202
 30
0.0
 10
61.911
 20
123.1202
 30
0.0
 10
61.911
 20
123.1202
 30
0.0
 10
68.4426
 20
123.1202
 30
0.0
 10
68.4426
 20
123.1202
 30
0.0
  0
SPLINE
  5
B1
330
1F
100
AcDbEntity
  8
layer 1
 62
     7
100
AcDbSpline
210
0.0
220
0.0
230
1.0
 70
    11
 71
     3
 72
    56
 73
    52
 74
     0
 42
0.0000000001
 43
0.0000000001
 12
1.0
 22
0.0
 32
0.0
 13
1.0
 23
0.0
 33
0.0
 40
0.0
 40
0.0
 40
0.0
 40
0.0
 40
0.0714285714285714
 40
0.0714285714285714
 40
0.0714285714285714
 40
0.0714285714285714
 40
0.1428571428571428
 40
0.1428571428571428
 40
0.1428571428571428
 40
0.1428571428571428
 40
0.2142857142857143
 40
0.2142857142857143
 40
0.2142857142857143
 40
0.2142857142857143
 40
0.2857142857142857
 40
0.2857142857142857
 40
0.2857142857142857
 40
0.2857142857142857
 40
0.3571428571428572
 40
0.3571428571428572
 40
0.3571428571428572
 40
0.3571428571428572
 40
0.4285714285714285
 40
0.4285714285714285
 40
0.4285714285714285
 40
0.4285714285714285
 40
0.5
 40
0.5
 40
0.5
 40
0.5
 40
0.5714285714285714
 40
0.5714285714285714
 40
0.5714285714285714
 40
0.5714285714285714
 40
0.6428571428571429
 40
0.6428571428571429
 40
0.6428571428571429
 40
0.6428571428571429
 40
0.7142857142857143
 40
0.7142857142857143
 40
0.7142857142857143
 40
0.7142857142857143
 40
0.7857142857142857
 40
0.7857142857142857
 40
0.7857142857142857
 40
0.7857142857142857
 40
0.8571428571428571
 40
0.8571428571428571
 40
0.8571428571428571
 40
0.8571428571428571
 40
1.0
 40
1.0
 40
1.0
 40
1.0
 10
86.2618
 20
123.1202
 30
0.0
 10
85.558
 20
122.4286
 30
0.0
 10
85.8896
 20
121.0908
 30
0.0
 10
86.3323
 20
120.5635
 30
0.0
 10
86.3323
 20
120.5635
 30
0.0
 10
87.1155
 20
121.2736
 30
0.0
 10
87.8158
 20
120.9101
 30
0.0
 10
87.9325
 20
120.3735
 30
0.0
 10
87.9325
 20
120.3735
 30
0.0
 10
87.9325
 20
120.3735
 30
0.0
 10
87.9311
 20
120.3735
 30
0.0
 10
87.9311
 20
120.3735
 30
0.0
 10
87.9311
 20
120.3735
 30
0.0
 10
87.9311
 20
120.3735
 30
0.0
 10
87.9311
 20
103.4234
 30
0.0
 10
87.9311
 20
103.4234
 30
0.0
 10
87.9311
 20
103.4234
 30
0.0
 10
87.9311
 20
103.4234
 30
0.0
 10
80.9083
 20
103.4234
 30
0.0
 10
80.9083
 20
103.4234
 30
0.0
 10
80.9083
 20
103.4234
 30
0.0
 10
80.9083
 20
103.4234
 30
0.0
 10
80.5453
 20
103.4234
 30
0.0
 10
80.5453
 20
103.4234
 30
0.0
 10
80.5453
 20
103.4234
 30
0.0
 10
80.5453
 20
103.4234
 30
0.0
 10
80.5453
 20
104.0913
 30
0.0
 10
80.5453
 20
104.0913
 30
0.0
 10
80.5453
 20
104.0913
 30
0.0
 10
80.5453
 20
104.0913
 30
0.0
 10
80.5453
 20
113.2591
 30
0.0
 10
80.5453
 20
113.2591
 30
0.0
 10
80.5453
 20
113.2591
 30
0.0
 10
80.7895
 20
113.0043
 30
0.0
 10
80.9339
 20
112.6818
 30
0.0
 10
80.9628
 20
112.3471
 30
0.0
 10
80.9628
 20
112.3471
 30
0.0
 10
81.072
 20
111.0858
 30
0.0
 10
81.5087
 20
110.4552
 30
0.0
 10
81.8363
 20
110.7418
 30
0.0
 10
81.8363
 20
110.7418
 30
0.0
 10
82.1171
 20
110.9876
 30
0.0
 10
82.6383
 20
114.2252
 30
0.0
 10
80.5453
 20
115.5052
 30
0.0
 10
80.5453
 20
115.5052
 30
0.0
 10
80.5453
 20
115.5052
 30
0.0
 10
80.5453
 20
123.1202
 30
0.0
 10
80.5453
 20
123.1202
 30
0.0
 10
80.5453
 20
123.1202
 30
0.0
 10
80.5453
 20
123.1202
 30
0.0
 10
86.2618
 20
123.1202
 30
0.0
 10
86.2618
 20
123.1202
 30
0.0
  0
SPLINE
  5
B2
330
1F
100
AcDbEntity
  8
layer 1
 62
     7
100
AcDbSpline
210
0.0
220
0.0
230
1.0
 70
    11
 71
     3
 72
    28
 73
    24
 74
     0
 42
0.0000000001
 43
0.0000000001
 12
1.0
 22
0.0
 32
0.0
 13
1.0
 23
0.0
 33
0.0
 40
0.0
 40
0.0
 40
0.0
 40
0.0
 40
0.1428571428571428
 40
0.1428571428571428
 40
0.1428571428571428
 40
0.1428571428571428
 40
0.2857142857142857
 40
0.2857142857142857
 40
0.2857142857142857
 40
0.2857142857142857
 40
0.4285714285714285
 40
0.4285714285714285
 40
0.4285714285714285
 40
0.4285714285714285
 40
0.5714285714285714
 40
0.5714285714285714
 40
0.5714285714285714
 40
0.5714285714285714
 40
0.7142857142857143
 40
0.7142857142857143
 40
0.7142857142857143
 40
0.7142857142857143
 40
1.0
 40
1.0
 40
1.0
 40
1.0
 10
97.6366
 20
103.4234
 30
0.0
 10
97.6366
 20
103.4234
 30
0.0
 10
90.3714
 20
103.4234
 30
0.0
 10
90.3714
 20
103.4234
 30
0.0
 10
90.3714
 20
103.4234
 30
0.0
 10
90.3714
 20
103.4234
 30
0.0
 10
90.3714
 20
120.3735
 30
0.0
 10
90.3714
 20
120.3735
 30
0.0
 10
90.3714
 20
120.3735
 30
0.0
 10
90.3714
 20
120.3735
 30
0.0
 10
90.3667
 20
120.4136
 30
0.0
 10
90.3667
 20
120.4136
 30
0.0
 10
90.3667
 20
120.4136
 30
0.0
 10
90.3664
 20
120.4218
 30
0.0
 10
90.3274
 20
122.2714
 30
0.0
 10
89.1068
 20
123.1202
 30
0.0
 10
89.1068
 20
123.1202
 30
0.0
 10
89.1068
 20
123.1202
 30
0.0
 10
97.6366
 20
123.1202
 30
0.0
 10
97.6366
 20
123.1202
 30
0.0
 10
97.6366
 20
123.1202
 30
0.0
 10
97.6366
 20
123.1202
 30
0.0
 10
97.6366
 20
103.4234
 30
0.0
 10
97.6366
 20
103.4234
 30
0.0
  0
SPLINE
  5
B3
330
1F
100
AcDbEntity
  8
layer 1
 62
     7
100
AcDbSpline
210
0.0
220
0.0
230
1.0
 70
    11
 71
     3
 72
    32
 73
    28
 74
     0
 42
0.0000000001
 43
0.0000000001
 12
1.0
 22
0.0
 32
0.0
 13
1.0
 23
0.0
 33
0.0
 40
0.0
 40
0.0
 40
0.0
 40
0.0
 40
0.125
 40
0.125
 40
0.125
 40
0.125
 40
0.25
 40
0.25
 40
0.25
 40
0.25
 40
0.375
 40
0.375
 40
0.375
 40
0.375
 40
0.5
 40
0.5
 40
0.5
 40
0.5
 40
0.625
 40
0.625
 40
0.625
 40
0.625
 40
0.75
 40
0.75
 40
0.75
 40
0.75
 40
1.0
 40
1.0
 40
1.0
 40
1.0
 10
97.6366
 20
68.5656
 30
0.0
 10
97.6366
 20
68.5656
 30
0.0
 10
93.9572
 20
68.5656
 30
0.0
 10
93.9572
 20
68.5656
 30
0.0
 10
93.9572
 20
68.5656
 30
0.0
 10
94.0594
 20
69.4159
 30
0.0
 10
94.109
 20
70.1524
 30
0.0
 10
94.119
 20
70.7242
 30
0.0
 10
94.119
 20
70.7242
 30
0.0
 10
94.1735
 20
73.8773
 30
0.0
 10
96.9576
 20
73.6481
 30
0.0
 10
96.9576
 20
73.6481
 30
0.0
 10
96.9576
 20
73.6481
 30
0.0
 10
96.1388
 20
76.572
 30
0.0
 10
93.5731
 20
75.3107
 30
0.0
 10
93.5731
 20
75.3107
 30
0.0
 10
93.5731
 20
75.3107
 30
0.0
 10
93.5731
 20
82.0557
 30
0.0
 10
89.2059
 20
88.9929
 30
0.0
 10
89.2059
 20
88.9929
 30
0.0
 10
89.2059
 20
88.9929
 30
0.0
 10
89.2059
 20
88.9929
 30
0.0
 10
97.6366
 20
88.9929
 30
0.0
 10
97.6366
 20
88.9929
 30
0.0
 10
97.6366
 20
88.9929
 30
0.0
 10
97.6366
 20
88.9929
 30
0.0
 10
97.6366
 20
68.5656
 30
0.0
 10
97.6366
 20
68.5656
 30
0.0
  0
SPLINE
  5
B4
330
1F
100
AcDbEntity
  8
layer 1
 62
     7
100
AcDbSpline
210
0.0
220
0.0
230
1.0
 70
    11
 71
     3
 72
    56
 73
    52
 74
     0
 42
0.0000000001
 43
0.0000000001
 12
1.0
 22
0.0
 32
0.0
 13
1.0
 23
0.0
 33
0.0
 40
0.0
 40
0.0
 40
0.0
 40
0.0
 40
0.0714285714285714
 40
0.0714285714285714
 40
0.0714285714285714
 40
0.0714285714285714
 40
0.1428571428571428
 40
0.1428571428571428
 40
0.1428571428571428
 40
0.1428571428571428
 40
0.2142857142857143
 40
0.2142857142857143
 40
0.2142857142857143
 40
0.2142857142857143
 40
0.2857142857142857
 40
0.2857142857142857
 40
0.2857142857142857
 40
0.2857142857142857
 40
0.3571428571428572
 40
0.3571428571428572
 40
0.3571428571428572
 40
0.3571428571428572
 40
0.4285714285714285
 40
0.4285714285714285
 40
0.4285714285714285
 40
0.4285714285714285
 40
0.5
 40
0.5
 40
0.5
 40
0.5
 40
0.5714285714285714
 40
0.5714285714285714
 40
0.5714285714285714
 40
0.5714285714285714
 40
0.6428571428571429
 40
0.6428571428571429
 40
0.6428571428571429
 40
0.6428571428571429
 40
0.7142857142857143
 40
0.7142857142857143
 40
0.7142857142857143
 40
0.7142857142857143
 40
0.7857142857142857
 40
0.7857142857142857
 40
0.7857142857142857
 40
0.7857142857142857
 40
0.8571428571428571
 40
0.8571428571428571
 40
0.8571428571428571
 40
0.8571428571428571
 40
1.0
 40
1.0
 40
1.0
 40
1.0
 10
97.6366
 20
38.4091
 30
0.0
 10
97.6366
 20
38.4091
 30
0.0
 10
93.6703
 20
38.4091
 30
0.0
 10
93.6703
 20
38.4091
 30
0.0
 10
93.6703
 20
38.4091
 30
0.0
 10
93.6207
 20
43.2065
 30
0.0
 10
91.7716
 20
45.6701
 30
0.0
 10
91.7716
 20
45.6701
 30
0.0
 10
91.7716
 20
45.6701
 30
0.0
 10
93.3547
 20
45.7274
 30
0.0
 10
95.4291
 20
47.4474
 30
0.0
 10
95.4837
 20
49.3966
 30
0.0
 10
95.4837
 20
49.3966
 30
0.0
 10
95.5383
 20
51.3459
 30
0.0
 10
94.2281
 20
52.6073
 30
0.0
 10
93.3547
 20
51.9193
 30
0.0
 10
93.3547
 20
51.9193
 30
0.0
 10
92.4813
 20
51.2313
 30
0.0
 10
93.7368
 20
50.3713
 30
0.0
 10
93.1363
 20
49.2247
 30
0.0
 10
93.1363
 20
49.2247
 30
0.0
 10
92.5359
 20
48.0781
 30
0.0
 10
90.4069
 20
46.9888
 30
0.0
 10
88.7691
 20
48.3648
 30
0.0
 10
88.7691
 20
48.3648
 30
0.0
 10
87.1315
 20
49.7407
 30
0.0
 10
84.2382
 20
50.7726
 30
0.0
 10
84.2382
 20
50.7726
 30
0.0
 10
84.2382
 20
50.7726
 30
0.0
 10
85.2208
 20
51.4606
 30
0.0
 10
86.9677
 20
53.238
 30
0.0
 10
86.9677
 20
53.238
 30
0.0
 10
86.9677
 20
53.238
 30
0.0
 10
87.5136
 20
53.0086
 30
0.0
 10
87.5682
 20
51.4033
 30
0.0
 10
87.5682
 20
51.4033
 30
0.0
 10
87.5682
 20
51.4033
 30
0.0
 10
88.66
 20
52.7793
 30
0.0
 10
88.1141
 20
54.6139
 30
0.0
 10
88.1141
 20
54.6139
 30
0.0
 10
88.1141
 20
54.6139
 30
0.0
 10
91.1841
 20
57.7632
 30
0.0
 10
92.7833
 20
62.3344
 30
0.0
 10
93.5378
 20
66.0028
 30
0.0
 10
93.5378
 20
66.0028
 30
0.0
 10
93.5378
 20
66.0028
 30
0.0
 10
97.6366
 20
66.0028
 30
0.0
 10
97.6366
 20
66.0028
 30
0.0
 10
97.6366
 20
66.0028
 30
0.0
 10
97.6366
 20
66.0028
 30
0.0
 10
97.6366
 20
38.4091
 30
0.0
 10
97.6366
 20
38.4091
 30
0.0
  0
SPLINE
  5
B5
330
1F
100
AcDbEntity
  8
layer 1
 62
     7
100
AcDbSpline
210
0.0
220
0.0
230
1.0
 70
    11
 71
     3
 72
    28
 73
    24
 74
     0
 42
0.0000000001
 43
0.0000000001
 12
1.0
 22
0.0
 32
0.0
 13
1.0
 23
0.0
 33
0.0
 40
0.0
 40
0.0
 40
0.0
 40
0.0
 40
0.1428571428571428
 40
0.1428571428571428
 40
0.1428571428571428
 40
0.1428571428571428
 40
0.2857142857142857
 40
0.2857142857142857
 40
0.2857142857142857
 40
0.2857142857142857
 40
0.4285714285714285
 40
0.4285714285714285
 40
0.4285714285714285
 40
0.4285714285714285
 40
0.5714285714285714
 40
0.5714285714285714
 40
0.5714285714285714
 40
0.5714285714285714
 40
0.7142857142857143
 40
0.7142857142857143
 40
0.7142857142857143
 40
0.7142857142857143
 40
1.0
 40
1.0
 40
1.0
 40
1.0
 10
97.6366
 20
21.8658
 30
0.0
 10
97.3377
 20
22.0811
 30
0.0
 10
96.9706
 20
22.2214
 30
0.0
 10
96.5208
 20
22.2214
 30
0.0
 10
96.5208
 20
22.2214
 30
0.0
 10
94.5809
 20
22.2214
 30
0.0
 10
95.702
 20
20.7881
 30
0.0
 10
94.8832
 20
19.8135
 30
0.0
 10
94.8832
 20
19.8135
 30
0.0
 10
94.0644
 20
18.8388
 30
0.0
 10
91.1221
 20
18.8226
 30
0.0
 10
90.4069
 20
24.2853
 30
0.0
 10
90.4069
 20
24.2853
 30
0.0
 10
89.737
 20
29.401
 30
0.0
 10
92.811
 20
30.9187
 30
0.0
 10
93.5182
 20
35.8462
 30
0.0
 10
93.5182
 20
35.8462
 30
0.0
 10
93.5182
 20
35.8462
 30
0.0
 10
97.6366
 20
35.8462
 30
0.0
 10
97.6366
 20
35.8462
 30
0.0
 10
97.6366
 20
35.8462
 30
0.0
 10
97.6366
 20
35.8462
 30
0.0
 10
97.6366
 20
21.8658
 30
0.0
 10
97.6366
 20
21.8658
 30
0.0
  0
SPLINE
  5
B6
330
1F
100
AcDbEntity
  8
layer 1
 62
     7
100
AcDbSpline
210
0.0
220
0.0
230
1.0
 70
    11
 71
     3
 72
    40
 73
    36
 74
     0
 42
0.0000000001
 43
0.0000000001
 12
1.0
 22
0.0
 32
0.0
 13
1.0
 23
0.0
 33
0.0
 40
0.0
 40
0.0
 40
0.0
 40
0.0
 40
0.1
 40
0.1
 40
0.1
 40
0.1
 40
0.2
 40
0.2
 40
0.2
 40
0.2
 40
0.3
 40
0.3
 40
0.3
 40
0.3
 40
0.4
 40
0.4
 40
0.4
 40
0.4
 40
0.5
 40
0.5
 40
0.5
 40
0.5
 40
0.6
 40
0.6
 40
0.6
 40
0.6
 40
0.7
 40
0.7
 40
0.7
 40
0.7
 40
0.8
 40
0.8
 40
0.8
 40
0.8
 40
1.0
 40
1.0
 40
1.0
 40
1.0
 10
97.6366
 20
9.8377
 30
0.0
 10
97.6366
 20
9.8377
 30
0.0
 10
93.6035
 20
9.8377
 30
0.0
 10
93.6035
 20
9.8377
 30
0.0
 10
93.6035
 20
9.8377
 30
0.0
 10
93.4227
 20
11.3339
 30
0.0
 10
92.6556
 20
13.4697
 30
0.0
 10
89.7517
 20
13.5069
 30
0.0
 10
89.7517
 20
13.5069
 30
0.0
 10
89.7517
 20
13.5069
 30
0.0
 10
89.7356
 20
17.2908
 30
0.0
 10
86.168
 20
17.4628
 30
0.0
 10
86.168
 20
17.4628
 30
0.0
 10
86.168
 20
17.4628
 30
0.0
 10
86.168
 20
28.48
 30
0.0
 10
86.168
 20
28.48
 30
0.0
 10
86.168
 20
28.48
 30
0.0
 10
86.6068
 20
28.5614
 30
0.0
 10
86.9958
 20
28.6717
 30
0.0
 10
87.2952
 20
28.7858
 30
0.0
 10
87.2952
 20
28.7858
 30
0.0
 10
88.4224
 20
29.2159
 30
0.0
 10
89.0148
 20
28.7286
 30
0.0
 10
88.8784
 20
27.2666
 30
0.0
 10
88.8784
 20
27.2666
 30
0.0
 10
88.7418
 20
25.8046
 30
0.0
 10
88.6054
 20
18.6382
 30
0.0
 10
92.8906
 20
18.0648
 30
0.0
 10
92.8906
 20
18.0648
 30
0.0
 10
95.149
 20
17.7627
 30
0.0
 10
96.6868
 20
18.2089
 30
0.0
 10
97.6366
 20
18.6987
 30
0.0
 10
97.6366
 20
18.6987
 30
0.0
 10
97.6366
 20
18.6987
 30
0.0
 10
97.6366
 20
9.8377
 30
0.0
 10
97.6366
 20
9.8377
 30
0.0
  0
SPLINE
  5
B7
330
1F
100
AcDbEntity
  8
layer 1
 62
     7
100
AcDbSpline
210
0.0
220
0.0
230
1.0
 70
    11
 71
     3
 72
    40
 73
    36
 74
     0
 42
0.0000000001
 43
0.0000000001
 12
1.0
 22
0.0
 32
0.0
 13
1.0
 23
0.0
 33
0.0
 40
0.0
 40
0.0
 40
0.0
 40
0.0
 40
0.1
 40
0.1
 40
0.1
 40
0.1
 40
0.2
 40
0.2
 40
0.2
 40
0.2
 40
0.3
 40
0.3
 40
0.3
 40
0.3
 40
0.4
 40
0.4
 40
0.4
 40
0.4
 40
0.5
 40
0.5
 40
0.5
 40
0.5
 40
0.6
 40
0.6
 40
0.6
 40
0.6
 40
0.7
 40
0.7
 40
0.7
 40
0.7
 40
0.8
 40
0.8
 40
0.8
 40
0.8
 40
1.0
 40
1.0
 40
1.0
 40
1.0
 10
97.6366
 20
-1.8898
 30
0.0
 10
96.6868
 20
-1.4
 30
0.0
 10
95.149
 20
-0.9539
 30
0.0
 10
92.8906
 20
-1.256
 30
0.0
 10
92.8906
 20
-1.256
 30
0.0
 10
88.6054
 20
-1.8293
 30
0.0
 10
88.7418
 20
-8.9958
 30
0.0
 10
88.8784
 20
-10.4578
 30
0.0
 10
88.8784
 20
-10.4578
 30
0.0
 10
89.0148
 20
-11.9197
 30
0.0
 10
88.4224
 20
-12.407
 30
0.0
 10
87.2952
 20
-11.9771
 30
0.0
 10
87.2952
 20
-11.9771
 30
0.0
 10
86.9958
 20
-11.8628
 30
0.0
 10
86.6068
 20
-11.7526
 30
0.0
 10
86.168
 20
-11.6713
 30
0.0
 10
86.168
 20
-11.6713
 30
0.0
 10
86.168
 20
-11.6713
 30
0.0
 10
86.168
 20
-0.654
 30
0.0
 10
86.168
 20
-0.654
 30
0.0
 10
86.168
 20
-0.654
 30
0.0
 10
89.7356
 20
-0.4821
 30
0.0
 10
89.7517
 20
3.3019
 30
0.0
 10
89.7517
 20
3.3019
 30
0.0
 10
89.7517
 20
3.3019
 30
0.0
 10
92.6556
 20
3.3391
 30
0.0
 10
93.4227
 20
5.4749
 30
0.0
 10
93.6035
 20
6.9711
 30
0.0
 10
93.6035
 20
6.9711
 30
0.0
 10
93.6035
 20
6.9711
 30
0.0
 10
97.6366
 20
6.9711
 30
0.0
 10
97.6366
 20
6.9711
 30
0.0
 10
97.6366
 20
6.9711
 30
0.0
 10
97.6366
 20
6.9711
 30
0.0
 10
97.6366
 20
-1.8898
 30
0.0
 10
97.6366
 20
-1.8898
 30
0.0
  0
SPLINE
  5
B8
330
1F
100
AcDbEntity
  8
layer 1
 62
     7
100
AcDbSpline
210
0.0
220
0.0
230
1.0
 70
    11
 71
     3
 72
    28
 73
    24
 74
     0
 42
0.0000000001
 43
0.0000000001
 12
1.0
 22
0.0
 32
0.0
 13
1.0
 23
0.0
 33
0.0
 40
0.0
 40
0.0
 40
0.0
 40
0.0
 40
0.1428571428571428
 40
0.1428571428571428
 40
0.1428571428571428
 40
0.1428571428571428
 40
0.2857142857142857
 40
0.2857142857142857
 40
0.2857142857142857
 40
0.2857142857142857
 40
0.4285714285714285
 40
0.4285714285714285
 40
0.4285714285714285
 40
0.4285714285714285
 40
0.5714285714285714
 40
0.5714285714285714
 40
0.5714285714285714
 40
0.5714285714285714
 40
0.7142857142857143
 40
0.7142857142857143
 40
0.7142857142857143
 40
0.7142857142857143
 40
1.0
 40
1.0
 40
1.0
 40
1.0
 10
97.6366
 20
-19.0374
 30
0.0
 10
97.6366
 20
-19.0374
 30
0.0
 10
93.5182
 20
-19.0374
 30
0.0
 10
93.5182
 20
-19.0374
 30
0.0
 10
93.5182
 20
-19.0374
 30
0.0
 10
92.811
 20
-14.1098
 30
0.0
 10
89.737
 20
-12.5922
 30
0.0
 10
90.4069
 20
-7.4765
 30
0.0
 10
90.4069
 20
-7.4765
 30
0.0
 10
91.1221
 20
-2.0137
 30
0.0
 10
94.0644
 20
-2.03
 30
0.0
 10
94.8832
 20
-3.0046
 30
0.0
 10
94.8832
 20
-3.0046
 30
0.0
 10
95.702
 20
-3.9793
 30
0.0
 10
94.5809
 20
-5.4126
 30
0.0
 10
96.5208
 20
-5.4126
 30
0.0
 10
96.5208
 20
-5.4126
 30
0.0
 10
96.9706
 20
-5.4126
 30
0.0
 10
97.3377
 20
-5.2723
 30
0.0
 10
97.6366
 20
-5.0569
 30
0.0
 10
97.6366
 20
-5.0569
 30
0.0
 10
97.6366
 20
-5.0569
 30
0.0
 10
97.6366
 20
-19.0374
 30
0.0
 10
97.6366
 20
-19.0374
 30
0.0
  0
SPLINE
  5
B9
330
1F
100
AcDbEntity
  8
layer 1
 62
     7
100
AcDbSpline
210
0.0
220
0.0
230
1.0
 70
    11
 71
     3
 72
    56
 73
    52
 74
     0
 42
0.0000000001
 43
0.0000000001
 12
1.0
 22
0.0
 32
0.0
 13
1.0
 23
0.0
 33
0.0
 40
0.0
 40
0.0
 40
0.0
 40
0.0
 40
0.0714285714285714
 40
0.0714285714285714
 40
0.0714285714285714
 40
0.0714285714285714
 40
0.1428571428571428
 40
0.1428571428571428
 40
0.1428571428571428
 40
0.1428571428571428
 40
0.2142857142857143
 40
0.2142857142857143
 40
0.2142857142857143
 40
0.2142857142857143
 40
0.2857142857142857
 40
0.2857142857142857
 40
0.2857142857142857
 40
0.2857142857142857
 40
0.3571428571428572
 40
0.3571428571428572
 40
0.3571428571428572
 40
0.3571428571428572
 40
0.4285714285714285
 40
0.4285714285714285
 40
0.4285714285714285
 40
0.4285714285714285
 40
0.5
 40
0.5
 40
0.5
 40
0.5
 40
0.5714285714285714
 40
0.5714285714285714
 40
0.5714285714285714
 40
0.5714285714285714
 40
0.6428571428571429
 40
0.6428571428571429
 40
0.6428571428571429
 40
0.6428571428571429
 40
0.7142857142857143
 40
0.7142857142857143
 40
0.7142857142857143
 40
0.7142857142857143
 40
0.7857142857142857
 40
0.7857142857142857
 40
0.7857142857142857
 40
0.7857142857142857
 40
0.8571428571428571
 40
0.8571428571428571
 40
0.8571428571428571
 40
0.8571428571428571
 40
1.0
 40
1.0
 40
1.0
 40
1.0
 10
97.6366
 20
-49.194
 30
0.0
 10
97.6366
 20
-49.194
 30
0.0
 10
93.5378
 20
-49.194
 30
0.0
 10
93.5378
 20
-49.194
 30
0.0
 10
93.5378
 20
-49.194
 30
0.0
 10
92.7833
 20
-45.5256
 30
0.0
 10
91.1841
 20
-40.9543
 30
0.0
 10
88.1141
 20
-37.8051
 30
0.0
 10
88.1141
 20
-37.8051
 30
0.0
 10
88.1141
 20
-37.8051
 30
0.0
 10
88.66
 20
-35.9705
 30
0.0
 10
87.5682
 20
-34.5945
 30
0.0
 10
87.5682
 20
-34.5945
 30
0.0
 10
87.5682
 20
-34.5945
 30
0.0
 10
87.5136
 20
-36.1997
 30
0.0
 10
86.9677
 20
-36.4291
 30
0.0
 10
86.9677
 20
-36.4291
 30
0.0
 10
86.9677
 20
-36.4291
 30
0.0
 10
85.2208
 20
-34.6518
 30
0.0
 10
84.2382
 20
-33.9639
 30
0.0
 10
84.2382
 20
-33.9639
 30
0.0
 10
84.2382
 20
-33.9639
 30
0.0
 10
87.1315
 20
-32.9319
 30
0.0
 10
88.7691
 20
-31.5559
 30
0.0
 10
88.7691
 20
-31.5559
 30
0.0
 10
90.4069
 20
-30.1799
 30
0.0
 10
92.5359
 20
-31.2692
 30
0.0
 10
93.1363
 20
-32.4158
 30
0.0
 10
93.1363
 20
-32.4158
 30
0.0
 10
93.7368
 20
-33.5625
 30
0.0
 10
92.4813
 20
-34.4225
 30
0.0
 10
93.3547
 20
-35.1105
 30
0.0
 10
93.3547
 20
-35.1105
 30
0.0
 10
94.2281
 20
-35.7985
 30
0.0
 10
95.5383
 20
-34.5371
 30
0.0
 10
95.4837
 20
-32.5879
 30
0.0
 10
95.4837
 20
-32.5879
 30
0.0
 10
95.4291
 20
-30.6386
 30
0.0
 10
93.3547
 20
-28.9186
 30
0.0
 10
91.7716
 20
-28.8613
 30
0.0
 10
91.7716
 20
-28.8613
 30
0.0
 10
91.7716
 20
-28.8613
 30
0.0
 10
93.6207
 20
-26.3977
 30
0.0
 10
93.6703
 20
-21.6003
 30
0.0
 10
93.6703
 20
-21.6003
 30
0.0
 10
93.6703
 20
-21.6003
 30
0.0
 10
97.6366
 20
-21.6003
 30
0.0
 10
97.6366
 20
-21.6003
 30
0.0
 10
97.6366
 20
-21.6003
 30
0.0
 10
97.6366
 20
-21.6003
 30
0.0
 10
97.6366
 20
-49.194
 30
0.0
 10
97.6366
 20
-49.194
 30
0.0
  0
SPLINE
  5
BA
330
1F
100
AcDbEntity
  8
layer 1
 62
     7
100
AcDbSpline
210
0.0
220
0.0
230
1.0
 70
    11
 71
     3
 72
    32
 73
    28
 74
     0
 42
0.0000000001
 43
0.0000000001
 12
1.0
 22
0.0
 32
0.0
 13
1.0
 23
0.0
 33
0.0
 40
0.0
 40
0.0
 40
0.0
 40
0.0
 40
0.125
 40
0.125
 40
0.125
 40
0.125
 40
0.25
 40
0.25
 40
0.25
 40
0.25
 40
0.375
 40
0.375
 40
0.375
 40
0.375
 40
0.5
 40
0.5
 40
0.5
 40
0.5
 40
0.625
 40
0.625
 40
0.625
 40
0.625
 40
0.75
 40
0.75
 40
0.75
 40
0.75
 40
1.0
 40
1.0
 40
1.0
 40
1.0
 10
97.6366
 20
-72.184
 30
0.0
 10
97.6366
 20
-72.184
 30
0.0
 10
89.2059
 20
-72.184
 30
0.0
 10
89.2059
 20
-72.184
 30
0.0
 10
89.2059
 20
-72.184
 30
0.0
 10
89.2059
 20
-72.184
 30
0.0
 10
93.5731
 20
-65.2468
 30
0.0
 10
93.5731
 20
-58.5019
 30
0.0
 10
93.5731
 20
-58.5019
 30
0.0
 10
93.5731
 20
-58.5019
 30
0.0
 10
96.1388
 20
-59.7631
 30
0.0
 10
96.9576
 20
-56.8392
 30
0.0
 10
96.9576
 20
-56.8392
 30
0.0
 10
96.9576
 20
-56.8392
 30
0.0
 10
94.1735
 20
-57.0686
 30
0.0
 10
94.119
 20
-53.9153
 30
0.0
 10
94.119
 20
-53.9153
 30
0.0
 10
94.109
 20
-53.3435
 30
0.0
 10
94.0594
 20
-52.6071
 30
0.0
 10
93.9572
 20
-51.7568
 30
0.0
 10
93.9572
 20
-51.7568
 30
0.0
 10
93.9572
 20
-51.7568
 30
0.0
 10
97.6366
 20
-51.7568
 30
0.0
 10
97.6366
 20
-51.7568
 30
0.0
 10
97.6366
 20
-51.7568
 30
0.0
 10
97.6366
 20
-51.7568
 30
0.0
 10
97.6366
 20
-72.184
 30
0.0
 10
97.6366
 20
-72.184
 30
0.0
  0
SPLINE
  5
BB
330
1F
100
AcDbEntity
  8
layer 1
 62
     7
100
AcDbSpline
210
0.0
220
0.0
230
1.0
 70
    11
 71
     3
 72
    28
 73
    24
 74
     0
 42
0.0000000001
 43
0.0000000001
 12
1.0
 22
0.0
 32
0.0
 13
1.0
 23
0.0
 33
0.0
 40
0.0
 40
0.0
 40
0.0
 40
0.0
 40
0.1428571428571428
 40
0.1428571428571428
 40
0.1428571428571428
 40
0.1428571428571428
 40
0.2857142857142857
 40
0.2857142857142857
 40
0.2857142857142857
 40
0.2857142857142857
 40
0.4285714285714285
 40
0.4285714285714285
 40
0.4285714285714285
 40
0.4285714285714285
 40
0.5714285714285714
 40
0.5714285714285714
 40
0.5714285714285714
 40
0.5714285714285714
 40
0.7142857142857143
 40
0.7142857142857143
 40
0.7142857142857143
 40
0.7142857142857143
 40
1.0
 40
1.0
 40
1.0
 40
1.0
 10
89.1068
 20
-106.3114
 30
0.0
 10
90.3274
 20
-105.4626
 30
0.0
 10
90.3664
 20
-103.613
 30
0.0
 10
90.3667
 20
-103.6047
 30
0.0
 10
90.3667
 20
-103.6047
 30
0.0
 10
90.3667
 20
-103.6047
 30
0.0
 10
90.3714
 20
-103.5647
 30
0.0
 10
90.3714
 20
-103.5647
 30
0.0
 10
90.3714
 20
-103.5647
 30
0.0
 10
90.3714
 20
-103.5647
 30
0.0
 10
90.3714
 20
-86.6147
 30
0.0
 10
90.3714
 20
-86.6147
 30
0.0
 10
90.3714
 20
-86.6147
 30
0.0
 10
90.3714
 20
-86.6147
 30
0.0
 10
97.6366
 20
-86.6147
 30
0.0
 10
97.6366
 20
-86.6147
 30
0.0
 10
97.6366
 20
-86.6147
 30
0.0
 10
97.6366
 20
-86.6147
 30
0.0
 10
97.6366
 20
-106.3114
 30
0.0
 10
97.6366
 20
-106.3114
 30
0.0
 10
97.6366
 20
-106.3114
 30
0.0
 10
97.6366
 20
-106.3114
 30
0.0
 10
89.1068
 20
-106.3114
 30
0.0
 10
89.1068
 20
-106.3114
 30
0.0
  0
SPLINE
  5
BC
330
1F
100
AcDbEntity
  8
layer 1
 62
     7
100
AcDbSpline
210
0.0
220
0.0
230
1.0
 70
    11
 71
     3
 72
    56
 73
    52
 74
     0
 42
0.0000000001
 43
0.0000000001
 12
1.0
 22
0.0
 32
0.0
 13
1.0
 23
0.0
 33
0.0
 40
0.0
 40
0.0
 40
0.0
 40
0.0
 40
0.0714285714285714
 40
0.0714285714285714
 40
0.0714285714285714
 40
0.0714285714285714
 40
0.1428571428571428
 40
0.1428571428571428
 40
0.1428571428571428
 40
0.1428571428571428
 40
0.2142857142857143
 40
0.2142857142857143
 40
0.2142857142857143
 40
0.2142857142857143
 40
0.2857142857142857
 40
0.2857142857142857
 40
0.2857142857142857
 40
0.2857142857142857
 40
0.3571428571428572
 40
0.3571428571428572
 40
0.3571428571428572
 40
0.3571428571428572
 40
0.4285714285714285
 40
0.4285714285714285
 40
0.4285714285714285
 40
0.4285714285714285
 40
0.5
 40
0.5
 40
0.5
 40
0.5
 40
0.5714285714285714
 40
0.5714285714285714
 40
0.5714285714285714
 40
0.5714285714285714
 40
0.6428571428571429
 40
0.6428571428571429
 40
0.6428571428571429
 40
0.6428571428571429
 40
0.7142857142857143
 40
0.7142857142857143
 40
0.7142857142857143
 40
0.7142857142857143
 40
0.7857142857142857
 40
0.7857142857142857
 40
0.7857142857142857
 40
0.7857142857142857
 40
0.8571428571428571
 40
0.8571428571428571
 40
0.8571428571428571
 40
0.8571428571428571
 40
1.0
 40
1.0
 40
1.0
 40
1.0
 10
80.5453
 20
-106.3114
 30
0.0
 10
80.5453
 20
-106.3114
 30
0.0
 10
80.5453
 20
-98.6964
 30
0.0
 10
80.5453
 20
-98.6964
 30
0.0
 10
80.5453
 20
-98.6964
 30
0.0
 10
82.6383
 20
-97.4163
 30
0.0
 10
82.1171
 20
-94.1787
 30
0.0
 10
81.8363
 20
-93.933
 30
0.0
 10
81.8363
 20
-93.933
 30
0.0
 10
81.5087
 20
-93.6463
 30
0.0
 10
81.072
 20
-94.2769
 30
0.0
 10
80.9628
 20
-95.5382
 30
0.0
 10
80.9628
 20
-95.5382
 30
0.0
 10
80.9339
 20
-95.8729
 30
0.0
 10
80.7895
 20
-96.1955
 30
0.0
 10
80.5453
 20
-96.4502
 30
0.0
 10
80.5453
 20
-96.4502
 30
0.0
 10
80.5453
 20
-96.4502
 30
0.0
 10
80.5453
 20
-87.2824
 30
0.0
 10
80.5453
 20
-87.2824
 30
0.0
 10
80.5453
 20
-87.2824
 30
0.0
 10
80.5453
 20
-87.2824
 30
0.0
 10
80.5453
 20
-86.6147
 30
0.0
 10
80.5453
 20
-86.6147
 30
0.0
 10
80.5453
 20
-86.6147
 30
0.0
 10
80.5453
 20
-86.6147
 30
0.0
 10
80.9083
 20
-86.6147
 30
0.0
 10
80.9083
 20
-86.6147
 30
0.0
 10
80.9083
 20
-86.6147
 30
0.0
 10
80.9083
 20
-86.6147
 30
0.0
 10
87.9311
 20
-86.6147
 30
0.0
 10
87.9311
 20
-86.6147
 30
0.0
 10
87.9311
 20
-86.6147
 30
0.0
 10
87.9311
 20
-86.6147
 30
0.0
 10
87.9311
 20
-103.5647
 30
0.0
 10
87.9311
 20
-103.5647
 30
0.0
 10
87.9311
 20
-103.5647
 30
0.0
 10
87.9311
 20
-103.5647
 30
0.0
 10
87.9325
 20
-103.5647
 30
0.0
 10
87.9325
 20
-103.5647
 30
0.0
 10
87.9325
 20
-103.5647
 30
0.0
 10
87.8158
 20
-104.1013
 30
0.0
 10
87.1155
 20
-104.4648
 30
0.0
 10
86.3323
 20
-103.7547
 30
0.0
 10
86.3323
 20
-103.7547
 30
0.0
 10
85.8896
 20
-104.282
 30
0.0
 10
85.558
 20
-105.6197
 30
0.0
 10
86.2618
 20
-106.3114
 30
0.0
 10
86.2618
 20
-106.3114
 30
0.0
 10
86.2618
 20
-106.3114
 30
0.0
 10
80.5453
 20
-106.3114
 30
0.0
 10
80.5453
 20
-106.3114
 30
0.0
  0
SPLINE
  5
BD
330
1F
100
AcDbEntity
  8
layer 1
 62
     7
100
AcDbSpline
210
0.0
220
0.0
230
1.0
 70
    11
 71
     3
 72
    24
 73
    20
 74
     0
 42
0.0000000001
 43
0.0000000001
 12
1.0
 22
0.0
 32
0.0
 13
1.0
 23
0.0
 33
0.0
 40
0.0
 40
0.0
 40
0.0
 40
0.0
 40
0.1666666666666667
 40
0.1666666666666667
 40
0.1666666666666667
 40
0.1666666666666667
 40
0.3333333333333333
 40
0.3333333333333333
 40
0.3333333333333333
 40
0.3333333333333333
 40
0.5
 40
0.5
 40
0.5
 40
0.5
 40
0.6666666666666666
 40
0.6666666666666666
 40
0.6666666666666666
 40
0.6666666666666666
 40
1.0
 40
1.0
 40
1.0
 40
1.0
 10
61.911
 20
-106.3114
 30
0.0
 10
61.911
 20
-106.3114
 30
0.0
 10
61.911
 20
-95.4809
 30
0.0
 10
61.911
 20
-95.4809
 30
0.0
 10
61.911
 20
-95.4809
 30
0.0
 10
61.911
 20
-95.4809
 30
0.0
 10
63.6033
 20
-98.4048
 30
0.0
 10
66.9878
 20
-97.8889
 30
0.0
 10
66.9878
 20
-97.8889
 30
0.0
 10
67.6175
 20
-97.7928
 30
0.0
 10
68.09
 20
-97.683
 30
0.0
 10
68.4426
 20
-97.5677
 30
0.0
 10
68.4426
 20
-97.5677
 30
0.0
 10
68.4426
 20
-97.5677
 30
0.0
 10
68.4426
 20
-106.3114
 30
0.0
 10
68.4426
 20
-106.3114
 30
0.0
 10
68.4426
 20
-106.3114
 30
0.0
 10
68.4426
 20
-106.3114
 30
0.0
 10
61.911
 20
-106.3114
 30
0.0
 10
61.911
 20
-106.3114
 30
0.0
  0
SPLINE
  5
BE
330
1F
100
AcDbEntity
  8
layer 1
 62
     7
100
AcDbSpline
210
0.0
220
0.0
230
1.0
 70
    11
 71
     3
 72
    24
 73
    20
 74
     0
 42
0.0000000001
 43
0.0000000001
 12
1.0
 22
0.0
 32
0.0
 13
1.0
 23
0.0
 33
0.0
 40
0.0
 40
0.0
 40
0.0
 40
0.0
 40
0.1666666666666667
 40
0.1666666666666667
 40
0.1666666666666667
 40
0.1666666666666667
 40
0.3333333333333333
 40
0.3333333333333333
 40
0.3333333333333333
 40
0.3333333333333333
 40
0.5
 40
0.5
 40
0.5
 40
0.5
 40
0.6666666666666666
 40
0.6666666666666666
 40
0.6666666666666666
 40
0.6666666666666666
 40
1.0
 40
1.0
 40
1.0
 40
1.0
 10
52.8686
 20
-106.3114
 30
0.0
 10
52.8686
 20
-106.3114
 30
0.0
 10
52.8686
 20
-97.5677
 30
0.0
 10
52.8686
 20
-97.5677
 30
0.0
 10
52.8686
 20
-97.5677
 30
0.0
 10
53.2212
 20
-97.683
 30
0.0
 10
53.6938
 20
-97.7928
 30
0.0
 10
54.3234
 20
-97.8889
 30
0.0
 10
54.3234
 20
-97.8889
 30
0.0
 10
57.7079
 20
-98.4048
 30
0.0
 10
59.4002
 20
-95.4809
 30
0.0
 10
59.4002
 20
-95.4809
 30
0.0
 10
59.4002
 20
-95.4809
 30
0.0
 10
59.4002
 20
-95.4809
 30
0.0
 10
59.4002
 20
-106.3114
 30
0.0
 10
59.4002
 20
-106.3114
 30
0.0
 10
59.4002
 20
-106.3114
 30
0.0
 10
59.4002
 20
-106.3114
 30
0.0
 10
52.8686
 20
-106.3114
 30
0.0
 10
52.8686
 20
-106.3114
 30
0.0
  0
SPLINE
  5
BF
330
1F
100
AcDbEntity
  8
layer 1
 62
     7
100
AcDbSpline
210
0.0
220
0.0
230
1.0
 70
    11
 71
     3
 72
    56
 73
    52
 74
     0
 42
0.0000000001
 43
0.0000000001
 12
1.0
 22
0.0
 32
0.0
 13
1.0
 23
0.0
 33
0.0
 40
0.0
 40
0.0
 40
0.0
 40
0.0
 40
0.0714285714285714
 40
0.0714285714285714
 40
0.0714285714285714
 40
0.0714285714285714
 40
0.1428571428571428
 40
0.1428571428571428
 40
0.1428571428571428
 40
0.1428571428571428
 40
0.2142857142857143
 40
0.2142857142857143
 40
0.2142857142857143
 40
0.2142857142857143
 40
0.2857142857142857
 40
0.2857142857142857
 40
0.2857142857142857
 40
0.2857142857142857
 40
0.3571428571428572
 40
0.3571428571428572
 40
0.3571428571428572
 40
0.3571428571428572
 40
0.4285714285714285
 40
0.4285714285714285
 40
0.4285714285714285
 40
0.4285714285714285
 40
0.5
 40
0.5
 40
0.5
 40
0.5
 40
0.5714285714285714
 40
0.5714285714285714
 40
0.5714285714285714
 40
0.5714285714285714
 40
0.6428571428571429
 40
0.6428571428571429
 40
0.6428571428571429
 40
0.6428571428571429
 40
0.7142857142857143
 40
0.7142857142857143
 40
0.7142857142857143
 40
0.7142857142857143
 40
0.7857142857142857
 40
0.7857142857142857
 40
0.7857142857142857
 40
0.7857142857142857
 40
0.8571428571428571
 40
0.8571428571428571
 40
0.8571428571428571
 40
0.8571428571428571
 40
1.0
 40
1.0
 40
1.0
 40
1.0
 10
35.0494
 20
-106.3114
 30
0.0
 10
35.7532
 20
-105.6197
 30
0.0
 10
35.4216
 20
-104.282
 30
0.0
 10
34.979
 20
-103.7547
 30
0.0
 10
34.979
 20
-103.7547
 30
0.0
 10
34.1957
 20
-104.4648
 30
0.0
 10
33.4955
 20
-104.1013
 30
0.0
 10
33.3787
 20
-103.5647
 30
0.0
 10
33.3787
 20
-103.5647
 30
0.0
 10
33.3787
 20
-103.5647
 30
0.0
 10
33.3801
 20
-103.5647
 30
0.0
 10
33.3801
 20
-103.5647
 30
0.0
 10
33.3801
 20
-103.5647
 30
0.0
 10
33.3801
 20
-103.5647
 30
0.0
 10
33.3801
 20
-86.6147
 30
0.0
 10
33.3801
 20
-86.6147
 30
0.0
 10
33.3801
 20
-86.6147
 30
0.0
 10
33.3801
 20
-86.6147
 30
0.0
 10
40.403
 20
-86.6147
 30
0.0
 10
40.403
 20
-86.6147
 30
0.0
 10
40.403
 20
-86.6147
 30
0.0
 10
40.403
 20
-86.6147
 30
0.0
 10
40.7659
 20
-86.6147
 30
0.0
 10
40.7659
 20
-86.6147
 30
0.0
 10
40.7659
 20
-86.6147
 30
0.0
 10
40.7659
 20
-86.6147
 30
0.0
 10
40.7659
 20
-87.2824
 30
0.0
 10
40.7659
 20
-87.2824
 30
0.0
 10
40.7659
 20
-87.2824
 30
0.0
 10
40.7659
 20
-87.2824
 30
0.0
 10
40.7659
 20
-96.4502
 30
0.0
 10
40.7659
 20
-96.4502
 30
0.0
 10
40.7659
 20
-96.4502
 30
0.0
 10
40.5217
 20
-96.1955
 30
0.0
 10
40.3774
 20
-95.8729
 30
0.0
 10
40.3484
 20
-95.5382
 30
0.0
 10
40.3484
 20
-95.5382
 30
0.0
 10
40.2392
 20
-94.2769
 30
0.0
 10
39.8025
 20
-93.6463
 30
0.0
 10
39.4749
 20
-93.933
 30
0.0
 10
39.4749
 20
-93.933
 30
0.0
 10
39.1942
 20
-94.1787
 30
0.0
 10
38.6729
 20
-97.4163
 30
0.0
 10
40.7659
 20
-98.6964
 30
0.0
 10
40.7659
 20
-98.6964
 30
0.0
 10
40.7659
 20
-98.6964
 30
0.0
 10
40.7659
 20
-106.3114
 30
0.0
 10
40.7659
 20
-106.3114
 30
0.0
 10
40.7659
 20
-106.3114
 30
0.0
 10
40.7659
 20
-106.3114
 30
0.0
 10
35.0494
 20
-106.3114
 30
0.0
 10
35.0494
 20
-106.3114
 30
0.0
  0
SPLINE
  5
C0
330
1F
100
AcDbEntity
  8
layer 1
 62
     7
100
AcDbSpline
210
0.0
220
0.0
230
1.0
 70
    11
 71
     3
 72
    28
 73
    24
 74
     0
 42
0.0000000001
 43
0.0000000001
 12
1.0
 22
0.0
 32
0.0
 13
1.0
 23
0.0
 33
0.0
 40
0.0
 40
0.0
 40
0.0
 40
0.0
 40
0.1428571428571428
 40
0.1428571428571428
 40
0.1428571428571428
 40
0.1428571428571428
 40
0.2857142857142857
 40
0.2857142857142857
 40
0.2857142857142857
 40
0.2857142857142857
 40
0.4285714285714285
 40
0.4285714285714285
 40
0.4285714285714285
 40
0.4285714285714285
 40
0.5714285714285714
 40
0.5714285714285714
 40
0.5714285714285714
 40
0.5714285714285714
 40
0.7142857142857143
 40
0.7142857142857143
 40
0.7142857142857143
 40
0.7142857142857143
 40
1.0
 40
1.0
 40
1.0
 40
1.0
 10
23.6746
 20
-86.6147
 30
0.0
 10
23.6746
 20
-86.6147
 30
0.0
 10
30.9398
 20
-86.6147
 30
0.0
 10
30.9398
 20
-86.6147
 30
0.0
 10
30.9398
 20
-86.6147
 30
0.0
 10
30.9398
 20
-86.6147
 30
0.0
 10
30.9398
 20
-103.5647
 30
0.0
 10
30.9398
 20
-103.5647
 30
0.0
 10
30.9398
 20
-103.5647
 30
0.0
 10
30.9398
 20
-103.5647
 30
0.0
 10
30.9446
 20
-103.6047
 30
0.0
 10
30.9446
 20
-103.6047
 30
0.0
 10
30.9446
 20
-103.6047
 30
0.0
 10
30.9448
 20
-103.613
 30
0.0
 10
30.9839
 20
-105.4626
 30
0.0
 10
32.2044
 20
-106.3114
 30
0.0
 10
32.2044
 20
-106.3114
 30
0.0
 10
32.2044
 20
-106.3114
 30
0.0
 10
23.6746
 20
-106.3114
 30
0.0
 10
23.6746
 20
-106.3114
 30
0.0
 10
23.6746
 20
-106.3114
 30
0.0
 10
23.6746
 20
-106.3114
 30
0.0
 10
23.6746
 20
-86.6147
 30
0.0
 10
23.6746
 20
-86.6147
 30
0.0
  0
SPLINE
  5
C1
330
1F
100
AcDbEntity
  8
layer 1
 62
     7
100
AcDbSpline
210
0.0
220
0.0
230
1.0
 70
    11
 71
     3
 72
    32
 73
    28
 74
     0
 42
0.0000000001
 43
0.0000000001
 12
1.0
 22
0.0
 32
0.0
 13
1.0
 23
0.0
 33
0.0
 40
0.0
 40
0.0
 40
0.0
 40
0.0
 40
0.125
 40
0.125
 40
0.125
 40
0.125
 40
0.25
 40
0.25
 40
0.25
 40
0.25
 40
0.375
 40
0.375
 40
0.375
 40
0.375
 40
0.5
 40
0.5
 40
0.5
 40
0.5
 40
0.625
 40
0.625
 40
0.625
 40
0.625
 40
0.75
 40
0.75
 40
0.75
 40
0.75
 40
1.0
 40
1.0
 40
1.0
 40
1.0
 10
23.6746
 20
-51.7568
 30
0.0
 10
23.6746
 20
-51.7568
 30
0.0
 10
27.3541
 20
-51.7568
 30
0.0
 10
27.3541
 20
-51.7568
 30
0.0
 10
27.3541
 20
-51.7568
 30
0.0
 10
27.2519
 20
-52.6071
 30
0.0
 10
27.2022
 20
-53.3435
 30
0.0
 10
27.1923
 20
-53.9153
 30
0.0
 10
27.1923
 20
-53.9153
 30
0.0
 10
27.1377
 20
-57.0686
 30
0.0
 10
24.3537
 20
-56.8392
 30
0.0
 10
24.3537
 20
-56.8392
 30
0.0
 10
24.3537
 20
-56.8392
 30
0.0
 10
25.1725
 20
-59.7631
 30
0.0
 10
27.7382
 20
-58.5019
 30
0.0
 10
27.7382
 20
-58.5019
 30
0.0
 10
27.7382
 20
-58.5019
 30
0.0
 10
27.7382
 20
-65.2468
 30
0.0
 10
32.1054
 20
-72.184
 30
0.0
 10
32.1054
 20
-72.184
 30
0.0
 10
32.1054
 20
-72.184
 30
0.0
 10
32.1054
 20
-72.184
 30
0.0
 10
23.6746
 20
-72.184
 30
0.0
 10
23.6746
 20
-72.184
 30
0.0
 10
23.6746
 20
-72.184
 30
0.0
 10
23.6746
 20
-72.184
 30
0.0
 10
23.6746
 20
-51.7568
 30
0.0
 10
23.6746
 20
-51.7568
 30
0.0
  0
SPLINE
  5
C2
330
1F
100
AcDbEntity
  8
layer 1
 62
     7
100
AcDbSpline
210
0.0
220
0.0
230
1.0
 70
    11
 71
     3
 72
    56
 73
    52
 74
     0
 42
0.0000000001
 43
0.0000000001
 12
1.0
 22
0.0
 32
0.0
 13
1.0
 23
0.0
 33
0.0
 40
0.0
 40
0.0
 40
0.0
 40
0.0
 40
0.0714285714285714
 40
0.0714285714285714
 40
0.0714285714285714
 40
0.0714285714285714
 40
0.1428571428571428
 40
0.1428571428571428
 40
0.1428571428571428
 40
0.1428571428571428
 40
0.2142857142857143
 40
0.2142857142857143
 40
0.2142857142857143
 40
0.2142857142857143
 40
0.2857142857142857
 40
0.2857142857142857
 40
0.2857142857142857
 40
0.2857142857142857
 40
0.3571428571428572
 40
0.3571428571428572
 40
0.3571428571428572
 40
0.3571428571428572
 40
0.4285714285714285
 40
0.4285714285714285
 40
0.4285714285714285
 40
0.4285714285714285
 40
0.5
 40
0.5
 40
0.5
 40
0.5
 40
0.5714285714285714
 40
0.5714285714285714
 40
0.5714285714285714
 40
0.5714285714285714
 40
0.6428571428571429
 40
0.6428571428571429
 40
0.6428571428571429
 40
0.6428571428571429
 40
0.7142857142857143
 40
0.7142857142857143
 40
0.7142857142857143
 40
0.7142857142857143
 40
0.7857142857142857
 40
0.7857142857142857
 40
0.7857142857142857
 40
0.7857142857142857
 40
0.8571428571428571
 40
0.8571428571428571
 40
0.8571428571428571
 40
0.8571428571428571
 40
1.0
 40
1.0
 40
1.0
 40
1.0
 10
23.6746
 20
-21.6003
 30
0.0
 10
23.6746
 20
-21.6003
 30
0.0
 10
27.6409
 20
-21.6003
 30
0.0
 10
27.6409
 20
-21.6003
 30
0.0
 10
27.6409
 20
-21.6003
 30
0.0
 10
27.6906
 20
-26.3977
 30
0.0
 10
29.5397
 20
-28.8613
 30
0.0
 10
29.5397
 20
-28.8613
 30
0.0
 10
29.5397
 20
-28.8613
 30
0.0
 10
27.9566
 20
-28.9186
 30
0.0
 10
25.8822
 20
-30.6386
 30
0.0
 10
25.8276
 20
-32.5879
 30
0.0
 10
25.8276
 20
-32.5879
 30
0.0
 10
25.773
 20
-34.5371
 30
0.0
 10
27.0831
 20
-35.7985
 30
0.0
 10
27.9566
 20
-35.1105
 30
0.0
 10
27.9566
 20
-35.1105
 30
0.0
 10
28.83
 20
-34.4225
 30
0.0
 10
27.5744
 20
-33.5625
 30
0.0
 10
28.1749
 20
-32.4158
 30
0.0
 10
28.1749
 20
-32.4158
 30
0.0
 10
28.7754
 20
-31.2692
 30
0.0
 10
30.9044
 20
-30.1799
 30
0.0
 10
32.5421
 20
-31.5559
 30
0.0
 10
32.5421
 20
-31.5559
 30
0.0
 10
34.1798
 20
-32.9319
 30
0.0
 10
37.0731
 20
-33.9639
 30
0.0
 10
37.0731
 20
-33.9639
 30
0.0
 10
37.0731
 20
-33.9639
 30
0.0
 10
36.0904
 20
-34.6518
 30
0.0
 10
34.3435
 20
-36.4291
 30
0.0
 10
34.3435
 20
-36.4291
 30
0.0
 10
34.3435
 20
-36.4291
 30
0.0
 10
33.7976
 20
-36.1997
 30
0.0
 10
33.7431
 20
-34.5945
 30
0.0
 10
33.7431
 20
-34.5945
 30
0.0
 10
33.7431
 20
-34.5945
 30
0.0
 10
32.6513
 20
-35.9705
 30
0.0
 10
33.1972
 20
-37.8051
 30
0.0
 10
33.1972
 20
-37.8051
 30
0.0
 10
33.1972
 20
-37.8051
 30
0.0
 10
30.1271
 20
-40.9543
 30
0.0
 10
28.5279
 20
-45.5256
 30
0.0
 10
27.7734
 20
-49.194
 30
0.0
 10
27.7734
 20
-49.194
 30
0.0
 10
27.7734
 20
-49.194
 30
0.0
 10
23.6746
 20
-49.194
 30
0.0
 10
23.6746
 20
-49.194
 30
0.0
 10
23.6746
 20
-49.194
 30
0.0
 10
23.6746
 20
-49.194
 30
0.0
 10
23.6746
 20
-21.6003
 30
0.0
 10
23.6746
 20
-21.6003
 30
0.0
  0
SPLINE
  5
C3
330
1F
100
AcDbEntity
  8
layer 1
 62
     7
100
AcDbSpline
210
0.0
220
0.0
230
1.0
 70
    11
 71
     3
 72
    28
 73
    24
 74
     0
 42
0.0000000001
 43
0.0000000001
 12
1.0
 22
0.0
 32
0.0
 13
1.0
 23
0.0
 33
0.0
 40
0.0
 40
0.0
 40
0.0
 40
0.0
 40
0.1428571428571428
 40
0.1428571428571428
 40
0.1428571428571428
 40
0.1428571428571428
 40
0.2857142857142857
 40
0.2857142857142857
 40
0.2857142857142857
 40
0.2857142857142857
 40
0.4285714285714285
 40
0.4285714285714285
 40
0.4285714285714285
 40
0.4285714285714285
 40
0.5714285714285714
 40
0.5714285714285714
 40
0.5714285714285714
 40
0.5714285714285714
 40
0.7142857142857143
 40
0.7142857142857143
 40
0.7142857142857143
 40
0.7142857142857143
 40
1.0
 40
1.0
 40
1.0
 40
1.0
 10
23.6746
 20
-5.0569
 30
0.0
 10
23.9736
 20
-5.2723
 30
0.0
 10
24.3408
 20
-5.4126
 30
0.0
 10
24.7904
 20
-5.4126
 30
0.0
 10
24.7904
 20
-5.4126
 30
0.0
 10
26.7303
 20
-5.4126
 30
0.0
 10
25.6092
 20
-3.9793
 30
0.0
 10
26.4281
 20
-3.0046
 30
0.0
 10
26.4281
 20
-3.0046
 30
0.0
 10
27.2469
 20
-2.03
 30
0.0
 10
30.1891
 20
-2.0137
 30
0.0
 10
30.9044
 20
-7.4765
 30
0.0
 10
30.9044
 20
-7.4765
 30
0.0
 10
31.5743
 20
-12.5922
 30
0.0
 10
28.5003
 20
-14.1098
 30
0.0
 10
27.7931
 20
-19.0374
 30
0.0
 10
27.7931
 20
-19.0374
 30
0.0
 10
27.7931
 20
-19.0374
 30
0.0
 10
23.6746
 20
-19.0374
 30
0.0
 10
23.6746
 20
-19.0374
 30
0.0
 10
23.6746
 20
-19.0374
 30
0.0
 10
23.6746
 20
-19.0374
 30
0.0
 10
23.6746
 20
-5.0569
 30
0.0
 10
23.6746
 20
-5.0569
 30
0.0
  0
SPLINE
  5
C4
330
1F
100
AcDbEntity
  8
layer 1
 62
     7
100
AcDbSpline
210
0.0
220
0.0
230
1.0
 70
    11
 71
     3
 72
    40
 73
    36
 74
     0
 42
0.0000000001
 43
0.0000000001
 12
1.0
 22
0.0
 32
0.0
 13
1.0
 23
0.0
 33
0.0
 40
0.0
 40
0.0
 40
0.0
 40
0.0
 40
0.1
 40
0.1
 40
0.1
 40
0.1
 40
0.2
 40
0.2
 40
0.2
 40
0.2
 40
0.3
 40
0.3
 40
0.3
 40
0.3
 40
0.4
 40
0.4
 40
0.4
 40
0.4
 40
0.5
 40
0.5
 40
0.5
 40
0.5
 40
0.6
 40
0.6
 40
0.6
 40
0.6
 40
0.7
 40
0.7
 40
0.7
 40
0.7
 40
0.8
 40
0.8
 40
0.8
 40
0.8
 40
1.0
 40
1.0
 40
1.0
 40
1.0
 10
23.6746
 20
6.9711
 30
0.0
 10
23.6746
 20
6.9711
 30
0.0
 10
27.7077
 20
6.9711
 30
0.0
 10
27.7077
 20
6.9711
 30
0.0
 10
27.7077
 20
6.9711
 30
0.0
 10
27.8885
 20
5.4749
 30
0.0
 10
28.6558
 20
3.3391
 30
0.0
 10
31.5595
 20
3.3019
 30
0.0
 10
31.5595
 20
3.3019
 30
0.0
 10
31.5595
 20
3.3019
 30
0.0
 10
31.5757
 20
-0.4821
 30
0.0
 10
35.1432
 20
-0.654
 30
0.0
 10
35.1432
 20
-0.654
 30
0.0
 10
35.1432
 20
-0.654
 30
0.0
 10
35.1432
 20
-11.6713
 30
0.0
 10
35.1432
 20
-11.6713
 30
0.0
 10
35.1432
 20
-11.6713
 30
0.0
 10
34.7044
 20
-11.7526
 30
0.0
 10
34.3155
 20
-11.8628
 30
0.0
 10
34.016
 20
-11.9771
 30
0.0
 10
34.016
 20
-11.9771
 30
0.0
 10
32.8888
 20
-12.407
 30
0.0
 10
32.2964
 20
-11.9197
 30
0.0
 10
32.433
 20
-10.4578
 30
0.0
 10
32.433
 20
-10.4578
 30
0.0
 10
32.5694
 20
-8.9958
 30
0.0
 10
32.7059
 20
-1.8293
 30
0.0
 10
28.4206
 20
-1.256
 30
0.0
 10
28.4206
 20
-1.256
 30
0.0
 10
26.1623
 20
-0.9539
 30
0.0
 10
24.6244
 20
-1.4
 30
0.0
 10
23.6746
 20
-1.8898
 30
0.0
 10
23.6746
 20
-1.8898
 30
0.0
 10
23.6746
 20
-1.8898
 30
0.0
 10
23.6746
 20
6.9711
 30
0.0
 10
23.6746
 20
6.9711
 30
0.0
  0
SPLINE
  5
C5
330
1F
100
AcDbEntity
  8
layer 1
 62
     7
100
AcDbSpline
210
0.0
220
0.0
230
1.0
 70
    11
 71
     3
 72
    20
 73
    16
 74
     0
 42
0.0000000001
 43
0.0000000001
 12
1.0
 22
0.0
 32
0.0
 13
1.0
 23
0.0
 33
0.0
 40
0.0
 40
0.0
 40
0.0
 40
0.0
 40
0.2
 40
0.2
 40
0.2
 40
0.2
 40
0.4
 40
0.4
 40
0.4
 40
0.4
 40
0.6
 40
0.6
 40
0.6
 40
0.6
 40
1.0
 40
1.0
 40
1.0
 40
1.0
 10
35.1432
 20
8.4044
 30
0.0
 10
35.1432
 20
8.4044
 30
0.0
 10
35.1432
 20
4.3338
 30
0.0
 10
35.1432
 20
4.3338
 30
0.0
 10
35.1432
 20
4.3338
 30
0.0
 10
35.1432
 20
4.3338
 30
0.0
 10
32.5421
 20
5.5951
 30
0.0
 10
32.5421
 20
8.4044
 30
0.0
 10
32.5421
 20
8.4044
 30
0.0
 10
32.5421
 20
11.2136
 30
0.0
 10
35.1432
 20
12.475
 30
0.0
 10
35.1432
 20
12.475
 30
0.0
 10
35.1432
 20
12.475
 30
0.0
 10
35.1432
 20
12.475
 30
0.0
 10
35.1432
 20
8.4044
 30
0.0
 10
35.1432
 20
8.4044
 30
0.0
  0
SPLINE
  5
C6
330
1F
100
AcDbEntity
  8
layer 1
 62
     7
100
AcDbSpline
210
0.0
220
0.0
230
1.0
 70
    11
 71
     3
 72
    20
 73
    16
 74
     0
 42
0.0000000001
 43
0.0000000001
 12
1.0
 22
0.0
 32
0.0
 13
1.0
 23
0.0
 33
0.0
 40
0.0
 40
0.0
 40
0.0
 40
0.0
 40
0.2
 40
0.2
 40
0.2
 40
0.2
 40
0.4
 40
0.4
 40
0.4
 40
0.4
 40
0.6
 40
0.6
 40
0.6
 40
0.6
 40
1.0
 40
1.0
 40
1.0
 40
1.0
 10
56.3978
 20
8.4044
 30
0.0
 10
56.3978
 20
8.4044
 30
0.0
 10
56.3158
 20
6.9425
 30
0.0
 10
55.8792
 20
6.0825
 30
0.0
 10
55.8792
 20
6.0825
 30
0.0
 10
55.8792
 20
6.0825
 30
0.0
 10
53.7228
 20
6.4838
 30
0.0
 10
53.7228
 20
8.4044
 30
0.0
 10
53.7228
 20
8.4044
 30
0.0
 10
53.7228
 20
10.3251
 30
0.0
 10
55.8792
 20
10.7264
 30
0.0
 10
55.8792
 20
10.7264
 30
0.0
 10
55.8792
 20
10.7264
 30
0.0
 10
56.3158
 20
9.8664
 30
0.0
 10
56.3978
 20
8.4044
 30
0.0
 10
56.3978
 20
8.4044
 30
0.0
  0
ENDSEC
  0
SECTION
  2
OBJECTS
  0
DICTIONARY
  5
C
330
0
100
AcDbDictionary
281
     1
  3
ACAD_GROUP
350
D
  3
ACAD_LAYOUT
350
1A
  3
ACAD_MATERIAL
350
3B
  3
ACAD_MLEADERSTYLE
350
E9
  3
ACAD_MLINESTYLE
350
17
  3
ACAD_PLOTSETTINGS
350
19
  3
ACAD_PLOTSTYLENAME
350
E
  3
ACAD_TABLESTYLE
350
E8
  3
ACAD_VISUALSTYLE
350
2A
  0
DICTIONARY
  5
D
102
{ACAD_REACTORS
330
C
102
}
330
C
100
AcDbDictionary
281
     1
  0
DICTIONARY
  5
1A
102
{ACAD_REACTORS
330
C
102
}
330
C
100
AcDbDictionary
281
     1
  3
Layout1
350
1E
  3
Layout2
350
26
  3
Model
350
22
  0
DICTIONARY
  5
3B
102
{ACAD_REACTORS
330
C
102
}
330
C
100
AcDbDictionary
281
     1
  3
ByBlock
350
3D
  3
ByLayer
350
3C
  3
Global
350
3E
  0
DICTIONARY
  5
E9
102
{ACAD_REACTORS
330
C
102
}
330
C
100
AcDbDictionary
281
     1
  0
DICTIONARY
  5
17
102
{ACAD_REACTORS
330
C
102
}
330
C
100
AcDbDictionary
281
     1
  3
Standard
350
18
  0
DICTIONARY
  5
19
102
{ACAD_REACTORS
330
C
102
}
330
C
100
AcDbDictionary
281
     1
  0
ACDBDICTIONARYWDFLT
  5
E
102
{ACAD_REACTORS
330
C
102
}
330
C
100
AcDbDictionary
281
     1
  3
Normal
350
F
100
AcDbDictionaryWithDefault
340
F
  0
DICTIONARY
  5
E8
102
{ACAD_REACTORS
330
C
102
}
330
C
100
AcDbDictionary
281
     1
  0
DICTIONARY
  5
2A
102
{ACAD_REACTORS
330
C
102
}
330
C
100
AcDbDictionary
281
     1
  3
2dWireframe
350
2F
  3
3D Hidden
350
31
  3
3dWireframe
350
30
  3
Basic
350
32
  3
Brighten
350
36
  3
ColorChange
350
3A
  3
Conceptual
350
34
  3
Dim
350
35
  3
Facepattern
350
39
  3
Flat
350
2B
  3
FlatWithEdges
350
2C
  3
Gouraud
350
2D
  3
GouraudWithEdges
350
2E
  3
Linepattern
350
38
  3
Realistic
350
33
  3
Thicken
350
37
  0
LAYOUT
  5
1E
102
{ACAD_REACTORS
330
1A
102
}
330
1A
100
AcDbPlotSettings
  1

  2
none_device
  4

  6

 40
0.0
 41
0.0
 42
0.0
 43
0.0
 44
0.0
 45
0.0
 46
0.0
 47
0.0
 48
0.0
 49
0.0
140
0.0
141
0.0
142
1.0
143
1.0
 70
   688
 72
     0
 73
     0
 74
     5
  7

 75
    16
 76
     0
 77
     2
 78
   300
147
1.0
148
0.0
149
0.0
100
AcDbLayout
  1
Layout1
 70
     1
 71
     1
 10
0.0
 20
0.0
 11
12.0
 21
9.0
 12
0.0
 22
0.0
 32
0.0
 14
1.000000000000000E+20
 24
1.000000000000000E+20
 34
1.000000000000000E+20
 15
-1.000000000000000E+20
 25
-1.000000000000000E+20
 35
-1.000000000000000E+20
146
0.0
 13
0.0
 23
0.0
 33
0.0
 16
1.0
 26
0.0
 36
0.0
 17
0.0
 27
1.0
 37
0.0
 76
     0
330
1B
  0
LAYOUT
  5
26
102
{ACAD_REACTORS
330
1A
102
}
330
1A
100
AcDbPlotSettings
  1

  2
none_device
  4

  6

 40
0.0
 41
0.0
 42
0.0
 43
0.0
 44
0.0
 45
0.0
 46
0.0
 47
0.0
 48
0.0
 49
0.0
140
0.0
141
0.0
142
1.0
143
1.0
 70
   688
 72
     0
 73
     0
 74
     5
  7

 75
    16
 76
     0
 77
     2
 78
   300
147
1.0
148
0.0
149
0.0
100
AcDbLayout
  1
Layout2
 70
     1
 71
     2
 10
0.0
 20
0.0
 11
0.0
 21
0.0
 12
0.0
 22
0.0
 32
0.0
 14
0.0
 24
0.0
 34
0.0
 15
0.0
 25
0.0
 35
0.0
146
0.0
 13
0.0
 23
0.0
 33
0.0
 16
1.0
 26
0.0
 36
0.0
 17
0.0
 27
1.0
 37
0.0
 76
     0
330
23
  0
LAYOUT
  5
22
102
{ACAD_REACTORS
330
1A
102
}
330
1A
100
AcDbPlotSettings
  1

  2
none_device
  4

  6

 40
0.0
 41
0.0
 42
0.0
 43
0.0
 44
0.0
 45
0.0
 46
0.0
 47
0.0
 48
0.0
 49
0.0
140
0.0
141
0.0
142
1.0
143
1.0
 70
  1712
 72
     0
 73
     0
 74
     0
  7

 75
     0
 76
     0
 77
     2
 78
   300
147
1.0
148
0.0
149
0.0
100
AcDbLayout
  1
Model
 70
     1
 71
     0
 10
0.0
 20
0.0
 11
12.0
 21
9.0
 12
0.0
 22
0.0
 32
0.0
 14
20.4306
 24
-109.5884
 34
0.0
 15
100.8807
 25
126.3973
 35
0.0
146
0.0
 13
0.0
 23
0.0
 33
0.0
 16
1.0
 26
0.0
 36
0.0
 17
0.0
 27
1.0
 37
0.0
 76
     0
330
1F
331
29
  0
MATERIAL
  5
3D
102
{ACAD_REACTORS
330
3B
102
}
330
3B
100
AcDbMaterial
  1
ByBlock
 72
     1
 94
      127
  0
MATERIAL
  5
3C
102
{ACAD_REACTORS
330
3B
102
}
330
3B
100
AcDbMaterial
  1
ByLayer
 72
     1
 94
      127
  0
MATERIAL
  5
3E
102
{ACAD_REACTORS
330
3B
102
}
330
3B
100
AcDbMaterial
  1
Global
 72
     1
 94
      127
  0
MLINESTYLE
  5
18
102
{ACAD_REACTORS
330
17
102
}
330
17
100
AcDbMlineStyle
  2
Standard
 70
     0
  3

 62
   256
 51
90.0
 52
90.0
 71
     2
 49
0.5
 62
   256
  6
BYLAYER
 49
-0.5
 62
   256
  6
BYLAYER
  0
ACDBPLACEHOLDER
  5
F
102
{ACAD_REACTORS
330
E
102
}
330
E
  0
VISUALSTYLE
  5
2F
102
{ACAD_REACTORS
330
2A
102
}
102
{ACAD_XDICTIONARY
360
D0
102
}
330
2A
100
AcDbVisualStyle
  2
2dWireframe
 70
     4
 71
     0
 72
     2
 73
     0
 90
        0
 40
-0.6
 41
-30.0
 62
     5
 63
     7
421
 16777215
 74
     1
 91
        4
 64
     7
 65
   257
 75
     1
175
     1
 42
1.0
 92
        0
 66
   257
 43
1.0
 76
     1
 77
     6
 78
     2
 67
     7
 79
     5
170
     0
171
     0
290
     0
174
     0
 93
        1
 44
0.0
173
     0
291
     0
 45
0.0
  0
VISUALSTYLE
  5
31
102
{ACAD_REACTORS
330
2A
102
}
102
{ACAD_XDICTIONARY
360
D4
102
}
330
2A
100
AcDbVisualStyle
  2
3D Hidden
 70
     6
 71
     1
 72
     2
 73
     2
 90
        0
 40
-0.6
 41
-30.0
 62
     5
 63
     7
421
 16777215
 74
     2
 91
        2
 64
     7
 65
   257
 75
     2
175
     1
 42
40.0
 92
        0
 66
   257
 43
1.0
 76
     1
 77
     6
 78
     2
 67
     7
 79
     3
170
     0
171
     0
290
     0
174
     0
 93
        1
 44
0.0
173
     0
291
     0
 45
0.0
  0
VISUALSTYLE
  5
30
102
{ACAD_REACTORS
330
2A
102
}
102
{ACAD_XDICTIONARY
360
D2
102
}
330
2A
100
AcDbVisualStyle
  2
3dWireframe
 70
     5
 71
     0
 72
     2
 73
     0
 90
        0
 40
-0.6
 41
-30.0
 62
     5
 63
     7
421
 16777215
 74
     1
 91
        4
 64
     7
 65
   257
 75
     1
175
     1
 42
1.0
 92
        0
 66
   257
 43
1.0
 76
     1
 77
     6
 78
     2
 67
     7
 79
     5
170
     0
171
     0
290
     0
174
     0
 93
        1
 44
0.0
173
     0
291
     0
 45
0.0
  0
VISUALSTYLE
  5
32
102
{ACAD_REACTORS
330
2A
102
}
102
{ACAD_XDICTIONARY
360
D6
102
}
330
2A
100
AcDbVisualStyle
  2
Basic
 70
     7
 71
     1
 72
     0
 73
     1
 90
        0
 40
-0.6
 41
-30.0
 62
     5
 63
     7
421
 16777215
 74
     0
 91
        4
 64
     7
 65
   257
 75
     1
175
     1
 42
1.0
 92
        8
 66
     7
 43
1.0
 76
     1
 77
     6
 78
     2
 67
     7
 79
     5
170
     0
171
     0
290
     0
174
     0
 93
        1
 44
0.0
173
     0
291
     1
 45
0.0
  0
VISUALSTYLE
  5
36
102
{ACAD_REACTORS
330
2A
102
}
102
{ACAD_XDICTIONARY
360
DE
102
}
330
2A
100
AcDbVisualStyle
  2
Brighten
 70
    12
 71
     2
 72
     2
 73
     0
 90
        0
 40
-0.6
 41
-30.0
 62
     5
 63
     7
421
 16777215
 74
     1
 91
        4
 64
     7
 65
   257
 75
     1
175
     1
 42
1.0
 92
        8
 66
     7
 43
1.0
 76
     1
 77
     6
 78
     2
 67
     7
 79
     5
170
     0
171
     0
290
     0
174
     0
 93
        1
 44
50.0
173
     0
291
     1
 45
0.0
  0
VISUALSTYLE
  5
3A
102
{ACAD_REACTORS
330
2A
102
}
102
{ACAD_XDICTIONARY
360
E6
102
}
330
2A
100
AcDbVisualStyle
  2
ColorChange
 70
    16
 71
     2
 72
     2
 73
     3
 90
        0
 40
-0.6
 41
-30.0
 62
     5
 63
     8
421
  8421504
 74
     1
 91
        4
 64
     7
 65
   257
 75
     1
175
     1
 42
1.0
 92
        8
 66
     8
424
  8421504
 43
1.0
 76
     1
 77
     6
 78
     2
 67
     7
 79
     5
170
     0
171
     0
290
     0
174
     0
 93
        1
 44
0.0
173
     0
291
     1
 45
0.0
  0
VISUALSTYLE
  5
34
102
{ACAD_REACTORS
330
2A
102
}
102
{ACAD_XDICTIONARY
360
DA
102
}
330
2A
100
AcDbVisualStyle
  2
Conceptual
 70
     9
 71
     3
 72
     2
 73
     0
 90
        0
 40
-0.6
 41
-30.0
 62
     5
 63
     7
421
 16777215
 74
     2
 91
        2
 64
     7
 65
   257
 75
     1
175
     1
 42
40.0
 92
        8
 66
     7
 43
1.0
 76
     1
 77
     6
 78
     2
 67
     7
 79
     3
170
     0
171
     0
290
     0
174
     0
 93
        1
 44
0.0
173
     0
291
     0
 45
0.0
  0
VISUALSTYLE
  5
35
102
{ACAD_REACTORS
330
2A
102
}
102
{ACAD_XDICTIONARY
360
DC
102
}
330
2A
100
AcDbVisualStyle
  2
Dim
 70
    11
 71
     2
 72
     2
 73
     0
 90
        0
 40
-0.6
 41
-30.0
 62
     5
 63
     7
421
 16777215
 74
     1
 91
        4
 64
     7
 65
   257
 75
     1
175
     1
 42
1.0
 92
        8
 66
     7
 43
1.0
 76
     1
 77
     6
 78
     2
 67
     7
 79
     5
170
     0
171
     0
290
     0
174
     0
 93
        1
 44
-50.0
173
     0
291
     1
 45
0.0
  0
VISUALSTYLE
  5
39
102
{ACAD_REACTORS
330
2A
102
}
102
{ACAD_XDICTIONARY
360
E4
102
}
330
2A
100
AcDbVisualStyle
  2
Facepattern
 70
    15
 71
     2
 72
     2
 73
     0
 90
        0
 40
-0.6
 41
-30.0
 62
     5
 63
     7
421
 16777215
 74
     1
 91
        4
 64
     7
 65
   257
 75
     1
175
     1
 42
1.0
 92
        8
 66
     7
 43
1.0
 76
     1
 77
     6
 78
     2
 67
     7
 79
     5
170
     0
171
     0
290
     0
174
     0
 93
        1
 44
0.0
173
     0
291
     1
 45
0.0
  0
VISUALSTYLE
  5
2B
102
{ACAD_REACTORS
330
2A
102
}
102
{ACAD_XDICTIONARY
360
C8
102
}
330
2A
100
AcDbVisualStyle
  2
Flat
 70
     0
 71
     2
 72
     1
 73
     1
 90
        2
 40
-0.6
 41
30.0
 62
     5
 63
     7
421
 16777215
 74
     0
 91
        4
 64
     7
 65
   257
 75
     1
175
     1
 42
1.0
 92
        8
 66
     7
 43
1.0
 76
     1
 77
     6
 78
     2
 67
     7
 79
     5
170
     0
171
     0
290
     0
174
     0
 93
       13
 44
0.0
173
     0
291
     1
 45
0.0
  0
VISUALSTYLE
  5
2C
102
{ACAD_REACTORS
330
2A
102
}
102
{ACAD_XDICTIONARY
360
CA
102
}
330
2A
100
AcDbVisualStyle
  2
FlatWithEdges
 70
     1
 71
     2
 72
     1
 73
     1
 90
        2
 40
-0.6
 41
30.0
 62
     5
 63
     7
421
 16777215
 74
     1
 91
        4
 64
     7
 65
   257
 75
     1
175
     1
 42
1.0
 92
        0
 66
   257
 43
1.0
 76
     1
 77
     6
 78
     2
 67
     7
 79
     5
170
     0
171
     0
290
     0
174
     0
 93
       13
 44
0.0
173
     0
291
     1
 45
0.0
  0
VISUALSTYLE
  5
2D
102
{ACAD_REACTORS
330
2A
102
}
102
{ACAD_XDICTIONARY
360
CC
102
}
330
2A
100
AcDbVisualStyle
  2
Gouraud
 70
     2
 71
     2
 72
     2
 73
     1
 90
        2
 40
-0.6
 41
30.0
 62
     5
 63
     7
421
 16777215
 74
     0
 91
        4
 64
     7
 65
   257
 75
     1
175
     1
 42
1.0
 92
        0
 66
     7
 43
1.0
 76
     1
 77
     6
 78
     2
 67
     7
 79
     5
170
     0
171
     0
290
     0
174
     0
 93
       13
 44
0.0
173
     0
291
     1
 45
0.0
  0
VISUALSTYLE
  5
2E
102
{ACAD_REACTORS
330
2A
102
}
102
{ACAD_XDICTIONARY
360
CE
102
}
330
2A
100
AcDbVisualStyle
  2
GouraudWithEdges
 70
     3
 71
     2
 72
     2
 73
     1
 90
        2
 40
-0.6
 41
30.0
 62
     5
 63
     7
421
 16777215
 74
     1
 91
        4
 64
     7
 65
   257
 75
     1
175
     1
 42
1.0
 92
        0
 66
   257
 43
1.0
 76
     1
 77
     6
 78
     2
 67
     7
 79
     5
170
     0
171
     0
290
     0
174
     0
 93
       13
 44
0.0
173
     0
291
     1
 45
0.0
  0
VISUALSTYLE
  5
38
102
{ACAD_REACTORS
330
2A
102
}
102
{ACAD_XDICTIONARY
360
E2
102
}
330
2A
100
AcDbVisualStyle
  2
Linepattern
 70
    14
 71
     2
 72
     2
 73
     0
 90
        0
 40
-0.6
 41
-30.0
 62
     5
 63
     7
421
 16777215
 74
     1
 91
        4
 64
     7
 65
   257
 75
     7
175
     7
 42
1.0
 92
        8
 66
     7
 43
1.0
 76
     1
 77
     6
 78
     2
 67
     7
 79
     5
170
     0
171
     0
290
     0
174
     0
 93
        1
 44
0.0
173
     0
291
     1
 45
0.0
  0
VISUALSTYLE
  5
33
102
{ACAD_REACTORS
330
2A
102
}
102
{ACAD_XDICTIONARY
360
D8
102
}
330
2A
100
AcDbVisualStyle
  2
Realistic
 70
     8
 71
     2
 72
     2
 73
     0
 90
        0
 40
-0.6
 41
-30.0
 62
     5
 63
     7
421
 16777215
 74
     1
 91
        0
 64
     7
 65
   257
 75
     1
175
     1
 42
1.0
 92
        8
 66
     8
424
  7895160
 43
1.0
 76
     1
 77
     6
 78
     2
 67
     7
 79
     5
170
     0
171
     0
290
     0
174
     0
 93
       13
 44
0.0
173
     0
291
     0
 45
0.0
  0
VISUALSTYLE
  5
37
102
{ACAD_REACTORS
330
2A
102
}
102
{ACAD_XDICTIONARY
360
E0
102
}
330
2A
100
AcDbVisualStyle
  2
Thicken
 70
    13
 71
     2
 72
     2
 73
     0
 90
        0
 40
-0.6
 41
-30.0
 62
     5
 63
     7
421
 16777215
 74
     1
 91
        4
 64
     7
 65
   257
 75
     1
175
     1
 42
1.0
 92
       12
 66
     7
 43
1.0
 76
     1
 77
     6
 78
     2
 67
     7
 79
     5
170
     0
171
     0
290
     0
174
     0
 93
        1
 44
0.0
173
     0
291
     1
 45
0.0
  0
DICTIONARY
  5
D0
330
2F
100
AcDbDictionary
280
     1
281
     1
  3
ACAD_XREC_ROUNDTRIP
360
D1
  0
DICTIONARY
  5
D4
330
31
100
AcDbDictionary
280
     1
281
     1
  3
ACAD_XREC_ROUNDTRIP
360
D5
  0
DICTIONARY
  5
D2
330
30
100
AcDbDictionary
280
     1
281
     1
  3
ACAD_XREC_ROUNDTRIP
360
D3
  0
DICTIONARY
  5
D6
330
32
100
AcDbDictionary
280
     1
281
     1
  3
ACAD_XREC_ROUNDTRIP
360
D7
  0
DICTIONARY
  5
DE
330
36
100
AcDbDictionary
280
     1
281
     1
  3
ACAD_XREC_ROUNDTRIP
360
DF
  0
DICTIONARY
  5
E6
330
3A
100
AcDbDictionary
280
     1
281
     1
  3
ACAD_XREC_ROUNDTRIP
360
E7
  0
DICTIONARY
  5
DA
330
34
100
AcDbDictionary
280
     1
281
     1
  3
ACAD_XREC_ROUNDTRIP
360
DB
  0
DICTIONARY
  5
DC
330
35
100
AcDbDictionary
280
     1
281
     1
  3
ACAD_XREC_ROUNDTRIP
360
DD
  0
DICTIONARY
  5
E4
330
39
100
AcDbDictionary
280
     1
281
     1
  3
ACAD_XREC_ROUNDTRIP
360
E5
  0
DICTIONARY
  5
C8
330
2B
100
AcDbDictionary
280
     1
281
     1
  3
ACAD_XREC_ROUNDTRIP
360
C9
  0
DICTIONARY
  5
CA
330
2C
100
AcDbDictionary
280
     1
281
     1
  3
ACAD_XREC_ROUNDTRIP
360
CB
  0
DICTIONARY
  5
CC
330
2D
100
AcDbDictionary
280
     1
281
     1
  3
ACAD_XREC_ROUNDTRIP
360
CD
  0
DICTIONARY
  5
CE
330
2E
100
AcDbDictionary
280
     1
281
     1
  3
ACAD_XREC_ROUNDTRIP
360
CF
  0
DICTIONARY
  5
E2
330
38
100
AcDbDictionary
280
     1
281
     1
  3
ACAD_XREC_ROUNDTRIP
360
E3
  0
DICTIONARY
  5
D8
330
33
100
AcDbDictionary
280
     1
281
     1
  3
ACAD_XREC_ROUNDTRIP
360
D9
  0
DICTIONARY
  5
E0
330
37
100
AcDbDictionary
280
     1
281
     1
  3
ACAD_XREC_ROUNDTRIP
360
E1
  0
XRECORD
  5
D1
102
{ACAD_REACTORS
330
D0
102
}
330
D0
100
AcDbXrecord
280
     1
102
RTVSPropertyOp0
 70
     1
102
RTVSPropertyOp1
 70
     1
102
RTVSPropertyOp2
 70
     1
102
RTVSPropertyOp3
 70
     1
102
RTVSPropertyOp4
 70
     1
102
RTVSPropertyOp5
 70
     1
102
RTVSPropertyOp6
 70
     1
102
RTVSPropertyOp7
 70
     1
102
RTVSPropertyOp8
 70
     1
102
RTVSPropertyOp9
 70
     1
102
RTVSPropertyOp10
 70
     1
102
RTVSPropertyOp11
 70
     1
102
RTVSPropertyOp12
 70
     1
102
RTVSPropertyOp13
 70
     1
102
RTVSPropertyOp14
 70
     1
102
RTVSPropertyOp15
 70
     1
102
RTVSPropertyOp16
 70
     1
102
RTVSPropertyOp17
 70
     1
102
RTVSPropertyOp18
 70
     1
102
RTVSPropertyOp19
 70
     1
102
RTVSPropertyOp20
 70
     1
102
RTVSPropertyOp21
 70
     1
102
RTVSPropertyOp22
 70
     1
102
RTVSPropertyOp23
 70
     1
102
RTVSPropertyOp24
 70
     1
102
RTVSPropertyOp25
 70
     1
102
RTVSPropertyOp26
 70
     1
102
RTVSPropertyOp27
 70
     1
102
RTVSPropertyOp28
 70
     1
102
RTVSPropertyOp29
 70
     1
102
RTVSPropertyOp30
 70
     1
102
RTVSPropertyOp31
 70
     1
102
RTVSPropertyOp32
 70
     1
  0
XRECORD
  5
D5
102
{ACAD_REACTORS
330
D4
102
}
330
D4
100
AcDbXrecord
280
     1
102
RTVSPropertyOp0
 70
     1
102
RTVSPropertyOp1
 70
     1
102
RTVSPropertyOp2
 70
     1
102
RTVSPropertyOp3
 70
     1
102
RTVSPropertyOp4
 70
     1
102
RTVSPropertyOp5
 70
     1
102
RTVSPropertyOp6
 70
     1
102
RTVSPropertyOp7
 70
     1
102
RTVSPropertyOp8
 70
     1
102
RTVSPropertyOp9
 70
     1
102
RTVSPropertyOp10
 70
     1
102
RTVSPropertyOp11
 70
     1
102
RTVSPropertyOp12
 70
     1
102
RTVSPropertyOp13
 70
     1
102
RTVSPropertyOp14
 70
     1
102
RTVSPropertyOp15
 70
     1
102
RTVSPropertyOp16
 70
     1
102
RTVSPropertyOp17
 70
     1
102
RTVSPropertyOp18
 70
     1
102
RTVSPropertyOp19
 70
     1
102
RTVSPropertyOp20
 70
     1
102
RTVSPropertyOp21
 70
     1
102
RTVSPropertyOp22
 70
     1
102
RTVSPropertyOp23
 70
     1
102
RTVSPropertyOp24
 70
     1
102
RTVSPropertyOp25
 70
     1
102
RTVSPropertyOp26
 70
     1
102
RTVSPropertyOp27
 70
     1
102
RTVSPropertyOp28
 70
     1
102
RTVSPropertyOp29
 70
     1
102
RTVSPropertyOp30
 70
     1
102
RTVSPropertyOp31
 70
     1
102
RTVSPropertyOp32
 70
     1
  0
XRECORD
  5
D3
102
{ACAD_REACTORS
330
D2
102
}
330
D2
100
AcDbXrecord
280
     1
102
RTVSPropertyOp0
 70
     1
102
RTVSPropertyOp1
 70
     1
102
RTVSPropertyOp2
 70
     1
102
RTVSPropertyOp3
 70
     1
102
RTVSPropertyOp4
 70
     1
102
RTVSPropertyOp5
 70
     1
102
RTVSPropertyOp6
 70
     1
102
RTVSPropertyOp7
 70
     1
102
RTVSPropertyOp8
 70
     1
102
RTVSPropertyOp9
 70
     1
102
RTVSPropertyOp10
 70
     1
102
RTVSPropertyOp11
 70
     1
102
RTVSPropertyOp12
 70
     1
102
RTVSPropertyOp13
 70
     1
102
RTVSPropertyOp14
 70
     1
102
RTVSPropertyOp15
 70
     1
102
RTVSPropertyOp16
 70
     1
102
RTVSPropertyOp17
 70
     1
102
RTVSPropertyOp18
 70
     1
102
RTVSPropertyOp19
 70
     1
102
RTVSPropertyOp20
 70
     1
102
RTVSPropertyOp21
 70
     1
102
RTVSPropertyOp22
 70
     1
102
RTVSPropertyOp23
 70
     1
102
RTVSPropertyOp24
 70
     1
102
RTVSPropertyOp25
 70
     1
102
RTVSPropertyOp26
 70
     1
102
RTVSPropertyOp27
 70
     1
102
RTVSPropertyOp28
 70
     1
102
RTVSPropertyOp29
 70
     1
102
RTVSPropertyOp30
 70
     1
102
RTVSPropertyOp31
 70
     1
102
RTVSPropertyOp32
 70
     1
  0
XRECORD
  5
D7
102
{ACAD_REACTORS
330
D6
102
}
330
D6
100
AcDbXrecord
280
     1
102
RTVSPropertyOp0
 70
     1
102
RTVSPropertyOp1
 70
     1
102
RTVSPropertyOp2
 70
     1
102
RTVSPropertyOp3
 70
     1
102
RTVSPropertyOp4
 70
     1
102
RTVSPropertyOp5
 70
     1
102
RTVSPropertyOp6
 70
     1
102
RTVSPropertyOp7
 70
     1
102
RTVSPropertyOp8
 70
     1
102
RTVSPropertyOp9
 70
     1
102
RTVSPropertyOp10
 70
     1
102
RTVSPropertyOp11
 70
     1
102
RTVSPropertyOp12
 70
     1
102
RTVSPropertyOp13
 70
     1
102
RTVSPropertyOp14
 70
     1
102
RTVSPropertyOp15
 70
     1
102
RTVSPropertyOp16
 70
     1
102
RTVSPropertyOp17
 70
     1
102
RTVSPropertyOp18
 70
     1
102
RTVSPropertyOp19
 70
     1
102
RTVSPropertyOp20
 70
     1
102
RTVSPropertyOp21
 70
     1
102
RTVSPropertyOp22
 70
     1
102
RTVSPropertyOp23
 70
     1
102
RTVSPropertyOp24
 70
     1
102
RTVSPropertyOp25
 70
     1
102
RTVSPropertyOp26
 70
     1
102
RTVSPropertyOp27
 70
     1
102
RTVSPropertyOp28
 70
     1
102
RTVSPropertyOp29
 70
     1
102
RTVSPropertyOp30
 70
     1
102
RTVSPropertyOp31
 70
     1
102
RTVSPropertyOp32
 70
     1
  0
XRECORD
  5
DF
102
{ACAD_REACTORS
330
DE
102
}
330
DE
100
AcDbXrecord
280
     1
102
RTVSPropertyOp0
 70
     1
102
RTVSPropertyOp1
 70
     1
102
RTVSPropertyOp2
 70
     1
102
RTVSPropertyOp3
 70
     1
102
RTVSPropertyOp4
 70
     1
102
RTVSPropertyOp5
 70
     1
102
RTVSPropertyOp6
 70
     1
102
RTVSPropertyOp7
 70
     1
102
RTVSPropertyOp8
 70
     1
102
RTVSPropertyOp9
 70
     1
102
RTVSPropertyOp10
 70
     1
102
RTVSPropertyOp11
 70
     1
102
RTVSPropertyOp12
 70
     1
102
RTVSPropertyOp13
 70
     1
102
RTVSPropertyOp14
 70
     1
102
RTVSPropertyOp15
 70
     1
102
RTVSPropertyOp16
 70
     1
102
RTVSPropertyOp17
 70
     1
102
RTVSPropertyOp18
 70
     1
102
RTVSPropertyOp19
 70
     1
102
RTVSPropertyOp20
 70
     1
102
RTVSPropertyOp21
 70
     1
102
RTVSPropertyOp22
 70
     1
102
RTVSPropertyOp23
 70
     1
102
RTVSPropertyOp24
 70
     1
102
RTVSPropertyOp25
 70
     1
102
RTVSPropertyOp26
 70
     1
102
RTVSPropertyOp27
 70
     1
102
RTVSPropertyOp28
 70
     1
102
RTVSPropertyOp29
 70
     1
102
RTVSPropertyOp30
 70
     1
102
RTVSPropertyOp31
 70
     1
102
RTVSPropertyOp32
 70
     1
  0
XRECORD
  5
E7
102
{ACAD_REACTORS
330
E6
102
}
330
E6
100
AcDbXrecord
280
     1
102
RTVSPropertyOp0
 70
     1
102
RTVSPropertyOp1
 70
     1
102
RTVSPropertyOp2
 70
     1
102
RTVSPropertyOp3
 70
     1
102
RTVSPropertyOp4
 70
     1
102
RTVSPropertyOp5
 70
     1
102
RTVSPropertyOp6
 70
     1
102
RTVSPropertyOp7
 70
     1
102
RTVSPropertyOp8
 70
     1
102
RTVSPropertyOp9
 70
     1
102
RTVSPropertyOp10
 70
     1
102
RTVSPropertyOp11
 70
     1
102
RTVSPropertyOp12
 70
     1
102
RTVSPropertyOp13
 70
     1
102
RTVSPropertyOp14
 70
     1
102
RTVSPropertyOp15
 70
     1
102
RTVSPropertyOp16
 70
     1
102
RTVSPropertyOp17
 70
     1
102
RTVSPropertyOp18
 70
     1
102
RTVSPropertyOp19
 70
     1
102
RTVSPropertyOp20
 70
     1
102
RTVSPropertyOp21
 70
     1
102
RTVSPropertyOp22
 70
     1
102
RTVSPropertyOp23
 70
     1
102
RTVSPropertyOp24
 70
     1
102
RTVSPropertyOp25
 70
     1
102
RTVSPropertyOp26
 70
     1
102
RTVSPropertyOp27
 70
     1
102
RTVSPropertyOp28
 70
     1
102
RTVSPropertyOp29
 70
     1
102
RTVSPropertyOp30
 70
     1
102
RTVSPropertyOp31
 70
     1
102
RTVSPropertyOp32
 70
     1
  0
XRECORD
  5
DB
102
{ACAD_REACTORS
330
DA
102
}
330
DA
100
AcDbXrecord
280
     1
102
RTVSPropertyOp0
 70
     1
102
RTVSPropertyOp1
 70
     1
102
RTVSPropertyOp2
 70
     1
102
RTVSPropertyOp3
 70
     1
102
RTVSPropertyOp4
 70
     1
102
RTVSPropertyOp5
 70
     1
102
RTVSPropertyOp6
 70
     1
102
RTVSPropertyOp7
 70
     1
102
RTVSPropertyOp8
 70
     1
102
RTVSPropertyOp9
 70
     1
102
RTVSPropertyOp10
 70
     1
102
RTVSPropertyOp11
 70
     1
102
RTVSPropertyOp12
 70
     1
102
RTVSPropertyOp13
 70
     1
102
RTVSPropertyOp14
 70
     1
102
RTVSPropertyOp15
 70
     1
102
RTVSPropertyOp16
 70
     1
102
RTVSPropertyOp17
 70
     1
102
RTVSPropertyOp18
 70
     1
102
RTVSPropertyOp19
 70
     1
102
RTVSPropertyOp20
 70
     1
102
RTVSPropertyOp21
 70
     1
102
RTVSPropertyOp22
 70
     1
102
RTVSPropertyOp23
 70
     1
102
RTVSPropertyOp24
 70
     1
102
RTVSPropertyOp25
 70
     1
102
RTVSPropertyOp26
 70
     1
102
RTVSPropertyOp27
 70
     1
102
RTVSPropertyOp28
 70
     1
102
RTVSPropertyOp29
 70
     1
102
RTVSPropertyOp30
 70
     1
102
RTVSPropertyOp31
 70
     1
102
RTVSPropertyOp32
 70
     1
  0
XRECORD
  5
DD
102
{ACAD_REACTORS
330
DC
102
}
330
DC
100
AcDbXrecord
280
     1
102
RTVSPropertyOp0
 70
     1
102
RTVSPropertyOp1
 70
     1
102
RTVSPropertyOp2
 70
     1
102
RTVSPropertyOp3
 70
     1
102
RTVSPropertyOp4
 70
     1
102
RTVSPropertyOp5
 70
     1
102
RTVSPropertyOp6
 70
     1
102
RTVSPropertyOp7
 70
     1
102
RTVSPropertyOp8
 70
     1
102
RTVSPropertyOp9
 70
     1
102
RTVSPropertyOp10
 70
     1
102
RTVSPropertyOp11
 70
     1
102
RTVSPropertyOp12
 70
     1
102
RTVSPropertyOp13
 70
     1
102
RTVSPropertyOp14
 70
     1
102
RTVSPropertyOp15
 70
     1
102
RTVSPropertyOp16
 70
     1
102
RTVSPropertyOp17
 70
     1
102
RTVSPropertyOp18
 70
     1
102
RTVSPropertyOp19
 70
     1
102
RTVSPropertyOp20
 70
     1
102
RTVSPropertyOp21
 70
     1
102
RTVSPropertyOp22
 70
     1
102
RTVSPropertyOp23
 70
     1
102
RTVSPropertyOp24
 70
     1
102
RTVSPropertyOp25
 70
     1
102
RTVSPropertyOp26
 70
     1
102
RTVSPropertyOp27
 70
     1
102
RTVSPropertyOp28
 70
     1
102
RTVSPropertyOp29
 70
     1
102
RTVSPropertyOp30
 70
     1
102
RTVSPropertyOp31
 70
     1
102
RTVSPropertyOp32
 70
     1
  0
XRECORD
  5
E5
102
{ACAD_REACTORS
330
E4
102
}
330
E4
100
AcDbXrecord
280
     1
102
RTVSPropertyOp0
 70
     1
102
RTVSPropertyOp1
 70
     1
102
RTVSPropertyOp2
 70
     1
102
RTVSPropertyOp3
 70
     1
102
RTVSPropertyOp4
 70
     1
102
RTVSPropertyOp5
 70
     1
102
RTVSPropertyOp6
 70
     1
102
RTVSPropertyOp7
 70
     1
102
RTVSPropertyOp8
 70
     1
102
RTVSPropertyOp9
 70
     1
102
RTVSPropertyOp10
 70
     1
102
RTVSPropertyOp11
 70
     1
102
RTVSPropertyOp12
 70
     1
102
RTVSPropertyOp13
 70
     1
102
RTVSPropertyOp14
 70
     1
102
RTVSPropertyOp15
 70
     1
102
RTVSPropertyOp16
 70
     1
102
RTVSPropertyOp17
 70
     1
102
RTVSPropertyOp18
 70
     1
102
RTVSPropertyOp19
 70
     1
102
RTVSPropertyOp20
 70
     1
102
RTVSPropertyOp21
 70
     1
102
RTVSPropertyOp22
 70
     1
102
RTVSPropertyOp23
 70
     1
102
RTVSPropertyOp24
 70
     1
102
RTVSPropertyOp25
 70
     1
102
RTVSPropertyOp26
 70
     1
102
RTVSPropertyOp27
 70
     1
102
RTVSPropertyOp28
 70
     1
102
RTVSPropertyOp29
 70
     1
102
RTVSPropertyOp30
 70
     1
102
RTVSPropertyOp31
 70
     1
102
RTVSPropertyOp32
 70
     1
  0
XRECORD
  5
C9
102
{ACAD_REACTORS
330
C8
102
}
330
C8
100
AcDbXrecord
280
     1
102
RTVSPropertyOp0
 70
     1
102
RTVSPropertyOp1
 70
     1
102
RTVSPropertyOp2
 70
     1
102
RTVSPropertyOp3
 70
     1
102
RTVSPropertyOp4
 70
     1
102
RTVSPropertyOp5
 70
     1
102
RTVSPropertyOp6
 70
     1
102
RTVSPropertyOp7
 70
     1
102
RTVSPropertyOp8
 70
     1
102
RTVSPropertyOp9
 70
     1
102
RTVSPropertyOp10
 70
     1
102
RTVSPropertyOp11
 70
     1
102
RTVSPropertyOp12
 70
     1
102
RTVSPropertyOp13
 70
     1
102
RTVSPropertyOp14
 70
     1
102
RTVSPropertyOp15
 70
     1
102
RTVSPropertyOp16
 70
     1
102
RTVSPropertyOp17
 70
     1
102
RTVSPropertyOp18
 70
     1
102
RTVSPropertyOp19
 70
     1
102
RTVSPropertyOp20
 70
     1
102
RTVSPropertyOp21
 70
     1
102
RTVSPropertyOp22
 70
     1
102
RTVSPropertyOp23
 70
     1
102
RTVSPropertyOp24
 70
     1
102
RTVSPropertyOp25
 70
     1
102
RTVSPropertyOp26
 70
     1
102
RTVSPropertyOp27
 70
     1
102
RTVSPropertyOp28
 70
     1
102
RTVSPropertyOp29
 70
     1
102
RTVSPropertyOp30
 70
     1
102
RTVSPropertyOp31
 70
     1
102
RTVSPropertyOp32
 70
     1
  0
XRECORD
  5
CB
102
{ACAD_REACTORS
330
CA
102
}
330
CA
100
AcDbXrecord
280
     1
102
RTVSPropertyOp0
 70
     1
102
RTVSPropertyOp1
 70
     1
102
RTVSPropertyOp2
 70
     1
102
RTVSPropertyOp3
 70
     1
102
RTVSPropertyOp4
 70
     1
102
RTVSPropertyOp5
 70
     1
102
RTVSPropertyOp6
 70
     1
102
RTVSPropertyOp7
 70
     1
102
RTVSPropertyOp8
 70
     1
102
RTVSPropertyOp9
 70
     1
102
RTVSPropertyOp10
 70
     1
102
RTVSPropertyOp11
 70
     1
102
RTVSPropertyOp12
 70
     1
102
RTVSPropertyOp13
 70
     1
102
RTVSPropertyOp14
 70
     1
102
RTVSPropertyOp15
 70
     1
102
RTVSPropertyOp16
 70
     1
102
RTVSPropertyOp17
 70
     1
102
RTVSPropertyOp18
 70
     1
102
RTVSPropertyOp19
 70
     1
102
RTVSPropertyOp20
 70
     1
102
RTVSPropertyOp21
 70
     1
102
RTVSPropertyOp22
 70
     1
102
RTVSPropertyOp23
 70
     1
102
RTVSPropertyOp24
 70
     1
102
RTVSPropertyOp25
 70
     1
102
RTVSPropertyOp26
 70
     1
102
RTVSPropertyOp27
 70
     1
102
RTVSPropertyOp28
 70
     1
102
RTVSPropertyOp29
 70
     1
102
RTVSPropertyOp30
 70
     1
102
RTVSPropertyOp31
 70
     1
102
RTVSPropertyOp32
 70
     1
  0
XRECORD
  5
CD
102
{ACAD_REACTORS
330
CC
102
}
330
CC
100
AcDbXrecord
280
     1
102
RTVSPropertyOp0
 70
     1
102
RTVSPropertyOp1
 70
     1
102
RTVSPropertyOp2
 70
     1
102
RTVSPropertyOp3
 70
     1
102
RTVSPropertyOp4
 70
     1
102
RTVSPropertyOp5
 70
     1
102
RTVSPropertyOp6
 70
     1
102
RTVSPropertyOp7
 70
     1
102
RTVSPropertyOp8
 70
     1
102
RTVSPropertyOp9
 70
     1
102
RTVSPropertyOp10
 70
     1
102
RTVSPropertyOp11
 70
     1
102
RTVSPropertyOp12
 70
     1
102
RTVSPropertyOp13
 70
     1
102
RTVSPropertyOp14
 70
     1
102
RTVSPropertyOp15
 70
     1
102
RTVSPropertyOp16
 70
     1
102
RTVSPropertyOp17
 70
     1
102
RTVSPropertyOp18
 70
     1
102
RTVSPropertyOp19
 70
     1
102
RTVSPropertyOp20
 70
     1
102
RTVSPropertyOp21
 70
     1
102
RTVSPropertyOp22
 70
     1
102
RTVSPropertyOp23
 70
     1
102
RTVSPropertyOp24
 70
     1
102
RTVSPropertyOp25
 70
     1
102
RTVSPropertyOp26
 70
     1
102
RTVSPropertyOp27
 70
     1
102
RTVSPropertyOp28
 70
     1
102
RTVSPropertyOp29
 70
     1
102
RTVSPropertyOp30
 70
     1
102
RTVSPropertyOp31
 70
     1
102
RTVSPropertyOp32
 70
     1
  0
XRECORD
  5
CF
102
{ACAD_REACTORS
330
CE
102
}
330
CE
100
AcDbXrecord
280
     1
102
RTVSPropertyOp0
 70
     1
102
RTVSPropertyOp1
 70
     1
102
RTVSPropertyOp2
 70
     1
102
RTVSPropertyOp3
 70
     1
102
RTVSPropertyOp4
 70
     1
102
RTVSPropertyOp5
 70
     1
102
RTVSPropertyOp6
 70
     1
102
RTVSPropertyOp7
 70
     1
102
RTVSPropertyOp8
 70
     1
102
RTVSPropertyOp9
 70
     1
102
RTVSPropertyOp10
 70
     1
102
RTVSPropertyOp11
 70
     1
102
RTVSPropertyOp12
 70
     1
102
RTVSPropertyOp13
 70
     1
102
RTVSPropertyOp14
 70
     1
102
RTVSPropertyOp15
 70
     1
102
RTVSPropertyOp16
 70
     1
102
RTVSPropertyOp17
 70
     1
102
RTVSPropertyOp18
 70
     1
102
RTVSPropertyOp19
 70
     1
102
RTVSPropertyOp20
 70
     1
102
RTVSPropertyOp21
 70
     1
102
RTVSPropertyOp22
 70
     1
102
RTVSPropertyOp23
 70
     1
102
RTVSPropertyOp24
 70
     1
102
RTVSPropertyOp25
 70
     1
102
RTVSPropertyOp26
 70
     1
102
RTVSPropertyOp27
 70
     1
102
RTVSPropertyOp28
 70
     1
102
RTVSPropertyOp29
 70
     1
102
RTVSPropertyOp30
 70
     1
102
RTVSPropertyOp31
 70
     1
102
RTVSPropertyOp32
 70
     1
  0
XRECORD
  5
E3
102
{ACAD_REACTORS
330
E2
102
}
330
E2
100
AcDbXrecord
280
     1
102
RTVSPropertyOp0
 70
     1
102
RTVSPropertyOp1
 70
     1
102
RTVSPropertyOp2
 70
     1
102
RTVSPropertyOp3
 70
     1
102
RTVSPropertyOp4
 70
     1
102
RTVSPropertyOp5
 70
     1
102
RTVSPropertyOp6
 70
     1
102
RTVSPropertyOp7
 70
     1
102
RTVSPropertyOp8
 70
     1
102
RTVSPropertyOp9
 70
     1
102
RTVSPropertyOp10
 70
     1
102
RTVSPropertyOp11
 70
     1
102
RTVSPropertyOp12
 70
     1
102
RTVSPropertyOp13
 70
     1
102
RTVSPropertyOp14
 70
     1
102
RTVSPropertyOp15
 70
     1
102
RTVSPropertyOp16
 70
     1
102
RTVSPropertyOp17
 70
     1
102
RTVSPropertyOp18
 70
     1
102
RTVSPropertyOp19
 70
     1
102
RTVSPropertyOp20
 70
     1
102
RTVSPropertyOp21
 70
     1
102
RTVSPropertyOp22
 70
     1
102
RTVSPropertyOp23
 70
     1
102
RTVSPropertyOp24
 70
     1
102
RTVSPropertyOp25
 70
     1
102
RTVSPropertyOp26
 70
     1
102
RTVSPropertyOp27
 70
     1
102
RTVSPropertyOp28
 70
     1
102
RTVSPropertyOp29
 70
     1
102
RTVSPropertyOp30
 70
     1
102
RTVSPropertyOp31
 70
     1
102
RTVSPropertyOp32
 70
     1
  0
XRECORD
  5
D9
102
{ACAD_REACTORS
330
D8
102
}
330
D8
100
AcDbXrecord
280
     1
102
RTVSPropertyOp0
 70
     1
102
RTVSPropertyOp1
 70
     1
102
RTVSPropertyOp2
 70
     1
102
RTVSPropertyOp3
 70
     1
102
RTVSPropertyOp4
 70
     1
102
RTVSPropertyOp5
 70
     1
102
RTVSPropertyOp6
 70
     1
102
RTVSPropertyOp7
 70
     1
102
RTVSPropertyOp8
 70
     1
102
RTVSPropertyOp9
 70
     1
102
RTVSPropertyOp10
 70
     1
102
RTVSPropertyOp11
 70
     1
102
RTVSPropertyOp12
 70
     1
102
RTVSPropertyOp13
 70
     1
102
RTVSPropertyOp14
 70
     1
102
RTVSPropertyOp15
 70
     1
102
RTVSPropertyOp16
 70
     1
102
RTVSPropertyOp17
 70
     1
102
RTVSPropertyOp18
 70
     1
102
RTVSPropertyOp19
 70
     1
102
RTVSPropertyOp20
 70
     1
102
RTVSPropertyOp21
 70
     1
102
RTVSPropertyOp22
 70
     1
102
RTVSPropertyOp23
 70
     1
102
RTVSPropertyOp24
 70
     1
102
RTVSPropertyOp25
 70
     1
102
RTVSPropertyOp26
 70
     1
102
RTVSPropertyOp27
 70
     1
102
RTVSPropertyOp28
 70
     1
102
RTVSPropertyOp29
 70
     1
102
RTVSPropertyOp30
 70
     1
102
RTVSPropertyOp31
 70
     1
102
RTVSPropertyOp32
 70
     1
  0
XRECORD
  5
E1
102
{ACAD_REACTORS
330
E0
102
}
330
E0
100
AcDbXrecord
280
     1
102
RTVSPropertyOp0
 70
     1
102
RTVSPropertyOp1
 70
     1
102
RTVSPropertyOp2
 70
     1
102
RTVSPropertyOp3
 70
     1
102
RTVSPropertyOp4
 70
     1
102
RTVSPropertyOp5
 70
     1
102
RTVSPropertyOp6
 70
     1
102
RTVSPropertyOp7
 70
     1
102
RTVSPropertyOp8
 70
     1
102
RTVSPropertyOp9
 70
     1
102
RTVSPropertyOp10
 70
     1
102
RTVSPropertyOp11
 70
     1
102
RTVSPropertyOp12
 70
     1
102
RTVSPropertyOp13
 70
     1
102
RTVSPropertyOp14
 70
     1
102
RTVSPropertyOp15
 70
     1
102
RTVSPropertyOp16
 70
     1
102
RTVSPropertyOp17
 70
     1
102
RTVSPropertyOp18
 70
     1
102
RTVSPropertyOp19
 70
     1
102
RTVSPropertyOp20
 70
     1
102
RTVSPropertyOp21
 70
     1
102
RTVSPropertyOp22
 70
     1
102
RTVSPropertyOp23
 70
     1
102
RTVSPropertyOp24
 70
     1
102
RTVSPropertyOp25
 70
     1
102
RTVSPropertyOp26
 70
     1
102
RTVSPropertyOp27
 70
     1
102
RTVSPropertyOp28
 70
     1
102
RTVSPropertyOp29
 70
     1
102
RTVSPropertyOp30
 70
     1
102
RTVSPropertyOp31
 70
     1
102
RTVSPropertyOp32
 70
     1
  0
ENDSEC
  0
EOF
