  0
SECTION
  2
HEADER
  9
$ACADVER
  1
AC1021
  9
$ACADMAINTVER
 70
    25
  9
$DWGCODEPAGE
  3
ANSI_1256
  9
$INSBASE
 10
0.0
 20
0.0
 30
0.0
  9
$EXTMIN
 10
-69.5007
 20
-99.2904
 30
0.0
  9
$EXTMAX
 10
61.615
 20
122.5342
 30
0.0
  9
$LIMMIN
 10
0.0
 20
0.0
  9
$LIMMAX
 10
12.0
 20
9.0
  9
$ORTHOMODE
 70
     0
  9
$REGENMODE
 70
     1
  9
$FILLMODE
 70
     1
  9
$QTEXTMODE
 70
     0
  9
$MIRRTEXT
 70
     1
  9
$LTSCALE
 40
1.0
  9
$ATTMODE
 70
     1
  9
$TEXTSIZE
 40
0.2
  9
$TRACEWID
 40
0.05
  9
$TEXTSTYLE
  7
Standard
  9
$CLAYER
  8
0
  9
$CELTYPE
  6
ByLayer
  9
$CECOLOR
 62
   256
  9
$CELTSCALE
 40
1.0
  9
$DISPSILH
 70
     0
  9
$DIMSCALE
 40
1.0
  9
$DIMASZ
 40
0.18
  9
$DIMEXO
 40
0.0625
  9
$DIMDLI
 40
0.38
  9
$DIMRND
 40
0.0
  9
$DIMDLE
 40
0.0
  9
$DIMEXE
 40
0.18
  9
$DIMTP
 40
0.0
  9
$DIMTM
 40
0.0
  9
$DIMTXT
 40
0.18
  9
$DIMCEN
 40
0.09
  9
$DIMTSZ
 40
0.0
  9
$DIMTOL
 70
     0
  9
$DIMLIM
 70
     0
  9
$DIMTIH
 70
     1
  9
$DIMTOH
 70
     1
  9
$DIMSE1
 70
     0
  9
$DIMSE2
 70
     0
  9
$DIMTAD
 70
     0
  9
$DIMZIN
 70
     0
  9
$DIMBLK
  1

  9
$DIMASO
 70
     1
  9
$DIMSHO
 70
     1
  9
$DIMPOST
  1

  9
$DIMAPOST
  1

  9
$DIMALT
 70
     0
  9
$DIMALTD
 70
     2
  9
$DIMALTF
 40
25.4
  9
$DIMLFAC
 40
1.0
  9
$DIMTOFL
 70
     0
  9
$DIMTVP
 40
0.0
  9
$DIMTIX
 70
     0
  9
$DIMSOXD
 70
     0
  9
$DIMSAH
 70
     0
  9
$DIMBLK1
  1

  9
$DIMBLK2
  1

  9
$DIMSTYLE
  2
Standard
  9
$DIMCLRD
 70
     0
  9
$DIMCLRE
 70
     0
  9
$DIMCLRT
 70
     0
  9
$DIMTFAC
 40
1.0
  9
$DIMGAP
 40
0.09
  9
$DIMJUST
 70
     0
  9
$DIMSD1
 70
     0
  9
$DIMSD2
 70
     0
  9
$DIMTOLJ
 70
     1
  9
$DIMTZIN
 70
     0
  9
$DIMALTZ
 70
     0
  9
$DIMALTTZ
 70
     0
  9
$DIMUPT
 70
     0
  9
$DIMDEC
 70
     4
  9
$DIMTDEC
 70
     4
  9
$DIMALTU
 70
     2
  9
$DIMALTTD
 70
     2
  9
$DIMTXSTY
  7
Standard
  9
$DIMAUNIT
 70
     0
  9
$DIMADEC
 70
     0
  9
$DIMALTRND
 40
0.0
  9
$DIMAZIN
 70
     0
  9
$DIMDSEP
 70
    46
  9
$DIMATFIT
 70
     3
  9
$DIMFRAC
 70
     0
  9
$DIMLDRBLK
  1

  9
$DIMLUNIT
 70
     2
  9
$DIMLWD
 70
    -2
  9
$DIMLWE
 70
    -2
  9
$DIMTMOVE
 70
     0
  9
$DIMFXL
 40
1.0
  9
$DIMFXLON
 70
     0
  9
$DIMJOGANG
 40
0.7853981633974483
  9
$DIMTFILL
 70
     0
  9
$DIMTFILLCLR
 70
     0
  9
$DIMARCSYM
 70
     0
  9
$DIMLTYPE
  6

  9
$DIMLTEX1
  6

  9
$DIMLTEX2
  6

  9
$LUNITS
 70
     2
  9
$LUPREC
 70
     4
  9
$SKETCHINC
 40
0.1
  9
$FILLETRAD
 40
0.5
  9
$AUNITS
 70
     0
  9
$AUPREC
 70
     0
  9
$MENU
  1
.
  9
$ELEVATION
 40
0.0
  9
$PELEVATION
 40
0.0
  9
$THICKNESS
 40
0.0
  9
$LIMCHECK
 70
     0
  9
$CHAMFERA
 40
0.5
  9
$CHAMFERB
 40
0.5
  9
$CHAMFERC
 40
1.0
  9
$CHAMFERD
 40
0.0
  9
$SKPOLY
 70
     0
  9
$TDCREATE
 40
2458479.289897291
  9
$TDUCREATE
 40
2458479.123230625
  9
$TDUPDATE
 40
2458479.289897546
  9
$TDUUPDATE
 40
2458479.12323088
  9
$TDINDWG
 40
0.0000000116
  9
$TDUSRTIMER
 40
0.0000000116
  9
$USRTIMER
 70
     1
  9
$ANGBASE
 50
0.0
  9
$ANGDIR
 70
     0
  9
$PDMODE
 70
     0
  9
$PDSIZE
 40
0.0
  9
$PLINEWID
 40
0.0
  9
$SPLFRAME
 70
     0
  9
$SPLINETYPE
 70
     6
  9
$SPLINESEGS
 70
     8
  9
$HANDSEED
  5
134
  9
$SURFTAB1
 70
     6
  9
$SURFTAB2
 70
     6
  9
$SURFTYPE
 70
     6
  9
$SURFU
 70
     6
  9
$SURFV
 70
     6
  9
$UCSBASE
  2

  9
$UCSNAME
  2

  9
$UCSORG
 10
0.0
 20
0.0
 30
0.0
  9
$UCSXDIR
 10
1.0
 20
0.0
 30
0.0
  9
$UCSYDIR
 10
0.0
 20
1.0
 30
0.0
  9
$UCSORTHOREF
  2

  9
$UCSORTHOVIEW
 70
     0
  9
$UCSORGTOP
 10
0.0
 20
0.0
 30
0.0
  9
$UCSORGBOTTOM
 10
0.0
 20
0.0
 30
0.0
  9
$UCSORGLEFT
 10
0.0
 20
0.0
 30
0.0
  9
$UCSORGRIGHT
 10
0.0
 20
0.0
 30
0.0
  9
$UCSORGFRONT
 10
0.0
 20
0.0
 30
0.0
  9
$UCSORGBACK
 10
0.0
 20
0.0
 30
0.0
  9
$PUCSBASE
  2

  9
$PUCSNAME
  2

  9
$PUCSORG
 10
0.0
 20
0.0
 30
0.0
  9
$PUCSXDIR
 10
1.0
 20
0.0
 30
0.0
  9
$PUCSYDIR
 10
0.0
 20
1.0
 30
0.0
  9
$PUCSORTHOREF
  2

  9
$PUCSORTHOVIEW
 70
     0
  9
$PUCSORGTOP
 10
0.0
 20
0.0
 30
0.0
  9
$PUCSORGBOTTOM
 10
0.0
 20
0.0
 30
0.0
  9
$PUCSORGLEFT
 10
0.0
 20
0.0
 30
0.0
  9
$PUCSORGRIGHT
 10
0.0
 20
0.0
 30
0.0
  9
$PUCSORGFRONT
 10
0.0
 20
0.0
 30
0.0
  9
$PUCSORGBACK
 10
0.0
 20
0.0
 30
0.0
  9
$USERI1
 70
     0
  9
$USERI2
 70
     0
  9
$USERI3
 70
     0
  9
$USERI4
 70
     0
  9
$USERI5
 70
     0
  9
$USERR1
 40
0.0
  9
$USERR2
 40
0.0
  9
$USERR3
 40
0.0
  9
$USERR4
 40
0.0
  9
$USERR5
 40
0.0
  9
$WORLDVIEW
 70
     1
  9
$SHADEDGE
 70
     3
  9
$SHADEDIF
 70
    70
  9
$TILEMODE
 70
     1
  9
$MAXACTVP
 70
    64
  9
$PINSBASE
 10
0.0
 20
0.0
 30
0.0
  9
$PLIMCHECK
 70
     0
  9
$PEXTMIN
 10
1.000000000000000E+20
 20
1.000000000000000E+20
 30
1.000000000000000E+20
  9
$PEXTMAX
 10
-1.000000000000000E+20
 20
-1.000000000000000E+20
 30
-1.000000000000000E+20
  9
$PLIMMIN
 10
0.0
 20
0.0
  9
$PLIMMAX
 10
12.0
 20
9.0
  9
$UNITMODE
 70
     0
  9
$VISRETAIN
 70
     1
  9
$PLINEGEN
 70
     0
  9
$PSLTSCALE
 70
     1
  9
$TREEDEPTH
 70
  3020
  9
$CMLSTYLE
  2
Standard
  9
$CMLJUST
 70
     0
  9
$CMLSCALE
 40
1.0
  9
$PROXYGRAPHICS
 70
     1
  9
$MEASUREMENT
 70
     0
  9
$CELWEIGHT
370
    -1
  9
$ENDCAPS
280
     0
  9
$JOINSTYLE
280
     0
  9
$LWDISPLAY
290
     0
  9
$INSUNITS
 70
     4
  9
$HYPERLINKBASE
  1

  9
$STYLESHEET
  1

  9
$XEDIT
290
     1
  9
$CEPSNTYPE
380
     0
  9
$PSTYLEMODE
290
     1
  9
$FINGERPRINTGUID
  2
{0439CA8D-F120-4676-9994-B9F87E244EFD}
  9
$VERSIONGUID
  2
{FAEB1C32-E019-11D5-929B-00C0DF256EC4}
  9
$EXTNAMES
290
     1
  9
$PSVPSCALE
 40
0.0
  9
$OLESTARTUP
290
     0
  9
$SORTENTS
280
   127
  9
$INDEXCTL
280
     0
  9
$HIDETEXT
280
     1
  9
$XCLIPFRAME
290
     0
  9
$HALOGAP
280
     0
  9
$OBSCOLOR
 70
   257
  9
$OBSLTYPE
280
     0
  9
$INTERSECTIONDISPLAY
280
     0
  9
$INTERSECTIONCOLOR
 70
   257
  9
$DIMASSOC
280
     2
  9
$PROJECTNAME
  1

  9
$CAMERADISPLAY
290
     0
  9
$LENSLENGTH
 40
50.0
  9
$CAMERAHEIGHT
 40
0.0
  9
$STEPSPERSEC
 40
2.0
  9
$STEPSIZE
 40
6.0
  9
$3DDWFPREC
 40
2.0
  9
$PSOLWIDTH
 40
0.25
  9
$PSOLHEIGHT
 40
4.0
  9
$LOFTANG1
 40
1.570796326794897
  9
$LOFTANG2
 40
1.570796326794897
  9
$LOFTMAG1
 40
0.0
  9
$LOFTMAG2
 40
0.0
  9
$LOFTPARAM
 70
     7
  9
$LOFTNORMALS
280
     1
  9
$LATITUDE
 40
37.795
  9
$LONGITUDE
 40
-122.394
  9
$NORTHDIRECTION
 40
0.0
  9
$TIMEZONE
 70
 -8000
  9
$LIGHTGLYPHDISPLAY
280
     1
  9
$TILEMODELIGHTSYNCH
280
     1
  9
$SOLIDHIST
280
     1
  9
$SHOWHIST
280
     1
  9
$DWFFRAME
280
     2
  9
$DGNFRAME
280
     2
  9
$REALWORLDSCALE
290
     1
  9
$INTERFERECOLOR
 62
   256
  9
$CSHADOW
280
     0
  9
$SHADOWPLANELOCATION
 40
0.0
  0
ENDSEC
  0
SECTION
  2
CLASSES
  0
CLASS
  1
ACDBDICTIONARYWDFLT
  2
AcDbDictionaryWithDefault
  3
ObjectDBX Classes
 90
        0
 91
        4
280
     0
281
     0
  0
CLASS
  1
VISUALSTYLE
  2
AcDbVisualStyle
  3
ObjectDBX Classes
 90
     4095
 91
        4
280
     0
281
     0
  0
CLASS
  1
MATERIAL
  2
AcDbMaterial
  3
ObjectDBX Classes
 90
     1153
 91
        4
280
     0
281
     0
  0
ENDSEC
  0
SECTION
  2
TABLES
  0
TABLE
  2
VPORT
  5
8
330
0
100
AcDbSymbolTable
 70
     1
  0
VPORT
  5
29
330
8
100
AcDbSymbolTableRecord
100
AcDbViewportTableRecord
  2
*Active
 70
     0
 10
0.0
 20
0.0
 11
1.0
 21
1.0
 12
10.42990654205607
 22
4.5
 13
0.0
 23
0.0
 14
0.5
 24
0.5
 15
0.5
 25
0.5
 16
0.0
 26
0.0
 36
1.0
 17
0.0
 27
0.0
 37
0.0
 40
9.0
 41
1.972972972850329
 42
50.0
 43
0.0
 44
0.0
 50
0.0
 51
0.0
 71
     0
 72
   100
 73
     1
 74
     3
 75
     0
 76
     0
 77
     0
 78
     0
281
     0
 65
     1
110
0.0
120
0.0
130
0.0
111
1.0
121
0.0
131
0.0
112
0.0
122
1.0
132
0.0
 79
     0
146
0.0
 60
     3
 61
     5
292
     1
282
     1
141
0.0
142
0.0
 63
   250
  0
ENDTAB
  0
TABLE
  2
LTYPE
  5
5
330
0
100
AcDbSymbolTable
 70
     1
  0
LTYPE
  5
14
330
5
100
AcDbSymbolTableRecord
100
AcDbLinetypeTableRecord
  2
ByBlock
 70
     0
  3

 72
    65
 73
     0
 40
0.0
  0
LTYPE
  5
15
330
5
100
AcDbSymbolTableRecord
100
AcDbLinetypeTableRecord
  2
ByLayer
 70
     0
  3

 72
    65
 73
     0
 40
0.0
  0
LTYPE
  5
16
330
5
100
AcDbSymbolTableRecord
100
AcDbLinetypeTableRecord
  2
Continuous
 70
     0
  3
Solid line
 72
    65
 73
     0
 40
0.0
  0
ENDTAB
  0
TABLE
  2
LAYER
  5
2
330
0
100
AcDbSymbolTable
 70
     3
  0
LAYER
  5
10
330
2
100
AcDbSymbolTableRecord
100
AcDbLayerTableRecord
  2
0
 70
     0
 62
     7
  6
Continuous
370
    -3
390
F
347
3E
  0
LAYER
  5
40
330
2
100
AcDbSymbolTableRecord
100
AcDbLayerTableRecord
  2
layer 1
 70
     0
 62
     7
  6
Continuous
370
    -3
390
F
347
3E
  0
LAYER
  5
111
330
2
100
AcDbSymbolTableRecord
100
AcDbLayerTableRecord
  2
Master Guides
 70
     0
 62
     7
  6
Continuous
370
    -3
390
F
347
3E
  0
ENDTAB
  0
TABLE
  2
STYLE
  5
3
330
0
100
AcDbSymbolTable
 70
     1
  0
STYLE
  5
11
330
3
100
AcDbSymbolTableRecord
100
AcDbTextStyleTableRecord
  2
Standard
 70
     0
 40
0.0
 41
1.0
 50
0.0
 71
     0
 42
0.2
  3
txt
  4

  0
ENDTAB
  0
TABLE
  2
VIEW
  5
6
330
0
100
AcDbSymbolTable
 70
     0
  0
ENDTAB
  0
TABLE
  2
UCS
  5
7
330
0
100
AcDbSymbolTable
 70
     0
  0
ENDTAB
  0
TABLE
  2
APPID
  5
9
330
0
100
AcDbSymbolTable
 70
     2
  0
APPID
  5
12
330
9
100
AcDbSymbolTableRecord
100
AcDbRegAppTableRecord
  2
ACAD
 70
     0
  0
APPID
  5
3F
330
9
100
AcDbSymbolTableRecord
100
AcDbRegAppTableRecord
  2
ODA
 70
     0
  0
ENDTAB
  0
TABLE
  2
DIMSTYLE
  5
A
330
0
100
AcDbSymbolTable
 70
     1
100
AcDbDimStyleTable
  0
DIMSTYLE
105
27
330
A
100
AcDbSymbolTableRecord
100
AcDbDimStyleTableRecord
  2
Standard
 70
     0
178
     0
340
11
  0
ENDTAB
  0
TABLE
  2
BLOCK_RECORD
  5
1
330
0
100
AcDbSymbolTable
 70
     1
  0
BLOCK_RECORD
  5
1F
330
1
100
AcDbSymbolTableRecord
100
AcDbBlockTableRecord
  2
*Model_Space
340
22
 70
     0
280
     1
281
     0
  0
BLOCK_RECORD
  5
1B
330
1
100
AcDbSymbolTableRecord
100
AcDbBlockTableRecord
  2
*Paper_Space
340
1E
 70
     0
280
     1
281
     0
  0
BLOCK_RECORD
  5
23
330
1
100
AcDbSymbolTableRecord
100
AcDbBlockTableRecord
  2
*Paper_Space0
340
26
 70
     0
280
     1
281
     0
  0
ENDTAB
  0
ENDSEC
  0
SECTION
  2
BLOCKS
  0
BLOCK
  5
20
330
1F
100
AcDbEntity
  8
0
100
AcDbBlockBegin
  2
*Model_Space
 70
     0
 10
0.0
 20
0.0
 30
0.0
  3
*Model_Space
  1

  0
ENDBLK
  5
21
330
1F
100
AcDbEntity
  8
0
100
AcDbBlockEnd
  0
BLOCK
  5
1C
330
1B
100
AcDbEntity
 67
     1
  8
0
100
AcDbBlockBegin
  2
*Paper_Space
 70
     0
 10
0.0
 20
0.0
 30
0.0
  3
*Paper_Space
  1

  0
ENDBLK
  5
1D
330
1B
100
AcDbEntity
 67
     1
  8
0
100
AcDbBlockEnd
  0
BLOCK
  5
24
330
23
100
AcDbEntity
  8
0
100
AcDbBlockBegin
  2
*Paper_Space0
 70
     0
 10
0.0
 20
0.0
 30
0.0
  3
*Paper_Space0
  1

  0
ENDBLK
  5
25
330
23
100
AcDbEntity
  8
0
100
AcDbBlockEnd
  0
ENDSEC
  0
SECTION
  2
ENTITIES
  0
SPLINE
  5
41
330
1F
100
AcDbEntity
  8
layer 1
100
AcDbSpline
210
0.0
220
0.0
230
1.0
 70
    11
 71
     3
 72
    20
 73
    16
 74
     0
 42
0.0000000001
 43
0.0000000001
 12
1.0
 22
0.0
 32
0.0
 13
1.0
 23
0.0
 33
0.0
 40
0.0
 40
0.0
 40
0.0
 40
0.0
 40
0.2
 40
0.2
 40
0.2
 40
0.2
 40
0.4
 40
0.4
 40
0.4
 40
0.4
 40
0.6
 40
0.6
 40
0.6
 40
0.6
 40
1.0
 40
1.0
 40
1.0
 40
1.0
 10
-69.5007
 20
-99.2904
 30
0.0
 10
-69.5007
 20
-99.2904
 30
0.0
 10
61.615
 20
-99.2904
 30
0.0
 10
61.615
 20
-99.2904
 30
0.0
 10
61.615
 20
-99.2904
 30
0.0
 10
61.615
 20
-99.2904
 30
0.0
 10
61.615
 20
122.5342
 30
0.0
 10
61.615
 20
122.5342
 30
0.0
 10
61.615
 20
122.5342
 30
0.0
 10
61.615
 20
122.5342
 30
0.0
 10
-69.5007
 20
122.5342
 30
0.0
 10
-69.5007
 20
122.5342
 30
0.0
 10
-69.5007
 20
122.5342
 30
0.0
 10
-69.5007
 20
122.5342
 30
0.0
 10
-69.5007
 20
-99.2904
 30
0.0
 10
-69.5007
 20
-99.2904
 30
0.0
  0
SPLINE
  5
42
330
1F
100
AcDbEntity
  8
layer 1
 62
     7
100
AcDbSpline
210
0.0
220
0.0
230
1.0
 70
    11
 71
     3
 72
    20
 73
    16
 74
     0
 42
0.0000000001
 43
0.0000000001
 12
1.0
 22
0.0
 32
0.0
 13
1.0
 23
0.0
 33
0.0
 40
0.0
 40
0.0
 40
0.0
 40
0.0
 40
0.2
 40
0.2
 40
0.2
 40
0.2
 40
0.4
 40
0.4
 40
0.4
 40
0.4
 40
0.6
 40
0.6
 40
0.6
 40
0.6
 40
1.0
 40
1.0
 40
1.0
 40
1.0
 10
0.2247
 20
26.3412
 30
0.0
 10
4.0063
 20
25.8184
 30
0.0
 10
7.9816
 20
24.4245
 30
0.0
 10
10.9888
 20
22.6047
 30
0.0
 10
10.9888
 20
22.6047
 30
0.0
 10
13.996
 20
24.4245
 30
0.0
 10
17.9713
 20
25.8185
 30
0.0
 10
21.7529
 20
26.3412
 30
0.0
 10
21.7529
 20
26.3412
 30
0.0
 10
17.9713
 20
26.8639
 30
0.0
 10
13.996
 20
28.2578
 30
0.0
 10
10.9888
 20
30.0776
 30
0.0
 10
10.9888
 20
30.0776
 30
0.0
 10
7.9816
 20
28.2578
 30
0.0
 10
4.0063
 20
26.8638
 30
0.0
 10
0.2247
 20
26.3412
 30
0.0
  0
SPLINE
  5
43
330
1F
100
AcDbEntity
  8
layer 1
 62
     7
100
AcDbSpline
210
0.0
220
0.0
230
1.0
 70
    11
 71
     3
 72
    20
 73
    16
 74
     0
 42
0.0000000001
 43
0.0000000001
 12
1.0
 22
0.0
 32
0.0
 13
1.0
 23
0.0
 33
0.0
 40
0.0
 40
0.0
 40
0.0
 40
0.0
 40
0.2
 40
0.2
 40
0.2
 40
0.2
 40
0.4
 40
0.4
 40
0.4
 40
0.4
 40
0.6
 40
0.6
 40
0.6
 40
0.6
 40
1.0
 40
1.0
 40
1.0
 40
1.0
 10
14.2482
 20
32.2231
 30
0.0
 10
16.9645
 20
31.035
 30
0.0
 10
18.8638
 20
30.2938
 30
0.0
 10
22.3334
 20
29.7706
 30
0.0
 10
22.3334
 20
29.7706
 30
0.0
 10
22.0424
 20
32.6206
 30
0.0
 10
21.069
 20
35.2943
 30
0.0
 10
19.8809
 20
37.9719
 30
0.0
 10
19.8809
 20
37.9719
 30
0.0
 10
18.3707
 20
35.8794
 30
0.0
 10
16.0648
 20
33.5796
 30
0.0
 10
14.2482
 20
32.2231
 30
0.0
 10
14.2482
 20
32.2231
 30
0.0
 10
14.2482
 20
32.2231
 30
0.0
 10
14.2482
 20
32.2231
 30
0.0
 10
14.2482
 20
32.2231
 30
0.0
  0
SPLINE
  5
44
330
1F
100
AcDbEntity
  8
layer 1
 62
     7
100
AcDbSpline
210
0.0
220
0.0
230
1.0
 70
    11
 71
     3
 72
    20
 73
    16
 74
     0
 42
0.0000000001
 43
0.0000000001
 12
1.0
 22
0.0
 32
0.0
 13
1.0
 23
0.0
 33
0.0
 40
0.0
 40
0.0
 40
0.0
 40
0.0
 40
0.2
 40
0.2
 40
0.2
 40
0.2
 40
0.4
 40
0.4
 40
0.4
 40
0.4
 40
0.6
 40
0.6
 40
0.6
 40
0.6
 40
1.0
 40
1.0
 40
1.0
 40
1.0
 10
7.736
 20
32.2231
 30
0.0
 10
5.0197
 20
31.035
 30
0.0
 10
3.1204
 20
30.2938
 30
0.0
 10
-0.3491
 20
29.7706
 30
0.0
 10
-0.3491
 20
29.7706
 30
0.0
 10
-0.0582
 20
32.6206
 30
0.0
 10
0.9153
 20
35.2943
 30
0.0
 10
2.1033
 20
37.9719
 30
0.0
 10
2.1033
 20
37.9719
 30
0.0
 10
3.6135
 20
35.8794
 30
0.0
 10
5.9194
 20
33.5796
 30
0.0
 10
7.736
 20
32.2231
 30
0.0
 10
7.736
 20
32.2231
 30
0.0
 10
7.736
 20
32.2231
 30
0.0
 10
7.736
 20
32.2231
 30
0.0
 10
7.736
 20
32.2231
 30
0.0
  0
SPLINE
  5
45
330
1F
100
AcDbEntity
  8
layer 1
 62
     7
100
AcDbSpline
210
0.0
220
0.0
230
1.0
 70
    11
 71
     3
 72
    24
 73
    20
 74
     0
 42
0.0000000001
 43
0.0000000001
 12
1.0
 22
0.0
 32
0.0
 13
1.0
 23
0.0
 33
0.0
 40
0.0
 40
0.0
 40
0.0
 40
0.0
 40
0.1666666666666667
 40
0.1666666666666667
 40
0.1666666666666667
 40
0.1666666666666667
 40
0.3333333333333333
 40
0.3333333333333333
 40
0.3333333333333333
 40
0.3333333333333333
 40
0.5
 40
0.5
 40
0.5
 40
0.5
 40
0.6666666666666666
 40
0.6666666666666666
 40
0.6666666666666666
 40
0.6666666666666666
 40
1.0
 40
1.0
 40
1.0
 40
1.0
 10
3.9416
 20
41.275
 30
0.0
 10
5.2695
 20
39.2088
 30
0.0
 10
7.9387
 20
36.1526
 30
0.0
 10
10.9855
 20
34.214
 30
0.0
 10
10.9855
 20
34.214
 30
0.0
 10
14.4281
 20
36.4692
 30
0.0
 10
16.5828
 20
39.2879
 30
0.0
 10
18.0294
 20
41.2354
 30
0.0
 10
18.0294
 20
41.2354
 30
0.0
 10
17.0973
 20
42.9454
 30
0.0
 10
13.874
 20
46.5952
 30
0.0
 10
10.8667
 20
48.4151
 30
0.0
 10
10.8667
 20
48.4151
 30
0.0
 10
7.8595
 20
46.3182
 30
0.0
 10
5.3882
 20
43.3808
 30
0.0
 10
3.9416
 20
41.2749
 30
0.0
 10
3.9416
 20
41.2749
 30
0.0
 10
3.9416
 20
41.2749
 30
0.0
 10
3.9416
 20
41.275
 30
0.0
 10
3.9416
 20
41.275
 30
0.0
  0
SPLINE
  5
46
330
1F
100
AcDbEntity
  8
layer 1
 62
     7
100
AcDbSpline
210
0.0
220
0.0
230
1.0
 70
    11
 71
     3
 72
    20
 73
    16
 74
     0
 42
0.0000000001
 43
0.0000000001
 12
1.0
 22
0.0
 32
0.0
 13
1.0
 23
0.0
 33
0.0
 40
0.0
 40
0.0
 40
0.0
 40
0.0
 40
0.2
 40
0.2
 40
0.2
 40
0.2
 40
0.4
 40
0.4
 40
0.4
 40
0.4
 40
0.6
 40
0.6
 40
0.6
 40
0.6
 40
1.0
 40
1.0
 40
1.0
 40
1.0
 10
14.2482
 20
20.5912
 30
0.0
 10
16.9645
 20
21.7793
 30
0.0
 10
18.8638
 20
22.5204
 30
0.0
 10
22.3334
 20
23.0437
 30
0.0
 10
22.3334
 20
23.0437
 30
0.0
 10
22.0424
 20
20.1937
 30
0.0
 10
21.069
 20
17.52
 30
0.0
 10
19.8809
 20
14.8424
 30
0.0
 10
19.8809
 20
14.8424
 30
0.0
 10
18.3707
 20
16.9349
 30
0.0
 10
16.0648
 20
19.2347
 30
0.0
 10
14.2482
 20
20.5911
 30
0.0
 10
14.2482
 20
20.5911
 30
0.0
 10
14.2482
 20
20.5911
 30
0.0
 10
14.2482
 20
20.5912
 30
0.0
 10
14.2482
 20
20.5912
 30
0.0
  0
SPLINE
  5
47
330
1F
100
AcDbEntity
  8
layer 1
 62
     7
100
AcDbSpline
210
0.0
220
0.0
230
1.0
 70
    11
 71
     3
 72
    20
 73
    16
 74
     0
 42
0.0000000001
 43
0.0000000001
 12
1.0
 22
0.0
 32
0.0
 13
1.0
 23
0.0
 33
0.0
 40
0.0
 40
0.0
 40
0.0
 40
0.0
 40
0.2
 40
0.2
 40
0.2
 40
0.2
 40
0.4
 40
0.4
 40
0.4
 40
0.4
 40
0.6
 40
0.6
 40
0.6
 40
0.6
 40
1.0
 40
1.0
 40
1.0
 40
1.0
 10
7.736
 20
20.5912
 30
0.0
 10
5.0197
 20
21.7793
 30
0.0
 10
3.1204
 20
22.5204
 30
0.0
 10
-0.3491
 20
23.0437
 30
0.0
 10
-0.3491
 20
23.0437
 30
0.0
 10
-0.0582
 20
20.1937
 30
0.0
 10
0.9153
 20
17.52
 30
0.0
 10
2.1033
 20
14.8424
 30
0.0
 10
2.1033
 20
14.8424
 30
0.0
 10
3.6135
 20
16.9349
 30
0.0
 10
5.9194
 20
19.2347
 30
0.0
 10
7.736
 20
20.5911
 30
0.0
 10
7.736
 20
20.5911
 30
0.0
 10
7.736
 20
20.5911
 30
0.0
 10
7.736
 20
20.5912
 30
0.0
 10
7.736
 20
20.5912
 30
0.0
  0
SPLINE
  5
48
330
1F
100
AcDbEntity
  8
layer 1
 62
     7
100
AcDbSpline
210
0.0
220
0.0
230
1.0
 70
    11
 71
     3
 72
    24
 73
    20
 74
     0
 42
0.0000000001
 43
0.0000000001
 12
1.0
 22
0.0
 32
0.0
 13
1.0
 23
0.0
 33
0.0
 40
0.0
 40
0.0
 40
0.0
 40
0.0
 40
0.1666666666666667
 40
0.1666666666666667
 40
0.1666666666666667
 40
0.1666666666666667
 40
0.3333333333333333
 40
0.3333333333333333
 40
0.3333333333333333
 40
0.3333333333333333
 40
0.5
 40
0.5
 40
0.5
 40
0.5
 40
0.6666666666666666
 40
0.6666666666666666
 40
0.6666666666666666
 40
0.6666666666666666
 40
1.0
 40
1.0
 40
1.0
 40
1.0
 10
3.9416
 20
11.5393
 30
0.0
 10
5.2695
 20
13.6055
 30
0.0
 10
7.9387
 20
16.6617
 30
0.0
 10
10.9855
 20
18.6003
 30
0.0
 10
10.9855
 20
18.6003
 30
0.0
 10
14.4281
 20
16.3451
 30
0.0
 10
16.5828
 20
13.5264
 30
0.0
 10
18.0294
 20
11.5789
 30
0.0
 10
18.0294
 20
11.5789
 30
0.0
 10
17.0973
 20
9.8688
 30
0.0
 10
13.874
 20
6.219
 30
0.0
 10
10.8667
 20
4.3992
 30
0.0
 10
10.8667
 20
4.3992
 30
0.0
 10
7.8595
 20
6.4961
 30
0.0
 10
5.3882
 20
9.4335
 30
0.0
 10
3.9416
 20
11.5394
 30
0.0
 10
3.9416
 20
11.5394
 30
0.0
 10
3.9416
 20
11.5394
 30
0.0
 10
3.9416
 20
11.5393
 30
0.0
 10
3.9416
 20
11.5393
 30
0.0
  0
SPLINE
  5
49
330
1F
100
AcDbEntity
  8
layer 1
 62
     7
100
AcDbSpline
210
0.0
220
0.0
230
1.0
 70
    11
 71
     3
 72
    20
 73
    16
 74
     0
 42
0.0000000001
 43
0.0000000001
 12
1.0
 22
0.0
 32
0.0
 13
1.0
 23
0.0
 33
0.0
 40
0.0
 40
0.0
 40
0.0
 40
0.0
 40
0.2
 40
0.2
 40
0.2
 40
0.2
 40
0.4
 40
0.4
 40
0.4
 40
0.4
 40
0.6
 40
0.6
 40
0.6
 40
0.6
 40
1.0
 40
1.0
 40
1.0
 40
1.0
 10
29.9867
 20
26.3412
 30
0.0
 10
33.7684
 20
25.8184
 30
0.0
 10
37.7436
 20
24.4245
 30
0.0
 10
40.7509
 20
22.6047
 30
0.0
 10
40.7509
 20
22.6047
 30
0.0
 10
43.7581
 20
24.4245
 30
0.0
 10
47.7334
 20
25.8185
 30
0.0
 10
51.515
 20
26.3412
 30
0.0
 10
51.515
 20
26.3412
 30
0.0
 10
47.7334
 20
26.8639
 30
0.0
 10
43.7581
 20
28.2578
 30
0.0
 10
40.7509
 20
30.0776
 30
0.0
 10
40.7509
 20
30.0776
 30
0.0
 10
37.7436
 20
28.2578
 30
0.0
 10
33.7684
 20
26.8638
 30
0.0
 10
29.9867
 20
26.3412
 30
0.0
  0
SPLINE
  5
4A
330
1F
100
AcDbEntity
  8
layer 1
 62
     7
100
AcDbSpline
210
0.0
220
0.0
230
1.0
 70
    11
 71
     3
 72
    20
 73
    16
 74
     0
 42
0.0000000001
 43
0.0000000001
 12
1.0
 22
0.0
 32
0.0
 13
1.0
 23
0.0
 33
0.0
 40
0.0
 40
0.0
 40
0.0
 40
0.0
 40
0.2
 40
0.2
 40
0.2
 40
0.2
 40
0.4
 40
0.4
 40
0.4
 40
0.4
 40
0.6
 40
0.6
 40
0.6
 40
0.6
 40
1.0
 40
1.0
 40
1.0
 40
1.0
 10
44.0103
 20
32.2231
 30
0.0
 10
46.7266
 20
31.035
 30
0.0
 10
48.6259
 20
30.2938
 30
0.0
 10
52.0954
 20
29.7706
 30
0.0
 10
52.0954
 20
29.7706
 30
0.0
 10
51.8045
 20
32.6206
 30
0.0
 10
50.831
 20
35.2943
 30
0.0
 10
49.643
 20
37.9719
 30
0.0
 10
49.643
 20
37.9719
 30
0.0
 10
48.1327
 20
35.8794
 30
0.0
 10
45.8269
 20
33.5796
 30
0.0
 10
44.0103
 20
32.2231
 30
0.0
 10
44.0103
 20
32.2231
 30
0.0
 10
44.0103
 20
32.2231
 30
0.0
 10
44.0103
 20
32.2231
 30
0.0
 10
44.0103
 20
32.2231
 30
0.0
  0
SPLINE
  5
4B
330
1F
100
AcDbEntity
  8
layer 1
 62
     7
100
AcDbSpline
210
0.0
220
0.0
230
1.0
 70
    11
 71
     3
 72
    20
 73
    16
 74
     0
 42
0.0000000001
 43
0.0000000001
 12
1.0
 22
0.0
 32
0.0
 13
1.0
 23
0.0
 33
0.0
 40
0.0
 40
0.0
 40
0.0
 40
0.0
 40
0.2
 40
0.2
 40
0.2
 40
0.2
 40
0.4
 40
0.4
 40
0.4
 40
0.4
 40
0.6
 40
0.6
 40
0.6
 40
0.6
 40
1.0
 40
1.0
 40
1.0
 40
1.0
 10
37.498
 20
32.2231
 30
0.0
 10
34.7817
 20
31.035
 30
0.0
 10
32.8824
 20
30.2938
 30
0.0
 10
29.4128
 20
29.7706
 30
0.0
 10
29.4128
 20
29.7706
 30
0.0
 10
29.7038
 20
32.6206
 30
0.0
 10
30.6772
 20
35.2943
 30
0.0
 10
31.8653
 20
37.9719
 30
0.0
 10
31.8653
 20
37.9719
 30
0.0
 10
33.3755
 20
35.8794
 30
0.0
 10
35.6814
 20
33.5796
 30
0.0
 10
37.498
 20
32.2231
 30
0.0
 10
37.498
 20
32.2231
 30
0.0
 10
37.498
 20
32.2231
 30
0.0
 10
37.498
 20
32.2231
 30
0.0
 10
37.498
 20
32.2231
 30
0.0
  0
SPLINE
  5
4C
330
1F
100
AcDbEntity
  8
layer 1
 62
     7
100
AcDbSpline
210
0.0
220
0.0
230
1.0
 70
    11
 71
     3
 72
    24
 73
    20
 74
     0
 42
0.0000000001
 43
0.0000000001
 12
1.0
 22
0.0
 32
0.0
 13
1.0
 23
0.0
 33
0.0
 40
0.0
 40
0.0
 40
0.0
 40
0.0
 40
0.1666666666666667
 40
0.1666666666666667
 40
0.1666666666666667
 40
0.1666666666666667
 40
0.3333333333333333
 40
0.3333333333333333
 40
0.3333333333333333
 40
0.3333333333333333
 40
0.5
 40
0.5
 40
0.5
 40
0.5
 40
0.6666666666666666
 40
0.6666666666666666
 40
0.6666666666666666
 40
0.6666666666666666
 40
1.0
 40
1.0
 40
1.0
 40
1.0
 10
33.7036
 20
41.275
 30
0.0
 10
35.0315
 20
39.2088
 30
0.0
 10
37.7007
 20
36.1526
 30
0.0
 10
40.7475
 20
34.214
 30
0.0
 10
40.7475
 20
34.214
 30
0.0
 10
44.1901
 20
36.4692
 30
0.0
 10
46.3448
 20
39.2879
 30
0.0
 10
47.7914
 20
41.2354
 30
0.0
 10
47.7914
 20
41.2354
 30
0.0
 10
46.8593
 20
42.9454
 30
0.0
 10
43.636
 20
46.5952
 30
0.0
 10
40.6287
 20
48.4151
 30
0.0
 10
40.6287
 20
48.4151
 30
0.0
 10
37.6215
 20
46.3182
 30
0.0
 10
35.1502
 20
43.3808
 30
0.0
 10
33.7035
 20
41.2749
 30
0.0
 10
33.7035
 20
41.2749
 30
0.0
 10
33.7035
 20
41.2749
 30
0.0
 10
33.7036
 20
41.275
 30
0.0
 10
33.7036
 20
41.275
 30
0.0
  0
SPLINE
  5
4D
330
1F
100
AcDbEntity
  8
layer 1
 62
     7
100
AcDbSpline
210
0.0
220
0.0
230
1.0
 70
    11
 71
     3
 72
    20
 73
    16
 74
     0
 42
0.0000000001
 43
0.0000000001
 12
1.0
 22
0.0
 32
0.0
 13
1.0
 23
0.0
 33
0.0
 40
0.0
 40
0.0
 40
0.0
 40
0.0
 40
0.2
 40
0.2
 40
0.2
 40
0.2
 40
0.4
 40
0.4
 40
0.4
 40
0.4
 40
0.6
 40
0.6
 40
0.6
 40
0.6
 40
1.0
 40
1.0
 40
1.0
 40
1.0
 10
44.0103
 20
20.5912
 30
0.0
 10
46.7266
 20
21.7793
 30
0.0
 10
48.6259
 20
22.5204
 30
0.0
 10
52.0954
 20
23.0437
 30
0.0
 10
52.0954
 20
23.0437
 30
0.0
 10
51.8045
 20
20.1937
 30
0.0
 10
50.831
 20
17.52
 30
0.0
 10
49.643
 20
14.8424
 30
0.0
 10
49.643
 20
14.8424
 30
0.0
 10
48.1327
 20
16.9349
 30
0.0
 10
45.8269
 20
19.2347
 30
0.0
 10
44.0103
 20
20.5911
 30
0.0
 10
44.0103
 20
20.5911
 30
0.0
 10
44.0103
 20
20.5911
 30
0.0
 10
44.0103
 20
20.5912
 30
0.0
 10
44.0103
 20
20.5912
 30
0.0
  0
SPLINE
  5
4E
330
1F
100
AcDbEntity
  8
layer 1
 62
     7
100
AcDbSpline
210
0.0
220
0.0
230
1.0
 70
    11
 71
     3
 72
    20
 73
    16
 74
     0
 42
0.0000000001
 43
0.0000000001
 12
1.0
 22
0.0
 32
0.0
 13
1.0
 23
0.0
 33
0.0
 40
0.0
 40
0.0
 40
0.0
 40
0.0
 40
0.2
 40
0.2
 40
0.2
 40
0.2
 40
0.4
 40
0.4
 40
0.4
 40
0.4
 40
0.6
 40
0.6
 40
0.6
 40
0.6
 40
1.0
 40
1.0
 40
1.0
 40
1.0
 10
37.498
 20
20.5912
 30
0.0
 10
34.7817
 20
21.7793
 30
0.0
 10
32.8824
 20
22.5204
 30
0.0
 10
29.4128
 20
23.0437
 30
0.0
 10
29.4128
 20
23.0437
 30
0.0
 10
29.7038
 20
20.1937
 30
0.0
 10
30.6772
 20
17.52
 30
0.0
 10
31.8653
 20
14.8424
 30
0.0
 10
31.8653
 20
14.8424
 30
0.0
 10
33.3755
 20
16.9349
 30
0.0
 10
35.6814
 20
19.2347
 30
0.0
 10
37.498
 20
20.5911
 30
0.0
 10
37.498
 20
20.5911
 30
0.0
 10
37.498
 20
20.5911
 30
0.0
 10
37.498
 20
20.5912
 30
0.0
 10
37.498
 20
20.5912
 30
0.0
  0
SPLINE
  5
4F
330
1F
100
AcDbEntity
  8
layer 1
 62
     7
100
AcDbSpline
210
0.0
220
0.0
230
1.0
 70
    11
 71
     3
 72
    24
 73
    20
 74
     0
 42
0.0000000001
 43
0.0000000001
 12
1.0
 22
0.0
 32
0.0
 13
1.0
 23
0.0
 33
0.0
 40
0.0
 40
0.0
 40
0.0
 40
0.0
 40
0.1666666666666667
 40
0.1666666666666667
 40
0.1666666666666667
 40
0.1666666666666667
 40
0.3333333333333333
 40
0.3333333333333333
 40
0.3333333333333333
 40
0.3333333333333333
 40
0.5
 40
0.5
 40
0.5
 40
0.5
 40
0.6666666666666666
 40
0.6666666666666666
 40
0.6666666666666666
 40
0.6666666666666666
 40
1.0
 40
1.0
 40
1.0
 40
1.0
 10
33.7036
 20
11.5393
 30
0.0
 10
35.0315
 20
13.6055
 30
0.0
 10
37.7007
 20
16.6617
 30
0.0
 10
40.7475
 20
18.6003
 30
0.0
 10
40.7475
 20
18.6003
 30
0.0
 10
44.1901
 20
16.3451
 30
0.0
 10
46.3448
 20
13.5264
 30
0.0
 10
47.7914
 20
11.5789
 30
0.0
 10
47.7914
 20
11.5789
 30
0.0
 10
46.8593
 20
9.8688
 30
0.0
 10
43.636
 20
6.219
 30
0.0
 10
40.6287
 20
4.3992
 30
0.0
 10
40.6287
 20
4.3992
 30
0.0
 10
37.6215
 20
6.4961
 30
0.0
 10
35.1502
 20
9.4335
 30
0.0
 10
33.7035
 20
11.5394
 30
0.0
 10
33.7035
 20
11.5394
 30
0.0
 10
33.7035
 20
11.5394
 30
0.0
 10
33.7036
 20
11.5393
 30
0.0
 10
33.7036
 20
11.5393
 30
0.0
  0
SPLINE
  5
50
330
1F
100
AcDbEntity
  8
layer 1
 62
     7
100
AcDbSpline
210
0.0
220
0.0
230
1.0
 70
    11
 71
     3
 72
    20
 73
    16
 74
     0
 42
0.0000000001
 43
0.0000000001
 12
1.0
 22
0.0
 32
0.0
 13
1.0
 23
0.0
 33
0.0
 40
0.0
 40
0.0
 40
0.0
 40
0.0
 40
0.2
 40
0.2
 40
0.2
 40
0.2
 40
0.4
 40
0.4
 40
0.4
 40
0.4
 40
0.6
 40
0.6
 40
0.6
 40
0.6
 40
1.0
 40
1.0
 40
1.0
 40
1.0
 10
-59.6159
 20
26.3412
 30
0.0
 10
-55.8343
 20
25.8184
 30
0.0
 10
-51.859
 20
24.4245
 30
0.0
 10
-48.8518
 20
22.6047
 30
0.0
 10
-48.8518
 20
22.6047
 30
0.0
 10
-45.8446
 20
24.4245
 30
0.0
 10
-41.8693
 20
25.8185
 30
0.0
 10
-38.0877
 20
26.3412
 30
0.0
 10
-38.0877
 20
26.3412
 30
0.0
 10
-41.8693
 20
26.8639
 30
0.0
 10
-45.8446
 20
28.2578
 30
0.0
 10
-48.8518
 20
30.0776
 30
0.0
 10
-48.8518
 20
30.0776
 30
0.0
 10
-51.859
 20
28.2578
 30
0.0
 10
-55.8343
 20
26.8638
 30
0.0
 10
-59.6159
 20
26.3412
 30
0.0
  0
SPLINE
  5
51
330
1F
100
AcDbEntity
  8
layer 1
 62
     7
100
AcDbSpline
210
0.0
220
0.0
230
1.0
 70
    11
 71
     3
 72
    20
 73
    16
 74
     0
 42
0.0000000001
 43
0.0000000001
 12
1.0
 22
0.0
 32
0.0
 13
1.0
 23
0.0
 33
0.0
 40
0.0
 40
0.0
 40
0.0
 40
0.0
 40
0.2
 40
0.2
 40
0.2
 40
0.2
 40
0.4
 40
0.4
 40
0.4
 40
0.4
 40
0.6
 40
0.6
 40
0.6
 40
0.6
 40
1.0
 40
1.0
 40
1.0
 40
1.0
 10
-45.5924
 20
32.2231
 30
0.0
 10
-42.8761
 20
31.035
 30
0.0
 10
-40.9768
 20
30.2938
 30
0.0
 10
-37.5072
 20
29.7706
 30
0.0
 10
-37.5072
 20
29.7706
 30
0.0
 10
-37.7982
 20
32.6206
 30
0.0
 10
-38.7716
 20
35.2943
 30
0.0
 10
-39.9597
 20
37.9719
 30
0.0
 10
-39.9597
 20
37.9719
 30
0.0
 10
-41.4699
 20
35.8794
 30
0.0
 10
-43.7758
 20
33.5796
 30
0.0
 10
-45.5924
 20
32.2231
 30
0.0
 10
-45.5924
 20
32.2231
 30
0.0
 10
-45.5924
 20
32.2231
 30
0.0
 10
-45.5924
 20
32.2231
 30
0.0
 10
-45.5924
 20
32.2231
 30
0.0
  0
SPLINE
  5
52
330
1F
100
AcDbEntity
  8
layer 1
 62
     7
100
AcDbSpline
210
0.0
220
0.0
230
1.0
 70
    11
 71
     3
 72
    20
 73
    16
 74
     0
 42
0.0000000001
 43
0.0000000001
 12
1.0
 22
0.0
 32
0.0
 13
1.0
 23
0.0
 33
0.0
 40
0.0
 40
0.0
 40
0.0
 40
0.0
 40
0.2
 40
0.2
 40
0.2
 40
0.2
 40
0.4
 40
0.4
 40
0.4
 40
0.4
 40
0.6
 40
0.6
 40
0.6
 40
0.6
 40
1.0
 40
1.0
 40
1.0
 40
1.0
 10
-52.1047
 20
32.2231
 30
0.0
 10
-54.821
 20
31.035
 30
0.0
 10
-56.7203
 20
30.2938
 30
0.0
 10
-60.1898
 20
29.7706
 30
0.0
 10
-60.1898
 20
29.7706
 30
0.0
 10
-59.8988
 20
32.6206
 30
0.0
 10
-58.9254
 20
35.2943
 30
0.0
 10
-57.7373
 20
37.9719
 30
0.0
 10
-57.7373
 20
37.9719
 30
0.0
 10
-56.2271
 20
35.8794
 30
0.0
 10
-53.9213
 20
33.5796
 30
0.0
 10
-52.1047
 20
32.2231
 30
0.0
 10
-52.1047
 20
32.2231
 30
0.0
 10
-52.1047
 20
32.2231
 30
0.0
 10
-52.1047
 20
32.2231
 30
0.0
 10
-52.1047
 20
32.2231
 30
0.0
  0
SPLINE
  5
53
330
1F
100
AcDbEntity
  8
layer 1
 62
     7
100
AcDbSpline
210
0.0
220
0.0
230
1.0
 70
    11
 71
     3
 72
    24
 73
    20
 74
     0
 42
0.0000000001
 43
0.0000000001
 12
1.0
 22
0.0
 32
0.0
 13
1.0
 23
0.0
 33
0.0
 40
0.0
 40
0.0
 40
0.0
 40
0.0
 40
0.1666666666666667
 40
0.1666666666666667
 40
0.1666666666666667
 40
0.1666666666666667
 40
0.3333333333333333
 40
0.3333333333333333
 40
0.3333333333333333
 40
0.3333333333333333
 40
0.5
 40
0.5
 40
0.5
 40
0.5
 40
0.6666666666666666
 40
0.6666666666666666
 40
0.6666666666666666
 40
0.6666666666666666
 40
1.0
 40
1.0
 40
1.0
 40
1.0
 10
-55.899
 20
41.275
 30
0.0
 10
-54.5712
 20
39.2088
 30
0.0
 10
-51.902
 20
36.1526
 30
0.0
 10
-48.8552
 20
34.214
 30
0.0
 10
-48.8552
 20
34.214
 30
0.0
 10
-45.4125
 20
36.4692
 30
0.0
 10
-43.2579
 20
39.2879
 30
0.0
 10
-41.8113
 20
41.2354
 30
0.0
 10
-41.8113
 20
41.2354
 30
0.0
 10
-42.7434
 20
42.9454
 30
0.0
 10
-45.9667
 20
46.5952
 30
0.0
 10
-48.9739
 20
48.4151
 30
0.0
 10
-48.9739
 20
48.4151
 30
0.0
 10
-51.9812
 20
46.3182
 30
0.0
 10
-54.4525
 20
43.3808
 30
0.0
 10
-55.8991
 20
41.2749
 30
0.0
 10
-55.8991
 20
41.2749
 30
0.0
 10
-55.8991
 20
41.2749
 30
0.0
 10
-55.899
 20
41.275
 30
0.0
 10
-55.899
 20
41.275
 30
0.0
  0
SPLINE
  5
54
330
1F
100
AcDbEntity
  8
layer 1
 62
     7
100
AcDbSpline
210
0.0
220
0.0
230
1.0
 70
    11
 71
     3
 72
    20
 73
    16
 74
     0
 42
0.0000000001
 43
0.0000000001
 12
1.0
 22
0.0
 32
0.0
 13
1.0
 23
0.0
 33
0.0
 40
0.0
 40
0.0
 40
0.0
 40
0.0
 40
0.2
 40
0.2
 40
0.2
 40
0.2
 40
0.4
 40
0.4
 40
0.4
 40
0.4
 40
0.6
 40
0.6
 40
0.6
 40
0.6
 40
1.0
 40
1.0
 40
1.0
 40
1.0
 10
-45.5924
 20
20.5912
 30
0.0
 10
-42.8761
 20
21.7793
 30
0.0
 10
-40.9768
 20
22.5204
 30
0.0
 10
-37.5072
 20
23.0437
 30
0.0
 10
-37.5072
 20
23.0437
 30
0.0
 10
-37.7982
 20
20.1937
 30
0.0
 10
-38.7716
 20
17.52
 30
0.0
 10
-39.9597
 20
14.8424
 30
0.0
 10
-39.9597
 20
14.8424
 30
0.0
 10
-41.4699
 20
16.9349
 30
0.0
 10
-43.7758
 20
19.2347
 30
0.0
 10
-45.5924
 20
20.5911
 30
0.0
 10
-45.5924
 20
20.5911
 30
0.0
 10
-45.5924
 20
20.5911
 30
0.0
 10
-45.5924
 20
20.5912
 30
0.0
 10
-45.5924
 20
20.5912
 30
0.0
  0
SPLINE
  5
55
330
1F
100
AcDbEntity
  8
layer 1
 62
     7
100
AcDbSpline
210
0.0
220
0.0
230
1.0
 70
    11
 71
     3
 72
    20
 73
    16
 74
     0
 42
0.0000000001
 43
0.0000000001
 12
1.0
 22
0.0
 32
0.0
 13
1.0
 23
0.0
 33
0.0
 40
0.0
 40
0.0
 40
0.0
 40
0.0
 40
0.2
 40
0.2
 40
0.2
 40
0.2
 40
0.4
 40
0.4
 40
0.4
 40
0.4
 40
0.6
 40
0.6
 40
0.6
 40
0.6
 40
1.0
 40
1.0
 40
1.0
 40
1.0
 10
-52.1047
 20
20.5912
 30
0.0
 10
-54.821
 20
21.7793
 30
0.0
 10
-56.7203
 20
22.5204
 30
0.0
 10
-60.1898
 20
23.0437
 30
0.0
 10
-60.1898
 20
23.0437
 30
0.0
 10
-59.8988
 20
20.1937
 30
0.0
 10
-58.9254
 20
17.52
 30
0.0
 10
-57.7373
 20
14.8424
 30
0.0
 10
-57.7373
 20
14.8424
 30
0.0
 10
-56.2271
 20
16.9349
 30
0.0
 10
-53.9213
 20
19.2347
 30
0.0
 10
-52.1047
 20
20.5911
 30
0.0
 10
-52.1047
 20
20.5911
 30
0.0
 10
-52.1047
 20
20.5911
 30
0.0
 10
-52.1047
 20
20.5912
 30
0.0
 10
-52.1047
 20
20.5912
 30
0.0
  0
SPLINE
  5
56
330
1F
100
AcDbEntity
  8
layer 1
 62
     7
100
AcDbSpline
210
0.0
220
0.0
230
1.0
 70
    11
 71
     3
 72
    24
 73
    20
 74
     0
 42
0.0000000001
 43
0.0000000001
 12
1.0
 22
0.0
 32
0.0
 13
1.0
 23
0.0
 33
0.0
 40
0.0
 40
0.0
 40
0.0
 40
0.0
 40
0.1666666666666667
 40
0.1666666666666667
 40
0.1666666666666667
 40
0.1666666666666667
 40
0.3333333333333333
 40
0.3333333333333333
 40
0.3333333333333333
 40
0.3333333333333333
 40
0.5
 40
0.5
 40
0.5
 40
0.5
 40
0.6666666666666666
 40
0.6666666666666666
 40
0.6666666666666666
 40
0.6666666666666666
 40
1.0
 40
1.0
 40
1.0
 40
1.0
 10
-55.899
 20
11.5393
 30
0.0
 10
-54.5712
 20
13.6055
 30
0.0
 10
-51.902
 20
16.6617
 30
0.0
 10
-48.8552
 20
18.6003
 30
0.0
 10
-48.8552
 20
18.6003
 30
0.0
 10
-45.4125
 20
16.3451
 30
0.0
 10
-43.2579
 20
13.5264
 30
0.0
 10
-41.8113
 20
11.5789
 30
0.0
 10
-41.8113
 20
11.5789
 30
0.0
 10
-42.7434
 20
9.8688
 30
0.0
 10
-45.9667
 20
6.219
 30
0.0
 10
-48.9739
 20
4.3992
 30
0.0
 10
-48.9739
 20
4.3992
 30
0.0
 10
-51.9812
 20
6.4961
 30
0.0
 10
-54.4525
 20
9.4335
 30
0.0
 10
-55.8991
 20
11.5394
 30
0.0
 10
-55.8991
 20
11.5394
 30
0.0
 10
-55.8991
 20
11.5394
 30
0.0
 10
-55.899
 20
11.5393
 30
0.0
 10
-55.899
 20
11.5393
 30
0.0
  0
SPLINE
  5
57
330
1F
100
AcDbEntity
  8
layer 1
 62
     7
100
AcDbSpline
210
0.0
220
0.0
230
1.0
 70
    11
 71
     3
 72
    20
 73
    16
 74
     0
 42
0.0000000001
 43
0.0000000001
 12
1.0
 22
0.0
 32
0.0
 13
1.0
 23
0.0
 33
0.0
 40
0.0
 40
0.0
 40
0.0
 40
0.0
 40
0.2
 40
0.2
 40
0.2
 40
0.2
 40
0.4
 40
0.4
 40
0.4
 40
0.4
 40
0.6
 40
0.6
 40
0.6
 40
0.6
 40
1.0
 40
1.0
 40
1.0
 40
1.0
 10
-29.854
 20
26.3412
 30
0.0
 10
-26.0723
 20
25.8184
 30
0.0
 10
-22.097
 20
24.4245
 30
0.0
 10
-19.0898
 20
22.6047
 30
0.0
 10
-19.0898
 20
22.6047
 30
0.0
 10
-16.0826
 20
24.4245
 30
0.0
 10
-12.1073
 20
25.8185
 30
0.0
 10
-8.3257
 20
26.3412
 30
0.0
 10
-8.3257
 20
26.3412
 30
0.0
 10
-12.1073
 20
26.8639
 30
0.0
 10
-16.0826
 20
28.2578
 30
0.0
 10
-19.0898
 20
30.0776
 30
0.0
 10
-19.0898
 20
30.0776
 30
0.0
 10
-22.097
 20
28.2578
 30
0.0
 10
-26.0723
 20
26.8638
 30
0.0
 10
-29.854
 20
26.3412
 30
0.0
  0
SPLINE
  5
58
330
1F
100
AcDbEntity
  8
layer 1
 62
     7
100
AcDbSpline
210
0.0
220
0.0
230
1.0
 70
    11
 71
     3
 72
    20
 73
    16
 74
     0
 42
0.0000000001
 43
0.0000000001
 12
1.0
 22
0.0
 32
0.0
 13
1.0
 23
0.0
 33
0.0
 40
0.0
 40
0.0
 40
0.0
 40
0.0
 40
0.2
 40
0.2
 40
0.2
 40
0.2
 40
0.4
 40
0.4
 40
0.4
 40
0.4
 40
0.6
 40
0.6
 40
0.6
 40
0.6
 40
1.0
 40
1.0
 40
1.0
 40
1.0
 10
-15.8304
 20
32.2231
 30
0.0
 10
-13.1141
 20
31.035
 30
0.0
 10
-11.2148
 20
30.2938
 30
0.0
 10
-7.7452
 20
29.7706
 30
0.0
 10
-7.7452
 20
29.7706
 30
0.0
 10
-8.0362
 20
32.6206
 30
0.0
 10
-9.0096
 20
35.2943
 30
0.0
 10
-10.1977
 20
37.9719
 30
0.0
 10
-10.1977
 20
37.9719
 30
0.0
 10
-11.7079
 20
35.8794
 30
0.0
 10
-14.0138
 20
33.5796
 30
0.0
 10
-15.8304
 20
32.2231
 30
0.0
 10
-15.8304
 20
32.2231
 30
0.0
 10
-15.8304
 20
32.2231
 30
0.0
 10
-15.8304
 20
32.2231
 30
0.0
 10
-15.8304
 20
32.2231
 30
0.0
  0
SPLINE
  5
59
330
1F
100
AcDbEntity
  8
layer 1
 62
     7
100
AcDbSpline
210
0.0
220
0.0
230
1.0
 70
    11
 71
     3
 72
    20
 73
    16
 74
     0
 42
0.0000000001
 43
0.0000000001
 12
1.0
 22
0.0
 32
0.0
 13
1.0
 23
0.0
 33
0.0
 40
0.0
 40
0.0
 40
0.0
 40
0.0
 40
0.2
 40
0.2
 40
0.2
 40
0.2
 40
0.4
 40
0.4
 40
0.4
 40
0.4
 40
0.6
 40
0.6
 40
0.6
 40
0.6
 40
1.0
 40
1.0
 40
1.0
 40
1.0
 10
-22.3426
 20
32.2231
 30
0.0
 10
-25.0589
 20
31.035
 30
0.0
 10
-26.9582
 20
30.2938
 30
0.0
 10
-30.4278
 20
29.7706
 30
0.0
 10
-30.4278
 20
29.7706
 30
0.0
 10
-30.1368
 20
32.6206
 30
0.0
 10
-29.1634
 20
35.2943
 30
0.0
 10
-27.9753
 20
37.9719
 30
0.0
 10
-27.9753
 20
37.9719
 30
0.0
 10
-26.4651
 20
35.8794
 30
0.0
 10
-24.1592
 20
33.5796
 30
0.0
 10
-22.3426
 20
32.2231
 30
0.0
 10
-22.3426
 20
32.2231
 30
0.0
 10
-22.3426
 20
32.2231
 30
0.0
 10
-22.3426
 20
32.2231
 30
0.0
 10
-22.3426
 20
32.2231
 30
0.0
  0
SPLINE
  5
5A
330
1F
100
AcDbEntity
  8
layer 1
 62
     7
100
AcDbSpline
210
0.0
220
0.0
230
1.0
 70
    11
 71
     3
 72
    24
 73
    20
 74
     0
 42
0.0000000001
 43
0.0000000001
 12
1.0
 22
0.0
 32
0.0
 13
1.0
 23
0.0
 33
0.0
 40
0.0
 40
0.0
 40
0.0
 40
0.0
 40
0.1666666666666667
 40
0.1666666666666667
 40
0.1666666666666667
 40
0.1666666666666667
 40
0.3333333333333333
 40
0.3333333333333333
 40
0.3333333333333333
 40
0.3333333333333333
 40
0.5
 40
0.5
 40
0.5
 40
0.5
 40
0.6666666666666666
 40
0.6666666666666666
 40
0.6666666666666666
 40
0.6666666666666666
 40
1.0
 40
1.0
 40
1.0
 40
1.0
 10
-26.137
 20
41.275
 30
0.0
 10
-24.8091
 20
39.2088
 30
0.0
 10
-22.1399
 20
36.1526
 30
0.0
 10
-19.0931
 20
34.214
 30
0.0
 10
-19.0931
 20
34.214
 30
0.0
 10
-15.6505
 20
36.4692
 30
0.0
 10
-13.4959
 20
39.2879
 30
0.0
 10
-12.0492
 20
41.2354
 30
0.0
 10
-12.0492
 20
41.2354
 30
0.0
 10
-12.9814
 20
42.9454
 30
0.0
 10
-16.2046
 20
46.5952
 30
0.0
 10
-19.2119
 20
48.4151
 30
0.0
 10
-19.2119
 20
48.4151
 30
0.0
 10
-22.2191
 20
46.3182
 30
0.0
 10
-24.6904
 20
43.3808
 30
0.0
 10
-26.1371
 20
41.2749
 30
0.0
 10
-26.1371
 20
41.2749
 30
0.0
 10
-26.1371
 20
41.2749
 30
0.0
 10
-26.137
 20
41.275
 30
0.0
 10
-26.137
 20
41.275
 30
0.0
  0
SPLINE
  5
5B
330
1F
100
AcDbEntity
  8
layer 1
 62
     7
100
AcDbSpline
210
0.0
220
0.0
230
1.0
 70
    11
 71
     3
 72
    20
 73
    16
 74
     0
 42
0.0000000001
 43
0.0000000001
 12
1.0
 22
0.0
 32
0.0
 13
1.0
 23
0.0
 33
0.0
 40
0.0
 40
0.0
 40
0.0
 40
0.0
 40
0.2
 40
0.2
 40
0.2
 40
0.2
 40
0.4
 40
0.4
 40
0.4
 40
0.4
 40
0.6
 40
0.6
 40
0.6
 40
0.6
 40
1.0
 40
1.0
 40
1.0
 40
1.0
 10
-15.8304
 20
20.5912
 30
0.0
 10
-13.1141
 20
21.7793
 30
0.0
 10
-11.2148
 20
22.5204
 30
0.0
 10
-7.7452
 20
23.0437
 30
0.0
 10
-7.7452
 20
23.0437
 30
0.0
 10
-8.0362
 20
20.1937
 30
0.0
 10
-9.0096
 20
17.52
 30
0.0
 10
-10.1977
 20
14.8424
 30
0.0
 10
-10.1977
 20
14.8424
 30
0.0
 10
-11.7079
 20
16.9349
 30
0.0
 10
-14.0138
 20
19.2347
 30
0.0
 10
-15.8304
 20
20.5911
 30
0.0
 10
-15.8304
 20
20.5911
 30
0.0
 10
-15.8304
 20
20.5911
 30
0.0
 10
-15.8304
 20
20.5912
 30
0.0
 10
-15.8304
 20
20.5912
 30
0.0
  0
SPLINE
  5
5C
330
1F
100
AcDbEntity
  8
layer 1
 62
     7
100
AcDbSpline
210
0.0
220
0.0
230
1.0
 70
    11
 71
     3
 72
    20
 73
    16
 74
     0
 42
0.0000000001
 43
0.0000000001
 12
1.0
 22
0.0
 32
0.0
 13
1.0
 23
0.0
 33
0.0
 40
0.0
 40
0.0
 40
0.0
 40
0.0
 40
0.2
 40
0.2
 40
0.2
 40
0.2
 40
0.4
 40
0.4
 40
0.4
 40
0.4
 40
0.6
 40
0.6
 40
0.6
 40
0.6
 40
1.0
 40
1.0
 40
1.0
 40
1.0
 10
-22.3426
 20
20.5912
 30
0.0
 10
-25.0589
 20
21.7793
 30
0.0
 10
-26.9582
 20
22.5204
 30
0.0
 10
-30.4278
 20
23.0437
 30
0.0
 10
-30.4278
 20
23.0437
 30
0.0
 10
-30.1368
 20
20.1937
 30
0.0
 10
-29.1634
 20
17.52
 30
0.0
 10
-27.9753
 20
14.8424
 30
0.0
 10
-27.9753
 20
14.8424
 30
0.0
 10
-26.4651
 20
16.9349
 30
0.0
 10
-24.1592
 20
19.2347
 30
0.0
 10
-22.3426
 20
20.5911
 30
0.0
 10
-22.3426
 20
20.5911
 30
0.0
 10
-22.3426
 20
20.5911
 30
0.0
 10
-22.3426
 20
20.5912
 30
0.0
 10
-22.3426
 20
20.5912
 30
0.0
  0
SPLINE
  5
5D
330
1F
100
AcDbEntity
  8
layer 1
 62
     7
100
AcDbSpline
210
0.0
220
0.0
230
1.0
 70
    11
 71
     3
 72
    24
 73
    20
 74
     0
 42
0.0000000001
 43
0.0000000001
 12
1.0
 22
0.0
 32
0.0
 13
1.0
 23
0.0
 33
0.0
 40
0.0
 40
0.0
 40
0.0
 40
0.0
 40
0.1666666666666667
 40
0.1666666666666667
 40
0.1666666666666667
 40
0.1666666666666667
 40
0.3333333333333333
 40
0.3333333333333333
 40
0.3333333333333333
 40
0.3333333333333333
 40
0.5
 40
0.5
 40
0.5
 40
0.5
 40
0.6666666666666666
 40
0.6666666666666666
 40
0.6666666666666666
 40
0.6666666666666666
 40
1.0
 40
1.0
 40
1.0
 40
1.0
 10
-26.137
 20
11.5393
 30
0.0
 10
-24.8091
 20
13.6055
 30
0.0
 10
-22.1399
 20
16.6617
 30
0.0
 10
-19.0931
 20
18.6003
 30
0.0
 10
-19.0931
 20
18.6003
 30
0.0
 10
-15.6505
 20
16.3451
 30
0.0
 10
-13.4959
 20
13.5264
 30
0.0
 10
-12.0492
 20
11.5789
 30
0.0
 10
-12.0492
 20
11.5789
 30
0.0
 10
-12.9814
 20
9.8688
 30
0.0
 10
-16.2046
 20
6.219
 30
0.0
 10
-19.2119
 20
4.3992
 30
0.0
 10
-19.2119
 20
4.3992
 30
0.0
 10
-22.2191
 20
6.4961
 30
0.0
 10
-24.6904
 20
9.4335
 30
0.0
 10
-26.1371
 20
11.5394
 30
0.0
 10
-26.1371
 20
11.5394
 30
0.0
 10
-26.1371
 20
11.5394
 30
0.0
 10
-26.137
 20
11.5393
 30
0.0
 10
-26.137
 20
11.5393
 30
0.0
  0
SPLINE
  5
5E
330
1F
100
AcDbEntity
  8
layer 1
 62
     7
100
AcDbSpline
210
0.0
220
0.0
230
1.0
 70
    11
 71
     3
 72
    20
 73
    16
 74
     0
 42
0.0000000001
 43
0.0000000001
 12
1.0
 22
0.0
 32
0.0
 13
1.0
 23
0.0
 33
0.0
 40
0.0
 40
0.0
 40
0.0
 40
0.0
 40
0.2
 40
0.2
 40
0.2
 40
0.2
 40
0.4
 40
0.4
 40
0.4
 40
0.4
 40
0.6
 40
0.6
 40
0.6
 40
0.6
 40
1.0
 40
1.0
 40
1.0
 40
1.0
 10
26.1181
 20
30.5711
 30
0.0
 10
26.6408
 20
34.3527
 30
0.0
 10
28.0347
 20
38.328
 30
0.0
 10
29.8545
 20
41.3352
 30
0.0
 10
29.8545
 20
41.3352
 30
0.0
 10
28.0347
 20
44.3424
 30
0.0
 10
26.6407
 20
48.3177
 30
0.0
 10
26.1181
 20
52.0994
 30
0.0
 10
26.1181
 20
52.0994
 30
0.0
 10
25.5953
 20
48.3177
 30
0.0
 10
24.2015
 20
44.3424
 30
0.0
 10
22.3816
 20
41.3352
 30
0.0
 10
22.3816
 20
41.3352
 30
0.0
 10
24.2015
 20
38.328
 30
0.0
 10
25.5954
 20
34.3527
 30
0.0
 10
26.1181
 20
30.5711
 30
0.0
  0
SPLINE
  5
5F
330
1F
100
AcDbEntity
  8
layer 1
 62
     7
100
AcDbSpline
210
0.0
220
0.0
230
1.0
 70
    11
 71
     3
 72
    20
 73
    16
 74
     0
 42
0.0000000001
 43
0.0000000001
 12
1.0
 22
0.0
 32
0.0
 13
1.0
 23
0.0
 33
0.0
 40
0.0
 40
0.0
 40
0.0
 40
0.0
 40
0.2
 40
0.2
 40
0.2
 40
0.2
 40
0.4
 40
0.4
 40
0.4
 40
0.4
 40
0.6
 40
0.6
 40
0.6
 40
0.6
 40
1.0
 40
1.0
 40
1.0
 40
1.0
 10
-4.0507
 20
30.5711
 30
0.0
 10
-3.528
 20
34.3527
 30
0.0
 10
-2.1341
 20
38.328
 30
0.0
 10
-0.3143
 20
41.3352
 30
0.0
 10
-0.3143
 20
41.3352
 30
0.0
 10
-2.1341
 20
44.3424
 30
0.0
 10
-3.528
 20
48.3177
 30
0.0
 10
-4.0507
 20
52.0994
 30
0.0
 10
-4.0507
 20
52.0994
 30
0.0
 10
-4.5734
 20
48.3177
 30
0.0
 10
-5.9673
 20
44.3424
 30
0.0
 10
-7.7871
 20
41.3352
 30
0.0
 10
-7.7871
 20
41.3352
 30
0.0
 10
-5.9673
 20
38.328
 30
0.0
 10
-4.5734
 20
34.3527
 30
0.0
 10
-4.0507
 20
30.5711
 30
0.0
  0
SPLINE
  5
60
330
1F
100
AcDbEntity
  8
layer 1
 62
     7
100
AcDbSpline
210
0.0
220
0.0
230
1.0
 70
    11
 71
     3
 72
    20
 73
    16
 74
     0
 42
0.0000000001
 43
0.0000000001
 12
1.0
 22
0.0
 32
0.0
 13
1.0
 23
0.0
 33
0.0
 40
0.0
 40
0.0
 40
0.0
 40
0.0
 40
0.2
 40
0.2
 40
0.2
 40
0.2
 40
0.4
 40
0.4
 40
0.4
 40
0.4
 40
0.6
 40
0.6
 40
0.6
 40
0.6
 40
1.0
 40
1.0
 40
1.0
 40
1.0
 10
-34.4002
 20
30.5711
 30
0.0
 10
-33.8774
 20
34.3527
 30
0.0
 10
-32.4835
 20
38.328
 30
0.0
 10
-30.6637
 20
41.3352
 30
0.0
 10
-30.6637
 20
41.3352
 30
0.0
 10
-32.4835
 20
44.3424
 30
0.0
 10
-33.8775
 20
48.3177
 30
0.0
 10
-34.4002
 20
52.0994
 30
0.0
 10
-34.4002
 20
52.0994
 30
0.0
 10
-34.9229
 20
48.3177
 30
0.0
 10
-36.3168
 20
44.3424
 30
0.0
 10
-38.1366
 20
41.3352
 30
0.0
 10
-38.1366
 20
41.3352
 30
0.0
 10
-36.3168
 20
38.328
 30
0.0
 10
-34.9228
 20
34.3527
 30
0.0
 10
-34.4002
 20
30.5711
 30
0.0
  0
SPLINE
  5
61
330
1F
100
AcDbEntity
  8
layer 1
 62
     7
100
AcDbSpline
210
0.0
220
0.0
230
1.0
 70
    11
 71
     3
 72
    16
 73
    12
 74
     0
 42
0.0000000001
 43
0.0000000001
 12
1.0
 22
0.0
 32
0.0
 13
1.0
 23
0.0
 33
0.0
 40
0.0
 40
0.0
 40
0.0
 40
0.0
 40
0.25
 40
0.25
 40
0.25
 40
0.25
 40
0.5
 40
0.5
 40
0.5
 40
0.5
 40
1.0
 40
1.0
 40
1.0
 40
1.0
 10
-63.9115
 20
30.5711
 30
0.0
 10
-63.3888
 20
34.3527
 30
0.0
 10
-61.9949
 20
38.328
 30
0.0
 10
-60.1751
 20
41.3352
 30
0.0
 10
-60.1751
 20
41.3352
 30
0.0
 10
-61.9949
 20
44.3424
 30
0.0
 10
-63.3889
 20
48.3177
 30
0.0
 10
-63.9115
 20
52.0994
 30
0.0
 10
-63.9115
 20
52.0994
 30
0.0
 10
-63.9115
 20
52.0994
 30
0.0
 10
-63.9115
 20
30.5711
 30
0.0
 10
-63.9115
 20
30.5711
 30
0.0
  0
SPLINE
  5
62
330
1F
100
AcDbEntity
  8
layer 1
 62
     7
100
AcDbSpline
210
0.0
220
0.0
230
1.0
 70
    11
 71
     3
 72
    16
 73
    12
 74
     0
 42
0.0000000001
 43
0.0000000001
 12
1.0
 22
0.0
 32
0.0
 13
1.0
 23
0.0
 33
0.0
 40
0.0
 40
0.0
 40
0.0
 40
0.0
 40
0.25
 40
0.25
 40
0.25
 40
0.25
 40
0.5
 40
0.5
 40
0.5
 40
0.5
 40
1.0
 40
1.0
 40
1.0
 40
1.0
 10
56.0258
 20
30.5711
 30
0.0
 10
55.503
 20
34.3527
 30
0.0
 10
54.1092
 20
38.328
 30
0.0
 10
52.2893
 20
41.3352
 30
0.0
 10
52.2893
 20
41.3352
 30
0.0
 10
54.1092
 20
44.3424
 30
0.0
 10
55.5031
 20
48.3177
 30
0.0
 10
56.0258
 20
52.0994
 30
0.0
 10
56.0258
 20
52.0994
 30
0.0
 10
56.0258
 20
52.0994
 30
0.0
 10
56.0258
 20
30.5711
 30
0.0
 10
56.0258
 20
30.5711
 30
0.0
  0
SPLINE
  5
63
330
1F
100
AcDbEntity
  8
layer 1
 62
     7
100
AcDbSpline
210
0.0
220
0.0
230
1.0
 70
    11
 71
     3
 72
    20
 73
    16
 74
     0
 42
0.0000000001
 43
0.0000000001
 12
1.0
 22
0.0
 32
0.0
 13
1.0
 23
0.0
 33
0.0
 40
0.0
 40
0.0
 40
0.0
 40
0.0
 40
0.2
 40
0.2
 40
0.2
 40
0.2
 40
0.4
 40
0.4
 40
0.4
 40
0.4
 40
0.6
 40
0.6
 40
0.6
 40
0.6
 40
1.0
 40
1.0
 40
1.0
 40
1.0
 10
0.2247
 20
56.292
 30
0.0
 10
4.0063
 20
55.7692
 30
0.0
 10
7.9816
 20
54.3754
 30
0.0
 10
10.9888
 20
52.5555
 30
0.0
 10
10.9888
 20
52.5555
 30
0.0
 10
13.996
 20
54.3754
 30
0.0
 10
17.9713
 20
55.7693
 30
0.0
 10
21.7529
 20
56.292
 30
0.0
 10
21.7529
 20
56.292
 30
0.0
 10
17.9713
 20
56.8147
 30
0.0
 10
13.996
 20
58.2086
 30
0.0
 10
10.9888
 20
60.0284
 30
0.0
 10
10.9888
 20
60.0284
 30
0.0
 10
7.9816
 20
58.2086
 30
0.0
 10
4.0063
 20
56.8147
 30
0.0
 10
0.2247
 20
56.292
 30
0.0
  0
SPLINE
  5
64
330
1F
100
AcDbEntity
  8
layer 1
 62
     7
100
AcDbSpline
210
0.0
220
0.0
230
1.0
 70
    11
 71
     3
 72
    20
 73
    16
 74
     0
 42
0.0000000001
 43
0.0000000001
 12
1.0
 22
0.0
 32
0.0
 13
1.0
 23
0.0
 33
0.0
 40
0.0
 40
0.0
 40
0.0
 40
0.0
 40
0.2
 40
0.2
 40
0.2
 40
0.2
 40
0.4
 40
0.4
 40
0.4
 40
0.4
 40
0.6
 40
0.6
 40
0.6
 40
0.6
 40
1.0
 40
1.0
 40
1.0
 40
1.0
 10
14.2482
 20
62.1739
 30
0.0
 10
16.9645
 20
60.9858
 30
0.0
 10
18.8638
 20
60.2447
 30
0.0
 10
22.3334
 20
59.7214
 30
0.0
 10
22.3334
 20
59.7214
 30
0.0
 10
22.0424
 20
62.5715
 30
0.0
 10
21.069
 20
65.2452
 30
0.0
 10
19.8809
 20
67.9228
 30
0.0
 10
19.8809
 20
67.9228
 30
0.0
 10
18.3707
 20
65.8303
 30
0.0
 10
16.0648
 20
63.5304
 30
0.0
 10
14.2482
 20
62.174
 30
0.0
 10
14.2482
 20
62.174
 30
0.0
 10
14.2482
 20
62.174
 30
0.0
 10
14.2482
 20
62.1739
 30
0.0
 10
14.2482
 20
62.1739
 30
0.0
  0
SPLINE
  5
65
330
1F
100
AcDbEntity
  8
layer 1
 62
     7
100
AcDbSpline
210
0.0
220
0.0
230
1.0
 70
    11
 71
     3
 72
    20
 73
    16
 74
     0
 42
0.0000000001
 43
0.0000000001
 12
1.0
 22
0.0
 32
0.0
 13
1.0
 23
0.0
 33
0.0
 40
0.0
 40
0.0
 40
0.0
 40
0.0
 40
0.2
 40
0.2
 40
0.2
 40
0.2
 40
0.4
 40
0.4
 40
0.4
 40
0.4
 40
0.6
 40
0.6
 40
0.6
 40
0.6
 40
1.0
 40
1.0
 40
1.0
 40
1.0
 10
7.736
 20
62.1739
 30
0.0
 10
5.0197
 20
60.9858
 30
0.0
 10
3.1204
 20
60.2447
 30
0.0
 10
-0.3491
 20
59.7214
 30
0.0
 10
-0.3491
 20
59.7214
 30
0.0
 10
-0.0582
 20
62.5715
 30
0.0
 10
0.9153
 20
65.2452
 30
0.0
 10
2.1033
 20
67.9228
 30
0.0
 10
2.1033
 20
67.9228
 30
0.0
 10
3.6135
 20
65.8303
 30
0.0
 10
5.9194
 20
63.5304
 30
0.0
 10
7.736
 20
62.174
 30
0.0
 10
7.736
 20
62.174
 30
0.0
 10
7.736
 20
62.174
 30
0.0
 10
7.736
 20
62.1739
 30
0.0
 10
7.736
 20
62.1739
 30
0.0
  0
SPLINE
  5
66
330
1F
100
AcDbEntity
  8
layer 1
 62
     7
100
AcDbSpline
210
0.0
220
0.0
230
1.0
 70
    11
 71
     3
 72
    24
 73
    20
 74
     0
 42
0.0000000001
 43
0.0000000001
 12
1.0
 22
0.0
 32
0.0
 13
1.0
 23
0.0
 33
0.0
 40
0.0
 40
0.0
 40
0.0
 40
0.0
 40
0.1666666666666667
 40
0.1666666666666667
 40
0.1666666666666667
 40
0.1666666666666667
 40
0.3333333333333333
 40
0.3333333333333333
 40
0.3333333333333333
 40
0.3333333333333333
 40
0.5
 40
0.5
 40
0.5
 40
0.5
 40
0.6666666666666666
 40
0.6666666666666666
 40
0.6666666666666666
 40
0.6666666666666666
 40
1.0
 40
1.0
 40
1.0
 40
1.0
 10
3.9416
 20
71.2258
 30
0.0
 10
5.2695
 20
69.1596
 30
0.0
 10
7.9387
 20
66.1035
 30
0.0
 10
10.9855
 20
64.1649
 30
0.0
 10
10.9855
 20
64.1649
 30
0.0
 10
14.4281
 20
66.42
 30
0.0
 10
16.5828
 20
69.2388
 30
0.0
 10
18.0294
 20
71.1862
 30
0.0
 10
18.0294
 20
71.1862
 30
0.0
 10
17.0973
 20
72.8963
 30
0.0
 10
13.874
 20
76.5461
 30
0.0
 10
10.8667
 20
78.3659
 30
0.0
 10
10.8667
 20
78.3659
 30
0.0
 10
7.8595
 20
76.2691
 30
0.0
 10
5.3882
 20
73.3316
 30
0.0
 10
3.9416
 20
71.2258
 30
0.0
 10
3.9416
 20
71.2258
 30
0.0
 10
3.9416
 20
71.2258
 30
0.0
 10
3.9416
 20
71.2258
 30
0.0
 10
3.9416
 20
71.2258
 30
0.0
  0
SPLINE
  5
67
330
1F
100
AcDbEntity
  8
layer 1
 62
     7
100
AcDbSpline
210
0.0
220
0.0
230
1.0
 70
    11
 71
     3
 72
    20
 73
    16
 74
     0
 42
0.0000000001
 43
0.0000000001
 12
1.0
 22
0.0
 32
0.0
 13
1.0
 23
0.0
 33
0.0
 40
0.0
 40
0.0
 40
0.0
 40
0.0
 40
0.2
 40
0.2
 40
0.2
 40
0.2
 40
0.4
 40
0.4
 40
0.4
 40
0.4
 40
0.6
 40
0.6
 40
0.6
 40
0.6
 40
1.0
 40
1.0
 40
1.0
 40
1.0
 10
14.2482
 20
50.5421
 30
0.0
 10
16.9645
 20
51.7301
 30
0.0
 10
18.8638
 20
52.4713
 30
0.0
 10
22.3334
 20
52.9946
 30
0.0
 10
22.3334
 20
52.9946
 30
0.0
 10
22.0424
 20
50.1445
 30
0.0
 10
21.069
 20
47.4708
 30
0.0
 10
19.8809
 20
44.7932
 30
0.0
 10
19.8809
 20
44.7932
 30
0.0
 10
18.3707
 20
46.8857
 30
0.0
 10
16.0648
 20
49.1855
 30
0.0
 10
14.2482
 20
50.542
 30
0.0
 10
14.2482
 20
50.542
 30
0.0
 10
14.2482
 20
50.542
 30
0.0
 10
14.2482
 20
50.5421
 30
0.0
 10
14.2482
 20
50.5421
 30
0.0
  0
SPLINE
  5
68
330
1F
100
AcDbEntity
  8
layer 1
 62
     7
100
AcDbSpline
210
0.0
220
0.0
230
1.0
 70
    11
 71
     3
 72
    20
 73
    16
 74
     0
 42
0.0000000001
 43
0.0000000001
 12
1.0
 22
0.0
 32
0.0
 13
1.0
 23
0.0
 33
0.0
 40
0.0
 40
0.0
 40
0.0
 40
0.0
 40
0.2
 40
0.2
 40
0.2
 40
0.2
 40
0.4
 40
0.4
 40
0.4
 40
0.4
 40
0.6
 40
0.6
 40
0.6
 40
0.6
 40
1.0
 40
1.0
 40
1.0
 40
1.0
 10
7.736
 20
50.5421
 30
0.0
 10
5.0197
 20
51.7301
 30
0.0
 10
3.1204
 20
52.4713
 30
0.0
 10
-0.3491
 20
52.9946
 30
0.0
 10
-0.3491
 20
52.9946
 30
0.0
 10
-0.0582
 20
50.1445
 30
0.0
 10
0.9153
 20
47.4708
 30
0.0
 10
2.1033
 20
44.7932
 30
0.0
 10
2.1033
 20
44.7932
 30
0.0
 10
3.6135
 20
46.8857
 30
0.0
 10
5.9194
 20
49.1855
 30
0.0
 10
7.736
 20
50.542
 30
0.0
 10
7.736
 20
50.542
 30
0.0
 10
7.736
 20
50.542
 30
0.0
 10
7.736
 20
50.5421
 30
0.0
 10
7.736
 20
50.5421
 30
0.0
  0
SPLINE
  5
69
330
1F
100
AcDbEntity
  8
layer 1
 62
     7
100
AcDbSpline
210
0.0
220
0.0
230
1.0
 70
    11
 71
     3
 72
    20
 73
    16
 74
     0
 42
0.0000000001
 43
0.0000000001
 12
1.0
 22
0.0
 32
0.0
 13
1.0
 23
0.0
 33
0.0
 40
0.0
 40
0.0
 40
0.0
 40
0.0
 40
0.2
 40
0.2
 40
0.2
 40
0.2
 40
0.4
 40
0.4
 40
0.4
 40
0.4
 40
0.6
 40
0.6
 40
0.6
 40
0.6
 40
1.0
 40
1.0
 40
1.0
 40
1.0
 10
29.9867
 20
56.292
 30
0.0
 10
33.7684
 20
55.7692
 30
0.0
 10
37.7436
 20
54.3754
 30
0.0
 10
40.7509
 20
52.5555
 30
0.0
 10
40.7509
 20
52.5555
 30
0.0
 10
43.7581
 20
54.3754
 30
0.0
 10
47.7334
 20
55.7693
 30
0.0
 10
51.515
 20
56.292
 30
0.0
 10
51.515
 20
56.292
 30
0.0
 10
47.7334
 20
56.8147
 30
0.0
 10
43.7581
 20
58.2086
 30
0.0
 10
40.7509
 20
60.0284
 30
0.0
 10
40.7509
 20
60.0284
 30
0.0
 10
37.7436
 20
58.2086
 30
0.0
 10
33.7684
 20
56.8147
 30
0.0
 10
29.9867
 20
56.292
 30
0.0
  0
SPLINE
  5
6A
330
1F
100
AcDbEntity
  8
layer 1
 62
     7
100
AcDbSpline
210
0.0
220
0.0
230
1.0
 70
    11
 71
     3
 72
    20
 73
    16
 74
     0
 42
0.0000000001
 43
0.0000000001
 12
1.0
 22
0.0
 32
0.0
 13
1.0
 23
0.0
 33
0.0
 40
0.0
 40
0.0
 40
0.0
 40
0.0
 40
0.2
 40
0.2
 40
0.2
 40
0.2
 40
0.4
 40
0.4
 40
0.4
 40
0.4
 40
0.6
 40
0.6
 40
0.6
 40
0.6
 40
1.0
 40
1.0
 40
1.0
 40
1.0
 10
44.0103
 20
62.1739
 30
0.0
 10
46.7266
 20
60.9858
 30
0.0
 10
48.6259
 20
60.2447
 30
0.0
 10
52.0954
 20
59.7214
 30
0.0
 10
52.0954
 20
59.7214
 30
0.0
 10
51.8045
 20
62.5715
 30
0.0
 10
50.831
 20
65.2452
 30
0.0
 10
49.643
 20
67.9228
 30
0.0
 10
49.643
 20
67.9228
 30
0.0
 10
48.1327
 20
65.8303
 30
0.0
 10
45.8269
 20
63.5304
 30
0.0
 10
44.0103
 20
62.174
 30
0.0
 10
44.0103
 20
62.174
 30
0.0
 10
44.0103
 20
62.174
 30
0.0
 10
44.0103
 20
62.1739
 30
0.0
 10
44.0103
 20
62.1739
 30
0.0
  0
SPLINE
  5
6B
330
1F
100
AcDbEntity
  8
layer 1
 62
     7
100
AcDbSpline
210
0.0
220
0.0
230
1.0
 70
    11
 71
     3
 72
    20
 73
    16
 74
     0
 42
0.0000000001
 43
0.0000000001
 12
1.0
 22
0.0
 32
0.0
 13
1.0
 23
0.0
 33
0.0
 40
0.0
 40
0.0
 40
0.0
 40
0.0
 40
0.2
 40
0.2
 40
0.2
 40
0.2
 40
0.4
 40
0.4
 40
0.4
 40
0.4
 40
0.6
 40
0.6
 40
0.6
 40
0.6
 40
1.0
 40
1.0
 40
1.0
 40
1.0
 10
37.498
 20
62.1739
 30
0.0
 10
34.7817
 20
60.9858
 30
0.0
 10
32.8824
 20
60.2447
 30
0.0
 10
29.4128
 20
59.7214
 30
0.0
 10
29.4128
 20
59.7214
 30
0.0
 10
29.7038
 20
62.5715
 30
0.0
 10
30.6772
 20
65.2452
 30
0.0
 10
31.8653
 20
67.9228
 30
0.0
 10
31.8653
 20
67.9228
 30
0.0
 10
33.3755
 20
65.8303
 30
0.0
 10
35.6814
 20
63.5304
 30
0.0
 10
37.498
 20
62.174
 30
0.0
 10
37.498
 20
62.174
 30
0.0
 10
37.498
 20
62.174
 30
0.0
 10
37.498
 20
62.1739
 30
0.0
 10
37.498
 20
62.1739
 30
0.0
  0
SPLINE
  5
6C
330
1F
100
AcDbEntity
  8
layer 1
 62
     7
100
AcDbSpline
210
0.0
220
0.0
230
1.0
 70
    11
 71
     3
 72
    24
 73
    20
 74
     0
 42
0.0000000001
 43
0.0000000001
 12
1.0
 22
0.0
 32
0.0
 13
1.0
 23
0.0
 33
0.0
 40
0.0
 40
0.0
 40
0.0
 40
0.0
 40
0.1666666666666667
 40
0.1666666666666667
 40
0.1666666666666667
 40
0.1666666666666667
 40
0.3333333333333333
 40
0.3333333333333333
 40
0.3333333333333333
 40
0.3333333333333333
 40
0.5
 40
0.5
 40
0.5
 40
0.5
 40
0.6666666666666666
 40
0.6666666666666666
 40
0.6666666666666666
 40
0.6666666666666666
 40
1.0
 40
1.0
 40
1.0
 40
1.0
 10
33.7036
 20
71.2258
 30
0.0
 10
35.0315
 20
69.1596
 30
0.0
 10
37.7007
 20
66.1035
 30
0.0
 10
40.7475
 20
64.1649
 30
0.0
 10
40.7475
 20
64.1649
 30
0.0
 10
44.1901
 20
66.42
 30
0.0
 10
46.3448
 20
69.2388
 30
0.0
 10
47.7914
 20
71.1862
 30
0.0
 10
47.7914
 20
71.1862
 30
0.0
 10
46.8593
 20
72.8963
 30
0.0
 10
43.636
 20
76.5461
 30
0.0
 10
40.6287
 20
78.3659
 30
0.0
 10
40.6287
 20
78.3659
 30
0.0
 10
37.6215
 20
76.2691
 30
0.0
 10
35.1502
 20
73.3316
 30
0.0
 10
33.7035
 20
71.2258
 30
0.0
 10
33.7035
 20
71.2258
 30
0.0
 10
33.7035
 20
71.2258
 30
0.0
 10
33.7036
 20
71.2258
 30
0.0
 10
33.7036
 20
71.2258
 30
0.0
  0
SPLINE
  5
6D
330
1F
100
AcDbEntity
  8
layer 1
 62
     7
100
AcDbSpline
210
0.0
220
0.0
230
1.0
 70
    11
 71
     3
 72
    20
 73
    16
 74
     0
 42
0.0000000001
 43
0.0000000001
 12
1.0
 22
0.0
 32
0.0
 13
1.0
 23
0.0
 33
0.0
 40
0.0
 40
0.0
 40
0.0
 40
0.0
 40
0.2
 40
0.2
 40
0.2
 40
0.2
 40
0.4
 40
0.4
 40
0.4
 40
0.4
 40
0.6
 40
0.6
 40
0.6
 40
0.6
 40
1.0
 40
1.0
 40
1.0
 40
1.0
 10
44.0103
 20
50.5421
 30
0.0
 10
46.7266
 20
51.7301
 30
0.0
 10
48.6259
 20
52.4713
 30
0.0
 10
52.0954
 20
52.9946
 30
0.0
 10
52.0954
 20
52.9946
 30
0.0
 10
51.8045
 20
50.1445
 30
0.0
 10
50.831
 20
47.4708
 30
0.0
 10
49.643
 20
44.7932
 30
0.0
 10
49.643
 20
44.7932
 30
0.0
 10
48.1327
 20
46.8857
 30
0.0
 10
45.8269
 20
49.1855
 30
0.0
 10
44.0103
 20
50.542
 30
0.0
 10
44.0103
 20
50.542
 30
0.0
 10
44.0103
 20
50.542
 30
0.0
 10
44.0103
 20
50.5421
 30
0.0
 10
44.0103
 20
50.5421
 30
0.0
  0
SPLINE
  5
6E
330
1F
100
AcDbEntity
  8
layer 1
 62
     7
100
AcDbSpline
210
0.0
220
0.0
230
1.0
 70
    11
 71
     3
 72
    20
 73
    16
 74
     0
 42
0.0000000001
 43
0.0000000001
 12
1.0
 22
0.0
 32
0.0
 13
1.0
 23
0.0
 33
0.0
 40
0.0
 40
0.0
 40
0.0
 40
0.0
 40
0.2
 40
0.2
 40
0.2
 40
0.2
 40
0.4
 40
0.4
 40
0.4
 40
0.4
 40
0.6
 40
0.6
 40
0.6
 40
0.6
 40
1.0
 40
1.0
 40
1.0
 40
1.0
 10
37.498
 20
50.5421
 30
0.0
 10
34.7817
 20
51.7301
 30
0.0
 10
32.8824
 20
52.4713
 30
0.0
 10
29.4128
 20
52.9946
 30
0.0
 10
29.4128
 20
52.9946
 30
0.0
 10
29.7038
 20
50.1445
 30
0.0
 10
30.6772
 20
47.4708
 30
0.0
 10
31.8653
 20
44.7932
 30
0.0
 10
31.8653
 20
44.7932
 30
0.0
 10
33.3755
 20
46.8857
 30
0.0
 10
35.6814
 20
49.1855
 30
0.0
 10
37.498
 20
50.542
 30
0.0
 10
37.498
 20
50.542
 30
0.0
 10
37.498
 20
50.542
 30
0.0
 10
37.498
 20
50.5421
 30
0.0
 10
37.498
 20
50.5421
 30
0.0
  0
SPLINE
  5
6F
330
1F
100
AcDbEntity
  8
layer 1
 62
     7
100
AcDbSpline
210
0.0
220
0.0
230
1.0
 70
    11
 71
     3
 72
    20
 73
    16
 74
     0
 42
0.0000000001
 43
0.0000000001
 12
1.0
 22
0.0
 32
0.0
 13
1.0
 23
0.0
 33
0.0
 40
0.0
 40
0.0
 40
0.0
 40
0.0
 40
0.2
 40
0.2
 40
0.2
 40
0.2
 40
0.4
 40
0.4
 40
0.4
 40
0.4
 40
0.6
 40
0.6
 40
0.6
 40
0.6
 40
1.0
 40
1.0
 40
1.0
 40
1.0
 10
-59.6159
 20
56.292
 30
0.0
 10
-55.8343
 20
55.7692
 30
0.0
 10
-51.859
 20
54.3754
 30
0.0
 10
-48.8518
 20
52.5555
 30
0.0
 10
-48.8518
 20
52.5555
 30
0.0
 10
-45.8446
 20
54.3754
 30
0.0
 10
-41.8693
 20
55.7693
 30
0.0
 10
-38.0877
 20
56.292
 30
0.0
 10
-38.0877
 20
56.292
 30
0.0
 10
-41.8693
 20
56.8147
 30
0.0
 10
-45.8446
 20
58.2086
 30
0.0
 10
-48.8518
 20
60.0284
 30
0.0
 10
-48.8518
 20
60.0284
 30
0.0
 10
-51.859
 20
58.2086
 30
0.0
 10
-55.8343
 20
56.8147
 30
0.0
 10
-59.6159
 20
56.292
 30
0.0
  0
SPLINE
  5
70
330
1F
100
AcDbEntity
  8
layer 1
 62
     7
100
AcDbSpline
210
0.0
220
0.0
230
1.0
 70
    11
 71
     3
 72
    20
 73
    16
 74
     0
 42
0.0000000001
 43
0.0000000001
 12
1.0
 22
0.0
 32
0.0
 13
1.0
 23
0.0
 33
0.0
 40
0.0
 40
0.0
 40
0.0
 40
0.0
 40
0.2
 40
0.2
 40
0.2
 40
0.2
 40
0.4
 40
0.4
 40
0.4
 40
0.4
 40
0.6
 40
0.6
 40
0.6
 40
0.6
 40
1.0
 40
1.0
 40
1.0
 40
1.0
 10
-45.5924
 20
62.1739
 30
0.0
 10
-42.8761
 20
60.9858
 30
0.0
 10
-40.9768
 20
60.2447
 30
0.0
 10
-37.5072
 20
59.7214
 30
0.0
 10
-37.5072
 20
59.7214
 30
0.0
 10
-37.7982
 20
62.5715
 30
0.0
 10
-38.7716
 20
65.2452
 30
0.0
 10
-39.9597
 20
67.9228
 30
0.0
 10
-39.9597
 20
67.9228
 30
0.0
 10
-41.4699
 20
65.8303
 30
0.0
 10
-43.7758
 20
63.5304
 30
0.0
 10
-45.5924
 20
62.174
 30
0.0
 10
-45.5924
 20
62.174
 30
0.0
 10
-45.5924
 20
62.174
 30
0.0
 10
-45.5924
 20
62.1739
 30
0.0
 10
-45.5924
 20
62.1739
 30
0.0
  0
SPLINE
  5
71
330
1F
100
AcDbEntity
  8
layer 1
 62
     7
100
AcDbSpline
210
0.0
220
0.0
230
1.0
 70
    11
 71
     3
 72
    20
 73
    16
 74
     0
 42
0.0000000001
 43
0.0000000001
 12
1.0
 22
0.0
 32
0.0
 13
1.0
 23
0.0
 33
0.0
 40
0.0
 40
0.0
 40
0.0
 40
0.0
 40
0.2
 40
0.2
 40
0.2
 40
0.2
 40
0.4
 40
0.4
 40
0.4
 40
0.4
 40
0.6
 40
0.6
 40
0.6
 40
0.6
 40
1.0
 40
1.0
 40
1.0
 40
1.0
 10
-52.1047
 20
62.1739
 30
0.0
 10
-54.821
 20
60.9858
 30
0.0
 10
-56.7203
 20
60.2447
 30
0.0
 10
-60.1898
 20
59.7214
 30
0.0
 10
-60.1898
 20
59.7214
 30
0.0
 10
-59.8988
 20
62.5715
 30
0.0
 10
-58.9254
 20
65.2452
 30
0.0
 10
-57.7373
 20
67.9228
 30
0.0
 10
-57.7373
 20
67.9228
 30
0.0
 10
-56.2271
 20
65.8303
 30
0.0
 10
-53.9213
 20
63.5304
 30
0.0
 10
-52.1047
 20
62.174
 30
0.0
 10
-52.1047
 20
62.174
 30
0.0
 10
-52.1047
 20
62.174
 30
0.0
 10
-52.1047
 20
62.1739
 30
0.0
 10
-52.1047
 20
62.1739
 30
0.0
  0
SPLINE
  5
72
330
1F
100
AcDbEntity
  8
layer 1
 62
     7
100
AcDbSpline
210
0.0
220
0.0
230
1.0
 70
    11
 71
     3
 72
    24
 73
    20
 74
     0
 42
0.0000000001
 43
0.0000000001
 12
1.0
 22
0.0
 32
0.0
 13
1.0
 23
0.0
 33
0.0
 40
0.0
 40
0.0
 40
0.0
 40
0.0
 40
0.1666666666666667
 40
0.1666666666666667
 40
0.1666666666666667
 40
0.1666666666666667
 40
0.3333333333333333
 40
0.3333333333333333
 40
0.3333333333333333
 40
0.3333333333333333
 40
0.5
 40
0.5
 40
0.5
 40
0.5
 40
0.6666666666666666
 40
0.6666666666666666
 40
0.6666666666666666
 40
0.6666666666666666
 40
1.0
 40
1.0
 40
1.0
 40
1.0
 10
-55.899
 20
71.2258
 30
0.0
 10
-54.5712
 20
69.1596
 30
0.0
 10
-51.902
 20
66.1035
 30
0.0
 10
-48.8552
 20
64.1649
 30
0.0
 10
-48.8552
 20
64.1649
 30
0.0
 10
-45.4125
 20
66.42
 30
0.0
 10
-43.2579
 20
69.2388
 30
0.0
 10
-41.8113
 20
71.1862
 30
0.0
 10
-41.8113
 20
71.1862
 30
0.0
 10
-42.7434
 20
72.8963
 30
0.0
 10
-45.9667
 20
76.5461
 30
0.0
 10
-48.9739
 20
78.3659
 30
0.0
 10
-48.9739
 20
78.3659
 30
0.0
 10
-51.9812
 20
76.2691
 30
0.0
 10
-54.4525
 20
73.3316
 30
0.0
 10
-55.8991
 20
71.2258
 30
0.0
 10
-55.8991
 20
71.2258
 30
0.0
 10
-55.8991
 20
71.2258
 30
0.0
 10
-55.899
 20
71.2258
 30
0.0
 10
-55.899
 20
71.2258
 30
0.0
  0
SPLINE
  5
73
330
1F
100
AcDbEntity
  8
layer 1
 62
     7
100
AcDbSpline
210
0.0
220
0.0
230
1.0
 70
    11
 71
     3
 72
    20
 73
    16
 74
     0
 42
0.0000000001
 43
0.0000000001
 12
1.0
 22
0.0
 32
0.0
 13
1.0
 23
0.0
 33
0.0
 40
0.0
 40
0.0
 40
0.0
 40
0.0
 40
0.2
 40
0.2
 40
0.2
 40
0.2
 40
0.4
 40
0.4
 40
0.4
 40
0.4
 40
0.6
 40
0.6
 40
0.6
 40
0.6
 40
1.0
 40
1.0
 40
1.0
 40
1.0
 10
-45.5924
 20
50.5421
 30
0.0
 10
-42.8761
 20
51.7301
 30
0.0
 10
-40.9768
 20
52.4713
 30
0.0
 10
-37.5072
 20
52.9946
 30
0.0
 10
-37.5072
 20
52.9946
 30
0.0
 10
-37.7982
 20
50.1445
 30
0.0
 10
-38.7716
 20
47.4708
 30
0.0
 10
-39.9597
 20
44.7932
 30
0.0
 10
-39.9597
 20
44.7932
 30
0.0
 10
-41.4699
 20
46.8857
 30
0.0
 10
-43.7758
 20
49.1855
 30
0.0
 10
-45.5924
 20
50.542
 30
0.0
 10
-45.5924
 20
50.542
 30
0.0
 10
-45.5924
 20
50.542
 30
0.0
 10
-45.5924
 20
50.5421
 30
0.0
 10
-45.5924
 20
50.5421
 30
0.0
  0
SPLINE
  5
74
330
1F
100
AcDbEntity
  8
layer 1
 62
     7
100
AcDbSpline
210
0.0
220
0.0
230
1.0
 70
    11
 71
     3
 72
    20
 73
    16
 74
     0
 42
0.0000000001
 43
0.0000000001
 12
1.0
 22
0.0
 32
0.0
 13
1.0
 23
0.0
 33
0.0
 40
0.0
 40
0.0
 40
0.0
 40
0.0
 40
0.2
 40
0.2
 40
0.2
 40
0.2
 40
0.4
 40
0.4
 40
0.4
 40
0.4
 40
0.6
 40
0.6
 40
0.6
 40
0.6
 40
1.0
 40
1.0
 40
1.0
 40
1.0
 10
-52.1047
 20
50.5421
 30
0.0
 10
-54.821
 20
51.7301
 30
0.0
 10
-56.7203
 20
52.4713
 30
0.0
 10
-60.1898
 20
52.9946
 30
0.0
 10
-60.1898
 20
52.9946
 30
0.0
 10
-59.8988
 20
50.1445
 30
0.0
 10
-58.9254
 20
47.4708
 30
0.0
 10
-57.7373
 20
44.7932
 30
0.0
 10
-57.7373
 20
44.7932
 30
0.0
 10
-56.2271
 20
46.8857
 30
0.0
 10
-53.9213
 20
49.1855
 30
0.0
 10
-52.1047
 20
50.542
 30
0.0
 10
-52.1047
 20
50.542
 30
0.0
 10
-52.1047
 20
50.542
 30
0.0
 10
-52.1047
 20
50.5421
 30
0.0
 10
-52.1047
 20
50.5421
 30
0.0
  0
SPLINE
  5
75
330
1F
100
AcDbEntity
  8
layer 1
 62
     7
100
AcDbSpline
210
0.0
220
0.0
230
1.0
 70
    11
 71
     3
 72
    20
 73
    16
 74
     0
 42
0.0000000001
 43
0.0000000001
 12
1.0
 22
0.0
 32
0.0
 13
1.0
 23
0.0
 33
0.0
 40
0.0
 40
0.0
 40
0.0
 40
0.0
 40
0.2
 40
0.2
 40
0.2
 40
0.2
 40
0.4
 40
0.4
 40
0.4
 40
0.4
 40
0.6
 40
0.6
 40
0.6
 40
0.6
 40
1.0
 40
1.0
 40
1.0
 40
1.0
 10
-29.854
 20
56.292
 30
0.0
 10
-26.0723
 20
55.7692
 30
0.0
 10
-22.097
 20
54.3754
 30
0.0
 10
-19.0898
 20
52.5555
 30
0.0
 10
-19.0898
 20
52.5555
 30
0.0
 10
-16.0826
 20
54.3754
 30
0.0
 10
-12.1073
 20
55.7693
 30
0.0
 10
-8.3257
 20
56.292
 30
0.0
 10
-8.3257
 20
56.292
 30
0.0
 10
-12.1073
 20
56.8147
 30
0.0
 10
-16.0826
 20
58.2086
 30
0.0
 10
-19.0898
 20
60.0284
 30
0.0
 10
-19.0898
 20
60.0284
 30
0.0
 10
-22.097
 20
58.2086
 30
0.0
 10
-26.0723
 20
56.8147
 30
0.0
 10
-29.854
 20
56.292
 30
0.0
  0
SPLINE
  5
76
330
1F
100
AcDbEntity
  8
layer 1
 62
     7
100
AcDbSpline
210
0.0
220
0.0
230
1.0
 70
    11
 71
     3
 72
    20
 73
    16
 74
     0
 42
0.0000000001
 43
0.0000000001
 12
1.0
 22
0.0
 32
0.0
 13
1.0
 23
0.0
 33
0.0
 40
0.0
 40
0.0
 40
0.0
 40
0.0
 40
0.2
 40
0.2
 40
0.2
 40
0.2
 40
0.4
 40
0.4
 40
0.4
 40
0.4
 40
0.6
 40
0.6
 40
0.6
 40
0.6
 40
1.0
 40
1.0
 40
1.0
 40
1.0
 10
-15.8304
 20
62.1739
 30
0.0
 10
-13.1141
 20
60.9858
 30
0.0
 10
-11.2148
 20
60.2447
 30
0.0
 10
-7.7452
 20
59.7214
 30
0.0
 10
-7.7452
 20
59.7214
 30
0.0
 10
-8.0362
 20
62.5715
 30
0.0
 10
-9.0096
 20
65.2452
 30
0.0
 10
-10.1977
 20
67.9228
 30
0.0
 10
-10.1977
 20
67.9228
 30
0.0
 10
-11.7079
 20
65.8303
 30
0.0
 10
-14.0138
 20
63.5304
 30
0.0
 10
-15.8304
 20
62.174
 30
0.0
 10
-15.8304
 20
62.174
 30
0.0
 10
-15.8304
 20
62.174
 30
0.0
 10
-15.8304
 20
62.1739
 30
0.0
 10
-15.8304
 20
62.1739
 30
0.0
  0
SPLINE
  5
77
330
1F
100
AcDbEntity
  8
layer 1
 62
     7
100
AcDbSpline
210
0.0
220
0.0
230
1.0
 70
    11
 71
     3
 72
    20
 73
    16
 74
     0
 42
0.0000000001
 43
0.0000000001
 12
1.0
 22
0.0
 32
0.0
 13
1.0
 23
0.0
 33
0.0
 40
0.0
 40
0.0
 40
0.0
 40
0.0
 40
0.2
 40
0.2
 40
0.2
 40
0.2
 40
0.4
 40
0.4
 40
0.4
 40
0.4
 40
0.6
 40
0.6
 40
0.6
 40
0.6
 40
1.0
 40
1.0
 40
1.0
 40
1.0
 10
-22.3426
 20
62.1739
 30
0.0
 10
-25.0589
 20
60.9858
 30
0.0
 10
-26.9582
 20
60.2447
 30
0.0
 10
-30.4278
 20
59.7214
 30
0.0
 10
-30.4278
 20
59.7214
 30
0.0
 10
-30.1368
 20
62.5715
 30
0.0
 10
-29.1634
 20
65.2452
 30
0.0
 10
-27.9753
 20
67.9228
 30
0.0
 10
-27.9753
 20
67.9228
 30
0.0
 10
-26.4651
 20
65.8303
 30
0.0
 10
-24.1592
 20
63.5304
 30
0.0
 10
-22.3426
 20
62.174
 30
0.0
 10
-22.3426
 20
62.174
 30
0.0
 10
-22.3426
 20
62.174
 30
0.0
 10
-22.3426
 20
62.1739
 30
0.0
 10
-22.3426
 20
62.1739
 30
0.0
  0
SPLINE
  5
78
330
1F
100
AcDbEntity
  8
layer 1
 62
     7
100
AcDbSpline
210
0.0
220
0.0
230
1.0
 70
    11
 71
     3
 72
    24
 73
    20
 74
     0
 42
0.0000000001
 43
0.0000000001
 12
1.0
 22
0.0
 32
0.0
 13
1.0
 23
0.0
 33
0.0
 40
0.0
 40
0.0
 40
0.0
 40
0.0
 40
0.1666666666666667
 40
0.1666666666666667
 40
0.1666666666666667
 40
0.1666666666666667
 40
0.3333333333333333
 40
0.3333333333333333
 40
0.3333333333333333
 40
0.3333333333333333
 40
0.5
 40
0.5
 40
0.5
 40
0.5
 40
0.6666666666666666
 40
0.6666666666666666
 40
0.6666666666666666
 40
0.6666666666666666
 40
1.0
 40
1.0
 40
1.0
 40
1.0
 10
-26.137
 20
71.2258
 30
0.0
 10
-24.8091
 20
69.1596
 30
0.0
 10
-22.1399
 20
66.1035
 30
0.0
 10
-19.0931
 20
64.1649
 30
0.0
 10
-19.0931
 20
64.1649
 30
0.0
 10
-15.6505
 20
66.42
 30
0.0
 10
-13.4959
 20
69.2388
 30
0.0
 10
-12.0492
 20
71.1862
 30
0.0
 10
-12.0492
 20
71.1862
 30
0.0
 10
-12.9814
 20
72.8963
 30
0.0
 10
-16.2046
 20
76.5461
 30
0.0
 10
-19.2119
 20
78.3659
 30
0.0
 10
-19.2119
 20
78.3659
 30
0.0
 10
-22.2191
 20
76.2691
 30
0.0
 10
-24.6904
 20
73.3316
 30
0.0
 10
-26.1371
 20
71.2258
 30
0.0
 10
-26.1371
 20
71.2258
 30
0.0
 10
-26.1371
 20
71.2258
 30
0.0
 10
-26.137
 20
71.2258
 30
0.0
 10
-26.137
 20
71.2258
 30
0.0
  0
SPLINE
  5
79
330
1F
100
AcDbEntity
  8
layer 1
 62
     7
100
AcDbSpline
210
0.0
220
0.0
230
1.0
 70
    11
 71
     3
 72
    20
 73
    16
 74
     0
 42
0.0000000001
 43
0.0000000001
 12
1.0
 22
0.0
 32
0.0
 13
1.0
 23
0.0
 33
0.0
 40
0.0
 40
0.0
 40
0.0
 40
0.0
 40
0.2
 40
0.2
 40
0.2
 40
0.2
 40
0.4
 40
0.4
 40
0.4
 40
0.4
 40
0.6
 40
0.6
 40
0.6
 40
0.6
 40
1.0
 40
1.0
 40
1.0
 40
1.0
 10
-15.8304
 20
50.5421
 30
0.0
 10
-13.1141
 20
51.7301
 30
0.0
 10
-11.2148
 20
52.4713
 30
0.0
 10
-7.7452
 20
52.9946
 30
0.0
 10
-7.7452
 20
52.9946
 30
0.0
 10
-8.0362
 20
50.1445
 30
0.0
 10
-9.0096
 20
47.4708
 30
0.0
 10
-10.1977
 20
44.7932
 30
0.0
 10
-10.1977
 20
44.7932
 30
0.0
 10
-11.7079
 20
46.8857
 30
0.0
 10
-14.0138
 20
49.1855
 30
0.0
 10
-15.8304
 20
50.542
 30
0.0
 10
-15.8304
 20
50.542
 30
0.0
 10
-15.8304
 20
50.542
 30
0.0
 10
-15.8304
 20
50.5421
 30
0.0
 10
-15.8304
 20
50.5421
 30
0.0
  0
SPLINE
  5
7A
330
1F
100
AcDbEntity
  8
layer 1
 62
     7
100
AcDbSpline
210
0.0
220
0.0
230
1.0
 70
    11
 71
     3
 72
    20
 73
    16
 74
     0
 42
0.0000000001
 43
0.0000000001
 12
1.0
 22
0.0
 32
0.0
 13
1.0
 23
0.0
 33
0.0
 40
0.0
 40
0.0
 40
0.0
 40
0.0
 40
0.2
 40
0.2
 40
0.2
 40
0.2
 40
0.4
 40
0.4
 40
0.4
 40
0.4
 40
0.6
 40
0.6
 40
0.6
 40
0.6
 40
1.0
 40
1.0
 40
1.0
 40
1.0
 10
-22.3426
 20
50.5421
 30
0.0
 10
-25.0589
 20
51.7301
 30
0.0
 10
-26.9582
 20
52.4713
 30
0.0
 10
-30.4278
 20
52.9946
 30
0.0
 10
-30.4278
 20
52.9946
 30
0.0
 10
-30.1368
 20
50.1445
 30
0.0
 10
-29.1634
 20
47.4708
 30
0.0
 10
-27.9753
 20
44.7932
 30
0.0
 10
-27.9753
 20
44.7932
 30
0.0
 10
-26.4651
 20
46.8857
 30
0.0
 10
-24.1592
 20
49.1855
 30
0.0
 10
-22.3426
 20
50.542
 30
0.0
 10
-22.3426
 20
50.542
 30
0.0
 10
-22.3426
 20
50.542
 30
0.0
 10
-22.3426
 20
50.5421
 30
0.0
 10
-22.3426
 20
50.5421
 30
0.0
  0
SPLINE
  5
7B
330
1F
100
AcDbEntity
  8
layer 1
 62
     7
100
AcDbSpline
210
0.0
220
0.0
230
1.0
 70
    11
 71
     3
 72
    20
 73
    16
 74
     0
 42
0.0000000001
 43
0.0000000001
 12
1.0
 22
0.0
 32
0.0
 13
1.0
 23
0.0
 33
0.0
 40
0.0
 40
0.0
 40
0.0
 40
0.0
 40
0.2
 40
0.2
 40
0.2
 40
0.2
 40
0.4
 40
0.4
 40
0.4
 40
0.4
 40
0.6
 40
0.6
 40
0.6
 40
0.6
 40
1.0
 40
1.0
 40
1.0
 40
1.0
 10
26.1181
 20
60.5219
 30
0.0
 10
26.6408
 20
64.3036
 30
0.0
 10
28.0347
 20
68.2789
 30
0.0
 10
29.8545
 20
71.2861
 30
0.0
 10
29.8545
 20
71.2861
 30
0.0
 10
28.0347
 20
74.2933
 30
0.0
 10
26.6407
 20
78.2686
 30
0.0
 10
26.1181
 20
82.0502
 30
0.0
 10
26.1181
 20
82.0502
 30
0.0
 10
25.5953
 20
78.2686
 30
0.0
 10
24.2015
 20
74.2933
 30
0.0
 10
22.3816
 20
71.2861
 30
0.0
 10
22.3816
 20
71.2861
 30
0.0
 10
24.2015
 20
68.2789
 30
0.0
 10
25.5954
 20
64.3036
 30
0.0
 10
26.1181
 20
60.5219
 30
0.0
  0
SPLINE
  5
7C
330
1F
100
AcDbEntity
  8
layer 1
 62
     7
100
AcDbSpline
210
0.0
220
0.0
230
1.0
 70
    11
 71
     3
 72
    20
 73
    16
 74
     0
 42
0.0000000001
 43
0.0000000001
 12
1.0
 22
0.0
 32
0.0
 13
1.0
 23
0.0
 33
0.0
 40
0.0
 40
0.0
 40
0.0
 40
0.0
 40
0.2
 40
0.2
 40
0.2
 40
0.2
 40
0.4
 40
0.4
 40
0.4
 40
0.4
 40
0.6
 40
0.6
 40
0.6
 40
0.6
 40
1.0
 40
1.0
 40
1.0
 40
1.0
 10
-4.0507
 20
60.5219
 30
0.0
 10
-3.528
 20
64.3036
 30
0.0
 10
-2.1341
 20
68.2789
 30
0.0
 10
-0.3143
 20
71.2861
 30
0.0
 10
-0.3143
 20
71.2861
 30
0.0
 10
-2.1341
 20
74.2933
 30
0.0
 10
-3.528
 20
78.2686
 30
0.0
 10
-4.0507
 20
82.0502
 30
0.0
 10
-4.0507
 20
82.0502
 30
0.0
 10
-4.5734
 20
78.2686
 30
0.0
 10
-5.9673
 20
74.2933
 30
0.0
 10
-7.7871
 20
71.2861
 30
0.0
 10
-7.7871
 20
71.2861
 30
0.0
 10
-5.9673
 20
68.2789
 30
0.0
 10
-4.5734
 20
64.3036
 30
0.0
 10
-4.0507
 20
60.5219
 30
0.0
  0
SPLINE
  5
7D
330
1F
100
AcDbEntity
  8
layer 1
 62
     7
100
AcDbSpline
210
0.0
220
0.0
230
1.0
 70
    11
 71
     3
 72
    20
 73
    16
 74
     0
 42
0.0000000001
 43
0.0000000001
 12
1.0
 22
0.0
 32
0.0
 13
1.0
 23
0.0
 33
0.0
 40
0.0
 40
0.0
 40
0.0
 40
0.0
 40
0.2
 40
0.2
 40
0.2
 40
0.2
 40
0.4
 40
0.4
 40
0.4
 40
0.4
 40
0.6
 40
0.6
 40
0.6
 40
0.6
 40
1.0
 40
1.0
 40
1.0
 40
1.0
 10
-34.4002
 20
60.5219
 30
0.0
 10
-33.8774
 20
64.3036
 30
0.0
 10
-32.4835
 20
68.2789
 30
0.0
 10
-30.6637
 20
71.2861
 30
0.0
 10
-30.6637
 20
71.2861
 30
0.0
 10
-32.4835
 20
74.2933
 30
0.0
 10
-33.8775
 20
78.2686
 30
0.0
 10
-34.4002
 20
82.0502
 30
0.0
 10
-34.4002
 20
82.0502
 30
0.0
 10
-34.9229
 20
78.2686
 30
0.0
 10
-36.3168
 20
74.2933
 30
0.0
 10
-38.1366
 20
71.2861
 30
0.0
 10
-38.1366
 20
71.2861
 30
0.0
 10
-36.3168
 20
68.2789
 30
0.0
 10
-34.9228
 20
64.3036
 30
0.0
 10
-34.4002
 20
60.5219
 30
0.0
  0
SPLINE
  5
7E
330
1F
100
AcDbEntity
  8
layer 1
 62
     7
100
AcDbSpline
210
0.0
220
0.0
230
1.0
 70
    11
 71
     3
 72
    16
 73
    12
 74
     0
 42
0.0000000001
 43
0.0000000001
 12
1.0
 22
0.0
 32
0.0
 13
1.0
 23
0.0
 33
0.0
 40
0.0
 40
0.0
 40
0.0
 40
0.0
 40
0.25
 40
0.25
 40
0.25
 40
0.25
 40
0.5
 40
0.5
 40
0.5
 40
0.5
 40
1.0
 40
1.0
 40
1.0
 40
1.0
 10
-63.9115
 20
60.5219
 30
0.0
 10
-63.3888
 20
64.3036
 30
0.0
 10
-61.9949
 20
68.2789
 30
0.0
 10
-60.1751
 20
71.2861
 30
0.0
 10
-60.1751
 20
71.2861
 30
0.0
 10
-61.9949
 20
74.2933
 30
0.0
 10
-63.3889
 20
78.2686
 30
0.0
 10
-63.9115
 20
82.0502
 30
0.0
 10
-63.9115
 20
82.0502
 30
0.0
 10
-63.9115
 20
82.0502
 30
0.0
 10
-63.9115
 20
60.5219
 30
0.0
 10
-63.9115
 20
60.5219
 30
0.0
  0
SPLINE
  5
7F
330
1F
100
AcDbEntity
  8
layer 1
 62
     7
100
AcDbSpline
210
0.0
220
0.0
230
1.0
 70
    11
 71
     3
 72
    16
 73
    12
 74
     0
 42
0.0000000001
 43
0.0000000001
 12
1.0
 22
0.0
 32
0.0
 13
1.0
 23
0.0
 33
0.0
 40
0.0
 40
0.0
 40
0.0
 40
0.0
 40
0.25
 40
0.25
 40
0.25
 40
0.25
 40
0.5
 40
0.5
 40
0.5
 40
0.5
 40
1.0
 40
1.0
 40
1.0
 40
1.0
 10
56.0258
 20
60.5219
 30
0.0
 10
55.503
 20
64.3036
 30
0.0
 10
54.1092
 20
68.2789
 30
0.0
 10
52.2893
 20
71.2861
 30
0.0
 10
52.2893
 20
71.2861
 30
0.0
 10
54.1092
 20
74.2933
 30
0.0
 10
55.5031
 20
78.2686
 30
0.0
 10
56.0258
 20
82.0502
 30
0.0
 10
56.0258
 20
82.0502
 30
0.0
 10
56.0258
 20
82.0502
 30
0.0
 10
56.0258
 20
60.5219
 30
0.0
 10
56.0258
 20
60.5219
 30
0.0
  0
SPLINE
  5
80
330
1F
100
AcDbEntity
  8
layer 1
 62
     7
100
AcDbSpline
210
0.0
220
0.0
230
1.0
 70
    11
 71
     3
 72
    20
 73
    16
 74
     0
 42
0.0000000001
 43
0.0000000001
 12
1.0
 22
0.0
 32
0.0
 13
1.0
 23
0.0
 33
0.0
 40
0.0
 40
0.0
 40
0.0
 40
0.0
 40
0.2
 40
0.2
 40
0.2
 40
0.2
 40
0.4
 40
0.4
 40
0.4
 40
0.4
 40
0.6
 40
0.6
 40
0.6
 40
0.6
 40
1.0
 40
1.0
 40
1.0
 40
1.0
 10
0.2247
 20
86.1368
 30
0.0
 10
4.0063
 20
85.6141
 30
0.0
 10
7.9816
 20
84.2202
 30
0.0
 10
10.9888
 20
82.4004
 30
0.0
 10
10.9888
 20
82.4004
 30
0.0
 10
13.996
 20
84.2202
 30
0.0
 10
17.9713
 20
85.6141
 30
0.0
 10
21.7529
 20
86.1368
 30
0.0
 10
21.7529
 20
86.1368
 30
0.0
 10
17.9713
 20
86.6595
 30
0.0
 10
13.996
 20
88.0534
 30
0.0
 10
10.9888
 20
89.8732
 30
0.0
 10
10.9888
 20
89.8732
 30
0.0
 10
7.9816
 20
88.0534
 30
0.0
 10
4.0063
 20
86.6595
 30
0.0
 10
0.2247
 20
86.1368
 30
0.0
  0
SPLINE
  5
81
330
1F
100
AcDbEntity
  8
layer 1
 62
     7
100
AcDbSpline
210
0.0
220
0.0
230
1.0
 70
    11
 71
     3
 72
    20
 73
    16
 74
     0
 42
0.0000000001
 43
0.0000000001
 12
1.0
 22
0.0
 32
0.0
 13
1.0
 23
0.0
 33
0.0
 40
0.0
 40
0.0
 40
0.0
 40
0.0
 40
0.2
 40
0.2
 40
0.2
 40
0.2
 40
0.4
 40
0.4
 40
0.4
 40
0.4
 40
0.6
 40
0.6
 40
0.6
 40
0.6
 40
1.0
 40
1.0
 40
1.0
 40
1.0
 10
14.2482
 20
92.0187
 30
0.0
 10
16.9645
 20
90.8306
 30
0.0
 10
18.8638
 20
90.0895
 30
0.0
 10
22.3334
 20
89.5662
 30
0.0
 10
22.3334
 20
89.5662
 30
0.0
 10
22.0424
 20
92.4163
 30
0.0
 10
21.069
 20
95.09
 30
0.0
 10
19.8809
 20
97.7676
 30
0.0
 10
19.8809
 20
97.7676
 30
0.0
 10
18.3707
 20
95.6751
 30
0.0
 10
16.0648
 20
93.3753
 30
0.0
 10
14.2482
 20
92.0188
 30
0.0
 10
14.2482
 20
92.0188
 30
0.0
 10
14.2482
 20
92.0188
 30
0.0
 10
14.2482
 20
92.0187
 30
0.0
 10
14.2482
 20
92.0187
 30
0.0
  0
SPLINE
  5
82
330
1F
100
AcDbEntity
  8
layer 1
 62
     7
100
AcDbSpline
210
0.0
220
0.0
230
1.0
 70
    11
 71
     3
 72
    20
 73
    16
 74
     0
 42
0.0000000001
 43
0.0000000001
 12
1.0
 22
0.0
 32
0.0
 13
1.0
 23
0.0
 33
0.0
 40
0.0
 40
0.0
 40
0.0
 40
0.0
 40
0.2
 40
0.2
 40
0.2
 40
0.2
 40
0.4
 40
0.4
 40
0.4
 40
0.4
 40
0.6
 40
0.6
 40
0.6
 40
0.6
 40
1.0
 40
1.0
 40
1.0
 40
1.0
 10
7.736
 20
92.0187
 30
0.0
 10
5.0197
 20
90.8306
 30
0.0
 10
3.1204
 20
90.0895
 30
0.0
 10
-0.3491
 20
89.5662
 30
0.0
 10
-0.3491
 20
89.5662
 30
0.0
 10
-0.0582
 20
92.4163
 30
0.0
 10
0.9153
 20
95.09
 30
0.0
 10
2.1033
 20
97.7676
 30
0.0
 10
2.1033
 20
97.7676
 30
0.0
 10
3.6135
 20
95.6751
 30
0.0
 10
5.9194
 20
93.3753
 30
0.0
 10
7.736
 20
92.0188
 30
0.0
 10
7.736
 20
92.0188
 30
0.0
 10
7.736
 20
92.0188
 30
0.0
 10
7.736
 20
92.0187
 30
0.0
 10
7.736
 20
92.0187
 30
0.0
  0
SPLINE
  5
83
330
1F
100
AcDbEntity
  8
layer 1
 62
     7
100
AcDbSpline
210
0.0
220
0.0
230
1.0
 70
    11
 71
     3
 72
    24
 73
    20
 74
     0
 42
0.0000000001
 43
0.0000000001
 12
1.0
 22
0.0
 32
0.0
 13
1.0
 23
0.0
 33
0.0
 40
0.0
 40
0.0
 40
0.0
 40
0.0
 40
0.1666666666666667
 40
0.1666666666666667
 40
0.1666666666666667
 40
0.1666666666666667
 40
0.3333333333333333
 40
0.3333333333333333
 40
0.3333333333333333
 40
0.3333333333333333
 40
0.5
 40
0.5
 40
0.5
 40
0.5
 40
0.6666666666666666
 40
0.6666666666666666
 40
0.6666666666666666
 40
0.6666666666666666
 40
1.0
 40
1.0
 40
1.0
 40
1.0
 10
3.9416
 20
101.0706
 30
0.0
 10
5.2695
 20
99.0043
 30
0.0
 10
7.9387
 20
95.9482
 30
0.0
 10
10.9855
 20
94.0096
 30
0.0
 10
10.9855
 20
94.0096
 30
0.0
 10
14.4281
 20
96.2648
 30
0.0
 10
16.5828
 20
99.0835
 30
0.0
 10
18.0294
 20
101.031
 30
0.0
 10
18.0294
 20
101.031
 30
0.0
 10
17.0973
 20
102.741
 30
0.0
 10
13.874
 20
106.3908
 30
0.0
 10
10.8667
 20
108.2106
 30
0.0
 10
10.8667
 20
108.2106
 30
0.0
 10
7.8595
 20
106.1138
 30
0.0
 10
5.3882
 20
103.1763
 30
0.0
 10
3.9416
 20
101.0705
 30
0.0
 10
3.9416
 20
101.0705
 30
0.0
 10
3.9416
 20
101.0705
 30
0.0
 10
3.9416
 20
101.0706
 30
0.0
 10
3.9416
 20
101.0706
 30
0.0
  0
SPLINE
  5
84
330
1F
100
AcDbEntity
  8
layer 1
 62
     7
100
AcDbSpline
210
0.0
220
0.0
230
1.0
 70
    11
 71
     3
 72
    20
 73
    16
 74
     0
 42
0.0000000001
 43
0.0000000001
 12
1.0
 22
0.0
 32
0.0
 13
1.0
 23
0.0
 33
0.0
 40
0.0
 40
0.0
 40
0.0
 40
0.0
 40
0.2
 40
0.2
 40
0.2
 40
0.2
 40
0.4
 40
0.4
 40
0.4
 40
0.4
 40
0.6
 40
0.6
 40
0.6
 40
0.6
 40
1.0
 40
1.0
 40
1.0
 40
1.0
 10
14.2482
 20
80.3869
 30
0.0
 10
16.9645
 20
81.5749
 30
0.0
 10
18.8638
 20
82.3161
 30
0.0
 10
22.3334
 20
82.8394
 30
0.0
 10
22.3334
 20
82.8394
 30
0.0
 10
22.0424
 20
79.9893
 30
0.0
 10
21.069
 20
77.3156
 30
0.0
 10
19.8809
 20
74.638
 30
0.0
 10
19.8809
 20
74.638
 30
0.0
 10
18.3707
 20
76.7305
 30
0.0
 10
16.0648
 20
79.0303
 30
0.0
 10
14.2482
 20
80.3868
 30
0.0
 10
14.2482
 20
80.3868
 30
0.0
 10
14.2482
 20
80.3868
 30
0.0
 10
14.2482
 20
80.3869
 30
0.0
 10
14.2482
 20
80.3869
 30
0.0
  0
SPLINE
  5
85
330
1F
100
AcDbEntity
  8
layer 1
 62
     7
100
AcDbSpline
210
0.0
220
0.0
230
1.0
 70
    11
 71
     3
 72
    20
 73
    16
 74
     0
 42
0.0000000001
 43
0.0000000001
 12
1.0
 22
0.0
 32
0.0
 13
1.0
 23
0.0
 33
0.0
 40
0.0
 40
0.0
 40
0.0
 40
0.0
 40
0.2
 40
0.2
 40
0.2
 40
0.2
 40
0.4
 40
0.4
 40
0.4
 40
0.4
 40
0.6
 40
0.6
 40
0.6
 40
0.6
 40
1.0
 40
1.0
 40
1.0
 40
1.0
 10
7.736
 20
80.3869
 30
0.0
 10
5.0197
 20
81.5749
 30
0.0
 10
3.1204
 20
82.3161
 30
0.0
 10
-0.3491
 20
82.8394
 30
0.0
 10
-0.3491
 20
82.8394
 30
0.0
 10
-0.0582
 20
79.9893
 30
0.0
 10
0.9153
 20
77.3156
 30
0.0
 10
2.1033
 20
74.638
 30
0.0
 10
2.1033
 20
74.638
 30
0.0
 10
3.6135
 20
76.7305
 30
0.0
 10
5.9194
 20
79.0303
 30
0.0
 10
7.736
 20
80.3868
 30
0.0
 10
7.736
 20
80.3868
 30
0.0
 10
7.736
 20
80.3868
 30
0.0
 10
7.736
 20
80.3869
 30
0.0
 10
7.736
 20
80.3869
 30
0.0
  0
SPLINE
  5
86
330
1F
100
AcDbEntity
  8
layer 1
 62
     7
100
AcDbSpline
210
0.0
220
0.0
230
1.0
 70
    11
 71
     3
 72
    20
 73
    16
 74
     0
 42
0.0000000001
 43
0.0000000001
 12
1.0
 22
0.0
 32
0.0
 13
1.0
 23
0.0
 33
0.0
 40
0.0
 40
0.0
 40
0.0
 40
0.0
 40
0.2
 40
0.2
 40
0.2
 40
0.2
 40
0.4
 40
0.4
 40
0.4
 40
0.4
 40
0.6
 40
0.6
 40
0.6
 40
0.6
 40
1.0
 40
1.0
 40
1.0
 40
1.0
 10
29.9867
 20
86.1368
 30
0.0
 10
33.7684
 20
85.6141
 30
0.0
 10
37.7436
 20
84.2202
 30
0.0
 10
40.7509
 20
82.4004
 30
0.0
 10
40.7509
 20
82.4004
 30
0.0
 10
43.7581
 20
84.2202
 30
0.0
 10
47.7334
 20
85.6141
 30
0.0
 10
51.515
 20
86.1368
 30
0.0
 10
51.515
 20
86.1368
 30
0.0
 10
47.7334
 20
86.6595
 30
0.0
 10
43.7581
 20
88.0534
 30
0.0
 10
40.7509
 20
89.8732
 30
0.0
 10
40.7509
 20
89.8732
 30
0.0
 10
37.7436
 20
88.0534
 30
0.0
 10
33.7684
 20
86.6595
 30
0.0
 10
29.9867
 20
86.1368
 30
0.0
  0
SPLINE
  5
87
330
1F
100
AcDbEntity
  8
layer 1
 62
     7
100
AcDbSpline
210
0.0
220
0.0
230
1.0
 70
    11
 71
     3
 72
    20
 73
    16
 74
     0
 42
0.0000000001
 43
0.0000000001
 12
1.0
 22
0.0
 32
0.0
 13
1.0
 23
0.0
 33
0.0
 40
0.0
 40
0.0
 40
0.0
 40
0.0
 40
0.2
 40
0.2
 40
0.2
 40
0.2
 40
0.4
 40
0.4
 40
0.4
 40
0.4
 40
0.6
 40
0.6
 40
0.6
 40
0.6
 40
1.0
 40
1.0
 40
1.0
 40
1.0
 10
44.0103
 20
92.0187
 30
0.0
 10
46.7266
 20
90.8306
 30
0.0
 10
48.6259
 20
90.0895
 30
0.0
 10
52.0954
 20
89.5662
 30
0.0
 10
52.0954
 20
89.5662
 30
0.0
 10
51.8045
 20
92.4163
 30
0.0
 10
50.831
 20
95.09
 30
0.0
 10
49.643
 20
97.7676
 30
0.0
 10
49.643
 20
97.7676
 30
0.0
 10
48.1327
 20
95.6751
 30
0.0
 10
45.8269
 20
93.3753
 30
0.0
 10
44.0103
 20
92.0188
 30
0.0
 10
44.0103
 20
92.0188
 30
0.0
 10
44.0103
 20
92.0188
 30
0.0
 10
44.0103
 20
92.0187
 30
0.0
 10
44.0103
 20
92.0187
 30
0.0
  0
SPLINE
  5
88
330
1F
100
AcDbEntity
  8
layer 1
 62
     7
100
AcDbSpline
210
0.0
220
0.0
230
1.0
 70
    11
 71
     3
 72
    20
 73
    16
 74
     0
 42
0.0000000001
 43
0.0000000001
 12
1.0
 22
0.0
 32
0.0
 13
1.0
 23
0.0
 33
0.0
 40
0.0
 40
0.0
 40
0.0
 40
0.0
 40
0.2
 40
0.2
 40
0.2
 40
0.2
 40
0.4
 40
0.4
 40
0.4
 40
0.4
 40
0.6
 40
0.6
 40
0.6
 40
0.6
 40
1.0
 40
1.0
 40
1.0
 40
1.0
 10
37.498
 20
92.0187
 30
0.0
 10
34.7817
 20
90.8306
 30
0.0
 10
32.8824
 20
90.0895
 30
0.0
 10
29.4128
 20
89.5662
 30
0.0
 10
29.4128
 20
89.5662
 30
0.0
 10
29.7038
 20
92.4163
 30
0.0
 10
30.6772
 20
95.09
 30
0.0
 10
31.8653
 20
97.7676
 30
0.0
 10
31.8653
 20
97.7676
 30
0.0
 10
33.3755
 20
95.6751
 30
0.0
 10
35.6814
 20
93.3753
 30
0.0
 10
37.498
 20
92.0188
 30
0.0
 10
37.498
 20
92.0188
 30
0.0
 10
37.498
 20
92.0188
 30
0.0
 10
37.498
 20
92.0187
 30
0.0
 10
37.498
 20
92.0187
 30
0.0
  0
SPLINE
  5
89
330
1F
100
AcDbEntity
  8
layer 1
 62
     7
100
AcDbSpline
210
0.0
220
0.0
230
1.0
 70
    11
 71
     3
 72
    24
 73
    20
 74
     0
 42
0.0000000001
 43
0.0000000001
 12
1.0
 22
0.0
 32
0.0
 13
1.0
 23
0.0
 33
0.0
 40
0.0
 40
0.0
 40
0.0
 40
0.0
 40
0.1666666666666667
 40
0.1666666666666667
 40
0.1666666666666667
 40
0.1666666666666667
 40
0.3333333333333333
 40
0.3333333333333333
 40
0.3333333333333333
 40
0.3333333333333333
 40
0.5
 40
0.5
 40
0.5
 40
0.5
 40
0.6666666666666666
 40
0.6666666666666666
 40
0.6666666666666666
 40
0.6666666666666666
 40
1.0
 40
1.0
 40
1.0
 40
1.0
 10
33.7036
 20
101.0706
 30
0.0
 10
35.0315
 20
99.0043
 30
0.0
 10
37.7007
 20
95.9482
 30
0.0
 10
40.7475
 20
94.0096
 30
0.0
 10
40.7475
 20
94.0096
 30
0.0
 10
44.1901
 20
96.2648
 30
0.0
 10
46.3448
 20
99.0835
 30
0.0
 10
47.7914
 20
101.031
 30
0.0
 10
47.7914
 20
101.031
 30
0.0
 10
46.8593
 20
102.741
 30
0.0
 10
43.636
 20
106.3908
 30
0.0
 10
40.6287
 20
108.2106
 30
0.0
 10
40.6287
 20
108.2106
 30
0.0
 10
37.6215
 20
106.1138
 30
0.0
 10
35.1502
 20
103.1763
 30
0.0
 10
33.7035
 20
101.0705
 30
0.0
 10
33.7035
 20
101.0705
 30
0.0
 10
33.7035
 20
101.0705
 30
0.0
 10
33.7036
 20
101.0706
 30
0.0
 10
33.7036
 20
101.0706
 30
0.0
  0
SPLINE
  5
8A
330
1F
100
AcDbEntity
  8
layer 1
 62
     7
100
AcDbSpline
210
0.0
220
0.0
230
1.0
 70
    11
 71
     3
 72
    20
 73
    16
 74
     0
 42
0.0000000001
 43
0.0000000001
 12
1.0
 22
0.0
 32
0.0
 13
1.0
 23
0.0
 33
0.0
 40
0.0
 40
0.0
 40
0.0
 40
0.0
 40
0.2
 40
0.2
 40
0.2
 40
0.2
 40
0.4
 40
0.4
 40
0.4
 40
0.4
 40
0.6
 40
0.6
 40
0.6
 40
0.6
 40
1.0
 40
1.0
 40
1.0
 40
1.0
 10
44.0103
 20
80.3869
 30
0.0
 10
46.7266
 20
81.5749
 30
0.0
 10
48.6259
 20
82.3161
 30
0.0
 10
52.0954
 20
82.8394
 30
0.0
 10
52.0954
 20
82.8394
 30
0.0
 10
51.8045
 20
79.9893
 30
0.0
 10
50.831
 20
77.3156
 30
0.0
 10
49.643
 20
74.638
 30
0.0
 10
49.643
 20
74.638
 30
0.0
 10
48.1327
 20
76.7305
 30
0.0
 10
45.8269
 20
79.0303
 30
0.0
 10
44.0103
 20
80.3868
 30
0.0
 10
44.0103
 20
80.3868
 30
0.0
 10
44.0103
 20
80.3868
 30
0.0
 10
44.0103
 20
80.3869
 30
0.0
 10
44.0103
 20
80.3869
 30
0.0
  0
SPLINE
  5
8B
330
1F
100
AcDbEntity
  8
layer 1
 62
     7
100
AcDbSpline
210
0.0
220
0.0
230
1.0
 70
    11
 71
     3
 72
    20
 73
    16
 74
     0
 42
0.0000000001
 43
0.0000000001
 12
1.0
 22
0.0
 32
0.0
 13
1.0
 23
0.0
 33
0.0
 40
0.0
 40
0.0
 40
0.0
 40
0.0
 40
0.2
 40
0.2
 40
0.2
 40
0.2
 40
0.4
 40
0.4
 40
0.4
 40
0.4
 40
0.6
 40
0.6
 40
0.6
 40
0.6
 40
1.0
 40
1.0
 40
1.0
 40
1.0
 10
37.498
 20
80.3869
 30
0.0
 10
34.7817
 20
81.5749
 30
0.0
 10
32.8824
 20
82.3161
 30
0.0
 10
29.4128
 20
82.8394
 30
0.0
 10
29.4128
 20
82.8394
 30
0.0
 10
29.7038
 20
79.9893
 30
0.0
 10
30.6772
 20
77.3156
 30
0.0
 10
31.8653
 20
74.638
 30
0.0
 10
31.8653
 20
74.638
 30
0.0
 10
33.3755
 20
76.7305
 30
0.0
 10
35.6814
 20
79.0303
 30
0.0
 10
37.498
 20
80.3868
 30
0.0
 10
37.498
 20
80.3868
 30
0.0
 10
37.498
 20
80.3868
 30
0.0
 10
37.498
 20
80.3869
 30
0.0
 10
37.498
 20
80.3869
 30
0.0
  0
SPLINE
  5
8C
330
1F
100
AcDbEntity
  8
layer 1
 62
     7
100
AcDbSpline
210
0.0
220
0.0
230
1.0
 70
    11
 71
     3
 72
    20
 73
    16
 74
     0
 42
0.0000000001
 43
0.0000000001
 12
1.0
 22
0.0
 32
0.0
 13
1.0
 23
0.0
 33
0.0
 40
0.0
 40
0.0
 40
0.0
 40
0.0
 40
0.2
 40
0.2
 40
0.2
 40
0.2
 40
0.4
 40
0.4
 40
0.4
 40
0.4
 40
0.6
 40
0.6
 40
0.6
 40
0.6
 40
1.0
 40
1.0
 40
1.0
 40
1.0
 10
-59.6159
 20
86.1368
 30
0.0
 10
-55.8343
 20
85.6141
 30
0.0
 10
-51.859
 20
84.2202
 30
0.0
 10
-48.8518
 20
82.4004
 30
0.0
 10
-48.8518
 20
82.4004
 30
0.0
 10
-45.8446
 20
84.2202
 30
0.0
 10
-41.8693
 20
85.6141
 30
0.0
 10
-38.0877
 20
86.1368
 30
0.0
 10
-38.0877
 20
86.1368
 30
0.0
 10
-41.8693
 20
86.6595
 30
0.0
 10
-45.8446
 20
88.0534
 30
0.0
 10
-48.8518
 20
89.8732
 30
0.0
 10
-48.8518
 20
89.8732
 30
0.0
 10
-51.859
 20
88.0534
 30
0.0
 10
-55.8343
 20
86.6595
 30
0.0
 10
-59.6159
 20
86.1368
 30
0.0
  0
SPLINE
  5
8D
330
1F
100
AcDbEntity
  8
layer 1
 62
     7
100
AcDbSpline
210
0.0
220
0.0
230
1.0
 70
    11
 71
     3
 72
    20
 73
    16
 74
     0
 42
0.0000000001
 43
0.0000000001
 12
1.0
 22
0.0
 32
0.0
 13
1.0
 23
0.0
 33
0.0
 40
0.0
 40
0.0
 40
0.0
 40
0.0
 40
0.2
 40
0.2
 40
0.2
 40
0.2
 40
0.4
 40
0.4
 40
0.4
 40
0.4
 40
0.6
 40
0.6
 40
0.6
 40
0.6
 40
1.0
 40
1.0
 40
1.0
 40
1.0
 10
-45.5924
 20
92.0187
 30
0.0
 10
-42.8761
 20
90.8306
 30
0.0
 10
-40.9768
 20
90.0895
 30
0.0
 10
-37.5072
 20
89.5662
 30
0.0
 10
-37.5072
 20
89.5662
 30
0.0
 10
-37.7982
 20
92.4163
 30
0.0
 10
-38.7716
 20
95.09
 30
0.0
 10
-39.9597
 20
97.7676
 30
0.0
 10
-39.9597
 20
97.7676
 30
0.0
 10
-41.4699
 20
95.6751
 30
0.0
 10
-43.7758
 20
93.3753
 30
0.0
 10
-45.5924
 20
92.0188
 30
0.0
 10
-45.5924
 20
92.0188
 30
0.0
 10
-45.5924
 20
92.0188
 30
0.0
 10
-45.5924
 20
92.0187
 30
0.0
 10
-45.5924
 20
92.0187
 30
0.0
  0
SPLINE
  5
8E
330
1F
100
AcDbEntity
  8
layer 1
 62
     7
100
AcDbSpline
210
0.0
220
0.0
230
1.0
 70
    11
 71
     3
 72
    20
 73
    16
 74
     0
 42
0.0000000001
 43
0.0000000001
 12
1.0
 22
0.0
 32
0.0
 13
1.0
 23
0.0
 33
0.0
 40
0.0
 40
0.0
 40
0.0
 40
0.0
 40
0.2
 40
0.2
 40
0.2
 40
0.2
 40
0.4
 40
0.4
 40
0.4
 40
0.4
 40
0.6
 40
0.6
 40
0.6
 40
0.6
 40
1.0
 40
1.0
 40
1.0
 40
1.0
 10
-52.1047
 20
92.0187
 30
0.0
 10
-54.821
 20
90.8306
 30
0.0
 10
-56.7203
 20
90.0895
 30
0.0
 10
-60.1898
 20
89.5662
 30
0.0
 10
-60.1898
 20
89.5662
 30
0.0
 10
-59.8988
 20
92.4163
 30
0.0
 10
-58.9254
 20
95.09
 30
0.0
 10
-57.7373
 20
97.7676
 30
0.0
 10
-57.7373
 20
97.7676
 30
0.0
 10
-56.2271
 20
95.6751
 30
0.0
 10
-53.9213
 20
93.3753
 30
0.0
 10
-52.1047
 20
92.0188
 30
0.0
 10
-52.1047
 20
92.0188
 30
0.0
 10
-52.1047
 20
92.0188
 30
0.0
 10
-52.1047
 20
92.0187
 30
0.0
 10
-52.1047
 20
92.0187
 30
0.0
  0
SPLINE
  5
8F
330
1F
100
AcDbEntity
  8
layer 1
 62
     7
100
AcDbSpline
210
0.0
220
0.0
230
1.0
 70
    11
 71
     3
 72
    24
 73
    20
 74
     0
 42
0.0000000001
 43
0.0000000001
 12
1.0
 22
0.0
 32
0.0
 13
1.0
 23
0.0
 33
0.0
 40
0.0
 40
0.0
 40
0.0
 40
0.0
 40
0.1666666666666667
 40
0.1666666666666667
 40
0.1666666666666667
 40
0.1666666666666667
 40
0.3333333333333333
 40
0.3333333333333333
 40
0.3333333333333333
 40
0.3333333333333333
 40
0.5
 40
0.5
 40
0.5
 40
0.5
 40
0.6666666666666666
 40
0.6666666666666666
 40
0.6666666666666666
 40
0.6666666666666666
 40
1.0
 40
1.0
 40
1.0
 40
1.0
 10
-55.899
 20
101.0706
 30
0.0
 10
-54.5712
 20
99.0043
 30
0.0
 10
-51.902
 20
95.9482
 30
0.0
 10
-48.8552
 20
94.0096
 30
0.0
 10
-48.8552
 20
94.0096
 30
0.0
 10
-45.4125
 20
96.2648
 30
0.0
 10
-43.2579
 20
99.0835
 30
0.0
 10
-41.8113
 20
101.031
 30
0.0
 10
-41.8113
 20
101.031
 30
0.0
 10
-42.7434
 20
102.741
 30
0.0
 10
-45.9667
 20
106.3908
 30
0.0
 10
-48.9739
 20
108.2106
 30
0.0
 10
-48.9739
 20
108.2106
 30
0.0
 10
-51.9812
 20
106.1138
 30
0.0
 10
-54.4525
 20
103.1763
 30
0.0
 10
-55.8991
 20
101.0705
 30
0.0
 10
-55.8991
 20
101.0705
 30
0.0
 10
-55.8991
 20
101.0705
 30
0.0
 10
-55.899
 20
101.0706
 30
0.0
 10
-55.899
 20
101.0706
 30
0.0
  0
SPLINE
  5
90
330
1F
100
AcDbEntity
  8
layer 1
 62
     7
100
AcDbSpline
210
0.0
220
0.0
230
1.0
 70
    11
 71
     3
 72
    20
 73
    16
 74
     0
 42
0.0000000001
 43
0.0000000001
 12
1.0
 22
0.0
 32
0.0
 13
1.0
 23
0.0
 33
0.0
 40
0.0
 40
0.0
 40
0.0
 40
0.0
 40
0.2
 40
0.2
 40
0.2
 40
0.2
 40
0.4
 40
0.4
 40
0.4
 40
0.4
 40
0.6
 40
0.6
 40
0.6
 40
0.6
 40
1.0
 40
1.0
 40
1.0
 40
1.0
 10
-45.5924
 20
80.3869
 30
0.0
 10
-42.8761
 20
81.5749
 30
0.0
 10
-40.9768
 20
82.3161
 30
0.0
 10
-37.5072
 20
82.8394
 30
0.0
 10
-37.5072
 20
82.8394
 30
0.0
 10
-37.7982
 20
79.9893
 30
0.0
 10
-38.7716
 20
77.3156
 30
0.0
 10
-39.9597
 20
74.638
 30
0.0
 10
-39.9597
 20
74.638
 30
0.0
 10
-41.4699
 20
76.7305
 30
0.0
 10
-43.7758
 20
79.0303
 30
0.0
 10
-45.5924
 20
80.3868
 30
0.0
 10
-45.5924
 20
80.3868
 30
0.0
 10
-45.5924
 20
80.3868
 30
0.0
 10
-45.5924
 20
80.3869
 30
0.0
 10
-45.5924
 20
80.3869
 30
0.0
  0
SPLINE
  5
91
330
1F
100
AcDbEntity
  8
layer 1
 62
     7
100
AcDbSpline
210
0.0
220
0.0
230
1.0
 70
    11
 71
     3
 72
    20
 73
    16
 74
     0
 42
0.0000000001
 43
0.0000000001
 12
1.0
 22
0.0
 32
0.0
 13
1.0
 23
0.0
 33
0.0
 40
0.0
 40
0.0
 40
0.0
 40
0.0
 40
0.2
 40
0.2
 40
0.2
 40
0.2
 40
0.4
 40
0.4
 40
0.4
 40
0.4
 40
0.6
 40
0.6
 40
0.6
 40
0.6
 40
1.0
 40
1.0
 40
1.0
 40
1.0
 10
-52.1047
 20
80.3869
 30
0.0
 10
-54.821
 20
81.5749
 30
0.0
 10
-56.7203
 20
82.3161
 30
0.0
 10
-60.1898
 20
82.8394
 30
0.0
 10
-60.1898
 20
82.8394
 30
0.0
 10
-59.8988
 20
79.9893
 30
0.0
 10
-58.9254
 20
77.3156
 30
0.0
 10
-57.7373
 20
74.638
 30
0.0
 10
-57.7373
 20
74.638
 30
0.0
 10
-56.2271
 20
76.7305
 30
0.0
 10
-53.9213
 20
79.0303
 30
0.0
 10
-52.1047
 20
80.3868
 30
0.0
 10
-52.1047
 20
80.3868
 30
0.0
 10
-52.1047
 20
80.3868
 30
0.0
 10
-52.1047
 20
80.3869
 30
0.0
 10
-52.1047
 20
80.3869
 30
0.0
  0
SPLINE
  5
92
330
1F
100
AcDbEntity
  8
layer 1
 62
     7
100
AcDbSpline
210
0.0
220
0.0
230
1.0
 70
    11
 71
     3
 72
    20
 73
    16
 74
     0
 42
0.0000000001
 43
0.0000000001
 12
1.0
 22
0.0
 32
0.0
 13
1.0
 23
0.0
 33
0.0
 40
0.0
 40
0.0
 40
0.0
 40
0.0
 40
0.2
 40
0.2
 40
0.2
 40
0.2
 40
0.4
 40
0.4
 40
0.4
 40
0.4
 40
0.6
 40
0.6
 40
0.6
 40
0.6
 40
1.0
 40
1.0
 40
1.0
 40
1.0
 10
-29.854
 20
86.1368
 30
0.0
 10
-26.0723
 20
85.6141
 30
0.0
 10
-22.097
 20
84.2202
 30
0.0
 10
-19.0898
 20
82.4004
 30
0.0
 10
-19.0898
 20
82.4004
 30
0.0
 10
-16.0826
 20
84.2202
 30
0.0
 10
-12.1073
 20
85.6141
 30
0.0
 10
-8.3257
 20
86.1368
 30
0.0
 10
-8.3257
 20
86.1368
 30
0.0
 10
-12.1073
 20
86.6595
 30
0.0
 10
-16.0826
 20
88.0534
 30
0.0
 10
-19.0898
 20
89.8732
 30
0.0
 10
-19.0898
 20
89.8732
 30
0.0
 10
-22.097
 20
88.0534
 30
0.0
 10
-26.0723
 20
86.6595
 30
0.0
 10
-29.854
 20
86.1368
 30
0.0
  0
SPLINE
  5
93
330
1F
100
AcDbEntity
  8
layer 1
 62
     7
100
AcDbSpline
210
0.0
220
0.0
230
1.0
 70
    11
 71
     3
 72
    20
 73
    16
 74
     0
 42
0.0000000001
 43
0.0000000001
 12
1.0
 22
0.0
 32
0.0
 13
1.0
 23
0.0
 33
0.0
 40
0.0
 40
0.0
 40
0.0
 40
0.0
 40
0.2
 40
0.2
 40
0.2
 40
0.2
 40
0.4
 40
0.4
 40
0.4
 40
0.4
 40
0.6
 40
0.6
 40
0.6
 40
0.6
 40
1.0
 40
1.0
 40
1.0
 40
1.0
 10
-15.8304
 20
92.0187
 30
0.0
 10
-13.1141
 20
90.8306
 30
0.0
 10
-11.2148
 20
90.0895
 30
0.0
 10
-7.7452
 20
89.5662
 30
0.0
 10
-7.7452
 20
89.5662
 30
0.0
 10
-8.0362
 20
92.4163
 30
0.0
 10
-9.0096
 20
95.09
 30
0.0
 10
-10.1977
 20
97.7676
 30
0.0
 10
-10.1977
 20
97.7676
 30
0.0
 10
-11.7079
 20
95.6751
 30
0.0
 10
-14.0138
 20
93.3753
 30
0.0
 10
-15.8304
 20
92.0188
 30
0.0
 10
-15.8304
 20
92.0188
 30
0.0
 10
-15.8304
 20
92.0188
 30
0.0
 10
-15.8304
 20
92.0187
 30
0.0
 10
-15.8304
 20
92.0187
 30
0.0
  0
SPLINE
  5
94
330
1F
100
AcDbEntity
  8
layer 1
 62
     7
100
AcDbSpline
210
0.0
220
0.0
230
1.0
 70
    11
 71
     3
 72
    20
 73
    16
 74
     0
 42
0.0000000001
 43
0.0000000001
 12
1.0
 22
0.0
 32
0.0
 13
1.0
 23
0.0
 33
0.0
 40
0.0
 40
0.0
 40
0.0
 40
0.0
 40
0.2
 40
0.2
 40
0.2
 40
0.2
 40
0.4
 40
0.4
 40
0.4
 40
0.4
 40
0.6
 40
0.6
 40
0.6
 40
0.6
 40
1.0
 40
1.0
 40
1.0
 40
1.0
 10
-22.3426
 20
92.0187
 30
0.0
 10
-25.0589
 20
90.8306
 30
0.0
 10
-26.9582
 20
90.0895
 30
0.0
 10
-30.4278
 20
89.5662
 30
0.0
 10
-30.4278
 20
89.5662
 30
0.0
 10
-30.1368
 20
92.4163
 30
0.0
 10
-29.1634
 20
95.09
 30
0.0
 10
-27.9753
 20
97.7676
 30
0.0
 10
-27.9753
 20
97.7676
 30
0.0
 10
-26.4651
 20
95.6751
 30
0.0
 10
-24.1592
 20
93.3753
 30
0.0
 10
-22.3426
 20
92.0188
 30
0.0
 10
-22.3426
 20
92.0188
 30
0.0
 10
-22.3426
 20
92.0188
 30
0.0
 10
-22.3426
 20
92.0187
 30
0.0
 10
-22.3426
 20
92.0187
 30
0.0
  0
SPLINE
  5
95
330
1F
100
AcDbEntity
  8
layer 1
 62
     7
100
AcDbSpline
210
0.0
220
0.0
230
1.0
 70
    11
 71
     3
 72
    24
 73
    20
 74
     0
 42
0.0000000001
 43
0.0000000001
 12
1.0
 22
0.0
 32
0.0
 13
1.0
 23
0.0
 33
0.0
 40
0.0
 40
0.0
 40
0.0
 40
0.0
 40
0.1666666666666667
 40
0.1666666666666667
 40
0.1666666666666667
 40
0.1666666666666667
 40
0.3333333333333333
 40
0.3333333333333333
 40
0.3333333333333333
 40
0.3333333333333333
 40
0.5
 40
0.5
 40
0.5
 40
0.5
 40
0.6666666666666666
 40
0.6666666666666666
 40
0.6666666666666666
 40
0.6666666666666666
 40
1.0
 40
1.0
 40
1.0
 40
1.0
 10
-26.137
 20
101.0706
 30
0.0
 10
-24.8091
 20
99.0043
 30
0.0
 10
-22.1399
 20
95.9482
 30
0.0
 10
-19.0931
 20
94.0096
 30
0.0
 10
-19.0931
 20
94.0096
 30
0.0
 10
-15.6505
 20
96.2648
 30
0.0
 10
-13.4959
 20
99.0835
 30
0.0
 10
-12.0492
 20
101.031
 30
0.0
 10
-12.0492
 20
101.031
 30
0.0
 10
-12.9814
 20
102.741
 30
0.0
 10
-16.2046
 20
106.3908
 30
0.0
 10
-19.2119
 20
108.2106
 30
0.0
 10
-19.2119
 20
108.2106
 30
0.0
 10
-22.2191
 20
106.1138
 30
0.0
 10
-24.6904
 20
103.1763
 30
0.0
 10
-26.1371
 20
101.0705
 30
0.0
 10
-26.1371
 20
101.0705
 30
0.0
 10
-26.1371
 20
101.0705
 30
0.0
 10
-26.137
 20
101.0706
 30
0.0
 10
-26.137
 20
101.0706
 30
0.0
  0
SPLINE
  5
96
330
1F
100
AcDbEntity
  8
layer 1
 62
     7
100
AcDbSpline
210
0.0
220
0.0
230
1.0
 70
    11
 71
     3
 72
    20
 73
    16
 74
     0
 42
0.0000000001
 43
0.0000000001
 12
1.0
 22
0.0
 32
0.0
 13
1.0
 23
0.0
 33
0.0
 40
0.0
 40
0.0
 40
0.0
 40
0.0
 40
0.2
 40
0.2
 40
0.2
 40
0.2
 40
0.4
 40
0.4
 40
0.4
 40
0.4
 40
0.6
 40
0.6
 40
0.6
 40
0.6
 40
1.0
 40
1.0
 40
1.0
 40
1.0
 10
-15.8304
 20
80.3869
 30
0.0
 10
-13.1141
 20
81.5749
 30
0.0
 10
-11.2148
 20
82.3161
 30
0.0
 10
-7.7452
 20
82.8394
 30
0.0
 10
-7.7452
 20
82.8394
 30
0.0
 10
-8.0362
 20
79.9893
 30
0.0
 10
-9.0096
 20
77.3156
 30
0.0
 10
-10.1977
 20
74.638
 30
0.0
 10
-10.1977
 20
74.638
 30
0.0
 10
-11.7079
 20
76.7305
 30
0.0
 10
-14.0138
 20
79.0303
 30
0.0
 10
-15.8304
 20
80.3868
 30
0.0
 10
-15.8304
 20
80.3868
 30
0.0
 10
-15.8304
 20
80.3868
 30
0.0
 10
-15.8304
 20
80.3869
 30
0.0
 10
-15.8304
 20
80.3869
 30
0.0
  0
SPLINE
  5
97
330
1F
100
AcDbEntity
  8
layer 1
 62
     7
100
AcDbSpline
210
0.0
220
0.0
230
1.0
 70
    11
 71
     3
 72
    20
 73
    16
 74
     0
 42
0.0000000001
 43
0.0000000001
 12
1.0
 22
0.0
 32
0.0
 13
1.0
 23
0.0
 33
0.0
 40
0.0
 40
0.0
 40
0.0
 40
0.0
 40
0.2
 40
0.2
 40
0.2
 40
0.2
 40
0.4
 40
0.4
 40
0.4
 40
0.4
 40
0.6
 40
0.6
 40
0.6
 40
0.6
 40
1.0
 40
1.0
 40
1.0
 40
1.0
 10
-22.3426
 20
80.3869
 30
0.0
 10
-25.0589
 20
81.5749
 30
0.0
 10
-26.9582
 20
82.3161
 30
0.0
 10
-30.4278
 20
82.8394
 30
0.0
 10
-30.4278
 20
82.8394
 30
0.0
 10
-30.1368
 20
79.9893
 30
0.0
 10
-29.1634
 20
77.3156
 30
0.0
 10
-27.9753
 20
74.638
 30
0.0
 10
-27.9753
 20
74.638
 30
0.0
 10
-26.4651
 20
76.7305
 30
0.0
 10
-24.1592
 20
79.0303
 30
0.0
 10
-22.3426
 20
80.3868
 30
0.0
 10
-22.3426
 20
80.3868
 30
0.0
 10
-22.3426
 20
80.3868
 30
0.0
 10
-22.3426
 20
80.3869
 30
0.0
 10
-22.3426
 20
80.3869
 30
0.0
  0
SPLINE
  5
98
330
1F
100
AcDbEntity
  8
layer 1
 62
     7
100
AcDbSpline
210
0.0
220
0.0
230
1.0
 70
    11
 71
     3
 72
    20
 73
    16
 74
     0
 42
0.0000000001
 43
0.0000000001
 12
1.0
 22
0.0
 32
0.0
 13
1.0
 23
0.0
 33
0.0
 40
0.0
 40
0.0
 40
0.0
 40
0.0
 40
0.2
 40
0.2
 40
0.2
 40
0.2
 40
0.4
 40
0.4
 40
0.4
 40
0.4
 40
0.6
 40
0.6
 40
0.6
 40
0.6
 40
1.0
 40
1.0
 40
1.0
 40
1.0
 10
26.1181
 20
90.3667
 30
0.0
 10
26.6408
 20
94.1484
 30
0.0
 10
28.0347
 20
98.1237
 30
0.0
 10
29.8545
 20
101.1309
 30
0.0
 10
29.8545
 20
101.1309
 30
0.0
 10
28.0347
 20
104.1381
 30
0.0
 10
26.6407
 20
108.1134
 30
0.0
 10
26.1181
 20
111.895
 30
0.0
 10
26.1181
 20
111.895
 30
0.0
 10
25.5953
 20
108.1134
 30
0.0
 10
24.2015
 20
104.1381
 30
0.0
 10
22.3816
 20
101.1309
 30
0.0
 10
22.3816
 20
101.1309
 30
0.0
 10
24.2015
 20
98.1237
 30
0.0
 10
25.5954
 20
94.1484
 30
0.0
 10
26.1181
 20
90.3667
 30
0.0
  0
SPLINE
  5
99
330
1F
100
AcDbEntity
  8
layer 1
 62
     7
100
AcDbSpline
210
0.0
220
0.0
230
1.0
 70
    11
 71
     3
 72
    20
 73
    16
 74
     0
 42
0.0000000001
 43
0.0000000001
 12
1.0
 22
0.0
 32
0.0
 13
1.0
 23
0.0
 33
0.0
 40
0.0
 40
0.0
 40
0.0
 40
0.0
 40
0.2
 40
0.2
 40
0.2
 40
0.2
 40
0.4
 40
0.4
 40
0.4
 40
0.4
 40
0.6
 40
0.6
 40
0.6
 40
0.6
 40
1.0
 40
1.0
 40
1.0
 40
1.0
 10
-4.0507
 20
90.3667
 30
0.0
 10
-3.528
 20
94.1484
 30
0.0
 10
-2.1341
 20
98.1237
 30
0.0
 10
-0.3143
 20
101.1309
 30
0.0
 10
-0.3143
 20
101.1309
 30
0.0
 10
-2.1341
 20
104.1381
 30
0.0
 10
-3.528
 20
108.1134
 30
0.0
 10
-4.0507
 20
111.895
 30
0.0
 10
-4.0507
 20
111.895
 30
0.0
 10
-4.5734
 20
108.1134
 30
0.0
 10
-5.9673
 20
104.1381
 30
0.0
 10
-7.7871
 20
101.1309
 30
0.0
 10
-7.7871
 20
101.1309
 30
0.0
 10
-5.9673
 20
98.1237
 30
0.0
 10
-4.5734
 20
94.1484
 30
0.0
 10
-4.0507
 20
90.3667
 30
0.0
  0
SPLINE
  5
9A
330
1F
100
AcDbEntity
  8
layer 1
 62
     7
100
AcDbSpline
210
0.0
220
0.0
230
1.0
 70
    11
 71
     3
 72
    20
 73
    16
 74
     0
 42
0.0000000001
 43
0.0000000001
 12
1.0
 22
0.0
 32
0.0
 13
1.0
 23
0.0
 33
0.0
 40
0.0
 40
0.0
 40
0.0
 40
0.0
 40
0.2
 40
0.2
 40
0.2
 40
0.2
 40
0.4
 40
0.4
 40
0.4
 40
0.4
 40
0.6
 40
0.6
 40
0.6
 40
0.6
 40
1.0
 40
1.0
 40
1.0
 40
1.0
 10
-34.4002
 20
90.3667
 30
0.0
 10
-33.8774
 20
94.1484
 30
0.0
 10
-32.4835
 20
98.1237
 30
0.0
 10
-30.6637
 20
101.1309
 30
0.0
 10
-30.6637
 20
101.1309
 30
0.0
 10
-32.4835
 20
104.1381
 30
0.0
 10
-33.8775
 20
108.1134
 30
0.0
 10
-34.4002
 20
111.895
 30
0.0
 10
-34.4002
 20
111.895
 30
0.0
 10
-34.9229
 20
108.1134
 30
0.0
 10
-36.3168
 20
104.1381
 30
0.0
 10
-38.1366
 20
101.1309
 30
0.0
 10
-38.1366
 20
101.1309
 30
0.0
 10
-36.3168
 20
98.1237
 30
0.0
 10
-34.9228
 20
94.1484
 30
0.0
 10
-34.4002
 20
90.3667
 30
0.0
  0
SPLINE
  5
9B
330
1F
100
AcDbEntity
  8
layer 1
 62
     7
100
AcDbSpline
210
0.0
220
0.0
230
1.0
 70
    11
 71
     3
 72
    16
 73
    12
 74
     0
 42
0.0000000001
 43
0.0000000001
 12
1.0
 22
0.0
 32
0.0
 13
1.0
 23
0.0
 33
0.0
 40
0.0
 40
0.0
 40
0.0
 40
0.0
 40
0.25
 40
0.25
 40
0.25
 40
0.25
 40
0.5
 40
0.5
 40
0.5
 40
0.5
 40
1.0
 40
1.0
 40
1.0
 40
1.0
 10
-63.9115
 20
90.3667
 30
0.0
 10
-63.3888
 20
94.1484
 30
0.0
 10
-61.9949
 20
98.1237
 30
0.0
 10
-60.1751
 20
101.1309
 30
0.0
 10
-60.1751
 20
101.1309
 30
0.0
 10
-61.9949
 20
104.1381
 30
0.0
 10
-63.3889
 20
108.1134
 30
0.0
 10
-63.9115
 20
111.895
 30
0.0
 10
-63.9115
 20
111.895
 30
0.0
 10
-63.9115
 20
111.895
 30
0.0
 10
-63.9115
 20
90.3667
 30
0.0
 10
-63.9115
 20
90.3667
 30
0.0
  0
SPLINE
  5
9C
330
1F
100
AcDbEntity
  8
layer 1
 62
     7
100
AcDbSpline
210
0.0
220
0.0
230
1.0
 70
    11
 71
     3
 72
    16
 73
    12
 74
     0
 42
0.0000000001
 43
0.0000000001
 12
1.0
 22
0.0
 32
0.0
 13
1.0
 23
0.0
 33
0.0
 40
0.0
 40
0.0
 40
0.0
 40
0.0
 40
0.25
 40
0.25
 40
0.25
 40
0.25
 40
0.5
 40
0.5
 40
0.5
 40
0.5
 40
1.0
 40
1.0
 40
1.0
 40
1.0
 10
56.0258
 20
90.3667
 30
0.0
 10
55.503
 20
94.1484
 30
0.0
 10
54.1092
 20
98.1237
 30
0.0
 10
52.2893
 20
101.1309
 30
0.0
 10
52.2893
 20
101.1309
 30
0.0
 10
54.1092
 20
104.1381
 30
0.0
 10
55.5031
 20
108.1134
 30
0.0
 10
56.0258
 20
111.895
 30
0.0
 10
56.0258
 20
111.895
 30
0.0
 10
56.0258
 20
111.895
 30
0.0
 10
56.0258
 20
90.3667
 30
0.0
 10
56.0258
 20
90.3667
 30
0.0
  0
SPLINE
  5
9D
330
1F
100
AcDbEntity
  8
layer 1
 62
     7
100
AcDbSpline
210
0.0
220
0.0
230
1.0
 70
    11
 71
     3
 72
    20
 73
    16
 74
     0
 42
0.0000000001
 43
0.0000000001
 12
1.0
 22
0.0
 32
0.0
 13
1.0
 23
0.0
 33
0.0
 40
0.0
 40
0.0
 40
0.0
 40
0.0
 40
0.2
 40
0.2
 40
0.2
 40
0.2
 40
0.4
 40
0.4
 40
0.4
 40
0.4
 40
0.6
 40
0.6
 40
0.6
 40
0.6
 40
1.0
 40
1.0
 40
1.0
 40
1.0
 10
14.2482
 20
110.3377
 30
0.0
 10
16.9645
 20
111.5258
 30
0.0
 10
18.8638
 20
112.2669
 30
0.0
 10
22.3334
 20
112.7902
 30
0.0
 10
22.3334
 20
112.7902
 30
0.0
 10
22.0424
 20
109.9402
 30
0.0
 10
21.069
 20
107.2664
 30
0.0
 10
19.8809
 20
104.5888
 30
0.0
 10
19.8809
 20
104.5888
 30
0.0
 10
18.3707
 20
106.6813
 30
0.0
 10
16.0648
 20
108.9812
 30
0.0
 10
14.2482
 20
110.3376
 30
0.0
 10
14.2482
 20
110.3376
 30
0.0
 10
14.2482
 20
110.3376
 30
0.0
 10
14.2482
 20
110.3377
 30
0.0
 10
14.2482
 20
110.3377
 30
0.0
  0
SPLINE
  5
9E
330
1F
100
AcDbEntity
  8
layer 1
 62
     7
100
AcDbSpline
210
0.0
220
0.0
230
1.0
 70
    11
 71
     3
 72
    20
 73
    16
 74
     0
 42
0.0000000001
 43
0.0000000001
 12
1.0
 22
0.0
 32
0.0
 13
1.0
 23
0.0
 33
0.0
 40
0.0
 40
0.0
 40
0.0
 40
0.0
 40
0.2
 40
0.2
 40
0.2
 40
0.2
 40
0.4
 40
0.4
 40
0.4
 40
0.4
 40
0.6
 40
0.6
 40
0.6
 40
0.6
 40
1.0
 40
1.0
 40
1.0
 40
1.0
 10
7.736
 20
110.3377
 30
0.0
 10
5.0197
 20
111.5258
 30
0.0
 10
3.1204
 20
112.2669
 30
0.0
 10
-0.3491
 20
112.7902
 30
0.0
 10
-0.3491
 20
112.7902
 30
0.0
 10
-0.0582
 20
109.9402
 30
0.0
 10
0.9153
 20
107.2664
 30
0.0
 10
2.1033
 20
104.5888
 30
0.0
 10
2.1033
 20
104.5888
 30
0.0
 10
3.6135
 20
106.6813
 30
0.0
 10
5.9194
 20
108.9812
 30
0.0
 10
7.736
 20
110.3376
 30
0.0
 10
7.736
 20
110.3376
 30
0.0
 10
7.736
 20
110.3376
 30
0.0
 10
7.736
 20
110.3377
 30
0.0
 10
7.736
 20
110.3377
 30
0.0
  0
SPLINE
  5
9F
330
1F
100
AcDbEntity
  8
layer 1
 62
     7
100
AcDbSpline
210
0.0
220
0.0
230
1.0
 70
    11
 71
     3
 72
    20
 73
    16
 74
     0
 42
0.0000000001
 43
0.0000000001
 12
1.0
 22
0.0
 32
0.0
 13
1.0
 23
0.0
 33
0.0
 40
0.0
 40
0.0
 40
0.0
 40
0.0
 40
0.2
 40
0.2
 40
0.2
 40
0.2
 40
0.4
 40
0.4
 40
0.4
 40
0.4
 40
0.6
 40
0.6
 40
0.6
 40
0.6
 40
1.0
 40
1.0
 40
1.0
 40
1.0
 10
44.0103
 20
110.3377
 30
0.0
 10
46.7266
 20
111.5258
 30
0.0
 10
48.6259
 20
112.2669
 30
0.0
 10
52.0954
 20
112.7902
 30
0.0
 10
52.0954
 20
112.7902
 30
0.0
 10
51.8045
 20
109.9402
 30
0.0
 10
50.831
 20
107.2664
 30
0.0
 10
49.643
 20
104.5888
 30
0.0
 10
49.643
 20
104.5888
 30
0.0
 10
48.1327
 20
106.6813
 30
0.0
 10
45.8269
 20
108.9812
 30
0.0
 10
44.0103
 20
110.3376
 30
0.0
 10
44.0103
 20
110.3376
 30
0.0
 10
44.0103
 20
110.3376
 30
0.0
 10
44.0103
 20
110.3377
 30
0.0
 10
44.0103
 20
110.3377
 30
0.0
  0
SPLINE
  5
A0
330
1F
100
AcDbEntity
  8
layer 1
 62
     7
100
AcDbSpline
210
0.0
220
0.0
230
1.0
 70
    11
 71
     3
 72
    20
 73
    16
 74
     0
 42
0.0000000001
 43
0.0000000001
 12
1.0
 22
0.0
 32
0.0
 13
1.0
 23
0.0
 33
0.0
 40
0.0
 40
0.0
 40
0.0
 40
0.0
 40
0.2
 40
0.2
 40
0.2
 40
0.2
 40
0.4
 40
0.4
 40
0.4
 40
0.4
 40
0.6
 40
0.6
 40
0.6
 40
0.6
 40
1.0
 40
1.0
 40
1.0
 40
1.0
 10
37.498
 20
110.3377
 30
0.0
 10
34.7817
 20
111.5258
 30
0.0
 10
32.8824
 20
112.2669
 30
0.0
 10
29.4128
 20
112.7902
 30
0.0
 10
29.4128
 20
112.7902
 30
0.0
 10
29.7038
 20
109.9402
 30
0.0
 10
30.6772
 20
107.2664
 30
0.0
 10
31.8653
 20
104.5888
 30
0.0
 10
31.8653
 20
104.5888
 30
0.0
 10
33.3755
 20
106.6813
 30
0.0
 10
35.6814
 20
108.9812
 30
0.0
 10
37.498
 20
110.3376
 30
0.0
 10
37.498
 20
110.3376
 30
0.0
 10
37.498
 20
110.3376
 30
0.0
 10
37.498
 20
110.3377
 30
0.0
 10
37.498
 20
110.3377
 30
0.0
  0
SPLINE
  5
A1
330
1F
100
AcDbEntity
  8
layer 1
 62
     7
100
AcDbSpline
210
0.0
220
0.0
230
1.0
 70
    11
 71
     3
 72
    20
 73
    16
 74
     0
 42
0.0000000001
 43
0.0000000001
 12
1.0
 22
0.0
 32
0.0
 13
1.0
 23
0.0
 33
0.0
 40
0.0
 40
0.0
 40
0.0
 40
0.0
 40
0.2
 40
0.2
 40
0.2
 40
0.2
 40
0.4
 40
0.4
 40
0.4
 40
0.4
 40
0.6
 40
0.6
 40
0.6
 40
0.6
 40
1.0
 40
1.0
 40
1.0
 40
1.0
 10
-45.5924
 20
110.3377
 30
0.0
 10
-42.8761
 20
111.5258
 30
0.0
 10
-40.9768
 20
112.2669
 30
0.0
 10
-37.5072
 20
112.7902
 30
0.0
 10
-37.5072
 20
112.7902
 30
0.0
 10
-37.7982
 20
109.9402
 30
0.0
 10
-38.7716
 20
107.2664
 30
0.0
 10
-39.9597
 20
104.5888
 30
0.0
 10
-39.9597
 20
104.5888
 30
0.0
 10
-41.4699
 20
106.6813
 30
0.0
 10
-43.7758
 20
108.9812
 30
0.0
 10
-45.5924
 20
110.3376
 30
0.0
 10
-45.5924
 20
110.3376
 30
0.0
 10
-45.5924
 20
110.3376
 30
0.0
 10
-45.5924
 20
110.3377
 30
0.0
 10
-45.5924
 20
110.3377
 30
0.0
  0
SPLINE
  5
A2
330
1F
100
AcDbEntity
  8
layer 1
 62
     7
100
AcDbSpline
210
0.0
220
0.0
230
1.0
 70
    11
 71
     3
 72
    20
 73
    16
 74
     0
 42
0.0000000001
 43
0.0000000001
 12
1.0
 22
0.0
 32
0.0
 13
1.0
 23
0.0
 33
0.0
 40
0.0
 40
0.0
 40
0.0
 40
0.0
 40
0.2
 40
0.2
 40
0.2
 40
0.2
 40
0.4
 40
0.4
 40
0.4
 40
0.4
 40
0.6
 40
0.6
 40
0.6
 40
0.6
 40
1.0
 40
1.0
 40
1.0
 40
1.0
 10
-52.1047
 20
110.3377
 30
0.0
 10
-54.821
 20
111.5258
 30
0.0
 10
-56.7203
 20
112.2669
 30
0.0
 10
-60.1898
 20
112.7902
 30
0.0
 10
-60.1898
 20
112.7902
 30
0.0
 10
-59.8988
 20
109.9402
 30
0.0
 10
-58.9254
 20
107.2664
 30
0.0
 10
-57.7373
 20
104.5888
 30
0.0
 10
-57.7373
 20
104.5888
 30
0.0
 10
-56.2271
 20
106.6813
 30
0.0
 10
-53.9213
 20
108.9812
 30
0.0
 10
-52.1047
 20
110.3376
 30
0.0
 10
-52.1047
 20
110.3376
 30
0.0
 10
-52.1047
 20
110.3376
 30
0.0
 10
-52.1047
 20
110.3377
 30
0.0
 10
-52.1047
 20
110.3377
 30
0.0
  0
SPLINE
  5
A3
330
1F
100
AcDbEntity
  8
layer 1
 62
     7
100
AcDbSpline
210
0.0
220
0.0
230
1.0
 70
    11
 71
     3
 72
    20
 73
    16
 74
     0
 42
0.0000000001
 43
0.0000000001
 12
1.0
 22
0.0
 32
0.0
 13
1.0
 23
0.0
 33
0.0
 40
0.0
 40
0.0
 40
0.0
 40
0.0
 40
0.2
 40
0.2
 40
0.2
 40
0.2
 40
0.4
 40
0.4
 40
0.4
 40
0.4
 40
0.6
 40
0.6
 40
0.6
 40
0.6
 40
1.0
 40
1.0
 40
1.0
 40
1.0
 10
-15.8304
 20
110.3377
 30
0.0
 10
-13.1141
 20
111.5258
 30
0.0
 10
-11.2148
 20
112.2669
 30
0.0
 10
-7.7452
 20
112.7902
 30
0.0
 10
-7.7452
 20
112.7902
 30
0.0
 10
-8.0362
 20
109.9402
 30
0.0
 10
-9.0096
 20
107.2664
 30
0.0
 10
-10.1977
 20
104.5888
 30
0.0
 10
-10.1977
 20
104.5888
 30
0.0
 10
-11.7079
 20
106.6813
 30
0.0
 10
-14.0138
 20
108.9812
 30
0.0
 10
-15.8304
 20
110.3376
 30
0.0
 10
-15.8304
 20
110.3376
 30
0.0
 10
-15.8304
 20
110.3376
 30
0.0
 10
-15.8304
 20
110.3377
 30
0.0
 10
-15.8304
 20
110.3377
 30
0.0
  0
SPLINE
  5
A4
330
1F
100
AcDbEntity
  8
layer 1
 62
     7
100
AcDbSpline
210
0.0
220
0.0
230
1.0
 70
    11
 71
     3
 72
    20
 73
    16
 74
     0
 42
0.0000000001
 43
0.0000000001
 12
1.0
 22
0.0
 32
0.0
 13
1.0
 23
0.0
 33
0.0
 40
0.0
 40
0.0
 40
0.0
 40
0.0
 40
0.2
 40
0.2
 40
0.2
 40
0.2
 40
0.4
 40
0.4
 40
0.4
 40
0.4
 40
0.6
 40
0.6
 40
0.6
 40
0.6
 40
1.0
 40
1.0
 40
1.0
 40
1.0
 10
-22.3426
 20
110.3377
 30
0.0
 10
-25.0589
 20
111.5258
 30
0.0
 10
-26.9582
 20
112.2669
 30
0.0
 10
-30.4278
 20
112.7902
 30
0.0
 10
-30.4278
 20
112.7902
 30
0.0
 10
-30.1368
 20
109.9402
 30
0.0
 10
-29.1634
 20
107.2664
 30
0.0
 10
-27.9753
 20
104.5888
 30
0.0
 10
-27.9753
 20
104.5888
 30
0.0
 10
-26.4651
 20
106.6813
 30
0.0
 10
-24.1592
 20
108.9812
 30
0.0
 10
-22.3426
 20
110.3376
 30
0.0
 10
-22.3426
 20
110.3376
 30
0.0
 10
-22.3426
 20
110.3376
 30
0.0
 10
-22.3426
 20
110.3377
 30
0.0
 10
-22.3426
 20
110.3377
 30
0.0
  0
SPLINE
  5
A5
330
1F
100
AcDbEntity
  8
layer 1
 62
     7
100
AcDbSpline
210
0.0
220
0.0
230
1.0
 70
    11
 71
     3
 72
    20
 73
    16
 74
     0
 42
0.0000000001
 43
0.0000000001
 12
1.0
 22
0.0
 32
0.0
 13
1.0
 23
0.0
 33
0.0
 40
0.0
 40
0.0
 40
0.0
 40
0.0
 40
0.2
 40
0.2
 40
0.2
 40
0.2
 40
0.4
 40
0.4
 40
0.4
 40
0.4
 40
0.6
 40
0.6
 40
0.6
 40
0.6
 40
1.0
 40
1.0
 40
1.0
 40
1.0
 10
14.2482
 20
-87.1997
 30
0.0
 10
16.9645
 20
-88.3878
 30
0.0
 10
18.8638
 20
-89.1289
 30
0.0
 10
22.3334
 20
-89.6522
 30
0.0
 10
22.3334
 20
-89.6522
 30
0.0
 10
22.0424
 20
-86.8021
 30
0.0
 10
21.069
 20
-84.1284
 30
0.0
 10
19.8809
 20
-81.4508
 30
0.0
 10
19.8809
 20
-81.4508
 30
0.0
 10
18.3707
 20
-83.5433
 30
0.0
 10
16.0648
 20
-85.8431
 30
0.0
 10
14.2482
 20
-87.1996
 30
0.0
 10
14.2482
 20
-87.1996
 30
0.0
 10
14.2482
 20
-87.1996
 30
0.0
 10
14.2482
 20
-87.1997
 30
0.0
 10
14.2482
 20
-87.1997
 30
0.0
  0
SPLINE
  5
A6
330
1F
100
AcDbEntity
  8
layer 1
 62
     7
100
AcDbSpline
210
0.0
220
0.0
230
1.0
 70
    11
 71
     3
 72
    20
 73
    16
 74
     0
 42
0.0000000001
 43
0.0000000001
 12
1.0
 22
0.0
 32
0.0
 13
1.0
 23
0.0
 33
0.0
 40
0.0
 40
0.0
 40
0.0
 40
0.0
 40
0.2
 40
0.2
 40
0.2
 40
0.2
 40
0.4
 40
0.4
 40
0.4
 40
0.4
 40
0.6
 40
0.6
 40
0.6
 40
0.6
 40
1.0
 40
1.0
 40
1.0
 40
1.0
 10
7.736
 20
-87.1997
 30
0.0
 10
5.0197
 20
-88.3878
 30
0.0
 10
3.1204
 20
-89.1289
 30
0.0
 10
-0.3491
 20
-89.6522
 30
0.0
 10
-0.3491
 20
-89.6522
 30
0.0
 10
-0.0582
 20
-86.8021
 30
0.0
 10
0.9153
 20
-84.1284
 30
0.0
 10
2.1033
 20
-81.4508
 30
0.0
 10
2.1033
 20
-81.4508
 30
0.0
 10
3.6135
 20
-83.5433
 30
0.0
 10
5.9194
 20
-85.8431
 30
0.0
 10
7.736
 20
-87.1996
 30
0.0
 10
7.736
 20
-87.1996
 30
0.0
 10
7.736
 20
-87.1996
 30
0.0
 10
7.736
 20
-87.1997
 30
0.0
 10
7.736
 20
-87.1997
 30
0.0
  0
SPLINE
  5
A7
330
1F
100
AcDbEntity
  8
layer 1
 62
     7
100
AcDbSpline
210
0.0
220
0.0
230
1.0
 70
    11
 71
     3
 72
    24
 73
    20
 74
     0
 42
0.0000000001
 43
0.0000000001
 12
1.0
 22
0.0
 32
0.0
 13
1.0
 23
0.0
 33
0.0
 40
0.0
 40
0.0
 40
0.0
 40
0.0
 40
0.1666666666666667
 40
0.1666666666666667
 40
0.1666666666666667
 40
0.1666666666666667
 40
0.3333333333333333
 40
0.3333333333333333
 40
0.3333333333333333
 40
0.3333333333333333
 40
0.5
 40
0.5
 40
0.5
 40
0.5
 40
0.6666666666666666
 40
0.6666666666666666
 40
0.6666666666666666
 40
0.6666666666666666
 40
1.0
 40
1.0
 40
1.0
 40
1.0
 10
3.9416
 20
-78.1477
 30
0.0
 10
5.2695
 20
-80.214
 30
0.0
 10
7.9387
 20
-83.2701
 30
0.0
 10
10.9855
 20
-85.2087
 30
0.0
 10
10.9855
 20
-85.2087
 30
0.0
 10
14.4281
 20
-82.9536
 30
0.0
 10
16.5828
 20
-80.1348
 30
0.0
 10
18.0294
 20
-78.1874
 30
0.0
 10
18.0294
 20
-78.1874
 30
0.0
 10
17.0973
 20
-76.4773
 30
0.0
 10
13.874
 20
-72.8275
 30
0.0
 10
10.8667
 20
-71.0077
 30
0.0
 10
10.8667
 20
-71.0077
 30
0.0
 10
7.8595
 20
-73.1045
 30
0.0
 10
5.3882
 20
-76.042
 30
0.0
 10
3.9416
 20
-78.1478
 30
0.0
 10
3.9416
 20
-78.1478
 30
0.0
 10
3.9416
 20
-78.1478
 30
0.0
 10
3.9416
 20
-78.1477
 30
0.0
 10
3.9416
 20
-78.1477
 30
0.0
  0
SPLINE
  5
A8
330
1F
100
AcDbEntity
  8
layer 1
 62
     7
100
AcDbSpline
210
0.0
220
0.0
230
1.0
 70
    11
 71
     3
 72
    16
 73
    12
 74
     0
 42
0.0000000001
 43
0.0000000001
 12
1.0
 22
0.0
 32
0.0
 13
1.0
 23
0.0
 33
0.0
 40
0.0
 40
0.0
 40
0.0
 40
0.0
 40
0.25
 40
0.25
 40
0.25
 40
0.25
 40
0.5
 40
0.5
 40
0.5
 40
0.5
 40
1.0
 40
1.0
 40
1.0
 40
1.0
 10
29.9867
 20
-93.0816
 30
0.0
 10
29.9867
 20
-93.0816
 30
0.0
 10
51.515
 20
-93.0816
 30
0.0
 10
51.515
 20
-93.0816
 30
0.0
 10
51.515
 20
-93.0816
 30
0.0
 10
47.7334
 20
-92.5588
 30
0.0
 10
43.7581
 20
-91.165
 30
0.0
 10
40.7509
 20
-89.3451
 30
0.0
 10
40.7509
 20
-89.3451
 30
0.0
 10
37.7436
 20
-91.165
 30
0.0
 10
33.7684
 20
-92.5589
 30
0.0
 10
29.9867
 20
-93.0816
 30
0.0
  0
SPLINE
  5
A9
330
1F
100
AcDbEntity
  8
layer 1
 62
     7
100
AcDbSpline
210
0.0
220
0.0
230
1.0
 70
    11
 71
     3
 72
    20
 73
    16
 74
     0
 42
0.0000000001
 43
0.0000000001
 12
1.0
 22
0.0
 32
0.0
 13
1.0
 23
0.0
 33
0.0
 40
0.0
 40
0.0
 40
0.0
 40
0.0
 40
0.2
 40
0.2
 40
0.2
 40
0.2
 40
0.4
 40
0.4
 40
0.4
 40
0.4
 40
0.6
 40
0.6
 40
0.6
 40
0.6
 40
1.0
 40
1.0
 40
1.0
 40
1.0
 10
44.0103
 20
-87.1997
 30
0.0
 10
46.7266
 20
-88.3878
 30
0.0
 10
48.6259
 20
-89.1289
 30
0.0
 10
52.0954
 20
-89.6522
 30
0.0
 10
52.0954
 20
-89.6522
 30
0.0
 10
51.8045
 20
-86.8021
 30
0.0
 10
50.831
 20
-84.1284
 30
0.0
 10
49.643
 20
-81.4508
 30
0.0
 10
49.643
 20
-81.4508
 30
0.0
 10
48.1327
 20
-83.5433
 30
0.0
 10
45.8269
 20
-85.8431
 30
0.0
 10
44.0103
 20
-87.1996
 30
0.0
 10
44.0103
 20
-87.1996
 30
0.0
 10
44.0103
 20
-87.1996
 30
0.0
 10
44.0103
 20
-87.1997
 30
0.0
 10
44.0103
 20
-87.1997
 30
0.0
  0
SPLINE
  5
AA
330
1F
100
AcDbEntity
  8
layer 1
 62
     7
100
AcDbSpline
210
0.0
220
0.0
230
1.0
 70
    11
 71
     3
 72
    20
 73
    16
 74
     0
 42
0.0000000001
 43
0.0000000001
 12
1.0
 22
0.0
 32
0.0
 13
1.0
 23
0.0
 33
0.0
 40
0.0
 40
0.0
 40
0.0
 40
0.0
 40
0.2
 40
0.2
 40
0.2
 40
0.2
 40
0.4
 40
0.4
 40
0.4
 40
0.4
 40
0.6
 40
0.6
 40
0.6
 40
0.6
 40
1.0
 40
1.0
 40
1.0
 40
1.0
 10
37.498
 20
-87.1997
 30
0.0
 10
34.7817
 20
-88.3878
 30
0.0
 10
32.8824
 20
-89.1289
 30
0.0
 10
29.4128
 20
-89.6522
 30
0.0
 10
29.4128
 20
-89.6522
 30
0.0
 10
29.7038
 20
-86.8021
 30
0.0
 10
30.6772
 20
-84.1284
 30
0.0
 10
31.8653
 20
-81.4508
 30
0.0
 10
31.8653
 20
-81.4508
 30
0.0
 10
33.3755
 20
-83.5433
 30
0.0
 10
35.6814
 20
-85.8431
 30
0.0
 10
37.498
 20
-87.1996
 30
0.0
 10
37.498
 20
-87.1996
 30
0.0
 10
37.498
 20
-87.1996
 30
0.0
 10
37.498
 20
-87.1997
 30
0.0
 10
37.498
 20
-87.1997
 30
0.0
  0
SPLINE
  5
AB
330
1F
100
AcDbEntity
  8
layer 1
 62
     7
100
AcDbSpline
210
0.0
220
0.0
230
1.0
 70
    11
 71
     3
 72
    24
 73
    20
 74
     0
 42
0.0000000001
 43
0.0000000001
 12
1.0
 22
0.0
 32
0.0
 13
1.0
 23
0.0
 33
0.0
 40
0.0
 40
0.0
 40
0.0
 40
0.0
 40
0.1666666666666667
 40
0.1666666666666667
 40
0.1666666666666667
 40
0.1666666666666667
 40
0.3333333333333333
 40
0.3333333333333333
 40
0.3333333333333333
 40
0.3333333333333333
 40
0.5
 40
0.5
 40
0.5
 40
0.5
 40
0.6666666666666666
 40
0.6666666666666666
 40
0.6666666666666666
 40
0.6666666666666666
 40
1.0
 40
1.0
 40
1.0
 40
1.0
 10
33.7036
 20
-78.1477
 30
0.0
 10
35.0315
 20
-80.214
 30
0.0
 10
37.7007
 20
-83.2701
 30
0.0
 10
40.7475
 20
-85.2087
 30
0.0
 10
40.7475
 20
-85.2087
 30
0.0
 10
44.1901
 20
-82.9536
 30
0.0
 10
46.3448
 20
-80.1348
 30
0.0
 10
47.7914
 20
-78.1874
 30
0.0
 10
47.7914
 20
-78.1874
 30
0.0
 10
46.8593
 20
-76.4773
 30
0.0
 10
43.636
 20
-72.8275
 30
0.0
 10
40.6287
 20
-71.0077
 30
0.0
 10
40.6287
 20
-71.0077
 30
0.0
 10
37.6215
 20
-73.1045
 30
0.0
 10
35.1502
 20
-76.042
 30
0.0
 10
33.7035
 20
-78.1478
 30
0.0
 10
33.7035
 20
-78.1478
 30
0.0
 10
33.7035
 20
-78.1478
 30
0.0
 10
33.7036
 20
-78.1477
 30
0.0
 10
33.7036
 20
-78.1477
 30
0.0
  0
SPLINE
  5
AC
330
1F
100
AcDbEntity
  8
layer 1
 62
     7
100
AcDbSpline
210
0.0
220
0.0
230
1.0
 70
    11
 71
     3
 72
    20
 73
    16
 74
     0
 42
0.0000000001
 43
0.0000000001
 12
1.0
 22
0.0
 32
0.0
 13
1.0
 23
0.0
 33
0.0
 40
0.0
 40
0.0
 40
0.0
 40
0.0
 40
0.2
 40
0.2
 40
0.2
 40
0.2
 40
0.4
 40
0.4
 40
0.4
 40
0.4
 40
0.6
 40
0.6
 40
0.6
 40
0.6
 40
1.0
 40
1.0
 40
1.0
 40
1.0
 10
-45.5924
 20
-87.1997
 30
0.0
 10
-42.8761
 20
-88.3878
 30
0.0
 10
-40.9768
 20
-89.1289
 30
0.0
 10
-37.5072
 20
-89.6522
 30
0.0
 10
-37.5072
 20
-89.6522
 30
0.0
 10
-37.7982
 20
-86.8021
 30
0.0
 10
-38.7716
 20
-84.1284
 30
0.0
 10
-39.9597
 20
-81.4508
 30
0.0
 10
-39.9597
 20
-81.4508
 30
0.0
 10
-41.4699
 20
-83.5433
 30
0.0
 10
-43.7758
 20
-85.8431
 30
0.0
 10
-45.5924
 20
-87.1996
 30
0.0
 10
-45.5924
 20
-87.1996
 30
0.0
 10
-45.5924
 20
-87.1996
 30
0.0
 10
-45.5924
 20
-87.1997
 30
0.0
 10
-45.5924
 20
-87.1997
 30
0.0
  0
SPLINE
  5
AD
330
1F
100
AcDbEntity
  8
layer 1
 62
     7
100
AcDbSpline
210
0.0
220
0.0
230
1.0
 70
    11
 71
     3
 72
    20
 73
    16
 74
     0
 42
0.0000000001
 43
0.0000000001
 12
1.0
 22
0.0
 32
0.0
 13
1.0
 23
0.0
 33
0.0
 40
0.0
 40
0.0
 40
0.0
 40
0.0
 40
0.2
 40
0.2
 40
0.2
 40
0.2
 40
0.4
 40
0.4
 40
0.4
 40
0.4
 40
0.6
 40
0.6
 40
0.6
 40
0.6
 40
1.0
 40
1.0
 40
1.0
 40
1.0
 10
-52.1047
 20
-87.1997
 30
0.0
 10
-54.821
 20
-88.3878
 30
0.0
 10
-56.7203
 20
-89.1289
 30
0.0
 10
-60.1898
 20
-89.6522
 30
0.0
 10
-60.1898
 20
-89.6522
 30
0.0
 10
-59.8988
 20
-86.8021
 30
0.0
 10
-58.9254
 20
-84.1284
 30
0.0
 10
-57.7373
 20
-81.4508
 30
0.0
 10
-57.7373
 20
-81.4508
 30
0.0
 10
-56.2271
 20
-83.5433
 30
0.0
 10
-53.9213
 20
-85.8431
 30
0.0
 10
-52.1047
 20
-87.1996
 30
0.0
 10
-52.1047
 20
-87.1996
 30
0.0
 10
-52.1047
 20
-87.1996
 30
0.0
 10
-52.1047
 20
-87.1997
 30
0.0
 10
-52.1047
 20
-87.1997
 30
0.0
  0
SPLINE
  5
AE
330
1F
100
AcDbEntity
  8
layer 1
 62
     7
100
AcDbSpline
210
0.0
220
0.0
230
1.0
 70
    11
 71
     3
 72
    24
 73
    20
 74
     0
 42
0.0000000001
 43
0.0000000001
 12
1.0
 22
0.0
 32
0.0
 13
1.0
 23
0.0
 33
0.0
 40
0.0
 40
0.0
 40
0.0
 40
0.0
 40
0.1666666666666667
 40
0.1666666666666667
 40
0.1666666666666667
 40
0.1666666666666667
 40
0.3333333333333333
 40
0.3333333333333333
 40
0.3333333333333333
 40
0.3333333333333333
 40
0.5
 40
0.5
 40
0.5
 40
0.5
 40
0.6666666666666666
 40
0.6666666666666666
 40
0.6666666666666666
 40
0.6666666666666666
 40
1.0
 40
1.0
 40
1.0
 40
1.0
 10
-55.899
 20
-78.1477
 30
0.0
 10
-54.5712
 20
-80.214
 30
0.0
 10
-51.902
 20
-83.2701
 30
0.0
 10
-48.8552
 20
-85.2087
 30
0.0
 10
-48.8552
 20
-85.2087
 30
0.0
 10
-45.4125
 20
-82.9536
 30
0.0
 10
-43.2579
 20
-80.1348
 30
0.0
 10
-41.8113
 20
-78.1874
 30
0.0
 10
-41.8113
 20
-78.1874
 30
0.0
 10
-42.7434
 20
-76.4773
 30
0.0
 10
-45.9667
 20
-72.8275
 30
0.0
 10
-48.9739
 20
-71.0077
 30
0.0
 10
-48.9739
 20
-71.0077
 30
0.0
 10
-51.9812
 20
-73.1045
 30
0.0
 10
-54.4525
 20
-76.042
 30
0.0
 10
-55.8991
 20
-78.1478
 30
0.0
 10
-55.8991
 20
-78.1478
 30
0.0
 10
-55.8991
 20
-78.1478
 30
0.0
 10
-55.899
 20
-78.1477
 30
0.0
 10
-55.899
 20
-78.1477
 30
0.0
  0
SPLINE
  5
AF
330
1F
100
AcDbEntity
  8
layer 1
 62
     7
100
AcDbSpline
210
0.0
220
0.0
230
1.0
 70
    11
 71
     3
 72
    20
 73
    16
 74
     0
 42
0.0000000001
 43
0.0000000001
 12
1.0
 22
0.0
 32
0.0
 13
1.0
 23
0.0
 33
0.0
 40
0.0
 40
0.0
 40
0.0
 40
0.0
 40
0.2
 40
0.2
 40
0.2
 40
0.2
 40
0.4
 40
0.4
 40
0.4
 40
0.4
 40
0.6
 40
0.6
 40
0.6
 40
0.6
 40
1.0
 40
1.0
 40
1.0
 40
1.0
 10
-15.8304
 20
-87.1997
 30
0.0
 10
-13.1141
 20
-88.3878
 30
0.0
 10
-11.2148
 20
-89.1289
 30
0.0
 10
-7.7452
 20
-89.6522
 30
0.0
 10
-7.7452
 20
-89.6522
 30
0.0
 10
-8.0362
 20
-86.8021
 30
0.0
 10
-9.0096
 20
-84.1284
 30
0.0
 10
-10.1977
 20
-81.4508
 30
0.0
 10
-10.1977
 20
-81.4508
 30
0.0
 10
-11.7079
 20
-83.5433
 30
0.0
 10
-14.0138
 20
-85.8431
 30
0.0
 10
-15.8304
 20
-87.1996
 30
0.0
 10
-15.8304
 20
-87.1996
 30
0.0
 10
-15.8304
 20
-87.1996
 30
0.0
 10
-15.8304
 20
-87.1997
 30
0.0
 10
-15.8304
 20
-87.1997
 30
0.0
  0
SPLINE
  5
B0
330
1F
100
AcDbEntity
  8
layer 1
 62
     7
100
AcDbSpline
210
0.0
220
0.0
230
1.0
 70
    11
 71
     3
 72
    20
 73
    16
 74
     0
 42
0.0000000001
 43
0.0000000001
 12
1.0
 22
0.0
 32
0.0
 13
1.0
 23
0.0
 33
0.0
 40
0.0
 40
0.0
 40
0.0
 40
0.0
 40
0.2
 40
0.2
 40
0.2
 40
0.2
 40
0.4
 40
0.4
 40
0.4
 40
0.4
 40
0.6
 40
0.6
 40
0.6
 40
0.6
 40
1.0
 40
1.0
 40
1.0
 40
1.0
 10
-22.3426
 20
-87.1997
 30
0.0
 10
-25.0589
 20
-88.3878
 30
0.0
 10
-26.9582
 20
-89.1289
 30
0.0
 10
-30.4278
 20
-89.6522
 30
0.0
 10
-30.4278
 20
-89.6522
 30
0.0
 10
-30.1368
 20
-86.8021
 30
0.0
 10
-29.1634
 20
-84.1284
 30
0.0
 10
-27.9753
 20
-81.4508
 30
0.0
 10
-27.9753
 20
-81.4508
 30
0.0
 10
-26.4651
 20
-83.5433
 30
0.0
 10
-24.1592
 20
-85.8431
 30
0.0
 10
-22.3426
 20
-87.1996
 30
0.0
 10
-22.3426
 20
-87.1996
 30
0.0
 10
-22.3426
 20
-87.1996
 30
0.0
 10
-22.3426
 20
-87.1997
 30
0.0
 10
-22.3426
 20
-87.1997
 30
0.0
  0
SPLINE
  5
B1
330
1F
100
AcDbEntity
  8
layer 1
 62
     7
100
AcDbSpline
210
0.0
220
0.0
230
1.0
 70
    11
 71
     3
 72
    24
 73
    20
 74
     0
 42
0.0000000001
 43
0.0000000001
 12
1.0
 22
0.0
 32
0.0
 13
1.0
 23
0.0
 33
0.0
 40
0.0
 40
0.0
 40
0.0
 40
0.0
 40
0.1666666666666667
 40
0.1666666666666667
 40
0.1666666666666667
 40
0.1666666666666667
 40
0.3333333333333333
 40
0.3333333333333333
 40
0.3333333333333333
 40
0.3333333333333333
 40
0.5
 40
0.5
 40
0.5
 40
0.5
 40
0.6666666666666666
 40
0.6666666666666666
 40
0.6666666666666666
 40
0.6666666666666666
 40
1.0
 40
1.0
 40
1.0
 40
1.0
 10
-26.137
 20
-78.1477
 30
0.0
 10
-24.8091
 20
-80.214
 30
0.0
 10
-22.1399
 20
-83.2701
 30
0.0
 10
-19.0931
 20
-85.2087
 30
0.0
 10
-19.0931
 20
-85.2087
 30
0.0
 10
-15.6505
 20
-82.9536
 30
0.0
 10
-13.4959
 20
-80.1348
 30
0.0
 10
-12.0492
 20
-78.1874
 30
0.0
 10
-12.0492
 20
-78.1874
 30
0.0
 10
-12.9814
 20
-76.4773
 30
0.0
 10
-16.2046
 20
-72.8275
 30
0.0
 10
-19.2119
 20
-71.0077
 30
0.0
 10
-19.2119
 20
-71.0077
 30
0.0
 10
-22.2191
 20
-73.1045
 30
0.0
 10
-24.6904
 20
-76.042
 30
0.0
 10
-26.1371
 20
-78.1478
 30
0.0
 10
-26.1371
 20
-78.1478
 30
0.0
 10
-26.1371
 20
-78.1478
 30
0.0
 10
-26.137
 20
-78.1477
 30
0.0
 10
-26.137
 20
-78.1477
 30
0.0
  0
SPLINE
  5
B2
330
1F
100
AcDbEntity
  8
layer 1
 62
     7
100
AcDbSpline
210
0.0
220
0.0
230
1.0
 70
    11
 71
     3
 72
    20
 73
    16
 74
     0
 42
0.0000000001
 43
0.0000000001
 12
1.0
 22
0.0
 32
0.0
 13
1.0
 23
0.0
 33
0.0
 40
0.0
 40
0.0
 40
0.0
 40
0.0
 40
0.2
 40
0.2
 40
0.2
 40
0.2
 40
0.4
 40
0.4
 40
0.4
 40
0.4
 40
0.6
 40
0.6
 40
0.6
 40
0.6
 40
1.0
 40
1.0
 40
1.0
 40
1.0
 10
26.1181
 20
-88.8516
 30
0.0
 10
26.6408
 20
-85.07
 30
0.0
 10
28.0347
 20
-81.0947
 30
0.0
 10
29.8545
 20
-78.0875
 30
0.0
 10
29.8545
 20
-78.0875
 30
0.0
 10
28.0347
 20
-75.0803
 30
0.0
 10
26.6407
 20
-71.105
 30
0.0
 10
26.1181
 20
-67.3234
 30
0.0
 10
26.1181
 20
-67.3234
 30
0.0
 10
25.5953
 20
-71.105
 30
0.0
 10
24.2015
 20
-75.0803
 30
0.0
 10
22.3816
 20
-78.0875
 30
0.0
 10
22.3816
 20
-78.0875
 30
0.0
 10
24.2015
 20
-81.0947
 30
0.0
 10
25.5954
 20
-85.07
 30
0.0
 10
26.1181
 20
-88.8516
 30
0.0
  0
SPLINE
  5
B3
330
1F
100
AcDbEntity
  8
layer 1
 62
     7
100
AcDbSpline
210
0.0
220
0.0
230
1.0
 70
    11
 71
     3
 72
    20
 73
    16
 74
     0
 42
0.0000000001
 43
0.0000000001
 12
1.0
 22
0.0
 32
0.0
 13
1.0
 23
0.0
 33
0.0
 40
0.0
 40
0.0
 40
0.0
 40
0.0
 40
0.2
 40
0.2
 40
0.2
 40
0.2
 40
0.4
 40
0.4
 40
0.4
 40
0.4
 40
0.6
 40
0.6
 40
0.6
 40
0.6
 40
1.0
 40
1.0
 40
1.0
 40
1.0
 10
-4.0507
 20
-88.8516
 30
0.0
 10
-3.528
 20
-85.07
 30
0.0
 10
-2.1341
 20
-81.0947
 30
0.0
 10
-0.3143
 20
-78.0875
 30
0.0
 10
-0.3143
 20
-78.0875
 30
0.0
 10
-2.1341
 20
-75.0803
 30
0.0
 10
-3.528
 20
-71.105
 30
0.0
 10
-4.0507
 20
-67.3234
 30
0.0
 10
-4.0507
 20
-67.3234
 30
0.0
 10
-4.5734
 20
-71.105
 30
0.0
 10
-5.9673
 20
-75.0803
 30
0.0
 10
-7.7871
 20
-78.0875
 30
0.0
 10
-7.7871
 20
-78.0875
 30
0.0
 10
-5.9673
 20
-81.0947
 30
0.0
 10
-4.5734
 20
-85.07
 30
0.0
 10
-4.0507
 20
-88.8516
 30
0.0
  0
SPLINE
  5
B4
330
1F
100
AcDbEntity
  8
layer 1
 62
     7
100
AcDbSpline
210
0.0
220
0.0
230
1.0
 70
    11
 71
     3
 72
    20
 73
    16
 74
     0
 42
0.0000000001
 43
0.0000000001
 12
1.0
 22
0.0
 32
0.0
 13
1.0
 23
0.0
 33
0.0
 40
0.0
 40
0.0
 40
0.0
 40
0.0
 40
0.2
 40
0.2
 40
0.2
 40
0.2
 40
0.4
 40
0.4
 40
0.4
 40
0.4
 40
0.6
 40
0.6
 40
0.6
 40
0.6
 40
1.0
 40
1.0
 40
1.0
 40
1.0
 10
-34.4002
 20
-88.8516
 30
0.0
 10
-33.8774
 20
-85.07
 30
0.0
 10
-32.4835
 20
-81.0947
 30
0.0
 10
-30.6637
 20
-78.0875
 30
0.0
 10
-30.6637
 20
-78.0875
 30
0.0
 10
-32.4835
 20
-75.0803
 30
0.0
 10
-33.8775
 20
-71.105
 30
0.0
 10
-34.4002
 20
-67.3234
 30
0.0
 10
-34.4002
 20
-67.3234
 30
0.0
 10
-34.9229
 20
-71.105
 30
0.0
 10
-36.3168
 20
-75.0803
 30
0.0
 10
-38.1366
 20
-78.0875
 30
0.0
 10
-38.1366
 20
-78.0875
 30
0.0
 10
-36.3168
 20
-81.0947
 30
0.0
 10
-34.9228
 20
-85.07
 30
0.0
 10
-34.4002
 20
-88.8516
 30
0.0
  0
SPLINE
  5
B5
330
1F
100
AcDbEntity
  8
layer 1
 62
     7
100
AcDbSpline
210
0.0
220
0.0
230
1.0
 70
    11
 71
     3
 72
    16
 73
    12
 74
     0
 42
0.0000000001
 43
0.0000000001
 12
1.0
 22
0.0
 32
0.0
 13
1.0
 23
0.0
 33
0.0
 40
0.0
 40
0.0
 40
0.0
 40
0.0
 40
0.25
 40
0.25
 40
0.25
 40
0.25
 40
0.5
 40
0.5
 40
0.5
 40
0.5
 40
1.0
 40
1.0
 40
1.0
 40
1.0
 10
-63.9115
 20
-88.8516
 30
0.0
 10
-63.3888
 20
-85.07
 30
0.0
 10
-61.9949
 20
-81.0947
 30
0.0
 10
-60.1751
 20
-78.0875
 30
0.0
 10
-60.1751
 20
-78.0875
 30
0.0
 10
-61.9949
 20
-75.0803
 30
0.0
 10
-63.3889
 20
-71.105
 30
0.0
 10
-63.9115
 20
-67.3234
 30
0.0
 10
-63.9115
 20
-67.3234
 30
0.0
 10
-63.9115
 20
-67.3234
 30
0.0
 10
-63.9115
 20
-88.8516
 30
0.0
 10
-63.9115
 20
-88.8516
 30
0.0
  0
SPLINE
  5
B6
330
1F
100
AcDbEntity
  8
layer 1
 62
     7
100
AcDbSpline
210
0.0
220
0.0
230
1.0
 70
    11
 71
     3
 72
    16
 73
    12
 74
     0
 42
0.0000000001
 43
0.0000000001
 12
1.0
 22
0.0
 32
0.0
 13
1.0
 23
0.0
 33
0.0
 40
0.0
 40
0.0
 40
0.0
 40
0.0
 40
0.25
 40
0.25
 40
0.25
 40
0.25
 40
0.5
 40
0.5
 40
0.5
 40
0.5
 40
1.0
 40
1.0
 40
1.0
 40
1.0
 10
56.0258
 20
-88.8516
 30
0.0
 10
55.503
 20
-85.07
 30
0.0
 10
54.1092
 20
-81.0947
 30
0.0
 10
52.2893
 20
-78.0875
 30
0.0
 10
52.2893
 20
-78.0875
 30
0.0
 10
54.1092
 20
-75.0803
 30
0.0
 10
55.5031
 20
-71.105
 30
0.0
 10
56.0258
 20
-67.3234
 30
0.0
 10
56.0258
 20
-67.3234
 30
0.0
 10
56.0258
 20
-67.3234
 30
0.0
 10
56.0258
 20
-88.8516
 30
0.0
 10
56.0258
 20
-88.8516
 30
0.0
  0
SPLINE
  5
B7
330
1F
100
AcDbEntity
  8
layer 1
 62
     7
100
AcDbSpline
210
0.0
220
0.0
230
1.0
 70
    11
 71
     3
 72
    20
 73
    16
 74
     0
 42
0.0000000001
 43
0.0000000001
 12
1.0
 22
0.0
 32
0.0
 13
1.0
 23
0.0
 33
0.0
 40
0.0
 40
0.0
 40
0.0
 40
0.0
 40
0.2
 40
0.2
 40
0.2
 40
0.2
 40
0.4
 40
0.4
 40
0.4
 40
0.4
 40
0.6
 40
0.6
 40
0.6
 40
0.6
 40
1.0
 40
1.0
 40
1.0
 40
1.0
 10
0.2247
 20
-63.1307
 30
0.0
 10
4.0063
 20
-63.6534
 30
0.0
 10
7.9816
 20
-65.0473
 30
0.0
 10
10.9888
 20
-66.8671
 30
0.0
 10
10.9888
 20
-66.8671
 30
0.0
 10
13.996
 20
-65.0473
 30
0.0
 10
17.9713
 20
-63.6533
 30
0.0
 10
21.7529
 20
-63.1307
 30
0.0
 10
21.7529
 20
-63.1307
 30
0.0
 10
17.9713
 20
-62.6079
 30
0.0
 10
13.996
 20
-61.2141
 30
0.0
 10
10.9888
 20
-59.3942
 30
0.0
 10
10.9888
 20
-59.3942
 30
0.0
 10
7.9816
 20
-61.2141
 30
0.0
 10
4.0063
 20
-62.608
 30
0.0
 10
0.2247
 20
-63.1307
 30
0.0
  0
SPLINE
  5
B8
330
1F
100
AcDbEntity
  8
layer 1
 62
     7
100
AcDbSpline
210
0.0
220
0.0
230
1.0
 70
    11
 71
     3
 72
    20
 73
    16
 74
     0
 42
0.0000000001
 43
0.0000000001
 12
1.0
 22
0.0
 32
0.0
 13
1.0
 23
0.0
 33
0.0
 40
0.0
 40
0.0
 40
0.0
 40
0.0
 40
0.2
 40
0.2
 40
0.2
 40
0.2
 40
0.4
 40
0.4
 40
0.4
 40
0.4
 40
0.6
 40
0.6
 40
0.6
 40
0.6
 40
1.0
 40
1.0
 40
1.0
 40
1.0
 10
14.2482
 20
-57.2488
 30
0.0
 10
16.9645
 20
-58.4368
 30
0.0
 10
18.8638
 20
-59.178
 30
0.0
 10
22.3334
 20
-59.7013
 30
0.0
 10
22.3334
 20
-59.7013
 30
0.0
 10
22.0424
 20
-56.8512
 30
0.0
 10
21.069
 20
-54.1775
 30
0.0
 10
19.8809
 20
-51.4999
 30
0.0
 10
19.8809
 20
-51.4999
 30
0.0
 10
18.3707
 20
-53.5924
 30
0.0
 10
16.0648
 20
-55.8922
 30
0.0
 10
14.2482
 20
-57.2487
 30
0.0
 10
14.2482
 20
-57.2487
 30
0.0
 10
14.2482
 20
-57.2487
 30
0.0
 10
14.2482
 20
-57.2488
 30
0.0
 10
14.2482
 20
-57.2488
 30
0.0
  0
SPLINE
  5
B9
330
1F
100
AcDbEntity
  8
layer 1
 62
     7
100
AcDbSpline
210
0.0
220
0.0
230
1.0
 70
    11
 71
     3
 72
    20
 73
    16
 74
     0
 42
0.0000000001
 43
0.0000000001
 12
1.0
 22
0.0
 32
0.0
 13
1.0
 23
0.0
 33
0.0
 40
0.0
 40
0.0
 40
0.0
 40
0.0
 40
0.2
 40
0.2
 40
0.2
 40
0.2
 40
0.4
 40
0.4
 40
0.4
 40
0.4
 40
0.6
 40
0.6
 40
0.6
 40
0.6
 40
1.0
 40
1.0
 40
1.0
 40
1.0
 10
7.736
 20
-57.2488
 30
0.0
 10
5.0197
 20
-58.4368
 30
0.0
 10
3.1204
 20
-59.178
 30
0.0
 10
-0.3491
 20
-59.7013
 30
0.0
 10
-0.3491
 20
-59.7013
 30
0.0
 10
-0.0582
 20
-56.8512
 30
0.0
 10
0.9153
 20
-54.1775
 30
0.0
 10
2.1033
 20
-51.4999
 30
0.0
 10
2.1033
 20
-51.4999
 30
0.0
 10
3.6135
 20
-53.5924
 30
0.0
 10
5.9194
 20
-55.8922
 30
0.0
 10
7.736
 20
-57.2487
 30
0.0
 10
7.736
 20
-57.2487
 30
0.0
 10
7.736
 20
-57.2487
 30
0.0
 10
7.736
 20
-57.2488
 30
0.0
 10
7.736
 20
-57.2488
 30
0.0
  0
SPLINE
  5
BA
330
1F
100
AcDbEntity
  8
layer 1
 62
     7
100
AcDbSpline
210
0.0
220
0.0
230
1.0
 70
    11
 71
     3
 72
    24
 73
    20
 74
     0
 42
0.0000000001
 43
0.0000000001
 12
1.0
 22
0.0
 32
0.0
 13
1.0
 23
0.0
 33
0.0
 40
0.0
 40
0.0
 40
0.0
 40
0.0
 40
0.1666666666666667
 40
0.1666666666666667
 40
0.1666666666666667
 40
0.1666666666666667
 40
0.3333333333333333
 40
0.3333333333333333
 40
0.3333333333333333
 40
0.3333333333333333
 40
0.5
 40
0.5
 40
0.5
 40
0.5
 40
0.6666666666666666
 40
0.6666666666666666
 40
0.6666666666666666
 40
0.6666666666666666
 40
1.0
 40
1.0
 40
1.0
 40
1.0
 10
3.9416
 20
-48.1969
 30
0.0
 10
5.2695
 20
-50.2631
 30
0.0
 10
7.9387
 20
-53.3193
 30
0.0
 10
10.9855
 20
-55.2579
 30
0.0
 10
10.9855
 20
-55.2579
 30
0.0
 10
14.4281
 20
-53.0027
 30
0.0
 10
16.5828
 20
-50.184
 30
0.0
 10
18.0294
 20
-48.2365
 30
0.0
 10
18.0294
 20
-48.2365
 30
0.0
 10
17.0973
 20
-46.5265
 30
0.0
 10
13.874
 20
-42.8767
 30
0.0
 10
10.8667
 20
-41.0568
 30
0.0
 10
10.8667
 20
-41.0568
 30
0.0
 10
7.8595
 20
-43.1537
 30
0.0
 10
5.3882
 20
-46.0911
 30
0.0
 10
3.9416
 20
-48.197
 30
0.0
 10
3.9416
 20
-48.197
 30
0.0
 10
3.9416
 20
-48.197
 30
0.0
 10
3.9416
 20
-48.1969
 30
0.0
 10
3.9416
 20
-48.1969
 30
0.0
  0
SPLINE
  5
BB
330
1F
100
AcDbEntity
  8
layer 1
 62
     7
100
AcDbSpline
210
0.0
220
0.0
230
1.0
 70
    11
 71
     3
 72
    20
 73
    16
 74
     0
 42
0.0000000001
 43
0.0000000001
 12
1.0
 22
0.0
 32
0.0
 13
1.0
 23
0.0
 33
0.0
 40
0.0
 40
0.0
 40
0.0
 40
0.0
 40
0.2
 40
0.2
 40
0.2
 40
0.2
 40
0.4
 40
0.4
 40
0.4
 40
0.4
 40
0.6
 40
0.6
 40
0.6
 40
0.6
 40
1.0
 40
1.0
 40
1.0
 40
1.0
 10
14.2482
 20
-68.8806
 30
0.0
 10
16.9645
 20
-67.6925
 30
0.0
 10
18.8638
 20
-66.9514
 30
0.0
 10
22.3334
 20
-66.4281
 30
0.0
 10
22.3334
 20
-66.4281
 30
0.0
 10
22.0424
 20
-69.2782
 30
0.0
 10
21.069
 20
-71.9519
 30
0.0
 10
19.8809
 20
-74.6295
 30
0.0
 10
19.8809
 20
-74.6295
 30
0.0
 10
18.3707
 20
-72.537
 30
0.0
 10
16.0648
 20
-70.2371
 30
0.0
 10
14.2482
 20
-68.8807
 30
0.0
 10
14.2482
 20
-68.8807
 30
0.0
 10
14.2482
 20
-68.8807
 30
0.0
 10
14.2482
 20
-68.8806
 30
0.0
 10
14.2482
 20
-68.8806
 30
0.0
  0
SPLINE
  5
BC
330
1F
100
AcDbEntity
  8
layer 1
 62
     7
100
AcDbSpline
210
0.0
220
0.0
230
1.0
 70
    11
 71
     3
 72
    20
 73
    16
 74
     0
 42
0.0000000001
 43
0.0000000001
 12
1.0
 22
0.0
 32
0.0
 13
1.0
 23
0.0
 33
0.0
 40
0.0
 40
0.0
 40
0.0
 40
0.0
 40
0.2
 40
0.2
 40
0.2
 40
0.2
 40
0.4
 40
0.4
 40
0.4
 40
0.4
 40
0.6
 40
0.6
 40
0.6
 40
0.6
 40
1.0
 40
1.0
 40
1.0
 40
1.0
 10
7.736
 20
-68.8806
 30
0.0
 10
5.0197
 20
-67.6925
 30
0.0
 10
3.1204
 20
-66.9514
 30
0.0
 10
-0.3491
 20
-66.4281
 30
0.0
 10
-0.3491
 20
-66.4281
 30
0.0
 10
-0.0582
 20
-69.2782
 30
0.0
 10
0.9153
 20
-71.9519
 30
0.0
 10
2.1033
 20
-74.6295
 30
0.0
 10
2.1033
 20
-74.6295
 30
0.0
 10
3.6135
 20
-72.537
 30
0.0
 10
5.9194
 20
-70.2371
 30
0.0
 10
7.736
 20
-68.8807
 30
0.0
 10
7.736
 20
-68.8807
 30
0.0
 10
7.736
 20
-68.8807
 30
0.0
 10
7.736
 20
-68.8806
 30
0.0
 10
7.736
 20
-68.8806
 30
0.0
  0
SPLINE
  5
BD
330
1F
100
AcDbEntity
  8
layer 1
 62
     7
100
AcDbSpline
210
0.0
220
0.0
230
1.0
 70
    11
 71
     3
 72
    20
 73
    16
 74
     0
 42
0.0000000001
 43
0.0000000001
 12
1.0
 22
0.0
 32
0.0
 13
1.0
 23
0.0
 33
0.0
 40
0.0
 40
0.0
 40
0.0
 40
0.0
 40
0.2
 40
0.2
 40
0.2
 40
0.2
 40
0.4
 40
0.4
 40
0.4
 40
0.4
 40
0.6
 40
0.6
 40
0.6
 40
0.6
 40
1.0
 40
1.0
 40
1.0
 40
1.0
 10
29.9867
 20
-63.1307
 30
0.0
 10
33.7684
 20
-63.6534
 30
0.0
 10
37.7436
 20
-65.0473
 30
0.0
 10
40.7509
 20
-66.8671
 30
0.0
 10
40.7509
 20
-66.8671
 30
0.0
 10
43.7581
 20
-65.0473
 30
0.0
 10
47.7334
 20
-63.6533
 30
0.0
 10
51.515
 20
-63.1307
 30
0.0
 10
51.515
 20
-63.1307
 30
0.0
 10
47.7334
 20
-62.6079
 30
0.0
 10
43.7581
 20
-61.2141
 30
0.0
 10
40.7509
 20
-59.3942
 30
0.0
 10
40.7509
 20
-59.3942
 30
0.0
 10
37.7436
 20
-61.2141
 30
0.0
 10
33.7684
 20
-62.608
 30
0.0
 10
29.9867
 20
-63.1307
 30
0.0
  0
SPLINE
  5
BE
330
1F
100
AcDbEntity
  8
layer 1
 62
     7
100
AcDbSpline
210
0.0
220
0.0
230
1.0
 70
    11
 71
     3
 72
    20
 73
    16
 74
     0
 42
0.0000000001
 43
0.0000000001
 12
1.0
 22
0.0
 32
0.0
 13
1.0
 23
0.0
 33
0.0
 40
0.0
 40
0.0
 40
0.0
 40
0.0
 40
0.2
 40
0.2
 40
0.2
 40
0.2
 40
0.4
 40
0.4
 40
0.4
 40
0.4
 40
0.6
 40
0.6
 40
0.6
 40
0.6
 40
1.0
 40
1.0
 40
1.0
 40
1.0
 10
44.0103
 20
-57.2488
 30
0.0
 10
46.7266
 20
-58.4368
 30
0.0
 10
48.6259
 20
-59.178
 30
0.0
 10
52.0954
 20
-59.7013
 30
0.0
 10
52.0954
 20
-59.7013
 30
0.0
 10
51.8045
 20
-56.8512
 30
0.0
 10
50.831
 20
-54.1775
 30
0.0
 10
49.643
 20
-51.4999
 30
0.0
 10
49.643
 20
-51.4999
 30
0.0
 10
48.1327
 20
-53.5924
 30
0.0
 10
45.8269
 20
-55.8922
 30
0.0
 10
44.0103
 20
-57.2487
 30
0.0
 10
44.0103
 20
-57.2487
 30
0.0
 10
44.0103
 20
-57.2487
 30
0.0
 10
44.0103
 20
-57.2488
 30
0.0
 10
44.0103
 20
-57.2488
 30
0.0
  0
SPLINE
  5
BF
330
1F
100
AcDbEntity
  8
layer 1
 62
     7
100
AcDbSpline
210
0.0
220
0.0
230
1.0
 70
    11
 71
     3
 72
    20
 73
    16
 74
     0
 42
0.0000000001
 43
0.0000000001
 12
1.0
 22
0.0
 32
0.0
 13
1.0
 23
0.0
 33
0.0
 40
0.0
 40
0.0
 40
0.0
 40
0.0
 40
0.2
 40
0.2
 40
0.2
 40
0.2
 40
0.4
 40
0.4
 40
0.4
 40
0.4
 40
0.6
 40
0.6
 40
0.6
 40
0.6
 40
1.0
 40
1.0
 40
1.0
 40
1.0
 10
37.498
 20
-57.2488
 30
0.0
 10
34.7817
 20
-58.4368
 30
0.0
 10
32.8824
 20
-59.178
 30
0.0
 10
29.4128
 20
-59.7013
 30
0.0
 10
29.4128
 20
-59.7013
 30
0.0
 10
29.7038
 20
-56.8512
 30
0.0
 10
30.6772
 20
-54.1775
 30
0.0
 10
31.8653
 20
-51.4999
 30
0.0
 10
31.8653
 20
-51.4999
 30
0.0
 10
33.3755
 20
-53.5924
 30
0.0
 10
35.6814
 20
-55.8922
 30
0.0
 10
37.498
 20
-57.2487
 30
0.0
 10
37.498
 20
-57.2487
 30
0.0
 10
37.498
 20
-57.2487
 30
0.0
 10
37.498
 20
-57.2488
 30
0.0
 10
37.498
 20
-57.2488
 30
0.0
  0
SPLINE
  5
C0
330
1F
100
AcDbEntity
  8
layer 1
 62
     7
100
AcDbSpline
210
0.0
220
0.0
230
1.0
 70
    11
 71
     3
 72
    24
 73
    20
 74
     0
 42
0.0000000001
 43
0.0000000001
 12
1.0
 22
0.0
 32
0.0
 13
1.0
 23
0.0
 33
0.0
 40
0.0
 40
0.0
 40
0.0
 40
0.0
 40
0.1666666666666667
 40
0.1666666666666667
 40
0.1666666666666667
 40
0.1666666666666667
 40
0.3333333333333333
 40
0.3333333333333333
 40
0.3333333333333333
 40
0.3333333333333333
 40
0.5
 40
0.5
 40
0.5
 40
0.5
 40
0.6666666666666666
 40
0.6666666666666666
 40
0.6666666666666666
 40
0.6666666666666666
 40
1.0
 40
1.0
 40
1.0
 40
1.0
 10
33.7036
 20
-48.1969
 30
0.0
 10
35.0315
 20
-50.2631
 30
0.0
 10
37.7007
 20
-53.3193
 30
0.0
 10
40.7475
 20
-55.2579
 30
0.0
 10
40.7475
 20
-55.2579
 30
0.0
 10
44.1901
 20
-53.0027
 30
0.0
 10
46.3448
 20
-50.184
 30
0.0
 10
47.7914
 20
-48.2365
 30
0.0
 10
47.7914
 20
-48.2365
 30
0.0
 10
46.8593
 20
-46.5265
 30
0.0
 10
43.636
 20
-42.8767
 30
0.0
 10
40.6287
 20
-41.0568
 30
0.0
 10
40.6287
 20
-41.0568
 30
0.0
 10
37.6215
 20
-43.1537
 30
0.0
 10
35.1502
 20
-46.0911
 30
0.0
 10
33.7035
 20
-48.197
 30
0.0
 10
33.7035
 20
-48.197
 30
0.0
 10
33.7035
 20
-48.197
 30
0.0
 10
33.7036
 20
-48.1969
 30
0.0
 10
33.7036
 20
-48.1969
 30
0.0
  0
SPLINE
  5
C1
330
1F
100
AcDbEntity
  8
layer 1
 62
     7
100
AcDbSpline
210
0.0
220
0.0
230
1.0
 70
    11
 71
     3
 72
    20
 73
    16
 74
     0
 42
0.0000000001
 43
0.0000000001
 12
1.0
 22
0.0
 32
0.0
 13
1.0
 23
0.0
 33
0.0
 40
0.0
 40
0.0
 40
0.0
 40
0.0
 40
0.2
 40
0.2
 40
0.2
 40
0.2
 40
0.4
 40
0.4
 40
0.4
 40
0.4
 40
0.6
 40
0.6
 40
0.6
 40
0.6
 40
1.0
 40
1.0
 40
1.0
 40
1.0
 10
44.0103
 20
-68.8806
 30
0.0
 10
46.7266
 20
-67.6925
 30
0.0
 10
48.6259
 20
-66.9514
 30
0.0
 10
52.0954
 20
-66.4281
 30
0.0
 10
52.0954
 20
-66.4281
 30
0.0
 10
51.8045
 20
-69.2782
 30
0.0
 10
50.831
 20
-71.9519
 30
0.0
 10
49.643
 20
-74.6295
 30
0.0
 10
49.643
 20
-74.6295
 30
0.0
 10
48.1327
 20
-72.537
 30
0.0
 10
45.8269
 20
-70.2371
 30
0.0
 10
44.0103
 20
-68.8807
 30
0.0
 10
44.0103
 20
-68.8807
 30
0.0
 10
44.0103
 20
-68.8807
 30
0.0
 10
44.0103
 20
-68.8806
 30
0.0
 10
44.0103
 20
-68.8806
 30
0.0
  0
SPLINE
  5
C2
330
1F
100
AcDbEntity
  8
layer 1
 62
     7
100
AcDbSpline
210
0.0
220
0.0
230
1.0
 70
    11
 71
     3
 72
    20
 73
    16
 74
     0
 42
0.0000000001
 43
0.0000000001
 12
1.0
 22
0.0
 32
0.0
 13
1.0
 23
0.0
 33
0.0
 40
0.0
 40
0.0
 40
0.0
 40
0.0
 40
0.2
 40
0.2
 40
0.2
 40
0.2
 40
0.4
 40
0.4
 40
0.4
 40
0.4
 40
0.6
 40
0.6
 40
0.6
 40
0.6
 40
1.0
 40
1.0
 40
1.0
 40
1.0
 10
37.498
 20
-68.8806
 30
0.0
 10
34.7817
 20
-67.6925
 30
0.0
 10
32.8824
 20
-66.9514
 30
0.0
 10
29.4128
 20
-66.4281
 30
0.0
 10
29.4128
 20
-66.4281
 30
0.0
 10
29.7038
 20
-69.2782
 30
0.0
 10
30.6772
 20
-71.9519
 30
0.0
 10
31.8653
 20
-74.6295
 30
0.0
 10
31.8653
 20
-74.6295
 30
0.0
 10
33.3755
 20
-72.537
 30
0.0
 10
35.6814
 20
-70.2371
 30
0.0
 10
37.498
 20
-68.8807
 30
0.0
 10
37.498
 20
-68.8807
 30
0.0
 10
37.498
 20
-68.8807
 30
0.0
 10
37.498
 20
-68.8806
 30
0.0
 10
37.498
 20
-68.8806
 30
0.0
  0
SPLINE
  5
C3
330
1F
100
AcDbEntity
  8
layer 1
 62
     7
100
AcDbSpline
210
0.0
220
0.0
230
1.0
 70
    11
 71
     3
 72
    20
 73
    16
 74
     0
 42
0.0000000001
 43
0.0000000001
 12
1.0
 22
0.0
 32
0.0
 13
1.0
 23
0.0
 33
0.0
 40
0.0
 40
0.0
 40
0.0
 40
0.0
 40
0.2
 40
0.2
 40
0.2
 40
0.2
 40
0.4
 40
0.4
 40
0.4
 40
0.4
 40
0.6
 40
0.6
 40
0.6
 40
0.6
 40
1.0
 40
1.0
 40
1.0
 40
1.0
 10
-59.6159
 20
-63.1307
 30
0.0
 10
-55.8343
 20
-63.6534
 30
0.0
 10
-51.859
 20
-65.0473
 30
0.0
 10
-48.8518
 20
-66.8671
 30
0.0
 10
-48.8518
 20
-66.8671
 30
0.0
 10
-45.8446
 20
-65.0473
 30
0.0
 10
-41.8693
 20
-63.6533
 30
0.0
 10
-38.0877
 20
-63.1307
 30
0.0
 10
-38.0877
 20
-63.1307
 30
0.0
 10
-41.8693
 20
-62.6079
 30
0.0
 10
-45.8446
 20
-61.2141
 30
0.0
 10
-48.8518
 20
-59.3942
 30
0.0
 10
-48.8518
 20
-59.3942
 30
0.0
 10
-51.859
 20
-61.2141
 30
0.0
 10
-55.8343
 20
-62.608
 30
0.0
 10
-59.6159
 20
-63.1307
 30
0.0
  0
SPLINE
  5
C4
330
1F
100
AcDbEntity
  8
layer 1
 62
     7
100
AcDbSpline
210
0.0
220
0.0
230
1.0
 70
    11
 71
     3
 72
    20
 73
    16
 74
     0
 42
0.0000000001
 43
0.0000000001
 12
1.0
 22
0.0
 32
0.0
 13
1.0
 23
0.0
 33
0.0
 40
0.0
 40
0.0
 40
0.0
 40
0.0
 40
0.2
 40
0.2
 40
0.2
 40
0.2
 40
0.4
 40
0.4
 40
0.4
 40
0.4
 40
0.6
 40
0.6
 40
0.6
 40
0.6
 40
1.0
 40
1.0
 40
1.0
 40
1.0
 10
-45.5924
 20
-57.2488
 30
0.0
 10
-42.8761
 20
-58.4368
 30
0.0
 10
-40.9768
 20
-59.178
 30
0.0
 10
-37.5072
 20
-59.7013
 30
0.0
 10
-37.5072
 20
-59.7013
 30
0.0
 10
-37.7982
 20
-56.8512
 30
0.0
 10
-38.7716
 20
-54.1775
 30
0.0
 10
-39.9597
 20
-51.4999
 30
0.0
 10
-39.9597
 20
-51.4999
 30
0.0
 10
-41.4699
 20
-53.5924
 30
0.0
 10
-43.7758
 20
-55.8922
 30
0.0
 10
-45.5924
 20
-57.2487
 30
0.0
 10
-45.5924
 20
-57.2487
 30
0.0
 10
-45.5924
 20
-57.2487
 30
0.0
 10
-45.5924
 20
-57.2488
 30
0.0
 10
-45.5924
 20
-57.2488
 30
0.0
  0
SPLINE
  5
C5
330
1F
100
AcDbEntity
  8
layer 1
 62
     7
100
AcDbSpline
210
0.0
220
0.0
230
1.0
 70
    11
 71
     3
 72
    20
 73
    16
 74
     0
 42
0.0000000001
 43
0.0000000001
 12
1.0
 22
0.0
 32
0.0
 13
1.0
 23
0.0
 33
0.0
 40
0.0
 40
0.0
 40
0.0
 40
0.0
 40
0.2
 40
0.2
 40
0.2
 40
0.2
 40
0.4
 40
0.4
 40
0.4
 40
0.4
 40
0.6
 40
0.6
 40
0.6
 40
0.6
 40
1.0
 40
1.0
 40
1.0
 40
1.0
 10
-52.1047
 20
-57.2488
 30
0.0
 10
-54.821
 20
-58.4368
 30
0.0
 10
-56.7203
 20
-59.178
 30
0.0
 10
-60.1898
 20
-59.7013
 30
0.0
 10
-60.1898
 20
-59.7013
 30
0.0
 10
-59.8988
 20
-56.8512
 30
0.0
 10
-58.9254
 20
-54.1775
 30
0.0
 10
-57.7373
 20
-51.4999
 30
0.0
 10
-57.7373
 20
-51.4999
 30
0.0
 10
-56.2271
 20
-53.5924
 30
0.0
 10
-53.9213
 20
-55.8922
 30
0.0
 10
-52.1047
 20
-57.2487
 30
0.0
 10
-52.1047
 20
-57.2487
 30
0.0
 10
-52.1047
 20
-57.2487
 30
0.0
 10
-52.1047
 20
-57.2488
 30
0.0
 10
-52.1047
 20
-57.2488
 30
0.0
  0
SPLINE
  5
C6
330
1F
100
AcDbEntity
  8
layer 1
 62
     7
100
AcDbSpline
210
0.0
220
0.0
230
1.0
 70
    11
 71
     3
 72
    24
 73
    20
 74
     0
 42
0.0000000001
 43
0.0000000001
 12
1.0
 22
0.0
 32
0.0
 13
1.0
 23
0.0
 33
0.0
 40
0.0
 40
0.0
 40
0.0
 40
0.0
 40
0.1666666666666667
 40
0.1666666666666667
 40
0.1666666666666667
 40
0.1666666666666667
 40
0.3333333333333333
 40
0.3333333333333333
 40
0.3333333333333333
 40
0.3333333333333333
 40
0.5
 40
0.5
 40
0.5
 40
0.5
 40
0.6666666666666666
 40
0.6666666666666666
 40
0.6666666666666666
 40
0.6666666666666666
 40
1.0
 40
1.0
 40
1.0
 40
1.0
 10
-55.899
 20
-48.1969
 30
0.0
 10
-54.5712
 20
-50.2631
 30
0.0
 10
-51.902
 20
-53.3193
 30
0.0
 10
-48.8552
 20
-55.2579
 30
0.0
 10
-48.8552
 20
-55.2579
 30
0.0
 10
-45.4125
 20
-53.0027
 30
0.0
 10
-43.2579
 20
-50.184
 30
0.0
 10
-41.8113
 20
-48.2365
 30
0.0
 10
-41.8113
 20
-48.2365
 30
0.0
 10
-42.7434
 20
-46.5265
 30
0.0
 10
-45.9667
 20
-42.8767
 30
0.0
 10
-48.9739
 20
-41.0568
 30
0.0
 10
-48.9739
 20
-41.0568
 30
0.0
 10
-51.9812
 20
-43.1537
 30
0.0
 10
-54.4525
 20
-46.0911
 30
0.0
 10
-55.8991
 20
-48.197
 30
0.0
 10
-55.8991
 20
-48.197
 30
0.0
 10
-55.8991
 20
-48.197
 30
0.0
 10
-55.899
 20
-48.1969
 30
0.0
 10
-55.899
 20
-48.1969
 30
0.0
  0
SPLINE
  5
C7
330
1F
100
AcDbEntity
  8
layer 1
 62
     7
100
AcDbSpline
210
0.0
220
0.0
230
1.0
 70
    11
 71
     3
 72
    20
 73
    16
 74
     0
 42
0.0000000001
 43
0.0000000001
 12
1.0
 22
0.0
 32
0.0
 13
1.0
 23
0.0
 33
0.0
 40
0.0
 40
0.0
 40
0.0
 40
0.0
 40
0.2
 40
0.2
 40
0.2
 40
0.2
 40
0.4
 40
0.4
 40
0.4
 40
0.4
 40
0.6
 40
0.6
 40
0.6
 40
0.6
 40
1.0
 40
1.0
 40
1.0
 40
1.0
 10
-45.5924
 20
-68.8806
 30
0.0
 10
-42.8761
 20
-67.6925
 30
0.0
 10
-40.9768
 20
-66.9514
 30
0.0
 10
-37.5072
 20
-66.4281
 30
0.0
 10
-37.5072
 20
-66.4281
 30
0.0
 10
-37.7982
 20
-69.2782
 30
0.0
 10
-38.7716
 20
-71.9519
 30
0.0
 10
-39.9597
 20
-74.6295
 30
0.0
 10
-39.9597
 20
-74.6295
 30
0.0
 10
-41.4699
 20
-72.537
 30
0.0
 10
-43.7758
 20
-70.2371
 30
0.0
 10
-45.5924
 20
-68.8807
 30
0.0
 10
-45.5924
 20
-68.8807
 30
0.0
 10
-45.5924
 20
-68.8807
 30
0.0
 10
-45.5924
 20
-68.8806
 30
0.0
 10
-45.5924
 20
-68.8806
 30
0.0
  0
SPLINE
  5
C8
330
1F
100
AcDbEntity
  8
layer 1
 62
     7
100
AcDbSpline
210
0.0
220
0.0
230
1.0
 70
    11
 71
     3
 72
    20
 73
    16
 74
     0
 42
0.0000000001
 43
0.0000000001
 12
1.0
 22
0.0
 32
0.0
 13
1.0
 23
0.0
 33
0.0
 40
0.0
 40
0.0
 40
0.0
 40
0.0
 40
0.2
 40
0.2
 40
0.2
 40
0.2
 40
0.4
 40
0.4
 40
0.4
 40
0.4
 40
0.6
 40
0.6
 40
0.6
 40
0.6
 40
1.0
 40
1.0
 40
1.0
 40
1.0
 10
-52.1047
 20
-68.8806
 30
0.0
 10
-54.821
 20
-67.6925
 30
0.0
 10
-56.7203
 20
-66.9514
 30
0.0
 10
-60.1898
 20
-66.4281
 30
0.0
 10
-60.1898
 20
-66.4281
 30
0.0
 10
-59.8988
 20
-69.2782
 30
0.0
 10
-58.9254
 20
-71.9519
 30
0.0
 10
-57.7373
 20
-74.6295
 30
0.0
 10
-57.7373
 20
-74.6295
 30
0.0
 10
-56.2271
 20
-72.537
 30
0.0
 10
-53.9213
 20
-70.2371
 30
0.0
 10
-52.1047
 20
-68.8807
 30
0.0
 10
-52.1047
 20
-68.8807
 30
0.0
 10
-52.1047
 20
-68.8807
 30
0.0
 10
-52.1047
 20
-68.8806
 30
0.0
 10
-52.1047
 20
-68.8806
 30
0.0
  0
SPLINE
  5
C9
330
1F
100
AcDbEntity
  8
layer 1
 62
     7
100
AcDbSpline
210
0.0
220
0.0
230
1.0
 70
    11
 71
     3
 72
    20
 73
    16
 74
     0
 42
0.0000000001
 43
0.0000000001
 12
1.0
 22
0.0
 32
0.0
 13
1.0
 23
0.0
 33
0.0
 40
0.0
 40
0.0
 40
0.0
 40
0.0
 40
0.2
 40
0.2
 40
0.2
 40
0.2
 40
0.4
 40
0.4
 40
0.4
 40
0.4
 40
0.6
 40
0.6
 40
0.6
 40
0.6
 40
1.0
 40
1.0
 40
1.0
 40
1.0
 10
-29.854
 20
-63.1307
 30
0.0
 10
-26.0723
 20
-63.6534
 30
0.0
 10
-22.097
 20
-65.0473
 30
0.0
 10
-19.0898
 20
-66.8671
 30
0.0
 10
-19.0898
 20
-66.8671
 30
0.0
 10
-16.0826
 20
-65.0473
 30
0.0
 10
-12.1073
 20
-63.6533
 30
0.0
 10
-8.3257
 20
-63.1307
 30
0.0
 10
-8.3257
 20
-63.1307
 30
0.0
 10
-12.1073
 20
-62.6079
 30
0.0
 10
-16.0826
 20
-61.2141
 30
0.0
 10
-19.0898
 20
-59.3942
 30
0.0
 10
-19.0898
 20
-59.3942
 30
0.0
 10
-22.097
 20
-61.2141
 30
0.0
 10
-26.0723
 20
-62.608
 30
0.0
 10
-29.854
 20
-63.1307
 30
0.0
  0
SPLINE
  5
CA
330
1F
100
AcDbEntity
  8
layer 1
 62
     7
100
AcDbSpline
210
0.0
220
0.0
230
1.0
 70
    11
 71
     3
 72
    20
 73
    16
 74
     0
 42
0.0000000001
 43
0.0000000001
 12
1.0
 22
0.0
 32
0.0
 13
1.0
 23
0.0
 33
0.0
 40
0.0
 40
0.0
 40
0.0
 40
0.0
 40
0.2
 40
0.2
 40
0.2
 40
0.2
 40
0.4
 40
0.4
 40
0.4
 40
0.4
 40
0.6
 40
0.6
 40
0.6
 40
0.6
 40
1.0
 40
1.0
 40
1.0
 40
1.0
 10
-15.8304
 20
-57.2488
 30
0.0
 10
-13.1141
 20
-58.4368
 30
0.0
 10
-11.2148
 20
-59.178
 30
0.0
 10
-7.7452
 20
-59.7013
 30
0.0
 10
-7.7452
 20
-59.7013
 30
0.0
 10
-8.0362
 20
-56.8512
 30
0.0
 10
-9.0096
 20
-54.1775
 30
0.0
 10
-10.1977
 20
-51.4999
 30
0.0
 10
-10.1977
 20
-51.4999
 30
0.0
 10
-11.7079
 20
-53.5924
 30
0.0
 10
-14.0138
 20
-55.8922
 30
0.0
 10
-15.8304
 20
-57.2487
 30
0.0
 10
-15.8304
 20
-57.2487
 30
0.0
 10
-15.8304
 20
-57.2487
 30
0.0
 10
-15.8304
 20
-57.2488
 30
0.0
 10
-15.8304
 20
-57.2488
 30
0.0
  0
SPLINE
  5
CB
330
1F
100
AcDbEntity
  8
layer 1
 62
     7
100
AcDbSpline
210
0.0
220
0.0
230
1.0
 70
    11
 71
     3
 72
    20
 73
    16
 74
     0
 42
0.0000000001
 43
0.0000000001
 12
1.0
 22
0.0
 32
0.0
 13
1.0
 23
0.0
 33
0.0
 40
0.0
 40
0.0
 40
0.0
 40
0.0
 40
0.2
 40
0.2
 40
0.2
 40
0.2
 40
0.4
 40
0.4
 40
0.4
 40
0.4
 40
0.6
 40
0.6
 40
0.6
 40
0.6
 40
1.0
 40
1.0
 40
1.0
 40
1.0
 10
-22.3426
 20
-57.2488
 30
0.0
 10
-25.0589
 20
-58.4368
 30
0.0
 10
-26.9582
 20
-59.178
 30
0.0
 10
-30.4278
 20
-59.7013
 30
0.0
 10
-30.4278
 20
-59.7013
 30
0.0
 10
-30.1368
 20
-56.8512
 30
0.0
 10
-29.1634
 20
-54.1775
 30
0.0
 10
-27.9753
 20
-51.4999
 30
0.0
 10
-27.9753
 20
-51.4999
 30
0.0
 10
-26.4651
 20
-53.5924
 30
0.0
 10
-24.1592
 20
-55.8922
 30
0.0
 10
-22.3426
 20
-57.2487
 30
0.0
 10
-22.3426
 20
-57.2487
 30
0.0
 10
-22.3426
 20
-57.2487
 30
0.0
 10
-22.3426
 20
-57.2488
 30
0.0
 10
-22.3426
 20
-57.2488
 30
0.0
  0
SPLINE
  5
CC
330
1F
100
AcDbEntity
  8
layer 1
 62
     7
100
AcDbSpline
210
0.0
220
0.0
230
1.0
 70
    11
 71
     3
 72
    24
 73
    20
 74
     0
 42
0.0000000001
 43
0.0000000001
 12
1.0
 22
0.0
 32
0.0
 13
1.0
 23
0.0
 33
0.0
 40
0.0
 40
0.0
 40
0.0
 40
0.0
 40
0.1666666666666667
 40
0.1666666666666667
 40
0.1666666666666667
 40
0.1666666666666667
 40
0.3333333333333333
 40
0.3333333333333333
 40
0.3333333333333333
 40
0.3333333333333333
 40
0.5
 40
0.5
 40
0.5
 40
0.5
 40
0.6666666666666666
 40
0.6666666666666666
 40
0.6666666666666666
 40
0.6666666666666666
 40
1.0
 40
1.0
 40
1.0
 40
1.0
 10
-26.137
 20
-48.1969
 30
0.0
 10
-24.8091
 20
-50.2631
 30
0.0
 10
-22.1399
 20
-53.3193
 30
0.0
 10
-19.0931
 20
-55.2579
 30
0.0
 10
-19.0931
 20
-55.2579
 30
0.0
 10
-15.6505
 20
-53.0027
 30
0.0
 10
-13.4959
 20
-50.184
 30
0.0
 10
-12.0492
 20
-48.2365
 30
0.0
 10
-12.0492
 20
-48.2365
 30
0.0
 10
-12.9814
 20
-46.5265
 30
0.0
 10
-16.2046
 20
-42.8767
 30
0.0
 10
-19.2119
 20
-41.0568
 30
0.0
 10
-19.2119
 20
-41.0568
 30
0.0
 10
-22.2191
 20
-43.1537
 30
0.0
 10
-24.6904
 20
-46.0911
 30
0.0
 10
-26.1371
 20
-48.197
 30
0.0
 10
-26.1371
 20
-48.197
 30
0.0
 10
-26.1371
 20
-48.197
 30
0.0
 10
-26.137
 20
-48.1969
 30
0.0
 10
-26.137
 20
-48.1969
 30
0.0
  0
SPLINE
  5
CD
330
1F
100
AcDbEntity
  8
layer 1
 62
     7
100
AcDbSpline
210
0.0
220
0.0
230
1.0
 70
    11
 71
     3
 72
    20
 73
    16
 74
     0
 42
0.0000000001
 43
0.0000000001
 12
1.0
 22
0.0
 32
0.0
 13
1.0
 23
0.0
 33
0.0
 40
0.0
 40
0.0
 40
0.0
 40
0.0
 40
0.2
 40
0.2
 40
0.2
 40
0.2
 40
0.4
 40
0.4
 40
0.4
 40
0.4
 40
0.6
 40
0.6
 40
0.6
 40
0.6
 40
1.0
 40
1.0
 40
1.0
 40
1.0
 10
-15.8304
 20
-68.8806
 30
0.0
 10
-13.1141
 20
-67.6925
 30
0.0
 10
-11.2148
 20
-66.9514
 30
0.0
 10
-7.7452
 20
-66.4281
 30
0.0
 10
-7.7452
 20
-66.4281
 30
0.0
 10
-8.0362
 20
-69.2782
 30
0.0
 10
-9.0096
 20
-71.9519
 30
0.0
 10
-10.1977
 20
-74.6295
 30
0.0
 10
-10.1977
 20
-74.6295
 30
0.0
 10
-11.7079
 20
-72.537
 30
0.0
 10
-14.0138
 20
-70.2371
 30
0.0
 10
-15.8304
 20
-68.8807
 30
0.0
 10
-15.8304
 20
-68.8807
 30
0.0
 10
-15.8304
 20
-68.8807
 30
0.0
 10
-15.8304
 20
-68.8806
 30
0.0
 10
-15.8304
 20
-68.8806
 30
0.0
  0
SPLINE
  5
CE
330
1F
100
AcDbEntity
  8
layer 1
 62
     7
100
AcDbSpline
210
0.0
220
0.0
230
1.0
 70
    11
 71
     3
 72
    20
 73
    16
 74
     0
 42
0.0000000001
 43
0.0000000001
 12
1.0
 22
0.0
 32
0.0
 13
1.0
 23
0.0
 33
0.0
 40
0.0
 40
0.0
 40
0.0
 40
0.0
 40
0.2
 40
0.2
 40
0.2
 40
0.2
 40
0.4
 40
0.4
 40
0.4
 40
0.4
 40
0.6
 40
0.6
 40
0.6
 40
0.6
 40
1.0
 40
1.0
 40
1.0
 40
1.0
 10
-22.3426
 20
-68.8806
 30
0.0
 10
-25.0589
 20
-67.6925
 30
0.0
 10
-26.9582
 20
-66.9514
 30
0.0
 10
-30.4278
 20
-66.4281
 30
0.0
 10
-30.4278
 20
-66.4281
 30
0.0
 10
-30.1368
 20
-69.2782
 30
0.0
 10
-29.1634
 20
-71.9519
 30
0.0
 10
-27.9753
 20
-74.6295
 30
0.0
 10
-27.9753
 20
-74.6295
 30
0.0
 10
-26.4651
 20
-72.537
 30
0.0
 10
-24.1592
 20
-70.2371
 30
0.0
 10
-22.3426
 20
-68.8807
 30
0.0
 10
-22.3426
 20
-68.8807
 30
0.0
 10
-22.3426
 20
-68.8807
 30
0.0
 10
-22.3426
 20
-68.8806
 30
0.0
 10
-22.3426
 20
-68.8806
 30
0.0
  0
SPLINE
  5
CF
330
1F
100
AcDbEntity
  8
layer 1
 62
     7
100
AcDbSpline
210
0.0
220
0.0
230
1.0
 70
    11
 71
     3
 72
    20
 73
    16
 74
     0
 42
0.0000000001
 43
0.0000000001
 12
1.0
 22
0.0
 32
0.0
 13
1.0
 23
0.0
 33
0.0
 40
0.0
 40
0.0
 40
0.0
 40
0.0
 40
0.2
 40
0.2
 40
0.2
 40
0.2
 40
0.4
 40
0.4
 40
0.4
 40
0.4
 40
0.6
 40
0.6
 40
0.6
 40
0.6
 40
1.0
 40
1.0
 40
1.0
 40
1.0
 10
26.1181
 20
-58.9008
 30
0.0
 10
26.6408
 20
-55.1192
 30
0.0
 10
28.0347
 20
-51.1439
 30
0.0
 10
29.8545
 20
-48.1367
 30
0.0
 10
29.8545
 20
-48.1367
 30
0.0
 10
28.0347
 20
-45.1295
 30
0.0
 10
26.6407
 20
-41.1542
 30
0.0
 10
26.1181
 20
-37.3725
 30
0.0
 10
26.1181
 20
-37.3725
 30
0.0
 10
25.5953
 20
-41.1542
 30
0.0
 10
24.2015
 20
-45.1295
 30
0.0
 10
22.3816
 20
-48.1367
 30
0.0
 10
22.3816
 20
-48.1367
 30
0.0
 10
24.2015
 20
-51.1439
 30
0.0
 10
25.5954
 20
-55.1192
 30
0.0
 10
26.1181
 20
-58.9008
 30
0.0
  0
SPLINE
  5
D0
330
1F
100
AcDbEntity
  8
layer 1
 62
     7
100
AcDbSpline
210
0.0
220
0.0
230
1.0
 70
    11
 71
     3
 72
    20
 73
    16
 74
     0
 42
0.0000000001
 43
0.0000000001
 12
1.0
 22
0.0
 32
0.0
 13
1.0
 23
0.0
 33
0.0
 40
0.0
 40
0.0
 40
0.0
 40
0.0
 40
0.2
 40
0.2
 40
0.2
 40
0.2
 40
0.4
 40
0.4
 40
0.4
 40
0.4
 40
0.6
 40
0.6
 40
0.6
 40
0.6
 40
1.0
 40
1.0
 40
1.0
 40
1.0
 10
-4.0507
 20
-58.9008
 30
0.0
 10
-3.528
 20
-55.1192
 30
0.0
 10
-2.1341
 20
-51.1439
 30
0.0
 10
-0.3143
 20
-48.1367
 30
0.0
 10
-0.3143
 20
-48.1367
 30
0.0
 10
-2.1341
 20
-45.1295
 30
0.0
 10
-3.528
 20
-41.1542
 30
0.0
 10
-4.0507
 20
-37.3725
 30
0.0
 10
-4.0507
 20
-37.3725
 30
0.0
 10
-4.5734
 20
-41.1542
 30
0.0
 10
-5.9673
 20
-45.1295
 30
0.0
 10
-7.7871
 20
-48.1367
 30
0.0
 10
-7.7871
 20
-48.1367
 30
0.0
 10
-5.9673
 20
-51.1439
 30
0.0
 10
-4.5734
 20
-55.1192
 30
0.0
 10
-4.0507
 20
-58.9008
 30
0.0
  0
SPLINE
  5
D1
330
1F
100
AcDbEntity
  8
layer 1
 62
     7
100
AcDbSpline
210
0.0
220
0.0
230
1.0
 70
    11
 71
     3
 72
    20
 73
    16
 74
     0
 42
0.0000000001
 43
0.0000000001
 12
1.0
 22
0.0
 32
0.0
 13
1.0
 23
0.0
 33
0.0
 40
0.0
 40
0.0
 40
0.0
 40
0.0
 40
0.2
 40
0.2
 40
0.2
 40
0.2
 40
0.4
 40
0.4
 40
0.4
 40
0.4
 40
0.6
 40
0.6
 40
0.6
 40
0.6
 40
1.0
 40
1.0
 40
1.0
 40
1.0
 10
-34.4002
 20
-58.9008
 30
0.0
 10
-33.8774
 20
-55.1192
 30
0.0
 10
-32.4835
 20
-51.1439
 30
0.0
 10
-30.6637
 20
-48.1367
 30
0.0
 10
-30.6637
 20
-48.1367
 30
0.0
 10
-32.4835
 20
-45.1295
 30
0.0
 10
-33.8775
 20
-41.1542
 30
0.0
 10
-34.4002
 20
-37.3725
 30
0.0
 10
-34.4002
 20
-37.3725
 30
0.0
 10
-34.9229
 20
-41.1542
 30
0.0
 10
-36.3168
 20
-45.1295
 30
0.0
 10
-38.1366
 20
-48.1367
 30
0.0
 10
-38.1366
 20
-48.1367
 30
0.0
 10
-36.3168
 20
-51.1439
 30
0.0
 10
-34.9228
 20
-55.1192
 30
0.0
 10
-34.4002
 20
-58.9008
 30
0.0
  0
SPLINE
  5
D2
330
1F
100
AcDbEntity
  8
layer 1
 62
     7
100
AcDbSpline
210
0.0
220
0.0
230
1.0
 70
    11
 71
     3
 72
    16
 73
    12
 74
     0
 42
0.0000000001
 43
0.0000000001
 12
1.0
 22
0.0
 32
0.0
 13
1.0
 23
0.0
 33
0.0
 40
0.0
 40
0.0
 40
0.0
 40
0.0
 40
0.25
 40
0.25
 40
0.25
 40
0.25
 40
0.5
 40
0.5
 40
0.5
 40
0.5
 40
1.0
 40
1.0
 40
1.0
 40
1.0
 10
-63.9115
 20
-58.9008
 30
0.0
 10
-63.3888
 20
-55.1192
 30
0.0
 10
-61.9949
 20
-51.1439
 30
0.0
 10
-60.1751
 20
-48.1367
 30
0.0
 10
-60.1751
 20
-48.1367
 30
0.0
 10
-61.9949
 20
-45.1295
 30
0.0
 10
-63.3889
 20
-41.1542
 30
0.0
 10
-63.9115
 20
-37.3725
 30
0.0
 10
-63.9115
 20
-37.3725
 30
0.0
 10
-63.9115
 20
-37.3725
 30
0.0
 10
-63.9115
 20
-58.9008
 30
0.0
 10
-63.9115
 20
-58.9008
 30
0.0
  0
SPLINE
  5
D3
330
1F
100
AcDbEntity
  8
layer 1
 62
     7
100
AcDbSpline
210
0.0
220
0.0
230
1.0
 70
    11
 71
     3
 72
    16
 73
    12
 74
     0
 42
0.0000000001
 43
0.0000000001
 12
1.0
 22
0.0
 32
0.0
 13
1.0
 23
0.0
 33
0.0
 40
0.0
 40
0.0
 40
0.0
 40
0.0
 40
0.25
 40
0.25
 40
0.25
 40
0.25
 40
0.5
 40
0.5
 40
0.5
 40
0.5
 40
1.0
 40
1.0
 40
1.0
 40
1.0
 10
56.0258
 20
-58.9008
 30
0.0
 10
55.503
 20
-55.1192
 30
0.0
 10
54.1092
 20
-51.1439
 30
0.0
 10
52.2893
 20
-48.1367
 30
0.0
 10
52.2893
 20
-48.1367
 30
0.0
 10
54.1092
 20
-45.1295
 30
0.0
 10
55.5031
 20
-41.1542
 30
0.0
 10
56.0258
 20
-37.3725
 30
0.0
 10
56.0258
 20
-37.3725
 30
0.0
 10
56.0258
 20
-37.3725
 30
0.0
 10
56.0258
 20
-58.9008
 30
0.0
 10
56.0258
 20
-58.9008
 30
0.0
  0
SPLINE
  5
D4
330
1F
100
AcDbEntity
  8
layer 1
 62
     7
100
AcDbSpline
210
0.0
220
0.0
230
1.0
 70
    11
 71
     3
 72
    20
 73
    16
 74
     0
 42
0.0000000001
 43
0.0000000001
 12
1.0
 22
0.0
 32
0.0
 13
1.0
 23
0.0
 33
0.0
 40
0.0
 40
0.0
 40
0.0
 40
0.0
 40
0.2
 40
0.2
 40
0.2
 40
0.2
 40
0.4
 40
0.4
 40
0.4
 40
0.4
 40
0.6
 40
0.6
 40
0.6
 40
0.6
 40
1.0
 40
1.0
 40
1.0
 40
1.0
 10
0.2247
 20
-33.2859
 30
0.0
 10
4.0063
 20
-33.8087
 30
0.0
 10
7.9816
 20
-35.2026
 30
0.0
 10
10.9888
 20
-37.0224
 30
0.0
 10
10.9888
 20
-37.0224
 30
0.0
 10
13.996
 20
-35.2026
 30
0.0
 10
17.9713
 20
-33.8086
 30
0.0
 10
21.7529
 20
-33.2859
 30
0.0
 10
21.7529
 20
-33.2859
 30
0.0
 10
17.9713
 20
-32.7632
 30
0.0
 10
13.996
 20
-31.3693
 30
0.0
 10
10.9888
 20
-29.5495
 30
0.0
 10
10.9888
 20
-29.5495
 30
0.0
 10
7.9816
 20
-31.3693
 30
0.0
 10
4.0063
 20
-32.7633
 30
0.0
 10
0.2247
 20
-33.2859
 30
0.0
  0
SPLINE
  5
D5
330
1F
100
AcDbEntity
  8
layer 1
 62
     7
100
AcDbSpline
210
0.0
220
0.0
230
1.0
 70
    11
 71
     3
 72
    20
 73
    16
 74
     0
 42
0.0000000001
 43
0.0000000001
 12
1.0
 22
0.0
 32
0.0
 13
1.0
 23
0.0
 33
0.0
 40
0.0
 40
0.0
 40
0.0
 40
0.0
 40
0.2
 40
0.2
 40
0.2
 40
0.2
 40
0.4
 40
0.4
 40
0.4
 40
0.4
 40
0.6
 40
0.6
 40
0.6
 40
0.6
 40
1.0
 40
1.0
 40
1.0
 40
1.0
 10
14.2482
 20
-27.404
 30
0.0
 10
16.9645
 20
-28.5921
 30
0.0
 10
18.8638
 20
-29.3332
 30
0.0
 10
22.3334
 20
-29.8565
 30
0.0
 10
22.3334
 20
-29.8565
 30
0.0
 10
22.0424
 20
-27.0065
 30
0.0
 10
21.069
 20
-24.3328
 30
0.0
 10
19.8809
 20
-21.6552
 30
0.0
 10
19.8809
 20
-21.6552
 30
0.0
 10
18.3707
 20
-23.7477
 30
0.0
 10
16.0648
 20
-26.0475
 30
0.0
 10
14.2482
 20
-27.404
 30
0.0
 10
14.2482
 20
-27.404
 30
0.0
 10
14.2482
 20
-27.404
 30
0.0
 10
14.2482
 20
-27.404
 30
0.0
 10
14.2482
 20
-27.404
 30
0.0
  0
SPLINE
  5
D6
330
1F
100
AcDbEntity
  8
layer 1
 62
     7
100
AcDbSpline
210
0.0
220
0.0
230
1.0
 70
    11
 71
     3
 72
    20
 73
    16
 74
     0
 42
0.0000000001
 43
0.0000000001
 12
1.0
 22
0.0
 32
0.0
 13
1.0
 23
0.0
 33
0.0
 40
0.0
 40
0.0
 40
0.0
 40
0.0
 40
0.2
 40
0.2
 40
0.2
 40
0.2
 40
0.4
 40
0.4
 40
0.4
 40
0.4
 40
0.6
 40
0.6
 40
0.6
 40
0.6
 40
1.0
 40
1.0
 40
1.0
 40
1.0
 10
7.736
 20
-27.404
 30
0.0
 10
5.0197
 20
-28.5921
 30
0.0
 10
3.1204
 20
-29.3332
 30
0.0
 10
-0.3491
 20
-29.8565
 30
0.0
 10
-0.3491
 20
-29.8565
 30
0.0
 10
-0.0582
 20
-27.0065
 30
0.0
 10
0.9153
 20
-24.3328
 30
0.0
 10
2.1033
 20
-21.6552
 30
0.0
 10
2.1033
 20
-21.6552
 30
0.0
 10
3.6135
 20
-23.7477
 30
0.0
 10
5.9194
 20
-26.0475
 30
0.0
 10
7.736
 20
-27.404
 30
0.0
 10
7.736
 20
-27.404
 30
0.0
 10
7.736
 20
-27.404
 30
0.0
 10
7.736
 20
-27.404
 30
0.0
 10
7.736
 20
-27.404
 30
0.0
  0
SPLINE
  5
D7
330
1F
100
AcDbEntity
  8
layer 1
 62
     7
100
AcDbSpline
210
0.0
220
0.0
230
1.0
 70
    11
 71
     3
 72
    24
 73
    20
 74
     0
 42
0.0000000001
 43
0.0000000001
 12
1.0
 22
0.0
 32
0.0
 13
1.0
 23
0.0
 33
0.0
 40
0.0
 40
0.0
 40
0.0
 40
0.0
 40
0.1666666666666667
 40
0.1666666666666667
 40
0.1666666666666667
 40
0.1666666666666667
 40
0.3333333333333333
 40
0.3333333333333333
 40
0.3333333333333333
 40
0.3333333333333333
 40
0.5
 40
0.5
 40
0.5
 40
0.5
 40
0.6666666666666666
 40
0.6666666666666666
 40
0.6666666666666666
 40
0.6666666666666666
 40
1.0
 40
1.0
 40
1.0
 40
1.0
 10
3.9416
 20
-18.3521
 30
0.0
 10
5.2695
 20
-20.4183
 30
0.0
 10
7.9387
 20
-23.4745
 30
0.0
 10
10.9855
 20
-25.4131
 30
0.0
 10
10.9855
 20
-25.4131
 30
0.0
 10
14.4281
 20
-23.1579
 30
0.0
 10
16.5828
 20
-20.3392
 30
0.0
 10
18.0294
 20
-18.3917
 30
0.0
 10
18.0294
 20
-18.3917
 30
0.0
 10
17.0973
 20
-16.6817
 30
0.0
 10
13.874
 20
-13.0319
 30
0.0
 10
10.8667
 20
-11.212
 30
0.0
 10
10.8667
 20
-11.212
 30
0.0
 10
7.8595
 20
-13.3089
 30
0.0
 10
5.3882
 20
-16.2463
 30
0.0
 10
3.9416
 20
-18.3522
 30
0.0
 10
3.9416
 20
-18.3522
 30
0.0
 10
3.9416
 20
-18.3522
 30
0.0
 10
3.9416
 20
-18.3521
 30
0.0
 10
3.9416
 20
-18.3521
 30
0.0
  0
SPLINE
  5
D8
330
1F
100
AcDbEntity
  8
layer 1
 62
     7
100
AcDbSpline
210
0.0
220
0.0
230
1.0
 70
    11
 71
     3
 72
    20
 73
    16
 74
     0
 42
0.0000000001
 43
0.0000000001
 12
1.0
 22
0.0
 32
0.0
 13
1.0
 23
0.0
 33
0.0
 40
0.0
 40
0.0
 40
0.0
 40
0.0
 40
0.2
 40
0.2
 40
0.2
 40
0.2
 40
0.4
 40
0.4
 40
0.4
 40
0.4
 40
0.6
 40
0.6
 40
0.6
 40
0.6
 40
1.0
 40
1.0
 40
1.0
 40
1.0
 10
14.2482
 20
-39.0359
 30
0.0
 10
16.9645
 20
-37.8478
 30
0.0
 10
18.8638
 20
-37.1067
 30
0.0
 10
22.3334
 20
-36.5834
 30
0.0
 10
22.3334
 20
-36.5834
 30
0.0
 10
22.0424
 20
-39.4334
 30
0.0
 10
21.069
 20
-42.1071
 30
0.0
 10
19.8809
 20
-44.7847
 30
0.0
 10
19.8809
 20
-44.7847
 30
0.0
 10
18.3707
 20
-42.6922
 30
0.0
 10
16.0648
 20
-40.3924
 30
0.0
 10
14.2482
 20
-39.0359
 30
0.0
 10
14.2482
 20
-39.0359
 30
0.0
 10
14.2482
 20
-39.0359
 30
0.0
 10
14.2482
 20
-39.0359
 30
0.0
 10
14.2482
 20
-39.0359
 30
0.0
  0
SPLINE
  5
D9
330
1F
100
AcDbEntity
  8
layer 1
 62
     7
100
AcDbSpline
210
0.0
220
0.0
230
1.0
 70
    11
 71
     3
 72
    20
 73
    16
 74
     0
 42
0.0000000001
 43
0.0000000001
 12
1.0
 22
0.0
 32
0.0
 13
1.0
 23
0.0
 33
0.0
 40
0.0
 40
0.0
 40
0.0
 40
0.0
 40
0.2
 40
0.2
 40
0.2
 40
0.2
 40
0.4
 40
0.4
 40
0.4
 40
0.4
 40
0.6
 40
0.6
 40
0.6
 40
0.6
 40
1.0
 40
1.0
 40
1.0
 40
1.0
 10
7.736
 20
-39.0359
 30
0.0
 10
5.0197
 20
-37.8478
 30
0.0
 10
3.1204
 20
-37.1067
 30
0.0
 10
-0.3491
 20
-36.5834
 30
0.0
 10
-0.3491
 20
-36.5834
 30
0.0
 10
-0.0582
 20
-39.4334
 30
0.0
 10
0.9153
 20
-42.1071
 30
0.0
 10
2.1033
 20
-44.7847
 30
0.0
 10
2.1033
 20
-44.7847
 30
0.0
 10
3.6135
 20
-42.6922
 30
0.0
 10
5.9194
 20
-40.3924
 30
0.0
 10
7.736
 20
-39.0359
 30
0.0
 10
7.736
 20
-39.0359
 30
0.0
 10
7.736
 20
-39.0359
 30
0.0
 10
7.736
 20
-39.0359
 30
0.0
 10
7.736
 20
-39.0359
 30
0.0
  0
SPLINE
  5
DA
330
1F
100
AcDbEntity
  8
layer 1
 62
     7
100
AcDbSpline
210
0.0
220
0.0
230
1.0
 70
    11
 71
     3
 72
    20
 73
    16
 74
     0
 42
0.0000000001
 43
0.0000000001
 12
1.0
 22
0.0
 32
0.0
 13
1.0
 23
0.0
 33
0.0
 40
0.0
 40
0.0
 40
0.0
 40
0.0
 40
0.2
 40
0.2
 40
0.2
 40
0.2
 40
0.4
 40
0.4
 40
0.4
 40
0.4
 40
0.6
 40
0.6
 40
0.6
 40
0.6
 40
1.0
 40
1.0
 40
1.0
 40
1.0
 10
29.9867
 20
-33.2859
 30
0.0
 10
33.7684
 20
-33.8087
 30
0.0
 10
37.7436
 20
-35.2026
 30
0.0
 10
40.7509
 20
-37.0224
 30
0.0
 10
40.7509
 20
-37.0224
 30
0.0
 10
43.7581
 20
-35.2026
 30
0.0
 10
47.7334
 20
-33.8086
 30
0.0
 10
51.515
 20
-33.2859
 30
0.0
 10
51.515
 20
-33.2859
 30
0.0
 10
47.7334
 20
-32.7632
 30
0.0
 10
43.7581
 20
-31.3693
 30
0.0
 10
40.7509
 20
-29.5495
 30
0.0
 10
40.7509
 20
-29.5495
 30
0.0
 10
37.7436
 20
-31.3693
 30
0.0
 10
33.7684
 20
-32.7633
 30
0.0
 10
29.9867
 20
-33.2859
 30
0.0
  0
SPLINE
  5
DB
330
1F
100
AcDbEntity
  8
layer 1
 62
     7
100
AcDbSpline
210
0.0
220
0.0
230
1.0
 70
    11
 71
     3
 72
    20
 73
    16
 74
     0
 42
0.0000000001
 43
0.0000000001
 12
1.0
 22
0.0
 32
0.0
 13
1.0
 23
0.0
 33
0.0
 40
0.0
 40
0.0
 40
0.0
 40
0.0
 40
0.2
 40
0.2
 40
0.2
 40
0.2
 40
0.4
 40
0.4
 40
0.4
 40
0.4
 40
0.6
 40
0.6
 40
0.6
 40
0.6
 40
1.0
 40
1.0
 40
1.0
 40
1.0
 10
44.0103
 20
-27.404
 30
0.0
 10
46.7266
 20
-28.5921
 30
0.0
 10
48.6259
 20
-29.3332
 30
0.0
 10
52.0954
 20
-29.8565
 30
0.0
 10
52.0954
 20
-29.8565
 30
0.0
 10
51.8045
 20
-27.0065
 30
0.0
 10
50.831
 20
-24.3328
 30
0.0
 10
49.643
 20
-21.6552
 30
0.0
 10
49.643
 20
-21.6552
 30
0.0
 10
48.1327
 20
-23.7477
 30
0.0
 10
45.8269
 20
-26.0475
 30
0.0
 10
44.0103
 20
-27.404
 30
0.0
 10
44.0103
 20
-27.404
 30
0.0
 10
44.0103
 20
-27.404
 30
0.0
 10
44.0103
 20
-27.404
 30
0.0
 10
44.0103
 20
-27.404
 30
0.0
  0
SPLINE
  5
DC
330
1F
100
AcDbEntity
  8
layer 1
 62
     7
100
AcDbSpline
210
0.0
220
0.0
230
1.0
 70
    11
 71
     3
 72
    20
 73
    16
 74
     0
 42
0.0000000001
 43
0.0000000001
 12
1.0
 22
0.0
 32
0.0
 13
1.0
 23
0.0
 33
0.0
 40
0.0
 40
0.0
 40
0.0
 40
0.0
 40
0.2
 40
0.2
 40
0.2
 40
0.2
 40
0.4
 40
0.4
 40
0.4
 40
0.4
 40
0.6
 40
0.6
 40
0.6
 40
0.6
 40
1.0
 40
1.0
 40
1.0
 40
1.0
 10
37.498
 20
-27.404
 30
0.0
 10
34.7817
 20
-28.5921
 30
0.0
 10
32.8824
 20
-29.3332
 30
0.0
 10
29.4128
 20
-29.8565
 30
0.0
 10
29.4128
 20
-29.8565
 30
0.0
 10
29.7038
 20
-27.0065
 30
0.0
 10
30.6772
 20
-24.3328
 30
0.0
 10
31.8653
 20
-21.6552
 30
0.0
 10
31.8653
 20
-21.6552
 30
0.0
 10
33.3755
 20
-23.7477
 30
0.0
 10
35.6814
 20
-26.0475
 30
0.0
 10
37.498
 20
-27.404
 30
0.0
 10
37.498
 20
-27.404
 30
0.0
 10
37.498
 20
-27.404
 30
0.0
 10
37.498
 20
-27.404
 30
0.0
 10
37.498
 20
-27.404
 30
0.0
  0
SPLINE
  5
DD
330
1F
100
AcDbEntity
  8
layer 1
 62
     7
100
AcDbSpline
210
0.0
220
0.0
230
1.0
 70
    11
 71
     3
 72
    24
 73
    20
 74
     0
 42
0.0000000001
 43
0.0000000001
 12
1.0
 22
0.0
 32
0.0
 13
1.0
 23
0.0
 33
0.0
 40
0.0
 40
0.0
 40
0.0
 40
0.0
 40
0.1666666666666667
 40
0.1666666666666667
 40
0.1666666666666667
 40
0.1666666666666667
 40
0.3333333333333333
 40
0.3333333333333333
 40
0.3333333333333333
 40
0.3333333333333333
 40
0.5
 40
0.5
 40
0.5
 40
0.5
 40
0.6666666666666666
 40
0.6666666666666666
 40
0.6666666666666666
 40
0.6666666666666666
 40
1.0
 40
1.0
 40
1.0
 40
1.0
 10
33.7036
 20
-18.3521
 30
0.0
 10
35.0315
 20
-20.4183
 30
0.0
 10
37.7007
 20
-23.4745
 30
0.0
 10
40.7475
 20
-25.4131
 30
0.0
 10
40.7475
 20
-25.4131
 30
0.0
 10
44.1901
 20
-23.1579
 30
0.0
 10
46.3448
 20
-20.3392
 30
0.0
 10
47.7914
 20
-18.3917
 30
0.0
 10
47.7914
 20
-18.3917
 30
0.0
 10
46.8593
 20
-16.6817
 30
0.0
 10
43.636
 20
-13.0319
 30
0.0
 10
40.6287
 20
-11.212
 30
0.0
 10
40.6287
 20
-11.212
 30
0.0
 10
37.6215
 20
-13.3089
 30
0.0
 10
35.1502
 20
-16.2463
 30
0.0
 10
33.7035
 20
-18.3522
 30
0.0
 10
33.7035
 20
-18.3522
 30
0.0
 10
33.7035
 20
-18.3522
 30
0.0
 10
33.7036
 20
-18.3521
 30
0.0
 10
33.7036
 20
-18.3521
 30
0.0
  0
SPLINE
  5
DE
330
1F
100
AcDbEntity
  8
layer 1
 62
     7
100
AcDbSpline
210
0.0
220
0.0
230
1.0
 70
    11
 71
     3
 72
    20
 73
    16
 74
     0
 42
0.0000000001
 43
0.0000000001
 12
1.0
 22
0.0
 32
0.0
 13
1.0
 23
0.0
 33
0.0
 40
0.0
 40
0.0
 40
0.0
 40
0.0
 40
0.2
 40
0.2
 40
0.2
 40
0.2
 40
0.4
 40
0.4
 40
0.4
 40
0.4
 40
0.6
 40
0.6
 40
0.6
 40
0.6
 40
1.0
 40
1.0
 40
1.0
 40
1.0
 10
44.0103
 20
-39.0359
 30
0.0
 10
46.7266
 20
-37.8478
 30
0.0
 10
48.6259
 20
-37.1067
 30
0.0
 10
52.0954
 20
-36.5834
 30
0.0
 10
52.0954
 20
-36.5834
 30
0.0
 10
51.8045
 20
-39.4334
 30
0.0
 10
50.831
 20
-42.1071
 30
0.0
 10
49.643
 20
-44.7847
 30
0.0
 10
49.643
 20
-44.7847
 30
0.0
 10
48.1327
 20
-42.6922
 30
0.0
 10
45.8269
 20
-40.3924
 30
0.0
 10
44.0103
 20
-39.0359
 30
0.0
 10
44.0103
 20
-39.0359
 30
0.0
 10
44.0103
 20
-39.0359
 30
0.0
 10
44.0103
 20
-39.0359
 30
0.0
 10
44.0103
 20
-39.0359
 30
0.0
  0
SPLINE
  5
DF
330
1F
100
AcDbEntity
  8
layer 1
 62
     7
100
AcDbSpline
210
0.0
220
0.0
230
1.0
 70
    11
 71
     3
 72
    20
 73
    16
 74
     0
 42
0.0000000001
 43
0.0000000001
 12
1.0
 22
0.0
 32
0.0
 13
1.0
 23
0.0
 33
0.0
 40
0.0
 40
0.0
 40
0.0
 40
0.0
 40
0.2
 40
0.2
 40
0.2
 40
0.2
 40
0.4
 40
0.4
 40
0.4
 40
0.4
 40
0.6
 40
0.6
 40
0.6
 40
0.6
 40
1.0
 40
1.0
 40
1.0
 40
1.0
 10
37.498
 20
-39.0359
 30
0.0
 10
34.7817
 20
-37.8478
 30
0.0
 10
32.8824
 20
-37.1067
 30
0.0
 10
29.4128
 20
-36.5834
 30
0.0
 10
29.4128
 20
-36.5834
 30
0.0
 10
29.7038
 20
-39.4334
 30
0.0
 10
30.6772
 20
-42.1071
 30
0.0
 10
31.8653
 20
-44.7847
 30
0.0
 10
31.8653
 20
-44.7847
 30
0.0
 10
33.3755
 20
-42.6922
 30
0.0
 10
35.6814
 20
-40.3924
 30
0.0
 10
37.498
 20
-39.0359
 30
0.0
 10
37.498
 20
-39.0359
 30
0.0
 10
37.498
 20
-39.0359
 30
0.0
 10
37.498
 20
-39.0359
 30
0.0
 10
37.498
 20
-39.0359
 30
0.0
  0
SPLINE
  5
E0
330
1F
100
AcDbEntity
  8
layer 1
 62
     7
100
AcDbSpline
210
0.0
220
0.0
230
1.0
 70
    11
 71
     3
 72
    20
 73
    16
 74
     0
 42
0.0000000001
 43
0.0000000001
 12
1.0
 22
0.0
 32
0.0
 13
1.0
 23
0.0
 33
0.0
 40
0.0
 40
0.0
 40
0.0
 40
0.0
 40
0.2
 40
0.2
 40
0.2
 40
0.2
 40
0.4
 40
0.4
 40
0.4
 40
0.4
 40
0.6
 40
0.6
 40
0.6
 40
0.6
 40
1.0
 40
1.0
 40
1.0
 40
1.0
 10
-59.6159
 20
-33.2859
 30
0.0
 10
-55.8343
 20
-33.8087
 30
0.0
 10
-51.859
 20
-35.2026
 30
0.0
 10
-48.8518
 20
-37.0224
 30
0.0
 10
-48.8518
 20
-37.0224
 30
0.0
 10
-45.8446
 20
-35.2026
 30
0.0
 10
-41.8693
 20
-33.8086
 30
0.0
 10
-38.0877
 20
-33.2859
 30
0.0
 10
-38.0877
 20
-33.2859
 30
0.0
 10
-41.8693
 20
-32.7632
 30
0.0
 10
-45.8446
 20
-31.3693
 30
0.0
 10
-48.8518
 20
-29.5495
 30
0.0
 10
-48.8518
 20
-29.5495
 30
0.0
 10
-51.859
 20
-31.3693
 30
0.0
 10
-55.8343
 20
-32.7633
 30
0.0
 10
-59.6159
 20
-33.2859
 30
0.0
  0
SPLINE
  5
E1
330
1F
100
AcDbEntity
  8
layer 1
 62
     7
100
AcDbSpline
210
0.0
220
0.0
230
1.0
 70
    11
 71
     3
 72
    20
 73
    16
 74
     0
 42
0.0000000001
 43
0.0000000001
 12
1.0
 22
0.0
 32
0.0
 13
1.0
 23
0.0
 33
0.0
 40
0.0
 40
0.0
 40
0.0
 40
0.0
 40
0.2
 40
0.2
 40
0.2
 40
0.2
 40
0.4
 40
0.4
 40
0.4
 40
0.4
 40
0.6
 40
0.6
 40
0.6
 40
0.6
 40
1.0
 40
1.0
 40
1.0
 40
1.0
 10
-45.5924
 20
-27.404
 30
0.0
 10
-42.8761
 20
-28.5921
 30
0.0
 10
-40.9768
 20
-29.3332
 30
0.0
 10
-37.5072
 20
-29.8565
 30
0.0
 10
-37.5072
 20
-29.8565
 30
0.0
 10
-37.7982
 20
-27.0065
 30
0.0
 10
-38.7716
 20
-24.3328
 30
0.0
 10
-39.9597
 20
-21.6552
 30
0.0
 10
-39.9597
 20
-21.6552
 30
0.0
 10
-41.4699
 20
-23.7477
 30
0.0
 10
-43.7758
 20
-26.0475
 30
0.0
 10
-45.5924
 20
-27.404
 30
0.0
 10
-45.5924
 20
-27.404
 30
0.0
 10
-45.5924
 20
-27.404
 30
0.0
 10
-45.5924
 20
-27.404
 30
0.0
 10
-45.5924
 20
-27.404
 30
0.0
  0
SPLINE
  5
E2
330
1F
100
AcDbEntity
  8
layer 1
 62
     7
100
AcDbSpline
210
0.0
220
0.0
230
1.0
 70
    11
 71
     3
 72
    20
 73
    16
 74
     0
 42
0.0000000001
 43
0.0000000001
 12
1.0
 22
0.0
 32
0.0
 13
1.0
 23
0.0
 33
0.0
 40
0.0
 40
0.0
 40
0.0
 40
0.0
 40
0.2
 40
0.2
 40
0.2
 40
0.2
 40
0.4
 40
0.4
 40
0.4
 40
0.4
 40
0.6
 40
0.6
 40
0.6
 40
0.6
 40
1.0
 40
1.0
 40
1.0
 40
1.0
 10
-52.1047
 20
-27.404
 30
0.0
 10
-54.821
 20
-28.5921
 30
0.0
 10
-56.7203
 20
-29.3332
 30
0.0
 10
-60.1898
 20
-29.8565
 30
0.0
 10
-60.1898
 20
-29.8565
 30
0.0
 10
-59.8988
 20
-27.0065
 30
0.0
 10
-58.9254
 20
-24.3328
 30
0.0
 10
-57.7373
 20
-21.6552
 30
0.0
 10
-57.7373
 20
-21.6552
 30
0.0
 10
-56.2271
 20
-23.7477
 30
0.0
 10
-53.9213
 20
-26.0475
 30
0.0
 10
-52.1047
 20
-27.404
 30
0.0
 10
-52.1047
 20
-27.404
 30
0.0
 10
-52.1047
 20
-27.404
 30
0.0
 10
-52.1047
 20
-27.404
 30
0.0
 10
-52.1047
 20
-27.404
 30
0.0
  0
SPLINE
  5
E3
330
1F
100
AcDbEntity
  8
layer 1
 62
     7
100
AcDbSpline
210
0.0
220
0.0
230
1.0
 70
    11
 71
     3
 72
    24
 73
    20
 74
     0
 42
0.0000000001
 43
0.0000000001
 12
1.0
 22
0.0
 32
0.0
 13
1.0
 23
0.0
 33
0.0
 40
0.0
 40
0.0
 40
0.0
 40
0.0
 40
0.1666666666666667
 40
0.1666666666666667
 40
0.1666666666666667
 40
0.1666666666666667
 40
0.3333333333333333
 40
0.3333333333333333
 40
0.3333333333333333
 40
0.3333333333333333
 40
0.5
 40
0.5
 40
0.5
 40
0.5
 40
0.6666666666666666
 40
0.6666666666666666
 40
0.6666666666666666
 40
0.6666666666666666
 40
1.0
 40
1.0
 40
1.0
 40
1.0
 10
-55.899
 20
-18.3521
 30
0.0
 10
-54.5712
 20
-20.4183
 30
0.0
 10
-51.902
 20
-23.4745
 30
0.0
 10
-48.8552
 20
-25.4131
 30
0.0
 10
-48.8552
 20
-25.4131
 30
0.0
 10
-45.4125
 20
-23.1579
 30
0.0
 10
-43.2579
 20
-20.3392
 30
0.0
 10
-41.8113
 20
-18.3917
 30
0.0
 10
-41.8113
 20
-18.3917
 30
0.0
 10
-42.7434
 20
-16.6817
 30
0.0
 10
-45.9667
 20
-13.0319
 30
0.0
 10
-48.9739
 20
-11.212
 30
0.0
 10
-48.9739
 20
-11.212
 30
0.0
 10
-51.9812
 20
-13.3089
 30
0.0
 10
-54.4525
 20
-16.2463
 30
0.0
 10
-55.8991
 20
-18.3522
 30
0.0
 10
-55.8991
 20
-18.3522
 30
0.0
 10
-55.8991
 20
-18.3522
 30
0.0
 10
-55.899
 20
-18.3521
 30
0.0
 10
-55.899
 20
-18.3521
 30
0.0
  0
SPLINE
  5
E4
330
1F
100
AcDbEntity
  8
layer 1
 62
     7
100
AcDbSpline
210
0.0
220
0.0
230
1.0
 70
    11
 71
     3
 72
    20
 73
    16
 74
     0
 42
0.0000000001
 43
0.0000000001
 12
1.0
 22
0.0
 32
0.0
 13
1.0
 23
0.0
 33
0.0
 40
0.0
 40
0.0
 40
0.0
 40
0.0
 40
0.2
 40
0.2
 40
0.2
 40
0.2
 40
0.4
 40
0.4
 40
0.4
 40
0.4
 40
0.6
 40
0.6
 40
0.6
 40
0.6
 40
1.0
 40
1.0
 40
1.0
 40
1.0
 10
-45.5924
 20
-39.0359
 30
0.0
 10
-42.8761
 20
-37.8478
 30
0.0
 10
-40.9768
 20
-37.1067
 30
0.0
 10
-37.5072
 20
-36.5834
 30
0.0
 10
-37.5072
 20
-36.5834
 30
0.0
 10
-37.7982
 20
-39.4334
 30
0.0
 10
-38.7716
 20
-42.1071
 30
0.0
 10
-39.9597
 20
-44.7847
 30
0.0
 10
-39.9597
 20
-44.7847
 30
0.0
 10
-41.4699
 20
-42.6922
 30
0.0
 10
-43.7758
 20
-40.3924
 30
0.0
 10
-45.5924
 20
-39.0359
 30
0.0
 10
-45.5924
 20
-39.0359
 30
0.0
 10
-45.5924
 20
-39.0359
 30
0.0
 10
-45.5924
 20
-39.0359
 30
0.0
 10
-45.5924
 20
-39.0359
 30
0.0
  0
SPLINE
  5
E5
330
1F
100
AcDbEntity
  8
layer 1
 62
     7
100
AcDbSpline
210
0.0
220
0.0
230
1.0
 70
    11
 71
     3
 72
    20
 73
    16
 74
     0
 42
0.0000000001
 43
0.0000000001
 12
1.0
 22
0.0
 32
0.0
 13
1.0
 23
0.0
 33
0.0
 40
0.0
 40
0.0
 40
0.0
 40
0.0
 40
0.2
 40
0.2
 40
0.2
 40
0.2
 40
0.4
 40
0.4
 40
0.4
 40
0.4
 40
0.6
 40
0.6
 40
0.6
 40
0.6
 40
1.0
 40
1.0
 40
1.0
 40
1.0
 10
-52.1047
 20
-39.0359
 30
0.0
 10
-54.821
 20
-37.8478
 30
0.0
 10
-56.7203
 20
-37.1067
 30
0.0
 10
-60.1898
 20
-36.5834
 30
0.0
 10
-60.1898
 20
-36.5834
 30
0.0
 10
-59.8988
 20
-39.4334
 30
0.0
 10
-58.9254
 20
-42.1071
 30
0.0
 10
-57.7373
 20
-44.7847
 30
0.0
 10
-57.7373
 20
-44.7847
 30
0.0
 10
-56.2271
 20
-42.6922
 30
0.0
 10
-53.9213
 20
-40.3924
 30
0.0
 10
-52.1047
 20
-39.0359
 30
0.0
 10
-52.1047
 20
-39.0359
 30
0.0
 10
-52.1047
 20
-39.0359
 30
0.0
 10
-52.1047
 20
-39.0359
 30
0.0
 10
-52.1047
 20
-39.0359
 30
0.0
  0
SPLINE
  5
E6
330
1F
100
AcDbEntity
  8
layer 1
 62
     7
100
AcDbSpline
210
0.0
220
0.0
230
1.0
 70
    11
 71
     3
 72
    20
 73
    16
 74
     0
 42
0.0000000001
 43
0.0000000001
 12
1.0
 22
0.0
 32
0.0
 13
1.0
 23
0.0
 33
0.0
 40
0.0
 40
0.0
 40
0.0
 40
0.0
 40
0.2
 40
0.2
 40
0.2
 40
0.2
 40
0.4
 40
0.4
 40
0.4
 40
0.4
 40
0.6
 40
0.6
 40
0.6
 40
0.6
 40
1.0
 40
1.0
 40
1.0
 40
1.0
 10
-29.854
 20
-33.2859
 30
0.0
 10
-26.0723
 20
-33.8087
 30
0.0
 10
-22.097
 20
-35.2026
 30
0.0
 10
-19.0898
 20
-37.0224
 30
0.0
 10
-19.0898
 20
-37.0224
 30
0.0
 10
-16.0826
 20
-35.2026
 30
0.0
 10
-12.1073
 20
-33.8086
 30
0.0
 10
-8.3257
 20
-33.2859
 30
0.0
 10
-8.3257
 20
-33.2859
 30
0.0
 10
-12.1073
 20
-32.7632
 30
0.0
 10
-16.0826
 20
-31.3693
 30
0.0
 10
-19.0898
 20
-29.5495
 30
0.0
 10
-19.0898
 20
-29.5495
 30
0.0
 10
-22.097
 20
-31.3693
 30
0.0
 10
-26.0723
 20
-32.7633
 30
0.0
 10
-29.854
 20
-33.2859
 30
0.0
  0
SPLINE
  5
E7
330
1F
100
AcDbEntity
  8
layer 1
 62
     7
100
AcDbSpline
210
0.0
220
0.0
230
1.0
 70
    11
 71
     3
 72
    20
 73
    16
 74
     0
 42
0.0000000001
 43
0.0000000001
 12
1.0
 22
0.0
 32
0.0
 13
1.0
 23
0.0
 33
0.0
 40
0.0
 40
0.0
 40
0.0
 40
0.0
 40
0.2
 40
0.2
 40
0.2
 40
0.2
 40
0.4
 40
0.4
 40
0.4
 40
0.4
 40
0.6
 40
0.6
 40
0.6
 40
0.6
 40
1.0
 40
1.0
 40
1.0
 40
1.0
 10
-15.8304
 20
-27.404
 30
0.0
 10
-13.1141
 20
-28.5921
 30
0.0
 10
-11.2148
 20
-29.3332
 30
0.0
 10
-7.7452
 20
-29.8565
 30
0.0
 10
-7.7452
 20
-29.8565
 30
0.0
 10
-8.0362
 20
-27.0065
 30
0.0
 10
-9.0096
 20
-24.3328
 30
0.0
 10
-10.1977
 20
-21.6552
 30
0.0
 10
-10.1977
 20
-21.6552
 30
0.0
 10
-11.7079
 20
-23.7477
 30
0.0
 10
-14.0138
 20
-26.0475
 30
0.0
 10
-15.8304
 20
-27.404
 30
0.0
 10
-15.8304
 20
-27.404
 30
0.0
 10
-15.8304
 20
-27.404
 30
0.0
 10
-15.8304
 20
-27.404
 30
0.0
 10
-15.8304
 20
-27.404
 30
0.0
  0
SPLINE
  5
E8
330
1F
100
AcDbEntity
  8
layer 1
 62
     7
100
AcDbSpline
210
0.0
220
0.0
230
1.0
 70
    11
 71
     3
 72
    20
 73
    16
 74
     0
 42
0.0000000001
 43
0.0000000001
 12
1.0
 22
0.0
 32
0.0
 13
1.0
 23
0.0
 33
0.0
 40
0.0
 40
0.0
 40
0.0
 40
0.0
 40
0.2
 40
0.2
 40
0.2
 40
0.2
 40
0.4
 40
0.4
 40
0.4
 40
0.4
 40
0.6
 40
0.6
 40
0.6
 40
0.6
 40
1.0
 40
1.0
 40
1.0
 40
1.0
 10
-22.3426
 20
-27.404
 30
0.0
 10
-25.0589
 20
-28.5921
 30
0.0
 10
-26.9582
 20
-29.3332
 30
0.0
 10
-30.4278
 20
-29.8565
 30
0.0
 10
-30.4278
 20
-29.8565
 30
0.0
 10
-30.1368
 20
-27.0065
 30
0.0
 10
-29.1634
 20
-24.3328
 30
0.0
 10
-27.9753
 20
-21.6552
 30
0.0
 10
-27.9753
 20
-21.6552
 30
0.0
 10
-26.4651
 20
-23.7477
 30
0.0
 10
-24.1592
 20
-26.0475
 30
0.0
 10
-22.3426
 20
-27.404
 30
0.0
 10
-22.3426
 20
-27.404
 30
0.0
 10
-22.3426
 20
-27.404
 30
0.0
 10
-22.3426
 20
-27.404
 30
0.0
 10
-22.3426
 20
-27.404
 30
0.0
  0
SPLINE
  5
E9
330
1F
100
AcDbEntity
  8
layer 1
 62
     7
100
AcDbSpline
210
0.0
220
0.0
230
1.0
 70
    11
 71
     3
 72
    24
 73
    20
 74
     0
 42
0.0000000001
 43
0.0000000001
 12
1.0
 22
0.0
 32
0.0
 13
1.0
 23
0.0
 33
0.0
 40
0.0
 40
0.0
 40
0.0
 40
0.0
 40
0.1666666666666667
 40
0.1666666666666667
 40
0.1666666666666667
 40
0.1666666666666667
 40
0.3333333333333333
 40
0.3333333333333333
 40
0.3333333333333333
 40
0.3333333333333333
 40
0.5
 40
0.5
 40
0.5
 40
0.5
 40
0.6666666666666666
 40
0.6666666666666666
 40
0.6666666666666666
 40
0.6666666666666666
 40
1.0
 40
1.0
 40
1.0
 40
1.0
 10
-26.137
 20
-18.3521
 30
0.0
 10
-24.8091
 20
-20.4183
 30
0.0
 10
-22.1399
 20
-23.4745
 30
0.0
 10
-19.0931
 20
-25.4131
 30
0.0
 10
-19.0931
 20
-25.4131
 30
0.0
 10
-15.6505
 20
-23.1579
 30
0.0
 10
-13.4959
 20
-20.3392
 30
0.0
 10
-12.0492
 20
-18.3917
 30
0.0
 10
-12.0492
 20
-18.3917
 30
0.0
 10
-12.9814
 20
-16.6817
 30
0.0
 10
-16.2046
 20
-13.0319
 30
0.0
 10
-19.2119
 20
-11.212
 30
0.0
 10
-19.2119
 20
-11.212
 30
0.0
 10
-22.2191
 20
-13.3089
 30
0.0
 10
-24.6904
 20
-16.2463
 30
0.0
 10
-26.1371
 20
-18.3522
 30
0.0
 10
-26.1371
 20
-18.3522
 30
0.0
 10
-26.1371
 20
-18.3522
 30
0.0
 10
-26.137
 20
-18.3521
 30
0.0
 10
-26.137
 20
-18.3521
 30
0.0
  0
SPLINE
  5
EA
330
1F
100
AcDbEntity
  8
layer 1
 62
     7
100
AcDbSpline
210
0.0
220
0.0
230
1.0
 70
    11
 71
     3
 72
    20
 73
    16
 74
     0
 42
0.0000000001
 43
0.0000000001
 12
1.0
 22
0.0
 32
0.0
 13
1.0
 23
0.0
 33
0.0
 40
0.0
 40
0.0
 40
0.0
 40
0.0
 40
0.2
 40
0.2
 40
0.2
 40
0.2
 40
0.4
 40
0.4
 40
0.4
 40
0.4
 40
0.6
 40
0.6
 40
0.6
 40
0.6
 40
1.0
 40
1.0
 40
1.0
 40
1.0
 10
-15.8304
 20
-39.0359
 30
0.0
 10
-13.1141
 20
-37.8478
 30
0.0
 10
-11.2148
 20
-37.1067
 30
0.0
 10
-7.7452
 20
-36.5834
 30
0.0
 10
-7.7452
 20
-36.5834
 30
0.0
 10
-8.0362
 20
-39.4334
 30
0.0
 10
-9.0096
 20
-42.1071
 30
0.0
 10
-10.1977
 20
-44.7847
 30
0.0
 10
-10.1977
 20
-44.7847
 30
0.0
 10
-11.7079
 20
-42.6922
 30
0.0
 10
-14.0138
 20
-40.3924
 30
0.0
 10
-15.8304
 20
-39.0359
 30
0.0
 10
-15.8304
 20
-39.0359
 30
0.0
 10
-15.8304
 20
-39.0359
 30
0.0
 10
-15.8304
 20
-39.0359
 30
0.0
 10
-15.8304
 20
-39.0359
 30
0.0
  0
SPLINE
  5
EB
330
1F
100
AcDbEntity
  8
layer 1
 62
     7
100
AcDbSpline
210
0.0
220
0.0
230
1.0
 70
    11
 71
     3
 72
    20
 73
    16
 74
     0
 42
0.0000000001
 43
0.0000000001
 12
1.0
 22
0.0
 32
0.0
 13
1.0
 23
0.0
 33
0.0
 40
0.0
 40
0.0
 40
0.0
 40
0.0
 40
0.2
 40
0.2
 40
0.2
 40
0.2
 40
0.4
 40
0.4
 40
0.4
 40
0.4
 40
0.6
 40
0.6
 40
0.6
 40
0.6
 40
1.0
 40
1.0
 40
1.0
 40
1.0
 10
-22.3426
 20
-39.0359
 30
0.0
 10
-25.0589
 20
-37.8478
 30
0.0
 10
-26.9582
 20
-37.1067
 30
0.0
 10
-30.4278
 20
-36.5834
 30
0.0
 10
-30.4278
 20
-36.5834
 30
0.0
 10
-30.1368
 20
-39.4334
 30
0.0
 10
-29.1634
 20
-42.1071
 30
0.0
 10
-27.9753
 20
-44.7847
 30
0.0
 10
-27.9753
 20
-44.7847
 30
0.0
 10
-26.4651
 20
-42.6922
 30
0.0
 10
-24.1592
 20
-40.3924
 30
0.0
 10
-22.3426
 20
-39.0359
 30
0.0
 10
-22.3426
 20
-39.0359
 30
0.0
 10
-22.3426
 20
-39.0359
 30
0.0
 10
-22.3426
 20
-39.0359
 30
0.0
 10
-22.3426
 20
-39.0359
 30
0.0
  0
SPLINE
  5
EC
330
1F
100
AcDbEntity
  8
layer 1
 62
     7
100
AcDbSpline
210
0.0
220
0.0
230
1.0
 70
    11
 71
     3
 72
    20
 73
    16
 74
     0
 42
0.0000000001
 43
0.0000000001
 12
1.0
 22
0.0
 32
0.0
 13
1.0
 23
0.0
 33
0.0
 40
0.0
 40
0.0
 40
0.0
 40
0.0
 40
0.2
 40
0.2
 40
0.2
 40
0.2
 40
0.4
 40
0.4
 40
0.4
 40
0.4
 40
0.6
 40
0.6
 40
0.6
 40
0.6
 40
1.0
 40
1.0
 40
1.0
 40
1.0
 10
26.1181
 20
-29.056
 30
0.0
 10
26.6408
 20
-25.2744
 30
0.0
 10
28.0347
 20
-21.2991
 30
0.0
 10
29.8545
 20
-18.2919
 30
0.0
 10
29.8545
 20
-18.2919
 30
0.0
 10
28.0347
 20
-15.2846
 30
0.0
 10
26.6407
 20
-11.3094
 30
0.0
 10
26.1181
 20
-7.5277
 30
0.0
 10
26.1181
 20
-7.5277
 30
0.0
 10
25.5953
 20
-11.3094
 30
0.0
 10
24.2015
 20
-15.2846
 30
0.0
 10
22.3816
 20
-18.2919
 30
0.0
 10
22.3816
 20
-18.2919
 30
0.0
 10
24.2015
 20
-21.2991
 30
0.0
 10
25.5954
 20
-25.2744
 30
0.0
 10
26.1181
 20
-29.056
 30
0.0
  0
SPLINE
  5
ED
330
1F
100
AcDbEntity
  8
layer 1
 62
     7
100
AcDbSpline
210
0.0
220
0.0
230
1.0
 70
    11
 71
     3
 72
    20
 73
    16
 74
     0
 42
0.0000000001
 43
0.0000000001
 12
1.0
 22
0.0
 32
0.0
 13
1.0
 23
0.0
 33
0.0
 40
0.0
 40
0.0
 40
0.0
 40
0.0
 40
0.2
 40
0.2
 40
0.2
 40
0.2
 40
0.4
 40
0.4
 40
0.4
 40
0.4
 40
0.6
 40
0.6
 40
0.6
 40
0.6
 40
1.0
 40
1.0
 40
1.0
 40
1.0
 10
-4.0507
 20
-29.056
 30
0.0
 10
-3.528
 20
-25.2744
 30
0.0
 10
-2.1341
 20
-21.2991
 30
0.0
 10
-0.3143
 20
-18.2919
 30
0.0
 10
-0.3143
 20
-18.2919
 30
0.0
 10
-2.1341
 20
-15.2846
 30
0.0
 10
-3.528
 20
-11.3094
 30
0.0
 10
-4.0507
 20
-7.5277
 30
0.0
 10
-4.0507
 20
-7.5277
 30
0.0
 10
-4.5734
 20
-11.3094
 30
0.0
 10
-5.9673
 20
-15.2846
 30
0.0
 10
-7.7871
 20
-18.2919
 30
0.0
 10
-7.7871
 20
-18.2919
 30
0.0
 10
-5.9673
 20
-21.2991
 30
0.0
 10
-4.5734
 20
-25.2744
 30
0.0
 10
-4.0507
 20
-29.056
 30
0.0
  0
SPLINE
  5
EE
330
1F
100
AcDbEntity
  8
layer 1
 62
     7
100
AcDbSpline
210
0.0
220
0.0
230
1.0
 70
    11
 71
     3
 72
    20
 73
    16
 74
     0
 42
0.0000000001
 43
0.0000000001
 12
1.0
 22
0.0
 32
0.0
 13
1.0
 23
0.0
 33
0.0
 40
0.0
 40
0.0
 40
0.0
 40
0.0
 40
0.2
 40
0.2
 40
0.2
 40
0.2
 40
0.4
 40
0.4
 40
0.4
 40
0.4
 40
0.6
 40
0.6
 40
0.6
 40
0.6
 40
1.0
 40
1.0
 40
1.0
 40
1.0
 10
-34.4002
 20
-29.056
 30
0.0
 10
-33.8774
 20
-25.2744
 30
0.0
 10
-32.4835
 20
-21.2991
 30
0.0
 10
-30.6637
 20
-18.2919
 30
0.0
 10
-30.6637
 20
-18.2919
 30
0.0
 10
-32.4835
 20
-15.2846
 30
0.0
 10
-33.8775
 20
-11.3094
 30
0.0
 10
-34.4002
 20
-7.5277
 30
0.0
 10
-34.4002
 20
-7.5277
 30
0.0
 10
-34.9229
 20
-11.3094
 30
0.0
 10
-36.3168
 20
-15.2846
 30
0.0
 10
-38.1366
 20
-18.2919
 30
0.0
 10
-38.1366
 20
-18.2919
 30
0.0
 10
-36.3168
 20
-21.2991
 30
0.0
 10
-34.9228
 20
-25.2744
 30
0.0
 10
-34.4002
 20
-29.056
 30
0.0
  0
SPLINE
  5
EF
330
1F
100
AcDbEntity
  8
layer 1
 62
     7
100
AcDbSpline
210
0.0
220
0.0
230
1.0
 70
    11
 71
     3
 72
    16
 73
    12
 74
     0
 42
0.0000000001
 43
0.0000000001
 12
1.0
 22
0.0
 32
0.0
 13
1.0
 23
0.0
 33
0.0
 40
0.0
 40
0.0
 40
0.0
 40
0.0
 40
0.25
 40
0.25
 40
0.25
 40
0.25
 40
0.5
 40
0.5
 40
0.5
 40
0.5
 40
1.0
 40
1.0
 40
1.0
 40
1.0
 10
-63.9115
 20
-29.056
 30
0.0
 10
-63.3888
 20
-25.2744
 30
0.0
 10
-61.9949
 20
-21.2991
 30
0.0
 10
-60.1751
 20
-18.2919
 30
0.0
 10
-60.1751
 20
-18.2919
 30
0.0
 10
-61.9949
 20
-15.2846
 30
0.0
 10
-63.3889
 20
-11.3094
 30
0.0
 10
-63.9115
 20
-7.5277
 30
0.0
 10
-63.9115
 20
-7.5277
 30
0.0
 10
-63.9115
 20
-7.5277
 30
0.0
 10
-63.9115
 20
-29.056
 30
0.0
 10
-63.9115
 20
-29.056
 30
0.0
  0
SPLINE
  5
F0
330
1F
100
AcDbEntity
  8
layer 1
 62
     7
100
AcDbSpline
210
0.0
220
0.0
230
1.0
 70
    11
 71
     3
 72
    16
 73
    12
 74
     0
 42
0.0000000001
 43
0.0000000001
 12
1.0
 22
0.0
 32
0.0
 13
1.0
 23
0.0
 33
0.0
 40
0.0
 40
0.0
 40
0.0
 40
0.0
 40
0.25
 40
0.25
 40
0.25
 40
0.25
 40
0.5
 40
0.5
 40
0.5
 40
0.5
 40
1.0
 40
1.0
 40
1.0
 40
1.0
 10
56.0258
 20
-29.056
 30
0.0
 10
55.503
 20
-25.2744
 30
0.0
 10
54.1092
 20
-21.2991
 30
0.0
 10
52.2893
 20
-18.2919
 30
0.0
 10
52.2893
 20
-18.2919
 30
0.0
 10
54.1092
 20
-15.2846
 30
0.0
 10
55.5031
 20
-11.3094
 30
0.0
 10
56.0258
 20
-7.5277
 30
0.0
 10
56.0258
 20
-7.5277
 30
0.0
 10
56.0258
 20
-7.5277
 30
0.0
 10
56.0258
 20
-29.056
 30
0.0
 10
56.0258
 20
-29.056
 30
0.0
  0
SPLINE
  5
F1
330
1F
100
AcDbEntity
  8
layer 1
 62
     7
100
AcDbSpline
210
0.0
220
0.0
230
1.0
 70
    11
 71
     3
 72
    20
 73
    16
 74
     0
 42
0.0000000001
 43
0.0000000001
 12
1.0
 22
0.0
 32
0.0
 13
1.0
 23
0.0
 33
0.0
 40
0.0
 40
0.0
 40
0.0
 40
0.0
 40
0.2
 40
0.2
 40
0.2
 40
0.2
 40
0.4
 40
0.4
 40
0.4
 40
0.4
 40
0.6
 40
0.6
 40
0.6
 40
0.6
 40
1.0
 40
1.0
 40
1.0
 40
1.0
 10
0.2247
 20
-3.3351
 30
0.0
 10
4.0063
 20
-3.8578
 30
0.0
 10
7.9816
 20
-5.2517
 30
0.0
 10
10.9888
 20
-7.0715
 30
0.0
 10
10.9888
 20
-7.0715
 30
0.0
 10
13.996
 20
-5.2517
 30
0.0
 10
17.9713
 20
-3.8578
 30
0.0
 10
21.7529
 20
-3.3351
 30
0.0
 10
21.7529
 20
-3.3351
 30
0.0
 10
17.9713
 20
-2.8124
 30
0.0
 10
13.996
 20
-1.4185
 30
0.0
 10
10.9888
 20
0.4013
 30
0.0
 10
10.9888
 20
0.4013
 30
0.0
 10
7.9816
 20
-1.4185
 30
0.0
 10
4.0063
 20
-2.8124
 30
0.0
 10
0.2247
 20
-3.3351
 30
0.0
  0
SPLINE
  5
F2
330
1F
100
AcDbEntity
  8
layer 1
 62
     7
100
AcDbSpline
210
0.0
220
0.0
230
1.0
 70
    11
 71
     3
 72
    20
 73
    16
 74
     0
 42
0.0000000001
 43
0.0000000001
 12
1.0
 22
0.0
 32
0.0
 13
1.0
 23
0.0
 33
0.0
 40
0.0
 40
0.0
 40
0.0
 40
0.0
 40
0.2
 40
0.2
 40
0.2
 40
0.2
 40
0.4
 40
0.4
 40
0.4
 40
0.4
 40
0.6
 40
0.6
 40
0.6
 40
0.6
 40
1.0
 40
1.0
 40
1.0
 40
1.0
 10
14.2482
 20
2.5468
 30
0.0
 10
16.9645
 20
1.3587
 30
0.0
 10
18.8638
 20
0.6176
 30
0.0
 10
22.3334
 20
0.0943
 30
0.0
 10
22.3334
 20
0.0943
 30
0.0
 10
22.0424
 20
2.9444
 30
0.0
 10
21.069
 20
5.6181
 30
0.0
 10
19.8809
 20
8.2957
 30
0.0
 10
19.8809
 20
8.2957
 30
0.0
 10
18.3707
 20
6.2032
 30
0.0
 10
16.0648
 20
3.9033
 30
0.0
 10
14.2482
 20
2.5469
 30
0.0
 10
14.2482
 20
2.5469
 30
0.0
 10
14.2482
 20
2.5469
 30
0.0
 10
14.2482
 20
2.5468
 30
0.0
 10
14.2482
 20
2.5468
 30
0.0
  0
SPLINE
  5
F3
330
1F
100
AcDbEntity
  8
layer 1
 62
     7
100
AcDbSpline
210
0.0
220
0.0
230
1.0
 70
    11
 71
     3
 72
    20
 73
    16
 74
     0
 42
0.0000000001
 43
0.0000000001
 12
1.0
 22
0.0
 32
0.0
 13
1.0
 23
0.0
 33
0.0
 40
0.0
 40
0.0
 40
0.0
 40
0.0
 40
0.2
 40
0.2
 40
0.2
 40
0.2
 40
0.4
 40
0.4
 40
0.4
 40
0.4
 40
0.6
 40
0.6
 40
0.6
 40
0.6
 40
1.0
 40
1.0
 40
1.0
 40
1.0
 10
7.736
 20
2.5468
 30
0.0
 10
5.0197
 20
1.3587
 30
0.0
 10
3.1204
 20
0.6176
 30
0.0
 10
-0.3491
 20
0.0943
 30
0.0
 10
-0.3491
 20
0.0943
 30
0.0
 10
-0.0582
 20
2.9444
 30
0.0
 10
0.9153
 20
5.6181
 30
0.0
 10
2.1033
 20
8.2957
 30
0.0
 10
2.1033
 20
8.2957
 30
0.0
 10
3.6135
 20
6.2032
 30
0.0
 10
5.9194
 20
3.9033
 30
0.0
 10
7.736
 20
2.5469
 30
0.0
 10
7.736
 20
2.5469
 30
0.0
 10
7.736
 20
2.5469
 30
0.0
 10
7.736
 20
2.5468
 30
0.0
 10
7.736
 20
2.5468
 30
0.0
  0
SPLINE
  5
F4
330
1F
100
AcDbEntity
  8
layer 1
 62
     7
100
AcDbSpline
210
0.0
220
0.0
230
1.0
 70
    11
 71
     3
 72
    20
 73
    16
 74
     0
 42
0.0000000001
 43
0.0000000001
 12
1.0
 22
0.0
 32
0.0
 13
1.0
 23
0.0
 33
0.0
 40
0.0
 40
0.0
 40
0.0
 40
0.0
 40
0.2
 40
0.2
 40
0.2
 40
0.2
 40
0.4
 40
0.4
 40
0.4
 40
0.4
 40
0.6
 40
0.6
 40
0.6
 40
0.6
 40
1.0
 40
1.0
 40
1.0
 40
1.0
 10
14.2482
 20
-9.085
 30
0.0
 10
16.9645
 20
-7.897
 30
0.0
 10
18.8638
 20
-7.1558
 30
0.0
 10
22.3334
 20
-6.6325
 30
0.0
 10
22.3334
 20
-6.6325
 30
0.0
 10
22.0424
 20
-9.4826
 30
0.0
 10
21.069
 20
-12.1563
 30
0.0
 10
19.8809
 20
-14.8339
 30
0.0
 10
19.8809
 20
-14.8339
 30
0.0
 10
18.3707
 20
-12.7414
 30
0.0
 10
16.0648
 20
-10.4416
 30
0.0
 10
14.2482
 20
-9.0851
 30
0.0
 10
14.2482
 20
-9.0851
 30
0.0
 10
14.2482
 20
-9.0851
 30
0.0
 10
14.2482
 20
-9.085
 30
0.0
 10
14.2482
 20
-9.085
 30
0.0
  0
SPLINE
  5
F5
330
1F
100
AcDbEntity
  8
layer 1
 62
     7
100
AcDbSpline
210
0.0
220
0.0
230
1.0
 70
    11
 71
     3
 72
    20
 73
    16
 74
     0
 42
0.0000000001
 43
0.0000000001
 12
1.0
 22
0.0
 32
0.0
 13
1.0
 23
0.0
 33
0.0
 40
0.0
 40
0.0
 40
0.0
 40
0.0
 40
0.2
 40
0.2
 40
0.2
 40
0.2
 40
0.4
 40
0.4
 40
0.4
 40
0.4
 40
0.6
 40
0.6
 40
0.6
 40
0.6
 40
1.0
 40
1.0
 40
1.0
 40
1.0
 10
7.736
 20
-9.085
 30
0.0
 10
5.0197
 20
-7.897
 30
0.0
 10
3.1204
 20
-7.1558
 30
0.0
 10
-0.3491
 20
-6.6325
 30
0.0
 10
-0.3491
 20
-6.6325
 30
0.0
 10
-0.0582
 20
-9.4826
 30
0.0
 10
0.9153
 20
-12.1563
 30
0.0
 10
2.1033
 20
-14.8339
 30
0.0
 10
2.1033
 20
-14.8339
 30
0.0
 10
3.6135
 20
-12.7414
 30
0.0
 10
5.9194
 20
-10.4416
 30
0.0
 10
7.736
 20
-9.0851
 30
0.0
 10
7.736
 20
-9.0851
 30
0.0
 10
7.736
 20
-9.0851
 30
0.0
 10
7.736
 20
-9.085
 30
0.0
 10
7.736
 20
-9.085
 30
0.0
  0
SPLINE
  5
F6
330
1F
100
AcDbEntity
  8
layer 1
 62
     7
100
AcDbSpline
210
0.0
220
0.0
230
1.0
 70
    11
 71
     3
 72
    20
 73
    16
 74
     0
 42
0.0000000001
 43
0.0000000001
 12
1.0
 22
0.0
 32
0.0
 13
1.0
 23
0.0
 33
0.0
 40
0.0
 40
0.0
 40
0.0
 40
0.0
 40
0.2
 40
0.2
 40
0.2
 40
0.2
 40
0.4
 40
0.4
 40
0.4
 40
0.4
 40
0.6
 40
0.6
 40
0.6
 40
0.6
 40
1.0
 40
1.0
 40
1.0
 40
1.0
 10
29.9867
 20
-3.3351
 30
0.0
 10
33.7684
 20
-3.8578
 30
0.0
 10
37.7436
 20
-5.2517
 30
0.0
 10
40.7509
 20
-7.0715
 30
0.0
 10
40.7509
 20
-7.0715
 30
0.0
 10
43.7581
 20
-5.2517
 30
0.0
 10
47.7334
 20
-3.8578
 30
0.0
 10
51.515
 20
-3.3351
 30
0.0
 10
51.515
 20
-3.3351
 30
0.0
 10
47.7334
 20
-2.8124
 30
0.0
 10
43.7581
 20
-1.4185
 30
0.0
 10
40.7509
 20
0.4013
 30
0.0
 10
40.7509
 20
0.4013
 30
0.0
 10
37.7436
 20
-1.4185
 30
0.0
 10
33.7684
 20
-2.8124
 30
0.0
 10
29.9867
 20
-3.3351
 30
0.0
  0
SPLINE
  5
F7
330
1F
100
AcDbEntity
  8
layer 1
 62
     7
100
AcDbSpline
210
0.0
220
0.0
230
1.0
 70
    11
 71
     3
 72
    20
 73
    16
 74
     0
 42
0.0000000001
 43
0.0000000001
 12
1.0
 22
0.0
 32
0.0
 13
1.0
 23
0.0
 33
0.0
 40
0.0
 40
0.0
 40
0.0
 40
0.0
 40
0.2
 40
0.2
 40
0.2
 40
0.2
 40
0.4
 40
0.4
 40
0.4
 40
0.4
 40
0.6
 40
0.6
 40
0.6
 40
0.6
 40
1.0
 40
1.0
 40
1.0
 40
1.0
 10
44.0103
 20
2.5468
 30
0.0
 10
46.7266
 20
1.3587
 30
0.0
 10
48.6259
 20
0.6176
 30
0.0
 10
52.0954
 20
0.0943
 30
0.0
 10
52.0954
 20
0.0943
 30
0.0
 10
51.8045
 20
2.9444
 30
0.0
 10
50.831
 20
5.6181
 30
0.0
 10
49.643
 20
8.2957
 30
0.0
 10
49.643
 20
8.2957
 30
0.0
 10
48.1327
 20
6.2032
 30
0.0
 10
45.8269
 20
3.9033
 30
0.0
 10
44.0103
 20
2.5469
 30
0.0
 10
44.0103
 20
2.5469
 30
0.0
 10
44.0103
 20
2.5469
 30
0.0
 10
44.0103
 20
2.5468
 30
0.0
 10
44.0103
 20
2.5468
 30
0.0
  0
SPLINE
  5
F8
330
1F
100
AcDbEntity
  8
layer 1
 62
     7
100
AcDbSpline
210
0.0
220
0.0
230
1.0
 70
    11
 71
     3
 72
    20
 73
    16
 74
     0
 42
0.0000000001
 43
0.0000000001
 12
1.0
 22
0.0
 32
0.0
 13
1.0
 23
0.0
 33
0.0
 40
0.0
 40
0.0
 40
0.0
 40
0.0
 40
0.2
 40
0.2
 40
0.2
 40
0.2
 40
0.4
 40
0.4
 40
0.4
 40
0.4
 40
0.6
 40
0.6
 40
0.6
 40
0.6
 40
1.0
 40
1.0
 40
1.0
 40
1.0
 10
37.498
 20
2.5468
 30
0.0
 10
34.7817
 20
1.3587
 30
0.0
 10
32.8824
 20
0.6176
 30
0.0
 10
29.4128
 20
0.0943
 30
0.0
 10
29.4128
 20
0.0943
 30
0.0
 10
29.7038
 20
2.9444
 30
0.0
 10
30.6772
 20
5.6181
 30
0.0
 10
31.8653
 20
8.2957
 30
0.0
 10
31.8653
 20
8.2957
 30
0.0
 10
33.3755
 20
6.2032
 30
0.0
 10
35.6814
 20
3.9033
 30
0.0
 10
37.498
 20
2.5469
 30
0.0
 10
37.498
 20
2.5469
 30
0.0
 10
37.498
 20
2.5469
 30
0.0
 10
37.498
 20
2.5468
 30
0.0
 10
37.498
 20
2.5468
 30
0.0
  0
SPLINE
  5
F9
330
1F
100
AcDbEntity
  8
layer 1
 62
     7
100
AcDbSpline
210
0.0
220
0.0
230
1.0
 70
    11
 71
     3
 72
    20
 73
    16
 74
     0
 42
0.0000000001
 43
0.0000000001
 12
1.0
 22
0.0
 32
0.0
 13
1.0
 23
0.0
 33
0.0
 40
0.0
 40
0.0
 40
0.0
 40
0.0
 40
0.2
 40
0.2
 40
0.2
 40
0.2
 40
0.4
 40
0.4
 40
0.4
 40
0.4
 40
0.6
 40
0.6
 40
0.6
 40
0.6
 40
1.0
 40
1.0
 40
1.0
 40
1.0
 10
44.0103
 20
-9.085
 30
0.0
 10
46.7266
 20
-7.897
 30
0.0
 10
48.6259
 20
-7.1558
 30
0.0
 10
52.0954
 20
-6.6325
 30
0.0
 10
52.0954
 20
-6.6325
 30
0.0
 10
51.8045
 20
-9.4826
 30
0.0
 10
50.831
 20
-12.1563
 30
0.0
 10
49.643
 20
-14.8339
 30
0.0
 10
49.643
 20
-14.8339
 30
0.0
 10
48.1327
 20
-12.7414
 30
0.0
 10
45.8269
 20
-10.4416
 30
0.0
 10
44.0103
 20
-9.0851
 30
0.0
 10
44.0103
 20
-9.0851
 30
0.0
 10
44.0103
 20
-9.0851
 30
0.0
 10
44.0103
 20
-9.085
 30
0.0
 10
44.0103
 20
-9.085
 30
0.0
  0
SPLINE
  5
FA
330
1F
100
AcDbEntity
  8
layer 1
 62
     7
100
AcDbSpline
210
0.0
220
0.0
230
1.0
 70
    11
 71
     3
 72
    20
 73
    16
 74
     0
 42
0.0000000001
 43
0.0000000001
 12
1.0
 22
0.0
 32
0.0
 13
1.0
 23
0.0
 33
0.0
 40
0.0
 40
0.0
 40
0.0
 40
0.0
 40
0.2
 40
0.2
 40
0.2
 40
0.2
 40
0.4
 40
0.4
 40
0.4
 40
0.4
 40
0.6
 40
0.6
 40
0.6
 40
0.6
 40
1.0
 40
1.0
 40
1.0
 40
1.0
 10
37.498
 20
-9.085
 30
0.0
 10
34.7817
 20
-7.897
 30
0.0
 10
32.8824
 20
-7.1558
 30
0.0
 10
29.4128
 20
-6.6325
 30
0.0
 10
29.4128
 20
-6.6325
 30
0.0
 10
29.7038
 20
-9.4826
 30
0.0
 10
30.6772
 20
-12.1563
 30
0.0
 10
31.8653
 20
-14.8339
 30
0.0
 10
31.8653
 20
-14.8339
 30
0.0
 10
33.3755
 20
-12.7414
 30
0.0
 10
35.6814
 20
-10.4416
 30
0.0
 10
37.498
 20
-9.0851
 30
0.0
 10
37.498
 20
-9.0851
 30
0.0
 10
37.498
 20
-9.0851
 30
0.0
 10
37.498
 20
-9.085
 30
0.0
 10
37.498
 20
-9.085
 30
0.0
  0
SPLINE
  5
FB
330
1F
100
AcDbEntity
  8
layer 1
 62
     7
100
AcDbSpline
210
0.0
220
0.0
230
1.0
 70
    11
 71
     3
 72
    20
 73
    16
 74
     0
 42
0.0000000001
 43
0.0000000001
 12
1.0
 22
0.0
 32
0.0
 13
1.0
 23
0.0
 33
0.0
 40
0.0
 40
0.0
 40
0.0
 40
0.0
 40
0.2
 40
0.2
 40
0.2
 40
0.2
 40
0.4
 40
0.4
 40
0.4
 40
0.4
 40
0.6
 40
0.6
 40
0.6
 40
0.6
 40
1.0
 40
1.0
 40
1.0
 40
1.0
 10
-59.6159
 20
-3.3351
 30
0.0
 10
-55.8343
 20
-3.8578
 30
0.0
 10
-51.859
 20
-5.2517
 30
0.0
 10
-48.8518
 20
-7.0715
 30
0.0
 10
-48.8518
 20
-7.0715
 30
0.0
 10
-45.8446
 20
-5.2517
 30
0.0
 10
-41.8693
 20
-3.8578
 30
0.0
 10
-38.0877
 20
-3.3351
 30
0.0
 10
-38.0877
 20
-3.3351
 30
0.0
 10
-41.8693
 20
-2.8124
 30
0.0
 10
-45.8446
 20
-1.4185
 30
0.0
 10
-48.8518
 20
0.4013
 30
0.0
 10
-48.8518
 20
0.4013
 30
0.0
 10
-51.859
 20
-1.4185
 30
0.0
 10
-55.8343
 20
-2.8124
 30
0.0
 10
-59.6159
 20
-3.3351
 30
0.0
  0
SPLINE
  5
FC
330
1F
100
AcDbEntity
  8
layer 1
 62
     7
100
AcDbSpline
210
0.0
220
0.0
230
1.0
 70
    11
 71
     3
 72
    20
 73
    16
 74
     0
 42
0.0000000001
 43
0.0000000001
 12
1.0
 22
0.0
 32
0.0
 13
1.0
 23
0.0
 33
0.0
 40
0.0
 40
0.0
 40
0.0
 40
0.0
 40
0.2
 40
0.2
 40
0.2
 40
0.2
 40
0.4
 40
0.4
 40
0.4
 40
0.4
 40
0.6
 40
0.6
 40
0.6
 40
0.6
 40
1.0
 40
1.0
 40
1.0
 40
1.0
 10
-45.5924
 20
2.5468
 30
0.0
 10
-42.8761
 20
1.3587
 30
0.0
 10
-40.9768
 20
0.6176
 30
0.0
 10
-37.5072
 20
0.0943
 30
0.0
 10
-37.5072
 20
0.0943
 30
0.0
 10
-37.7982
 20
2.9444
 30
0.0
 10
-38.7716
 20
5.6181
 30
0.0
 10
-39.9597
 20
8.2957
 30
0.0
 10
-39.9597
 20
8.2957
 30
0.0
 10
-41.4699
 20
6.2032
 30
0.0
 10
-43.7758
 20
3.9033
 30
0.0
 10
-45.5924
 20
2.5469
 30
0.0
 10
-45.5924
 20
2.5469
 30
0.0
 10
-45.5924
 20
2.5469
 30
0.0
 10
-45.5924
 20
2.5468
 30
0.0
 10
-45.5924
 20
2.5468
 30
0.0
  0
SPLINE
  5
FD
330
1F
100
AcDbEntity
  8
layer 1
 62
     7
100
AcDbSpline
210
0.0
220
0.0
230
1.0
 70
    11
 71
     3
 72
    20
 73
    16
 74
     0
 42
0.0000000001
 43
0.0000000001
 12
1.0
 22
0.0
 32
0.0
 13
1.0
 23
0.0
 33
0.0
 40
0.0
 40
0.0
 40
0.0
 40
0.0
 40
0.2
 40
0.2
 40
0.2
 40
0.2
 40
0.4
 40
0.4
 40
0.4
 40
0.4
 40
0.6
 40
0.6
 40
0.6
 40
0.6
 40
1.0
 40
1.0
 40
1.0
 40
1.0
 10
-52.1047
 20
2.5468
 30
0.0
 10
-54.821
 20
1.3587
 30
0.0
 10
-56.7203
 20
0.6176
 30
0.0
 10
-60.1898
 20
0.0943
 30
0.0
 10
-60.1898
 20
0.0943
 30
0.0
 10
-59.8988
 20
2.9444
 30
0.0
 10
-58.9254
 20
5.6181
 30
0.0
 10
-57.7373
 20
8.2957
 30
0.0
 10
-57.7373
 20
8.2957
 30
0.0
 10
-56.2271
 20
6.2032
 30
0.0
 10
-53.9213
 20
3.9033
 30
0.0
 10
-52.1047
 20
2.5469
 30
0.0
 10
-52.1047
 20
2.5469
 30
0.0
 10
-52.1047
 20
2.5469
 30
0.0
 10
-52.1047
 20
2.5468
 30
0.0
 10
-52.1047
 20
2.5468
 30
0.0
  0
SPLINE
  5
FE
330
1F
100
AcDbEntity
  8
layer 1
 62
     7
100
AcDbSpline
210
0.0
220
0.0
230
1.0
 70
    11
 71
     3
 72
    20
 73
    16
 74
     0
 42
0.0000000001
 43
0.0000000001
 12
1.0
 22
0.0
 32
0.0
 13
1.0
 23
0.0
 33
0.0
 40
0.0
 40
0.0
 40
0.0
 40
0.0
 40
0.2
 40
0.2
 40
0.2
 40
0.2
 40
0.4
 40
0.4
 40
0.4
 40
0.4
 40
0.6
 40
0.6
 40
0.6
 40
0.6
 40
1.0
 40
1.0
 40
1.0
 40
1.0
 10
-45.5924
 20
-9.085
 30
0.0
 10
-42.8761
 20
-7.897
 30
0.0
 10
-40.9768
 20
-7.1558
 30
0.0
 10
-37.5072
 20
-6.6325
 30
0.0
 10
-37.5072
 20
-6.6325
 30
0.0
 10
-37.7982
 20
-9.4826
 30
0.0
 10
-38.7716
 20
-12.1563
 30
0.0
 10
-39.9597
 20
-14.8339
 30
0.0
 10
-39.9597
 20
-14.8339
 30
0.0
 10
-41.4699
 20
-12.7414
 30
0.0
 10
-43.7758
 20
-10.4416
 30
0.0
 10
-45.5924
 20
-9.0851
 30
0.0
 10
-45.5924
 20
-9.0851
 30
0.0
 10
-45.5924
 20
-9.0851
 30
0.0
 10
-45.5924
 20
-9.085
 30
0.0
 10
-45.5924
 20
-9.085
 30
0.0
  0
SPLINE
  5
FF
330
1F
100
AcDbEntity
  8
layer 1
 62
     7
100
AcDbSpline
210
0.0
220
0.0
230
1.0
 70
    11
 71
     3
 72
    20
 73
    16
 74
     0
 42
0.0000000001
 43
0.0000000001
 12
1.0
 22
0.0
 32
0.0
 13
1.0
 23
0.0
 33
0.0
 40
0.0
 40
0.0
 40
0.0
 40
0.0
 40
0.2
 40
0.2
 40
0.2
 40
0.2
 40
0.4
 40
0.4
 40
0.4
 40
0.4
 40
0.6
 40
0.6
 40
0.6
 40
0.6
 40
1.0
 40
1.0
 40
1.0
 40
1.0
 10
-52.1047
 20
-9.085
 30
0.0
 10
-54.821
 20
-7.897
 30
0.0
 10
-56.7203
 20
-7.1558
 30
0.0
 10
-60.1898
 20
-6.6325
 30
0.0
 10
-60.1898
 20
-6.6325
 30
0.0
 10
-59.8988
 20
-9.4826
 30
0.0
 10
-58.9254
 20
-12.1563
 30
0.0
 10
-57.7373
 20
-14.8339
 30
0.0
 10
-57.7373
 20
-14.8339
 30
0.0
 10
-56.2271
 20
-12.7414
 30
0.0
 10
-53.9213
 20
-10.4416
 30
0.0
 10
-52.1047
 20
-9.0851
 30
0.0
 10
-52.1047
 20
-9.0851
 30
0.0
 10
-52.1047
 20
-9.0851
 30
0.0
 10
-52.1047
 20
-9.085
 30
0.0
 10
-52.1047
 20
-9.085
 30
0.0
  0
SPLINE
  5
100
330
1F
100
AcDbEntity
  8
layer 1
 62
     7
100
AcDbSpline
210
0.0
220
0.0
230
1.0
 70
    11
 71
     3
 72
    20
 73
    16
 74
     0
 42
0.0000000001
 43
0.0000000001
 12
1.0
 22
0.0
 32
0.0
 13
1.0
 23
0.0
 33
0.0
 40
0.0
 40
0.0
 40
0.0
 40
0.0
 40
0.2
 40
0.2
 40
0.2
 40
0.2
 40
0.4
 40
0.4
 40
0.4
 40
0.4
 40
0.6
 40
0.6
 40
0.6
 40
0.6
 40
1.0
 40
1.0
 40
1.0
 40
1.0
 10
-29.854
 20
-3.3351
 30
0.0
 10
-26.0723
 20
-3.8578
 30
0.0
 10
-22.097
 20
-5.2517
 30
0.0
 10
-19.0898
 20
-7.0715
 30
0.0
 10
-19.0898
 20
-7.0715
 30
0.0
 10
-16.0826
 20
-5.2517
 30
0.0
 10
-12.1073
 20
-3.8578
 30
0.0
 10
-8.3257
 20
-3.3351
 30
0.0
 10
-8.3257
 20
-3.3351
 30
0.0
 10
-12.1073
 20
-2.8124
 30
0.0
 10
-16.0826
 20
-1.4185
 30
0.0
 10
-19.0898
 20
0.4013
 30
0.0
 10
-19.0898
 20
0.4013
 30
0.0
 10
-22.097
 20
-1.4185
 30
0.0
 10
-26.0723
 20
-2.8124
 30
0.0
 10
-29.854
 20
-3.3351
 30
0.0
  0
SPLINE
  5
101
330
1F
100
AcDbEntity
  8
layer 1
 62
     7
100
AcDbSpline
210
0.0
220
0.0
230
1.0
 70
    11
 71
     3
 72
    20
 73
    16
 74
     0
 42
0.0000000001
 43
0.0000000001
 12
1.0
 22
0.0
 32
0.0
 13
1.0
 23
0.0
 33
0.0
 40
0.0
 40
0.0
 40
0.0
 40
0.0
 40
0.2
 40
0.2
 40
0.2
 40
0.2
 40
0.4
 40
0.4
 40
0.4
 40
0.4
 40
0.6
 40
0.6
 40
0.6
 40
0.6
 40
1.0
 40
1.0
 40
1.0
 40
1.0
 10
-15.8304
 20
2.5468
 30
0.0
 10
-13.1141
 20
1.3587
 30
0.0
 10
-11.2148
 20
0.6176
 30
0.0
 10
-7.7452
 20
0.0943
 30
0.0
 10
-7.7452
 20
0.0943
 30
0.0
 10
-8.0362
 20
2.9444
 30
0.0
 10
-9.0096
 20
5.6181
 30
0.0
 10
-10.1977
 20
8.2957
 30
0.0
 10
-10.1977
 20
8.2957
 30
0.0
 10
-11.7079
 20
6.2032
 30
0.0
 10
-14.0138
 20
3.9033
 30
0.0
 10
-15.8304
 20
2.5469
 30
0.0
 10
-15.8304
 20
2.5469
 30
0.0
 10
-15.8304
 20
2.5469
 30
0.0
 10
-15.8304
 20
2.5468
 30
0.0
 10
-15.8304
 20
2.5468
 30
0.0
  0
SPLINE
  5
102
330
1F
100
AcDbEntity
  8
layer 1
 62
     7
100
AcDbSpline
210
0.0
220
0.0
230
1.0
 70
    11
 71
     3
 72
    20
 73
    16
 74
     0
 42
0.0000000001
 43
0.0000000001
 12
1.0
 22
0.0
 32
0.0
 13
1.0
 23
0.0
 33
0.0
 40
0.0
 40
0.0
 40
0.0
 40
0.0
 40
0.2
 40
0.2
 40
0.2
 40
0.2
 40
0.4
 40
0.4
 40
0.4
 40
0.4
 40
0.6
 40
0.6
 40
0.6
 40
0.6
 40
1.0
 40
1.0
 40
1.0
 40
1.0
 10
-22.3426
 20
2.5468
 30
0.0
 10
-25.0589
 20
1.3587
 30
0.0
 10
-26.9582
 20
0.6176
 30
0.0
 10
-30.4278
 20
0.0943
 30
0.0
 10
-30.4278
 20
0.0943
 30
0.0
 10
-30.1368
 20
2.9444
 30
0.0
 10
-29.1634
 20
5.6181
 30
0.0
 10
-27.9753
 20
8.2957
 30
0.0
 10
-27.9753
 20
8.2957
 30
0.0
 10
-26.4651
 20
6.2032
 30
0.0
 10
-24.1592
 20
3.9033
 30
0.0
 10
-22.3426
 20
2.5469
 30
0.0
 10
-22.3426
 20
2.5469
 30
0.0
 10
-22.3426
 20
2.5469
 30
0.0
 10
-22.3426
 20
2.5468
 30
0.0
 10
-22.3426
 20
2.5468
 30
0.0
  0
SPLINE
  5
103
330
1F
100
AcDbEntity
  8
layer 1
 62
     7
100
AcDbSpline
210
0.0
220
0.0
230
1.0
 70
    11
 71
     3
 72
    20
 73
    16
 74
     0
 42
0.0000000001
 43
0.0000000001
 12
1.0
 22
0.0
 32
0.0
 13
1.0
 23
0.0
 33
0.0
 40
0.0
 40
0.0
 40
0.0
 40
0.0
 40
0.2
 40
0.2
 40
0.2
 40
0.2
 40
0.4
 40
0.4
 40
0.4
 40
0.4
 40
0.6
 40
0.6
 40
0.6
 40
0.6
 40
1.0
 40
1.0
 40
1.0
 40
1.0
 10
-15.8304
 20
-9.085
 30
0.0
 10
-13.1141
 20
-7.897
 30
0.0
 10
-11.2148
 20
-7.1558
 30
0.0
 10
-7.7452
 20
-6.6325
 30
0.0
 10
-7.7452
 20
-6.6325
 30
0.0
 10
-8.0362
 20
-9.4826
 30
0.0
 10
-9.0096
 20
-12.1563
 30
0.0
 10
-10.1977
 20
-14.8339
 30
0.0
 10
-10.1977
 20
-14.8339
 30
0.0
 10
-11.7079
 20
-12.7414
 30
0.0
 10
-14.0138
 20
-10.4416
 30
0.0
 10
-15.8304
 20
-9.0851
 30
0.0
 10
-15.8304
 20
-9.0851
 30
0.0
 10
-15.8304
 20
-9.0851
 30
0.0
 10
-15.8304
 20
-9.085
 30
0.0
 10
-15.8304
 20
-9.085
 30
0.0
  0
SPLINE
  5
104
330
1F
100
AcDbEntity
  8
layer 1
 62
     7
100
AcDbSpline
210
0.0
220
0.0
230
1.0
 70
    11
 71
     3
 72
    20
 73
    16
 74
     0
 42
0.0000000001
 43
0.0000000001
 12
1.0
 22
0.0
 32
0.0
 13
1.0
 23
0.0
 33
0.0
 40
0.0
 40
0.0
 40
0.0
 40
0.0
 40
0.2
 40
0.2
 40
0.2
 40
0.2
 40
0.4
 40
0.4
 40
0.4
 40
0.4
 40
0.6
 40
0.6
 40
0.6
 40
0.6
 40
1.0
 40
1.0
 40
1.0
 40
1.0
 10
-22.3426
 20
-9.085
 30
0.0
 10
-25.0589
 20
-7.897
 30
0.0
 10
-26.9582
 20
-7.1558
 30
0.0
 10
-30.4278
 20
-6.6325
 30
0.0
 10
-30.4278
 20
-6.6325
 30
0.0
 10
-30.1368
 20
-9.4826
 30
0.0
 10
-29.1634
 20
-12.1563
 30
0.0
 10
-27.9753
 20
-14.8339
 30
0.0
 10
-27.9753
 20
-14.8339
 30
0.0
 10
-26.4651
 20
-12.7414
 30
0.0
 10
-24.1592
 20
-10.4416
 30
0.0
 10
-22.3426
 20
-9.0851
 30
0.0
 10
-22.3426
 20
-9.0851
 30
0.0
 10
-22.3426
 20
-9.0851
 30
0.0
 10
-22.3426
 20
-9.085
 30
0.0
 10
-22.3426
 20
-9.085
 30
0.0
  0
SPLINE
  5
105
330
1F
100
AcDbEntity
  8
layer 1
 62
     7
100
AcDbSpline
210
0.0
220
0.0
230
1.0
 70
    11
 71
     3
 72
    20
 73
    16
 74
     0
 42
0.0000000001
 43
0.0000000001
 12
1.0
 22
0.0
 32
0.0
 13
1.0
 23
0.0
 33
0.0
 40
0.0
 40
0.0
 40
0.0
 40
0.0
 40
0.2
 40
0.2
 40
0.2
 40
0.2
 40
0.4
 40
0.4
 40
0.4
 40
0.4
 40
0.6
 40
0.6
 40
0.6
 40
0.6
 40
1.0
 40
1.0
 40
1.0
 40
1.0
 10
26.1181
 20
0.8948
 30
0.0
 10
26.6408
 20
4.6765
 30
0.0
 10
28.0347
 20
8.6518
 30
0.0
 10
29.8545
 20
11.659
 30
0.0
 10
29.8545
 20
11.659
 30
0.0
 10
28.0347
 20
14.6662
 30
0.0
 10
26.6407
 20
18.6415
 30
0.0
 10
26.1181
 20
22.4231
 30
0.0
 10
26.1181
 20
22.4231
 30
0.0
 10
25.5953
 20
18.6415
 30
0.0
 10
24.2015
 20
14.6662
 30
0.0
 10
22.3816
 20
11.659
 30
0.0
 10
22.3816
 20
11.659
 30
0.0
 10
24.2015
 20
8.6518
 30
0.0
 10
25.5954
 20
4.6765
 30
0.0
 10
26.1181
 20
0.8948
 30
0.0
  0
SPLINE
  5
106
330
1F
100
AcDbEntity
  8
layer 1
 62
     7
100
AcDbSpline
210
0.0
220
0.0
230
1.0
 70
    11
 71
     3
 72
    20
 73
    16
 74
     0
 42
0.0000000001
 43
0.0000000001
 12
1.0
 22
0.0
 32
0.0
 13
1.0
 23
0.0
 33
0.0
 40
0.0
 40
0.0
 40
0.0
 40
0.0
 40
0.2
 40
0.2
 40
0.2
 40
0.2
 40
0.4
 40
0.4
 40
0.4
 40
0.4
 40
0.6
 40
0.6
 40
0.6
 40
0.6
 40
1.0
 40
1.0
 40
1.0
 40
1.0
 10
-4.0507
 20
0.8948
 30
0.0
 10
-3.528
 20
4.6765
 30
0.0
 10
-2.1341
 20
8.6518
 30
0.0
 10
-0.3143
 20
11.659
 30
0.0
 10
-0.3143
 20
11.659
 30
0.0
 10
-2.1341
 20
14.6662
 30
0.0
 10
-3.528
 20
18.6415
 30
0.0
 10
-4.0507
 20
22.4231
 30
0.0
 10
-4.0507
 20
22.4231
 30
0.0
 10
-4.5734
 20
18.6415
 30
0.0
 10
-5.9673
 20
14.6662
 30
0.0
 10
-7.7871
 20
11.659
 30
0.0
 10
-7.7871
 20
11.659
 30
0.0
 10
-5.9673
 20
8.6518
 30
0.0
 10
-4.5734
 20
4.6765
 30
0.0
 10
-4.0507
 20
0.8948
 30
0.0
  0
SPLINE
  5
107
330
1F
100
AcDbEntity
  8
layer 1
 62
     7
100
AcDbSpline
210
0.0
220
0.0
230
1.0
 70
    11
 71
     3
 72
    20
 73
    16
 74
     0
 42
0.0000000001
 43
0.0000000001
 12
1.0
 22
0.0
 32
0.0
 13
1.0
 23
0.0
 33
0.0
 40
0.0
 40
0.0
 40
0.0
 40
0.0
 40
0.2
 40
0.2
 40
0.2
 40
0.2
 40
0.4
 40
0.4
 40
0.4
 40
0.4
 40
0.6
 40
0.6
 40
0.6
 40
0.6
 40
1.0
 40
1.0
 40
1.0
 40
1.0
 10
-34.4002
 20
0.8948
 30
0.0
 10
-33.8774
 20
4.6765
 30
0.0
 10
-32.4835
 20
8.6518
 30
0.0
 10
-30.6637
 20
11.659
 30
0.0
 10
-30.6637
 20
11.659
 30
0.0
 10
-32.4835
 20
14.6662
 30
0.0
 10
-33.8775
 20
18.6415
 30
0.0
 10
-34.4002
 20
22.4231
 30
0.0
 10
-34.4002
 20
22.4231
 30
0.0
 10
-34.9229
 20
18.6415
 30
0.0
 10
-36.3168
 20
14.6662
 30
0.0
 10
-38.1366
 20
11.659
 30
0.0
 10
-38.1366
 20
11.659
 30
0.0
 10
-36.3168
 20
8.6518
 30
0.0
 10
-34.9228
 20
4.6765
 30
0.0
 10
-34.4002
 20
0.8948
 30
0.0
  0
SPLINE
  5
108
330
1F
100
AcDbEntity
  8
layer 1
 62
     7
100
AcDbSpline
210
0.0
220
0.0
230
1.0
 70
    11
 71
     3
 72
    16
 73
    12
 74
     0
 42
0.0000000001
 43
0.0000000001
 12
1.0
 22
0.0
 32
0.0
 13
1.0
 23
0.0
 33
0.0
 40
0.0
 40
0.0
 40
0.0
 40
0.0
 40
0.25
 40
0.25
 40
0.25
 40
0.25
 40
0.5
 40
0.5
 40
0.5
 40
0.5
 40
1.0
 40
1.0
 40
1.0
 40
1.0
 10
-63.9115
 20
0.8948
 30
0.0
 10
-63.3888
 20
4.6765
 30
0.0
 10
-61.9949
 20
8.6518
 30
0.0
 10
-60.1751
 20
11.659
 30
0.0
 10
-60.1751
 20
11.659
 30
0.0
 10
-61.9949
 20
14.6662
 30
0.0
 10
-63.3889
 20
18.6415
 30
0.0
 10
-63.9115
 20
22.4231
 30
0.0
 10
-63.9115
 20
22.4231
 30
0.0
 10
-63.9115
 20
22.4231
 30
0.0
 10
-63.9115
 20
0.8948
 30
0.0
 10
-63.9115
 20
0.8948
 30
0.0
  0
SPLINE
  5
109
330
1F
100
AcDbEntity
  8
layer 1
 62
     7
100
AcDbSpline
210
0.0
220
0.0
230
1.0
 70
    11
 71
     3
 72
    16
 73
    12
 74
     0
 42
0.0000000001
 43
0.0000000001
 12
1.0
 22
0.0
 32
0.0
 13
1.0
 23
0.0
 33
0.0
 40
0.0
 40
0.0
 40
0.0
 40
0.0
 40
0.25
 40
0.25
 40
0.25
 40
0.25
 40
0.5
 40
0.5
 40
0.5
 40
0.5
 40
1.0
 40
1.0
 40
1.0
 40
1.0
 10
56.0258
 20
0.8948
 30
0.0
 10
55.503
 20
4.6765
 30
0.0
 10
54.1092
 20
8.6518
 30
0.0
 10
52.2893
 20
11.659
 30
0.0
 10
52.2893
 20
11.659
 30
0.0
 10
54.1092
 20
14.6662
 30
0.0
 10
55.5031
 20
18.6415
 30
0.0
 10
56.0258
 20
22.4231
 30
0.0
 10
56.0258
 20
22.4231
 30
0.0
 10
56.0258
 20
22.4231
 30
0.0
 10
56.0258
 20
0.8948
 30
0.0
 10
56.0258
 20
0.8948
 30
0.0
  0
SPLINE
  5
10A
330
1F
100
AcDbEntity
  8
layer 1
 62
     7
100
AcDbSpline
210
0.0
220
0.0
230
1.0
 70
    11
 71
     3
 72
    16
 73
    12
 74
     0
 42
0.0000000001
 43
0.0000000001
 12
1.0
 22
0.0
 32
0.0
 13
1.0
 23
0.0
 33
0.0
 40
0.0
 40
0.0
 40
0.0
 40
0.0
 40
0.25
 40
0.25
 40
0.25
 40
0.25
 40
0.5
 40
0.5
 40
0.5
 40
0.5
 40
1.0
 40
1.0
 40
1.0
 40
1.0
 10
0.2846
 20
-93.0816
 30
0.0
 10
0.2846
 20
-93.0816
 30
0.0
 10
21.8129
 20
-93.0816
 30
0.0
 10
21.8129
 20
-93.0816
 30
0.0
 10
21.8129
 20
-93.0816
 30
0.0
 10
18.0312
 20
-92.5588
 30
0.0
 10
14.0559
 20
-91.165
 30
0.0
 10
11.0487
 20
-89.3451
 30
0.0
 10
11.0487
 20
-89.3451
 30
0.0
 10
8.0415
 20
-91.165
 30
0.0
 10
4.0662
 20
-92.5589
 30
0.0
 10
0.2846
 20
-93.0816
 30
0.0
  0
SPLINE
  5
10B
330
1F
100
AcDbEntity
  8
layer 1
 62
     7
100
AcDbSpline
210
0.0
220
0.0
230
1.0
 70
    11
 71
     3
 72
    16
 73
    12
 74
     0
 42
0.0000000001
 43
0.0000000001
 12
1.0
 22
0.0
 32
0.0
 13
1.0
 23
0.0
 33
0.0
 40
0.0
 40
0.0
 40
0.0
 40
0.0
 40
0.25
 40
0.25
 40
0.25
 40
0.25
 40
0.5
 40
0.5
 40
0.5
 40
0.5
 40
1.0
 40
1.0
 40
1.0
 40
1.0
 10
-29.871
 20
-93.0816
 30
0.0
 10
-29.871
 20
-93.0816
 30
0.0
 10
-8.3427
 20
-93.0816
 30
0.0
 10
-8.3427
 20
-93.0816
 30
0.0
 10
-8.3427
 20
-93.0816
 30
0.0
 10
-12.1243
 20
-92.5588
 30
0.0
 10
-16.0996
 20
-91.165
 30
0.0
 10
-19.1068
 20
-89.3451
 30
0.0
 10
-19.1068
 20
-89.3451
 30
0.0
 10
-22.1141
 20
-91.165
 30
0.0
 10
-26.0894
 20
-92.5589
 30
0.0
 10
-29.871
 20
-93.0816
 30
0.0
  0
SPLINE
  5
10C
330
1F
100
AcDbEntity
  8
layer 1
 62
     7
100
AcDbSpline
210
0.0
220
0.0
230
1.0
 70
    11
 71
     3
 72
    16
 73
    12
 74
     0
 42
0.0000000001
 43
0.0000000001
 12
1.0
 22
0.0
 32
0.0
 13
1.0
 23
0.0
 33
0.0
 40
0.0
 40
0.0
 40
0.0
 40
0.0
 40
0.25
 40
0.25
 40
0.25
 40
0.25
 40
0.5
 40
0.5
 40
0.5
 40
0.5
 40
1.0
 40
1.0
 40
1.0
 40
1.0
 10
-59.5731
 20
-93.0816
 30
0.0
 10
-59.5731
 20
-93.0816
 30
0.0
 10
-38.0448
 20
-93.0816
 30
0.0
 10
-38.0448
 20
-93.0816
 30
0.0
 10
-38.0448
 20
-93.0816
 30
0.0
 10
-41.8265
 20
-92.5588
 30
0.0
 10
-45.8018
 20
-91.165
 30
0.0
 10
-48.809
 20
-89.3451
 30
0.0
 10
-48.809
 20
-89.3451
 30
0.0
 10
-51.8162
 20
-91.165
 30
0.0
 10
-55.7915
 20
-92.5589
 30
0.0
 10
-59.5731
 20
-93.0816
 30
0.0
  0
SPLINE
  5
10D
330
1F
100
AcDbEntity
  8
layer 1
 62
     7
100
AcDbSpline
210
0.0
220
0.0
230
1.0
 70
    11
 71
     3
 72
    16
 73
    12
 74
     0
 42
0.0000000001
 43
0.0000000001
 12
1.0
 22
0.0
 32
0.0
 13
1.0
 23
0.0
 33
0.0
 40
0.0
 40
0.0
 40
0.0
 40
0.0
 40
0.25
 40
0.25
 40
0.25
 40
0.25
 40
0.5
 40
0.5
 40
0.5
 40
0.5
 40
1.0
 40
1.0
 40
1.0
 40
1.0
 10
29.9867
 20
116.3253
 30
0.0
 10
29.9867
 20
116.3253
 30
0.0
 10
51.515
 20
116.3253
 30
0.0
 10
51.515
 20
116.3253
 30
0.0
 10
51.515
 20
116.3253
 30
0.0
 10
47.7334
 20
115.8026
 30
0.0
 10
43.7581
 20
114.4087
 30
0.0
 10
40.7509
 20
112.5889
 30
0.0
 10
40.7509
 20
112.5889
 30
0.0
 10
37.7436
 20
114.4087
 30
0.0
 10
33.7684
 20
115.8027
 30
0.0
 10
29.9867
 20
116.3253
 30
0.0
  0
SPLINE
  5
10E
330
1F
100
AcDbEntity
  8
layer 1
 62
     7
100
AcDbSpline
210
0.0
220
0.0
230
1.0
 70
    11
 71
     3
 72
    16
 73
    12
 74
     0
 42
0.0000000001
 43
0.0000000001
 12
1.0
 22
0.0
 32
0.0
 13
1.0
 23
0.0
 33
0.0
 40
0.0
 40
0.0
 40
0.0
 40
0.0
 40
0.25
 40
0.25
 40
0.25
 40
0.25
 40
0.5
 40
0.5
 40
0.5
 40
0.5
 40
1.0
 40
1.0
 40
1.0
 40
1.0
 10
0.2846
 20
116.3253
 30
0.0
 10
0.2846
 20
116.3253
 30
0.0
 10
21.8129
 20
116.3253
 30
0.0
 10
21.8129
 20
116.3253
 30
0.0
 10
21.8129
 20
116.3253
 30
0.0
 10
18.0312
 20
115.8026
 30
0.0
 10
14.0559
 20
114.4087
 30
0.0
 10
11.0487
 20
112.5889
 30
0.0
 10
11.0487
 20
112.5889
 30
0.0
 10
8.0415
 20
114.4087
 30
0.0
 10
4.0662
 20
115.8027
 30
0.0
 10
0.2846
 20
116.3253
 30
0.0
  0
SPLINE
  5
10F
330
1F
100
AcDbEntity
  8
layer 1
 62
     7
100
AcDbSpline
210
0.0
220
0.0
230
1.0
 70
    11
 71
     3
 72
    16
 73
    12
 74
     0
 42
0.0000000001
 43
0.0000000001
 12
1.0
 22
0.0
 32
0.0
 13
1.0
 23
0.0
 33
0.0
 40
0.0
 40
0.0
 40
0.0
 40
0.0
 40
0.25
 40
0.25
 40
0.25
 40
0.25
 40
0.5
 40
0.5
 40
0.5
 40
0.5
 40
1.0
 40
1.0
 40
1.0
 40
1.0
 10
-29.871
 20
116.3253
 30
0.0
 10
-29.871
 20
116.3253
 30
0.0
 10
-8.3427
 20
116.3253
 30
0.0
 10
-8.3427
 20
116.3253
 30
0.0
 10
-8.3427
 20
116.3253
 30
0.0
 10
-12.1243
 20
115.8026
 30
0.0
 10
-16.0996
 20
114.4087
 30
0.0
 10
-19.1068
 20
112.5889
 30
0.0
 10
-19.1068
 20
112.5889
 30
0.0
 10
-22.1141
 20
114.4087
 30
0.0
 10
-26.0894
 20
115.8027
 30
0.0
 10
-29.871
 20
116.3253
 30
0.0
  0
SPLINE
  5
110
330
1F
100
AcDbEntity
  8
layer 1
 62
     7
100
AcDbSpline
210
0.0
220
0.0
230
1.0
 70
    11
 71
     3
 72
    16
 73
    12
 74
     0
 42
0.0000000001
 43
0.0000000001
 12
1.0
 22
0.0
 32
0.0
 13
1.0
 23
0.0
 33
0.0
 40
0.0
 40
0.0
 40
0.0
 40
0.0
 40
0.25
 40
0.25
 40
0.25
 40
0.25
 40
0.5
 40
0.5
 40
0.5
 40
0.5
 40
1.0
 40
1.0
 40
1.0
 40
1.0
 10
-59.5731
 20
116.3253
 30
0.0
 10
-59.5731
 20
116.3253
 30
0.0
 10
-38.0448
 20
116.3253
 30
0.0
 10
-38.0448
 20
116.3253
 30
0.0
 10
-38.0448
 20
116.3253
 30
0.0
 10
-41.8265
 20
115.8026
 30
0.0
 10
-45.8018
 20
114.4087
 30
0.0
 10
-48.809
 20
112.5889
 30
0.0
 10
-48.809
 20
112.5889
 30
0.0
 10
-51.8162
 20
114.4087
 30
0.0
 10
-55.7915
 20
115.8027
 30
0.0
 10
-59.5731
 20
116.3253
 30
0.0
  0
ENDSEC
  0
SECTION
  2
OBJECTS
  0
DICTIONARY
  5
C
330
0
100
AcDbDictionary
281
     1
  3
ACAD_GROUP
350
D
  3
ACAD_LAYOUT
350
1A
  3
ACAD_MATERIAL
350
3B
  3
ACAD_MLEADERSTYLE
350
133
  3
ACAD_MLINESTYLE
350
17
  3
ACAD_PLOTSETTINGS
350
19
  3
ACAD_PLOTSTYLENAME
350
E
  3
ACAD_TABLESTYLE
350
132
  3
ACAD_VISUALSTYLE
350
2A
  0
DICTIONARY
  5
D
102
{ACAD_REACTORS
330
C
102
}
330
C
100
AcDbDictionary
281
     1
  0
DICTIONARY
  5
1A
102
{ACAD_REACTORS
330
C
102
}
330
C
100
AcDbDictionary
281
     1
  3
Layout1
350
1E
  3
Layout2
350
26
  3
Model
350
22
  0
DICTIONARY
  5
3B
102
{ACAD_REACTORS
330
C
102
}
330
C
100
AcDbDictionary
281
     1
  3
ByBlock
350
3D
  3
ByLayer
350
3C
  3
Global
350
3E
  0
DICTIONARY
  5
133
102
{ACAD_REACTORS
330
C
102
}
330
C
100
AcDbDictionary
281
     1
  0
DICTIONARY
  5
17
102
{ACAD_REACTORS
330
C
102
}
330
C
100
AcDbDictionary
281
     1
  3
Standard
350
18
  0
DICTIONARY
  5
19
102
{ACAD_REACTORS
330
C
102
}
330
C
100
AcDbDictionary
281
     1
  0
ACDBDICTIONARYWDFLT
  5
E
102
{ACAD_REACTORS
330
C
102
}
330
C
100
AcDbDictionary
281
     1
  3
Normal
350
F
100
AcDbDictionaryWithDefault
340
F
  0
DICTIONARY
  5
132
102
{ACAD_REACTORS
330
C
102
}
330
C
100
AcDbDictionary
281
     1
  0
DICTIONARY
  5
2A
102
{ACAD_REACTORS
330
C
102
}
330
C
100
AcDbDictionary
281
     1
  3
2dWireframe
350
2F
  3
3D Hidden
350
31
  3
3dWireframe
350
30
  3
Basic
350
32
  3
Brighten
350
36
  3
ColorChange
350
3A
  3
Conceptual
350
34
  3
Dim
350
35
  3
Facepattern
350
39
  3
Flat
350
2B
  3
FlatWithEdges
350
2C
  3
Gouraud
350
2D
  3
GouraudWithEdges
350
2E
  3
Linepattern
350
38
  3
Realistic
350
33
  3
Thicken
350
37
  0
LAYOUT
  5
1E
102
{ACAD_REACTORS
330
1A
102
}
330
1A
100
AcDbPlotSettings
  1

  2
none_device
  4

  6

 40
0.0
 41
0.0
 42
0.0
 43
0.0
 44
0.0
 45
0.0
 46
0.0
 47
0.0
 48
0.0
 49
0.0
140
0.0
141
0.0
142
1.0
143
1.0
 70
   688
 72
     0
 73
     0
 74
     5
  7

 75
    16
 76
     0
 77
     2
 78
   300
147
1.0
148
0.0
149
0.0
100
AcDbLayout
  1
Layout1
 70
     1
 71
     1
 10
0.0
 20
0.0
 11
12.0
 21
9.0
 12
0.0
 22
0.0
 32
0.0
 14
1.000000000000000E+20
 24
1.000000000000000E+20
 34
1.000000000000000E+20
 15
-1.000000000000000E+20
 25
-1.000000000000000E+20
 35
-1.000000000000000E+20
146
0.0
 13
0.0
 23
0.0
 33
0.0
 16
1.0
 26
0.0
 36
0.0
 17
0.0
 27
1.0
 37
0.0
 76
     0
330
1B
  0
LAYOUT
  5
26
102
{ACAD_REACTORS
330
1A
102
}
330
1A
100
AcDbPlotSettings
  1

  2
none_device
  4

  6

 40
0.0
 41
0.0
 42
0.0
 43
0.0
 44
0.0
 45
0.0
 46
0.0
 47
0.0
 48
0.0
 49
0.0
140
0.0
141
0.0
142
1.0
143
1.0
 70
   688
 72
     0
 73
     0
 74
     5
  7

 75
    16
 76
     0
 77
     2
 78
   300
147
1.0
148
0.0
149
0.0
100
AcDbLayout
  1
Layout2
 70
     1
 71
     2
 10
0.0
 20
0.0
 11
0.0
 21
0.0
 12
0.0
 22
0.0
 32
0.0
 14
0.0
 24
0.0
 34
0.0
 15
0.0
 25
0.0
 35
0.0
146
0.0
 13
0.0
 23
0.0
 33
0.0
 16
1.0
 26
0.0
 36
0.0
 17
0.0
 27
1.0
 37
0.0
 76
     0
330
23
  0
LAYOUT
  5
22
102
{ACAD_REACTORS
330
1A
102
}
330
1A
100
AcDbPlotSettings
  1

  2
none_device
  4

  6

 40
0.0
 41
0.0
 42
0.0
 43
0.0
 44
0.0
 45
0.0
 46
0.0
 47
0.0
 48
0.0
 49
0.0
140
0.0
141
0.0
142
1.0
143
1.0
 70
  1712
 72
     0
 73
     0
 74
     0
  7

 75
     0
 76
     0
 77
     2
 78
   300
147
1.0
148
0.0
149
0.0
100
AcDbLayout
  1
Model
 70
     1
 71
     0
 10
0.0
 20
0.0
 11
12.0
 21
9.0
 12
0.0
 22
0.0
 32
0.0
 14
-69.5007
 24
-99.2904
 34
0.0
 15
61.615
 25
122.5342
 35
0.0
146
0.0
 13
0.0
 23
0.0
 33
0.0
 16
1.0
 26
0.0
 36
0.0
 17
0.0
 27
1.0
 37
0.0
 76
     0
330
1F
331
29
  0
MATERIAL
  5
3D
102
{ACAD_REACTORS
330
3B
102
}
330
3B
100
AcDbMaterial
  1
ByBlock
 72
     1
 94
      127
  0
MATERIAL
  5
3C
102
{ACAD_REACTORS
330
3B
102
}
330
3B
100
AcDbMaterial
  1
ByLayer
 72
     1
 94
      127
  0
MATERIAL
  5
3E
102
{ACAD_REACTORS
330
3B
102
}
330
3B
100
AcDbMaterial
  1
Global
 72
     1
 94
      127
  0
MLINESTYLE
  5
18
102
{ACAD_REACTORS
330
17
102
}
330
17
100
AcDbMlineStyle
  2
Standard
 70
     0
  3

 62
   256
 51
90.0
 52
90.0
 71
     2
 49
0.5
 62
   256
  6
BYLAYER
 49
-0.5
 62
   256
  6
BYLAYER
  0
ACDBPLACEHOLDER
  5
F
102
{ACAD_REACTORS
330
E
102
}
330
E
  0
VISUALSTYLE
  5
2F
102
{ACAD_REACTORS
330
2A
102
}
102
{ACAD_XDICTIONARY
360
11A
102
}
330
2A
100
AcDbVisualStyle
  2
2dWireframe
 70
     4
 71
     0
 72
     2
 73
     0
 90
        0
 40
-0.6
 41
-30.0
 62
     5
 63
     7
421
 16777215
 74
     1
 91
        4
 64
     7
 65
   257
 75
     1
175
     1
 42
1.0
 92
        0
 66
   257
 43
1.0
 76
     1
 77
     6
 78
     2
 67
     7
 79
     5
170
     0
171
     0
290
     0
174
     0
 93
        1
 44
0.0
173
     0
291
     0
 45
0.0
  0
VISUALSTYLE
  5
31
102
{ACAD_REACTORS
330
2A
102
}
102
{ACAD_XDICTIONARY
360
11E
102
}
330
2A
100
AcDbVisualStyle
  2
3D Hidden
 70
     6
 71
     1
 72
     2
 73
     2
 90
        0
 40
-0.6
 41
-30.0
 62
     5
 63
     7
421
 16777215
 74
     2
 91
        2
 64
     7
 65
   257
 75
     2
175
     1
 42
40.0
 92
        0
 66
   257
 43
1.0
 76
     1
 77
     6
 78
     2
 67
     7
 79
     3
170
     0
171
     0
290
     0
174
     0
 93
        1
 44
0.0
173
     0
291
     0
 45
0.0
  0
VISUALSTYLE
  5
30
102
{ACAD_REACTORS
330
2A
102
}
102
{ACAD_XDICTIONARY
360
11C
102
}
330
2A
100
AcDbVisualStyle
  2
3dWireframe
 70
     5
 71
     0
 72
     2
 73
     0
 90
        0
 40
-0.6
 41
-30.0
 62
     5
 63
     7
421
 16777215
 74
     1
 91
        4
 64
     7
 65
   257
 75
     1
175
     1
 42
1.0
 92
        0
 66
   257
 43
1.0
 76
     1
 77
     6
 78
     2
 67
     7
 79
     5
170
     0
171
     0
290
     0
174
     0
 93
        1
 44
0.0
173
     0
291
     0
 45
0.0
  0
VISUALSTYLE
  5
32
102
{ACAD_REACTORS
330
2A
102
}
102
{ACAD_XDICTIONARY
360
120
102
}
330
2A
100
AcDbVisualStyle
  2
Basic
 70
     7
 71
     1
 72
     0
 73
     1
 90
        0
 40
-0.6
 41
-30.0
 62
     5
 63
     7
421
 16777215
 74
     0
 91
        4
 64
     7
 65
   257
 75
     1
175
     1
 42
1.0
 92
        8
 66
     7
 43
1.0
 76
     1
 77
     6
 78
     2
 67
     7
 79
     5
170
     0
171
     0
290
     0
174
     0
 93
        1
 44
0.0
173
     0
291
     1
 45
0.0
  0
VISUALSTYLE
  5
36
102
{ACAD_REACTORS
330
2A
102
}
102
{ACAD_XDICTIONARY
360
128
102
}
330
2A
100
AcDbVisualStyle
  2
Brighten
 70
    12
 71
     2
 72
     2
 73
     0
 90
        0
 40
-0.6
 41
-30.0
 62
     5
 63
     7
421
 16777215
 74
     1
 91
        4
 64
     7
 65
   257
 75
     1
175
     1
 42
1.0
 92
        8
 66
     7
 43
1.0
 76
     1
 77
     6
 78
     2
 67
     7
 79
     5
170
     0
171
     0
290
     0
174
     0
 93
        1
 44
50.0
173
     0
291
     1
 45
0.0
  0
VISUALSTYLE
  5
3A
102
{ACAD_REACTORS
330
2A
102
}
102
{ACAD_XDICTIONARY
360
130
102
}
330
2A
100
AcDbVisualStyle
  2
ColorChange
 70
    16
 71
     2
 72
     2
 73
     3
 90
        0
 40
-0.6
 41
-30.0
 62
     5
 63
     8
421
  8421504
 74
     1
 91
        4
 64
     7
 65
   257
 75
     1
175
     1
 42
1.0
 92
        8
 66
     8
424
  8421504
 43
1.0
 76
     1
 77
     6
 78
     2
 67
     7
 79
     5
170
     0
171
     0
290
     0
174
     0
 93
        1
 44
0.0
173
     0
291
     1
 45
0.0
  0
VISUALSTYLE
  5
34
102
{ACAD_REACTORS
330
2A
102
}
102
{ACAD_XDICTIONARY
360
124
102
}
330
2A
100
AcDbVisualStyle
  2
Conceptual
 70
     9
 71
     3
 72
     2
 73
     0
 90
        0
 40
-0.6
 41
-30.0
 62
     5
 63
     7
421
 16777215
 74
     2
 91
        2
 64
     7
 65
   257
 75
     1
175
     1
 42
40.0
 92
        8
 66
     7
 43
1.0
 76
     1
 77
     6
 78
     2
 67
     7
 79
     3
170
     0
171
     0
290
     0
174
     0
 93
        1
 44
0.0
173
     0
291
     0
 45
0.0
  0
VISUALSTYLE
  5
35
102
{ACAD_REACTORS
330
2A
102
}
102
{ACAD_XDICTIONARY
360
126
102
}
330
2A
100
AcDbVisualStyle
  2
Dim
 70
    11
 71
     2
 72
     2
 73
     0
 90
        0
 40
-0.6
 41
-30.0
 62
     5
 63
     7
421
 16777215
 74
     1
 91
        4
 64
     7
 65
   257
 75
     1
175
     1
 42
1.0
 92
        8
 66
     7
 43
1.0
 76
     1
 77
     6
 78
     2
 67
     7
 79
     5
170
     0
171
     0
290
     0
174
     0
 93
        1
 44
-50.0
173
     0
291
     1
 45
0.0
  0
VISUALSTYLE
  5
39
102
{ACAD_REACTORS
330
2A
102
}
102
{ACAD_XDICTIONARY
360
12E
102
}
330
2A
100
AcDbVisualStyle
  2
Facepattern
 70
    15
 71
     2
 72
     2
 73
     0
 90
        0
 40
-0.6
 41
-30.0
 62
     5
 63
     7
421
 16777215
 74
     1
 91
        4
 64
     7
 65
   257
 75
     1
175
     1
 42
1.0
 92
        8
 66
     7
 43
1.0
 76
     1
 77
     6
 78
     2
 67
     7
 79
     5
170
     0
171
     0
290
     0
174
     0
 93
        1
 44
0.0
173
     0
291
     1
 45
0.0
  0
VISUALSTYLE
  5
2B
102
{ACAD_REACTORS
330
2A
102
}
102
{ACAD_XDICTIONARY
360
112
102
}
330
2A
100
AcDbVisualStyle
  2
Flat
 70
     0
 71
     2
 72
     1
 73
     1
 90
        2
 40
-0.6
 41
30.0
 62
     5
 63
     7
421
 16777215
 74
     0
 91
        4
 64
     7
 65
   257
 75
     1
175
     1
 42
1.0
 92
        8
 66
     7
 43
1.0
 76
     1
 77
     6
 78
     2
 67
     7
 79
     5
170
     0
171
     0
290
     0
174
     0
 93
       13
 44
0.0
173
     0
291
     1
 45
0.0
  0
VISUALSTYLE
  5
2C
102
{ACAD_REACTORS
330
2A
102
}
102
{ACAD_XDICTIONARY
360
114
102
}
330
2A
100
AcDbVisualStyle
  2
FlatWithEdges
 70
     1
 71
     2
 72
     1
 73
     1
 90
        2
 40
-0.6
 41
30.0
 62
     5
 63
     7
421
 16777215
 74
     1
 91
        4
 64
     7
 65
   257
 75
     1
175
     1
 42
1.0
 92
        0
 66
   257
 43
1.0
 76
     1
 77
     6
 78
     2
 67
     7
 79
     5
170
     0
171
     0
290
     0
174
     0
 93
       13
 44
0.0
173
     0
291
     1
 45
0.0
  0
VISUALSTYLE
  5
2D
102
{ACAD_REACTORS
330
2A
102
}
102
{ACAD_XDICTIONARY
360
116
102
}
330
2A
100
AcDbVisualStyle
  2
Gouraud
 70
     2
 71
     2
 72
     2
 73
     1
 90
        2
 40
-0.6
 41
30.0
 62
     5
 63
     7
421
 16777215
 74
     0
 91
        4
 64
     7
 65
   257
 75
     1
175
     1
 42
1.0
 92
        0
 66
     7
 43
1.0
 76
     1
 77
     6
 78
     2
 67
     7
 79
     5
170
     0
171
     0
290
     0
174
     0
 93
       13
 44
0.0
173
     0
291
     1
 45
0.0
  0
VISUALSTYLE
  5
2E
102
{ACAD_REACTORS
330
2A
102
}
102
{ACAD_XDICTIONARY
360
118
102
}
330
2A
100
AcDbVisualStyle
  2
GouraudWithEdges
 70
     3
 71
     2
 72
     2
 73
     1
 90
        2
 40
-0.6
 41
30.0
 62
     5
 63
     7
421
 16777215
 74
     1
 91
        4
 64
     7
 65
   257
 75
     1
175
     1
 42
1.0
 92
        0
 66
   257
 43
1.0
 76
     1
 77
     6
 78
     2
 67
     7
 79
     5
170
     0
171
     0
290
     0
174
     0
 93
       13
 44
0.0
173
     0
291
     1
 45
0.0
  0
VISUALSTYLE
  5
38
102
{ACAD_REACTORS
330
2A
102
}
102
{ACAD_XDICTIONARY
360
12C
102
}
330
2A
100
AcDbVisualStyle
  2
Linepattern
 70
    14
 71
     2
 72
     2
 73
     0
 90
        0
 40
-0.6
 41
-30.0
 62
     5
 63
     7
421
 16777215
 74
     1
 91
        4
 64
     7
 65
   257
 75
     7
175
     7
 42
1.0
 92
        8
 66
     7
 43
1.0
 76
     1
 77
     6
 78
     2
 67
     7
 79
     5
170
     0
171
     0
290
     0
174
     0
 93
        1
 44
0.0
173
     0
291
     1
 45
0.0
  0
VISUALSTYLE
  5
33
102
{ACAD_REACTORS
330
2A
102
}
102
{ACAD_XDICTIONARY
360
122
102
}
330
2A
100
AcDbVisualStyle
  2
Realistic
 70
     8
 71
     2
 72
     2
 73
     0
 90
        0
 40
-0.6
 41
-30.0
 62
     5
 63
     7
421
 16777215
 74
     1
 91
        0
 64
     7
 65
   257
 75
     1
175
     1
 42
1.0
 92
        8
 66
     8
424
  7895160
 43
1.0
 76
     1
 77
     6
 78
     2
 67
     7
 79
     5
170
     0
171
     0
290
     0
174
     0
 93
       13
 44
0.0
173
     0
291
     0
 45
0.0
  0
VISUALSTYLE
  5
37
102
{ACAD_REACTORS
330
2A
102
}
102
{ACAD_XDICTIONARY
360
12A
102
}
330
2A
100
AcDbVisualStyle
  2
Thicken
 70
    13
 71
     2
 72
     2
 73
     0
 90
        0
 40
-0.6
 41
-30.0
 62
     5
 63
     7
421
 16777215
 74
     1
 91
        4
 64
     7
 65
   257
 75
     1
175
     1
 42
1.0
 92
       12
 66
     7
 43
1.0
 76
     1
 77
     6
 78
     2
 67
     7
 79
     5
170
     0
171
     0
290
     0
174
     0
 93
        1
 44
0.0
173
     0
291
     1
 45
0.0
  0
DICTIONARY
  5
11A
330
2F
100
AcDbDictionary
280
     1
281
     1
  3
ACAD_XREC_ROUNDTRIP
360
11B
  0
DICTIONARY
  5
11E
330
31
100
AcDbDictionary
280
     1
281
     1
  3
ACAD_XREC_ROUNDTRIP
360
11F
  0
DICTIONARY
  5
11C
330
30
100
AcDbDictionary
280
     1
281
     1
  3
ACAD_XREC_ROUNDTRIP
360
11D
  0
DICTIONARY
  5
120
330
32
100
AcDbDictionary
280
     1
281
     1
  3
ACAD_XREC_ROUNDTRIP
360
121
  0
DICTIONARY
  5
128
330
36
100
AcDbDictionary
280
     1
281
     1
  3
ACAD_XREC_ROUNDTRIP
360
129
  0
DICTIONARY
  5
130
330
3A
100
AcDbDictionary
280
     1
281
     1
  3
ACAD_XREC_ROUNDTRIP
360
131
  0
DICTIONARY
  5
124
330
34
100
AcDbDictionary
280
     1
281
     1
  3
ACAD_XREC_ROUNDTRIP
360
125
  0
DICTIONARY
  5
126
330
35
100
AcDbDictionary
280
     1
281
     1
  3
ACAD_XREC_ROUNDTRIP
360
127
  0
DICTIONARY
  5
12E
330
39
100
AcDbDictionary
280
     1
281
     1
  3
ACAD_XREC_ROUNDTRIP
360
12F
  0
DICTIONARY
  5
112
330
2B
100
AcDbDictionary
280
     1
281
     1
  3
ACAD_XREC_ROUNDTRIP
360
113
  0
DICTIONARY
  5
114
330
2C
100
AcDbDictionary
280
     1
281
     1
  3
ACAD_XREC_ROUNDTRIP
360
115
  0
DICTIONARY
  5
116
330
2D
100
AcDbDictionary
280
     1
281
     1
  3
ACAD_XREC_ROUNDTRIP
360
117
  0
DICTIONARY
  5
118
330
2E
100
AcDbDictionary
280
     1
281
     1
  3
ACAD_XREC_ROUNDTRIP
360
119
  0
DICTIONARY
  5
12C
330
38
100
AcDbDictionary
280
     1
281
     1
  3
ACAD_XREC_ROUNDTRIP
360
12D
  0
DICTIONARY
  5
122
330
33
100
AcDbDictionary
280
     1
281
     1
  3
ACAD_XREC_ROUNDTRIP
360
123
  0
DICTIONARY
  5
12A
330
37
100
AcDbDictionary
280
     1
281
     1
  3
ACAD_XREC_ROUNDTRIP
360
12B
  0
XRECORD
  5
11B
102
{ACAD_REACTORS
330
11A
102
}
330
11A
100
AcDbXrecord
280
     1
102
RTVSPropertyOp0
 70
     1
102
RTVSPropertyOp1
 70
     1
102
RTVSPropertyOp2
 70
     1
102
RTVSPropertyOp3
 70
     1
102
RTVSPropertyOp4
 70
     1
102
RTVSPropertyOp5
 70
     1
102
RTVSPropertyOp6
 70
     1
102
RTVSPropertyOp7
 70
     1
102
RTVSPropertyOp8
 70
     1
102
RTVSPropertyOp9
 70
     1
102
RTVSPropertyOp10
 70
     1
102
RTVSPropertyOp11
 70
     1
102
RTVSPropertyOp12
 70
     1
102
RTVSPropertyOp13
 70
     1
102
RTVSPropertyOp14
 70
     1
102
RTVSPropertyOp15
 70
     1
102
RTVSPropertyOp16
 70
     1
102
RTVSPropertyOp17
 70
     1
102
RTVSPropertyOp18
 70
     1
102
RTVSPropertyOp19
 70
     1
102
RTVSPropertyOp20
 70
     1
102
RTVSPropertyOp21
 70
     1
102
RTVSPropertyOp22
 70
     1
102
RTVSPropertyOp23
 70
     1
102
RTVSPropertyOp24
 70
     1
102
RTVSPropertyOp25
 70
     1
102
RTVSPropertyOp26
 70
     1
102
RTVSPropertyOp27
 70
     1
102
RTVSPropertyOp28
 70
     1
102
RTVSPropertyOp29
 70
     1
102
RTVSPropertyOp30
 70
     1
102
RTVSPropertyOp31
 70
     1
102
RTVSPropertyOp32
 70
     1
  0
XRECORD
  5
11F
102
{ACAD_REACTORS
330
11E
102
}
330
11E
100
AcDbXrecord
280
     1
102
RTVSPropertyOp0
 70
     1
102
RTVSPropertyOp1
 70
     1
102
RTVSPropertyOp2
 70
     1
102
RTVSPropertyOp3
 70
     1
102
RTVSPropertyOp4
 70
     1
102
RTVSPropertyOp5
 70
     1
102
RTVSPropertyOp6
 70
     1
102
RTVSPropertyOp7
 70
     1
102
RTVSPropertyOp8
 70
     1
102
RTVSPropertyOp9
 70
     1
102
RTVSPropertyOp10
 70
     1
102
RTVSPropertyOp11
 70
     1
102
RTVSPropertyOp12
 70
     1
102
RTVSPropertyOp13
 70
     1
102
RTVSPropertyOp14
 70
     1
102
RTVSPropertyOp15
 70
     1
102
RTVSPropertyOp16
 70
     1
102
RTVSPropertyOp17
 70
     1
102
RTVSPropertyOp18
 70
     1
102
RTVSPropertyOp19
 70
     1
102
RTVSPropertyOp20
 70
     1
102
RTVSPropertyOp21
 70
     1
102
RTVSPropertyOp22
 70
     1
102
RTVSPropertyOp23
 70
     1
102
RTVSPropertyOp24
 70
     1
102
RTVSPropertyOp25
 70
     1
102
RTVSPropertyOp26
 70
     1
102
RTVSPropertyOp27
 70
     1
102
RTVSPropertyOp28
 70
     1
102
RTVSPropertyOp29
 70
     1
102
RTVSPropertyOp30
 70
     1
102
RTVSPropertyOp31
 70
     1
102
RTVSPropertyOp32
 70
     1
  0
XRECORD
  5
11D
102
{ACAD_REACTORS
330
11C
102
}
330
11C
100
AcDbXrecord
280
     1
102
RTVSPropertyOp0
 70
     1
102
RTVSPropertyOp1
 70
     1
102
RTVSPropertyOp2
 70
     1
102
RTVSPropertyOp3
 70
     1
102
RTVSPropertyOp4
 70
     1
102
RTVSPropertyOp5
 70
     1
102
RTVSPropertyOp6
 70
     1
102
RTVSPropertyOp7
 70
     1
102
RTVSPropertyOp8
 70
     1
102
RTVSPropertyOp9
 70
     1
102
RTVSPropertyOp10
 70
     1
102
RTVSPropertyOp11
 70
     1
102
RTVSPropertyOp12
 70
     1
102
RTVSPropertyOp13
 70
     1
102
RTVSPropertyOp14
 70
     1
102
RTVSPropertyOp15
 70
     1
102
RTVSPropertyOp16
 70
     1
102
RTVSPropertyOp17
 70
     1
102
RTVSPropertyOp18
 70
     1
102
RTVSPropertyOp19
 70
     1
102
RTVSPropertyOp20
 70
     1
102
RTVSPropertyOp21
 70
     1
102
RTVSPropertyOp22
 70
     1
102
RTVSPropertyOp23
 70
     1
102
RTVSPropertyOp24
 70
     1
102
RTVSPropertyOp25
 70
     1
102
RTVSPropertyOp26
 70
     1
102
RTVSPropertyOp27
 70
     1
102
RTVSPropertyOp28
 70
     1
102
RTVSPropertyOp29
 70
     1
102
RTVSPropertyOp30
 70
     1
102
RTVSPropertyOp31
 70
     1
102
RTVSPropertyOp32
 70
     1
  0
XRECORD
  5
121
102
{ACAD_REACTORS
330
120
102
}
330
120
100
AcDbXrecord
280
     1
102
RTVSPropertyOp0
 70
     1
102
RTVSPropertyOp1
 70
     1
102
RTVSPropertyOp2
 70
     1
102
RTVSPropertyOp3
 70
     1
102
RTVSPropertyOp4
 70
     1
102
RTVSPropertyOp5
 70
     1
102
RTVSPropertyOp6
 70
     1
102
RTVSPropertyOp7
 70
     1
102
RTVSPropertyOp8
 70
     1
102
RTVSPropertyOp9
 70
     1
102
RTVSPropertyOp10
 70
     1
102
RTVSPropertyOp11
 70
     1
102
RTVSPropertyOp12
 70
     1
102
RTVSPropertyOp13
 70
     1
102
RTVSPropertyOp14
 70
     1
102
RTVSPropertyOp15
 70
     1
102
RTVSPropertyOp16
 70
     1
102
RTVSPropertyOp17
 70
     1
102
RTVSPropertyOp18
 70
     1
102
RTVSPropertyOp19
 70
     1
102
RTVSPropertyOp20
 70
     1
102
RTVSPropertyOp21
 70
     1
102
RTVSPropertyOp22
 70
     1
102
RTVSPropertyOp23
 70
     1
102
RTVSPropertyOp24
 70
     1
102
RTVSPropertyOp25
 70
     1
102
RTVSPropertyOp26
 70
     1
102
RTVSPropertyOp27
 70
     1
102
RTVSPropertyOp28
 70
     1
102
RTVSPropertyOp29
 70
     1
102
RTVSPropertyOp30
 70
     1
102
RTVSPropertyOp31
 70
     1
102
RTVSPropertyOp32
 70
     1
  0
XRECORD
  5
129
102
{ACAD_REACTORS
330
128
102
}
330
128
100
AcDbXrecord
280
     1
102
RTVSPropertyOp0
 70
     1
102
RTVSPropertyOp1
 70
     1
102
RTVSPropertyOp2
 70
     1
102
RTVSPropertyOp3
 70
     1
102
RTVSPropertyOp4
 70
     1
102
RTVSPropertyOp5
 70
     1
102
RTVSPropertyOp6
 70
     1
102
RTVSPropertyOp7
 70
     1
102
RTVSPropertyOp8
 70
     1
102
RTVSPropertyOp9
 70
     1
102
RTVSPropertyOp10
 70
     1
102
RTVSPropertyOp11
 70
     1
102
RTVSPropertyOp12
 70
     1
102
RTVSPropertyOp13
 70
     1
102
RTVSPropertyOp14
 70
     1
102
RTVSPropertyOp15
 70
     1
102
RTVSPropertyOp16
 70
     1
102
RTVSPropertyOp17
 70
     1
102
RTVSPropertyOp18
 70
     1
102
RTVSPropertyOp19
 70
     1
102
RTVSPropertyOp20
 70
     1
102
RTVSPropertyOp21
 70
     1
102
RTVSPropertyOp22
 70
     1
102
RTVSPropertyOp23
 70
     1
102
RTVSPropertyOp24
 70
     1
102
RTVSPropertyOp25
 70
     1
102
RTVSPropertyOp26
 70
     1
102
RTVSPropertyOp27
 70
     1
102
RTVSPropertyOp28
 70
     1
102
RTVSPropertyOp29
 70
     1
102
RTVSPropertyOp30
 70
     1
102
RTVSPropertyOp31
 70
     1
102
RTVSPropertyOp32
 70
     1
  0
XRECORD
  5
131
102
{ACAD_REACTORS
330
130
102
}
330
130
100
AcDbXrecord
280
     1
102
RTVSPropertyOp0
 70
     1
102
RTVSPropertyOp1
 70
     1
102
RTVSPropertyOp2
 70
     1
102
RTVSPropertyOp3
 70
     1
102
RTVSPropertyOp4
 70
     1
102
RTVSPropertyOp5
 70
     1
102
RTVSPropertyOp6
 70
     1
102
RTVSPropertyOp7
 70
     1
102
RTVSPropertyOp8
 70
     1
102
RTVSPropertyOp9
 70
     1
102
RTVSPropertyOp10
 70
     1
102
RTVSPropertyOp11
 70
     1
102
RTVSPropertyOp12
 70
     1
102
RTVSPropertyOp13
 70
     1
102
RTVSPropertyOp14
 70
     1
102
RTVSPropertyOp15
 70
     1
102
RTVSPropertyOp16
 70
     1
102
RTVSPropertyOp17
 70
     1
102
RTVSPropertyOp18
 70
     1
102
RTVSPropertyOp19
 70
     1
102
RTVSPropertyOp20
 70
     1
102
RTVSPropertyOp21
 70
     1
102
RTVSPropertyOp22
 70
     1
102
RTVSPropertyOp23
 70
     1
102
RTVSPropertyOp24
 70
     1
102
RTVSPropertyOp25
 70
     1
102
RTVSPropertyOp26
 70
     1
102
RTVSPropertyOp27
 70
     1
102
RTVSPropertyOp28
 70
     1
102
RTVSPropertyOp29
 70
     1
102
RTVSPropertyOp30
 70
     1
102
RTVSPropertyOp31
 70
     1
102
RTVSPropertyOp32
 70
     1
  0
XRECORD
  5
125
102
{ACAD_REACTORS
330
124
102
}
330
124
100
AcDbXrecord
280
     1
102
RTVSPropertyOp0
 70
     1
102
RTVSPropertyOp1
 70
     1
102
RTVSPropertyOp2
 70
     1
102
RTVSPropertyOp3
 70
     1
102
RTVSPropertyOp4
 70
     1
102
RTVSPropertyOp5
 70
     1
102
RTVSPropertyOp6
 70
     1
102
RTVSPropertyOp7
 70
     1
102
RTVSPropertyOp8
 70
     1
102
RTVSPropertyOp9
 70
     1
102
RTVSPropertyOp10
 70
     1
102
RTVSPropertyOp11
 70
     1
102
RTVSPropertyOp12
 70
     1
102
RTVSPropertyOp13
 70
     1
102
RTVSPropertyOp14
 70
     1
102
RTVSPropertyOp15
 70
     1
102
RTVSPropertyOp16
 70
     1
102
RTVSPropertyOp17
 70
     1
102
RTVSPropertyOp18
 70
     1
102
RTVSPropertyOp19
 70
     1
102
RTVSPropertyOp20
 70
     1
102
RTVSPropertyOp21
 70
     1
102
RTVSPropertyOp22
 70
     1
102
RTVSPropertyOp23
 70
     1
102
RTVSPropertyOp24
 70
     1
102
RTVSPropertyOp25
 70
     1
102
RTVSPropertyOp26
 70
     1
102
RTVSPropertyOp27
 70
     1
102
RTVSPropertyOp28
 70
     1
102
RTVSPropertyOp29
 70
     1
102
RTVSPropertyOp30
 70
     1
102
RTVSPropertyOp31
 70
     1
102
RTVSPropertyOp32
 70
     1
  0
XRECORD
  5
127
102
{ACAD_REACTORS
330
126
102
}
330
126
100
AcDbXrecord
280
     1
102
RTVSPropertyOp0
 70
     1
102
RTVSPropertyOp1
 70
     1
102
RTVSPropertyOp2
 70
     1
102
RTVSPropertyOp3
 70
     1
102
RTVSPropertyOp4
 70
     1
102
RTVSPropertyOp5
 70
     1
102
RTVSPropertyOp6
 70
     1
102
RTVSPropertyOp7
 70
     1
102
RTVSPropertyOp8
 70
     1
102
RTVSPropertyOp9
 70
     1
102
RTVSPropertyOp10
 70
     1
102
RTVSPropertyOp11
 70
     1
102
RTVSPropertyOp12
 70
     1
102
RTVSPropertyOp13
 70
     1
102
RTVSPropertyOp14
 70
     1
102
RTVSPropertyOp15
 70
     1
102
RTVSPropertyOp16
 70
     1
102
RTVSPropertyOp17
 70
     1
102
RTVSPropertyOp18
 70
     1
102
RTVSPropertyOp19
 70
     1
102
RTVSPropertyOp20
 70
     1
102
RTVSPropertyOp21
 70
     1
102
RTVSPropertyOp22
 70
     1
102
RTVSPropertyOp23
 70
     1
102
RTVSPropertyOp24
 70
     1
102
RTVSPropertyOp25
 70
     1
102
RTVSPropertyOp26
 70
     1
102
RTVSPropertyOp27
 70
     1
102
RTVSPropertyOp28
 70
     1
102
RTVSPropertyOp29
 70
     1
102
RTVSPropertyOp30
 70
     1
102
RTVSPropertyOp31
 70
     1
102
RTVSPropertyOp32
 70
     1
  0
XRECORD
  5
12F
102
{ACAD_REACTORS
330
12E
102
}
330
12E
100
AcDbXrecord
280
     1
102
RTVSPropertyOp0
 70
     1
102
RTVSPropertyOp1
 70
     1
102
RTVSPropertyOp2
 70
     1
102
RTVSPropertyOp3
 70
     1
102
RTVSPropertyOp4
 70
     1
102
RTVSPropertyOp5
 70
     1
102
RTVSPropertyOp6
 70
     1
102
RTVSPropertyOp7
 70
     1
102
RTVSPropertyOp8
 70
     1
102
RTVSPropertyOp9
 70
     1
102
RTVSPropertyOp10
 70
     1
102
RTVSPropertyOp11
 70
     1
102
RTVSPropertyOp12
 70
     1
102
RTVSPropertyOp13
 70
     1
102
RTVSPropertyOp14
 70
     1
102
RTVSPropertyOp15
 70
     1
102
RTVSPropertyOp16
 70
     1
102
RTVSPropertyOp17
 70
     1
102
RTVSPropertyOp18
 70
     1
102
RTVSPropertyOp19
 70
     1
102
RTVSPropertyOp20
 70
     1
102
RTVSPropertyOp21
 70
     1
102
RTVSPropertyOp22
 70
     1
102
RTVSPropertyOp23
 70
     1
102
RTVSPropertyOp24
 70
     1
102
RTVSPropertyOp25
 70
     1
102
RTVSPropertyOp26
 70
     1
102
RTVSPropertyOp27
 70
     1
102
RTVSPropertyOp28
 70
     1
102
RTVSPropertyOp29
 70
     1
102
RTVSPropertyOp30
 70
     1
102
RTVSPropertyOp31
 70
     1
102
RTVSPropertyOp32
 70
     1
  0
XRECORD
  5
113
102
{ACAD_REACTORS
330
112
102
}
330
112
100
AcDbXrecord
280
     1
102
RTVSPropertyOp0
 70
     1
102
RTVSPropertyOp1
 70
     1
102
RTVSPropertyOp2
 70
     1
102
RTVSPropertyOp3
 70
     1
102
RTVSPropertyOp4
 70
     1
102
RTVSPropertyOp5
 70
     1
102
RTVSPropertyOp6
 70
     1
102
RTVSPropertyOp7
 70
     1
102
RTVSPropertyOp8
 70
     1
102
RTVSPropertyOp9
 70
     1
102
RTVSPropertyOp10
 70
     1
102
RTVSPropertyOp11
 70
     1
102
RTVSPropertyOp12
 70
     1
102
RTVSPropertyOp13
 70
     1
102
RTVSPropertyOp14
 70
     1
102
RTVSPropertyOp15
 70
     1
102
RTVSPropertyOp16
 70
     1
102
RTVSPropertyOp17
 70
     1
102
RTVSPropertyOp18
 70
     1
102
RTVSPropertyOp19
 70
     1
102
RTVSPropertyOp20
 70
     1
102
RTVSPropertyOp21
 70
     1
102
RTVSPropertyOp22
 70
     1
102
RTVSPropertyOp23
 70
     1
102
RTVSPropertyOp24
 70
     1
102
RTVSPropertyOp25
 70
     1
102
RTVSPropertyOp26
 70
     1
102
RTVSPropertyOp27
 70
     1
102
RTVSPropertyOp28
 70
     1
102
RTVSPropertyOp29
 70
     1
102
RTVSPropertyOp30
 70
     1
102
RTVSPropertyOp31
 70
     1
102
RTVSPropertyOp32
 70
     1
  0
XRECORD
  5
115
102
{ACAD_REACTORS
330
114
102
}
330
114
100
AcDbXrecord
280
     1
102
RTVSPropertyOp0
 70
     1
102
RTVSPropertyOp1
 70
     1
102
RTVSPropertyOp2
 70
     1
102
RTVSPropertyOp3
 70
     1
102
RTVSPropertyOp4
 70
     1
102
RTVSPropertyOp5
 70
     1
102
RTVSPropertyOp6
 70
     1
102
RTVSPropertyOp7
 70
     1
102
RTVSPropertyOp8
 70
     1
102
RTVSPropertyOp9
 70
     1
102
RTVSPropertyOp10
 70
     1
102
RTVSPropertyOp11
 70
     1
102
RTVSPropertyOp12
 70
     1
102
RTVSPropertyOp13
 70
     1
102
RTVSPropertyOp14
 70
     1
102
RTVSPropertyOp15
 70
     1
102
RTVSPropertyOp16
 70
     1
102
RTVSPropertyOp17
 70
     1
102
RTVSPropertyOp18
 70
     1
102
RTVSPropertyOp19
 70
     1
102
RTVSPropertyOp20
 70
     1
102
RTVSPropertyOp21
 70
     1
102
RTVSPropertyOp22
 70
     1
102
RTVSPropertyOp23
 70
     1
102
RTVSPropertyOp24
 70
     1
102
RTVSPropertyOp25
 70
     1
102
RTVSPropertyOp26
 70
     1
102
RTVSPropertyOp27
 70
     1
102
RTVSPropertyOp28
 70
     1
102
RTVSPropertyOp29
 70
     1
102
RTVSPropertyOp30
 70
     1
102
RTVSPropertyOp31
 70
     1
102
RTVSPropertyOp32
 70
     1
  0
XRECORD
  5
117
102
{ACAD_REACTORS
330
116
102
}
330
116
100
AcDbXrecord
280
     1
102
RTVSPropertyOp0
 70
     1
102
RTVSPropertyOp1
 70
     1
102
RTVSPropertyOp2
 70
     1
102
RTVSPropertyOp3
 70
     1
102
RTVSPropertyOp4
 70
     1
102
RTVSPropertyOp5
 70
     1
102
RTVSPropertyOp6
 70
     1
102
RTVSPropertyOp7
 70
     1
102
RTVSPropertyOp8
 70
     1
102
RTVSPropertyOp9
 70
     1
102
RTVSPropertyOp10
 70
     1
102
RTVSPropertyOp11
 70
     1
102
RTVSPropertyOp12
 70
     1
102
RTVSPropertyOp13
 70
     1
102
RTVSPropertyOp14
 70
     1
102
RTVSPropertyOp15
 70
     1
102
RTVSPropertyOp16
 70
     1
102
RTVSPropertyOp17
 70
     1
102
RTVSPropertyOp18
 70
     1
102
RTVSPropertyOp19
 70
     1
102
RTVSPropertyOp20
 70
     1
102
RTVSPropertyOp21
 70
     1
102
RTVSPropertyOp22
 70
     1
102
RTVSPropertyOp23
 70
     1
102
RTVSPropertyOp24
 70
     1
102
RTVSPropertyOp25
 70
     1
102
RTVSPropertyOp26
 70
     1
102
RTVSPropertyOp27
 70
     1
102
RTVSPropertyOp28
 70
     1
102
RTVSPropertyOp29
 70
     1
102
RTVSPropertyOp30
 70
     1
102
RTVSPropertyOp31
 70
     1
102
RTVSPropertyOp32
 70
     1
  0
XRECORD
  5
119
102
{ACAD_REACTORS
330
118
102
}
330
118
100
AcDbXrecord
280
     1
102
RTVSPropertyOp0
 70
     1
102
RTVSPropertyOp1
 70
     1
102
RTVSPropertyOp2
 70
     1
102
RTVSPropertyOp3
 70
     1
102
RTVSPropertyOp4
 70
     1
102
RTVSPropertyOp5
 70
     1
102
RTVSPropertyOp6
 70
     1
102
RTVSPropertyOp7
 70
     1
102
RTVSPropertyOp8
 70
     1
102
RTVSPropertyOp9
 70
     1
102
RTVSPropertyOp10
 70
     1
102
RTVSPropertyOp11
 70
     1
102
RTVSPropertyOp12
 70
     1
102
RTVSPropertyOp13
 70
     1
102
RTVSPropertyOp14
 70
     1
102
RTVSPropertyOp15
 70
     1
102
RTVSPropertyOp16
 70
     1
102
RTVSPropertyOp17
 70
     1
102
RTVSPropertyOp18
 70
     1
102
RTVSPropertyOp19
 70
     1
102
RTVSPropertyOp20
 70
     1
102
RTVSPropertyOp21
 70
     1
102
RTVSPropertyOp22
 70
     1
102
RTVSPropertyOp23
 70
     1
102
RTVSPropertyOp24
 70
     1
102
RTVSPropertyOp25
 70
     1
102
RTVSPropertyOp26
 70
     1
102
RTVSPropertyOp27
 70
     1
102
RTVSPropertyOp28
 70
     1
102
RTVSPropertyOp29
 70
     1
102
RTVSPropertyOp30
 70
     1
102
RTVSPropertyOp31
 70
     1
102
RTVSPropertyOp32
 70
     1
  0
XRECORD
  5
12D
102
{ACAD_REACTORS
330
12C
102
}
330
12C
100
AcDbXrecord
280
     1
102
RTVSPropertyOp0
 70
     1
102
RTVSPropertyOp1
 70
     1
102
RTVSPropertyOp2
 70
     1
102
RTVSPropertyOp3
 70
     1
102
RTVSPropertyOp4
 70
     1
102
RTVSPropertyOp5
 70
     1
102
RTVSPropertyOp6
 70
     1
102
RTVSPropertyOp7
 70
     1
102
RTVSPropertyOp8
 70
     1
102
RTVSPropertyOp9
 70
     1
102
RTVSPropertyOp10
 70
     1
102
RTVSPropertyOp11
 70
     1
102
RTVSPropertyOp12
 70
     1
102
RTVSPropertyOp13
 70
     1
102
RTVSPropertyOp14
 70
     1
102
RTVSPropertyOp15
 70
     1
102
RTVSPropertyOp16
 70
     1
102
RTVSPropertyOp17
 70
     1
102
RTVSPropertyOp18
 70
     1
102
RTVSPropertyOp19
 70
     1
102
RTVSPropertyOp20
 70
     1
102
RTVSPropertyOp21
 70
     1
102
RTVSPropertyOp22
 70
     1
102
RTVSPropertyOp23
 70
     1
102
RTVSPropertyOp24
 70
     1
102
RTVSPropertyOp25
 70
     1
102
RTVSPropertyOp26
 70
     1
102
RTVSPropertyOp27
 70
     1
102
RTVSPropertyOp28
 70
     1
102
RTVSPropertyOp29
 70
     1
102
RTVSPropertyOp30
 70
     1
102
RTVSPropertyOp31
 70
     1
102
RTVSPropertyOp32
 70
     1
  0
XRECORD
  5
123
102
{ACAD_REACTORS
330
122
102
}
330
122
100
AcDbXrecord
280
     1
102
RTVSPropertyOp0
 70
     1
102
RTVSPropertyOp1
 70
     1
102
RTVSPropertyOp2
 70
     1
102
RTVSPropertyOp3
 70
     1
102
RTVSPropertyOp4
 70
     1
102
RTVSPropertyOp5
 70
     1
102
RTVSPropertyOp6
 70
     1
102
RTVSPropertyOp7
 70
     1
102
RTVSPropertyOp8
 70
     1
102
RTVSPropertyOp9
 70
     1
102
RTVSPropertyOp10
 70
     1
102
RTVSPropertyOp11
 70
     1
102
RTVSPropertyOp12
 70
     1
102
RTVSPropertyOp13
 70
     1
102
RTVSPropertyOp14
 70
     1
102
RTVSPropertyOp15
 70
     1
102
RTVSPropertyOp16
 70
     1
102
RTVSPropertyOp17
 70
     1
102
RTVSPropertyOp18
 70
     1
102
RTVSPropertyOp19
 70
     1
102
RTVSPropertyOp20
 70
     1
102
RTVSPropertyOp21
 70
     1
102
RTVSPropertyOp22
 70
     1
102
RTVSPropertyOp23
 70
     1
102
RTVSPropertyOp24
 70
     1
102
RTVSPropertyOp25
 70
     1
102
RTVSPropertyOp26
 70
     1
102
RTVSPropertyOp27
 70
     1
102
RTVSPropertyOp28
 70
     1
102
RTVSPropertyOp29
 70
     1
102
RTVSPropertyOp30
 70
     1
102
RTVSPropertyOp31
 70
     1
102
RTVSPropertyOp32
 70
     1
  0
XRECORD
  5
12B
102
{ACAD_REACTORS
330
12A
102
}
330
12A
100
AcDbXrecord
280
     1
102
RTVSPropertyOp0
 70
     1
102
RTVSPropertyOp1
 70
     1
102
RTVSPropertyOp2
 70
     1
102
RTVSPropertyOp3
 70
     1
102
RTVSPropertyOp4
 70
     1
102
RTVSPropertyOp5
 70
     1
102
RTVSPropertyOp6
 70
     1
102
RTVSPropertyOp7
 70
     1
102
RTVSPropertyOp8
 70
     1
102
RTVSPropertyOp9
 70
     1
102
RTVSPropertyOp10
 70
     1
102
RTVSPropertyOp11
 70
     1
102
RTVSPropertyOp12
 70
     1
102
RTVSPropertyOp13
 70
     1
102
RTVSPropertyOp14
 70
     1
102
RTVSPropertyOp15
 70
     1
102
RTVSPropertyOp16
 70
     1
102
RTVSPropertyOp17
 70
     1
102
RTVSPropertyOp18
 70
     1
102
RTVSPropertyOp19
 70
     1
102
RTVSPropertyOp20
 70
     1
102
RTVSPropertyOp21
 70
     1
102
RTVSPropertyOp22
 70
     1
102
RTVSPropertyOp23
 70
     1
102
RTVSPropertyOp24
 70
     1
102
RTVSPropertyOp25
 70
     1
102
RTVSPropertyOp26
 70
     1
102
RTVSPropertyOp27
 70
     1
102
RTVSPropertyOp28
 70
     1
102
RTVSPropertyOp29
 70
     1
102
RTVSPropertyOp30
 70
     1
102
RTVSPropertyOp31
 70
     1
102
RTVSPropertyOp32
 70
     1
  0
ENDSEC
  0
EOF
