  0
SECTION
  2
HEADER
  9
$ACADVER
  1
AC1021
  9
$ACADMAINTVER
 70
    25
  9
$DWGCODEPAGE
  3
ANSI_1256
  9
$INSBASE
 10
0.0
 20
0.0
 30
0.0
  9
$EXTMIN
 10
20.0967
 20
-114.8266
 30
0.0
  9
$EXTMAX
 10
196.5318
 20
132.0698
 30
0.0
  9
$LIMMIN
 10
0.0
 20
0.0
  9
$LIMMAX
 10
12.0
 20
9.0
  9
$ORTHOMODE
 70
     0
  9
$REGENMODE
 70
     1
  9
$FILLMODE
 70
     1
  9
$QTEXTMODE
 70
     0
  9
$MIRRTEXT
 70
     1
  9
$LTSCALE
 40
1.0
  9
$ATTMODE
 70
     1
  9
$TEXTSIZE
 40
0.2
  9
$TRACEWID
 40
0.05
  9
$TEXTSTYLE
  7
Standard
  9
$CLAYER
  8
0
  9
$CELTYPE
  6
ByLayer
  9
$CECOLOR
 62
   256
  9
$CELTSCALE
 40
1.0
  9
$DISPSILH
 70
     0
  9
$DIMSCALE
 40
1.0
  9
$DIMASZ
 40
0.18
  9
$DIMEXO
 40
0.0625
  9
$DIMDLI
 40
0.38
  9
$DIMRND
 40
0.0
  9
$DIMDLE
 40
0.0
  9
$DIMEXE
 40
0.18
  9
$DIMTP
 40
0.0
  9
$DIMTM
 40
0.0
  9
$DIMTXT
 40
0.18
  9
$DIMCEN
 40
0.09
  9
$DIMTSZ
 40
0.0
  9
$DIMTOL
 70
     0
  9
$DIMLIM
 70
     0
  9
$DIMTIH
 70
     1
  9
$DIMTOH
 70
     1
  9
$DIMSE1
 70
     0
  9
$DIMSE2
 70
     0
  9
$DIMTAD
 70
     0
  9
$DIMZIN
 70
     0
  9
$DIMBLK
  1

  9
$DIMASO
 70
     1
  9
$DIMSHO
 70
     1
  9
$DIMPOST
  1

  9
$DIMAPOST
  1

  9
$DIMALT
 70
     0
  9
$DIMALTD
 70
     2
  9
$DIMALTF
 40
25.4
  9
$DIMLFAC
 40
1.0
  9
$DIMTOFL
 70
     0
  9
$DIMTVP
 40
0.0
  9
$DIMTIX
 70
     0
  9
$DIMSOXD
 70
     0
  9
$DIMSAH
 70
     0
  9
$DIMBLK1
  1

  9
$DIMBLK2
  1

  9
$DIMSTYLE
  2
Standard
  9
$DIMCLRD
 70
     0
  9
$DIMCLRE
 70
     0
  9
$DIMCLRT
 70
     0
  9
$DIMTFAC
 40
1.0
  9
$DIMGAP
 40
0.09
  9
$DIMJUST
 70
     0
  9
$DIMSD1
 70
     0
  9
$DIMSD2
 70
     0
  9
$DIMTOLJ
 70
     1
  9
$DIMTZIN
 70
     0
  9
$DIMALTZ
 70
     0
  9
$DIMALTTZ
 70
     0
  9
$DIMUPT
 70
     0
  9
$DIMDEC
 70
     4
  9
$DIMTDEC
 70
     4
  9
$DIMALTU
 70
     2
  9
$DIMALTTD
 70
     2
  9
$DIMTXSTY
  7
Standard
  9
$DIMAUNIT
 70
     0
  9
$DIMADEC
 70
     0
  9
$DIMALTRND
 40
0.0
  9
$DIMAZIN
 70
     0
  9
$DIMDSEP
 70
    46
  9
$DIMATFIT
 70
     3
  9
$DIMFRAC
 70
     0
  9
$DIMLDRBLK
  1

  9
$DIMLUNIT
 70
     2
  9
$DIMLWD
 70
    -2
  9
$DIMLWE
 70
    -2
  9
$DIMTMOVE
 70
     0
  9
$DIMFXL
 40
1.0
  9
$DIMFXLON
 70
     0
  9
$DIMJOGANG
 40
0.7853981633974483
  9
$DIMTFILL
 70
     0
  9
$DIMTFILLCLR
 70
     0
  9
$DIMARCSYM
 70
     0
  9
$DIMLTYPE
  6

  9
$DIMLTEX1
  6

  9
$DIMLTEX2
  6

  9
$LUNITS
 70
     2
  9
$LUPREC
 70
     4
  9
$SKETCHINC
 40
0.1
  9
$FILLETRAD
 40
0.5
  9
$AUNITS
 70
     0
  9
$AUPREC
 70
     0
  9
$MENU
  1
.
  9
$ELEVATION
 40
0.0
  9
$PELEVATION
 40
0.0
  9
$THICKNESS
 40
0.0
  9
$LIMCHECK
 70
     0
  9
$CHAMFERA
 40
0.5
  9
$CHAMFERB
 40
0.5
  9
$CHAMFERC
 40
1.0
  9
$CHAMFERD
 40
0.0
  9
$SKPOLY
 70
     0
  9
$TDCREATE
 40
2458479.28846022
  9
$TDUCREATE
 40
2458479.121793553
  9
$TDUPDATE
 40
2458479.288460451
  9
$TDUUPDATE
 40
2458479.121793785
  9
$TDINDWG
 40
0.0000000116
  9
$TDUSRTIMER
 40
0.0000000116
  9
$USRTIMER
 70
     1
  9
$ANGBASE
 50
0.0
  9
$ANGDIR
 70
     0
  9
$PDMODE
 70
     0
  9
$PDSIZE
 40
0.0
  9
$PLINEWID
 40
0.0
  9
$SPLFRAME
 70
     0
  9
$SPLINETYPE
 70
     6
  9
$SPLINESEGS
 70
     8
  9
$HANDSEED
  5
176
  9
$SURFTAB1
 70
     6
  9
$SURFTAB2
 70
     6
  9
$SURFTYPE
 70
     6
  9
$SURFU
 70
     6
  9
$SURFV
 70
     6
  9
$UCSBASE
  2

  9
$UCSNAME
  2

  9
$UCSORG
 10
0.0
 20
0.0
 30
0.0
  9
$UCSXDIR
 10
1.0
 20
0.0
 30
0.0
  9
$UCSYDIR
 10
0.0
 20
1.0
 30
0.0
  9
$UCSORTHOREF
  2

  9
$UCSORTHOVIEW
 70
     0
  9
$UCSORGTOP
 10
0.0
 20
0.0
 30
0.0
  9
$UCSORGBOTTOM
 10
0.0
 20
0.0
 30
0.0
  9
$UCSORGLEFT
 10
0.0
 20
0.0
 30
0.0
  9
$UCSORGRIGHT
 10
0.0
 20
0.0
 30
0.0
  9
$UCSORGFRONT
 10
0.0
 20
0.0
 30
0.0
  9
$UCSORGBACK
 10
0.0
 20
0.0
 30
0.0
  9
$PUCSBASE
  2

  9
$PUCSNAME
  2

  9
$PUCSORG
 10
0.0
 20
0.0
 30
0.0
  9
$PUCSXDIR
 10
1.0
 20
0.0
 30
0.0
  9
$PUCSYDIR
 10
0.0
 20
1.0
 30
0.0
  9
$PUCSORTHOREF
  2

  9
$PUCSORTHOVIEW
 70
     0
  9
$PUCSORGTOP
 10
0.0
 20
0.0
 30
0.0
  9
$PUCSORGBOTTOM
 10
0.0
 20
0.0
 30
0.0
  9
$PUCSORGLEFT
 10
0.0
 20
0.0
 30
0.0
  9
$PUCSORGRIGHT
 10
0.0
 20
0.0
 30
0.0
  9
$PUCSORGFRONT
 10
0.0
 20
0.0
 30
0.0
  9
$PUCSORGBACK
 10
0.0
 20
0.0
 30
0.0
  9
$USERI1
 70
     0
  9
$USERI2
 70
     0
  9
$USERI3
 70
     0
  9
$USERI4
 70
     0
  9
$USERI5
 70
     0
  9
$USERR1
 40
0.0
  9
$USERR2
 40
0.0
  9
$USERR3
 40
0.0
  9
$USERR4
 40
0.0
  9
$USERR5
 40
0.0
  9
$WORLDVIEW
 70
     1
  9
$SHADEDGE
 70
     3
  9
$SHADEDIF
 70
    70
  9
$TILEMODE
 70
     1
  9
$MAXACTVP
 70
    64
  9
$PINSBASE
 10
0.0
 20
0.0
 30
0.0
  9
$PLIMCHECK
 70
     0
  9
$PEXTMIN
 10
1.000000000000000E+20
 20
1.000000000000000E+20
 30
1.000000000000000E+20
  9
$PEXTMAX
 10
-1.000000000000000E+20
 20
-1.000000000000000E+20
 30
-1.000000000000000E+20
  9
$PLIMMIN
 10
0.0
 20
0.0
  9
$PLIMMAX
 10
12.0
 20
9.0
  9
$UNITMODE
 70
     0
  9
$VISRETAIN
 70
     1
  9
$PLINEGEN
 70
     0
  9
$PSLTSCALE
 70
     1
  9
$TREEDEPTH
 70
  3020
  9
$CMLSTYLE
  2
Standard
  9
$CMLJUST
 70
     0
  9
$CMLSCALE
 40
1.0
  9
$PROXYGRAPHICS
 70
     1
  9
$MEASUREMENT
 70
     0
  9
$CELWEIGHT
370
    -1
  9
$ENDCAPS
280
     0
  9
$JOINSTYLE
280
     0
  9
$LWDISPLAY
290
     0
  9
$INSUNITS
 70
     4
  9
$HYPERLINKBASE
  1

  9
$STYLESHEET
  1

  9
$XEDIT
290
     1
  9
$CEPSNTYPE
380
     0
  9
$PSTYLEMODE
290
     1
  9
$FINGERPRINTGUID
  2
{A1D031EC-9540-4D7A-A79B-377716065E3B}
  9
$VERSIONGUID
  2
{FAEB1C32-E019-11D5-929B-00C0DF256EC4}
  9
$EXTNAMES
290
     1
  9
$PSVPSCALE
 40
0.0
  9
$OLESTARTUP
290
     0
  9
$SORTENTS
280
   127
  9
$INDEXCTL
280
     0
  9
$HIDETEXT
280
     1
  9
$XCLIPFRAME
290
     0
  9
$HALOGAP
280
     0
  9
$OBSCOLOR
 70
   257
  9
$OBSLTYPE
280
     0
  9
$INTERSECTIONDISPLAY
280
     0
  9
$INTERSECTIONCOLOR
 70
   257
  9
$DIMASSOC
280
     2
  9
$PROJECTNAME
  1

  9
$CAMERADISPLAY
290
     0
  9
$LENSLENGTH
 40
50.0
  9
$CAMERAHEIGHT
 40
0.0
  9
$STEPSPERSEC
 40
2.0
  9
$STEPSIZE
 40
6.0
  9
$3DDWFPREC
 40
2.0
  9
$PSOLWIDTH
 40
0.25
  9
$PSOLHEIGHT
 40
4.0
  9
$LOFTANG1
 40
1.570796326794897
  9
$LOFTANG2
 40
1.570796326794897
  9
$LOFTMAG1
 40
0.0
  9
$LOFTMAG2
 40
0.0
  9
$LOFTPARAM
 70
     7
  9
$LOFTNORMALS
280
     1
  9
$LATITUDE
 40
37.795
  9
$LONGITUDE
 40
-122.394
  9
$NORTHDIRECTION
 40
0.0
  9
$TIMEZONE
 70
 -8000
  9
$LIGHTGLYPHDISPLAY
280
     1
  9
$TILEMODELIGHTSYNCH
280
     1
  9
$SOLIDHIST
280
     1
  9
$SHOWHIST
280
     1
  9
$DWFFRAME
280
     2
  9
$DGNFRAME
280
     2
  9
$REALWORLDSCALE
290
     1
  9
$INTERFERECOLOR
 62
   256
  9
$CSHADOW
280
     0
  9
$SHADOWPLANELOCATION
 40
0.0
  0
ENDSEC
  0
SECTION
  2
CLASSES
  0
CLASS
  1
ACDBDICTIONARYWDFLT
  2
AcDbDictionaryWithDefault
  3
ObjectDBX Classes
 90
        0
 91
        4
280
     0
281
     0
  0
CLASS
  1
VISUALSTYLE
  2
AcDbVisualStyle
  3
ObjectDBX Classes
 90
     4095
 91
        4
280
     0
281
     0
  0
CLASS
  1
MATERIAL
  2
AcDbMaterial
  3
ObjectDBX Classes
 90
     1153
 91
        4
280
     0
281
     0
  0
ENDSEC
  0
SECTION
  2
TABLES
  0
TABLE
  2
VPORT
  5
8
330
0
100
AcDbSymbolTable
 70
     1
  0
VPORT
  5
29
330
8
100
AcDbSymbolTableRecord
100
AcDbViewportTableRecord
  2
*Active
 70
     0
 10
0.0
 20
0.0
 11
1.0
 21
1.0
 12
10.42990654205607
 22
4.5
 13
0.0
 23
0.0
 14
0.5
 24
0.5
 15
0.5
 25
0.5
 16
0.0
 26
0.0
 36
1.0
 17
0.0
 27
0.0
 37
0.0
 40
9.0
 41
1.972972972850329
 42
50.0
 43
0.0
 44
0.0
 50
0.0
 51
0.0
 71
     0
 72
   100
 73
     1
 74
     3
 75
     0
 76
     0
 77
     0
 78
     0
281
     0
 65
     1
110
0.0
120
0.0
130
0.0
111
1.0
121
0.0
131
0.0
112
0.0
122
1.0
132
0.0
 79
     0
146
0.0
 60
     3
 61
     5
292
     1
282
     1
141
0.0
142
0.0
 63
   250
  0
ENDTAB
  0
TABLE
  2
LTYPE
  5
5
330
0
100
AcDbSymbolTable
 70
     1
  0
LTYPE
  5
14
330
5
100
AcDbSymbolTableRecord
100
AcDbLinetypeTableRecord
  2
ByBlock
 70
     0
  3

 72
    65
 73
     0
 40
0.0
  0
LTYPE
  5
15
330
5
100
AcDbSymbolTableRecord
100
AcDbLinetypeTableRecord
  2
ByLayer
 70
     0
  3

 72
    65
 73
     0
 40
0.0
  0
LTYPE
  5
16
330
5
100
AcDbSymbolTableRecord
100
AcDbLinetypeTableRecord
  2
Continuous
 70
     0
  3
Solid line
 72
    65
 73
     0
 40
0.0
  0
ENDTAB
  0
TABLE
  2
LAYER
  5
2
330
0
100
AcDbSymbolTable
 70
     3
  0
LAYER
  5
10
330
2
100
AcDbSymbolTableRecord
100
AcDbLayerTableRecord
  2
0
 70
     0
 62
     7
  6
Continuous
370
    -3
390
F
347
3E
  0
LAYER
  5
40
330
2
100
AcDbSymbolTableRecord
100
AcDbLayerTableRecord
  2
layer 1
 70
     0
 62
     7
  6
Continuous
370
    -3
390
F
347
3E
  0
LAYER
  5
153
330
2
100
AcDbSymbolTableRecord
100
AcDbLayerTableRecord
  2
Master Guides
 70
     0
 62
     7
  6
Continuous
370
    -3
390
F
347
3E
  0
ENDTAB
  0
TABLE
  2
STYLE
  5
3
330
0
100
AcDbSymbolTable
 70
     1
  0
STYLE
  5
11
330
3
100
AcDbSymbolTableRecord
100
AcDbTextStyleTableRecord
  2
Standard
 70
     0
 40
0.0
 41
1.0
 50
0.0
 71
     0
 42
0.2
  3
txt
  4

  0
ENDTAB
  0
TABLE
  2
VIEW
  5
6
330
0
100
AcDbSymbolTable
 70
     0
  0
ENDTAB
  0
TABLE
  2
UCS
  5
7
330
0
100
AcDbSymbolTable
 70
     0
  0
ENDTAB
  0
TABLE
  2
APPID
  5
9
330
0
100
AcDbSymbolTable
 70
     2
  0
APPID
  5
12
330
9
100
AcDbSymbolTableRecord
100
AcDbRegAppTableRecord
  2
ACAD
 70
     0
  0
APPID
  5
3F
330
9
100
AcDbSymbolTableRecord
100
AcDbRegAppTableRecord
  2
ODA
 70
     0
  0
ENDTAB
  0
TABLE
  2
DIMSTYLE
  5
A
330
0
100
AcDbSymbolTable
 70
     1
100
AcDbDimStyleTable
  0
DIMSTYLE
105
27
330
A
100
AcDbSymbolTableRecord
100
AcDbDimStyleTableRecord
  2
Standard
 70
     0
178
     0
340
11
  0
ENDTAB
  0
TABLE
  2
BLOCK_RECORD
  5
1
330
0
100
AcDbSymbolTable
 70
     1
  0
BLOCK_RECORD
  5
1F
330
1
100
AcDbSymbolTableRecord
100
AcDbBlockTableRecord
  2
*Model_Space
340
22
 70
     0
280
     1
281
     0
  0
BLOCK_RECORD
  5
1B
330
1
100
AcDbSymbolTableRecord
100
AcDbBlockTableRecord
  2
*Paper_Space
340
1E
 70
     0
280
     1
281
     0
  0
BLOCK_RECORD
  5
23
330
1
100
AcDbSymbolTableRecord
100
AcDbBlockTableRecord
  2
*Paper_Space0
340
26
 70
     0
280
     1
281
     0
  0
ENDTAB
  0
ENDSEC
  0
SECTION
  2
BLOCKS
  0
BLOCK
  5
20
330
1F
100
AcDbEntity
  8
0
100
AcDbBlockBegin
  2
*Model_Space
 70
     0
 10
0.0
 20
0.0
 30
0.0
  3
*Model_Space
  1

  0
ENDBLK
  5
21
330
1F
100
AcDbEntity
  8
0
100
AcDbBlockEnd
  0
BLOCK
  5
1C
330
1B
100
AcDbEntity
 67
     1
  8
0
100
AcDbBlockBegin
  2
*Paper_Space
 70
     0
 10
0.0
 20
0.0
 30
0.0
  3
*Paper_Space
  1

  0
ENDBLK
  5
1D
330
1B
100
AcDbEntity
 67
     1
  8
0
100
AcDbBlockEnd
  0
BLOCK
  5
24
330
23
100
AcDbEntity
  8
0
100
AcDbBlockBegin
  2
*Paper_Space0
 70
     0
 10
0.0
 20
0.0
 30
0.0
  3
*Paper_Space0
  1

  0
ENDBLK
  5
25
330
23
100
AcDbEntity
  8
0
100
AcDbBlockEnd
  0
ENDSEC
  0
SECTION
  2
ENTITIES
  0
SPLINE
  5
41
330
1F
100
AcDbEntity
  8
layer 1
 62
   250
100
AcDbSpline
210
0.0
220
0.0
230
1.0
 70
    11
 71
     3
 72
    20
 73
    16
 74
     0
 42
0.0000000001
 43
0.0000000001
 12
1.0
 22
0.0
 32
0.0
 13
1.0
 23
0.0
 33
0.0
 40
0.0
 40
0.0
 40
0.0
 40
0.0
 40
0.2
 40
0.2
 40
0.2
 40
0.2
 40
0.4
 40
0.4
 40
0.4
 40
0.4
 40
0.6
 40
0.6
 40
0.6
 40
0.6
 40
1.0
 40
1.0
 40
1.0
 40
1.0
 10
20.0967
 20
132.0698
 30
0.0
 10
20.0967
 20
132.0698
 30
0.0
 10
196.5318
 20
132.0698
 30
0.0
 10
196.5318
 20
132.0698
 30
0.0
 10
196.5318
 20
132.0698
 30
0.0
 10
196.5318
 20
132.0698
 30
0.0
 10
196.5318
 20
-114.8266
 30
0.0
 10
196.5318
 20
-114.8266
 30
0.0
 10
196.5318
 20
-114.8266
 30
0.0
 10
196.5318
 20
-114.8266
 30
0.0
 10
20.0967
 20
-114.8266
 30
0.0
 10
20.0967
 20
-114.8266
 30
0.0
 10
20.0967
 20
-114.8266
 30
0.0
 10
20.0967
 20
-114.8266
 30
0.0
 10
20.0967
 20
132.0698
 30
0.0
 10
20.0967
 20
132.0698
 30
0.0
  0
SPLINE
  5
42
330
1F
100
AcDbEntity
  8
layer 1
 62
     7
100
AcDbSpline
210
0.0
220
0.0
230
1.0
 70
    11
 71
     3
 72
    16
 73
    12
 74
     0
 42
0.0000000001
 43
0.0000000001
 12
1.0
 22
0.0
 32
0.0
 13
1.0
 23
0.0
 33
0.0
 40
0.0
 40
0.0
 40
0.0
 40
0.0
 40
0.25
 40
0.25
 40
0.25
 40
0.25
 40
0.5
 40
0.5
 40
0.5
 40
0.5
 40
1.0
 40
1.0
 40
1.0
 40
1.0
 10
181.0253
 20
-105.3234
 30
0.0
 10
183.695
 20
-103.5064
 30
0.0
 10
185.6497
 20
-101.2345
 30
0.0
 10
187.1609
 20
-98.6801
 30
0.0
 10
187.1609
 20
-98.6801
 30
0.0
 10
187.1609
 20
-100.8945
 30
0.0
 10
187.1609
 20
-103.109
 30
0.0
 10
187.1609
 20
-105.3234
 30
0.0
 10
187.1609
 20
-105.3234
 30
0.0
 10
185.1157
 20
-105.3234
 30
0.0
 10
183.0707
 20
-105.3234
 30
0.0
 10
181.0253
 20
-105.3234
 30
0.0
  0
SPLINE
  5
43
330
1F
100
AcDbEntity
  8
layer 1
 62
     7
100
AcDbSpline
210
0.0
220
0.0
230
1.0
 70
    11
 71
     3
 72
    20
 73
    16
 74
     0
 42
0.0000000001
 43
0.0000000001
 12
1.0
 22
0.0
 32
0.0
 13
1.0
 23
0.0
 33
0.0
 40
0.0
 40
0.0
 40
0.0
 40
0.0
 40
0.2
 40
0.2
 40
0.2
 40
0.2
 40
0.4
 40
0.4
 40
0.4
 40
0.4
 40
0.6
 40
0.6
 40
0.6
 40
0.6
 40
1.0
 40
1.0
 40
1.0
 40
1.0
 10
175.0648
 20
-105.3234
 30
0.0
 10
174.7066
 20
-105.3234
 30
0.0
 10
174.3484
 20
-105.3234
 30
0.0
 10
173.9903
 20
-105.3234
 30
0.0
 10
173.9903
 20
-105.3234
 30
0.0
 10
174.7176
 20
-103.8356
 30
0.0
 10
175.886
 20
-102.3479
 30
0.0
 10
177.0939
 20
-100.8601
 30
0.0
 10
177.0939
 20
-100.8601
 30
0.0
 10
178.4468
 20
-101.1009
 30
0.0
 10
179.7997
 20
-101.4148
 30
0.0
 10
181.1526
 20
-101.815
 30
0.0
 10
181.1526
 20
-101.815
 30
0.0
 10
179.305
 20
-103.0452
 30
0.0
 10
177.3912
 20
-104.2529
 30
0.0
 10
175.0648
 20
-105.3234
 30
0.0
  0
SPLINE
  5
44
330
1F
100
AcDbEntity
  8
layer 1
 62
     7
100
AcDbSpline
210
0.0
220
0.0
230
1.0
 70
    11
 71
     3
 72
    16
 73
    12
 74
     0
 42
0.0000000001
 43
0.0000000001
 12
1.0
 22
0.0
 32
0.0
 13
1.0
 23
0.0
 33
0.0
 40
0.0
 40
0.0
 40
0.0
 40
0.0
 40
0.25
 40
0.25
 40
0.25
 40
0.25
 40
0.5
 40
0.5
 40
0.5
 40
0.5
 40
1.0
 40
1.0
 40
1.0
 40
1.0
 10
172.1998
 20
-102.3523
 30
0.0
 10
172.3768
 20
-100.0976
 30
0.0
 10
172.8186
 20
-98.0417
 30
0.0
 10
173.6321
 20
-96.2644
 30
0.0
 10
173.6321
 20
-96.2644
 30
0.0
 10
173.9705
 20
-97.2393
 30
0.0
 10
174.3087
 20
-98.214
 30
0.0
 10
174.6468
 20
-99.1889
 30
0.0
 10
174.6468
 20
-99.1889
 30
0.0
 10
173.6379
 20
-100.0498
 30
0.0
 10
172.8897
 20
-101.1721
 30
0.0
 10
172.1998
 20
-102.3523
 30
0.0
  0
SPLINE
  5
45
330
1F
100
AcDbEntity
  8
layer 1
 62
     7
100
AcDbSpline
210
0.0
220
0.0
230
1.0
 70
    11
 71
     3
 72
    24
 73
    20
 74
     0
 42
0.0000000001
 43
0.0000000001
 12
1.0
 22
0.0
 32
0.0
 13
1.0
 23
0.0
 33
0.0
 40
0.0
 40
0.0
 40
0.0
 40
0.0
 40
0.1666666666666667
 40
0.1666666666666667
 40
0.1666666666666667
 40
0.1666666666666667
 40
0.3333333333333333
 40
0.3333333333333333
 40
0.3333333333333333
 40
0.3333333333333333
 40
0.5
 40
0.5
 40
0.5
 40
0.5
 40
0.6666666666666666
 40
0.6666666666666666
 40
0.6666666666666666
 40
0.6666666666666666
 40
1.0
 40
1.0
 40
1.0
 40
1.0
 10
183.7787
 20
-91.9074
 30
0.0
 10
183.7787
 20
-91.9074
 30
0.0
 10
187.1609
 20
-91.9671
 30
0.0
 10
187.1609
 20
-91.9671
 30
0.0
 10
187.1609
 20
-91.9671
 30
0.0
 10
187.1609
 20
-91.9671
 30
0.0
 10
187.1609
 20
-93.3995
 30
0.0
 10
187.1609
 20
-93.3995
 30
0.0
 10
187.1609
 20
-93.3995
 30
0.0
 10
187.1609
 20
-93.3995
 30
0.0
 10
184.5545
 20
-98.1146
 30
0.0
 10
184.5545
 20
-98.1146
 30
0.0
 10
184.5545
 20
-98.1146
 30
0.0
 10
184.5545
 20
-98.1146
 30
0.0
 10
179.3023
 20
-97.5774
 30
0.0
 10
179.3023
 20
-97.5774
 30
0.0
 10
179.3023
 20
-97.5774
 30
0.0
 10
179.3023
 20
-97.5774
 30
0.0
 10
183.7787
 20
-91.9074
 30
0.0
 10
183.7787
 20
-91.9074
 30
0.0
  0
SPLINE
  5
46
330
1F
100
AcDbEntity
  8
layer 1
 62
     7
100
AcDbSpline
210
0.0
220
0.0
230
1.0
 70
    11
 71
     3
 72
    20
 73
    16
 74
     0
 42
0.0000000001
 43
0.0000000001
 12
1.0
 22
0.0
 32
0.0
 13
1.0
 23
0.0
 33
0.0
 40
0.0
 40
0.0
 40
0.0
 40
0.0
 40
0.2
 40
0.2
 40
0.2
 40
0.2
 40
0.4
 40
0.4
 40
0.4
 40
0.4
 40
0.6
 40
0.6
 40
0.6
 40
0.6
 40
1.0
 40
1.0
 40
1.0
 40
1.0
 10
175.2437
 20
-93.3399
 30
0.0
 10
176.7704
 20
-91.3684
 30
0.0
 10
178.5515
 20
-89.482
 30
0.0
 10
180.5556
 20
-87.6699
 30
0.0
 10
180.5556
 20
-87.6699
 30
0.0
 10
180.7746
 20
-88.6049
 30
0.0
 10
180.9934
 20
-89.54
 30
0.0
 10
181.2122
 20
-90.475
 30
0.0
 10
181.2122
 20
-90.475
 30
0.0
 10
179.6208
 20
-92.2854
 30
0.0
 10
178.029
 20
-94.0959
 30
0.0
 10
176.4374
 20
-95.9063
 30
0.0
 10
176.4374
 20
-95.9063
 30
0.0
 10
176.0395
 20
-95.0507
 30
0.0
 10
175.6417
 20
-94.1953
 30
0.0
 10
175.2437
 20
-93.3399
 30
0.0
  0
SPLINE
  5
47
330
1F
100
AcDbEntity
  8
layer 1
 62
     7
100
AcDbSpline
210
0.0
220
0.0
230
1.0
 70
    11
 71
     3
 72
    16
 73
    12
 74
     0
 42
0.0000000001
 43
0.0000000001
 12
1.0
 22
0.0
 32
0.0
 13
1.0
 23
0.0
 33
0.0
 40
0.0
 40
0.0
 40
0.0
 40
0.0
 40
0.25
 40
0.25
 40
0.25
 40
0.25
 40
0.5
 40
0.5
 40
0.5
 40
0.5
 40
1.0
 40
1.0
 40
1.0
 40
1.0
 10
183.4206
 20
-87.3713
 30
0.0
 10
183.2416
 20
-87.053
 30
0.0
 10
183.0625
 20
-86.7347
 30
0.0
 10
182.8835
 20
-86.4164
 30
0.0
 10
182.8835
 20
-86.4164
 30
0.0
 10
183.5423
 20
-85.8606
 30
0.0
 10
184.4715
 20
-85.4397
 30
0.0
 10
185.4498
 20
-85.0437
 30
0.0
 10
185.4498
 20
-85.0437
 30
0.0
 10
184.8389
 20
-85.8852
 30
0.0
 10
184.1908
 20
-86.6895
 30
0.0
 10
183.4206
 20
-87.3713
 30
0.0
  0
SPLINE
  5
48
330
1F
100
AcDbEntity
  8
layer 1
 62
     7
100
AcDbSpline
210
0.0
220
0.0
230
1.0
 70
    11
 71
     3
 72
    16
 73
    12
 74
     0
 42
0.0000000001
 43
0.0000000001
 12
1.0
 22
0.0
 32
0.0
 13
1.0
 23
0.0
 33
0.0
 40
0.0
 40
0.0
 40
0.0
 40
0.0
 40
0.25
 40
0.25
 40
0.25
 40
0.25
 40
0.5
 40
0.5
 40
0.5
 40
0.5
 40
1.0
 40
1.0
 40
1.0
 40
1.0
 10
186.1063
 20
-89.2215
 30
0.0
 10
186.1063
 20
-89.2215
 30
0.0
 10
187.1609
 20
-87.5505
 30
0.0
 10
187.1609
 20
-87.5505
 30
0.0
 10
187.1609
 20
-87.5505
 30
0.0
 10
187.1609
 20
-87.5505
 30
0.0
 10
187.1609
 20
-89.1022
 30
0.0
 10
187.1609
 20
-89.1022
 30
0.0
 10
187.1609
 20
-89.1022
 30
0.0
 10
187.1609
 20
-89.1022
 30
0.0
 10
186.1063
 20
-89.2215
 30
0.0
 10
186.1063
 20
-89.2215
 30
0.0
  0
SPLINE
  5
49
330
1F
100
AcDbEntity
  8
layer 1
 62
     7
100
AcDbSpline
210
0.0
220
0.0
230
1.0
 70
    11
 71
     3
 72
    20
 73
    16
 74
     0
 42
0.0000000001
 43
0.0000000001
 12
1.0
 22
0.0
 32
0.0
 13
1.0
 23
0.0
 33
0.0
 40
0.0
 40
0.0
 40
0.0
 40
0.0
 40
0.2
 40
0.2
 40
0.2
 40
0.2
 40
0.4
 40
0.4
 40
0.4
 40
0.4
 40
0.6
 40
0.6
 40
0.6
 40
0.6
 40
1.0
 40
1.0
 40
1.0
 40
1.0
 10
172.916
 20
-90.5346
 30
0.0
 10
171.5174
 20
-84.782
 30
0.0
 10
169.8386
 20
-79.3561
 30
0.0
 10
167.4846
 20
-74.7181
 30
0.0
 10
167.4846
 20
-74.7181
 30
0.0
 10
173.6321
 20
-77.6385
 30
0.0
 10
180.2173
 20
-78.7213
 30
0.0
 10
187.1609
 20
-78.2992
 30
0.0
 10
187.1609
 20
-78.2992
 30
0.0
 10
187.1609
 20
-79.2145
 30
0.0
 10
187.1609
 20
-80.1297
 30
0.0
 10
187.1609
 20
-81.0448
 30
0.0
 10
187.1609
 20
-81.0448
 30
0.0
 10
181.6396
 20
-81.8031
 30
0.0
 10
177.0048
 20
-85.3197
 30
0.0
 10
172.916
 20
-90.5346
 30
0.0
  0
SPLINE
  5
4A
330
1F
100
AcDbEntity
  8
layer 1
 62
     7
100
AcDbSpline
210
0.0
220
0.0
230
1.0
 70
    11
 71
     3
 72
    32
 73
    28
 74
     0
 42
0.0000000001
 43
0.0000000001
 12
1.0
 22
0.0
 32
0.0
 13
1.0
 23
0.0
 33
0.0
 40
0.0
 40
0.0
 40
0.0
 40
0.0
 40
0.125
 40
0.125
 40
0.125
 40
0.125
 40
0.25
 40
0.25
 40
0.25
 40
0.25
 40
0.375
 40
0.375
 40
0.375
 40
0.375
 40
0.5
 40
0.5
 40
0.5
 40
0.5
 40
0.625
 40
0.625
 40
0.625
 40
0.625
 40
0.75
 40
0.75
 40
0.75
 40
0.75
 40
1.0
 40
1.0
 40
1.0
 40
1.0
 10
181.3316
 20
-64.7508
 30
0.0
 10
179.4312
 20
-58.758
 30
0.0
 10
174.1868
 20
-54.8233
 30
0.0
 10
168.1413
 20
-51.3814
 30
0.0
 10
168.1413
 20
-51.3814
 30
0.0
 10
174.9079
 20
-50.4549
 30
0.0
 10
181.1896
 20
-53.0238
 30
0.0
 10
187.1609
 20
-57.8275
 30
0.0
 10
187.1609
 20
-57.8275
 30
0.0
 10
187.1609
 20
-62.642
 30
0.0
 10
187.1609
 20
-67.4564
 30
0.0
 10
187.1609
 20
-72.271
 30
0.0
 10
187.1609
 20
-72.271
 30
0.0
 10
179.6156
 20
-72.382
 30
0.0
 10
172.4412
 20
-70.9762
 30
0.0
 10
166.6492
 20
-63.9153
 30
0.0
 10
166.6492
 20
-63.9153
 30
0.0
 10
170.8341
 20
-65.7556
 30
0.0
 10
175.0438
 20
-67.9207
 30
0.0
 10
179.0635
 20
-67.6157
 30
0.0
 10
179.0635
 20
-67.6157
 30
0.0
 10
173.0506
 20
-63.8668
 30
0.0
 10
168.2056
 20
-59.8257
 30
0.0
 10
164.7393
 20
-55.44
 30
0.0
 10
164.7393
 20
-55.44
 30
0.0
 10
170.8551
 20
-56.6421
 30
0.0
 10
176.4891
 20
-59.4105
 30
0.0
 10
181.3316
 20
-64.7508
 30
0.0
  0
SPLINE
  5
4B
330
1F
100
AcDbEntity
  8
layer 1
 62
     7
100
AcDbSpline
210
0.0
220
0.0
230
1.0
 70
    11
 71
     3
 72
    16
 73
    12
 74
     0
 42
0.0000000001
 43
0.0000000001
 12
1.0
 22
0.0
 32
0.0
 13
1.0
 23
0.0
 33
0.0
 40
0.0
 40
0.0
 40
0.0
 40
0.0
 40
0.25
 40
0.25
 40
0.25
 40
0.25
 40
0.5
 40
0.5
 40
0.5
 40
0.5
 40
1.0
 40
1.0
 40
1.0
 40
1.0
 10
171.6029
 20
-44.816
 30
0.0
 10
178.2653
 20
-41.6676
 30
0.0
 10
183.204
 20
-37.2014
 30
0.0
 10
187.1609
 20
-31.9838
 30
0.0
 10
187.1609
 20
-31.9838
 30
0.0
 10
187.1609
 20
-37.9325
 30
0.0
 10
187.1609
 20
-43.8811
 30
0.0
 10
187.1609
 20
-49.8296
 30
0.0
 10
187.1609
 20
-49.8296
 30
0.0
 10
183.3577
 20
-46.9293
 30
0.0
 10
178.2709
 20
-45.1698
 30
0.0
 10
171.6029
 20
-44.816
 30
0.0
  0
SPLINE
  5
4C
330
1F
100
AcDbEntity
  8
layer 1
 62
     7
100
AcDbSpline
210
0.0
220
0.0
230
1.0
 70
    11
 71
     3
 72
    20
 73
    16
 74
     0
 42
0.0000000001
 43
0.0000000001
 12
1.0
 22
0.0
 32
0.0
 13
1.0
 23
0.0
 33
0.0
 40
0.0
 40
0.0
 40
0.0
 40
0.0
 40
0.2
 40
0.2
 40
0.2
 40
0.2
 40
0.4
 40
0.4
 40
0.4
 40
0.4
 40
0.6
 40
0.6
 40
0.6
 40
0.6
 40
1.0
 40
1.0
 40
1.0
 40
1.0
 10
152.5879
 20
-40.4591
 30
0.0
 10
148.8167
 20
-40.4591
 30
0.0
 10
145.7596
 20
-43.6122
 30
0.0
 10
145.7596
 20
-47.5019
 30
0.0
 10
145.7596
 20
-47.5019
 30
0.0
 10
145.7594
 20
-51.3915
 30
0.0
 10
148.8167
 20
-54.5446
 30
0.0
 10
152.5879
 20
-54.5446
 30
0.0
 10
152.5879
 20
-54.5446
 30
0.0
 10
156.3592
 20
-54.5446
 30
0.0
 10
159.4164
 20
-51.3915
 30
0.0
 10
159.4164
 20
-47.5019
 30
0.0
 10
159.4164
 20
-47.5019
 30
0.0
 10
159.4165
 20
-43.6122
 30
0.0
 10
156.3592
 20
-40.4591
 30
0.0
 10
152.5879
 20
-40.4591
 30
0.0
  0
SPLINE
  5
4D
330
1F
100
AcDbEntity
  8
layer 1
 62
     7
100
AcDbSpline
210
0.0
220
0.0
230
1.0
 70
    27
 71
     3
 72
    12
 73
     8
 74
     0
 42
0.0000000001
 43
0.0000000001
 12
1.0
 22
0.0
 32
0.0
 13
1.0
 23
0.0
 33
0.0
 40
0.0
 40
0.0
 40
0.0
 40
0.0
 40
0.3333333333333333
 40
0.3333333333333333
 40
0.3333333333333333
 40
0.3333333333333333
 40
1.0
 40
1.0
 40
1.0
 40
1.0
 10
152.5879
 20
-40.4591
 30
0.0
 10
152.5879
 20
-40.4591
 30
0.0
 10
152.5879
 20
-40.4595
 30
0.0
 10
152.5879
 20
-40.4595
 30
0.0
 10
152.5879
 20
-40.4595
 30
0.0
 10
152.5879
 20
-40.4595
 30
0.0
 10
152.5879
 20
-40.4591
 30
0.0
 10
152.5879
 20
-40.4591
 30
0.0
  0
SPLINE
  5
4E
330
1F
100
AcDbEntity
  8
layer 1
 62
     7
100
AcDbSpline
210
0.0
220
0.0
230
1.0
 70
    27
 71
     3
 72
    12
 73
     8
 74
     0
 42
0.0000000001
 43
0.0000000001
 12
1.0
 22
0.0
 32
0.0
 13
1.0
 23
0.0
 33
0.0
 40
0.0
 40
0.0
 40
0.0
 40
0.0
 40
0.3333333333333333
 40
0.3333333333333333
 40
0.3333333333333333
 40
0.3333333333333333
 40
1.0
 40
1.0
 40
1.0
 40
1.0
 10
145.7596
 20
-47.5019
 30
0.0
 10
145.7596
 20
-47.5019
 30
0.0
 10
145.7596
 20
-47.5023
 30
0.0
 10
145.7596
 20
-47.5023
 30
0.0
 10
145.7596
 20
-47.5023
 30
0.0
 10
145.7596
 20
-47.5023
 30
0.0
 10
145.7596
 20
-47.5019
 30
0.0
 10
145.7596
 20
-47.5019
 30
0.0
  0
SPLINE
  5
4F
330
1F
100
AcDbEntity
  8
layer 1
 62
     7
100
AcDbSpline
210
0.0
220
0.0
230
1.0
 70
    27
 71
     3
 72
    12
 73
     8
 74
     0
 42
0.0000000001
 43
0.0000000001
 12
1.0
 22
0.0
 32
0.0
 13
1.0
 23
0.0
 33
0.0
 40
0.0
 40
0.0
 40
0.0
 40
0.0
 40
0.3333333333333333
 40
0.3333333333333333
 40
0.3333333333333333
 40
0.3333333333333333
 40
1.0
 40
1.0
 40
1.0
 40
1.0
 10
152.5879
 20
-54.5446
 30
0.0
 10
152.5879
 20
-54.5446
 30
0.0
 10
152.5879
 20
-54.545
 30
0.0
 10
152.5879
 20
-54.545
 30
0.0
 10
152.5879
 20
-54.545
 30
0.0
 10
152.5879
 20
-54.545
 30
0.0
 10
152.5879
 20
-54.5446
 30
0.0
 10
152.5879
 20
-54.5446
 30
0.0
  0
SPLINE
  5
50
330
1F
100
AcDbEntity
  8
layer 1
 62
     7
100
AcDbSpline
210
0.0
220
0.0
230
1.0
 70
    27
 71
     3
 72
    12
 73
     8
 74
     0
 42
0.0000000001
 43
0.0000000001
 12
1.0
 22
0.0
 32
0.0
 13
1.0
 23
0.0
 33
0.0
 40
0.0
 40
0.0
 40
0.0
 40
0.0
 40
0.3333333333333333
 40
0.3333333333333333
 40
0.3333333333333333
 40
0.3333333333333333
 40
1.0
 40
1.0
 40
1.0
 40
1.0
 10
159.4164
 20
-47.5019
 30
0.0
 10
159.4164
 20
-47.5019
 30
0.0
 10
159.4164
 20
-47.5023
 30
0.0
 10
159.4164
 20
-47.5023
 30
0.0
 10
159.4164
 20
-47.5023
 30
0.0
 10
159.4164
 20
-47.5023
 30
0.0
 10
159.4164
 20
-47.5019
 30
0.0
 10
159.4164
 20
-47.5019
 30
0.0
  0
SPLINE
  5
51
330
1F
100
AcDbEntity
  8
layer 1
 62
     7
100
AcDbSpline
210
0.0
220
0.0
230
1.0
 70
    27
 71
     3
 72
    12
 73
     8
 74
     0
 42
0.0000000001
 43
0.0000000001
 12
1.0
 22
0.0
 32
0.0
 13
1.0
 23
0.0
 33
0.0
 40
0.0
 40
0.0
 40
0.0
 40
0.0
 40
0.3333333333333333
 40
0.3333333333333333
 40
0.3333333333333333
 40
0.3333333333333333
 40
1.0
 40
1.0
 40
1.0
 40
1.0
 10
152.5879
 20
-40.4591
 30
0.0
 10
152.5879
 20
-40.4591
 30
0.0
 10
152.5879
 20
-40.4595
 30
0.0
 10
152.5879
 20
-40.4595
 30
0.0
 10
152.5879
 20
-40.4595
 30
0.0
 10
152.5879
 20
-40.4595
 30
0.0
 10
152.5879
 20
-40.4591
 30
0.0
 10
152.5879
 20
-40.4591
 30
0.0
  0
SPLINE
  5
52
330
1F
100
AcDbEntity
  8
layer 1
 62
     7
100
AcDbSpline
210
0.0
220
0.0
230
1.0
 70
    11
 71
     3
 72
    20
 73
    16
 74
     0
 42
0.0000000001
 43
0.0000000001
 12
1.0
 22
0.0
 32
0.0
 13
1.0
 23
0.0
 33
0.0
 40
0.0
 40
0.0
 40
0.0
 40
0.0
 40
0.2
 40
0.2
 40
0.2
 40
0.2
 40
0.4
 40
0.4
 40
0.4
 40
0.4
 40
0.6
 40
0.6
 40
0.6
 40
0.6
 40
1.0
 40
1.0
 40
1.0
 40
1.0
 10
152.5879
 20
-40.4591
 30
0.0
 10
148.8167
 20
-40.4591
 30
0.0
 10
145.7596
 20
-43.6122
 30
0.0
 10
145.7596
 20
-47.5019
 30
0.0
 10
145.7596
 20
-47.5019
 30
0.0
 10
145.7594
 20
-51.3915
 30
0.0
 10
148.8167
 20
-54.5446
 30
0.0
 10
152.5879
 20
-54.5446
 30
0.0
 10
152.5879
 20
-54.5446
 30
0.0
 10
156.3592
 20
-54.5446
 30
0.0
 10
159.4164
 20
-51.3915
 30
0.0
 10
159.4164
 20
-47.5019
 30
0.0
 10
159.4164
 20
-47.5019
 30
0.0
 10
159.4165
 20
-43.6123
 30
0.0
 10
156.3592
 20
-40.4591
 30
0.0
 10
152.5879
 20
-40.4591
 30
0.0
  0
SPLINE
  5
53
330
1F
100
AcDbEntity
  8
layer 1
 62
     7
100
AcDbSpline
210
0.0
220
0.0
230
1.0
 70
    11
 71
     3
 72
    20
 73
    16
 74
     0
 42
0.0000000001
 43
0.0000000001
 12
1.0
 22
0.0
 32
0.0
 13
1.0
 23
0.0
 33
0.0
 40
0.0
 40
0.0
 40
0.0
 40
0.0
 40
0.2
 40
0.2
 40
0.2
 40
0.2
 40
0.4
 40
0.4
 40
0.4
 40
0.4
 40
0.6
 40
0.6
 40
0.6
 40
0.6
 40
1.0
 40
1.0
 40
1.0
 40
1.0
 10
152.5879
 20
-40.4591
 30
0.0
 10
148.8167
 20
-40.4591
 30
0.0
 10
145.7596
 20
-43.6123
 30
0.0
 10
145.7596
 20
-47.5019
 30
0.0
 10
145.7596
 20
-47.5019
 30
0.0
 10
145.7594
 20
-51.3915
 30
0.0
 10
148.8167
 20
-54.5446
 30
0.0
 10
152.5879
 20
-54.5446
 30
0.0
 10
152.5879
 20
-54.5446
 30
0.0
 10
156.3592
 20
-54.5446
 30
0.0
 10
159.4164
 20
-51.3915
 30
0.0
 10
159.4164
 20
-47.5019
 30
0.0
 10
159.4164
 20
-47.5019
 30
0.0
 10
159.4165
 20
-43.6123
 30
0.0
 10
156.3592
 20
-40.4591
 30
0.0
 10
152.5879
 20
-40.4591
 30
0.0
  0
SPLINE
  5
54
330
1F
100
AcDbEntity
  8
layer 1
 62
     7
100
AcDbSpline
210
0.0
220
0.0
230
1.0
 70
    11
 71
     3
 72
    20
 73
    16
 74
     0
 42
0.0000000001
 43
0.0000000001
 12
1.0
 22
0.0
 32
0.0
 13
1.0
 23
0.0
 33
0.0
 40
0.0
 40
0.0
 40
0.0
 40
0.0
 40
0.2
 40
0.2
 40
0.2
 40
0.2
 40
0.4
 40
0.4
 40
0.4
 40
0.4
 40
0.6
 40
0.6
 40
0.6
 40
0.6
 40
1.0
 40
1.0
 40
1.0
 40
1.0
 10
152.5879
 20
-40.4591
 30
0.0
 10
148.8167
 20
-40.4591
 30
0.0
 10
145.7596
 20
-43.6123
 30
0.0
 10
145.7596
 20
-47.5019
 30
0.0
 10
145.7596
 20
-47.5019
 30
0.0
 10
145.7594
 20
-51.3915
 30
0.0
 10
148.8167
 20
-54.5446
 30
0.0
 10
152.5879
 20
-54.5446
 30
0.0
 10
152.5879
 20
-54.5446
 30
0.0
 10
156.3592
 20
-54.5446
 30
0.0
 10
159.4164
 20
-51.3915
 30
0.0
 10
159.4164
 20
-47.502
 30
0.0
 10
159.4164
 20
-47.502
 30
0.0
 10
159.4165
 20
-43.6123
 30
0.0
 10
156.3592
 20
-40.4591
 30
0.0
 10
152.5879
 20
-40.4591
 30
0.0
  0
SPLINE
  5
55
330
1F
100
AcDbEntity
  8
layer 1
 62
     7
100
AcDbSpline
210
0.0
220
0.0
230
1.0
 70
    11
 71
     3
 72
    20
 73
    16
 74
     0
 42
0.0000000001
 43
0.0000000001
 12
1.0
 22
0.0
 32
0.0
 13
1.0
 23
0.0
 33
0.0
 40
0.0
 40
0.0
 40
0.0
 40
0.0
 40
0.2
 40
0.2
 40
0.2
 40
0.2
 40
0.4
 40
0.4
 40
0.4
 40
0.4
 40
0.6
 40
0.6
 40
0.6
 40
0.6
 40
1.0
 40
1.0
 40
1.0
 40
1.0
 10
152.5879
 20
-40.4592
 30
0.0
 10
148.8167
 20
-40.4592
 30
0.0
 10
145.7596
 20
-43.6123
 30
0.0
 10
145.7596
 20
-47.5019
 30
0.0
 10
145.7596
 20
-47.5019
 30
0.0
 10
145.7594
 20
-51.3915
 30
0.0
 10
148.8167
 20
-54.5446
 30
0.0
 10
152.5879
 20
-54.5448
 30
0.0
 10
152.5879
 20
-54.5448
 30
0.0
 10
156.3592
 20
-54.5448
 30
0.0
 10
159.4164
 20
-51.3915
 30
0.0
 10
159.4164
 20
-47.502
 30
0.0
 10
159.4164
 20
-47.502
 30
0.0
 10
159.4165
 20
-43.6123
 30
0.0
 10
156.3592
 20
-40.4592
 30
0.0
 10
152.5879
 20
-40.4592
 30
0.0
  0
SPLINE
  5
56
330
1F
100
AcDbEntity
  8
layer 1
 62
     7
100
AcDbSpline
210
0.0
220
0.0
230
1.0
 70
    11
 71
     3
 72
    20
 73
    16
 74
     0
 42
0.0000000001
 43
0.0000000001
 12
1.0
 22
0.0
 32
0.0
 13
1.0
 23
0.0
 33
0.0
 40
0.0
 40
0.0
 40
0.0
 40
0.0
 40
0.2
 40
0.2
 40
0.2
 40
0.2
 40
0.4
 40
0.4
 40
0.4
 40
0.4
 40
0.6
 40
0.6
 40
0.6
 40
0.6
 40
1.0
 40
1.0
 40
1.0
 40
1.0
 10
152.5879
 20
-40.4592
 30
0.0
 10
148.8167
 20
-40.4592
 30
0.0
 10
145.7596
 20
-43.6123
 30
0.0
 10
145.7596
 20
-47.502
 30
0.0
 10
145.7596
 20
-47.502
 30
0.0
 10
145.7594
 20
-51.3915
 30
0.0
 10
148.8167
 20
-54.5448
 30
0.0
 10
152.5879
 20
-54.5448
 30
0.0
 10
152.5879
 20
-54.5448
 30
0.0
 10
156.3592
 20
-54.5448
 30
0.0
 10
159.4164
 20
-51.3917
 30
0.0
 10
159.4164
 20
-47.502
 30
0.0
 10
159.4164
 20
-47.502
 30
0.0
 10
159.4165
 20
-43.6123
 30
0.0
 10
156.3592
 20
-40.4592
 30
0.0
 10
152.5879
 20
-40.4592
 30
0.0
  0
SPLINE
  5
57
330
1F
100
AcDbEntity
  8
layer 1
 62
     7
100
AcDbSpline
210
0.0
220
0.0
230
1.0
 70
    11
 71
     3
 72
    20
 73
    16
 74
     0
 42
0.0000000001
 43
0.0000000001
 12
1.0
 22
0.0
 32
0.0
 13
1.0
 23
0.0
 33
0.0
 40
0.0
 40
0.0
 40
0.0
 40
0.0
 40
0.2
 40
0.2
 40
0.2
 40
0.2
 40
0.4
 40
0.4
 40
0.4
 40
0.4
 40
0.6
 40
0.6
 40
0.6
 40
0.6
 40
1.0
 40
1.0
 40
1.0
 40
1.0
 10
152.5879
 20
-40.4592
 30
0.0
 10
148.8167
 20
-40.4592
 30
0.0
 10
145.7596
 20
-43.6123
 30
0.0
 10
145.7596
 20
-47.502
 30
0.0
 10
145.7596
 20
-47.502
 30
0.0
 10
145.7594
 20
-51.3915
 30
0.0
 10
148.8167
 20
-54.5448
 30
0.0
 10
152.5879
 20
-54.5448
 30
0.0
 10
152.5879
 20
-54.5448
 30
0.0
 10
156.3592
 20
-54.5448
 30
0.0
 10
159.4164
 20
-51.3917
 30
0.0
 10
159.4164
 20
-47.502
 30
0.0
 10
159.4164
 20
-47.502
 30
0.0
 10
159.4165
 20
-43.6123
 30
0.0
 10
156.3592
 20
-40.4592
 30
0.0
 10
152.5879
 20
-40.4592
 30
0.0
  0
SPLINE
  5
58
330
1F
100
AcDbEntity
  8
layer 1
 62
     7
100
AcDbSpline
210
0.0
220
0.0
230
1.0
 70
    11
 71
     3
 72
    20
 73
    16
 74
     0
 42
0.0000000001
 43
0.0000000001
 12
1.0
 22
0.0
 32
0.0
 13
1.0
 23
0.0
 33
0.0
 40
0.0
 40
0.0
 40
0.0
 40
0.0
 40
0.2
 40
0.2
 40
0.2
 40
0.2
 40
0.4
 40
0.4
 40
0.4
 40
0.4
 40
0.6
 40
0.6
 40
0.6
 40
0.6
 40
1.0
 40
1.0
 40
1.0
 40
1.0
 10
152.5879
 20
-40.4592
 30
0.0
 10
148.8167
 20
-40.4592
 30
0.0
 10
145.7596
 20
-43.6123
 30
0.0
 10
145.7596
 20
-47.502
 30
0.0
 10
145.7596
 20
-47.502
 30
0.0
 10
145.7594
 20
-51.3917
 30
0.0
 10
148.8167
 20
-54.5448
 30
0.0
 10
152.5879
 20
-54.5448
 30
0.0
 10
152.5879
 20
-54.5448
 30
0.0
 10
156.3592
 20
-54.5448
 30
0.0
 10
159.4164
 20
-51.3917
 30
0.0
 10
159.4164
 20
-47.502
 30
0.0
 10
159.4164
 20
-47.502
 30
0.0
 10
159.4165
 20
-43.6123
 30
0.0
 10
156.3592
 20
-40.4592
 30
0.0
 10
152.5879
 20
-40.4592
 30
0.0
  0
SPLINE
  5
59
330
1F
100
AcDbEntity
  8
layer 1
 62
     7
100
AcDbSpline
210
0.0
220
0.0
230
1.0
 70
    11
 71
     3
 72
    20
 73
    16
 74
     0
 42
0.0000000001
 43
0.0000000001
 12
1.0
 22
0.0
 32
0.0
 13
1.0
 23
0.0
 33
0.0
 40
0.0
 40
0.0
 40
0.0
 40
0.0
 40
0.2
 40
0.2
 40
0.2
 40
0.2
 40
0.4
 40
0.4
 40
0.4
 40
0.4
 40
0.6
 40
0.6
 40
0.6
 40
0.6
 40
1.0
 40
1.0
 40
1.0
 40
1.0
 10
152.5879
 20
-40.4592
 30
0.0
 10
148.8167
 20
-40.4592
 30
0.0
 10
145.7596
 20
-43.6123
 30
0.0
 10
145.7596
 20
-47.502
 30
0.0
 10
145.7596
 20
-47.502
 30
0.0
 10
145.7594
 20
-51.3917
 30
0.0
 10
148.8167
 20
-54.5448
 30
0.0
 10
152.5879
 20
-54.5448
 30
0.0
 10
152.5879
 20
-54.5448
 30
0.0
 10
156.3592
 20
-54.5448
 30
0.0
 10
159.4164
 20
-51.3917
 30
0.0
 10
159.4164
 20
-47.502
 30
0.0
 10
159.4164
 20
-47.502
 30
0.0
 10
159.4165
 20
-43.6125
 30
0.0
 10
156.3592
 20
-40.4592
 30
0.0
 10
152.5879
 20
-40.4592
 30
0.0
  0
SPLINE
  5
5A
330
1F
100
AcDbEntity
  8
layer 1
 62
     7
100
AcDbSpline
210
0.0
220
0.0
230
1.0
 70
    11
 71
     3
 72
    20
 73
    16
 74
     0
 42
0.0000000001
 43
0.0000000001
 12
1.0
 22
0.0
 32
0.0
 13
1.0
 23
0.0
 33
0.0
 40
0.0
 40
0.0
 40
0.0
 40
0.0
 40
0.2
 40
0.2
 40
0.2
 40
0.2
 40
0.4
 40
0.4
 40
0.4
 40
0.4
 40
0.6
 40
0.6
 40
0.6
 40
0.6
 40
1.0
 40
1.0
 40
1.0
 40
1.0
 10
152.5879
 20
-40.4592
 30
0.0
 10
148.8167
 20
-40.4592
 30
0.0
 10
145.7596
 20
-43.6123
 30
0.0
 10
145.7596
 20
-47.502
 30
0.0
 10
145.7596
 20
-47.502
 30
0.0
 10
145.7594
 20
-51.3917
 30
0.0
 10
148.8167
 20
-54.5448
 30
0.0
 10
152.5879
 20
-54.5448
 30
0.0
 10
152.5879
 20
-54.5448
 30
0.0
 10
156.3592
 20
-54.5448
 30
0.0
 10
159.4164
 20
-51.3917
 30
0.0
 10
159.4164
 20
-47.502
 30
0.0
 10
159.4164
 20
-47.502
 30
0.0
 10
159.4165
 20
-43.6125
 30
0.0
 10
156.3592
 20
-40.4592
 30
0.0
 10
152.5879
 20
-40.4592
 30
0.0
  0
SPLINE
  5
5B
330
1F
100
AcDbEntity
  8
layer 1
 62
     7
100
AcDbSpline
210
0.0
220
0.0
230
1.0
 70
    11
 71
     3
 72
    20
 73
    16
 74
     0
 42
0.0000000001
 43
0.0000000001
 12
1.0
 22
0.0
 32
0.0
 13
1.0
 23
0.0
 33
0.0
 40
0.0
 40
0.0
 40
0.0
 40
0.0
 40
0.2
 40
0.2
 40
0.2
 40
0.2
 40
0.4
 40
0.4
 40
0.4
 40
0.4
 40
0.6
 40
0.6
 40
0.6
 40
0.6
 40
1.0
 40
1.0
 40
1.0
 40
1.0
 10
152.5879
 20
-40.4592
 30
0.0
 10
148.8167
 20
-40.4592
 30
0.0
 10
145.7596
 20
-43.6125
 30
0.0
 10
145.7596
 20
-47.502
 30
0.0
 10
145.7596
 20
-47.502
 30
0.0
 10
145.7594
 20
-51.3917
 30
0.0
 10
148.8167
 20
-54.5448
 30
0.0
 10
152.5879
 20
-54.5448
 30
0.0
 10
152.5879
 20
-54.5448
 30
0.0
 10
156.3592
 20
-54.5448
 30
0.0
 10
159.4164
 20
-51.3917
 30
0.0
 10
159.4164
 20
-47.5021
 30
0.0
 10
159.4164
 20
-47.5021
 30
0.0
 10
159.4165
 20
-43.6125
 30
0.0
 10
156.3592
 20
-40.4592
 30
0.0
 10
152.5879
 20
-40.4592
 30
0.0
  0
SPLINE
  5
5C
330
1F
100
AcDbEntity
  8
layer 1
 62
     7
100
AcDbSpline
210
0.0
220
0.0
230
1.0
 70
    11
 71
     3
 72
    20
 73
    16
 74
     0
 42
0.0000000001
 43
0.0000000001
 12
1.0
 22
0.0
 32
0.0
 13
1.0
 23
0.0
 33
0.0
 40
0.0
 40
0.0
 40
0.0
 40
0.0
 40
0.2
 40
0.2
 40
0.2
 40
0.2
 40
0.4
 40
0.4
 40
0.4
 40
0.4
 40
0.6
 40
0.6
 40
0.6
 40
0.6
 40
1.0
 40
1.0
 40
1.0
 40
1.0
 10
152.5879
 20
-40.4592
 30
0.0
 10
148.8167
 20
-40.4592
 30
0.0
 10
145.7596
 20
-43.6125
 30
0.0
 10
145.7596
 20
-47.502
 30
0.0
 10
145.7596
 20
-47.502
 30
0.0
 10
145.7594
 20
-51.3917
 30
0.0
 10
148.8167
 20
-54.5448
 30
0.0
 10
152.5879
 20
-54.5448
 30
0.0
 10
152.5879
 20
-54.5448
 30
0.0
 10
156.3592
 20
-54.5449
 30
0.0
 10
159.4164
 20
-51.3917
 30
0.0
 10
159.4164
 20
-47.5021
 30
0.0
 10
159.4164
 20
-47.5021
 30
0.0
 10
159.4165
 20
-43.6125
 30
0.0
 10
156.3592
 20
-40.4592
 30
0.0
 10
152.5879
 20
-40.4592
 30
0.0
  0
SPLINE
  5
5D
330
1F
100
AcDbEntity
  8
layer 1
 62
     7
100
AcDbSpline
210
0.0
220
0.0
230
1.0
 70
    11
 71
     3
 72
    20
 73
    16
 74
     0
 42
0.0000000001
 43
0.0000000001
 12
1.0
 22
0.0
 32
0.0
 13
1.0
 23
0.0
 33
0.0
 40
0.0
 40
0.0
 40
0.0
 40
0.0
 40
0.2
 40
0.2
 40
0.2
 40
0.2
 40
0.4
 40
0.4
 40
0.4
 40
0.4
 40
0.6
 40
0.6
 40
0.6
 40
0.6
 40
1.0
 40
1.0
 40
1.0
 40
1.0
 10
152.5879
 20
-40.4593
 30
0.0
 10
148.8167
 20
-40.4593
 30
0.0
 10
145.7596
 20
-43.6125
 30
0.0
 10
145.7596
 20
-47.5021
 30
0.0
 10
145.7596
 20
-47.5021
 30
0.0
 10
145.7594
 20
-51.3917
 30
0.0
 10
148.8167
 20
-54.5449
 30
0.0
 10
152.5879
 20
-54.5449
 30
0.0
 10
152.5879
 20
-54.5449
 30
0.0
 10
156.3592
 20
-54.5449
 30
0.0
 10
159.4164
 20
-51.3917
 30
0.0
 10
159.4164
 20
-47.5021
 30
0.0
 10
159.4164
 20
-47.5021
 30
0.0
 10
159.4165
 20
-43.6125
 30
0.0
 10
156.3592
 20
-40.4593
 30
0.0
 10
152.5879
 20
-40.4593
 30
0.0
  0
SPLINE
  5
5E
330
1F
100
AcDbEntity
  8
layer 1
 62
     7
100
AcDbSpline
210
0.0
220
0.0
230
1.0
 70
    11
 71
     3
 72
    20
 73
    16
 74
     0
 42
0.0000000001
 43
0.0000000001
 12
1.0
 22
0.0
 32
0.0
 13
1.0
 23
0.0
 33
0.0
 40
0.0
 40
0.0
 40
0.0
 40
0.0
 40
0.2
 40
0.2
 40
0.2
 40
0.2
 40
0.4
 40
0.4
 40
0.4
 40
0.4
 40
0.6
 40
0.6
 40
0.6
 40
0.6
 40
1.0
 40
1.0
 40
1.0
 40
1.0
 10
152.5879
 20
-40.4593
 30
0.0
 10
148.8167
 20
-40.4593
 30
0.0
 10
145.7596
 20
-43.6125
 30
0.0
 10
145.7596
 20
-47.5021
 30
0.0
 10
145.7596
 20
-47.5021
 30
0.0
 10
145.7594
 20
-51.3917
 30
0.0
 10
148.8167
 20
-54.5449
 30
0.0
 10
152.5879
 20
-54.5449
 30
0.0
 10
152.5879
 20
-54.5449
 30
0.0
 10
156.3592
 20
-54.5449
 30
0.0
 10
159.4164
 20
-51.3918
 30
0.0
 10
159.4164
 20
-47.5021
 30
0.0
 10
159.4164
 20
-47.5021
 30
0.0
 10
159.4165
 20
-43.6125
 30
0.0
 10
156.3592
 20
-40.4593
 30
0.0
 10
152.5879
 20
-40.4593
 30
0.0
  0
SPLINE
  5
5F
330
1F
100
AcDbEntity
  8
layer 1
 62
     7
100
AcDbSpline
210
0.0
220
0.0
230
1.0
 70
    11
 71
     3
 72
    20
 73
    16
 74
     0
 42
0.0000000001
 43
0.0000000001
 12
1.0
 22
0.0
 32
0.0
 13
1.0
 23
0.0
 33
0.0
 40
0.0
 40
0.0
 40
0.0
 40
0.0
 40
0.2
 40
0.2
 40
0.2
 40
0.2
 40
0.4
 40
0.4
 40
0.4
 40
0.4
 40
0.6
 40
0.6
 40
0.6
 40
0.6
 40
1.0
 40
1.0
 40
1.0
 40
1.0
 10
152.5879
 20
-40.4593
 30
0.0
 10
148.8167
 20
-40.4593
 30
0.0
 10
145.7596
 20
-43.6125
 30
0.0
 10
145.7596
 20
-47.5021
 30
0.0
 10
145.7596
 20
-47.5021
 30
0.0
 10
145.7594
 20
-51.3917
 30
0.0
 10
148.8167
 20
-54.5449
 30
0.0
 10
152.5879
 20
-54.5449
 30
0.0
 10
152.5879
 20
-54.5449
 30
0.0
 10
156.3592
 20
-54.5449
 30
0.0
 10
159.4164
 20
-51.3918
 30
0.0
 10
159.4164
 20
-47.5021
 30
0.0
 10
159.4164
 20
-47.5021
 30
0.0
 10
159.4165
 20
-43.6125
 30
0.0
 10
156.3592
 20
-40.4593
 30
0.0
 10
152.5879
 20
-40.4593
 30
0.0
  0
SPLINE
  5
60
330
1F
100
AcDbEntity
  8
layer 1
 62
     7
100
AcDbSpline
210
0.0
220
0.0
230
1.0
 70
    11
 71
     3
 72
    20
 73
    16
 74
     0
 42
0.0000000001
 43
0.0000000001
 12
1.0
 22
0.0
 32
0.0
 13
1.0
 23
0.0
 33
0.0
 40
0.0
 40
0.0
 40
0.0
 40
0.0
 40
0.2
 40
0.2
 40
0.2
 40
0.2
 40
0.4
 40
0.4
 40
0.4
 40
0.4
 40
0.6
 40
0.6
 40
0.6
 40
0.6
 40
1.0
 40
1.0
 40
1.0
 40
1.0
 10
152.5879
 20
-40.4593
 30
0.0
 10
148.8167
 20
-40.4593
 30
0.0
 10
145.7596
 20
-43.6125
 30
0.0
 10
145.7596
 20
-47.5021
 30
0.0
 10
145.7596
 20
-47.5021
 30
0.0
 10
145.7594
 20
-51.3918
 30
0.0
 10
148.8167
 20
-54.5449
 30
0.0
 10
152.5879
 20
-54.5449
 30
0.0
 10
152.5879
 20
-54.5449
 30
0.0
 10
156.3592
 20
-54.5449
 30
0.0
 10
159.4164
 20
-51.3918
 30
0.0
 10
159.4164
 20
-47.5021
 30
0.0
 10
159.4164
 20
-47.5021
 30
0.0
 10
159.4165
 20
-43.6125
 30
0.0
 10
156.3592
 20
-40.4593
 30
0.0
 10
152.5879
 20
-40.4593
 30
0.0
  0
SPLINE
  5
61
330
1F
100
AcDbEntity
  8
layer 1
 62
     7
100
AcDbSpline
210
0.0
220
0.0
230
1.0
 70
    11
 71
     3
 72
    20
 73
    16
 74
     0
 42
0.0000000001
 43
0.0000000001
 12
1.0
 22
0.0
 32
0.0
 13
1.0
 23
0.0
 33
0.0
 40
0.0
 40
0.0
 40
0.0
 40
0.0
 40
0.2
 40
0.2
 40
0.2
 40
0.2
 40
0.4
 40
0.4
 40
0.4
 40
0.4
 40
0.6
 40
0.6
 40
0.6
 40
0.6
 40
1.0
 40
1.0
 40
1.0
 40
1.0
 10
152.5879
 20
-40.4593
 30
0.0
 10
148.8167
 20
-40.4593
 30
0.0
 10
145.7596
 20
-43.6125
 30
0.0
 10
145.7596
 20
-47.5021
 30
0.0
 10
145.7596
 20
-47.5021
 30
0.0
 10
145.7594
 20
-51.3918
 30
0.0
 10
148.8167
 20
-54.5449
 30
0.0
 10
152.5879
 20
-54.5449
 30
0.0
 10
152.5879
 20
-54.5449
 30
0.0
 10
156.3592
 20
-54.5449
 30
0.0
 10
159.4164
 20
-51.3918
 30
0.0
 10
159.4164
 20
-47.5021
 30
0.0
 10
159.4164
 20
-47.5021
 30
0.0
 10
159.4165
 20
-43.6126
 30
0.0
 10
156.3592
 20
-40.4593
 30
0.0
 10
152.5879
 20
-40.4593
 30
0.0
  0
SPLINE
  5
62
330
1F
100
AcDbEntity
  8
layer 1
 62
     7
100
AcDbSpline
210
0.0
220
0.0
230
1.0
 70
    11
 71
     3
 72
    20
 73
    16
 74
     0
 42
0.0000000001
 43
0.0000000001
 12
1.0
 22
0.0
 32
0.0
 13
1.0
 23
0.0
 33
0.0
 40
0.0
 40
0.0
 40
0.0
 40
0.0
 40
0.2
 40
0.2
 40
0.2
 40
0.2
 40
0.4
 40
0.4
 40
0.4
 40
0.4
 40
0.6
 40
0.6
 40
0.6
 40
0.6
 40
1.0
 40
1.0
 40
1.0
 40
1.0
 10
152.5879
 20
-40.4593
 30
0.0
 10
148.8167
 20
-40.4593
 30
0.0
 10
145.7596
 20
-43.6126
 30
0.0
 10
145.7596
 20
-47.5021
 30
0.0
 10
145.7596
 20
-47.5021
 30
0.0
 10
145.7594
 20
-51.3918
 30
0.0
 10
148.8167
 20
-54.5449
 30
0.0
 10
152.5879
 20
-54.5449
 30
0.0
 10
152.5879
 20
-54.5449
 30
0.0
 10
156.3592
 20
-54.5449
 30
0.0
 10
159.4164
 20
-51.3918
 30
0.0
 10
159.4164
 20
-47.5021
 30
0.0
 10
159.4164
 20
-47.5021
 30
0.0
 10
159.4165
 20
-43.6126
 30
0.0
 10
156.3592
 20
-40.4593
 30
0.0
 10
152.5879
 20
-40.4593
 30
0.0
  0
SPLINE
  5
63
330
1F
100
AcDbEntity
  8
layer 1
 62
     7
100
AcDbSpline
210
0.0
220
0.0
230
1.0
 70
    11
 71
     3
 72
    20
 73
    16
 74
     0
 42
0.0000000001
 43
0.0000000001
 12
1.0
 22
0.0
 32
0.0
 13
1.0
 23
0.0
 33
0.0
 40
0.0
 40
0.0
 40
0.0
 40
0.0
 40
0.2
 40
0.2
 40
0.2
 40
0.2
 40
0.4
 40
0.4
 40
0.4
 40
0.4
 40
0.6
 40
0.6
 40
0.6
 40
0.6
 40
1.0
 40
1.0
 40
1.0
 40
1.0
 10
152.5879
 20
-40.4593
 30
0.0
 10
148.8167
 20
-40.4593
 30
0.0
 10
145.7596
 20
-43.6126
 30
0.0
 10
145.7596
 20
-47.5021
 30
0.0
 10
145.7596
 20
-47.5021
 30
0.0
 10
145.7594
 20
-51.3918
 30
0.0
 10
148.8167
 20
-54.5449
 30
0.0
 10
152.5879
 20
-54.5449
 30
0.0
 10
152.5879
 20
-54.5449
 30
0.0
 10
156.3592
 20
-54.5449
 30
0.0
 10
159.4164
 20
-51.3918
 30
0.0
 10
159.4164
 20
-47.5023
 30
0.0
 10
159.4164
 20
-47.5023
 30
0.0
 10
159.4165
 20
-43.6126
 30
0.0
 10
156.3592
 20
-40.4593
 30
0.0
 10
152.5879
 20
-40.4593
 30
0.0
  0
SPLINE
  5
64
330
1F
100
AcDbEntity
  8
layer 1
 62
     7
100
AcDbSpline
210
0.0
220
0.0
230
1.0
 70
    11
 71
     3
 72
    20
 73
    16
 74
     0
 42
0.0000000001
 43
0.0000000001
 12
1.0
 22
0.0
 32
0.0
 13
1.0
 23
0.0
 33
0.0
 40
0.0
 40
0.0
 40
0.0
 40
0.0
 40
0.2
 40
0.2
 40
0.2
 40
0.2
 40
0.4
 40
0.4
 40
0.4
 40
0.4
 40
0.6
 40
0.6
 40
0.6
 40
0.6
 40
1.0
 40
1.0
 40
1.0
 40
1.0
 10
152.5879
 20
-40.4595
 30
0.0
 10
148.8167
 20
-40.4595
 30
0.0
 10
145.7596
 20
-43.6126
 30
0.0
 10
145.7596
 20
-47.5021
 30
0.0
 10
145.7596
 20
-47.5021
 30
0.0
 10
145.7594
 20
-51.3918
 30
0.0
 10
148.8167
 20
-54.5449
 30
0.0
 10
152.5879
 20
-54.545
 30
0.0
 10
152.5879
 20
-54.545
 30
0.0
 10
156.3592
 20
-54.545
 30
0.0
 10
159.4164
 20
-51.3918
 30
0.0
 10
159.4164
 20
-47.5023
 30
0.0
 10
159.4164
 20
-47.5023
 30
0.0
 10
159.4165
 20
-43.6126
 30
0.0
 10
156.3592
 20
-40.4595
 30
0.0
 10
152.5879
 20
-40.4595
 30
0.0
  0
SPLINE
  5
65
330
1F
100
AcDbEntity
  8
layer 1
 62
     7
100
AcDbSpline
210
0.0
220
0.0
230
1.0
 70
    11
 71
     3
 72
    20
 73
    16
 74
     0
 42
0.0000000001
 43
0.0000000001
 12
1.0
 22
0.0
 32
0.0
 13
1.0
 23
0.0
 33
0.0
 40
0.0
 40
0.0
 40
0.0
 40
0.0
 40
0.2
 40
0.2
 40
0.2
 40
0.2
 40
0.4
 40
0.4
 40
0.4
 40
0.4
 40
0.6
 40
0.6
 40
0.6
 40
0.6
 40
1.0
 40
1.0
 40
1.0
 40
1.0
 10
152.5879
 20
-40.4595
 30
0.0
 10
148.8167
 20
-40.4595
 30
0.0
 10
145.7596
 20
-43.6126
 30
0.0
 10
145.7596
 20
-47.5023
 30
0.0
 10
145.7596
 20
-47.5023
 30
0.0
 10
145.7594
 20
-51.3918
 30
0.0
 10
148.8167
 20
-54.545
 30
0.0
 10
152.5879
 20
-54.545
 30
0.0
 10
152.5879
 20
-54.545
 30
0.0
 10
156.3592
 20
-54.545
 30
0.0
 10
159.4164
 20
-51.3919
 30
0.0
 10
159.4164
 20
-47.5023
 30
0.0
 10
159.4164
 20
-47.5023
 30
0.0
 10
159.4165
 20
-43.6126
 30
0.0
 10
156.3592
 20
-40.4595
 30
0.0
 10
152.5879
 20
-40.4595
 30
0.0
  0
SPLINE
  5
66
330
1F
100
AcDbEntity
  8
layer 1
 62
     7
100
AcDbSpline
210
0.0
220
0.0
230
1.0
 70
    11
 71
     3
 72
    52
 73
    48
 74
     0
 42
0.0000000001
 43
0.0000000001
 12
1.0
 22
0.0
 32
0.0
 13
1.0
 23
0.0
 33
0.0
 40
0.0
 40
0.0
 40
0.0
 40
0.0
 40
0.0769230769230769
 40
0.0769230769230769
 40
0.0769230769230769
 40
0.0769230769230769
 40
0.1538461538461539
 40
0.1538461538461539
 40
0.1538461538461539
 40
0.1538461538461539
 40
0.2307692307692308
 40
0.2307692307692308
 40
0.2307692307692308
 40
0.2307692307692308
 40
0.3076923076923077
 40
0.3076923076923077
 40
0.3076923076923077
 40
0.3076923076923077
 40
0.3846153846153846
 40
0.3846153846153846
 40
0.3846153846153846
 40
0.3846153846153846
 40
0.4615384615384616
 40
0.4615384615384616
 40
0.4615384615384616
 40
0.4615384615384616
 40
0.5384615384615384
 40
0.5384615384615384
 40
0.5384615384615384
 40
0.5384615384615384
 40
0.6153846153846154
 40
0.6153846153846154
 40
0.6153846153846154
 40
0.6153846153846154
 40
0.6923076923076923
 40
0.6923076923076923
 40
0.6923076923076923
 40
0.6923076923076923
 40
0.7692307692307693
 40
0.7692307692307693
 40
0.7692307692307693
 40
0.7692307692307693
 40
0.8461538461538461
 40
0.8461538461538461
 40
0.8461538461538461
 40
0.8461538461538461
 40
1.0
 40
1.0
 40
1.0
 40
1.0
 10
164.6197
 20
-27.3284
 30
0.0
 10
162.4688
 20
-28.6018
 30
0.0
 10
160.4418
 20
-30.0739
 30
0.0
 10
158.3528
 20
-31.4467
 30
0.0
 10
158.3528
 20
-31.4467
 30
0.0
 10
165.505
 20
-20.2456
 30
0.0
 10
174.4389
 20
-13.0641
 30
0.0
 10
187.1609
 20
-13.4815
 30
0.0
 10
187.1609
 20
-13.4815
 30
0.0
 10
187.1609
 20
-16.4459
 30
0.0
 10
187.1609
 20
-19.4102
 30
0.0
 10
187.1609
 20
-22.3746
 30
0.0
 10
187.1609
 20
-22.3746
 30
0.0
 10
182.3026
 20
-29.8869
 30
0.0
 10
177.2571
 20
-36.1397
 30
0.0
 10
169.7526
 20
-39.8623
 30
0.0
 10
169.7526
 20
-39.8623
 30
0.0
 10
171.7222
 20
-38.1114
 30
0.0
 10
173.8802
 20
-36.5519
 30
0.0
 10
175.6614
 20
-34.61
 30
0.0
 10
175.6614
 20
-34.61
 30
0.0
 10
176.3097
 20
-33.9035
 30
0.0
 10
175.6269
 20
-33.3497
 30
0.0
 10
174.2888
 20
-33.8939
 30
0.0
 10
174.2888
 20
-33.8939
 30
0.0
 10
172.2116
 20
-34.7385
 30
0.0
 10
170.4094
 20
-35.5848
 30
0.0
 10
168.3204
 20
-36.4006
 30
0.0
 10
168.3204
 20
-36.4006
 30
0.0
 10
169.5292
 20
-32.2789
 30
0.0
 10
172.7551
 20
-29.6698
 30
0.0
 10
176.0795
 20
-26.7912
 30
0.0
 10
176.0795
 20
-26.7912
 30
0.0
 10
176.7477
 20
-26.2126
 30
0.0
 10
176.6882
 20
-24.756
 30
0.0
 10
174.9453
 20
-25.3589
 30
0.0
 10
174.9453
 20
-25.3589
 30
0.0
 10
170.4297
 20
-26.9208
 30
0.0
 10
166.9625
 20
-30.0563
 30
0.0
 10
163.3664
 20
-32.8792
 30
0.0
 10
163.3664
 20
-32.8792
 30
0.0
 10
164.2219
 20
-31.3472
 30
0.0
 10
165.1671
 20
-29.862
 30
0.0
 10
165.9328
 20
-28.2834
 30
0.0
 10
165.9328
 20
-28.2834
 30
0.0
 10
166.5992
 20
-26.9101
 30
0.0
 10
165.8997
 20
-26.5707
 30
0.0
 10
164.6197
 20
-27.3284
 30
0.0
  0
SPLINE
  5
67
330
1F
100
AcDbEntity
  8
layer 1
 62
     7
100
AcDbSpline
210
0.0
220
0.0
230
1.0
 70
    11
 71
     3
 72
   116
 73
   112
 74
     0
 42
0.0000000001
 43
0.0000000001
 12
1.0
 22
0.0
 32
0.0
 13
1.0
 23
0.0
 33
0.0
 40
0.0
 40
0.0
 40
0.0
 40
0.0
 40
0.0344827586206897
 40
0.0344827586206897
 40
0.0344827586206897
 40
0.0344827586206897
 40
0.0689655172413793
 40
0.0689655172413793
 40
0.0689655172413793
 40
0.0689655172413793
 40
0.103448275862069
 40
0.103448275862069
 40
0.103448275862069
 40
0.103448275862069
 40
0.1379310344827586
 40
0.1379310344827586
 40
0.1379310344827586
 40
0.1379310344827586
 40
0.1724137931034483
 40
0.1724137931034483
 40
0.1724137931034483
 40
0.1724137931034483
 40
0.2068965517241379
 40
0.2068965517241379
 40
0.2068965517241379
 40
0.2068965517241379
 40
0.2413793103448276
 40
0.2413793103448276
 40
0.2413793103448276
 40
0.2413793103448276
 40
0.2758620689655172
 40
0.2758620689655172
 40
0.2758620689655172
 40
0.2758620689655172
 40
0.3103448275862069
 40
0.3103448275862069
 40
0.3103448275862069
 40
0.3103448275862069
 40
0.3448275862068966
 40
0.3448275862068966
 40
0.3448275862068966
 40
0.3448275862068966
 40
0.3793103448275862
 40
0.3793103448275862
 40
0.3793103448275862
 40
0.3793103448275862
 40
0.4137931034482759
 40
0.4137931034482759
 40
0.4137931034482759
 40
0.4137931034482759
 40
0.4482758620689655
 40
0.4482758620689655
 40
0.4482758620689655
 40
0.4482758620689655
 40
0.4827586206896552
 40
0.4827586206896552
 40
0.4827586206896552
 40
0.4827586206896552
 40
0.5172413793103449
 40
0.5172413793103449
 40
0.5172413793103449
 40
0.5172413793103449
 40
0.5517241379310345
 40
0.5517241379310345
 40
0.5517241379310345
 40
0.5517241379310345
 40
0.5862068965517241
 40
0.5862068965517241
 40
0.5862068965517241
 40
0.5862068965517241
 40
0.6206896551724138
 40
0.6206896551724138
 40
0.6206896551724138
 40
0.6206896551724138
 40
0.6551724137931034
 40
0.6551724137931034
 40
0.6551724137931034
 40
0.6551724137931034
 40
0.6896551724137931
 40
0.6896551724137931
 40
0.6896551724137931
 40
0.6896551724137931
 40
0.7241379310344828
 40
0.7241379310344828
 40
0.7241379310344828
 40
0.7241379310344828
 40
0.7586206896551724
 40
0.7586206896551724
 40
0.7586206896551724
 40
0.7586206896551724
 40
0.7931034482758621
 40
0.7931034482758621
 40
0.7931034482758621
 40
0.7931034482758621
 40
0.8275862068965517
 40
0.8275862068965517
 40
0.8275862068965517
 40
0.8275862068965517
 40
0.8620689655172413
 40
0.8620689655172413
 40
0.8620689655172413
 40
0.8620689655172413
 40
0.896551724137931
 40
0.896551724137931
 40
0.896551724137931
 40
0.896551724137931
 40
0.9310344827586207
 40
0.9310344827586207
 40
0.9310344827586207
 40
0.9310344827586207
 40
1.0
 40
1.0
 40
1.0
 40
1.0
 10
155.9953
 20
26.8005
 30
0.0
 10
154.7589
 20
24.3904
 30
0.0
 10
153.1797
 20
22.7584
 30
0.0
 10
151.5602
 20
20.9519
 30
0.0
 10
151.5602
 20
20.9519
 30
0.0
 10
153.4416
 20
19.1624
 30
0.0
 10
156.2928
 20
18.5665
 30
0.0
 10
158.5218
 20
19.2114
 30
0.0
 10
158.5218
 20
19.2114
 30
0.0
 10
158.3488
 20
17.1626
 30
0.0
 10
158.3044
 20
14.6788
 30
0.0
 10
159.5239
 20
13.5578
 30
0.0
 10
159.5239
 20
13.5578
 30
0.0
 10
161.3372
 20
14.1305
 30
0.0
 10
163.032
 20
15.7381
 30
0.0
 10
163.9171
 20
16.7748
 30
0.0
 10
163.9171
 20
16.7748
 30
0.0
 10
166.1313
 20
15.2963
 30
0.0
 10
168.5482
 20
14.4247
 30
0.0
 10
171.2266
 20
14.3383
 30
0.0
 10
171.2266
 20
14.3383
 30
0.0
 10
168.475
 20
18.9685
 30
0.0
 10
168.4069
 20
22.7622
 30
0.0
 10
169.8345
 20
25.999
 30
0.0
 10
169.8345
 20
25.999
 30
0.0
 10
172.2435
 20
31.6923
 30
0.0
 10
171.1282
 20
35.4814
 30
0.0
 10
167.9649
 20
38.3305
 30
0.0
 10
167.9649
 20
38.3305
 30
0.0
 10
168.1389
 20
38.9107
 30
0.0
 10
168.9699
 20
39.4908
 30
0.0
 10
169.1439
 20
40.071
 30
0.0
 10
169.1439
 20
40.071
 30
0.0
 10
177.4355
 20
33.5366
 30
0.0
 10
182.5823
 20
25.2817
 30
0.0
 10
187.1609
 20
15.0345
 30
0.0
 10
187.1609
 20
15.0345
 30
0.0
 10
187.1609
 20
11.0317
 30
0.0
 10
187.1609
 20
7.0288
 30
0.0
 10
187.1609
 20
3.0259
 30
0.0
 10
187.1609
 20
3.0259
 30
0.0
 10
183.7368
 20
9.5257
 30
0.0
 10
178.0157
 20
15.1489
 30
0.0
 10
172.4449
 20
17.8191
 30
0.0
 10
172.4449
 20
17.8191
 30
0.0
 10
176.6254
 20
10.3477
 30
0.0
 10
182.5973
 20
2.7822
 30
0.0
 10
185.3239
 20
-5.1541
 30
0.0
 10
185.3239
 20
-5.1541
 30
0.0
 10
184.2216
 20
-5.2701
 30
0.0
 10
183.1194
 20
-5.3862
 30
0.0
 10
182.0171
 20
-5.5022
 30
0.0
 10
182.0171
 20
-5.5022
 30
0.0
 10
169.9712
 20
3.2747
 30
0.0
 10
152.7015
 20
9.2366
 30
0.0
 10
143.7285
 20
6.1584
 30
0.0
 10
143.7285
 20
6.1584
 30
0.0
 10
154.5189
 20
1.1694
 30
0.0
 10
166.1796
 20
-2.0794
 30
0.0
 10
176.0998
 20
-7.4166
 30
0.0
 10
176.0998
 20
-7.4166
 30
0.0
 10
165.1744
 20
-10.4725
 30
0.0
 10
157.4383
 20
-17.2399
 30
0.0
 10
153.4747
 20
-27.2572
 30
0.0
 10
153.4747
 20
-27.2572
 30
0.0
 10
150.9131
 20
-16.4667
 30
0.0
 10
143.394
 20
-5.6761
 30
0.0
 10
124.5841
 20
5.1143
 30
0.0
 10
124.5841
 20
5.1143
 30
0.0
 10
126.5057
 20
6.2004
 30
0.0
 10
127.3037
 20
7.5672
 30
0.0
 10
127.3688
 20
9.1171
 30
0.0
 10
127.3688
 20
9.1171
 30
0.0
 10
129.0042
 20
9.0261
 30
0.0
 10
130.3743
 20
9.7303
 30
0.0
 10
131.5456
 20
11.0315
 30
0.0
 10
131.5456
 20
11.0315
 30
0.0
 10
132.8799
 20
10.1613
 30
0.0
 10
134.2144
 20
9.2913
 30
0.0
 10
135.5487
 20
8.4211
 30
0.0
 10
135.5487
 20
8.4211
 30
0.0
 10
136.4189
 20
9.8134
 30
0.0
 10
137.2892
 20
11.2056
 30
0.0
 10
138.1592
 20
12.5979
 30
0.0
 10
138.1592
 20
12.5979
 30
0.0
 10
140.6513
 20
12.5452
 30
0.0
 10
143.093
 20
13.2889
 30
0.0
 10
145.1207
 20
14.1643
 30
0.0
 10
145.1207
 20
14.1643
 30
0.0
 10
140.8974
 20
17.4182
 30
0.0
 10
138.9438
 20
21.6271
 30
0.0
 10
138.8976
 20
26.7374
 30
0.0
 10
138.8976
 20
26.7374
 30
0.0
 10
138.842
 20
26.9609
 30
0.0
 10
138.7806
 20
27.1776
 30
0.0
 10
138.7143
 20
27.3876
 30
0.0
 10
138.7143
 20
27.3876
 30
0.0
 10
140.5004
 20
26.8306
 30
0.0
 10
143.2837
 20
27.6614
 30
0.0
 10
144.5987
 20
28.0874
 30
0.0
 10
144.5987
 20
28.0874
 30
0.0
 10
145.7728
 20
26.6644
 30
0.0
 10
147.2677
 20
24.843
 30
0.0
 10
148.9057
 20
24.3482
 30
0.0
 10
148.9057
 20
24.3482
 30
0.0
 10
150.5549
 20
24.9698
 30
0.0
 10
151.1256
 20
26.9462
 30
0.0
 10
151.7343
 20
28.2615
 30
0.0
 10
151.7343
 20
28.2615
 30
0.0
 10
152.7566
 20
27.9158
 30
0.0
 10
154.6289
 20
26.7532
 30
0.0
 10
155.9953
 20
26.8005
 30
0.0
  0
SPLINE
  5
68
330
1F
100
AcDbEntity
  8
layer 1
 62
     7
100
AcDbSpline
210
0.0
220
0.0
230
1.0
 70
    11
 71
     3
 72
    24
 73
    20
 74
     0
 42
0.0000000001
 43
0.0000000001
 12
1.0
 22
0.0
 32
0.0
 13
1.0
 23
0.0
 33
0.0
 40
0.0
 40
0.0
 40
0.0
 40
0.0
 40
0.1666666666666667
 40
0.1666666666666667
 40
0.1666666666666667
 40
0.1666666666666667
 40
0.3333333333333333
 40
0.3333333333333333
 40
0.3333333333333333
 40
0.3333333333333333
 40
0.5
 40
0.5
 40
0.5
 40
0.5
 40
0.6666666666666666
 40
0.6666666666666666
 40
0.6666666666666666
 40
0.6666666666666666
 40
1.0
 40
1.0
 40
1.0
 40
1.0
 10
138.1726
 20
28.9527
 30
0.0
 10
136.1783
 20
32.2148
 30
0.0
 10
133.999
 20
33.0345
 30
0.0
 10
130.6754
 20
33.6567
 30
0.0
 10
130.6754
 20
33.6567
 30
0.0
 10
131.0319
 20
42.5852
 30
0.0
 10
137.1048
 20
47.7027
 30
0.0
 10
145.8169
 20
51.0606
 30
0.0
 10
145.8169
 20
51.0606
 30
0.0
 10
146.0492
 20
50.0744
 30
0.0
 10
146.281
 20
49.0882
 30
0.0
 10
146.5133
 20
48.1021
 30
0.0
 10
146.5133
 20
48.1021
 30
0.0
 10
142.3366
 20
45.2032
 30
0.0
 10
141.6539
 20
41.0228
 30
0.0
 10
141.814
 20
36.2674
 30
0.0
 10
141.814
 20
36.2674
 30
0.0
 10
142.5019
 20
32.5675
 30
0.0
 10
139.59
 20
30.6993
 30
0.0
 10
138.1726
 20
28.9527
 30
0.0
  0
SPLINE
  5
69
330
1F
100
AcDbEntity
  8
layer 1
 62
     7
100
AcDbSpline
210
0.0
220
0.0
230
1.0
 70
    11
 71
     3
 72
    32
 73
    28
 74
     0
 42
0.0000000001
 43
0.0000000001
 12
1.0
 22
0.0
 32
0.0
 13
1.0
 23
0.0
 33
0.0
 40
0.0
 40
0.0
 40
0.0
 40
0.0
 40
0.125
 40
0.125
 40
0.125
 40
0.125
 40
0.25
 40
0.25
 40
0.25
 40
0.25
 40
0.375
 40
0.375
 40
0.375
 40
0.375
 40
0.5
 40
0.5
 40
0.5
 40
0.5
 40
0.625
 40
0.625
 40
0.625
 40
0.625
 40
0.75
 40
0.75
 40
0.75
 40
0.75
 40
1.0
 40
1.0
 40
1.0
 40
1.0
 10
156.6676
 20
28.0958
 30
0.0
 10
155.6672
 20
31.0819
 30
0.0
 10
153.2096
 20
34.4101
 30
0.0
 10
153.4747
 20
37.4857
 30
0.0
 10
153.4747
 20
37.4857
 30
0.0
 10
154.2674
 20
44.1312
 30
0.0
 10
153.0553
 20
47.2644
 30
0.0
 10
149.6711
 20
48.3408
 30
0.0
 10
149.6711
 20
48.3408
 30
0.0
 10
149.7292
 20
49.0948
 30
0.0
 10
149.5683
 20
49.849
 30
0.0
 10
149.6262
 20
50.6031
 30
0.0
 10
149.6262
 20
50.6031
 30
0.0
 10
155.7023
 20
49.3893
 30
0.0
 10
160.9223
 20
46.7119
 30
0.0
 10
166.07
 20
42.2492
 30
0.0
 10
166.07
 20
42.2492
 30
0.0
 10
165.6639
 20
41.2631
 30
0.0
 10
165.3674
 20
40.3863
 30
0.0
 10
164.9613
 20
39.4001
 30
0.0
 10
164.9613
 20
39.4001
 30
0.0
 10
161.1864
 20
39.3604
 30
0.0
 10
158.1625
 20
36.2943
 30
0.0
 10
157.4776
 20
30.6981
 30
0.0
 10
157.4776
 20
30.6981
 30
0.0
 10
157.363
 20
29.7621
 30
0.0
 10
157.0138
 20
28.9095
 30
0.0
 10
156.6676
 20
28.0958
 30
0.0
  0
SPLINE
  5
6A
330
1F
100
AcDbEntity
  8
layer 1
 62
     7
100
AcDbSpline
210
0.0
220
0.0
230
1.0
 70
    11
 71
     3
 72
    96
 73
    92
 74
     0
 42
0.0000000001
 43
0.0000000001
 12
1.0
 22
0.0
 32
0.0
 13
1.0
 23
0.0
 33
0.0
 40
0.0
 40
0.0
 40
0.0
 40
0.0
 40
0.0416666666666667
 40
0.0416666666666667
 40
0.0416666666666667
 40
0.0416666666666667
 40
0.0833333333333333
 40
0.0833333333333333
 40
0.0833333333333333
 40
0.0833333333333333
 40
0.125
 40
0.125
 40
0.125
 40
0.125
 40
0.1666666666666667
 40
0.1666666666666667
 40
0.1666666666666667
 40
0.1666666666666667
 40
0.2083333333333333
 40
0.2083333333333333
 40
0.2083333333333333
 40
0.2083333333333333
 40
0.25
 40
0.25
 40
0.25
 40
0.25
 40
0.2916666666666667
 40
0.2916666666666667
 40
0.2916666666666667
 40
0.2916666666666667
 40
0.3333333333333333
 40
0.3333333333333333
 40
0.3333333333333333
 40
0.3333333333333333
 40
0.375
 40
0.375
 40
0.375
 40
0.375
 40
0.4166666666666667
 40
0.4166666666666667
 40
0.4166666666666667
 40
0.4166666666666667
 40
0.4583333333333333
 40
0.4583333333333333
 40
0.4583333333333333
 40
0.4583333333333333
 40
0.5
 40
0.5
 40
0.5
 40
0.5
 40
0.5416666666666666
 40
0.5416666666666666
 40
0.5416666666666666
 40
0.5416666666666666
 40
0.5833333333333334
 40
0.5833333333333334
 40
0.5833333333333334
 40
0.5833333333333334
 40
0.625
 40
0.625
 40
0.625
 40
0.625
 40
0.6666666666666666
 40
0.6666666666666666
 40
0.6666666666666666
 40
0.6666666666666666
 40
0.7083333333333334
 40
0.7083333333333334
 40
0.7083333333333334
 40
0.7083333333333334
 40
0.75
 40
0.75
 40
0.75
 40
0.75
 40
0.7916666666666666
 40
0.7916666666666666
 40
0.7916666666666666
 40
0.7916666666666666
 40
0.8333333333333334
 40
0.8333333333333334
 40
0.8333333333333334
 40
0.8333333333333334
 40
0.875
 40
0.875
 40
0.875
 40
0.875
 40
0.9166666666666666
 40
0.9166666666666666
 40
0.9166666666666666
 40
0.9166666666666666
 40
1.0
 40
1.0
 40
1.0
 40
1.0
 10
166.9056
 20
48.2339
 30
0.0
 10
166.8407
 20
48.3737
 30
0.0
 10
166.7585
 20
48.6443
 30
0.0
 10
166.7017
 20
48.7983
 30
0.0
 10
166.7017
 20
48.7983
 30
0.0
 10
164.7629
 20
54.0448
 30
0.0
 10
167.3766
 20
58.6644
 30
0.0
 10
170.3566
 20
63.0694
 30
0.0
 10
170.3566
 20
63.0694
 30
0.0
 10
167.6963
 20
59.8373
 30
0.0
 10
164.2524
 20
56.8276
 30
0.0
 10
158.3478
 20
56.6299
 30
0.0
 10
158.3478
 20
56.6299
 30
0.0
 10
154.0337
 20
56.4855
 30
0.0
 10
153.5844
 20
59.6985
 30
0.0
 10
155.3892
 20
62.1992
 30
0.0
 10
155.3892
 20
62.1992
 30
0.0
 10
158.6836
 20
66.764
 30
0.0
 10
164.1011
 20
69.4969
 30
0.0
 10
170.1824
 20
70.9013
 30
0.0
 10
170.1824
 20
70.9013
 30
0.0
 10
161.9251
 20
74.6456
 30
0.0
 10
156.3927
 20
78.7588
 30
0.0
 10
156.9555
 20
84.8243
 30
0.0
 10
156.9555
 20
84.8243
 30
0.0
 10
153.9388
 20
85.8697
 30
0.0
 10
150.9221
 20
87.1983
 30
0.0
 10
148.4276
 20
90.2196
 30
0.0
 10
148.4276
 20
90.2196
 30
0.0
 10
146.5711
 20
87.783
 30
0.0
 10
143.6704
 20
85.5206
 30
0.0
 10
141.814
 20
83.0839
 30
0.0
 10
141.814
 20
83.0839
 30
0.0
 10
146.7452
 20
84.0121
 30
0.0
 10
151.0584
 20
82.0083
 30
0.0
 10
155.0411
 20
78.9071
 30
0.0
 10
155.0411
 20
78.9071
 30
0.0
 10
156.5594
 20
77.7246
 30
0.0
 10
157.2453
 20
77.4314
 30
0.0
 10
154.867
 20
76.4705
 30
0.0
 10
154.867
 20
76.4705
 30
0.0
 10
145.0176
 20
72.4911
 30
0.0
 10
141.7527
 20
75.5551
 30
0.0
 10
138.5075
 20
78.9071
 30
0.0
 10
138.5075
 20
78.9071
 30
0.0
 10
136.825
 20
76.4125
 30
0.0
 10
134.6205
 20
73.7438
 30
0.0
 10
132.9381
 20
71.2493
 30
0.0
 10
132.9381
 20
71.2493
 30
0.0
 10
137.3183
 20
70.5899
 30
0.0
 10
140.9834
 20
69.2755
 30
0.0
 10
144.4246
 20
64.9839
 30
0.0
 10
144.4246
 20
64.9839
 30
0.0
 10
146.3269
 20
62.6118
 30
0.0
 10
145.7735
 20
62.638
 30
0.0
 10
143.7285
 20
62.1992
 30
0.0
 10
143.7285
 20
62.1992
 30
0.0
 10
134.8901
 20
60.3025
 30
0.0
 10
133.0012
 20
63.9289
 30
0.0
 10
129.9794
 20
66.5502
 30
0.0
 10
129.9794
 20
66.5502
 30
0.0
 10
127.5428
 20
63.6496
 30
0.0
 10
125.5704
 20
60.5167
 30
0.0
 10
124.0621
 20
57.1521
 30
0.0
 10
124.0621
 20
57.1521
 30
0.0
 10
127.8087
 20
58.5113
 30
0.0
 10
131.6067
 20
58.6681
 30
0.0
 10
135.8966
 20
57.5001
 30
0.0
 10
135.8966
 20
57.5001
 30
0.0
 10
137.7557
 20
56.9941
 30
0.0
 10
138.1997
 20
56.7143
 30
0.0
 10
136.5928
 20
54.8895
 30
0.0
 10
136.5928
 20
54.8895
 30
0.0
 10
131.8744
 20
49.5311
 30
0.0
 10
126.8904
 20
48.9335
 30
0.0
 10
121.4514
 20
50.3645
 30
0.0
 10
121.4514
 20
50.3645
 30
0.0
 10
120.2331
 20
47.1739
 30
0.0
 10
119.3666
 20
44.1004
 30
0.0
 10
118.6172
 20
40.7924
 30
0.0
 10
118.6172
 20
40.7924
 30
0.0
 10
122.272
 20
42.6812
 30
0.0
 10
125.4579
 20
44.1847
 30
0.0
 10
129.1129
 20
44.2163
 30
0.0
 10
129.1129
 20
44.2163
 30
0.0
 10
138.1575
 20
53.8588
 30
0.0
 10
144.4957
 20
55.4124
 30
0.0
 10
150.6901
 20
54.5415
 30
0.0
 10
150.6901
 20
54.5415
 30
0.0
 10
156.504
 20
53.7242
 30
0.0
 10
161.8908
 20
51.6169
 30
0.0
 10
166.9056
 20
48.2339
 30
0.0
  0
SPLINE
  5
6B
330
1F
100
AcDbEntity
  8
layer 1
 62
     7
100
AcDbSpline
210
0.0
220
0.0
230
1.0
 70
    11
 71
     3
 72
    24
 73
    20
 74
     0
 42
0.0000000001
 43
0.0000000001
 12
1.0
 22
0.0
 32
0.0
 13
1.0
 23
0.0
 33
0.0
 40
0.0
 40
0.0
 40
0.0
 40
0.0
 40
0.1666666666666667
 40
0.1666666666666667
 40
0.1666666666666667
 40
0.1666666666666667
 40
0.3333333333333333
 40
0.3333333333333333
 40
0.3333333333333333
 40
0.3333333333333333
 40
0.5
 40
0.5
 40
0.5
 40
0.5
 40
0.6666666666666666
 40
0.6666666666666666
 40
0.6666666666666666
 40
0.6666666666666666
 40
1.0
 40
1.0
 40
1.0
 40
1.0
 10
169.3021
 20
46.3849
 30
0.0
 10
175.6691
 20
41.3085
 30
0.0
 10
181.7958
 20
33.9564
 30
0.0
 10
187.1609
 20
24.4326
 30
0.0
 10
187.1609
 20
24.4326
 30
0.0
 10
187.1609
 20
33.3667
 30
0.0
 10
187.1609
 20
42.3006
 30
0.0
 10
187.1609
 20
51.2347
 30
0.0
 10
187.1609
 20
51.2347
 30
0.0
 10
183.5457
 20
54.2074
 30
0.0
 10
181.0185
 20
58.2678
 30
0.0
 10
178.3623
 20
62.1992
 30
0.0
 10
178.3623
 20
62.1992
 30
0.0
 10
176.9116
 20
56.8042
 30
0.0
 10
175.3487
 20
51.297
 30
0.0
 10
170.8787
 20
47.0579
 30
0.0
 10
170.8787
 20
47.0579
 30
0.0
 10
170.3873
 20
46.5917
 30
0.0
 10
169.8417
 20
46.3739
 30
0.0
 10
169.3021
 20
46.3849
 30
0.0
  0
SPLINE
  5
6C
330
1F
100
AcDbEntity
  8
layer 1
 62
     7
100
AcDbSpline
210
0.0
220
0.0
230
1.0
 70
    11
 71
     3
 72
    20
 73
    16
 74
     0
 42
0.0000000001
 43
0.0000000001
 12
1.0
 22
0.0
 32
0.0
 13
1.0
 23
0.0
 33
0.0
 40
0.0
 40
0.0
 40
0.0
 40
0.0
 40
0.2
 40
0.2
 40
0.2
 40
0.2
 40
0.4
 40
0.4
 40
0.4
 40
0.4
 40
0.6
 40
0.6
 40
0.6
 40
0.6
 40
1.0
 40
1.0
 40
1.0
 40
1.0
 10
177.5791
 20
70.2051
 30
0.0
 10
176.8583
 20
70.2051
 30
0.0
 10
176.274
 20
69.6207
 30
0.0
 10
176.274
 20
68.8998
 30
0.0
 10
176.274
 20
68.8998
 30
0.0
 10
176.2738
 20
68.1789
 30
0.0
 10
176.8583
 20
67.5945
 30
0.0
 10
177.5791
 20
67.5945
 30
0.0
 10
177.5791
 20
67.5945
 30
0.0
 10
178.3001
 20
67.5945
 30
0.0
 10
178.8844
 20
68.1789
 30
0.0
 10
178.8844
 20
68.8998
 30
0.0
 10
178.8844
 20
68.8998
 30
0.0
 10
178.8846
 20
69.6207
 30
0.0
 10
178.3001
 20
70.2051
 30
0.0
 10
177.5791
 20
70.2051
 30
0.0
  0
SPLINE
  5
6D
330
1F
100
AcDbEntity
  8
layer 1
 62
     7
100
AcDbSpline
210
0.0
220
0.0
230
1.0
 70
    27
 71
     3
 72
    12
 73
     8
 74
     0
 42
0.0000000001
 43
0.0000000001
 12
1.0
 22
0.0
 32
0.0
 13
1.0
 23
0.0
 33
0.0
 40
0.0
 40
0.0
 40
0.0
 40
0.0
 40
0.3333333333333333
 40
0.3333333333333333
 40
0.3333333333333333
 40
0.3333333333333333
 40
1.0
 40
1.0
 40
1.0
 40
1.0
 10
177.5791
 20
70.2051
 30
0.0
 10
177.5791
 20
70.2051
 30
0.0
 10
177.5791
 20
70.2047
 30
0.0
 10
177.5791
 20
70.2047
 30
0.0
 10
177.5791
 20
70.2047
 30
0.0
 10
177.5791
 20
70.2047
 30
0.0
 10
177.5791
 20
70.2051
 30
0.0
 10
177.5791
 20
70.2051
 30
0.0
  0
SPLINE
  5
6E
330
1F
100
AcDbEntity
  8
layer 1
 62
     7
100
AcDbSpline
210
0.0
220
0.0
230
1.0
 70
    27
 71
     3
 72
    12
 73
     8
 74
     0
 42
0.0000000001
 43
0.0000000001
 12
1.0
 22
0.0
 32
0.0
 13
1.0
 23
0.0
 33
0.0
 40
0.0
 40
0.0
 40
0.0
 40
0.0
 40
0.3333333333333333
 40
0.3333333333333333
 40
0.3333333333333333
 40
0.3333333333333333
 40
1.0
 40
1.0
 40
1.0
 40
1.0
 10
176.274
 20
68.8998
 30
0.0
 10
176.274
 20
68.8998
 30
0.0
 10
176.274
 20
68.8994
 30
0.0
 10
176.274
 20
68.8994
 30
0.0
 10
176.274
 20
68.8994
 30
0.0
 10
176.274
 20
68.8994
 30
0.0
 10
176.274
 20
68.8998
 30
0.0
 10
176.274
 20
68.8998
 30
0.0
  0
SPLINE
  5
6F
330
1F
100
AcDbEntity
  8
layer 1
 62
     7
100
AcDbSpline
210
0.0
220
0.0
230
1.0
 70
    27
 71
     3
 72
    12
 73
     8
 74
     0
 42
0.0000000001
 43
0.0000000001
 12
1.0
 22
0.0
 32
0.0
 13
1.0
 23
0.0
 33
0.0
 40
0.0
 40
0.0
 40
0.0
 40
0.0
 40
0.3333333333333333
 40
0.3333333333333333
 40
0.3333333333333333
 40
0.3333333333333333
 40
1.0
 40
1.0
 40
1.0
 40
1.0
 10
177.5791
 20
67.5945
 30
0.0
 10
177.5791
 20
67.5945
 30
0.0
 10
177.5791
 20
67.5941
 30
0.0
 10
177.5791
 20
67.5941
 30
0.0
 10
177.5791
 20
67.5941
 30
0.0
 10
177.5791
 20
67.5941
 30
0.0
 10
177.5791
 20
67.5945
 30
0.0
 10
177.5791
 20
67.5945
 30
0.0
  0
SPLINE
  5
70
330
1F
100
AcDbEntity
  8
layer 1
 62
     7
100
AcDbSpline
210
0.0
220
0.0
230
1.0
 70
    27
 71
     3
 72
    12
 73
     8
 74
     0
 42
0.0000000001
 43
0.0000000001
 12
1.0
 22
0.0
 32
0.0
 13
1.0
 23
0.0
 33
0.0
 40
0.0
 40
0.0
 40
0.0
 40
0.0
 40
0.3333333333333333
 40
0.3333333333333333
 40
0.3333333333333333
 40
0.3333333333333333
 40
1.0
 40
1.0
 40
1.0
 40
1.0
 10
178.8844
 20
68.8998
 30
0.0
 10
178.8844
 20
68.8998
 30
0.0
 10
178.8844
 20
68.8994
 30
0.0
 10
178.8844
 20
68.8994
 30
0.0
 10
178.8844
 20
68.8994
 30
0.0
 10
178.8844
 20
68.8994
 30
0.0
 10
178.8844
 20
68.8998
 30
0.0
 10
178.8844
 20
68.8998
 30
0.0
  0
SPLINE
  5
71
330
1F
100
AcDbEntity
  8
layer 1
 62
     7
100
AcDbSpline
210
0.0
220
0.0
230
1.0
 70
    27
 71
     3
 72
    12
 73
     8
 74
     0
 42
0.0000000001
 43
0.0000000001
 12
1.0
 22
0.0
 32
0.0
 13
1.0
 23
0.0
 33
0.0
 40
0.0
 40
0.0
 40
0.0
 40
0.0
 40
0.3333333333333333
 40
0.3333333333333333
 40
0.3333333333333333
 40
0.3333333333333333
 40
1.0
 40
1.0
 40
1.0
 40
1.0
 10
177.5791
 20
70.2051
 30
0.0
 10
177.5791
 20
70.2051
 30
0.0
 10
177.5791
 20
70.2047
 30
0.0
 10
177.5791
 20
70.2047
 30
0.0
 10
177.5791
 20
70.2047
 30
0.0
 10
177.5791
 20
70.2047
 30
0.0
 10
177.5791
 20
70.2051
 30
0.0
 10
177.5791
 20
70.2051
 30
0.0
  0
SPLINE
  5
72
330
1F
100
AcDbEntity
  8
layer 1
 62
     7
100
AcDbSpline
210
0.0
220
0.0
230
1.0
 70
    11
 71
     3
 72
    20
 73
    16
 74
     0
 42
0.0000000001
 43
0.0000000001
 12
1.0
 22
0.0
 32
0.0
 13
1.0
 23
0.0
 33
0.0
 40
0.0
 40
0.0
 40
0.0
 40
0.0
 40
0.2
 40
0.2
 40
0.2
 40
0.2
 40
0.4
 40
0.4
 40
0.4
 40
0.4
 40
0.6
 40
0.6
 40
0.6
 40
0.6
 40
1.0
 40
1.0
 40
1.0
 40
1.0
 10
177.5791
 20
70.2051
 30
0.0
 10
176.8583
 20
70.2051
 30
0.0
 10
176.274
 20
69.6207
 30
0.0
 10
176.274
 20
68.8998
 30
0.0
 10
176.274
 20
68.8998
 30
0.0
 10
176.2738
 20
68.1789
 30
0.0
 10
176.8583
 20
67.5945
 30
0.0
 10
177.5791
 20
67.5945
 30
0.0
 10
177.5791
 20
67.5945
 30
0.0
 10
178.3001
 20
67.5945
 30
0.0
 10
178.8844
 20
68.1789
 30
0.0
 10
178.8844
 20
68.8998
 30
0.0
 10
178.8844
 20
68.8998
 30
0.0
 10
178.8846
 20
69.6207
 30
0.0
 10
178.3001
 20
70.2051
 30
0.0
 10
177.5791
 20
70.2051
 30
0.0
  0
SPLINE
  5
73
330
1F
100
AcDbEntity
  8
layer 1
 62
     7
100
AcDbSpline
210
0.0
220
0.0
230
1.0
 70
    11
 71
     3
 72
    20
 73
    16
 74
     0
 42
0.0000000001
 43
0.0000000001
 12
1.0
 22
0.0
 32
0.0
 13
1.0
 23
0.0
 33
0.0
 40
0.0
 40
0.0
 40
0.0
 40
0.0
 40
0.2
 40
0.2
 40
0.2
 40
0.2
 40
0.4
 40
0.4
 40
0.4
 40
0.4
 40
0.6
 40
0.6
 40
0.6
 40
0.6
 40
1.0
 40
1.0
 40
1.0
 40
1.0
 10
177.5791
 20
70.2051
 30
0.0
 10
176.8583
 20
70.2051
 30
0.0
 10
176.274
 20
69.6207
 30
0.0
 10
176.274
 20
68.8998
 30
0.0
 10
176.274
 20
68.8998
 30
0.0
 10
176.2738
 20
68.1788
 30
0.0
 10
176.8583
 20
67.5945
 30
0.0
 10
177.5791
 20
67.5945
 30
0.0
 10
177.5791
 20
67.5945
 30
0.0
 10
178.3001
 20
67.5945
 30
0.0
 10
178.8844
 20
68.1788
 30
0.0
 10
178.8844
 20
68.8998
 30
0.0
 10
178.8844
 20
68.8998
 30
0.0
 10
178.8846
 20
69.6207
 30
0.0
 10
178.3001
 20
70.2051
 30
0.0
 10
177.5791
 20
70.2051
 30
0.0
  0
SPLINE
  5
74
330
1F
100
AcDbEntity
  8
layer 1
 62
     7
100
AcDbSpline
210
0.0
220
0.0
230
1.0
 70
    11
 71
     3
 72
    20
 73
    16
 74
     0
 42
0.0000000001
 43
0.0000000001
 12
1.0
 22
0.0
 32
0.0
 13
1.0
 23
0.0
 33
0.0
 40
0.0
 40
0.0
 40
0.0
 40
0.0
 40
0.2
 40
0.2
 40
0.2
 40
0.2
 40
0.4
 40
0.4
 40
0.4
 40
0.4
 40
0.6
 40
0.6
 40
0.6
 40
0.6
 40
1.0
 40
1.0
 40
1.0
 40
1.0
 10
177.5791
 20
70.2051
 30
0.0
 10
176.8583
 20
70.2051
 30
0.0
 10
176.274
 20
69.6207
 30
0.0
 10
176.274
 20
68.8998
 30
0.0
 10
176.274
 20
68.8998
 30
0.0
 10
176.2738
 20
68.1788
 30
0.0
 10
176.8583
 20
67.5945
 30
0.0
 10
177.5791
 20
67.5945
 30
0.0
 10
177.5791
 20
67.5945
 30
0.0
 10
178.3001
 20
67.5945
 30
0.0
 10
178.8844
 20
68.1788
 30
0.0
 10
178.8844
 20
68.8998
 30
0.0
 10
178.8844
 20
68.8998
 30
0.0
 10
178.8846
 20
69.6207
 30
0.0
 10
178.3001
 20
70.2051
 30
0.0
 10
177.5791
 20
70.2051
 30
0.0
  0
SPLINE
  5
75
330
1F
100
AcDbEntity
  8
layer 1
 62
     7
100
AcDbSpline
210
0.0
220
0.0
230
1.0
 70
    11
 71
     3
 72
    20
 73
    16
 74
     0
 42
0.0000000001
 43
0.0000000001
 12
1.0
 22
0.0
 32
0.0
 13
1.0
 23
0.0
 33
0.0
 40
0.0
 40
0.0
 40
0.0
 40
0.0
 40
0.2
 40
0.2
 40
0.2
 40
0.2
 40
0.4
 40
0.4
 40
0.4
 40
0.4
 40
0.6
 40
0.6
 40
0.6
 40
0.6
 40
1.0
 40
1.0
 40
1.0
 40
1.0
 10
177.5791
 20
70.205
 30
0.0
 10
176.8583
 20
70.205
 30
0.0
 10
176.274
 20
69.6207
 30
0.0
 10
176.274
 20
68.8997
 30
0.0
 10
176.274
 20
68.8997
 30
0.0
 10
176.2738
 20
68.1788
 30
0.0
 10
176.8583
 20
67.5944
 30
0.0
 10
177.5791
 20
67.5944
 30
0.0
 10
177.5791
 20
67.5944
 30
0.0
 10
178.3001
 20
67.5944
 30
0.0
 10
178.8844
 20
68.1788
 30
0.0
 10
178.8844
 20
68.8997
 30
0.0
 10
178.8844
 20
68.8997
 30
0.0
 10
178.8846
 20
69.6207
 30
0.0
 10
178.3001
 20
70.205
 30
0.0
 10
177.5791
 20
70.205
 30
0.0
  0
SPLINE
  5
76
330
1F
100
AcDbEntity
  8
layer 1
 62
     7
100
AcDbSpline
210
0.0
220
0.0
230
1.0
 70
    11
 71
     3
 72
    20
 73
    16
 74
     0
 42
0.0000000001
 43
0.0000000001
 12
1.0
 22
0.0
 32
0.0
 13
1.0
 23
0.0
 33
0.0
 40
0.0
 40
0.0
 40
0.0
 40
0.0
 40
0.2
 40
0.2
 40
0.2
 40
0.2
 40
0.4
 40
0.4
 40
0.4
 40
0.4
 40
0.6
 40
0.6
 40
0.6
 40
0.6
 40
1.0
 40
1.0
 40
1.0
 40
1.0
 10
177.5791
 20
70.205
 30
0.0
 10
176.8583
 20
70.205
 30
0.0
 10
176.274
 20
69.6207
 30
0.0
 10
176.274
 20
68.8997
 30
0.0
 10
176.274
 20
68.8997
 30
0.0
 10
176.2738
 20
68.1788
 30
0.0
 10
176.8583
 20
67.5944
 30
0.0
 10
177.5791
 20
67.5944
 30
0.0
 10
177.5791
 20
67.5944
 30
0.0
 10
178.3001
 20
67.5944
 30
0.0
 10
178.8844
 20
68.1788
 30
0.0
 10
178.8844
 20
68.8997
 30
0.0
 10
178.8844
 20
68.8997
 30
0.0
 10
178.8846
 20
69.6207
 30
0.0
 10
178.3001
 20
70.205
 30
0.0
 10
177.5791
 20
70.205
 30
0.0
  0
SPLINE
  5
77
330
1F
100
AcDbEntity
  8
layer 1
 62
     7
100
AcDbSpline
210
0.0
220
0.0
230
1.0
 70
    11
 71
     3
 72
    20
 73
    16
 74
     0
 42
0.0000000001
 43
0.0000000001
 12
1.0
 22
0.0
 32
0.0
 13
1.0
 23
0.0
 33
0.0
 40
0.0
 40
0.0
 40
0.0
 40
0.0
 40
0.2
 40
0.2
 40
0.2
 40
0.2
 40
0.4
 40
0.4
 40
0.4
 40
0.4
 40
0.6
 40
0.6
 40
0.6
 40
0.6
 40
1.0
 40
1.0
 40
1.0
 40
1.0
 10
177.5791
 20
70.205
 30
0.0
 10
176.8583
 20
70.205
 30
0.0
 10
176.274
 20
69.6205
 30
0.0
 10
176.274
 20
68.8997
 30
0.0
 10
176.274
 20
68.8997
 30
0.0
 10
176.2738
 20
68.1788
 30
0.0
 10
176.8583
 20
67.5944
 30
0.0
 10
177.5791
 20
67.5944
 30
0.0
 10
177.5791
 20
67.5944
 30
0.0
 10
178.3001
 20
67.5944
 30
0.0
 10
178.8844
 20
68.1788
 30
0.0
 10
178.8844
 20
68.8997
 30
0.0
 10
178.8844
 20
68.8997
 30
0.0
 10
178.8846
 20
69.6205
 30
0.0
 10
178.3001
 20
70.205
 30
0.0
 10
177.5791
 20
70.205
 30
0.0
  0
SPLINE
  5
78
330
1F
100
AcDbEntity
  8
layer 1
 62
     7
100
AcDbSpline
210
0.0
220
0.0
230
1.0
 70
    11
 71
     3
 72
    20
 73
    16
 74
     0
 42
0.0000000001
 43
0.0000000001
 12
1.0
 22
0.0
 32
0.0
 13
1.0
 23
0.0
 33
0.0
 40
0.0
 40
0.0
 40
0.0
 40
0.0
 40
0.2
 40
0.2
 40
0.2
 40
0.2
 40
0.4
 40
0.4
 40
0.4
 40
0.4
 40
0.6
 40
0.6
 40
0.6
 40
0.6
 40
1.0
 40
1.0
 40
1.0
 40
1.0
 10
177.5791
 20
70.205
 30
0.0
 10
176.8583
 20
70.205
 30
0.0
 10
176.274
 20
69.6205
 30
0.0
 10
176.274
 20
68.8997
 30
0.0
 10
176.274
 20
68.8997
 30
0.0
 10
176.2738
 20
68.1788
 30
0.0
 10
176.8583
 20
67.5944
 30
0.0
 10
177.5791
 20
67.5944
 30
0.0
 10
177.5791
 20
67.5944
 30
0.0
 10
178.3001
 20
67.5944
 30
0.0
 10
178.8844
 20
68.1788
 30
0.0
 10
178.8844
 20
68.8997
 30
0.0
 10
178.8844
 20
68.8997
 30
0.0
 10
178.8846
 20
69.6205
 30
0.0
 10
178.3001
 20
70.205
 30
0.0
 10
177.5791
 20
70.205
 30
0.0
  0
SPLINE
  5
79
330
1F
100
AcDbEntity
  8
layer 1
 62
     7
100
AcDbSpline
210
0.0
220
0.0
230
1.0
 70
    11
 71
     3
 72
    20
 73
    16
 74
     0
 42
0.0000000001
 43
0.0000000001
 12
1.0
 22
0.0
 32
0.0
 13
1.0
 23
0.0
 33
0.0
 40
0.0
 40
0.0
 40
0.0
 40
0.0
 40
0.2
 40
0.2
 40
0.2
 40
0.2
 40
0.4
 40
0.4
 40
0.4
 40
0.4
 40
0.6
 40
0.6
 40
0.6
 40
0.6
 40
1.0
 40
1.0
 40
1.0
 40
1.0
 10
177.5791
 20
70.205
 30
0.0
 10
176.8583
 20
70.205
 30
0.0
 10
176.274
 20
69.6205
 30
0.0
 10
176.274
 20
68.8997
 30
0.0
 10
176.274
 20
68.8997
 30
0.0
 10
176.2738
 20
68.1788
 30
0.0
 10
176.8583
 20
67.5944
 30
0.0
 10
177.5791
 20
67.5944
 30
0.0
 10
177.5791
 20
67.5944
 30
0.0
 10
178.3001
 20
67.5944
 30
0.0
 10
178.8844
 20
68.1788
 30
0.0
 10
178.8844
 20
68.8997
 30
0.0
 10
178.8844
 20
68.8997
 30
0.0
 10
178.8846
 20
69.6205
 30
0.0
 10
178.3001
 20
70.205
 30
0.0
 10
177.5791
 20
70.205
 30
0.0
  0
SPLINE
  5
7A
330
1F
100
AcDbEntity
  8
layer 1
 62
     7
100
AcDbSpline
210
0.0
220
0.0
230
1.0
 70
    11
 71
     3
 72
    20
 73
    16
 74
     0
 42
0.0000000001
 43
0.0000000001
 12
1.0
 22
0.0
 32
0.0
 13
1.0
 23
0.0
 33
0.0
 40
0.0
 40
0.0
 40
0.0
 40
0.0
 40
0.2
 40
0.2
 40
0.2
 40
0.2
 40
0.4
 40
0.4
 40
0.4
 40
0.4
 40
0.6
 40
0.6
 40
0.6
 40
0.6
 40
1.0
 40
1.0
 40
1.0
 40
1.0
 10
177.5791
 20
70.205
 30
0.0
 10
176.8583
 20
70.205
 30
0.0
 10
176.274
 20
69.6205
 30
0.0
 10
176.274
 20
68.8997
 30
0.0
 10
176.274
 20
68.8997
 30
0.0
 10
176.2738
 20
68.1788
 30
0.0
 10
176.8583
 20
67.5944
 30
0.0
 10
177.5791
 20
67.5944
 30
0.0
 10
177.5791
 20
67.5944
 30
0.0
 10
178.3001
 20
67.5944
 30
0.0
 10
178.8844
 20
68.1787
 30
0.0
 10
178.8844
 20
68.8997
 30
0.0
 10
178.8844
 20
68.8997
 30
0.0
 10
178.8846
 20
69.6205
 30
0.0
 10
178.3001
 20
70.205
 30
0.0
 10
177.5791
 20
70.205
 30
0.0
  0
SPLINE
  5
7B
330
1F
100
AcDbEntity
  8
layer 1
 62
     7
100
AcDbSpline
210
0.0
220
0.0
230
1.0
 70
    11
 71
     3
 72
    20
 73
    16
 74
     0
 42
0.0000000001
 43
0.0000000001
 12
1.0
 22
0.0
 32
0.0
 13
1.0
 23
0.0
 33
0.0
 40
0.0
 40
0.0
 40
0.0
 40
0.0
 40
0.2
 40
0.2
 40
0.2
 40
0.2
 40
0.4
 40
0.4
 40
0.4
 40
0.4
 40
0.6
 40
0.6
 40
0.6
 40
0.6
 40
1.0
 40
1.0
 40
1.0
 40
1.0
 10
177.5791
 20
70.205
 30
0.0
 10
176.8583
 20
70.205
 30
0.0
 10
176.274
 20
69.6205
 30
0.0
 10
176.274
 20
68.8997
 30
0.0
 10
176.274
 20
68.8997
 30
0.0
 10
176.2738
 20
68.1787
 30
0.0
 10
176.8583
 20
67.5944
 30
0.0
 10
177.5791
 20
67.5944
 30
0.0
 10
177.5791
 20
67.5944
 30
0.0
 10
178.3001
 20
67.5944
 30
0.0
 10
178.8844
 20
68.1787
 30
0.0
 10
178.8844
 20
68.8997
 30
0.0
 10
178.8844
 20
68.8997
 30
0.0
 10
178.8846
 20
69.6205
 30
0.0
 10
178.3001
 20
70.205
 30
0.0
 10
177.5791
 20
70.205
 30
0.0
  0
SPLINE
  5
7C
330
1F
100
AcDbEntity
  8
layer 1
 62
     7
100
AcDbSpline
210
0.0
220
0.0
230
1.0
 70
    11
 71
     3
 72
    20
 73
    16
 74
     0
 42
0.0000000001
 43
0.0000000001
 12
1.0
 22
0.0
 32
0.0
 13
1.0
 23
0.0
 33
0.0
 40
0.0
 40
0.0
 40
0.0
 40
0.0
 40
0.2
 40
0.2
 40
0.2
 40
0.2
 40
0.4
 40
0.4
 40
0.4
 40
0.4
 40
0.6
 40
0.6
 40
0.6
 40
0.6
 40
1.0
 40
1.0
 40
1.0
 40
1.0
 10
177.5791
 20
70.205
 30
0.0
 10
176.8583
 20
70.205
 30
0.0
 10
176.274
 20
69.6205
 30
0.0
 10
176.274
 20
68.8997
 30
0.0
 10
176.274
 20
68.8997
 30
0.0
 10
176.2738
 20
68.1787
 30
0.0
 10
176.8583
 20
67.5944
 30
0.0
 10
177.5791
 20
67.5944
 30
0.0
 10
177.5791
 20
67.5944
 30
0.0
 10
178.3001
 20
67.5944
 30
0.0
 10
178.8844
 20
68.1787
 30
0.0
 10
178.8844
 20
68.8997
 30
0.0
 10
178.8844
 20
68.8997
 30
0.0
 10
178.8846
 20
69.6205
 30
0.0
 10
178.3001
 20
70.205
 30
0.0
 10
177.5791
 20
70.205
 30
0.0
  0
SPLINE
  5
7D
330
1F
100
AcDbEntity
  8
layer 1
 62
     7
100
AcDbSpline
210
0.0
220
0.0
230
1.0
 70
    11
 71
     3
 72
    20
 73
    16
 74
     0
 42
0.0000000001
 43
0.0000000001
 12
1.0
 22
0.0
 32
0.0
 13
1.0
 23
0.0
 33
0.0
 40
0.0
 40
0.0
 40
0.0
 40
0.0
 40
0.2
 40
0.2
 40
0.2
 40
0.2
 40
0.4
 40
0.4
 40
0.4
 40
0.4
 40
0.6
 40
0.6
 40
0.6
 40
0.6
 40
1.0
 40
1.0
 40
1.0
 40
1.0
 10
177.5791
 20
70.2048
 30
0.0
 10
176.8583
 20
70.2048
 30
0.0
 10
176.274
 20
69.6205
 30
0.0
 10
176.274
 20
68.8995
 30
0.0
 10
176.274
 20
68.8995
 30
0.0
 10
176.2738
 20
68.1787
 30
0.0
 10
176.8583
 20
67.5942
 30
0.0
 10
177.5791
 20
67.5942
 30
0.0
 10
177.5791
 20
67.5942
 30
0.0
 10
178.3001
 20
67.5942
 30
0.0
 10
178.8844
 20
68.1787
 30
0.0
 10
178.8844
 20
68.8995
 30
0.0
 10
178.8844
 20
68.8995
 30
0.0
 10
178.8846
 20
69.6205
 30
0.0
 10
178.3001
 20
70.2048
 30
0.0
 10
177.5791
 20
70.2048
 30
0.0
  0
SPLINE
  5
7E
330
1F
100
AcDbEntity
  8
layer 1
 62
     7
100
AcDbSpline
210
0.0
220
0.0
230
1.0
 70
    11
 71
     3
 72
    20
 73
    16
 74
     0
 42
0.0000000001
 43
0.0000000001
 12
1.0
 22
0.0
 32
0.0
 13
1.0
 23
0.0
 33
0.0
 40
0.0
 40
0.0
 40
0.0
 40
0.0
 40
0.2
 40
0.2
 40
0.2
 40
0.2
 40
0.4
 40
0.4
 40
0.4
 40
0.4
 40
0.6
 40
0.6
 40
0.6
 40
0.6
 40
1.0
 40
1.0
 40
1.0
 40
1.0
 10
177.5791
 20
70.2048
 30
0.0
 10
176.8583
 20
70.2048
 30
0.0
 10
176.274
 20
69.6205
 30
0.0
 10
176.274
 20
68.8995
 30
0.0
 10
176.274
 20
68.8995
 30
0.0
 10
176.2738
 20
68.1787
 30
0.0
 10
176.8583
 20
67.5942
 30
0.0
 10
177.5791
 20
67.5942
 30
0.0
 10
177.5791
 20
67.5942
 30
0.0
 10
178.3001
 20
67.5942
 30
0.0
 10
178.8844
 20
68.1787
 30
0.0
 10
178.8844
 20
68.8995
 30
0.0
 10
178.8844
 20
68.8995
 30
0.0
 10
178.8846
 20
69.6205
 30
0.0
 10
178.3001
 20
70.2048
 30
0.0
 10
177.5791
 20
70.2048
 30
0.0
  0
SPLINE
  5
7F
330
1F
100
AcDbEntity
  8
layer 1
 62
     7
100
AcDbSpline
210
0.0
220
0.0
230
1.0
 70
    11
 71
     3
 72
    20
 73
    16
 74
     0
 42
0.0000000001
 43
0.0000000001
 12
1.0
 22
0.0
 32
0.0
 13
1.0
 23
0.0
 33
0.0
 40
0.0
 40
0.0
 40
0.0
 40
0.0
 40
0.2
 40
0.2
 40
0.2
 40
0.2
 40
0.4
 40
0.4
 40
0.4
 40
0.4
 40
0.6
 40
0.6
 40
0.6
 40
0.6
 40
1.0
 40
1.0
 40
1.0
 40
1.0
 10
177.5791
 20
70.2048
 30
0.0
 10
176.8583
 20
70.2048
 30
0.0
 10
176.274
 20
69.6204
 30
0.0
 10
176.274
 20
68.8995
 30
0.0
 10
176.274
 20
68.8995
 30
0.0
 10
176.2738
 20
68.1787
 30
0.0
 10
176.8583
 20
67.5942
 30
0.0
 10
177.5791
 20
67.5942
 30
0.0
 10
177.5791
 20
67.5942
 30
0.0
 10
178.3001
 20
67.5942
 30
0.0
 10
178.8844
 20
68.1787
 30
0.0
 10
178.8844
 20
68.8995
 30
0.0
 10
178.8844
 20
68.8995
 30
0.0
 10
178.8846
 20
69.6204
 30
0.0
 10
178.3001
 20
70.2048
 30
0.0
 10
177.5791
 20
70.2048
 30
0.0
  0
SPLINE
  5
80
330
1F
100
AcDbEntity
  8
layer 1
 62
     7
100
AcDbSpline
210
0.0
220
0.0
230
1.0
 70
    11
 71
     3
 72
    20
 73
    16
 74
     0
 42
0.0000000001
 43
0.0000000001
 12
1.0
 22
0.0
 32
0.0
 13
1.0
 23
0.0
 33
0.0
 40
0.0
 40
0.0
 40
0.0
 40
0.0
 40
0.2
 40
0.2
 40
0.2
 40
0.2
 40
0.4
 40
0.4
 40
0.4
 40
0.4
 40
0.6
 40
0.6
 40
0.6
 40
0.6
 40
1.0
 40
1.0
 40
1.0
 40
1.0
 10
177.5791
 20
70.2048
 30
0.0
 10
176.8583
 20
70.2048
 30
0.0
 10
176.274
 20
69.6204
 30
0.0
 10
176.274
 20
68.8995
 30
0.0
 10
176.274
 20
68.8995
 30
0.0
 10
176.2738
 20
68.1787
 30
0.0
 10
176.8583
 20
67.5942
 30
0.0
 10
177.5791
 20
67.5942
 30
0.0
 10
177.5791
 20
67.5942
 30
0.0
 10
178.3001
 20
67.5942
 30
0.0
 10
178.8844
 20
68.1787
 30
0.0
 10
178.8844
 20
68.8995
 30
0.0
 10
178.8844
 20
68.8995
 30
0.0
 10
178.8846
 20
69.6204
 30
0.0
 10
178.3001
 20
70.2048
 30
0.0
 10
177.5791
 20
70.2048
 30
0.0
  0
SPLINE
  5
81
330
1F
100
AcDbEntity
  8
layer 1
 62
     7
100
AcDbSpline
210
0.0
220
0.0
230
1.0
 70
    11
 71
     3
 72
    20
 73
    16
 74
     0
 42
0.0000000001
 43
0.0000000001
 12
1.0
 22
0.0
 32
0.0
 13
1.0
 23
0.0
 33
0.0
 40
0.0
 40
0.0
 40
0.0
 40
0.0
 40
0.2
 40
0.2
 40
0.2
 40
0.2
 40
0.4
 40
0.4
 40
0.4
 40
0.4
 40
0.6
 40
0.6
 40
0.6
 40
0.6
 40
1.0
 40
1.0
 40
1.0
 40
1.0
 10
177.5791
 20
70.2048
 30
0.0
 10
176.8583
 20
70.2048
 30
0.0
 10
176.274
 20
69.6204
 30
0.0
 10
176.274
 20
68.8995
 30
0.0
 10
176.274
 20
68.8995
 30
0.0
 10
176.2738
 20
68.1787
 30
0.0
 10
176.8583
 20
67.5942
 30
0.0
 10
177.5791
 20
67.5942
 30
0.0
 10
177.5791
 20
67.5942
 30
0.0
 10
178.3001
 20
67.5942
 30
0.0
 10
178.8844
 20
68.1787
 30
0.0
 10
178.8844
 20
68.8995
 30
0.0
 10
178.8844
 20
68.8995
 30
0.0
 10
178.8846
 20
69.6204
 30
0.0
 10
178.3001
 20
70.2048
 30
0.0
 10
177.5791
 20
70.2048
 30
0.0
  0
SPLINE
  5
82
330
1F
100
AcDbEntity
  8
layer 1
 62
     7
100
AcDbSpline
210
0.0
220
0.0
230
1.0
 70
    11
 71
     3
 72
    20
 73
    16
 74
     0
 42
0.0000000001
 43
0.0000000001
 12
1.0
 22
0.0
 32
0.0
 13
1.0
 23
0.0
 33
0.0
 40
0.0
 40
0.0
 40
0.0
 40
0.0
 40
0.2
 40
0.2
 40
0.2
 40
0.2
 40
0.4
 40
0.4
 40
0.4
 40
0.4
 40
0.6
 40
0.6
 40
0.6
 40
0.6
 40
1.0
 40
1.0
 40
1.0
 40
1.0
 10
177.5791
 20
70.2048
 30
0.0
 10
176.8583
 20
70.2048
 30
0.0
 10
176.274
 20
69.6204
 30
0.0
 10
176.274
 20
68.8995
 30
0.0
 10
176.274
 20
68.8995
 30
0.0
 10
176.2738
 20
68.1786
 30
0.0
 10
176.8583
 20
67.5942
 30
0.0
 10
177.5791
 20
67.5942
 30
0.0
 10
177.5791
 20
67.5942
 30
0.0
 10
178.3001
 20
67.5942
 30
0.0
 10
178.8844
 20
68.1786
 30
0.0
 10
178.8844
 20
68.8995
 30
0.0
 10
178.8844
 20
68.8995
 30
0.0
 10
178.8846
 20
69.6204
 30
0.0
 10
178.3001
 20
70.2048
 30
0.0
 10
177.5791
 20
70.2048
 30
0.0
  0
SPLINE
  5
83
330
1F
100
AcDbEntity
  8
layer 1
 62
     7
100
AcDbSpline
210
0.0
220
0.0
230
1.0
 70
    11
 71
     3
 72
    20
 73
    16
 74
     0
 42
0.0000000001
 43
0.0000000001
 12
1.0
 22
0.0
 32
0.0
 13
1.0
 23
0.0
 33
0.0
 40
0.0
 40
0.0
 40
0.0
 40
0.0
 40
0.2
 40
0.2
 40
0.2
 40
0.2
 40
0.4
 40
0.4
 40
0.4
 40
0.4
 40
0.6
 40
0.6
 40
0.6
 40
0.6
 40
1.0
 40
1.0
 40
1.0
 40
1.0
 10
177.5791
 20
70.2048
 30
0.0
 10
176.8583
 20
70.2048
 30
0.0
 10
176.274
 20
69.6204
 30
0.0
 10
176.274
 20
68.8995
 30
0.0
 10
176.274
 20
68.8995
 30
0.0
 10
176.2738
 20
68.1786
 30
0.0
 10
176.8583
 20
67.5942
 30
0.0
 10
177.5791
 20
67.5942
 30
0.0
 10
177.5791
 20
67.5942
 30
0.0
 10
178.3001
 20
67.5942
 30
0.0
 10
178.8844
 20
68.1786
 30
0.0
 10
178.8844
 20
68.8995
 30
0.0
 10
178.8844
 20
68.8995
 30
0.0
 10
178.8846
 20
69.6204
 30
0.0
 10
178.3001
 20
70.2048
 30
0.0
 10
177.5791
 20
70.2048
 30
0.0
  0
SPLINE
  5
84
330
1F
100
AcDbEntity
  8
layer 1
 62
     7
100
AcDbSpline
210
0.0
220
0.0
230
1.0
 70
    11
 71
     3
 72
    20
 73
    16
 74
     0
 42
0.0000000001
 43
0.0000000001
 12
1.0
 22
0.0
 32
0.0
 13
1.0
 23
0.0
 33
0.0
 40
0.0
 40
0.0
 40
0.0
 40
0.0
 40
0.2
 40
0.2
 40
0.2
 40
0.2
 40
0.4
 40
0.4
 40
0.4
 40
0.4
 40
0.6
 40
0.6
 40
0.6
 40
0.6
 40
1.0
 40
1.0
 40
1.0
 40
1.0
 10
177.5791
 20
70.2047
 30
0.0
 10
176.8583
 20
70.2047
 30
0.0
 10
176.274
 20
69.6204
 30
0.0
 10
176.274
 20
68.8994
 30
0.0
 10
176.274
 20
68.8994
 30
0.0
 10
176.2738
 20
68.1786
 30
0.0
 10
176.8583
 20
67.5941
 30
0.0
 10
177.5791
 20
67.5941
 30
0.0
 10
177.5791
 20
67.5941
 30
0.0
 10
178.3001
 20
67.5941
 30
0.0
 10
178.8844
 20
68.1786
 30
0.0
 10
178.8844
 20
68.8994
 30
0.0
 10
178.8844
 20
68.8994
 30
0.0
 10
178.8846
 20
69.6204
 30
0.0
 10
178.3001
 20
70.2047
 30
0.0
 10
177.5791
 20
70.2047
 30
0.0
  0
SPLINE
  5
85
330
1F
100
AcDbEntity
  8
layer 1
 62
     7
100
AcDbSpline
210
0.0
220
0.0
230
1.0
 70
    11
 71
     3
 72
    20
 73
    16
 74
     0
 42
0.0000000001
 43
0.0000000001
 12
1.0
 22
0.0
 32
0.0
 13
1.0
 23
0.0
 33
0.0
 40
0.0
 40
0.0
 40
0.0
 40
0.0
 40
0.2
 40
0.2
 40
0.2
 40
0.2
 40
0.4
 40
0.4
 40
0.4
 40
0.4
 40
0.6
 40
0.6
 40
0.6
 40
0.6
 40
1.0
 40
1.0
 40
1.0
 40
1.0
 10
177.5791
 20
70.2047
 30
0.0
 10
176.8583
 20
70.2047
 30
0.0
 10
176.274
 20
69.6204
 30
0.0
 10
176.274
 20
68.8994
 30
0.0
 10
176.274
 20
68.8994
 30
0.0
 10
176.2738
 20
68.1786
 30
0.0
 10
176.8583
 20
67.5941
 30
0.0
 10
177.5791
 20
67.5941
 30
0.0
 10
177.5791
 20
67.5941
 30
0.0
 10
178.3001
 20
67.5941
 30
0.0
 10
178.8844
 20
68.1786
 30
0.0
 10
178.8844
 20
68.8994
 30
0.0
 10
178.8844
 20
68.8994
 30
0.0
 10
178.8846
 20
69.6204
 30
0.0
 10
178.3001
 20
70.2047
 30
0.0
 10
177.5791
 20
70.2047
 30
0.0
  0
SPLINE
  5
86
330
1F
100
AcDbEntity
  8
layer 1
 62
     7
100
AcDbSpline
210
0.0
220
0.0
230
1.0
 70
    11
 71
     3
 72
    16
 73
    12
 74
     0
 42
0.0000000001
 43
0.0000000001
 12
1.0
 22
0.0
 32
0.0
 13
1.0
 23
0.0
 33
0.0
 40
0.0
 40
0.0
 40
0.0
 40
0.0
 40
0.25
 40
0.25
 40
0.25
 40
0.25
 40
0.5
 40
0.5
 40
0.5
 40
0.5
 40
1.0
 40
1.0
 40
1.0
 40
1.0
 10
185.1499
 20
67.5945
 30
0.0
 10
185.1499
 20
67.5945
 30
0.0
 10
187.1609
 20
68.8128
 30
0.0
 10
187.1609
 20
68.8128
 30
0.0
 10
187.1609
 20
68.8128
 30
0.0
 10
187.1609
 20
68.8128
 30
0.0
 10
187.1609
 20
66.7242
 30
0.0
 10
187.1609
 20
66.7242
 30
0.0
 10
187.1609
 20
66.7242
 30
0.0
 10
187.1609
 20
66.7242
 30
0.0
 10
185.1499
 20
67.5945
 30
0.0
 10
185.1499
 20
67.5945
 30
0.0
  0
SPLINE
  5
87
330
1F
100
AcDbEntity
  8
layer 1
 62
     7
100
AcDbSpline
210
0.0
220
0.0
230
1.0
 70
    11
 71
     3
 72
    16
 73
    12
 74
     0
 42
0.0000000001
 43
0.0000000001
 12
1.0
 22
0.0
 32
0.0
 13
1.0
 23
0.0
 33
0.0
 40
0.0
 40
0.0
 40
0.0
 40
0.0
 40
0.25
 40
0.25
 40
0.25
 40
0.25
 40
0.5
 40
0.5
 40
0.5
 40
0.5
 40
1.0
 40
1.0
 40
1.0
 40
1.0
 10
185.1499
 20
115.1071
 30
0.0
 10
187.0544
 20
116.4416
 30
0.0
 10
187.8343
 20
117.7759
 30
0.0
 10
187.1609
 20
119.1102
 30
0.0
 10
187.1609
 20
119.1102
 30
0.0
 10
187.1609
 20
117.8919
 30
0.0
 10
187.1609
 20
116.6736
 30
0.0
 10
187.1609
 20
115.4553
 30
0.0
 10
187.1609
 20
115.4553
 30
0.0
 10
186.4905
 20
115.3393
 30
0.0
 10
185.8202
 20
115.2231
 30
0.0
 10
185.1499
 20
115.1071
 30
0.0
  0
SPLINE
  5
88
330
1F
100
AcDbEntity
  8
layer 1
 62
     7
100
AcDbSpline
210
0.0
220
0.0
230
1.0
 70
    11
 71
     3
 72
    20
 73
    16
 74
     0
 42
0.0000000001
 43
0.0000000001
 12
1.0
 22
0.0
 32
0.0
 13
1.0
 23
0.0
 33
0.0
 40
0.0
 40
0.0
 40
0.0
 40
0.0
 40
0.2
 40
0.2
 40
0.2
 40
0.2
 40
0.4
 40
0.4
 40
0.4
 40
0.4
 40
0.6
 40
0.6
 40
0.6
 40
0.6
 40
1.0
 40
1.0
 40
1.0
 40
1.0
 10
172.967
 20
111.9746
 30
0.0
 10
175.4413
 20
115.0635
 30
0.0
 10
176.5262
 20
118.5493
 30
0.0
 10
175.7517
 20
122.5666
 30
0.0
 10
175.7517
 20
122.5666
 30
0.0
 10
177.4923
 20
122.5666
 30
0.0
 10
179.2325
 20
122.5666
 30
0.0
 10
180.9731
 20
122.5666
 30
0.0
 10
180.9731
 20
122.5666
 30
0.0
 10
179.7645
 20
120.0464
 30
0.0
 10
178.9298
 20
117.3388
 30
0.0
 10
179.5806
 20
113.889
 30
0.0
 10
179.5806
 20
113.889
 30
0.0
 10
177.3761
 20
113.2509
 30
0.0
 10
175.1716
 20
112.6127
 30
0.0
 10
172.967
 20
111.9746
 30
0.0
  0
SPLINE
  5
89
330
1F
100
AcDbEntity
  8
layer 1
 62
     7
100
AcDbSpline
210
0.0
220
0.0
230
1.0
 70
    11
 71
     3
 72
    16
 73
    12
 74
     0
 42
0.0000000001
 43
0.0000000001
 12
1.0
 22
0.0
 32
0.0
 13
1.0
 23
0.0
 33
0.0
 40
0.0
 40
0.0
 40
0.0
 40
0.0
 40
0.25
 40
0.25
 40
0.25
 40
0.25
 40
0.5
 40
0.5
 40
0.5
 40
0.5
 40
1.0
 40
1.0
 40
1.0
 40
1.0
 10
179.9289
 20
109.538
 30
0.0
 10
182.3395
 20
110.2697
 30
0.0
 10
184.7502
 20
110.8367
 30
0.0
 10
187.1609
 20
111.1044
 30
0.0
 10
187.1609
 20
111.1044
 30
0.0
 10
187.1609
 20
109.48
 30
0.0
 10
187.1609
 20
107.8556
 30
0.0
 10
187.1609
 20
106.2312
 30
0.0
 10
187.1609
 20
106.2312
 30
0.0
 10
185.0322
 20
107.8979
 30
0.0
 10
182.5222
 20
108.8014
 30
0.0
 10
179.9289
 20
109.538
 30
0.0
  0
SPLINE
  5
8A
330
1F
100
AcDbEntity
  8
layer 1
 62
     7
100
AcDbSpline
210
0.0
220
0.0
230
1.0
 70
    11
 71
     3
 72
    32
 73
    28
 74
     0
 42
0.0000000001
 43
0.0000000001
 12
1.0
 22
0.0
 32
0.0
 13
1.0
 23
0.0
 33
0.0
 40
0.0
 40
0.0
 40
0.0
 40
0.0
 40
0.125
 40
0.125
 40
0.125
 40
0.125
 40
0.25
 40
0.25
 40
0.25
 40
0.25
 40
0.375
 40
0.375
 40
0.375
 40
0.375
 40
0.5
 40
0.5
 40
0.5
 40
0.5
 40
0.625
 40
0.625
 40
0.625
 40
0.625
 40
0.75
 40
0.75
 40
0.75
 40
0.75
 40
1.0
 40
1.0
 40
1.0
 40
1.0
 10
172.0968
 20
101.01
 30
0.0
 10
170.3935
 20
102.6505
 30
0.0
 10
168.1827
 20
103.276
 30
0.0
 10
166.0054
 20
103.9687
 30
0.0
 10
166.0054
 20
103.9687
 30
0.0
 10
168.37
 20
105.6582
 30
0.0
 10
170.8349
 20
107.2104
 30
0.0
 10
175.0557
 20
107.9717
 30
0.0
 10
175.0557
 20
107.9717
 30
0.0
 10
176.8453
 20
104.1436
 30
0.0
 10
180.2596
 20
100.5427
 30
0.0
 10
187.1609
 20
98.5734
 30
0.0
 10
187.1609
 20
98.5734
 30
0.0
 10
187.1609
 20
92.6561
 30
0.0
 10
187.1609
 20
86.7389
 30
0.0
 10
187.1609
 20
80.8215
 30
0.0
 10
187.1609
 20
80.8215
 30
0.0
 10
184.5854
 20
79.7098
 30
0.0
 10
182.6199
 20
77.9884
 30
0.0
 10
180.9731
 20
75.9484
 30
0.0
 10
180.9731
 20
75.9484
 30
0.0
 10
181.5629
 20
81.975
 30
0.0
 10
181.9126
 20
87.9669
 30
0.0
 10
179.2325
 20
93.5263
 30
0.0
 10
179.2325
 20
93.5263
 30
0.0
 10
176.5336
 20
95.7004
 30
0.0
 10
174.3239
 20
98.3639
 30
0.0
 10
172.0968
 20
101.01
 30
0.0
  0
SPLINE
  5
8B
330
1F
100
AcDbEntity
  8
layer 1
 62
     7
100
AcDbSpline
210
0.0
220
0.0
230
1.0
 70
    11
 71
     3
 72
    28
 73
    24
 74
     0
 42
0.0000000001
 43
0.0000000001
 12
1.0
 22
0.0
 32
0.0
 13
1.0
 23
0.0
 33
0.0
 40
0.0
 40
0.0
 40
0.0
 40
0.0
 40
0.1428571428571428
 40
0.1428571428571428
 40
0.1428571428571428
 40
0.1428571428571428
 40
0.2857142857142857
 40
0.2857142857142857
 40
0.2857142857142857
 40
0.2857142857142857
 40
0.4285714285714285
 40
0.4285714285714285
 40
0.4285714285714285
 40
0.4285714285714285
 40
0.5714285714285714
 40
0.5714285714285714
 40
0.5714285714285714
 40
0.5714285714285714
 40
0.7142857142857143
 40
0.7142857142857143
 40
0.7142857142857143
 40
0.7142857142857143
 40
1.0
 40
1.0
 40
1.0
 40
1.0
 10
166.3535
 20
87.4349
 30
0.0
 10
163.0612
 20
91.5645
 30
0.0
 10
158.1198
 20
93.1998
 30
0.0
 10
152.6045
 20
93.7003
 30
0.0
 10
152.6045
 20
93.7003
 30
0.0
 10
154.8086
 20
96.5819
 30
0.0
 10
157.7098
 20
98.5348
 30
0.0
 10
161.3063
 20
100.4879
 30
0.0
 10
161.3063
 20
100.4879
 30
0.0
 10
163.11
 20
96.5458
 30
0.0
 10
167.3343
 20
94.1616
 30
0.0
 10
172.4449
 20
92.134
 30
0.0
 10
172.4449
 20
92.134
 30
0.0
 10
171.188
 20
87.8218
 30
0.0
 10
171.3219
 20
83.1617
 30
0.0
 10
171.9228
 20
78.3849
 30
0.0
 10
171.9228
 20
78.3849
 30
0.0
 10
170.164
 20
81.4505
 30
0.0
 10
166.841
 20
83.7338
 30
0.0
 10
163.2209
 20
85.8687
 30
0.0
 10
163.2209
 20
85.8687
 30
0.0
 10
164.2652
 20
86.3908
 30
0.0
 10
165.3094
 20
86.9128
 30
0.0
 10
166.3535
 20
87.4349
 30
0.0
  0
SPLINE
  5
8C
330
1F
100
AcDbEntity
  8
layer 1
 62
     7
100
AcDbSpline
210
0.0
220
0.0
230
1.0
 70
    11
 71
     3
 72
   128
 73
   124
 74
     0
 42
0.0000000001
 43
0.0000000001
 12
1.0
 22
0.0
 32
0.0
 13
1.0
 23
0.0
 33
0.0
 40
0.0
 40
0.0
 40
0.0
 40
0.0
 40
0.03125
 40
0.03125
 40
0.03125
 40
0.03125
 40
0.0625
 40
0.0625
 40
0.0625
 40
0.0625
 40
0.09375
 40
0.09375
 40
0.09375
 40
0.09375
 40
0.125
 40
0.125
 40
0.125
 40
0.125
 40
0.15625
 40
0.15625
 40
0.15625
 40
0.15625
 40
0.1875
 40
0.1875
 40
0.1875
 40
0.1875
 40
0.21875
 40
0.21875
 40
0.21875
 40
0.21875
 40
0.25
 40
0.25
 40
0.25
 40
0.25
 40
0.28125
 40
0.28125
 40
0.28125
 40
0.28125
 40
0.3125
 40
0.3125
 40
0.3125
 40
0.3125
 40
0.34375
 40
0.34375
 40
0.34375
 40
0.34375
 40
0.375
 40
0.375
 40
0.375
 40
0.375
 40
0.40625
 40
0.40625
 40
0.40625
 40
0.40625
 40
0.4375
 40
0.4375
 40
0.4375
 40
0.4375
 40
0.46875
 40
0.46875
 40
0.46875
 40
0.46875
 40
0.5
 40
0.5
 40
0.5
 40
0.5
 40
0.53125
 40
0.53125
 40
0.53125
 40
0.53125
 40
0.5625
 40
0.5625
 40
0.5625
 40
0.5625
 40
0.59375
 40
0.59375
 40
0.59375
 40
0.59375
 40
0.625
 40
0.625
 40
0.625
 40
0.625
 40
0.65625
 40
0.65625
 40
0.65625
 40
0.65625
 40
0.6875
 40
0.6875
 40
0.6875
 40
0.6875
 40
0.71875
 40
0.71875
 40
0.71875
 40
0.71875
 40
0.75
 40
0.75
 40
0.75
 40
0.75
 40
0.78125
 40
0.78125
 40
0.78125
 40
0.78125
 40
0.8125
 40
0.8125
 40
0.8125
 40
0.8125
 40
0.84375
 40
0.84375
 40
0.84375
 40
0.84375
 40
0.875
 40
0.875
 40
0.875
 40
0.875
 40
0.90625
 40
0.90625
 40
0.90625
 40
0.90625
 40
0.9375
 40
0.9375
 40
0.9375
 40
0.9375
 40
1.0
 40
1.0
 40
1.0
 40
1.0
 10
102.8294
 20
111.6265
 30
0.0
 10
106.668
 20
114.2012
 30
0.0
 10
109.4327
 20
117.6711
 30
0.0
 10
110.487
 20
122.5666
 30
0.0
 10
110.487
 20
122.5666
 30
0.0
 10
129.8634
 20
122.5666
 30
0.0
 10
149.2396
 20
122.5666
 30
0.0
 10
168.616
 20
122.5666
 30
0.0
 10
168.616
 20
122.5666
 30
0.0
 10
167.2357
 20
118.1101
 30
0.0
 10
166.9796
 20
113.8784
 30
0.0
 10
167.92
 20
109.8861
 30
0.0
 10
167.92
 20
109.8861
 30
0.0
 10
164.7874
 20
108.3197
 30
0.0
 10
161.6545
 20
106.7534
 30
0.0
 10
158.5218
 20
105.187
 30
0.0
 10
158.5218
 20
105.187
 30
0.0
 10
160.0561
 20
112.0848
 30
0.0
 10
157.9753
 20
116.5647
 30
0.0
 10
154.867
 20
119.2843
 30
0.0
 10
154.867
 20
119.2843
 30
0.0
 10
151.2578
 20
114.298
 30
0.0
 10
151.0504
 20
108.0848
 30
0.0
 10
153.4747
 20
101.7062
 30
0.0
 10
153.4747
 20
101.7062
 30
0.0
 10
151.5602
 20
100.2559
 30
0.0
 10
149.6458
 20
98.8055
 30
0.0
 10
147.7316
 20
97.3552
 30
0.0
 10
147.7316
 20
97.3552
 30
0.0
 10
147.5926
 20
103.0976
 30
0.0
 10
145.3755
 20
106.4644
 30
0.0
 10
141.988
 20
108.4938
 30
0.0
 10
141.988
 20
108.4938
 30
0.0
 10
138.9915
 20
103.1566
 30
0.0
 10
139.2413
 20
97.8193
 30
0.0
 10
143.2063
 20
92.4821
 30
0.0
 10
143.2063
 20
92.4821
 30
0.0
 10
141.4659
 20
90.4518
 30
0.0
 10
139.7258
 20
88.4213
 30
0.0
 10
137.9851
 20
86.3908
 30
0.0
 10
137.9851
 20
86.3908
 30
0.0
 10
137.2007
 20
92.9611
 30
0.0
 10
134.6526
 20
96.3574
 30
0.0
 10
131.5456
 20
98.7475
 30
0.0
 10
131.5456
 20
98.7475
 30
0.0
 10
128.6281
 20
93.1973
 30
0.0
 10
128.6617
 20
87.3
 30
0.0
 10
133.6343
 20
80.8215
 30
0.0
 10
133.6343
 20
80.8215
 30
0.0
 10
131.7778
 20
78.7911
 30
0.0
 10
129.9214
 20
76.7606
 30
0.0
 10
128.065
 20
74.7301
 30
0.0
 10
128.065
 20
74.7301
 30
0.0
 10
126.2288
 20
80.3148
 30
0.0
 10
123.2896
 20
82.9577
 30
0.0
 10
120.0591
 20
84.8243
 30
0.0
 10
120.0591
 20
84.8243
 30
0.0
 10
117.6235
 20
80.1557
 30
0.0
 10
118.2595
 20
74.5835
 30
0.0
 10
123.714
 20
67.5945
 30
0.0
 10
123.714
 20
67.5945
 30
0.0
 10
122.6697
 20
65.7961
 30
0.0
 10
121.6255
 20
63.9976
 30
0.0
 10
120.5812
 20
62.1992
 30
0.0
 10
120.5812
 20
62.1992
 30
0.0
 10
116.9844
 20
67.0824
 30
0.0
 10
113.3877
 20
69.441
 30
0.0
 10
109.7907
 20
69.683
 30
0.0
 10
109.7907
 20
69.683
 30
0.0
 10
110.3917
 20
64.0428
 30
0.0
 10
111.0972
 20
58.4263
 30
0.0
 10
117.7966
 20
54.1934
 30
0.0
 10
117.7966
 20
54.1934
 30
0.0
 10
116.5148
 20
51.9889
 30
0.0
 10
115.6534
 20
49.7843
 30
0.0
 10
114.8379
 20
47.58
 30
0.0
 10
114.8379
 20
47.58
 30
0.0
 10
112.8867
 20
51.23
 30
0.0
 10
110.0659
 20
52.7056
 30
0.0
 10
107.1802
 20
54.0195
 30
0.0
 10
107.1802
 20
54.0195
 30
0.0
 10
106.5574
 20
47.6154
 30
0.0
 10
107.2121
 20
41.3935
 30
0.0
 10
113.0976
 20
35.9193
 30
0.0
 10
113.0976
 20
35.9193
 30
0.0
 10
108.9205
 20
34.991
 30
0.0
 10
106.3102
 20
36.0353
 30
0.0
 10
104.9176
 20
38.3559
 30
0.0
 10
104.9176
 20
38.3559
 30
0.0
 10
101.6689
 20
43.5771
 30
0.0
 10
97.5502
 20
48.6241
 30
0.0
 10
94.3013
 20
53.8453
 30
0.0
 10
94.3013
 20
53.8453
 30
0.0
 10
94.4256
 20
64.1053
 30
0.0
 10
94.0664
 20
74.3917
 30
0.0
 10
88.9062
 20
83.4321
 30
0.0
 10
88.9062
 20
83.4321
 30
0.0
 10
93.0338
 20
85.6239
 30
0.0
 10
95.1629
 20
90.0001
 30
0.0
 10
96.0417
 20
96.8331
 30
0.0
 10
96.0417
 20
96.8331
 30
0.0
 10
97.1943
 20
92.3648
 30
0.0
 10
98.7077
 20
87.9566
 30
0.0
 10
102.6553
 20
83.9541
 30
0.0
 10
102.6553
 20
83.9541
 30
0.0
 10
107.6511
 20
80.6122
 30
0.0
 10
109.7845
 20
82.4225
 30
0.0
 10
110.1388
 20
87.4349
 30
0.0
 10
110.1388
 20
87.4349
 30
0.0
 10
109.9875
 20
92.4375
 30
0.0
 10
107.1794
 20
96.9974
 30
0.0
 10
104.2215
 20
101.5322
 30
0.0
 10
104.2215
 20
101.5322
 30
0.0
 10
107.9207
 20
99.7868
 30
0.0
 10
112.0479
 20
98.3381
 30
0.0
 10
116.5783
 20
99.4437
 30
0.0
 10
116.5783
 20
99.4437
 30
0.0
 10
122.068
 20
100.7834
 30
0.0
 10
122.9626
 20
104.8718
 30
0.0
 10
118.6669
 20
109.1899
 30
0.0
 10
118.6669
 20
109.1899
 30
0.0
 10
115.056
 20
112.8195
 30
0.0
 10
108.7928
 20
112.0615
 30
0.0
 10
102.8294
 20
111.6265
 30
0.0
  0
SPLINE
  5
8D
330
1F
100
AcDbEntity
  8
layer 1
 62
     7
100
AcDbSpline
210
0.0
220
0.0
230
1.0
 70
    11
 71
     3
 72
    16
 73
    12
 74
     0
 42
0.0000000001
 43
0.0000000001
 12
1.0
 22
0.0
 32
0.0
 13
1.0
 23
0.0
 33
0.0
 40
0.0
 40
0.0
 40
0.0
 40
0.0
 40
0.25
 40
0.25
 40
0.25
 40
0.25
 40
0.5
 40
0.5
 40
0.5
 40
0.5
 40
1.0
 40
1.0
 40
1.0
 40
1.0
 10
94.1273
 20
115.9775
 30
0.0
 10
92.9983
 20
118.1738
 30
0.0
 10
91.7174
 20
120.3701
 30
0.0
 10
90.1245
 20
122.5666
 30
0.0
 10
90.1245
 20
122.5666
 30
0.0
 10
92.561
 20
122.5666
 30
0.0
 10
94.9975
 20
122.5666
 30
0.0
 10
97.4341
 20
122.5666
 30
0.0
 10
97.4341
 20
122.5666
 30
0.0
 10
95.843
 20
120.7015
 30
0.0
 10
95.103
 20
118.2081
 30
0.0
 10
94.1273
 20
115.9775
 30
0.0
  0
SPLINE
  5
8E
330
1F
100
AcDbEntity
  8
layer 1
 62
     7
100
AcDbSpline
210
0.0
220
0.0
230
1.0
 70
    11
 71
     3
 72
    20
 73
    16
 74
     0
 42
0.0000000001
 43
0.0000000001
 12
1.0
 22
0.0
 32
0.0
 13
1.0
 23
0.0
 33
0.0
 40
0.0
 40
0.0
 40
0.0
 40
0.0
 40
0.2
 40
0.2
 40
0.2
 40
0.2
 40
0.4
 40
0.4
 40
0.4
 40
0.4
 40
0.6
 40
0.6
 40
0.6
 40
0.6
 40
1.0
 40
1.0
 40
1.0
 40
1.0
 10
95.8675
 20
109.3639
 30
0.0
 10
95.0026
 20
109.3639
 30
0.0
 10
94.3014
 20
108.6626
 30
0.0
 10
94.3014
 20
107.7976
 30
0.0
 10
94.3014
 20
107.7976
 30
0.0
 10
94.3013
 20
106.9325
 30
0.0
 10
95.0026
 20
106.2313
 30
0.0
 10
95.8675
 20
106.2313
 30
0.0
 10
95.8675
 20
106.2313
 30
0.0
 10
96.7326
 20
106.2313
 30
0.0
 10
97.4338
 20
106.9325
 30
0.0
 10
97.4338
 20
107.7976
 30
0.0
 10
97.4338
 20
107.7976
 30
0.0
 10
97.4339
 20
108.6626
 30
0.0
 10
96.7326
 20
109.3639
 30
0.0
 10
95.8675
 20
109.3639
 30
0.0
  0
SPLINE
  5
8F
330
1F
100
AcDbEntity
  8
layer 1
 62
     7
100
AcDbSpline
210
0.0
220
0.0
230
1.0
 70
    27
 71
     3
 72
    12
 73
     8
 74
     0
 42
0.0000000001
 43
0.0000000001
 12
1.0
 22
0.0
 32
0.0
 13
1.0
 23
0.0
 33
0.0
 40
0.0
 40
0.0
 40
0.0
 40
0.0
 40
0.3333333333333333
 40
0.3333333333333333
 40
0.3333333333333333
 40
0.3333333333333333
 40
1.0
 40
1.0
 40
1.0
 40
1.0
 10
95.8675
 20
109.3639
 30
0.0
 10
95.8675
 20
109.3639
 30
0.0
 10
95.8675
 20
109.3635
 30
0.0
 10
95.8675
 20
109.3635
 30
0.0
 10
95.8675
 20
109.3635
 30
0.0
 10
95.8675
 20
109.3635
 30
0.0
 10
95.8675
 20
109.3639
 30
0.0
 10
95.8675
 20
109.3639
 30
0.0
  0
SPLINE
  5
90
330
1F
100
AcDbEntity
  8
layer 1
 62
     7
100
AcDbSpline
210
0.0
220
0.0
230
1.0
 70
    27
 71
     3
 72
    12
 73
     8
 74
     0
 42
0.0000000001
 43
0.0000000001
 12
1.0
 22
0.0
 32
0.0
 13
1.0
 23
0.0
 33
0.0
 40
0.0
 40
0.0
 40
0.0
 40
0.0
 40
0.3333333333333333
 40
0.3333333333333333
 40
0.3333333333333333
 40
0.3333333333333333
 40
1.0
 40
1.0
 40
1.0
 40
1.0
 10
94.3014
 20
107.7976
 30
0.0
 10
94.3014
 20
107.7976
 30
0.0
 10
94.3014
 20
107.7972
 30
0.0
 10
94.3014
 20
107.7972
 30
0.0
 10
94.3014
 20
107.7972
 30
0.0
 10
94.3014
 20
107.7972
 30
0.0
 10
94.3014
 20
107.7976
 30
0.0
 10
94.3014
 20
107.7976
 30
0.0
  0
SPLINE
  5
91
330
1F
100
AcDbEntity
  8
layer 1
 62
     7
100
AcDbSpline
210
0.0
220
0.0
230
1.0
 70
    27
 71
     3
 72
    12
 73
     8
 74
     0
 42
0.0000000001
 43
0.0000000001
 12
1.0
 22
0.0
 32
0.0
 13
1.0
 23
0.0
 33
0.0
 40
0.0
 40
0.0
 40
0.0
 40
0.0
 40
0.3333333333333333
 40
0.3333333333333333
 40
0.3333333333333333
 40
0.3333333333333333
 40
1.0
 40
1.0
 40
1.0
 40
1.0
 10
95.8675
 20
106.2313
 30
0.0
 10
95.8675
 20
106.2313
 30
0.0
 10
95.8675
 20
106.2309
 30
0.0
 10
95.8675
 20
106.2309
 30
0.0
 10
95.8675
 20
106.2309
 30
0.0
 10
95.8675
 20
106.2309
 30
0.0
 10
95.8675
 20
106.2313
 30
0.0
 10
95.8675
 20
106.2313
 30
0.0
  0
SPLINE
  5
92
330
1F
100
AcDbEntity
  8
layer 1
 62
     7
100
AcDbSpline
210
0.0
220
0.0
230
1.0
 70
    27
 71
     3
 72
    12
 73
     8
 74
     0
 42
0.0000000001
 43
0.0000000001
 12
1.0
 22
0.0
 32
0.0
 13
1.0
 23
0.0
 33
0.0
 40
0.0
 40
0.0
 40
0.0
 40
0.0
 40
0.3333333333333333
 40
0.3333333333333333
 40
0.3333333333333333
 40
0.3333333333333333
 40
1.0
 40
1.0
 40
1.0
 40
1.0
 10
97.4338
 20
107.7976
 30
0.0
 10
97.4338
 20
107.7976
 30
0.0
 10
97.4338
 20
107.7972
 30
0.0
 10
97.4338
 20
107.7972
 30
0.0
 10
97.4338
 20
107.7972
 30
0.0
 10
97.4338
 20
107.7972
 30
0.0
 10
97.4338
 20
107.7976
 30
0.0
 10
97.4338
 20
107.7976
 30
0.0
  0
SPLINE
  5
93
330
1F
100
AcDbEntity
  8
layer 1
 62
     7
100
AcDbSpline
210
0.0
220
0.0
230
1.0
 70
    27
 71
     3
 72
    12
 73
     8
 74
     0
 42
0.0000000001
 43
0.0000000001
 12
1.0
 22
0.0
 32
0.0
 13
1.0
 23
0.0
 33
0.0
 40
0.0
 40
0.0
 40
0.0
 40
0.0
 40
0.3333333333333333
 40
0.3333333333333333
 40
0.3333333333333333
 40
0.3333333333333333
 40
1.0
 40
1.0
 40
1.0
 40
1.0
 10
95.8675
 20
109.3639
 30
0.0
 10
95.8675
 20
109.3639
 30
0.0
 10
95.8675
 20
109.3635
 30
0.0
 10
95.8675
 20
109.3635
 30
0.0
 10
95.8675
 20
109.3635
 30
0.0
 10
95.8675
 20
109.3635
 30
0.0
 10
95.8675
 20
109.3639
 30
0.0
 10
95.8675
 20
109.3639
 30
0.0
  0
SPLINE
  5
94
330
1F
100
AcDbEntity
  8
layer 1
 62
     7
100
AcDbSpline
210
0.0
220
0.0
230
1.0
 70
    11
 71
     3
 72
    20
 73
    16
 74
     0
 42
0.0000000001
 43
0.0000000001
 12
1.0
 22
0.0
 32
0.0
 13
1.0
 23
0.0
 33
0.0
 40
0.0
 40
0.0
 40
0.0
 40
0.0
 40
0.2
 40
0.2
 40
0.2
 40
0.2
 40
0.4
 40
0.4
 40
0.4
 40
0.4
 40
0.6
 40
0.6
 40
0.6
 40
0.6
 40
1.0
 40
1.0
 40
1.0
 40
1.0
 10
95.8675
 20
109.3639
 30
0.0
 10
95.0026
 20
109.3639
 30
0.0
 10
94.3014
 20
108.6626
 30
0.0
 10
94.3014
 20
107.7976
 30
0.0
 10
94.3014
 20
107.7976
 30
0.0
 10
94.3013
 20
106.9325
 30
0.0
 10
95.0026
 20
106.2313
 30
0.0
 10
95.8675
 20
106.2313
 30
0.0
 10
95.8675
 20
106.2313
 30
0.0
 10
96.7326
 20
106.2313
 30
0.0
 10
97.4338
 20
106.9325
 30
0.0
 10
97.4338
 20
107.7976
 30
0.0
 10
97.4338
 20
107.7976
 30
0.0
 10
97.4339
 20
108.6626
 30
0.0
 10
96.7326
 20
109.3639
 30
0.0
 10
95.8675
 20
109.3639
 30
0.0
  0
SPLINE
  5
95
330
1F
100
AcDbEntity
  8
layer 1
 62
     7
100
AcDbSpline
210
0.0
220
0.0
230
1.0
 70
    11
 71
     3
 72
    20
 73
    16
 74
     0
 42
0.0000000001
 43
0.0000000001
 12
1.0
 22
0.0
 32
0.0
 13
1.0
 23
0.0
 33
0.0
 40
0.0
 40
0.0
 40
0.0
 40
0.0
 40
0.2
 40
0.2
 40
0.2
 40
0.2
 40
0.4
 40
0.4
 40
0.4
 40
0.4
 40
0.6
 40
0.6
 40
0.6
 40
0.6
 40
1.0
 40
1.0
 40
1.0
 40
1.0
 10
95.8675
 20
109.3639
 30
0.0
 10
95.0026
 20
109.3639
 30
0.0
 10
94.3014
 20
108.6626
 30
0.0
 10
94.3014
 20
107.7976
 30
0.0
 10
94.3014
 20
107.7976
 30
0.0
 10
94.3013
 20
106.9325
 30
0.0
 10
95.0026
 20
106.2313
 30
0.0
 10
95.8675
 20
106.2313
 30
0.0
 10
95.8675
 20
106.2313
 30
0.0
 10
96.7326
 20
106.2313
 30
0.0
 10
97.4338
 20
106.9325
 30
0.0
 10
97.4338
 20
107.7976
 30
0.0
 10
97.4338
 20
107.7976
 30
0.0
 10
97.4339
 20
108.6626
 30
0.0
 10
96.7326
 20
109.3639
 30
0.0
 10
95.8675
 20
109.3639
 30
0.0
  0
SPLINE
  5
96
330
1F
100
AcDbEntity
  8
layer 1
 62
     7
100
AcDbSpline
210
0.0
220
0.0
230
1.0
 70
    11
 71
     3
 72
    20
 73
    16
 74
     0
 42
0.0000000001
 43
0.0000000001
 12
1.0
 22
0.0
 32
0.0
 13
1.0
 23
0.0
 33
0.0
 40
0.0
 40
0.0
 40
0.0
 40
0.0
 40
0.2
 40
0.2
 40
0.2
 40
0.2
 40
0.4
 40
0.4
 40
0.4
 40
0.4
 40
0.6
 40
0.6
 40
0.6
 40
0.6
 40
1.0
 40
1.0
 40
1.0
 40
1.0
 10
95.8675
 20
109.3639
 30
0.0
 10
95.0026
 20
109.3639
 30
0.0
 10
94.3014
 20
108.6625
 30
0.0
 10
94.3014
 20
107.7976
 30
0.0
 10
94.3014
 20
107.7976
 30
0.0
 10
94.3013
 20
106.9325
 30
0.0
 10
95.0026
 20
106.2313
 30
0.0
 10
95.8675
 20
106.2313
 30
0.0
 10
95.8675
 20
106.2313
 30
0.0
 10
96.7326
 20
106.2313
 30
0.0
 10
97.4338
 20
106.9325
 30
0.0
 10
97.4338
 20
107.7976
 30
0.0
 10
97.4338
 20
107.7976
 30
0.0
 10
97.4339
 20
108.6625
 30
0.0
 10
96.7326
 20
109.3639
 30
0.0
 10
95.8675
 20
109.3639
 30
0.0
  0
SPLINE
  5
97
330
1F
100
AcDbEntity
  8
layer 1
 62
     7
100
AcDbSpline
210
0.0
220
0.0
230
1.0
 70
    11
 71
     3
 72
    20
 73
    16
 74
     0
 42
0.0000000001
 43
0.0000000001
 12
1.0
 22
0.0
 32
0.0
 13
1.0
 23
0.0
 33
0.0
 40
0.0
 40
0.0
 40
0.0
 40
0.0
 40
0.2
 40
0.2
 40
0.2
 40
0.2
 40
0.4
 40
0.4
 40
0.4
 40
0.4
 40
0.6
 40
0.6
 40
0.6
 40
0.6
 40
1.0
 40
1.0
 40
1.0
 40
1.0
 10
95.8675
 20
109.3637
 30
0.0
 10
95.0026
 20
109.3637
 30
0.0
 10
94.3014
 20
108.6625
 30
0.0
 10
94.3014
 20
107.7975
 30
0.0
 10
94.3014
 20
107.7975
 30
0.0
 10
94.3013
 20
106.9325
 30
0.0
 10
95.0026
 20
106.2312
 30
0.0
 10
95.8675
 20
106.2312
 30
0.0
 10
95.8675
 20
106.2312
 30
0.0
 10
96.7326
 20
106.2312
 30
0.0
 10
97.4338
 20
106.9325
 30
0.0
 10
97.4338
 20
107.7975
 30
0.0
 10
97.4338
 20
107.7975
 30
0.0
 10
97.4339
 20
108.6625
 30
0.0
 10
96.7326
 20
109.3637
 30
0.0
 10
95.8675
 20
109.3637
 30
0.0
  0
SPLINE
  5
98
330
1F
100
AcDbEntity
  8
layer 1
 62
     7
100
AcDbSpline
210
0.0
220
0.0
230
1.0
 70
    11
 71
     3
 72
    20
 73
    16
 74
     0
 42
0.0000000001
 43
0.0000000001
 12
1.0
 22
0.0
 32
0.0
 13
1.0
 23
0.0
 33
0.0
 40
0.0
 40
0.0
 40
0.0
 40
0.0
 40
0.2
 40
0.2
 40
0.2
 40
0.2
 40
0.4
 40
0.4
 40
0.4
 40
0.4
 40
0.6
 40
0.6
 40
0.6
 40
0.6
 40
1.0
 40
1.0
 40
1.0
 40
1.0
 10
95.8675
 20
109.3637
 30
0.0
 10
95.0026
 20
109.3637
 30
0.0
 10
94.3014
 20
108.6625
 30
0.0
 10
94.3014
 20
107.7975
 30
0.0
 10
94.3014
 20
107.7975
 30
0.0
 10
94.3013
 20
106.9325
 30
0.0
 10
95.0026
 20
106.2312
 30
0.0
 10
95.8675
 20
106.2312
 30
0.0
 10
95.8675
 20
106.2312
 30
0.0
 10
96.7326
 20
106.2312
 30
0.0
 10
97.4338
 20
106.9324
 30
0.0
 10
97.4338
 20
107.7975
 30
0.0
 10
97.4338
 20
107.7975
 30
0.0
 10
97.4339
 20
108.6625
 30
0.0
 10
96.7326
 20
109.3637
 30
0.0
 10
95.8675
 20
109.3637
 30
0.0
  0
SPLINE
  5
99
330
1F
100
AcDbEntity
  8
layer 1
 62
     7
100
AcDbSpline
210
0.0
220
0.0
230
1.0
 70
    11
 71
     3
 72
    20
 73
    16
 74
     0
 42
0.0000000001
 43
0.0000000001
 12
1.0
 22
0.0
 32
0.0
 13
1.0
 23
0.0
 33
0.0
 40
0.0
 40
0.0
 40
0.0
 40
0.0
 40
0.2
 40
0.2
 40
0.2
 40
0.2
 40
0.4
 40
0.4
 40
0.4
 40
0.4
 40
0.6
 40
0.6
 40
0.6
 40
0.6
 40
1.0
 40
1.0
 40
1.0
 40
1.0
 10
95.8675
 20
109.3637
 30
0.0
 10
95.0026
 20
109.3637
 30
0.0
 10
94.3014
 20
108.6625
 30
0.0
 10
94.3014
 20
107.7975
 30
0.0
 10
94.3014
 20
107.7975
 30
0.0
 10
94.3013
 20
106.9324
 30
0.0
 10
95.0026
 20
106.2312
 30
0.0
 10
95.8675
 20
106.2312
 30
0.0
 10
95.8675
 20
106.2312
 30
0.0
 10
96.7326
 20
106.2312
 30
0.0
 10
97.4338
 20
106.9324
 30
0.0
 10
97.4338
 20
107.7975
 30
0.0
 10
97.4338
 20
107.7975
 30
0.0
 10
97.4339
 20
108.6625
 30
0.0
 10
96.7326
 20
109.3637
 30
0.0
 10
95.8675
 20
109.3637
 30
0.0
  0
SPLINE
  5
9A
330
1F
100
AcDbEntity
  8
layer 1
 62
     7
100
AcDbSpline
210
0.0
220
0.0
230
1.0
 70
    11
 71
     3
 72
    20
 73
    16
 74
     0
 42
0.0000000001
 43
0.0000000001
 12
1.0
 22
0.0
 32
0.0
 13
1.0
 23
0.0
 33
0.0
 40
0.0
 40
0.0
 40
0.0
 40
0.0
 40
0.2
 40
0.2
 40
0.2
 40
0.2
 40
0.4
 40
0.4
 40
0.4
 40
0.4
 40
0.6
 40
0.6
 40
0.6
 40
0.6
 40
1.0
 40
1.0
 40
1.0
 40
1.0
 10
95.8675
 20
109.3637
 30
0.0
 10
95.0026
 20
109.3637
 30
0.0
 10
94.3014
 20
108.6625
 30
0.0
 10
94.3014
 20
107.7975
 30
0.0
 10
94.3014
 20
107.7975
 30
0.0
 10
94.3013
 20
106.9324
 30
0.0
 10
95.0026
 20
106.2312
 30
0.0
 10
95.8675
 20
106.2312
 30
0.0
 10
95.8675
 20
106.2312
 30
0.0
 10
96.7326
 20
106.2312
 30
0.0
 10
97.4338
 20
106.9324
 30
0.0
 10
97.4338
 20
107.7975
 30
0.0
 10
97.4338
 20
107.7975
 30
0.0
 10
97.4339
 20
108.6625
 30
0.0
 10
96.7326
 20
109.3637
 30
0.0
 10
95.8675
 20
109.3637
 30
0.0
  0
SPLINE
  5
9B
330
1F
100
AcDbEntity
  8
layer 1
 62
     7
100
AcDbSpline
210
0.0
220
0.0
230
1.0
 70
    11
 71
     3
 72
    20
 73
    16
 74
     0
 42
0.0000000001
 43
0.0000000001
 12
1.0
 22
0.0
 32
0.0
 13
1.0
 23
0.0
 33
0.0
 40
0.0
 40
0.0
 40
0.0
 40
0.0
 40
0.2
 40
0.2
 40
0.2
 40
0.2
 40
0.4
 40
0.4
 40
0.4
 40
0.4
 40
0.6
 40
0.6
 40
0.6
 40
0.6
 40
1.0
 40
1.0
 40
1.0
 40
1.0
 10
95.8675
 20
109.3637
 30
0.0
 10
95.0026
 20
109.3637
 30
0.0
 10
94.3014
 20
108.6625
 30
0.0
 10
94.3014
 20
107.7975
 30
0.0
 10
94.3014
 20
107.7975
 30
0.0
 10
94.3013
 20
106.9324
 30
0.0
 10
95.0026
 20
106.2312
 30
0.0
 10
95.8675
 20
106.2312
 30
0.0
 10
95.8675
 20
106.2312
 30
0.0
 10
96.7326
 20
106.2312
 30
0.0
 10
97.4338
 20
106.9324
 30
0.0
 10
97.4338
 20
107.7975
 30
0.0
 10
97.4338
 20
107.7975
 30
0.0
 10
97.4339
 20
108.6625
 30
0.0
 10
96.7326
 20
109.3637
 30
0.0
 10
95.8675
 20
109.3637
 30
0.0
  0
SPLINE
  5
9C
330
1F
100
AcDbEntity
  8
layer 1
 62
     7
100
AcDbSpline
210
0.0
220
0.0
230
1.0
 70
    11
 71
     3
 72
    20
 73
    16
 74
     0
 42
0.0000000001
 43
0.0000000001
 12
1.0
 22
0.0
 32
0.0
 13
1.0
 23
0.0
 33
0.0
 40
0.0
 40
0.0
 40
0.0
 40
0.0
 40
0.2
 40
0.2
 40
0.2
 40
0.2
 40
0.4
 40
0.4
 40
0.4
 40
0.4
 40
0.6
 40
0.6
 40
0.6
 40
0.6
 40
1.0
 40
1.0
 40
1.0
 40
1.0
 10
95.8675
 20
109.3637
 30
0.0
 10
95.0026
 20
109.3637
 30
0.0
 10
94.3014
 20
108.6625
 30
0.0
 10
94.3014
 20
107.7975
 30
0.0
 10
94.3014
 20
107.7975
 30
0.0
 10
94.3013
 20
106.9324
 30
0.0
 10
95.0026
 20
106.2312
 30
0.0
 10
95.8675
 20
106.2312
 30
0.0
 10
95.8675
 20
106.2312
 30
0.0
 10
96.7326
 20
106.2312
 30
0.0
 10
97.4338
 20
106.9324
 30
0.0
 10
97.4338
 20
107.7975
 30
0.0
 10
97.4338
 20
107.7975
 30
0.0
 10
97.4339
 20
108.6625
 30
0.0
 10
96.7326
 20
109.3637
 30
0.0
 10
95.8675
 20
109.3637
 30
0.0
  0
SPLINE
  5
9D
330
1F
100
AcDbEntity
  8
layer 1
 62
     7
100
AcDbSpline
210
0.0
220
0.0
230
1.0
 70
    11
 71
     3
 72
    20
 73
    16
 74
     0
 42
0.0000000001
 43
0.0000000001
 12
1.0
 22
0.0
 32
0.0
 13
1.0
 23
0.0
 33
0.0
 40
0.0
 40
0.0
 40
0.0
 40
0.0
 40
0.2
 40
0.2
 40
0.2
 40
0.2
 40
0.4
 40
0.4
 40
0.4
 40
0.4
 40
0.6
 40
0.6
 40
0.6
 40
0.6
 40
1.0
 40
1.0
 40
1.0
 40
1.0
 10
95.8675
 20
109.3637
 30
0.0
 10
95.0026
 20
109.3637
 30
0.0
 10
94.3014
 20
108.6624
 30
0.0
 10
94.3014
 20
107.7975
 30
0.0
 10
94.3014
 20
107.7975
 30
0.0
 10
94.3013
 20
106.9324
 30
0.0
 10
95.0026
 20
106.2312
 30
0.0
 10
95.8675
 20
106.2312
 30
0.0
 10
95.8675
 20
106.2312
 30
0.0
 10
96.7326
 20
106.2312
 30
0.0
 10
97.4338
 20
106.9324
 30
0.0
 10
97.4338
 20
107.7975
 30
0.0
 10
97.4338
 20
107.7975
 30
0.0
 10
97.4339
 20
108.6624
 30
0.0
 10
96.7326
 20
109.3637
 30
0.0
 10
95.8675
 20
109.3637
 30
0.0
  0
SPLINE
  5
9E
330
1F
100
AcDbEntity
  8
layer 1
 62
     7
100
AcDbSpline
210
0.0
220
0.0
230
1.0
 70
    11
 71
     3
 72
    20
 73
    16
 74
     0
 42
0.0000000001
 43
0.0000000001
 12
1.0
 22
0.0
 32
0.0
 13
1.0
 23
0.0
 33
0.0
 40
0.0
 40
0.0
 40
0.0
 40
0.0
 40
0.2
 40
0.2
 40
0.2
 40
0.2
 40
0.4
 40
0.4
 40
0.4
 40
0.4
 40
0.6
 40
0.6
 40
0.6
 40
0.6
 40
1.0
 40
1.0
 40
1.0
 40
1.0
 10
95.8675
 20
109.3637
 30
0.0
 10
95.0026
 20
109.3637
 30
0.0
 10
94.3014
 20
108.6624
 30
0.0
 10
94.3014
 20
107.7975
 30
0.0
 10
94.3014
 20
107.7975
 30
0.0
 10
94.3013
 20
106.9324
 30
0.0
 10
95.0026
 20
106.2312
 30
0.0
 10
95.8675
 20
106.2312
 30
0.0
 10
95.8675
 20
106.2312
 30
0.0
 10
96.7326
 20
106.2312
 30
0.0
 10
97.4338
 20
106.9324
 30
0.0
 10
97.4338
 20
107.7973
 30
0.0
 10
97.4338
 20
107.7973
 30
0.0
 10
97.4339
 20
108.6624
 30
0.0
 10
96.7326
 20
109.3637
 30
0.0
 10
95.8675
 20
109.3637
 30
0.0
  0
SPLINE
  5
9F
330
1F
100
AcDbEntity
  8
layer 1
 62
     7
100
AcDbSpline
210
0.0
220
0.0
230
1.0
 70
    11
 71
     3
 72
    20
 73
    16
 74
     0
 42
0.0000000001
 43
0.0000000001
 12
1.0
 22
0.0
 32
0.0
 13
1.0
 23
0.0
 33
0.0
 40
0.0
 40
0.0
 40
0.0
 40
0.0
 40
0.2
 40
0.2
 40
0.2
 40
0.2
 40
0.4
 40
0.4
 40
0.4
 40
0.4
 40
0.6
 40
0.6
 40
0.6
 40
0.6
 40
1.0
 40
1.0
 40
1.0
 40
1.0
 10
95.8675
 20
109.3636
 30
0.0
 10
95.0026
 20
109.3636
 30
0.0
 10
94.3014
 20
108.6624
 30
0.0
 10
94.3014
 20
107.7973
 30
0.0
 10
94.3014
 20
107.7973
 30
0.0
 10
94.3013
 20
106.9324
 30
0.0
 10
95.0026
 20
106.2311
 30
0.0
 10
95.8675
 20
106.2311
 30
0.0
 10
95.8675
 20
106.2311
 30
0.0
 10
96.7326
 20
106.2311
 30
0.0
 10
97.4338
 20
106.9324
 30
0.0
 10
97.4338
 20
107.7973
 30
0.0
 10
97.4338
 20
107.7973
 30
0.0
 10
97.4339
 20
108.6624
 30
0.0
 10
96.7326
 20
109.3636
 30
0.0
 10
95.8675
 20
109.3636
 30
0.0
  0
SPLINE
  5
A0
330
1F
100
AcDbEntity
  8
layer 1
 62
     7
100
AcDbSpline
210
0.0
220
0.0
230
1.0
 70
    11
 71
     3
 72
    20
 73
    16
 74
     0
 42
0.0000000001
 43
0.0000000001
 12
1.0
 22
0.0
 32
0.0
 13
1.0
 23
0.0
 33
0.0
 40
0.0
 40
0.0
 40
0.0
 40
0.0
 40
0.2
 40
0.2
 40
0.2
 40
0.2
 40
0.4
 40
0.4
 40
0.4
 40
0.4
 40
0.6
 40
0.6
 40
0.6
 40
0.6
 40
1.0
 40
1.0
 40
1.0
 40
1.0
 10
95.8675
 20
109.3636
 30
0.0
 10
95.0026
 20
109.3636
 30
0.0
 10
94.3014
 20
108.6624
 30
0.0
 10
94.3014
 20
107.7973
 30
0.0
 10
94.3014
 20
107.7973
 30
0.0
 10
94.3013
 20
106.9323
 30
0.0
 10
95.0026
 20
106.2311
 30
0.0
 10
95.8675
 20
106.2311
 30
0.0
 10
95.8675
 20
106.2311
 30
0.0
 10
96.7326
 20
106.2311
 30
0.0
 10
97.4338
 20
106.9323
 30
0.0
 10
97.4338
 20
107.7973
 30
0.0
 10
97.4338
 20
107.7973
 30
0.0
 10
97.4339
 20
108.6624
 30
0.0
 10
96.7326
 20
109.3636
 30
0.0
 10
95.8675
 20
109.3636
 30
0.0
  0
SPLINE
  5
A1
330
1F
100
AcDbEntity
  8
layer 1
 62
     7
100
AcDbSpline
210
0.0
220
0.0
230
1.0
 70
    11
 71
     3
 72
    20
 73
    16
 74
     0
 42
0.0000000001
 43
0.0000000001
 12
1.0
 22
0.0
 32
0.0
 13
1.0
 23
0.0
 33
0.0
 40
0.0
 40
0.0
 40
0.0
 40
0.0
 40
0.2
 40
0.2
 40
0.2
 40
0.2
 40
0.4
 40
0.4
 40
0.4
 40
0.4
 40
0.6
 40
0.6
 40
0.6
 40
0.6
 40
1.0
 40
1.0
 40
1.0
 40
1.0
 10
95.8675
 20
109.3636
 30
0.0
 10
95.0026
 20
109.3636
 30
0.0
 10
94.3014
 20
108.6624
 30
0.0
 10
94.3014
 20
107.7973
 30
0.0
 10
94.3014
 20
107.7973
 30
0.0
 10
94.3013
 20
106.9323
 30
0.0
 10
95.0026
 20
106.2311
 30
0.0
 10
95.8675
 20
106.2311
 30
0.0
 10
95.8675
 20
106.2311
 30
0.0
 10
96.7326
 20
106.2311
 30
0.0
 10
97.4338
 20
106.9323
 30
0.0
 10
97.4338
 20
107.7973
 30
0.0
 10
97.4338
 20
107.7973
 30
0.0
 10
97.4339
 20
108.6624
 30
0.0
 10
96.7326
 20
109.3636
 30
0.0
 10
95.8675
 20
109.3636
 30
0.0
  0
SPLINE
  5
A2
330
1F
100
AcDbEntity
  8
layer 1
 62
     7
100
AcDbSpline
210
0.0
220
0.0
230
1.0
 70
    11
 71
     3
 72
    20
 73
    16
 74
     0
 42
0.0000000001
 43
0.0000000001
 12
1.0
 22
0.0
 32
0.0
 13
1.0
 23
0.0
 33
0.0
 40
0.0
 40
0.0
 40
0.0
 40
0.0
 40
0.2
 40
0.2
 40
0.2
 40
0.2
 40
0.4
 40
0.4
 40
0.4
 40
0.4
 40
0.6
 40
0.6
 40
0.6
 40
0.6
 40
1.0
 40
1.0
 40
1.0
 40
1.0
 10
95.8675
 20
109.3636
 30
0.0
 10
95.0026
 20
109.3636
 30
0.0
 10
94.3014
 20
108.6624
 30
0.0
 10
94.3014
 20
107.7973
 30
0.0
 10
94.3014
 20
107.7973
 30
0.0
 10
94.3013
 20
106.9323
 30
0.0
 10
95.0026
 20
106.2311
 30
0.0
 10
95.8675
 20
106.2311
 30
0.0
 10
95.8675
 20
106.2311
 30
0.0
 10
96.7326
 20
106.2311
 30
0.0
 10
97.4338
 20
106.9323
 30
0.0
 10
97.4338
 20
107.7973
 30
0.0
 10
97.4338
 20
107.7973
 30
0.0
 10
97.4339
 20
108.6624
 30
0.0
 10
96.7326
 20
109.3636
 30
0.0
 10
95.8675
 20
109.3636
 30
0.0
  0
SPLINE
  5
A3
330
1F
100
AcDbEntity
  8
layer 1
 62
     7
100
AcDbSpline
210
0.0
220
0.0
230
1.0
 70
    11
 71
     3
 72
    20
 73
    16
 74
     0
 42
0.0000000001
 43
0.0000000001
 12
1.0
 22
0.0
 32
0.0
 13
1.0
 23
0.0
 33
0.0
 40
0.0
 40
0.0
 40
0.0
 40
0.0
 40
0.2
 40
0.2
 40
0.2
 40
0.2
 40
0.4
 40
0.4
 40
0.4
 40
0.4
 40
0.6
 40
0.6
 40
0.6
 40
0.6
 40
1.0
 40
1.0
 40
1.0
 40
1.0
 10
95.8675
 20
109.3636
 30
0.0
 10
95.0026
 20
109.3636
 30
0.0
 10
94.3014
 20
108.6624
 30
0.0
 10
94.3014
 20
107.7973
 30
0.0
 10
94.3014
 20
107.7973
 30
0.0
 10
94.3013
 20
106.9323
 30
0.0
 10
95.0026
 20
106.2311
 30
0.0
 10
95.8675
 20
106.2311
 30
0.0
 10
95.8675
 20
106.2311
 30
0.0
 10
96.7326
 20
106.2311
 30
0.0
 10
97.4338
 20
106.9323
 30
0.0
 10
97.4338
 20
107.7973
 30
0.0
 10
97.4338
 20
107.7973
 30
0.0
 10
97.4339
 20
108.6624
 30
0.0
 10
96.7326
 20
109.3636
 30
0.0
 10
95.8675
 20
109.3636
 30
0.0
  0
SPLINE
  5
A4
330
1F
100
AcDbEntity
  8
layer 1
 62
     7
100
AcDbSpline
210
0.0
220
0.0
230
1.0
 70
    11
 71
     3
 72
    20
 73
    16
 74
     0
 42
0.0000000001
 43
0.0000000001
 12
1.0
 22
0.0
 32
0.0
 13
1.0
 23
0.0
 33
0.0
 40
0.0
 40
0.0
 40
0.0
 40
0.0
 40
0.2
 40
0.2
 40
0.2
 40
0.2
 40
0.4
 40
0.4
 40
0.4
 40
0.4
 40
0.6
 40
0.6
 40
0.6
 40
0.6
 40
1.0
 40
1.0
 40
1.0
 40
1.0
 10
95.8675
 20
109.3636
 30
0.0
 10
95.0026
 20
109.3636
 30
0.0
 10
94.3014
 20
108.6624
 30
0.0
 10
94.3014
 20
107.7973
 30
0.0
 10
94.3014
 20
107.7973
 30
0.0
 10
94.3013
 20
106.9323
 30
0.0
 10
95.0026
 20
106.2311
 30
0.0
 10
95.8675
 20
106.2311
 30
0.0
 10
95.8675
 20
106.2311
 30
0.0
 10
96.7326
 20
106.2311
 30
0.0
 10
97.4338
 20
106.9323
 30
0.0
 10
97.4338
 20
107.7973
 30
0.0
 10
97.4338
 20
107.7973
 30
0.0
 10
97.4339
 20
108.6624
 30
0.0
 10
96.7326
 20
109.3636
 30
0.0
 10
95.8675
 20
109.3636
 30
0.0
  0
SPLINE
  5
A5
330
1F
100
AcDbEntity
  8
layer 1
 62
     7
100
AcDbSpline
210
0.0
220
0.0
230
1.0
 70
    11
 71
     3
 72
    20
 73
    16
 74
     0
 42
0.0000000001
 43
0.0000000001
 12
1.0
 22
0.0
 32
0.0
 13
1.0
 23
0.0
 33
0.0
 40
0.0
 40
0.0
 40
0.0
 40
0.0
 40
0.2
 40
0.2
 40
0.2
 40
0.2
 40
0.4
 40
0.4
 40
0.4
 40
0.4
 40
0.6
 40
0.6
 40
0.6
 40
0.6
 40
1.0
 40
1.0
 40
1.0
 40
1.0
 10
95.8675
 20
109.3636
 30
0.0
 10
95.0026
 20
109.3636
 30
0.0
 10
94.3014
 20
108.6623
 30
0.0
 10
94.3014
 20
107.7973
 30
0.0
 10
94.3014
 20
107.7973
 30
0.0
 10
94.3013
 20
106.9323
 30
0.0
 10
95.0026
 20
106.2311
 30
0.0
 10
95.8675
 20
106.2311
 30
0.0
 10
95.8675
 20
106.2311
 30
0.0
 10
96.7326
 20
106.2311
 30
0.0
 10
97.4338
 20
106.9323
 30
0.0
 10
97.4338
 20
107.7973
 30
0.0
 10
97.4338
 20
107.7973
 30
0.0
 10
97.4339
 20
108.6623
 30
0.0
 10
96.7326
 20
109.3636
 30
0.0
 10
95.8675
 20
109.3636
 30
0.0
  0
SPLINE
  5
A6
330
1F
100
AcDbEntity
  8
layer 1
 62
     7
100
AcDbSpline
210
0.0
220
0.0
230
1.0
 70
    11
 71
     3
 72
    20
 73
    16
 74
     0
 42
0.0000000001
 43
0.0000000001
 12
1.0
 22
0.0
 32
0.0
 13
1.0
 23
0.0
 33
0.0
 40
0.0
 40
0.0
 40
0.0
 40
0.0
 40
0.2
 40
0.2
 40
0.2
 40
0.2
 40
0.4
 40
0.4
 40
0.4
 40
0.4
 40
0.6
 40
0.6
 40
0.6
 40
0.6
 40
1.0
 40
1.0
 40
1.0
 40
1.0
 10
95.8675
 20
109.3635
 30
0.0
 10
95.0026
 20
109.3635
 30
0.0
 10
94.3014
 20
108.6623
 30
0.0
 10
94.3014
 20
107.7972
 30
0.0
 10
94.3014
 20
107.7972
 30
0.0
 10
94.3013
 20
106.9323
 30
0.0
 10
95.0026
 20
106.2309
 30
0.0
 10
95.8675
 20
106.2309
 30
0.0
 10
95.8675
 20
106.2309
 30
0.0
 10
96.7326
 20
106.2309
 30
0.0
 10
97.4338
 20
106.9323
 30
0.0
 10
97.4338
 20
107.7972
 30
0.0
 10
97.4338
 20
107.7972
 30
0.0
 10
97.4339
 20
108.6623
 30
0.0
 10
96.7326
 20
109.3635
 30
0.0
 10
95.8675
 20
109.3635
 30
0.0
  0
SPLINE
  5
A7
330
1F
100
AcDbEntity
  8
layer 1
 62
     7
100
AcDbSpline
210
0.0
220
0.0
230
1.0
 70
    11
 71
     3
 72
    20
 73
    16
 74
     0
 42
0.0000000001
 43
0.0000000001
 12
1.0
 22
0.0
 32
0.0
 13
1.0
 23
0.0
 33
0.0
 40
0.0
 40
0.0
 40
0.0
 40
0.0
 40
0.2
 40
0.2
 40
0.2
 40
0.2
 40
0.4
 40
0.4
 40
0.4
 40
0.4
 40
0.6
 40
0.6
 40
0.6
 40
0.6
 40
1.0
 40
1.0
 40
1.0
 40
1.0
 10
95.8675
 20
109.3635
 30
0.0
 10
95.0026
 20
109.3635
 30
0.0
 10
94.3014
 20
108.6623
 30
0.0
 10
94.3014
 20
107.7972
 30
0.0
 10
94.3014
 20
107.7972
 30
0.0
 10
94.3013
 20
106.9323
 30
0.0
 10
95.0026
 20
106.2309
 30
0.0
 10
95.8675
 20
106.2309
 30
0.0
 10
95.8675
 20
106.2309
 30
0.0
 10
96.7326
 20
106.2309
 30
0.0
 10
97.4338
 20
106.9323
 30
0.0
 10
97.4338
 20
107.7972
 30
0.0
 10
97.4338
 20
107.7972
 30
0.0
 10
97.4339
 20
108.6623
 30
0.0
 10
96.7326
 20
109.3635
 30
0.0
 10
95.8675
 20
109.3635
 30
0.0
  0
SPLINE
  5
A8
330
1F
100
AcDbEntity
  8
layer 1
 62
     7
100
AcDbSpline
210
0.0
220
0.0
230
1.0
 70
    11
 71
     3
 72
    16
 73
    12
 74
     0
 42
0.0000000001
 43
0.0000000001
 12
1.0
 22
0.0
 32
0.0
 13
1.0
 23
0.0
 33
0.0
 40
0.0
 40
0.0
 40
0.0
 40
0.0
 40
0.25
 40
0.25
 40
0.25
 40
0.25
 40
0.5
 40
0.5
 40
0.5
 40
0.5
 40
1.0
 40
1.0
 40
1.0
 40
1.0
 10
57.1569
 20
102.9
 30
0.0
 10
54.491
 20
102.2959
 30
0.0
 10
50.3179
 20
102.5063
 30
0.0
 10
51.0398
 20
105.088
 30
0.0
 10
51.0398
 20
105.088
 30
0.0
 10
52.1837
 20
102.738
 30
0.0
 10
54.3924
 20
103.2821
 30
0.0
 10
54.7123
 20
106.0333
 30
0.0
 10
54.7123
 20
106.0333
 30
0.0
 10
55.6496
 20
105.2961
 30
0.0
 10
56.743
 20
103.936
 30
0.0
 10
57.1569
 20
102.9
 30
0.0
  0
SPLINE
  5
A9
330
1F
100
AcDbEntity
  8
layer 1
 62
     7
100
AcDbSpline
210
0.0
220
0.0
230
1.0
 70
    11
 71
     3
 72
    80
 73
    76
 74
     0
 42
0.0000000001
 43
0.0000000001
 12
1.0
 22
0.0
 32
0.0
 13
1.0
 23
0.0
 33
0.0
 40
0.0
 40
0.0
 40
0.0
 40
0.0
 40
0.05
 40
0.05
 40
0.05
 40
0.05
 40
0.1
 40
0.1
 40
0.1
 40
0.1
 40
0.15
 40
0.15
 40
0.15
 40
0.15
 40
0.2
 40
0.2
 40
0.2
 40
0.2
 40
0.25
 40
0.25
 40
0.25
 40
0.25
 40
0.3
 40
0.3
 40
0.3
 40
0.3
 40
0.35
 40
0.35
 40
0.35
 40
0.35
 40
0.4
 40
0.4
 40
0.4
 40
0.4
 40
0.45
 40
0.45
 40
0.45
 40
0.45
 40
0.5
 40
0.5
 40
0.5
 40
0.5
 40
0.55
 40
0.55
 40
0.55
 40
0.55
 40
0.6
 40
0.6
 40
0.6
 40
0.6
 40
0.65
 40
0.65
 40
0.65
 40
0.65
 40
0.7
 40
0.7
 40
0.7
 40
0.7
 40
0.75
 40
0.75
 40
0.75
 40
0.75
 40
0.8
 40
0.8
 40
0.8
 40
0.8
 40
0.85
 40
0.85
 40
0.85
 40
0.85
 40
0.9
 40
0.9
 40
0.9
 40
0.9
 40
1.0
 40
1.0
 40
1.0
 40
1.0
 10
29.321
 20
122.5666
 30
0.0
 10
45.1509
 20
122.5666
 30
0.0
 10
60.9805
 20
122.5666
 30
0.0
 10
76.8104
 20
122.5666
 30
0.0
 10
76.8104
 20
122.5666
 30
0.0
 10
78.2859
 20
117.3261
 30
0.0
 10
81.7731
 20
113.762
 30
0.0
 10
86.0345
 20
110.8434
 30
0.0
 10
86.0345
 20
110.8434
 30
0.0
 10
79.0963
 20
111.48
 30
0.0
 10
73.654
 20
110.7873
 30
0.0
 10
70.893
 20
107.7107
 30
0.0
 10
70.893
 20
107.7107
 30
0.0
 10
64.67
 20
112.6522
 30
0.0
 10
50.4475
 20
120.2692
 30
0.0
 10
43.3948
 20
105.6222
 30
0.0
 10
43.3948
 20
105.6222
 30
0.0
 10
41.0779
 20
106.1969
 30
0.0
 10
39.2144
 20
106.0917
 30
0.0
 10
37.8255
 20
105.2741
 30
0.0
 10
37.8255
 20
105.2741
 30
0.0
 10
39.5359
 20
103.2329
 30
0.0
 10
42.2029
 20
101.8155
 30
0.0
 10
44.439
 20
100.0529
 30
0.0
 10
44.439
 20
100.0529
 30
0.0
 10
43.8191
 20
100.0688
 30
0.0
 10
37.4363
 20
100.0676
 30
0.0
 10
37.8255
 20
99.0088
 30
0.0
 10
37.8255
 20
99.0088
 30
0.0
 10
38.393
 20
97.465
 30
0.0
 10
45.8635
 20
97.2883
 30
0.0
 10
45.6573
 20
93.0914
 30
0.0
 10
45.6573
 20
93.0914
 30
0.0
 10
45.7158
 20
81.9648
 30
0.0
 10
45.6652
 20
70.8216
 30
0.0
 10
50.3564
 20
61.0682
 30
0.0
 10
50.3564
 20
61.0682
 30
0.0
 10
50.5093
 20
60.7502
 30
0.0
 10
50.3459
 20
60.3245
 30
0.0
 10
50.5305
 20
60.0238
 30
0.0
 10
50.5305
 20
60.0238
 30
0.0
 10
52.3911
 20
56.9937
 30
0.0
 10
54.4754
 20
54.1064
 30
0.0
 10
56.4478
 20
51.1479
 30
0.0
 10
56.4478
 20
51.1479
 30
0.0
 10
56.5638
 20
49.9296
 30
0.0
 10
57.44
 20
48.2903
 30
0.0
 10
56.7959
 20
47.4931
 30
0.0
 10
56.7959
 20
47.4931
 30
0.0
 10
56.1519
 20
46.6959
 30
0.0
 10
53.4403
 20
46.3609
 30
0.0
 10
51.9299
 20
47.1563
 30
0.0
 10
51.9299
 20
47.1563
 30
0.0
 10
50.4588
 20
47.9311
 30
0.0
 10
48.0702
 20
48.7697
 30
0.0
 10
46.1563
 20
48.421
 30
0.0
 10
46.1563
 20
48.421
 30
0.0
 10
44.7253
 20
48.1603
 30
0.0
 10
43.3214
 20
48.9368
 30
0.0
 10
42.3506
 20
49.0594
 30
0.0
 10
42.3506
 20
49.0594
 30
0.0
 10
41.3845
 20
57.5071
 30
0.0
 10
37.8635
 20
62.8887
 30
0.0
 10
32.2564
 20
65.7671
 30
0.0
 10
32.2564
 20
65.7671
 30
0.0
 10
30.2074
 20
60.9659
 30
0.0
 10
31.9848
 20
55.7171
 30
0.0
 10
36.4334
 20
50.4517
 30
0.0
 10
36.4334
 20
50.4517
 30
0.0
 10
34.0625
 20
50.5677
 30
0.0
 10
31.6918
 20
50.5098
 30
0.0
 10
29.321
 20
50.6258
 30
0.0
 10
29.321
 20
50.6258
 30
0.0
 10
29.321
 20
74.4901
 30
0.0
 10
29.321
 20
98.7023
 30
0.0
 10
29.321
 20
122.5666
 30
0.0
  0
SPLINE
  5
AA
330
1F
100
AcDbEntity
  8
layer 1
 62
     7
100
AcDbSpline
210
0.0
220
0.0
230
1.0
 70
    11
 71
     3
 72
    20
 73
    16
 74
     0
 42
0.0000000001
 43
0.0000000001
 12
1.0
 22
0.0
 32
0.0
 13
1.0
 23
0.0
 33
0.0
 40
0.0
 40
0.0
 40
0.0
 40
0.0
 40
0.2
 40
0.2
 40
0.2
 40
0.2
 40
0.4
 40
0.4
 40
0.4
 40
0.4
 40
0.6
 40
0.6
 40
0.6
 40
0.6
 40
1.0
 40
1.0
 40
1.0
 40
1.0
 10
87.7749
 20
101.9675
 30
0.0
 10
83.2593
 20
100.0229
 30
0.0
 10
79.1796
 20
99.3865
 30
0.0
 10
75.5921
 20
100.2271
 30
0.0
 10
75.5921
 20
100.2271
 30
0.0
 10
76.5023
 20
98.6697
 30
0.0
 10
77.1766
 20
97.8395
 30
0.0
 10
77.1585
 20
96.7463
 30
0.0
 10
77.1585
 20
96.7463
 30
0.0
 10
78.7828
 20
95.7349
 30
0.0
 10
80.4074
 20
94.5669
 30
0.0
 10
82.0316
 20
93.0914
 30
0.0
 10
82.0316
 20
93.0914
 30
0.0
 10
83.1317
 20
96.5932
 30
0.0
 10
85.2818
 20
99.3946
 30
0.0
 10
87.7749
 20
101.9675
 30
0.0
  0
SPLINE
  5
AB
330
1F
100
AcDbEntity
  8
layer 1
 62
     7
100
AcDbSpline
210
0.0
220
0.0
230
1.0
 70
    11
 71
     3
 72
    12
 73
     8
 74
     0
 42
0.0000000001
 43
0.0000000001
 12
1.0
 22
0.0
 32
0.0
 13
1.0
 23
0.0
 33
0.0
 40
0.0
 40
0.0
 40
0.0
 40
0.0
 40
0.3333333333333333
 40
0.3333333333333333
 40
0.3333333333333333
 40
0.3333333333333333
 40
1.0
 40
1.0
 40
1.0
 40
1.0
 10
69.6112
 20
89.0558
 30
0.0
 10
70.5613
 20
89.0064
 30
0.0
 10
71.5114
 20
89.3902
 30
0.0
 10
72.4614
 20
90.4809
 30
0.0
 10
72.4614
 20
90.4809
 30
0.0
 10
72.599
 20
88.1856
 30
0.0
 10
71.0057
 20
87.3055
 30
0.0
 10
69.6112
 20
89.0558
 30
0.0
  0
SPLINE
  5
AC
330
1F
100
AcDbEntity
  8
layer 1
 62
     7
100
AcDbSpline
210
0.0
220
0.0
230
1.0
 70
    11
 71
     3
 72
    12
 73
     8
 74
     0
 42
0.0000000001
 43
0.0000000001
 12
1.0
 22
0.0
 32
0.0
 13
1.0
 23
0.0
 33
0.0
 40
0.0
 40
0.0
 40
0.0
 40
0.0
 40
0.3333333333333333
 40
0.3333333333333333
 40
0.3333333333333333
 40
0.3333333333333333
 40
1.0
 40
1.0
 40
1.0
 40
1.0
 10
77.617
 20
86.9674
 30
0.0
 10
78.5669
 20
86.918
 30
0.0
 10
79.5171
 20
87.3018
 30
0.0
 10
80.4671
 20
88.3924
 30
0.0
 10
80.4671
 20
88.3924
 30
0.0
 10
80.6048
 20
86.0972
 30
0.0
 10
79.0115
 20
85.217
 30
0.0
 10
77.617
 20
86.9674
 30
0.0
  0
SPLINE
  5
AD
330
1F
100
AcDbEntity
  8
layer 1
 62
     7
100
AcDbSpline
210
0.0
220
0.0
230
1.0
 70
    11
 71
     3
 72
    12
 73
     8
 74
     0
 42
0.0000000001
 43
0.0000000001
 12
1.0
 22
0.0
 32
0.0
 13
1.0
 23
0.0
 33
0.0
 40
0.0
 40
0.0
 40
0.0
 40
0.0
 40
0.3333333333333333
 40
0.3333333333333333
 40
0.3333333333333333
 40
0.3333333333333333
 40
1.0
 40
1.0
 40
1.0
 40
1.0
 10
67.5191
 20
82.3996
 30
0.0
 10
68.4012
 20
82.0433
 30
0.0
 10
69.4247
 20
82.0966
 30
0.0
 10
70.6781
 20
82.8182
 30
0.0
 10
70.6781
 20
82.8182
 30
0.0
 10
70.0605
 20
80.6033
 30
0.0
 10
68.2673
 20
80.2904
 30
0.0
 10
67.5191
 20
82.3996
 30
0.0
  0
SPLINE
  5
AE
330
1F
100
AcDbEntity
  8
layer 1
 62
     7
100
AcDbSpline
210
0.0
220
0.0
230
1.0
 70
    11
 71
     3
 72
    16
 73
    12
 74
     0
 42
0.0000000001
 43
0.0000000001
 12
1.0
 22
0.0
 32
0.0
 13
1.0
 23
0.0
 33
0.0
 40
0.0
 40
0.0
 40
0.0
 40
0.0
 40
0.25
 40
0.25
 40
0.25
 40
0.25
 40
0.5
 40
0.5
 40
0.5
 40
0.5
 40
1.0
 40
1.0
 40
1.0
 40
1.0
 10
53.3401
 20
83.3987
 30
0.0
 10
53.3401
 20
83.3987
 30
0.0
 10
51.6991
 20
86.3293
 30
0.0
 10
51.6991
 20
86.3293
 30
0.0
 10
51.6991
 20
86.3293
 30
0.0
 10
51.6991
 20
86.3293
 30
0.0
 10
54.5126
 20
86.7982
 30
0.0
 10
54.5126
 20
86.7982
 30
0.0
 10
54.5126
 20
86.7982
 30
0.0
 10
54.5126
 20
86.7982
 30
0.0
 10
53.3401
 20
83.3987
 30
0.0
 10
53.3401
 20
83.3987
 30
0.0
  0
SPLINE
  5
AF
330
1F
100
AcDbEntity
  8
layer 1
 62
     7
100
AcDbSpline
210
0.0
220
0.0
230
1.0
 70
    11
 71
     3
 72
    16
 73
    12
 74
     0
 42
0.0000000001
 43
0.0000000001
 12
1.0
 22
0.0
 32
0.0
 13
1.0
 23
0.0
 33
0.0
 40
0.0
 40
0.0
 40
0.0
 40
0.0
 40
0.25
 40
0.25
 40
0.25
 40
0.25
 40
0.5
 40
0.5
 40
0.5
 40
0.5
 40
1.0
 40
1.0
 40
1.0
 40
1.0
 10
57.7947
 20
76.717
 30
0.0
 10
57.7947
 20
76.717
 30
0.0
 10
55.5674
 20
79.9992
 30
0.0
 10
55.5674
 20
79.9992
 30
0.0
 10
55.5674
 20
79.9992
 30
0.0
 10
55.5674
 20
79.9992
 30
0.0
 10
58.2636
 20
80.5853
 30
0.0
 10
58.2636
 20
80.5853
 30
0.0
 10
58.2636
 20
80.5853
 30
0.0
 10
58.2636
 20
80.5853
 30
0.0
 10
57.7947
 20
76.717
 30
0.0
 10
57.7947
 20
76.717
 30
0.0
  0
SPLINE
  5
B0
330
1F
100
AcDbEntity
  8
layer 1
 62
     7
100
AcDbSpline
210
0.0
220
0.0
230
1.0
 70
    11
 71
     3
 72
    16
 73
    12
 74
     0
 42
0.0000000001
 43
0.0000000001
 12
1.0
 22
0.0
 32
0.0
 13
1.0
 23
0.0
 33
0.0
 40
0.0
 40
0.0
 40
0.0
 40
0.0
 40
0.25
 40
0.25
 40
0.25
 40
0.25
 40
0.5
 40
0.5
 40
0.5
 40
0.5
 40
1.0
 40
1.0
 40
1.0
 40
1.0
 10
50.4097
 20
78.1236
 30
0.0
 10
50.4097
 20
78.1236
 30
0.0
 10
48.6513
 20
80.5853
 30
0.0
 10
48.6513
 20
80.5853
 30
0.0
 10
48.6513
 20
80.5853
 30
0.0
 10
48.6513
 20
80.5853
 30
0.0
 10
51.3475
 20
80.5853
 30
0.0
 10
51.3475
 20
80.5853
 30
0.0
 10
51.3475
 20
80.5853
 30
0.0
 10
51.3475
 20
80.5853
 30
0.0
 10
50.4097
 20
78.1236
 30
0.0
 10
50.4097
 20
78.1236
 30
0.0
  0
SPLINE
  5
B1
330
1F
100
AcDbEntity
  8
layer 1
 62
     7
100
AcDbSpline
210
0.0
220
0.0
230
1.0
 70
    11
 71
     3
 72
    16
 73
    12
 74
     0
 42
0.0000000001
 43
0.0000000001
 12
1.0
 22
0.0
 32
0.0
 13
1.0
 23
0.0
 33
0.0
 40
0.0
 40
0.0
 40
0.0
 40
0.0
 40
0.25
 40
0.25
 40
0.25
 40
0.25
 40
0.5
 40
0.5
 40
0.5
 40
0.5
 40
1.0
 40
1.0
 40
1.0
 40
1.0
 10
55.0986
 20
70.6214
 30
0.0
 10
55.0986
 20
70.6214
 30
0.0
 10
53.2231
 20
73.2003
 30
0.0
 10
53.2231
 20
73.2003
 30
0.0
 10
53.2231
 20
73.2003
 30
0.0
 10
53.2231
 20
73.2003
 30
0.0
 10
56.0364
 20
73.6692
 30
0.0
 10
56.0364
 20
73.6692
 30
0.0
 10
56.0364
 20
73.6692
 30
0.0
 10
56.0364
 20
73.6692
 30
0.0
 10
55.0986
 20
70.6214
 30
0.0
 10
55.0986
 20
70.6214
 30
0.0
  0
SPLINE
  5
B2
330
1F
100
AcDbEntity
  8
layer 1
 62
     7
100
AcDbSpline
210
0.0
220
0.0
230
1.0
 70
    11
 71
     3
 72
    16
 73
    12
 74
     0
 42
0.0000000001
 43
0.0000000001
 12
1.0
 22
0.0
 32
0.0
 13
1.0
 23
0.0
 33
0.0
 40
0.0
 40
0.0
 40
0.0
 40
0.0
 40
0.25
 40
0.25
 40
0.25
 40
0.25
 40
0.5
 40
0.5
 40
0.5
 40
0.5
 40
1.0
 40
1.0
 40
1.0
 40
1.0
 10
61.546
 20
66.2841
 30
0.0
 10
61.546
 20
66.2841
 30
0.0
 10
59.0842
 20
68.7457
 30
0.0
 10
59.0842
 20
68.7457
 30
0.0
 10
59.0842
 20
68.7457
 30
0.0
 10
59.0842
 20
68.7457
 30
0.0
 10
62.2493
 20
69.2147
 30
0.0
 10
62.2493
 20
69.2147
 30
0.0
 10
62.2493
 20
69.2147
 30
0.0
 10
62.2493
 20
69.2147
 30
0.0
 10
61.546
 20
66.2841
 30
0.0
 10
61.546
 20
66.2841
 30
0.0
  0
SPLINE
  5
B3
330
1F
100
AcDbEntity
  8
layer 1
 62
     7
100
AcDbSpline
210
0.0
220
0.0
230
1.0
 70
    11
 71
     3
 72
    16
 73
    12
 74
     0
 42
0.0000000001
 43
0.0000000001
 12
1.0
 22
0.0
 32
0.0
 13
1.0
 23
0.0
 33
0.0
 40
0.0
 40
0.0
 40
0.0
 40
0.0
 40
0.25
 40
0.25
 40
0.25
 40
0.25
 40
0.5
 40
0.5
 40
0.5
 40
0.5
 40
1.0
 40
1.0
 40
1.0
 40
1.0
 10
54.0436
 20
64.1741
 30
0.0
 10
54.0436
 20
64.1741
 30
0.0
 10
51.8164
 20
67.3391
 30
0.0
 10
51.8164
 20
67.3391
 30
0.0
 10
51.8164
 20
67.3391
 30
0.0
 10
51.8164
 20
67.3391
 30
0.0
 10
54.9814
 20
67.808
 30
0.0
 10
54.9814
 20
67.808
 30
0.0
 10
54.9814
 20
67.808
 30
0.0
 10
54.9814
 20
67.808
 30
0.0
 10
54.0436
 20
64.1741
 30
0.0
 10
54.0436
 20
64.1741
 30
0.0
  0
SPLINE
  5
B4
330
1F
100
AcDbEntity
  8
layer 1
 62
     7
100
AcDbSpline
210
0.0
220
0.0
230
1.0
 70
    11
 71
     3
 72
    16
 73
    12
 74
     0
 42
0.0000000001
 43
0.0000000001
 12
1.0
 22
0.0
 32
0.0
 13
1.0
 23
0.0
 33
0.0
 40
0.0
 40
0.0
 40
0.0
 40
0.0
 40
0.25
 40
0.25
 40
0.25
 40
0.25
 40
0.5
 40
0.5
 40
0.5
 40
0.5
 40
1.0
 40
1.0
 40
1.0
 40
1.0
 10
58.0292
 20
60.4228
 30
0.0
 10
58.0292
 20
60.4228
 30
0.0
 10
60.4909
 20
61.7123
 30
0.0
 10
60.4909
 20
61.7123
 30
0.0
 10
60.4909
 20
61.7123
 30
0.0
 10
60.4909
 20
61.7123
 30
0.0
 10
60.6082
 20
58.5473
 30
0.0
 10
60.6082
 20
58.5473
 30
0.0
 10
60.6082
 20
58.5473
 30
0.0
 10
60.6082
 20
58.5473
 30
0.0
 10
58.0292
 20
60.4228
 30
0.0
 10
58.0292
 20
60.4228
 30
0.0
  0
SPLINE
  5
B5
330
1F
100
AcDbEntity
  8
layer 1
 62
     7
100
AcDbSpline
210
0.0
220
0.0
230
1.0
 70
    11
 71
     3
 72
    16
 73
    12
 74
     0
 42
0.0000000001
 43
0.0000000001
 12
1.0
 22
0.0
 32
0.0
 13
1.0
 23
0.0
 33
0.0
 40
0.0
 40
0.0
 40
0.0
 40
0.0
 40
0.25
 40
0.25
 40
0.25
 40
0.25
 40
0.5
 40
0.5
 40
0.5
 40
0.5
 40
1.0
 40
1.0
 40
1.0
 40
1.0
 10
67.8761
 20
53.9754
 30
0.0
 10
67.8761
 20
53.9754
 30
0.0
 10
64.5937
 20
56.7889
 30
0.0
 10
64.5937
 20
56.7889
 30
0.0
 10
64.5937
 20
56.7889
 30
0.0
 10
64.5937
 20
56.7889
 30
0.0
 10
67.0554
 20
58.5473
 30
0.0
 10
67.0554
 20
58.5473
 30
0.0
 10
67.0554
 20
58.5473
 30
0.0
 10
67.0554
 20
58.5473
 30
0.0
 10
67.8761
 20
53.9754
 30
0.0
 10
67.8761
 20
53.9754
 30
0.0
  0
SPLINE
  5
B6
330
1F
100
AcDbEntity
  8
layer 1
 62
     7
100
AcDbSpline
210
0.0
220
0.0
230
1.0
 70
    11
 71
     3
 72
    16
 73
    12
 74
     0
 42
0.0000000001
 43
0.0000000001
 12
1.0
 22
0.0
 32
0.0
 13
1.0
 23
0.0
 33
0.0
 40
0.0
 40
0.0
 40
0.0
 40
0.0
 40
0.25
 40
0.25
 40
0.25
 40
0.25
 40
0.5
 40
0.5
 40
0.5
 40
0.5
 40
1.0
 40
1.0
 40
1.0
 40
1.0
 10
60.9597
 20
55.265
 30
0.0
 10
60.9597
 20
55.265
 30
0.0
 10
58.4981
 20
54.9134
 30
0.0
 10
58.4981
 20
54.9134
 30
0.0
 10
58.4981
 20
54.9134
 30
0.0
 10
58.4981
 20
54.9134
 30
0.0
 10
61.1942
 20
52.6861
 30
0.0
 10
61.1942
 20
52.6861
 30
0.0
 10
61.1942
 20
52.6861
 30
0.0
 10
61.1942
 20
52.6861
 30
0.0
 10
60.9597
 20
55.265
 30
0.0
 10
60.9597
 20
55.265
 30
0.0
  0
SPLINE
  5
B7
330
1F
100
AcDbEntity
  8
layer 1
 62
     7
100
AcDbSpline
210
0.0
220
0.0
230
1.0
 70
    11
 71
     3
 72
    16
 73
    12
 74
     0
 42
0.0000000001
 43
0.0000000001
 12
1.0
 22
0.0
 32
0.0
 13
1.0
 23
0.0
 33
0.0
 40
0.0
 40
0.0
 40
0.0
 40
0.0
 40
0.25
 40
0.25
 40
0.25
 40
0.25
 40
0.5
 40
0.5
 40
0.5
 40
0.5
 40
1.0
 40
1.0
 40
1.0
 40
1.0
 10
84.6391
 20
54.6789
 30
0.0
 10
78.2278
 20
60.2786
 30
0.0
 10
72.4082
 20
66.0753
 30
0.0
 10
68.8138
 20
72.6142
 30
0.0
 10
68.8138
 20
72.6142
 30
0.0
 10
69.9381
 20
73.0618
 30
0.0
 10
70.9327
 20
73.7685
 30
0.0
 10
71.7444
 20
74.8413
 30
0.0
 10
71.7444
 20
74.8413
 30
0.0
 10
75.6874
 20
67.41
 30
0.0
 10
80.0707
 20
60.8592
 30
0.0
 10
84.6391
 20
54.6789
 30
0.0
  0
SPLINE
  5
B8
330
1F
100
AcDbEntity
  8
layer 1
 62
     7
100
AcDbSpline
210
0.0
220
0.0
230
1.0
 70
    11
 71
     3
 72
    16
 73
    12
 74
     0
 42
0.0000000001
 43
0.0000000001
 12
1.0
 22
0.0
 32
0.0
 13
1.0
 23
0.0
 33
0.0
 40
0.0
 40
0.0
 40
0.0
 40
0.0
 40
0.25
 40
0.25
 40
0.25
 40
0.25
 40
0.5
 40
0.5
 40
0.5
 40
0.5
 40
1.0
 40
1.0
 40
1.0
 40
1.0
 10
88.1557
 20
56.0855
 30
0.0
 10
83.937
 20
62.3795
 30
0.0
 10
79.8273
 20
68.8907
 30
0.0
 10
76.5506
 20
77.0686
 30
0.0
 10
76.5506
 20
77.0686
 30
0.0
 10
77.7227
 20
77.1709
 30
0.0
 10
78.8951
 20
77.6305
 30
0.0
 10
80.0673
 20
78.358
 30
0.0
 10
80.0673
 20
78.358
 30
0.0
 10
83.1287
 20
70.3858
 30
0.0
 10
85.7201
 20
63.1188
 30
0.0
 10
88.1557
 20
56.0855
 30
0.0
  0
SPLINE
  5
B9
330
1F
100
AcDbEntity
  8
layer 1
 62
     7
100
AcDbSpline
210
0.0
220
0.0
230
1.0
 70
    11
 71
     3
 72
    16
 73
    12
 74
     0
 42
0.0000000001
 43
0.0000000001
 12
1.0
 22
0.0
 32
0.0
 13
1.0
 23
0.0
 33
0.0
 40
0.0
 40
0.0
 40
0.0
 40
0.0
 40
0.25
 40
0.25
 40
0.25
 40
0.25
 40
0.5
 40
0.5
 40
0.5
 40
0.5
 40
1.0
 40
1.0
 40
1.0
 40
1.0
 10
91.438
 20
56.6717
 30
0.0
 10
88.6554
 20
64.7907
 30
0.0
 10
85.6246
 20
72.662
 30
0.0
 10
82.5289
 20
80.4681
 30
0.0
 10
82.5289
 20
80.4681
 30
0.0
 10
83.6232
 20
80.9741
 30
0.0
 10
84.7172
 20
81.7984
 30
0.0
 10
85.8114
 20
82.9299
 30
0.0
 10
85.8114
 20
82.9299
 30
0.0
 10
89.5269
 20
74.9439
 30
0.0
 10
91.4736
 20
66.2207
 30
0.0
 10
91.438
 20
56.6717
 30
0.0
  0
SPLINE
  5
BA
330
1F
100
AcDbEntity
  8
layer 1
 62
     7
100
AcDbSpline
210
0.0
220
0.0
230
1.0
 70
    11
 71
     3
 72
    24
 73
    20
 74
     0
 42
0.0000000001
 43
0.0000000001
 12
1.0
 22
0.0
 32
0.0
 13
1.0
 23
0.0
 33
0.0
 40
0.0
 40
0.0
 40
0.0
 40
0.0
 40
0.1666666666666667
 40
0.1666666666666667
 40
0.1666666666666667
 40
0.1666666666666667
 40
0.3333333333333333
 40
0.3333333333333333
 40
0.3333333333333333
 40
0.3333333333333333
 40
0.5
 40
0.5
 40
0.5
 40
0.5
 40
0.6666666666666666
 40
0.6666666666666666
 40
0.6666666666666666
 40
0.6666666666666666
 40
1.0
 40
1.0
 40
1.0
 40
1.0
 10
72.2132
 20
46.825
 30
0.0
 10
68.1309
 20
46.6631
 30
0.0
 10
64.8063
 20
47.7652
 30
0.0
 10
61.663
 20
49.1693
 30
0.0
 10
61.663
 20
49.1693
 30
0.0
 10
62.7755
 20
45.3591
 30
0.0
 10
61.762
 20
43.5232
 30
0.0
 10
58.4981
 20
43.777
 30
0.0
 10
58.4981
 20
43.777
 30
0.0
 10
63.8794
 20
41.2258
 30
0.0
 10
69.5676
 20
38.9821
 30
0.0
 10
75.2612
 20
36.7436
 30
0.0
 10
75.2612
 20
36.7436
 30
0.0
 10
75.6909
 20
37.3689
 30
0.0
 10
76.1207
 20
37.9941
 30
0.0
 10
76.5506
 20
38.6192
 30
0.0
 10
76.5506
 20
38.6192
 30
0.0
 10
75.2745
 20
41.6939
 30
0.0
 10
73.8017
 20
44.3754
 30
0.0
 10
72.2132
 20
46.825
 30
0.0
  0
SPLINE
  5
BB
330
1F
100
AcDbEntity
  8
layer 1
 62
     7
100
AcDbSpline
210
0.0
220
0.0
230
1.0
 70
    11
 71
     3
 72
    24
 73
    20
 74
     0
 42
0.0000000001
 43
0.0000000001
 12
1.0
 22
0.0
 32
0.0
 13
1.0
 23
0.0
 33
0.0
 40
0.0
 40
0.0
 40
0.0
 40
0.0
 40
0.1666666666666667
 40
0.1666666666666667
 40
0.1666666666666667
 40
0.1666666666666667
 40
0.3333333333333333
 40
0.3333333333333333
 40
0.3333333333333333
 40
0.3333333333333333
 40
0.5
 40
0.5
 40
0.5
 40
0.5
 40
0.6666666666666666
 40
0.6666666666666666
 40
0.6666666666666666
 40
0.6666666666666666
 40
1.0
 40
1.0
 40
1.0
 40
1.0
 10
80.3018
 20
39.5569
 30
0.0
 10
79.0905
 20
42.214
 30
0.0
 10
77.8791
 20
44.8712
 30
0.0
 10
76.6678
 20
47.5283
 30
0.0
 10
76.6678
 20
47.5283
 30
0.0
 10
78.7778
 20
47.5565
 30
0.0
 10
80.8878
 20
47.6559
 30
0.0
 10
82.9979
 20
47.9971
 30
0.0
 10
82.9979
 20
47.9971
 30
0.0
 10
84.8489
 20
45.1911
 30
0.0
 10
86.5793
 20
42.3245
 30
0.0
 10
87.8042
 20
39.2054
 30
0.0
 10
87.8042
 20
39.2054
 30
0.0
 10
86.4601
 20
37.5135
 30
0.0
 10
85.5919
 20
35.5834
 30
0.0
 10
84.8734
 20
33.5786
 30
0.0
 10
84.8734
 20
33.5786
 30
0.0
 10
83.7321
 20
35.9541
 30
0.0
 10
82.0697
 20
37.8082
 30
0.0
 10
80.3018
 20
39.5569
 30
0.0
  0
SPLINE
  5
BC
330
1F
100
AcDbEntity
  8
layer 1
 62
     7
100
AcDbSpline
210
0.0
220
0.0
230
1.0
 70
    11
 71
     3
 72
    12
 73
     8
 74
     0
 42
0.0000000001
 43
0.0000000001
 12
1.0
 22
0.0
 32
0.0
 13
1.0
 23
0.0
 33
0.0
 40
0.0
 40
0.0
 40
0.0
 40
0.0
 40
0.3333333333333333
 40
0.3333333333333333
 40
0.3333333333333333
 40
0.3333333333333333
 40
1.0
 40
1.0
 40
1.0
 40
1.0
 10
89.6797
 20
45.5355
 30
0.0
 10
90.5851
 20
44.3453
 30
0.0
 10
91.4945
 20
43.1496
 30
0.0
 10
93.6651
 20
40.3776
 30
0.0
 10
93.6651
 20
40.3776
 30
0.0
 10
90.7627
 20
39.4371
 30
0.0
 10
90.1036
 20
43.6282
 30
0.0
 10
89.6797
 20
45.5355
 30
0.0
  0
SPLINE
  5
BD
330
1F
100
AcDbEntity
  8
layer 1
 62
     7
100
AcDbSpline
210
0.0
220
0.0
230
1.0
 70
    11
 71
     3
 72
    12
 73
     8
 74
     0
 42
0.0000000001
 43
0.0000000001
 12
1.0
 22
0.0
 32
0.0
 13
1.0
 23
0.0
 33
0.0
 40
0.0
 40
0.0
 40
0.0
 40
0.0
 40
0.3333333333333333
 40
0.3333333333333333
 40
0.3333333333333333
 40
0.3333333333333333
 40
1.0
 40
1.0
 40
1.0
 40
1.0
 10
92.8446
 20
48.466
 30
0.0
 10
96.486
 20
44.7548
 30
0.0
 10
100.1566
 20
41.0934
 30
0.0
 10
101.5193
 20
35.923
 30
0.0
 10
101.5193
 20
35.923
 30
0.0
 10
96.9813
 20
39.5086
 30
0.0
 10
94.823
 20
43.1197
 30
0.0
 10
92.8446
 20
48.466
 30
0.0
  0
SPLINE
  5
BE
330
1F
100
AcDbEntity
  8
layer 1
 62
     7
100
AcDbSpline
210
0.0
220
0.0
230
1.0
 70
    11
 71
     3
 72
    16
 73
    12
 74
     0
 42
0.0000000001
 43
0.0000000001
 12
1.0
 22
0.0
 32
0.0
 13
1.0
 23
0.0
 33
0.0
 40
0.0
 40
0.0
 40
0.0
 40
0.0
 40
0.25
 40
0.25
 40
0.25
 40
0.25
 40
0.5
 40
0.5
 40
0.5
 40
0.5
 40
1.0
 40
1.0
 40
1.0
 40
1.0
 10
115.1171
 20
19.1601
 30
0.0
 10
115.1171
 20
19.1601
 30
0.0
 10
113.7105
 20
22.5596
 30
0.0
 10
113.7105
 20
22.5596
 30
0.0
 10
113.7105
 20
22.5596
 30
0.0
 10
113.7105
 20
22.5596
 30
0.0
 10
111.0143
 20
18.8083
 30
0.0
 10
111.0143
 20
18.8083
 30
0.0
 10
111.0143
 20
18.8083
 30
0.0
 10
111.0143
 20
18.8083
 30
0.0
 10
115.1171
 20
19.1601
 30
0.0
 10
115.1171
 20
19.1601
 30
0.0
  0
SPLINE
  5
BF
330
1F
100
AcDbEntity
  8
layer 1
 62
     7
100
AcDbSpline
210
0.0
220
0.0
230
1.0
 70
    11
 71
     3
 72
    16
 73
    12
 74
     0
 42
0.0000000001
 43
0.0000000001
 12
1.0
 22
0.0
 32
0.0
 13
1.0
 23
0.0
 33
0.0
 40
0.0
 40
0.0
 40
0.0
 40
0.0
 40
0.25
 40
0.25
 40
0.25
 40
0.25
 40
0.5
 40
0.5
 40
0.5
 40
0.5
 40
1.0
 40
1.0
 40
1.0
 40
1.0
 10
100.9331
 20
29.7102
 30
0.0
 10
100.9331
 20
29.7102
 30
0.0
 10
101.2847
 20
26.5452
 30
0.0
 10
101.2847
 20
26.5452
 30
0.0
 10
101.2847
 20
26.5452
 30
0.0
 10
101.2847
 20
26.5452
 30
0.0
 10
103.2777
 20
28.538
 30
0.0
 10
103.2777
 20
28.538
 30
0.0
 10
103.2777
 20
28.538
 30
0.0
 10
103.2777
 20
28.538
 30
0.0
 10
100.9331
 20
29.7102
 30
0.0
 10
100.9331
 20
29.7102
 30
0.0
  0
SPLINE
  5
C0
330
1F
100
AcDbEntity
  8
layer 1
 62
     7
100
AcDbSpline
210
0.0
220
0.0
230
1.0
 70
    11
 71
     3
 72
    20
 73
    16
 74
     0
 42
0.0000000001
 43
0.0000000001
 12
1.0
 22
0.0
 32
0.0
 13
1.0
 23
0.0
 33
0.0
 40
0.0
 40
0.0
 40
0.0
 40
0.0
 40
0.2
 40
0.2
 40
0.2
 40
0.2
 40
0.4
 40
0.4
 40
0.4
 40
0.4
 40
0.6
 40
0.6
 40
0.6
 40
0.6
 40
1.0
 40
1.0
 40
1.0
 40
1.0
 10
103.2777
 20
13.4162
 30
0.0
 10
103.2777
 20
14.1282
 30
0.0
 10
102.7003
 20
14.7055
 30
0.0
 10
101.9882
 20
14.7055
 30
0.0
 10
101.9882
 20
14.7055
 30
0.0
 10
101.276
 20
14.7055
 30
0.0
 10
100.6987
 20
14.1282
 30
0.0
 10
100.6987
 20
13.4162
 30
0.0
 10
100.6987
 20
13.4162
 30
0.0
 10
100.6986
 20
12.7042
 30
0.0
 10
101.2759
 20
12.1269
 30
0.0
 10
101.988
 20
12.1269
 30
0.0
 10
101.988
 20
12.1269
 30
0.0
 10
102.7002
 20
12.1269
 30
0.0
 10
103.2777
 20
12.7042
 30
0.0
 10
103.2777
 20
13.4162
 30
0.0
  0
SPLINE
  5
C1
330
1F
100
AcDbEntity
  8
layer 1
 62
     7
100
AcDbSpline
210
0.0
220
0.0
230
1.0
 70
    27
 71
     3
 72
    12
 73
     8
 74
     0
 42
0.0000000001
 43
0.0000000001
 12
1.0
 22
0.0
 32
0.0
 13
1.0
 23
0.0
 33
0.0
 40
0.0
 40
0.0
 40
0.0
 40
0.0
 40
0.3333333333333333
 40
0.3333333333333333
 40
0.3333333333333333
 40
0.3333333333333333
 40
1.0
 40
1.0
 40
1.0
 40
1.0
 10
103.2777
 20
13.4162
 30
0.0
 10
103.2777
 20
13.4162
 30
0.0
 10
103.2777
 20
13.4158
 30
0.0
 10
103.2777
 20
13.4158
 30
0.0
 10
103.2777
 20
13.4158
 30
0.0
 10
103.2777
 20
13.4158
 30
0.0
 10
103.2777
 20
13.4162
 30
0.0
 10
103.2777
 20
13.4162
 30
0.0
  0
SPLINE
  5
C2
330
1F
100
AcDbEntity
  8
layer 1
 62
     7
100
AcDbSpline
210
0.0
220
0.0
230
1.0
 70
    27
 71
     3
 72
    12
 73
     8
 74
     0
 42
0.0000000001
 43
0.0000000001
 12
1.0
 22
0.0
 32
0.0
 13
1.0
 23
0.0
 33
0.0
 40
0.0
 40
0.0
 40
0.0
 40
0.0
 40
0.3333333333333333
 40
0.3333333333333333
 40
0.3333333333333333
 40
0.3333333333333333
 40
1.0
 40
1.0
 40
1.0
 40
1.0
 10
101.9882
 20
14.7055
 30
0.0
 10
101.9882
 20
14.7055
 30
0.0
 10
101.9882
 20
14.7052
 30
0.0
 10
101.9882
 20
14.7052
 30
0.0
 10
101.9882
 20
14.7052
 30
0.0
 10
101.9882
 20
14.7052
 30
0.0
 10
101.9882
 20
14.7055
 30
0.0
 10
101.9882
 20
14.7055
 30
0.0
  0
SPLINE
  5
C3
330
1F
100
AcDbEntity
  8
layer 1
 62
     7
100
AcDbSpline
210
0.0
220
0.0
230
1.0
 70
    27
 71
     3
 72
    12
 73
     8
 74
     0
 42
0.0000000001
 43
0.0000000001
 12
1.0
 22
0.0
 32
0.0
 13
1.0
 23
0.0
 33
0.0
 40
0.0
 40
0.0
 40
0.0
 40
0.0
 40
0.3333333333333333
 40
0.3333333333333333
 40
0.3333333333333333
 40
0.3333333333333333
 40
1.0
 40
1.0
 40
1.0
 40
1.0
 10
100.6987
 20
13.4162
 30
0.0
 10
100.6987
 20
13.4162
 30
0.0
 10
100.6987
 20
13.4158
 30
0.0
 10
100.6987
 20
13.4158
 30
0.0
 10
100.6987
 20
13.4158
 30
0.0
 10
100.6987
 20
13.4158
 30
0.0
 10
100.6987
 20
13.4162
 30
0.0
 10
100.6987
 20
13.4162
 30
0.0
  0
SPLINE
  5
C4
330
1F
100
AcDbEntity
  8
layer 1
 62
     7
100
AcDbSpline
210
0.0
220
0.0
230
1.0
 70
    27
 71
     3
 72
    12
 73
     8
 74
     0
 42
0.0000000001
 43
0.0000000001
 12
1.0
 22
0.0
 32
0.0
 13
1.0
 23
0.0
 33
0.0
 40
0.0
 40
0.0
 40
0.0
 40
0.0
 40
0.3333333333333333
 40
0.3333333333333333
 40
0.3333333333333333
 40
0.3333333333333333
 40
1.0
 40
1.0
 40
1.0
 40
1.0
 10
101.988
 20
12.1269
 30
0.0
 10
101.988
 20
12.1269
 30
0.0
 10
101.988
 20
12.1265
 30
0.0
 10
101.988
 20
12.1265
 30
0.0
 10
101.988
 20
12.1265
 30
0.0
 10
101.988
 20
12.1265
 30
0.0
 10
101.988
 20
12.1269
 30
0.0
 10
101.988
 20
12.1269
 30
0.0
  0
SPLINE
  5
C5
330
1F
100
AcDbEntity
  8
layer 1
 62
     7
100
AcDbSpline
210
0.0
220
0.0
230
1.0
 70
    27
 71
     3
 72
    12
 73
     8
 74
     0
 42
0.0000000001
 43
0.0000000001
 12
1.0
 22
0.0
 32
0.0
 13
1.0
 23
0.0
 33
0.0
 40
0.0
 40
0.0
 40
0.0
 40
0.0
 40
0.3333333333333333
 40
0.3333333333333333
 40
0.3333333333333333
 40
0.3333333333333333
 40
1.0
 40
1.0
 40
1.0
 40
1.0
 10
103.2777
 20
13.4162
 30
0.0
 10
103.2777
 20
13.4162
 30
0.0
 10
103.2777
 20
13.4158
 30
0.0
 10
103.2777
 20
13.4158
 30
0.0
 10
103.2777
 20
13.4158
 30
0.0
 10
103.2777
 20
13.4158
 30
0.0
 10
103.2777
 20
13.4162
 30
0.0
 10
103.2777
 20
13.4162
 30
0.0
  0
SPLINE
  5
C6
330
1F
100
AcDbEntity
  8
layer 1
 62
     7
100
AcDbSpline
210
0.0
220
0.0
230
1.0
 70
    11
 71
     3
 72
    20
 73
    16
 74
     0
 42
0.0000000001
 43
0.0000000001
 12
1.0
 22
0.0
 32
0.0
 13
1.0
 23
0.0
 33
0.0
 40
0.0
 40
0.0
 40
0.0
 40
0.0
 40
0.2
 40
0.2
 40
0.2
 40
0.2
 40
0.4
 40
0.4
 40
0.4
 40
0.4
 40
0.6
 40
0.6
 40
0.6
 40
0.6
 40
1.0
 40
1.0
 40
1.0
 40
1.0
 10
103.2777
 20
13.4162
 30
0.0
 10
103.2777
 20
14.1282
 30
0.0
 10
102.7003
 20
14.7055
 30
0.0
 10
101.9882
 20
14.7055
 30
0.0
 10
101.9882
 20
14.7055
 30
0.0
 10
101.276
 20
14.7055
 30
0.0
 10
100.6987
 20
14.1282
 30
0.0
 10
100.6987
 20
13.4162
 30
0.0
 10
100.6987
 20
13.4162
 30
0.0
 10
100.6986
 20
12.704
 30
0.0
 10
101.2759
 20
12.1269
 30
0.0
 10
101.988
 20
12.1269
 30
0.0
 10
101.988
 20
12.1269
 30
0.0
 10
102.7002
 20
12.1269
 30
0.0
 10
103.2777
 20
12.704
 30
0.0
 10
103.2777
 20
13.4162
 30
0.0
  0
SPLINE
  5
C7
330
1F
100
AcDbEntity
  8
layer 1
 62
     7
100
AcDbSpline
210
0.0
220
0.0
230
1.0
 70
    11
 71
     3
 72
    20
 73
    16
 74
     0
 42
0.0000000001
 43
0.0000000001
 12
1.0
 22
0.0
 32
0.0
 13
1.0
 23
0.0
 33
0.0
 40
0.0
 40
0.0
 40
0.0
 40
0.0
 40
0.2
 40
0.2
 40
0.2
 40
0.2
 40
0.4
 40
0.4
 40
0.4
 40
0.4
 40
0.6
 40
0.6
 40
0.6
 40
0.6
 40
1.0
 40
1.0
 40
1.0
 40
1.0
 10
103.2777
 20
13.4162
 30
0.0
 10
103.2777
 20
14.1282
 30
0.0
 10
102.7003
 20
14.7055
 30
0.0
 10
101.9882
 20
14.7055
 30
0.0
 10
101.9882
 20
14.7055
 30
0.0
 10
101.276
 20
14.7055
 30
0.0
 10
100.6987
 20
14.1282
 30
0.0
 10
100.6987
 20
13.4162
 30
0.0
 10
100.6987
 20
13.4162
 30
0.0
 10
100.6986
 20
12.704
 30
0.0
 10
101.2759
 20
12.1269
 30
0.0
 10
101.988
 20
12.1269
 30
0.0
 10
101.988
 20
12.1269
 30
0.0
 10
102.7002
 20
12.1269
 30
0.0
 10
103.2777
 20
12.704
 30
0.0
 10
103.2777
 20
13.4162
 30
0.0
  0
SPLINE
  5
C8
330
1F
100
AcDbEntity
  8
layer 1
 62
     7
100
AcDbSpline
210
0.0
220
0.0
230
1.0
 70
    11
 71
     3
 72
    20
 73
    16
 74
     0
 42
0.0000000001
 43
0.0000000001
 12
1.0
 22
0.0
 32
0.0
 13
1.0
 23
0.0
 33
0.0
 40
0.0
 40
0.0
 40
0.0
 40
0.0
 40
0.2
 40
0.2
 40
0.2
 40
0.2
 40
0.4
 40
0.4
 40
0.4
 40
0.4
 40
0.6
 40
0.6
 40
0.6
 40
0.6
 40
1.0
 40
1.0
 40
1.0
 40
1.0
 10
103.2777
 20
13.4162
 30
0.0
 10
103.2777
 20
14.1282
 30
0.0
 10
102.7003
 20
14.7055
 30
0.0
 10
101.9882
 20
14.7055
 30
0.0
 10
101.9882
 20
14.7055
 30
0.0
 10
101.276
 20
14.7055
 30
0.0
 10
100.6987
 20
14.1282
 30
0.0
 10
100.6987
 20
13.4162
 30
0.0
 10
100.6987
 20
13.4162
 30
0.0
 10
100.6986
 20
12.704
 30
0.0
 10
101.2759
 20
12.1269
 30
0.0
 10
101.988
 20
12.1269
 30
0.0
 10
101.988
 20
12.1269
 30
0.0
 10
102.7002
 20
12.1269
 30
0.0
 10
103.2777
 20
12.704
 30
0.0
 10
103.2777
 20
13.4162
 30
0.0
  0
SPLINE
  5
C9
330
1F
100
AcDbEntity
  8
layer 1
 62
     7
100
AcDbSpline
210
0.0
220
0.0
230
1.0
 70
    11
 71
     3
 72
    20
 73
    16
 74
     0
 42
0.0000000001
 43
0.0000000001
 12
1.0
 22
0.0
 32
0.0
 13
1.0
 23
0.0
 33
0.0
 40
0.0
 40
0.0
 40
0.0
 40
0.0
 40
0.2
 40
0.2
 40
0.2
 40
0.2
 40
0.4
 40
0.4
 40
0.4
 40
0.4
 40
0.6
 40
0.6
 40
0.6
 40
0.6
 40
1.0
 40
1.0
 40
1.0
 40
1.0
 10
103.2777
 20
13.4161
 30
0.0
 10
103.2777
 20
14.1282
 30
0.0
 10
102.7003
 20
14.7054
 30
0.0
 10
101.9882
 20
14.7054
 30
0.0
 10
101.9882
 20
14.7054
 30
0.0
 10
101.276
 20
14.7054
 30
0.0
 10
100.6987
 20
14.1282
 30
0.0
 10
100.6987
 20
13.4161
 30
0.0
 10
100.6987
 20
13.4161
 30
0.0
 10
100.6986
 20
12.704
 30
0.0
 10
101.2759
 20
12.1267
 30
0.0
 10
101.988
 20
12.1267
 30
0.0
 10
101.988
 20
12.1267
 30
0.0
 10
102.7002
 20
12.1267
 30
0.0
 10
103.2777
 20
12.704
 30
0.0
 10
103.2777
 20
13.4161
 30
0.0
  0
SPLINE
  5
CA
330
1F
100
AcDbEntity
  8
layer 1
 62
     7
100
AcDbSpline
210
0.0
220
0.0
230
1.0
 70
    11
 71
     3
 72
    20
 73
    16
 74
     0
 42
0.0000000001
 43
0.0000000001
 12
1.0
 22
0.0
 32
0.0
 13
1.0
 23
0.0
 33
0.0
 40
0.0
 40
0.0
 40
0.0
 40
0.0
 40
0.2
 40
0.2
 40
0.2
 40
0.2
 40
0.4
 40
0.4
 40
0.4
 40
0.4
 40
0.6
 40
0.6
 40
0.6
 40
0.6
 40
1.0
 40
1.0
 40
1.0
 40
1.0
 10
103.2777
 20
13.4161
 30
0.0
 10
103.2777
 20
14.1282
 30
0.0
 10
102.7003
 20
14.7054
 30
0.0
 10
101.9882
 20
14.7054
 30
0.0
 10
101.9882
 20
14.7054
 30
0.0
 10
101.276
 20
14.7054
 30
0.0
 10
100.6987
 20
14.1282
 30
0.0
 10
100.6987
 20
13.4161
 30
0.0
 10
100.6987
 20
13.4161
 30
0.0
 10
100.6986
 20
12.704
 30
0.0
 10
101.2759
 20
12.1267
 30
0.0
 10
101.988
 20
12.1267
 30
0.0
 10
101.988
 20
12.1267
 30
0.0
 10
102.7002
 20
12.1267
 30
0.0
 10
103.2777
 20
12.704
 30
0.0
 10
103.2777
 20
13.4161
 30
0.0
  0
SPLINE
  5
CB
330
1F
100
AcDbEntity
  8
layer 1
 62
     7
100
AcDbSpline
210
0.0
220
0.0
230
1.0
 70
    11
 71
     3
 72
    20
 73
    16
 74
     0
 42
0.0000000001
 43
0.0000000001
 12
1.0
 22
0.0
 32
0.0
 13
1.0
 23
0.0
 33
0.0
 40
0.0
 40
0.0
 40
0.0
 40
0.0
 40
0.2
 40
0.2
 40
0.2
 40
0.2
 40
0.4
 40
0.4
 40
0.4
 40
0.4
 40
0.6
 40
0.6
 40
0.6
 40
0.6
 40
1.0
 40
1.0
 40
1.0
 40
1.0
 10
103.2777
 20
13.4161
 30
0.0
 10
103.2777
 20
14.1282
 30
0.0
 10
102.7003
 20
14.7054
 30
0.0
 10
101.9882
 20
14.7054
 30
0.0
 10
101.9882
 20
14.7054
 30
0.0
 10
101.276
 20
14.7054
 30
0.0
 10
100.6987
 20
14.1282
 30
0.0
 10
100.6987
 20
13.4161
 30
0.0
 10
100.6987
 20
13.4161
 30
0.0
 10
100.6986
 20
12.704
 30
0.0
 10
101.2759
 20
12.1267
 30
0.0
 10
101.988
 20
12.1267
 30
0.0
 10
101.988
 20
12.1267
 30
0.0
 10
102.7002
 20
12.1267
 30
0.0
 10
103.2777
 20
12.704
 30
0.0
 10
103.2777
 20
13.4161
 30
0.0
  0
SPLINE
  5
CC
330
1F
100
AcDbEntity
  8
layer 1
 62
     7
100
AcDbSpline
210
0.0
220
0.0
230
1.0
 70
    11
 71
     3
 72
    20
 73
    16
 74
     0
 42
0.0000000001
 43
0.0000000001
 12
1.0
 22
0.0
 32
0.0
 13
1.0
 23
0.0
 33
0.0
 40
0.0
 40
0.0
 40
0.0
 40
0.0
 40
0.2
 40
0.2
 40
0.2
 40
0.2
 40
0.4
 40
0.4
 40
0.4
 40
0.4
 40
0.6
 40
0.6
 40
0.6
 40
0.6
 40
1.0
 40
1.0
 40
1.0
 40
1.0
 10
103.2777
 20
13.4161
 30
0.0
 10
103.2777
 20
14.1282
 30
0.0
 10
102.7003
 20
14.7054
 30
0.0
 10
101.9882
 20
14.7054
 30
0.0
 10
101.9882
 20
14.7054
 30
0.0
 10
101.276
 20
14.7054
 30
0.0
 10
100.6987
 20
14.1282
 30
0.0
 10
100.6987
 20
13.4161
 30
0.0
 10
100.6987
 20
13.4161
 30
0.0
 10
100.6986
 20
12.704
 30
0.0
 10
101.2759
 20
12.1267
 30
0.0
 10
101.988
 20
12.1267
 30
0.0
 10
101.988
 20
12.1267
 30
0.0
 10
102.7002
 20
12.1267
 30
0.0
 10
103.2777
 20
12.704
 30
0.0
 10
103.2777
 20
13.4161
 30
0.0
  0
SPLINE
  5
CD
330
1F
100
AcDbEntity
  8
layer 1
 62
     7
100
AcDbSpline
210
0.0
220
0.0
230
1.0
 70
    11
 71
     3
 72
    20
 73
    16
 74
     0
 42
0.0000000001
 43
0.0000000001
 12
1.0
 22
0.0
 32
0.0
 13
1.0
 23
0.0
 33
0.0
 40
0.0
 40
0.0
 40
0.0
 40
0.0
 40
0.2
 40
0.2
 40
0.2
 40
0.2
 40
0.4
 40
0.4
 40
0.4
 40
0.4
 40
0.6
 40
0.6
 40
0.6
 40
0.6
 40
1.0
 40
1.0
 40
1.0
 40
1.0
 10
103.2777
 20
13.4161
 30
0.0
 10
103.2777
 20
14.1281
 30
0.0
 10
102.7003
 20
14.7054
 30
0.0
 10
101.9882
 20
14.7054
 30
0.0
 10
101.9882
 20
14.7054
 30
0.0
 10
101.276
 20
14.7054
 30
0.0
 10
100.6987
 20
14.1281
 30
0.0
 10
100.6987
 20
13.4161
 30
0.0
 10
100.6987
 20
13.4161
 30
0.0
 10
100.6986
 20
12.704
 30
0.0
 10
101.2759
 20
12.1267
 30
0.0
 10
101.988
 20
12.1267
 30
0.0
 10
101.988
 20
12.1267
 30
0.0
 10
102.7002
 20
12.1267
 30
0.0
 10
103.2777
 20
12.7039
 30
0.0
 10
103.2777
 20
13.4161
 30
0.0
  0
SPLINE
  5
CE
330
1F
100
AcDbEntity
  8
layer 1
 62
     7
100
AcDbSpline
210
0.0
220
0.0
230
1.0
 70
    11
 71
     3
 72
    20
 73
    16
 74
     0
 42
0.0000000001
 43
0.0000000001
 12
1.0
 22
0.0
 32
0.0
 13
1.0
 23
0.0
 33
0.0
 40
0.0
 40
0.0
 40
0.0
 40
0.0
 40
0.2
 40
0.2
 40
0.2
 40
0.2
 40
0.4
 40
0.4
 40
0.4
 40
0.4
 40
0.6
 40
0.6
 40
0.6
 40
0.6
 40
1.0
 40
1.0
 40
1.0
 40
1.0
 10
103.2777
 20
13.4161
 30
0.0
 10
103.2777
 20
14.1281
 30
0.0
 10
102.7003
 20
14.7054
 30
0.0
 10
101.9882
 20
14.7054
 30
0.0
 10
101.9882
 20
14.7054
 30
0.0
 10
101.276
 20
14.7054
 30
0.0
 10
100.6987
 20
14.1281
 30
0.0
 10
100.6987
 20
13.4161
 30
0.0
 10
100.6987
 20
13.4161
 30
0.0
 10
100.6986
 20
12.7039
 30
0.0
 10
101.2759
 20
12.1267
 30
0.0
 10
101.988
 20
12.1267
 30
0.0
 10
101.988
 20
12.1267
 30
0.0
 10
102.7002
 20
12.1267
 30
0.0
 10
103.2777
 20
12.7039
 30
0.0
 10
103.2777
 20
13.4161
 30
0.0
  0
SPLINE
  5
CF
330
1F
100
AcDbEntity
  8
layer 1
 62
     7
100
AcDbSpline
210
0.0
220
0.0
230
1.0
 70
    11
 71
     3
 72
    20
 73
    16
 74
     0
 42
0.0000000001
 43
0.0000000001
 12
1.0
 22
0.0
 32
0.0
 13
1.0
 23
0.0
 33
0.0
 40
0.0
 40
0.0
 40
0.0
 40
0.0
 40
0.2
 40
0.2
 40
0.2
 40
0.2
 40
0.4
 40
0.4
 40
0.4
 40
0.4
 40
0.6
 40
0.6
 40
0.6
 40
0.6
 40
1.0
 40
1.0
 40
1.0
 40
1.0
 10
103.2777
 20
13.4161
 30
0.0
 10
103.2777
 20
14.1281
 30
0.0
 10
102.7003
 20
14.7054
 30
0.0
 10
101.9882
 20
14.7054
 30
0.0
 10
101.9882
 20
14.7054
 30
0.0
 10
101.276
 20
14.7054
 30
0.0
 10
100.6987
 20
14.1281
 30
0.0
 10
100.6987
 20
13.4161
 30
0.0
 10
100.6987
 20
13.4161
 30
0.0
 10
100.6986
 20
12.7039
 30
0.0
 10
101.2759
 20
12.1267
 30
0.0
 10
101.988
 20
12.1267
 30
0.0
 10
101.988
 20
12.1267
 30
0.0
 10
102.7002
 20
12.1267
 30
0.0
 10
103.2777
 20
12.7039
 30
0.0
 10
103.2777
 20
13.4161
 30
0.0
  0
SPLINE
  5
D0
330
1F
100
AcDbEntity
  8
layer 1
 62
     7
100
AcDbSpline
210
0.0
220
0.0
230
1.0
 70
    11
 71
     3
 72
    20
 73
    16
 74
     0
 42
0.0000000001
 43
0.0000000001
 12
1.0
 22
0.0
 32
0.0
 13
1.0
 23
0.0
 33
0.0
 40
0.0
 40
0.0
 40
0.0
 40
0.0
 40
0.2
 40
0.2
 40
0.2
 40
0.2
 40
0.4
 40
0.4
 40
0.4
 40
0.4
 40
0.6
 40
0.6
 40
0.6
 40
0.6
 40
1.0
 40
1.0
 40
1.0
 40
1.0
 10
103.2777
 20
13.4161
 30
0.0
 10
103.2777
 20
14.1281
 30
0.0
 10
102.7003
 20
14.7054
 30
0.0
 10
101.9882
 20
14.7054
 30
0.0
 10
101.9882
 20
14.7054
 30
0.0
 10
101.276
 20
14.7054
 30
0.0
 10
100.6987
 20
14.1281
 30
0.0
 10
100.6987
 20
13.4161
 30
0.0
 10
100.6987
 20
13.4161
 30
0.0
 10
100.6986
 20
12.7039
 30
0.0
 10
101.2759
 20
12.1267
 30
0.0
 10
101.988
 20
12.1267
 30
0.0
 10
101.988
 20
12.1267
 30
0.0
 10
102.7002
 20
12.1267
 30
0.0
 10
103.2777
 20
12.7039
 30
0.0
 10
103.2777
 20
13.4161
 30
0.0
  0
SPLINE
  5
D1
330
1F
100
AcDbEntity
  8
layer 1
 62
     7
100
AcDbSpline
210
0.0
220
0.0
230
1.0
 70
    11
 71
     3
 72
    20
 73
    16
 74
     0
 42
0.0000000001
 43
0.0000000001
 12
1.0
 22
0.0
 32
0.0
 13
1.0
 23
0.0
 33
0.0
 40
0.0
 40
0.0
 40
0.0
 40
0.0
 40
0.2
 40
0.2
 40
0.2
 40
0.2
 40
0.4
 40
0.4
 40
0.4
 40
0.4
 40
0.6
 40
0.6
 40
0.6
 40
0.6
 40
1.0
 40
1.0
 40
1.0
 40
1.0
 10
103.2777
 20
13.4159
 30
0.0
 10
103.2777
 20
14.1281
 30
0.0
 10
102.7003
 20
14.7053
 30
0.0
 10
101.9882
 20
14.7053
 30
0.0
 10
101.9882
 20
14.7053
 30
0.0
 10
101.276
 20
14.7053
 30
0.0
 10
100.6987
 20
14.1281
 30
0.0
 10
100.6987
 20
13.4159
 30
0.0
 10
100.6987
 20
13.4159
 30
0.0
 10
100.6986
 20
12.7039
 30
0.0
 10
101.2759
 20
12.1266
 30
0.0
 10
101.988
 20
12.1266
 30
0.0
 10
101.988
 20
12.1266
 30
0.0
 10
102.7002
 20
12.1266
 30
0.0
 10
103.2777
 20
12.7039
 30
0.0
 10
103.2777
 20
13.4159
 30
0.0
  0
SPLINE
  5
D2
330
1F
100
AcDbEntity
  8
layer 1
 62
     7
100
AcDbSpline
210
0.0
220
0.0
230
1.0
 70
    11
 71
     3
 72
    20
 73
    16
 74
     0
 42
0.0000000001
 43
0.0000000001
 12
1.0
 22
0.0
 32
0.0
 13
1.0
 23
0.0
 33
0.0
 40
0.0
 40
0.0
 40
0.0
 40
0.0
 40
0.2
 40
0.2
 40
0.2
 40
0.2
 40
0.4
 40
0.4
 40
0.4
 40
0.4
 40
0.6
 40
0.6
 40
0.6
 40
0.6
 40
1.0
 40
1.0
 40
1.0
 40
1.0
 10
103.2777
 20
13.4159
 30
0.0
 10
103.2777
 20
14.1281
 30
0.0
 10
102.7003
 20
14.7053
 30
0.0
 10
101.9882
 20
14.7053
 30
0.0
 10
101.9882
 20
14.7053
 30
0.0
 10
101.276
 20
14.7053
 30
0.0
 10
100.6987
 20
14.1281
 30
0.0
 10
100.6987
 20
13.4159
 30
0.0
 10
100.6987
 20
13.4159
 30
0.0
 10
100.6986
 20
12.7039
 30
0.0
 10
101.2759
 20
12.1266
 30
0.0
 10
101.988
 20
12.1266
 30
0.0
 10
101.988
 20
12.1266
 30
0.0
 10
102.7002
 20
12.1266
 30
0.0
 10
103.2777
 20
12.7039
 30
0.0
 10
103.2777
 20
13.4159
 30
0.0
  0
SPLINE
  5
D3
330
1F
100
AcDbEntity
  8
layer 1
 62
     7
100
AcDbSpline
210
0.0
220
0.0
230
1.0
 70
    11
 71
     3
 72
    20
 73
    16
 74
     0
 42
0.0000000001
 43
0.0000000001
 12
1.0
 22
0.0
 32
0.0
 13
1.0
 23
0.0
 33
0.0
 40
0.0
 40
0.0
 40
0.0
 40
0.0
 40
0.2
 40
0.2
 40
0.2
 40
0.2
 40
0.4
 40
0.4
 40
0.4
 40
0.4
 40
0.6
 40
0.6
 40
0.6
 40
0.6
 40
1.0
 40
1.0
 40
1.0
 40
1.0
 10
103.2777
 20
13.4159
 30
0.0
 10
103.2777
 20
14.1281
 30
0.0
 10
102.7003
 20
14.7053
 30
0.0
 10
101.9882
 20
14.7053
 30
0.0
 10
101.9882
 20
14.7053
 30
0.0
 10
101.276
 20
14.7053
 30
0.0
 10
100.6987
 20
14.1281
 30
0.0
 10
100.6987
 20
13.4159
 30
0.0
 10
100.6987
 20
13.4159
 30
0.0
 10
100.6986
 20
12.7039
 30
0.0
 10
101.2759
 20
12.1266
 30
0.0
 10
101.988
 20
12.1266
 30
0.0
 10
101.988
 20
12.1266
 30
0.0
 10
102.7002
 20
12.1266
 30
0.0
 10
103.2777
 20
12.7039
 30
0.0
 10
103.2777
 20
13.4159
 30
0.0
  0
SPLINE
  5
D4
330
1F
100
AcDbEntity
  8
layer 1
 62
     7
100
AcDbSpline
210
0.0
220
0.0
230
1.0
 70
    11
 71
     3
 72
    20
 73
    16
 74
     0
 42
0.0000000001
 43
0.0000000001
 12
1.0
 22
0.0
 32
0.0
 13
1.0
 23
0.0
 33
0.0
 40
0.0
 40
0.0
 40
0.0
 40
0.0
 40
0.2
 40
0.2
 40
0.2
 40
0.2
 40
0.4
 40
0.4
 40
0.4
 40
0.4
 40
0.6
 40
0.6
 40
0.6
 40
0.6
 40
1.0
 40
1.0
 40
1.0
 40
1.0
 10
103.2777
 20
13.4159
 30
0.0
 10
103.2777
 20
14.128
 30
0.0
 10
102.7003
 20
14.7053
 30
0.0
 10
101.9882
 20
14.7053
 30
0.0
 10
101.9882
 20
14.7053
 30
0.0
 10
101.276
 20
14.7053
 30
0.0
 10
100.6987
 20
14.128
 30
0.0
 10
100.6987
 20
13.4159
 30
0.0
 10
100.6987
 20
13.4159
 30
0.0
 10
100.6986
 20
12.7039
 30
0.0
 10
101.2759
 20
12.1266
 30
0.0
 10
101.988
 20
12.1266
 30
0.0
 10
101.988
 20
12.1266
 30
0.0
 10
102.7002
 20
12.1266
 30
0.0
 10
103.2777
 20
12.7039
 30
0.0
 10
103.2777
 20
13.4159
 30
0.0
  0
SPLINE
  5
D5
330
1F
100
AcDbEntity
  8
layer 1
 62
     7
100
AcDbSpline
210
0.0
220
0.0
230
1.0
 70
    11
 71
     3
 72
    20
 73
    16
 74
     0
 42
0.0000000001
 43
0.0000000001
 12
1.0
 22
0.0
 32
0.0
 13
1.0
 23
0.0
 33
0.0
 40
0.0
 40
0.0
 40
0.0
 40
0.0
 40
0.2
 40
0.2
 40
0.2
 40
0.2
 40
0.4
 40
0.4
 40
0.4
 40
0.4
 40
0.6
 40
0.6
 40
0.6
 40
0.6
 40
1.0
 40
1.0
 40
1.0
 40
1.0
 10
103.2777
 20
13.4159
 30
0.0
 10
103.2777
 20
14.128
 30
0.0
 10
102.7003
 20
14.7053
 30
0.0
 10
101.9882
 20
14.7053
 30
0.0
 10
101.9882
 20
14.7053
 30
0.0
 10
101.276
 20
14.7053
 30
0.0
 10
100.6987
 20
14.128
 30
0.0
 10
100.6987
 20
13.4159
 30
0.0
 10
100.6987
 20
13.4159
 30
0.0
 10
100.6986
 20
12.7038
 30
0.0
 10
101.2759
 20
12.1266
 30
0.0
 10
101.988
 20
12.1266
 30
0.0
 10
101.988
 20
12.1266
 30
0.0
 10
102.7002
 20
12.1266
 30
0.0
 10
103.2777
 20
12.7038
 30
0.0
 10
103.2777
 20
13.4159
 30
0.0
  0
SPLINE
  5
D6
330
1F
100
AcDbEntity
  8
layer 1
 62
     7
100
AcDbSpline
210
0.0
220
0.0
230
1.0
 70
    11
 71
     3
 72
    20
 73
    16
 74
     0
 42
0.0000000001
 43
0.0000000001
 12
1.0
 22
0.0
 32
0.0
 13
1.0
 23
0.0
 33
0.0
 40
0.0
 40
0.0
 40
0.0
 40
0.0
 40
0.2
 40
0.2
 40
0.2
 40
0.2
 40
0.4
 40
0.4
 40
0.4
 40
0.4
 40
0.6
 40
0.6
 40
0.6
 40
0.6
 40
1.0
 40
1.0
 40
1.0
 40
1.0
 10
103.2777
 20
13.4159
 30
0.0
 10
103.2777
 20
14.128
 30
0.0
 10
102.7003
 20
14.7053
 30
0.0
 10
101.9882
 20
14.7053
 30
0.0
 10
101.9882
 20
14.7053
 30
0.0
 10
101.276
 20
14.7053
 30
0.0
 10
100.6987
 20
14.128
 30
0.0
 10
100.6987
 20
13.4159
 30
0.0
 10
100.6987
 20
13.4159
 30
0.0
 10
100.6986
 20
12.7038
 30
0.0
 10
101.2759
 20
12.1266
 30
0.0
 10
101.988
 20
12.1266
 30
0.0
 10
101.988
 20
12.1266
 30
0.0
 10
102.7002
 20
12.1266
 30
0.0
 10
103.2777
 20
12.7038
 30
0.0
 10
103.2777
 20
13.4159
 30
0.0
  0
SPLINE
  5
D7
330
1F
100
AcDbEntity
  8
layer 1
 62
     7
100
AcDbSpline
210
0.0
220
0.0
230
1.0
 70
    11
 71
     3
 72
    20
 73
    16
 74
     0
 42
0.0000000001
 43
0.0000000001
 12
1.0
 22
0.0
 32
0.0
 13
1.0
 23
0.0
 33
0.0
 40
0.0
 40
0.0
 40
0.0
 40
0.0
 40
0.2
 40
0.2
 40
0.2
 40
0.2
 40
0.4
 40
0.4
 40
0.4
 40
0.4
 40
0.6
 40
0.6
 40
0.6
 40
0.6
 40
1.0
 40
1.0
 40
1.0
 40
1.0
 10
103.2777
 20
13.4159
 30
0.0
 10
103.2777
 20
14.128
 30
0.0
 10
102.7003
 20
14.7053
 30
0.0
 10
101.9882
 20
14.7053
 30
0.0
 10
101.9882
 20
14.7053
 30
0.0
 10
101.276
 20
14.7053
 30
0.0
 10
100.6987
 20
14.128
 30
0.0
 10
100.6987
 20
13.4159
 30
0.0
 10
100.6987
 20
13.4159
 30
0.0
 10
100.6986
 20
12.7038
 30
0.0
 10
101.2759
 20
12.1266
 30
0.0
 10
101.988
 20
12.1266
 30
0.0
 10
101.988
 20
12.1266
 30
0.0
 10
102.7002
 20
12.1266
 30
0.0
 10
103.2777
 20
12.7038
 30
0.0
 10
103.2777
 20
13.4159
 30
0.0
  0
SPLINE
  5
D8
330
1F
100
AcDbEntity
  8
layer 1
 62
     7
100
AcDbSpline
210
0.0
220
0.0
230
1.0
 70
    11
 71
     3
 72
    20
 73
    16
 74
     0
 42
0.0000000001
 43
0.0000000001
 12
1.0
 22
0.0
 32
0.0
 13
1.0
 23
0.0
 33
0.0
 40
0.0
 40
0.0
 40
0.0
 40
0.0
 40
0.2
 40
0.2
 40
0.2
 40
0.2
 40
0.4
 40
0.4
 40
0.4
 40
0.4
 40
0.6
 40
0.6
 40
0.6
 40
0.6
 40
1.0
 40
1.0
 40
1.0
 40
1.0
 10
103.2777
 20
13.4158
 30
0.0
 10
103.2777
 20
14.128
 30
0.0
 10
102.7003
 20
14.7052
 30
0.0
 10
101.9882
 20
14.7052
 30
0.0
 10
101.9882
 20
14.7052
 30
0.0
 10
101.276
 20
14.7052
 30
0.0
 10
100.6987
 20
14.128
 30
0.0
 10
100.6987
 20
13.4159
 30
0.0
 10
100.6987
 20
13.4159
 30
0.0
 10
100.6986
 20
12.7038
 30
0.0
 10
101.2759
 20
12.1266
 30
0.0
 10
101.988
 20
12.1265
 30
0.0
 10
101.988
 20
12.1265
 30
0.0
 10
102.7002
 20
12.1265
 30
0.0
 10
103.2777
 20
12.7038
 30
0.0
 10
103.2777
 20
13.4158
 30
0.0
  0
SPLINE
  5
D9
330
1F
100
AcDbEntity
  8
layer 1
 62
     7
100
AcDbSpline
210
0.0
220
0.0
230
1.0
 70
    11
 71
     3
 72
    20
 73
    16
 74
     0
 42
0.0000000001
 43
0.0000000001
 12
1.0
 22
0.0
 32
0.0
 13
1.0
 23
0.0
 33
0.0
 40
0.0
 40
0.0
 40
0.0
 40
0.0
 40
0.2
 40
0.2
 40
0.2
 40
0.2
 40
0.4
 40
0.4
 40
0.4
 40
0.4
 40
0.6
 40
0.6
 40
0.6
 40
0.6
 40
1.0
 40
1.0
 40
1.0
 40
1.0
 10
103.2777
 20
13.4158
 30
0.0
 10
103.2777
 20
14.128
 30
0.0
 10
102.7003
 20
14.7052
 30
0.0
 10
101.9882
 20
14.7052
 30
0.0
 10
101.9882
 20
14.7052
 30
0.0
 10
101.276
 20
14.7052
 30
0.0
 10
100.6987
 20
14.128
 30
0.0
 10
100.6987
 20
13.4158
 30
0.0
 10
100.6987
 20
13.4158
 30
0.0
 10
100.6986
 20
12.7038
 30
0.0
 10
101.2759
 20
12.1265
 30
0.0
 10
101.988
 20
12.1265
 30
0.0
 10
101.988
 20
12.1265
 30
0.0
 10
102.7002
 20
12.1265
 30
0.0
 10
103.2777
 20
12.7038
 30
0.0
 10
103.2777
 20
13.4158
 30
0.0
  0
SPLINE
  5
DA
330
1F
100
AcDbEntity
  8
layer 1
 62
     7
100
AcDbSpline
210
0.0
220
0.0
230
1.0
 70
    11
 71
     3
 72
    32
 73
    28
 74
     0
 42
0.0000000001
 43
0.0000000001
 12
1.0
 22
0.0
 32
0.0
 13
1.0
 23
0.0
 33
0.0
 40
0.0
 40
0.0
 40
0.0
 40
0.0
 40
0.125
 40
0.125
 40
0.125
 40
0.125
 40
0.25
 40
0.25
 40
0.25
 40
0.25
 40
0.375
 40
0.375
 40
0.375
 40
0.375
 40
0.5
 40
0.5
 40
0.5
 40
0.5
 40
0.625
 40
0.625
 40
0.625
 40
0.625
 40
0.75
 40
0.75
 40
0.75
 40
0.75
 40
1.0
 40
1.0
 40
1.0
 40
1.0
 10
118.2822
 20
24.0836
 30
0.0
 10
118.2822
 20
26.7014
 30
0.0
 10
118.2822
 20
29.3195
 30
0.0
 10
118.2822
 20
31.9375
 30
0.0
 10
118.2822
 20
31.9375
 30
0.0
 10
122.1016
 20
32.1405
 30
0.0
 10
125.0913
 20
34.6255
 30
0.0
 10
127.6601
 20
38.2676
 30
0.0
 10
127.6601
 20
38.2676
 30
0.0
 10
127.7797
 20
36.4701
 30
0.0
 10
127.2135
 20
34.4645
 30
0.0
 10
127.7036
 20
32.667
 30
0.0
 10
127.7036
 20
32.667
 30
0.0
 10
124.4798
 20
29.6546
 30
0.0
 10
125.0003
 20
25.8329
 30
0.0
 10
126.4664
 20
21.9518
 30
0.0
 10
126.4664
 20
21.9518
 30
0.0
 10
127.9174
 20
17.7852
 30
0.0
 10
128.8723
 20
13.783
 30
0.0
 10
126.6051
 20
12.3611
 30
0.0
 10
126.6051
 20
12.3611
 30
0.0
 10
125.2836
 20
14.6813
 30
0.0
 10
123.4334
 20
16.6056
 30
0.0
 10
120.8613
 20
17.9878
 30
0.0
 10
120.8613
 20
17.9878
 30
0.0
 10
118.975
 20
18.3777
 30
0.0
 10
118.5919
 20
21.1721
 30
0.0
 10
118.2822
 20
24.0836
 30
0.0
  0
SPLINE
  5
DB
330
1F
100
AcDbEntity
  8
layer 1
 62
     7
100
AcDbSpline
210
0.0
220
0.0
230
1.0
 70
    11
 71
     3
 72
    48
 73
    44
 74
     0
 42
0.0000000001
 43
0.0000000001
 12
1.0
 22
0.0
 32
0.0
 13
1.0
 23
0.0
 33
0.0
 40
0.0
 40
0.0
 40
0.0
 40
0.0
 40
0.0833333333333333
 40
0.0833333333333333
 40
0.0833333333333333
 40
0.0833333333333333
 40
0.1666666666666667
 40
0.1666666666666667
 40
0.1666666666666667
 40
0.1666666666666667
 40
0.25
 40
0.25
 40
0.25
 40
0.25
 40
0.3333333333333333
 40
0.3333333333333333
 40
0.3333333333333333
 40
0.3333333333333333
 40
0.4166666666666667
 40
0.4166666666666667
 40
0.4166666666666667
 40
0.4166666666666667
 40
0.5
 40
0.5
 40
0.5
 40
0.5
 40
0.5833333333333334
 40
0.5833333333333334
 40
0.5833333333333334
 40
0.5833333333333334
 40
0.6666666666666666
 40
0.6666666666666666
 40
0.6666666666666666
 40
0.6666666666666666
 40
0.75
 40
0.75
 40
0.75
 40
0.75
 40
0.8333333333333334
 40
0.8333333333333334
 40
0.8333333333333334
 40
0.8333333333333334
 40
1.0
 40
1.0
 40
1.0
 40
1.0
 10
44.3139
 20
44.8322
 30
0.0
 10
45.7518
 20
41.2611
 30
0.0
 10
48.957
 20
40.2605
 30
0.0
 10
53.5746
 20
41.3154
 30
0.0
 10
53.5746
 20
41.3154
 30
0.0
 10
56.7935
 20
39.8336
 30
0.0
 10
60.0123
 20
38.3519
 30
0.0
 10
63.2312
 20
36.87
 30
0.0
 10
63.2312
 20
36.87
 30
0.0
 10
60.6207
 20
34.1795
 30
0.0
 10
58.5458
 20
31.2208
 30
0.0
 10
57.0914
 20
27.9519
 30
0.0
 10
57.0914
 20
27.9519
 30
0.0
 10
54.2163
 20
31.1822
 30
0.0
 10
51.2295
 20
33.9665
 30
0.0
 10
48.0652
 20
36.0403
 30
0.0
 10
48.0652
 20
36.0403
 30
0.0
 10
43.6062
 20
29.4251
 30
0.0
 10
41.5995
 20
21.9926
 30
0.0
 10
44.0796
 20
13.0644
 30
0.0
 10
44.0796
 20
13.0644
 30
0.0
 10
40.11
 20
14.0965
 30
0.0
 10
35.025
 20
14.6734
 30
0.0
 10
29.321
 20
14.017
 30
0.0
 10
29.321
 20
14.017
 30
0.0
 10
29.321
 20
24.7234
 30
0.0
 10
29.321
 20
35.5324
 30
0.0
 10
29.321
 20
46.2388
 30
0.0
 10
29.321
 20
46.2388
 30
0.0
 10
31.2318
 20
46.1215
 30
0.0
 10
33.5762
 20
46.0043
 30
0.0
 10
35.4871
 20
45.887
 30
0.0
 10
35.4871
 20
45.887
 30
0.0
 10
32.9478
 20
41.9296
 30
0.0
 10
31.7169
 20
36.8634
 30
0.0
 10
32.3572
 20
30.8825
 30
0.0
 10
32.3572
 20
30.8825
 30
0.0
 10
39.207
 20
34.6164
 30
0.0
 10
40.1341
 20
40.0084
 30
0.0
 10
39.7423
 20
45.7698
 30
0.0
 10
39.7423
 20
45.7698
 30
0.0
 10
41.2662
 20
45.4573
 30
0.0
 10
42.7901
 20
45.1447
 30
0.0
 10
44.3139
 20
44.8322
 30
0.0
  0
SPLINE
  5
DC
330
1F
100
AcDbEntity
  8
layer 1
 62
     7
100
AcDbSpline
210
0.0
220
0.0
230
1.0
 70
    11
 71
     3
 72
    20
 73
    16
 74
     0
 42
0.0000000001
 43
0.0000000001
 12
1.0
 22
0.0
 32
0.0
 13
1.0
 23
0.0
 33
0.0
 40
0.0
 40
0.0
 40
0.0
 40
0.0
 40
0.2
 40
0.2
 40
0.2
 40
0.2
 40
0.4
 40
0.4
 40
0.4
 40
0.4
 40
0.6
 40
0.6
 40
0.6
 40
0.6
 40
1.0
 40
1.0
 40
1.0
 40
1.0
 10
53.6602
 20
16.4951
 30
0.0
 10
54.5802
 20
18.9188
 30
0.0
 10
55.7033
 20
18.3002
 30
0.0
 10
56.9124
 20
16.3866
 30
0.0
 10
56.9124
 20
16.3866
 30
0.0
 10
56.351
 20
22.7391
 30
0.0
 10
52.7645
 20
26.8916
 30
0.0
 10
48.9985
 20
30.9135
 30
0.0
 10
48.9985
 20
30.9135
 30
0.0
 10
46.5296
 20
25.9463
 30
0.0
 10
45.6117
 20
21.0649
 30
0.0
 10
48.3482
 20
16.3866
 30
0.0
 10
48.3482
 20
16.3866
 30
0.0
 10
49.9773
 20
20.9481
 30
0.0
 10
51.7417
 20
21.1847
 30
0.0
 10
53.6602
 20
16.4951
 30
0.0
  0
SPLINE
  5
DD
330
1F
100
AcDbEntity
  8
layer 1
 62
     7
100
AcDbSpline
210
0.0
220
0.0
230
1.0
 70
    11
 71
     3
 72
    28
 73
    24
 74
     0
 42
0.0000000001
 43
0.0000000001
 12
1.0
 22
0.0
 32
0.0
 13
1.0
 23
0.0
 33
0.0
 40
0.0
 40
0.0
 40
0.0
 40
0.0
 40
0.1428571428571428
 40
0.1428571428571428
 40
0.1428571428571428
 40
0.1428571428571428
 40
0.2857142857142857
 40
0.2857142857142857
 40
0.2857142857142857
 40
0.2857142857142857
 40
0.4285714285714285
 40
0.4285714285714285
 40
0.4285714285714285
 40
0.4285714285714285
 40
0.5714285714285714
 40
0.5714285714285714
 40
0.5714285714285714
 40
0.5714285714285714
 40
0.7142857142857143
 40
0.7142857142857143
 40
0.7142857142857143
 40
0.7142857142857143
 40
1.0
 40
1.0
 40
1.0
 40
1.0
 10
59.948
 20
22.5659
 30
0.0
 10
64.3055
 20
26.4502
 30
0.0
 10
67.7737
 20
30.4618
 30
0.0
 10
68.0787
 20
34.9247
 30
0.0
 10
68.0787
 20
34.9247
 30
0.0
 10
70.3837
 20
33.9851
 30
0.0
 10
72.567
 20
33.0455
 30
0.0
 10
74.5831
 20
32.1059
 30
0.0
 10
74.5831
 20
32.1059
 30
0.0
 10
75.7114
 20
29.6513
 30
0.0
 10
79.098
 20
28.7058
 30
0.0
 10
86.4514
 20
28.2886
 30
0.0
 10
86.4514
 20
28.2886
 30
0.0
 10
88.4662
 20
26.1262
 30
0.0
 10
89.398
 20
23.1799
 30
0.0
 10
91.2782
 20
21.0482
 30
0.0
 10
91.2782
 20
21.0482
 30
0.0
 10
71.4913
 20
25.7515
 30
0.0
 10
66.6609
 20
17.9056
 30
0.0
 10
60.8153
 20
12.8091
 30
0.0
 10
60.8153
 20
12.8091
 30
0.0
 10
61.3934
 20
16.3505
 30
0.0
 10
61.1044
 20
19.6029
 30
0.0
 10
59.948
 20
22.5659
 30
0.0
  0
SPLINE
  5
DE
330
1F
100
AcDbEntity
  8
layer 1
 62
     7
100
AcDbSpline
210
0.0
220
0.0
230
1.0
 70
    11
 71
     3
 72
    32
 73
    28
 74
     0
 42
0.0000000001
 43
0.0000000001
 12
1.0
 22
0.0
 32
0.0
 13
1.0
 23
0.0
 33
0.0
 40
0.0
 40
0.0
 40
0.0
 40
0.0
 40
0.125
 40
0.125
 40
0.125
 40
0.125
 40
0.25
 40
0.25
 40
0.25
 40
0.25
 40
0.375
 40
0.375
 40
0.375
 40
0.375
 40
0.5
 40
0.5
 40
0.5
 40
0.5
 40
0.625
 40
0.625
 40
0.625
 40
0.625
 40
0.75
 40
0.75
 40
0.75
 40
0.75
 40
1.0
 40
1.0
 40
1.0
 40
1.0
 10
69.5964
 20
12.7007
 30
0.0
 10
68.5847
 20
13.2667
 30
0.0
 10
67.5729
 20
13.3647
 30
0.0
 10
66.5609
 20
13.3511
 30
0.0
 10
66.5609
 20
13.3511
 30
0.0
 10
68.5023
 20
15.6115
 30
0.0
 10
71.0155
 20
16.7284
 30
0.0
 10
73.8243
 20
17.2538
 30
0.0
 10
73.8243
 20
17.2538
 30
0.0
 10
73.5983
 20
15.101
 30
0.0
 10
74.3037
 20
13.4804
 30
0.0
 10
76.1009
 20
12.4839
 30
0.0
 10
76.1009
 20
12.4839
 30
0.0
 10
73.7202
 20
10.7089
 30
0.0
 10
71.0375
 20
9.236
 30
0.0
 10
68.0787
 20
8.0391
 30
0.0
 10
68.0787
 20
8.0391
 30
0.0
 10
68.8052
 20
8.6153
 30
0.0
 10
69.4497
 20
9.2327
 30
0.0
 10
69.5964
 20
10.0988
 30
0.0
 10
69.5964
 20
10.0988
 30
0.0
 10
68.8557
 20
10.4959
 30
0.0
 10
68.3132
 20
10.497
 30
0.0
 10
67.8618
 20
10.3157
 30
0.0
 10
67.8618
 20
10.3157
 30
0.0
 10
68.5994
 20
11.1107
 30
0.0
 10
69.148
 20
11.9058
 30
0.0
 10
69.5964
 20
12.7007
 30
0.0
  0
SPLINE
  5
DF
330
1F
100
AcDbEntity
  8
layer 1
 62
     7
100
AcDbSpline
210
0.0
220
0.0
230
1.0
 70
    11
 71
     3
 72
    28
 73
    24
 74
     0
 42
0.0000000001
 43
0.0000000001
 12
1.0
 22
0.0
 32
0.0
 13
1.0
 23
0.0
 33
0.0
 40
0.0
 40
0.0
 40
0.0
 40
0.0
 40
0.1428571428571428
 40
0.1428571428571428
 40
0.1428571428571428
 40
0.1428571428571428
 40
0.2857142857142857
 40
0.2857142857142857
 40
0.2857142857142857
 40
0.2857142857142857
 40
0.4285714285714285
 40
0.4285714285714285
 40
0.4285714285714285
 40
0.4285714285714285
 40
0.5714285714285714
 40
0.5714285714285714
 40
0.5714285714285714
 40
0.5714285714285714
 40
0.7142857142857143
 40
0.7142857142857143
 40
0.7142857142857143
 40
0.7142857142857143
 40
1.0
 40
1.0
 40
1.0
 40
1.0
 10
30.1353
 20
8.9064
 30
0.0
 10
35.3797
 20
9.916
 30
0.0
 10
40.8652
 20
10.2516
 30
0.0
 10
44.4453
 20
7.0634
 30
0.0
 10
44.4453
 20
7.0634
 30
0.0
 10
43.0546
 20
7.0181
 30
0.0
 10
41.6743
 20
6.9674
 30
0.0
 10
40.8678
 20
6.6298
 30
0.0
 10
40.8678
 20
6.6298
 30
0.0
 10
40.986
 20
6.0154
 30
0.0
 10
41.5798
 20
5.4012
 30
0.0
 10
42.2772
 20
4.7868
 30
0.0
 10
42.2772
 20
4.7868
 30
0.0
 10
41.4823
 20
4.9883
 30
0.0
 10
40.6872
 20
5.0916
 30
0.0
 10
39.8921
 20
5.0037
 30
0.0
 10
39.8921
 20
5.0037
 30
0.0
 10
39.7686
 20
3.0447
 30
0.0
 10
40.896
 20
1.8198
 30
0.0
 10
41.9519
 20
0.4505
 30
0.0
 10
41.9519
 20
0.4505
 30
0.0
 10
36.8624
 20
1.3958
 30
0.0
 10
32.9122
 20
4.8895
 30
0.0
 10
30.1353
 20
8.9064
 30
0.0
  0
SPLINE
  5
E0
330
1F
100
AcDbEntity
  8
layer 1
 62
     7
100
AcDbSpline
210
0.0
220
0.0
230
1.0
 70
    11
 71
     3
 72
    20
 73
    16
 74
     0
 42
0.0000000001
 43
0.0000000001
 12
1.0
 22
0.0
 32
0.0
 13
1.0
 23
0.0
 33
0.0
 40
0.0
 40
0.0
 40
0.0
 40
0.0
 40
0.2
 40
0.2
 40
0.2
 40
0.2
 40
0.4
 40
0.4
 40
0.4
 40
0.4
 40
0.6
 40
0.6
 40
0.6
 40
0.6
 40
1.0
 40
1.0
 40
1.0
 40
1.0
 10
54.8526
 20
2.7271
 30
0.0
 10
52.9967
 20
2.7271
 30
0.0
 10
51.4922
 20
1.2225
 30
0.0
 10
51.4922
 20
-0.6335
 30
0.0
 10
51.4922
 20
-0.6335
 30
0.0
 10
51.4921
 20
-2.4895
 30
0.0
 10
52.9967
 20
-3.9941
 30
0.0
 10
54.8526
 20
-3.9941
 30
0.0
 10
54.8526
 20
-3.9941
 30
0.0
 10
56.7086
 20
-3.9941
 30
0.0
 10
58.2132
 20
-2.4895
 30
0.0
 10
58.2132
 20
-0.6335
 30
0.0
 10
58.2132
 20
-0.6335
 30
0.0
 10
58.2134
 20
1.2225
 30
0.0
 10
56.7088
 20
2.7271
 30
0.0
 10
54.8526
 20
2.7271
 30
0.0
  0
SPLINE
  5
E1
330
1F
100
AcDbEntity
  8
layer 1
 62
     7
100
AcDbSpline
210
0.0
220
0.0
230
1.0
 70
    27
 71
     3
 72
    12
 73
     8
 74
     0
 42
0.0000000001
 43
0.0000000001
 12
1.0
 22
0.0
 32
0.0
 13
1.0
 23
0.0
 33
0.0
 40
0.0
 40
0.0
 40
0.0
 40
0.0
 40
0.3333333333333333
 40
0.3333333333333333
 40
0.3333333333333333
 40
0.3333333333333333
 40
1.0
 40
1.0
 40
1.0
 40
1.0
 10
54.8526
 20
2.7271
 30
0.0
 10
54.8526
 20
2.7271
 30
0.0
 10
54.8526
 20
2.7267
 30
0.0
 10
54.8526
 20
2.7267
 30
0.0
 10
54.8526
 20
2.7267
 30
0.0
 10
54.8526
 20
2.7267
 30
0.0
 10
54.8526
 20
2.7271
 30
0.0
 10
54.8526
 20
2.7271
 30
0.0
  0
SPLINE
  5
E2
330
1F
100
AcDbEntity
  8
layer 1
 62
     7
100
AcDbSpline
210
0.0
220
0.0
230
1.0
 70
    27
 71
     3
 72
    12
 73
     8
 74
     0
 42
0.0000000001
 43
0.0000000001
 12
1.0
 22
0.0
 32
0.0
 13
1.0
 23
0.0
 33
0.0
 40
0.0
 40
0.0
 40
0.0
 40
0.0
 40
0.3333333333333333
 40
0.3333333333333333
 40
0.3333333333333333
 40
0.3333333333333333
 40
1.0
 40
1.0
 40
1.0
 40
1.0
 10
51.4922
 20
-0.6335
 30
0.0
 10
51.4922
 20
-0.6335
 30
0.0
 10
51.4922
 20
-0.6339
 30
0.0
 10
51.4922
 20
-0.6339
 30
0.0
 10
51.4922
 20
-0.6339
 30
0.0
 10
51.4922
 20
-0.6339
 30
0.0
 10
51.4922
 20
-0.6335
 30
0.0
 10
51.4922
 20
-0.6335
 30
0.0
  0
SPLINE
  5
E3
330
1F
100
AcDbEntity
  8
layer 1
 62
     7
100
AcDbSpline
210
0.0
220
0.0
230
1.0
 70
    27
 71
     3
 72
    12
 73
     8
 74
     0
 42
0.0000000001
 43
0.0000000001
 12
1.0
 22
0.0
 32
0.0
 13
1.0
 23
0.0
 33
0.0
 40
0.0
 40
0.0
 40
0.0
 40
0.0
 40
0.3333333333333333
 40
0.3333333333333333
 40
0.3333333333333333
 40
0.3333333333333333
 40
1.0
 40
1.0
 40
1.0
 40
1.0
 10
54.8526
 20
-3.9941
 30
0.0
 10
54.8526
 20
-3.9941
 30
0.0
 10
54.8526
 20
-3.9945
 30
0.0
 10
54.8526
 20
-3.9945
 30
0.0
 10
54.8526
 20
-3.9945
 30
0.0
 10
54.8526
 20
-3.9945
 30
0.0
 10
54.8526
 20
-3.9941
 30
0.0
 10
54.8526
 20
-3.9941
 30
0.0
  0
SPLINE
  5
E4
330
1F
100
AcDbEntity
  8
layer 1
 62
     7
100
AcDbSpline
210
0.0
220
0.0
230
1.0
 70
    27
 71
     3
 72
    12
 73
     8
 74
     0
 42
0.0000000001
 43
0.0000000001
 12
1.0
 22
0.0
 32
0.0
 13
1.0
 23
0.0
 33
0.0
 40
0.0
 40
0.0
 40
0.0
 40
0.0
 40
0.3333333333333333
 40
0.3333333333333333
 40
0.3333333333333333
 40
0.3333333333333333
 40
1.0
 40
1.0
 40
1.0
 40
1.0
 10
58.2132
 20
-0.6335
 30
0.0
 10
58.2132
 20
-0.6335
 30
0.0
 10
58.2132
 20
-0.6339
 30
0.0
 10
58.2132
 20
-0.6339
 30
0.0
 10
58.2132
 20
-0.6339
 30
0.0
 10
58.2132
 20
-0.6339
 30
0.0
 10
58.2132
 20
-0.6335
 30
0.0
 10
58.2132
 20
-0.6335
 30
0.0
  0
SPLINE
  5
E5
330
1F
100
AcDbEntity
  8
layer 1
 62
     7
100
AcDbSpline
210
0.0
220
0.0
230
1.0
 70
    27
 71
     3
 72
    12
 73
     8
 74
     0
 42
0.0000000001
 43
0.0000000001
 12
1.0
 22
0.0
 32
0.0
 13
1.0
 23
0.0
 33
0.0
 40
0.0
 40
0.0
 40
0.0
 40
0.0
 40
0.3333333333333333
 40
0.3333333333333333
 40
0.3333333333333333
 40
0.3333333333333333
 40
1.0
 40
1.0
 40
1.0
 40
1.0
 10
54.8526
 20
2.7271
 30
0.0
 10
54.8526
 20
2.7271
 30
0.0
 10
54.8526
 20
2.7267
 30
0.0
 10
54.8526
 20
2.7267
 30
0.0
 10
54.8526
 20
2.7267
 30
0.0
 10
54.8526
 20
2.7267
 30
0.0
 10
54.8526
 20
2.7271
 30
0.0
 10
54.8526
 20
2.7271
 30
0.0
  0
SPLINE
  5
E6
330
1F
100
AcDbEntity
  8
layer 1
 62
     7
100
AcDbSpline
210
0.0
220
0.0
230
1.0
 70
    11
 71
     3
 72
    20
 73
    16
 74
     0
 42
0.0000000001
 43
0.0000000001
 12
1.0
 22
0.0
 32
0.0
 13
1.0
 23
0.0
 33
0.0
 40
0.0
 40
0.0
 40
0.0
 40
0.0
 40
0.2
 40
0.2
 40
0.2
 40
0.2
 40
0.4
 40
0.4
 40
0.4
 40
0.4
 40
0.6
 40
0.6
 40
0.6
 40
0.6
 40
1.0
 40
1.0
 40
1.0
 40
1.0
 10
54.8526
 20
2.7271
 30
0.0
 10
52.9967
 20
2.7271
 30
0.0
 10
51.4922
 20
1.2225
 30
0.0
 10
51.4922
 20
-0.6335
 30
0.0
 10
51.4922
 20
-0.6335
 30
0.0
 10
51.4921
 20
-2.4895
 30
0.0
 10
52.9967
 20
-3.9941
 30
0.0
 10
54.8526
 20
-3.9941
 30
0.0
 10
54.8526
 20
-3.9941
 30
0.0
 10
56.7086
 20
-3.9941
 30
0.0
 10
58.2132
 20
-2.4895
 30
0.0
 10
58.2132
 20
-0.6335
 30
0.0
 10
58.2132
 20
-0.6335
 30
0.0
 10
58.2134
 20
1.2225
 30
0.0
 10
56.7088
 20
2.7271
 30
0.0
 10
54.8526
 20
2.7271
 30
0.0
  0
SPLINE
  5
E7
330
1F
100
AcDbEntity
  8
layer 1
 62
     7
100
AcDbSpline
210
0.0
220
0.0
230
1.0
 70
    11
 71
     3
 72
    20
 73
    16
 74
     0
 42
0.0000000001
 43
0.0000000001
 12
1.0
 22
0.0
 32
0.0
 13
1.0
 23
0.0
 33
0.0
 40
0.0
 40
0.0
 40
0.0
 40
0.0
 40
0.2
 40
0.2
 40
0.2
 40
0.2
 40
0.4
 40
0.4
 40
0.4
 40
0.4
 40
0.6
 40
0.6
 40
0.6
 40
0.6
 40
1.0
 40
1.0
 40
1.0
 40
1.0
 10
54.8526
 20
2.7271
 30
0.0
 10
52.9967
 20
2.7271
 30
0.0
 10
51.4922
 20
1.2225
 30
0.0
 10
51.4922
 20
-0.6335
 30
0.0
 10
51.4922
 20
-0.6335
 30
0.0
 10
51.4921
 20
-2.4895
 30
0.0
 10
52.9967
 20
-3.9941
 30
0.0
 10
54.8526
 20
-3.9941
 30
0.0
 10
54.8526
 20
-3.9941
 30
0.0
 10
56.7086
 20
-3.9941
 30
0.0
 10
58.2132
 20
-2.4895
 30
0.0
 10
58.2132
 20
-0.6335
 30
0.0
 10
58.2132
 20
-0.6335
 30
0.0
 10
58.2134
 20
1.2225
 30
0.0
 10
56.7088
 20
2.7271
 30
0.0
 10
54.8526
 20
2.7271
 30
0.0
  0
SPLINE
  5
E8
330
1F
100
AcDbEntity
  8
layer 1
 62
     7
100
AcDbSpline
210
0.0
220
0.0
230
1.0
 70
    11
 71
     3
 72
    20
 73
    16
 74
     0
 42
0.0000000001
 43
0.0000000001
 12
1.0
 22
0.0
 32
0.0
 13
1.0
 23
0.0
 33
0.0
 40
0.0
 40
0.0
 40
0.0
 40
0.0
 40
0.2
 40
0.2
 40
0.2
 40
0.2
 40
0.4
 40
0.4
 40
0.4
 40
0.4
 40
0.6
 40
0.6
 40
0.6
 40
0.6
 40
1.0
 40
1.0
 40
1.0
 40
1.0
 10
54.8526
 20
2.7271
 30
0.0
 10
52.9967
 20
2.7271
 30
0.0
 10
51.4922
 20
1.2225
 30
0.0
 10
51.4922
 20
-0.6335
 30
0.0
 10
51.4922
 20
-0.6335
 30
0.0
 10
51.4921
 20
-2.4895
 30
0.0
 10
52.9967
 20
-3.9941
 30
0.0
 10
54.8526
 20
-3.9941
 30
0.0
 10
54.8526
 20
-3.9941
 30
0.0
 10
56.7086
 20
-3.9941
 30
0.0
 10
58.2132
 20
-2.4896
 30
0.0
 10
58.2132
 20
-0.6335
 30
0.0
 10
58.2132
 20
-0.6335
 30
0.0
 10
58.2134
 20
1.2225
 30
0.0
 10
56.7088
 20
2.7271
 30
0.0
 10
54.8526
 20
2.7271
 30
0.0
  0
SPLINE
  5
E9
330
1F
100
AcDbEntity
  8
layer 1
 62
     7
100
AcDbSpline
210
0.0
220
0.0
230
1.0
 70
    11
 71
     3
 72
    20
 73
    16
 74
     0
 42
0.0000000001
 43
0.0000000001
 12
1.0
 22
0.0
 32
0.0
 13
1.0
 23
0.0
 33
0.0
 40
0.0
 40
0.0
 40
0.0
 40
0.0
 40
0.2
 40
0.2
 40
0.2
 40
0.2
 40
0.4
 40
0.4
 40
0.4
 40
0.4
 40
0.6
 40
0.6
 40
0.6
 40
0.6
 40
1.0
 40
1.0
 40
1.0
 40
1.0
 10
54.8526
 20
2.7269
 30
0.0
 10
52.9967
 20
2.7269
 30
0.0
 10
51.4922
 20
1.2225
 30
0.0
 10
51.4922
 20
-0.6335
 30
0.0
 10
51.4922
 20
-0.6335
 30
0.0
 10
51.4921
 20
-2.4896
 30
0.0
 10
52.9967
 20
-3.9941
 30
0.0
 10
54.8526
 20
-3.9942
 30
0.0
 10
54.8526
 20
-3.9942
 30
0.0
 10
56.7086
 20
-3.9942
 30
0.0
 10
58.2132
 20
-2.4896
 30
0.0
 10
58.2132
 20
-0.6336
 30
0.0
 10
58.2132
 20
-0.6336
 30
0.0
 10
58.2134
 20
1.2224
 30
0.0
 10
56.7088
 20
2.7269
 30
0.0
 10
54.8526
 20
2.7269
 30
0.0
  0
SPLINE
  5
EA
330
1F
100
AcDbEntity
  8
layer 1
 62
     7
100
AcDbSpline
210
0.0
220
0.0
230
1.0
 70
    11
 71
     3
 72
    20
 73
    16
 74
     0
 42
0.0000000001
 43
0.0000000001
 12
1.0
 22
0.0
 32
0.0
 13
1.0
 23
0.0
 33
0.0
 40
0.0
 40
0.0
 40
0.0
 40
0.0
 40
0.2
 40
0.2
 40
0.2
 40
0.2
 40
0.4
 40
0.4
 40
0.4
 40
0.4
 40
0.6
 40
0.6
 40
0.6
 40
0.6
 40
1.0
 40
1.0
 40
1.0
 40
1.0
 10
54.8526
 20
2.7269
 30
0.0
 10
52.9967
 20
2.7269
 30
0.0
 10
51.4922
 20
1.2224
 30
0.0
 10
51.4922
 20
-0.6336
 30
0.0
 10
51.4922
 20
-0.6336
 30
0.0
 10
51.4921
 20
-2.4896
 30
0.0
 10
52.9967
 20
-3.9942
 30
0.0
 10
54.8526
 20
-3.9942
 30
0.0
 10
54.8526
 20
-3.9942
 30
0.0
 10
56.7086
 20
-3.9942
 30
0.0
 10
58.2132
 20
-2.4896
 30
0.0
 10
58.2132
 20
-0.6336
 30
0.0
 10
58.2132
 20
-0.6336
 30
0.0
 10
58.2134
 20
1.2224
 30
0.0
 10
56.7088
 20
2.7269
 30
0.0
 10
54.8526
 20
2.7269
 30
0.0
  0
SPLINE
  5
EB
330
1F
100
AcDbEntity
  8
layer 1
 62
     7
100
AcDbSpline
210
0.0
220
0.0
230
1.0
 70
    11
 71
     3
 72
    20
 73
    16
 74
     0
 42
0.0000000001
 43
0.0000000001
 12
1.0
 22
0.0
 32
0.0
 13
1.0
 23
0.0
 33
0.0
 40
0.0
 40
0.0
 40
0.0
 40
0.0
 40
0.2
 40
0.2
 40
0.2
 40
0.2
 40
0.4
 40
0.4
 40
0.4
 40
0.4
 40
0.6
 40
0.6
 40
0.6
 40
0.6
 40
1.0
 40
1.0
 40
1.0
 40
1.0
 10
54.8526
 20
2.7269
 30
0.0
 10
52.9967
 20
2.7269
 30
0.0
 10
51.4922
 20
1.2224
 30
0.0
 10
51.4922
 20
-0.6336
 30
0.0
 10
51.4922
 20
-0.6336
 30
0.0
 10
51.4921
 20
-2.4896
 30
0.0
 10
52.9967
 20
-3.9942
 30
0.0
 10
54.8526
 20
-3.9942
 30
0.0
 10
54.8526
 20
-3.9942
 30
0.0
 10
56.7086
 20
-3.9942
 30
0.0
 10
58.2132
 20
-2.4896
 30
0.0
 10
58.2132
 20
-0.6336
 30
0.0
 10
58.2132
 20
-0.6336
 30
0.0
 10
58.2134
 20
1.2224
 30
0.0
 10
56.7088
 20
2.7269
 30
0.0
 10
54.8526
 20
2.7269
 30
0.0
  0
SPLINE
  5
EC
330
1F
100
AcDbEntity
  8
layer 1
 62
     7
100
AcDbSpline
210
0.0
220
0.0
230
1.0
 70
    11
 71
     3
 72
    20
 73
    16
 74
     0
 42
0.0000000001
 43
0.0000000001
 12
1.0
 22
0.0
 32
0.0
 13
1.0
 23
0.0
 33
0.0
 40
0.0
 40
0.0
 40
0.0
 40
0.0
 40
0.2
 40
0.2
 40
0.2
 40
0.2
 40
0.4
 40
0.4
 40
0.4
 40
0.4
 40
0.6
 40
0.6
 40
0.6
 40
0.6
 40
1.0
 40
1.0
 40
1.0
 40
1.0
 10
54.8526
 20
2.7269
 30
0.0
 10
52.9967
 20
2.7269
 30
0.0
 10
51.4922
 20
1.2224
 30
0.0
 10
51.4922
 20
-0.6336
 30
0.0
 10
51.4922
 20
-0.6336
 30
0.0
 10
51.4921
 20
-2.4896
 30
0.0
 10
52.9967
 20
-3.9942
 30
0.0
 10
54.8526
 20
-3.9942
 30
0.0
 10
54.8526
 20
-3.9942
 30
0.0
 10
56.7086
 20
-3.9942
 30
0.0
 10
58.2132
 20
-2.4896
 30
0.0
 10
58.2132
 20
-0.6336
 30
0.0
 10
58.2132
 20
-0.6336
 30
0.0
 10
58.2134
 20
1.2224
 30
0.0
 10
56.7088
 20
2.7269
 30
0.0
 10
54.8526
 20
2.7269
 30
0.0
  0
SPLINE
  5
ED
330
1F
100
AcDbEntity
  8
layer 1
 62
     7
100
AcDbSpline
210
0.0
220
0.0
230
1.0
 70
    11
 71
     3
 72
    20
 73
    16
 74
     0
 42
0.0000000001
 43
0.0000000001
 12
1.0
 22
0.0
 32
0.0
 13
1.0
 23
0.0
 33
0.0
 40
0.0
 40
0.0
 40
0.0
 40
0.0
 40
0.2
 40
0.2
 40
0.2
 40
0.2
 40
0.4
 40
0.4
 40
0.4
 40
0.4
 40
0.6
 40
0.6
 40
0.6
 40
0.6
 40
1.0
 40
1.0
 40
1.0
 40
1.0
 10
54.8526
 20
2.7269
 30
0.0
 10
52.9967
 20
2.7269
 30
0.0
 10
51.4922
 20
1.2224
 30
0.0
 10
51.4922
 20
-0.6336
 30
0.0
 10
51.4922
 20
-0.6336
 30
0.0
 10
51.4921
 20
-2.4896
 30
0.0
 10
52.9967
 20
-3.9942
 30
0.0
 10
54.8526
 20
-3.9942
 30
0.0
 10
54.8526
 20
-3.9942
 30
0.0
 10
56.7086
 20
-3.9942
 30
0.0
 10
58.2132
 20
-2.4896
 30
0.0
 10
58.2132
 20
-0.6336
 30
0.0
 10
58.2132
 20
-0.6336
 30
0.0
 10
58.2134
 20
1.2224
 30
0.0
 10
56.7088
 20
2.7269
 30
0.0
 10
54.8526
 20
2.7269
 30
0.0
  0
SPLINE
  5
EE
330
1F
100
AcDbEntity
  8
layer 1
 62
     7
100
AcDbSpline
210
0.0
220
0.0
230
1.0
 70
    11
 71
     3
 72
    20
 73
    16
 74
     0
 42
0.0000000001
 43
0.0000000001
 12
1.0
 22
0.0
 32
0.0
 13
1.0
 23
0.0
 33
0.0
 40
0.0
 40
0.0
 40
0.0
 40
0.0
 40
0.2
 40
0.2
 40
0.2
 40
0.2
 40
0.4
 40
0.4
 40
0.4
 40
0.4
 40
0.6
 40
0.6
 40
0.6
 40
0.6
 40
1.0
 40
1.0
 40
1.0
 40
1.0
 10
54.8526
 20
2.7269
 30
0.0
 10
52.9967
 20
2.7269
 30
0.0
 10
51.4922
 20
1.2224
 30
0.0
 10
51.4922
 20
-0.6336
 30
0.0
 10
51.4922
 20
-0.6336
 30
0.0
 10
51.4921
 20
-2.4896
 30
0.0
 10
52.9967
 20
-3.9942
 30
0.0
 10
54.8526
 20
-3.9942
 30
0.0
 10
54.8526
 20
-3.9942
 30
0.0
 10
56.7086
 20
-3.9942
 30
0.0
 10
58.2132
 20
-2.4896
 30
0.0
 10
58.2132
 20
-0.6336
 30
0.0
 10
58.2132
 20
-0.6336
 30
0.0
 10
58.2134
 20
1.2224
 30
0.0
 10
56.7088
 20
2.7269
 30
0.0
 10
54.8526
 20
2.7269
 30
0.0
  0
SPLINE
  5
EF
330
1F
100
AcDbEntity
  8
layer 1
 62
     7
100
AcDbSpline
210
0.0
220
0.0
230
1.0
 70
    11
 71
     3
 72
    20
 73
    16
 74
     0
 42
0.0000000001
 43
0.0000000001
 12
1.0
 22
0.0
 32
0.0
 13
1.0
 23
0.0
 33
0.0
 40
0.0
 40
0.0
 40
0.0
 40
0.0
 40
0.2
 40
0.2
 40
0.2
 40
0.2
 40
0.4
 40
0.4
 40
0.4
 40
0.4
 40
0.6
 40
0.6
 40
0.6
 40
0.6
 40
1.0
 40
1.0
 40
1.0
 40
1.0
 10
54.8526
 20
2.7269
 30
0.0
 10
52.9967
 20
2.7269
 30
0.0
 10
51.4922
 20
1.2224
 30
0.0
 10
51.4922
 20
-0.6336
 30
0.0
 10
51.4922
 20
-0.6336
 30
0.0
 10
51.4921
 20
-2.4896
 30
0.0
 10
52.9967
 20
-3.9942
 30
0.0
 10
54.8526
 20
-3.9942
 30
0.0
 10
54.8526
 20
-3.9942
 30
0.0
 10
56.7086
 20
-3.9942
 30
0.0
 10
58.2132
 20
-2.4896
 30
0.0
 10
58.2132
 20
-0.6336
 30
0.0
 10
58.2132
 20
-0.6336
 30
0.0
 10
58.2134
 20
1.2224
 30
0.0
 10
56.7088
 20
2.7269
 30
0.0
 10
54.8526
 20
2.7269
 30
0.0
  0
SPLINE
  5
F0
330
1F
100
AcDbEntity
  8
layer 1
 62
     7
100
AcDbSpline
210
0.0
220
0.0
230
1.0
 70
    11
 71
     3
 72
    20
 73
    16
 74
     0
 42
0.0000000001
 43
0.0000000001
 12
1.0
 22
0.0
 32
0.0
 13
1.0
 23
0.0
 33
0.0
 40
0.0
 40
0.0
 40
0.0
 40
0.0
 40
0.2
 40
0.2
 40
0.2
 40
0.2
 40
0.4
 40
0.4
 40
0.4
 40
0.4
 40
0.6
 40
0.6
 40
0.6
 40
0.6
 40
1.0
 40
1.0
 40
1.0
 40
1.0
 10
54.8526
 20
2.7269
 30
0.0
 10
52.9967
 20
2.7269
 30
0.0
 10
51.4922
 20
1.2224
 30
0.0
 10
51.4922
 20
-0.6336
 30
0.0
 10
51.4922
 20
-0.6336
 30
0.0
 10
51.4921
 20
-2.4896
 30
0.0
 10
52.9967
 20
-3.9942
 30
0.0
 10
54.8526
 20
-3.9942
 30
0.0
 10
54.8526
 20
-3.9942
 30
0.0
 10
56.7086
 20
-3.9942
 30
0.0
 10
58.2132
 20
-2.4898
 30
0.0
 10
58.2132
 20
-0.6338
 30
0.0
 10
58.2132
 20
-0.6338
 30
0.0
 10
58.2134
 20
1.2224
 30
0.0
 10
56.7088
 20
2.7269
 30
0.0
 10
54.8526
 20
2.7269
 30
0.0
  0
SPLINE
  5
F1
330
1F
100
AcDbEntity
  8
layer 1
 62
     7
100
AcDbSpline
210
0.0
220
0.0
230
1.0
 70
    11
 71
     3
 72
    20
 73
    16
 74
     0
 42
0.0000000001
 43
0.0000000001
 12
1.0
 22
0.0
 32
0.0
 13
1.0
 23
0.0
 33
0.0
 40
0.0
 40
0.0
 40
0.0
 40
0.0
 40
0.2
 40
0.2
 40
0.2
 40
0.2
 40
0.4
 40
0.4
 40
0.4
 40
0.4
 40
0.6
 40
0.6
 40
0.6
 40
0.6
 40
1.0
 40
1.0
 40
1.0
 40
1.0
 10
54.8526
 20
2.7268
 30
0.0
 10
52.9967
 20
2.7268
 30
0.0
 10
51.4922
 20
1.2222
 30
0.0
 10
51.4922
 20
-0.6338
 30
0.0
 10
51.4922
 20
-0.6338
 30
0.0
 10
51.4921
 20
-2.4898
 30
0.0
 10
52.9967
 20
-3.9943
 30
0.0
 10
54.8526
 20
-3.9943
 30
0.0
 10
54.8526
 20
-3.9943
 30
0.0
 10
56.7086
 20
-3.9943
 30
0.0
 10
58.2132
 20
-2.4898
 30
0.0
 10
58.2132
 20
-0.6338
 30
0.0
 10
58.2132
 20
-0.6338
 30
0.0
 10
58.2134
 20
1.2222
 30
0.0
 10
56.7088
 20
2.7268
 30
0.0
 10
54.8526
 20
2.7268
 30
0.0
  0
SPLINE
  5
F2
330
1F
100
AcDbEntity
  8
layer 1
 62
     7
100
AcDbSpline
210
0.0
220
0.0
230
1.0
 70
    11
 71
     3
 72
    20
 73
    16
 74
     0
 42
0.0000000001
 43
0.0000000001
 12
1.0
 22
0.0
 32
0.0
 13
1.0
 23
0.0
 33
0.0
 40
0.0
 40
0.0
 40
0.0
 40
0.0
 40
0.2
 40
0.2
 40
0.2
 40
0.2
 40
0.4
 40
0.4
 40
0.4
 40
0.4
 40
0.6
 40
0.6
 40
0.6
 40
0.6
 40
1.0
 40
1.0
 40
1.0
 40
1.0
 10
54.8526
 20
2.7268
 30
0.0
 10
52.9967
 20
2.7268
 30
0.0
 10
51.4922
 20
1.2222
 30
0.0
 10
51.4922
 20
-0.6338
 30
0.0
 10
51.4922
 20
-0.6338
 30
0.0
 10
51.4921
 20
-2.4898
 30
0.0
 10
52.9967
 20
-3.9943
 30
0.0
 10
54.8526
 20
-3.9943
 30
0.0
 10
54.8526
 20
-3.9943
 30
0.0
 10
56.7086
 20
-3.9943
 30
0.0
 10
58.2132
 20
-2.4898
 30
0.0
 10
58.2132
 20
-0.6338
 30
0.0
 10
58.2132
 20
-0.6338
 30
0.0
 10
58.2134
 20
1.2222
 30
0.0
 10
56.7088
 20
2.7268
 30
0.0
 10
54.8526
 20
2.7268
 30
0.0
  0
SPLINE
  5
F3
330
1F
100
AcDbEntity
  8
layer 1
 62
     7
100
AcDbSpline
210
0.0
220
0.0
230
1.0
 70
    11
 71
     3
 72
    20
 73
    16
 74
     0
 42
0.0000000001
 43
0.0000000001
 12
1.0
 22
0.0
 32
0.0
 13
1.0
 23
0.0
 33
0.0
 40
0.0
 40
0.0
 40
0.0
 40
0.0
 40
0.2
 40
0.2
 40
0.2
 40
0.2
 40
0.4
 40
0.4
 40
0.4
 40
0.4
 40
0.6
 40
0.6
 40
0.6
 40
0.6
 40
1.0
 40
1.0
 40
1.0
 40
1.0
 10
54.8526
 20
2.7268
 30
0.0
 10
52.9967
 20
2.7268
 30
0.0
 10
51.4922
 20
1.2222
 30
0.0
 10
51.4922
 20
-0.6338
 30
0.0
 10
51.4922
 20
-0.6338
 30
0.0
 10
51.4921
 20
-2.4898
 30
0.0
 10
52.9967
 20
-3.9943
 30
0.0
 10
54.8526
 20
-3.9943
 30
0.0
 10
54.8526
 20
-3.9943
 30
0.0
 10
56.7086
 20
-3.9943
 30
0.0
 10
58.2132
 20
-2.4898
 30
0.0
 10
58.2132
 20
-0.6338
 30
0.0
 10
58.2132
 20
-0.6338
 30
0.0
 10
58.2134
 20
1.2222
 30
0.0
 10
56.7088
 20
2.7268
 30
0.0
 10
54.8526
 20
2.7268
 30
0.0
  0
SPLINE
  5
F4
330
1F
100
AcDbEntity
  8
layer 1
 62
     7
100
AcDbSpline
210
0.0
220
0.0
230
1.0
 70
    11
 71
     3
 72
    20
 73
    16
 74
     0
 42
0.0000000001
 43
0.0000000001
 12
1.0
 22
0.0
 32
0.0
 13
1.0
 23
0.0
 33
0.0
 40
0.0
 40
0.0
 40
0.0
 40
0.0
 40
0.2
 40
0.2
 40
0.2
 40
0.2
 40
0.4
 40
0.4
 40
0.4
 40
0.4
 40
0.6
 40
0.6
 40
0.6
 40
0.6
 40
1.0
 40
1.0
 40
1.0
 40
1.0
 10
54.8526
 20
2.7268
 30
0.0
 10
52.9967
 20
2.7268
 30
0.0
 10
51.4922
 20
1.2222
 30
0.0
 10
51.4922
 20
-0.6338
 30
0.0
 10
51.4922
 20
-0.6338
 30
0.0
 10
51.4921
 20
-2.4898
 30
0.0
 10
52.9967
 20
-3.9943
 30
0.0
 10
54.8526
 20
-3.9943
 30
0.0
 10
54.8526
 20
-3.9943
 30
0.0
 10
56.7086
 20
-3.9943
 30
0.0
 10
58.2132
 20
-2.4898
 30
0.0
 10
58.2132
 20
-0.6338
 30
0.0
 10
58.2132
 20
-0.6338
 30
0.0
 10
58.2134
 20
1.2222
 30
0.0
 10
56.7088
 20
2.7268
 30
0.0
 10
54.8526
 20
2.7268
 30
0.0
  0
SPLINE
  5
F5
330
1F
100
AcDbEntity
  8
layer 1
 62
     7
100
AcDbSpline
210
0.0
220
0.0
230
1.0
 70
    11
 71
     3
 72
    20
 73
    16
 74
     0
 42
0.0000000001
 43
0.0000000001
 12
1.0
 22
0.0
 32
0.0
 13
1.0
 23
0.0
 33
0.0
 40
0.0
 40
0.0
 40
0.0
 40
0.0
 40
0.2
 40
0.2
 40
0.2
 40
0.2
 40
0.4
 40
0.4
 40
0.4
 40
0.4
 40
0.6
 40
0.6
 40
0.6
 40
0.6
 40
1.0
 40
1.0
 40
1.0
 40
1.0
 10
54.8526
 20
2.7268
 30
0.0
 10
52.9967
 20
2.7268
 30
0.0
 10
51.4922
 20
1.2222
 30
0.0
 10
51.4922
 20
-0.6338
 30
0.0
 10
51.4922
 20
-0.6338
 30
0.0
 10
51.4921
 20
-2.4898
 30
0.0
 10
52.9967
 20
-3.9943
 30
0.0
 10
54.8526
 20
-3.9943
 30
0.0
 10
54.8526
 20
-3.9943
 30
0.0
 10
56.7086
 20
-3.9943
 30
0.0
 10
58.2132
 20
-2.4898
 30
0.0
 10
58.2132
 20
-0.6338
 30
0.0
 10
58.2132
 20
-0.6338
 30
0.0
 10
58.2134
 20
1.2222
 30
0.0
 10
56.7088
 20
2.7268
 30
0.0
 10
54.8526
 20
2.7268
 30
0.0
  0
SPLINE
  5
F6
330
1F
100
AcDbEntity
  8
layer 1
 62
     7
100
AcDbSpline
210
0.0
220
0.0
230
1.0
 70
    11
 71
     3
 72
    20
 73
    16
 74
     0
 42
0.0000000001
 43
0.0000000001
 12
1.0
 22
0.0
 32
0.0
 13
1.0
 23
0.0
 33
0.0
 40
0.0
 40
0.0
 40
0.0
 40
0.0
 40
0.2
 40
0.2
 40
0.2
 40
0.2
 40
0.4
 40
0.4
 40
0.4
 40
0.4
 40
0.6
 40
0.6
 40
0.6
 40
0.6
 40
1.0
 40
1.0
 40
1.0
 40
1.0
 10
54.8526
 20
2.7268
 30
0.0
 10
52.9967
 20
2.7268
 30
0.0
 10
51.4922
 20
1.2222
 30
0.0
 10
51.4922
 20
-0.6338
 30
0.0
 10
51.4922
 20
-0.6338
 30
0.0
 10
51.4921
 20
-2.4898
 30
0.0
 10
52.9967
 20
-3.9943
 30
0.0
 10
54.8526
 20
-3.9943
 30
0.0
 10
54.8526
 20
-3.9943
 30
0.0
 10
56.7086
 20
-3.9943
 30
0.0
 10
58.2132
 20
-2.4898
 30
0.0
 10
58.2132
 20
-0.6338
 30
0.0
 10
58.2132
 20
-0.6338
 30
0.0
 10
58.2134
 20
1.2222
 30
0.0
 10
56.7088
 20
2.7268
 30
0.0
 10
54.8526
 20
2.7268
 30
0.0
  0
SPLINE
  5
F7
330
1F
100
AcDbEntity
  8
layer 1
 62
     7
100
AcDbSpline
210
0.0
220
0.0
230
1.0
 70
    11
 71
     3
 72
    20
 73
    16
 74
     0
 42
0.0000000001
 43
0.0000000001
 12
1.0
 22
0.0
 32
0.0
 13
1.0
 23
0.0
 33
0.0
 40
0.0
 40
0.0
 40
0.0
 40
0.0
 40
0.2
 40
0.2
 40
0.2
 40
0.2
 40
0.4
 40
0.4
 40
0.4
 40
0.4
 40
0.6
 40
0.6
 40
0.6
 40
0.6
 40
1.0
 40
1.0
 40
1.0
 40
1.0
 10
54.8526
 20
2.7268
 30
0.0
 10
52.9967
 20
2.7268
 30
0.0
 10
51.4922
 20
1.2222
 30
0.0
 10
51.4922
 20
-0.6338
 30
0.0
 10
51.4922
 20
-0.6338
 30
0.0
 10
51.4921
 20
-2.4898
 30
0.0
 10
52.9967
 20
-3.9943
 30
0.0
 10
54.8526
 20
-3.9943
 30
0.0
 10
54.8526
 20
-3.9943
 30
0.0
 10
56.7086
 20
-3.9943
 30
0.0
 10
58.2132
 20
-2.4899
 30
0.0
 10
58.2132
 20
-0.6338
 30
0.0
 10
58.2132
 20
-0.6338
 30
0.0
 10
58.2134
 20
1.2222
 30
0.0
 10
56.7088
 20
2.7268
 30
0.0
 10
54.8526
 20
2.7268
 30
0.0
  0
SPLINE
  5
F8
330
1F
100
AcDbEntity
  8
layer 1
 62
     7
100
AcDbSpline
210
0.0
220
0.0
230
1.0
 70
    11
 71
     3
 72
    20
 73
    16
 74
     0
 42
0.0000000001
 43
0.0000000001
 12
1.0
 22
0.0
 32
0.0
 13
1.0
 23
0.0
 33
0.0
 40
0.0
 40
0.0
 40
0.0
 40
0.0
 40
0.2
 40
0.2
 40
0.2
 40
0.2
 40
0.4
 40
0.4
 40
0.4
 40
0.4
 40
0.6
 40
0.6
 40
0.6
 40
0.6
 40
1.0
 40
1.0
 40
1.0
 40
1.0
 10
54.8526
 20
2.7267
 30
0.0
 10
52.9967
 20
2.7267
 30
0.0
 10
51.4922
 20
1.2222
 30
0.0
 10
51.4922
 20
-0.6338
 30
0.0
 10
51.4922
 20
-0.6338
 30
0.0
 10
51.4921
 20
-2.4899
 30
0.0
 10
52.9967
 20
-3.9943
 30
0.0
 10
54.8526
 20
-3.9945
 30
0.0
 10
54.8526
 20
-3.9945
 30
0.0
 10
56.7086
 20
-3.9945
 30
0.0
 10
58.2132
 20
-2.4899
 30
0.0
 10
58.2132
 20
-0.6339
 30
0.0
 10
58.2132
 20
-0.6339
 30
0.0
 10
58.2134
 20
1.2221
 30
0.0
 10
56.7088
 20
2.7267
 30
0.0
 10
54.8526
 20
2.7267
 30
0.0
  0
SPLINE
  5
F9
330
1F
100
AcDbEntity
  8
layer 1
 62
     7
100
AcDbSpline
210
0.0
220
0.0
230
1.0
 70
    11
 71
     3
 72
    20
 73
    16
 74
     0
 42
0.0000000001
 43
0.0000000001
 12
1.0
 22
0.0
 32
0.0
 13
1.0
 23
0.0
 33
0.0
 40
0.0
 40
0.0
 40
0.0
 40
0.0
 40
0.2
 40
0.2
 40
0.2
 40
0.2
 40
0.4
 40
0.4
 40
0.4
 40
0.4
 40
0.6
 40
0.6
 40
0.6
 40
0.6
 40
1.0
 40
1.0
 40
1.0
 40
1.0
 10
54.8526
 20
2.7267
 30
0.0
 10
52.9967
 20
2.7267
 30
0.0
 10
51.4922
 20
1.2221
 30
0.0
 10
51.4922
 20
-0.6339
 30
0.0
 10
51.4922
 20
-0.6339
 30
0.0
 10
51.4921
 20
-2.4899
 30
0.0
 10
52.9967
 20
-3.9945
 30
0.0
 10
54.8526
 20
-3.9945
 30
0.0
 10
54.8526
 20
-3.9945
 30
0.0
 10
56.7086
 20
-3.9945
 30
0.0
 10
58.2132
 20
-2.4899
 30
0.0
 10
58.2132
 20
-0.6339
 30
0.0
 10
58.2132
 20
-0.6339
 30
0.0
 10
58.2134
 20
1.2221
 30
0.0
 10
56.7088
 20
2.7267
 30
0.0
 10
54.8526
 20
2.7267
 30
0.0
  0
SPLINE
  5
FA
330
1F
100
AcDbEntity
  8
layer 1
 62
     7
100
AcDbSpline
210
0.0
220
0.0
230
1.0
 70
    11
 71
     3
 72
    20
 73
    16
 74
     0
 42
0.0000000001
 43
0.0000000001
 12
1.0
 22
0.0
 32
0.0
 13
1.0
 23
0.0
 33
0.0
 40
0.0
 40
0.0
 40
0.0
 40
0.0
 40
0.2
 40
0.2
 40
0.2
 40
0.2
 40
0.4
 40
0.4
 40
0.4
 40
0.4
 40
0.6
 40
0.6
 40
0.6
 40
0.6
 40
1.0
 40
1.0
 40
1.0
 40
1.0
 10
69.7048
 20
-5.4036
 30
0.0
 10
73.3573
 20
-6.6006
 30
0.0
 10
73.6783
 20
-4.8581
 30
0.0
 10
72.415
 20
-1.7178
 30
0.0
 10
72.415
 20
-1.7178
 30
0.0
 10
75.8236
 20
-4.4764
 30
0.0
 10
78.7292
 20
-7.3784
 30
0.0
 10
80.1121
 20
-10.7156
 30
0.0
 10
80.1121
 20
-10.7156
 30
0.0
 10
75.7694
 20
-11.0875
 30
0.0
 10
72.2006
 20
-10.1697
 30
0.0
 10
68.729
 20
-9.0895
 30
0.0
 10
68.729
 20
-9.0895
 30
0.0
 10
72.1187
 20
-9.2538
 30
0.0
 10
72.6754
 20
-8.1302
 30
0.0
 10
69.7048
 20
-5.4036
 30
0.0
  0
SPLINE
  5
FB
330
1F
100
AcDbEntity
  8
layer 1
 62
     7
100
AcDbSpline
210
0.0
220
0.0
230
1.0
 70
    11
 71
     3
 72
    20
 73
    16
 74
     0
 42
0.0000000001
 43
0.0000000001
 12
1.0
 22
0.0
 32
0.0
 13
1.0
 23
0.0
 33
0.0
 40
0.0
 40
0.0
 40
0.0
 40
0.0
 40
0.2
 40
0.2
 40
0.2
 40
0.2
 40
0.4
 40
0.4
 40
0.4
 40
0.4
 40
0.6
 40
0.6
 40
0.6
 40
0.6
 40
1.0
 40
1.0
 40
1.0
 40
1.0
 10
36.2063
 20
-17.7622
 30
0.0
 10
37.9214
 20
-14.1507
 30
0.0
 10
40.3813
 20
-10.858
 30
0.0
 10
44.1202
 20
-8.1139
 30
0.0
 10
44.1202
 20
-8.1139
 30
0.0
 10
42.0964
 20
-12.1613
 30
0.0
 10
42.9639
 20
-13.1729
 30
0.0
 10
46.7221
 20
-11.1493
 30
0.0
 10
46.7221
 20
-11.1493
 30
0.0
 10
46.5881
 20
-13.0986
 30
0.0
 10
47.7223
 20
-13.3571
 30
0.0
 10
49.3238
 20
-12.9924
 30
0.0
 10
49.3238
 20
-12.9924
 30
0.0
 10
45.5074
 20
-16.2513
 30
0.0
 10
41.1787
 20
-17.9725
 30
0.0
 10
36.2063
 20
-17.7622
 30
0.0
  0
SPLINE
  5
FC
330
1F
100
AcDbEntity
  8
layer 1
 62
     7
100
AcDbSpline
210
0.0
220
0.0
230
1.0
 70
    11
 71
     3
 72
    16
 73
    12
 74
     0
 42
0.0000000001
 43
0.0000000001
 12
1.0
 22
0.0
 32
0.0
 13
1.0
 23
0.0
 33
0.0
 40
0.0
 40
0.0
 40
0.0
 40
0.0
 40
0.25
 40
0.25
 40
0.25
 40
0.25
 40
0.5
 40
0.5
 40
0.5
 40
0.5
 40
1.0
 40
1.0
 40
1.0
 40
1.0
 10
65.6937
 20
-25.3508
 30
0.0
 10
60.9174
 20
-22.867
 30
0.0
 10
57.2759
 20
-19.8866
 30
0.0
 10
57.1294
 20
-15.3773
 30
0.0
 10
57.1294
 20
-15.3773
 30
0.0
 10
60.7433
 20
-20.3568
 30
0.0
 10
61.36
 20
-17.4152
 30
0.0
 10
60.9236
 20
-11.6914
 30
0.0
 10
60.9236
 20
-11.6914
 30
0.0
 10
65.9846
 20
-15.3766
 30
0.0
 10
66.4237
 20
-20.2177
 30
0.0
 10
65.6937
 20
-25.3508
 30
0.0
  0
SPLINE
  5
FD
330
1F
100
AcDbEntity
  8
layer 1
 62
     7
100
AcDbSpline
210
0.0
220
0.0
230
1.0
 70
    11
 71
     3
 72
   152
 73
   148
 74
     0
 42
0.0000000001
 43
0.0000000001
 12
1.0
 22
0.0
 32
0.0
 13
1.0
 23
0.0
 33
0.0
 40
0.0
 40
0.0
 40
0.0
 40
0.0
 40
0.0263157894736842
 40
0.0263157894736842
 40
0.0263157894736842
 40
0.0263157894736842
 40
0.0526315789473684
 40
0.0526315789473684
 40
0.0526315789473684
 40
0.0526315789473684
 40
0.0789473684210526
 40
0.0789473684210526
 40
0.0789473684210526
 40
0.0789473684210526
 40
0.1052631578947368
 40
0.1052631578947368
 40
0.1052631578947368
 40
0.1052631578947368
 40
0.131578947368421
 40
0.131578947368421
 40
0.131578947368421
 40
0.131578947368421
 40
0.1578947368421053
 40
0.1578947368421053
 40
0.1578947368421053
 40
0.1578947368421053
 40
0.1842105263157895
 40
0.1842105263157895
 40
0.1842105263157895
 40
0.1842105263157895
 40
0.2105263157894737
 40
0.2105263157894737
 40
0.2105263157894737
 40
0.2105263157894737
 40
0.2368421052631579
 40
0.2368421052631579
 40
0.2368421052631579
 40
0.2368421052631579
 40
0.2631578947368421
 40
0.2631578947368421
 40
0.2631578947368421
 40
0.2631578947368421
 40
0.2894736842105263
 40
0.2894736842105263
 40
0.2894736842105263
 40
0.2894736842105263
 40
0.3157894736842105
 40
0.3157894736842105
 40
0.3157894736842105
 40
0.3157894736842105
 40
0.3421052631578947
 40
0.3421052631578947
 40
0.3421052631578947
 40
0.3421052631578947
 40
0.3684210526315789
 40
0.3684210526315789
 40
0.3684210526315789
 40
0.3684210526315789
 40
0.3947368421052632
 40
0.3947368421052632
 40
0.3947368421052632
 40
0.3947368421052632
 40
0.4210526315789473
 40
0.4210526315789473
 40
0.4210526315789473
 40
0.4210526315789473
 40
0.4473684210526316
 40
0.4473684210526316
 40
0.4473684210526316
 40
0.4473684210526316
 40
0.4736842105263158
 40
0.4736842105263158
 40
0.4736842105263158
 40
0.4736842105263158
 40
0.5
 40
0.5
 40
0.5
 40
0.5
 40
0.5263157894736842
 40
0.5263157894736842
 40
0.5263157894736842
 40
0.5263157894736842
 40
0.5526315789473685
 40
0.5526315789473685
 40
0.5526315789473685
 40
0.5526315789473685
 40
0.5789473684210527
 40
0.5789473684210527
 40
0.5789473684210527
 40
0.5789473684210527
 40
0.6052631578947368
 40
0.6052631578947368
 40
0.6052631578947368
 40
0.6052631578947368
 40
0.631578947368421
 40
0.631578947368421
 40
0.631578947368421
 40
0.631578947368421
 40
0.6578947368421053
 40
0.6578947368421053
 40
0.6578947368421053
 40
0.6578947368421053
 40
0.6842105263157895
 40
0.6842105263157895
 40
0.6842105263157895
 40
0.6842105263157895
 40
0.7105263157894737
 40
0.7105263157894737
 40
0.7105263157894737
 40
0.7105263157894737
 40
0.7368421052631579
 40
0.7368421052631579
 40
0.7368421052631579
 40
0.7368421052631579
 40
0.7631578947368421
 40
0.7631578947368421
 40
0.7631578947368421
 40
0.7631578947368421
 40
0.7894736842105263
 40
0.7894736842105263
 40
0.7894736842105263
 40
0.7894736842105263
 40
0.8157894736842105
 40
0.8157894736842105
 40
0.8157894736842105
 40
0.8157894736842105
 40
0.8421052631578947
 40
0.8421052631578947
 40
0.8421052631578947
 40
0.8421052631578947
 40
0.868421052631579
 40
0.868421052631579
 40
0.868421052631579
 40
0.868421052631579
 40
0.8947368421052632
 40
0.8947368421052632
 40
0.8947368421052632
 40
0.8947368421052632
 40
0.9210526315789473
 40
0.9210526315789473
 40
0.9210526315789473
 40
0.9210526315789473
 40
0.9473684210526315
 40
0.9473684210526315
 40
0.9473684210526315
 40
0.9473684210526315
 40
1.0
 40
1.0
 40
1.0
 40
1.0
 10
66.7777
 20
-46.1655
 30
0.0
 10
66.7772
 20
-46.1601
 30
0.0
 10
66.7767
 20
-46.1545
 30
0.0
 10
66.7763
 20
-46.1491
 30
0.0
 10
66.7763
 20
-46.1491
 30
0.0
 10
64.1472
 20
-40.8896
 30
0.0
 10
64.5126
 20
-36.5532
 30
0.0
 10
65.4768
 20
-32.3976
 30
0.0
 10
65.4768
 20
-32.3976
 30
0.0
 10
65.9458
 20
-30.3763
 30
0.0
 10
66.6102
 20
-29.8071
 30
0.0
 10
68.4038
 20
-31.4219
 30
0.0
 10
68.4038
 20
-31.4219
 30
0.0
 10
73.6909
 20
-36.1815
 30
0.0
 10
77.031
 20
-42.1217
 30
0.0
 10
76.2093
 20
-51.0439
 30
0.0
 10
76.2093
 20
-51.0439
 30
0.0
 10
77.438
 20
-51.9112
 30
0.0
 10
78.6666
 20
-52.7784
 30
0.0
 10
79.8954
 20
-53.6457
 30
0.0
 10
79.8954
 20
-53.6457
 30
0.0
 10
79.4003
 20
-49.1
 30
0.0
 10
79.8311
 20
-44.9188
 30
0.0
 10
82.1719
 20
-40.6366
 30
0.0
 10
82.1719
 20
-40.6366
 30
0.0
 10
82.9505
 20
-39.2124
 30
0.0
 10
82.6982
 20
-39.1257
 30
0.0
 10
84.1233
 20
-40.5283
 30
0.0
 10
84.1233
 20
-40.5283
 30
0.0
 10
88.9894
 20
-45.3175
 30
0.0
 10
90.5724
 20
-51.476
 30
0.0
 10
88.8933
 20
-59.4998
 30
0.0
 10
88.8933
 20
-59.4998
 30
0.0
 10
90.5916
 20
-61.0176
 30
0.0
 10
92.29
 20
-62.5354
 30
0.0
 10
93.9885
 20
-64.053
 30
0.0
 10
93.9885
 20
-64.053
 30
0.0
 10
93.8633
 20
-59.0893
 30
0.0
 10
94.4427
 20
-54.5713
 30
0.0
 10
95.6718
 20
-50.8556
 30
0.0
 10
95.6718
 20
-50.8556
 30
0.0
 10
97.0601
 20
-46.6586
 30
0.0
 10
98.3381
 20
-46.4441
 30
0.0
 10
100.4931
 20
-49.3095
 30
0.0
 10
100.4931
 20
-49.3095
 30
0.0
 10
102.4827
 20
-47.2158
 30
0.0
 10
104.8153
 20
-44.8828
 30
0.0
 10
107.3229
 20
-43.3068
 30
0.0
 10
107.3229
 20
-43.3068
 30
0.0
 10
93.4297
 20
-42.8287
 30
0.0
 10
81.1223
 20
-30.9532
 30
0.0
 10
78.486
 20
-16.2445
 30
0.0
 10
78.486
 20
-16.2445
 30
0.0
 10
89.6505
 20
-13.1562
 30
0.0
 10
99.9625
 20
-16.2511
 30
0.0
 10
109.0574
 20
-28.1696
 30
0.0
 10
109.0574
 20
-28.1696
 30
0.0
 10
107.8536
 20
-19.7676
 30
0.0
 10
105.2565
 20
-11.6379
 30
0.0
 10
100.6014
 20
-3.2354
 30
0.0
 10
100.6014
 20
-3.2354
 30
0.0
 10
99.5442
 20
-6.0842
 30
0.0
 10
98.0194
 20
-8.8536
 30
0.0
 10
95.1812
 20
-10.2821
 30
0.0
 10
95.1812
 20
-10.2821
 30
0.0
 10
88.4629
 20
-13.6631
 30
0.0
 10
86.0411
 20
-7.1171
 30
0.0
 10
86.8791
 20
-2.5222
 30
0.0
 10
86.8791
 20
-2.5222
 30
0.0
 10
87.7286
 20
2.1355
 30
0.0
 10
90.5414
 20
5.6068
 30
0.0
 10
93.4463
 20
9.2316
 30
0.0
 10
93.4463
 20
9.2316
 30
0.0
 10
89.5075
 20
8.4901
 30
0.0
 10
85.5687
 20
8.4207
 30
0.0
 10
81.6297
 20
9.2316
 30
0.0
 10
81.6297
 20
9.2316
 30
0.0
 10
78.6451
 20
6.6728
 30
0.0
 10
75.3752
 20
4.6846
 30
0.0
 10
71.873
 20
3.1607
 30
0.0
 10
71.873
 20
3.1607
 30
0.0
 10
78.3809
 20
-0.7938
 30
0.0
 10
81.7929
 20
-3.0472
 30
0.0
 10
85.9662
 20
-12.7755
 30
0.0
 10
85.9662
 20
-12.7755
 30
0.0
 10
79.1631
 20
-15.4518
 30
0.0
 10
74.4256
 20
-14.331
 30
0.0
 10
69.2713
 20
-14.1848
 30
0.0
 10
69.2713
 20
-14.1848
 30
0.0
 10
72.3883
 20
-19.3363
 30
0.0
 10
71.4747
 20
-24.9619
 30
0.0
 10
69.9216
 20
-30.663
 30
0.0
 10
69.9216
 20
-30.663
 30
0.0
 10
56.1922
 20
-26.6116
 30
0.0
 10
53.6408
 20
-22.3061
 30
0.0
 10
52.0341
 20
-17.9792
 30
0.0
 10
52.0341
 20
-17.9792
 30
0.0
 10
46.2872
 20
-22.8939
 30
0.0
 10
39.1564
 20
-23.703
 30
0.0
 10
30.6716
 20
-20.6778
 30
0.0
 10
30.6716
 20
-20.6778
 30
0.0
 10
32.3303
 20
-13.3743
 30
0.0
 10
35.7129
 20
-7.7501
 30
0.0
 10
40.6568
 20
-4.0058
 30
0.0
 10
40.6568
 20
-4.0058
 30
0.0
 10
34.846
 20
-3.4162
 30
0.0
 10
31.8396
 20
-0.5552
 30
0.0
 10
29.321
 20
3.0523
 30
0.0
 10
29.321
 20
3.0523
 30
0.0
 10
29.321
 20
-9.9207
 30
0.0
 10
29.321
 20
-22.8937
 30
0.0
 10
29.321
 20
-35.8666
 30
0.0
 10
29.321
 20
-35.8666
 30
0.0
 10
30.9295
 20
-36.1558
 30
0.0
 10
32.538
 20
-36.4447
 30
0.0
 10
34.1465
 20
-36.7339
 30
0.0
 10
34.1465
 20
-36.7339
 30
0.0
 10
31.7971
 20
-33.7553
 30
0.0
 10
31.4878
 20
-30.4521
 30
0.0
 10
30.569
 20
-27.3024
 30
0.0
 10
30.569
 20
-27.3024
 30
0.0
 10
29.7527
 20
-24.5044
 30
0.0
 10
30.3507
 20
-25.3233
 30
0.0
 10
32.5204
 20
-26.2183
 30
0.0
 10
32.5204
 20
-26.2183
 30
0.0
 10
38.2029
 20
-28.5621
 30
0.0
 10
42.1992
 20
-32.3002
 30
0.0
 10
43.9033
 20
-38.6852
 30
0.0
 10
43.9033
 20
-38.6852
 30
0.0
 10
46.2452
 20
-39.2704
 30
0.0
 10
48.625
 20
-39.8177
 30
0.0
 10
50.4079
 20
-40.9618
 30
0.0
 10
50.4079
 20
-40.9618
 30
0.0
 10
48.2174
 20
-37.4954
 30
0.0
 10
47.6334
 20
-33.8672
 30
0.0
 10
47.806
 20
-30.121
 30
0.0
 10
47.806
 20
-30.121
 30
0.0
 10
47.8663
 20
-28.8133
 30
0.0
 10
47.945
 20
-28.2688
 30
0.0
 10
49.9743
 20
-29.7958
 30
0.0
 10
49.9743
 20
-29.7958
 30
0.0
 10
53.724
 20
-32.6173
 30
0.0
 10
57.7394
 20
-35.1438
 30
0.0
 10
61.0725
 20
-43.5865
 30
0.0
 10
61.0725
 20
-43.5865
 30
0.0
 10
62.9743
 20
-44.4462
 30
0.0
 10
64.8761
 20
-45.3058
 30
0.0
 10
66.7777
 20
-46.1655
 30
0.0
  0
SPLINE
  5
FE
330
1F
100
AcDbEntity
  8
layer 1
 62
     7
100
AcDbSpline
210
0.0
220
0.0
230
1.0
 70
    11
 71
     3
 72
    28
 73
    24
 74
     0
 42
0.0000000001
 43
0.0000000001
 12
1.0
 22
0.0
 32
0.0
 13
1.0
 23
0.0
 33
0.0
 40
0.0
 40
0.0
 40
0.0
 40
0.0
 40
0.1428571428571428
 40
0.1428571428571428
 40
0.1428571428571428
 40
0.1428571428571428
 40
0.2857142857142857
 40
0.2857142857142857
 40
0.2857142857142857
 40
0.2857142857142857
 40
0.4285714285714285
 40
0.4285714285714285
 40
0.4285714285714285
 40
0.4285714285714285
 40
0.5714285714285714
 40
0.5714285714285714
 40
0.5714285714285714
 40
0.5714285714285714
 40
0.7142857142857143
 40
0.7142857142857143
 40
0.7142857142857143
 40
0.7142857142857143
 40
1.0
 40
1.0
 40
1.0
 40
1.0
 10
116.9644
 20
-2.8148
 30
0.0
 10
115.9525
 20
1.0306
 30
0.0
 10
113.3408
 20
4.343
 30
0.0
 10
110.7545
 20
7.664
 30
0.0
 10
110.7545
 20
7.664
 30
0.0
 10
113.3449
 20
5.8612
 30
0.0
 10
116.1852
 20
4.8094
 30
0.0
 10
119.293
 20
4.5591
 30
0.0
 10
119.293
 20
4.5591
 30
0.0
 10
118.2677
 20
-3.6408
 30
0.0
 10
118.3129
 20
-11.6266
 30
0.0
 10
119.8751
 20
-19.3093
 30
0.0
 10
119.8751
 20
-19.3093
 30
0.0
 10
117.6757
 20
-21.5086
 30
0.0
 10
115.4766
 20
-23.7078
 30
0.0
 10
113.2773
 20
-25.9072
 30
0.0
 10
113.2773
 20
-25.9072
 30
0.0
 10
111.6601
 20
-20.0855
 30
0.0
 10
110.0432
 20
-14.2641
 30
0.0
 10
108.426
 20
-8.4423
 30
0.0
 10
108.426
 20
-8.4423
 30
0.0
 10
113.6639
 20
-14.4553
 30
0.0
 10
120.5883
 20
-12.0029
 30
0.0
 10
116.9644
 20
-2.8148
 30
0.0
  0
SPLINE
  5
FF
330
1F
100
AcDbEntity
  8
layer 1
 62
     7
100
AcDbSpline
210
0.0
220
0.0
230
1.0
 70
    11
 71
     3
 72
    36
 73
    32
 74
     0
 42
0.0000000001
 43
0.0000000001
 12
1.0
 22
0.0
 32
0.0
 13
1.0
 23
0.0
 33
0.0
 40
0.0
 40
0.0
 40
0.0
 40
0.0
 40
0.1111111111111111
 40
0.1111111111111111
 40
0.1111111111111111
 40
0.1111111111111111
 40
0.2222222222222222
 40
0.2222222222222222
 40
0.2222222222222222
 40
0.2222222222222222
 40
0.3333333333333333
 40
0.3333333333333333
 40
0.3333333333333333
 40
0.3333333333333333
 40
0.4444444444444444
 40
0.4444444444444444
 40
0.4444444444444444
 40
0.4444444444444444
 40
0.5555555555555556
 40
0.5555555555555556
 40
0.5555555555555556
 40
0.5555555555555556
 40
0.6666666666666666
 40
0.6666666666666666
 40
0.6666666666666666
 40
0.6666666666666666
 40
0.7777777777777778
 40
0.7777777777777778
 40
0.7777777777777778
 40
0.7777777777777778
 40
1.0
 40
1.0
 40
1.0
 40
1.0
 10
146.1392
 20
-22.4143
 30
0.0
 10
146.8565
 20
-23.508
 30
0.0
 10
147.8259
 20
-24.6706
 30
0.0
 10
148.4007
 20
-25.9072
 30
0.0
 10
148.4007
 20
-25.9072
 30
0.0
 10
147.5983
 20
-16.5018
 30
0.0
 10
138.3807
 20
-9.4495
 30
0.0
 10
127.2491
 20
-2.6209
 30
0.0
 10
127.2491
 20
-2.6209
 30
0.0
 10
124.1719
 20
-13.4582
 30
0.0
 10
124.9504
 20
-23.8201
 30
0.0
 10
134.2215
 20
-31.2135
 30
0.0
 10
134.2215
 20
-31.2135
 30
0.0
 10
133.0191
 20
-27.7389
 30
0.0
 10
131.4614
 20
-24.589
 30
0.0
 10
132.8766
 20
-21.6379
 30
0.0
 10
132.8766
 20
-21.6379
 30
0.0
 10
135.003
 20
-24.5318
 30
0.0
 10
137.5843
 20
-27.3049
 30
0.0
 10
140.6387
 20
-29.7882
 30
0.0
 10
140.6387
 20
-29.7882
 30
0.0
 10
138.9239
 20
-24.2426
 30
0.0
 10
136.5967
 20
-19.6153
 30
0.0
 10
133.847
 20
-15.6223
 30
0.0
 10
133.847
 20
-15.6223
 30
0.0
 10
138.6873
 20
-17.308
 30
0.0
 10
142.4831
 20
-21.6095
 30
0.0
 10
145.7712
 20
-26.9174
 30
0.0
 10
145.7712
 20
-26.9174
 30
0.0
 10
145.9088
 20
-25.5592
 30
0.0
 10
145.8588
 20
-23.7726
 30
0.0
 10
146.1392
 20
-22.4143
 30
0.0
  0
SPLINE
  5
100
330
1F
100
AcDbEntity
  8
layer 1
 62
     7
100
AcDbSpline
210
0.0
220
0.0
230
1.0
 70
    11
 71
     3
 72
    16
 73
    12
 74
     0
 42
0.0000000001
 43
0.0000000001
 12
1.0
 22
0.0
 32
0.0
 13
1.0
 23
0.0
 33
0.0
 40
0.0
 40
0.0
 40
0.0
 40
0.0
 40
0.25
 40
0.25
 40
0.25
 40
0.25
 40
0.5
 40
0.5
 40
0.5
 40
0.5
 40
1.0
 40
1.0
 40
1.0
 40
1.0
 10
88.6353
 20
-20.0541
 30
0.0
 10
88.6353
 20
-20.0541
 30
0.0
 10
84.7651
 20
-17.3449
 30
0.0
 10
84.7651
 20
-17.3449
 30
0.0
 10
84.7651
 20
-17.3449
 30
0.0
 10
84.7651
 20
-17.3449
 30
0.0
 10
87.8614
 20
-17.7319
 30
0.0
 10
87.8614
 20
-17.7319
 30
0.0
 10
87.8614
 20
-17.7319
 30
0.0
 10
87.8614
 20
-17.7319
 30
0.0
 10
88.6353
 20
-20.0541
 30
0.0
 10
88.6353
 20
-20.0541
 30
0.0
  0
SPLINE
  5
101
330
1F
100
AcDbEntity
  8
layer 1
 62
     7
100
AcDbSpline
210
0.0
220
0.0
230
1.0
 70
    11
 71
     3
 72
    20
 73
    16
 74
     0
 42
0.0000000001
 43
0.0000000001
 12
1.0
 22
0.0
 32
0.0
 13
1.0
 23
0.0
 33
0.0
 40
0.0
 40
0.0
 40
0.0
 40
0.0
 40
0.2
 40
0.2
 40
0.2
 40
0.2
 40
0.4
 40
0.4
 40
0.4
 40
0.4
 40
0.6
 40
0.6
 40
0.6
 40
0.6
 40
1.0
 40
1.0
 40
1.0
 40
1.0
 10
93.9245
 20
-23.2792
 30
0.0
 10
93.1937
 20
-21.7742
 30
0.0
 10
92.4625
 20
-20.269
 30
0.0
 10
91.7317
 20
-18.764
 30
0.0
 10
91.7317
 20
-18.764
 30
0.0
 10
93.3041
 20
-19.3906
 30
0.0
 10
94.9751
 20
-20.115
 30
0.0
 10
96.8919
 20
-21.086
 30
0.0
 10
96.8919
 20
-21.086
 30
0.0
 10
96.8919
 20
-21.086
 30
0.0
 10
97.408
 20
-25.7304
 30
0.0
 10
97.408
 20
-25.7304
 30
0.0
 10
97.408
 20
-25.7304
 30
0.0
 10
96.2467
 20
-24.9134
 30
0.0
 10
95.0856
 20
-24.0963
 30
0.0
 10
93.9245
 20
-23.2792
 30
0.0
  0
SPLINE
  5
102
330
1F
100
AcDbEntity
  8
layer 1
 62
     7
100
AcDbSpline
210
0.0
220
0.0
230
1.0
 70
    11
 71
     3
 72
    20
 73
    16
 74
     0
 42
0.0000000001
 43
0.0000000001
 12
1.0
 22
0.0
 32
0.0
 13
1.0
 23
0.0
 33
0.0
 40
0.0
 40
0.0
 40
0.0
 40
0.0
 40
0.2
 40
0.2
 40
0.2
 40
0.2
 40
0.4
 40
0.4
 40
0.4
 40
0.4
 40
0.6
 40
0.6
 40
0.6
 40
0.6
 40
1.0
 40
1.0
 40
1.0
 40
1.0
 10
101.407
 20
-29.2135
 30
0.0
 10
101.02
 20
-27.3643
 30
0.0
 10
100.6329
 20
-25.5153
 30
0.0
 10
100.2459
 20
-23.6662
 30
0.0
 10
100.2459
 20
-23.6662
 30
0.0
 10
101.4503
 20
-24.5071
 30
0.0
 10
102.5252
 20
-25.3196
 30
0.0
 10
103.7292
 20
-26.5044
 30
0.0
 10
103.7292
 20
-26.5044
 30
0.0
 10
103.7292
 20
-28.0094
 30
0.0
 10
103.8583
 20
-29.7726
 30
0.0
 10
103.8583
 20
-31.2777
 30
0.0
 10
103.8583
 20
-31.2777
 30
0.0
 10
103.0411
 20
-30.5896
 30
0.0
 10
102.2242
 20
-29.9016
 30
0.0
 10
101.407
 20
-29.2135
 30
0.0
  0
SPLINE
  5
103
330
1F
100
AcDbEntity
  8
layer 1
 62
     7
100
AcDbSpline
210
0.0
220
0.0
230
1.0
 70
    11
 71
     3
 72
    16
 73
    12
 74
     0
 42
0.0000000001
 43
0.0000000001
 12
1.0
 22
0.0
 32
0.0
 13
1.0
 23
0.0
 33
0.0
 40
0.0
 40
0.0
 40
0.0
 40
0.0
 40
0.25
 40
0.25
 40
0.25
 40
0.25
 40
0.5
 40
0.5
 40
0.5
 40
0.5
 40
1.0
 40
1.0
 40
1.0
 40
1.0
 10
106.6964
 20
-34.3739
 30
0.0
 10
106.8684
 20
-33.2558
 30
0.0
 10
107.0404
 20
-32.1378
 30
0.0
 10
107.2123
 20
-31.0196
 30
0.0
 10
107.2123
 20
-31.0196
 30
0.0
 10
107.9742
 20
-32.6848
 30
0.0
 10
108.8149
 20
-34.4285
 30
0.0
 10
109.9216
 20
-36.438
 30
0.0
 10
109.9216
 20
-36.438
 30
0.0
 10
108.8464
 20
-35.75
 30
0.0
 10
107.7714
 20
-35.0619
 30
0.0
 10
106.6964
 20
-34.3739
 30
0.0
  0
SPLINE
  5
104
330
1F
100
AcDbEntity
  8
layer 1
 62
     7
100
AcDbSpline
210
0.0
220
0.0
230
1.0
 70
    11
 71
     3
 72
    16
 73
    12
 74
     0
 42
0.0000000001
 43
0.0000000001
 12
1.0
 22
0.0
 32
0.0
 13
1.0
 23
0.0
 33
0.0
 40
0.0
 40
0.0
 40
0.0
 40
0.0
 40
0.25
 40
0.25
 40
0.25
 40
0.25
 40
0.5
 40
0.5
 40
0.5
 40
0.5
 40
1.0
 40
1.0
 40
1.0
 40
1.0
 10
83.9911
 20
-23.9243
 30
0.0
 10
82.9274
 20
-22.1026
 30
0.0
 10
82.3887
 20
-20.5427
 30
0.0
 10
82.7011
 20
-19.4091
 30
0.0
 10
82.7011
 20
-19.4091
 30
0.0
 10
84.8511
 20
-20.742
 30
0.0
 10
87.0013
 20
-22.0753
 30
0.0
 10
89.1514
 20
-23.4082
 30
0.0
 10
89.1514
 20
-23.4082
 30
0.0
 10
87.4313
 20
-23.5803
 30
0.0
 10
85.7111
 20
-23.7523
 30
0.0
 10
83.9911
 20
-23.9243
 30
0.0
  0
SPLINE
  5
105
330
1F
100
AcDbEntity
  8
layer 1
 62
     7
100
AcDbSpline
210
0.0
220
0.0
230
1.0
 70
    11
 71
     3
 72
    20
 73
    16
 74
     0
 42
0.0000000001
 43
0.0000000001
 12
1.0
 22
0.0
 32
0.0
 13
1.0
 23
0.0
 33
0.0
 40
0.0
 40
0.0
 40
0.0
 40
0.0
 40
0.2
 40
0.2
 40
0.2
 40
0.2
 40
0.4
 40
0.4
 40
0.4
 40
0.4
 40
0.6
 40
0.6
 40
0.6
 40
0.6
 40
1.0
 40
1.0
 40
1.0
 40
1.0
 10
85.9262
 20
-27.2784
 30
0.0
 10
85.9262
 20
-27.2784
 30
0.0
 10
92.8925
 20
-26.3755
 30
0.0
 10
92.8925
 20
-26.3755
 30
0.0
 10
92.8925
 20
-26.3755
 30
0.0
 10
92.8925
 20
-26.3755
 30
0.0
 10
97.408
 20
-30.1166
 30
0.0
 10
97.408
 20
-30.1166
 30
0.0
 10
97.408
 20
-30.1166
 30
0.0
 10
97.408
 20
-30.1166
 30
0.0
 10
89.1514
 20
-30.7617
 30
0.0
 10
89.1514
 20
-30.7617
 30
0.0
 10
89.1514
 20
-30.7617
 30
0.0
 10
89.1514
 20
-30.7617
 30
0.0
 10
85.9262
 20
-27.2784
 30
0.0
 10
85.9262
 20
-27.2784
 30
0.0
  0
SPLINE
  5
106
330
1F
100
AcDbEntity
  8
layer 1
 62
     7
100
AcDbSpline
210
0.0
220
0.0
230
1.0
 70
    11
 71
     3
 72
    20
 73
    16
 74
     0
 42
0.0000000001
 43
0.0000000001
 12
1.0
 22
0.0
 32
0.0
 13
1.0
 23
0.0
 33
0.0
 40
0.0
 40
0.0
 40
0.0
 40
0.0
 40
0.2
 40
0.2
 40
0.2
 40
0.2
 40
0.4
 40
0.4
 40
0.4
 40
0.4
 40
0.6
 40
0.6
 40
0.6
 40
0.6
 40
1.0
 40
1.0
 40
1.0
 40
1.0
 10
92.2476
 20
-33.7288
 30
0.0
 10
92.2476
 20
-33.7288
 30
0.0
 10
100.762
 20
-32.5679
 30
0.0
 10
100.762
 20
-32.5679
 30
0.0
 10
100.762
 20
-32.5679
 30
0.0
 10
100.762
 20
-32.5679
 30
0.0
 10
103.2131
 20
-34.5029
 30
0.0
 10
103.2131
 20
-34.5029
 30
0.0
 10
103.2131
 20
-34.5029
 30
0.0
 10
103.2131
 20
-34.5029
 30
0.0
 10
94.6988
 20
-35.4058
 30
0.0
 10
94.6988
 20
-35.4058
 30
0.0
 10
94.6988
 20
-35.4058
 30
0.0
 10
94.6988
 20
-35.4058
 30
0.0
 10
92.2476
 20
-33.7288
 30
0.0
 10
92.2476
 20
-33.7288
 30
0.0
  0
SPLINE
  5
107
330
1F
100
AcDbEntity
  8
layer 1
 62
     7
100
AcDbSpline
210
0.0
220
0.0
230
1.0
 70
    11
 71
     3
 72
    16
 73
    12
 74
     0
 42
0.0000000001
 43
0.0000000001
 12
1.0
 22
0.0
 32
0.0
 13
1.0
 23
0.0
 33
0.0
 40
0.0
 40
0.0
 40
0.0
 40
0.0
 40
0.25
 40
0.25
 40
0.25
 40
0.25
 40
0.5
 40
0.5
 40
0.5
 40
0.5
 40
1.0
 40
1.0
 40
1.0
 40
1.0
 10
99.0848
 20
-38.244
 30
0.0
 10
101.45
 20
-37.8571
 30
0.0
 10
103.8152
 20
-37.4701
 30
0.0
 10
106.1803
 20
-37.0831
 30
0.0
 10
106.1803
 20
-37.0831
 30
0.0
 10
107.2983
 20
-38.2871
 30
0.0
 10
108.4163
 20
-39.4912
 30
0.0
 10
109.5346
 20
-40.6953
 30
0.0
 10
109.5346
 20
-40.6953
 30
0.0
 10
105.4339
 20
-40.9071
 30
0.0
 10
102.152
 20
-39.7546
 30
0.0
 10
99.0848
 20
-38.244
 30
0.0
  0
SPLINE
  5
108
330
1F
100
AcDbEntity
  8
layer 1
 62
     7
100
AcDbSpline
210
0.0
220
0.0
230
1.0
 70
    11
 71
     3
 72
    20
 73
    16
 74
     0
 42
0.0000000001
 43
0.0000000001
 12
1.0
 22
0.0
 32
0.0
 13
1.0
 23
0.0
 33
0.0
 40
0.0
 40
0.0
 40
0.0
 40
0.0
 40
0.2
 40
0.2
 40
0.2
 40
0.2
 40
0.4
 40
0.4
 40
0.4
 40
0.4
 40
0.6
 40
0.6
 40
0.6
 40
0.6
 40
1.0
 40
1.0
 40
1.0
 40
1.0
 10
114.5433
 20
-36.4503
 30
0.0
 10
114.5433
 20
-36.4503
 30
0.0
 10
114.5237
 20
-33.6271
 30
0.0
 10
114.5237
 20
-33.6271
 30
0.0
 10
114.5237
 20
-33.6271
 30
0.0
 10
114.5237
 20
-33.6271
 30
0.0
 10
115.2883
 20
-33.6468
 30
0.0
 10
115.2883
 20
-33.6468
 30
0.0
 10
115.2883
 20
-33.6468
 30
0.0
 10
115.2883
 20
-33.6468
 30
0.0
 10
115.2883
 20
-36.4111
 30
0.0
 10
115.2883
 20
-36.4111
 30
0.0
 10
115.2883
 20
-36.4111
 30
0.0
 10
115.2883
 20
-36.4111
 30
0.0
 10
114.5433
 20
-36.4503
 30
0.0
 10
114.5433
 20
-36.4503
 30
0.0
  0
SPLINE
  5
109
330
1F
100
AcDbEntity
  8
layer 1
 62
     7
100
AcDbSpline
210
0.0
220
0.0
230
1.0
 70
    11
 71
     3
 72
    20
 73
    16
 74
     0
 42
0.0000000001
 43
0.0000000001
 12
1.0
 22
0.0
 32
0.0
 13
1.0
 23
0.0
 33
0.0
 40
0.0
 40
0.0
 40
0.0
 40
0.0
 40
0.2
 40
0.2
 40
0.2
 40
0.2
 40
0.4
 40
0.4
 40
0.4
 40
0.4
 40
0.6
 40
0.6
 40
0.6
 40
0.6
 40
1.0
 40
1.0
 40
1.0
 40
1.0
 10
122.5658
 20
-27.6086
 30
0.0
 10
122.5658
 20
-27.6086
 30
0.0
 10
120.675
 20
-22.5213
 30
0.0
 10
120.675
 20
-22.5213
 30
0.0
 10
120.675
 20
-22.5213
 30
0.0
 10
120.675
 20
-22.5213
 30
0.0
 10
119.1443
 20
-23.962
 30
0.0
 10
119.1443
 20
-23.962
 30
0.0
 10
119.1443
 20
-23.962
 30
0.0
 10
119.1443
 20
-23.962
 30
0.0
 10
120.81
 20
-29.1842
 30
0.0
 10
120.81
 20
-29.1842
 30
0.0
 10
120.81
 20
-29.1842
 30
0.0
 10
120.81
 20
-29.1842
 30
0.0
 10
122.5658
 20
-27.6086
 30
0.0
 10
122.5658
 20
-27.6086
 30
0.0
  0
SPLINE
  5
10A
330
1F
100
AcDbEntity
  8
layer 1
 62
     7
100
AcDbSpline
210
0.0
220
0.0
230
1.0
 70
    11
 71
     3
 72
    20
 73
    16
 74
     0
 42
0.0000000001
 43
0.0000000001
 12
1.0
 22
0.0
 32
0.0
 13
1.0
 23
0.0
 33
0.0
 40
0.0
 40
0.0
 40
0.0
 40
0.0
 40
0.2
 40
0.2
 40
0.2
 40
0.2
 40
0.4
 40
0.4
 40
0.4
 40
0.4
 40
0.6
 40
0.6
 40
0.6
 40
0.6
 40
1.0
 40
1.0
 40
1.0
 40
1.0
 10
117.4785
 20
-33.191
 30
0.0
 10
117.4785
 20
-33.191
 30
0.0
 10
116.128
 20
-27.1583
 30
0.0
 10
116.128
 20
-27.1583
 30
0.0
 10
116.128
 20
-27.1583
 30
0.0
 10
116.128
 20
-27.1583
 30
0.0
 10
117.5236
 20
-25.7629
 30
0.0
 10
117.5236
 20
-25.7629
 30
0.0
 10
117.5236
 20
-25.7629
 30
0.0
 10
117.5236
 20
-25.7629
 30
0.0
 10
118.8292
 20
-32.0655
 30
0.0
 10
118.8292
 20
-32.0655
 30
0.0
 10
118.8292
 20
-32.0655
 30
0.0
 10
118.8292
 20
-32.0655
 30
0.0
 10
117.4785
 20
-33.191
 30
0.0
 10
117.4785
 20
-33.191
 30
0.0
  0
SPLINE
  5
10B
330
1F
100
AcDbEntity
  8
layer 1
 62
     7
100
AcDbSpline
210
0.0
220
0.0
230
1.0
 70
    11
 71
     3
 72
    16
 73
    12
 74
     0
 42
0.0000000001
 43
0.0000000001
 12
1.0
 22
0.0
 32
0.0
 13
1.0
 23
0.0
 33
0.0
 40
0.0
 40
0.0
 40
0.0
 40
0.0
 40
0.25
 40
0.25
 40
0.25
 40
0.25
 40
0.5
 40
0.5
 40
0.5
 40
0.5
 40
1.0
 40
1.0
 40
1.0
 40
1.0
 10
126.6175
 20
-32.8308
 30
0.0
 10
126.6175
 20
-32.8308
 30
0.0
 10
122.5658
 20
-31.2552
 30
0.0
 10
122.5658
 20
-31.2552
 30
0.0
 10
122.5658
 20
-31.2552
 30
0.0
 10
122.5658
 20
-31.2552
 30
0.0
 10
123.9614
 20
-29.7245
 30
0.0
 10
123.9614
 20
-29.7245
 30
0.0
 10
123.9614
 20
-29.7245
 30
0.0
 10
123.9614
 20
-29.7245
 30
0.0
 10
126.6175
 20
-32.8308
 30
0.0
 10
126.6175
 20
-32.8308
 30
0.0
  0
SPLINE
  5
10C
330
1F
100
AcDbEntity
  8
layer 1
 62
     7
100
AcDbSpline
210
0.0
220
0.0
230
1.0
 70
    11
 71
     3
 72
    16
 73
    12
 74
     0
 42
0.0000000001
 43
0.0000000001
 12
1.0
 22
0.0
 32
0.0
 13
1.0
 23
0.0
 33
0.0
 40
0.0
 40
0.0
 40
0.0
 40
0.0
 40
0.25
 40
0.25
 40
0.25
 40
0.25
 40
0.5
 40
0.5
 40
0.5
 40
0.5
 40
1.0
 40
1.0
 40
1.0
 40
1.0
 10
124.7718
 20
-35.1269
 30
0.0
 10
123.0311
 20
-35.5154
 30
0.0
 10
121.2903
 20
-35.6816
 30
0.0
 10
119.5495
 20
-35.0369
 30
0.0
 10
119.5495
 20
-35.0369
 30
0.0
 10
120.0897
 20
-34.5716
 30
0.0
 10
120.6299
 20
-34.1065
 30
0.0
 10
121.1701
 20
-33.6412
 30
0.0
 10
121.1701
 20
-33.6412
 30
0.0
 10
122.3707
 20
-34.1365
 30
0.0
 10
123.5714
 20
-34.6316
 30
0.0
 10
124.7718
 20
-35.1269
 30
0.0
  0
SPLINE
  5
10D
330
1F
100
AcDbEntity
  8
layer 1
 62
     7
100
AcDbSpline
210
0.0
220
0.0
230
1.0
 70
    11
 71
     3
 72
    36
 73
    32
 74
     0
 42
0.0000000001
 43
0.0000000001
 12
1.0
 22
0.0
 32
0.0
 13
1.0
 23
0.0
 33
0.0
 40
0.0
 40
0.0
 40
0.0
 40
0.0
 40
0.1111111111111111
 40
0.1111111111111111
 40
0.1111111111111111
 40
0.1111111111111111
 40
0.2222222222222222
 40
0.2222222222222222
 40
0.2222222222222222
 40
0.2222222222222222
 40
0.3333333333333333
 40
0.3333333333333333
 40
0.3333333333333333
 40
0.3333333333333333
 40
0.4444444444444444
 40
0.4444444444444444
 40
0.4444444444444444
 40
0.4444444444444444
 40
0.5555555555555556
 40
0.5555555555555556
 40
0.5555555555555556
 40
0.5555555555555556
 40
0.6666666666666666
 40
0.6666666666666666
 40
0.6666666666666666
 40
0.6666666666666666
 40
0.7777777777777778
 40
0.7777777777777778
 40
0.7777777777777778
 40
0.7777777777777778
 40
1.0
 40
1.0
 40
1.0
 40
1.0
 10
136.368
 20
-53.596
 30
0.0
 10
125.3065
 20
-57.0225
 30
0.0
 10
116.3717
 20
-54.0692
 30
0.0
 10
107.7284
 20
-50.2418
 30
0.0
 10
107.7284
 20
-50.2418
 30
0.0
 10
118.623
 20
-41.506
 30
0.0
 10
128.7844
 20
-39.3686
 30
0.0
 10
138.303
 20
-43.0174
 30
0.0
 10
138.303
 20
-43.0174
 30
0.0
 10
133.771
 20
-43.494
 30
0.0
 10
129.0288
 20
-43.4184
 30
0.0
 10
124.8864
 20
-45.048
 30
0.0
 10
124.8864
 20
-45.048
 30
0.0
 10
123.5619
 20
-45.5692
 30
0.0
 10
123.8563
 20
-46.4446
 30
0.0
 10
125.3069
 20
-46.5672
 30
0.0
 10
125.3069
 20
-46.5672
 30
0.0
 10
128.8806
 20
-46.8694
 30
0.0
 10
131.8533
 20
-47.4795
 30
0.0
 10
133.9169
 20
-49.3341
 30
0.0
 10
133.9169
 20
-49.3341
 30
0.0
 10
131.9984
 20
-50.0676
 30
0.0
 10
129.7177
 20
-50.186
 30
0.0
 10
127.3375
 20
-50.1127
 30
0.0
 10
127.3375
 20
-50.1127
 30
0.0
 10
125.8347
 20
-50.0663
 30
0.0
 10
125.7155
 20
-51.3741
 30
0.0
 10
126.9828
 20
-51.8809
 30
0.0
 10
126.9828
 20
-51.8809
 30
0.0
 10
129.8331
 20
-53.0209
 30
0.0
 10
133.2864
 20
-53.4016
 30
0.0
 10
136.368
 20
-53.596
 30
0.0
  0
SPLINE
  5
10E
330
1F
100
AcDbEntity
  8
layer 1
 62
     7
100
AcDbSpline
210
0.0
220
0.0
230
1.0
 70
    11
 71
     3
 72
    16
 73
    12
 74
     0
 42
0.0000000001
 43
0.0000000001
 12
1.0
 22
0.0
 32
0.0
 13
1.0
 23
0.0
 33
0.0
 40
0.0
 40
0.0
 40
0.0
 40
0.0
 40
0.25
 40
0.25
 40
0.25
 40
0.25
 40
0.5
 40
0.5
 40
0.5
 40
0.5
 40
1.0
 40
1.0
 40
1.0
 40
1.0
 10
151.1134
 20
-99.7501
 30
0.0
 10
151.1134
 20
-99.7501
 30
0.0
 10
148.4454
 20
-97.7781
 30
0.0
 10
148.4454
 20
-97.7781
 30
0.0
 10
148.4454
 20
-97.7781
 30
0.0
 10
148.4454
 20
-97.7781
 30
0.0
 10
150.9974
 20
-97.8941
 30
0.0
 10
150.9974
 20
-97.8941
 30
0.0
 10
150.9974
 20
-97.8941
 30
0.0
 10
150.9974
 20
-97.8941
 30
0.0
 10
151.1134
 20
-99.7501
 30
0.0
 10
151.1134
 20
-99.7501
 30
0.0
  0
SPLINE
  5
10F
330
1F
100
AcDbEntity
  8
layer 1
 62
     7
100
AcDbSpline
210
0.0
220
0.0
230
1.0
 70
    11
 71
     3
 72
    16
 73
    12
 74
     0
 42
0.0000000001
 43
0.0000000001
 12
1.0
 22
0.0
 32
0.0
 13
1.0
 23
0.0
 33
0.0
 40
0.0
 40
0.0
 40
0.0
 40
0.0
 40
0.25
 40
0.25
 40
0.25
 40
0.25
 40
0.5
 40
0.5
 40
0.5
 40
0.5
 40
1.0
 40
1.0
 40
1.0
 40
1.0
 10
148.9992
 20
-102.6559
 30
0.0
 10
148.9992
 20
-102.6559
 30
0.0
 10
146.9201
 20
-99.5221
 30
0.0
 10
146.9201
 20
-99.5221
 30
0.0
 10
146.9201
 20
-99.5221
 30
0.0
 10
146.9201
 20
-99.5221
 30
0.0
 10
150.4197
 20
-101.6741
 30
0.0
 10
150.4197
 20
-101.6741
 30
0.0
 10
150.4197
 20
-101.6741
 30
0.0
 10
150.4197
 20
-101.6741
 30
0.0
 10
148.9992
 20
-102.6559
 30
0.0
 10
148.9992
 20
-102.6559
 30
0.0
  0
SPLINE
  5
110
330
1F
100
AcDbEntity
  8
layer 1
 62
     7
100
AcDbSpline
210
0.0
220
0.0
230
1.0
 70
    11
 71
     3
 72
    20
 73
    16
 74
     0
 42
0.0000000001
 43
0.0000000001
 12
1.0
 22
0.0
 32
0.0
 13
1.0
 23
0.0
 33
0.0
 40
0.0
 40
0.0
 40
0.0
 40
0.0
 40
0.2
 40
0.2
 40
0.2
 40
0.2
 40
0.4
 40
0.4
 40
0.4
 40
0.4
 40
0.6
 40
0.6
 40
0.6
 40
0.6
 40
1.0
 40
1.0
 40
1.0
 40
1.0
 10
157.8412
 20
-99.7501
 30
0.0
 10
156.5732
 20
-98.8447
 30
0.0
 10
155.0128
 20
-98.5242
 30
0.0
 10
153.4333
 20
-98.2422
 30
0.0
 10
153.4333
 20
-98.2422
 30
0.0
 10
153.6268
 20
-99.0928
 30
0.0
 10
153.8199
 20
-99.8275
 30
0.0
 10
154.0133
 20
-100.6782
 30
0.0
 10
154.0133
 20
-100.6782
 30
0.0
 10
155.7533
 20
-101.4127
 30
0.0
 10
157.4933
 20
-102.2634
 30
0.0
 10
159.2331
 20
-102.998
 30
0.0
 10
159.2331
 20
-102.998
 30
0.0
 10
158.7692
 20
-101.9154
 30
0.0
 10
158.3052
 20
-100.8326
 30
0.0
 10
157.8412
 20
-99.7501
 30
0.0
  0
SPLINE
  5
111
330
1F
100
AcDbEntity
  8
layer 1
 62
     7
100
AcDbSpline
210
0.0
220
0.0
230
1.0
 70
    11
 71
     3
 72
    16
 73
    12
 74
     0
 42
0.0000000001
 43
0.0000000001
 12
1.0
 22
0.0
 32
0.0
 13
1.0
 23
0.0
 33
0.0
 40
0.0
 40
0.0
 40
0.0
 40
0.0
 40
0.25
 40
0.25
 40
0.25
 40
0.25
 40
0.5
 40
0.5
 40
0.5
 40
0.5
 40
1.0
 40
1.0
 40
1.0
 40
1.0
 10
164.569
 20
-105.3234
 30
0.0
 10
164.569
 20
-105.3234
 30
0.0
 10
161.4372
 20
-101.7221
 30
0.0
 10
161.4372
 20
-101.7221
 30
0.0
 10
161.4372
 20
-101.7221
 30
0.0
 10
161.4372
 20
-101.7221
 30
0.0
 10
162.2493
 20
-105.3234
 30
0.0
 10
162.2493
 20
-105.3234
 30
0.0
 10
162.2493
 20
-105.3234
 30
0.0
 10
162.2493
 20
-105.3234
 30
0.0
 10
164.569
 20
-105.3234
 30
0.0
 10
164.569
 20
-105.3234
 30
0.0
  0
SPLINE
  5
112
330
1F
100
AcDbEntity
  8
layer 1
 62
     7
100
AcDbSpline
210
0.0
220
0.0
230
1.0
 70
    11
 71
     3
 72
    20
 73
    16
 74
     0
 42
0.0000000001
 43
0.0000000001
 12
1.0
 22
0.0
 32
0.0
 13
1.0
 23
0.0
 33
0.0
 40
0.0
 40
0.0
 40
0.0
 40
0.0
 40
0.2
 40
0.2
 40
0.2
 40
0.2
 40
0.4
 40
0.4
 40
0.4
 40
0.4
 40
0.6
 40
0.6
 40
0.6
 40
0.6
 40
1.0
 40
1.0
 40
1.0
 40
1.0
 10
153.4333
 20
-103.23
 30
0.0
 10
153.4333
 20
-103.23
 30
0.0
 10
150.9974
 20
-105.3234
 30
0.0
 10
150.9974
 20
-105.3234
 30
0.0
 10
150.9974
 20
-105.3234
 30
0.0
 10
150.9974
 20
-105.3234
 30
0.0
 10
157.493
 20
-105.3234
 30
0.0
 10
157.493
 20
-105.3234
 30
0.0
 10
157.493
 20
-105.3234
 30
0.0
 10
157.493
 20
-105.3234
 30
0.0
 10
154.0133
 20
-102.882
 30
0.0
 10
154.0133
 20
-102.882
 30
0.0
 10
154.0133
 20
-102.882
 30
0.0
 10
154.0133
 20
-102.882
 30
0.0
 10
153.4333
 20
-103.23
 30
0.0
 10
153.4333
 20
-103.23
 30
0.0
  0
SPLINE
  5
113
330
1F
100
AcDbEntity
  8
layer 1
 62
     7
100
AcDbSpline
210
0.0
220
0.0
230
1.0
 70
    11
 71
     3
 72
    28
 73
    24
 74
     0
 42
0.0000000001
 43
0.0000000001
 12
1.0
 22
0.0
 32
0.0
 13
1.0
 23
0.0
 33
0.0
 40
0.0
 40
0.0
 40
0.0
 40
0.0
 40
0.1428571428571428
 40
0.1428571428571428
 40
0.1428571428571428
 40
0.1428571428571428
 40
0.2857142857142857
 40
0.2857142857142857
 40
0.2857142857142857
 40
0.2857142857142857
 40
0.4285714285714285
 40
0.4285714285714285
 40
0.4285714285714285
 40
0.4285714285714285
 40
0.5714285714285714
 40
0.5714285714285714
 40
0.5714285714285714
 40
0.5714285714285714
 40
0.7142857142857143
 40
0.7142857142857143
 40
0.7142857142857143
 40
0.7142857142857143
 40
1.0
 40
1.0
 40
1.0
 40
1.0
 10
142.5296
 20
-96.5022
 30
0.0
 10
143.3757
 20
-99.404
 30
0.0
 10
145.2018
 20
-102.4216
 30
0.0
 10
147.2853
 20
-105.3234
 30
0.0
 10
147.2853
 20
-105.3234
 30
0.0
 10
140.8281
 20
-105.3234
 30
0.0
 10
134.2551
 20
-105.3234
 30
0.0
 10
127.7977
 20
-105.3234
 30
0.0
 10
127.7977
 20
-105.3234
 30
0.0
 10
130.4996
 20
-101.9239
 30
0.0
 10
134.8849
 20
-99.5342
 30
0.0
 10
139.1657
 20
-97.0822
 30
0.0
 10
139.1657
 20
-97.0822
 30
0.0
 10
150.83
 20
-92.0789
 30
0.0
 10
157.9314
 20
-83.7962
 30
0.0
 10
159.6972
 20
-71.6785
 30
0.0
 10
159.6972
 20
-71.6785
 30
0.0
 10
166.3528
 20
-82.2311
 30
0.0
 10
168.8557
 20
-93.1029
 30
0.0
 10
167.4692
 20
-104.274
 30
0.0
 10
167.4692
 20
-104.274
 30
0.0
 10
160.8362
 20
-94.7712
 30
0.0
 10
151.9464
 20
-93.3214
 30
0.0
 10
142.5296
 20
-96.5022
 30
0.0
  0
SPLINE
  5
114
330
1F
100
AcDbEntity
  8
layer 1
 62
     7
100
AcDbSpline
210
0.0
220
0.0
230
1.0
 70
    11
 71
     3
 72
    36
 73
    32
 74
     0
 42
0.0000000001
 43
0.0000000001
 12
1.0
 22
0.0
 32
0.0
 13
1.0
 23
0.0
 33
0.0
 40
0.0
 40
0.0
 40
0.0
 40
0.0
 40
0.1111111111111111
 40
0.1111111111111111
 40
0.1111111111111111
 40
0.1111111111111111
 40
0.2222222222222222
 40
0.2222222222222222
 40
0.2222222222222222
 40
0.2222222222222222
 40
0.3333333333333333
 40
0.3333333333333333
 40
0.3333333333333333
 40
0.3333333333333333
 40
0.4444444444444444
 40
0.4444444444444444
 40
0.4444444444444444
 40
0.4444444444444444
 40
0.5555555555555556
 40
0.5555555555555556
 40
0.5555555555555556
 40
0.5555555555555556
 40
0.6666666666666666
 40
0.6666666666666666
 40
0.6666666666666666
 40
0.6666666666666666
 40
0.7777777777777778
 40
0.7777777777777778
 40
0.7777777777777778
 40
0.7777777777777778
 40
1.0
 40
1.0
 40
1.0
 40
1.0
 10
137.9518
 20
-72.4354
 30
0.0
 10
137.3376
 20
-68.3867
 30
0.0
 10
138.3505
 20
-64.6638
 30
0.0
 10
139.8771
 20
-61.0437
 30
0.0
 10
139.8771
 20
-61.0437
 30
0.0
 10
135.1855
 20
-66.8062
 30
0.0
 10
133.6583
 20
-76.0853
 30
0.0
 10
136.6684
 20
-90.4053
 30
0.0
 10
136.6684
 20
-90.4053
 30
0.0
 10
147.522
 20
-87.0791
 30
0.0
 10
153.9459
 20
-79.1307
 30
0.0
 10
154.959
 20
-65.5361
 30
0.0
 10
154.959
 20
-65.5361
 30
0.0
 10
153.3548
 20
-68.3173
 30
0.0
 10
151.7503
 20
-71.0983
 30
0.0
 10
150.1458
 20
-73.8793
 30
0.0
 10
150.1458
 20
-73.8793
 30
0.0
 10
150.6396
 20
-71.1475
 30
0.0
 10
150.4538
 20
-68.6422
 30
0.0
 10
149.6643
 20
-66.3384
 30
0.0
 10
149.6643
 20
-66.3384
 30
0.0
 10
148.3474
 20
-69.9218
 30
0.0
 10
146.168
 20
-73.505
 30
0.0
 10
143.5675
 20
-77.0883
 30
0.0
 10
143.5675
 20
-77.0883
 30
0.0
 10
142.0659
 20
-73.9421
 30
0.0
 10
142.8731
 20
-69.8064
 30
0.0
 10
144.3695
 20
-65.3757
 30
0.0
 10
144.3695
 20
-65.3757
 30
0.0
 10
141.814
 20
-67.1046
 30
0.0
 10
139.6517
 20
-69.423
 30
0.0
 10
137.9518
 20
-72.4354
 30
0.0
  0
SPLINE
  5
115
330
1F
100
AcDbEntity
  8
layer 1
 62
     7
100
AcDbSpline
210
0.0
220
0.0
230
1.0
 70
    11
 71
     3
 72
    52
 73
    48
 74
     0
 42
0.0000000001
 43
0.0000000001
 12
1.0
 22
0.0
 32
0.0
 13
1.0
 23
0.0
 33
0.0
 40
0.0
 40
0.0
 40
0.0
 40
0.0
 40
0.0769230769230769
 40
0.0769230769230769
 40
0.0769230769230769
 40
0.0769230769230769
 40
0.1538461538461539
 40
0.1538461538461539
 40
0.1538461538461539
 40
0.1538461538461539
 40
0.2307692307692308
 40
0.2307692307692308
 40
0.2307692307692308
 40
0.2307692307692308
 40
0.3076923076923077
 40
0.3076923076923077
 40
0.3076923076923077
 40
0.3076923076923077
 40
0.3846153846153846
 40
0.3846153846153846
 40
0.3846153846153846
 40
0.3846153846153846
 40
0.4615384615384616
 40
0.4615384615384616
 40
0.4615384615384616
 40
0.4615384615384616
 40
0.5384615384615384
 40
0.5384615384615384
 40
0.5384615384615384
 40
0.5384615384615384
 40
0.6153846153846154
 40
0.6153846153846154
 40
0.6153846153846154
 40
0.6153846153846154
 40
0.6923076923076923
 40
0.6923076923076923
 40
0.6923076923076923
 40
0.6923076923076923
 40
0.7692307692307693
 40
0.7692307692307693
 40
0.7692307692307693
 40
0.7692307692307693
 40
0.8461538461538461
 40
0.8461538461538461
 40
0.8461538461538461
 40
0.8461538461538461
 40
1.0
 40
1.0
 40
1.0
 40
1.0
 10
99.9263
 20
-69.7077
 30
0.0
 10
102.9608
 20
-66.3715
 30
0.0
 10
103.2562
 20
-61.1178
 30
0.0
 10
102.012
 20
-54.7864
 30
0.0
 10
102.012
 20
-54.7864
 30
0.0
 10
112.441
 20
-60.1203
 30
0.0
 10
122.87
 20
-64.3489
 30
0.0
 10
133.2988
 20
-61.5249
 30
0.0
 10
133.2988
 20
-61.5249
 30
0.0
 10
126.7275
 20
-67.9874
 30
0.0
 10
126.5514
 20
-77.1497
 30
0.0
 10
128.9668
 20
-88.3194
 30
0.0
 10
128.9668
 20
-88.3194
 30
0.0
 10
126.9881
 20
-91.4749
 30
0.0
 10
124.6882
 20
-95.1116
 30
0.0
 10
122.7095
 20
-98.2671
 30
0.0
 10
122.7095
 20
-98.2671
 30
0.0
 10
121.7468
 20
-96.6628
 30
0.0
 10
120.784
 20
-95.0581
 30
0.0
 10
119.8214
 20
-93.4538
 30
0.0
 10
119.8214
 20
-93.4538
 30
0.0
 10
125.1666
 20
-87.8328
 30
0.0
 10
126.1886
 20
-81.8001
 30
0.0
 10
122.5491
 20
-75.3234
 30
0.0
 10
122.5491
 20
-75.3234
 30
0.0
 10
118.2865
 20
-76.7382
 30
0.0
 10
116.4354
 20
-80.8074
 30
0.0
 10
114.5267
 20
-85.271
 30
0.0
 10
114.5267
 20
-85.271
 30
0.0
 10
113.671
 20
-84.3084
 30
0.0
 10
113.0301
 20
-82.9162
 30
0.0
 10
112.1744
 20
-81.9536
 30
0.0
 10
112.1744
 20
-81.9536
 30
0.0
 10
114.8043
 20
-76.5331
 30
0.0
 10
115.4204
 20
-71.0692
 30
0.0
 10
111.6389
 20
-63.9318
 30
0.0
 10
111.6389
 20
-63.9318
 30
0.0
 10
110.8565
 20
-62.4552
 30
0.0
 10
109.2823
 20
-61.9474
 30
0.0
 10
108.5902
 20
-63.1296
 30
0.0
 10
108.5902
 20
-63.1296
 30
0.0
 10
106.4847
 20
-66.7258
 30
0.0
 10
105.4988
 20
-71.0469
 30
0.0
 10
105.3294
 20
-75.2703
 30
0.0
 10
105.3294
 20
-75.2703
 30
0.0
 10
103.6715
 20
-73.4519
 30
0.0
 10
101.5841
 20
-71.5261
 30
0.0
 10
99.9263
 20
-69.7077
 30
0.0
  0
SPLINE
  5
116
330
1F
100
AcDbEntity
  8
layer 1
 62
     7
100
AcDbSpline
210
0.0
220
0.0
230
1.0
 70
    11
 71
     3
 72
    28
 73
    24
 74
     0
 42
0.0000000001
 43
0.0000000001
 12
1.0
 22
0.0
 32
0.0
 13
1.0
 23
0.0
 33
0.0
 40
0.0
 40
0.0
 40
0.0
 40
0.0
 40
0.1428571428571428
 40
0.1428571428571428
 40
0.1428571428571428
 40
0.1428571428571428
 40
0.2857142857142857
 40
0.2857142857142857
 40
0.2857142857142857
 40
0.2857142857142857
 40
0.4285714285714285
 40
0.4285714285714285
 40
0.4285714285714285
 40
0.4285714285714285
 40
0.5714285714285714
 40
0.5714285714285714
 40
0.5714285714285714
 40
0.5714285714285714
 40
0.7142857142857143
 40
0.7142857142857143
 40
0.7142857142857143
 40
0.7142857142857143
 40
1.0
 40
1.0
 40
1.0
 40
1.0
 10
111.0728
 20
-86.5394
 30
0.0
 10
112.2893
 20
-88.5787
 30
0.0
 10
113.6129
 20
-90.5105
 30
0.0
 10
114.8292
 20
-92.5497
 30
0.0
 10
114.8292
 20
-92.5497
 30
0.0
 10
109.6019
 20
-90.3568
 30
0.0
 10
103.6358
 20
-90.3764
 30
0.0
 10
97.5499
 20
-91.0471
 30
0.0
 10
97.5499
 20
-91.0471
 30
0.0
 10
97.7287
 20
-91.6195
 30
0.0
 10
97.9075
 20
-92.1918
 30
0.0
 10
98.0864
 20
-92.7643
 30
0.0
 10
98.0864
 20
-92.7643
 30
0.0
 10
96.9851
 20
-92.2132
 30
0.0
 10
95.324
 20
-91.8486
 30
0.0
 10
93.3642
 20
-91.5837
 30
0.0
 10
93.3642
 20
-91.5837
 30
0.0
 10
94.5761
 20
-90.3227
 30
0.0
 10
95.5152
 20
-88.5161
 30
0.0
 10
96.1546
 20
-86.1102
 30
0.0
 10
96.1546
 20
-86.1102
 30
0.0
 10
101.3007
 20
-87.9853
 30
0.0
 10
106.2134
 20
-87.5316
 30
0.0
 10
111.0728
 20
-86.5394
 30
0.0
  0
SPLINE
  5
117
330
1F
100
AcDbEntity
  8
layer 1
 62
     7
100
AcDbSpline
210
0.0
220
0.0
230
1.0
 70
    11
 71
     3
 72
    56
 73
    52
 74
     0
 42
0.0000000001
 43
0.0000000001
 12
1.0
 22
0.0
 32
0.0
 13
1.0
 23
0.0
 33
0.0
 40
0.0
 40
0.0
 40
0.0
 40
0.0
 40
0.0714285714285714
 40
0.0714285714285714
 40
0.0714285714285714
 40
0.0714285714285714
 40
0.1428571428571428
 40
0.1428571428571428
 40
0.1428571428571428
 40
0.1428571428571428
 40
0.2142857142857143
 40
0.2142857142857143
 40
0.2142857142857143
 40
0.2142857142857143
 40
0.2857142857142857
 40
0.2857142857142857
 40
0.2857142857142857
 40
0.2857142857142857
 40
0.3571428571428572
 40
0.3571428571428572
 40
0.3571428571428572
 40
0.3571428571428572
 40
0.4285714285714285
 40
0.4285714285714285
 40
0.4285714285714285
 40
0.4285714285714285
 40
0.5
 40
0.5
 40
0.5
 40
0.5
 40
0.5714285714285714
 40
0.5714285714285714
 40
0.5714285714285714
 40
0.5714285714285714
 40
0.6428571428571429
 40
0.6428571428571429
 40
0.6428571428571429
 40
0.6428571428571429
 40
0.7142857142857143
 40
0.7142857142857143
 40
0.7142857142857143
 40
0.7142857142857143
 40
0.7857142857142857
 40
0.7857142857142857
 40
0.7857142857142857
 40
0.7857142857142857
 40
0.8571428571428571
 40
0.8571428571428571
 40
0.8571428571428571
 40
0.8571428571428571
 40
1.0
 40
1.0
 40
1.0
 40
1.0
 10
88.3893
 20
-73.8816
 30
0.0
 10
92.1519
 20
-74.0768
 30
0.0
 10
95.5773
 20
-74.1461
 30
0.0
 10
98.1937
 20
-72.9091
 30
0.0
 10
98.1937
 20
-72.9091
 30
0.0
 10
100.2689
 20
-75.1629
 30
0.0
 10
102.3437
 20
-77.4168
 30
0.0
 10
104.4186
 20
-79.6706
 30
0.0
 10
104.4186
 20
-79.6706
 30
0.0
 10
99.0901
 20
-78.108
 30
0.0
 10
94.042
 20
-78.2282
 30
0.0
 10
89.286
 20
-80.0999
 30
0.0
 10
89.286
 20
-80.0999
 30
0.0
 10
90.0728
 20
-81.2089
 30
0.0
 10
90.8599
 20
-82.3179
 30
0.0
 10
91.6469
 20
-83.427
 30
0.0
 10
91.6469
 20
-83.427
 30
0.0
 10
90.3232
 20
-85.0012
 30
0.0
 10
88.9995
 20
-86.5752
 30
0.0
 10
87.6758
 20
-88.1493
 30
0.0
 10
87.6758
 20
-88.1493
 30
0.0
 10
86.3154
 20
-85.8147
 30
0.0
 10
84.6329
 20
-84.4178
 30
0.0
 10
82.4169
 20
-84.2856
 30
0.0
 10
82.4169
 20
-84.2856
 30
0.0
 10
81.4775
 20
-84.2296
 30
0.0
 10
80.7292
 20
-84.5383
 30
0.0
 10
80.485
 20
-85.5735
 30
0.0
 10
80.485
 20
-85.5735
 30
0.0
 10
79.8726
 20
-88.1697
 30
0.0
 10
80.8717
 20
-89.8949
 30
0.0
 10
82.0949
 20
-91.3691
 30
0.0
 10
82.0949
 20
-91.3691
 30
0.0
 10
81.3079
 20
-91.6911
 30
0.0
 10
80.5207
 20
-92.013
 30
0.0
 10
79.7338
 20
-92.335
 30
0.0
 10
79.7338
 20
-92.335
 30
0.0
 10
79.854
 20
-89.4543
 30
0.0
 10
79.4209
 20
-86.6799
 30
0.0
 10
76.9433
 20
-84.393
 30
0.0
 10
76.9433
 20
-84.393
 30
0.0
 10
75.1377
 20
-82.7265
 30
0.0
 10
73.2943
 20
-81.1016
 30
0.0
 10
71.4697
 20
-79.4559
 30
0.0
 10
71.4697
 20
-79.4559
 30
0.0
 10
75.2434
 20
-80.4787
 30
0.0
 10
79.1051
 20
-81.0087
 30
0.0
 10
83.1682
 20
-80.6365
 30
0.0
 10
83.1682
 20
-80.6365
 30
0.0
 10
87.528
 20
-80.2372
 30
0.0
 10
88.6082
 20
-77.3949
 30
0.0
 10
88.3893
 20
-73.8816
 30
0.0
  0
SPLINE
  5
118
330
1F
100
AcDbEntity
  8
layer 1
 62
     7
100
AcDbSpline
210
0.0
220
0.0
230
1.0
 70
    11
 71
     3
 72
    20
 73
    16
 74
     0
 42
0.0000000001
 43
0.0000000001
 12
1.0
 22
0.0
 32
0.0
 13
1.0
 23
0.0
 33
0.0
 40
0.0
 40
0.0
 40
0.0
 40
0.0
 40
0.2
 40
0.2
 40
0.2
 40
0.2
 40
0.4
 40
0.4
 40
0.4
 40
0.4
 40
0.6
 40
0.6
 40
0.6
 40
0.6
 40
1.0
 40
1.0
 40
1.0
 40
1.0
 10
89.3393
 20
-93.4083
 30
0.0
 10
88.8356
 20
-93.4083
 30
0.0
 10
88.4272
 20
-93.8168
 30
0.0
 10
88.4272
 20
-94.3205
 30
0.0
 10
88.4272
 20
-94.3205
 30
0.0
 10
88.4271
 20
-94.8243
 30
0.0
 10
88.8356
 20
-95.2328
 30
0.0
 10
89.3393
 20
-95.2328
 30
0.0
 10
89.3393
 20
-95.2328
 30
0.0
 10
89.8432
 20
-95.2328
 30
0.0
 10
90.2516
 20
-94.8243
 30
0.0
 10
90.2516
 20
-94.3205
 30
0.0
 10
90.2516
 20
-94.3205
 30
0.0
 10
90.2517
 20
-93.8168
 30
0.0
 10
89.8432
 20
-93.4083
 30
0.0
 10
89.3393
 20
-93.4083
 30
0.0
  0
SPLINE
  5
119
330
1F
100
AcDbEntity
  8
layer 1
 62
     7
100
AcDbSpline
210
0.0
220
0.0
230
1.0
 70
    27
 71
     3
 72
    12
 73
     8
 74
     0
 42
0.0000000001
 43
0.0000000001
 12
1.0
 22
0.0
 32
0.0
 13
1.0
 23
0.0
 33
0.0
 40
0.0
 40
0.0
 40
0.0
 40
0.0
 40
0.3333333333333333
 40
0.3333333333333333
 40
0.3333333333333333
 40
0.3333333333333333
 40
1.0
 40
1.0
 40
1.0
 40
1.0
 10
89.3393
 20
-93.4083
 30
0.0
 10
89.3393
 20
-93.4083
 30
0.0
 10
89.3393
 20
-93.4087
 30
0.0
 10
89.3393
 20
-93.4087
 30
0.0
 10
89.3393
 20
-93.4087
 30
0.0
 10
89.3393
 20
-93.4087
 30
0.0
 10
89.3393
 20
-93.4083
 30
0.0
 10
89.3393
 20
-93.4083
 30
0.0
  0
SPLINE
  5
11A
330
1F
100
AcDbEntity
  8
layer 1
 62
     7
100
AcDbSpline
210
0.0
220
0.0
230
1.0
 70
    27
 71
     3
 72
    12
 73
     8
 74
     0
 42
0.0000000001
 43
0.0000000001
 12
1.0
 22
0.0
 32
0.0
 13
1.0
 23
0.0
 33
0.0
 40
0.0
 40
0.0
 40
0.0
 40
0.0
 40
0.3333333333333333
 40
0.3333333333333333
 40
0.3333333333333333
 40
0.3333333333333333
 40
1.0
 40
1.0
 40
1.0
 40
1.0
 10
88.4272
 20
-94.3205
 30
0.0
 10
88.4272
 20
-94.3205
 30
0.0
 10
88.4272
 20
-94.3209
 30
0.0
 10
88.4272
 20
-94.3209
 30
0.0
 10
88.4272
 20
-94.3209
 30
0.0
 10
88.4272
 20
-94.3209
 30
0.0
 10
88.4272
 20
-94.3205
 30
0.0
 10
88.4272
 20
-94.3205
 30
0.0
  0
SPLINE
  5
11B
330
1F
100
AcDbEntity
  8
layer 1
 62
     7
100
AcDbSpline
210
0.0
220
0.0
230
1.0
 70
    27
 71
     3
 72
    12
 73
     8
 74
     0
 42
0.0000000001
 43
0.0000000001
 12
1.0
 22
0.0
 32
0.0
 13
1.0
 23
0.0
 33
0.0
 40
0.0
 40
0.0
 40
0.0
 40
0.0
 40
0.3333333333333333
 40
0.3333333333333333
 40
0.3333333333333333
 40
0.3333333333333333
 40
1.0
 40
1.0
 40
1.0
 40
1.0
 10
89.3393
 20
-95.2328
 30
0.0
 10
89.3393
 20
-95.2328
 30
0.0
 10
89.3393
 20
-95.2332
 30
0.0
 10
89.3393
 20
-95.2332
 30
0.0
 10
89.3393
 20
-95.2332
 30
0.0
 10
89.3393
 20
-95.2332
 30
0.0
 10
89.3393
 20
-95.2328
 30
0.0
 10
89.3393
 20
-95.2328
 30
0.0
  0
SPLINE
  5
11C
330
1F
100
AcDbEntity
  8
layer 1
 62
     7
100
AcDbSpline
210
0.0
220
0.0
230
1.0
 70
    27
 71
     3
 72
    12
 73
     8
 74
     0
 42
0.0000000001
 43
0.0000000001
 12
1.0
 22
0.0
 32
0.0
 13
1.0
 23
0.0
 33
0.0
 40
0.0
 40
0.0
 40
0.0
 40
0.0
 40
0.3333333333333333
 40
0.3333333333333333
 40
0.3333333333333333
 40
0.3333333333333333
 40
1.0
 40
1.0
 40
1.0
 40
1.0
 10
90.2516
 20
-94.3205
 30
0.0
 10
90.2516
 20
-94.3205
 30
0.0
 10
90.2516
 20
-94.3209
 30
0.0
 10
90.2516
 20
-94.3209
 30
0.0
 10
90.2516
 20
-94.3209
 30
0.0
 10
90.2516
 20
-94.3209
 30
0.0
 10
90.2516
 20
-94.3205
 30
0.0
 10
90.2516
 20
-94.3205
 30
0.0
  0
SPLINE
  5
11D
330
1F
100
AcDbEntity
  8
layer 1
 62
     7
100
AcDbSpline
210
0.0
220
0.0
230
1.0
 70
    27
 71
     3
 72
    12
 73
     8
 74
     0
 42
0.0000000001
 43
0.0000000001
 12
1.0
 22
0.0
 32
0.0
 13
1.0
 23
0.0
 33
0.0
 40
0.0
 40
0.0
 40
0.0
 40
0.0
 40
0.3333333333333333
 40
0.3333333333333333
 40
0.3333333333333333
 40
0.3333333333333333
 40
1.0
 40
1.0
 40
1.0
 40
1.0
 10
89.3393
 20
-93.4083
 30
0.0
 10
89.3393
 20
-93.4083
 30
0.0
 10
89.3393
 20
-93.4087
 30
0.0
 10
89.3393
 20
-93.4087
 30
0.0
 10
89.3393
 20
-93.4087
 30
0.0
 10
89.3393
 20
-93.4087
 30
0.0
 10
89.3393
 20
-93.4083
 30
0.0
 10
89.3393
 20
-93.4083
 30
0.0
  0
SPLINE
  5
11E
330
1F
100
AcDbEntity
  8
layer 1
 62
     7
100
AcDbSpline
210
0.0
220
0.0
230
1.0
 70
    11
 71
     3
 72
    20
 73
    16
 74
     0
 42
0.0000000001
 43
0.0000000001
 12
1.0
 22
0.0
 32
0.0
 13
1.0
 23
0.0
 33
0.0
 40
0.0
 40
0.0
 40
0.0
 40
0.0
 40
0.2
 40
0.2
 40
0.2
 40
0.2
 40
0.4
 40
0.4
 40
0.4
 40
0.4
 40
0.6
 40
0.6
 40
0.6
 40
0.6
 40
1.0
 40
1.0
 40
1.0
 40
1.0
 10
89.3393
 20
-93.4083
 30
0.0
 10
88.8356
 20
-93.4083
 30
0.0
 10
88.4272
 20
-93.8168
 30
0.0
 10
88.4272
 20
-94.3205
 30
0.0
 10
88.4272
 20
-94.3205
 30
0.0
 10
88.4271
 20
-94.8243
 30
0.0
 10
88.8356
 20
-95.2328
 30
0.0
 10
89.3393
 20
-95.2328
 30
0.0
 10
89.3393
 20
-95.2328
 30
0.0
 10
89.8432
 20
-95.2328
 30
0.0
 10
90.2516
 20
-94.8244
 30
0.0
 10
90.2516
 20
-94.3205
 30
0.0
 10
90.2516
 20
-94.3205
 30
0.0
 10
90.2517
 20
-93.8168
 30
0.0
 10
89.8432
 20
-93.4083
 30
0.0
 10
89.3393
 20
-93.4083
 30
0.0
  0
SPLINE
  5
11F
330
1F
100
AcDbEntity
  8
layer 1
 62
     7
100
AcDbSpline
210
0.0
220
0.0
230
1.0
 70
    11
 71
     3
 72
    20
 73
    16
 74
     0
 42
0.0000000001
 43
0.0000000001
 12
1.0
 22
0.0
 32
0.0
 13
1.0
 23
0.0
 33
0.0
 40
0.0
 40
0.0
 40
0.0
 40
0.0
 40
0.2
 40
0.2
 40
0.2
 40
0.2
 40
0.4
 40
0.4
 40
0.4
 40
0.4
 40
0.6
 40
0.6
 40
0.6
 40
0.6
 40
1.0
 40
1.0
 40
1.0
 40
1.0
 10
89.3393
 20
-93.4083
 30
0.0
 10
88.8356
 20
-93.4083
 30
0.0
 10
88.4272
 20
-93.8168
 30
0.0
 10
88.4272
 20
-94.3205
 30
0.0
 10
88.4272
 20
-94.3205
 30
0.0
 10
88.4271
 20
-94.8244
 30
0.0
 10
88.8356
 20
-95.2328
 30
0.0
 10
89.3393
 20
-95.2328
 30
0.0
 10
89.3393
 20
-95.2328
 30
0.0
 10
89.8432
 20
-95.2328
 30
0.0
 10
90.2516
 20
-94.8244
 30
0.0
 10
90.2516
 20
-94.3205
 30
0.0
 10
90.2516
 20
-94.3205
 30
0.0
 10
90.2517
 20
-93.8168
 30
0.0
 10
89.8432
 20
-93.4083
 30
0.0
 10
89.3393
 20
-93.4083
 30
0.0
  0
SPLINE
  5
120
330
1F
100
AcDbEntity
  8
layer 1
 62
     7
100
AcDbSpline
210
0.0
220
0.0
230
1.0
 70
    11
 71
     3
 72
    20
 73
    16
 74
     0
 42
0.0000000001
 43
0.0000000001
 12
1.0
 22
0.0
 32
0.0
 13
1.0
 23
0.0
 33
0.0
 40
0.0
 40
0.0
 40
0.0
 40
0.0
 40
0.2
 40
0.2
 40
0.2
 40
0.2
 40
0.4
 40
0.4
 40
0.4
 40
0.4
 40
0.6
 40
0.6
 40
0.6
 40
0.6
 40
1.0
 40
1.0
 40
1.0
 40
1.0
 10
89.3393
 20
-93.4083
 30
0.0
 10
88.8356
 20
-93.4083
 30
0.0
 10
88.4272
 20
-93.8168
 30
0.0
 10
88.4272
 20
-94.3205
 30
0.0
 10
88.4272
 20
-94.3205
 30
0.0
 10
88.4271
 20
-94.8244
 30
0.0
 10
88.8356
 20
-95.2328
 30
0.0
 10
89.3393
 20
-95.2328
 30
0.0
 10
89.3393
 20
-95.2328
 30
0.0
 10
89.8432
 20
-95.2328
 30
0.0
 10
90.2516
 20
-94.8244
 30
0.0
 10
90.2516
 20
-94.3205
 30
0.0
 10
90.2516
 20
-94.3205
 30
0.0
 10
90.2517
 20
-93.8168
 30
0.0
 10
89.8432
 20
-93.4083
 30
0.0
 10
89.3393
 20
-93.4083
 30
0.0
  0
SPLINE
  5
121
330
1F
100
AcDbEntity
  8
layer 1
 62
     7
100
AcDbSpline
210
0.0
220
0.0
230
1.0
 70
    11
 71
     3
 72
    20
 73
    16
 74
     0
 42
0.0000000001
 43
0.0000000001
 12
1.0
 22
0.0
 32
0.0
 13
1.0
 23
0.0
 33
0.0
 40
0.0
 40
0.0
 40
0.0
 40
0.0
 40
0.2
 40
0.2
 40
0.2
 40
0.2
 40
0.4
 40
0.4
 40
0.4
 40
0.4
 40
0.6
 40
0.6
 40
0.6
 40
0.6
 40
1.0
 40
1.0
 40
1.0
 40
1.0
 10
89.3393
 20
-93.4084
 30
0.0
 10
88.8356
 20
-93.4084
 30
0.0
 10
88.4272
 20
-93.8168
 30
0.0
 10
88.4272
 20
-94.3207
 30
0.0
 10
88.4272
 20
-94.3207
 30
0.0
 10
88.4271
 20
-94.8244
 30
0.0
 10
88.8356
 20
-95.2329
 30
0.0
 10
89.3393
 20
-95.2329
 30
0.0
 10
89.3393
 20
-95.2329
 30
0.0
 10
89.8432
 20
-95.2329
 30
0.0
 10
90.2516
 20
-94.8244
 30
0.0
 10
90.2516
 20
-94.3207
 30
0.0
 10
90.2516
 20
-94.3207
 30
0.0
 10
90.2517
 20
-93.8168
 30
0.0
 10
89.8432
 20
-93.4084
 30
0.0
 10
89.3393
 20
-93.4084
 30
0.0
  0
SPLINE
  5
122
330
1F
100
AcDbEntity
  8
layer 1
 62
     7
100
AcDbSpline
210
0.0
220
0.0
230
1.0
 70
    11
 71
     3
 72
    20
 73
    16
 74
     0
 42
0.0000000001
 43
0.0000000001
 12
1.0
 22
0.0
 32
0.0
 13
1.0
 23
0.0
 33
0.0
 40
0.0
 40
0.0
 40
0.0
 40
0.0
 40
0.2
 40
0.2
 40
0.2
 40
0.2
 40
0.4
 40
0.4
 40
0.4
 40
0.4
 40
0.6
 40
0.6
 40
0.6
 40
0.6
 40
1.0
 40
1.0
 40
1.0
 40
1.0
 10
89.3393
 20
-93.4084
 30
0.0
 10
88.8356
 20
-93.4084
 30
0.0
 10
88.4272
 20
-93.8168
 30
0.0
 10
88.4272
 20
-94.3207
 30
0.0
 10
88.4272
 20
-94.3207
 30
0.0
 10
88.4271
 20
-94.8244
 30
0.0
 10
88.8356
 20
-95.2329
 30
0.0
 10
89.3393
 20
-95.2329
 30
0.0
 10
89.3393
 20
-95.2329
 30
0.0
 10
89.8432
 20
-95.2329
 30
0.0
 10
90.2516
 20
-94.8244
 30
0.0
 10
90.2516
 20
-94.3207
 30
0.0
 10
90.2516
 20
-94.3207
 30
0.0
 10
90.2517
 20
-93.8168
 30
0.0
 10
89.8432
 20
-93.4084
 30
0.0
 10
89.3393
 20
-93.4084
 30
0.0
  0
SPLINE
  5
123
330
1F
100
AcDbEntity
  8
layer 1
 62
     7
100
AcDbSpline
210
0.0
220
0.0
230
1.0
 70
    11
 71
     3
 72
    20
 73
    16
 74
     0
 42
0.0000000001
 43
0.0000000001
 12
1.0
 22
0.0
 32
0.0
 13
1.0
 23
0.0
 33
0.0
 40
0.0
 40
0.0
 40
0.0
 40
0.0
 40
0.2
 40
0.2
 40
0.2
 40
0.2
 40
0.4
 40
0.4
 40
0.4
 40
0.4
 40
0.6
 40
0.6
 40
0.6
 40
0.6
 40
1.0
 40
1.0
 40
1.0
 40
1.0
 10
89.3393
 20
-93.4084
 30
0.0
 10
88.8356
 20
-93.4084
 30
0.0
 10
88.4272
 20
-93.8168
 30
0.0
 10
88.4272
 20
-94.3207
 30
0.0
 10
88.4272
 20
-94.3207
 30
0.0
 10
88.4271
 20
-94.8244
 30
0.0
 10
88.8356
 20
-95.2329
 30
0.0
 10
89.3393
 20
-95.2329
 30
0.0
 10
89.3393
 20
-95.2329
 30
0.0
 10
89.8432
 20
-95.2329
 30
0.0
 10
90.2516
 20
-94.8244
 30
0.0
 10
90.2516
 20
-94.3207
 30
0.0
 10
90.2516
 20
-94.3207
 30
0.0
 10
90.2517
 20
-93.8168
 30
0.0
 10
89.8432
 20
-93.4084
 30
0.0
 10
89.3393
 20
-93.4084
 30
0.0
  0
SPLINE
  5
124
330
1F
100
AcDbEntity
  8
layer 1
 62
     7
100
AcDbSpline
210
0.0
220
0.0
230
1.0
 70
    11
 71
     3
 72
    20
 73
    16
 74
     0
 42
0.0000000001
 43
0.0000000001
 12
1.0
 22
0.0
 32
0.0
 13
1.0
 23
0.0
 33
0.0
 40
0.0
 40
0.0
 40
0.0
 40
0.0
 40
0.2
 40
0.2
 40
0.2
 40
0.2
 40
0.4
 40
0.4
 40
0.4
 40
0.4
 40
0.6
 40
0.6
 40
0.6
 40
0.6
 40
1.0
 40
1.0
 40
1.0
 40
1.0
 10
89.3393
 20
-93.4084
 30
0.0
 10
88.8356
 20
-93.4084
 30
0.0
 10
88.4272
 20
-93.8169
 30
0.0
 10
88.4272
 20
-94.3207
 30
0.0
 10
88.4272
 20
-94.3207
 30
0.0
 10
88.4271
 20
-94.8244
 30
0.0
 10
88.8356
 20
-95.2329
 30
0.0
 10
89.3393
 20
-95.2329
 30
0.0
 10
89.3393
 20
-95.2329
 30
0.0
 10
89.8432
 20
-95.2329
 30
0.0
 10
90.2516
 20
-94.8244
 30
0.0
 10
90.2516
 20
-94.3207
 30
0.0
 10
90.2516
 20
-94.3207
 30
0.0
 10
90.2517
 20
-93.8169
 30
0.0
 10
89.8432
 20
-93.4084
 30
0.0
 10
89.3393
 20
-93.4084
 30
0.0
  0
SPLINE
  5
125
330
1F
100
AcDbEntity
  8
layer 1
 62
     7
100
AcDbSpline
210
0.0
220
0.0
230
1.0
 70
    11
 71
     3
 72
    20
 73
    16
 74
     0
 42
0.0000000001
 43
0.0000000001
 12
1.0
 22
0.0
 32
0.0
 13
1.0
 23
0.0
 33
0.0
 40
0.0
 40
0.0
 40
0.0
 40
0.0
 40
0.2
 40
0.2
 40
0.2
 40
0.2
 40
0.4
 40
0.4
 40
0.4
 40
0.4
 40
0.6
 40
0.6
 40
0.6
 40
0.6
 40
1.0
 40
1.0
 40
1.0
 40
1.0
 10
89.3393
 20
-93.4084
 30
0.0
 10
88.8356
 20
-93.4084
 30
0.0
 10
88.4272
 20
-93.8169
 30
0.0
 10
88.4272
 20
-94.3207
 30
0.0
 10
88.4272
 20
-94.3207
 30
0.0
 10
88.4271
 20
-94.8244
 30
0.0
 10
88.8356
 20
-95.2329
 30
0.0
 10
89.3393
 20
-95.2329
 30
0.0
 10
89.3393
 20
-95.2329
 30
0.0
 10
89.8432
 20
-95.2329
 30
0.0
 10
90.2516
 20
-94.8244
 30
0.0
 10
90.2516
 20
-94.3207
 30
0.0
 10
90.2516
 20
-94.3207
 30
0.0
 10
90.2517
 20
-93.8169
 30
0.0
 10
89.8432
 20
-93.4084
 30
0.0
 10
89.3393
 20
-93.4084
 30
0.0
  0
SPLINE
  5
126
330
1F
100
AcDbEntity
  8
layer 1
 62
     7
100
AcDbSpline
210
0.0
220
0.0
230
1.0
 70
    11
 71
     3
 72
    20
 73
    16
 74
     0
 42
0.0000000001
 43
0.0000000001
 12
1.0
 22
0.0
 32
0.0
 13
1.0
 23
0.0
 33
0.0
 40
0.0
 40
0.0
 40
0.0
 40
0.0
 40
0.2
 40
0.2
 40
0.2
 40
0.2
 40
0.4
 40
0.4
 40
0.4
 40
0.4
 40
0.6
 40
0.6
 40
0.6
 40
0.6
 40
1.0
 40
1.0
 40
1.0
 40
1.0
 10
89.3393
 20
-93.4084
 30
0.0
 10
88.8356
 20
-93.4084
 30
0.0
 10
88.4272
 20
-93.8169
 30
0.0
 10
88.4272
 20
-94.3207
 30
0.0
 10
88.4272
 20
-94.3207
 30
0.0
 10
88.4271
 20
-94.8246
 30
0.0
 10
88.8356
 20
-95.2329
 30
0.0
 10
89.3393
 20
-95.2329
 30
0.0
 10
89.3393
 20
-95.2329
 30
0.0
 10
89.8432
 20
-95.2329
 30
0.0
 10
90.2516
 20
-94.8246
 30
0.0
 10
90.2516
 20
-94.3207
 30
0.0
 10
90.2516
 20
-94.3207
 30
0.0
 10
90.2517
 20
-93.8169
 30
0.0
 10
89.8432
 20
-93.4084
 30
0.0
 10
89.3393
 20
-93.4084
 30
0.0
  0
SPLINE
  5
127
330
1F
100
AcDbEntity
  8
layer 1
 62
     7
100
AcDbSpline
210
0.0
220
0.0
230
1.0
 70
    11
 71
     3
 72
    20
 73
    16
 74
     0
 42
0.0000000001
 43
0.0000000001
 12
1.0
 22
0.0
 32
0.0
 13
1.0
 23
0.0
 33
0.0
 40
0.0
 40
0.0
 40
0.0
 40
0.0
 40
0.2
 40
0.2
 40
0.2
 40
0.2
 40
0.4
 40
0.4
 40
0.4
 40
0.4
 40
0.6
 40
0.6
 40
0.6
 40
0.6
 40
1.0
 40
1.0
 40
1.0
 40
1.0
 10
89.3393
 20
-93.4084
 30
0.0
 10
88.8356
 20
-93.4084
 30
0.0
 10
88.4272
 20
-93.8169
 30
0.0
 10
88.4272
 20
-94.3207
 30
0.0
 10
88.4272
 20
-94.3207
 30
0.0
 10
88.4271
 20
-94.8246
 30
0.0
 10
88.8356
 20
-95.2329
 30
0.0
 10
89.3393
 20
-95.2329
 30
0.0
 10
89.3393
 20
-95.2329
 30
0.0
 10
89.8432
 20
-95.2329
 30
0.0
 10
90.2516
 20
-94.8246
 30
0.0
 10
90.2516
 20
-94.3207
 30
0.0
 10
90.2516
 20
-94.3207
 30
0.0
 10
90.2517
 20
-93.8169
 30
0.0
 10
89.8432
 20
-93.4084
 30
0.0
 10
89.3393
 20
-93.4084
 30
0.0
  0
SPLINE
  5
128
330
1F
100
AcDbEntity
  8
layer 1
 62
     7
100
AcDbSpline
210
0.0
220
0.0
230
1.0
 70
    11
 71
     3
 72
    20
 73
    16
 74
     0
 42
0.0000000001
 43
0.0000000001
 12
1.0
 22
0.0
 32
0.0
 13
1.0
 23
0.0
 33
0.0
 40
0.0
 40
0.0
 40
0.0
 40
0.0
 40
0.2
 40
0.2
 40
0.2
 40
0.2
 40
0.4
 40
0.4
 40
0.4
 40
0.4
 40
0.6
 40
0.6
 40
0.6
 40
0.6
 40
1.0
 40
1.0
 40
1.0
 40
1.0
 10
89.3393
 20
-93.4084
 30
0.0
 10
88.8356
 20
-93.4084
 30
0.0
 10
88.4272
 20
-93.8169
 30
0.0
 10
88.4272
 20
-94.3207
 30
0.0
 10
88.4272
 20
-94.3207
 30
0.0
 10
88.4271
 20
-94.8246
 30
0.0
 10
88.8356
 20
-95.2329
 30
0.0
 10
89.3393
 20
-95.2329
 30
0.0
 10
89.3393
 20
-95.2329
 30
0.0
 10
89.8432
 20
-95.2329
 30
0.0
 10
90.2516
 20
-94.8246
 30
0.0
 10
90.2516
 20
-94.3207
 30
0.0
 10
90.2516
 20
-94.3207
 30
0.0
 10
90.2517
 20
-93.8169
 30
0.0
 10
89.8432
 20
-93.4084
 30
0.0
 10
89.3393
 20
-93.4084
 30
0.0
  0
SPLINE
  5
129
330
1F
100
AcDbEntity
  8
layer 1
 62
     7
100
AcDbSpline
210
0.0
220
0.0
230
1.0
 70
    11
 71
     3
 72
    20
 73
    16
 74
     0
 42
0.0000000001
 43
0.0000000001
 12
1.0
 22
0.0
 32
0.0
 13
1.0
 23
0.0
 33
0.0
 40
0.0
 40
0.0
 40
0.0
 40
0.0
 40
0.2
 40
0.2
 40
0.2
 40
0.2
 40
0.4
 40
0.4
 40
0.4
 40
0.4
 40
0.6
 40
0.6
 40
0.6
 40
0.6
 40
1.0
 40
1.0
 40
1.0
 40
1.0
 10
89.3393
 20
-93.4085
 30
0.0
 10
88.8356
 20
-93.4085
 30
0.0
 10
88.4272
 20
-93.8169
 30
0.0
 10
88.4272
 20
-94.3208
 30
0.0
 10
88.4272
 20
-94.3208
 30
0.0
 10
88.4271
 20
-94.8246
 30
0.0
 10
88.8356
 20
-95.233
 30
0.0
 10
89.3393
 20
-95.233
 30
0.0
 10
89.3393
 20
-95.233
 30
0.0
 10
89.8432
 20
-95.233
 30
0.0
 10
90.2516
 20
-94.8246
 30
0.0
 10
90.2516
 20
-94.3208
 30
0.0
 10
90.2516
 20
-94.3208
 30
0.0
 10
90.2517
 20
-93.8169
 30
0.0
 10
89.8432
 20
-93.4085
 30
0.0
 10
89.3393
 20
-93.4085
 30
0.0
  0
SPLINE
  5
12A
330
1F
100
AcDbEntity
  8
layer 1
 62
     7
100
AcDbSpline
210
0.0
220
0.0
230
1.0
 70
    11
 71
     3
 72
    20
 73
    16
 74
     0
 42
0.0000000001
 43
0.0000000001
 12
1.0
 22
0.0
 32
0.0
 13
1.0
 23
0.0
 33
0.0
 40
0.0
 40
0.0
 40
0.0
 40
0.0
 40
0.2
 40
0.2
 40
0.2
 40
0.2
 40
0.4
 40
0.4
 40
0.4
 40
0.4
 40
0.6
 40
0.6
 40
0.6
 40
0.6
 40
1.0
 40
1.0
 40
1.0
 40
1.0
 10
89.3393
 20
-93.4085
 30
0.0
 10
88.8356
 20
-93.4085
 30
0.0
 10
88.4272
 20
-93.8169
 30
0.0
 10
88.4272
 20
-94.3208
 30
0.0
 10
88.4272
 20
-94.3208
 30
0.0
 10
88.4271
 20
-94.8246
 30
0.0
 10
88.8356
 20
-95.233
 30
0.0
 10
89.3393
 20
-95.233
 30
0.0
 10
89.3393
 20
-95.233
 30
0.0
 10
89.8432
 20
-95.233
 30
0.0
 10
90.2516
 20
-94.8246
 30
0.0
 10
90.2516
 20
-94.3208
 30
0.0
 10
90.2516
 20
-94.3208
 30
0.0
 10
90.2517
 20
-93.8169
 30
0.0
 10
89.8432
 20
-93.4085
 30
0.0
 10
89.3393
 20
-93.4085
 30
0.0
  0
SPLINE
  5
12B
330
1F
100
AcDbEntity
  8
layer 1
 62
     7
100
AcDbSpline
210
0.0
220
0.0
230
1.0
 70
    11
 71
     3
 72
    20
 73
    16
 74
     0
 42
0.0000000001
 43
0.0000000001
 12
1.0
 22
0.0
 32
0.0
 13
1.0
 23
0.0
 33
0.0
 40
0.0
 40
0.0
 40
0.0
 40
0.0
 40
0.2
 40
0.2
 40
0.2
 40
0.2
 40
0.4
 40
0.4
 40
0.4
 40
0.4
 40
0.6
 40
0.6
 40
0.6
 40
0.6
 40
1.0
 40
1.0
 40
1.0
 40
1.0
 10
89.3393
 20
-93.4085
 30
0.0
 10
88.8356
 20
-93.4085
 30
0.0
 10
88.4272
 20
-93.8169
 30
0.0
 10
88.4272
 20
-94.3208
 30
0.0
 10
88.4272
 20
-94.3208
 30
0.0
 10
88.4271
 20
-94.8246
 30
0.0
 10
88.8356
 20
-95.233
 30
0.0
 10
89.3393
 20
-95.233
 30
0.0
 10
89.3393
 20
-95.233
 30
0.0
 10
89.8432
 20
-95.233
 30
0.0
 10
90.2516
 20
-94.8246
 30
0.0
 10
90.2516
 20
-94.3208
 30
0.0
 10
90.2516
 20
-94.3208
 30
0.0
 10
90.2517
 20
-93.817
 30
0.0
 10
89.8432
 20
-93.4085
 30
0.0
 10
89.3393
 20
-93.4085
 30
0.0
  0
SPLINE
  5
12C
330
1F
100
AcDbEntity
  8
layer 1
 62
     7
100
AcDbSpline
210
0.0
220
0.0
230
1.0
 70
    11
 71
     3
 72
    20
 73
    16
 74
     0
 42
0.0000000001
 43
0.0000000001
 12
1.0
 22
0.0
 32
0.0
 13
1.0
 23
0.0
 33
0.0
 40
0.0
 40
0.0
 40
0.0
 40
0.0
 40
0.2
 40
0.2
 40
0.2
 40
0.2
 40
0.4
 40
0.4
 40
0.4
 40
0.4
 40
0.6
 40
0.6
 40
0.6
 40
0.6
 40
1.0
 40
1.0
 40
1.0
 40
1.0
 10
89.3393
 20
-93.4085
 30
0.0
 10
88.8356
 20
-93.4085
 30
0.0
 10
88.4272
 20
-93.817
 30
0.0
 10
88.4272
 20
-94.3208
 30
0.0
 10
88.4272
 20
-94.3208
 30
0.0
 10
88.4271
 20
-94.8246
 30
0.0
 10
88.8356
 20
-95.233
 30
0.0
 10
89.3393
 20
-95.233
 30
0.0
 10
89.3393
 20
-95.233
 30
0.0
 10
89.8432
 20
-95.233
 30
0.0
 10
90.2516
 20
-94.8246
 30
0.0
 10
90.2516
 20
-94.3208
 30
0.0
 10
90.2516
 20
-94.3208
 30
0.0
 10
90.2517
 20
-93.817
 30
0.0
 10
89.8432
 20
-93.4085
 30
0.0
 10
89.3393
 20
-93.4085
 30
0.0
  0
SPLINE
  5
12D
330
1F
100
AcDbEntity
  8
layer 1
 62
     7
100
AcDbSpline
210
0.0
220
0.0
230
1.0
 70
    11
 71
     3
 72
    20
 73
    16
 74
     0
 42
0.0000000001
 43
0.0000000001
 12
1.0
 22
0.0
 32
0.0
 13
1.0
 23
0.0
 33
0.0
 40
0.0
 40
0.0
 40
0.0
 40
0.0
 40
0.2
 40
0.2
 40
0.2
 40
0.2
 40
0.4
 40
0.4
 40
0.4
 40
0.4
 40
0.6
 40
0.6
 40
0.6
 40
0.6
 40
1.0
 40
1.0
 40
1.0
 40
1.0
 10
89.3393
 20
-93.4085
 30
0.0
 10
88.8356
 20
-93.4085
 30
0.0
 10
88.4272
 20
-93.817
 30
0.0
 10
88.4272
 20
-94.3208
 30
0.0
 10
88.4272
 20
-94.3208
 30
0.0
 10
88.4271
 20
-94.8246
 30
0.0
 10
88.8356
 20
-95.233
 30
0.0
 10
89.3393
 20
-95.233
 30
0.0
 10
89.3393
 20
-95.233
 30
0.0
 10
89.8432
 20
-95.233
 30
0.0
 10
90.2516
 20
-94.8247
 30
0.0
 10
90.2516
 20
-94.3208
 30
0.0
 10
90.2516
 20
-94.3208
 30
0.0
 10
90.2517
 20
-93.817
 30
0.0
 10
89.8432
 20
-93.4085
 30
0.0
 10
89.3393
 20
-93.4085
 30
0.0
  0
SPLINE
  5
12E
330
1F
100
AcDbEntity
  8
layer 1
 62
     7
100
AcDbSpline
210
0.0
220
0.0
230
1.0
 70
    11
 71
     3
 72
    20
 73
    16
 74
     0
 42
0.0000000001
 43
0.0000000001
 12
1.0
 22
0.0
 32
0.0
 13
1.0
 23
0.0
 33
0.0
 40
0.0
 40
0.0
 40
0.0
 40
0.0
 40
0.2
 40
0.2
 40
0.2
 40
0.2
 40
0.4
 40
0.4
 40
0.4
 40
0.4
 40
0.6
 40
0.6
 40
0.6
 40
0.6
 40
1.0
 40
1.0
 40
1.0
 40
1.0
 10
89.3393
 20
-93.4085
 30
0.0
 10
88.8356
 20
-93.4085
 30
0.0
 10
88.4272
 20
-93.817
 30
0.0
 10
88.4272
 20
-94.3208
 30
0.0
 10
88.4272
 20
-94.3208
 30
0.0
 10
88.4271
 20
-94.8247
 30
0.0
 10
88.8356
 20
-95.233
 30
0.0
 10
89.3393
 20
-95.233
 30
0.0
 10
89.3393
 20
-95.233
 30
0.0
 10
89.8432
 20
-95.233
 30
0.0
 10
90.2516
 20
-94.8247
 30
0.0
 10
90.2516
 20
-94.3208
 30
0.0
 10
90.2516
 20
-94.3208
 30
0.0
 10
90.2517
 20
-93.817
 30
0.0
 10
89.8432
 20
-93.4085
 30
0.0
 10
89.3393
 20
-93.4085
 30
0.0
  0
SPLINE
  5
12F
330
1F
100
AcDbEntity
  8
layer 1
 62
     7
100
AcDbSpline
210
0.0
220
0.0
230
1.0
 70
    11
 71
     3
 72
    20
 73
    16
 74
     0
 42
0.0000000001
 43
0.0000000001
 12
1.0
 22
0.0
 32
0.0
 13
1.0
 23
0.0
 33
0.0
 40
0.0
 40
0.0
 40
0.0
 40
0.0
 40
0.2
 40
0.2
 40
0.2
 40
0.2
 40
0.4
 40
0.4
 40
0.4
 40
0.4
 40
0.6
 40
0.6
 40
0.6
 40
0.6
 40
1.0
 40
1.0
 40
1.0
 40
1.0
 10
89.3393
 20
-93.4085
 30
0.0
 10
88.8356
 20
-93.4085
 30
0.0
 10
88.4272
 20
-93.817
 30
0.0
 10
88.4272
 20
-94.3208
 30
0.0
 10
88.4272
 20
-94.3208
 30
0.0
 10
88.4271
 20
-94.8247
 30
0.0
 10
88.8356
 20
-95.233
 30
0.0
 10
89.3393
 20
-95.233
 30
0.0
 10
89.3393
 20
-95.233
 30
0.0
 10
89.8432
 20
-95.233
 30
0.0
 10
90.2516
 20
-94.8247
 30
0.0
 10
90.2516
 20
-94.3208
 30
0.0
 10
90.2516
 20
-94.3208
 30
0.0
 10
90.2517
 20
-93.817
 30
0.0
 10
89.8432
 20
-93.4085
 30
0.0
 10
89.3393
 20
-93.4085
 30
0.0
  0
SPLINE
  5
130
330
1F
100
AcDbEntity
  8
layer 1
 62
     7
100
AcDbSpline
210
0.0
220
0.0
230
1.0
 70
    11
 71
     3
 72
    20
 73
    16
 74
     0
 42
0.0000000001
 43
0.0000000001
 12
1.0
 22
0.0
 32
0.0
 13
1.0
 23
0.0
 33
0.0
 40
0.0
 40
0.0
 40
0.0
 40
0.0
 40
0.2
 40
0.2
 40
0.2
 40
0.2
 40
0.4
 40
0.4
 40
0.4
 40
0.4
 40
0.6
 40
0.6
 40
0.6
 40
0.6
 40
1.0
 40
1.0
 40
1.0
 40
1.0
 10
89.3393
 20
-93.4087
 30
0.0
 10
88.8356
 20
-93.4087
 30
0.0
 10
88.4272
 20
-93.817
 30
0.0
 10
88.4272
 20
-94.3209
 30
0.0
 10
88.4272
 20
-94.3209
 30
0.0
 10
88.4271
 20
-94.8247
 30
0.0
 10
88.8356
 20
-95.2332
 30
0.0
 10
89.3393
 20
-95.2332
 30
0.0
 10
89.3393
 20
-95.2332
 30
0.0
 10
89.8432
 20
-95.2332
 30
0.0
 10
90.2516
 20
-94.8247
 30
0.0
 10
90.2516
 20
-94.3209
 30
0.0
 10
90.2516
 20
-94.3209
 30
0.0
 10
90.2517
 20
-93.817
 30
0.0
 10
89.8432
 20
-93.4087
 30
0.0
 10
89.3393
 20
-93.4087
 30
0.0
  0
SPLINE
  5
131
330
1F
100
AcDbEntity
  8
layer 1
 62
     7
100
AcDbSpline
210
0.0
220
0.0
230
1.0
 70
    11
 71
     3
 72
    20
 73
    16
 74
     0
 42
0.0000000001
 43
0.0000000001
 12
1.0
 22
0.0
 32
0.0
 13
1.0
 23
0.0
 33
0.0
 40
0.0
 40
0.0
 40
0.0
 40
0.0
 40
0.2
 40
0.2
 40
0.2
 40
0.2
 40
0.4
 40
0.4
 40
0.4
 40
0.4
 40
0.6
 40
0.6
 40
0.6
 40
0.6
 40
1.0
 40
1.0
 40
1.0
 40
1.0
 10
89.3393
 20
-93.4087
 30
0.0
 10
88.8356
 20
-93.4087
 30
0.0
 10
88.4272
 20
-93.817
 30
0.0
 10
88.4272
 20
-94.3209
 30
0.0
 10
88.4272
 20
-94.3209
 30
0.0
 10
88.4271
 20
-94.8247
 30
0.0
 10
88.8356
 20
-95.2332
 30
0.0
 10
89.3393
 20
-95.2332
 30
0.0
 10
89.3393
 20
-95.2332
 30
0.0
 10
89.8432
 20
-95.2332
 30
0.0
 10
90.2516
 20
-94.8247
 30
0.0
 10
90.2516
 20
-94.3209
 30
0.0
 10
90.2516
 20
-94.3209
 30
0.0
 10
90.2517
 20
-93.817
 30
0.0
 10
89.8432
 20
-93.4087
 30
0.0
 10
89.3393
 20
-93.4087
 30
0.0
  0
SPLINE
  5
132
330
1F
100
AcDbEntity
  8
layer 1
 62
     7
100
AcDbSpline
210
0.0
220
0.0
230
1.0
 70
    11
 71
     3
 72
    36
 73
    32
 74
     0
 42
0.0000000001
 43
0.0000000001
 12
1.0
 22
0.0
 32
0.0
 13
1.0
 23
0.0
 33
0.0
 40
0.0
 40
0.0
 40
0.0
 40
0.0
 40
0.1111111111111111
 40
0.1111111111111111
 40
0.1111111111111111
 40
0.1111111111111111
 40
0.2222222222222222
 40
0.2222222222222222
 40
0.2222222222222222
 40
0.2222222222222222
 40
0.3333333333333333
 40
0.3333333333333333
 40
0.3333333333333333
 40
0.3333333333333333
 40
0.4444444444444444
 40
0.4444444444444444
 40
0.4444444444444444
 40
0.4444444444444444
 40
0.5555555555555556
 40
0.5555555555555556
 40
0.5555555555555556
 40
0.5555555555555556
 40
0.6666666666666666
 40
0.6666666666666666
 40
0.6666666666666666
 40
0.6666666666666666
 40
0.7777777777777778
 40
0.7777777777777778
 40
0.7777777777777778
 40
0.7777777777777778
 40
1.0
 40
1.0
 40
1.0
 40
1.0
 10
119.7661
 20
-99.5258
 30
0.0
 10
120.06
 20
-101.4585
 30
0.0
 10
120.903
 20
-103.3909
 30
0.0
 10
122.3419
 20
-105.3234
 30
0.0
 10
122.3419
 20
-105.3234
 30
0.0
 10
121.6623
 20
-105.3234
 30
0.0
 10
120.9825
 20
-105.3234
 30
0.0
 10
120.3028
 20
-105.3234
 30
0.0
 10
120.3028
 20
-105.3234
 30
0.0
 10
117.6846
 20
-103.2226
 30
0.0
 10
114.0493
 20
-101.7691
 30
0.0
 10
108.2823
 20
-101.6723
 30
0.0
 10
108.2823
 20
-101.6723
 30
0.0
 10
108.2503
 20
-103.0134
 30
0.0
 10
108.5644
 20
-104.268
 30
0.0
 10
109.6775
 20
-105.3234
 30
0.0
 10
109.6775
 20
-105.3234
 30
0.0
 10
104.8836
 20
-105.3234
 30
0.0
 10
100.0897
 20
-105.3234
 30
0.0
 10
95.2959
 20
-105.3234
 30
0.0
 10
95.2959
 20
-105.3234
 30
0.0
 10
96.6196
 20
-103.2476
 30
0.0
 10
96.6556
 20
-100.8859
 30
0.0
 10
95.4032
 20
-98.2379
 30
0.0
 10
95.4032
 20
-98.2379
 30
0.0
 10
98.2121
 20
-99.2807
 30
0.0
 10
100.9302
 20
-99.4133
 30
0.0
 10
103.4528
 20
-97.594
 30
0.0
 10
103.4528
 20
-97.594
 30
0.0
 10
107.2779
 20
-99.1595
 30
0.0
 10
111.9284
 20
-100.2533
 30
0.0
 10
119.7661
 20
-99.5258
 30
0.0
  0
SPLINE
  5
133
330
1F
100
AcDbEntity
  8
layer 1
 62
     7
100
AcDbSpline
210
0.0
220
0.0
230
1.0
 70
    11
 71
     3
 72
    28
 73
    24
 74
     0
 42
0.0000000001
 43
0.0000000001
 12
1.0
 22
0.0
 32
0.0
 13
1.0
 23
0.0
 33
0.0
 40
0.0
 40
0.0
 40
0.0
 40
0.0
 40
0.1428571428571428
 40
0.1428571428571428
 40
0.1428571428571428
 40
0.1428571428571428
 40
0.2857142857142857
 40
0.2857142857142857
 40
0.2857142857142857
 40
0.2857142857142857
 40
0.4285714285714285
 40
0.4285714285714285
 40
0.4285714285714285
 40
0.4285714285714285
 40
0.5714285714285714
 40
0.5714285714285714
 40
0.5714285714285714
 40
0.5714285714285714
 40
0.7142857142857143
 40
0.7142857142857143
 40
0.7142857142857143
 40
0.7142857142857143
 40
1.0
 40
1.0
 40
1.0
 40
1.0
 10
70.0744
 20
-105.3234
 30
0.0
 10
76.6213
 20
-105.3234
 30
0.0
 10
83.4902
 20
-105.3234
 30
0.0
 10
90.037
 20
-105.3234
 30
0.0
 10
90.037
 20
-105.3234
 30
0.0
 10
89.9654
 20
-104.6071
 30
0.0
 10
89.894
 20
-103.891
 30
0.0
 10
89.8223
 20
-103.1749
 30
0.0
 10
89.8223
 20
-103.1749
 30
0.0
 10
84.7732
 20
-105.7798
 30
0.0
 10
83.3518
 20
-103.9685
 30
0.0
 10
84.8854
 20
-98.5599
 30
0.0
 10
84.8854
 20
-98.5599
 30
0.0
 10
81.179
 20
-99.573
 30
0.0
 10
78.7536
 20
-99.049
 30
0.0
 10
77.9092
 20
-96.628
 30
0.0
 10
77.9092
 20
-96.628
 30
0.0
 10
72.49
 20
-96.2733
 30
0.0
 10
69.8611
 20
-92.8184
 30
0.0
 10
67.0695
 20
-89.5445
 30
0.0
 10
67.0695
 20
-89.5445
 30
0.0
 10
69.1621
 20
-94.1015
 30
0.0
 10
69.9851
 20
-99.335
 30
0.0
 10
70.0744
 20
-105.3234
 30
0.0
  0
SPLINE
  5
134
330
1F
100
AcDbEntity
  8
layer 1
 62
     7
100
AcDbSpline
210
0.0
220
0.0
230
1.0
 70
    11
 71
     3
 72
    40
 73
    36
 74
     0
 42
0.0000000001
 43
0.0000000001
 12
1.0
 22
0.0
 32
0.0
 13
1.0
 23
0.0
 33
0.0
 40
0.0
 40
0.0
 40
0.0
 40
0.0
 40
0.1
 40
0.1
 40
0.1
 40
0.1
 40
0.2
 40
0.2
 40
0.2
 40
0.2
 40
0.3
 40
0.3
 40
0.3
 40
0.3
 40
0.4
 40
0.4
 40
0.4
 40
0.4
 40
0.5
 40
0.5
 40
0.5
 40
0.5
 40
0.6
 40
0.6
 40
0.6
 40
0.6
 40
0.7
 40
0.7
 40
0.7
 40
0.7
 40
0.8
 40
0.8
 40
0.8
 40
0.8
 40
1.0
 40
1.0
 40
1.0
 40
1.0
 10
49.146
 20
-100.1698
 30
0.0
 10
49.0827
 20
-95.8288
 30
0.0
 10
48.6016
 20
-91.7384
 30
0.0
 10
47.1068
 20
-88.2566
 30
0.0
 10
47.1068
 20
-88.2566
 30
0.0
 10
50.7153
 20
-86.8209
 30
0.0
 10
53.6582
 20
-84.7194
 30
0.0
 10
56.1224
 20
-82.1391
 30
0.0
 10
56.1224
 20
-82.1391
 30
0.0
 10
55.1595
 20
-85.2484
 30
0.0
 10
53.792
 20
-88.2257
 30
0.0
 10
53.1171
 20
-91.0471
 30
0.0
 10
53.1171
 20
-91.0471
 30
0.0
 10
53.8165
 20
-98.2725
 30
0.0
 10
58.1778
 20
-101.1727
 30
0.0
 10
61.9177
 20
-97.594
 30
0.0
 10
61.9177
 20
-97.594
 30
0.0
 10
62.8933
 20
-95.3043
 30
0.0
 10
63.554
 20
-93.0146
 30
0.0
 10
63.9569
 20
-90.7251
 30
0.0
 10
63.9569
 20
-90.7251
 30
0.0
 10
65.4855
 20
-95.2844
 30
0.0
 10
65.9704
 20
-100.1915
 30
0.0
 10
65.7814
 20
-105.3234
 30
0.0
 10
65.7814
 20
-105.3234
 30
0.0
 10
62.0966
 20
-105.3234
 30
0.0
 10
58.412
 20
-105.3234
 30
0.0
 10
54.727
 20
-105.3234
 30
0.0
 10
54.727
 20
-105.3234
 30
0.0
 10
53.2008
 20
-101.7809
 30
0.0
 10
52.7727
 20
-98.2385
 30
0.0
 10
52.1511
 20
-94.6961
 30
0.0
 10
52.1511
 20
-94.6961
 30
0.0
 10
50.2751
 20
-95.6463
 30
0.0
 10
49.8238
 20
-98.0213
 30
0.0
 10
49.146
 20
-100.1698
 30
0.0
  0
SPLINE
  5
135
330
1F
100
AcDbEntity
  8
layer 1
 62
     7
100
AcDbSpline
210
0.0
220
0.0
230
1.0
 70
    11
 71
     3
 72
    16
 73
    12
 74
     0
 42
0.0000000001
 43
0.0000000001
 12
1.0
 22
0.0
 32
0.0
 13
1.0
 23
0.0
 33
0.0
 40
0.0
 40
0.0
 40
0.0
 40
0.0
 40
0.25
 40
0.25
 40
0.25
 40
0.25
 40
0.5
 40
0.5
 40
0.5
 40
0.5
 40
1.0
 40
1.0
 40
1.0
 40
1.0
 10
44.1017
 20
-96.8427
 30
0.0
 10
43.2871
 20
-93.2845
 30
0.0
 10
41.7684
 20
-89.9537
 30
0.0
 10
40.6673
 20
-86.9688
 30
0.0
 10
40.6673
 20
-86.9688
 30
0.0
 10
41.1681
 20
-87.398
 30
0.0
 10
42.3129
 20
-87.72
 30
0.0
 10
42.8138
 20
-88.1493
 30
0.0
 10
42.8138
 20
-88.1493
 30
0.0
 10
43.4759
 20
-90.8387
 30
0.0
 10
43.7436
 20
-93.8583
 30
0.0
 10
44.1017
 20
-96.8427
 30
0.0
  0
SPLINE
  5
136
330
1F
100
AcDbEntity
  8
layer 1
 62
     7
100
AcDbSpline
210
0.0
220
0.0
230
1.0
 70
    11
 71
     3
 72
   108
 73
   104
 74
     0
 42
0.0000000001
 43
0.0000000001
 12
1.0
 22
0.0
 32
0.0
 13
1.0
 23
0.0
 33
0.0
 40
0.0
 40
0.0
 40
0.0
 40
0.0
 40
0.037037037037037
 40
0.037037037037037
 40
0.037037037037037
 40
0.037037037037037
 40
0.0740740740740741
 40
0.0740740740740741
 40
0.0740740740740741
 40
0.0740740740740741
 40
0.1111111111111111
 40
0.1111111111111111
 40
0.1111111111111111
 40
0.1111111111111111
 40
0.1481481481481481
 40
0.1481481481481481
 40
0.1481481481481481
 40
0.1481481481481481
 40
0.1851851851851852
 40
0.1851851851851852
 40
0.1851851851851852
 40
0.1851851851851852
 40
0.2222222222222222
 40
0.2222222222222222
 40
0.2222222222222222
 40
0.2222222222222222
 40
0.2592592592592592
 40
0.2592592592592592
 40
0.2592592592592592
 40
0.2592592592592592
 40
0.2962962962962963
 40
0.2962962962962963
 40
0.2962962962962963
 40
0.2962962962962963
 40
0.3333333333333333
 40
0.3333333333333333
 40
0.3333333333333333
 40
0.3333333333333333
 40
0.3703703703703703
 40
0.3703703703703703
 40
0.3703703703703703
 40
0.3703703703703703
 40
0.4074074074074074
 40
0.4074074074074074
 40
0.4074074074074074
 40
0.4074074074074074
 40
0.4444444444444444
 40
0.4444444444444444
 40
0.4444444444444444
 40
0.4444444444444444
 40
0.4814814814814815
 40
0.4814814814814815
 40
0.4814814814814815
 40
0.4814814814814815
 40
0.5185185185185185
 40
0.5185185185185185
 40
0.5185185185185185
 40
0.5185185185185185
 40
0.5555555555555556
 40
0.5555555555555556
 40
0.5555555555555556
 40
0.5555555555555556
 40
0.5925925925925926
 40
0.5925925925925926
 40
0.5925925925925926
 40
0.5925925925925926
 40
0.6296296296296297
 40
0.6296296296296297
 40
0.6296296296296297
 40
0.6296296296296297
 40
0.6666666666666666
 40
0.6666666666666666
 40
0.6666666666666666
 40
0.6666666666666666
 40
0.7037037037037037
 40
0.7037037037037037
 40
0.7037037037037037
 40
0.7037037037037037
 40
0.7407407407407407
 40
0.7407407407407407
 40
0.7407407407407407
 40
0.7407407407407407
 40
0.7777777777777778
 40
0.7777777777777778
 40
0.7777777777777778
 40
0.7777777777777778
 40
0.8148148148148148
 40
0.8148148148148148
 40
0.8148148148148148
 40
0.8148148148148148
 40
0.8518518518518519
 40
0.8518518518518519
 40
0.8518518518518519
 40
0.8518518518518519
 40
0.8888888888888888
 40
0.8888888888888888
 40
0.8888888888888888
 40
0.8888888888888888
 40
0.9259259259259259
 40
0.9259259259259259
 40
0.9259259259259259
 40
0.9259259259259259
 40
1.0
 40
1.0
 40
1.0
 40
1.0
 10
29.321
 20
-51.6586
 30
0.0
 10
29.321
 20
-67.9721
 30
0.0
 10
29.321
 20
-84.2854
 30
0.0
 10
29.321
 20
-100.5989
 30
0.0
 10
29.321
 20
-100.5989
 30
0.0
 10
30.3126
 20
-101.6723
 30
0.0
 10
31.3042
 20
-102.7454
 30
0.0
 10
32.2959
 20
-103.8188
 30
0.0
 10
32.2959
 20
-103.8188
 30
0.0
 10
32.496
 20
-99.0489
 30
0.0
 10
31.1902
 20
-94.1373
 30
0.0
 10
29.321
 20
-89.9738
 30
0.0
 10
29.321
 20
-89.9738
 30
0.0
 10
28.7942
 20
-88.8003
 30
0.0
 10
30.6645
 20
-87.957
 30
0.0
 10
31.7593
 20
-89.3299
 30
0.0
 10
31.7593
 20
-89.3299
 30
0.0
 10
34.4819
 20
-92.7442
 30
0.0
 10
36.3983
 20
-97.0719
 30
0.0
 10
37.8769
 20
-101.9943
 30
0.0
 10
37.8769
 20
-101.9943
 30
0.0
 10
36.9109
 20
-93.9449
 30
0.0
 10
37.4656
 20
-85.8596
 30
0.0
 10
34.5144
 20
-78.3089
 30
0.0
 10
34.5144
 20
-78.3089
 30
0.0
 10
33.7847
 20
-76.4417
 30
0.0
 10
34.9206
 20
-75.5462
 30
0.0
 10
36.1951
 20
-77.3095
 30
0.0
 10
36.1951
 20
-77.3095
 30
0.0
 10
36.8525
 20
-78.219
 30
0.0
 10
37.3102
 20
-79.164
 30
0.0
 10
38.0914
 20
-79.8853
 30
0.0
 10
38.0914
 20
-79.8853
 30
0.0
 10
38.7628
 20
-78.5091
 30
0.0
 10
39.6023
 20
-77.469
 30
0.0
 10
40.5599
 20
-76.6655
 30
0.0
 10
40.5599
 20
-76.6655
 30
0.0
 10
38.9025
 20
-69.093
 30
0.0
 10
36.0966
 20
-62.7115
 30
0.0
 10
32.9399
 20
-56.5957
 30
0.0
 10
32.9399
 20
-56.5957
 30
0.0
 10
32.0743
 20
-54.9186
 30
0.0
 10
33.0869
 20
-54.0017
 30
0.0
 10
34.6573
 20
-55.9517
 30
0.0
 10
34.6573
 20
-55.9517
 30
0.0
 10
38.4293
 20
-60.6358
 30
0.0
 10
40.9735
 20
-66.8271
 30
0.0
 10
43.8871
 20
-74.4116
 30
0.0
 10
43.8871
 20
-74.4116
 30
0.0
 10
47.1785
 20
-73.6587
 30
0.0
 10
50.3625
 20
-73.3401
 30
0.0
 10
53.6537
 20
-73.4458
 30
0.0
 10
53.6537
 20
-73.4458
 30
0.0
 10
49.5116
 20
-70.3293
 30
0.0
 10
45.4376
 20
-67.0868
 30
0.0
 10
44.209
 20
-62.6058
 30
0.0
 10
44.209
 20
-62.6058
 30
0.0
 10
42.3037
 20
-55.6563
 30
0.0
 10
47.6379
 20
-52.9991
 30
0.0
 10
52.7951
 20
-56.1663
 30
0.0
 10
52.7951
 20
-56.1663
 30
0.0
 10
56.4349
 20
-58.4016
 30
0.0
 10
58.6274
 20
-62.4679
 30
0.0
 10
59.9858
 20
-67.4355
 30
0.0
 10
59.9858
 20
-67.4355
 30
0.0
 10
60.9776
 20
-64.9313
 30
0.0
 10
62.1422
 20
-62.427
 30
0.0
 10
63.4203
 20
-59.9228
 30
0.0
 10
63.4203
 20
-59.9228
 30
0.0
 10
62.0109
 20
-59.554
 30
0.0
 10
61.0371
 20
-58.9676
 30
0.0
 10
60.2006
 20
-58.3129
 30
0.0
 10
60.2006
 20
-58.3129
 30
0.0
 10
61.3963
 20
-57.49
 30
0.0
 10
62.8294
 20
-56.667
 30
0.0
 10
65.4595
 20
-55.8443
 30
0.0
 10
65.4595
 20
-55.8443
 30
0.0
 10
67.7133
 20
-53.5727
 30
0.0
 10
69.9672
 20
-52.9641
 30
0.0
 10
72.221
 20
-53.2686
 30
0.0
 10
72.221
 20
-53.2686
 30
0.0
 10
68.6792
 20
-51.5514
 30
0.0
 10
65.1375
 20
-49.8342
 30
0.0
 10
61.5957
 20
-48.117
 30
0.0
 10
61.5957
 20
-48.117
 30
0.0
 10
58.3419
 20
-50.9239
 30
0.0
 10
55.8996
 20
-54.1942
 30
0.0
 10
44.4237
 20
-52.3026
 30
0.0
 10
44.4237
 20
-52.3026
 30
0.0
 10
43.0062
 20
-52.2448
 30
0.0
 10
42.7288
 20
-51.6804
 30
0.0
 10
43.8871
 20
-50.4781
 30
0.0
 10
43.8871
 20
-50.4781
 30
0.0
 10
46.1064
 20
-47.7039
 30
0.0
 10
49.1448
 20
-46.2402
 30
0.0
 10
52.7951
 20
-45.7557
 30
0.0
 10
52.7951
 20
-45.7557
 30
0.0
 10
49.964
 20
-44.1887
 30
0.0
 10
46.6481
 20
-43.349
 30
0.0
 10
43.2431
 20
-42.6433
 30
0.0
 10
43.2431
 20
-42.6433
 30
0.0
 10
39.8319
 20
-47.9534
 30
0.0
 10
35.022
 20
-50.6414
 30
0.0
 10
29.321
 20
-51.6586
 30
0.0
  0
SPLINE
  5
137
330
1F
100
AcDbEntity
  8
layer 1
 62
     7
100
AcDbSpline
210
0.0
220
0.0
230
1.0
 70
    11
 71
     3
 72
    20
 73
    16
 74
     0
 42
0.0000000001
 43
0.0000000001
 12
1.0
 22
0.0
 32
0.0
 13
1.0
 23
0.0
 33
0.0
 40
0.0
 40
0.0
 40
0.0
 40
0.0
 40
0.2
 40
0.2
 40
0.2
 40
0.2
 40
0.4
 40
0.4
 40
0.4
 40
0.4
 40
0.6
 40
0.6
 40
0.6
 40
0.6
 40
1.0
 40
1.0
 40
1.0
 40
1.0
 10
61.7399
 20
-75.1532
 30
0.0
 10
60.9737
 20
-75.1532
 30
0.0
 10
60.3525
 20
-75.7745
 30
0.0
 10
60.3525
 20
-76.5408
 30
0.0
 10
60.3525
 20
-76.5408
 30
0.0
 10
60.3523
 20
-77.3071
 30
0.0
 10
60.9737
 20
-77.9283
 30
0.0
 10
61.7399
 20
-77.9283
 30
0.0
 10
61.7399
 20
-77.9283
 30
0.0
 10
62.5062
 20
-77.9283
 30
0.0
 10
63.1274
 20
-77.3071
 30
0.0
 10
63.1274
 20
-76.5408
 30
0.0
 10
63.1274
 20
-76.5408
 30
0.0
 10
63.1276
 20
-75.7745
 30
0.0
 10
62.5062
 20
-75.1532
 30
0.0
 10
61.7399
 20
-75.1532
 30
0.0
  0
SPLINE
  5
138
330
1F
100
AcDbEntity
  8
layer 1
 62
     7
100
AcDbSpline
210
0.0
220
0.0
230
1.0
 70
    27
 71
     3
 72
    12
 73
     8
 74
     0
 42
0.0000000001
 43
0.0000000001
 12
1.0
 22
0.0
 32
0.0
 13
1.0
 23
0.0
 33
0.0
 40
0.0
 40
0.0
 40
0.0
 40
0.0
 40
0.3333333333333333
 40
0.3333333333333333
 40
0.3333333333333333
 40
0.3333333333333333
 40
1.0
 40
1.0
 40
1.0
 40
1.0
 10
61.7399
 20
-75.1532
 30
0.0
 10
61.7399
 20
-75.1532
 30
0.0
 10
61.7399
 20
-75.1536
 30
0.0
 10
61.7399
 20
-75.1536
 30
0.0
 10
61.7399
 20
-75.1536
 30
0.0
 10
61.7399
 20
-75.1536
 30
0.0
 10
61.7399
 20
-75.1532
 30
0.0
 10
61.7399
 20
-75.1532
 30
0.0
  0
SPLINE
  5
139
330
1F
100
AcDbEntity
  8
layer 1
 62
     7
100
AcDbSpline
210
0.0
220
0.0
230
1.0
 70
    27
 71
     3
 72
    12
 73
     8
 74
     0
 42
0.0000000001
 43
0.0000000001
 12
1.0
 22
0.0
 32
0.0
 13
1.0
 23
0.0
 33
0.0
 40
0.0
 40
0.0
 40
0.0
 40
0.0
 40
0.3333333333333333
 40
0.3333333333333333
 40
0.3333333333333333
 40
0.3333333333333333
 40
1.0
 40
1.0
 40
1.0
 40
1.0
 10
60.3525
 20
-76.5408
 30
0.0
 10
60.3525
 20
-76.5408
 30
0.0
 10
60.3525
 20
-76.5412
 30
0.0
 10
60.3525
 20
-76.5412
 30
0.0
 10
60.3525
 20
-76.5412
 30
0.0
 10
60.3525
 20
-76.5412
 30
0.0
 10
60.3525
 20
-76.5408
 30
0.0
 10
60.3525
 20
-76.5408
 30
0.0
  0
SPLINE
  5
13A
330
1F
100
AcDbEntity
  8
layer 1
 62
     7
100
AcDbSpline
210
0.0
220
0.0
230
1.0
 70
    27
 71
     3
 72
    12
 73
     8
 74
     0
 42
0.0000000001
 43
0.0000000001
 12
1.0
 22
0.0
 32
0.0
 13
1.0
 23
0.0
 33
0.0
 40
0.0
 40
0.0
 40
0.0
 40
0.0
 40
0.3333333333333333
 40
0.3333333333333333
 40
0.3333333333333333
 40
0.3333333333333333
 40
1.0
 40
1.0
 40
1.0
 40
1.0
 10
61.7399
 20
-77.9283
 30
0.0
 10
61.7399
 20
-77.9283
 30
0.0
 10
61.7399
 20
-77.9287
 30
0.0
 10
61.7399
 20
-77.9287
 30
0.0
 10
61.7399
 20
-77.9287
 30
0.0
 10
61.7399
 20
-77.9287
 30
0.0
 10
61.7399
 20
-77.9283
 30
0.0
 10
61.7399
 20
-77.9283
 30
0.0
  0
SPLINE
  5
13B
330
1F
100
AcDbEntity
  8
layer 1
 62
     7
100
AcDbSpline
210
0.0
220
0.0
230
1.0
 70
    27
 71
     3
 72
    12
 73
     8
 74
     0
 42
0.0000000001
 43
0.0000000001
 12
1.0
 22
0.0
 32
0.0
 13
1.0
 23
0.0
 33
0.0
 40
0.0
 40
0.0
 40
0.0
 40
0.0
 40
0.3333333333333333
 40
0.3333333333333333
 40
0.3333333333333333
 40
0.3333333333333333
 40
1.0
 40
1.0
 40
1.0
 40
1.0
 10
63.1274
 20
-76.5408
 30
0.0
 10
63.1274
 20
-76.5408
 30
0.0
 10
63.1274
 20
-76.5412
 30
0.0
 10
63.1274
 20
-76.5412
 30
0.0
 10
63.1274
 20
-76.5412
 30
0.0
 10
63.1274
 20
-76.5412
 30
0.0
 10
63.1274
 20
-76.5408
 30
0.0
 10
63.1274
 20
-76.5408
 30
0.0
  0
SPLINE
  5
13C
330
1F
100
AcDbEntity
  8
layer 1
 62
     7
100
AcDbSpline
210
0.0
220
0.0
230
1.0
 70
    27
 71
     3
 72
    12
 73
     8
 74
     0
 42
0.0000000001
 43
0.0000000001
 12
1.0
 22
0.0
 32
0.0
 13
1.0
 23
0.0
 33
0.0
 40
0.0
 40
0.0
 40
0.0
 40
0.0
 40
0.3333333333333333
 40
0.3333333333333333
 40
0.3333333333333333
 40
0.3333333333333333
 40
1.0
 40
1.0
 40
1.0
 40
1.0
 10
61.7399
 20
-75.1532
 30
0.0
 10
61.7399
 20
-75.1532
 30
0.0
 10
61.7399
 20
-75.1536
 30
0.0
 10
61.7399
 20
-75.1536
 30
0.0
 10
61.7399
 20
-75.1536
 30
0.0
 10
61.7399
 20
-75.1536
 30
0.0
 10
61.7399
 20
-75.1532
 30
0.0
 10
61.7399
 20
-75.1532
 30
0.0
  0
SPLINE
  5
13D
330
1F
100
AcDbEntity
  8
layer 1
 62
     7
100
AcDbSpline
210
0.0
220
0.0
230
1.0
 70
    11
 71
     3
 72
    20
 73
    16
 74
     0
 42
0.0000000001
 43
0.0000000001
 12
1.0
 22
0.0
 32
0.0
 13
1.0
 23
0.0
 33
0.0
 40
0.0
 40
0.0
 40
0.0
 40
0.0
 40
0.2
 40
0.2
 40
0.2
 40
0.2
 40
0.4
 40
0.4
 40
0.4
 40
0.4
 40
0.6
 40
0.6
 40
0.6
 40
0.6
 40
1.0
 40
1.0
 40
1.0
 40
1.0
 10
61.7399
 20
-75.1532
 30
0.0
 10
60.9737
 20
-75.1532
 30
0.0
 10
60.3525
 20
-75.7745
 30
0.0
 10
60.3525
 20
-76.5408
 30
0.0
 10
60.3525
 20
-76.5408
 30
0.0
 10
60.3523
 20
-77.3071
 30
0.0
 10
60.9737
 20
-77.9283
 30
0.0
 10
61.7399
 20
-77.9283
 30
0.0
 10
61.7399
 20
-77.9283
 30
0.0
 10
62.5062
 20
-77.9283
 30
0.0
 10
63.1274
 20
-77.3071
 30
0.0
 10
63.1274
 20
-76.5408
 30
0.0
 10
63.1274
 20
-76.5408
 30
0.0
 10
63.1276
 20
-75.7745
 30
0.0
 10
62.5062
 20
-75.1532
 30
0.0
 10
61.7399
 20
-75.1532
 30
0.0
  0
SPLINE
  5
13E
330
1F
100
AcDbEntity
  8
layer 1
 62
     7
100
AcDbSpline
210
0.0
220
0.0
230
1.0
 70
    11
 71
     3
 72
    20
 73
    16
 74
     0
 42
0.0000000001
 43
0.0000000001
 12
1.0
 22
0.0
 32
0.0
 13
1.0
 23
0.0
 33
0.0
 40
0.0
 40
0.0
 40
0.0
 40
0.0
 40
0.2
 40
0.2
 40
0.2
 40
0.2
 40
0.4
 40
0.4
 40
0.4
 40
0.4
 40
0.6
 40
0.6
 40
0.6
 40
0.6
 40
1.0
 40
1.0
 40
1.0
 40
1.0
 10
61.7399
 20
-75.1532
 30
0.0
 10
60.9737
 20
-75.1532
 30
0.0
 10
60.3525
 20
-75.7745
 30
0.0
 10
60.3525
 20
-76.5408
 30
0.0
 10
60.3525
 20
-76.5408
 30
0.0
 10
60.3523
 20
-77.3071
 30
0.0
 10
60.9737
 20
-77.9283
 30
0.0
 10
61.7399
 20
-77.9283
 30
0.0
 10
61.7399
 20
-77.9283
 30
0.0
 10
62.5062
 20
-77.9283
 30
0.0
 10
63.1274
 20
-77.3071
 30
0.0
 10
63.1274
 20
-76.5408
 30
0.0
 10
63.1274
 20
-76.5408
 30
0.0
 10
63.1276
 20
-75.7745
 30
0.0
 10
62.5062
 20
-75.1532
 30
0.0
 10
61.7399
 20
-75.1532
 30
0.0
  0
SPLINE
  5
13F
330
1F
100
AcDbEntity
  8
layer 1
 62
     7
100
AcDbSpline
210
0.0
220
0.0
230
1.0
 70
    11
 71
     3
 72
    20
 73
    16
 74
     0
 42
0.0000000001
 43
0.0000000001
 12
1.0
 22
0.0
 32
0.0
 13
1.0
 23
0.0
 33
0.0
 40
0.0
 40
0.0
 40
0.0
 40
0.0
 40
0.2
 40
0.2
 40
0.2
 40
0.2
 40
0.4
 40
0.4
 40
0.4
 40
0.4
 40
0.6
 40
0.6
 40
0.6
 40
0.6
 40
1.0
 40
1.0
 40
1.0
 40
1.0
 10
61.7399
 20
-75.1532
 30
0.0
 10
60.9737
 20
-75.1532
 30
0.0
 10
60.3525
 20
-75.7745
 30
0.0
 10
60.3525
 20
-76.5408
 30
0.0
 10
60.3525
 20
-76.5408
 30
0.0
 10
60.3523
 20
-77.3071
 30
0.0
 10
60.9737
 20
-77.9283
 30
0.0
 10
61.7399
 20
-77.9283
 30
0.0
 10
61.7399
 20
-77.9283
 30
0.0
 10
62.5062
 20
-77.9283
 30
0.0
 10
63.1274
 20
-77.3071
 30
0.0
 10
63.1274
 20
-76.5408
 30
0.0
 10
63.1274
 20
-76.5408
 30
0.0
 10
63.1276
 20
-75.7746
 30
0.0
 10
62.5062
 20
-75.1532
 30
0.0
 10
61.7399
 20
-75.1532
 30
0.0
  0
SPLINE
  5
140
330
1F
100
AcDbEntity
  8
layer 1
 62
     7
100
AcDbSpline
210
0.0
220
0.0
230
1.0
 70
    11
 71
     3
 72
    20
 73
    16
 74
     0
 42
0.0000000001
 43
0.0000000001
 12
1.0
 22
0.0
 32
0.0
 13
1.0
 23
0.0
 33
0.0
 40
0.0
 40
0.0
 40
0.0
 40
0.0
 40
0.2
 40
0.2
 40
0.2
 40
0.2
 40
0.4
 40
0.4
 40
0.4
 40
0.4
 40
0.6
 40
0.6
 40
0.6
 40
0.6
 40
1.0
 40
1.0
 40
1.0
 40
1.0
 10
61.7399
 20
-75.1534
 30
0.0
 10
60.9737
 20
-75.1534
 30
0.0
 10
60.3525
 20
-75.7746
 30
0.0
 10
60.3525
 20
-76.5409
 30
0.0
 10
60.3525
 20
-76.5409
 30
0.0
 10
60.3523
 20
-77.3071
 30
0.0
 10
60.9737
 20
-77.9285
 30
0.0
 10
61.7399
 20
-77.9285
 30
0.0
 10
61.7399
 20
-77.9285
 30
0.0
 10
62.5062
 20
-77.9285
 30
0.0
 10
63.1274
 20
-77.3071
 30
0.0
 10
63.1274
 20
-76.5409
 30
0.0
 10
63.1274
 20
-76.5409
 30
0.0
 10
63.1276
 20
-75.7746
 30
0.0
 10
62.5062
 20
-75.1534
 30
0.0
 10
61.7399
 20
-75.1534
 30
0.0
  0
SPLINE
  5
141
330
1F
100
AcDbEntity
  8
layer 1
 62
     7
100
AcDbSpline
210
0.0
220
0.0
230
1.0
 70
    11
 71
     3
 72
    20
 73
    16
 74
     0
 42
0.0000000001
 43
0.0000000001
 12
1.0
 22
0.0
 32
0.0
 13
1.0
 23
0.0
 33
0.0
 40
0.0
 40
0.0
 40
0.0
 40
0.0
 40
0.2
 40
0.2
 40
0.2
 40
0.2
 40
0.4
 40
0.4
 40
0.4
 40
0.4
 40
0.6
 40
0.6
 40
0.6
 40
0.6
 40
1.0
 40
1.0
 40
1.0
 40
1.0
 10
61.7399
 20
-75.1534
 30
0.0
 10
60.9737
 20
-75.1534
 30
0.0
 10
60.3525
 20
-75.7746
 30
0.0
 10
60.3525
 20
-76.5409
 30
0.0
 10
60.3525
 20
-76.5409
 30
0.0
 10
60.3523
 20
-77.3073
 30
0.0
 10
60.9737
 20
-77.9285
 30
0.0
 10
61.7399
 20
-77.9285
 30
0.0
 10
61.7399
 20
-77.9285
 30
0.0
 10
62.5062
 20
-77.9285
 30
0.0
 10
63.1274
 20
-77.3073
 30
0.0
 10
63.1274
 20
-76.5409
 30
0.0
 10
63.1274
 20
-76.5409
 30
0.0
 10
63.1276
 20
-75.7746
 30
0.0
 10
62.5062
 20
-75.1534
 30
0.0
 10
61.7399
 20
-75.1534
 30
0.0
  0
SPLINE
  5
142
330
1F
100
AcDbEntity
  8
layer 1
 62
     7
100
AcDbSpline
210
0.0
220
0.0
230
1.0
 70
    11
 71
     3
 72
    20
 73
    16
 74
     0
 42
0.0000000001
 43
0.0000000001
 12
1.0
 22
0.0
 32
0.0
 13
1.0
 23
0.0
 33
0.0
 40
0.0
 40
0.0
 40
0.0
 40
0.0
 40
0.2
 40
0.2
 40
0.2
 40
0.2
 40
0.4
 40
0.4
 40
0.4
 40
0.4
 40
0.6
 40
0.6
 40
0.6
 40
0.6
 40
1.0
 40
1.0
 40
1.0
 40
1.0
 10
61.7399
 20
-75.1534
 30
0.0
 10
60.9737
 20
-75.1534
 30
0.0
 10
60.3525
 20
-75.7746
 30
0.0
 10
60.3525
 20
-76.5409
 30
0.0
 10
60.3525
 20
-76.5409
 30
0.0
 10
60.3523
 20
-77.3073
 30
0.0
 10
60.9737
 20
-77.9285
 30
0.0
 10
61.7399
 20
-77.9285
 30
0.0
 10
61.7399
 20
-77.9285
 30
0.0
 10
62.5062
 20
-77.9285
 30
0.0
 10
63.1274
 20
-77.3073
 30
0.0
 10
63.1274
 20
-76.5409
 30
0.0
 10
63.1274
 20
-76.5409
 30
0.0
 10
63.1276
 20
-75.7746
 30
0.0
 10
62.5062
 20
-75.1534
 30
0.0
 10
61.7399
 20
-75.1534
 30
0.0
  0
SPLINE
  5
143
330
1F
100
AcDbEntity
  8
layer 1
 62
     7
100
AcDbSpline
210
0.0
220
0.0
230
1.0
 70
    11
 71
     3
 72
    20
 73
    16
 74
     0
 42
0.0000000001
 43
0.0000000001
 12
1.0
 22
0.0
 32
0.0
 13
1.0
 23
0.0
 33
0.0
 40
0.0
 40
0.0
 40
0.0
 40
0.0
 40
0.2
 40
0.2
 40
0.2
 40
0.2
 40
0.4
 40
0.4
 40
0.4
 40
0.4
 40
0.6
 40
0.6
 40
0.6
 40
0.6
 40
1.0
 40
1.0
 40
1.0
 40
1.0
 10
61.7399
 20
-75.1534
 30
0.0
 10
60.9737
 20
-75.1534
 30
0.0
 10
60.3525
 20
-75.7746
 30
0.0
 10
60.3525
 20
-76.5409
 30
0.0
 10
60.3525
 20
-76.5409
 30
0.0
 10
60.3523
 20
-77.3073
 30
0.0
 10
60.9737
 20
-77.9285
 30
0.0
 10
61.7399
 20
-77.9285
 30
0.0
 10
61.7399
 20
-77.9285
 30
0.0
 10
62.5062
 20
-77.9285
 30
0.0
 10
63.1274
 20
-77.3073
 30
0.0
 10
63.1274
 20
-76.5409
 30
0.0
 10
63.1274
 20
-76.5409
 30
0.0
 10
63.1276
 20
-75.7746
 30
0.0
 10
62.5062
 20
-75.1534
 30
0.0
 10
61.7399
 20
-75.1534
 30
0.0
  0
SPLINE
  5
144
330
1F
100
AcDbEntity
  8
layer 1
 62
     7
100
AcDbSpline
210
0.0
220
0.0
230
1.0
 70
    11
 71
     3
 72
    20
 73
    16
 74
     0
 42
0.0000000001
 43
0.0000000001
 12
1.0
 22
0.0
 32
0.0
 13
1.0
 23
0.0
 33
0.0
 40
0.0
 40
0.0
 40
0.0
 40
0.0
 40
0.2
 40
0.2
 40
0.2
 40
0.2
 40
0.4
 40
0.4
 40
0.4
 40
0.4
 40
0.6
 40
0.6
 40
0.6
 40
0.6
 40
1.0
 40
1.0
 40
1.0
 40
1.0
 10
61.7399
 20
-75.1534
 30
0.0
 10
60.9737
 20
-75.1534
 30
0.0
 10
60.3525
 20
-75.7746
 30
0.0
 10
60.3525
 20
-76.5409
 30
0.0
 10
60.3525
 20
-76.5409
 30
0.0
 10
60.3523
 20
-77.3073
 30
0.0
 10
60.9737
 20
-77.9285
 30
0.0
 10
61.7399
 20
-77.9285
 30
0.0
 10
61.7399
 20
-77.9285
 30
0.0
 10
62.5062
 20
-77.9285
 30
0.0
 10
63.1274
 20
-77.3073
 30
0.0
 10
63.1274
 20
-76.5409
 30
0.0
 10
63.1274
 20
-76.5409
 30
0.0
 10
63.1276
 20
-75.7746
 30
0.0
 10
62.5062
 20
-75.1534
 30
0.0
 10
61.7399
 20
-75.1534
 30
0.0
  0
SPLINE
  5
145
330
1F
100
AcDbEntity
  8
layer 1
 62
     7
100
AcDbSpline
210
0.0
220
0.0
230
1.0
 70
    11
 71
     3
 72
    20
 73
    16
 74
     0
 42
0.0000000001
 43
0.0000000001
 12
1.0
 22
0.0
 32
0.0
 13
1.0
 23
0.0
 33
0.0
 40
0.0
 40
0.0
 40
0.0
 40
0.0
 40
0.2
 40
0.2
 40
0.2
 40
0.2
 40
0.4
 40
0.4
 40
0.4
 40
0.4
 40
0.6
 40
0.6
 40
0.6
 40
0.6
 40
1.0
 40
1.0
 40
1.0
 40
1.0
 10
61.7399
 20
-75.1534
 30
0.0
 10
60.9737
 20
-75.1534
 30
0.0
 10
60.3525
 20
-75.7746
 30
0.0
 10
60.3525
 20
-76.5409
 30
0.0
 10
60.3525
 20
-76.5409
 30
0.0
 10
60.3523
 20
-77.3073
 30
0.0
 10
60.9737
 20
-77.9285
 30
0.0
 10
61.7399
 20
-77.9285
 30
0.0
 10
61.7399
 20
-77.9285
 30
0.0
 10
62.5062
 20
-77.9285
 30
0.0
 10
63.1274
 20
-77.3073
 30
0.0
 10
63.1274
 20
-76.5409
 30
0.0
 10
63.1274
 20
-76.5409
 30
0.0
 10
63.1276
 20
-75.7746
 30
0.0
 10
62.5062
 20
-75.1534
 30
0.0
 10
61.7399
 20
-75.1534
 30
0.0
  0
SPLINE
  5
146
330
1F
100
AcDbEntity
  8
layer 1
 62
     7
100
AcDbSpline
210
0.0
220
0.0
230
1.0
 70
    11
 71
     3
 72
    20
 73
    16
 74
     0
 42
0.0000000001
 43
0.0000000001
 12
1.0
 22
0.0
 32
0.0
 13
1.0
 23
0.0
 33
0.0
 40
0.0
 40
0.0
 40
0.0
 40
0.0
 40
0.2
 40
0.2
 40
0.2
 40
0.2
 40
0.4
 40
0.4
 40
0.4
 40
0.4
 40
0.6
 40
0.6
 40
0.6
 40
0.6
 40
1.0
 40
1.0
 40
1.0
 40
1.0
 10
61.7399
 20
-75.1534
 30
0.0
 10
60.9737
 20
-75.1534
 30
0.0
 10
60.3525
 20
-75.7746
 30
0.0
 10
60.3525
 20
-76.5409
 30
0.0
 10
60.3525
 20
-76.5409
 30
0.0
 10
60.3523
 20
-77.3073
 30
0.0
 10
60.9737
 20
-77.9285
 30
0.0
 10
61.7399
 20
-77.9285
 30
0.0
 10
61.7399
 20
-77.9285
 30
0.0
 10
62.5062
 20
-77.9285
 30
0.0
 10
63.1274
 20
-77.3073
 30
0.0
 10
63.1274
 20
-76.5409
 30
0.0
 10
63.1274
 20
-76.5409
 30
0.0
 10
63.1276
 20
-75.7746
 30
0.0
 10
62.5062
 20
-75.1534
 30
0.0
 10
61.7399
 20
-75.1534
 30
0.0
  0
SPLINE
  5
147
330
1F
100
AcDbEntity
  8
layer 1
 62
     7
100
AcDbSpline
210
0.0
220
0.0
230
1.0
 70
    11
 71
     3
 72
    20
 73
    16
 74
     0
 42
0.0000000001
 43
0.0000000001
 12
1.0
 22
0.0
 32
0.0
 13
1.0
 23
0.0
 33
0.0
 40
0.0
 40
0.0
 40
0.0
 40
0.0
 40
0.2
 40
0.2
 40
0.2
 40
0.2
 40
0.4
 40
0.4
 40
0.4
 40
0.4
 40
0.6
 40
0.6
 40
0.6
 40
0.6
 40
1.0
 40
1.0
 40
1.0
 40
1.0
 10
61.7399
 20
-75.1534
 30
0.0
 10
60.9737
 20
-75.1534
 30
0.0
 10
60.3525
 20
-75.7747
 30
0.0
 10
60.3525
 20
-76.5409
 30
0.0
 10
60.3525
 20
-76.5409
 30
0.0
 10
60.3523
 20
-77.3073
 30
0.0
 10
60.9737
 20
-77.9285
 30
0.0
 10
61.7399
 20
-77.9285
 30
0.0
 10
61.7399
 20
-77.9285
 30
0.0
 10
62.5062
 20
-77.9285
 30
0.0
 10
63.1274
 20
-77.3073
 30
0.0
 10
63.1274
 20
-76.5411
 30
0.0
 10
63.1274
 20
-76.5411
 30
0.0
 10
63.1276
 20
-75.7747
 30
0.0
 10
62.5062
 20
-75.1534
 30
0.0
 10
61.7399
 20
-75.1534
 30
0.0
  0
SPLINE
  5
148
330
1F
100
AcDbEntity
  8
layer 1
 62
     7
100
AcDbSpline
210
0.0
220
0.0
230
1.0
 70
    11
 71
     3
 72
    20
 73
    16
 74
     0
 42
0.0000000001
 43
0.0000000001
 12
1.0
 22
0.0
 32
0.0
 13
1.0
 23
0.0
 33
0.0
 40
0.0
 40
0.0
 40
0.0
 40
0.0
 40
0.2
 40
0.2
 40
0.2
 40
0.2
 40
0.4
 40
0.4
 40
0.4
 40
0.4
 40
0.6
 40
0.6
 40
0.6
 40
0.6
 40
1.0
 40
1.0
 40
1.0
 40
1.0
 10
61.7399
 20
-75.1535
 30
0.0
 10
60.9737
 20
-75.1535
 30
0.0
 10
60.3525
 20
-75.7747
 30
0.0
 10
60.3525
 20
-76.5411
 30
0.0
 10
60.3525
 20
-76.5411
 30
0.0
 10
60.3523
 20
-77.3073
 30
0.0
 10
60.9737
 20
-77.9286
 30
0.0
 10
61.7399
 20
-77.9286
 30
0.0
 10
61.7399
 20
-77.9286
 30
0.0
 10
62.5062
 20
-77.9286
 30
0.0
 10
63.1274
 20
-77.3074
 30
0.0
 10
63.1274
 20
-76.5411
 30
0.0
 10
63.1274
 20
-76.5411
 30
0.0
 10
63.1276
 20
-75.7747
 30
0.0
 10
62.5062
 20
-75.1535
 30
0.0
 10
61.7399
 20
-75.1535
 30
0.0
  0
SPLINE
  5
149
330
1F
100
AcDbEntity
  8
layer 1
 62
     7
100
AcDbSpline
210
0.0
220
0.0
230
1.0
 70
    11
 71
     3
 72
    20
 73
    16
 74
     0
 42
0.0000000001
 43
0.0000000001
 12
1.0
 22
0.0
 32
0.0
 13
1.0
 23
0.0
 33
0.0
 40
0.0
 40
0.0
 40
0.0
 40
0.0
 40
0.2
 40
0.2
 40
0.2
 40
0.2
 40
0.4
 40
0.4
 40
0.4
 40
0.4
 40
0.6
 40
0.6
 40
0.6
 40
0.6
 40
1.0
 40
1.0
 40
1.0
 40
1.0
 10
61.7399
 20
-75.1535
 30
0.0
 10
60.9737
 20
-75.1535
 30
0.0
 10
60.3525
 20
-75.7747
 30
0.0
 10
60.3525
 20
-76.5411
 30
0.0
 10
60.3525
 20
-76.5411
 30
0.0
 10
60.3523
 20
-77.3074
 30
0.0
 10
60.9737
 20
-77.9286
 30
0.0
 10
61.7399
 20
-77.9286
 30
0.0
 10
61.7399
 20
-77.9286
 30
0.0
 10
62.5062
 20
-77.9286
 30
0.0
 10
63.1274
 20
-77.3074
 30
0.0
 10
63.1274
 20
-76.5411
 30
0.0
 10
63.1274
 20
-76.5411
 30
0.0
 10
63.1276
 20
-75.7747
 30
0.0
 10
62.5062
 20
-75.1535
 30
0.0
 10
61.7399
 20
-75.1535
 30
0.0
  0
SPLINE
  5
14A
330
1F
100
AcDbEntity
  8
layer 1
 62
     7
100
AcDbSpline
210
0.0
220
0.0
230
1.0
 70
    11
 71
     3
 72
    20
 73
    16
 74
     0
 42
0.0000000001
 43
0.0000000001
 12
1.0
 22
0.0
 32
0.0
 13
1.0
 23
0.0
 33
0.0
 40
0.0
 40
0.0
 40
0.0
 40
0.0
 40
0.2
 40
0.2
 40
0.2
 40
0.2
 40
0.4
 40
0.4
 40
0.4
 40
0.4
 40
0.6
 40
0.6
 40
0.6
 40
0.6
 40
1.0
 40
1.0
 40
1.0
 40
1.0
 10
61.7399
 20
-75.1535
 30
0.0
 10
60.9737
 20
-75.1535
 30
0.0
 10
60.3525
 20
-75.7747
 30
0.0
 10
60.3525
 20
-76.5411
 30
0.0
 10
60.3525
 20
-76.5411
 30
0.0
 10
60.3523
 20
-77.3074
 30
0.0
 10
60.9737
 20
-77.9286
 30
0.0
 10
61.7399
 20
-77.9286
 30
0.0
 10
61.7399
 20
-77.9286
 30
0.0
 10
62.5062
 20
-77.9286
 30
0.0
 10
63.1274
 20
-77.3074
 30
0.0
 10
63.1274
 20
-76.5411
 30
0.0
 10
63.1274
 20
-76.5411
 30
0.0
 10
63.1276
 20
-75.7747
 30
0.0
 10
62.5062
 20
-75.1535
 30
0.0
 10
61.7399
 20
-75.1535
 30
0.0
  0
SPLINE
  5
14B
330
1F
100
AcDbEntity
  8
layer 1
 62
     7
100
AcDbSpline
210
0.0
220
0.0
230
1.0
 70
    11
 71
     3
 72
    20
 73
    16
 74
     0
 42
0.0000000001
 43
0.0000000001
 12
1.0
 22
0.0
 32
0.0
 13
1.0
 23
0.0
 33
0.0
 40
0.0
 40
0.0
 40
0.0
 40
0.0
 40
0.2
 40
0.2
 40
0.2
 40
0.2
 40
0.4
 40
0.4
 40
0.4
 40
0.4
 40
0.6
 40
0.6
 40
0.6
 40
0.6
 40
1.0
 40
1.0
 40
1.0
 40
1.0
 10
61.7399
 20
-75.1535
 30
0.0
 10
60.9737
 20
-75.1535
 30
0.0
 10
60.3525
 20
-75.7747
 30
0.0
 10
60.3525
 20
-76.5411
 30
0.0
 10
60.3525
 20
-76.5411
 30
0.0
 10
60.3523
 20
-77.3074
 30
0.0
 10
60.9737
 20
-77.9286
 30
0.0
 10
61.7399
 20
-77.9286
 30
0.0
 10
61.7399
 20
-77.9286
 30
0.0
 10
62.5062
 20
-77.9286
 30
0.0
 10
63.1274
 20
-77.3074
 30
0.0
 10
63.1274
 20
-76.5411
 30
0.0
 10
63.1274
 20
-76.5411
 30
0.0
 10
63.1276
 20
-75.7747
 30
0.0
 10
62.5062
 20
-75.1535
 30
0.0
 10
61.7399
 20
-75.1535
 30
0.0
  0
SPLINE
  5
14C
330
1F
100
AcDbEntity
  8
layer 1
 62
     7
100
AcDbSpline
210
0.0
220
0.0
230
1.0
 70
    11
 71
     3
 72
    20
 73
    16
 74
     0
 42
0.0000000001
 43
0.0000000001
 12
1.0
 22
0.0
 32
0.0
 13
1.0
 23
0.0
 33
0.0
 40
0.0
 40
0.0
 40
0.0
 40
0.0
 40
0.2
 40
0.2
 40
0.2
 40
0.2
 40
0.4
 40
0.4
 40
0.4
 40
0.4
 40
0.6
 40
0.6
 40
0.6
 40
0.6
 40
1.0
 40
1.0
 40
1.0
 40
1.0
 10
61.7399
 20
-75.1535
 30
0.0
 10
60.9737
 20
-75.1535
 30
0.0
 10
60.3525
 20
-75.7747
 30
0.0
 10
60.3525
 20
-76.5411
 30
0.0
 10
60.3525
 20
-76.5411
 30
0.0
 10
60.3523
 20
-77.3074
 30
0.0
 10
60.9737
 20
-77.9286
 30
0.0
 10
61.7399
 20
-77.9286
 30
0.0
 10
61.7399
 20
-77.9286
 30
0.0
 10
62.5062
 20
-77.9286
 30
0.0
 10
63.1274
 20
-77.3074
 30
0.0
 10
63.1274
 20
-76.5411
 30
0.0
 10
63.1274
 20
-76.5411
 30
0.0
 10
63.1276
 20
-75.7747
 30
0.0
 10
62.5062
 20
-75.1535
 30
0.0
 10
61.7399
 20
-75.1535
 30
0.0
  0
SPLINE
  5
14D
330
1F
100
AcDbEntity
  8
layer 1
 62
     7
100
AcDbSpline
210
0.0
220
0.0
230
1.0
 70
    11
 71
     3
 72
    20
 73
    16
 74
     0
 42
0.0000000001
 43
0.0000000001
 12
1.0
 22
0.0
 32
0.0
 13
1.0
 23
0.0
 33
0.0
 40
0.0
 40
0.0
 40
0.0
 40
0.0
 40
0.2
 40
0.2
 40
0.2
 40
0.2
 40
0.4
 40
0.4
 40
0.4
 40
0.4
 40
0.6
 40
0.6
 40
0.6
 40
0.6
 40
1.0
 40
1.0
 40
1.0
 40
1.0
 10
61.7399
 20
-75.1535
 30
0.0
 10
60.9737
 20
-75.1535
 30
0.0
 10
60.3525
 20
-75.7747
 30
0.0
 10
60.3525
 20
-76.5411
 30
0.0
 10
60.3525
 20
-76.5411
 30
0.0
 10
60.3523
 20
-77.3074
 30
0.0
 10
60.9737
 20
-77.9286
 30
0.0
 10
61.7399
 20
-77.9286
 30
0.0
 10
61.7399
 20
-77.9286
 30
0.0
 10
62.5062
 20
-77.9286
 30
0.0
 10
63.1274
 20
-77.3074
 30
0.0
 10
63.1274
 20
-76.5411
 30
0.0
 10
63.1274
 20
-76.5411
 30
0.0
 10
63.1276
 20
-75.7747
 30
0.0
 10
62.5062
 20
-75.1535
 30
0.0
 10
61.7399
 20
-75.1535
 30
0.0
  0
SPLINE
  5
14E
330
1F
100
AcDbEntity
  8
layer 1
 62
     7
100
AcDbSpline
210
0.0
220
0.0
230
1.0
 70
    11
 71
     3
 72
    20
 73
    16
 74
     0
 42
0.0000000001
 43
0.0000000001
 12
1.0
 22
0.0
 32
0.0
 13
1.0
 23
0.0
 33
0.0
 40
0.0
 40
0.0
 40
0.0
 40
0.0
 40
0.2
 40
0.2
 40
0.2
 40
0.2
 40
0.4
 40
0.4
 40
0.4
 40
0.4
 40
0.6
 40
0.6
 40
0.6
 40
0.6
 40
1.0
 40
1.0
 40
1.0
 40
1.0
 10
61.7399
 20
-75.1535
 30
0.0
 10
60.9737
 20
-75.1535
 30
0.0
 10
60.3525
 20
-75.7747
 30
0.0
 10
60.3525
 20
-76.5411
 30
0.0
 10
60.3525
 20
-76.5411
 30
0.0
 10
60.3523
 20
-77.3074
 30
0.0
 10
60.9737
 20
-77.9286
 30
0.0
 10
61.7399
 20
-77.9286
 30
0.0
 10
61.7399
 20
-77.9286
 30
0.0
 10
62.5062
 20
-77.9286
 30
0.0
 10
63.1274
 20
-77.3074
 30
0.0
 10
63.1274
 20
-76.5411
 30
0.0
 10
63.1274
 20
-76.5411
 30
0.0
 10
63.1276
 20
-75.7749
 30
0.0
 10
62.5062
 20
-75.1535
 30
0.0
 10
61.7399
 20
-75.1535
 30
0.0
  0
SPLINE
  5
14F
330
1F
100
AcDbEntity
  8
layer 1
 62
     7
100
AcDbSpline
210
0.0
220
0.0
230
1.0
 70
    11
 71
     3
 72
    20
 73
    16
 74
     0
 42
0.0000000001
 43
0.0000000001
 12
1.0
 22
0.0
 32
0.0
 13
1.0
 23
0.0
 33
0.0
 40
0.0
 40
0.0
 40
0.0
 40
0.0
 40
0.2
 40
0.2
 40
0.2
 40
0.2
 40
0.4
 40
0.4
 40
0.4
 40
0.4
 40
0.6
 40
0.6
 40
0.6
 40
0.6
 40
1.0
 40
1.0
 40
1.0
 40
1.0
 10
61.7399
 20
-75.1536
 30
0.0
 10
60.9737
 20
-75.1536
 30
0.0
 10
60.3525
 20
-75.7749
 30
0.0
 10
60.3525
 20
-76.5412
 30
0.0
 10
60.3525
 20
-76.5412
 30
0.0
 10
60.3523
 20
-77.3074
 30
0.0
 10
60.9737
 20
-77.9287
 30
0.0
 10
61.7399
 20
-77.9287
 30
0.0
 10
61.7399
 20
-77.9287
 30
0.0
 10
62.5062
 20
-77.9287
 30
0.0
 10
63.1274
 20
-77.3074
 30
0.0
 10
63.1274
 20
-76.5412
 30
0.0
 10
63.1274
 20
-76.5412
 30
0.0
 10
63.1276
 20
-75.7749
 30
0.0
 10
62.5062
 20
-75.1536
 30
0.0
 10
61.7399
 20
-75.1536
 30
0.0
  0
SPLINE
  5
150
330
1F
100
AcDbEntity
  8
layer 1
 62
     7
100
AcDbSpline
210
0.0
220
0.0
230
1.0
 70
    11
 71
     3
 72
    20
 73
    16
 74
     0
 42
0.0000000001
 43
0.0000000001
 12
1.0
 22
0.0
 32
0.0
 13
1.0
 23
0.0
 33
0.0
 40
0.0
 40
0.0
 40
0.0
 40
0.0
 40
0.2
 40
0.2
 40
0.2
 40
0.2
 40
0.4
 40
0.4
 40
0.4
 40
0.4
 40
0.6
 40
0.6
 40
0.6
 40
0.6
 40
1.0
 40
1.0
 40
1.0
 40
1.0
 10
61.7399
 20
-75.1536
 30
0.0
 10
60.9737
 20
-75.1536
 30
0.0
 10
60.3525
 20
-75.7749
 30
0.0
 10
60.3525
 20
-76.5412
 30
0.0
 10
60.3525
 20
-76.5412
 30
0.0
 10
60.3523
 20
-77.3075
 30
0.0
 10
60.9737
 20
-77.9287
 30
0.0
 10
61.7399
 20
-77.9287
 30
0.0
 10
61.7399
 20
-77.9287
 30
0.0
 10
62.5062
 20
-77.9287
 30
0.0
 10
63.1274
 20
-77.3075
 30
0.0
 10
63.1274
 20
-76.5412
 30
0.0
 10
63.1274
 20
-76.5412
 30
0.0
 10
63.1276
 20
-75.7749
 30
0.0
 10
62.5062
 20
-75.1536
 30
0.0
 10
61.7399
 20
-75.1536
 30
0.0
  0
SPLINE
  5
151
330
1F
100
AcDbEntity
  8
layer 1
 62
     7
100
AcDbSpline
210
0.0
220
0.0
230
1.0
 70
    11
 71
     3
 72
    16
 73
    12
 74
     0
 42
0.0000000001
 43
0.0000000001
 12
1.0
 22
0.0
 32
0.0
 13
1.0
 23
0.0
 33
0.0
 40
0.0
 40
0.0
 40
0.0
 40
0.0
 40
0.25
 40
0.25
 40
0.25
 40
0.25
 40
0.5
 40
0.5
 40
0.5
 40
0.5
 40
1.0
 40
1.0
 40
1.0
 40
1.0
 10
76.7265
 20
-70.574
 30
0.0
 10
73.6705
 20
-70.6005
 30
0.0
 10
70.8785
 20
-71.2872
 30
0.0
 10
68.1926
 20
-72.2391
 30
0.0
 10
68.1926
 20
-72.2391
 30
0.0
 10
69.9733
 20
-70.7821
 30
0.0
 10
71.754
 20
-69.3251
 30
0.0
 10
73.5349
 20
-67.8681
 30
0.0
 10
73.5349
 20
-67.8681
 30
0.0
 10
74.2843
 20
-68.9273
 30
0.0
 10
75.2368
 20
-69.885
 30
0.0
 10
76.7265
 20
-70.574
 30
0.0
  0
SPLINE
  5
152
330
1F
100
AcDbEntity
  8
layer 1
 62
     7
100
AcDbSpline
210
0.0
220
0.0
230
1.0
 70
    11
 71
     3
 72
    20
 73
    16
 74
     0
 42
0.0000000001
 43
0.0000000001
 12
1.0
 22
0.0
 32
0.0
 13
1.0
 23
0.0
 33
0.0
 40
0.0
 40
0.0
 40
0.0
 40
0.0
 40
0.2
 40
0.2
 40
0.2
 40
0.2
 40
0.4
 40
0.4
 40
0.4
 40
0.4
 40
0.6
 40
0.6
 40
0.6
 40
0.6
 40
1.0
 40
1.0
 40
1.0
 40
1.0
 10
89.6316
 20
-65.5784
 30
0.0
 10
85.1979
 20
-64.0866
 30
0.0
 10
80.3044
 20
-64.04
 30
0.0
 10
74.5756
 20
-66.6192
 30
0.0
 10
74.5756
 20
-66.6192
 30
0.0
 10
75.6793
 20
-65.1598
 30
0.0
 10
76.5252
 20
-63.6149
 30
0.0
 10
77.0735
 20
-61.9706
 30
0.0
 10
77.0735
 20
-61.9706
 30
0.0
 10
79.4341
 20
-61.8829
 30
0.0
 10
81.6976
 20
-61.5035
 30
0.0
 10
83.8729
 20
-60.8605
 30
0.0
 10
83.8729
 20
-60.8605
 30
0.0
 10
85.954
 20
-62.3522
 30
0.0
 10
87.9207
 20
-63.9014
 30
0.0
 10
89.6316
 20
-65.5784
 30
0.0
  0
ENDSEC
  0
SECTION
  2
OBJECTS
  0
DICTIONARY
  5
C
330
0
100
AcDbDictionary
281
     1
  3
ACAD_GROUP
350
D
  3
ACAD_LAYOUT
350
1A
  3
ACAD_MATERIAL
350
3B
  3
ACAD_MLEADERSTYLE
350
175
  3
ACAD_MLINESTYLE
350
17
  3
ACAD_PLOTSETTINGS
350
19
  3
ACAD_PLOTSTYLENAME
350
E
  3
ACAD_TABLESTYLE
350
174
  3
ACAD_VISUALSTYLE
350
2A
  0
DICTIONARY
  5
D
102
{ACAD_REACTORS
330
C
102
}
330
C
100
AcDbDictionary
281
     1
  0
DICTIONARY
  5
1A
102
{ACAD_REACTORS
330
C
102
}
330
C
100
AcDbDictionary
281
     1
  3
Layout1
350
1E
  3
Layout2
350
26
  3
Model
350
22
  0
DICTIONARY
  5
3B
102
{ACAD_REACTORS
330
C
102
}
330
C
100
AcDbDictionary
281
     1
  3
ByBlock
350
3D
  3
ByLayer
350
3C
  3
Global
350
3E
  0
DICTIONARY
  5
175
102
{ACAD_REACTORS
330
C
102
}
330
C
100
AcDbDictionary
281
     1
  0
DICTIONARY
  5
17
102
{ACAD_REACTORS
330
C
102
}
330
C
100
AcDbDictionary
281
     1
  3
Standard
350
18
  0
DICTIONARY
  5
19
102
{ACAD_REACTORS
330
C
102
}
330
C
100
AcDbDictionary
281
     1
  0
ACDBDICTIONARYWDFLT
  5
E
102
{ACAD_REACTORS
330
C
102
}
330
C
100
AcDbDictionary
281
     1
  3
Normal
350
F
100
AcDbDictionaryWithDefault
340
F
  0
DICTIONARY
  5
174
102
{ACAD_REACTORS
330
C
102
}
330
C
100
AcDbDictionary
281
     1
  0
DICTIONARY
  5
2A
102
{ACAD_REACTORS
330
C
102
}
330
C
100
AcDbDictionary
281
     1
  3
2dWireframe
350
2F
  3
3D Hidden
350
31
  3
3dWireframe
350
30
  3
Basic
350
32
  3
Brighten
350
36
  3
ColorChange
350
3A
  3
Conceptual
350
34
  3
Dim
350
35
  3
Facepattern
350
39
  3
Flat
350
2B
  3
FlatWithEdges
350
2C
  3
Gouraud
350
2D
  3
GouraudWithEdges
350
2E
  3
Linepattern
350
38
  3
Realistic
350
33
  3
Thicken
350
37
  0
LAYOUT
  5
1E
102
{ACAD_REACTORS
330
1A
102
}
330
1A
100
AcDbPlotSettings
  1

  2
none_device
  4

  6

 40
0.0
 41
0.0
 42
0.0
 43
0.0
 44
0.0
 45
0.0
 46
0.0
 47
0.0
 48
0.0
 49
0.0
140
0.0
141
0.0
142
1.0
143
1.0
 70
   688
 72
     0
 73
     0
 74
     5
  7

 75
    16
 76
     0
 77
     2
 78
   300
147
1.0
148
0.0
149
0.0
100
AcDbLayout
  1
Layout1
 70
     1
 71
     1
 10
0.0
 20
0.0
 11
12.0
 21
9.0
 12
0.0
 22
0.0
 32
0.0
 14
1.000000000000000E+20
 24
1.000000000000000E+20
 34
1.000000000000000E+20
 15
-1.000000000000000E+20
 25
-1.000000000000000E+20
 35
-1.000000000000000E+20
146
0.0
 13
0.0
 23
0.0
 33
0.0
 16
1.0
 26
0.0
 36
0.0
 17
0.0
 27
1.0
 37
0.0
 76
     0
330
1B
  0
LAYOUT
  5
26
102
{ACAD_REACTORS
330
1A
102
}
330
1A
100
AcDbPlotSettings
  1

  2
none_device
  4

  6

 40
0.0
 41
0.0
 42
0.0
 43
0.0
 44
0.0
 45
0.0
 46
0.0
 47
0.0
 48
0.0
 49
0.0
140
0.0
141
0.0
142
1.0
143
1.0
 70
   688
 72
     0
 73
     0
 74
     5
  7

 75
    16
 76
     0
 77
     2
 78
   300
147
1.0
148
0.0
149
0.0
100
AcDbLayout
  1
Layout2
 70
     1
 71
     2
 10
0.0
 20
0.0
 11
0.0
 21
0.0
 12
0.0
 22
0.0
 32
0.0
 14
0.0
 24
0.0
 34
0.0
 15
0.0
 25
0.0
 35
0.0
146
0.0
 13
0.0
 23
0.0
 33
0.0
 16
1.0
 26
0.0
 36
0.0
 17
0.0
 27
1.0
 37
0.0
 76
     0
330
23
  0
LAYOUT
  5
22
102
{ACAD_REACTORS
330
1A
102
}
330
1A
100
AcDbPlotSettings
  1

  2
none_device
  4

  6

 40
0.0
 41
0.0
 42
0.0
 43
0.0
 44
0.0
 45
0.0
 46
0.0
 47
0.0
 48
0.0
 49
0.0
140
0.0
141
0.0
142
1.0
143
1.0
 70
  1712
 72
     0
 73
     0
 74
     0
  7

 75
     0
 76
     0
 77
     2
 78
   300
147
1.0
148
0.0
149
0.0
100
AcDbLayout
  1
Model
 70
     1
 71
     0
 10
0.0
 20
0.0
 11
12.0
 21
9.0
 12
0.0
 22
0.0
 32
0.0
 14
20.0967
 24
-114.8266
 34
0.0
 15
196.5318
 25
132.0698
 35
0.0
146
0.0
 13
0.0
 23
0.0
 33
0.0
 16
1.0
 26
0.0
 36
0.0
 17
0.0
 27
1.0
 37
0.0
 76
     0
330
1F
331
29
  0
MATERIAL
  5
3D
102
{ACAD_REACTORS
330
3B
102
}
330
3B
100
AcDbMaterial
  1
ByBlock
 72
     1
 94
      127
  0
MATERIAL
  5
3C
102
{ACAD_REACTORS
330
3B
102
}
330
3B
100
AcDbMaterial
  1
ByLayer
 72
     1
 94
      127
  0
MATERIAL
  5
3E
102
{ACAD_REACTORS
330
3B
102
}
330
3B
100
AcDbMaterial
  1
Global
 72
     1
 94
      127
  0
MLINESTYLE
  5
18
102
{ACAD_REACTORS
330
17
102
}
330
17
100
AcDbMlineStyle
  2
Standard
 70
     0
  3

 62
   256
 51
90.0
 52
90.0
 71
     2
 49
0.5
 62
   256
  6
BYLAYER
 49
-0.5
 62
   256
  6
BYLAYER
  0
ACDBPLACEHOLDER
  5
F
102
{ACAD_REACTORS
330
E
102
}
330
E
  0
VISUALSTYLE
  5
2F
102
{ACAD_REACTORS
330
2A
102
}
102
{ACAD_XDICTIONARY
360
15C
102
}
330
2A
100
AcDbVisualStyle
  2
2dWireframe
 70
     4
 71
     0
 72
     2
 73
     0
 90
        0
 40
-0.6
 41
-30.0
 62
     5
 63
     7
421
 16777215
 74
     1
 91
        4
 64
     7
 65
   257
 75
     1
175
     1
 42
1.0
 92
        0
 66
   257
 43
1.0
 76
     1
 77
     6
 78
     2
 67
     7
 79
     5
170
     0
171
     0
290
     0
174
     0
 93
        1
 44
0.0
173
     0
291
     0
 45
0.0
  0
VISUALSTYLE
  5
31
102
{ACAD_REACTORS
330
2A
102
}
102
{ACAD_XDICTIONARY
360
160
102
}
330
2A
100
AcDbVisualStyle
  2
3D Hidden
 70
     6
 71
     1
 72
     2
 73
     2
 90
        0
 40
-0.6
 41
-30.0
 62
     5
 63
     7
421
 16777215
 74
     2
 91
        2
 64
     7
 65
   257
 75
     2
175
     1
 42
40.0
 92
        0
 66
   257
 43
1.0
 76
     1
 77
     6
 78
     2
 67
     7
 79
     3
170
     0
171
     0
290
     0
174
     0
 93
        1
 44
0.0
173
     0
291
     0
 45
0.0
  0
VISUALSTYLE
  5
30
102
{ACAD_REACTORS
330
2A
102
}
102
{ACAD_XDICTIONARY
360
15E
102
}
330
2A
100
AcDbVisualStyle
  2
3dWireframe
 70
     5
 71
     0
 72
     2
 73
     0
 90
        0
 40
-0.6
 41
-30.0
 62
     5
 63
     7
421
 16777215
 74
     1
 91
        4
 64
     7
 65
   257
 75
     1
175
     1
 42
1.0
 92
        0
 66
   257
 43
1.0
 76
     1
 77
     6
 78
     2
 67
     7
 79
     5
170
     0
171
     0
290
     0
174
     0
 93
        1
 44
0.0
173
     0
291
     0
 45
0.0
  0
VISUALSTYLE
  5
32
102
{ACAD_REACTORS
330
2A
102
}
102
{ACAD_XDICTIONARY
360
162
102
}
330
2A
100
AcDbVisualStyle
  2
Basic
 70
     7
 71
     1
 72
     0
 73
     1
 90
        0
 40
-0.6
 41
-30.0
 62
     5
 63
     7
421
 16777215
 74
     0
 91
        4
 64
     7
 65
   257
 75
     1
175
     1
 42
1.0
 92
        8
 66
     7
 43
1.0
 76
     1
 77
     6
 78
     2
 67
     7
 79
     5
170
     0
171
     0
290
     0
174
     0
 93
        1
 44
0.0
173
     0
291
     1
 45
0.0
  0
VISUALSTYLE
  5
36
102
{ACAD_REACTORS
330
2A
102
}
102
{ACAD_XDICTIONARY
360
16A
102
}
330
2A
100
AcDbVisualStyle
  2
Brighten
 70
    12
 71
     2
 72
     2
 73
     0
 90
        0
 40
-0.6
 41
-30.0
 62
     5
 63
     7
421
 16777215
 74
     1
 91
        4
 64
     7
 65
   257
 75
     1
175
     1
 42
1.0
 92
        8
 66
     7
 43
1.0
 76
     1
 77
     6
 78
     2
 67
     7
 79
     5
170
     0
171
     0
290
     0
174
     0
 93
        1
 44
50.0
173
     0
291
     1
 45
0.0
  0
VISUALSTYLE
  5
3A
102
{ACAD_REACTORS
330
2A
102
}
102
{ACAD_XDICTIONARY
360
172
102
}
330
2A
100
AcDbVisualStyle
  2
ColorChange
 70
    16
 71
     2
 72
     2
 73
     3
 90
        0
 40
-0.6
 41
-30.0
 62
     5
 63
     8
421
  8421504
 74
     1
 91
        4
 64
     7
 65
   257
 75
     1
175
     1
 42
1.0
 92
        8
 66
     8
424
  8421504
 43
1.0
 76
     1
 77
     6
 78
     2
 67
     7
 79
     5
170
     0
171
     0
290
     0
174
     0
 93
        1
 44
0.0
173
     0
291
     1
 45
0.0
  0
VISUALSTYLE
  5
34
102
{ACAD_REACTORS
330
2A
102
}
102
{ACAD_XDICTIONARY
360
166
102
}
330
2A
100
AcDbVisualStyle
  2
Conceptual
 70
     9
 71
     3
 72
     2
 73
     0
 90
        0
 40
-0.6
 41
-30.0
 62
     5
 63
     7
421
 16777215
 74
     2
 91
        2
 64
     7
 65
   257
 75
     1
175
     1
 42
40.0
 92
        8
 66
     7
 43
1.0
 76
     1
 77
     6
 78
     2
 67
     7
 79
     3
170
     0
171
     0
290
     0
174
     0
 93
        1
 44
0.0
173
     0
291
     0
 45
0.0
  0
VISUALSTYLE
  5
35
102
{ACAD_REACTORS
330
2A
102
}
102
{ACAD_XDICTIONARY
360
168
102
}
330
2A
100
AcDbVisualStyle
  2
Dim
 70
    11
 71
     2
 72
     2
 73
     0
 90
        0
 40
-0.6
 41
-30.0
 62
     5
 63
     7
421
 16777215
 74
     1
 91
        4
 64
     7
 65
   257
 75
     1
175
     1
 42
1.0
 92
        8
 66
     7
 43
1.0
 76
     1
 77
     6
 78
     2
 67
     7
 79
     5
170
     0
171
     0
290
     0
174
     0
 93
        1
 44
-50.0
173
     0
291
     1
 45
0.0
  0
VISUALSTYLE
  5
39
102
{ACAD_REACTORS
330
2A
102
}
102
{ACAD_XDICTIONARY
360
170
102
}
330
2A
100
AcDbVisualStyle
  2
Facepattern
 70
    15
 71
     2
 72
     2
 73
     0
 90
        0
 40
-0.6
 41
-30.0
 62
     5
 63
     7
421
 16777215
 74
     1
 91
        4
 64
     7
 65
   257
 75
     1
175
     1
 42
1.0
 92
        8
 66
     7
 43
1.0
 76
     1
 77
     6
 78
     2
 67
     7
 79
     5
170
     0
171
     0
290
     0
174
     0
 93
        1
 44
0.0
173
     0
291
     1
 45
0.0
  0
VISUALSTYLE
  5
2B
102
{ACAD_REACTORS
330
2A
102
}
102
{ACAD_XDICTIONARY
360
154
102
}
330
2A
100
AcDbVisualStyle
  2
Flat
 70
     0
 71
     2
 72
     1
 73
     1
 90
        2
 40
-0.6
 41
30.0
 62
     5
 63
     7
421
 16777215
 74
     0
 91
        4
 64
     7
 65
   257
 75
     1
175
     1
 42
1.0
 92
        8
 66
     7
 43
1.0
 76
     1
 77
     6
 78
     2
 67
     7
 79
     5
170
     0
171
     0
290
     0
174
     0
 93
       13
 44
0.0
173
     0
291
     1
 45
0.0
  0
VISUALSTYLE
  5
2C
102
{ACAD_REACTORS
330
2A
102
}
102
{ACAD_XDICTIONARY
360
156
102
}
330
2A
100
AcDbVisualStyle
  2
FlatWithEdges
 70
     1
 71
     2
 72
     1
 73
     1
 90
        2
 40
-0.6
 41
30.0
 62
     5
 63
     7
421
 16777215
 74
     1
 91
        4
 64
     7
 65
   257
 75
     1
175
     1
 42
1.0
 92
        0
 66
   257
 43
1.0
 76
     1
 77
     6
 78
     2
 67
     7
 79
     5
170
     0
171
     0
290
     0
174
     0
 93
       13
 44
0.0
173
     0
291
     1
 45
0.0
  0
VISUALSTYLE
  5
2D
102
{ACAD_REACTORS
330
2A
102
}
102
{ACAD_XDICTIONARY
360
158
102
}
330
2A
100
AcDbVisualStyle
  2
Gouraud
 70
     2
 71
     2
 72
     2
 73
     1
 90
        2
 40
-0.6
 41
30.0
 62
     5
 63
     7
421
 16777215
 74
     0
 91
        4
 64
     7
 65
   257
 75
     1
175
     1
 42
1.0
 92
        0
 66
     7
 43
1.0
 76
     1
 77
     6
 78
     2
 67
     7
 79
     5
170
     0
171
     0
290
     0
174
     0
 93
       13
 44
0.0
173
     0
291
     1
 45
0.0
  0
VISUALSTYLE
  5
2E
102
{ACAD_REACTORS
330
2A
102
}
102
{ACAD_XDICTIONARY
360
15A
102
}
330
2A
100
AcDbVisualStyle
  2
GouraudWithEdges
 70
     3
 71
     2
 72
     2
 73
     1
 90
        2
 40
-0.6
 41
30.0
 62
     5
 63
     7
421
 16777215
 74
     1
 91
        4
 64
     7
 65
   257
 75
     1
175
     1
 42
1.0
 92
        0
 66
   257
 43
1.0
 76
     1
 77
     6
 78
     2
 67
     7
 79
     5
170
     0
171
     0
290
     0
174
     0
 93
       13
 44
0.0
173
     0
291
     1
 45
0.0
  0
VISUALSTYLE
  5
38
102
{ACAD_REACTORS
330
2A
102
}
102
{ACAD_XDICTIONARY
360
16E
102
}
330
2A
100
AcDbVisualStyle
  2
Linepattern
 70
    14
 71
     2
 72
     2
 73
     0
 90
        0
 40
-0.6
 41
-30.0
 62
     5
 63
     7
421
 16777215
 74
     1
 91
        4
 64
     7
 65
   257
 75
     7
175
     7
 42
1.0
 92
        8
 66
     7
 43
1.0
 76
     1
 77
     6
 78
     2
 67
     7
 79
     5
170
     0
171
     0
290
     0
174
     0
 93
        1
 44
0.0
173
     0
291
     1
 45
0.0
  0
VISUALSTYLE
  5
33
102
{ACAD_REACTORS
330
2A
102
}
102
{ACAD_XDICTIONARY
360
164
102
}
330
2A
100
AcDbVisualStyle
  2
Realistic
 70
     8
 71
     2
 72
     2
 73
     0
 90
        0
 40
-0.6
 41
-30.0
 62
     5
 63
     7
421
 16777215
 74
     1
 91
        0
 64
     7
 65
   257
 75
     1
175
     1
 42
1.0
 92
        8
 66
     8
424
  7895160
 43
1.0
 76
     1
 77
     6
 78
     2
 67
     7
 79
     5
170
     0
171
     0
290
     0
174
     0
 93
       13
 44
0.0
173
     0
291
     0
 45
0.0
  0
VISUALSTYLE
  5
37
102
{ACAD_REACTORS
330
2A
102
}
102
{ACAD_XDICTIONARY
360
16C
102
}
330
2A
100
AcDbVisualStyle
  2
Thicken
 70
    13
 71
     2
 72
     2
 73
     0
 90
        0
 40
-0.6
 41
-30.0
 62
     5
 63
     7
421
 16777215
 74
     1
 91
        4
 64
     7
 65
   257
 75
     1
175
     1
 42
1.0
 92
       12
 66
     7
 43
1.0
 76
     1
 77
     6
 78
     2
 67
     7
 79
     5
170
     0
171
     0
290
     0
174
     0
 93
        1
 44
0.0
173
     0
291
     1
 45
0.0
  0
DICTIONARY
  5
15C
330
2F
100
AcDbDictionary
280
     1
281
     1
  3
ACAD_XREC_ROUNDTRIP
360
15D
  0
DICTIONARY
  5
160
330
31
100
AcDbDictionary
280
     1
281
     1
  3
ACAD_XREC_ROUNDTRIP
360
161
  0
DICTIONARY
  5
15E
330
30
100
AcDbDictionary
280
     1
281
     1
  3
ACAD_XREC_ROUNDTRIP
360
15F
  0
DICTIONARY
  5
162
330
32
100
AcDbDictionary
280
     1
281
     1
  3
ACAD_XREC_ROUNDTRIP
360
163
  0
DICTIONARY
  5
16A
330
36
100
AcDbDictionary
280
     1
281
     1
  3
ACAD_XREC_ROUNDTRIP
360
16B
  0
DICTIONARY
  5
172
330
3A
100
AcDbDictionary
280
     1
281
     1
  3
ACAD_XREC_ROUNDTRIP
360
173
  0
DICTIONARY
  5
166
330
34
100
AcDbDictionary
280
     1
281
     1
  3
ACAD_XREC_ROUNDTRIP
360
167
  0
DICTIONARY
  5
168
330
35
100
AcDbDictionary
280
     1
281
     1
  3
ACAD_XREC_ROUNDTRIP
360
169
  0
DICTIONARY
  5
170
330
39
100
AcDbDictionary
280
     1
281
     1
  3
ACAD_XREC_ROUNDTRIP
360
171
  0
DICTIONARY
  5
154
330
2B
100
AcDbDictionary
280
     1
281
     1
  3
ACAD_XREC_ROUNDTRIP
360
155
  0
DICTIONARY
  5
156
330
2C
100
AcDbDictionary
280
     1
281
     1
  3
ACAD_XREC_ROUNDTRIP
360
157
  0
DICTIONARY
  5
158
330
2D
100
AcDbDictionary
280
     1
281
     1
  3
ACAD_XREC_ROUNDTRIP
360
159
  0
DICTIONARY
  5
15A
330
2E
100
AcDbDictionary
280
     1
281
     1
  3
ACAD_XREC_ROUNDTRIP
360
15B
  0
DICTIONARY
  5
16E
330
38
100
AcDbDictionary
280
     1
281
     1
  3
ACAD_XREC_ROUNDTRIP
360
16F
  0
DICTIONARY
  5
164
330
33
100
AcDbDictionary
280
     1
281
     1
  3
ACAD_XREC_ROUNDTRIP
360
165
  0
DICTIONARY
  5
16C
330
37
100
AcDbDictionary
280
     1
281
     1
  3
ACAD_XREC_ROUNDTRIP
360
16D
  0
XRECORD
  5
15D
102
{ACAD_REACTORS
330
15C
102
}
330
15C
100
AcDbXrecord
280
     1
102
RTVSPropertyOp0
 70
     1
102
RTVSPropertyOp1
 70
     1
102
RTVSPropertyOp2
 70
     1
102
RTVSPropertyOp3
 70
     1
102
RTVSPropertyOp4
 70
     1
102
RTVSPropertyOp5
 70
     1
102
RTVSPropertyOp6
 70
     1
102
RTVSPropertyOp7
 70
     1
102
RTVSPropertyOp8
 70
     1
102
RTVSPropertyOp9
 70
     1
102
RTVSPropertyOp10
 70
     1
102
RTVSPropertyOp11
 70
     1
102
RTVSPropertyOp12
 70
     1
102
RTVSPropertyOp13
 70
     1
102
RTVSPropertyOp14
 70
     1
102
RTVSPropertyOp15
 70
     1
102
RTVSPropertyOp16
 70
     1
102
RTVSPropertyOp17
 70
     1
102
RTVSPropertyOp18
 70
     1
102
RTVSPropertyOp19
 70
     1
102
RTVSPropertyOp20
 70
     1
102
RTVSPropertyOp21
 70
     1
102
RTVSPropertyOp22
 70
     1
102
RTVSPropertyOp23
 70
     1
102
RTVSPropertyOp24
 70
     1
102
RTVSPropertyOp25
 70
     1
102
RTVSPropertyOp26
 70
     1
102
RTVSPropertyOp27
 70
     1
102
RTVSPropertyOp28
 70
     1
102
RTVSPropertyOp29
 70
     1
102
RTVSPropertyOp30
 70
     1
102
RTVSPropertyOp31
 70
     1
102
RTVSPropertyOp32
 70
     1
  0
XRECORD
  5
161
102
{ACAD_REACTORS
330
160
102
}
330
160
100
AcDbXrecord
280
     1
102
RTVSPropertyOp0
 70
     1
102
RTVSPropertyOp1
 70
     1
102
RTVSPropertyOp2
 70
     1
102
RTVSPropertyOp3
 70
     1
102
RTVSPropertyOp4
 70
     1
102
RTVSPropertyOp5
 70
     1
102
RTVSPropertyOp6
 70
     1
102
RTVSPropertyOp7
 70
     1
102
RTVSPropertyOp8
 70
     1
102
RTVSPropertyOp9
 70
     1
102
RTVSPropertyOp10
 70
     1
102
RTVSPropertyOp11
 70
     1
102
RTVSPropertyOp12
 70
     1
102
RTVSPropertyOp13
 70
     1
102
RTVSPropertyOp14
 70
     1
102
RTVSPropertyOp15
 70
     1
102
RTVSPropertyOp16
 70
     1
102
RTVSPropertyOp17
 70
     1
102
RTVSPropertyOp18
 70
     1
102
RTVSPropertyOp19
 70
     1
102
RTVSPropertyOp20
 70
     1
102
RTVSPropertyOp21
 70
     1
102
RTVSPropertyOp22
 70
     1
102
RTVSPropertyOp23
 70
     1
102
RTVSPropertyOp24
 70
     1
102
RTVSPropertyOp25
 70
     1
102
RTVSPropertyOp26
 70
     1
102
RTVSPropertyOp27
 70
     1
102
RTVSPropertyOp28
 70
     1
102
RTVSPropertyOp29
 70
     1
102
RTVSPropertyOp30
 70
     1
102
RTVSPropertyOp31
 70
     1
102
RTVSPropertyOp32
 70
     1
  0
XRECORD
  5
15F
102
{ACAD_REACTORS
330
15E
102
}
330
15E
100
AcDbXrecord
280
     1
102
RTVSPropertyOp0
 70
     1
102
RTVSPropertyOp1
 70
     1
102
RTVSPropertyOp2
 70
     1
102
RTVSPropertyOp3
 70
     1
102
RTVSPropertyOp4
 70
     1
102
RTVSPropertyOp5
 70
     1
102
RTVSPropertyOp6
 70
     1
102
RTVSPropertyOp7
 70
     1
102
RTVSPropertyOp8
 70
     1
102
RTVSPropertyOp9
 70
     1
102
RTVSPropertyOp10
 70
     1
102
RTVSPropertyOp11
 70
     1
102
RTVSPropertyOp12
 70
     1
102
RTVSPropertyOp13
 70
     1
102
RTVSPropertyOp14
 70
     1
102
RTVSPropertyOp15
 70
     1
102
RTVSPropertyOp16
 70
     1
102
RTVSPropertyOp17
 70
     1
102
RTVSPropertyOp18
 70
     1
102
RTVSPropertyOp19
 70
     1
102
RTVSPropertyOp20
 70
     1
102
RTVSPropertyOp21
 70
     1
102
RTVSPropertyOp22
 70
     1
102
RTVSPropertyOp23
 70
     1
102
RTVSPropertyOp24
 70
     1
102
RTVSPropertyOp25
 70
     1
102
RTVSPropertyOp26
 70
     1
102
RTVSPropertyOp27
 70
     1
102
RTVSPropertyOp28
 70
     1
102
RTVSPropertyOp29
 70
     1
102
RTVSPropertyOp30
 70
     1
102
RTVSPropertyOp31
 70
     1
102
RTVSPropertyOp32
 70
     1
  0
XRECORD
  5
163
102
{ACAD_REACTORS
330
162
102
}
330
162
100
AcDbXrecord
280
     1
102
RTVSPropertyOp0
 70
     1
102
RTVSPropertyOp1
 70
     1
102
RTVSPropertyOp2
 70
     1
102
RTVSPropertyOp3
 70
     1
102
RTVSPropertyOp4
 70
     1
102
RTVSPropertyOp5
 70
     1
102
RTVSPropertyOp6
 70
     1
102
RTVSPropertyOp7
 70
     1
102
RTVSPropertyOp8
 70
     1
102
RTVSPropertyOp9
 70
     1
102
RTVSPropertyOp10
 70
     1
102
RTVSPropertyOp11
 70
     1
102
RTVSPropertyOp12
 70
     1
102
RTVSPropertyOp13
 70
     1
102
RTVSPropertyOp14
 70
     1
102
RTVSPropertyOp15
 70
     1
102
RTVSPropertyOp16
 70
     1
102
RTVSPropertyOp17
 70
     1
102
RTVSPropertyOp18
 70
     1
102
RTVSPropertyOp19
 70
     1
102
RTVSPropertyOp20
 70
     1
102
RTVSPropertyOp21
 70
     1
102
RTVSPropertyOp22
 70
     1
102
RTVSPropertyOp23
 70
     1
102
RTVSPropertyOp24
 70
     1
102
RTVSPropertyOp25
 70
     1
102
RTVSPropertyOp26
 70
     1
102
RTVSPropertyOp27
 70
     1
102
RTVSPropertyOp28
 70
     1
102
RTVSPropertyOp29
 70
     1
102
RTVSPropertyOp30
 70
     1
102
RTVSPropertyOp31
 70
     1
102
RTVSPropertyOp32
 70
     1
  0
XRECORD
  5
16B
102
{ACAD_REACTORS
330
16A
102
}
330
16A
100
AcDbXrecord
280
     1
102
RTVSPropertyOp0
 70
     1
102
RTVSPropertyOp1
 70
     1
102
RTVSPropertyOp2
 70
     1
102
RTVSPropertyOp3
 70
     1
102
RTVSPropertyOp4
 70
     1
102
RTVSPropertyOp5
 70
     1
102
RTVSPropertyOp6
 70
     1
102
RTVSPropertyOp7
 70
     1
102
RTVSPropertyOp8
 70
     1
102
RTVSPropertyOp9
 70
     1
102
RTVSPropertyOp10
 70
     1
102
RTVSPropertyOp11
 70
     1
102
RTVSPropertyOp12
 70
     1
102
RTVSPropertyOp13
 70
     1
102
RTVSPropertyOp14
 70
     1
102
RTVSPropertyOp15
 70
     1
102
RTVSPropertyOp16
 70
     1
102
RTVSPropertyOp17
 70
     1
102
RTVSPropertyOp18
 70
     1
102
RTVSPropertyOp19
 70
     1
102
RTVSPropertyOp20
 70
     1
102
RTVSPropertyOp21
 70
     1
102
RTVSPropertyOp22
 70
     1
102
RTVSPropertyOp23
 70
     1
102
RTVSPropertyOp24
 70
     1
102
RTVSPropertyOp25
 70
     1
102
RTVSPropertyOp26
 70
     1
102
RTVSPropertyOp27
 70
     1
102
RTVSPropertyOp28
 70
     1
102
RTVSPropertyOp29
 70
     1
102
RTVSPropertyOp30
 70
     1
102
RTVSPropertyOp31
 70
     1
102
RTVSPropertyOp32
 70
     1
  0
XRECORD
  5
173
102
{ACAD_REACTORS
330
172
102
}
330
172
100
AcDbXrecord
280
     1
102
RTVSPropertyOp0
 70
     1
102
RTVSPropertyOp1
 70
     1
102
RTVSPropertyOp2
 70
     1
102
RTVSPropertyOp3
 70
     1
102
RTVSPropertyOp4
 70
     1
102
RTVSPropertyOp5
 70
     1
102
RTVSPropertyOp6
 70
     1
102
RTVSPropertyOp7
 70
     1
102
RTVSPropertyOp8
 70
     1
102
RTVSPropertyOp9
 70
     1
102
RTVSPropertyOp10
 70
     1
102
RTVSPropertyOp11
 70
     1
102
RTVSPropertyOp12
 70
     1
102
RTVSPropertyOp13
 70
     1
102
RTVSPropertyOp14
 70
     1
102
RTVSPropertyOp15
 70
     1
102
RTVSPropertyOp16
 70
     1
102
RTVSPropertyOp17
 70
     1
102
RTVSPropertyOp18
 70
     1
102
RTVSPropertyOp19
 70
     1
102
RTVSPropertyOp20
 70
     1
102
RTVSPropertyOp21
 70
     1
102
RTVSPropertyOp22
 70
     1
102
RTVSPropertyOp23
 70
     1
102
RTVSPropertyOp24
 70
     1
102
RTVSPropertyOp25
 70
     1
102
RTVSPropertyOp26
 70
     1
102
RTVSPropertyOp27
 70
     1
102
RTVSPropertyOp28
 70
     1
102
RTVSPropertyOp29
 70
     1
102
RTVSPropertyOp30
 70
     1
102
RTVSPropertyOp31
 70
     1
102
RTVSPropertyOp32
 70
     1
  0
XRECORD
  5
167
102
{ACAD_REACTORS
330
166
102
}
330
166
100
AcDbXrecord
280
     1
102
RTVSPropertyOp0
 70
     1
102
RTVSPropertyOp1
 70
     1
102
RTVSPropertyOp2
 70
     1
102
RTVSPropertyOp3
 70
     1
102
RTVSPropertyOp4
 70
     1
102
RTVSPropertyOp5
 70
     1
102
RTVSPropertyOp6
 70
     1
102
RTVSPropertyOp7
 70
     1
102
RTVSPropertyOp8
 70
     1
102
RTVSPropertyOp9
 70
     1
102
RTVSPropertyOp10
 70
     1
102
RTVSPropertyOp11
 70
     1
102
RTVSPropertyOp12
 70
     1
102
RTVSPropertyOp13
 70
     1
102
RTVSPropertyOp14
 70
     1
102
RTVSPropertyOp15
 70
     1
102
RTVSPropertyOp16
 70
     1
102
RTVSPropertyOp17
 70
     1
102
RTVSPropertyOp18
 70
     1
102
RTVSPropertyOp19
 70
     1
102
RTVSPropertyOp20
 70
     1
102
RTVSPropertyOp21
 70
     1
102
RTVSPropertyOp22
 70
     1
102
RTVSPropertyOp23
 70
     1
102
RTVSPropertyOp24
 70
     1
102
RTVSPropertyOp25
 70
     1
102
RTVSPropertyOp26
 70
     1
102
RTVSPropertyOp27
 70
     1
102
RTVSPropertyOp28
 70
     1
102
RTVSPropertyOp29
 70
     1
102
RTVSPropertyOp30
 70
     1
102
RTVSPropertyOp31
 70
     1
102
RTVSPropertyOp32
 70
     1
  0
XRECORD
  5
169
102
{ACAD_REACTORS
330
168
102
}
330
168
100
AcDbXrecord
280
     1
102
RTVSPropertyOp0
 70
     1
102
RTVSPropertyOp1
 70
     1
102
RTVSPropertyOp2
 70
     1
102
RTVSPropertyOp3
 70
     1
102
RTVSPropertyOp4
 70
     1
102
RTVSPropertyOp5
 70
     1
102
RTVSPropertyOp6
 70
     1
102
RTVSPropertyOp7
 70
     1
102
RTVSPropertyOp8
 70
     1
102
RTVSPropertyOp9
 70
     1
102
RTVSPropertyOp10
 70
     1
102
RTVSPropertyOp11
 70
     1
102
RTVSPropertyOp12
 70
     1
102
RTVSPropertyOp13
 70
     1
102
RTVSPropertyOp14
 70
     1
102
RTVSPropertyOp15
 70
     1
102
RTVSPropertyOp16
 70
     1
102
RTVSPropertyOp17
 70
     1
102
RTVSPropertyOp18
 70
     1
102
RTVSPropertyOp19
 70
     1
102
RTVSPropertyOp20
 70
     1
102
RTVSPropertyOp21
 70
     1
102
RTVSPropertyOp22
 70
     1
102
RTVSPropertyOp23
 70
     1
102
RTVSPropertyOp24
 70
     1
102
RTVSPropertyOp25
 70
     1
102
RTVSPropertyOp26
 70
     1
102
RTVSPropertyOp27
 70
     1
102
RTVSPropertyOp28
 70
     1
102
RTVSPropertyOp29
 70
     1
102
RTVSPropertyOp30
 70
     1
102
RTVSPropertyOp31
 70
     1
102
RTVSPropertyOp32
 70
     1
  0
XRECORD
  5
171
102
{ACAD_REACTORS
330
170
102
}
330
170
100
AcDbXrecord
280
     1
102
RTVSPropertyOp0
 70
     1
102
RTVSPropertyOp1
 70
     1
102
RTVSPropertyOp2
 70
     1
102
RTVSPropertyOp3
 70
     1
102
RTVSPropertyOp4
 70
     1
102
RTVSPropertyOp5
 70
     1
102
RTVSPropertyOp6
 70
     1
102
RTVSPropertyOp7
 70
     1
102
RTVSPropertyOp8
 70
     1
102
RTVSPropertyOp9
 70
     1
102
RTVSPropertyOp10
 70
     1
102
RTVSPropertyOp11
 70
     1
102
RTVSPropertyOp12
 70
     1
102
RTVSPropertyOp13
 70
     1
102
RTVSPropertyOp14
 70
     1
102
RTVSPropertyOp15
 70
     1
102
RTVSPropertyOp16
 70
     1
102
RTVSPropertyOp17
 70
     1
102
RTVSPropertyOp18
 70
     1
102
RTVSPropertyOp19
 70
     1
102
RTVSPropertyOp20
 70
     1
102
RTVSPropertyOp21
 70
     1
102
RTVSPropertyOp22
 70
     1
102
RTVSPropertyOp23
 70
     1
102
RTVSPropertyOp24
 70
     1
102
RTVSPropertyOp25
 70
     1
102
RTVSPropertyOp26
 70
     1
102
RTVSPropertyOp27
 70
     1
102
RTVSPropertyOp28
 70
     1
102
RTVSPropertyOp29
 70
     1
102
RTVSPropertyOp30
 70
     1
102
RTVSPropertyOp31
 70
     1
102
RTVSPropertyOp32
 70
     1
  0
XRECORD
  5
155
102
{ACAD_REACTORS
330
154
102
}
330
154
100
AcDbXrecord
280
     1
102
RTVSPropertyOp0
 70
     1
102
RTVSPropertyOp1
 70
     1
102
RTVSPropertyOp2
 70
     1
102
RTVSPropertyOp3
 70
     1
102
RTVSPropertyOp4
 70
     1
102
RTVSPropertyOp5
 70
     1
102
RTVSPropertyOp6
 70
     1
102
RTVSPropertyOp7
 70
     1
102
RTVSPropertyOp8
 70
     1
102
RTVSPropertyOp9
 70
     1
102
RTVSPropertyOp10
 70
     1
102
RTVSPropertyOp11
 70
     1
102
RTVSPropertyOp12
 70
     1
102
RTVSPropertyOp13
 70
     1
102
RTVSPropertyOp14
 70
     1
102
RTVSPropertyOp15
 70
     1
102
RTVSPropertyOp16
 70
     1
102
RTVSPropertyOp17
 70
     1
102
RTVSPropertyOp18
 70
     1
102
RTVSPropertyOp19
 70
     1
102
RTVSPropertyOp20
 70
     1
102
RTVSPropertyOp21
 70
     1
102
RTVSPropertyOp22
 70
     1
102
RTVSPropertyOp23
 70
     1
102
RTVSPropertyOp24
 70
     1
102
RTVSPropertyOp25
 70
     1
102
RTVSPropertyOp26
 70
     1
102
RTVSPropertyOp27
 70
     1
102
RTVSPropertyOp28
 70
     1
102
RTVSPropertyOp29
 70
     1
102
RTVSPropertyOp30
 70
     1
102
RTVSPropertyOp31
 70
     1
102
RTVSPropertyOp32
 70
     1
  0
XRECORD
  5
157
102
{ACAD_REACTORS
330
156
102
}
330
156
100
AcDbXrecord
280
     1
102
RTVSPropertyOp0
 70
     1
102
RTVSPropertyOp1
 70
     1
102
RTVSPropertyOp2
 70
     1
102
RTVSPropertyOp3
 70
     1
102
RTVSPropertyOp4
 70
     1
102
RTVSPropertyOp5
 70
     1
102
RTVSPropertyOp6
 70
     1
102
RTVSPropertyOp7
 70
     1
102
RTVSPropertyOp8
 70
     1
102
RTVSPropertyOp9
 70
     1
102
RTVSPropertyOp10
 70
     1
102
RTVSPropertyOp11
 70
     1
102
RTVSPropertyOp12
 70
     1
102
RTVSPropertyOp13
 70
     1
102
RTVSPropertyOp14
 70
     1
102
RTVSPropertyOp15
 70
     1
102
RTVSPropertyOp16
 70
     1
102
RTVSPropertyOp17
 70
     1
102
RTVSPropertyOp18
 70
     1
102
RTVSPropertyOp19
 70
     1
102
RTVSPropertyOp20
 70
     1
102
RTVSPropertyOp21
 70
     1
102
RTVSPropertyOp22
 70
     1
102
RTVSPropertyOp23
 70
     1
102
RTVSPropertyOp24
 70
     1
102
RTVSPropertyOp25
 70
     1
102
RTVSPropertyOp26
 70
     1
102
RTVSPropertyOp27
 70
     1
102
RTVSPropertyOp28
 70
     1
102
RTVSPropertyOp29
 70
     1
102
RTVSPropertyOp30
 70
     1
102
RTVSPropertyOp31
 70
     1
102
RTVSPropertyOp32
 70
     1
  0
XRECORD
  5
159
102
{ACAD_REACTORS
330
158
102
}
330
158
100
AcDbXrecord
280
     1
102
RTVSPropertyOp0
 70
     1
102
RTVSPropertyOp1
 70
     1
102
RTVSPropertyOp2
 70
     1
102
RTVSPropertyOp3
 70
     1
102
RTVSPropertyOp4
 70
     1
102
RTVSPropertyOp5
 70
     1
102
RTVSPropertyOp6
 70
     1
102
RTVSPropertyOp7
 70
     1
102
RTVSPropertyOp8
 70
     1
102
RTVSPropertyOp9
 70
     1
102
RTVSPropertyOp10
 70
     1
102
RTVSPropertyOp11
 70
     1
102
RTVSPropertyOp12
 70
     1
102
RTVSPropertyOp13
 70
     1
102
RTVSPropertyOp14
 70
     1
102
RTVSPropertyOp15
 70
     1
102
RTVSPropertyOp16
 70
     1
102
RTVSPropertyOp17
 70
     1
102
RTVSPropertyOp18
 70
     1
102
RTVSPropertyOp19
 70
     1
102
RTVSPropertyOp20
 70
     1
102
RTVSPropertyOp21
 70
     1
102
RTVSPropertyOp22
 70
     1
102
RTVSPropertyOp23
 70
     1
102
RTVSPropertyOp24
 70
     1
102
RTVSPropertyOp25
 70
     1
102
RTVSPropertyOp26
 70
     1
102
RTVSPropertyOp27
 70
     1
102
RTVSPropertyOp28
 70
     1
102
RTVSPropertyOp29
 70
     1
102
RTVSPropertyOp30
 70
     1
102
RTVSPropertyOp31
 70
     1
102
RTVSPropertyOp32
 70
     1
  0
XRECORD
  5
15B
102
{ACAD_REACTORS
330
15A
102
}
330
15A
100
AcDbXrecord
280
     1
102
RTVSPropertyOp0
 70
     1
102
RTVSPropertyOp1
 70
     1
102
RTVSPropertyOp2
 70
     1
102
RTVSPropertyOp3
 70
     1
102
RTVSPropertyOp4
 70
     1
102
RTVSPropertyOp5
 70
     1
102
RTVSPropertyOp6
 70
     1
102
RTVSPropertyOp7
 70
     1
102
RTVSPropertyOp8
 70
     1
102
RTVSPropertyOp9
 70
     1
102
RTVSPropertyOp10
 70
     1
102
RTVSPropertyOp11
 70
     1
102
RTVSPropertyOp12
 70
     1
102
RTVSPropertyOp13
 70
     1
102
RTVSPropertyOp14
 70
     1
102
RTVSPropertyOp15
 70
     1
102
RTVSPropertyOp16
 70
     1
102
RTVSPropertyOp17
 70
     1
102
RTVSPropertyOp18
 70
     1
102
RTVSPropertyOp19
 70
     1
102
RTVSPropertyOp20
 70
     1
102
RTVSPropertyOp21
 70
     1
102
RTVSPropertyOp22
 70
     1
102
RTVSPropertyOp23
 70
     1
102
RTVSPropertyOp24
 70
     1
102
RTVSPropertyOp25
 70
     1
102
RTVSPropertyOp26
 70
     1
102
RTVSPropertyOp27
 70
     1
102
RTVSPropertyOp28
 70
     1
102
RTVSPropertyOp29
 70
     1
102
RTVSPropertyOp30
 70
     1
102
RTVSPropertyOp31
 70
     1
102
RTVSPropertyOp32
 70
     1
  0
XRECORD
  5
16F
102
{ACAD_REACTORS
330
16E
102
}
330
16E
100
AcDbXrecord
280
     1
102
RTVSPropertyOp0
 70
     1
102
RTVSPropertyOp1
 70
     1
102
RTVSPropertyOp2
 70
     1
102
RTVSPropertyOp3
 70
     1
102
RTVSPropertyOp4
 70
     1
102
RTVSPropertyOp5
 70
     1
102
RTVSPropertyOp6
 70
     1
102
RTVSPropertyOp7
 70
     1
102
RTVSPropertyOp8
 70
     1
102
RTVSPropertyOp9
 70
     1
102
RTVSPropertyOp10
 70
     1
102
RTVSPropertyOp11
 70
     1
102
RTVSPropertyOp12
 70
     1
102
RTVSPropertyOp13
 70
     1
102
RTVSPropertyOp14
 70
     1
102
RTVSPropertyOp15
 70
     1
102
RTVSPropertyOp16
 70
     1
102
RTVSPropertyOp17
 70
     1
102
RTVSPropertyOp18
 70
     1
102
RTVSPropertyOp19
 70
     1
102
RTVSPropertyOp20
 70
     1
102
RTVSPropertyOp21
 70
     1
102
RTVSPropertyOp22
 70
     1
102
RTVSPropertyOp23
 70
     1
102
RTVSPropertyOp24
 70
     1
102
RTVSPropertyOp25
 70
     1
102
RTVSPropertyOp26
 70
     1
102
RTVSPropertyOp27
 70
     1
102
RTVSPropertyOp28
 70
     1
102
RTVSPropertyOp29
 70
     1
102
RTVSPropertyOp30
 70
     1
102
RTVSPropertyOp31
 70
     1
102
RTVSPropertyOp32
 70
     1
  0
XRECORD
  5
165
102
{ACAD_REACTORS
330
164
102
}
330
164
100
AcDbXrecord
280
     1
102
RTVSPropertyOp0
 70
     1
102
RTVSPropertyOp1
 70
     1
102
RTVSPropertyOp2
 70
     1
102
RTVSPropertyOp3
 70
     1
102
RTVSPropertyOp4
 70
     1
102
RTVSPropertyOp5
 70
     1
102
RTVSPropertyOp6
 70
     1
102
RTVSPropertyOp7
 70
     1
102
RTVSPropertyOp8
 70
     1
102
RTVSPropertyOp9
 70
     1
102
RTVSPropertyOp10
 70
     1
102
RTVSPropertyOp11
 70
     1
102
RTVSPropertyOp12
 70
     1
102
RTVSPropertyOp13
 70
     1
102
RTVSPropertyOp14
 70
     1
102
RTVSPropertyOp15
 70
     1
102
RTVSPropertyOp16
 70
     1
102
RTVSPropertyOp17
 70
     1
102
RTVSPropertyOp18
 70
     1
102
RTVSPropertyOp19
 70
     1
102
RTVSPropertyOp20
 70
     1
102
RTVSPropertyOp21
 70
     1
102
RTVSPropertyOp22
 70
     1
102
RTVSPropertyOp23
 70
     1
102
RTVSPropertyOp24
 70
     1
102
RTVSPropertyOp25
 70
     1
102
RTVSPropertyOp26
 70
     1
102
RTVSPropertyOp27
 70
     1
102
RTVSPropertyOp28
 70
     1
102
RTVSPropertyOp29
 70
     1
102
RTVSPropertyOp30
 70
     1
102
RTVSPropertyOp31
 70
     1
102
RTVSPropertyOp32
 70
     1
  0
XRECORD
  5
16D
102
{ACAD_REACTORS
330
16C
102
}
330
16C
100
AcDbXrecord
280
     1
102
RTVSPropertyOp0
 70
     1
102
RTVSPropertyOp1
 70
     1
102
RTVSPropertyOp2
 70
     1
102
RTVSPropertyOp3
 70
     1
102
RTVSPropertyOp4
 70
     1
102
RTVSPropertyOp5
 70
     1
102
RTVSPropertyOp6
 70
     1
102
RTVSPropertyOp7
 70
     1
102
RTVSPropertyOp8
 70
     1
102
RTVSPropertyOp9
 70
     1
102
RTVSPropertyOp10
 70
     1
102
RTVSPropertyOp11
 70
     1
102
RTVSPropertyOp12
 70
     1
102
RTVSPropertyOp13
 70
     1
102
RTVSPropertyOp14
 70
     1
102
RTVSPropertyOp15
 70
     1
102
RTVSPropertyOp16
 70
     1
102
RTVSPropertyOp17
 70
     1
102
RTVSPropertyOp18
 70
     1
102
RTVSPropertyOp19
 70
     1
102
RTVSPropertyOp20
 70
     1
102
RTVSPropertyOp21
 70
     1
102
RTVSPropertyOp22
 70
     1
102
RTVSPropertyOp23
 70
     1
102
RTVSPropertyOp24
 70
     1
102
RTVSPropertyOp25
 70
     1
102
RTVSPropertyOp26
 70
     1
102
RTVSPropertyOp27
 70
     1
102
RTVSPropertyOp28
 70
     1
102
RTVSPropertyOp29
 70
     1
102
RTVSPropertyOp30
 70
     1
102
RTVSPropertyOp31
 70
     1
102
RTVSPropertyOp32
 70
     1
  0
ENDSEC
  0
EOF
