  0
SECTION
  2
HEADER
  9
$ACADVER
  1
AC1021
  9
$ACADMAINTVER
 70
    25
  9
$DWGCODEPAGE
  3
ANSI_1252
  9
$INSBASE
 10
0.0
 20
0.0
 30
0.0
  9
$EXTMIN
 10
-187.1673
 20
-115.4043
 30
0.0
  9
$EXTMAX
 10
-63.7111
 20
131.5082
 30
0.0
  9
$LIMMIN
 10
0.0
 20
0.0
  9
$LIMMAX
 10
12.0
 20
9.0
  9
$ORTHOMODE
 70
     0
  9
$REGENMODE
 70
     1
  9
$FILLMODE
 70
     1
  9
$QTEXTMODE
 70
     0
  9
$MIRRTEXT
 70
     1
  9
$LTSCALE
 40
1.0
  9
$ATTMODE
 70
     1
  9
$TEXTSIZE
 40
0.2
  9
$TRACEWID
 40
0.05
  9
$TEXTSTYLE
  7
Standard
  9
$CLAYER
  8
0
  9
$CELTYPE
  6
ByLayer
  9
$CECOLOR
 62
   256
  9
$CELTSCALE
 40
1.0
  9
$DISPSILH
 70
     0
  9
$DIMSCALE
 40
1.0
  9
$DIMASZ
 40
0.18
  9
$DIMEXO
 40
0.0625
  9
$DIMDLI
 40
0.38
  9
$DIMRND
 40
0.0
  9
$DIMDLE
 40
0.0
  9
$DIMEXE
 40
0.18
  9
$DIMTP
 40
0.0
  9
$DIMTM
 40
0.0
  9
$DIMTXT
 40
0.18
  9
$DIMCEN
 40
0.09
  9
$DIMTSZ
 40
0.0
  9
$DIMTOL
 70
     0
  9
$DIMLIM
 70
     0
  9
$DIMTIH
 70
     1
  9
$DIMTOH
 70
     1
  9
$DIMSE1
 70
     0
  9
$DIMSE2
 70
     0
  9
$DIMTAD
 70
     0
  9
$DIMZIN
 70
     0
  9
$DIMBLK
  1

  9
$DIMASO
 70
     1
  9
$DIMSHO
 70
     1
  9
$DIMPOST
  1

  9
$DIMAPOST
  1

  9
$DIMALT
 70
     0
  9
$DIMALTD
 70
     2
  9
$DIMALTF
 40
25.4
  9
$DIMLFAC
 40
1.0
  9
$DIMTOFL
 70
     0
  9
$DIMTVP
 40
0.0
  9
$DIMTIX
 70
     0
  9
$DIMSOXD
 70
     0
  9
$DIMSAH
 70
     0
  9
$DIMBLK1
  1

  9
$DIMBLK2
  1

  9
$DIMSTYLE
  2
Standard
  9
$DIMCLRD
 70
     0
  9
$DIMCLRE
 70
     0
  9
$DIMCLRT
 70
     0
  9
$DIMTFAC
 40
1.0
  9
$DIMGAP
 40
0.09
  9
$DIMJUST
 70
     0
  9
$DIMSD1
 70
     0
  9
$DIMSD2
 70
     0
  9
$DIMTOLJ
 70
     1
  9
$DIMTZIN
 70
     0
  9
$DIMALTZ
 70
     0
  9
$DIMALTTZ
 70
     0
  9
$DIMUPT
 70
     0
  9
$DIMDEC
 70
     4
  9
$DIMTDEC
 70
     4
  9
$DIMALTU
 70
     2
  9
$DIMALTTD
 70
     2
  9
$DIMTXSTY
  7
Standard
  9
$DIMAUNIT
 70
     0
  9
$DIMADEC
 70
     0
  9
$DIMALTRND
 40
0.0
  9
$DIMAZIN
 70
     0
  9
$DIMDSEP
 70
    46
  9
$DIMATFIT
 70
     3
  9
$DIMFRAC
 70
     0
  9
$DIMLDRBLK
  1

  9
$DIMLUNIT
 70
     2
  9
$DIMLWD
 70
    -2
  9
$DIMLWE
 70
    -2
  9
$DIMTMOVE
 70
     0
  9
$DIMFXL
 40
1.0
  9
$DIMFXLON
 70
     0
  9
$DIMJOGANG
 40
0.7853981633974483
  9
$DIMTFILL
 70
     0
  9
$DIMTFILLCLR
 70
     0
  9
$DIMARCSYM
 70
     0
  9
$DIMLTYPE
  6

  9
$DIMLTEX1
  6

  9
$DIMLTEX2
  6

  9
$LUNITS
 70
     2
  9
$LUPREC
 70
     4
  9
$SKETCHINC
 40
0.1
  9
$FILLETRAD
 40
0.5
  9
$AUNITS
 70
     0
  9
$AUPREC
 70
     0
  9
$MENU
  1
.
  9
$ELEVATION
 40
0.0
  9
$PELEVATION
 40
0.0
  9
$THICKNESS
 40
0.0
  9
$LIMCHECK
 70
     0
  9
$CHAMFERA
 40
0.5
  9
$CHAMFERB
 40
0.5
  9
$CHAMFERC
 40
1.0
  9
$CHAMFERD
 40
0.0
  9
$SKPOLY
 70
     0
  9
$TDCREATE
 40
2458493.702771725
  9
$TDUCREATE
 40
2458493.702771725
  9
$TDUPDATE
 40
2458493.702772002
  9
$TDUUPDATE
 40
2458493.702772002
  9
$TDINDWG
 40
0.0000000116
  9
$TDUSRTIMER
 40
0.0000000116
  9
$USRTIMER
 70
     1
  9
$ANGBASE
 50
0.0
  9
$ANGDIR
 70
     0
  9
$PDMODE
 70
     0
  9
$PDSIZE
 40
0.0
  9
$PLINEWID
 40
0.0
  9
$SPLFRAME
 70
     0
  9
$SPLINETYPE
 70
     6
  9
$SPLINESEGS
 70
     8
  9
$HANDSEED
  5
120
  9
$SURFTAB1
 70
     6
  9
$SURFTAB2
 70
     6
  9
$SURFTYPE
 70
     6
  9
$SURFU
 70
     6
  9
$SURFV
 70
     6
  9
$UCSBASE
  2

  9
$UCSNAME
  2

  9
$UCSORG
 10
0.0
 20
0.0
 30
0.0
  9
$UCSXDIR
 10
1.0
 20
0.0
 30
0.0
  9
$UCSYDIR
 10
0.0
 20
1.0
 30
0.0
  9
$UCSORTHOREF
  2

  9
$UCSORTHOVIEW
 70
     0
  9
$UCSORGTOP
 10
0.0
 20
0.0
 30
0.0
  9
$UCSORGBOTTOM
 10
0.0
 20
0.0
 30
0.0
  9
$UCSORGLEFT
 10
0.0
 20
0.0
 30
0.0
  9
$UCSORGRIGHT
 10
0.0
 20
0.0
 30
0.0
  9
$UCSORGFRONT
 10
0.0
 20
0.0
 30
0.0
  9
$UCSORGBACK
 10
0.0
 20
0.0
 30
0.0
  9
$PUCSBASE
  2

  9
$PUCSNAME
  2

  9
$PUCSORG
 10
0.0
 20
0.0
 30
0.0
  9
$PUCSXDIR
 10
1.0
 20
0.0
 30
0.0
  9
$PUCSYDIR
 10
0.0
 20
1.0
 30
0.0
  9
$PUCSORTHOREF
  2

  9
$PUCSORTHOVIEW
 70
     0
  9
$PUCSORGTOP
 10
0.0
 20
0.0
 30
0.0
  9
$PUCSORGBOTTOM
 10
0.0
 20
0.0
 30
0.0
  9
$PUCSORGLEFT
 10
0.0
 20
0.0
 30
0.0
  9
$PUCSORGRIGHT
 10
0.0
 20
0.0
 30
0.0
  9
$PUCSORGFRONT
 10
0.0
 20
0.0
 30
0.0
  9
$PUCSORGBACK
 10
0.0
 20
0.0
 30
0.0
  9
$USERI1
 70
     0
  9
$USERI2
 70
     0
  9
$USERI3
 70
     0
  9
$USERI4
 70
     0
  9
$USERI5
 70
     0
  9
$USERR1
 40
0.0
  9
$USERR2
 40
0.0
  9
$USERR3
 40
0.0
  9
$USERR4
 40
0.0
  9
$USERR5
 40
0.0
  9
$WORLDVIEW
 70
     1
  9
$SHADEDGE
 70
     3
  9
$SHADEDIF
 70
    70
  9
$TILEMODE
 70
     1
  9
$MAXACTVP
 70
    64
  9
$PINSBASE
 10
0.0
 20
0.0
 30
0.0
  9
$PLIMCHECK
 70
     0
  9
$PEXTMIN
 10
1.000000000000000E+20
 20
1.000000000000000E+20
 30
1.000000000000000E+20
  9
$PEXTMAX
 10
-1.000000000000000E+20
 20
-1.000000000000000E+20
 30
-1.000000000000000E+20
  9
$PLIMMIN
 10
0.0
 20
0.0
  9
$PLIMMAX
 10
12.0
 20
9.0
  9
$UNITMODE
 70
     0
  9
$VISRETAIN
 70
     1
  9
$PLINEGEN
 70
     0
  9
$PSLTSCALE
 70
     1
  9
$TREEDEPTH
 70
  3020
  9
$CMLSTYLE
  2
Standard
  9
$CMLJUST
 70
     0
  9
$CMLSCALE
 40
1.0
  9
$PROXYGRAPHICS
 70
     1
  9
$MEASUREMENT
 70
     0
  9
$CELWEIGHT
370
    -1
  9
$ENDCAPS
280
     0
  9
$JOINSTYLE
280
     0
  9
$LWDISPLAY
290
     0
  9
$INSUNITS
 70
     4
  9
$HYPERLINKBASE
  1

  9
$STYLESHEET
  1

  9
$XEDIT
290
     1
  9
$CEPSNTYPE
380
     0
  9
$PSTYLEMODE
290
     1
  9
$FINGERPRINTGUID
  2
{9A1251C8-703E-4D39-8587-D5BA827C1BA1}
  9
$VERSIONGUID
  2
{FAEB1C32-E019-11D5-929B-00C0DF256EC4}
  9
$EXTNAMES
290
     1
  9
$PSVPSCALE
 40
0.0
  9
$OLESTARTUP
290
     0
  9
$SORTENTS
280
   127
  9
$INDEXCTL
280
     0
  9
$HIDETEXT
280
     1
  9
$XCLIPFRAME
290
     0
  9
$HALOGAP
280
     0
  9
$OBSCOLOR
 70
   257
  9
$OBSLTYPE
280
     0
  9
$INTERSECTIONDISPLAY
280
     0
  9
$INTERSECTIONCOLOR
 70
   257
  9
$DIMASSOC
280
     2
  9
$PROJECTNAME
  1

  9
$CAMERADISPLAY
290
     0
  9
$LENSLENGTH
 40
50.0
  9
$CAMERAHEIGHT
 40
0.0
  9
$STEPSPERSEC
 40
2.0
  9
$STEPSIZE
 40
6.0
  9
$3DDWFPREC
 40
2.0
  9
$PSOLWIDTH
 40
0.25
  9
$PSOLHEIGHT
 40
4.0
  9
$LOFTANG1
 40
1.570796326794897
  9
$LOFTANG2
 40
1.570796326794897
  9
$LOFTMAG1
 40
0.0
  9
$LOFTMAG2
 40
0.0
  9
$LOFTPARAM
 70
     7
  9
$LOFTNORMALS
280
     1
  9
$LATITUDE
 40
37.795
  9
$LONGITUDE
 40
-122.394
  9
$NORTHDIRECTION
 40
0.0
  9
$TIMEZONE
 70
 -8000
  9
$LIGHTGLYPHDISPLAY
280
     1
  9
$TILEMODELIGHTSYNCH
280
     1
  9
$SOLIDHIST
280
     1
  9
$SHOWHIST
280
     1
  9
$DWFFRAME
280
     2
  9
$DGNFRAME
280
     2
  9
$REALWORLDSCALE
290
     1
  9
$INTERFERECOLOR
 62
   256
  9
$CSHADOW
280
     0
  9
$SHADOWPLANELOCATION
 40
0.0
  0
ENDSEC
  0
SECTION
  2
CLASSES
  0
CLASS
  1
ACDBDICTIONARYWDFLT
  2
AcDbDictionaryWithDefault
  3
ObjectDBX Classes
 90
        0
 91
        4
280
     0
281
     0
  0
CLASS
  1
VISUALSTYLE
  2
AcDbVisualStyle
  3
ObjectDBX Classes
 90
     4095
 91
        4
280
     0
281
     0
  0
CLASS
  1
MATERIAL
  2
AcDbMaterial
  3
ObjectDBX Classes
 90
     1153
 91
        4
280
     0
281
     0
  0
ENDSEC
  0
SECTION
  2
TABLES
  0
TABLE
  2
VPORT
  5
8
330
0
100
AcDbSymbolTable
 70
     1
  0
VPORT
  5
29
330
8
100
AcDbSymbolTableRecord
100
AcDbViewportTableRecord
  2
*Active
 70
     0
 10
0.0
 20
0.0
 11
1.0
 21
1.0
 12
10.42990654205607
 22
4.5
 13
0.0
 23
0.0
 14
0.5
 24
0.5
 15
0.5
 25
0.5
 16
0.0
 26
0.0
 36
1.0
 17
0.0
 27
0.0
 37
0.0
 40
9.0
 41
1.972972972850329
 42
50.0
 43
0.0
 44
0.0
 50
0.0
 51
0.0
 71
     0
 72
   100
 73
     1
 74
     3
 75
     0
 76
     0
 77
     0
 78
     0
281
     0
 65
     1
110
0.0
120
0.0
130
0.0
111
1.0
121
0.0
131
0.0
112
0.0
122
1.0
132
0.0
 79
     0
146
0.0
 60
     3
 61
     5
292
     1
282
     1
141
0.0
142
0.0
 63
   250
  0
ENDTAB
  0
TABLE
  2
LTYPE
  5
5
330
0
100
AcDbSymbolTable
 70
     1
  0
LTYPE
  5
14
330
5
100
AcDbSymbolTableRecord
100
AcDbLinetypeTableRecord
  2
ByBlock
 70
     0
  3

 72
    65
 73
     0
 40
0.0
  0
LTYPE
  5
15
330
5
100
AcDbSymbolTableRecord
100
AcDbLinetypeTableRecord
  2
ByLayer
 70
     0
  3

 72
    65
 73
     0
 40
0.0
  0
LTYPE
  5
16
330
5
100
AcDbSymbolTableRecord
100
AcDbLinetypeTableRecord
  2
Continuous
 70
     0
  3
Solid line
 72
    65
 73
     0
 40
0.0
  0
ENDTAB
  0
TABLE
  2
LAYER
  5
2
330
0
100
AcDbSymbolTable
 70
     3
  0
LAYER
  5
10
330
2
100
AcDbSymbolTableRecord
100
AcDbLayerTableRecord
  2
0
 70
     0
 62
     7
  6
Continuous
370
    -3
390
F
347
3E
  0
LAYER
  5
40
330
2
100
AcDbSymbolTableRecord
100
AcDbLayerTableRecord
  2
layer 1
 70
     0
 62
     7
  6
Continuous
370
    -3
390
F
347
3E
  0
LAYER
  5
FD
330
2
100
AcDbSymbolTableRecord
100
AcDbLayerTableRecord
  2
Master Guides
 70
     0
 62
     7
  6
Continuous
370
    -3
390
F
347
3E
  0
ENDTAB
  0
TABLE
  2
STYLE
  5
3
330
0
100
AcDbSymbolTable
 70
     1
  0
STYLE
  5
11
330
3
100
AcDbSymbolTableRecord
100
AcDbTextStyleTableRecord
  2
Standard
 70
     0
 40
0.0
 41
1.0
 50
0.0
 71
     0
 42
0.2
  3
txt
  4

  0
ENDTAB
  0
TABLE
  2
VIEW
  5
6
330
0
100
AcDbSymbolTable
 70
     0
  0
ENDTAB
  0
TABLE
  2
UCS
  5
7
330
0
100
AcDbSymbolTable
 70
     0
  0
ENDTAB
  0
TABLE
  2
APPID
  5
9
330
0
100
AcDbSymbolTable
 70
     2
  0
APPID
  5
12
330
9
100
AcDbSymbolTableRecord
100
AcDbRegAppTableRecord
  2
ACAD
 70
     0
  0
APPID
  5
3F
330
9
100
AcDbSymbolTableRecord
100
AcDbRegAppTableRecord
  2
ODA
 70
     0
  0
ENDTAB
  0
TABLE
  2
DIMSTYLE
  5
A
330
0
100
AcDbSymbolTable
 70
     1
100
AcDbDimStyleTable
  0
DIMSTYLE
105
27
330
A
100
AcDbSymbolTableRecord
100
AcDbDimStyleTableRecord
  2
Standard
 70
     0
178
     0
340
11
  0
ENDTAB
  0
TABLE
  2
BLOCK_RECORD
  5
1
330
0
100
AcDbSymbolTable
 70
     1
  0
BLOCK_RECORD
  5
1F
330
1
100
AcDbSymbolTableRecord
100
AcDbBlockTableRecord
  2
*Model_Space
340
22
 70
     0
280
     1
281
     0
  0
BLOCK_RECORD
  5
1B
330
1
100
AcDbSymbolTableRecord
100
AcDbBlockTableRecord
  2
*Paper_Space
340
1E
 70
     0
280
     1
281
     0
  0
BLOCK_RECORD
  5
23
330
1
100
AcDbSymbolTableRecord
100
AcDbBlockTableRecord
  2
*Paper_Space0
340
26
 70
     0
280
     1
281
     0
  0
ENDTAB
  0
ENDSEC
  0
SECTION
  2
BLOCKS
  0
BLOCK
  5
20
330
1F
100
AcDbEntity
  8
0
100
AcDbBlockBegin
  2
*Model_Space
 70
     0
 10
0.0
 20
0.0
 30
0.0
  3
*Model_Space
  1

  0
ENDBLK
  5
21
330
1F
100
AcDbEntity
  8
0
100
AcDbBlockEnd
  0
BLOCK
  5
1C
330
1B
100
AcDbEntity
 67
     1
  8
0
100
AcDbBlockBegin
  2
*Paper_Space
 70
     0
 10
0.0
 20
0.0
 30
0.0
  3
*Paper_Space
  1

  0
ENDBLK
  5
1D
330
1B
100
AcDbEntity
 67
     1
  8
0
100
AcDbBlockEnd
  0
BLOCK
  5
24
330
23
100
AcDbEntity
  8
0
100
AcDbBlockBegin
  2
*Paper_Space0
 70
     0
 10
0.0
 20
0.0
 30
0.0
  3
*Paper_Space0
  1

  0
ENDBLK
  5
25
330
23
100
AcDbEntity
  8
0
100
AcDbBlockEnd
  0
ENDSEC
  0
SECTION
  2
ENTITIES
  0
SPLINE
  5
41
330
1F
100
AcDbEntity
  8
layer 1
100
AcDbSpline
210
0.0
220
0.0
230
1.0
 70
    11
 71
     3
 72
    20
 73
    16
 74
     0
 42
0.0000000001
 43
0.0000000001
 12
1.0
 22
0.0
 32
0.0
 13
1.0
 23
0.0
 33
0.0
 40
0.0
 40
0.0
 40
0.0
 40
0.0
 40
0.2
 40
0.2
 40
0.2
 40
0.2
 40
0.4
 40
0.4
 40
0.4
 40
0.4
 40
0.6
 40
0.6
 40
0.6
 40
0.6
 40
1.0
 40
1.0
 40
1.0
 40
1.0
 10
-187.1673
 20
131.5082
 30
0.0
 10
-187.1673
 20
131.5082
 30
0.0
 10
-63.7111
 20
131.5082
 30
0.0
 10
-63.7111
 20
131.5082
 30
0.0
 10
-63.7111
 20
131.5082
 30
0.0
 10
-63.7111
 20
131.5082
 30
0.0
 10
-63.7111
 20
-115.4043
 30
0.0
 10
-63.7111
 20
-115.4043
 30
0.0
 10
-63.7111
 20
-115.4043
 30
0.0
 10
-63.7111
 20
-115.4043
 30
0.0
 10
-187.1673
 20
-115.4043
 30
0.0
 10
-187.1673
 20
-115.4043
 30
0.0
 10
-187.1673
 20
-115.4043
 30
0.0
 10
-187.1673
 20
-115.4043
 30
0.0
 10
-187.1673
 20
131.5082
 30
0.0
 10
-187.1673
 20
131.5082
 30
0.0
  0
SPLINE
  5
42
330
1F
100
AcDbEntity
  8
layer 1
 62
     7
100
AcDbSpline
210
0.0
220
0.0
230
1.0
 70
    11
 71
     3
 72
    20
 73
    16
 74
     0
 42
0.0000000001
 43
0.0000000001
 12
1.0
 22
0.0
 32
0.0
 13
1.0
 23
0.0
 33
0.0
 40
0.0
 40
0.0
 40
0.0
 40
0.0
 40
0.2
 40
0.2
 40
0.2
 40
0.2
 40
0.4
 40
0.4
 40
0.4
 40
0.4
 40
0.6
 40
0.6
 40
0.6
 40
0.6
 40
1.0
 40
1.0
 40
1.0
 40
1.0
 10
-165.2035
 20
101.3057
 30
0.0
 10
-165.2035
 20
99.0908
 30
0.0
 10
-166.9991
 20
97.2952
 30
0.0
 10
-169.214
 20
97.2952
 30
0.0
 10
-169.214
 20
97.2952
 30
0.0
 10
-171.429
 20
97.2952
 30
0.0
 10
-173.2246
 20
99.0908
 30
0.0
 10
-173.2246
 20
101.3057
 30
0.0
 10
-173.2246
 20
101.3057
 30
0.0
 10
-173.2246
 20
103.5207
 30
0.0
 10
-171.429
 20
105.3163
 30
0.0
 10
-169.214
 20
105.3163
 30
0.0
 10
-169.214
 20
105.3163
 30
0.0
 10
-166.9991
 20
105.3163
 30
0.0
 10
-165.2035
 20
103.5207
 30
0.0
 10
-165.2035
 20
101.3057
 30
0.0
  0
SPLINE
  5
43
330
1F
100
AcDbEntity
  8
layer 1
 62
     7
100
AcDbSpline
210
0.0
220
0.0
230
1.0
 70
    11
 71
     3
 72
    20
 73
    16
 74
     0
 42
0.0000000001
 43
0.0000000001
 12
1.0
 22
0.0
 32
0.0
 13
1.0
 23
0.0
 33
0.0
 40
0.0
 40
0.0
 40
0.0
 40
0.0
 40
0.2
 40
0.2
 40
0.2
 40
0.2
 40
0.4
 40
0.4
 40
0.4
 40
0.4
 40
0.6
 40
0.6
 40
0.6
 40
0.6
 40
1.0
 40
1.0
 40
1.0
 40
1.0
 10
-136.0412
 20
101.3057
 30
0.0
 10
-136.0412
 20
99.0908
 30
0.0
 10
-137.8369
 20
97.2952
 30
0.0
 10
-140.0518
 20
97.2952
 30
0.0
 10
-140.0518
 20
97.2952
 30
0.0
 10
-142.2667
 20
97.2952
 30
0.0
 10
-144.0624
 20
99.0908
 30
0.0
 10
-144.0624
 20
101.3057
 30
0.0
 10
-144.0624
 20
101.3057
 30
0.0
 10
-144.0624
 20
103.5207
 30
0.0
 10
-142.2667
 20
105.3163
 30
0.0
 10
-140.0518
 20
105.3163
 30
0.0
 10
-140.0518
 20
105.3163
 30
0.0
 10
-137.8369
 20
105.3163
 30
0.0
 10
-136.0412
 20
103.5207
 30
0.0
 10
-136.0412
 20
101.3057
 30
0.0
  0
SPLINE
  5
44
330
1F
100
AcDbEntity
  8
layer 1
 62
     7
100
AcDbSpline
210
0.0
220
0.0
230
1.0
 70
    11
 71
     3
 72
    20
 73
    16
 74
     0
 42
0.0000000001
 43
0.0000000001
 12
1.0
 22
0.0
 32
0.0
 13
1.0
 23
0.0
 33
0.0
 40
0.0
 40
0.0
 40
0.0
 40
0.0
 40
0.2
 40
0.2
 40
0.2
 40
0.2
 40
0.4
 40
0.4
 40
0.4
 40
0.4
 40
0.6
 40
0.6
 40
0.6
 40
0.6
 40
1.0
 40
1.0
 40
1.0
 40
1.0
 10
-106.6576
 20
101.3057
 30
0.0
 10
-106.6576
 20
99.0908
 30
0.0
 10
-108.4532
 20
97.2952
 30
0.0
 10
-110.6681
 20
97.2952
 30
0.0
 10
-110.6681
 20
97.2952
 30
0.0
 10
-112.8831
 20
97.2952
 30
0.0
 10
-114.6787
 20
99.0908
 30
0.0
 10
-114.6787
 20
101.3057
 30
0.0
 10
-114.6787
 20
101.3057
 30
0.0
 10
-114.6787
 20
103.5207
 30
0.0
 10
-112.8831
 20
105.3163
 30
0.0
 10
-110.6681
 20
105.3163
 30
0.0
 10
-110.6681
 20
105.3163
 30
0.0
 10
-108.4532
 20
105.3163
 30
0.0
 10
-106.6576
 20
103.5207
 30
0.0
 10
-106.6576
 20
101.3057
 30
0.0
  0
SPLINE
  5
45
330
1F
100
AcDbEntity
  8
layer 1
 62
     7
100
AcDbSpline
210
0.0
220
0.0
230
1.0
 70
    11
 71
     3
 72
    20
 73
    16
 74
     0
 42
0.0000000001
 43
0.0000000001
 12
1.0
 22
0.0
 32
0.0
 13
1.0
 23
0.0
 33
0.0
 40
0.0
 40
0.0
 40
0.0
 40
0.0
 40
0.2
 40
0.2
 40
0.2
 40
0.2
 40
0.4
 40
0.4
 40
0.4
 40
0.4
 40
0.6
 40
0.6
 40
0.6
 40
0.6
 40
1.0
 40
1.0
 40
1.0
 40
1.0
 10
-77.5693
 20
101.3057
 30
0.0
 10
-77.5693
 20
99.0908
 30
0.0
 10
-79.3649
 20
97.2952
 30
0.0
 10
-81.5798
 20
97.2952
 30
0.0
 10
-81.5798
 20
97.2952
 30
0.0
 10
-83.7948
 20
97.2952
 30
0.0
 10
-85.5904
 20
99.0908
 30
0.0
 10
-85.5904
 20
101.3057
 30
0.0
 10
-85.5904
 20
101.3057
 30
0.0
 10
-85.5904
 20
103.5207
 30
0.0
 10
-83.7948
 20
105.3163
 30
0.0
 10
-81.5798
 20
105.3163
 30
0.0
 10
-81.5798
 20
105.3163
 30
0.0
 10
-79.3649
 20
105.3163
 30
0.0
 10
-77.5693
 20
103.5207
 30
0.0
 10
-77.5693
 20
101.3057
 30
0.0
  0
SPLINE
  5
46
330
1F
100
AcDbEntity
  8
layer 1
 62
     7
100
AcDbSpline
210
0.0
220
0.0
230
1.0
 70
    11
 71
     3
 72
    20
 73
    16
 74
     0
 42
0.0000000001
 43
0.0000000001
 12
1.0
 22
0.0
 32
0.0
 13
1.0
 23
0.0
 33
0.0
 40
0.0
 40
0.0
 40
0.0
 40
0.0
 40
0.2
 40
0.2
 40
0.2
 40
0.2
 40
0.4
 40
0.4
 40
0.4
 40
0.4
 40
0.6
 40
0.6
 40
0.6
 40
0.6
 40
1.0
 40
1.0
 40
1.0
 40
1.0
 10
-150.6585
 20
85.8532
 30
0.0
 10
-150.6585
 20
83.6382
 30
0.0
 10
-152.4542
 20
81.8426
 30
0.0
 10
-154.6691
 20
81.8426
 30
0.0
 10
-154.6691
 20
81.8426
 30
0.0
 10
-156.884
 20
81.8426
 30
0.0
 10
-158.6797
 20
83.6382
 30
0.0
 10
-158.6797
 20
85.8532
 30
0.0
 10
-158.6797
 20
85.8532
 30
0.0
 10
-158.6797
 20
88.0681
 30
0.0
 10
-156.884
 20
89.8637
 30
0.0
 10
-154.6691
 20
89.8637
 30
0.0
 10
-154.6691
 20
89.8637
 30
0.0
 10
-152.4542
 20
89.8637
 30
0.0
 10
-150.6585
 20
88.0681
 30
0.0
 10
-150.6585
 20
85.8532
 30
0.0
  0
SPLINE
  5
47
330
1F
100
AcDbEntity
  8
layer 1
 62
     7
100
AcDbSpline
210
0.0
220
0.0
230
1.0
 70
    11
 71
     3
 72
    20
 73
    16
 74
     0
 42
0.0000000001
 43
0.0000000001
 12
1.0
 22
0.0
 32
0.0
 13
1.0
 23
0.0
 33
0.0
 40
0.0
 40
0.0
 40
0.0
 40
0.0
 40
0.2
 40
0.2
 40
0.2
 40
0.2
 40
0.4
 40
0.4
 40
0.4
 40
0.4
 40
0.6
 40
0.6
 40
0.6
 40
0.6
 40
1.0
 40
1.0
 40
1.0
 40
1.0
 10
-121.3197
 20
85.8532
 30
0.0
 10
-121.3197
 20
83.6382
 30
0.0
 10
-123.1153
 20
81.8426
 30
0.0
 10
-125.3302
 20
81.8426
 30
0.0
 10
-125.3302
 20
81.8426
 30
0.0
 10
-127.5452
 20
81.8426
 30
0.0
 10
-129.3408
 20
83.6382
 30
0.0
 10
-129.3408
 20
85.8532
 30
0.0
 10
-129.3408
 20
85.8532
 30
0.0
 10
-129.3408
 20
88.0681
 30
0.0
 10
-127.5452
 20
89.8637
 30
0.0
 10
-125.3302
 20
89.8637
 30
0.0
 10
-125.3302
 20
89.8637
 30
0.0
 10
-123.1153
 20
89.8637
 30
0.0
 10
-121.3197
 20
88.0681
 30
0.0
 10
-121.3197
 20
85.8532
 30
0.0
  0
SPLINE
  5
48
330
1F
100
AcDbEntity
  8
layer 1
 62
     7
100
AcDbSpline
210
0.0
220
0.0
230
1.0
 70
    11
 71
     3
 72
    20
 73
    16
 74
     0
 42
0.0000000001
 43
0.0000000001
 12
1.0
 22
0.0
 32
0.0
 13
1.0
 23
0.0
 33
0.0
 40
0.0
 40
0.0
 40
0.0
 40
0.0
 40
0.2
 40
0.2
 40
0.2
 40
0.2
 40
0.4
 40
0.4
 40
0.4
 40
0.4
 40
0.6
 40
0.6
 40
0.6
 40
0.6
 40
1.0
 40
1.0
 40
1.0
 40
1.0
 10
-92.0851
 20
85.8532
 30
0.0
 10
-92.0851
 20
83.6382
 30
0.0
 10
-93.8807
 20
81.8426
 30
0.0
 10
-96.0956
 20
81.8426
 30
0.0
 10
-96.0956
 20
81.8426
 30
0.0
 10
-98.3106
 20
81.8426
 30
0.0
 10
-100.1062
 20
83.6382
 30
0.0
 10
-100.1062
 20
85.8532
 30
0.0
 10
-100.1062
 20
85.8532
 30
0.0
 10
-100.1062
 20
88.0681
 30
0.0
 10
-98.3106
 20
89.8637
 30
0.0
 10
-96.0956
 20
89.8637
 30
0.0
 10
-96.0956
 20
89.8637
 30
0.0
 10
-93.8807
 20
89.8637
 30
0.0
 10
-92.0851
 20
88.0681
 30
0.0
 10
-92.0851
 20
85.8532
 30
0.0
  0
SPLINE
  5
49
330
1F
100
AcDbEntity
  8
layer 1
 62
     7
100
AcDbSpline
210
0.0
220
0.0
230
1.0
 70
    11
 71
     3
 72
    20
 73
    16
 74
     0
 42
0.0000000001
 43
0.0000000001
 12
1.0
 22
0.0
 32
0.0
 13
1.0
 23
0.0
 33
0.0
 40
0.0
 40
0.0
 40
0.0
 40
0.0
 40
0.2
 40
0.2
 40
0.2
 40
0.2
 40
0.4
 40
0.4
 40
0.4
 40
0.4
 40
0.6
 40
0.6
 40
0.6
 40
0.6
 40
1.0
 40
1.0
 40
1.0
 40
1.0
 10
-165.2035
 20
70.1918
 30
0.0
 10
-165.2035
 20
67.9769
 30
0.0
 10
-166.9991
 20
66.1812
 30
0.0
 10
-169.214
 20
66.1812
 30
0.0
 10
-169.214
 20
66.1812
 30
0.0
 10
-171.429
 20
66.1812
 30
0.0
 10
-173.2246
 20
67.9769
 30
0.0
 10
-173.2246
 20
70.1918
 30
0.0
 10
-173.2246
 20
70.1918
 30
0.0
 10
-173.2246
 20
72.4067
 30
0.0
 10
-171.429
 20
74.2024
 30
0.0
 10
-169.214
 20
74.2024
 30
0.0
 10
-169.214
 20
74.2024
 30
0.0
 10
-166.9991
 20
74.2024
 30
0.0
 10
-165.2035
 20
72.4067
 30
0.0
 10
-165.2035
 20
70.1918
 30
0.0
  0
SPLINE
  5
4A
330
1F
100
AcDbEntity
  8
layer 1
 62
     7
100
AcDbSpline
210
0.0
220
0.0
230
1.0
 70
    11
 71
     3
 72
    20
 73
    16
 74
     0
 42
0.0000000001
 43
0.0000000001
 12
1.0
 22
0.0
 32
0.0
 13
1.0
 23
0.0
 33
0.0
 40
0.0
 40
0.0
 40
0.0
 40
0.0
 40
0.2
 40
0.2
 40
0.2
 40
0.2
 40
0.4
 40
0.4
 40
0.4
 40
0.4
 40
0.6
 40
0.6
 40
0.6
 40
0.6
 40
1.0
 40
1.0
 40
1.0
 40
1.0
 10
-136.0412
 20
70.1918
 30
0.0
 10
-136.0412
 20
67.9769
 30
0.0
 10
-137.8369
 20
66.1812
 30
0.0
 10
-140.0518
 20
66.1812
 30
0.0
 10
-140.0518
 20
66.1812
 30
0.0
 10
-142.2667
 20
66.1812
 30
0.0
 10
-144.0624
 20
67.9769
 30
0.0
 10
-144.0624
 20
70.1918
 30
0.0
 10
-144.0624
 20
70.1918
 30
0.0
 10
-144.0624
 20
72.4067
 30
0.0
 10
-142.2667
 20
74.2024
 30
0.0
 10
-140.0518
 20
74.2024
 30
0.0
 10
-140.0518
 20
74.2024
 30
0.0
 10
-137.8369
 20
74.2024
 30
0.0
 10
-136.0412
 20
72.4067
 30
0.0
 10
-136.0412
 20
70.1918
 30
0.0
  0
SPLINE
  5
4B
330
1F
100
AcDbEntity
  8
layer 1
 62
     7
100
AcDbSpline
210
0.0
220
0.0
230
1.0
 70
    11
 71
     3
 72
    20
 73
    16
 74
     0
 42
0.0000000001
 43
0.0000000001
 12
1.0
 22
0.0
 32
0.0
 13
1.0
 23
0.0
 33
0.0
 40
0.0
 40
0.0
 40
0.0
 40
0.0
 40
0.2
 40
0.2
 40
0.2
 40
0.2
 40
0.4
 40
0.4
 40
0.4
 40
0.4
 40
0.6
 40
0.6
 40
0.6
 40
0.6
 40
1.0
 40
1.0
 40
1.0
 40
1.0
 10
-106.6576
 20
70.1918
 30
0.0
 10
-106.6576
 20
67.9769
 30
0.0
 10
-108.4532
 20
66.1812
 30
0.0
 10
-110.6681
 20
66.1812
 30
0.0
 10
-110.6681
 20
66.1812
 30
0.0
 10
-112.8831
 20
66.1812
 30
0.0
 10
-114.6787
 20
67.9769
 30
0.0
 10
-114.6787
 20
70.1918
 30
0.0
 10
-114.6787
 20
70.1918
 30
0.0
 10
-114.6787
 20
72.4067
 30
0.0
 10
-112.8831
 20
74.2024
 30
0.0
 10
-110.6681
 20
74.2024
 30
0.0
 10
-110.6681
 20
74.2024
 30
0.0
 10
-108.4532
 20
74.2024
 30
0.0
 10
-106.6576
 20
72.4067
 30
0.0
 10
-106.6576
 20
70.1918
 30
0.0
  0
SPLINE
  5
4C
330
1F
100
AcDbEntity
  8
layer 1
 62
     7
100
AcDbSpline
210
0.0
220
0.0
230
1.0
 70
    11
 71
     3
 72
    20
 73
    16
 74
     0
 42
0.0000000001
 43
0.0000000001
 12
1.0
 22
0.0
 32
0.0
 13
1.0
 23
0.0
 33
0.0
 40
0.0
 40
0.0
 40
0.0
 40
0.0
 40
0.2
 40
0.2
 40
0.2
 40
0.2
 40
0.4
 40
0.4
 40
0.4
 40
0.4
 40
0.6
 40
0.6
 40
0.6
 40
0.6
 40
1.0
 40
1.0
 40
1.0
 40
1.0
 10
-77.5693
 20
70.1918
 30
0.0
 10
-77.5693
 20
67.9769
 30
0.0
 10
-79.3649
 20
66.1812
 30
0.0
 10
-81.5798
 20
66.1812
 30
0.0
 10
-81.5798
 20
66.1812
 30
0.0
 10
-83.7948
 20
66.1812
 30
0.0
 10
-85.5904
 20
67.9769
 30
0.0
 10
-85.5904
 20
70.1918
 30
0.0
 10
-85.5904
 20
70.1918
 30
0.0
 10
-85.5904
 20
72.4067
 30
0.0
 10
-83.7948
 20
74.2024
 30
0.0
 10
-81.5798
 20
74.2024
 30
0.0
 10
-81.5798
 20
74.2024
 30
0.0
 10
-79.3649
 20
74.2024
 30
0.0
 10
-77.5693
 20
72.4067
 30
0.0
 10
-77.5693
 20
70.1918
 30
0.0
  0
SPLINE
  5
4D
330
1F
100
AcDbEntity
  8
layer 1
 62
     7
100
AcDbSpline
210
0.0
220
0.0
230
1.0
 70
    11
 71
     3
 72
    20
 73
    16
 74
     0
 42
0.0000000001
 43
0.0000000001
 12
1.0
 22
0.0
 32
0.0
 13
1.0
 23
0.0
 33
0.0
 40
0.0
 40
0.0
 40
0.0
 40
0.0
 40
0.2
 40
0.2
 40
0.2
 40
0.2
 40
0.4
 40
0.4
 40
0.4
 40
0.4
 40
0.6
 40
0.6
 40
0.6
 40
0.6
 40
1.0
 40
1.0
 40
1.0
 40
1.0
 10
-165.2035
 20
39.0779
 30
0.0
 10
-165.2035
 20
36.8629
 30
0.0
 10
-166.9991
 20
35.0673
 30
0.0
 10
-169.214
 20
35.0673
 30
0.0
 10
-169.214
 20
35.0673
 30
0.0
 10
-171.429
 20
35.0673
 30
0.0
 10
-173.2246
 20
36.8629
 30
0.0
 10
-173.2246
 20
39.0779
 30
0.0
 10
-173.2246
 20
39.0779
 30
0.0
 10
-173.2246
 20
41.2928
 30
0.0
 10
-171.429
 20
43.0884
 30
0.0
 10
-169.214
 20
43.0884
 30
0.0
 10
-169.214
 20
43.0884
 30
0.0
 10
-166.9991
 20
43.0884
 30
0.0
 10
-165.2035
 20
41.2928
 30
0.0
 10
-165.2035
 20
39.0779
 30
0.0
  0
SPLINE
  5
4E
330
1F
100
AcDbEntity
  8
layer 1
 62
     7
100
AcDbSpline
210
0.0
220
0.0
230
1.0
 70
    11
 71
     3
 72
    20
 73
    16
 74
     0
 42
0.0000000001
 43
0.0000000001
 12
1.0
 22
0.0
 32
0.0
 13
1.0
 23
0.0
 33
0.0
 40
0.0
 40
0.0
 40
0.0
 40
0.0
 40
0.2
 40
0.2
 40
0.2
 40
0.2
 40
0.4
 40
0.4
 40
0.4
 40
0.4
 40
0.6
 40
0.6
 40
0.6
 40
0.6
 40
1.0
 40
1.0
 40
1.0
 40
1.0
 10
-136.0412
 20
39.0779
 30
0.0
 10
-136.0412
 20
36.8629
 30
0.0
 10
-137.8369
 20
35.0673
 30
0.0
 10
-140.0518
 20
35.0673
 30
0.0
 10
-140.0518
 20
35.0673
 30
0.0
 10
-142.2667
 20
35.0673
 30
0.0
 10
-144.0624
 20
36.8629
 30
0.0
 10
-144.0624
 20
39.0779
 30
0.0
 10
-144.0624
 20
39.0779
 30
0.0
 10
-144.0624
 20
41.2928
 30
0.0
 10
-142.2667
 20
43.0884
 30
0.0
 10
-140.0518
 20
43.0884
 30
0.0
 10
-140.0518
 20
43.0884
 30
0.0
 10
-137.8369
 20
43.0884
 30
0.0
 10
-136.0412
 20
41.2928
 30
0.0
 10
-136.0412
 20
39.0779
 30
0.0
  0
SPLINE
  5
4F
330
1F
100
AcDbEntity
  8
layer 1
 62
     7
100
AcDbSpline
210
0.0
220
0.0
230
1.0
 70
    11
 71
     3
 72
    20
 73
    16
 74
     0
 42
0.0000000001
 43
0.0000000001
 12
1.0
 22
0.0
 32
0.0
 13
1.0
 23
0.0
 33
0.0
 40
0.0
 40
0.0
 40
0.0
 40
0.0
 40
0.2
 40
0.2
 40
0.2
 40
0.2
 40
0.4
 40
0.4
 40
0.4
 40
0.4
 40
0.6
 40
0.6
 40
0.6
 40
0.6
 40
1.0
 40
1.0
 40
1.0
 40
1.0
 10
-106.6576
 20
39.0779
 30
0.0
 10
-106.6576
 20
36.8629
 30
0.0
 10
-108.4532
 20
35.0673
 30
0.0
 10
-110.6681
 20
35.0673
 30
0.0
 10
-110.6681
 20
35.0673
 30
0.0
 10
-112.8831
 20
35.0673
 30
0.0
 10
-114.6787
 20
36.8629
 30
0.0
 10
-114.6787
 20
39.0779
 30
0.0
 10
-114.6787
 20
39.0779
 30
0.0
 10
-114.6787
 20
41.2928
 30
0.0
 10
-112.8831
 20
43.0884
 30
0.0
 10
-110.6681
 20
43.0884
 30
0.0
 10
-110.6681
 20
43.0884
 30
0.0
 10
-108.4532
 20
43.0884
 30
0.0
 10
-106.6576
 20
41.2928
 30
0.0
 10
-106.6576
 20
39.0779
 30
0.0
  0
SPLINE
  5
50
330
1F
100
AcDbEntity
  8
layer 1
 62
     7
100
AcDbSpline
210
0.0
220
0.0
230
1.0
 70
    11
 71
     3
 72
    20
 73
    16
 74
     0
 42
0.0000000001
 43
0.0000000001
 12
1.0
 22
0.0
 32
0.0
 13
1.0
 23
0.0
 33
0.0
 40
0.0
 40
0.0
 40
0.0
 40
0.0
 40
0.2
 40
0.2
 40
0.2
 40
0.2
 40
0.4
 40
0.4
 40
0.4
 40
0.4
 40
0.6
 40
0.6
 40
0.6
 40
0.6
 40
1.0
 40
1.0
 40
1.0
 40
1.0
 10
-77.5693
 20
39.0779
 30
0.0
 10
-77.5693
 20
36.8629
 30
0.0
 10
-79.3649
 20
35.0673
 30
0.0
 10
-81.5798
 20
35.0673
 30
0.0
 10
-81.5798
 20
35.0673
 30
0.0
 10
-83.7948
 20
35.0673
 30
0.0
 10
-85.5904
 20
36.8629
 30
0.0
 10
-85.5904
 20
39.0779
 30
0.0
 10
-85.5904
 20
39.0779
 30
0.0
 10
-85.5904
 20
41.2928
 30
0.0
 10
-83.7948
 20
43.0884
 30
0.0
 10
-81.5798
 20
43.0884
 30
0.0
 10
-81.5798
 20
43.0884
 30
0.0
 10
-79.3649
 20
43.0884
 30
0.0
 10
-77.5693
 20
41.2928
 30
0.0
 10
-77.5693
 20
39.0779
 30
0.0
  0
SPLINE
  5
51
330
1F
100
AcDbEntity
  8
layer 1
 62
     7
100
AcDbSpline
210
0.0
220
0.0
230
1.0
 70
    11
 71
     3
 72
    20
 73
    16
 74
     0
 42
0.0000000001
 43
0.0000000001
 12
1.0
 22
0.0
 32
0.0
 13
1.0
 23
0.0
 33
0.0
 40
0.0
 40
0.0
 40
0.0
 40
0.0
 40
0.2
 40
0.2
 40
0.2
 40
0.2
 40
0.4
 40
0.4
 40
0.4
 40
0.4
 40
0.6
 40
0.6
 40
0.6
 40
0.6
 40
1.0
 40
1.0
 40
1.0
 40
1.0
 10
-165.2035
 20
8.0684
 30
0.0
 10
-165.2035
 20
5.8535
 30
0.0
 10
-166.9991
 20
4.0579
 30
0.0
 10
-169.214
 20
4.0579
 30
0.0
 10
-169.214
 20
4.0579
 30
0.0
 10
-171.429
 20
4.0579
 30
0.0
 10
-173.2246
 20
5.8535
 30
0.0
 10
-173.2246
 20
8.0684
 30
0.0
 10
-173.2246
 20
8.0684
 30
0.0
 10
-173.2246
 20
10.2834
 30
0.0
 10
-171.429
 20
12.079
 30
0.0
 10
-169.214
 20
12.079
 30
0.0
 10
-169.214
 20
12.079
 30
0.0
 10
-166.9991
 20
12.079
 30
0.0
 10
-165.2035
 20
10.2834
 30
0.0
 10
-165.2035
 20
8.0684
 30
0.0
  0
SPLINE
  5
52
330
1F
100
AcDbEntity
  8
layer 1
 62
     7
100
AcDbSpline
210
0.0
220
0.0
230
1.0
 70
    11
 71
     3
 72
    20
 73
    16
 74
     0
 42
0.0000000001
 43
0.0000000001
 12
1.0
 22
0.0
 32
0.0
 13
1.0
 23
0.0
 33
0.0
 40
0.0
 40
0.0
 40
0.0
 40
0.0
 40
0.2
 40
0.2
 40
0.2
 40
0.2
 40
0.4
 40
0.4
 40
0.4
 40
0.4
 40
0.6
 40
0.6
 40
0.6
 40
0.6
 40
1.0
 40
1.0
 40
1.0
 40
1.0
 10
-136.0412
 20
8.0684
 30
0.0
 10
-136.0412
 20
5.8535
 30
0.0
 10
-137.8369
 20
4.0579
 30
0.0
 10
-140.0518
 20
4.0579
 30
0.0
 10
-140.0518
 20
4.0579
 30
0.0
 10
-142.2667
 20
4.0579
 30
0.0
 10
-144.0624
 20
5.8535
 30
0.0
 10
-144.0624
 20
8.0684
 30
0.0
 10
-144.0624
 20
8.0684
 30
0.0
 10
-144.0624
 20
10.2834
 30
0.0
 10
-142.2667
 20
12.079
 30
0.0
 10
-140.0518
 20
12.079
 30
0.0
 10
-140.0518
 20
12.079
 30
0.0
 10
-137.8369
 20
12.079
 30
0.0
 10
-136.0412
 20
10.2834
 30
0.0
 10
-136.0412
 20
8.0684
 30
0.0
  0
SPLINE
  5
53
330
1F
100
AcDbEntity
  8
layer 1
 62
     7
100
AcDbSpline
210
0.0
220
0.0
230
1.0
 70
    11
 71
     3
 72
    20
 73
    16
 74
     0
 42
0.0000000001
 43
0.0000000001
 12
1.0
 22
0.0
 32
0.0
 13
1.0
 23
0.0
 33
0.0
 40
0.0
 40
0.0
 40
0.0
 40
0.0
 40
0.2
 40
0.2
 40
0.2
 40
0.2
 40
0.4
 40
0.4
 40
0.4
 40
0.4
 40
0.6
 40
0.6
 40
0.6
 40
0.6
 40
1.0
 40
1.0
 40
1.0
 40
1.0
 10
-106.6576
 20
8.0684
 30
0.0
 10
-106.6576
 20
5.8535
 30
0.0
 10
-108.4532
 20
4.0579
 30
0.0
 10
-110.6681
 20
4.0579
 30
0.0
 10
-110.6681
 20
4.0579
 30
0.0
 10
-112.8831
 20
4.0579
 30
0.0
 10
-114.6787
 20
5.8535
 30
0.0
 10
-114.6787
 20
8.0684
 30
0.0
 10
-114.6787
 20
8.0684
 30
0.0
 10
-114.6787
 20
10.2834
 30
0.0
 10
-112.8831
 20
12.079
 30
0.0
 10
-110.6681
 20
12.079
 30
0.0
 10
-110.6681
 20
12.079
 30
0.0
 10
-108.4532
 20
12.079
 30
0.0
 10
-106.6576
 20
10.2834
 30
0.0
 10
-106.6576
 20
8.0684
 30
0.0
  0
SPLINE
  5
54
330
1F
100
AcDbEntity
  8
layer 1
 62
     7
100
AcDbSpline
210
0.0
220
0.0
230
1.0
 70
    11
 71
     3
 72
    20
 73
    16
 74
     0
 42
0.0000000001
 43
0.0000000001
 12
1.0
 22
0.0
 32
0.0
 13
1.0
 23
0.0
 33
0.0
 40
0.0
 40
0.0
 40
0.0
 40
0.0
 40
0.2
 40
0.2
 40
0.2
 40
0.2
 40
0.4
 40
0.4
 40
0.4
 40
0.4
 40
0.6
 40
0.6
 40
0.6
 40
0.6
 40
1.0
 40
1.0
 40
1.0
 40
1.0
 10
-77.5693
 20
8.0684
 30
0.0
 10
-77.5693
 20
5.8535
 30
0.0
 10
-79.3649
 20
4.0579
 30
0.0
 10
-81.5798
 20
4.0579
 30
0.0
 10
-81.5798
 20
4.0579
 30
0.0
 10
-83.7948
 20
4.0579
 30
0.0
 10
-85.5904
 20
5.8535
 30
0.0
 10
-85.5904
 20
8.0684
 30
0.0
 10
-85.5904
 20
8.0684
 30
0.0
 10
-85.5904
 20
10.2834
 30
0.0
 10
-83.7948
 20
12.079
 30
0.0
 10
-81.5798
 20
12.079
 30
0.0
 10
-81.5798
 20
12.079
 30
0.0
 10
-79.3649
 20
12.079
 30
0.0
 10
-77.5693
 20
10.2834
 30
0.0
 10
-77.5693
 20
8.0684
 30
0.0
  0
SPLINE
  5
55
330
1F
100
AcDbEntity
  8
layer 1
 62
     7
100
AcDbSpline
210
0.0
220
0.0
230
1.0
 70
    11
 71
     3
 72
    20
 73
    16
 74
     0
 42
0.0000000001
 43
0.0000000001
 12
1.0
 22
0.0
 32
0.0
 13
1.0
 23
0.0
 33
0.0
 40
0.0
 40
0.0
 40
0.0
 40
0.0
 40
0.2
 40
0.2
 40
0.2
 40
0.2
 40
0.4
 40
0.4
 40
0.4
 40
0.4
 40
0.6
 40
0.6
 40
0.6
 40
0.6
 40
1.0
 40
1.0
 40
1.0
 40
1.0
 10
-165.2035
 20
-22.9411
 30
0.0
 10
-165.2035
 20
-25.156
 30
0.0
 10
-166.9991
 20
-26.9517
 30
0.0
 10
-169.214
 20
-26.9517
 30
0.0
 10
-169.214
 20
-26.9517
 30
0.0
 10
-171.429
 20
-26.9517
 30
0.0
 10
-173.2246
 20
-25.156
 30
0.0
 10
-173.2246
 20
-22.9411
 30
0.0
 10
-173.2246
 20
-22.9411
 30
0.0
 10
-173.2246
 20
-20.7262
 30
0.0
 10
-171.429
 20
-18.9305
 30
0.0
 10
-169.214
 20
-18.9305
 30
0.0
 10
-169.214
 20
-18.9305
 30
0.0
 10
-166.9991
 20
-18.9305
 30
0.0
 10
-165.2035
 20
-20.7262
 30
0.0
 10
-165.2035
 20
-22.9411
 30
0.0
  0
SPLINE
  5
56
330
1F
100
AcDbEntity
  8
layer 1
 62
     7
100
AcDbSpline
210
0.0
220
0.0
230
1.0
 70
    11
 71
     3
 72
    20
 73
    16
 74
     0
 42
0.0000000001
 43
0.0000000001
 12
1.0
 22
0.0
 32
0.0
 13
1.0
 23
0.0
 33
0.0
 40
0.0
 40
0.0
 40
0.0
 40
0.0
 40
0.2
 40
0.2
 40
0.2
 40
0.2
 40
0.4
 40
0.4
 40
0.4
 40
0.4
 40
0.6
 40
0.6
 40
0.6
 40
0.6
 40
1.0
 40
1.0
 40
1.0
 40
1.0
 10
-136.0412
 20
-22.9411
 30
0.0
 10
-136.0412
 20
-25.156
 30
0.0
 10
-137.8369
 20
-26.9517
 30
0.0
 10
-140.0518
 20
-26.9517
 30
0.0
 10
-140.0518
 20
-26.9517
 30
0.0
 10
-142.2667
 20
-26.9517
 30
0.0
 10
-144.0624
 20
-25.156
 30
0.0
 10
-144.0624
 20
-22.9411
 30
0.0
 10
-144.0624
 20
-22.9411
 30
0.0
 10
-144.0624
 20
-20.7262
 30
0.0
 10
-142.2667
 20
-18.9305
 30
0.0
 10
-140.0518
 20
-18.9305
 30
0.0
 10
-140.0518
 20
-18.9305
 30
0.0
 10
-137.8369
 20
-18.9305
 30
0.0
 10
-136.0412
 20
-20.7262
 30
0.0
 10
-136.0412
 20
-22.9411
 30
0.0
  0
SPLINE
  5
57
330
1F
100
AcDbEntity
  8
layer 1
 62
     7
100
AcDbSpline
210
0.0
220
0.0
230
1.0
 70
    11
 71
     3
 72
    20
 73
    16
 74
     0
 42
0.0000000001
 43
0.0000000001
 12
1.0
 22
0.0
 32
0.0
 13
1.0
 23
0.0
 33
0.0
 40
0.0
 40
0.0
 40
0.0
 40
0.0
 40
0.2
 40
0.2
 40
0.2
 40
0.2
 40
0.4
 40
0.4
 40
0.4
 40
0.4
 40
0.6
 40
0.6
 40
0.6
 40
0.6
 40
1.0
 40
1.0
 40
1.0
 40
1.0
 10
-106.6576
 20
-22.9411
 30
0.0
 10
-106.6576
 20
-25.156
 30
0.0
 10
-108.4532
 20
-26.9517
 30
0.0
 10
-110.6681
 20
-26.9517
 30
0.0
 10
-110.6681
 20
-26.9517
 30
0.0
 10
-112.8831
 20
-26.9517
 30
0.0
 10
-114.6787
 20
-25.156
 30
0.0
 10
-114.6787
 20
-22.9411
 30
0.0
 10
-114.6787
 20
-22.9411
 30
0.0
 10
-114.6787
 20
-20.7262
 30
0.0
 10
-112.8831
 20
-18.9305
 30
0.0
 10
-110.6681
 20
-18.9305
 30
0.0
 10
-110.6681
 20
-18.9305
 30
0.0
 10
-108.4532
 20
-18.9305
 30
0.0
 10
-106.6576
 20
-20.7262
 30
0.0
 10
-106.6576
 20
-22.9411
 30
0.0
  0
SPLINE
  5
58
330
1F
100
AcDbEntity
  8
layer 1
 62
     7
100
AcDbSpline
210
0.0
220
0.0
230
1.0
 70
    11
 71
     3
 72
    20
 73
    16
 74
     0
 42
0.0000000001
 43
0.0000000001
 12
1.0
 22
0.0
 32
0.0
 13
1.0
 23
0.0
 33
0.0
 40
0.0
 40
0.0
 40
0.0
 40
0.0
 40
0.2
 40
0.2
 40
0.2
 40
0.2
 40
0.4
 40
0.4
 40
0.4
 40
0.4
 40
0.6
 40
0.6
 40
0.6
 40
0.6
 40
1.0
 40
1.0
 40
1.0
 40
1.0
 10
-77.5693
 20
-22.9411
 30
0.0
 10
-77.5693
 20
-25.156
 30
0.0
 10
-79.3649
 20
-26.9517
 30
0.0
 10
-81.5798
 20
-26.9517
 30
0.0
 10
-81.5798
 20
-26.9517
 30
0.0
 10
-83.7948
 20
-26.9517
 30
0.0
 10
-85.5904
 20
-25.156
 30
0.0
 10
-85.5904
 20
-22.9411
 30
0.0
 10
-85.5904
 20
-22.9411
 30
0.0
 10
-85.5904
 20
-20.7262
 30
0.0
 10
-83.7948
 20
-18.9305
 30
0.0
 10
-81.5798
 20
-18.9305
 30
0.0
 10
-81.5798
 20
-18.9305
 30
0.0
 10
-79.3649
 20
-18.9305
 30
0.0
 10
-77.5693
 20
-20.7262
 30
0.0
 10
-77.5693
 20
-22.9411
 30
0.0
  0
SPLINE
  5
59
330
1F
100
AcDbEntity
  8
layer 1
 62
     7
100
AcDbSpline
210
0.0
220
0.0
230
1.0
 70
    11
 71
     3
 72
    20
 73
    16
 74
     0
 42
0.0000000001
 43
0.0000000001
 12
1.0
 22
0.0
 32
0.0
 13
1.0
 23
0.0
 33
0.0
 40
0.0
 40
0.0
 40
0.0
 40
0.0
 40
0.2
 40
0.2
 40
0.2
 40
0.2
 40
0.4
 40
0.4
 40
0.4
 40
0.4
 40
0.6
 40
0.6
 40
0.6
 40
0.6
 40
1.0
 40
1.0
 40
1.0
 40
1.0
 10
-165.2035
 20
-54.1593
 30
0.0
 10
-165.2035
 20
-56.3742
 30
0.0
 10
-166.9991
 20
-58.1699
 30
0.0
 10
-169.214
 20
-58.1699
 30
0.0
 10
-169.214
 20
-58.1699
 30
0.0
 10
-171.429
 20
-58.1699
 30
0.0
 10
-173.2246
 20
-56.3742
 30
0.0
 10
-173.2246
 20
-54.1593
 30
0.0
 10
-173.2246
 20
-54.1593
 30
0.0
 10
-173.2246
 20
-51.9444
 30
0.0
 10
-171.429
 20
-50.1487
 30
0.0
 10
-169.214
 20
-50.1487
 30
0.0
 10
-169.214
 20
-50.1487
 30
0.0
 10
-166.9991
 20
-50.1487
 30
0.0
 10
-165.2035
 20
-51.9444
 30
0.0
 10
-165.2035
 20
-54.1593
 30
0.0
  0
SPLINE
  5
5A
330
1F
100
AcDbEntity
  8
layer 1
 62
     7
100
AcDbSpline
210
0.0
220
0.0
230
1.0
 70
    11
 71
     3
 72
    20
 73
    16
 74
     0
 42
0.0000000001
 43
0.0000000001
 12
1.0
 22
0.0
 32
0.0
 13
1.0
 23
0.0
 33
0.0
 40
0.0
 40
0.0
 40
0.0
 40
0.0
 40
0.2
 40
0.2
 40
0.2
 40
0.2
 40
0.4
 40
0.4
 40
0.4
 40
0.4
 40
0.6
 40
0.6
 40
0.6
 40
0.6
 40
1.0
 40
1.0
 40
1.0
 40
1.0
 10
-136.0412
 20
-54.1593
 30
0.0
 10
-136.0412
 20
-56.3742
 30
0.0
 10
-137.8369
 20
-58.1699
 30
0.0
 10
-140.0518
 20
-58.1699
 30
0.0
 10
-140.0518
 20
-58.1699
 30
0.0
 10
-142.2667
 20
-58.1699
 30
0.0
 10
-144.0624
 20
-56.3742
 30
0.0
 10
-144.0624
 20
-54.1593
 30
0.0
 10
-144.0624
 20
-54.1593
 30
0.0
 10
-144.0624
 20
-51.9444
 30
0.0
 10
-142.2667
 20
-50.1487
 30
0.0
 10
-140.0518
 20
-50.1487
 30
0.0
 10
-140.0518
 20
-50.1487
 30
0.0
 10
-137.8369
 20
-50.1487
 30
0.0
 10
-136.0412
 20
-51.9444
 30
0.0
 10
-136.0412
 20
-54.1593
 30
0.0
  0
SPLINE
  5
5B
330
1F
100
AcDbEntity
  8
layer 1
 62
     7
100
AcDbSpline
210
0.0
220
0.0
230
1.0
 70
    11
 71
     3
 72
    20
 73
    16
 74
     0
 42
0.0000000001
 43
0.0000000001
 12
1.0
 22
0.0
 32
0.0
 13
1.0
 23
0.0
 33
0.0
 40
0.0
 40
0.0
 40
0.0
 40
0.0
 40
0.2
 40
0.2
 40
0.2
 40
0.2
 40
0.4
 40
0.4
 40
0.4
 40
0.4
 40
0.6
 40
0.6
 40
0.6
 40
0.6
 40
1.0
 40
1.0
 40
1.0
 40
1.0
 10
-106.6576
 20
-54.1593
 30
0.0
 10
-106.6576
 20
-56.3742
 30
0.0
 10
-108.4532
 20
-58.1699
 30
0.0
 10
-110.6681
 20
-58.1699
 30
0.0
 10
-110.6681
 20
-58.1699
 30
0.0
 10
-112.8831
 20
-58.1699
 30
0.0
 10
-114.6787
 20
-56.3742
 30
0.0
 10
-114.6787
 20
-54.1593
 30
0.0
 10
-114.6787
 20
-54.1593
 30
0.0
 10
-114.6787
 20
-51.9444
 30
0.0
 10
-112.8831
 20
-50.1487
 30
0.0
 10
-110.6681
 20
-50.1487
 30
0.0
 10
-110.6681
 20
-50.1487
 30
0.0
 10
-108.4532
 20
-50.1487
 30
0.0
 10
-106.6576
 20
-51.9444
 30
0.0
 10
-106.6576
 20
-54.1593
 30
0.0
  0
SPLINE
  5
5C
330
1F
100
AcDbEntity
  8
layer 1
 62
     7
100
AcDbSpline
210
0.0
220
0.0
230
1.0
 70
    11
 71
     3
 72
    20
 73
    16
 74
     0
 42
0.0000000001
 43
0.0000000001
 12
1.0
 22
0.0
 32
0.0
 13
1.0
 23
0.0
 33
0.0
 40
0.0
 40
0.0
 40
0.0
 40
0.0
 40
0.2
 40
0.2
 40
0.2
 40
0.2
 40
0.4
 40
0.4
 40
0.4
 40
0.4
 40
0.6
 40
0.6
 40
0.6
 40
0.6
 40
1.0
 40
1.0
 40
1.0
 40
1.0
 10
-77.5693
 20
-54.1593
 30
0.0
 10
-77.5693
 20
-56.3742
 30
0.0
 10
-79.3649
 20
-58.1699
 30
0.0
 10
-81.5798
 20
-58.1699
 30
0.0
 10
-81.5798
 20
-58.1699
 30
0.0
 10
-83.7948
 20
-58.1699
 30
0.0
 10
-85.5904
 20
-56.3742
 30
0.0
 10
-85.5904
 20
-54.1593
 30
0.0
 10
-85.5904
 20
-54.1593
 30
0.0
 10
-85.5904
 20
-51.9444
 30
0.0
 10
-83.7948
 20
-50.1487
 30
0.0
 10
-81.5798
 20
-50.1487
 30
0.0
 10
-81.5798
 20
-50.1487
 30
0.0
 10
-79.3649
 20
-50.1487
 30
0.0
 10
-77.5693
 20
-51.9444
 30
0.0
 10
-77.5693
 20
-54.1593
 30
0.0
  0
SPLINE
  5
5D
330
1F
100
AcDbEntity
  8
layer 1
 62
     7
100
AcDbSpline
210
0.0
220
0.0
230
1.0
 70
    11
 71
     3
 72
    20
 73
    16
 74
     0
 42
0.0000000001
 43
0.0000000001
 12
1.0
 22
0.0
 32
0.0
 13
1.0
 23
0.0
 33
0.0
 40
0.0
 40
0.0
 40
0.0
 40
0.0
 40
0.2
 40
0.2
 40
0.2
 40
0.2
 40
0.4
 40
0.4
 40
0.4
 40
0.4
 40
0.6
 40
0.6
 40
0.6
 40
0.6
 40
1.0
 40
1.0
 40
1.0
 40
1.0
 10
-165.2035
 20
-85.2732
 30
0.0
 10
-165.2035
 20
-87.4882
 30
0.0
 10
-166.9991
 20
-89.2838
 30
0.0
 10
-169.214
 20
-89.2838
 30
0.0
 10
-169.214
 20
-89.2838
 30
0.0
 10
-171.429
 20
-89.2838
 30
0.0
 10
-173.2246
 20
-87.4882
 30
0.0
 10
-173.2246
 20
-85.2732
 30
0.0
 10
-173.2246
 20
-85.2732
 30
0.0
 10
-173.2246
 20
-83.0583
 30
0.0
 10
-171.429
 20
-81.2627
 30
0.0
 10
-169.214
 20
-81.2627
 30
0.0
 10
-169.214
 20
-81.2627
 30
0.0
 10
-166.9991
 20
-81.2627
 30
0.0
 10
-165.2035
 20
-83.0583
 30
0.0
 10
-165.2035
 20
-85.2732
 30
0.0
  0
SPLINE
  5
5E
330
1F
100
AcDbEntity
  8
layer 1
 62
     7
100
AcDbSpline
210
0.0
220
0.0
230
1.0
 70
    11
 71
     3
 72
    20
 73
    16
 74
     0
 42
0.0000000001
 43
0.0000000001
 12
1.0
 22
0.0
 32
0.0
 13
1.0
 23
0.0
 33
0.0
 40
0.0
 40
0.0
 40
0.0
 40
0.0
 40
0.2
 40
0.2
 40
0.2
 40
0.2
 40
0.4
 40
0.4
 40
0.4
 40
0.4
 40
0.6
 40
0.6
 40
0.6
 40
0.6
 40
1.0
 40
1.0
 40
1.0
 40
1.0
 10
-136.0412
 20
-85.2732
 30
0.0
 10
-136.0412
 20
-87.4882
 30
0.0
 10
-137.8369
 20
-89.2838
 30
0.0
 10
-140.0518
 20
-89.2838
 30
0.0
 10
-140.0518
 20
-89.2838
 30
0.0
 10
-142.2667
 20
-89.2838
 30
0.0
 10
-144.0624
 20
-87.4882
 30
0.0
 10
-144.0624
 20
-85.2732
 30
0.0
 10
-144.0624
 20
-85.2732
 30
0.0
 10
-144.0624
 20
-83.0583
 30
0.0
 10
-142.2667
 20
-81.2627
 30
0.0
 10
-140.0518
 20
-81.2627
 30
0.0
 10
-140.0518
 20
-81.2627
 30
0.0
 10
-137.8369
 20
-81.2627
 30
0.0
 10
-136.0412
 20
-83.0583
 30
0.0
 10
-136.0412
 20
-85.2732
 30
0.0
  0
SPLINE
  5
5F
330
1F
100
AcDbEntity
  8
layer 1
 62
     7
100
AcDbSpline
210
0.0
220
0.0
230
1.0
 70
    11
 71
     3
 72
    20
 73
    16
 74
     0
 42
0.0000000001
 43
0.0000000001
 12
1.0
 22
0.0
 32
0.0
 13
1.0
 23
0.0
 33
0.0
 40
0.0
 40
0.0
 40
0.0
 40
0.0
 40
0.2
 40
0.2
 40
0.2
 40
0.2
 40
0.4
 40
0.4
 40
0.4
 40
0.4
 40
0.6
 40
0.6
 40
0.6
 40
0.6
 40
1.0
 40
1.0
 40
1.0
 40
1.0
 10
-106.6576
 20
-85.2732
 30
0.0
 10
-106.6576
 20
-87.4882
 30
0.0
 10
-108.4532
 20
-89.2838
 30
0.0
 10
-110.6681
 20
-89.2838
 30
0.0
 10
-110.6681
 20
-89.2838
 30
0.0
 10
-112.8831
 20
-89.2838
 30
0.0
 10
-114.6787
 20
-87.4882
 30
0.0
 10
-114.6787
 20
-85.2732
 30
0.0
 10
-114.6787
 20
-85.2732
 30
0.0
 10
-114.6787
 20
-83.0583
 30
0.0
 10
-112.8831
 20
-81.2627
 30
0.0
 10
-110.6681
 20
-81.2627
 30
0.0
 10
-110.6681
 20
-81.2627
 30
0.0
 10
-108.4532
 20
-81.2627
 30
0.0
 10
-106.6576
 20
-83.0583
 30
0.0
 10
-106.6576
 20
-85.2732
 30
0.0
  0
SPLINE
  5
60
330
1F
100
AcDbEntity
  8
layer 1
 62
     7
100
AcDbSpline
210
0.0
220
0.0
230
1.0
 70
    11
 71
     3
 72
    20
 73
    16
 74
     0
 42
0.0000000001
 43
0.0000000001
 12
1.0
 22
0.0
 32
0.0
 13
1.0
 23
0.0
 33
0.0
 40
0.0
 40
0.0
 40
0.0
 40
0.0
 40
0.2
 40
0.2
 40
0.2
 40
0.2
 40
0.4
 40
0.4
 40
0.4
 40
0.4
 40
0.6
 40
0.6
 40
0.6
 40
0.6
 40
1.0
 40
1.0
 40
1.0
 40
1.0
 10
-77.5693
 20
-85.2732
 30
0.0
 10
-77.5693
 20
-87.4882
 30
0.0
 10
-79.3649
 20
-89.2838
 30
0.0
 10
-81.5798
 20
-89.2838
 30
0.0
 10
-81.5798
 20
-89.2838
 30
0.0
 10
-83.7948
 20
-89.2838
 30
0.0
 10
-85.5904
 20
-87.4882
 30
0.0
 10
-85.5904
 20
-85.2732
 30
0.0
 10
-85.5904
 20
-85.2732
 30
0.0
 10
-85.5904
 20
-83.0583
 30
0.0
 10
-83.7948
 20
-81.2627
 30
0.0
 10
-81.5798
 20
-81.2627
 30
0.0
 10
-81.5798
 20
-81.2627
 30
0.0
 10
-79.3649
 20
-81.2627
 30
0.0
 10
-77.5693
 20
-83.0583
 30
0.0
 10
-77.5693
 20
-85.2732
 30
0.0
  0
SPLINE
  5
61
330
1F
100
AcDbEntity
  8
layer 1
 62
     7
100
AcDbSpline
210
0.0
220
0.0
230
1.0
 70
    11
 71
     3
 72
    20
 73
    16
 74
     0
 42
0.0000000001
 43
0.0000000001
 12
1.0
 22
0.0
 32
0.0
 13
1.0
 23
0.0
 33
0.0
 40
0.0
 40
0.0
 40
0.0
 40
0.0
 40
0.2
 40
0.2
 40
0.2
 40
0.2
 40
0.4
 40
0.4
 40
0.4
 40
0.4
 40
0.6
 40
0.6
 40
0.6
 40
0.6
 40
1.0
 40
1.0
 40
1.0
 40
1.0
 10
-165.2035
 20
-85.2732
 30
0.0
 10
-165.2035
 20
-87.4882
 30
0.0
 10
-166.9991
 20
-89.2838
 30
0.0
 10
-169.214
 20
-89.2838
 30
0.0
 10
-169.214
 20
-89.2838
 30
0.0
 10
-171.429
 20
-89.2838
 30
0.0
 10
-173.2246
 20
-87.4882
 30
0.0
 10
-173.2246
 20
-85.2732
 30
0.0
 10
-173.2246
 20
-85.2732
 30
0.0
 10
-173.2246
 20
-83.0583
 30
0.0
 10
-171.429
 20
-81.2627
 30
0.0
 10
-169.214
 20
-81.2627
 30
0.0
 10
-169.214
 20
-81.2627
 30
0.0
 10
-166.9991
 20
-81.2627
 30
0.0
 10
-165.2035
 20
-83.0583
 30
0.0
 10
-165.2035
 20
-85.2732
 30
0.0
  0
SPLINE
  5
62
330
1F
100
AcDbEntity
  8
layer 1
 62
     7
100
AcDbSpline
210
0.0
220
0.0
230
1.0
 70
    11
 71
     3
 72
    20
 73
    16
 74
     0
 42
0.0000000001
 43
0.0000000001
 12
1.0
 22
0.0
 32
0.0
 13
1.0
 23
0.0
 33
0.0
 40
0.0
 40
0.0
 40
0.0
 40
0.0
 40
0.2
 40
0.2
 40
0.2
 40
0.2
 40
0.4
 40
0.4
 40
0.4
 40
0.4
 40
0.6
 40
0.6
 40
0.6
 40
0.6
 40
1.0
 40
1.0
 40
1.0
 40
1.0
 10
-136.0412
 20
-85.2732
 30
0.0
 10
-136.0412
 20
-87.4882
 30
0.0
 10
-137.8369
 20
-89.2838
 30
0.0
 10
-140.0518
 20
-89.2838
 30
0.0
 10
-140.0518
 20
-89.2838
 30
0.0
 10
-142.2667
 20
-89.2838
 30
0.0
 10
-144.0624
 20
-87.4882
 30
0.0
 10
-144.0624
 20
-85.2732
 30
0.0
 10
-144.0624
 20
-85.2732
 30
0.0
 10
-144.0624
 20
-83.0583
 30
0.0
 10
-142.2667
 20
-81.2627
 30
0.0
 10
-140.0518
 20
-81.2627
 30
0.0
 10
-140.0518
 20
-81.2627
 30
0.0
 10
-137.8369
 20
-81.2627
 30
0.0
 10
-136.0412
 20
-83.0583
 30
0.0
 10
-136.0412
 20
-85.2732
 30
0.0
  0
SPLINE
  5
63
330
1F
100
AcDbEntity
  8
layer 1
 62
     7
100
AcDbSpline
210
0.0
220
0.0
230
1.0
 70
    11
 71
     3
 72
    20
 73
    16
 74
     0
 42
0.0000000001
 43
0.0000000001
 12
1.0
 22
0.0
 32
0.0
 13
1.0
 23
0.0
 33
0.0
 40
0.0
 40
0.0
 40
0.0
 40
0.0
 40
0.2
 40
0.2
 40
0.2
 40
0.2
 40
0.4
 40
0.4
 40
0.4
 40
0.4
 40
0.6
 40
0.6
 40
0.6
 40
0.6
 40
1.0
 40
1.0
 40
1.0
 40
1.0
 10
-106.6576
 20
-85.2732
 30
0.0
 10
-106.6576
 20
-87.4882
 30
0.0
 10
-108.4532
 20
-89.2838
 30
0.0
 10
-110.6681
 20
-89.2838
 30
0.0
 10
-110.6681
 20
-89.2838
 30
0.0
 10
-112.8831
 20
-89.2838
 30
0.0
 10
-114.6787
 20
-87.4882
 30
0.0
 10
-114.6787
 20
-85.2732
 30
0.0
 10
-114.6787
 20
-85.2732
 30
0.0
 10
-114.6787
 20
-83.0583
 30
0.0
 10
-112.8831
 20
-81.2627
 30
0.0
 10
-110.6681
 20
-81.2627
 30
0.0
 10
-110.6681
 20
-81.2627
 30
0.0
 10
-108.4532
 20
-81.2627
 30
0.0
 10
-106.6576
 20
-83.0583
 30
0.0
 10
-106.6576
 20
-85.2732
 30
0.0
  0
SPLINE
  5
64
330
1F
100
AcDbEntity
  8
layer 1
 62
     7
100
AcDbSpline
210
0.0
220
0.0
230
1.0
 70
    11
 71
     3
 72
    20
 73
    16
 74
     0
 42
0.0000000001
 43
0.0000000001
 12
1.0
 22
0.0
 32
0.0
 13
1.0
 23
0.0
 33
0.0
 40
0.0
 40
0.0
 40
0.0
 40
0.0
 40
0.2
 40
0.2
 40
0.2
 40
0.2
 40
0.4
 40
0.4
 40
0.4
 40
0.4
 40
0.6
 40
0.6
 40
0.6
 40
0.6
 40
1.0
 40
1.0
 40
1.0
 40
1.0
 10
-77.5693
 20
-85.2732
 30
0.0
 10
-77.5693
 20
-87.4882
 30
0.0
 10
-79.3649
 20
-89.2838
 30
0.0
 10
-81.5798
 20
-89.2838
 30
0.0
 10
-81.5798
 20
-89.2838
 30
0.0
 10
-83.7948
 20
-89.2838
 30
0.0
 10
-85.5904
 20
-87.4882
 30
0.0
 10
-85.5904
 20
-85.2732
 30
0.0
 10
-85.5904
 20
-85.2732
 30
0.0
 10
-85.5904
 20
-83.0583
 30
0.0
 10
-83.7948
 20
-81.2627
 30
0.0
 10
-81.5798
 20
-81.2627
 30
0.0
 10
-81.5798
 20
-81.2627
 30
0.0
 10
-79.3649
 20
-81.2627
 30
0.0
 10
-77.5693
 20
-83.0583
 30
0.0
 10
-77.5693
 20
-85.2732
 30
0.0
  0
SPLINE
  5
65
330
1F
100
AcDbEntity
  8
layer 1
 62
     7
100
AcDbSpline
210
0.0
220
0.0
230
1.0
 70
    11
 71
     3
 72
    20
 73
    16
 74
     0
 42
0.0000000001
 43
0.0000000001
 12
1.0
 22
0.0
 32
0.0
 13
1.0
 23
0.0
 33
0.0
 40
0.0
 40
0.0
 40
0.0
 40
0.0
 40
0.2
 40
0.2
 40
0.2
 40
0.2
 40
0.4
 40
0.4
 40
0.4
 40
0.4
 40
0.6
 40
0.6
 40
0.6
 40
0.6
 40
1.0
 40
1.0
 40
1.0
 40
1.0
 10
-174.0014
 20
-61.489
 30
0.0
 10
-175.7282
 20
-58.3609
 30
0.0
 10
-177.5515
 20
-57.5849
 30
0.0
 10
-179.4181
 20
-59.0042
 30
0.0
 10
-179.4181
 20
-59.0042
 30
0.0
 10
-181.1033
 20
-60.2857
 30
0.0
 10
-180.6361
 20
-62.963
 30
0.0
 10
-178.2798
 20
-64.7074
 30
0.0
 10
-178.2798
 20
-64.7074
 30
0.0
 10
-176.2811
 20
-66.0125
 30
0.0
 10
-173.8287
 20
-66.812
 30
0.0
 10
-171.7221
 20
-67.5956
 30
0.0
 10
-171.7221
 20
-67.5956
 30
0.0
 10
-172.3105
 20
-65.631
 30
0.0
 10
-172.9427
 20
-63.4415
 30
0.0
 10
-174.0014
 20
-61.489
 30
0.0
  0
SPLINE
  5
66
330
1F
100
AcDbEntity
  8
layer 1
 62
     7
100
AcDbSpline
210
0.0
220
0.0
230
1.0
 70
    11
 71
     3
 72
    20
 73
    16
 74
     0
 42
0.0000000001
 43
0.0000000001
 12
1.0
 22
0.0
 32
0.0
 13
1.0
 23
0.0
 33
0.0
 40
0.0
 40
0.0
 40
0.0
 40
0.0
 40
0.2
 40
0.2
 40
0.2
 40
0.2
 40
0.4
 40
0.4
 40
0.4
 40
0.4
 40
0.6
 40
0.6
 40
0.6
 40
0.6
 40
1.0
 40
1.0
 40
1.0
 40
1.0
 10
-164.6336
 20
-61.489
 30
0.0
 10
-162.9068
 20
-58.3609
 30
0.0
 10
-161.0835
 20
-57.5849
 30
0.0
 10
-159.2169
 20
-59.0042
 30
0.0
 10
-159.2169
 20
-59.0042
 30
0.0
 10
-157.5317
 20
-60.2857
 30
0.0
 10
-157.9989
 20
-62.963
 30
0.0
 10
-160.3552
 20
-64.7074
 30
0.0
 10
-160.3552
 20
-64.7074
 30
0.0
 10
-162.3539
 20
-66.0125
 30
0.0
 10
-164.8063
 20
-66.812
 30
0.0
 10
-166.9129
 20
-67.5956
 30
0.0
 10
-166.9129
 20
-67.5956
 30
0.0
 10
-166.3245
 20
-65.631
 30
0.0
 10
-165.6923
 20
-63.4415
 30
0.0
 10
-164.6336
 20
-61.489
 30
0.0
  0
SPLINE
  5
67
330
1F
100
AcDbEntity
  8
layer 1
 62
     7
100
AcDbSpline
210
0.0
220
0.0
230
1.0
 70
    11
 71
     3
 72
    20
 73
    16
 74
     0
 42
0.0000000001
 43
0.0000000001
 12
1.0
 22
0.0
 32
0.0
 13
1.0
 23
0.0
 33
0.0
 40
0.0
 40
0.0
 40
0.0
 40
0.0
 40
0.2
 40
0.2
 40
0.2
 40
0.2
 40
0.4
 40
0.4
 40
0.4
 40
0.4
 40
0.6
 40
0.6
 40
0.6
 40
0.6
 40
1.0
 40
1.0
 40
1.0
 40
1.0
 10
-174.0014
 20
-77.9683
 30
0.0
 10
-175.7282
 20
-81.0965
 30
0.0
 10
-177.5515
 20
-81.8724
 30
0.0
 10
-179.4181
 20
-80.4531
 30
0.0
 10
-179.4181
 20
-80.4531
 30
0.0
 10
-181.1033
 20
-79.1716
 30
0.0
 10
-180.6361
 20
-76.4943
 30
0.0
 10
-178.2798
 20
-74.7499
 30
0.0
 10
-178.2798
 20
-74.7499
 30
0.0
 10
-176.2811
 20
-73.4448
 30
0.0
 10
-173.8287
 20
-72.6453
 30
0.0
 10
-171.7221
 20
-71.8617
 30
0.0
 10
-171.7221
 20
-71.8617
 30
0.0
 10
-172.3105
 20
-73.8264
 30
0.0
 10
-172.9427
 20
-76.0158
 30
0.0
 10
-174.0014
 20
-77.9683
 30
0.0
  0
SPLINE
  5
68
330
1F
100
AcDbEntity
  8
layer 1
 62
     7
100
AcDbSpline
210
0.0
220
0.0
230
1.0
 70
    11
 71
     3
 72
    20
 73
    16
 74
     0
 42
0.0000000001
 43
0.0000000001
 12
1.0
 22
0.0
 32
0.0
 13
1.0
 23
0.0
 33
0.0
 40
0.0
 40
0.0
 40
0.0
 40
0.0
 40
0.2
 40
0.2
 40
0.2
 40
0.2
 40
0.4
 40
0.4
 40
0.4
 40
0.4
 40
0.6
 40
0.6
 40
0.6
 40
0.6
 40
1.0
 40
1.0
 40
1.0
 40
1.0
 10
-164.6336
 20
-77.9683
 30
0.0
 10
-162.9068
 20
-81.0965
 30
0.0
 10
-161.0835
 20
-81.8724
 30
0.0
 10
-159.2169
 20
-80.4531
 30
0.0
 10
-159.2169
 20
-80.4531
 30
0.0
 10
-157.5317
 20
-79.1716
 30
0.0
 10
-157.9989
 20
-76.4943
 30
0.0
 10
-160.3552
 20
-74.7499
 30
0.0
 10
-160.3552
 20
-74.7499
 30
0.0
 10
-162.3539
 20
-73.4448
 30
0.0
 10
-164.8063
 20
-72.6453
 30
0.0
 10
-166.9129
 20
-71.8617
 30
0.0
 10
-166.9129
 20
-71.8617
 30
0.0
 10
-166.3245
 20
-73.8264
 30
0.0
 10
-165.6923
 20
-76.0158
 30
0.0
 10
-164.6336
 20
-77.9683
 30
0.0
  0
SPLINE
  5
69
330
1F
100
AcDbEntity
  8
layer 1
 62
     7
100
AcDbSpline
210
0.0
220
0.0
230
1.0
 70
    11
 71
     3
 72
    20
 73
    16
 74
     0
 42
0.0000000001
 43
0.0000000001
 12
1.0
 22
0.0
 32
0.0
 13
1.0
 23
0.0
 33
0.0
 40
0.0
 40
0.0
 40
0.0
 40
0.0
 40
0.2
 40
0.2
 40
0.2
 40
0.2
 40
0.4
 40
0.4
 40
0.4
 40
0.4
 40
0.6
 40
0.6
 40
0.6
 40
0.6
 40
1.0
 40
1.0
 40
1.0
 40
1.0
 10
-144.8103
 20
-61.489
 30
0.0
 10
-146.5371
 20
-58.3609
 30
0.0
 10
-148.3604
 20
-57.5849
 30
0.0
 10
-150.227
 20
-59.0042
 30
0.0
 10
-150.227
 20
-59.0042
 30
0.0
 10
-151.9122
 20
-60.2857
 30
0.0
 10
-151.445
 20
-62.963
 30
0.0
 10
-149.0887
 20
-64.7074
 30
0.0
 10
-149.0887
 20
-64.7074
 30
0.0
 10
-147.09
 20
-66.0125
 30
0.0
 10
-144.6376
 20
-66.812
 30
0.0
 10
-142.531
 20
-67.5956
 30
0.0
 10
-142.531
 20
-67.5956
 30
0.0
 10
-143.1194
 20
-65.631
 30
0.0
 10
-143.7516
 20
-63.4415
 30
0.0
 10
-144.8103
 20
-61.489
 30
0.0
  0
SPLINE
  5
6A
330
1F
100
AcDbEntity
  8
layer 1
 62
     7
100
AcDbSpline
210
0.0
220
0.0
230
1.0
 70
    11
 71
     3
 72
    20
 73
    16
 74
     0
 42
0.0000000001
 43
0.0000000001
 12
1.0
 22
0.0
 32
0.0
 13
1.0
 23
0.0
 33
0.0
 40
0.0
 40
0.0
 40
0.0
 40
0.0
 40
0.2
 40
0.2
 40
0.2
 40
0.2
 40
0.4
 40
0.4
 40
0.4
 40
0.4
 40
0.6
 40
0.6
 40
0.6
 40
0.6
 40
1.0
 40
1.0
 40
1.0
 40
1.0
 10
-135.4425
 20
-61.489
 30
0.0
 10
-133.7157
 20
-58.3609
 30
0.0
 10
-131.8924
 20
-57.5849
 30
0.0
 10
-130.0258
 20
-59.0042
 30
0.0
 10
-130.0258
 20
-59.0042
 30
0.0
 10
-128.3406
 20
-60.2857
 30
0.0
 10
-128.8078
 20
-62.963
 30
0.0
 10
-131.1641
 20
-64.7074
 30
0.0
 10
-131.1641
 20
-64.7074
 30
0.0
 10
-133.1628
 20
-66.0125
 30
0.0
 10
-135.6152
 20
-66.812
 30
0.0
 10
-137.7218
 20
-67.5956
 30
0.0
 10
-137.7218
 20
-67.5956
 30
0.0
 10
-137.1334
 20
-65.631
 30
0.0
 10
-136.5012
 20
-63.4415
 30
0.0
 10
-135.4425
 20
-61.489
 30
0.0
  0
SPLINE
  5
6B
330
1F
100
AcDbEntity
  8
layer 1
 62
     7
100
AcDbSpline
210
0.0
220
0.0
230
1.0
 70
    11
 71
     3
 72
    20
 73
    16
 74
     0
 42
0.0000000001
 43
0.0000000001
 12
1.0
 22
0.0
 32
0.0
 13
1.0
 23
0.0
 33
0.0
 40
0.0
 40
0.0
 40
0.0
 40
0.0
 40
0.2
 40
0.2
 40
0.2
 40
0.2
 40
0.4
 40
0.4
 40
0.4
 40
0.4
 40
0.6
 40
0.6
 40
0.6
 40
0.6
 40
1.0
 40
1.0
 40
1.0
 40
1.0
 10
-144.8103
 20
-77.9683
 30
0.0
 10
-146.5371
 20
-81.0965
 30
0.0
 10
-148.3604
 20
-81.8724
 30
0.0
 10
-150.227
 20
-80.4531
 30
0.0
 10
-150.227
 20
-80.4531
 30
0.0
 10
-151.9122
 20
-79.1716
 30
0.0
 10
-151.445
 20
-76.4943
 30
0.0
 10
-149.0887
 20
-74.7499
 30
0.0
 10
-149.0887
 20
-74.7499
 30
0.0
 10
-147.09
 20
-73.4448
 30
0.0
 10
-144.6376
 20
-72.6453
 30
0.0
 10
-142.531
 20
-71.8617
 30
0.0
 10
-142.531
 20
-71.8617
 30
0.0
 10
-143.1194
 20
-73.8264
 30
0.0
 10
-143.7516
 20
-76.0158
 30
0.0
 10
-144.8103
 20
-77.9683
 30
0.0
  0
SPLINE
  5
6C
330
1F
100
AcDbEntity
  8
layer 1
 62
     7
100
AcDbSpline
210
0.0
220
0.0
230
1.0
 70
    11
 71
     3
 72
    20
 73
    16
 74
     0
 42
0.0000000001
 43
0.0000000001
 12
1.0
 22
0.0
 32
0.0
 13
1.0
 23
0.0
 33
0.0
 40
0.0
 40
0.0
 40
0.0
 40
0.0
 40
0.2
 40
0.2
 40
0.2
 40
0.2
 40
0.4
 40
0.4
 40
0.4
 40
0.4
 40
0.6
 40
0.6
 40
0.6
 40
0.6
 40
1.0
 40
1.0
 40
1.0
 40
1.0
 10
-135.4425
 20
-77.9683
 30
0.0
 10
-133.7157
 20
-81.0965
 30
0.0
 10
-131.8924
 20
-81.8724
 30
0.0
 10
-130.0258
 20
-80.4531
 30
0.0
 10
-130.0258
 20
-80.4531
 30
0.0
 10
-128.3406
 20
-79.1716
 30
0.0
 10
-128.8078
 20
-76.4943
 30
0.0
 10
-131.1641
 20
-74.7499
 30
0.0
 10
-131.1641
 20
-74.7499
 30
0.0
 10
-133.1628
 20
-73.4448
 30
0.0
 10
-135.6152
 20
-72.6453
 30
0.0
 10
-137.7218
 20
-71.8617
 30
0.0
 10
-137.7218
 20
-71.8617
 30
0.0
 10
-137.1334
 20
-73.8264
 30
0.0
 10
-136.5012
 20
-76.0158
 30
0.0
 10
-135.4425
 20
-77.9683
 30
0.0
  0
SPLINE
  5
6D
330
1F
100
AcDbEntity
  8
layer 1
 62
     7
100
AcDbSpline
210
0.0
220
0.0
230
1.0
 70
    11
 71
     3
 72
    20
 73
    16
 74
     0
 42
0.0000000001
 43
0.0000000001
 12
1.0
 22
0.0
 32
0.0
 13
1.0
 23
0.0
 33
0.0
 40
0.0
 40
0.0
 40
0.0
 40
0.0
 40
0.2
 40
0.2
 40
0.2
 40
0.2
 40
0.4
 40
0.4
 40
0.4
 40
0.4
 40
0.6
 40
0.6
 40
0.6
 40
0.6
 40
1.0
 40
1.0
 40
1.0
 40
1.0
 10
-115.2675
 20
-61.489
 30
0.0
 10
-116.9943
 20
-58.3609
 30
0.0
 10
-118.8177
 20
-57.5849
 30
0.0
 10
-120.6842
 20
-59.0042
 30
0.0
 10
-120.6842
 20
-59.0042
 30
0.0
 10
-122.3694
 20
-60.2857
 30
0.0
 10
-121.9023
 20
-62.963
 30
0.0
 10
-119.5459
 20
-64.7074
 30
0.0
 10
-119.5459
 20
-64.7074
 30
0.0
 10
-117.5473
 20
-66.0125
 30
0.0
 10
-115.0948
 20
-66.812
 30
0.0
 10
-112.9882
 20
-67.5956
 30
0.0
 10
-112.9882
 20
-67.5956
 30
0.0
 10
-113.5766
 20
-65.631
 30
0.0
 10
-114.2088
 20
-63.4415
 30
0.0
 10
-115.2675
 20
-61.489
 30
0.0
  0
SPLINE
  5
6E
330
1F
100
AcDbEntity
  8
layer 1
 62
     7
100
AcDbSpline
210
0.0
220
0.0
230
1.0
 70
    11
 71
     3
 72
    20
 73
    16
 74
     0
 42
0.0000000001
 43
0.0000000001
 12
1.0
 22
0.0
 32
0.0
 13
1.0
 23
0.0
 33
0.0
 40
0.0
 40
0.0
 40
0.0
 40
0.0
 40
0.2
 40
0.2
 40
0.2
 40
0.2
 40
0.4
 40
0.4
 40
0.4
 40
0.4
 40
0.6
 40
0.6
 40
0.6
 40
0.6
 40
1.0
 40
1.0
 40
1.0
 40
1.0
 10
-105.8998
 20
-61.489
 30
0.0
 10
-104.1729
 20
-58.3609
 30
0.0
 10
-102.3496
 20
-57.5849
 30
0.0
 10
-100.4831
 20
-59.0042
 30
0.0
 10
-100.4831
 20
-59.0042
 30
0.0
 10
-98.7979
 20
-60.2857
 30
0.0
 10
-99.265
 20
-62.963
 30
0.0
 10
-101.6214
 20
-64.7074
 30
0.0
 10
-101.6214
 20
-64.7074
 30
0.0
 10
-103.62
 20
-66.0125
 30
0.0
 10
-106.0725
 20
-66.812
 30
0.0
 10
-108.179
 20
-67.5956
 30
0.0
 10
-108.179
 20
-67.5956
 30
0.0
 10
-107.5906
 20
-65.631
 30
0.0
 10
-106.9585
 20
-63.4415
 30
0.0
 10
-105.8998
 20
-61.489
 30
0.0
  0
SPLINE
  5
6F
330
1F
100
AcDbEntity
  8
layer 1
 62
     7
100
AcDbSpline
210
0.0
220
0.0
230
1.0
 70
    11
 71
     3
 72
    20
 73
    16
 74
     0
 42
0.0000000001
 43
0.0000000001
 12
1.0
 22
0.0
 32
0.0
 13
1.0
 23
0.0
 33
0.0
 40
0.0
 40
0.0
 40
0.0
 40
0.0
 40
0.2
 40
0.2
 40
0.2
 40
0.2
 40
0.4
 40
0.4
 40
0.4
 40
0.4
 40
0.6
 40
0.6
 40
0.6
 40
0.6
 40
1.0
 40
1.0
 40
1.0
 40
1.0
 10
-115.2675
 20
-77.9683
 30
0.0
 10
-116.9943
 20
-81.0965
 30
0.0
 10
-118.8177
 20
-81.8724
 30
0.0
 10
-120.6842
 20
-80.4531
 30
0.0
 10
-120.6842
 20
-80.4531
 30
0.0
 10
-122.3694
 20
-79.1716
 30
0.0
 10
-121.9023
 20
-76.4943
 30
0.0
 10
-119.5459
 20
-74.7499
 30
0.0
 10
-119.5459
 20
-74.7499
 30
0.0
 10
-117.5473
 20
-73.4448
 30
0.0
 10
-115.0948
 20
-72.6453
 30
0.0
 10
-112.9882
 20
-71.8617
 30
0.0
 10
-112.9882
 20
-71.8617
 30
0.0
 10
-113.5766
 20
-73.8264
 30
0.0
 10
-114.2088
 20
-76.0158
 30
0.0
 10
-115.2675
 20
-77.9683
 30
0.0
  0
SPLINE
  5
70
330
1F
100
AcDbEntity
  8
layer 1
 62
     7
100
AcDbSpline
210
0.0
220
0.0
230
1.0
 70
    11
 71
     3
 72
    20
 73
    16
 74
     0
 42
0.0000000001
 43
0.0000000001
 12
1.0
 22
0.0
 32
0.0
 13
1.0
 23
0.0
 33
0.0
 40
0.0
 40
0.0
 40
0.0
 40
0.0
 40
0.2
 40
0.2
 40
0.2
 40
0.2
 40
0.4
 40
0.4
 40
0.4
 40
0.4
 40
0.6
 40
0.6
 40
0.6
 40
0.6
 40
1.0
 40
1.0
 40
1.0
 40
1.0
 10
-105.8998
 20
-77.9683
 30
0.0
 10
-104.1729
 20
-81.0965
 30
0.0
 10
-102.3496
 20
-81.8724
 30
0.0
 10
-100.4831
 20
-80.4531
 30
0.0
 10
-100.4831
 20
-80.4531
 30
0.0
 10
-98.7979
 20
-79.1716
 30
0.0
 10
-99.265
 20
-76.4943
 30
0.0
 10
-101.6214
 20
-74.7499
 30
0.0
 10
-101.6214
 20
-74.7499
 30
0.0
 10
-103.62
 20
-73.4448
 30
0.0
 10
-106.0725
 20
-72.6453
 30
0.0
 10
-108.179
 20
-71.8617
 30
0.0
 10
-108.179
 20
-71.8617
 30
0.0
 10
-107.5906
 20
-73.8264
 30
0.0
 10
-106.9585
 20
-76.0158
 30
0.0
 10
-105.8998
 20
-77.9683
 30
0.0
  0
SPLINE
  5
71
330
1F
100
AcDbEntity
  8
layer 1
 62
     7
100
AcDbSpline
210
0.0
220
0.0
230
1.0
 70
    11
 71
     3
 72
    20
 73
    16
 74
     0
 42
0.0000000001
 43
0.0000000001
 12
1.0
 22
0.0
 32
0.0
 13
1.0
 23
0.0
 33
0.0
 40
0.0
 40
0.0
 40
0.0
 40
0.0
 40
0.2
 40
0.2
 40
0.2
 40
0.2
 40
0.4
 40
0.4
 40
0.4
 40
0.4
 40
0.6
 40
0.6
 40
0.6
 40
0.6
 40
1.0
 40
1.0
 40
1.0
 40
1.0
 10
-86.3109
 20
-61.489
 30
0.0
 10
-88.0377
 20
-58.3609
 30
0.0
 10
-89.861
 20
-57.5849
 30
0.0
 10
-91.7276
 20
-59.0042
 30
0.0
 10
-91.7276
 20
-59.0042
 30
0.0
 10
-93.4128
 20
-60.2857
 30
0.0
 10
-92.9457
 20
-62.963
 30
0.0
 10
-90.5893
 20
-64.7074
 30
0.0
 10
-90.5893
 20
-64.7074
 30
0.0
 10
-88.5907
 20
-66.0125
 30
0.0
 10
-86.1382
 20
-66.812
 30
0.0
 10
-84.0316
 20
-67.5956
 30
0.0
 10
-84.0316
 20
-67.5956
 30
0.0
 10
-84.62
 20
-65.631
 30
0.0
 10
-85.2522
 20
-63.4415
 30
0.0
 10
-86.3109
 20
-61.489
 30
0.0
  0
SPLINE
  5
72
330
1F
100
AcDbEntity
  8
layer 1
 62
     7
100
AcDbSpline
210
0.0
220
0.0
230
1.0
 70
    11
 71
     3
 72
    20
 73
    16
 74
     0
 42
0.0000000001
 43
0.0000000001
 12
1.0
 22
0.0
 32
0.0
 13
1.0
 23
0.0
 33
0.0
 40
0.0
 40
0.0
 40
0.0
 40
0.0
 40
0.2
 40
0.2
 40
0.2
 40
0.2
 40
0.4
 40
0.4
 40
0.4
 40
0.4
 40
0.6
 40
0.6
 40
0.6
 40
0.6
 40
1.0
 40
1.0
 40
1.0
 40
1.0
 10
-76.9432
 20
-61.489
 30
0.0
 10
-75.2163
 20
-58.3609
 30
0.0
 10
-73.393
 20
-57.5849
 30
0.0
 10
-71.5265
 20
-59.0042
 30
0.0
 10
-71.5265
 20
-59.0042
 30
0.0
 10
-69.8413
 20
-60.2857
 30
0.0
 10
-70.3084
 20
-62.963
 30
0.0
 10
-72.6648
 20
-64.7074
 30
0.0
 10
-72.6648
 20
-64.7074
 30
0.0
 10
-74.6634
 20
-66.0125
 30
0.0
 10
-77.1158
 20
-66.812
 30
0.0
 10
-79.2224
 20
-67.5956
 30
0.0
 10
-79.2224
 20
-67.5956
 30
0.0
 10
-78.634
 20
-65.631
 30
0.0
 10
-78.0019
 20
-63.4415
 30
0.0
 10
-76.9432
 20
-61.489
 30
0.0
  0
SPLINE
  5
73
330
1F
100
AcDbEntity
  8
layer 1
 62
     7
100
AcDbSpline
210
0.0
220
0.0
230
1.0
 70
    11
 71
     3
 72
    20
 73
    16
 74
     0
 42
0.0000000001
 43
0.0000000001
 12
1.0
 22
0.0
 32
0.0
 13
1.0
 23
0.0
 33
0.0
 40
0.0
 40
0.0
 40
0.0
 40
0.0
 40
0.2
 40
0.2
 40
0.2
 40
0.2
 40
0.4
 40
0.4
 40
0.4
 40
0.4
 40
0.6
 40
0.6
 40
0.6
 40
0.6
 40
1.0
 40
1.0
 40
1.0
 40
1.0
 10
-86.3109
 20
-77.9683
 30
0.0
 10
-88.0377
 20
-81.0965
 30
0.0
 10
-89.861
 20
-81.8724
 30
0.0
 10
-91.7276
 20
-80.4531
 30
0.0
 10
-91.7276
 20
-80.4531
 30
0.0
 10
-93.4128
 20
-79.1716
 30
0.0
 10
-92.9457
 20
-76.4943
 30
0.0
 10
-90.5893
 20
-74.7499
 30
0.0
 10
-90.5893
 20
-74.7499
 30
0.0
 10
-88.5907
 20
-73.4448
 30
0.0
 10
-86.1382
 20
-72.6453
 30
0.0
 10
-84.0316
 20
-71.8617
 30
0.0
 10
-84.0316
 20
-71.8617
 30
0.0
 10
-84.62
 20
-73.8264
 30
0.0
 10
-85.2522
 20
-76.0158
 30
0.0
 10
-86.3109
 20
-77.9683
 30
0.0
  0
SPLINE
  5
74
330
1F
100
AcDbEntity
  8
layer 1
 62
     7
100
AcDbSpline
210
0.0
220
0.0
230
1.0
 70
    11
 71
     3
 72
    20
 73
    16
 74
     0
 42
0.0000000001
 43
0.0000000001
 12
1.0
 22
0.0
 32
0.0
 13
1.0
 23
0.0
 33
0.0
 40
0.0
 40
0.0
 40
0.0
 40
0.0
 40
0.2
 40
0.2
 40
0.2
 40
0.2
 40
0.4
 40
0.4
 40
0.4
 40
0.4
 40
0.6
 40
0.6
 40
0.6
 40
0.6
 40
1.0
 40
1.0
 40
1.0
 40
1.0
 10
-76.9432
 20
-77.9683
 30
0.0
 10
-75.2163
 20
-81.0965
 30
0.0
 10
-73.393
 20
-81.8724
 30
0.0
 10
-71.5265
 20
-80.4531
 30
0.0
 10
-71.5265
 20
-80.4531
 30
0.0
 10
-69.8413
 20
-79.1716
 30
0.0
 10
-70.3084
 20
-76.4943
 30
0.0
 10
-72.6648
 20
-74.7499
 30
0.0
 10
-72.6648
 20
-74.7499
 30
0.0
 10
-74.6634
 20
-73.4448
 30
0.0
 10
-77.1158
 20
-72.6453
 30
0.0
 10
-79.2224
 20
-71.8617
 30
0.0
 10
-79.2224
 20
-71.8617
 30
0.0
 10
-78.634
 20
-73.8264
 30
0.0
 10
-78.0019
 20
-76.0158
 30
0.0
 10
-76.9432
 20
-77.9683
 30
0.0
  0
SPLINE
  5
75
330
1F
100
AcDbEntity
  8
layer 1
 62
     7
100
AcDbSpline
210
0.0
220
0.0
230
1.0
 70
    11
 71
     3
 72
    20
 73
    16
 74
     0
 42
0.0000000001
 43
0.0000000001
 12
1.0
 22
0.0
 32
0.0
 13
1.0
 23
0.0
 33
0.0
 40
0.0
 40
0.0
 40
0.0
 40
0.0
 40
0.2
 40
0.2
 40
0.2
 40
0.2
 40
0.4
 40
0.4
 40
0.4
 40
0.4
 40
0.6
 40
0.6
 40
0.6
 40
0.6
 40
1.0
 40
1.0
 40
1.0
 40
1.0
 10
-150.4321
 20
-69.7513
 30
0.0
 10
-150.4321
 20
-71.9663
 30
0.0
 10
-152.2277
 20
-73.7619
 30
0.0
 10
-154.4426
 20
-73.7619
 30
0.0
 10
-154.4426
 20
-73.7619
 30
0.0
 10
-156.6576
 20
-73.7619
 30
0.0
 10
-158.4532
 20
-71.9663
 30
0.0
 10
-158.4532
 20
-69.7513
 30
0.0
 10
-158.4532
 20
-69.7513
 30
0.0
 10
-158.4532
 20
-67.5364
 30
0.0
 10
-156.6576
 20
-65.7408
 30
0.0
 10
-154.4426
 20
-65.7408
 30
0.0
 10
-154.4426
 20
-65.7408
 30
0.0
 10
-152.2277
 20
-65.7408
 30
0.0
 10
-150.4321
 20
-67.5364
 30
0.0
 10
-150.4321
 20
-69.7513
 30
0.0
  0
SPLINE
  5
76
330
1F
100
AcDbEntity
  8
layer 1
 62
     7
100
AcDbSpline
210
0.0
220
0.0
230
1.0
 70
    11
 71
     3
 72
    20
 73
    16
 74
     0
 42
0.0000000001
 43
0.0000000001
 12
1.0
 22
0.0
 32
0.0
 13
1.0
 23
0.0
 33
0.0
 40
0.0
 40
0.0
 40
0.0
 40
0.0
 40
0.2
 40
0.2
 40
0.2
 40
0.2
 40
0.4
 40
0.4
 40
0.4
 40
0.4
 40
0.6
 40
0.6
 40
0.6
 40
0.6
 40
1.0
 40
1.0
 40
1.0
 40
1.0
 10
-121.2698
 20
-69.7513
 30
0.0
 10
-121.2698
 20
-71.9663
 30
0.0
 10
-123.0655
 20
-73.7619
 30
0.0
 10
-125.2804
 20
-73.7619
 30
0.0
 10
-125.2804
 20
-73.7619
 30
0.0
 10
-127.4953
 20
-73.7619
 30
0.0
 10
-129.291
 20
-71.9663
 30
0.0
 10
-129.291
 20
-69.7513
 30
0.0
 10
-129.291
 20
-69.7513
 30
0.0
 10
-129.291
 20
-67.5364
 30
0.0
 10
-127.4953
 20
-65.7408
 30
0.0
 10
-125.2804
 20
-65.7408
 30
0.0
 10
-125.2804
 20
-65.7408
 30
0.0
 10
-123.0655
 20
-65.7408
 30
0.0
 10
-121.2698
 20
-67.5364
 30
0.0
 10
-121.2698
 20
-69.7513
 30
0.0
  0
SPLINE
  5
77
330
1F
100
AcDbEntity
  8
layer 1
 62
     7
100
AcDbSpline
210
0.0
220
0.0
230
1.0
 70
    11
 71
     3
 72
    20
 73
    16
 74
     0
 42
0.0000000001
 43
0.0000000001
 12
1.0
 22
0.0
 32
0.0
 13
1.0
 23
0.0
 33
0.0
 40
0.0
 40
0.0
 40
0.0
 40
0.0
 40
0.2
 40
0.2
 40
0.2
 40
0.2
 40
0.4
 40
0.4
 40
0.4
 40
0.4
 40
0.6
 40
0.6
 40
0.6
 40
0.6
 40
1.0
 40
1.0
 40
1.0
 40
1.0
 10
-91.8862
 20
-69.7513
 30
0.0
 10
-91.8862
 20
-71.9663
 30
0.0
 10
-93.6818
 20
-73.7619
 30
0.0
 10
-95.8967
 20
-73.7619
 30
0.0
 10
-95.8967
 20
-73.7619
 30
0.0
 10
-98.1117
 20
-73.7619
 30
0.0
 10
-99.9073
 20
-71.9663
 30
0.0
 10
-99.9073
 20
-69.7513
 30
0.0
 10
-99.9073
 20
-69.7513
 30
0.0
 10
-99.9073
 20
-67.5364
 30
0.0
 10
-98.1117
 20
-65.7408
 30
0.0
 10
-95.8967
 20
-65.7408
 30
0.0
 10
-95.8967
 20
-65.7408
 30
0.0
 10
-93.6818
 20
-65.7408
 30
0.0
 10
-91.8862
 20
-67.5364
 30
0.0
 10
-91.8862
 20
-69.7513
 30
0.0
  0
SPLINE
  5
78
330
1F
100
AcDbEntity
  8
layer 1
 62
     7
100
AcDbSpline
210
0.0
220
0.0
230
1.0
 70
    11
 71
     3
 72
    20
 73
    16
 74
     0
 42
0.0000000001
 43
0.0000000001
 12
1.0
 22
0.0
 32
0.0
 13
1.0
 23
0.0
 33
0.0
 40
0.0
 40
0.0
 40
0.0
 40
0.0
 40
0.2
 40
0.2
 40
0.2
 40
0.2
 40
0.4
 40
0.4
 40
0.4
 40
0.4
 40
0.6
 40
0.6
 40
0.6
 40
0.6
 40
1.0
 40
1.0
 40
1.0
 40
1.0
 10
-174.0014
 20
-30.3049
 30
0.0
 10
-175.7282
 20
-27.1768
 30
0.0
 10
-177.5515
 20
-26.4008
 30
0.0
 10
-179.4181
 20
-27.8202
 30
0.0
 10
-179.4181
 20
-27.8202
 30
0.0
 10
-181.1033
 20
-29.1016
 30
0.0
 10
-180.6361
 20
-31.7789
 30
0.0
 10
-178.2798
 20
-33.5233
 30
0.0
 10
-178.2798
 20
-33.5233
 30
0.0
 10
-176.2811
 20
-34.8285
 30
0.0
 10
-173.8287
 20
-35.6279
 30
0.0
 10
-171.7221
 20
-36.4115
 30
0.0
 10
-171.7221
 20
-36.4115
 30
0.0
 10
-172.3105
 20
-34.4469
 30
0.0
 10
-172.9427
 20
-32.2574
 30
0.0
 10
-174.0014
 20
-30.3049
 30
0.0
  0
SPLINE
  5
79
330
1F
100
AcDbEntity
  8
layer 1
 62
     7
100
AcDbSpline
210
0.0
220
0.0
230
1.0
 70
    11
 71
     3
 72
    20
 73
    16
 74
     0
 42
0.0000000001
 43
0.0000000001
 12
1.0
 22
0.0
 32
0.0
 13
1.0
 23
0.0
 33
0.0
 40
0.0
 40
0.0
 40
0.0
 40
0.0
 40
0.2
 40
0.2
 40
0.2
 40
0.2
 40
0.4
 40
0.4
 40
0.4
 40
0.4
 40
0.6
 40
0.6
 40
0.6
 40
0.6
 40
1.0
 40
1.0
 40
1.0
 40
1.0
 10
-164.6336
 20
-30.3049
 30
0.0
 10
-162.9068
 20
-27.1768
 30
0.0
 10
-161.0835
 20
-26.4008
 30
0.0
 10
-159.2169
 20
-27.8202
 30
0.0
 10
-159.2169
 20
-27.8202
 30
0.0
 10
-157.5317
 20
-29.1016
 30
0.0
 10
-157.9989
 20
-31.7789
 30
0.0
 10
-160.3552
 20
-33.5233
 30
0.0
 10
-160.3552
 20
-33.5233
 30
0.0
 10
-162.3539
 20
-34.8285
 30
0.0
 10
-164.8063
 20
-35.6279
 30
0.0
 10
-166.9129
 20
-36.4115
 30
0.0
 10
-166.9129
 20
-36.4115
 30
0.0
 10
-166.3245
 20
-34.4469
 30
0.0
 10
-165.6923
 20
-32.2574
 30
0.0
 10
-164.6336
 20
-30.3049
 30
0.0
  0
SPLINE
  5
7A
330
1F
100
AcDbEntity
  8
layer 1
 62
     7
100
AcDbSpline
210
0.0
220
0.0
230
1.0
 70
    11
 71
     3
 72
    20
 73
    16
 74
     0
 42
0.0000000001
 43
0.0000000001
 12
1.0
 22
0.0
 32
0.0
 13
1.0
 23
0.0
 33
0.0
 40
0.0
 40
0.0
 40
0.0
 40
0.0
 40
0.2
 40
0.2
 40
0.2
 40
0.2
 40
0.4
 40
0.4
 40
0.4
 40
0.4
 40
0.6
 40
0.6
 40
0.6
 40
0.6
 40
1.0
 40
1.0
 40
1.0
 40
1.0
 10
-174.0014
 20
-46.7843
 30
0.0
 10
-175.7282
 20
-49.9124
 30
0.0
 10
-177.5515
 20
-50.6884
 30
0.0
 10
-179.4181
 20
-49.269
 30
0.0
 10
-179.4181
 20
-49.269
 30
0.0
 10
-181.1033
 20
-47.9876
 30
0.0
 10
-180.6361
 20
-45.3103
 30
0.0
 10
-178.2798
 20
-43.5659
 30
0.0
 10
-178.2798
 20
-43.5659
 30
0.0
 10
-176.2811
 20
-42.2607
 30
0.0
 10
-173.8287
 20
-41.4613
 30
0.0
 10
-171.7221
 20
-40.6777
 30
0.0
 10
-171.7221
 20
-40.6777
 30
0.0
 10
-172.3105
 20
-42.6423
 30
0.0
 10
-172.9427
 20
-44.8318
 30
0.0
 10
-174.0014
 20
-46.7843
 30
0.0
  0
SPLINE
  5
7B
330
1F
100
AcDbEntity
  8
layer 1
 62
     7
100
AcDbSpline
210
0.0
220
0.0
230
1.0
 70
    11
 71
     3
 72
    20
 73
    16
 74
     0
 42
0.0000000001
 43
0.0000000001
 12
1.0
 22
0.0
 32
0.0
 13
1.0
 23
0.0
 33
0.0
 40
0.0
 40
0.0
 40
0.0
 40
0.0
 40
0.2
 40
0.2
 40
0.2
 40
0.2
 40
0.4
 40
0.4
 40
0.4
 40
0.4
 40
0.6
 40
0.6
 40
0.6
 40
0.6
 40
1.0
 40
1.0
 40
1.0
 40
1.0
 10
-164.6336
 20
-46.7843
 30
0.0
 10
-162.9068
 20
-49.9124
 30
0.0
 10
-161.0835
 20
-50.6884
 30
0.0
 10
-159.2169
 20
-49.269
 30
0.0
 10
-159.2169
 20
-49.269
 30
0.0
 10
-157.5317
 20
-47.9876
 30
0.0
 10
-157.9989
 20
-45.3103
 30
0.0
 10
-160.3552
 20
-43.5659
 30
0.0
 10
-160.3552
 20
-43.5659
 30
0.0
 10
-162.3539
 20
-42.2607
 30
0.0
 10
-164.8063
 20
-41.4613
 30
0.0
 10
-166.9129
 20
-40.6777
 30
0.0
 10
-166.9129
 20
-40.6777
 30
0.0
 10
-166.3245
 20
-42.6423
 30
0.0
 10
-165.6923
 20
-44.8318
 30
0.0
 10
-164.6336
 20
-46.7843
 30
0.0
  0
SPLINE
  5
7C
330
1F
100
AcDbEntity
  8
layer 1
 62
     7
100
AcDbSpline
210
0.0
220
0.0
230
1.0
 70
    11
 71
     3
 72
    20
 73
    16
 74
     0
 42
0.0000000001
 43
0.0000000001
 12
1.0
 22
0.0
 32
0.0
 13
1.0
 23
0.0
 33
0.0
 40
0.0
 40
0.0
 40
0.0
 40
0.0
 40
0.2
 40
0.2
 40
0.2
 40
0.2
 40
0.4
 40
0.4
 40
0.4
 40
0.4
 40
0.6
 40
0.6
 40
0.6
 40
0.6
 40
1.0
 40
1.0
 40
1.0
 40
1.0
 10
-144.8103
 20
-30.3049
 30
0.0
 10
-146.5371
 20
-27.1768
 30
0.0
 10
-148.3604
 20
-26.4008
 30
0.0
 10
-150.227
 20
-27.8202
 30
0.0
 10
-150.227
 20
-27.8202
 30
0.0
 10
-151.9122
 20
-29.1016
 30
0.0
 10
-151.445
 20
-31.7789
 30
0.0
 10
-149.0887
 20
-33.5233
 30
0.0
 10
-149.0887
 20
-33.5233
 30
0.0
 10
-147.09
 20
-34.8285
 30
0.0
 10
-144.6376
 20
-35.6279
 30
0.0
 10
-142.531
 20
-36.4115
 30
0.0
 10
-142.531
 20
-36.4115
 30
0.0
 10
-143.1194
 20
-34.4469
 30
0.0
 10
-143.7516
 20
-32.2574
 30
0.0
 10
-144.8103
 20
-30.3049
 30
0.0
  0
SPLINE
  5
7D
330
1F
100
AcDbEntity
  8
layer 1
 62
     7
100
AcDbSpline
210
0.0
220
0.0
230
1.0
 70
    11
 71
     3
 72
    20
 73
    16
 74
     0
 42
0.0000000001
 43
0.0000000001
 12
1.0
 22
0.0
 32
0.0
 13
1.0
 23
0.0
 33
0.0
 40
0.0
 40
0.0
 40
0.0
 40
0.0
 40
0.2
 40
0.2
 40
0.2
 40
0.2
 40
0.4
 40
0.4
 40
0.4
 40
0.4
 40
0.6
 40
0.6
 40
0.6
 40
0.6
 40
1.0
 40
1.0
 40
1.0
 40
1.0
 10
-135.4425
 20
-30.3049
 30
0.0
 10
-133.7157
 20
-27.1768
 30
0.0
 10
-131.8924
 20
-26.4008
 30
0.0
 10
-130.0258
 20
-27.8202
 30
0.0
 10
-130.0258
 20
-27.8202
 30
0.0
 10
-128.3406
 20
-29.1016
 30
0.0
 10
-128.8078
 20
-31.7789
 30
0.0
 10
-131.1641
 20
-33.5233
 30
0.0
 10
-131.1641
 20
-33.5233
 30
0.0
 10
-133.1628
 20
-34.8285
 30
0.0
 10
-135.6152
 20
-35.6279
 30
0.0
 10
-137.7218
 20
-36.4115
 30
0.0
 10
-137.7218
 20
-36.4115
 30
0.0
 10
-137.1334
 20
-34.4469
 30
0.0
 10
-136.5012
 20
-32.2574
 30
0.0
 10
-135.4425
 20
-30.3049
 30
0.0
  0
SPLINE
  5
7E
330
1F
100
AcDbEntity
  8
layer 1
 62
     7
100
AcDbSpline
210
0.0
220
0.0
230
1.0
 70
    11
 71
     3
 72
    20
 73
    16
 74
     0
 42
0.0000000001
 43
0.0000000001
 12
1.0
 22
0.0
 32
0.0
 13
1.0
 23
0.0
 33
0.0
 40
0.0
 40
0.0
 40
0.0
 40
0.0
 40
0.2
 40
0.2
 40
0.2
 40
0.2
 40
0.4
 40
0.4
 40
0.4
 40
0.4
 40
0.6
 40
0.6
 40
0.6
 40
0.6
 40
1.0
 40
1.0
 40
1.0
 40
1.0
 10
-144.8103
 20
-46.7843
 30
0.0
 10
-146.5371
 20
-49.9124
 30
0.0
 10
-148.3604
 20
-50.6884
 30
0.0
 10
-150.227
 20
-49.269
 30
0.0
 10
-150.227
 20
-49.269
 30
0.0
 10
-151.9122
 20
-47.9876
 30
0.0
 10
-151.445
 20
-45.3103
 30
0.0
 10
-149.0887
 20
-43.5659
 30
0.0
 10
-149.0887
 20
-43.5659
 30
0.0
 10
-147.09
 20
-42.2607
 30
0.0
 10
-144.6376
 20
-41.4613
 30
0.0
 10
-142.531
 20
-40.6777
 30
0.0
 10
-142.531
 20
-40.6777
 30
0.0
 10
-143.1194
 20
-42.6423
 30
0.0
 10
-143.7516
 20
-44.8318
 30
0.0
 10
-144.8103
 20
-46.7843
 30
0.0
  0
SPLINE
  5
7F
330
1F
100
AcDbEntity
  8
layer 1
 62
     7
100
AcDbSpline
210
0.0
220
0.0
230
1.0
 70
    11
 71
     3
 72
    20
 73
    16
 74
     0
 42
0.0000000001
 43
0.0000000001
 12
1.0
 22
0.0
 32
0.0
 13
1.0
 23
0.0
 33
0.0
 40
0.0
 40
0.0
 40
0.0
 40
0.0
 40
0.2
 40
0.2
 40
0.2
 40
0.2
 40
0.4
 40
0.4
 40
0.4
 40
0.4
 40
0.6
 40
0.6
 40
0.6
 40
0.6
 40
1.0
 40
1.0
 40
1.0
 40
1.0
 10
-135.4425
 20
-46.7843
 30
0.0
 10
-133.7157
 20
-49.9124
 30
0.0
 10
-131.8924
 20
-50.6884
 30
0.0
 10
-130.0258
 20
-49.269
 30
0.0
 10
-130.0258
 20
-49.269
 30
0.0
 10
-128.3406
 20
-47.9876
 30
0.0
 10
-128.8078
 20
-45.3103
 30
0.0
 10
-131.1641
 20
-43.5659
 30
0.0
 10
-131.1641
 20
-43.5659
 30
0.0
 10
-133.1628
 20
-42.2607
 30
0.0
 10
-135.6152
 20
-41.4613
 30
0.0
 10
-137.7218
 20
-40.6777
 30
0.0
 10
-137.7218
 20
-40.6777
 30
0.0
 10
-137.1334
 20
-42.6423
 30
0.0
 10
-136.5012
 20
-44.8318
 30
0.0
 10
-135.4425
 20
-46.7843
 30
0.0
  0
SPLINE
  5
80
330
1F
100
AcDbEntity
  8
layer 1
 62
     7
100
AcDbSpline
210
0.0
220
0.0
230
1.0
 70
    11
 71
     3
 72
    20
 73
    16
 74
     0
 42
0.0000000001
 43
0.0000000001
 12
1.0
 22
0.0
 32
0.0
 13
1.0
 23
0.0
 33
0.0
 40
0.0
 40
0.0
 40
0.0
 40
0.0
 40
0.2
 40
0.2
 40
0.2
 40
0.2
 40
0.4
 40
0.4
 40
0.4
 40
0.4
 40
0.6
 40
0.6
 40
0.6
 40
0.6
 40
1.0
 40
1.0
 40
1.0
 40
1.0
 10
-115.2675
 20
-30.3049
 30
0.0
 10
-116.9943
 20
-27.1768
 30
0.0
 10
-118.8177
 20
-26.4008
 30
0.0
 10
-120.6842
 20
-27.8202
 30
0.0
 10
-120.6842
 20
-27.8202
 30
0.0
 10
-122.3694
 20
-29.1016
 30
0.0
 10
-121.9023
 20
-31.7789
 30
0.0
 10
-119.5459
 20
-33.5233
 30
0.0
 10
-119.5459
 20
-33.5233
 30
0.0
 10
-117.5473
 20
-34.8285
 30
0.0
 10
-115.0948
 20
-35.6279
 30
0.0
 10
-112.9882
 20
-36.4115
 30
0.0
 10
-112.9882
 20
-36.4115
 30
0.0
 10
-113.5766
 20
-34.4469
 30
0.0
 10
-114.2088
 20
-32.2574
 30
0.0
 10
-115.2675
 20
-30.3049
 30
0.0
  0
SPLINE
  5
81
330
1F
100
AcDbEntity
  8
layer 1
 62
     7
100
AcDbSpline
210
0.0
220
0.0
230
1.0
 70
    11
 71
     3
 72
    20
 73
    16
 74
     0
 42
0.0000000001
 43
0.0000000001
 12
1.0
 22
0.0
 32
0.0
 13
1.0
 23
0.0
 33
0.0
 40
0.0
 40
0.0
 40
0.0
 40
0.0
 40
0.2
 40
0.2
 40
0.2
 40
0.2
 40
0.4
 40
0.4
 40
0.4
 40
0.4
 40
0.6
 40
0.6
 40
0.6
 40
0.6
 40
1.0
 40
1.0
 40
1.0
 40
1.0
 10
-105.8998
 20
-30.3049
 30
0.0
 10
-104.1729
 20
-27.1768
 30
0.0
 10
-102.3496
 20
-26.4008
 30
0.0
 10
-100.4831
 20
-27.8202
 30
0.0
 10
-100.4831
 20
-27.8202
 30
0.0
 10
-98.7979
 20
-29.1016
 30
0.0
 10
-99.265
 20
-31.7789
 30
0.0
 10
-101.6214
 20
-33.5233
 30
0.0
 10
-101.6214
 20
-33.5233
 30
0.0
 10
-103.62
 20
-34.8285
 30
0.0
 10
-106.0725
 20
-35.6279
 30
0.0
 10
-108.179
 20
-36.4115
 30
0.0
 10
-108.179
 20
-36.4115
 30
0.0
 10
-107.5906
 20
-34.4469
 30
0.0
 10
-106.9585
 20
-32.2574
 30
0.0
 10
-105.8998
 20
-30.3049
 30
0.0
  0
SPLINE
  5
82
330
1F
100
AcDbEntity
  8
layer 1
 62
     7
100
AcDbSpline
210
0.0
220
0.0
230
1.0
 70
    11
 71
     3
 72
    20
 73
    16
 74
     0
 42
0.0000000001
 43
0.0000000001
 12
1.0
 22
0.0
 32
0.0
 13
1.0
 23
0.0
 33
0.0
 40
0.0
 40
0.0
 40
0.0
 40
0.0
 40
0.2
 40
0.2
 40
0.2
 40
0.2
 40
0.4
 40
0.4
 40
0.4
 40
0.4
 40
0.6
 40
0.6
 40
0.6
 40
0.6
 40
1.0
 40
1.0
 40
1.0
 40
1.0
 10
-115.2675
 20
-46.7843
 30
0.0
 10
-116.9943
 20
-49.9124
 30
0.0
 10
-118.8177
 20
-50.6884
 30
0.0
 10
-120.6842
 20
-49.269
 30
0.0
 10
-120.6842
 20
-49.269
 30
0.0
 10
-122.3694
 20
-47.9876
 30
0.0
 10
-121.9023
 20
-45.3103
 30
0.0
 10
-119.5459
 20
-43.5659
 30
0.0
 10
-119.5459
 20
-43.5659
 30
0.0
 10
-117.5473
 20
-42.2607
 30
0.0
 10
-115.0948
 20
-41.4613
 30
0.0
 10
-112.9882
 20
-40.6777
 30
0.0
 10
-112.9882
 20
-40.6777
 30
0.0
 10
-113.5766
 20
-42.6423
 30
0.0
 10
-114.2088
 20
-44.8318
 30
0.0
 10
-115.2675
 20
-46.7843
 30
0.0
  0
SPLINE
  5
83
330
1F
100
AcDbEntity
  8
layer 1
 62
     7
100
AcDbSpline
210
0.0
220
0.0
230
1.0
 70
    11
 71
     3
 72
    20
 73
    16
 74
     0
 42
0.0000000001
 43
0.0000000001
 12
1.0
 22
0.0
 32
0.0
 13
1.0
 23
0.0
 33
0.0
 40
0.0
 40
0.0
 40
0.0
 40
0.0
 40
0.2
 40
0.2
 40
0.2
 40
0.2
 40
0.4
 40
0.4
 40
0.4
 40
0.4
 40
0.6
 40
0.6
 40
0.6
 40
0.6
 40
1.0
 40
1.0
 40
1.0
 40
1.0
 10
-105.8998
 20
-46.7843
 30
0.0
 10
-104.1729
 20
-49.9124
 30
0.0
 10
-102.3496
 20
-50.6884
 30
0.0
 10
-100.4831
 20
-49.269
 30
0.0
 10
-100.4831
 20
-49.269
 30
0.0
 10
-98.7979
 20
-47.9876
 30
0.0
 10
-99.265
 20
-45.3103
 30
0.0
 10
-101.6214
 20
-43.5659
 30
0.0
 10
-101.6214
 20
-43.5659
 30
0.0
 10
-103.62
 20
-42.2607
 30
0.0
 10
-106.0725
 20
-41.4613
 30
0.0
 10
-108.179
 20
-40.6777
 30
0.0
 10
-108.179
 20
-40.6777
 30
0.0
 10
-107.5906
 20
-42.6423
 30
0.0
 10
-106.9585
 20
-44.8318
 30
0.0
 10
-105.8998
 20
-46.7843
 30
0.0
  0
SPLINE
  5
84
330
1F
100
AcDbEntity
  8
layer 1
 62
     7
100
AcDbSpline
210
0.0
220
0.0
230
1.0
 70
    11
 71
     3
 72
    20
 73
    16
 74
     0
 42
0.0000000001
 43
0.0000000001
 12
1.0
 22
0.0
 32
0.0
 13
1.0
 23
0.0
 33
0.0
 40
0.0
 40
0.0
 40
0.0
 40
0.0
 40
0.2
 40
0.2
 40
0.2
 40
0.2
 40
0.4
 40
0.4
 40
0.4
 40
0.4
 40
0.6
 40
0.6
 40
0.6
 40
0.6
 40
1.0
 40
1.0
 40
1.0
 40
1.0
 10
-86.3109
 20
-30.3049
 30
0.0
 10
-88.0377
 20
-27.1768
 30
0.0
 10
-89.861
 20
-26.4008
 30
0.0
 10
-91.7276
 20
-27.8202
 30
0.0
 10
-91.7276
 20
-27.8202
 30
0.0
 10
-93.4128
 20
-29.1016
 30
0.0
 10
-92.9457
 20
-31.7789
 30
0.0
 10
-90.5893
 20
-33.5233
 30
0.0
 10
-90.5893
 20
-33.5233
 30
0.0
 10
-88.5907
 20
-34.8285
 30
0.0
 10
-86.1382
 20
-35.6279
 30
0.0
 10
-84.0316
 20
-36.4115
 30
0.0
 10
-84.0316
 20
-36.4115
 30
0.0
 10
-84.62
 20
-34.4469
 30
0.0
 10
-85.2522
 20
-32.2574
 30
0.0
 10
-86.3109
 20
-30.3049
 30
0.0
  0
SPLINE
  5
85
330
1F
100
AcDbEntity
  8
layer 1
 62
     7
100
AcDbSpline
210
0.0
220
0.0
230
1.0
 70
    11
 71
     3
 72
    20
 73
    16
 74
     0
 42
0.0000000001
 43
0.0000000001
 12
1.0
 22
0.0
 32
0.0
 13
1.0
 23
0.0
 33
0.0
 40
0.0
 40
0.0
 40
0.0
 40
0.0
 40
0.2
 40
0.2
 40
0.2
 40
0.2
 40
0.4
 40
0.4
 40
0.4
 40
0.4
 40
0.6
 40
0.6
 40
0.6
 40
0.6
 40
1.0
 40
1.0
 40
1.0
 40
1.0
 10
-76.9432
 20
-30.3049
 30
0.0
 10
-75.2163
 20
-27.1768
 30
0.0
 10
-73.393
 20
-26.4008
 30
0.0
 10
-71.5265
 20
-27.8202
 30
0.0
 10
-71.5265
 20
-27.8202
 30
0.0
 10
-69.8413
 20
-29.1016
 30
0.0
 10
-70.3084
 20
-31.7789
 30
0.0
 10
-72.6648
 20
-33.5233
 30
0.0
 10
-72.6648
 20
-33.5233
 30
0.0
 10
-74.6634
 20
-34.8285
 30
0.0
 10
-77.1158
 20
-35.6279
 30
0.0
 10
-79.2224
 20
-36.4115
 30
0.0
 10
-79.2224
 20
-36.4115
 30
0.0
 10
-78.634
 20
-34.4469
 30
0.0
 10
-78.0019
 20
-32.2574
 30
0.0
 10
-76.9432
 20
-30.3049
 30
0.0
  0
SPLINE
  5
86
330
1F
100
AcDbEntity
  8
layer 1
 62
     7
100
AcDbSpline
210
0.0
220
0.0
230
1.0
 70
    11
 71
     3
 72
    20
 73
    16
 74
     0
 42
0.0000000001
 43
0.0000000001
 12
1.0
 22
0.0
 32
0.0
 13
1.0
 23
0.0
 33
0.0
 40
0.0
 40
0.0
 40
0.0
 40
0.0
 40
0.2
 40
0.2
 40
0.2
 40
0.2
 40
0.4
 40
0.4
 40
0.4
 40
0.4
 40
0.6
 40
0.6
 40
0.6
 40
0.6
 40
1.0
 40
1.0
 40
1.0
 40
1.0
 10
-86.3109
 20
-46.7843
 30
0.0
 10
-88.0377
 20
-49.9124
 30
0.0
 10
-89.861
 20
-50.6884
 30
0.0
 10
-91.7276
 20
-49.269
 30
0.0
 10
-91.7276
 20
-49.269
 30
0.0
 10
-93.4128
 20
-47.9876
 30
0.0
 10
-92.9457
 20
-45.3103
 30
0.0
 10
-90.5893
 20
-43.5659
 30
0.0
 10
-90.5893
 20
-43.5659
 30
0.0
 10
-88.5907
 20
-42.2607
 30
0.0
 10
-86.1382
 20
-41.4613
 30
0.0
 10
-84.0316
 20
-40.6777
 30
0.0
 10
-84.0316
 20
-40.6777
 30
0.0
 10
-84.62
 20
-42.6423
 30
0.0
 10
-85.2522
 20
-44.8318
 30
0.0
 10
-86.3109
 20
-46.7843
 30
0.0
  0
SPLINE
  5
87
330
1F
100
AcDbEntity
  8
layer 1
 62
     7
100
AcDbSpline
210
0.0
220
0.0
230
1.0
 70
    11
 71
     3
 72
    20
 73
    16
 74
     0
 42
0.0000000001
 43
0.0000000001
 12
1.0
 22
0.0
 32
0.0
 13
1.0
 23
0.0
 33
0.0
 40
0.0
 40
0.0
 40
0.0
 40
0.0
 40
0.2
 40
0.2
 40
0.2
 40
0.2
 40
0.4
 40
0.4
 40
0.4
 40
0.4
 40
0.6
 40
0.6
 40
0.6
 40
0.6
 40
1.0
 40
1.0
 40
1.0
 40
1.0
 10
-76.9432
 20
-46.7843
 30
0.0
 10
-75.2163
 20
-49.9124
 30
0.0
 10
-73.393
 20
-50.6884
 30
0.0
 10
-71.5265
 20
-49.269
 30
0.0
 10
-71.5265
 20
-49.269
 30
0.0
 10
-69.8413
 20
-47.9876
 30
0.0
 10
-70.3084
 20
-45.3103
 30
0.0
 10
-72.6648
 20
-43.5659
 30
0.0
 10
-72.6648
 20
-43.5659
 30
0.0
 10
-74.6634
 20
-42.2607
 30
0.0
 10
-77.1158
 20
-41.4613
 30
0.0
 10
-79.2224
 20
-40.6777
 30
0.0
 10
-79.2224
 20
-40.6777
 30
0.0
 10
-78.634
 20
-42.6423
 30
0.0
 10
-78.0019
 20
-44.8318
 30
0.0
 10
-76.9432
 20
-46.7843
 30
0.0
  0
SPLINE
  5
88
330
1F
100
AcDbEntity
  8
layer 1
 62
     7
100
AcDbSpline
210
0.0
220
0.0
230
1.0
 70
    11
 71
     3
 72
    20
 73
    16
 74
     0
 42
0.0000000001
 43
0.0000000001
 12
1.0
 22
0.0
 32
0.0
 13
1.0
 23
0.0
 33
0.0
 40
0.0
 40
0.0
 40
0.0
 40
0.0
 40
0.2
 40
0.2
 40
0.2
 40
0.2
 40
0.4
 40
0.4
 40
0.4
 40
0.4
 40
0.6
 40
0.6
 40
0.6
 40
0.6
 40
1.0
 40
1.0
 40
1.0
 40
1.0
 10
-150.4321
 20
-38.5673
 30
0.0
 10
-150.4321
 20
-40.7822
 30
0.0
 10
-152.2277
 20
-42.5778
 30
0.0
 10
-154.4426
 20
-42.5778
 30
0.0
 10
-154.4426
 20
-42.5778
 30
0.0
 10
-156.6576
 20
-42.5778
 30
0.0
 10
-158.4532
 20
-40.7822
 30
0.0
 10
-158.4532
 20
-38.5673
 30
0.0
 10
-158.4532
 20
-38.5673
 30
0.0
 10
-158.4532
 20
-36.3523
 30
0.0
 10
-156.6576
 20
-34.5567
 30
0.0
 10
-154.4426
 20
-34.5567
 30
0.0
 10
-154.4426
 20
-34.5567
 30
0.0
 10
-152.2277
 20
-34.5567
 30
0.0
 10
-150.4321
 20
-36.3523
 30
0.0
 10
-150.4321
 20
-38.5673
 30
0.0
  0
SPLINE
  5
89
330
1F
100
AcDbEntity
  8
layer 1
 62
     7
100
AcDbSpline
210
0.0
220
0.0
230
1.0
 70
    11
 71
     3
 72
    20
 73
    16
 74
     0
 42
0.0000000001
 43
0.0000000001
 12
1.0
 22
0.0
 32
0.0
 13
1.0
 23
0.0
 33
0.0
 40
0.0
 40
0.0
 40
0.0
 40
0.0
 40
0.2
 40
0.2
 40
0.2
 40
0.2
 40
0.4
 40
0.4
 40
0.4
 40
0.4
 40
0.6
 40
0.6
 40
0.6
 40
0.6
 40
1.0
 40
1.0
 40
1.0
 40
1.0
 10
-121.2698
 20
-38.5673
 30
0.0
 10
-121.2698
 20
-40.7822
 30
0.0
 10
-123.0655
 20
-42.5778
 30
0.0
 10
-125.2804
 20
-42.5778
 30
0.0
 10
-125.2804
 20
-42.5778
 30
0.0
 10
-127.4953
 20
-42.5778
 30
0.0
 10
-129.291
 20
-40.7822
 30
0.0
 10
-129.291
 20
-38.5673
 30
0.0
 10
-129.291
 20
-38.5673
 30
0.0
 10
-129.291
 20
-36.3523
 30
0.0
 10
-127.4953
 20
-34.5567
 30
0.0
 10
-125.2804
 20
-34.5567
 30
0.0
 10
-125.2804
 20
-34.5567
 30
0.0
 10
-123.0655
 20
-34.5567
 30
0.0
 10
-121.2698
 20
-36.3523
 30
0.0
 10
-121.2698
 20
-38.5673
 30
0.0
  0
SPLINE
  5
8A
330
1F
100
AcDbEntity
  8
layer 1
 62
     7
100
AcDbSpline
210
0.0
220
0.0
230
1.0
 70
    11
 71
     3
 72
    20
 73
    16
 74
     0
 42
0.0000000001
 43
0.0000000001
 12
1.0
 22
0.0
 32
0.0
 13
1.0
 23
0.0
 33
0.0
 40
0.0
 40
0.0
 40
0.0
 40
0.0
 40
0.2
 40
0.2
 40
0.2
 40
0.2
 40
0.4
 40
0.4
 40
0.4
 40
0.4
 40
0.6
 40
0.6
 40
0.6
 40
0.6
 40
1.0
 40
1.0
 40
1.0
 40
1.0
 10
-91.8862
 20
-38.5673
 30
0.0
 10
-91.8862
 20
-40.7822
 30
0.0
 10
-93.6818
 20
-42.5778
 30
0.0
 10
-95.8967
 20
-42.5778
 30
0.0
 10
-95.8967
 20
-42.5778
 30
0.0
 10
-98.1117
 20
-42.5778
 30
0.0
 10
-99.9073
 20
-40.7822
 30
0.0
 10
-99.9073
 20
-38.5673
 30
0.0
 10
-99.9073
 20
-38.5673
 30
0.0
 10
-99.9073
 20
-36.3523
 30
0.0
 10
-98.1117
 20
-34.5567
 30
0.0
 10
-95.8967
 20
-34.5567
 30
0.0
 10
-95.8967
 20
-34.5567
 30
0.0
 10
-93.6818
 20
-34.5567
 30
0.0
 10
-91.8862
 20
-36.3523
 30
0.0
 10
-91.8862
 20
-38.5673
 30
0.0
  0
SPLINE
  5
8B
330
1F
100
AcDbEntity
  8
layer 1
 62
     7
100
AcDbSpline
210
0.0
220
0.0
230
1.0
 70
    11
 71
     3
 72
    20
 73
    16
 74
     0
 42
0.0000000001
 43
0.0000000001
 12
1.0
 22
0.0
 32
0.0
 13
1.0
 23
0.0
 33
0.0
 40
0.0
 40
0.0
 40
0.0
 40
0.0
 40
0.2
 40
0.2
 40
0.2
 40
0.2
 40
0.4
 40
0.4
 40
0.4
 40
0.4
 40
0.6
 40
0.6
 40
0.6
 40
0.6
 40
1.0
 40
1.0
 40
1.0
 40
1.0
 10
-174.0014
 20
0.7618
 30
0.0
 10
-175.7282
 20
3.8899
 30
0.0
 10
-177.5515
 20
4.6659
 30
0.0
 10
-179.4181
 20
3.2466
 30
0.0
 10
-179.4181
 20
3.2466
 30
0.0
 10
-181.1033
 20
1.9651
 30
0.0
 10
-180.6361
 20
-0.7122
 30
0.0
 10
-178.2798
 20
-2.4566
 30
0.0
 10
-178.2798
 20
-2.4566
 30
0.0
 10
-176.2811
 20
-3.7617
 30
0.0
 10
-173.8287
 20
-4.5612
 30
0.0
 10
-171.7221
 20
-5.3448
 30
0.0
 10
-171.7221
 20
-5.3448
 30
0.0
 10
-172.3105
 20
-3.3802
 30
0.0
 10
-172.9427
 20
-1.1907
 30
0.0
 10
-174.0014
 20
0.7618
 30
0.0
  0
SPLINE
  5
8C
330
1F
100
AcDbEntity
  8
layer 1
 62
     7
100
AcDbSpline
210
0.0
220
0.0
230
1.0
 70
    11
 71
     3
 72
    20
 73
    16
 74
     0
 42
0.0000000001
 43
0.0000000001
 12
1.0
 22
0.0
 32
0.0
 13
1.0
 23
0.0
 33
0.0
 40
0.0
 40
0.0
 40
0.0
 40
0.0
 40
0.2
 40
0.2
 40
0.2
 40
0.2
 40
0.4
 40
0.4
 40
0.4
 40
0.4
 40
0.6
 40
0.6
 40
0.6
 40
0.6
 40
1.0
 40
1.0
 40
1.0
 40
1.0
 10
-164.6336
 20
0.7618
 30
0.0
 10
-162.9068
 20
3.8899
 30
0.0
 10
-161.0835
 20
4.6659
 30
0.0
 10
-159.2169
 20
3.2466
 30
0.0
 10
-159.2169
 20
3.2466
 30
0.0
 10
-157.5317
 20
1.9651
 30
0.0
 10
-157.9989
 20
-0.7122
 30
0.0
 10
-160.3552
 20
-2.4566
 30
0.0
 10
-160.3552
 20
-2.4566
 30
0.0
 10
-162.3539
 20
-3.7617
 30
0.0
 10
-164.8063
 20
-4.5612
 30
0.0
 10
-166.9129
 20
-5.3448
 30
0.0
 10
-166.9129
 20
-5.3448
 30
0.0
 10
-166.3245
 20
-3.3802
 30
0.0
 10
-165.6923
 20
-1.1907
 30
0.0
 10
-164.6336
 20
0.7618
 30
0.0
  0
SPLINE
  5
8D
330
1F
100
AcDbEntity
  8
layer 1
 62
     7
100
AcDbSpline
210
0.0
220
0.0
230
1.0
 70
    11
 71
     3
 72
    20
 73
    16
 74
     0
 42
0.0000000001
 43
0.0000000001
 12
1.0
 22
0.0
 32
0.0
 13
1.0
 23
0.0
 33
0.0
 40
0.0
 40
0.0
 40
0.0
 40
0.0
 40
0.2
 40
0.2
 40
0.2
 40
0.2
 40
0.4
 40
0.4
 40
0.4
 40
0.4
 40
0.6
 40
0.6
 40
0.6
 40
0.6
 40
1.0
 40
1.0
 40
1.0
 40
1.0
 10
-174.0014
 20
-15.7174
 30
0.0
 10
-175.7282
 20
-18.8455
 30
0.0
 10
-177.5515
 20
-19.6215
 30
0.0
 10
-179.4181
 20
-18.2021
 30
0.0
 10
-179.4181
 20
-18.2021
 30
0.0
 10
-181.1033
 20
-16.9207
 30
0.0
 10
-180.6361
 20
-14.2434
 30
0.0
 10
-178.2798
 20
-12.499
 30
0.0
 10
-178.2798
 20
-12.499
 30
0.0
 10
-176.2811
 20
-11.1938
 30
0.0
 10
-173.8287
 20
-10.3944
 30
0.0
 10
-171.7221
 20
-9.6108
 30
0.0
 10
-171.7221
 20
-9.6108
 30
0.0
 10
-172.3105
 20
-11.5754
 30
0.0
 10
-172.9427
 20
-13.7649
 30
0.0
 10
-174.0014
 20
-15.7174
 30
0.0
  0
SPLINE
  5
8E
330
1F
100
AcDbEntity
  8
layer 1
 62
     7
100
AcDbSpline
210
0.0
220
0.0
230
1.0
 70
    11
 71
     3
 72
    20
 73
    16
 74
     0
 42
0.0000000001
 43
0.0000000001
 12
1.0
 22
0.0
 32
0.0
 13
1.0
 23
0.0
 33
0.0
 40
0.0
 40
0.0
 40
0.0
 40
0.0
 40
0.2
 40
0.2
 40
0.2
 40
0.2
 40
0.4
 40
0.4
 40
0.4
 40
0.4
 40
0.6
 40
0.6
 40
0.6
 40
0.6
 40
1.0
 40
1.0
 40
1.0
 40
1.0
 10
-164.6336
 20
-15.7174
 30
0.0
 10
-162.9068
 20
-18.8455
 30
0.0
 10
-161.0835
 20
-19.6215
 30
0.0
 10
-159.2169
 20
-18.2021
 30
0.0
 10
-159.2169
 20
-18.2021
 30
0.0
 10
-157.5317
 20
-16.9207
 30
0.0
 10
-157.9989
 20
-14.2434
 30
0.0
 10
-160.3552
 20
-12.499
 30
0.0
 10
-160.3552
 20
-12.499
 30
0.0
 10
-162.3539
 20
-11.1938
 30
0.0
 10
-164.8063
 20
-10.3944
 30
0.0
 10
-166.9129
 20
-9.6108
 30
0.0
 10
-166.9129
 20
-9.6108
 30
0.0
 10
-166.3245
 20
-11.5754
 30
0.0
 10
-165.6923
 20
-13.7649
 30
0.0
 10
-164.6336
 20
-15.7174
 30
0.0
  0
SPLINE
  5
8F
330
1F
100
AcDbEntity
  8
layer 1
 62
     7
100
AcDbSpline
210
0.0
220
0.0
230
1.0
 70
    11
 71
     3
 72
    20
 73
    16
 74
     0
 42
0.0000000001
 43
0.0000000001
 12
1.0
 22
0.0
 32
0.0
 13
1.0
 23
0.0
 33
0.0
 40
0.0
 40
0.0
 40
0.0
 40
0.0
 40
0.2
 40
0.2
 40
0.2
 40
0.2
 40
0.4
 40
0.4
 40
0.4
 40
0.4
 40
0.6
 40
0.6
 40
0.6
 40
0.6
 40
1.0
 40
1.0
 40
1.0
 40
1.0
 10
-144.8103
 20
0.7618
 30
0.0
 10
-146.5371
 20
3.8899
 30
0.0
 10
-148.3604
 20
4.6659
 30
0.0
 10
-150.227
 20
3.2466
 30
0.0
 10
-150.227
 20
3.2466
 30
0.0
 10
-151.9122
 20
1.9651
 30
0.0
 10
-151.445
 20
-0.7122
 30
0.0
 10
-149.0887
 20
-2.4566
 30
0.0
 10
-149.0887
 20
-2.4566
 30
0.0
 10
-147.09
 20
-3.7617
 30
0.0
 10
-144.6376
 20
-4.5612
 30
0.0
 10
-142.531
 20
-5.3448
 30
0.0
 10
-142.531
 20
-5.3448
 30
0.0
 10
-143.1194
 20
-3.3802
 30
0.0
 10
-143.7516
 20
-1.1907
 30
0.0
 10
-144.8103
 20
0.7618
 30
0.0
  0
SPLINE
  5
90
330
1F
100
AcDbEntity
  8
layer 1
 62
     7
100
AcDbSpline
210
0.0
220
0.0
230
1.0
 70
    11
 71
     3
 72
    20
 73
    16
 74
     0
 42
0.0000000001
 43
0.0000000001
 12
1.0
 22
0.0
 32
0.0
 13
1.0
 23
0.0
 33
0.0
 40
0.0
 40
0.0
 40
0.0
 40
0.0
 40
0.2
 40
0.2
 40
0.2
 40
0.2
 40
0.4
 40
0.4
 40
0.4
 40
0.4
 40
0.6
 40
0.6
 40
0.6
 40
0.6
 40
1.0
 40
1.0
 40
1.0
 40
1.0
 10
-135.4425
 20
0.7618
 30
0.0
 10
-133.7157
 20
3.8899
 30
0.0
 10
-131.8924
 20
4.6659
 30
0.0
 10
-130.0258
 20
3.2466
 30
0.0
 10
-130.0258
 20
3.2466
 30
0.0
 10
-128.3406
 20
1.9651
 30
0.0
 10
-128.8078
 20
-0.7122
 30
0.0
 10
-131.1641
 20
-2.4566
 30
0.0
 10
-131.1641
 20
-2.4566
 30
0.0
 10
-133.1628
 20
-3.7617
 30
0.0
 10
-135.6152
 20
-4.5612
 30
0.0
 10
-137.7218
 20
-5.3448
 30
0.0
 10
-137.7218
 20
-5.3448
 30
0.0
 10
-137.1334
 20
-3.3802
 30
0.0
 10
-136.5012
 20
-1.1907
 30
0.0
 10
-135.4425
 20
0.7618
 30
0.0
  0
SPLINE
  5
91
330
1F
100
AcDbEntity
  8
layer 1
 62
     7
100
AcDbSpline
210
0.0
220
0.0
230
1.0
 70
    11
 71
     3
 72
    20
 73
    16
 74
     0
 42
0.0000000001
 43
0.0000000001
 12
1.0
 22
0.0
 32
0.0
 13
1.0
 23
0.0
 33
0.0
 40
0.0
 40
0.0
 40
0.0
 40
0.0
 40
0.2
 40
0.2
 40
0.2
 40
0.2
 40
0.4
 40
0.4
 40
0.4
 40
0.4
 40
0.6
 40
0.6
 40
0.6
 40
0.6
 40
1.0
 40
1.0
 40
1.0
 40
1.0
 10
-144.8103
 20
-15.7174
 30
0.0
 10
-146.5371
 20
-18.8455
 30
0.0
 10
-148.3604
 20
-19.6215
 30
0.0
 10
-150.227
 20
-18.2021
 30
0.0
 10
-150.227
 20
-18.2021
 30
0.0
 10
-151.9122
 20
-16.9207
 30
0.0
 10
-151.445
 20
-14.2434
 30
0.0
 10
-149.0887
 20
-12.499
 30
0.0
 10
-149.0887
 20
-12.499
 30
0.0
 10
-147.09
 20
-11.1938
 30
0.0
 10
-144.6376
 20
-10.3944
 30
0.0
 10
-142.531
 20
-9.6108
 30
0.0
 10
-142.531
 20
-9.6108
 30
0.0
 10
-143.1194
 20
-11.5754
 30
0.0
 10
-143.7516
 20
-13.7649
 30
0.0
 10
-144.8103
 20
-15.7174
 30
0.0
  0
SPLINE
  5
92
330
1F
100
AcDbEntity
  8
layer 1
 62
     7
100
AcDbSpline
210
0.0
220
0.0
230
1.0
 70
    11
 71
     3
 72
    20
 73
    16
 74
     0
 42
0.0000000001
 43
0.0000000001
 12
1.0
 22
0.0
 32
0.0
 13
1.0
 23
0.0
 33
0.0
 40
0.0
 40
0.0
 40
0.0
 40
0.0
 40
0.2
 40
0.2
 40
0.2
 40
0.2
 40
0.4
 40
0.4
 40
0.4
 40
0.4
 40
0.6
 40
0.6
 40
0.6
 40
0.6
 40
1.0
 40
1.0
 40
1.0
 40
1.0
 10
-135.4425
 20
-15.7174
 30
0.0
 10
-133.7157
 20
-18.8455
 30
0.0
 10
-131.8924
 20
-19.6215
 30
0.0
 10
-130.0258
 20
-18.2021
 30
0.0
 10
-130.0258
 20
-18.2021
 30
0.0
 10
-128.3406
 20
-16.9207
 30
0.0
 10
-128.8078
 20
-14.2434
 30
0.0
 10
-131.1641
 20
-12.499
 30
0.0
 10
-131.1641
 20
-12.499
 30
0.0
 10
-133.1628
 20
-11.1938
 30
0.0
 10
-135.6152
 20
-10.3944
 30
0.0
 10
-137.7218
 20
-9.6108
 30
0.0
 10
-137.7218
 20
-9.6108
 30
0.0
 10
-137.1334
 20
-11.5754
 30
0.0
 10
-136.5012
 20
-13.7649
 30
0.0
 10
-135.4425
 20
-15.7174
 30
0.0
  0
SPLINE
  5
93
330
1F
100
AcDbEntity
  8
layer 1
 62
     7
100
AcDbSpline
210
0.0
220
0.0
230
1.0
 70
    11
 71
     3
 72
    20
 73
    16
 74
     0
 42
0.0000000001
 43
0.0000000001
 12
1.0
 22
0.0
 32
0.0
 13
1.0
 23
0.0
 33
0.0
 40
0.0
 40
0.0
 40
0.0
 40
0.0
 40
0.2
 40
0.2
 40
0.2
 40
0.2
 40
0.4
 40
0.4
 40
0.4
 40
0.4
 40
0.6
 40
0.6
 40
0.6
 40
0.6
 40
1.0
 40
1.0
 40
1.0
 40
1.0
 10
-115.2675
 20
0.7618
 30
0.0
 10
-116.9943
 20
3.8899
 30
0.0
 10
-118.8177
 20
4.6659
 30
0.0
 10
-120.6842
 20
3.2466
 30
0.0
 10
-120.6842
 20
3.2466
 30
0.0
 10
-122.3694
 20
1.9651
 30
0.0
 10
-121.9023
 20
-0.7122
 30
0.0
 10
-119.5459
 20
-2.4566
 30
0.0
 10
-119.5459
 20
-2.4566
 30
0.0
 10
-117.5473
 20
-3.7617
 30
0.0
 10
-115.0948
 20
-4.5612
 30
0.0
 10
-112.9882
 20
-5.3448
 30
0.0
 10
-112.9882
 20
-5.3448
 30
0.0
 10
-113.5766
 20
-3.3802
 30
0.0
 10
-114.2088
 20
-1.1907
 30
0.0
 10
-115.2675
 20
0.7618
 30
0.0
  0
SPLINE
  5
94
330
1F
100
AcDbEntity
  8
layer 1
 62
     7
100
AcDbSpline
210
0.0
220
0.0
230
1.0
 70
    11
 71
     3
 72
    20
 73
    16
 74
     0
 42
0.0000000001
 43
0.0000000001
 12
1.0
 22
0.0
 32
0.0
 13
1.0
 23
0.0
 33
0.0
 40
0.0
 40
0.0
 40
0.0
 40
0.0
 40
0.2
 40
0.2
 40
0.2
 40
0.2
 40
0.4
 40
0.4
 40
0.4
 40
0.4
 40
0.6
 40
0.6
 40
0.6
 40
0.6
 40
1.0
 40
1.0
 40
1.0
 40
1.0
 10
-105.8998
 20
0.7618
 30
0.0
 10
-104.1729
 20
3.8899
 30
0.0
 10
-102.3496
 20
4.6659
 30
0.0
 10
-100.4831
 20
3.2466
 30
0.0
 10
-100.4831
 20
3.2466
 30
0.0
 10
-98.7979
 20
1.9651
 30
0.0
 10
-99.265
 20
-0.7122
 30
0.0
 10
-101.6214
 20
-2.4566
 30
0.0
 10
-101.6214
 20
-2.4566
 30
0.0
 10
-103.62
 20
-3.7617
 30
0.0
 10
-106.0725
 20
-4.5612
 30
0.0
 10
-108.179
 20
-5.3448
 30
0.0
 10
-108.179
 20
-5.3448
 30
0.0
 10
-107.5906
 20
-3.3802
 30
0.0
 10
-106.9585
 20
-1.1907
 30
0.0
 10
-105.8998
 20
0.7618
 30
0.0
  0
SPLINE
  5
95
330
1F
100
AcDbEntity
  8
layer 1
 62
     7
100
AcDbSpline
210
0.0
220
0.0
230
1.0
 70
    11
 71
     3
 72
    20
 73
    16
 74
     0
 42
0.0000000001
 43
0.0000000001
 12
1.0
 22
0.0
 32
0.0
 13
1.0
 23
0.0
 33
0.0
 40
0.0
 40
0.0
 40
0.0
 40
0.0
 40
0.2
 40
0.2
 40
0.2
 40
0.2
 40
0.4
 40
0.4
 40
0.4
 40
0.4
 40
0.6
 40
0.6
 40
0.6
 40
0.6
 40
1.0
 40
1.0
 40
1.0
 40
1.0
 10
-115.2675
 20
-15.7174
 30
0.0
 10
-116.9943
 20
-18.8455
 30
0.0
 10
-118.8177
 20
-19.6215
 30
0.0
 10
-120.6842
 20
-18.2021
 30
0.0
 10
-120.6842
 20
-18.2021
 30
0.0
 10
-122.3694
 20
-16.9207
 30
0.0
 10
-121.9023
 20
-14.2434
 30
0.0
 10
-119.5459
 20
-12.499
 30
0.0
 10
-119.5459
 20
-12.499
 30
0.0
 10
-117.5473
 20
-11.1938
 30
0.0
 10
-115.0948
 20
-10.3944
 30
0.0
 10
-112.9882
 20
-9.6108
 30
0.0
 10
-112.9882
 20
-9.6108
 30
0.0
 10
-113.5766
 20
-11.5754
 30
0.0
 10
-114.2088
 20
-13.7649
 30
0.0
 10
-115.2675
 20
-15.7174
 30
0.0
  0
SPLINE
  5
96
330
1F
100
AcDbEntity
  8
layer 1
 62
     7
100
AcDbSpline
210
0.0
220
0.0
230
1.0
 70
    11
 71
     3
 72
    20
 73
    16
 74
     0
 42
0.0000000001
 43
0.0000000001
 12
1.0
 22
0.0
 32
0.0
 13
1.0
 23
0.0
 33
0.0
 40
0.0
 40
0.0
 40
0.0
 40
0.0
 40
0.2
 40
0.2
 40
0.2
 40
0.2
 40
0.4
 40
0.4
 40
0.4
 40
0.4
 40
0.6
 40
0.6
 40
0.6
 40
0.6
 40
1.0
 40
1.0
 40
1.0
 40
1.0
 10
-105.8998
 20
-15.7174
 30
0.0
 10
-104.1729
 20
-18.8455
 30
0.0
 10
-102.3496
 20
-19.6215
 30
0.0
 10
-100.4831
 20
-18.2021
 30
0.0
 10
-100.4831
 20
-18.2021
 30
0.0
 10
-98.7979
 20
-16.9207
 30
0.0
 10
-99.265
 20
-14.2434
 30
0.0
 10
-101.6214
 20
-12.499
 30
0.0
 10
-101.6214
 20
-12.499
 30
0.0
 10
-103.62
 20
-11.1938
 30
0.0
 10
-106.0725
 20
-10.3944
 30
0.0
 10
-108.179
 20
-9.6108
 30
0.0
 10
-108.179
 20
-9.6108
 30
0.0
 10
-107.5906
 20
-11.5754
 30
0.0
 10
-106.9585
 20
-13.7649
 30
0.0
 10
-105.8998
 20
-15.7174
 30
0.0
  0
SPLINE
  5
97
330
1F
100
AcDbEntity
  8
layer 1
 62
     7
100
AcDbSpline
210
0.0
220
0.0
230
1.0
 70
    11
 71
     3
 72
    20
 73
    16
 74
     0
 42
0.0000000001
 43
0.0000000001
 12
1.0
 22
0.0
 32
0.0
 13
1.0
 23
0.0
 33
0.0
 40
0.0
 40
0.0
 40
0.0
 40
0.0
 40
0.2
 40
0.2
 40
0.2
 40
0.2
 40
0.4
 40
0.4
 40
0.4
 40
0.4
 40
0.6
 40
0.6
 40
0.6
 40
0.6
 40
1.0
 40
1.0
 40
1.0
 40
1.0
 10
-86.3109
 20
0.7618
 30
0.0
 10
-88.0377
 20
3.8899
 30
0.0
 10
-89.861
 20
4.6659
 30
0.0
 10
-91.7276
 20
3.2466
 30
0.0
 10
-91.7276
 20
3.2466
 30
0.0
 10
-93.4128
 20
1.9651
 30
0.0
 10
-92.9457
 20
-0.7122
 30
0.0
 10
-90.5893
 20
-2.4566
 30
0.0
 10
-90.5893
 20
-2.4566
 30
0.0
 10
-88.5907
 20
-3.7617
 30
0.0
 10
-86.1382
 20
-4.5612
 30
0.0
 10
-84.0316
 20
-5.3448
 30
0.0
 10
-84.0316
 20
-5.3448
 30
0.0
 10
-84.62
 20
-3.3802
 30
0.0
 10
-85.2522
 20
-1.1907
 30
0.0
 10
-86.3109
 20
0.7618
 30
0.0
  0
SPLINE
  5
98
330
1F
100
AcDbEntity
  8
layer 1
 62
     7
100
AcDbSpline
210
0.0
220
0.0
230
1.0
 70
    11
 71
     3
 72
    20
 73
    16
 74
     0
 42
0.0000000001
 43
0.0000000001
 12
1.0
 22
0.0
 32
0.0
 13
1.0
 23
0.0
 33
0.0
 40
0.0
 40
0.0
 40
0.0
 40
0.0
 40
0.2
 40
0.2
 40
0.2
 40
0.2
 40
0.4
 40
0.4
 40
0.4
 40
0.4
 40
0.6
 40
0.6
 40
0.6
 40
0.6
 40
1.0
 40
1.0
 40
1.0
 40
1.0
 10
-76.9432
 20
0.7618
 30
0.0
 10
-75.2163
 20
3.8899
 30
0.0
 10
-73.393
 20
4.6659
 30
0.0
 10
-71.5265
 20
3.2466
 30
0.0
 10
-71.5265
 20
3.2466
 30
0.0
 10
-69.8413
 20
1.9651
 30
0.0
 10
-70.3084
 20
-0.7122
 30
0.0
 10
-72.6648
 20
-2.4566
 30
0.0
 10
-72.6648
 20
-2.4566
 30
0.0
 10
-74.6634
 20
-3.7617
 30
0.0
 10
-77.1158
 20
-4.5612
 30
0.0
 10
-79.2224
 20
-5.3448
 30
0.0
 10
-79.2224
 20
-5.3448
 30
0.0
 10
-78.634
 20
-3.3802
 30
0.0
 10
-78.0019
 20
-1.1907
 30
0.0
 10
-76.9432
 20
0.7618
 30
0.0
  0
SPLINE
  5
99
330
1F
100
AcDbEntity
  8
layer 1
 62
     7
100
AcDbSpline
210
0.0
220
0.0
230
1.0
 70
    11
 71
     3
 72
    20
 73
    16
 74
     0
 42
0.0000000001
 43
0.0000000001
 12
1.0
 22
0.0
 32
0.0
 13
1.0
 23
0.0
 33
0.0
 40
0.0
 40
0.0
 40
0.0
 40
0.0
 40
0.2
 40
0.2
 40
0.2
 40
0.2
 40
0.4
 40
0.4
 40
0.4
 40
0.4
 40
0.6
 40
0.6
 40
0.6
 40
0.6
 40
1.0
 40
1.0
 40
1.0
 40
1.0
 10
-86.3109
 20
-15.7174
 30
0.0
 10
-88.0377
 20
-18.8455
 30
0.0
 10
-89.861
 20
-19.6215
 30
0.0
 10
-91.7276
 20
-18.2021
 30
0.0
 10
-91.7276
 20
-18.2021
 30
0.0
 10
-93.4128
 20
-16.9207
 30
0.0
 10
-92.9457
 20
-14.2434
 30
0.0
 10
-90.5893
 20
-12.499
 30
0.0
 10
-90.5893
 20
-12.499
 30
0.0
 10
-88.5907
 20
-11.1938
 30
0.0
 10
-86.1382
 20
-10.3944
 30
0.0
 10
-84.0316
 20
-9.6108
 30
0.0
 10
-84.0316
 20
-9.6108
 30
0.0
 10
-84.62
 20
-11.5754
 30
0.0
 10
-85.2522
 20
-13.7649
 30
0.0
 10
-86.3109
 20
-15.7174
 30
0.0
  0
SPLINE
  5
9A
330
1F
100
AcDbEntity
  8
layer 1
 62
     7
100
AcDbSpline
210
0.0
220
0.0
230
1.0
 70
    11
 71
     3
 72
    20
 73
    16
 74
     0
 42
0.0000000001
 43
0.0000000001
 12
1.0
 22
0.0
 32
0.0
 13
1.0
 23
0.0
 33
0.0
 40
0.0
 40
0.0
 40
0.0
 40
0.0
 40
0.2
 40
0.2
 40
0.2
 40
0.2
 40
0.4
 40
0.4
 40
0.4
 40
0.4
 40
0.6
 40
0.6
 40
0.6
 40
0.6
 40
1.0
 40
1.0
 40
1.0
 40
1.0
 10
-76.9432
 20
-15.7174
 30
0.0
 10
-75.2163
 20
-18.8455
 30
0.0
 10
-73.393
 20
-19.6215
 30
0.0
 10
-71.5265
 20
-18.2021
 30
0.0
 10
-71.5265
 20
-18.2021
 30
0.0
 10
-69.8413
 20
-16.9207
 30
0.0
 10
-70.3084
 20
-14.2434
 30
0.0
 10
-72.6648
 20
-12.499
 30
0.0
 10
-72.6648
 20
-12.499
 30
0.0
 10
-74.6634
 20
-11.1938
 30
0.0
 10
-77.1158
 20
-10.3944
 30
0.0
 10
-79.2224
 20
-9.6108
 30
0.0
 10
-79.2224
 20
-9.6108
 30
0.0
 10
-78.634
 20
-11.5754
 30
0.0
 10
-78.0019
 20
-13.7649
 30
0.0
 10
-76.9432
 20
-15.7174
 30
0.0
  0
SPLINE
  5
9B
330
1F
100
AcDbEntity
  8
layer 1
 62
     7
100
AcDbSpline
210
0.0
220
0.0
230
1.0
 70
    11
 71
     3
 72
    20
 73
    16
 74
     0
 42
0.0000000001
 43
0.0000000001
 12
1.0
 22
0.0
 32
0.0
 13
1.0
 23
0.0
 33
0.0
 40
0.0
 40
0.0
 40
0.0
 40
0.0
 40
0.2
 40
0.2
 40
0.2
 40
0.2
 40
0.4
 40
0.4
 40
0.4
 40
0.4
 40
0.6
 40
0.6
 40
0.6
 40
0.6
 40
1.0
 40
1.0
 40
1.0
 40
1.0
 10
-150.4321
 20
-7.5005
 30
0.0
 10
-150.4321
 20
-9.7155
 30
0.0
 10
-152.2277
 20
-11.5111
 30
0.0
 10
-154.4426
 20
-11.5111
 30
0.0
 10
-154.4426
 20
-11.5111
 30
0.0
 10
-156.6576
 20
-11.5111
 30
0.0
 10
-158.4532
 20
-9.7155
 30
0.0
 10
-158.4532
 20
-7.5005
 30
0.0
 10
-158.4532
 20
-7.5005
 30
0.0
 10
-158.4532
 20
-5.2856
 30
0.0
 10
-156.6576
 20
-3.4899
 30
0.0
 10
-154.4426
 20
-3.4899
 30
0.0
 10
-154.4426
 20
-3.4899
 30
0.0
 10
-152.2277
 20
-3.4899
 30
0.0
 10
-150.4321
 20
-5.2856
 30
0.0
 10
-150.4321
 20
-7.5005
 30
0.0
  0
SPLINE
  5
9C
330
1F
100
AcDbEntity
  8
layer 1
 62
     7
100
AcDbSpline
210
0.0
220
0.0
230
1.0
 70
    11
 71
     3
 72
    20
 73
    16
 74
     0
 42
0.0000000001
 43
0.0000000001
 12
1.0
 22
0.0
 32
0.0
 13
1.0
 23
0.0
 33
0.0
 40
0.0
 40
0.0
 40
0.0
 40
0.0
 40
0.2
 40
0.2
 40
0.2
 40
0.2
 40
0.4
 40
0.4
 40
0.4
 40
0.4
 40
0.6
 40
0.6
 40
0.6
 40
0.6
 40
1.0
 40
1.0
 40
1.0
 40
1.0
 10
-121.2698
 20
-7.5005
 30
0.0
 10
-121.2698
 20
-9.7155
 30
0.0
 10
-123.0655
 20
-11.5111
 30
0.0
 10
-125.2804
 20
-11.5111
 30
0.0
 10
-125.2804
 20
-11.5111
 30
0.0
 10
-127.4953
 20
-11.5111
 30
0.0
 10
-129.291
 20
-9.7155
 30
0.0
 10
-129.291
 20
-7.5005
 30
0.0
 10
-129.291
 20
-7.5005
 30
0.0
 10
-129.291
 20
-5.2856
 30
0.0
 10
-127.4953
 20
-3.4899
 30
0.0
 10
-125.2804
 20
-3.4899
 30
0.0
 10
-125.2804
 20
-3.4899
 30
0.0
 10
-123.0655
 20
-3.4899
 30
0.0
 10
-121.2698
 20
-5.2856
 30
0.0
 10
-121.2698
 20
-7.5005
 30
0.0
  0
SPLINE
  5
9D
330
1F
100
AcDbEntity
  8
layer 1
 62
     7
100
AcDbSpline
210
0.0
220
0.0
230
1.0
 70
    11
 71
     3
 72
    20
 73
    16
 74
     0
 42
0.0000000001
 43
0.0000000001
 12
1.0
 22
0.0
 32
0.0
 13
1.0
 23
0.0
 33
0.0
 40
0.0
 40
0.0
 40
0.0
 40
0.0
 40
0.2
 40
0.2
 40
0.2
 40
0.2
 40
0.4
 40
0.4
 40
0.4
 40
0.4
 40
0.6
 40
0.6
 40
0.6
 40
0.6
 40
1.0
 40
1.0
 40
1.0
 40
1.0
 10
-91.8862
 20
-7.5005
 30
0.0
 10
-91.8862
 20
-9.7155
 30
0.0
 10
-93.6818
 20
-11.5111
 30
0.0
 10
-95.8967
 20
-11.5111
 30
0.0
 10
-95.8967
 20
-11.5111
 30
0.0
 10
-98.1117
 20
-11.5111
 30
0.0
 10
-99.9073
 20
-9.7155
 30
0.0
 10
-99.9073
 20
-7.5005
 30
0.0
 10
-99.9073
 20
-7.5005
 30
0.0
 10
-99.9073
 20
-5.2856
 30
0.0
 10
-98.1117
 20
-3.4899
 30
0.0
 10
-95.8967
 20
-3.4899
 30
0.0
 10
-95.8967
 20
-3.4899
 30
0.0
 10
-93.6818
 20
-3.4899
 30
0.0
 10
-91.8862
 20
-5.2856
 30
0.0
 10
-91.8862
 20
-7.5005
 30
0.0
  0
SPLINE
  5
9E
330
1F
100
AcDbEntity
  8
layer 1
 62
     7
100
AcDbSpline
210
0.0
220
0.0
230
1.0
 70
    11
 71
     3
 72
    20
 73
    16
 74
     0
 42
0.0000000001
 43
0.0000000001
 12
1.0
 22
0.0
 32
0.0
 13
1.0
 23
0.0
 33
0.0
 40
0.0
 40
0.0
 40
0.0
 40
0.0
 40
0.2
 40
0.2
 40
0.2
 40
0.2
 40
0.4
 40
0.4
 40
0.4
 40
0.4
 40
0.6
 40
0.6
 40
0.6
 40
0.6
 40
1.0
 40
1.0
 40
1.0
 40
1.0
 10
-174.0014
 20
31.8287
 30
0.0
 10
-175.7282
 20
34.9568
 30
0.0
 10
-177.5515
 20
35.7328
 30
0.0
 10
-179.4181
 20
34.3135
 30
0.0
 10
-179.4181
 20
34.3135
 30
0.0
 10
-181.1033
 20
33.032
 30
0.0
 10
-180.6361
 20
30.3547
 30
0.0
 10
-178.2798
 20
28.6103
 30
0.0
 10
-178.2798
 20
28.6103
 30
0.0
 10
-176.2811
 20
27.3051
 30
0.0
 10
-173.8287
 20
26.5057
 30
0.0
 10
-171.7221
 20
25.7221
 30
0.0
 10
-171.7221
 20
25.7221
 30
0.0
 10
-172.3105
 20
27.6867
 30
0.0
 10
-172.9427
 20
29.8762
 30
0.0
 10
-174.0014
 20
31.8287
 30
0.0
  0
SPLINE
  5
9F
330
1F
100
AcDbEntity
  8
layer 1
 62
     7
100
AcDbSpline
210
0.0
220
0.0
230
1.0
 70
    11
 71
     3
 72
    20
 73
    16
 74
     0
 42
0.0000000001
 43
0.0000000001
 12
1.0
 22
0.0
 32
0.0
 13
1.0
 23
0.0
 33
0.0
 40
0.0
 40
0.0
 40
0.0
 40
0.0
 40
0.2
 40
0.2
 40
0.2
 40
0.2
 40
0.4
 40
0.4
 40
0.4
 40
0.4
 40
0.6
 40
0.6
 40
0.6
 40
0.6
 40
1.0
 40
1.0
 40
1.0
 40
1.0
 10
-164.6336
 20
31.8287
 30
0.0
 10
-162.9068
 20
34.9568
 30
0.0
 10
-161.0835
 20
35.7328
 30
0.0
 10
-159.2169
 20
34.3135
 30
0.0
 10
-159.2169
 20
34.3135
 30
0.0
 10
-157.5317
 20
33.032
 30
0.0
 10
-157.9989
 20
30.3547
 30
0.0
 10
-160.3552
 20
28.6103
 30
0.0
 10
-160.3552
 20
28.6103
 30
0.0
 10
-162.3539
 20
27.3051
 30
0.0
 10
-164.8063
 20
26.5057
 30
0.0
 10
-166.9129
 20
25.7221
 30
0.0
 10
-166.9129
 20
25.7221
 30
0.0
 10
-166.3245
 20
27.6867
 30
0.0
 10
-165.6923
 20
29.8762
 30
0.0
 10
-164.6336
 20
31.8287
 30
0.0
  0
SPLINE
  5
A0
330
1F
100
AcDbEntity
  8
layer 1
 62
     7
100
AcDbSpline
210
0.0
220
0.0
230
1.0
 70
    11
 71
     3
 72
    20
 73
    16
 74
     0
 42
0.0000000001
 43
0.0000000001
 12
1.0
 22
0.0
 32
0.0
 13
1.0
 23
0.0
 33
0.0
 40
0.0
 40
0.0
 40
0.0
 40
0.0
 40
0.2
 40
0.2
 40
0.2
 40
0.2
 40
0.4
 40
0.4
 40
0.4
 40
0.4
 40
0.6
 40
0.6
 40
0.6
 40
0.6
 40
1.0
 40
1.0
 40
1.0
 40
1.0
 10
-174.0014
 20
15.3493
 30
0.0
 10
-175.7282
 20
12.2212
 30
0.0
 10
-177.5515
 20
11.4453
 30
0.0
 10
-179.4181
 20
12.8646
 30
0.0
 10
-179.4181
 20
12.8646
 30
0.0
 10
-181.1033
 20
14.1461
 30
0.0
 10
-180.6361
 20
16.8234
 30
0.0
 10
-178.2798
 20
18.5677
 30
0.0
 10
-178.2798
 20
18.5677
 30
0.0
 10
-176.2811
 20
19.8729
 30
0.0
 10
-173.8287
 20
20.6723
 30
0.0
 10
-171.7221
 20
21.456
 30
0.0
 10
-171.7221
 20
21.456
 30
0.0
 10
-172.3105
 20
19.4913
 30
0.0
 10
-172.9427
 20
17.3018
 30
0.0
 10
-174.0014
 20
15.3493
 30
0.0
  0
SPLINE
  5
A1
330
1F
100
AcDbEntity
  8
layer 1
 62
     7
100
AcDbSpline
210
0.0
220
0.0
230
1.0
 70
    11
 71
     3
 72
    20
 73
    16
 74
     0
 42
0.0000000001
 43
0.0000000001
 12
1.0
 22
0.0
 32
0.0
 13
1.0
 23
0.0
 33
0.0
 40
0.0
 40
0.0
 40
0.0
 40
0.0
 40
0.2
 40
0.2
 40
0.2
 40
0.2
 40
0.4
 40
0.4
 40
0.4
 40
0.4
 40
0.6
 40
0.6
 40
0.6
 40
0.6
 40
1.0
 40
1.0
 40
1.0
 40
1.0
 10
-164.6336
 20
15.3493
 30
0.0
 10
-162.9068
 20
12.2212
 30
0.0
 10
-161.0835
 20
11.4453
 30
0.0
 10
-159.2169
 20
12.8646
 30
0.0
 10
-159.2169
 20
12.8646
 30
0.0
 10
-157.5317
 20
14.1461
 30
0.0
 10
-157.9989
 20
16.8234
 30
0.0
 10
-160.3552
 20
18.5677
 30
0.0
 10
-160.3552
 20
18.5677
 30
0.0
 10
-162.3539
 20
19.8729
 30
0.0
 10
-164.8063
 20
20.6723
 30
0.0
 10
-166.9129
 20
21.456
 30
0.0
 10
-166.9129
 20
21.456
 30
0.0
 10
-166.3245
 20
19.4913
 30
0.0
 10
-165.6923
 20
17.3018
 30
0.0
 10
-164.6336
 20
15.3493
 30
0.0
  0
SPLINE
  5
A2
330
1F
100
AcDbEntity
  8
layer 1
 62
     7
100
AcDbSpline
210
0.0
220
0.0
230
1.0
 70
    11
 71
     3
 72
    20
 73
    16
 74
     0
 42
0.0000000001
 43
0.0000000001
 12
1.0
 22
0.0
 32
0.0
 13
1.0
 23
0.0
 33
0.0
 40
0.0
 40
0.0
 40
0.0
 40
0.0
 40
0.2
 40
0.2
 40
0.2
 40
0.2
 40
0.4
 40
0.4
 40
0.4
 40
0.4
 40
0.6
 40
0.6
 40
0.6
 40
0.6
 40
1.0
 40
1.0
 40
1.0
 40
1.0
 10
-144.8103
 20
31.8287
 30
0.0
 10
-146.5371
 20
34.9568
 30
0.0
 10
-148.3604
 20
35.7328
 30
0.0
 10
-150.227
 20
34.3135
 30
0.0
 10
-150.227
 20
34.3135
 30
0.0
 10
-151.9122
 20
33.032
 30
0.0
 10
-151.445
 20
30.3547
 30
0.0
 10
-149.0887
 20
28.6103
 30
0.0
 10
-149.0887
 20
28.6103
 30
0.0
 10
-147.09
 20
27.3051
 30
0.0
 10
-144.6376
 20
26.5057
 30
0.0
 10
-142.531
 20
25.7221
 30
0.0
 10
-142.531
 20
25.7221
 30
0.0
 10
-143.1194
 20
27.6867
 30
0.0
 10
-143.7516
 20
29.8762
 30
0.0
 10
-144.8103
 20
31.8287
 30
0.0
  0
SPLINE
  5
A3
330
1F
100
AcDbEntity
  8
layer 1
 62
     7
100
AcDbSpline
210
0.0
220
0.0
230
1.0
 70
    11
 71
     3
 72
    20
 73
    16
 74
     0
 42
0.0000000001
 43
0.0000000001
 12
1.0
 22
0.0
 32
0.0
 13
1.0
 23
0.0
 33
0.0
 40
0.0
 40
0.0
 40
0.0
 40
0.0
 40
0.2
 40
0.2
 40
0.2
 40
0.2
 40
0.4
 40
0.4
 40
0.4
 40
0.4
 40
0.6
 40
0.6
 40
0.6
 40
0.6
 40
1.0
 40
1.0
 40
1.0
 40
1.0
 10
-135.4425
 20
31.8287
 30
0.0
 10
-133.7157
 20
34.9568
 30
0.0
 10
-131.8924
 20
35.7328
 30
0.0
 10
-130.0258
 20
34.3135
 30
0.0
 10
-130.0258
 20
34.3135
 30
0.0
 10
-128.3406
 20
33.032
 30
0.0
 10
-128.8078
 20
30.3547
 30
0.0
 10
-131.1641
 20
28.6103
 30
0.0
 10
-131.1641
 20
28.6103
 30
0.0
 10
-133.1628
 20
27.3051
 30
0.0
 10
-135.6152
 20
26.5057
 30
0.0
 10
-137.7218
 20
25.7221
 30
0.0
 10
-137.7218
 20
25.7221
 30
0.0
 10
-137.1334
 20
27.6867
 30
0.0
 10
-136.5012
 20
29.8762
 30
0.0
 10
-135.4425
 20
31.8287
 30
0.0
  0
SPLINE
  5
A4
330
1F
100
AcDbEntity
  8
layer 1
 62
     7
100
AcDbSpline
210
0.0
220
0.0
230
1.0
 70
    11
 71
     3
 72
    20
 73
    16
 74
     0
 42
0.0000000001
 43
0.0000000001
 12
1.0
 22
0.0
 32
0.0
 13
1.0
 23
0.0
 33
0.0
 40
0.0
 40
0.0
 40
0.0
 40
0.0
 40
0.2
 40
0.2
 40
0.2
 40
0.2
 40
0.4
 40
0.4
 40
0.4
 40
0.4
 40
0.6
 40
0.6
 40
0.6
 40
0.6
 40
1.0
 40
1.0
 40
1.0
 40
1.0
 10
-144.8103
 20
15.3493
 30
0.0
 10
-146.5371
 20
12.2212
 30
0.0
 10
-148.3604
 20
11.4453
 30
0.0
 10
-150.227
 20
12.8646
 30
0.0
 10
-150.227
 20
12.8646
 30
0.0
 10
-151.9122
 20
14.1461
 30
0.0
 10
-151.445
 20
16.8234
 30
0.0
 10
-149.0887
 20
18.5677
 30
0.0
 10
-149.0887
 20
18.5677
 30
0.0
 10
-147.09
 20
19.8729
 30
0.0
 10
-144.6376
 20
20.6723
 30
0.0
 10
-142.531
 20
21.456
 30
0.0
 10
-142.531
 20
21.456
 30
0.0
 10
-143.1194
 20
19.4913
 30
0.0
 10
-143.7516
 20
17.3018
 30
0.0
 10
-144.8103
 20
15.3493
 30
0.0
  0
SPLINE
  5
A5
330
1F
100
AcDbEntity
  8
layer 1
 62
     7
100
AcDbSpline
210
0.0
220
0.0
230
1.0
 70
    11
 71
     3
 72
    20
 73
    16
 74
     0
 42
0.0000000001
 43
0.0000000001
 12
1.0
 22
0.0
 32
0.0
 13
1.0
 23
0.0
 33
0.0
 40
0.0
 40
0.0
 40
0.0
 40
0.0
 40
0.2
 40
0.2
 40
0.2
 40
0.2
 40
0.4
 40
0.4
 40
0.4
 40
0.4
 40
0.6
 40
0.6
 40
0.6
 40
0.6
 40
1.0
 40
1.0
 40
1.0
 40
1.0
 10
-135.4425
 20
15.3493
 30
0.0
 10
-133.7157
 20
12.2212
 30
0.0
 10
-131.8924
 20
11.4453
 30
0.0
 10
-130.0258
 20
12.8646
 30
0.0
 10
-130.0258
 20
12.8646
 30
0.0
 10
-128.3406
 20
14.1461
 30
0.0
 10
-128.8078
 20
16.8234
 30
0.0
 10
-131.1641
 20
18.5677
 30
0.0
 10
-131.1641
 20
18.5677
 30
0.0
 10
-133.1628
 20
19.8729
 30
0.0
 10
-135.6152
 20
20.6723
 30
0.0
 10
-137.7218
 20
21.456
 30
0.0
 10
-137.7218
 20
21.456
 30
0.0
 10
-137.1334
 20
19.4913
 30
0.0
 10
-136.5012
 20
17.3018
 30
0.0
 10
-135.4425
 20
15.3493
 30
0.0
  0
SPLINE
  5
A6
330
1F
100
AcDbEntity
  8
layer 1
 62
     7
100
AcDbSpline
210
0.0
220
0.0
230
1.0
 70
    11
 71
     3
 72
    20
 73
    16
 74
     0
 42
0.0000000001
 43
0.0000000001
 12
1.0
 22
0.0
 32
0.0
 13
1.0
 23
0.0
 33
0.0
 40
0.0
 40
0.0
 40
0.0
 40
0.0
 40
0.2
 40
0.2
 40
0.2
 40
0.2
 40
0.4
 40
0.4
 40
0.4
 40
0.4
 40
0.6
 40
0.6
 40
0.6
 40
0.6
 40
1.0
 40
1.0
 40
1.0
 40
1.0
 10
-115.2675
 20
31.8287
 30
0.0
 10
-116.9943
 20
34.9568
 30
0.0
 10
-118.8177
 20
35.7328
 30
0.0
 10
-120.6842
 20
34.3135
 30
0.0
 10
-120.6842
 20
34.3135
 30
0.0
 10
-122.3694
 20
33.032
 30
0.0
 10
-121.9023
 20
30.3547
 30
0.0
 10
-119.5459
 20
28.6103
 30
0.0
 10
-119.5459
 20
28.6103
 30
0.0
 10
-117.5473
 20
27.3051
 30
0.0
 10
-115.0948
 20
26.5057
 30
0.0
 10
-112.9882
 20
25.7221
 30
0.0
 10
-112.9882
 20
25.7221
 30
0.0
 10
-113.5766
 20
27.6867
 30
0.0
 10
-114.2088
 20
29.8762
 30
0.0
 10
-115.2675
 20
31.8287
 30
0.0
  0
SPLINE
  5
A7
330
1F
100
AcDbEntity
  8
layer 1
 62
     7
100
AcDbSpline
210
0.0
220
0.0
230
1.0
 70
    11
 71
     3
 72
    20
 73
    16
 74
     0
 42
0.0000000001
 43
0.0000000001
 12
1.0
 22
0.0
 32
0.0
 13
1.0
 23
0.0
 33
0.0
 40
0.0
 40
0.0
 40
0.0
 40
0.0
 40
0.2
 40
0.2
 40
0.2
 40
0.2
 40
0.4
 40
0.4
 40
0.4
 40
0.4
 40
0.6
 40
0.6
 40
0.6
 40
0.6
 40
1.0
 40
1.0
 40
1.0
 40
1.0
 10
-105.8998
 20
31.8287
 30
0.0
 10
-104.1729
 20
34.9568
 30
0.0
 10
-102.3496
 20
35.7328
 30
0.0
 10
-100.4831
 20
34.3135
 30
0.0
 10
-100.4831
 20
34.3135
 30
0.0
 10
-98.7979
 20
33.032
 30
0.0
 10
-99.265
 20
30.3547
 30
0.0
 10
-101.6214
 20
28.6103
 30
0.0
 10
-101.6214
 20
28.6103
 30
0.0
 10
-103.62
 20
27.3051
 30
0.0
 10
-106.0725
 20
26.5057
 30
0.0
 10
-108.179
 20
25.7221
 30
0.0
 10
-108.179
 20
25.7221
 30
0.0
 10
-107.5906
 20
27.6867
 30
0.0
 10
-106.9585
 20
29.8762
 30
0.0
 10
-105.8998
 20
31.8287
 30
0.0
  0
SPLINE
  5
A8
330
1F
100
AcDbEntity
  8
layer 1
 62
     7
100
AcDbSpline
210
0.0
220
0.0
230
1.0
 70
    11
 71
     3
 72
    20
 73
    16
 74
     0
 42
0.0000000001
 43
0.0000000001
 12
1.0
 22
0.0
 32
0.0
 13
1.0
 23
0.0
 33
0.0
 40
0.0
 40
0.0
 40
0.0
 40
0.0
 40
0.2
 40
0.2
 40
0.2
 40
0.2
 40
0.4
 40
0.4
 40
0.4
 40
0.4
 40
0.6
 40
0.6
 40
0.6
 40
0.6
 40
1.0
 40
1.0
 40
1.0
 40
1.0
 10
-115.2675
 20
15.3493
 30
0.0
 10
-116.9943
 20
12.2212
 30
0.0
 10
-118.8177
 20
11.4453
 30
0.0
 10
-120.6842
 20
12.8646
 30
0.0
 10
-120.6842
 20
12.8646
 30
0.0
 10
-122.3694
 20
14.1461
 30
0.0
 10
-121.9023
 20
16.8234
 30
0.0
 10
-119.5459
 20
18.5677
 30
0.0
 10
-119.5459
 20
18.5677
 30
0.0
 10
-117.5473
 20
19.8729
 30
0.0
 10
-115.0948
 20
20.6723
 30
0.0
 10
-112.9882
 20
21.456
 30
0.0
 10
-112.9882
 20
21.456
 30
0.0
 10
-113.5766
 20
19.4913
 30
0.0
 10
-114.2088
 20
17.3018
 30
0.0
 10
-115.2675
 20
15.3493
 30
0.0
  0
SPLINE
  5
A9
330
1F
100
AcDbEntity
  8
layer 1
 62
     7
100
AcDbSpline
210
0.0
220
0.0
230
1.0
 70
    11
 71
     3
 72
    20
 73
    16
 74
     0
 42
0.0000000001
 43
0.0000000001
 12
1.0
 22
0.0
 32
0.0
 13
1.0
 23
0.0
 33
0.0
 40
0.0
 40
0.0
 40
0.0
 40
0.0
 40
0.2
 40
0.2
 40
0.2
 40
0.2
 40
0.4
 40
0.4
 40
0.4
 40
0.4
 40
0.6
 40
0.6
 40
0.6
 40
0.6
 40
1.0
 40
1.0
 40
1.0
 40
1.0
 10
-105.8998
 20
15.3493
 30
0.0
 10
-104.1729
 20
12.2212
 30
0.0
 10
-102.3496
 20
11.4453
 30
0.0
 10
-100.4831
 20
12.8646
 30
0.0
 10
-100.4831
 20
12.8646
 30
0.0
 10
-98.7979
 20
14.1461
 30
0.0
 10
-99.265
 20
16.8234
 30
0.0
 10
-101.6214
 20
18.5677
 30
0.0
 10
-101.6214
 20
18.5677
 30
0.0
 10
-103.62
 20
19.8729
 30
0.0
 10
-106.0725
 20
20.6723
 30
0.0
 10
-108.179
 20
21.456
 30
0.0
 10
-108.179
 20
21.456
 30
0.0
 10
-107.5906
 20
19.4913
 30
0.0
 10
-106.9585
 20
17.3018
 30
0.0
 10
-105.8998
 20
15.3493
 30
0.0
  0
SPLINE
  5
AA
330
1F
100
AcDbEntity
  8
layer 1
 62
     7
100
AcDbSpline
210
0.0
220
0.0
230
1.0
 70
    11
 71
     3
 72
    20
 73
    16
 74
     0
 42
0.0000000001
 43
0.0000000001
 12
1.0
 22
0.0
 32
0.0
 13
1.0
 23
0.0
 33
0.0
 40
0.0
 40
0.0
 40
0.0
 40
0.0
 40
0.2
 40
0.2
 40
0.2
 40
0.2
 40
0.4
 40
0.4
 40
0.4
 40
0.4
 40
0.6
 40
0.6
 40
0.6
 40
0.6
 40
1.0
 40
1.0
 40
1.0
 40
1.0
 10
-86.3109
 20
31.8287
 30
0.0
 10
-88.0377
 20
34.9568
 30
0.0
 10
-89.861
 20
35.7328
 30
0.0
 10
-91.7276
 20
34.3135
 30
0.0
 10
-91.7276
 20
34.3135
 30
0.0
 10
-93.4128
 20
33.032
 30
0.0
 10
-92.9457
 20
30.3547
 30
0.0
 10
-90.5893
 20
28.6103
 30
0.0
 10
-90.5893
 20
28.6103
 30
0.0
 10
-88.5907
 20
27.3051
 30
0.0
 10
-86.1382
 20
26.5057
 30
0.0
 10
-84.0316
 20
25.7221
 30
0.0
 10
-84.0316
 20
25.7221
 30
0.0
 10
-84.62
 20
27.6867
 30
0.0
 10
-85.2522
 20
29.8762
 30
0.0
 10
-86.3109
 20
31.8287
 30
0.0
  0
SPLINE
  5
AB
330
1F
100
AcDbEntity
  8
layer 1
 62
     7
100
AcDbSpline
210
0.0
220
0.0
230
1.0
 70
    11
 71
     3
 72
    20
 73
    16
 74
     0
 42
0.0000000001
 43
0.0000000001
 12
1.0
 22
0.0
 32
0.0
 13
1.0
 23
0.0
 33
0.0
 40
0.0
 40
0.0
 40
0.0
 40
0.0
 40
0.2
 40
0.2
 40
0.2
 40
0.2
 40
0.4
 40
0.4
 40
0.4
 40
0.4
 40
0.6
 40
0.6
 40
0.6
 40
0.6
 40
1.0
 40
1.0
 40
1.0
 40
1.0
 10
-76.9432
 20
31.8287
 30
0.0
 10
-75.2163
 20
34.9568
 30
0.0
 10
-73.393
 20
35.7328
 30
0.0
 10
-71.5265
 20
34.3135
 30
0.0
 10
-71.5265
 20
34.3135
 30
0.0
 10
-69.8413
 20
33.032
 30
0.0
 10
-70.3084
 20
30.3547
 30
0.0
 10
-72.6648
 20
28.6103
 30
0.0
 10
-72.6648
 20
28.6103
 30
0.0
 10
-74.6634
 20
27.3051
 30
0.0
 10
-77.1158
 20
26.5057
 30
0.0
 10
-79.2224
 20
25.7221
 30
0.0
 10
-79.2224
 20
25.7221
 30
0.0
 10
-78.634
 20
27.6867
 30
0.0
 10
-78.0019
 20
29.8762
 30
0.0
 10
-76.9432
 20
31.8287
 30
0.0
  0
SPLINE
  5
AC
330
1F
100
AcDbEntity
  8
layer 1
 62
     7
100
AcDbSpline
210
0.0
220
0.0
230
1.0
 70
    11
 71
     3
 72
    20
 73
    16
 74
     0
 42
0.0000000001
 43
0.0000000001
 12
1.0
 22
0.0
 32
0.0
 13
1.0
 23
0.0
 33
0.0
 40
0.0
 40
0.0
 40
0.0
 40
0.0
 40
0.2
 40
0.2
 40
0.2
 40
0.2
 40
0.4
 40
0.4
 40
0.4
 40
0.4
 40
0.6
 40
0.6
 40
0.6
 40
0.6
 40
1.0
 40
1.0
 40
1.0
 40
1.0
 10
-86.3109
 20
15.3493
 30
0.0
 10
-88.0377
 20
12.2212
 30
0.0
 10
-89.861
 20
11.4453
 30
0.0
 10
-91.7276
 20
12.8646
 30
0.0
 10
-91.7276
 20
12.8646
 30
0.0
 10
-93.4128
 20
14.1461
 30
0.0
 10
-92.9457
 20
16.8234
 30
0.0
 10
-90.5893
 20
18.5677
 30
0.0
 10
-90.5893
 20
18.5677
 30
0.0
 10
-88.5907
 20
19.8729
 30
0.0
 10
-86.1382
 20
20.6723
 30
0.0
 10
-84.0316
 20
21.456
 30
0.0
 10
-84.0316
 20
21.456
 30
0.0
 10
-84.62
 20
19.4913
 30
0.0
 10
-85.2522
 20
17.3018
 30
0.0
 10
-86.3109
 20
15.3493
 30
0.0
  0
SPLINE
  5
AD
330
1F
100
AcDbEntity
  8
layer 1
 62
     7
100
AcDbSpline
210
0.0
220
0.0
230
1.0
 70
    11
 71
     3
 72
    20
 73
    16
 74
     0
 42
0.0000000001
 43
0.0000000001
 12
1.0
 22
0.0
 32
0.0
 13
1.0
 23
0.0
 33
0.0
 40
0.0
 40
0.0
 40
0.0
 40
0.0
 40
0.2
 40
0.2
 40
0.2
 40
0.2
 40
0.4
 40
0.4
 40
0.4
 40
0.4
 40
0.6
 40
0.6
 40
0.6
 40
0.6
 40
1.0
 40
1.0
 40
1.0
 40
1.0
 10
-76.9432
 20
15.3493
 30
0.0
 10
-75.2163
 20
12.2212
 30
0.0
 10
-73.393
 20
11.4453
 30
0.0
 10
-71.5265
 20
12.8646
 30
0.0
 10
-71.5265
 20
12.8646
 30
0.0
 10
-69.8413
 20
14.1461
 30
0.0
 10
-70.3084
 20
16.8234
 30
0.0
 10
-72.6648
 20
18.5677
 30
0.0
 10
-72.6648
 20
18.5677
 30
0.0
 10
-74.6634
 20
19.8729
 30
0.0
 10
-77.1158
 20
20.6723
 30
0.0
 10
-79.2224
 20
21.456
 30
0.0
 10
-79.2224
 20
21.456
 30
0.0
 10
-78.634
 20
19.4913
 30
0.0
 10
-78.0019
 20
17.3018
 30
0.0
 10
-76.9432
 20
15.3493
 30
0.0
  0
SPLINE
  5
AE
330
1F
100
AcDbEntity
  8
layer 1
 62
     7
100
AcDbSpline
210
0.0
220
0.0
230
1.0
 70
    11
 71
     3
 72
    20
 73
    16
 74
     0
 42
0.0000000001
 43
0.0000000001
 12
1.0
 22
0.0
 32
0.0
 13
1.0
 23
0.0
 33
0.0
 40
0.0
 40
0.0
 40
0.0
 40
0.0
 40
0.2
 40
0.2
 40
0.2
 40
0.2
 40
0.4
 40
0.4
 40
0.4
 40
0.4
 40
0.6
 40
0.6
 40
0.6
 40
0.6
 40
1.0
 40
1.0
 40
1.0
 40
1.0
 10
-150.4321
 20
23.5664
 30
0.0
 10
-150.4321
 20
21.3514
 30
0.0
 10
-152.2277
 20
19.5558
 30
0.0
 10
-154.4426
 20
19.5558
 30
0.0
 10
-154.4426
 20
19.5558
 30
0.0
 10
-156.6576
 20
19.5558
 30
0.0
 10
-158.4532
 20
21.3514
 30
0.0
 10
-158.4532
 20
23.5664
 30
0.0
 10
-158.4532
 20
23.5664
 30
0.0
 10
-158.4532
 20
25.7813
 30
0.0
 10
-156.6576
 20
27.5769
 30
0.0
 10
-154.4426
 20
27.5769
 30
0.0
 10
-154.4426
 20
27.5769
 30
0.0
 10
-152.2277
 20
27.5769
 30
0.0
 10
-150.4321
 20
25.7813
 30
0.0
 10
-150.4321
 20
23.5664
 30
0.0
  0
SPLINE
  5
AF
330
1F
100
AcDbEntity
  8
layer 1
 62
     7
100
AcDbSpline
210
0.0
220
0.0
230
1.0
 70
    11
 71
     3
 72
    20
 73
    16
 74
     0
 42
0.0000000001
 43
0.0000000001
 12
1.0
 22
0.0
 32
0.0
 13
1.0
 23
0.0
 33
0.0
 40
0.0
 40
0.0
 40
0.0
 40
0.0
 40
0.2
 40
0.2
 40
0.2
 40
0.2
 40
0.4
 40
0.4
 40
0.4
 40
0.4
 40
0.6
 40
0.6
 40
0.6
 40
0.6
 40
1.0
 40
1.0
 40
1.0
 40
1.0
 10
-121.2698
 20
23.5664
 30
0.0
 10
-121.2698
 20
21.3514
 30
0.0
 10
-123.0655
 20
19.5558
 30
0.0
 10
-125.2804
 20
19.5558
 30
0.0
 10
-125.2804
 20
19.5558
 30
0.0
 10
-127.4953
 20
19.5558
 30
0.0
 10
-129.291
 20
21.3514
 30
0.0
 10
-129.291
 20
23.5664
 30
0.0
 10
-129.291
 20
23.5664
 30
0.0
 10
-129.291
 20
25.7813
 30
0.0
 10
-127.4953
 20
27.5769
 30
0.0
 10
-125.2804
 20
27.5769
 30
0.0
 10
-125.2804
 20
27.5769
 30
0.0
 10
-123.0655
 20
27.5769
 30
0.0
 10
-121.2698
 20
25.7813
 30
0.0
 10
-121.2698
 20
23.5664
 30
0.0
  0
SPLINE
  5
B0
330
1F
100
AcDbEntity
  8
layer 1
 62
     7
100
AcDbSpline
210
0.0
220
0.0
230
1.0
 70
    11
 71
     3
 72
    20
 73
    16
 74
     0
 42
0.0000000001
 43
0.0000000001
 12
1.0
 22
0.0
 32
0.0
 13
1.0
 23
0.0
 33
0.0
 40
0.0
 40
0.0
 40
0.0
 40
0.0
 40
0.2
 40
0.2
 40
0.2
 40
0.2
 40
0.4
 40
0.4
 40
0.4
 40
0.4
 40
0.6
 40
0.6
 40
0.6
 40
0.6
 40
1.0
 40
1.0
 40
1.0
 40
1.0
 10
-91.8862
 20
23.5664
 30
0.0
 10
-91.8862
 20
21.3514
 30
0.0
 10
-93.6818
 20
19.5558
 30
0.0
 10
-95.8967
 20
19.5558
 30
0.0
 10
-95.8967
 20
19.5558
 30
0.0
 10
-98.1117
 20
19.5558
 30
0.0
 10
-99.9073
 20
21.3514
 30
0.0
 10
-99.9073
 20
23.5664
 30
0.0
 10
-99.9073
 20
23.5664
 30
0.0
 10
-99.9073
 20
25.7813
 30
0.0
 10
-98.1117
 20
27.5769
 30
0.0
 10
-95.8967
 20
27.5769
 30
0.0
 10
-95.8967
 20
27.5769
 30
0.0
 10
-93.6818
 20
27.5769
 30
0.0
 10
-91.8862
 20
25.7813
 30
0.0
 10
-91.8862
 20
23.5664
 30
0.0
  0
SPLINE
  5
B1
330
1F
100
AcDbEntity
  8
layer 1
 62
     7
100
AcDbSpline
210
0.0
220
0.0
230
1.0
 70
    11
 71
     3
 72
    20
 73
    16
 74
     0
 42
0.0000000001
 43
0.0000000001
 12
1.0
 22
0.0
 32
0.0
 13
1.0
 23
0.0
 33
0.0
 40
0.0
 40
0.0
 40
0.0
 40
0.0
 40
0.2
 40
0.2
 40
0.2
 40
0.2
 40
0.4
 40
0.4
 40
0.4
 40
0.4
 40
0.6
 40
0.6
 40
0.6
 40
0.6
 40
1.0
 40
1.0
 40
1.0
 40
1.0
 10
-174.0014
 20
62.7783
 30
0.0
 10
-175.7282
 20
65.9064
 30
0.0
 10
-177.5515
 20
66.6824
 30
0.0
 10
-179.4181
 20
65.263
 30
0.0
 10
-179.4181
 20
65.263
 30
0.0
 10
-181.1033
 20
63.9816
 30
0.0
 10
-180.6361
 20
61.3043
 30
0.0
 10
-178.2798
 20
59.5599
 30
0.0
 10
-178.2798
 20
59.5599
 30
0.0
 10
-176.2811
 20
58.2547
 30
0.0
 10
-173.8287
 20
57.4553
 30
0.0
 10
-171.7221
 20
56.6717
 30
0.0
 10
-171.7221
 20
56.6717
 30
0.0
 10
-172.3105
 20
58.6363
 30
0.0
 10
-172.9427
 20
60.8258
 30
0.0
 10
-174.0014
 20
62.7783
 30
0.0
  0
SPLINE
  5
B2
330
1F
100
AcDbEntity
  8
layer 1
 62
     7
100
AcDbSpline
210
0.0
220
0.0
230
1.0
 70
    11
 71
     3
 72
    20
 73
    16
 74
     0
 42
0.0000000001
 43
0.0000000001
 12
1.0
 22
0.0
 32
0.0
 13
1.0
 23
0.0
 33
0.0
 40
0.0
 40
0.0
 40
0.0
 40
0.0
 40
0.2
 40
0.2
 40
0.2
 40
0.2
 40
0.4
 40
0.4
 40
0.4
 40
0.4
 40
0.6
 40
0.6
 40
0.6
 40
0.6
 40
1.0
 40
1.0
 40
1.0
 40
1.0
 10
-164.6336
 20
62.7783
 30
0.0
 10
-162.9068
 20
65.9064
 30
0.0
 10
-161.0835
 20
66.6824
 30
0.0
 10
-159.2169
 20
65.263
 30
0.0
 10
-159.2169
 20
65.263
 30
0.0
 10
-157.5317
 20
63.9816
 30
0.0
 10
-157.9989
 20
61.3043
 30
0.0
 10
-160.3552
 20
59.5599
 30
0.0
 10
-160.3552
 20
59.5599
 30
0.0
 10
-162.3539
 20
58.2547
 30
0.0
 10
-164.8063
 20
57.4553
 30
0.0
 10
-166.9129
 20
56.6717
 30
0.0
 10
-166.9129
 20
56.6717
 30
0.0
 10
-166.3245
 20
58.6363
 30
0.0
 10
-165.6923
 20
60.8258
 30
0.0
 10
-164.6336
 20
62.7783
 30
0.0
  0
SPLINE
  5
B3
330
1F
100
AcDbEntity
  8
layer 1
 62
     7
100
AcDbSpline
210
0.0
220
0.0
230
1.0
 70
    11
 71
     3
 72
    20
 73
    16
 74
     0
 42
0.0000000001
 43
0.0000000001
 12
1.0
 22
0.0
 32
0.0
 13
1.0
 23
0.0
 33
0.0
 40
0.0
 40
0.0
 40
0.0
 40
0.0
 40
0.2
 40
0.2
 40
0.2
 40
0.2
 40
0.4
 40
0.4
 40
0.4
 40
0.4
 40
0.6
 40
0.6
 40
0.6
 40
0.6
 40
1.0
 40
1.0
 40
1.0
 40
1.0
 10
-174.0014
 20
46.2989
 30
0.0
 10
-175.7282
 20
43.1708
 30
0.0
 10
-177.5515
 20
42.3948
 30
0.0
 10
-179.4181
 20
43.8142
 30
0.0
 10
-179.4181
 20
43.8142
 30
0.0
 10
-181.1033
 20
45.0956
 30
0.0
 10
-180.6361
 20
47.7729
 30
0.0
 10
-178.2798
 20
49.5173
 30
0.0
 10
-178.2798
 20
49.5173
 30
0.0
 10
-176.2811
 20
50.8225
 30
0.0
 10
-173.8287
 20
51.6219
 30
0.0
 10
-171.7221
 20
52.4055
 30
0.0
 10
-171.7221
 20
52.4055
 30
0.0
 10
-172.3105
 20
50.4409
 30
0.0
 10
-172.9427
 20
48.2514
 30
0.0
 10
-174.0014
 20
46.2989
 30
0.0
  0
SPLINE
  5
B4
330
1F
100
AcDbEntity
  8
layer 1
 62
     7
100
AcDbSpline
210
0.0
220
0.0
230
1.0
 70
    11
 71
     3
 72
    20
 73
    16
 74
     0
 42
0.0000000001
 43
0.0000000001
 12
1.0
 22
0.0
 32
0.0
 13
1.0
 23
0.0
 33
0.0
 40
0.0
 40
0.0
 40
0.0
 40
0.0
 40
0.2
 40
0.2
 40
0.2
 40
0.2
 40
0.4
 40
0.4
 40
0.4
 40
0.4
 40
0.6
 40
0.6
 40
0.6
 40
0.6
 40
1.0
 40
1.0
 40
1.0
 40
1.0
 10
-164.6336
 20
46.2989
 30
0.0
 10
-162.9068
 20
43.1708
 30
0.0
 10
-161.0835
 20
42.3948
 30
0.0
 10
-159.2169
 20
43.8142
 30
0.0
 10
-159.2169
 20
43.8142
 30
0.0
 10
-157.5317
 20
45.0956
 30
0.0
 10
-157.9989
 20
47.7729
 30
0.0
 10
-160.3552
 20
49.5173
 30
0.0
 10
-160.3552
 20
49.5173
 30
0.0
 10
-162.3539
 20
50.8225
 30
0.0
 10
-164.8063
 20
51.6219
 30
0.0
 10
-166.9129
 20
52.4055
 30
0.0
 10
-166.9129
 20
52.4055
 30
0.0
 10
-166.3245
 20
50.4409
 30
0.0
 10
-165.6923
 20
48.2514
 30
0.0
 10
-164.6336
 20
46.2989
 30
0.0
  0
SPLINE
  5
B5
330
1F
100
AcDbEntity
  8
layer 1
 62
     7
100
AcDbSpline
210
0.0
220
0.0
230
1.0
 70
    11
 71
     3
 72
    20
 73
    16
 74
     0
 42
0.0000000001
 43
0.0000000001
 12
1.0
 22
0.0
 32
0.0
 13
1.0
 23
0.0
 33
0.0
 40
0.0
 40
0.0
 40
0.0
 40
0.0
 40
0.2
 40
0.2
 40
0.2
 40
0.2
 40
0.4
 40
0.4
 40
0.4
 40
0.4
 40
0.6
 40
0.6
 40
0.6
 40
0.6
 40
1.0
 40
1.0
 40
1.0
 40
1.0
 10
-144.8103
 20
62.7783
 30
0.0
 10
-146.5371
 20
65.9064
 30
0.0
 10
-148.3604
 20
66.6824
 30
0.0
 10
-150.227
 20
65.263
 30
0.0
 10
-150.227
 20
65.263
 30
0.0
 10
-151.9122
 20
63.9816
 30
0.0
 10
-151.445
 20
61.3043
 30
0.0
 10
-149.0887
 20
59.5599
 30
0.0
 10
-149.0887
 20
59.5599
 30
0.0
 10
-147.09
 20
58.2547
 30
0.0
 10
-144.6376
 20
57.4553
 30
0.0
 10
-142.531
 20
56.6717
 30
0.0
 10
-142.531
 20
56.6717
 30
0.0
 10
-143.1194
 20
58.6363
 30
0.0
 10
-143.7516
 20
60.8258
 30
0.0
 10
-144.8103
 20
62.7783
 30
0.0
  0
SPLINE
  5
B6
330
1F
100
AcDbEntity
  8
layer 1
 62
     7
100
AcDbSpline
210
0.0
220
0.0
230
1.0
 70
    11
 71
     3
 72
    20
 73
    16
 74
     0
 42
0.0000000001
 43
0.0000000001
 12
1.0
 22
0.0
 32
0.0
 13
1.0
 23
0.0
 33
0.0
 40
0.0
 40
0.0
 40
0.0
 40
0.0
 40
0.2
 40
0.2
 40
0.2
 40
0.2
 40
0.4
 40
0.4
 40
0.4
 40
0.4
 40
0.6
 40
0.6
 40
0.6
 40
0.6
 40
1.0
 40
1.0
 40
1.0
 40
1.0
 10
-135.4425
 20
62.7783
 30
0.0
 10
-133.7157
 20
65.9064
 30
0.0
 10
-131.8924
 20
66.6824
 30
0.0
 10
-130.0258
 20
65.263
 30
0.0
 10
-130.0258
 20
65.263
 30
0.0
 10
-128.3406
 20
63.9816
 30
0.0
 10
-128.8078
 20
61.3043
 30
0.0
 10
-131.1641
 20
59.5599
 30
0.0
 10
-131.1641
 20
59.5599
 30
0.0
 10
-133.1628
 20
58.2547
 30
0.0
 10
-135.6152
 20
57.4553
 30
0.0
 10
-137.7218
 20
56.6717
 30
0.0
 10
-137.7218
 20
56.6717
 30
0.0
 10
-137.1334
 20
58.6363
 30
0.0
 10
-136.5012
 20
60.8258
 30
0.0
 10
-135.4425
 20
62.7783
 30
0.0
  0
SPLINE
  5
B7
330
1F
100
AcDbEntity
  8
layer 1
 62
     7
100
AcDbSpline
210
0.0
220
0.0
230
1.0
 70
    11
 71
     3
 72
    20
 73
    16
 74
     0
 42
0.0000000001
 43
0.0000000001
 12
1.0
 22
0.0
 32
0.0
 13
1.0
 23
0.0
 33
0.0
 40
0.0
 40
0.0
 40
0.0
 40
0.0
 40
0.2
 40
0.2
 40
0.2
 40
0.2
 40
0.4
 40
0.4
 40
0.4
 40
0.4
 40
0.6
 40
0.6
 40
0.6
 40
0.6
 40
1.0
 40
1.0
 40
1.0
 40
1.0
 10
-144.8103
 20
46.2989
 30
0.0
 10
-146.5371
 20
43.1708
 30
0.0
 10
-148.3604
 20
42.3948
 30
0.0
 10
-150.227
 20
43.8142
 30
0.0
 10
-150.227
 20
43.8142
 30
0.0
 10
-151.9122
 20
45.0956
 30
0.0
 10
-151.445
 20
47.7729
 30
0.0
 10
-149.0887
 20
49.5173
 30
0.0
 10
-149.0887
 20
49.5173
 30
0.0
 10
-147.09
 20
50.8225
 30
0.0
 10
-144.6376
 20
51.6219
 30
0.0
 10
-142.531
 20
52.4055
 30
0.0
 10
-142.531
 20
52.4055
 30
0.0
 10
-143.1194
 20
50.4409
 30
0.0
 10
-143.7516
 20
48.2514
 30
0.0
 10
-144.8103
 20
46.2989
 30
0.0
  0
SPLINE
  5
B8
330
1F
100
AcDbEntity
  8
layer 1
 62
     7
100
AcDbSpline
210
0.0
220
0.0
230
1.0
 70
    11
 71
     3
 72
    20
 73
    16
 74
     0
 42
0.0000000001
 43
0.0000000001
 12
1.0
 22
0.0
 32
0.0
 13
1.0
 23
0.0
 33
0.0
 40
0.0
 40
0.0
 40
0.0
 40
0.0
 40
0.2
 40
0.2
 40
0.2
 40
0.2
 40
0.4
 40
0.4
 40
0.4
 40
0.4
 40
0.6
 40
0.6
 40
0.6
 40
0.6
 40
1.0
 40
1.0
 40
1.0
 40
1.0
 10
-135.4425
 20
46.2989
 30
0.0
 10
-133.7157
 20
43.1708
 30
0.0
 10
-131.8924
 20
42.3948
 30
0.0
 10
-130.0258
 20
43.8142
 30
0.0
 10
-130.0258
 20
43.8142
 30
0.0
 10
-128.3406
 20
45.0956
 30
0.0
 10
-128.8078
 20
47.7729
 30
0.0
 10
-131.1641
 20
49.5173
 30
0.0
 10
-131.1641
 20
49.5173
 30
0.0
 10
-133.1628
 20
50.8225
 30
0.0
 10
-135.6152
 20
51.6219
 30
0.0
 10
-137.7218
 20
52.4055
 30
0.0
 10
-137.7218
 20
52.4055
 30
0.0
 10
-137.1334
 20
50.4409
 30
0.0
 10
-136.5012
 20
48.2514
 30
0.0
 10
-135.4425
 20
46.2989
 30
0.0
  0
SPLINE
  5
B9
330
1F
100
AcDbEntity
  8
layer 1
 62
     7
100
AcDbSpline
210
0.0
220
0.0
230
1.0
 70
    11
 71
     3
 72
    20
 73
    16
 74
     0
 42
0.0000000001
 43
0.0000000001
 12
1.0
 22
0.0
 32
0.0
 13
1.0
 23
0.0
 33
0.0
 40
0.0
 40
0.0
 40
0.0
 40
0.0
 40
0.2
 40
0.2
 40
0.2
 40
0.2
 40
0.4
 40
0.4
 40
0.4
 40
0.4
 40
0.6
 40
0.6
 40
0.6
 40
0.6
 40
1.0
 40
1.0
 40
1.0
 40
1.0
 10
-115.2675
 20
62.7783
 30
0.0
 10
-116.9943
 20
65.9064
 30
0.0
 10
-118.8177
 20
66.6824
 30
0.0
 10
-120.6842
 20
65.263
 30
0.0
 10
-120.6842
 20
65.263
 30
0.0
 10
-122.3694
 20
63.9816
 30
0.0
 10
-121.9023
 20
61.3043
 30
0.0
 10
-119.5459
 20
59.5599
 30
0.0
 10
-119.5459
 20
59.5599
 30
0.0
 10
-117.5473
 20
58.2547
 30
0.0
 10
-115.0948
 20
57.4553
 30
0.0
 10
-112.9882
 20
56.6717
 30
0.0
 10
-112.9882
 20
56.6717
 30
0.0
 10
-113.5766
 20
58.6363
 30
0.0
 10
-114.2088
 20
60.8258
 30
0.0
 10
-115.2675
 20
62.7783
 30
0.0
  0
SPLINE
  5
BA
330
1F
100
AcDbEntity
  8
layer 1
 62
     7
100
AcDbSpline
210
0.0
220
0.0
230
1.0
 70
    11
 71
     3
 72
    20
 73
    16
 74
     0
 42
0.0000000001
 43
0.0000000001
 12
1.0
 22
0.0
 32
0.0
 13
1.0
 23
0.0
 33
0.0
 40
0.0
 40
0.0
 40
0.0
 40
0.0
 40
0.2
 40
0.2
 40
0.2
 40
0.2
 40
0.4
 40
0.4
 40
0.4
 40
0.4
 40
0.6
 40
0.6
 40
0.6
 40
0.6
 40
1.0
 40
1.0
 40
1.0
 40
1.0
 10
-105.8998
 20
62.7783
 30
0.0
 10
-104.1729
 20
65.9064
 30
0.0
 10
-102.3496
 20
66.6824
 30
0.0
 10
-100.4831
 20
65.263
 30
0.0
 10
-100.4831
 20
65.263
 30
0.0
 10
-98.7979
 20
63.9816
 30
0.0
 10
-99.265
 20
61.3043
 30
0.0
 10
-101.6214
 20
59.5599
 30
0.0
 10
-101.6214
 20
59.5599
 30
0.0
 10
-103.62
 20
58.2547
 30
0.0
 10
-106.0725
 20
57.4553
 30
0.0
 10
-108.179
 20
56.6717
 30
0.0
 10
-108.179
 20
56.6717
 30
0.0
 10
-107.5906
 20
58.6363
 30
0.0
 10
-106.9585
 20
60.8258
 30
0.0
 10
-105.8998
 20
62.7783
 30
0.0
  0
SPLINE
  5
BB
330
1F
100
AcDbEntity
  8
layer 1
 62
     7
100
AcDbSpline
210
0.0
220
0.0
230
1.0
 70
    11
 71
     3
 72
    20
 73
    16
 74
     0
 42
0.0000000001
 43
0.0000000001
 12
1.0
 22
0.0
 32
0.0
 13
1.0
 23
0.0
 33
0.0
 40
0.0
 40
0.0
 40
0.0
 40
0.0
 40
0.2
 40
0.2
 40
0.2
 40
0.2
 40
0.4
 40
0.4
 40
0.4
 40
0.4
 40
0.6
 40
0.6
 40
0.6
 40
0.6
 40
1.0
 40
1.0
 40
1.0
 40
1.0
 10
-115.2675
 20
46.2989
 30
0.0
 10
-116.9943
 20
43.1708
 30
0.0
 10
-118.8177
 20
42.3948
 30
0.0
 10
-120.6842
 20
43.8142
 30
0.0
 10
-120.6842
 20
43.8142
 30
0.0
 10
-122.3694
 20
45.0956
 30
0.0
 10
-121.9023
 20
47.7729
 30
0.0
 10
-119.5459
 20
49.5173
 30
0.0
 10
-119.5459
 20
49.5173
 30
0.0
 10
-117.5473
 20
50.8225
 30
0.0
 10
-115.0948
 20
51.6219
 30
0.0
 10
-112.9882
 20
52.4055
 30
0.0
 10
-112.9882
 20
52.4055
 30
0.0
 10
-113.5766
 20
50.4409
 30
0.0
 10
-114.2088
 20
48.2514
 30
0.0
 10
-115.2675
 20
46.2989
 30
0.0
  0
SPLINE
  5
BC
330
1F
100
AcDbEntity
  8
layer 1
 62
     7
100
AcDbSpline
210
0.0
220
0.0
230
1.0
 70
    11
 71
     3
 72
    20
 73
    16
 74
     0
 42
0.0000000001
 43
0.0000000001
 12
1.0
 22
0.0
 32
0.0
 13
1.0
 23
0.0
 33
0.0
 40
0.0
 40
0.0
 40
0.0
 40
0.0
 40
0.2
 40
0.2
 40
0.2
 40
0.2
 40
0.4
 40
0.4
 40
0.4
 40
0.4
 40
0.6
 40
0.6
 40
0.6
 40
0.6
 40
1.0
 40
1.0
 40
1.0
 40
1.0
 10
-105.8998
 20
46.2989
 30
0.0
 10
-104.1729
 20
43.1708
 30
0.0
 10
-102.3496
 20
42.3948
 30
0.0
 10
-100.4831
 20
43.8142
 30
0.0
 10
-100.4831
 20
43.8142
 30
0.0
 10
-98.7979
 20
45.0956
 30
0.0
 10
-99.265
 20
47.7729
 30
0.0
 10
-101.6214
 20
49.5173
 30
0.0
 10
-101.6214
 20
49.5173
 30
0.0
 10
-103.62
 20
50.8225
 30
0.0
 10
-106.0725
 20
51.6219
 30
0.0
 10
-108.179
 20
52.4055
 30
0.0
 10
-108.179
 20
52.4055
 30
0.0
 10
-107.5906
 20
50.4409
 30
0.0
 10
-106.9585
 20
48.2514
 30
0.0
 10
-105.8998
 20
46.2989
 30
0.0
  0
SPLINE
  5
BD
330
1F
100
AcDbEntity
  8
layer 1
 62
     7
100
AcDbSpline
210
0.0
220
0.0
230
1.0
 70
    11
 71
     3
 72
    20
 73
    16
 74
     0
 42
0.0000000001
 43
0.0000000001
 12
1.0
 22
0.0
 32
0.0
 13
1.0
 23
0.0
 33
0.0
 40
0.0
 40
0.0
 40
0.0
 40
0.0
 40
0.2
 40
0.2
 40
0.2
 40
0.2
 40
0.4
 40
0.4
 40
0.4
 40
0.4
 40
0.6
 40
0.6
 40
0.6
 40
0.6
 40
1.0
 40
1.0
 40
1.0
 40
1.0
 10
-86.3109
 20
62.7783
 30
0.0
 10
-88.0377
 20
65.9064
 30
0.0
 10
-89.861
 20
66.6824
 30
0.0
 10
-91.7276
 20
65.263
 30
0.0
 10
-91.7276
 20
65.263
 30
0.0
 10
-93.4128
 20
63.9816
 30
0.0
 10
-92.9457
 20
61.3043
 30
0.0
 10
-90.5893
 20
59.5599
 30
0.0
 10
-90.5893
 20
59.5599
 30
0.0
 10
-88.5907
 20
58.2547
 30
0.0
 10
-86.1382
 20
57.4553
 30
0.0
 10
-84.0316
 20
56.6717
 30
0.0
 10
-84.0316
 20
56.6717
 30
0.0
 10
-84.62
 20
58.6363
 30
0.0
 10
-85.2522
 20
60.8258
 30
0.0
 10
-86.3109
 20
62.7783
 30
0.0
  0
SPLINE
  5
BE
330
1F
100
AcDbEntity
  8
layer 1
 62
     7
100
AcDbSpline
210
0.0
220
0.0
230
1.0
 70
    11
 71
     3
 72
    20
 73
    16
 74
     0
 42
0.0000000001
 43
0.0000000001
 12
1.0
 22
0.0
 32
0.0
 13
1.0
 23
0.0
 33
0.0
 40
0.0
 40
0.0
 40
0.0
 40
0.0
 40
0.2
 40
0.2
 40
0.2
 40
0.2
 40
0.4
 40
0.4
 40
0.4
 40
0.4
 40
0.6
 40
0.6
 40
0.6
 40
0.6
 40
1.0
 40
1.0
 40
1.0
 40
1.0
 10
-76.9432
 20
62.7783
 30
0.0
 10
-75.2163
 20
65.9064
 30
0.0
 10
-73.393
 20
66.6824
 30
0.0
 10
-71.5265
 20
65.263
 30
0.0
 10
-71.5265
 20
65.263
 30
0.0
 10
-69.8413
 20
63.9816
 30
0.0
 10
-70.3084
 20
61.3043
 30
0.0
 10
-72.6648
 20
59.5599
 30
0.0
 10
-72.6648
 20
59.5599
 30
0.0
 10
-74.6634
 20
58.2547
 30
0.0
 10
-77.1158
 20
57.4553
 30
0.0
 10
-79.2224
 20
56.6717
 30
0.0
 10
-79.2224
 20
56.6717
 30
0.0
 10
-78.634
 20
58.6363
 30
0.0
 10
-78.0019
 20
60.8258
 30
0.0
 10
-76.9432
 20
62.7783
 30
0.0
  0
SPLINE
  5
BF
330
1F
100
AcDbEntity
  8
layer 1
 62
     7
100
AcDbSpline
210
0.0
220
0.0
230
1.0
 70
    11
 71
     3
 72
    20
 73
    16
 74
     0
 42
0.0000000001
 43
0.0000000001
 12
1.0
 22
0.0
 32
0.0
 13
1.0
 23
0.0
 33
0.0
 40
0.0
 40
0.0
 40
0.0
 40
0.0
 40
0.2
 40
0.2
 40
0.2
 40
0.2
 40
0.4
 40
0.4
 40
0.4
 40
0.4
 40
0.6
 40
0.6
 40
0.6
 40
0.6
 40
1.0
 40
1.0
 40
1.0
 40
1.0
 10
-86.3109
 20
46.2989
 30
0.0
 10
-88.0377
 20
43.1708
 30
0.0
 10
-89.861
 20
42.3948
 30
0.0
 10
-91.7276
 20
43.8142
 30
0.0
 10
-91.7276
 20
43.8142
 30
0.0
 10
-93.4128
 20
45.0956
 30
0.0
 10
-92.9457
 20
47.7729
 30
0.0
 10
-90.5893
 20
49.5173
 30
0.0
 10
-90.5893
 20
49.5173
 30
0.0
 10
-88.5907
 20
50.8225
 30
0.0
 10
-86.1382
 20
51.6219
 30
0.0
 10
-84.0316
 20
52.4055
 30
0.0
 10
-84.0316
 20
52.4055
 30
0.0
 10
-84.62
 20
50.4409
 30
0.0
 10
-85.2522
 20
48.2514
 30
0.0
 10
-86.3109
 20
46.2989
 30
0.0
  0
SPLINE
  5
C0
330
1F
100
AcDbEntity
  8
layer 1
 62
     7
100
AcDbSpline
210
0.0
220
0.0
230
1.0
 70
    11
 71
     3
 72
    20
 73
    16
 74
     0
 42
0.0000000001
 43
0.0000000001
 12
1.0
 22
0.0
 32
0.0
 13
1.0
 23
0.0
 33
0.0
 40
0.0
 40
0.0
 40
0.0
 40
0.0
 40
0.2
 40
0.2
 40
0.2
 40
0.2
 40
0.4
 40
0.4
 40
0.4
 40
0.4
 40
0.6
 40
0.6
 40
0.6
 40
0.6
 40
1.0
 40
1.0
 40
1.0
 40
1.0
 10
-76.9432
 20
46.2989
 30
0.0
 10
-75.2163
 20
43.1708
 30
0.0
 10
-73.393
 20
42.3948
 30
0.0
 10
-71.5265
 20
43.8142
 30
0.0
 10
-71.5265
 20
43.8142
 30
0.0
 10
-69.8413
 20
45.0956
 30
0.0
 10
-70.3084
 20
47.7729
 30
0.0
 10
-72.6648
 20
49.5173
 30
0.0
 10
-72.6648
 20
49.5173
 30
0.0
 10
-74.6634
 20
50.8225
 30
0.0
 10
-77.1158
 20
51.6219
 30
0.0
 10
-79.2224
 20
52.4055
 30
0.0
 10
-79.2224
 20
52.4055
 30
0.0
 10
-78.634
 20
50.4409
 30
0.0
 10
-78.0019
 20
48.2514
 30
0.0
 10
-76.9432
 20
46.2989
 30
0.0
  0
SPLINE
  5
C1
330
1F
100
AcDbEntity
  8
layer 1
 62
     7
100
AcDbSpline
210
0.0
220
0.0
230
1.0
 70
    11
 71
     3
 72
    20
 73
    16
 74
     0
 42
0.0000000001
 43
0.0000000001
 12
1.0
 22
0.0
 32
0.0
 13
1.0
 23
0.0
 33
0.0
 40
0.0
 40
0.0
 40
0.0
 40
0.0
 40
0.2
 40
0.2
 40
0.2
 40
0.2
 40
0.4
 40
0.4
 40
0.4
 40
0.4
 40
0.6
 40
0.6
 40
0.6
 40
0.6
 40
1.0
 40
1.0
 40
1.0
 40
1.0
 10
-150.4321
 20
54.5159
 30
0.0
 10
-150.4321
 20
52.301
 30
0.0
 10
-152.2277
 20
50.5054
 30
0.0
 10
-154.4426
 20
50.5054
 30
0.0
 10
-154.4426
 20
50.5054
 30
0.0
 10
-156.6576
 20
50.5054
 30
0.0
 10
-158.4532
 20
52.301
 30
0.0
 10
-158.4532
 20
54.5159
 30
0.0
 10
-158.4532
 20
54.5159
 30
0.0
 10
-158.4532
 20
56.7309
 30
0.0
 10
-156.6576
 20
58.5265
 30
0.0
 10
-154.4426
 20
58.5265
 30
0.0
 10
-154.4426
 20
58.5265
 30
0.0
 10
-152.2277
 20
58.5265
 30
0.0
 10
-150.4321
 20
56.7309
 30
0.0
 10
-150.4321
 20
54.5159
 30
0.0
  0
SPLINE
  5
C2
330
1F
100
AcDbEntity
  8
layer 1
 62
     7
100
AcDbSpline
210
0.0
220
0.0
230
1.0
 70
    11
 71
     3
 72
    20
 73
    16
 74
     0
 42
0.0000000001
 43
0.0000000001
 12
1.0
 22
0.0
 32
0.0
 13
1.0
 23
0.0
 33
0.0
 40
0.0
 40
0.0
 40
0.0
 40
0.0
 40
0.2
 40
0.2
 40
0.2
 40
0.2
 40
0.4
 40
0.4
 40
0.4
 40
0.4
 40
0.6
 40
0.6
 40
0.6
 40
0.6
 40
1.0
 40
1.0
 40
1.0
 40
1.0
 10
-121.2698
 20
54.5159
 30
0.0
 10
-121.2698
 20
52.301
 30
0.0
 10
-123.0655
 20
50.5054
 30
0.0
 10
-125.2804
 20
50.5054
 30
0.0
 10
-125.2804
 20
50.5054
 30
0.0
 10
-127.4953
 20
50.5054
 30
0.0
 10
-129.291
 20
52.301
 30
0.0
 10
-129.291
 20
54.5159
 30
0.0
 10
-129.291
 20
54.5159
 30
0.0
 10
-129.291
 20
56.7309
 30
0.0
 10
-127.4953
 20
58.5265
 30
0.0
 10
-125.2804
 20
58.5265
 30
0.0
 10
-125.2804
 20
58.5265
 30
0.0
 10
-123.0655
 20
58.5265
 30
0.0
 10
-121.2698
 20
56.7309
 30
0.0
 10
-121.2698
 20
54.5159
 30
0.0
  0
SPLINE
  5
C3
330
1F
100
AcDbEntity
  8
layer 1
 62
     7
100
AcDbSpline
210
0.0
220
0.0
230
1.0
 70
    11
 71
     3
 72
    20
 73
    16
 74
     0
 42
0.0000000001
 43
0.0000000001
 12
1.0
 22
0.0
 32
0.0
 13
1.0
 23
0.0
 33
0.0
 40
0.0
 40
0.0
 40
0.0
 40
0.0
 40
0.2
 40
0.2
 40
0.2
 40
0.2
 40
0.4
 40
0.4
 40
0.4
 40
0.4
 40
0.6
 40
0.6
 40
0.6
 40
0.6
 40
1.0
 40
1.0
 40
1.0
 40
1.0
 10
-91.8862
 20
54.5159
 30
0.0
 10
-91.8862
 20
52.301
 30
0.0
 10
-93.6818
 20
50.5054
 30
0.0
 10
-95.8967
 20
50.5054
 30
0.0
 10
-95.8967
 20
50.5054
 30
0.0
 10
-98.1117
 20
50.5054
 30
0.0
 10
-99.9073
 20
52.301
 30
0.0
 10
-99.9073
 20
54.5159
 30
0.0
 10
-99.9073
 20
54.5159
 30
0.0
 10
-99.9073
 20
56.7309
 30
0.0
 10
-98.1117
 20
58.5265
 30
0.0
 10
-95.8967
 20
58.5265
 30
0.0
 10
-95.8967
 20
58.5265
 30
0.0
 10
-93.6818
 20
58.5265
 30
0.0
 10
-91.8862
 20
56.7309
 30
0.0
 10
-91.8862
 20
54.5159
 30
0.0
  0
SPLINE
  5
C4
330
1F
100
AcDbEntity
  8
layer 1
 62
     7
100
AcDbSpline
210
0.0
220
0.0
230
1.0
 70
    11
 71
     3
 72
    20
 73
    16
 74
     0
 42
0.0000000001
 43
0.0000000001
 12
1.0
 22
0.0
 32
0.0
 13
1.0
 23
0.0
 33
0.0
 40
0.0
 40
0.0
 40
0.0
 40
0.0
 40
0.2
 40
0.2
 40
0.2
 40
0.2
 40
0.4
 40
0.4
 40
0.4
 40
0.4
 40
0.6
 40
0.6
 40
0.6
 40
0.6
 40
1.0
 40
1.0
 40
1.0
 40
1.0
 10
-174.0014
 20
93.6107
 30
0.0
 10
-175.7282
 20
96.7388
 30
0.0
 10
-177.5515
 20
97.5147
 30
0.0
 10
-179.4181
 20
96.0954
 30
0.0
 10
-179.4181
 20
96.0954
 30
0.0
 10
-181.1033
 20
94.814
 30
0.0
 10
-180.6361
 20
92.1367
 30
0.0
 10
-178.2798
 20
90.3923
 30
0.0
 10
-178.2798
 20
90.3923
 30
0.0
 10
-176.2811
 20
89.0871
 30
0.0
 10
-173.8287
 20
88.2877
 30
0.0
 10
-171.7221
 20
87.5041
 30
0.0
 10
-171.7221
 20
87.5041
 30
0.0
 10
-172.3105
 20
89.4687
 30
0.0
 10
-172.9427
 20
91.6582
 30
0.0
 10
-174.0014
 20
93.6107
 30
0.0
  0
SPLINE
  5
C5
330
1F
100
AcDbEntity
  8
layer 1
 62
     7
100
AcDbSpline
210
0.0
220
0.0
230
1.0
 70
    11
 71
     3
 72
    20
 73
    16
 74
     0
 42
0.0000000001
 43
0.0000000001
 12
1.0
 22
0.0
 32
0.0
 13
1.0
 23
0.0
 33
0.0
 40
0.0
 40
0.0
 40
0.0
 40
0.0
 40
0.2
 40
0.2
 40
0.2
 40
0.2
 40
0.4
 40
0.4
 40
0.4
 40
0.4
 40
0.6
 40
0.6
 40
0.6
 40
0.6
 40
1.0
 40
1.0
 40
1.0
 40
1.0
 10
-164.6336
 20
93.6107
 30
0.0
 10
-162.9068
 20
96.7388
 30
0.0
 10
-161.0835
 20
97.5147
 30
0.0
 10
-159.2169
 20
96.0954
 30
0.0
 10
-159.2169
 20
96.0954
 30
0.0
 10
-157.5317
 20
94.814
 30
0.0
 10
-157.9989
 20
92.1367
 30
0.0
 10
-160.3552
 20
90.3923
 30
0.0
 10
-160.3552
 20
90.3923
 30
0.0
 10
-162.3539
 20
89.0871
 30
0.0
 10
-164.8063
 20
88.2877
 30
0.0
 10
-166.9129
 20
87.5041
 30
0.0
 10
-166.9129
 20
87.5041
 30
0.0
 10
-166.3245
 20
89.4687
 30
0.0
 10
-165.6923
 20
91.6582
 30
0.0
 10
-164.6336
 20
93.6107
 30
0.0
  0
SPLINE
  5
C6
330
1F
100
AcDbEntity
  8
layer 1
 62
     7
100
AcDbSpline
210
0.0
220
0.0
230
1.0
 70
    11
 71
     3
 72
    20
 73
    16
 74
     0
 42
0.0000000001
 43
0.0000000001
 12
1.0
 22
0.0
 32
0.0
 13
1.0
 23
0.0
 33
0.0
 40
0.0
 40
0.0
 40
0.0
 40
0.0
 40
0.2
 40
0.2
 40
0.2
 40
0.2
 40
0.4
 40
0.4
 40
0.4
 40
0.4
 40
0.6
 40
0.6
 40
0.6
 40
0.6
 40
1.0
 40
1.0
 40
1.0
 40
1.0
 10
-174.0014
 20
77.1313
 30
0.0
 10
-175.7282
 20
74.0032
 30
0.0
 10
-177.5515
 20
73.2272
 30
0.0
 10
-179.4181
 20
74.6466
 30
0.0
 10
-179.4181
 20
74.6466
 30
0.0
 10
-181.1033
 20
75.928
 30
0.0
 10
-180.6361
 20
78.6053
 30
0.0
 10
-178.2798
 20
80.3497
 30
0.0
 10
-178.2798
 20
80.3497
 30
0.0
 10
-176.2811
 20
81.6549
 30
0.0
 10
-173.8287
 20
82.4543
 30
0.0
 10
-171.7221
 20
83.2379
 30
0.0
 10
-171.7221
 20
83.2379
 30
0.0
 10
-172.3105
 20
81.2733
 30
0.0
 10
-172.9427
 20
79.0838
 30
0.0
 10
-174.0014
 20
77.1313
 30
0.0
  0
SPLINE
  5
C7
330
1F
100
AcDbEntity
  8
layer 1
 62
     7
100
AcDbSpline
210
0.0
220
0.0
230
1.0
 70
    11
 71
     3
 72
    20
 73
    16
 74
     0
 42
0.0000000001
 43
0.0000000001
 12
1.0
 22
0.0
 32
0.0
 13
1.0
 23
0.0
 33
0.0
 40
0.0
 40
0.0
 40
0.0
 40
0.0
 40
0.2
 40
0.2
 40
0.2
 40
0.2
 40
0.4
 40
0.4
 40
0.4
 40
0.4
 40
0.6
 40
0.6
 40
0.6
 40
0.6
 40
1.0
 40
1.0
 40
1.0
 40
1.0
 10
-164.6336
 20
77.1313
 30
0.0
 10
-162.9068
 20
74.0032
 30
0.0
 10
-161.0835
 20
73.2272
 30
0.0
 10
-159.2169
 20
74.6466
 30
0.0
 10
-159.2169
 20
74.6466
 30
0.0
 10
-157.5317
 20
75.928
 30
0.0
 10
-157.9989
 20
78.6053
 30
0.0
 10
-160.3552
 20
80.3497
 30
0.0
 10
-160.3552
 20
80.3497
 30
0.0
 10
-162.3539
 20
81.6549
 30
0.0
 10
-164.8063
 20
82.4543
 30
0.0
 10
-166.9129
 20
83.2379
 30
0.0
 10
-166.9129
 20
83.2379
 30
0.0
 10
-166.3245
 20
81.2733
 30
0.0
 10
-165.6923
 20
79.0838
 30
0.0
 10
-164.6336
 20
77.1313
 30
0.0
  0
SPLINE
  5
C8
330
1F
100
AcDbEntity
  8
layer 1
 62
     7
100
AcDbSpline
210
0.0
220
0.0
230
1.0
 70
    11
 71
     3
 72
    20
 73
    16
 74
     0
 42
0.0000000001
 43
0.0000000001
 12
1.0
 22
0.0
 32
0.0
 13
1.0
 23
0.0
 33
0.0
 40
0.0
 40
0.0
 40
0.0
 40
0.0
 40
0.2
 40
0.2
 40
0.2
 40
0.2
 40
0.4
 40
0.4
 40
0.4
 40
0.4
 40
0.6
 40
0.6
 40
0.6
 40
0.6
 40
1.0
 40
1.0
 40
1.0
 40
1.0
 10
-144.8103
 20
93.6107
 30
0.0
 10
-146.5371
 20
96.7388
 30
0.0
 10
-148.3604
 20
97.5147
 30
0.0
 10
-150.227
 20
96.0954
 30
0.0
 10
-150.227
 20
96.0954
 30
0.0
 10
-151.9122
 20
94.814
 30
0.0
 10
-151.445
 20
92.1367
 30
0.0
 10
-149.0887
 20
90.3923
 30
0.0
 10
-149.0887
 20
90.3923
 30
0.0
 10
-147.09
 20
89.0871
 30
0.0
 10
-144.6376
 20
88.2877
 30
0.0
 10
-142.531
 20
87.5041
 30
0.0
 10
-142.531
 20
87.5041
 30
0.0
 10
-143.1194
 20
89.4687
 30
0.0
 10
-143.7516
 20
91.6582
 30
0.0
 10
-144.8103
 20
93.6107
 30
0.0
  0
SPLINE
  5
C9
330
1F
100
AcDbEntity
  8
layer 1
 62
     7
100
AcDbSpline
210
0.0
220
0.0
230
1.0
 70
    11
 71
     3
 72
    20
 73
    16
 74
     0
 42
0.0000000001
 43
0.0000000001
 12
1.0
 22
0.0
 32
0.0
 13
1.0
 23
0.0
 33
0.0
 40
0.0
 40
0.0
 40
0.0
 40
0.0
 40
0.2
 40
0.2
 40
0.2
 40
0.2
 40
0.4
 40
0.4
 40
0.4
 40
0.4
 40
0.6
 40
0.6
 40
0.6
 40
0.6
 40
1.0
 40
1.0
 40
1.0
 40
1.0
 10
-135.4425
 20
93.6107
 30
0.0
 10
-133.7157
 20
96.7388
 30
0.0
 10
-131.8924
 20
97.5147
 30
0.0
 10
-130.0258
 20
96.0954
 30
0.0
 10
-130.0258
 20
96.0954
 30
0.0
 10
-128.3406
 20
94.814
 30
0.0
 10
-128.8078
 20
92.1367
 30
0.0
 10
-131.1641
 20
90.3923
 30
0.0
 10
-131.1641
 20
90.3923
 30
0.0
 10
-133.1628
 20
89.0871
 30
0.0
 10
-135.6152
 20
88.2877
 30
0.0
 10
-137.7218
 20
87.5041
 30
0.0
 10
-137.7218
 20
87.5041
 30
0.0
 10
-137.1334
 20
89.4687
 30
0.0
 10
-136.5012
 20
91.6582
 30
0.0
 10
-135.4425
 20
93.6107
 30
0.0
  0
SPLINE
  5
CA
330
1F
100
AcDbEntity
  8
layer 1
 62
     7
100
AcDbSpline
210
0.0
220
0.0
230
1.0
 70
    11
 71
     3
 72
    20
 73
    16
 74
     0
 42
0.0000000001
 43
0.0000000001
 12
1.0
 22
0.0
 32
0.0
 13
1.0
 23
0.0
 33
0.0
 40
0.0
 40
0.0
 40
0.0
 40
0.0
 40
0.2
 40
0.2
 40
0.2
 40
0.2
 40
0.4
 40
0.4
 40
0.4
 40
0.4
 40
0.6
 40
0.6
 40
0.6
 40
0.6
 40
1.0
 40
1.0
 40
1.0
 40
1.0
 10
-144.8103
 20
77.1313
 30
0.0
 10
-146.5371
 20
74.0032
 30
0.0
 10
-148.3604
 20
73.2272
 30
0.0
 10
-150.227
 20
74.6466
 30
0.0
 10
-150.227
 20
74.6466
 30
0.0
 10
-151.9122
 20
75.928
 30
0.0
 10
-151.445
 20
78.6053
 30
0.0
 10
-149.0887
 20
80.3497
 30
0.0
 10
-149.0887
 20
80.3497
 30
0.0
 10
-147.09
 20
81.6549
 30
0.0
 10
-144.6376
 20
82.4543
 30
0.0
 10
-142.531
 20
83.2379
 30
0.0
 10
-142.531
 20
83.2379
 30
0.0
 10
-143.1194
 20
81.2733
 30
0.0
 10
-143.7516
 20
79.0838
 30
0.0
 10
-144.8103
 20
77.1313
 30
0.0
  0
SPLINE
  5
CB
330
1F
100
AcDbEntity
  8
layer 1
 62
     7
100
AcDbSpline
210
0.0
220
0.0
230
1.0
 70
    11
 71
     3
 72
    20
 73
    16
 74
     0
 42
0.0000000001
 43
0.0000000001
 12
1.0
 22
0.0
 32
0.0
 13
1.0
 23
0.0
 33
0.0
 40
0.0
 40
0.0
 40
0.0
 40
0.0
 40
0.2
 40
0.2
 40
0.2
 40
0.2
 40
0.4
 40
0.4
 40
0.4
 40
0.4
 40
0.6
 40
0.6
 40
0.6
 40
0.6
 40
1.0
 40
1.0
 40
1.0
 40
1.0
 10
-135.4425
 20
77.1313
 30
0.0
 10
-133.7157
 20
74.0032
 30
0.0
 10
-131.8924
 20
73.2272
 30
0.0
 10
-130.0258
 20
74.6466
 30
0.0
 10
-130.0258
 20
74.6466
 30
0.0
 10
-128.3406
 20
75.928
 30
0.0
 10
-128.8078
 20
78.6053
 30
0.0
 10
-131.1641
 20
80.3497
 30
0.0
 10
-131.1641
 20
80.3497
 30
0.0
 10
-133.1628
 20
81.6549
 30
0.0
 10
-135.6152
 20
82.4543
 30
0.0
 10
-137.7218
 20
83.2379
 30
0.0
 10
-137.7218
 20
83.2379
 30
0.0
 10
-137.1334
 20
81.2733
 30
0.0
 10
-136.5012
 20
79.0838
 30
0.0
 10
-135.4425
 20
77.1313
 30
0.0
  0
SPLINE
  5
CC
330
1F
100
AcDbEntity
  8
layer 1
 62
     7
100
AcDbSpline
210
0.0
220
0.0
230
1.0
 70
    11
 71
     3
 72
    20
 73
    16
 74
     0
 42
0.0000000001
 43
0.0000000001
 12
1.0
 22
0.0
 32
0.0
 13
1.0
 23
0.0
 33
0.0
 40
0.0
 40
0.0
 40
0.0
 40
0.0
 40
0.2
 40
0.2
 40
0.2
 40
0.2
 40
0.4
 40
0.4
 40
0.4
 40
0.4
 40
0.6
 40
0.6
 40
0.6
 40
0.6
 40
1.0
 40
1.0
 40
1.0
 40
1.0
 10
-115.2675
 20
93.6107
 30
0.0
 10
-116.9943
 20
96.7388
 30
0.0
 10
-118.8177
 20
97.5147
 30
0.0
 10
-120.6842
 20
96.0954
 30
0.0
 10
-120.6842
 20
96.0954
 30
0.0
 10
-122.3694
 20
94.814
 30
0.0
 10
-121.9023
 20
92.1367
 30
0.0
 10
-119.5459
 20
90.3923
 30
0.0
 10
-119.5459
 20
90.3923
 30
0.0
 10
-117.5473
 20
89.0871
 30
0.0
 10
-115.0948
 20
88.2877
 30
0.0
 10
-112.9882
 20
87.5041
 30
0.0
 10
-112.9882
 20
87.5041
 30
0.0
 10
-113.5766
 20
89.4687
 30
0.0
 10
-114.2088
 20
91.6582
 30
0.0
 10
-115.2675
 20
93.6107
 30
0.0
  0
SPLINE
  5
CD
330
1F
100
AcDbEntity
  8
layer 1
 62
     7
100
AcDbSpline
210
0.0
220
0.0
230
1.0
 70
    11
 71
     3
 72
    20
 73
    16
 74
     0
 42
0.0000000001
 43
0.0000000001
 12
1.0
 22
0.0
 32
0.0
 13
1.0
 23
0.0
 33
0.0
 40
0.0
 40
0.0
 40
0.0
 40
0.0
 40
0.2
 40
0.2
 40
0.2
 40
0.2
 40
0.4
 40
0.4
 40
0.4
 40
0.4
 40
0.6
 40
0.6
 40
0.6
 40
0.6
 40
1.0
 40
1.0
 40
1.0
 40
1.0
 10
-105.8998
 20
93.6107
 30
0.0
 10
-104.1729
 20
96.7388
 30
0.0
 10
-102.3496
 20
97.5147
 30
0.0
 10
-100.4831
 20
96.0954
 30
0.0
 10
-100.4831
 20
96.0954
 30
0.0
 10
-98.7979
 20
94.814
 30
0.0
 10
-99.265
 20
92.1367
 30
0.0
 10
-101.6214
 20
90.3923
 30
0.0
 10
-101.6214
 20
90.3923
 30
0.0
 10
-103.62
 20
89.0871
 30
0.0
 10
-106.0725
 20
88.2877
 30
0.0
 10
-108.179
 20
87.5041
 30
0.0
 10
-108.179
 20
87.5041
 30
0.0
 10
-107.5906
 20
89.4687
 30
0.0
 10
-106.9585
 20
91.6582
 30
0.0
 10
-105.8998
 20
93.6107
 30
0.0
  0
SPLINE
  5
CE
330
1F
100
AcDbEntity
  8
layer 1
 62
     7
100
AcDbSpline
210
0.0
220
0.0
230
1.0
 70
    11
 71
     3
 72
    20
 73
    16
 74
     0
 42
0.0000000001
 43
0.0000000001
 12
1.0
 22
0.0
 32
0.0
 13
1.0
 23
0.0
 33
0.0
 40
0.0
 40
0.0
 40
0.0
 40
0.0
 40
0.2
 40
0.2
 40
0.2
 40
0.2
 40
0.4
 40
0.4
 40
0.4
 40
0.4
 40
0.6
 40
0.6
 40
0.6
 40
0.6
 40
1.0
 40
1.0
 40
1.0
 40
1.0
 10
-115.2675
 20
77.1313
 30
0.0
 10
-116.9943
 20
74.0032
 30
0.0
 10
-118.8177
 20
73.2272
 30
0.0
 10
-120.6842
 20
74.6466
 30
0.0
 10
-120.6842
 20
74.6466
 30
0.0
 10
-122.3694
 20
75.928
 30
0.0
 10
-121.9023
 20
78.6053
 30
0.0
 10
-119.5459
 20
80.3497
 30
0.0
 10
-119.5459
 20
80.3497
 30
0.0
 10
-117.5473
 20
81.6549
 30
0.0
 10
-115.0948
 20
82.4543
 30
0.0
 10
-112.9882
 20
83.2379
 30
0.0
 10
-112.9882
 20
83.2379
 30
0.0
 10
-113.5766
 20
81.2733
 30
0.0
 10
-114.2088
 20
79.0838
 30
0.0
 10
-115.2675
 20
77.1313
 30
0.0
  0
SPLINE
  5
CF
330
1F
100
AcDbEntity
  8
layer 1
 62
     7
100
AcDbSpline
210
0.0
220
0.0
230
1.0
 70
    11
 71
     3
 72
    20
 73
    16
 74
     0
 42
0.0000000001
 43
0.0000000001
 12
1.0
 22
0.0
 32
0.0
 13
1.0
 23
0.0
 33
0.0
 40
0.0
 40
0.0
 40
0.0
 40
0.0
 40
0.2
 40
0.2
 40
0.2
 40
0.2
 40
0.4
 40
0.4
 40
0.4
 40
0.4
 40
0.6
 40
0.6
 40
0.6
 40
0.6
 40
1.0
 40
1.0
 40
1.0
 40
1.0
 10
-105.8998
 20
77.1313
 30
0.0
 10
-104.1729
 20
74.0032
 30
0.0
 10
-102.3496
 20
73.2272
 30
0.0
 10
-100.4831
 20
74.6466
 30
0.0
 10
-100.4831
 20
74.6466
 30
0.0
 10
-98.7979
 20
75.928
 30
0.0
 10
-99.265
 20
78.6053
 30
0.0
 10
-101.6214
 20
80.3497
 30
0.0
 10
-101.6214
 20
80.3497
 30
0.0
 10
-103.62
 20
81.6549
 30
0.0
 10
-106.0725
 20
82.4543
 30
0.0
 10
-108.179
 20
83.2379
 30
0.0
 10
-108.179
 20
83.2379
 30
0.0
 10
-107.5906
 20
81.2733
 30
0.0
 10
-106.9585
 20
79.0838
 30
0.0
 10
-105.8998
 20
77.1313
 30
0.0
  0
SPLINE
  5
D0
330
1F
100
AcDbEntity
  8
layer 1
 62
     7
100
AcDbSpline
210
0.0
220
0.0
230
1.0
 70
    11
 71
     3
 72
    20
 73
    16
 74
     0
 42
0.0000000001
 43
0.0000000001
 12
1.0
 22
0.0
 32
0.0
 13
1.0
 23
0.0
 33
0.0
 40
0.0
 40
0.0
 40
0.0
 40
0.0
 40
0.2
 40
0.2
 40
0.2
 40
0.2
 40
0.4
 40
0.4
 40
0.4
 40
0.4
 40
0.6
 40
0.6
 40
0.6
 40
0.6
 40
1.0
 40
1.0
 40
1.0
 40
1.0
 10
-86.3109
 20
93.6107
 30
0.0
 10
-88.0377
 20
96.7388
 30
0.0
 10
-89.861
 20
97.5147
 30
0.0
 10
-91.7276
 20
96.0954
 30
0.0
 10
-91.7276
 20
96.0954
 30
0.0
 10
-93.4128
 20
94.814
 30
0.0
 10
-92.9457
 20
92.1367
 30
0.0
 10
-90.5893
 20
90.3923
 30
0.0
 10
-90.5893
 20
90.3923
 30
0.0
 10
-88.5907
 20
89.0871
 30
0.0
 10
-86.1382
 20
88.2877
 30
0.0
 10
-84.0316
 20
87.5041
 30
0.0
 10
-84.0316
 20
87.5041
 30
0.0
 10
-84.62
 20
89.4687
 30
0.0
 10
-85.2522
 20
91.6582
 30
0.0
 10
-86.3109
 20
93.6107
 30
0.0
  0
SPLINE
  5
D1
330
1F
100
AcDbEntity
  8
layer 1
 62
     7
100
AcDbSpline
210
0.0
220
0.0
230
1.0
 70
    11
 71
     3
 72
    20
 73
    16
 74
     0
 42
0.0000000001
 43
0.0000000001
 12
1.0
 22
0.0
 32
0.0
 13
1.0
 23
0.0
 33
0.0
 40
0.0
 40
0.0
 40
0.0
 40
0.0
 40
0.2
 40
0.2
 40
0.2
 40
0.2
 40
0.4
 40
0.4
 40
0.4
 40
0.4
 40
0.6
 40
0.6
 40
0.6
 40
0.6
 40
1.0
 40
1.0
 40
1.0
 40
1.0
 10
-76.9432
 20
93.6107
 30
0.0
 10
-75.2163
 20
96.7388
 30
0.0
 10
-73.393
 20
97.5147
 30
0.0
 10
-71.5265
 20
96.0954
 30
0.0
 10
-71.5265
 20
96.0954
 30
0.0
 10
-69.8413
 20
94.814
 30
0.0
 10
-70.3084
 20
92.1367
 30
0.0
 10
-72.6648
 20
90.3923
 30
0.0
 10
-72.6648
 20
90.3923
 30
0.0
 10
-74.6634
 20
89.0871
 30
0.0
 10
-77.1158
 20
88.2877
 30
0.0
 10
-79.2224
 20
87.5041
 30
0.0
 10
-79.2224
 20
87.5041
 30
0.0
 10
-78.634
 20
89.4687
 30
0.0
 10
-78.0019
 20
91.6582
 30
0.0
 10
-76.9432
 20
93.6107
 30
0.0
  0
SPLINE
  5
D2
330
1F
100
AcDbEntity
  8
layer 1
 62
     7
100
AcDbSpline
210
0.0
220
0.0
230
1.0
 70
    11
 71
     3
 72
    20
 73
    16
 74
     0
 42
0.0000000001
 43
0.0000000001
 12
1.0
 22
0.0
 32
0.0
 13
1.0
 23
0.0
 33
0.0
 40
0.0
 40
0.0
 40
0.0
 40
0.0
 40
0.2
 40
0.2
 40
0.2
 40
0.2
 40
0.4
 40
0.4
 40
0.4
 40
0.4
 40
0.6
 40
0.6
 40
0.6
 40
0.6
 40
1.0
 40
1.0
 40
1.0
 40
1.0
 10
-86.3109
 20
77.1313
 30
0.0
 10
-88.0377
 20
74.0032
 30
0.0
 10
-89.861
 20
73.2272
 30
0.0
 10
-91.7276
 20
74.6466
 30
0.0
 10
-91.7276
 20
74.6466
 30
0.0
 10
-93.4128
 20
75.928
 30
0.0
 10
-92.9457
 20
78.6053
 30
0.0
 10
-90.5893
 20
80.3497
 30
0.0
 10
-90.5893
 20
80.3497
 30
0.0
 10
-88.5907
 20
81.6549
 30
0.0
 10
-86.1382
 20
82.4543
 30
0.0
 10
-84.0316
 20
83.2379
 30
0.0
 10
-84.0316
 20
83.2379
 30
0.0
 10
-84.62
 20
81.2733
 30
0.0
 10
-85.2522
 20
79.0838
 30
0.0
 10
-86.3109
 20
77.1313
 30
0.0
  0
SPLINE
  5
D3
330
1F
100
AcDbEntity
  8
layer 1
 62
     7
100
AcDbSpline
210
0.0
220
0.0
230
1.0
 70
    11
 71
     3
 72
    20
 73
    16
 74
     0
 42
0.0000000001
 43
0.0000000001
 12
1.0
 22
0.0
 32
0.0
 13
1.0
 23
0.0
 33
0.0
 40
0.0
 40
0.0
 40
0.0
 40
0.0
 40
0.2
 40
0.2
 40
0.2
 40
0.2
 40
0.4
 40
0.4
 40
0.4
 40
0.4
 40
0.6
 40
0.6
 40
0.6
 40
0.6
 40
1.0
 40
1.0
 40
1.0
 40
1.0
 10
-76.9432
 20
77.1313
 30
0.0
 10
-75.2163
 20
74.0032
 30
0.0
 10
-73.393
 20
73.2272
 30
0.0
 10
-71.5265
 20
74.6466
 30
0.0
 10
-71.5265
 20
74.6466
 30
0.0
 10
-69.8413
 20
75.928
 30
0.0
 10
-70.3084
 20
78.6053
 30
0.0
 10
-72.6648
 20
80.3497
 30
0.0
 10
-72.6648
 20
80.3497
 30
0.0
 10
-74.6634
 20
81.6549
 30
0.0
 10
-77.1158
 20
82.4543
 30
0.0
 10
-79.2224
 20
83.2379
 30
0.0
 10
-79.2224
 20
83.2379
 30
0.0
 10
-78.634
 20
81.2733
 30
0.0
 10
-78.0019
 20
79.0838
 30
0.0
 10
-76.9432
 20
77.1313
 30
0.0
  0
SPLINE
  5
D4
330
1F
100
AcDbEntity
  8
layer 1
 62
     7
100
AcDbSpline
210
0.0
220
0.0
230
1.0
 70
    11
 71
     3
 72
    20
 73
    16
 74
     0
 42
0.0000000001
 43
0.0000000001
 12
1.0
 22
0.0
 32
0.0
 13
1.0
 23
0.0
 33
0.0
 40
0.0
 40
0.0
 40
0.0
 40
0.0
 40
0.2
 40
0.2
 40
0.2
 40
0.2
 40
0.4
 40
0.4
 40
0.4
 40
0.4
 40
0.6
 40
0.6
 40
0.6
 40
0.6
 40
1.0
 40
1.0
 40
1.0
 40
1.0
 10
-150.4321
 20
85.3483
 30
0.0
 10
-150.4321
 20
83.1334
 30
0.0
 10
-152.2277
 20
81.3377
 30
0.0
 10
-154.4426
 20
81.3377
 30
0.0
 10
-154.4426
 20
81.3377
 30
0.0
 10
-156.6576
 20
81.3377
 30
0.0
 10
-158.4532
 20
83.1334
 30
0.0
 10
-158.4532
 20
85.3483
 30
0.0
 10
-158.4532
 20
85.3483
 30
0.0
 10
-158.4532
 20
87.5633
 30
0.0
 10
-156.6576
 20
89.3589
 30
0.0
 10
-154.4426
 20
89.3589
 30
0.0
 10
-154.4426
 20
89.3589
 30
0.0
 10
-152.2277
 20
89.3589
 30
0.0
 10
-150.4321
 20
87.5633
 30
0.0
 10
-150.4321
 20
85.3483
 30
0.0
  0
SPLINE
  5
D5
330
1F
100
AcDbEntity
  8
layer 1
 62
     7
100
AcDbSpline
210
0.0
220
0.0
230
1.0
 70
    11
 71
     3
 72
    20
 73
    16
 74
     0
 42
0.0000000001
 43
0.0000000001
 12
1.0
 22
0.0
 32
0.0
 13
1.0
 23
0.0
 33
0.0
 40
0.0
 40
0.0
 40
0.0
 40
0.0
 40
0.2
 40
0.2
 40
0.2
 40
0.2
 40
0.4
 40
0.4
 40
0.4
 40
0.4
 40
0.6
 40
0.6
 40
0.6
 40
0.6
 40
1.0
 40
1.0
 40
1.0
 40
1.0
 10
-121.2698
 20
85.3483
 30
0.0
 10
-121.2698
 20
83.1334
 30
0.0
 10
-123.0655
 20
81.3377
 30
0.0
 10
-125.2804
 20
81.3377
 30
0.0
 10
-125.2804
 20
81.3377
 30
0.0
 10
-127.4953
 20
81.3377
 30
0.0
 10
-129.291
 20
83.1334
 30
0.0
 10
-129.291
 20
85.3483
 30
0.0
 10
-129.291
 20
85.3483
 30
0.0
 10
-129.291
 20
87.5633
 30
0.0
 10
-127.4953
 20
89.3589
 30
0.0
 10
-125.2804
 20
89.3589
 30
0.0
 10
-125.2804
 20
89.3589
 30
0.0
 10
-123.0655
 20
89.3589
 30
0.0
 10
-121.2698
 20
87.5633
 30
0.0
 10
-121.2698
 20
85.3483
 30
0.0
  0
SPLINE
  5
D6
330
1F
100
AcDbEntity
  8
layer 1
 62
     7
100
AcDbSpline
210
0.0
220
0.0
230
1.0
 70
    11
 71
     3
 72
    20
 73
    16
 74
     0
 42
0.0000000001
 43
0.0000000001
 12
1.0
 22
0.0
 32
0.0
 13
1.0
 23
0.0
 33
0.0
 40
0.0
 40
0.0
 40
0.0
 40
0.0
 40
0.2
 40
0.2
 40
0.2
 40
0.2
 40
0.4
 40
0.4
 40
0.4
 40
0.4
 40
0.6
 40
0.6
 40
0.6
 40
0.6
 40
1.0
 40
1.0
 40
1.0
 40
1.0
 10
-91.8862
 20
85.3483
 30
0.0
 10
-91.8862
 20
83.1334
 30
0.0
 10
-93.6818
 20
81.3377
 30
0.0
 10
-95.8967
 20
81.3377
 30
0.0
 10
-95.8967
 20
81.3377
 30
0.0
 10
-98.1117
 20
81.3377
 30
0.0
 10
-99.9073
 20
83.1334
 30
0.0
 10
-99.9073
 20
85.3483
 30
0.0
 10
-99.9073
 20
85.3483
 30
0.0
 10
-99.9073
 20
87.5633
 30
0.0
 10
-98.1117
 20
89.3589
 30
0.0
 10
-95.8967
 20
89.3589
 30
0.0
 10
-95.8967
 20
89.3589
 30
0.0
 10
-93.6818
 20
89.3589
 30
0.0
 10
-91.8862
 20
87.5633
 30
0.0
 10
-91.8862
 20
85.3483
 30
0.0
  0
SPLINE
  5
D7
330
1F
100
AcDbEntity
  8
layer 1
 62
     7
100
AcDbSpline
210
0.0
220
0.0
230
1.0
 70
    11
 71
     3
 72
    20
 73
    16
 74
     0
 42
0.0000000001
 43
0.0000000001
 12
1.0
 22
0.0
 32
0.0
 13
1.0
 23
0.0
 33
0.0
 40
0.0
 40
0.0
 40
0.0
 40
0.0
 40
0.2
 40
0.2
 40
0.2
 40
0.2
 40
0.4
 40
0.4
 40
0.4
 40
0.4
 40
0.6
 40
0.6
 40
0.6
 40
0.6
 40
1.0
 40
1.0
 40
1.0
 40
1.0
 10
-173.9485
 20
124.8972
 30
0.0
 10
-173.9485
 20
124.8972
 30
0.0
 10
-180.3674
 20
124.8513
 30
0.0
 10
-180.3674
 20
124.8513
 30
0.0
 10
-180.3674
 20
124.8513
 30
0.0
 10
-180.1707
 20
123.7992
 30
0.0
 10
-179.4637
 20
122.6871
 30
0.0
 10
-178.2796
 20
121.8107
 30
0.0
 10
-178.2796
 20
121.8107
 30
0.0
 10
-176.281
 20
120.5055
 30
0.0
 10
-173.8286
 20
119.7061
 30
0.0
 10
-171.722
 20
118.9225
 30
0.0
 10
-171.722
 20
118.9225
 30
0.0
 10
-172.3104
 20
120.8872
 30
0.0
 10
-172.8898
 20
122.9447
 30
0.0
 10
-173.9485
 20
124.8972
 30
0.0
  0
SPLINE
  5
D8
330
1F
100
AcDbEntity
  8
layer 1
 62
     7
100
AcDbSpline
210
0.0
220
0.0
230
1.0
 70
    11
 71
     3
 72
    20
 73
    16
 74
     0
 42
0.0000000001
 43
0.0000000001
 12
1.0
 22
0.0
 32
0.0
 13
1.0
 23
0.0
 33
0.0
 40
0.0
 40
0.0
 40
0.0
 40
0.0
 40
0.2
 40
0.2
 40
0.2
 40
0.2
 40
0.4
 40
0.4
 40
0.4
 40
0.4
 40
0.6
 40
0.6
 40
0.6
 40
0.6
 40
1.0
 40
1.0
 40
1.0
 40
1.0
 10
-174.0014
 20
108.5499
 30
0.0
 10
-175.7282
 20
105.4217
 30
0.0
 10
-177.5515
 20
104.6458
 30
0.0
 10
-179.4181
 20
106.0651
 30
0.0
 10
-179.4181
 20
106.0651
 30
0.0
 10
-181.1033
 20
107.3466
 30
0.0
 10
-180.6361
 20
110.024
 30
0.0
 10
-178.2798
 20
111.7683
 30
0.0
 10
-178.2798
 20
111.7683
 30
0.0
 10
-176.2811
 20
113.0734
 30
0.0
 10
-173.8287
 20
113.8729
 30
0.0
 10
-171.7221
 20
114.6565
 30
0.0
 10
-171.7221
 20
114.6565
 30
0.0
 10
-172.3104
 20
112.6917
 30
0.0
 10
-172.9427
 20
110.5024
 30
0.0
 10
-174.0014
 20
108.5499
 30
0.0
  0
SPLINE
  5
D9
330
1F
100
AcDbEntity
  8
layer 1
 62
     7
100
AcDbSpline
210
0.0
220
0.0
230
1.0
 70
    11
 71
     3
 72
    20
 73
    16
 74
     0
 42
0.0000000001
 43
0.0000000001
 12
1.0
 22
0.0
 32
0.0
 13
1.0
 23
0.0
 33
0.0
 40
0.0
 40
0.0
 40
0.0
 40
0.0
 40
0.2
 40
0.2
 40
0.2
 40
0.2
 40
0.4
 40
0.4
 40
0.4
 40
0.4
 40
0.6
 40
0.6
 40
0.6
 40
0.6
 40
1.0
 40
1.0
 40
1.0
 40
1.0
 10
-164.6336
 20
108.5499
 30
0.0
 10
-162.9068
 20
105.4217
 30
0.0
 10
-161.0835
 20
104.6458
 30
0.0
 10
-159.2169
 20
106.0651
 30
0.0
 10
-159.2169
 20
106.0651
 30
0.0
 10
-157.5317
 20
107.3466
 30
0.0
 10
-157.9987
 20
110.024
 30
0.0
 10
-160.3552
 20
111.7683
 30
0.0
 10
-160.3552
 20
111.7683
 30
0.0
 10
-162.3539
 20
113.0734
 30
0.0
 10
-164.8063
 20
113.8729
 30
0.0
 10
-166.9129
 20
114.6565
 30
0.0
 10
-166.9129
 20
114.6565
 30
0.0
 10
-166.3245
 20
112.6917
 30
0.0
 10
-165.6923
 20
110.5024
 30
0.0
 10
-164.6336
 20
108.5499
 30
0.0
  0
SPLINE
  5
DA
330
1F
100
AcDbEntity
  8
layer 1
 62
     7
100
AcDbSpline
210
0.0
220
0.0
230
1.0
 70
    11
 71
     3
 72
    20
 73
    16
 74
     0
 42
0.0000000001
 43
0.0000000001
 12
1.0
 22
0.0
 32
0.0
 13
1.0
 23
0.0
 33
0.0
 40
0.0
 40
0.0
 40
0.0
 40
0.0
 40
0.2
 40
0.2
 40
0.2
 40
0.2
 40
0.4
 40
0.4
 40
0.4
 40
0.4
 40
0.6
 40
0.6
 40
0.6
 40
0.6
 40
1.0
 40
1.0
 40
1.0
 40
1.0
 10
-144.8103
 20
108.5499
 30
0.0
 10
-146.5371
 20
105.4217
 30
0.0
 10
-148.3604
 20
104.6458
 30
0.0
 10
-150.227
 20
106.0651
 30
0.0
 10
-150.227
 20
106.0651
 30
0.0
 10
-151.9122
 20
107.3466
 30
0.0
 10
-151.445
 20
110.0239
 30
0.0
 10
-149.0887
 20
111.7683
 30
0.0
 10
-149.0887
 20
111.7683
 30
0.0
 10
-147.09
 20
113.0734
 30
0.0
 10
-144.6376
 20
113.8729
 30
0.0
 10
-142.531
 20
114.6565
 30
0.0
 10
-142.531
 20
114.6565
 30
0.0
 10
-143.1194
 20
112.6918
 30
0.0
 10
-143.7516
 20
110.5024
 30
0.0
 10
-144.8103
 20
108.5499
 30
0.0
  0
SPLINE
  5
DB
330
1F
100
AcDbEntity
  8
layer 1
 62
     7
100
AcDbSpline
210
0.0
220
0.0
230
1.0
 70
    11
 71
     3
 72
    20
 73
    16
 74
     0
 42
0.0000000001
 43
0.0000000001
 12
1.0
 22
0.0
 32
0.0
 13
1.0
 23
0.0
 33
0.0
 40
0.0
 40
0.0
 40
0.0
 40
0.0
 40
0.2
 40
0.2
 40
0.2
 40
0.2
 40
0.4
 40
0.4
 40
0.4
 40
0.4
 40
0.6
 40
0.6
 40
0.6
 40
0.6
 40
1.0
 40
1.0
 40
1.0
 40
1.0
 10
-135.4425
 20
108.5499
 30
0.0
 10
-133.7157
 20
105.4217
 30
0.0
 10
-131.8924
 20
104.6458
 30
0.0
 10
-130.0258
 20
106.0651
 30
0.0
 10
-130.0258
 20
106.0651
 30
0.0
 10
-128.3406
 20
107.3466
 30
0.0
 10
-128.8078
 20
110.0239
 30
0.0
 10
-131.1641
 20
111.7683
 30
0.0
 10
-131.1641
 20
111.7683
 30
0.0
 10
-133.1628
 20
113.0734
 30
0.0
 10
-135.6152
 20
113.8729
 30
0.0
 10
-137.7218
 20
114.6565
 30
0.0
 10
-137.7218
 20
114.6565
 30
0.0
 10
-137.1334
 20
112.6918
 30
0.0
 10
-136.5012
 20
110.5024
 30
0.0
 10
-135.4425
 20
108.5499
 30
0.0
  0
SPLINE
  5
DC
330
1F
100
AcDbEntity
  8
layer 1
 62
     7
100
AcDbSpline
210
0.0
220
0.0
230
1.0
 70
    11
 71
     3
 72
    20
 73
    16
 74
     0
 42
0.0000000001
 43
0.0000000001
 12
1.0
 22
0.0
 32
0.0
 13
1.0
 23
0.0
 33
0.0
 40
0.0
 40
0.0
 40
0.0
 40
0.0
 40
0.2
 40
0.2
 40
0.2
 40
0.2
 40
0.4
 40
0.4
 40
0.4
 40
0.4
 40
0.6
 40
0.6
 40
0.6
 40
0.6
 40
1.0
 40
1.0
 40
1.0
 40
1.0
 10
-115.2675
 20
108.5499
 30
0.0
 10
-116.9943
 20
105.4217
 30
0.0
 10
-118.8177
 20
104.6458
 30
0.0
 10
-120.6842
 20
106.0651
 30
0.0
 10
-120.6842
 20
106.0651
 30
0.0
 10
-122.3694
 20
107.3466
 30
0.0
 10
-121.9023
 20
110.0239
 30
0.0
 10
-119.5459
 20
111.7683
 30
0.0
 10
-119.5459
 20
111.7683
 30
0.0
 10
-117.5473
 20
113.0734
 30
0.0
 10
-115.0948
 20
113.8729
 30
0.0
 10
-112.9882
 20
114.6565
 30
0.0
 10
-112.9882
 20
114.6565
 30
0.0
 10
-113.5766
 20
112.6918
 30
0.0
 10
-114.2088
 20
110.5024
 30
0.0
 10
-115.2675
 20
108.5499
 30
0.0
  0
SPLINE
  5
DD
330
1F
100
AcDbEntity
  8
layer 1
 62
     7
100
AcDbSpline
210
0.0
220
0.0
230
1.0
 70
    11
 71
     3
 72
    20
 73
    16
 74
     0
 42
0.0000000001
 43
0.0000000001
 12
1.0
 22
0.0
 32
0.0
 13
1.0
 23
0.0
 33
0.0
 40
0.0
 40
0.0
 40
0.0
 40
0.0
 40
0.2
 40
0.2
 40
0.2
 40
0.2
 40
0.4
 40
0.4
 40
0.4
 40
0.4
 40
0.6
 40
0.6
 40
0.6
 40
0.6
 40
1.0
 40
1.0
 40
1.0
 40
1.0
 10
-105.8998
 20
108.5499
 30
0.0
 10
-104.1729
 20
105.4217
 30
0.0
 10
-102.3496
 20
104.6458
 30
0.0
 10
-100.4831
 20
106.0651
 30
0.0
 10
-100.4831
 20
106.0651
 30
0.0
 10
-98.7979
 20
107.3466
 30
0.0
 10
-99.265
 20
110.0239
 30
0.0
 10
-101.6214
 20
111.7683
 30
0.0
 10
-101.6214
 20
111.7683
 30
0.0
 10
-103.62
 20
113.0734
 30
0.0
 10
-106.0725
 20
113.8729
 30
0.0
 10
-108.179
 20
114.6565
 30
0.0
 10
-108.179
 20
114.6565
 30
0.0
 10
-107.5906
 20
112.6918
 30
0.0
 10
-106.9585
 20
110.5024
 30
0.0
 10
-105.8998
 20
108.5499
 30
0.0
  0
SPLINE
  5
DE
330
1F
100
AcDbEntity
  8
layer 1
 62
     7
100
AcDbSpline
210
0.0
220
0.0
230
1.0
 70
    11
 71
     3
 72
    20
 73
    16
 74
     0
 42
0.0000000001
 43
0.0000000001
 12
1.0
 22
0.0
 32
0.0
 13
1.0
 23
0.0
 33
0.0
 40
0.0
 40
0.0
 40
0.0
 40
0.0
 40
0.2
 40
0.2
 40
0.2
 40
0.2
 40
0.4
 40
0.4
 40
0.4
 40
0.4
 40
0.6
 40
0.6
 40
0.6
 40
0.6
 40
1.0
 40
1.0
 40
1.0
 40
1.0
 10
-86.3109
 20
108.5499
 30
0.0
 10
-88.0377
 20
105.4217
 30
0.0
 10
-89.861
 20
104.6458
 30
0.0
 10
-91.7276
 20
106.0651
 30
0.0
 10
-91.7276
 20
106.0651
 30
0.0
 10
-93.4128
 20
107.3466
 30
0.0
 10
-92.9457
 20
110.0239
 30
0.0
 10
-90.5893
 20
111.7683
 30
0.0
 10
-90.5893
 20
111.7683
 30
0.0
 10
-88.5907
 20
113.0734
 30
0.0
 10
-86.1382
 20
113.8729
 30
0.0
 10
-84.0316
 20
114.6565
 30
0.0
 10
-84.0316
 20
114.6565
 30
0.0
 10
-84.62
 20
112.6918
 30
0.0
 10
-85.2522
 20
110.5024
 30
0.0
 10
-86.3109
 20
108.5499
 30
0.0
  0
SPLINE
  5
DF
330
1F
100
AcDbEntity
  8
layer 1
 62
     7
100
AcDbSpline
210
0.0
220
0.0
230
1.0
 70
    11
 71
     3
 72
    20
 73
    16
 74
     0
 42
0.0000000001
 43
0.0000000001
 12
1.0
 22
0.0
 32
0.0
 13
1.0
 23
0.0
 33
0.0
 40
0.0
 40
0.0
 40
0.0
 40
0.0
 40
0.2
 40
0.2
 40
0.2
 40
0.2
 40
0.4
 40
0.4
 40
0.4
 40
0.4
 40
0.6
 40
0.6
 40
0.6
 40
0.6
 40
1.0
 40
1.0
 40
1.0
 40
1.0
 10
-76.9432
 20
108.5499
 30
0.0
 10
-75.2163
 20
105.4217
 30
0.0
 10
-73.393
 20
104.6458
 30
0.0
 10
-71.5265
 20
106.0651
 30
0.0
 10
-71.5265
 20
106.0651
 30
0.0
 10
-69.8413
 20
107.3466
 30
0.0
 10
-70.3084
 20
110.0239
 30
0.0
 10
-72.6648
 20
111.7683
 30
0.0
 10
-72.6648
 20
111.7683
 30
0.0
 10
-74.6634
 20
113.0734
 30
0.0
 10
-77.1158
 20
113.8729
 30
0.0
 10
-79.2224
 20
114.6565
 30
0.0
 10
-79.2224
 20
114.6565
 30
0.0
 10
-78.634
 20
112.6918
 30
0.0
 10
-78.0019
 20
110.5024
 30
0.0
 10
-76.9432
 20
108.5499
 30
0.0
  0
SPLINE
  5
E0
330
1F
100
AcDbEntity
  8
layer 1
 62
     7
100
AcDbSpline
210
0.0
220
0.0
230
1.0
 70
    11
 71
     3
 72
    20
 73
    16
 74
     0
 42
0.0000000001
 43
0.0000000001
 12
1.0
 22
0.0
 32
0.0
 13
1.0
 23
0.0
 33
0.0
 40
0.0
 40
0.0
 40
0.0
 40
0.0
 40
0.2
 40
0.2
 40
0.2
 40
0.2
 40
0.4
 40
0.4
 40
0.4
 40
0.4
 40
0.6
 40
0.6
 40
0.6
 40
0.6
 40
1.0
 40
1.0
 40
1.0
 40
1.0
 10
-150.4321
 20
116.7669
 30
0.0
 10
-150.4321
 20
114.5519
 30
0.0
 10
-152.2277
 20
112.7563
 30
0.0
 10
-154.4426
 20
112.7563
 30
0.0
 10
-154.4426
 20
112.7563
 30
0.0
 10
-156.6576
 20
112.7563
 30
0.0
 10
-158.4532
 20
114.5519
 30
0.0
 10
-158.4532
 20
116.7669
 30
0.0
 10
-158.4532
 20
116.7669
 30
0.0
 10
-158.4532
 20
118.9818
 30
0.0
 10
-156.6576
 20
120.7774
 30
0.0
 10
-154.4426
 20
120.7774
 30
0.0
 10
-154.4426
 20
120.7774
 30
0.0
 10
-152.2277
 20
120.7774
 30
0.0
 10
-150.4321
 20
118.9818
 30
0.0
 10
-150.4321
 20
116.7669
 30
0.0
  0
SPLINE
  5
E1
330
1F
100
AcDbEntity
  8
layer 1
 62
     7
100
AcDbSpline
210
0.0
220
0.0
230
1.0
 70
    11
 71
     3
 72
    20
 73
    16
 74
     0
 42
0.0000000001
 43
0.0000000001
 12
1.0
 22
0.0
 32
0.0
 13
1.0
 23
0.0
 33
0.0
 40
0.0
 40
0.0
 40
0.0
 40
0.0
 40
0.2
 40
0.2
 40
0.2
 40
0.2
 40
0.4
 40
0.4
 40
0.4
 40
0.4
 40
0.6
 40
0.6
 40
0.6
 40
0.6
 40
1.0
 40
1.0
 40
1.0
 40
1.0
 10
-121.2698
 20
116.7669
 30
0.0
 10
-121.2698
 20
114.5519
 30
0.0
 10
-123.0655
 20
112.7563
 30
0.0
 10
-125.2804
 20
112.7563
 30
0.0
 10
-125.2804
 20
112.7563
 30
0.0
 10
-127.4953
 20
112.7563
 30
0.0
 10
-129.291
 20
114.5519
 30
0.0
 10
-129.291
 20
116.7669
 30
0.0
 10
-129.291
 20
116.7669
 30
0.0
 10
-129.291
 20
118.9818
 30
0.0
 10
-127.4953
 20
120.7774
 30
0.0
 10
-125.2804
 20
120.7774
 30
0.0
 10
-125.2804
 20
120.7774
 30
0.0
 10
-123.0655
 20
120.7774
 30
0.0
 10
-121.2698
 20
118.9818
 30
0.0
 10
-121.2698
 20
116.7669
 30
0.0
  0
SPLINE
  5
E2
330
1F
100
AcDbEntity
  8
layer 1
 62
     7
100
AcDbSpline
210
0.0
220
0.0
230
1.0
 70
    11
 71
     3
 72
    20
 73
    16
 74
     0
 42
0.0000000001
 43
0.0000000001
 12
1.0
 22
0.0
 32
0.0
 13
1.0
 23
0.0
 33
0.0
 40
0.0
 40
0.0
 40
0.0
 40
0.0
 40
0.2
 40
0.2
 40
0.2
 40
0.2
 40
0.4
 40
0.4
 40
0.4
 40
0.4
 40
0.6
 40
0.6
 40
0.6
 40
0.6
 40
1.0
 40
1.0
 40
1.0
 40
1.0
 10
-91.8862
 20
116.7669
 30
0.0
 10
-91.8862
 20
114.5519
 30
0.0
 10
-93.6818
 20
112.7563
 30
0.0
 10
-95.8967
 20
112.7563
 30
0.0
 10
-95.8967
 20
112.7563
 30
0.0
 10
-98.1117
 20
112.7563
 30
0.0
 10
-99.9073
 20
114.5519
 30
0.0
 10
-99.9073
 20
116.7669
 30
0.0
 10
-99.9073
 20
116.7669
 30
0.0
 10
-99.9073
 20
118.9818
 30
0.0
 10
-98.1117
 20
120.7774
 30
0.0
 10
-95.8967
 20
120.7774
 30
0.0
 10
-95.8967
 20
120.7774
 30
0.0
 10
-93.6818
 20
120.7774
 30
0.0
 10
-91.8862
 20
118.9818
 30
0.0
 10
-91.8862
 20
116.7669
 30
0.0
  0
SPLINE
  5
E3
330
1F
100
AcDbEntity
  8
layer 1
 62
     7
100
AcDbSpline
210
0.0
220
0.0
230
1.0
 70
    11
 71
     3
 72
    20
 73
    16
 74
     0
 42
0.0000000001
 43
0.0000000001
 12
1.0
 22
0.0
 32
0.0
 13
1.0
 23
0.0
 33
0.0
 40
0.0
 40
0.0
 40
0.0
 40
0.0
 40
0.2
 40
0.2
 40
0.2
 40
0.2
 40
0.4
 40
0.4
 40
0.4
 40
0.4
 40
0.6
 40
0.6
 40
0.6
 40
0.6
 40
1.0
 40
1.0
 40
1.0
 40
1.0
 10
-164.6783
 20
124.8972
 30
0.0
 10
-164.6783
 20
124.8972
 30
0.0
 10
-158.2595
 20
124.8513
 30
0.0
 10
-158.2595
 20
124.8513
 30
0.0
 10
-158.2595
 20
124.8513
 30
0.0
 10
-158.4561
 20
123.7992
 30
0.0
 10
-159.1631
 20
122.6871
 30
0.0
 10
-160.3472
 20
121.8107
 30
0.0
 10
-160.3472
 20
121.8107
 30
0.0
 10
-162.3458
 20
120.5055
 30
0.0
 10
-164.7983
 20
119.7061
 30
0.0
 10
-166.9049
 20
118.9225
 30
0.0
 10
-166.9049
 20
118.9225
 30
0.0
 10
-166.3165
 20
120.8871
 30
0.0
 10
-165.737
 20
122.9447
 30
0.0
 10
-164.6783
 20
124.8972
 30
0.0
  0
SPLINE
  5
E4
330
1F
100
AcDbEntity
  8
layer 1
 62
     7
100
AcDbSpline
210
0.0
220
0.0
230
1.0
 70
    11
 71
     3
 72
    20
 73
    16
 74
     0
 42
0.0000000001
 43
0.0000000001
 12
1.0
 22
0.0
 32
0.0
 13
1.0
 23
0.0
 33
0.0
 40
0.0
 40
0.0
 40
0.0
 40
0.0
 40
0.2
 40
0.2
 40
0.2
 40
0.2
 40
0.4
 40
0.4
 40
0.4
 40
0.4
 40
0.6
 40
0.6
 40
0.6
 40
0.6
 40
1.0
 40
1.0
 40
1.0
 40
1.0
 10
-144.606
 20
124.8972
 30
0.0
 10
-144.606
 20
124.8972
 30
0.0
 10
-151.0248
 20
124.8513
 30
0.0
 10
-151.0248
 20
124.8513
 30
0.0
 10
-151.0248
 20
124.8513
 30
0.0
 10
-150.8282
 20
123.7992
 30
0.0
 10
-150.1211
 20
122.6871
 30
0.0
 10
-148.9371
 20
121.8107
 30
0.0
 10
-148.9371
 20
121.8107
 30
0.0
 10
-146.9385
 20
120.5055
 30
0.0
 10
-144.486
 20
119.7061
 30
0.0
 10
-142.3794
 20
118.9225
 30
0.0
 10
-142.3794
 20
118.9225
 30
0.0
 10
-142.9678
 20
120.8871
 30
0.0
 10
-143.5473
 20
122.9447
 30
0.0
 10
-144.606
 20
124.8972
 30
0.0
  0
SPLINE
  5
E5
330
1F
100
AcDbEntity
  8
layer 1
 62
     7
100
AcDbSpline
210
0.0
220
0.0
230
1.0
 70
    11
 71
     3
 72
    20
 73
    16
 74
     0
 42
0.0000000001
 43
0.0000000001
 12
1.0
 22
0.0
 32
0.0
 13
1.0
 23
0.0
 33
0.0
 40
0.0
 40
0.0
 40
0.0
 40
0.0
 40
0.2
 40
0.2
 40
0.2
 40
0.2
 40
0.4
 40
0.4
 40
0.4
 40
0.4
 40
0.6
 40
0.6
 40
0.6
 40
0.6
 40
1.0
 40
1.0
 40
1.0
 40
1.0
 10
-135.3357
 20
124.8972
 30
0.0
 10
-135.3357
 20
124.8972
 30
0.0
 10
-128.9168
 20
124.8513
 30
0.0
 10
-128.9168
 20
124.8513
 30
0.0
 10
-128.9168
 20
124.8513
 30
0.0
 10
-129.1134
 20
123.7992
 30
0.0
 10
-129.8205
 20
122.6871
 30
0.0
 10
-131.0045
 20
121.8107
 30
0.0
 10
-131.0045
 20
121.8107
 30
0.0
 10
-133.0031
 20
120.5055
 30
0.0
 10
-135.4556
 20
119.7061
 30
0.0
 10
-137.5622
 20
118.9225
 30
0.0
 10
-137.5622
 20
118.9225
 30
0.0
 10
-136.9738
 20
120.8871
 30
0.0
 10
-136.3943
 20
122.9447
 30
0.0
 10
-135.3357
 20
124.8972
 30
0.0
  0
SPLINE
  5
E6
330
1F
100
AcDbEntity
  8
layer 1
 62
     7
100
AcDbSpline
210
0.0
220
0.0
230
1.0
 70
    11
 71
     3
 72
    20
 73
    16
 74
     0
 42
0.0000000001
 43
0.0000000001
 12
1.0
 22
0.0
 32
0.0
 13
1.0
 23
0.0
 33
0.0
 40
0.0
 40
0.0
 40
0.0
 40
0.0
 40
0.2
 40
0.2
 40
0.2
 40
0.2
 40
0.4
 40
0.4
 40
0.4
 40
0.4
 40
0.6
 40
0.6
 40
0.6
 40
0.6
 40
1.0
 40
1.0
 40
1.0
 40
1.0
 10
-115.3379
 20
124.8972
 30
0.0
 10
-115.3379
 20
124.8972
 30
0.0
 10
-121.7567
 20
124.8513
 30
0.0
 10
-121.7567
 20
124.8513
 30
0.0
 10
-121.7567
 20
124.8513
 30
0.0
 10
-121.5601
 20
123.7992
 30
0.0
 10
-120.8531
 20
122.6871
 30
0.0
 10
-119.669
 20
121.8107
 30
0.0
 10
-119.669
 20
121.8107
 30
0.0
 10
-117.6704
 20
120.5055
 30
0.0
 10
-115.2179
 20
119.7061
 30
0.0
 10
-113.1114
 20
118.9225
 30
0.0
 10
-113.1114
 20
118.9225
 30
0.0
 10
-113.6998
 20
120.8871
 30
0.0
 10
-114.2792
 20
122.9447
 30
0.0
 10
-115.3379
 20
124.8972
 30
0.0
  0
SPLINE
  5
E7
330
1F
100
AcDbEntity
  8
layer 1
 62
     7
100
AcDbSpline
210
0.0
220
0.0
230
1.0
 70
    11
 71
     3
 72
    20
 73
    16
 74
     0
 42
0.0000000001
 43
0.0000000001
 12
1.0
 22
0.0
 32
0.0
 13
1.0
 23
0.0
 33
0.0
 40
0.0
 40
0.0
 40
0.0
 40
0.0
 40
0.2
 40
0.2
 40
0.2
 40
0.2
 40
0.4
 40
0.4
 40
0.4
 40
0.4
 40
0.6
 40
0.6
 40
0.6
 40
0.6
 40
1.0
 40
1.0
 40
1.0
 40
1.0
 10
-106.0677
 20
124.8972
 30
0.0
 10
-106.0677
 20
124.8972
 30
0.0
 10
-99.6488
 20
124.8513
 30
0.0
 10
-99.6488
 20
124.8513
 30
0.0
 10
-99.6488
 20
124.8513
 30
0.0
 10
-99.8455
 20
123.7992
 30
0.0
 10
-100.5525
 20
122.6871
 30
0.0
 10
-101.7366
 20
121.8107
 30
0.0
 10
-101.7366
 20
121.8107
 30
0.0
 10
-103.7352
 20
120.5055
 30
0.0
 10
-106.1877
 20
119.7061
 30
0.0
 10
-108.2942
 20
118.9225
 30
0.0
 10
-108.2942
 20
118.9225
 30
0.0
 10
-107.7058
 20
120.8871
 30
0.0
 10
-107.1264
 20
122.9447
 30
0.0
 10
-106.0677
 20
124.8972
 30
0.0
  0
SPLINE
  5
E8
330
1F
100
AcDbEntity
  8
layer 1
 62
     7
100
AcDbSpline
210
0.0
220
0.0
230
1.0
 70
    11
 71
     3
 72
    20
 73
    16
 74
     0
 42
0.0000000001
 43
0.0000000001
 12
1.0
 22
0.0
 32
0.0
 13
1.0
 23
0.0
 33
0.0
 40
0.0
 40
0.0
 40
0.0
 40
0.0
 40
0.2
 40
0.2
 40
0.2
 40
0.2
 40
0.4
 40
0.4
 40
0.4
 40
0.4
 40
0.6
 40
0.6
 40
0.6
 40
0.6
 40
1.0
 40
1.0
 40
1.0
 40
1.0
 10
-86.0699
 20
124.8972
 30
0.0
 10
-86.0699
 20
124.8972
 30
0.0
 10
-92.4888
 20
124.8513
 30
0.0
 10
-92.4888
 20
124.8513
 30
0.0
 10
-92.4888
 20
124.8513
 30
0.0
 10
-92.2921
 20
123.7992
 30
0.0
 10
-91.5851
 20
122.6871
 30
0.0
 10
-90.4011
 20
121.8107
 30
0.0
 10
-90.4011
 20
121.8107
 30
0.0
 10
-88.4024
 20
120.5055
 30
0.0
 10
-85.95
 20
119.7061
 30
0.0
 10
-83.8434
 20
118.9225
 30
0.0
 10
-83.8434
 20
118.9225
 30
0.0
 10
-84.4318
 20
120.8871
 30
0.0
 10
-85.0112
 20
122.9447
 30
0.0
 10
-86.0699
 20
124.8972
 30
0.0
  0
SPLINE
  5
E9
330
1F
100
AcDbEntity
  8
layer 1
 62
     7
100
AcDbSpline
210
0.0
220
0.0
230
1.0
 70
    11
 71
     3
 72
    20
 73
    16
 74
     0
 42
0.0000000001
 43
0.0000000001
 12
1.0
 22
0.0
 32
0.0
 13
1.0
 23
0.0
 33
0.0
 40
0.0
 40
0.0
 40
0.0
 40
0.0
 40
0.2
 40
0.2
 40
0.2
 40
0.2
 40
0.4
 40
0.4
 40
0.4
 40
0.4
 40
0.6
 40
0.6
 40
0.6
 40
0.6
 40
1.0
 40
1.0
 40
1.0
 40
1.0
 10
-76.7996
 20
124.8972
 30
0.0
 10
-76.7996
 20
124.8972
 30
0.0
 10
-70.3808
 20
124.8513
 30
0.0
 10
-70.3808
 20
124.8513
 30
0.0
 10
-70.3808
 20
124.8513
 30
0.0
 10
-70.5774
 20
123.7992
 30
0.0
 10
-71.2845
 20
122.6871
 30
0.0
 10
-72.4685
 20
121.8107
 30
0.0
 10
-72.4685
 20
121.8107
 30
0.0
 10
-74.4671
 20
120.5055
 30
0.0
 10
-76.9196
 20
119.7061
 30
0.0
 10
-79.0262
 20
118.9225
 30
0.0
 10
-79.0262
 20
118.9225
 30
0.0
 10
-78.4378
 20
120.8871
 30
0.0
 10
-77.8583
 20
122.9447
 30
0.0
 10
-76.7996
 20
124.8972
 30
0.0
  0
SPLINE
  5
EA
330
1F
100
AcDbEntity
  8
layer 1
 62
     7
100
AcDbSpline
210
0.0
220
0.0
230
1.0
 70
    11
 71
     3
 72
    20
 73
    16
 74
     0
 42
0.0000000001
 43
0.0000000001
 12
1.0
 22
0.0
 32
0.0
 13
1.0
 23
0.0
 33
0.0
 40
0.0
 40
0.0
 40
0.0
 40
0.0
 40
0.2
 40
0.2
 40
0.2
 40
0.2
 40
0.4
 40
0.4
 40
0.4
 40
0.4
 40
0.6
 40
0.6
 40
0.6
 40
0.6
 40
1.0
 40
1.0
 40
1.0
 40
1.0
 10
-173.9485
 20
-108.9013
 30
0.0
 10
-173.9485
 20
-108.9013
 30
0.0
 10
-180.3674
 20
-108.8554
 30
0.0
 10
-180.3674
 20
-108.8554
 30
0.0
 10
-180.3674
 20
-108.8554
 30
0.0
 10
-180.1707
 20
-107.8033
 30
0.0
 10
-179.4637
 20
-106.6913
 30
0.0
 10
-178.2796
 20
-105.8149
 30
0.0
 10
-178.2796
 20
-105.8149
 30
0.0
 10
-176.281
 20
-104.5097
 30
0.0
 10
-173.8286
 20
-103.7102
 30
0.0
 10
-171.722
 20
-102.9266
 30
0.0
 10
-171.722
 20
-102.9266
 30
0.0
 10
-172.3104
 20
-104.8914
 30
0.0
 10
-172.8898
 20
-106.9488
 30
0.0
 10
-173.9485
 20
-108.9013
 30
0.0
  0
SPLINE
  5
EB
330
1F
100
AcDbEntity
  8
layer 1
 62
     7
100
AcDbSpline
210
0.0
220
0.0
230
1.0
 70
    11
 71
     3
 72
    20
 73
    16
 74
     0
 42
0.0000000001
 43
0.0000000001
 12
1.0
 22
0.0
 32
0.0
 13
1.0
 23
0.0
 33
0.0
 40
0.0
 40
0.0
 40
0.0
 40
0.0
 40
0.2
 40
0.2
 40
0.2
 40
0.2
 40
0.4
 40
0.4
 40
0.4
 40
0.4
 40
0.6
 40
0.6
 40
0.6
 40
0.6
 40
1.0
 40
1.0
 40
1.0
 40
1.0
 10
-174.0014
 20
-92.554
 30
0.0
 10
-175.7282
 20
-89.4259
 30
0.0
 10
-177.5515
 20
-88.6499
 30
0.0
 10
-179.4181
 20
-90.0693
 30
0.0
 10
-179.4181
 20
-90.0693
 30
0.0
 10
-181.1033
 20
-91.3507
 30
0.0
 10
-180.6361
 20
-94.028
 30
0.0
 10
-178.2798
 20
-95.7723
 30
0.0
 10
-178.2798
 20
-95.7723
 30
0.0
 10
-176.2811
 20
-97.0775
 30
0.0
 10
-173.8287
 20
-97.8769
 30
0.0
 10
-171.7221
 20
-98.6606
 30
0.0
 10
-171.7221
 20
-98.6606
 30
0.0
 10
-172.3104
 20
-96.6959
 30
0.0
 10
-172.9427
 20
-94.5064
 30
0.0
 10
-174.0014
 20
-92.554
 30
0.0
  0
SPLINE
  5
EC
330
1F
100
AcDbEntity
  8
layer 1
 62
     7
100
AcDbSpline
210
0.0
220
0.0
230
1.0
 70
    11
 71
     3
 72
    20
 73
    16
 74
     0
 42
0.0000000001
 43
0.0000000001
 12
1.0
 22
0.0
 32
0.0
 13
1.0
 23
0.0
 33
0.0
 40
0.0
 40
0.0
 40
0.0
 40
0.0
 40
0.2
 40
0.2
 40
0.2
 40
0.2
 40
0.4
 40
0.4
 40
0.4
 40
0.4
 40
0.6
 40
0.6
 40
0.6
 40
0.6
 40
1.0
 40
1.0
 40
1.0
 40
1.0
 10
-164.6336
 20
-92.554
 30
0.0
 10
-162.9068
 20
-89.4259
 30
0.0
 10
-161.0835
 20
-88.6499
 30
0.0
 10
-159.2169
 20
-90.0693
 30
0.0
 10
-159.2169
 20
-90.0693
 30
0.0
 10
-157.5317
 20
-91.3507
 30
0.0
 10
-157.9987
 20
-94.028
 30
0.0
 10
-160.3552
 20
-95.7723
 30
0.0
 10
-160.3552
 20
-95.7723
 30
0.0
 10
-162.3539
 20
-97.0775
 30
0.0
 10
-164.8063
 20
-97.8769
 30
0.0
 10
-166.9129
 20
-98.6606
 30
0.0
 10
-166.9129
 20
-98.6606
 30
0.0
 10
-166.3245
 20
-96.6959
 30
0.0
 10
-165.6923
 20
-94.5064
 30
0.0
 10
-164.6336
 20
-92.554
 30
0.0
  0
SPLINE
  5
ED
330
1F
100
AcDbEntity
  8
layer 1
 62
     7
100
AcDbSpline
210
0.0
220
0.0
230
1.0
 70
    11
 71
     3
 72
    20
 73
    16
 74
     0
 42
0.0000000001
 43
0.0000000001
 12
1.0
 22
0.0
 32
0.0
 13
1.0
 23
0.0
 33
0.0
 40
0.0
 40
0.0
 40
0.0
 40
0.0
 40
0.2
 40
0.2
 40
0.2
 40
0.2
 40
0.4
 40
0.4
 40
0.4
 40
0.4
 40
0.6
 40
0.6
 40
0.6
 40
0.6
 40
1.0
 40
1.0
 40
1.0
 40
1.0
 10
-144.8103
 20
-92.554
 30
0.0
 10
-146.5371
 20
-89.4259
 30
0.0
 10
-148.3604
 20
-88.6499
 30
0.0
 10
-150.227
 20
-90.0693
 30
0.0
 10
-150.227
 20
-90.0693
 30
0.0
 10
-151.9122
 20
-91.3507
 30
0.0
 10
-151.445
 20
-94.028
 30
0.0
 10
-149.0887
 20
-95.7724
 30
0.0
 10
-149.0887
 20
-95.7724
 30
0.0
 10
-147.09
 20
-97.0776
 30
0.0
 10
-144.6376
 20
-97.877
 30
0.0
 10
-142.531
 20
-98.6606
 30
0.0
 10
-142.531
 20
-98.6606
 30
0.0
 10
-143.1194
 20
-96.696
 30
0.0
 10
-143.7516
 20
-94.5065
 30
0.0
 10
-144.8103
 20
-92.554
 30
0.0
  0
SPLINE
  5
EE
330
1F
100
AcDbEntity
  8
layer 1
 62
     7
100
AcDbSpline
210
0.0
220
0.0
230
1.0
 70
    11
 71
     3
 72
    20
 73
    16
 74
     0
 42
0.0000000001
 43
0.0000000001
 12
1.0
 22
0.0
 32
0.0
 13
1.0
 23
0.0
 33
0.0
 40
0.0
 40
0.0
 40
0.0
 40
0.0
 40
0.2
 40
0.2
 40
0.2
 40
0.2
 40
0.4
 40
0.4
 40
0.4
 40
0.4
 40
0.6
 40
0.6
 40
0.6
 40
0.6
 40
1.0
 40
1.0
 40
1.0
 40
1.0
 10
-135.4425
 20
-92.554
 30
0.0
 10
-133.7157
 20
-89.4259
 30
0.0
 10
-131.8924
 20
-88.6499
 30
0.0
 10
-130.0258
 20
-90.0693
 30
0.0
 10
-130.0258
 20
-90.0693
 30
0.0
 10
-128.3406
 20
-91.3507
 30
0.0
 10
-128.8078
 20
-94.028
 30
0.0
 10
-131.1641
 20
-95.7724
 30
0.0
 10
-131.1641
 20
-95.7724
 30
0.0
 10
-133.1628
 20
-97.0776
 30
0.0
 10
-135.6152
 20
-97.877
 30
0.0
 10
-137.7218
 20
-98.6606
 30
0.0
 10
-137.7218
 20
-98.6606
 30
0.0
 10
-137.1334
 20
-96.696
 30
0.0
 10
-136.5012
 20
-94.5065
 30
0.0
 10
-135.4425
 20
-92.554
 30
0.0
  0
SPLINE
  5
EF
330
1F
100
AcDbEntity
  8
layer 1
 62
     7
100
AcDbSpline
210
0.0
220
0.0
230
1.0
 70
    11
 71
     3
 72
    20
 73
    16
 74
     0
 42
0.0000000001
 43
0.0000000001
 12
1.0
 22
0.0
 32
0.0
 13
1.0
 23
0.0
 33
0.0
 40
0.0
 40
0.0
 40
0.0
 40
0.0
 40
0.2
 40
0.2
 40
0.2
 40
0.2
 40
0.4
 40
0.4
 40
0.4
 40
0.4
 40
0.6
 40
0.6
 40
0.6
 40
0.6
 40
1.0
 40
1.0
 40
1.0
 40
1.0
 10
-115.2675
 20
-92.554
 30
0.0
 10
-116.9943
 20
-89.4259
 30
0.0
 10
-118.8177
 20
-88.6499
 30
0.0
 10
-120.6842
 20
-90.0693
 30
0.0
 10
-120.6842
 20
-90.0693
 30
0.0
 10
-122.3694
 20
-91.3507
 30
0.0
 10
-121.9023
 20
-94.028
 30
0.0
 10
-119.5459
 20
-95.7724
 30
0.0
 10
-119.5459
 20
-95.7724
 30
0.0
 10
-117.5473
 20
-97.0776
 30
0.0
 10
-115.0948
 20
-97.877
 30
0.0
 10
-112.9882
 20
-98.6606
 30
0.0
 10
-112.9882
 20
-98.6606
 30
0.0
 10
-113.5766
 20
-96.696
 30
0.0
 10
-114.2088
 20
-94.5065
 30
0.0
 10
-115.2675
 20
-92.554
 30
0.0
  0
SPLINE
  5
F0
330
1F
100
AcDbEntity
  8
layer 1
 62
     7
100
AcDbSpline
210
0.0
220
0.0
230
1.0
 70
    11
 71
     3
 72
    20
 73
    16
 74
     0
 42
0.0000000001
 43
0.0000000001
 12
1.0
 22
0.0
 32
0.0
 13
1.0
 23
0.0
 33
0.0
 40
0.0
 40
0.0
 40
0.0
 40
0.0
 40
0.2
 40
0.2
 40
0.2
 40
0.2
 40
0.4
 40
0.4
 40
0.4
 40
0.4
 40
0.6
 40
0.6
 40
0.6
 40
0.6
 40
1.0
 40
1.0
 40
1.0
 40
1.0
 10
-105.8998
 20
-92.554
 30
0.0
 10
-104.1729
 20
-89.4259
 30
0.0
 10
-102.3496
 20
-88.6499
 30
0.0
 10
-100.4831
 20
-90.0693
 30
0.0
 10
-100.4831
 20
-90.0693
 30
0.0
 10
-98.7979
 20
-91.3507
 30
0.0
 10
-99.265
 20
-94.028
 30
0.0
 10
-101.6214
 20
-95.7724
 30
0.0
 10
-101.6214
 20
-95.7724
 30
0.0
 10
-103.62
 20
-97.0776
 30
0.0
 10
-106.0725
 20
-97.877
 30
0.0
 10
-108.179
 20
-98.6606
 30
0.0
 10
-108.179
 20
-98.6606
 30
0.0
 10
-107.5906
 20
-96.696
 30
0.0
 10
-106.9585
 20
-94.5065
 30
0.0
 10
-105.8998
 20
-92.554
 30
0.0
  0
SPLINE
  5
F1
330
1F
100
AcDbEntity
  8
layer 1
 62
     7
100
AcDbSpline
210
0.0
220
0.0
230
1.0
 70
    11
 71
     3
 72
    20
 73
    16
 74
     0
 42
0.0000000001
 43
0.0000000001
 12
1.0
 22
0.0
 32
0.0
 13
1.0
 23
0.0
 33
0.0
 40
0.0
 40
0.0
 40
0.0
 40
0.0
 40
0.2
 40
0.2
 40
0.2
 40
0.2
 40
0.4
 40
0.4
 40
0.4
 40
0.4
 40
0.6
 40
0.6
 40
0.6
 40
0.6
 40
1.0
 40
1.0
 40
1.0
 40
1.0
 10
-86.3109
 20
-92.554
 30
0.0
 10
-88.0377
 20
-89.4259
 30
0.0
 10
-89.861
 20
-88.6499
 30
0.0
 10
-91.7276
 20
-90.0693
 30
0.0
 10
-91.7276
 20
-90.0693
 30
0.0
 10
-93.4128
 20
-91.3507
 30
0.0
 10
-92.9457
 20
-94.028
 30
0.0
 10
-90.5893
 20
-95.7724
 30
0.0
 10
-90.5893
 20
-95.7724
 30
0.0
 10
-88.5907
 20
-97.0776
 30
0.0
 10
-86.1382
 20
-97.877
 30
0.0
 10
-84.0316
 20
-98.6606
 30
0.0
 10
-84.0316
 20
-98.6606
 30
0.0
 10
-84.62
 20
-96.696
 30
0.0
 10
-85.2522
 20
-94.5065
 30
0.0
 10
-86.3109
 20
-92.554
 30
0.0
  0
SPLINE
  5
F2
330
1F
100
AcDbEntity
  8
layer 1
 62
     7
100
AcDbSpline
210
0.0
220
0.0
230
1.0
 70
    11
 71
     3
 72
    20
 73
    16
 74
     0
 42
0.0000000001
 43
0.0000000001
 12
1.0
 22
0.0
 32
0.0
 13
1.0
 23
0.0
 33
0.0
 40
0.0
 40
0.0
 40
0.0
 40
0.0
 40
0.2
 40
0.2
 40
0.2
 40
0.2
 40
0.4
 40
0.4
 40
0.4
 40
0.4
 40
0.6
 40
0.6
 40
0.6
 40
0.6
 40
1.0
 40
1.0
 40
1.0
 40
1.0
 10
-76.9432
 20
-92.554
 30
0.0
 10
-75.2163
 20
-89.4259
 30
0.0
 10
-73.393
 20
-88.6499
 30
0.0
 10
-71.5265
 20
-90.0693
 30
0.0
 10
-71.5265
 20
-90.0693
 30
0.0
 10
-69.8413
 20
-91.3507
 30
0.0
 10
-70.3084
 20
-94.028
 30
0.0
 10
-72.6648
 20
-95.7724
 30
0.0
 10
-72.6648
 20
-95.7724
 30
0.0
 10
-74.6634
 20
-97.0776
 30
0.0
 10
-77.1158
 20
-97.877
 30
0.0
 10
-79.2224
 20
-98.6606
 30
0.0
 10
-79.2224
 20
-98.6606
 30
0.0
 10
-78.634
 20
-96.696
 30
0.0
 10
-78.0019
 20
-94.5065
 30
0.0
 10
-76.9432
 20
-92.554
 30
0.0
  0
SPLINE
  5
F3
330
1F
100
AcDbEntity
  8
layer 1
 62
     7
100
AcDbSpline
210
0.0
220
0.0
230
1.0
 70
    11
 71
     3
 72
    20
 73
    16
 74
     0
 42
0.0000000001
 43
0.0000000001
 12
1.0
 22
0.0
 32
0.0
 13
1.0
 23
0.0
 33
0.0
 40
0.0
 40
0.0
 40
0.0
 40
0.0
 40
0.2
 40
0.2
 40
0.2
 40
0.2
 40
0.4
 40
0.4
 40
0.4
 40
0.4
 40
0.6
 40
0.6
 40
0.6
 40
0.6
 40
1.0
 40
1.0
 40
1.0
 40
1.0
 10
-150.4321
 20
-100.7709
 30
0.0
 10
-150.4321
 20
-98.556
 30
0.0
 10
-152.2277
 20
-96.7603
 30
0.0
 10
-154.4426
 20
-96.7603
 30
0.0
 10
-154.4426
 20
-96.7603
 30
0.0
 10
-156.6576
 20
-96.7603
 30
0.0
 10
-158.4532
 20
-98.556
 30
0.0
 10
-158.4532
 20
-100.7709
 30
0.0
 10
-158.4532
 20
-100.7709
 30
0.0
 10
-158.4532
 20
-102.9858
 30
0.0
 10
-156.6576
 20
-104.7815
 30
0.0
 10
-154.4426
 20
-104.7815
 30
0.0
 10
-154.4426
 20
-104.7815
 30
0.0
 10
-152.2277
 20
-104.7815
 30
0.0
 10
-150.4321
 20
-102.9858
 30
0.0
 10
-150.4321
 20
-100.7709
 30
0.0
  0
SPLINE
  5
F4
330
1F
100
AcDbEntity
  8
layer 1
 62
     7
100
AcDbSpline
210
0.0
220
0.0
230
1.0
 70
    11
 71
     3
 72
    20
 73
    16
 74
     0
 42
0.0000000001
 43
0.0000000001
 12
1.0
 22
0.0
 32
0.0
 13
1.0
 23
0.0
 33
0.0
 40
0.0
 40
0.0
 40
0.0
 40
0.0
 40
0.2
 40
0.2
 40
0.2
 40
0.2
 40
0.4
 40
0.4
 40
0.4
 40
0.4
 40
0.6
 40
0.6
 40
0.6
 40
0.6
 40
1.0
 40
1.0
 40
1.0
 40
1.0
 10
-121.2698
 20
-100.7709
 30
0.0
 10
-121.2698
 20
-98.556
 30
0.0
 10
-123.0655
 20
-96.7603
 30
0.0
 10
-125.2804
 20
-96.7603
 30
0.0
 10
-125.2804
 20
-96.7603
 30
0.0
 10
-127.4953
 20
-96.7603
 30
0.0
 10
-129.291
 20
-98.556
 30
0.0
 10
-129.291
 20
-100.7709
 30
0.0
 10
-129.291
 20
-100.7709
 30
0.0
 10
-129.291
 20
-102.9858
 30
0.0
 10
-127.4953
 20
-104.7815
 30
0.0
 10
-125.2804
 20
-104.7815
 30
0.0
 10
-125.2804
 20
-104.7815
 30
0.0
 10
-123.0655
 20
-104.7815
 30
0.0
 10
-121.2698
 20
-102.9858
 30
0.0
 10
-121.2698
 20
-100.7709
 30
0.0
  0
SPLINE
  5
F5
330
1F
100
AcDbEntity
  8
layer 1
 62
     7
100
AcDbSpline
210
0.0
220
0.0
230
1.0
 70
    11
 71
     3
 72
    20
 73
    16
 74
     0
 42
0.0000000001
 43
0.0000000001
 12
1.0
 22
0.0
 32
0.0
 13
1.0
 23
0.0
 33
0.0
 40
0.0
 40
0.0
 40
0.0
 40
0.0
 40
0.2
 40
0.2
 40
0.2
 40
0.2
 40
0.4
 40
0.4
 40
0.4
 40
0.4
 40
0.6
 40
0.6
 40
0.6
 40
0.6
 40
1.0
 40
1.0
 40
1.0
 40
1.0
 10
-91.8862
 20
-100.7709
 30
0.0
 10
-91.8862
 20
-98.556
 30
0.0
 10
-93.6818
 20
-96.7603
 30
0.0
 10
-95.8967
 20
-96.7603
 30
0.0
 10
-95.8967
 20
-96.7603
 30
0.0
 10
-98.1117
 20
-96.7603
 30
0.0
 10
-99.9073
 20
-98.556
 30
0.0
 10
-99.9073
 20
-100.7709
 30
0.0
 10
-99.9073
 20
-100.7709
 30
0.0
 10
-99.9073
 20
-102.9858
 30
0.0
 10
-98.1117
 20
-104.7815
 30
0.0
 10
-95.8967
 20
-104.7815
 30
0.0
 10
-95.8967
 20
-104.7815
 30
0.0
 10
-93.6818
 20
-104.7815
 30
0.0
 10
-91.8862
 20
-102.9858
 30
0.0
 10
-91.8862
 20
-100.7709
 30
0.0
  0
SPLINE
  5
F6
330
1F
100
AcDbEntity
  8
layer 1
 62
     7
100
AcDbSpline
210
0.0
220
0.0
230
1.0
 70
    11
 71
     3
 72
    20
 73
    16
 74
     0
 42
0.0000000001
 43
0.0000000001
 12
1.0
 22
0.0
 32
0.0
 13
1.0
 23
0.0
 33
0.0
 40
0.0
 40
0.0
 40
0.0
 40
0.0
 40
0.2
 40
0.2
 40
0.2
 40
0.2
 40
0.4
 40
0.4
 40
0.4
 40
0.4
 40
0.6
 40
0.6
 40
0.6
 40
0.6
 40
1.0
 40
1.0
 40
1.0
 40
1.0
 10
-164.6783
 20
-108.9013
 30
0.0
 10
-164.6783
 20
-108.9013
 30
0.0
 10
-158.2595
 20
-108.8554
 30
0.0
 10
-158.2595
 20
-108.8554
 30
0.0
 10
-158.2595
 20
-108.8554
 30
0.0
 10
-158.4561
 20
-107.8033
 30
0.0
 10
-159.1631
 20
-106.6913
 30
0.0
 10
-160.3472
 20
-105.8149
 30
0.0
 10
-160.3472
 20
-105.8149
 30
0.0
 10
-162.3458
 20
-104.5097
 30
0.0
 10
-164.7983
 20
-103.7102
 30
0.0
 10
-166.9049
 20
-102.9266
 30
0.0
 10
-166.9049
 20
-102.9266
 30
0.0
 10
-166.3165
 20
-104.8913
 30
0.0
 10
-165.737
 20
-106.9488
 30
0.0
 10
-164.6783
 20
-108.9013
 30
0.0
  0
SPLINE
  5
F7
330
1F
100
AcDbEntity
  8
layer 1
 62
     7
100
AcDbSpline
210
0.0
220
0.0
230
1.0
 70
    11
 71
     3
 72
    20
 73
    16
 74
     0
 42
0.0000000001
 43
0.0000000001
 12
1.0
 22
0.0
 32
0.0
 13
1.0
 23
0.0
 33
0.0
 40
0.0
 40
0.0
 40
0.0
 40
0.0
 40
0.2
 40
0.2
 40
0.2
 40
0.2
 40
0.4
 40
0.4
 40
0.4
 40
0.4
 40
0.6
 40
0.6
 40
0.6
 40
0.6
 40
1.0
 40
1.0
 40
1.0
 40
1.0
 10
-144.606
 20
-108.9013
 30
0.0
 10
-144.606
 20
-108.9013
 30
0.0
 10
-151.0248
 20
-108.8554
 30
0.0
 10
-151.0248
 20
-108.8554
 30
0.0
 10
-151.0248
 20
-108.8554
 30
0.0
 10
-150.8282
 20
-107.8033
 30
0.0
 10
-150.1211
 20
-106.6913
 30
0.0
 10
-148.9371
 20
-105.8149
 30
0.0
 10
-148.9371
 20
-105.8149
 30
0.0
 10
-146.9385
 20
-104.5097
 30
0.0
 10
-144.486
 20
-103.7102
 30
0.0
 10
-142.3794
 20
-102.9266
 30
0.0
 10
-142.3794
 20
-102.9266
 30
0.0
 10
-142.9678
 20
-104.8913
 30
0.0
 10
-143.5473
 20
-106.9488
 30
0.0
 10
-144.606
 20
-108.9013
 30
0.0
  0
SPLINE
  5
F8
330
1F
100
AcDbEntity
  8
layer 1
 62
     7
100
AcDbSpline
210
0.0
220
0.0
230
1.0
 70
    11
 71
     3
 72
    20
 73
    16
 74
     0
 42
0.0000000001
 43
0.0000000001
 12
1.0
 22
0.0
 32
0.0
 13
1.0
 23
0.0
 33
0.0
 40
0.0
 40
0.0
 40
0.0
 40
0.0
 40
0.2
 40
0.2
 40
0.2
 40
0.2
 40
0.4
 40
0.4
 40
0.4
 40
0.4
 40
0.6
 40
0.6
 40
0.6
 40
0.6
 40
1.0
 40
1.0
 40
1.0
 40
1.0
 10
-135.3357
 20
-108.9013
 30
0.0
 10
-135.3357
 20
-108.9013
 30
0.0
 10
-128.9168
 20
-108.8554
 30
0.0
 10
-128.9168
 20
-108.8554
 30
0.0
 10
-128.9168
 20
-108.8554
 30
0.0
 10
-129.1134
 20
-107.8033
 30
0.0
 10
-129.8205
 20
-106.6913
 30
0.0
 10
-131.0045
 20
-105.8149
 30
0.0
 10
-131.0045
 20
-105.8149
 30
0.0
 10
-133.0031
 20
-104.5097
 30
0.0
 10
-135.4556
 20
-103.7102
 30
0.0
 10
-137.5622
 20
-102.9266
 30
0.0
 10
-137.5622
 20
-102.9266
 30
0.0
 10
-136.9738
 20
-104.8913
 30
0.0
 10
-136.3943
 20
-106.9488
 30
0.0
 10
-135.3357
 20
-108.9013
 30
0.0
  0
SPLINE
  5
F9
330
1F
100
AcDbEntity
  8
layer 1
 62
     7
100
AcDbSpline
210
0.0
220
0.0
230
1.0
 70
    11
 71
     3
 72
    20
 73
    16
 74
     0
 42
0.0000000001
 43
0.0000000001
 12
1.0
 22
0.0
 32
0.0
 13
1.0
 23
0.0
 33
0.0
 40
0.0
 40
0.0
 40
0.0
 40
0.0
 40
0.2
 40
0.2
 40
0.2
 40
0.2
 40
0.4
 40
0.4
 40
0.4
 40
0.4
 40
0.6
 40
0.6
 40
0.6
 40
0.6
 40
1.0
 40
1.0
 40
1.0
 40
1.0
 10
-115.3379
 20
-108.9013
 30
0.0
 10
-115.3379
 20
-108.9013
 30
0.0
 10
-121.7567
 20
-108.8554
 30
0.0
 10
-121.7567
 20
-108.8554
 30
0.0
 10
-121.7567
 20
-108.8554
 30
0.0
 10
-121.5601
 20
-107.8033
 30
0.0
 10
-120.8531
 20
-106.6913
 30
0.0
 10
-119.669
 20
-105.8149
 30
0.0
 10
-119.669
 20
-105.8149
 30
0.0
 10
-117.6704
 20
-104.5097
 30
0.0
 10
-115.2179
 20
-103.7102
 30
0.0
 10
-113.1114
 20
-102.9266
 30
0.0
 10
-113.1114
 20
-102.9266
 30
0.0
 10
-113.6998
 20
-104.8913
 30
0.0
 10
-114.2792
 20
-106.9488
 30
0.0
 10
-115.3379
 20
-108.9013
 30
0.0
  0
SPLINE
  5
FA
330
1F
100
AcDbEntity
  8
layer 1
 62
     7
100
AcDbSpline
210
0.0
220
0.0
230
1.0
 70
    11
 71
     3
 72
    20
 73
    16
 74
     0
 42
0.0000000001
 43
0.0000000001
 12
1.0
 22
0.0
 32
0.0
 13
1.0
 23
0.0
 33
0.0
 40
0.0
 40
0.0
 40
0.0
 40
0.0
 40
0.2
 40
0.2
 40
0.2
 40
0.2
 40
0.4
 40
0.4
 40
0.4
 40
0.4
 40
0.6
 40
0.6
 40
0.6
 40
0.6
 40
1.0
 40
1.0
 40
1.0
 40
1.0
 10
-106.0677
 20
-108.9013
 30
0.0
 10
-106.0677
 20
-108.9013
 30
0.0
 10
-99.6488
 20
-108.8554
 30
0.0
 10
-99.6488
 20
-108.8554
 30
0.0
 10
-99.6488
 20
-108.8554
 30
0.0
 10
-99.8455
 20
-107.8033
 30
0.0
 10
-100.5525
 20
-106.6913
 30
0.0
 10
-101.7366
 20
-105.8149
 30
0.0
 10
-101.7366
 20
-105.8149
 30
0.0
 10
-103.7352
 20
-104.5097
 30
0.0
 10
-106.1877
 20
-103.7102
 30
0.0
 10
-108.2942
 20
-102.9266
 30
0.0
 10
-108.2942
 20
-102.9266
 30
0.0
 10
-107.7058
 20
-104.8913
 30
0.0
 10
-107.1264
 20
-106.9488
 30
0.0
 10
-106.0677
 20
-108.9013
 30
0.0
  0
SPLINE
  5
FB
330
1F
100
AcDbEntity
  8
layer 1
 62
     7
100
AcDbSpline
210
0.0
220
0.0
230
1.0
 70
    11
 71
     3
 72
    20
 73
    16
 74
     0
 42
0.0000000001
 43
0.0000000001
 12
1.0
 22
0.0
 32
0.0
 13
1.0
 23
0.0
 33
0.0
 40
0.0
 40
0.0
 40
0.0
 40
0.0
 40
0.2
 40
0.2
 40
0.2
 40
0.2
 40
0.4
 40
0.4
 40
0.4
 40
0.4
 40
0.6
 40
0.6
 40
0.6
 40
0.6
 40
1.0
 40
1.0
 40
1.0
 40
1.0
 10
-86.0699
 20
-108.9013
 30
0.0
 10
-86.0699
 20
-108.9013
 30
0.0
 10
-92.4888
 20
-108.8554
 30
0.0
 10
-92.4888
 20
-108.8554
 30
0.0
 10
-92.4888
 20
-108.8554
 30
0.0
 10
-92.2921
 20
-107.8033
 30
0.0
 10
-91.5851
 20
-106.6913
 30
0.0
 10
-90.4011
 20
-105.8149
 30
0.0
 10
-90.4011
 20
-105.8149
 30
0.0
 10
-88.4024
 20
-104.5097
 30
0.0
 10
-85.95
 20
-103.7102
 30
0.0
 10
-83.8434
 20
-102.9266
 30
0.0
 10
-83.8434
 20
-102.9266
 30
0.0
 10
-84.4318
 20
-104.8913
 30
0.0
 10
-85.0112
 20
-106.9488
 30
0.0
 10
-86.0699
 20
-108.9013
 30
0.0
  0
SPLINE
  5
FC
330
1F
100
AcDbEntity
  8
layer 1
 62
     7
100
AcDbSpline
210
0.0
220
0.0
230
1.0
 70
    11
 71
     3
 72
    20
 73
    16
 74
     0
 42
0.0000000001
 43
0.0000000001
 12
1.0
 22
0.0
 32
0.0
 13
1.0
 23
0.0
 33
0.0
 40
0.0
 40
0.0
 40
0.0
 40
0.0
 40
0.2
 40
0.2
 40
0.2
 40
0.2
 40
0.4
 40
0.4
 40
0.4
 40
0.4
 40
0.6
 40
0.6
 40
0.6
 40
0.6
 40
1.0
 40
1.0
 40
1.0
 40
1.0
 10
-76.7996
 20
-108.9013
 30
0.0
 10
-76.7996
 20
-108.9013
 30
0.0
 10
-70.3808
 20
-108.8554
 30
0.0
 10
-70.3808
 20
-108.8554
 30
0.0
 10
-70.3808
 20
-108.8554
 30
0.0
 10
-70.5774
 20
-107.8033
 30
0.0
 10
-71.2845
 20
-106.6913
 30
0.0
 10
-72.4685
 20
-105.8149
 30
0.0
 10
-72.4685
 20
-105.8149
 30
0.0
 10
-74.4671
 20
-104.5097
 30
0.0
 10
-76.9196
 20
-103.7102
 30
0.0
 10
-79.0262
 20
-102.9266
 30
0.0
 10
-79.0262
 20
-102.9266
 30
0.0
 10
-78.4378
 20
-104.8913
 30
0.0
 10
-77.8583
 20
-106.9488
 30
0.0
 10
-76.7996
 20
-108.9013
 30
0.0
  0
ENDSEC
  0
SECTION
  2
OBJECTS
  0
DICTIONARY
  5
C
330
0
100
AcDbDictionary
281
     1
  3
ACAD_GROUP
350
D
  3
ACAD_LAYOUT
350
1A
  3
ACAD_MATERIAL
350
3B
  3
ACAD_MLEADERSTYLE
350
11F
  3
ACAD_MLINESTYLE
350
17
  3
ACAD_PLOTSETTINGS
350
19
  3
ACAD_PLOTSTYLENAME
350
E
  3
ACAD_TABLESTYLE
350
11E
  3
ACAD_VISUALSTYLE
350
2A
  0
DICTIONARY
  5
D
102
{ACAD_REACTORS
330
C
102
}
330
C
100
AcDbDictionary
281
     1
  0
DICTIONARY
  5
1A
102
{ACAD_REACTORS
330
C
102
}
330
C
100
AcDbDictionary
281
     1
  3
Layout1
350
1E
  3
Layout2
350
26
  3
Model
350
22
  0
DICTIONARY
  5
3B
102
{ACAD_REACTORS
330
C
102
}
330
C
100
AcDbDictionary
281
     1
  3
ByBlock
350
3D
  3
ByLayer
350
3C
  3
Global
350
3E
  0
DICTIONARY
  5
11F
102
{ACAD_REACTORS
330
C
102
}
330
C
100
AcDbDictionary
281
     1
  0
DICTIONARY
  5
17
102
{ACAD_REACTORS
330
C
102
}
330
C
100
AcDbDictionary
281
     1
  3
Standard
350
18
  0
DICTIONARY
  5
19
102
{ACAD_REACTORS
330
C
102
}
330
C
100
AcDbDictionary
281
     1
  0
ACDBDICTIONARYWDFLT
  5
E
102
{ACAD_REACTORS
330
C
102
}
330
C
100
AcDbDictionary
281
     1
  3
Normal
350
F
100
AcDbDictionaryWithDefault
340
F
  0
DICTIONARY
  5
11E
102
{ACAD_REACTORS
330
C
102
}
330
C
100
AcDbDictionary
281
     1
  0
DICTIONARY
  5
2A
102
{ACAD_REACTORS
330
C
102
}
330
C
100
AcDbDictionary
281
     1
  3
2dWireframe
350
2F
  3
3D Hidden
350
31
  3
3dWireframe
350
30
  3
Basic
350
32
  3
Brighten
350
36
  3
ColorChange
350
3A
  3
Conceptual
350
34
  3
Dim
350
35
  3
Facepattern
350
39
  3
Flat
350
2B
  3
FlatWithEdges
350
2C
  3
Gouraud
350
2D
  3
GouraudWithEdges
350
2E
  3
Linepattern
350
38
  3
Realistic
350
33
  3
Thicken
350
37
  0
LAYOUT
  5
1E
102
{ACAD_REACTORS
330
1A
102
}
330
1A
100
AcDbPlotSettings
  1

  2
none_device
  4

  6

 40
0.0
 41
0.0
 42
0.0
 43
0.0
 44
0.0
 45
0.0
 46
0.0
 47
0.0
 48
0.0
 49
0.0
140
0.0
141
0.0
142
1.0
143
1.0
 70
   688
 72
     0
 73
     0
 74
     5
  7

 75
    16
 76
     0
 77
     2
 78
   300
147
1.0
148
0.0
149
0.0
100
AcDbLayout
  1
Layout1
 70
     1
 71
     1
 10
0.0
 20
0.0
 11
12.0
 21
9.0
 12
0.0
 22
0.0
 32
0.0
 14
1.000000000000000E+20
 24
1.000000000000000E+20
 34
1.000000000000000E+20
 15
-1.000000000000000E+20
 25
-1.000000000000000E+20
 35
-1.000000000000000E+20
146
0.0
 13
0.0
 23
0.0
 33
0.0
 16
1.0
 26
0.0
 36
0.0
 17
0.0
 27
1.0
 37
0.0
 76
     0
330
1B
  0
LAYOUT
  5
26
102
{ACAD_REACTORS
330
1A
102
}
330
1A
100
AcDbPlotSettings
  1

  2
none_device
  4

  6

 40
0.0
 41
0.0
 42
0.0
 43
0.0
 44
0.0
 45
0.0
 46
0.0
 47
0.0
 48
0.0
 49
0.0
140
0.0
141
0.0
142
1.0
143
1.0
 70
   688
 72
     0
 73
     0
 74
     5
  7

 75
    16
 76
     0
 77
     2
 78
   300
147
1.0
148
0.0
149
0.0
100
AcDbLayout
  1
Layout2
 70
     1
 71
     2
 10
0.0
 20
0.0
 11
0.0
 21
0.0
 12
0.0
 22
0.0
 32
0.0
 14
0.0
 24
0.0
 34
0.0
 15
0.0
 25
0.0
 35
0.0
146
0.0
 13
0.0
 23
0.0
 33
0.0
 16
1.0
 26
0.0
 36
0.0
 17
0.0
 27
1.0
 37
0.0
 76
     0
330
23
  0
LAYOUT
  5
22
102
{ACAD_REACTORS
330
1A
102
}
330
1A
100
AcDbPlotSettings
  1

  2
none_device
  4

  6

 40
0.0
 41
0.0
 42
0.0
 43
0.0
 44
0.0
 45
0.0
 46
0.0
 47
0.0
 48
0.0
 49
0.0
140
0.0
141
0.0
142
1.0
143
1.0
 70
  1712
 72
     0
 73
     0
 74
     0
  7

 75
     0
 76
     0
 77
     2
 78
   300
147
1.0
148
0.0
149
0.0
100
AcDbLayout
  1
Model
 70
     1
 71
     0
 10
0.0
 20
0.0
 11
12.0
 21
9.0
 12
0.0
 22
0.0
 32
0.0
 14
-187.1673
 24
-115.4043
 34
0.0
 15
-63.7111
 25
131.5082
 35
0.0
146
0.0
 13
0.0
 23
0.0
 33
0.0
 16
1.0
 26
0.0
 36
0.0
 17
0.0
 27
1.0
 37
0.0
 76
     0
330
1F
331
29
  0
MATERIAL
  5
3D
102
{ACAD_REACTORS
330
3B
102
}
330
3B
100
AcDbMaterial
  1
ByBlock
 72
     1
 94
      127
  0
MATERIAL
  5
3C
102
{ACAD_REACTORS
330
3B
102
}
330
3B
100
AcDbMaterial
  1
ByLayer
 72
     1
 94
      127
  0
MATERIAL
  5
3E
102
{ACAD_REACTORS
330
3B
102
}
330
3B
100
AcDbMaterial
  1
Global
 72
     1
 94
      127
  0
MLINESTYLE
  5
18
102
{ACAD_REACTORS
330
17
102
}
330
17
100
AcDbMlineStyle
  2
Standard
 70
     0
  3

 62
   256
 51
90.0
 52
90.0
 71
     2
 49
0.5
 62
   256
  6
BYLAYER
 49
-0.5
 62
   256
  6
BYLAYER
  0
ACDBPLACEHOLDER
  5
F
102
{ACAD_REACTORS
330
E
102
}
330
E
  0
VISUALSTYLE
  5
2F
102
{ACAD_REACTORS
330
2A
102
}
102
{ACAD_XDICTIONARY
360
106
102
}
330
2A
100
AcDbVisualStyle
  2
2dWireframe
 70
     4
 71
     0
 72
     2
 73
     0
 90
        0
 40
-0.6
 41
-30.0
 62
     5
 63
     7
421
 16777215
 74
     1
 91
        4
 64
     7
 65
   257
 75
     1
175
     1
 42
1.0
 92
        0
 66
   257
 43
1.0
 76
     1
 77
     6
 78
     2
 67
     7
 79
     5
170
     0
171
     0
290
     0
174
     0
 93
        1
 44
0.0
173
     0
291
     0
 45
0.0
  0
VISUALSTYLE
  5
31
102
{ACAD_REACTORS
330
2A
102
}
102
{ACAD_XDICTIONARY
360
10A
102
}
330
2A
100
AcDbVisualStyle
  2
3D Hidden
 70
     6
 71
     1
 72
     2
 73
     2
 90
        0
 40
-0.6
 41
-30.0
 62
     5
 63
     7
421
 16777215
 74
     2
 91
        2
 64
     7
 65
   257
 75
     2
175
     1
 42
40.0
 92
        0
 66
   257
 43
1.0
 76
     1
 77
     6
 78
     2
 67
     7
 79
     3
170
     0
171
     0
290
     0
174
     0
 93
        1
 44
0.0
173
     0
291
     0
 45
0.0
  0
VISUALSTYLE
  5
30
102
{ACAD_REACTORS
330
2A
102
}
102
{ACAD_XDICTIONARY
360
108
102
}
330
2A
100
AcDbVisualStyle
  2
3dWireframe
 70
     5
 71
     0
 72
     2
 73
     0
 90
        0
 40
-0.6
 41
-30.0
 62
     5
 63
     7
421
 16777215
 74
     1
 91
        4
 64
     7
 65
   257
 75
     1
175
     1
 42
1.0
 92
        0
 66
   257
 43
1.0
 76
     1
 77
     6
 78
     2
 67
     7
 79
     5
170
     0
171
     0
290
     0
174
     0
 93
        1
 44
0.0
173
     0
291
     0
 45
0.0
  0
VISUALSTYLE
  5
32
102
{ACAD_REACTORS
330
2A
102
}
102
{ACAD_XDICTIONARY
360
10C
102
}
330
2A
100
AcDbVisualStyle
  2
Basic
 70
     7
 71
     1
 72
     0
 73
     1
 90
        0
 40
-0.6
 41
-30.0
 62
     5
 63
     7
421
 16777215
 74
     0
 91
        4
 64
     7
 65
   257
 75
     1
175
     1
 42
1.0
 92
        8
 66
     7
 43
1.0
 76
     1
 77
     6
 78
     2
 67
     7
 79
     5
170
     0
171
     0
290
     0
174
     0
 93
        1
 44
0.0
173
     0
291
     1
 45
0.0
  0
VISUALSTYLE
  5
36
102
{ACAD_REACTORS
330
2A
102
}
102
{ACAD_XDICTIONARY
360
114
102
}
330
2A
100
AcDbVisualStyle
  2
Brighten
 70
    12
 71
     2
 72
     2
 73
     0
 90
        0
 40
-0.6
 41
-30.0
 62
     5
 63
     7
421
 16777215
 74
     1
 91
        4
 64
     7
 65
   257
 75
     1
175
     1
 42
1.0
 92
        8
 66
     7
 43
1.0
 76
     1
 77
     6
 78
     2
 67
     7
 79
     5
170
     0
171
     0
290
     0
174
     0
 93
        1
 44
50.0
173
     0
291
     1
 45
0.0
  0
VISUALSTYLE
  5
3A
102
{ACAD_REACTORS
330
2A
102
}
102
{ACAD_XDICTIONARY
360
11C
102
}
330
2A
100
AcDbVisualStyle
  2
ColorChange
 70
    16
 71
     2
 72
     2
 73
     3
 90
        0
 40
-0.6
 41
-30.0
 62
     5
 63
     8
421
  8421504
 74
     1
 91
        4
 64
     7
 65
   257
 75
     1
175
     1
 42
1.0
 92
        8
 66
     8
424
  8421504
 43
1.0
 76
     1
 77
     6
 78
     2
 67
     7
 79
     5
170
     0
171
     0
290
     0
174
     0
 93
        1
 44
0.0
173
     0
291
     1
 45
0.0
  0
VISUALSTYLE
  5
34
102
{ACAD_REACTORS
330
2A
102
}
102
{ACAD_XDICTIONARY
360
110
102
}
330
2A
100
AcDbVisualStyle
  2
Conceptual
 70
     9
 71
     3
 72
     2
 73
     0
 90
        0
 40
-0.6
 41
-30.0
 62
     5
 63
     7
421
 16777215
 74
     2
 91
        2
 64
     7
 65
   257
 75
     1
175
     1
 42
40.0
 92
        8
 66
     7
 43
1.0
 76
     1
 77
     6
 78
     2
 67
     7
 79
     3
170
     0
171
     0
290
     0
174
     0
 93
        1
 44
0.0
173
     0
291
     0
 45
0.0
  0
VISUALSTYLE
  5
35
102
{ACAD_REACTORS
330
2A
102
}
102
{ACAD_XDICTIONARY
360
112
102
}
330
2A
100
AcDbVisualStyle
  2
Dim
 70
    11
 71
     2
 72
     2
 73
     0
 90
        0
 40
-0.6
 41
-30.0
 62
     5
 63
     7
421
 16777215
 74
     1
 91
        4
 64
     7
 65
   257
 75
     1
175
     1
 42
1.0
 92
        8
 66
     7
 43
1.0
 76
     1
 77
     6
 78
     2
 67
     7
 79
     5
170
     0
171
     0
290
     0
174
     0
 93
        1
 44
-50.0
173
     0
291
     1
 45
0.0
  0
VISUALSTYLE
  5
39
102
{ACAD_REACTORS
330
2A
102
}
102
{ACAD_XDICTIONARY
360
11A
102
}
330
2A
100
AcDbVisualStyle
  2
Facepattern
 70
    15
 71
     2
 72
     2
 73
     0
 90
        0
 40
-0.6
 41
-30.0
 62
     5
 63
     7
421
 16777215
 74
     1
 91
        4
 64
     7
 65
   257
 75
     1
175
     1
 42
1.0
 92
        8
 66
     7
 43
1.0
 76
     1
 77
     6
 78
     2
 67
     7
 79
     5
170
     0
171
     0
290
     0
174
     0
 93
        1
 44
0.0
173
     0
291
     1
 45
0.0
  0
VISUALSTYLE
  5
2B
102
{ACAD_REACTORS
330
2A
102
}
102
{ACAD_XDICTIONARY
360
FE
102
}
330
2A
100
AcDbVisualStyle
  2
Flat
 70
     0
 71
     2
 72
     1
 73
     1
 90
        2
 40
-0.6
 41
30.0
 62
     5
 63
     7
421
 16777215
 74
     0
 91
        4
 64
     7
 65
   257
 75
     1
175
     1
 42
1.0
 92
        8
 66
     7
 43
1.0
 76
     1
 77
     6
 78
     2
 67
     7
 79
     5
170
     0
171
     0
290
     0
174
     0
 93
       13
 44
0.0
173
     0
291
     1
 45
0.0
  0
VISUALSTYLE
  5
2C
102
{ACAD_REACTORS
330
2A
102
}
102
{ACAD_XDICTIONARY
360
100
102
}
330
2A
100
AcDbVisualStyle
  2
FlatWithEdges
 70
     1
 71
     2
 72
     1
 73
     1
 90
        2
 40
-0.6
 41
30.0
 62
     5
 63
     7
421
 16777215
 74
     1
 91
        4
 64
     7
 65
   257
 75
     1
175
     1
 42
1.0
 92
        0
 66
   257
 43
1.0
 76
     1
 77
     6
 78
     2
 67
     7
 79
     5
170
     0
171
     0
290
     0
174
     0
 93
       13
 44
0.0
173
     0
291
     1
 45
0.0
  0
VISUALSTYLE
  5
2D
102
{ACAD_REACTORS
330
2A
102
}
102
{ACAD_XDICTIONARY
360
102
102
}
330
2A
100
AcDbVisualStyle
  2
Gouraud
 70
     2
 71
     2
 72
     2
 73
     1
 90
        2
 40
-0.6
 41
30.0
 62
     5
 63
     7
421
 16777215
 74
     0
 91
        4
 64
     7
 65
   257
 75
     1
175
     1
 42
1.0
 92
        0
 66
     7
 43
1.0
 76
     1
 77
     6
 78
     2
 67
     7
 79
     5
170
     0
171
     0
290
     0
174
     0
 93
       13
 44
0.0
173
     0
291
     1
 45
0.0
  0
VISUALSTYLE
  5
2E
102
{ACAD_REACTORS
330
2A
102
}
102
{ACAD_XDICTIONARY
360
104
102
}
330
2A
100
AcDbVisualStyle
  2
GouraudWithEdges
 70
     3
 71
     2
 72
     2
 73
     1
 90
        2
 40
-0.6
 41
30.0
 62
     5
 63
     7
421
 16777215
 74
     1
 91
        4
 64
     7
 65
   257
 75
     1
175
     1
 42
1.0
 92
        0
 66
   257
 43
1.0
 76
     1
 77
     6
 78
     2
 67
     7
 79
     5
170
     0
171
     0
290
     0
174
     0
 93
       13
 44
0.0
173
     0
291
     1
 45
0.0
  0
VISUALSTYLE
  5
38
102
{ACAD_REACTORS
330
2A
102
}
102
{ACAD_XDICTIONARY
360
118
102
}
330
2A
100
AcDbVisualStyle
  2
Linepattern
 70
    14
 71
     2
 72
     2
 73
     0
 90
        0
 40
-0.6
 41
-30.0
 62
     5
 63
     7
421
 16777215
 74
     1
 91
        4
 64
     7
 65
   257
 75
     7
175
     7
 42
1.0
 92
        8
 66
     7
 43
1.0
 76
     1
 77
     6
 78
     2
 67
     7
 79
     5
170
     0
171
     0
290
     0
174
     0
 93
        1
 44
0.0
173
     0
291
     1
 45
0.0
  0
VISUALSTYLE
  5
33
102
{ACAD_REACTORS
330
2A
102
}
102
{ACAD_XDICTIONARY
360
10E
102
}
330
2A
100
AcDbVisualStyle
  2
Realistic
 70
     8
 71
     2
 72
     2
 73
     0
 90
        0
 40
-0.6
 41
-30.0
 62
     5
 63
     7
421
 16777215
 74
     1
 91
        0
 64
     7
 65
   257
 75
     1
175
     1
 42
1.0
 92
        8
 66
     8
424
  7895160
 43
1.0
 76
     1
 77
     6
 78
     2
 67
     7
 79
     5
170
     0
171
     0
290
     0
174
     0
 93
       13
 44
0.0
173
     0
291
     0
 45
0.0
  0
VISUALSTYLE
  5
37
102
{ACAD_REACTORS
330
2A
102
}
102
{ACAD_XDICTIONARY
360
116
102
}
330
2A
100
AcDbVisualStyle
  2
Thicken
 70
    13
 71
     2
 72
     2
 73
     0
 90
        0
 40
-0.6
 41
-30.0
 62
     5
 63
     7
421
 16777215
 74
     1
 91
        4
 64
     7
 65
   257
 75
     1
175
     1
 42
1.0
 92
       12
 66
     7
 43
1.0
 76
     1
 77
     6
 78
     2
 67
     7
 79
     5
170
     0
171
     0
290
     0
174
     0
 93
        1
 44
0.0
173
     0
291
     1
 45
0.0
  0
DICTIONARY
  5
106
330
2F
100
AcDbDictionary
280
     1
281
     1
  3
ACAD_XREC_ROUNDTRIP
360
107
  0
DICTIONARY
  5
10A
330
31
100
AcDbDictionary
280
     1
281
     1
  3
ACAD_XREC_ROUNDTRIP
360
10B
  0
DICTIONARY
  5
108
330
30
100
AcDbDictionary
280
     1
281
     1
  3
ACAD_XREC_ROUNDTRIP
360
109
  0
DICTIONARY
  5
10C
330
32
100
AcDbDictionary
280
     1
281
     1
  3
ACAD_XREC_ROUNDTRIP
360
10D
  0
DICTIONARY
  5
114
330
36
100
AcDbDictionary
280
     1
281
     1
  3
ACAD_XREC_ROUNDTRIP
360
115
  0
DICTIONARY
  5
11C
330
3A
100
AcDbDictionary
280
     1
281
     1
  3
ACAD_XREC_ROUNDTRIP
360
11D
  0
DICTIONARY
  5
110
330
34
100
AcDbDictionary
280
     1
281
     1
  3
ACAD_XREC_ROUNDTRIP
360
111
  0
DICTIONARY
  5
112
330
35
100
AcDbDictionary
280
     1
281
     1
  3
ACAD_XREC_ROUNDTRIP
360
113
  0
DICTIONARY
  5
11A
330
39
100
AcDbDictionary
280
     1
281
     1
  3
ACAD_XREC_ROUNDTRIP
360
11B
  0
DICTIONARY
  5
FE
330
2B
100
AcDbDictionary
280
     1
281
     1
  3
ACAD_XREC_ROUNDTRIP
360
FF
  0
DICTIONARY
  5
100
330
2C
100
AcDbDictionary
280
     1
281
     1
  3
ACAD_XREC_ROUNDTRIP
360
101
  0
DICTIONARY
  5
102
330
2D
100
AcDbDictionary
280
     1
281
     1
  3
ACAD_XREC_ROUNDTRIP
360
103
  0
DICTIONARY
  5
104
330
2E
100
AcDbDictionary
280
     1
281
     1
  3
ACAD_XREC_ROUNDTRIP
360
105
  0
DICTIONARY
  5
118
330
38
100
AcDbDictionary
280
     1
281
     1
  3
ACAD_XREC_ROUNDTRIP
360
119
  0
DICTIONARY
  5
10E
330
33
100
AcDbDictionary
280
     1
281
     1
  3
ACAD_XREC_ROUNDTRIP
360
10F
  0
DICTIONARY
  5
116
330
37
100
AcDbDictionary
280
     1
281
     1
  3
ACAD_XREC_ROUNDTRIP
360
117
  0
XRECORD
  5
107
102
{ACAD_REACTORS
330
106
102
}
330
106
100
AcDbXrecord
280
     1
102
RTVSPropertyOp0
 70
     1
102
RTVSPropertyOp1
 70
     1
102
RTVSPropertyOp2
 70
     1
102
RTVSPropertyOp3
 70
     1
102
RTVSPropertyOp4
 70
     1
102
RTVSPropertyOp5
 70
     1
102
RTVSPropertyOp6
 70
     1
102
RTVSPropertyOp7
 70
     1
102
RTVSPropertyOp8
 70
     1
102
RTVSPropertyOp9
 70
     1
102
RTVSPropertyOp10
 70
     1
102
RTVSPropertyOp11
 70
     1
102
RTVSPropertyOp12
 70
     1
102
RTVSPropertyOp13
 70
     1
102
RTVSPropertyOp14
 70
     1
102
RTVSPropertyOp15
 70
     1
102
RTVSPropertyOp16
 70
     1
102
RTVSPropertyOp17
 70
     1
102
RTVSPropertyOp18
 70
     1
102
RTVSPropertyOp19
 70
     1
102
RTVSPropertyOp20
 70
     1
102
RTVSPropertyOp21
 70
     1
102
RTVSPropertyOp22
 70
     1
102
RTVSPropertyOp23
 70
     1
102
RTVSPropertyOp24
 70
     1
102
RTVSPropertyOp25
 70
     1
102
RTVSPropertyOp26
 70
     1
102
RTVSPropertyOp27
 70
     1
102
RTVSPropertyOp28
 70
     1
102
RTVSPropertyOp29
 70
     1
102
RTVSPropertyOp30
 70
     1
102
RTVSPropertyOp31
 70
     1
102
RTVSPropertyOp32
 70
     1
  0
XRECORD
  5
10B
102
{ACAD_REACTORS
330
10A
102
}
330
10A
100
AcDbXrecord
280
     1
102
RTVSPropertyOp0
 70
     1
102
RTVSPropertyOp1
 70
     1
102
RTVSPropertyOp2
 70
     1
102
RTVSPropertyOp3
 70
     1
102
RTVSPropertyOp4
 70
     1
102
RTVSPropertyOp5
 70
     1
102
RTVSPropertyOp6
 70
     1
102
RTVSPropertyOp7
 70
     1
102
RTVSPropertyOp8
 70
     1
102
RTVSPropertyOp9
 70
     1
102
RTVSPropertyOp10
 70
     1
102
RTVSPropertyOp11
 70
     1
102
RTVSPropertyOp12
 70
     1
102
RTVSPropertyOp13
 70
     1
102
RTVSPropertyOp14
 70
     1
102
RTVSPropertyOp15
 70
     1
102
RTVSPropertyOp16
 70
     1
102
RTVSPropertyOp17
 70
     1
102
RTVSPropertyOp18
 70
     1
102
RTVSPropertyOp19
 70
     1
102
RTVSPropertyOp20
 70
     1
102
RTVSPropertyOp21
 70
     1
102
RTVSPropertyOp22
 70
     1
102
RTVSPropertyOp23
 70
     1
102
RTVSPropertyOp24
 70
     1
102
RTVSPropertyOp25
 70
     1
102
RTVSPropertyOp26
 70
     1
102
RTVSPropertyOp27
 70
     1
102
RTVSPropertyOp28
 70
     1
102
RTVSPropertyOp29
 70
     1
102
RTVSPropertyOp30
 70
     1
102
RTVSPropertyOp31
 70
     1
102
RTVSPropertyOp32
 70
     1
  0
XRECORD
  5
109
102
{ACAD_REACTORS
330
108
102
}
330
108
100
AcDbXrecord
280
     1
102
RTVSPropertyOp0
 70
     1
102
RTVSPropertyOp1
 70
     1
102
RTVSPropertyOp2
 70
     1
102
RTVSPropertyOp3
 70
     1
102
RTVSPropertyOp4
 70
     1
102
RTVSPropertyOp5
 70
     1
102
RTVSPropertyOp6
 70
     1
102
RTVSPropertyOp7
 70
     1
102
RTVSPropertyOp8
 70
     1
102
RTVSPropertyOp9
 70
     1
102
RTVSPropertyOp10
 70
     1
102
RTVSPropertyOp11
 70
     1
102
RTVSPropertyOp12
 70
     1
102
RTVSPropertyOp13
 70
     1
102
RTVSPropertyOp14
 70
     1
102
RTVSPropertyOp15
 70
     1
102
RTVSPropertyOp16
 70
     1
102
RTVSPropertyOp17
 70
     1
102
RTVSPropertyOp18
 70
     1
102
RTVSPropertyOp19
 70
     1
102
RTVSPropertyOp20
 70
     1
102
RTVSPropertyOp21
 70
     1
102
RTVSPropertyOp22
 70
     1
102
RTVSPropertyOp23
 70
     1
102
RTVSPropertyOp24
 70
     1
102
RTVSPropertyOp25
 70
     1
102
RTVSPropertyOp26
 70
     1
102
RTVSPropertyOp27
 70
     1
102
RTVSPropertyOp28
 70
     1
102
RTVSPropertyOp29
 70
     1
102
RTVSPropertyOp30
 70
     1
102
RTVSPropertyOp31
 70
     1
102
RTVSPropertyOp32
 70
     1
  0
XRECORD
  5
10D
102
{ACAD_REACTORS
330
10C
102
}
330
10C
100
AcDbXrecord
280
     1
102
RTVSPropertyOp0
 70
     1
102
RTVSPropertyOp1
 70
     1
102
RTVSPropertyOp2
 70
     1
102
RTVSPropertyOp3
 70
     1
102
RTVSPropertyOp4
 70
     1
102
RTVSPropertyOp5
 70
     1
102
RTVSPropertyOp6
 70
     1
102
RTVSPropertyOp7
 70
     1
102
RTVSPropertyOp8
 70
     1
102
RTVSPropertyOp9
 70
     1
102
RTVSPropertyOp10
 70
     1
102
RTVSPropertyOp11
 70
     1
102
RTVSPropertyOp12
 70
     1
102
RTVSPropertyOp13
 70
     1
102
RTVSPropertyOp14
 70
     1
102
RTVSPropertyOp15
 70
     1
102
RTVSPropertyOp16
 70
     1
102
RTVSPropertyOp17
 70
     1
102
RTVSPropertyOp18
 70
     1
102
RTVSPropertyOp19
 70
     1
102
RTVSPropertyOp20
 70
     1
102
RTVSPropertyOp21
 70
     1
102
RTVSPropertyOp22
 70
     1
102
RTVSPropertyOp23
 70
     1
102
RTVSPropertyOp24
 70
     1
102
RTVSPropertyOp25
 70
     1
102
RTVSPropertyOp26
 70
     1
102
RTVSPropertyOp27
 70
     1
102
RTVSPropertyOp28
 70
     1
102
RTVSPropertyOp29
 70
     1
102
RTVSPropertyOp30
 70
     1
102
RTVSPropertyOp31
 70
     1
102
RTVSPropertyOp32
 70
     1
  0
XRECORD
  5
115
102
{ACAD_REACTORS
330
114
102
}
330
114
100
AcDbXrecord
280
     1
102
RTVSPropertyOp0
 70
     1
102
RTVSPropertyOp1
 70
     1
102
RTVSPropertyOp2
 70
     1
102
RTVSPropertyOp3
 70
     1
102
RTVSPropertyOp4
 70
     1
102
RTVSPropertyOp5
 70
     1
102
RTVSPropertyOp6
 70
     1
102
RTVSPropertyOp7
 70
     1
102
RTVSPropertyOp8
 70
     1
102
RTVSPropertyOp9
 70
     1
102
RTVSPropertyOp10
 70
     1
102
RTVSPropertyOp11
 70
     1
102
RTVSPropertyOp12
 70
     1
102
RTVSPropertyOp13
 70
     1
102
RTVSPropertyOp14
 70
     1
102
RTVSPropertyOp15
 70
     1
102
RTVSPropertyOp16
 70
     1
102
RTVSPropertyOp17
 70
     1
102
RTVSPropertyOp18
 70
     1
102
RTVSPropertyOp19
 70
     1
102
RTVSPropertyOp20
 70
     1
102
RTVSPropertyOp21
 70
     1
102
RTVSPropertyOp22
 70
     1
102
RTVSPropertyOp23
 70
     1
102
RTVSPropertyOp24
 70
     1
102
RTVSPropertyOp25
 70
     1
102
RTVSPropertyOp26
 70
     1
102
RTVSPropertyOp27
 70
     1
102
RTVSPropertyOp28
 70
     1
102
RTVSPropertyOp29
 70
     1
102
RTVSPropertyOp30
 70
     1
102
RTVSPropertyOp31
 70
     1
102
RTVSPropertyOp32
 70
     1
  0
XRECORD
  5
11D
102
{ACAD_REACTORS
330
11C
102
}
330
11C
100
AcDbXrecord
280
     1
102
RTVSPropertyOp0
 70
     1
102
RTVSPropertyOp1
 70
     1
102
RTVSPropertyOp2
 70
     1
102
RTVSPropertyOp3
 70
     1
102
RTVSPropertyOp4
 70
     1
102
RTVSPropertyOp5
 70
     1
102
RTVSPropertyOp6
 70
     1
102
RTVSPropertyOp7
 70
     1
102
RTVSPropertyOp8
 70
     1
102
RTVSPropertyOp9
 70
     1
102
RTVSPropertyOp10
 70
     1
102
RTVSPropertyOp11
 70
     1
102
RTVSPropertyOp12
 70
     1
102
RTVSPropertyOp13
 70
     1
102
RTVSPropertyOp14
 70
     1
102
RTVSPropertyOp15
 70
     1
102
RTVSPropertyOp16
 70
     1
102
RTVSPropertyOp17
 70
     1
102
RTVSPropertyOp18
 70
     1
102
RTVSPropertyOp19
 70
     1
102
RTVSPropertyOp20
 70
     1
102
RTVSPropertyOp21
 70
     1
102
RTVSPropertyOp22
 70
     1
102
RTVSPropertyOp23
 70
     1
102
RTVSPropertyOp24
 70
     1
102
RTVSPropertyOp25
 70
     1
102
RTVSPropertyOp26
 70
     1
102
RTVSPropertyOp27
 70
     1
102
RTVSPropertyOp28
 70
     1
102
RTVSPropertyOp29
 70
     1
102
RTVSPropertyOp30
 70
     1
102
RTVSPropertyOp31
 70
     1
102
RTVSPropertyOp32
 70
     1
  0
XRECORD
  5
111
102
{ACAD_REACTORS
330
110
102
}
330
110
100
AcDbXrecord
280
     1
102
RTVSPropertyOp0
 70
     1
102
RTVSPropertyOp1
 70
     1
102
RTVSPropertyOp2
 70
     1
102
RTVSPropertyOp3
 70
     1
102
RTVSPropertyOp4
 70
     1
102
RTVSPropertyOp5
 70
     1
102
RTVSPropertyOp6
 70
     1
102
RTVSPropertyOp7
 70
     1
102
RTVSPropertyOp8
 70
     1
102
RTVSPropertyOp9
 70
     1
102
RTVSPropertyOp10
 70
     1
102
RTVSPropertyOp11
 70
     1
102
RTVSPropertyOp12
 70
     1
102
RTVSPropertyOp13
 70
     1
102
RTVSPropertyOp14
 70
     1
102
RTVSPropertyOp15
 70
     1
102
RTVSPropertyOp16
 70
     1
102
RTVSPropertyOp17
 70
     1
102
RTVSPropertyOp18
 70
     1
102
RTVSPropertyOp19
 70
     1
102
RTVSPropertyOp20
 70
     1
102
RTVSPropertyOp21
 70
     1
102
RTVSPropertyOp22
 70
     1
102
RTVSPropertyOp23
 70
     1
102
RTVSPropertyOp24
 70
     1
102
RTVSPropertyOp25
 70
     1
102
RTVSPropertyOp26
 70
     1
102
RTVSPropertyOp27
 70
     1
102
RTVSPropertyOp28
 70
     1
102
RTVSPropertyOp29
 70
     1
102
RTVSPropertyOp30
 70
     1
102
RTVSPropertyOp31
 70
     1
102
RTVSPropertyOp32
 70
     1
  0
XRECORD
  5
113
102
{ACAD_REACTORS
330
112
102
}
330
112
100
AcDbXrecord
280
     1
102
RTVSPropertyOp0
 70
     1
102
RTVSPropertyOp1
 70
     1
102
RTVSPropertyOp2
 70
     1
102
RTVSPropertyOp3
 70
     1
102
RTVSPropertyOp4
 70
     1
102
RTVSPropertyOp5
 70
     1
102
RTVSPropertyOp6
 70
     1
102
RTVSPropertyOp7
 70
     1
102
RTVSPropertyOp8
 70
     1
102
RTVSPropertyOp9
 70
     1
102
RTVSPropertyOp10
 70
     1
102
RTVSPropertyOp11
 70
     1
102
RTVSPropertyOp12
 70
     1
102
RTVSPropertyOp13
 70
     1
102
RTVSPropertyOp14
 70
     1
102
RTVSPropertyOp15
 70
     1
102
RTVSPropertyOp16
 70
     1
102
RTVSPropertyOp17
 70
     1
102
RTVSPropertyOp18
 70
     1
102
RTVSPropertyOp19
 70
     1
102
RTVSPropertyOp20
 70
     1
102
RTVSPropertyOp21
 70
     1
102
RTVSPropertyOp22
 70
     1
102
RTVSPropertyOp23
 70
     1
102
RTVSPropertyOp24
 70
     1
102
RTVSPropertyOp25
 70
     1
102
RTVSPropertyOp26
 70
     1
102
RTVSPropertyOp27
 70
     1
102
RTVSPropertyOp28
 70
     1
102
RTVSPropertyOp29
 70
     1
102
RTVSPropertyOp30
 70
     1
102
RTVSPropertyOp31
 70
     1
102
RTVSPropertyOp32
 70
     1
  0
XRECORD
  5
11B
102
{ACAD_REACTORS
330
11A
102
}
330
11A
100
AcDbXrecord
280
     1
102
RTVSPropertyOp0
 70
     1
102
RTVSPropertyOp1
 70
     1
102
RTVSPropertyOp2
 70
     1
102
RTVSPropertyOp3
 70
     1
102
RTVSPropertyOp4
 70
     1
102
RTVSPropertyOp5
 70
     1
102
RTVSPropertyOp6
 70
     1
102
RTVSPropertyOp7
 70
     1
102
RTVSPropertyOp8
 70
     1
102
RTVSPropertyOp9
 70
     1
102
RTVSPropertyOp10
 70
     1
102
RTVSPropertyOp11
 70
     1
102
RTVSPropertyOp12
 70
     1
102
RTVSPropertyOp13
 70
     1
102
RTVSPropertyOp14
 70
     1
102
RTVSPropertyOp15
 70
     1
102
RTVSPropertyOp16
 70
     1
102
RTVSPropertyOp17
 70
     1
102
RTVSPropertyOp18
 70
     1
102
RTVSPropertyOp19
 70
     1
102
RTVSPropertyOp20
 70
     1
102
RTVSPropertyOp21
 70
     1
102
RTVSPropertyOp22
 70
     1
102
RTVSPropertyOp23
 70
     1
102
RTVSPropertyOp24
 70
     1
102
RTVSPropertyOp25
 70
     1
102
RTVSPropertyOp26
 70
     1
102
RTVSPropertyOp27
 70
     1
102
RTVSPropertyOp28
 70
     1
102
RTVSPropertyOp29
 70
     1
102
RTVSPropertyOp30
 70
     1
102
RTVSPropertyOp31
 70
     1
102
RTVSPropertyOp32
 70
     1
  0
XRECORD
  5
FF
102
{ACAD_REACTORS
330
FE
102
}
330
FE
100
AcDbXrecord
280
     1
102
RTVSPropertyOp0
 70
     1
102
RTVSPropertyOp1
 70
     1
102
RTVSPropertyOp2
 70
     1
102
RTVSPropertyOp3
 70
     1
102
RTVSPropertyOp4
 70
     1
102
RTVSPropertyOp5
 70
     1
102
RTVSPropertyOp6
 70
     1
102
RTVSPropertyOp7
 70
     1
102
RTVSPropertyOp8
 70
     1
102
RTVSPropertyOp9
 70
     1
102
RTVSPropertyOp10
 70
     1
102
RTVSPropertyOp11
 70
     1
102
RTVSPropertyOp12
 70
     1
102
RTVSPropertyOp13
 70
     1
102
RTVSPropertyOp14
 70
     1
102
RTVSPropertyOp15
 70
     1
102
RTVSPropertyOp16
 70
     1
102
RTVSPropertyOp17
 70
     1
102
RTVSPropertyOp18
 70
     1
102
RTVSPropertyOp19
 70
     1
102
RTVSPropertyOp20
 70
     1
102
RTVSPropertyOp21
 70
     1
102
RTVSPropertyOp22
 70
     1
102
RTVSPropertyOp23
 70
     1
102
RTVSPropertyOp24
 70
     1
102
RTVSPropertyOp25
 70
     1
102
RTVSPropertyOp26
 70
     1
102
RTVSPropertyOp27
 70
     1
102
RTVSPropertyOp28
 70
     1
102
RTVSPropertyOp29
 70
     1
102
RTVSPropertyOp30
 70
     1
102
RTVSPropertyOp31
 70
     1
102
RTVSPropertyOp32
 70
     1
  0
XRECORD
  5
101
102
{ACAD_REACTORS
330
100
102
}
330
100
100
AcDbXrecord
280
     1
102
RTVSPropertyOp0
 70
     1
102
RTVSPropertyOp1
 70
     1
102
RTVSPropertyOp2
 70
     1
102
RTVSPropertyOp3
 70
     1
102
RTVSPropertyOp4
 70
     1
102
RTVSPropertyOp5
 70
     1
102
RTVSPropertyOp6
 70
     1
102
RTVSPropertyOp7
 70
     1
102
RTVSPropertyOp8
 70
     1
102
RTVSPropertyOp9
 70
     1
102
RTVSPropertyOp10
 70
     1
102
RTVSPropertyOp11
 70
     1
102
RTVSPropertyOp12
 70
     1
102
RTVSPropertyOp13
 70
     1
102
RTVSPropertyOp14
 70
     1
102
RTVSPropertyOp15
 70
     1
102
RTVSPropertyOp16
 70
     1
102
RTVSPropertyOp17
 70
     1
102
RTVSPropertyOp18
 70
     1
102
RTVSPropertyOp19
 70
     1
102
RTVSPropertyOp20
 70
     1
102
RTVSPropertyOp21
 70
     1
102
RTVSPropertyOp22
 70
     1
102
RTVSPropertyOp23
 70
     1
102
RTVSPropertyOp24
 70
     1
102
RTVSPropertyOp25
 70
     1
102
RTVSPropertyOp26
 70
     1
102
RTVSPropertyOp27
 70
     1
102
RTVSPropertyOp28
 70
     1
102
RTVSPropertyOp29
 70
     1
102
RTVSPropertyOp30
 70
     1
102
RTVSPropertyOp31
 70
     1
102
RTVSPropertyOp32
 70
     1
  0
XRECORD
  5
103
102
{ACAD_REACTORS
330
102
102
}
330
102
100
AcDbXrecord
280
     1
102
RTVSPropertyOp0
 70
     1
102
RTVSPropertyOp1
 70
     1
102
RTVSPropertyOp2
 70
     1
102
RTVSPropertyOp3
 70
     1
102
RTVSPropertyOp4
 70
     1
102
RTVSPropertyOp5
 70
     1
102
RTVSPropertyOp6
 70
     1
102
RTVSPropertyOp7
 70
     1
102
RTVSPropertyOp8
 70
     1
102
RTVSPropertyOp9
 70
     1
102
RTVSPropertyOp10
 70
     1
102
RTVSPropertyOp11
 70
     1
102
RTVSPropertyOp12
 70
     1
102
RTVSPropertyOp13
 70
     1
102
RTVSPropertyOp14
 70
     1
102
RTVSPropertyOp15
 70
     1
102
RTVSPropertyOp16
 70
     1
102
RTVSPropertyOp17
 70
     1
102
RTVSPropertyOp18
 70
     1
102
RTVSPropertyOp19
 70
     1
102
RTVSPropertyOp20
 70
     1
102
RTVSPropertyOp21
 70
     1
102
RTVSPropertyOp22
 70
     1
102
RTVSPropertyOp23
 70
     1
102
RTVSPropertyOp24
 70
     1
102
RTVSPropertyOp25
 70
     1
102
RTVSPropertyOp26
 70
     1
102
RTVSPropertyOp27
 70
     1
102
RTVSPropertyOp28
 70
     1
102
RTVSPropertyOp29
 70
     1
102
RTVSPropertyOp30
 70
     1
102
RTVSPropertyOp31
 70
     1
102
RTVSPropertyOp32
 70
     1
  0
XRECORD
  5
105
102
{ACAD_REACTORS
330
104
102
}
330
104
100
AcDbXrecord
280
     1
102
RTVSPropertyOp0
 70
     1
102
RTVSPropertyOp1
 70
     1
102
RTVSPropertyOp2
 70
     1
102
RTVSPropertyOp3
 70
     1
102
RTVSPropertyOp4
 70
     1
102
RTVSPropertyOp5
 70
     1
102
RTVSPropertyOp6
 70
     1
102
RTVSPropertyOp7
 70
     1
102
RTVSPropertyOp8
 70
     1
102
RTVSPropertyOp9
 70
     1
102
RTVSPropertyOp10
 70
     1
102
RTVSPropertyOp11
 70
     1
102
RTVSPropertyOp12
 70
     1
102
RTVSPropertyOp13
 70
     1
102
RTVSPropertyOp14
 70
     1
102
RTVSPropertyOp15
 70
     1
102
RTVSPropertyOp16
 70
     1
102
RTVSPropertyOp17
 70
     1
102
RTVSPropertyOp18
 70
     1
102
RTVSPropertyOp19
 70
     1
102
RTVSPropertyOp20
 70
     1
102
RTVSPropertyOp21
 70
     1
102
RTVSPropertyOp22
 70
     1
102
RTVSPropertyOp23
 70
     1
102
RTVSPropertyOp24
 70
     1
102
RTVSPropertyOp25
 70
     1
102
RTVSPropertyOp26
 70
     1
102
RTVSPropertyOp27
 70
     1
102
RTVSPropertyOp28
 70
     1
102
RTVSPropertyOp29
 70
     1
102
RTVSPropertyOp30
 70
     1
102
RTVSPropertyOp31
 70
     1
102
RTVSPropertyOp32
 70
     1
  0
XRECORD
  5
119
102
{ACAD_REACTORS
330
118
102
}
330
118
100
AcDbXrecord
280
     1
102
RTVSPropertyOp0
 70
     1
102
RTVSPropertyOp1
 70
     1
102
RTVSPropertyOp2
 70
     1
102
RTVSPropertyOp3
 70
     1
102
RTVSPropertyOp4
 70
     1
102
RTVSPropertyOp5
 70
     1
102
RTVSPropertyOp6
 70
     1
102
RTVSPropertyOp7
 70
     1
102
RTVSPropertyOp8
 70
     1
102
RTVSPropertyOp9
 70
     1
102
RTVSPropertyOp10
 70
     1
102
RTVSPropertyOp11
 70
     1
102
RTVSPropertyOp12
 70
     1
102
RTVSPropertyOp13
 70
     1
102
RTVSPropertyOp14
 70
     1
102
RTVSPropertyOp15
 70
     1
102
RTVSPropertyOp16
 70
     1
102
RTVSPropertyOp17
 70
     1
102
RTVSPropertyOp18
 70
     1
102
RTVSPropertyOp19
 70
     1
102
RTVSPropertyOp20
 70
     1
102
RTVSPropertyOp21
 70
     1
102
RTVSPropertyOp22
 70
     1
102
RTVSPropertyOp23
 70
     1
102
RTVSPropertyOp24
 70
     1
102
RTVSPropertyOp25
 70
     1
102
RTVSPropertyOp26
 70
     1
102
RTVSPropertyOp27
 70
     1
102
RTVSPropertyOp28
 70
     1
102
RTVSPropertyOp29
 70
     1
102
RTVSPropertyOp30
 70
     1
102
RTVSPropertyOp31
 70
     1
102
RTVSPropertyOp32
 70
     1
  0
XRECORD
  5
10F
102
{ACAD_REACTORS
330
10E
102
}
330
10E
100
AcDbXrecord
280
     1
102
RTVSPropertyOp0
 70
     1
102
RTVSPropertyOp1
 70
     1
102
RTVSPropertyOp2
 70
     1
102
RTVSPropertyOp3
 70
     1
102
RTVSPropertyOp4
 70
     1
102
RTVSPropertyOp5
 70
     1
102
RTVSPropertyOp6
 70
     1
102
RTVSPropertyOp7
 70
     1
102
RTVSPropertyOp8
 70
     1
102
RTVSPropertyOp9
 70
     1
102
RTVSPropertyOp10
 70
     1
102
RTVSPropertyOp11
 70
     1
102
RTVSPropertyOp12
 70
     1
102
RTVSPropertyOp13
 70
     1
102
RTVSPropertyOp14
 70
     1
102
RTVSPropertyOp15
 70
     1
102
RTVSPropertyOp16
 70
     1
102
RTVSPropertyOp17
 70
     1
102
RTVSPropertyOp18
 70
     1
102
RTVSPropertyOp19
 70
     1
102
RTVSPropertyOp20
 70
     1
102
RTVSPropertyOp21
 70
     1
102
RTVSPropertyOp22
 70
     1
102
RTVSPropertyOp23
 70
     1
102
RTVSPropertyOp24
 70
     1
102
RTVSPropertyOp25
 70
     1
102
RTVSPropertyOp26
 70
     1
102
RTVSPropertyOp27
 70
     1
102
RTVSPropertyOp28
 70
     1
102
RTVSPropertyOp29
 70
     1
102
RTVSPropertyOp30
 70
     1
102
RTVSPropertyOp31
 70
     1
102
RTVSPropertyOp32
 70
     1
  0
XRECORD
  5
117
102
{ACAD_REACTORS
330
116
102
}
330
116
100
AcDbXrecord
280
     1
102
RTVSPropertyOp0
 70
     1
102
RTVSPropertyOp1
 70
     1
102
RTVSPropertyOp2
 70
     1
102
RTVSPropertyOp3
 70
     1
102
RTVSPropertyOp4
 70
     1
102
RTVSPropertyOp5
 70
     1
102
RTVSPropertyOp6
 70
     1
102
RTVSPropertyOp7
 70
     1
102
RTVSPropertyOp8
 70
     1
102
RTVSPropertyOp9
 70
     1
102
RTVSPropertyOp10
 70
     1
102
RTVSPropertyOp11
 70
     1
102
RTVSPropertyOp12
 70
     1
102
RTVSPropertyOp13
 70
     1
102
RTVSPropertyOp14
 70
     1
102
RTVSPropertyOp15
 70
     1
102
RTVSPropertyOp16
 70
     1
102
RTVSPropertyOp17
 70
     1
102
RTVSPropertyOp18
 70
     1
102
RTVSPropertyOp19
 70
     1
102
RTVSPropertyOp20
 70
     1
102
RTVSPropertyOp21
 70
     1
102
RTVSPropertyOp22
 70
     1
102
RTVSPropertyOp23
 70
     1
102
RTVSPropertyOp24
 70
     1
102
RTVSPropertyOp25
 70
     1
102
RTVSPropertyOp26
 70
     1
102
RTVSPropertyOp27
 70
     1
102
RTVSPropertyOp28
 70
     1
102
RTVSPropertyOp29
 70
     1
102
RTVSPropertyOp30
 70
     1
102
RTVSPropertyOp31
 70
     1
102
RTVSPropertyOp32
 70
     1
  0
ENDSEC
  0
EOF
