  0
SECTION
  2
HEADER
  9
$ACADVER
  1
AC1021
  9
$ACADMAINTVER
 70
    25
  9
$DWGCODEPAGE
  3
ANSI_1252
  9
$INSBASE
 10
0.0
 20
0.0
 30
0.0
  9
$EXTMIN
 10
-187.2151
 20
-99.5913
 30
0.0
  9
$EXTMAX
 10
-44.7175
 20
123.7834
 30
0.0
  9
$LIMMIN
 10
0.0
 20
0.0
  9
$LIMMAX
 10
12.0
 20
9.0
  9
$ORTHOMODE
 70
     0
  9
$REGENMODE
 70
     1
  9
$FILLMODE
 70
     1
  9
$QTEXTMODE
 70
     0
  9
$MIRRTEXT
 70
     1
  9
$LTSCALE
 40
1.0
  9
$ATTMODE
 70
     1
  9
$TEXTSIZE
 40
0.2
  9
$TRACEWID
 40
0.05
  9
$TEXTSTYLE
  7
Standard
  9
$CLAYER
  8
0
  9
$CELTYPE
  6
ByLayer
  9
$CECOLOR
 62
   256
  9
$CELTSCALE
 40
1.0
  9
$DISPSILH
 70
     0
  9
$DIMSCALE
 40
1.0
  9
$DIMASZ
 40
0.18
  9
$DIMEXO
 40
0.0625
  9
$DIMDLI
 40
0.38
  9
$DIMRND
 40
0.0
  9
$DIMDLE
 40
0.0
  9
$DIMEXE
 40
0.18
  9
$DIMTP
 40
0.0
  9
$DIMTM
 40
0.0
  9
$DIMTXT
 40
0.18
  9
$DIMCEN
 40
0.09
  9
$DIMTSZ
 40
0.0
  9
$DIMTOL
 70
     0
  9
$DIMLIM
 70
     0
  9
$DIMTIH
 70
     1
  9
$DIMTOH
 70
     1
  9
$DIMSE1
 70
     0
  9
$DIMSE2
 70
     0
  9
$DIMTAD
 70
     0
  9
$DIMZIN
 70
     0
  9
$DIMBLK
  1

  9
$DIMASO
 70
     1
  9
$DIMSHO
 70
     1
  9
$DIMPOST
  1

  9
$DIMAPOST
  1

  9
$DIMALT
 70
     0
  9
$DIMALTD
 70
     2
  9
$DIMALTF
 40
25.4
  9
$DIMLFAC
 40
1.0
  9
$DIMTOFL
 70
     0
  9
$DIMTVP
 40
0.0
  9
$DIMTIX
 70
     0
  9
$DIMSOXD
 70
     0
  9
$DIMSAH
 70
     0
  9
$DIMBLK1
  1

  9
$DIMBLK2
  1

  9
$DIMSTYLE
  2
Standard
  9
$DIMCLRD
 70
     0
  9
$DIMCLRE
 70
     0
  9
$DIMCLRT
 70
     0
  9
$DIMTFAC
 40
1.0
  9
$DIMGAP
 40
0.09
  9
$DIMJUST
 70
     0
  9
$DIMSD1
 70
     0
  9
$DIMSD2
 70
     0
  9
$DIMTOLJ
 70
     1
  9
$DIMTZIN
 70
     0
  9
$DIMALTZ
 70
     0
  9
$DIMALTTZ
 70
     0
  9
$DIMUPT
 70
     0
  9
$DIMDEC
 70
     4
  9
$DIMTDEC
 70
     4
  9
$DIMALTU
 70
     2
  9
$DIMALTTD
 70
     2
  9
$DIMTXSTY
  7
Standard
  9
$DIMAUNIT
 70
     0
  9
$DIMADEC
 70
     0
  9
$DIMALTRND
 40
0.0
  9
$DIMAZIN
 70
     0
  9
$DIMDSEP
 70
    46
  9
$DIMATFIT
 70
     3
  9
$DIMFRAC
 70
     0
  9
$DIMLDRBLK
  1

  9
$DIMLUNIT
 70
     2
  9
$DIMLWD
 70
    -2
  9
$DIMLWE
 70
    -2
  9
$DIMTMOVE
 70
     0
  9
$DIMFXL
 40
1.0
  9
$DIMFXLON
 70
     0
  9
$DIMJOGANG
 40
0.7853981633974483
  9
$DIMTFILL
 70
     0
  9
$DIMTFILLCLR
 70
     0
  9
$DIMARCSYM
 70
     0
  9
$DIMLTYPE
  6

  9
$DIMLTEX1
  6

  9
$DIMLTEX2
  6

  9
$LUNITS
 70
     2
  9
$LUPREC
 70
     4
  9
$SKETCHINC
 40
0.1
  9
$FILLETRAD
 40
0.5
  9
$AUNITS
 70
     0
  9
$AUPREC
 70
     0
  9
$MENU
  1
.
  9
$ELEVATION
 40
0.0
  9
$PELEVATION
 40
0.0
  9
$THICKNESS
 40
0.0
  9
$LIMCHECK
 70
     0
  9
$CHAMFERA
 40
0.5
  9
$CHAMFERB
 40
0.5
  9
$CHAMFERC
 40
1.0
  9
$CHAMFERD
 40
0.0
  9
$SKPOLY
 70
     0
  9
$TDCREATE
 40
2458493.699592153
  9
$TDUCREATE
 40
2458493.699592153
  9
$TDUPDATE
 40
2458493.699592407
  9
$TDUUPDATE
 40
2458493.699592407
  9
$TDINDWG
 40
0.0000000116
  9
$TDUSRTIMER
 40
0.0000000116
  9
$USRTIMER
 70
     1
  9
$ANGBASE
 50
0.0
  9
$ANGDIR
 70
     0
  9
$PDMODE
 70
     0
  9
$PDSIZE
 40
0.0
  9
$PLINEWID
 40
0.0
  9
$SPLFRAME
 70
     0
  9
$SPLINETYPE
 70
     6
  9
$SPLINESEGS
 70
     8
  9
$HANDSEED
  5
8F
  9
$SURFTAB1
 70
     6
  9
$SURFTAB2
 70
     6
  9
$SURFTYPE
 70
     6
  9
$SURFU
 70
     6
  9
$SURFV
 70
     6
  9
$UCSBASE
  2

  9
$UCSNAME
  2

  9
$UCSORG
 10
0.0
 20
0.0
 30
0.0
  9
$UCSXDIR
 10
1.0
 20
0.0
 30
0.0
  9
$UCSYDIR
 10
0.0
 20
1.0
 30
0.0
  9
$UCSORTHOREF
  2

  9
$UCSORTHOVIEW
 70
     0
  9
$UCSORGTOP
 10
0.0
 20
0.0
 30
0.0
  9
$UCSORGBOTTOM
 10
0.0
 20
0.0
 30
0.0
  9
$UCSORGLEFT
 10
0.0
 20
0.0
 30
0.0
  9
$UCSORGRIGHT
 10
0.0
 20
0.0
 30
0.0
  9
$UCSORGFRONT
 10
0.0
 20
0.0
 30
0.0
  9
$UCSORGBACK
 10
0.0
 20
0.0
 30
0.0
  9
$PUCSBASE
  2

  9
$PUCSNAME
  2

  9
$PUCSORG
 10
0.0
 20
0.0
 30
0.0
  9
$PUCSXDIR
 10
1.0
 20
0.0
 30
0.0
  9
$PUCSYDIR
 10
0.0
 20
1.0
 30
0.0
  9
$PUCSORTHOREF
  2

  9
$PUCSORTHOVIEW
 70
     0
  9
$PUCSORGTOP
 10
0.0
 20
0.0
 30
0.0
  9
$PUCSORGBOTTOM
 10
0.0
 20
0.0
 30
0.0
  9
$PUCSORGLEFT
 10
0.0
 20
0.0
 30
0.0
  9
$PUCSORGRIGHT
 10
0.0
 20
0.0
 30
0.0
  9
$PUCSORGFRONT
 10
0.0
 20
0.0
 30
0.0
  9
$PUCSORGBACK
 10
0.0
 20
0.0
 30
0.0
  9
$USERI1
 70
     0
  9
$USERI2
 70
     0
  9
$USERI3
 70
     0
  9
$USERI4
 70
     0
  9
$USERI5
 70
     0
  9
$USERR1
 40
0.0
  9
$USERR2
 40
0.0
  9
$USERR3
 40
0.0
  9
$USERR4
 40
0.0
  9
$USERR5
 40
0.0
  9
$WORLDVIEW
 70
     1
  9
$SHADEDGE
 70
     3
  9
$SHADEDIF
 70
    70
  9
$TILEMODE
 70
     1
  9
$MAXACTVP
 70
    64
  9
$PINSBASE
 10
0.0
 20
0.0
 30
0.0
  9
$PLIMCHECK
 70
     0
  9
$PEXTMIN
 10
1.000000000000000E+20
 20
1.000000000000000E+20
 30
1.000000000000000E+20
  9
$PEXTMAX
 10
-1.000000000000000E+20
 20
-1.000000000000000E+20
 30
-1.000000000000000E+20
  9
$PLIMMIN
 10
0.0
 20
0.0
  9
$PLIMMAX
 10
12.0
 20
9.0
  9
$UNITMODE
 70
     0
  9
$VISRETAIN
 70
     1
  9
$PLINEGEN
 70
     0
  9
$PSLTSCALE
 70
     1
  9
$TREEDEPTH
 70
  3020
  9
$CMLSTYLE
  2
Standard
  9
$CMLJUST
 70
     0
  9
$CMLSCALE
 40
1.0
  9
$PROXYGRAPHICS
 70
     1
  9
$MEASUREMENT
 70
     0
  9
$CELWEIGHT
370
    -1
  9
$ENDCAPS
280
     0
  9
$JOINSTYLE
280
     0
  9
$LWDISPLAY
290
     0
  9
$INSUNITS
 70
     4
  9
$HYPERLINKBASE
  1

  9
$STYLESHEET
  1

  9
$XEDIT
290
     1
  9
$CEPSNTYPE
380
     0
  9
$PSTYLEMODE
290
     1
  9
$FINGERPRINTGUID
  2
{7CAE8B55-6A07-47C6-AEC9-BF340D9896F1}
  9
$VERSIONGUID
  2
{FAEB1C32-E019-11D5-929B-00C0DF256EC4}
  9
$EXTNAMES
290
     1
  9
$PSVPSCALE
 40
0.0
  9
$OLESTARTUP
290
     0
  9
$SORTENTS
280
   127
  9
$INDEXCTL
280
     0
  9
$HIDETEXT
280
     1
  9
$XCLIPFRAME
290
     0
  9
$HALOGAP
280
     0
  9
$OBSCOLOR
 70
   257
  9
$OBSLTYPE
280
     0
  9
$INTERSECTIONDISPLAY
280
     0
  9
$INTERSECTIONCOLOR
 70
   257
  9
$DIMASSOC
280
     2
  9
$PROJECTNAME
  1

  9
$CAMERADISPLAY
290
     0
  9
$LENSLENGTH
 40
50.0
  9
$CAMERAHEIGHT
 40
0.0
  9
$STEPSPERSEC
 40
2.0
  9
$STEPSIZE
 40
6.0
  9
$3DDWFPREC
 40
2.0
  9
$PSOLWIDTH
 40
0.25
  9
$PSOLHEIGHT
 40
4.0
  9
$LOFTANG1
 40
1.570796326794897
  9
$LOFTANG2
 40
1.570796326794897
  9
$LOFTMAG1
 40
0.0
  9
$LOFTMAG2
 40
0.0
  9
$LOFTPARAM
 70
     7
  9
$LOFTNORMALS
280
     1
  9
$LATITUDE
 40
37.795
  9
$LONGITUDE
 40
-122.394
  9
$NORTHDIRECTION
 40
0.0
  9
$TIMEZONE
 70
 -8000
  9
$LIGHTGLYPHDISPLAY
280
     1
  9
$TILEMODELIGHTSYNCH
280
     1
  9
$SOLIDHIST
280
     1
  9
$SHOWHIST
280
     1
  9
$DWFFRAME
280
     2
  9
$DGNFRAME
280
     2
  9
$REALWORLDSCALE
290
     1
  9
$INTERFERECOLOR
 62
   256
  9
$CSHADOW
280
     0
  9
$SHADOWPLANELOCATION
 40
0.0
  0
ENDSEC
  0
SECTION
  2
CLASSES
  0
CLASS
  1
ACDBDICTIONARYWDFLT
  2
AcDbDictionaryWithDefault
  3
ObjectDBX Classes
 90
        0
 91
        4
280
     0
281
     0
  0
CLASS
  1
VISUALSTYLE
  2
AcDbVisualStyle
  3
ObjectDBX Classes
 90
     4095
 91
        4
280
     0
281
     0
  0
CLASS
  1
MATERIAL
  2
AcDbMaterial
  3
ObjectDBX Classes
 90
     1153
 91
        4
280
     0
281
     0
  0
ENDSEC
  0
SECTION
  2
TABLES
  0
TABLE
  2
VPORT
  5
8
330
0
100
AcDbSymbolTable
 70
     1
  0
VPORT
  5
29
330
8
100
AcDbSymbolTableRecord
100
AcDbViewportTableRecord
  2
*Active
 70
     0
 10
0.0
 20
0.0
 11
1.0
 21
1.0
 12
10.42990654205607
 22
4.5
 13
0.0
 23
0.0
 14
0.5
 24
0.5
 15
0.5
 25
0.5
 16
0.0
 26
0.0
 36
1.0
 17
0.0
 27
0.0
 37
0.0
 40
9.0
 41
1.972972972850329
 42
50.0
 43
0.0
 44
0.0
 50
0.0
 51
0.0
 71
     0
 72
   100
 73
     1
 74
     3
 75
     0
 76
     0
 77
     0
 78
     0
281
     0
 65
     1
110
0.0
120
0.0
130
0.0
111
1.0
121
0.0
131
0.0
112
0.0
122
1.0
132
0.0
 79
     0
146
0.0
 60
     3
 61
     5
292
     1
282
     1
141
0.0
142
0.0
 63
   250
  0
ENDTAB
  0
TABLE
  2
LTYPE
  5
5
330
0
100
AcDbSymbolTable
 70
     1
  0
LTYPE
  5
14
330
5
100
AcDbSymbolTableRecord
100
AcDbLinetypeTableRecord
  2
ByBlock
 70
     0
  3

 72
    65
 73
     0
 40
0.0
  0
LTYPE
  5
15
330
5
100
AcDbSymbolTableRecord
100
AcDbLinetypeTableRecord
  2
ByLayer
 70
     0
  3

 72
    65
 73
     0
 40
0.0
  0
LTYPE
  5
16
330
5
100
AcDbSymbolTableRecord
100
AcDbLinetypeTableRecord
  2
Continuous
 70
     0
  3
Solid line
 72
    65
 73
     0
 40
0.0
  0
ENDTAB
  0
TABLE
  2
LAYER
  5
2
330
0
100
AcDbSymbolTable
 70
     3
  0
LAYER
  5
10
330
2
100
AcDbSymbolTableRecord
100
AcDbLayerTableRecord
  2
0
 70
     0
 62
     7
  6
Continuous
370
    -3
390
F
347
3E
  0
LAYER
  5
40
330
2
100
AcDbSymbolTableRecord
100
AcDbLayerTableRecord
  2
layer 1
 70
     0
 62
     7
  6
Continuous
370
    -3
390
F
347
3E
  0
LAYER
  5
6C
330
2
100
AcDbSymbolTableRecord
100
AcDbLayerTableRecord
  2
Master Guides
 70
     0
 62
     7
  6
Continuous
370
    -3
390
F
347
3E
  0
ENDTAB
  0
TABLE
  2
STYLE
  5
3
330
0
100
AcDbSymbolTable
 70
     1
  0
STYLE
  5
11
330
3
100
AcDbSymbolTableRecord
100
AcDbTextStyleTableRecord
  2
Standard
 70
     0
 40
0.0
 41
1.0
 50
0.0
 71
     0
 42
0.2
  3
txt
  4

  0
ENDTAB
  0
TABLE
  2
VIEW
  5
6
330
0
100
AcDbSymbolTable
 70
     0
  0
ENDTAB
  0
TABLE
  2
UCS
  5
7
330
0
100
AcDbSymbolTable
 70
     0
  0
ENDTAB
  0
TABLE
  2
APPID
  5
9
330
0
100
AcDbSymbolTable
 70
     2
  0
APPID
  5
12
330
9
100
AcDbSymbolTableRecord
100
AcDbRegAppTableRecord
  2
ACAD
 70
     0
  0
APPID
  5
3F
330
9
100
AcDbSymbolTableRecord
100
AcDbRegAppTableRecord
  2
ODA
 70
     0
  0
ENDTAB
  0
TABLE
  2
DIMSTYLE
  5
A
330
0
100
AcDbSymbolTable
 70
     1
100
AcDbDimStyleTable
  0
DIMSTYLE
105
27
330
A
100
AcDbSymbolTableRecord
100
AcDbDimStyleTableRecord
  2
Standard
 70
     0
178
     0
340
11
  0
ENDTAB
  0
TABLE
  2
BLOCK_RECORD
  5
1
330
0
100
AcDbSymbolTable
 70
     1
  0
BLOCK_RECORD
  5
1F
330
1
100
AcDbSymbolTableRecord
100
AcDbBlockTableRecord
  2
*Model_Space
340
22
 70
     0
280
     1
281
     0
  0
BLOCK_RECORD
  5
1B
330
1
100
AcDbSymbolTableRecord
100
AcDbBlockTableRecord
  2
*Paper_Space
340
1E
 70
     0
280
     1
281
     0
  0
BLOCK_RECORD
  5
23
330
1
100
AcDbSymbolTableRecord
100
AcDbBlockTableRecord
  2
*Paper_Space0
340
26
 70
     0
280
     1
281
     0
  0
ENDTAB
  0
ENDSEC
  0
SECTION
  2
BLOCKS
  0
BLOCK
  5
20
330
1F
100
AcDbEntity
  8
0
100
AcDbBlockBegin
  2
*Model_Space
 70
     0
 10
0.0
 20
0.0
 30
0.0
  3
*Model_Space
  1

  0
ENDBLK
  5
21
330
1F
100
AcDbEntity
  8
0
100
AcDbBlockEnd
  0
BLOCK
  5
1C
330
1B
100
AcDbEntity
 67
     1
  8
0
100
AcDbBlockBegin
  2
*Paper_Space
 70
     0
 10
0.0
 20
0.0
 30
0.0
  3
*Paper_Space
  1

  0
ENDBLK
  5
1D
330
1B
100
AcDbEntity
 67
     1
  8
0
100
AcDbBlockEnd
  0
BLOCK
  5
24
330
23
100
AcDbEntity
  8
0
100
AcDbBlockBegin
  2
*Paper_Space0
 70
     0
 10
0.0
 20
0.0
 30
0.0
  3
*Paper_Space0
  1

  0
ENDBLK
  5
25
330
23
100
AcDbEntity
  8
0
100
AcDbBlockEnd
  0
ENDSEC
  0
SECTION
  2
ENTITIES
  0
SPLINE
  5
41
330
1F
100
AcDbEntity
  8
layer 1
 62
   250
100
AcDbSpline
210
0.0
220
0.0
230
1.0
 70
    11
 71
     3
 72
    20
 73
    16
 74
     0
 42
0.0000000001
 43
0.0000000001
 12
1.0
 22
0.0
 32
0.0
 13
1.0
 23
0.0
 33
0.0
 40
0.0
 40
0.0
 40
0.0
 40
0.0
 40
0.2
 40
0.2
 40
0.2
 40
0.2
 40
0.4
 40
0.4
 40
0.4
 40
0.4
 40
0.6
 40
0.6
 40
0.6
 40
0.6
 40
1.0
 40
1.0
 40
1.0
 40
1.0
 10
-187.2151
 20
123.7834
 30
0.0
 10
-187.2151
 20
123.7834
 30
0.0
 10
-44.7175
 20
123.7834
 30
0.0
 10
-44.7175
 20
123.7834
 30
0.0
 10
-44.7175
 20
123.7834
 30
0.0
 10
-44.7175
 20
123.7834
 30
0.0
 10
-44.7175
 20
-99.5913
 30
0.0
 10
-44.7175
 20
-99.5913
 30
0.0
 10
-44.7175
 20
-99.5913
 30
0.0
 10
-44.7175
 20
-99.5913
 30
0.0
 10
-187.2151
 20
-99.5913
 30
0.0
 10
-187.2151
 20
-99.5913
 30
0.0
 10
-187.2151
 20
-99.5913
 30
0.0
 10
-187.2151
 20
-99.5913
 30
0.0
 10
-187.2151
 20
123.7834
 30
0.0
 10
-187.2151
 20
123.7834
 30
0.0
  0
SPLINE
  5
42
330
1F
100
AcDbEntity
  8
layer 1
 62
     7
100
AcDbSpline
210
0.0
220
0.0
230
1.0
 70
    11
 71
     3
 72
    40
 73
    36
 74
     0
 42
0.0000000001
 43
0.0000000001
 12
1.0
 22
0.0
 32
0.0
 13
1.0
 23
0.0
 33
0.0
 40
0.0
 40
0.0
 40
0.0
 40
0.0
 40
0.1
 40
0.1
 40
0.1
 40
0.1
 40
0.2
 40
0.2
 40
0.2
 40
0.2
 40
0.3
 40
0.3
 40
0.3
 40
0.3
 40
0.4
 40
0.4
 40
0.4
 40
0.4
 40
0.5
 40
0.5
 40
0.5
 40
0.5
 40
0.6
 40
0.6
 40
0.6
 40
0.6
 40
0.7
 40
0.7
 40
0.7
 40
0.7
 40
0.8
 40
0.8
 40
0.8
 40
0.8
 40
1.0
 40
1.0
 40
1.0
 40
1.0
 10
-171.6331
 20
32.3055
 30
0.0
 10
-172.4293
 20
32.8627
 30
0.0
 10
-173.1388
 20
33.5351
 30
0.0
 10
-173.7377
 20
34.3002
 30
0.0
 10
-173.7377
 20
34.3002
 30
0.0
 10
-174.251
 20
34.975
 30
0.0
 10
-174.6623
 20
35.7219
 30
0.0
 10
-174.9578
 20
36.5165
 30
0.0
 10
-174.9578
 20
36.5165
 30
0.0
 10
-174.9578
 20
36.5165
 30
0.0
 10
-175.0406
 20
34.522
 30
0.0
 10
-175.0406
 20
34.522
 30
0.0
 10
-175.0406
 20
34.522
 30
0.0
 10
-175.0406
 20
34.522
 30
0.0
 10
-175.1236
 20
32.5273
 30
0.0
 10
-175.1236
 20
32.5273
 30
0.0
 10
-175.1236
 20
32.5273
 30
0.0
 10
-175.1236
 20
32.5273
 30
0.0
 10
-175.2067
 20
30.5327
 30
0.0
 10
-175.2067
 20
30.5327
 30
0.0
 10
-175.2067
 20
30.5327
 30
0.0
 10
-175.2067
 20
30.5327
 30
0.0
 10
-175.2892
 20
28.5381
 30
0.0
 10
-175.2892
 20
28.5381
 30
0.0
 10
-175.2892
 20
28.5381
 30
0.0
 10
-174.8907
 20
28.9879
 30
0.0
 10
-174.4846
 20
29.4313
 30
0.0
 10
-174.0713
 20
29.8678
 30
0.0
 10
-174.0713
 20
29.8678
 30
0.0
 10
-173.2764
 20
30.6979
 30
0.0
 10
-172.4635
 20
31.5108
 30
0.0
 10
-171.6331
 20
32.3055
 30
0.0
 10
-171.6331
 20
32.3055
 30
0.0
 10
-171.6331
 20
32.3055
 30
0.0
 10
-171.6331
 20
32.3055
 30
0.0
 10
-171.6331
 20
32.3055
 30
0.0
  0
SPLINE
  5
43
330
1F
100
AcDbEntity
  8
layer 1
 62
     7
100
AcDbSpline
210
0.0
220
0.0
230
1.0
 70
    11
 71
     3
 72
    76
 73
    72
 74
     0
 42
0.0000000001
 43
0.0000000001
 12
1.0
 22
0.0
 32
0.0
 13
1.0
 23
0.0
 33
0.0
 40
0.0
 40
0.0
 40
0.0
 40
0.0
 40
0.0526315789473684
 40
0.0526315789473684
 40
0.0526315789473684
 40
0.0526315789473684
 40
0.1052631578947368
 40
0.1052631578947368
 40
0.1052631578947368
 40
0.1052631578947368
 40
0.1578947368421053
 40
0.1578947368421053
 40
0.1578947368421053
 40
0.1578947368421053
 40
0.2105263157894737
 40
0.2105263157894737
 40
0.2105263157894737
 40
0.2105263157894737
 40
0.2631578947368421
 40
0.2631578947368421
 40
0.2631578947368421
 40
0.2631578947368421
 40
0.3157894736842105
 40
0.3157894736842105
 40
0.3157894736842105
 40
0.3157894736842105
 40
0.3684210526315789
 40
0.3684210526315789
 40
0.3684210526315789
 40
0.3684210526315789
 40
0.4210526315789473
 40
0.4210526315789473
 40
0.4210526315789473
 40
0.4210526315789473
 40
0.4736842105263158
 40
0.4736842105263158
 40
0.4736842105263158
 40
0.4736842105263158
 40
0.5263157894736842
 40
0.5263157894736842
 40
0.5263157894736842
 40
0.5263157894736842
 40
0.5789473684210527
 40
0.5789473684210527
 40
0.5789473684210527
 40
0.5789473684210527
 40
0.631578947368421
 40
0.631578947368421
 40
0.631578947368421
 40
0.631578947368421
 40
0.6842105263157895
 40
0.6842105263157895
 40
0.6842105263157895
 40
0.6842105263157895
 40
0.7368421052631579
 40
0.7368421052631579
 40
0.7368421052631579
 40
0.7368421052631579
 40
0.7894736842105263
 40
0.7894736842105263
 40
0.7894736842105263
 40
0.7894736842105263
 40
0.8421052631578947
 40
0.8421052631578947
 40
0.8421052631578947
 40
0.8421052631578947
 40
0.8947368421052632
 40
0.8947368421052632
 40
0.8947368421052632
 40
0.8947368421052632
 40
1.0
 40
1.0
 40
1.0
 40
1.0
 10
-174.8012
 20
-82.6455
 30
0.0
 10
-173.3031
 20
-82.4587
 30
0.0
 10
-171.7944
 20
-82.3672
 30
0.0
 10
-170.2847
 20
-82.372
 30
0.0
 10
-170.2847
 20
-82.372
 30
0.0
 10
-168.2276
 20
-82.3785
 30
0.0
 10
-166.1714
 20
-82.296
 30
0.0
 10
-164.1215
 20
-82.1246
 30
0.0
 10
-164.1215
 20
-82.1246
 30
0.0
 10
-161.4685
 20
-81.9024
 30
0.0
 10
-158.884
 20
-81.172
 30
0.0
 10
-156.5074
 20
-79.9722
 30
0.0
 10
-156.5074
 20
-79.9722
 30
0.0
 10
-154.6578
 20
-79.0386
 30
0.0
 10
-152.765
 20
-78.1928
 30
0.0
 10
-150.8355
 20
-77.4381
 30
0.0
 10
-150.8355
 20
-77.4381
 30
0.0
 10
-149.7351
 20
-77.0076
 30
0.0
 10
-148.5903
 20
-76.7002
 30
0.0
 10
-147.4222
 20
-76.5212
 30
0.0
 10
-147.4222
 20
-76.5212
 30
0.0
 10
-147.7494
 20
-74.5761
 30
0.0
 10
-148.3476
 20
-72.687
 30
0.0
 10
-149.1997
 20
-70.9081
 30
0.0
 10
-149.1997
 20
-70.9081
 30
0.0
 10
-150.0753
 20
-69.0801
 30
0.0
 10
-150.9249
 20
-67.24
 30
0.0
 10
-151.7482
 20
-65.388
 30
0.0
 10
-151.7482
 20
-65.388
 30
0.0
 10
-152.5358
 20
-63.5482
 30
0.0
 10
-153.2772
 20
-61.6888
 30
0.0
 10
-153.9714
 20
-59.8118
 30
0.0
 10
-153.9714
 20
-59.8118
 30
0.0
 10
-154.6655
 20
-57.935
 30
0.0
 10
-155.3647
 20
-56.06
 30
0.0
 10
-156.0688
 20
-54.1867
 30
0.0
 10
-156.0688
 20
-54.1867
 30
0.0
 10
-156.9418
 20
-54.3323
 30
0.0
 10
-157.793
 20
-54.5866
 30
0.0
 10
-158.6025
 20
-54.9443
 30
0.0
 10
-158.6025
 20
-54.9443
 30
0.0
 10
-159.4092
 20
-55.3006
 30
0.0
 10
-160.2306
 20
-55.623
 30
0.0
 10
-161.0644
 20
-55.9104
 30
0.0
 10
-161.0644
 20
-55.9104
 30
0.0
 10
-162.2272
 20
-56.3114
 30
0.0
 10
-163.4679
 20
-56.4362
 30
0.0
 10
-164.6872
 20
-56.275
 30
0.0
 10
-164.6872
 20
-56.275
 30
0.0
 10
-165.8925
 20
-56.1158
 30
0.0
 10
-167.1083
 20
-56.0531
 30
0.0
 10
-168.3236
 20
-56.0875
 30
0.0
 10
-168.3236
 20
-56.0875
 30
0.0
 10
-169.6416
 20
-56.1249
 30
0.0
 10
-170.8797
 20
-56.7245
 30
0.0
 10
-171.7255
 20
-57.736
 30
0.0
 10
-171.7255
 20
-57.736
 30
0.0
 10
-172.4265
 20
-58.5738
 30
0.0
 10
-173.0809
 20
-59.4495
 30
0.0
 10
-173.6858
 20
-60.3592
 30
0.0
 10
-173.6858
 20
-60.3592
 30
0.0
 10
-174.0157
 20
-60.8554
 30
0.0
 10
-174.389
 20
-61.3215
 30
0.0
 10
-174.8012
 20
-61.7519
 30
0.0
 10
-174.8012
 20
-61.7519
 30
0.0
 10
-174.8012
 20
-61.7519
 30
0.0
 10
-174.8012
 20
-82.6455
 30
0.0
 10
-174.8012
 20
-82.6455
 30
0.0
 10
-174.8012
 20
-82.6455
 30
0.0
 10
-174.8012
 20
-82.6455
 30
0.0
 10
-174.8012
 20
-82.6455
 30
0.0
 10
-174.8012
 20
-82.6455
 30
0.0
  0
SPLINE
  5
44
330
1F
100
AcDbEntity
  8
layer 1
 62
     7
100
AcDbSpline
210
0.0
220
0.0
230
1.0
 70
    11
 71
     3
 72
    84
 73
    80
 74
     0
 42
0.0000000001
 43
0.0000000001
 12
1.0
 22
0.0
 32
0.0
 13
1.0
 23
0.0
 33
0.0
 40
0.0
 40
0.0
 40
0.0
 40
0.0
 40
0.0476190476190476
 40
0.0476190476190476
 40
0.0476190476190476
 40
0.0476190476190476
 40
0.0952380952380952
 40
0.0952380952380952
 40
0.0952380952380952
 40
0.0952380952380952
 40
0.1428571428571428
 40
0.1428571428571428
 40
0.1428571428571428
 40
0.1428571428571428
 40
0.1904761904761905
 40
0.1904761904761905
 40
0.1904761904761905
 40
0.1904761904761905
 40
0.2380952380952381
 40
0.2380952380952381
 40
0.2380952380952381
 40
0.2380952380952381
 40
0.2857142857142857
 40
0.2857142857142857
 40
0.2857142857142857
 40
0.2857142857142857
 40
0.3333333333333333
 40
0.3333333333333333
 40
0.3333333333333333
 40
0.3333333333333333
 40
0.3809523809523809
 40
0.3809523809523809
 40
0.3809523809523809
 40
0.3809523809523809
 40
0.4285714285714285
 40
0.4285714285714285
 40
0.4285714285714285
 40
0.4285714285714285
 40
0.4761904761904762
 40
0.4761904761904762
 40
0.4761904761904762
 40
0.4761904761904762
 40
0.5238095238095238
 40
0.5238095238095238
 40
0.5238095238095238
 40
0.5238095238095238
 40
0.5714285714285714
 40
0.5714285714285714
 40
0.5714285714285714
 40
0.5714285714285714
 40
0.6190476190476191
 40
0.6190476190476191
 40
0.6190476190476191
 40
0.6190476190476191
 40
0.6666666666666666
 40
0.6666666666666666
 40
0.6666666666666666
 40
0.6666666666666666
 40
0.7142857142857143
 40
0.7142857142857143
 40
0.7142857142857143
 40
0.7142857142857143
 40
0.7619047619047619
 40
0.7619047619047619
 40
0.7619047619047619
 40
0.7619047619047619
 40
0.8095238095238095
 40
0.8095238095238095
 40
0.8095238095238095
 40
0.8095238095238095
 40
0.8571428571428571
 40
0.8571428571428571
 40
0.8571428571428571
 40
0.8571428571428571
 40
0.9047619047619048
 40
0.9047619047619048
 40
0.9047619047619048
 40
0.9047619047619048
 40
1.0
 40
1.0
 40
1.0
 40
1.0
 10
-174.8012
 20
-44.1008
 30
0.0
 10
-174.5019
 20
-44.1915
 30
0.0
 10
-174.2592
 20
-44.4125
 30
0.0
 10
-174.1407
 20
-44.702
 30
0.0
 10
-174.1407
 20
-44.702
 30
0.0
 10
-173.9893
 20
-45.0725
 30
0.0
 10
-173.7513
 20
-45.4014
 30
0.0
 10
-173.4465
 20
-45.661
 30
0.0
 10
-173.4465
 20
-45.661
 30
0.0
 10
-173.2857
 20
-45.7981
 30
0.0
 10
-173.1286
 20
-45.9396
 30
0.0
 10
-172.9755
 20
-46.0854
 30
0.0
 10
-172.9755
 20
-46.0854
 30
0.0
 10
-172.8198
 20
-46.2333
 30
0.0
 10
-172.7043
 20
-46.4182
 30
0.0
 10
-172.6389
 20
-46.6225
 30
0.0
 10
-172.6389
 20
-46.6225
 30
0.0
 10
-172.6389
 20
-46.6225
 30
0.0
 10
-170.8379
 20
-46.6225
 30
0.0
 10
-170.8379
 20
-46.6225
 30
0.0
 10
-170.8379
 20
-46.6225
 30
0.0
 10
-170.6877
 20
-45.8993
 30
0.0
 10
-170.463
 20
-45.1933
 30
0.0
 10
-170.1673
 20
-44.5162
 30
0.0
 10
-170.1673
 20
-44.5162
 30
0.0
 10
-169.6555
 20
-43.3444
 30
0.0
 10
-169.1543
 20
-42.1681
 30
0.0
 10
-168.6637
 20
-40.9874
 30
0.0
 10
-168.6637
 20
-40.9874
 30
0.0
 10
-167.6854
 20
-38.6334
 30
0.0
 10
-166.3827
 20
-36.4267
 30
0.0
 10
-164.7943
 20
-34.4328
 30
0.0
 10
-164.7943
 20
-34.4328
 30
0.0
 10
-163.8668
 20
-33.2689
 30
0.0
 10
-162.9729
 20
-32.0786
 30
0.0
 10
-162.1133
 20
-30.8636
 30
0.0
 10
-162.1133
 20
-30.8636
 30
0.0
 10
-161.3241
 20
-29.7479
 30
0.0
 10
-160.8358
 20
-28.4484
 30
0.0
 10
-160.6955
 20
-27.089
 30
0.0
 10
-160.6955
 20
-27.089
 30
0.0
 10
-160.5573
 20
-25.7504
 30
0.0
 10
-160.5088
 20
-24.4046
 30
0.0
 10
-160.5498
 20
-23.0596
 30
0.0
 10
-160.5498
 20
-23.0596
 30
0.0
 10
-160.5965
 20
-21.5318
 30
0.0
 10
-161.1173
 20
-20.0575
 30
0.0
 10
-162.041
 20
-18.8397
 30
0.0
 10
-162.041
 20
-18.8397
 30
0.0
 10
-162.5516
 20
-18.1666
 30
0.0
 10
-163.4152
 20
-17.8657
 30
0.0
 10
-164.2332
 20
-18.0771
 30
0.0
 10
-164.2332
 20
-18.0771
 30
0.0
 10
-164.5425
 20
-18.157
 30
0.0
 10
-164.8404
 20
-18.2758
 30
0.0
 10
-165.1197
 20
-18.4311
 30
0.0
 10
-165.1197
 20
-18.4311
 30
0.0
 10
-165.7591
 20
-18.7865
 30
0.0
 10
-166.4174
 20
-19.1071
 30
0.0
 10
-167.0916
 20
-19.3909
 30
0.0
 10
-167.0916
 20
-19.3909
 30
0.0
 10
-168.2952
 20
-19.8998
 30
0.0
 10
-169.6331
 20
-20.0
 30
0.0
 10
-170.899
 20
-19.6771
 30
0.0
 10
-170.899
 20
-19.6771
 30
0.0
 10
-171.6166
 20
-19.4849
 30
0.0
 10
-172.3179
 20
-19.2366
 30
0.0
 10
-172.9965
 20
-18.9345
 30
0.0
 10
-172.9965
 20
-18.9345
 30
0.0
 10
-173.5654
 20
-18.6812
 30
0.0
 10
-174.1784
 20
-18.5418
 30
0.0
 10
-174.8012
 20
-18.5241
 30
0.0
 10
-174.8012
 20
-18.5241
 30
0.0
 10
-174.8012
 20
-18.5241
 30
0.0
 10
-174.8012
 20
-44.1008
 30
0.0
 10
-174.8012
 20
-44.1008
 30
0.0
 10
-174.8012
 20
-44.1008
 30
0.0
 10
-174.8012
 20
-44.1008
 30
0.0
 10
-174.8012
 20
-44.1008
 30
0.0
 10
-174.8012
 20
-44.1008
 30
0.0
  0
SPLINE
  5
45
330
1F
100
AcDbEntity
  8
layer 1
 62
     7
100
AcDbSpline
210
0.0
220
0.0
230
1.0
 70
    11
 71
     3
 72
    32
 73
    28
 74
     0
 42
0.0000000001
 43
0.0000000001
 12
1.0
 22
0.0
 32
0.0
 13
1.0
 23
0.0
 33
0.0
 40
0.0
 40
0.0
 40
0.0
 40
0.0
 40
0.125
 40
0.125
 40
0.125
 40
0.125
 40
0.25
 40
0.25
 40
0.25
 40
0.25
 40
0.375
 40
0.375
 40
0.375
 40
0.375
 40
0.5
 40
0.5
 40
0.5
 40
0.5
 40
0.625
 40
0.625
 40
0.625
 40
0.625
 40
0.75
 40
0.75
 40
0.75
 40
0.75
 40
1.0
 40
1.0
 40
1.0
 40
1.0
 10
-174.8012
 20
-9.8771
 30
0.0
 10
-172.6371
 20
-9.9425
 30
0.0
 10
-170.4749
 20
-10.0627
 30
0.0
 10
-168.3169
 20
-10.2376
 30
0.0
 10
-168.3169
 20
-10.2376
 30
0.0
 10
-168.4399
 20
-9.3643
 30
0.0
 10
-168.7342
 20
-8.5239
 30
0.0
 10
-169.183
 20
-7.7645
 30
0.0
 10
-169.183
 20
-7.7645
 30
0.0
 10
-169.858
 20
-6.6223
 30
0.0
 10
-170.5199
 20
-5.4722
 30
0.0
 10
-171.1684
 20
-4.3146
 30
0.0
 10
-171.1684
 20
-4.3146
 30
0.0
 10
-171.8506
 20
-3.0973
 30
0.0
 10
-172.484
 20
-1.8533
 30
0.0
 10
-173.067
 20
-0.5856
 30
0.0
 10
-173.067
 20
-0.5856
 30
0.0
 10
-173.4024
 20
0.1439
 30
0.0
 10
-174.0331
 20
0.6947
 30
0.0
 10
-174.8012
 20
0.9286
 30
0.0
 10
-174.8012
 20
0.9286
 30
0.0
 10
-174.8012
 20
0.9286
 30
0.0
 10
-174.8012
 20
-9.8771
 30
0.0
 10
-174.8012
 20
-9.8771
 30
0.0
 10
-174.8012
 20
-9.8771
 30
0.0
 10
-174.8012
 20
-9.8771
 30
0.0
 10
-174.8012
 20
-9.8771
 30
0.0
 10
-174.8012
 20
-9.8771
 30
0.0
  0
SPLINE
  5
46
330
1F
100
AcDbEntity
  8
layer 1
 62
     7
100
AcDbSpline
210
0.0
220
0.0
230
1.0
 70
    11
 71
     3
 72
    72
 73
    68
 74
     0
 42
0.0000000001
 43
0.0000000001
 12
1.0
 22
0.0
 32
0.0
 13
1.0
 23
0.0
 33
0.0
 40
0.0
 40
0.0
 40
0.0
 40
0.0
 40
0.0555555555555556
 40
0.0555555555555556
 40
0.0555555555555556
 40
0.0555555555555556
 40
0.1111111111111111
 40
0.1111111111111111
 40
0.1111111111111111
 40
0.1111111111111111
 40
0.1666666666666667
 40
0.1666666666666667
 40
0.1666666666666667
 40
0.1666666666666667
 40
0.2222222222222222
 40
0.2222222222222222
 40
0.2222222222222222
 40
0.2222222222222222
 40
0.2777777777777778
 40
0.2777777777777778
 40
0.2777777777777778
 40
0.2777777777777778
 40
0.3333333333333333
 40
0.3333333333333333
 40
0.3333333333333333
 40
0.3333333333333333
 40
0.3888888888888889
 40
0.3888888888888889
 40
0.3888888888888889
 40
0.3888888888888889
 40
0.4444444444444444
 40
0.4444444444444444
 40
0.4444444444444444
 40
0.4444444444444444
 40
0.5
 40
0.5
 40
0.5
 40
0.5
 40
0.5555555555555556
 40
0.5555555555555556
 40
0.5555555555555556
 40
0.5555555555555556
 40
0.6111111111111112
 40
0.6111111111111112
 40
0.6111111111111112
 40
0.6111111111111112
 40
0.6666666666666666
 40
0.6666666666666666
 40
0.6666666666666666
 40
0.6666666666666666
 40
0.7222222222222222
 40
0.7222222222222222
 40
0.7222222222222222
 40
0.7222222222222222
 40
0.7777777777777778
 40
0.7777777777777778
 40
0.7777777777777778
 40
0.7777777777777778
 40
0.8333333333333334
 40
0.8333333333333334
 40
0.8333333333333334
 40
0.8333333333333334
 40
0.8888888888888888
 40
0.8888888888888888
 40
0.8888888888888888
 40
0.8888888888888888
 40
1.0
 40
1.0
 40
1.0
 40
1.0
 10
-163.2725
 20
-7.7164
 30
0.0
 10
-163.2725
 20
-7.7164
 30
0.0
 10
-162.1927
 20
-7.7164
 30
0.0
 10
-162.1927
 20
-7.7164
 30
0.0
 10
-162.1927
 20
-7.7164
 30
0.0
 10
-161.997
 20
-6.4916
 30
0.0
 10
-161.8919
 20
-5.2541
 30
0.0
 10
-161.8782
 20
-4.014
 30
0.0
 10
-161.8782
 20
-4.014
 30
0.0
 10
-161.8608
 20
-2.4419
 30
0.0
 10
-161.6266
 20
-0.8793
 30
0.0
 10
-161.1824
 20
0.6289
 30
0.0
 10
-161.1824
 20
0.6289
 30
0.0
 10
-160.8861
 20
1.6349
 30
0.0
 10
-160.5763
 20
2.637
 30
0.0
 10
-160.2529
 20
3.6348
 30
0.0
 10
-160.2529
 20
3.6348
 30
0.0
 10
-159.7153
 20
5.2939
 30
0.0
 10
-159.4506
 20
7.0288
 30
0.0
 10
-159.4698
 20
8.7726
 30
0.0
 10
-159.4698
 20
8.7726
 30
0.0
 10
-159.4947
 20
11.0501
 30
0.0
 10
-159.6612
 20
13.3234
 30
0.0
 10
-159.9687
 20
15.5803
 30
0.0
 10
-159.9687
 20
15.5803
 30
0.0
 10
-160.1169
 20
16.669
 30
0.0
 10
-160.3791
 20
17.7391
 30
0.0
 10
-160.7508
 20
18.7733
 30
0.0
 10
-160.7508
 20
18.7733
 30
0.0
 10
-161.9689
 20
22.1186
 30
0.0
 10
-164.5165
 20
24.8078
 30
0.0
 10
-167.7921
 20
26.2028
 30
0.0
 10
-167.7921
 20
26.2028
 30
0.0
 10
-168.646
 20
26.5666
 30
0.0
 10
-169.5526
 20
26.7905
 30
0.0
 10
-170.4775
 20
26.866
 30
0.0
 10
-170.4775
 20
26.866
 30
0.0
 10
-171.2491
 20
25.5585
 30
0.0
 10
-172.002
 20
24.2402
 30
0.0
 10
-172.7362
 20
22.9113
 30
0.0
 10
-172.7362
 20
22.9113
 30
0.0
 10
-173.4732
 20
21.5777
 30
0.0
 10
-174.044
 20
20.159
 30
0.0
 10
-174.4364
 20
18.6866
 30
0.0
 10
-174.4364
 20
18.6866
 30
0.0
 10
-174.696
 20
17.7126
 30
0.0
 10
-174.8187
 20
16.7073
 30
0.0
 10
-174.8012
 20
15.6995
 30
0.0
 10
-174.8012
 20
15.6995
 30
0.0
 10
-172.8602
 20
14.2803
 30
0.0
 10
-171.2675
 20
12.4366
 30
0.0
 10
-170.1448
 20
10.3103
 30
0.0
 10
-170.1448
 20
10.3103
 30
0.0
 10
-168.6876
 20
7.5507
 30
0.0
 10
-167.4659
 20
4.6726
 30
0.0
 10
-166.4928
 20
1.7076
 30
0.0
 10
-166.4928
 20
1.7076
 30
0.0
 10
-165.9751
 20
0.1301
 30
0.0
 10
-165.4639
 20
-1.4491
 30
0.0
 10
-164.9589
 20
-3.0306
 30
0.0
 10
-164.9589
 20
-3.0306
 30
0.0
 10
-164.4537
 20
-4.6125
 30
0.0
 10
-163.8912
 20
-6.1755
 30
0.0
 10
-163.2725
 20
-7.7165
 30
0.0
 10
-163.2725
 20
-7.7165
 30
0.0
 10
-163.2725
 20
-7.7165
 30
0.0
 10
-163.2725
 20
-7.7164
 30
0.0
 10
-163.2725
 20
-7.7164
 30
0.0
  0
SPLINE
  5
47
330
1F
100
AcDbEntity
  8
layer 1
 62
     7
100
AcDbSpline
210
0.0
220
0.0
230
1.0
 70
    11
 71
     3
 72
    60
 73
    56
 74
     0
 42
0.0000000001
 43
0.0000000001
 12
1.0
 22
0.0
 32
0.0
 13
1.0
 23
0.0
 33
0.0
 40
0.0
 40
0.0
 40
0.0
 40
0.0
 40
0.0666666666666667
 40
0.0666666666666667
 40
0.0666666666666667
 40
0.0666666666666667
 40
0.1333333333333333
 40
0.1333333333333333
 40
0.1333333333333333
 40
0.1333333333333333
 40
0.2
 40
0.2
 40
0.2
 40
0.2
 40
0.2666666666666667
 40
0.2666666666666667
 40
0.2666666666666667
 40
0.2666666666666667
 40
0.3333333333333333
 40
0.3333333333333333
 40
0.3333333333333333
 40
0.3333333333333333
 40
0.4
 40
0.4
 40
0.4
 40
0.4
 40
0.4666666666666667
 40
0.4666666666666667
 40
0.4666666666666667
 40
0.4666666666666667
 40
0.5333333333333333
 40
0.5333333333333333
 40
0.5333333333333333
 40
0.5333333333333333
 40
0.6
 40
0.6
 40
0.6
 40
0.6
 40
0.6666666666666666
 40
0.6666666666666666
 40
0.6666666666666666
 40
0.6666666666666666
 40
0.7333333333333333
 40
0.7333333333333333
 40
0.7333333333333333
 40
0.7333333333333333
 40
0.8
 40
0.8
 40
0.8
 40
0.8
 40
0.8666666666666667
 40
0.8666666666666667
 40
0.8666666666666667
 40
0.8666666666666667
 40
1.0
 40
1.0
 40
1.0
 40
1.0
 10
-174.8012
 20
88.4673
 30
0.0
 10
-172.677
 20
86.4035
 30
0.0
 10
-170.8445
 20
84.0585
 30
0.0
 10
-169.3552
 20
81.4987
 30
0.0
 10
-169.3552
 20
81.4987
 30
0.0
 10
-167.872
 20
78.9486
 30
0.0
 10
-166.5246
 20
76.3214
 30
0.0
 10
-165.3196
 20
73.629
 30
0.0
 10
-165.3196
 20
73.629
 30
0.0
 10
-164.596
 20
72.0121
 30
0.0
 10
-163.7947
 20
70.4316
 30
0.0
 10
-162.9185
 20
68.8925
 30
0.0
 10
-162.9185
 20
68.8925
 30
0.0
 10
-162.0383
 20
67.3462
 30
0.0
 10
-160.9453
 20
65.9321
 30
0.0
 10
-159.6708
 20
64.6908
 30
0.0
 10
-159.6708
 20
64.6908
 30
0.0
 10
-159.6708
 20
64.6908
 30
0.0
 10
-158.5904
 20
64.6908
 30
0.0
 10
-158.5904
 20
64.6908
 30
0.0
 10
-158.5904
 20
64.6908
 30
0.0
 10
-158.4877
 20
65.7522
 30
0.0
 10
-158.4292
 20
66.8176
 30
0.0
 10
-158.415
 20
67.884
 30
0.0
 10
-158.415
 20
67.884
 30
0.0
 10
-158.3719
 20
71.1157
 30
0.0
 10
-158.3801
 20
74.3479
 30
0.0
 10
-158.4397
 20
77.5794
 30
0.0
 10
-158.4397
 20
77.5794
 30
0.0
 10
-158.4972
 20
80.6986
 30
0.0
 10
-159.404
 20
83.7415
 30
0.0
 10
-161.0636
 20
86.3832
 30
0.0
 10
-161.0636
 20
86.3832
 30
0.0
 10
-162.4647
 20
88.6131
 30
0.0
 10
-164.0042
 20
90.7526
 30
0.0
 10
-165.6733
 20
92.7898
 30
0.0
 10
-165.6733
 20
92.7898
 30
0.0
 10
-167.3345
 20
94.8173
 30
0.0
 10
-169.0263
 20
96.8195
 30
0.0
 10
-170.7483
 20
98.7955
 30
0.0
 10
-170.7483
 20
98.7955
 30
0.0
 10
-171.3734
 20
99.5126
 30
0.0
 10
-172.1023
 20
100.1317
 30
0.0
 10
-172.9114
 20
100.6318
 30
0.0
 10
-172.9114
 20
100.6318
 30
0.0
 10
-173.4971
 20
100.9939
 30
0.0
 10
-174.1342
 20
101.2648
 30
0.0
 10
-174.8012
 20
101.4357
 30
0.0
 10
-174.8012
 20
101.4357
 30
0.0
 10
-174.8012
 20
101.4357
 30
0.0
 10
-174.8012
 20
88.4673
 30
0.0
 10
-174.8012
 20
88.4673
 30
0.0
 10
-174.8012
 20
88.4673
 30
0.0
 10
-174.8012
 20
88.4673
 30
0.0
 10
-174.8012
 20
88.4673
 30
0.0
 10
-174.8012
 20
88.4673
 30
0.0
  0
SPLINE
  5
48
330
1F
100
AcDbEntity
  8
layer 1
 62
     7
100
AcDbSpline
210
0.0
220
0.0
230
1.0
 70
    11
 71
     3
 72
    48
 73
    44
 74
     0
 42
0.0000000001
 43
0.0000000001
 12
1.0
 22
0.0
 32
0.0
 13
1.0
 23
0.0
 33
0.0
 40
0.0
 40
0.0
 40
0.0
 40
0.0
 40
0.0833333333333333
 40
0.0833333333333333
 40
0.0833333333333333
 40
0.0833333333333333
 40
0.1666666666666667
 40
0.1666666666666667
 40
0.1666666666666667
 40
0.1666666666666667
 40
0.25
 40
0.25
 40
0.25
 40
0.25
 40
0.3333333333333333
 40
0.3333333333333333
 40
0.3333333333333333
 40
0.3333333333333333
 40
0.4166666666666667
 40
0.4166666666666667
 40
0.4166666666666667
 40
0.4166666666666667
 40
0.5
 40
0.5
 40
0.5
 40
0.5
 40
0.5833333333333334
 40
0.5833333333333334
 40
0.5833333333333334
 40
0.5833333333333334
 40
0.6666666666666666
 40
0.6666666666666666
 40
0.6666666666666666
 40
0.6666666666666666
 40
0.75
 40
0.75
 40
0.75
 40
0.75
 40
0.8333333333333334
 40
0.8333333333333334
 40
0.8333333333333334
 40
0.8333333333333334
 40
1.0
 40
1.0
 40
1.0
 40
1.0
 10
-170.2809
 20
110.0543
 30
0.0
 10
-169.6141
 20
108.4926
 30
0.0
 10
-168.9414
 20
106.9334
 30
0.0
 10
-168.2631
 20
105.3767
 30
0.0
 10
-168.2631
 20
105.3767
 30
0.0
 10
-167.0925
 20
102.6901
 30
0.0
 10
-165.099
 20
100.4466
 30
0.0
 10
-162.5683
 20
98.9689
 30
0.0
 10
-162.5683
 20
98.9689
 30
0.0
 10
-161.3466
 20
98.2554
 30
0.0
 10
-160.179
 20
97.4528
 30
0.0
 10
-159.0753
 20
96.568
 30
0.0
 10
-159.0753
 20
96.568
 30
0.0
 10
-158.3844
 20
96.014
 30
0.0
 10
-157.7934
 20
95.3453
 30
0.0
 10
-157.3288
 20
94.5915
 30
0.0
 10
-157.3288
 20
94.5915
 30
0.0
 10
-157.0361
 20
96.0339
 30
0.0
 10
-156.6899
 20
97.4652
 30
0.0
 10
-156.2908
 20
98.8819
 30
0.0
 10
-156.2908
 20
98.8819
 30
0.0
 10
-155.8914
 20
100.3007
 30
0.0
 10
-155.608
 20
101.7494
 30
0.0
 10
-155.4434
 20
103.2143
 30
0.0
 10
-155.4434
 20
103.2143
 30
0.0
 10
-155.281
 20
104.6581
 30
0.0
 10
-155.1817
 20
106.1084
 30
0.0
 10
-155.1457
 20
107.5611
 30
0.0
 10
-155.1457
 20
107.5611
 30
0.0
 10
-155.1094
 20
109.0218
 30
0.0
 10
-155.2994
 20
110.4789
 30
0.0
 10
-155.7087
 20
111.8817
 30
0.0
 10
-155.7087
 20
111.8817
 30
0.0
 10
-155.7087
 20
111.8817
 30
0.0
 10
-170.4775
 20
111.8817
 30
0.0
 10
-170.4775
 20
111.8817
 30
0.0
 10
-170.4775
 20
111.8817
 30
0.0
 10
-170.4775
 20
111.8817
 30
0.0
 10
-170.2809
 20
110.0544
 30
0.0
 10
-170.2809
 20
110.0544
 30
0.0
 10
-170.2809
 20
110.0544
 30
0.0
 10
-170.2809
 20
110.0544
 30
0.0
 10
-170.2809
 20
110.0543
 30
0.0
 10
-170.2809
 20
110.0543
 30
0.0
  0
SPLINE
  5
49
330
1F
100
AcDbEntity
  8
layer 1
 62
     7
100
AcDbSpline
210
0.0
220
0.0
230
1.0
 70
    27
 71
     3
 72
    12
 73
     8
 74
     0
 42
0.0000000001
 43
0.0000000001
 12
1.0
 22
0.0
 32
0.0
 13
1.0
 23
0.0
 33
0.0
 40
0.0
 40
0.0
 40
0.0
 40
0.0
 40
0.3333333333333333
 40
0.3333333333333333
 40
0.3333333333333333
 40
0.3333333333333333
 40
1.0
 40
1.0
 40
1.0
 40
1.0
 10
-157.8691
 20
94.5915
 30
0.0
 10
-157.8691
 20
94.5915
 30
0.0
 10
-156.7884
 20
94.5915
 30
0.0
 10
-156.7884
 20
94.5915
 30
0.0
 10
-156.7884
 20
94.5915
 30
0.0
 10
-156.7884
 20
94.5915
 30
0.0
 10
-157.8691
 20
94.5915
 30
0.0
 10
-157.8691
 20
94.5915
 30
0.0
  0
SPLINE
  5
4A
330
1F
100
AcDbEntity
  8
layer 1
 62
     7
100
AcDbSpline
210
0.0
220
0.0
230
1.0
 70
    11
 71
     3
 72
    96
 73
    92
 74
     0
 42
0.0000000001
 43
0.0000000001
 12
1.0
 22
0.0
 32
0.0
 13
1.0
 23
0.0
 33
0.0
 40
0.0
 40
0.0
 40
0.0
 40
0.0
 40
0.0416666666666667
 40
0.0416666666666667
 40
0.0416666666666667
 40
0.0416666666666667
 40
0.0833333333333333
 40
0.0833333333333333
 40
0.0833333333333333
 40
0.0833333333333333
 40
0.125
 40
0.125
 40
0.125
 40
0.125
 40
0.1666666666666667
 40
0.1666666666666667
 40
0.1666666666666667
 40
0.1666666666666667
 40
0.2083333333333333
 40
0.2083333333333333
 40
0.2083333333333333
 40
0.2083333333333333
 40
0.25
 40
0.25
 40
0.25
 40
0.25
 40
0.2916666666666667
 40
0.2916666666666667
 40
0.2916666666666667
 40
0.2916666666666667
 40
0.3333333333333333
 40
0.3333333333333333
 40
0.3333333333333333
 40
0.3333333333333333
 40
0.375
 40
0.375
 40
0.375
 40
0.375
 40
0.4166666666666667
 40
0.4166666666666667
 40
0.4166666666666667
 40
0.4166666666666667
 40
0.4583333333333333
 40
0.4583333333333333
 40
0.4583333333333333
 40
0.4583333333333333
 40
0.5
 40
0.5
 40
0.5
 40
0.5
 40
0.5416666666666666
 40
0.5416666666666666
 40
0.5416666666666666
 40
0.5416666666666666
 40
0.5833333333333334
 40
0.5833333333333334
 40
0.5833333333333334
 40
0.5833333333333334
 40
0.625
 40
0.625
 40
0.625
 40
0.625
 40
0.6666666666666666
 40
0.6666666666666666
 40
0.6666666666666666
 40
0.6666666666666666
 40
0.7083333333333334
 40
0.7083333333333334
 40
0.7083333333333334
 40
0.7083333333333334
 40
0.75
 40
0.75
 40
0.75
 40
0.75
 40
0.7916666666666666
 40
0.7916666666666666
 40
0.7916666666666666
 40
0.7916666666666666
 40
0.8333333333333334
 40
0.8333333333333334
 40
0.8333333333333334
 40
0.8333333333333334
 40
0.875
 40
0.875
 40
0.875
 40
0.875
 40
0.9166666666666666
 40
0.9166666666666666
 40
0.9166666666666666
 40
0.9166666666666666
 40
1.0
 40
1.0
 40
1.0
 40
1.0
 10
-158.5904
 20
-32.9327
 30
0.0
 10
-158.5904
 20
-32.9327
 30
0.0
 10
-158.4043
 20
-36.1919
 30
0.0
 10
-158.4043
 20
-36.1919
 30
0.0
 10
-158.4043
 20
-36.1919
 30
0.0
 10
-158.1941
 20
-36.8854
 30
0.0
 10
-157.9997
 20
-37.5837
 30
0.0
 10
-157.8208
 20
-38.2859
 30
0.0
 10
-157.8208
 20
-38.2859
 30
0.0
 10
-157.5191
 20
-39.4718
 30
0.0
 10
-156.9761
 20
-40.5824
 30
0.0
 10
-156.2254
 20
-41.5488
 30
0.0
 10
-156.2254
 20
-41.5488
 30
0.0
 10
-155.832
 20
-42.055
 30
0.0
 10
-155.4192
 20
-42.5459
 30
0.0
 10
-154.9878
 20
-43.02
 30
0.0
 10
-154.9878
 20
-43.02
 30
0.0
 10
-154.9878
 20
-43.02
 30
0.0
 10
-153.9065
 20
-43.02
 30
0.0
 10
-153.9065
 20
-43.02
 30
0.0
 10
-153.9065
 20
-43.02
 30
0.0
 10
-153.7202
 20
-42.3742
 30
0.0
 10
-153.3243
 20
-41.8081
 30
0.0
 10
-152.7816
 20
-41.4116
 30
0.0
 10
-152.7816
 20
-41.4116
 30
0.0
 10
-151.7676
 20
-40.6707
 30
0.0
 10
-150.7944
 20
-39.8758
 30
0.0
 10
-149.8658
 20
-39.0302
 30
0.0
 10
-149.8658
 20
-39.0302
 30
0.0
 10
-148.6989
 20
-37.9677
 30
0.0
 10
-147.4006
 20
-37.0588
 30
0.0
 10
-146.003
 20
-36.3259
 30
0.0
 10
-146.003
 20
-36.3259
 30
0.0
 10
-145.0892
 20
-35.8468
 30
0.0
 10
-144.2032
 20
-35.3172
 30
0.0
 10
-143.3489
 20
-34.739
 30
0.0
 10
-143.3489
 20
-34.739
 30
0.0
 10
-142.2851
 20
-34.0192
 30
0.0
 10
-141.2235
 20
-33.2961
 30
0.0
 10
-140.1641
 20
-32.5698
 30
0.0
 10
-140.1641
 20
-32.5698
 30
0.0
 10
-139.3452
 20
-32.0086
 30
0.0
 10
-138.646
 20
-31.2906
 30
0.0
 10
-138.1065
 20
-30.457
 30
0.0
 10
-138.1065
 20
-30.457
 30
0.0
 10
-137.9454
 20
-30.2078
 30
0.0
 10
-137.7927
 20
-29.9533
 30
0.0
 10
-137.6486
 20
-29.6937
 30
0.0
 10
-137.6486
 20
-29.6937
 30
0.0
 10
-137.0085
 20
-28.5389
 30
0.0
 10
-136.2663
 20
-27.4435
 30
0.0
 10
-135.4312
 20
-26.4206
 30
0.0
 10
-135.4312
 20
-26.4206
 30
0.0
 10
-134.5871
 20
-25.3867
 30
0.0
 10
-133.8191
 20
-24.2932
 30
0.0
 10
-133.133
 20
-23.1484
 30
0.0
 10
-133.133
 20
-23.1484
 30
0.0
 10
-132.8168
 20
-22.6209
 30
0.0
 10
-132.4103
 20
-22.1529
 30
0.0
 10
-131.9322
 20
-21.766
 30
0.0
 10
-131.9322
 20
-21.766
 30
0.0
 10
-131.9322
 20
-21.766
 30
0.0
 10
-131.9322
 20
-20.6854
 30
0.0
 10
-131.9322
 20
-20.6854
 30
0.0
 10
-131.9322
 20
-20.6854
 30
0.0
 10
-133.7092
 20
-20.9689
 30
0.0
 10
-135.4824
 20
-21.2738
 30
0.0
 10
-137.252
 20
-21.6002
 30
0.0
 10
-137.252
 20
-21.6002
 30
0.0
 10
-140.8311
 20
-22.2605
 30
0.0
 10
-144.4753
 20
-22.5042
 30
0.0
 10
-148.1105
 20
-22.3265
 30
0.0
 10
-148.1105
 20
-22.3265
 30
0.0
 10
-149.9217
 20
-22.2379
 30
0.0
 10
-151.7337
 20
-22.1711
 30
0.0
 10
-153.5465
 20
-22.1258
 30
0.0
 10
-153.5465
 20
-22.1258
 30
0.0
 10
-153.9388
 20
-23.5854
 30
0.0
 10
-154.3676
 20
-25.035
 30
0.0
 10
-154.8322
 20
-26.4733
 30
0.0
 10
-154.8322
 20
-26.4733
 30
0.0
 10
-155.298
 20
-27.915
 30
0.0
 10
-155.9129
 20
-29.3046
 30
0.0
 10
-156.6664
 20
-30.6191
 30
0.0
 10
-156.6664
 20
-30.6191
 30
0.0
 10
-157.169
 20
-31.4958
 30
0.0
 10
-157.8201
 20
-32.2788
 30
0.0
 10
-158.5904
 20
-32.9327
 30
0.0
 10
-158.5904
 20
-32.9327
 30
0.0
 10
-158.5904
 20
-32.9327
 30
0.0
 10
-158.5904
 20
-32.9327
 30
0.0
 10
-158.5904
 20
-32.9327
 30
0.0
  0
SPLINE
  5
4B
330
1F
100
AcDbEntity
  8
layer 1
 62
     7
100
AcDbSpline
210
0.0
220
0.0
230
1.0
 70
    11
 71
     3
 72
    52
 73
    48
 74
     0
 42
0.0000000001
 43
0.0000000001
 12
1.0
 22
0.0
 32
0.0
 13
1.0
 23
0.0
 33
0.0
 40
0.0
 40
0.0
 40
0.0
 40
0.0
 40
0.0769230769230769
 40
0.0769230769230769
 40
0.0769230769230769
 40
0.0769230769230769
 40
0.1538461538461539
 40
0.1538461538461539
 40
0.1538461538461539
 40
0.1538461538461539
 40
0.2307692307692308
 40
0.2307692307692308
 40
0.2307692307692308
 40
0.2307692307692308
 40
0.3076923076923077
 40
0.3076923076923077
 40
0.3076923076923077
 40
0.3076923076923077
 40
0.3846153846153846
 40
0.3846153846153846
 40
0.3846153846153846
 40
0.3846153846153846
 40
0.4615384615384616
 40
0.4615384615384616
 40
0.4615384615384616
 40
0.4615384615384616
 40
0.5384615384615384
 40
0.5384615384615384
 40
0.5384615384615384
 40
0.5384615384615384
 40
0.6153846153846154
 40
0.6153846153846154
 40
0.6153846153846154
 40
0.6153846153846154
 40
0.6923076923076923
 40
0.6923076923076923
 40
0.6923076923076923
 40
0.6923076923076923
 40
0.7692307692307693
 40
0.7692307692307693
 40
0.7692307692307693
 40
0.7692307692307693
 40
0.8461538461538461
 40
0.8461538461538461
 40
0.8461538461538461
 40
0.8461538461538461
 40
1.0
 40
1.0
 40
1.0
 40
1.0
 10
-154.9878
 20
3.4509
 30
0.0
 10
-155.9072
 20
0.9211
 30
0.0
 10
-156.5216
 20
-1.7087
 30
0.0
 10
-156.8177
 20
-4.384
 30
0.0
 10
-156.8177
 20
-4.384
 30
0.0
 10
-157.1128
 20
-7.05
 30
0.0
 10
-157.3433
 20
-9.7226
 30
0.0
 10
-157.5088
 20
-12.3998
 30
0.0
 10
-157.5088
 20
-12.3998
 30
0.0
 10
-156.414
 20
-13.3716
 30
0.0
 10
-155.1318
 20
-14.1081
 30
0.0
 10
-153.7407
 20
-14.5645
 30
0.0
 10
-153.7407
 20
-14.5645
 30
0.0
 10
-152.7606
 20
-14.8858
 30
0.0
 10
-151.7108
 20
-14.9278
 30
0.0
 10
-150.7082
 20
-14.6854
 30
0.0
 10
-150.7082
 20
-14.6854
 30
0.0
 10
-148.8603
 20
-14.2387
 30
0.0
 10
-147.0699
 20
-13.5821
 30
0.0
 10
-145.3716
 20
-12.7277
 30
0.0
 10
-145.3716
 20
-12.7277
 30
0.0
 10
-145.4007
 20
-11.6142
 30
0.0
 10
-145.6533
 20
-10.5182
 30
0.0
 10
-146.1145
 20
-9.5042
 30
0.0
 10
-146.1145
 20
-9.5042
 30
0.0
 10
-146.5712
 20
-8.5005
 30
0.0
 10
-147.0469
 20
-7.5055
 30
0.0
 10
-147.5411
 20
-6.5197
 30
0.0
 10
-147.5411
 20
-6.5197
 30
0.0
 10
-147.8764
 20
-5.8512
 30
0.0
 10
-148.1587
 20
-5.1572
 30
0.0
 10
-148.385
 20
-4.4446
 30
0.0
 10
-148.385
 20
-4.4446
 30
0.0
 10
-148.8468
 20
-2.991
 30
0.0
 10
-149.413
 20
-1.5726
 30
0.0
 10
-150.0795
 20
-0.2007
 30
0.0
 10
-150.0795
 20
-0.2007
 30
0.0
 10
-150.7513
 20
1.1824
 30
0.0
 10
-151.6839
 20
2.4221
 30
0.0
 10
-152.8267
 20
3.4509
 30
0.0
 10
-152.8267
 20
3.4509
 30
0.0
 10
-152.8267
 20
3.4509
 30
0.0
 10
-154.9878
 20
3.4509
 30
0.0
 10
-154.9878
 20
3.4509
 30
0.0
 10
-154.9878
 20
3.4509
 30
0.0
 10
-154.9878
 20
3.4509
 30
0.0
 10
-154.9878
 20
3.4509
 30
0.0
 10
-154.9878
 20
3.4509
 30
0.0
  0
SPLINE
  5
4C
330
1F
100
AcDbEntity
  8
layer 1
 62
     7
100
AcDbSpline
210
0.0
220
0.0
230
1.0
 70
    11
 71
     3
 72
    60
 73
    56
 74
     0
 42
0.0000000001
 43
0.0000000001
 12
1.0
 22
0.0
 32
0.0
 13
1.0
 23
0.0
 33
0.0
 40
0.0
 40
0.0
 40
0.0
 40
0.0
 40
0.0666666666666667
 40
0.0666666666666667
 40
0.0666666666666667
 40
0.0666666666666667
 40
0.1333333333333333
 40
0.1333333333333333
 40
0.1333333333333333
 40
0.1333333333333333
 40
0.2
 40
0.2
 40
0.2
 40
0.2
 40
0.2666666666666667
 40
0.2666666666666667
 40
0.2666666666666667
 40
0.2666666666666667
 40
0.3333333333333333
 40
0.3333333333333333
 40
0.3333333333333333
 40
0.3333333333333333
 40
0.4
 40
0.4
 40
0.4
 40
0.4
 40
0.4666666666666667
 40
0.4666666666666667
 40
0.4666666666666667
 40
0.4666666666666667
 40
0.5333333333333333
 40
0.5333333333333333
 40
0.5333333333333333
 40
0.5333333333333333
 40
0.6
 40
0.6
 40
0.6
 40
0.6
 40
0.6666666666666666
 40
0.6666666666666666
 40
0.6666666666666666
 40
0.6666666666666666
 40
0.7333333333333333
 40
0.7333333333333333
 40
0.7333333333333333
 40
0.7333333333333333
 40
0.8
 40
0.8
 40
0.8
 40
0.8
 40
0.8666666666666667
 40
0.8666666666666667
 40
0.8666666666666667
 40
0.8666666666666667
 40
1.0
 40
1.0
 40
1.0
 40
1.0
 10
-152.4664
 20
40.5559
 30
0.0
 10
-152.4664
 20
40.5559
 30
0.0
 10
-152.4664
 20
11.0155
 30
0.0
 10
-152.4664
 20
11.0155
 30
0.0
 10
-152.4664
 20
11.0155
 30
0.0
 10
-151.7177
 20
11.4384
 30
0.0
 10
-151.1662
 20
12.1385
 30
0.0
 10
-150.9307
 20
12.9655
 30
0.0
 10
-150.9307
 20
12.9655
 30
0.0
 10
-150.6698
 20
13.8815
 30
0.0
 10
-150.437
 20
14.8051
 30
0.0
 10
-150.2328
 20
15.7353
 30
0.0
 10
-150.2328
 20
15.7353
 30
0.0
 10
-149.8897
 20
17.2932
 30
0.0
 10
-149.4717
 20
18.8338
 30
0.0
 10
-148.9805
 20
20.3516
 30
0.0
 10
-148.9805
 20
20.3516
 30
0.0
 10
-148.4895
 20
21.8686
 30
0.0
 10
-148.0173
 20
23.3914
 30
0.0
 10
-147.5641
 20
24.9202
 30
0.0
 10
-147.5641
 20
24.9202
 30
0.0
 10
-147.1751
 20
26.2316
 30
0.0
 10
-146.7838
 20
27.5423
 30
0.0
 10
-146.3902
 20
28.8523
 30
0.0
 10
-146.3902
 20
28.8523
 30
0.0
 10
-145.5962
 20
31.4943
 30
0.0
 10
-144.7636
 20
34.1243
 30
0.0
 10
-143.8927
 20
36.7419
 30
0.0
 10
-143.8927
 20
36.7419
 30
0.0
 10
-143.5983
 20
37.6051
 30
0.0
 10
-143.3103
 20
38.4704
 30
0.0
 10
-143.0285
 20
39.3377
 30
0.0
 10
-143.0285
 20
39.3377
 30
0.0
 10
-142.7462
 20
40.2064
 30
0.0
 10
-142.5292
 20
41.0947
 30
0.0
 10
-142.3795
 20
41.9957
 30
0.0
 10
-142.3795
 20
41.9957
 30
0.0
 10
-143.474
 20
41.5382
 30
0.0
 10
-144.5835
 20
41.1173
 30
0.0
 10
-145.706
 20
40.7337
 30
0.0
 10
-145.706
 20
40.7337
 30
0.0
 10
-146.3911
 20
40.4996
 30
0.0
 10
-147.11
 20
40.3793
 30
0.0
 10
-147.8339
 20
40.3771
 30
0.0
 10
-147.8339
 20
40.3771
 30
0.0
 10
-148.6072
 20
40.3749
 30
0.0
 10
-149.3804
 20
40.3745
 30
0.0
 10
-150.1536
 20
40.3756
 30
0.0
 10
-150.1536
 20
40.3756
 30
0.0
 10
-150.9281
 20
40.3768
 30
0.0
 10
-151.7012
 20
40.4371
 30
0.0
 10
-152.4664
 20
40.5559
 30
0.0
 10
-152.4664
 20
40.5559
 30
0.0
 10
-152.4664
 20
40.5559
 30
0.0
 10
-152.4664
 20
40.5559
 30
0.0
 10
-152.4664
 20
40.5559
 30
0.0
  0
SPLINE
  5
4D
330
1F
100
AcDbEntity
  8
layer 1
 62
     7
100
AcDbSpline
210
0.0
220
0.0
230
1.0
 70
    11
 71
     3
 72
    72
 73
    68
 74
     0
 42
0.0000000001
 43
0.0000000001
 12
1.0
 22
0.0
 32
0.0
 13
1.0
 23
0.0
 33
0.0
 40
0.0
 40
0.0
 40
0.0
 40
0.0
 40
0.0555555555555556
 40
0.0555555555555556
 40
0.0555555555555556
 40
0.0555555555555556
 40
0.1111111111111111
 40
0.1111111111111111
 40
0.1111111111111111
 40
0.1111111111111111
 40
0.1666666666666667
 40
0.1666666666666667
 40
0.1666666666666667
 40
0.1666666666666667
 40
0.2222222222222222
 40
0.2222222222222222
 40
0.2222222222222222
 40
0.2222222222222222
 40
0.2777777777777778
 40
0.2777777777777778
 40
0.2777777777777778
 40
0.2777777777777778
 40
0.3333333333333333
 40
0.3333333333333333
 40
0.3333333333333333
 40
0.3333333333333333
 40
0.3888888888888889
 40
0.3888888888888889
 40
0.3888888888888889
 40
0.3888888888888889
 40
0.4444444444444444
 40
0.4444444444444444
 40
0.4444444444444444
 40
0.4444444444444444
 40
0.5
 40
0.5
 40
0.5
 40
0.5
 40
0.5555555555555556
 40
0.5555555555555556
 40
0.5555555555555556
 40
0.5555555555555556
 40
0.6111111111111112
 40
0.6111111111111112
 40
0.6111111111111112
 40
0.6111111111111112
 40
0.6666666666666666
 40
0.6666666666666666
 40
0.6666666666666666
 40
0.6666666666666666
 40
0.7222222222222222
 40
0.7222222222222222
 40
0.7222222222222222
 40
0.7222222222222222
 40
0.7777777777777778
 40
0.7777777777777778
 40
0.7777777777777778
 40
0.7777777777777778
 40
0.8333333333333334
 40
0.8333333333333334
 40
0.8333333333333334
 40
0.8333333333333334
 40
0.8888888888888888
 40
0.8888888888888888
 40
0.8888888888888888
 40
0.8888888888888888
 40
1.0
 40
1.0
 40
1.0
 40
1.0
 10
-148.8641
 20
111.8817
 30
0.0
 10
-149.1253
 20
109.9002
 30
0.0
 10
-149.3647
 20
107.9159
 30
0.0
 10
-149.5822
 20
105.9291
 30
0.0
 10
-149.5822
 20
105.9291
 30
0.0
 10
-149.8002
 20
103.939
 30
0.0
 10
-150.0447
 20
101.9517
 30
0.0
 10
-150.3156
 20
99.968
 30
0.0
 10
-150.3156
 20
99.968
 30
0.0
 10
-150.6103
 20
97.9901
 30
0.0
 10
-150.9431
 20
96.0181
 30
0.0
 10
-151.3138
 20
94.0531
 30
0.0
 10
-151.3138
 20
94.0531
 30
0.0
 10
-151.6848
 20
92.0867
 30
0.0
 10
-151.9493
 20
90.1019
 30
0.0
 10
-152.1061
 20
88.1071
 30
0.0
 10
-152.1061
 20
88.1071
 30
0.0
 10
-150.5912
 20
87.5647
 30
0.0
 10
-148.9962
 20
87.2816
 30
0.0
 10
-147.3871
 20
87.2698
 30
0.0
 10
-147.3871
 20
87.2698
 30
0.0
 10
-144.6965
 20
87.2501
 30
0.0
 10
-142.0059
 20
87.2182
 30
0.0
 10
-139.3157
 20
87.1738
 30
0.0
 10
-139.3157
 20
87.1738
 30
0.0
 10
-136.4069
 20
87.1261
 30
0.0
 10
-133.5314
 20
87.7863
 30
0.0
 10
-130.9348
 20
89.0983
 30
0.0
 10
-130.9348
 20
89.0983
 30
0.0
 10
-129.7027
 20
89.7209
 30
0.0
 10
-128.4745
 20
90.3511
 30
0.0
 10
-127.2499
 20
90.9886
 30
0.0
 10
-127.2499
 20
90.9886
 30
0.0
 10
-127.0782
 20
92.0241
 30
0.0
 10
-126.6347
 20
92.9959
 30
0.0
 10
-125.9652
 20
93.8044
 30
0.0
 10
-125.9652
 20
93.8044
 30
0.0
 10
-124.8671
 20
95.1307
 30
0.0
 10
-123.9443
 20
96.5924
 30
0.0
 10
-123.2192
 20
98.154
 30
0.0
 10
-123.2192
 20
98.154
 30
0.0
 10
-122.4343
 20
99.8443
 30
0.0
 10
-121.7444
 20
101.5766
 30
0.0
 10
-121.1524
 20
103.3438
 30
0.0
 10
-121.1524
 20
103.3438
 30
0.0
 10
-120.5603
 20
105.1119
 30
0.0
 10
-120.104
 20
106.9229
 30
0.0
 10
-119.7879
 20
108.7605
 30
0.0
 10
-119.7879
 20
108.7605
 30
0.0
 10
-119.6296
 20
109.6804
 30
0.0
 10
-119.4749
 20
110.6009
 30
0.0
 10
-119.3238
 20
111.5219
 30
0.0
 10
-119.3238
 20
111.5219
 30
0.0
 10
-119.3841
 20
111.5818
 30
0.0
 10
-119.4444
 20
111.6419
 30
0.0
 10
-119.5043
 20
111.7019
 30
0.0
 10
-119.5043
 20
111.7019
 30
0.0
 10
-119.5642
 20
111.7619
 30
0.0
 10
-119.6243
 20
111.8218
 30
0.0
 10
-119.6842
 20
111.8817
 30
0.0
 10
-119.6842
 20
111.8817
 30
0.0
 10
-119.6842
 20
111.8817
 30
0.0
 10
-148.8641
 20
111.8817
 30
0.0
 10
-148.8641
 20
111.8817
 30
0.0
 10
-148.8641
 20
111.8817
 30
0.0
 10
-148.8641
 20
111.8817
 30
0.0
 10
-148.8641
 20
111.8817
 30
0.0
 10
-148.8641
 20
111.8817
 30
0.0
  0
SPLINE
  5
4E
330
1F
100
AcDbEntity
  8
layer 1
 62
     7
100
AcDbSpline
210
0.0
220
0.0
230
1.0
 70
    11
 71
     3
 72
    52
 73
    48
 74
     0
 42
0.0000000001
 43
0.0000000001
 12
1.0
 22
0.0
 32
0.0
 13
1.0
 23
0.0
 33
0.0
 40
0.0
 40
0.0
 40
0.0
 40
0.0
 40
0.0769230769230769
 40
0.0769230769230769
 40
0.0769230769230769
 40
0.0769230769230769
 40
0.1538461538461539
 40
0.1538461538461539
 40
0.1538461538461539
 40
0.1538461538461539
 40
0.2307692307692308
 40
0.2307692307692308
 40
0.2307692307692308
 40
0.2307692307692308
 40
0.3076923076923077
 40
0.3076923076923077
 40
0.3076923076923077
 40
0.3076923076923077
 40
0.3846153846153846
 40
0.3846153846153846
 40
0.3846153846153846
 40
0.3846153846153846
 40
0.4615384615384616
 40
0.4615384615384616
 40
0.4615384615384616
 40
0.4615384615384616
 40
0.5384615384615384
 40
0.5384615384615384
 40
0.5384615384615384
 40
0.5384615384615384
 40
0.6153846153846154
 40
0.6153846153846154
 40
0.6153846153846154
 40
0.6153846153846154
 40
0.6923076923076923
 40
0.6923076923076923
 40
0.6923076923076923
 40
0.6923076923076923
 40
0.7692307692307693
 40
0.7692307692307693
 40
0.7692307692307693
 40
0.7692307692307693
 40
0.8461538461538461
 40
0.8461538461538461
 40
0.8461538461538461
 40
0.8461538461538461
 40
1.0
 40
1.0
 40
1.0
 40
1.0
 10
-151.0247
 20
-48.0624
 30
0.0
 10
-151.0247
 20
-48.0624
 30
0.0
 10
-150.8424
 20
-49.5097
 30
0.0
 10
-150.8424
 20
-49.5097
 30
0.0
 10
-150.8424
 20
-49.5097
 30
0.0
 10
-150.5809
 20
-50.7864
 30
0.0
 10
-150.2704
 20
-52.052
 30
0.0
 10
-149.9111
 20
-53.3045
 30
0.0
 10
-149.9111
 20
-53.3045
 30
0.0
 10
-149.5521
 20
-54.5566
 30
0.0
 10
-149.203
 20
-55.8114
 30
0.0
 10
-148.8641
 20
-57.0689
 30
0.0
 10
-148.8641
 20
-57.0689
 30
0.0
 10
-148.8641
 20
-57.0689
 30
0.0
 10
-147.7825
 20
-57.0689
 30
0.0
 10
-147.7825
 20
-57.0689
 30
0.0
 10
-147.7825
 20
-57.0689
 30
0.0
 10
-147.2734
 20
-55.2536
 30
0.0
 10
-146.6801
 20
-53.463
 30
0.0
 10
-146.0043
 20
-51.7029
 30
0.0
 10
-146.0043
 20
-51.7029
 30
0.0
 10
-145.3286
 20
-49.9433
 30
0.0
 10
-144.7095
 20
-48.1629
 30
0.0
 10
-144.1475
 20
-46.3637
 30
0.0
 10
-144.1475
 20
-46.3637
 30
0.0
 10
-143.7718
 20
-45.1605
 30
0.0
 10
-143.5412
 20
-43.9172
 30
0.0
 10
-143.4605
 20
-42.6593
 30
0.0
 10
-143.4605
 20
-42.6593
 30
0.0
 10
-143.4605
 20
-42.6593
 30
0.0
 10
-144.5401
 20
-42.6593
 30
0.0
 10
-144.5401
 20
-42.6593
 30
0.0
 10
-144.5401
 20
-42.6593
 30
0.0
 10
-144.9298
 20
-43.2278
 30
0.0
 10
-145.4277
 20
-43.7145
 30
0.0
 10
-146.0047
 20
-44.0914
 30
0.0
 10
-146.0047
 20
-44.0914
 30
0.0
 10
-147.2057
 20
-44.8759
 30
0.0
 10
-148.303
 20
-45.8077
 30
0.0
 10
-149.2713
 20
-46.8656
 30
0.0
 10
-149.2713
 20
-46.8656
 30
0.0
 10
-149.7554
 20
-47.3945
 30
0.0
 10
-150.3557
 20
-47.8042
 30
0.0
 10
-151.0247
 20
-48.0624
 30
0.0
 10
-151.0247
 20
-48.0624
 30
0.0
 10
-151.0247
 20
-48.0624
 30
0.0
 10
-151.0247
 20
-48.0624
 30
0.0
 10
-151.0247
 20
-48.0624
 30
0.0
  0
SPLINE
  5
4F
330
1F
100
AcDbEntity
  8
layer 1
 62
     7
100
AcDbSpline
210
0.0
220
0.0
230
1.0
 70
    11
 71
     3
 72
   172
 73
   168
 74
     0
 42
0.0000000001
 43
0.0000000001
 12
1.0
 22
0.0
 32
0.0
 13
1.0
 23
0.0
 33
0.0
 40
0.0
 40
0.0
 40
0.0
 40
0.0
 40
0.0232558139534884
 40
0.0232558139534884
 40
0.0232558139534884
 40
0.0232558139534884
 40
0.0465116279069767
 40
0.0465116279069767
 40
0.0465116279069767
 40
0.0465116279069767
 40
0.0697674418604651
 40
0.0697674418604651
 40
0.0697674418604651
 40
0.0697674418604651
 40
0.0930232558139535
 40
0.0930232558139535
 40
0.0930232558139535
 40
0.0930232558139535
 40
0.1162790697674419
 40
0.1162790697674419
 40
0.1162790697674419
 40
0.1162790697674419
 40
0.1395348837209302
 40
0.1395348837209302
 40
0.1395348837209302
 40
0.1395348837209302
 40
0.1627906976744186
 40
0.1627906976744186
 40
0.1627906976744186
 40
0.1627906976744186
 40
0.186046511627907
 40
0.186046511627907
 40
0.186046511627907
 40
0.186046511627907
 40
0.2093023255813954
 40
0.2093023255813954
 40
0.2093023255813954
 40
0.2093023255813954
 40
0.2325581395348837
 40
0.2325581395348837
 40
0.2325581395348837
 40
0.2325581395348837
 40
0.2558139534883721
 40
0.2558139534883721
 40
0.2558139534883721
 40
0.2558139534883721
 40
0.2790697674418605
 40
0.2790697674418605
 40
0.2790697674418605
 40
0.2790697674418605
 40
0.3023255813953488
 40
0.3023255813953488
 40
0.3023255813953488
 40
0.3023255813953488
 40
0.3255813953488372
 40
0.3255813953488372
 40
0.3255813953488372
 40
0.3255813953488372
 40
0.3488372093023256
 40
0.3488372093023256
 40
0.3488372093023256
 40
0.3488372093023256
 40
0.3720930232558139
 40
0.3720930232558139
 40
0.3720930232558139
 40
0.3720930232558139
 40
0.3953488372093023
 40
0.3953488372093023
 40
0.3953488372093023
 40
0.3953488372093023
 40
0.4186046511627907
 40
0.4186046511627907
 40
0.4186046511627907
 40
0.4186046511627907
 40
0.4418604651162791
 40
0.4418604651162791
 40
0.4418604651162791
 40
0.4418604651162791
 40
0.4651162790697674
 40
0.4651162790697674
 40
0.4651162790697674
 40
0.4651162790697674
 40
0.4883720930232558
 40
0.4883720930232558
 40
0.4883720930232558
 40
0.4883720930232558
 40
0.5116279069767442
 40
0.5116279069767442
 40
0.5116279069767442
 40
0.5116279069767442
 40
0.5348837209302325
 40
0.5348837209302325
 40
0.5348837209302325
 40
0.5348837209302325
 40
0.5581395348837209
 40
0.5581395348837209
 40
0.5581395348837209
 40
0.5581395348837209
 40
0.5813953488372093
 40
0.5813953488372093
 40
0.5813953488372093
 40
0.5813953488372093
 40
0.6046511627906976
 40
0.6046511627906976
 40
0.6046511627906976
 40
0.6046511627906976
 40
0.627906976744186
 40
0.627906976744186
 40
0.627906976744186
 40
0.627906976744186
 40
0.6511627906976745
 40
0.6511627906976745
 40
0.6511627906976745
 40
0.6511627906976745
 40
0.6744186046511628
 40
0.6744186046511628
 40
0.6744186046511628
 40
0.6744186046511628
 40
0.6976744186046512
 40
0.6976744186046512
 40
0.6976744186046512
 40
0.6976744186046512
 40
0.7209302325581395
 40
0.7209302325581395
 40
0.7209302325581395
 40
0.7209302325581395
 40
0.7441860465116279
 40
0.7441860465116279
 40
0.7441860465116279
 40
0.7441860465116279
 40
0.7674418604651163
 40
0.7674418604651163
 40
0.7674418604651163
 40
0.7674418604651163
 40
0.7906976744186046
 40
0.7906976744186046
 40
0.7906976744186046
 40
0.7906976744186046
 40
0.813953488372093
 40
0.813953488372093
 40
0.813953488372093
 40
0.813953488372093
 40
0.8372093023255814
 40
0.8372093023255814
 40
0.8372093023255814
 40
0.8372093023255814
 40
0.8604651162790697
 40
0.8604651162790697
 40
0.8604651162790697
 40
0.8604651162790697
 40
0.8837209302325582
 40
0.8837209302325582
 40
0.8837209302325582
 40
0.8837209302325582
 40
0.9069767441860465
 40
0.9069767441860465
 40
0.9069767441860465
 40
0.9069767441860465
 40
0.9302325581395349
 40
0.9302325581395349
 40
0.9302325581395349
 40
0.9302325581395349
 40
0.9534883720930233
 40
0.9534883720930233
 40
0.9534883720930233
 40
0.9534883720930233
 40
1.0
 40
1.0
 40
1.0
 40
1.0
 10
-135.5345
 20
14.2577
 30
0.0
 10
-135.1777
 20
14.4629
 30
0.0
 10
-134.8707
 20
14.7445
 30
0.0
 10
-134.6357
 20
15.0827
 30
0.0
 10
-134.6357
 20
15.0827
 30
0.0
 10
-134.1435
 20
15.7914
 30
0.0
 10
-133.5334
 20
16.4109
 30
0.0
 10
-132.8325
 20
16.9139
 30
0.0
 10
-132.8325
 20
16.9139
 30
0.0
 10
-132.1249
 20
17.4215
 30
0.0
 10
-131.4434
 20
17.9642
 30
0.0
 10
-130.7902
 20
18.5401
 30
0.0
 10
-130.7902
 20
18.5401
 30
0.0
 10
-130.3515
 20
18.9268
 30
0.0
 10
-129.8055
 20
19.1713
 30
0.0
 10
-129.2248
 20
19.2407
 30
0.0
 10
-129.2248
 20
19.2407
 30
0.0
 10
-128.6771
 20
19.3064
 30
0.0
 10
-128.1273
 20
19.3533
 30
0.0
 10
-127.5763
 20
19.3814
 30
0.0
 10
-127.5763
 20
19.3814
 30
0.0
 10
-127.0214
 20
19.4096
 30
0.0
 10
-126.4757
 20
19.533
 30
0.0
 10
-125.9626
 20
19.746
 30
0.0
 10
-125.9626
 20
19.746
 30
0.0
 10
-124.4367
 20
20.3799
 30
0.0
 10
-123.0003
 20
21.2098
 30
0.0
 10
-121.689
 20
22.2152
 30
0.0
 10
-121.689
 20
22.2152
 30
0.0
 10
-121.3013
 20
22.5127
 30
0.0
 10
-120.8677
 20
22.745
 30
0.0
 10
-120.4054
 20
22.9032
 30
0.0
 10
-120.4054
 20
22.9032
 30
0.0
 10
-120.4393
 20
24.8514
 30
0.0
 10
-120.6425
 20
26.7927
 30
0.0
 10
-121.0126
 20
28.7057
 30
0.0
 10
-121.0126
 20
28.7057
 30
0.0
 10
-121.7585
 20
32.5616
 30
0.0
 10
-122.8586
 20
36.3399
 30
0.0
 10
-124.2993
 20
39.9935
 30
0.0
 10
-124.2993
 20
39.9935
 30
0.0
 10
-125.0157
 20
41.8107
 30
0.0
 10
-125.8821
 20
43.5646
 30
0.0
 10
-126.8898
 20
45.2379
 30
0.0
 10
-126.8898
 20
45.2379
 30
0.0
 10
-127.9902
 20
45.4378
 30
0.0
 10
-129.125
 20
45.2212
 30
0.0
 10
-130.0742
 20
44.6297
 30
0.0
 10
-130.0742
 20
44.6297
 30
0.0
 10
-130.6855
 20
44.249
 30
0.0
 10
-131.3406
 20
43.9425
 30
0.0
 10
-132.0247
 20
43.7173
 30
0.0
 10
-132.0247
 20
43.7173
 30
0.0
 10
-132.7555
 20
43.4769
 30
0.0
 10
-133.476
 20
43.2057
 30
0.0
 10
-134.1843
 20
42.9047
 30
0.0
 10
-134.1843
 20
42.9047
 30
0.0
 10
-135.0995
 20
42.5156
 30
0.0
 10
-135.7739
 20
41.7142
 30
0.0
 10
-136.0
 20
40.7459
 30
0.0
 10
-136.0
 20
40.7459
 30
0.0
 10
-136.1621
 20
40.0515
 30
0.0
 10
-136.3176
 20
39.3554
 30
0.0
 10
-136.4661
 20
38.6578
 30
0.0
 10
-136.4661
 20
38.6578
 30
0.0
 10
-136.6326
 20
37.8787
 30
0.0
 10
-136.8314
 20
37.1069
 30
0.0
 10
-137.062
 20
36.3442
 30
0.0
 10
-137.062
 20
36.3442
 30
0.0
 10
-137.6766
 20
34.3107
 30
0.0
 10
-138.2849
 20
32.2752
 30
0.0
 10
-138.8869
 20
30.2378
 30
0.0
 10
-138.8869
 20
30.2378
 30
0.0
 10
-139.7128
 20
27.4462
 30
0.0
 10
-140.5702
 20
24.6641
 30
0.0
 10
-141.4588
 20
21.8918
 30
0.0
 10
-141.4588
 20
21.8918
 30
0.0
 10
-142.3473
 20
19.1198
 30
0.0
 10
-143.2265
 20
16.3446
 30
0.0
 10
-144.0966
 20
13.5666
 30
0.0
 10
-144.0966
 20
13.5666
 30
0.0
 10
-144.5314
 20
12.1818
 30
0.0
 10
-144.9752
 20
10.7995
 30
0.0
 10
-145.4278
 20
9.4203
 30
0.0
 10
-145.4278
 20
9.4203
 30
0.0
 10
-145.6593
 20
8.7388
 30
0.0
 10
-145.8858
 20
8.0556
 30
0.0
 10
-146.1073
 20
7.3711
 30
0.0
 10
-146.1073
 20
7.3711
 30
0.0
 10
-146.3296
 20
6.684
 30
0.0
 10
-146.4688
 20
5.9726
 30
0.0
 10
-146.5218
 20
5.2524
 30
0.0
 10
-146.5218
 20
5.2524
 30
0.0
 10
-146.1805
 20
4.5182
 30
0.0
 10
-145.8955
 20
3.7591
 30
0.0
 10
-145.669
 20
2.9819
 30
0.0
 10
-145.669
 20
2.9819
 30
0.0
 10
-145.0274
 20
0.78
 30
0.0
 10
-144.3794
 20
-1.4199
 30
0.0
 10
-143.7252
 20
-3.6182
 30
0.0
 10
-143.7252
 20
-3.6182
 30
0.0
 10
-143.1313
 20
-5.6133
 30
0.0
 10
-142.3644
 20
-7.5525
 30
0.0
 10
-141.4329
 20
-9.414
 30
0.0
 10
-141.4329
 20
-9.414
 30
0.0
 10
-140.6736
 20
-10.9316
 30
0.0
 10
-139.4084
 20
-12.1351
 30
0.0
 10
-137.8546
 20
-12.8171
 30
0.0
 10
-137.8546
 20
-12.8171
 30
0.0
 10
-136.7553
 20
-13.2996
 30
0.0
 10
-135.5854
 20
-13.6005
 30
0.0
 10
-134.3896
 20
-13.7081
 30
0.0
 10
-134.3896
 20
-13.7081
 30
0.0
 10
-132.5247
 20
-13.8756
 30
0.0
 10
-130.6478
 20
-13.8522
 30
0.0
 10
-128.7877
 20
-13.6383
 30
0.0
 10
-128.7877
 20
-13.6383
 30
0.0
 10
-127.2251
 20
-13.4586
 30
0.0
 10
-125.6747
 20
-13.1864
 30
0.0
 10
-124.1444
 20
-12.8233
 30
0.0
 10
-124.1444
 20
-12.8233
 30
0.0
 10
-122.6067
 20
-12.4583
 30
0.0
 10
-121.1328
 20
-11.8658
 30
0.0
 10
-119.7704
 20
-11.0649
 30
0.0
 10
-119.7704
 20
-11.0649
 30
0.0
 10
-118.516
 20
-10.3274
 30
0.0
 10
-117.3036
 20
-9.5209
 30
0.0
 10
-116.1386
 20
-8.6492
 30
0.0
 10
-116.1386
 20
-8.6492
 30
0.0
 10
-114.9733
 20
-7.7771
 30
0.0
 10
-113.7507
 20
-6.984
 30
0.0
 10
-112.4793
 20
-6.2752
 30
0.0
 10
-112.4793
 20
-6.2752
 30
0.0
 10
-112.3799
 20
-5.0461
 30
0.0
 10
-112.3854
 20
-3.8108
 30
0.0
 10
-112.4957
 20
-2.5827
 30
0.0
 10
-112.4957
 20
-2.5827
 30
0.0
 10
-112.88
 20
1.6944
 30
0.0
 10
-114.034
 20
5.8652
 30
0.0
 10
-115.9033
 20
9.7311
 30
0.0
 10
-115.9033
 20
9.7311
 30
0.0
 10
-116.7003
 20
11.3795
 30
0.0
 10
-117.731
 20
12.9038
 30
0.0
 10
-118.9637
 20
14.2577
 30
0.0
 10
-118.9637
 20
14.2577
 30
0.0
 10
-120.3581
 20
14.1796
 30
0.0
 10
-121.7445
 20
13.9979
 30
0.0
 10
-123.112
 20
13.714
 30
0.0
 10
-123.112
 20
13.714
 30
0.0
 10
-124.4786
 20
13.4303
 30
0.0
 10
-125.8598
 20
13.2222
 30
0.0
 10
-127.2491
 20
13.0908
 30
0.0
 10
-127.2491
 20
13.0908
 30
0.0
 10
-128.6404
 20
12.959
 30
0.0
 10
-130.0407
 20
12.9523
 30
0.0
 10
-131.4331
 20
13.0709
 30
0.0
 10
-131.4331
 20
13.0709
 30
0.0
 10
-132.827
 20
13.1895
 30
0.0
 10
-134.2033
 20
13.4668
 30
0.0
 10
-135.5345
 20
13.8973
 30
0.0
 10
-135.5345
 20
13.8973
 30
0.0
 10
-135.5345
 20
13.8973
 30
0.0
 10
-135.5345
 20
14.2577
 30
0.0
 10
-135.5345
 20
14.2577
 30
0.0
 10
-135.5345
 20
14.2577
 30
0.0
 10
-135.5345
 20
14.2577
 30
0.0
 10
-135.5345
 20
14.2577
 30
0.0
 10
-135.5345
 20
14.2577
 30
0.0
  0
SPLINE
  5
50
330
1F
100
AcDbEntity
  8
layer 1
 62
     7
100
AcDbSpline
210
0.0
220
0.0
230
1.0
 70
    11
 71
     3
 72
    96
 73
    92
 74
     0
 42
0.0000000001
 43
0.0000000001
 12
1.0
 22
0.0
 32
0.0
 13
1.0
 23
0.0
 33
0.0
 40
0.0
 40
0.0
 40
0.0
 40
0.0
 40
0.0416666666666667
 40
0.0416666666666667
 40
0.0416666666666667
 40
0.0416666666666667
 40
0.0833333333333333
 40
0.0833333333333333
 40
0.0833333333333333
 40
0.0833333333333333
 40
0.125
 40
0.125
 40
0.125
 40
0.125
 40
0.1666666666666667
 40
0.1666666666666667
 40
0.1666666666666667
 40
0.1666666666666667
 40
0.2083333333333333
 40
0.2083333333333333
 40
0.2083333333333333
 40
0.2083333333333333
 40
0.25
 40
0.25
 40
0.25
 40
0.25
 40
0.2916666666666667
 40
0.2916666666666667
 40
0.2916666666666667
 40
0.2916666666666667
 40
0.3333333333333333
 40
0.3333333333333333
 40
0.3333333333333333
 40
0.3333333333333333
 40
0.375
 40
0.375
 40
0.375
 40
0.375
 40
0.4166666666666667
 40
0.4166666666666667
 40
0.4166666666666667
 40
0.4166666666666667
 40
0.4583333333333333
 40
0.4583333333333333
 40
0.4583333333333333
 40
0.4583333333333333
 40
0.5
 40
0.5
 40
0.5
 40
0.5
 40
0.5416666666666666
 40
0.5416666666666666
 40
0.5416666666666666
 40
0.5416666666666666
 40
0.5833333333333334
 40
0.5833333333333334
 40
0.5833333333333334
 40
0.5833333333333334
 40
0.625
 40
0.625
 40
0.625
 40
0.625
 40
0.6666666666666666
 40
0.6666666666666666
 40
0.6666666666666666
 40
0.6666666666666666
 40
0.7083333333333334
 40
0.7083333333333334
 40
0.7083333333333334
 40
0.7083333333333334
 40
0.75
 40
0.75
 40
0.75
 40
0.75
 40
0.7916666666666666
 40
0.7916666666666666
 40
0.7916666666666666
 40
0.7916666666666666
 40
0.8333333333333334
 40
0.8333333333333334
 40
0.8333333333333334
 40
0.8333333333333334
 40
0.875
 40
0.875
 40
0.875
 40
0.875
 40
0.9166666666666666
 40
0.9166666666666666
 40
0.9166666666666666
 40
0.9166666666666666
 40
1.0
 40
1.0
 40
1.0
 40
1.0
 10
-143.2758
 20
-64.9996
 30
0.0
 10
-142.4542
 20
-66.8795
 30
0.0
 10
-141.6216
 20
-68.7543
 30
0.0
 10
-140.7784
 20
-70.6246
 30
0.0
 10
-140.7784
 20
-70.6246
 30
0.0
 10
-139.9353
 20
-72.495
 30
0.0
 10
-139.1095
 20
-74.3734
 30
0.0
 10
-138.3015
 20
-76.2593
 30
0.0
 10
-138.3015
 20
-76.2593
 30
0.0
 10
-137.5235
 20
-78.1578
 30
0.0
 10
-136.7614
 20
-80.0629
 30
0.0
 10
-136.0154
 20
-81.9742
 30
0.0
 10
-136.0154
 20
-81.9742
 30
0.0
 10
-135.2695
 20
-83.8852
 30
0.0
 10
-134.5091
 20
-85.7904
 30
0.0
 10
-133.7343
 20
-87.6896
 30
0.0
 10
-133.7343
 20
-87.6896
 30
0.0
 10
-132.7555
 20
-87.6355
 30
0.0
 10
-131.7751
 20
-87.6171
 30
0.0
 10
-130.7952
 20
-87.6344
 30
0.0
 10
-130.7952
 20
-87.6344
 30
0.0
 10
-129.8155
 20
-87.6516
 30
0.0
 10
-128.8357
 20
-87.6596
 30
0.0
 10
-127.8559
 20
-87.6586
 30
0.0
 10
-127.8559
 20
-87.6586
 30
0.0
 10
-127.0399
 20
-87.6406
 30
0.0
 10
-126.2239
 20
-87.6161
 30
0.0
 10
-125.4083
 20
-87.5852
 30
0.0
 10
-125.4083
 20
-87.5852
 30
0.0
 10
-124.5466
 20
-87.5527
 30
0.0
 10
-123.6844
 20
-87.5368
 30
0.0
 10
-122.8219
 20
-87.5375
 30
0.0
 10
-122.8219
 20
-87.5375
 30
0.0
 10
-121.6851
 20
-87.5433
 30
0.0
 10
-120.5484
 20
-87.5677
 30
0.0
 10
-119.4124
 20
-87.6109
 30
0.0
 10
-119.4124
 20
-87.6109
 30
0.0
 10
-117.8866
 20
-87.6686
 30
0.0
 10
-116.359
 20
-87.5813
 30
0.0
 10
-114.8497
 20
-87.35
 30
0.0
 10
-114.8497
 20
-87.35
 30
0.0
 10
-114.5585
 20
-87.3053
 30
0.0
 10
-114.2837
 20
-87.187
 30
0.0
 10
-114.0512
 20
-87.006
 30
0.0
 10
-114.0512
 20
-87.006
 30
0.0
 10
-113.5132
 20
-86.5867
 30
0.0
 10
-113.0236
 20
-86.109
 30
0.0
 10
-112.5914
 20
-85.5814
 30
0.0
 10
-112.5914
 20
-85.5814
 30
0.0
 10
-111.2455
 20
-83.8972
 30
0.0
 10
-109.9513
 20
-82.1727
 30
0.0
 10
-108.7104
 20
-80.4098
 30
0.0
 10
-108.7104
 20
-80.4098
 30
0.0
 10
-108.2074
 20
-79.6949
 30
0.0
 10
-107.705
 20
-78.9795
 30
0.0
 10
-107.2037
 20
-78.2634
 30
0.0
 10
-107.2037
 20
-78.2634
 30
0.0
 10
-106.7022
 20
-77.547
 30
0.0
 10
-106.1792
 20
-76.8461
 30
0.0
 10
-105.6354
 20
-76.1615
 30
0.0
 10
-105.6354
 20
-76.1615
 30
0.0
 10
-106.1602
 20
-74.2407
 30
0.0
 10
-106.9692
 20
-72.4096
 30
0.0
 10
-108.0358
 20
-70.7279
 30
0.0
 10
-108.0358
 20
-70.7279
 30
0.0
 10
-109.9557
 20
-67.7009
 30
0.0
 10
-112.126
 20
-64.8407
 30
0.0
 10
-114.5244
 20
-62.1767
 30
0.0
 10
-114.5244
 20
-62.1767
 30
0.0
 10
-117.0443
 20
-59.378
 30
0.0
 10
-120.092
 20
-57.1066
 30
0.0
 10
-123.4946
 20
-55.4926
 30
0.0
 10
-123.4946
 20
-55.4926
 30
0.0
 10
-126.8703
 20
-53.8912
 30
0.0
 10
-130.3795
 20
-52.5896
 30
0.0
 10
-133.983
 20
-51.6024
 30
0.0
 10
-133.983
 20
-51.6024
 30
0.0
 10
-135.7893
 20
-51.1075
 30
0.0
 10
-137.6341
 20
-50.7672
 30
0.0
 10
-139.498
 20
-50.5849
 30
0.0
 10
-139.498
 20
-50.5849
 30
0.0
 10
-140.798
 20
-52.7447
 30
0.0
 10
-141.7637
 20
-55.0878
 30
0.0
 10
-142.3628
 20
-57.5366
 30
0.0
 10
-142.3628
 20
-57.5366
 30
0.0
 10
-142.9606
 20
-59.9796
 30
0.0
 10
-143.2671
 20
-62.4844
 30
0.0
 10
-143.2758
 20
-64.9995
 30
0.0
 10
-143.2758
 20
-64.9995
 30
0.0
 10
-143.2758
 20
-64.9995
 30
0.0
 10
-143.2758
 20
-64.9996
 30
0.0
 10
-143.2758
 20
-64.9996
 30
0.0
  0
SPLINE
  5
51
330
1F
100
AcDbEntity
  8
layer 1
 62
     7
100
AcDbSpline
210
0.0
220
0.0
230
1.0
 70
    11
 71
     3
 72
    56
 73
    52
 74
     0
 42
0.0000000001
 43
0.0000000001
 12
1.0
 22
0.0
 32
0.0
 13
1.0
 23
0.0
 33
0.0
 40
0.0
 40
0.0
 40
0.0
 40
0.0
 40
0.0714285714285714
 40
0.0714285714285714
 40
0.0714285714285714
 40
0.0714285714285714
 40
0.1428571428571428
 40
0.1428571428571428
 40
0.1428571428571428
 40
0.1428571428571428
 40
0.2142857142857143
 40
0.2142857142857143
 40
0.2142857142857143
 40
0.2142857142857143
 40
0.2857142857142857
 40
0.2857142857142857
 40
0.2857142857142857
 40
0.2857142857142857
 40
0.3571428571428572
 40
0.3571428571428572
 40
0.3571428571428572
 40
0.3571428571428572
 40
0.4285714285714285
 40
0.4285714285714285
 40
0.4285714285714285
 40
0.4285714285714285
 40
0.5
 40
0.5
 40
0.5
 40
0.5
 40
0.5714285714285714
 40
0.5714285714285714
 40
0.5714285714285714
 40
0.5714285714285714
 40
0.6428571428571429
 40
0.6428571428571429
 40
0.6428571428571429
 40
0.6428571428571429
 40
0.7142857142857143
 40
0.7142857142857143
 40
0.7142857142857143
 40
0.7142857142857143
 40
0.7857142857142857
 40
0.7857142857142857
 40
0.7857142857142857
 40
0.7857142857142857
 40
0.8571428571428571
 40
0.8571428571428571
 40
0.8571428571428571
 40
0.8571428571428571
 40
1.0
 40
1.0
 40
1.0
 40
1.0
 10
-132.6531
 20
79.4612
 30
0.0
 10
-132.6531
 20
79.4612
 30
0.0
 10
-135.8953
 20
79.4612
 30
0.0
 10
-135.8953
 20
79.4612
 30
0.0
 10
-135.8953
 20
79.4612
 30
0.0
 10
-136.0771
 20
79.0678
 30
0.0
 10
-136.345
 20
78.72
 30
0.0
 10
-136.679
 20
78.4436
 30
0.0
 10
-136.679
 20
78.4436
 30
0.0
 10
-137.0089
 20
78.1708
 30
0.0
 10
-137.348
 20
77.9092
 30
0.0
 10
-137.6958
 20
77.6594
 30
0.0
 10
-137.6958
 20
77.6594
 30
0.0
 10
-137.6958
 20
77.6594
 30
0.0
 10
-137.6958
 20
76.5788
 30
0.0
 10
-137.6958
 20
76.5788
 30
0.0
 10
-137.6958
 20
76.5788
 30
0.0
 10
-137.3223
 20
76.3281
 30
0.0
 10
-137.0043
 20
76.0031
 30
0.0
 10
-136.7617
 20
75.6241
 30
0.0
 10
-136.7617
 20
75.6241
 30
0.0
 10
-136.2712
 20
74.8578
 30
0.0
 10
-135.7278
 20
74.1269
 30
0.0
 10
-135.1353
 20
73.4363
 30
0.0
 10
-135.1353
 20
73.4363
 30
0.0
 10
-134.8372
 20
73.0886
 30
0.0
 10
-134.606
 20
72.6887
 30
0.0
 10
-134.4539
 20
72.2566
 30
0.0
 10
-134.4539
 20
72.2566
 30
0.0
 10
-134.4539
 20
72.2566
 30
0.0
 10
-133.3742
 20
72.2566
 30
0.0
 10
-133.3742
 20
72.2566
 30
0.0
 10
-133.3742
 20
72.2566
 30
0.0
 10
-133.0637
 20
73.3719
 30
0.0
 10
-132.8281
 20
74.5064
 30
0.0
 10
-132.6692
 20
75.6528
 30
0.0
 10
-132.6692
 20
75.6528
 30
0.0
 10
-132.5104
 20
76.7984
 30
0.0
 10
-132.3848
 20
77.9483
 30
0.0
 10
-132.2926
 20
79.1011
 30
0.0
 10
-132.2926
 20
79.1011
 30
0.0
 10
-132.3529
 20
79.1607
 30
0.0
 10
-132.4129
 20
79.2206
 30
0.0
 10
-132.4728
 20
79.2807
 30
0.0
 10
-132.4728
 20
79.2807
 30
0.0
 10
-132.533
 20
79.3409
 30
0.0
 10
-132.5929
 20
79.401
 30
0.0
 10
-132.6531
 20
79.4612
 30
0.0
 10
-132.6531
 20
79.4612
 30
0.0
 10
-132.6531
 20
79.4612
 30
0.0
 10
-132.6531
 20
79.4612
 30
0.0
 10
-132.6531
 20
79.4612
 30
0.0
  0
SPLINE
  5
52
330
1F
100
AcDbEntity
  8
layer 1
 62
     7
100
AcDbSpline
210
0.0
220
0.0
230
1.0
 70
    11
 71
     3
 72
    48
 73
    44
 74
     0
 42
0.0000000001
 43
0.0000000001
 12
1.0
 22
0.0
 32
0.0
 13
1.0
 23
0.0
 33
0.0
 40
0.0
 40
0.0
 40
0.0
 40
0.0
 40
0.0833333333333333
 40
0.0833333333333333
 40
0.0833333333333333
 40
0.0833333333333333
 40
0.1666666666666667
 40
0.1666666666666667
 40
0.1666666666666667
 40
0.1666666666666667
 40
0.25
 40
0.25
 40
0.25
 40
0.25
 40
0.3333333333333333
 40
0.3333333333333333
 40
0.3333333333333333
 40
0.3333333333333333
 40
0.4166666666666667
 40
0.4166666666666667
 40
0.4166666666666667
 40
0.4166666666666667
 40
0.5
 40
0.5
 40
0.5
 40
0.5
 40
0.5833333333333334
 40
0.5833333333333334
 40
0.5833333333333334
 40
0.5833333333333334
 40
0.6666666666666666
 40
0.6666666666666666
 40
0.6666666666666666
 40
0.6666666666666666
 40
0.75
 40
0.75
 40
0.75
 40
0.75
 40
0.8333333333333334
 40
0.8333333333333334
 40
0.8333333333333334
 40
0.8333333333333334
 40
1.0
 40
1.0
 40
1.0
 40
1.0
 10
-121.8455
 20
-20.6854
 30
0.0
 10
-123.0106
 20
-21.88
 30
0.0
 10
-124.1009
 20
-23.1449
 30
0.0
 10
-125.1106
 20
-24.4734
 30
0.0
 10
-125.1106
 20
-24.4734
 30
0.0
 10
-127.8001
 20
-28.012
 30
0.0
 10
-130.2703
 20
-31.7114
 30
0.0
 10
-132.5081
 20
-35.5519
 30
0.0
 10
-132.5081
 20
-35.5519
 30
0.0
 10
-133.5399
 20
-37.3228
 30
0.0
 10
-134.3161
 20
-39.2303
 30
0.0
 10
-134.8138
 20
-41.2185
 30
0.0
 10
-134.8138
 20
-41.2185
 30
0.0
 10
-133.5254
 20
-42.0322
 30
0.0
 10
-132.1938
 20
-42.7752
 30
0.0
 10
-130.8245
 20
-43.4442
 30
0.0
 10
-130.8245
 20
-43.4442
 30
0.0
 10
-127.5331
 20
-45.0524
 30
0.0
 10
-124.1663
 20
-46.5009
 30
0.0
 10
-120.7353
 20
-47.7849
 30
0.0
 10
-120.7353
 20
-47.7849
 30
0.0
 10
-119.1099
 20
-48.3933
 30
0.0
 10
-117.4315
 20
-48.8483
 30
0.0
 10
-115.7213
 20
-49.1438
 30
0.0
 10
-115.7213
 20
-49.1438
 30
0.0
 10
-116.1687
 20
-44.3407
 30
0.0
 10
-116.8488
 20
-39.5624
 30
0.0
 10
-117.7587
 20
-34.825
 30
0.0
 10
-117.7587
 20
-34.825
 30
0.0
 10
-118.2577
 20
-32.4672
 30
0.0
 10
-118.7724
 20
-30.1127
 30
0.0
 10
-119.3026
 20
-27.7617
 30
0.0
 10
-119.3026
 20
-27.7617
 30
0.0
 10
-119.8325
 20
-25.4118
 30
0.0
 10
-120.3204
 20
-23.0527
 30
0.0
 10
-120.7658
 20
-20.6854
 30
0.0
 10
-120.7658
 20
-20.6854
 30
0.0
 10
-120.7658
 20
-20.6854
 30
0.0
 10
-121.8455
 20
-20.6854
 30
0.0
 10
-121.8455
 20
-20.6854
 30
0.0
 10
-121.8455
 20
-20.6854
 30
0.0
 10
-121.8455
 20
-20.6854
 30
0.0
 10
-121.8455
 20
-20.6854
 30
0.0
 10
-121.8455
 20
-20.6854
 30
0.0
  0
SPLINE
  5
53
330
1F
100
AcDbEntity
  8
layer 1
 62
     7
100
AcDbSpline
210
0.0
220
0.0
230
1.0
 70
    11
 71
     3
 72
    64
 73
    60
 74
     0
 42
0.0000000001
 43
0.0000000001
 12
1.0
 22
0.0
 32
0.0
 13
1.0
 23
0.0
 33
0.0
 40
0.0
 40
0.0
 40
0.0
 40
0.0
 40
0.0625
 40
0.0625
 40
0.0625
 40
0.0625
 40
0.125
 40
0.125
 40
0.125
 40
0.125
 40
0.1875
 40
0.1875
 40
0.1875
 40
0.1875
 40
0.25
 40
0.25
 40
0.25
 40
0.25
 40
0.3125
 40
0.3125
 40
0.3125
 40
0.3125
 40
0.375
 40
0.375
 40
0.375
 40
0.375
 40
0.4375
 40
0.4375
 40
0.4375
 40
0.4375
 40
0.5
 40
0.5
 40
0.5
 40
0.5
 40
0.5625
 40
0.5625
 40
0.5625
 40
0.5625
 40
0.625
 40
0.625
 40
0.625
 40
0.625
 40
0.6875
 40
0.6875
 40
0.6875
 40
0.6875
 40
0.75
 40
0.75
 40
0.75
 40
0.75
 40
0.8125
 40
0.8125
 40
0.8125
 40
0.8125
 40
0.875
 40
0.875
 40
0.875
 40
0.875
 40
1.0
 40
1.0
 40
1.0
 40
1.0
 10
-115.7213
 20
80.5411
 30
0.0
 10
-115.7213
 20
80.5411
 30
0.0
 10
-115.7213
 20
81.6223
 30
0.0
 10
-115.7213
 20
81.6223
 30
0.0
 10
-115.7213
 20
81.6223
 30
0.0
 10
-115.7213
 20
81.6223
 30
0.0
 10
-116.7897
 20
81.8005
 30
0.0
 10
-116.7897
 20
81.8005
 30
0.0
 10
-116.7897
 20
81.8005
 30
0.0
 10
-116.7897
 20
81.8005
 30
0.0
 10
-126.5294
 20
81.9829
 30
0.0
 10
-126.5294
 20
81.9829
 30
0.0
 10
-126.5294
 20
81.9829
 30
0.0
 10
-126.5356
 20
80.1144
 30
0.0
 10
-126.77
 20
78.2532
 30
0.0
 10
-127.2272
 20
76.4414
 30
0.0
 10
-127.2272
 20
76.4414
 30
0.0
 10
-127.7991
 20
74.1753
 30
0.0
 10
-128.2779
 20
71.887
 30
0.0
 10
-128.6624
 20
69.5816
 30
0.0
 10
-128.6624
 20
69.5816
 30
0.0
 10
-128.8926
 20
68.201
 30
0.0
 10
-128.9613
 20
66.7986
 30
0.0
 10
-128.8672
 20
65.402
 30
0.0
 10
-128.8672
 20
65.402
 30
0.0
 10
-128.6489
 20
64.5395
 30
0.0
 10
-128.4204
 20
63.6797
 30
0.0
 10
-128.1812
 20
62.8227
 30
0.0
 10
-128.1812
 20
62.8227
 30
0.0
 10
-127.9419
 20
61.9658
 30
0.0
 10
-127.6791
 20
61.1153
 30
0.0
 10
-127.393
 20
60.2729
 30
0.0
 10
-127.393
 20
60.2729
 30
0.0
 10
-127.2977
 20
59.992
 30
0.0
 10
-127.2065
 20
59.7097
 30
0.0
 10
-127.1196
 20
59.4262
 30
0.0
 10
-127.1196
 20
59.4262
 30
0.0
 10
-127.0329
 20
59.1425
 30
0.0
 10
-126.956
 20
58.8558
 30
0.0
 10
-126.8898
 20
58.5668
 30
0.0
 10
-126.8898
 20
58.5668
 30
0.0
 10
-126.8898
 20
58.5668
 30
0.0
 10
-125.4478
 20
58.5668
 30
0.0
 10
-125.4478
 20
58.5668
 30
0.0
 10
-125.4478
 20
58.5668
 30
0.0
 10
-124.4554
 20
60.3232
 30
0.0
 10
-123.676
 20
62.1911
 30
0.0
 10
-123.1259
 20
64.1322
 30
0.0
 10
-123.1259
 20
64.1322
 30
0.0
 10
-122.5776
 20
66.0665
 30
0.0
 10
-121.9628
 20
67.9816
 30
0.0
 10
-121.2826
 20
69.8737
 30
0.0
 10
-121.2826
 20
69.8737
 30
0.0
 10
-119.8923
 20
73.6522
 30
0.0
 10
-118.0229
 20
77.2377
 30
0.0
 10
-115.7213
 20
80.5411
 30
0.0
 10
-115.7213
 20
80.5411
 30
0.0
 10
-115.7213
 20
80.5411
 30
0.0
 10
-115.7213
 20
80.5411
 30
0.0
 10
-115.7213
 20
80.5411
 30
0.0
  0
SPLINE
  5
54
330
1F
100
AcDbEntity
  8
layer 1
 62
     7
100
AcDbSpline
210
0.0
220
0.0
230
1.0
 70
    11
 71
     3
 72
   128
 73
   124
 74
     0
 42
0.0000000001
 43
0.0000000001
 12
1.0
 22
0.0
 32
0.0
 13
1.0
 23
0.0
 33
0.0
 40
0.0
 40
0.0
 40
0.0
 40
0.0
 40
0.03125
 40
0.03125
 40
0.03125
 40
0.03125
 40
0.0625
 40
0.0625
 40
0.0625
 40
0.0625
 40
0.09375
 40
0.09375
 40
0.09375
 40
0.09375
 40
0.125
 40
0.125
 40
0.125
 40
0.125
 40
0.15625
 40
0.15625
 40
0.15625
 40
0.15625
 40
0.1875
 40
0.1875
 40
0.1875
 40
0.1875
 40
0.21875
 40
0.21875
 40
0.21875
 40
0.21875
 40
0.25
 40
0.25
 40
0.25
 40
0.25
 40
0.28125
 40
0.28125
 40
0.28125
 40
0.28125
 40
0.3125
 40
0.3125
 40
0.3125
 40
0.3125
 40
0.34375
 40
0.34375
 40
0.34375
 40
0.34375
 40
0.375
 40
0.375
 40
0.375
 40
0.375
 40
0.40625
 40
0.40625
 40
0.40625
 40
0.40625
 40
0.4375
 40
0.4375
 40
0.4375
 40
0.4375
 40
0.46875
 40
0.46875
 40
0.46875
 40
0.46875
 40
0.5
 40
0.5
 40
0.5
 40
0.5
 40
0.53125
 40
0.53125
 40
0.53125
 40
0.53125
 40
0.5625
 40
0.5625
 40
0.5625
 40
0.5625
 40
0.59375
 40
0.59375
 40
0.59375
 40
0.59375
 40
0.625
 40
0.625
 40
0.625
 40
0.625
 40
0.65625
 40
0.65625
 40
0.65625
 40
0.65625
 40
0.6875
 40
0.6875
 40
0.6875
 40
0.6875
 40
0.71875
 40
0.71875
 40
0.71875
 40
0.71875
 40
0.75
 40
0.75
 40
0.75
 40
0.75
 40
0.78125
 40
0.78125
 40
0.78125
 40
0.78125
 40
0.8125
 40
0.8125
 40
0.8125
 40
0.8125
 40
0.84375
 40
0.84375
 40
0.84375
 40
0.84375
 40
0.875
 40
0.875
 40
0.875
 40
0.875
 40
0.90625
 40
0.90625
 40
0.90625
 40
0.90625
 40
0.9375
 40
0.9375
 40
0.9375
 40
0.9375
 40
1.0
 40
1.0
 40
1.0
 40
1.0
 10
-107.0761
 20
40.1954
 30
0.0
 10
-107.0761
 20
40.1954
 30
0.0
 10
-105.995
 20
40.1954
 30
0.0
 10
-105.995
 20
40.1954
 30
0.0
 10
-105.995
 20
40.1954
 30
0.0
 10
-105.4242
 20
42.2937
 30
0.0
 10
-105.0556
 20
44.4414
 30
0.0
 10
-104.8939
 20
46.6101
 30
0.0
 10
-104.8939
 20
46.6101
 30
0.0
 10
-104.7326
 20
48.7742
 30
0.0
 10
-104.6427
 20
50.9429
 30
0.0
 10
-104.6244
 20
53.113
 30
0.0
 10
-104.6244
 20
53.113
 30
0.0
 10
-104.6122
 20
54.571
 30
0.0
 10
-104.589
 20
56.0288
 30
0.0
 10
-104.5551
 20
57.4865
 30
0.0
 10
-104.5551
 20
57.4865
 30
0.0
 10
-104.6749
 20
57.6066
 30
0.0
 10
-104.7948
 20
57.7265
 30
0.0
 10
-104.9152
 20
57.8463
 30
0.0
 10
-104.9152
 20
57.8463
 30
0.0
 10
-105.6345
 20
57.9417
 30
0.0
 10
-106.3611
 20
57.9704
 30
0.0
 10
-107.0856
 20
57.932
 30
0.0
 10
-107.0856
 20
57.932
 30
0.0
 10
-107.8103
 20
57.8933
 30
0.0
 10
-108.5372
 20
57.924
 30
0.0
 10
-109.2559
 20
58.0238
 30
0.0
 10
-109.2559
 20
58.0238
 30
0.0
 10
-110.2341
 20
58.1597
 30
0.0
 10
-111.1265
 20
58.6573
 30
0.0
 10
-111.7565
 20
59.4178
 30
0.0
 10
-111.7565
 20
59.4178
 30
0.0
 10
-112.3662
 20
60.1538
 30
0.0
 10
-113.0299
 20
60.843
 30
0.0
 10
-113.7425
 20
61.4799
 30
0.0
 10
-113.7425
 20
61.4799
 30
0.0
 10
-114.104
 20
61.8029
 30
0.0
 10
-114.5347
 20
62.0388
 30
0.0
 10
-115.0017
 20
62.1697
 30
0.0
 10
-115.0017
 20
62.1697
 30
0.0
 10
-115.0017
 20
62.1697
 30
0.0
 10
-115.0017
 20
62.8904
 30
0.0
 10
-115.0017
 20
62.8904
 30
0.0
 10
-115.0017
 20
62.8904
 30
0.0
 10
-112.7547
 20
63.9783
 30
0.0
 10
-110.2785
 20
64.5117
 30
0.0
 10
-107.7829
 20
64.4464
 30
0.0
 10
-107.7829
 20
64.4464
 30
0.0
 10
-106.5818
 20
64.415
 30
0.0
 10
-105.3804
 20
64.4967
 30
0.0
 10
-104.1945
 20
64.6908
 30
0.0
 10
-104.1945
 20
64.6908
 30
0.0
 10
-104.1645
 20
66.3452
 30
0.0
 10
-104.2289
 20
68.0
 30
0.0
 10
-104.3877
 20
69.647
 30
0.0
 10
-104.3877
 20
69.647
 30
0.0
 10
-104.5464
 20
71.2931
 30
0.0
 10
-104.653
 20
72.9439
 30
0.0
 10
-104.7075
 20
74.5966
 30
0.0
 10
-104.7075
 20
74.5966
 30
0.0
 10
-104.7616
 20
76.2479
 30
0.0
 10
-104.7662
 20
77.9006
 30
0.0
 10
-104.7214
 20
79.5522
 30
0.0
 10
-104.7214
 20
79.5522
 30
0.0
 10
-104.6765
 20
81.2053
 30
0.0
 10
-104.7413
 20
82.8595
 30
0.0
 10
-104.9152
 20
84.5041
 30
0.0
 10
-104.9152
 20
84.5041
 30
0.0
 10
-104.9152
 20
84.5041
 30
0.0
 10
-107.0761
 20
84.5041
 30
0.0
 10
-107.0761
 20
84.5041
 30
0.0
 10
-107.0761
 20
84.5041
 30
0.0
 10
-107.9314
 20
83.3714
 30
0.0
 10
-108.6651
 20
82.152
 30
0.0
 10
-109.2654
 20
80.8658
 30
0.0
 10
-109.2654
 20
80.8658
 30
0.0
 10
-109.8637
 20
79.5833
 30
0.0
 10
-110.451
 20
78.2954
 30
0.0
 10
-111.0266
 20
77.0025
 30
0.0
 10
-111.0266
 20
77.0025
 30
0.0
 10
-112.9112
 20
72.8945
 30
0.0
 10
-114.8384
 20
68.8062
 30
0.0
 10
-116.8079
 20
64.7381
 30
0.0
 10
-116.8079
 20
64.7381
 30
0.0
 10
-117.3018
 20
63.718
 30
0.0
 10
-117.8149
 20
62.7071
 30
0.0
 10
-118.3467
 20
61.706
 30
0.0
 10
-118.3467
 20
61.706
 30
0.0
 10
-119.0067
 20
60.4656
 30
0.0
 10
-119.647
 20
59.2146
 30
0.0
 10
-120.2672
 20
57.9539
 30
0.0
 10
-120.2672
 20
57.9539
 30
0.0
 10
-120.8945
 20
56.6787
 30
0.0
 10
-121.2436
 20
55.2853
 30
0.0
 10
-121.2916
 20
53.8651
 30
0.0
 10
-121.2916
 20
53.8651
 30
0.0
 10
-120.9969
 20
52.8155
 30
0.0
 10
-120.601
 20
51.7971
 30
0.0
 10
-120.1098
 20
50.824
 30
0.0
 10
-120.1098
 20
50.824
 30
0.0
 10
-119.3242
 20
49.2686
 30
0.0
 10
-118.0436
 20
48.0201
 30
0.0
 10
-116.4685
 20
47.2751
 30
0.0
 10
-116.4685
 20
47.2751
 30
0.0
 10
-115.442
 20
46.7895
 30
0.0
 10
-114.4065
 20
46.3237
 30
0.0
 10
-113.3623
 20
45.8776
 30
0.0
 10
-113.3623
 20
45.8776
 30
0.0
 10
-112.3087
 20
45.4276
 30
0.0
 10
-111.3516
 20
44.7779
 30
0.0
 10
-110.5445
 20
43.9646
 30
0.0
 10
-110.5445
 20
43.9646
 30
0.0
 10
-109.9426
 20
43.3584
 30
0.0
 10
-109.3707
 20
42.7232
 30
0.0
 10
-108.8304
 20
42.0613
 30
0.0
 10
-108.8304
 20
42.0613
 30
0.0
 10
-108.2899
 20
41.3989
 30
0.0
 10
-107.7037
 20
40.7756
 30
0.0
 10
-107.0761
 20
40.1954
 30
0.0
 10
-107.0761
 20
40.1954
 30
0.0
 10
-107.0761
 20
40.1954
 30
0.0
 10
-107.0761
 20
40.1954
 30
0.0
 10
-107.0761
 20
40.1954
 30
0.0
  0
SPLINE
  5
55
330
1F
100
AcDbEntity
  8
layer 1
 62
     7
100
AcDbSpline
210
0.0
220
0.0
230
1.0
 70
    11
 71
     3
 72
    56
 73
    52
 74
     0
 42
0.0000000001
 43
0.0000000001
 12
1.0
 22
0.0
 32
0.0
 13
1.0
 23
0.0
 33
0.0
 40
0.0
 40
0.0
 40
0.0
 40
0.0
 40
0.0714285714285714
 40
0.0714285714285714
 40
0.0714285714285714
 40
0.0714285714285714
 40
0.1428571428571428
 40
0.1428571428571428
 40
0.1428571428571428
 40
0.1428571428571428
 40
0.2142857142857143
 40
0.2142857142857143
 40
0.2142857142857143
 40
0.2142857142857143
 40
0.2857142857142857
 40
0.2857142857142857
 40
0.2857142857142857
 40
0.2857142857142857
 40
0.3571428571428572
 40
0.3571428571428572
 40
0.3571428571428572
 40
0.3571428571428572
 40
0.4285714285714285
 40
0.4285714285714285
 40
0.4285714285714285
 40
0.4285714285714285
 40
0.5
 40
0.5
 40
0.5
 40
0.5
 40
0.5714285714285714
 40
0.5714285714285714
 40
0.5714285714285714
 40
0.5714285714285714
 40
0.6428571428571429
 40
0.6428571428571429
 40
0.6428571428571429
 40
0.6428571428571429
 40
0.7142857142857143
 40
0.7142857142857143
 40
0.7142857142857143
 40
0.7142857142857143
 40
0.7857142857142857
 40
0.7857142857142857
 40
0.7857142857142857
 40
0.7857142857142857
 40
0.8571428571428571
 40
0.8571428571428571
 40
0.8571428571428571
 40
0.8571428571428571
 40
1.0
 40
1.0
 40
1.0
 40
1.0
 10
-112.8395
 20
109.7206
 30
0.0
 10
-113.1657
 20
108.5177
 30
0.0
 10
-113.5451
 20
107.3301
 30
0.0
 10
-113.9768
 20
106.161
 30
0.0
 10
-113.9768
 20
106.161
 30
0.0
 10
-115.2018
 20
102.8437
 30
0.0
 10
-116.5998
 20
99.5925
 30
0.0
 10
-118.165
 20
96.4214
 30
0.0
 10
-118.165
 20
96.4214
 30
0.0
 10
-118.8704
 20
94.9925
 30
0.0
 10
-119.7436
 20
93.6521
 30
0.0
 10
-120.7658
 20
92.4294
 30
0.0
 10
-120.7658
 20
92.4294
 30
0.0
 10
-120.7658
 20
92.4294
 30
0.0
 10
-120.7658
 20
91.3491
 30
0.0
 10
-120.7658
 20
91.3491
 30
0.0
 10
-120.7658
 20
91.3491
 30
0.0
 10
-119.656
 20
91.3934
 30
0.0
 10
-118.5547
 20
91.5581
 30
0.0
 10
-117.4808
 20
91.8406
 30
0.0
 10
-117.4808
 20
91.8406
 30
0.0
 10
-116.4099
 20
92.1223
 30
0.0
 10
-115.3374
 20
92.3975
 30
0.0
 10
-114.2634
 20
92.6664
 30
0.0
 10
-114.2634
 20
92.6664
 30
0.0
 10
-113.1819
 20
92.9195
 30
0.0
 10
-112.0995
 20
93.1682
 30
0.0
 10
-111.016
 20
93.4127
 30
0.0
 10
-111.016
 20
93.4127
 30
0.0
 10
-109.936
 20
93.6565
 30
0.0
 10
-108.8628
 20
93.9291
 30
0.0
 10
-107.7974
 20
94.2308
 30
0.0
 10
-107.7974
 20
94.2308
 30
0.0
 10
-107.9026
 20
95.9852
 30
0.0
 10
-108.1941
 20
97.723
 30
0.0
 10
-108.6671
 20
99.4159
 30
0.0
 10
-108.6671
 20
99.4159
 30
0.0
 10
-109.2723
 20
101.5808
 30
0.0
 10
-109.9296
 20
103.7308
 30
0.0
 10
-110.6386
 20
105.8642
 30
0.0
 10
-110.6386
 20
105.8642
 30
0.0
 10
-111.0609
 20
107.135
 30
0.0
 10
-111.435
 20
108.4213
 30
0.0
 10
-111.7597
 20
109.7206
 30
0.0
 10
-111.7597
 20
109.7206
 30
0.0
 10
-111.7597
 20
109.7206
 30
0.0
 10
-112.8395
 20
109.7206
 30
0.0
 10
-112.8395
 20
109.7206
 30
0.0
 10
-112.8395
 20
109.7206
 30
0.0
 10
-112.8395
 20
109.7206
 30
0.0
 10
-112.8395
 20
109.7206
 30
0.0
 10
-112.8395
 20
109.7206
 30
0.0
  0
SPLINE
  5
56
330
1F
100
AcDbEntity
  8
layer 1
 62
     7
100
AcDbSpline
210
0.0
220
0.0
230
1.0
 70
    11
 71
     3
 72
    68
 73
    64
 74
     0
 42
0.0000000001
 43
0.0000000001
 12
1.0
 22
0.0
 32
0.0
 13
1.0
 23
0.0
 33
0.0
 40
0.0
 40
0.0
 40
0.0
 40
0.0
 40
0.0588235294117647
 40
0.0588235294117647
 40
0.0588235294117647
 40
0.0588235294117647
 40
0.1176470588235294
 40
0.1176470588235294
 40
0.1176470588235294
 40
0.1176470588235294
 40
0.1764705882352941
 40
0.1764705882352941
 40
0.1764705882352941
 40
0.1764705882352941
 40
0.2352941176470588
 40
0.2352941176470588
 40
0.2352941176470588
 40
0.2352941176470588
 40
0.2941176470588235
 40
0.2941176470588235
 40
0.2941176470588235
 40
0.2941176470588235
 40
0.3529411764705883
 40
0.3529411764705883
 40
0.3529411764705883
 40
0.3529411764705883
 40
0.4117647058823529
 40
0.4117647058823529
 40
0.4117647058823529
 40
0.4117647058823529
 40
0.4705882352941176
 40
0.4705882352941176
 40
0.4705882352941176
 40
0.4705882352941176
 40
0.5294117647058824
 40
0.5294117647058824
 40
0.5294117647058824
 40
0.5294117647058824
 40
0.5882352941176471
 40
0.5882352941176471
 40
0.5882352941176471
 40
0.5882352941176471
 40
0.6470588235294118
 40
0.6470588235294118
 40
0.6470588235294118
 40
0.6470588235294118
 40
0.7058823529411765
 40
0.7058823529411765
 40
0.7058823529411765
 40
0.7058823529411765
 40
0.7647058823529411
 40
0.7647058823529411
 40
0.7647058823529411
 40
0.7647058823529411
 40
0.8235294117647058
 40
0.8235294117647058
 40
0.8235294117647058
 40
0.8235294117647058
 40
0.8823529411764706
 40
0.8823529411764706
 40
0.8823529411764706
 40
0.8823529411764706
 40
1.0
 40
1.0
 40
1.0
 40
1.0
 10
-115.3614
 20
37.6738
 30
0.0
 10
-115.3614
 20
37.6738
 30
0.0
 10
-116.8026
 20
37.6738
 30
0.0
 10
-116.8026
 20
37.6738
 30
0.0
 10
-116.8026
 20
37.6738
 30
0.0
 10
-116.8026
 20
37.6738
 30
0.0
 10
-116.8026
 20
36.5925
 30
0.0
 10
-116.8026
 20
36.5925
 30
0.0
 10
-116.8026
 20
36.5925
 30
0.0
 10
-113.8756
 20
30.4717
 30
0.0
 10
-111.5194
 20
24.0927
 30
0.0
 10
-109.7645
 20
17.539
 30
0.0
 10
-109.7645
 20
17.539
 30
0.0
 10
-108.923
 20
14.2508
 30
0.0
 10
-108.1461
 20
10.9464
 30
0.0
 10
-107.4344
 20
7.6278
 30
0.0
 10
-107.4344
 20
7.6278
 30
0.0
 10
-106.7235
 20
4.3121
 30
0.0
 10
-106.0039
 20
0.9984
 30
0.0
 10
-105.2756
 20
-2.3133
 30
0.0
 10
-105.2756
 20
-2.3133
 30
0.0
 10
-103.9655
 20
-2.0936
 30
0.0
 10
-102.6419
 20
-1.9639
 30
0.0
 10
-101.3142
 20
-1.9255
 30
0.0
 10
-101.3142
 20
-1.9255
 30
0.0
 10
-98.9413
 20
-1.8567
 30
0.0
 10
-96.594
 20
-1.4219
 30
0.0
 10
-94.354
 20
-0.6359
 30
0.0
 10
-94.354
 20
-0.6359
 30
0.0
 10
-93.1932
 20
-0.2287
 30
0.0
 10
-92.0302
 20
0.1728
 30
0.0
 10
-90.8654
 20
0.5685
 30
0.0
 10
-90.8654
 20
0.5685
 30
0.0
 10
-90.7022
 20
3.6896
 30
0.0
 10
-91.8937
 20
6.7271
 30
0.0
 10
-94.1367
 20
8.9033
 30
0.0
 10
-94.1367
 20
8.9033
 30
0.0
 10
-95.0829
 20
9.8215
 30
0.0
 10
-96.0238
 20
10.7448
 30
0.0
 10
-96.9598
 20
11.6734
 30
0.0
 10
-96.9598
 20
11.6734
 30
0.0
 10
-98.4882
 20
13.1898
 30
0.0
 10
-99.6913
 20
15.0029
 30
0.0
 10
-100.4952
 20
17.0002
 30
0.0
 10
-100.4952
 20
17.0002
 30
0.0
 10
-101.3449
 20
19.1114
 30
0.0
 10
-102.2988
 20
21.1789
 30
0.0
 10
-103.354
 20
23.195
 30
0.0
 10
-103.354
 20
23.195
 30
0.0
 10
-104.5208
 20
25.4246
 30
0.0
 10
-106.0881
 20
27.4193
 30
0.0
 10
-107.9786
 20
29.0804
 30
0.0
 10
-107.9786
 20
29.0804
 30
0.0
 10
-109.8811
 20
30.7522
 30
0.0
 10
-111.6019
 20
32.621
 30
0.0
 10
-113.1113
 20
34.6548
 30
0.0
 10
-113.1113
 20
34.6548
 30
0.0
 10
-113.8593
 20
35.6626
 30
0.0
 10
-114.6093
 20
36.6689
 30
0.0
 10
-115.3614
 20
37.6737
 30
0.0
 10
-115.3614
 20
37.6737
 30
0.0
 10
-115.3614
 20
37.6737
 30
0.0
 10
-115.3614
 20
37.6738
 30
0.0
 10
-115.3614
 20
37.6738
 30
0.0
  0
SPLINE
  5
57
330
1F
100
AcDbEntity
  8
layer 1
 62
     7
100
AcDbSpline
210
0.0
220
0.0
230
1.0
 70
    11
 71
     3
 72
    40
 73
    36
 74
     0
 42
0.0000000001
 43
0.0000000001
 12
1.0
 22
0.0
 32
0.0
 13
1.0
 23
0.0
 33
0.0
 40
0.0
 40
0.0
 40
0.0
 40
0.0
 40
0.1
 40
0.1
 40
0.1
 40
0.1
 40
0.2
 40
0.2
 40
0.2
 40
0.2
 40
0.3
 40
0.3
 40
0.3
 40
0.3
 40
0.4
 40
0.4
 40
0.4
 40
0.4
 40
0.5
 40
0.5
 40
0.5
 40
0.5
 40
0.6
 40
0.6
 40
0.6
 40
0.6
 40
0.7
 40
0.7
 40
0.7
 40
0.7
 40
0.8
 40
0.8
 40
0.8
 40
0.8
 40
1.0
 40
1.0
 40
1.0
 40
1.0
 10
-88.7046
 20
-72.9195
 30
0.0
 10
-88.7046
 20
-72.9195
 30
0.0
 10
-89.7848
 20
-72.9195
 30
0.0
 10
-89.7848
 20
-72.9195
 30
0.0
 10
-89.7848
 20
-72.9195
 30
0.0
 10
-92.2827
 20
-75.7585
 30
0.0
 10
-94.8569
 20
-78.5297
 30
0.0
 10
-97.5042
 20
-81.2299
 30
0.0
 10
-97.5042
 20
-81.2299
 30
0.0
 10
-97.9738
 20
-81.7089
 30
0.0
 10
-98.4541
 20
-82.1768
 30
0.0
 10
-98.945
 20
-82.6336
 30
0.0
 10
-98.945
 20
-82.6336
 30
0.0
 10
-99.8036
 20
-83.4321
 30
0.0
 10
-100.6487
 20
-84.2445
 30
0.0
 10
-101.4799
 20
-85.0712
 30
0.0
 10
-101.4799
 20
-85.0712
 30
0.0
 10
-102.2193
 20
-85.8063
 30
0.0
 10
-102.7782
 20
-86.7023
 30
0.0
 10
-103.1134
 20
-87.6896
 30
0.0
 10
-103.1134
 20
-87.6896
 30
0.0
 10
-103.1134
 20
-87.6896
 30
0.0
 10
-90.8654
 20
-87.6896
 30
0.0
 10
-90.8654
 20
-87.6896
 30
0.0
 10
-90.8654
 20
-87.6896
 30
0.0
 10
-90.1233
 20
-85.3035
 30
0.0
 10
-89.5871
 20
-82.8587
 30
0.0
 10
-89.2623
 20
-80.3811
 30
0.0
 10
-89.2623
 20
-80.3811
 30
0.0
 10
-88.9378
 20
-77.906
 30
0.0
 10
-88.7516
 20
-75.4152
 30
0.0
 10
-88.7046
 20
-72.9195
 30
0.0
 10
-88.7046
 20
-72.9195
 30
0.0
 10
-88.7046
 20
-72.9195
 30
0.0
 10
-88.7046
 20
-72.9195
 30
0.0
 10
-88.7046
 20
-72.9195
 30
0.0
  0
SPLINE
  5
58
330
1F
100
AcDbEntity
  8
layer 1
 62
     7
100
AcDbSpline
210
0.0
220
0.0
230
1.0
 70
    11
 71
     3
 72
    88
 73
    84
 74
     0
 42
0.0000000001
 43
0.0000000001
 12
1.0
 22
0.0
 32
0.0
 13
1.0
 23
0.0
 33
0.0
 40
0.0
 40
0.0
 40
0.0
 40
0.0
 40
0.0454545454545455
 40
0.0454545454545455
 40
0.0454545454545455
 40
0.0454545454545455
 40
0.0909090909090909
 40
0.0909090909090909
 40
0.0909090909090909
 40
0.0909090909090909
 40
0.1363636363636364
 40
0.1363636363636364
 40
0.1363636363636364
 40
0.1363636363636364
 40
0.1818181818181818
 40
0.1818181818181818
 40
0.1818181818181818
 40
0.1818181818181818
 40
0.2272727272727273
 40
0.2272727272727273
 40
0.2272727272727273
 40
0.2272727272727273
 40
0.2727272727272727
 40
0.2727272727272727
 40
0.2727272727272727
 40
0.2727272727272727
 40
0.3181818181818182
 40
0.3181818181818182
 40
0.3181818181818182
 40
0.3181818181818182
 40
0.3636363636363636
 40
0.3636363636363636
 40
0.3636363636363636
 40
0.3636363636363636
 40
0.4090909090909091
 40
0.4090909090909091
 40
0.4090909090909091
 40
0.4090909090909091
 40
0.4545454545454545
 40
0.4545454545454545
 40
0.4545454545454545
 40
0.4545454545454545
 40
0.5
 40
0.5
 40
0.5
 40
0.5
 40
0.5454545454545454
 40
0.5454545454545454
 40
0.5454545454545454
 40
0.5454545454545454
 40
0.5909090909090909
 40
0.5909090909090909
 40
0.5909090909090909
 40
0.5909090909090909
 40
0.6363636363636364
 40
0.6363636363636364
 40
0.6363636363636364
 40
0.6363636363636364
 40
0.6818181818181818
 40
0.6818181818181818
 40
0.6818181818181818
 40
0.6818181818181818
 40
0.7272727272727273
 40
0.7272727272727273
 40
0.7272727272727273
 40
0.7272727272727273
 40
0.7727272727272727
 40
0.7727272727272727
 40
0.7727272727272727
 40
0.7727272727272727
 40
0.8181818181818182
 40
0.8181818181818182
 40
0.8181818181818182
 40
0.8181818181818182
 40
0.8636363636363636
 40
0.8636363636363636
 40
0.8636363636363636
 40
0.8636363636363636
 40
0.9090909090909091
 40
0.9090909090909091
 40
0.9090909090909091
 40
0.9090909090909091
 40
1.0
 40
1.0
 40
1.0
 40
1.0
 10
-81.499
 20
2.3708
 30
0.0
 10
-81.499
 20
2.3708
 30
0.0
 10
-79.3384
 20
2.3708
 30
0.0
 10
-79.3384
 20
2.3708
 30
0.0
 10
-79.3384
 20
2.3708
 30
0.0
 10
-79.0919
 20
2.9725
 30
0.0
 10
-78.8089
 20
3.5587
 30
0.0
 10
-78.4911
 20
4.1262
 30
0.0
 10
-78.4911
 20
4.1262
 30
0.0
 10
-77.7213
 20
5.5
 30
0.0
 10
-76.9676
 20
6.883
 30
0.0
 10
-76.23
 20
8.2745
 30
0.0
 10
-76.23
 20
8.2745
 30
0.0
 10
-75.5183
 20
9.6176
 30
0.0
 10
-74.4564
 20
10.7437
 30
0.0
 10
-73.1579
 20
11.5336
 30
0.0
 10
-73.1579
 20
11.5336
 30
0.0
 10
-71.9208
 20
12.2857
 30
0.0
 10
-70.813
 20
13.2315
 30
0.0
 10
-69.8758
 20
14.335
 30
0.0
 10
-69.8758
 20
14.335
 30
0.0
 10
-69.4036
 20
14.8908
 30
0.0
 10
-68.9547
 20
15.4662
 30
0.0
 10
-68.5302
 20
16.0593
 30
0.0
 10
-68.5302
 20
16.0593
 30
0.0
 10
-68.5302
 20
16.0593
 30
0.0
 10
-68.5302
 20
17.1395
 30
0.0
 10
-68.5302
 20
17.1395
 30
0.0
 10
-68.5302
 20
17.1395
 30
0.0
 10
-69.5847
 20
18.8052
 30
0.0
 10
-70.7676
 20
20.386
 30
0.0
 10
-72.0682
 20
21.8677
 30
0.0
 10
-72.0682
 20
21.8677
 30
0.0
 10
-74.2575
 20
24.3617
 30
0.0
 10
-77.0913
 20
26.202
 30
0.0
 10
-80.2604
 20
27.1866
 30
0.0
 10
-80.2604
 20
27.1866
 30
0.0
 10
-82.0014
 20
27.7275
 30
0.0
 10
-83.7501
 20
28.2426
 30
0.0
 10
-85.5064
 20
28.7318
 30
0.0
 10
-85.5064
 20
28.7318
 30
0.0
 10
-86.8447
 20
29.1045
 30
0.0
 10
-88.1385
 20
29.6226
 30
0.0
 10
-89.3641
 20
30.2768
 30
0.0
 10
-89.3641
 20
30.2768
 30
0.0
 10
-90.3028
 20
30.7775
 30
0.0
 10
-91.1985
 20
31.3552
 30
0.0
 10
-92.0421
 20
32.0034
 30
0.0
 10
-92.0421
 20
32.0034
 30
0.0
 10
-93.4406
 20
33.0782
 30
0.0
 10
-94.8791
 20
34.0999
 30
0.0
 10
-96.3546
 20
35.0662
 30
0.0
 10
-96.3546
 20
35.0662
 30
0.0
 10
-97.5289
 20
35.835
 30
0.0
 10
-98.8479
 20
36.3545
 30
0.0
 10
-100.231
 20
36.5925
 30
0.0
 10
-100.231
 20
36.5925
 30
0.0
 10
-100.3518
 20
36.4728
 30
0.0
 10
-100.4719
 20
36.3526
 30
0.0
 10
-100.5915
 20
36.232
 30
0.0
 10
-100.5915
 20
36.232
 30
0.0
 10
-100.5915
 20
36.232
 30
0.0
 10
-100.5915
 20
32.6297
 30
0.0
 10
-100.5915
 20
32.6297
 30
0.0
 10
-100.5915
 20
32.6297
 30
0.0
 10
-99.708
 20
31.6576
 30
0.0
 10
-98.8416
 20
30.6701
 30
0.0
 10
-97.9927
 20
29.6677
 30
0.0
 10
-97.9927
 20
29.6677
 30
0.0
 10
-93.9992
 20
24.9523
 30
0.0
 10
-90.6665
 20
19.7129
 30
0.0
 10
-88.0883
 20
14.0973
 30
0.0
 10
-88.0883
 20
14.0973
 30
0.0
 10
-87.0305
 20
11.7931
 30
0.0
 10
-85.9111
 20
9.5178
 30
0.0
 10
-84.7312
 20
7.2735
 30
0.0
 10
-84.7312
 20
7.2735
 30
0.0
 10
-83.8181
 20
5.5365
 30
0.0
 10
-82.7355
 20
3.8944
 30
0.0
 10
-81.499
 20
2.3708
 30
0.0
 10
-81.499
 20
2.3708
 30
0.0
 10
-81.499
 20
2.3708
 30
0.0
 10
-81.499
 20
2.3708
 30
0.0
 10
-81.499
 20
2.3708
 30
0.0
  0
SPLINE
  5
59
330
1F
100
AcDbEntity
  8
layer 1
 62
     7
100
AcDbSpline
210
0.0
220
0.0
230
1.0
 70
    11
 71
     3
 72
    60
 73
    56
 74
     0
 42
0.0000000001
 43
0.0000000001
 12
1.0
 22
0.0
 32
0.0
 13
1.0
 23
0.0
 33
0.0
 40
0.0
 40
0.0
 40
0.0
 40
0.0
 40
0.0666666666666667
 40
0.0666666666666667
 40
0.0666666666666667
 40
0.0666666666666667
 40
0.1333333333333333
 40
0.1333333333333333
 40
0.1333333333333333
 40
0.1333333333333333
 40
0.2
 40
0.2
 40
0.2
 40
0.2
 40
0.2666666666666667
 40
0.2666666666666667
 40
0.2666666666666667
 40
0.2666666666666667
 40
0.3333333333333333
 40
0.3333333333333333
 40
0.3333333333333333
 40
0.3333333333333333
 40
0.4
 40
0.4
 40
0.4
 40
0.4
 40
0.4666666666666667
 40
0.4666666666666667
 40
0.4666666666666667
 40
0.4666666666666667
 40
0.5333333333333333
 40
0.5333333333333333
 40
0.5333333333333333
 40
0.5333333333333333
 40
0.6
 40
0.6
 40
0.6
 40
0.6
 40
0.6666666666666666
 40
0.6666666666666666
 40
0.6666666666666666
 40
0.6666666666666666
 40
0.7333333333333333
 40
0.7333333333333333
 40
0.7333333333333333
 40
0.7333333333333333
 40
0.8
 40
0.8
 40
0.8
 40
0.8
 40
0.8666666666666667
 40
0.8666666666666667
 40
0.8666666666666667
 40
0.8666666666666667
 40
1.0
 40
1.0
 40
1.0
 40
1.0
 10
-98.4311
 20
57.4865
 30
0.0
 10
-98.5095
 20
55.4415
 30
0.0
 10
-98.5575
 20
53.3956
 30
0.0
 10
-98.5748
 20
51.3494
 30
0.0
 10
-98.5748
 20
51.3494
 30
0.0
 10
-98.5922
 20
49.2996
 30
0.0
 10
-98.7851
 20
47.2548
 30
0.0
 10
-99.1511
 20
45.2379
 30
0.0
 10
-99.1511
 20
45.2379
 30
0.0
 10
-97.6112
 20
45.0151
 30
0.0
 10
-96.094
 20
44.6558
 30
0.0
 10
-94.6176
 20
44.1644
 30
0.0
 10
-94.6176
 20
44.1644
 30
0.0
 10
-93.141
 20
43.6728
 30
0.0
 10
-91.7139
 20
43.0419
 30
0.0
 10
-90.3566
 20
42.2807
 30
0.0
 10
-90.3566
 20
42.2807
 30
0.0
 10
-89.5449
 20
41.8255
 30
0.0
 10
-88.7055
 20
41.4217
 30
0.0
 10
-87.843
 20
41.072
 30
0.0
 10
-87.843
 20
41.072
 30
0.0
 10
-86.9726
 20
40.7192
 30
0.0
 10
-86.0409
 20
40.5436
 30
0.0
 10
-85.1019
 20
40.5559
 30
0.0
 10
-85.1019
 20
40.5559
 30
0.0
 10
-85.215
 20
42.1819
 30
0.0
 10
-85.4935
 20
43.792
 30
0.0
 10
-85.9335
 20
45.3616
 30
0.0
 10
-85.9335
 20
45.3616
 30
0.0
 10
-86.8151
 20
48.5069
 30
0.0
 10
-87.7129
 20
51.6476
 30
0.0
 10
-88.6272
 20
54.7838
 30
0.0
 10
-88.6272
 20
54.7838
 30
0.0
 10
-89.0839
 20
56.3504
 30
0.0
 10
-89.7136
 20
57.8608
 30
0.0
 10
-90.5047
 20
59.288
 30
0.0
 10
-90.5047
 20
59.288
 30
0.0
 10
-90.7295
 20
59.3952
 30
0.0
 10
-90.9914
 20
59.3901
 30
0.0
 10
-91.2118
 20
59.2744
 30
0.0
 10
-91.2118
 20
59.2744
 30
0.0
 10
-91.8993
 20
58.9131
 30
0.0
 10
-92.5752
 20
58.5307
 30
0.0
 10
-93.239
 20
58.1279
 30
0.0
 10
-93.239
 20
58.1279
 30
0.0
 10
-93.6345
 20
57.8879
 30
0.0
 10
-94.0449
 20
57.6736
 30
0.0
 10
-94.468
 20
57.4865
 30
0.0
 10
-94.468
 20
57.4865
 30
0.0
 10
-94.468
 20
57.4865
 30
0.0
 10
-98.4311
 20
57.4865
 30
0.0
 10
-98.4311
 20
57.4865
 30
0.0
 10
-98.4311
 20
57.4865
 30
0.0
 10
-98.4311
 20
57.4865
 30
0.0
 10
-98.4311
 20
57.4865
 30
0.0
 10
-98.4311
 20
57.4865
 30
0.0
  0
SPLINE
  5
5A
330
1F
100
AcDbEntity
  8
layer 1
 62
     7
100
AcDbSpline
210
0.0
220
0.0
230
1.0
 70
    11
 71
     3
 72
    72
 73
    68
 74
     0
 42
0.0000000001
 43
0.0000000001
 12
1.0
 22
0.0
 32
0.0
 13
1.0
 23
0.0
 33
0.0
 40
0.0
 40
0.0
 40
0.0
 40
0.0
 40
0.0555555555555556
 40
0.0555555555555556
 40
0.0555555555555556
 40
0.0555555555555556
 40
0.1111111111111111
 40
0.1111111111111111
 40
0.1111111111111111
 40
0.1111111111111111
 40
0.1666666666666667
 40
0.1666666666666667
 40
0.1666666666666667
 40
0.1666666666666667
 40
0.2222222222222222
 40
0.2222222222222222
 40
0.2222222222222222
 40
0.2222222222222222
 40
0.2777777777777778
 40
0.2777777777777778
 40
0.2777777777777778
 40
0.2777777777777778
 40
0.3333333333333333
 40
0.3333333333333333
 40
0.3333333333333333
 40
0.3333333333333333
 40
0.3888888888888889
 40
0.3888888888888889
 40
0.3888888888888889
 40
0.3888888888888889
 40
0.4444444444444444
 40
0.4444444444444444
 40
0.4444444444444444
 40
0.4444444444444444
 40
0.5
 40
0.5
 40
0.5
 40
0.5
 40
0.5555555555555556
 40
0.5555555555555556
 40
0.5555555555555556
 40
0.5555555555555556
 40
0.6111111111111112
 40
0.6111111111111112
 40
0.6111111111111112
 40
0.6111111111111112
 40
0.6666666666666666
 40
0.6666666666666666
 40
0.6666666666666666
 40
0.6666666666666666
 40
0.7222222222222222
 40
0.7222222222222222
 40
0.7222222222222222
 40
0.7222222222222222
 40
0.7777777777777778
 40
0.7777777777777778
 40
0.7777777777777778
 40
0.7777777777777778
 40
0.8333333333333334
 40
0.8333333333333334
 40
0.8333333333333334
 40
0.8333333333333334
 40
0.8888888888888888
 40
0.8888888888888888
 40
0.8888888888888888
 40
0.8888888888888888
 40
1.0
 40
1.0
 40
1.0
 40
1.0
 10
-96.9889
 20
89.9074
 30
0.0
 10
-96.9889
 20
89.9074
 30
0.0
 10
-96.9889
 20
88.8277
 30
0.0
 10
-96.9889
 20
88.8277
 30
0.0
 10
-96.9889
 20
88.8277
 30
0.0
 10
-95.0668
 20
86.2187
 30
0.0
 10
-93.3669
 20
83.4525
 30
0.0
 10
-91.9078
 20
80.5589
 30
0.0
 10
-91.9078
 20
80.5589
 30
0.0
 10
-88.0462
 20
72.9011
 30
0.0
 10
-84.8063
 20
64.9437
 30
0.0
 10
-82.2202
 20
56.7666
 30
0.0
 10
-82.2202
 20
56.7666
 30
0.0
 10
-80.7701
 20
57.2343
 30
0.0
 10
-79.2198
 20
57.3009
 30
0.0
 10
-77.735
 20
56.959
 30
0.0
 10
-77.735
 20
56.959
 30
0.0
 10
-76.6559
 20
56.7105
 30
0.0
 10
-75.5749
 20
56.4707
 30
0.0
 10
-74.492
 20
56.2394
 30
0.0
 10
-74.492
 20
56.2394
 30
0.0
 10
-73.3812
 20
56.0024
 30
0.0
 10
-72.2264
 20
56.3347
 30
0.0
 10
-71.4122
 20
57.1268
 30
0.0
 10
-71.4122
 20
57.1268
 30
0.0
 10
-71.7603
 20
58.9919
 30
0.0
 10
-72.2638
 20
60.8241
 30
0.0
 10
-72.9183
 20
62.6049
 30
0.0
 10
-72.9183
 20
62.6049
 30
0.0
 10
-73.5716
 20
64.3829
 30
0.0
 10
-74.171
 20
66.1802
 30
0.0
 10
-74.7157
 20
67.9943
 30
0.0
 10
-74.7157
 20
67.9943
 30
0.0
 10
-75.4731
 20
70.5169
 30
0.0
 10
-76.0749
 20
73.0839
 30
0.0
 10
-76.5178
 20
75.6801
 30
0.0
 10
-76.5178
 20
75.6801
 30
0.0
 10
-77.0364
 20
78.7206
 30
0.0
 10
-77.621
 20
81.7492
 30
0.0
 10
-78.2713
 20
84.7642
 30
0.0
 10
-78.2713
 20
84.7642
 30
0.0
 10
-78.6725
 20
86.6245
 30
0.0
 10
-79.2065
 20
88.4534
 30
0.0
 10
-79.8689
 20
90.2375
 30
0.0
 10
-79.8689
 20
90.2375
 30
0.0
 10
-80.397
 20
91.6588
 30
0.0
 10
-81.0715
 20
93.021
 30
0.0
 10
-81.8816
 20
94.3026
 30
0.0
 10
-81.8816
 20
94.3026
 30
0.0
 10
-83.1277
 20
96.2728
 30
0.0
 10
-85.292
 20
97.4686
 30
0.0
 10
-87.623
 20
97.4731
 30
0.0
 10
-87.623
 20
97.4731
 30
0.0
 10
-88.2617
 20
96.6537
 30
0.0
 10
-89.0011
 20
95.9179
 30
0.0
 10
-89.8232
 20
95.2828
 30
0.0
 10
-89.8232
 20
95.2828
 30
0.0
 10
-91.3944
 20
94.0689
 30
0.0
 10
-92.9453
 20
92.8293
 30
0.0
 10
-94.4754
 20
91.5642
 30
0.0
 10
-94.4754
 20
91.5642
 30
0.0
 10
-95.2509
 20
90.9229
 30
0.0
 10
-96.0938
 20
90.3673
 30
0.0
 10
-96.9889
 20
89.9074
 30
0.0
 10
-96.9889
 20
89.9074
 30
0.0
 10
-96.9889
 20
89.9074
 30
0.0
 10
-96.9889
 20
89.9074
 30
0.0
 10
-96.9889
 20
89.9074
 30
0.0
  0
SPLINE
  5
5B
330
1F
100
AcDbEntity
  8
layer 1
 62
     7
100
AcDbSpline
210
0.0
220
0.0
230
1.0
 70
    11
 71
     3
 72
    84
 73
    80
 74
     0
 42
0.0000000001
 43
0.0000000001
 12
1.0
 22
0.0
 32
0.0
 13
1.0
 23
0.0
 33
0.0
 40
0.0
 40
0.0
 40
0.0
 40
0.0
 40
0.0476190476190476
 40
0.0476190476190476
 40
0.0476190476190476
 40
0.0476190476190476
 40
0.0952380952380952
 40
0.0952380952380952
 40
0.0952380952380952
 40
0.0952380952380952
 40
0.1428571428571428
 40
0.1428571428571428
 40
0.1428571428571428
 40
0.1428571428571428
 40
0.1904761904761905
 40
0.1904761904761905
 40
0.1904761904761905
 40
0.1904761904761905
 40
0.2380952380952381
 40
0.2380952380952381
 40
0.2380952380952381
 40
0.2380952380952381
 40
0.2857142857142857
 40
0.2857142857142857
 40
0.2857142857142857
 40
0.2857142857142857
 40
0.3333333333333333
 40
0.3333333333333333
 40
0.3333333333333333
 40
0.3333333333333333
 40
0.3809523809523809
 40
0.3809523809523809
 40
0.3809523809523809
 40
0.3809523809523809
 40
0.4285714285714285
 40
0.4285714285714285
 40
0.4285714285714285
 40
0.4285714285714285
 40
0.4761904761904762
 40
0.4761904761904762
 40
0.4761904761904762
 40
0.4761904761904762
 40
0.5238095238095238
 40
0.5238095238095238
 40
0.5238095238095238
 40
0.5238095238095238
 40
0.5714285714285714
 40
0.5714285714285714
 40
0.5714285714285714
 40
0.5714285714285714
 40
0.6190476190476191
 40
0.6190476190476191
 40
0.6190476190476191
 40
0.6190476190476191
 40
0.6666666666666666
 40
0.6666666666666666
 40
0.6666666666666666
 40
0.6666666666666666
 40
0.7142857142857143
 40
0.7142857142857143
 40
0.7142857142857143
 40
0.7142857142857143
 40
0.7619047619047619
 40
0.7619047619047619
 40
0.7619047619047619
 40
0.7619047619047619
 40
0.8095238095238095
 40
0.8095238095238095
 40
0.8095238095238095
 40
0.8095238095238095
 40
0.8571428571428571
 40
0.8571428571428571
 40
0.8571428571428571
 40
0.8571428571428571
 40
0.9047619047619048
 40
0.9047619047619048
 40
0.9047619047619048
 40
0.9047619047619048
 40
1.0
 40
1.0
 40
1.0
 40
1.0
 10
-60.2459
 20
-40.1383
 30
0.0
 10
-60.9505
 20
-40.8998
 30
0.0
 10
-61.6969
 20
-41.6216
 30
0.0
 10
-62.4817
 20
-42.3002
 30
0.0
 10
-62.4817
 20
-42.3002
 30
0.0
 10
-63.8739
 20
-43.5044
 30
0.0
 10
-65.0831
 20
-44.9043
 30
0.0
 10
-66.0715
 20
-46.4572
 30
0.0
 10
-66.0715
 20
-46.4572
 30
0.0
 10
-67.1035
 20
-48.0783
 30
0.0
 10
-68.2183
 20
-49.6455
 30
0.0
 10
-69.4114
 20
-51.1518
 30
0.0
 10
-69.4114
 20
-51.1518
 30
0.0
 10
-70.6038
 20
-52.6577
 30
0.0
 10
-71.8276
 20
-54.1385
 30
0.0
 10
-73.0816
 20
-55.5934
 30
0.0
 10
-73.0816
 20
-55.5934
 30
0.0
 10
-74.341
 20
-57.0545
 30
0.0
 10
-75.8394
 20
-58.2919
 30
0.0
 10
-77.5126
 20
-59.2523
 30
0.0
 10
-77.5126
 20
-59.2523
 30
0.0
 10
-79.2252
 20
-60.2355
 30
0.0
 10
-80.4102
 20
-61.9291
 30
0.0
 10
-80.7456
 20
-63.8754
 30
0.0
 10
-80.7456
 20
-63.8754
 30
0.0
 10
-80.908
 20
-64.8168
 30
0.0
 10
-81.0331
 20
-65.7641
 30
0.0
 10
-81.1204
 20
-66.7153
 30
0.0
 10
-81.1204
 20
-66.7153
 30
0.0
 10
-81.2873
 20
-68.6609
 30
0.0
 10
-81.4267
 20
-70.6088
 30
0.0
 10
-81.5391
 20
-72.5585
 30
0.0
 10
-81.5391
 20
-72.5585
 30
0.0
 10
-81.6378
 20
-74.4805
 30
0.0
 10
-81.7447
 20
-76.4023
 30
0.0
 10
-81.8596
 20
-78.3234
 30
0.0
 10
-81.8596
 20
-78.3234
 30
0.0
 10
-78.9646
 20
-78.0883
 30
0.0
 10
-76.1091
 20
-77.5056
 30
0.0
 10
-73.3535
 20
-76.5873
 30
0.0
 10
-73.3535
 20
-76.5873
 30
0.0
 10
-70.595
 20
-75.6679
 30
0.0
 10
-67.9765
 20
-74.3739
 30
0.0
 10
-65.5707
 20
-72.741
 30
0.0
 10
-65.5707
 20
-72.741
 30
0.0
 10
-64.1416
 20
-71.7709
 30
0.0
 10
-62.7057
 20
-70.811
 30
0.0
 10
-61.2633
 20
-69.8609
 30
0.0
 10
-61.2633
 20
-69.8609
 30
0.0
 10
-59.8165
 20
-68.9079
 30
0.0
 10
-58.2666
 20
-68.121
 30
0.0
 10
-56.6435
 20
-67.5151
 30
0.0
 10
-56.6435
 20
-67.5151
 30
0.0
 10
-56.6435
 20
-67.5151
 30
0.0
 10
-56.6435
 20
-40.1383
 30
0.0
 10
-56.6435
 20
-40.1383
 30
0.0
 10
-56.6435
 20
-40.1383
 30
0.0
 10
-56.6435
 20
-40.1383
 30
0.0
 10
-58.8038
 20
-40.1383
 30
0.0
 10
-58.8038
 20
-40.1383
 30
0.0
 10
-58.8038
 20
-40.1383
 30
0.0
 10
-58.8038
 20
-40.1383
 30
0.0
 10
-58.8038
 20
-40.4987
 30
0.0
 10
-58.8038
 20
-40.4987
 30
0.0
 10
-58.8038
 20
-40.4987
 30
0.0
 10
-58.8038
 20
-40.4987
 30
0.0
 10
-59.1643
 20
-40.4987
 30
0.0
 10
-59.1643
 20
-40.4987
 30
0.0
 10
-59.1643
 20
-40.4987
 30
0.0
 10
-59.1643
 20
-40.4987
 30
0.0
 10
-59.1643
 20
-40.1383
 30
0.0
 10
-59.1643
 20
-40.1383
 30
0.0
 10
-59.1643
 20
-40.1383
 30
0.0
 10
-59.1643
 20
-40.1383
 30
0.0
 10
-60.2459
 20
-40.1383
 30
0.0
 10
-60.2459
 20
-40.1383
 30
0.0
 10
-60.2459
 20
-40.1383
 30
0.0
 10
-60.2459
 20
-40.1383
 30
0.0
 10
-60.2459
 20
-40.1383
 30
0.0
 10
-60.2459
 20
-40.1383
 30
0.0
  0
SPLINE
  5
5C
330
1F
100
AcDbEntity
  8
layer 1
 62
     7
100
AcDbSpline
210
0.0
220
0.0
230
1.0
 70
    11
 71
     3
 72
    72
 73
    68
 74
     0
 42
0.0000000001
 43
0.0000000001
 12
1.0
 22
0.0
 32
0.0
 13
1.0
 23
0.0
 33
0.0
 40
0.0
 40
0.0
 40
0.0
 40
0.0
 40
0.0555555555555556
 40
0.0555555555555556
 40
0.0555555555555556
 40
0.0555555555555556
 40
0.1111111111111111
 40
0.1111111111111111
 40
0.1111111111111111
 40
0.1111111111111111
 40
0.1666666666666667
 40
0.1666666666666667
 40
0.1666666666666667
 40
0.1666666666666667
 40
0.2222222222222222
 40
0.2222222222222222
 40
0.2222222222222222
 40
0.2222222222222222
 40
0.2777777777777778
 40
0.2777777777777778
 40
0.2777777777777778
 40
0.2777777777777778
 40
0.3333333333333333
 40
0.3333333333333333
 40
0.3333333333333333
 40
0.3333333333333333
 40
0.3888888888888889
 40
0.3888888888888889
 40
0.3888888888888889
 40
0.3888888888888889
 40
0.4444444444444444
 40
0.4444444444444444
 40
0.4444444444444444
 40
0.4444444444444444
 40
0.5
 40
0.5
 40
0.5
 40
0.5
 40
0.5555555555555556
 40
0.5555555555555556
 40
0.5555555555555556
 40
0.5555555555555556
 40
0.6111111111111112
 40
0.6111111111111112
 40
0.6111111111111112
 40
0.6111111111111112
 40
0.6666666666666666
 40
0.6666666666666666
 40
0.6666666666666666
 40
0.6666666666666666
 40
0.7222222222222222
 40
0.7222222222222222
 40
0.7222222222222222
 40
0.7222222222222222
 40
0.7777777777777778
 40
0.7777777777777778
 40
0.7777777777777778
 40
0.7777777777777778
 40
0.8333333333333334
 40
0.8333333333333334
 40
0.8333333333333334
 40
0.8333333333333334
 40
0.8888888888888888
 40
0.8888888888888888
 40
0.8888888888888888
 40
0.8888888888888888
 40
1.0
 40
1.0
 40
1.0
 40
1.0
 10
-79.165
 20
45.6108
 30
0.0
 10
-78.8339
 20
43.3388
 30
0.0
 10
-78.1955
 20
41.1232
 30
0.0
 10
-77.2672
 20
39.0234
 30
0.0
 10
-77.2672
 20
39.0234
 30
0.0
 10
-76.3249
 20
36.8927
 30
0.0
 10
-74.8093
 20
35.067
 30
0.0
 10
-72.8877
 20
33.7494
 30
0.0
 10
-72.8877
 20
33.7494
 30
0.0
 10
-71.6167
 20
32.8778
 30
0.0
 10
-70.3531
 20
31.9953
 30
0.0
 10
-69.0969
 20
31.1023
 30
0.0
 10
-69.0969
 20
31.1023
 30
0.0
 10
-68.0943
 20
30.3893
 30
0.0
 10
-67.2414
 20
29.4859
 30
0.0
 10
-66.5872
 20
28.4442
 30
0.0
 10
-66.5872
 20
28.4442
 30
0.0
 10
-66.0718
 20
27.6235
 30
0.0
 10
-65.6574
 20
26.7432
 30
0.0
 10
-65.353
 20
25.8229
 30
0.0
 10
-65.353
 20
25.8229
 30
0.0
 10
-64.9284
 20
24.5387
 30
0.0
 10
-64.3756
 20
23.3006
 30
0.0
 10
-63.7028
 20
22.127
 30
0.0
 10
-63.7028
 20
22.127
 30
0.0
 10
-62.9868
 20
20.879
 30
0.0
 10
-61.6833
 20
20.0845
 30
0.0
 10
-60.2459
 20
20.0213
 30
0.0
 10
-60.2459
 20
20.0213
 30
0.0
 10
-59.0992
 20
21.6911
 30
0.0
 10
-58.2603
 20
23.5516
 30
0.0
 10
-57.768
 20
25.5167
 30
0.0
 10
-57.768
 20
25.5167
 30
0.0
 10
-57.2786
 20
27.4707
 30
0.0
 10
-56.98
 20
29.4671
 30
0.0
 10
-56.8763
 20
31.4787
 30
0.0
 10
-56.8763
 20
31.4787
 30
0.0
 10
-56.8065
 20
32.8312
 30
0.0
 10
-56.7623
 20
34.1851
 30
0.0
 10
-56.7436
 20
35.5393
 30
0.0
 10
-56.7436
 20
35.5393
 30
0.0
 10
-56.724
 20
38.2362
 30
0.0
 10
-56.7144
 20
40.9333
 30
0.0
 10
-56.7153
 20
43.6303
 30
0.0
 10
-56.7153
 20
43.6303
 30
0.0
 10
-56.7159
 20
46.3278
 30
0.0
 10
-56.6919
 20
49.0251
 30
0.0
 10
-56.6435
 20
51.7223
 30
0.0
 10
-56.6435
 20
51.7223
 30
0.0
 10
-58.5605
 20
51.0321
 30
0.0
 10
-60.4887
 20
50.3743
 30
0.0
 10
-62.4279
 20
49.7491
 30
0.0
 10
-62.4279
 20
49.7491
 30
0.0
 10
-65.9394
 20
48.6166
 30
0.0
 10
-69.574
 20
47.9057
 30
0.0
 10
-73.2536
 20
47.6307
 30
0.0
 10
-73.2536
 20
47.6307
 30
0.0
 10
-75.1585
 20
47.4886
 30
0.0
 10
-77.0679
 20
47.4116
 30
0.0
 10
-78.9782
 20
47.4002
 30
0.0
 10
-78.9782
 20
47.4002
 30
0.0
 10
-79.1824
 20
46.827
 30
0.0
 10
-79.2465
 20
46.2136
 30
0.0
 10
-79.165
 20
45.6108
 30
0.0
 10
-79.165
 20
45.6108
 30
0.0
 10
-79.165
 20
45.6108
 30
0.0
 10
-79.165
 20
45.6108
 30
0.0
 10
-79.165
 20
45.6108
 30
0.0
  0
SPLINE
  5
5D
330
1F
100
AcDbEntity
  8
layer 1
 62
     7
100
AcDbSpline
210
0.0
220
0.0
230
1.0
 70
    11
 71
     3
 72
    92
 73
    88
 74
     0
 42
0.0000000001
 43
0.0000000001
 12
1.0
 22
0.0
 32
0.0
 13
1.0
 23
0.0
 33
0.0
 40
0.0
 40
0.0
 40
0.0
 40
0.0
 40
0.0434782608695652
 40
0.0434782608695652
 40
0.0434782608695652
 40
0.0434782608695652
 40
0.0869565217391304
 40
0.0869565217391304
 40
0.0869565217391304
 40
0.0869565217391304
 40
0.1304347826086956
 40
0.1304347826086956
 40
0.1304347826086956
 40
0.1304347826086956
 40
0.1739130434782609
 40
0.1739130434782609
 40
0.1739130434782609
 40
0.1739130434782609
 40
0.2173913043478261
 40
0.2173913043478261
 40
0.2173913043478261
 40
0.2173913043478261
 40
0.2608695652173913
 40
0.2608695652173913
 40
0.2608695652173913
 40
0.2608695652173913
 40
0.3043478260869565
 40
0.3043478260869565
 40
0.3043478260869565
 40
0.3043478260869565
 40
0.3478260869565217
 40
0.3478260869565217
 40
0.3478260869565217
 40
0.3478260869565217
 40
0.391304347826087
 40
0.391304347826087
 40
0.391304347826087
 40
0.391304347826087
 40
0.4347826086956522
 40
0.4347826086956522
 40
0.4347826086956522
 40
0.4347826086956522
 40
0.4782608695652174
 40
0.4782608695652174
 40
0.4782608695652174
 40
0.4782608695652174
 40
0.5217391304347826
 40
0.5217391304347826
 40
0.5217391304347826
 40
0.5217391304347826
 40
0.5652173913043478
 40
0.5652173913043478
 40
0.5652173913043478
 40
0.5652173913043478
 40
0.6086956521739131
 40
0.6086956521739131
 40
0.6086956521739131
 40
0.6086956521739131
 40
0.6521739130434783
 40
0.6521739130434783
 40
0.6521739130434783
 40
0.6521739130434783
 40
0.6956521739130435
 40
0.6956521739130435
 40
0.6956521739130435
 40
0.6956521739130435
 40
0.7391304347826086
 40
0.7391304347826086
 40
0.7391304347826086
 40
0.7391304347826086
 40
0.782608695652174
 40
0.782608695652174
 40
0.782608695652174
 40
0.782608695652174
 40
0.8260869565217391
 40
0.8260869565217391
 40
0.8260869565217391
 40
0.8260869565217391
 40
0.8695652173913043
 40
0.8695652173913043
 40
0.8695652173913043
 40
0.8695652173913043
 40
0.9130434782608695
 40
0.9130434782608695
 40
0.9130434782608695
 40
0.9130434782608695
 40
1.0
 40
1.0
 40
1.0
 40
1.0
 10
-75.1926
 20
-16.7355
 30
0.0
 10
-74.969
 20
-18.2838
 30
0.0
 10
-74.6129
 20
-19.8099
 30
0.0
 10
-74.1281
 20
-21.2971
 30
0.0
 10
-74.1281
 20
-21.2971
 30
0.0
 10
-73.6392
 20
-22.7964
 30
0.0
 10
-72.859
 20
-24.1836
 30
0.0
 10
-71.8318
 20
-25.3798
 30
0.0
 10
-71.8318
 20
-25.3798
 30
0.0
 10
-70.5812
 20
-26.8355
 30
0.0
 10
-68.9005
 20
-27.8543
 30
0.0
 10
-67.0311
 20
-28.2887
 30
0.0
 10
-67.0311
 20
-28.2887
 30
0.0
 10
-64.701
 20
-28.8301
 30
0.0
 10
-62.3231
 20
-29.1381
 30
0.0
 10
-59.9318
 20
-29.2076
 30
0.0
 10
-59.9318
 20
-29.2076
 30
0.0
 10
-58.9554
 20
-29.236
 30
0.0
 10
-57.9793
 20
-29.2769
 30
0.0
 10
-57.0037
 20
-29.3301
 30
0.0
 10
-57.0037
 20
-29.3301
 30
0.0
 10
-56.8832
 20
-29.2106
 30
0.0
 10
-56.7632
 20
-29.0907
 30
0.0
 10
-56.6435
 20
-28.97
 30
0.0
 10
-56.6435
 20
-28.97
 30
0.0
 10
-56.6682
 20
-28.044
 30
0.0
 10
-56.6806
 20
-27.1176
 30
0.0
 10
-56.6811
 20
-26.1912
 30
0.0
 10
-56.6811
 20
-26.1912
 30
0.0
 10
-56.6815
 20
-25.2714
 30
0.0
 10
-56.6847
 20
-24.3518
 30
0.0
 10
-56.6909
 20
-23.4321
 30
0.0
 10
-56.6909
 20
-23.4321
 30
0.0
 10
-56.7125
 20
-22.5017
 30
0.0
 10
-56.7357
 20
-21.5714
 30
0.0
 10
-56.7605
 20
-20.641
 30
0.0
 10
-56.7605
 20
-20.641
 30
0.0
 10
-56.7852
 20
-19.7088
 30
0.0
 10
-56.7953
 20
-18.7762
 30
0.0
 10
-56.7906
 20
-17.8435
 30
0.0
 10
-56.7906
 20
-17.8435
 30
0.0
 10
-56.7781
 20
-16.9696
 30
0.0
 10
-56.7616
 20
-16.0958
 30
0.0
 10
-56.7411
 20
-15.222
 30
0.0
 10
-56.7411
 20
-15.222
 30
0.0
 10
-56.6972
 20
-13.3315
 30
0.0
 10
-57.1409
 20
-11.4624
 30
0.0
 10
-58.0304
 20
-9.7936
 30
0.0
 10
-58.0304
 20
-9.7936
 30
0.0
 10
-58.4676
 20
-8.9734
 30
0.0
 10
-58.9081
 20
-8.1551
 30
0.0
 10
-59.352
 20
-7.3384
 30
0.0
 10
-59.352
 20
-7.3384
 30
0.0
 10
-59.7819
 20
-6.5321
 30
0.0
 10
-60.2085
 20
-5.724
 30
0.0
 10
-60.6321
 20
-4.9142
 30
0.0
 10
-60.6321
 20
-4.9142
 30
0.0
 10
-61.0546
 20
-4.1064
 30
0.0
 10
-61.4888
 20
-3.3047
 30
0.0
 10
-61.9348
 20
-2.5095
 30
0.0
 10
-61.9348
 20
-2.5095
 30
0.0
 10
-62.8597
 20
-0.8922
 30
0.0
 10
-63.8881
 20
0.6632
 30
0.0
 10
-65.0141
 20
2.1476
 30
0.0
 10
-65.0141
 20
2.1476
 30
0.0
 10
-65.1722
 20
2.3532
 30
0.0
 10
-65.3297
 20
2.5593
 30
0.0
 10
-65.4864
 20
2.766
 30
0.0
 10
-65.4864
 20
2.766
 30
0.0
 10
-66.4546
 20
4.0412
 30
0.0
 10
-68.0214
 20
4.7119
 30
0.0
 10
-69.6121
 20
4.5312
 30
0.0
 10
-69.6121
 20
4.5312
 30
0.0
 10
-71.6825
 20
2.5487
 30
0.0
 10
-73.2099
 20
0.0701
 30
0.0
 10
-74.0492
 20
-2.6709
 30
0.0
 10
-74.0492
 20
-2.6709
 30
0.0
 10
-74.8801
 20
-5.3845
 30
0.0
 10
-75.2728
 20
-8.2123
 30
0.0
 10
-75.2127
 20
-11.0495
 30
0.0
 10
-75.2127
 20
-11.0495
 30
0.0
 10
-75.1726
 20
-12.9445
 30
0.0
 10
-75.1659
 20
-14.8403
 30
0.0
 10
-75.1926
 20
-16.7355
 30
0.0
 10
-75.1926
 20
-16.7355
 30
0.0
 10
-75.1926
 20
-16.7355
 30
0.0
 10
-75.1926
 20
-16.7355
 30
0.0
 10
-75.1926
 20
-16.7355
 30
0.0
  0
SPLINE
  5
5E
330
1F
100
AcDbEntity
  8
layer 1
 62
     7
100
AcDbSpline
210
0.0
220
0.0
230
1.0
 70
    11
 71
     3
 72
   108
 73
   104
 74
     0
 42
0.0000000001
 43
0.0000000001
 12
1.0
 22
0.0
 32
0.0
 13
1.0
 23
0.0
 33
0.0
 40
0.0
 40
0.0
 40
0.0
 40
0.0
 40
0.037037037037037
 40
0.037037037037037
 40
0.037037037037037
 40
0.037037037037037
 40
0.0740740740740741
 40
0.0740740740740741
 40
0.0740740740740741
 40
0.0740740740740741
 40
0.1111111111111111
 40
0.1111111111111111
 40
0.1111111111111111
 40
0.1111111111111111
 40
0.1481481481481481
 40
0.1481481481481481
 40
0.1481481481481481
 40
0.1481481481481481
 40
0.1851851851851852
 40
0.1851851851851852
 40
0.1851851851851852
 40
0.1851851851851852
 40
0.2222222222222222
 40
0.2222222222222222
 40
0.2222222222222222
 40
0.2222222222222222
 40
0.2592592592592592
 40
0.2592592592592592
 40
0.2592592592592592
 40
0.2592592592592592
 40
0.2962962962962963
 40
0.2962962962962963
 40
0.2962962962962963
 40
0.2962962962962963
 40
0.3333333333333333
 40
0.3333333333333333
 40
0.3333333333333333
 40
0.3333333333333333
 40
0.3703703703703703
 40
0.3703703703703703
 40
0.3703703703703703
 40
0.3703703703703703
 40
0.4074074074074074
 40
0.4074074074074074
 40
0.4074074074074074
 40
0.4074074074074074
 40
0.4444444444444444
 40
0.4444444444444444
 40
0.4444444444444444
 40
0.4444444444444444
 40
0.4814814814814815
 40
0.4814814814814815
 40
0.4814814814814815
 40
0.4814814814814815
 40
0.5185185185185185
 40
0.5185185185185185
 40
0.5185185185185185
 40
0.5185185185185185
 40
0.5555555555555556
 40
0.5555555555555556
 40
0.5555555555555556
 40
0.5555555555555556
 40
0.5925925925925926
 40
0.5925925925925926
 40
0.5925925925925926
 40
0.5925925925925926
 40
0.6296296296296297
 40
0.6296296296296297
 40
0.6296296296296297
 40
0.6296296296296297
 40
0.6666666666666666
 40
0.6666666666666666
 40
0.6666666666666666
 40
0.6666666666666666
 40
0.7037037037037037
 40
0.7037037037037037
 40
0.7037037037037037
 40
0.7037037037037037
 40
0.7407407407407407
 40
0.7407407407407407
 40
0.7407407407407407
 40
0.7407407407407407
 40
0.7777777777777778
 40
0.7777777777777778
 40
0.7777777777777778
 40
0.7777777777777778
 40
0.8148148148148148
 40
0.8148148148148148
 40
0.8148148148148148
 40
0.8148148148148148
 40
0.8518518518518519
 40
0.8518518518518519
 40
0.8518518518518519
 40
0.8518518518518519
 40
0.8888888888888888
 40
0.8888888888888888
 40
0.8888888888888888
 40
0.8888888888888888
 40
0.9259259259259259
 40
0.9259259259259259
 40
0.9259259259259259
 40
0.9259259259259259
 40
1.0
 40
1.0
 40
1.0
 40
1.0
 10
-66.0094
 20
87.7464
 30
0.0
 10
-66.2694
 20
87.4329
 30
0.0
 10
-66.5876
 20
87.1727
 30
0.0
 10
-66.9463
 20
86.9799
 30
0.0
 10
-66.9463
 20
86.9799
 30
0.0
 10
-67.8153
 20
86.5131
 30
0.0
 10
-68.7278
 20
86.1321
 30
0.0
 10
-69.6706
 20
85.8425
 30
0.0
 10
-69.6706
 20
85.8425
 30
0.0
 10
-70.1276
 20
85.702
 30
0.0
 10
-70.6209
 20
85.7388
 30
0.0
 10
-71.052
 20
85.9455
 30
0.0
 10
-71.052
 20
85.9455
 30
0.0
 10
-71.052
 20
85.9455
 30
0.0
 10
-72.1331
 20
85.9455
 30
0.0
 10
-72.1331
 20
85.9455
 30
0.0
 10
-72.1331
 20
85.9455
 30
0.0
 10
-72.1331
 20
85.9455
 30
0.0
 10
-71.946
 20
84.4877
 30
0.0
 10
-71.946
 20
84.4877
 30
0.0
 10
-71.946
 20
84.4877
 30
0.0
 10
-71.3949
 20
82.7229
 30
0.0
 10
-70.8818
 20
80.9464
 30
0.0
 10
-70.4075
 20
79.1596
 30
0.0
 10
-70.4075
 20
79.1596
 30
0.0
 10
-69.9341
 20
77.3769
 30
0.0
 10
-69.4593
 20
75.5947
 30
0.0
 10
-68.983
 20
73.8129
 30
0.0
 10
-68.983
 20
73.8129
 30
0.0
 10
-68.707
 20
72.8262
 30
0.0
 10
-68.4393
 20
71.8374
 30
0.0
 10
-68.1796
 20
70.8463
 30
0.0
 10
-68.1796
 20
70.8463
 30
0.0
 10
-68.1311
 20
70.6611
 30
0.0
 10
-68.0857
 20
70.475
 30
0.0
 10
-68.0435
 20
70.2882
 30
0.0
 10
-68.0435
 20
70.2882
 30
0.0
 10
-67.9108
 20
69.6702
 30
0.0
 10
-67.7848
 20
69.0507
 30
0.0
 10
-67.6656
 20
68.43
 30
0.0
 10
-67.6656
 20
68.43
 30
0.0
 10
-67.549
 20
67.8228
 30
0.0
 10
-67.4272
 20
67.2164
 30
0.0
 10
-67.3001
 20
66.6111
 30
0.0
 10
-67.3001
 20
66.6111
 30
0.0
 10
-67.1721
 20
66.0311
 30
0.0
 10
-67.0368
 20
65.4529
 30
0.0
 10
-66.8944
 20
64.8763
 30
0.0
 10
-66.8944
 20
64.8763
 30
0.0
 10
-66.7518
 20
64.2995
 30
0.0
 10
-66.6293
 20
63.718
 30
0.0
 10
-66.5264
 20
63.1329
 30
0.0
 10
-66.5264
 20
63.1329
 30
0.0
 10
-66.3595
 20
62.1257
 30
0.0
 10
-66.2132
 20
61.1155
 30
0.0
 10
-66.0879
 20
60.1025
 30
0.0
 10
-66.0879
 20
60.1025
 30
0.0
 10
-65.9858
 20
59.279
 30
0.0
 10
-65.6516
 20
58.5021
 30
0.0
 10
-65.1237
 20
57.862
 30
0.0
 10
-65.1237
 20
57.862
 30
0.0
 10
-64.6772
 20
57.3206
 30
0.0
 10
-64.0301
 20
56.9844
 30
0.0
 10
-63.3304
 20
56.9308
 30
0.0
 10
-63.3304
 20
56.9308
 30
0.0
 10
-62.1762
 20
56.8421
 30
0.0
 10
-61.0189
 20
57.0504
 30
0.0
 10
-59.9682
 20
57.5359
 30
0.0
 10
-59.9682
 20
57.5359
 30
0.0
 10
-58.1831
 20
58.3577
 30
0.0
 10
-57.0003
 20
60.0981
 30
0.0
 10
-56.8957
 20
62.0606
 30
0.0
 10
-56.8957
 20
62.0606
 30
0.0
 10
-56.8371
 20
63.155
 30
0.0
 10
-56.7832
 20
64.2496
 30
0.0
 10
-56.7337
 20
65.3444
 30
0.0
 10
-56.7337
 20
65.3444
 30
0.0
 10
-56.6663
 20
66.8385
 30
0.0
 10
-57.0255
 20
68.3201
 30
0.0
 10
-57.7701
 20
69.6172
 30
0.0
 10
-57.7701
 20
69.6172
 30
0.0
 10
-58.5513
 20
70.9782
 30
0.0
 10
-59.2653
 20
72.3773
 30
0.0
 10
-59.909
 20
73.8086
 30
0.0
 10
-59.909
 20
73.8086
 30
0.0
 10
-60.767
 20
75.7725
 30
0.0
 10
-61.5491
 20
77.7691
 30
0.0
 10
-62.2535
 20
79.7933
 30
0.0
 10
-62.2535
 20
79.7933
 30
0.0
 10
-62.9581
 20
81.8185
 30
0.0
 10
-63.5495
 20
83.8813
 30
0.0
 10
-64.025
 20
85.972
 30
0.0
 10
-64.025
 20
85.972
 30
0.0
 10
-64.1624
 20
86.576
 30
0.0
 10
-64.3438
 20
87.1689
 30
0.0
 10
-64.5677
 20
87.7464
 30
0.0
 10
-64.5677
 20
87.7464
 30
0.0
 10
-64.5677
 20
87.7464
 30
0.0
 10
-66.0094
 20
87.7464
 30
0.0
 10
-66.0094
 20
87.7464
 30
0.0
 10
-66.0094
 20
87.7464
 30
0.0
 10
-66.0094
 20
87.7464
 30
0.0
 10
-66.0094
 20
87.7464
 30
0.0
 10
-66.0094
 20
87.7464
 30
0.0
  0
SPLINE
  5
5F
330
1F
100
AcDbEntity
  8
layer 1
 62
     7
100
AcDbSpline
210
0.0
220
0.0
230
1.0
 70
    11
 71
     3
 72
    32
 73
    28
 74
     0
 42
0.0000000001
 43
0.0000000001
 12
1.0
 22
0.0
 32
0.0
 13
1.0
 23
0.0
 33
0.0
 40
0.0
 40
0.0
 40
0.0
 40
0.0
 40
0.125
 40
0.125
 40
0.125
 40
0.125
 40
0.25
 40
0.25
 40
0.25
 40
0.25
 40
0.375
 40
0.375
 40
0.375
 40
0.375
 40
0.5
 40
0.5
 40
0.5
 40
0.5
 40
0.625
 40
0.625
 40
0.625
 40
0.625
 40
0.75
 40
0.75
 40
0.75
 40
0.75
 40
1.0
 40
1.0
 40
1.0
 40
1.0
 10
-56.6435
 20
13.537
 30
0.0
 10
-57.1595
 20
13.5595
 30
0.0
 10
-57.661
 20
13.3657
 30
0.0
 10
-58.0278
 20
13.0023
 30
0.0
 10
-58.0278
 20
13.0023
 30
0.0
 10
-58.3819
 20
12.6514
 30
0.0
 10
-58.6714
 20
12.2409
 30
0.0
 10
-58.883
 20
11.7896
 30
0.0
 10
-58.883
 20
11.7896
 30
0.0
 10
-59.307
 20
10.8717
 30
0.0
 10
-59.4663
 20
9.8542
 30
0.0
 10
-59.3427
 20
8.8508
 30
0.0
 10
-59.3427
 20
8.8508
 30
0.0
 10
-59.0367
 20
7.452
 30
0.0
 10
-58.5897
 20
6.0882
 30
0.0
 10
-58.0088
 20
4.7795
 30
0.0
 10
-58.0088
 20
4.7795
 30
0.0
 10
-57.765
 20
4.231
 30
0.0
 10
-57.2419
 20
3.8593
 30
0.0
 10
-56.6435
 20
3.8106
 30
0.0
 10
-56.6435
 20
3.8106
 30
0.0
 10
-56.6435
 20
3.8106
 30
0.0
 10
-56.6435
 20
13.537
 30
0.0
 10
-56.6435
 20
13.537
 30
0.0
 10
-56.6435
 20
13.537
 30
0.0
 10
-56.6435
 20
13.537
 30
0.0
 10
-56.6435
 20
13.537
 30
0.0
 10
-56.6435
 20
13.537
 30
0.0
  0
SPLINE
  5
60
330
1F
100
AcDbEntity
  8
layer 1
 62
     7
100
AcDbSpline
210
0.0
220
0.0
230
1.0
 70
    11
 71
     3
 72
    52
 73
    48
 74
     0
 42
0.0000000001
 43
0.0000000001
 12
1.0
 22
0.0
 32
0.0
 13
1.0
 23
0.0
 33
0.0
 40
0.0
 40
0.0
 40
0.0
 40
0.0
 40
0.0769230769230769
 40
0.0769230769230769
 40
0.0769230769230769
 40
0.0769230769230769
 40
0.1538461538461539
 40
0.1538461538461539
 40
0.1538461538461539
 40
0.1538461538461539
 40
0.2307692307692308
 40
0.2307692307692308
 40
0.2307692307692308
 40
0.2307692307692308
 40
0.3076923076923077
 40
0.3076923076923077
 40
0.3076923076923077
 40
0.3076923076923077
 40
0.3846153846153846
 40
0.3846153846153846
 40
0.3846153846153846
 40
0.3846153846153846
 40
0.4615384615384616
 40
0.4615384615384616
 40
0.4615384615384616
 40
0.4615384615384616
 40
0.5384615384615384
 40
0.5384615384615384
 40
0.5384615384615384
 40
0.5384615384615384
 40
0.6153846153846154
 40
0.6153846153846154
 40
0.6153846153846154
 40
0.6153846153846154
 40
0.6923076923076923
 40
0.6923076923076923
 40
0.6923076923076923
 40
0.6923076923076923
 40
0.7692307692307693
 40
0.7692307692307693
 40
0.7692307692307693
 40
0.7692307692307693
 40
0.8461538461538461
 40
0.8461538461538461
 40
0.8461538461538461
 40
0.8461538461538461
 40
1.0
 40
1.0
 40
1.0
 40
1.0
 10
-161.5805
 20
-41.8525
 30
0.0
 10
-162.3831
 20
-42.2265
 30
0.0
 10
-163.0638
 20
-42.8184
 30
0.0
 10
-163.5455
 20
-43.5612
 30
0.0
 10
-163.5455
 20
-43.5612
 30
0.0
 10
-164.0306
 20
-44.3094
 30
0.0
 10
-164.2567
 20
-45.1954
 30
0.0
 10
-164.1894
 20
-46.0844
 30
0.0
 10
-164.1894
 20
-46.0844
 30
0.0
 10
-164.109
 20
-47.1442
 30
0.0
 10
-163.8802
 20
-48.1874
 30
0.0
 10
-163.5095
 20
-49.1834
 30
0.0
 10
-163.5095
 20
-49.1834
 30
0.0
 10
-162.9208
 20
-48.6114
 30
0.0
 10
-162.3026
 20
-48.0705
 30
0.0
 10
-161.6575
 20
-47.5629
 30
0.0
 10
-161.6575
 20
-47.5629
 30
0.0
 10
-160.6467
 20
-46.7806
 30
0.0
 10
-159.59
 20
-46.0591
 30
0.0
 10
-158.4935
 20
-45.4023
 30
0.0
 10
-158.4935
 20
-45.4023
 30
0.0
 10
-158.9958
 20
-45.1225
 30
0.0
 10
-159.4286
 20
-44.7326
 30
0.0
 10
-159.7593
 20
-44.2623
 30
0.0
 10
-159.7593
 20
-44.2623
 30
0.0
 10
-160.0959
 20
-43.7834
 30
0.0
 10
-160.2532
 20
-43.2011
 30
0.0
 10
-160.2038
 20
-42.6178
 30
0.0
 10
-160.2038
 20
-42.6178
 30
0.0
 10
-160.1704
 20
-42.2258
 30
0.0
 10
-160.0885
 20
-41.8395
 30
0.0
 10
-159.9598
 20
-41.4676
 30
0.0
 10
-159.9598
 20
-41.4676
 30
0.0
 10
-159.9598
 20
-41.4676
 30
0.0
 10
-160.3646
 20
-41.5636
 30
0.0
 10
-160.3646
 20
-41.5636
 30
0.0
 10
-160.3646
 20
-41.5636
 30
0.0
 10
-160.3646
 20
-41.5636
 30
0.0
 10
-160.7698
 20
-41.6599
 30
0.0
 10
-160.7698
 20
-41.6599
 30
0.0
 10
-160.7698
 20
-41.6599
 30
0.0
 10
-160.7698
 20
-41.6599
 30
0.0
 10
-161.1752
 20
-41.7564
 30
0.0
 10
-161.1752
 20
-41.7564
 30
0.0
 10
-161.1752
 20
-41.7564
 30
0.0
 10
-161.1752
 20
-41.7564
 30
0.0
 10
-161.5805
 20
-41.8525
 30
0.0
 10
-161.5805
 20
-41.8525
 30
0.0
  0
SPLINE
  5
61
330
1F
100
AcDbEntity
  8
layer 1
 62
     7
100
AcDbSpline
210
0.0
220
0.0
230
1.0
 70
    11
 71
     3
 72
    80
 73
    76
 74
     0
 42
0.0000000001
 43
0.0000000001
 12
1.0
 22
0.0
 32
0.0
 13
1.0
 23
0.0
 33
0.0
 40
0.0
 40
0.0
 40
0.0
 40
0.0
 40
0.05
 40
0.05
 40
0.05
 40
0.05
 40
0.1
 40
0.1
 40
0.1
 40
0.1
 40
0.15
 40
0.15
 40
0.15
 40
0.15
 40
0.2
 40
0.2
 40
0.2
 40
0.2
 40
0.25
 40
0.25
 40
0.25
 40
0.25
 40
0.3
 40
0.3
 40
0.3
 40
0.3
 40
0.35
 40
0.35
 40
0.35
 40
0.35
 40
0.4
 40
0.4
 40
0.4
 40
0.4
 40
0.45
 40
0.45
 40
0.45
 40
0.45
 40
0.5
 40
0.5
 40
0.5
 40
0.5
 40
0.55
 40
0.55
 40
0.55
 40
0.55
 40
0.6
 40
0.6
 40
0.6
 40
0.6
 40
0.65
 40
0.65
 40
0.65
 40
0.65
 40
0.7
 40
0.7
 40
0.7
 40
0.7
 40
0.75
 40
0.75
 40
0.75
 40
0.75
 40
0.8
 40
0.8
 40
0.8
 40
0.8
 40
0.85
 40
0.85
 40
0.85
 40
0.85
 40
0.9
 40
0.9
 40
0.9
 40
0.9
 40
1.0
 40
1.0
 40
1.0
 40
1.0
 10
-171.9192
 20
41.6359
 30
0.0
 10
-171.9192
 20
41.6359
 30
0.0
 10
-169.3968
 20
41.6359
 30
0.0
 10
-169.3968
 20
41.6359
 30
0.0
 10
-169.3968
 20
41.6359
 30
0.0
 10
-168.7986
 20
42.2605
 30
0.0
 10
-168.0842
 20
42.7629
 30
0.0
 10
-167.2942
 20
43.1147
 30
0.0
 10
-167.2942
 20
43.1147
 30
0.0
 10
-165.6573
 20
43.8436
 30
0.0
 10
-164.0755
 20
44.6896
 30
0.0
 10
-162.5604
 20
45.6462
 30
0.0
 10
-162.5604
 20
45.6462
 30
0.0
 10
-161.8072
 20
46.1218
 30
0.0
 10
-160.9749
 20
46.4597
 30
0.0
 10
-160.1031
 20
46.6438
 30
0.0
 10
-160.1031
 20
46.6438
 30
0.0
 10
-160.1031
 20
46.6438
 30
0.0
 10
-159.6708
 20
46.6799
 30
0.0
 10
-159.6708
 20
46.6799
 30
0.0
 10
-159.6708
 20
46.6799
 30
0.0
 10
-159.428
 20
46.3568
 30
0.0
 10
-159.0602
 20
46.1517
 30
0.0
 10
-158.6579
 20
46.1152
 30
0.0
 10
-158.6579
 20
46.1152
 30
0.0
 10
-158.2728
 20
46.0802
 30
0.0
 10
-157.8893
 20
46.028
 30
0.0
 10
-157.5088
 20
45.9587
 30
0.0
 10
-157.5088
 20
45.9587
 30
0.0
 10
-157.5088
 20
45.9587
 30
0.0
 10
-157.5088
 20
51.3621
 30
0.0
 10
-157.5088
 20
51.3621
 30
0.0
 10
-157.5088
 20
51.3621
 30
0.0
 10
-158.5074
 20
51.8892
 30
0.0
 10
-159.439
 20
52.535
 30
0.0
 10
-160.2831
 20
53.2852
 30
0.0
 10
-160.2831
 20
53.2852
 30
0.0
 10
-161.7899
 20
54.6244
 30
0.0
 10
-163.1801
 20
56.09
 30
0.0
 10
-164.4378
 20
57.6656
 30
0.0
 10
-164.4378
 20
57.6656
 30
0.0
 10
-165.8036
 20
59.3768
 30
0.0
 10
-166.9337
 20
61.264
 30
0.0
 10
-167.7973
 20
63.2759
 30
0.0
 10
-167.7973
 20
63.2759
 30
0.0
 10
-169.0064
 20
66.0932
 30
0.0
 10
-170.1534
 20
68.9367
 30
0.0
 10
-171.2373
 20
71.8044
 30
0.0
 10
-171.2373
 20
71.8044
 30
0.0
 10
-171.6277
 20
72.8386
 30
0.0
 10
-172.0821
 20
73.8474
 30
0.0
 10
-172.5975
 20
74.825
 30
0.0
 10
-172.5975
 20
74.825
 30
0.0
 10
-173.0548
 20
75.6922
 30
0.0
 10
-173.8534
 20
76.3281
 30
0.0
 10
-174.8012
 20
76.5788
 30
0.0
 10
-174.8012
 20
76.5788
 30
0.0
 10
-174.8012
 20
76.5788
 30
0.0
 10
-174.6111
 20
47.0135
 30
0.0
 10
-174.6111
 20
47.0135
 30
0.0
 10
-174.6111
 20
47.0135
 30
0.0
 10
-174.5223
 20
46.7571
 30
0.0
 10
-174.4396
 20
46.4989
 30
0.0
 10
-174.3629
 20
46.2387
 30
0.0
 10
-174.3629
 20
46.2387
 30
0.0
 10
-174.0098
 20
45.0431
 30
0.0
 10
-173.4685
 20
43.9115
 30
0.0
 10
-172.7594
 20
42.8862
 30
0.0
 10
-172.7594
 20
42.8862
 30
0.0
 10
-172.6164
 20
42.6798
 30
0.0
 10
-172.4734
 20
42.4734
 30
0.0
 10
-172.3301
 20
42.2672
 30
0.0
 10
-172.3301
 20
42.2672
 30
0.0
 10
-172.1867
 20
42.0611
 30
0.0
 10
-172.0498
 20
41.8505
 30
0.0
 10
-171.9192
 20
41.6359
 30
0.0
  0
SPLINE
  5
62
330
1F
100
AcDbEntity
  8
layer 1
 62
     7
100
AcDbSpline
210
0.0
220
0.0
230
1.0
 70
    11
 71
     3
 72
    32
 73
    28
 74
     0
 42
0.0000000001
 43
0.0000000001
 12
1.0
 22
0.0
 32
0.0
 13
1.0
 23
0.0
 33
0.0
 40
0.0
 40
0.0
 40
0.0
 40
0.0
 40
0.125
 40
0.125
 40
0.125
 40
0.125
 40
0.25
 40
0.25
 40
0.25
 40
0.25
 40
0.375
 40
0.375
 40
0.375
 40
0.375
 40
0.5
 40
0.5
 40
0.5
 40
0.5
 40
0.625
 40
0.625
 40
0.625
 40
0.625
 40
0.75
 40
0.75
 40
0.75
 40
0.75
 40
1.0
 40
1.0
 40
1.0
 40
1.0
 10
-159.3108
 20
37.3136
 30
0.0
 10
-160.288
 20
37.2396
 30
0.0
 10
-161.2687
 20
37.2223
 30
0.0
 10
-162.2479
 20
37.2616
 30
0.0
 10
-162.2479
 20
37.2616
 30
0.0
 10
-163.2268
 20
37.3009
 30
0.0
 10
-164.2071
 20
37.2922
 30
0.0
 10
-165.1853
 20
37.2357
 30
0.0
 10
-165.1853
 20
37.2357
 30
0.0
 10
-165.1853
 20
37.2357
 30
0.0
 10
-164.7145
 20
35.5116
 30
0.0
 10
-164.7145
 20
35.5116
 30
0.0
 10
-164.7145
 20
35.5116
 30
0.0
 10
-164.0459
 20
34.8026
 30
0.0
 10
-163.4319
 20
34.0441
 30
0.0
 10
-162.8775
 20
33.2428
 30
0.0
 10
-162.8775
 20
33.2428
 30
0.0
 10
-162.323
 20
32.4416
 30
0.0
 10
-161.7125
 20
31.6806
 30
0.0
 10
-161.0503
 20
30.9659
 30
0.0
 10
-161.0503
 20
30.9659
 30
0.0
 10
-160.5958
 20
30.4754
 30
0.0
 10
-159.9767
 20
30.1699
 30
0.0
 10
-159.3108
 20
30.1081
 30
0.0
 10
-159.3108
 20
30.1081
 30
0.0
 10
-159.3108
 20
30.1081
 30
0.0
 10
-159.3108
 20
37.3136
 30
0.0
 10
-159.3108
 20
37.3136
 30
0.0
  0
SPLINE
  5
63
330
1F
100
AcDbEntity
  8
layer 1
 62
     7
100
AcDbSpline
210
0.0
220
0.0
230
1.0
 70
    11
 71
     3
 72
    80
 73
    76
 74
     0
 42
0.0000000001
 43
0.0000000001
 12
1.0
 22
0.0
 32
0.0
 13
1.0
 23
0.0
 33
0.0
 40
0.0
 40
0.0
 40
0.0
 40
0.0
 40
0.05
 40
0.05
 40
0.05
 40
0.05
 40
0.1
 40
0.1
 40
0.1
 40
0.1
 40
0.15
 40
0.15
 40
0.15
 40
0.15
 40
0.2
 40
0.2
 40
0.2
 40
0.2
 40
0.25
 40
0.25
 40
0.25
 40
0.25
 40
0.3
 40
0.3
 40
0.3
 40
0.3
 40
0.35
 40
0.35
 40
0.35
 40
0.35
 40
0.4
 40
0.4
 40
0.4
 40
0.4
 40
0.45
 40
0.45
 40
0.45
 40
0.45
 40
0.5
 40
0.5
 40
0.5
 40
0.5
 40
0.55
 40
0.55
 40
0.55
 40
0.55
 40
0.6
 40
0.6
 40
0.6
 40
0.6
 40
0.65
 40
0.65
 40
0.65
 40
0.65
 40
0.7
 40
0.7
 40
0.7
 40
0.7
 40
0.75
 40
0.75
 40
0.75
 40
0.75
 40
0.8
 40
0.8
 40
0.8
 40
0.8
 40
0.85
 40
0.85
 40
0.85
 40
0.85
 40
0.9
 40
0.9
 40
0.9
 40
0.9
 40
1.0
 40
1.0
 40
1.0
 40
1.0
 10
-132.2926
 20
54.6041
 30
0.0
 10
-133.0612
 20
56.221
 30
0.0
 10
-133.8636
 20
57.8215
 30
0.0
 10
-134.6995
 20
59.4047
 30
0.0
 10
-134.6995
 20
59.4047
 30
0.0
 10
-136.3737
 20
62.5759
 30
0.0
 10
-138.3101
 20
65.6011
 30
0.0
 10
-140.4891
 20
68.4493
 30
0.0
 10
-140.4891
 20
68.4493
 30
0.0
 10
-141.4648
 20
69.7249
 30
0.0
 10
-142.4081
 20
71.0249
 30
0.0
 10
-143.3183
 20
72.3481
 30
0.0
 10
-143.3183
 20
72.3481
 30
0.0
 10
-144.2305
 20
73.6746
 30
0.0
 10
-145.0028
 20
75.0926
 30
0.0
 10
-145.6219
 20
76.5788
 30
0.0
 10
-145.6219
 20
76.5788
 30
0.0
 10
-146.6398
 20
76.4753
 30
0.0
 10
-147.6611
 20
76.4071
 30
0.0
 10
-148.6836
 20
76.3748
 30
0.0
 10
-148.6836
 20
76.3748
 30
0.0
 10
-149.7084
 20
76.3423
 30
0.0
 10
-150.734
 20
76.4106
 30
0.0
 10
-151.7454
 20
76.5788
 30
0.0
 10
-151.7454
 20
76.5788
 30
0.0
 10
-151.8056
 20
76.5189
 30
0.0
 10
-151.8657
 20
76.4589
 30
0.0
 10
-151.9257
 20
76.3989
 30
0.0
 10
-151.9257
 20
76.3989
 30
0.0
 10
-151.9856
 20
76.3387
 30
0.0
 10
-152.0458
 20
76.2789
 30
0.0
 10
-152.1061
 20
76.2192
 30
0.0
 10
-152.1061
 20
76.2192
 30
0.0
 10
-152.3454
 20
69.3758
 30
0.0
 10
-152.4052
 20
62.5277
 30
0.0
 10
-152.2849
 20
55.6812
 30
0.0
 10
-152.2849
 20
55.6812
 30
0.0
 10
-152.2503
 20
55.1334
 30
0.0
 10
-152.23
 20
54.5847
 30
0.0
 10
-152.2236
 20
54.0357
 30
0.0
 10
-152.2236
 20
54.0357
 30
0.0
 10
-152.2092
 20
52.7563
 30
0.0
 10
-152.0281
 20
51.4846
 30
0.0
 10
-151.6851
 20
50.2519
 30
0.0
 10
-151.6851
 20
50.2519
 30
0.0
 10
-151.5627
 20
49.8122
 30
0.0
 10
-151.3428
 20
49.4058
 30
0.0
 10
-151.0415
 20
49.0628
 30
0.0
 10
-151.0415
 20
49.0628
 30
0.0
 10
-150.5026
 20
48.4495
 30
0.0
 10
-149.6935
 20
48.1467
 30
0.0
 10
-148.8845
 20
48.256
 30
0.0
 10
-148.8845
 20
48.256
 30
0.0
 10
-147.5276
 20
48.4392
 30
0.0
 10
-146.204
 20
48.8141
 30
0.0
 10
-144.9526
 20
49.3695
 30
0.0
 10
-144.9526
 20
49.3695
 30
0.0
 10
-144.0121
 20
49.7866
 30
0.0
 10
-143.0878
 20
50.2385
 30
0.0
 10
-142.1811
 20
50.7245
 30
0.0
 10
-142.1811
 20
50.7245
 30
0.0
 10
-140.6671
 20
51.5361
 30
0.0
 10
-139.0101
 20
52.0483
 30
0.0
 10
-137.3022
 20
52.2331
 30
0.0
 10
-137.3022
 20
52.2331
 30
0.0
 10
-136.4662
 20
52.3234
 30
0.0
 10
-135.6283
 20
52.3942
 30
0.0
 10
-134.789
 20
52.4454
 30
0.0
 10
-134.789
 20
52.4454
 30
0.0
 10
-133.9485
 20
52.4966
 30
0.0
 10
-133.1137
 20
52.6164
 30
0.0
 10
-132.2926
 20
52.8036
 30
0.0
 10
-132.2926
 20
52.8036
 30
0.0
 10
-132.2926
 20
52.8036
 30
0.0
 10
-132.2926
 20
54.6041
 30
0.0
 10
-132.2926
 20
54.6041
 30
0.0
  0
SPLINE
  5
64
330
1F
100
AcDbEntity
  8
layer 1
 62
     7
100
AcDbSpline
210
0.0
220
0.0
230
1.0
 70
    11
 71
     3
 72
   160
 73
   156
 74
     0
 42
0.0000000001
 43
0.0000000001
 12
1.0
 22
0.0
 32
0.0
 13
1.0
 23
0.0
 33
0.0
 40
0.0
 40
0.0
 40
0.0
 40
0.0
 40
0.025
 40
0.025
 40
0.025
 40
0.025
 40
0.05
 40
0.05
 40
0.05
 40
0.05
 40
0.075
 40
0.075
 40
0.075
 40
0.075
 40
0.1
 40
0.1
 40
0.1
 40
0.1
 40
0.125
 40
0.125
 40
0.125
 40
0.125
 40
0.15
 40
0.15
 40
0.15
 40
0.15
 40
0.175
 40
0.175
 40
0.175
 40
0.175
 40
0.2
 40
0.2
 40
0.2
 40
0.2
 40
0.225
 40
0.225
 40
0.225
 40
0.225
 40
0.25
 40
0.25
 40
0.25
 40
0.25
 40
0.275
 40
0.275
 40
0.275
 40
0.275
 40
0.3
 40
0.3
 40
0.3
 40
0.3
 40
0.325
 40
0.325
 40
0.325
 40
0.325
 40
0.35
 40
0.35
 40
0.35
 40
0.35
 40
0.375
 40
0.375
 40
0.375
 40
0.375
 40
0.4
 40
0.4
 40
0.4
 40
0.4
 40
0.425
 40
0.425
 40
0.425
 40
0.425
 40
0.45
 40
0.45
 40
0.45
 40
0.45
 40
0.475
 40
0.475
 40
0.475
 40
0.475
 40
0.5
 40
0.5
 40
0.5
 40
0.5
 40
0.525
 40
0.525
 40
0.525
 40
0.525
 40
0.55
 40
0.55
 40
0.55
 40
0.55
 40
0.575
 40
0.575
 40
0.575
 40
0.575
 40
0.6
 40
0.6
 40
0.6
 40
0.6
 40
0.625
 40
0.625
 40
0.625
 40
0.625
 40
0.65
 40
0.65
 40
0.65
 40
0.65
 40
0.675
 40
0.675
 40
0.675
 40
0.675
 40
0.7
 40
0.7
 40
0.7
 40
0.7
 40
0.725
 40
0.725
 40
0.725
 40
0.725
 40
0.75
 40
0.75
 40
0.75
 40
0.75
 40
0.775
 40
0.775
 40
0.775
 40
0.775
 40
0.8
 40
0.8
 40
0.8
 40
0.8
 40
0.825
 40
0.825
 40
0.825
 40
0.825
 40
0.85
 40
0.85
 40
0.85
 40
0.85
 40
0.875
 40
0.875
 40
0.875
 40
0.875
 40
0.9
 40
0.9
 40
0.9
 40
0.9
 40
0.925
 40
0.925
 40
0.925
 40
0.925
 40
0.95
 40
0.95
 40
0.95
 40
0.95
 40
1.0
 40
1.0
 40
1.0
 40
1.0
 10
-114.2814
 20
-14.9217
 30
0.0
 10
-114.6841
 20
-15.4987
 30
0.0
 10
-114.9459
 20
-16.1618
 30
0.0
 10
-115.0459
 20
-16.8583
 30
0.0
 10
-115.0459
 20
-16.8583
 30
0.0
 10
-115.1449
 20
-17.5462
 30
0.0
 10
-115.1945
 20
-18.2401
 30
0.0
 10
-115.1943
 20
-18.9351
 30
0.0
 10
-115.1943
 20
-18.9351
 30
0.0
 10
-115.1871
 20
-19.6528
 30
0.0
 10
-115.1786
 20
-20.3704
 30
0.0
 10
-115.1691
 20
-21.0882
 30
0.0
 10
-115.1691
 20
-21.0882
 30
0.0
 10
-115.1596
 20
-21.7985
 30
0.0
 10
-115.1627
 20
-22.5088
 30
0.0
 10
-115.1778
 20
-23.219
 30
0.0
 10
-115.1778
 20
-23.219
 30
0.0
 10
-114.9308
 20
-24.638
 30
0.0
 10
-114.5949
 20
-26.0401
 30
0.0
 10
-114.1725
 20
-27.4171
 30
0.0
 10
-114.1725
 20
-27.4171
 30
0.0
 10
-113.7504
 20
-28.7927
 30
0.0
 10
-113.3406
 20
-30.1721
 30
0.0
 10
-112.9429
 20
-31.555
 30
0.0
 10
-112.9429
 20
-31.555
 30
0.0
 10
-112.259
 20
-34.0043
 30
0.0
 10
-111.6684
 20
-36.4787
 30
0.0
 10
-111.1727
 20
-38.9729
 30
0.0
 10
-111.1727
 20
-38.9729
 30
0.0
 10
-110.6772
 20
-41.4662
 30
0.0
 10
-110.1925
 20
-43.9616
 30
0.0
 10
-109.7189
 20
-46.4591
 30
0.0
 10
-109.7189
 20
-46.4591
 30
0.0
 10
-109.5867
 20
-47.1557
 30
0.0
 10
-109.4733
 20
-47.8557
 30
0.0
 10
-109.3789
 20
-48.5582
 30
0.0
 10
-109.3789
 20
-48.5582
 30
0.0
 10
-109.2858
 20
-49.3284
 30
0.0
 10
-109.1955
 20
-50.099
 30
0.0
 10
-109.1079
 20
-50.8698
 30
0.0
 10
-109.1079
 20
-50.8698
 30
0.0
 10
-109.0229
 20
-51.6184
 30
0.0
 10
-108.9208
 20
-52.365
 30
0.0
 10
-108.8014
 20
-53.109
 30
0.0
 10
-108.8014
 20
-53.109
 30
0.0
 10
-108.4657
 20
-54.9987
 30
0.0
 10
-107.6462
 20
-56.7681
 30
0.0
 10
-106.4217
 20
-58.2459
 30
0.0
 10
-106.4217
 20
-58.2459
 30
0.0
 10
-105.3991
 20
-59.4802
 30
0.0
 10
-104.5129
 20
-60.8219
 30
0.0
 10
-103.7788
 20
-62.2468
 30
0.0
 10
-103.7788
 20
-62.2468
 30
0.0
 10
-103.2717
 20
-63.2306
 30
0.0
 10
-102.7092
 20
-64.1847
 30
0.0
 10
-102.0938
 20
-65.1046
 30
0.0
 10
-102.0938
 20
-65.1046
 30
0.0
 10
-101.4714
 20
-66.0351
 30
0.0
 10
-100.6516
 20
-66.8165
 30
0.0
 10
-99.6922
 20
-67.3933
 30
0.0
 10
-99.6922
 20
-67.3933
 30
0.0
 10
-98.7831
 20
-67.9406
 30
0.0
 10
-97.7248
 20
-68.1869
 30
0.0
 10
-96.6674
 20
-68.0972
 30
0.0
 10
-96.6674
 20
-68.0972
 30
0.0
 10
-95.6295
 20
-68.0095
 30
0.0
 10
-94.612
 20
-67.7596
 30
0.0
 10
-93.6513
 20
-67.3567
 30
0.0
 10
-93.6513
 20
-67.3567
 30
0.0
 10
-92.3164
 20
-66.7965
 30
0.0
 10
-91.2014
 20
-65.8163
 30
0.0
 10
-90.4755
 20
-64.5635
 30
0.0
 10
-90.4755
 20
-64.5635
 30
0.0
 10
-89.7685
 20
-63.3436
 30
0.0
 10
-89.0311
 20
-62.1413
 30
0.0
 10
-88.2642
 20
-60.9582
 30
0.0
 10
-88.2642
 20
-60.9582
 30
0.0
 10
-87.4737
 20
-59.7384
 30
0.0
 10
-86.7836
 20
-58.4565
 30
0.0
 10
-86.2011
 20
-57.1247
 30
0.0
 10
-86.2011
 20
-57.1247
 30
0.0
 10
-85.6196
 20
-55.7951
 30
0.0
 10
-85.0503
 20
-54.4602
 30
0.0
 10
-84.4935
 20
-53.1201
 30
0.0
 10
-84.4935
 20
-53.1201
 30
0.0
 10
-83.9536
 20
-51.8211
 30
0.0
 10
-83.5999
 20
-50.4525
 30
0.0
 10
-83.4428
 20
-49.0545
 30
0.0
 10
-83.4428
 20
-49.0545
 30
0.0
 10
-83.1957
 20
-46.855
 30
0.0
 10
-82.9728
 20
-44.653
 30
0.0
 10
-82.7738
 20
-42.4484
 30
0.0
 10
-82.7738
 20
-42.4484
 30
0.0
 10
-82.6504
 20
-40.9882
 30
0.0
 10
-82.5534
 20
-39.5257
 30
0.0
 10
-82.4829
 20
-38.0618
 30
0.0
 10
-82.4829
 20
-38.0618
 30
0.0
 10
-82.4146
 20
-36.6358
 30
0.0
 10
-82.3835
 20
-35.2082
 30
0.0
 10
-82.3899
 20
-33.7804
 30
0.0
 10
-82.3899
 20
-33.7804
 30
0.0
 10
-82.4009
 20
-32.961
 30
0.0
 10
-82.4472
 20
-32.1425
 30
0.0
 10
-82.5281
 20
-31.3268
 30
0.0
 10
-82.5281
 20
-31.3268
 30
0.0
 10
-82.6645
 20
-29.9568
 30
0.0
 10
-83.1317
 20
-28.6408
 30
0.0
 10
-83.8905
 20
-27.4921
 30
0.0
 10
-83.8905
 20
-27.4921
 30
0.0
 10
-84.6532
 20
-26.3372
 30
0.0
 10
-85.5204
 20
-25.2553
 30
0.0
 10
-86.4817
 20
-24.2596
 30
0.0
 10
-86.4817
 20
-24.2596
 30
0.0
 10
-88.0287
 20
-22.6573
 30
0.0
 10
-89.5704
 20
-21.0502
 30
0.0
 10
-91.107
 20
-19.4379
 30
0.0
 10
-91.107
 20
-19.4379
 30
0.0
 10
-91.5899
 20
-18.9257
 30
0.0
 10
-92.0599
 20
-18.4016
 30
0.0
 10
-92.5168
 20
-17.8658
 30
0.0
 10
-92.5168
 20
-17.8658
 30
0.0
 10
-93.4681
 20
-16.7503
 30
0.0
 10
-94.288
 20
-15.5286
 30
0.0
 10
-94.96
 20
-14.2257
 30
0.0
 10
-94.96
 20
-14.2257
 30
0.0
 10
-95.3191
 20
-13.529
 30
0.0
 10
-95.8
 20
-12.9028
 30
0.0
 10
-96.3803
 20
-12.3757
 30
0.0
 10
-96.3803
 20
-12.3757
 30
0.0
 10
-96.8462
 20
-11.9526
 30
0.0
 10
-97.4271
 20
-11.6773
 30
0.0
 10
-98.0498
 20
-11.5846
 30
0.0
 10
-98.0498
 20
-11.5846
 30
0.0
 10
-98.6601
 20
-11.494
 30
0.0
 10
-99.2769
 20
-11.4547
 30
0.0
 10
-99.8937
 20
-11.4673
 30
0.0
 10
-99.8937
 20
-11.4673
 30
0.0
 10
-101.4936
 20
-11.5178
 30
0.0
 10
-103.0915
 20
-11.6203
 30
0.0
 10
-104.6847
 20
-11.7749
 30
0.0
 10
-104.6847
 20
-11.7749
 30
0.0
 10
-106.8563
 20
-11.9859
 30
0.0
 10
-108.9665
 20
-12.6121
 30
0.0
 10
-110.9011
 20
-13.6206
 30
0.0
 10
-110.9011
 20
-13.6206
 30
0.0
 10
-111.2991
 20
-13.828
 30
0.0
 10
-111.655
 20
-14.1073
 30
0.0
 10
-111.9511
 20
-14.4448
 30
0.0
 10
-111.9511
 20
-14.4448
 30
0.0
 10
-112.0664
 20
-14.5762
 30
0.0
 10
-112.1267
 20
-14.7469
 30
0.0
 10
-112.1193
 20
-14.9217
 30
0.0
 10
-112.1193
 20
-14.9217
 30
0.0
 10
-112.1193
 20
-14.9217
 30
0.0
 10
-114.2814
 20
-14.9217
 30
0.0
 10
-114.2814
 20
-14.9217
 30
0.0
  0
SPLINE
  5
65
330
1F
100
AcDbEntity
  8
layer 1
 62
     7
100
AcDbSpline
210
0.0
220
0.0
230
1.0
 70
    11
 71
     3
 72
    52
 73
    48
 74
     0
 42
0.0000000001
 43
0.0000000001
 12
1.0
 22
0.0
 32
0.0
 13
1.0
 23
0.0
 33
0.0
 40
0.0
 40
0.0
 40
0.0
 40
0.0
 40
0.0769230769230769
 40
0.0769230769230769
 40
0.0769230769230769
 40
0.0769230769230769
 40
0.1538461538461539
 40
0.1538461538461539
 40
0.1538461538461539
 40
0.1538461538461539
 40
0.2307692307692308
 40
0.2307692307692308
 40
0.2307692307692308
 40
0.2307692307692308
 40
0.3076923076923077
 40
0.3076923076923077
 40
0.3076923076923077
 40
0.3076923076923077
 40
0.3846153846153846
 40
0.3846153846153846
 40
0.3846153846153846
 40
0.3846153846153846
 40
0.4615384615384616
 40
0.4615384615384616
 40
0.4615384615384616
 40
0.4615384615384616
 40
0.5384615384615384
 40
0.5384615384615384
 40
0.5384615384615384
 40
0.5384615384615384
 40
0.6153846153846154
 40
0.6153846153846154
 40
0.6153846153846154
 40
0.6153846153846154
 40
0.6923076923076923
 40
0.6923076923076923
 40
0.6923076923076923
 40
0.6923076923076923
 40
0.7692307692307693
 40
0.7692307692307693
 40
0.7692307692307693
 40
0.7692307692307693
 40
0.8461538461538461
 40
0.8461538461538461
 40
0.8461538461538461
 40
0.8461538461538461
 40
1.0
 40
1.0
 40
1.0
 40
1.0
 10
-99.871
 20
96.0313
 30
0.0
 10
-99.4123
 20
97.3919
 30
0.0
 10
-98.577
 20
98.5953
 30
0.0
 10
-97.4627
 20
99.501
 30
0.0
 10
-97.4627
 20
99.501
 30
0.0
 10
-96.1479
 20
100.5697
 30
0.0
 10
-94.8616
 20
101.6725
 30
0.0
 10
-93.6048
 20
102.8088
 30
0.0
 10
-93.6048
 20
102.8088
 30
0.0
 10
-92.9095
 20
103.437
 30
0.0
 10
-92.1578
 20
104.0002
 30
0.0
 10
-91.3595
 20
104.4905
 30
0.0
 10
-91.3595
 20
104.4905
 30
0.0
 10
-90.5527
 20
104.9859
 30
0.0
 10
-89.6457
 20
105.2958
 30
0.0
 10
-88.7046
 20
105.3975
 30
0.0
 10
-88.7046
 20
105.3975
 30
0.0
 10
-88.6994
 20
105.9763
 30
0.0
 10
-88.7728
 20
106.5532
 30
0.0
 10
-88.9229
 20
107.1123
 30
0.0
 10
-88.9229
 20
107.1123
 30
0.0
 10
-89.2045
 20
108.1625
 30
0.0
 10
-89.4493
 20
109.2224
 30
0.0
 10
-89.6564
 20
110.2899
 30
0.0
 10
-89.6564
 20
110.2899
 30
0.0
 10
-89.7625
 20
110.8362
 30
0.0
 10
-89.9262
 20
111.3698
 30
0.0
 10
-90.1447
 20
111.8817
 30
0.0
 10
-90.1447
 20
111.8817
 30
0.0
 10
-90.1447
 20
111.8817
 30
0.0
 10
-106.7155
 20
111.8817
 30
0.0
 10
-106.7155
 20
111.8817
 30
0.0
 10
-106.7155
 20
111.8817
 30
0.0
 10
-106.7155
 20
111.8817
 30
0.0
 10
-106.5284
 20
110.4245
 30
0.0
 10
-106.5284
 20
110.4245
 30
0.0
 10
-106.5284
 20
110.4245
 30
0.0
 10
-105.1298
 20
107.0113
 30
0.0
 10
-103.7814
 20
103.5777
 30
0.0
 10
-102.4837
 20
100.1251
 30
0.0
 10
-102.4837
 20
100.1251
 30
0.0
 10
-101.9835
 20
98.7943
 30
0.0
 10
-101.5919
 20
97.4251
 30
0.0
 10
-101.3129
 20
96.0313
 30
0.0
 10
-101.3129
 20
96.0313
 30
0.0
 10
-101.3129
 20
96.0313
 30
0.0
 10
-99.871
 20
96.0313
 30
0.0
 10
-99.871
 20
96.0313
 30
0.0
  0
SPLINE
  5
66
330
1F
100
AcDbEntity
  8
layer 1
 62
     7
100
AcDbSpline
210
0.0
220
0.0
230
1.0
 70
    11
 71
     3
 72
    52
 73
    48
 74
     0
 42
0.0000000001
 43
0.0000000001
 12
1.0
 22
0.0
 32
0.0
 13
1.0
 23
0.0
 33
0.0
 40
0.0
 40
0.0
 40
0.0
 40
0.0
 40
0.0769230769230769
 40
0.0769230769230769
 40
0.0769230769230769
 40
0.0769230769230769
 40
0.1538461538461539
 40
0.1538461538461539
 40
0.1538461538461539
 40
0.1538461538461539
 40
0.2307692307692308
 40
0.2307692307692308
 40
0.2307692307692308
 40
0.2307692307692308
 40
0.3076923076923077
 40
0.3076923076923077
 40
0.3076923076923077
 40
0.3076923076923077
 40
0.3846153846153846
 40
0.3846153846153846
 40
0.3846153846153846
 40
0.3846153846153846
 40
0.4615384615384616
 40
0.4615384615384616
 40
0.4615384615384616
 40
0.4615384615384616
 40
0.5384615384615384
 40
0.5384615384615384
 40
0.5384615384615384
 40
0.5384615384615384
 40
0.6153846153846154
 40
0.6153846153846154
 40
0.6153846153846154
 40
0.6153846153846154
 40
0.6923076923076923
 40
0.6923076923076923
 40
0.6923076923076923
 40
0.6923076923076923
 40
0.7692307692307693
 40
0.7692307692307693
 40
0.7692307692307693
 40
0.7692307692307693
 40
0.8461538461538461
 40
0.8461538461538461
 40
0.8461538461538461
 40
0.8461538461538461
 40
1.0
 40
1.0
 40
1.0
 40
1.0
 10
-98.4311
 20
75.4987
 30
0.0
 10
-98.4311
 20
75.4987
 30
0.0
 10
-98.2472
 20
67.9183
 30
0.0
 10
-98.2472
 20
67.9183
 30
0.0
 10
-98.2472
 20
67.9183
 30
0.0
 10
-98.1464
 20
67.4255
 30
0.0
 10
-98.0434
 20
66.933
 30
0.0
 10
-97.9384
 20
66.441
 30
0.0
 10
-97.9384
 20
66.441
 30
0.0
 10
-97.8323
 20
65.9442
 30
0.0
 10
-97.6324
 20
65.4726
 30
0.0
 10
-97.3493
 20
65.051
 30
0.0
 10
-97.3493
 20
65.051
 30
0.0
 10
-97.3493
 20
65.051
 30
0.0
 10
-95.1892
 20
65.051
 30
0.0
 10
-95.1892
 20
65.051
 30
0.0
 10
-95.1892
 20
65.051
 30
0.0
 10
-94.9404
 20
65.7179
 30
0.0
 10
-94.4139
 20
66.2442
 30
0.0
 10
-93.747
 20
66.493
 30
0.0
 10
-93.747
 20
66.493
 30
0.0
 10
-93.7846
 20
66.79
 30
0.0
 10
-93.8074
 20
67.0888
 30
0.0
 10
-93.8149
 20
67.3881
 30
0.0
 10
-93.8149
 20
67.3881
 30
0.0
 10
-93.8303
 20
67.9836
 30
0.0
 10
-93.8696
 20
68.5782
 30
0.0
 10
-93.933
 20
69.1705
 30
0.0
 10
-93.933
 20
69.1705
 30
0.0
 10
-93.9971
 20
69.7705
 30
0.0
 10
-94.1981
 20
70.3474
 30
0.0
 10
-94.5207
 20
70.8573
 30
0.0
 10
-94.5207
 20
70.8573
 30
0.0
 10
-94.7596
 20
71.2348
 30
0.0
 10
-95.0225
 20
71.5963
 30
0.0
 10
-95.3079
 20
71.9399
 30
0.0
 10
-95.3079
 20
71.9399
 30
0.0
 10
-95.5934
 20
72.2832
 30
0.0
 10
-95.8572
 20
72.6441
 30
0.0
 10
-96.0976
 20
73.0205
 30
0.0
 10
-96.0976
 20
73.0205
 30
0.0
 10
-96.41
 20
73.5082
 30
0.0
 10
-96.7141
 20
74.0012
 30
0.0
 10
-97.0101
 20
74.4989
 30
0.0
 10
-97.0101
 20
74.4989
 30
0.0
 10
-97.3199
 20
75.0194
 30
0.0
 10
-97.8363
 20
75.3831
 30
0.0
 10
-98.4311
 20
75.4987
 30
0.0
  0
SPLINE
  5
67
330
1F
100
AcDbEntity
  8
layer 1
 62
     7
100
AcDbSpline
210
0.0
220
0.0
230
1.0
 70
    11
 71
     3
 72
    52
 73
    48
 74
     0
 42
0.0000000001
 43
0.0000000001
 12
1.0
 22
0.0
 32
0.0
 13
1.0
 23
0.0
 33
0.0
 40
0.0
 40
0.0
 40
0.0
 40
0.0
 40
0.0769230769230769
 40
0.0769230769230769
 40
0.0769230769230769
 40
0.0769230769230769
 40
0.1538461538461539
 40
0.1538461538461539
 40
0.1538461538461539
 40
0.1538461538461539
 40
0.2307692307692308
 40
0.2307692307692308
 40
0.2307692307692308
 40
0.2307692307692308
 40
0.3076923076923077
 40
0.3076923076923077
 40
0.3076923076923077
 40
0.3076923076923077
 40
0.3846153846153846
 40
0.3846153846153846
 40
0.3846153846153846
 40
0.3846153846153846
 40
0.4615384615384616
 40
0.4615384615384616
 40
0.4615384615384616
 40
0.4615384615384616
 40
0.5384615384615384
 40
0.5384615384615384
 40
0.5384615384615384
 40
0.5384615384615384
 40
0.6153846153846154
 40
0.6153846153846154
 40
0.6153846153846154
 40
0.6153846153846154
 40
0.6923076923076923
 40
0.6923076923076923
 40
0.6923076923076923
 40
0.6923076923076923
 40
0.7692307692307693
 40
0.7692307692307693
 40
0.7692307692307693
 40
0.7692307692307693
 40
0.8461538461538461
 40
0.8461538461538461
 40
0.8461538461538461
 40
0.8461538461538461
 40
1.0
 40
1.0
 40
1.0
 40
1.0
 10
-88.5234
 20
-9.8771
 30
0.0
 10
-88.4752
 20
-10.9172
 30
0.0
 10
-87.8673
 20
-11.8486
 30
0.0
 10
-86.934
 20
-12.31
 30
0.0
 10
-86.934
 20
-12.31
 30
0.0
 10
-85.9606
 20
-12.7918
 30
0.0
 10
-85.0694
 20
-13.4247
 30
0.0
 10
-84.2938
 20
-14.1849
 30
0.0
 10
-84.2938
 20
-14.1849
 30
0.0
 10
-83.7901
 20
-14.6785
 30
0.0
 10
-83.4444
 20
-15.3112
 30
0.0
 10
-83.3007
 20
-16.0015
 30
0.0
 10
-83.3007
 20
-16.0015
 30
0.0
 10
-83.3007
 20
-16.0015
 30
0.0
 10
-82.2202
 20
-16.0015
 30
0.0
 10
-82.2202
 20
-16.0015
 30
0.0
 10
-82.2202
 20
-16.0015
 30
0.0
 10
-82.1962
 20
-15.1962
 30
0.0
 10
-82.1624
 20
-14.3912
 30
0.0
 10
-82.119
 20
-13.5866
 30
0.0
 10
-82.119
 20
-13.5866
 30
0.0
 10
-82.0757
 20
-12.7834
 30
0.0
 10
-82.049
 20
-11.9795
 30
0.0
 10
-82.0387
 20
-11.1752
 30
0.0
 10
-82.0387
 20
-11.1752
 30
0.0
 10
-82.0419
 20
-10.3758
 30
0.0
 10
-82.1173
 20
-9.5783
 30
0.0
 10
-82.2635
 20
-8.7924
 30
0.0
 10
-82.2635
 20
-8.7924
 30
0.0
 10
-82.4121
 20
-7.9941
 30
0.0
 10
-82.7699
 20
-7.2498
 30
0.0
 10
-83.3007
 20
-6.6352
 30
0.0
 10
-83.3007
 20
-6.6352
 30
0.0
 10
-83.3007
 20
-6.6352
 30
0.0
 10
-86.5429
 20
-6.6352
 30
0.0
 10
-86.5429
 20
-6.6352
 30
0.0
 10
-86.5429
 20
-6.6352
 30
0.0
 10
-86.6741
 20
-6.9995
 30
0.0
 10
-86.9607
 20
-7.2864
 30
0.0
 10
-87.3244
 20
-7.4185
 30
0.0
 10
-87.3244
 20
-7.4185
 30
0.0
 10
-87.9521
 20
-7.6463
 30
0.0
 10
-88.4034
 20
-8.1997
 30
0.0
 10
-88.4997
 20
-8.8603
 30
0.0
 10
-88.4997
 20
-8.8603
 30
0.0
 10
-88.549
 20
-9.1971
 30
0.0
 10
-88.557
 20
-9.5385
 30
0.0
 10
-88.5234
 20
-9.8771
 30
0.0
  0
SPLINE
  5
68
330
1F
100
AcDbEntity
  8
layer 1
 62
     7
100
AcDbSpline
210
0.0
220
0.0
230
1.0
 70
    11
 71
     3
 72
    52
 73
    48
 74
     0
 42
0.0000000001
 43
0.0000000001
 12
1.0
 22
0.0
 32
0.0
 13
1.0
 23
0.0
 33
0.0
 40
0.0
 40
0.0
 40
0.0
 40
0.0
 40
0.0769230769230769
 40
0.0769230769230769
 40
0.0769230769230769
 40
0.0769230769230769
 40
0.1538461538461539
 40
0.1538461538461539
 40
0.1538461538461539
 40
0.1538461538461539
 40
0.2307692307692308
 40
0.2307692307692308
 40
0.2307692307692308
 40
0.2307692307692308
 40
0.3076923076923077
 40
0.3076923076923077
 40
0.3076923076923077
 40
0.3076923076923077
 40
0.3846153846153846
 40
0.3846153846153846
 40
0.3846153846153846
 40
0.3846153846153846
 40
0.4615384615384616
 40
0.4615384615384616
 40
0.4615384615384616
 40
0.4615384615384616
 40
0.5384615384615384
 40
0.5384615384615384
 40
0.5384615384615384
 40
0.5384615384615384
 40
0.6153846153846154
 40
0.6153846153846154
 40
0.6153846153846154
 40
0.6153846153846154
 40
0.6923076923076923
 40
0.6923076923076923
 40
0.6923076923076923
 40
0.6923076923076923
 40
0.7692307692307693
 40
0.7692307692307693
 40
0.7692307692307693
 40
0.7692307692307693
 40
0.8461538461538461
 40
0.8461538461538461
 40
0.8461538461538461
 40
0.8461538461538461
 40
1.0
 40
1.0
 40
1.0
 40
1.0
 10
-67.8101
 20
111.8817
 30
0.0
 10
-67.8101
 20
111.8817
 30
0.0
 10
-82.9407
 20
111.8817
 30
0.0
 10
-82.9407
 20
111.8817
 30
0.0
 10
-82.9407
 20
111.8817
 30
0.0
 10
-82.9407
 20
111.8817
 30
0.0
 10
-82.7431
 20
110.4158
 30
0.0
 10
-82.7431
 20
110.4158
 30
0.0
 10
-82.7431
 20
110.4158
 30
0.0
 10
-81.7942
 20
108.2581
 30
0.0
 10
-80.7767
 20
106.1315
 30
0.0
 10
-79.692
 20
104.0387
 30
0.0
 10
-79.692
 20
104.0387
 30
0.0
 10
-78.7064
 20
102.1376
 30
0.0
 10
-77.3632
 20
100.4457
 30
0.0
 10
-75.7347
 20
99.0551
 30
0.0
 10
-75.7347
 20
99.0551
 30
0.0
 10
-74.0934
 20
97.6538
 30
0.0
 10
-71.8481
 20
97.1966
 30
0.0
 10
-69.7902
 20
97.8463
 30
0.0
 10
-69.7902
 20
97.8463
 30
0.0
 10
-68.7123
 20
98.1864
 30
0.0
 10
-67.6837
 20
98.666
 30
0.0
 10
-66.7303
 20
99.2733
 30
0.0
 10
-66.7303
 20
99.2733
 30
0.0
 10
-66.7762
 20
100.2952
 30
0.0
 10
-66.8445
 20
101.316
 30
0.0
 10
-66.9355
 20
102.335
 30
0.0
 10
-66.9355
 20
102.335
 30
0.0
 10
-67.0268
 20
103.3536
 30
0.0
 10
-67.1148
 20
104.3724
 30
0.0
 10
-67.2002
 20
105.3917
 30
0.0
 10
-67.2002
 20
105.3917
 30
0.0
 10
-67.2726
 20
106.4116
 30
0.0
 10
-67.3235
 20
107.4334
 30
0.0
 10
-67.3526
 20
108.4556
 30
0.0
 10
-67.3526
 20
108.4556
 30
0.0
 10
-67.3818
 20
109.4778
 30
0.0
 10
-67.4143
 20
110.4999
 30
0.0
 10
-67.4501
 20
111.5219
 30
0.0
 10
-67.4501
 20
111.5219
 30
0.0
 10
-67.4501
 20
111.5219
 30
0.0
 10
-67.6302
 20
111.7019
 30
0.0
 10
-67.6302
 20
111.7019
 30
0.0
 10
-67.6302
 20
111.7019
 30
0.0
 10
-67.6302
 20
111.7019
 30
0.0
 10
-67.8101
 20
111.8817
 30
0.0
 10
-67.8101
 20
111.8817
 30
0.0
  0
SPLINE
  5
69
330
1F
100
AcDbEntity
  8
layer 1
 62
     7
100
AcDbSpline
210
0.0
220
0.0
230
1.0
 70
    11
 71
     3
 72
    52
 73
    48
 74
     0
 42
0.0000000001
 43
0.0000000001
 12
1.0
 22
0.0
 32
0.0
 13
1.0
 23
0.0
 33
0.0
 40
0.0
 40
0.0
 40
0.0
 40
0.0
 40
0.0769230769230769
 40
0.0769230769230769
 40
0.0769230769230769
 40
0.0769230769230769
 40
0.1538461538461539
 40
0.1538461538461539
 40
0.1538461538461539
 40
0.1538461538461539
 40
0.2307692307692308
 40
0.2307692307692308
 40
0.2307692307692308
 40
0.2307692307692308
 40
0.3076923076923077
 40
0.3076923076923077
 40
0.3076923076923077
 40
0.3076923076923077
 40
0.3846153846153846
 40
0.3846153846153846
 40
0.3846153846153846
 40
0.3846153846153846
 40
0.4615384615384616
 40
0.4615384615384616
 40
0.4615384615384616
 40
0.4615384615384616
 40
0.5384615384615384
 40
0.5384615384615384
 40
0.5384615384615384
 40
0.5384615384615384
 40
0.6153846153846154
 40
0.6153846153846154
 40
0.6153846153846154
 40
0.6153846153846154
 40
0.6923076923076923
 40
0.6923076923076923
 40
0.6923076923076923
 40
0.6923076923076923
 40
0.7692307692307693
 40
0.7692307692307693
 40
0.7692307692307693
 40
0.7692307692307693
 40
0.8461538461538461
 40
0.8461538461538461
 40
0.8461538461538461
 40
0.8461538461538461
 40
1.0
 40
1.0
 40
1.0
 40
1.0
 10
-74.6544
 20
-33.6539
 30
0.0
 10
-74.6544
 20
-33.6539
 30
0.0
 10
-76.0962
 20
-33.6539
 30
0.0
 10
-76.0962
 20
-33.6539
 30
0.0
 10
-76.0962
 20
-33.6539
 30
0.0
 10
-76.3149
 20
-36.0036
 30
0.0
 10
-76.5934
 20
-38.3475
 30
0.0
 10
-76.9313
 20
-40.683
 30
0.0
 10
-76.9313
 20
-40.683
 30
0.0
 10
-77.2696
 20
-43.0205
 30
0.0
 10
-77.5913
 20
-45.3605
 30
0.0
 10
-77.8966
 20
-47.7026
 30
0.0
 10
-77.8966
 20
-47.7026
 30
0.0
 10
-77.8966
 20
-47.7026
 30
0.0
 10
-76.8166
 20
-47.7026
 30
0.0
 10
-76.8166
 20
-47.7026
 30
0.0
 10
-76.8166
 20
-47.7026
 30
0.0
 10
-76.3286
 20
-46.8916
 30
0.0
 10
-75.7811
 20
-46.1176
 30
0.0
 10
-75.1791
 20
-45.3872
 30
0.0
 10
-75.1791
 20
-45.3872
 30
0.0
 10
-73.9435
 20
-43.8881
 30
0.0
 10
-72.7383
 20
-42.3642
 30
0.0
 10
-71.5642
 20
-40.8163
 30
0.0
 10
-71.5642
 20
-40.8163
 30
0.0
 10
-70.9825
 20
-40.0493
 30
0.0
 10
-70.3287
 20
-39.3394
 30
0.0
 10
-69.6121
 20
-38.6963
 30
0.0
 10
-69.6121
 20
-38.6963
 30
0.0
 10
-69.6121
 20
-38.6963
 30
0.0
 10
-69.6121
 20
-37.2565
 30
0.0
 10
-69.6121
 20
-37.2565
 30
0.0
 10
-69.6121
 20
-37.2565
 30
0.0
 10
-69.9985
 20
-37.1206
 30
0.0
 10
-70.3557
 20
-36.9126
 30
0.0
 10
-70.6646
 20
-36.6436
 30
0.0
 10
-70.6646
 20
-36.6436
 30
0.0
 10
-71.5284
 20
-35.8917
 30
0.0
 10
-72.45
 20
-35.2093
 30
0.0
 10
-73.4215
 20
-34.6027
 30
0.0
 10
-73.4215
 20
-34.6027
 30
0.0
 10
-73.6418
 20
-34.465
 30
0.0
 10
-73.8573
 20
-34.3196
 30
0.0
 10
-74.0676
 20
-34.1669
 30
0.0
 10
-74.0676
 20
-34.1669
 30
0.0
 10
-74.2781
 20
-34.0137
 30
0.0
 10
-74.4746
 20
-33.842
 30
0.0
 10
-74.6544
 20
-33.6539
 30
0.0
  0
SPLINE
  5
6A
330
1F
100
AcDbEntity
  8
layer 1
 62
     7
100
AcDbSpline
210
0.0
220
0.0
230
1.0
 70
    11
 71
     3
 72
    40
 73
    36
 74
     0
 42
0.0000000001
 43
0.0000000001
 12
1.0
 22
0.0
 32
0.0
 13
1.0
 23
0.0
 33
0.0
 40
0.0
 40
0.0
 40
0.0
 40
0.0
 40
0.1
 40
0.1
 40
0.1
 40
0.1
 40
0.2
 40
0.2
 40
0.2
 40
0.2
 40
0.3
 40
0.3
 40
0.3
 40
0.3
 40
0.4
 40
0.4
 40
0.4
 40
0.4
 40
0.5
 40
0.5
 40
0.5
 40
0.5
 40
0.6
 40
0.6
 40
0.6
 40
0.6
 40
0.7
 40
0.7
 40
0.7
 40
0.7
 40
0.8
 40
0.8
 40
0.8
 40
0.8
 40
1.0
 40
1.0
 40
1.0
 40
1.0
 10
-56.6435
 20
-79.0441
 30
0.0
 10
-56.7632
 20
-78.9236
 30
0.0
 10
-56.8834
 20
-78.8033
 30
0.0
 10
-57.0037
 20
-78.6835
 30
0.0
 10
-57.0037
 20
-78.6835
 30
0.0
 10
-58.1991
 20
-78.7858
 30
0.0
 10
-59.371
 20
-79.071
 30
0.0
 10
-60.4794
 20
-79.5296
 30
0.0
 10
-60.4794
 20
-79.5296
 30
0.0
 10
-61.5815
 20
-79.9853
 30
0.0
 10
-62.6773
 20
-80.4555
 30
0.0
 10
-63.7667
 20
-80.94
 30
0.0
 10
-63.7667
 20
-80.94
 30
0.0
 10
-64.8525
 20
-81.4148
 30
0.0
 10
-65.9405
 20
-81.8847
 30
0.0
 10
-67.0305
 20
-82.3499
 30
0.0
 10
-67.0305
 20
-82.3499
 30
0.0
 10
-68.1253
 20
-82.8171
 30
0.0
 10
-69.2158
 20
-83.2943
 30
0.0
 10
-70.3019
 20
-83.7815
 30
0.0
 10
-70.3019
 20
-83.7815
 30
0.0
 10
-71.3703
 20
-84.2686
 30
0.0
 10
-72.4171
 20
-84.8014
 30
0.0
 10
-73.4397
 20
-85.3789
 30
0.0
 10
-73.4397
 20
-85.3789
 30
0.0
 10
-74.4722
 20
-85.9619
 30
0.0
 10
-75.3758
 20
-86.7478
 30
0.0
 10
-76.0962
 20
-87.6896
 30
0.0
 10
-76.0962
 20
-87.6896
 30
0.0
 10
-76.0962
 20
-87.6896
 30
0.0
 10
-56.6435
 20
-87.6896
 30
0.0
 10
-56.6435
 20
-87.6896
 30
0.0
 10
-56.6435
 20
-87.6896
 30
0.0
 10
-56.6435
 20
-87.6896
 30
0.0
 10
-56.6435
 20
-79.0441
 30
0.0
 10
-56.6435
 20
-79.0441
 30
0.0
  0
SPLINE
  5
6B
330
1F
100
AcDbEntity
  8
layer 1
 62
     7
100
AcDbSpline
210
0.0
220
0.0
230
1.0
 70
    11
 71
     3
 72
    44
 73
    40
 74
     0
 42
0.0000000001
 43
0.0000000001
 12
1.0
 22
0.0
 32
0.0
 13
1.0
 23
0.0
 33
0.0
 40
0.0
 40
0.0
 40
0.0
 40
0.0
 40
0.0909090909090909
 40
0.0909090909090909
 40
0.0909090909090909
 40
0.0909090909090909
 40
0.1818181818181818
 40
0.1818181818181818
 40
0.1818181818181818
 40
0.1818181818181818
 40
0.2727272727272727
 40
0.2727272727272727
 40
0.2727272727272727
 40
0.2727272727272727
 40
0.3636363636363636
 40
0.3636363636363636
 40
0.3636363636363636
 40
0.3636363636363636
 40
0.4545454545454545
 40
0.4545454545454545
 40
0.4545454545454545
 40
0.4545454545454545
 40
0.5454545454545454
 40
0.5454545454545454
 40
0.5454545454545454
 40
0.5454545454545454
 40
0.6363636363636364
 40
0.6363636363636364
 40
0.6363636363636364
 40
0.6363636363636364
 40
0.7272727272727273
 40
0.7272727272727273
 40
0.7272727272727273
 40
0.7272727272727273
 40
0.8181818181818182
 40
0.8181818181818182
 40
0.8181818181818182
 40
0.8181818181818182
 40
1.0
 40
1.0
 40
1.0
 40
1.0
 10
-56.6435
 20
111.5219
 30
0.0
 10
-57.193
 20
111.555
 30
0.0
 10
-57.7058
 20
111.2469
 30
0.0
 10
-57.9338
 20
110.7457
 30
0.0
 10
-57.9338
 20
110.7457
 30
0.0
 10
-58.2072
 20
110.1458
 30
0.0
 10
-58.3887
 20
109.5082
 30
0.0
 10
-58.4723
 20
108.8542
 30
0.0
 10
-58.4723
 20
108.8542
 30
0.0
 10
-58.6386
 20
107.5517
 30
0.0
 10
-58.828
 20
106.2523
 30
0.0
 10
-59.0401
 20
104.9565
 30
0.0
 10
-59.0401
 20
104.9565
 30
0.0
 10
-59.2527
 20
103.6585
 30
0.0
 10
-59.3585
 20
102.3457
 30
0.0
 10
-59.3568
 20
101.0305
 30
0.0
 10
-59.3568
 20
101.0305
 30
0.0
 10
-59.3561
 20
100.3768
 30
0.0
 10
-59.3475
 20
99.7233
 30
0.0
 10
-59.3314
 20
99.0702
 30
0.0
 10
-59.3314
 20
99.0702
 30
0.0
 10
-59.315
 20
98.4167
 30
0.0
 10
-59.3195
 20
97.763
 30
0.0
 10
-59.3442
 20
97.1098
 30
0.0
 10
-59.3442
 20
97.1098
 30
0.0
 10
-59.32
 20
96.2094
 30
0.0
 10
-59.2296
 20
95.3121
 30
0.0
 10
-59.0741
 20
94.4248
 30
0.0
 10
-59.0741
 20
94.4248
 30
0.0
 10
-58.7723
 20
92.704
 30
0.0
 10
-58.5058
 20
90.9768
 30
0.0
 10
-58.2743
 20
89.2451
 30
0.0
 10
-58.2743
 20
89.2451
 30
0.0
 10
-58.1444
 20
88.2752
 30
0.0
 10
-57.5305
 20
87.4387
 30
0.0
 10
-56.6435
 20
87.0252
 30
0.0
 10
-56.6435
 20
87.0252
 30
0.0
 10
-56.6435
 20
87.0252
 30
0.0
 10
-56.6435
 20
111.5219
 30
0.0
 10
-56.6435
 20
111.5219
 30
0.0
  0
ENDSEC
  0
SECTION
  2
OBJECTS
  0
DICTIONARY
  5
C
330
0
100
AcDbDictionary
281
     1
  3
ACAD_GROUP
350
D
  3
ACAD_LAYOUT
350
1A
  3
ACAD_MATERIAL
350
3B
  3
ACAD_MLEADERSTYLE
350
8E
  3
ACAD_MLINESTYLE
350
17
  3
ACAD_PLOTSETTINGS
350
19
  3
ACAD_PLOTSTYLENAME
350
E
  3
ACAD_TABLESTYLE
350
8D
  3
ACAD_VISUALSTYLE
350
2A
  0
DICTIONARY
  5
D
102
{ACAD_REACTORS
330
C
102
}
330
C
100
AcDbDictionary
281
     1
  0
DICTIONARY
  5
1A
102
{ACAD_REACTORS
330
C
102
}
330
C
100
AcDbDictionary
281
     1
  3
Layout1
350
1E
  3
Layout2
350
26
  3
Model
350
22
  0
DICTIONARY
  5
3B
102
{ACAD_REACTORS
330
C
102
}
330
C
100
AcDbDictionary
281
     1
  3
ByBlock
350
3D
  3
ByLayer
350
3C
  3
Global
350
3E
  0
DICTIONARY
  5
8E
102
{ACAD_REACTORS
330
C
102
}
330
C
100
AcDbDictionary
281
     1
  0
DICTIONARY
  5
17
102
{ACAD_REACTORS
330
C
102
}
330
C
100
AcDbDictionary
281
     1
  3
Standard
350
18
  0
DICTIONARY
  5
19
102
{ACAD_REACTORS
330
C
102
}
330
C
100
AcDbDictionary
281
     1
  0
ACDBDICTIONARYWDFLT
  5
E
102
{ACAD_REACTORS
330
C
102
}
330
C
100
AcDbDictionary
281
     1
  3
Normal
350
F
100
AcDbDictionaryWithDefault
340
F
  0
DICTIONARY
  5
8D
102
{ACAD_REACTORS
330
C
102
}
330
C
100
AcDbDictionary
281
     1
  0
DICTIONARY
  5
2A
102
{ACAD_REACTORS
330
C
102
}
330
C
100
AcDbDictionary
281
     1
  3
2dWireframe
350
2F
  3
3D Hidden
350
31
  3
3dWireframe
350
30
  3
Basic
350
32
  3
Brighten
350
36
  3
ColorChange
350
3A
  3
Conceptual
350
34
  3
Dim
350
35
  3
Facepattern
350
39
  3
Flat
350
2B
  3
FlatWithEdges
350
2C
  3
Gouraud
350
2D
  3
GouraudWithEdges
350
2E
  3
Linepattern
350
38
  3
Realistic
350
33
  3
Thicken
350
37
  0
LAYOUT
  5
1E
102
{ACAD_REACTORS
330
1A
102
}
330
1A
100
AcDbPlotSettings
  1

  2
none_device
  4

  6

 40
0.0
 41
0.0
 42
0.0
 43
0.0
 44
0.0
 45
0.0
 46
0.0
 47
0.0
 48
0.0
 49
0.0
140
0.0
141
0.0
142
1.0
143
1.0
 70
   688
 72
     0
 73
     0
 74
     5
  7

 75
    16
 76
     0
 77
     2
 78
   300
147
1.0
148
0.0
149
0.0
100
AcDbLayout
  1
Layout1
 70
     1
 71
     1
 10
0.0
 20
0.0
 11
12.0
 21
9.0
 12
0.0
 22
0.0
 32
0.0
 14
1.000000000000000E+20
 24
1.000000000000000E+20
 34
1.000000000000000E+20
 15
-1.000000000000000E+20
 25
-1.000000000000000E+20
 35
-1.000000000000000E+20
146
0.0
 13
0.0
 23
0.0
 33
0.0
 16
1.0
 26
0.0
 36
0.0
 17
0.0
 27
1.0
 37
0.0
 76
     0
330
1B
  0
LAYOUT
  5
26
102
{ACAD_REACTORS
330
1A
102
}
330
1A
100
AcDbPlotSettings
  1

  2
none_device
  4

  6

 40
0.0
 41
0.0
 42
0.0
 43
0.0
 44
0.0
 45
0.0
 46
0.0
 47
0.0
 48
0.0
 49
0.0
140
0.0
141
0.0
142
1.0
143
1.0
 70
   688
 72
     0
 73
     0
 74
     5
  7

 75
    16
 76
     0
 77
     2
 78
   300
147
1.0
148
0.0
149
0.0
100
AcDbLayout
  1
Layout2
 70
     1
 71
     2
 10
0.0
 20
0.0
 11
0.0
 21
0.0
 12
0.0
 22
0.0
 32
0.0
 14
0.0
 24
0.0
 34
0.0
 15
0.0
 25
0.0
 35
0.0
146
0.0
 13
0.0
 23
0.0
 33
0.0
 16
1.0
 26
0.0
 36
0.0
 17
0.0
 27
1.0
 37
0.0
 76
     0
330
23
  0
LAYOUT
  5
22
102
{ACAD_REACTORS
330
1A
102
}
330
1A
100
AcDbPlotSettings
  1

  2
none_device
  4

  6

 40
0.0
 41
0.0
 42
0.0
 43
0.0
 44
0.0
 45
0.0
 46
0.0
 47
0.0
 48
0.0
 49
0.0
140
0.0
141
0.0
142
1.0
143
1.0
 70
  1712
 72
     0
 73
     0
 74
     0
  7

 75
     0
 76
     0
 77
     2
 78
   300
147
1.0
148
0.0
149
0.0
100
AcDbLayout
  1
Model
 70
     1
 71
     0
 10
0.0
 20
0.0
 11
12.0
 21
9.0
 12
0.0
 22
0.0
 32
0.0
 14
-187.2151
 24
-99.5913
 34
0.0
 15
-44.7175
 25
123.7834
 35
0.0
146
0.0
 13
0.0
 23
0.0
 33
0.0
 16
1.0
 26
0.0
 36
0.0
 17
0.0
 27
1.0
 37
0.0
 76
     0
330
1F
331
29
  0
MATERIAL
  5
3D
102
{ACAD_REACTORS
330
3B
102
}
330
3B
100
AcDbMaterial
  1
ByBlock
 72
     1
 94
      127
  0
MATERIAL
  5
3C
102
{ACAD_REACTORS
330
3B
102
}
330
3B
100
AcDbMaterial
  1
ByLayer
 72
     1
 94
      127
  0
MATERIAL
  5
3E
102
{ACAD_REACTORS
330
3B
102
}
330
3B
100
AcDbMaterial
  1
Global
 72
     1
 94
      127
  0
MLINESTYLE
  5
18
102
{ACAD_REACTORS
330
17
102
}
330
17
100
AcDbMlineStyle
  2
Standard
 70
     0
  3

 62
   256
 51
90.0
 52
90.0
 71
     2
 49
0.5
 62
   256
  6
BYLAYER
 49
-0.5
 62
   256
  6
BYLAYER
  0
ACDBPLACEHOLDER
  5
F
102
{ACAD_REACTORS
330
E
102
}
330
E
  0
VISUALSTYLE
  5
2F
102
{ACAD_REACTORS
330
2A
102
}
102
{ACAD_XDICTIONARY
360
75
102
}
330
2A
100
AcDbVisualStyle
  2
2dWireframe
 70
     4
 71
     0
 72
     2
 73
     0
 90
        0
 40
-0.6
 41
-30.0
 62
     5
 63
     7
421
 16777215
 74
     1
 91
        4
 64
     7
 65
   257
 75
     1
175
     1
 42
1.0
 92
        0
 66
   257
 43
1.0
 76
     1
 77
     6
 78
     2
 67
     7
 79
     5
170
     0
171
     0
290
     0
174
     0
 93
        1
 44
0.0
173
     0
291
     0
 45
0.0
  0
VISUALSTYLE
  5
31
102
{ACAD_REACTORS
330
2A
102
}
102
{ACAD_XDICTIONARY
360
79
102
}
330
2A
100
AcDbVisualStyle
  2
3D Hidden
 70
     6
 71
     1
 72
     2
 73
     2
 90
        0
 40
-0.6
 41
-30.0
 62
     5
 63
     7
421
 16777215
 74
     2
 91
        2
 64
     7
 65
   257
 75
     2
175
     1
 42
40.0
 92
        0
 66
   257
 43
1.0
 76
     1
 77
     6
 78
     2
 67
     7
 79
     3
170
     0
171
     0
290
     0
174
     0
 93
        1
 44
0.0
173
     0
291
     0
 45
0.0
  0
VISUALSTYLE
  5
30
102
{ACAD_REACTORS
330
2A
102
}
102
{ACAD_XDICTIONARY
360
77
102
}
330
2A
100
AcDbVisualStyle
  2
3dWireframe
 70
     5
 71
     0
 72
     2
 73
     0
 90
        0
 40
-0.6
 41
-30.0
 62
     5
 63
     7
421
 16777215
 74
     1
 91
        4
 64
     7
 65
   257
 75
     1
175
     1
 42
1.0
 92
        0
 66
   257
 43
1.0
 76
     1
 77
     6
 78
     2
 67
     7
 79
     5
170
     0
171
     0
290
     0
174
     0
 93
        1
 44
0.0
173
     0
291
     0
 45
0.0
  0
VISUALSTYLE
  5
32
102
{ACAD_REACTORS
330
2A
102
}
102
{ACAD_XDICTIONARY
360
7B
102
}
330
2A
100
AcDbVisualStyle
  2
Basic
 70
     7
 71
     1
 72
     0
 73
     1
 90
        0
 40
-0.6
 41
-30.0
 62
     5
 63
     7
421
 16777215
 74
     0
 91
        4
 64
     7
 65
   257
 75
     1
175
     1
 42
1.0
 92
        8
 66
     7
 43
1.0
 76
     1
 77
     6
 78
     2
 67
     7
 79
     5
170
     0
171
     0
290
     0
174
     0
 93
        1
 44
0.0
173
     0
291
     1
 45
0.0
  0
VISUALSTYLE
  5
36
102
{ACAD_REACTORS
330
2A
102
}
102
{ACAD_XDICTIONARY
360
83
102
}
330
2A
100
AcDbVisualStyle
  2
Brighten
 70
    12
 71
     2
 72
     2
 73
     0
 90
        0
 40
-0.6
 41
-30.0
 62
     5
 63
     7
421
 16777215
 74
     1
 91
        4
 64
     7
 65
   257
 75
     1
175
     1
 42
1.0
 92
        8
 66
     7
 43
1.0
 76
     1
 77
     6
 78
     2
 67
     7
 79
     5
170
     0
171
     0
290
     0
174
     0
 93
        1
 44
50.0
173
     0
291
     1
 45
0.0
  0
VISUALSTYLE
  5
3A
102
{ACAD_REACTORS
330
2A
102
}
102
{ACAD_XDICTIONARY
360
8B
102
}
330
2A
100
AcDbVisualStyle
  2
ColorChange
 70
    16
 71
     2
 72
     2
 73
     3
 90
        0
 40
-0.6
 41
-30.0
 62
     5
 63
     8
421
  8421504
 74
     1
 91
        4
 64
     7
 65
   257
 75
     1
175
     1
 42
1.0
 92
        8
 66
     8
424
  8421504
 43
1.0
 76
     1
 77
     6
 78
     2
 67
     7
 79
     5
170
     0
171
     0
290
     0
174
     0
 93
        1
 44
0.0
173
     0
291
     1
 45
0.0
  0
VISUALSTYLE
  5
34
102
{ACAD_REACTORS
330
2A
102
}
102
{ACAD_XDICTIONARY
360
7F
102
}
330
2A
100
AcDbVisualStyle
  2
Conceptual
 70
     9
 71
     3
 72
     2
 73
     0
 90
        0
 40
-0.6
 41
-30.0
 62
     5
 63
     7
421
 16777215
 74
     2
 91
        2
 64
     7
 65
   257
 75
     1
175
     1
 42
40.0
 92
        8
 66
     7
 43
1.0
 76
     1
 77
     6
 78
     2
 67
     7
 79
     3
170
     0
171
     0
290
     0
174
     0
 93
        1
 44
0.0
173
     0
291
     0
 45
0.0
  0
VISUALSTYLE
  5
35
102
{ACAD_REACTORS
330
2A
102
}
102
{ACAD_XDICTIONARY
360
81
102
}
330
2A
100
AcDbVisualStyle
  2
Dim
 70
    11
 71
     2
 72
     2
 73
     0
 90
        0
 40
-0.6
 41
-30.0
 62
     5
 63
     7
421
 16777215
 74
     1
 91
        4
 64
     7
 65
   257
 75
     1
175
     1
 42
1.0
 92
        8
 66
     7
 43
1.0
 76
     1
 77
     6
 78
     2
 67
     7
 79
     5
170
     0
171
     0
290
     0
174
     0
 93
        1
 44
-50.0
173
     0
291
     1
 45
0.0
  0
VISUALSTYLE
  5
39
102
{ACAD_REACTORS
330
2A
102
}
102
{ACAD_XDICTIONARY
360
89
102
}
330
2A
100
AcDbVisualStyle
  2
Facepattern
 70
    15
 71
     2
 72
     2
 73
     0
 90
        0
 40
-0.6
 41
-30.0
 62
     5
 63
     7
421
 16777215
 74
     1
 91
        4
 64
     7
 65
   257
 75
     1
175
     1
 42
1.0
 92
        8
 66
     7
 43
1.0
 76
     1
 77
     6
 78
     2
 67
     7
 79
     5
170
     0
171
     0
290
     0
174
     0
 93
        1
 44
0.0
173
     0
291
     1
 45
0.0
  0
VISUALSTYLE
  5
2B
102
{ACAD_REACTORS
330
2A
102
}
102
{ACAD_XDICTIONARY
360
6D
102
}
330
2A
100
AcDbVisualStyle
  2
Flat
 70
     0
 71
     2
 72
     1
 73
     1
 90
        2
 40
-0.6
 41
30.0
 62
     5
 63
     7
421
 16777215
 74
     0
 91
        4
 64
     7
 65
   257
 75
     1
175
     1
 42
1.0
 92
        8
 66
     7
 43
1.0
 76
     1
 77
     6
 78
     2
 67
     7
 79
     5
170
     0
171
     0
290
     0
174
     0
 93
       13
 44
0.0
173
     0
291
     1
 45
0.0
  0
VISUALSTYLE
  5
2C
102
{ACAD_REACTORS
330
2A
102
}
102
{ACAD_XDICTIONARY
360
6F
102
}
330
2A
100
AcDbVisualStyle
  2
FlatWithEdges
 70
     1
 71
     2
 72
     1
 73
     1
 90
        2
 40
-0.6
 41
30.0
 62
     5
 63
     7
421
 16777215
 74
     1
 91
        4
 64
     7
 65
   257
 75
     1
175
     1
 42
1.0
 92
        0
 66
   257
 43
1.0
 76
     1
 77
     6
 78
     2
 67
     7
 79
     5
170
     0
171
     0
290
     0
174
     0
 93
       13
 44
0.0
173
     0
291
     1
 45
0.0
  0
VISUALSTYLE
  5
2D
102
{ACAD_REACTORS
330
2A
102
}
102
{ACAD_XDICTIONARY
360
71
102
}
330
2A
100
AcDbVisualStyle
  2
Gouraud
 70
     2
 71
     2
 72
     2
 73
     1
 90
        2
 40
-0.6
 41
30.0
 62
     5
 63
     7
421
 16777215
 74
     0
 91
        4
 64
     7
 65
   257
 75
     1
175
     1
 42
1.0
 92
        0
 66
     7
 43
1.0
 76
     1
 77
     6
 78
     2
 67
     7
 79
     5
170
     0
171
     0
290
     0
174
     0
 93
       13
 44
0.0
173
     0
291
     1
 45
0.0
  0
VISUALSTYLE
  5
2E
102
{ACAD_REACTORS
330
2A
102
}
102
{ACAD_XDICTIONARY
360
73
102
}
330
2A
100
AcDbVisualStyle
  2
GouraudWithEdges
 70
     3
 71
     2
 72
     2
 73
     1
 90
        2
 40
-0.6
 41
30.0
 62
     5
 63
     7
421
 16777215
 74
     1
 91
        4
 64
     7
 65
   257
 75
     1
175
     1
 42
1.0
 92
        0
 66
   257
 43
1.0
 76
     1
 77
     6
 78
     2
 67
     7
 79
     5
170
     0
171
     0
290
     0
174
     0
 93
       13
 44
0.0
173
     0
291
     1
 45
0.0
  0
VISUALSTYLE
  5
38
102
{ACAD_REACTORS
330
2A
102
}
102
{ACAD_XDICTIONARY
360
87
102
}
330
2A
100
AcDbVisualStyle
  2
Linepattern
 70
    14
 71
     2
 72
     2
 73
     0
 90
        0
 40
-0.6
 41
-30.0
 62
     5
 63
     7
421
 16777215
 74
     1
 91
        4
 64
     7
 65
   257
 75
     7
175
     7
 42
1.0
 92
        8
 66
     7
 43
1.0
 76
     1
 77
     6
 78
     2
 67
     7
 79
     5
170
     0
171
     0
290
     0
174
     0
 93
        1
 44
0.0
173
     0
291
     1
 45
0.0
  0
VISUALSTYLE
  5
33
102
{ACAD_REACTORS
330
2A
102
}
102
{ACAD_XDICTIONARY
360
7D
102
}
330
2A
100
AcDbVisualStyle
  2
Realistic
 70
     8
 71
     2
 72
     2
 73
     0
 90
        0
 40
-0.6
 41
-30.0
 62
     5
 63
     7
421
 16777215
 74
     1
 91
        0
 64
     7
 65
   257
 75
     1
175
     1
 42
1.0
 92
        8
 66
     8
424
  7895160
 43
1.0
 76
     1
 77
     6
 78
     2
 67
     7
 79
     5
170
     0
171
     0
290
     0
174
     0
 93
       13
 44
0.0
173
     0
291
     0
 45
0.0
  0
VISUALSTYLE
  5
37
102
{ACAD_REACTORS
330
2A
102
}
102
{ACAD_XDICTIONARY
360
85
102
}
330
2A
100
AcDbVisualStyle
  2
Thicken
 70
    13
 71
     2
 72
     2
 73
     0
 90
        0
 40
-0.6
 41
-30.0
 62
     5
 63
     7
421
 16777215
 74
     1
 91
        4
 64
     7
 65
   257
 75
     1
175
     1
 42
1.0
 92
       12
 66
     7
 43
1.0
 76
     1
 77
     6
 78
     2
 67
     7
 79
     5
170
     0
171
     0
290
     0
174
     0
 93
        1
 44
0.0
173
     0
291
     1
 45
0.0
  0
DICTIONARY
  5
75
330
2F
100
AcDbDictionary
280
     1
281
     1
  3
ACAD_XREC_ROUNDTRIP
360
76
  0
DICTIONARY
  5
79
330
31
100
AcDbDictionary
280
     1
281
     1
  3
ACAD_XREC_ROUNDTRIP
360
7A
  0
DICTIONARY
  5
77
330
30
100
AcDbDictionary
280
     1
281
     1
  3
ACAD_XREC_ROUNDTRIP
360
78
  0
DICTIONARY
  5
7B
330
32
100
AcDbDictionary
280
     1
281
     1
  3
ACAD_XREC_ROUNDTRIP
360
7C
  0
DICTIONARY
  5
83
330
36
100
AcDbDictionary
280
     1
281
     1
  3
ACAD_XREC_ROUNDTRIP
360
84
  0
DICTIONARY
  5
8B
330
3A
100
AcDbDictionary
280
     1
281
     1
  3
ACAD_XREC_ROUNDTRIP
360
8C
  0
DICTIONARY
  5
7F
330
34
100
AcDbDictionary
280
     1
281
     1
  3
ACAD_XREC_ROUNDTRIP
360
80
  0
DICTIONARY
  5
81
330
35
100
AcDbDictionary
280
     1
281
     1
  3
ACAD_XREC_ROUNDTRIP
360
82
  0
DICTIONARY
  5
89
330
39
100
AcDbDictionary
280
     1
281
     1
  3
ACAD_XREC_ROUNDTRIP
360
8A
  0
DICTIONARY
  5
6D
330
2B
100
AcDbDictionary
280
     1
281
     1
  3
ACAD_XREC_ROUNDTRIP
360
6E
  0
DICTIONARY
  5
6F
330
2C
100
AcDbDictionary
280
     1
281
     1
  3
ACAD_XREC_ROUNDTRIP
360
70
  0
DICTIONARY
  5
71
330
2D
100
AcDbDictionary
280
     1
281
     1
  3
ACAD_XREC_ROUNDTRIP
360
72
  0
DICTIONARY
  5
73
330
2E
100
AcDbDictionary
280
     1
281
     1
  3
ACAD_XREC_ROUNDTRIP
360
74
  0
DICTIONARY
  5
87
330
38
100
AcDbDictionary
280
     1
281
     1
  3
ACAD_XREC_ROUNDTRIP
360
88
  0
DICTIONARY
  5
7D
330
33
100
AcDbDictionary
280
     1
281
     1
  3
ACAD_XREC_ROUNDTRIP
360
7E
  0
DICTIONARY
  5
85
330
37
100
AcDbDictionary
280
     1
281
     1
  3
ACAD_XREC_ROUNDTRIP
360
86
  0
XRECORD
  5
76
102
{ACAD_REACTORS
330
75
102
}
330
75
100
AcDbXrecord
280
     1
102
RTVSPropertyOp0
 70
     1
102
RTVSPropertyOp1
 70
     1
102
RTVSPropertyOp2
 70
     1
102
RTVSPropertyOp3
 70
     1
102
RTVSPropertyOp4
 70
     1
102
RTVSPropertyOp5
 70
     1
102
RTVSPropertyOp6
 70
     1
102
RTVSPropertyOp7
 70
     1
102
RTVSPropertyOp8
 70
     1
102
RTVSPropertyOp9
 70
     1
102
RTVSPropertyOp10
 70
     1
102
RTVSPropertyOp11
 70
     1
102
RTVSPropertyOp12
 70
     1
102
RTVSPropertyOp13
 70
     1
102
RTVSPropertyOp14
 70
     1
102
RTVSPropertyOp15
 70
     1
102
RTVSPropertyOp16
 70
     1
102
RTVSPropertyOp17
 70
     1
102
RTVSPropertyOp18
 70
     1
102
RTVSPropertyOp19
 70
     1
102
RTVSPropertyOp20
 70
     1
102
RTVSPropertyOp21
 70
     1
102
RTVSPropertyOp22
 70
     1
102
RTVSPropertyOp23
 70
     1
102
RTVSPropertyOp24
 70
     1
102
RTVSPropertyOp25
 70
     1
102
RTVSPropertyOp26
 70
     1
102
RTVSPropertyOp27
 70
     1
102
RTVSPropertyOp28
 70
     1
102
RTVSPropertyOp29
 70
     1
102
RTVSPropertyOp30
 70
     1
102
RTVSPropertyOp31
 70
     1
102
RTVSPropertyOp32
 70
     1
  0
XRECORD
  5
7A
102
{ACAD_REACTORS
330
79
102
}
330
79
100
AcDbXrecord
280
     1
102
RTVSPropertyOp0
 70
     1
102
RTVSPropertyOp1
 70
     1
102
RTVSPropertyOp2
 70
     1
102
RTVSPropertyOp3
 70
     1
102
RTVSPropertyOp4
 70
     1
102
RTVSPropertyOp5
 70
     1
102
RTVSPropertyOp6
 70
     1
102
RTVSPropertyOp7
 70
     1
102
RTVSPropertyOp8
 70
     1
102
RTVSPropertyOp9
 70
     1
102
RTVSPropertyOp10
 70
     1
102
RTVSPropertyOp11
 70
     1
102
RTVSPropertyOp12
 70
     1
102
RTVSPropertyOp13
 70
     1
102
RTVSPropertyOp14
 70
     1
102
RTVSPropertyOp15
 70
     1
102
RTVSPropertyOp16
 70
     1
102
RTVSPropertyOp17
 70
     1
102
RTVSPropertyOp18
 70
     1
102
RTVSPropertyOp19
 70
     1
102
RTVSPropertyOp20
 70
     1
102
RTVSPropertyOp21
 70
     1
102
RTVSPropertyOp22
 70
     1
102
RTVSPropertyOp23
 70
     1
102
RTVSPropertyOp24
 70
     1
102
RTVSPropertyOp25
 70
     1
102
RTVSPropertyOp26
 70
     1
102
RTVSPropertyOp27
 70
     1
102
RTVSPropertyOp28
 70
     1
102
RTVSPropertyOp29
 70
     1
102
RTVSPropertyOp30
 70
     1
102
RTVSPropertyOp31
 70
     1
102
RTVSPropertyOp32
 70
     1
  0
XRECORD
  5
78
102
{ACAD_REACTORS
330
77
102
}
330
77
100
AcDbXrecord
280
     1
102
RTVSPropertyOp0
 70
     1
102
RTVSPropertyOp1
 70
     1
102
RTVSPropertyOp2
 70
     1
102
RTVSPropertyOp3
 70
     1
102
RTVSPropertyOp4
 70
     1
102
RTVSPropertyOp5
 70
     1
102
RTVSPropertyOp6
 70
     1
102
RTVSPropertyOp7
 70
     1
102
RTVSPropertyOp8
 70
     1
102
RTVSPropertyOp9
 70
     1
102
RTVSPropertyOp10
 70
     1
102
RTVSPropertyOp11
 70
     1
102
RTVSPropertyOp12
 70
     1
102
RTVSPropertyOp13
 70
     1
102
RTVSPropertyOp14
 70
     1
102
RTVSPropertyOp15
 70
     1
102
RTVSPropertyOp16
 70
     1
102
RTVSPropertyOp17
 70
     1
102
RTVSPropertyOp18
 70
     1
102
RTVSPropertyOp19
 70
     1
102
RTVSPropertyOp20
 70
     1
102
RTVSPropertyOp21
 70
     1
102
RTVSPropertyOp22
 70
     1
102
RTVSPropertyOp23
 70
     1
102
RTVSPropertyOp24
 70
     1
102
RTVSPropertyOp25
 70
     1
102
RTVSPropertyOp26
 70
     1
102
RTVSPropertyOp27
 70
     1
102
RTVSPropertyOp28
 70
     1
102
RTVSPropertyOp29
 70
     1
102
RTVSPropertyOp30
 70
     1
102
RTVSPropertyOp31
 70
     1
102
RTVSPropertyOp32
 70
     1
  0
XRECORD
  5
7C
102
{ACAD_REACTORS
330
7B
102
}
330
7B
100
AcDbXrecord
280
     1
102
RTVSPropertyOp0
 70
     1
102
RTVSPropertyOp1
 70
     1
102
RTVSPropertyOp2
 70
     1
102
RTVSPropertyOp3
 70
     1
102
RTVSPropertyOp4
 70
     1
102
RTVSPropertyOp5
 70
     1
102
RTVSPropertyOp6
 70
     1
102
RTVSPropertyOp7
 70
     1
102
RTVSPropertyOp8
 70
     1
102
RTVSPropertyOp9
 70
     1
102
RTVSPropertyOp10
 70
     1
102
RTVSPropertyOp11
 70
     1
102
RTVSPropertyOp12
 70
     1
102
RTVSPropertyOp13
 70
     1
102
RTVSPropertyOp14
 70
     1
102
RTVSPropertyOp15
 70
     1
102
RTVSPropertyOp16
 70
     1
102
RTVSPropertyOp17
 70
     1
102
RTVSPropertyOp18
 70
     1
102
RTVSPropertyOp19
 70
     1
102
RTVSPropertyOp20
 70
     1
102
RTVSPropertyOp21
 70
     1
102
RTVSPropertyOp22
 70
     1
102
RTVSPropertyOp23
 70
     1
102
RTVSPropertyOp24
 70
     1
102
RTVSPropertyOp25
 70
     1
102
RTVSPropertyOp26
 70
     1
102
RTVSPropertyOp27
 70
     1
102
RTVSPropertyOp28
 70
     1
102
RTVSPropertyOp29
 70
     1
102
RTVSPropertyOp30
 70
     1
102
RTVSPropertyOp31
 70
     1
102
RTVSPropertyOp32
 70
     1
  0
XRECORD
  5
84
102
{ACAD_REACTORS
330
83
102
}
330
83
100
AcDbXrecord
280
     1
102
RTVSPropertyOp0
 70
     1
102
RTVSPropertyOp1
 70
     1
102
RTVSPropertyOp2
 70
     1
102
RTVSPropertyOp3
 70
     1
102
RTVSPropertyOp4
 70
     1
102
RTVSPropertyOp5
 70
     1
102
RTVSPropertyOp6
 70
     1
102
RTVSPropertyOp7
 70
     1
102
RTVSPropertyOp8
 70
     1
102
RTVSPropertyOp9
 70
     1
102
RTVSPropertyOp10
 70
     1
102
RTVSPropertyOp11
 70
     1
102
RTVSPropertyOp12
 70
     1
102
RTVSPropertyOp13
 70
     1
102
RTVSPropertyOp14
 70
     1
102
RTVSPropertyOp15
 70
     1
102
RTVSPropertyOp16
 70
     1
102
RTVSPropertyOp17
 70
     1
102
RTVSPropertyOp18
 70
     1
102
RTVSPropertyOp19
 70
     1
102
RTVSPropertyOp20
 70
     1
102
RTVSPropertyOp21
 70
     1
102
RTVSPropertyOp22
 70
     1
102
RTVSPropertyOp23
 70
     1
102
RTVSPropertyOp24
 70
     1
102
RTVSPropertyOp25
 70
     1
102
RTVSPropertyOp26
 70
     1
102
RTVSPropertyOp27
 70
     1
102
RTVSPropertyOp28
 70
     1
102
RTVSPropertyOp29
 70
     1
102
RTVSPropertyOp30
 70
     1
102
RTVSPropertyOp31
 70
     1
102
RTVSPropertyOp32
 70
     1
  0
XRECORD
  5
8C
102
{ACAD_REACTORS
330
8B
102
}
330
8B
100
AcDbXrecord
280
     1
102
RTVSPropertyOp0
 70
     1
102
RTVSPropertyOp1
 70
     1
102
RTVSPropertyOp2
 70
     1
102
RTVSPropertyOp3
 70
     1
102
RTVSPropertyOp4
 70
     1
102
RTVSPropertyOp5
 70
     1
102
RTVSPropertyOp6
 70
     1
102
RTVSPropertyOp7
 70
     1
102
RTVSPropertyOp8
 70
     1
102
RTVSPropertyOp9
 70
     1
102
RTVSPropertyOp10
 70
     1
102
RTVSPropertyOp11
 70
     1
102
RTVSPropertyOp12
 70
     1
102
RTVSPropertyOp13
 70
     1
102
RTVSPropertyOp14
 70
     1
102
RTVSPropertyOp15
 70
     1
102
RTVSPropertyOp16
 70
     1
102
RTVSPropertyOp17
 70
     1
102
RTVSPropertyOp18
 70
     1
102
RTVSPropertyOp19
 70
     1
102
RTVSPropertyOp20
 70
     1
102
RTVSPropertyOp21
 70
     1
102
RTVSPropertyOp22
 70
     1
102
RTVSPropertyOp23
 70
     1
102
RTVSPropertyOp24
 70
     1
102
RTVSPropertyOp25
 70
     1
102
RTVSPropertyOp26
 70
     1
102
RTVSPropertyOp27
 70
     1
102
RTVSPropertyOp28
 70
     1
102
RTVSPropertyOp29
 70
     1
102
RTVSPropertyOp30
 70
     1
102
RTVSPropertyOp31
 70
     1
102
RTVSPropertyOp32
 70
     1
  0
XRECORD
  5
80
102
{ACAD_REACTORS
330
7F
102
}
330
7F
100
AcDbXrecord
280
     1
102
RTVSPropertyOp0
 70
     1
102
RTVSPropertyOp1
 70
     1
102
RTVSPropertyOp2
 70
     1
102
RTVSPropertyOp3
 70
     1
102
RTVSPropertyOp4
 70
     1
102
RTVSPropertyOp5
 70
     1
102
RTVSPropertyOp6
 70
     1
102
RTVSPropertyOp7
 70
     1
102
RTVSPropertyOp8
 70
     1
102
RTVSPropertyOp9
 70
     1
102
RTVSPropertyOp10
 70
     1
102
RTVSPropertyOp11
 70
     1
102
RTVSPropertyOp12
 70
     1
102
RTVSPropertyOp13
 70
     1
102
RTVSPropertyOp14
 70
     1
102
RTVSPropertyOp15
 70
     1
102
RTVSPropertyOp16
 70
     1
102
RTVSPropertyOp17
 70
     1
102
RTVSPropertyOp18
 70
     1
102
RTVSPropertyOp19
 70
     1
102
RTVSPropertyOp20
 70
     1
102
RTVSPropertyOp21
 70
     1
102
RTVSPropertyOp22
 70
     1
102
RTVSPropertyOp23
 70
     1
102
RTVSPropertyOp24
 70
     1
102
RTVSPropertyOp25
 70
     1
102
RTVSPropertyOp26
 70
     1
102
RTVSPropertyOp27
 70
     1
102
RTVSPropertyOp28
 70
     1
102
RTVSPropertyOp29
 70
     1
102
RTVSPropertyOp30
 70
     1
102
RTVSPropertyOp31
 70
     1
102
RTVSPropertyOp32
 70
     1
  0
XRECORD
  5
82
102
{ACAD_REACTORS
330
81
102
}
330
81
100
AcDbXrecord
280
     1
102
RTVSPropertyOp0
 70
     1
102
RTVSPropertyOp1
 70
     1
102
RTVSPropertyOp2
 70
     1
102
RTVSPropertyOp3
 70
     1
102
RTVSPropertyOp4
 70
     1
102
RTVSPropertyOp5
 70
     1
102
RTVSPropertyOp6
 70
     1
102
RTVSPropertyOp7
 70
     1
102
RTVSPropertyOp8
 70
     1
102
RTVSPropertyOp9
 70
     1
102
RTVSPropertyOp10
 70
     1
102
RTVSPropertyOp11
 70
     1
102
RTVSPropertyOp12
 70
     1
102
RTVSPropertyOp13
 70
     1
102
RTVSPropertyOp14
 70
     1
102
RTVSPropertyOp15
 70
     1
102
RTVSPropertyOp16
 70
     1
102
RTVSPropertyOp17
 70
     1
102
RTVSPropertyOp18
 70
     1
102
RTVSPropertyOp19
 70
     1
102
RTVSPropertyOp20
 70
     1
102
RTVSPropertyOp21
 70
     1
102
RTVSPropertyOp22
 70
     1
102
RTVSPropertyOp23
 70
     1
102
RTVSPropertyOp24
 70
     1
102
RTVSPropertyOp25
 70
     1
102
RTVSPropertyOp26
 70
     1
102
RTVSPropertyOp27
 70
     1
102
RTVSPropertyOp28
 70
     1
102
RTVSPropertyOp29
 70
     1
102
RTVSPropertyOp30
 70
     1
102
RTVSPropertyOp31
 70
     1
102
RTVSPropertyOp32
 70
     1
  0
XRECORD
  5
8A
102
{ACAD_REACTORS
330
89
102
}
330
89
100
AcDbXrecord
280
     1
102
RTVSPropertyOp0
 70
     1
102
RTVSPropertyOp1
 70
     1
102
RTVSPropertyOp2
 70
     1
102
RTVSPropertyOp3
 70
     1
102
RTVSPropertyOp4
 70
     1
102
RTVSPropertyOp5
 70
     1
102
RTVSPropertyOp6
 70
     1
102
RTVSPropertyOp7
 70
     1
102
RTVSPropertyOp8
 70
     1
102
RTVSPropertyOp9
 70
     1
102
RTVSPropertyOp10
 70
     1
102
RTVSPropertyOp11
 70
     1
102
RTVSPropertyOp12
 70
     1
102
RTVSPropertyOp13
 70
     1
102
RTVSPropertyOp14
 70
     1
102
RTVSPropertyOp15
 70
     1
102
RTVSPropertyOp16
 70
     1
102
RTVSPropertyOp17
 70
     1
102
RTVSPropertyOp18
 70
     1
102
RTVSPropertyOp19
 70
     1
102
RTVSPropertyOp20
 70
     1
102
RTVSPropertyOp21
 70
     1
102
RTVSPropertyOp22
 70
     1
102
RTVSPropertyOp23
 70
     1
102
RTVSPropertyOp24
 70
     1
102
RTVSPropertyOp25
 70
     1
102
RTVSPropertyOp26
 70
     1
102
RTVSPropertyOp27
 70
     1
102
RTVSPropertyOp28
 70
     1
102
RTVSPropertyOp29
 70
     1
102
RTVSPropertyOp30
 70
     1
102
RTVSPropertyOp31
 70
     1
102
RTVSPropertyOp32
 70
     1
  0
XRECORD
  5
6E
102
{ACAD_REACTORS
330
6D
102
}
330
6D
100
AcDbXrecord
280
     1
102
RTVSPropertyOp0
 70
     1
102
RTVSPropertyOp1
 70
     1
102
RTVSPropertyOp2
 70
     1
102
RTVSPropertyOp3
 70
     1
102
RTVSPropertyOp4
 70
     1
102
RTVSPropertyOp5
 70
     1
102
RTVSPropertyOp6
 70
     1
102
RTVSPropertyOp7
 70
     1
102
RTVSPropertyOp8
 70
     1
102
RTVSPropertyOp9
 70
     1
102
RTVSPropertyOp10
 70
     1
102
RTVSPropertyOp11
 70
     1
102
RTVSPropertyOp12
 70
     1
102
RTVSPropertyOp13
 70
     1
102
RTVSPropertyOp14
 70
     1
102
RTVSPropertyOp15
 70
     1
102
RTVSPropertyOp16
 70
     1
102
RTVSPropertyOp17
 70
     1
102
RTVSPropertyOp18
 70
     1
102
RTVSPropertyOp19
 70
     1
102
RTVSPropertyOp20
 70
     1
102
RTVSPropertyOp21
 70
     1
102
RTVSPropertyOp22
 70
     1
102
RTVSPropertyOp23
 70
     1
102
RTVSPropertyOp24
 70
     1
102
RTVSPropertyOp25
 70
     1
102
RTVSPropertyOp26
 70
     1
102
RTVSPropertyOp27
 70
     1
102
RTVSPropertyOp28
 70
     1
102
RTVSPropertyOp29
 70
     1
102
RTVSPropertyOp30
 70
     1
102
RTVSPropertyOp31
 70
     1
102
RTVSPropertyOp32
 70
     1
  0
XRECORD
  5
70
102
{ACAD_REACTORS
330
6F
102
}
330
6F
100
AcDbXrecord
280
     1
102
RTVSPropertyOp0
 70
     1
102
RTVSPropertyOp1
 70
     1
102
RTVSPropertyOp2
 70
     1
102
RTVSPropertyOp3
 70
     1
102
RTVSPropertyOp4
 70
     1
102
RTVSPropertyOp5
 70
     1
102
RTVSPropertyOp6
 70
     1
102
RTVSPropertyOp7
 70
     1
102
RTVSPropertyOp8
 70
     1
102
RTVSPropertyOp9
 70
     1
102
RTVSPropertyOp10
 70
     1
102
RTVSPropertyOp11
 70
     1
102
RTVSPropertyOp12
 70
     1
102
RTVSPropertyOp13
 70
     1
102
RTVSPropertyOp14
 70
     1
102
RTVSPropertyOp15
 70
     1
102
RTVSPropertyOp16
 70
     1
102
RTVSPropertyOp17
 70
     1
102
RTVSPropertyOp18
 70
     1
102
RTVSPropertyOp19
 70
     1
102
RTVSPropertyOp20
 70
     1
102
RTVSPropertyOp21
 70
     1
102
RTVSPropertyOp22
 70
     1
102
RTVSPropertyOp23
 70
     1
102
RTVSPropertyOp24
 70
     1
102
RTVSPropertyOp25
 70
     1
102
RTVSPropertyOp26
 70
     1
102
RTVSPropertyOp27
 70
     1
102
RTVSPropertyOp28
 70
     1
102
RTVSPropertyOp29
 70
     1
102
RTVSPropertyOp30
 70
     1
102
RTVSPropertyOp31
 70
     1
102
RTVSPropertyOp32
 70
     1
  0
XRECORD
  5
72
102
{ACAD_REACTORS
330
71
102
}
330
71
100
AcDbXrecord
280
     1
102
RTVSPropertyOp0
 70
     1
102
RTVSPropertyOp1
 70
     1
102
RTVSPropertyOp2
 70
     1
102
RTVSPropertyOp3
 70
     1
102
RTVSPropertyOp4
 70
     1
102
RTVSPropertyOp5
 70
     1
102
RTVSPropertyOp6
 70
     1
102
RTVSPropertyOp7
 70
     1
102
RTVSPropertyOp8
 70
     1
102
RTVSPropertyOp9
 70
     1
102
RTVSPropertyOp10
 70
     1
102
RTVSPropertyOp11
 70
     1
102
RTVSPropertyOp12
 70
     1
102
RTVSPropertyOp13
 70
     1
102
RTVSPropertyOp14
 70
     1
102
RTVSPropertyOp15
 70
     1
102
RTVSPropertyOp16
 70
     1
102
RTVSPropertyOp17
 70
     1
102
RTVSPropertyOp18
 70
     1
102
RTVSPropertyOp19
 70
     1
102
RTVSPropertyOp20
 70
     1
102
RTVSPropertyOp21
 70
     1
102
RTVSPropertyOp22
 70
     1
102
RTVSPropertyOp23
 70
     1
102
RTVSPropertyOp24
 70
     1
102
RTVSPropertyOp25
 70
     1
102
RTVSPropertyOp26
 70
     1
102
RTVSPropertyOp27
 70
     1
102
RTVSPropertyOp28
 70
     1
102
RTVSPropertyOp29
 70
     1
102
RTVSPropertyOp30
 70
     1
102
RTVSPropertyOp31
 70
     1
102
RTVSPropertyOp32
 70
     1
  0
XRECORD
  5
74
102
{ACAD_REACTORS
330
73
102
}
330
73
100
AcDbXrecord
280
     1
102
RTVSPropertyOp0
 70
     1
102
RTVSPropertyOp1
 70
     1
102
RTVSPropertyOp2
 70
     1
102
RTVSPropertyOp3
 70
     1
102
RTVSPropertyOp4
 70
     1
102
RTVSPropertyOp5
 70
     1
102
RTVSPropertyOp6
 70
     1
102
RTVSPropertyOp7
 70
     1
102
RTVSPropertyOp8
 70
     1
102
RTVSPropertyOp9
 70
     1
102
RTVSPropertyOp10
 70
     1
102
RTVSPropertyOp11
 70
     1
102
RTVSPropertyOp12
 70
     1
102
RTVSPropertyOp13
 70
     1
102
RTVSPropertyOp14
 70
     1
102
RTVSPropertyOp15
 70
     1
102
RTVSPropertyOp16
 70
     1
102
RTVSPropertyOp17
 70
     1
102
RTVSPropertyOp18
 70
     1
102
RTVSPropertyOp19
 70
     1
102
RTVSPropertyOp20
 70
     1
102
RTVSPropertyOp21
 70
     1
102
RTVSPropertyOp22
 70
     1
102
RTVSPropertyOp23
 70
     1
102
RTVSPropertyOp24
 70
     1
102
RTVSPropertyOp25
 70
     1
102
RTVSPropertyOp26
 70
     1
102
RTVSPropertyOp27
 70
     1
102
RTVSPropertyOp28
 70
     1
102
RTVSPropertyOp29
 70
     1
102
RTVSPropertyOp30
 70
     1
102
RTVSPropertyOp31
 70
     1
102
RTVSPropertyOp32
 70
     1
  0
XRECORD
  5
88
102
{ACAD_REACTORS
330
87
102
}
330
87
100
AcDbXrecord
280
     1
102
RTVSPropertyOp0
 70
     1
102
RTVSPropertyOp1
 70
     1
102
RTVSPropertyOp2
 70
     1
102
RTVSPropertyOp3
 70
     1
102
RTVSPropertyOp4
 70
     1
102
RTVSPropertyOp5
 70
     1
102
RTVSPropertyOp6
 70
     1
102
RTVSPropertyOp7
 70
     1
102
RTVSPropertyOp8
 70
     1
102
RTVSPropertyOp9
 70
     1
102
RTVSPropertyOp10
 70
     1
102
RTVSPropertyOp11
 70
     1
102
RTVSPropertyOp12
 70
     1
102
RTVSPropertyOp13
 70
     1
102
RTVSPropertyOp14
 70
     1
102
RTVSPropertyOp15
 70
     1
102
RTVSPropertyOp16
 70
     1
102
RTVSPropertyOp17
 70
     1
102
RTVSPropertyOp18
 70
     1
102
RTVSPropertyOp19
 70
     1
102
RTVSPropertyOp20
 70
     1
102
RTVSPropertyOp21
 70
     1
102
RTVSPropertyOp22
 70
     1
102
RTVSPropertyOp23
 70
     1
102
RTVSPropertyOp24
 70
     1
102
RTVSPropertyOp25
 70
     1
102
RTVSPropertyOp26
 70
     1
102
RTVSPropertyOp27
 70
     1
102
RTVSPropertyOp28
 70
     1
102
RTVSPropertyOp29
 70
     1
102
RTVSPropertyOp30
 70
     1
102
RTVSPropertyOp31
 70
     1
102
RTVSPropertyOp32
 70
     1
  0
XRECORD
  5
7E
102
{ACAD_REACTORS
330
7D
102
}
330
7D
100
AcDbXrecord
280
     1
102
RTVSPropertyOp0
 70
     1
102
RTVSPropertyOp1
 70
     1
102
RTVSPropertyOp2
 70
     1
102
RTVSPropertyOp3
 70
     1
102
RTVSPropertyOp4
 70
     1
102
RTVSPropertyOp5
 70
     1
102
RTVSPropertyOp6
 70
     1
102
RTVSPropertyOp7
 70
     1
102
RTVSPropertyOp8
 70
     1
102
RTVSPropertyOp9
 70
     1
102
RTVSPropertyOp10
 70
     1
102
RTVSPropertyOp11
 70
     1
102
RTVSPropertyOp12
 70
     1
102
RTVSPropertyOp13
 70
     1
102
RTVSPropertyOp14
 70
     1
102
RTVSPropertyOp15
 70
     1
102
RTVSPropertyOp16
 70
     1
102
RTVSPropertyOp17
 70
     1
102
RTVSPropertyOp18
 70
     1
102
RTVSPropertyOp19
 70
     1
102
RTVSPropertyOp20
 70
     1
102
RTVSPropertyOp21
 70
     1
102
RTVSPropertyOp22
 70
     1
102
RTVSPropertyOp23
 70
     1
102
RTVSPropertyOp24
 70
     1
102
RTVSPropertyOp25
 70
     1
102
RTVSPropertyOp26
 70
     1
102
RTVSPropertyOp27
 70
     1
102
RTVSPropertyOp28
 70
     1
102
RTVSPropertyOp29
 70
     1
102
RTVSPropertyOp30
 70
     1
102
RTVSPropertyOp31
 70
     1
102
RTVSPropertyOp32
 70
     1
  0
XRECORD
  5
86
102
{ACAD_REACTORS
330
85
102
}
330
85
100
AcDbXrecord
280
     1
102
RTVSPropertyOp0
 70
     1
102
RTVSPropertyOp1
 70
     1
102
RTVSPropertyOp2
 70
     1
102
RTVSPropertyOp3
 70
     1
102
RTVSPropertyOp4
 70
     1
102
RTVSPropertyOp5
 70
     1
102
RTVSPropertyOp6
 70
     1
102
RTVSPropertyOp7
 70
     1
102
RTVSPropertyOp8
 70
     1
102
RTVSPropertyOp9
 70
     1
102
RTVSPropertyOp10
 70
     1
102
RTVSPropertyOp11
 70
     1
102
RTVSPropertyOp12
 70
     1
102
RTVSPropertyOp13
 70
     1
102
RTVSPropertyOp14
 70
     1
102
RTVSPropertyOp15
 70
     1
102
RTVSPropertyOp16
 70
     1
102
RTVSPropertyOp17
 70
     1
102
RTVSPropertyOp18
 70
     1
102
RTVSPropertyOp19
 70
     1
102
RTVSPropertyOp20
 70
     1
102
RTVSPropertyOp21
 70
     1
102
RTVSPropertyOp22
 70
     1
102
RTVSPropertyOp23
 70
     1
102
RTVSPropertyOp24
 70
     1
102
RTVSPropertyOp25
 70
     1
102
RTVSPropertyOp26
 70
     1
102
RTVSPropertyOp27
 70
     1
102
RTVSPropertyOp28
 70
     1
102
RTVSPropertyOp29
 70
     1
102
RTVSPropertyOp30
 70
     1
102
RTVSPropertyOp31
 70
     1
102
RTVSPropertyOp32
 70
     1
  0
ENDSEC
  0
EOF
