  0
SECTION
  2
HEADER
  9
$ACADVER
  1
AC1021
  9
$ACADMAINTVER
 70
    25
  9
$DWGCODEPAGE
  3
ANSI_1252
  9
$INSBASE
 10
0.0
 20
0.0
 30
0.0
  9
$EXTMIN
 10
99.5973
 20
-91.4958
 30
0.0
  9
$EXTMAX
 10
225.0357
 20
117.5083
 30
0.0
  9
$LIMMIN
 10
0.0
 20
0.0
  9
$LIMMAX
 10
12.0
 20
9.0
  9
$ORTHOMODE
 70
     0
  9
$REGENMODE
 70
     1
  9
$FILLMODE
 70
     1
  9
$QTEXTMODE
 70
     0
  9
$MIRRTEXT
 70
     1
  9
$LTSCALE
 40
1.0
  9
$ATTMODE
 70
     1
  9
$TEXTSIZE
 40
0.2
  9
$TRACEWID
 40
0.05
  9
$TEXTSTYLE
  7
Standard
  9
$CLAYER
  8
0
  9
$CELTYPE
  6
ByLayer
  9
$CECOLOR
 62
   256
  9
$CELTSCALE
 40
1.0
  9
$DISPSILH
 70
     0
  9
$DIMSCALE
 40
1.0
  9
$DIMASZ
 40
0.18
  9
$DIMEXO
 40
0.0625
  9
$DIMDLI
 40
0.38
  9
$DIMRND
 40
0.0
  9
$DIMDLE
 40
0.0
  9
$DIMEXE
 40
0.18
  9
$DIMTP
 40
0.0
  9
$DIMTM
 40
0.0
  9
$DIMTXT
 40
0.18
  9
$DIMCEN
 40
0.09
  9
$DIMTSZ
 40
0.0
  9
$DIMTOL
 70
     0
  9
$DIMLIM
 70
     0
  9
$DIMTIH
 70
     1
  9
$DIMTOH
 70
     1
  9
$DIMSE1
 70
     0
  9
$DIMSE2
 70
     0
  9
$DIMTAD
 70
     0
  9
$DIMZIN
 70
     0
  9
$DIMBLK
  1

  9
$DIMASO
 70
     1
  9
$DIMSHO
 70
     1
  9
$DIMPOST
  1

  9
$DIMAPOST
  1

  9
$DIMALT
 70
     0
  9
$DIMALTD
 70
     2
  9
$DIMALTF
 40
25.4
  9
$DIMLFAC
 40
1.0
  9
$DIMTOFL
 70
     0
  9
$DIMTVP
 40
0.0
  9
$DIMTIX
 70
     0
  9
$DIMSOXD
 70
     0
  9
$DIMSAH
 70
     0
  9
$DIMBLK1
  1

  9
$DIMBLK2
  1

  9
$DIMSTYLE
  2
Standard
  9
$DIMCLRD
 70
     0
  9
$DIMCLRE
 70
     0
  9
$DIMCLRT
 70
     0
  9
$DIMTFAC
 40
1.0
  9
$DIMGAP
 40
0.09
  9
$DIMJUST
 70
     0
  9
$DIMSD1
 70
     0
  9
$DIMSD2
 70
     0
  9
$DIMTOLJ
 70
     1
  9
$DIMTZIN
 70
     0
  9
$DIMALTZ
 70
     0
  9
$DIMALTTZ
 70
     0
  9
$DIMUPT
 70
     0
  9
$DIMDEC
 70
     4
  9
$DIMTDEC
 70
     4
  9
$DIMALTU
 70
     2
  9
$DIMALTTD
 70
     2
  9
$DIMTXSTY
  7
Standard
  9
$DIMAUNIT
 70
     0
  9
$DIMADEC
 70
     0
  9
$DIMALTRND
 40
0.0
  9
$DIMAZIN
 70
     0
  9
$DIMDSEP
 70
    46
  9
$DIMATFIT
 70
     3
  9
$DIMFRAC
 70
     0
  9
$DIMLDRBLK
  1

  9
$DIMLUNIT
 70
     2
  9
$DIMLWD
 70
    -2
  9
$DIMLWE
 70
    -2
  9
$DIMTMOVE
 70
     0
  9
$DIMFXL
 40
1.0
  9
$DIMFXLON
 70
     0
  9
$DIMJOGANG
 40
0.7853981633974483
  9
$DIMTFILL
 70
     0
  9
$DIMTFILLCLR
 70
     0
  9
$DIMARCSYM
 70
     0
  9
$DIMLTYPE
  6

  9
$DIMLTEX1
  6

  9
$DIMLTEX2
  6

  9
$LUNITS
 70
     2
  9
$LUPREC
 70
     4
  9
$SKETCHINC
 40
0.1
  9
$FILLETRAD
 40
0.5
  9
$AUNITS
 70
     0
  9
$AUPREC
 70
     0
  9
$MENU
  1
.
  9
$ELEVATION
 40
0.0
  9
$PELEVATION
 40
0.0
  9
$THICKNESS
 40
0.0
  9
$LIMCHECK
 70
     0
  9
$CHAMFERA
 40
0.5
  9
$CHAMFERB
 40
0.5
  9
$CHAMFERC
 40
1.0
  9
$CHAMFERD
 40
0.0
  9
$SKPOLY
 70
     0
  9
$TDCREATE
 40
2458493.69922809
  9
$TDUCREATE
 40
2458493.69922809
  9
$TDUPDATE
 40
2458493.699228241
  9
$TDUUPDATE
 40
2458493.699228241
  9
$TDINDWG
 40
0.0000000116
  9
$TDUSRTIMER
 40
0.0000000116
  9
$USRTIMER
 70
     1
  9
$ANGBASE
 50
0.0
  9
$ANGDIR
 70
     0
  9
$PDMODE
 70
     0
  9
$PDSIZE
 40
0.0
  9
$PLINEWID
 40
0.0
  9
$SPLFRAME
 70
     0
  9
$SPLINETYPE
 70
     6
  9
$SPLINESEGS
 70
     8
  9
$HANDSEED
  5
B6
  9
$SURFTAB1
 70
     6
  9
$SURFTAB2
 70
     6
  9
$SURFTYPE
 70
     6
  9
$SURFU
 70
     6
  9
$SURFV
 70
     6
  9
$UCSBASE
  2

  9
$UCSNAME
  2

  9
$UCSORG
 10
0.0
 20
0.0
 30
0.0
  9
$UCSXDIR
 10
1.0
 20
0.0
 30
0.0
  9
$UCSYDIR
 10
0.0
 20
1.0
 30
0.0
  9
$UCSORTHOREF
  2

  9
$UCSORTHOVIEW
 70
     0
  9
$UCSORGTOP
 10
0.0
 20
0.0
 30
0.0
  9
$UCSORGBOTTOM
 10
0.0
 20
0.0
 30
0.0
  9
$UCSORGLEFT
 10
0.0
 20
0.0
 30
0.0
  9
$UCSORGRIGHT
 10
0.0
 20
0.0
 30
0.0
  9
$UCSORGFRONT
 10
0.0
 20
0.0
 30
0.0
  9
$UCSORGBACK
 10
0.0
 20
0.0
 30
0.0
  9
$PUCSBASE
  2

  9
$PUCSNAME
  2

  9
$PUCSORG
 10
0.0
 20
0.0
 30
0.0
  9
$PUCSXDIR
 10
1.0
 20
0.0
 30
0.0
  9
$PUCSYDIR
 10
0.0
 20
1.0
 30
0.0
  9
$PUCSORTHOREF
  2

  9
$PUCSORTHOVIEW
 70
     0
  9
$PUCSORGTOP
 10
0.0
 20
0.0
 30
0.0
  9
$PUCSORGBOTTOM
 10
0.0
 20
0.0
 30
0.0
  9
$PUCSORGLEFT
 10
0.0
 20
0.0
 30
0.0
  9
$PUCSORGRIGHT
 10
0.0
 20
0.0
 30
0.0
  9
$PUCSORGFRONT
 10
0.0
 20
0.0
 30
0.0
  9
$PUCSORGBACK
 10
0.0
 20
0.0
 30
0.0
  9
$USERI1
 70
     0
  9
$USERI2
 70
     0
  9
$USERI3
 70
     0
  9
$USERI4
 70
     0
  9
$USERI5
 70
     0
  9
$USERR1
 40
0.0
  9
$USERR2
 40
0.0
  9
$USERR3
 40
0.0
  9
$USERR4
 40
0.0
  9
$USERR5
 40
0.0
  9
$WORLDVIEW
 70
     1
  9
$SHADEDGE
 70
     3
  9
$SHADEDIF
 70
    70
  9
$TILEMODE
 70
     1
  9
$MAXACTVP
 70
    64
  9
$PINSBASE
 10
0.0
 20
0.0
 30
0.0
  9
$PLIMCHECK
 70
     0
  9
$PEXTMIN
 10
1.000000000000000E+20
 20
1.000000000000000E+20
 30
1.000000000000000E+20
  9
$PEXTMAX
 10
-1.000000000000000E+20
 20
-1.000000000000000E+20
 30
-1.000000000000000E+20
  9
$PLIMMIN
 10
0.0
 20
0.0
  9
$PLIMMAX
 10
12.0
 20
9.0
  9
$UNITMODE
 70
     0
  9
$VISRETAIN
 70
     1
  9
$PLINEGEN
 70
     0
  9
$PSLTSCALE
 70
     1
  9
$TREEDEPTH
 70
  3020
  9
$CMLSTYLE
  2
Standard
  9
$CMLJUST
 70
     0
  9
$CMLSCALE
 40
1.0
  9
$PROXYGRAPHICS
 70
     1
  9
$MEASUREMENT
 70
     0
  9
$CELWEIGHT
370
    -1
  9
$ENDCAPS
280
     0
  9
$JOINSTYLE
280
     0
  9
$LWDISPLAY
290
     0
  9
$INSUNITS
 70
     4
  9
$HYPERLINKBASE
  1

  9
$STYLESHEET
  1

  9
$XEDIT
290
     1
  9
$CEPSNTYPE
380
     0
  9
$PSTYLEMODE
290
     1
  9
$FINGERPRINTGUID
  2
{3008A357-675A-483E-A299-5C41C9EAC4B5}
  9
$VERSIONGUID
  2
{FAEB1C32-E019-11D5-929B-00C0DF256EC4}
  9
$EXTNAMES
290
     1
  9
$PSVPSCALE
 40
0.0
  9
$OLESTARTUP
290
     0
  9
$SORTENTS
280
   127
  9
$INDEXCTL
280
     0
  9
$HIDETEXT
280
     1
  9
$XCLIPFRAME
290
     0
  9
$HALOGAP
280
     0
  9
$OBSCOLOR
 70
   257
  9
$OBSLTYPE
280
     0
  9
$INTERSECTIONDISPLAY
280
     0
  9
$INTERSECTIONCOLOR
 70
   257
  9
$DIMASSOC
280
     2
  9
$PROJECTNAME
  1

  9
$CAMERADISPLAY
290
     0
  9
$LENSLENGTH
 40
50.0
  9
$CAMERAHEIGHT
 40
0.0
  9
$STEPSPERSEC
 40
2.0
  9
$STEPSIZE
 40
6.0
  9
$3DDWFPREC
 40
2.0
  9
$PSOLWIDTH
 40
0.25
  9
$PSOLHEIGHT
 40
4.0
  9
$LOFTANG1
 40
1.570796326794897
  9
$LOFTANG2
 40
1.570796326794897
  9
$LOFTMAG1
 40
0.0
  9
$LOFTMAG2
 40
0.0
  9
$LOFTPARAM
 70
     7
  9
$LOFTNORMALS
280
     1
  9
$LATITUDE
 40
37.795
  9
$LONGITUDE
 40
-122.394
  9
$NORTHDIRECTION
 40
0.0
  9
$TIMEZONE
 70
 -8000
  9
$LIGHTGLYPHDISPLAY
280
     1
  9
$TILEMODELIGHTSYNCH
280
     1
  9
$SOLIDHIST
280
     1
  9
$SHOWHIST
280
     1
  9
$DWFFRAME
280
     2
  9
$DGNFRAME
280
     2
  9
$REALWORLDSCALE
290
     1
  9
$INTERFERECOLOR
 62
   256
  9
$CSHADOW
280
     0
  9
$SHADOWPLANELOCATION
 40
0.0
  0
ENDSEC
  0
SECTION
  2
CLASSES
  0
CLASS
  1
ACDBDICTIONARYWDFLT
  2
AcDbDictionaryWithDefault
  3
ObjectDBX Classes
 90
        0
 91
        4
280
     0
281
     0
  0
CLASS
  1
VISUALSTYLE
  2
AcDbVisualStyle
  3
ObjectDBX Classes
 90
     4095
 91
        4
280
     0
281
     0
  0
CLASS
  1
MATERIAL
  2
AcDbMaterial
  3
ObjectDBX Classes
 90
     1153
 91
        4
280
     0
281
     0
  0
ENDSEC
  0
SECTION
  2
TABLES
  0
TABLE
  2
VPORT
  5
8
330
0
100
AcDbSymbolTable
 70
     1
  0
VPORT
  5
29
330
8
100
AcDbSymbolTableRecord
100
AcDbViewportTableRecord
  2
*Active
 70
     0
 10
0.0
 20
0.0
 11
1.0
 21
1.0
 12
10.42990654205607
 22
4.5
 13
0.0
 23
0.0
 14
0.5
 24
0.5
 15
0.5
 25
0.5
 16
0.0
 26
0.0
 36
1.0
 17
0.0
 27
0.0
 37
0.0
 40
9.0
 41
1.972972972850329
 42
50.0
 43
0.0
 44
0.0
 50
0.0
 51
0.0
 71
     0
 72
   100
 73
     1
 74
     3
 75
     0
 76
     0
 77
     0
 78
     0
281
     0
 65
     1
110
0.0
120
0.0
130
0.0
111
1.0
121
0.0
131
0.0
112
0.0
122
1.0
132
0.0
 79
     0
146
0.0
 60
     3
 61
     5
292
     1
282
     1
141
0.0
142
0.0
 63
   250
  0
ENDTAB
  0
TABLE
  2
LTYPE
  5
5
330
0
100
AcDbSymbolTable
 70
     1
  0
LTYPE
  5
14
330
5
100
AcDbSymbolTableRecord
100
AcDbLinetypeTableRecord
  2
ByBlock
 70
     0
  3

 72
    65
 73
     0
 40
0.0
  0
LTYPE
  5
15
330
5
100
AcDbSymbolTableRecord
100
AcDbLinetypeTableRecord
  2
ByLayer
 70
     0
  3

 72
    65
 73
     0
 40
0.0
  0
LTYPE
  5
16
330
5
100
AcDbSymbolTableRecord
100
AcDbLinetypeTableRecord
  2
Continuous
 70
     0
  3
Solid line
 72
    65
 73
     0
 40
0.0
  0
ENDTAB
  0
TABLE
  2
LAYER
  5
2
330
0
100
AcDbSymbolTable
 70
     3
  0
LAYER
  5
10
330
2
100
AcDbSymbolTableRecord
100
AcDbLayerTableRecord
  2
0
 70
     0
 62
     7
  6
Continuous
370
    -3
390
F
347
3E
  0
LAYER
  5
40
330
2
100
AcDbSymbolTableRecord
100
AcDbLayerTableRecord
  2
layer 1
 70
     0
 62
     7
  6
Continuous
370
    -3
390
F
347
3E
  0
LAYER
  5
93
330
2
100
AcDbSymbolTableRecord
100
AcDbLayerTableRecord
  2
Master Guides
 70
     0
 62
     7
  6
Continuous
370
    -3
390
F
347
3E
  0
ENDTAB
  0
TABLE
  2
STYLE
  5
3
330
0
100
AcDbSymbolTable
 70
     1
  0
STYLE
  5
11
330
3
100
AcDbSymbolTableRecord
100
AcDbTextStyleTableRecord
  2
Standard
 70
     0
 40
0.0
 41
1.0
 50
0.0
 71
     0
 42
0.2
  3
txt
  4

  0
ENDTAB
  0
TABLE
  2
VIEW
  5
6
330
0
100
AcDbSymbolTable
 70
     0
  0
ENDTAB
  0
TABLE
  2
UCS
  5
7
330
0
100
AcDbSymbolTable
 70
     0
  0
ENDTAB
  0
TABLE
  2
APPID
  5
9
330
0
100
AcDbSymbolTable
 70
     2
  0
APPID
  5
12
330
9
100
AcDbSymbolTableRecord
100
AcDbRegAppTableRecord
  2
ACAD
 70
     0
  0
APPID
  5
3F
330
9
100
AcDbSymbolTableRecord
100
AcDbRegAppTableRecord
  2
ODA
 70
     0
  0
ENDTAB
  0
TABLE
  2
DIMSTYLE
  5
A
330
0
100
AcDbSymbolTable
 70
     1
100
AcDbDimStyleTable
  0
DIMSTYLE
105
27
330
A
100
AcDbSymbolTableRecord
100
AcDbDimStyleTableRecord
  2
Standard
 70
     0
178
     0
340
11
  0
ENDTAB
  0
TABLE
  2
BLOCK_RECORD
  5
1
330
0
100
AcDbSymbolTable
 70
     1
  0
BLOCK_RECORD
  5
1F
330
1
100
AcDbSymbolTableRecord
100
AcDbBlockTableRecord
  2
*Model_Space
340
22
 70
     0
280
     1
281
     0
  0
BLOCK_RECORD
  5
1B
330
1
100
AcDbSymbolTableRecord
100
AcDbBlockTableRecord
  2
*Paper_Space
340
1E
 70
     0
280
     1
281
     0
  0
BLOCK_RECORD
  5
23
330
1
100
AcDbSymbolTableRecord
100
AcDbBlockTableRecord
  2
*Paper_Space0
340
26
 70
     0
280
     1
281
     0
  0
ENDTAB
  0
ENDSEC
  0
SECTION
  2
BLOCKS
  0
BLOCK
  5
20
330
1F
100
AcDbEntity
  8
0
100
AcDbBlockBegin
  2
*Model_Space
 70
     0
 10
0.0
 20
0.0
 30
0.0
  3
*Model_Space
  1

  0
ENDBLK
  5
21
330
1F
100
AcDbEntity
  8
0
100
AcDbBlockEnd
  0
BLOCK
  5
1C
330
1B
100
AcDbEntity
 67
     1
  8
0
100
AcDbBlockBegin
  2
*Paper_Space
 70
     0
 10
0.0
 20
0.0
 30
0.0
  3
*Paper_Space
  1

  0
ENDBLK
  5
1D
330
1B
100
AcDbEntity
 67
     1
  8
0
100
AcDbBlockEnd
  0
BLOCK
  5
24
330
23
100
AcDbEntity
  8
0
100
AcDbBlockBegin
  2
*Paper_Space0
 70
     0
 10
0.0
 20
0.0
 30
0.0
  3
*Paper_Space0
  1

  0
ENDBLK
  5
25
330
23
100
AcDbEntity
  8
0
100
AcDbBlockEnd
  0
ENDSEC
  0
SECTION
  2
ENTITIES
  0
SPLINE
  5
41
330
1F
100
AcDbEntity
  8
layer 1
 62
   250
370
     9
100
AcDbSpline
210
0.0
220
0.0
230
1.0
 70
    11
 71
     3
 72
    20
 73
    16
 74
     0
 42
0.0000000001
 43
0.0000000001
 12
1.0
 22
0.0
 32
0.0
 13
1.0
 23
0.0
 33
0.0
 40
0.0
 40
0.0
 40
0.0
 40
0.0
 40
0.2
 40
0.2
 40
0.2
 40
0.2
 40
0.4
 40
0.4
 40
0.4
 40
0.4
 40
0.6
 40
0.6
 40
0.6
 40
0.6
 40
1.0
 40
1.0
 40
1.0
 40
1.0
 10
224.9907
 20
-91.4508
 30
0.0
 10
224.9907
 20
-91.4508
 30
0.0
 10
224.9907
 20
117.4633
 30
0.0
 10
224.9907
 20
117.4633
 30
0.0
 10
224.9907
 20
117.4633
 30
0.0
 10
224.9907
 20
117.4633
 30
0.0
 10
99.6423
 20
117.4633
 30
0.0
 10
99.6423
 20
117.4633
 30
0.0
 10
99.6423
 20
117.4633
 30
0.0
 10
99.6423
 20
117.4633
 30
0.0
 10
99.6423
 20
-91.4508
 30
0.0
 10
99.6423
 20
-91.4508
 30
0.0
 10
99.6423
 20
-91.4508
 30
0.0
 10
99.6423
 20
-91.4508
 30
0.0
 10
224.9907
 20
-91.4508
 30
0.0
 10
224.9907
 20
-91.4508
 30
0.0
  0
SPLINE
  5
42
330
1F
100
AcDbEntity
  8
layer 1
 62
     7
370
     9
100
AcDbSpline
210
0.0
220
0.0
230
1.0
 70
    11
 71
     3
 72
    24
 73
    20
 74
     0
 42
0.0000000001
 43
0.0000000001
 12
1.0
 22
0.0
 32
0.0
 13
1.0
 23
0.0
 33
0.0
 40
0.0
 40
0.0
 40
0.0
 40
0.0
 40
0.1666666666666667
 40
0.1666666666666667
 40
0.1666666666666667
 40
0.1666666666666667
 40
0.3333333333333333
 40
0.3333333333333333
 40
0.3333333333333333
 40
0.3333333333333333
 40
0.5
 40
0.5
 40
0.5
 40
0.5
 40
0.6666666666666666
 40
0.6666666666666666
 40
0.6666666666666666
 40
0.6666666666666666
 40
1.0
 40
1.0
 40
1.0
 40
1.0
 10
221.0922
 20
11.0545
 30
0.0
 10
220.056
 20
11.0545
 30
0.0
 10
219.2109
 20
11.9138
 30
0.0
 10
219.2109
 20
12.9673
 30
0.0
 10
219.2109
 20
12.9673
 30
0.0
 10
219.2109
 20
14.0211
 30
0.0
 10
220.056
 20
14.8804
 30
0.0
 10
221.0922
 20
14.8804
 30
0.0
 10
221.0922
 20
14.8804
 30
0.0
 10
221.5893
 20
14.8804
 30
0.0
 10
222.0423
 20
14.6824
 30
0.0
 10
222.3793
 20
14.3602
 30
0.0
 10
222.3793
 20
14.3602
 30
0.0
 10
222.3793
 20
14.3602
 30
0.0
 10
222.3793
 20
11.5747
 30
0.0
 10
222.3793
 20
11.5747
 30
0.0
 10
222.3793
 20
11.5747
 30
0.0
 10
222.0423
 20
11.2525
 30
0.0
 10
221.5893
 20
11.0545
 30
0.0
 10
221.0922
 20
11.0545
 30
0.0
  0
SPLINE
  5
43
330
1F
100
AcDbEntity
  8
layer 1
 62
     7
370
     9
100
AcDbSpline
210
0.0
220
0.0
230
1.0
 70
    11
 71
     3
 72
    76
 73
    72
 74
     0
 42
0.0000000001
 43
0.0000000001
 12
1.0
 22
0.0
 32
0.0
 13
1.0
 23
0.0
 33
0.0
 40
0.0
 40
0.0
 40
0.0
 40
0.0
 40
0.0526315789473684
 40
0.0526315789473684
 40
0.0526315789473684
 40
0.0526315789473684
 40
0.1052631578947368
 40
0.1052631578947368
 40
0.1052631578947368
 40
0.1052631578947368
 40
0.1578947368421053
 40
0.1578947368421053
 40
0.1578947368421053
 40
0.1578947368421053
 40
0.2105263157894737
 40
0.2105263157894737
 40
0.2105263157894737
 40
0.2105263157894737
 40
0.2631578947368421
 40
0.2631578947368421
 40
0.2631578947368421
 40
0.2631578947368421
 40
0.3157894736842105
 40
0.3157894736842105
 40
0.3157894736842105
 40
0.3157894736842105
 40
0.3684210526315789
 40
0.3684210526315789
 40
0.3684210526315789
 40
0.3684210526315789
 40
0.4210526315789473
 40
0.4210526315789473
 40
0.4210526315789473
 40
0.4210526315789473
 40
0.4736842105263158
 40
0.4736842105263158
 40
0.4736842105263158
 40
0.4736842105263158
 40
0.5263157894736842
 40
0.5263157894736842
 40
0.5263157894736842
 40
0.5263157894736842
 40
0.5789473684210527
 40
0.5789473684210527
 40
0.5789473684210527
 40
0.5789473684210527
 40
0.631578947368421
 40
0.631578947368421
 40
0.631578947368421
 40
0.631578947368421
 40
0.6842105263157895
 40
0.6842105263157895
 40
0.6842105263157895
 40
0.6842105263157895
 40
0.7368421052631579
 40
0.7368421052631579
 40
0.7368421052631579
 40
0.7368421052631579
 40
0.7894736842105263
 40
0.7894736842105263
 40
0.7894736842105263
 40
0.7894736842105263
 40
0.8421052631578947
 40
0.8421052631578947
 40
0.8421052631578947
 40
0.8421052631578947
 40
0.8947368421052632
 40
0.8947368421052632
 40
0.8947368421052632
 40
0.8947368421052632
 40
1.0
 40
1.0
 40
1.0
 40
1.0
 10
102.2537
 20
0.1985
 30
0.0
 10
102.8863
 20
0.4789
 30
0.0
 10
103.8648
 20
1.0178
 30
0.0
 10
104.9319
 20
1.9921
 30
0.0
 10
104.9319
 20
1.9921
 30
0.0
 10
106.7685
 20
3.6687
 30
0.0
 10
105.5879
 20
3.9268
 30
0.0
 10
108.4738
 20
4.9584
 30
0.0
 10
108.4738
 20
4.9584
 30
0.0
 10
111.3594
 20
5.9902
 30
0.0
 10
110.2446
 20
3.0883
 30
0.0
 10
110.2446
 20
3.0883
 30
0.0
 10
110.2446
 20
3.0883
 30
0.0
 10
110.2446
 20
3.0883
 30
0.0
 10
108.8671
 20
1.3471
 30
0.0
 10
108.8671
 20
1.3471
 30
0.0
 10
108.8671
 20
1.3471
 30
0.0
 10
108.8671
 20
1.3471
 30
0.0
 10
112.1396
 20
-0.9795
 30
0.0
 10
114.3719
 20
1.661
 30
0.0
 10
114.3719
 20
1.661
 30
0.0
 10
116.6045
 20
4.3018
 30
0.0
 10
114.8521
 20
5.8702
 30
0.0
 10
113.9172
 20
6.5706
 30
0.0
 10
113.9172
 20
6.5706
 30
0.0
 10
112.9823
 20
7.2713
 30
0.0
 10
111.4249
 20
7.6024
 30
0.0
 10
111.4249
 20
7.6024
 30
0.0
 10
111.4249
 20
7.6024
 30
0.0
 10
111.4249
 20
7.6024
 30
0.0
 10
113.5239
 20
7.9892
 30
0.0
 10
113.5239
 20
7.9892
 30
0.0
 10
113.5239
 20
7.9892
 30
0.0
 10
114.7469
 20
8.2148
 30
0.0
 10
118.5739
 20
4.8294
 30
0.0
 10
118.5739
 20
4.8294
 30
0.0
 10
118.5739
 20
4.8294
 30
0.0
 10
118.5739
 20
4.8294
 30
0.0
 10
123.2304
 20
3.4754
 30
0.0
 10
125.0012
 20
5.2165
 30
0.0
 10
125.0012
 20
5.2165
 30
0.0
 10
126.772
 20
6.9577
 30
0.0
 10
128.7396
 20
7.7314
 30
0.0
 10
126.7065
 20
7.2799
 30
0.0
 10
126.7065
 20
7.2799
 30
0.0
 10
124.6733
 20
6.8285
 30
0.0
 10
122.1155
 20
8.9568
 30
0.0
 10
119.4264
 20
10.6979
 30
0.0
 10
119.4264
 20
10.6979
 30
0.0
 10
116.7373
 20
12.4391
 30
0.0
 10
112.4073
 20
10.6407
 30
0.0
 10
110.9003
 20
10.4397
 30
0.0
 10
110.9003
 20
10.4397
 30
0.0
 10
109.3933
 20
10.2391
 30
0.0
 10
107.4781
 20
7.3279
 30
0.0
 10
105.1726
 20
5.4012
 30
0.0
 10
105.1726
 20
5.4012
 30
0.0
 10
105.5179
 20
7.3202
 30
0.0
 10
106.0034
 20
7.8633
 30
0.0
 10
104.6696
 20
8.9568
 30
0.0
 10
104.6696
 20
8.9568
 30
0.0
 10
104.6696
 20
8.9568
 30
0.0
 10
102.9995
 20
7.2455
 30
0.0
 10
102.9995
 20
7.2455
 30
0.0
 10
102.9995
 20
7.2455
 30
0.0
 10
103.978
 20
5.7649
 30
0.0
 10
104.5516
 20
4.2345
 30
0.0
 10
102.2537
 20
2.0422
 30
0.0
 10
102.2537
 20
2.0422
 30
0.0
 10
102.2537
 20
2.0422
 30
0.0
 10
102.2537
 20
0.1985
 30
0.0
 10
102.2537
 20
0.1985
 30
0.0
  0
SPLINE
  5
44
330
1F
100
AcDbEntity
  8
layer 1
 62
     7
370
     9
100
AcDbSpline
210
0.0
220
0.0
230
1.0
 70
    11
 71
     3
 72
    76
 73
    72
 74
     0
 42
0.0000000001
 43
0.0000000001
 12
1.0
 22
0.0
 32
0.0
 13
1.0
 23
0.0
 33
0.0
 40
0.0
 40
0.0
 40
0.0
 40
0.0
 40
0.0526315789473684
 40
0.0526315789473684
 40
0.0526315789473684
 40
0.0526315789473684
 40
0.1052631578947368
 40
0.1052631578947368
 40
0.1052631578947368
 40
0.1052631578947368
 40
0.1578947368421053
 40
0.1578947368421053
 40
0.1578947368421053
 40
0.1578947368421053
 40
0.2105263157894737
 40
0.2105263157894737
 40
0.2105263157894737
 40
0.2105263157894737
 40
0.2631578947368421
 40
0.2631578947368421
 40
0.2631578947368421
 40
0.2631578947368421
 40
0.3157894736842105
 40
0.3157894736842105
 40
0.3157894736842105
 40
0.3157894736842105
 40
0.3684210526315789
 40
0.3684210526315789
 40
0.3684210526315789
 40
0.3684210526315789
 40
0.4210526315789473
 40
0.4210526315789473
 40
0.4210526315789473
 40
0.4210526315789473
 40
0.4736842105263158
 40
0.4736842105263158
 40
0.4736842105263158
 40
0.4736842105263158
 40
0.5263157894736842
 40
0.5263157894736842
 40
0.5263157894736842
 40
0.5263157894736842
 40
0.5789473684210527
 40
0.5789473684210527
 40
0.5789473684210527
 40
0.5789473684210527
 40
0.631578947368421
 40
0.631578947368421
 40
0.631578947368421
 40
0.631578947368421
 40
0.6842105263157895
 40
0.6842105263157895
 40
0.6842105263157895
 40
0.6842105263157895
 40
0.7368421052631579
 40
0.7368421052631579
 40
0.7368421052631579
 40
0.7368421052631579
 40
0.7894736842105263
 40
0.7894736842105263
 40
0.7894736842105263
 40
0.7894736842105263
 40
0.8421052631578947
 40
0.8421052631578947
 40
0.8421052631578947
 40
0.8421052631578947
 40
0.8947368421052632
 40
0.8947368421052632
 40
0.8947368421052632
 40
0.8947368421052632
 40
1.0
 40
1.0
 40
1.0
 40
1.0
 10
102.2537
 20
27.319
 30
0.0
 10
102.8252
 20
27.1047
 30
0.0
 10
103.9937
 20
26.5643
 30
0.0
 10
105.2941
 20
25.3771
 30
0.0
 10
105.2941
 20
25.3771
 30
0.0
 10
107.1304
 20
23.7003
 30
0.0
 10
105.9498
 20
23.4424
 30
0.0
 10
108.8357
 20
22.4106
 30
0.0
 10
108.8357
 20
22.4106
 30
0.0
 10
111.7213
 20
21.3788
 30
0.0
 10
110.6065
 20
24.2807
 30
0.0
 10
110.6065
 20
24.2807
 30
0.0
 10
110.6065
 20
24.2807
 30
0.0
 10
110.6065
 20
24.2807
 30
0.0
 10
109.2291
 20
26.0218
 30
0.0
 10
109.2291
 20
26.0218
 30
0.0
 10
109.2291
 20
26.0218
 30
0.0
 10
109.2291
 20
26.0218
 30
0.0
 10
112.5015
 20
28.3487
 30
0.0
 10
114.7341
 20
25.7079
 30
0.0
 10
114.7341
 20
25.7079
 30
0.0
 10
116.9665
 20
23.0674
 30
0.0
 10
115.214
 20
21.4991
 30
0.0
 10
114.2791
 20
20.7984
 30
0.0
 10
114.2791
 20
20.7984
 30
0.0
 10
113.3442
 20
20.0979
 30
0.0
 10
111.7871
 20
19.7668
 30
0.0
 10
111.7871
 20
19.7668
 30
0.0
 10
111.7871
 20
19.7668
 30
0.0
 10
111.7871
 20
19.7668
 30
0.0
 10
113.8858
 20
19.3797
 30
0.0
 10
113.8858
 20
19.3797
 30
0.0
 10
113.8858
 20
19.3797
 30
0.0
 10
115.1088
 20
19.1544
 30
0.0
 10
118.9359
 20
22.5395
 30
0.0
 10
118.9359
 20
22.5395
 30
0.0
 10
118.9359
 20
22.5395
 30
0.0
 10
118.9359
 20
22.5395
 30
0.0
 10
123.5923
 20
23.8939
 30
0.0
 10
125.3631
 20
22.1527
 30
0.0
 10
125.3631
 20
22.1527
 30
0.0
 10
127.1339
 20
20.4115
 30
0.0
 10
129.1015
 20
19.6379
 30
0.0
 10
127.0684
 20
20.089
 30
0.0
 10
127.0684
 20
20.089
 30
0.0
 10
125.0353
 20
20.5405
 30
0.0
 10
122.4775
 20
18.4125
 30
0.0
 10
119.7884
 20
16.6713
 30
0.0
 10
119.7884
 20
16.6713
 30
0.0
 10
117.0996
 20
14.9302
 30
0.0
 10
112.7692
 20
16.7285
 30
0.0
 10
111.2622
 20
16.9292
 30
0.0
 10
111.2622
 20
16.9292
 30
0.0
 10
109.7555
 20
17.1299
 30
0.0
 10
107.84
 20
20.041
 30
0.0
 10
105.5345
 20
21.9677
 30
0.0
 10
105.5345
 20
21.9677
 30
0.0
 10
105.8798
 20
20.049
 30
0.0
 10
106.3654
 20
19.506
 30
0.0
 10
105.0318
 20
18.4125
 30
0.0
 10
105.0318
 20
18.4125
 30
0.0
 10
105.0318
 20
18.4125
 30
0.0
 10
103.3615
 20
20.1234
 30
0.0
 10
103.3615
 20
20.1234
 30
0.0
 10
103.3615
 20
20.1234
 30
0.0
 10
104.3883
 20
21.6775
 30
0.0
 10
104.9698
 20
23.2862
 30
0.0
 10
102.2537
 20
25.657
 30
0.0
 10
102.2537
 20
25.657
 30
0.0
 10
102.2537
 20
25.657
 30
0.0
 10
102.2537
 20
27.319
 30
0.0
 10
102.2537
 20
27.319
 30
0.0
  0
SPLINE
  5
45
330
1F
100
AcDbEntity
  8
layer 1
 62
     7
370
     9
100
AcDbSpline
210
0.0
220
0.0
230
1.0
 70
    11
 71
     3
 72
    20
 73
    16
 74
     0
 42
0.0000000001
 43
0.0000000001
 12
1.0
 22
0.0
 32
0.0
 13
1.0
 23
0.0
 33
0.0
 40
0.0
 40
0.0
 40
0.0
 40
0.0
 40
0.2
 40
0.2
 40
0.2
 40
0.2
 40
0.4
 40
0.4
 40
0.4
 40
0.4
 40
0.6
 40
0.6
 40
0.6
 40
0.6
 40
1.0
 40
1.0
 40
1.0
 40
1.0
 10
134.6475
 20
-10.4797
 30
0.0
 10
133.308
 20
-10.4797
 30
0.0
 10
132.2154
 20
-9.4502
 30
0.0
 10
132.2154
 20
-8.1881
 30
0.0
 10
132.2154
 20
-8.1881
 30
0.0
 10
132.2154
 20
-6.9259
 30
0.0
 10
133.308
 20
-5.8965
 30
0.0
 10
134.6475
 20
-5.8965
 30
0.0
 10
134.6475
 20
-5.8965
 30
0.0
 10
135.987
 20
-5.8965
 30
0.0
 10
137.0796
 20
-6.9259
 30
0.0
 10
137.0796
 20
-8.1881
 30
0.0
 10
137.0796
 20
-8.1881
 30
0.0
 10
137.0796
 20
-9.4502
 30
0.0
 10
135.987
 20
-10.4797
 30
0.0
 10
134.6475
 20
-10.4797
 30
0.0
  0
SPLINE
  5
46
330
1F
100
AcDbEntity
  8
layer 1
 62
     7
370
     9
100
AcDbSpline
210
0.0
220
0.0
230
1.0
 70
    11
 71
     3
 72
    20
 73
    16
 74
     0
 42
0.0000000001
 43
0.0000000001
 12
1.0
 22
0.0
 32
0.0
 13
1.0
 23
0.0
 33
0.0
 40
0.0
 40
0.0
 40
0.0
 40
0.0
 40
0.2
 40
0.2
 40
0.2
 40
0.2
 40
0.4
 40
0.4
 40
0.4
 40
0.4
 40
0.6
 40
0.6
 40
0.6
 40
0.6
 40
1.0
 40
1.0
 40
1.0
 40
1.0
 10
133.9494
 20
29.693
 30
0.0
 10
132.6099
 20
29.693
 30
0.0
 10
131.5173
 20
30.7224
 30
0.0
 10
131.5173
 20
31.9846
 30
0.0
 10
131.5173
 20
31.9846
 30
0.0
 10
131.5173
 20
33.2467
 30
0.0
 10
132.6099
 20
34.2762
 30
0.0
 10
133.9494
 20
34.2762
 30
0.0
 10
133.9494
 20
34.2762
 30
0.0
 10
135.289
 20
34.2762
 30
0.0
 10
136.3813
 20
33.2467
 30
0.0
 10
136.3813
 20
31.9846
 30
0.0
 10
136.3813
 20
31.9846
 30
0.0
 10
136.3813
 20
30.7224
 30
0.0
 10
135.289
 20
29.693
 30
0.0
 10
133.9494
 20
29.693
 30
0.0
  0
SPLINE
  5
47
330
1F
100
AcDbEntity
  8
layer 1
 62
     7
370
     9
100
AcDbSpline
210
0.0
220
0.0
230
1.0
 70
    11
 71
     3
 72
    20
 73
    16
 74
     0
 42
0.0000000001
 43
0.0000000001
 12
1.0
 22
0.0
 32
0.0
 13
1.0
 23
0.0
 33
0.0
 40
0.0
 40
0.0
 40
0.0
 40
0.0
 40
0.2
 40
0.2
 40
0.2
 40
0.2
 40
0.4
 40
0.4
 40
0.4
 40
0.4
 40
0.6
 40
0.6
 40
0.6
 40
0.6
 40
1.0
 40
1.0
 40
1.0
 40
1.0
 10
106.6911
 20
11.3865
 30
0.0
 10
105.3516
 20
11.3865
 30
0.0
 10
104.259
 20
12.416
 30
0.0
 10
104.259
 20
13.6784
 30
0.0
 10
104.259
 20
13.6784
 30
0.0
 10
104.259
 20
14.9405
 30
0.0
 10
105.3516
 20
15.97
 30
0.0
 10
106.6911
 20
15.97
 30
0.0
 10
106.6911
 20
15.97
 30
0.0
 10
108.0306
 20
15.97
 30
0.0
 10
109.1232
 20
14.9405
 30
0.0
 10
109.1232
 20
13.6784
 30
0.0
 10
109.1232
 20
13.6784
 30
0.0
 10
109.1232
 20
12.416
 30
0.0
 10
108.0306
 20
11.3865
 30
0.0
 10
106.6911
 20
11.3865
 30
0.0
  0
SPLINE
  5
48
330
1F
100
AcDbEntity
  8
layer 1
 62
     7
370
     9
100
AcDbSpline
210
0.0
220
0.0
230
1.0
 70
    11
 71
     3
 72
    20
 73
    16
 74
     0
 42
0.0000000001
 43
0.0000000001
 12
1.0
 22
0.0
 32
0.0
 13
1.0
 23
0.0
 33
0.0
 40
0.0
 40
0.0
 40
0.0
 40
0.0
 40
0.2
 40
0.2
 40
0.2
 40
0.2
 40
0.4
 40
0.4
 40
0.4
 40
0.4
 40
0.6
 40
0.6
 40
0.6
 40
0.6
 40
1.0
 40
1.0
 40
1.0
 40
1.0
 10
169.8395
 20
48.3537
 30
0.0
 10
168.8035
 20
48.3537
 30
0.0
 10
167.9584
 20
49.213
 30
0.0
 10
167.9584
 20
50.2665
 30
0.0
 10
167.9584
 20
50.2665
 30
0.0
 10
167.9584
 20
51.3202
 30
0.0
 10
168.8035
 20
52.1796
 30
0.0
 10
169.8395
 20
52.1796
 30
0.0
 10
169.8395
 20
52.1796
 30
0.0
 10
170.8757
 20
52.1796
 30
0.0
 10
171.7208
 20
51.3202
 30
0.0
 10
171.7208
 20
50.2665
 30
0.0
 10
171.7208
 20
50.2665
 30
0.0
 10
171.7208
 20
49.213
 30
0.0
 10
170.8757
 20
48.3537
 30
0.0
 10
169.8395
 20
48.3537
 30
0.0
  0
SPLINE
  5
49
330
1F
100
AcDbEntity
  8
layer 1
 62
     7
370
     9
100
AcDbSpline
210
0.0
220
0.0
230
1.0
 70
    11
 71
     3
 72
    16
 73
    12
 74
     0
 42
0.0000000001
 43
0.0000000001
 12
1.0
 22
0.0
 32
0.0
 13
1.0
 23
0.0
 33
0.0
 40
0.0
 40
0.0
 40
0.0
 40
0.0
 40
0.25
 40
0.25
 40
0.25
 40
0.25
 40
0.5
 40
0.5
 40
0.5
 40
0.5
 40
1.0
 40
1.0
 40
1.0
 40
1.0
 10
222.3793
 20
47.8599
 30
0.0
 10
221.6617
 20
47.9571
 30
0.0
 10
220.1138
 20
50.3507
 30
0.0
 10
219.7655
 20
53.9314
 30
0.0
 10
219.7655
 20
53.9314
 30
0.0
 10
219.9546
 20
54.5085
 30
0.0
 10
221.6261
 20
54.4152
 30
0.0
 10
222.3793
 20
54.3422
 30
0.0
 10
222.3793
 20
54.3422
 30
0.0
 10
222.3793
 20
54.3422
 30
0.0
 10
222.3793
 20
47.8599
 30
0.0
 10
222.3793
 20
47.8599
 30
0.0
  0
SPLINE
  5
4A
330
1F
100
AcDbEntity
  8
layer 1
 62
     7
370
     9
100
AcDbSpline
210
0.0
220
0.0
230
1.0
 70
    11
 71
     3
 72
    24
 73
    20
 74
     0
 42
0.0000000001
 43
0.0000000001
 12
1.0
 22
0.0
 32
0.0
 13
1.0
 23
0.0
 33
0.0
 40
0.0
 40
0.0
 40
0.0
 40
0.0
 40
0.1666666666666667
 40
0.1666666666666667
 40
0.1666666666666667
 40
0.1666666666666667
 40
0.3333333333333333
 40
0.3333333333333333
 40
0.3333333333333333
 40
0.3333333333333333
 40
0.5
 40
0.5
 40
0.5
 40
0.5
 40
0.6666666666666666
 40
0.6666666666666666
 40
0.6666666666666666
 40
0.6666666666666666
 40
1.0
 40
1.0
 40
1.0
 40
1.0
 10
222.3793
 20
40.9189
 30
0.0
 10
221.6587
 20
40.9883
 30
0.0
 10
220.318
 20
40.8116
 30
0.0
 10
218.6548
 20
39.1763
 30
0.0
 10
218.6548
 20
39.1763
 30
0.0
 10
216.132
 20
36.6956
 30
0.0
 10
216.2802
 20
37.4254
 30
0.0
 10
215.835
 20
34.2148
 30
0.0
 10
215.835
 20
34.2148
 30
0.0
 10
215.3897
 20
31.0046
 30
0.0
 10
218.9518
 20
33.9232
 30
0.0
 10
219.8422
 20
35.0905
 30
0.0
 10
219.8422
 20
35.0905
 30
0.0
 10
220.2306
 20
33.1415
 30
0.0
 10
221.5404
 20
30.1382
 30
0.0
 10
222.3793
 20
28.8186
 30
0.0
 10
222.3793
 20
28.8186
 30
0.0
 10
222.3793
 20
28.8186
 30
0.0
 10
222.3793
 20
40.9189
 30
0.0
 10
222.3793
 20
40.9189
 30
0.0
  0
SPLINE
  5
4B
330
1F
100
AcDbEntity
  8
layer 1
 62
     7
370
     9
100
AcDbSpline
210
0.0
220
0.0
230
1.0
 70
    11
 71
     3
 72
    20
 73
    16
 74
     0
 42
0.0000000001
 43
0.0000000001
 12
1.0
 22
0.0
 32
0.0
 13
1.0
 23
0.0
 33
0.0
 40
0.0
 40
0.0
 40
0.0
 40
0.0
 40
0.2
 40
0.2
 40
0.2
 40
0.2
 40
0.4
 40
0.4
 40
0.4
 40
0.4
 40
0.6
 40
0.6
 40
0.6
 40
0.6
 40
1.0
 40
1.0
 40
1.0
 40
1.0
 10
197.9826
 20
27.6169
 30
0.0
 10
196.3772
 20
27.6169
 30
0.0
 10
195.0679
 20
28.8506
 30
0.0
 10
195.0679
 20
30.3632
 30
0.0
 10
195.0679
 20
30.3632
 30
0.0
 10
195.0679
 20
31.8758
 30
0.0
 10
196.3772
 20
33.1095
 30
0.0
 10
197.9826
 20
33.1095
 30
0.0
 10
197.9826
 20
33.1095
 30
0.0
 10
199.5877
 20
33.1095
 30
0.0
 10
200.897
 20
31.8758
 30
0.0
 10
200.897
 20
30.3632
 30
0.0
 10
200.897
 20
30.3632
 30
0.0
 10
200.897
 20
28.8506
 30
0.0
 10
199.5877
 20
27.6169
 30
0.0
 10
197.9826
 20
27.6169
 30
0.0
  0
SPLINE
  5
4C
330
1F
100
AcDbEntity
  8
layer 1
 62
     7
370
     9
100
AcDbSpline
210
0.0
220
0.0
230
1.0
 70
    11
 71
     3
 72
    20
 73
    16
 74
     0
 42
0.0000000001
 43
0.0000000001
 12
1.0
 22
0.0
 32
0.0
 13
1.0
 23
0.0
 33
0.0
 40
0.0
 40
0.0
 40
0.0
 40
0.0
 40
0.2
 40
0.2
 40
0.2
 40
0.2
 40
0.4
 40
0.4
 40
0.4
 40
0.4
 40
0.6
 40
0.6
 40
0.6
 40
0.6
 40
1.0
 40
1.0
 40
1.0
 40
1.0
 10
222.3793
 20
67.3671
 30
0.0
 10
221.6934
 20
67.2335
 30
0.0
 10
219.5313
 20
67.0141
 30
0.0
 10
217.9049
 20
69.089
 30
0.0
 10
217.9049
 20
69.089
 30
0.0
 10
215.9467
 20
71.5872
 30
0.0
 10
217.0147
 20
73.433
 30
0.0
 10
217.8562
 20
74.3558
 30
0.0
 10
217.8562
 20
74.3558
 30
0.0
 10
219.3721
 20
75.7125
 30
0.0
 10
221.6676
 20
75.5972
 30
0.0
 10
222.3793
 20
74.1774
 30
0.0
 10
222.3793
 20
74.1774
 30
0.0
 10
222.3793
 20
74.1774
 30
0.0
 10
222.3793
 20
67.3671
 30
0.0
 10
222.3793
 20
67.3671
 30
0.0
  0
SPLINE
  5
4D
330
1F
100
AcDbEntity
  8
layer 1
 62
     7
370
     9
100
AcDbSpline
210
0.0
220
0.0
230
1.0
 70
    11
 71
     3
 72
    20
 73
    16
 74
     0
 42
0.0000000001
 43
0.0000000001
 12
1.0
 22
0.0
 32
0.0
 13
1.0
 23
0.0
 33
0.0
 40
0.0
 40
0.0
 40
0.0
 40
0.0
 40
0.2
 40
0.2
 40
0.2
 40
0.2
 40
0.4
 40
0.4
 40
0.4
 40
0.4
 40
0.6
 40
0.6
 40
0.6
 40
0.6
 40
1.0
 40
1.0
 40
1.0
 40
1.0
 10
218.2531
 20
59.3437
 30
0.0
 10
217.2169
 20
59.3437
 30
0.0
 10
216.3718
 20
60.203
 30
0.0
 10
216.3718
 20
61.2565
 30
0.0
 10
216.3718
 20
61.2565
 30
0.0
 10
216.3718
 20
62.31
 30
0.0
 10
217.2169
 20
63.1693
 30
0.0
 10
218.2531
 20
63.1693
 30
0.0
 10
218.2531
 20
63.1693
 30
0.0
 10
219.2891
 20
63.1693
 30
0.0
 10
220.1342
 20
62.31
 30
0.0
 10
220.1342
 20
61.2565
 30
0.0
 10
220.1342
 20
61.2565
 30
0.0
 10
220.1342
 20
60.203
 30
0.0
 10
219.2891
 20
59.3437
 30
0.0
 10
218.2531
 20
59.3437
 30
0.0
  0
SPLINE
  5
4E
330
1F
100
AcDbEntity
  8
layer 1
 62
     7
370
     9
100
AcDbSpline
210
0.0
220
0.0
230
1.0
 70
    11
 71
     3
 72
   152
 73
   148
 74
     0
 42
0.0000000001
 43
0.0000000001
 12
1.0
 22
0.0
 32
0.0
 13
1.0
 23
0.0
 33
0.0
 40
0.0
 40
0.0
 40
0.0
 40
0.0
 40
0.0263157894736842
 40
0.0263157894736842
 40
0.0263157894736842
 40
0.0263157894736842
 40
0.0526315789473684
 40
0.0526315789473684
 40
0.0526315789473684
 40
0.0526315789473684
 40
0.0789473684210526
 40
0.0789473684210526
 40
0.0789473684210526
 40
0.0789473684210526
 40
0.1052631578947368
 40
0.1052631578947368
 40
0.1052631578947368
 40
0.1052631578947368
 40
0.131578947368421
 40
0.131578947368421
 40
0.131578947368421
 40
0.131578947368421
 40
0.1578947368421053
 40
0.1578947368421053
 40
0.1578947368421053
 40
0.1578947368421053
 40
0.1842105263157895
 40
0.1842105263157895
 40
0.1842105263157895
 40
0.1842105263157895
 40
0.2105263157894737
 40
0.2105263157894737
 40
0.2105263157894737
 40
0.2105263157894737
 40
0.2368421052631579
 40
0.2368421052631579
 40
0.2368421052631579
 40
0.2368421052631579
 40
0.2631578947368421
 40
0.2631578947368421
 40
0.2631578947368421
 40
0.2631578947368421
 40
0.2894736842105263
 40
0.2894736842105263
 40
0.2894736842105263
 40
0.2894736842105263
 40
0.3157894736842105
 40
0.3157894736842105
 40
0.3157894736842105
 40
0.3157894736842105
 40
0.3421052631578947
 40
0.3421052631578947
 40
0.3421052631578947
 40
0.3421052631578947
 40
0.3684210526315789
 40
0.3684210526315789
 40
0.3684210526315789
 40
0.3684210526315789
 40
0.3947368421052632
 40
0.3947368421052632
 40
0.3947368421052632
 40
0.3947368421052632
 40
0.4210526315789473
 40
0.4210526315789473
 40
0.4210526315789473
 40
0.4210526315789473
 40
0.4473684210526316
 40
0.4473684210526316
 40
0.4473684210526316
 40
0.4473684210526316
 40
0.4736842105263158
 40
0.4736842105263158
 40
0.4736842105263158
 40
0.4736842105263158
 40
0.5
 40
0.5
 40
0.5
 40
0.5
 40
0.5263157894736842
 40
0.5263157894736842
 40
0.5263157894736842
 40
0.5263157894736842
 40
0.5526315789473685
 40
0.5526315789473685
 40
0.5526315789473685
 40
0.5526315789473685
 40
0.5789473684210527
 40
0.5789473684210527
 40
0.5789473684210527
 40
0.5789473684210527
 40
0.6052631578947368
 40
0.6052631578947368
 40
0.6052631578947368
 40
0.6052631578947368
 40
0.631578947368421
 40
0.631578947368421
 40
0.631578947368421
 40
0.631578947368421
 40
0.6578947368421053
 40
0.6578947368421053
 40
0.6578947368421053
 40
0.6578947368421053
 40
0.6842105263157895
 40
0.6842105263157895
 40
0.6842105263157895
 40
0.6842105263157895
 40
0.7105263157894737
 40
0.7105263157894737
 40
0.7105263157894737
 40
0.7105263157894737
 40
0.7368421052631579
 40
0.7368421052631579
 40
0.7368421052631579
 40
0.7368421052631579
 40
0.7631578947368421
 40
0.7631578947368421
 40
0.7631578947368421
 40
0.7631578947368421
 40
0.7894736842105263
 40
0.7894736842105263
 40
0.7894736842105263
 40
0.7894736842105263
 40
0.8157894736842105
 40
0.8157894736842105
 40
0.8157894736842105
 40
0.8157894736842105
 40
0.8421052631578947
 40
0.8421052631578947
 40
0.8421052631578947
 40
0.8421052631578947
 40
0.868421052631579
 40
0.868421052631579
 40
0.868421052631579
 40
0.868421052631579
 40
0.8947368421052632
 40
0.8947368421052632
 40
0.8947368421052632
 40
0.8947368421052632
 40
0.9210526315789473
 40
0.9210526315789473
 40
0.9210526315789473
 40
0.9210526315789473
 40
0.9473684210526315
 40
0.9473684210526315
 40
0.9473684210526315
 40
0.9473684210526315
 40
1.0
 40
1.0
 40
1.0
 40
1.0
 10
222.3793
 20
83.1316
 30
0.0
 10
221.4862
 20
83.5261
 30
0.0
 10
218.9998
 20
84.496
 30
0.0
 10
216.1272
 20
84.4998
 30
0.0
 10
216.1272
 20
84.4998
 30
0.0
 10
212.521
 20
84.5043
 30
0.0
 10
212.0064
 20
83.9384
 30
0.0
 10
210.6657
 20
83.6826
 30
0.0
 10
210.6657
 20
83.6826
 30
0.0
 10
210.7597
 20
82.6952
 30
0.0
 10
215.875
 20
84.4414
 30
0.0
 10
218.027
 20
82.4569
 30
0.0
 10
218.027
 20
82.4569
 30
0.0
 10
220.179
 20
80.4721
 30
0.0
 10
221.7968
 20
78.123
 30
0.0
 10
221.2476
 20
77.7871
 30
0.0
 10
221.2476
 20
77.7871
 30
0.0
 10
220.6983
 20
77.4516
 30
0.0
 10
218.0122
 20
78.1375
 30
0.0
 10
216.2461
 20
77.9478
 30
0.0
 10
216.2461
 20
77.9478
 30
0.0
 10
214.48
 20
77.7581
 30
0.0
 10
211.4376
 20
79.9033
 30
0.0
 10
210.8439
 20
80.0927
 30
0.0
 10
210.8439
 20
80.0927
 30
0.0
 10
210.2502
 20
80.2824
 30
0.0
 10
206.258
 20
81.7028
 30
0.0
 10
203.4382
 20
77.0333
 30
0.0
 10
203.4382
 20
77.0333
 30
0.0
 10
200.6183
 20
72.3636
 30
0.0
 10
200.7668
 20
70.9286
 30
0.0
 10
200.7668
 20
70.9286
 30
0.0
 10
200.7668
 20
70.9286
 30
0.0
 10
200.7668
 20
70.9286
 30
0.0
 10
204.6997
 20
76.2549
 30
0.0
 10
206.1095
 20
76.6928
 30
0.0
 10
206.1095
 20
76.6928
 30
0.0
 10
207.5195
 20
77.1306
 30
0.0
 10
212.5901
 20
77.325
 30
0.0
 10
212.9366
 20
76.6198
 30
0.0
 10
212.9366
 20
76.6198
 30
0.0
 10
213.2828
 20
75.9144
 30
0.0
 10
211.477
 20
75.7442
 30
0.0
 10
210.1909
 20
73.6041
 30
0.0
 10
210.1909
 20
73.6041
 30
0.0
 10
208.9047
 20
71.4636
 30
0.0
 10
207.5937
 20
71.5126
 30
0.0
 10
205.219
 20
70.345
 30
0.0
 10
205.219
 20
70.345
 30
0.0
 10
202.8444
 20
69.1777
 30
0.0
 10
200.841
 20
67.4709
 30
0.0
 10
200.94
 20
65.1405
 30
0.0
 10
200.94
 20
65.1405
 30
0.0
 10
200.9895
 20
62.6153
 30
0.0
 10
201.2121
 20
67.5975
 30
0.0
 10
205.219
 20
68.7399
 30
0.0
 10
205.219
 20
68.7399
 30
0.0
 10
209.2263
 20
69.8823
 30
0.0
 10
211.3039
 20
68.1319
 30
0.0
 10
211.6996
 20
67.4507
 30
0.0
 10
211.6996
 20
67.4507
 30
0.0
 10
212.0954
 20
66.7699
 30
0.0
 10
207.7173
 20
67.3292
 30
0.0
 10
205.8128
 20
65.3835
 30
0.0
 10
205.8128
 20
65.3835
 30
0.0
 10
203.908
 20
63.4378
 30
0.0
 10
203.0175
 20
60.9085
 30
0.0
 10
203.7349
 20
57.9413
 30
0.0
 10
203.7349
 20
57.9413
 30
0.0
 10
204.4522
 20
54.9742
 30
0.0
 10
207.7173
 20
50.8884
 30
0.0
 10
209.9437
 20
49.794
 30
0.0
 10
209.9437
 20
49.794
 30
0.0
 10
212.1698
 20
48.6993
 30
0.0
 10
208.9293
 20
50.8641
 30
0.0
 10
208.41
 20
53.4906
 30
0.0
 10
208.41
 20
53.4906
 30
0.0
 10
207.8904
 20
56.1172
 30
0.0
 10
207.5937
 20
59.0357
 30
0.0
 10
209.0778
 20
60.6408
 30
0.0
 10
209.0778
 20
60.6408
 30
0.0
 10
210.562
 20
62.2462
 30
0.0
 10
212.8622
 20
63.4864
 30
0.0
 10
212.8622
 20
64.5079
 30
0.0
 10
212.8622
 20
64.5079
 30
0.0
 10
212.8622
 20
65.5294
 30
0.0
 10
214.7175
 20
62.6108
 30
0.0
 10
214.1981
 20
59.4735
 30
0.0
 10
214.1981
 20
59.4735
 30
0.0
 10
213.6785
 20
56.3362
 30
0.0
 10
211.4524
 20
53.6365
 30
0.0
 10
211.4524
 20
52.5421
 30
0.0
 10
211.4524
 20
52.5421
 30
0.0
 10
211.4524
 20
51.4477
 30
0.0
 10
212.8871
 20
47.4834
 30
0.0
 10
214.668
 20
46.9727
 30
0.0
 10
214.668
 20
46.9727
 30
0.0
 10
216.4489
 20
46.462
 30
0.0
 10
213.0848
 20
48.3101
 30
0.0
 10
213.2333
 20
51.3019
 30
0.0
 10
213.2333
 20
51.3019
 30
0.0
 10
213.3818
 20
54.2933
 30
0.0
 10
215.0886
 20
55.7526
 30
0.0
 10
216.7954
 20
56.3362
 30
0.0
 10
216.7954
 20
56.3362
 30
0.0
 10
218.5018
 20
56.9199
 30
0.0
 10
219.0576
 20
56.5793
 30
0.0
 10
219.0215
 20
56.4821
 30
0.0
 10
219.0215
 20
56.4821
 30
0.0
 10
218.985
 20
56.3849
 30
0.0
 10
216.8695
 20
53.9284
 30
0.0
 10
217.3888
 20
50.8641
 30
0.0
 10
217.3888
 20
50.8641
 30
0.0
 10
217.8856
 20
47.9346
 30
0.0
 10
217.508
 20
46.8461
 30
0.0
 10
222.3793
 20
44.3337
 30
0.0
 10
222.3793
 20
44.3337
 30
0.0
 10
222.3793
 20
44.3337
 30
0.0
 10
222.3793
 20
42.3927
 30
0.0
 10
222.3793
 20
42.3927
 30
0.0
 10
222.3793
 20
42.3927
 30
0.0
 10
220.0068
 20
43.119
 30
0.0
 10
212.047
 20
45.5528
 30
0.0
 10
207.5937
 20
49.5506
 30
0.0
 10
207.5937
 20
49.5506
 30
0.0
 10
202.4736
 20
54.1472
 30
0.0
 10
200.3216
 20
57.8684
 30
0.0
 10
199.9505
 20
60.787
 30
0.0
 10
199.9505
 20
60.787
 30
0.0
 10
199.5794
 20
63.7055
 30
0.0
 10
198.9116
 20
68.5208
 30
0.0
 10
199.3568
 20
72.0962
 30
0.0
 10
199.3568
 20
72.0962
 30
0.0
 10
199.802
 20
75.6713
 30
0.0
 10
201.8799
 20
79.5384
 30
0.0
 10
205.8128
 20
82.4569
 30
0.0
 10
205.8128
 20
82.4569
 30
0.0
 10
209.7456
 20
85.3754
 30
0.0
 10
212.0462
 20
86.8347
 30
0.0
 10
216.1272
 20
87.0535
 30
0.0
 10
216.1272
 20
87.0535
 30
0.0
 10
219.3155
 20
87.2245
 30
0.0
 10
221.5529
 20
86.6829
 30
0.0
 10
222.3793
 20
86.4378
 30
0.0
 10
222.3793
 20
86.4378
 30
0.0
 10
222.3793
 20
86.4378
 30
0.0
 10
222.3793
 20
83.1316
 30
0.0
 10
222.3793
 20
83.1316
 30
0.0
  0
SPLINE
  5
4F
330
1F
100
AcDbEntity
  8
layer 1
 62
     7
370
     9
100
AcDbSpline
210
0.0
220
0.0
230
1.0
 70
    11
 71
     3
 72
    80
 73
    76
 74
     0
 42
0.0000000001
 43
0.0000000001
 12
1.0
 22
0.0
 32
0.0
 13
1.0
 23
0.0
 33
0.0
 40
0.0
 40
0.0
 40
0.0
 40
0.0
 40
0.05
 40
0.05
 40
0.05
 40
0.05
 40
0.1
 40
0.1
 40
0.1
 40
0.1
 40
0.15
 40
0.15
 40
0.15
 40
0.15
 40
0.2
 40
0.2
 40
0.2
 40
0.2
 40
0.25
 40
0.25
 40
0.25
 40
0.25
 40
0.3
 40
0.3
 40
0.3
 40
0.3
 40
0.35
 40
0.35
 40
0.35
 40
0.35
 40
0.4
 40
0.4
 40
0.4
 40
0.4
 40
0.45
 40
0.45
 40
0.45
 40
0.45
 40
0.5
 40
0.5
 40
0.5
 40
0.5
 40
0.55
 40
0.55
 40
0.55
 40
0.55
 40
0.6
 40
0.6
 40
0.6
 40
0.6
 40
0.65
 40
0.65
 40
0.65
 40
0.65
 40
0.7
 40
0.7
 40
0.7
 40
0.7
 40
0.75
 40
0.75
 40
0.75
 40
0.75
 40
0.8
 40
0.8
 40
0.8
 40
0.8
 40
0.85
 40
0.85
 40
0.85
 40
0.85
 40
0.9
 40
0.9
 40
0.9
 40
0.9
 40
1.0
 40
1.0
 40
1.0
 40
1.0
 10
102.2537
 20
112.2404
 30
0.0
 10
102.2537
 20
112.2404
 30
0.0
 10
117.1828
 20
112.2404
 30
0.0
 10
117.1828
 20
112.2404
 30
0.0
 10
117.1828
 20
112.2404
 30
0.0
 10
117.4443
 20
111.8634
 30
0.0
 10
117.6862
 20
111.4075
 30
0.0
 10
117.8945
 20
110.8564
 30
0.0
 10
117.8945
 20
110.8564
 30
0.0
 10
119.3603
 20
106.9831
 30
0.0
 10
118.4444
 20
104.7312
 30
0.0
 10
118.4444
 20
104.7312
 30
0.0
 10
118.4444
 20
104.7312
 30
0.0
 10
118.4444
 20
104.7312
 30
0.0
 10
117.7114
 20
102.6596
 30
0.0
 10
114.5969
 20
103.2904
 30
0.0
 10
114.5969
 20
103.2904
 30
0.0
 10
111.4821
 20
103.9208
 30
0.0
 10
112.1233
 20
107.2535
 30
0.0
 10
113.4059
 20
107.884
 30
0.0
 10
113.4059
 20
107.884
 30
0.0
 10
114.6885
 20
108.5144
 30
0.0
 10
116.3375
 20
107.884
 30
0.0
 10
115.6044
 20
109.6856
 30
0.0
 10
115.6044
 20
109.6856
 30
0.0
 10
114.8717
 20
111.4869
 30
0.0
 10
111.4821
 20
112.3877
 30
0.0
 10
107.3595
 20
111.9372
 30
0.0
 10
107.3595
 20
111.9372
 30
0.0
 10
103.2373
 20
111.4869
 30
0.0
 10
110.0163
 20
112.568
 30
0.0
 10
110.8407
 20
109.4152
 30
0.0
 10
110.8407
 20
109.4152
 30
0.0
 10
111.6653
 20
106.2625
 30
0.0
 10
110.7491
 20
106.2625
 30
0.0
 10
109.1917
 20
108.1543
 30
0.0
 10
109.1917
 20
108.1543
 30
0.0
 10
107.6346
 20
110.0457
 30
0.0
 10
106.2604
 20
108.6045
 30
0.0
 10
105.5274
 20
107.884
 30
0.0
 10
105.5274
 20
107.884
 30
0.0
 10
104.7946
 20
107.1634
 30
0.0
 10
103.6036
 20
105.9024
 30
0.0
 10
103.512
 20
104.1909
 30
0.0
 10
103.512
 20
104.1909
 30
0.0
 10
103.4204
 20
102.4797
 30
0.0
 10
102.9625
 20
106.623
 30
0.0
 10
108.459
 20
104.4612
 30
0.0
 10
108.459
 20
104.4612
 30
0.0
 10
113.9554
 20
102.2994
 30
0.0
 10
107.1764
 20
105.6321
 30
0.0
 10
105.4358
 20
100.408
 30
0.0
 10
105.4358
 20
100.408
 30
0.0
 10
103.6952
 20
95.1836
 30
0.0
 10
105.4358
 20
95.8141
 30
0.0
 10
104.1535
 20
93.0218
 30
0.0
 10
104.1535
 20
93.0218
 30
0.0
 10
102.8709
 20
90.2296
 30
0.0
 10
105.7109
 20
95.9042
 30
0.0
 10
111.2074
 20
93.4721
 30
0.0
 10
111.2074
 20
93.4721
 30
0.0
 10
114.5969
 20
91.9408
 30
0.0
 10
114.047
 20
90.8601
 30
0.0
 10
114.047
 20
90.8601
 30
0.0
 10
114.047
 20
90.8601
 30
0.0
 10
114.047
 20
90.8601
 30
0.0
 10
113.3143
 20
92.2111
 30
0.0
 10
110.7491
 20
89.9592
 30
0.0
 10
110.7491
 20
89.9592
 30
0.0
 10
108.7124
 20
88.1713
 30
0.0
 10
104.0767
 20
90.529
 30
0.0
 10
102.2537
 20
91.5759
 30
0.0
 10
102.2537
 20
91.5759
 30
0.0
 10
102.2537
 20
91.5759
 30
0.0
 10
102.2537
 20
112.2404
 30
0.0
 10
102.2537
 20
112.2404
 30
0.0
  0
SPLINE
  5
50
330
1F
100
AcDbEntity
  8
layer 1
 62
     7
370
     9
100
AcDbSpline
210
0.0
220
0.0
230
1.0
 70
    11
 71
     3
 72
    64
 73
    60
 74
     0
 42
0.0000000001
 43
0.0000000001
 12
1.0
 22
0.0
 32
0.0
 13
1.0
 23
0.0
 33
0.0
 40
0.0
 40
0.0
 40
0.0
 40
0.0
 40
0.0625
 40
0.0625
 40
0.0625
 40
0.0625
 40
0.125
 40
0.125
 40
0.125
 40
0.125
 40
0.1875
 40
0.1875
 40
0.1875
 40
0.1875
 40
0.25
 40
0.25
 40
0.25
 40
0.25
 40
0.3125
 40
0.3125
 40
0.3125
 40
0.3125
 40
0.375
 40
0.375
 40
0.375
 40
0.375
 40
0.4375
 40
0.4375
 40
0.4375
 40
0.4375
 40
0.5
 40
0.5
 40
0.5
 40
0.5
 40
0.5625
 40
0.5625
 40
0.5625
 40
0.5625
 40
0.625
 40
0.625
 40
0.625
 40
0.625
 40
0.6875
 40
0.6875
 40
0.6875
 40
0.6875
 40
0.75
 40
0.75
 40
0.75
 40
0.75
 40
0.8125
 40
0.8125
 40
0.8125
 40
0.8125
 40
0.875
 40
0.875
 40
0.875
 40
0.875
 40
1.0
 40
1.0
 40
1.0
 40
1.0
 10
170.3706
 20
106.0011
 30
0.0
 10
170.3706
 20
106.0011
 30
0.0
 10
168.9434
 20
105.9015
 30
0.0
 10
167.6795
 20
106.6319
 30
0.0
 10
167.6795
 20
106.6319
 30
0.0
 10
166.4155
 20
107.3623
 30
0.0
 10
165.8692
 20
108.555
 30
0.0
 10
166.3266
 20
109.4384
 30
0.0
 10
166.3266
 20
109.4384
 30
0.0
 10
166.784
 20
110.322
 30
0.0
 10
169.9832
 20
110.4385
 30
0.0
 10
171.7131
 20
109.7209
 30
0.0
 10
171.7131
 20
109.7209
 30
0.0
 10
173.443
 20
109.0029
 30
0.0
 10
175.1943
 20
107.5214
 30
0.0
 10
175.9839
 20
105.9531
 30
0.0
 10
175.9839
 20
105.9531
 30
0.0
 10
176.7739
 20
104.3847
 30
0.0
 10
175.1403
 20
104.9829
 30
0.0
 10
174.3009
 20
104.9909
 30
0.0
 10
174.3009
 20
104.9909
 30
0.0
 10
173.4611
 20
104.9989
 30
0.0
 10
169.8635
 20
103.5571
 30
0.0
 10
169.0113
 20
103.4578
 30
0.0
 10
169.0113
 20
103.4578
 30
0.0
 10
168.1591
 20
103.3585
 30
0.0
 10
164.7923
 20
101.9995
 30
0.0
 10
161.7938
 20
104.7312
 30
0.0
 10
161.7938
 20
104.7312
 30
0.0
 10
158.7952
 20
107.463
 30
0.0
 10
159.0003
 20
110.1587
 30
0.0
 10
159.0756
 20
110.8028
 30
0.0
 10
159.0756
 20
110.8028
 30
0.0
 10
159.1195
 20
111.1786
 30
0.0
 10
159.3495
 20
111.7258
 30
0.0
 10
159.5081
 20
112.2404
 30
0.0
 10
159.5081
 20
112.2404
 30
0.0
 10
159.5081
 20
112.2404
 30
0.0
 10
165.5651
 20
112.2404
 30
0.0
 10
165.5651
 20
112.2404
 30
0.0
 10
165.5651
 20
112.2404
 30
0.0
 10
164.913
 20
110.4812
 30
0.0
 10
163.9698
 20
110.988
 30
0.0
 10
163.3494
 20
111.4069
 30
0.0
 10
163.3494
 20
111.4069
 30
0.0
 10
162.6522
 20
111.877
 30
0.0
 10
161.9218
 20
111.8729
 30
0.0
 10
161.7627
 20
110.8902
 30
0.0
 10
161.7627
 20
110.8902
 30
0.0
 10
161.6035
 20
109.9076
 30
0.0
 10
162.7841
 20
106.5767
 30
0.0
 10
164.3124
 20
105.8384
 30
0.0
 10
164.3124
 20
105.8384
 30
0.0
 10
165.8411
 20
105.0997
 30
0.0
 10
166.7309
 20
105.5212
 30
0.0
 10
168.679
 20
105.3442
 30
0.0
 10
168.679
 20
105.3442
 30
0.0
 10
169.8984
 20
105.3179
 30
0.0
 10
170.3315
 20
105.9869
 30
0.0
 10
170.3706
 20
106.0011
 30
0.0
  0
SPLINE
  5
51
330
1F
100
AcDbEntity
  8
layer 1
 62
     7
370
     9
100
AcDbSpline
210
0.0
220
0.0
230
1.0
 70
    11
 71
     3
 72
   184
 73
   180
 74
     0
 42
0.0000000001
 43
0.0000000001
 12
1.0
 22
0.0
 32
0.0
 13
1.0
 23
0.0
 33
0.0
 40
0.0
 40
0.0
 40
0.0
 40
0.0
 40
0.0217391304347826
 40
0.0217391304347826
 40
0.0217391304347826
 40
0.0217391304347826
 40
0.0434782608695652
 40
0.0434782608695652
 40
0.0434782608695652
 40
0.0434782608695652
 40
0.0652173913043478
 40
0.0652173913043478
 40
0.0652173913043478
 40
0.0652173913043478
 40
0.0869565217391304
 40
0.0869565217391304
 40
0.0869565217391304
 40
0.0869565217391304
 40
0.108695652173913
 40
0.108695652173913
 40
0.108695652173913
 40
0.108695652173913
 40
0.1304347826086956
 40
0.1304347826086956
 40
0.1304347826086956
 40
0.1304347826086956
 40
0.1521739130434783
 40
0.1521739130434783
 40
0.1521739130434783
 40
0.1521739130434783
 40
0.1739130434782609
 40
0.1739130434782609
 40
0.1739130434782609
 40
0.1739130434782609
 40
0.1956521739130435
 40
0.1956521739130435
 40
0.1956521739130435
 40
0.1956521739130435
 40
0.2173913043478261
 40
0.2173913043478261
 40
0.2173913043478261
 40
0.2173913043478261
 40
0.2391304347826087
 40
0.2391304347826087
 40
0.2391304347826087
 40
0.2391304347826087
 40
0.2608695652173913
 40
0.2608695652173913
 40
0.2608695652173913
 40
0.2608695652173913
 40
0.2826086956521739
 40
0.2826086956521739
 40
0.2826086956521739
 40
0.2826086956521739
 40
0.3043478260869565
 40
0.3043478260869565
 40
0.3043478260869565
 40
0.3043478260869565
 40
0.3260869565217391
 40
0.3260869565217391
 40
0.3260869565217391
 40
0.3260869565217391
 40
0.3478260869565217
 40
0.3478260869565217
 40
0.3478260869565217
 40
0.3478260869565217
 40
0.3695652173913043
 40
0.3695652173913043
 40
0.3695652173913043
 40
0.3695652173913043
 40
0.391304347826087
 40
0.391304347826087
 40
0.391304347826087
 40
0.391304347826087
 40
0.4130434782608696
 40
0.4130434782608696
 40
0.4130434782608696
 40
0.4130434782608696
 40
0.4347826086956522
 40
0.4347826086956522
 40
0.4347826086956522
 40
0.4347826086956522
 40
0.4565217391304348
 40
0.4565217391304348
 40
0.4565217391304348
 40
0.4565217391304348
 40
0.4782608695652174
 40
0.4782608695652174
 40
0.4782608695652174
 40
0.4782608695652174
 40
0.5
 40
0.5
 40
0.5
 40
0.5
 40
0.5217391304347826
 40
0.5217391304347826
 40
0.5217391304347826
 40
0.5217391304347826
 40
0.5434782608695652
 40
0.5434782608695652
 40
0.5434782608695652
 40
0.5434782608695652
 40
0.5652173913043478
 40
0.5652173913043478
 40
0.5652173913043478
 40
0.5652173913043478
 40
0.5869565217391305
 40
0.5869565217391305
 40
0.5869565217391305
 40
0.5869565217391305
 40
0.6086956521739131
 40
0.6086956521739131
 40
0.6086956521739131
 40
0.6086956521739131
 40
0.6304347826086957
 40
0.6304347826086957
 40
0.6304347826086957
 40
0.6304347826086957
 40
0.6521739130434783
 40
0.6521739130434783
 40
0.6521739130434783
 40
0.6521739130434783
 40
0.6739130434782609
 40
0.6739130434782609
 40
0.6739130434782609
 40
0.6739130434782609
 40
0.6956521739130435
 40
0.6956521739130435
 40
0.6956521739130435
 40
0.6956521739130435
 40
0.717391304347826
 40
0.717391304347826
 40
0.717391304347826
 40
0.717391304347826
 40
0.7391304347826086
 40
0.7391304347826086
 40
0.7391304347826086
 40
0.7391304347826086
 40
0.7608695652173914
 40
0.7608695652173914
 40
0.7608695652173914
 40
0.7608695652173914
 40
0.782608695652174
 40
0.782608695652174
 40
0.782608695652174
 40
0.782608695652174
 40
0.8043478260869565
 40
0.8043478260869565
 40
0.8043478260869565
 40
0.8043478260869565
 40
0.8260869565217391
 40
0.8260869565217391
 40
0.8260869565217391
 40
0.8260869565217391
 40
0.8478260869565217
 40
0.8478260869565217
 40
0.8478260869565217
 40
0.8478260869565217
 40
0.8695652173913043
 40
0.8695652173913043
 40
0.8695652173913043
 40
0.8695652173913043
 40
0.8913043478260869
 40
0.8913043478260869
 40
0.8913043478260869
 40
0.8913043478260869
 40
0.9130434782608695
 40
0.9130434782608695
 40
0.9130434782608695
 40
0.9130434782608695
 40
0.9347826086956522
 40
0.9347826086956522
 40
0.9347826086956522
 40
0.9347826086956522
 40
0.9565217391304348
 40
0.9565217391304348
 40
0.9565217391304348
 40
0.9565217391304348
 40
1.0
 40
1.0
 40
1.0
 40
1.0
 10
194.6974
 20
93.6986
 30
0.0
 10
193.1741
 20
97.2995
 30
0.0
 10
192.5555
 20
100.4083
 30
0.0
 10
192.2614
 20
94.7366
 30
0.0
 10
192.2614
 20
94.7366
 30
0.0
 10
191.9674
 20
89.0653
 30
0.0
 10
188.2079
 20
88.2492
 30
0.0
 10
187.4962
 20
87.9481
 30
0.0
 10
187.4962
 20
87.9481
 30
0.0
 10
186.7848
 20
87.6466
 30
0.0
 10
182.1939
 20
88.1452
 30
0.0
 10
185.5473
 20
85.5779
 30
0.0
 10
185.5473
 20
85.5779
 30
0.0
 10
188.9003
 20
83.0106
 30
0.0
 10
192.3622
 20
87.5811
 30
0.0
 10
192.6536
 20
88.4884
 30
0.0
 10
192.6536
 20
88.4884
 30
0.0
 10
192.945
 20
89.3955
 30
0.0
 10
194.4137
 20
90.5121
 30
0.0
 10
193.7323
 20
86.9971
 30
0.0
 10
193.7323
 20
86.9971
 30
0.0
 10
193.0508
 20
83.4822
 30
0.0
 10
189.9144
 20
83.7523
 30
0.0
 10
189.9144
 20
83.7523
 30
0.0
 10
189.9144
 20
83.7523
 30
0.0
 10
189.9144
 20
83.7523
 30
0.0
 10
186.7599
 20
83.8163
 30
0.0
 10
186.1517
 20
81.1239
 30
0.0
 10
186.1517
 20
81.1239
 30
0.0
 10
185.5434
 20
78.4312
 30
0.0
 10
182.9462
 20
79.4317
 30
0.0
 10
182.9462
 20
79.4317
 30
0.0
 10
182.9462
 20
79.4317
 30
0.0
 10
182.9462
 20
79.4317
 30
0.0
 10
182.2274
 20
78.4576
 30
0.0
 10
184.1019
 20
77.6232
 30
0.0
 10
184.1019
 20
77.6232
 30
0.0
 10
185.9765
 20
76.7885
 30
0.0
 10
188.4563
 20
76.8341
 30
0.0
 10
189.7727
 20
78.0157
 30
0.0
 10
189.7727
 20
78.0157
 30
0.0
 10
191.0894
 20
79.1972
 30
0.0
 10
192.3198
 20
80.5933
 30
0.0
 10
192.3198
 20
80.5933
 30
0.0
 10
192.3198
 20
80.5933
 30
0.0
 10
192.3198
 20
80.5933
 30
0.0
 10
194.1001
 20
82.2527
 30
0.0
 10
193.4127
 20
80.4475
 30
0.0
 10
193.4127
 20
80.4475
 30
0.0
 10
192.7256
 20
78.642
 30
0.0
 10
190.549
 20
76.0845
 30
0.0
 10
189.3808
 20
75.9778
 30
0.0
 10
189.3808
 20
75.9778
 30
0.0
 10
188.2126
 20
75.8711
 30
0.0
 10
184.5738
 20
75.8216
 30
0.0
 10
183.9961
 20
75.2498
 30
0.0
 10
183.9961
 20
75.2498
 30
0.0
 10
183.4184
 20
74.678
 30
0.0
 10
181.9295
 20
73.9257
 30
0.0
 10
181.1297
 20
74.4089
 30
0.0
 10
181.1297
 20
74.4089
 30
0.0
 10
180.33
 20
74.892
 30
0.0
 10
179.0773
 20
74.4302
 30
0.0
 10
181.6399
 20
72.4486
 30
0.0
 10
181.6399
 20
72.4486
 30
0.0
 10
184.2027
 20
70.4674
 30
0.0
 10
187.0892
 20
70.9443
 30
0.0
 10
188.0555
 20
71.7414
 30
0.0
 10
188.0555
 20
71.7414
 30
0.0
 10
189.0222
 20
72.5388
 30
0.0
 10
191.1507
 20
75.1523
 30
0.0
 10
190.3427
 20
72.5805
 30
0.0
 10
190.3427
 20
72.5805
 30
0.0
 10
189.5344
 20
70.0088
 30
0.0
 10
184.6654
 20
68.5632
 30
0.0
 10
184.6654
 20
68.5632
 30
0.0
 10
184.6654
 20
68.5632
 30
0.0
 10
184.6654
 20
68.5632
 30
0.0
 10
183.0443
 20
67.5115
 30
0.0
 10
179.2667
 20
71.8244
 30
0.0
 10
179.2667
 20
71.8244
 30
0.0
 10
175.4895
 20
76.137
 30
0.0
 10
176.0313
 20
73.3456
 30
0.0
 10
175.9729
 20
70.9165
 30
0.0
 10
175.9729
 20
70.9165
 30
0.0
 10
175.9148
 20
68.4873
 30
0.0
 10
176.8213
 20
67.4255
 30
0.0
 10
177.7642
 20
66.7746
 30
0.0
 10
177.7642
 20
66.7746
 30
0.0
 10
178.7068
 20
66.1237
 30
0.0
 10
180.8659
 20
65.5237
 30
0.0
 10
181.8432
 20
65.8539
 30
0.0
 10
181.8432
 20
65.8539
 30
0.0
 10
182.8208
 20
66.1841
 30
0.0
 10
183.0725
 20
64.8677
 30
0.0
 10
179.1695
 20
64.2195
 30
0.0
 10
179.1695
 20
64.2195
 30
0.0
 10
175.2669
 20
63.5712
 30
0.0
 10
175.1981
 20
66.9436
 30
0.0
 10
175.1981
 20
66.9436
 30
0.0
 10
175.1981
 20
66.9436
 30
0.0
 10
175.1981
 20
66.9436
 30
0.0
 10
174.5421
 20
72.5933
 30
0.0
 10
172.3996
 20
73.9687
 30
0.0
 10
172.3996
 20
73.9687
 30
0.0
 10
170.2571
 20
75.3441
 30
0.0
 10
171.147
 20
73.5069
 30
0.0
 10
170.3369
 20
71.5048
 30
0.0
 10
170.3369
 20
71.5048
 30
0.0
 10
169.5267
 20
69.5031
 30
0.0
 10
170.4774
 20
66.5727
 30
0.0
 10
170.9451
 20
65.9111
 30
0.0
 10
170.9451
 20
65.9111
 30
0.0
 10
171.4131
 20
65.2492
 30
0.0
 10
173.7596
 20
62.6135
 30
0.0
 10
170.7898
 20
64.1635
 30
0.0
 10
170.7898
 20
64.1635
 30
0.0
 10
167.82
 20
65.7137
 30
0.0
 10
167.126
 20
68.57
 30
0.0
 10
167.2763
 20
69.0751
 30
0.0
 10
167.2763
 20
69.0751
 30
0.0
 10
167.4266
 20
69.5799
 30
0.0
 10
169.7422
 20
73.1097
 30
0.0
 10
169.0869
 20
75.8074
 30
0.0
 10
169.0869
 20
75.8074
 30
0.0
 10
168.4315
 20
78.5051
 30
0.0
 10
169.7336
 20
78.3411
 30
0.0
 10
165.9101
 20
76.8057
 30
0.0
 10
165.9101
 20
76.8057
 30
0.0
 10
162.0863
 20
75.2702
 30
0.0
 10
164.332
 20
71.5037
 30
0.0
 10
164.332
 20
71.5037
 30
0.0
 10
164.332
 20
71.5037
 30
0.0
 10
164.332
 20
71.5037
 30
0.0
 10
165.6371
 20
67.8177
 30
0.0
 10
163.2702
 20
70.818
 30
0.0
 10
163.2702
 20
70.818
 30
0.0
 10
160.9036
 20
73.8181
 30
0.0
 10
162.4672
 20
77.775
 30
0.0
 10
162.3994
 20
78.1953
 30
0.0
 10
162.3994
 20
78.1953
 30
0.0
 10
162.3312
 20
78.6153
 30
0.0
 10
165.4866
 20
83.8856
 30
0.0
 10
168.3224
 20
82.6057
 30
0.0
 10
168.3224
 20
82.6057
 30
0.0
 10
171.1579
 20
81.3261
 30
0.0
 10
170.5621
 20
80.5486
 30
0.0
 10
171.6592
 20
79.263
 30
0.0
 10
171.6592
 20
79.263
 30
0.0
 10
172.7562
 20
77.9774
 30
0.0
 10
177.651
 20
80.3014
 30
0.0
 10
174.8457
 20
83.7019
 30
0.0
 10
174.8457
 20
83.7019
 30
0.0
 10
172.0407
 20
87.1024
 30
0.0
 10
167.7604
 20
85.7614
 30
0.0
 10
167.0964
 20
85.4042
 30
0.0
 10
167.0964
 20
85.4042
 30
0.0
 10
166.4327
 20
85.047
 30
0.0
 10
161.6497
 20
83.3868
 30
0.0
 10
161.2982
 20
80.6206
 30
0.0
 10
161.2982
 20
80.6206
 30
0.0
 10
160.9469
 20
77.8541
 30
0.0
 10
158.2294
 20
75.136
 30
0.0
 10
162.1922
 20
69.357
 30
0.0
 10
162.1922
 20
69.357
 30
0.0
 10
166.1553
 20
63.5783
 30
0.0
 10
169.2022
 20
61.7106
 30
0.0
 10
174.011
 20
61.2971
 30
0.0
 10
174.011
 20
61.2971
 30
0.0
 10
178.82
 20
60.8833
 30
0.0
 10
182.7556
 20
63.0824
 30
0.0
 10
185.6839
 20
65.2128
 30
0.0
 10
185.6839
 20
65.2128
 30
0.0
 10
188.6125
 20
67.3431
 30
0.0
 10
192.7947
 20
72.3179
 30
0.0
 10
194.1656
 20
77.068
 30
0.0
 10
194.1656
 20
77.068
 30
0.0
 10
196.4661
 20
82.2047
 30
0.0
 10
196.2204
 20
90.0977
 30
0.0
 10
194.6974
 20
93.6986
 30
0.0
  0
SPLINE
  5
52
330
1F
100
AcDbEntity
  8
layer 1
 62
     7
370
     9
100
AcDbSpline
210
0.0
220
0.0
230
1.0
 70
    11
 71
     3
 72
    28
 73
    24
 74
     0
 42
0.0000000001
 43
0.0000000001
 12
1.0
 22
0.0
 32
0.0
 13
1.0
 23
0.0
 33
0.0
 40
0.0
 40
0.0
 40
0.0
 40
0.0
 40
0.1428571428571428
 40
0.1428571428571428
 40
0.1428571428571428
 40
0.1428571428571428
 40
0.2857142857142857
 40
0.2857142857142857
 40
0.2857142857142857
 40
0.2857142857142857
 40
0.4285714285714285
 40
0.4285714285714285
 40
0.4285714285714285
 40
0.4285714285714285
 40
0.5714285714285714
 40
0.5714285714285714
 40
0.5714285714285714
 40
0.5714285714285714
 40
0.7142857142857143
 40
0.7142857142857143
 40
0.7142857142857143
 40
0.7142857142857143
 40
1.0
 40
1.0
 40
1.0
 40
1.0
 10
222.3793
 20
98.0731
 30
0.0
 10
221.6783
 20
98.7202
 30
0.0
 10
218.8617
 20
101.4861
 30
0.0
 10
219.1217
 20
103.9155
 30
0.0
 10
219.1217
 20
103.9155
 30
0.0
 10
219.4024
 20
106.5382
 30
0.0
 10
221.4094
 20
110.0742
 30
0.0
 10
222.3793
 20
111.1902
 30
0.0
 10
222.3793
 20
111.1902
 30
0.0
 10
222.3793
 20
111.1902
 30
0.0
 10
222.3793
 20
108.1501
 30
0.0
 10
222.3793
 20
108.1501
 30
0.0
 10
222.3793
 20
108.1501
 30
0.0
 10
221.8775
 20
107.3925
 30
0.0
 10
220.942
 20
105.788
 30
0.0
 10
221.051
 20
104.4992
 30
0.0
 10
221.051
 20
104.4992
 30
0.0
 10
221.1486
 20
103.3505
 30
0.0
 10
221.8846
 20
102.1391
 30
0.0
 10
222.3793
 20
101.4413
 30
0.0
 10
222.3793
 20
101.4413
 30
0.0
 10
222.3793
 20
101.4413
 30
0.0
 10
222.3793
 20
98.0731
 30
0.0
 10
222.3793
 20
98.0731
 30
0.0
  0
SPLINE
  5
53
330
1F
100
AcDbEntity
  8
layer 1
 62
     7
370
     9
100
AcDbSpline
210
0.0
220
0.0
230
1.0
 70
    11
 71
     3
 72
    88
 73
    84
 74
     0
 42
0.0000000001
 43
0.0000000001
 12
1.0
 22
0.0
 32
0.0
 13
1.0
 23
0.0
 33
0.0
 40
0.0
 40
0.0
 40
0.0
 40
0.0
 40
0.0454545454545455
 40
0.0454545454545455
 40
0.0454545454545455
 40
0.0454545454545455
 40
0.0909090909090909
 40
0.0909090909090909
 40
0.0909090909090909
 40
0.0909090909090909
 40
0.1363636363636364
 40
0.1363636363636364
 40
0.1363636363636364
 40
0.1363636363636364
 40
0.1818181818181818
 40
0.1818181818181818
 40
0.1818181818181818
 40
0.1818181818181818
 40
0.2272727272727273
 40
0.2272727272727273
 40
0.2272727272727273
 40
0.2272727272727273
 40
0.2727272727272727
 40
0.2727272727272727
 40
0.2727272727272727
 40
0.2727272727272727
 40
0.3181818181818182
 40
0.3181818181818182
 40
0.3181818181818182
 40
0.3181818181818182
 40
0.3636363636363636
 40
0.3636363636363636
 40
0.3636363636363636
 40
0.3636363636363636
 40
0.4090909090909091
 40
0.4090909090909091
 40
0.4090909090909091
 40
0.4090909090909091
 40
0.4545454545454545
 40
0.4545454545454545
 40
0.4545454545454545
 40
0.4545454545454545
 40
0.5
 40
0.5
 40
0.5
 40
0.5
 40
0.5454545454545454
 40
0.5454545454545454
 40
0.5454545454545454
 40
0.5454545454545454
 40
0.5909090909090909
 40
0.5909090909090909
 40
0.5909090909090909
 40
0.5909090909090909
 40
0.6363636363636364
 40
0.6363636363636364
 40
0.6363636363636364
 40
0.6363636363636364
 40
0.6818181818181818
 40
0.6818181818181818
 40
0.6818181818181818
 40
0.6818181818181818
 40
0.7272727272727273
 40
0.7272727272727273
 40
0.7272727272727273
 40
0.7272727272727273
 40
0.7727272727272727
 40
0.7727272727272727
 40
0.7727272727272727
 40
0.7727272727272727
 40
0.8181818181818182
 40
0.8181818181818182
 40
0.8181818181818182
 40
0.8181818181818182
 40
0.8636363636363636
 40
0.8636363636363636
 40
0.8636363636363636
 40
0.8636363636363636
 40
0.9090909090909091
 40
0.9090909090909091
 40
0.9090909090909091
 40
0.9090909090909091
 40
1.0
 40
1.0
 40
1.0
 40
1.0
 10
186.8011
 20
112.2404
 30
0.0
 10
186.0761
 20
111.8112
 30
0.0
 10
185.2808
 20
111.5444
 30
0.0
 10
184.77
 20
111.8231
 30
0.0
 10
184.77
 20
111.8231
 30
0.0
 10
184.4807
 20
111.981
 30
0.0
 10
184.0954
 20
112.1097
 30
0.0
 10
183.6608
 20
112.2404
 30
0.0
 10
183.6608
 20
112.2404
 30
0.0
 10
183.6608
 20
112.2404
 30
0.0
 10
177.5001
 20
112.2404
 30
0.0
 10
177.5001
 20
112.2404
 30
0.0
 10
177.5001
 20
112.2404
 30
0.0
 10
177.6605
 20
111.4211
 30
0.0
 10
177.9732
 20
110.624
 30
0.0
 10
178.5014
 20
109.9494
 30
0.0
 10
178.5014
 20
109.9494
 30
0.0
 10
181.2418
 20
106.4502
 30
0.0
 10
183.5897
 20
108.2886
 30
0.0
 10
184.9835
 20
109.4167
 30
0.0
 10
184.9835
 20
109.4167
 30
0.0
 10
186.3775
 20
110.5452
 30
0.0
 10
188.9158
 20
109.6269
 30
0.0
 10
188.9158
 20
109.6269
 30
0.0
 10
188.9158
 20
109.6269
 30
0.0
 10
188.9158
 20
109.6269
 30
0.0
 10
188.0988
 20
108.4892
 30
0.0
 10
186.6307
 20
107.4873
 30
0.0
 10
186.6307
 20
107.4873
 30
0.0
 10
185.1625
 20
106.4855
 30
0.0
 10
185.1032
 20
106.0023
 30
0.0
 10
182.3646
 20
105.1216
 30
0.0
 10
182.3646
 20
105.1216
 30
0.0
 10
179.6257
 20
104.2407
 30
0.0
 10
178.6203
 20
104.0071
 30
0.0
 10
175.8487
 20
102.2093
 30
0.0
 10
175.8487
 20
102.2093
 30
0.0
 10
173.0772
 20
100.4113
 30
0.0
 10
172.1414
 20
99.7674
 30
0.0
 10
172.1414
 20
99.7674
 30
0.0
 10
172.1414
 20
99.7674
 30
0.0
 10
174.6002
 20
98.2601
 30
0.0
 10
176.532
 20
97.6738
 30
0.0
 10
179.0047
 20
97.71
 30
0.0
 10
179.0047
 20
97.71
 30
0.0
 10
181.4774
 20
97.7465
 30
0.0
 10
183.7474
 20
100.3952
 30
0.0
 10
185.6101
 20
100.1048
 30
0.0
 10
185.6101
 20
100.1048
 30
0.0
 10
187.4731
 20
99.8143
 30
0.0
 10
181.4845
 20
96.1903
 30
0.0
 10
184.0714
 20
93.8604
 30
0.0
 10
184.0714
 20
93.8604
 30
0.0
 10
189.1538
 20
89.2828
 30
0.0
 10
187.8095
 20
92.5935
 30
0.0
 10
189.2237
 20
96.8693
 30
0.0
 10
189.2237
 20
96.8693
 30
0.0
 10
190.4586
 20
100.6033
 30
0.0
 10
188.7136
 20
102.7722
 30
0.0
 10
190.3394
 20
105.5488
 30
0.0
 10
190.3394
 20
105.5488
 30
0.0
 10
191.9653
 20
108.325
 30
0.0
 10
193.0348
 20
103.8773
 30
0.0
 10
196.1567
 20
97.3931
 30
0.0
 10
196.1567
 20
97.3931
 30
0.0
 10
199.2788
 20
90.9087
 30
0.0
 10
201.416
 20
86.393
 30
0.0
 10
201.416
 20
86.393
 30
0.0
 10
201.416
 20
86.393
 30
0.0
 10
201.416
 20
86.393
 30
0.0
 10
206.1732
 20
84.7126
 30
0.0
 10
202.9334
 20
88.7709
 30
0.0
 10
202.9334
 20
88.7709
 30
0.0
 10
199.6935
 20
92.8292
 30
0.0
 10
194.5083
 20
103.7027
 30
0.0
 10
194.8222
 20
111.6319
 30
0.0
 10
194.8222
 20
111.6319
 30
0.0
 10
194.8222
 20
111.6319
 30
0.0
 10
194.8343
 20
112.2404
 30
0.0
 10
194.8343
 20
112.2404
 30
0.0
 10
194.8343
 20
112.2404
 30
0.0
 10
194.8343
 20
112.2404
 30
0.0
 10
186.8011
 20
112.2404
 30
0.0
 10
186.8011
 20
112.2404
 30
0.0
  0
SPLINE
  5
54
330
1F
100
AcDbEntity
  8
layer 1
 62
     7
370
     9
100
AcDbSpline
210
0.0
220
0.0
230
1.0
 70
    11
 71
     3
 72
    80
 73
    76
 74
     0
 42
0.0000000001
 43
0.0000000001
 12
1.0
 22
0.0
 32
0.0
 13
1.0
 23
0.0
 33
0.0
 40
0.0
 40
0.0
 40
0.0
 40
0.0
 40
0.05
 40
0.05
 40
0.05
 40
0.05
 40
0.1
 40
0.1
 40
0.1
 40
0.1
 40
0.15
 40
0.15
 40
0.15
 40
0.15
 40
0.2
 40
0.2
 40
0.2
 40
0.2
 40
0.25
 40
0.25
 40
0.25
 40
0.25
 40
0.3
 40
0.3
 40
0.3
 40
0.3
 40
0.35
 40
0.35
 40
0.35
 40
0.35
 40
0.4
 40
0.4
 40
0.4
 40
0.4
 40
0.45
 40
0.45
 40
0.45
 40
0.45
 40
0.5
 40
0.5
 40
0.5
 40
0.5
 40
0.55
 40
0.55
 40
0.55
 40
0.55
 40
0.6
 40
0.6
 40
0.6
 40
0.6
 40
0.65
 40
0.65
 40
0.65
 40
0.65
 40
0.7
 40
0.7
 40
0.7
 40
0.7
 40
0.75
 40
0.75
 40
0.75
 40
0.75
 40
0.8
 40
0.8
 40
0.8
 40
0.8
 40
0.85
 40
0.85
 40
0.85
 40
0.85
 40
0.9
 40
0.9
 40
0.9
 40
0.9
 40
1.0
 40
1.0
 40
1.0
 40
1.0
 10
181.6716
 20
91.7016
 30
0.0
 10
181.6716
 20
91.7016
 30
0.0
 10
181.6651
 20
93.601
 30
0.0
 10
181.6651
 20
93.601
 30
0.0
 10
181.6651
 20
93.601
 30
0.0
 10
181.6651
 20
93.601
 30
0.0
 10
176.7217
 20
91.3216
 30
0.0
 10
175.1688
 20
91.6278
 30
0.0
 10
175.1688
 20
91.6278
 30
0.0
 10
173.6158
 20
91.9343
 30
0.0
 10
169.4138
 20
92.0656
 30
0.0
 10
169.1402
 20
94.9085
 30
0.0
 10
169.1402
 20
94.9085
 30
0.0
 10
168.8663
 20
97.7518
 30
0.0
 10
168.6239
 20
97.6575
 30
0.0
 10
168.6239
 20
97.6575
 30
0.0
 10
168.6239
 20
97.6575
 30
0.0
 10
168.6239
 20
97.6575
 30
0.0
 10
166.0996
 20
94.94
 30
0.0
 10
166.3159
 20
93.4253
 30
0.0
 10
166.3159
 20
93.4253
 30
0.0
 10
166.5323
 20
91.9106
 30
0.0
 10
169.1983
 20
90.3001
 30
0.0
 10
169.1983
 20
90.3001
 30
0.0
 10
169.1983
 20
90.3001
 30
0.0
 10
169.1983
 20
90.3001
 30
0.0
 10
169.4553
 20
89.2422
 30
0.0
 10
168.0491
 20
89.881
 30
0.0
 10
168.0491
 20
89.881
 30
0.0
 10
166.6426
 20
90.5201
 30
0.0
 10
164.0987
 20
93.5009
 30
0.0
 10
163.8782
 20
96.2821
 30
0.0
 10
163.8782
 20
96.2821
 30
0.0
 10
163.6574
 20
99.0631
 30
0.0
 10
159.0232
 20
98.944
 30
0.0
 10
159.0232
 20
98.944
 30
0.0
 10
159.0232
 20
98.944
 30
0.0
 10
159.0232
 20
98.944
 30
0.0
 10
156.6696
 20
98.8011
 30
0.0
 10
156.6696
 20
98.8011
 30
0.0
 10
156.6696
 20
98.8011
 30
0.0
 10
156.6696
 20
98.8011
 30
0.0
 10
158.47
 20
94.0427
 30
0.0
 10
159.565
 20
91.8768
 30
0.0
 10
159.565
 20
91.8768
 30
0.0
 10
160.6597
 20
89.7111
 30
0.0
 10
167.1916
 20
87.4806
 30
0.0
 10
167.1916
 20
87.4806
 30
0.0
 10
167.1916
 20
87.4806
 30
0.0
 10
167.1916
 20
87.4806
 30
0.0
 10
173.9244
 20
88.1674
 30
0.0
 10
175.3365
 20
88.909
 30
0.0
 10
175.3365
 20
88.909
 30
0.0
 10
176.7487
 20
89.6507
 30
0.0
 10
178.0974
 20
90.3401
 30
0.0
 10
178.719
 20
90.7471
 30
0.0
 10
178.719
 20
90.7471
 30
0.0
 10
179.3406
 20
91.1541
 30
0.0
 10
179.5466
 20
89.525
 30
0.0
 10
178.1673
 20
88.4929
 30
0.0
 10
178.1673
 20
88.4929
 30
0.0
 10
176.7878
 20
87.4607
 30
0.0
 10
177.5016
 20
85.6152
 30
0.0
 10
179.2866
 20
85.2892
 30
0.0
 10
179.2866
 20
85.2892
 30
0.0
 10
181.0719
 20
84.9628
 30
0.0
 10
183.0772
 20
85.1356
 30
0.0
 10
183.4234
 20
85.7388
 30
0.0
 10
183.4234
 20
85.7388
 30
0.0
 10
183.7699
 20
86.3421
 30
0.0
 10
181.2854
 20
87.3614
 30
0.0
 10
181.3218
 20
89.0845
 30
0.0
 10
181.3218
 20
89.0845
 30
0.0
 10
181.358
 20
90.8079
 30
0.0
 10
181.6716
 20
91.7016
 30
0.0
 10
181.6716
 20
91.7016
 30
0.0
  0
SPLINE
  5
55
330
1F
100
AcDbEntity
  8
layer 1
 62
     7
370
     9
100
AcDbSpline
210
0.0
220
0.0
230
1.0
 70
    11
 71
     3
 72
    52
 73
    48
 74
     0
 42
0.0000000001
 43
0.0000000001
 12
1.0
 22
0.0
 32
0.0
 13
1.0
 23
0.0
 33
0.0
 40
0.0
 40
0.0
 40
0.0
 40
0.0
 40
0.0769230769230769
 40
0.0769230769230769
 40
0.0769230769230769
 40
0.0769230769230769
 40
0.1538461538461539
 40
0.1538461538461539
 40
0.1538461538461539
 40
0.1538461538461539
 40
0.2307692307692308
 40
0.2307692307692308
 40
0.2307692307692308
 40
0.2307692307692308
 40
0.3076923076923077
 40
0.3076923076923077
 40
0.3076923076923077
 40
0.3076923076923077
 40
0.3846153846153846
 40
0.3846153846153846
 40
0.3846153846153846
 40
0.3846153846153846
 40
0.4615384615384616
 40
0.4615384615384616
 40
0.4615384615384616
 40
0.4615384615384616
 40
0.5384615384615384
 40
0.5384615384615384
 40
0.5384615384615384
 40
0.5384615384615384
 40
0.6153846153846154
 40
0.6153846153846154
 40
0.6153846153846154
 40
0.6153846153846154
 40
0.6923076923076923
 40
0.6923076923076923
 40
0.6923076923076923
 40
0.6923076923076923
 40
0.7692307692307693
 40
0.7692307692307693
 40
0.7692307692307693
 40
0.7692307692307693
 40
0.8461538461538461
 40
0.8461538461538461
 40
0.8461538461538461
 40
0.8461538461538461
 40
1.0
 40
1.0
 40
1.0
 40
1.0
 10
136.2855
 20
109.543
 30
0.0
 10
136.2855
 20
109.543
 30
0.0
 10
134.3283
 20
105.823
 30
0.0
 10
136.5965
 20
105.8582
 30
0.0
 10
136.5965
 20
105.8582
 30
0.0
 10
138.8647
 20
105.8935
 30
0.0
 10
135.6663
 20
107.4233
 30
0.0
 10
139.6955
 20
107.9163
 30
0.0
 10
139.6955
 20
107.9163
 30
0.0
 10
143.7247
 20
108.4092
 30
0.0
 10
142.4066
 20
104.8317
 30
0.0
 10
141.6056
 20
103.9413
 30
0.0
 10
141.6056
 20
103.9413
 30
0.0
 10
140.8044
 20
103.0506
 30
0.0
 10
139.4299
 20
102.5816
 30
0.0
 10
137.2103
 20
102.5407
 30
0.0
 10
137.2103
 20
102.5407
 30
0.0
 10
134.9908
 20
102.5001
 30
0.0
 10
133.9408
 20
107.4666
 30
0.0
 10
133.3356
 20
104.0012
 30
0.0
 10
133.3356
 20
104.0012
 30
0.0
 10
133.3356
 20
104.0012
 30
0.0
 10
133.1106
 20
102.7129
 30
0.0
 10
133.1106
 20
102.7129
 30
0.0
 10
133.1106
 20
102.7129
 30
0.0
 10
133.1106
 20
102.7129
 30
0.0
 10
134.6691
 20
96.3687
 30
0.0
 10
137.0017
 20
94.0978
 30
0.0
 10
137.0017
 20
94.0978
 30
0.0
 10
139.3339
 20
91.8267
 30
0.0
 10
132.1125
 20
95.454
 30
0.0
 10
130.8646
 20
99.062
 30
0.0
 10
130.8646
 20
99.062
 30
0.0
 10
129.6167
 20
102.6703
 30
0.0
 10
129.4471
 20
104.0762
 30
0.0
 10
130.9115
 20
106.7573
 30
0.0
 10
130.9115
 20
106.7573
 30
0.0
 10
132.3761
 20
109.4381
 30
0.0
 10
136.2425
 20
112.0297
 30
0.0
 10
136.2425
 20
112.0297
 30
0.0
 10
136.2425
 20
112.0297
 30
0.0
 10
136.2425
 20
112.0297
 30
0.0
 10
140.4549
 20
112.5019
 30
0.0
 10
137.7925
 20
110.6863
 30
0.0
 10
137.7925
 20
110.6863
 30
0.0
 10
135.1304
 20
108.8707
 30
0.0
 10
136.2855
 20
109.543
 30
0.0
 10
136.2855
 20
109.543
 30
0.0
  0
SPLINE
  5
56
330
1F
100
AcDbEntity
  8
layer 1
 62
     7
370
     9
100
AcDbSpline
210
0.0
220
0.0
230
1.0
 70
    11
 71
     3
 72
    20
 73
    16
 74
     0
 42
0.0000000001
 43
0.0000000001
 12
1.0
 22
0.0
 32
0.0
 13
1.0
 23
0.0
 33
0.0
 40
0.0
 40
0.0
 40
0.0
 40
0.0
 40
0.2
 40
0.2
 40
0.2
 40
0.2
 40
0.4
 40
0.4
 40
0.4
 40
0.4
 40
0.6
 40
0.6
 40
0.6
 40
0.6
 40
1.0
 40
1.0
 40
1.0
 40
1.0
 10
178.1937
 20
75.5228
 30
0.0
 10
176.8794
 20
75.5228
 30
0.0
 10
175.8078
 20
76.5336
 30
0.0
 10
175.8078
 20
77.7729
 30
0.0
 10
175.8078
 20
77.7729
 30
0.0
 10
175.8078
 20
79.0122
 30
0.0
 10
176.8794
 20
80.023
 30
0.0
 10
178.1937
 20
80.023
 30
0.0
 10
178.1937
 20
80.023
 30
0.0
 10
179.5077
 20
80.023
 30
0.0
 10
180.5796
 20
79.0122
 30
0.0
 10
180.5796
 20
77.7729
 30
0.0
 10
180.5796
 20
77.7729
 30
0.0
 10
180.5796
 20
76.5336
 30
0.0
 10
179.5077
 20
75.5228
 30
0.0
 10
178.1937
 20
75.5228
 30
0.0
  0
SPLINE
  5
57
330
1F
100
AcDbEntity
  8
layer 1
 62
     7
370
     9
100
AcDbSpline
210
0.0
220
0.0
230
1.0
 70
    11
 71
     3
 72
    24
 73
    20
 74
     0
 42
0.0000000001
 43
0.0000000001
 12
1.0
 22
0.0
 32
0.0
 13
1.0
 23
0.0
 33
0.0
 40
0.0
 40
0.0
 40
0.0
 40
0.0
 40
0.1666666666666667
 40
0.1666666666666667
 40
0.1666666666666667
 40
0.1666666666666667
 40
0.3333333333333333
 40
0.3333333333333333
 40
0.3333333333333333
 40
0.3333333333333333
 40
0.5
 40
0.5
 40
0.5
 40
0.5
 40
0.6666666666666666
 40
0.6666666666666666
 40
0.6666666666666666
 40
0.6666666666666666
 40
1.0
 40
1.0
 40
1.0
 40
1.0
 10
138.2591
 20
74.4486
 30
0.0
 10
138.2591
 20
74.4486
 30
0.0
 10
135.2893
 20
79.8022
 30
0.0
 10
136.5763
 20
82.2355
 30
0.0
 10
136.5763
 20
82.2355
 30
0.0
 10
137.8631
 20
84.6691
 30
0.0
 10
134.9922
 20
84.4743
 30
0.0
 10
133.7055
 20
84.3768
 30
0.0
 10
133.7055
 20
84.3768
 30
0.0
 10
132.4184
 20
84.2796
 30
0.0
 10
129.2506
 20
83.5981
 30
0.0
 10
128.8546
 20
79.9966
 30
0.0
 10
128.8546
 20
79.9966
 30
0.0
 10
128.4586
 20
76.3952
 30
0.0
 10
129.7456
 20
77.7581
 30
0.0
 10
131.3294
 20
77.9525
 30
0.0
 10
131.3294
 20
77.9525
 30
0.0
 10
132.9135
 20
78.1473
 30
0.0
 10
138.2591
 20
74.4486
 30
0.0
 10
138.2591
 20
74.4486
 30
0.0
  0
SPLINE
  5
58
330
1F
100
AcDbEntity
  8
layer 1
 62
     7
370
     9
100
AcDbSpline
210
0.0
220
0.0
230
1.0
 70
    11
 71
     3
 72
    72
 73
    68
 74
     0
 42
0.0000000001
 43
0.0000000001
 12
1.0
 22
0.0
 32
0.0
 13
1.0
 23
0.0
 33
0.0
 40
0.0
 40
0.0
 40
0.0
 40
0.0
 40
0.0555555555555556
 40
0.0555555555555556
 40
0.0555555555555556
 40
0.0555555555555556
 40
0.1111111111111111
 40
0.1111111111111111
 40
0.1111111111111111
 40
0.1111111111111111
 40
0.1666666666666667
 40
0.1666666666666667
 40
0.1666666666666667
 40
0.1666666666666667
 40
0.2222222222222222
 40
0.2222222222222222
 40
0.2222222222222222
 40
0.2222222222222222
 40
0.2777777777777778
 40
0.2777777777777778
 40
0.2777777777777778
 40
0.2777777777777778
 40
0.3333333333333333
 40
0.3333333333333333
 40
0.3333333333333333
 40
0.3333333333333333
 40
0.3888888888888889
 40
0.3888888888888889
 40
0.3888888888888889
 40
0.3888888888888889
 40
0.4444444444444444
 40
0.4444444444444444
 40
0.4444444444444444
 40
0.4444444444444444
 40
0.5
 40
0.5
 40
0.5
 40
0.5
 40
0.5555555555555556
 40
0.5555555555555556
 40
0.5555555555555556
 40
0.5555555555555556
 40
0.6111111111111112
 40
0.6111111111111112
 40
0.6111111111111112
 40
0.6111111111111112
 40
0.6666666666666666
 40
0.6666666666666666
 40
0.6666666666666666
 40
0.6666666666666666
 40
0.7222222222222222
 40
0.7222222222222222
 40
0.7222222222222222
 40
0.7222222222222222
 40
0.7777777777777778
 40
0.7777777777777778
 40
0.7777777777777778
 40
0.7777777777777778
 40
0.8333333333333334
 40
0.8333333333333334
 40
0.8333333333333334
 40
0.8333333333333334
 40
0.8888888888888888
 40
0.8888888888888888
 40
0.8888888888888888
 40
0.8888888888888888
 40
1.0
 40
1.0
 40
1.0
 40
1.0
 10
131.6893
 20
87.7456
 30
0.0
 10
131.6893
 20
87.7456
 30
0.0
 10
134.7071
 20
86.9672
 30
0.0
 10
131.986
 20
88.7671
 30
0.0
 10
131.986
 20
88.7671
 30
0.0
 10
129.2651
 20
90.5669
 30
0.0
 10
127.88
 20
93.3879
 30
0.0
 10
127.88
 20
93.3879
 30
0.0
 10
127.88
 20
93.3879
 30
0.0
 10
127.88
 20
93.3879
 30
0.0
 10
126.9895
 20
99.2736
 30
0.0
 10
127.979
 20
101.4626
 30
0.0
 10
127.979
 20
101.4626
 30
0.0
 10
128.9684
 20
103.6514
 30
0.0
 10
124.5159
 20
99.6142
 30
0.0
 10
124.5654
 20
97.2307
 30
0.0
 10
124.5654
 20
97.2307
 30
0.0
 10
124.6149
 20
94.8472
 30
0.0
 10
125.1592
 20
93.0476
 30
0.0
 10
123.2298
 20
95.285
 30
0.0
 10
123.2298
 20
95.285
 30
0.0
 10
121.3004
 20
97.5227
 30
0.0
 10
120.509
 20
99.225
 30
0.0
 10
115.0175
 20
99.4194
 30
0.0
 10
115.0175
 20
99.4194
 30
0.0
 10
109.5264
 20
99.6142
 30
0.0
 10
109.5264
 20
99.3222
 30
0.0
 10
112.2472
 20
97.9116
 30
0.0
 10
112.2472
 20
97.9116
 30
0.0
 10
114.9683
 20
96.5012
 30
0.0
 10
114.4241
 20
94.3122
 30
0.0
 10
118.2334
 20
93.3879
 30
0.0
 10
118.2334
 20
93.3879
 30
0.0
 10
122.0426
 20
92.4637
 30
0.0
 10
123.3783
 20
93.2907
 30
0.0
 10
123.9225
 20
92.8529
 30
0.0
 10
123.9225
 20
92.8529
 30
0.0
 10
124.4664
 20
92.4151
 30
0.0
 10
125.2582
 20
91.4422
 30
0.0
 10
122.3888
 20
91.9773
 30
0.0
 10
122.3888
 20
91.9773
 30
0.0
 10
119.5195
 20
92.5123
 30
0.0
 10
119.4205
 20
90.7127
 30
0.0
 10
118.1839
 20
90.1777
 30
0.0
 10
118.1839
 20
90.1777
 30
0.0
 10
116.9469
 20
89.6427
 30
0.0
 10
113.9305
 20
87.9406
 30
0.0
 10
117.1944
 20
87.5509
 30
0.0
 10
117.1944
 20
87.5509
 30
0.0
 10
120.4583
 20
87.1614
 30
0.0
 10
121.7438
 20
87.6801
 30
0.0
 10
123.675
 20
89.4479
 30
0.0
 10
123.675
 20
89.4479
 30
0.0
 10
125.6062
 20
91.2161
 30
0.0
 10
125.6539
 20
89.6427
 30
0.0
 10
124.6644
 20
88.5237
 30
0.0
 10
124.6644
 20
88.5237
 30
0.0
 10
123.675
 20
87.405
 30
0.0
 10
122.9506
 20
87.5855
 30
0.0
 10
122.537
 20
84.8271
 30
0.0
 10
122.537
 20
84.8271
 30
0.0
 10
122.1238
 20
82.0686
 30
0.0
 10
122.0737
 20
82.6024
 30
0.0
 10
124.2192
 20
85.1187
 30
0.0
 10
124.2192
 20
85.1187
 30
0.0
 10
126.3463
 20
87.5998
 30
0.0
 10
131.6893
 20
87.7456
 30
0.0
 10
131.6893
 20
87.7456
 30
0.0
  0
SPLINE
  5
59
330
1F
100
AcDbEntity
  8
layer 1
 62
     7
370
     9
100
AcDbSpline
210
0.0
220
0.0
230
1.0
 70
    11
 71
     3
 72
    20
 73
    16
 74
     0
 42
0.0000000001
 43
0.0000000001
 12
1.0
 22
0.0
 32
0.0
 13
1.0
 23
0.0
 33
0.0
 40
0.0
 40
0.0
 40
0.0
 40
0.0
 40
0.2
 40
0.2
 40
0.2
 40
0.2
 40
0.4
 40
0.4
 40
0.4
 40
0.4
 40
0.6
 40
0.6
 40
0.6
 40
0.6
 40
1.0
 40
1.0
 40
1.0
 40
1.0
 10
124.4578
 20
106.4597
 30
0.0
 10
122.8524
 20
106.4597
 30
0.0
 10
121.5432
 20
107.6934
 30
0.0
 10
121.5432
 20
109.206
 30
0.0
 10
121.5432
 20
109.206
 30
0.0
 10
121.5432
 20
110.7186
 30
0.0
 10
122.8524
 20
111.9523
 30
0.0
 10
124.4578
 20
111.9523
 30
0.0
 10
124.4578
 20
111.9523
 30
0.0
 10
126.0629
 20
111.9523
 30
0.0
 10
127.3722
 20
110.7186
 30
0.0
 10
127.3722
 20
109.206
 30
0.0
 10
127.3722
 20
109.206
 30
0.0
 10
127.3722
 20
107.6934
 30
0.0
 10
126.0629
 20
106.4597
 30
0.0
 10
124.4578
 20
106.4597
 30
0.0
  0
SPLINE
  5
5A
330
1F
100
AcDbEntity
  8
layer 1
 62
     7
370
     9
100
AcDbSpline
210
0.0
220
0.0
230
1.0
 70
    11
 71
     3
 72
    20
 73
    16
 74
     0
 42
0.0000000001
 43
0.0000000001
 12
1.0
 22
0.0
 32
0.0
 13
1.0
 23
0.0
 33
0.0
 40
0.0
 40
0.0
 40
0.0
 40
0.0
 40
0.2
 40
0.2
 40
0.2
 40
0.2
 40
0.4
 40
0.4
 40
0.4
 40
0.4
 40
0.6
 40
0.6
 40
0.6
 40
0.6
 40
1.0
 40
1.0
 40
1.0
 40
1.0
 10
121.9928
 20
75.8939
 30
0.0
 10
120.3874
 20
75.8939
 30
0.0
 10
119.0784
 20
77.1276
 30
0.0
 10
119.0784
 20
78.6402
 30
0.0
 10
119.0784
 20
78.6402
 30
0.0
 10
119.0784
 20
80.1528
 30
0.0
 10
120.3874
 20
81.3868
 30
0.0
 10
121.9928
 20
81.3868
 30
0.0
 10
121.9928
 20
81.3868
 30
0.0
 10
123.5982
 20
81.3868
 30
0.0
 10
124.9075
 20
80.1528
 30
0.0
 10
124.9075
 20
78.6402
 30
0.0
 10
124.9075
 20
78.6402
 30
0.0
 10
124.9075
 20
77.1276
 30
0.0
 10
123.5982
 20
75.8939
 30
0.0
 10
121.9928
 20
75.8939
 30
0.0
  0
SPLINE
  5
5B
330
1F
100
AcDbEntity
  8
layer 1
 62
     7
370
     9
100
AcDbSpline
210
0.0
220
0.0
230
1.0
 70
    11
 71
     3
 72
    20
 73
    16
 74
     0
 42
0.0000000001
 43
0.0000000001
 12
1.0
 22
0.0
 32
0.0
 13
1.0
 23
0.0
 33
0.0
 40
0.0
 40
0.0
 40
0.0
 40
0.0
 40
0.2
 40
0.2
 40
0.2
 40
0.2
 40
0.4
 40
0.4
 40
0.4
 40
0.4
 40
0.6
 40
0.6
 40
0.6
 40
0.6
 40
1.0
 40
1.0
 40
1.0
 40
1.0
 10
194.4404
 20
61.6575
 30
0.0
 10
192.835
 20
61.6575
 30
0.0
 10
191.5257
 20
62.8912
 30
0.0
 10
191.5257
 20
64.4039
 30
0.0
 10
191.5257
 20
64.4039
 30
0.0
 10
191.5257
 20
65.9165
 30
0.0
 10
192.835
 20
67.1502
 30
0.0
 10
194.4404
 20
67.1502
 30
0.0
 10
194.4404
 20
67.1502
 30
0.0
 10
196.0455
 20
67.1502
 30
0.0
 10
197.3548
 20
65.9165
 30
0.0
 10
197.3548
 20
64.4039
 30
0.0
 10
197.3548
 20
64.4039
 30
0.0
 10
197.3548
 20
62.8912
 30
0.0
 10
196.0455
 20
61.6575
 30
0.0
 10
194.4404
 20
61.6575
 30
0.0
  0
SPLINE
  5
5C
330
1F
100
AcDbEntity
  8
layer 1
 62
     7
370
     9
100
AcDbSpline
210
0.0
220
0.0
230
1.0
 70
    11
 71
     3
 72
   104
 73
   100
 74
     0
 42
0.0000000001
 43
0.0000000001
 12
1.0
 22
0.0
 32
0.0
 13
1.0
 23
0.0
 33
0.0
 40
0.0
 40
0.0
 40
0.0
 40
0.0
 40
0.0384615384615385
 40
0.0384615384615385
 40
0.0384615384615385
 40
0.0384615384615385
 40
0.0769230769230769
 40
0.0769230769230769
 40
0.0769230769230769
 40
0.0769230769230769
 40
0.1153846153846154
 40
0.1153846153846154
 40
0.1153846153846154
 40
0.1153846153846154
 40
0.1538461538461539
 40
0.1538461538461539
 40
0.1538461538461539
 40
0.1538461538461539
 40
0.1923076923076923
 40
0.1923076923076923
 40
0.1923076923076923
 40
0.1923076923076923
 40
0.2307692307692308
 40
0.2307692307692308
 40
0.2307692307692308
 40
0.2307692307692308
 40
0.2692307692307692
 40
0.2692307692307692
 40
0.2692307692307692
 40
0.2692307692307692
 40
0.3076923076923077
 40
0.3076923076923077
 40
0.3076923076923077
 40
0.3076923076923077
 40
0.3461538461538461
 40
0.3461538461538461
 40
0.3461538461538461
 40
0.3461538461538461
 40
0.3846153846153846
 40
0.3846153846153846
 40
0.3846153846153846
 40
0.3846153846153846
 40
0.4230769230769231
 40
0.4230769230769231
 40
0.4230769230769231
 40
0.4230769230769231
 40
0.4615384615384616
 40
0.4615384615384616
 40
0.4615384615384616
 40
0.4615384615384616
 40
0.5
 40
0.5
 40
0.5
 40
0.5
 40
0.5384615384615384
 40
0.5384615384615384
 40
0.5384615384615384
 40
0.5384615384615384
 40
0.5769230769230769
 40
0.5769230769230769
 40
0.5769230769230769
 40
0.5769230769230769
 40
0.6153846153846154
 40
0.6153846153846154
 40
0.6153846153846154
 40
0.6153846153846154
 40
0.6538461538461539
 40
0.6538461538461539
 40
0.6538461538461539
 40
0.6538461538461539
 40
0.6923076923076923
 40
0.6923076923076923
 40
0.6923076923076923
 40
0.6923076923076923
 40
0.7307692307692307
 40
0.7307692307692307
 40
0.7307692307692307
 40
0.7307692307692307
 40
0.7692307692307693
 40
0.7692307692307693
 40
0.7692307692307693
 40
0.7692307692307693
 40
0.8076923076923077
 40
0.8076923076923077
 40
0.8076923076923077
 40
0.8076923076923077
 40
0.8461538461538461
 40
0.8461538461538461
 40
0.8461538461538461
 40
0.8461538461538461
 40
0.8846153846153846
 40
0.8846153846153846
 40
0.8846153846153846
 40
0.8846153846153846
 40
0.9230769230769231
 40
0.9230769230769231
 40
0.9230769230769231
 40
0.9230769230769231
 40
1.0
 40
1.0
 40
1.0
 40
1.0
 10
218.2179
 20
106.4226
 30
0.0
 10
218.1129
 20
104.2451
 30
0.0
 10
218.1384
 20
101.6695
 30
0.0
 10
217.3983
 20
100.0312
 30
0.0
 10
217.3983
 20
100.0312
 30
0.0
 10
216.6581
 20
98.3932
 30
0.0
 10
216.3466
 20
97.5099
 30
0.0
 10
212.6117
 20
95.3517
 30
0.0
 10
212.6117
 20
95.3517
 30
0.0
 10
208.8766
 20
93.1935
 30
0.0
 10
207.8643
 20
93.6713
 30
0.0
 10
205.0539
 20
94.0113
 30
0.0
 10
205.0539
 20
94.0113
 30
0.0
 10
202.2436
 20
94.351
 30
0.0
 10
203.1023
 20
95.0556
 30
0.0
 10
203.4352
 20
95.2992
 30
0.0
 10
203.4352
 20
95.2992
 30
0.0
 10
203.7681
 20
95.5429
 30
0.0
 10
204.3203
 20
96.3545
 30
0.0
 10
205.6195
 20
97.6033
 30
0.0
 10
205.6195
 20
97.6033
 30
0.0
 10
207.958
 20
97.8588
 30
0.0
 10
207.6034
 20
98.0909
 30
0.0
 10
204.5192
 20
99.1678
 30
0.0
 10
204.5192
 20
99.1678
 30
0.0
 10
201.435
 20
100.2447
 30
0.0
 10
200.6077
 20
102.233
 30
0.0
 10
199.7504
 20
104.1529
 30
0.0
 10
199.7504
 20
104.1529
 30
0.0
 10
198.8929
 20
106.0731
 30
0.0
 10
198.7722
 20
106.4342
 30
0.0
 10
199.5969
 20
106.393
 30
0.0
 10
199.5969
 20
106.393
 30
0.0
 10
200.4215
 20
106.3518
 30
0.0
 10
203.0573
 20
104.7449
 30
0.0
 10
201.8147
 20
106.877
 30
0.0
 10
201.8147
 20
106.877
 30
0.0
 10
200.8537
 20
108.5257
 30
0.0
 10
200.5985
 20
110.6501
 30
0.0
 10
201.2835
 20
112.2404
 30
0.0
 10
201.2835
 20
112.2404
 30
0.0
 10
201.2835
 20
112.2404
 30
0.0
 10
209.1813
 20
112.2404
 30
0.0
 10
209.1813
 20
112.2404
 30
0.0
 10
209.1813
 20
112.2404
 30
0.0
 10
209.1335
 20
112.2265
 30
0.0
 10
209.0843
 20
112.2117
 30
0.0
 10
209.0331
 20
112.1957
 30
0.0
 10
209.0331
 20
112.1957
 30
0.0
 10
206.1691
 20
111.2996
 30
0.0
 10
205.2691
 20
111.0029
 30
0.0
 10
204.6636
 20
108.547
 30
0.0
 10
204.6636
 20
108.547
 30
0.0
 10
204.058
 20
106.0912
 30
0.0
 10
205.4464
 20
101.0643
 30
0.0
 10
207.5293
 20
99.656
 30
0.0
 10
207.5293
 20
99.656
 30
0.0
 10
209.6126
 20
98.248
 30
0.0
 10
211.7669
 20
98.6274
 30
0.0
 10
213.5896
 20
99.5235
 30
0.0
 10
213.5896
 20
99.5235
 30
0.0
 10
215.4123
 20
100.4193
 30
0.0
 10
215.9331
 20
101.3153
 30
0.0
 10
215.9331
 20
101.3153
 30
0.0
 10
215.9331
 20
101.3153
 30
0.0
 10
215.9331
 20
101.3153
 30
0.0
 10
216.3235
 20
102.4675
 30
0.0
 10
213.8499
 20
101.3153
 30
0.0
 10
213.8499
 20
101.3153
 30
0.0
 10
211.3765
 20
100.1634
 30
0.0
 10
210.2048
 20
100.8034
 30
0.0
 10
210.2048
 20
100.8034
 30
0.0
 10
210.2048
 20
100.8034
 30
0.0
 10
210.2048
 20
100.8034
 30
0.0
 10
206.6899
 20
102.0833
 30
0.0
 10
209.9445
 20
102.5956
 30
0.0
 10
209.9445
 20
102.5956
 30
0.0
 10
213.1992
 20
103.1075
 30
0.0
 10
210.5881
 20
103.5785
 30
0.0
 10
210.5881
 20
103.5785
 30
0.0
 10
210.5881
 20
103.5785
 30
0.0
 10
210.5881
 20
103.5785
 30
0.0
 10
209.0259
 20
103.521
 30
0.0
 10
208.1145
 20
104.8009
 30
0.0
 10
208.1145
 20
104.8009
 30
0.0
 10
207.2033
 20
106.0811
 30
0.0
 10
207.5916
 20
107.2944
 30
0.0
 10
208.4085
 20
108.3146
 30
0.0
 10
208.4085
 20
108.3146
 30
0.0
 10
209.2254
 20
109.3352
 30
0.0
 10
209.6028
 20
109.2199
 30
0.0
 10
209.9935
 20
107.4281
 30
0.0
 10
209.9935
 20
107.4281
 30
0.0
 10
210.3841
 20
105.6359
 30
0.0
 10
212.8877
 20
103.6218
 30
0.0
 10
214.6383
 20
104.5377
 30
0.0
 10
214.6383
 20
104.5377
 30
0.0
 10
214.6383
 20
104.5377
 30
0.0
 10
218.2179
 20
106.4226
 30
0.0
 10
218.2179
 20
106.4226
 30
0.0
  0
SPLINE
  5
5D
330
1F
100
AcDbEntity
  8
layer 1
 62
     7
370
     9
100
AcDbSpline
210
0.0
220
0.0
230
1.0
 70
    11
 71
     3
 72
    20
 73
    16
 74
     0
 42
0.0000000001
 43
0.0000000001
 12
1.0
 22
0.0
 32
0.0
 13
1.0
 23
0.0
 33
0.0
 40
0.0
 40
0.0
 40
0.0
 40
0.0
 40
0.2
 40
0.2
 40
0.2
 40
0.2
 40
0.4
 40
0.4
 40
0.4
 40
0.4
 40
0.6
 40
0.6
 40
0.6
 40
0.6
 40
1.0
 40
1.0
 40
1.0
 40
1.0
 10
216.5467
 20
112.2404
 30
0.0
 10
216.6543
 20
111.2845
 30
0.0
 10
216.5496
 20
110.4311
 30
0.0
 10
216.314
 20
110.1347
 30
0.0
 10
216.314
 20
110.1347
 30
0.0
 10
215.7875
 20
109.4725
 30
0.0
 10
213.9311
 20
108.0256
 30
0.0
 10
211.718
 20
109.4336
 30
0.0
 10
211.718
 20
109.4336
 30
0.0
 10
210.1912
 20
110.405
 30
0.0
 10
210.8563
 20
111.7771
 30
0.0
 10
210.4751
 20
112.2404
 30
0.0
 10
210.4751
 20
112.2404
 30
0.0
 10
210.4751
 20
112.2404
 30
0.0
 10
216.5467
 20
112.2404
 30
0.0
 10
216.5467
 20
112.2404
 30
0.0
  0
SPLINE
  5
5E
330
1F
100
AcDbEntity
  8
layer 1
 62
     7
370
     9
100
AcDbSpline
210
0.0
220
0.0
230
1.0
 70
    11
 71
     3
 72
   128
 73
   124
 74
     0
 42
0.0000000001
 43
0.0000000001
 12
1.0
 22
0.0
 32
0.0
 13
1.0
 23
0.0
 33
0.0
 40
0.0
 40
0.0
 40
0.0
 40
0.0
 40
0.03125
 40
0.03125
 40
0.03125
 40
0.03125
 40
0.0625
 40
0.0625
 40
0.0625
 40
0.0625
 40
0.09375
 40
0.09375
 40
0.09375
 40
0.09375
 40
0.125
 40
0.125
 40
0.125
 40
0.125
 40
0.15625
 40
0.15625
 40
0.15625
 40
0.15625
 40
0.1875
 40
0.1875
 40
0.1875
 40
0.1875
 40
0.21875
 40
0.21875
 40
0.21875
 40
0.21875
 40
0.25
 40
0.25
 40
0.25
 40
0.25
 40
0.28125
 40
0.28125
 40
0.28125
 40
0.28125
 40
0.3125
 40
0.3125
 40
0.3125
 40
0.3125
 40
0.34375
 40
0.34375
 40
0.34375
 40
0.34375
 40
0.375
 40
0.375
 40
0.375
 40
0.375
 40
0.40625
 40
0.40625
 40
0.40625
 40
0.40625
 40
0.4375
 40
0.4375
 40
0.4375
 40
0.4375
 40
0.46875
 40
0.46875
 40
0.46875
 40
0.46875
 40
0.5
 40
0.5
 40
0.5
 40
0.5
 40
0.53125
 40
0.53125
 40
0.53125
 40
0.53125
 40
0.5625
 40
0.5625
 40
0.5625
 40
0.5625
 40
0.59375
 40
0.59375
 40
0.59375
 40
0.59375
 40
0.625
 40
0.625
 40
0.625
 40
0.625
 40
0.65625
 40
0.65625
 40
0.65625
 40
0.65625
 40
0.6875
 40
0.6875
 40
0.6875
 40
0.6875
 40
0.71875
 40
0.71875
 40
0.71875
 40
0.71875
 40
0.75
 40
0.75
 40
0.75
 40
0.75
 40
0.78125
 40
0.78125
 40
0.78125
 40
0.78125
 40
0.8125
 40
0.8125
 40
0.8125
 40
0.8125
 40
0.84375
 40
0.84375
 40
0.84375
 40
0.84375
 40
0.875
 40
0.875
 40
0.875
 40
0.875
 40
0.90625
 40
0.90625
 40
0.90625
 40
0.90625
 40
0.9375
 40
0.9375
 40
0.9375
 40
0.9375
 40
1.0
 40
1.0
 40
1.0
 40
1.0
 10
155.4433
 20
91.6714
 30
0.0
 10
155.3568
 20
89.8727
 30
0.0
 10
155.3778
 20
87.745
 30
0.0
 10
154.7663
 20
86.3919
 30
0.0
 10
154.7663
 20
86.3919
 30
0.0
 10
154.1551
 20
85.0387
 30
0.0
 10
153.8978
 20
84.3092
 30
0.0
 10
150.8124
 20
82.5263
 30
0.0
 10
150.8124
 20
82.5263
 30
0.0
 10
147.727
 20
80.7433
 30
0.0
 10
146.8908
 20
81.1381
 30
0.0
 10
144.5692
 20
81.4188
 30
0.0
 10
144.5692
 20
81.4188
 30
0.0
 10
142.248
 20
81.6996
 30
0.0
 10
142.9573
 20
82.2814
 30
0.0
 10
143.2321
 20
82.483
 30
0.0
 10
143.2321
 20
82.483
 30
0.0
 10
143.5072
 20
82.6843
 30
0.0
 10
143.9633
 20
83.3545
 30
0.0
 10
145.0364
 20
84.3863
 30
0.0
 10
145.0364
 20
84.3863
 30
0.0
 10
146.9681
 20
84.597
 30
0.0
 10
146.6753
 20
84.7888
 30
0.0
 10
144.1276
 20
85.6784
 30
0.0
 10
144.1276
 20
85.6784
 30
0.0
 10
141.5798
 20
86.5679
 30
0.0
 10
140.8966
 20
88.2107
 30
0.0
 10
140.1882
 20
89.7965
 30
0.0
 10
140.1882
 20
89.7965
 30
0.0
 10
139.48
 20
91.3826
 30
0.0
 10
139.3804
 20
91.6808
 30
0.0
 10
140.0613
 20
91.6468
 30
0.0
 10
140.0613
 20
91.6468
 30
0.0
 10
140.7425
 20
91.613
 30
0.0
 10
142.9199
 20
90.2853
 30
0.0
 10
141.8935
 20
92.0466
 30
0.0
 10
141.8935
 20
92.0466
 30
0.0
 10
140.8673
 20
93.8079
 30
0.0
 10
140.8151
 20
96.2258
 30
0.0
 10
142.1567
 20
97.4978
 30
0.0
 10
142.1567
 20
97.4978
 30
0.0
 10
143.4986
 20
98.7697
 30
0.0
 10
142.802
 20
100.7755
 30
0.0
 10
142.802
 20
100.7755
 30
0.0
 10
142.802
 20
100.7755
 30
0.0
 10
142.802
 20
100.7755
 30
0.0
 10
144.4269
 20
100.5595
 30
0.0
 10
144.8828
 20
99.2614
 30
0.0
 10
144.8828
 20
99.2614
 30
0.0
 10
145.3384
 20
97.9634
 30
0.0
 10
145.2213
 20
97.2861
 30
0.0
 10
145.2753
 20
97.2861
 30
0.0
 10
145.2753
 20
97.2861
 30
0.0
 10
145.3295
 20
97.2861
 30
0.0
 10
146.7031
 20
99.4929
 30
0.0
 10
148.179
 20
99.9296
 30
0.0
 10
148.179
 20
99.9296
 30
0.0
 10
149.6549
 20
100.3662
 30
0.0
 10
151.4052
 20
100.0354
 30
0.0
 10
152.8031
 20
99.0839
 30
0.0
 10
152.8031
 20
99.0839
 30
0.0
 10
154.2013
 20
98.1321
 30
0.0
 10
154.3057
 20
95.285
 30
0.0
 10
153.8708
 20
94.7378
 30
0.0
 10
153.8708
 20
94.7378
 30
0.0
 10
153.436
 20
94.1906
 30
0.0
 10
151.9023
 20
92.9955
 30
0.0
 10
150.0743
 20
94.1586
 30
0.0
 10
150.0743
 20
94.1586
 30
0.0
 10
148.246
 20
95.3218
 30
0.0
 10
150.2222
 20
97.1806
 30
0.0
 10
147.8565
 20
96.4404
 30
0.0
 10
147.8565
 20
96.4404
 30
0.0
 10
145.4905
 20
95.7003
 30
0.0
 10
144.7471
 20
95.4551
 30
0.0
 10
144.247
 20
93.4265
 30
0.0
 10
144.247
 20
93.4265
 30
0.0
 10
143.7467
 20
91.3978
 30
0.0
 10
144.8935
 20
87.2449
 30
0.0
 10
146.6142
 20
86.0818
 30
0.0
 10
146.6142
 20
86.0818
 30
0.0
 10
148.3349
 20
84.9187
 30
0.0
 10
150.1146
 20
85.232
 30
0.0
 10
151.6204
 20
85.9721
 30
0.0
 10
151.6204
 20
85.9721
 30
0.0
 10
153.1259
 20
86.7123
 30
0.0
 10
153.556
 20
87.4524
 30
0.0
 10
153.556
 20
87.4524
 30
0.0
 10
153.556
 20
87.4524
 30
0.0
 10
153.556
 20
87.4524
 30
0.0
 10
153.8785
 20
88.4042
 30
0.0
 10
151.8353
 20
87.4524
 30
0.0
 10
151.8353
 20
87.4524
 30
0.0
 10
149.7921
 20
86.5009
 30
0.0
 10
148.8243
 20
87.0297
 30
0.0
 10
148.8243
 20
87.0297
 30
0.0
 10
148.8243
 20
87.0297
 30
0.0
 10
148.8243
 20
87.0297
 30
0.0
 10
145.9206
 20
88.0871
 30
0.0
 10
148.6091
 20
88.5101
 30
0.0
 10
148.6091
 20
88.5101
 30
0.0
 10
151.2976
 20
88.933
 30
0.0
 10
149.1409
 20
89.322
 30
0.0
 10
149.1409
 20
89.322
 30
0.0
 10
149.1409
 20
89.322
 30
0.0
 10
149.1409
 20
89.322
 30
0.0
 10
147.8503
 20
89.2745
 30
0.0
 10
147.0977
 20
90.3318
 30
0.0
 10
147.0977
 20
90.3318
 30
0.0
 10
146.3448
 20
91.3892
 30
0.0
 10
146.6655
 20
92.3914
 30
0.0
 10
147.3404
 20
93.2344
 30
0.0
 10
147.3404
 20
93.2344
 30
0.0
 10
148.0154
 20
94.0774
 30
0.0
 10
148.3269
 20
93.9822
 30
0.0
 10
148.6497
 20
92.5019
 30
0.0
 10
148.6497
 20
92.5019
 30
0.0
 10
148.9722
 20
91.0216
 30
0.0
 10
151.0403
 20
89.3575
 30
0.0
 10
152.4868
 20
90.1146
 30
0.0
 10
152.4868
 20
90.1146
 30
0.0
 10
152.4868
 20
90.1146
 30
0.0
 10
155.4433
 20
91.6714
 30
0.0
 10
155.4433
 20
91.6714
 30
0.0
  0
SPLINE
  5
5F
330
1F
100
AcDbEntity
  8
layer 1
 62
     7
370
     9
100
AcDbSpline
210
0.0
220
0.0
230
1.0
 70
    11
 71
     3
 72
    20
 73
    16
 74
     0
 42
0.0000000001
 43
0.0000000001
 12
1.0
 22
0.0
 32
0.0
 13
1.0
 23
0.0
 33
0.0
 40
0.0
 40
0.0
 40
0.0
 40
0.0
 40
0.2
 40
0.2
 40
0.2
 40
0.2
 40
0.4
 40
0.4
 40
0.4
 40
0.4
 40
0.6
 40
0.6
 40
0.6
 40
0.6
 40
1.0
 40
1.0
 40
1.0
 40
1.0
 10
170.6131
 20
-22.2552
 30
0.0
 10
169.5771
 20
-22.2552
 30
0.0
 10
168.732
 20
-23.1142
 30
0.0
 10
168.732
 20
-24.168
 30
0.0
 10
168.732
 20
-24.168
 30
0.0
 10
168.732
 20
-25.2214
 30
0.0
 10
169.5771
 20
-26.0808
 30
0.0
 10
170.6131
 20
-26.0808
 30
0.0
 10
170.6131
 20
-26.0808
 30
0.0
 10
171.6494
 20
-26.0808
 30
0.0
 10
172.4945
 20
-25.2214
 30
0.0
 10
172.4945
 20
-24.168
 30
0.0
 10
172.4945
 20
-24.168
 30
0.0
 10
172.4945
 20
-23.1142
 30
0.0
 10
171.6494
 20
-22.2552
 30
0.0
 10
170.6131
 20
-22.2552
 30
0.0
  0
SPLINE
  5
60
330
1F
100
AcDbEntity
  8
layer 1
 62
     7
370
     9
100
AcDbSpline
210
0.0
220
0.0
230
1.0
 70
    11
 71
     3
 72
    20
 73
    16
 74
     0
 42
0.0000000001
 43
0.0000000001
 12
1.0
 22
0.0
 32
0.0
 13
1.0
 23
0.0
 33
0.0
 40
0.0
 40
0.0
 40
0.0
 40
0.0
 40
0.2
 40
0.2
 40
0.2
 40
0.2
 40
0.4
 40
0.4
 40
0.4
 40
0.4
 40
0.6
 40
0.6
 40
0.6
 40
0.6
 40
1.0
 40
1.0
 40
1.0
 40
1.0
 10
219.6549
 20
-64.2508
 30
0.0
 10
218.6186
 20
-64.2508
 30
0.0
 10
217.7738
 20
-65.1101
 30
0.0
 10
217.7738
 20
-66.1636
 30
0.0
 10
217.7738
 20
-66.1636
 30
0.0
 10
217.7738
 20
-67.2171
 30
0.0
 10
218.6186
 20
-68.0764
 30
0.0
 10
219.6549
 20
-68.0764
 30
0.0
 10
219.6549
 20
-68.0764
 30
0.0
 10
220.6909
 20
-68.0764
 30
0.0
 10
221.536
 20
-67.2171
 30
0.0
 10
221.536
 20
-66.1636
 30
0.0
 10
221.536
 20
-66.1636
 30
0.0
 10
221.536
 20
-65.1101
 30
0.0
 10
220.6909
 20
-64.2508
 30
0.0
 10
219.6549
 20
-64.2508
 30
0.0
  0
SPLINE
  5
61
330
1F
100
AcDbEntity
  8
layer 1
 62
     7
370
     9
100
AcDbSpline
210
0.0
220
0.0
230
1.0
 70
    11
 71
     3
 72
    20
 73
    16
 74
     0
 42
0.0000000001
 43
0.0000000001
 12
1.0
 22
0.0
 32
0.0
 13
1.0
 23
0.0
 33
0.0
 40
0.0
 40
0.0
 40
0.0
 40
0.0
 40
0.2
 40
0.2
 40
0.2
 40
0.2
 40
0.4
 40
0.4
 40
0.4
 40
0.4
 40
0.6
 40
0.6
 40
0.6
 40
0.6
 40
1.0
 40
1.0
 40
1.0
 40
1.0
 10
217.508
 20
96.0266
 30
0.0
 10
216.472
 20
96.0266
 30
0.0
 10
215.6269
 20
95.1673
 30
0.0
 10
215.6269
 20
94.1138
 30
0.0
 10
215.6269
 20
94.1138
 30
0.0
 10
215.6269
 20
93.0604
 30
0.0
 10
216.472
 20
92.2011
 30
0.0
 10
217.508
 20
92.2011
 30
0.0
 10
217.508
 20
92.2011
 30
0.0
 10
218.5442
 20
92.2011
 30
0.0
 10
219.3893
 20
93.0604
 30
0.0
 10
219.3893
 20
94.1138
 30
0.0
 10
219.3893
 20
94.1138
 30
0.0
 10
219.3893
 20
95.1673
 30
0.0
 10
218.5442
 20
96.0266
 30
0.0
 10
217.508
 20
96.0266
 30
0.0
  0
SPLINE
  5
62
330
1F
100
AcDbEntity
  8
layer 1
 62
     7
370
     9
100
AcDbSpline
210
0.0
220
0.0
230
1.0
 70
    11
 71
     3
 72
    16
 73
    12
 74
     0
 42
0.0000000001
 43
0.0000000001
 12
1.0
 22
0.0
 32
0.0
 13
1.0
 23
0.0
 33
0.0
 40
0.0
 40
0.0
 40
0.0
 40
0.0
 40
0.25
 40
0.25
 40
0.25
 40
0.25
 40
0.5
 40
0.5
 40
0.5
 40
0.5
 40
1.0
 40
1.0
 40
1.0
 40
1.0
 10
222.3793
 20
-22.3844
 30
0.0
 10
221.6465
 20
-23.3276
 30
0.0
 10
220.7875
 20
-25.2781
 30
0.0
 10
220.5391
 20
-27.8326
 30
0.0
 10
220.5391
 20
-27.8326
 30
0.0
 10
220.6767
 20
-28.252
 30
0.0
 10
221.5973
 20
-28.3172
 30
0.0
 10
222.3793
 20
-28.2938
 30
0.0
 10
222.3793
 20
-28.2938
 30
0.0
 10
222.3793
 20
-28.2938
 30
0.0
 10
222.3793
 20
-22.3844
 30
0.0
 10
222.3793
 20
-22.3844
 30
0.0
  0
SPLINE
  5
63
330
1F
100
AcDbEntity
  8
layer 1
 62
     7
370
     9
100
AcDbSpline
210
0.0
220
0.0
230
1.0
 70
    11
 71
     3
 72
    24
 73
    20
 74
     0
 42
0.0000000001
 43
0.0000000001
 12
1.0
 22
0.0
 32
0.0
 13
1.0
 23
0.0
 33
0.0
 40
0.0
 40
0.0
 40
0.0
 40
0.0
 40
0.1666666666666667
 40
0.1666666666666667
 40
0.1666666666666667
 40
0.1666666666666667
 40
0.3333333333333333
 40
0.3333333333333333
 40
0.3333333333333333
 40
0.3333333333333333
 40
0.5
 40
0.5
 40
0.5
 40
0.5
 40
0.6666666666666666
 40
0.6666666666666666
 40
0.6666666666666666
 40
0.6666666666666666
 40
1.0
 40
1.0
 40
1.0
 40
1.0
 10
222.3793
 20
-14.7896
 30
0.0
 10
221.6299
 20
-14.6654
 30
0.0
 10
220.6106
 20
-14.24
 30
0.0
 10
219.4284
 20
-13.0778
 30
0.0
 10
219.4284
 20
-13.0778
 30
0.0
 10
216.9056
 20
-10.5971
 30
0.0
 10
217.0538
 20
-11.3265
 30
0.0
 10
216.6086
 20
-8.1163
 30
0.0
 10
216.6086
 20
-8.1163
 30
0.0
 10
216.1634
 20
-4.9058
 30
0.0
 10
219.7255
 20
-7.8244
 30
0.0
 10
220.6159
 20
-8.9917
 30
0.0
 10
220.6159
 20
-8.9917
 30
0.0
 10
220.8969
 20
-7.5813
 30
0.0
 10
221.6608
 20
-5.6184
 30
0.0
 10
222.3793
 20
-4.1414
 30
0.0
 10
222.3793
 20
-4.1414
 30
0.0
 10
222.3793
 20
-4.1414
 30
0.0
 10
222.3793
 20
-14.7896
 30
0.0
 10
222.3793
 20
-14.7896
 30
0.0
  0
SPLINE
  5
64
330
1F
100
AcDbEntity
  8
layer 1
 62
     7
370
     9
100
AcDbSpline
210
0.0
220
0.0
230
1.0
 70
    11
 71
     3
 72
    20
 73
    16
 74
     0
 42
0.0000000001
 43
0.0000000001
 12
1.0
 22
0.0
 32
0.0
 13
1.0
 23
0.0
 33
0.0
 40
0.0
 40
0.0
 40
0.0
 40
0.0
 40
0.2
 40
0.2
 40
0.2
 40
0.2
 40
0.4
 40
0.4
 40
0.4
 40
0.4
 40
0.6
 40
0.6
 40
0.6
 40
0.6
 40
1.0
 40
1.0
 40
1.0
 40
1.0
 10
198.7562
 20
-1.5184
 30
0.0
 10
197.1508
 20
-1.5184
 30
0.0
 10
195.8416
 20
-2.7521
 30
0.0
 10
195.8416
 20
-4.2647
 30
0.0
 10
195.8416
 20
-4.2647
 30
0.0
 10
195.8416
 20
-5.7773
 30
0.0
 10
197.1508
 20
-7.011
 30
0.0
 10
198.7562
 20
-7.011
 30
0.0
 10
198.7562
 20
-7.011
 30
0.0
 10
200.3613
 20
-7.011
 30
0.0
 10
201.6706
 20
-5.7773
 30
0.0
 10
201.6706
 20
-4.2647
 30
0.0
 10
201.6706
 20
-4.2647
 30
0.0
 10
201.6706
 20
-2.7521
 30
0.0
 10
200.3613
 20
-1.5184
 30
0.0
 10
198.7562
 20
-1.5184
 30
0.0
  0
SPLINE
  5
65
330
1F
100
AcDbEntity
  8
layer 1
 62
     7
370
     9
100
AcDbSpline
210
0.0
220
0.0
230
1.0
 70
    11
 71
     3
 72
    20
 73
    16
 74
     0
 42
0.0000000001
 43
0.0000000001
 12
1.0
 22
0.0
 32
0.0
 13
1.0
 23
0.0
 33
0.0
 40
0.0
 40
0.0
 40
0.0
 40
0.0
 40
0.2
 40
0.2
 40
0.2
 40
0.2
 40
0.4
 40
0.4
 40
0.4
 40
0.4
 40
0.6
 40
0.6
 40
0.6
 40
0.6
 40
1.0
 40
1.0
 40
1.0
 40
1.0
 10
222.3793
 20
-41.1892
 30
0.0
 10
221.405
 20
-41.1711
 30
0.0
 10
219.8926
 20
-41.4415
 30
0.0
 10
218.6785
 20
-42.9902
 30
0.0
 10
218.6785
 20
-42.9902
 30
0.0
 10
216.7204
 20
-45.4884
 30
0.0
 10
217.7884
 20
-47.3342
 30
0.0
 10
218.6299
 20
-48.257
 30
0.0
 10
218.6299
 20
-48.257
 30
0.0
 10
219.7744
 20
-49.2814
 30
0.0
 10
221.3629
 20
-49.4664
 30
0.0
 10
222.3793
 20
-48.8848
 30
0.0
 10
222.3793
 20
-48.8848
 30
0.0
 10
222.3793
 20
-48.8848
 30
0.0
 10
222.3793
 20
-41.1892
 30
0.0
 10
222.3793
 20
-41.1892
 30
0.0
  0
SPLINE
  5
66
330
1F
100
AcDbEntity
  8
layer 1
 62
     7
370
     9
100
AcDbSpline
210
0.0
220
0.0
230
1.0
 70
    11
 71
     3
 72
    20
 73
    16
 74
     0
 42
0.0000000001
 43
0.0000000001
 12
1.0
 22
0.0
 32
0.0
 13
1.0
 23
0.0
 33
0.0
 40
0.0
 40
0.0
 40
0.0
 40
0.0
 40
0.2
 40
0.2
 40
0.2
 40
0.2
 40
0.4
 40
0.4
 40
0.4
 40
0.4
 40
0.6
 40
0.6
 40
0.6
 40
0.6
 40
1.0
 40
1.0
 40
1.0
 40
1.0
 10
219.0268
 20
-33.2449
 30
0.0
 10
217.9905
 20
-33.2449
 30
0.0
 10
217.1454
 20
-34.1042
 30
0.0
 10
217.1454
 20
-35.1577
 30
0.0
 10
217.1454
 20
-35.1577
 30
0.0
 10
217.1454
 20
-36.2114
 30
0.0
 10
217.9905
 20
-37.0708
 30
0.0
 10
219.0268
 20
-37.0708
 30
0.0
 10
219.0268
 20
-37.0708
 30
0.0
 10
220.0628
 20
-37.0708
 30
0.0
 10
220.9079
 20
-36.2114
 30
0.0
 10
220.9079
 20
-35.1577
 30
0.0
 10
220.9079
 20
-35.1577
 30
0.0
 10
220.9079
 20
-34.1042
 30
0.0
 10
220.0628
 20
-33.2449
 30
0.0
 10
219.0268
 20
-33.2449
 30
0.0
  0
SPLINE
  5
67
330
1F
100
AcDbEntity
  8
layer 1
 62
     7
370
     9
100
AcDbSpline
210
0.0
220
0.0
230
1.0
 70
    11
 71
     3
 72
   152
 73
   148
 74
     0
 42
0.0000000001
 43
0.0000000001
 12
1.0
 22
0.0
 32
0.0
 13
1.0
 23
0.0
 33
0.0
 40
0.0
 40
0.0
 40
0.0
 40
0.0
 40
0.0263157894736842
 40
0.0263157894736842
 40
0.0263157894736842
 40
0.0263157894736842
 40
0.0526315789473684
 40
0.0526315789473684
 40
0.0526315789473684
 40
0.0526315789473684
 40
0.0789473684210526
 40
0.0789473684210526
 40
0.0789473684210526
 40
0.0789473684210526
 40
0.1052631578947368
 40
0.1052631578947368
 40
0.1052631578947368
 40
0.1052631578947368
 40
0.131578947368421
 40
0.131578947368421
 40
0.131578947368421
 40
0.131578947368421
 40
0.1578947368421053
 40
0.1578947368421053
 40
0.1578947368421053
 40
0.1578947368421053
 40
0.1842105263157895
 40
0.1842105263157895
 40
0.1842105263157895
 40
0.1842105263157895
 40
0.2105263157894737
 40
0.2105263157894737
 40
0.2105263157894737
 40
0.2105263157894737
 40
0.2368421052631579
 40
0.2368421052631579
 40
0.2368421052631579
 40
0.2368421052631579
 40
0.2631578947368421
 40
0.2631578947368421
 40
0.2631578947368421
 40
0.2631578947368421
 40
0.2894736842105263
 40
0.2894736842105263
 40
0.2894736842105263
 40
0.2894736842105263
 40
0.3157894736842105
 40
0.3157894736842105
 40
0.3157894736842105
 40
0.3157894736842105
 40
0.3421052631578947
 40
0.3421052631578947
 40
0.3421052631578947
 40
0.3421052631578947
 40
0.3684210526315789
 40
0.3684210526315789
 40
0.3684210526315789
 40
0.3684210526315789
 40
0.3947368421052632
 40
0.3947368421052632
 40
0.3947368421052632
 40
0.3947368421052632
 40
0.4210526315789473
 40
0.4210526315789473
 40
0.4210526315789473
 40
0.4210526315789473
 40
0.4473684210526316
 40
0.4473684210526316
 40
0.4473684210526316
 40
0.4473684210526316
 40
0.4736842105263158
 40
0.4736842105263158
 40
0.4736842105263158
 40
0.4736842105263158
 40
0.5
 40
0.5
 40
0.5
 40
0.5
 40
0.5263157894736842
 40
0.5263157894736842
 40
0.5263157894736842
 40
0.5263157894736842
 40
0.5526315789473685
 40
0.5526315789473685
 40
0.5526315789473685
 40
0.5526315789473685
 40
0.5789473684210527
 40
0.5789473684210527
 40
0.5789473684210527
 40
0.5789473684210527
 40
0.6052631578947368
 40
0.6052631578947368
 40
0.6052631578947368
 40
0.6052631578947368
 40
0.631578947368421
 40
0.631578947368421
 40
0.631578947368421
 40
0.631578947368421
 40
0.6578947368421053
 40
0.6578947368421053
 40
0.6578947368421053
 40
0.6578947368421053
 40
0.6842105263157895
 40
0.6842105263157895
 40
0.6842105263157895
 40
0.6842105263157895
 40
0.7105263157894737
 40
0.7105263157894737
 40
0.7105263157894737
 40
0.7105263157894737
 40
0.7368421052631579
 40
0.7368421052631579
 40
0.7368421052631579
 40
0.7368421052631579
 40
0.7631578947368421
 40
0.7631578947368421
 40
0.7631578947368421
 40
0.7631578947368421
 40
0.7894736842105263
 40
0.7894736842105263
 40
0.7894736842105263
 40
0.7894736842105263
 40
0.8157894736842105
 40
0.8157894736842105
 40
0.8157894736842105
 40
0.8157894736842105
 40
0.8421052631578947
 40
0.8421052631578947
 40
0.8421052631578947
 40
0.8421052631578947
 40
0.868421052631579
 40
0.868421052631579
 40
0.868421052631579
 40
0.868421052631579
 40
0.8947368421052632
 40
0.8947368421052632
 40
0.8947368421052632
 40
0.8947368421052632
 40
0.9210526315789473
 40
0.9210526315789473
 40
0.9210526315789473
 40
0.9210526315789473
 40
0.9473684210526315
 40
0.9473684210526315
 40
0.9473684210526315
 40
0.9473684210526315
 40
1.0
 40
1.0
 40
1.0
 40
1.0
 10
222.3793
 20
-57.3475
 30
0.0
 10
221.1856
 20
-57.796
 30
0.0
 10
219.1632
 20
-58.3981
 30
0.0
 10
216.9009
 20
-58.401
 30
0.0
 10
216.9009
 20
-58.401
 30
0.0
 10
213.2947
 20
-58.4058
 30
0.0
 10
212.7801
 20
-57.8396
 30
0.0
 10
211.4394
 20
-57.5838
 30
0.0
 10
211.4394
 20
-57.5838
 30
0.0
 10
211.5333
 20
-56.5964
 30
0.0
 10
216.6486
 20
-58.3426
 30
0.0
 10
218.8006
 20
-56.3581
 30
0.0
 10
218.8006
 20
-56.3581
 30
0.0
 10
220.9526
 20
-54.3736
 30
0.0
 10
222.5705
 20
-52.0242
 30
0.0
 10
222.0212
 20
-51.6886
 30
0.0
 10
222.0212
 20
-51.6886
 30
0.0
 10
221.472
 20
-51.3528
 30
0.0
 10
218.7858
 20
-52.0387
 30
0.0
 10
217.0198
 20
-51.849
 30
0.0
 10
217.0198
 20
-51.849
 30
0.0
 10
215.2537
 20
-51.6593
 30
0.0
 10
212.2113
 20
-53.8045
 30
0.0
 10
211.6175
 20
-53.9942
 30
0.0
 10
211.6175
 20
-53.9942
 30
0.0
 10
211.0238
 20
-54.1839
 30
0.0
 10
207.0316
 20
-55.604
 30
0.0
 10
204.2118
 20
-50.9345
 30
0.0
 10
204.2118
 20
-50.9345
 30
0.0
 10
201.392
 20
-46.2651
 30
0.0
 10
201.5405
 20
-44.8301
 30
0.0
 10
201.5405
 20
-44.8301
 30
0.0
 10
201.5405
 20
-44.8301
 30
0.0
 10
201.5405
 20
-44.8301
 30
0.0
 10
205.4734
 20
-50.1561
 30
0.0
 10
206.8831
 20
-50.594
 30
0.0
 10
206.8831
 20
-50.594
 30
0.0
 10
208.2932
 20
-51.0318
 30
0.0
 10
213.3637
 20
-51.2265
 30
0.0
 10
213.7102
 20
-50.521
 30
0.0
 10
213.7102
 20
-50.521
 30
0.0
 10
214.0565
 20
-49.8159
 30
0.0
 10
212.2507
 20
-49.6454
 30
0.0
 10
210.9645
 20
-47.5053
 30
0.0
 10
210.9645
 20
-47.5053
 30
0.0
 10
209.6784
 20
-45.3651
 30
0.0
 10
208.3673
 20
-45.4138
 30
0.0
 10
205.9927
 20
-44.2462
 30
0.0
 10
205.9927
 20
-44.2462
 30
0.0
 10
203.6181
 20
-43.0789
 30
0.0
 10
201.6146
 20
-41.3721
 30
0.0
 10
201.7136
 20
-39.0416
 30
0.0
 10
201.7136
 20
-39.0416
 30
0.0
 10
201.7631
 20
-36.5165
 30
0.0
 10
201.9857
 20
-41.4987
 30
0.0
 10
205.9927
 20
-42.6411
 30
0.0
 10
205.9927
 20
-42.6411
 30
0.0
 10
209.9997
 20
-43.7835
 30
0.0
 10
212.0776
 20
-42.0331
 30
0.0
 10
212.4733
 20
-41.3522
 30
0.0
 10
212.4733
 20
-41.3522
 30
0.0
 10
212.869
 20
-40.6711
 30
0.0
 10
208.4909
 20
-41.2304
 30
0.0
 10
206.5864
 20
-39.2847
 30
0.0
 10
206.5864
 20
-39.2847
 30
0.0
 10
204.6816
 20
-37.3393
 30
0.0
 10
203.7912
 20
-34.8097
 30
0.0
 10
204.5085
 20
-31.8425
 30
0.0
 10
204.5085
 20
-31.8425
 30
0.0
 10
205.2259
 20
-28.8754
 30
0.0
 10
208.4909
 20
-24.7896
 30
0.0
 10
210.7173
 20
-23.6952
 30
0.0
 10
210.7173
 20
-23.6952
 30
0.0
 10
212.9434
 20
-22.6008
 30
0.0
 10
209.703
 20
-24.7653
 30
0.0
 10
209.1836
 20
-27.3918
 30
0.0
 10
209.1836
 20
-27.3918
 30
0.0
 10
208.664
 20
-30.0187
 30
0.0
 10
208.3673
 20
-32.9372
 30
0.0
 10
209.8515
 20
-34.5423
 30
0.0
 10
209.8515
 20
-34.5423
 30
0.0
 10
211.3356
 20
-36.1474
 30
0.0
 10
213.6358
 20
-37.3879
 30
0.0
 10
213.6358
 20
-38.4094
 30
0.0
 10
213.6358
 20
-38.4094
 30
0.0
 10
213.6358
 20
-39.4308
 30
0.0
 10
215.4911
 20
-36.5123
 30
0.0
 10
214.9718
 20
-33.3747
 30
0.0
 10
214.9718
 20
-33.3747
 30
0.0
 10
214.4522
 20
-30.2374
 30
0.0
 10
212.2261
 20
-27.538
 30
0.0
 10
212.2261
 20
-26.4433
 30
0.0
 10
212.2261
 20
-26.4433
 30
0.0
 10
212.2261
 20
-25.3489
 30
0.0
 10
213.6607
 20
-21.3846
 30
0.0
 10
215.4416
 20
-20.8739
 30
0.0
 10
215.4416
 20
-20.8739
 30
0.0
 10
217.2225
 20
-20.3632
 30
0.0
 10
213.8585
 20
-22.2116
 30
0.0
 10
214.007
 20
-25.2031
 30
0.0
 10
214.007
 20
-25.2031
 30
0.0
 10
214.1555
 20
-28.1945
 30
0.0
 10
215.8622
 20
-29.6538
 30
0.0
 10
217.5687
 20
-30.2374
 30
0.0
 10
217.5687
 20
-30.2374
 30
0.0
 10
219.2755
 20
-30.8211
 30
0.0
 10
219.8313
 20
-30.4808
 30
0.0
 10
219.7951
 20
-30.3833
 30
0.0
 10
219.7951
 20
-30.3833
 30
0.0
 10
219.7587
 20
-30.286
 30
0.0
 10
217.6431
 20
-27.8296
 30
0.0
 10
218.1624
 20
-24.7653
 30
0.0
 10
218.1624
 20
-24.7653
 30
0.0
 10
218.6311
 20
-22.0006
 30
0.0
 10
218.3216
 20
-20.8757
 30
0.0
 10
222.3793
 20
-18.6463
 30
0.0
 10
222.3793
 20
-18.6463
 30
0.0
 10
222.3793
 20
-18.6463
 30
0.0
 10
222.3793
 20
-16.5328
 30
0.0
 10
222.3793
 20
-16.5328
 30
0.0
 10
222.3793
 20
-16.5328
 30
0.0
 10
219.3698
 20
-17.4731
 30
0.0
 10
212.4179
 20
-19.8154
 30
0.0
 10
208.3673
 20
-23.4518
 30
0.0
 10
208.3673
 20
-23.4518
 30
0.0
 10
203.247
 20
-28.0487
 30
0.0
 10
201.0953
 20
-31.7696
 30
0.0
 10
200.7242
 20
-34.6882
 30
0.0
 10
200.7242
 20
-34.6882
 30
0.0
 10
200.353
 20
-37.6067
 30
0.0
 10
199.6852
 20
-42.4223
 30
0.0
 10
200.1304
 20
-45.9974
 30
0.0
 10
200.1304
 20
-45.9974
 30
0.0
 10
200.5757
 20
-49.5725
 30
0.0
 10
202.6535
 20
-53.4396
 30
0.0
 10
206.5864
 20
-56.3581
 30
0.0
 10
206.5864
 20
-56.3581
 30
0.0
 10
210.5193
 20
-59.2766
 30
0.0
 10
212.8198
 20
-60.7359
 30
0.0
 10
216.9009
 20
-60.9547
 30
0.0
 10
216.9009
 20
-60.9547
 30
0.0
 10
219.3671
 20
-61.0872
 30
0.0
 10
221.2639
 20
-60.7931
 30
0.0
 10
222.3793
 20
-60.5397
 30
0.0
 10
222.3793
 20
-60.5397
 30
0.0
 10
222.3793
 20
-60.5397
 30
0.0
 10
222.3793
 20
-57.3475
 30
0.0
 10
222.3793
 20
-57.3475
 30
0.0
  0
SPLINE
  5
68
330
1F
100
AcDbEntity
  8
layer 1
 62
     7
370
     9
100
AcDbSpline
210
0.0
220
0.0
230
1.0
 70
    11
 71
     3
 72
    80
 73
    76
 74
     0
 42
0.0000000001
 43
0.0000000001
 12
1.0
 22
0.0
 32
0.0
 13
1.0
 23
0.0
 33
0.0
 40
0.0
 40
0.0
 40
0.0
 40
0.0
 40
0.05
 40
0.05
 40
0.05
 40
0.05
 40
0.1
 40
0.1
 40
0.1
 40
0.1
 40
0.15
 40
0.15
 40
0.15
 40
0.15
 40
0.2
 40
0.2
 40
0.2
 40
0.2
 40
0.25
 40
0.25
 40
0.25
 40
0.25
 40
0.3
 40
0.3
 40
0.3
 40
0.3
 40
0.35
 40
0.35
 40
0.35
 40
0.35
 40
0.4
 40
0.4
 40
0.4
 40
0.4
 40
0.45
 40
0.45
 40
0.45
 40
0.45
 40
0.5
 40
0.5
 40
0.5
 40
0.5
 40
0.55
 40
0.55
 40
0.55
 40
0.55
 40
0.6
 40
0.6
 40
0.6
 40
0.6
 40
0.65
 40
0.65
 40
0.65
 40
0.65
 40
0.7
 40
0.7
 40
0.7
 40
0.7
 40
0.75
 40
0.75
 40
0.75
 40
0.75
 40
0.8
 40
0.8
 40
0.8
 40
0.8
 40
0.85
 40
0.85
 40
0.85
 40
0.85
 40
0.9
 40
0.9
 40
0.9
 40
0.9
 40
1.0
 40
1.0
 40
1.0
 40
1.0
 10
102.2703
 20
-65.9324
 30
0.0
 10
102.2703
 20
-65.9324
 30
0.0
 10
102.4482
 20
-86.2279
 30
0.0
 10
102.4482
 20
-86.2279
 30
0.0
 10
102.4482
 20
-86.2279
 30
0.0
 10
102.4482
 20
-86.2279
 30
0.0
 10
117.8951
 20
-86.2279
 30
0.0
 10
117.8951
 20
-86.2279
 30
0.0
 10
117.8951
 20
-86.2279
 30
0.0
 10
118.18
 20
-85.8345
 30
0.0
 10
118.4435
 20
-85.3514
 30
0.0
 10
118.6682
 20
-84.7576
 30
0.0
 10
118.6682
 20
-84.7576
 30
0.0
 10
120.134
 20
-80.8846
 30
0.0
 10
119.2181
 20
-78.6327
 30
0.0
 10
119.2181
 20
-78.6327
 30
0.0
 10
119.2181
 20
-78.6327
 30
0.0
 10
119.2181
 20
-78.6327
 30
0.0
 10
118.485
 20
-76.5611
 30
0.0
 10
115.3705
 20
-77.1916
 30
0.0
 10
115.3705
 20
-77.1916
 30
0.0
 10
112.2558
 20
-77.822
 30
0.0
 10
112.8969
 20
-81.1547
 30
0.0
 10
114.1795
 20
-81.7852
 30
0.0
 10
114.1795
 20
-81.7852
 30
0.0
 10
115.4621
 20
-82.4159
 30
0.0
 10
117.1108
 20
-81.7852
 30
0.0
 10
116.3781
 20
-83.5868
 30
0.0
 10
116.3781
 20
-83.5868
 30
0.0
 10
115.6453
 20
-85.3881
 30
0.0
 10
112.2558
 20
-86.2889
 30
0.0
 10
108.1332
 20
-85.8387
 30
0.0
 10
108.1332
 20
-85.8387
 30
0.0
 10
104.0109
 20
-85.3881
 30
0.0
 10
110.79
 20
-86.4692
 30
0.0
 10
111.6143
 20
-83.3164
 30
0.0
 10
111.6143
 20
-83.3164
 30
0.0
 10
112.439
 20
-80.164
 30
0.0
 10
111.5227
 20
-80.164
 30
0.0
 10
109.9654
 20
-82.0555
 30
0.0
 10
109.9654
 20
-82.0555
 30
0.0
 10
108.4083
 20
-83.9469
 30
0.0
 10
107.0341
 20
-82.5057
 30
0.0
 10
106.301
 20
-81.7852
 30
0.0
 10
106.301
 20
-81.7852
 30
0.0
 10
105.5683
 20
-81.0646
 30
0.0
 10
104.3773
 20
-79.8036
 30
0.0
 10
104.2857
 20
-78.0924
 30
0.0
 10
104.2857
 20
-78.0924
 30
0.0
 10
104.1941
 20
-76.3809
 30
0.0
 10
103.7361
 20
-80.5242
 30
0.0
 10
109.2326
 20
-78.3624
 30
0.0
 10
109.2326
 20
-78.3624
 30
0.0
 10
114.7291
 20
-76.2006
 30
0.0
 10
107.95
 20
-79.5336
 30
0.0
 10
106.2094
 20
-74.3092
 30
0.0
 10
106.2094
 20
-74.3092
 30
0.0
 10
104.4689
 20
-69.0848
 30
0.0
 10
106.2094
 20
-69.7153
 30
0.0
 10
104.9271
 20
-66.923
 30
0.0
 10
104.9271
 20
-66.923
 30
0.0
 10
103.6445
 20
-64.1308
 30
0.0
 10
106.4842
 20
-69.8054
 30
0.0
 10
111.981
 20
-67.3736
 30
0.0
 10
111.981
 20
-67.3736
 30
0.0
 10
115.3705
 20
-65.8423
 30
0.0
 10
114.8207
 20
-64.7613
 30
0.0
 10
114.8207
 20
-64.7613
 30
0.0
 10
114.8207
 20
-64.7613
 30
0.0
 10
114.8207
 20
-64.7613
 30
0.0
 10
114.0879
 20
-66.1123
 30
0.0
 10
111.5227
 20
-63.8607
 30
0.0
 10
111.5227
 20
-63.8607
 30
0.0
 10
108.9578
 20
-61.6089
 30
0.0
 10
102.2703
 20
-65.9324
 30
0.0
 10
102.2703
 20
-65.9324
 30
0.0
  0
SPLINE
  5
69
330
1F
100
AcDbEntity
  8
layer 1
 62
     7
370
     9
100
AcDbSpline
210
0.0
220
0.0
230
1.0
 70
    11
 71
     3
 72
    64
 73
    60
 74
     0
 42
0.0000000001
 43
0.0000000001
 12
1.0
 22
0.0
 32
0.0
 13
1.0
 23
0.0
 33
0.0
 40
0.0
 40
0.0
 40
0.0
 40
0.0
 40
0.0625
 40
0.0625
 40
0.0625
 40
0.0625
 40
0.125
 40
0.125
 40
0.125
 40
0.125
 40
0.1875
 40
0.1875
 40
0.1875
 40
0.1875
 40
0.25
 40
0.25
 40
0.25
 40
0.25
 40
0.3125
 40
0.3125
 40
0.3125
 40
0.3125
 40
0.375
 40
0.375
 40
0.375
 40
0.375
 40
0.4375
 40
0.4375
 40
0.4375
 40
0.4375
 40
0.5
 40
0.5
 40
0.5
 40
0.5
 40
0.5625
 40
0.5625
 40
0.5625
 40
0.5625
 40
0.625
 40
0.625
 40
0.625
 40
0.625
 40
0.6875
 40
0.6875
 40
0.6875
 40
0.6875
 40
0.75
 40
0.75
 40
0.75
 40
0.75
 40
0.8125
 40
0.8125
 40
0.8125
 40
0.8125
 40
0.875
 40
0.875
 40
0.875
 40
0.875
 40
1.0
 40
1.0
 40
1.0
 40
1.0
 10
171.1443
 20
-79.9023
 30
0.0
 10
171.1443
 20
-79.9023
 30
0.0
 10
169.717
 20
-79.8027
 30
0.0
 10
168.4531
 20
-80.5331
 30
0.0
 10
168.4531
 20
-80.5331
 30
0.0
 10
167.1892
 20
-81.2635
 30
0.0
 10
166.6429
 20
-82.4562
 30
0.0
 10
167.1003
 20
-83.3399
 30
0.0
 10
167.1003
 20
-83.3399
 30
0.0
 10
167.5576
 20
-84.2235
 30
0.0
 10
170.7569
 20
-84.34
 30
0.0
 10
172.4868
 20
-83.6221
 30
0.0
 10
172.4868
 20
-83.6221
 30
0.0
 10
174.2167
 20
-82.9044
 30
0.0
 10
175.9679
 20
-81.4229
 30
0.0
 10
176.7576
 20
-79.8546
 30
0.0
 10
176.7576
 20
-79.8546
 30
0.0
 10
177.5475
 20
-78.2859
 30
0.0
 10
175.914
 20
-78.8841
 30
0.0
 10
175.0745
 20
-78.8921
 30
0.0
 10
175.0745
 20
-78.8921
 30
0.0
 10
174.2348
 20
-78.9001
 30
0.0
 10
170.6371
 20
-77.4583
 30
0.0
 10
169.7849
 20
-77.359
 30
0.0
 10
169.7849
 20
-77.359
 30
0.0
 10
168.9327
 20
-77.2597
 30
0.0
 10
165.566
 20
-75.9007
 30
0.0
 10
162.5674
 20
-78.6324
 30
0.0
 10
162.5674
 20
-78.6324
 30
0.0
 10
159.5689
 20
-81.3645
 30
0.0
 10
159.774
 20
-84.0602
 30
0.0
 10
159.8493
 20
-84.704
 30
0.0
 10
159.8493
 20
-84.704
 30
0.0
 10
159.8958
 20
-85.1009
 30
0.0
 10
160.1496
 20
-85.689
 30
0.0
 10
160.3078
 20
-86.2279
 30
0.0
 10
160.3078
 20
-86.2279
 30
0.0
 10
160.3078
 20
-86.2279
 30
0.0
 10
166.3699
 20
-86.2279
 30
0.0
 10
166.3699
 20
-86.2279
 30
0.0
 10
166.3699
 20
-86.2279
 30
0.0
 10
165.7166
 20
-84.3667
 30
0.0
 10
164.7535
 20
-84.8827
 30
0.0
 10
164.123
 20
-85.3081
 30
0.0
 10
164.123
 20
-85.3081
 30
0.0
 10
163.4259
 20
-85.7785
 30
0.0
 10
162.6955
 20
-85.7741
 30
0.0
 10
162.5363
 20
-84.7914
 30
0.0
 10
162.5363
 20
-84.7914
 30
0.0
 10
162.3771
 20
-83.8091
 30
0.0
 10
163.5578
 20
-80.4779
 30
0.0
 10
165.0861
 20
-79.7396
 30
0.0
 10
165.0861
 20
-79.7396
 30
0.0
 10
166.6147
 20
-79.0012
 30
0.0
 10
167.5046
 20
-79.4224
 30
0.0
 10
169.4526
 20
-79.2454
 30
0.0
 10
169.4526
 20
-79.2454
 30
0.0
 10
170.6721
 20
-79.2191
 30
0.0
 10
171.1052
 20
-79.8884
 30
0.0
 10
171.1443
 20
-79.9023
 30
0.0
  0
SPLINE
  5
6A
330
1F
100
AcDbEntity
  8
layer 1
 62
     7
370
     9
100
AcDbSpline
210
0.0
220
0.0
230
1.0
 70
    11
 71
     3
 72
   184
 73
   180
 74
     0
 42
0.0000000001
 43
0.0000000001
 12
1.0
 22
0.0
 32
0.0
 13
1.0
 23
0.0
 33
0.0
 40
0.0
 40
0.0
 40
0.0
 40
0.0
 40
0.0217391304347826
 40
0.0217391304347826
 40
0.0217391304347826
 40
0.0217391304347826
 40
0.0434782608695652
 40
0.0434782608695652
 40
0.0434782608695652
 40
0.0434782608695652
 40
0.0652173913043478
 40
0.0652173913043478
 40
0.0652173913043478
 40
0.0652173913043478
 40
0.0869565217391304
 40
0.0869565217391304
 40
0.0869565217391304
 40
0.0869565217391304
 40
0.108695652173913
 40
0.108695652173913
 40
0.108695652173913
 40
0.108695652173913
 40
0.1304347826086956
 40
0.1304347826086956
 40
0.1304347826086956
 40
0.1304347826086956
 40
0.1521739130434783
 40
0.1521739130434783
 40
0.1521739130434783
 40
0.1521739130434783
 40
0.1739130434782609
 40
0.1739130434782609
 40
0.1739130434782609
 40
0.1739130434782609
 40
0.1956521739130435
 40
0.1956521739130435
 40
0.1956521739130435
 40
0.1956521739130435
 40
0.2173913043478261
 40
0.2173913043478261
 40
0.2173913043478261
 40
0.2173913043478261
 40
0.2391304347826087
 40
0.2391304347826087
 40
0.2391304347826087
 40
0.2391304347826087
 40
0.2608695652173913
 40
0.2608695652173913
 40
0.2608695652173913
 40
0.2608695652173913
 40
0.2826086956521739
 40
0.2826086956521739
 40
0.2826086956521739
 40
0.2826086956521739
 40
0.3043478260869565
 40
0.3043478260869565
 40
0.3043478260869565
 40
0.3043478260869565
 40
0.3260869565217391
 40
0.3260869565217391
 40
0.3260869565217391
 40
0.3260869565217391
 40
0.3478260869565217
 40
0.3478260869565217
 40
0.3478260869565217
 40
0.3478260869565217
 40
0.3695652173913043
 40
0.3695652173913043
 40
0.3695652173913043
 40
0.3695652173913043
 40
0.391304347826087
 40
0.391304347826087
 40
0.391304347826087
 40
0.391304347826087
 40
0.4130434782608696
 40
0.4130434782608696
 40
0.4130434782608696
 40
0.4130434782608696
 40
0.4347826086956522
 40
0.4347826086956522
 40
0.4347826086956522
 40
0.4347826086956522
 40
0.4565217391304348
 40
0.4565217391304348
 40
0.4565217391304348
 40
0.4565217391304348
 40
0.4782608695652174
 40
0.4782608695652174
 40
0.4782608695652174
 40
0.4782608695652174
 40
0.5
 40
0.5
 40
0.5
 40
0.5
 40
0.5217391304347826
 40
0.5217391304347826
 40
0.5217391304347826
 40
0.5217391304347826
 40
0.5434782608695652
 40
0.5434782608695652
 40
0.5434782608695652
 40
0.5434782608695652
 40
0.5652173913043478
 40
0.5652173913043478
 40
0.5652173913043478
 40
0.5652173913043478
 40
0.5869565217391305
 40
0.5869565217391305
 40
0.5869565217391305
 40
0.5869565217391305
 40
0.6086956521739131
 40
0.6086956521739131
 40
0.6086956521739131
 40
0.6086956521739131
 40
0.6304347826086957
 40
0.6304347826086957
 40
0.6304347826086957
 40
0.6304347826086957
 40
0.6521739130434783
 40
0.6521739130434783
 40
0.6521739130434783
 40
0.6521739130434783
 40
0.6739130434782609
 40
0.6739130434782609
 40
0.6739130434782609
 40
0.6739130434782609
 40
0.6956521739130435
 40
0.6956521739130435
 40
0.6956521739130435
 40
0.6956521739130435
 40
0.717391304347826
 40
0.717391304347826
 40
0.717391304347826
 40
0.717391304347826
 40
0.7391304347826086
 40
0.7391304347826086
 40
0.7391304347826086
 40
0.7391304347826086
 40
0.7608695652173914
 40
0.7608695652173914
 40
0.7608695652173914
 40
0.7608695652173914
 40
0.782608695652174
 40
0.782608695652174
 40
0.782608695652174
 40
0.782608695652174
 40
0.8043478260869565
 40
0.8043478260869565
 40
0.8043478260869565
 40
0.8043478260869565
 40
0.8260869565217391
 40
0.8260869565217391
 40
0.8260869565217391
 40
0.8260869565217391
 40
0.8478260869565217
 40
0.8478260869565217
 40
0.8478260869565217
 40
0.8478260869565217
 40
0.8695652173913043
 40
0.8695652173913043
 40
0.8695652173913043
 40
0.8695652173913043
 40
0.8913043478260869
 40
0.8913043478260869
 40
0.8913043478260869
 40
0.8913043478260869
 40
0.9130434782608695
 40
0.9130434782608695
 40
0.9130434782608695
 40
0.9130434782608695
 40
0.9347826086956522
 40
0.9347826086956522
 40
0.9347826086956522
 40
0.9347826086956522
 40
0.9565217391304348
 40
0.9565217391304348
 40
0.9565217391304348
 40
0.9565217391304348
 40
1.0
 40
1.0
 40
1.0
 40
1.0
 10
195.471
 20
-67.5998
 30
0.0
 10
193.9477
 20
-71.2009
 30
0.0
 10
193.3291
 20
-74.3095
 30
0.0
 10
193.0351
 20
-68.6381
 30
0.0
 10
193.0351
 20
-68.6381
 30
0.0
 10
192.741
 20
-62.9665
 30
0.0
 10
188.9813
 20
-62.1504
 30
0.0
 10
188.2699
 20
-61.8493
 30
0.0
 10
188.2699
 20
-61.8493
 30
0.0
 10
187.5585
 20
-61.5478
 30
0.0
 10
182.9675
 20
-62.0464
 30
0.0
 10
186.3209
 20
-59.4791
 30
0.0
 10
186.3209
 20
-59.4791
 30
0.0
 10
189.674
 20
-56.9121
 30
0.0
 10
193.1359
 20
-61.4826
 30
0.0
 10
193.4272
 20
-62.3896
 30
0.0
 10
193.4272
 20
-62.3896
 30
0.0
 10
193.7186
 20
-63.2967
 30
0.0
 10
195.1874
 20
-64.4133
 30
0.0
 10
194.5059
 20
-60.8983
 30
0.0
 10
194.5059
 20
-60.8983
 30
0.0
 10
193.8244
 20
-57.3837
 30
0.0
 10
190.688
 20
-57.6535
 30
0.0
 10
190.688
 20
-57.6535
 30
0.0
 10
190.688
 20
-57.6535
 30
0.0
 10
190.688
 20
-57.6535
 30
0.0
 10
187.5336
 20
-57.7178
 30
0.0
 10
186.9253
 20
-55.0251
 30
0.0
 10
186.9253
 20
-55.0251
 30
0.0
 10
186.3171
 20
-52.3327
 30
0.0
 10
183.7195
 20
-53.3329
 30
0.0
 10
183.7195
 20
-53.3329
 30
0.0
 10
183.7195
 20
-53.3329
 30
0.0
 10
183.7195
 20
-53.3329
 30
0.0
 10
183.001
 20
-52.3588
 30
0.0
 10
184.8756
 20
-51.5244
 30
0.0
 10
184.8756
 20
-51.5244
 30
0.0
 10
186.7501
 20
-50.69
 30
0.0
 10
189.23
 20
-50.7356
 30
0.0
 10
190.5463
 20
-51.9169
 30
0.0
 10
190.5463
 20
-51.9169
 30
0.0
 10
191.863
 20
-53.0984
 30
0.0
 10
193.0935
 20
-54.4945
 30
0.0
 10
193.0935
 20
-54.4945
 30
0.0
 10
193.0935
 20
-54.4945
 30
0.0
 10
193.0935
 20
-54.4945
 30
0.0
 10
194.8738
 20
-56.1539
 30
0.0
 10
194.1864
 20
-54.3487
 30
0.0
 10
194.1864
 20
-54.3487
 30
0.0
 10
193.499
 20
-52.5435
 30
0.0
 10
191.3227
 20
-49.9857
 30
0.0
 10
190.1545
 20
-49.879
 30
0.0
 10
190.1545
 20
-49.879
 30
0.0
 10
188.986
 20
-49.7726
 30
0.0
 10
185.3475
 20
-49.7231
 30
0.0
 10
184.7697
 20
-49.1513
 30
0.0
 10
184.7697
 20
-49.1513
 30
0.0
 10
184.192
 20
-48.5795
 30
0.0
 10
182.7031
 20
-47.8272
 30
0.0
 10
181.9034
 20
-48.3101
 30
0.0
 10
181.9034
 20
-48.3101
 30
0.0
 10
181.1036
 20
-48.7932
 30
0.0
 10
179.851
 20
-48.3314
 30
0.0
 10
182.4135
 20
-46.3501
 30
0.0
 10
182.4135
 20
-46.3501
 30
0.0
 10
184.9764
 20
-44.3689
 30
0.0
 10
187.8629
 20
-44.8455
 30
0.0
 10
188.8295
 20
-45.6429
 30
0.0
 10
188.8295
 20
-45.6429
 30
0.0
 10
189.7958
 20
-46.44
 30
0.0
 10
191.9244
 20
-49.0535
 30
0.0
 10
191.1164
 20
-46.4817
 30
0.0
 10
191.1164
 20
-46.4817
 30
0.0
 10
190.308
 20
-43.91
 30
0.0
 10
185.4388
 20
-42.4647
 30
0.0
 10
185.4388
 20
-42.4647
 30
0.0
 10
185.4388
 20
-42.4647
 30
0.0
 10
185.4388
 20
-42.4647
 30
0.0
 10
183.818
 20
-41.413
 30
0.0
 10
180.0404
 20
-45.7256
 30
0.0
 10
180.0404
 20
-45.7256
 30
0.0
 10
176.2631
 20
-50.0382
 30
0.0
 10
176.805
 20
-47.2468
 30
0.0
 10
176.7466
 20
-44.8177
 30
0.0
 10
176.7466
 20
-44.8177
 30
0.0
 10
176.6885
 20
-42.3885
 30
0.0
 10
177.5949
 20
-41.3267
 30
0.0
 10
178.5379
 20
-40.6758
 30
0.0
 10
178.5379
 20
-40.6758
 30
0.0
 10
179.4805
 20
-40.0252
 30
0.0
 10
181.6396
 20
-39.4252
 30
0.0
 10
182.6169
 20
-39.7554
 30
0.0
 10
182.6169
 20
-39.7554
 30
0.0
 10
183.5945
 20
-40.0856
 30
0.0
 10
183.8461
 20
-38.7692
 30
0.0
 10
179.9432
 20
-38.121
 30
0.0
 10
179.9432
 20
-38.121
 30
0.0
 10
176.0405
 20
-37.4727
 30
0.0
 10
175.9718
 20
-40.8448
 30
0.0
 10
175.9718
 20
-40.8448
 30
0.0
 10
175.9718
 20
-40.8448
 30
0.0
 10
175.9718
 20
-40.8448
 30
0.0
 10
175.3158
 20
-46.4945
 30
0.0
 10
173.1733
 20
-47.8699
 30
0.0
 10
173.1733
 20
-47.8699
 30
0.0
 10
171.0308
 20
-49.2455
 30
0.0
 10
171.9206
 20
-47.4081
 30
0.0
 10
171.1105
 20
-45.406
 30
0.0
 10
171.1105
 20
-45.406
 30
0.0
 10
170.3004
 20
-43.4043
 30
0.0
 10
171.251
 20
-40.4742
 30
0.0
 10
171.7188
 20
-39.8123
 30
0.0
 10
171.7188
 20
-39.8123
 30
0.0
 10
172.1868
 20
-39.1507
 30
0.0
 10
174.5332
 20
-36.5147
 30
0.0
 10
171.5634
 20
-38.065
 30
0.0
 10
171.5634
 20
-38.065
 30
0.0
 10
168.5936
 20
-39.6152
 30
0.0
 10
167.8997
 20
-42.4715
 30
0.0
 10
168.05
 20
-42.9763
 30
0.0
 10
168.05
 20
-42.9763
 30
0.0
 10
168.2003
 20
-43.4814
 30
0.0
 10
170.5159
 20
-47.0111
 30
0.0
 10
169.8605
 20
-49.7086
 30
0.0
 10
169.8605
 20
-49.7086
 30
0.0
 10
169.2051
 20
-52.4063
 30
0.0
 10
170.5073
 20
-52.2423
 30
0.0
 10
166.6838
 20
-50.7069
 30
0.0
 10
166.6838
 20
-50.7069
 30
0.0
 10
162.86
 20
-49.1714
 30
0.0
 10
165.1057
 20
-45.4049
 30
0.0
 10
165.1057
 20
-45.4049
 30
0.0
 10
165.1057
 20
-45.4049
 30
0.0
 10
165.1057
 20
-45.4049
 30
0.0
 10
166.4108
 20
-41.7192
 30
0.0
 10
164.0439
 20
-44.7192
 30
0.0
 10
164.0439
 20
-44.7192
 30
0.0
 10
161.6773
 20
-47.7196
 30
0.0
 10
163.2409
 20
-51.6765
 30
0.0
 10
163.173
 20
-52.0965
 30
0.0
 10
163.173
 20
-52.0965
 30
0.0
 10
163.1048
 20
-52.5168
 30
0.0
 10
166.2602
 20
-57.7868
 30
0.0
 10
169.096
 20
-56.5069
 30
0.0
 10
169.096
 20
-56.5069
 30
0.0
 10
171.9316
 20
-55.2273
 30
0.0
 10
171.3358
 20
-54.4501
 30
0.0
 10
172.4328
 20
-53.1645
 30
0.0
 10
172.4328
 20
-53.1645
 30
0.0
 10
173.5299
 20
-51.8789
 30
0.0
 10
178.4246
 20
-54.2026
 30
0.0
 10
175.6196
 20
-57.6031
 30
0.0
 10
175.6196
 20
-57.6031
 30
0.0
 10
172.8143
 20
-61.0036
 30
0.0
 10
168.534
 20
-59.6629
 30
0.0
 10
167.8701
 20
-59.3057
 30
0.0
 10
167.8701
 20
-59.3057
 30
0.0
 10
167.2064
 20
-58.9485
 30
0.0
 10
162.4234
 20
-57.2883
 30
0.0
 10
162.0718
 20
-54.5218
 30
0.0
 10
162.0718
 20
-54.5218
 30
0.0
 10
161.7206
 20
-51.7553
 30
0.0
 10
159.003
 20
-49.0372
 30
0.0
 10
162.9658
 20
-43.2585
 30
0.0
 10
162.9658
 20
-43.2585
 30
0.0
 10
166.9289
 20
-37.4795
 30
0.0
 10
169.9758
 20
-35.6121
 30
0.0
 10
174.7846
 20
-35.1983
 30
0.0
 10
174.7846
 20
-35.1983
 30
0.0
 10
179.5937
 20
-34.7848
 30
0.0
 10
183.5292
 20
-36.9839
 30
0.0
 10
186.4576
 20
-39.1143
 30
0.0
 10
186.4576
 20
-39.1143
 30
0.0
 10
189.3862
 20
-41.2446
 30
0.0
 10
193.5683
 20
-46.2191
 30
0.0
 10
194.9393
 20
-50.9695
 30
0.0
 10
194.9393
 20
-50.9695
 30
0.0
 10
197.2398
 20
-56.1059
 30
0.0
 10
196.994
 20
-63.9989
 30
0.0
 10
195.471
 20
-67.5998
 30
0.0
  0
SPLINE
  5
6B
330
1F
100
AcDbEntity
  8
layer 1
 62
     7
370
     9
100
AcDbSpline
210
0.0
220
0.0
230
1.0
 70
    11
 71
     3
 72
    28
 73
    24
 74
     0
 42
0.0000000001
 43
0.0000000001
 12
1.0
 22
0.0
 32
0.0
 13
1.0
 23
0.0
 33
0.0
 40
0.0
 40
0.0
 40
0.0
 40
0.0
 40
0.1428571428571428
 40
0.1428571428571428
 40
0.1428571428571428
 40
0.1428571428571428
 40
0.2857142857142857
 40
0.2857142857142857
 40
0.2857142857142857
 40
0.2857142857142857
 40
0.4285714285714285
 40
0.4285714285714285
 40
0.4285714285714285
 40
0.4285714285714285
 40
0.5714285714285714
 40
0.5714285714285714
 40
0.5714285714285714
 40
0.5714285714285714
 40
0.7142857142857143
 40
0.7142857142857143
 40
0.7142857142857143
 40
0.7142857142857143
 40
1.0
 40
1.0
 40
1.0
 40
1.0
 10
222.3793
 20
-72.7459
 30
0.0
 10
221.3015
 20
-73.8984
 30
0.0
 10
219.6961
 20
-75.9561
 30
0.0
 10
219.8953
 20
-77.8167
 30
0.0
 10
219.8953
 20
-77.8167
 30
0.0
 10
220.1135
 20
-79.854
 30
0.0
 10
221.3732
 20
-82.4426
 30
0.0
 10
222.3793
 20
-84.0198
 30
0.0
 10
222.3793
 20
-84.0198
 30
0.0
 10
222.3793
 20
-84.0198
 30
0.0
 10
222.3793
 20
-80.6899
 30
0.0
 10
222.3793
 20
-80.6899
 30
0.0
 10
222.3793
 20
-80.6899
 30
0.0
 10
222.0378
 20
-79.9669
 30
0.0
 10
221.7627
 20
-79.1328
 30
0.0
 10
221.8247
 20
-78.4004
 30
0.0
 10
221.8247
 20
-78.4004
 30
0.0
 10
221.876
 20
-77.7971
 30
0.0
 10
222.1033
 20
-77.1764
 30
0.0
 10
222.3793
 20
-76.6218
 30
0.0
 10
222.3793
 20
-76.6218
 30
0.0
 10
222.3793
 20
-76.6218
 30
0.0
 10
222.3793
 20
-72.7459
 30
0.0
 10
222.3793
 20
-72.7459
 30
0.0
  0
SPLINE
  5
6C
330
1F
100
AcDbEntity
  8
layer 1
 62
     7
370
     9
100
AcDbSpline
210
0.0
220
0.0
230
1.0
 70
    11
 71
     3
 72
    88
 73
    84
 74
     0
 42
0.0000000001
 43
0.0000000001
 12
1.0
 22
0.0
 32
0.0
 13
1.0
 23
0.0
 33
0.0
 40
0.0
 40
0.0
 40
0.0
 40
0.0
 40
0.0454545454545455
 40
0.0454545454545455
 40
0.0454545454545455
 40
0.0454545454545455
 40
0.0909090909090909
 40
0.0909090909090909
 40
0.0909090909090909
 40
0.0909090909090909
 40
0.1363636363636364
 40
0.1363636363636364
 40
0.1363636363636364
 40
0.1363636363636364
 40
0.1818181818181818
 40
0.1818181818181818
 40
0.1818181818181818
 40
0.1818181818181818
 40
0.2272727272727273
 40
0.2272727272727273
 40
0.2272727272727273
 40
0.2272727272727273
 40
0.2727272727272727
 40
0.2727272727272727
 40
0.2727272727272727
 40
0.2727272727272727
 40
0.3181818181818182
 40
0.3181818181818182
 40
0.3181818181818182
 40
0.3181818181818182
 40
0.3636363636363636
 40
0.3636363636363636
 40
0.3636363636363636
 40
0.3636363636363636
 40
0.4090909090909091
 40
0.4090909090909091
 40
0.4090909090909091
 40
0.4090909090909091
 40
0.4545454545454545
 40
0.4545454545454545
 40
0.4545454545454545
 40
0.4545454545454545
 40
0.5
 40
0.5
 40
0.5
 40
0.5
 40
0.5454545454545454
 40
0.5454545454545454
 40
0.5454545454545454
 40
0.5454545454545454
 40
0.5909090909090909
 40
0.5909090909090909
 40
0.5909090909090909
 40
0.5909090909090909
 40
0.6363636363636364
 40
0.6363636363636364
 40
0.6363636363636364
 40
0.6363636363636364
 40
0.6818181818181818
 40
0.6818181818181818
 40
0.6818181818181818
 40
0.6818181818181818
 40
0.7272727272727273
 40
0.7272727272727273
 40
0.7272727272727273
 40
0.7272727272727273
 40
0.7727272727272727
 40
0.7727272727272727
 40
0.7727272727272727
 40
0.7727272727272727
 40
0.8181818181818182
 40
0.8181818181818182
 40
0.8181818181818182
 40
0.8181818181818182
 40
0.8636363636363636
 40
0.8636363636363636
 40
0.8636363636363636
 40
0.8636363636363636
 40
0.9090909090909091
 40
0.9090909090909091
 40
0.9090909090909091
 40
0.9090909090909091
 40
1.0
 40
1.0
 40
1.0
 40
1.0
 10
187.7167
 20
-86.2279
 30
0.0
 10
186.9552
 20
-85.7494
 30
0.0
 10
186.0879
 20
-85.4275
 30
0.0
 10
185.5437
 20
-85.7246
 30
0.0
 10
185.5437
 20
-85.7246
 30
0.0
 10
185.1913
 20
-85.9169
 30
0.0
 10
184.6968
 20
-86.0654
 30
0.0
 10
184.144
 20
-86.2279
 30
0.0
 10
184.144
 20
-86.2279
 30
0.0
 10
184.144
 20
-86.2279
 30
0.0
 10
178.2571
 20
-86.2279
 30
0.0
 10
178.2571
 20
-86.2279
 30
0.0
 10
178.2571
 20
-86.2279
 30
0.0
 10
178.4122
 20
-85.3783
 30
0.0
 10
178.7282
 20
-84.549
 30
0.0
 10
179.275
 20
-83.8509
 30
0.0
 10
179.275
 20
-83.8509
 30
0.0
 10
182.0154
 20
-80.3514
 30
0.0
 10
184.3634
 20
-82.1898
 30
0.0
 10
185.7571
 20
-83.3179
 30
0.0
 10
185.7571
 20
-83.3179
 30
0.0
 10
187.1512
 20
-84.4464
 30
0.0
 10
189.6894
 20
-83.5284
 30
0.0
 10
189.6894
 20
-83.5284
 30
0.0
 10
189.6894
 20
-83.5284
 30
0.0
 10
189.6894
 20
-83.5284
 30
0.0
 10
188.8725
 20
-82.3904
 30
0.0
 10
187.4043
 20
-81.3885
 30
0.0
 10
187.4043
 20
-81.3885
 30
0.0
 10
185.9362
 20
-80.3867
 30
0.0
 10
185.8769
 20
-79.9038
 30
0.0
 10
183.138
 20
-79.0228
 30
0.0
 10
183.138
 20
-79.0228
 30
0.0
 10
180.3994
 20
-78.1422
 30
0.0
 10
179.3939
 20
-77.9086
 30
0.0
 10
176.6224
 20
-76.1105
 30
0.0
 10
176.6224
 20
-76.1105
 30
0.0
 10
173.8509
 20
-74.3125
 30
0.0
 10
172.9151
 20
-73.6689
 30
0.0
 10
172.9151
 20
-73.6689
 30
0.0
 10
172.9151
 20
-73.6689
 30
0.0
 10
175.3739
 20
-72.1616
 30
0.0
 10
177.3056
 20
-71.575
 30
0.0
 10
179.7784
 20
-71.6115
 30
0.0
 10
179.7784
 20
-71.6115
 30
0.0
 10
182.2511
 20
-71.6477
 30
0.0
 10
184.5211
 20
-74.2964
 30
0.0
 10
186.3837
 20
-74.006
 30
0.0
 10
186.3837
 20
-74.006
 30
0.0
 10
188.2467
 20
-73.7158
 30
0.0
 10
182.2582
 20
-70.0915
 30
0.0
 10
184.845
 20
-67.7616
 30
0.0
 10
184.845
 20
-67.7616
 30
0.0
 10
189.9274
 20
-63.1843
 30
0.0
 10
188.5832
 20
-66.4947
 30
0.0
 10
189.9974
 20
-70.7705
 30
0.0
 10
189.9974
 20
-70.7705
 30
0.0
 10
191.2323
 20
-74.5045
 30
0.0
 10
189.4872
 20
-76.6737
 30
0.0
 10
191.1131
 20
-79.45
 30
0.0
 10
191.1131
 20
-79.45
 30
0.0
 10
192.739
 20
-82.2265
 30
0.0
 10
193.8084
 20
-77.7785
 30
0.0
 10
196.9303
 20
-71.2943
 30
0.0
 10
196.9303
 20
-71.2943
 30
0.0
 10
200.0525
 20
-64.8102
 30
0.0
 10
202.1897
 20
-60.2945
 30
0.0
 10
202.1897
 20
-60.2945
 30
0.0
 10
202.1897
 20
-60.2945
 30
0.0
 10
202.1897
 20
-60.2945
 30
0.0
 10
206.9469
 20
-58.6138
 30
0.0
 10
203.707
 20
-62.6721
 30
0.0
 10
203.707
 20
-62.6721
 30
0.0
 10
200.4672
 20
-66.7304
 30
0.0
 10
195.2819
 20
-77.6039
 30
0.0
 10
195.5958
 20
-85.5331
 30
0.0
 10
195.5958
 20
-85.5331
 30
0.0
 10
195.5958
 20
-85.5331
 30
0.0
 10
195.6098
 20
-86.2279
 30
0.0
 10
195.6098
 20
-86.2279
 30
0.0
 10
195.6098
 20
-86.2279
 30
0.0
 10
195.6098
 20
-86.2279
 30
0.0
 10
187.7167
 20
-86.2279
 30
0.0
 10
187.7167
 20
-86.2279
 30
0.0
  0
SPLINE
  5
6D
330
1F
100
AcDbEntity
  8
layer 1
 62
     7
370
     9
100
AcDbSpline
210
0.0
220
0.0
230
1.0
 70
    11
 71
     3
 72
    80
 73
    76
 74
     0
 42
0.0000000001
 43
0.0000000001
 12
1.0
 22
0.0
 32
0.0
 13
1.0
 23
0.0
 33
0.0
 40
0.0
 40
0.0
 40
0.0
 40
0.0
 40
0.05
 40
0.05
 40
0.05
 40
0.05
 40
0.1
 40
0.1
 40
0.1
 40
0.1
 40
0.15
 40
0.15
 40
0.15
 40
0.15
 40
0.2
 40
0.2
 40
0.2
 40
0.2
 40
0.25
 40
0.25
 40
0.25
 40
0.25
 40
0.3
 40
0.3
 40
0.3
 40
0.3
 40
0.35
 40
0.35
 40
0.35
 40
0.35
 40
0.4
 40
0.4
 40
0.4
 40
0.4
 40
0.45
 40
0.45
 40
0.45
 40
0.45
 40
0.5
 40
0.5
 40
0.5
 40
0.5
 40
0.55
 40
0.55
 40
0.55
 40
0.55
 40
0.6
 40
0.6
 40
0.6
 40
0.6
 40
0.65
 40
0.65
 40
0.65
 40
0.65
 40
0.7
 40
0.7
 40
0.7
 40
0.7
 40
0.75
 40
0.75
 40
0.75
 40
0.75
 40
0.8
 40
0.8
 40
0.8
 40
0.8
 40
0.85
 40
0.85
 40
0.85
 40
0.85
 40
0.9
 40
0.9
 40
0.9
 40
0.9
 40
1.0
 40
1.0
 40
1.0
 40
1.0
 10
182.4452
 20
-65.6028
 30
0.0
 10
182.4452
 20
-65.6028
 30
0.0
 10
182.4387
 20
-67.5022
 30
0.0
 10
182.4387
 20
-67.5022
 30
0.0
 10
182.4387
 20
-67.5022
 30
0.0
 10
182.4387
 20
-67.5022
 30
0.0
 10
177.4954
 20
-65.2231
 30
0.0
 10
175.9424
 20
-65.5293
 30
0.0
 10
175.9424
 20
-65.5293
 30
0.0
 10
174.3895
 20
-65.8355
 30
0.0
 10
170.1875
 20
-65.9668
 30
0.0
 10
169.9139
 20
-68.81
 30
0.0
 10
169.9139
 20
-68.81
 30
0.0
 10
169.64
 20
-71.6533
 30
0.0
 10
169.3975
 20
-71.559
 30
0.0
 10
169.3975
 20
-71.559
 30
0.0
 10
169.3975
 20
-71.559
 30
0.0
 10
169.3975
 20
-71.559
 30
0.0
 10
166.8732
 20
-68.8415
 30
0.0
 10
167.0896
 20
-67.3265
 30
0.0
 10
167.0896
 20
-67.3265
 30
0.0
 10
167.306
 20
-65.8118
 30
0.0
 10
169.972
 20
-64.2013
 30
0.0
 10
169.972
 20
-64.2013
 30
0.0
 10
169.972
 20
-64.2013
 30
0.0
 10
169.972
 20
-64.2013
 30
0.0
 10
170.229
 20
-63.1434
 30
0.0
 10
168.8227
 20
-63.7825
 30
0.0
 10
168.8227
 20
-63.7825
 30
0.0
 10
167.4162
 20
-64.4213
 30
0.0
 10
164.8724
 20
-67.4023
 30
0.0
 10
164.6516
 20
-70.1833
 30
0.0
 10
164.6516
 20
-70.1833
 30
0.0
 10
164.431
 20
-72.9643
 30
0.0
 10
159.7968
 20
-72.8452
 30
0.0
 10
159.7968
 20
-72.8452
 30
0.0
 10
159.7968
 20
-72.8452
 30
0.0
 10
159.7968
 20
-72.8452
 30
0.0
 10
157.4433
 20
-72.7023
 30
0.0
 10
157.4433
 20
-72.7023
 30
0.0
 10
157.4433
 20
-72.7023
 30
0.0
 10
157.4433
 20
-72.7023
 30
0.0
 10
159.2437
 20
-67.9439
 30
0.0
 10
160.3387
 20
-65.7783
 30
0.0
 10
160.3387
 20
-65.7783
 30
0.0
 10
161.4333
 20
-63.6123
 30
0.0
 10
167.9652
 20
-61.3818
 30
0.0
 10
167.9652
 20
-61.3818
 30
0.0
 10
167.9652
 20
-61.3818
 30
0.0
 10
167.9652
 20
-61.3818
 30
0.0
 10
174.6981
 20
-62.0686
 30
0.0
 10
176.1102
 20
-62.8102
 30
0.0
 10
176.1102
 20
-62.8102
 30
0.0
 10
177.5223
 20
-63.5519
 30
0.0
 10
178.871
 20
-64.2416
 30
0.0
 10
179.4926
 20
-64.6483
 30
0.0
 10
179.4926
 20
-64.6483
 30
0.0
 10
180.1142
 20
-65.0553
 30
0.0
 10
180.3202
 20
-63.4262
 30
0.0
 10
178.941
 20
-62.3941
 30
0.0
 10
178.941
 20
-62.3941
 30
0.0
 10
177.5615
 20
-61.3619
 30
0.0
 10
178.2752
 20
-59.5167
 30
0.0
 10
180.0603
 20
-59.1904
 30
0.0
 10
180.0603
 20
-59.1904
 30
0.0
 10
181.8456
 20
-58.8643
 30
0.0
 10
183.8509
 20
-59.0371
 30
0.0
 10
184.1971
 20
-59.64
 30
0.0
 10
184.1971
 20
-59.64
 30
0.0
 10
184.5433
 20
-60.2433
 30
0.0
 10
182.059
 20
-61.2626
 30
0.0
 10
182.0955
 20
-62.986
 30
0.0
 10
182.0955
 20
-62.986
 30
0.0
 10
182.1316
 20
-64.7091
 30
0.0
 10
182.4452
 20
-65.6028
 30
0.0
 10
182.4452
 20
-65.6028
 30
0.0
  0
SPLINE
  5
6E
330
1F
100
AcDbEntity
  8
layer 1
 62
     7
370
     9
100
AcDbSpline
210
0.0
220
0.0
230
1.0
 70
    11
 71
     3
 72
    52
 73
    48
 74
     0
 42
0.0000000001
 43
0.0000000001
 12
1.0
 22
0.0
 32
0.0
 13
1.0
 23
0.0
 33
0.0
 40
0.0
 40
0.0
 40
0.0
 40
0.0
 40
0.0769230769230769
 40
0.0769230769230769
 40
0.0769230769230769
 40
0.0769230769230769
 40
0.1538461538461539
 40
0.1538461538461539
 40
0.1538461538461539
 40
0.1538461538461539
 40
0.2307692307692308
 40
0.2307692307692308
 40
0.2307692307692308
 40
0.2307692307692308
 40
0.3076923076923077
 40
0.3076923076923077
 40
0.3076923076923077
 40
0.3076923076923077
 40
0.3846153846153846
 40
0.3846153846153846
 40
0.3846153846153846
 40
0.3846153846153846
 40
0.4615384615384616
 40
0.4615384615384616
 40
0.4615384615384616
 40
0.4615384615384616
 40
0.5384615384615384
 40
0.5384615384615384
 40
0.5384615384615384
 40
0.5384615384615384
 40
0.6153846153846154
 40
0.6153846153846154
 40
0.6153846153846154
 40
0.6153846153846154
 40
0.6923076923076923
 40
0.6923076923076923
 40
0.6923076923076923
 40
0.6923076923076923
 40
0.7692307692307693
 40
0.7692307692307693
 40
0.7692307692307693
 40
0.7692307692307693
 40
0.8461538461538461
 40
0.8461538461538461
 40
0.8461538461538461
 40
0.8461538461538461
 40
1.0
 40
1.0
 40
1.0
 40
1.0
 10
137.0592
 20
-83.4442
 30
0.0
 10
137.0592
 20
-83.4442
 30
0.0
 10
135.1019
 20
-79.7245
 30
0.0
 10
137.3701
 20
-79.7597
 30
0.0
 10
137.3701
 20
-79.7597
 30
0.0
 10
139.6383
 20
-79.795
 30
0.0
 10
136.4399
 20
-81.3248
 30
0.0
 10
140.4692
 20
-81.8178
 30
0.0
 10
140.4692
 20
-81.8178
 30
0.0
 10
144.4984
 20
-82.3107
 30
0.0
 10
143.1802
 20
-78.7332
 30
0.0
 10
142.3793
 20
-77.8425
 30
0.0
 10
142.3793
 20
-77.8425
 30
0.0
 10
141.5781
 20
-76.9521
 30
0.0
 10
140.2036
 20
-76.4831
 30
0.0
 10
137.984
 20
-76.4422
 30
0.0
 10
137.984
 20
-76.4422
 30
0.0
 10
135.7644
 20
-76.4013
 30
0.0
 10
134.7145
 20
-81.3678
 30
0.0
 10
134.1092
 20
-77.9024
 30
0.0
 10
134.1092
 20
-77.9024
 30
0.0
 10
134.1092
 20
-77.9024
 30
0.0
 10
133.8842
 20
-76.6141
 30
0.0
 10
133.8842
 20
-76.6141
 30
0.0
 10
133.8842
 20
-76.6141
 30
0.0
 10
133.8842
 20
-76.6141
 30
0.0
 10
135.4428
 20
-70.2702
 30
0.0
 10
137.7753
 20
-67.999
 30
0.0
 10
137.7753
 20
-67.999
 30
0.0
 10
140.1075
 20
-65.7279
 30
0.0
 10
132.8862
 20
-69.3552
 30
0.0
 10
131.6383
 20
-72.9635
 30
0.0
 10
131.6383
 20
-72.9635
 30
0.0
 10
130.3904
 20
-76.5715
 30
0.0
 10
130.2208
 20
-77.9777
 30
0.0
 10
131.6851
 20
-80.6585
 30
0.0
 10
131.6851
 20
-80.6585
 30
0.0
 10
133.1497
 20
-83.3393
 30
0.0
 10
137.0162
 20
-85.9309
 30
0.0
 10
137.0162
 20
-85.9309
 30
0.0
 10
137.0162
 20
-85.9309
 30
0.0
 10
137.0162
 20
-85.9309
 30
0.0
 10
141.2286
 20
-86.4031
 30
0.0
 10
138.5662
 20
-84.5875
 30
0.0
 10
138.5662
 20
-84.5875
 30
0.0
 10
135.904
 20
-82.7722
 30
0.0
 10
137.0592
 20
-83.4442
 30
0.0
 10
137.0592
 20
-83.4442
 30
0.0
  0
SPLINE
  5
6F
330
1F
100
AcDbEntity
  8
layer 1
 62
     7
370
     9
100
AcDbSpline
210
0.0
220
0.0
230
1.0
 70
    11
 71
     3
 72
    20
 73
    16
 74
     0
 42
0.0000000001
 43
0.0000000001
 12
1.0
 22
0.0
 32
0.0
 13
1.0
 23
0.0
 33
0.0
 40
0.0
 40
0.0
 40
0.0
 40
0.0
 40
0.2
 40
0.2
 40
0.2
 40
0.2
 40
0.4
 40
0.4
 40
0.4
 40
0.4
 40
0.6
 40
0.6
 40
0.6
 40
0.6
 40
1.0
 40
1.0
 40
1.0
 40
1.0
 10
178.9674
 20
-49.424
 30
0.0
 10
177.653
 20
-49.424
 30
0.0
 10
176.5815
 20
-50.4348
 30
0.0
 10
176.5815
 20
-51.6741
 30
0.0
 10
176.5815
 20
-51.6741
 30
0.0
 10
176.5815
 20
-52.9134
 30
0.0
 10
177.653
 20
-53.9242
 30
0.0
 10
178.9674
 20
-53.9242
 30
0.0
 10
178.9674
 20
-53.9242
 30
0.0
 10
180.2814
 20
-53.9242
 30
0.0
 10
181.3532
 20
-52.9134
 30
0.0
 10
181.3532
 20
-51.6741
 30
0.0
 10
181.3532
 20
-51.6741
 30
0.0
 10
181.3532
 20
-50.4348
 30
0.0
 10
180.2814
 20
-49.424
 30
0.0
 10
178.9674
 20
-49.424
 30
0.0
  0
SPLINE
  5
70
330
1F
100
AcDbEntity
  8
layer 1
 62
     7
370
     9
100
AcDbSpline
210
0.0
220
0.0
230
1.0
 70
    11
 71
     3
 72
    24
 73
    20
 74
     0
 42
0.0000000001
 43
0.0000000001
 12
1.0
 22
0.0
 32
0.0
 13
1.0
 23
0.0
 33
0.0
 40
0.0
 40
0.0
 40
0.0
 40
0.0
 40
0.1666666666666667
 40
0.1666666666666667
 40
0.1666666666666667
 40
0.1666666666666667
 40
0.3333333333333333
 40
0.3333333333333333
 40
0.3333333333333333
 40
0.3333333333333333
 40
0.5
 40
0.5
 40
0.5
 40
0.5
 40
0.6666666666666666
 40
0.6666666666666666
 40
0.6666666666666666
 40
0.6666666666666666
 40
1.0
 40
1.0
 40
1.0
 40
1.0
 10
139.0327
 20
-48.3498
 30
0.0
 10
139.0327
 20
-48.3498
 30
0.0
 10
136.0629
 20
-53.7034
 30
0.0
 10
137.35
 20
-56.1367
 30
0.0
 10
137.35
 20
-56.1367
 30
0.0
 10
138.6367
 20
-58.5703
 30
0.0
 10
135.7659
 20
-58.3755
 30
0.0
 10
134.4791
 20
-58.2783
 30
0.0
 10
134.4791
 20
-58.2783
 30
0.0
 10
133.1921
 20
-58.1808
 30
0.0
 10
130.0243
 20
-57.4996
 30
0.0
 10
129.6283
 20
-53.8981
 30
0.0
 10
129.6283
 20
-53.8981
 30
0.0
 10
129.2322
 20
-50.2966
 30
0.0
 10
130.5193
 20
-51.6593
 30
0.0
 10
132.1031
 20
-51.854
 30
0.0
 10
132.1031
 20
-51.854
 30
0.0
 10
133.6871
 20
-52.0485
 30
0.0
 10
139.0327
 20
-48.3498
 30
0.0
 10
139.0327
 20
-48.3498
 30
0.0
  0
SPLINE
  5
71
330
1F
100
AcDbEntity
  8
layer 1
 62
     7
370
     9
100
AcDbSpline
210
0.0
220
0.0
230
1.0
 70
    11
 71
     3
 72
    72
 73
    68
 74
     0
 42
0.0000000001
 43
0.0000000001
 12
1.0
 22
0.0
 32
0.0
 13
1.0
 23
0.0
 33
0.0
 40
0.0
 40
0.0
 40
0.0
 40
0.0
 40
0.0555555555555556
 40
0.0555555555555556
 40
0.0555555555555556
 40
0.0555555555555556
 40
0.1111111111111111
 40
0.1111111111111111
 40
0.1111111111111111
 40
0.1111111111111111
 40
0.1666666666666667
 40
0.1666666666666667
 40
0.1666666666666667
 40
0.1666666666666667
 40
0.2222222222222222
 40
0.2222222222222222
 40
0.2222222222222222
 40
0.2222222222222222
 40
0.2777777777777778
 40
0.2777777777777778
 40
0.2777777777777778
 40
0.2777777777777778
 40
0.3333333333333333
 40
0.3333333333333333
 40
0.3333333333333333
 40
0.3333333333333333
 40
0.3888888888888889
 40
0.3888888888888889
 40
0.3888888888888889
 40
0.3888888888888889
 40
0.4444444444444444
 40
0.4444444444444444
 40
0.4444444444444444
 40
0.4444444444444444
 40
0.5
 40
0.5
 40
0.5
 40
0.5
 40
0.5555555555555556
 40
0.5555555555555556
 40
0.5555555555555556
 40
0.5555555555555556
 40
0.6111111111111112
 40
0.6111111111111112
 40
0.6111111111111112
 40
0.6111111111111112
 40
0.6666666666666666
 40
0.6666666666666666
 40
0.6666666666666666
 40
0.6666666666666666
 40
0.7222222222222222
 40
0.7222222222222222
 40
0.7222222222222222
 40
0.7222222222222222
 40
0.7777777777777778
 40
0.7777777777777778
 40
0.7777777777777778
 40
0.7777777777777778
 40
0.8333333333333334
 40
0.8333333333333334
 40
0.8333333333333334
 40
0.8333333333333334
 40
0.8888888888888888
 40
0.8888888888888888
 40
0.8888888888888888
 40
0.8888888888888888
 40
1.0
 40
1.0
 40
1.0
 40
1.0
 10
132.4629
 20
-61.6468
 30
0.0
 10
132.4629
 20
-61.6468
 30
0.0
 10
135.4807
 20
-60.8687
 30
0.0
 10
132.7596
 20
-62.6683
 30
0.0
 10
132.7596
 20
-62.6683
 30
0.0
 10
130.0388
 20
-64.4681
 30
0.0
 10
128.6536
 20
-67.2894
 30
0.0
 10
128.6536
 20
-67.2894
 30
0.0
 10
128.6536
 20
-67.2894
 30
0.0
 10
128.6536
 20
-67.2894
 30
0.0
 10
127.7632
 20
-73.1751
 30
0.0
 10
128.7526
 20
-75.3638
 30
0.0
 10
128.7526
 20
-75.3638
 30
0.0
 10
129.7421
 20
-77.5526
 30
0.0
 10
125.2896
 20
-73.5154
 30
0.0
 10
125.3391
 20
-71.1319
 30
0.0
 10
125.3391
 20
-71.1319
 30
0.0
 10
125.3886
 20
-68.7487
 30
0.0
 10
125.9328
 20
-66.9488
 30
0.0
 10
124.0034
 20
-69.1862
 30
0.0
 10
124.0034
 20
-69.1862
 30
0.0
 10
122.074
 20
-71.4239
 30
0.0
 10
121.2826
 20
-73.1262
 30
0.0
 10
115.7912
 20
-73.3209
 30
0.0
 10
115.7912
 20
-73.3209
 30
0.0
 10
110.3
 20
-73.5154
 30
0.0
 10
110.3
 20
-73.2237
 30
0.0
 10
113.0208
 20
-71.8131
 30
0.0
 10
113.0208
 20
-71.8131
 30
0.0
 10
115.742
 20
-70.4024
 30
0.0
 10
115.1977
 20
-68.2133
 30
0.0
 10
119.007
 20
-67.2894
 30
0.0
 10
119.007
 20
-67.2894
 30
0.0
 10
122.816
 20
-66.3652
 30
0.0
 10
124.1519
 20
-67.1919
 30
0.0
 10
124.6959
 20
-66.7541
 30
0.0
 10
124.6959
 20
-66.7541
 30
0.0
 10
125.2401
 20
-66.3166
 30
0.0
 10
126.0318
 20
-65.3437
 30
0.0
 10
123.1625
 20
-65.8788
 30
0.0
 10
123.1625
 20
-65.8788
 30
0.0
 10
120.2932
 20
-66.4138
 30
0.0
 10
120.1942
 20
-64.6139
 30
0.0
 10
118.9575
 20
-64.0789
 30
0.0
 10
118.9575
 20
-64.0789
 30
0.0
 10
117.7205
 20
-63.5439
 30
0.0
 10
114.7042
 20
-61.8418
 30
0.0
 10
117.9681
 20
-61.4523
 30
0.0
 10
117.9681
 20
-61.4523
 30
0.0
 10
121.2319
 20
-61.0629
 30
0.0
 10
122.5175
 20
-61.5813
 30
0.0
 10
124.4486
 20
-63.3494
 30
0.0
 10
124.4486
 20
-63.3494
 30
0.0
 10
126.3798
 20
-65.1173
 30
0.0
 10
126.4275
 20
-63.5439
 30
0.0
 10
125.4381
 20
-62.4252
 30
0.0
 10
125.4381
 20
-62.4252
 30
0.0
 10
124.4486
 20
-61.3062
 30
0.0
 10
123.7239
 20
-61.4867
 30
0.0
 10
123.3107
 20
-58.7283
 30
0.0
 10
123.3107
 20
-58.7283
 30
0.0
 10
122.8975
 20
-55.9701
 30
0.0
 10
122.8474
 20
-56.5039
 30
0.0
 10
124.9929
 20
-59.0202
 30
0.0
 10
124.9929
 20
-59.0202
 30
0.0
 10
127.12
 20
-61.501
 30
0.0
 10
132.4629
 20
-61.6468
 30
0.0
 10
132.4629
 20
-61.6468
 30
0.0
  0
SPLINE
  5
72
330
1F
100
AcDbEntity
  8
layer 1
 62
     7
370
     9
100
AcDbSpline
210
0.0
220
0.0
230
1.0
 70
    11
 71
     3
 72
    20
 73
    16
 74
     0
 42
0.0000000001
 43
0.0000000001
 12
1.0
 22
0.0
 32
0.0
 13
1.0
 23
0.0
 33
0.0
 40
0.0
 40
0.0
 40
0.0
 40
0.0
 40
0.2
 40
0.2
 40
0.2
 40
0.2
 40
0.4
 40
0.4
 40
0.4
 40
0.4
 40
0.6
 40
0.6
 40
0.6
 40
0.6
 40
1.0
 40
1.0
 40
1.0
 40
1.0
 10
125.2315
 20
-80.3609
 30
0.0
 10
123.6261
 20
-80.3609
 30
0.0
 10
122.3168
 20
-81.5946
 30
0.0
 10
122.3168
 20
-83.1072
 30
0.0
 10
122.3168
 20
-83.1072
 30
0.0
 10
122.3168
 20
-84.6198
 30
0.0
 10
123.6261
 20
-85.8535
 30
0.0
 10
125.2315
 20
-85.8535
 30
0.0
 10
125.2315
 20
-85.8535
 30
0.0
 10
126.8366
 20
-85.8535
 30
0.0
 10
128.1459
 20
-84.6198
 30
0.0
 10
128.1459
 20
-83.1072
 30
0.0
 10
128.1459
 20
-83.1072
 30
0.0
 10
128.1459
 20
-81.5946
 30
0.0
 10
126.8366
 20
-80.3609
 30
0.0
 10
125.2315
 20
-80.3609
 30
0.0
  0
SPLINE
  5
73
330
1F
100
AcDbEntity
  8
layer 1
 62
     7
370
     9
100
AcDbSpline
210
0.0
220
0.0
230
1.0
 70
    11
 71
     3
 72
    20
 73
    16
 74
     0
 42
0.0000000001
 43
0.0000000001
 12
1.0
 22
0.0
 32
0.0
 13
1.0
 23
0.0
 33
0.0
 40
0.0
 40
0.0
 40
0.0
 40
0.0
 40
0.2
 40
0.2
 40
0.2
 40
0.2
 40
0.4
 40
0.4
 40
0.4
 40
0.4
 40
0.6
 40
0.6
 40
0.6
 40
0.6
 40
1.0
 40
1.0
 40
1.0
 40
1.0
 10
122.7665
 20
-49.7954
 30
0.0
 10
121.1611
 20
-49.7954
 30
0.0
 10
119.8521
 20
-51.0291
 30
0.0
 10
119.8521
 20
-52.5417
 30
0.0
 10
119.8521
 20
-52.5417
 30
0.0
 10
119.8521
 20
-54.0543
 30
0.0
 10
121.1611
 20
-55.288
 30
0.0
 10
122.7665
 20
-55.288
 30
0.0
 10
122.7665
 20
-55.288
 30
0.0
 10
124.3719
 20
-55.288
 30
0.0
 10
125.6812
 20
-54.0543
 30
0.0
 10
125.6812
 20
-52.5417
 30
0.0
 10
125.6812
 20
-52.5417
 30
0.0
 10
125.6812
 20
-51.0291
 30
0.0
 10
124.3719
 20
-49.7954
 30
0.0
 10
122.7665
 20
-49.7954
 30
0.0
  0
SPLINE
  5
74
330
1F
100
AcDbEntity
  8
layer 1
 62
     7
370
     9
100
AcDbSpline
210
0.0
220
0.0
230
1.0
 70
    11
 71
     3
 72
    20
 73
    16
 74
     0
 42
0.0000000001
 43
0.0000000001
 12
1.0
 22
0.0
 32
0.0
 13
1.0
 23
0.0
 33
0.0
 40
0.0
 40
0.0
 40
0.0
 40
0.0
 40
0.2
 40
0.2
 40
0.2
 40
0.2
 40
0.4
 40
0.4
 40
0.4
 40
0.4
 40
0.6
 40
0.6
 40
0.6
 40
0.6
 40
1.0
 40
1.0
 40
1.0
 40
1.0
 10
195.214
 20
-35.5587
 30
0.0
 10
193.6086
 20
-35.5587
 30
0.0
 10
192.2994
 20
-36.7924
 30
0.0
 10
192.2994
 20
-38.3051
 30
0.0
 10
192.2994
 20
-38.3051
 30
0.0
 10
192.2994
 20
-39.8177
 30
0.0
 10
193.6086
 20
-41.0514
 30
0.0
 10
195.214
 20
-41.0514
 30
0.0
 10
195.214
 20
-41.0514
 30
0.0
 10
196.8191
 20
-41.0514
 30
0.0
 10
198.1284
 20
-39.8177
 30
0.0
 10
198.1284
 20
-38.3051
 30
0.0
 10
198.1284
 20
-38.3051
 30
0.0
 10
198.1284
 20
-36.7924
 30
0.0
 10
196.8191
 20
-35.5587
 30
0.0
 10
195.214
 20
-35.5587
 30
0.0
  0
SPLINE
  5
75
330
1F
100
AcDbEntity
  8
layer 1
 62
     7
370
     9
100
AcDbSpline
210
0.0
220
0.0
230
1.0
 70
    11
 71
     3
 72
   104
 73
   100
 74
     0
 42
0.0000000001
 43
0.0000000001
 12
1.0
 22
0.0
 32
0.0
 13
1.0
 23
0.0
 33
0.0
 40
0.0
 40
0.0
 40
0.0
 40
0.0
 40
0.0384615384615385
 40
0.0384615384615385
 40
0.0384615384615385
 40
0.0384615384615385
 40
0.0769230769230769
 40
0.0769230769230769
 40
0.0769230769230769
 40
0.0769230769230769
 40
0.1153846153846154
 40
0.1153846153846154
 40
0.1153846153846154
 40
0.1153846153846154
 40
0.1538461538461539
 40
0.1538461538461539
 40
0.1538461538461539
 40
0.1538461538461539
 40
0.1923076923076923
 40
0.1923076923076923
 40
0.1923076923076923
 40
0.1923076923076923
 40
0.2307692307692308
 40
0.2307692307692308
 40
0.2307692307692308
 40
0.2307692307692308
 40
0.2692307692307692
 40
0.2692307692307692
 40
0.2692307692307692
 40
0.2692307692307692
 40
0.3076923076923077
 40
0.3076923076923077
 40
0.3076923076923077
 40
0.3076923076923077
 40
0.3461538461538461
 40
0.3461538461538461
 40
0.3461538461538461
 40
0.3461538461538461
 40
0.3846153846153846
 40
0.3846153846153846
 40
0.3846153846153846
 40
0.3846153846153846
 40
0.4230769230769231
 40
0.4230769230769231
 40
0.4230769230769231
 40
0.4230769230769231
 40
0.4615384615384616
 40
0.4615384615384616
 40
0.4615384615384616
 40
0.4615384615384616
 40
0.5
 40
0.5
 40
0.5
 40
0.5
 40
0.5384615384615384
 40
0.5384615384615384
 40
0.5384615384615384
 40
0.5384615384615384
 40
0.5769230769230769
 40
0.5769230769230769
 40
0.5769230769230769
 40
0.5769230769230769
 40
0.6153846153846154
 40
0.6153846153846154
 40
0.6153846153846154
 40
0.6153846153846154
 40
0.6538461538461539
 40
0.6538461538461539
 40
0.6538461538461539
 40
0.6538461538461539
 40
0.6923076923076923
 40
0.6923076923076923
 40
0.6923076923076923
 40
0.6923076923076923
 40
0.7307692307692307
 40
0.7307692307692307
 40
0.7307692307692307
 40
0.7307692307692307
 40
0.7692307692307693
 40
0.7692307692307693
 40
0.7692307692307693
 40
0.7692307692307693
 40
0.8076923076923077
 40
0.8076923076923077
 40
0.8076923076923077
 40
0.8076923076923077
 40
0.8461538461538461
 40
0.8461538461538461
 40
0.8461538461538461
 40
0.8461538461538461
 40
0.8846153846153846
 40
0.8846153846153846
 40
0.8846153846153846
 40
0.8846153846153846
 40
0.9230769230769231
 40
0.9230769230769231
 40
0.9230769230769231
 40
0.9230769230769231
 40
1.0
 40
1.0
 40
1.0
 40
1.0
 10
218.9915
 20
-80.3238
 30
0.0
 10
218.8866
 20
-78.1466
 30
0.0
 10
218.9121
 20
-75.5707
 30
0.0
 10
218.1719
 20
-73.9327
 30
0.0
 10
218.1719
 20
-73.9327
 30
0.0
 10
217.4318
 20
-72.2944
 30
0.0
 10
217.1202
 20
-71.4114
 30
0.0
 10
213.3854
 20
-69.2529
 30
0.0
 10
213.3854
 20
-69.2529
 30
0.0
 10
209.6502
 20
-67.0947
 30
0.0
 10
208.6379
 20
-67.5728
 30
0.0
 10
205.8276
 20
-67.9125
 30
0.0
 10
205.8276
 20
-67.9125
 30
0.0
 10
203.0173
 20
-68.2525
 30
0.0
 10
203.876
 20
-68.9568
 30
0.0
 10
204.2089
 20
-69.2004
 30
0.0
 10
204.2089
 20
-69.2004
 30
0.0
 10
204.5417
 20
-69.4444
 30
0.0
 10
205.094
 20
-70.2557
 30
0.0
 10
206.3932
 20
-71.5045
 30
0.0
 10
206.3932
 20
-71.5045
 30
0.0
 10
208.7316
 20
-71.76
 30
0.0
 10
208.3771
 20
-71.9921
 30
0.0
 10
205.2929
 20
-73.069
 30
0.0
 10
205.2929
 20
-73.069
 30
0.0
 10
202.2086
 20
-74.1459
 30
0.0
 10
201.3813
 20
-76.1342
 30
0.0
 10
200.5241
 20
-78.0544
 30
0.0
 10
200.5241
 20
-78.0544
 30
0.0
 10
199.6665
 20
-79.9743
 30
0.0
 10
199.5459
 20
-80.3354
 30
0.0
 10
200.3705
 20
-80.2942
 30
0.0
 10
200.3705
 20
-80.2942
 30
0.0
 10
201.1952
 20
-80.2533
 30
0.0
 10
203.8309
 20
-78.6461
 30
0.0
 10
202.5883
 20
-80.7782
 30
0.0
 10
202.5883
 20
-80.7782
 30
0.0
 10
201.6099
 20
-82.4571
 30
0.0
 10
201.3632
 20
-84.6287
 30
0.0
 10
202.0954
 20
-86.2279
 30
0.0
 10
202.0954
 20
-86.2279
 30
0.0
 10
202.0954
 20
-86.2279
 30
0.0
 10
210.2801
 20
-86.2279
 30
0.0
 10
210.2801
 20
-86.2279
 30
0.0
 10
210.2801
 20
-86.2279
 30
0.0
 10
210.1408
 20
-86.1959
 30
0.0
 10
209.984
 20
-86.1526
 30
0.0
 10
209.8067
 20
-86.0971
 30
0.0
 10
209.8067
 20
-86.0971
 30
0.0
 10
206.9427
 20
-85.2011
 30
0.0
 10
206.0428
 20
-84.9041
 30
0.0
 10
205.4372
 20
-82.4482
 30
0.0
 10
205.4372
 20
-82.4482
 30
0.0
 10
204.8316
 20
-79.9924
 30
0.0
 10
206.2201
 20
-74.9655
 30
0.0
 10
208.303
 20
-73.5575
 30
0.0
 10
208.303
 20
-73.5575
 30
0.0
 10
210.3862
 20
-72.1495
 30
0.0
 10
212.5406
 20
-72.5286
 30
0.0
 10
214.3633
 20
-73.4247
 30
0.0
 10
214.3633
 20
-73.4247
 30
0.0
 10
216.1859
 20
-74.3207
 30
0.0
 10
216.7067
 20
-75.2168
 30
0.0
 10
216.7067
 20
-75.2168
 30
0.0
 10
216.7067
 20
-75.2168
 30
0.0
 10
216.7067
 20
-75.2168
 30
0.0
 10
217.0971
 20
-76.3687
 30
0.0
 10
214.6235
 20
-75.2168
 30
0.0
 10
214.6235
 20
-75.2168
 30
0.0
 10
212.1502
 20
-74.0646
 30
0.0
 10
210.9785
 20
-74.7046
 30
0.0
 10
210.9785
 20
-74.7046
 30
0.0
 10
210.9785
 20
-74.7046
 30
0.0
 10
210.9785
 20
-74.7046
 30
0.0
 10
207.4635
 20
-75.9848
 30
0.0
 10
210.7182
 20
-76.4968
 30
0.0
 10
210.7182
 20
-76.4968
 30
0.0
 10
213.9729
 20
-77.0087
 30
0.0
 10
211.3617
 20
-77.48
 30
0.0
 10
211.3617
 20
-77.48
 30
0.0
 10
211.3617
 20
-77.48
 30
0.0
 10
211.3617
 20
-77.48
 30
0.0
 10
209.7996
 20
-77.4222
 30
0.0
 10
208.8881
 20
-78.7024
 30
0.0
 10
208.8881
 20
-78.7024
 30
0.0
 10
207.9769
 20
-79.9823
 30
0.0
 10
208.3652
 20
-81.1956
 30
0.0
 10
209.1822
 20
-82.2158
 30
0.0
 10
209.1822
 20
-82.2158
 30
0.0
 10
209.9991
 20
-83.2364
 30
0.0
 10
210.3764
 20
-83.1214
 30
0.0
 10
210.7671
 20
-81.3293
 30
0.0
 10
210.7671
 20
-81.3293
 30
0.0
 10
211.1578
 20
-79.5371
 30
0.0
 10
213.6613
 20
-77.523
 30
0.0
 10
215.412
 20
-78.4392
 30
0.0
 10
215.412
 20
-78.4392
 30
0.0
 10
215.412
 20
-78.4392
 30
0.0
 10
218.9915
 20
-80.3238
 30
0.0
 10
218.9915
 20
-80.3238
 30
0.0
  0
SPLINE
  5
76
330
1F
100
AcDbEntity
  8
layer 1
 62
     7
370
     9
100
AcDbSpline
210
0.0
220
0.0
230
1.0
 70
    11
 71
     3
 72
    20
 73
    16
 74
     0
 42
0.0000000001
 43
0.0000000001
 12
1.0
 22
0.0
 32
0.0
 13
1.0
 23
0.0
 33
0.0
 40
0.0
 40
0.0
 40
0.0
 40
0.0
 40
0.2
 40
0.2
 40
0.2
 40
0.2
 40
0.4
 40
0.4
 40
0.4
 40
0.4
 40
0.6
 40
0.6
 40
0.6
 40
0.6
 40
1.0
 40
1.0
 40
1.0
 40
1.0
 10
217.3102
 20
-86.2279
 30
0.0
 10
217.4341
 20
-85.2375
 30
0.0
 10
217.3304
 20
-84.3412
 30
0.0
 10
217.0876
 20
-84.0362
 30
0.0
 10
217.0876
 20
-84.0362
 30
0.0
 10
216.5612
 20
-83.3737
 30
0.0
 10
214.7047
 20
-81.9268
 30
0.0
 10
212.4917
 20
-83.3348
 30
0.0
 10
212.4917
 20
-83.3348
 30
0.0
 10
210.8534
 20
-84.3773
 30
0.0
 10
211.7385
 20
-85.8808
 30
0.0
 10
211.1471
 20
-86.2279
 30
0.0
 10
211.1471
 20
-86.2279
 30
0.0
 10
211.1471
 20
-86.2279
 30
0.0
 10
217.3102
 20
-86.2279
 30
0.0
 10
217.3102
 20
-86.2279
 30
0.0
  0
SPLINE
  5
77
330
1F
100
AcDbEntity
  8
layer 1
 62
     7
370
     9
100
AcDbSpline
210
0.0
220
0.0
230
1.0
 70
    11
 71
     3
 72
   128
 73
   124
 74
     0
 42
0.0000000001
 43
0.0000000001
 12
1.0
 22
0.0
 32
0.0
 13
1.0
 23
0.0
 33
0.0
 40
0.0
 40
0.0
 40
0.0
 40
0.0
 40
0.03125
 40
0.03125
 40
0.03125
 40
0.03125
 40
0.0625
 40
0.0625
 40
0.0625
 40
0.0625
 40
0.09375
 40
0.09375
 40
0.09375
 40
0.09375
 40
0.125
 40
0.125
 40
0.125
 40
0.125
 40
0.15625
 40
0.15625
 40
0.15625
 40
0.15625
 40
0.1875
 40
0.1875
 40
0.1875
 40
0.1875
 40
0.21875
 40
0.21875
 40
0.21875
 40
0.21875
 40
0.25
 40
0.25
 40
0.25
 40
0.25
 40
0.28125
 40
0.28125
 40
0.28125
 40
0.28125
 40
0.3125
 40
0.3125
 40
0.3125
 40
0.3125
 40
0.34375
 40
0.34375
 40
0.34375
 40
0.34375
 40
0.375
 40
0.375
 40
0.375
 40
0.375
 40
0.40625
 40
0.40625
 40
0.40625
 40
0.40625
 40
0.4375
 40
0.4375
 40
0.4375
 40
0.4375
 40
0.46875
 40
0.46875
 40
0.46875
 40
0.46875
 40
0.5
 40
0.5
 40
0.5
 40
0.5
 40
0.53125
 40
0.53125
 40
0.53125
 40
0.53125
 40
0.5625
 40
0.5625
 40
0.5625
 40
0.5625
 40
0.59375
 40
0.59375
 40
0.59375
 40
0.59375
 40
0.625
 40
0.625
 40
0.625
 40
0.625
 40
0.65625
 40
0.65625
 40
0.65625
 40
0.65625
 40
0.6875
 40
0.6875
 40
0.6875
 40
0.6875
 40
0.71875
 40
0.71875
 40
0.71875
 40
0.71875
 40
0.75
 40
0.75
 40
0.75
 40
0.75
 40
0.78125
 40
0.78125
 40
0.78125
 40
0.78125
 40
0.8125
 40
0.8125
 40
0.8125
 40
0.8125
 40
0.84375
 40
0.84375
 40
0.84375
 40
0.84375
 40
0.875
 40
0.875
 40
0.875
 40
0.875
 40
0.90625
 40
0.90625
 40
0.90625
 40
0.90625
 40
0.9375
 40
0.9375
 40
0.9375
 40
0.9375
 40
1.0
 40
1.0
 40
1.0
 40
1.0
 10
156.217
 20
-65.5729
 30
0.0
 10
156.1304
 20
-63.7742
 30
0.0
 10
156.1515
 20
-61.6462
 30
0.0
 10
155.54
 20
-60.2931
 30
0.0
 10
155.54
 20
-60.2931
 30
0.0
 10
154.9287
 20
-58.9399
 30
0.0
 10
154.6714
 20
-58.2104
 30
0.0
 10
151.586
 20
-56.4275
 30
0.0
 10
151.586
 20
-56.4275
 30
0.0
 10
148.5006
 20
-54.6445
 30
0.0
 10
147.6644
 20
-55.0393
 30
0.0
 10
145.3429
 20
-55.3203
 30
0.0
 10
145.3429
 20
-55.3203
 30
0.0
 10
143.0216
 20
-55.6011
 30
0.0
 10
143.7309
 20
-56.1829
 30
0.0
 10
144.0057
 20
-56.3842
 30
0.0
 10
144.0057
 20
-56.3842
 30
0.0
 10
144.2808
 20
-56.5855
 30
0.0
 10
144.737
 20
-57.2557
 30
0.0
 10
145.81
 20
-58.2875
 30
0.0
 10
145.81
 20
-58.2875
 30
0.0
 10
147.7418
 20
-58.4985
 30
0.0
 10
147.4489
 20
-58.69
 30
0.0
 10
144.9012
 20
-59.5799
 30
0.0
 10
144.9012
 20
-59.5799
 30
0.0
 10
142.3535
 20
-60.4694
 30
0.0
 10
141.6702
 20
-62.1119
 30
0.0
 10
140.9618
 20
-63.698
 30
0.0
 10
140.9618
 20
-63.698
 30
0.0
 10
140.2537
 20
-65.2841
 30
0.0
 10
140.1541
 20
-65.582
 30
0.0
 10
140.8352
 20
-65.5483
 30
0.0
 10
140.8352
 20
-65.5483
 30
0.0
 10
141.5161
 20
-65.5142
 30
0.0
 10
143.6936
 20
-64.1868
 30
0.0
 10
142.6671
 20
-65.9478
 30
0.0
 10
142.6671
 20
-65.9478
 30
0.0
 10
141.6409
 20
-67.7091
 30
0.0
 10
141.5884
 20
-70.127
 30
0.0
 10
142.9303
 20
-71.399
 30
0.0
 10
142.9303
 20
-71.399
 30
0.0
 10
144.2722
 20
-72.6709
 30
0.0
 10
143.5756
 20
-74.677
 30
0.0
 10
143.5756
 20
-74.677
 30
0.0
 10
143.5756
 20
-74.677
 30
0.0
 10
143.5756
 20
-74.677
 30
0.0
 10
145.2006
 20
-74.4607
 30
0.0
 10
145.6565
 20
-73.1626
 30
0.0
 10
145.6565
 20
-73.1626
 30
0.0
 10
146.1121
 20
-71.8646
 30
0.0
 10
145.995
 20
-71.1876
 30
0.0
 10
146.0489
 20
-71.1876
 30
0.0
 10
146.0489
 20
-71.1876
 30
0.0
 10
146.1032
 20
-71.1876
 30
0.0
 10
147.4768
 20
-73.3944
 30
0.0
 10
148.9527
 20
-73.8311
 30
0.0
 10
148.9527
 20
-73.8311
 30
0.0
 10
150.4285
 20
-74.2677
 30
0.0
 10
152.1789
 20
-73.9366
 30
0.0
 10
153.5768
 20
-72.9851
 30
0.0
 10
153.5768
 20
-72.9851
 30
0.0
 10
154.975
 20
-72.0336
 30
0.0
 10
155.0793
 20
-69.1862
 30
0.0
 10
154.6445
 20
-68.639
 30
0.0
 10
154.6445
 20
-68.639
 30
0.0
 10
154.2093
 20
-68.0921
 30
0.0
 10
152.676
 20
-66.897
 30
0.0
 10
150.8479
 20
-68.0598
 30
0.0
 10
150.8479
 20
-68.0598
 30
0.0
 10
149.0196
 20
-69.2229
 30
0.0
 10
150.9959
 20
-71.0818
 30
0.0
 10
148.6301
 20
-70.3416
 30
0.0
 10
148.6301
 20
-70.3416
 30
0.0
 10
146.2641
 20
-69.6015
 30
0.0
 10
145.5207
 20
-69.3563
 30
0.0
 10
145.0207
 20
-67.3277
 30
0.0
 10
145.0207
 20
-67.3277
 30
0.0
 10
144.5203
 20
-65.299
 30
0.0
 10
145.6672
 20
-61.1461
 30
0.0
 10
147.3879
 20
-59.9833
 30
0.0
 10
147.3879
 20
-59.9833
 30
0.0
 10
149.1086
 20
-58.8202
 30
0.0
 10
150.8883
 20
-59.1335
 30
0.0
 10
152.3941
 20
-59.8736
 30
0.0
 10
152.3941
 20
-59.8736
 30
0.0
 10
153.8996
 20
-60.6138
 30
0.0
 10
154.3297
 20
-61.3539
 30
0.0
 10
154.3297
 20
-61.3539
 30
0.0
 10
154.3297
 20
-61.3539
 30
0.0
 10
154.3297
 20
-61.3539
 30
0.0
 10
154.6522
 20
-62.3054
 30
0.0
 10
152.609
 20
-61.3539
 30
0.0
 10
152.609
 20
-61.3539
 30
0.0
 10
150.5658
 20
-60.4021
 30
0.0
 10
149.598
 20
-60.9309
 30
0.0
 10
149.598
 20
-60.9309
 30
0.0
 10
149.598
 20
-60.9309
 30
0.0
 10
149.598
 20
-60.9309
 30
0.0
 10
146.6942
 20
-61.9883
 30
0.0
 10
149.3828
 20
-62.4113
 30
0.0
 10
149.3828
 20
-62.4113
 30
0.0
 10
152.0713
 20
-62.8342
 30
0.0
 10
149.9145
 20
-63.2234
 30
0.0
 10
149.9145
 20
-63.2234
 30
0.0
 10
149.9145
 20
-63.2234
 30
0.0
 10
149.9145
 20
-63.2234
 30
0.0
 10
148.6239
 20
-63.1757
 30
0.0
 10
147.8713
 20
-64.233
 30
0.0
 10
147.8713
 20
-64.233
 30
0.0
 10
147.1184
 20
-65.2907
 30
0.0
 10
147.4391
 20
-66.2929
 30
0.0
 10
148.1141
 20
-67.1356
 30
0.0
 10
148.1141
 20
-67.1356
 30
0.0
 10
148.789
 20
-67.9786
 30
0.0
 10
149.1006
 20
-67.8834
 30
0.0
 10
149.4234
 20
-66.4031
 30
0.0
 10
149.4234
 20
-66.4031
 30
0.0
 10
149.7459
 20
-64.9228
 30
0.0
 10
151.814
 20
-63.259
 30
0.0
 10
153.2602
 20
-64.0158
 30
0.0
 10
153.2602
 20
-64.0158
 30
0.0
 10
153.2602
 20
-64.0158
 30
0.0
 10
156.217
 20
-65.5729
 30
0.0
 10
156.217
 20
-65.5729
 30
0.0
  0
SPLINE
  5
78
330
1F
100
AcDbEntity
  8
layer 1
 62
     7
370
     9
100
AcDbSpline
210
0.0
220
0.0
230
1.0
 70
    11
 71
     3
 72
    20
 73
    16
 74
     0
 42
0.0000000001
 43
0.0000000001
 12
1.0
 22
0.0
 32
0.0
 13
1.0
 23
0.0
 33
0.0
 40
0.0
 40
0.0
 40
0.0
 40
0.0
 40
0.2
 40
0.2
 40
0.2
 40
0.2
 40
0.4
 40
0.4
 40
0.4
 40
0.4
 40
0.6
 40
0.6
 40
0.6
 40
0.6
 40
1.0
 40
1.0
 40
1.0
 40
1.0
 10
158.8616
 20
44.5026
 30
0.0
 10
159.2979
 20
44.0873
 30
0.0
 10
159.7568
 20
42.4129
 30
0.0
 10
157.4299
 20
42.4819
 30
0.0
 10
157.4299
 20
42.4819
 30
0.0
 10
155.1027
 20
43.2289
 30
0.0
 10
154.5452
 20
44.2978
 30
0.0
 10
153.4069
 20
44.4638
 30
0.0
 10
153.4069
 20
44.4638
 30
0.0
 10
153.4069
 20
44.4638
 30
0.0
 10
151.4313
 20
44.7525
 30
0.0
 10
151.4313
 20
44.7525
 30
0.0
 10
151.4313
 20
44.7525
 30
0.0
 10
154.2565
 20
45.9557
 30
0.0
 10
156.0922
 20
46.1234
 30
0.0
 10
158.8616
 20
44.5026
 30
0.0
  0
SPLINE
  5
79
330
1F
100
AcDbEntity
  8
layer 1
 62
     7
370
     9
100
AcDbSpline
210
0.0
220
0.0
230
1.0
 70
    11
 71
     3
 72
   172
 73
   168
 74
     0
 42
0.0000000001
 43
0.0000000001
 12
1.0
 22
0.0
 32
0.0
 13
1.0
 23
0.0
 33
0.0
 40
0.0
 40
0.0
 40
0.0
 40
0.0
 40
0.0232558139534884
 40
0.0232558139534884
 40
0.0232558139534884
 40
0.0232558139534884
 40
0.0465116279069767
 40
0.0465116279069767
 40
0.0465116279069767
 40
0.0465116279069767
 40
0.0697674418604651
 40
0.0697674418604651
 40
0.0697674418604651
 40
0.0697674418604651
 40
0.0930232558139535
 40
0.0930232558139535
 40
0.0930232558139535
 40
0.0930232558139535
 40
0.1162790697674419
 40
0.1162790697674419
 40
0.1162790697674419
 40
0.1162790697674419
 40
0.1395348837209302
 40
0.1395348837209302
 40
0.1395348837209302
 40
0.1395348837209302
 40
0.1627906976744186
 40
0.1627906976744186
 40
0.1627906976744186
 40
0.1627906976744186
 40
0.186046511627907
 40
0.186046511627907
 40
0.186046511627907
 40
0.186046511627907
 40
0.2093023255813954
 40
0.2093023255813954
 40
0.2093023255813954
 40
0.2093023255813954
 40
0.2325581395348837
 40
0.2325581395348837
 40
0.2325581395348837
 40
0.2325581395348837
 40
0.2558139534883721
 40
0.2558139534883721
 40
0.2558139534883721
 40
0.2558139534883721
 40
0.2790697674418605
 40
0.2790697674418605
 40
0.2790697674418605
 40
0.2790697674418605
 40
0.3023255813953488
 40
0.3023255813953488
 40
0.3023255813953488
 40
0.3023255813953488
 40
0.3255813953488372
 40
0.3255813953488372
 40
0.3255813953488372
 40
0.3255813953488372
 40
0.3488372093023256
 40
0.3488372093023256
 40
0.3488372093023256
 40
0.3488372093023256
 40
0.3720930232558139
 40
0.3720930232558139
 40
0.3720930232558139
 40
0.3720930232558139
 40
0.3953488372093023
 40
0.3953488372093023
 40
0.3953488372093023
 40
0.3953488372093023
 40
0.4186046511627907
 40
0.4186046511627907
 40
0.4186046511627907
 40
0.4186046511627907
 40
0.4418604651162791
 40
0.4418604651162791
 40
0.4418604651162791
 40
0.4418604651162791
 40
0.4651162790697674
 40
0.4651162790697674
 40
0.4651162790697674
 40
0.4651162790697674
 40
0.4883720930232558
 40
0.4883720930232558
 40
0.4883720930232558
 40
0.4883720930232558
 40
0.5116279069767442
 40
0.5116279069767442
 40
0.5116279069767442
 40
0.5116279069767442
 40
0.5348837209302325
 40
0.5348837209302325
 40
0.5348837209302325
 40
0.5348837209302325
 40
0.5581395348837209
 40
0.5581395348837209
 40
0.5581395348837209
 40
0.5581395348837209
 40
0.5813953488372093
 40
0.5813953488372093
 40
0.5813953488372093
 40
0.5813953488372093
 40
0.6046511627906976
 40
0.6046511627906976
 40
0.6046511627906976
 40
0.6046511627906976
 40
0.627906976744186
 40
0.627906976744186
 40
0.627906976744186
 40
0.627906976744186
 40
0.6511627906976745
 40
0.6511627906976745
 40
0.6511627906976745
 40
0.6511627906976745
 40
0.6744186046511628
 40
0.6744186046511628
 40
0.6744186046511628
 40
0.6744186046511628
 40
0.6976744186046512
 40
0.6976744186046512
 40
0.6976744186046512
 40
0.6976744186046512
 40
0.7209302325581395
 40
0.7209302325581395
 40
0.7209302325581395
 40
0.7209302325581395
 40
0.7441860465116279
 40
0.7441860465116279
 40
0.7441860465116279
 40
0.7441860465116279
 40
0.7674418604651163
 40
0.7674418604651163
 40
0.7674418604651163
 40
0.7674418604651163
 40
0.7906976744186046
 40
0.7906976744186046
 40
0.7906976744186046
 40
0.7906976744186046
 40
0.813953488372093
 40
0.813953488372093
 40
0.813953488372093
 40
0.813953488372093
 40
0.8372093023255814
 40
0.8372093023255814
 40
0.8372093023255814
 40
0.8372093023255814
 40
0.8604651162790697
 40
0.8604651162790697
 40
0.8604651162790697
 40
0.8604651162790697
 40
0.8837209302325582
 40
0.8837209302325582
 40
0.8837209302325582
 40
0.8837209302325582
 40
0.9069767441860465
 40
0.9069767441860465
 40
0.9069767441860465
 40
0.9069767441860465
 40
0.9302325581395349
 40
0.9302325581395349
 40
0.9302325581395349
 40
0.9302325581395349
 40
0.9534883720930233
 40
0.9534883720930233
 40
0.9534883720930233
 40
0.9534883720930233
 40
1.0
 40
1.0
 40
1.0
 40
1.0
 10
166.0966
 20
45.9892
 30
0.0
 10
166.0966
 20
45.9892
 30
0.0
 10
169.7043
 20
38.5194
 30
0.0
 10
169.4532
 20
33.8289
 30
0.0
 10
169.4532
 20
33.8289
 30
0.0
 10
169.2025
 20
29.1387
 30
0.0
 10
166.57
 20
18.8444
 30
0.0
 10
159.5594
 20
17.1521
 30
0.0
 10
159.5594
 20
17.1521
 30
0.0
 10
152.5488
 20
15.4602
 30
0.0
 10
147.5595
 20
16.8708
 30
0.0
 10
145.7786
 20
17.6735
 30
0.0
 10
145.7786
 20
17.6735
 30
0.0
 10
143.9977
 20
18.4759
 30
0.0
 10
137.807
 20
22.5653
 30
0.0
 10
138.005
 20
28.7913
 30
0.0
 10
138.005
 20
28.7913
 30
0.0
 10
138.2027
 20
35.0172
 30
0.0
 10
139.2651
 20
37.8012
 30
0.0
 10
142.622
 20
40.2333
 30
0.0
 10
142.622
 20
40.2333
 30
0.0
 10
145.979
 20
42.6654
 30
0.0
 10
150.3722
 20
43.036
 30
0.0
 10
153.3758
 20
39.5616
 30
0.0
 10
153.3758
 20
39.5616
 30
0.0
 10
156.3791
 20
36.0873
 30
0.0
 10
154.0825
 20
32.4393
 30
0.0
 10
153.3758
 20
31.2231
 30
0.0
 10
153.3758
 20
31.2231
 30
0.0
 10
152.6691
 20
30.0072
 30
0.0
 10
146.9213
 20
29.8335
 30
0.0
 10
148.4289
 20
34.35
 30
0.0
 10
148.4289
 20
34.35
 30
0.0
 10
152.3523
 20
38.2586
 30
0.0
 10
151.7197
 20
39.2288
 30
0.0
 10
148.3263
 20
39.6624
 30
0.0
 10
148.3263
 20
39.6624
 30
0.0
 10
144.7847
 20
39.7312
 30
0.0
 10
142.1125
 20
36.5474
 30
0.0
 10
142.2453
 20
34.2978
 30
0.0
 10
142.2453
 20
34.2978
 30
0.0
 10
142.3778
 20
32.0486
 30
0.0
 10
144.4465
 20
27.9192
 30
0.0
 10
147.807
 20
26.9707
 30
0.0
 10
147.807
 20
26.9707
 30
0.0
 10
151.1672
 20
26.0221
 30
0.0
 10
155.3793
 20
27.1583
 30
0.0
 10
156.7926
 20
29.2427
 30
0.0
 10
156.7926
 20
29.2427
 30
0.0
 10
158.2059
 20
31.3274
 30
0.0
 10
158.4075
 20
31.9911
 30
0.0
 10
159.3827
 20
34.0026
 30
0.0
 10
159.3827
 20
34.0026
 30
0.0
 10
160.3579
 20
36.0144
 30
0.0
 10
162.1353
 20
36.2332
 30
0.0
 10
161.2519
 20
32.9325
 30
0.0
 10
161.2519
 20
32.9325
 30
0.0
 10
160.3686
 20
29.6319
 30
0.0
 10
156.4428
 20
25.5983
 30
0.0
 10
154.185
 20
24.9868
 30
0.0
 10
154.185
 20
24.9868
 30
0.0
 10
151.9269
 20
24.3752
 30
0.0
 10
145.9908
 20
25.4524
 30
0.0
 10
144.7646
 20
26.203
 30
0.0
 10
144.7646
 20
26.203
 30
0.0
 10
143.5383
 20
26.9532
 30
0.0
 10
142.422
 20
28.4439
 30
0.0
 10
142.422
 20
28.4439
 30
0.0
 10
142.422
 20
28.4439
 30
0.0
 10
142.422
 20
28.4439
 30
0.0
 10
140.7751
 20
31.5151
 30
0.0
 10
140.7751
 20
31.5151
 30
0.0
 10
140.7751
 20
31.5151
 30
0.0
 10
140.7751
 20
31.5151
 30
0.0
 10
140.5243
 20
27.8602
 30
0.0
 10
140.8776
 20
26.3313
 30
0.0
 10
140.8776
 20
26.3313
 30
0.0
 10
141.231
 20
24.8027
 30
0.0
 10
143.3299
 20
23.3227
 30
0.0
 10
144.5419
 20
22.8849
 30
0.0
 10
144.5419
 20
22.8849
 30
0.0
 10
145.754
 20
22.447
 30
0.0
 10
145.5101
 20
23.7708
 30
0.0
 10
150.0965
 20
23.6701
 30
0.0
 10
150.0965
 20
23.6701
 30
0.0
 10
154.038
 20
23.5835
 30
0.0
 10
151.4088
 20
20.8849
 30
0.0
 10
150.5913
 20
20.1276
 30
0.0
 10
150.5913
 20
20.1276
 30
0.0
 10
150.4576
 20
20.0037
 30
0.0
 10
150.3722
 20
19.9316
 30
0.0
 10
150.3722
 20
19.9316
 30
0.0
 10
150.3722
 20
19.9316
 30
0.0
 10
150.3722
 20
19.9316
 30
0.0
 10
147.0156
 20
19.0631
 30
0.0
 10
147.0156
 20
19.0631
 30
0.0
 10
147.0156
 20
19.0631
 30
0.0
 10
147.0156
 20
19.0631
 30
0.0
 10
151.4322
 20
17.6735
 30
0.0
 10
153.1991
 20
19.0631
 30
0.0
 10
153.1991
 20
19.0631
 30
0.0
 10
154.9658
 20
20.4527
 30
0.0
 10
153.4146
 20
22.6104
 30
0.0
 10
157.1249
 20
24.3477
 30
0.0
 10
157.1249
 20
24.3477
 30
0.0
 10
160.8349
 20
26.0847
 30
0.0
 10
159.6619
 20
25.7548
 30
0.0
 10
159.6619
 20
25.7548
 30
0.0
 10
159.6619
 20
25.7548
 30
0.0
 10
159.6619
 20
25.7548
 30
0.0
 10
160.5702
 20
22.9925
 30
0.0
 10
158.6266
 20
21.0817
 30
0.0
 10
158.6266
 20
21.0817
 30
0.0
 10
156.6832
 20
19.1707
 30
0.0
 10
155.2474
 20
18.3405
 30
0.0
 10
155.3016
 20
18.3405
 30
0.0
 10
155.3016
 20
18.3405
 30
0.0
 10
155.3556
 20
18.3405
 30
0.0
 10
159.581
 20
19.8057
 30
0.0
 10
160.8808
 20
21.2311
 30
0.0
 10
160.8808
 20
21.2311
 30
0.0
 10
162.1809
 20
22.6566
 30
0.0
 10
163.5361
 20
25.6368
 30
0.0
 10
162.2097
 20
27.7488
 30
0.0
 10
162.2097
 20
27.7488
 30
0.0
 10
160.8832
 20
29.8608
 30
0.0
 10
161.3157
 20
32.5018
 30
0.0
 10
163.7078
 20
30.5633
 30
0.0
 10
163.7078
 20
30.5633
 30
0.0
 10
166.0999
 20
28.6244
 30
0.0
 10
166.1529
 20
27.2938
 30
0.0
 10
166.4499
 20
28.0965
 30
0.0
 10
166.4499
 20
28.0965
 30
0.0
 10
166.7466
 20
28.8989
 30
0.0
 10
166.0047
 20
31.3239
 30
0.0
 10
164.7677
 20
34.1034
 30
0.0
 10
164.7677
 20
34.1034
 30
0.0
 10
163.5311
 20
36.8829
 30
0.0
 10
163.3156
 20
37.3868
 30
0.0
 10
161.6797
 20
38.5194
 30
0.0
 10
161.6797
 20
38.5194
 30
0.0
 10
160.0434
 20
39.652
 30
0.0
 10
156.7327
 20
37.1295
 30
0.0
 10
156.7327
 20
37.1295
 30
0.0
 10
156.7327
 20
37.1295
 30
0.0
 10
156.7327
 20
37.1295
 30
0.0
 10
156.8993
 20
40.8217
 30
0.0
 10
160.9727
 20
41.9937
 30
0.0
 10
160.9727
 20
41.9937
 30
0.0
 10
163.6031
 20
42.3065
 30
0.0
 10
164.6747
 20
41.087
 30
0.0
 10
167.1566
 20
37.7514
 30
0.0
 10
167.1566
 20
37.7514
 30
0.0
 10
167.1566
 20
37.7514
 30
0.0
 10
165.9128
 20
43.2651
 30
0.0
 10
162.2838
 20
44.5993
 30
0.0
 10
162.2838
 20
44.5993
 30
0.0
 10
159.3969
 20
46.2983
 30
0.0
 10
159.0507
 20
50.0219
 30
0.0
 10
160.4427
 20
52.0693
 30
0.0
 10
160.4427
 20
52.0693
 30
0.0
 10
161.8347
 20
54.1164
 30
0.0
 10
164.0605
 20
55.471
 30
0.0
 10
165.743
 20
55.3699
 30
0.0
 10
165.743
 20
55.3699
 30
0.0
 10
164.3027
 20
51.5132
 30
0.0
 10
164.4203
 20
49.0432
 30
0.0
 10
166.0966
 20
45.9892
 30
0.0
  0
SPLINE
  5
7A
330
1F
100
AcDbEntity
  8
layer 1
 62
     7
370
     9
100
AcDbSpline
210
0.0
220
0.0
230
1.0
 70
    11
 71
     3
 72
    52
 73
    48
 74
     0
 42
0.0000000001
 43
0.0000000001
 12
1.0
 22
0.0
 32
0.0
 13
1.0
 23
0.0
 33
0.0
 40
0.0
 40
0.0
 40
0.0
 40
0.0
 40
0.0769230769230769
 40
0.0769230769230769
 40
0.0769230769230769
 40
0.0769230769230769
 40
0.1538461538461539
 40
0.1538461538461539
 40
0.1538461538461539
 40
0.1538461538461539
 40
0.2307692307692308
 40
0.2307692307692308
 40
0.2307692307692308
 40
0.2307692307692308
 40
0.3076923076923077
 40
0.3076923076923077
 40
0.3076923076923077
 40
0.3076923076923077
 40
0.3846153846153846
 40
0.3846153846153846
 40
0.3846153846153846
 40
0.3846153846153846
 40
0.4615384615384616
 40
0.4615384615384616
 40
0.4615384615384616
 40
0.4615384615384616
 40
0.5384615384615384
 40
0.5384615384615384
 40
0.5384615384615384
 40
0.5384615384615384
 40
0.6153846153846154
 40
0.6153846153846154
 40
0.6153846153846154
 40
0.6153846153846154
 40
0.6923076923076923
 40
0.6923076923076923
 40
0.6923076923076923
 40
0.6923076923076923
 40
0.7692307692307693
 40
0.7692307692307693
 40
0.7692307692307693
 40
0.7692307692307693
 40
0.8461538461538461
 40
0.8461538461538461
 40
0.8461538461538461
 40
0.8461538461538461
 40
1.0
 40
1.0
 40
1.0
 40
1.0
 10
158.4834
 20
46.1439
 30
0.0
 10
157.4062
 20
46.1439
 30
0.0
 10
154.5523
 20
48.5944
 30
0.0
 10
150.9736
 20
47.6829
 30
0.0
 10
150.9736
 20
47.6829
 30
0.0
 10
147.3947
 20
46.7714
 30
0.0
 10
144.839
 20
43.4418
 30
0.0
 10
144.1115
 20
43.4418
 30
0.0
 10
144.1115
 20
43.4418
 30
0.0
 10
143.3841
 20
43.4418
 30
0.0
 10
142.6378
 20
48.0774
 30
0.0
 10
145.9962
 20
49.0189
 30
0.0
 10
145.9962
 20
49.0189
 30
0.0
 10
149.3546
 20
49.9603
 30
0.0
 10
152.9801
 20
49.4768
 30
0.0
 10
153.0527
 20
50.1206
 30
0.0
 10
153.0527
 20
50.1206
 30
0.0
 10
153.1253
 20
50.7645
 30
0.0
 10
148.9307
 20
51.0339
 30
0.0
 10
147.5156
 20
50.9717
 30
0.0
 10
147.5156
 20
50.9717
 30
0.0
 10
146.1005
 20
50.9094
 30
0.0
 10
143.0181
 20
50.7381
 30
0.0
 10
139.547
 20
45.0892
 30
0.0
 10
139.547
 20
45.0892
 30
0.0
 10
135.8581
 20
41.5147
 30
0.0
 10
133.8327
 20
41.0674
 30
0.0
 10
132.9597
 20
41.0674
 30
0.0
 10
132.9597
 20
41.0674
 30
0.0
 10
132.0868
 20
41.0674
 30
0.0
 10
132.6639
 20
45.6382
 30
0.0
 10
134.9896
 20
47.7499
 30
0.0
 10
134.9896
 20
47.7499
 30
0.0
 10
137.3156
 20
49.8616
 30
0.0
 10
140.8815
 20
51.783
 30
0.0
 10
143.9823
 20
52.3933
 30
0.0
 10
143.9823
 20
52.3933
 30
0.0
 10
147.2545
 20
53.0374
 30
0.0
 10
151.6148
 20
52.1464
 30
0.0
 10
154.0457
 20
51.0449
 30
0.0
 10
154.0457
 20
51.0449
 30
0.0
 10
156.4763
 20
49.9434
 30
0.0
 10
155.6351
 20
49.9413
 30
0.0
 10
157.1104
 20
49.0906
 30
0.0
 10
157.1104
 20
49.0906
 30
0.0
 10
159.7687
 20
46.5811
 30
0.0
 10
159.5606
 20
46.1439
 30
0.0
 10
158.4834
 20
46.1439
 30
0.0
  0
SPLINE
  5
7B
330
1F
100
AcDbEntity
  8
layer 1
 62
     7
370
     9
100
AcDbSpline
210
0.0
220
0.0
230
1.0
 70
    11
 71
     3
 72
    40
 73
    36
 74
     0
 42
0.0000000001
 43
0.0000000001
 12
1.0
 22
0.0
 32
0.0
 13
1.0
 23
0.0
 33
0.0
 40
0.0
 40
0.0
 40
0.0
 40
0.0
 40
0.1
 40
0.1
 40
0.1
 40
0.1
 40
0.2
 40
0.2
 40
0.2
 40
0.2
 40
0.3
 40
0.3
 40
0.3
 40
0.3
 40
0.4
 40
0.4
 40
0.4
 40
0.4
 40
0.5
 40
0.5
 40
0.5
 40
0.5
 40
0.6
 40
0.6
 40
0.6
 40
0.6
 40
0.7
 40
0.7
 40
0.7
 40
0.7
 40
0.8
 40
0.8
 40
0.8
 40
0.8
 40
1.0
 40
1.0
 40
1.0
 40
1.0
 10
131.5582
 20
48.2304
 30
0.0
 10
131.5582
 20
48.2304
 30
0.0
 10
132.5228
 20
47.9384
 30
0.0
 10
133.9328
 20
48.5221
 30
0.0
 10
133.9328
 20
48.5221
 30
0.0
 10
135.3426
 20
49.1057
 30
0.0
 10
136.0104
 20
50.565
 30
0.0
 10
132.5228
 20
50.6382
 30
0.0
 10
132.5228
 20
50.6382
 30
0.0
 10
129.0351
 20
50.7111
 30
0.0
 10
125.4734
 20
46.4791
 30
0.0
 10
125.4734
 20
46.4791
 30
0.0
 10
125.4734
 20
46.4791
 30
0.0
 10
125.4734
 20
46.4791
 30
0.0
 10
123.0543
 20
43.0125
 30
0.0
 10
125.1764
 20
39.7668
 30
0.0
 10
125.1764
 20
39.7668
 30
0.0
 10
125.6438
 20
39.0515
 30
0.0
 10
126.8905
 20
38.654
 30
0.0
 10
127.7235
 20
38.705
 30
0.0
 10
127.7235
 20
38.705
 30
0.0
 10
128.5564
 20
38.756
 30
0.0
 10
129.5965
 20
38.8194
 30
0.0
 10
129.7774
 20
39.8981
 30
0.0
 10
129.7774
 20
39.8981
 30
0.0
 10
129.9579
 20
40.9767
 30
0.0
 10
128.4527
 20
41.2592
 30
0.0
 10
128.3377
 20
42.5537
 30
0.0
 10
128.3377
 20
42.5537
 30
0.0
 10
128.2226
 20
43.8484
 30
0.0
 10
128.2167
 20
45.0747
 30
0.0
 10
128.9758
 20
45.8226
 30
0.0
 10
128.9758
 20
45.8226
 30
0.0
 10
128.9758
 20
45.8226
 30
0.0
 10
131.5582
 20
48.2304
 30
0.0
 10
131.5582
 20
48.2304
 30
0.0
  0
SPLINE
  5
7C
330
1F
100
AcDbEntity
  8
layer 1
 62
     7
370
     9
100
AcDbSpline
210
0.0
220
0.0
230
1.0
 70
    11
 71
     3
 72
    76
 73
    72
 74
     0
 42
0.0000000001
 43
0.0000000001
 12
1.0
 22
0.0
 32
0.0
 13
1.0
 23
0.0
 33
0.0
 40
0.0
 40
0.0
 40
0.0
 40
0.0
 40
0.0526315789473684
 40
0.0526315789473684
 40
0.0526315789473684
 40
0.0526315789473684
 40
0.1052631578947368
 40
0.1052631578947368
 40
0.1052631578947368
 40
0.1052631578947368
 40
0.1578947368421053
 40
0.1578947368421053
 40
0.1578947368421053
 40
0.1578947368421053
 40
0.2105263157894737
 40
0.2105263157894737
 40
0.2105263157894737
 40
0.2105263157894737
 40
0.2631578947368421
 40
0.2631578947368421
 40
0.2631578947368421
 40
0.2631578947368421
 40
0.3157894736842105
 40
0.3157894736842105
 40
0.3157894736842105
 40
0.3157894736842105
 40
0.3684210526315789
 40
0.3684210526315789
 40
0.3684210526315789
 40
0.3684210526315789
 40
0.4210526315789473
 40
0.4210526315789473
 40
0.4210526315789473
 40
0.4210526315789473
 40
0.4736842105263158
 40
0.4736842105263158
 40
0.4736842105263158
 40
0.4736842105263158
 40
0.5263157894736842
 40
0.5263157894736842
 40
0.5263157894736842
 40
0.5263157894736842
 40
0.5789473684210527
 40
0.5789473684210527
 40
0.5789473684210527
 40
0.5789473684210527
 40
0.631578947368421
 40
0.631578947368421
 40
0.631578947368421
 40
0.631578947368421
 40
0.6842105263157895
 40
0.6842105263157895
 40
0.6842105263157895
 40
0.6842105263157895
 40
0.7368421052631579
 40
0.7368421052631579
 40
0.7368421052631579
 40
0.7368421052631579
 40
0.7894736842105263
 40
0.7894736842105263
 40
0.7894736842105263
 40
0.7894736842105263
 40
0.8421052631578947
 40
0.8421052631578947
 40
0.8421052631578947
 40
0.8421052631578947
 40
0.8947368421052632
 40
0.8947368421052632
 40
0.8947368421052632
 40
0.8947368421052632
 40
1.0
 40
1.0
 40
1.0
 40
1.0
 10
123.6987
 20
55.6222
 30
0.0
 10
123.6987
 20
55.6222
 30
0.0
 10
118.108
 20
51.5977
 30
0.0
 10
118.2079
 20
47.3767
 30
0.0
 10
118.2079
 20
47.3767
 30
0.0
 10
118.3078
 20
43.156
 30
0.0
 10
116.8102
 20
39.6221
 30
0.0
 10
121.2029
 20
42.6651
 30
0.0
 10
121.2029
 20
42.6651
 30
0.0
 10
125.5955
 20
45.7079
 30
0.0
 10
122.2012
 20
38.6407
 30
0.0
 10
122.2012
 20
38.6407
 30
0.0
 10
122.2012
 20
38.6407
 30
0.0
 10
122.2012
 20
38.6407
 30
0.0
 10
116.6105
 20
34.4197
 30
0.0
 10
116.7104
 20
39.2296
 30
0.0
 10
116.7104
 20
39.2296
 30
0.0
 10
116.8102
 20
44.0393
 30
0.0
 10
115.2129
 20
40.9963
 30
0.0
 10
115.0134
 20
37.8552
 30
0.0
 10
115.0134
 20
37.8552
 30
0.0
 10
114.8136
 20
34.7143
 30
0.0
 10
117.2095
 20
27.6468
 30
0.0
 10
123.4989
 20
32.8492
 30
0.0
 10
123.4989
 20
32.8492
 30
0.0
 10
130.5732
 20
35.8066
 30
0.0
 10
130.4873
 20
31.0823
 30
0.0
 10
127.4923
 20
27.843
 30
0.0
 10
127.4923
 20
27.843
 30
0.0
 10
124.4973
 20
24.6038
 30
0.0
 10
115.2129
 20
26.3707
 30
0.0
 10
114.6141
 20
30.5914
 30
0.0
 10
114.6141
 20
30.5914
 30
0.0
 10
114.015
 20
34.8124
 30
0.0
 10
113.416
 20
36.1866
 30
0.0
 10
113.416
 20
36.1866
 30
0.0
 10
113.416
 20
36.1866
 30
0.0
 10
113.416
 20
36.1866
 30
0.0
 10
112.6174
 20
32.7511
 30
0.0
 10
108.6241
 20
31.2785
 30
0.0
 10
108.6241
 20
31.2785
 30
0.0
 10
104.3453
 20
30.2974
 30
0.0
 10
103.376
 20
30.5633
 30
0.0
 10
107.4259
 20
36.5791
 30
0.0
 10
107.4259
 20
36.5791
 30
0.0
 10
111.4048
 20
40.2099
 30
0.0
 10
112.3174
 20
39.0053
 30
0.0
 10
113.9148
 20
40.7719
 30
0.0
 10
113.9148
 20
40.7719
 30
0.0
 10
115.5122
 20
42.5389
 30
0.0
 10
116.3111
 20
44.6283
 30
0.0
 10
116.3111
 20
44.6283
 30
0.0
 10
116.3111
 20
44.6283
 30
0.0
 10
116.3111
 20
44.6283
 30
0.0
 10
114.015
 20
41.6834
 30
0.0
 10
110.5208
 20
41.0944
 30
0.0
 10
110.5208
 20
41.0944
 30
0.0
 10
105.4296
 20
42.2724
 30
0.0
 10
104.5308
 20
41.978
 30
0.0
 10
112.6174
 20
45.1192
 30
0.0
 10
112.6174
 20
45.1192
 30
0.0
 10
115.2129
 20
46.9703
 30
0.0
 10
114.9719
 20
49.7199
 30
0.0
 10
119.3061
 20
54.1496
 30
0.0
 10
119.3061
 20
54.1496
 30
0.0
 10
121.702
 20
56.8982
 30
0.0
 10
126.0947
 20
57.9778
 30
0.0
 10
126.0947
 20
57.9778
 30
0.0
 10
126.0947
 20
57.9778
 30
0.0
 10
126.0947
 20
57.9778
 30
0.0
 10
123.6987
 20
55.6222
 30
0.0
 10
123.6987
 20
55.6222
 30
0.0
  0
SPLINE
  5
7D
330
1F
100
AcDbEntity
  8
layer 1
 62
     7
370
     9
100
AcDbSpline
210
0.0
220
0.0
230
1.0
 70
    11
 71
     3
 72
    84
 73
    80
 74
     0
 42
0.0000000001
 43
0.0000000001
 12
1.0
 22
0.0
 32
0.0
 13
1.0
 23
0.0
 33
0.0
 40
0.0
 40
0.0
 40
0.0
 40
0.0
 40
0.0476190476190476
 40
0.0476190476190476
 40
0.0476190476190476
 40
0.0476190476190476
 40
0.0952380952380952
 40
0.0952380952380952
 40
0.0952380952380952
 40
0.0952380952380952
 40
0.1428571428571428
 40
0.1428571428571428
 40
0.1428571428571428
 40
0.1428571428571428
 40
0.1904761904761905
 40
0.1904761904761905
 40
0.1904761904761905
 40
0.1904761904761905
 40
0.2380952380952381
 40
0.2380952380952381
 40
0.2380952380952381
 40
0.2380952380952381
 40
0.2857142857142857
 40
0.2857142857142857
 40
0.2857142857142857
 40
0.2857142857142857
 40
0.3333333333333333
 40
0.3333333333333333
 40
0.3333333333333333
 40
0.3333333333333333
 40
0.3809523809523809
 40
0.3809523809523809
 40
0.3809523809523809
 40
0.3809523809523809
 40
0.4285714285714285
 40
0.4285714285714285
 40
0.4285714285714285
 40
0.4285714285714285
 40
0.4761904761904762
 40
0.4761904761904762
 40
0.4761904761904762
 40
0.4761904761904762
 40
0.5238095238095238
 40
0.5238095238095238
 40
0.5238095238095238
 40
0.5238095238095238
 40
0.5714285714285714
 40
0.5714285714285714
 40
0.5714285714285714
 40
0.5714285714285714
 40
0.6190476190476191
 40
0.6190476190476191
 40
0.6190476190476191
 40
0.6190476190476191
 40
0.6666666666666666
 40
0.6666666666666666
 40
0.6666666666666666
 40
0.6666666666666666
 40
0.7142857142857143
 40
0.7142857142857143
 40
0.7142857142857143
 40
0.7142857142857143
 40
0.7619047619047619
 40
0.7619047619047619
 40
0.7619047619047619
 40
0.7619047619047619
 40
0.8095238095238095
 40
0.8095238095238095
 40
0.8095238095238095
 40
0.8095238095238095
 40
0.8571428571428571
 40
0.8571428571428571
 40
0.8571428571428571
 40
0.8571428571428571
 40
0.9047619047619048
 40
0.9047619047619048
 40
0.9047619047619048
 40
0.9047619047619048
 40
1.0
 40
1.0
 40
1.0
 40
1.0
 10
121.9338
 20
59.8749
 30
0.0
 10
121.9338
 20
59.8749
 30
0.0
 10
115.6933
 20
58.1444
 30
0.0
 10
114.2092
 20
59.0565
 30
0.0
 10
114.2092
 20
59.0565
 30
0.0
 10
112.7253
 20
59.9682
 30
0.0
 10
109.4789
 20
60.6067
 30
0.0
 10
109.4789
 20
63.6163
 30
0.0
 10
109.4789
 20
63.6163
 30
0.0
 10
109.4789
 20
66.6258
 30
0.0
 10
110.6848
 20
64.6193
 30
0.0
 10
111.4267
 20
64.7106
 30
0.0
 10
111.4267
 20
64.7106
 30
0.0
 10
112.1686
 20
64.8019
 30
0.0
 10
117.0844
 20
64.3458
 30
0.0
 10
114.6731
 20
69.453
 30
0.0
 10
114.6731
 20
69.453
 30
0.0
 10
111.5195
 20
72.4626
 30
0.0
 10
107.0673
 20
70.0002
 30
0.0
 10
106.8817
 20
65.3491
 30
0.0
 10
106.8817
 20
65.3491
 30
0.0
 10
106.6965
 20
60.698
 30
0.0
 10
109.8501
 20
59.1475
 30
0.0
 10
109.8501
 20
59.1475
 30
0.0
 10
109.8501
 20
59.1475
 30
0.0
 10
109.8501
 20
59.1475
 30
0.0
 10
115.9717
 20
57.9621
 30
0.0
 10
108.737
 20
57.05
 30
0.0
 10
108.737
 20
57.05
 30
0.0
 10
104.851
 20
57.2886
 30
0.0
 10
104.6476
 20
57.5471
 30
0.0
 10
102.2537
 20
58.6397
 30
0.0
 10
102.2537
 20
58.6397
 30
0.0
 10
102.2537
 20
58.6397
 30
0.0
 10
102.2537
 20
53.7186
 30
0.0
 10
102.2537
 20
53.7186
 30
0.0
 10
102.2537
 20
53.7186
 30
0.0
 10
103.2296
 20
53.67
 30
0.0
 10
104.65
 20
53.6587
 30
0.0
 10
106.2068
 20
53.785
 30
0.0
 10
106.2068
 20
53.785
 30
0.0
 10
106.2068
 20
53.785
 30
0.0
 10
109.5643
 20
55.2297
 30
0.0
 10
109.5643
 20
55.2297
 30
0.0
 10
109.5643
 20
55.2297
 30
0.0
 10
109.5643
 20
55.2297
 30
0.0
 10
104.8599
 20
50.7864
 30
0.0
 10
103.7839
 20
49.7104
 30
0.0
 10
103.7839
 20
49.7104
 30
0.0
 10
103.3235
 20
49.2498
 30
0.0
 10
102.7541
 20
48.9744
 30
0.0
 10
102.2537
 20
48.8099
 30
0.0
 10
102.2537
 20
48.8099
 30
0.0
 10
102.2537
 20
48.8099
 30
0.0
 10
102.2537
 20
43.6519
 30
0.0
 10
102.2537
 20
43.6519
 30
0.0
 10
102.2537
 20
43.6519
 30
0.0
 10
102.327
 20
43.4503
 30
0.0
 10
102.3877
 20
43.1806
 30
0.0
 10
102.4298
 20
42.8231
 30
0.0
 10
102.4298
 20
42.8231
 30
0.0
 10
102.7082
 20
40.4521
 30
0.0
 10
104.934
 20
38.7192
 30
0.0
 10
107.4384
 20
38.8105
 30
0.0
 10
107.4384
 20
38.8105
 30
0.0
 10
109.9425
 20
38.9015
 30
0.0
 10
104.4292
 20
40.8674
 30
0.0
 10
105.8202
 20
45.6098
 30
0.0
 10
105.8202
 20
45.6098
 30
0.0
 10
107.2116
 20
50.3521
 30
0.0
 10
112.1586
 20
55.2158
 30
0.0
 10
115.683
 20
55.672
 30
0.0
 10
115.683
 20
55.672
 30
0.0
 10
119.2077
 20
56.1279
 30
0.0
 10
123.3949
 20
58.6035
 30
0.0
 10
123.3949
 20
58.6035
 30
0.0
 10
123.3949
 20
58.6035
 30
0.0
 10
123.2831
 20
59.3965
 30
0.0
 10
122.7525
 20
59.7516
 30
0.0
 10
121.9338
 20
59.8749
 30
0.0
  0
SPLINE
  5
7E
330
1F
100
AcDbEntity
  8
layer 1
 62
     7
370
     9
100
AcDbSpline
210
0.0
220
0.0
230
1.0
 70
    11
 71
     3
 72
    96
 73
    92
 74
     0
 42
0.0000000001
 43
0.0000000001
 12
1.0
 22
0.0
 32
0.0
 13
1.0
 23
0.0
 33
0.0
 40
0.0
 40
0.0
 40
0.0
 40
0.0
 40
0.0416666666666667
 40
0.0416666666666667
 40
0.0416666666666667
 40
0.0416666666666667
 40
0.0833333333333333
 40
0.0833333333333333
 40
0.0833333333333333
 40
0.0833333333333333
 40
0.125
 40
0.125
 40
0.125
 40
0.125
 40
0.1666666666666667
 40
0.1666666666666667
 40
0.1666666666666667
 40
0.1666666666666667
 40
0.2083333333333333
 40
0.2083333333333333
 40
0.2083333333333333
 40
0.2083333333333333
 40
0.25
 40
0.25
 40
0.25
 40
0.25
 40
0.2916666666666667
 40
0.2916666666666667
 40
0.2916666666666667
 40
0.2916666666666667
 40
0.3333333333333333
 40
0.3333333333333333
 40
0.3333333333333333
 40
0.3333333333333333
 40
0.375
 40
0.375
 40
0.375
 40
0.375
 40
0.4166666666666667
 40
0.4166666666666667
 40
0.4166666666666667
 40
0.4166666666666667
 40
0.4583333333333333
 40
0.4583333333333333
 40
0.4583333333333333
 40
0.4583333333333333
 40
0.5
 40
0.5
 40
0.5
 40
0.5
 40
0.5416666666666666
 40
0.5416666666666666
 40
0.5416666666666666
 40
0.5416666666666666
 40
0.5833333333333334
 40
0.5833333333333334
 40
0.5833333333333334
 40
0.5833333333333334
 40
0.625
 40
0.625
 40
0.625
 40
0.625
 40
0.6666666666666666
 40
0.6666666666666666
 40
0.6666666666666666
 40
0.6666666666666666
 40
0.7083333333333334
 40
0.7083333333333334
 40
0.7083333333333334
 40
0.7083333333333334
 40
0.75
 40
0.75
 40
0.75
 40
0.75
 40
0.7916666666666666
 40
0.7916666666666666
 40
0.7916666666666666
 40
0.7916666666666666
 40
0.8333333333333334
 40
0.8333333333333334
 40
0.8333333333333334
 40
0.8333333333333334
 40
0.875
 40
0.875
 40
0.875
 40
0.875
 40
0.9166666666666666
 40
0.9166666666666666
 40
0.9166666666666666
 40
0.9166666666666666
 40
1.0
 40
1.0
 40
1.0
 40
1.0
 10
145.4834
 20
55.8889
 30
0.0
 10
145.4834
 20
55.8889
 30
0.0
 10
141.7912
 20
55.2481
 30
0.0
 10
141.7912
 20
55.2481
 30
0.0
 10
141.7912
 20
55.2481
 30
0.0
 10
141.7912
 20
55.2481
 30
0.0
 10
138.2339
 20
52.1052
 30
0.0
 10
136.086
 20
52.1052
 30
0.0
 10
136.086
 20
52.1052
 30
0.0
 10
133.9382
 20
52.1052
 30
0.0
 10
131.4323
 20
52.1052
 30
0.0
 10
131.4323
 20
52.1052
 30
0.0
 10
131.4323
 20
52.1052
 30
0.0
 10
131.4323
 20
52.1052
 30
0.0
 10
134.475
 20
55.977
 30
0.0
 10
136.9809
 20
55.977
 30
0.0
 10
136.9809
 20
55.977
 30
0.0
 10
139.4868
 20
55.977
 30
0.0
 10
140.1135
 20
57.385
 30
0.0
 10
136.8022
 20
57.0331
 30
0.0
 10
136.8022
 20
57.0331
 30
0.0
 10
133.4906
 20
56.681
 30
0.0
 10
130.5184
 20
55.8154
 30
0.0
 10
128.7473
 20
52.1932
 30
0.0
 10
128.7473
 20
52.1932
 30
0.0
 10
126.9759
 20
48.5707
 30
0.0
 10
122.7016
 20
46.1211
 30
0.0
 10
120.9115
 20
45.8573
 30
0.0
 10
120.9115
 20
45.8573
 30
0.0
 10
121.686
 20
49.3363
 30
0.0
 10
121.9741
 20
49.9855
 30
0.0
 10
123.8247
 20
53.0244
 30
0.0
 10
123.8247
 20
53.0244
 30
0.0
 10
125.8759
 20
55.8664
 30
0.0
 10
131.3427
 20
58.3531
 30
0.0
 10
131.3427
 20
58.3531
 30
0.0
 10
131.3427
 20
58.3531
 30
0.0
 10
131.3427
 20
58.3531
 30
0.0
 10
129.5038
 20
59.4347
 30
0.0
 10
127.0874
 20
60.4152
 30
0.0
 10
127.0874
 20
60.4152
 30
0.0
 10
124.671
 20
61.3961
 30
0.0
 10
122.2806
 20
63.2938
 30
0.0
 10
121.2962
 20
65.2297
 30
0.0
 10
121.2962
 20
65.2297
 30
0.0
 10
120.3115
 20
67.1656
 30
0.0
 10
120.0658
 20
70.6728
 30
0.0
 10
121.7664
 20
71.6406
 30
0.0
 10
121.7664
 20
71.6406
 30
0.0
 10
126.0369
 20
75.2788
 30
0.0
 10
129.5977
 20
71.5226
 30
0.0
 10
128.5683
 20
68.9127
 30
0.0
 10
128.5683
 20
68.9127
 30
0.0
 10
127.5388
 20
66.303
 30
0.0
 10
125.9728
 20
67.5047
 30
0.0
 10
125.9728
 20
67.5047
 30
0.0
 10
125.9728
 20
67.5047
 30
0.0
 10
125.9728
 20
67.5047
 30
0.0
 10
124.4027
 20
68.5279
 30
0.0
 10
124.4027
 20
68.5279
 30
0.0
 10
124.4027
 20
68.5279
 30
0.0
 10
124.4027
 20
68.5279
 30
0.0
 10
124.3283
 20
65.4075
 30
0.0
 10
126.6552
 20
63.4716
 30
0.0
 10
126.6552
 20
63.4716
 30
0.0
 10
128.9821
 20
61.5357
 30
0.0
 10
132.7
 20
59.5518
 30
0.0
 10
135.6384
 20
58.7049
 30
0.0
 10
135.6384
 20
58.7049
 30
0.0
 10
138.5771
 20
57.8583
 30
0.0
 10
139.748
 20
58.4482
 30
0.0
 10
139.748
 20
58.4482
 30
0.0
 10
139.748
 20
58.4482
 30
0.0
 10
139.748
 20
58.4482
 30
0.0
 10
138.5884
 20
59.9297
 30
0.0
 10
136.7127
 20
60.1129
 30
0.0
 10
136.7127
 20
60.1129
 30
0.0
 10
134.8366
 20
60.2964
 30
0.0
 10
134.2216
 20
63.6732
 30
0.0
 10
133.5801
 20
63.897
 30
0.0
 10
133.5801
 20
63.897
 30
0.0
 10
132.9387
 20
64.1205
 30
0.0
 10
137.4211
 20
63.8712
 30
0.0
 10
139.5764
 20
61.785
 30
0.0
 10
139.5764
 20
61.785
 30
0.0
 10
141.7319
 20
59.6985
 30
0.0
 10
140.7398
 20
58.969
 30
0.0
 10
142.5299
 20
58.0009
 30
0.0
 10
142.5299
 20
58.0009
 30
0.0
 10
144.3994
 20
55.9346
 30
0.0
 10
145.4834
 20
55.8889
 30
0.0
 10
145.4834
 20
55.8889
 30
0.0
  0
SPLINE
  5
7F
330
1F
100
AcDbEntity
  8
layer 1
 62
     7
370
     9
100
AcDbSpline
210
0.0
220
0.0
230
1.0
 70
    11
 71
     3
 72
   104
 73
   100
 74
     0
 42
0.0000000001
 43
0.0000000001
 12
1.0
 22
0.0
 32
0.0
 13
1.0
 23
0.0
 33
0.0
 40
0.0
 40
0.0
 40
0.0
 40
0.0
 40
0.0384615384615385
 40
0.0384615384615385
 40
0.0384615384615385
 40
0.0384615384615385
 40
0.0769230769230769
 40
0.0769230769230769
 40
0.0769230769230769
 40
0.0769230769230769
 40
0.1153846153846154
 40
0.1153846153846154
 40
0.1153846153846154
 40
0.1153846153846154
 40
0.1538461538461539
 40
0.1538461538461539
 40
0.1538461538461539
 40
0.1538461538461539
 40
0.1923076923076923
 40
0.1923076923076923
 40
0.1923076923076923
 40
0.1923076923076923
 40
0.2307692307692308
 40
0.2307692307692308
 40
0.2307692307692308
 40
0.2307692307692308
 40
0.2692307692307692
 40
0.2692307692307692
 40
0.2692307692307692
 40
0.2692307692307692
 40
0.3076923076923077
 40
0.3076923076923077
 40
0.3076923076923077
 40
0.3076923076923077
 40
0.3461538461538461
 40
0.3461538461538461
 40
0.3461538461538461
 40
0.3461538461538461
 40
0.3846153846153846
 40
0.3846153846153846
 40
0.3846153846153846
 40
0.3846153846153846
 40
0.4230769230769231
 40
0.4230769230769231
 40
0.4230769230769231
 40
0.4230769230769231
 40
0.4615384615384616
 40
0.4615384615384616
 40
0.4615384615384616
 40
0.4615384615384616
 40
0.5
 40
0.5
 40
0.5
 40
0.5
 40
0.5384615384615384
 40
0.5384615384615384
 40
0.5384615384615384
 40
0.5384615384615384
 40
0.5769230769230769
 40
0.5769230769230769
 40
0.5769230769230769
 40
0.5769230769230769
 40
0.6153846153846154
 40
0.6153846153846154
 40
0.6153846153846154
 40
0.6153846153846154
 40
0.6538461538461539
 40
0.6538461538461539
 40
0.6538461538461539
 40
0.6538461538461539
 40
0.6923076923076923
 40
0.6923076923076923
 40
0.6923076923076923
 40
0.6923076923076923
 40
0.7307692307692307
 40
0.7307692307692307
 40
0.7307692307692307
 40
0.7307692307692307
 40
0.7692307692307693
 40
0.7692307692307693
 40
0.7692307692307693
 40
0.7692307692307693
 40
0.8076923076923077
 40
0.8076923076923077
 40
0.8076923076923077
 40
0.8076923076923077
 40
0.8461538461538461
 40
0.8461538461538461
 40
0.8461538461538461
 40
0.8461538461538461
 40
0.8846153846153846
 40
0.8846153846153846
 40
0.8846153846153846
 40
0.8846153846153846
 40
0.9230769230769231
 40
0.9230769230769231
 40
0.9230769230769231
 40
0.9230769230769231
 40
1.0
 40
1.0
 40
1.0
 40
1.0
 10
156.318
 20
51.9149
 30
0.0
 10
151.8312
 20
57.0556
 30
0.0
 10
146.6225
 20
56.1293
 30
0.0
 10
141.659
 20
61.6258
 30
0.0
 10
141.659
 20
61.6258
 30
0.0
 10
140.2228
 20
64.9845
 30
0.0
 10
139.8351
 20
67.079
 30
0.0
 10
142.9757
 20
65.4881
 30
0.0
 10
142.9757
 20
65.4881
 30
0.0
 10
145.0758
 20
64.4077
 30
0.0
 10
146.3059
 20
61.458
 30
0.0
 10
146.3388
 20
61.4186
 30
0.0
 10
146.3388
 20
61.4186
 30
0.0
 10
146.3388
 20
61.4186
 30
0.0
 10
148.9719
 20
58.2695
 30
0.0
 10
148.9719
 20
58.2695
 30
0.0
 10
148.9719
 20
58.2695
 30
0.0
 10
148.9719
 20
58.2695
 30
0.0
 10
145.5954
 20
66.8615
 30
0.0
 10
144.8606
 20
67.5462
 30
0.0
 10
144.8606
 20
67.5462
 30
0.0
 10
144.1258
 20
68.2312
 30
0.0
 10
142.2693
 20
70.0459
 30
0.0
 10
139.2773
 20
67.81
 30
0.0
 10
139.2773
 20
67.81
 30
0.0
 10
136.2852
 20
65.5741
 30
0.0
 10
137.2258
 20
65.7994
 30
0.0
 10
137.0031
 20
66.0365
 30
0.0
 10
137.0031
 20
66.0365
 30
0.0
 10
136.7808
 20
66.2737
 30
0.0
 10
135.3275
 20
69.9199
 30
0.0
 10
139.397
 20
72.3911
 30
0.0
 10
139.397
 20
72.3911
 30
0.0
 10
143.6518
 20
74.3152
 30
0.0
 10
146.8463
 20
68.6702
 30
0.0
 10
146.8463
 20
68.6702
 30
0.0
 10
146.8463
 20
68.6702
 30
0.0
 10
146.8463
 20
68.6702
 30
0.0
 10
146.1364
 20
72.6538
 30
0.0
 10
146.34
 20
74.766
 30
0.0
 10
146.34
 20
74.766
 30
0.0
 10
146.5434
 20
76.8783
 30
0.0
 10
149.8647
 20
78.9366
 30
0.0
 10
150.5696
 20
79.5932
 30
0.0
 10
150.5696
 20
79.5932
 30
0.0
 10
151.2745
 20
80.2501
 30
0.0
 10
152.9042
 20
76.6922
 30
0.0
 10
151.2745
 20
73.5798
 30
0.0
 10
151.2745
 20
73.5798
 30
0.0
 10
149.6451
 20
70.4677
 30
0.0
 10
152.0556
 20
75.0995
 30
0.0
 10
156.2164
 20
74.1919
 30
0.0
 10
156.2164
 20
74.1919
 30
0.0
 10
160.3772
 20
73.2839
 30
0.0
 10
159.5173
 20
68.4594
 30
0.0
 10
157.3629
 20
67.9887
 30
0.0
 10
157.3629
 20
67.9887
 30
0.0
 10
155.2086
 20
67.518
 30
0.0
 10
155.3162
 20
68.8839
 30
0.0
 10
152.9765
 20
69.6928
 30
0.0
 10
152.9765
 20
69.6928
 30
0.0
 10
150.6369
 20
70.5015
 30
0.0
 10
148.6221
 20
67.9377
 30
0.0
 10
149.068
 20
64.4326
 30
0.0
 10
149.068
 20
64.4326
 30
0.0
 10
149.3866
 20
61.9264
 30
0.0
 10
149.1166
 20
60.2884
 30
0.0
 10
151.2125
 20
58.0018
 30
0.0
 10
151.2125
 20
58.0018
 30
0.0
 10
150.5883
 20
60.3053
 30
0.0
 10
151.4082
 20
64.6155
 30
0.0
 10
156.3925
 20
64.5067
 30
0.0
 10
156.3925
 20
64.5067
 30
0.0
 10
161.3767
 20
64.3979
 30
0.0
 10
161.4372
 20
59.5044
 30
0.0
 10
160.5112
 20
58.1195
 30
0.0
 10
160.5112
 20
58.1195
 30
0.0
 10
159.5852
 20
56.7346
 30
0.0
 10
156.0877
 20
56.8876
 30
0.0
 10
155.3479
 20
58.0798
 30
0.0
 10
155.3479
 20
58.0798
 30
0.0
 10
154.608
 20
59.272
 30
0.0
 10
154.8932
 20
60.548
 30
0.0
 10
155.6001
 20
61.3294
 30
0.0
 10
155.6001
 20
61.3294
 30
0.0
 10
157.9066
 20
62.4267
 30
0.0
 10
154.9065
 20
63.043
 30
0.0
 10
153.1784
 20
61.3057
 30
0.0
 10
153.1784
 20
61.3057
 30
0.0
 10
151.4503
 20
59.5684
 30
0.0
 10
152.6365
 20
57.2471
 30
0.0
 10
153.5199
 20
56.269
 30
0.0
 10
153.5199
 20
56.269
 30
0.0
 10
154.4032
 20
55.2908
 30
0.0
 10
156.8712
 20
54.5239
 30
0.0
 10
157.7088
 20
52.8563
 30
0.0
 10
157.7088
 20
52.8563
 30
0.0
 10
158.5468
 20
50.6462
 30
0.0
 10
157.2805
 20
50.6533
 30
0.0
 10
156.318
 20
51.9149
 30
0.0
  0
SPLINE
  5
80
330
1F
100
AcDbEntity
  8
layer 1
 62
     7
370
     9
100
AcDbSpline
210
0.0
220
0.0
230
1.0
 70
    11
 71
     3
 72
    20
 73
    16
 74
     0
 42
0.0000000001
 43
0.0000000001
 12
1.0
 22
0.0
 32
0.0
 13
1.0
 23
0.0
 33
0.0
 40
0.0
 40
0.0
 40
0.0
 40
0.0
 40
0.2
 40
0.2
 40
0.2
 40
0.2
 40
0.4
 40
0.4
 40
0.4
 40
0.4
 40
0.6
 40
0.6
 40
0.6
 40
0.6
 40
1.0
 40
1.0
 40
1.0
 40
1.0
 10
159.6044
 20
-17.5685
 30
0.0
 10
160.0408
 20
-17.1532
 30
0.0
 10
160.4996
 20
-15.4788
 30
0.0
 10
158.1724
 20
-15.5478
 30
0.0
 10
158.1724
 20
-15.5478
 30
0.0
 10
155.8456
 20
-16.2948
 30
0.0
 10
155.288
 20
-17.3637
 30
0.0
 10
154.1498
 20
-17.5297
 30
0.0
 10
154.1498
 20
-17.5297
 30
0.0
 10
154.1498
 20
-17.5297
 30
0.0
 10
152.1738
 20
-17.8184
 30
0.0
 10
152.1738
 20
-17.8184
 30
0.0
 10
152.1738
 20
-17.8184
 30
0.0
 10
154.9993
 20
-19.0216
 30
0.0
 10
156.835
 20
-19.1893
 30
0.0
 10
159.6044
 20
-17.5685
 30
0.0
  0
SPLINE
  5
81
330
1F
100
AcDbEntity
  8
layer 1
 62
     7
370
     9
100
AcDbSpline
210
0.0
220
0.0
230
1.0
 70
    11
 71
     3
 72
   172
 73
   168
 74
     0
 42
0.0000000001
 43
0.0000000001
 12
1.0
 22
0.0
 32
0.0
 13
1.0
 23
0.0
 33
0.0
 40
0.0
 40
0.0
 40
0.0
 40
0.0
 40
0.0232558139534884
 40
0.0232558139534884
 40
0.0232558139534884
 40
0.0232558139534884
 40
0.0465116279069767
 40
0.0465116279069767
 40
0.0465116279069767
 40
0.0465116279069767
 40
0.0697674418604651
 40
0.0697674418604651
 40
0.0697674418604651
 40
0.0697674418604651
 40
0.0930232558139535
 40
0.0930232558139535
 40
0.0930232558139535
 40
0.0930232558139535
 40
0.1162790697674419
 40
0.1162790697674419
 40
0.1162790697674419
 40
0.1162790697674419
 40
0.1395348837209302
 40
0.1395348837209302
 40
0.1395348837209302
 40
0.1395348837209302
 40
0.1627906976744186
 40
0.1627906976744186
 40
0.1627906976744186
 40
0.1627906976744186
 40
0.186046511627907
 40
0.186046511627907
 40
0.186046511627907
 40
0.186046511627907
 40
0.2093023255813954
 40
0.2093023255813954
 40
0.2093023255813954
 40
0.2093023255813954
 40
0.2325581395348837
 40
0.2325581395348837
 40
0.2325581395348837
 40
0.2325581395348837
 40
0.2558139534883721
 40
0.2558139534883721
 40
0.2558139534883721
 40
0.2558139534883721
 40
0.2790697674418605
 40
0.2790697674418605
 40
0.2790697674418605
 40
0.2790697674418605
 40
0.3023255813953488
 40
0.3023255813953488
 40
0.3023255813953488
 40
0.3023255813953488
 40
0.3255813953488372
 40
0.3255813953488372
 40
0.3255813953488372
 40
0.3255813953488372
 40
0.3488372093023256
 40
0.3488372093023256
 40
0.3488372093023256
 40
0.3488372093023256
 40
0.3720930232558139
 40
0.3720930232558139
 40
0.3720930232558139
 40
0.3720930232558139
 40
0.3953488372093023
 40
0.3953488372093023
 40
0.3953488372093023
 40
0.3953488372093023
 40
0.4186046511627907
 40
0.4186046511627907
 40
0.4186046511627907
 40
0.4186046511627907
 40
0.4418604651162791
 40
0.4418604651162791
 40
0.4418604651162791
 40
0.4418604651162791
 40
0.4651162790697674
 40
0.4651162790697674
 40
0.4651162790697674
 40
0.4651162790697674
 40
0.4883720930232558
 40
0.4883720930232558
 40
0.4883720930232558
 40
0.4883720930232558
 40
0.5116279069767442
 40
0.5116279069767442
 40
0.5116279069767442
 40
0.5116279069767442
 40
0.5348837209302325
 40
0.5348837209302325
 40
0.5348837209302325
 40
0.5348837209302325
 40
0.5581395348837209
 40
0.5581395348837209
 40
0.5581395348837209
 40
0.5581395348837209
 40
0.5813953488372093
 40
0.5813953488372093
 40
0.5813953488372093
 40
0.5813953488372093
 40
0.6046511627906976
 40
0.6046511627906976
 40
0.6046511627906976
 40
0.6046511627906976
 40
0.627906976744186
 40
0.627906976744186
 40
0.627906976744186
 40
0.627906976744186
 40
0.6511627906976745
 40
0.6511627906976745
 40
0.6511627906976745
 40
0.6511627906976745
 40
0.6744186046511628
 40
0.6744186046511628
 40
0.6744186046511628
 40
0.6744186046511628
 40
0.6976744186046512
 40
0.6976744186046512
 40
0.6976744186046512
 40
0.6976744186046512
 40
0.7209302325581395
 40
0.7209302325581395
 40
0.7209302325581395
 40
0.7209302325581395
 40
0.7441860465116279
 40
0.7441860465116279
 40
0.7441860465116279
 40
0.7441860465116279
 40
0.7674418604651163
 40
0.7674418604651163
 40
0.7674418604651163
 40
0.7674418604651163
 40
0.7906976744186046
 40
0.7906976744186046
 40
0.7906976744186046
 40
0.7906976744186046
 40
0.813953488372093
 40
0.813953488372093
 40
0.813953488372093
 40
0.813953488372093
 40
0.8372093023255814
 40
0.8372093023255814
 40
0.8372093023255814
 40
0.8372093023255814
 40
0.8604651162790697
 40
0.8604651162790697
 40
0.8604651162790697
 40
0.8604651162790697
 40
0.8837209302325582
 40
0.8837209302325582
 40
0.8837209302325582
 40
0.8837209302325582
 40
0.9069767441860465
 40
0.9069767441860465
 40
0.9069767441860465
 40
0.9069767441860465
 40
0.9302325581395349
 40
0.9302325581395349
 40
0.9302325581395349
 40
0.9302325581395349
 40
0.9534883720930233
 40
0.9534883720930233
 40
0.9534883720930233
 40
0.9534883720930233
 40
1.0
 40
1.0
 40
1.0
 40
1.0
 10
166.8391
 20
-19.0551
 30
0.0
 10
166.8391
 20
-19.0551
 30
0.0
 10
170.4468
 20
-11.5853
 30
0.0
 10
170.1961
 20
-6.8948
 30
0.0
 10
170.1961
 20
-6.8948
 30
0.0
 10
169.9453
 20
-2.2046
 30
0.0
 10
167.3128
 20
8.09
 30
0.0
 10
160.3022
 20
9.782
 30
0.0
 10
160.3022
 20
9.782
 30
0.0
 10
153.2916
 20
11.4739
 30
0.0
 10
148.3023
 20
10.0633
 30
0.0
 10
146.5214
 20
9.2609
 30
0.0
 10
146.5214
 20
9.2609
 30
0.0
 10
144.7405
 20
8.4582
 30
0.0
 10
138.5499
 20
4.3688
 30
0.0
 10
138.7476
 20
-1.8572
 30
0.0
 10
138.7476
 20
-1.8572
 30
0.0
 10
138.9456
 20
-8.0831
 30
0.0
 10
140.0079
 20
-10.8671
 30
0.0
 10
143.3649
 20
-13.2992
 30
0.0
 10
143.3649
 20
-13.2992
 30
0.0
 10
146.7215
 20
-15.7313
 30
0.0
 10
151.115
 20
-16.1018
 30
0.0
 10
154.1186
 20
-12.6275
 30
0.0
 10
154.1186
 20
-12.6275
 30
0.0
 10
157.1219
 20
-9.1532
 30
0.0
 10
154.8253
 20
-5.5052
 30
0.0
 10
154.1186
 20
-4.289
 30
0.0
 10
154.1186
 20
-4.289
 30
0.0
 10
153.4117
 20
-3.0731
 30
0.0
 10
147.6638
 20
-2.8994
 30
0.0
 10
149.1717
 20
-7.4159
 30
0.0
 10
149.1717
 20
-7.4159
 30
0.0
 10
153.0951
 20
-11.3245
 30
0.0
 10
152.4625
 20
-12.2947
 30
0.0
 10
149.0691
 20
-12.7283
 30
0.0
 10
149.0691
 20
-12.7283
 30
0.0
 10
145.5272
 20
-12.7968
 30
0.0
 10
142.8553
 20
-9.6133
 30
0.0
 10
142.9878
 20
-7.3637
 30
0.0
 10
142.9878
 20
-7.3637
 30
0.0
 10
143.1206
 20
-5.1145
 30
0.0
 10
145.1893
 20
-0.9851
 30
0.0
 10
148.5495
 20
-0.0366
 30
0.0
 10
148.5495
 20
-0.0366
 30
0.0
 10
151.91
 20
0.912
 30
0.0
 10
156.1218
 20
-0.2242
 30
0.0
 10
157.5354
 20
-2.3086
 30
0.0
 10
157.5354
 20
-2.3086
 30
0.0
 10
158.9488
 20
-4.3933
 30
0.0
 10
159.1503
 20
-5.057
 30
0.0
 10
160.1255
 20
-7.0685
 30
0.0
 10
160.1255
 20
-7.0685
 30
0.0
 10
161.1008
 20
-9.0803
 30
0.0
 10
162.8781
 20
-9.299
 30
0.0
 10
161.9948
 20
-5.9984
 30
0.0
 10
161.9948
 20
-5.9984
 30
0.0
 10
161.1114
 20
-2.6978
 30
0.0
 10
157.1857
 20
1.3358
 30
0.0
 10
154.9276
 20
1.9474
 30
0.0
 10
154.9276
 20
1.9474
 30
0.0
 10
152.6697
 20
2.5589
 30
0.0
 10
146.7334
 20
1.4817
 30
0.0
 10
145.5074
 20
0.7311
 30
0.0
 10
145.5074
 20
0.7311
 30
0.0
 10
144.2811
 20
-0.0191
 30
0.0
 10
143.1645
 20
-1.5098
 30
0.0
 10
143.1645
 20
-1.5098
 30
0.0
 10
143.1645
 20
-1.5098
 30
0.0
 10
143.1645
 20
-1.5098
 30
0.0
 10
141.5179
 20
-4.581
 30
0.0
 10
141.5179
 20
-4.581
 30
0.0
 10
141.5179
 20
-4.581
 30
0.0
 10
141.5179
 20
-4.581
 30
0.0
 10
141.2671
 20
-0.9258
 30
0.0
 10
141.6205
 20
0.6028
 30
0.0
 10
141.6205
 20
0.6028
 30
0.0
 10
141.9738
 20
2.1314
 30
0.0
 10
144.0727
 20
3.6114
 30
0.0
 10
145.2848
 20
4.0493
 30
0.0
 10
145.2848
 20
4.0493
 30
0.0
 10
146.4965
 20
4.4871
 30
0.0
 10
146.2529
 20
3.1633
 30
0.0
 10
150.8394
 20
3.264
 30
0.0
 10
150.8394
 20
3.264
 30
0.0
 10
154.7808
 20
3.3506
 30
0.0
 10
152.1516
 20
6.0492
 30
0.0
 10
151.3341
 20
6.8065
 30
0.0
 10
151.3341
 20
6.8065
 30
0.0
 10
151.2004
 20
6.9304
 30
0.0
 10
151.115
 20
7.0025
 30
0.0
 10
151.115
 20
7.0025
 30
0.0
 10
151.115
 20
7.0025
 30
0.0
 10
151.115
 20
7.0025
 30
0.0
 10
147.7581
 20
7.871
 30
0.0
 10
147.7581
 20
7.871
 30
0.0
 10
147.7581
 20
7.871
 30
0.0
 10
147.7581
 20
7.871
 30
0.0
 10
152.175
 20
9.2609
 30
0.0
 10
153.942
 20
7.871
 30
0.0
 10
153.942
 20
7.871
 30
0.0
 10
155.7086
 20
6.4814
 30
0.0
 10
154.1575
 20
4.3237
 30
0.0
 10
157.8674
 20
2.5864
 30
0.0
 10
157.8674
 20
2.5864
 30
0.0
 10
161.5777
 20
0.8494
 30
0.0
 10
160.4048
 20
1.1793
 30
0.0
 10
160.4048
 20
1.1793
 30
0.0
 10
160.4048
 20
1.1793
 30
0.0
 10
160.4048
 20
1.1793
 30
0.0
 10
161.3127
 20
3.9417
 30
0.0
 10
159.3694
 20
5.8524
 30
0.0
 10
159.3694
 20
5.8524
 30
0.0
 10
157.4261
 20
7.7634
 30
0.0
 10
155.9899
 20
8.5936
 30
0.0
 10
156.0442
 20
8.5936
 30
0.0
 10
156.0442
 20
8.5936
 30
0.0
 10
156.0984
 20
8.5939
 30
0.0
 10
160.3235
 20
7.1284
 30
0.0
 10
161.6236
 20
5.703
 30
0.0
 10
161.6236
 20
5.703
 30
0.0
 10
162.9237
 20
4.2775
 30
0.0
 10
164.2787
 20
1.2973
 30
0.0
 10
162.9522
 20
-0.8147
 30
0.0
 10
162.9522
 20
-0.8147
 30
0.0
 10
161.626
 20
-2.9267
 30
0.0
 10
162.0582
 20
-5.5677
 30
0.0
 10
164.4506
 20
-3.6289
 30
0.0
 10
164.4506
 20
-3.6289
 30
0.0
 10
166.8427
 20
-1.6903
 30
0.0
 10
166.8957
 20
-0.3597
 30
0.0
 10
167.1924
 20
-1.1621
 30
0.0
 10
167.1924
 20
-1.1621
 30
0.0
 10
167.4895
 20
-1.9648
 30
0.0
 10
166.7472
 20
-4.3898
 30
0.0
 10
165.5106
 20
-7.1693
 30
0.0
 10
165.5106
 20
-7.1693
 30
0.0
 10
164.2739
 20
-9.9488
 30
0.0
 10
164.0584
 20
-10.4524
 30
0.0
 10
162.4222
 20
-11.5853
 30
0.0
 10
162.4222
 20
-11.5853
 30
0.0
 10
160.7863
 20
-12.7179
 30
0.0
 10
157.4753
 20
-10.1954
 30
0.0
 10
157.4753
 20
-10.1954
 30
0.0
 10
157.4753
 20
-10.1954
 30
0.0
 10
157.4753
 20
-10.1954
 30
0.0
 10
157.6422
 20
-13.8876
 30
0.0
 10
161.7155
 20
-15.0593
 30
0.0
 10
161.7155
 20
-15.0593
 30
0.0
 10
164.3456
 20
-15.3724
 30
0.0
 10
165.4175
 20
-14.1529
 30
0.0
 10
167.8991
 20
-10.8173
 30
0.0
 10
167.8991
 20
-10.8173
 30
0.0
 10
167.8991
 20
-10.8173
 30
0.0
 10
166.6556
 20
-16.331
 30
0.0
 10
163.0266
 20
-17.6652
 30
0.0
 10
163.0266
 20
-17.6652
 30
0.0
 10
160.1395
 20
-19.3642
 30
0.0
 10
159.7936
 20
-23.0878
 30
0.0
 10
161.1855
 20
-25.1349
 30
0.0
 10
161.1855
 20
-25.1349
 30
0.0
 10
162.5775
 20
-27.1823
 30
0.0
 10
164.803
 20
-28.5369
 30
0.0
 10
166.4858
 20
-28.4355
 30
0.0
 10
166.4858
 20
-28.4355
 30
0.0
 10
165.0452
 20
-24.5791
 30
0.0
 10
165.1632
 20
-22.1088
 30
0.0
 10
166.8391
 20
-19.0551
 30
0.0
  0
SPLINE
  5
82
330
1F
100
AcDbEntity
  8
layer 1
 62
     7
370
     9
100
AcDbSpline
210
0.0
220
0.0
230
1.0
 70
    11
 71
     3
 72
    52
 73
    48
 74
     0
 42
0.0000000001
 43
0.0000000001
 12
1.0
 22
0.0
 32
0.0
 13
1.0
 23
0.0
 33
0.0
 40
0.0
 40
0.0
 40
0.0
 40
0.0
 40
0.0769230769230769
 40
0.0769230769230769
 40
0.0769230769230769
 40
0.0769230769230769
 40
0.1538461538461539
 40
0.1538461538461539
 40
0.1538461538461539
 40
0.1538461538461539
 40
0.2307692307692308
 40
0.2307692307692308
 40
0.2307692307692308
 40
0.2307692307692308
 40
0.3076923076923077
 40
0.3076923076923077
 40
0.3076923076923077
 40
0.3076923076923077
 40
0.3846153846153846
 40
0.3846153846153846
 40
0.3846153846153846
 40
0.3846153846153846
 40
0.4615384615384616
 40
0.4615384615384616
 40
0.4615384615384616
 40
0.4615384615384616
 40
0.5384615384615384
 40
0.5384615384615384
 40
0.5384615384615384
 40
0.5384615384615384
 40
0.6153846153846154
 40
0.6153846153846154
 40
0.6153846153846154
 40
0.6153846153846154
 40
0.6923076923076923
 40
0.6923076923076923
 40
0.6923076923076923
 40
0.6923076923076923
 40
0.7692307692307693
 40
0.7692307692307693
 40
0.7692307692307693
 40
0.7692307692307693
 40
0.8461538461538461
 40
0.8461538461538461
 40
0.8461538461538461
 40
0.8461538461538461
 40
1.0
 40
1.0
 40
1.0
 40
1.0
 10
159.2259
 20
-19.2098
 30
0.0
 10
158.1487
 20
-19.2098
 30
0.0
 10
155.2951
 20
-21.6603
 30
0.0
 10
151.7162
 20
-20.7488
 30
0.0
 10
151.7162
 20
-20.7488
 30
0.0
 10
148.1375
 20
-19.8373
 30
0.0
 10
145.5818
 20
-16.5076
 30
0.0
 10
144.8544
 20
-16.5076
 30
0.0
 10
144.8544
 20
-16.5076
 30
0.0
 10
144.127
 20
-16.5076
 30
0.0
 10
143.3806
 20
-21.1433
 30
0.0
 10
146.739
 20
-22.0848
 30
0.0
 10
146.739
 20
-22.0848
 30
0.0
 10
150.0971
 20
-23.0262
 30
0.0
 10
153.7226
 20
-22.5427
 30
0.0
 10
153.7955
 20
-23.1865
 30
0.0
 10
153.7955
 20
-23.1865
 30
0.0
 10
153.8682
 20
-23.8304
 30
0.0
 10
149.6732
 20
-24.0998
 30
0.0
 10
148.2581
 20
-24.0376
 30
0.0
 10
148.2581
 20
-24.0376
 30
0.0
 10
146.843
 20
-23.9753
 30
0.0
 10
143.7609
 20
-23.804
 30
0.0
 10
140.2898
 20
-18.1551
 30
0.0
 10
140.2898
 20
-18.1551
 30
0.0
 10
136.6006
 20
-14.5806
 30
0.0
 10
134.5755
 20
-14.1333
 30
0.0
 10
133.7025
 20
-14.1333
 30
0.0
 10
133.7025
 20
-14.1333
 30
0.0
 10
132.8296
 20
-14.1333
 30
0.0
 10
133.4067
 20
-18.7041
 30
0.0
 10
135.7324
 20
-20.8158
 30
0.0
 10
135.7324
 20
-20.8158
 30
0.0
 10
138.0581
 20
-22.9275
 30
0.0
 10
141.6243
 20
-24.8489
 30
0.0
 10
144.7251
 20
-25.4592
 30
0.0
 10
144.7251
 20
-25.4592
 30
0.0
 10
147.9973
 20
-26.1033
 30
0.0
 10
152.3576
 20
-25.2123
 30
0.0
 10
154.7882
 20
-24.1108
 30
0.0
 10
154.7882
 20
-24.1108
 30
0.0
 10
157.2192
 20
-23.0093
 30
0.0
 10
156.3776
 20
-23.0069
 30
0.0
 10
157.8532
 20
-22.1562
 30
0.0
 10
157.8532
 20
-22.1562
 30
0.0
 10
160.5115
 20
-19.647
 30
0.0
 10
160.3031
 20
-19.2098
 30
0.0
 10
159.2259
 20
-19.2098
 30
0.0
  0
SPLINE
  5
83
330
1F
100
AcDbEntity
  8
layer 1
 62
     7
370
     9
100
AcDbSpline
210
0.0
220
0.0
230
1.0
 70
    11
 71
     3
 72
    40
 73
    36
 74
     0
 42
0.0000000001
 43
0.0000000001
 12
1.0
 22
0.0
 32
0.0
 13
1.0
 23
0.0
 33
0.0
 40
0.0
 40
0.0
 40
0.0
 40
0.0
 40
0.1
 40
0.1
 40
0.1
 40
0.1
 40
0.2
 40
0.2
 40
0.2
 40
0.2
 40
0.3
 40
0.3
 40
0.3
 40
0.3
 40
0.4
 40
0.4
 40
0.4
 40
0.4
 40
0.5
 40
0.5
 40
0.5
 40
0.5
 40
0.6
 40
0.6
 40
0.6
 40
0.6
 40
0.7
 40
0.7
 40
0.7
 40
0.7
 40
0.8
 40
0.8
 40
0.8
 40
0.8
 40
1.0
 40
1.0
 40
1.0
 40
1.0
 10
132.3008
 20
-21.2963
 30
0.0
 10
132.3008
 20
-21.2963
 30
0.0
 10
133.2656
 20
-21.0043
 30
0.0
 10
134.6754
 20
-21.588
 30
0.0
 10
134.6754
 20
-21.588
 30
0.0
 10
136.0854
 20
-22.1716
 30
0.0
 10
136.7533
 20
-23.6309
 30
0.0
 10
133.2656
 20
-23.7038
 30
0.0
 10
133.2656
 20
-23.7038
 30
0.0
 10
129.778
 20
-23.777
 30
0.0
 10
126.2159
 20
-19.545
 30
0.0
 10
126.2159
 20
-19.545
 30
0.0
 10
126.2159
 20
-19.545
 30
0.0
 10
126.2159
 20
-19.545
 30
0.0
 10
123.7971
 20
-16.0784
 30
0.0
 10
125.9192
 20
-12.8324
 30
0.0
 10
125.9192
 20
-12.8324
 30
0.0
 10
126.3866
 20
-12.1174
 30
0.0
 10
127.6334
 20
-11.7199
 30
0.0
 10
128.4663
 20
-11.7709
 30
0.0
 10
128.4663
 20
-11.7709
 30
0.0
 10
129.2992
 20
-11.8219
 30
0.0
 10
130.3394
 20
-11.8853
 30
0.0
 10
130.5199
 20
-12.964
 30
0.0
 10
130.5199
 20
-12.964
 30
0.0
 10
130.7007
 20
-14.0423
 30
0.0
 10
129.1955
 20
-14.3251
 30
0.0
 10
129.0805
 20
-15.6196
 30
0.0
 10
129.0805
 20
-15.6196
 30
0.0
 10
128.9655
 20
-16.9143
 30
0.0
 10
128.9595
 20
-18.1406
 30
0.0
 10
129.7187
 20
-18.8885
 30
0.0
 10
129.7187
 20
-18.8885
 30
0.0
 10
129.7187
 20
-18.8885
 30
0.0
 10
132.3008
 20
-21.2963
 30
0.0
 10
132.3008
 20
-21.2963
 30
0.0
  0
SPLINE
  5
84
330
1F
100
AcDbEntity
  8
layer 1
 62
     7
370
     9
100
AcDbSpline
210
0.0
220
0.0
230
1.0
 70
    11
 71
     3
 72
    76
 73
    72
 74
     0
 42
0.0000000001
 43
0.0000000001
 12
1.0
 22
0.0
 32
0.0
 13
1.0
 23
0.0
 33
0.0
 40
0.0
 40
0.0
 40
0.0
 40
0.0
 40
0.0526315789473684
 40
0.0526315789473684
 40
0.0526315789473684
 40
0.0526315789473684
 40
0.1052631578947368
 40
0.1052631578947368
 40
0.1052631578947368
 40
0.1052631578947368
 40
0.1578947368421053
 40
0.1578947368421053
 40
0.1578947368421053
 40
0.1578947368421053
 40
0.2105263157894737
 40
0.2105263157894737
 40
0.2105263157894737
 40
0.2105263157894737
 40
0.2631578947368421
 40
0.2631578947368421
 40
0.2631578947368421
 40
0.2631578947368421
 40
0.3157894736842105
 40
0.3157894736842105
 40
0.3157894736842105
 40
0.3157894736842105
 40
0.3684210526315789
 40
0.3684210526315789
 40
0.3684210526315789
 40
0.3684210526315789
 40
0.4210526315789473
 40
0.4210526315789473
 40
0.4210526315789473
 40
0.4210526315789473
 40
0.4736842105263158
 40
0.4736842105263158
 40
0.4736842105263158
 40
0.4736842105263158
 40
0.5263157894736842
 40
0.5263157894736842
 40
0.5263157894736842
 40
0.5263157894736842
 40
0.5789473684210527
 40
0.5789473684210527
 40
0.5789473684210527
 40
0.5789473684210527
 40
0.631578947368421
 40
0.631578947368421
 40
0.631578947368421
 40
0.631578947368421
 40
0.6842105263157895
 40
0.6842105263157895
 40
0.6842105263157895
 40
0.6842105263157895
 40
0.7368421052631579
 40
0.7368421052631579
 40
0.7368421052631579
 40
0.7368421052631579
 40
0.7894736842105263
 40
0.7894736842105263
 40
0.7894736842105263
 40
0.7894736842105263
 40
0.8421052631578947
 40
0.8421052631578947
 40
0.8421052631578947
 40
0.8421052631578947
 40
0.8947368421052632
 40
0.8947368421052632
 40
0.8947368421052632
 40
0.8947368421052632
 40
1.0
 40
1.0
 40
1.0
 40
1.0
 10
124.4415
 20
-28.6881
 30
0.0
 10
124.4415
 20
-28.6881
 30
0.0
 10
118.8508
 20
-24.6633
 30
0.0
 10
118.9507
 20
-20.4426
 30
0.0
 10
118.9507
 20
-20.4426
 30
0.0
 10
119.0506
 20
-16.2216
 30
0.0
 10
117.5531
 20
-12.688
 30
0.0
 10
121.9457
 20
-15.731
 30
0.0
 10
121.9457
 20
-15.731
 30
0.0
 10
126.3383
 20
-18.7738
 30
0.0
 10
122.944
 20
-11.7066
 30
0.0
 10
122.944
 20
-11.7066
 30
0.0
 10
122.944
 20
-11.7066
 30
0.0
 10
122.944
 20
-11.7066
 30
0.0
 10
117.3533
 20
-7.4856
 30
0.0
 10
117.4532
 20
-12.2952
 30
0.0
 10
117.4532
 20
-12.2952
 30
0.0
 10
117.5531
 20
-17.1052
 30
0.0
 10
115.9557
 20
-14.0622
 30
0.0
 10
115.7562
 20
-10.921
 30
0.0
 10
115.7562
 20
-10.921
 30
0.0
 10
115.5564
 20
-7.7799
 30
0.0
 10
117.9523
 20
-0.7127
 30
0.0
 10
124.2417
 20
-5.9151
 30
0.0
 10
124.2417
 20
-5.9151
 30
0.0
 10
131.3161
 20
-8.8725
 30
0.0
 10
131.2301
 20
-4.1482
 30
0.0
 10
128.2351
 20
-0.9089
 30
0.0
 10
128.2351
 20
-0.9089
 30
0.0
 10
125.2401
 20
2.3303
 30
0.0
 10
115.9557
 20
0.5634
 30
0.0
 10
115.3566
 20
-3.6573
 30
0.0
 10
115.3566
 20
-3.6573
 30
0.0
 10
114.7578
 20
-7.8783
 30
0.0
 10
114.1588
 20
-9.2525
 30
0.0
 10
114.1588
 20
-9.2525
 30
0.0
 10
114.1588
 20
-9.2525
 30
0.0
 10
114.1588
 20
-9.2525
 30
0.0
 10
113.3599
 20
-5.8167
 30
0.0
 10
109.3669
 20
-4.3444
 30
0.0
 10
109.3669
 20
-4.3444
 30
0.0
 10
105.0881
 20
-3.3633
 30
0.0
 10
104.1188
 20
-3.6292
 30
0.0
 10
108.1688
 20
-9.645
 30
0.0
 10
108.1688
 20
-9.645
 30
0.0
 10
112.1473
 20
-13.2758
 30
0.0
 10
113.0603
 20
-12.0712
 30
0.0
 10
114.6577
 20
-13.8378
 30
0.0
 10
114.6577
 20
-13.8378
 30
0.0
 10
116.2551
 20
-15.6048
 30
0.0
 10
117.0539
 20
-17.6942
 30
0.0
 10
117.0539
 20
-17.6942
 30
0.0
 10
117.0539
 20
-17.6942
 30
0.0
 10
117.0539
 20
-17.6942
 30
0.0
 10
114.7578
 20
-14.7493
 30
0.0
 10
111.2637
 20
-14.1603
 30
0.0
 10
111.2637
 20
-14.1603
 30
0.0
 10
106.1721
 20
-15.3383
 30
0.0
 10
105.2737
 20
-15.0439
 30
0.0
 10
113.3599
 20
-18.1851
 30
0.0
 10
113.3599
 20
-18.1851
 30
0.0
 10
115.9557
 20
-20.0362
 30
0.0
 10
115.7147
 20
-22.7855
 30
0.0
 10
120.0489
 20
-27.2155
 30
0.0
 10
120.0489
 20
-27.2155
 30
0.0
 10
122.4449
 20
-29.9641
 30
0.0
 10
126.8375
 20
-31.0437
 30
0.0
 10
126.8375
 20
-31.0437
 30
0.0
 10
126.8375
 20
-31.0437
 30
0.0
 10
126.8375
 20
-31.0437
 30
0.0
 10
124.4415
 20
-28.6881
 30
0.0
 10
124.4415
 20
-28.6881
 30
0.0
  0
SPLINE
  5
85
330
1F
100
AcDbEntity
  8
layer 1
 62
     7
370
     9
100
AcDbSpline
210
0.0
220
0.0
230
1.0
 70
    11
 71
     3
 72
    84
 73
    80
 74
     0
 42
0.0000000001
 43
0.0000000001
 12
1.0
 22
0.0
 32
0.0
 13
1.0
 23
0.0
 33
0.0
 40
0.0
 40
0.0
 40
0.0
 40
0.0
 40
0.0476190476190476
 40
0.0476190476190476
 40
0.0476190476190476
 40
0.0476190476190476
 40
0.0952380952380952
 40
0.0952380952380952
 40
0.0952380952380952
 40
0.0952380952380952
 40
0.1428571428571428
 40
0.1428571428571428
 40
0.1428571428571428
 40
0.1428571428571428
 40
0.1904761904761905
 40
0.1904761904761905
 40
0.1904761904761905
 40
0.1904761904761905
 40
0.2380952380952381
 40
0.2380952380952381
 40
0.2380952380952381
 40
0.2380952380952381
 40
0.2857142857142857
 40
0.2857142857142857
 40
0.2857142857142857
 40
0.2857142857142857
 40
0.3333333333333333
 40
0.3333333333333333
 40
0.3333333333333333
 40
0.3333333333333333
 40
0.3809523809523809
 40
0.3809523809523809
 40
0.3809523809523809
 40
0.3809523809523809
 40
0.4285714285714285
 40
0.4285714285714285
 40
0.4285714285714285
 40
0.4285714285714285
 40
0.4761904761904762
 40
0.4761904761904762
 40
0.4761904761904762
 40
0.4761904761904762
 40
0.5238095238095238
 40
0.5238095238095238
 40
0.5238095238095238
 40
0.5238095238095238
 40
0.5714285714285714
 40
0.5714285714285714
 40
0.5714285714285714
 40
0.5714285714285714
 40
0.6190476190476191
 40
0.6190476190476191
 40
0.6190476190476191
 40
0.6190476190476191
 40
0.6666666666666666
 40
0.6666666666666666
 40
0.6666666666666666
 40
0.6666666666666666
 40
0.7142857142857143
 40
0.7142857142857143
 40
0.7142857142857143
 40
0.7142857142857143
 40
0.7619047619047619
 40
0.7619047619047619
 40
0.7619047619047619
 40
0.7619047619047619
 40
0.8095238095238095
 40
0.8095238095238095
 40
0.8095238095238095
 40
0.8095238095238095
 40
0.8571428571428571
 40
0.8571428571428571
 40
0.8571428571428571
 40
0.8571428571428571
 40
0.9047619047619048
 40
0.9047619047619048
 40
0.9047619047619048
 40
0.9047619047619048
 40
1.0
 40
1.0
 40
1.0
 40
1.0
 10
122.6767
 20
-32.9408
 30
0.0
 10
122.6767
 20
-32.9408
 30
0.0
 10
116.4362
 20
-31.2103
 30
0.0
 10
114.952
 20
-32.1221
 30
0.0
 10
114.952
 20
-32.1221
 30
0.0
 10
113.4678
 20
-33.0341
 30
0.0
 10
110.2218
 20
-33.6726
 30
0.0
 10
110.2218
 20
-36.6822
 30
0.0
 10
110.2218
 20
-36.6822
 30
0.0
 10
110.2218
 20
-39.6917
 30
0.0
 10
111.4273
 20
-37.6852
 30
0.0
 10
112.1695
 20
-37.7765
 30
0.0
 10
112.1695
 20
-37.7765
 30
0.0
 10
112.9115
 20
-37.8675
 30
0.0
 10
117.8273
 20
-37.4116
 30
0.0
 10
115.4159
 20
-42.5186
 30
0.0
 10
115.4159
 20
-42.5186
 30
0.0
 10
112.2623
 20
-45.5282
 30
0.0
 10
107.8101
 20
-43.0658
 30
0.0
 10
107.6245
 20
-38.4147
 30
0.0
 10
107.6245
 20
-38.4147
 30
0.0
 10
107.439
 20
-33.7636
 30
0.0
 10
110.5926
 20
-32.2134
 30
0.0
 10
110.5926
 20
-32.2134
 30
0.0
 10
110.5926
 20
-32.2134
 30
0.0
 10
110.5926
 20
-32.2134
 30
0.0
 10
116.7142
 20
-31.0277
 30
0.0
 10
109.4795
 20
-30.1159
 30
0.0
 10
109.4795
 20
-30.1159
 30
0.0
 10
105.2265
 20
-30.3773
 30
0.0
 10
105.3848
 20
-30.6619
 30
0.0
 10
102.2537
 20
-32.0388
 30
0.0
 10
102.2537
 20
-32.0388
 30
0.0
 10
102.2537
 20
-32.0388
 30
0.0
 10
102.2537
 20
-26.8349
 30
0.0
 10
102.2537
 20
-26.8349
 30
0.0
 10
102.2537
 20
-26.8349
 30
0.0
 10
103.1418
 20
-26.7545
 30
0.0
 10
104.931
 20
-26.6869
 30
0.0
 10
106.9493
 20
-26.8509
 30
0.0
 10
106.9493
 20
-26.8509
 30
0.0
 10
106.9493
 20
-26.8509
 30
0.0
 10
110.3071
 20
-28.2956
 30
0.0
 10
110.3071
 20
-28.2956
 30
0.0
 10
110.3071
 20
-28.2956
 30
0.0
 10
110.3071
 20
-28.2956
 30
0.0
 10
105.6027
 20
-23.8523
 30
0.0
 10
104.5267
 20
-22.7763
 30
0.0
 10
104.5267
 20
-22.7763
 30
0.0
 10
103.8093
 20
-22.0587
 30
0.0
 10
102.8279
 20
-21.7904
 30
0.0
 10
102.2537
 20
-21.6914
 30
0.0
 10
102.2537
 20
-21.6914
 30
0.0
 10
102.2537
 20
-21.6914
 30
0.0
 10
102.2537
 20
-17.1941
 30
0.0
 10
102.2537
 20
-17.1941
 30
0.0
 10
102.2537
 20
-17.1941
 30
0.0
 10
102.5923
 20
-17.3453
 30
0.0
 10
103.0155
 20
-17.2276
 30
0.0
 10
103.1726
 20
-15.889
 30
0.0
 10
103.1726
 20
-15.889
 30
0.0
 10
103.4507
 20
-13.5177
 30
0.0
 10
105.6768
 20
-11.7851
 30
0.0
 10
108.1812
 20
-11.8761
 30
0.0
 10
108.1812
 20
-11.8761
 30
0.0
 10
110.6854
 20
-11.9674
 30
0.0
 10
105.172
 20
-13.9333
 30
0.0
 10
106.5631
 20
-18.6756
 30
0.0
 10
106.5631
 20
-18.6756
 30
0.0
 10
107.9545
 20
-23.4177
 30
0.0
 10
112.9011
 20
-28.2817
 30
0.0
 10
116.4258
 20
-28.7376
 30
0.0
 10
116.4258
 20
-28.7376
 30
0.0
 10
119.9502
 20
-29.1937
 30
0.0
 10
124.1377
 20
-31.6694
 30
0.0
 10
124.1377
 20
-31.6694
 30
0.0
 10
124.1377
 20
-31.6694
 30
0.0
 10
124.026
 20
-32.4624
 30
0.0
 10
123.4954
 20
-32.8175
 30
0.0
 10
122.6767
 20
-32.9408
 30
0.0
  0
SPLINE
  5
86
330
1F
100
AcDbEntity
  8
layer 1
 62
     7
370
     9
100
AcDbSpline
210
0.0
220
0.0
230
1.0
 70
    11
 71
     3
 72
    96
 73
    92
 74
     0
 42
0.0000000001
 43
0.0000000001
 12
1.0
 22
0.0
 32
0.0
 13
1.0
 23
0.0
 33
0.0
 40
0.0
 40
0.0
 40
0.0
 40
0.0
 40
0.0416666666666667
 40
0.0416666666666667
 40
0.0416666666666667
 40
0.0416666666666667
 40
0.0833333333333333
 40
0.0833333333333333
 40
0.0833333333333333
 40
0.0833333333333333
 40
0.125
 40
0.125
 40
0.125
 40
0.125
 40
0.1666666666666667
 40
0.1666666666666667
 40
0.1666666666666667
 40
0.1666666666666667
 40
0.2083333333333333
 40
0.2083333333333333
 40
0.2083333333333333
 40
0.2083333333333333
 40
0.25
 40
0.25
 40
0.25
 40
0.25
 40
0.2916666666666667
 40
0.2916666666666667
 40
0.2916666666666667
 40
0.2916666666666667
 40
0.3333333333333333
 40
0.3333333333333333
 40
0.3333333333333333
 40
0.3333333333333333
 40
0.375
 40
0.375
 40
0.375
 40
0.375
 40
0.4166666666666667
 40
0.4166666666666667
 40
0.4166666666666667
 40
0.4166666666666667
 40
0.4583333333333333
 40
0.4583333333333333
 40
0.4583333333333333
 40
0.4583333333333333
 40
0.5
 40
0.5
 40
0.5
 40
0.5
 40
0.5416666666666666
 40
0.5416666666666666
 40
0.5416666666666666
 40
0.5416666666666666
 40
0.5833333333333334
 40
0.5833333333333334
 40
0.5833333333333334
 40
0.5833333333333334
 40
0.625
 40
0.625
 40
0.625
 40
0.625
 40
0.6666666666666666
 40
0.6666666666666666
 40
0.6666666666666666
 40
0.6666666666666666
 40
0.7083333333333334
 40
0.7083333333333334
 40
0.7083333333333334
 40
0.7083333333333334
 40
0.75
 40
0.75
 40
0.75
 40
0.75
 40
0.7916666666666666
 40
0.7916666666666666
 40
0.7916666666666666
 40
0.7916666666666666
 40
0.8333333333333334
 40
0.8333333333333334
 40
0.8333333333333334
 40
0.8333333333333334
 40
0.875
 40
0.875
 40
0.875
 40
0.875
 40
0.9166666666666666
 40
0.9166666666666666
 40
0.9166666666666666
 40
0.9166666666666666
 40
1.0
 40
1.0
 40
1.0
 40
1.0
 10
146.2262
 20
-28.9548
 30
0.0
 10
146.2262
 20
-28.9548
 30
0.0
 10
142.534
 20
-28.314
 30
0.0
 10
142.534
 20
-28.314
 30
0.0
 10
142.534
 20
-28.314
 30
0.0
 10
142.534
 20
-28.314
 30
0.0
 10
138.9767
 20
-25.1711
 30
0.0
 10
136.8289
 20
-25.1711
 30
0.0
 10
136.8289
 20
-25.1711
 30
0.0
 10
134.6807
 20
-25.1711
 30
0.0
 10
132.1748
 20
-25.1711
 30
0.0
 10
132.1748
 20
-25.1711
 30
0.0
 10
132.1748
 20
-25.1711
 30
0.0
 10
132.1748
 20
-25.1711
 30
0.0
 10
135.2178
 20
-29.0429
 30
0.0
 10
137.7237
 20
-29.0429
 30
0.0
 10
137.7237
 20
-29.0429
 30
0.0
 10
140.2297
 20
-29.0429
 30
0.0
 10
140.8563
 20
-30.4509
 30
0.0
 10
137.5447
 20
-30.099
 30
0.0
 10
137.5447
 20
-30.099
 30
0.0
 10
134.2334
 20
-29.7469
 30
0.0
 10
131.2612
 20
-28.8813
 30
0.0
 10
129.4898
 20
-25.2591
 30
0.0
 10
129.4898
 20
-25.2591
 30
0.0
 10
127.7187
 20
-21.6366
 30
0.0
 10
123.4441
 20
-19.187
 30
0.0
 10
121.6543
 20
-18.9232
 30
0.0
 10
121.6543
 20
-18.9232
 30
0.0
 10
122.4289
 20
-22.4022
 30
0.0
 10
122.717
 20
-23.0514
 30
0.0
 10
124.5675
 20
-26.0903
 30
0.0
 10
124.5675
 20
-26.0903
 30
0.0
 10
126.6184
 20
-28.9323
 30
0.0
 10
132.0853
 20
-31.419
 30
0.0
 10
132.0853
 20
-31.419
 30
0.0
 10
132.0853
 20
-31.419
 30
0.0
 10
132.0853
 20
-31.419
 30
0.0
 10
130.2466
 20
-32.5003
 30
0.0
 10
127.8302
 20
-33.4811
 30
0.0
 10
127.8302
 20
-33.4811
 30
0.0
 10
125.4138
 20
-34.462
 30
0.0
 10
123.0235
 20
-36.3597
 30
0.0
 10
122.0388
 20
-38.2956
 30
0.0
 10
122.0388
 20
-38.2956
 30
0.0
 10
121.0544
 20
-40.2315
 30
0.0
 10
120.8086
 20
-43.7387
 30
0.0
 10
122.5092
 20
-44.7065
 30
0.0
 10
122.5092
 20
-44.7065
 30
0.0
 10
126.7797
 20
-48.3447
 30
0.0
 10
130.3403
 20
-44.5885
 30
0.0
 10
129.3111
 20
-41.9786
 30
0.0
 10
129.3111
 20
-41.9786
 30
0.0
 10
128.2816
 20
-39.3689
 30
0.0
 10
126.7157
 20
-40.5706
 30
0.0
 10
126.7157
 20
-40.5706
 30
0.0
 10
126.7157
 20
-40.5706
 30
0.0
 10
126.7157
 20
-40.5706
 30
0.0
 10
125.1455
 20
-41.5938
 30
0.0
 10
125.1455
 20
-41.5938
 30
0.0
 10
125.1455
 20
-41.5938
 30
0.0
 10
125.1455
 20
-41.5938
 30
0.0
 10
125.0711
 20
-38.4734
 30
0.0
 10
127.398
 20
-36.5375
 30
0.0
 10
127.398
 20
-36.5375
 30
0.0
 10
129.7249
 20
-34.6016
 30
0.0
 10
133.4429
 20
-32.6177
 30
0.0
 10
136.3813
 20
-31.7708
 30
0.0
 10
136.3813
 20
-31.7708
 30
0.0
 10
139.3197
 20
-30.9242
 30
0.0
 10
140.4908
 20
-31.5141
 30
0.0
 10
140.4908
 20
-31.5141
 30
0.0
 10
140.4908
 20
-31.5141
 30
0.0
 10
140.4908
 20
-31.5141
 30
0.0
 10
139.3312
 20
-32.9953
 30
0.0
 10
137.4552
 20
-33.1788
 30
0.0
 10
137.4552
 20
-33.1788
 30
0.0
 10
135.5794
 20
-33.3623
 30
0.0
 10
134.9644
 20
-36.7391
 30
0.0
 10
134.3229
 20
-36.9629
 30
0.0
 10
134.3229
 20
-36.9629
 30
0.0
 10
133.6815
 20
-37.1864
 30
0.0
 10
138.1636
 20
-36.9371
 30
0.0
 10
140.3192
 20
-34.8509
 30
0.0
 10
140.3192
 20
-34.8509
 30
0.0
 10
142.4747
 20
-32.7644
 30
0.0
 10
141.4826
 20
-32.0349
 30
0.0
 10
143.2727
 20
-31.0668
 30
0.0
 10
143.2727
 20
-31.0668
 30
0.0
 10
145.1419
 20
-29.0005
 30
0.0
 10
146.2262
 20
-28.9548
 30
0.0
 10
146.2262
 20
-28.9548
 30
0.0
  0
SPLINE
  5
87
330
1F
100
AcDbEntity
  8
layer 1
 62
     7
370
     9
100
AcDbSpline
210
0.0
220
0.0
230
1.0
 70
    11
 71
     3
 72
   104
 73
   100
 74
     0
 42
0.0000000001
 43
0.0000000001
 12
1.0
 22
0.0
 32
0.0
 13
1.0
 23
0.0
 33
0.0
 40
0.0
 40
0.0
 40
0.0
 40
0.0
 40
0.0384615384615385
 40
0.0384615384615385
 40
0.0384615384615385
 40
0.0384615384615385
 40
0.0769230769230769
 40
0.0769230769230769
 40
0.0769230769230769
 40
0.0769230769230769
 40
0.1153846153846154
 40
0.1153846153846154
 40
0.1153846153846154
 40
0.1153846153846154
 40
0.1538461538461539
 40
0.1538461538461539
 40
0.1538461538461539
 40
0.1538461538461539
 40
0.1923076923076923
 40
0.1923076923076923
 40
0.1923076923076923
 40
0.1923076923076923
 40
0.2307692307692308
 40
0.2307692307692308
 40
0.2307692307692308
 40
0.2307692307692308
 40
0.2692307692307692
 40
0.2692307692307692
 40
0.2692307692307692
 40
0.2692307692307692
 40
0.3076923076923077
 40
0.3076923076923077
 40
0.3076923076923077
 40
0.3076923076923077
 40
0.3461538461538461
 40
0.3461538461538461
 40
0.3461538461538461
 40
0.3461538461538461
 40
0.3846153846153846
 40
0.3846153846153846
 40
0.3846153846153846
 40
0.3846153846153846
 40
0.4230769230769231
 40
0.4230769230769231
 40
0.4230769230769231
 40
0.4230769230769231
 40
0.4615384615384616
 40
0.4615384615384616
 40
0.4615384615384616
 40
0.4615384615384616
 40
0.5
 40
0.5
 40
0.5
 40
0.5
 40
0.5384615384615384
 40
0.5384615384615384
 40
0.5384615384615384
 40
0.5384615384615384
 40
0.5769230769230769
 40
0.5769230769230769
 40
0.5769230769230769
 40
0.5769230769230769
 40
0.6153846153846154
 40
0.6153846153846154
 40
0.6153846153846154
 40
0.6153846153846154
 40
0.6538461538461539
 40
0.6538461538461539
 40
0.6538461538461539
 40
0.6538461538461539
 40
0.6923076923076923
 40
0.6923076923076923
 40
0.6923076923076923
 40
0.6923076923076923
 40
0.7307692307692307
 40
0.7307692307692307
 40
0.7307692307692307
 40
0.7307692307692307
 40
0.7692307692307693
 40
0.7692307692307693
 40
0.7692307692307693
 40
0.7692307692307693
 40
0.8076923076923077
 40
0.8076923076923077
 40
0.8076923076923077
 40
0.8076923076923077
 40
0.8461538461538461
 40
0.8461538461538461
 40
0.8461538461538461
 40
0.8461538461538461
 40
0.8846153846153846
 40
0.8846153846153846
 40
0.8846153846153846
 40
0.8846153846153846
 40
0.9230769230769231
 40
0.9230769230769231
 40
0.9230769230769231
 40
0.9230769230769231
 40
1.0
 40
1.0
 40
1.0
 40
1.0
 10
157.0609
 20
-24.9808
 30
0.0
 10
152.574
 20
-30.1215
 30
0.0
 10
147.3653
 20
-29.1952
 30
0.0
 10
142.4018
 20
-34.6917
 30
0.0
 10
142.4018
 20
-34.6917
 30
0.0
 10
140.9657
 20
-38.0504
 30
0.0
 10
140.5777
 20
-40.1449
 30
0.0
 10
143.7182
 20
-38.554
 30
0.0
 10
143.7182
 20
-38.554
 30
0.0
 10
145.8186
 20
-37.4736
 30
0.0
 10
147.0485
 20
-34.5239
 30
0.0
 10
147.0814
 20
-34.4845
 30
0.0
 10
147.0814
 20
-34.4845
 30
0.0
 10
147.0814
 20
-34.4845
 30
0.0
 10
149.7144
 20
-31.3354
 30
0.0
 10
149.7144
 20
-31.3354
 30
0.0
 10
149.7144
 20
-31.3354
 30
0.0
 10
149.7144
 20
-31.3354
 30
0.0
 10
146.3382
 20
-39.9273
 30
0.0
 10
145.6034
 20
-40.6121
 30
0.0
 10
145.6034
 20
-40.6121
 30
0.0
 10
144.8686
 20
-41.2971
 30
0.0
 10
143.0121
 20
-43.1118
 30
0.0
 10
140.0201
 20
-40.8759
 30
0.0
 10
140.0201
 20
-40.8759
 30
0.0
 10
137.0277
 20
-38.64
 30
0.0
 10
137.9686
 20
-38.8653
 30
0.0
 10
137.746
 20
-39.1024
 30
0.0
 10
137.746
 20
-39.1024
 30
0.0
 10
137.5234
 20
-39.3396
 30
0.0
 10
136.0703
 20
-42.9858
 30
0.0
 10
140.1398
 20
-45.457
 30
0.0
 10
140.1398
 20
-45.457
 30
0.0
 10
144.3946
 20
-47.3811
 30
0.0
 10
147.5888
 20
-41.7361
 30
0.0
 10
147.5888
 20
-41.7361
 30
0.0
 10
147.5888
 20
-41.7361
 30
0.0
 10
147.5888
 20
-41.7361
 30
0.0
 10
146.8792
 20
-45.7197
 30
0.0
 10
147.0825
 20
-47.8319
 30
0.0
 10
147.0825
 20
-47.8319
 30
0.0
 10
147.2862
 20
-49.9442
 30
0.0
 10
150.6076
 20
-52.0025
 30
0.0
 10
151.3124
 20
-52.6591
 30
0.0
 10
151.3124
 20
-52.6591
 30
0.0
 10
152.0173
 20
-53.316
 30
0.0
 10
153.647
 20
-49.7581
 30
0.0
 10
152.0173
 20
-46.6457
 30
0.0
 10
152.0173
 20
-46.6457
 30
0.0
 10
150.3876
 20
-43.5336
 30
0.0
 10
152.7984
 20
-48.1654
 30
0.0
 10
156.9592
 20
-47.2578
 30
0.0
 10
156.9592
 20
-47.2578
 30
0.0
 10
161.12
 20
-46.3498
 30
0.0
 10
160.2601
 20
-41.5253
 30
0.0
 10
158.1057
 20
-41.0546
 30
0.0
 10
158.1057
 20
-41.0546
 30
0.0
 10
155.9514
 20
-40.5839
 30
0.0
 10
156.059
 20
-41.9498
 30
0.0
 10
153.7194
 20
-42.7587
 30
0.0
 10
153.7194
 20
-42.7587
 30
0.0
 10
151.3794
 20
-43.5674
 30
0.0
 10
149.365
 20
-41.0036
 30
0.0
 10
149.8108
 20
-37.4985
 30
0.0
 10
149.8108
 20
-37.4985
 30
0.0
 10
150.1294
 20
-34.9923
 30
0.0
 10
149.8591
 20
-33.3543
 30
0.0
 10
151.9554
 20
-31.0677
 30
0.0
 10
151.9554
 20
-31.0677
 30
0.0
 10
151.3311
 20
-33.3712
 30
0.0
 10
152.151
 20
-37.6814
 30
0.0
 10
157.135
 20
-37.5726
 30
0.0
 10
157.135
 20
-37.5726
 30
0.0
 10
162.1193
 20
-37.4638
 30
0.0
 10
162.18
 20
-32.5702
 30
0.0
 10
161.254
 20
-31.1854
 30
0.0
 10
161.254
 20
-31.1854
 30
0.0
 10
160.328
 20
-29.8005
 30
0.0
 10
156.8306
 20
-29.9535
 30
0.0
 10
156.0907
 20
-31.1457
 30
0.0
 10
156.0907
 20
-31.1457
 30
0.0
 10
155.3508
 20
-32.3379
 30
0.0
 10
155.6357
 20
-33.6139
 30
0.0
 10
156.3427
 20
-34.395
 30
0.0
 10
156.3427
 20
-34.395
 30
0.0
 10
158.6494
 20
-35.4926
 30
0.0
 10
155.6493
 20
-36.1089
 30
0.0
 10
153.9212
 20
-34.3716
 30
0.0
 10
153.9212
 20
-34.3716
 30
0.0
 10
152.1931
 20
-32.6343
 30
0.0
 10
153.3794
 20
-30.313
 30
0.0
 10
154.2627
 20
-29.3348
 30
0.0
 10
154.2627
 20
-29.3348
 30
0.0
 10
155.146
 20
-28.3567
 30
0.0
 10
157.614
 20
-27.5895
 30
0.0
 10
158.4517
 20
-25.9222
 30
0.0
 10
158.4517
 20
-25.9222
 30
0.0
 10
159.2893
 20
-23.7121
 30
0.0
 10
158.023
 20
-23.7192
 30
0.0
 10
157.0609
 20
-24.9808
 30
0.0
  0
SPLINE
  5
88
330
1F
100
AcDbEntity
  8
layer 1
 62
     7
370
     9
100
AcDbSpline
210
0.0
220
0.0
230
1.0
 70
    11
 71
     3
 72
    80
 73
    76
 74
     0
 42
0.0000000001
 43
0.0000000001
 12
1.0
 22
0.0
 32
0.0
 13
1.0
 23
0.0
 33
0.0
 40
0.0
 40
0.0
 40
0.0
 40
0.0
 40
0.05
 40
0.05
 40
0.05
 40
0.05
 40
0.1
 40
0.1
 40
0.1
 40
0.1
 40
0.15
 40
0.15
 40
0.15
 40
0.15
 40
0.2
 40
0.2
 40
0.2
 40
0.2
 40
0.25
 40
0.25
 40
0.25
 40
0.25
 40
0.3
 40
0.3
 40
0.3
 40
0.3
 40
0.35
 40
0.35
 40
0.35
 40
0.35
 40
0.4
 40
0.4
 40
0.4
 40
0.4
 40
0.45
 40
0.45
 40
0.45
 40
0.45
 40
0.5
 40
0.5
 40
0.5
 40
0.5
 40
0.55
 40
0.55
 40
0.55
 40
0.55
 40
0.6
 40
0.6
 40
0.6
 40
0.6
 40
0.65
 40
0.65
 40
0.65
 40
0.65
 40
0.7
 40
0.7
 40
0.7
 40
0.7
 40
0.75
 40
0.75
 40
0.75
 40
0.75
 40
0.8
 40
0.8
 40
0.8
 40
0.8
 40
0.85
 40
0.85
 40
0.85
 40
0.85
 40
0.9
 40
0.9
 40
0.9
 40
0.9
 40
1.0
 40
1.0
 40
1.0
 40
1.0
 10
139.6193
 20
14.3382
 30
0.0
 10
139.6193
 20
14.3382
 30
0.0
 10
142.0666
 20
13.9295
 30
0.0
 10
142.9051
 20
12.8298
 30
0.0
 10
142.9051
 20
12.8298
 30
0.0
 10
143.7437
 20
11.7303
 30
0.0
 10
144.2716
 20
9.4672
 30
0.0
 10
141.0116
 20
9.4061
 30
0.0
 10
141.0116
 20
9.4061
 30
0.0
 10
137.7516
 20
9.3451
 30
0.0
 10
137.0239
 20
12.7939
 30
0.0
 10
136.7435
 20
11.3225
 30
0.0
 10
136.7435
 20
11.3225
 30
0.0
 10
136.4628
 20
9.8508
 30
0.0
 10
139.0843
 20
8.9449
 30
0.0
 10
139.384
 20
7.5772
 30
0.0
 10
139.384
 20
7.5772
 30
0.0
 10
139.6834
 20
6.2093
 30
0.0
 10
139.4765
 20
5.3704
 30
0.0
 10
138.2113
 20
4.8084
 30
0.0
 10
138.2113
 20
4.8084
 30
0.0
 10
136.9462
 20
4.2467
 30
0.0
 10
136.1924
 20
4.4473
 30
0.0
 10
134.9155
 20
5.5924
 30
0.0
 10
134.9155
 20
5.5924
 30
0.0
 10
133.6388
 20
6.7375
 30
0.0
 10
133.7915
 20
8.8714
 30
0.0
 10
134.0615
 20
10.0514
 30
0.0
 10
134.0615
 20
10.0514
 30
0.0
 10
134.3315
 20
11.2315
 30
0.0
 10
134.7009
 20
12.4761
 30
0.0
 10
134.7009
 20
12.4761
 30
0.0
 10
134.7009
 20
12.4761
 30
0.0
 10
134.7009
 20
12.4761
 30
0.0
 10
133.958
 20
12.6489
 30
0.0
 10
132.9354
 20
10.7963
 30
0.0
 10
132.9354
 20
10.7963
 30
0.0
 10
131.9128
 20
8.944
 30
0.0
 10
128.9243
 20
9.4061
 30
0.0
 10
128.2505
 20
10.1928
 30
0.0
 10
128.2505
 20
10.1928
 30
0.0
 10
127.5765
 20
10.9795
 30
0.0
 10
128.5689
 20
13.5883
 30
0.0
 10
129.3058
 20
14.1696
 30
0.0
 10
129.3058
 20
14.1696
 30
0.0
 10
130.0427
 20
14.7508
 30
0.0
 10
132.9354
 20
15.3787
 30
0.0
 10
132.9354
 20
15.3787
 30
0.0
 10
132.9354
 20
15.3787
 30
0.0
 10
131.5582
 20
16.099
 30
0.0
 10
127.0894
 20
17.9895
 30
0.0
 10
129.4801
 20
20.413
 30
0.0
 10
129.4801
 20
20.413
 30
0.0
 10
131.1287
 20
22.0842
 30
0.0
 10
132.0586
 20
21.1582
 30
0.0
 10
133.0074
 20
20.6748
 30
0.0
 10
133.0074
 20
20.6748
 30
0.0
 10
133.9563
 20
20.1913
 30
0.0
 10
134.6398
 20
17.6454
 30
0.0
 10
135.0112
 20
17.3365
 30
0.0
 10
135.0112
 20
17.3365
 30
0.0
 10
135.7457
 20
19.9841
 30
0.0
 10
138.3714
 20
22.461
 30
0.0
 10
140.0067
 20
20.9152
 30
0.0
 10
140.0067
 20
20.9152
 30
0.0
 10
141.6418
 20
19.369
 30
0.0
 10
141.2659
 20
17.3033
 30
0.0
 10
139.9199
 20
16.6002
 30
0.0
 10
139.9199
 20
16.6002
 30
0.0
 10
138.5742
 20
15.8968
 30
0.0
 10
137.299
 20
14.9204
 30
0.0
 10
137.0873
 20
14.2955
 30
0.0
 10
137.0873
 20
14.2955
 30
0.0
 10
136.8754
 20
13.6707
 30
0.0
 10
139.6193
 20
14.3382
 30
0.0
 10
139.6193
 20
14.3382
 30
0.0
  0
SPLINE
  5
89
330
1F
100
AcDbEntity
  8
layer 1
 62
     7
370
     9
100
AcDbSpline
210
0.0
220
0.0
230
1.0
 70
    11
 71
     3
 72
    80
 73
    76
 74
     0
 42
0.0000000001
 43
0.0000000001
 12
1.0
 22
0.0
 32
0.0
 13
1.0
 23
0.0
 33
0.0
 40
0.0
 40
0.0
 40
0.0
 40
0.0
 40
0.05
 40
0.05
 40
0.05
 40
0.05
 40
0.1
 40
0.1
 40
0.1
 40
0.1
 40
0.15
 40
0.15
 40
0.15
 40
0.15
 40
0.2
 40
0.2
 40
0.2
 40
0.2
 40
0.25
 40
0.25
 40
0.25
 40
0.25
 40
0.3
 40
0.3
 40
0.3
 40
0.3
 40
0.35
 40
0.35
 40
0.35
 40
0.35
 40
0.4
 40
0.4
 40
0.4
 40
0.4
 40
0.45
 40
0.45
 40
0.45
 40
0.45
 40
0.5
 40
0.5
 40
0.5
 40
0.5
 40
0.55
 40
0.55
 40
0.55
 40
0.55
 40
0.6
 40
0.6
 40
0.6
 40
0.6
 40
0.65
 40
0.65
 40
0.65
 40
0.65
 40
0.7
 40
0.7
 40
0.7
 40
0.7
 40
0.75
 40
0.75
 40
0.75
 40
0.75
 40
0.8
 40
0.8
 40
0.8
 40
0.8
 40
0.85
 40
0.85
 40
0.85
 40
0.85
 40
0.9
 40
0.9
 40
0.9
 40
0.9
 40
1.0
 40
1.0
 40
1.0
 40
1.0
 10
174.5069
 20
14.9266
 30
0.0
 10
174.5069
 20
14.9266
 30
0.0
 10
176.5118
 20
14.5917
 30
0.0
 10
177.1986
 20
13.6908
 30
0.0
 10
177.1986
 20
13.6908
 30
0.0
 10
177.8857
 20
12.79
 30
0.0
 10
178.3182
 20
10.9359
 30
0.0
 10
175.6472
 20
10.8861
 30
0.0
 10
175.6472
 20
10.8861
 30
0.0
 10
172.9765
 20
10.836
 30
0.0
 10
172.3804
 20
13.6615
 30
0.0
 10
172.1503
 20
12.456
 30
0.0
 10
172.1503
 20
12.456
 30
0.0
 10
171.9206
 20
11.2501
 30
0.0
 10
174.0685
 20
10.5082
 30
0.0
 10
174.3136
 20
9.3875
 30
0.0
 10
174.3136
 20
9.3875
 30
0.0
 10
174.559
 20
8.2667
 30
0.0
 10
174.3895
 20
7.5796
 30
0.0
 10
173.3529
 20
7.1193
 30
0.0
 10
173.3529
 20
7.1193
 30
0.0
 10
172.3166
 20
6.6589
 30
0.0
 10
171.6989
 20
6.8234
 30
0.0
 10
170.6528
 20
7.7616
 30
0.0
 10
170.6528
 20
7.7616
 30
0.0
 10
169.6068
 20
8.6995
 30
0.0
 10
169.7322
 20
10.448
 30
0.0
 10
169.9533
 20
11.4147
 30
0.0
 10
169.9533
 20
11.4147
 30
0.0
 10
170.1744
 20
12.3813
 30
0.0
 10
170.4771
 20
13.4012
 30
0.0
 10
170.4771
 20
13.4012
 30
0.0
 10
170.4771
 20
13.4012
 30
0.0
 10
170.4771
 20
13.4012
 30
0.0
 10
169.8685
 20
13.5426
 30
0.0
 10
169.0308
 20
12.025
 30
0.0
 10
169.0308
 20
12.025
 30
0.0
 10
168.1929
 20
10.5073
 30
0.0
 10
165.7444
 20
10.8858
 30
0.0
 10
165.1925
 20
11.5306
 30
0.0
 10
165.1925
 20
11.5306
 30
0.0
 10
164.6403
 20
12.175
 30
0.0
 10
165.4531
 20
14.3124
 30
0.0
 10
166.0569
 20
14.7885
 30
0.0
 10
166.0569
 20
14.7885
 30
0.0
 10
166.6607
 20
15.2645
 30
0.0
 10
169.0308
 20
15.7791
 30
0.0
 10
169.0308
 20
15.7791
 30
0.0
 10
169.0308
 20
15.7791
 30
0.0
 10
167.9024
 20
16.3693
 30
0.0
 10
164.2413
 20
17.9181
 30
0.0
 10
166.2
 20
19.9038
 30
0.0
 10
166.2
 20
19.9038
 30
0.0
 10
167.5505
 20
21.2726
 30
0.0
 10
168.3123
 20
20.5141
 30
0.0
 10
169.0895
 20
20.1181
 30
0.0
 10
169.0895
 20
20.1181
 30
0.0
 10
169.867
 20
19.7221
 30
0.0
 10
170.427
 20
17.6362
 30
0.0
 10
170.7314
 20
17.383
 30
0.0
 10
170.7314
 20
17.383
 30
0.0
 10
171.3331
 20
19.5522
 30
0.0
 10
173.4842
 20
21.5815
 30
0.0
 10
174.824
 20
20.3149
 30
0.0
 10
174.824
 20
20.3149
 30
0.0
 10
176.1635
 20
19.0483
 30
0.0
 10
175.8556
 20
17.3561
 30
0.0
 10
174.7529
 20
16.7798
 30
0.0
 10
174.7529
 20
16.7798
 30
0.0
 10
173.6502
 20
16.2036
 30
0.0
 10
172.6056
 20
15.4036
 30
0.0
 10
172.4322
 20
14.8916
 30
0.0
 10
172.4322
 20
14.8916
 30
0.0
 10
172.2585
 20
14.3797
 30
0.0
 10
174.5069
 20
14.9266
 30
0.0
 10
174.5069
 20
14.9266
 30
0.0
  0
SPLINE
  5
8A
330
1F
100
AcDbEntity
  8
layer 1
 62
     7
370
     9
100
AcDbSpline
210
0.0
220
0.0
230
1.0
 70
    11
 71
     3
 72
   408
 73
   404
 74
     0
 42
0.0000000001
 43
0.0000000001
 12
1.0
 22
0.0
 32
0.0
 13
1.0
 23
0.0
 33
0.0
 40
0.0
 40
0.0
 40
0.0
 40
0.0
 40
0.0098039215686275
 40
0.0098039215686275
 40
0.0098039215686275
 40
0.0098039215686275
 40
0.0196078431372549
 40
0.0196078431372549
 40
0.0196078431372549
 40
0.0196078431372549
 40
0.0294117647058824
 40
0.0294117647058824
 40
0.0294117647058824
 40
0.0294117647058824
 40
0.0392156862745098
 40
0.0392156862745098
 40
0.0392156862745098
 40
0.0392156862745098
 40
0.0490196078431373
 40
0.0490196078431373
 40
0.0490196078431373
 40
0.0490196078431373
 40
0.0588235294117647
 40
0.0588235294117647
 40
0.0588235294117647
 40
0.0588235294117647
 40
0.0686274509803922
 40
0.0686274509803922
 40
0.0686274509803922
 40
0.0686274509803922
 40
0.0784313725490196
 40
0.0784313725490196
 40
0.0784313725490196
 40
0.0784313725490196
 40
0.0882352941176471
 40
0.0882352941176471
 40
0.0882352941176471
 40
0.0882352941176471
 40
0.0980392156862745
 40
0.0980392156862745
 40
0.0980392156862745
 40
0.0980392156862745
 40
0.107843137254902
 40
0.107843137254902
 40
0.107843137254902
 40
0.107843137254902
 40
0.1176470588235294
 40
0.1176470588235294
 40
0.1176470588235294
 40
0.1176470588235294
 40
0.1274509803921569
 40
0.1274509803921569
 40
0.1274509803921569
 40
0.1274509803921569
 40
0.1372549019607843
 40
0.1372549019607843
 40
0.1372549019607843
 40
0.1372549019607843
 40
0.1470588235294118
 40
0.1470588235294118
 40
0.1470588235294118
 40
0.1470588235294118
 40
0.1568627450980392
 40
0.1568627450980392
 40
0.1568627450980392
 40
0.1568627450980392
 40
0.1666666666666667
 40
0.1666666666666667
 40
0.1666666666666667
 40
0.1666666666666667
 40
0.1764705882352941
 40
0.1764705882352941
 40
0.1764705882352941
 40
0.1764705882352941
 40
0.1862745098039216
 40
0.1862745098039216
 40
0.1862745098039216
 40
0.1862745098039216
 40
0.196078431372549
 40
0.196078431372549
 40
0.196078431372549
 40
0.196078431372549
 40
0.2058823529411765
 40
0.2058823529411765
 40
0.2058823529411765
 40
0.2058823529411765
 40
0.2156862745098039
 40
0.2156862745098039
 40
0.2156862745098039
 40
0.2156862745098039
 40
0.2254901960784314
 40
0.2254901960784314
 40
0.2254901960784314
 40
0.2254901960784314
 40
0.2352941176470588
 40
0.2352941176470588
 40
0.2352941176470588
 40
0.2352941176470588
 40
0.2450980392156863
 40
0.2450980392156863
 40
0.2450980392156863
 40
0.2450980392156863
 40
0.2549019607843137
 40
0.2549019607843137
 40
0.2549019607843137
 40
0.2549019607843137
 40
0.2647058823529412
 40
0.2647058823529412
 40
0.2647058823529412
 40
0.2647058823529412
 40
0.2745098039215687
 40
0.2745098039215687
 40
0.2745098039215687
 40
0.2745098039215687
 40
0.2843137254901961
 40
0.2843137254901961
 40
0.2843137254901961
 40
0.2843137254901961
 40
0.2941176470588235
 40
0.2941176470588235
 40
0.2941176470588235
 40
0.2941176470588235
 40
0.303921568627451
 40
0.303921568627451
 40
0.303921568627451
 40
0.303921568627451
 40
0.3137254901960784
 40
0.3137254901960784
 40
0.3137254901960784
 40
0.3137254901960784
 40
0.3235294117647059
 40
0.3235294117647059
 40
0.3235294117647059
 40
0.3235294117647059
 40
0.3333333333333333
 40
0.3333333333333333
 40
0.3333333333333333
 40
0.3333333333333333
 40
0.3431372549019608
 40
0.3431372549019608
 40
0.3431372549019608
 40
0.3431372549019608
 40
0.3529411764705883
 40
0.3529411764705883
 40
0.3529411764705883
 40
0.3529411764705883
 40
0.3627450980392157
 40
0.3627450980392157
 40
0.3627450980392157
 40
0.3627450980392157
 40
0.3725490196078431
 40
0.3725490196078431
 40
0.3725490196078431
 40
0.3725490196078431
 40
0.3823529411764706
 40
0.3823529411764706
 40
0.3823529411764706
 40
0.3823529411764706
 40
0.392156862745098
 40
0.392156862745098
 40
0.392156862745098
 40
0.392156862745098
 40
0.4019607843137255
 40
0.4019607843137255
 40
0.4019607843137255
 40
0.4019607843137255
 40
0.4117647058823529
 40
0.4117647058823529
 40
0.4117647058823529
 40
0.4117647058823529
 40
0.4215686274509804
 40
0.4215686274509804
 40
0.4215686274509804
 40
0.4215686274509804
 40
0.4313725490196079
 40
0.4313725490196079
 40
0.4313725490196079
 40
0.4313725490196079
 40
0.4411764705882353
 40
0.4411764705882353
 40
0.4411764705882353
 40
0.4411764705882353
 40
0.4509803921568628
 40
0.4509803921568628
 40
0.4509803921568628
 40
0.4509803921568628
 40
0.4607843137254902
 40
0.4607843137254902
 40
0.4607843137254902
 40
0.4607843137254902
 40
0.4705882352941176
 40
0.4705882352941176
 40
0.4705882352941176
 40
0.4705882352941176
 40
0.4803921568627451
 40
0.4803921568627451
 40
0.4803921568627451
 40
0.4803921568627451
 40
0.4901960784313725
 40
0.4901960784313725
 40
0.4901960784313725
 40
0.4901960784313725
 40
0.5
 40
0.5
 40
0.5
 40
0.5
 40
0.5098039215686274
 40
0.5098039215686274
 40
0.5098039215686274
 40
0.5098039215686274
 40
0.5196078431372549
 40
0.5196078431372549
 40
0.5196078431372549
 40
0.5196078431372549
 40
0.5294117647058824
 40
0.5294117647058824
 40
0.5294117647058824
 40
0.5294117647058824
 40
0.5392156862745098
 40
0.5392156862745098
 40
0.5392156862745098
 40
0.5392156862745098
 40
0.5490196078431373
 40
0.5490196078431373
 40
0.5490196078431373
 40
0.5490196078431373
 40
0.5588235294117647
 40
0.5588235294117647
 40
0.5588235294117647
 40
0.5588235294117647
 40
0.5686274509803921
 40
0.5686274509803921
 40
0.5686274509803921
 40
0.5686274509803921
 40
0.5784313725490197
 40
0.5784313725490197
 40
0.5784313725490197
 40
0.5784313725490197
 40
0.5882352941176471
 40
0.5882352941176471
 40
0.5882352941176471
 40
0.5882352941176471
 40
0.5980392156862745
 40
0.5980392156862745
 40
0.5980392156862745
 40
0.5980392156862745
 40
0.6078431372549019
 40
0.6078431372549019
 40
0.6078431372549019
 40
0.6078431372549019
 40
0.6176470588235294
 40
0.6176470588235294
 40
0.6176470588235294
 40
0.6176470588235294
 40
0.6274509803921569
 40
0.6274509803921569
 40
0.6274509803921569
 40
0.6274509803921569
 40
0.6372549019607843
 40
0.6372549019607843
 40
0.6372549019607843
 40
0.6372549019607843
 40
0.6470588235294118
 40
0.6470588235294118
 40
0.6470588235294118
 40
0.6470588235294118
 40
0.6568627450980392
 40
0.6568627450980392
 40
0.6568627450980392
 40
0.6568627450980392
 40
0.6666666666666666
 40
0.6666666666666666
 40
0.6666666666666666
 40
0.6666666666666666
 40
0.6764705882352942
 40
0.6764705882352942
 40
0.6764705882352942
 40
0.6764705882352942
 40
0.6862745098039216
 40
0.6862745098039216
 40
0.6862745098039216
 40
0.6862745098039216
 40
0.696078431372549
 40
0.696078431372549
 40
0.696078431372549
 40
0.696078431372549
 40
0.7058823529411765
 40
0.7058823529411765
 40
0.7058823529411765
 40
0.7058823529411765
 40
0.7156862745098039
 40
0.7156862745098039
 40
0.7156862745098039
 40
0.7156862745098039
 40
0.7254901960784313
 40
0.7254901960784313
 40
0.7254901960784313
 40
0.7254901960784313
 40
0.7352941176470589
 40
0.7352941176470589
 40
0.7352941176470589
 40
0.7352941176470589
 40
0.7450980392156863
 40
0.7450980392156863
 40
0.7450980392156863
 40
0.7450980392156863
 40
0.7549019607843137
 40
0.7549019607843137
 40
0.7549019607843137
 40
0.7549019607843137
 40
0.7647058823529411
 40
0.7647058823529411
 40
0.7647058823529411
 40
0.7647058823529411
 40
0.7745098039215687
 40
0.7745098039215687
 40
0.7745098039215687
 40
0.7745098039215687
 40
0.7843137254901961
 40
0.7843137254901961
 40
0.7843137254901961
 40
0.7843137254901961
 40
0.7941176470588235
 40
0.7941176470588235
 40
0.7941176470588235
 40
0.7941176470588235
 40
0.803921568627451
 40
0.803921568627451
 40
0.803921568627451
 40
0.803921568627451
 40
0.8137254901960784
 40
0.8137254901960784
 40
0.8137254901960784
 40
0.8137254901960784
 40
0.8235294117647058
 40
0.8235294117647058
 40
0.8235294117647058
 40
0.8235294117647058
 40
0.8333333333333334
 40
0.8333333333333334
 40
0.8333333333333334
 40
0.8333333333333334
 40
0.8431372549019608
 40
0.8431372549019608
 40
0.8431372549019608
 40
0.8431372549019608
 40
0.8529411764705882
 40
0.8529411764705882
 40
0.8529411764705882
 40
0.8529411764705882
 40
0.8627450980392157
 40
0.8627450980392157
 40
0.8627450980392157
 40
0.8627450980392157
 40
0.8725490196078431
 40
0.8725490196078431
 40
0.8725490196078431
 40
0.8725490196078431
 40
0.8823529411764706
 40
0.8823529411764706
 40
0.8823529411764706
 40
0.8823529411764706
 40
0.8921568627450981
 40
0.8921568627450981
 40
0.8921568627450981
 40
0.8921568627450981
 40
0.9019607843137255
 40
0.9019607843137255
 40
0.9019607843137255
 40
0.9019607843137255
 40
0.9117647058823529
 40
0.9117647058823529
 40
0.9117647058823529
 40
0.9117647058823529
 40
0.9215686274509803
 40
0.9215686274509803
 40
0.9215686274509803
 40
0.9215686274509803
 40
0.9313725490196079
 40
0.9313725490196079
 40
0.9313725490196079
 40
0.9313725490196079
 40
0.9411764705882353
 40
0.9411764705882353
 40
0.9411764705882353
 40
0.9411764705882353
 40
0.9509803921568627
 40
0.9509803921568627
 40
0.9509803921568627
 40
0.9509803921568627
 40
0.9607843137254902
 40
0.9607843137254902
 40
0.9607843137254902
 40
0.9607843137254902
 40
0.9705882352941176
 40
0.9705882352941176
 40
0.9705882352941176
 40
0.9705882352941176
 40
0.9803921568627451
 40
0.9803921568627451
 40
0.9803921568627451
 40
0.9803921568627451
 40
1.0
 40
1.0
 40
1.0
 40
1.0
 10
222.3793
 20
7.876
 30
0.0
 10
221.3486
 20
8.6094
 30
0.0
 10
217.0583
 20
11.522
 30
0.0
 10
211.9806
 20
12.988
 30
0.0
 10
211.9806
 20
12.988
 30
0.0
 10
217.7006
 20
14.7025
 30
0.0
 10
222.3582
 20
18.1952
 30
0.0
 10
222.3582
 20
18.1952
 30
0.0
 10
222.3582
 20
18.1952
 30
0.0
 10
222.3582
 20
18.1952
 30
0.0
 10
222.3793
 20
18.8221
 30
0.0
 10
222.3793
 20
18.8221
 30
0.0
 10
222.3793
 20
18.8221
 30
0.0
 10
222.3793
 20
18.8221
 30
0.0
 10
222.3793
 20
25.5517
 30
0.0
 10
222.3793
 20
25.5517
 30
0.0
 10
222.3793
 20
25.5517
 30
0.0
 10
221.164
 20
25.5304
 30
0.0
 10
215.6764
 20
26.4149
 30
0.0
 10
214.0722
 20
32.0581
 30
0.0
 10
214.0722
 20
32.0581
 30
0.0
 10
213.9483
 20
37.5303
 30
0.0
 10
212.5341
 20
36.2332
 30
0.0
 10
211.475
 20
32.0581
 30
0.0
 10
211.475
 20
32.0581
 30
0.0
 10
210.4156
 20
27.8831
 30
0.0
 10
213.8075
 20
23.4649
 30
0.0
 10
208.3006
 20
29.018
 30
0.0
 10
208.3006
 20
29.018
 30
0.0
 10
206.3656
 20
33.3173
 30
0.0
 10
203.9717
 20
30.1939
 30
0.0
 10
205.827
 20
25.37
 30
0.0
 10
205.827
 20
25.37
 30
0.0
 10
207.1769
 20
21.9253
 30
0.0
 10
209.8494
 20
21.1244
 30
0.0
 10
214.1958
 20
20.9516
 30
0.0
 10
214.1958
 20
20.9516
 30
0.0
 10
223.2241
 20
20.9516
 30
0.0
 10
218.7719
 20
18.5601
 30
0.0
 10
218.7719
 20
18.5601
 30
0.0
 10
218.7719
 20
18.5601
 30
0.0
 10
218.7719
 20
18.5601
 30
0.0
 10
213.9483
 20
17.3442
 30
0.0
 10
213.3299
 20
17.3442
 30
0.0
 10
213.3299
 20
17.3442
 30
0.0
 10
212.7116
 20
17.3442
 30
0.0
 10
207.9707
 20
17.3845
 30
0.0
 10
206.3629
 20
20.3843
 30
0.0
 10
206.3629
 20
20.3843
 30
0.0
 10
203.9305
 20
26.221
 30
0.0
 10
204.178
 20
23.1407
 30
0.0
 10
204.2604
 20
19.0871
 30
0.0
 10
204.2604
 20
19.0871
 30
0.0
 10
205.1672
 20
17.2224
 30
0.0
 10
206.4453
 20
16.7766
 30
0.0
 10
207.682
 20
15.8443
 30
0.0
 10
207.682
 20
15.8443
 30
0.0
 10
208.9189
 20
14.9121
 30
0.0
 10
203.3122
 20
13.5744
 30
0.0
 10
201.5808
 20
20.8707
 30
0.0
 10
201.5808
 20
20.8707
 30
0.0
 10
199.3544
 20
27.5588
 30
0.0
 10
199.2308
 20
24.2756
 30
0.0
 10
199.4783
 20
19.0465
 30
0.0
 10
199.4783
 20
19.0465
 30
0.0
 10
201.9516
 20
14.5472
 30
0.0
 10
202.1991
 20
14.6687
 30
0.0
 10
199.3544
 20
16.2495
 30
0.0
 10
199.3544
 20
16.2495
 30
0.0
 10
196.51
 20
17.8306
 30
0.0
 10
197.7466
 20
17.1008
 30
0.0
 10
193.418
 20
23.3028
 30
0.0
 10
193.418
 20
23.3028
 30
0.0
 10
189.0895
 20
29.5045
 30
0.0
 10
187.1106
 20
29.018
 30
0.0
 10
187.8525
 20
25.7349
 30
0.0
 10
187.8525
 20
25.7349
 30
0.0
 10
188.5947
 20
22.4515
 30
0.0
 10
189.955
 20
20.7489
 30
0.0
 10
194.2839
 20
16.8578
 30
0.0
 10
194.2839
 20
16.8578
 30
0.0
 10
198.6125
 20
12.9664
 30
0.0
 10
192.5522
 20
15.52
 30
0.0
 10
190.0789
 20
17.1008
 30
0.0
 10
190.0789
 20
17.1008
 30
0.0
 10
187.6053
 20
18.6816
 30
0.0
 10
185.1317
 20
23.6674
 30
0.0
 10
185.5028
 20
27.4372
 30
0.0
 10
185.5028
 20
27.4372
 30
0.0
 10
184.0186
 20
31.5717
 30
0.0
 10
183.6374
 20
30.3457
 30
0.0
 10
181.2978
 20
34.3687
 30
0.0
 10
181.2978
 20
34.3687
 30
0.0
 10
178.9582
 20
31.2169
 30
0.0
 10
178.058
 20
29.481
 30
0.0
 10
182.0397
 20
22.8164
 30
0.0
 10
182.0397
 20
22.8164
 30
0.0
 10
186.0215
 20
16.1517
 30
0.0
 10
180.0609
 20
22.33
 30
0.0
 10
178.4531
 20
24.5187
 30
0.0
 10
178.4531
 20
24.5187
 30
0.0
 10
176.8453
 20
26.7075
 30
0.0
 10
175.2375
 20
34.612
 30
0.0
 10
176.4742
 20
36.3144
 30
0.0
 10
176.4742
 20
36.3144
 30
0.0
 10
177.7111
 20
38.0167
 30
0.0
 10
180.3084
 20
41.5435
 30
0.0
 10
181.2978
 20
38.868
 30
0.0
 10
181.2978
 20
38.868
 30
0.0
 10
182.2872
 20
36.1928
 30
0.0
 10
184.1422
 20
35.9495
 30
0.0
 10
186.1211
 20
35.9495
 30
0.0
 10
186.1211
 20
35.9495
 30
0.0
 10
188.1
 20
35.9495
 30
0.0
 10
188.4966
 20
40.3222
 30
0.0
 10
186.3683
 20
41.665
 30
0.0
 10
186.3683
 20
41.665
 30
0.0
 10
184.2403
 20
43.0075
 30
0.0
 10
181.7905
 20
44.146
 30
0.0
 10
177.7111
 20
40.9352
 30
0.0
 10
177.7111
 20
40.9352
 30
0.0
 10
173.6315
 20
37.7244
 30
0.0
 10
175.2375
 20
40.9352
 30
0.0
 10
177.34
 20
43.8538
 30
0.0
 10
177.34
 20
43.8538
 30
0.0
 10
179.4425
 20
46.7723
 30
0.0
 10
178.4531
 20
47.8667
 30
0.0
 10
184.0186
 20
47.0157
 30
0.0
 10
184.0186
 20
47.0157
 30
0.0
 10
189.5842
 20
46.1644
 30
0.0
 10
190.9444
 20
48.5965
 30
0.0
 10
189.7078
 20
49.0829
 30
0.0
 10
189.7078
 20
49.0829
 30
0.0
 10
188.4711
 20
49.5693
 30
0.0
 10
188.8419
 20
51.6365
 30
0.0
 10
183.6475
 20
50.1773
 30
0.0
 10
183.6475
 20
50.1773
 30
0.0
 10
178.4531
 20
48.718
 30
0.0
 10
182.6581
 20
51.515
 30
0.0
 10
182.6581
 20
51.515
 30
0.0
 10
182.6581
 20
51.515
 30
0.0
 10
182.6581
 20
51.515
 30
0.0
 10
185.0081
 20
52.9743
 30
0.0
 10
188.5947
 20
52.9743
 30
0.0
 10
188.5947
 20
52.9743
 30
0.0
 10
192.1814
 20
52.9743
 30
0.0
 10
193.6653
 20
51.0286
 30
0.0
 10
194.2839
 20
49.3259
 30
0.0
 10
194.2839
 20
49.3259
 30
0.0
 10
194.9022
 20
47.6236
 30
0.0
 10
191.3156
 20
46.0428
 30
0.0
 10
195.0258
 20
45.1915
 30
0.0
 10
195.0258
 20
45.1915
 30
0.0
 10
198.7361
 20
44.3402
 30
0.0
 10
197.623
 20
49.0829
 30
0.0
 10
197.623
 20
49.0829
 30
0.0
 10
197.623
 20
49.0829
 30
0.0
 10
197.623
 20
49.0829
 30
0.0
 10
196.2625
 20
54.92
 30
0.0
 10
198.6125
 20
50.9067
 30
0.0
 10
198.6125
 20
50.9067
 30
0.0
 10
200.9622
 20
46.8938
 30
0.0
 10
199.8491
 20
45.1915
 30
0.0
 10
200.0966
 20
43.9753
 30
0.0
 10
200.0966
 20
43.9753
 30
0.0
 10
200.3439
 20
42.7594
 30
0.0
 10
196.51
 20
36.071
 30
0.0
 10
195.1494
 20
40.9352
 30
0.0
 10
195.1494
 20
40.9352
 30
0.0
 10
193.7892
 20
45.7995
 30
0.0
 10
190.4497
 20
41.7866
 30
0.0
 10
190.8208
 20
40.5706
 30
0.0
 10
190.8208
 20
40.5706
 30
0.0
 10
191.1919
 20
39.3544
 30
0.0
 10
186.1211
 20
39.5978
 30
0.0
 10
193.1705
 20
37.0439
 30
0.0
 10
193.1705
 20
37.0439
 30
0.0
 10
200.2203
 20
34.4902
 30
0.0
 10
202.8175
 20
41.4217
 30
0.0
 10
203.4358
 20
44.5836
 30
0.0
 10
203.4358
 20
44.5836
 30
0.0
 10
204.0541
 20
47.7451
 30
0.0
 10
198.8597
 20
55.5279
 30
0.0
 10
195.0258
 20
56.1359
 30
0.0
 10
195.0258
 20
56.1359
 30
0.0
 10
191.1919
 20
56.7438
 30
0.0
 10
186.7394
 20
56.6223
 30
0.0
 10
182.0397
 20
52.8524
 30
0.0
 10
182.0397
 20
52.8524
 30
0.0
 10
177.34
 20
49.0829
 30
0.0
 10
179.9372
 20
53.0958
 30
0.0
 10
177.7111
 20
54.0686
 30
0.0
 10
177.7111
 20
54.0686
 30
0.0
 10
175.485
 20
55.0415
 30
0.0
 10
171.5273
 20
55.8928
 30
0.0
 10
174.1245
 20
52.6094
 30
0.0
 10
174.1245
 20
52.6094
 30
0.0
 10
176.7217
 20
49.3259
 30
0.0
 10
174.7428
 20
46.5292
 30
0.0
 10
173.5062
 20
41.3001
 30
0.0
 10
173.5062
 20
41.3001
 30
0.0
 10
172.2692
 20
36.071
 30
0.0
 10
172.2692
 20
28.775
 30
0.0
 10
178.9478
 20
19.6545
 30
0.0
 10
178.9478
 20
19.6545
 30
0.0
 10
181.5954
 20
16.0391
 30
0.0
 10
185.4483
 20
14.0107
 30
0.0
 10
189.6046
 20
12.916
 30
0.0
 10
189.6046
 20
12.916
 30
0.0
 10
185.5467
 20
11.8056
 30
0.0
 10
181.7979
 20
9.7867
 30
0.0
 10
179.2048
 20
6.2457
 30
0.0
 10
179.2048
 20
6.2457
 30
0.0
 10
172.5262
 20
-2.8745
 30
0.0
 10
172.5262
 20
-10.1708
 30
0.0
 10
173.7629
 20
-15.3996
 30
0.0
 10
173.7629
 20
-15.3996
 30
0.0
 10
174.9998
 20
-20.6287
 30
0.0
 10
176.9787
 20
-23.4257
 30
0.0
 10
174.3815
 20
-26.7089
 30
0.0
 10
174.3815
 20
-26.7089
 30
0.0
 10
171.7843
 20
-29.9923
 30
0.0
 10
175.7417
 20
-29.141
 30
0.0
 10
177.9681
 20
-28.1681
 30
0.0
 10
177.9681
 20
-28.1681
 30
0.0
 10
180.1942
 20
-27.1953
 30
0.0
 10
177.597
 20
-23.1824
 30
0.0
 10
182.2967
 20
-26.9522
 30
0.0
 10
182.2967
 20
-26.9522
 30
0.0
 10
186.9964
 20
-30.7218
 30
0.0
 10
191.4486
 20
-30.8436
 30
0.0
 10
195.2828
 20
-30.2354
 30
0.0
 10
195.2828
 20
-30.2354
 30
0.0
 10
199.1167
 20
-29.6274
 30
0.0
 10
204.3111
 20
-21.8447
 30
0.0
 10
203.6928
 20
-18.6831
 30
0.0
 10
203.6928
 20
-18.6831
 30
0.0
 10
203.0745
 20
-15.5215
 30
0.0
 10
200.4772
 20
-8.59
 30
0.0
 10
193.4275
 20
-11.1437
 30
0.0
 10
193.4275
 20
-11.1437
 30
0.0
 10
186.3781
 20
-13.6973
 30
0.0
 10
191.4486
 20
-13.4539
 30
0.0
 10
191.0778
 20
-14.6701
 30
0.0
 10
191.0778
 20
-14.6701
 30
0.0
 10
190.7067
 20
-15.8861
 30
0.0
 10
194.0459
 20
-19.899
 30
0.0
 10
195.4064
 20
-15.035
 30
0.0
 10
195.4064
 20
-15.035
 30
0.0
 10
196.767
 20
-10.1708
 30
0.0
 10
200.6009
 20
-16.8589
 30
0.0
 10
200.3533
 20
-18.0751
 30
0.0
 10
200.3533
 20
-18.0751
 30
0.0
 10
200.1061
 20
-19.291
 30
0.0
 10
201.2192
 20
-20.9936
 30
0.0
 10
198.8695
 20
-25.0065
 30
0.0
 10
198.8695
 20
-25.0065
 30
0.0
 10
196.5195
 20
-29.0195
 30
0.0
 10
197.88
 20
-23.1824
 30
0.0
 10
197.88
 20
-23.1824
 30
0.0
 10
197.88
 20
-23.1824
 30
0.0
 10
197.88
 20
-23.1824
 30
0.0
 10
198.9931
 20
-18.4397
 30
0.0
 10
195.2828
 20
-19.291
 30
0.0
 10
195.2828
 20
-19.291
 30
0.0
 10
191.5725
 20
-20.1423
 30
0.0
 10
195.1592
 20
-21.7231
 30
0.0
 10
194.5406
 20
-23.4257
 30
0.0
 10
194.5406
 20
-23.4257
 30
0.0
 10
193.9223
 20
-25.1281
 30
0.0
 10
192.4381
 20
-27.0738
 30
0.0
 10
188.8514
 20
-27.0738
 30
0.0
 10
188.8514
 20
-27.0738
 30
0.0
 10
185.2651
 20
-27.0738
 30
0.0
 10
182.9151
 20
-25.6145
 30
0.0
 10
182.9151
 20
-25.6145
 30
0.0
 10
182.9151
 20
-25.6145
 30
0.0
 10
182.9151
 20
-25.6145
 30
0.0
 10
178.7101
 20
-22.8175
 30
0.0
 10
183.9045
 20
-24.2768
 30
0.0
 10
183.9045
 20
-24.2768
 30
0.0
 10
189.0989
 20
-25.736
 30
0.0
 10
188.7278
 20
-23.6688
 30
0.0
 10
189.9648
 20
-23.1824
 30
0.0
 10
189.9648
 20
-23.1824
 30
0.0
 10
191.2014
 20
-22.696
 30
0.0
 10
189.8409
 20
-20.2639
 30
0.0
 10
184.2756
 20
-21.1152
 30
0.0
 10
184.2756
 20
-21.1152
 30
0.0
 10
178.7101
 20
-21.9665
 30
0.0
 10
179.6995
 20
-20.8718
 30
0.0
 10
177.597
 20
-17.9536
 30
0.0
 10
177.597
 20
-17.9536
 30
0.0
 10
175.4945
 20
-15.035
 30
0.0
 10
173.8885
 20
-11.8242
 30
0.0
 10
177.9681
 20
-15.035
 30
0.0
 10
177.9681
 20
-15.035
 30
0.0
 10
182.0474
 20
-18.2455
 30
0.0
 10
184.4973
 20
-17.1073
 30
0.0
 10
186.6253
 20
-15.7645
 30
0.0
 10
186.6253
 20
-15.7645
 30
0.0
 10
188.7533
 20
-14.422
 30
0.0
 10
188.3567
 20
-10.0493
 30
0.0
 10
186.3781
 20
-10.0493
 30
0.0
 10
186.3781
 20
-10.0493
 30
0.0
 10
184.3992
 20
-10.0493
 30
0.0
 10
182.5439
 20
-10.2923
 30
0.0
 10
181.5545
 20
-12.9675
 30
0.0
 10
181.5545
 20
-12.9675
 30
0.0
 10
180.5654
 20
-15.643
 30
0.0
 10
177.9681
 20
-12.1165
 30
0.0
 10
176.7312
 20
-10.4139
 30
0.0
 10
176.7312
 20
-10.4139
 30
0.0
 10
175.4945
 20
-8.7115
 30
0.0
 10
177.1023
 20
-0.8073
 30
0.0
 10
178.7101
 20
1.3818
 30
0.0
 10
178.7101
 20
1.3818
 30
0.0
 10
180.3178
 20
3.5705
 30
0.0
 10
186.2785
 20
9.7488
 30
0.0
 10
182.2967
 20
3.0841
 30
0.0
 10
182.2967
 20
3.0841
 30
0.0
 10
178.3149
 20
-3.5805
 30
0.0
 10
179.2149
 20
-5.3167
 30
0.0
 10
181.5545
 20
-8.4682
 30
0.0
 10
181.5545
 20
-8.4682
 30
0.0
 10
183.8941
 20
-4.4452
 30
0.0
 10
184.2756
 20
-5.6715
 30
0.0
 10
185.7598
 20
-1.5367
 30
0.0
 10
185.7598
 20
-1.5367
 30
0.0
 10
185.3887
 20
2.2328
 30
0.0
 10
187.8623
 20
7.2186
 30
0.0
 10
190.3356
 20
8.7997
 30
0.0
 10
190.3356
 20
8.7997
 30
0.0
 10
192.8092
 20
10.3805
 30
0.0
 10
198.8695
 20
12.9341
 30
0.0
 10
194.5406
 20
9.0427
 30
0.0
 10
194.5406
 20
9.0427
 30
0.0
 10
190.212
 20
5.1513
 30
0.0
 10
188.8514
 20
3.449
 30
0.0
 10
188.1095
 20
0.1656
 30
0.0
 10
188.1095
 20
0.1656
 30
0.0
 10
187.3676
 20
-3.1175
 30
0.0
 10
189.3462
 20
-3.604
 30
0.0
 10
193.675
 20
2.5977
 30
0.0
 10
193.675
 20
2.5977
 30
0.0
 10
198.0036
 20
8.7997
 30
0.0
 10
196.767
 20
8.0699
 30
0.0
 10
199.6114
 20
9.6507
 30
0.0
 10
199.6114
 20
9.6507
 30
0.0
 10
202.4561
 20
11.2318
 30
0.0
 10
202.2086
 20
11.3533
 30
0.0
 10
199.735
 20
6.854
 30
0.0
 10
199.735
 20
6.854
 30
0.0
 10
199.4878
 20
1.6249
 30
0.0
 10
199.6114
 20
-1.6586
 30
0.0
 10
201.8375
 20
5.0298
 30
0.0
 10
201.8375
 20
5.0298
 30
0.0
 10
203.5692
 20
12.3261
 30
0.0
 10
209.1756
 20
10.9884
 30
0.0
 10
207.939
 20
10.0562
 30
0.0
 10
207.939
 20
10.0562
 30
0.0
 10
206.7023
 20
9.1239
 30
0.0
 10
205.4242
 20
8.6778
 30
0.0
 10
204.5171
 20
6.8134
 30
0.0
 10
204.5171
 20
6.8134
 30
0.0
 10
204.4347
 20
2.7598
 30
0.0
 10
204.1875
 20
-0.3208
 30
0.0
 10
206.6199
 20
5.5162
 30
0.0
 10
206.6199
 20
5.5162
 30
0.0
 10
208.2277
 20
8.5157
 30
0.0
 10
212.9686
 20
8.5563
 30
0.0
 10
213.5869
 20
8.5563
 30
0.0
 10
213.5869
 20
8.5563
 30
0.0
 10
214.2053
 20
8.5563
 30
0.0
 10
219.0286
 20
7.3404
 30
0.0
 10
219.0286
 20
7.3404
 30
0.0
 10
219.0286
 20
7.3404
 30
0.0
 10
219.0286
 20
7.3404
 30
0.0
 10
223.4811
 20
4.9489
 30
0.0
 10
214.4528
 20
4.9489
 30
0.0
 10
214.4528
 20
4.9489
 30
0.0
 10
210.1064
 20
4.7758
 30
0.0
 10
207.4336
 20
3.9749
 30
0.0
 10
206.0837
 20
0.5305
 30
0.0
 10
206.0837
 20
0.5305
 30
0.0
 10
204.2287
 20
-4.2937
 30
0.0
 10
206.6226
 20
-7.4168
 30
0.0
 10
208.5573
 20
-3.1175
 30
0.0
 10
208.5573
 20
-3.1175
 30
0.0
 10
214.0645
 20
2.4356
 30
0.0
 10
210.6725
 20
-1.9826
 30
0.0
 10
211.7317
 20
-6.1579
 30
0.0
 10
211.7317
 20
-6.1579
 30
0.0
 10
212.7911
 20
-10.333
 30
0.0
 10
214.2053
 20
-11.6301
 30
0.0
 10
214.3289
 20
-6.1579
 30
0.0
 10
214.3289
 20
-6.1579
 30
0.0
 10
215.8388
 20
-0.8467
 30
0.0
 10
220.7884
 20
0.2495
 30
0.0
 10
222.3793
 20
0.3425
 30
0.0
 10
222.3793
 20
0.3425
 30
0.0
 10
222.3793
 20
0.3425
 30
0.0
 10
222.3793
 20
7.876
 30
0.0
 10
222.3793
 20
7.876
 30
0.0
  0
SPLINE
  5
8B
330
1F
100
AcDbEntity
  8
layer 1
 62
     7
370
     9
100
AcDbSpline
210
0.0
220
0.0
230
1.0
 70
    11
 71
     3
 72
    16
 73
    12
 74
     0
 42
0.0000000001
 43
0.0000000001
 12
1.0
 22
0.0
 32
0.0
 13
1.0
 23
0.0
 33
0.0
 40
0.0
 40
0.0
 40
0.0
 40
0.0
 40
0.25
 40
0.25
 40
0.25
 40
0.25
 40
0.5
 40
0.5
 40
0.5
 40
0.5
 40
1.0
 40
1.0
 40
1.0
 40
1.0
 10
143.8978
 20
-86.2279
 30
0.0
 10
145.409
 20
-85.6786
 30
0.0
 10
147.2423
 20
-85.2675
 30
0.0
 10
148.8074
 20
-85.6567
 30
0.0
 10
148.8074
 20
-85.6567
 30
0.0
 10
148.8074
 20
-85.6567
 30
0.0
 10
149.5111
 20
-85.9368
 30
0.0
 10
150.3962
 20
-86.2279
 30
0.0
 10
150.3962
 20
-86.2279
 30
0.0
 10
150.3962
 20
-86.2279
 30
0.0
 10
143.8978
 20
-86.2279
 30
0.0
 10
143.8978
 20
-86.2279
 30
0.0
  0
SPLINE
  5
8C
330
1F
100
AcDbEntity
  8
layer 1
 62
     7
370
     9
100
AcDbSpline
210
0.0
220
0.0
230
1.0
 70
    11
 71
     3
 72
    24
 73
    20
 74
     0
 42
0.0000000001
 43
0.0000000001
 12
1.0
 22
0.0
 32
0.0
 13
1.0
 23
0.0
 33
0.0
 40
0.0
 40
0.0
 40
0.0
 40
0.0
 40
0.1666666666666667
 40
0.1666666666666667
 40
0.1666666666666667
 40
0.1666666666666667
 40
0.3333333333333333
 40
0.3333333333333333
 40
0.3333333333333333
 40
0.3333333333333333
 40
0.5
 40
0.5
 40
0.5
 40
0.5
 40
0.6666666666666666
 40
0.6666666666666666
 40
0.6666666666666666
 40
0.6666666666666666
 40
1.0
 40
1.0
 40
1.0
 40
1.0
 10
153.6977
 20
-86.2279
 30
0.0
 10
152.6531
 20
-85.0911
 30
0.0
 10
151.4811
 20
-83.4688
 30
0.0
 10
152.2023
 20
-82.5084
 30
0.0
 10
152.2023
 20
-82.5084
 30
0.0
 10
152.2023
 20
-82.5084
 30
0.0
 10
153.0124
 20
-79.3602
 30
0.0
 10
157.1786
 20
-80.6499
 30
0.0
 10
157.1786
 20
-80.6499
 30
0.0
 10
157.1786
 20
-80.6499
 30
0.0
 10
157.3327
 20
-81.5602
 30
0.0
 10
155.8284
 20
-83.1531
 30
0.0
 10
155.8284
 20
-83.1531
 30
0.0
 10
155.8284
 20
-83.1531
 30
0.0
 10
155.1309
 20
-84.2475
 30
0.0
 10
155.6209
 20
-86.2279
 30
0.0
 10
155.6209
 20
-86.2279
 30
0.0
 10
155.6209
 20
-86.2279
 30
0.0
 10
153.6977
 20
-86.2279
 30
0.0
 10
153.6977
 20
-86.2279
 30
0.0
  0
SPLINE
  5
8D
330
1F
100
AcDbEntity
  8
layer 1
 62
     7
370
     9
100
AcDbSpline
210
0.0
220
0.0
230
1.0
 70
    11
 71
     3
 72
    16
 73
    12
 74
     0
 42
0.0000000001
 43
0.0000000001
 12
1.0
 22
0.0
 32
0.0
 13
1.0
 23
0.0
 33
0.0
 40
0.0
 40
0.0
 40
0.0
 40
0.0
 40
0.25
 40
0.25
 40
0.25
 40
0.25
 40
0.5
 40
0.5
 40
0.5
 40
0.5
 40
1.0
 40
1.0
 40
1.0
 40
1.0
 10
143.1283
 20
112.2404
 30
0.0
 10
144.6395
 20
111.6911
 30
0.0
 10
146.4728
 20
111.28
 30
0.0
 10
148.0379
 20
111.6692
 30
0.0
 10
148.0379
 20
111.6692
 30
0.0
 10
148.0379
 20
111.6692
 30
0.0
 10
148.7416
 20
111.9493
 30
0.0
 10
149.6267
 20
112.2404
 30
0.0
 10
149.6267
 20
112.2404
 30
0.0
 10
149.6267
 20
112.2404
 30
0.0
 10
143.1283
 20
112.2404
 30
0.0
 10
143.1283
 20
112.2404
 30
0.0
  0
SPLINE
  5
8E
330
1F
100
AcDbEntity
  8
layer 1
 62
     7
370
     9
100
AcDbSpline
210
0.0
220
0.0
230
1.0
 70
    11
 71
     3
 72
    24
 73
    20
 74
     0
 42
0.0000000001
 43
0.0000000001
 12
1.0
 22
0.0
 32
0.0
 13
1.0
 23
0.0
 33
0.0
 40
0.0
 40
0.0
 40
0.0
 40
0.0
 40
0.1666666666666667
 40
0.1666666666666667
 40
0.1666666666666667
 40
0.1666666666666667
 40
0.3333333333333333
 40
0.3333333333333333
 40
0.3333333333333333
 40
0.3333333333333333
 40
0.5
 40
0.5
 40
0.5
 40
0.5
 40
0.6666666666666666
 40
0.6666666666666666
 40
0.6666666666666666
 40
0.6666666666666666
 40
1.0
 40
1.0
 40
1.0
 40
1.0
 10
152.9282
 20
112.2404
 30
0.0
 10
151.8836
 20
111.1036
 30
0.0
 10
150.7116
 20
109.4814
 30
0.0
 10
151.4328
 20
108.521
 30
0.0
 10
151.4328
 20
108.521
 30
0.0
 10
151.4328
 20
108.521
 30
0.0
 10
152.2429
 20
105.3727
 30
0.0
 10
156.4091
 20
106.6624
 30
0.0
 10
156.4091
 20
106.6624
 30
0.0
 10
156.4091
 20
106.6624
 30
0.0
 10
156.5632
 20
107.5727
 30
0.0
 10
155.0589
 20
109.1657
 30
0.0
 10
155.0589
 20
109.1657
 30
0.0
 10
155.0589
 20
109.1657
 30
0.0
 10
154.3614
 20
110.26
 30
0.0
 10
154.8514
 20
112.2404
 30
0.0
 10
154.8514
 20
112.2404
 30
0.0
 10
154.8514
 20
112.2404
 30
0.0
 10
152.9282
 20
112.2404
 30
0.0
 10
152.9282
 20
112.2404
 30
0.0
  0
SPLINE
  5
8F
330
1F
100
AcDbEntity
  8
layer 1
 62
     7
370
     9
100
AcDbSpline
210
0.0
220
0.0
230
1.0
 70
    11
 71
     3
 72
    16
 73
    12
 74
     0
 42
0.0000000001
 43
0.0000000001
 12
1.0
 22
0.0
 32
0.0
 13
1.0
 23
0.0
 33
0.0
 40
0.0
 40
0.0
 40
0.0
 40
0.0
 40
0.25
 40
0.25
 40
0.25
 40
0.25
 40
0.5
 40
0.5
 40
0.5
 40
0.5
 40
1.0
 40
1.0
 40
1.0
 40
1.0
 10
102.2537
 20
-45.3254
 30
0.0
 10
102.8297
 20
-45.9518
 30
0.0
 10
103.6478
 20
-47.127
 30
0.0
 10
103.5129
 20
-48.6515
 30
0.0
 10
103.5129
 20
-48.6515
 30
0.0
 10
103.5129
 20
-48.6515
 30
0.0
 10
103.5598
 20
-51.0602
 30
0.0
 10
102.2537
 20
-53.6127
 30
0.0
 10
102.2537
 20
-53.6127
 30
0.0
 10
102.2537
 20
-53.6127
 30
0.0
 10
102.2537
 20
-45.3254
 30
0.0
 10
102.2537
 20
-45.3254
 30
0.0
  0
SPLINE
  5
90
330
1F
100
AcDbEntity
  8
layer 1
 62
     7
370
     9
100
AcDbSpline
210
0.0
220
0.0
230
1.0
 70
    11
 71
     3
 72
    48
 73
    44
 74
     0
 42
0.0000000001
 43
0.0000000001
 12
1.0
 22
0.0
 32
0.0
 13
1.0
 23
0.0
 33
0.0
 40
0.0
 40
0.0
 40
0.0
 40
0.0
 40
0.0833333333333333
 40
0.0833333333333333
 40
0.0833333333333333
 40
0.0833333333333333
 40
0.1666666666666667
 40
0.1666666666666667
 40
0.1666666666666667
 40
0.1666666666666667
 40
0.25
 40
0.25
 40
0.25
 40
0.25
 40
0.3333333333333333
 40
0.3333333333333333
 40
0.3333333333333333
 40
0.3333333333333333
 40
0.4166666666666667
 40
0.4166666666666667
 40
0.4166666666666667
 40
0.4166666666666667
 40
0.5
 40
0.5
 40
0.5
 40
0.5
 40
0.5833333333333334
 40
0.5833333333333334
 40
0.5833333333333334
 40
0.5833333333333334
 40
0.6666666666666666
 40
0.6666666666666666
 40
0.6666666666666666
 40
0.6666666666666666
 40
0.75
 40
0.75
 40
0.75
 40
0.75
 40
0.8333333333333334
 40
0.8333333333333334
 40
0.8333333333333334
 40
0.8333333333333334
 40
1.0
 40
1.0
 40
1.0
 40
1.0
 10
102.2537
 20
-53.867
 30
0.0
 10
102.9595
 20
-53.5608
 30
0.0
 10
105.581
 20
-52.3662
 30
0.0
 10
106.0239
 20
-51.3217
 30
0.0
 10
106.0239
 20
-51.3217
 30
0.0
 10
106.0239
 20
-51.3217
 30
0.0
 10
108.9445
 20
-49.3063
 30
0.0
 10
113.1975
 20
-50.0622
 30
0.0
 10
113.1975
 20
-50.0622
 30
0.0
 10
113.1975
 20
-50.0622
 30
0.0
 10
118.4239
 20
-50.8178
 30
0.0
 10
118.2191
 20
-56.9646
 30
0.0
 10
118.2191
 20
-56.9646
 30
0.0
 10
118.2191
 20
-56.9646
 30
0.0
 10
117.2967
 20
-60.1386
 30
0.0
 10
113.3513
 20
-58.3752
 30
0.0
 10
113.3513
 20
-58.3752
 30
0.0
 10
113.3513
 20
-58.3752
 30
0.0
 10
111.7116
 20
-57.015
 30
0.0
 10
113.3513
 20
-55.4027
 30
0.0
 10
113.3513
 20
-55.4027
 30
0.0
 10
113.3513
 20
-55.4027
 30
0.0
 10
114.0687
 20
-53.4378
 30
0.0
 10
109.7644
 20
-52.7323
 30
0.0
 10
109.7644
 20
-52.7323
 30
0.0
 10
109.7644
 20
-52.7323
 30
0.0
 10
105.6652
 20
-52.9339
 30
0.0
 10
104.5889
 20
-53.7905
 30
0.0
 10
104.5889
 20
-53.7905
 30
0.0
 10
104.5889
 20
-53.7905
 30
0.0
 10
108.6371
 20
-53.0347
 30
0.0
 10
108.4833
 20
-56.763
 30
0.0
 10
108.4833
 20
-56.763
 30
0.0
 10
108.4833
 20
-56.763
 30
0.0
 10
108.8932
 20
-60.3402
 30
0.0
 10
106.8948
 20
-60.1386
 30
0.0
 10
106.8948
 20
-60.1386
 30
0.0
 10
106.8948
 20
-60.1386
 30
0.0
 10
105.4663
 20
-57.1798
 30
0.0
 10
102.2537
 20
-57.5165
 30
0.0
 10
102.2537
 20
-57.5165
 30
0.0
 10
102.2537
 20
-57.5165
 30
0.0
 10
102.2537
 20
-53.867
 30
0.0
 10
102.2537
 20
-53.867
 30
0.0
  0
SPLINE
  5
91
330
1F
100
AcDbEntity
  8
layer 1
 62
     7
370
     9
100
AcDbSpline
210
0.0
220
0.0
230
1.0
 70
    11
 71
     3
 72
    16
 73
    12
 74
     0
 42
0.0000000001
 43
0.0000000001
 12
1.0
 22
0.0
 32
0.0
 13
1.0
 23
0.0
 33
0.0
 40
0.0
 40
0.0
 40
0.0
 40
0.0
 40
0.25
 40
0.25
 40
0.25
 40
0.25
 40
0.5
 40
0.5
 40
0.5
 40
0.5
 40
1.0
 40
1.0
 40
1.0
 40
1.0
 10
102.2537
 20
72.4771
 30
0.0
 10
102.6352
 20
73.1144
 30
0.0
 10
102.9397
 20
73.9476
 30
0.0
 10
102.8534
 20
74.924
 30
0.0
 10
102.8534
 20
74.924
 30
0.0
 10
102.8534
 20
74.924
 30
0.0
 10
102.8824
 20
76.423
 30
0.0
 10
102.2537
 20
78.3091
 30
0.0
 10
102.2537
 20
78.3091
 30
0.0
 10
102.2537
 20
78.3091
 30
0.0
 10
102.2537
 20
72.4771
 30
0.0
 10
102.2537
 20
72.4771
 30
0.0
  0
SPLINE
  5
92
330
1F
100
AcDbEntity
  8
layer 1
 62
     7
370
     9
100
AcDbSpline
210
0.0
220
0.0
230
1.0
 70
    11
 71
     3
 72
    48
 73
    44
 74
     0
 42
0.0000000001
 43
0.0000000001
 12
1.0
 22
0.0
 32
0.0
 13
1.0
 23
0.0
 33
0.0
 40
0.0
 40
0.0
 40
0.0
 40
0.0
 40
0.0833333333333333
 40
0.0833333333333333
 40
0.0833333333333333
 40
0.0833333333333333
 40
0.1666666666666667
 40
0.1666666666666667
 40
0.1666666666666667
 40
0.1666666666666667
 40
0.25
 40
0.25
 40
0.25
 40
0.25
 40
0.3333333333333333
 40
0.3333333333333333
 40
0.3333333333333333
 40
0.3333333333333333
 40
0.4166666666666667
 40
0.4166666666666667
 40
0.4166666666666667
 40
0.4166666666666667
 40
0.5
 40
0.5
 40
0.5
 40
0.5
 40
0.5833333333333334
 40
0.5833333333333334
 40
0.5833333333333334
 40
0.5833333333333334
 40
0.6666666666666666
 40
0.6666666666666666
 40
0.6666666666666666
 40
0.6666666666666666
 40
0.75
 40
0.75
 40
0.75
 40
0.75
 40
0.8333333333333334
 40
0.8333333333333334
 40
0.8333333333333334
 40
0.8333333333333334
 40
1.0
 40
1.0
 40
1.0
 40
1.0
 10
102.2537
 20
79.8389
 30
0.0
 10
103.3042
 20
79.3386
 30
0.0
 10
105.0146
 20
78.4194
 30
0.0
 10
105.3641
 20
77.5942
 30
0.0
 10
105.3641
 20
77.5942
 30
0.0
 10
105.3641
 20
77.5942
 30
0.0
 10
108.285
 20
75.5788
 30
0.0
 10
112.538
 20
76.3347
 30
0.0
 10
112.538
 20
76.3347
 30
0.0
 10
112.538
 20
76.3347
 30
0.0
 10
117.7644
 20
77.0903
 30
0.0
 10
117.5596
 20
83.2371
 30
0.0
 10
117.5596
 20
83.2371
 30
0.0
 10
117.5596
 20
83.2371
 30
0.0
 10
116.6371
 20
86.4111
 30
0.0
 10
112.6915
 20
84.6477
 30
0.0
 10
112.6915
 20
84.6477
 30
0.0
 10
112.6915
 20
84.6477
 30
0.0
 10
111.052
 20
83.2875
 30
0.0
 10
112.6915
 20
81.6753
 30
0.0
 10
112.6915
 20
81.6753
 30
0.0
 10
112.6915
 20
81.6753
 30
0.0
 10
113.4088
 20
79.7103
 30
0.0
 10
109.1049
 20
79.0048
 30
0.0
 10
109.1049
 20
79.0048
 30
0.0
 10
109.1049
 20
79.0048
 30
0.0
 10
105.0054
 20
79.2064
 30
0.0
 10
103.9294
 20
80.0627
 30
0.0
 10
103.9294
 20
80.0627
 30
0.0
 10
103.9294
 20
80.0627
 30
0.0
 10
107.9776
 20
79.3072
 30
0.0
 10
107.8237
 20
83.0355
 30
0.0
 10
107.8237
 20
83.0355
 30
0.0
 10
107.8237
 20
83.0355
 30
0.0
 10
108.2337
 20
86.6127
 30
0.0
 10
106.2352
 20
86.4111
 30
0.0
 10
106.2352
 20
86.4111
 30
0.0
 10
106.2352
 20
86.4111
 30
0.0
 10
105.003
 20
83.859
 30
0.0
 10
102.2537
 20
83.7653
 30
0.0
 10
102.2537
 20
83.7653
 30
0.0
 10
102.2537
 20
83.7653
 30
0.0
 10
102.2537
 20
79.8389
 30
0.0
 10
102.2537
 20
79.8389
 30
0.0
  0
ENDSEC
  0
SECTION
  2
OBJECTS
  0
DICTIONARY
  5
C
330
0
100
AcDbDictionary
281
     1
  3
ACAD_GROUP
350
D
  3
ACAD_LAYOUT
350
1A
  3
ACAD_MATERIAL
350
3B
  3
ACAD_MLEADERSTYLE
350
B5
  3
ACAD_MLINESTYLE
350
17
  3
ACAD_PLOTSETTINGS
350
19
  3
ACAD_PLOTSTYLENAME
350
E
  3
ACAD_TABLESTYLE
350
B4
  3
ACAD_VISUALSTYLE
350
2A
  0
DICTIONARY
  5
D
102
{ACAD_REACTORS
330
C
102
}
330
C
100
AcDbDictionary
281
     1
  0
DICTIONARY
  5
1A
102
{ACAD_REACTORS
330
C
102
}
330
C
100
AcDbDictionary
281
     1
  3
Layout1
350
1E
  3
Layout2
350
26
  3
Model
350
22
  0
DICTIONARY
  5
3B
102
{ACAD_REACTORS
330
C
102
}
330
C
100
AcDbDictionary
281
     1
  3
ByBlock
350
3D
  3
ByLayer
350
3C
  3
Global
350
3E
  0
DICTIONARY
  5
B5
102
{ACAD_REACTORS
330
C
102
}
330
C
100
AcDbDictionary
281
     1
  0
DICTIONARY
  5
17
102
{ACAD_REACTORS
330
C
102
}
330
C
100
AcDbDictionary
281
     1
  3
Standard
350
18
  0
DICTIONARY
  5
19
102
{ACAD_REACTORS
330
C
102
}
330
C
100
AcDbDictionary
281
     1
  0
ACDBDICTIONARYWDFLT
  5
E
102
{ACAD_REACTORS
330
C
102
}
330
C
100
AcDbDictionary
281
     1
  3
Normal
350
F
100
AcDbDictionaryWithDefault
340
F
  0
DICTIONARY
  5
B4
102
{ACAD_REACTORS
330
C
102
}
330
C
100
AcDbDictionary
281
     1
  0
DICTIONARY
  5
2A
102
{ACAD_REACTORS
330
C
102
}
330
C
100
AcDbDictionary
281
     1
  3
2dWireframe
350
2F
  3
3D Hidden
350
31
  3
3dWireframe
350
30
  3
Basic
350
32
  3
Brighten
350
36
  3
ColorChange
350
3A
  3
Conceptual
350
34
  3
Dim
350
35
  3
Facepattern
350
39
  3
Flat
350
2B
  3
FlatWithEdges
350
2C
  3
Gouraud
350
2D
  3
GouraudWithEdges
350
2E
  3
Linepattern
350
38
  3
Realistic
350
33
  3
Thicken
350
37
  0
LAYOUT
  5
1E
102
{ACAD_REACTORS
330
1A
102
}
330
1A
100
AcDbPlotSettings
  1

  2
none_device
  4

  6

 40
0.0
 41
0.0
 42
0.0
 43
0.0
 44
0.0
 45
0.0
 46
0.0
 47
0.0
 48
0.0
 49
0.0
140
0.0
141
0.0
142
1.0
143
1.0
 70
   688
 72
     0
 73
     0
 74
     5
  7

 75
    16
 76
     0
 77
     2
 78
   300
147
1.0
148
0.0
149
0.0
100
AcDbLayout
  1
Layout1
 70
     1
 71
     1
 10
0.0
 20
0.0
 11
12.0
 21
9.0
 12
0.0
 22
0.0
 32
0.0
 14
1.000000000000000E+20
 24
1.000000000000000E+20
 34
1.000000000000000E+20
 15
-1.000000000000000E+20
 25
-1.000000000000000E+20
 35
-1.000000000000000E+20
146
0.0
 13
0.0
 23
0.0
 33
0.0
 16
1.0
 26
0.0
 36
0.0
 17
0.0
 27
1.0
 37
0.0
 76
     0
330
1B
  0
LAYOUT
  5
26
102
{ACAD_REACTORS
330
1A
102
}
330
1A
100
AcDbPlotSettings
  1

  2
none_device
  4

  6

 40
0.0
 41
0.0
 42
0.0
 43
0.0
 44
0.0
 45
0.0
 46
0.0
 47
0.0
 48
0.0
 49
0.0
140
0.0
141
0.0
142
1.0
143
1.0
 70
   688
 72
     0
 73
     0
 74
     5
  7

 75
    16
 76
     0
 77
     2
 78
   300
147
1.0
148
0.0
149
0.0
100
AcDbLayout
  1
Layout2
 70
     1
 71
     2
 10
0.0
 20
0.0
 11
0.0
 21
0.0
 12
0.0
 22
0.0
 32
0.0
 14
0.0
 24
0.0
 34
0.0
 15
0.0
 25
0.0
 35
0.0
146
0.0
 13
0.0
 23
0.0
 33
0.0
 16
1.0
 26
0.0
 36
0.0
 17
0.0
 27
1.0
 37
0.0
 76
     0
330
23
  0
LAYOUT
  5
22
102
{ACAD_REACTORS
330
1A
102
}
330
1A
100
AcDbPlotSettings
  1

  2
none_device
  4

  6

 40
0.0
 41
0.0
 42
0.0
 43
0.0
 44
0.0
 45
0.0
 46
0.0
 47
0.0
 48
0.0
 49
0.0
140
0.0
141
0.0
142
1.0
143
1.0
 70
  1712
 72
     0
 73
     0
 74
     0
  7

 75
     0
 76
     0
 77
     2
 78
   300
147
1.0
148
0.0
149
0.0
100
AcDbLayout
  1
Model
 70
     1
 71
     0
 10
0.0
 20
0.0
 11
12.0
 21
9.0
 12
0.0
 22
0.0
 32
0.0
 14
99.5973
 24
-91.4958
 34
0.0
 15
225.0357
 25
117.5083
 35
0.0
146
0.0
 13
0.0
 23
0.0
 33
0.0
 16
1.0
 26
0.0
 36
0.0
 17
0.0
 27
1.0
 37
0.0
 76
     0
330
1F
331
29
  0
MATERIAL
  5
3D
102
{ACAD_REACTORS
330
3B
102
}
330
3B
100
AcDbMaterial
  1
ByBlock
 72
     1
 94
      127
  0
MATERIAL
  5
3C
102
{ACAD_REACTORS
330
3B
102
}
330
3B
100
AcDbMaterial
  1
ByLayer
 72
     1
 94
      127
  0
MATERIAL
  5
3E
102
{ACAD_REACTORS
330
3B
102
}
330
3B
100
AcDbMaterial
  1
Global
 72
     1
 94
      127
  0
MLINESTYLE
  5
18
102
{ACAD_REACTORS
330
17
102
}
330
17
100
AcDbMlineStyle
  2
Standard
 70
     0
  3

 62
   256
 51
90.0
 52
90.0
 71
     2
 49
0.5
 62
   256
  6
BYLAYER
 49
-0.5
 62
   256
  6
BYLAYER
  0
ACDBPLACEHOLDER
  5
F
102
{ACAD_REACTORS
330
E
102
}
330
E
  0
VISUALSTYLE
  5
2F
102
{ACAD_REACTORS
330
2A
102
}
102
{ACAD_XDICTIONARY
360
9C
102
}
330
2A
100
AcDbVisualStyle
  2
2dWireframe
 70
     4
 71
     0
 72
     2
 73
     0
 90
        0
 40
-0.6
 41
-30.0
 62
     5
 63
     7
421
 16777215
 74
     1
 91
        4
 64
     7
 65
   257
 75
     1
175
     1
 42
1.0
 92
        0
 66
   257
 43
1.0
 76
     1
 77
     6
 78
     2
 67
     7
 79
     5
170
     0
171
     0
290
     0
174
     0
 93
        1
 44
0.0
173
     0
291
     0
 45
0.0
  0
VISUALSTYLE
  5
31
102
{ACAD_REACTORS
330
2A
102
}
102
{ACAD_XDICTIONARY
360
A0
102
}
330
2A
100
AcDbVisualStyle
  2
3D Hidden
 70
     6
 71
     1
 72
     2
 73
     2
 90
        0
 40
-0.6
 41
-30.0
 62
     5
 63
     7
421
 16777215
 74
     2
 91
        2
 64
     7
 65
   257
 75
     2
175
     1
 42
40.0
 92
        0
 66
   257
 43
1.0
 76
     1
 77
     6
 78
     2
 67
     7
 79
     3
170
     0
171
     0
290
     0
174
     0
 93
        1
 44
0.0
173
     0
291
     0
 45
0.0
  0
VISUALSTYLE
  5
30
102
{ACAD_REACTORS
330
2A
102
}
102
{ACAD_XDICTIONARY
360
9E
102
}
330
2A
100
AcDbVisualStyle
  2
3dWireframe
 70
     5
 71
     0
 72
     2
 73
     0
 90
        0
 40
-0.6
 41
-30.0
 62
     5
 63
     7
421
 16777215
 74
     1
 91
        4
 64
     7
 65
   257
 75
     1
175
     1
 42
1.0
 92
        0
 66
   257
 43
1.0
 76
     1
 77
     6
 78
     2
 67
     7
 79
     5
170
     0
171
     0
290
     0
174
     0
 93
        1
 44
0.0
173
     0
291
     0
 45
0.0
  0
VISUALSTYLE
  5
32
102
{ACAD_REACTORS
330
2A
102
}
102
{ACAD_XDICTIONARY
360
A2
102
}
330
2A
100
AcDbVisualStyle
  2
Basic
 70
     7
 71
     1
 72
     0
 73
     1
 90
        0
 40
-0.6
 41
-30.0
 62
     5
 63
     7
421
 16777215
 74
     0
 91
        4
 64
     7
 65
   257
 75
     1
175
     1
 42
1.0
 92
        8
 66
     7
 43
1.0
 76
     1
 77
     6
 78
     2
 67
     7
 79
     5
170
     0
171
     0
290
     0
174
     0
 93
        1
 44
0.0
173
     0
291
     1
 45
0.0
  0
VISUALSTYLE
  5
36
102
{ACAD_REACTORS
330
2A
102
}
102
{ACAD_XDICTIONARY
360
AA
102
}
330
2A
100
AcDbVisualStyle
  2
Brighten
 70
    12
 71
     2
 72
     2
 73
     0
 90
        0
 40
-0.6
 41
-30.0
 62
     5
 63
     7
421
 16777215
 74
     1
 91
        4
 64
     7
 65
   257
 75
     1
175
     1
 42
1.0
 92
        8
 66
     7
 43
1.0
 76
     1
 77
     6
 78
     2
 67
     7
 79
     5
170
     0
171
     0
290
     0
174
     0
 93
        1
 44
50.0
173
     0
291
     1
 45
0.0
  0
VISUALSTYLE
  5
3A
102
{ACAD_REACTORS
330
2A
102
}
102
{ACAD_XDICTIONARY
360
B2
102
}
330
2A
100
AcDbVisualStyle
  2
ColorChange
 70
    16
 71
     2
 72
     2
 73
     3
 90
        0
 40
-0.6
 41
-30.0
 62
     5
 63
     8
421
  8421504
 74
     1
 91
        4
 64
     7
 65
   257
 75
     1
175
     1
 42
1.0
 92
        8
 66
     8
424
  8421504
 43
1.0
 76
     1
 77
     6
 78
     2
 67
     7
 79
     5
170
     0
171
     0
290
     0
174
     0
 93
        1
 44
0.0
173
     0
291
     1
 45
0.0
  0
VISUALSTYLE
  5
34
102
{ACAD_REACTORS
330
2A
102
}
102
{ACAD_XDICTIONARY
360
A6
102
}
330
2A
100
AcDbVisualStyle
  2
Conceptual
 70
     9
 71
     3
 72
     2
 73
     0
 90
        0
 40
-0.6
 41
-30.0
 62
     5
 63
     7
421
 16777215
 74
     2
 91
        2
 64
     7
 65
   257
 75
     1
175
     1
 42
40.0
 92
        8
 66
     7
 43
1.0
 76
     1
 77
     6
 78
     2
 67
     7
 79
     3
170
     0
171
     0
290
     0
174
     0
 93
        1
 44
0.0
173
     0
291
     0
 45
0.0
  0
VISUALSTYLE
  5
35
102
{ACAD_REACTORS
330
2A
102
}
102
{ACAD_XDICTIONARY
360
A8
102
}
330
2A
100
AcDbVisualStyle
  2
Dim
 70
    11
 71
     2
 72
     2
 73
     0
 90
        0
 40
-0.6
 41
-30.0
 62
     5
 63
     7
421
 16777215
 74
     1
 91
        4
 64
     7
 65
   257
 75
     1
175
     1
 42
1.0
 92
        8
 66
     7
 43
1.0
 76
     1
 77
     6
 78
     2
 67
     7
 79
     5
170
     0
171
     0
290
     0
174
     0
 93
        1
 44
-50.0
173
     0
291
     1
 45
0.0
  0
VISUALSTYLE
  5
39
102
{ACAD_REACTORS
330
2A
102
}
102
{ACAD_XDICTIONARY
360
B0
102
}
330
2A
100
AcDbVisualStyle
  2
Facepattern
 70
    15
 71
     2
 72
     2
 73
     0
 90
        0
 40
-0.6
 41
-30.0
 62
     5
 63
     7
421
 16777215
 74
     1
 91
        4
 64
     7
 65
   257
 75
     1
175
     1
 42
1.0
 92
        8
 66
     7
 43
1.0
 76
     1
 77
     6
 78
     2
 67
     7
 79
     5
170
     0
171
     0
290
     0
174
     0
 93
        1
 44
0.0
173
     0
291
     1
 45
0.0
  0
VISUALSTYLE
  5
2B
102
{ACAD_REACTORS
330
2A
102
}
102
{ACAD_XDICTIONARY
360
94
102
}
330
2A
100
AcDbVisualStyle
  2
Flat
 70
     0
 71
     2
 72
     1
 73
     1
 90
        2
 40
-0.6
 41
30.0
 62
     5
 63
     7
421
 16777215
 74
     0
 91
        4
 64
     7
 65
   257
 75
     1
175
     1
 42
1.0
 92
        8
 66
     7
 43
1.0
 76
     1
 77
     6
 78
     2
 67
     7
 79
     5
170
     0
171
     0
290
     0
174
     0
 93
       13
 44
0.0
173
     0
291
     1
 45
0.0
  0
VISUALSTYLE
  5
2C
102
{ACAD_REACTORS
330
2A
102
}
102
{ACAD_XDICTIONARY
360
96
102
}
330
2A
100
AcDbVisualStyle
  2
FlatWithEdges
 70
     1
 71
     2
 72
     1
 73
     1
 90
        2
 40
-0.6
 41
30.0
 62
     5
 63
     7
421
 16777215
 74
     1
 91
        4
 64
     7
 65
   257
 75
     1
175
     1
 42
1.0
 92
        0
 66
   257
 43
1.0
 76
     1
 77
     6
 78
     2
 67
     7
 79
     5
170
     0
171
     0
290
     0
174
     0
 93
       13
 44
0.0
173
     0
291
     1
 45
0.0
  0
VISUALSTYLE
  5
2D
102
{ACAD_REACTORS
330
2A
102
}
102
{ACAD_XDICTIONARY
360
98
102
}
330
2A
100
AcDbVisualStyle
  2
Gouraud
 70
     2
 71
     2
 72
     2
 73
     1
 90
        2
 40
-0.6
 41
30.0
 62
     5
 63
     7
421
 16777215
 74
     0
 91
        4
 64
     7
 65
   257
 75
     1
175
     1
 42
1.0
 92
        0
 66
     7
 43
1.0
 76
     1
 77
     6
 78
     2
 67
     7
 79
     5
170
     0
171
     0
290
     0
174
     0
 93
       13
 44
0.0
173
     0
291
     1
 45
0.0
  0
VISUALSTYLE
  5
2E
102
{ACAD_REACTORS
330
2A
102
}
102
{ACAD_XDICTIONARY
360
9A
102
}
330
2A
100
AcDbVisualStyle
  2
GouraudWithEdges
 70
     3
 71
     2
 72
     2
 73
     1
 90
        2
 40
-0.6
 41
30.0
 62
     5
 63
     7
421
 16777215
 74
     1
 91
        4
 64
     7
 65
   257
 75
     1
175
     1
 42
1.0
 92
        0
 66
   257
 43
1.0
 76
     1
 77
     6
 78
     2
 67
     7
 79
     5
170
     0
171
     0
290
     0
174
     0
 93
       13
 44
0.0
173
     0
291
     1
 45
0.0
  0
VISUALSTYLE
  5
38
102
{ACAD_REACTORS
330
2A
102
}
102
{ACAD_XDICTIONARY
360
AE
102
}
330
2A
100
AcDbVisualStyle
  2
Linepattern
 70
    14
 71
     2
 72
     2
 73
     0
 90
        0
 40
-0.6
 41
-30.0
 62
     5
 63
     7
421
 16777215
 74
     1
 91
        4
 64
     7
 65
   257
 75
     7
175
     7
 42
1.0
 92
        8
 66
     7
 43
1.0
 76
     1
 77
     6
 78
     2
 67
     7
 79
     5
170
     0
171
     0
290
     0
174
     0
 93
        1
 44
0.0
173
     0
291
     1
 45
0.0
  0
VISUALSTYLE
  5
33
102
{ACAD_REACTORS
330
2A
102
}
102
{ACAD_XDICTIONARY
360
A4
102
}
330
2A
100
AcDbVisualStyle
  2
Realistic
 70
     8
 71
     2
 72
     2
 73
     0
 90
        0
 40
-0.6
 41
-30.0
 62
     5
 63
     7
421
 16777215
 74
     1
 91
        0
 64
     7
 65
   257
 75
     1
175
     1
 42
1.0
 92
        8
 66
     8
424
  7895160
 43
1.0
 76
     1
 77
     6
 78
     2
 67
     7
 79
     5
170
     0
171
     0
290
     0
174
     0
 93
       13
 44
0.0
173
     0
291
     0
 45
0.0
  0
VISUALSTYLE
  5
37
102
{ACAD_REACTORS
330
2A
102
}
102
{ACAD_XDICTIONARY
360
AC
102
}
330
2A
100
AcDbVisualStyle
  2
Thicken
 70
    13
 71
     2
 72
     2
 73
     0
 90
        0
 40
-0.6
 41
-30.0
 62
     5
 63
     7
421
 16777215
 74
     1
 91
        4
 64
     7
 65
   257
 75
     1
175
     1
 42
1.0
 92
       12
 66
     7
 43
1.0
 76
     1
 77
     6
 78
     2
 67
     7
 79
     5
170
     0
171
     0
290
     0
174
     0
 93
        1
 44
0.0
173
     0
291
     1
 45
0.0
  0
DICTIONARY
  5
9C
330
2F
100
AcDbDictionary
280
     1
281
     1
  3
ACAD_XREC_ROUNDTRIP
360
9D
  0
DICTIONARY
  5
A0
330
31
100
AcDbDictionary
280
     1
281
     1
  3
ACAD_XREC_ROUNDTRIP
360
A1
  0
DICTIONARY
  5
9E
330
30
100
AcDbDictionary
280
     1
281
     1
  3
ACAD_XREC_ROUNDTRIP
360
9F
  0
DICTIONARY
  5
A2
330
32
100
AcDbDictionary
280
     1
281
     1
  3
ACAD_XREC_ROUNDTRIP
360
A3
  0
DICTIONARY
  5
AA
330
36
100
AcDbDictionary
280
     1
281
     1
  3
ACAD_XREC_ROUNDTRIP
360
AB
  0
DICTIONARY
  5
B2
330
3A
100
AcDbDictionary
280
     1
281
     1
  3
ACAD_XREC_ROUNDTRIP
360
B3
  0
DICTIONARY
  5
A6
330
34
100
AcDbDictionary
280
     1
281
     1
  3
ACAD_XREC_ROUNDTRIP
360
A7
  0
DICTIONARY
  5
A8
330
35
100
AcDbDictionary
280
     1
281
     1
  3
ACAD_XREC_ROUNDTRIP
360
A9
  0
DICTIONARY
  5
B0
330
39
100
AcDbDictionary
280
     1
281
     1
  3
ACAD_XREC_ROUNDTRIP
360
B1
  0
DICTIONARY
  5
94
330
2B
100
AcDbDictionary
280
     1
281
     1
  3
ACAD_XREC_ROUNDTRIP
360
95
  0
DICTIONARY
  5
96
330
2C
100
AcDbDictionary
280
     1
281
     1
  3
ACAD_XREC_ROUNDTRIP
360
97
  0
DICTIONARY
  5
98
330
2D
100
AcDbDictionary
280
     1
281
     1
  3
ACAD_XREC_ROUNDTRIP
360
99
  0
DICTIONARY
  5
9A
330
2E
100
AcDbDictionary
280
     1
281
     1
  3
ACAD_XREC_ROUNDTRIP
360
9B
  0
DICTIONARY
  5
AE
330
38
100
AcDbDictionary
280
     1
281
     1
  3
ACAD_XREC_ROUNDTRIP
360
AF
  0
DICTIONARY
  5
A4
330
33
100
AcDbDictionary
280
     1
281
     1
  3
ACAD_XREC_ROUNDTRIP
360
A5
  0
DICTIONARY
  5
AC
330
37
100
AcDbDictionary
280
     1
281
     1
  3
ACAD_XREC_ROUNDTRIP
360
AD
  0
XRECORD
  5
9D
102
{ACAD_REACTORS
330
9C
102
}
330
9C
100
AcDbXrecord
280
     1
102
RTVSPropertyOp0
 70
     1
102
RTVSPropertyOp1
 70
     1
102
RTVSPropertyOp2
 70
     1
102
RTVSPropertyOp3
 70
     1
102
RTVSPropertyOp4
 70
     1
102
RTVSPropertyOp5
 70
     1
102
RTVSPropertyOp6
 70
     1
102
RTVSPropertyOp7
 70
     1
102
RTVSPropertyOp8
 70
     1
102
RTVSPropertyOp9
 70
     1
102
RTVSPropertyOp10
 70
     1
102
RTVSPropertyOp11
 70
     1
102
RTVSPropertyOp12
 70
     1
102
RTVSPropertyOp13
 70
     1
102
RTVSPropertyOp14
 70
     1
102
RTVSPropertyOp15
 70
     1
102
RTVSPropertyOp16
 70
     1
102
RTVSPropertyOp17
 70
     1
102
RTVSPropertyOp18
 70
     1
102
RTVSPropertyOp19
 70
     1
102
RTVSPropertyOp20
 70
     1
102
RTVSPropertyOp21
 70
     1
102
RTVSPropertyOp22
 70
     1
102
RTVSPropertyOp23
 70
     1
102
RTVSPropertyOp24
 70
     1
102
RTVSPropertyOp25
 70
     1
102
RTVSPropertyOp26
 70
     1
102
RTVSPropertyOp27
 70
     1
102
RTVSPropertyOp28
 70
     1
102
RTVSPropertyOp29
 70
     1
102
RTVSPropertyOp30
 70
     1
102
RTVSPropertyOp31
 70
     1
102
RTVSPropertyOp32
 70
     1
  0
XRECORD
  5
A1
102
{ACAD_REACTORS
330
A0
102
}
330
A0
100
AcDbXrecord
280
     1
102
RTVSPropertyOp0
 70
     1
102
RTVSPropertyOp1
 70
     1
102
RTVSPropertyOp2
 70
     1
102
RTVSPropertyOp3
 70
     1
102
RTVSPropertyOp4
 70
     1
102
RTVSPropertyOp5
 70
     1
102
RTVSPropertyOp6
 70
     1
102
RTVSPropertyOp7
 70
     1
102
RTVSPropertyOp8
 70
     1
102
RTVSPropertyOp9
 70
     1
102
RTVSPropertyOp10
 70
     1
102
RTVSPropertyOp11
 70
     1
102
RTVSPropertyOp12
 70
     1
102
RTVSPropertyOp13
 70
     1
102
RTVSPropertyOp14
 70
     1
102
RTVSPropertyOp15
 70
     1
102
RTVSPropertyOp16
 70
     1
102
RTVSPropertyOp17
 70
     1
102
RTVSPropertyOp18
 70
     1
102
RTVSPropertyOp19
 70
     1
102
RTVSPropertyOp20
 70
     1
102
RTVSPropertyOp21
 70
     1
102
RTVSPropertyOp22
 70
     1
102
RTVSPropertyOp23
 70
     1
102
RTVSPropertyOp24
 70
     1
102
RTVSPropertyOp25
 70
     1
102
RTVSPropertyOp26
 70
     1
102
RTVSPropertyOp27
 70
     1
102
RTVSPropertyOp28
 70
     1
102
RTVSPropertyOp29
 70
     1
102
RTVSPropertyOp30
 70
     1
102
RTVSPropertyOp31
 70
     1
102
RTVSPropertyOp32
 70
     1
  0
XRECORD
  5
9F
102
{ACAD_REACTORS
330
9E
102
}
330
9E
100
AcDbXrecord
280
     1
102
RTVSPropertyOp0
 70
     1
102
RTVSPropertyOp1
 70
     1
102
RTVSPropertyOp2
 70
     1
102
RTVSPropertyOp3
 70
     1
102
RTVSPropertyOp4
 70
     1
102
RTVSPropertyOp5
 70
     1
102
RTVSPropertyOp6
 70
     1
102
RTVSPropertyOp7
 70
     1
102
RTVSPropertyOp8
 70
     1
102
RTVSPropertyOp9
 70
     1
102
RTVSPropertyOp10
 70
     1
102
RTVSPropertyOp11
 70
     1
102
RTVSPropertyOp12
 70
     1
102
RTVSPropertyOp13
 70
     1
102
RTVSPropertyOp14
 70
     1
102
RTVSPropertyOp15
 70
     1
102
RTVSPropertyOp16
 70
     1
102
RTVSPropertyOp17
 70
     1
102
RTVSPropertyOp18
 70
     1
102
RTVSPropertyOp19
 70
     1
102
RTVSPropertyOp20
 70
     1
102
RTVSPropertyOp21
 70
     1
102
RTVSPropertyOp22
 70
     1
102
RTVSPropertyOp23
 70
     1
102
RTVSPropertyOp24
 70
     1
102
RTVSPropertyOp25
 70
     1
102
RTVSPropertyOp26
 70
     1
102
RTVSPropertyOp27
 70
     1
102
RTVSPropertyOp28
 70
     1
102
RTVSPropertyOp29
 70
     1
102
RTVSPropertyOp30
 70
     1
102
RTVSPropertyOp31
 70
     1
102
RTVSPropertyOp32
 70
     1
  0
XRECORD
  5
A3
102
{ACAD_REACTORS
330
A2
102
}
330
A2
100
AcDbXrecord
280
     1
102
RTVSPropertyOp0
 70
     1
102
RTVSPropertyOp1
 70
     1
102
RTVSPropertyOp2
 70
     1
102
RTVSPropertyOp3
 70
     1
102
RTVSPropertyOp4
 70
     1
102
RTVSPropertyOp5
 70
     1
102
RTVSPropertyOp6
 70
     1
102
RTVSPropertyOp7
 70
     1
102
RTVSPropertyOp8
 70
     1
102
RTVSPropertyOp9
 70
     1
102
RTVSPropertyOp10
 70
     1
102
RTVSPropertyOp11
 70
     1
102
RTVSPropertyOp12
 70
     1
102
RTVSPropertyOp13
 70
     1
102
RTVSPropertyOp14
 70
     1
102
RTVSPropertyOp15
 70
     1
102
RTVSPropertyOp16
 70
     1
102
RTVSPropertyOp17
 70
     1
102
RTVSPropertyOp18
 70
     1
102
RTVSPropertyOp19
 70
     1
102
RTVSPropertyOp20
 70
     1
102
RTVSPropertyOp21
 70
     1
102
RTVSPropertyOp22
 70
     1
102
RTVSPropertyOp23
 70
     1
102
RTVSPropertyOp24
 70
     1
102
RTVSPropertyOp25
 70
     1
102
RTVSPropertyOp26
 70
     1
102
RTVSPropertyOp27
 70
     1
102
RTVSPropertyOp28
 70
     1
102
RTVSPropertyOp29
 70
     1
102
RTVSPropertyOp30
 70
     1
102
RTVSPropertyOp31
 70
     1
102
RTVSPropertyOp32
 70
     1
  0
XRECORD
  5
AB
102
{ACAD_REACTORS
330
AA
102
}
330
AA
100
AcDbXrecord
280
     1
102
RTVSPropertyOp0
 70
     1
102
RTVSPropertyOp1
 70
     1
102
RTVSPropertyOp2
 70
     1
102
RTVSPropertyOp3
 70
     1
102
RTVSPropertyOp4
 70
     1
102
RTVSPropertyOp5
 70
     1
102
RTVSPropertyOp6
 70
     1
102
RTVSPropertyOp7
 70
     1
102
RTVSPropertyOp8
 70
     1
102
RTVSPropertyOp9
 70
     1
102
RTVSPropertyOp10
 70
     1
102
RTVSPropertyOp11
 70
     1
102
RTVSPropertyOp12
 70
     1
102
RTVSPropertyOp13
 70
     1
102
RTVSPropertyOp14
 70
     1
102
RTVSPropertyOp15
 70
     1
102
RTVSPropertyOp16
 70
     1
102
RTVSPropertyOp17
 70
     1
102
RTVSPropertyOp18
 70
     1
102
RTVSPropertyOp19
 70
     1
102
RTVSPropertyOp20
 70
     1
102
RTVSPropertyOp21
 70
     1
102
RTVSPropertyOp22
 70
     1
102
RTVSPropertyOp23
 70
     1
102
RTVSPropertyOp24
 70
     1
102
RTVSPropertyOp25
 70
     1
102
RTVSPropertyOp26
 70
     1
102
RTVSPropertyOp27
 70
     1
102
RTVSPropertyOp28
 70
     1
102
RTVSPropertyOp29
 70
     1
102
RTVSPropertyOp30
 70
     1
102
RTVSPropertyOp31
 70
     1
102
RTVSPropertyOp32
 70
     1
  0
XRECORD
  5
B3
102
{ACAD_REACTORS
330
B2
102
}
330
B2
100
AcDbXrecord
280
     1
102
RTVSPropertyOp0
 70
     1
102
RTVSPropertyOp1
 70
     1
102
RTVSPropertyOp2
 70
     1
102
RTVSPropertyOp3
 70
     1
102
RTVSPropertyOp4
 70
     1
102
RTVSPropertyOp5
 70
     1
102
RTVSPropertyOp6
 70
     1
102
RTVSPropertyOp7
 70
     1
102
RTVSPropertyOp8
 70
     1
102
RTVSPropertyOp9
 70
     1
102
RTVSPropertyOp10
 70
     1
102
RTVSPropertyOp11
 70
     1
102
RTVSPropertyOp12
 70
     1
102
RTVSPropertyOp13
 70
     1
102
RTVSPropertyOp14
 70
     1
102
RTVSPropertyOp15
 70
     1
102
RTVSPropertyOp16
 70
     1
102
RTVSPropertyOp17
 70
     1
102
RTVSPropertyOp18
 70
     1
102
RTVSPropertyOp19
 70
     1
102
RTVSPropertyOp20
 70
     1
102
RTVSPropertyOp21
 70
     1
102
RTVSPropertyOp22
 70
     1
102
RTVSPropertyOp23
 70
     1
102
RTVSPropertyOp24
 70
     1
102
RTVSPropertyOp25
 70
     1
102
RTVSPropertyOp26
 70
     1
102
RTVSPropertyOp27
 70
     1
102
RTVSPropertyOp28
 70
     1
102
RTVSPropertyOp29
 70
     1
102
RTVSPropertyOp30
 70
     1
102
RTVSPropertyOp31
 70
     1
102
RTVSPropertyOp32
 70
     1
  0
XRECORD
  5
A7
102
{ACAD_REACTORS
330
A6
102
}
330
A6
100
AcDbXrecord
280
     1
102
RTVSPropertyOp0
 70
     1
102
RTVSPropertyOp1
 70
     1
102
RTVSPropertyOp2
 70
     1
102
RTVSPropertyOp3
 70
     1
102
RTVSPropertyOp4
 70
     1
102
RTVSPropertyOp5
 70
     1
102
RTVSPropertyOp6
 70
     1
102
RTVSPropertyOp7
 70
     1
102
RTVSPropertyOp8
 70
     1
102
RTVSPropertyOp9
 70
     1
102
RTVSPropertyOp10
 70
     1
102
RTVSPropertyOp11
 70
     1
102
RTVSPropertyOp12
 70
     1
102
RTVSPropertyOp13
 70
     1
102
RTVSPropertyOp14
 70
     1
102
RTVSPropertyOp15
 70
     1
102
RTVSPropertyOp16
 70
     1
102
RTVSPropertyOp17
 70
     1
102
RTVSPropertyOp18
 70
     1
102
RTVSPropertyOp19
 70
     1
102
RTVSPropertyOp20
 70
     1
102
RTVSPropertyOp21
 70
     1
102
RTVSPropertyOp22
 70
     1
102
RTVSPropertyOp23
 70
     1
102
RTVSPropertyOp24
 70
     1
102
RTVSPropertyOp25
 70
     1
102
RTVSPropertyOp26
 70
     1
102
RTVSPropertyOp27
 70
     1
102
RTVSPropertyOp28
 70
     1
102
RTVSPropertyOp29
 70
     1
102
RTVSPropertyOp30
 70
     1
102
RTVSPropertyOp31
 70
     1
102
RTVSPropertyOp32
 70
     1
  0
XRECORD
  5
A9
102
{ACAD_REACTORS
330
A8
102
}
330
A8
100
AcDbXrecord
280
     1
102
RTVSPropertyOp0
 70
     1
102
RTVSPropertyOp1
 70
     1
102
RTVSPropertyOp2
 70
     1
102
RTVSPropertyOp3
 70
     1
102
RTVSPropertyOp4
 70
     1
102
RTVSPropertyOp5
 70
     1
102
RTVSPropertyOp6
 70
     1
102
RTVSPropertyOp7
 70
     1
102
RTVSPropertyOp8
 70
     1
102
RTVSPropertyOp9
 70
     1
102
RTVSPropertyOp10
 70
     1
102
RTVSPropertyOp11
 70
     1
102
RTVSPropertyOp12
 70
     1
102
RTVSPropertyOp13
 70
     1
102
RTVSPropertyOp14
 70
     1
102
RTVSPropertyOp15
 70
     1
102
RTVSPropertyOp16
 70
     1
102
RTVSPropertyOp17
 70
     1
102
RTVSPropertyOp18
 70
     1
102
RTVSPropertyOp19
 70
     1
102
RTVSPropertyOp20
 70
     1
102
RTVSPropertyOp21
 70
     1
102
RTVSPropertyOp22
 70
     1
102
RTVSPropertyOp23
 70
     1
102
RTVSPropertyOp24
 70
     1
102
RTVSPropertyOp25
 70
     1
102
RTVSPropertyOp26
 70
     1
102
RTVSPropertyOp27
 70
     1
102
RTVSPropertyOp28
 70
     1
102
RTVSPropertyOp29
 70
     1
102
RTVSPropertyOp30
 70
     1
102
RTVSPropertyOp31
 70
     1
102
RTVSPropertyOp32
 70
     1
  0
XRECORD
  5
B1
102
{ACAD_REACTORS
330
B0
102
}
330
B0
100
AcDbXrecord
280
     1
102
RTVSPropertyOp0
 70
     1
102
RTVSPropertyOp1
 70
     1
102
RTVSPropertyOp2
 70
     1
102
RTVSPropertyOp3
 70
     1
102
RTVSPropertyOp4
 70
     1
102
RTVSPropertyOp5
 70
     1
102
RTVSPropertyOp6
 70
     1
102
RTVSPropertyOp7
 70
     1
102
RTVSPropertyOp8
 70
     1
102
RTVSPropertyOp9
 70
     1
102
RTVSPropertyOp10
 70
     1
102
RTVSPropertyOp11
 70
     1
102
RTVSPropertyOp12
 70
     1
102
RTVSPropertyOp13
 70
     1
102
RTVSPropertyOp14
 70
     1
102
RTVSPropertyOp15
 70
     1
102
RTVSPropertyOp16
 70
     1
102
RTVSPropertyOp17
 70
     1
102
RTVSPropertyOp18
 70
     1
102
RTVSPropertyOp19
 70
     1
102
RTVSPropertyOp20
 70
     1
102
RTVSPropertyOp21
 70
     1
102
RTVSPropertyOp22
 70
     1
102
RTVSPropertyOp23
 70
     1
102
RTVSPropertyOp24
 70
     1
102
RTVSPropertyOp25
 70
     1
102
RTVSPropertyOp26
 70
     1
102
RTVSPropertyOp27
 70
     1
102
RTVSPropertyOp28
 70
     1
102
RTVSPropertyOp29
 70
     1
102
RTVSPropertyOp30
 70
     1
102
RTVSPropertyOp31
 70
     1
102
RTVSPropertyOp32
 70
     1
  0
XRECORD
  5
95
102
{ACAD_REACTORS
330
94
102
}
330
94
100
AcDbXrecord
280
     1
102
RTVSPropertyOp0
 70
     1
102
RTVSPropertyOp1
 70
     1
102
RTVSPropertyOp2
 70
     1
102
RTVSPropertyOp3
 70
     1
102
RTVSPropertyOp4
 70
     1
102
RTVSPropertyOp5
 70
     1
102
RTVSPropertyOp6
 70
     1
102
RTVSPropertyOp7
 70
     1
102
RTVSPropertyOp8
 70
     1
102
RTVSPropertyOp9
 70
     1
102
RTVSPropertyOp10
 70
     1
102
RTVSPropertyOp11
 70
     1
102
RTVSPropertyOp12
 70
     1
102
RTVSPropertyOp13
 70
     1
102
RTVSPropertyOp14
 70
     1
102
RTVSPropertyOp15
 70
     1
102
RTVSPropertyOp16
 70
     1
102
RTVSPropertyOp17
 70
     1
102
RTVSPropertyOp18
 70
     1
102
RTVSPropertyOp19
 70
     1
102
RTVSPropertyOp20
 70
     1
102
RTVSPropertyOp21
 70
     1
102
RTVSPropertyOp22
 70
     1
102
RTVSPropertyOp23
 70
     1
102
RTVSPropertyOp24
 70
     1
102
RTVSPropertyOp25
 70
     1
102
RTVSPropertyOp26
 70
     1
102
RTVSPropertyOp27
 70
     1
102
RTVSPropertyOp28
 70
     1
102
RTVSPropertyOp29
 70
     1
102
RTVSPropertyOp30
 70
     1
102
RTVSPropertyOp31
 70
     1
102
RTVSPropertyOp32
 70
     1
  0
XRECORD
  5
97
102
{ACAD_REACTORS
330
96
102
}
330
96
100
AcDbXrecord
280
     1
102
RTVSPropertyOp0
 70
     1
102
RTVSPropertyOp1
 70
     1
102
RTVSPropertyOp2
 70
     1
102
RTVSPropertyOp3
 70
     1
102
RTVSPropertyOp4
 70
     1
102
RTVSPropertyOp5
 70
     1
102
RTVSPropertyOp6
 70
     1
102
RTVSPropertyOp7
 70
     1
102
RTVSPropertyOp8
 70
     1
102
RTVSPropertyOp9
 70
     1
102
RTVSPropertyOp10
 70
     1
102
RTVSPropertyOp11
 70
     1
102
RTVSPropertyOp12
 70
     1
102
RTVSPropertyOp13
 70
     1
102
RTVSPropertyOp14
 70
     1
102
RTVSPropertyOp15
 70
     1
102
RTVSPropertyOp16
 70
     1
102
RTVSPropertyOp17
 70
     1
102
RTVSPropertyOp18
 70
     1
102
RTVSPropertyOp19
 70
     1
102
RTVSPropertyOp20
 70
     1
102
RTVSPropertyOp21
 70
     1
102
RTVSPropertyOp22
 70
     1
102
RTVSPropertyOp23
 70
     1
102
RTVSPropertyOp24
 70
     1
102
RTVSPropertyOp25
 70
     1
102
RTVSPropertyOp26
 70
     1
102
RTVSPropertyOp27
 70
     1
102
RTVSPropertyOp28
 70
     1
102
RTVSPropertyOp29
 70
     1
102
RTVSPropertyOp30
 70
     1
102
RTVSPropertyOp31
 70
     1
102
RTVSPropertyOp32
 70
     1
  0
XRECORD
  5
99
102
{ACAD_REACTORS
330
98
102
}
330
98
100
AcDbXrecord
280
     1
102
RTVSPropertyOp0
 70
     1
102
RTVSPropertyOp1
 70
     1
102
RTVSPropertyOp2
 70
     1
102
RTVSPropertyOp3
 70
     1
102
RTVSPropertyOp4
 70
     1
102
RTVSPropertyOp5
 70
     1
102
RTVSPropertyOp6
 70
     1
102
RTVSPropertyOp7
 70
     1
102
RTVSPropertyOp8
 70
     1
102
RTVSPropertyOp9
 70
     1
102
RTVSPropertyOp10
 70
     1
102
RTVSPropertyOp11
 70
     1
102
RTVSPropertyOp12
 70
     1
102
RTVSPropertyOp13
 70
     1
102
RTVSPropertyOp14
 70
     1
102
RTVSPropertyOp15
 70
     1
102
RTVSPropertyOp16
 70
     1
102
RTVSPropertyOp17
 70
     1
102
RTVSPropertyOp18
 70
     1
102
RTVSPropertyOp19
 70
     1
102
RTVSPropertyOp20
 70
     1
102
RTVSPropertyOp21
 70
     1
102
RTVSPropertyOp22
 70
     1
102
RTVSPropertyOp23
 70
     1
102
RTVSPropertyOp24
 70
     1
102
RTVSPropertyOp25
 70
     1
102
RTVSPropertyOp26
 70
     1
102
RTVSPropertyOp27
 70
     1
102
RTVSPropertyOp28
 70
     1
102
RTVSPropertyOp29
 70
     1
102
RTVSPropertyOp30
 70
     1
102
RTVSPropertyOp31
 70
     1
102
RTVSPropertyOp32
 70
     1
  0
XRECORD
  5
9B
102
{ACAD_REACTORS
330
9A
102
}
330
9A
100
AcDbXrecord
280
     1
102
RTVSPropertyOp0
 70
     1
102
RTVSPropertyOp1
 70
     1
102
RTVSPropertyOp2
 70
     1
102
RTVSPropertyOp3
 70
     1
102
RTVSPropertyOp4
 70
     1
102
RTVSPropertyOp5
 70
     1
102
RTVSPropertyOp6
 70
     1
102
RTVSPropertyOp7
 70
     1
102
RTVSPropertyOp8
 70
     1
102
RTVSPropertyOp9
 70
     1
102
RTVSPropertyOp10
 70
     1
102
RTVSPropertyOp11
 70
     1
102
RTVSPropertyOp12
 70
     1
102
RTVSPropertyOp13
 70
     1
102
RTVSPropertyOp14
 70
     1
102
RTVSPropertyOp15
 70
     1
102
RTVSPropertyOp16
 70
     1
102
RTVSPropertyOp17
 70
     1
102
RTVSPropertyOp18
 70
     1
102
RTVSPropertyOp19
 70
     1
102
RTVSPropertyOp20
 70
     1
102
RTVSPropertyOp21
 70
     1
102
RTVSPropertyOp22
 70
     1
102
RTVSPropertyOp23
 70
     1
102
RTVSPropertyOp24
 70
     1
102
RTVSPropertyOp25
 70
     1
102
RTVSPropertyOp26
 70
     1
102
RTVSPropertyOp27
 70
     1
102
RTVSPropertyOp28
 70
     1
102
RTVSPropertyOp29
 70
     1
102
RTVSPropertyOp30
 70
     1
102
RTVSPropertyOp31
 70
     1
102
RTVSPropertyOp32
 70
     1
  0
XRECORD
  5
AF
102
{ACAD_REACTORS
330
AE
102
}
330
AE
100
AcDbXrecord
280
     1
102
RTVSPropertyOp0
 70
     1
102
RTVSPropertyOp1
 70
     1
102
RTVSPropertyOp2
 70
     1
102
RTVSPropertyOp3
 70
     1
102
RTVSPropertyOp4
 70
     1
102
RTVSPropertyOp5
 70
     1
102
RTVSPropertyOp6
 70
     1
102
RTVSPropertyOp7
 70
     1
102
RTVSPropertyOp8
 70
     1
102
RTVSPropertyOp9
 70
     1
102
RTVSPropertyOp10
 70
     1
102
RTVSPropertyOp11
 70
     1
102
RTVSPropertyOp12
 70
     1
102
RTVSPropertyOp13
 70
     1
102
RTVSPropertyOp14
 70
     1
102
RTVSPropertyOp15
 70
     1
102
RTVSPropertyOp16
 70
     1
102
RTVSPropertyOp17
 70
     1
102
RTVSPropertyOp18
 70
     1
102
RTVSPropertyOp19
 70
     1
102
RTVSPropertyOp20
 70
     1
102
RTVSPropertyOp21
 70
     1
102
RTVSPropertyOp22
 70
     1
102
RTVSPropertyOp23
 70
     1
102
RTVSPropertyOp24
 70
     1
102
RTVSPropertyOp25
 70
     1
102
RTVSPropertyOp26
 70
     1
102
RTVSPropertyOp27
 70
     1
102
RTVSPropertyOp28
 70
     1
102
RTVSPropertyOp29
 70
     1
102
RTVSPropertyOp30
 70
     1
102
RTVSPropertyOp31
 70
     1
102
RTVSPropertyOp32
 70
     1
  0
XRECORD
  5
A5
102
{ACAD_REACTORS
330
A4
102
}
330
A4
100
AcDbXrecord
280
     1
102
RTVSPropertyOp0
 70
     1
102
RTVSPropertyOp1
 70
     1
102
RTVSPropertyOp2
 70
     1
102
RTVSPropertyOp3
 70
     1
102
RTVSPropertyOp4
 70
     1
102
RTVSPropertyOp5
 70
     1
102
RTVSPropertyOp6
 70
     1
102
RTVSPropertyOp7
 70
     1
102
RTVSPropertyOp8
 70
     1
102
RTVSPropertyOp9
 70
     1
102
RTVSPropertyOp10
 70
     1
102
RTVSPropertyOp11
 70
     1
102
RTVSPropertyOp12
 70
     1
102
RTVSPropertyOp13
 70
     1
102
RTVSPropertyOp14
 70
     1
102
RTVSPropertyOp15
 70
     1
102
RTVSPropertyOp16
 70
     1
102
RTVSPropertyOp17
 70
     1
102
RTVSPropertyOp18
 70
     1
102
RTVSPropertyOp19
 70
     1
102
RTVSPropertyOp20
 70
     1
102
RTVSPropertyOp21
 70
     1
102
RTVSPropertyOp22
 70
     1
102
RTVSPropertyOp23
 70
     1
102
RTVSPropertyOp24
 70
     1
102
RTVSPropertyOp25
 70
     1
102
RTVSPropertyOp26
 70
     1
102
RTVSPropertyOp27
 70
     1
102
RTVSPropertyOp28
 70
     1
102
RTVSPropertyOp29
 70
     1
102
RTVSPropertyOp30
 70
     1
102
RTVSPropertyOp31
 70
     1
102
RTVSPropertyOp32
 70
     1
  0
XRECORD
  5
AD
102
{ACAD_REACTORS
330
AC
102
}
330
AC
100
AcDbXrecord
280
     1
102
RTVSPropertyOp0
 70
     1
102
RTVSPropertyOp1
 70
     1
102
RTVSPropertyOp2
 70
     1
102
RTVSPropertyOp3
 70
     1
102
RTVSPropertyOp4
 70
     1
102
RTVSPropertyOp5
 70
     1
102
RTVSPropertyOp6
 70
     1
102
RTVSPropertyOp7
 70
     1
102
RTVSPropertyOp8
 70
     1
102
RTVSPropertyOp9
 70
     1
102
RTVSPropertyOp10
 70
     1
102
RTVSPropertyOp11
 70
     1
102
RTVSPropertyOp12
 70
     1
102
RTVSPropertyOp13
 70
     1
102
RTVSPropertyOp14
 70
     1
102
RTVSPropertyOp15
 70
     1
102
RTVSPropertyOp16
 70
     1
102
RTVSPropertyOp17
 70
     1
102
RTVSPropertyOp18
 70
     1
102
RTVSPropertyOp19
 70
     1
102
RTVSPropertyOp20
 70
     1
102
RTVSPropertyOp21
 70
     1
102
RTVSPropertyOp22
 70
     1
102
RTVSPropertyOp23
 70
     1
102
RTVSPropertyOp24
 70
     1
102
RTVSPropertyOp25
 70
     1
102
RTVSPropertyOp26
 70
     1
102
RTVSPropertyOp27
 70
     1
102
RTVSPropertyOp28
 70
     1
102
RTVSPropertyOp29
 70
     1
102
RTVSPropertyOp30
 70
     1
102
RTVSPropertyOp31
 70
     1
102
RTVSPropertyOp32
 70
     1
  0
ENDSEC
  0
EOF
