  0
SECTION
  2
HEADER
  9
$ACADVER
  1
AC1021
  9
$ACADMAINTVER
 70
    25
  9
$DWGCODEPAGE
  3
ANSI_1252
  9
$INSBASE
 10
0.0
 20
0.0
 30
0.0
  9
$EXTMIN
 10
58.2376
 20
-115.1525
 30
0.0
  9
$EXTMAX
 10
195.5544
 20
131.8665
 30
0.0
  9
$LIMMIN
 10
0.0
 20
0.0
  9
$LIMMAX
 10
12.0
 20
9.0
  9
$ORTHOMODE
 70
     0
  9
$REGENMODE
 70
     1
  9
$FILLMODE
 70
     1
  9
$QTEXTMODE
 70
     0
  9
$MIRRTEXT
 70
     1
  9
$LTSCALE
 40
1.0
  9
$ATTMODE
 70
     1
  9
$TEXTSIZE
 40
0.2
  9
$TRACEWID
 40
0.05
  9
$TEXTSTYLE
  7
Standard
  9
$CLAYER
  8
0
  9
$CELTYPE
  6
ByLayer
  9
$CECOLOR
 62
   256
  9
$CELTSCALE
 40
1.0
  9
$DISPSILH
 70
     0
  9
$DIMSCALE
 40
1.0
  9
$DIMASZ
 40
0.18
  9
$DIMEXO
 40
0.0625
  9
$DIMDLI
 40
0.38
  9
$DIMRND
 40
0.0
  9
$DIMDLE
 40
0.0
  9
$DIMEXE
 40
0.18
  9
$DIMTP
 40
0.0
  9
$DIMTM
 40
0.0
  9
$DIMTXT
 40
0.18
  9
$DIMCEN
 40
0.09
  9
$DIMTSZ
 40
0.0
  9
$DIMTOL
 70
     0
  9
$DIMLIM
 70
     0
  9
$DIMTIH
 70
     1
  9
$DIMTOH
 70
     1
  9
$DIMSE1
 70
     0
  9
$DIMSE2
 70
     0
  9
$DIMTAD
 70
     0
  9
$DIMZIN
 70
     0
  9
$DIMBLK
  1

  9
$DIMASO
 70
     1
  9
$DIMSHO
 70
     1
  9
$DIMPOST
  1

  9
$DIMAPOST
  1

  9
$DIMALT
 70
     0
  9
$DIMALTD
 70
     2
  9
$DIMALTF
 40
25.4
  9
$DIMLFAC
 40
1.0
  9
$DIMTOFL
 70
     0
  9
$DIMTVP
 40
0.0
  9
$DIMTIX
 70
     0
  9
$DIMSOXD
 70
     0
  9
$DIMSAH
 70
     0
  9
$DIMBLK1
  1

  9
$DIMBLK2
  1

  9
$DIMSTYLE
  2
Standard
  9
$DIMCLRD
 70
     0
  9
$DIMCLRE
 70
     0
  9
$DIMCLRT
 70
     0
  9
$DIMTFAC
 40
1.0
  9
$DIMGAP
 40
0.09
  9
$DIMJUST
 70
     0
  9
$DIMSD1
 70
     0
  9
$DIMSD2
 70
     0
  9
$DIMTOLJ
 70
     1
  9
$DIMTZIN
 70
     0
  9
$DIMALTZ
 70
     0
  9
$DIMALTTZ
 70
     0
  9
$DIMUPT
 70
     0
  9
$DIMDEC
 70
     4
  9
$DIMTDEC
 70
     4
  9
$DIMALTU
 70
     2
  9
$DIMALTTD
 70
     2
  9
$DIMTXSTY
  7
Standard
  9
$DIMAUNIT
 70
     0
  9
$DIMADEC
 70
     0
  9
$DIMALTRND
 40
0.0
  9
$DIMAZIN
 70
     0
  9
$DIMDSEP
 70
    46
  9
$DIMATFIT
 70
     3
  9
$DIMFRAC
 70
     0
  9
$DIMLDRBLK
  1

  9
$DIMLUNIT
 70
     2
  9
$DIMLWD
 70
    -2
  9
$DIMLWE
 70
    -2
  9
$DIMTMOVE
 70
     0
  9
$DIMFXL
 40
1.0
  9
$DIMFXLON
 70
     0
  9
$DIMJOGANG
 40
0.7853981633974483
  9
$DIMTFILL
 70
     0
  9
$DIMTFILLCLR
 70
     0
  9
$DIMARCSYM
 70
     0
  9
$DIMLTYPE
  6

  9
$DIMLTEX1
  6

  9
$DIMLTEX2
  6

  9
$LUNITS
 70
     2
  9
$LUPREC
 70
     4
  9
$SKETCHINC
 40
0.1
  9
$FILLETRAD
 40
0.5
  9
$AUNITS
 70
     0
  9
$AUPREC
 70
     0
  9
$MENU
  1
.
  9
$ELEVATION
 40
0.0
  9
$PELEVATION
 40
0.0
  9
$THICKNESS
 40
0.0
  9
$LIMCHECK
 70
     0
  9
$CHAMFERA
 40
0.5
  9
$CHAMFERB
 40
0.5
  9
$CHAMFERC
 40
1.0
  9
$CHAMFERD
 40
0.0
  9
$SKPOLY
 70
     0
  9
$TDCREATE
 40
2458492.8453164
  9
$TDUCREATE
 40
2458492.8453164
  9
$TDUPDATE
 40
2458492.845316643
  9
$TDUUPDATE
 40
2458492.845316643
  9
$TDINDWG
 40
0.0000000116
  9
$TDUSRTIMER
 40
0.0000000116
  9
$USRTIMER
 70
     1
  9
$ANGBASE
 50
0.0
  9
$ANGDIR
 70
     0
  9
$PDMODE
 70
     0
  9
$PDSIZE
 40
0.0
  9
$PLINEWID
 40
0.0
  9
$SPLFRAME
 70
     0
  9
$SPLINETYPE
 70
     6
  9
$SPLINESEGS
 70
     8
  9
$HANDSEED
  5
94
  9
$SURFTAB1
 70
     6
  9
$SURFTAB2
 70
     6
  9
$SURFTYPE
 70
     6
  9
$SURFU
 70
     6
  9
$SURFV
 70
     6
  9
$UCSBASE
  2

  9
$UCSNAME
  2

  9
$UCSORG
 10
0.0
 20
0.0
 30
0.0
  9
$UCSXDIR
 10
1.0
 20
0.0
 30
0.0
  9
$UCSYDIR
 10
0.0
 20
1.0
 30
0.0
  9
$UCSORTHOREF
  2

  9
$UCSORTHOVIEW
 70
     0
  9
$UCSORGTOP
 10
0.0
 20
0.0
 30
0.0
  9
$UCSORGBOTTOM
 10
0.0
 20
0.0
 30
0.0
  9
$UCSORGLEFT
 10
0.0
 20
0.0
 30
0.0
  9
$UCSORGRIGHT
 10
0.0
 20
0.0
 30
0.0
  9
$UCSORGFRONT
 10
0.0
 20
0.0
 30
0.0
  9
$UCSORGBACK
 10
0.0
 20
0.0
 30
0.0
  9
$PUCSBASE
  2

  9
$PUCSNAME
  2

  9
$PUCSORG
 10
0.0
 20
0.0
 30
0.0
  9
$PUCSXDIR
 10
1.0
 20
0.0
 30
0.0
  9
$PUCSYDIR
 10
0.0
 20
1.0
 30
0.0
  9
$PUCSORTHOREF
  2

  9
$PUCSORTHOVIEW
 70
     0
  9
$PUCSORGTOP
 10
0.0
 20
0.0
 30
0.0
  9
$PUCSORGBOTTOM
 10
0.0
 20
0.0
 30
0.0
  9
$PUCSORGLEFT
 10
0.0
 20
0.0
 30
0.0
  9
$PUCSORGRIGHT
 10
0.0
 20
0.0
 30
0.0
  9
$PUCSORGFRONT
 10
0.0
 20
0.0
 30
0.0
  9
$PUCSORGBACK
 10
0.0
 20
0.0
 30
0.0
  9
$USERI1
 70
     0
  9
$USERI2
 70
     0
  9
$USERI3
 70
     0
  9
$USERI4
 70
     0
  9
$USERI5
 70
     0
  9
$USERR1
 40
0.0
  9
$USERR2
 40
0.0
  9
$USERR3
 40
0.0
  9
$USERR4
 40
0.0
  9
$USERR5
 40
0.0
  9
$WORLDVIEW
 70
     1
  9
$SHADEDGE
 70
     3
  9
$SHADEDIF
 70
    70
  9
$TILEMODE
 70
     1
  9
$MAXACTVP
 70
    64
  9
$PINSBASE
 10
0.0
 20
0.0
 30
0.0
  9
$PLIMCHECK
 70
     0
  9
$PEXTMIN
 10
1.000000000000000E+20
 20
1.000000000000000E+20
 30
1.000000000000000E+20
  9
$PEXTMAX
 10
-1.000000000000000E+20
 20
-1.000000000000000E+20
 30
-1.000000000000000E+20
  9
$PLIMMIN
 10
0.0
 20
0.0
  9
$PLIMMAX
 10
12.0
 20
9.0
  9
$UNITMODE
 70
     0
  9
$VISRETAIN
 70
     1
  9
$PLINEGEN
 70
     0
  9
$PSLTSCALE
 70
     1
  9
$TREEDEPTH
 70
  3020
  9
$CMLSTYLE
  2
Standard
  9
$CMLJUST
 70
     0
  9
$CMLSCALE
 40
1.0
  9
$PROXYGRAPHICS
 70
     1
  9
$MEASUREMENT
 70
     0
  9
$CELWEIGHT
370
    -1
  9
$ENDCAPS
280
     0
  9
$JOINSTYLE
280
     0
  9
$LWDISPLAY
290
     0
  9
$INSUNITS
 70
     4
  9
$HYPERLINKBASE
  1

  9
$STYLESHEET
  1

  9
$XEDIT
290
     1
  9
$CEPSNTYPE
380
     0
  9
$PSTYLEMODE
290
     1
  9
$FINGERPRINTGUID
  2
{927EB9D3-F215-43DA-B181-1C411D7A688A}
  9
$VERSIONGUID
  2
{FAEB1C32-E019-11D5-929B-00C0DF256EC4}
  9
$EXTNAMES
290
     1
  9
$PSVPSCALE
 40
0.0
  9
$OLESTARTUP
290
     0
  9
$SORTENTS
280
   127
  9
$INDEXCTL
280
     0
  9
$HIDETEXT
280
     1
  9
$XCLIPFRAME
290
     0
  9
$HALOGAP
280
     0
  9
$OBSCOLOR
 70
   257
  9
$OBSLTYPE
280
     0
  9
$INTERSECTIONDISPLAY
280
     0
  9
$INTERSECTIONCOLOR
 70
   257
  9
$DIMASSOC
280
     2
  9
$PROJECTNAME
  1

  9
$CAMERADISPLAY
290
     0
  9
$LENSLENGTH
 40
50.0
  9
$CAMERAHEIGHT
 40
0.0
  9
$STEPSPERSEC
 40
2.0
  9
$STEPSIZE
 40
6.0
  9
$3DDWFPREC
 40
2.0
  9
$PSOLWIDTH
 40
0.25
  9
$PSOLHEIGHT
 40
4.0
  9
$LOFTANG1
 40
1.570796326794897
  9
$LOFTANG2
 40
1.570796326794897
  9
$LOFTMAG1
 40
0.0
  9
$LOFTMAG2
 40
0.0
  9
$LOFTPARAM
 70
     7
  9
$LOFTNORMALS
280
     1
  9
$LATITUDE
 40
37.795
  9
$LONGITUDE
 40
-122.394
  9
$NORTHDIRECTION
 40
0.0
  9
$TIMEZONE
 70
 -8000
  9
$LIGHTGLYPHDISPLAY
280
     1
  9
$TILEMODELIGHTSYNCH
280
     1
  9
$SOLIDHIST
280
     1
  9
$SHOWHIST
280
     1
  9
$DWFFRAME
280
     2
  9
$DGNFRAME
280
     2
  9
$REALWORLDSCALE
290
     1
  9
$INTERFERECOLOR
 62
   256
  9
$CSHADOW
280
     0
  9
$SHADOWPLANELOCATION
 40
0.0
  0
ENDSEC
  0
SECTION
  2
CLASSES
  0
CLASS
  1
ACDBDICTIONARYWDFLT
  2
AcDbDictionaryWithDefault
  3
ObjectDBX Classes
 90
        0
 91
        4
280
     0
281
     0
  0
CLASS
  1
VISUALSTYLE
  2
AcDbVisualStyle
  3
ObjectDBX Classes
 90
     4095
 91
        4
280
     0
281
     0
  0
CLASS
  1
MATERIAL
  2
AcDbMaterial
  3
ObjectDBX Classes
 90
     1153
 91
        4
280
     0
281
     0
  0
ENDSEC
  0
SECTION
  2
TABLES
  0
TABLE
  2
VPORT
  5
8
330
0
100
AcDbSymbolTable
 70
     1
  0
VPORT
  5
29
330
8
100
AcDbSymbolTableRecord
100
AcDbViewportTableRecord
  2
*Active
 70
     0
 10
0.0
 20
0.0
 11
1.0
 21
1.0
 12
10.42990654205607
 22
4.5
 13
0.0
 23
0.0
 14
0.5
 24
0.5
 15
0.5
 25
0.5
 16
0.0
 26
0.0
 36
1.0
 17
0.0
 27
0.0
 37
0.0
 40
9.0
 41
1.972972972850329
 42
50.0
 43
0.0
 44
0.0
 50
0.0
 51
0.0
 71
     0
 72
   100
 73
     1
 74
     3
 75
     0
 76
     0
 77
     0
 78
     0
281
     0
 65
     1
110
0.0
120
0.0
130
0.0
111
1.0
121
0.0
131
0.0
112
0.0
122
1.0
132
0.0
 79
     0
146
0.0
 60
     3
 61
     5
292
     1
282
     1
141
0.0
142
0.0
 63
   250
  0
ENDTAB
  0
TABLE
  2
LTYPE
  5
5
330
0
100
AcDbSymbolTable
 70
     1
  0
LTYPE
  5
14
330
5
100
AcDbSymbolTableRecord
100
AcDbLinetypeTableRecord
  2
ByBlock
 70
     0
  3

 72
    65
 73
     0
 40
0.0
  0
LTYPE
  5
15
330
5
100
AcDbSymbolTableRecord
100
AcDbLinetypeTableRecord
  2
ByLayer
 70
     0
  3

 72
    65
 73
     0
 40
0.0
  0
LTYPE
  5
16
330
5
100
AcDbSymbolTableRecord
100
AcDbLinetypeTableRecord
  2
Continuous
 70
     0
  3
Solid line
 72
    65
 73
     0
 40
0.0
  0
ENDTAB
  0
TABLE
  2
LAYER
  5
2
330
0
100
AcDbSymbolTable
 70
     2
  0
LAYER
  5
10
330
2
100
AcDbSymbolTableRecord
100
AcDbLayerTableRecord
  2
0
 70
     0
 62
     7
  6
Continuous
370
    -3
390
F
347
3E
  0
LAYER
  5
40
330
2
100
AcDbSymbolTableRecord
100
AcDbLayerTableRecord
  2
layer 1
 70
     0
 62
     7
  6
Continuous
370
    -3
390
F
347
3E
  0
ENDTAB
  0
TABLE
  2
STYLE
  5
3
330
0
100
AcDbSymbolTable
 70
     1
  0
STYLE
  5
11
330
3
100
AcDbSymbolTableRecord
100
AcDbTextStyleTableRecord
  2
Standard
 70
     0
 40
0.0
 41
1.0
 50
0.0
 71
     0
 42
0.2
  3
txt
  4

  0
ENDTAB
  0
TABLE
  2
VIEW
  5
6
330
0
100
AcDbSymbolTable
 70
     0
  0
ENDTAB
  0
TABLE
  2
UCS
  5
7
330
0
100
AcDbSymbolTable
 70
     0
  0
ENDTAB
  0
TABLE
  2
APPID
  5
9
330
0
100
AcDbSymbolTable
 70
     2
  0
APPID
  5
12
330
9
100
AcDbSymbolTableRecord
100
AcDbRegAppTableRecord
  2
ACAD
 70
     0
  0
APPID
  5
3F
330
9
100
AcDbSymbolTableRecord
100
AcDbRegAppTableRecord
  2
ODA
 70
     0
  0
ENDTAB
  0
TABLE
  2
DIMSTYLE
  5
A
330
0
100
AcDbSymbolTable
 70
     1
100
AcDbDimStyleTable
  0
DIMSTYLE
105
27
330
A
100
AcDbSymbolTableRecord
100
AcDbDimStyleTableRecord
  2
Standard
 70
     0
178
     0
340
11
  0
ENDTAB
  0
TABLE
  2
BLOCK_RECORD
  5
1
330
0
100
AcDbSymbolTable
 70
     1
  0
BLOCK_RECORD
  5
1F
330
1
100
AcDbSymbolTableRecord
100
AcDbBlockTableRecord
  2
*Model_Space
340
22
 70
     0
280
     1
281
     0
  0
BLOCK_RECORD
  5
1B
330
1
100
AcDbSymbolTableRecord
100
AcDbBlockTableRecord
  2
*Paper_Space
340
1E
 70
     0
280
     1
281
     0
  0
BLOCK_RECORD
  5
23
330
1
100
AcDbSymbolTableRecord
100
AcDbBlockTableRecord
  2
*Paper_Space0
340
26
 70
     0
280
     1
281
     0
  0
ENDTAB
  0
ENDSEC
  0
SECTION
  2
BLOCKS
  0
BLOCK
  5
20
330
1F
100
AcDbEntity
  8
0
100
AcDbBlockBegin
  2
*Model_Space
 70
     0
 10
0.0
 20
0.0
 30
0.0
  3
*Model_Space
  1

  0
ENDBLK
  5
21
330
1F
100
AcDbEntity
  8
0
100
AcDbBlockEnd
  0
BLOCK
  5
1C
330
1B
100
AcDbEntity
 67
     1
  8
0
100
AcDbBlockBegin
  2
*Paper_Space
 70
     0
 10
0.0
 20
0.0
 30
0.0
  3
*Paper_Space
  1

  0
ENDBLK
  5
1D
330
1B
100
AcDbEntity
 67
     1
  8
0
100
AcDbBlockEnd
  0
BLOCK
  5
24
330
23
100
AcDbEntity
  8
0
100
AcDbBlockBegin
  2
*Paper_Space0
 70
     0
 10
0.0
 20
0.0
 30
0.0
  3
*Paper_Space0
  1

  0
ENDBLK
  5
25
330
23
100
AcDbEntity
  8
0
100
AcDbBlockEnd
  0
ENDSEC
  0
SECTION
  2
ENTITIES
  0
LWPOLYLINE
  5
41
330
1F
100
AcDbEntity
  8
layer 1
 62
   250
370
     9
100
AcDbPolyline
 90
        5
 70
     1
 43
0.0
 10
58.2757
 20
-115.1144
 10
195.5163
 20
-115.1144
 10
195.5163
 20
131.8284
 10
58.2757
 20
131.8284
 10
58.2757
 20
-115.1144
  0
SPLINE
  5
42
330
1F
100
AcDbEntity
  8
layer 1
 62
     7
370
     9
100
AcDbSpline
210
0.0
220
0.0
230
1.0
 70
    11
 71
     3
 72
    36
 73
    32
 74
     0
 42
0.0000000001
 43
0.0000000001
 12
1.0
 22
0.0
 32
0.0
 13
1.0
 23
0.0
 33
0.0
 40
0.0
 40
0.0
 40
0.0
 40
0.0
 40
0.1111111111111111
 40
0.1111111111111111
 40
0.1111111111111111
 40
0.1111111111111111
 40
0.2222222222222222
 40
0.2222222222222222
 40
0.2222222222222222
 40
0.2222222222222222
 40
0.3333333333333333
 40
0.3333333333333333
 40
0.3333333333333333
 40
0.3333333333333333
 40
0.4444444444444444
 40
0.4444444444444444
 40
0.4444444444444444
 40
0.4444444444444444
 40
0.5555555555555556
 40
0.5555555555555556
 40
0.5555555555555556
 40
0.5555555555555556
 40
0.6666666666666666
 40
0.6666666666666666
 40
0.6666666666666666
 40
0.6666666666666666
 40
0.7777777777777778
 40
0.7777777777777778
 40
0.7777777777777778
 40
0.7777777777777778
 40
1.0
 40
1.0
 40
1.0
 40
1.0
 10
168.9098
 20
67.2542
 30
0.0
 10
168.0772
 20
65.1889
 30
0.0
 10
165.9408
 20
63.9631
 30
0.0
 10
163.9296
 20
63.0191
 30
0.0
 10
163.9296
 20
63.0191
 30
0.0
 10
165.2533
 20
61.9543
 30
0.0
 10
166.5591
 20
60.8286
 30
0.0
 10
168.162
 20
60.1333
 30
0.0
 10
168.162
 20
60.1333
 30
0.0
 10
170.4167
 20
59.0537
 30
0.0
 10
173.0976
 20
58.7404
 30
0.0
 10
175.5443
 20
59.3836
 30
0.0
 10
175.5443
 20
59.3836
 30
0.0
 10
181.3438
 20
60.9081
 30
0.0
 10
185.6187
 20
66.5567
 30
0.0
 10
185.0316
 20
72.1948
 30
0.0
 10
185.0316
 20
72.1948
 30
0.0
 10
184.6365
 20
75.5004
 30
0.0
 10
182.3506
 20
78.4364
 30
0.0
 10
179.3325
 20
80.1174
 30
0.0
 10
179.3325
 20
80.1174
 30
0.0
 10
179.0936
 20
77.4841
 30
0.0
 10
178.0802
 20
74.7987
 30
0.0
 10
175.9617
 20
72.9737
 30
0.0
 10
175.9617
 20
72.9737
 30
0.0
 10
174.2138
 20
71.2656
 30
0.0
 10
171.6199
 20
70.7038
 30
0.0
 10
169.1888
 20
70.5075
 30
0.0
 10
169.1888
 20
70.5075
 30
0.0
 10
169.2916
 20
69.4237
 30
0.0
 10
169.43
 20
68.271
 30
0.0
 10
168.9098
 20
67.2542
 30
0.0
  0
SPLINE
  5
43
330
1F
100
AcDbEntity
  8
layer 1
 62
     7
370
     9
100
AcDbSpline
210
0.0
220
0.0
230
1.0
 70
    11
 71
     3
 72
   108
 73
   104
 74
     0
 42
0.0000000001
 43
0.0000000001
 12
1.0
 22
0.0
 32
0.0
 13
1.0
 23
0.0
 33
0.0
 40
0.0
 40
0.0
 40
0.0
 40
0.0
 40
0.037037037037037
 40
0.037037037037037
 40
0.037037037037037
 40
0.037037037037037
 40
0.0740740740740741
 40
0.0740740740740741
 40
0.0740740740740741
 40
0.0740740740740741
 40
0.1111111111111111
 40
0.1111111111111111
 40
0.1111111111111111
 40
0.1111111111111111
 40
0.1481481481481481
 40
0.1481481481481481
 40
0.1481481481481481
 40
0.1481481481481481
 40
0.1851851851851852
 40
0.1851851851851852
 40
0.1851851851851852
 40
0.1851851851851852
 40
0.2222222222222222
 40
0.2222222222222222
 40
0.2222222222222222
 40
0.2222222222222222
 40
0.2592592592592592
 40
0.2592592592592592
 40
0.2592592592592592
 40
0.2592592592592592
 40
0.2962962962962963
 40
0.2962962962962963
 40
0.2962962962962963
 40
0.2962962962962963
 40
0.3333333333333333
 40
0.3333333333333333
 40
0.3333333333333333
 40
0.3333333333333333
 40
0.3703703703703703
 40
0.3703703703703703
 40
0.3703703703703703
 40
0.3703703703703703
 40
0.4074074074074074
 40
0.4074074074074074
 40
0.4074074074074074
 40
0.4074074074074074
 40
0.4444444444444444
 40
0.4444444444444444
 40
0.4444444444444444
 40
0.4444444444444444
 40
0.4814814814814815
 40
0.4814814814814815
 40
0.4814814814814815
 40
0.4814814814814815
 40
0.5185185185185185
 40
0.5185185185185185
 40
0.5185185185185185
 40
0.5185185185185185
 40
0.5555555555555556
 40
0.5555555555555556
 40
0.5555555555555556
 40
0.5555555555555556
 40
0.5925925925925926
 40
0.5925925925925926
 40
0.5925925925925926
 40
0.5925925925925926
 40
0.6296296296296297
 40
0.6296296296296297
 40
0.6296296296296297
 40
0.6296296296296297
 40
0.6666666666666666
 40
0.6666666666666666
 40
0.6666666666666666
 40
0.6666666666666666
 40
0.7037037037037037
 40
0.7037037037037037
 40
0.7037037037037037
 40
0.7037037037037037
 40
0.7407407407407407
 40
0.7407407407407407
 40
0.7407407407407407
 40
0.7407407407407407
 40
0.7777777777777778
 40
0.7777777777777778
 40
0.7777777777777778
 40
0.7777777777777778
 40
0.8148148148148148
 40
0.8148148148148148
 40
0.8148148148148148
 40
0.8148148148148148
 40
0.8518518518518519
 40
0.8518518518518519
 40
0.8518518518518519
 40
0.8518518518518519
 40
0.8888888888888888
 40
0.8888888888888888
 40
0.8888888888888888
 40
0.8888888888888888
 40
0.9259259259259259
 40
0.9259259259259259
 40
0.9259259259259259
 40
0.9259259259259259
 40
1.0
 40
1.0
 40
1.0
 40
1.0
 10
162.9317
 20
34.935
 30
0.0
 10
163.5031
 20
32.2057
 30
0.0
 10
163.5835
 20
29.3886
 30
0.0
 10
163.0097
 20
26.651
 30
0.0
 10
163.0097
 20
26.651
 30
0.0
 10
162.9183
 20
24.0931
 30
0.0
 10
163.2196
 20
21.4786
 30
0.0
 10
164.2286
 20
19.0813
 30
0.0
 10
164.2286
 20
19.0813
 30
0.0
 10
164.8648
 20
17.6823
 30
0.0
 10
165.8895
 20
16.3939
 30
0.0
 10
167.3049
 20
15.6128
 30
0.0
 10
167.3049
 20
15.6128
 30
0.0
 10
167.8227
 20
18.4256
 30
0.0
 10
169.1062
 20
21.2133
 30
0.0
 10
171.3922
 20
23.1616
 30
0.0
 10
171.3922
 20
23.1616
 30
0.0
 10
175.4442
 20
27.068
 30
0.0
 10
179.6688
 20
26.7105
 30
0.0
 10
182.5471
 20
33.6153
 30
0.0
 10
182.5471
 20
33.6153
 30
0.0
 10
182.8798
 20
34.2751
 30
0.0
 10
183.1342
 20
34.9683
 30
0.0
 10
183.4958
 20
35.6179
 30
0.0
 10
183.4958
 20
35.6179
 30
0.0
 10
185.0338
 20
33.0431
 30
0.0
 10
185.4312
 20
29.988
 30
0.0
 10
185.0741
 20
27.0854
 30
0.0
 10
185.0741
 20
27.0854
 30
0.0
 10
184.2638
 20
21.7926
 30
0.0
 10
178.2936
 20
16.9716
 30
0.0
 10
179.0468
 20
14.6147
 30
0.0
 10
179.0468
 20
14.6147
 30
0.0
 10
182.5895
 20
13.8483
 30
0.0
 10
185.9626
 20
12.5515
 30
0.0
 10
189.2998
 20
11.2235
 30
0.0
 10
189.2998
 20
11.2235
 30
0.0
 10
189.2933
 20
22.1698
 30
0.0
 10
189.3154
 20
33.1161
 30
0.0
 10
189.2887
 20
44.0625
 30
0.0
 10
189.2887
 20
44.0625
 30
0.0
 10
186.7863
 20
43.5029
 30
0.0
 10
184.0762
 20
43.5174
 30
0.0
 10
181.7078
 20
44.5407
 30
0.0
 10
181.7078
 20
44.5407
 30
0.0
 10
184.0114
 20
45.2109
 30
0.0
 10
186.2259
 20
46.3992
 30
0.0
 10
187.61
 20
48.2952
 30
0.0
 10
187.61
 20
48.2952
 30
0.0
 10
188.5542
 20
49.6882
 30
0.0
 10
189.407
 20
51.2815
 30
0.0
 10
189.3044
 20
52.975
 30
0.0
 10
189.3044
 20
52.975
 30
0.0
 10
189.2954
 20
56.3871
 30
0.0
 10
189.302
 20
59.7971
 30
0.0
 10
189.2998
 20
63.2093
 30
0.0
 10
189.2998
 20
63.2093
 30
0.0
 10
189.2954
 20
64.0675
 30
0.0
 10
189.3177
 20
64.93
 30
0.0
 10
189.2104
 20
65.7839
 30
0.0
 10
189.2104
 20
65.7839
 30
0.0
 10
188.1845
 20
54.6107
 30
0.0
 10
178.3979
 20
51.8586
 30
0.0
 10
175.725
 20
44.6389
 30
0.0
 10
175.725
 20
44.6389
 30
0.0
 10
177.7878
 20
43.7137
 30
0.0
 10
179.3191
 20
41.8825
 30
0.0
 10
179.8481
 20
39.8068
 30
0.0
 10
179.8481
 20
39.8068
 30
0.0
 10
181.4052
 20
33.7945
 30
0.0
 10
176.1689
 20
30.3791
 30
0.0
 10
173.0565
 20
31.0039
 30
0.0
 10
173.0565
 20
31.0039
 30
0.0
 10
170.0859
 20
31.6
 30
0.0
 10
170.1973
 20
36.1031
 30
0.0
 10
172.8566
 20
37.0525
 30
0.0
 10
172.8566
 20
37.0525
 30
0.0
 10
173.9772
 20
37.5828
 30
0.0
 10
175.2585
 20
37.2571
 30
0.0
 10
176.3033
 20
36.7309
 30
0.0
 10
176.3033
 20
36.7309
 30
0.0
 10
176.4885
 20
37.4722
 30
0.0
 10
176.781
 20
38.2239
 30
0.0
 10
176.647
 20
38.9924
 30
0.0
 10
176.647
 20
38.9924
 30
0.0
 10
176.3792
 20
40.8948
 30
0.0
 10
174.6513
 20
42.5903
 30
0.0
 10
172.5709
 20
42.7324
 30
0.0
 10
172.5709
 20
42.7324
 30
0.0
 10
171.6555
 20
42.7594
 30
0.0
 10
170.7224
 20
42.8054
 30
0.0
 10
169.8295
 20
42.5841
 30
0.0
 10
169.8295
 20
42.5841
 30
0.0
 10
168.9523
 20
42.4149
 30
0.0
 10
168.1955
 20
41.9409
 30
0.0
 10
167.3985
 20
41.588
 30
0.0
 10
167.3985
 20
41.588
 30
0.0
 10
169.267
 20
41.6757
 30
0.0
 10
171.3096
 20
40.3079
 30
0.0
 10
171.218
 20
38.4493
 30
0.0
 10
171.218
 20
38.4493
 30
0.0
 10
166.6193
 20
40.177
 30
0.0
 10
165.4806
 20
36.8761
 30
0.0
 10
162.9317
 20
34.935
 30
0.0
  0
SPLINE
  5
44
330
1F
100
AcDbEntity
  8
layer 1
 62
     7
370
     9
100
AcDbSpline
210
0.0
220
0.0
230
1.0
 70
    11
 71
     3
 72
    80
 73
    76
 74
     0
 42
0.0000000001
 43
0.0000000001
 12
1.0
 22
0.0
 32
0.0
 13
1.0
 23
0.0
 33
0.0
 40
0.0
 40
0.0
 40
0.0
 40
0.0
 40
0.05
 40
0.05
 40
0.05
 40
0.05
 40
0.1
 40
0.1
 40
0.1
 40
0.1
 40
0.15
 40
0.15
 40
0.15
 40
0.15
 40
0.2
 40
0.2
 40
0.2
 40
0.2
 40
0.25
 40
0.25
 40
0.25
 40
0.25
 40
0.3
 40
0.3
 40
0.3
 40
0.3
 40
0.35
 40
0.35
 40
0.35
 40
0.35
 40
0.4
 40
0.4
 40
0.4
 40
0.4
 40
0.45
 40
0.45
 40
0.45
 40
0.45
 40
0.5
 40
0.5
 40
0.5
 40
0.5
 40
0.55
 40
0.55
 40
0.55
 40
0.55
 40
0.6
 40
0.6
 40
0.6
 40
0.6
 40
0.65
 40
0.65
 40
0.65
 40
0.65
 40
0.7
 40
0.7
 40
0.7
 40
0.7
 40
0.75
 40
0.75
 40
0.75
 40
0.75
 40
0.8
 40
0.8
 40
0.8
 40
0.8
 40
0.85
 40
0.85
 40
0.85
 40
0.85
 40
0.9
 40
0.9
 40
0.9
 40
0.9
 40
1.0
 40
1.0
 40
1.0
 40
1.0
 10
181.1005
 20
105.1236
 30
0.0
 10
176.8572
 20
99.367
 30
0.0
 10
167.3769
 20
92.6244
 30
0.0
 10
160.9114
 20
89.602
 30
0.0
 10
160.9114
 20
89.602
 30
0.0
 10
163.0856
 20
89.5164
 30
0.0
 10
165.3314
 20
89.8171
 30
0.0
 10
167.4298
 20
89.1113
 30
0.0
 10
167.4298
 20
89.1113
 30
0.0
 10
169.8674
 20
88.2885
 30
0.0
 10
172.5753
 20
87.6474
 30
0.0
 10
175.1379
 20
88.3616
 30
0.0
 10
175.1379
 20
88.3616
 30
0.0
 10
176.0443
 20
88.679
 30
0.0
 10
177.0489
 20
89.1133
 30
0.0
 10
177.4194
 20
90.0197
 30
0.0
 10
177.4194
 20
90.0197
 30
0.0
 10
177.7989
 20
90.6002
 30
0.0
 10
177.6962
 20
91.329
 30
0.0
 10
177.3279
 20
91.8886
 30
0.0
 10
177.3279
 20
91.8886
 30
0.0
 10
177.002
 20
92.5464
 30
0.0
 10
176.2965
 20
92.9077
 30
0.0
 10
175.8456
 20
93.4715
 30
0.0
 10
175.8456
 20
93.4715
 30
0.0
 10
177.7118
 20
93.7951
 30
0.0
 10
179.7432
 20
93.5863
 30
0.0
 10
181.2679
 20
92.4503
 30
0.0
 10
181.2679
 20
92.4503
 30
0.0
 10
183.6565
 20
90.5563
 30
0.0
 10
184.0427
 20
86.8831
 30
0.0
 10
182.1654
 20
84.5444
 30
0.0
 10
182.1654
 20
84.5444
 30
0.0
 10
183.1742
 20
83.8197
 30
0.0
 10
184.1878
 20
83.068
 30
0.0
 10
184.9066
 20
82.0678
 30
0.0
 10
184.9066
 20
82.0678
 30
0.0
 10
186.871
 20
80.1821
 30
0.0
 10
188.206
 20
77.8287
 30
0.0
 10
189.2887
 20
75.4211
 30
0.0
 10
189.2887
 20
75.4211
 30
0.0
 10
189.3177
 20
81.8652
 30
0.0
 10
189.2864
 20
88.3094
 30
0.0
 10
189.3044
 20
94.7536
 30
0.0
 10
189.3044
 20
94.7536
 30
0.0
 10
189.3936
 20
95.3739
 30
0.0
 10
188.898
 20
95.8541
 30
0.0
 10
188.4851
 20
96.2717
 30
0.0
 10
188.4851
 20
96.2717
 30
0.0
 10
187.5587
 20
97.2176
 30
0.0
 10
186.3532
 20
97.9234
 30
0.0
 10
185.0293
 20
98.266
 30
0.0
 10
185.0293
 20
98.266
 30
0.0
 10
184.0114
 20
98.5959
 30
0.0
 10
182.9221
 20
98.4602
 30
0.0
 10
181.8706
 20
98.5499
 30
0.0
 10
181.8706
 20
98.5499
 30
0.0
 10
182.9556
 20
99.7466
 30
0.0
 10
184.5159
 20
100.5817
 30
0.0
 10
186.1879
 20
100.7656
 30
0.0
 10
186.1879
 20
100.7656
 30
0.0
 10
187.2259
 20
100.7405
 30
0.0
 10
188.2864
 20
100.874
 30
0.0
 10
189.2976
 20
100.5839
 30
0.0
 10
189.2976
 20
100.5839
 30
0.0
 10
189.2954
 20
104.3489
 30
0.0
 10
189.3154
 20
108.1159
 30
0.0
 10
189.2864
 20
111.881
 30
0.0
 10
189.2864
 20
111.881
 30
0.0
 10
187.4537
 20
111.4572
 30
0.0
 10
185.871
 20
110.436
 30
0.0
 10
184.5493
 20
109.2061
 30
0.0
 10
184.5493
 20
109.2061
 30
0.0
 10
183.3239
 20
107.9031
 30
0.0
 10
182.1921
 20
106.5289
 30
0.0
 10
181.1005
 20
105.1236
 30
0.0
  0
SPLINE
  5
45
330
1F
100
AcDbEntity
  8
layer 1
 62
     7
370
     9
100
AcDbSpline
210
0.0
220
0.0
230
1.0
 70
    11
 71
     3
 72
    40
 73
    36
 74
     0
 42
0.0000000001
 43
0.0000000001
 12
1.0
 22
0.0
 32
0.0
 13
1.0
 23
0.0
 33
0.0
 40
0.0
 40
0.0
 40
0.0
 40
0.0
 40
0.1
 40
0.1
 40
0.1
 40
0.1
 40
0.2
 40
0.2
 40
0.2
 40
0.2
 40
0.3
 40
0.3
 40
0.3
 40
0.3
 40
0.4
 40
0.4
 40
0.4
 40
0.4
 40
0.5
 40
0.5
 40
0.5
 40
0.5
 40
0.6
 40
0.6
 40
0.6
 40
0.6
 40
0.7
 40
0.7
 40
0.7
 40
0.7
 40
0.8
 40
0.8
 40
0.8
 40
0.8
 40
1.0
 40
1.0
 40
1.0
 40
1.0
 10
169.3853
 20
54.7248
 30
0.0
 10
162.4048
 20
49.5394
 30
0.0
 10
161.0127
 20
55.1104
 30
0.0
 10
157.0673
 20
44.6242
 30
0.0
 10
157.0673
 20
44.6242
 30
0.0
 10
158.7149
 20
43.15
 30
0.0
 10
160.1211
 20
41.4438
 30
0.0
 10
161.1368
 20
39.529
 30
0.0
 10
161.1368
 20
39.529
 30
0.0
 10
164.3303
 20
42.1298
 30
0.0
 10
167.365
 20
44.5969
 30
0.0
 10
163.8067
 20
48.1971
 30
0.0
 10
163.8067
 20
48.1971
 30
0.0
 10
165.3448
 20
48.4039
 30
0.0
 10
167.0614
 20
48.0696
 30
0.0
 10
168.1441
 20
46.9651
 30
0.0
 10
168.1441
 20
46.9651
 30
0.0
 10
168.5995
 20
46.5537
 30
0.0
 10
168.8138
 20
45.9794
 30
0.0
 10
169.0839
 20
45.4554
 30
0.0
 10
169.0839
 20
45.4554
 30
0.0
 10
170.8431
 20
45.8228
 30
0.0
 10
172.6667
 20
45.6954
 30
0.0
 10
174.379
 20
45.1943
 30
0.0
 10
174.379
 20
45.1943
 30
0.0
 10
174.0441
 20
47.0674
 30
0.0
 10
173.4147
 20
48.974
 30
0.0
 10
173.8544
 20
50.8783
 30
0.0
 10
173.8544
 20
50.8783
 30
0.0
 10
174.0732
 20
52.4947
 30
0.0
 10
175.2384
 20
53.7788
 30
0.0
 10
176.4284
 20
54.8836
 30
0.0
 10
176.4284
 20
54.8836
 30
0.0
 10
174.1155
 20
54.3845
 30
0.0
 10
171.7158
 20
54.2905
 30
0.0
 10
169.3853
 20
54.7248
 30
0.0
  0
SPLINE
  5
46
330
1F
100
AcDbEntity
  8
layer 1
 62
     7
370
     9
100
AcDbSpline
210
0.0
220
0.0
230
1.0
 70
    11
 71
     3
 72
    36
 73
    32
 74
     0
 42
0.0000000001
 43
0.0000000001
 12
1.0
 22
0.0
 32
0.0
 13
1.0
 23
0.0
 33
0.0
 40
0.0
 40
0.0
 40
0.0
 40
0.0
 40
0.1111111111111111
 40
0.1111111111111111
 40
0.1111111111111111
 40
0.1111111111111111
 40
0.2222222222222222
 40
0.2222222222222222
 40
0.2222222222222222
 40
0.2222222222222222
 40
0.3333333333333333
 40
0.3333333333333333
 40
0.3333333333333333
 40
0.3333333333333333
 40
0.4444444444444444
 40
0.4444444444444444
 40
0.4444444444444444
 40
0.4444444444444444
 40
0.5555555555555556
 40
0.5555555555555556
 40
0.5555555555555556
 40
0.5555555555555556
 40
0.6666666666666666
 40
0.6666666666666666
 40
0.6666666666666666
 40
0.6666666666666666
 40
0.7777777777777778
 40
0.7777777777777778
 40
0.7777777777777778
 40
0.7777777777777778
 40
1.0
 40
1.0
 40
1.0
 40
1.0
 10
156.2347
 20
126.277
 30
0.0
 10
155.9022
 20
124.7297
 30
0.0
 10
155.8418
 20
122.9652
 30
0.0
 10
156.8731
 20
121.6246
 30
0.0
 10
156.8731
 20
121.6246
 30
0.0
 10
159.4735
 20
117.5296
 30
0.0
 10
163.8392
 20
116.6536
 30
0.0
 10
166.0408
 20
112.6321
 30
0.0
 10
166.0408
 20
112.6321
 30
0.0
 10
170.3803
 20
104.7052
 30
0.0
 10
164.4663
 20
97.898
 30
0.0
 10
161.2797
 20
94.0791
 30
0.0
 10
161.2797
 20
94.0791
 30
0.0
 10
169.8377
 20
97.6116
 30
0.0
 10
176.7285
 20
110.0165
 30
0.0
 10
174.1022
 20
117.6884
 30
0.0
 10
174.1022
 20
117.6884
 30
0.0
 10
173.3879
 20
120.073
 30
0.0
 10
171.2537
 20
121.9419
 30
0.0
 10
168.796
 20
122.7647
 30
0.0
 10
168.796
 20
122.7647
 30
0.0
 10
167.6955
 20
123.1907
 30
0.0
 10
166.5189
 20
123.3786
 30
0.0
 10
165.3582
 20
123.5896
 30
0.0
 10
165.3582
 20
123.5896
 30
0.0
 10
166.8315
 20
124.8822
 30
0.0
 10
168.7803
 20
125.5817
 30
0.0
 10
170.6465
 20
126.2416
 30
0.0
 10
170.6465
 20
126.2416
 30
0.0
 10
165.8427
 20
126.3189
 30
0.0
 10
161.0365
 20
126.2458
 30
0.0
 10
156.2347
 20
126.277
 30
0.0
  0
SPLINE
  5
47
330
1F
100
AcDbEntity
  8
layer 1
 62
     7
370
     9
100
AcDbSpline
210
0.0
220
0.0
230
1.0
 70
    11
 71
     3
 72
    76
 73
    72
 74
     0
 42
0.0000000001
 43
0.0000000001
 12
1.0
 22
0.0
 32
0.0
 13
1.0
 23
0.0
 33
0.0
 40
0.0
 40
0.0
 40
0.0
 40
0.0
 40
0.0526315789473684
 40
0.0526315789473684
 40
0.0526315789473684
 40
0.0526315789473684
 40
0.1052631578947368
 40
0.1052631578947368
 40
0.1052631578947368
 40
0.1052631578947368
 40
0.1578947368421053
 40
0.1578947368421053
 40
0.1578947368421053
 40
0.1578947368421053
 40
0.2105263157894737
 40
0.2105263157894737
 40
0.2105263157894737
 40
0.2105263157894737
 40
0.2631578947368421
 40
0.2631578947368421
 40
0.2631578947368421
 40
0.2631578947368421
 40
0.3157894736842105
 40
0.3157894736842105
 40
0.3157894736842105
 40
0.3157894736842105
 40
0.3684210526315789
 40
0.3684210526315789
 40
0.3684210526315789
 40
0.3684210526315789
 40
0.4210526315789473
 40
0.4210526315789473
 40
0.4210526315789473
 40
0.4210526315789473
 40
0.4736842105263158
 40
0.4736842105263158
 40
0.4736842105263158
 40
0.4736842105263158
 40
0.5263157894736842
 40
0.5263157894736842
 40
0.5263157894736842
 40
0.5263157894736842
 40
0.5789473684210527
 40
0.5789473684210527
 40
0.5789473684210527
 40
0.5789473684210527
 40
0.631578947368421
 40
0.631578947368421
 40
0.631578947368421
 40
0.631578947368421
 40
0.6842105263157895
 40
0.6842105263157895
 40
0.6842105263157895
 40
0.6842105263157895
 40
0.7368421052631579
 40
0.7368421052631579
 40
0.7368421052631579
 40
0.7368421052631579
 40
0.7894736842105263
 40
0.7894736842105263
 40
0.7894736842105263
 40
0.7894736842105263
 40
0.8421052631578947
 40
0.8421052631578947
 40
0.8421052631578947
 40
0.8421052631578947
 40
0.8947368421052632
 40
0.8947368421052632
 40
0.8947368421052632
 40
0.8947368421052632
 40
1.0
 40
1.0
 40
1.0
 40
1.0
 10
138.2957
 20
49.7257
 30
0.0
 10
137.2086
 20
47.3598
 30
0.0
 10
137.3224
 20
44.6493
 30
0.0
 10
138.0502
 20
42.2061
 30
0.0
 10
138.0502
 20
42.2061
 30
0.0
 10
138.9922
 20
39.2033
 30
0.0
 10
140.5057
 20
36.3487
 30
0.0
 10
142.506
 20
33.8407
 30
0.0
 10
142.506
 20
33.8407
 30
0.0
 10
143.6265
 20
32.2746
 30
0.0
 10
144.9659
 20
30.8609
 30
0.0
 10
146.2561
 20
29.4199
 30
0.0
 10
146.2561
 20
29.4199
 30
0.0
 10
147.8836
 20
27.95
 30
0.0
 10
149.3748
 20
26.3337
 30
0.0
 10
151.1629
 20
25.0305
 30
0.0
 10
151.1629
 20
25.0305
 30
0.0
 10
153.0201
 20
23.3852
 30
0.0
 10
155.2032
 20
22.1217
 30
0.0
 10
157.1545
 20
20.5827
 30
0.0
 10
157.1545
 20
20.5827
 30
0.0
 10
156.4378
 20
21.5893
 30
0.0
 10
155.6052
 20
22.5226
 30
0.0
 10
154.9624
 20
23.571
 30
0.0
 10
154.9624
 20
23.571
 30
0.0
 10
152.5335
 20
27.0958
 30
0.0
 10
151.2365
 20
31.2431
 30
0.0
 10
150.9196
 20
35.409
 30
0.0
 10
150.9196
 20
35.409
 30
0.0
 10
150.9887
 20
37.5682
 30
0.0
 10
150.9241
 20
39.7274
 30
0.0
 10
150.8728
 20
41.8866
 30
0.0
 10
150.8728
 20
41.8866
 30
0.0
 10
150.732
 20
44.3506
 30
0.0
 10
149.6538
 20
46.6435
 30
0.0
 10
148.3078
 20
48.7297
 30
0.0
 10
148.3078
 20
48.7297
 30
0.0
 10
150.136
 20
48.5062
 30
0.0
 10
151.8751
 20
47.8525
 30
0.0
 10
153.4979
 20
47.0549
 30
0.0
 10
153.4979
 20
47.0549
 30
0.0
 10
154.0113
 20
46.8272
 30
0.0
 10
154.5136
 20
46.3469
 30
0.0
 10
155.1274
 20
46.5872
 30
0.0
 10
155.1274
 20
46.5872
 30
0.0
 10
156.0828
 20
47.1384
 30
0.0
 10
156.0315
 20
48.3016
 30
0.0
 10
156.0405
 20
49.2203
 30
0.0
 10
156.0405
 20
49.2203
 30
0.0
 10
156.1253
 20
51.4298
 30
0.0
 10
155.8217
 20
53.8018
 30
0.0
 10
157.0205
 20
55.8129
 30
0.0
 10
157.0205
 20
55.8129
 30
0.0
 10
158.1411
 20
57.5397
 30
0.0
 10
160.3958
 20
58.2311
 30
0.0
 10
162.465
 20
58.1224
 30
0.0
 10
162.465
 20
58.1224
 30
0.0
 10
160.4404
 20
60.0748
 30
0.0
 10
158.8621
 20
62.4073
 30
0.0
 10
157.746
 20
64.9154
 30
0.0
 10
157.746
 20
64.9154
 30
0.0
 10
156.7995
 20
63.0359
 30
0.0
 10
154.9689
 20
61.7538
 30
0.0
 10
153.0938
 20
60.741
 30
0.0
 10
153.0938
 20
60.741
 30
0.0
 10
149.3056
 20
58.5984
 30
0.0
 10
144.9236
 20
57.239
 30
0.0
 10
141.7938
 20
54.1924
 30
0.0
 10
141.7938
 20
54.1924
 30
0.0
 10
140.3584
 20
52.9186
 30
0.0
 10
138.9878
 20
51.4902
 30
0.0
 10
138.2957
 20
49.7257
 30
0.0
  0
SPLINE
  5
48
330
1F
100
AcDbEntity
  8
layer 1
 62
     7
370
     9
100
AcDbSpline
210
0.0
220
0.0
230
1.0
 70
    11
 71
     3
 72
    60
 73
    56
 74
     0
 42
0.0000000001
 43
0.0000000001
 12
1.0
 22
0.0
 32
0.0
 13
1.0
 23
0.0
 33
0.0
 40
0.0
 40
0.0
 40
0.0
 40
0.0
 40
0.0666666666666667
 40
0.0666666666666667
 40
0.0666666666666667
 40
0.0666666666666667
 40
0.1333333333333333
 40
0.1333333333333333
 40
0.1333333333333333
 40
0.1333333333333333
 40
0.2
 40
0.2
 40
0.2
 40
0.2
 40
0.2666666666666667
 40
0.2666666666666667
 40
0.2666666666666667
 40
0.2666666666666667
 40
0.3333333333333333
 40
0.3333333333333333
 40
0.3333333333333333
 40
0.3333333333333333
 40
0.4
 40
0.4
 40
0.4
 40
0.4
 40
0.4666666666666667
 40
0.4666666666666667
 40
0.4666666666666667
 40
0.4666666666666667
 40
0.5333333333333333
 40
0.5333333333333333
 40
0.5333333333333333
 40
0.5333333333333333
 40
0.6
 40
0.6
 40
0.6
 40
0.6
 40
0.6666666666666666
 40
0.6666666666666666
 40
0.6666666666666666
 40
0.6666666666666666
 40
0.7333333333333333
 40
0.7333333333333333
 40
0.7333333333333333
 40
0.7333333333333333
 40
0.8
 40
0.8
 40
0.8
 40
0.8
 40
0.8666666666666667
 40
0.8666666666666667
 40
0.8666666666666667
 40
0.8666666666666667
 40
1.0
 40
1.0
 40
1.0
 40
1.0
 10
134.3177
 20
57.6399
 30
0.0
 10
133.8847
 20
54.8209
 30
0.0
 10
134.2306
 20
51.9538
 30
0.0
 10
134.7665
 20
49.1703
 30
0.0
 10
134.7665
 20
49.1703
 30
0.0
 10
134.6393
 20
52.929
 30
0.0
 10
135.3601
 20
56.7754
 30
0.0
 10
137.2444
 20
60.1229
 30
0.0
 10
137.2444
 20
60.1229
 30
0.0
 10
138.7445
 20
62.6412
 30
0.0
 10
140.8205
 20
64.8985
 30
0.0
 10
143.4636
 20
66.4146
 30
0.0
 10
143.4636
 20
66.4146
 30
0.0
 10
144.8654
 20
67.1998
 30
0.0
 10
146.6424
 20
67.2164
 30
0.0
 10
148.1471
 20
66.6882
 30
0.0
 10
148.1471
 20
66.6882
 30
0.0
 10
149.7432
 20
66.1871
 30
0.0
 10
151.4687
 20
65.7839
 30
0.0
 10
153.1518
 20
66.1139
 30
0.0
 10
153.1518
 20
66.1139
 30
0.0
 10
154.3038
 20
66.2934
 30
0.0
 10
155.4019
 20
66.7089
 30
0.0
 10
156.4156
 20
67.2478
 30
0.0
 10
156.4156
 20
67.2478
 30
0.0
 10
156.9938
 20
67.5004
 30
0.0
 10
156.8887
 20
68.2042
 30
0.0
 10
157.1186
 20
68.6741
 30
0.0
 10
157.1186
 20
68.6741
 30
0.0
 10
157.7214
 20
70.7852
 30
0.0
 10
158.9536
 20
72.8922
 30
0.0
 10
161.0989
 20
73.93
 30
0.0
 10
161.0989
 20
73.93
 30
0.0
 10
163.4474
 20
74.9533
 30
0.0
 10
166.3828
 20
74.2391
 30
0.0
 10
168.0146
 20
72.3848
 30
0.0
 10
168.0146
 20
72.3848
 30
0.0
 10
169.718
 20
73.8507
 30
0.0
 10
171.064
 20
75.8324
 30
0.0
 10
171.1869
 20
78.0416
 30
0.0
 10
171.1869
 20
78.0416
 30
0.0
 10
171.3274
 20
79.7498
 30
0.0
 10
170.5728
 20
81.4935
 30
0.0
 10
169.2515
 20
82.6649
 30
0.0
 10
169.2515
 20
82.6649
 30
0.0
 10
167.1576
 20
84.4316
 30
0.0
 10
164.088
 20
84.5735
 30
0.0
 10
161.4538
 20
84.0203
 30
0.0
 10
161.4538
 20
84.0203
 30
0.0
 10
152.9131
 20
82.4959
 30
0.0
 10
145.5463
 20
77.3944
 30
0.0
 10
140.1843
 20
71.1527
 30
0.0
 10
140.1843
 20
71.1527
 30
0.0
 10
136.8672
 20
67.3188
 30
0.0
 10
134.7777
 20
62.5577
 30
0.0
 10
134.3177
 20
57.6399
 30
0.0
  0
SPLINE
  5
49
330
1F
100
AcDbEntity
  8
layer 1
 62
     7
370
     9
100
AcDbSpline
210
0.0
220
0.0
230
1.0
 70
    11
 71
     3
 72
    36
 73
    32
 74
     0
 42
0.0000000001
 43
0.0000000001
 12
1.0
 22
0.0
 32
0.0
 13
1.0
 23
0.0
 33
0.0
 40
0.0
 40
0.0
 40
0.0
 40
0.0
 40
0.1111111111111111
 40
0.1111111111111111
 40
0.1111111111111111
 40
0.1111111111111111
 40
0.2222222222222222
 40
0.2222222222222222
 40
0.2222222222222222
 40
0.2222222222222222
 40
0.3333333333333333
 40
0.3333333333333333
 40
0.3333333333333333
 40
0.3333333333333333
 40
0.4444444444444444
 40
0.4444444444444444
 40
0.4444444444444444
 40
0.4444444444444444
 40
0.5555555555555556
 40
0.5555555555555556
 40
0.5555555555555556
 40
0.5555555555555556
 40
0.6666666666666666
 40
0.6666666666666666
 40
0.6666666666666666
 40
0.6666666666666666
 40
0.7777777777777778
 40
0.7777777777777778
 40
0.7777777777777778
 40
0.7777777777777778
 40
1.0
 40
1.0
 40
1.0
 40
1.0
 10
129.2683
 20
31.6628
 30
0.0
 10
128.7839
 20
30.1864
 30
0.0
 10
128.6253
 20
28.4698
 30
0.0
 10
129.458
 20
27.0729
 30
0.0
 10
129.458
 20
27.0729
 30
0.0
 10
130.0941
 20
25.7802
 30
0.0
 10
131.4872
 20
24.9451
 30
0.0
 10
132.9181
 20
24.5816
 30
0.0
 10
132.9181
 20
24.5816
 30
0.0
 10
133.032
 20
25.2958
 30
0.0
 10
133.2016
 20
26.085
 30
0.0
 10
133.7865
 20
26.5989
 30
0.0
 10
133.7865
 20
26.5989
 30
0.0
 10
134.8178
 20
27.1251
 30
0.0
 10
136.0634
 20
27.3359
 30
0.0
 10
137.2041
 20
27.0104
 30
0.0
 10
137.2041
 20
27.0104
 30
0.0
 10
138.0213
 20
26.7095
 30
0.0
 10
138.5257
 20
25.9892
 30
0.0
 10
139.0056
 20
25.3397
 30
0.0
 10
139.0056
 20
25.3397
 30
0.0
 10
140.3228
 20
26.2626
 30
0.0
 10
141.9188
 20
26.9747
 30
0.0
 10
143.6042
 20
26.8641
 30
0.0
 10
143.6042
 20
26.8641
 30
0.0
 10
141.8969
 20
28.9106
 30
0.0
 10
135.5101
 20
34.6285
 30
0.0
 10
132.3756
 20
34.0099
 30
0.0
 10
132.3756
 20
34.0099
 30
0.0
 10
130.9983
 20
33.8177
 30
0.0
 10
129.7996
 20
32.8467
 30
0.0
 10
129.2683
 20
31.6628
 30
0.0
  0
SPLINE
  5
4A
330
1F
100
AcDbEntity
  8
layer 1
 62
     7
370
     9
100
AcDbSpline
210
0.0
220
0.0
230
1.0
 70
    11
 71
     3
 72
    36
 73
    32
 74
     0
 42
0.0000000001
 43
0.0000000001
 12
1.0
 22
0.0
 32
0.0
 13
1.0
 23
0.0
 33
0.0
 40
0.0
 40
0.0
 40
0.0
 40
0.0
 40
0.1111111111111111
 40
0.1111111111111111
 40
0.1111111111111111
 40
0.1111111111111111
 40
0.2222222222222222
 40
0.2222222222222222
 40
0.2222222222222222
 40
0.2222222222222222
 40
0.3333333333333333
 40
0.3333333333333333
 40
0.3333333333333333
 40
0.3333333333333333
 40
0.4444444444444444
 40
0.4444444444444444
 40
0.4444444444444444
 40
0.4444444444444444
 40
0.5555555555555556
 40
0.5555555555555556
 40
0.5555555555555556
 40
0.5555555555555556
 40
0.6666666666666666
 40
0.6666666666666666
 40
0.6666666666666666
 40
0.6666666666666666
 40
0.7777777777777778
 40
0.7777777777777778
 40
0.7777777777777778
 40
0.7777777777777778
 40
1.0
 40
1.0
 40
1.0
 40
1.0
 10
168.9098
 20
-50.5402
 30
0.0
 10
169.43
 20
-51.5571
 30
0.0
 10
169.2916
 20
-52.7098
 30
0.0
 10
169.1888
 20
-53.7935
 30
0.0
 10
169.1888
 20
-53.7935
 30
0.0
 10
171.6199
 20
-53.9898
 30
0.0
 10
174.2138
 20
-54.5517
 30
0.0
 10
175.9617
 20
-56.2597
 30
0.0
 10
175.9617
 20
-56.2597
 30
0.0
 10
178.0802
 20
-58.0847
 30
0.0
 10
179.0936
 20
-60.7702
 30
0.0
 10
179.3325
 20
-63.4035
 30
0.0
 10
179.3325
 20
-63.4035
 30
0.0
 10
182.3506
 20
-61.7225
 30
0.0
 10
184.6365
 20
-58.7864
 30
0.0
 10
185.0316
 20
-55.4809
 30
0.0
 10
185.0316
 20
-55.4809
 30
0.0
 10
185.6187
 20
-49.8428
 30
0.0
 10
181.3438
 20
-44.1941
 30
0.0
 10
175.5443
 20
-42.6697
 30
0.0
 10
175.5443
 20
-42.6697
 30
0.0
 10
173.0976
 20
-42.0265
 30
0.0
 10
170.4167
 20
-42.3398
 30
0.0
 10
168.162
 20
-43.4193
 30
0.0
 10
168.162
 20
-43.4193
 30
0.0
 10
166.5591
 20
-44.1146
 30
0.0
 10
165.2533
 20
-45.2403
 30
0.0
 10
163.9296
 20
-46.3052
 30
0.0
 10
163.9296
 20
-46.3052
 30
0.0
 10
165.9408
 20
-47.2492
 30
0.0
 10
168.0772
 20
-48.475
 30
0.0
 10
168.9098
 20
-50.5402
 30
0.0
  0
SPLINE
  5
4B
330
1F
100
AcDbEntity
  8
layer 1
 62
     7
370
     9
100
AcDbSpline
210
0.0
220
0.0
230
1.0
 70
    11
 71
     3
 72
   108
 73
   104
 74
     0
 42
0.0000000001
 43
0.0000000001
 12
1.0
 22
0.0
 32
0.0
 13
1.0
 23
0.0
 33
0.0
 40
0.0
 40
0.0
 40
0.0
 40
0.0
 40
0.037037037037037
 40
0.037037037037037
 40
0.037037037037037
 40
0.037037037037037
 40
0.0740740740740741
 40
0.0740740740740741
 40
0.0740740740740741
 40
0.0740740740740741
 40
0.1111111111111111
 40
0.1111111111111111
 40
0.1111111111111111
 40
0.1111111111111111
 40
0.1481481481481481
 40
0.1481481481481481
 40
0.1481481481481481
 40
0.1481481481481481
 40
0.1851851851851852
 40
0.1851851851851852
 40
0.1851851851851852
 40
0.1851851851851852
 40
0.2222222222222222
 40
0.2222222222222222
 40
0.2222222222222222
 40
0.2222222222222222
 40
0.2592592592592592
 40
0.2592592592592592
 40
0.2592592592592592
 40
0.2592592592592592
 40
0.2962962962962963
 40
0.2962962962962963
 40
0.2962962962962963
 40
0.2962962962962963
 40
0.3333333333333333
 40
0.3333333333333333
 40
0.3333333333333333
 40
0.3333333333333333
 40
0.3703703703703703
 40
0.3703703703703703
 40
0.3703703703703703
 40
0.3703703703703703
 40
0.4074074074074074
 40
0.4074074074074074
 40
0.4074074074074074
 40
0.4074074074074074
 40
0.4444444444444444
 40
0.4444444444444444
 40
0.4444444444444444
 40
0.4444444444444444
 40
0.4814814814814815
 40
0.4814814814814815
 40
0.4814814814814815
 40
0.4814814814814815
 40
0.5185185185185185
 40
0.5185185185185185
 40
0.5185185185185185
 40
0.5185185185185185
 40
0.5555555555555556
 40
0.5555555555555556
 40
0.5555555555555556
 40
0.5555555555555556
 40
0.5925925925925926
 40
0.5925925925925926
 40
0.5925925925925926
 40
0.5925925925925926
 40
0.6296296296296297
 40
0.6296296296296297
 40
0.6296296296296297
 40
0.6296296296296297
 40
0.6666666666666666
 40
0.6666666666666666
 40
0.6666666666666666
 40
0.6666666666666666
 40
0.7037037037037037
 40
0.7037037037037037
 40
0.7037037037037037
 40
0.7037037037037037
 40
0.7407407407407407
 40
0.7407407407407407
 40
0.7407407407407407
 40
0.7407407407407407
 40
0.7777777777777778
 40
0.7777777777777778
 40
0.7777777777777778
 40
0.7777777777777778
 40
0.8148148148148148
 40
0.8148148148148148
 40
0.8148148148148148
 40
0.8148148148148148
 40
0.8518518518518519
 40
0.8518518518518519
 40
0.8518518518518519
 40
0.8518518518518519
 40
0.8888888888888888
 40
0.8888888888888888
 40
0.8888888888888888
 40
0.8888888888888888
 40
0.9259259259259259
 40
0.9259259259259259
 40
0.9259259259259259
 40
0.9259259259259259
 40
1.0
 40
1.0
 40
1.0
 40
1.0
 10
162.9317
 20
-18.2211
 30
0.0
 10
165.4806
 20
-20.1621
 30
0.0
 10
166.6193
 20
-23.4631
 30
0.0
 10
171.218
 20
-21.7354
 30
0.0
 10
171.218
 20
-21.7354
 30
0.0
 10
171.3096
 20
-23.594
 30
0.0
 10
169.267
 20
-24.9617
 30
0.0
 10
167.3985
 20
-24.874
 30
0.0
 10
167.3985
 20
-24.874
 30
0.0
 10
168.1955
 20
-25.227
 30
0.0
 10
168.9523
 20
-25.7009
 30
0.0
 10
169.8295
 20
-25.8702
 30
0.0
 10
169.8295
 20
-25.8702
 30
0.0
 10
170.7224
 20
-26.0914
 30
0.0
 10
171.6555
 20
-26.0455
 30
0.0
 10
172.5709
 20
-26.0184
 30
0.0
 10
172.5709
 20
-26.0184
 30
0.0
 10
174.6513
 20
-25.8763
 30
0.0
 10
176.3792
 20
-24.1809
 30
0.0
 10
176.647
 20
-22.2785
 30
0.0
 10
176.647
 20
-22.2785
 30
0.0
 10
176.781
 20
-21.51
 30
0.0
 10
176.4885
 20
-20.7582
 30
0.0
 10
176.3033
 20
-20.017
 30
0.0
 10
176.3033
 20
-20.017
 30
0.0
 10
175.2585
 20
-20.5431
 30
0.0
 10
173.9772
 20
-20.8689
 30
0.0
 10
172.8566
 20
-20.3385
 30
0.0
 10
172.8566
 20
-20.3385
 30
0.0
 10
170.1973
 20
-19.3892
 30
0.0
 10
170.0859
 20
-14.8861
 30
0.0
 10
173.0565
 20
-14.29
 30
0.0
 10
173.0565
 20
-14.29
 30
0.0
 10
176.1689
 20
-13.6652
 30
0.0
 10
181.4052
 20
-17.0805
 30
0.0
 10
179.8481
 20
-23.0928
 30
0.0
 10
179.8481
 20
-23.0928
 30
0.0
 10
179.3191
 20
-25.1685
 30
0.0
 10
177.7878
 20
-26.9998
 30
0.0
 10
175.725
 20
-27.925
 30
0.0
 10
175.725
 20
-27.925
 30
0.0
 10
178.3979
 20
-35.1447
 30
0.0
 10
188.1845
 20
-37.8967
 30
0.0
 10
189.2104
 20
-49.07
 30
0.0
 10
189.2104
 20
-49.07
 30
0.0
 10
189.3177
 20
-48.216
 30
0.0
 10
189.2954
 20
-47.3535
 30
0.0
 10
189.2998
 20
-46.4954
 30
0.0
 10
189.2998
 20
-46.4954
 30
0.0
 10
189.302
 20
-43.0832
 30
0.0
 10
189.2954
 20
-39.6732
 30
0.0
 10
189.3044
 20
-36.261
 30
0.0
 10
189.3044
 20
-36.261
 30
0.0
 10
189.407
 20
-34.5675
 30
0.0
 10
188.5542
 20
-32.9743
 30
0.0
 10
187.61
 20
-31.5813
 30
0.0
 10
187.61
 20
-31.5813
 30
0.0
 10
186.2259
 20
-29.6853
 30
0.0
 10
184.0114
 20
-28.497
 30
0.0
 10
181.7078
 20
-27.8268
 30
0.0
 10
181.7078
 20
-27.8268
 30
0.0
 10
184.0762
 20
-26.8035
 30
0.0
 10
186.7863
 20
-26.789
 30
0.0
 10
189.2887
 20
-27.3486
 30
0.0
 10
189.2887
 20
-27.3486
 30
0.0
 10
189.3154
 20
-16.4022
 30
0.0
 10
189.2933
 20
-5.4558
 30
0.0
 10
189.2998
 20
5.4905
 30
0.0
 10
189.2998
 20
5.4905
 30
0.0
 10
185.9626
 20
4.1624
 30
0.0
 10
182.5895
 20
2.8656
 30
0.0
 10
179.0468
 20
2.0993
 30
0.0
 10
179.0468
 20
2.0993
 30
0.0
 10
178.2936
 20
-0.2576
 30
0.0
 10
184.2638
 20
-5.0787
 30
0.0
 10
185.0741
 20
-10.3715
 30
0.0
 10
185.0741
 20
-10.3715
 30
0.0
 10
185.4312
 20
-13.2741
 30
0.0
 10
185.0338
 20
-16.3291
 30
0.0
 10
183.4958
 20
-18.9039
 30
0.0
 10
183.4958
 20
-18.9039
 30
0.0
 10
183.1342
 20
-18.2544
 30
0.0
 10
182.8798
 20
-17.5612
 30
0.0
 10
182.5471
 20
-16.9014
 30
0.0
 10
182.5471
 20
-16.9014
 30
0.0
 10
179.6688
 20
-9.9965
 30
0.0
 10
175.4442
 20
-10.3541
 30
0.0
 10
171.3922
 20
-6.4477
 30
0.0
 10
171.3922
 20
-6.4477
 30
0.0
 10
169.1062
 20
-4.4994
 30
0.0
 10
167.8227
 20
-1.7117
 30
0.0
 10
167.3049
 20
1.1012
 30
0.0
 10
167.3049
 20
1.1012
 30
0.0
 10
165.8895
 20
0.32
 30
0.0
 10
164.8648
 20
-0.9683
 30
0.0
 10
164.2286
 20
-2.3674
 30
0.0
 10
164.2286
 20
-2.3674
 30
0.0
 10
163.2196
 20
-4.7647
 30
0.0
 10
162.9183
 20
-7.3791
 30
0.0
 10
163.0097
 20
-9.9371
 30
0.0
 10
163.0097
 20
-9.9371
 30
0.0
 10
163.5835
 20
-12.6747
 30
0.0
 10
163.5031
 20
-15.4918
 30
0.0
 10
162.9317
 20
-18.2211
 30
0.0
  0
SPLINE
  5
4C
330
1F
100
AcDbEntity
  8
layer 1
 62
     7
370
     9
100
AcDbSpline
210
0.0
220
0.0
230
1.0
 70
    11
 71
     3
 72
    80
 73
    76
 74
     0
 42
0.0000000001
 43
0.0000000001
 12
1.0
 22
0.0
 32
0.0
 13
1.0
 23
0.0
 33
0.0
 40
0.0
 40
0.0
 40
0.0
 40
0.0
 40
0.05
 40
0.05
 40
0.05
 40
0.05
 40
0.1
 40
0.1
 40
0.1
 40
0.1
 40
0.15
 40
0.15
 40
0.15
 40
0.15
 40
0.2
 40
0.2
 40
0.2
 40
0.2
 40
0.25
 40
0.25
 40
0.25
 40
0.25
 40
0.3
 40
0.3
 40
0.3
 40
0.3
 40
0.35
 40
0.35
 40
0.35
 40
0.35
 40
0.4
 40
0.4
 40
0.4
 40
0.4
 40
0.45
 40
0.45
 40
0.45
 40
0.45
 40
0.5
 40
0.5
 40
0.5
 40
0.5
 40
0.55
 40
0.55
 40
0.55
 40
0.55
 40
0.6
 40
0.6
 40
0.6
 40
0.6
 40
0.65
 40
0.65
 40
0.65
 40
0.65
 40
0.7
 40
0.7
 40
0.7
 40
0.7
 40
0.75
 40
0.75
 40
0.75
 40
0.75
 40
0.8
 40
0.8
 40
0.8
 40
0.8
 40
0.85
 40
0.85
 40
0.85
 40
0.85
 40
0.9
 40
0.9
 40
0.9
 40
0.9
 40
1.0
 40
1.0
 40
1.0
 40
1.0
 10
181.1005
 20
-88.4096
 30
0.0
 10
182.1921
 20
-89.8149
 30
0.0
 10
183.3239
 20
-91.1892
 30
0.0
 10
184.5493
 20
-92.4921
 30
0.0
 10
184.5493
 20
-92.4921
 30
0.0
 10
185.871
 20
-93.7221
 30
0.0
 10
187.4537
 20
-94.7432
 30
0.0
 10
189.2864
 20
-95.1671
 30
0.0
 10
189.2864
 20
-95.1671
 30
0.0
 10
189.3154
 20
-91.402
 30
0.0
 10
189.2954
 20
-87.635
 30
0.0
 10
189.2976
 20
-83.8699
 30
0.0
 10
189.2976
 20
-83.8699
 30
0.0
 10
188.2864
 20
-84.1601
 30
0.0
 10
187.2259
 20
-84.0265
 30
0.0
 10
186.1879
 20
-84.0516
 30
0.0
 10
186.1879
 20
-84.0516
 30
0.0
 10
184.5159
 20
-83.8678
 30
0.0
 10
182.9556
 20
-83.0326
 30
0.0
 10
181.8706
 20
-81.836
 30
0.0
 10
181.8706
 20
-81.836
 30
0.0
 10
182.9221
 20
-81.7462
 30
0.0
 10
184.0114
 20
-81.8819
 30
0.0
 10
185.0293
 20
-81.5521
 30
0.0
 10
185.0293
 20
-81.5521
 30
0.0
 10
186.3532
 20
-81.2095
 30
0.0
 10
187.5587
 20
-80.5037
 30
0.0
 10
188.4851
 20
-79.5578
 30
0.0
 10
188.4851
 20
-79.5578
 30
0.0
 10
188.898
 20
-79.1402
 30
0.0
 10
189.3936
 20
-78.66
 30
0.0
 10
189.3044
 20
-78.0397
 30
0.0
 10
189.3044
 20
-78.0397
 30
0.0
 10
189.2864
 20
-71.5955
 30
0.0
 10
189.3177
 20
-65.1512
 30
0.0
 10
189.2887
 20
-58.7071
 30
0.0
 10
189.2887
 20
-58.7071
 30
0.0
 10
188.206
 20
-61.1147
 30
0.0
 10
186.871
 20
-63.4681
 30
0.0
 10
184.9066
 20
-65.3539
 30
0.0
 10
184.9066
 20
-65.3539
 30
0.0
 10
184.1878
 20
-66.3541
 30
0.0
 10
183.1742
 20
-67.1058
 30
0.0
 10
182.1654
 20
-67.8305
 30
0.0
 10
182.1654
 20
-67.8305
 30
0.0
 10
184.0427
 20
-70.1692
 30
0.0
 10
183.6565
 20
-73.8423
 30
0.0
 10
181.2679
 20
-75.7363
 30
0.0
 10
181.2679
 20
-75.7363
 30
0.0
 10
179.7432
 20
-76.8723
 30
0.0
 10
177.7118
 20
-77.0812
 30
0.0
 10
175.8456
 20
-76.7576
 30
0.0
 10
175.8456
 20
-76.7576
 30
0.0
 10
176.2965
 20
-76.1938
 30
0.0
 10
177.002
 20
-75.8325
 30
0.0
 10
177.3279
 20
-75.1746
 30
0.0
 10
177.3279
 20
-75.1746
 30
0.0
 10
177.6962
 20
-74.6151
 30
0.0
 10
177.7989
 20
-73.8862
 30
0.0
 10
177.4194
 20
-73.3058
 30
0.0
 10
177.4194
 20
-73.3058
 30
0.0
 10
177.0489
 20
-72.3994
 30
0.0
 10
176.0443
 20
-71.9651
 30
0.0
 10
175.1379
 20
-71.6477
 30
0.0
 10
175.1379
 20
-71.6477
 30
0.0
 10
172.5753
 20
-70.9335
 30
0.0
 10
169.8674
 20
-71.5746
 30
0.0
 10
167.4298
 20
-72.3974
 30
0.0
 10
167.4298
 20
-72.3974
 30
0.0
 10
165.3314
 20
-73.1031
 30
0.0
 10
163.0856
 20
-72.8025
 30
0.0
 10
160.9114
 20
-72.888
 30
0.0
 10
160.9114
 20
-72.888
 30
0.0
 10
167.3769
 20
-75.9104
 30
0.0
 10
176.8572
 20
-82.6531
 30
0.0
 10
181.1005
 20
-88.4096
 30
0.0
  0
SPLINE
  5
4D
330
1F
100
AcDbEntity
  8
layer 1
 62
     7
370
     9
100
AcDbSpline
210
0.0
220
0.0
230
1.0
 70
    11
 71
     3
 72
    40
 73
    36
 74
     0
 42
0.0000000001
 43
0.0000000001
 12
1.0
 22
0.0
 32
0.0
 13
1.0
 23
0.0
 33
0.0
 40
0.0
 40
0.0
 40
0.0
 40
0.0
 40
0.1
 40
0.1
 40
0.1
 40
0.1
 40
0.2
 40
0.2
 40
0.2
 40
0.2
 40
0.3
 40
0.3
 40
0.3
 40
0.3
 40
0.4
 40
0.4
 40
0.4
 40
0.4
 40
0.5
 40
0.5
 40
0.5
 40
0.5
 40
0.6
 40
0.6
 40
0.6
 40
0.6
 40
0.7
 40
0.7
 40
0.7
 40
0.7
 40
0.8
 40
0.8
 40
0.8
 40
0.8
 40
1.0
 40
1.0
 40
1.0
 40
1.0
 10
169.3853
 20
-38.0109
 30
0.0
 10
171.7158
 20
-37.5765
 30
0.0
 10
174.1155
 20
-37.6705
 30
0.0
 10
176.4284
 20
-38.1696
 30
0.0
 10
176.4284
 20
-38.1696
 30
0.0
 10
175.2384
 20
-37.0649
 30
0.0
 10
174.0732
 20
-35.7807
 30
0.0
 10
173.8544
 20
-34.1644
 30
0.0
 10
173.8544
 20
-34.1644
 30
0.0
 10
173.4147
 20
-32.2601
 30
0.0
 10
174.0441
 20
-30.3535
 30
0.0
 10
174.379
 20
-28.4803
 30
0.0
 10
174.379
 20
-28.4803
 30
0.0
 10
172.6667
 20
-28.9815
 30
0.0
 10
170.8431
 20
-29.1089
 30
0.0
 10
169.0839
 20
-28.7415
 30
0.0
 10
169.0839
 20
-28.7415
 30
0.0
 10
168.8138
 20
-29.2655
 30
0.0
 10
168.5995
 20
-29.8397
 30
0.0
 10
168.1441
 20
-30.2511
 30
0.0
 10
168.1441
 20
-30.2511
 30
0.0
 10
167.0614
 20
-31.3557
 30
0.0
 10
165.3448
 20
-31.6899
 30
0.0
 10
163.8067
 20
-31.4832
 30
0.0
 10
163.8067
 20
-31.4832
 30
0.0
 10
167.365
 20
-27.883
 30
0.0
 10
164.3303
 20
-25.4158
 30
0.0
 10
161.1368
 20
-22.8151
 30
0.0
 10
161.1368
 20
-22.8151
 30
0.0
 10
160.1211
 20
-24.7299
 30
0.0
 10
158.7149
 20
-26.4361
 30
0.0
 10
157.0673
 20
-27.9103
 30
0.0
 10
157.0673
 20
-27.9103
 30
0.0
 10
161.0127
 20
-38.3964
 30
0.0
 10
162.4048
 20
-32.8255
 30
0.0
 10
169.3853
 20
-38.0109
 30
0.0
  0
SPLINE
  5
4E
330
1F
100
AcDbEntity
  8
layer 1
 62
     7
370
     9
100
AcDbSpline
210
0.0
220
0.0
230
1.0
 70
    11
 71
     3
 72
    36
 73
    32
 74
     0
 42
0.0000000001
 43
0.0000000001
 12
1.0
 22
0.0
 32
0.0
 13
1.0
 23
0.0
 33
0.0
 40
0.0
 40
0.0
 40
0.0
 40
0.0
 40
0.1111111111111111
 40
0.1111111111111111
 40
0.1111111111111111
 40
0.1111111111111111
 40
0.2222222222222222
 40
0.2222222222222222
 40
0.2222222222222222
 40
0.2222222222222222
 40
0.3333333333333333
 40
0.3333333333333333
 40
0.3333333333333333
 40
0.3333333333333333
 40
0.4444444444444444
 40
0.4444444444444444
 40
0.4444444444444444
 40
0.4444444444444444
 40
0.5555555555555556
 40
0.5555555555555556
 40
0.5555555555555556
 40
0.5555555555555556
 40
0.6666666666666666
 40
0.6666666666666666
 40
0.6666666666666666
 40
0.6666666666666666
 40
0.7777777777777778
 40
0.7777777777777778
 40
0.7777777777777778
 40
0.7777777777777778
 40
1.0
 40
1.0
 40
1.0
 40
1.0
 10
156.2347
 20
-109.5631
 30
0.0
 10
161.0365
 20
-109.5318
 30
0.0
 10
165.8427
 20
-109.6049
 30
0.0
 10
170.6465
 20
-109.5277
 30
0.0
 10
170.6465
 20
-109.5277
 30
0.0
 10
168.7803
 20
-108.8678
 30
0.0
 10
166.8315
 20
-108.1683
 30
0.0
 10
165.3582
 20
-106.8757
 30
0.0
 10
165.3582
 20
-106.8757
 30
0.0
 10
166.5189
 20
-106.6647
 30
0.0
 10
167.6955
 20
-106.4768
 30
0.0
 10
168.796
 20
-106.0508
 30
0.0
 10
168.796
 20
-106.0508
 30
0.0
 10
171.2537
 20
-105.228
 30
0.0
 10
173.3879
 20
-103.359
 30
0.0
 10
174.1022
 20
-100.9745
 30
0.0
 10
174.1022
 20
-100.9745
 30
0.0
 10
176.7285
 20
-93.3026
 30
0.0
 10
169.8377
 20
-80.8976
 30
0.0
 10
161.2797
 20
-77.3652
 30
0.0
 10
161.2797
 20
-77.3652
 30
0.0
 10
164.4663
 20
-81.184
 30
0.0
 10
170.3803
 20
-87.9912
 30
0.0
 10
166.0408
 20
-95.9182
 30
0.0
 10
166.0408
 20
-95.9182
 30
0.0
 10
163.8392
 20
-99.9396
 30
0.0
 10
159.4735
 20
-100.8156
 30
0.0
 10
156.8731
 20
-104.9107
 30
0.0
 10
156.8731
 20
-104.9107
 30
0.0
 10
155.8418
 20
-106.2512
 30
0.0
 10
155.9022
 20
-108.0158
 30
0.0
 10
156.2347
 20
-109.5631
 30
0.0
  0
SPLINE
  5
4F
330
1F
100
AcDbEntity
  8
layer 1
 62
     7
370
     9
100
AcDbSpline
210
0.0
220
0.0
230
1.0
 70
    11
 71
     3
 72
    76
 73
    72
 74
     0
 42
0.0000000001
 43
0.0000000001
 12
1.0
 22
0.0
 32
0.0
 13
1.0
 23
0.0
 33
0.0
 40
0.0
 40
0.0
 40
0.0
 40
0.0
 40
0.0526315789473684
 40
0.0526315789473684
 40
0.0526315789473684
 40
0.0526315789473684
 40
0.1052631578947368
 40
0.1052631578947368
 40
0.1052631578947368
 40
0.1052631578947368
 40
0.1578947368421053
 40
0.1578947368421053
 40
0.1578947368421053
 40
0.1578947368421053
 40
0.2105263157894737
 40
0.2105263157894737
 40
0.2105263157894737
 40
0.2105263157894737
 40
0.2631578947368421
 40
0.2631578947368421
 40
0.2631578947368421
 40
0.2631578947368421
 40
0.3157894736842105
 40
0.3157894736842105
 40
0.3157894736842105
 40
0.3157894736842105
 40
0.3684210526315789
 40
0.3684210526315789
 40
0.3684210526315789
 40
0.3684210526315789
 40
0.4210526315789473
 40
0.4210526315789473
 40
0.4210526315789473
 40
0.4210526315789473
 40
0.4736842105263158
 40
0.4736842105263158
 40
0.4736842105263158
 40
0.4736842105263158
 40
0.5263157894736842
 40
0.5263157894736842
 40
0.5263157894736842
 40
0.5263157894736842
 40
0.5789473684210527
 40
0.5789473684210527
 40
0.5789473684210527
 40
0.5789473684210527
 40
0.631578947368421
 40
0.631578947368421
 40
0.631578947368421
 40
0.631578947368421
 40
0.6842105263157895
 40
0.6842105263157895
 40
0.6842105263157895
 40
0.6842105263157895
 40
0.7368421052631579
 40
0.7368421052631579
 40
0.7368421052631579
 40
0.7368421052631579
 40
0.7894736842105263
 40
0.7894736842105263
 40
0.7894736842105263
 40
0.7894736842105263
 40
0.8421052631578947
 40
0.8421052631578947
 40
0.8421052631578947
 40
0.8421052631578947
 40
0.8947368421052632
 40
0.8947368421052632
 40
0.8947368421052632
 40
0.8947368421052632
 40
1.0
 40
1.0
 40
1.0
 40
1.0
 10
138.2957
 20
-33.0117
 30
0.0
 10
138.9878
 20
-34.7763
 30
0.0
 10
140.3584
 20
-36.2047
 30
0.0
 10
141.7938
 20
-37.4784
 30
0.0
 10
141.7938
 20
-37.4784
 30
0.0
 10
144.9236
 20
-40.5251
 30
0.0
 10
149.3056
 20
-41.8845
 30
0.0
 10
153.0938
 20
-44.027
 30
0.0
 10
153.0938
 20
-44.027
 30
0.0
 10
154.9689
 20
-45.0398
 30
0.0
 10
156.7995
 20
-46.3219
 30
0.0
 10
157.746
 20
-48.2014
 30
0.0
 10
157.746
 20
-48.2014
 30
0.0
 10
158.8621
 20
-45.6934
 30
0.0
 10
160.4404
 20
-43.3608
 30
0.0
 10
162.465
 20
-41.4085
 30
0.0
 10
162.465
 20
-41.4085
 30
0.0
 10
160.3958
 20
-41.5171
 30
0.0
 10
158.1411
 20
-40.8257
 30
0.0
 10
157.0205
 20
-39.0989
 30
0.0
 10
157.0205
 20
-39.0989
 30
0.0
 10
155.8217
 20
-37.0879
 30
0.0
 10
156.1253
 20
-34.7158
 30
0.0
 10
156.0405
 20
-32.5064
 30
0.0
 10
156.0405
 20
-32.5064
 30
0.0
 10
156.0315
 20
-31.5876
 30
0.0
 10
156.0828
 20
-30.4245
 30
0.0
 10
155.1274
 20
-29.8733
 30
0.0
 10
155.1274
 20
-29.8733
 30
0.0
 10
154.5136
 20
-29.633
 30
0.0
 10
154.0113
 20
-30.1133
 30
0.0
 10
153.4979
 20
-30.341
 30
0.0
 10
153.4979
 20
-30.341
 30
0.0
 10
151.8751
 20
-31.1386
 30
0.0
 10
150.136
 20
-31.7923
 30
0.0
 10
148.3078
 20
-32.0158
 30
0.0
 10
148.3078
 20
-32.0158
 30
0.0
 10
149.6538
 20
-29.9296
 30
0.0
 10
150.732
 20
-27.6367
 30
0.0
 10
150.8728
 20
-25.1726
 30
0.0
 10
150.8728
 20
-25.1726
 30
0.0
 10
150.9241
 20
-23.0134
 30
0.0
 10
150.9887
 20
-20.8543
 30
0.0
 10
150.9196
 20
-18.6951
 30
0.0
 10
150.9196
 20
-18.6951
 30
0.0
 10
151.2365
 20
-14.5291
 30
0.0
 10
152.5335
 20
-10.3819
 30
0.0
 10
154.9624
 20
-6.8571
 30
0.0
 10
154.9624
 20
-6.8571
 30
0.0
 10
155.6052
 20
-5.8087
 30
0.0
 10
156.4378
 20
-4.8754
 30
0.0
 10
157.1545
 20
-3.8688
 30
0.0
 10
157.1545
 20
-3.8688
 30
0.0
 10
155.2032
 20
-5.4078
 30
0.0
 10
153.0201
 20
-6.6712
 30
0.0
 10
151.1629
 20
-8.3166
 30
0.0
 10
151.1629
 20
-8.3166
 30
0.0
 10
149.3748
 20
-9.6197
 30
0.0
 10
147.8836
 20
-11.236
 30
0.0
 10
146.2561
 20
-12.706
 30
0.0
 10
146.2561
 20
-12.706
 30
0.0
 10
144.9659
 20
-14.1469
 30
0.0
 10
143.6265
 20
-15.5607
 30
0.0
 10
142.506
 20
-17.1267
 30
0.0
 10
142.506
 20
-17.1267
 30
0.0
 10
140.5057
 20
-19.6348
 30
0.0
 10
138.9922
 20
-22.4894
 30
0.0
 10
138.0502
 20
-25.4922
 30
0.0
 10
138.0502
 20
-25.4922
 30
0.0
 10
137.3224
 20
-27.9354
 30
0.0
 10
137.2086
 20
-30.6459
 30
0.0
 10
138.2957
 20
-33.0117
 30
0.0
  0
SPLINE
  5
50
330
1F
100
AcDbEntity
  8
layer 1
 62
     7
370
     9
100
AcDbSpline
210
0.0
220
0.0
230
1.0
 70
    11
 71
     3
 72
    60
 73
    56
 74
     0
 42
0.0000000001
 43
0.0000000001
 12
1.0
 22
0.0
 32
0.0
 13
1.0
 23
0.0
 33
0.0
 40
0.0
 40
0.0
 40
0.0
 40
0.0
 40
0.0666666666666667
 40
0.0666666666666667
 40
0.0666666666666667
 40
0.0666666666666667
 40
0.1333333333333333
 40
0.1333333333333333
 40
0.1333333333333333
 40
0.1333333333333333
 40
0.2
 40
0.2
 40
0.2
 40
0.2
 40
0.2666666666666667
 40
0.2666666666666667
 40
0.2666666666666667
 40
0.2666666666666667
 40
0.3333333333333333
 40
0.3333333333333333
 40
0.3333333333333333
 40
0.3333333333333333
 40
0.4
 40
0.4
 40
0.4
 40
0.4
 40
0.4666666666666667
 40
0.4666666666666667
 40
0.4666666666666667
 40
0.4666666666666667
 40
0.5333333333333333
 40
0.5333333333333333
 40
0.5333333333333333
 40
0.5333333333333333
 40
0.6
 40
0.6
 40
0.6
 40
0.6
 40
0.6666666666666666
 40
0.6666666666666666
 40
0.6666666666666666
 40
0.6666666666666666
 40
0.7333333333333333
 40
0.7333333333333333
 40
0.7333333333333333
 40
0.7333333333333333
 40
0.8
 40
0.8
 40
0.8
 40
0.8
 40
0.8666666666666667
 40
0.8666666666666667
 40
0.8666666666666667
 40
0.8666666666666667
 40
1.0
 40
1.0
 40
1.0
 40
1.0
 10
134.3177
 20
-40.926
 30
0.0
 10
134.7777
 20
-45.8438
 30
0.0
 10
136.8672
 20
-50.6049
 30
0.0
 10
140.1843
 20
-54.4388
 30
0.0
 10
140.1843
 20
-54.4388
 30
0.0
 10
145.5463
 20
-60.6805
 30
0.0
 10
152.9131
 20
-65.782
 30
0.0
 10
161.4538
 20
-67.3063
 30
0.0
 10
161.4538
 20
-67.3063
 30
0.0
 10
164.088
 20
-67.8596
 30
0.0
 10
167.1576
 20
-67.7177
 30
0.0
 10
169.2515
 20
-65.951
 30
0.0
 10
169.2515
 20
-65.951
 30
0.0
 10
170.5728
 20
-64.7795
 30
0.0
 10
171.3274
 20
-63.0359
 30
0.0
 10
171.1869
 20
-61.3277
 30
0.0
 10
171.1869
 20
-61.3277
 30
0.0
 10
171.064
 20
-59.1184
 30
0.0
 10
169.718
 20
-57.1367
 30
0.0
 10
168.0146
 20
-55.6709
 30
0.0
 10
168.0146
 20
-55.6709
 30
0.0
 10
166.3828
 20
-57.5252
 30
0.0
 10
163.4474
 20
-58.2394
 30
0.0
 10
161.0989
 20
-57.2161
 30
0.0
 10
161.0989
 20
-57.2161
 30
0.0
 10
158.9536
 20
-56.1783
 30
0.0
 10
157.7214
 20
-54.0713
 30
0.0
 10
157.1186
 20
-51.9601
 30
0.0
 10
157.1186
 20
-51.9601
 30
0.0
 10
156.8887
 20
-51.4903
 30
0.0
 10
156.9938
 20
-50.7865
 30
0.0
 10
156.4156
 20
-50.5338
 30
0.0
 10
156.4156
 20
-50.5338
 30
0.0
 10
155.4019
 20
-49.995
 30
0.0
 10
154.3038
 20
-49.5795
 30
0.0
 10
153.1518
 20
-49.3999
 30
0.0
 10
153.1518
 20
-49.3999
 30
0.0
 10
151.4687
 20
-49.07
 30
0.0
 10
149.7432
 20
-49.4731
 30
0.0
 10
148.1471
 20
-49.9743
 30
0.0
 10
148.1471
 20
-49.9743
 30
0.0
 10
146.6424
 20
-50.5025
 30
0.0
 10
144.8654
 20
-50.4858
 30
0.0
 10
143.4636
 20
-49.7007
 30
0.0
 10
143.4636
 20
-49.7007
 30
0.0
 10
140.8205
 20
-48.1846
 30
0.0
 10
138.7445
 20
-45.9273
 30
0.0
 10
137.2444
 20
-43.409
 30
0.0
 10
137.2444
 20
-43.409
 30
0.0
 10
135.3601
 20
-40.0615
 30
0.0
 10
134.6393
 20
-36.2151
 30
0.0
 10
134.7665
 20
-32.4564
 30
0.0
 10
134.7665
 20
-32.4564
 30
0.0
 10
134.2306
 20
-35.2399
 30
0.0
 10
133.8847
 20
-38.107
 30
0.0
 10
134.3177
 20
-40.926
 30
0.0
  0
SPLINE
  5
51
330
1F
100
AcDbEntity
  8
layer 1
 62
     7
370
     9
100
AcDbSpline
210
0.0
220
0.0
230
1.0
 70
    11
 71
     3
 72
    36
 73
    32
 74
     0
 42
0.0000000001
 43
0.0000000001
 12
1.0
 22
0.0
 32
0.0
 13
1.0
 23
0.0
 33
0.0
 40
0.0
 40
0.0
 40
0.0
 40
0.0
 40
0.1111111111111111
 40
0.1111111111111111
 40
0.1111111111111111
 40
0.1111111111111111
 40
0.2222222222222222
 40
0.2222222222222222
 40
0.2222222222222222
 40
0.2222222222222222
 40
0.3333333333333333
 40
0.3333333333333333
 40
0.3333333333333333
 40
0.3333333333333333
 40
0.4444444444444444
 40
0.4444444444444444
 40
0.4444444444444444
 40
0.4444444444444444
 40
0.5555555555555556
 40
0.5555555555555556
 40
0.5555555555555556
 40
0.5555555555555556
 40
0.6666666666666666
 40
0.6666666666666666
 40
0.6666666666666666
 40
0.6666666666666666
 40
0.7777777777777778
 40
0.7777777777777778
 40
0.7777777777777778
 40
0.7777777777777778
 40
1.0
 40
1.0
 40
1.0
 40
1.0
 10
129.2683
 20
-14.9488
 30
0.0
 10
129.7996
 20
-16.1328
 30
0.0
 10
130.9983
 20
-17.1038
 30
0.0
 10
132.3756
 20
-17.296
 30
0.0
 10
132.3756
 20
-17.296
 30
0.0
 10
135.5101
 20
-17.9145
 30
0.0
 10
141.8969
 20
-12.1967
 30
0.0
 10
143.6042
 20
-10.1501
 30
0.0
 10
143.6042
 20
-10.1501
 30
0.0
 10
141.9188
 20
-10.2608
 30
0.0
 10
140.3228
 20
-9.5487
 30
0.0
 10
139.0056
 20
-8.6258
 30
0.0
 10
139.0056
 20
-8.6258
 30
0.0
 10
138.5257
 20
-9.2753
 30
0.0
 10
138.0213
 20
-9.9956
 30
0.0
 10
137.2041
 20
-10.2964
 30
0.0
 10
137.2041
 20
-10.2964
 30
0.0
 10
136.0634
 20
-10.622
 30
0.0
 10
134.8178
 20
-10.4112
 30
0.0
 10
133.7865
 20
-9.8849
 30
0.0
 10
133.7865
 20
-9.8849
 30
0.0
 10
133.2016
 20
-9.3711
 30
0.0
 10
133.032
 20
-8.5819
 30
0.0
 10
132.9181
 20
-7.8677
 30
0.0
 10
132.9181
 20
-7.8677
 30
0.0
 10
131.4872
 20
-8.2311
 30
0.0
 10
130.0941
 20
-9.0663
 30
0.0
 10
129.458
 20
-10.359
 30
0.0
 10
129.458
 20
-10.359
 30
0.0
 10
128.6253
 20
-11.7559
 30
0.0
 10
128.7839
 20
-13.4724
 30
0.0
 10
129.2683
 20
-14.9488
 30
0.0
  0
SPLINE
  5
52
330
1F
100
AcDbEntity
  8
layer 1
 62
     7
370
     9
100
AcDbSpline
210
0.0
220
0.0
230
1.0
 70
    11
 71
     3
 72
    24
 73
    20
 74
     0
 42
0.0000000001
 43
0.0000000001
 12
1.0
 22
0.0
 32
0.0
 13
1.0
 23
0.0
 33
0.0
 40
0.0
 40
0.0
 40
0.0
 40
0.0
 40
0.1666666666666667
 40
0.1666666666666667
 40
0.1666666666666667
 40
0.1666666666666667
 40
0.3333333333333333
 40
0.3333333333333333
 40
0.3333333333333333
 40
0.3333333333333333
 40
0.5
 40
0.5
 40
0.5
 40
0.5
 40
0.6666666666666666
 40
0.6666666666666666
 40
0.6666666666666666
 40
0.6666666666666666
 40
1.0
 40
1.0
 40
1.0
 40
1.0
 10
176.6827
 20
-109.536
 30
0.0
 10
180.8885
 20
-109.5882
 30
0.0
 10
185.0941
 20
-109.5444
 30
0.0
 10
189.2998
 20
-109.559
 30
0.0
 10
189.2998
 20
-109.559
 30
0.0
 10
189.2931
 20
-105.5016
 30
0.0
 10
189.3132
 20
-101.4442
 30
0.0
 10
189.2887
 20
-97.3869
 30
0.0
 10
189.2887
 20
-97.3869
 30
0.0
 10
187.4091
 20
-97.7752
 30
0.0
 10
185.4312
 20
-97.9088
 30
0.0
 10
183.5427
 20
-97.5017
 30
0.0
 10
183.5427
 20
-97.5017
 30
0.0
 10
183.9444
 20
-101.2396
 30
0.0
 10
182.6943
 20
-105.2823
 30
0.0
 10
179.6429
 20
-107.8342
 30
0.0
 10
179.6429
 20
-107.8342
 30
0.0
 10
178.8502
 20
-108.661
 30
0.0
 10
177.7141
 20
-109.0453
 30
0.0
 10
176.6827
 20
-109.536
 30
0.0
  0
SPLINE
  5
53
330
1F
100
AcDbEntity
  8
layer 1
 62
     7
370
     9
100
AcDbSpline
210
0.0
220
0.0
230
1.0
 70
    11
 71
     3
 72
    36
 73
    32
 74
     0
 42
0.0000000001
 43
0.0000000001
 12
1.0
 22
0.0
 32
0.0
 13
1.0
 23
0.0
 33
0.0
 40
0.0
 40
0.0
 40
0.0
 40
0.0
 40
0.1111111111111111
 40
0.1111111111111111
 40
0.1111111111111111
 40
0.1111111111111111
 40
0.2222222222222222
 40
0.2222222222222222
 40
0.2222222222222222
 40
0.2222222222222222
 40
0.3333333333333333
 40
0.3333333333333333
 40
0.3333333333333333
 40
0.3333333333333333
 40
0.4444444444444444
 40
0.4444444444444444
 40
0.4444444444444444
 40
0.4444444444444444
 40
0.5555555555555556
 40
0.5555555555555556
 40
0.5555555555555556
 40
0.5555555555555556
 40
0.6666666666666666
 40
0.6666666666666666
 40
0.6666666666666666
 40
0.6666666666666666
 40
0.7777777777777778
 40
0.7777777777777778
 40
0.7777777777777778
 40
0.7777777777777778
 40
1.0
 40
1.0
 40
1.0
 40
1.0
 10
84.8822
 20
67.2542
 30
0.0
 10
84.362
 20
68.271
 30
0.0
 10
84.5004
 20
69.4237
 30
0.0
 10
84.6032
 20
70.5075
 30
0.0
 10
84.6032
 20
70.5075
 30
0.0
 10
82.1721
 20
70.7038
 30
0.0
 10
79.5782
 20
71.2656
 30
0.0
 10
77.8303
 20
72.9737
 30
0.0
 10
77.8303
 20
72.9737
 30
0.0
 10
75.7118
 20
74.7987
 30
0.0
 10
74.6984
 20
77.4841
 30
0.0
 10
74.4595
 20
80.1174
 30
0.0
 10
74.4595
 20
80.1174
 30
0.0
 10
71.4414
 20
78.4364
 30
0.0
 10
69.1555
 20
75.5004
 30
0.0
 10
68.7604
 20
72.1948
 30
0.0
 10
68.7604
 20
72.1948
 30
0.0
 10
68.1733
 20
66.5567
 30
0.0
 10
72.4482
 20
60.9081
 30
0.0
 10
78.2477
 20
59.3836
 30
0.0
 10
78.2477
 20
59.3836
 30
0.0
 10
80.6944
 20
58.7404
 30
0.0
 10
83.3753
 20
59.0537
 30
0.0
 10
85.63
 20
60.1333
 30
0.0
 10
85.63
 20
60.1333
 30
0.0
 10
87.2329
 20
60.8286
 30
0.0
 10
88.5387
 20
61.9543
 30
0.0
 10
89.8624
 20
63.0191
 30
0.0
 10
89.8624
 20
63.0191
 30
0.0
 10
87.8512
 20
63.9631
 30
0.0
 10
85.7148
 20
65.1889
 30
0.0
 10
84.8822
 20
67.2542
 30
0.0
  0
SPLINE
  5
54
330
1F
100
AcDbEntity
  8
layer 1
 62
     7
370
     9
100
AcDbSpline
210
0.0
220
0.0
230
1.0
 70
    11
 71
     3
 72
   108
 73
   104
 74
     0
 42
0.0000000001
 43
0.0000000001
 12
1.0
 22
0.0
 32
0.0
 13
1.0
 23
0.0
 33
0.0
 40
0.0
 40
0.0
 40
0.0
 40
0.0
 40
0.037037037037037
 40
0.037037037037037
 40
0.037037037037037
 40
0.037037037037037
 40
0.0740740740740741
 40
0.0740740740740741
 40
0.0740740740740741
 40
0.0740740740740741
 40
0.1111111111111111
 40
0.1111111111111111
 40
0.1111111111111111
 40
0.1111111111111111
 40
0.1481481481481481
 40
0.1481481481481481
 40
0.1481481481481481
 40
0.1481481481481481
 40
0.1851851851851852
 40
0.1851851851851852
 40
0.1851851851851852
 40
0.1851851851851852
 40
0.2222222222222222
 40
0.2222222222222222
 40
0.2222222222222222
 40
0.2222222222222222
 40
0.2592592592592592
 40
0.2592592592592592
 40
0.2592592592592592
 40
0.2592592592592592
 40
0.2962962962962963
 40
0.2962962962962963
 40
0.2962962962962963
 40
0.2962962962962963
 40
0.3333333333333333
 40
0.3333333333333333
 40
0.3333333333333333
 40
0.3333333333333333
 40
0.3703703703703703
 40
0.3703703703703703
 40
0.3703703703703703
 40
0.3703703703703703
 40
0.4074074074074074
 40
0.4074074074074074
 40
0.4074074074074074
 40
0.4074074074074074
 40
0.4444444444444444
 40
0.4444444444444444
 40
0.4444444444444444
 40
0.4444444444444444
 40
0.4814814814814815
 40
0.4814814814814815
 40
0.4814814814814815
 40
0.4814814814814815
 40
0.5185185185185185
 40
0.5185185185185185
 40
0.5185185185185185
 40
0.5185185185185185
 40
0.5555555555555556
 40
0.5555555555555556
 40
0.5555555555555556
 40
0.5555555555555556
 40
0.5925925925925926
 40
0.5925925925925926
 40
0.5925925925925926
 40
0.5925925925925926
 40
0.6296296296296297
 40
0.6296296296296297
 40
0.6296296296296297
 40
0.6296296296296297
 40
0.6666666666666666
 40
0.6666666666666666
 40
0.6666666666666666
 40
0.6666666666666666
 40
0.7037037037037037
 40
0.7037037037037037
 40
0.7037037037037037
 40
0.7037037037037037
 40
0.7407407407407407
 40
0.7407407407407407
 40
0.7407407407407407
 40
0.7407407407407407
 40
0.7777777777777778
 40
0.7777777777777778
 40
0.7777777777777778
 40
0.7777777777777778
 40
0.8148148148148148
 40
0.8148148148148148
 40
0.8148148148148148
 40
0.8148148148148148
 40
0.8518518518518519
 40
0.8518518518518519
 40
0.8518518518518519
 40
0.8518518518518519
 40
0.8888888888888888
 40
0.8888888888888888
 40
0.8888888888888888
 40
0.8888888888888888
 40
0.9259259259259259
 40
0.9259259259259259
 40
0.9259259259259259
 40
0.9259259259259259
 40
1.0
 40
1.0
 40
1.0
 40
1.0
 10
90.8603
 20
34.935
 30
0.0
 10
88.3114
 20
36.8761
 30
0.0
 10
87.1727
 20
40.177
 30
0.0
 10
82.574
 20
38.4493
 30
0.0
 10
82.574
 20
38.4493
 30
0.0
 10
82.4824
 20
40.3079
 30
0.0
 10
84.525
 20
41.6757
 30
0.0
 10
86.3935
 20
41.588
 30
0.0
 10
86.3935
 20
41.588
 30
0.0
 10
85.5965
 20
41.9409
 30
0.0
 10
84.8397
 20
42.4149
 30
0.0
 10
83.9625
 20
42.5841
 30
0.0
 10
83.9625
 20
42.5841
 30
0.0
 10
83.0695
 20
42.8054
 30
0.0
 10
82.1365
 20
42.7594
 30
0.0
 10
81.2211
 20
42.7324
 30
0.0
 10
81.2211
 20
42.7324
 30
0.0
 10
79.1407
 20
42.5903
 30
0.0
 10
77.4128
 20
40.8948
 30
0.0
 10
77.1449
 20
38.9924
 30
0.0
 10
77.1449
 20
38.9924
 30
0.0
 10
77.011
 20
38.2239
 30
0.0
 10
77.3035
 20
37.4722
 30
0.0
 10
77.4887
 20
36.7309
 30
0.0
 10
77.4887
 20
36.7309
 30
0.0
 10
78.5335
 20
37.2571
 30
0.0
 10
79.8148
 20
37.5828
 30
0.0
 10
80.9354
 20
37.0525
 30
0.0
 10
80.9354
 20
37.0525
 30
0.0
 10
83.5947
 20
36.1031
 30
0.0
 10
83.7061
 20
31.6
 30
0.0
 10
80.7355
 20
31.0039
 30
0.0
 10
80.7355
 20
31.0039
 30
0.0
 10
77.6231
 20
30.3791
 30
0.0
 10
72.3868
 20
33.7945
 30
0.0
 10
73.9439
 20
39.8068
 30
0.0
 10
73.9439
 20
39.8068
 30
0.0
 10
74.4729
 20
41.8825
 30
0.0
 10
76.0042
 20
43.7137
 30
0.0
 10
78.067
 20
44.6389
 30
0.0
 10
78.067
 20
44.6389
 30
0.0
 10
75.3941
 20
51.8586
 30
0.0
 10
65.6075
 20
54.6107
 30
0.0
 10
64.5816
 20
65.7839
 30
0.0
 10
64.5816
 20
65.7839
 30
0.0
 10
64.4743
 20
64.93
 30
0.0
 10
64.4966
 20
64.0675
 30
0.0
 10
64.4922
 20
63.2093
 30
0.0
 10
64.4922
 20
63.2093
 30
0.0
 10
64.49
 20
59.7971
 30
0.0
 10
64.4966
 20
56.3871
 30
0.0
 10
64.4876
 20
52.975
 30
0.0
 10
64.4876
 20
52.975
 30
0.0
 10
64.385
 20
51.2815
 30
0.0
 10
65.2378
 20
49.6882
 30
0.0
 10
66.182
 20
48.2952
 30
0.0
 10
66.182
 20
48.2952
 30
0.0
 10
67.5661
 20
46.3992
 30
0.0
 10
69.7806
 20
45.2109
 30
0.0
 10
72.0842
 20
44.5407
 30
0.0
 10
72.0842
 20
44.5407
 30
0.0
 10
69.7158
 20
43.5174
 30
0.0
 10
67.0057
 20
43.5029
 30
0.0
 10
64.5033
 20
44.0625
 30
0.0
 10
64.5033
 20
44.0625
 30
0.0
 10
64.4766
 20
33.1161
 30
0.0
 10
64.4987
 20
22.1698
 30
0.0
 10
64.4922
 20
11.2235
 30
0.0
 10
64.4922
 20
11.2235
 30
0.0
 10
67.8294
 20
12.5515
 30
0.0
 10
71.2025
 20
13.8483
 30
0.0
 10
74.7452
 20
14.6147
 30
0.0
 10
74.7452
 20
14.6147
 30
0.0
 10
75.4984
 20
16.9716
 30
0.0
 10
69.5282
 20
21.7926
 30
0.0
 10
68.7179
 20
27.0854
 30
0.0
 10
68.7179
 20
27.0854
 30
0.0
 10
68.3608
 20
29.988
 30
0.0
 10
68.7582
 20
33.0431
 30
0.0
 10
70.2962
 20
35.6179
 30
0.0
 10
70.2962
 20
35.6179
 30
0.0
 10
70.6578
 20
34.9683
 30
0.0
 10
70.9122
 20
34.2751
 30
0.0
 10
71.2449
 20
33.6153
 30
0.0
 10
71.2449
 20
33.6153
 30
0.0
 10
74.1232
 20
26.7105
 30
0.0
 10
78.3478
 20
27.068
 30
0.0
 10
82.3998
 20
23.1616
 30
0.0
 10
82.3998
 20
23.1616
 30
0.0
 10
84.6858
 20
21.2133
 30
0.0
 10
85.9693
 20
18.4256
 30
0.0
 10
86.4871
 20
15.6128
 30
0.0
 10
86.4871
 20
15.6128
 30
0.0
 10
87.9025
 20
16.3939
 30
0.0
 10
88.9272
 20
17.6823
 30
0.0
 10
89.5634
 20
19.0813
 30
0.0
 10
89.5634
 20
19.0813
 30
0.0
 10
90.5724
 20
21.4786
 30
0.0
 10
90.8737
 20
24.0931
 30
0.0
 10
90.7823
 20
26.651
 30
0.0
 10
90.7823
 20
26.651
 30
0.0
 10
90.2085
 20
29.3886
 30
0.0
 10
90.2889
 20
32.2057
 30
0.0
 10
90.8603
 20
34.935
 30
0.0
  0
SPLINE
  5
55
330
1F
100
AcDbEntity
  8
layer 1
 62
     7
370
     9
100
AcDbSpline
210
0.0
220
0.0
230
1.0
 70
    11
 71
     3
 72
    80
 73
    76
 74
     0
 42
0.0000000001
 43
0.0000000001
 12
1.0
 22
0.0
 32
0.0
 13
1.0
 23
0.0
 33
0.0
 40
0.0
 40
0.0
 40
0.0
 40
0.0
 40
0.05
 40
0.05
 40
0.05
 40
0.05
 40
0.1
 40
0.1
 40
0.1
 40
0.1
 40
0.15
 40
0.15
 40
0.15
 40
0.15
 40
0.2
 40
0.2
 40
0.2
 40
0.2
 40
0.25
 40
0.25
 40
0.25
 40
0.25
 40
0.3
 40
0.3
 40
0.3
 40
0.3
 40
0.35
 40
0.35
 40
0.35
 40
0.35
 40
0.4
 40
0.4
 40
0.4
 40
0.4
 40
0.45
 40
0.45
 40
0.45
 40
0.45
 40
0.5
 40
0.5
 40
0.5
 40
0.5
 40
0.55
 40
0.55
 40
0.55
 40
0.55
 40
0.6
 40
0.6
 40
0.6
 40
0.6
 40
0.65
 40
0.65
 40
0.65
 40
0.65
 40
0.7
 40
0.7
 40
0.7
 40
0.7
 40
0.75
 40
0.75
 40
0.75
 40
0.75
 40
0.8
 40
0.8
 40
0.8
 40
0.8
 40
0.85
 40
0.85
 40
0.85
 40
0.85
 40
0.9
 40
0.9
 40
0.9
 40
0.9
 40
1.0
 40
1.0
 40
1.0
 40
1.0
 10
72.6915
 20
105.1236
 30
0.0
 10
71.5999
 20
106.5289
 30
0.0
 10
70.4681
 20
107.9031
 30
0.0
 10
69.2427
 20
109.2061
 30
0.0
 10
69.2427
 20
109.2061
 30
0.0
 10
67.921
 20
110.436
 30
0.0
 10
66.3383
 20
111.4572
 30
0.0
 10
64.5056
 20
111.881
 30
0.0
 10
64.5056
 20
111.881
 30
0.0
 10
64.4766
 20
108.1159
 30
0.0
 10
64.4966
 20
104.3489
 30
0.0
 10
64.4944
 20
100.5839
 30
0.0
 10
64.4944
 20
100.5839
 30
0.0
 10
65.5056
 20
100.874
 30
0.0
 10
66.5661
 20
100.7405
 30
0.0
 10
67.6041
 20
100.7656
 30
0.0
 10
67.6041
 20
100.7656
 30
0.0
 10
69.2761
 20
100.5817
 30
0.0
 10
70.8364
 20
99.7466
 30
0.0
 10
71.9214
 20
98.5499
 30
0.0
 10
71.9214
 20
98.5499
 30
0.0
 10
70.8699
 20
98.4602
 30
0.0
 10
69.7806
 20
98.5959
 30
0.0
 10
68.7627
 20
98.266
 30
0.0
 10
68.7627
 20
98.266
 30
0.0
 10
67.4388
 20
97.9234
 30
0.0
 10
66.2333
 20
97.2176
 30
0.0
 10
65.3069
 20
96.2717
 30
0.0
 10
65.3069
 20
96.2717
 30
0.0
 10
64.894
 20
95.8541
 30
0.0
 10
64.3984
 20
95.3739
 30
0.0
 10
64.4876
 20
94.7536
 30
0.0
 10
64.4876
 20
94.7536
 30
0.0
 10
64.5056
 20
88.3094
 30
0.0
 10
64.4743
 20
81.8652
 30
0.0
 10
64.5033
 20
75.4211
 30
0.0
 10
64.5033
 20
75.4211
 30
0.0
 10
65.586
 20
77.8287
 30
0.0
 10
66.921
 20
80.1821
 30
0.0
 10
68.8854
 20
82.0678
 30
0.0
 10
68.8854
 20
82.0678
 30
0.0
 10
69.6042
 20
83.068
 30
0.0
 10
70.6178
 20
83.8197
 30
0.0
 10
71.6266
 20
84.5444
 30
0.0
 10
71.6266
 20
84.5444
 30
0.0
 10
69.7493
 20
86.8831
 30
0.0
 10
70.1355
 20
90.5563
 30
0.0
 10
72.5241
 20
92.4503
 30
0.0
 10
72.5241
 20
92.4503
 30
0.0
 10
74.0488
 20
93.5863
 30
0.0
 10
76.0802
 20
93.7951
 30
0.0
 10
77.9464
 20
93.4715
 30
0.0
 10
77.9464
 20
93.4715
 30
0.0
 10
77.4955
 20
92.9077
 30
0.0
 10
76.79
 20
92.5464
 30
0.0
 10
76.4641
 20
91.8886
 30
0.0
 10
76.4641
 20
91.8886
 30
0.0
 10
76.0958
 20
91.329
 30
0.0
 10
75.9931
 20
90.6002
 30
0.0
 10
76.3726
 20
90.0197
 30
0.0
 10
76.3726
 20
90.0197
 30
0.0
 10
76.7431
 20
89.1133
 30
0.0
 10
77.7477
 20
88.679
 30
0.0
 10
78.6541
 20
88.3616
 30
0.0
 10
78.6541
 20
88.3616
 30
0.0
 10
81.2167
 20
87.6474
 30
0.0
 10
83.9246
 20
88.2885
 30
0.0
 10
86.3622
 20
89.1113
 30
0.0
 10
86.3622
 20
89.1113
 30
0.0
 10
88.4606
 20
89.8171
 30
0.0
 10
90.7064
 20
89.5164
 30
0.0
 10
92.8806
 20
89.602
 30
0.0
 10
92.8806
 20
89.602
 30
0.0
 10
86.4151
 20
92.6244
 30
0.0
 10
76.9348
 20
99.367
 30
0.0
 10
72.6915
 20
105.1236
 30
0.0
  0
SPLINE
  5
56
330
1F
100
AcDbEntity
  8
layer 1
 62
     7
370
     9
100
AcDbSpline
210
0.0
220
0.0
230
1.0
 70
    11
 71
     3
 72
    40
 73
    36
 74
     0
 42
0.0000000001
 43
0.0000000001
 12
1.0
 22
0.0
 32
0.0
 13
1.0
 23
0.0
 33
0.0
 40
0.0
 40
0.0
 40
0.0
 40
0.0
 40
0.1
 40
0.1
 40
0.1
 40
0.1
 40
0.2
 40
0.2
 40
0.2
 40
0.2
 40
0.3
 40
0.3
 40
0.3
 40
0.3
 40
0.4
 40
0.4
 40
0.4
 40
0.4
 40
0.5
 40
0.5
 40
0.5
 40
0.5
 40
0.6
 40
0.6
 40
0.6
 40
0.6
 40
0.7
 40
0.7
 40
0.7
 40
0.7
 40
0.8
 40
0.8
 40
0.8
 40
0.8
 40
1.0
 40
1.0
 40
1.0
 40
1.0
 10
84.4067
 20
54.7248
 30
0.0
 10
82.0762
 20
54.2905
 30
0.0
 10
79.6765
 20
54.3845
 30
0.0
 10
77.3636
 20
54.8836
 30
0.0
 10
77.3636
 20
54.8836
 30
0.0
 10
78.5536
 20
53.7788
 30
0.0
 10
79.7188
 20
52.4947
 30
0.0
 10
79.9376
 20
50.8783
 30
0.0
 10
79.9376
 20
50.8783
 30
0.0
 10
80.3773
 20
48.974
 30
0.0
 10
79.7478
 20
47.0674
 30
0.0
 10
79.413
 20
45.1943
 30
0.0
 10
79.413
 20
45.1943
 30
0.0
 10
81.1253
 20
45.6954
 30
0.0
 10
82.9489
 20
45.8228
 30
0.0
 10
84.7081
 20
45.4554
 30
0.0
 10
84.7081
 20
45.4554
 30
0.0
 10
84.9782
 20
45.9794
 30
0.0
 10
85.1925
 20
46.5537
 30
0.0
 10
85.6479
 20
46.9651
 30
0.0
 10
85.6479
 20
46.9651
 30
0.0
 10
86.7306
 20
48.0696
 30
0.0
 10
88.4472
 20
48.4039
 30
0.0
 10
89.9853
 20
48.1971
 30
0.0
 10
89.9853
 20
48.1971
 30
0.0
 10
86.427
 20
44.5969
 30
0.0
 10
89.4617
 20
42.1298
 30
0.0
 10
92.6552
 20
39.529
 30
0.0
 10
92.6552
 20
39.529
 30
0.0
 10
93.6709
 20
41.4438
 30
0.0
 10
95.0771
 20
43.15
 30
0.0
 10
96.7247
 20
44.6242
 30
0.0
 10
96.7247
 20
44.6242
 30
0.0
 10
92.7793
 20
55.1104
 30
0.0
 10
91.3872
 20
49.5394
 30
0.0
 10
84.4067
 20
54.7248
 30
0.0
  0
SPLINE
  5
57
330
1F
100
AcDbEntity
  8
layer 1
 62
     7
370
     9
100
AcDbSpline
210
0.0
220
0.0
230
1.0
 70
    11
 71
     3
 72
    36
 73
    32
 74
     0
 42
0.0000000001
 43
0.0000000001
 12
1.0
 22
0.0
 32
0.0
 13
1.0
 23
0.0
 33
0.0
 40
0.0
 40
0.0
 40
0.0
 40
0.0
 40
0.1111111111111111
 40
0.1111111111111111
 40
0.1111111111111111
 40
0.1111111111111111
 40
0.2222222222222222
 40
0.2222222222222222
 40
0.2222222222222222
 40
0.2222222222222222
 40
0.3333333333333333
 40
0.3333333333333333
 40
0.3333333333333333
 40
0.3333333333333333
 40
0.4444444444444444
 40
0.4444444444444444
 40
0.4444444444444444
 40
0.4444444444444444
 40
0.5555555555555556
 40
0.5555555555555556
 40
0.5555555555555556
 40
0.5555555555555556
 40
0.6666666666666666
 40
0.6666666666666666
 40
0.6666666666666666
 40
0.6666666666666666
 40
0.7777777777777778
 40
0.7777777777777778
 40
0.7777777777777778
 40
0.7777777777777778
 40
1.0
 40
1.0
 40
1.0
 40
1.0
 10
97.5573
 20
126.277
 30
0.0
 10
92.7555
 20
126.2458
 30
0.0
 10
87.9493
 20
126.3189
 30
0.0
 10
83.1455
 20
126.2416
 30
0.0
 10
83.1455
 20
126.2416
 30
0.0
 10
85.0117
 20
125.5817
 30
0.0
 10
86.9605
 20
124.8822
 30
0.0
 10
88.4338
 20
123.5896
 30
0.0
 10
88.4338
 20
123.5896
 30
0.0
 10
87.2731
 20
123.3786
 30
0.0
 10
86.0965
 20
123.1907
 30
0.0
 10
84.996
 20
122.7647
 30
0.0
 10
84.996
 20
122.7647
 30
0.0
 10
82.5383
 20
121.9419
 30
0.0
 10
80.4041
 20
120.073
 30
0.0
 10
79.6898
 20
117.6884
 30
0.0
 10
79.6898
 20
117.6884
 30
0.0
 10
77.0635
 20
110.0165
 30
0.0
 10
83.9543
 20
97.6116
 30
0.0
 10
92.5123
 20
94.0791
 30
0.0
 10
92.5123
 20
94.0791
 30
0.0
 10
89.3257
 20
97.898
 30
0.0
 10
83.4117
 20
104.7052
 30
0.0
 10
87.7512
 20
112.6321
 30
0.0
 10
87.7512
 20
112.6321
 30
0.0
 10
89.9528
 20
116.6536
 30
0.0
 10
94.3185
 20
117.5296
 30
0.0
 10
96.9189
 20
121.6246
 30
0.0
 10
96.9189
 20
121.6246
 30
0.0
 10
97.9502
 20
122.9652
 30
0.0
 10
97.8898
 20
124.7297
 30
0.0
 10
97.5573
 20
126.277
 30
0.0
  0
SPLINE
  5
58
330
1F
100
AcDbEntity
  8
layer 1
 62
     7
370
     9
100
AcDbSpline
210
0.0
220
0.0
230
1.0
 70
    11
 71
     3
 72
    76
 73
    72
 74
     0
 42
0.0000000001
 43
0.0000000001
 12
1.0
 22
0.0
 32
0.0
 13
1.0
 23
0.0
 33
0.0
 40
0.0
 40
0.0
 40
0.0
 40
0.0
 40
0.0526315789473684
 40
0.0526315789473684
 40
0.0526315789473684
 40
0.0526315789473684
 40
0.1052631578947368
 40
0.1052631578947368
 40
0.1052631578947368
 40
0.1052631578947368
 40
0.1578947368421053
 40
0.1578947368421053
 40
0.1578947368421053
 40
0.1578947368421053
 40
0.2105263157894737
 40
0.2105263157894737
 40
0.2105263157894737
 40
0.2105263157894737
 40
0.2631578947368421
 40
0.2631578947368421
 40
0.2631578947368421
 40
0.2631578947368421
 40
0.3157894736842105
 40
0.3157894736842105
 40
0.3157894736842105
 40
0.3157894736842105
 40
0.3684210526315789
 40
0.3684210526315789
 40
0.3684210526315789
 40
0.3684210526315789
 40
0.4210526315789473
 40
0.4210526315789473
 40
0.4210526315789473
 40
0.4210526315789473
 40
0.4736842105263158
 40
0.4736842105263158
 40
0.4736842105263158
 40
0.4736842105263158
 40
0.5263157894736842
 40
0.5263157894736842
 40
0.5263157894736842
 40
0.5263157894736842
 40
0.5789473684210527
 40
0.5789473684210527
 40
0.5789473684210527
 40
0.5789473684210527
 40
0.631578947368421
 40
0.631578947368421
 40
0.631578947368421
 40
0.631578947368421
 40
0.6842105263157895
 40
0.6842105263157895
 40
0.6842105263157895
 40
0.6842105263157895
 40
0.7368421052631579
 40
0.7368421052631579
 40
0.7368421052631579
 40
0.7368421052631579
 40
0.7894736842105263
 40
0.7894736842105263
 40
0.7894736842105263
 40
0.7894736842105263
 40
0.8421052631578947
 40
0.8421052631578947
 40
0.8421052631578947
 40
0.8421052631578947
 40
0.8947368421052632
 40
0.8947368421052632
 40
0.8947368421052632
 40
0.8947368421052632
 40
1.0
 40
1.0
 40
1.0
 40
1.0
 10
115.4963
 20
49.7257
 30
0.0
 10
114.8042
 20
51.4902
 30
0.0
 10
113.4336
 20
52.9186
 30
0.0
 10
111.9982
 20
54.1924
 30
0.0
 10
111.9982
 20
54.1924
 30
0.0
 10
108.8684
 20
57.239
 30
0.0
 10
104.4864
 20
58.5984
 30
0.0
 10
100.6982
 20
60.741
 30
0.0
 10
100.6982
 20
60.741
 30
0.0
 10
98.8231
 20
61.7538
 30
0.0
 10
96.9925
 20
63.0359
 30
0.0
 10
96.046
 20
64.9154
 30
0.0
 10
96.046
 20
64.9154
 30
0.0
 10
94.9299
 20
62.4073
 30
0.0
 10
93.3516
 20
60.0748
 30
0.0
 10
91.327
 20
58.1224
 30
0.0
 10
91.327
 20
58.1224
 30
0.0
 10
93.3962
 20
58.2311
 30
0.0
 10
95.6509
 20
57.5397
 30
0.0
 10
96.7715
 20
55.8129
 30
0.0
 10
96.7715
 20
55.8129
 30
0.0
 10
97.9703
 20
53.8018
 30
0.0
 10
97.6667
 20
51.4298
 30
0.0
 10
97.7515
 20
49.2203
 30
0.0
 10
97.7515
 20
49.2203
 30
0.0
 10
97.7605
 20
48.3016
 30
0.0
 10
97.7092
 20
47.1384
 30
0.0
 10
98.6646
 20
46.5872
 30
0.0
 10
98.6646
 20
46.5872
 30
0.0
 10
99.2784
 20
46.3469
 30
0.0
 10
99.7807
 20
46.8272
 30
0.0
 10
100.2941
 20
47.0549
 30
0.0
 10
100.2941
 20
47.0549
 30
0.0
 10
101.9169
 20
47.8525
 30
0.0
 10
103.656
 20
48.5062
 30
0.0
 10
105.4842
 20
48.7297
 30
0.0
 10
105.4842
 20
48.7297
 30
0.0
 10
104.1382
 20
46.6435
 30
0.0
 10
103.06
 20
44.3506
 30
0.0
 10
102.9192
 20
41.8866
 30
0.0
 10
102.9192
 20
41.8866
 30
0.0
 10
102.8679
 20
39.7274
 30
0.0
 10
102.8033
 20
37.5682
 30
0.0
 10
102.8724
 20
35.409
 30
0.0
 10
102.8724
 20
35.409
 30
0.0
 10
102.5555
 20
31.2431
 30
0.0
 10
101.2585
 20
27.0958
 30
0.0
 10
98.8296
 20
23.571
 30
0.0
 10
98.8296
 20
23.571
 30
0.0
 10
98.1868
 20
22.5226
 30
0.0
 10
97.3542
 20
21.5893
 30
0.0
 10
96.6375
 20
20.5827
 30
0.0
 10
96.6375
 20
20.5827
 30
0.0
 10
98.5887
 20
22.1217
 30
0.0
 10
100.7719
 20
23.3852
 30
0.0
 10
102.6291
 20
25.0305
 30
0.0
 10
102.6291
 20
25.0305
 30
0.0
 10
104.4172
 20
26.3337
 30
0.0
 10
105.9084
 20
27.95
 30
0.0
 10
107.5358
 20
29.4199
 30
0.0
 10
107.5358
 20
29.4199
 30
0.0
 10
108.8261
 20
30.8609
 30
0.0
 10
110.1655
 20
32.2746
 30
0.0
 10
111.286
 20
33.8407
 30
0.0
 10
111.286
 20
33.8407
 30
0.0
 10
113.2863
 20
36.3487
 30
0.0
 10
114.7998
 20
39.2033
 30
0.0
 10
115.7418
 20
42.2061
 30
0.0
 10
115.7418
 20
42.2061
 30
0.0
 10
116.4696
 20
44.6493
 30
0.0
 10
116.5834
 20
47.3598
 30
0.0
 10
115.4963
 20
49.7257
 30
0.0
  0
SPLINE
  5
59
330
1F
100
AcDbEntity
  8
layer 1
 62
     7
370
     9
100
AcDbSpline
210
0.0
220
0.0
230
1.0
 70
    11
 71
     3
 72
    60
 73
    56
 74
     0
 42
0.0000000001
 43
0.0000000001
 12
1.0
 22
0.0
 32
0.0
 13
1.0
 23
0.0
 33
0.0
 40
0.0
 40
0.0
 40
0.0
 40
0.0
 40
0.0666666666666667
 40
0.0666666666666667
 40
0.0666666666666667
 40
0.0666666666666667
 40
0.1333333333333333
 40
0.1333333333333333
 40
0.1333333333333333
 40
0.1333333333333333
 40
0.2
 40
0.2
 40
0.2
 40
0.2
 40
0.2666666666666667
 40
0.2666666666666667
 40
0.2666666666666667
 40
0.2666666666666667
 40
0.3333333333333333
 40
0.3333333333333333
 40
0.3333333333333333
 40
0.3333333333333333
 40
0.4
 40
0.4
 40
0.4
 40
0.4
 40
0.4666666666666667
 40
0.4666666666666667
 40
0.4666666666666667
 40
0.4666666666666667
 40
0.5333333333333333
 40
0.5333333333333333
 40
0.5333333333333333
 40
0.5333333333333333
 40
0.6
 40
0.6
 40
0.6
 40
0.6
 40
0.6666666666666666
 40
0.6666666666666666
 40
0.6666666666666666
 40
0.6666666666666666
 40
0.7333333333333333
 40
0.7333333333333333
 40
0.7333333333333333
 40
0.7333333333333333
 40
0.8
 40
0.8
 40
0.8
 40
0.8
 40
0.8666666666666667
 40
0.8666666666666667
 40
0.8666666666666667
 40
0.8666666666666667
 40
1.0
 40
1.0
 40
1.0
 40
1.0
 10
119.4743
 20
57.6399
 30
0.0
 10
119.0143
 20
62.5577
 30
0.0
 10
116.9248
 20
67.3188
 30
0.0
 10
113.6077
 20
71.1527
 30
0.0
 10
113.6077
 20
71.1527
 30
0.0
 10
108.2457
 20
77.3944
 30
0.0
 10
100.8789
 20
82.4959
 30
0.0
 10
92.3382
 20
84.0203
 30
0.0
 10
92.3382
 20
84.0203
 30
0.0
 10
89.704
 20
84.5735
 30
0.0
 10
86.6344
 20
84.4316
 30
0.0
 10
84.5405
 20
82.6649
 30
0.0
 10
84.5405
 20
82.6649
 30
0.0
 10
83.2192
 20
81.4935
 30
0.0
 10
82.4646
 20
79.7498
 30
0.0
 10
82.6051
 20
78.0416
 30
0.0
 10
82.6051
 20
78.0416
 30
0.0
 10
82.728
 20
75.8324
 30
0.0
 10
84.074
 20
73.8507
 30
0.0
 10
85.7774
 20
72.3848
 30
0.0
 10
85.7774
 20
72.3848
 30
0.0
 10
87.4092
 20
74.2391
 30
0.0
 10
90.3446
 20
74.9533
 30
0.0
 10
92.6931
 20
73.93
 30
0.0
 10
92.6931
 20
73.93
 30
0.0
 10
94.8384
 20
72.8922
 30
0.0
 10
96.0706
 20
70.7852
 30
0.0
 10
96.6734
 20
68.6741
 30
0.0
 10
96.6734
 20
68.6741
 30
0.0
 10
96.9033
 20
68.2042
 30
0.0
 10
96.7982
 20
67.5004
 30
0.0
 10
97.3764
 20
67.2478
 30
0.0
 10
97.3764
 20
67.2478
 30
0.0
 10
98.3901
 20
66.7089
 30
0.0
 10
99.4882
 20
66.2934
 30
0.0
 10
100.6402
 20
66.1139
 30
0.0
 10
100.6402
 20
66.1139
 30
0.0
 10
102.3233
 20
65.7839
 30
0.0
 10
104.0488
 20
66.1871
 30
0.0
 10
105.6449
 20
66.6882
 30
0.0
 10
105.6449
 20
66.6882
 30
0.0
 10
107.1496
 20
67.2164
 30
0.0
 10
108.9266
 20
67.1998
 30
0.0
 10
110.3284
 20
66.4146
 30
0.0
 10
110.3284
 20
66.4146
 30
0.0
 10
112.9715
 20
64.8985
 30
0.0
 10
115.0475
 20
62.6412
 30
0.0
 10
116.5476
 20
60.1229
 30
0.0
 10
116.5476
 20
60.1229
 30
0.0
 10
118.4319
 20
56.7754
 30
0.0
 10
119.1527
 20
52.929
 30
0.0
 10
119.0255
 20
49.1703
 30
0.0
 10
119.0255
 20
49.1703
 30
0.0
 10
119.5614
 20
51.9538
 30
0.0
 10
119.9073
 20
54.8209
 30
0.0
 10
119.4743
 20
57.6399
 30
0.0
  0
SPLINE
  5
5A
330
1F
100
AcDbEntity
  8
layer 1
 62
     7
370
     9
100
AcDbSpline
210
0.0
220
0.0
230
1.0
 70
    11
 71
     3
 72
    36
 73
    32
 74
     0
 42
0.0000000001
 43
0.0000000001
 12
1.0
 22
0.0
 32
0.0
 13
1.0
 23
0.0
 33
0.0
 40
0.0
 40
0.0
 40
0.0
 40
0.0
 40
0.1111111111111111
 40
0.1111111111111111
 40
0.1111111111111111
 40
0.1111111111111111
 40
0.2222222222222222
 40
0.2222222222222222
 40
0.2222222222222222
 40
0.2222222222222222
 40
0.3333333333333333
 40
0.3333333333333333
 40
0.3333333333333333
 40
0.3333333333333333
 40
0.4444444444444444
 40
0.4444444444444444
 40
0.4444444444444444
 40
0.4444444444444444
 40
0.5555555555555556
 40
0.5555555555555556
 40
0.5555555555555556
 40
0.5555555555555556
 40
0.6666666666666666
 40
0.6666666666666666
 40
0.6666666666666666
 40
0.6666666666666666
 40
0.7777777777777778
 40
0.7777777777777778
 40
0.7777777777777778
 40
0.7777777777777778
 40
1.0
 40
1.0
 40
1.0
 40
1.0
 10
124.5237
 20
31.6628
 30
0.0
 10
123.9924
 20
32.8467
 30
0.0
 10
122.7937
 20
33.8177
 30
0.0
 10
121.4164
 20
34.0099
 30
0.0
 10
121.4164
 20
34.0099
 30
0.0
 10
118.2819
 20
34.6285
 30
0.0
 10
111.8951
 20
28.9106
 30
0.0
 10
110.1878
 20
26.8641
 30
0.0
 10
110.1878
 20
26.8641
 30
0.0
 10
111.8732
 20
26.9747
 30
0.0
 10
113.4692
 20
26.2626
 30
0.0
 10
114.7864
 20
25.3397
 30
0.0
 10
114.7864
 20
25.3397
 30
0.0
 10
115.2662
 20
25.9892
 30
0.0
 10
115.7707
 20
26.7095
 30
0.0
 10
116.5879
 20
27.0104
 30
0.0
 10
116.5879
 20
27.0104
 30
0.0
 10
117.7286
 20
27.3359
 30
0.0
 10
118.9742
 20
27.1251
 30
0.0
 10
120.0055
 20
26.5989
 30
0.0
 10
120.0055
 20
26.5989
 30
0.0
 10
120.5904
 20
26.085
 30
0.0
 10
120.76
 20
25.2958
 30
0.0
 10
120.8739
 20
24.5816
 30
0.0
 10
120.8739
 20
24.5816
 30
0.0
 10
122.3048
 20
24.9451
 30
0.0
 10
123.6979
 20
25.7802
 30
0.0
 10
124.334
 20
27.0729
 30
0.0
 10
124.334
 20
27.0729
 30
0.0
 10
125.1667
 20
28.4698
 30
0.0
 10
125.0081
 20
30.1864
 30
0.0
 10
124.5237
 20
31.6628
 30
0.0
  0
SPLINE
  5
5B
330
1F
100
AcDbEntity
  8
layer 1
 62
     7
370
     9
100
AcDbSpline
210
0.0
220
0.0
230
1.0
 70
    11
 71
     3
 72
    36
 73
    32
 74
     0
 42
0.0000000001
 43
0.0000000001
 12
1.0
 22
0.0
 32
0.0
 13
1.0
 23
0.0
 33
0.0
 40
0.0
 40
0.0
 40
0.0
 40
0.0
 40
0.1111111111111111
 40
0.1111111111111111
 40
0.1111111111111111
 40
0.1111111111111111
 40
0.2222222222222222
 40
0.2222222222222222
 40
0.2222222222222222
 40
0.2222222222222222
 40
0.3333333333333333
 40
0.3333333333333333
 40
0.3333333333333333
 40
0.3333333333333333
 40
0.4444444444444444
 40
0.4444444444444444
 40
0.4444444444444444
 40
0.4444444444444444
 40
0.5555555555555556
 40
0.5555555555555556
 40
0.5555555555555556
 40
0.5555555555555556
 40
0.6666666666666666
 40
0.6666666666666666
 40
0.6666666666666666
 40
0.6666666666666666
 40
0.7777777777777778
 40
0.7777777777777778
 40
0.7777777777777778
 40
0.7777777777777778
 40
1.0
 40
1.0
 40
1.0
 40
1.0
 10
84.8822
 20
-50.5402
 30
0.0
 10
85.7148
 20
-48.475
 30
0.0
 10
87.8512
 20
-47.2492
 30
0.0
 10
89.8624
 20
-46.3052
 30
0.0
 10
89.8624
 20
-46.3052
 30
0.0
 10
88.5387
 20
-45.2403
 30
0.0
 10
87.2329
 20
-44.1146
 30
0.0
 10
85.63
 20
-43.4193
 30
0.0
 10
85.63
 20
-43.4193
 30
0.0
 10
83.3753
 20
-42.3398
 30
0.0
 10
80.6944
 20
-42.0265
 30
0.0
 10
78.2477
 20
-42.6697
 30
0.0
 10
78.2477
 20
-42.6697
 30
0.0
 10
72.4482
 20
-44.1941
 30
0.0
 10
68.1733
 20
-49.8428
 30
0.0
 10
68.7604
 20
-55.4809
 30
0.0
 10
68.7604
 20
-55.4809
 30
0.0
 10
69.1555
 20
-58.7864
 30
0.0
 10
71.4414
 20
-61.7225
 30
0.0
 10
74.4595
 20
-63.4035
 30
0.0
 10
74.4595
 20
-63.4035
 30
0.0
 10
74.6984
 20
-60.7702
 30
0.0
 10
75.7118
 20
-58.0847
 30
0.0
 10
77.8303
 20
-56.2597
 30
0.0
 10
77.8303
 20
-56.2597
 30
0.0
 10
79.5782
 20
-54.5517
 30
0.0
 10
82.1721
 20
-53.9898
 30
0.0
 10
84.6032
 20
-53.7935
 30
0.0
 10
84.6032
 20
-53.7935
 30
0.0
 10
84.5004
 20
-52.7098
 30
0.0
 10
84.362
 20
-51.5571
 30
0.0
 10
84.8822
 20
-50.5402
 30
0.0
  0
SPLINE
  5
5C
330
1F
100
AcDbEntity
  8
layer 1
 62
     7
370
     9
100
AcDbSpline
210
0.0
220
0.0
230
1.0
 70
    11
 71
     3
 72
   108
 73
   104
 74
     0
 42
0.0000000001
 43
0.0000000001
 12
1.0
 22
0.0
 32
0.0
 13
1.0
 23
0.0
 33
0.0
 40
0.0
 40
0.0
 40
0.0
 40
0.0
 40
0.037037037037037
 40
0.037037037037037
 40
0.037037037037037
 40
0.037037037037037
 40
0.0740740740740741
 40
0.0740740740740741
 40
0.0740740740740741
 40
0.0740740740740741
 40
0.1111111111111111
 40
0.1111111111111111
 40
0.1111111111111111
 40
0.1111111111111111
 40
0.1481481481481481
 40
0.1481481481481481
 40
0.1481481481481481
 40
0.1481481481481481
 40
0.1851851851851852
 40
0.1851851851851852
 40
0.1851851851851852
 40
0.1851851851851852
 40
0.2222222222222222
 40
0.2222222222222222
 40
0.2222222222222222
 40
0.2222222222222222
 40
0.2592592592592592
 40
0.2592592592592592
 40
0.2592592592592592
 40
0.2592592592592592
 40
0.2962962962962963
 40
0.2962962962962963
 40
0.2962962962962963
 40
0.2962962962962963
 40
0.3333333333333333
 40
0.3333333333333333
 40
0.3333333333333333
 40
0.3333333333333333
 40
0.3703703703703703
 40
0.3703703703703703
 40
0.3703703703703703
 40
0.3703703703703703
 40
0.4074074074074074
 40
0.4074074074074074
 40
0.4074074074074074
 40
0.4074074074074074
 40
0.4444444444444444
 40
0.4444444444444444
 40
0.4444444444444444
 40
0.4444444444444444
 40
0.4814814814814815
 40
0.4814814814814815
 40
0.4814814814814815
 40
0.4814814814814815
 40
0.5185185185185185
 40
0.5185185185185185
 40
0.5185185185185185
 40
0.5185185185185185
 40
0.5555555555555556
 40
0.5555555555555556
 40
0.5555555555555556
 40
0.5555555555555556
 40
0.5925925925925926
 40
0.5925925925925926
 40
0.5925925925925926
 40
0.5925925925925926
 40
0.6296296296296297
 40
0.6296296296296297
 40
0.6296296296296297
 40
0.6296296296296297
 40
0.6666666666666666
 40
0.6666666666666666
 40
0.6666666666666666
 40
0.6666666666666666
 40
0.7037037037037037
 40
0.7037037037037037
 40
0.7037037037037037
 40
0.7037037037037037
 40
0.7407407407407407
 40
0.7407407407407407
 40
0.7407407407407407
 40
0.7407407407407407
 40
0.7777777777777778
 40
0.7777777777777778
 40
0.7777777777777778
 40
0.7777777777777778
 40
0.8148148148148148
 40
0.8148148148148148
 40
0.8148148148148148
 40
0.8148148148148148
 40
0.8518518518518519
 40
0.8518518518518519
 40
0.8518518518518519
 40
0.8518518518518519
 40
0.8888888888888888
 40
0.8888888888888888
 40
0.8888888888888888
 40
0.8888888888888888
 40
0.9259259259259259
 40
0.9259259259259259
 40
0.9259259259259259
 40
0.9259259259259259
 40
1.0
 40
1.0
 40
1.0
 40
1.0
 10
90.8603
 20
-18.2211
 30
0.0
 10
90.2889
 20
-15.4918
 30
0.0
 10
90.2085
 20
-12.6747
 30
0.0
 10
90.7823
 20
-9.9371
 30
0.0
 10
90.7823
 20
-9.9371
 30
0.0
 10
90.8737
 20
-7.3791
 30
0.0
 10
90.5724
 20
-4.7647
 30
0.0
 10
89.5634
 20
-2.3674
 30
0.0
 10
89.5634
 20
-2.3674
 30
0.0
 10
88.9272
 20
-0.9683
 30
0.0
 10
87.9025
 20
0.32
 30
0.0
 10
86.4871
 20
1.1012
 30
0.0
 10
86.4871
 20
1.1012
 30
0.0
 10
85.9693
 20
-1.7117
 30
0.0
 10
84.6858
 20
-4.4994
 30
0.0
 10
82.3998
 20
-6.4477
 30
0.0
 10
82.3998
 20
-6.4477
 30
0.0
 10
78.3478
 20
-10.3541
 30
0.0
 10
74.1232
 20
-9.9965
 30
0.0
 10
71.2449
 20
-16.9014
 30
0.0
 10
71.2449
 20
-16.9014
 30
0.0
 10
70.9122
 20
-17.5612
 30
0.0
 10
70.6578
 20
-18.2544
 30
0.0
 10
70.2962
 20
-18.9039
 30
0.0
 10
70.2962
 20
-18.9039
 30
0.0
 10
68.7582
 20
-16.3291
 30
0.0
 10
68.3608
 20
-13.2741
 30
0.0
 10
68.7179
 20
-10.3715
 30
0.0
 10
68.7179
 20
-10.3715
 30
0.0
 10
69.5282
 20
-5.0787
 30
0.0
 10
75.4984
 20
-0.2576
 30
0.0
 10
74.7452
 20
2.0993
 30
0.0
 10
74.7452
 20
2.0993
 30
0.0
 10
71.2025
 20
2.8656
 30
0.0
 10
67.8294
 20
4.1624
 30
0.0
 10
64.4922
 20
5.4905
 30
0.0
 10
64.4922
 20
5.4905
 30
0.0
 10
64.4987
 20
-5.4558
 30
0.0
 10
64.4766
 20
-16.4022
 30
0.0
 10
64.5033
 20
-27.3486
 30
0.0
 10
64.5033
 20
-27.3486
 30
0.0
 10
67.0057
 20
-26.789
 30
0.0
 10
69.7158
 20
-26.8035
 30
0.0
 10
72.0842
 20
-27.8268
 30
0.0
 10
72.0842
 20
-27.8268
 30
0.0
 10
69.7806
 20
-28.497
 30
0.0
 10
67.5661
 20
-29.6853
 30
0.0
 10
66.182
 20
-31.5813
 30
0.0
 10
66.182
 20
-31.5813
 30
0.0
 10
65.2378
 20
-32.9743
 30
0.0
 10
64.385
 20
-34.5675
 30
0.0
 10
64.4876
 20
-36.261
 30
0.0
 10
64.4876
 20
-36.261
 30
0.0
 10
64.4966
 20
-39.6732
 30
0.0
 10
64.49
 20
-43.0832
 30
0.0
 10
64.4922
 20
-46.4954
 30
0.0
 10
64.4922
 20
-46.4954
 30
0.0
 10
64.4966
 20
-47.3535
 30
0.0
 10
64.4743
 20
-48.216
 30
0.0
 10
64.5816
 20
-49.07
 30
0.0
 10
64.5816
 20
-49.07
 30
0.0
 10
65.6075
 20
-37.8967
 30
0.0
 10
75.3941
 20
-35.1447
 30
0.0
 10
78.067
 20
-27.925
 30
0.0
 10
78.067
 20
-27.925
 30
0.0
 10
76.0042
 20
-26.9998
 30
0.0
 10
74.4729
 20
-25.1685
 30
0.0
 10
73.9439
 20
-23.0928
 30
0.0
 10
73.9439
 20
-23.0928
 30
0.0
 10
72.3868
 20
-17.0805
 30
0.0
 10
77.6231
 20
-13.6652
 30
0.0
 10
80.7355
 20
-14.29
 30
0.0
 10
80.7355
 20
-14.29
 30
0.0
 10
83.7061
 20
-14.8861
 30
0.0
 10
83.5947
 20
-19.3892
 30
0.0
 10
80.9354
 20
-20.3385
 30
0.0
 10
80.9354
 20
-20.3385
 30
0.0
 10
79.8148
 20
-20.8689
 30
0.0
 10
78.5335
 20
-20.5431
 30
0.0
 10
77.4887
 20
-20.017
 30
0.0
 10
77.4887
 20
-20.017
 30
0.0
 10
77.3035
 20
-20.7582
 30
0.0
 10
77.011
 20
-21.51
 30
0.0
 10
77.1449
 20
-22.2785
 30
0.0
 10
77.1449
 20
-22.2785
 30
0.0
 10
77.4128
 20
-24.1809
 30
0.0
 10
79.1407
 20
-25.8763
 30
0.0
 10
81.2211
 20
-26.0184
 30
0.0
 10
81.2211
 20
-26.0184
 30
0.0
 10
82.1365
 20
-26.0455
 30
0.0
 10
83.0695
 20
-26.0914
 30
0.0
 10
83.9625
 20
-25.8702
 30
0.0
 10
83.9625
 20
-25.8702
 30
0.0
 10
84.8397
 20
-25.7009
 30
0.0
 10
85.5965
 20
-25.227
 30
0.0
 10
86.3935
 20
-24.874
 30
0.0
 10
86.3935
 20
-24.874
 30
0.0
 10
84.525
 20
-24.9617
 30
0.0
 10
82.4824
 20
-23.594
 30
0.0
 10
82.574
 20
-21.7354
 30
0.0
 10
82.574
 20
-21.7354
 30
0.0
 10
87.1727
 20
-23.4631
 30
0.0
 10
88.3114
 20
-20.1621
 30
0.0
 10
90.8603
 20
-18.2211
 30
0.0
  0
SPLINE
  5
5D
330
1F
100
AcDbEntity
  8
layer 1
 62
     7
370
     9
100
AcDbSpline
210
0.0
220
0.0
230
1.0
 70
    11
 71
     3
 72
    80
 73
    76
 74
     0
 42
0.0000000001
 43
0.0000000001
 12
1.0
 22
0.0
 32
0.0
 13
1.0
 23
0.0
 33
0.0
 40
0.0
 40
0.0
 40
0.0
 40
0.0
 40
0.05
 40
0.05
 40
0.05
 40
0.05
 40
0.1
 40
0.1
 40
0.1
 40
0.1
 40
0.15
 40
0.15
 40
0.15
 40
0.15
 40
0.2
 40
0.2
 40
0.2
 40
0.2
 40
0.25
 40
0.25
 40
0.25
 40
0.25
 40
0.3
 40
0.3
 40
0.3
 40
0.3
 40
0.35
 40
0.35
 40
0.35
 40
0.35
 40
0.4
 40
0.4
 40
0.4
 40
0.4
 40
0.45
 40
0.45
 40
0.45
 40
0.45
 40
0.5
 40
0.5
 40
0.5
 40
0.5
 40
0.55
 40
0.55
 40
0.55
 40
0.55
 40
0.6
 40
0.6
 40
0.6
 40
0.6
 40
0.65
 40
0.65
 40
0.65
 40
0.65
 40
0.7
 40
0.7
 40
0.7
 40
0.7
 40
0.75
 40
0.75
 40
0.75
 40
0.75
 40
0.8
 40
0.8
 40
0.8
 40
0.8
 40
0.85
 40
0.85
 40
0.85
 40
0.85
 40
0.9
 40
0.9
 40
0.9
 40
0.9
 40
1.0
 40
1.0
 40
1.0
 40
1.0
 10
72.6915
 20
-88.4096
 30
0.0
 10
76.9348
 20
-82.6531
 30
0.0
 10
86.4151
 20
-75.9104
 30
0.0
 10
92.8806
 20
-72.888
 30
0.0
 10
92.8806
 20
-72.888
 30
0.0
 10
90.7064
 20
-72.8025
 30
0.0
 10
88.4606
 20
-73.1031
 30
0.0
 10
86.3622
 20
-72.3974
 30
0.0
 10
86.3622
 20
-72.3974
 30
0.0
 10
83.9246
 20
-71.5746
 30
0.0
 10
81.2167
 20
-70.9335
 30
0.0
 10
78.6541
 20
-71.6477
 30
0.0
 10
78.6541
 20
-71.6477
 30
0.0
 10
77.7477
 20
-71.9651
 30
0.0
 10
76.7431
 20
-72.3994
 30
0.0
 10
76.3726
 20
-73.3058
 30
0.0
 10
76.3726
 20
-73.3058
 30
0.0
 10
75.9931
 20
-73.8862
 30
0.0
 10
76.0958
 20
-74.6151
 30
0.0
 10
76.4641
 20
-75.1746
 30
0.0
 10
76.4641
 20
-75.1746
 30
0.0
 10
76.79
 20
-75.8325
 30
0.0
 10
77.4955
 20
-76.1938
 30
0.0
 10
77.9464
 20
-76.7576
 30
0.0
 10
77.9464
 20
-76.7576
 30
0.0
 10
76.0802
 20
-77.0812
 30
0.0
 10
74.0488
 20
-76.8723
 30
0.0
 10
72.5241
 20
-75.7363
 30
0.0
 10
72.5241
 20
-75.7363
 30
0.0
 10
70.1355
 20
-73.8423
 30
0.0
 10
69.7493
 20
-70.1692
 30
0.0
 10
71.6266
 20
-67.8305
 30
0.0
 10
71.6266
 20
-67.8305
 30
0.0
 10
70.6178
 20
-67.1058
 30
0.0
 10
69.6042
 20
-66.3541
 30
0.0
 10
68.8854
 20
-65.3539
 30
0.0
 10
68.8854
 20
-65.3539
 30
0.0
 10
66.921
 20
-63.4681
 30
0.0
 10
65.586
 20
-61.1147
 30
0.0
 10
64.5033
 20
-58.7071
 30
0.0
 10
64.5033
 20
-58.7071
 30
0.0
 10
64.4743
 20
-65.1512
 30
0.0
 10
64.5056
 20
-71.5955
 30
0.0
 10
64.4876
 20
-78.0397
 30
0.0
 10
64.4876
 20
-78.0397
 30
0.0
 10
64.3984
 20
-78.66
 30
0.0
 10
64.894
 20
-79.1402
 30
0.0
 10
65.3069
 20
-79.5578
 30
0.0
 10
65.3069
 20
-79.5578
 30
0.0
 10
66.2333
 20
-80.5037
 30
0.0
 10
67.4388
 20
-81.2095
 30
0.0
 10
68.7627
 20
-81.5521
 30
0.0
 10
68.7627
 20
-81.5521
 30
0.0
 10
69.7806
 20
-81.8819
 30
0.0
 10
70.8699
 20
-81.7462
 30
0.0
 10
71.9214
 20
-81.836
 30
0.0
 10
71.9214
 20
-81.836
 30
0.0
 10
70.8364
 20
-83.0326
 30
0.0
 10
69.2761
 20
-83.8678
 30
0.0
 10
67.6041
 20
-84.0516
 30
0.0
 10
67.6041
 20
-84.0516
 30
0.0
 10
66.5661
 20
-84.0265
 30
0.0
 10
65.5056
 20
-84.1601
 30
0.0
 10
64.4944
 20
-83.8699
 30
0.0
 10
64.4944
 20
-83.8699
 30
0.0
 10
64.4966
 20
-87.635
 30
0.0
 10
64.4766
 20
-91.402
 30
0.0
 10
64.5056
 20
-95.1671
 30
0.0
 10
64.5056
 20
-95.1671
 30
0.0
 10
66.3383
 20
-94.7432
 30
0.0
 10
67.921
 20
-93.7221
 30
0.0
 10
69.2427
 20
-92.4921
 30
0.0
 10
69.2427
 20
-92.4921
 30
0.0
 10
70.4681
 20
-91.1892
 30
0.0
 10
71.5999
 20
-89.8149
 30
0.0
 10
72.6915
 20
-88.4096
 30
0.0
  0
SPLINE
  5
5E
330
1F
100
AcDbEntity
  8
layer 1
 62
     7
370
     9
100
AcDbSpline
210
0.0
220
0.0
230
1.0
 70
    11
 71
     3
 72
    40
 73
    36
 74
     0
 42
0.0000000001
 43
0.0000000001
 12
1.0
 22
0.0
 32
0.0
 13
1.0
 23
0.0
 33
0.0
 40
0.0
 40
0.0
 40
0.0
 40
0.0
 40
0.1
 40
0.1
 40
0.1
 40
0.1
 40
0.2
 40
0.2
 40
0.2
 40
0.2
 40
0.3
 40
0.3
 40
0.3
 40
0.3
 40
0.4
 40
0.4
 40
0.4
 40
0.4
 40
0.5
 40
0.5
 40
0.5
 40
0.5
 40
0.6
 40
0.6
 40
0.6
 40
0.6
 40
0.7
 40
0.7
 40
0.7
 40
0.7
 40
0.8
 40
0.8
 40
0.8
 40
0.8
 40
1.0
 40
1.0
 40
1.0
 40
1.0
 10
84.4067
 20
-38.0109
 30
0.0
 10
91.3872
 20
-32.8255
 30
0.0
 10
92.7793
 20
-38.3964
 30
0.0
 10
96.7247
 20
-27.9103
 30
0.0
 10
96.7247
 20
-27.9103
 30
0.0
 10
95.0771
 20
-26.4361
 30
0.0
 10
93.6709
 20
-24.7299
 30
0.0
 10
92.6552
 20
-22.8151
 30
0.0
 10
92.6552
 20
-22.8151
 30
0.0
 10
89.4617
 20
-25.4158
 30
0.0
 10
86.427
 20
-27.883
 30
0.0
 10
89.9853
 20
-31.4832
 30
0.0
 10
89.9853
 20
-31.4832
 30
0.0
 10
88.4472
 20
-31.6899
 30
0.0
 10
86.7306
 20
-31.3557
 30
0.0
 10
85.6479
 20
-30.2511
 30
0.0
 10
85.6479
 20
-30.2511
 30
0.0
 10
85.1925
 20
-29.8397
 30
0.0
 10
84.9782
 20
-29.2655
 30
0.0
 10
84.7081
 20
-28.7415
 30
0.0
 10
84.7081
 20
-28.7415
 30
0.0
 10
82.9489
 20
-29.1089
 30
0.0
 10
81.1253
 20
-28.9815
 30
0.0
 10
79.413
 20
-28.4803
 30
0.0
 10
79.413
 20
-28.4803
 30
0.0
 10
79.7478
 20
-30.3535
 30
0.0
 10
80.3773
 20
-32.2601
 30
0.0
 10
79.9376
 20
-34.1644
 30
0.0
 10
79.9376
 20
-34.1644
 30
0.0
 10
79.7188
 20
-35.7807
 30
0.0
 10
78.5536
 20
-37.0649
 30
0.0
 10
77.3636
 20
-38.1696
 30
0.0
 10
77.3636
 20
-38.1696
 30
0.0
 10
79.6765
 20
-37.6705
 30
0.0
 10
82.0762
 20
-37.5765
 30
0.0
 10
84.4067
 20
-38.0109
 30
0.0
  0
SPLINE
  5
5F
330
1F
100
AcDbEntity
  8
layer 1
 62
     7
370
     9
100
AcDbSpline
210
0.0
220
0.0
230
1.0
 70
    11
 71
     3
 72
    36
 73
    32
 74
     0
 42
0.0000000001
 43
0.0000000001
 12
1.0
 22
0.0
 32
0.0
 13
1.0
 23
0.0
 33
0.0
 40
0.0
 40
0.0
 40
0.0
 40
0.0
 40
0.1111111111111111
 40
0.1111111111111111
 40
0.1111111111111111
 40
0.1111111111111111
 40
0.2222222222222222
 40
0.2222222222222222
 40
0.2222222222222222
 40
0.2222222222222222
 40
0.3333333333333333
 40
0.3333333333333333
 40
0.3333333333333333
 40
0.3333333333333333
 40
0.4444444444444444
 40
0.4444444444444444
 40
0.4444444444444444
 40
0.4444444444444444
 40
0.5555555555555556
 40
0.5555555555555556
 40
0.5555555555555556
 40
0.5555555555555556
 40
0.6666666666666666
 40
0.6666666666666666
 40
0.6666666666666666
 40
0.6666666666666666
 40
0.7777777777777778
 40
0.7777777777777778
 40
0.7777777777777778
 40
0.7777777777777778
 40
1.0
 40
1.0
 40
1.0
 40
1.0
 10
97.5573
 20
-109.5631
 30
0.0
 10
97.8898
 20
-108.0158
 30
0.0
 10
97.9502
 20
-106.2512
 30
0.0
 10
96.9189
 20
-104.9107
 30
0.0
 10
96.9189
 20
-104.9107
 30
0.0
 10
94.3185
 20
-100.8156
 30
0.0
 10
89.9528
 20
-99.9396
 30
0.0
 10
87.7512
 20
-95.9182
 30
0.0
 10
87.7512
 20
-95.9182
 30
0.0
 10
83.4117
 20
-87.9912
 30
0.0
 10
89.3257
 20
-81.184
 30
0.0
 10
92.5123
 20
-77.3652
 30
0.0
 10
92.5123
 20
-77.3652
 30
0.0
 10
83.9543
 20
-80.8976
 30
0.0
 10
77.0635
 20
-93.3026
 30
0.0
 10
79.6898
 20
-100.9745
 30
0.0
 10
79.6898
 20
-100.9745
 30
0.0
 10
80.4041
 20
-103.359
 30
0.0
 10
82.5383
 20
-105.228
 30
0.0
 10
84.996
 20
-106.0508
 30
0.0
 10
84.996
 20
-106.0508
 30
0.0
 10
86.0965
 20
-106.4768
 30
0.0
 10
87.2731
 20
-106.6647
 30
0.0
 10
88.4338
 20
-106.8757
 30
0.0
 10
88.4338
 20
-106.8757
 30
0.0
 10
86.9605
 20
-108.1683
 30
0.0
 10
85.0117
 20
-108.8678
 30
0.0
 10
83.1455
 20
-109.5277
 30
0.0
 10
83.1455
 20
-109.5277
 30
0.0
 10
87.9493
 20
-109.6049
 30
0.0
 10
92.7555
 20
-109.5318
 30
0.0
 10
97.5573
 20
-109.5631
 30
0.0
  0
SPLINE
  5
60
330
1F
100
AcDbEntity
  8
layer 1
 62
     7
370
     9
100
AcDbSpline
210
0.0
220
0.0
230
1.0
 70
    11
 71
     3
 72
    76
 73
    72
 74
     0
 42
0.0000000001
 43
0.0000000001
 12
1.0
 22
0.0
 32
0.0
 13
1.0
 23
0.0
 33
0.0
 40
0.0
 40
0.0
 40
0.0
 40
0.0
 40
0.0526315789473684
 40
0.0526315789473684
 40
0.0526315789473684
 40
0.0526315789473684
 40
0.1052631578947368
 40
0.1052631578947368
 40
0.1052631578947368
 40
0.1052631578947368
 40
0.1578947368421053
 40
0.1578947368421053
 40
0.1578947368421053
 40
0.1578947368421053
 40
0.2105263157894737
 40
0.2105263157894737
 40
0.2105263157894737
 40
0.2105263157894737
 40
0.2631578947368421
 40
0.2631578947368421
 40
0.2631578947368421
 40
0.2631578947368421
 40
0.3157894736842105
 40
0.3157894736842105
 40
0.3157894736842105
 40
0.3157894736842105
 40
0.3684210526315789
 40
0.3684210526315789
 40
0.3684210526315789
 40
0.3684210526315789
 40
0.4210526315789473
 40
0.4210526315789473
 40
0.4210526315789473
 40
0.4210526315789473
 40
0.4736842105263158
 40
0.4736842105263158
 40
0.4736842105263158
 40
0.4736842105263158
 40
0.5263157894736842
 40
0.5263157894736842
 40
0.5263157894736842
 40
0.5263157894736842
 40
0.5789473684210527
 40
0.5789473684210527
 40
0.5789473684210527
 40
0.5789473684210527
 40
0.631578947368421
 40
0.631578947368421
 40
0.631578947368421
 40
0.631578947368421
 40
0.6842105263157895
 40
0.6842105263157895
 40
0.6842105263157895
 40
0.6842105263157895
 40
0.7368421052631579
 40
0.7368421052631579
 40
0.7368421052631579
 40
0.7368421052631579
 40
0.7894736842105263
 40
0.7894736842105263
 40
0.7894736842105263
 40
0.7894736842105263
 40
0.8421052631578947
 40
0.8421052631578947
 40
0.8421052631578947
 40
0.8421052631578947
 40
0.8947368421052632
 40
0.8947368421052632
 40
0.8947368421052632
 40
0.8947368421052632
 40
1.0
 40
1.0
 40
1.0
 40
1.0
 10
115.4963
 20
-33.0117
 30
0.0
 10
116.5834
 20
-30.6459
 30
0.0
 10
116.4696
 20
-27.9354
 30
0.0
 10
115.7418
 20
-25.4922
 30
0.0
 10
115.7418
 20
-25.4922
 30
0.0
 10
114.7998
 20
-22.4894
 30
0.0
 10
113.2863
 20
-19.6348
 30
0.0
 10
111.286
 20
-17.1267
 30
0.0
 10
111.286
 20
-17.1267
 30
0.0
 10
110.1655
 20
-15.5607
 30
0.0
 10
108.8261
 20
-14.1469
 30
0.0
 10
107.5358
 20
-12.706
 30
0.0
 10
107.5358
 20
-12.706
 30
0.0
 10
105.9084
 20
-11.236
 30
0.0
 10
104.4172
 20
-9.6197
 30
0.0
 10
102.6291
 20
-8.3166
 30
0.0
 10
102.6291
 20
-8.3166
 30
0.0
 10
100.7719
 20
-6.6712
 30
0.0
 10
98.5887
 20
-5.4078
 30
0.0
 10
96.6375
 20
-3.8688
 30
0.0
 10
96.6375
 20
-3.8688
 30
0.0
 10
97.3542
 20
-4.8754
 30
0.0
 10
98.1868
 20
-5.8087
 30
0.0
 10
98.8296
 20
-6.8571
 30
0.0
 10
98.8296
 20
-6.8571
 30
0.0
 10
101.2585
 20
-10.3819
 30
0.0
 10
102.5555
 20
-14.5291
 30
0.0
 10
102.8724
 20
-18.6951
 30
0.0
 10
102.8724
 20
-18.6951
 30
0.0
 10
102.8033
 20
-20.8543
 30
0.0
 10
102.8679
 20
-23.0134
 30
0.0
 10
102.9192
 20
-25.1726
 30
0.0
 10
102.9192
 20
-25.1726
 30
0.0
 10
103.06
 20
-27.6367
 30
0.0
 10
104.1382
 20
-29.9296
 30
0.0
 10
105.4842
 20
-32.0158
 30
0.0
 10
105.4842
 20
-32.0158
 30
0.0
 10
103.656
 20
-31.7923
 30
0.0
 10
101.9169
 20
-31.1386
 30
0.0
 10
100.2941
 20
-30.341
 30
0.0
 10
100.2941
 20
-30.341
 30
0.0
 10
99.7807
 20
-30.1133
 30
0.0
 10
99.2784
 20
-29.633
 30
0.0
 10
98.6646
 20
-29.8733
 30
0.0
 10
98.6646
 20
-29.8733
 30
0.0
 10
97.7092
 20
-30.4245
 30
0.0
 10
97.7605
 20
-31.5876
 30
0.0
 10
97.7515
 20
-32.5064
 30
0.0
 10
97.7515
 20
-32.5064
 30
0.0
 10
97.6667
 20
-34.7158
 30
0.0
 10
97.9703
 20
-37.0879
 30
0.0
 10
96.7715
 20
-39.0989
 30
0.0
 10
96.7715
 20
-39.0989
 30
0.0
 10
95.6509
 20
-40.8257
 30
0.0
 10
93.3962
 20
-41.5171
 30
0.0
 10
91.327
 20
-41.4085
 30
0.0
 10
91.327
 20
-41.4085
 30
0.0
 10
93.3516
 20
-43.3608
 30
0.0
 10
94.9299
 20
-45.6934
 30
0.0
 10
96.046
 20
-48.2014
 30
0.0
 10
96.046
 20
-48.2014
 30
0.0
 10
96.9925
 20
-46.3219
 30
0.0
 10
98.8231
 20
-45.0398
 30
0.0
 10
100.6982
 20
-44.027
 30
0.0
 10
100.6982
 20
-44.027
 30
0.0
 10
104.4864
 20
-41.8845
 30
0.0
 10
108.8684
 20
-40.5251
 30
0.0
 10
111.9982
 20
-37.4784
 30
0.0
 10
111.9982
 20
-37.4784
 30
0.0
 10
113.4336
 20
-36.2047
 30
0.0
 10
114.8042
 20
-34.7763
 30
0.0
 10
115.4963
 20
-33.0117
 30
0.0
  0
SPLINE
  5
61
330
1F
100
AcDbEntity
  8
layer 1
 62
     7
370
     9
100
AcDbSpline
210
0.0
220
0.0
230
1.0
 70
    11
 71
     3
 72
    60
 73
    56
 74
     0
 42
0.0000000001
 43
0.0000000001
 12
1.0
 22
0.0
 32
0.0
 13
1.0
 23
0.0
 33
0.0
 40
0.0
 40
0.0
 40
0.0
 40
0.0
 40
0.0666666666666667
 40
0.0666666666666667
 40
0.0666666666666667
 40
0.0666666666666667
 40
0.1333333333333333
 40
0.1333333333333333
 40
0.1333333333333333
 40
0.1333333333333333
 40
0.2
 40
0.2
 40
0.2
 40
0.2
 40
0.2666666666666667
 40
0.2666666666666667
 40
0.2666666666666667
 40
0.2666666666666667
 40
0.3333333333333333
 40
0.3333333333333333
 40
0.3333333333333333
 40
0.3333333333333333
 40
0.4
 40
0.4
 40
0.4
 40
0.4
 40
0.4666666666666667
 40
0.4666666666666667
 40
0.4666666666666667
 40
0.4666666666666667
 40
0.5333333333333333
 40
0.5333333333333333
 40
0.5333333333333333
 40
0.5333333333333333
 40
0.6
 40
0.6
 40
0.6
 40
0.6
 40
0.6666666666666666
 40
0.6666666666666666
 40
0.6666666666666666
 40
0.6666666666666666
 40
0.7333333333333333
 40
0.7333333333333333
 40
0.7333333333333333
 40
0.7333333333333333
 40
0.8
 40
0.8
 40
0.8
 40
0.8
 40
0.8666666666666667
 40
0.8666666666666667
 40
0.8666666666666667
 40
0.8666666666666667
 40
1.0
 40
1.0
 40
1.0
 40
1.0
 10
119.4743
 20
-40.926
 30
0.0
 10
119.9073
 20
-38.107
 30
0.0
 10
119.5614
 20
-35.2399
 30
0.0
 10
119.0255
 20
-32.4564
 30
0.0
 10
119.0255
 20
-32.4564
 30
0.0
 10
119.1527
 20
-36.2151
 30
0.0
 10
118.4319
 20
-40.0615
 30
0.0
 10
116.5476
 20
-43.409
 30
0.0
 10
116.5476
 20
-43.409
 30
0.0
 10
115.0475
 20
-45.9273
 30
0.0
 10
112.9715
 20
-48.1846
 30
0.0
 10
110.3284
 20
-49.7007
 30
0.0
 10
110.3284
 20
-49.7007
 30
0.0
 10
108.9266
 20
-50.4858
 30
0.0
 10
107.1496
 20
-50.5025
 30
0.0
 10
105.6449
 20
-49.9743
 30
0.0
 10
105.6449
 20
-49.9743
 30
0.0
 10
104.0488
 20
-49.4731
 30
0.0
 10
102.3233
 20
-49.07
 30
0.0
 10
100.6402
 20
-49.3999
 30
0.0
 10
100.6402
 20
-49.3999
 30
0.0
 10
99.4882
 20
-49.5795
 30
0.0
 10
98.3901
 20
-49.995
 30
0.0
 10
97.3764
 20
-50.5338
 30
0.0
 10
97.3764
 20
-50.5338
 30
0.0
 10
96.7982
 20
-50.7865
 30
0.0
 10
96.9033
 20
-51.4903
 30
0.0
 10
96.6734
 20
-51.9601
 30
0.0
 10
96.6734
 20
-51.9601
 30
0.0
 10
96.0706
 20
-54.0713
 30
0.0
 10
94.8384
 20
-56.1783
 30
0.0
 10
92.6931
 20
-57.2161
 30
0.0
 10
92.6931
 20
-57.2161
 30
0.0
 10
90.3446
 20
-58.2394
 30
0.0
 10
87.4092
 20
-57.5252
 30
0.0
 10
85.7774
 20
-55.6709
 30
0.0
 10
85.7774
 20
-55.6709
 30
0.0
 10
84.074
 20
-57.1367
 30
0.0
 10
82.728
 20
-59.1184
 30
0.0
 10
82.6051
 20
-61.3277
 30
0.0
 10
82.6051
 20
-61.3277
 30
0.0
 10
82.4646
 20
-63.0359
 30
0.0
 10
83.2192
 20
-64.7795
 30
0.0
 10
84.5405
 20
-65.951
 30
0.0
 10
84.5405
 20
-65.951
 30
0.0
 10
86.6344
 20
-67.7177
 30
0.0
 10
89.704
 20
-67.8596
 30
0.0
 10
92.3382
 20
-67.3063
 30
0.0
 10
92.3382
 20
-67.3063
 30
0.0
 10
100.8789
 20
-65.782
 30
0.0
 10
108.2457
 20
-60.6805
 30
0.0
 10
113.6077
 20
-54.4388
 30
0.0
 10
113.6077
 20
-54.4388
 30
0.0
 10
116.9248
 20
-50.6049
 30
0.0
 10
119.0143
 20
-45.8438
 30
0.0
 10
119.4743
 20
-40.926
 30
0.0
  0
SPLINE
  5
62
330
1F
100
AcDbEntity
  8
layer 1
 62
     7
370
     9
100
AcDbSpline
210
0.0
220
0.0
230
1.0
 70
    11
 71
     3
 72
    36
 73
    32
 74
     0
 42
0.0000000001
 43
0.0000000001
 12
1.0
 22
0.0
 32
0.0
 13
1.0
 23
0.0
 33
0.0
 40
0.0
 40
0.0
 40
0.0
 40
0.0
 40
0.1111111111111111
 40
0.1111111111111111
 40
0.1111111111111111
 40
0.1111111111111111
 40
0.2222222222222222
 40
0.2222222222222222
 40
0.2222222222222222
 40
0.2222222222222222
 40
0.3333333333333333
 40
0.3333333333333333
 40
0.3333333333333333
 40
0.3333333333333333
 40
0.4444444444444444
 40
0.4444444444444444
 40
0.4444444444444444
 40
0.4444444444444444
 40
0.5555555555555556
 40
0.5555555555555556
 40
0.5555555555555556
 40
0.5555555555555556
 40
0.6666666666666666
 40
0.6666666666666666
 40
0.6666666666666666
 40
0.6666666666666666
 40
0.7777777777777778
 40
0.7777777777777778
 40
0.7777777777777778
 40
0.7777777777777778
 40
1.0
 40
1.0
 40
1.0
 40
1.0
 10
124.5237
 20
-14.9488
 30
0.0
 10
125.0081
 20
-13.4724
 30
0.0
 10
125.1667
 20
-11.7559
 30
0.0
 10
124.334
 20
-10.359
 30
0.0
 10
124.334
 20
-10.359
 30
0.0
 10
123.6979
 20
-9.0663
 30
0.0
 10
122.3048
 20
-8.2311
 30
0.0
 10
120.8739
 20
-7.8677
 30
0.0
 10
120.8739
 20
-7.8677
 30
0.0
 10
120.76
 20
-8.5819
 30
0.0
 10
120.5904
 20
-9.3711
 30
0.0
 10
120.0055
 20
-9.8849
 30
0.0
 10
120.0055
 20
-9.8849
 30
0.0
 10
118.9742
 20
-10.4112
 30
0.0
 10
117.7286
 20
-10.622
 30
0.0
 10
116.5879
 20
-10.2964
 30
0.0
 10
116.5879
 20
-10.2964
 30
0.0
 10
115.7707
 20
-9.9956
 30
0.0
 10
115.2662
 20
-9.2753
 30
0.0
 10
114.7864
 20
-8.6258
 30
0.0
 10
114.7864
 20
-8.6258
 30
0.0
 10
113.4692
 20
-9.5487
 30
0.0
 10
111.8732
 20
-10.2608
 30
0.0
 10
110.1878
 20
-10.1501
 30
0.0
 10
110.1878
 20
-10.1501
 30
0.0
 10
111.8951
 20
-12.1967
 30
0.0
 10
118.2819
 20
-17.9145
 30
0.0
 10
121.4164
 20
-17.296
 30
0.0
 10
121.4164
 20
-17.296
 30
0.0
 10
122.7937
 20
-17.1038
 30
0.0
 10
123.9924
 20
-16.1328
 30
0.0
 10
124.5237
 20
-14.9488
 30
0.0
  0
SPLINE
  5
63
330
1F
100
AcDbEntity
  8
layer 1
 62
     7
370
     9
100
AcDbSpline
210
0.0
220
0.0
230
1.0
 70
    11
 71
     3
 72
    24
 73
    20
 74
     0
 42
0.0000000001
 43
0.0000000001
 12
1.0
 22
0.0
 32
0.0
 13
1.0
 23
0.0
 33
0.0
 40
0.0
 40
0.0
 40
0.0
 40
0.0
 40
0.1666666666666667
 40
0.1666666666666667
 40
0.1666666666666667
 40
0.1666666666666667
 40
0.3333333333333333
 40
0.3333333333333333
 40
0.3333333333333333
 40
0.3333333333333333
 40
0.5
 40
0.5
 40
0.5
 40
0.5
 40
0.6666666666666666
 40
0.6666666666666666
 40
0.6666666666666666
 40
0.6666666666666666
 40
1.0
 40
1.0
 40
1.0
 40
1.0
 10
77.1093
 20
-109.536
 30
0.0
 10
76.0778
 20
-109.0453
 30
0.0
 10
74.9418
 20
-108.661
 30
0.0
 10
74.1491
 20
-107.8342
 30
0.0
 10
74.1491
 20
-107.8342
 30
0.0
 10
71.0976
 20
-105.2823
 30
0.0
 10
69.8476
 20
-101.2396
 30
0.0
 10
70.2493
 20
-97.5017
 30
0.0
 10
70.2493
 20
-97.5017
 30
0.0
 10
68.3608
 20
-97.9088
 30
0.0
 10
66.3829
 20
-97.7752
 30
0.0
 10
64.5033
 20
-97.3869
 30
0.0
 10
64.5033
 20
-97.3869
 30
0.0
 10
64.4788
 20
-101.4442
 30
0.0
 10
64.4989
 20
-105.5016
 30
0.0
 10
64.4922
 20
-109.559
 30
0.0
 10
64.4922
 20
-109.559
 30
0.0
 10
68.6979
 20
-109.5444
 30
0.0
 10
72.9035
 20
-109.5882
 30
0.0
 10
77.1093
 20
-109.536
 30
0.0
  0
SPLINE
  5
64
330
1F
100
AcDbEntity
  8
layer 1
 62
     7
370
     9
100
AcDbSpline
210
0.0
220
0.0
230
1.0
 70
    11
 71
     3
 72
    24
 73
    20
 74
     0
 42
0.0000000001
 43
0.0000000001
 12
1.0
 22
0.0
 32
0.0
 13
1.0
 23
0.0
 33
0.0
 40
0.0
 40
0.0
 40
0.0
 40
0.0
 40
0.1666666666666667
 40
0.1666666666666667
 40
0.1666666666666667
 40
0.1666666666666667
 40
0.3333333333333333
 40
0.3333333333333333
 40
0.3333333333333333
 40
0.3333333333333333
 40
0.5
 40
0.5
 40
0.5
 40
0.5
 40
0.6666666666666666
 40
0.6666666666666666
 40
0.6666666666666666
 40
0.6666666666666666
 40
1.0
 40
1.0
 40
1.0
 40
1.0
 10
77.1093
 20
126.25
 30
0.0
 10
72.9035
 20
126.3021
 30
0.0
 10
68.6979
 20
126.2583
 30
0.0
 10
64.4922
 20
126.2729
 30
0.0
 10
64.4922
 20
126.2729
 30
0.0
 10
64.4989
 20
122.2155
 30
0.0
 10
64.4788
 20
118.1581
 30
0.0
 10
64.5033
 20
114.1009
 30
0.0
 10
64.5033
 20
114.1009
 30
0.0
 10
66.3829
 20
114.4891
 30
0.0
 10
68.3608
 20
114.6228
 30
0.0
 10
70.2493
 20
114.2156
 30
0.0
 10
70.2493
 20
114.2156
 30
0.0
 10
69.8476
 20
117.9535
 30
0.0
 10
71.0976
 20
121.9962
 30
0.0
 10
74.1491
 20
124.5481
 30
0.0
 10
74.1491
 20
124.5481
 30
0.0
 10
74.9418
 20
125.3749
 30
0.0
 10
76.0778
 20
125.7592
 30
0.0
 10
77.1093
 20
126.25
 30
0.0
  0
SPLINE
  5
65
330
1F
100
AcDbEntity
  8
layer 1
 62
     7
370
     9
100
AcDbSpline
210
0.0
220
0.0
230
1.0
 70
    11
 71
     3
 72
    24
 73
    20
 74
     0
 42
0.0000000001
 43
0.0000000001
 12
1.0
 22
0.0
 32
0.0
 13
1.0
 23
0.0
 33
0.0
 40
0.0
 40
0.0
 40
0.0
 40
0.0
 40
0.1666666666666667
 40
0.1666666666666667
 40
0.1666666666666667
 40
0.1666666666666667
 40
0.3333333333333333
 40
0.3333333333333333
 40
0.3333333333333333
 40
0.3333333333333333
 40
0.5
 40
0.5
 40
0.5
 40
0.5
 40
0.6666666666666666
 40
0.6666666666666666
 40
0.6666666666666666
 40
0.6666666666666666
 40
1.0
 40
1.0
 40
1.0
 40
1.0
 10
176.6827
 20
126.25
 30
0.0
 10
177.7141
 20
125.7592
 30
0.0
 10
178.8502
 20
125.3749
 30
0.0
 10
179.6429
 20
124.5481
 30
0.0
 10
179.6429
 20
124.5481
 30
0.0
 10
182.6943
 20
121.9962
 30
0.0
 10
183.9444
 20
117.9535
 30
0.0
 10
183.5427
 20
114.2156
 30
0.0
 10
183.5427
 20
114.2156
 30
0.0
 10
185.4312
 20
114.6228
 30
0.0
 10
187.4091
 20
114.4891
 30
0.0
 10
189.2887
 20
114.1009
 30
0.0
 10
189.2887
 20
114.1009
 30
0.0
 10
189.3132
 20
118.1581
 30
0.0
 10
189.2931
 20
122.2155
 30
0.0
 10
189.2998
 20
126.2729
 30
0.0
 10
189.2998
 20
126.2729
 30
0.0
 10
185.0941
 20
126.2583
 30
0.0
 10
180.8885
 20
126.3021
 30
0.0
 10
176.6827
 20
126.25
 30
0.0
  0
SPLINE
  5
66
330
1F
100
AcDbEntity
  8
layer 1
 62
     7
370
     9
100
AcDbSpline
210
0.0
220
0.0
230
1.0
 70
    11
 71
     3
 72
   108
 73
   104
 74
     0
 42
0.0000000001
 43
0.0000000001
 12
1.0
 22
0.0
 32
0.0
 13
1.0
 23
0.0
 33
0.0
 40
0.0
 40
0.0
 40
0.0
 40
0.0
 40
0.037037037037037
 40
0.037037037037037
 40
0.037037037037037
 40
0.037037037037037
 40
0.0740740740740741
 40
0.0740740740740741
 40
0.0740740740740741
 40
0.0740740740740741
 40
0.1111111111111111
 40
0.1111111111111111
 40
0.1111111111111111
 40
0.1111111111111111
 40
0.1481481481481481
 40
0.1481481481481481
 40
0.1481481481481481
 40
0.1481481481481481
 40
0.1851851851851852
 40
0.1851851851851852
 40
0.1851851851851852
 40
0.1851851851851852
 40
0.2222222222222222
 40
0.2222222222222222
 40
0.2222222222222222
 40
0.2222222222222222
 40
0.2592592592592592
 40
0.2592592592592592
 40
0.2592592592592592
 40
0.2592592592592592
 40
0.2962962962962963
 40
0.2962962962962963
 40
0.2962962962962963
 40
0.2962962962962963
 40
0.3333333333333333
 40
0.3333333333333333
 40
0.3333333333333333
 40
0.3333333333333333
 40
0.3703703703703703
 40
0.3703703703703703
 40
0.3703703703703703
 40
0.3703703703703703
 40
0.4074074074074074
 40
0.4074074074074074
 40
0.4074074074074074
 40
0.4074074074074074
 40
0.4444444444444444
 40
0.4444444444444444
 40
0.4444444444444444
 40
0.4444444444444444
 40
0.4814814814814815
 40
0.4814814814814815
 40
0.4814814814814815
 40
0.4814814814814815
 40
0.5185185185185185
 40
0.5185185185185185
 40
0.5185185185185185
 40
0.5185185185185185
 40
0.5555555555555556
 40
0.5555555555555556
 40
0.5555555555555556
 40
0.5555555555555556
 40
0.5925925925925926
 40
0.5925925925925926
 40
0.5925925925925926
 40
0.5925925925925926
 40
0.6296296296296297
 40
0.6296296296296297
 40
0.6296296296296297
 40
0.6296296296296297
 40
0.6666666666666666
 40
0.6666666666666666
 40
0.6666666666666666
 40
0.6666666666666666
 40
0.7037037037037037
 40
0.7037037037037037
 40
0.7037037037037037
 40
0.7037037037037037
 40
0.7407407407407407
 40
0.7407407407407407
 40
0.7407407407407407
 40
0.7407407407407407
 40
0.7777777777777778
 40
0.7777777777777778
 40
0.7777777777777778
 40
0.7777777777777778
 40
0.8148148148148148
 40
0.8148148148148148
 40
0.8148148148148148
 40
0.8148148148148148
 40
0.8518518518518519
 40
0.8518518518518519
 40
0.8518518518518519
 40
0.8518518518518519
 40
0.8888888888888888
 40
0.8888888888888888
 40
0.8888888888888888
 40
0.8888888888888888
 40
0.9259259259259259
 40
0.9259259259259259
 40
0.9259259259259259
 40
0.9259259259259259
 40
1.0
 40
1.0
 40
1.0
 40
1.0
 10
126.896
 20
26.1967
 30
0.0
 10
126.8662
 20
26.2482
 30
0.0
 10
125.4622
 20
23.8785
 30
0.0
 10
124.8831
 20
23.4122
 30
0.0
 10
124.8831
 20
23.4122
 30
0.0
 10
122.9656
 20
21.8752
 30
0.0
 10
122.1485
 20
19.2735
 30
0.0
 10
122.8741
 20
17.0078
 30
0.0
 10
122.8741
 20
17.0078
 30
0.0
 10
121.7825
 20
17.2124
 30
0.0
 10
121.0213
 20
18.0707
 30
0.0
 10
120.5503
 20
18.9582
 30
0.0
 10
120.5503
 20
18.9582
 30
0.0
 10
120.1841
 20
19.6848
 30
0.0
 10
120.3917
 20
20.5034
 30
0.0
 10
120.3136
 20
21.2718
 30
0.0
 10
120.3136
 20
21.2718
 30
0.0
 10
117.8503
 20
20.9006
 30
0.0
 10
117.3737
 20
19.3583
 30
0.0
 10
117.0678
 20
16.6549
 30
0.0
 10
117.0678
 20
16.6549
 30
0.0
 10
116.59
 20
17.2959
 30
0.0
 10
116.2574
 20
18.0206
 30
0.0
 10
115.7173
 20
18.6198
 30
0.0
 10
115.7173
 20
18.6198
 30
0.0
 10
108.8615
 20
27.6763
 30
0.0
 10
99.6046
 20
17.7945
 30
0.0
 10
93.4855
 20
13.6207
 30
0.0
 10
93.4855
 20
13.6207
 30
0.0
 10
100.4802
 20
10.8803
 30
0.0
 10
101.7876
 20
9.4093
 30
0.0
 10
108.9705
 20
15.2126
 30
0.0
 10
108.9705
 20
15.2126
 30
0.0
 10
109.4991
 20
15.6397
 30
0.0
 10
110.1236
 20
15.8235
 30
0.0
 10
110.8186
 20
15.7567
 30
0.0
 10
110.8186
 20
15.7567
 30
0.0
 10
111.5134
 20
15.6897
 30
0.0
 10
112.0848
 20
15.3906
 30
0.0
 10
112.5092
 20
14.8716
 30
0.0
 10
112.5092
 20
14.8716
 30
0.0
 10
112.5234
 20
14.8543
 30
0.0
 10
112.5377
 20
14.8368
 30
0.0
 10
112.5518
 20
14.8193
 30
0.0
 10
112.5518
 20
14.8193
 30
0.0
 10
113.5721
 20
13.6665
 30
0.0
 10
114.9069
 20
12.8146
 30
0.0
 10
116.2329
 20
11.9961
 30
0.0
 10
116.2329
 20
11.9961
 30
0.0
 10
119.1952
 20
10.3318
 30
0.0
 10
123.0457
 20
9.4997
 30
0.0
 10
126.896
 20
9.4997
 30
0.0
 10
126.896
 20
9.4997
 30
0.0
 10
130.7463
 20
9.4997
 30
0.0
 10
134.5968
 20
10.3318
 30
0.0
 10
137.5591
 20
11.9961
 30
0.0
 10
137.5591
 20
11.9961
 30
0.0
 10
138.8851
 20
12.8146
 30
0.0
 10
140.2199
 20
13.6665
 30
0.0
 10
141.2402
 20
14.8193
 30
0.0
 10
141.2402
 20
14.8193
 30
0.0
 10
141.2543
 20
14.8368
 30
0.0
 10
141.2686
 20
14.8543
 30
0.0
 10
141.2828
 20
14.8716
 30
0.0
 10
141.2828
 20
14.8716
 30
0.0
 10
141.7072
 20
15.3906
 30
0.0
 10
142.2786
 20
15.6897
 30
0.0
 10
142.9734
 20
15.7567
 30
0.0
 10
142.9734
 20
15.7567
 30
0.0
 10
143.6684
 20
15.8235
 30
0.0
 10
144.2929
 20
15.6397
 30
0.0
 10
144.8215
 20
15.2126
 30
0.0
 10
144.8215
 20
15.2126
 30
0.0
 10
152.0044
 20
9.4093
 30
0.0
 10
153.3118
 20
10.8803
 30
0.0
 10
160.3065
 20
13.6207
 30
0.0
 10
160.3065
 20
13.6207
 30
0.0
 10
154.1874
 20
17.7945
 30
0.0
 10
144.9305
 20
27.6763
 30
0.0
 10
138.0747
 20
18.6198
 30
0.0
 10
138.0747
 20
18.6198
 30
0.0
 10
137.5346
 20
18.0206
 30
0.0
 10
137.202
 20
17.2959
 30
0.0
 10
136.7242
 20
16.6549
 30
0.0
 10
136.7242
 20
16.6549
 30
0.0
 10
136.4183
 20
19.3583
 30
0.0
 10
135.9417
 20
20.9006
 30
0.0
 10
133.4783
 20
21.2718
 30
0.0
 10
133.4783
 20
21.2718
 30
0.0
 10
133.4003
 20
20.5034
 30
0.0
 10
133.6079
 20
19.6848
 30
0.0
 10
133.2417
 20
18.9582
 30
0.0
 10
133.2417
 20
18.9582
 30
0.0
 10
132.7707
 20
18.0707
 30
0.0
 10
132.0095
 20
17.2124
 30
0.0
 10
130.9179
 20
17.0078
 30
0.0
 10
130.9179
 20
17.0078
 30
0.0
 10
131.6435
 20
19.2735
 30
0.0
 10
130.8263
 20
21.8752
 30
0.0
 10
128.9089
 20
23.4122
 30
0.0
 10
128.9089
 20
23.4122
 30
0.0
 10
128.3298
 20
23.8785
 30
0.0
 10
126.9258
 20
26.2482
 30
0.0
 10
126.896
 20
26.1967
 30
0.0
  0
SPLINE
  5
67
330
1F
100
AcDbEntity
  8
layer 1
 62
     7
370
     9
100
AcDbSpline
210
0.0
220
0.0
230
1.0
 70
    11
 71
     3
 72
    36
 73
    32
 74
     0
 42
0.0000000001
 43
0.0000000001
 12
1.0
 22
0.0
 32
0.0
 13
1.0
 23
0.0
 33
0.0
 40
0.0
 40
0.0
 40
0.0
 40
0.0
 40
0.1111111111111111
 40
0.1111111111111111
 40
0.1111111111111111
 40
0.1111111111111111
 40
0.2222222222222222
 40
0.2222222222222222
 40
0.2222222222222222
 40
0.2222222222222222
 40
0.3333333333333333
 40
0.3333333333333333
 40
0.3333333333333333
 40
0.3333333333333333
 40
0.4444444444444444
 40
0.4444444444444444
 40
0.4444444444444444
 40
0.4444444444444444
 40
0.5555555555555556
 40
0.5555555555555556
 40
0.5555555555555556
 40
0.5555555555555556
 40
0.6666666666666666
 40
0.6666666666666666
 40
0.6666666666666666
 40
0.6666666666666666
 40
0.7777777777777778
 40
0.7777777777777778
 40
0.7777777777777778
 40
0.7777777777777778
 40
1.0
 40
1.0
 40
1.0
 40
1.0
 10
126.896
 20
52.8005
 30
0.0
 10
126.5291
 20
52.8009
 30
0.0
 10
126.1618
 20
52.3153
 30
0.0
 10
125.8519
 20
51.344
 30
0.0
 10
125.8519
 20
51.344
 30
0.0
 10
124.544
 20
46.0191
 30
0.0
 10
121.8494
 20
41.0973
 30
0.0
 10
118.637
 20
36.5701
 30
0.0
 10
118.637
 20
36.5701
 30
0.0
 10
120.6485
 20
36.5617
 30
0.0
 10
122.778
 20
36.4447
 30
0.0
 10
124.5371
 20
35.432
 30
0.0
 10
124.5371
 20
35.432
 30
0.0
 10
125.3863
 20
34.8701
 30
0.0
 10
126.6805
 20
32.8765
 30
0.0
 10
126.896
 20
32.6877
 30
0.0
 10
126.896
 20
32.6877
 30
0.0
 10
127.1115
 20
32.8765
 30
0.0
 10
128.4057
 20
34.8701
 30
0.0
 10
129.2549
 20
35.432
 30
0.0
 10
129.2549
 20
35.432
 30
0.0
 10
131.014
 20
36.4447
 30
0.0
 10
133.1435
 20
36.5617
 30
0.0
 10
135.1549
 20
36.5701
 30
0.0
 10
135.1549
 20
36.5701
 30
0.0
 10
131.9425
 20
41.0973
 30
0.0
 10
129.248
 20
46.0191
 30
0.0
 10
127.9401
 20
51.344
 30
0.0
 10
127.9401
 20
51.344
 30
0.0
 10
127.6302
 20
52.3153
 30
0.0
 10
127.2629
 20
52.8009
 30
0.0
 10
126.896
 20
52.8005
 30
0.0
  0
SPLINE
  5
68
330
1F
100
AcDbEntity
  8
layer 1
 62
     7
370
     9
100
AcDbSpline
210
0.0
220
0.0
230
1.0
 70
    11
 71
     3
 72
    52
 73
    48
 74
     0
 42
0.0000000001
 43
0.0000000001
 12
1.0
 22
0.0
 32
0.0
 13
1.0
 23
0.0
 33
0.0
 40
0.0
 40
0.0
 40
0.0
 40
0.0
 40
0.0769230769230769
 40
0.0769230769230769
 40
0.0769230769230769
 40
0.0769230769230769
 40
0.1538461538461539
 40
0.1538461538461539
 40
0.1538461538461539
 40
0.1538461538461539
 40
0.2307692307692308
 40
0.2307692307692308
 40
0.2307692307692308
 40
0.2307692307692308
 40
0.3076923076923077
 40
0.3076923076923077
 40
0.3076923076923077
 40
0.3076923076923077
 40
0.3846153846153846
 40
0.3846153846153846
 40
0.3846153846153846
 40
0.3846153846153846
 40
0.4615384615384616
 40
0.4615384615384616
 40
0.4615384615384616
 40
0.4615384615384616
 40
0.5384615384615384
 40
0.5384615384615384
 40
0.5384615384615384
 40
0.5384615384615384
 40
0.6153846153846154
 40
0.6153846153846154
 40
0.6153846153846154
 40
0.6153846153846154
 40
0.6923076923076923
 40
0.6923076923076923
 40
0.6923076923076923
 40
0.6923076923076923
 40
0.7692307692307693
 40
0.7692307692307693
 40
0.7692307692307693
 40
0.7692307692307693
 40
0.8461538461538461
 40
0.8461538461538461
 40
0.8461538461538461
 40
0.8461538461538461
 40
1.0
 40
1.0
 40
1.0
 40
1.0
 10
126.9826
 20
96.0147
 30
0.0
 10
125.8533
 20
95.5147
 30
0.0
 10
124.7001
 20
94.8307
 30
0.0
 10
123.9968
 20
93.793
 30
0.0
 10
123.9968
 20
93.793
 30
0.0
 10
122.6665
 20
92.0118
 30
0.0
 10
122.2691
 20
89.7754
 30
0.0
 10
122.307
 20
87.6412
 30
0.0
 10
122.307
 20
87.6412
 30
0.0
 10
122.1977
 20
83.8678
 30
0.0
 10
122.9633
 20
80.1403
 30
0.0
 10
123.1889
 20
76.3858
 30
0.0
 10
123.1889
 20
76.3858
 30
0.0
 10
123.1174
 20
74.7925
 30
0.0
 10
123.2022
 20
73.195
 30
0.0
 10
123.1442
 20
71.6038
 30
0.0
 10
123.1442
 20
71.6038
 30
0.0
 10
124.3697
 20
69.3631
 30
0.0
 10
125.3987
 20
67.0098
 30
0.0
 10
125.977
 20
64.5456
 30
0.0
 10
125.977
 20
64.5456
 30
0.0
 10
126.0914
 20
63.9507
 30
0.0
 10
126.4937
 20
63.6535
 30
0.0
 10
126.896
 20
63.6536
 30
0.0
 10
126.896
 20
63.6536
 30
0.0
 10
127.2983
 20
63.6535
 30
0.0
 10
127.7006
 20
63.9507
 30
0.0
 10
127.815
 20
64.5456
 30
0.0
 10
127.815
 20
64.5456
 30
0.0
 10
128.3933
 20
67.0098
 30
0.0
 10
129.4223
 20
69.3631
 30
0.0
 10
130.6478
 20
71.6038
 30
0.0
 10
130.6478
 20
71.6038
 30
0.0
 10
130.5898
 20
73.195
 30
0.0
 10
130.6746
 20
74.7925
 30
0.0
 10
130.6031
 20
76.3858
 30
0.0
 10
130.6031
 20
76.3858
 30
0.0
 10
130.8287
 20
80.1403
 30
0.0
 10
131.5943
 20
83.8678
 30
0.0
 10
131.4849
 20
87.6412
 30
0.0
 10
131.4849
 20
87.6412
 30
0.0
 10
131.5229
 20
89.7754
 30
0.0
 10
131.1255
 20
92.0118
 30
0.0
 10
129.7952
 20
93.793
 30
0.0
 10
129.7952
 20
93.793
 30
0.0
 10
129.126
 20
94.7804
 30
0.0
 10
128.0995
 20
95.5126
 30
0.0
 10
126.9826
 20
96.0147
 30
0.0
  0
SPLINE
  5
69
330
1F
100
AcDbEntity
  8
layer 1
 62
     7
370
     9
100
AcDbSpline
210
0.0
220
0.0
230
1.0
 70
    11
 71
     3
 72
   116
 73
   112
 74
     0
 42
0.0000000001
 43
0.0000000001
 12
1.0
 22
0.0
 32
0.0
 13
1.0
 23
0.0
 33
0.0
 40
0.0
 40
0.0
 40
0.0
 40
0.0
 40
0.0344827586206897
 40
0.0344827586206897
 40
0.0344827586206897
 40
0.0344827586206897
 40
0.0689655172413793
 40
0.0689655172413793
 40
0.0689655172413793
 40
0.0689655172413793
 40
0.103448275862069
 40
0.103448275862069
 40
0.103448275862069
 40
0.103448275862069
 40
0.1379310344827586
 40
0.1379310344827586
 40
0.1379310344827586
 40
0.1379310344827586
 40
0.1724137931034483
 40
0.1724137931034483
 40
0.1724137931034483
 40
0.1724137931034483
 40
0.2068965517241379
 40
0.2068965517241379
 40
0.2068965517241379
 40
0.2068965517241379
 40
0.2413793103448276
 40
0.2413793103448276
 40
0.2413793103448276
 40
0.2413793103448276
 40
0.2758620689655172
 40
0.2758620689655172
 40
0.2758620689655172
 40
0.2758620689655172
 40
0.3103448275862069
 40
0.3103448275862069
 40
0.3103448275862069
 40
0.3103448275862069
 40
0.3448275862068966
 40
0.3448275862068966
 40
0.3448275862068966
 40
0.3448275862068966
 40
0.3793103448275862
 40
0.3793103448275862
 40
0.3793103448275862
 40
0.3793103448275862
 40
0.4137931034482759
 40
0.4137931034482759
 40
0.4137931034482759
 40
0.4137931034482759
 40
0.4482758620689655
 40
0.4482758620689655
 40
0.4482758620689655
 40
0.4482758620689655
 40
0.4827586206896552
 40
0.4827586206896552
 40
0.4827586206896552
 40
0.4827586206896552
 40
0.5172413793103449
 40
0.5172413793103449
 40
0.5172413793103449
 40
0.5172413793103449
 40
0.5517241379310345
 40
0.5517241379310345
 40
0.5517241379310345
 40
0.5517241379310345
 40
0.5862068965517241
 40
0.5862068965517241
 40
0.5862068965517241
 40
0.5862068965517241
 40
0.6206896551724138
 40
0.6206896551724138
 40
0.6206896551724138
 40
0.6206896551724138
 40
0.6551724137931034
 40
0.6551724137931034
 40
0.6551724137931034
 40
0.6551724137931034
 40
0.6896551724137931
 40
0.6896551724137931
 40
0.6896551724137931
 40
0.6896551724137931
 40
0.7241379310344828
 40
0.7241379310344828
 40
0.7241379310344828
 40
0.7241379310344828
 40
0.7586206896551724
 40
0.7586206896551724
 40
0.7586206896551724
 40
0.7586206896551724
 40
0.7931034482758621
 40
0.7931034482758621
 40
0.7931034482758621
 40
0.7931034482758621
 40
0.8275862068965517
 40
0.8275862068965517
 40
0.8275862068965517
 40
0.8275862068965517
 40
0.8620689655172413
 40
0.8620689655172413
 40
0.8620689655172413
 40
0.8620689655172413
 40
0.896551724137931
 40
0.896551724137931
 40
0.896551724137931
 40
0.896551724137931
 40
0.9310344827586207
 40
0.9310344827586207
 40
0.9310344827586207
 40
0.9310344827586207
 40
1.0
 40
1.0
 40
1.0
 40
1.0
 10
126.896
 20
101.1573
 30
0.0
 10
124.2018
 20
101.9294
 30
0.0
 10
121.4811
 20
102.6692
 30
0.0
 10
118.675
 20
103.002
 30
0.0
 10
118.675
 20
103.002
 30
0.0
 10
116.1838
 20
103.2359
 30
0.0
 10
113.5296
 20
103.2629
 30
0.0
 10
111.2392
 20
102.1771
 30
0.0
 10
111.2392
 20
102.1771
 30
0.0
 10
109.3886
 20
101.2457
 30
0.0
 10
108.1809
 20
99.4082
 30
0.0
 10
107.9979
 20
97.4621
 30
0.0
 10
107.9979
 20
97.4621
 30
0.0
 10
107.6364
 20
94.2545
 30
0.0
 10
108.8372
 20
91.1139
 30
0.0
 10
110.2235
 20
88.2341
 30
0.0
 10
110.2235
 20
88.2341
 30
0.0
 10
111.4334
 20
85.8642
 30
0.0
 10
112.9134
 20
83.6046
 30
0.0
 10
114.7439
 20
81.6063
 30
0.0
 10
114.7439
 20
81.6063
 30
0.0
 10
115.9874
 20
79.9441
 30
0.0
 10
117.9562
 20
78.852
 30
0.0
 10
118.992
 20
77.0415
 30
0.0
 10
118.992
 20
77.0415
 30
0.0
 10
116.8647
 20
80.8733
 30
0.0
 10
116.4538
 20
85.3608
 30
0.0
 10
117.0745
 20
89.5895
 30
0.0
 10
117.0745
 20
89.5895
 30
0.0
 10
117.0343
 20
90.9489
 30
0.0
 10
116.8535
 20
92.3502
 30
0.0
 10
116.1391
 20
93.5613
 30
0.0
 10
116.1391
 20
93.5613
 30
0.0
 10
115.7574
 20
94.2712
 30
0.0
 10
115.1658
 20
94.8456
 30
0.0
 10
114.6212
 20
95.4428
 30
0.0
 10
114.6212
 20
95.4428
 30
0.0
 10
114.5319
 20
95.8603
 30
0.0
 10
115.1658
 20
95.7685
 30
0.0
 10
115.4426
 20
95.8665
 30
0.0
 10
115.4426
 20
95.8665
 30
0.0
 10
116.8535
 20
96.1402
 30
0.0
 10
118.2174
 20
95.4823
 30
0.0
 10
119.1305
 20
94.5093
 30
0.0
 10
119.1305
 20
94.5093
 30
0.0
 10
119.6127
 20
94.9937
 30
0.0
 10
119.9385
 20
95.6056
 30
0.0
 10
120.4876
 20
96.0295
 30
0.0
 10
120.4876
 20
96.0295
 30
0.0
 10
121.4409
 20
96.704
 30
0.0
 10
122.4007
 20
97.4098
 30
0.0
 10
123.5504
 20
97.7668
 30
0.0
 10
123.5504
 20
97.7668
 30
0.0
 10
124.6079
 20
98.2076
 30
0.0
 10
125.7666
 20
98.3127
 30
0.0
 10
126.896
 20
98.4929
 30
0.0
 10
126.896
 20
98.4929
 30
0.0
 10
128.0253
 20
98.3127
 30
0.0
 10
129.1841
 20
98.2076
 30
0.0
 10
130.2416
 20
97.7668
 30
0.0
 10
130.2416
 20
97.7668
 30
0.0
 10
131.3913
 20
97.4098
 30
0.0
 10
132.3511
 20
96.704
 30
0.0
 10
133.3044
 20
96.0295
 30
0.0
 10
133.3044
 20
96.0295
 30
0.0
 10
133.8535
 20
95.6056
 30
0.0
 10
134.1793
 20
94.9937
 30
0.0
 10
134.6615
 20
94.5093
 30
0.0
 10
134.6615
 20
94.5093
 30
0.0
 10
135.5745
 20
95.4823
 30
0.0
 10
136.9385
 20
96.1402
 30
0.0
 10
138.3494
 20
95.8665
 30
0.0
 10
138.3494
 20
95.8665
 30
0.0
 10
138.6262
 20
95.7685
 30
0.0
 10
139.2601
 20
95.8603
 30
0.0
 10
139.1708
 20
95.4428
 30
0.0
 10
139.1708
 20
95.4428
 30
0.0
 10
138.6262
 20
94.8456
 30
0.0
 10
138.0346
 20
94.2712
 30
0.0
 10
137.6529
 20
93.5613
 30
0.0
 10
137.6529
 20
93.5613
 30
0.0
 10
136.9385
 20
92.3502
 30
0.0
 10
136.7577
 20
90.9489
 30
0.0
 10
136.7175
 20
89.5895
 30
0.0
 10
136.7175
 20
89.5895
 30
0.0
 10
137.3382
 20
85.3608
 30
0.0
 10
136.9273
 20
80.8733
 30
0.0
 10
134.8
 20
77.0415
 30
0.0
 10
134.8
 20
77.0415
 30
0.0
 10
135.8358
 20
78.852
 30
0.0
 10
137.8046
 20
79.9441
 30
0.0
 10
139.0481
 20
81.6063
 30
0.0
 10
139.0481
 20
81.6063
 30
0.0
 10
140.8785
 20
83.6046
 30
0.0
 10
142.3586
 20
85.8642
 30
0.0
 10
143.5685
 20
88.2341
 30
0.0
 10
143.5685
 20
88.2341
 30
0.0
 10
144.9548
 20
91.1139
 30
0.0
 10
146.1556
 20
94.2545
 30
0.0
 10
145.7941
 20
97.4621
 30
0.0
 10
145.7941
 20
97.4621
 30
0.0
 10
145.6111
 20
99.4082
 30
0.0
 10
144.4034
 20
101.2457
 30
0.0
 10
142.5528
 20
102.1771
 30
0.0
 10
142.5528
 20
102.1771
 30
0.0
 10
140.2624
 20
103.2629
 30
0.0
 10
137.6082
 20
103.2359
 30
0.0
 10
135.117
 20
103.002
 30
0.0
 10
135.117
 20
103.002
 30
0.0
 10
132.3109
 20
102.6692
 30
0.0
 10
129.5902
 20
101.9294
 30
0.0
 10
126.896
 20
101.1573
 30
0.0
  0
SPLINE
  5
6A
330
1F
100
AcDbEntity
  8
layer 1
 62
     7
370
     9
100
AcDbSpline
210
0.0
220
0.0
230
1.0
 70
    11
 71
     3
 72
   176
 73
   172
 74
     0
 42
0.0000000001
 43
0.0000000001
 12
1.0
 22
0.0
 32
0.0
 13
1.0
 23
0.0
 33
0.0
 40
0.0
 40
0.0
 40
0.0
 40
0.0
 40
0.0227272727272727
 40
0.0227272727272727
 40
0.0227272727272727
 40
0.0227272727272727
 40
0.0454545454545455
 40
0.0454545454545455
 40
0.0454545454545455
 40
0.0454545454545455
 40
0.0681818181818182
 40
0.0681818181818182
 40
0.0681818181818182
 40
0.0681818181818182
 40
0.0909090909090909
 40
0.0909090909090909
 40
0.0909090909090909
 40
0.0909090909090909
 40
0.1136363636363636
 40
0.1136363636363636
 40
0.1136363636363636
 40
0.1136363636363636
 40
0.1363636363636364
 40
0.1363636363636364
 40
0.1363636363636364
 40
0.1363636363636364
 40
0.1590909090909091
 40
0.1590909090909091
 40
0.1590909090909091
 40
0.1590909090909091
 40
0.1818181818181818
 40
0.1818181818181818
 40
0.1818181818181818
 40
0.1818181818181818
 40
0.2045454545454546
 40
0.2045454545454546
 40
0.2045454545454546
 40
0.2045454545454546
 40
0.2272727272727273
 40
0.2272727272727273
 40
0.2272727272727273
 40
0.2272727272727273
 40
0.25
 40
0.25
 40
0.25
 40
0.25
 40
0.2727272727272727
 40
0.2727272727272727
 40
0.2727272727272727
 40
0.2727272727272727
 40
0.2954545454545455
 40
0.2954545454545455
 40
0.2954545454545455
 40
0.2954545454545455
 40
0.3181818181818182
 40
0.3181818181818182
 40
0.3181818181818182
 40
0.3181818181818182
 40
0.3409090909090909
 40
0.3409090909090909
 40
0.3409090909090909
 40
0.3409090909090909
 40
0.3636363636363636
 40
0.3636363636363636
 40
0.3636363636363636
 40
0.3636363636363636
 40
0.3863636363636364
 40
0.3863636363636364
 40
0.3863636363636364
 40
0.3863636363636364
 40
0.4090909090909091
 40
0.4090909090909091
 40
0.4090909090909091
 40
0.4090909090909091
 40
0.4318181818181818
 40
0.4318181818181818
 40
0.4318181818181818
 40
0.4318181818181818
 40
0.4545454545454545
 40
0.4545454545454545
 40
0.4545454545454545
 40
0.4545454545454545
 40
0.4772727272727273
 40
0.4772727272727273
 40
0.4772727272727273
 40
0.4772727272727273
 40
0.5
 40
0.5
 40
0.5
 40
0.5
 40
0.5227272727272727
 40
0.5227272727272727
 40
0.5227272727272727
 40
0.5227272727272727
 40
0.5454545454545454
 40
0.5454545454545454
 40
0.5454545454545454
 40
0.5454545454545454
 40
0.5681818181818182
 40
0.5681818181818182
 40
0.5681818181818182
 40
0.5681818181818182
 40
0.5909090909090909
 40
0.5909090909090909
 40
0.5909090909090909
 40
0.5909090909090909
 40
0.6136363636363636
 40
0.6136363636363636
 40
0.6136363636363636
 40
0.6136363636363636
 40
0.6363636363636364
 40
0.6363636363636364
 40
0.6363636363636364
 40
0.6363636363636364
 40
0.6590909090909091
 40
0.6590909090909091
 40
0.6590909090909091
 40
0.6590909090909091
 40
0.6818181818181818
 40
0.6818181818181818
 40
0.6818181818181818
 40
0.6818181818181818
 40
0.7045454545454546
 40
0.7045454545454546
 40
0.7045454545454546
 40
0.7045454545454546
 40
0.7272727272727273
 40
0.7272727272727273
 40
0.7272727272727273
 40
0.7272727272727273
 40
0.75
 40
0.75
 40
0.75
 40
0.75
 40
0.7727272727272727
 40
0.7727272727272727
 40
0.7727272727272727
 40
0.7727272727272727
 40
0.7954545454545454
 40
0.7954545454545454
 40
0.7954545454545454
 40
0.7954545454545454
 40
0.8181818181818182
 40
0.8181818181818182
 40
0.8181818181818182
 40
0.8181818181818182
 40
0.8409090909090909
 40
0.8409090909090909
 40
0.8409090909090909
 40
0.8409090909090909
 40
0.8636363636363636
 40
0.8636363636363636
 40
0.8636363636363636
 40
0.8636363636363636
 40
0.8863636363636364
 40
0.8863636363636364
 40
0.8863636363636364
 40
0.8863636363636364
 40
0.9090909090909091
 40
0.9090909090909091
 40
0.9090909090909091
 40
0.9090909090909091
 40
0.9318181818181818
 40
0.9318181818181818
 40
0.9318181818181818
 40
0.9318181818181818
 40
0.9545454545454546
 40
0.9545454545454546
 40
0.9545454545454546
 40
0.9545454545454546
 40
1.0
 40
1.0
 40
1.0
 40
1.0
 10
126.7978
 20
111.6544
 30
0.0
 10
126.3368
 20
110.917
 30
0.0
 10
125.8191
 20
110.1935
 30
0.0
 10
125.026
 20
109.7385
 30
0.0
 10
125.026
 20
109.7385
 30
0.0
 10
123.488
 20
108.8322
 30
0.0
 10
121.5011
 20
108.7654
 30
0.0
 10
119.8157
 20
109.3439
 30
0.0
 10
119.8157
 20
109.3439
 30
0.0
 10
120.4252
 20
109.8304
 30
0.0
 10
121.2177
 20
110.1478
 30
0.0
 10
121.6507
 20
110.8077
 30
0.0
 10
121.6507
 20
110.8077
 30
0.0
 10
122.0459
 20
111.2964
 30
0.0
 10
122.2714
 20
111.8894
 30
0.0
 10
122.3584
 20
112.4908
 30
0.0
 10
122.3584
 20
112.4908
 30
0.0
 10
122.144
 20
113.9587
 30
0.0
 10
121.0992
 20
115.1804
 30
0.0
 10
119.8962
 20
116.0804
 30
0.0
 10
119.8962
 20
116.0804
 30
0.0
 10
119.0657
 20
116.6462
 30
0.0
 10
118.2712
 20
117.3104
 30
0.0
 10
117.2643
 20
117.5839
 30
0.0
 10
117.2643
 20
117.5839
 30
0.0
 10
115.3802
 20
118.2647
 30
0.0
 10
113.3734
 20
118.5653
 30
0.0
 10
111.3619
 20
118.6385
 30
0.0
 10
111.3619
 20
118.6385
 30
0.0
 10
106.1674
 20
118.6133
 30
0.0
 10
100.8678
 20
116.9199
 30
0.0
 10
97.084
 20
113.5286
 30
0.0
 10
97.084
 20
113.5286
 30
0.0
 10
93.8696
 20
110.86
 30
0.0
 10
91.9563
 20
106.7003
 30
0.0
 10
92.6172
 20
102.6678
 30
0.0
 10
92.6172
 20
102.6678
 30
0.0
 10
94.0479
 20
92.2156
 30
0.0
 10
100.8061
 20
91.14
 30
0.0
 10
108.2232
 20
86.167
 30
0.0
 10
108.2232
 20
86.167
 30
0.0
 10
107.4575
 20
88.301
 30
0.0
 10
106.3035
 20
90.2869
 30
0.0
 10
105.1249
 20
92.2394
 30
0.0
 10
105.1249
 20
92.2394
 30
0.0
 10
104.0958
 20
94.2106
 30
0.0
 10
103.0823
 20
96.2738
 30
0.0
 10
103.0175
 20
98.5061
 30
0.0
 10
103.0175
 20
98.5061
 30
0.0
 10
102.7742
 20
101.5882
 30
0.0
 10
104.1627
 20
104.562
 30
0.0
 10
106.078
 20
107.001
 30
0.0
 10
106.078
 20
107.001
 30
0.0
 10
106.8371
 20
107.8925
 30
0.0
 10
107.4687
 20
108.9074
 30
0.0
 10
107.7546
 20
110.0205
 30
0.0
 10
107.7546
 20
110.0205
 30
0.0
 10
107.989
 20
111.1398
 30
0.0
 10
107.3839
 20
112.1839
 30
0.0
 10
106.9823
 20
113.1988
 30
0.0
 10
106.9823
 20
113.1988
 30
0.0
 10
107.7725
 20
113.0295
 30
0.0
 10
108.585
 20
112.8458
 30
0.0
 10
109.2368
 20
112.3717
 30
0.0
 10
109.2368
 20
112.3717
 30
0.0
 10
110.632
 20
111.5908
 30
0.0
 10
111.0092
 20
109.9369
 30
0.0
 10
110.9803
 20
108.5232
 30
0.0
 10
110.9803
 20
108.5232
 30
0.0
 10
112.5429
 20
109.1642
 30
0.0
 10
114.2729
 20
109.2416
 30
0.0
 10
115.9427
 20
109.0557
 30
0.0
 10
115.9427
 20
109.0557
 30
0.0
 10
120.0853
 20
108.3243
 30
0.0
 10
122.9353
 20
105.0395
 30
0.0
 10
126.8004
 20
103.7128
 30
0.0
 10
126.8004
 20
103.7128
 30
0.0
 10
126.8004
 20
103.7128
 30
0.0
 10
126.8006
 20
103.6494
 30
0.0
 10
126.8006
 20
103.6494
 30
0.0
 10
126.8006
 20
103.6494
 30
0.0
 10
126.8006
 20
103.6494
 30
0.0
 10
126.896
 20
103.6808
 30
0.0
 10
126.896
 20
103.6808
 30
0.0
 10
126.896
 20
103.6808
 30
0.0
 10
126.896
 20
103.6808
 30
0.0
 10
126.9914
 20
103.6494
 30
0.0
 10
126.9914
 20
103.6494
 30
0.0
 10
126.9914
 20
103.6494
 30
0.0
 10
126.9914
 20
103.6494
 30
0.0
 10
126.9915
 20
103.7128
 30
0.0
 10
126.9915
 20
103.7128
 30
0.0
 10
126.9915
 20
103.7128
 30
0.0
 10
130.8567
 20
105.0395
 30
0.0
 10
133.7067
 20
108.3243
 30
0.0
 10
137.8493
 20
109.0557
 30
0.0
 10
137.8493
 20
109.0557
 30
0.0
 10
139.5191
 20
109.2416
 30
0.0
 10
141.2491
 20
109.1642
 30
0.0
 10
142.8117
 20
108.5232
 30
0.0
 10
142.8117
 20
108.5232
 30
0.0
 10
142.7828
 20
109.9369
 30
0.0
 10
143.16
 20
111.5908
 30
0.0
 10
144.5552
 20
112.3717
 30
0.0
 10
144.5552
 20
112.3717
 30
0.0
 10
145.207
 20
112.8458
 30
0.0
 10
146.0195
 20
113.0295
 30
0.0
 10
146.8097
 20
113.1988
 30
0.0
 10
146.8097
 20
113.1988
 30
0.0
 10
146.4081
 20
112.1839
 30
0.0
 10
145.803
 20
111.1398
 30
0.0
 10
146.0374
 20
110.0205
 30
0.0
 10
146.0374
 20
110.0205
 30
0.0
 10
146.3233
 20
108.9074
 30
0.0
 10
146.9549
 20
107.8925
 30
0.0
 10
147.714
 20
107.001
 30
0.0
 10
147.714
 20
107.001
 30
0.0
 10
149.6293
 20
104.562
 30
0.0
 10
151.0178
 20
101.5882
 30
0.0
 10
150.7745
 20
98.5061
 30
0.0
 10
150.7745
 20
98.5061
 30
0.0
 10
150.7097
 20
96.2738
 30
0.0
 10
149.6962
 20
94.2106
 30
0.0
 10
148.6671
 20
92.2394
 30
0.0
 10
148.6671
 20
92.2394
 30
0.0
 10
147.4885
 20
90.2869
 30
0.0
 10
146.3344
 20
88.301
 30
0.0
 10
145.5688
 20
86.167
 30
0.0
 10
145.5688
 20
86.167
 30
0.0
 10
152.9859
 20
91.14
 30
0.0
 10
159.7441
 20
92.2156
 30
0.0
 10
161.1748
 20
102.6678
 30
0.0
 10
161.1748
 20
102.6678
 30
0.0
 10
161.8357
 20
106.7003
 30
0.0
 10
159.9224
 20
110.86
 30
0.0
 10
156.708
 20
113.5286
 30
0.0
 10
156.708
 20
113.5286
 30
0.0
 10
152.9242
 20
116.9199
 30
0.0
 10
147.6246
 20
118.6133
 30
0.0
 10
142.4301
 20
118.6385
 30
0.0
 10
142.4301
 20
118.6385
 30
0.0
 10
140.4186
 20
118.5653
 30
0.0
 10
138.4118
 20
118.2647
 30
0.0
 10
136.5277
 20
117.5839
 30
0.0
 10
136.5277
 20
117.5839
 30
0.0
 10
135.5208
 20
117.3104
 30
0.0
 10
134.7263
 20
116.6462
 30
0.0
 10
133.8958
 20
116.0804
 30
0.0
 10
133.8958
 20
116.0804
 30
0.0
 10
132.6928
 20
115.1804
 30
0.0
 10
131.648
 20
113.9587
 30
0.0
 10
131.4336
 20
112.4908
 30
0.0
 10
131.4336
 20
112.4908
 30
0.0
 10
131.5206
 20
111.8894
 30
0.0
 10
131.7461
 20
111.2964
 30
0.0
 10
132.1412
 20
110.8077
 30
0.0
 10
132.1412
 20
110.8077
 30
0.0
 10
132.5743
 20
110.1478
 30
0.0
 10
133.3668
 20
109.8304
 30
0.0
 10
133.9762
 20
109.3439
 30
0.0
 10
133.9762
 20
109.3439
 30
0.0
 10
132.2908
 20
108.7654
 30
0.0
 10
130.304
 20
108.8322
 30
0.0
 10
128.766
 20
109.7385
 30
0.0
 10
128.766
 20
109.7385
 30
0.0
 10
127.9729
 20
110.1935
 30
0.0
 10
127.4552
 20
110.917
 30
0.0
 10
126.9942
 20
111.6544
 30
0.0
 10
126.9942
 20
111.6544
 30
0.0
 10
126.9934
 20
112.0244
 30
0.0
 10
126.7986
 20
112.0244
 30
0.0
 10
126.7978
 20
111.6544
 30
0.0
  0
SPLINE
  5
6B
330
1F
100
AcDbEntity
  8
layer 1
 62
     7
370
     9
100
AcDbSpline
210
0.0
220
0.0
230
1.0
 70
    11
 71
     3
 72
   108
 73
   104
 74
     0
 42
0.0000000001
 43
0.0000000001
 12
1.0
 22
0.0
 32
0.0
 13
1.0
 23
0.0
 33
0.0
 40
0.0
 40
0.0
 40
0.0
 40
0.0
 40
0.037037037037037
 40
0.037037037037037
 40
0.037037037037037
 40
0.037037037037037
 40
0.0740740740740741
 40
0.0740740740740741
 40
0.0740740740740741
 40
0.0740740740740741
 40
0.1111111111111111
 40
0.1111111111111111
 40
0.1111111111111111
 40
0.1111111111111111
 40
0.1481481481481481
 40
0.1481481481481481
 40
0.1481481481481481
 40
0.1481481481481481
 40
0.1851851851851852
 40
0.1851851851851852
 40
0.1851851851851852
 40
0.1851851851851852
 40
0.2222222222222222
 40
0.2222222222222222
 40
0.2222222222222222
 40
0.2222222222222222
 40
0.2592592592592592
 40
0.2592592592592592
 40
0.2592592592592592
 40
0.2592592592592592
 40
0.2962962962962963
 40
0.2962962962962963
 40
0.2962962962962963
 40
0.2962962962962963
 40
0.3333333333333333
 40
0.3333333333333333
 40
0.3333333333333333
 40
0.3333333333333333
 40
0.3703703703703703
 40
0.3703703703703703
 40
0.3703703703703703
 40
0.3703703703703703
 40
0.4074074074074074
 40
0.4074074074074074
 40
0.4074074074074074
 40
0.4074074074074074
 40
0.4444444444444444
 40
0.4444444444444444
 40
0.4444444444444444
 40
0.4444444444444444
 40
0.4814814814814815
 40
0.4814814814814815
 40
0.4814814814814815
 40
0.4814814814814815
 40
0.5185185185185185
 40
0.5185185185185185
 40
0.5185185185185185
 40
0.5185185185185185
 40
0.5555555555555556
 40
0.5555555555555556
 40
0.5555555555555556
 40
0.5555555555555556
 40
0.5925925925925926
 40
0.5925925925925926
 40
0.5925925925925926
 40
0.5925925925925926
 40
0.6296296296296297
 40
0.6296296296296297
 40
0.6296296296296297
 40
0.6296296296296297
 40
0.6666666666666666
 40
0.6666666666666666
 40
0.6666666666666666
 40
0.6666666666666666
 40
0.7037037037037037
 40
0.7037037037037037
 40
0.7037037037037037
 40
0.7037037037037037
 40
0.7407407407407407
 40
0.7407407407407407
 40
0.7407407407407407
 40
0.7407407407407407
 40
0.7777777777777778
 40
0.7777777777777778
 40
0.7777777777777778
 40
0.7777777777777778
 40
0.8148148148148148
 40
0.8148148148148148
 40
0.8148148148148148
 40
0.8148148148148148
 40
0.8518518518518519
 40
0.8518518518518519
 40
0.8518518518518519
 40
0.8518518518518519
 40
0.8888888888888888
 40
0.8888888888888888
 40
0.8888888888888888
 40
0.8888888888888888
 40
0.9259259259259259
 40
0.9259259259259259
 40
0.9259259259259259
 40
0.9259259259259259
 40
1.0
 40
1.0
 40
1.0
 40
1.0
 10
126.896
 20
7.2142
 30
0.0
 10
123.0457
 20
7.2142
 30
0.0
 10
119.1952
 20
6.3821
 30
0.0
 10
116.2329
 20
4.7178
 30
0.0
 10
116.2329
 20
4.7178
 30
0.0
 10
114.9069
 20
3.8993
 30
0.0
 10
113.5721
 20
3.0474
 30
0.0
 10
112.5518
 20
1.8946
 30
0.0
 10
112.5518
 20
1.8946
 30
0.0
 10
112.5377
 20
1.8772
 30
0.0
 10
112.5234
 20
1.8597
 30
0.0
 10
112.5092
 20
1.8423
 30
0.0
 10
112.5092
 20
1.8423
 30
0.0
 10
112.0848
 20
1.3233
 30
0.0
 10
111.5134
 20
1.0242
 30
0.0
 10
110.8186
 20
0.9573
 30
0.0
 10
110.8186
 20
0.9573
 30
0.0
 10
110.1236
 20
0.8904
 30
0.0
 10
109.4991
 20
1.0743
 30
0.0
 10
108.9705
 20
1.5014
 30
0.0
 10
108.9705
 20
1.5014
 30
0.0
 10
101.7876
 20
7.3046
 30
0.0
 10
100.4802
 20
5.8336
 30
0.0
 10
93.4855
 20
3.0933
 30
0.0
 10
93.4855
 20
3.0933
 30
0.0
 10
99.6046
 20
-1.0805
 30
0.0
 10
108.8615
 20
-10.9624
 30
0.0
 10
115.7173
 20
-1.9059
 30
0.0
 10
115.7173
 20
-1.9059
 30
0.0
 10
116.2574
 20
-1.3066
 30
0.0
 10
116.59
 20
-0.5819
 30
0.0
 10
117.0678
 20
0.0591
 30
0.0
 10
117.0678
 20
0.0591
 30
0.0
 10
117.3737
 20
-2.6444
 30
0.0
 10
117.8503
 20
-4.1867
 30
0.0
 10
120.3136
 20
-4.5579
 30
0.0
 10
120.3136
 20
-4.5579
 30
0.0
 10
120.3917
 20
-3.7895
 30
0.0
 10
120.1841
 20
-2.9709
 30
0.0
 10
120.5503
 20
-2.2443
 30
0.0
 10
120.5503
 20
-2.2443
 30
0.0
 10
121.0213
 20
-1.3568
 30
0.0
 10
121.7825
 20
-0.4985
 30
0.0
 10
122.8741
 20
-0.2938
 30
0.0
 10
122.8741
 20
-0.2938
 30
0.0
 10
122.1485
 20
-2.5595
 30
0.0
 10
122.9656
 20
-5.1612
 30
0.0
 10
124.8831
 20
-6.6982
 30
0.0
 10
124.8831
 20
-6.6982
 30
0.0
 10
125.4622
 20
-7.1645
 30
0.0
 10
126.8662
 20
-9.5342
 30
0.0
 10
126.896
 20
-9.4828
 30
0.0
 10
126.896
 20
-9.4828
 30
0.0
 10
126.9258
 20
-9.5342
 30
0.0
 10
128.3298
 20
-7.1645
 30
0.0
 10
128.9089
 20
-6.6982
 30
0.0
 10
128.9089
 20
-6.6982
 30
0.0
 10
130.8263
 20
-5.1612
 30
0.0
 10
131.6435
 20
-2.5595
 30
0.0
 10
130.9179
 20
-0.2938
 30
0.0
 10
130.9179
 20
-0.2938
 30
0.0
 10
132.0095
 20
-0.4985
 30
0.0
 10
132.7707
 20
-1.3568
 30
0.0
 10
133.2417
 20
-2.2443
 30
0.0
 10
133.2417
 20
-2.2443
 30
0.0
 10
133.6079
 20
-2.9709
 30
0.0
 10
133.4003
 20
-3.7895
 30
0.0
 10
133.4783
 20
-4.5579
 30
0.0
 10
133.4783
 20
-4.5579
 30
0.0
 10
135.9417
 20
-4.1867
 30
0.0
 10
136.4183
 20
-2.6444
 30
0.0
 10
136.7242
 20
0.0591
 30
0.0
 10
136.7242
 20
0.0591
 30
0.0
 10
137.202
 20
-0.5819
 30
0.0
 10
137.5346
 20
-1.3066
 30
0.0
 10
138.0747
 20
-1.9059
 30
0.0
 10
138.0747
 20
-1.9059
 30
0.0
 10
144.9305
 20
-10.9624
 30
0.0
 10
154.1874
 20
-1.0805
 30
0.0
 10
160.3065
 20
3.0933
 30
0.0
 10
160.3065
 20
3.0933
 30
0.0
 10
153.3118
 20
5.8336
 30
0.0
 10
152.0044
 20
7.3046
 30
0.0
 10
144.8215
 20
1.5014
 30
0.0
 10
144.8215
 20
1.5014
 30
0.0
 10
144.2929
 20
1.0743
 30
0.0
 10
143.6684
 20
0.8904
 30
0.0
 10
142.9734
 20
0.9573
 30
0.0
 10
142.9734
 20
0.9573
 30
0.0
 10
142.2786
 20
1.0242
 30
0.0
 10
141.7072
 20
1.3233
 30
0.0
 10
141.2828
 20
1.8423
 30
0.0
 10
141.2828
 20
1.8423
 30
0.0
 10
141.2686
 20
1.8597
 30
0.0
 10
141.2543
 20
1.8772
 30
0.0
 10
141.2402
 20
1.8946
 30
0.0
 10
141.2402
 20
1.8946
 30
0.0
 10
140.2199
 20
3.0474
 30
0.0
 10
138.8851
 20
3.8993
 30
0.0
 10
137.5591
 20
4.7178
 30
0.0
 10
137.5591
 20
4.7178
 30
0.0
 10
134.5968
 20
6.3821
 30
0.0
 10
130.7463
 20
7.2142
 30
0.0
 10
126.896
 20
7.2142
 30
0.0
  0
SPLINE
  5
6C
330
1F
100
AcDbEntity
  8
layer 1
 62
     7
370
     9
100
AcDbSpline
210
0.0
220
0.0
230
1.0
 70
    11
 71
     3
 72
    36
 73
    32
 74
     0
 42
0.0000000001
 43
0.0000000001
 12
1.0
 22
0.0
 32
0.0
 13
1.0
 23
0.0
 33
0.0
 40
0.0
 40
0.0
 40
0.0
 40
0.0
 40
0.1111111111111111
 40
0.1111111111111111
 40
0.1111111111111111
 40
0.1111111111111111
 40
0.2222222222222222
 40
0.2222222222222222
 40
0.2222222222222222
 40
0.2222222222222222
 40
0.3333333333333333
 40
0.3333333333333333
 40
0.3333333333333333
 40
0.3333333333333333
 40
0.4444444444444444
 40
0.4444444444444444
 40
0.4444444444444444
 40
0.4444444444444444
 40
0.5555555555555556
 40
0.5555555555555556
 40
0.5555555555555556
 40
0.5555555555555556
 40
0.6666666666666666
 40
0.6666666666666666
 40
0.6666666666666666
 40
0.6666666666666666
 40
0.7777777777777778
 40
0.7777777777777778
 40
0.7777777777777778
 40
0.7777777777777778
 40
1.0
 40
1.0
 40
1.0
 40
1.0
 10
126.896
 20
-15.9737
 30
0.0
 10
126.6805
 20
-16.1625
 30
0.0
 10
125.3863
 20
-18.1562
 30
0.0
 10
124.5371
 20
-18.718
 30
0.0
 10
124.5371
 20
-18.718
 30
0.0
 10
122.778
 20
-19.7307
 30
0.0
 10
120.6485
 20
-19.8477
 30
0.0
 10
118.637
 20
-19.8562
 30
0.0
 10
118.637
 20
-19.8562
 30
0.0
 10
121.8494
 20
-24.3834
 30
0.0
 10
124.544
 20
-29.3052
 30
0.0
 10
125.8519
 20
-34.6301
 30
0.0
 10
125.8519
 20
-34.6301
 30
0.0
 10
126.1618
 20
-35.6013
 30
0.0
 10
126.5291
 20
-36.0869
 30
0.0
 10
126.896
 20
-36.0866
 30
0.0
 10
126.896
 20
-36.0866
 30
0.0
 10
127.2629
 20
-36.0869
 30
0.0
 10
127.6302
 20
-35.6013
 30
0.0
 10
127.9401
 20
-34.6301
 30
0.0
 10
127.9401
 20
-34.6301
 30
0.0
 10
129.248
 20
-29.3052
 30
0.0
 10
131.9425
 20
-24.3834
 30
0.0
 10
135.1549
 20
-19.8562
 30
0.0
 10
135.1549
 20
-19.8562
 30
0.0
 10
133.1435
 20
-19.8477
 30
0.0
 10
131.014
 20
-19.7307
 30
0.0
 10
129.2549
 20
-18.718
 30
0.0
 10
129.2549
 20
-18.718
 30
0.0
 10
128.4057
 20
-18.1562
 30
0.0
 10
127.1115
 20
-16.1625
 30
0.0
 10
126.896
 20
-15.9737
 30
0.0
  0
SPLINE
  5
6D
330
1F
100
AcDbEntity
  8
layer 1
 62
     7
370
     9
100
AcDbSpline
210
0.0
220
0.0
230
1.0
 70
    11
 71
     3
 72
    52
 73
    48
 74
     0
 42
0.0000000001
 43
0.0000000001
 12
1.0
 22
0.0
 32
0.0
 13
1.0
 23
0.0
 33
0.0
 40
0.0
 40
0.0
 40
0.0
 40
0.0
 40
0.0769230769230769
 40
0.0769230769230769
 40
0.0769230769230769
 40
0.0769230769230769
 40
0.1538461538461539
 40
0.1538461538461539
 40
0.1538461538461539
 40
0.1538461538461539
 40
0.2307692307692308
 40
0.2307692307692308
 40
0.2307692307692308
 40
0.2307692307692308
 40
0.3076923076923077
 40
0.3076923076923077
 40
0.3076923076923077
 40
0.3076923076923077
 40
0.3846153846153846
 40
0.3846153846153846
 40
0.3846153846153846
 40
0.3846153846153846
 40
0.4615384615384616
 40
0.4615384615384616
 40
0.4615384615384616
 40
0.4615384615384616
 40
0.5384615384615384
 40
0.5384615384615384
 40
0.5384615384615384
 40
0.5384615384615384
 40
0.6153846153846154
 40
0.6153846153846154
 40
0.6153846153846154
 40
0.6153846153846154
 40
0.6923076923076923
 40
0.6923076923076923
 40
0.6923076923076923
 40
0.6923076923076923
 40
0.7692307692307693
 40
0.7692307692307693
 40
0.7692307692307693
 40
0.7692307692307693
 40
0.8461538461538461
 40
0.8461538461538461
 40
0.8461538461538461
 40
0.8461538461538461
 40
1.0
 40
1.0
 40
1.0
 40
1.0
 10
126.896
 20
-46.9396
 30
0.0
 10
126.4937
 20
-46.9396
 30
0.0
 10
126.0914
 20
-47.2368
 30
0.0
 10
125.977
 20
-47.8317
 30
0.0
 10
125.977
 20
-47.8317
 30
0.0
 10
125.3987
 20
-50.2958
 30
0.0
 10
124.3697
 20
-52.6491
 30
0.0
 10
123.1442
 20
-54.8899
 30
0.0
 10
123.1442
 20
-54.8899
 30
0.0
 10
123.2022
 20
-56.481
 30
0.0
 10
123.1174
 20
-58.0786
 30
0.0
 10
123.1889
 20
-59.6718
 30
0.0
 10
123.1889
 20
-59.6718
 30
0.0
 10
122.9633
 20
-63.4264
 30
0.0
 10
122.1977
 20
-67.1538
 30
0.0
 10
122.307
 20
-70.9273
 30
0.0
 10
122.307
 20
-70.9273
 30
0.0
 10
122.2691
 20
-73.0615
 30
0.0
 10
122.6665
 20
-75.2979
 30
0.0
 10
123.9968
 20
-77.0791
 30
0.0
 10
123.9968
 20
-77.0791
 30
0.0
 10
124.7001
 20
-78.1168
 30
0.0
 10
125.7667
 20
-78.8391
 30
0.0
 10
126.896
 20
-79.3391
 30
0.0
 10
126.896
 20
-79.3391
 30
0.0
 10
128.0253
 20
-78.8391
 30
0.0
 10
129.0918
 20
-78.1169
 30
0.0
 10
129.7952
 20
-77.0791
 30
0.0
 10
129.7952
 20
-77.0791
 30
0.0
 10
131.1255
 20
-75.2979
 30
0.0
 10
131.5229
 20
-73.0615
 30
0.0
 10
131.4849
 20
-70.9273
 30
0.0
 10
131.4849
 20
-70.9273
 30
0.0
 10
131.5943
 20
-67.1538
 30
0.0
 10
130.8287
 20
-63.4264
 30
0.0
 10
130.6031
 20
-59.6718
 30
0.0
 10
130.6031
 20
-59.6718
 30
0.0
 10
130.6746
 20
-58.0786
 30
0.0
 10
130.5898
 20
-56.481
 30
0.0
 10
130.6478
 20
-54.8899
 30
0.0
 10
130.6478
 20
-54.8899
 30
0.0
 10
129.4223
 20
-52.6491
 30
0.0
 10
128.3933
 20
-50.2958
 30
0.0
 10
127.815
 20
-47.8317
 30
0.0
 10
127.815
 20
-47.8317
 30
0.0
 10
127.7006
 20
-47.2368
 30
0.0
 10
127.2983
 20
-46.9396
 30
0.0
 10
126.896
 20
-46.9396
 30
0.0
  0
SPLINE
  5
6E
330
1F
100
AcDbEntity
  8
layer 1
 62
     7
370
     9
100
AcDbSpline
210
0.0
220
0.0
230
1.0
 70
    11
 71
     3
 72
   116
 73
   112
 74
     0
 42
0.0000000001
 43
0.0000000001
 12
1.0
 22
0.0
 32
0.0
 13
1.0
 23
0.0
 33
0.0
 40
0.0
 40
0.0
 40
0.0
 40
0.0
 40
0.0344827586206897
 40
0.0344827586206897
 40
0.0344827586206897
 40
0.0344827586206897
 40
0.0689655172413793
 40
0.0689655172413793
 40
0.0689655172413793
 40
0.0689655172413793
 40
0.103448275862069
 40
0.103448275862069
 40
0.103448275862069
 40
0.103448275862069
 40
0.1379310344827586
 40
0.1379310344827586
 40
0.1379310344827586
 40
0.1379310344827586
 40
0.1724137931034483
 40
0.1724137931034483
 40
0.1724137931034483
 40
0.1724137931034483
 40
0.2068965517241379
 40
0.2068965517241379
 40
0.2068965517241379
 40
0.2068965517241379
 40
0.2413793103448276
 40
0.2413793103448276
 40
0.2413793103448276
 40
0.2413793103448276
 40
0.2758620689655172
 40
0.2758620689655172
 40
0.2758620689655172
 40
0.2758620689655172
 40
0.3103448275862069
 40
0.3103448275862069
 40
0.3103448275862069
 40
0.3103448275862069
 40
0.3448275862068966
 40
0.3448275862068966
 40
0.3448275862068966
 40
0.3448275862068966
 40
0.3793103448275862
 40
0.3793103448275862
 40
0.3793103448275862
 40
0.3793103448275862
 40
0.4137931034482759
 40
0.4137931034482759
 40
0.4137931034482759
 40
0.4137931034482759
 40
0.4482758620689655
 40
0.4482758620689655
 40
0.4482758620689655
 40
0.4482758620689655
 40
0.4827586206896552
 40
0.4827586206896552
 40
0.4827586206896552
 40
0.4827586206896552
 40
0.5172413793103449
 40
0.5172413793103449
 40
0.5172413793103449
 40
0.5172413793103449
 40
0.5517241379310345
 40
0.5517241379310345
 40
0.5517241379310345
 40
0.5517241379310345
 40
0.5862068965517241
 40
0.5862068965517241
 40
0.5862068965517241
 40
0.5862068965517241
 40
0.6206896551724138
 40
0.6206896551724138
 40
0.6206896551724138
 40
0.6206896551724138
 40
0.6551724137931034
 40
0.6551724137931034
 40
0.6551724137931034
 40
0.6551724137931034
 40
0.6896551724137931
 40
0.6896551724137931
 40
0.6896551724137931
 40
0.6896551724137931
 40
0.7241379310344828
 40
0.7241379310344828
 40
0.7241379310344828
 40
0.7241379310344828
 40
0.7586206896551724
 40
0.7586206896551724
 40
0.7586206896551724
 40
0.7586206896551724
 40
0.7931034482758621
 40
0.7931034482758621
 40
0.7931034482758621
 40
0.7931034482758621
 40
0.8275862068965517
 40
0.8275862068965517
 40
0.8275862068965517
 40
0.8275862068965517
 40
0.8620689655172413
 40
0.8620689655172413
 40
0.8620689655172413
 40
0.8620689655172413
 40
0.896551724137931
 40
0.896551724137931
 40
0.896551724137931
 40
0.896551724137931
 40
0.9310344827586207
 40
0.9310344827586207
 40
0.9310344827586207
 40
0.9310344827586207
 40
1.0
 40
1.0
 40
1.0
 40
1.0
 10
126.896
 20
-81.7789
 30
0.0
 10
125.7666
 20
-81.5988
 30
0.0
 10
124.6079
 20
-81.4937
 30
0.0
 10
123.5504
 20
-81.0529
 30
0.0
 10
123.5504
 20
-81.0529
 30
0.0
 10
122.4007
 20
-80.6959
 30
0.0
 10
121.4409
 20
-79.9901
 30
0.0
 10
120.4876
 20
-79.3156
 30
0.0
 10
120.4876
 20
-79.3156
 30
0.0
 10
119.9385
 20
-78.8917
 30
0.0
 10
119.6127
 20
-78.2797
 30
0.0
 10
119.1305
 20
-77.7954
 30
0.0
 10
119.1305
 20
-77.7954
 30
0.0
 10
118.2174
 20
-78.7684
 30
0.0
 10
116.8535
 20
-79.4262
 30
0.0
 10
115.4426
 20
-79.1526
 30
0.0
 10
115.4426
 20
-79.1526
 30
0.0
 10
115.1658
 20
-79.0545
 30
0.0
 10
114.5319
 20
-79.1464
 30
0.0
 10
114.6212
 20
-78.7289
 30
0.0
 10
114.6212
 20
-78.7289
 30
0.0
 10
115.1658
 20
-78.1317
 30
0.0
 10
115.7574
 20
-77.5572
 30
0.0
 10
116.1391
 20
-76.8473
 30
0.0
 10
116.1391
 20
-76.8473
 30
0.0
 10
116.8535
 20
-75.6363
 30
0.0
 10
117.0343
 20
-74.2349
 30
0.0
 10
117.0745
 20
-72.8756
 30
0.0
 10
117.0745
 20
-72.8756
 30
0.0
 10
116.4538
 20
-68.6469
 30
0.0
 10
116.8647
 20
-64.1594
 30
0.0
 10
118.992
 20
-60.3275
 30
0.0
 10
118.992
 20
-60.3275
 30
0.0
 10
117.9562
 20
-62.138
 30
0.0
 10
115.9874
 20
-63.2302
 30
0.0
 10
114.7439
 20
-64.8923
 30
0.0
 10
114.7439
 20
-64.8923
 30
0.0
 10
112.9134
 20
-66.8907
 30
0.0
 10
111.4334
 20
-69.1502
 30
0.0
 10
110.2235
 20
-71.5202
 30
0.0
 10
110.2235
 20
-71.5202
 30
0.0
 10
108.8372
 20
-74.3999
 30
0.0
 10
107.6364
 20
-77.5406
 30
0.0
 10
107.9979
 20
-80.7481
 30
0.0
 10
107.9979
 20
-80.7481
 30
0.0
 10
108.1809
 20
-82.6943
 30
0.0
 10
109.3886
 20
-84.5318
 30
0.0
 10
111.2392
 20
-85.4632
 30
0.0
 10
111.2392
 20
-85.4632
 30
0.0
 10
113.5296
 20
-86.549
 30
0.0
 10
116.1838
 20
-86.5219
 30
0.0
 10
118.675
 20
-86.2881
 30
0.0
 10
118.675
 20
-86.2881
 30
0.0
 10
121.4811
 20
-85.9553
 30
0.0
 10
124.2018
 20
-85.2155
 30
0.0
 10
126.896
 20
-84.4433
 30
0.0
 10
126.896
 20
-84.4433
 30
0.0
 10
129.5902
 20
-85.2155
 30
0.0
 10
132.3109
 20
-85.9553
 30
0.0
 10
135.117
 20
-86.2881
 30
0.0
 10
135.117
 20
-86.2881
 30
0.0
 10
137.6082
 20
-86.5219
 30
0.0
 10
140.2624
 20
-86.549
 30
0.0
 10
142.5528
 20
-85.4632
 30
0.0
 10
142.5528
 20
-85.4632
 30
0.0
 10
144.4034
 20
-84.5318
 30
0.0
 10
145.6111
 20
-82.6943
 30
0.0
 10
145.7941
 20
-80.7481
 30
0.0
 10
145.7941
 20
-80.7481
 30
0.0
 10
146.1556
 20
-77.5406
 30
0.0
 10
144.9548
 20
-74.3999
 30
0.0
 10
143.5685
 20
-71.5202
 30
0.0
 10
143.5685
 20
-71.5202
 30
0.0
 10
142.3586
 20
-69.1502
 30
0.0
 10
140.8785
 20
-66.8907
 30
0.0
 10
139.0481
 20
-64.8923
 30
0.0
 10
139.0481
 20
-64.8923
 30
0.0
 10
137.8046
 20
-63.2302
 30
0.0
 10
135.8358
 20
-62.138
 30
0.0
 10
134.8
 20
-60.3275
 30
0.0
 10
134.8
 20
-60.3275
 30
0.0
 10
136.9273
 20
-64.1594
 30
0.0
 10
137.3382
 20
-68.6469
 30
0.0
 10
136.7175
 20
-72.8756
 30
0.0
 10
136.7175
 20
-72.8756
 30
0.0
 10
136.7577
 20
-74.2349
 30
0.0
 10
136.9385
 20
-75.6363
 30
0.0
 10
137.6529
 20
-76.8473
 30
0.0
 10
137.6529
 20
-76.8473
 30
0.0
 10
138.0346
 20
-77.5572
 30
0.0
 10
138.6262
 20
-78.1317
 30
0.0
 10
139.1708
 20
-78.7289
 30
0.0
 10
139.1708
 20
-78.7289
 30
0.0
 10
139.2601
 20
-79.1464
 30
0.0
 10
138.6262
 20
-79.0545
 30
0.0
 10
138.3494
 20
-79.1526
 30
0.0
 10
138.3494
 20
-79.1526
 30
0.0
 10
136.9385
 20
-79.4262
 30
0.0
 10
135.5745
 20
-78.7684
 30
0.0
 10
134.6615
 20
-77.7954
 30
0.0
 10
134.6615
 20
-77.7954
 30
0.0
 10
134.1793
 20
-78.2797
 30
0.0
 10
133.8535
 20
-78.8917
 30
0.0
 10
133.3044
 20
-79.3156
 30
0.0
 10
133.3044
 20
-79.3156
 30
0.0
 10
132.3511
 20
-79.9901
 30
0.0
 10
131.3913
 20
-80.6959
 30
0.0
 10
130.2416
 20
-81.0529
 30
0.0
 10
130.2416
 20
-81.0529
 30
0.0
 10
129.1841
 20
-81.4937
 30
0.0
 10
128.0253
 20
-81.5988
 30
0.0
 10
126.896
 20
-81.7789
 30
0.0
  0
SPLINE
  5
6F
330
1F
100
AcDbEntity
  8
layer 1
 62
     7
370
     9
100
AcDbSpline
210
0.0
220
0.0
230
1.0
 70
    11
 71
     3
 72
   188
 73
   184
 74
     0
 42
0.0000000001
 43
0.0000000001
 12
1.0
 22
0.0
 32
0.0
 13
1.0
 23
0.0
 33
0.0
 40
0.0
 40
0.0
 40
0.0
 40
0.0
 40
0.0212765957446809
 40
0.0212765957446809
 40
0.0212765957446809
 40
0.0212765957446809
 40
0.0425531914893617
 40
0.0425531914893617
 40
0.0425531914893617
 40
0.0425531914893617
 40
0.0638297872340425
 40
0.0638297872340425
 40
0.0638297872340425
 40
0.0638297872340425
 40
0.0851063829787234
 40
0.0851063829787234
 40
0.0851063829787234
 40
0.0851063829787234
 40
0.1063829787234043
 40
0.1063829787234043
 40
0.1063829787234043
 40
0.1063829787234043
 40
0.1276595744680851
 40
0.1276595744680851
 40
0.1276595744680851
 40
0.1276595744680851
 40
0.148936170212766
 40
0.148936170212766
 40
0.148936170212766
 40
0.148936170212766
 40
0.1702127659574468
 40
0.1702127659574468
 40
0.1702127659574468
 40
0.1702127659574468
 40
0.1914893617021277
 40
0.1914893617021277
 40
0.1914893617021277
 40
0.1914893617021277
 40
0.2127659574468085
 40
0.2127659574468085
 40
0.2127659574468085
 40
0.2127659574468085
 40
0.2340425531914894
 40
0.2340425531914894
 40
0.2340425531914894
 40
0.2340425531914894
 40
0.2553191489361702
 40
0.2553191489361702
 40
0.2553191489361702
 40
0.2553191489361702
 40
0.2765957446808511
 40
0.2765957446808511
 40
0.2765957446808511
 40
0.2765957446808511
 40
0.2978723404255319
 40
0.2978723404255319
 40
0.2978723404255319
 40
0.2978723404255319
 40
0.3191489361702128
 40
0.3191489361702128
 40
0.3191489361702128
 40
0.3191489361702128
 40
0.3404255319148936
 40
0.3404255319148936
 40
0.3404255319148936
 40
0.3404255319148936
 40
0.3617021276595745
 40
0.3617021276595745
 40
0.3617021276595745
 40
0.3617021276595745
 40
0.3829787234042553
 40
0.3829787234042553
 40
0.3829787234042553
 40
0.3829787234042553
 40
0.4042553191489361
 40
0.4042553191489361
 40
0.4042553191489361
 40
0.4042553191489361
 40
0.425531914893617
 40
0.425531914893617
 40
0.425531914893617
 40
0.425531914893617
 40
0.4468085106382979
 40
0.4468085106382979
 40
0.4468085106382979
 40
0.4468085106382979
 40
0.4680851063829787
 40
0.4680851063829787
 40
0.4680851063829787
 40
0.4680851063829787
 40
0.4893617021276596
 40
0.4893617021276596
 40
0.4893617021276596
 40
0.4893617021276596
 40
0.5106382978723404
 40
0.5106382978723404
 40
0.5106382978723404
 40
0.5106382978723404
 40
0.5319148936170213
 40
0.5319148936170213
 40
0.5319148936170213
 40
0.5319148936170213
 40
0.5531914893617021
 40
0.5531914893617021
 40
0.5531914893617021
 40
0.5531914893617021
 40
0.574468085106383
 40
0.574468085106383
 40
0.574468085106383
 40
0.574468085106383
 40
0.5957446808510638
 40
0.5957446808510638
 40
0.5957446808510638
 40
0.5957446808510638
 40
0.6170212765957447
 40
0.6170212765957447
 40
0.6170212765957447
 40
0.6170212765957447
 40
0.6382978723404256
 40
0.6382978723404256
 40
0.6382978723404256
 40
0.6382978723404256
 40
0.6595744680851063
 40
0.6595744680851063
 40
0.6595744680851063
 40
0.6595744680851063
 40
0.6808510638297872
 40
0.6808510638297872
 40
0.6808510638297872
 40
0.6808510638297872
 40
0.7021276595744681
 40
0.7021276595744681
 40
0.7021276595744681
 40
0.7021276595744681
 40
0.723404255319149
 40
0.723404255319149
 40
0.723404255319149
 40
0.723404255319149
 40
0.7446808510638298
 40
0.7446808510638298
 40
0.7446808510638298
 40
0.7446808510638298
 40
0.7659574468085106
 40
0.7659574468085106
 40
0.7659574468085106
 40
0.7659574468085106
 40
0.7872340425531915
 40
0.7872340425531915
 40
0.7872340425531915
 40
0.7872340425531915
 40
0.8085106382978723
 40
0.8085106382978723
 40
0.8085106382978723
 40
0.8085106382978723
 40
0.8297872340425532
 40
0.8297872340425532
 40
0.8297872340425532
 40
0.8297872340425532
 40
0.851063829787234
 40
0.851063829787234
 40
0.851063829787234
 40
0.851063829787234
 40
0.8723404255319149
 40
0.8723404255319149
 40
0.8723404255319149
 40
0.8723404255319149
 40
0.8936170212765957
 40
0.8936170212765957
 40
0.8936170212765957
 40
0.8936170212765957
 40
0.9148936170212766
 40
0.9148936170212766
 40
0.9148936170212766
 40
0.9148936170212766
 40
0.9361702127659575
 40
0.9361702127659575
 40
0.9361702127659575
 40
0.9361702127659575
 40
0.9574468085106383
 40
0.9574468085106383
 40
0.9574468085106383
 40
0.9574468085106383
 40
1.0
 40
1.0
 40
1.0
 40
1.0
 10
126.896
 20
-86.9669
 30
0.0
 10
126.896
 20
-86.9669
 30
0.0
 10
126.8006
 20
-86.9355
 30
0.0
 10
126.8006
 20
-86.9355
 30
0.0
 10
126.8006
 20
-86.9355
 30
0.0
 10
126.8006
 20
-86.9355
 30
0.0
 10
126.8004
 20
-86.9989
 30
0.0
 10
126.8004
 20
-86.9989
 30
0.0
 10
126.8004
 20
-86.9989
 30
0.0
 10
122.9353
 20
-88.3256
 30
0.0
 10
120.0853
 20
-91.6103
 30
0.0
 10
115.9427
 20
-92.3418
 30
0.0
 10
115.9427
 20
-92.3418
 30
0.0
 10
114.2729
 20
-92.5277
 30
0.0
 10
112.5429
 20
-92.4503
 30
0.0
 10
110.9803
 20
-91.8093
 30
0.0
 10
110.9803
 20
-91.8093
 30
0.0
 10
111.0092
 20
-93.223
 30
0.0
 10
110.632
 20
-94.8769
 30
0.0
 10
109.2368
 20
-95.6577
 30
0.0
 10
109.2368
 20
-95.6577
 30
0.0
 10
108.585
 20
-96.1319
 30
0.0
 10
107.7725
 20
-96.3156
 30
0.0
 10
106.9823
 20
-96.4848
 30
0.0
 10
106.9823
 20
-96.4848
 30
0.0
 10
107.3839
 20
-95.47
 30
0.0
 10
107.989
 20
-94.4258
 30
0.0
 10
107.7546
 20
-93.3066
 30
0.0
 10
107.7546
 20
-93.3066
 30
0.0
 10
107.4687
 20
-92.1934
 30
0.0
 10
106.8371
 20
-91.1786
 30
0.0
 10
106.078
 20
-90.2871
 30
0.0
 10
106.078
 20
-90.2871
 30
0.0
 10
104.1627
 20
-87.848
 30
0.0
 10
102.7742
 20
-84.8743
 30
0.0
 10
103.0175
 20
-81.7922
 30
0.0
 10
103.0175
 20
-81.7922
 30
0.0
 10
103.0823
 20
-79.5599
 30
0.0
 10
104.0958
 20
-77.4967
 30
0.0
 10
105.1249
 20
-75.5255
 30
0.0
 10
105.1249
 20
-75.5255
 30
0.0
 10
106.3035
 20
-73.5729
 30
0.0
 10
107.4575
 20
-71.587
 30
0.0
 10
108.2232
 20
-69.453
 30
0.0
 10
108.2232
 20
-69.453
 30
0.0
 10
100.8061
 20
-74.426
 30
0.0
 10
94.0479
 20
-75.5017
 30
0.0
 10
92.6172
 20
-85.9538
 30
0.0
 10
92.6172
 20
-85.9538
 30
0.0
 10
91.9563
 20
-89.9863
 30
0.0
 10
93.8696
 20
-94.146
 30
0.0
 10
97.084
 20
-96.8147
 30
0.0
 10
97.084
 20
-96.8147
 30
0.0
 10
100.8678
 20
-100.206
 30
0.0
 10
106.1674
 20
-101.8994
 30
0.0
 10
111.3619
 20
-101.9246
 30
0.0
 10
111.3619
 20
-101.9246
 30
0.0
 10
113.3734
 20
-101.8514
 30
0.0
 10
115.3802
 20
-101.5507
 30
0.0
 10
117.2643
 20
-100.8699
 30
0.0
 10
117.2643
 20
-100.8699
 30
0.0
 10
118.2712
 20
-100.5964
 30
0.0
 10
119.0657
 20
-99.9323
 30
0.0
 10
119.8962
 20
-99.3664
 30
0.0
 10
119.8962
 20
-99.3664
 30
0.0
 10
121.0992
 20
-98.4664
 30
0.0
 10
122.144
 20
-97.2448
 30
0.0
 10
122.3584
 20
-95.7769
 30
0.0
 10
122.3584
 20
-95.7769
 30
0.0
 10
122.2714
 20
-95.1755
 30
0.0
 10
122.0459
 20
-94.5824
 30
0.0
 10
121.6507
 20
-94.0938
 30
0.0
 10
121.6507
 20
-94.0938
 30
0.0
 10
121.2177
 20
-93.4339
 30
0.0
 10
120.4252
 20
-93.1165
 30
0.0
 10
119.8157
 20
-92.63
 30
0.0
 10
119.8157
 20
-92.63
 30
0.0
 10
121.5011
 20
-92.0514
 30
0.0
 10
123.488
 20
-92.1183
 30
0.0
 10
125.026
 20
-93.0245
 30
0.0
 10
125.026
 20
-93.0245
 30
0.0
 10
125.8191
 20
-93.4796
 30
0.0
 10
126.3368
 20
-94.2031
 30
0.0
 10
126.7978
 20
-94.9405
 30
0.0
 10
126.7978
 20
-94.9405
 30
0.0
 10
126.7978
 20
-94.9405
 30
0.0
 10
126.7985
 20
-95.2568
 30
0.0
 10
126.7985
 20
-95.2568
 30
0.0
 10
126.7985
 20
-95.2568
 30
0.0
 10
126.7985
 20
-95.2568
 30
0.0
 10
126.896
 20
-95.099
 30
0.0
 10
126.896
 20
-95.099
 30
0.0
 10
126.896
 20
-95.099
 30
0.0
 10
126.896
 20
-95.099
 30
0.0
 10
126.9935
 20
-95.2568
 30
0.0
 10
126.9935
 20
-95.2568
 30
0.0
 10
126.9935
 20
-95.2568
 30
0.0
 10
126.9935
 20
-95.2568
 30
0.0
 10
126.9942
 20
-94.9405
 30
0.0
 10
126.9942
 20
-94.9405
 30
0.0
 10
126.9942
 20
-94.9405
 30
0.0
 10
127.4552
 20
-94.2031
 30
0.0
 10
127.9729
 20
-93.4796
 30
0.0
 10
128.766
 20
-93.0245
 30
0.0
 10
128.766
 20
-93.0245
 30
0.0
 10
130.304
 20
-92.1183
 30
0.0
 10
132.2908
 20
-92.0514
 30
0.0
 10
133.9762
 20
-92.63
 30
0.0
 10
133.9762
 20
-92.63
 30
0.0
 10
133.3668
 20
-93.1165
 30
0.0
 10
132.5743
 20
-93.4339
 30
0.0
 10
132.1412
 20
-94.0938
 30
0.0
 10
132.1412
 20
-94.0938
 30
0.0
 10
131.7461
 20
-94.5824
 30
0.0
 10
131.5206
 20
-95.1755
 30
0.0
 10
131.4336
 20
-95.7769
 30
0.0
 10
131.4336
 20
-95.7769
 30
0.0
 10
131.648
 20
-97.2448
 30
0.0
 10
132.6928
 20
-98.4664
 30
0.0
 10
133.8958
 20
-99.3664
 30
0.0
 10
133.8958
 20
-99.3664
 30
0.0
 10
134.7263
 20
-99.9323
 30
0.0
 10
135.5208
 20
-100.5964
 30
0.0
 10
136.5277
 20
-100.8699
 30
0.0
 10
136.5277
 20
-100.8699
 30
0.0
 10
138.4118
 20
-101.5507
 30
0.0
 10
140.4186
 20
-101.8514
 30
0.0
 10
142.4301
 20
-101.9246
 30
0.0
 10
142.4301
 20
-101.9246
 30
0.0
 10
147.6246
 20
-101.8994
 30
0.0
 10
152.9242
 20
-100.206
 30
0.0
 10
156.708
 20
-96.8147
 30
0.0
 10
156.708
 20
-96.8147
 30
0.0
 10
159.9224
 20
-94.146
 30
0.0
 10
161.8357
 20
-89.9863
 30
0.0
 10
161.1748
 20
-85.9538
 30
0.0
 10
161.1748
 20
-85.9538
 30
0.0
 10
159.7441
 20
-75.5017
 30
0.0
 10
152.9859
 20
-74.426
 30
0.0
 10
145.5688
 20
-69.453
 30
0.0
 10
145.5688
 20
-69.453
 30
0.0
 10
146.3344
 20
-71.587
 30
0.0
 10
147.4885
 20
-73.5729
 30
0.0
 10
148.6671
 20
-75.5255
 30
0.0
 10
148.6671
 20
-75.5255
 30
0.0
 10
149.6962
 20
-77.4967
 30
0.0
 10
150.7097
 20
-79.5599
 30
0.0
 10
150.7745
 20
-81.7922
 30
0.0
 10
150.7745
 20
-81.7922
 30
0.0
 10
151.0178
 20
-84.8743
 30
0.0
 10
149.6293
 20
-87.848
 30
0.0
 10
147.714
 20
-90.2871
 30
0.0
 10
147.714
 20
-90.2871
 30
0.0
 10
146.9549
 20
-91.1786
 30
0.0
 10
146.3233
 20
-92.1934
 30
0.0
 10
146.0374
 20
-93.3066
 30
0.0
 10
146.0374
 20
-93.3066
 30
0.0
 10
145.803
 20
-94.4258
 30
0.0
 10
146.4081
 20
-95.47
 30
0.0
 10
146.8097
 20
-96.4848
 30
0.0
 10
146.8097
 20
-96.4848
 30
0.0
 10
146.0195
 20
-96.3156
 30
0.0
 10
145.207
 20
-96.1319
 30
0.0
 10
144.5552
 20
-95.6577
 30
0.0
 10
144.5552
 20
-95.6577
 30
0.0
 10
143.16
 20
-94.8769
 30
0.0
 10
142.7828
 20
-93.223
 30
0.0
 10
142.8117
 20
-91.8093
 30
0.0
 10
142.8117
 20
-91.8093
 30
0.0
 10
141.2491
 20
-92.4503
 30
0.0
 10
139.5191
 20
-92.5277
 30
0.0
 10
137.8493
 20
-92.3418
 30
0.0
 10
137.8493
 20
-92.3418
 30
0.0
 10
133.7067
 20
-91.6103
 30
0.0
 10
130.8567
 20
-88.3256
 30
0.0
 10
126.9915
 20
-86.9989
 30
0.0
 10
126.9915
 20
-86.9989
 30
0.0
 10
126.9915
 20
-86.9989
 30
0.0
 10
126.9914
 20
-86.9355
 30
0.0
 10
126.9914
 20
-86.9355
 30
0.0
 10
126.9914
 20
-86.9355
 30
0.0
 10
126.9914
 20
-86.9355
 30
0.0
 10
126.896
 20
-86.9669
 30
0.0
 10
126.896
 20
-86.9669
 30
0.0
  0
SPLINE
  5
70
330
1F
100
AcDbEntity
  8
layer 1
 62
     7
370
     9
100
AcDbSpline
210
0.0
220
0.0
230
1.0
 70
    11
 71
     3
 72
    76
 73
    72
 74
     0
 42
0.0000000001
 43
0.0000000001
 12
1.0
 22
0.0
 32
0.0
 13
1.0
 23
0.0
 33
0.0
 40
0.0
 40
0.0
 40
0.0
 40
0.0
 40
0.0526315789473684
 40
0.0526315789473684
 40
0.0526315789473684
 40
0.0526315789473684
 40
0.1052631578947368
 40
0.1052631578947368
 40
0.1052631578947368
 40
0.1052631578947368
 40
0.1578947368421053
 40
0.1578947368421053
 40
0.1578947368421053
 40
0.1578947368421053
 40
0.2105263157894737
 40
0.2105263157894737
 40
0.2105263157894737
 40
0.2105263157894737
 40
0.2631578947368421
 40
0.2631578947368421
 40
0.2631578947368421
 40
0.2631578947368421
 40
0.3157894736842105
 40
0.3157894736842105
 40
0.3157894736842105
 40
0.3157894736842105
 40
0.3684210526315789
 40
0.3684210526315789
 40
0.3684210526315789
 40
0.3684210526315789
 40
0.4210526315789473
 40
0.4210526315789473
 40
0.4210526315789473
 40
0.4210526315789473
 40
0.4736842105263158
 40
0.4736842105263158
 40
0.4736842105263158
 40
0.4736842105263158
 40
0.5263157894736842
 40
0.5263157894736842
 40
0.5263157894736842
 40
0.5263157894736842
 40
0.5789473684210527
 40
0.5789473684210527
 40
0.5789473684210527
 40
0.5789473684210527
 40
0.631578947368421
 40
0.631578947368421
 40
0.631578947368421
 40
0.631578947368421
 40
0.6842105263157895
 40
0.6842105263157895
 40
0.6842105263157895
 40
0.6842105263157895
 40
0.7368421052631579
 40
0.7368421052631579
 40
0.7368421052631579
 40
0.7368421052631579
 40
0.7894736842105263
 40
0.7894736842105263
 40
0.7894736842105263
 40
0.7894736842105263
 40
0.8421052631578947
 40
0.8421052631578947
 40
0.8421052631578947
 40
0.8421052631578947
 40
0.8947368421052632
 40
0.8947368421052632
 40
0.8947368421052632
 40
0.8947368421052632
 40
1.0
 40
1.0
 40
1.0
 40
1.0
 10
126.896
 20
-99.7417
 30
0.0
 10
126.8714
 20
-99.6973
 30
0.0
 10
126.8464
 20
-99.6529
 30
0.0
 10
126.8208
 20
-99.6088
 30
0.0
 10
126.8208
 20
-99.6088
 30
0.0
 10
126.8208
 20
-99.6088
 30
0.0
 10
126.8155
 20
-99.8967
 30
0.0
 10
126.8155
 20
-99.8967
 30
0.0
 10
126.8155
 20
-99.8967
 30
0.0
 10
126.4969
 20
-100.5335
 30
0.0
 10
126.2875
 20
-101.2206
 30
0.0
 10
125.8363
 20
-101.793
 30
0.0
 10
125.8363
 20
-101.793
 30
0.0
 10
123.5751
 20
-104.8438
 30
0.0
 10
119.7511
 20
-106.5018
 30
0.0
 10
115.9449
 20
-107.168
 30
0.0
 10
115.9449
 20
-107.168
 30
0.0
 10
110.9133
 20
-107.972
 30
0.0
 10
105.4618
 20
-107.2515
 30
0.0
 10
101.1804
 20
-104.5369
 30
0.0
 10
101.1804
 20
-104.5369
 30
0.0
 10
101.3009
 20
-105.1466
 30
0.0
 10
101.4996
 20
-105.7772
 30
0.0
 10
101.312
 20
-106.3912
 30
0.0
 10
101.312
 20
-106.3912
 30
0.0
 10
100.917
 20
-107.5063
 30
0.0
 10
100.0397
 20
-108.4104
 30
0.0
 10
99.7137
 20
-109.5506
 30
0.0
 10
99.7137
 20
-109.5506
 30
0.0
 10
108.7404
 20
-109.5694
 30
0.0
 10
117.7673
 20
-109.5551
 30
0.0
 10
126.794
 20
-109.5589
 30
0.0
 10
126.794
 20
-109.5589
 30
0.0
 10
126.794
 20
-109.5589
 30
0.0
 10
126.896
 20
-109.559
 30
0.0
 10
126.896
 20
-109.559
 30
0.0
 10
126.896
 20
-109.559
 30
0.0
 10
126.896
 20
-109.559
 30
0.0
 10
126.998
 20
-109.5589
 30
0.0
 10
126.998
 20
-109.5589
 30
0.0
 10
126.998
 20
-109.5589
 30
0.0
 10
136.0247
 20
-109.5551
 30
0.0
 10
145.0516
 20
-109.5694
 30
0.0
 10
154.0783
 20
-109.5506
 30
0.0
 10
154.0783
 20
-109.5506
 30
0.0
 10
153.7523
 20
-108.4104
 30
0.0
 10
152.875
 20
-107.5063
 30
0.0
 10
152.48
 20
-106.3912
 30
0.0
 10
152.48
 20
-106.3912
 30
0.0
 10
152.2923
 20
-105.7772
 30
0.0
 10
152.491
 20
-105.1466
 30
0.0
 10
152.6116
 20
-104.5369
 30
0.0
 10
152.6116
 20
-104.5369
 30
0.0
 10
148.3301
 20
-107.2515
 30
0.0
 10
142.8787
 20
-107.972
 30
0.0
 10
137.8471
 20
-107.168
 30
0.0
 10
137.8471
 20
-107.168
 30
0.0
 10
134.0409
 20
-106.5018
 30
0.0
 10
130.2169
 20
-104.8438
 30
0.0
 10
127.9557
 20
-101.793
 30
0.0
 10
127.9557
 20
-101.793
 30
0.0
 10
127.5045
 20
-101.2206
 30
0.0
 10
127.2951
 20
-100.5335
 30
0.0
 10
126.9765
 20
-99.8967
 30
0.0
 10
126.9765
 20
-99.8967
 30
0.0
 10
126.9765
 20
-99.8967
 30
0.0
 10
126.9712
 20
-99.6088
 30
0.0
 10
126.9712
 20
-99.6088
 30
0.0
 10
126.9712
 20
-99.6088
 30
0.0
 10
126.9456
 20
-99.6529
 30
0.0
 10
126.9206
 20
-99.6973
 30
0.0
 10
126.896
 20
-99.7417
 30
0.0
  0
SPLINE
  5
71
330
1F
100
AcDbEntity
  8
layer 1
 62
     7
370
     9
100
AcDbSpline
210
0.0
220
0.0
230
1.0
 70
    11
 71
     3
 72
    60
 73
    56
 74
     0
 42
0.0000000001
 43
0.0000000001
 12
1.0
 22
0.0
 32
0.0
 13
1.0
 23
0.0
 33
0.0
 40
0.0
 40
0.0
 40
0.0
 40
0.0
 40
0.0666666666666667
 40
0.0666666666666667
 40
0.0666666666666667
 40
0.0666666666666667
 40
0.1333333333333333
 40
0.1333333333333333
 40
0.1333333333333333
 40
0.1333333333333333
 40
0.2
 40
0.2
 40
0.2
 40
0.2
 40
0.2666666666666667
 40
0.2666666666666667
 40
0.2666666666666667
 40
0.2666666666666667
 40
0.3333333333333333
 40
0.3333333333333333
 40
0.3333333333333333
 40
0.3333333333333333
 40
0.4
 40
0.4
 40
0.4
 40
0.4
 40
0.4666666666666667
 40
0.4666666666666667
 40
0.4666666666666667
 40
0.4666666666666667
 40
0.5333333333333333
 40
0.5333333333333333
 40
0.5333333333333333
 40
0.5333333333333333
 40
0.6
 40
0.6
 40
0.6
 40
0.6
 40
0.6666666666666666
 40
0.6666666666666666
 40
0.6666666666666666
 40
0.6666666666666666
 40
0.7333333333333333
 40
0.7333333333333333
 40
0.7333333333333333
 40
0.7333333333333333
 40
0.8
 40
0.8
 40
0.8
 40
0.8
 40
0.8666666666666667
 40
0.8666666666666667
 40
0.8666666666666667
 40
0.8666666666666667
 40
1.0
 40
1.0
 40
1.0
 40
1.0
 10
126.896
 20
116.6106
 30
0.0
 10
127.2951
 20
117.2474
 30
0.0
 10
127.5045
 20
117.9345
 30
0.0
 10
127.9557
 20
118.5069
 30
0.0
 10
127.9557
 20
118.5069
 30
0.0
 10
130.2169
 20
121.5578
 30
0.0
 10
134.0409
 20
123.2158
 30
0.0
 10
137.8471
 20
123.8819
 30
0.0
 10
137.8471
 20
123.8819
 30
0.0
 10
142.8787
 20
124.6859
 30
0.0
 10
148.3301
 20
123.9654
 30
0.0
 10
152.6116
 20
121.2508
 30
0.0
 10
152.6116
 20
121.2508
 30
0.0
 10
152.491
 20
121.8606
 30
0.0
 10
152.2923
 20
122.4912
 30
0.0
 10
152.48
 20
123.1051
 30
0.0
 10
152.48
 20
123.1051
 30
0.0
 10
152.875
 20
124.2202
 30
0.0
 10
153.7523
 20
125.1244
 30
0.0
 10
154.0783
 20
126.2646
 30
0.0
 10
154.0783
 20
126.2646
 30
0.0
 10
145.0516
 20
126.2834
 30
0.0
 10
136.0247
 20
126.269
 30
0.0
 10
126.998
 20
126.2728
 30
0.0
 10
126.998
 20
126.2728
 30
0.0
 10
126.998
 20
126.2728
 30
0.0
 10
126.896
 20
126.2729
 30
0.0
 10
126.896
 20
126.2729
 30
0.0
 10
126.896
 20
126.2729
 30
0.0
 10
126.896
 20
126.2729
 30
0.0
 10
126.794
 20
126.2728
 30
0.0
 10
126.794
 20
126.2728
 30
0.0
 10
126.794
 20
126.2728
 30
0.0
 10
117.7673
 20
126.269
 30
0.0
 10
108.7404
 20
126.2834
 30
0.0
 10
99.7137
 20
126.2646
 30
0.0
 10
99.7137
 20
126.2646
 30
0.0
 10
100.0397
 20
125.1244
 30
0.0
 10
100.917
 20
124.2202
 30
0.0
 10
101.312
 20
123.1051
 30
0.0
 10
101.312
 20
123.1051
 30
0.0
 10
101.4996
 20
122.4912
 30
0.0
 10
101.3009
 20
121.8606
 30
0.0
 10
101.1804
 20
121.2508
 30
0.0
 10
101.1804
 20
121.2508
 30
0.0
 10
105.4618
 20
123.9654
 30
0.0
 10
110.9133
 20
124.6859
 30
0.0
 10
115.9449
 20
123.8819
 30
0.0
 10
115.9449
 20
123.8819
 30
0.0
 10
119.7511
 20
123.2158
 30
0.0
 10
123.5751
 20
121.5578
 30
0.0
 10
125.8363
 20
118.5069
 30
0.0
 10
125.8363
 20
118.5069
 30
0.0
 10
126.2875
 20
117.9345
 30
0.0
 10
126.4969
 20
117.2474
 30
0.0
 10
126.896
 20
116.6106
 30
0.0
  0
ENDSEC
  0
SECTION
  2
OBJECTS
  0
DICTIONARY
  5
C
330
0
100
AcDbDictionary
281
     1
  3
ACAD_GROUP
350
D
  3
ACAD_LAYOUT
350
1A
  3
ACAD_MATERIAL
350
3B
  3
ACAD_MLEADERSTYLE
350
93
  3
ACAD_MLINESTYLE
350
17
  3
ACAD_PLOTSETTINGS
350
19
  3
ACAD_PLOTSTYLENAME
350
E
  3
ACAD_TABLESTYLE
350
92
  3
ACAD_VISUALSTYLE
350
2A
  0
DICTIONARY
  5
D
102
{ACAD_REACTORS
330
C
102
}
330
C
100
AcDbDictionary
281
     1
  0
DICTIONARY
  5
1A
102
{ACAD_REACTORS
330
C
102
}
330
C
100
AcDbDictionary
281
     1
  3
Layout1
350
1E
  3
Layout2
350
26
  3
Model
350
22
  0
DICTIONARY
  5
3B
102
{ACAD_REACTORS
330
C
102
}
330
C
100
AcDbDictionary
281
     1
  3
ByBlock
350
3D
  3
ByLayer
350
3C
  3
Global
350
3E
  0
DICTIONARY
  5
93
102
{ACAD_REACTORS
330
C
102
}
330
C
100
AcDbDictionary
281
     1
  0
DICTIONARY
  5
17
102
{ACAD_REACTORS
330
C
102
}
330
C
100
AcDbDictionary
281
     1
  3
Standard
350
18
  0
DICTIONARY
  5
19
102
{ACAD_REACTORS
330
C
102
}
330
C
100
AcDbDictionary
281
     1
  0
ACDBDICTIONARYWDFLT
  5
E
102
{ACAD_REACTORS
330
C
102
}
330
C
100
AcDbDictionary
281
     1
  3
Normal
350
F
100
AcDbDictionaryWithDefault
340
F
  0
DICTIONARY
  5
92
102
{ACAD_REACTORS
330
C
102
}
330
C
100
AcDbDictionary
281
     1
  0
DICTIONARY
  5
2A
102
{ACAD_REACTORS
330
C
102
}
330
C
100
AcDbDictionary
281
     1
  3
2dWireframe
350
2F
  3
3D Hidden
350
31
  3
3dWireframe
350
30
  3
Basic
350
32
  3
Brighten
350
36
  3
ColorChange
350
3A
  3
Conceptual
350
34
  3
Dim
350
35
  3
Facepattern
350
39
  3
Flat
350
2B
  3
FlatWithEdges
350
2C
  3
Gouraud
350
2D
  3
GouraudWithEdges
350
2E
  3
Linepattern
350
38
  3
Realistic
350
33
  3
Thicken
350
37
  0
LAYOUT
  5
1E
102
{ACAD_REACTORS
330
1A
102
}
330
1A
100
AcDbPlotSettings
  1

  2
none_device
  4

  6

 40
0.0
 41
0.0
 42
0.0
 43
0.0
 44
0.0
 45
0.0
 46
0.0
 47
0.0
 48
0.0
 49
0.0
140
0.0
141
0.0
142
1.0
143
1.0
 70
   688
 72
     0
 73
     0
 74
     5
  7

 75
    16
 76
     0
 77
     2
 78
   300
147
1.0
148
0.0
149
0.0
100
AcDbLayout
  1
Layout1
 70
     1
 71
     1
 10
0.0
 20
0.0
 11
12.0
 21
9.0
 12
0.0
 22
0.0
 32
0.0
 14
1.000000000000000E+20
 24
1.000000000000000E+20
 34
1.000000000000000E+20
 15
-1.000000000000000E+20
 25
-1.000000000000000E+20
 35
-1.000000000000000E+20
146
0.0
 13
0.0
 23
0.0
 33
0.0
 16
1.0
 26
0.0
 36
0.0
 17
0.0
 27
1.0
 37
0.0
 76
     0
330
1B
  0
LAYOUT
  5
26
102
{ACAD_REACTORS
330
1A
102
}
330
1A
100
AcDbPlotSettings
  1

  2
none_device
  4

  6

 40
0.0
 41
0.0
 42
0.0
 43
0.0
 44
0.0
 45
0.0
 46
0.0
 47
0.0
 48
0.0
 49
0.0
140
0.0
141
0.0
142
1.0
143
1.0
 70
   688
 72
     0
 73
     0
 74
     5
  7

 75
    16
 76
     0
 77
     2
 78
   300
147
1.0
148
0.0
149
0.0
100
AcDbLayout
  1
Layout2
 70
     1
 71
     2
 10
0.0
 20
0.0
 11
0.0
 21
0.0
 12
0.0
 22
0.0
 32
0.0
 14
0.0
 24
0.0
 34
0.0
 15
0.0
 25
0.0
 35
0.0
146
0.0
 13
0.0
 23
0.0
 33
0.0
 16
1.0
 26
0.0
 36
0.0
 17
0.0
 27
1.0
 37
0.0
 76
     0
330
23
  0
LAYOUT
  5
22
102
{ACAD_REACTORS
330
1A
102
}
330
1A
100
AcDbPlotSettings
  1

  2
none_device
  4

  6

 40
0.0
 41
0.0
 42
0.0
 43
0.0
 44
0.0
 45
0.0
 46
0.0
 47
0.0
 48
0.0
 49
0.0
140
0.0
141
0.0
142
1.0
143
1.0
 70
  1712
 72
     0
 73
     0
 74
     0
  7

 75
     0
 76
     0
 77
     2
 78
   300
147
1.0
148
0.0
149
0.0
100
AcDbLayout
  1
Model
 70
     1
 71
     0
 10
0.0
 20
0.0
 11
12.0
 21
9.0
 12
0.0
 22
0.0
 32
0.0
 14
58.2376
 24
-115.1525
 34
0.0
 15
195.5544
 25
131.8665
 35
0.0
146
0.0
 13
0.0
 23
0.0
 33
0.0
 16
1.0
 26
0.0
 36
0.0
 17
0.0
 27
1.0
 37
0.0
 76
     0
330
1F
331
29
  0
MATERIAL
  5
3D
102
{ACAD_REACTORS
330
3B
102
}
330
3B
100
AcDbMaterial
  1
ByBlock
 72
     1
 94
      127
  0
MATERIAL
  5
3C
102
{ACAD_REACTORS
330
3B
102
}
330
3B
100
AcDbMaterial
  1
ByLayer
 72
     1
 94
      127
  0
MATERIAL
  5
3E
102
{ACAD_REACTORS
330
3B
102
}
330
3B
100
AcDbMaterial
  1
Global
 72
     1
 94
      127
  0
MLINESTYLE
  5
18
102
{ACAD_REACTORS
330
17
102
}
330
17
100
AcDbMlineStyle
  2
Standard
 70
     0
  3

 62
   256
 51
90.0
 52
90.0
 71
     2
 49
0.5
 62
   256
  6
BYLAYER
 49
-0.5
 62
   256
  6
BYLAYER
  0
ACDBPLACEHOLDER
  5
F
102
{ACAD_REACTORS
330
E
102
}
330
E
  0
VISUALSTYLE
  5
2F
102
{ACAD_REACTORS
330
2A
102
}
102
{ACAD_XDICTIONARY
360
7A
102
}
330
2A
100
AcDbVisualStyle
  2
2dWireframe
 70
     4
 71
     0
 72
     2
 73
     0
 90
        0
 40
-0.6
 41
-30.0
 62
     5
 63
     7
421
 16777215
 74
     1
 91
        4
 64
     7
 65
   257
 75
     1
175
     1
 42
1.0
 92
        0
 66
   257
 43
1.0
 76
     1
 77
     6
 78
     2
 67
     7
 79
     5
170
     0
171
     0
290
     0
174
     0
 93
        1
 44
0.0
173
     0
291
     0
 45
0.0
  0
VISUALSTYLE
  5
31
102
{ACAD_REACTORS
330
2A
102
}
102
{ACAD_XDICTIONARY
360
7E
102
}
330
2A
100
AcDbVisualStyle
  2
3D Hidden
 70
     6
 71
     1
 72
     2
 73
     2
 90
        0
 40
-0.6
 41
-30.0
 62
     5
 63
     7
421
 16777215
 74
     2
 91
        2
 64
     7
 65
   257
 75
     2
175
     1
 42
40.0
 92
        0
 66
   257
 43
1.0
 76
     1
 77
     6
 78
     2
 67
     7
 79
     3
170
     0
171
     0
290
     0
174
     0
 93
        1
 44
0.0
173
     0
291
     0
 45
0.0
  0
VISUALSTYLE
  5
30
102
{ACAD_REACTORS
330
2A
102
}
102
{ACAD_XDICTIONARY
360
7C
102
}
330
2A
100
AcDbVisualStyle
  2
3dWireframe
 70
     5
 71
     0
 72
     2
 73
     0
 90
        0
 40
-0.6
 41
-30.0
 62
     5
 63
     7
421
 16777215
 74
     1
 91
        4
 64
     7
 65
   257
 75
     1
175
     1
 42
1.0
 92
        0
 66
   257
 43
1.0
 76
     1
 77
     6
 78
     2
 67
     7
 79
     5
170
     0
171
     0
290
     0
174
     0
 93
        1
 44
0.0
173
     0
291
     0
 45
0.0
  0
VISUALSTYLE
  5
32
102
{ACAD_REACTORS
330
2A
102
}
102
{ACAD_XDICTIONARY
360
80
102
}
330
2A
100
AcDbVisualStyle
  2
Basic
 70
     7
 71
     1
 72
     0
 73
     1
 90
        0
 40
-0.6
 41
-30.0
 62
     5
 63
     7
421
 16777215
 74
     0
 91
        4
 64
     7
 65
   257
 75
     1
175
     1
 42
1.0
 92
        8
 66
     7
 43
1.0
 76
     1
 77
     6
 78
     2
 67
     7
 79
     5
170
     0
171
     0
290
     0
174
     0
 93
        1
 44
0.0
173
     0
291
     1
 45
0.0
  0
VISUALSTYLE
  5
36
102
{ACAD_REACTORS
330
2A
102
}
102
{ACAD_XDICTIONARY
360
88
102
}
330
2A
100
AcDbVisualStyle
  2
Brighten
 70
    12
 71
     2
 72
     2
 73
     0
 90
        0
 40
-0.6
 41
-30.0
 62
     5
 63
     7
421
 16777215
 74
     1
 91
        4
 64
     7
 65
   257
 75
     1
175
     1
 42
1.0
 92
        8
 66
     7
 43
1.0
 76
     1
 77
     6
 78
     2
 67
     7
 79
     5
170
     0
171
     0
290
     0
174
     0
 93
        1
 44
50.0
173
     0
291
     1
 45
0.0
  0
VISUALSTYLE
  5
3A
102
{ACAD_REACTORS
330
2A
102
}
102
{ACAD_XDICTIONARY
360
90
102
}
330
2A
100
AcDbVisualStyle
  2
ColorChange
 70
    16
 71
     2
 72
     2
 73
     3
 90
        0
 40
-0.6
 41
-30.0
 62
     5
 63
     8
421
  8421504
 74
     1
 91
        4
 64
     7
 65
   257
 75
     1
175
     1
 42
1.0
 92
        8
 66
     8
424
  8421504
 43
1.0
 76
     1
 77
     6
 78
     2
 67
     7
 79
     5
170
     0
171
     0
290
     0
174
     0
 93
        1
 44
0.0
173
     0
291
     1
 45
0.0
  0
VISUALSTYLE
  5
34
102
{ACAD_REACTORS
330
2A
102
}
102
{ACAD_XDICTIONARY
360
84
102
}
330
2A
100
AcDbVisualStyle
  2
Conceptual
 70
     9
 71
     3
 72
     2
 73
     0
 90
        0
 40
-0.6
 41
-30.0
 62
     5
 63
     7
421
 16777215
 74
     2
 91
        2
 64
     7
 65
   257
 75
     1
175
     1
 42
40.0
 92
        8
 66
     7
 43
1.0
 76
     1
 77
     6
 78
     2
 67
     7
 79
     3
170
     0
171
     0
290
     0
174
     0
 93
        1
 44
0.0
173
     0
291
     0
 45
0.0
  0
VISUALSTYLE
  5
35
102
{ACAD_REACTORS
330
2A
102
}
102
{ACAD_XDICTIONARY
360
86
102
}
330
2A
100
AcDbVisualStyle
  2
Dim
 70
    11
 71
     2
 72
     2
 73
     0
 90
        0
 40
-0.6
 41
-30.0
 62
     5
 63
     7
421
 16777215
 74
     1
 91
        4
 64
     7
 65
   257
 75
     1
175
     1
 42
1.0
 92
        8
 66
     7
 43
1.0
 76
     1
 77
     6
 78
     2
 67
     7
 79
     5
170
     0
171
     0
290
     0
174
     0
 93
        1
 44
-50.0
173
     0
291
     1
 45
0.0
  0
VISUALSTYLE
  5
39
102
{ACAD_REACTORS
330
2A
102
}
102
{ACAD_XDICTIONARY
360
8E
102
}
330
2A
100
AcDbVisualStyle
  2
Facepattern
 70
    15
 71
     2
 72
     2
 73
     0
 90
        0
 40
-0.6
 41
-30.0
 62
     5
 63
     7
421
 16777215
 74
     1
 91
        4
 64
     7
 65
   257
 75
     1
175
     1
 42
1.0
 92
        8
 66
     7
 43
1.0
 76
     1
 77
     6
 78
     2
 67
     7
 79
     5
170
     0
171
     0
290
     0
174
     0
 93
        1
 44
0.0
173
     0
291
     1
 45
0.0
  0
VISUALSTYLE
  5
2B
102
{ACAD_REACTORS
330
2A
102
}
102
{ACAD_XDICTIONARY
360
72
102
}
330
2A
100
AcDbVisualStyle
  2
Flat
 70
     0
 71
     2
 72
     1
 73
     1
 90
        2
 40
-0.6
 41
30.0
 62
     5
 63
     7
421
 16777215
 74
     0
 91
        4
 64
     7
 65
   257
 75
     1
175
     1
 42
1.0
 92
        8
 66
     7
 43
1.0
 76
     1
 77
     6
 78
     2
 67
     7
 79
     5
170
     0
171
     0
290
     0
174
     0
 93
       13
 44
0.0
173
     0
291
     1
 45
0.0
  0
VISUALSTYLE
  5
2C
102
{ACAD_REACTORS
330
2A
102
}
102
{ACAD_XDICTIONARY
360
74
102
}
330
2A
100
AcDbVisualStyle
  2
FlatWithEdges
 70
     1
 71
     2
 72
     1
 73
     1
 90
        2
 40
-0.6
 41
30.0
 62
     5
 63
     7
421
 16777215
 74
     1
 91
        4
 64
     7
 65
   257
 75
     1
175
     1
 42
1.0
 92
        0
 66
   257
 43
1.0
 76
     1
 77
     6
 78
     2
 67
     7
 79
     5
170
     0
171
     0
290
     0
174
     0
 93
       13
 44
0.0
173
     0
291
     1
 45
0.0
  0
VISUALSTYLE
  5
2D
102
{ACAD_REACTORS
330
2A
102
}
102
{ACAD_XDICTIONARY
360
76
102
}
330
2A
100
AcDbVisualStyle
  2
Gouraud
 70
     2
 71
     2
 72
     2
 73
     1
 90
        2
 40
-0.6
 41
30.0
 62
     5
 63
     7
421
 16777215
 74
     0
 91
        4
 64
     7
 65
   257
 75
     1
175
     1
 42
1.0
 92
        0
 66
     7
 43
1.0
 76
     1
 77
     6
 78
     2
 67
     7
 79
     5
170
     0
171
     0
290
     0
174
     0
 93
       13
 44
0.0
173
     0
291
     1
 45
0.0
  0
VISUALSTYLE
  5
2E
102
{ACAD_REACTORS
330
2A
102
}
102
{ACAD_XDICTIONARY
360
78
102
}
330
2A
100
AcDbVisualStyle
  2
GouraudWithEdges
 70
     3
 71
     2
 72
     2
 73
     1
 90
        2
 40
-0.6
 41
30.0
 62
     5
 63
     7
421
 16777215
 74
     1
 91
        4
 64
     7
 65
   257
 75
     1
175
     1
 42
1.0
 92
        0
 66
   257
 43
1.0
 76
     1
 77
     6
 78
     2
 67
     7
 79
     5
170
     0
171
     0
290
     0
174
     0
 93
       13
 44
0.0
173
     0
291
     1
 45
0.0
  0
VISUALSTYLE
  5
38
102
{ACAD_REACTORS
330
2A
102
}
102
{ACAD_XDICTIONARY
360
8C
102
}
330
2A
100
AcDbVisualStyle
  2
Linepattern
 70
    14
 71
     2
 72
     2
 73
     0
 90
        0
 40
-0.6
 41
-30.0
 62
     5
 63
     7
421
 16777215
 74
     1
 91
        4
 64
     7
 65
   257
 75
     7
175
     7
 42
1.0
 92
        8
 66
     7
 43
1.0
 76
     1
 77
     6
 78
     2
 67
     7
 79
     5
170
     0
171
     0
290
     0
174
     0
 93
        1
 44
0.0
173
     0
291
     1
 45
0.0
  0
VISUALSTYLE
  5
33
102
{ACAD_REACTORS
330
2A
102
}
102
{ACAD_XDICTIONARY
360
82
102
}
330
2A
100
AcDbVisualStyle
  2
Realistic
 70
     8
 71
     2
 72
     2
 73
     0
 90
        0
 40
-0.6
 41
-30.0
 62
     5
 63
     7
421
 16777215
 74
     1
 91
        0
 64
     7
 65
   257
 75
     1
175
     1
 42
1.0
 92
        8
 66
     8
424
  7895160
 43
1.0
 76
     1
 77
     6
 78
     2
 67
     7
 79
     5
170
     0
171
     0
290
     0
174
     0
 93
       13
 44
0.0
173
     0
291
     0
 45
0.0
  0
VISUALSTYLE
  5
37
102
{ACAD_REACTORS
330
2A
102
}
102
{ACAD_XDICTIONARY
360
8A
102
}
330
2A
100
AcDbVisualStyle
  2
Thicken
 70
    13
 71
     2
 72
     2
 73
     0
 90
        0
 40
-0.6
 41
-30.0
 62
     5
 63
     7
421
 16777215
 74
     1
 91
        4
 64
     7
 65
   257
 75
     1
175
     1
 42
1.0
 92
       12
 66
     7
 43
1.0
 76
     1
 77
     6
 78
     2
 67
     7
 79
     5
170
     0
171
     0
290
     0
174
     0
 93
        1
 44
0.0
173
     0
291
     1
 45
0.0
  0
DICTIONARY
  5
7A
330
2F
100
AcDbDictionary
280
     1
281
     1
  3
ACAD_XREC_ROUNDTRIP
360
7B
  0
DICTIONARY
  5
7E
330
31
100
AcDbDictionary
280
     1
281
     1
  3
ACAD_XREC_ROUNDTRIP
360
7F
  0
DICTIONARY
  5
7C
330
30
100
AcDbDictionary
280
     1
281
     1
  3
ACAD_XREC_ROUNDTRIP
360
7D
  0
DICTIONARY
  5
80
330
32
100
AcDbDictionary
280
     1
281
     1
  3
ACAD_XREC_ROUNDTRIP
360
81
  0
DICTIONARY
  5
88
330
36
100
AcDbDictionary
280
     1
281
     1
  3
ACAD_XREC_ROUNDTRIP
360
89
  0
DICTIONARY
  5
90
330
3A
100
AcDbDictionary
280
     1
281
     1
  3
ACAD_XREC_ROUNDTRIP
360
91
  0
DICTIONARY
  5
84
330
34
100
AcDbDictionary
280
     1
281
     1
  3
ACAD_XREC_ROUNDTRIP
360
85
  0
DICTIONARY
  5
86
330
35
100
AcDbDictionary
280
     1
281
     1
  3
ACAD_XREC_ROUNDTRIP
360
87
  0
DICTIONARY
  5
8E
330
39
100
AcDbDictionary
280
     1
281
     1
  3
ACAD_XREC_ROUNDTRIP
360
8F
  0
DICTIONARY
  5
72
330
2B
100
AcDbDictionary
280
     1
281
     1
  3
ACAD_XREC_ROUNDTRIP
360
73
  0
DICTIONARY
  5
74
330
2C
100
AcDbDictionary
280
     1
281
     1
  3
ACAD_XREC_ROUNDTRIP
360
75
  0
DICTIONARY
  5
76
330
2D
100
AcDbDictionary
280
     1
281
     1
  3
ACAD_XREC_ROUNDTRIP
360
77
  0
DICTIONARY
  5
78
330
2E
100
AcDbDictionary
280
     1
281
     1
  3
ACAD_XREC_ROUNDTRIP
360
79
  0
DICTIONARY
  5
8C
330
38
100
AcDbDictionary
280
     1
281
     1
  3
ACAD_XREC_ROUNDTRIP
360
8D
  0
DICTIONARY
  5
82
330
33
100
AcDbDictionary
280
     1
281
     1
  3
ACAD_XREC_ROUNDTRIP
360
83
  0
DICTIONARY
  5
8A
330
37
100
AcDbDictionary
280
     1
281
     1
  3
ACAD_XREC_ROUNDTRIP
360
8B
  0
XRECORD
  5
7B
102
{ACAD_REACTORS
330
7A
102
}
330
7A
100
AcDbXrecord
280
     1
102
RTVSPropertyOp0
 70
     1
102
RTVSPropertyOp1
 70
     1
102
RTVSPropertyOp2
 70
     1
102
RTVSPropertyOp3
 70
     1
102
RTVSPropertyOp4
 70
     1
102
RTVSPropertyOp5
 70
     1
102
RTVSPropertyOp6
 70
     1
102
RTVSPropertyOp7
 70
     1
102
RTVSPropertyOp8
 70
     1
102
RTVSPropertyOp9
 70
     1
102
RTVSPropertyOp10
 70
     1
102
RTVSPropertyOp11
 70
     1
102
RTVSPropertyOp12
 70
     1
102
RTVSPropertyOp13
 70
     1
102
RTVSPropertyOp14
 70
     1
102
RTVSPropertyOp15
 70
     1
102
RTVSPropertyOp16
 70
     1
102
RTVSPropertyOp17
 70
     1
102
RTVSPropertyOp18
 70
     1
102
RTVSPropertyOp19
 70
     1
102
RTVSPropertyOp20
 70
     1
102
RTVSPropertyOp21
 70
     1
102
RTVSPropertyOp22
 70
     1
102
RTVSPropertyOp23
 70
     1
102
RTVSPropertyOp24
 70
     1
102
RTVSPropertyOp25
 70
     1
102
RTVSPropertyOp26
 70
     1
102
RTVSPropertyOp27
 70
     1
102
RTVSPropertyOp28
 70
     1
102
RTVSPropertyOp29
 70
     1
102
RTVSPropertyOp30
 70
     1
102
RTVSPropertyOp31
 70
     1
102
RTVSPropertyOp32
 70
     1
  0
XRECORD
  5
7F
102
{ACAD_REACTORS
330
7E
102
}
330
7E
100
AcDbXrecord
280
     1
102
RTVSPropertyOp0
 70
     1
102
RTVSPropertyOp1
 70
     1
102
RTVSPropertyOp2
 70
     1
102
RTVSPropertyOp3
 70
     1
102
RTVSPropertyOp4
 70
     1
102
RTVSPropertyOp5
 70
     1
102
RTVSPropertyOp6
 70
     1
102
RTVSPropertyOp7
 70
     1
102
RTVSPropertyOp8
 70
     1
102
RTVSPropertyOp9
 70
     1
102
RTVSPropertyOp10
 70
     1
102
RTVSPropertyOp11
 70
     1
102
RTVSPropertyOp12
 70
     1
102
RTVSPropertyOp13
 70
     1
102
RTVSPropertyOp14
 70
     1
102
RTVSPropertyOp15
 70
     1
102
RTVSPropertyOp16
 70
     1
102
RTVSPropertyOp17
 70
     1
102
RTVSPropertyOp18
 70
     1
102
RTVSPropertyOp19
 70
     1
102
RTVSPropertyOp20
 70
     1
102
RTVSPropertyOp21
 70
     1
102
RTVSPropertyOp22
 70
     1
102
RTVSPropertyOp23
 70
     1
102
RTVSPropertyOp24
 70
     1
102
RTVSPropertyOp25
 70
     1
102
RTVSPropertyOp26
 70
     1
102
RTVSPropertyOp27
 70
     1
102
RTVSPropertyOp28
 70
     1
102
RTVSPropertyOp29
 70
     1
102
RTVSPropertyOp30
 70
     1
102
RTVSPropertyOp31
 70
     1
102
RTVSPropertyOp32
 70
     1
  0
XRECORD
  5
7D
102
{ACAD_REACTORS
330
7C
102
}
330
7C
100
AcDbXrecord
280
     1
102
RTVSPropertyOp0
 70
     1
102
RTVSPropertyOp1
 70
     1
102
RTVSPropertyOp2
 70
     1
102
RTVSPropertyOp3
 70
     1
102
RTVSPropertyOp4
 70
     1
102
RTVSPropertyOp5
 70
     1
102
RTVSPropertyOp6
 70
     1
102
RTVSPropertyOp7
 70
     1
102
RTVSPropertyOp8
 70
     1
102
RTVSPropertyOp9
 70
     1
102
RTVSPropertyOp10
 70
     1
102
RTVSPropertyOp11
 70
     1
102
RTVSPropertyOp12
 70
     1
102
RTVSPropertyOp13
 70
     1
102
RTVSPropertyOp14
 70
     1
102
RTVSPropertyOp15
 70
     1
102
RTVSPropertyOp16
 70
     1
102
RTVSPropertyOp17
 70
     1
102
RTVSPropertyOp18
 70
     1
102
RTVSPropertyOp19
 70
     1
102
RTVSPropertyOp20
 70
     1
102
RTVSPropertyOp21
 70
     1
102
RTVSPropertyOp22
 70
     1
102
RTVSPropertyOp23
 70
     1
102
RTVSPropertyOp24
 70
     1
102
RTVSPropertyOp25
 70
     1
102
RTVSPropertyOp26
 70
     1
102
RTVSPropertyOp27
 70
     1
102
RTVSPropertyOp28
 70
     1
102
RTVSPropertyOp29
 70
     1
102
RTVSPropertyOp30
 70
     1
102
RTVSPropertyOp31
 70
     1
102
RTVSPropertyOp32
 70
     1
  0
XRECORD
  5
81
102
{ACAD_REACTORS
330
80
102
}
330
80
100
AcDbXrecord
280
     1
102
RTVSPropertyOp0
 70
     1
102
RTVSPropertyOp1
 70
     1
102
RTVSPropertyOp2
 70
     1
102
RTVSPropertyOp3
 70
     1
102
RTVSPropertyOp4
 70
     1
102
RTVSPropertyOp5
 70
     1
102
RTVSPropertyOp6
 70
     1
102
RTVSPropertyOp7
 70
     1
102
RTVSPropertyOp8
 70
     1
102
RTVSPropertyOp9
 70
     1
102
RTVSPropertyOp10
 70
     1
102
RTVSPropertyOp11
 70
     1
102
RTVSPropertyOp12
 70
     1
102
RTVSPropertyOp13
 70
     1
102
RTVSPropertyOp14
 70
     1
102
RTVSPropertyOp15
 70
     1
102
RTVSPropertyOp16
 70
     1
102
RTVSPropertyOp17
 70
     1
102
RTVSPropertyOp18
 70
     1
102
RTVSPropertyOp19
 70
     1
102
RTVSPropertyOp20
 70
     1
102
RTVSPropertyOp21
 70
     1
102
RTVSPropertyOp22
 70
     1
102
RTVSPropertyOp23
 70
     1
102
RTVSPropertyOp24
 70
     1
102
RTVSPropertyOp25
 70
     1
102
RTVSPropertyOp26
 70
     1
102
RTVSPropertyOp27
 70
     1
102
RTVSPropertyOp28
 70
     1
102
RTVSPropertyOp29
 70
     1
102
RTVSPropertyOp30
 70
     1
102
RTVSPropertyOp31
 70
     1
102
RTVSPropertyOp32
 70
     1
  0
XRECORD
  5
89
102
{ACAD_REACTORS
330
88
102
}
330
88
100
AcDbXrecord
280
     1
102
RTVSPropertyOp0
 70
     1
102
RTVSPropertyOp1
 70
     1
102
RTVSPropertyOp2
 70
     1
102
RTVSPropertyOp3
 70
     1
102
RTVSPropertyOp4
 70
     1
102
RTVSPropertyOp5
 70
     1
102
RTVSPropertyOp6
 70
     1
102
RTVSPropertyOp7
 70
     1
102
RTVSPropertyOp8
 70
     1
102
RTVSPropertyOp9
 70
     1
102
RTVSPropertyOp10
 70
     1
102
RTVSPropertyOp11
 70
     1
102
RTVSPropertyOp12
 70
     1
102
RTVSPropertyOp13
 70
     1
102
RTVSPropertyOp14
 70
     1
102
RTVSPropertyOp15
 70
     1
102
RTVSPropertyOp16
 70
     1
102
RTVSPropertyOp17
 70
     1
102
RTVSPropertyOp18
 70
     1
102
RTVSPropertyOp19
 70
     1
102
RTVSPropertyOp20
 70
     1
102
RTVSPropertyOp21
 70
     1
102
RTVSPropertyOp22
 70
     1
102
RTVSPropertyOp23
 70
     1
102
RTVSPropertyOp24
 70
     1
102
RTVSPropertyOp25
 70
     1
102
RTVSPropertyOp26
 70
     1
102
RTVSPropertyOp27
 70
     1
102
RTVSPropertyOp28
 70
     1
102
RTVSPropertyOp29
 70
     1
102
RTVSPropertyOp30
 70
     1
102
RTVSPropertyOp31
 70
     1
102
RTVSPropertyOp32
 70
     1
  0
XRECORD
  5
91
102
{ACAD_REACTORS
330
90
102
}
330
90
100
AcDbXrecord
280
     1
102
RTVSPropertyOp0
 70
     1
102
RTVSPropertyOp1
 70
     1
102
RTVSPropertyOp2
 70
     1
102
RTVSPropertyOp3
 70
     1
102
RTVSPropertyOp4
 70
     1
102
RTVSPropertyOp5
 70
     1
102
RTVSPropertyOp6
 70
     1
102
RTVSPropertyOp7
 70
     1
102
RTVSPropertyOp8
 70
     1
102
RTVSPropertyOp9
 70
     1
102
RTVSPropertyOp10
 70
     1
102
RTVSPropertyOp11
 70
     1
102
RTVSPropertyOp12
 70
     1
102
RTVSPropertyOp13
 70
     1
102
RTVSPropertyOp14
 70
     1
102
RTVSPropertyOp15
 70
     1
102
RTVSPropertyOp16
 70
     1
102
RTVSPropertyOp17
 70
     1
102
RTVSPropertyOp18
 70
     1
102
RTVSPropertyOp19
 70
     1
102
RTVSPropertyOp20
 70
     1
102
RTVSPropertyOp21
 70
     1
102
RTVSPropertyOp22
 70
     1
102
RTVSPropertyOp23
 70
     1
102
RTVSPropertyOp24
 70
     1
102
RTVSPropertyOp25
 70
     1
102
RTVSPropertyOp26
 70
     1
102
RTVSPropertyOp27
 70
     1
102
RTVSPropertyOp28
 70
     1
102
RTVSPropertyOp29
 70
     1
102
RTVSPropertyOp30
 70
     1
102
RTVSPropertyOp31
 70
     1
102
RTVSPropertyOp32
 70
     1
  0
XRECORD
  5
85
102
{ACAD_REACTORS
330
84
102
}
330
84
100
AcDbXrecord
280
     1
102
RTVSPropertyOp0
 70
     1
102
RTVSPropertyOp1
 70
     1
102
RTVSPropertyOp2
 70
     1
102
RTVSPropertyOp3
 70
     1
102
RTVSPropertyOp4
 70
     1
102
RTVSPropertyOp5
 70
     1
102
RTVSPropertyOp6
 70
     1
102
RTVSPropertyOp7
 70
     1
102
RTVSPropertyOp8
 70
     1
102
RTVSPropertyOp9
 70
     1
102
RTVSPropertyOp10
 70
     1
102
RTVSPropertyOp11
 70
     1
102
RTVSPropertyOp12
 70
     1
102
RTVSPropertyOp13
 70
     1
102
RTVSPropertyOp14
 70
     1
102
RTVSPropertyOp15
 70
     1
102
RTVSPropertyOp16
 70
     1
102
RTVSPropertyOp17
 70
     1
102
RTVSPropertyOp18
 70
     1
102
RTVSPropertyOp19
 70
     1
102
RTVSPropertyOp20
 70
     1
102
RTVSPropertyOp21
 70
     1
102
RTVSPropertyOp22
 70
     1
102
RTVSPropertyOp23
 70
     1
102
RTVSPropertyOp24
 70
     1
102
RTVSPropertyOp25
 70
     1
102
RTVSPropertyOp26
 70
     1
102
RTVSPropertyOp27
 70
     1
102
RTVSPropertyOp28
 70
     1
102
RTVSPropertyOp29
 70
     1
102
RTVSPropertyOp30
 70
     1
102
RTVSPropertyOp31
 70
     1
102
RTVSPropertyOp32
 70
     1
  0
XRECORD
  5
87
102
{ACAD_REACTORS
330
86
102
}
330
86
100
AcDbXrecord
280
     1
102
RTVSPropertyOp0
 70
     1
102
RTVSPropertyOp1
 70
     1
102
RTVSPropertyOp2
 70
     1
102
RTVSPropertyOp3
 70
     1
102
RTVSPropertyOp4
 70
     1
102
RTVSPropertyOp5
 70
     1
102
RTVSPropertyOp6
 70
     1
102
RTVSPropertyOp7
 70
     1
102
RTVSPropertyOp8
 70
     1
102
RTVSPropertyOp9
 70
     1
102
RTVSPropertyOp10
 70
     1
102
RTVSPropertyOp11
 70
     1
102
RTVSPropertyOp12
 70
     1
102
RTVSPropertyOp13
 70
     1
102
RTVSPropertyOp14
 70
     1
102
RTVSPropertyOp15
 70
     1
102
RTVSPropertyOp16
 70
     1
102
RTVSPropertyOp17
 70
     1
102
RTVSPropertyOp18
 70
     1
102
RTVSPropertyOp19
 70
     1
102
RTVSPropertyOp20
 70
     1
102
RTVSPropertyOp21
 70
     1
102
RTVSPropertyOp22
 70
     1
102
RTVSPropertyOp23
 70
     1
102
RTVSPropertyOp24
 70
     1
102
RTVSPropertyOp25
 70
     1
102
RTVSPropertyOp26
 70
     1
102
RTVSPropertyOp27
 70
     1
102
RTVSPropertyOp28
 70
     1
102
RTVSPropertyOp29
 70
     1
102
RTVSPropertyOp30
 70
     1
102
RTVSPropertyOp31
 70
     1
102
RTVSPropertyOp32
 70
     1
  0
XRECORD
  5
8F
102
{ACAD_REACTORS
330
8E
102
}
330
8E
100
AcDbXrecord
280
     1
102
RTVSPropertyOp0
 70
     1
102
RTVSPropertyOp1
 70
     1
102
RTVSPropertyOp2
 70
     1
102
RTVSPropertyOp3
 70
     1
102
RTVSPropertyOp4
 70
     1
102
RTVSPropertyOp5
 70
     1
102
RTVSPropertyOp6
 70
     1
102
RTVSPropertyOp7
 70
     1
102
RTVSPropertyOp8
 70
     1
102
RTVSPropertyOp9
 70
     1
102
RTVSPropertyOp10
 70
     1
102
RTVSPropertyOp11
 70
     1
102
RTVSPropertyOp12
 70
     1
102
RTVSPropertyOp13
 70
     1
102
RTVSPropertyOp14
 70
     1
102
RTVSPropertyOp15
 70
     1
102
RTVSPropertyOp16
 70
     1
102
RTVSPropertyOp17
 70
     1
102
RTVSPropertyOp18
 70
     1
102
RTVSPropertyOp19
 70
     1
102
RTVSPropertyOp20
 70
     1
102
RTVSPropertyOp21
 70
     1
102
RTVSPropertyOp22
 70
     1
102
RTVSPropertyOp23
 70
     1
102
RTVSPropertyOp24
 70
     1
102
RTVSPropertyOp25
 70
     1
102
RTVSPropertyOp26
 70
     1
102
RTVSPropertyOp27
 70
     1
102
RTVSPropertyOp28
 70
     1
102
RTVSPropertyOp29
 70
     1
102
RTVSPropertyOp30
 70
     1
102
RTVSPropertyOp31
 70
     1
102
RTVSPropertyOp32
 70
     1
  0
XRECORD
  5
73
102
{ACAD_REACTORS
330
72
102
}
330
72
100
AcDbXrecord
280
     1
102
RTVSPropertyOp0
 70
     1
102
RTVSPropertyOp1
 70
     1
102
RTVSPropertyOp2
 70
     1
102
RTVSPropertyOp3
 70
     1
102
RTVSPropertyOp4
 70
     1
102
RTVSPropertyOp5
 70
     1
102
RTVSPropertyOp6
 70
     1
102
RTVSPropertyOp7
 70
     1
102
RTVSPropertyOp8
 70
     1
102
RTVSPropertyOp9
 70
     1
102
RTVSPropertyOp10
 70
     1
102
RTVSPropertyOp11
 70
     1
102
RTVSPropertyOp12
 70
     1
102
RTVSPropertyOp13
 70
     1
102
RTVSPropertyOp14
 70
     1
102
RTVSPropertyOp15
 70
     1
102
RTVSPropertyOp16
 70
     1
102
RTVSPropertyOp17
 70
     1
102
RTVSPropertyOp18
 70
     1
102
RTVSPropertyOp19
 70
     1
102
RTVSPropertyOp20
 70
     1
102
RTVSPropertyOp21
 70
     1
102
RTVSPropertyOp22
 70
     1
102
RTVSPropertyOp23
 70
     1
102
RTVSPropertyOp24
 70
     1
102
RTVSPropertyOp25
 70
     1
102
RTVSPropertyOp26
 70
     1
102
RTVSPropertyOp27
 70
     1
102
RTVSPropertyOp28
 70
     1
102
RTVSPropertyOp29
 70
     1
102
RTVSPropertyOp30
 70
     1
102
RTVSPropertyOp31
 70
     1
102
RTVSPropertyOp32
 70
     1
  0
XRECORD
  5
75
102
{ACAD_REACTORS
330
74
102
}
330
74
100
AcDbXrecord
280
     1
102
RTVSPropertyOp0
 70
     1
102
RTVSPropertyOp1
 70
     1
102
RTVSPropertyOp2
 70
     1
102
RTVSPropertyOp3
 70
     1
102
RTVSPropertyOp4
 70
     1
102
RTVSPropertyOp5
 70
     1
102
RTVSPropertyOp6
 70
     1
102
RTVSPropertyOp7
 70
     1
102
RTVSPropertyOp8
 70
     1
102
RTVSPropertyOp9
 70
     1
102
RTVSPropertyOp10
 70
     1
102
RTVSPropertyOp11
 70
     1
102
RTVSPropertyOp12
 70
     1
102
RTVSPropertyOp13
 70
     1
102
RTVSPropertyOp14
 70
     1
102
RTVSPropertyOp15
 70
     1
102
RTVSPropertyOp16
 70
     1
102
RTVSPropertyOp17
 70
     1
102
RTVSPropertyOp18
 70
     1
102
RTVSPropertyOp19
 70
     1
102
RTVSPropertyOp20
 70
     1
102
RTVSPropertyOp21
 70
     1
102
RTVSPropertyOp22
 70
     1
102
RTVSPropertyOp23
 70
     1
102
RTVSPropertyOp24
 70
     1
102
RTVSPropertyOp25
 70
     1
102
RTVSPropertyOp26
 70
     1
102
RTVSPropertyOp27
 70
     1
102
RTVSPropertyOp28
 70
     1
102
RTVSPropertyOp29
 70
     1
102
RTVSPropertyOp30
 70
     1
102
RTVSPropertyOp31
 70
     1
102
RTVSPropertyOp32
 70
     1
  0
XRECORD
  5
77
102
{ACAD_REACTORS
330
76
102
}
330
76
100
AcDbXrecord
280
     1
102
RTVSPropertyOp0
 70
     1
102
RTVSPropertyOp1
 70
     1
102
RTVSPropertyOp2
 70
     1
102
RTVSPropertyOp3
 70
     1
102
RTVSPropertyOp4
 70
     1
102
RTVSPropertyOp5
 70
     1
102
RTVSPropertyOp6
 70
     1
102
RTVSPropertyOp7
 70
     1
102
RTVSPropertyOp8
 70
     1
102
RTVSPropertyOp9
 70
     1
102
RTVSPropertyOp10
 70
     1
102
RTVSPropertyOp11
 70
     1
102
RTVSPropertyOp12
 70
     1
102
RTVSPropertyOp13
 70
     1
102
RTVSPropertyOp14
 70
     1
102
RTVSPropertyOp15
 70
     1
102
RTVSPropertyOp16
 70
     1
102
RTVSPropertyOp17
 70
     1
102
RTVSPropertyOp18
 70
     1
102
RTVSPropertyOp19
 70
     1
102
RTVSPropertyOp20
 70
     1
102
RTVSPropertyOp21
 70
     1
102
RTVSPropertyOp22
 70
     1
102
RTVSPropertyOp23
 70
     1
102
RTVSPropertyOp24
 70
     1
102
RTVSPropertyOp25
 70
     1
102
RTVSPropertyOp26
 70
     1
102
RTVSPropertyOp27
 70
     1
102
RTVSPropertyOp28
 70
     1
102
RTVSPropertyOp29
 70
     1
102
RTVSPropertyOp30
 70
     1
102
RTVSPropertyOp31
 70
     1
102
RTVSPropertyOp32
 70
     1
  0
XRECORD
  5
79
102
{ACAD_REACTORS
330
78
102
}
330
78
100
AcDbXrecord
280
     1
102
RTVSPropertyOp0
 70
     1
102
RTVSPropertyOp1
 70
     1
102
RTVSPropertyOp2
 70
     1
102
RTVSPropertyOp3
 70
     1
102
RTVSPropertyOp4
 70
     1
102
RTVSPropertyOp5
 70
     1
102
RTVSPropertyOp6
 70
     1
102
RTVSPropertyOp7
 70
     1
102
RTVSPropertyOp8
 70
     1
102
RTVSPropertyOp9
 70
     1
102
RTVSPropertyOp10
 70
     1
102
RTVSPropertyOp11
 70
     1
102
RTVSPropertyOp12
 70
     1
102
RTVSPropertyOp13
 70
     1
102
RTVSPropertyOp14
 70
     1
102
RTVSPropertyOp15
 70
     1
102
RTVSPropertyOp16
 70
     1
102
RTVSPropertyOp17
 70
     1
102
RTVSPropertyOp18
 70
     1
102
RTVSPropertyOp19
 70
     1
102
RTVSPropertyOp20
 70
     1
102
RTVSPropertyOp21
 70
     1
102
RTVSPropertyOp22
 70
     1
102
RTVSPropertyOp23
 70
     1
102
RTVSPropertyOp24
 70
     1
102
RTVSPropertyOp25
 70
     1
102
RTVSPropertyOp26
 70
     1
102
RTVSPropertyOp27
 70
     1
102
RTVSPropertyOp28
 70
     1
102
RTVSPropertyOp29
 70
     1
102
RTVSPropertyOp30
 70
     1
102
RTVSPropertyOp31
 70
     1
102
RTVSPropertyOp32
 70
     1
  0
XRECORD
  5
8D
102
{ACAD_REACTORS
330
8C
102
}
330
8C
100
AcDbXrecord
280
     1
102
RTVSPropertyOp0
 70
     1
102
RTVSPropertyOp1
 70
     1
102
RTVSPropertyOp2
 70
     1
102
RTVSPropertyOp3
 70
     1
102
RTVSPropertyOp4
 70
     1
102
RTVSPropertyOp5
 70
     1
102
RTVSPropertyOp6
 70
     1
102
RTVSPropertyOp7
 70
     1
102
RTVSPropertyOp8
 70
     1
102
RTVSPropertyOp9
 70
     1
102
RTVSPropertyOp10
 70
     1
102
RTVSPropertyOp11
 70
     1
102
RTVSPropertyOp12
 70
     1
102
RTVSPropertyOp13
 70
     1
102
RTVSPropertyOp14
 70
     1
102
RTVSPropertyOp15
 70
     1
102
RTVSPropertyOp16
 70
     1
102
RTVSPropertyOp17
 70
     1
102
RTVSPropertyOp18
 70
     1
102
RTVSPropertyOp19
 70
     1
102
RTVSPropertyOp20
 70
     1
102
RTVSPropertyOp21
 70
     1
102
RTVSPropertyOp22
 70
     1
102
RTVSPropertyOp23
 70
     1
102
RTVSPropertyOp24
 70
     1
102
RTVSPropertyOp25
 70
     1
102
RTVSPropertyOp26
 70
     1
102
RTVSPropertyOp27
 70
     1
102
RTVSPropertyOp28
 70
     1
102
RTVSPropertyOp29
 70
     1
102
RTVSPropertyOp30
 70
     1
102
RTVSPropertyOp31
 70
     1
102
RTVSPropertyOp32
 70
     1
  0
XRECORD
  5
83
102
{ACAD_REACTORS
330
82
102
}
330
82
100
AcDbXrecord
280
     1
102
RTVSPropertyOp0
 70
     1
102
RTVSPropertyOp1
 70
     1
102
RTVSPropertyOp2
 70
     1
102
RTVSPropertyOp3
 70
     1
102
RTVSPropertyOp4
 70
     1
102
RTVSPropertyOp5
 70
     1
102
RTVSPropertyOp6
 70
     1
102
RTVSPropertyOp7
 70
     1
102
RTVSPropertyOp8
 70
     1
102
RTVSPropertyOp9
 70
     1
102
RTVSPropertyOp10
 70
     1
102
RTVSPropertyOp11
 70
     1
102
RTVSPropertyOp12
 70
     1
102
RTVSPropertyOp13
 70
     1
102
RTVSPropertyOp14
 70
     1
102
RTVSPropertyOp15
 70
     1
102
RTVSPropertyOp16
 70
     1
102
RTVSPropertyOp17
 70
     1
102
RTVSPropertyOp18
 70
     1
102
RTVSPropertyOp19
 70
     1
102
RTVSPropertyOp20
 70
     1
102
RTVSPropertyOp21
 70
     1
102
RTVSPropertyOp22
 70
     1
102
RTVSPropertyOp23
 70
     1
102
RTVSPropertyOp24
 70
     1
102
RTVSPropertyOp25
 70
     1
102
RTVSPropertyOp26
 70
     1
102
RTVSPropertyOp27
 70
     1
102
RTVSPropertyOp28
 70
     1
102
RTVSPropertyOp29
 70
     1
102
RTVSPropertyOp30
 70
     1
102
RTVSPropertyOp31
 70
     1
102
RTVSPropertyOp32
 70
     1
  0
XRECORD
  5
8B
102
{ACAD_REACTORS
330
8A
102
}
330
8A
100
AcDbXrecord
280
     1
102
RTVSPropertyOp0
 70
     1
102
RTVSPropertyOp1
 70
     1
102
RTVSPropertyOp2
 70
     1
102
RTVSPropertyOp3
 70
     1
102
RTVSPropertyOp4
 70
     1
102
RTVSPropertyOp5
 70
     1
102
RTVSPropertyOp6
 70
     1
102
RTVSPropertyOp7
 70
     1
102
RTVSPropertyOp8
 70
     1
102
RTVSPropertyOp9
 70
     1
102
RTVSPropertyOp10
 70
     1
102
RTVSPropertyOp11
 70
     1
102
RTVSPropertyOp12
 70
     1
102
RTVSPropertyOp13
 70
     1
102
RTVSPropertyOp14
 70
     1
102
RTVSPropertyOp15
 70
     1
102
RTVSPropertyOp16
 70
     1
102
RTVSPropertyOp17
 70
     1
102
RTVSPropertyOp18
 70
     1
102
RTVSPropertyOp19
 70
     1
102
RTVSPropertyOp20
 70
     1
102
RTVSPropertyOp21
 70
     1
102
RTVSPropertyOp22
 70
     1
102
RTVSPropertyOp23
 70
     1
102
RTVSPropertyOp24
 70
     1
102
RTVSPropertyOp25
 70
     1
102
RTVSPropertyOp26
 70
     1
102
RTVSPropertyOp27
 70
     1
102
RTVSPropertyOp28
 70
     1
102
RTVSPropertyOp29
 70
     1
102
RTVSPropertyOp30
 70
     1
102
RTVSPropertyOp31
 70
     1
102
RTVSPropertyOp32
 70
     1
  0
ENDSEC
  0
EOF
