  0
SECTION
  2
HEADER
  9
$ACADVER
  1
AC1021
  9
$ACADMAINTVER
 70
    25
  9
$DWGCODEPAGE
  3
ANSI_1252
  9
$INSBASE
 10
0.0
 20
0.0
 30
0.0
  9
$EXTMIN
 10
-121.2364
 20
-106.4662
 30
0.0
  9
$EXTMAX
 10
128.2499
 20
132.4529
 30
0.0
  9
$LIMMIN
 10
0.0
 20
0.0
  9
$LIMMAX
 10
12.0
 20
9.0
  9
$ORTHOMODE
 70
     0
  9
$REGENMODE
 70
     1
  9
$FILLMODE
 70
     1
  9
$QTEXTMODE
 70
     0
  9
$MIRRTEXT
 70
     1
  9
$LTSCALE
 40
1.0
  9
$ATTMODE
 70
     1
  9
$TEXTSIZE
 40
0.2
  9
$TRACEWID
 40
0.05
  9
$TEXTSTYLE
  7
Standard
  9
$CLAYER
  8
0
  9
$CELTYPE
  6
ByLayer
  9
$CECOLOR
 62
   256
  9
$CELTSCALE
 40
1.0
  9
$DISPSILH
 70
     0
  9
$DIMSCALE
 40
1.0
  9
$DIMASZ
 40
0.18
  9
$DIMEXO
 40
0.0625
  9
$DIMDLI
 40
0.38
  9
$DIMRND
 40
0.0
  9
$DIMDLE
 40
0.0
  9
$DIMEXE
 40
0.18
  9
$DIMTP
 40
0.0
  9
$DIMTM
 40
0.0
  9
$DIMTXT
 40
0.18
  9
$DIMCEN
 40
0.09
  9
$DIMTSZ
 40
0.0
  9
$DIMTOL
 70
     0
  9
$DIMLIM
 70
     0
  9
$DIMTIH
 70
     1
  9
$DIMTOH
 70
     1
  9
$DIMSE1
 70
     0
  9
$DIMSE2
 70
     0
  9
$DIMTAD
 70
     0
  9
$DIMZIN
 70
     0
  9
$DIMBLK
  1

  9
$DIMASO
 70
     1
  9
$DIMSHO
 70
     1
  9
$DIMPOST
  1

  9
$DIMAPOST
  1

  9
$DIMALT
 70
     0
  9
$DIMALTD
 70
     2
  9
$DIMALTF
 40
25.4
  9
$DIMLFAC
 40
1.0
  9
$DIMTOFL
 70
     0
  9
$DIMTVP
 40
0.0
  9
$DIMTIX
 70
     0
  9
$DIMSOXD
 70
     0
  9
$DIMSAH
 70
     0
  9
$DIMBLK1
  1

  9
$DIMBLK2
  1

  9
$DIMSTYLE
  2
Standard
  9
$DIMCLRD
 70
     0
  9
$DIMCLRE
 70
     0
  9
$DIMCLRT
 70
     0
  9
$DIMTFAC
 40
1.0
  9
$DIMGAP
 40
0.09
  9
$DIMJUST
 70
     0
  9
$DIMSD1
 70
     0
  9
$DIMSD2
 70
     0
  9
$DIMTOLJ
 70
     1
  9
$DIMTZIN
 70
     0
  9
$DIMALTZ
 70
     0
  9
$DIMALTTZ
 70
     0
  9
$DIMUPT
 70
     0
  9
$DIMDEC
 70
     4
  9
$DIMTDEC
 70
     4
  9
$DIMALTU
 70
     2
  9
$DIMALTTD
 70
     2
  9
$DIMTXSTY
  7
Standard
  9
$DIMAUNIT
 70
     0
  9
$DIMADEC
 70
     0
  9
$DIMALTRND
 40
0.0
  9
$DIMAZIN
 70
     0
  9
$DIMDSEP
 70
    46
  9
$DIMATFIT
 70
     3
  9
$DIMFRAC
 70
     0
  9
$DIMLDRBLK
  1

  9
$DIMLUNIT
 70
     2
  9
$DIMLWD
 70
    -2
  9
$DIMLWE
 70
    -2
  9
$DIMTMOVE
 70
     0
  9
$DIMFXL
 40
1.0
  9
$DIMFXLON
 70
     0
  9
$DIMJOGANG
 40
0.7853981633974483
  9
$DIMTFILL
 70
     0
  9
$DIMTFILLCLR
 70
     0
  9
$DIMARCSYM
 70
     0
  9
$DIMLTYPE
  6

  9
$DIMLTEX1
  6

  9
$DIMLTEX2
  6

  9
$LUNITS
 70
     2
  9
$LUPREC
 70
     4
  9
$SKETCHINC
 40
0.1
  9
$FILLETRAD
 40
0.5
  9
$AUNITS
 70
     0
  9
$AUPREC
 70
     0
  9
$MENU
  1
.
  9
$ELEVATION
 40
0.0
  9
$PELEVATION
 40
0.0
  9
$THICKNESS
 40
0.0
  9
$LIMCHECK
 70
     0
  9
$CHAMFERA
 40
0.5
  9
$CHAMFERB
 40
0.5
  9
$CHAMFERC
 40
1.0
  9
$CHAMFERD
 40
0.0
  9
$SKPOLY
 70
     0
  9
$TDCREATE
 40
2458493.684798264
  9
$TDUCREATE
 40
2458493.684798264
  9
$TDUPDATE
 40
2458493.684798611
  9
$TDUUPDATE
 40
2458493.684798611
  9
$TDINDWG
 40
0.0000000116
  9
$TDUSRTIMER
 40
0.0000000116
  9
$USRTIMER
 70
     1
  9
$ANGBASE
 50
0.0
  9
$ANGDIR
 70
     0
  9
$PDMODE
 70
     0
  9
$PDSIZE
 40
0.0
  9
$PLINEWID
 40
0.0
  9
$SPLFRAME
 70
     0
  9
$SPLINETYPE
 70
     6
  9
$SPLINESEGS
 70
     8
  9
$HANDSEED
  5
182
  9
$SURFTAB1
 70
     6
  9
$SURFTAB2
 70
     6
  9
$SURFTYPE
 70
     6
  9
$SURFU
 70
     6
  9
$SURFV
 70
     6
  9
$UCSBASE
  2

  9
$UCSNAME
  2

  9
$UCSORG
 10
0.0
 20
0.0
 30
0.0
  9
$UCSXDIR
 10
1.0
 20
0.0
 30
0.0
  9
$UCSYDIR
 10
0.0
 20
1.0
 30
0.0
  9
$UCSORTHOREF
  2

  9
$UCSORTHOVIEW
 70
     0
  9
$UCSORGTOP
 10
0.0
 20
0.0
 30
0.0
  9
$UCSORGBOTTOM
 10
0.0
 20
0.0
 30
0.0
  9
$UCSORGLEFT
 10
0.0
 20
0.0
 30
0.0
  9
$UCSORGRIGHT
 10
0.0
 20
0.0
 30
0.0
  9
$UCSORGFRONT
 10
0.0
 20
0.0
 30
0.0
  9
$UCSORGBACK
 10
0.0
 20
0.0
 30
0.0
  9
$PUCSBASE
  2

  9
$PUCSNAME
  2

  9
$PUCSORG
 10
0.0
 20
0.0
 30
0.0
  9
$PUCSXDIR
 10
1.0
 20
0.0
 30
0.0
  9
$PUCSYDIR
 10
0.0
 20
1.0
 30
0.0
  9
$PUCSORTHOREF
  2

  9
$PUCSORTHOVIEW
 70
     0
  9
$PUCSORGTOP
 10
0.0
 20
0.0
 30
0.0
  9
$PUCSORGBOTTOM
 10
0.0
 20
0.0
 30
0.0
  9
$PUCSORGLEFT
 10
0.0
 20
0.0
 30
0.0
  9
$PUCSORGRIGHT
 10
0.0
 20
0.0
 30
0.0
  9
$PUCSORGFRONT
 10
0.0
 20
0.0
 30
0.0
  9
$PUCSORGBACK
 10
0.0
 20
0.0
 30
0.0
  9
$USERI1
 70
     0
  9
$USERI2
 70
     0
  9
$USERI3
 70
     0
  9
$USERI4
 70
     0
  9
$USERI5
 70
     0
  9
$USERR1
 40
0.0
  9
$USERR2
 40
0.0
  9
$USERR3
 40
0.0
  9
$USERR4
 40
0.0
  9
$USERR5
 40
0.0
  9
$WORLDVIEW
 70
     1
  9
$SHADEDGE
 70
     3
  9
$SHADEDIF
 70
    70
  9
$TILEMODE
 70
     1
  9
$MAXACTVP
 70
    64
  9
$PINSBASE
 10
0.0
 20
0.0
 30
0.0
  9
$PLIMCHECK
 70
     0
  9
$PEXTMIN
 10
1.000000000000000E+20
 20
1.000000000000000E+20
 30
1.000000000000000E+20
  9
$PEXTMAX
 10
-1.000000000000000E+20
 20
-1.000000000000000E+20
 30
-1.000000000000000E+20
  9
$PLIMMIN
 10
0.0
 20
0.0
  9
$PLIMMAX
 10
12.0
 20
9.0
  9
$UNITMODE
 70
     0
  9
$VISRETAIN
 70
     1
  9
$PLINEGEN
 70
     0
  9
$PSLTSCALE
 70
     1
  9
$TREEDEPTH
 70
  3020
  9
$CMLSTYLE
  2
Standard
  9
$CMLJUST
 70
     0
  9
$CMLSCALE
 40
1.0
  9
$PROXYGRAPHICS
 70
     1
  9
$MEASUREMENT
 70
     0
  9
$CELWEIGHT
370
    -1
  9
$ENDCAPS
280
     0
  9
$JOINSTYLE
280
     0
  9
$LWDISPLAY
290
     0
  9
$INSUNITS
 70
     4
  9
$HYPERLINKBASE
  1

  9
$STYLESHEET
  1

  9
$XEDIT
290
     1
  9
$CEPSNTYPE
380
     0
  9
$PSTYLEMODE
290
     1
  9
$FINGERPRINTGUID
  2
{3C37526E-CE90-4E0C-BCFF-A249D3BABBEE}
  9
$VERSIONGUID
  2
{FAEB1C32-E019-11D5-929B-00C0DF256EC4}
  9
$EXTNAMES
290
     1
  9
$PSVPSCALE
 40
0.0
  9
$OLESTARTUP
290
     0
  9
$SORTENTS
280
   127
  9
$INDEXCTL
280
     0
  9
$HIDETEXT
280
     1
  9
$XCLIPFRAME
290
     0
  9
$HALOGAP
280
     0
  9
$OBSCOLOR
 70
   257
  9
$OBSLTYPE
280
     0
  9
$INTERSECTIONDISPLAY
280
     0
  9
$INTERSECTIONCOLOR
 70
   257
  9
$DIMASSOC
280
     2
  9
$PROJECTNAME
  1

  9
$CAMERADISPLAY
290
     0
  9
$LENSLENGTH
 40
50.0
  9
$CAMERAHEIGHT
 40
0.0
  9
$STEPSPERSEC
 40
2.0
  9
$STEPSIZE
 40
6.0
  9
$3DDWFPREC
 40
2.0
  9
$PSOLWIDTH
 40
0.25
  9
$PSOLHEIGHT
 40
4.0
  9
$LOFTANG1
 40
1.570796326794897
  9
$LOFTANG2
 40
1.570796326794897
  9
$LOFTMAG1
 40
0.0
  9
$LOFTMAG2
 40
0.0
  9
$LOFTPARAM
 70
     7
  9
$LOFTNORMALS
280
     1
  9
$LATITUDE
 40
37.795
  9
$LONGITUDE
 40
-122.394
  9
$NORTHDIRECTION
 40
0.0
  9
$TIMEZONE
 70
 -8000
  9
$LIGHTGLYPHDISPLAY
280
     1
  9
$TILEMODELIGHTSYNCH
280
     1
  9
$SOLIDHIST
280
     1
  9
$SHOWHIST
280
     1
  9
$DWFFRAME
280
     2
  9
$DGNFRAME
280
     2
  9
$REALWORLDSCALE
290
     1
  9
$INTERFERECOLOR
 62
   256
  9
$CSHADOW
280
     0
  9
$SHADOWPLANELOCATION
 40
0.0
  0
ENDSEC
  0
SECTION
  2
CLASSES
  0
CLASS
  1
ACDBDICTIONARYWDFLT
  2
AcDbDictionaryWithDefault
  3
ObjectDBX Classes
 90
        0
 91
        4
280
     0
281
     0
  0
CLASS
  1
VISUALSTYLE
  2
AcDbVisualStyle
  3
ObjectDBX Classes
 90
     4095
 91
        4
280
     0
281
     0
  0
CLASS
  1
MATERIAL
  2
AcDbMaterial
  3
ObjectDBX Classes
 90
     1153
 91
        4
280
     0
281
     0
  0
ENDSEC
  0
SECTION
  2
TABLES
  0
TABLE
  2
VPORT
  5
8
330
0
100
AcDbSymbolTable
 70
     1
  0
VPORT
  5
29
330
8
100
AcDbSymbolTableRecord
100
AcDbViewportTableRecord
  2
*Active
 70
     0
 10
0.0
 20
0.0
 11
1.0
 21
1.0
 12
10.42990654205607
 22
4.5
 13
0.0
 23
0.0
 14
0.5
 24
0.5
 15
0.5
 25
0.5
 16
0.0
 26
0.0
 36
1.0
 17
0.0
 27
0.0
 37
0.0
 40
9.0
 41
1.972972972850329
 42
50.0
 43
0.0
 44
0.0
 50
0.0
 51
0.0
 71
     0
 72
   100
 73
     1
 74
     3
 75
     0
 76
     0
 77
     0
 78
     0
281
     0
 65
     1
110
0.0
120
0.0
130
0.0
111
1.0
121
0.0
131
0.0
112
0.0
122
1.0
132
0.0
 79
     0
146
0.0
 60
     3
 61
     5
292
     1
282
     1
141
0.0
142
0.0
 63
   250
  0
ENDTAB
  0
TABLE
  2
LTYPE
  5
5
330
0
100
AcDbSymbolTable
 70
     1
  0
LTYPE
  5
14
330
5
100
AcDbSymbolTableRecord
100
AcDbLinetypeTableRecord
  2
ByBlock
 70
     0
  3

 72
    65
 73
     0
 40
0.0
  0
LTYPE
  5
15
330
5
100
AcDbSymbolTableRecord
100
AcDbLinetypeTableRecord
  2
ByLayer
 70
     0
  3

 72
    65
 73
     0
 40
0.0
  0
LTYPE
  5
16
330
5
100
AcDbSymbolTableRecord
100
AcDbLinetypeTableRecord
  2
Continuous
 70
     0
  3
Solid line
 72
    65
 73
     0
 40
0.0
  0
ENDTAB
  0
TABLE
  2
LAYER
  5
2
330
0
100
AcDbSymbolTable
 70
     3
  0
LAYER
  5
10
330
2
100
AcDbSymbolTableRecord
100
AcDbLayerTableRecord
  2
0
 70
     0
 62
     7
  6
Continuous
370
    -3
390
F
347
3E
  0
LAYER
  5
40
330
2
100
AcDbSymbolTableRecord
100
AcDbLayerTableRecord
  2
layer 1
 70
     0
 62
     7
  6
Continuous
370
    -3
390
F
347
3E
  0
LAYER
  5
15F
330
2
100
AcDbSymbolTableRecord
100
AcDbLayerTableRecord
  2
Master Guides
 70
     0
 62
     7
  6
Continuous
370
    -3
390
F
347
3E
  0
ENDTAB
  0
TABLE
  2
STYLE
  5
3
330
0
100
AcDbSymbolTable
 70
     1
  0
STYLE
  5
11
330
3
100
AcDbSymbolTableRecord
100
AcDbTextStyleTableRecord
  2
Standard
 70
     0
 40
0.0
 41
1.0
 50
0.0
 71
     0
 42
0.2
  3
txt
  4

  0
ENDTAB
  0
TABLE
  2
VIEW
  5
6
330
0
100
AcDbSymbolTable
 70
     0
  0
ENDTAB
  0
TABLE
  2
UCS
  5
7
330
0
100
AcDbSymbolTable
 70
     0
  0
ENDTAB
  0
TABLE
  2
APPID
  5
9
330
0
100
AcDbSymbolTable
 70
     2
  0
APPID
  5
12
330
9
100
AcDbSymbolTableRecord
100
AcDbRegAppTableRecord
  2
ACAD
 70
     0
  0
APPID
  5
3F
330
9
100
AcDbSymbolTableRecord
100
AcDbRegAppTableRecord
  2
ODA
 70
     0
  0
ENDTAB
  0
TABLE
  2
DIMSTYLE
  5
A
330
0
100
AcDbSymbolTable
 70
     1
100
AcDbDimStyleTable
  0
DIMSTYLE
105
27
330
A
100
AcDbSymbolTableRecord
100
AcDbDimStyleTableRecord
  2
Standard
 70
     0
178
     0
340
11
  0
ENDTAB
  0
TABLE
  2
BLOCK_RECORD
  5
1
330
0
100
AcDbSymbolTable
 70
     1
  0
BLOCK_RECORD
  5
1F
330
1
100
AcDbSymbolTableRecord
100
AcDbBlockTableRecord
  2
*Model_Space
340
22
 70
     0
280
     1
281
     0
  0
BLOCK_RECORD
  5
1B
330
1
100
AcDbSymbolTableRecord
100
AcDbBlockTableRecord
  2
*Paper_Space
340
1E
 70
     0
280
     1
281
     0
  0
BLOCK_RECORD
  5
23
330
1
100
AcDbSymbolTableRecord
100
AcDbBlockTableRecord
  2
*Paper_Space0
340
26
 70
     0
280
     1
281
     0
  0
ENDTAB
  0
ENDSEC
  0
SECTION
  2
BLOCKS
  0
BLOCK
  5
20
330
1F
100
AcDbEntity
  8
0
100
AcDbBlockBegin
  2
*Model_Space
 70
     0
 10
0.0
 20
0.0
 30
0.0
  3
*Model_Space
  1

  0
ENDBLK
  5
21
330
1F
100
AcDbEntity
  8
0
100
AcDbBlockEnd
  0
BLOCK
  5
1C
330
1B
100
AcDbEntity
 67
     1
  8
0
100
AcDbBlockBegin
  2
*Paper_Space
 70
     0
 10
0.0
 20
0.0
 30
0.0
  3
*Paper_Space
  1

  0
ENDBLK
  5
1D
330
1B
100
AcDbEntity
 67
     1
  8
0
100
AcDbBlockEnd
  0
BLOCK
  5
24
330
23
100
AcDbEntity
  8
0
100
AcDbBlockBegin
  2
*Paper_Space0
 70
     0
 10
0.0
 20
0.0
 30
0.0
  3
*Paper_Space0
  1

  0
ENDBLK
  5
25
330
23
100
AcDbEntity
  8
0
100
AcDbBlockEnd
  0
ENDSEC
  0
SECTION
  2
ENTITIES
  0
SPLINE
  5
41
330
1F
100
AcDbEntity
  8
layer 1
 62
   250
100
AcDbSpline
210
0.0
220
0.0
230
1.0
 70
    11
 71
     3
 72
    20
 73
    16
 74
     0
 42
0.0000000001
 43
0.0000000001
 12
1.0
 22
0.0
 32
0.0
 13
1.0
 23
0.0
 33
0.0
 40
0.0
 40
0.0
 40
0.0
 40
0.0
 40
0.2
 40
0.2
 40
0.2
 40
0.2
 40
0.4
 40
0.4
 40
0.4
 40
0.4
 40
0.6
 40
0.6
 40
0.6
 40
0.6
 40
1.0
 40
1.0
 40
1.0
 40
1.0
 10
-121.2364
 20
131.8111
 30
0.0
 10
-91.2314
 20
131.8111
 30
0.0
 10
-59.0432
 20
131.8111
 30
0.0
 10
-29.0807
 20
131.8111
 30
0.0
 10
-29.0807
 20
131.8111
 30
0.0
 10
-29.0807
 20
50.5061
 30
0.0
 10
-29.0807
 20
-15.1397
 30
0.0
 10
-29.0807
 20
-106.3994
 30
0.0
 10
-29.0807
 20
-106.3994
 30
0.0
 10
-59.087
 20
-106.3994
 30
0.0
 10
-91.2775
 20
-106.3994
 30
0.0
 10
-121.2364
 20
-106.3994
 30
0.0
 10
-121.2364
 20
-106.3994
 30
0.0
 10
-121.2364
 20
-26.9957
 30
0.0
 10
-121.2364
 20
52.4079
 30
0.0
 10
-121.2364
 20
131.8111
 30
0.0
  0
SPLINE
  5
42
330
1F
100
AcDbEntity
  8
layer 1
 62
     7
100
AcDbSpline
210
0.0
220
0.0
230
1.0
 70
    11
 71
     3
 72
    20
 73
    16
 74
     0
 42
0.0000000001
 43
0.0000000001
 12
1.0
 22
0.0
 32
0.0
 13
1.0
 23
0.0
 33
0.0
 40
0.0
 40
0.0
 40
0.0
 40
0.0
 40
0.2
 40
0.2
 40
0.2
 40
0.2
 40
0.4
 40
0.4
 40
0.4
 40
0.4
 40
0.6
 40
0.6
 40
0.6
 40
0.6
 40
1.0
 40
1.0
 40
1.0
 40
1.0
 10
-69.3633
 20
120.8766
 30
0.0
 10
-69.3633
 20
120.8766
 30
0.0
 10
-54.1995
 20
99.1665
 30
0.0
 10
-54.1995
 20
99.1665
 30
0.0
 10
-54.1995
 20
99.1665
 30
0.0
 10
-54.1995
 20
99.1665
 30
0.0
 10
-49.8253
 20
115.5183
 30
0.0
 10
-49.8253
 20
115.5183
 30
0.0
 10
-49.8253
 20
115.5183
 30
0.0
 10
-49.8253
 20
115.5183
 30
0.0
 10
-67.1787
 20
123.4321
 30
0.0
 10
-67.1787
 20
123.4321
 30
0.0
 10
-67.1787
 20
123.4321
 30
0.0
 10
-67.1787
 20
123.4321
 30
0.0
 10
-69.3633
 20
120.8766
 30
0.0
 10
-69.3633
 20
120.8766
 30
0.0
  0
SPLINE
  5
43
330
1F
100
AcDbEntity
  8
layer 1
 62
     7
100
AcDbSpline
210
0.0
220
0.0
230
1.0
 70
    11
 71
     3
 72
    20
 73
    16
 74
     0
 42
0.0000000001
 43
0.0000000001
 12
1.0
 22
0.0
 32
0.0
 13
1.0
 23
0.0
 33
0.0
 40
0.0
 40
0.0
 40
0.0
 40
0.0
 40
0.2
 40
0.2
 40
0.2
 40
0.2
 40
0.4
 40
0.4
 40
0.4
 40
0.4
 40
0.6
 40
0.6
 40
0.6
 40
0.6
 40
1.0
 40
1.0
 40
1.0
 40
1.0
 10
-64.3782
 20
126.7079
 30
0.0
 10
-64.3782
 20
126.7079
 30
0.0
 10
-34.9258
 20
113.2064
 30
0.0
 10
-34.9258
 20
113.2064
 30
0.0
 10
-34.9258
 20
113.2064
 30
0.0
 10
-34.9258
 20
113.2064
 30
0.0
 10
-34.9258
 20
128.0346
 30
0.0
 10
-34.9258
 20
128.0346
 30
0.0
 10
-34.9258
 20
128.0346
 30
0.0
 10
-34.9258
 20
128.0346
 30
0.0
 10
-63.092
 20
128.0346
 30
0.0
 10
-63.092
 20
128.0346
 30
0.0
 10
-63.092
 20
128.0346
 30
0.0
 10
-63.092
 20
128.0346
 30
0.0
 10
-64.3782
 20
126.7079
 30
0.0
 10
-64.3782
 20
126.7079
 30
0.0
  0
SPLINE
  5
44
330
1F
100
AcDbEntity
  8
layer 1
 62
     7
100
AcDbSpline
210
0.0
220
0.0
230
1.0
 70
    11
 71
     3
 72
    20
 73
    16
 74
     0
 42
0.0000000001
 43
0.0000000001
 12
1.0
 22
0.0
 32
0.0
 13
1.0
 23
0.0
 33
0.0
 40
0.0
 40
0.0
 40
0.0
 40
0.0
 40
0.2
 40
0.2
 40
0.2
 40
0.2
 40
0.4
 40
0.4
 40
0.4
 40
0.4
 40
0.6
 40
0.6
 40
0.6
 40
0.6
 40
1.0
 40
1.0
 40
1.0
 40
1.0
 10
-34.9258
 20
108.6534
 30
0.0
 10
-34.9258
 20
108.6534
 30
0.0
 10
-45.7099
 20
113.6415
 30
0.0
 10
-45.7099
 20
113.6415
 30
0.0
 10
-45.7099
 20
113.6415
 30
0.0
 10
-45.7099
 20
113.6415
 30
0.0
 10
-53.3717
 20
85.0013
 30
0.0
 10
-53.3717
 20
85.0013
 30
0.0
 10
-53.3717
 20
85.0013
 30
0.0
 10
-53.3717
 20
85.0013
 30
0.0
 10
-34.9258
 20
93.9368
 30
0.0
 10
-34.9258
 20
93.9368
 30
0.0
 10
-34.9258
 20
93.9368
 30
0.0
 10
-34.9258
 20
93.9368
 30
0.0
 10
-34.9258
 20
108.6534
 30
0.0
 10
-34.9258
 20
108.6534
 30
0.0
  0
SPLINE
  5
45
330
1F
100
AcDbEntity
  8
layer 1
 62
     7
100
AcDbSpline
210
0.0
220
0.0
230
1.0
 70
    11
 71
     3
 72
    16
 73
    12
 74
     0
 42
0.0000000001
 43
0.0000000001
 12
1.0
 22
0.0
 32
0.0
 13
1.0
 23
0.0
 33
0.0
 40
0.0
 40
0.0
 40
0.0
 40
0.0
 40
0.25
 40
0.25
 40
0.25
 40
0.25
 40
0.5
 40
0.5
 40
0.5
 40
0.5
 40
1.0
 40
1.0
 40
1.0
 40
1.0
 10
-34.9258
 20
89.3336
 30
0.0
 10
-34.9258
 20
89.3336
 30
0.0
 10
-58.284
 20
78.0384
 30
0.0
 10
-58.284
 20
78.0384
 30
0.0
 10
-58.284
 20
78.0384
 30
0.0
 10
-58.284
 20
78.0384
 30
0.0
 10
-34.9258
 20
66.2482
 30
0.0
 10
-34.9258
 20
66.2482
 30
0.0
 10
-34.9258
 20
66.2482
 30
0.0
 10
-34.9258
 20
66.2482
 30
0.0
 10
-34.9258
 20
89.3336
 30
0.0
 10
-34.9258
 20
89.3336
 30
0.0
  0
SPLINE
  5
46
330
1F
100
AcDbEntity
  8
layer 1
 62
     7
100
AcDbSpline
210
0.0
220
0.0
230
1.0
 70
    11
 71
     3
 72
    24
 73
    20
 74
     0
 42
0.0000000001
 43
0.0000000001
 12
1.0
 22
0.0
 32
0.0
 13
1.0
 23
0.0
 33
0.0
 40
0.0
 40
0.0
 40
0.0
 40
0.0
 40
0.1666666666666667
 40
0.1666666666666667
 40
0.1666666666666667
 40
0.1666666666666667
 40
0.3333333333333333
 40
0.3333333333333333
 40
0.3333333333333333
 40
0.3333333333333333
 40
0.5
 40
0.5
 40
0.5
 40
0.5
 40
0.6666666666666666
 40
0.6666666666666666
 40
0.6666666666666666
 40
0.6666666666666666
 40
1.0
 40
1.0
 40
1.0
 40
1.0
 10
-34.9258
 20
61.6
 30
0.0
 10
-34.9258
 20
61.6
 30
0.0
 10
-51.2917
 20
69.8838
 30
0.0
 10
-51.2917
 20
69.8838
 30
0.0
 10
-51.2917
 20
69.8838
 30
0.0
 10
-51.2917
 20
69.8838
 30
0.0
 10
-55.9585
 20
67.6419
 30
0.0
 10
-55.9585
 20
67.6419
 30
0.0
 10
-55.9585
 20
67.6419
 30
0.0
 10
-55.9585
 20
67.6419
 30
0.0
 10
-37.5923
 20
38.2544
 30
0.0
 10
-37.5923
 20
38.2544
 30
0.0
 10
-37.5923
 20
38.2544
 30
0.0
 10
-37.5923
 20
38.2544
 30
0.0
 10
-34.9258
 20
41.1304
 30
0.0
 10
-34.9258
 20
41.1304
 30
0.0
 10
-34.9258
 20
41.1304
 30
0.0
 10
-34.9258
 20
41.1304
 30
0.0
 10
-34.9258
 20
61.6
 30
0.0
 10
-34.9258
 20
61.6
 30
0.0
  0
SPLINE
  5
47
330
1F
100
AcDbEntity
  8
layer 1
 62
     7
100
AcDbSpline
210
0.0
220
0.0
230
1.0
 70
    11
 71
     3
 72
    20
 73
    16
 74
     0
 42
0.0000000001
 43
0.0000000001
 12
1.0
 22
0.0
 32
0.0
 13
1.0
 23
0.0
 33
0.0
 40
0.0
 40
0.0
 40
0.0
 40
0.0
 40
0.2
 40
0.2
 40
0.2
 40
0.2
 40
0.4
 40
0.4
 40
0.4
 40
0.4
 40
0.6
 40
0.6
 40
0.6
 40
0.6
 40
1.0
 40
1.0
 40
1.0
 40
1.0
 10
-34.9258
 20
35.0081
 30
0.0
 10
-34.9258
 20
35.0081
 30
0.0
 10
-48.1521
 20
21.3631
 30
0.0
 10
-48.1521
 20
21.3631
 30
0.0
 10
-48.1521
 20
21.3631
 30
0.0
 10
-48.1521
 20
21.3631
 30
0.0
 10
-40.6851
 20
-5.6597
 30
0.0
 10
-40.6851
 20
-5.6597
 30
0.0
 10
-40.6851
 20
-5.6597
 30
0.0
 10
-40.6851
 20
-5.6597
 30
0.0
 10
-34.9258
 20
-7.5247
 30
0.0
 10
-34.9258
 20
-7.5247
 30
0.0
 10
-34.9258
 20
-7.5247
 30
0.0
 10
-34.9258
 20
-7.5247
 30
0.0
 10
-34.9258
 20
35.0081
 30
0.0
 10
-34.9258
 20
35.0081
 30
0.0
  0
SPLINE
  5
48
330
1F
100
AcDbEntity
  8
layer 1
 62
     7
100
AcDbSpline
210
0.0
220
0.0
230
1.0
 70
    11
 71
     3
 72
    24
 73
    20
 74
     0
 42
0.0000000001
 43
0.0000000001
 12
1.0
 22
0.0
 32
0.0
 13
1.0
 23
0.0
 33
0.0
 40
0.0
 40
0.0
 40
0.0
 40
0.0
 40
0.1666666666666667
 40
0.1666666666666667
 40
0.1666666666666667
 40
0.1666666666666667
 40
0.3333333333333333
 40
0.3333333333333333
 40
0.3333333333333333
 40
0.3333333333333333
 40
0.5
 40
0.5
 40
0.5
 40
0.5
 40
0.6666666666666666
 40
0.6666666666666666
 40
0.6666666666666666
 40
0.6666666666666666
 40
1.0
 40
1.0
 40
1.0
 40
1.0
 10
-34.9258
 20
-11.7715
 30
0.0
 10
-34.9258
 20
-11.7715
 30
0.0
 10
-54.4837
 20
-5.6133
 30
0.0
 10
-54.4837
 20
-5.6133
 30
0.0
 10
-54.4837
 20
-5.6133
 30
0.0
 10
-54.4837
 20
-5.6133
 30
0.0
 10
-58.2521
 20
-8.1412
 30
0.0
 10
-58.2521
 20
-8.1412
 30
0.0
 10
-58.2521
 20
-8.1412
 30
0.0
 10
-58.2521
 20
-8.1412
 30
0.0
 10
-57.0254
 20
-25.2038
 30
0.0
 10
-57.0254
 20
-25.2038
 30
0.0
 10
-57.0254
 20
-25.2038
 30
0.0
 10
-57.0254
 20
-25.2038
 30
0.0
 10
-34.9258
 20
-12.6797
 30
0.0
 10
-34.9258
 20
-12.6797
 30
0.0
 10
-34.9258
 20
-12.6797
 30
0.0
 10
-34.9258
 20
-12.6797
 30
0.0
 10
-34.9258
 20
-11.7715
 30
0.0
 10
-34.9258
 20
-11.7715
 30
0.0
  0
SPLINE
  5
49
330
1F
100
AcDbEntity
  8
layer 1
 62
     7
100
AcDbSpline
210
0.0
220
0.0
230
1.0
 70
    11
 71
     3
 72
    24
 73
    20
 74
     0
 42
0.0000000001
 43
0.0000000001
 12
1.0
 22
0.0
 32
0.0
 13
1.0
 23
0.0
 33
0.0
 40
0.0
 40
0.0
 40
0.0
 40
0.0
 40
0.1666666666666667
 40
0.1666666666666667
 40
0.1666666666666667
 40
0.1666666666666667
 40
0.3333333333333333
 40
0.3333333333333333
 40
0.3333333333333333
 40
0.3333333333333333
 40
0.5
 40
0.5
 40
0.5
 40
0.5
 40
0.6666666666666666
 40
0.6666666666666666
 40
0.6666666666666666
 40
0.6666666666666666
 40
1.0
 40
1.0
 40
1.0
 40
1.0
 10
-34.9258
 20
-17.4653
 30
0.0
 10
-34.9258
 20
-17.4653
 30
0.0
 10
-56.6948
 20
-29.8035
 30
0.0
 10
-56.6948
 20
-29.8035
 30
0.0
 10
-56.6948
 20
-29.8035
 30
0.0
 10
-56.6948
 20
-29.8035
 30
0.0
 10
-56.2745
 20
-35.6489
 30
0.0
 10
-56.2745
 20
-35.6489
 30
0.0
 10
-56.2745
 20
-35.6489
 30
0.0
 10
-56.2745
 20
-35.6489
 30
0.0
 10
-45.846
 20
-41.5843
 30
0.0
 10
-45.846
 20
-41.5843
 30
0.0
 10
-45.846
 20
-41.5843
 30
0.0
 10
-45.846
 20
-41.5843
 30
0.0
 10
-34.9258
 20
-29.1666
 30
0.0
 10
-34.9258
 20
-29.1666
 30
0.0
 10
-34.9258
 20
-29.1666
 30
0.0
 10
-34.9258
 20
-29.1666
 30
0.0
 10
-34.9258
 20
-17.4653
 30
0.0
 10
-34.9258
 20
-17.4653
 30
0.0
  0
SPLINE
  5
4A
330
1F
100
AcDbEntity
  8
layer 1
 62
     7
100
AcDbSpline
210
0.0
220
0.0
230
1.0
 70
    11
 71
     3
 72
    16
 73
    12
 74
     0
 42
0.0000000001
 43
0.0000000001
 12
1.0
 22
0.0
 32
0.0
 13
1.0
 23
0.0
 33
0.0
 40
0.0
 40
0.0
 40
0.0
 40
0.0
 40
0.25
 40
0.25
 40
0.25
 40
0.25
 40
0.5
 40
0.5
 40
0.5
 40
0.5
 40
1.0
 40
1.0
 40
1.0
 40
1.0
 10
-34.9258
 20
-35.6359
 30
0.0
 10
-34.9258
 20
-35.6359
 30
0.0
 10
-51.3252
 20
-54.1978
 30
0.0
 10
-51.3252
 20
-54.1978
 30
0.0
 10
-51.3252
 20
-54.1978
 30
0.0
 10
-51.3252
 20
-54.1978
 30
0.0
 10
-34.9258
 20
-62.0818
 30
0.0
 10
-34.9258
 20
-62.0818
 30
0.0
 10
-34.9258
 20
-62.0818
 30
0.0
 10
-34.9258
 20
-62.0818
 30
0.0
 10
-34.9258
 20
-35.6359
 30
0.0
 10
-34.9258
 20
-35.6359
 30
0.0
  0
SPLINE
  5
4B
330
1F
100
AcDbEntity
  8
layer 1
 62
     7
100
AcDbSpline
210
0.0
220
0.0
230
1.0
 70
    11
 71
     3
 72
    24
 73
    20
 74
     0
 42
0.0000000001
 43
0.0000000001
 12
1.0
 22
0.0
 32
0.0
 13
1.0
 23
0.0
 33
0.0
 40
0.0
 40
0.0
 40
0.0
 40
0.0
 40
0.1666666666666667
 40
0.1666666666666667
 40
0.1666666666666667
 40
0.1666666666666667
 40
0.3333333333333333
 40
0.3333333333333333
 40
0.3333333333333333
 40
0.3333333333333333
 40
0.5
 40
0.5
 40
0.5
 40
0.5
 40
0.6666666666666666
 40
0.6666666666666666
 40
0.6666666666666666
 40
0.6666666666666666
 40
1.0
 40
1.0
 40
1.0
 40
1.0
 10
-34.9258
 20
-66.6759
 30
0.0
 10
-34.9258
 20
-66.6759
 30
0.0
 10
-54.2007
 20
-57.4223
 30
0.0
 10
-54.2007
 20
-57.4223
 30
0.0
 10
-54.2007
 20
-57.4223
 30
0.0
 10
-54.2007
 20
-57.4223
 30
0.0
 10
-56.8955
 20
-60.4441
 30
0.0
 10
-56.8955
 20
-60.4441
 30
0.0
 10
-56.8955
 20
-60.4441
 30
0.0
 10
-56.8955
 20
-60.4441
 30
0.0
 10
-39.7447
 20
-80.6346
 30
0.0
 10
-39.7447
 20
-80.6346
 30
0.0
 10
-39.7447
 20
-80.6346
 30
0.0
 10
-39.7447
 20
-80.6346
 30
0.0
 10
-34.9258
 20
-76.6473
 30
0.0
 10
-34.9258
 20
-76.6473
 30
0.0
 10
-34.9258
 20
-76.6473
 30
0.0
 10
-34.9258
 20
-76.6473
 30
0.0
 10
-34.9258
 20
-66.6759
 30
0.0
 10
-34.9258
 20
-66.6759
 30
0.0
  0
SPLINE
  5
4C
330
1F
100
AcDbEntity
  8
layer 1
 62
     7
100
AcDbSpline
210
0.0
220
0.0
230
1.0
 70
    11
 71
     3
 72
    20
 73
    16
 74
     0
 42
0.0000000001
 43
0.0000000001
 12
1.0
 22
0.0
 32
0.0
 13
1.0
 23
0.0
 33
0.0
 40
0.0
 40
0.0
 40
0.0
 40
0.0
 40
0.2
 40
0.2
 40
0.2
 40
0.2
 40
0.4
 40
0.4
 40
0.4
 40
0.4
 40
0.6
 40
0.6
 40
0.6
 40
0.6
 40
1.0
 40
1.0
 40
1.0
 40
1.0
 10
-34.9258
 20
-82.076
 30
0.0
 10
-34.9258
 20
-82.076
 30
0.0
 10
-53.8637
 20
-97.3851
 30
0.0
 10
-53.8637
 20
-97.3851
 30
0.0
 10
-53.8637
 20
-97.3851
 30
0.0
 10
-53.8637
 20
-97.3851
 30
0.0
 10
-49.7659
 20
-102.6229
 30
0.0
 10
-49.7659
 20
-102.6229
 30
0.0
 10
-49.7659
 20
-102.6229
 30
0.0
 10
-49.7659
 20
-102.6229
 30
0.0
 10
-34.9258
 20
-102.6229
 30
0.0
 10
-34.9258
 20
-102.6229
 30
0.0
 10
-34.9258
 20
-102.6229
 30
0.0
 10
-34.9258
 20
-102.6229
 30
0.0
 10
-34.9258
 20
-82.076
 30
0.0
 10
-34.9258
 20
-82.076
 30
0.0
  0
SPLINE
  5
4D
330
1F
100
AcDbEntity
  8
layer 1
 62
     7
100
AcDbSpline
210
0.0
220
0.0
230
1.0
 70
    11
 71
     3
 72
    16
 73
    12
 74
     0
 42
0.0000000001
 43
0.0000000001
 12
1.0
 22
0.0
 32
0.0
 13
1.0
 23
0.0
 33
0.0
 40
0.0
 40
0.0
 40
0.0
 40
0.0
 40
0.25
 40
0.25
 40
0.25
 40
0.25
 40
0.5
 40
0.5
 40
0.5
 40
0.5
 40
1.0
 40
1.0
 40
1.0
 40
1.0
 10
-55.2653
 20
-102.6229
 30
0.0
 10
-55.2653
 20
-102.6229
 30
0.0
 10
-67.5313
 20
-86.9449
 30
0.0
 10
-67.5313
 20
-86.9449
 30
0.0
 10
-67.5313
 20
-86.9449
 30
0.0
 10
-67.5313
 20
-86.9449
 30
0.0
 10
-81.8968
 20
-102.6229
 30
0.0
 10
-81.8968
 20
-102.6229
 30
0.0
 10
-81.8968
 20
-102.6229
 30
0.0
 10
-81.8968
 20
-102.6229
 30
0.0
 10
-55.2653
 20
-102.6229
 30
0.0
 10
-55.2653
 20
-102.6229
 30
0.0
  0
SPLINE
  5
4E
330
1F
100
AcDbEntity
  8
layer 1
 62
     7
100
AcDbSpline
210
0.0
220
0.0
230
1.0
 70
    11
 71
     3
 72
    20
 73
    16
 74
     0
 42
0.0000000001
 43
0.0000000001
 12
1.0
 22
0.0
 32
0.0
 13
1.0
 23
0.0
 33
0.0
 40
0.0
 40
0.0
 40
0.0
 40
0.0
 40
0.2
 40
0.2
 40
0.2
 40
0.2
 40
0.4
 40
0.4
 40
0.4
 40
0.4
 40
0.6
 40
0.6
 40
0.6
 40
0.6
 40
1.0
 40
1.0
 40
1.0
 40
1.0
 10
-87.7294
 20
-102.6229
 30
0.0
 10
-87.7294
 20
-102.6229
 30
0.0
 10
-85.9559
 20
-100.6873
 30
0.0
 10
-85.9559
 20
-100.6873
 30
0.0
 10
-85.9559
 20
-100.6873
 30
0.0
 10
-85.9559
 20
-100.6873
 30
0.0
 10
-115.3913
 20
-87.2556
 30
0.0
 10
-115.3913
 20
-87.2556
 30
0.0
 10
-115.3913
 20
-87.2556
 30
0.0
 10
-115.3913
 20
-87.2556
 30
0.0
 10
-115.3913
 20
-102.6229
 30
0.0
 10
-115.3913
 20
-102.6229
 30
0.0
 10
-115.3913
 20
-102.6229
 30
0.0
 10
-115.3913
 20
-102.6229
 30
0.0
 10
-87.7294
 20
-102.6229
 30
0.0
 10
-87.7294
 20
-102.6229
 30
0.0
  0
SPLINE
  5
4F
330
1F
100
AcDbEntity
  8
layer 1
 62
     7
100
AcDbSpline
210
0.0
220
0.0
230
1.0
 70
    11
 71
     3
 72
    20
 73
    16
 74
     0
 42
0.0000000001
 43
0.0000000001
 12
1.0
 22
0.0
 32
0.0
 13
1.0
 23
0.0
 33
0.0
 40
0.0
 40
0.0
 40
0.0
 40
0.0
 40
0.2
 40
0.2
 40
0.2
 40
0.2
 40
0.4
 40
0.4
 40
0.4
 40
0.4
 40
0.6
 40
0.6
 40
0.6
 40
0.6
 40
1.0
 40
1.0
 40
1.0
 40
1.0
 10
-115.3913
 20
-82.7072
 30
0.0
 10
-115.3913
 20
-82.7072
 30
0.0
 10
-104.5312
 20
-87.7067
 30
0.0
 10
-104.5312
 20
-87.7067
 30
0.0
 10
-104.5312
 20
-87.7067
 30
0.0
 10
-104.5312
 20
-87.7067
 30
0.0
 10
-95.4823
 20
-61.069
 30
0.0
 10
-95.4823
 20
-61.069
 30
0.0
 10
-95.4823
 20
-61.069
 30
0.0
 10
-95.4823
 20
-61.069
 30
0.0
 10
-115.3913
 20
-70.256
 30
0.0
 10
-115.3913
 20
-70.256
 30
0.0
 10
-115.3913
 20
-70.256
 30
0.0
 10
-115.3913
 20
-70.256
 30
0.0
 10
-115.3913
 20
-82.7072
 30
0.0
 10
-115.3913
 20
-82.7072
 30
0.0
  0
SPLINE
  5
50
330
1F
100
AcDbEntity
  8
layer 1
 62
     7
100
AcDbSpline
210
0.0
220
0.0
230
1.0
 70
    11
 71
     3
 72
    16
 73
    12
 74
     0
 42
0.0000000001
 43
0.0000000001
 12
1.0
 22
0.0
 32
0.0
 13
1.0
 23
0.0
 33
0.0
 40
0.0
 40
0.0
 40
0.0
 40
0.0
 40
0.25
 40
0.25
 40
0.25
 40
0.25
 40
0.5
 40
0.5
 40
0.5
 40
0.5
 40
1.0
 40
1.0
 40
1.0
 40
1.0
 10
-115.3913
 20
-65.7006
 30
0.0
 10
-115.3913
 20
-65.7006
 30
0.0
 10
-89.8936
 20
-53.9545
 30
0.0
 10
-89.8936
 20
-53.9545
 30
0.0
 10
-89.8936
 20
-53.9545
 30
0.0
 10
-89.8936
 20
-53.9545
 30
0.0
 10
-115.3913
 20
-41.2168
 30
0.0
 10
-115.3913
 20
-41.2168
 30
0.0
 10
-115.3913
 20
-41.2168
 30
0.0
 10
-115.3913
 20
-41.2168
 30
0.0
 10
-115.3913
 20
-65.7006
 30
0.0
 10
-115.3913
 20
-65.7006
 30
0.0
  0
SPLINE
  5
51
330
1F
100
AcDbEntity
  8
layer 1
 62
     7
100
AcDbSpline
210
0.0
220
0.0
230
1.0
 70
    11
 71
     3
 72
    24
 73
    20
 74
     0
 42
0.0000000001
 43
0.0000000001
 12
1.0
 22
0.0
 32
0.0
 13
1.0
 23
0.0
 33
0.0
 40
0.0
 40
0.0
 40
0.0
 40
0.0
 40
0.1666666666666667
 40
0.1666666666666667
 40
0.1666666666666667
 40
0.1666666666666667
 40
0.3333333333333333
 40
0.3333333333333333
 40
0.3333333333333333
 40
0.3333333333333333
 40
0.5
 40
0.5
 40
0.5
 40
0.5
 40
0.6666666666666666
 40
0.6666666666666666
 40
0.6666666666666666
 40
0.6666666666666666
 40
1.0
 40
1.0
 40
1.0
 40
1.0
 10
-115.3913
 20
-36.9361
 30
0.0
 10
-115.3913
 20
-36.9361
 30
0.0
 10
-98.0828
 20
-45.2509
 30
0.0
 10
-98.0828
 20
-45.2509
 30
0.0
 10
-98.0828
 20
-45.2509
 30
0.0
 10
-98.0828
 20
-45.2509
 30
0.0
 10
-93.6566
 20
-43.2241
 30
0.0
 10
-93.6566
 20
-43.2241
 30
0.0
 10
-93.6566
 20
-43.2241
 30
0.0
 10
-93.6566
 20
-43.2241
 30
0.0
 10
-111.2838
 20
-13.8855
 30
0.0
 10
-111.2838
 20
-13.8855
 30
0.0
 10
-111.2838
 20
-13.8855
 30
0.0
 10
-111.2838
 20
-13.8855
 30
0.0
 10
-115.3913
 20
-18.231
 30
0.0
 10
-115.3913
 20
-18.231
 30
0.0
 10
-115.3913
 20
-18.231
 30
0.0
 10
-115.3913
 20
-18.231
 30
0.0
 10
-115.3913
 20
-36.9361
 30
0.0
 10
-115.3913
 20
-36.9361
 30
0.0
  0
SPLINE
  5
52
330
1F
100
AcDbEntity
  8
layer 1
 62
     7
100
AcDbSpline
210
0.0
220
0.0
230
1.0
 70
    11
 71
     3
 72
    20
 73
    16
 74
     0
 42
0.0000000001
 43
0.0000000001
 12
1.0
 22
0.0
 32
0.0
 13
1.0
 23
0.0
 33
0.0
 40
0.0
 40
0.0
 40
0.0
 40
0.0
 40
0.2
 40
0.2
 40
0.2
 40
0.2
 40
0.4
 40
0.4
 40
0.4
 40
0.4
 40
0.6
 40
0.6
 40
0.6
 40
0.6
 40
1.0
 40
1.0
 40
1.0
 40
1.0
 10
-115.3913
 20
-12.1089
 30
0.0
 10
-115.3913
 20
-12.1089
 30
0.0
 10
-101.4287
 20
2.2871
 30
0.0
 10
-101.4287
 20
2.2871
 30
0.0
 10
-101.4287
 20
2.2871
 30
0.0
 10
-101.4287
 20
2.2871
 30
0.0
 10
-109.2768
 20
29.9402
 30
0.0
 10
-109.2768
 20
29.9402
 30
0.0
 10
-109.2768
 20
29.9402
 30
0.0
 10
-109.2768
 20
29.9402
 30
0.0
 10
-115.3913
 20
31.9173
 30
0.0
 10
-115.3913
 20
31.9173
 30
0.0
 10
-115.3913
 20
31.9173
 30
0.0
 10
-115.3913
 20
31.9173
 30
0.0
 10
-115.3913
 20
-12.1089
 30
0.0
 10
-115.3913
 20
-12.1089
 30
0.0
  0
SPLINE
  5
53
330
1F
100
AcDbEntity
  8
layer 1
 62
     7
100
AcDbSpline
210
0.0
220
0.0
230
1.0
 70
    11
 71
     3
 72
    24
 73
    20
 74
     0
 42
0.0000000001
 43
0.0000000001
 12
1.0
 22
0.0
 32
0.0
 13
1.0
 23
0.0
 33
0.0
 40
0.0
 40
0.0
 40
0.0
 40
0.0
 40
0.1666666666666667
 40
0.1666666666666667
 40
0.1666666666666667
 40
0.1666666666666667
 40
0.3333333333333333
 40
0.3333333333333333
 40
0.3333333333333333
 40
0.3333333333333333
 40
0.5
 40
0.5
 40
0.5
 40
0.5
 40
0.6666666666666666
 40
0.6666666666666666
 40
0.6666666666666666
 40
0.6666666666666666
 40
1.0
 40
1.0
 40
1.0
 40
1.0
 10
-115.3913
 20
39.4058
 30
0.0
 10
-115.3913
 20
39.4058
 30
0.0
 10
-93.4709
 20
54.4983
 30
0.0
 10
-93.4709
 20
54.4983
 30
0.0
 10
-93.4709
 20
54.4983
 30
0.0
 10
-93.4709
 20
54.4983
 30
0.0
 10
-93.9699
 20
60.5084
 30
0.0
 10
-93.9699
 20
60.5084
 30
0.0
 10
-93.9699
 20
60.5084
 30
0.0
 10
-93.9699
 20
60.5084
 30
0.0
 10
-103.2412
 20
65.9241
 30
0.0
 10
-103.2412
 20
65.9241
 30
0.0
 10
-103.2412
 20
65.9241
 30
0.0
 10
-103.2412
 20
65.9241
 30
0.0
 10
-115.3913
 20
52.1921
 30
0.0
 10
-115.3913
 20
52.1921
 30
0.0
 10
-115.3913
 20
52.1921
 30
0.0
 10
-115.3913
 20
52.1921
 30
0.0
 10
-115.3913
 20
39.4058
 30
0.0
 10
-115.3913
 20
39.4058
 30
0.0
  0
SPLINE
  5
54
330
1F
100
AcDbEntity
  8
layer 1
 62
     7
100
AcDbSpline
210
0.0
220
0.0
230
1.0
 70
    11
 71
     3
 72
    16
 73
    12
 74
     0
 42
0.0000000001
 43
0.0000000001
 12
1.0
 22
0.0
 32
0.0
 13
1.0
 23
0.0
 33
0.0
 40
0.0
 40
0.0
 40
0.0
 40
0.0
 40
0.25
 40
0.25
 40
0.25
 40
0.25
 40
0.5
 40
0.5
 40
0.5
 40
0.5
 40
1.0
 40
1.0
 40
1.0
 40
1.0
 10
-115.3913
 20
58.1767
 30
0.0
 10
-115.3913
 20
58.1767
 30
0.0
 10
-97.8962
 20
78.8114
 30
0.0
 10
-97.8962
 20
78.8114
 30
0.0
 10
-97.8962
 20
78.8114
 30
0.0
 10
-97.8962
 20
78.8114
 30
0.0
 10
-115.3913
 20
86.514
 30
0.0
 10
-115.3913
 20
86.514
 30
0.0
 10
-115.3913
 20
86.514
 30
0.0
 10
-115.3913
 20
86.514
 30
0.0
 10
-115.3913
 20
58.1767
 30
0.0
 10
-115.3913
 20
58.1767
 30
0.0
  0
SPLINE
  5
55
330
1F
100
AcDbEntity
  8
layer 1
 62
     7
100
AcDbSpline
210
0.0
220
0.0
230
1.0
 70
    11
 71
     3
 72
    24
 73
    20
 74
     0
 42
0.0000000001
 43
0.0000000001
 12
1.0
 22
0.0
 32
0.0
 13
1.0
 23
0.0
 33
0.0
 40
0.0
 40
0.0
 40
0.0
 40
0.0
 40
0.1666666666666667
 40
0.1666666666666667
 40
0.1666666666666667
 40
0.1666666666666667
 40
0.3333333333333333
 40
0.3333333333333333
 40
0.3333333333333333
 40
0.3333333333333333
 40
0.5
 40
0.5
 40
0.5
 40
0.5
 40
0.6666666666666666
 40
0.6666666666666666
 40
0.6666666666666666
 40
0.6666666666666666
 40
1.0
 40
1.0
 40
1.0
 40
1.0
 10
-115.3913
 20
91.028
 30
0.0
 10
-115.3913
 20
91.028
 30
0.0
 10
-95.0848
 20
82.0985
 30
0.0
 10
-95.0848
 20
82.0985
 30
0.0
 10
-95.0848
 20
82.0985
 30
0.0
 10
-95.0848
 20
82.0985
 30
0.0
 10
-92.4793
 20
85.1448
 30
0.0
 10
-92.4793
 20
85.1448
 30
0.0
 10
-92.4793
 20
85.1448
 30
0.0
 10
-92.4793
 20
85.1448
 30
0.0
 10
-109.0425
 20
106.6912
 30
0.0
 10
-109.0425
 20
106.6912
 30
0.0
 10
-109.0425
 20
106.6912
 30
0.0
 10
-109.0425
 20
106.6912
 30
0.0
 10
-115.3913
 20
101.2989
 30
0.0
 10
-115.3913
 20
101.2989
 30
0.0
 10
-115.3913
 20
101.2989
 30
0.0
 10
-115.3913
 20
101.2989
 30
0.0
 10
-115.3913
 20
91.028
 30
0.0
 10
-115.3913
 20
91.028
 30
0.0
  0
SPLINE
  5
56
330
1F
100
AcDbEntity
  8
layer 1
 62
     7
100
AcDbSpline
210
0.0
220
0.0
230
1.0
 70
    11
 71
     3
 72
    20
 73
    16
 74
     0
 42
0.0000000001
 43
0.0000000001
 12
1.0
 22
0.0
 32
0.0
 13
1.0
 23
0.0
 33
0.0
 40
0.0
 40
0.0
 40
0.0
 40
0.0
 40
0.2
 40
0.2
 40
0.2
 40
0.2
 40
0.4
 40
0.4
 40
0.4
 40
0.4
 40
0.6
 40
0.6
 40
0.6
 40
0.6
 40
1.0
 40
1.0
 40
1.0
 40
1.0
 10
-115.3913
 20
106.8115
 30
0.0
 10
-115.3913
 20
106.8115
 30
0.0
 10
-95.4055
 20
123.5123
 30
0.0
 10
-95.4055
 20
123.5123
 30
0.0
 10
-95.4055
 20
123.5123
 30
0.0
 10
-95.4055
 20
123.5123
 30
0.0
 10
-98.9962
 20
128.0346
 30
0.0
 10
-98.9962
 20
128.0346
 30
0.0
 10
-98.9962
 20
128.0346
 30
0.0
 10
-98.9962
 20
128.0346
 30
0.0
 10
-115.3913
 20
128.0346
 30
0.0
 10
-115.3913
 20
128.0346
 30
0.0
 10
-115.3913
 20
128.0346
 30
0.0
 10
-115.3913
 20
128.0346
 30
0.0
 10
-115.3913
 20
106.8115
 30
0.0
 10
-115.3913
 20
106.8115
 30
0.0
  0
SPLINE
  5
57
330
1F
100
AcDbEntity
  8
layer 1
 62
     7
100
AcDbSpline
210
0.0
220
0.0
230
1.0
 70
    11
 71
     3
 72
    16
 73
    12
 74
     0
 42
0.0000000001
 43
0.0000000001
 12
1.0
 22
0.0
 32
0.0
 13
1.0
 23
0.0
 33
0.0
 40
0.0
 40
0.0
 40
0.0
 40
0.0
 40
0.25
 40
0.25
 40
0.25
 40
0.25
 40
0.5
 40
0.5
 40
0.5
 40
0.5
 40
1.0
 40
1.0
 40
1.0
 40
1.0
 10
-93.4681
 20
128.0346
 30
0.0
 10
-93.4681
 20
128.0346
 30
0.0
 10
-81.648
 20
113.1474
 30
0.0
 10
-81.648
 20
113.1474
 30
0.0
 10
-81.648
 20
113.1474
 30
0.0
 10
-81.648
 20
113.1474
 30
0.0
 10
-68.6741
 20
128.0346
 30
0.0
 10
-68.6741
 20
128.0346
 30
0.0
 10
-68.6741
 20
128.0346
 30
0.0
 10
-68.6741
 20
128.0346
 30
0.0
 10
-93.4681
 20
128.0346
 30
0.0
 10
-93.4681
 20
128.0346
 30
0.0
  0
SPLINE
  5
58
330
1F
100
AcDbEntity
  8
layer 1
 62
     7
100
AcDbSpline
210
0.0
220
0.0
230
1.0
 70
    11
 71
     3
 72
    24
 73
    20
 74
     0
 42
0.0000000001
 43
0.0000000001
 12
1.0
 22
0.0
 32
0.0
 13
1.0
 23
0.0
 33
0.0
 40
0.0
 40
0.0
 40
0.0
 40
0.0
 40
0.1666666666666667
 40
0.1666666666666667
 40
0.1666666666666667
 40
0.1666666666666667
 40
0.3333333333333333
 40
0.3333333333333333
 40
0.3333333333333333
 40
0.3333333333333333
 40
0.5
 40
0.5
 40
0.5
 40
0.5
 40
0.6666666666666666
 40
0.6666666666666666
 40
0.6666666666666666
 40
0.6666666666666666
 40
1.0
 40
1.0
 40
1.0
 40
1.0
 10
-89.7918
 20
81.6486
 30
0.0
 10
-89.7918
 20
81.6486
 30
0.0
 10
-100.482
 20
69.1501
 30
0.0
 10
-100.482
 20
69.1501
 30
0.0
 10
-100.482
 20
69.1501
 30
0.0
 10
-100.482
 20
69.1501
 30
0.0
 10
-83.2968
 20
59.1115
 30
0.0
 10
-83.2968
 20
59.1115
 30
0.0
 10
-83.2968
 20
59.1115
 30
0.0
 10
-83.2968
 20
59.1115
 30
0.0
 10
-82.1791
 20
59.6484
 30
0.0
 10
-82.1791
 20
59.6484
 30
0.0
 10
-82.1791
 20
59.6484
 30
0.0
 10
-82.1791
 20
59.6484
 30
0.0
 10
-81.0007
 20
70.2126
 30
0.0
 10
-81.0007
 20
70.2126
 30
0.0
 10
-81.0007
 20
70.2126
 30
0.0
 10
-81.0007
 20
70.2126
 30
0.0
 10
-89.7918
 20
81.6486
 30
0.0
 10
-89.7918
 20
81.6486
 30
0.0
  0
SPLINE
  5
59
330
1F
100
AcDbEntity
  8
layer 1
 62
     7
100
AcDbSpline
210
0.0
220
0.0
230
1.0
 70
    11
 71
     3
 72
    16
 73
    12
 74
     0
 42
0.0000000001
 43
0.0000000001
 12
1.0
 22
0.0
 32
0.0
 13
1.0
 23
0.0
 33
0.0
 40
0.0
 40
0.0
 40
0.0
 40
0.0
 40
0.25
 40
0.25
 40
0.25
 40
0.25
 40
0.5
 40
0.5
 40
0.5
 40
0.5
 40
1.0
 40
1.0
 40
1.0
 40
1.0
 10
-80.3077
 20
76.4253
 30
0.0
 10
-80.3077
 20
76.4253
 30
0.0
 10
-77.6492
 20
100.2583
 30
0.0
 10
-77.6492
 20
100.2583
 30
0.0
 10
-77.6492
 20
100.2583
 30
0.0
 10
-85.6468
 20
99.5595
 30
0.0
 10
-89.8852
 20
99.1892
 30
0.0
 10
-97.3083
 20
98.5407
 30
0.0
 10
-97.3083
 20
98.5407
 30
0.0
 10
-97.3083
 20
98.5407
 30
0.0
 10
-80.3077
 20
76.4253
 30
0.0
 10
-80.3077
 20
76.4253
 30
0.0
  0
SPLINE
  5
5A
330
1F
100
AcDbEntity
  8
layer 1
 62
     7
100
AcDbSpline
210
0.0
220
0.0
230
1.0
 70
    11
 71
     3
 72
    24
 73
    20
 74
     0
 42
0.0000000001
 43
0.0000000001
 12
1.0
 22
0.0
 32
0.0
 13
1.0
 23
0.0
 33
0.0
 40
0.0
 40
0.0
 40
0.0
 40
0.0
 40
0.1666666666666667
 40
0.1666666666666667
 40
0.1666666666666667
 40
0.1666666666666667
 40
0.3333333333333333
 40
0.3333333333333333
 40
0.3333333333333333
 40
0.3333333333333333
 40
0.5
 40
0.5
 40
0.5
 40
0.5
 40
0.6666666666666666
 40
0.6666666666666666
 40
0.6666666666666666
 40
0.6666666666666666
 40
1.0
 40
1.0
 40
1.0
 40
1.0
 10
-100.2516
 20
102.3698
 30
0.0
 10
-100.2516
 20
102.3698
 30
0.0
 10
-90.104
 20
103.2562
 30
0.0
 10
-90.104
 20
103.2562
 30
0.0
 10
-90.104
 20
103.2562
 30
0.0
 10
-90.104
 20
103.2562
 30
0.0
 10
-84.5141
 20
109.7948
 30
0.0
 10
-84.5141
 20
109.7948
 30
0.0
 10
-84.5141
 20
109.7948
 30
0.0
 10
-84.5141
 20
109.7948
 30
0.0
 10
-92.7665
 20
120.1886
 30
0.0
 10
-92.7665
 20
120.1886
 30
0.0
 10
-92.7665
 20
120.1886
 30
0.0
 10
-92.7665
 20
120.1886
 30
0.0
 10
-105.7027
 20
109.4609
 30
0.0
 10
-105.7027
 20
109.4609
 30
0.0
 10
-105.7027
 20
109.4609
 30
0.0
 10
-105.7027
 20
109.4609
 30
0.0
 10
-100.2516
 20
102.3698
 30
0.0
 10
-100.2516
 20
102.3698
 30
0.0
  0
SPLINE
  5
5B
330
1F
100
AcDbEntity
  8
layer 1
 62
     7
100
AcDbSpline
210
0.0
220
0.0
230
1.0
 70
    11
 71
     3
 72
    16
 73
    12
 74
     0
 42
0.0000000001
 43
0.0000000001
 12
1.0
 22
0.0
 32
0.0
 13
1.0
 23
0.0
 33
0.0
 40
0.0
 40
0.0
 40
0.0
 40
0.0
 40
0.25
 40
0.25
 40
0.25
 40
0.25
 40
0.5
 40
0.5
 40
0.5
 40
0.5
 40
1.0
 40
1.0
 40
1.0
 40
1.0
 10
-83.9689
 20
103.7922
 30
0.0
 10
-83.9689
 20
103.7922
 30
0.0
 10
-63.9623
 20
105.54
 30
0.0
 10
-63.9623
 20
105.54
 30
0.0
 10
-63.9623
 20
105.54
 30
0.0
 10
-63.9623
 20
105.54
 30
0.0
 10
-72.2863
 20
117.4577
 30
0.0
 10
-72.2863
 20
117.4577
 30
0.0
 10
-72.2863
 20
117.4577
 30
0.0
 10
-72.2863
 20
117.4577
 30
0.0
 10
-83.9689
 20
103.7922
 30
0.0
 10
-83.9689
 20
103.7922
 30
0.0
  0
SPLINE
  5
5C
330
1F
100
AcDbEntity
  8
layer 1
 62
     7
100
AcDbSpline
210
0.0
220
0.0
230
1.0
 70
    11
 71
     3
 72
    24
 73
    20
 74
     0
 42
0.0000000001
 43
0.0000000001
 12
1.0
 22
0.0
 32
0.0
 13
1.0
 23
0.0
 33
0.0
 40
0.0
 40
0.0
 40
0.0
 40
0.0
 40
0.1666666666666667
 40
0.1666666666666667
 40
0.1666666666666667
 40
0.1666666666666667
 40
0.3333333333333333
 40
0.3333333333333333
 40
0.3333333333333333
 40
0.3333333333333333
 40
0.5
 40
0.5
 40
0.5
 40
0.5
 40
0.6666666666666666
 40
0.6666666666666666
 40
0.6666666666666666
 40
0.6666666666666666
 40
1.0
 40
1.0
 40
1.0
 40
1.0
 10
-56.4737
 20
-94.0493
 30
0.0
 10
-56.4737
 20
-94.0493
 30
0.0
 10
-43.1129
 20
-83.3355
 30
0.0
 10
-43.1129
 20
-83.3355
 30
0.0
 10
-43.1129
 20
-83.3355
 30
0.0
 10
-43.1129
 20
-83.3355
 30
0.0
 10
-48.3806
 20
-77.1343
 30
0.0
 10
-48.3806
 20
-77.1343
 30
0.0
 10
-48.3806
 20
-77.1343
 30
0.0
 10
-48.3806
 20
-77.1343
 30
0.0
 10
-59.3806
 20
-78.0494
 30
0.0
 10
-59.3806
 20
-78.0494
 30
0.0
 10
-59.3806
 20
-78.0494
 30
0.0
 10
-59.3806
 20
-78.0494
 30
0.0
 10
-64.5648
 20
-83.7074
 30
0.0
 10
-64.5648
 20
-83.7074
 30
0.0
 10
-64.5648
 20
-83.7074
 30
0.0
 10
-64.5648
 20
-83.7074
 30
0.0
 10
-56.4737
 20
-94.0493
 30
0.0
 10
-56.4737
 20
-94.0493
 30
0.0
  0
SPLINE
  5
5D
330
1F
100
AcDbEntity
  8
layer 1
 62
     7
100
AcDbSpline
210
0.0
220
0.0
230
1.0
 70
    11
 71
     3
 72
    20
 73
    16
 74
     0
 42
0.0000000001
 43
0.0000000001
 12
1.0
 22
0.0
 32
0.0
 13
1.0
 23
0.0
 33
0.0
 40
0.0
 40
0.0
 40
0.0
 40
0.0
 40
0.2
 40
0.2
 40
0.2
 40
0.2
 40
0.4
 40
0.4
 40
0.4
 40
0.4
 40
0.6
 40
0.6
 40
0.6
 40
0.6
 40
1.0
 40
1.0
 40
1.0
 40
1.0
 10
-83.0126
 20
-97.4751
 30
0.0
 10
-83.0126
 20
-97.4751
 30
0.0
 10
-79.9709
 20
-94.1555
 30
0.0
 10
-79.9709
 20
-94.1555
 30
0.0
 10
-79.9709
 20
-94.1555
 30
0.0
 10
-79.9709
 20
-94.1555
 30
0.0
 10
-95.5653
 20
-75.1343
 30
0.0
 10
-95.5653
 20
-75.1343
 30
0.0
 10
-95.5653
 20
-75.1343
 30
0.0
 10
-95.5653
 20
-75.1343
 30
0.0
 10
-100.4635
 20
-89.5533
 30
0.0
 10
-100.4635
 20
-89.5533
 30
0.0
 10
-100.4635
 20
-89.5533
 30
0.0
 10
-100.4635
 20
-89.5533
 30
0.0
 10
-83.0126
 20
-97.4751
 30
0.0
 10
-83.0126
 20
-97.4751
 30
0.0
  0
SPLINE
  5
5E
330
1F
100
AcDbEntity
  8
layer 1
 62
     7
100
AcDbSpline
210
0.0
220
0.0
230
1.0
 70
    11
 71
     3
 72
    16
 73
    12
 74
     0
 42
0.0000000001
 43
0.0000000001
 12
1.0
 22
0.0
 32
0.0
 13
1.0
 23
0.0
 33
0.0
 40
0.0
 40
0.0
 40
0.0
 40
0.0
 40
0.25
 40
0.25
 40
0.25
 40
0.25
 40
0.5
 40
0.5
 40
0.5
 40
0.5
 40
1.0
 40
1.0
 40
1.0
 40
1.0
 10
-65.6946
 20
-78.5746
 30
0.0
 10
-72.3839
 20
-79.1311
 30
0.0
 10
-79.075
 20
-79.6878
 30
0.0
 10
-85.7851
 20
-80.246
 30
0.0
 10
-85.7851
 20
-80.246
 30
0.0
 10
-85.7851
 20
-80.246
 30
0.0
 10
-77.021
 20
-90.936
 30
0.0
 10
-77.021
 20
-90.936
 30
0.0
 10
-77.021
 20
-90.936
 30
0.0
 10
-77.021
 20
-90.936
 30
0.0
 10
-65.6946
 20
-78.5746
 30
0.0
 10
-65.6946
 20
-78.5746
 30
0.0
  0
SPLINE
  5
5F
330
1F
100
AcDbEntity
  8
layer 1
 62
     7
100
AcDbSpline
210
0.0
220
0.0
230
1.0
 70
    11
 71
     3
 72
    24
 73
    20
 74
     0
 42
0.0000000001
 43
0.0000000001
 12
1.0
 22
0.0
 32
0.0
 13
1.0
 23
0.0
 33
0.0
 40
0.0
 40
0.0
 40
0.0
 40
0.0
 40
0.1666666666666667
 40
0.1666666666666667
 40
0.1666666666666667
 40
0.1666666666666667
 40
0.3333333333333333
 40
0.3333333333333333
 40
0.3333333333333333
 40
0.3333333333333333
 40
0.5
 40
0.5
 40
0.5
 40
0.5
 40
0.6666666666666666
 40
0.6666666666666666
 40
0.6666666666666666
 40
0.6666666666666666
 40
1.0
 40
1.0
 40
1.0
 40
1.0
 10
-59.7101
 20
-57.1309
 30
0.0
 10
-59.7101
 20
-57.1309
 30
0.0
 10
-48.6865
 20
-44.7695
 30
0.0
 10
-48.6865
 20
-44.7695
 30
0.0
 10
-48.6865
 20
-44.7695
 30
0.0
 10
-48.6865
 20
-44.7695
 30
0.0
 10
-65.8057
 20
-35.026
 30
0.0
 10
-65.8057
 20
-35.026
 30
0.0
 10
-65.8057
 20
-35.026
 30
0.0
 10
-65.8057
 20
-35.026
 30
0.0
 10
-67.3322
 20
-35.7251
 30
0.0
 10
-67.3322
 20
-35.7251
 30
0.0
 10
-67.3322
 20
-35.7251
 30
0.0
 10
-67.3322
 20
-35.7251
 30
0.0
 10
-68.3633
 20
-46.944
 30
0.0
 10
-68.3633
 20
-46.944
 30
0.0
 10
-68.3633
 20
-46.944
 30
0.0
 10
-68.3633
 20
-46.944
 30
0.0
 10
-59.7101
 20
-57.1309
 30
0.0
 10
-59.7101
 20
-57.1309
 30
0.0
  0
SPLINE
  5
60
330
1F
100
AcDbEntity
  8
layer 1
 62
     7
100
AcDbSpline
210
0.0
220
0.0
230
1.0
 70
    11
 71
     3
 72
    16
 73
    12
 74
     0
 42
0.0000000001
 43
0.0000000001
 12
1.0
 22
0.0
 32
0.0
 13
1.0
 23
0.0
 33
0.0
 40
0.0
 40
0.0
 40
0.0
 40
0.0
 40
0.25
 40
0.25
 40
0.25
 40
0.25
 40
0.5
 40
0.5
 40
0.5
 40
0.5
 40
1.0
 40
1.0
 40
1.0
 40
1.0
 10
-68.916
 20
-52.9594
 30
0.0
 10
-68.916
 20
-52.9594
 30
0.0
 10
-70.935
 20
-74.927
 30
0.0
 10
-70.935
 20
-74.927
 30
0.0
 10
-70.935
 20
-74.927
 30
0.0
 10
-70.935
 20
-74.927
 30
0.0
 10
-51.6204
 20
-73.3203
 30
0.0
 10
-51.6204
 20
-73.3203
 30
0.0
 10
-51.6204
 20
-73.3203
 30
0.0
 10
-51.6204
 20
-73.3203
 30
0.0
 10
-68.916
 20
-52.9594
 30
0.0
 10
-68.916
 20
-52.9594
 30
0.0
  0
SPLINE
  5
61
330
1F
100
AcDbEntity
  8
layer 1
 62
     7
100
AcDbSpline
210
0.0
220
0.0
230
1.0
 70
    11
 71
     3
 72
    28
 73
    24
 74
     0
 42
0.0000000001
 43
0.0000000001
 12
1.0
 22
0.0
 32
0.0
 13
1.0
 23
0.0
 33
0.0
 40
0.0
 40
0.0
 40
0.0
 40
0.0
 40
0.1428571428571428
 40
0.1428571428571428
 40
0.1428571428571428
 40
0.1428571428571428
 40
0.2857142857142857
 40
0.2857142857142857
 40
0.2857142857142857
 40
0.2857142857142857
 40
0.4285714285714285
 40
0.4285714285714285
 40
0.4285714285714285
 40
0.4285714285714285
 40
0.5714285714285714
 40
0.5714285714285714
 40
0.5714285714285714
 40
0.5714285714285714
 40
0.7142857142857143
 40
0.7142857142857143
 40
0.7142857142857143
 40
0.7142857142857143
 40
1.0
 40
1.0
 40
1.0
 40
1.0
 10
-75.4723
 20
-75.3046
 30
0.0
 10
-75.4723
 20
-75.3046
 30
0.0
 10
-74.2251
 20
-61.735
 30
0.0
 10
-74.2251
 20
-61.735
 30
0.0
 10
-74.2251
 20
-61.735
 30
0.0
 10
-74.2251
 20
-61.735
 30
0.0
 10
-85.121
 20
-56.3243
 30
0.0
 10
-85.121
 20
-56.3243
 30
0.0
 10
-85.121
 20
-56.3243
 30
0.0
 10
-85.121
 20
-56.3243
 30
0.0
 10
-89.9224
 20
-58.523
 30
0.0
 10
-89.9224
 20
-58.523
 30
0.0
 10
-89.9224
 20
-58.523
 30
0.0
 10
-89.9224
 20
-58.523
 30
0.0
 10
-93.9277
 20
-70.3138
 30
0.0
 10
-93.9277
 20
-70.3138
 30
0.0
 10
-93.9277
 20
-70.3138
 30
0.0
 10
-93.9277
 20
-70.3138
 30
0.0
 10
-88.9191
 20
-76.4232
 30
0.0
 10
-88.9191
 20
-76.4232
 30
0.0
 10
-88.9191
 20
-76.4232
 30
0.0
 10
-88.9191
 20
-76.4232
 30
0.0
 10
-75.4723
 20
-75.3046
 30
0.0
 10
-75.4723
 20
-75.3046
 30
0.0
  0
SPLINE
  5
62
330
1F
100
AcDbEntity
  8
layer 1
 62
     7
100
AcDbSpline
210
0.0
220
0.0
230
1.0
 70
    11
 71
     3
 72
    16
 73
    12
 74
     0
 42
0.0000000001
 43
0.0000000001
 12
1.0
 22
0.0
 32
0.0
 13
1.0
 23
0.0
 33
0.0
 40
0.0
 40
0.0
 40
0.0
 40
0.0
 40
0.25
 40
0.25
 40
0.25
 40
0.25
 40
0.5
 40
0.5
 40
0.5
 40
0.5
 40
1.0
 40
1.0
 40
1.0
 40
1.0
 10
-93.3101
 20
-47.6209
 30
0.0
 10
-93.3101
 20
-47.6209
 30
0.0
 10
-73.8175
 20
-57.3003
 30
0.0
 10
-73.8175
 20
-57.3003
 30
0.0
 10
-73.8175
 20
-57.3003
 30
0.0
 10
-73.8175
 20
-57.3003
 30
0.0
 10
-72.0322
 20
-37.8773
 30
0.0
 10
-72.0322
 20
-37.8773
 30
0.0
 10
-72.0322
 20
-37.8773
 30
0.0
 10
-72.0322
 20
-37.8773
 30
0.0
 10
-93.3101
 20
-47.6209
 30
0.0
 10
-93.3101
 20
-47.6209
 30
0.0
  0
SPLINE
  5
63
330
1F
100
AcDbEntity
  8
layer 1
 62
     7
100
AcDbSpline
210
0.0
220
0.0
230
1.0
 70
    11
 71
     3
 72
    20
 73
    16
 74
     0
 42
0.0000000001
 43
0.0000000001
 12
1.0
 22
0.0
 32
0.0
 13
1.0
 23
0.0
 33
0.0
 40
0.0
 40
0.0
 40
0.0
 40
0.0
 40
0.2
 40
0.2
 40
0.2
 40
0.2
 40
0.4
 40
0.4
 40
0.4
 40
0.4
 40
0.6
 40
0.6
 40
0.6
 40
0.6
 40
1.0
 40
1.0
 40
1.0
 40
1.0
 10
-70.2408
 20
-32.5018
 30
0.0
 10
-70.2408
 20
-32.5018
 30
0.0
 10
-83.4006
 20
-25.0118
 30
0.0
 10
-83.4006
 20
-25.0118
 30
0.0
 10
-83.4006
 20
-25.0118
 30
0.0
 10
-83.4006
 20
-25.0118
 30
0.0
 10
-94.8678
 20
-32.7044
 30
0.0
 10
-94.8678
 20
-32.7044
 30
0.0
 10
-94.8678
 20
-32.7044
 30
0.0
 10
-94.8678
 20
-32.7044
 30
0.0
 10
-89.65
 20
-41.3893
 30
0.0
 10
-89.65
 20
-41.3893
 30
0.0
 10
-89.65
 20
-41.3893
 30
0.0
 10
-89.65
 20
-41.3893
 30
0.0
 10
-70.2408
 20
-32.5018
 30
0.0
 10
-70.2408
 20
-32.5018
 30
0.0
  0
SPLINE
  5
64
330
1F
100
AcDbEntity
  8
layer 1
 62
     7
100
AcDbSpline
210
0.0
220
0.0
230
1.0
 70
    11
 71
     3
 72
    16
 73
    12
 74
     0
 42
0.0000000001
 43
0.0000000001
 12
1.0
 22
0.0
 32
0.0
 13
1.0
 23
0.0
 33
0.0
 40
0.0
 40
0.0
 40
0.0
 40
0.0
 40
0.25
 40
0.25
 40
0.25
 40
0.25
 40
0.5
 40
0.5
 40
0.5
 40
0.5
 40
1.0
 40
1.0
 40
1.0
 40
1.0
 10
-60.9621
 20
-32.981
 30
0.0
 10
-60.9621
 20
-32.981
 30
0.0
 10
-62.541
 20
-11.0185
 30
0.0
 10
-62.541
 20
-11.0185
 30
0.0
 10
-62.541
 20
-11.0185
 30
0.0
 10
-68.7856
 20
-15.2075
 30
0.0
 10
-74.1805
 20
-18.8267
 30
0.0
 10
-79.5281
 20
-22.414
 30
0.0
 10
-79.5281
 20
-22.414
 30
0.0
 10
-79.5281
 20
-22.414
 30
0.0
 10
-60.9621
 20
-32.981
 30
0.0
 10
-60.9621
 20
-32.981
 30
0.0
  0
SPLINE
  5
65
330
1F
100
AcDbEntity
  8
layer 1
 62
     7
100
AcDbSpline
210
0.0
220
0.0
230
1.0
 70
    11
 71
     3
 72
    24
 73
    20
 74
     0
 42
0.0000000001
 43
0.0000000001
 12
1.0
 22
0.0
 32
0.0
 13
1.0
 23
0.0
 33
0.0
 40
0.0
 40
0.0
 40
0.0
 40
0.0
 40
0.1666666666666667
 40
0.1666666666666667
 40
0.1666666666666667
 40
0.1666666666666667
 40
0.3333333333333333
 40
0.3333333333333333
 40
0.3333333333333333
 40
0.3333333333333333
 40
0.5
 40
0.5
 40
0.5
 40
0.5
 40
0.6666666666666666
 40
0.6666666666666666
 40
0.6666666666666666
 40
0.6666666666666666
 40
1.0
 40
1.0
 40
1.0
 40
1.0
 10
-97.0343
 20
-29.0985
 30
0.0
 10
-97.0343
 20
-29.0985
 30
0.0
 10
-80.71
 20
-18.1476
 30
0.0
 10
-80.71
 20
-18.1476
 30
0.0
 10
-80.71
 20
-18.1476
 30
0.0
 10
-80.71
 20
-18.1476
 30
0.0
 10
-81.2665
 20
-15.925
 30
0.0
 10
-81.2665
 20
-15.925
 30
0.0
 10
-81.2665
 20
-15.925
 30
0.0
 10
-81.2665
 20
-15.925
 30
0.0
 10
-104.3618
 20
-6.8264
 30
0.0
 10
-104.3618
 20
-6.8264
 30
0.0
 10
-104.3618
 20
-6.8264
 30
0.0
 10
-104.3618
 20
-6.8264
 30
0.0
 10
-108.1154
 20
-10.6545
 30
0.0
 10
-108.1154
 20
-10.6545
 30
0.0
 10
-108.1154
 20
-10.6545
 30
0.0
 10
-108.1154
 20
-10.6545
 30
0.0
 10
-97.0343
 20
-29.0985
 30
0.0
 10
-97.0343
 20
-29.0985
 30
0.0
  0
SPLINE
  5
66
330
1F
100
AcDbEntity
  8
layer 1
 62
     7
100
AcDbSpline
210
0.0
220
0.0
230
1.0
 70
    11
 71
     3
 72
    16
 73
    12
 74
     0
 42
0.0000000001
 43
0.0000000001
 12
1.0
 22
0.0
 32
0.0
 13
1.0
 23
0.0
 33
0.0
 40
0.0
 40
0.0
 40
0.0
 40
0.0
 40
0.25
 40
0.25
 40
0.25
 40
0.25
 40
0.5
 40
0.5
 40
0.5
 40
0.5
 40
1.0
 40
1.0
 40
1.0
 40
1.0
 10
-82.4978
 20
-11.0066
 30
0.0
 10
-82.4978
 20
-11.0066
 30
0.0
 10
-87.7782
 20
10.0855
 30
0.0
 10
-87.7782
 20
10.0855
 30
0.0
 10
-87.7782
 20
10.0855
 30
0.0
 10
-87.7782
 20
10.0855
 30
0.0
 10
-101.226
 20
-3.6286
 30
0.0
 10
-101.226
 20
-3.6286
 30
0.0
 10
-101.226
 20
-3.6286
 30
0.0
 10
-101.226
 20
-3.6286
 30
0.0
 10
-82.4978
 20
-11.0066
 30
0.0
 10
-82.4978
 20
-11.0066
 30
0.0
  0
SPLINE
  5
67
330
1F
100
AcDbEntity
  8
layer 1
 62
     7
100
AcDbSpline
210
0.0
220
0.0
230
1.0
 70
    11
 71
     3
 72
    16
 73
    12
 74
     0
 42
0.0000000001
 43
0.0000000001
 12
1.0
 22
0.0
 32
0.0
 13
1.0
 23
0.0
 33
0.0
 40
0.0
 40
0.0
 40
0.0
 40
0.0
 40
0.25
 40
0.25
 40
0.25
 40
0.25
 40
0.5
 40
0.5
 40
0.5
 40
0.5
 40
1.0
 40
1.0
 40
1.0
 40
1.0
 10
-59.6135
 20
-3.9952
 30
0.0
 10
-59.6135
 20
-3.9952
 30
0.0
 10
-81.3699
 20
2.8672
 30
0.0
 10
-81.3699
 20
2.8672
 30
0.0
 10
-81.3699
 20
2.8672
 30
0.0
 10
-81.3699
 20
2.8672
 30
0.0
 10
-76.7707
 20
-15.5048
 30
0.0
 10
-76.7707
 20
-15.5048
 30
0.0
 10
-76.7707
 20
-15.5048
 30
0.0
 10
-76.7707
 20
-15.5048
 30
0.0
 10
-59.6135
 20
-3.9952
 30
0.0
 10
-59.6135
 20
-3.9952
 30
0.0
  0
SPLINE
  5
68
330
1F
100
AcDbEntity
  8
layer 1
 62
     7
100
AcDbSpline
210
0.0
220
0.0
230
1.0
 70
    11
 71
     3
 72
    28
 73
    24
 74
     0
 42
0.0000000001
 43
0.0000000001
 12
1.0
 22
0.0
 32
0.0
 13
1.0
 23
0.0
 33
0.0
 40
0.0
 40
0.0
 40
0.0
 40
0.0
 40
0.1428571428571428
 40
0.1428571428571428
 40
0.1428571428571428
 40
0.1428571428571428
 40
0.2857142857142857
 40
0.2857142857142857
 40
0.2857142857142857
 40
0.2857142857142857
 40
0.4285714285714285
 40
0.4285714285714285
 40
0.4285714285714285
 40
0.4285714285714285
 40
0.5714285714285714
 40
0.5714285714285714
 40
0.5714285714285714
 40
0.5714285714285714
 40
0.7142857142857143
 40
0.7142857142857143
 40
0.7142857142857143
 40
0.7142857142857143
 40
1.0
 40
1.0
 40
1.0
 40
1.0
 10
-82.5402
 20
7.5423
 30
0.0
 10
-82.5402
 20
7.5423
 30
0.0
 10
-71.2116
 20
3.9689
 30
0.0
 10
-71.2116
 20
3.9689
 30
0.0
 10
-71.2116
 20
3.9689
 30
0.0
 10
-71.2116
 20
3.9689
 30
0.0
 10
-64.9225
 20
10.3826
 30
0.0
 10
-64.9225
 20
10.3826
 30
0.0
 10
-64.9225
 20
10.3826
 30
0.0
 10
-64.9225
 20
10.3826
 30
0.0
 10
-66.4357
 20
16.4273
 30
0.0
 10
-66.4357
 20
16.4273
 30
0.0
 10
-66.4357
 20
16.4273
 30
0.0
 10
-66.4357
 20
16.4273
 30
0.0
 10
-77.987
 20
20.0708
 30
0.0
 10
-77.987
 20
20.0708
 30
0.0
 10
-77.987
 20
20.0708
 30
0.0
 10
-77.987
 20
20.0708
 30
0.0
 10
-84.1127
 20
13.8238
 30
0.0
 10
-84.1127
 20
13.8238
 30
0.0
 10
-84.1127
 20
13.8238
 30
0.0
 10
-84.1127
 20
13.8238
 30
0.0
 10
-82.5402
 20
7.5423
 30
0.0
 10
-82.5402
 20
7.5423
 30
0.0
  0
SPLINE
  5
69
330
1F
100
AcDbEntity
  8
layer 1
 62
     7
100
AcDbSpline
210
0.0
220
0.0
230
1.0
 70
    11
 71
     3
 72
    16
 73
    12
 74
     0
 42
0.0000000001
 43
0.0000000001
 12
1.0
 22
0.0
 32
0.0
 13
1.0
 23
0.0
 33
0.0
 40
0.0
 40
0.0
 40
0.0
 40
0.0
 40
0.25
 40
0.25
 40
0.25
 40
0.25
 40
0.5
 40
0.5
 40
0.5
 40
0.5
 40
1.0
 40
1.0
 40
1.0
 40
1.0
 10
-51.7601
 20
17.6838
 30
0.0
 10
-57.5665
 20
11.7623
 30
0.0
 10
-61.1939
 20
8.063
 30
0.0
 10
-66.6266
 20
2.5228
 30
0.0
 10
-66.6266
 20
2.5228
 30
0.0
 10
-66.6266
 20
2.5228
 30
0.0
 10
-45.7515
 20
-4.0617
 30
0.0
 10
-45.7515
 20
-4.0617
 30
0.0
 10
-45.7515
 20
-4.0617
 30
0.0
 10
-45.7515
 20
-4.0617
 30
0.0
 10
-51.7601
 20
17.6838
 30
0.0
 10
-51.7601
 20
17.6838
 30
0.0
  0
SPLINE
  5
6A
330
1F
100
AcDbEntity
  8
layer 1
 62
     7
100
AcDbSpline
210
0.0
220
0.0
230
1.0
 70
    11
 71
     3
 72
    16
 73
    12
 74
     0
 42
0.0000000001
 43
0.0000000001
 12
1.0
 22
0.0
 32
0.0
 13
1.0
 23
0.0
 33
0.0
 40
0.0
 40
0.0
 40
0.0
 40
0.0
 40
0.25
 40
0.25
 40
0.25
 40
0.25
 40
0.5
 40
0.5
 40
0.5
 40
0.5
 40
1.0
 40
1.0
 40
1.0
 40
1.0
 10
-97.8352
 20
5.9516
 30
0.0
 10
-97.8352
 20
5.9516
 30
0.0
 10
-82.5723
 20
21.517
 30
0.0
 10
-82.5723
 20
21.517
 30
0.0
 10
-82.5723
 20
21.517
 30
0.0
 10
-82.5723
 20
21.517
 30
0.0
 10
-104.1874
 20
28.3349
 30
0.0
 10
-104.1874
 20
28.3349
 30
0.0
 10
-104.1874
 20
28.3349
 30
0.0
 10
-104.1874
 20
28.3349
 30
0.0
 10
-97.8352
 20
5.9516
 30
0.0
 10
-97.8352
 20
5.9516
 30
0.0
  0
SPLINE
  5
6B
330
1F
100
AcDbEntity
  8
layer 1
 62
     7
100
AcDbSpline
210
0.0
220
0.0
230
1.0
 70
    11
 71
     3
 72
    24
 73
    20
 74
     0
 42
0.0000000001
 43
0.0000000001
 12
1.0
 22
0.0
 32
0.0
 13
1.0
 23
0.0
 33
0.0
 40
0.0
 40
0.0
 40
0.0
 40
0.0
 40
0.1666666666666667
 40
0.1666666666666667
 40
0.1666666666666667
 40
0.1666666666666667
 40
0.3333333333333333
 40
0.3333333333333333
 40
0.3333333333333333
 40
0.3333333333333333
 40
0.5
 40
0.5
 40
0.5
 40
0.5
 40
0.6666666666666666
 40
0.6666666666666666
 40
0.6666666666666666
 40
0.6666666666666666
 40
1.0
 40
1.0
 40
1.0
 40
1.0
 10
-40.7416
 20
35.0427
 30
0.0
 10
-40.7416
 20
35.0427
 30
0.0
 10
-52.4463
 20
53.7707
 30
0.0
 10
-52.4463
 20
53.7707
 30
0.0
 10
-52.4463
 20
53.7707
 30
0.0
 10
-52.4463
 20
53.7707
 30
0.0
 10
-68.4009
 20
42.6567
 30
0.0
 10
-68.4009
 20
42.6567
 30
0.0
 10
-68.4009
 20
42.6567
 30
0.0
 10
-68.4009
 20
42.6567
 30
0.0
 10
-67.6635
 20
39.7111
 30
0.0
 10
-67.6635
 20
39.7111
 30
0.0
 10
-67.6635
 20
39.7111
 30
0.0
 10
-67.6635
 20
39.7111
 30
0.0
 10
-44.8082
 20
30.8954
 30
0.0
 10
-44.8082
 20
30.8954
 30
0.0
 10
-44.8082
 20
30.8954
 30
0.0
 10
-44.8082
 20
30.8954
 30
0.0
 10
-40.7416
 20
35.0427
 30
0.0
 10
-40.7416
 20
35.0427
 30
0.0
  0
SPLINE
  5
6C
330
1F
100
AcDbEntity
  8
layer 1
 62
     7
100
AcDbSpline
210
0.0
220
0.0
230
1.0
 70
    11
 71
     3
 72
    16
 73
    12
 74
     0
 42
0.0000000001
 43
0.0000000001
 12
1.0
 22
0.0
 32
0.0
 13
1.0
 23
0.0
 33
0.0
 40
0.0
 40
0.0
 40
0.0
 40
0.0
 40
0.25
 40
0.25
 40
0.25
 40
0.25
 40
0.5
 40
0.5
 40
0.5
 40
0.5
 40
1.0
 40
1.0
 40
1.0
 40
1.0
 10
-47.9521
 20
27.6893
 30
0.0
 10
-47.9521
 20
27.6893
 30
0.0
 10
-66.4391
 20
34.82
 30
0.0
 10
-66.4391
 20
34.82
 30
0.0
 10
-66.4391
 20
34.82
 30
0.0
 10
-66.4391
 20
34.82
 30
0.0
 10
-61.2573
 20
14.1205
 30
0.0
 10
-61.2573
 20
14.1205
 30
0.0
 10
-61.2573
 20
14.1205
 30
0.0
 10
-61.2573
 20
14.1205
 30
0.0
 10
-47.9521
 20
27.6893
 30
0.0
 10
-47.9521
 20
27.6893
 30
0.0
  0
SPLINE
  5
6D
330
1F
100
AcDbEntity
  8
layer 1
 62
     7
100
AcDbSpline
210
0.0
220
0.0
230
1.0
 70
    11
 71
     3
 72
    20
 73
    16
 74
     0
 42
0.0000000001
 43
0.0000000001
 12
1.0
 22
0.0
 32
0.0
 13
1.0
 23
0.0
 33
0.0
 40
0.0
 40
0.0
 40
0.0
 40
0.0
 40
0.2
 40
0.2
 40
0.2
 40
0.2
 40
0.4
 40
0.4
 40
0.4
 40
0.4
 40
0.6
 40
0.6
 40
0.6
 40
0.6
 40
1.0
 40
1.0
 40
1.0
 40
1.0
 10
-67.6062
 20
21.1024
 30
0.0
 10
-67.6062
 20
21.1024
 30
0.0
 10
-72.3191
 20
39.9272
 30
0.0
 10
-72.3191
 20
39.9272
 30
0.0
 10
-72.3191
 20
39.9272
 30
0.0
 10
-72.3191
 20
39.9272
 30
0.0
 10
-86.9162
 20
29.7587
 30
0.0
 10
-86.9162
 20
29.7587
 30
0.0
 10
-86.9162
 20
29.7587
 30
0.0
 10
-86.9162
 20
29.7587
 30
0.0
 10
-86.6975
 20
27.1241
 30
0.0
 10
-86.6975
 20
27.1241
 30
0.0
 10
-86.6975
 20
27.1241
 30
0.0
 10
-86.6975
 20
27.1241
 30
0.0
 10
-67.6062
 20
21.1024
 30
0.0
 10
-67.6062
 20
21.1024
 30
0.0
  0
SPLINE
  5
6E
330
1F
100
AcDbEntity
  8
layer 1
 62
     7
100
AcDbSpline
210
0.0
220
0.0
230
1.0
 70
    11
 71
     3
 72
    16
 73
    12
 74
     0
 42
0.0000000001
 43
0.0000000001
 12
1.0
 22
0.0
 32
0.0
 13
1.0
 23
0.0
 33
0.0
 40
0.0
 40
0.0
 40
0.0
 40
0.0
 40
0.25
 40
0.25
 40
0.25
 40
0.25
 40
0.5
 40
0.5
 40
0.5
 40
0.5
 40
1.0
 40
1.0
 40
1.0
 40
1.0
 10
-91.5729
 20
28.6413
 30
0.0
 10
-91.5729
 20
28.6413
 30
0.0
 10
-93.0705
 20
49.6773
 30
0.0
 10
-93.0705
 20
49.6773
 30
0.0
 10
-93.0705
 20
49.6773
 30
0.0
 10
-93.0705
 20
49.6773
 30
0.0
 10
-113.6314
 20
35.6197
 30
0.0
 10
-113.6314
 20
35.6197
 30
0.0
 10
-113.6314
 20
35.6197
 30
0.0
 10
-113.6314
 20
35.6197
 30
0.0
 10
-91.5729
 20
28.6413
 30
0.0
 10
-91.5729
 20
28.6413
 30
0.0
  0
SPLINE
  5
6F
330
1F
100
AcDbEntity
  8
layer 1
 62
     7
100
AcDbSpline
210
0.0
220
0.0
230
1.0
 70
    11
 71
     3
 72
    16
 73
    12
 74
     0
 42
0.0000000001
 43
0.0000000001
 12
1.0
 22
0.0
 32
0.0
 13
1.0
 23
0.0
 33
0.0
 40
0.0
 40
0.0
 40
0.0
 40
0.0
 40
0.25
 40
0.25
 40
0.25
 40
0.25
 40
0.5
 40
0.5
 40
0.5
 40
0.5
 40
1.0
 40
1.0
 40
1.0
 40
1.0
 10
-87.3189
 20
34.6074
 30
0.0
 10
-87.3189
 20
34.6074
 30
0.0
 10
-70.1294
 20
46.582
 30
0.0
 10
-70.1294
 20
46.582
 30
0.0
 10
-70.1294
 20
46.582
 30
0.0
 10
-70.1294
 20
46.582
 30
0.0
 10
-89.2405
 20
57.7457
 30
0.0
 10
-89.2405
 20
57.7457
 30
0.0
 10
-89.2405
 20
57.7457
 30
0.0
 10
-89.2405
 20
57.7457
 30
0.0
 10
-87.3189
 20
34.6074
 30
0.0
 10
-87.3189
 20
34.6074
 30
0.0
  0
SPLINE
  5
70
330
1F
100
AcDbEntity
  8
layer 1
 62
     7
100
AcDbSpline
210
0.0
220
0.0
230
1.0
 70
    11
 71
     3
 72
    20
 73
    16
 74
     0
 42
0.0000000001
 43
0.0000000001
 12
1.0
 22
0.0
 32
0.0
 13
1.0
 23
0.0
 33
0.0
 40
0.0
 40
0.0
 40
0.0
 40
0.0
 40
0.2
 40
0.2
 40
0.2
 40
0.2
 40
0.4
 40
0.4
 40
0.4
 40
0.4
 40
0.6
 40
0.6
 40
0.6
 40
0.6
 40
1.0
 40
1.0
 40
1.0
 40
1.0
 10
-54.6798
 20
57.3443
 30
0.0
 10
-54.6798
 20
57.3443
 30
0.0
 10
-59.9247
 20
65.7366
 30
0.0
 10
-59.9247
 20
65.7366
 30
0.0
 10
-59.9247
 20
65.7366
 30
0.0
 10
-59.9247
 20
65.7366
 30
0.0
 10
-78.973
 20
56.5857
 30
0.0
 10
-78.973
 20
56.5857
 30
0.0
 10
-78.973
 20
56.5857
 30
0.0
 10
-78.973
 20
56.5857
 30
0.0
 10
-66.3521
 20
49.2133
 30
0.0
 10
-66.3521
 20
49.2133
 30
0.0
 10
-66.3521
 20
49.2133
 30
0.0
 10
-66.3521
 20
49.2133
 30
0.0
 10
-54.6798
 20
57.3443
 30
0.0
 10
-54.6798
 20
57.3443
 30
0.0
  0
SPLINE
  5
71
330
1F
100
AcDbEntity
  8
layer 1
 62
     7
100
AcDbSpline
210
0.0
220
0.0
230
1.0
 70
    11
 71
     3
 72
    16
 73
    12
 74
     0
 42
0.0000000001
 43
0.0000000001
 12
1.0
 22
0.0
 32
0.0
 13
1.0
 23
0.0
 33
0.0
 40
0.0
 40
0.0
 40
0.0
 40
0.0
 40
0.25
 40
0.25
 40
0.25
 40
0.25
 40
0.5
 40
0.5
 40
0.5
 40
0.5
 40
1.0
 40
1.0
 40
1.0
 40
1.0
 10
-55.9799
 20
72.2349
 30
0.0
 10
-55.9799
 20
72.2349
 30
0.0
 10
-75.1904
 20
81.8682
 30
0.0
 10
-75.1904
 20
81.8682
 30
0.0
 10
-75.1904
 20
81.8682
 30
0.0
 10
-75.1904
 20
81.8682
 30
0.0
 10
-77.4136
 20
61.9378
 30
0.0
 10
-77.4136
 20
61.9378
 30
0.0
 10
-77.4136
 20
61.9378
 30
0.0
 10
-77.4136
 20
61.9378
 30
0.0
 10
-55.9799
 20
72.2349
 30
0.0
 10
-55.9799
 20
72.2349
 30
0.0
  0
SPLINE
  5
72
330
1F
100
AcDbEntity
  8
layer 1
 62
     7
100
AcDbSpline
210
0.0
220
0.0
230
1.0
 70
    11
 71
     3
 72
    28
 73
    24
 74
     0
 42
0.0000000001
 43
0.0000000001
 12
1.0
 22
0.0
 32
0.0
 13
1.0
 23
0.0
 33
0.0
 40
0.0
 40
0.0
 40
0.0
 40
0.0
 40
0.1428571428571428
 40
0.1428571428571428
 40
0.1428571428571428
 40
0.1428571428571428
 40
0.2857142857142857
 40
0.2857142857142857
 40
0.2857142857142857
 40
0.2857142857142857
 40
0.4285714285714285
 40
0.4285714285714285
 40
0.4285714285714285
 40
0.4285714285714285
 40
0.5714285714285714
 40
0.5714285714285714
 40
0.5714285714285714
 40
0.5714285714285714
 40
0.7142857142857143
 40
0.7142857142857143
 40
0.7142857142857143
 40
0.7142857142857143
 40
1.0
 40
1.0
 40
1.0
 40
1.0
 10
-62.972
 20
80.3891
 30
0.0
 10
-62.972
 20
80.3891
 30
0.0
 10
-58.6697
 20
82.456
 30
0.0
 10
-58.6697
 20
82.456
 30
0.0
 10
-58.6697
 20
82.456
 30
0.0
 10
-58.6697
 20
82.456
 30
0.0
 10
-55.6703
 20
93.6684
 30
0.0
 10
-55.6703
 20
93.6684
 30
0.0
 10
-55.6703
 20
93.6684
 30
0.0
 10
-55.6703
 20
93.6684
 30
0.0
 10
-61.2724
 20
101.689
 30
0.0
 10
-61.2724
 20
101.689
 30
0.0
 10
-61.2724
 20
101.689
 30
0.0
 10
-61.2724
 20
101.689
 30
0.0
 10
-73.0946
 20
100.6562
 30
0.0
 10
-73.0946
 20
100.6562
 30
0.0
 10
-73.0946
 20
100.6562
 30
0.0
 10
-73.0946
 20
100.6562
 30
0.0
 10
-74.6993
 20
86.2701
 30
0.0
 10
-74.6993
 20
86.2701
 30
0.0
 10
-74.6993
 20
86.2701
 30
0.0
 10
-74.6993
 20
86.2701
 30
0.0
 10
-62.972
 20
80.3891
 30
0.0
 10
-62.972
 20
80.3891
 30
0.0
  0
SPLINE
  5
73
330
1F
100
AcDbEntity
  8
layer 1
 62
   250
100
AcDbSpline
210
0.0
220
0.0
230
1.0
 70
    11
 71
     3
 72
    20
 73
    16
 74
     0
 42
0.0000000001
 43
0.0000000001
 12
1.0
 22
0.0
 32
0.0
 13
1.0
 23
0.0
 33
0.0
 40
0.0
 40
0.0
 40
0.0
 40
0.0
 40
0.2
 40
0.2
 40
0.2
 40
0.2
 40
0.4
 40
0.4
 40
0.4
 40
0.4
 40
0.6
 40
0.6
 40
0.6
 40
0.6
 40
1.0
 40
1.0
 40
1.0
 40
1.0
 10
-22.6784
 20
131.7309
 30
0.0
 10
-22.6784
 20
131.7309
 30
0.0
 10
26.0437
 20
131.7309
 30
0.0
 10
26.0437
 20
131.7309
 30
0.0
 10
26.0437
 20
131.7309
 30
0.0
 10
26.0437
 20
131.7309
 30
0.0
 10
26.0437
 20
-106.4662
 30
0.0
 10
26.0437
 20
-106.4662
 30
0.0
 10
26.0437
 20
-106.4662
 30
0.0
 10
26.0437
 20
-106.4662
 30
0.0
 10
-22.6784
 20
-106.4662
 30
0.0
 10
-22.6784
 20
-106.4662
 30
0.0
 10
-22.6784
 20
-106.4662
 30
0.0
 10
-22.6784
 20
-106.4662
 30
0.0
 10
-22.6784
 20
131.7309
 30
0.0
 10
-22.6784
 20
131.7309
 30
0.0
  0
SPLINE
  5
74
330
1F
100
AcDbEntity
  8
layer 1
 62
     7
100
AcDbSpline
210
0.0
220
0.0
230
1.0
 70
    11
 71
     3
 72
    20
 73
    16
 74
     0
 42
0.0000000001
 43
0.0000000001
 12
1.0
 22
0.0
 32
0.0
 13
1.0
 23
0.0
 33
0.0
 40
0.0
 40
0.0
 40
0.0
 40
0.0
 40
0.2
 40
0.2
 40
0.2
 40
0.2
 40
0.4
 40
0.4
 40
0.4
 40
0.4
 40
0.6
 40
0.6
 40
0.6
 40
0.6
 40
1.0
 40
1.0
 40
1.0
 40
1.0
 10
-19.9716
 20
129.0241
 30
0.0
 10
-19.9716
 20
129.0241
 30
0.0
 10
-13.9138
 20
129.0241
 30
0.0
 10
-13.9138
 20
129.0241
 30
0.0
 10
-13.9138
 20
129.0241
 30
0.0
 10
-13.9138
 20
129.0241
 30
0.0
 10
-14.3902
 20
127.4814
 30
0.0
 10
-14.3902
 20
127.4814
 30
0.0
 10
-14.3902
 20
127.4814
 30
0.0
 10
-14.3902
 20
127.4814
 30
0.0
 10
-19.9716
 20
124.9841
 30
0.0
 10
-19.9716
 20
124.9841
 30
0.0
 10
-19.9716
 20
124.9841
 30
0.0
 10
-19.9716
 20
124.9841
 30
0.0
 10
-19.9716
 20
129.0241
 30
0.0
 10
-19.9716
 20
129.0241
 30
0.0
  0
SPLINE
  5
75
330
1F
100
AcDbEntity
  8
layer 1
 62
     7
100
AcDbSpline
210
0.0
220
0.0
230
1.0
 70
    11
 71
     3
 72
    16
 73
    12
 74
     0
 42
0.0000000001
 43
0.0000000001
 12
1.0
 22
0.0
 32
0.0
 13
1.0
 23
0.0
 33
0.0
 40
0.0
 40
0.0
 40
0.0
 40
0.0
 40
0.25
 40
0.25
 40
0.25
 40
0.25
 40
0.5
 40
0.5
 40
0.5
 40
0.5
 40
1.0
 40
1.0
 40
1.0
 40
1.0
 10
-11.5117
 20
129.0241
 30
0.0
 10
-11.5117
 20
129.0241
 30
0.0
 10
-10.9423
 20
129.0241
 30
0.0
 10
-10.9423
 20
129.0241
 30
0.0
 10
-10.9423
 20
129.0241
 30
0.0
 10
-10.9423
 20
129.0241
 30
0.0
 10
-11.603
 20
128.7284
 30
0.0
 10
-11.603
 20
128.7284
 30
0.0
 10
-11.603
 20
128.7284
 30
0.0
 10
-11.603
 20
128.7284
 30
0.0
 10
-11.5117
 20
129.0241
 30
0.0
 10
-11.5117
 20
129.0241
 30
0.0
  0
SPLINE
  5
76
330
1F
100
AcDbEntity
  8
layer 1
 62
     7
100
AcDbSpline
210
0.0
220
0.0
230
1.0
 70
    11
 71
     3
 72
    24
 73
    20
 74
     0
 42
0.0000000001
 43
0.0000000001
 12
1.0
 22
0.0
 32
0.0
 13
1.0
 23
0.0
 33
0.0
 40
0.0
 40
0.0
 40
0.0
 40
0.0
 40
0.1666666666666667
 40
0.1666666666666667
 40
0.1666666666666667
 40
0.1666666666666667
 40
0.3333333333333333
 40
0.3333333333333333
 40
0.3333333333333333
 40
0.3333333333333333
 40
0.5
 40
0.5
 40
0.5
 40
0.5
 40
0.6666666666666666
 40
0.6666666666666666
 40
0.6666666666666666
 40
0.6666666666666666
 40
1.0
 40
1.0
 40
1.0
 40
1.0
 10
-5.3228
 20
129.0241
 30
0.0
 10
-5.3228
 20
129.0241
 30
0.0
 10
4.1398
 20
129.0241
 30
0.0
 10
4.1398
 20
129.0241
 30
0.0
 10
4.1398
 20
129.0241
 30
0.0
 10
4.1398
 20
129.0241
 30
0.0
 10
4.5493
 20
128.53
 30
0.0
 10
4.5493
 20
128.53
 30
0.0
 10
4.5493
 20
128.53
 30
0.0
 10
4.5493
 20
128.53
 30
0.0
 10
-6.2676
 20
121.3014
 30
0.0
 10
-6.2676
 20
121.3014
 30
0.0
 10
-6.2676
 20
121.3014
 30
0.0
 10
-6.2676
 20
121.3014
 30
0.0
 10
-8.0163
 20
127.8189
 30
0.0
 10
-8.0163
 20
127.8189
 30
0.0
 10
-8.0163
 20
127.8189
 30
0.0
 10
-8.0163
 20
127.8189
 30
0.0
 10
-5.3228
 20
129.0241
 30
0.0
 10
-5.3228
 20
129.0241
 30
0.0
  0
SPLINE
  5
77
330
1F
100
AcDbEntity
  8
layer 1
 62
     7
100
AcDbSpline
210
0.0
220
0.0
230
1.0
 70
    11
 71
     3
 72
    24
 73
    20
 74
     0
 42
0.0000000001
 43
0.0000000001
 12
1.0
 22
0.0
 32
0.0
 13
1.0
 23
0.0
 33
0.0
 40
0.0
 40
0.0
 40
0.0
 40
0.0
 40
0.1666666666666667
 40
0.1666666666666667
 40
0.1666666666666667
 40
0.1666666666666667
 40
0.3333333333333333
 40
0.3333333333333333
 40
0.3333333333333333
 40
0.3333333333333333
 40
0.5
 40
0.5
 40
0.5
 40
0.5
 40
0.6666666666666666
 40
0.6666666666666666
 40
0.6666666666666666
 40
0.6666666666666666
 40
1.0
 40
1.0
 40
1.0
 40
1.0
 10
9.4165
 20
129.0241
 30
0.0
 10
9.4165
 20
129.0241
 30
0.0
 10
15.6536
 20
129.0241
 30
0.0
 10
15.6536
 20
129.0241
 30
0.0
 10
15.6536
 20
129.0241
 30
0.0
 10
15.6536
 20
129.0241
 30
0.0
 10
18.6572
 20
125.8475
 30
0.0
 10
18.6572
 20
125.8475
 30
0.0
 10
18.6572
 20
125.8475
 30
0.0
 10
18.6572
 20
125.8475
 30
0.0
 10
7.9645
 20
122.3875
 30
0.0
 10
7.9645
 20
122.3875
 30
0.0
 10
7.9645
 20
122.3875
 30
0.0
 10
7.9645
 20
122.3875
 30
0.0
 10
3.7991
 20
125.2701
 30
0.0
 10
3.7991
 20
125.2701
 30
0.0
 10
3.7991
 20
125.2701
 30
0.0
 10
3.7991
 20
125.2701
 30
0.0
 10
9.4165
 20
129.0241
 30
0.0
 10
9.4165
 20
129.0241
 30
0.0
  0
SPLINE
  5
78
330
1F
100
AcDbEntity
  8
layer 1
 62
     7
100
AcDbSpline
210
0.0
220
0.0
230
1.0
 70
    11
 71
     3
 72
    20
 73
    16
 74
     0
 42
0.0000000001
 43
0.0000000001
 12
1.0
 22
0.0
 32
0.0
 13
1.0
 23
0.0
 33
0.0
 40
0.0
 40
0.0
 40
0.0
 40
0.0
 40
0.2
 40
0.2
 40
0.2
 40
0.2
 40
0.4
 40
0.4
 40
0.4
 40
0.4
 40
0.6
 40
0.6
 40
0.6
 40
0.6
 40
1.0
 40
1.0
 40
1.0
 40
1.0
 10
18.8108
 20
129.0241
 30
0.0
 10
18.8108
 20
129.0241
 30
0.0
 10
23.3369
 20
129.0241
 30
0.0
 10
23.3369
 20
129.0241
 30
0.0
 10
23.3369
 20
129.0241
 30
0.0
 10
23.3369
 20
129.0241
 30
0.0
 10
23.3369
 20
127.3617
 30
0.0
 10
23.3369
 20
127.3617
 30
0.0
 10
23.3369
 20
127.3617
 30
0.0
 10
23.3369
 20
127.3617
 30
0.0
 10
21.0747
 20
126.6297
 30
0.0
 10
21.0747
 20
126.6297
 30
0.0
 10
21.0747
 20
126.6297
 30
0.0
 10
21.0747
 20
126.6297
 30
0.0
 10
18.8108
 20
129.0241
 30
0.0
 10
18.8108
 20
129.0241
 30
0.0
  0
SPLINE
  5
79
330
1F
100
AcDbEntity
  8
layer 1
 62
     7
100
AcDbSpline
210
0.0
220
0.0
230
1.0
 70
    11
 71
     3
 72
    20
 73
    16
 74
     0
 42
0.0000000001
 43
0.0000000001
 12
1.0
 22
0.0
 32
0.0
 13
1.0
 23
0.0
 33
0.0
 40
0.0
 40
0.0
 40
0.0
 40
0.0
 40
0.2
 40
0.2
 40
0.2
 40
0.2
 40
0.4
 40
0.4
 40
0.4
 40
0.4
 40
0.6
 40
0.6
 40
0.6
 40
0.6
 40
1.0
 40
1.0
 40
1.0
 40
1.0
 10
23.3369
 20
124.9486
 30
0.0
 10
23.3369
 20
124.9486
 30
0.0
 10
23.3369
 20
114.6674
 30
0.0
 10
23.3369
 20
114.6674
 30
0.0
 10
23.3369
 20
114.6674
 30
0.0
 10
23.3369
 20
114.6674
 30
0.0
 10
21.1629
 20
113.2541
 30
0.0
 10
21.1629
 20
113.2541
 30
0.0
 10
21.1629
 20
113.2541
 30
0.0
 10
21.1629
 20
113.2541
 30
0.0
 10
10.3406
 20
120.7433
 30
0.0
 10
10.3406
 20
120.7433
 30
0.0
 10
10.3406
 20
120.7433
 30
0.0
 10
10.3406
 20
120.7433
 30
0.0
 10
23.3369
 20
124.9486
 30
0.0
 10
23.3369
 20
124.9486
 30
0.0
  0
SPLINE
  5
7A
330
1F
100
AcDbEntity
  8
layer 1
 62
     7
100
AcDbSpline
210
0.0
220
0.0
230
1.0
 70
    11
 71
     3
 72
    16
 73
    12
 74
     0
 42
0.0000000001
 43
0.0000000001
 12
1.0
 22
0.0
 32
0.0
 13
1.0
 23
0.0
 33
0.0
 40
0.0
 40
0.0
 40
0.0
 40
0.0
 40
0.25
 40
0.25
 40
0.25
 40
0.25
 40
0.5
 40
0.5
 40
0.5
 40
0.5
 40
1.0
 40
1.0
 40
1.0
 40
1.0
 10
23.3369
 20
111.933
 30
0.0
 10
23.3369
 20
111.933
 30
0.0
 10
23.3369
 20
96.5231
 30
0.0
 10
23.3369
 20
96.5231
 30
0.0
 10
23.3369
 20
96.5231
 30
0.0
 10
23.3369
 20
96.5231
 30
0.0
 10
14.231
 20
106.0136
 30
0.0
 10
14.231
 20
106.0136
 30
0.0
 10
14.231
 20
106.0136
 30
0.0
 10
14.231
 20
106.0136
 30
0.0
 10
23.3369
 20
111.933
 30
0.0
 10
23.3369
 20
111.933
 30
0.0
  0
SPLINE
  5
7B
330
1F
100
AcDbEntity
  8
layer 1
 62
     7
100
AcDbSpline
210
0.0
220
0.0
230
1.0
 70
    11
 71
     3
 72
    20
 73
    16
 74
     0
 42
0.0000000001
 43
0.0000000001
 12
1.0
 22
0.0
 32
0.0
 13
1.0
 23
0.0
 33
0.0
 40
0.0
 40
0.0
 40
0.0
 40
0.0
 40
0.2
 40
0.2
 40
0.2
 40
0.2
 40
0.4
 40
0.4
 40
0.4
 40
0.4
 40
0.6
 40
0.6
 40
0.6
 40
0.6
 40
1.0
 40
1.0
 40
1.0
 40
1.0
 10
23.3369
 20
93.2108
 30
0.0
 10
23.3369
 20
93.2108
 30
0.0
 10
23.3369
 20
85.3237
 30
0.0
 10
23.3369
 20
85.3237
 30
0.0
 10
23.3369
 20
85.3237
 30
0.0
 10
23.3369
 20
85.3237
 30
0.0
 10
8.9138
 20
84.5581
 30
0.0
 10
8.9138
 20
84.5581
 30
0.0
 10
8.9138
 20
84.5581
 30
0.0
 10
8.9138
 20
84.5581
 30
0.0
 10
18.6792
 20
98.0653
 30
0.0
 10
18.6792
 20
98.0653
 30
0.0
 10
18.6792
 20
98.0653
 30
0.0
 10
18.6792
 20
98.0653
 30
0.0
 10
23.3369
 20
93.2108
 30
0.0
 10
23.3369
 20
93.2108
 30
0.0
  0
SPLINE
  5
7C
330
1F
100
AcDbEntity
  8
layer 1
 62
     7
100
AcDbSpline
210
0.0
220
0.0
230
1.0
 70
    11
 71
     3
 72
    20
 73
    16
 74
     0
 42
0.0000000001
 43
0.0000000001
 12
1.0
 22
0.0
 32
0.0
 13
1.0
 23
0.0
 33
0.0
 40
0.0
 40
0.0
 40
0.0
 40
0.0
 40
0.2
 40
0.2
 40
0.2
 40
0.2
 40
0.4
 40
0.4
 40
0.4
 40
0.4
 40
0.6
 40
0.6
 40
0.6
 40
0.6
 40
1.0
 40
1.0
 40
1.0
 40
1.0
 10
23.3369
 20
83.026
 30
0.0
 10
23.3369
 20
83.026
 30
0.0
 10
23.3369
 20
71.6384
 30
0.0
 10
23.3369
 20
71.6384
 30
0.0
 10
23.3369
 20
71.6384
 30
0.0
 10
23.3369
 20
71.6384
 30
0.0
 10
16.9304
 20
68.2643
 30
0.0
 10
16.9304
 20
68.2643
 30
0.0
 10
16.9304
 20
68.2643
 30
0.0
 10
16.9304
 20
68.2643
 30
0.0
 10
12.317
 20
82.441
 30
0.0
 10
12.317
 20
82.441
 30
0.0
 10
12.317
 20
82.441
 30
0.0
 10
12.317
 20
82.441
 30
0.0
 10
23.3369
 20
83.026
 30
0.0
 10
23.3369
 20
83.026
 30
0.0
  0
SPLINE
  5
7D
330
1F
100
AcDbEntity
  8
layer 1
 62
     7
100
AcDbSpline
210
0.0
220
0.0
230
1.0
 70
    11
 71
     3
 72
    16
 73
    12
 74
     0
 42
0.0000000001
 43
0.0000000001
 12
1.0
 22
0.0
 32
0.0
 13
1.0
 23
0.0
 33
0.0
 40
0.0
 40
0.0
 40
0.0
 40
0.0
 40
0.25
 40
0.25
 40
0.25
 40
0.25
 40
0.5
 40
0.5
 40
0.5
 40
0.5
 40
1.0
 40
1.0
 40
1.0
 40
1.0
 10
23.3369
 20
69.0478
 30
0.0
 10
23.3369
 20
69.0478
 30
0.0
 10
23.3369
 20
49.2064
 30
0.0
 10
23.3369
 20
49.2064
 30
0.0
 10
23.3369
 20
49.2064
 30
0.0
 10
23.3369
 20
49.2064
 30
0.0
 10
12.3896
 20
63.2819
 30
0.0
 10
12.3896
 20
63.2819
 30
0.0
 10
12.3896
 20
63.2819
 30
0.0
 10
12.3896
 20
63.2819
 30
0.0
 10
23.3369
 20
69.0478
 30
0.0
 10
23.3369
 20
69.0478
 30
0.0
  0
SPLINE
  5
7E
330
1F
100
AcDbEntity
  8
layer 1
 62
     7
100
AcDbSpline
210
0.0
220
0.0
230
1.0
 70
    11
 71
     3
 72
    36
 73
    32
 74
     0
 42
0.0000000001
 43
0.0000000001
 12
1.0
 22
0.0
 32
0.0
 13
1.0
 23
0.0
 33
0.0
 40
0.0
 40
0.0
 40
0.0
 40
0.0
 40
0.1111111111111111
 40
0.1111111111111111
 40
0.1111111111111111
 40
0.1111111111111111
 40
0.2222222222222222
 40
0.2222222222222222
 40
0.2222222222222222
 40
0.2222222222222222
 40
0.3333333333333333
 40
0.3333333333333333
 40
0.3333333333333333
 40
0.3333333333333333
 40
0.4444444444444444
 40
0.4444444444444444
 40
0.4444444444444444
 40
0.4444444444444444
 40
0.5555555555555556
 40
0.5555555555555556
 40
0.5555555555555556
 40
0.5555555555555556
 40
0.6666666666666666
 40
0.6666666666666666
 40
0.6666666666666666
 40
0.6666666666666666
 40
0.7777777777777778
 40
0.7777777777777778
 40
0.7777777777777778
 40
0.7777777777777778
 40
1.0
 40
1.0
 40
1.0
 40
1.0
 10
23.3369
 20
45.472
 30
0.0
 10
23.3369
 20
45.472
 30
0.0
 10
23.3369
 20
38.4661
 30
0.0
 10
23.3369
 20
38.4661
 30
0.0
 10
23.3369
 20
38.4661
 30
0.0
 10
23.3369
 20
38.4661
 30
0.0
 10
14.5143
 20
44.356
 30
0.0
 10
14.5143
 20
44.356
 30
0.0
 10
14.5143
 20
44.356
 30
0.0
 10
14.5143
 20
44.356
 30
0.0
 10
14.4547
 20
44.2762
 30
0.0
 10
14.4547
 20
44.2762
 30
0.0
 10
14.4547
 20
44.2762
 30
0.0
 10
14.4547
 20
44.2762
 30
0.0
 10
14.4519
 20
44.2795
 30
0.0
 10
14.4519
 20
44.2795
 30
0.0
 10
14.4519
 20
44.2795
 30
0.0
 10
14.4519
 20
44.2795
 30
0.0
 10
9.3522
 20
39.9023
 30
0.0
 10
9.3522
 20
39.9023
 30
0.0
 10
9.3522
 20
39.9023
 30
0.0
 10
9.3522
 20
39.9023
 30
0.0
 10
0.124
 20
50.4447
 30
0.0
 10
0.124
 20
50.4447
 30
0.0
 10
0.124
 20
50.4447
 30
0.0
 10
0.124
 20
50.4447
 30
0.0
 10
17.3885
 20
53.1203
 30
0.0
 10
17.3885
 20
53.1203
 30
0.0
 10
17.3885
 20
53.1203
 30
0.0
 10
17.3885
 20
53.1203
 30
0.0
 10
23.3369
 20
45.472
 30
0.0
 10
23.3369
 20
45.472
 30
0.0
  0
SPLINE
  5
7F
330
1F
100
AcDbEntity
  8
layer 1
 62
     7
100
AcDbSpline
210
0.0
220
0.0
230
1.0
 70
    11
 71
     3
 72
    20
 73
    16
 74
     0
 42
0.0000000001
 43
0.0000000001
 12
1.0
 22
0.0
 32
0.0
 13
1.0
 23
0.0
 33
0.0
 40
0.0
 40
0.0
 40
0.0
 40
0.0
 40
0.2
 40
0.2
 40
0.2
 40
0.2
 40
0.4
 40
0.4
 40
0.4
 40
0.4
 40
0.6
 40
0.6
 40
0.6
 40
0.6
 40
1.0
 40
1.0
 40
1.0
 40
1.0
 10
23.3369
 20
35.7095
 30
0.0
 10
23.3369
 20
35.7095
 30
0.0
 10
23.3369
 20
31.0548
 30
0.0
 10
23.3369
 20
31.0548
 30
0.0
 10
23.3369
 20
31.0548
 30
0.0
 10
23.3369
 20
31.0548
 30
0.0
 10
5.8169
 20
33.8422
 30
0.0
 10
5.8169
 20
33.8422
 30
0.0
 10
5.8169
 20
33.8422
 30
0.0
 10
5.8169
 20
33.8422
 30
0.0
 10
14.7056
 20
41.4716
 30
0.0
 10
14.7056
 20
41.4716
 30
0.0
 10
14.7056
 20
41.4716
 30
0.0
 10
14.7056
 20
41.4716
 30
0.0
 10
23.3369
 20
35.7095
 30
0.0
 10
23.3369
 20
35.7095
 30
0.0
  0
SPLINE
  5
80
330
1F
100
AcDbEntity
  8
layer 1
 62
     7
100
AcDbSpline
210
0.0
220
0.0
230
1.0
 70
    11
 71
     3
 72
    20
 73
    16
 74
     0
 42
0.0000000001
 43
0.0000000001
 12
1.0
 22
0.0
 32
0.0
 13
1.0
 23
0.0
 33
0.0
 40
0.0
 40
0.0
 40
0.0
 40
0.0
 40
0.2
 40
0.2
 40
0.2
 40
0.2
 40
0.4
 40
0.4
 40
0.4
 40
0.4
 40
0.6
 40
0.6
 40
0.6
 40
0.6
 40
1.0
 40
1.0
 40
1.0
 40
1.0
 10
23.3369
 20
28.7301
 30
0.0
 10
23.3369
 20
28.7301
 30
0.0
 10
23.3369
 20
18.5395
 30
0.0
 10
23.3369
 20
18.5395
 30
0.0
 10
23.3369
 20
18.5395
 30
0.0
 10
23.3369
 20
18.5395
 30
0.0
 10
18.1016
 20
16.8455
 30
0.0
 10
18.1016
 20
16.8455
 30
0.0
 10
18.1016
 20
16.8455
 30
0.0
 10
18.1016
 20
16.8455
 30
0.0
 10
12.4406
 20
30.4638
 30
0.0
 10
12.4406
 20
30.4638
 30
0.0
 10
12.4406
 20
30.4638
 30
0.0
 10
12.4406
 20
30.4638
 30
0.0
 10
23.3369
 20
28.7301
 30
0.0
 10
23.3369
 20
28.7301
 30
0.0
  0
SPLINE
  5
81
330
1F
100
AcDbEntity
  8
layer 1
 62
     7
100
AcDbSpline
210
0.0
220
0.0
230
1.0
 70
    11
 71
     3
 72
    20
 73
    16
 74
     0
 42
0.0000000001
 43
0.0000000001
 12
1.0
 22
0.0
 32
0.0
 13
1.0
 23
0.0
 33
0.0
 40
0.0
 40
0.0
 40
0.0
 40
0.0
 40
0.2
 40
0.2
 40
0.2
 40
0.2
 40
0.4
 40
0.4
 40
0.4
 40
0.4
 40
0.6
 40
0.6
 40
0.6
 40
0.6
 40
1.0
 40
1.0
 40
1.0
 40
1.0
 10
23.3369
 20
16.1264
 30
0.0
 10
23.3369
 20
16.1264
 30
0.0
 10
23.3369
 20
-3.5936
 30
0.0
 10
23.3369
 20
-3.5936
 30
0.0
 10
23.3369
 20
-3.5936
 30
0.0
 10
23.3369
 20
-3.5936
 30
0.0
 10
20.9883
 20
-4.3535
 30
0.0
 10
20.9883
 20
-4.3535
 30
0.0
 10
20.9883
 20
-4.3535
 30
0.0
 10
20.9883
 20
-4.3535
 30
0.0
 10
13.143
 20
12.8279
 30
0.0
 10
13.143
 20
12.8279
 30
0.0
 10
13.143
 20
12.8279
 30
0.0
 10
13.143
 20
12.8279
 30
0.0
 10
23.3369
 20
16.1264
 30
0.0
 10
23.3369
 20
16.1264
 30
0.0
  0
SPLINE
  5
82
330
1F
100
AcDbEntity
  8
layer 1
 62
     7
100
AcDbSpline
210
0.0
220
0.0
230
1.0
 70
    11
 71
     3
 72
    20
 73
    16
 74
     0
 42
0.0000000001
 43
0.0000000001
 12
1.0
 22
0.0
 32
0.0
 13
1.0
 23
0.0
 33
0.0
 40
0.0
 40
0.0
 40
0.0
 40
0.0
 40
0.2
 40
0.2
 40
0.2
 40
0.2
 40
0.4
 40
0.4
 40
0.4
 40
0.4
 40
0.6
 40
0.6
 40
0.6
 40
0.6
 40
1.0
 40
1.0
 40
1.0
 40
1.0
 10
23.3369
 20
-6.0067
 30
0.0
 10
23.3369
 20
-6.0067
 30
0.0
 10
23.3369
 20
-19.2086
 30
0.0
 10
23.3369
 20
-19.2086
 30
0.0
 10
23.3369
 20
-19.2086
 30
0.0
 10
23.3369
 20
-19.2086
 30
0.0
 10
20.8887
 20
-20.0008
 30
0.0
 10
20.8887
 20
-20.0008
 30
0.0
 10
20.8887
 20
-20.0008
 30
0.0
 10
20.8887
 20
-20.0008
 30
0.0
 10
11.3304
 20
-9.8917
 30
0.0
 10
11.3304
 20
-9.8917
 30
0.0
 10
11.3304
 20
-9.8917
 30
0.0
 10
11.3304
 20
-9.8917
 30
0.0
 10
23.3369
 20
-6.0067
 30
0.0
 10
23.3369
 20
-6.0067
 30
0.0
  0
SPLINE
  5
83
330
1F
100
AcDbEntity
  8
layer 1
 62
     7
100
AcDbSpline
210
0.0
220
0.0
230
1.0
 70
    11
 71
     3
 72
    20
 73
    16
 74
     0
 42
0.0000000001
 43
0.0000000001
 12
1.0
 22
0.0
 32
0.0
 13
1.0
 23
0.0
 33
0.0
 40
0.0
 40
0.0
 40
0.0
 40
0.0
 40
0.2
 40
0.2
 40
0.2
 40
0.2
 40
0.4
 40
0.4
 40
0.4
 40
0.4
 40
0.6
 40
0.6
 40
0.6
 40
0.6
 40
1.0
 40
1.0
 40
1.0
 40
1.0
 10
23.3369
 20
-21.6217
 30
0.0
 10
23.3369
 20
-21.6217
 30
0.0
 10
23.3369
 20
-31.8422
 30
0.0
 10
23.3369
 20
-31.8422
 30
0.0
 10
23.3369
 20
-31.8422
 30
0.0
 10
23.3369
 20
-31.8422
 30
0.0
 10
20.977
 20
-33.3763
 30
0.0
 10
20.977
 20
-33.3763
 30
0.0
 10
20.977
 20
-33.3763
 30
0.0
 10
20.977
 20
-33.3763
 30
0.0
 10
10.1547
 20
-25.8872
 30
0.0
 10
10.1547
 20
-25.8872
 30
0.0
 10
10.1547
 20
-25.8872
 30
0.0
 10
10.1547
 20
-25.8872
 30
0.0
 10
23.3369
 20
-21.6217
 30
0.0
 10
23.3369
 20
-21.6217
 30
0.0
  0
SPLINE
  5
84
330
1F
100
AcDbEntity
  8
layer 1
 62
     7
100
AcDbSpline
210
0.0
220
0.0
230
1.0
 70
    11
 71
     3
 72
    16
 73
    12
 74
     0
 42
0.0000000001
 43
0.0000000001
 12
1.0
 22
0.0
 32
0.0
 13
1.0
 23
0.0
 33
0.0
 40
0.0
 40
0.0
 40
0.0
 40
0.0
 40
0.25
 40
0.25
 40
0.25
 40
0.25
 40
0.5
 40
0.5
 40
0.5
 40
0.5
 40
1.0
 40
1.0
 40
1.0
 40
1.0
 10
23.3369
 20
-34.5766
 30
0.0
 10
23.3369
 20
-34.5766
 30
0.0
 10
23.3369
 20
-50.301
 30
0.0
 10
23.3369
 20
-50.301
 30
0.0
 10
23.3369
 20
-50.301
 30
0.0
 10
23.3369
 20
-50.301
 30
0.0
 10
14.0451
 20
-40.6167
 30
0.0
 10
14.0451
 20
-40.6167
 30
0.0
 10
14.0451
 20
-40.6167
 30
0.0
 10
14.0451
 20
-40.6167
 30
0.0
 10
23.3369
 20
-34.5766
 30
0.0
 10
23.3369
 20
-34.5766
 30
0.0
  0
SPLINE
  5
85
330
1F
100
AcDbEntity
  8
layer 1
 62
     7
100
AcDbSpline
210
0.0
220
0.0
230
1.0
 70
    11
 71
     3
 72
    20
 73
    16
 74
     0
 42
0.0000000001
 43
0.0000000001
 12
1.0
 22
0.0
 32
0.0
 13
1.0
 23
0.0
 33
0.0
 40
0.0
 40
0.0
 40
0.0
 40
0.0
 40
0.2
 40
0.2
 40
0.2
 40
0.2
 40
0.4
 40
0.4
 40
0.4
 40
0.4
 40
0.6
 40
0.6
 40
0.6
 40
0.6
 40
1.0
 40
1.0
 40
1.0
 40
1.0
 10
23.3369
 20
-53.6133
 30
0.0
 10
23.3369
 20
-53.6133
 30
0.0
 10
23.3369
 20
-61.2969
 30
0.0
 10
23.3369
 20
-61.2969
 30
0.0
 10
23.3369
 20
-61.2969
 30
0.0
 10
23.3369
 20
-61.2969
 30
0.0
 10
8.7278
 20
-62.0723
 30
0.0
 10
8.7278
 20
-62.0723
 30
0.0
 10
8.7278
 20
-62.0723
 30
0.0
 10
8.7278
 20
-62.0723
 30
0.0
 10
18.4932
 20
-48.5652
 30
0.0
 10
18.4932
 20
-48.5652
 30
0.0
 10
18.4932
 20
-48.5652
 30
0.0
 10
18.4932
 20
-48.5652
 30
0.0
 10
23.3369
 20
-53.6133
 30
0.0
 10
23.3369
 20
-53.6133
 30
0.0
  0
SPLINE
  5
86
330
1F
100
AcDbEntity
  8
layer 1
 62
     7
100
AcDbSpline
210
0.0
220
0.0
230
1.0
 70
    11
 71
     3
 72
    20
 73
    16
 74
     0
 42
0.0000000001
 43
0.0000000001
 12
1.0
 22
0.0
 32
0.0
 13
1.0
 23
0.0
 33
0.0
 40
0.0
 40
0.0
 40
0.0
 40
0.0
 40
0.2
 40
0.2
 40
0.2
 40
0.2
 40
0.4
 40
0.4
 40
0.4
 40
0.4
 40
0.6
 40
0.6
 40
0.6
 40
0.6
 40
1.0
 40
1.0
 40
1.0
 40
1.0
 10
23.3369
 20
-63.5946
 30
0.0
 10
23.3369
 20
-63.5946
 30
0.0
 10
23.3369
 20
-74.8941
 30
0.0
 10
23.3369
 20
-74.8941
 30
0.0
 10
23.3369
 20
-74.8941
 30
0.0
 10
23.3369
 20
-74.8941
 30
0.0
 10
16.7446
 20
-78.3662
 30
0.0
 10
16.7446
 20
-78.3662
 30
0.0
 10
16.7446
 20
-78.3662
 30
0.0
 10
16.7446
 20
-78.3662
 30
0.0
 10
12.131
 20
-64.1895
 30
0.0
 10
12.131
 20
-64.1895
 30
0.0
 10
12.131
 20
-64.1895
 30
0.0
 10
12.131
 20
-64.1895
 30
0.0
 10
23.3369
 20
-63.5946
 30
0.0
 10
23.3369
 20
-63.5946
 30
0.0
  0
SPLINE
  5
87
330
1F
100
AcDbEntity
  8
layer 1
 62
     7
100
AcDbSpline
210
0.0
220
0.0
230
1.0
 70
    11
 71
     3
 72
    16
 73
    12
 74
     0
 42
0.0000000001
 43
0.0000000001
 12
1.0
 22
0.0
 32
0.0
 13
1.0
 23
0.0
 33
0.0
 40
0.0
 40
0.0
 40
0.0
 40
0.0
 40
0.25
 40
0.25
 40
0.25
 40
0.25
 40
0.5
 40
0.5
 40
0.5
 40
0.5
 40
1.0
 40
1.0
 40
1.0
 40
1.0
 10
23.3369
 20
-77.4847
 30
0.0
 10
23.3369
 20
-77.4847
 30
0.0
 10
23.3369
 20
-97.6631
 30
0.0
 10
23.3369
 20
-97.6631
 30
0.0
 10
23.3369
 20
-97.6631
 30
0.0
 10
23.3369
 20
-97.6631
 30
0.0
 10
12.2036
 20
-83.3486
 30
0.0
 10
12.2036
 20
-83.3486
 30
0.0
 10
12.2036
 20
-83.3486
 30
0.0
 10
12.2036
 20
-83.3486
 30
0.0
 10
23.3369
 20
-77.4847
 30
0.0
 10
23.3369
 20
-77.4847
 30
0.0
  0
SPLINE
  5
88
330
1F
100
AcDbEntity
  8
layer 1
 62
     7
100
AcDbSpline
210
0.0
220
0.0
230
1.0
 70
    11
 71
     3
 72
    24
 73
    20
 74
     0
 42
0.0000000001
 43
0.0000000001
 12
1.0
 22
0.0
 32
0.0
 13
1.0
 23
0.0
 33
0.0
 40
0.0
 40
0.0
 40
0.0
 40
0.0
 40
0.1666666666666667
 40
0.1666666666666667
 40
0.1666666666666667
 40
0.1666666666666667
 40
0.3333333333333333
 40
0.3333333333333333
 40
0.3333333333333333
 40
0.3333333333333333
 40
0.5
 40
0.5
 40
0.5
 40
0.5
 40
0.6666666666666666
 40
0.6666666666666666
 40
0.6666666666666666
 40
0.6666666666666666
 40
1.0
 40
1.0
 40
1.0
 40
1.0
 10
23.3369
 20
-101.3974
 30
0.0
 10
23.3369
 20
-101.3974
 30
0.0
 10
23.3369
 20
-103.7594
 30
0.0
 10
23.3369
 20
-103.7594
 30
0.0
 10
23.3369
 20
-103.7594
 30
0.0
 10
23.3369
 20
-103.7594
 30
0.0
 10
6.3758
 20
-103.7594
 30
0.0
 10
6.3758
 20
-103.7594
 30
0.0
 10
6.3758
 20
-103.7594
 30
0.0
 10
6.3758
 20
-103.7594
 30
0.0
 10
-0.0619
 20
-96.1857
 30
0.0
 10
-0.0619
 20
-96.1857
 30
0.0
 10
-0.0619
 20
-96.1857
 30
0.0
 10
-0.0619
 20
-96.1857
 30
0.0
 10
17.2025
 20
-93.5101
 30
0.0
 10
17.2025
 20
-93.5101
 30
0.0
 10
17.2025
 20
-93.5101
 30
0.0
 10
17.2025
 20
-93.5101
 30
0.0
 10
23.3369
 20
-101.3974
 30
0.0
 10
23.3369
 20
-101.3974
 30
0.0
  0
SPLINE
  5
89
330
1F
100
AcDbEntity
  8
layer 1
 62
     7
100
AcDbSpline
210
0.0
220
0.0
230
1.0
 70
    11
 71
     3
 72
    20
 73
    16
 74
     0
 42
0.0000000001
 43
0.0000000001
 12
1.0
 22
0.0
 32
0.0
 13
1.0
 23
0.0
 33
0.0
 40
0.0
 40
0.0
 40
0.0
 40
0.0
 40
0.2
 40
0.2
 40
0.2
 40
0.2
 40
0.4
 40
0.4
 40
0.4
 40
0.4
 40
0.6
 40
0.6
 40
0.6
 40
0.6
 40
1.0
 40
1.0
 40
1.0
 40
1.0
 10
3.366
 20
-103.7594
 30
0.0
 10
3.366
 20
-103.7594
 30
0.0
 10
-7.2268
 20
-103.7594
 30
0.0
 10
-7.2268
 20
-103.7594
 30
0.0
 10
-7.2268
 20
-103.7594
 30
0.0
 10
-7.2268
 20
-103.7594
 30
0.0
 10
-11.6646
 20
-94.8644
 30
0.0
 10
-11.6646
 20
-94.8644
 30
0.0
 10
-11.6646
 20
-94.8644
 30
0.0
 10
-11.6646
 20
-94.8644
 30
0.0
 10
-7.0145
 20
-91.547
 30
0.0
 10
-7.0145
 20
-91.547
 30
0.0
 10
-7.0145
 20
-91.547
 30
0.0
 10
-7.0145
 20
-91.547
 30
0.0
 10
3.366
 20
-103.7594
 30
0.0
 10
3.366
 20
-103.7594
 30
0.0
  0
SPLINE
  5
8A
330
1F
100
AcDbEntity
  8
layer 1
 62
     7
100
AcDbSpline
210
0.0
220
0.0
230
1.0
 70
    11
 71
     3
 72
    20
 73
    16
 74
     0
 42
0.0000000001
 43
0.0000000001
 12
1.0
 22
0.0
 32
0.0
 13
1.0
 23
0.0
 33
0.0
 40
0.0
 40
0.0
 40
0.0
 40
0.0
 40
0.2
 40
0.2
 40
0.2
 40
0.2
 40
0.4
 40
0.4
 40
0.4
 40
0.4
 40
0.6
 40
0.6
 40
0.6
 40
0.6
 40
1.0
 40
1.0
 40
1.0
 40
1.0
 10
-9.7896
 20
-103.7594
 30
0.0
 10
-9.7896
 20
-103.7594
 30
0.0
 10
-19.9716
 20
-103.7594
 30
0.0
 10
-19.9716
 20
-103.7594
 30
0.0
 10
-19.9716
 20
-103.7594
 30
0.0
 10
-19.9716
 20
-103.7594
 30
0.0
 10
-19.9716
 20
-94.0542
 30
0.0
 10
-19.9716
 20
-94.0542
 30
0.0
 10
-19.9716
 20
-94.0542
 30
0.0
 10
-19.9716
 20
-94.0542
 30
0.0
 10
-16.9937
 20
-89.3199
 30
0.0
 10
-16.9937
 20
-89.3199
 30
0.0
 10
-16.9937
 20
-89.3199
 30
0.0
 10
-16.9937
 20
-89.3199
 30
0.0
 10
-9.7896
 20
-103.7594
 30
0.0
 10
-9.7896
 20
-103.7594
 30
0.0
  0
SPLINE
  5
8B
330
1F
100
AcDbEntity
  8
layer 1
 62
     7
100
AcDbSpline
210
0.0
220
0.0
230
1.0
 70
    11
 71
     3
 72
    20
 73
    16
 74
     0
 42
0.0000000001
 43
0.0000000001
 12
1.0
 22
0.0
 32
0.0
 13
1.0
 23
0.0
 33
0.0
 40
0.0
 40
0.0
 40
0.0
 40
0.0
 40
0.2
 40
0.2
 40
0.2
 40
0.2
 40
0.4
 40
0.4
 40
0.4
 40
0.4
 40
0.6
 40
0.6
 40
0.6
 40
0.6
 40
1.0
 40
1.0
 40
1.0
 40
1.0
 10
-19.9716
 20
-89.7687
 30
0.0
 10
-19.9716
 20
-89.7687
 30
0.0
 10
-19.9716
 20
-75.5785
 30
0.0
 10
-19.9716
 20
-75.5785
 30
0.0
 10
-19.9716
 20
-75.5785
 30
0.0
 10
-19.9716
 20
-75.5785
 30
0.0
 10
-16.3753
 20
-72.548
 30
0.0
 10
-16.3753
 20
-72.548
 30
0.0
 10
-16.3753
 20
-72.548
 30
0.0
 10
-16.3753
 20
-72.548
 30
0.0
 10
-11.9839
 20
-77.1247
 30
0.0
 10
-11.9839
 20
-77.1247
 30
0.0
 10
-11.9839
 20
-77.1247
 30
0.0
 10
-11.9839
 20
-77.1247
 30
0.0
 10
-19.9716
 20
-89.7687
 30
0.0
 10
-19.9716
 20
-89.7687
 30
0.0
  0
SPLINE
  5
8C
330
1F
100
AcDbEntity
  8
layer 1
 62
     7
100
AcDbSpline
210
0.0
220
0.0
230
1.0
 70
    11
 71
     3
 72
    20
 73
    16
 74
     0
 42
0.0000000001
 43
0.0000000001
 12
1.0
 22
0.0
 32
0.0
 13
1.0
 23
0.0
 33
0.0
 40
0.0
 40
0.0
 40
0.0
 40
0.0
 40
0.2
 40
0.2
 40
0.2
 40
0.2
 40
0.4
 40
0.4
 40
0.4
 40
0.4
 40
0.6
 40
0.6
 40
0.6
 40
0.6
 40
1.0
 40
1.0
 40
1.0
 40
1.0
 10
-19.9716
 20
-72.5804
 30
0.0
 10
-19.9716
 20
-72.5804
 30
0.0
 10
-19.9716
 20
-52.5753
 30
0.0
 10
-19.9716
 20
-52.5753
 30
0.0
 10
-19.9716
 20
-52.5753
 30
0.0
 10
-19.9716
 20
-52.5753
 30
0.0
 10
-16.9057
 20
-52.7129
 30
0.0
 10
-16.9057
 20
-52.7129
 30
0.0
 10
-16.9057
 20
-52.7129
 30
0.0
 10
-16.9057
 20
-52.7129
 30
0.0
 10
-9.4177
 20
-63.6869
 30
0.0
 10
-9.4177
 20
-63.6869
 30
0.0
 10
-9.4177
 20
-63.6869
 30
0.0
 10
-9.4177
 20
-63.6869
 30
0.0
 10
-19.9716
 20
-72.5804
 30
0.0
 10
-19.9716
 20
-72.5804
 30
0.0
  0
SPLINE
  5
8D
330
1F
100
AcDbEntity
  8
layer 1
 62
     7
100
AcDbSpline
210
0.0
220
0.0
230
1.0
 70
    11
 71
     3
 72
    16
 73
    12
 74
     0
 42
0.0000000001
 43
0.0000000001
 12
1.0
 22
0.0
 32
0.0
 13
1.0
 23
0.0
 33
0.0
 40
0.0
 40
0.0
 40
0.0
 40
0.0
 40
0.25
 40
0.25
 40
0.25
 40
0.25
 40
0.5
 40
0.5
 40
0.5
 40
0.5
 40
1.0
 40
1.0
 40
1.0
 40
1.0
 10
-19.9716
 20
-50.2802
 30
0.0
 10
-19.9716
 20
-50.2802
 30
0.0
 10
-19.9716
 20
-29.5063
 30
0.0
 10
-19.9716
 20
-29.5063
 30
0.0
 10
-19.9716
 20
-29.5063
 30
0.0
 10
-19.9716
 20
-29.5063
 30
0.0
 10
-11.73
 20
-50.6503
 30
0.0
 10
-11.73
 20
-50.6503
 30
0.0
 10
-11.73
 20
-50.6503
 30
0.0
 10
-11.73
 20
-50.6503
 30
0.0
 10
-19.9716
 20
-50.2802
 30
0.0
 10
-19.9716
 20
-50.2802
 30
0.0
  0
SPLINE
  5
8E
330
1F
100
AcDbEntity
  8
layer 1
 62
     7
100
AcDbSpline
210
0.0
220
0.0
230
1.0
 70
    11
 71
     3
 72
    20
 73
    16
 74
     0
 42
0.0000000001
 43
0.0000000001
 12
1.0
 22
0.0
 32
0.0
 13
1.0
 23
0.0
 33
0.0
 40
0.0
 40
0.0
 40
0.0
 40
0.0
 40
0.2
 40
0.2
 40
0.2
 40
0.2
 40
0.4
 40
0.4
 40
0.4
 40
0.4
 40
0.6
 40
0.6
 40
0.6
 40
0.6
 40
1.0
 40
1.0
 40
1.0
 40
1.0
 10
-19.9716
 20
-21.5632
 30
0.0
 10
-19.9716
 20
-21.5632
 30
0.0
 10
-19.9716
 20
-0.4306
 30
0.0
 10
-19.9716
 20
-0.4306
 30
0.0
 10
-19.9716
 20
-0.4306
 30
0.0
 10
-19.9716
 20
-0.4306
 30
0.0
 10
-11.1127
 20
-7.9335
 30
0.0
 10
-11.1127
 20
-7.9335
 30
0.0
 10
-11.1127
 20
-7.9335
 30
0.0
 10
-11.1127
 20
-7.9335
 30
0.0
 10
-14.5761
 20
-19.149
 30
0.0
 10
-14.5761
 20
-19.149
 30
0.0
 10
-14.5761
 20
-19.149
 30
0.0
 10
-14.5761
 20
-19.149
 30
0.0
 10
-19.9716
 20
-21.5632
 30
0.0
 10
-19.9716
 20
-21.5632
 30
0.0
  0
SPLINE
  5
8F
330
1F
100
AcDbEntity
  8
layer 1
 62
     7
100
AcDbSpline
210
0.0
220
0.0
230
1.0
 70
    11
 71
     3
 72
    20
 73
    16
 74
     0
 42
0.0000000001
 43
0.0000000001
 12
1.0
 22
0.0
 32
0.0
 13
1.0
 23
0.0
 33
0.0
 40
0.0
 40
0.0
 40
0.0
 40
0.0
 40
0.2
 40
0.2
 40
0.2
 40
0.2
 40
0.4
 40
0.4
 40
0.4
 40
0.4
 40
0.6
 40
0.6
 40
0.6
 40
0.6
 40
1.0
 40
1.0
 40
1.0
 40
1.0
 10
-19.9716
 20
2.578
 30
0.0
 10
-19.9716
 20
2.578
 30
0.0
 10
-19.9716
 20
15.5622
 30
0.0
 10
-19.9716
 20
15.5622
 30
0.0
 10
-19.9716
 20
15.5622
 30
0.0
 10
-19.9716
 20
15.5622
 30
0.0
 10
-6.5204
 20
14.185
 30
0.0
 10
-6.5204
 20
14.185
 30
0.0
 10
-6.5204
 20
14.185
 30
0.0
 10
-6.5204
 20
14.185
 30
0.0
 10
-17.0215
 20
0.0794
 30
0.0
 10
-17.0215
 20
0.0794
 30
0.0
 10
-17.0215
 20
0.0794
 30
0.0
 10
-17.0215
 20
0.0794
 30
0.0
 10
-19.9716
 20
2.578
 30
0.0
 10
-19.9716
 20
2.578
 30
0.0
  0
SPLINE
  5
90
330
1F
100
AcDbEntity
  8
layer 1
 62
     7
100
AcDbSpline
210
0.0
220
0.0
230
1.0
 70
    11
 71
     3
 72
    20
 73
    16
 74
     0
 42
0.0000000001
 43
0.0000000001
 12
1.0
 22
0.0
 32
0.0
 13
1.0
 23
0.0
 33
0.0
 40
0.0
 40
0.0
 40
0.0
 40
0.0
 40
0.2
 40
0.2
 40
0.2
 40
0.2
 40
0.4
 40
0.4
 40
0.4
 40
0.4
 40
0.6
 40
0.6
 40
0.6
 40
0.6
 40
1.0
 40
1.0
 40
1.0
 40
1.0
 10
-19.9716
 20
17.8693
 30
0.0
 10
-19.9716
 20
17.8693
 30
0.0
 10
-19.9716
 20
23.3122
 30
0.0
 10
-19.9716
 20
23.3122
 30
0.0
 10
-19.9716
 20
23.3122
 30
0.0
 10
-19.9716
 20
23.3122
 30
0.0
 10
-11.8658
 20
27.8476
 30
0.0
 10
-11.8658
 20
27.8476
 30
0.0
 10
-11.8658
 20
27.8476
 30
0.0
 10
-11.8658
 20
27.8476
 30
0.0
 10
-11.8214
 20
17.0349
 30
0.0
 10
-11.8214
 20
17.0349
 30
0.0
 10
-11.8214
 20
17.0349
 30
0.0
 10
-11.8214
 20
17.0349
 30
0.0
 10
-19.9716
 20
17.8693
 30
0.0
 10
-19.9716
 20
17.8693
 30
0.0
  0
SPLINE
  5
91
330
1F
100
AcDbEntity
  8
layer 1
 62
     7
100
AcDbSpline
210
0.0
220
0.0
230
1.0
 70
    11
 71
     3
 72
    20
 73
    16
 74
     0
 42
0.0000000001
 43
0.0000000001
 12
1.0
 22
0.0
 32
0.0
 13
1.0
 23
0.0
 33
0.0
 40
0.0
 40
0.0
 40
0.0
 40
0.0
 40
0.2
 40
0.2
 40
0.2
 40
0.2
 40
0.4
 40
0.4
 40
0.4
 40
0.4
 40
0.6
 40
0.6
 40
0.6
 40
0.6
 40
1.0
 40
1.0
 40
1.0
 40
1.0
 10
-19.9716
 20
25.9423
 30
0.0
 10
-19.9716
 20
25.9423
 30
0.0
 10
-19.9716
 20
35.3953
 30
0.0
 10
-19.9716
 20
35.3953
 30
0.0
 10
-19.9716
 20
35.3953
 30
0.0
 10
-19.9716
 20
35.3953
 30
0.0
 10
-7.9322
 20
39.5631
 30
0.0
 10
-7.9322
 20
39.5631
 30
0.0
 10
-7.9322
 20
39.5631
 30
0.0
 10
-7.9322
 20
39.5631
 30
0.0
 10
-5.5662
 20
34.0026
 30
0.0
 10
-5.5662
 20
34.0026
 30
0.0
 10
-5.5662
 20
34.0026
 30
0.0
 10
-5.5662
 20
34.0026
 30
0.0
 10
-19.9716
 20
25.9423
 30
0.0
 10
-19.9716
 20
25.9423
 30
0.0
  0
SPLINE
  5
92
330
1F
100
AcDbEntity
  8
layer 1
 62
     7
100
AcDbSpline
210
0.0
220
0.0
230
1.0
 70
    11
 71
     3
 72
    20
 73
    16
 74
     0
 42
0.0000000001
 43
0.0000000001
 12
1.0
 22
0.0
 32
0.0
 13
1.0
 23
0.0
 33
0.0
 40
0.0
 40
0.0
 40
0.0
 40
0.0
 40
0.2
 40
0.2
 40
0.2
 40
0.2
 40
0.4
 40
0.4
 40
0.4
 40
0.4
 40
0.6
 40
0.6
 40
0.6
 40
0.6
 40
1.0
 40
1.0
 40
1.0
 40
1.0
 10
-19.9716
 20
37.8215
 30
0.0
 10
-19.9716
 20
37.8215
 30
0.0
 10
-19.9716
 20
52.2808
 30
0.0
 10
-19.9716
 20
52.2808
 30
0.0
 10
-19.9716
 20
52.2808
 30
0.0
 10
-19.9716
 20
52.2808
 30
0.0
 10
-16.8078
 20
57.3105
 30
0.0
 10
-16.8078
 20
57.3105
 30
0.0
 10
-16.8078
 20
57.3105
 30
0.0
 10
-16.8078
 20
57.3105
 30
0.0
 10
-8.9824
 20
41.6256
 30
0.0
 10
-8.9824
 20
41.6256
 30
0.0
 10
-8.9824
 20
41.6256
 30
0.0
 10
-8.9824
 20
41.6256
 30
0.0
 10
-19.9716
 20
37.8215
 30
0.0
 10
-19.9716
 20
37.8215
 30
0.0
  0
SPLINE
  5
93
330
1F
100
AcDbEntity
  8
layer 1
 62
     7
100
AcDbSpline
210
0.0
220
0.0
230
1.0
 70
    11
 71
     3
 72
    20
 73
    16
 74
     0
 42
0.0000000001
 43
0.0000000001
 12
1.0
 22
0.0
 32
0.0
 13
1.0
 23
0.0
 33
0.0
 40
0.0
 40
0.0
 40
0.0
 40
0.0
 40
0.2
 40
0.2
 40
0.2
 40
0.2
 40
0.4
 40
0.4
 40
0.4
 40
0.4
 40
0.6
 40
0.6
 40
0.6
 40
0.6
 40
1.0
 40
1.0
 40
1.0
 40
1.0
 10
-19.9716
 20
56.5676
 30
0.0
 10
-19.9716
 20
56.5676
 30
0.0
 10
-19.9716
 20
70.8953
 30
0.0
 10
-19.9716
 20
70.8953
 30
0.0
 10
-19.9716
 20
70.8953
 30
0.0
 10
-19.9716
 20
70.8953
 30
0.0
 10
-16.1894
 20
74.0825
 30
0.0
 10
-16.1894
 20
74.0825
 30
0.0
 10
-16.1894
 20
74.0825
 30
0.0
 10
-16.1894
 20
74.0825
 30
0.0
 10
-11.798
 20
69.5057
 30
0.0
 10
-11.798
 20
69.5057
 30
0.0
 10
-11.798
 20
69.5057
 30
0.0
 10
-11.798
 20
69.5057
 30
0.0
 10
-19.9716
 20
56.5676
 30
0.0
 10
-19.9716
 20
56.5676
 30
0.0
  0
SPLINE
  5
94
330
1F
100
AcDbEntity
  8
layer 1
 62
     7
100
AcDbSpline
210
0.0
220
0.0
230
1.0
 70
    11
 71
     3
 72
    20
 73
    16
 74
     0
 42
0.0000000001
 43
0.0000000001
 12
1.0
 22
0.0
 32
0.0
 13
1.0
 23
0.0
 33
0.0
 40
0.0
 40
0.0
 40
0.0
 40
0.0
 40
0.2
 40
0.2
 40
0.2
 40
0.2
 40
0.4
 40
0.4
 40
0.4
 40
0.4
 40
0.6
 40
0.6
 40
0.6
 40
0.6
 40
1.0
 40
1.0
 40
1.0
 40
1.0
 10
-19.9716
 20
73.8934
 30
0.0
 10
-19.9716
 20
73.8934
 30
0.0
 10
-19.9716
 20
94.0635
 30
0.0
 10
-19.9716
 20
94.0635
 30
0.0
 10
-19.9716
 20
94.0635
 30
0.0
 10
-19.9716
 20
94.0635
 30
0.0
 10
-16.5698
 20
93.9107
 30
0.0
 10
-16.5698
 20
93.9107
 30
0.0
 10
-16.5698
 20
93.9107
 30
0.0
 10
-16.5698
 20
93.9107
 30
0.0
 10
-9.3661
 20
82.8304
 30
0.0
 10
-9.3661
 20
82.8304
 30
0.0
 10
-9.3661
 20
82.8304
 30
0.0
 10
-9.3661
 20
82.8304
 30
0.0
 10
-19.9716
 20
73.8934
 30
0.0
 10
-19.9716
 20
73.8934
 30
0.0
  0
SPLINE
  5
95
330
1F
100
AcDbEntity
  8
layer 1
 62
     7
100
AcDbSpline
210
0.0
220
0.0
230
1.0
 70
    11
 71
     3
 72
    16
 73
    12
 74
     0
 42
0.0000000001
 43
0.0000000001
 12
1.0
 22
0.0
 32
0.0
 13
1.0
 23
0.0
 33
0.0
 40
0.0
 40
0.0
 40
0.0
 40
0.0
 40
0.25
 40
0.25
 40
0.25
 40
0.25
 40
0.5
 40
0.5
 40
0.5
 40
0.5
 40
1.0
 40
1.0
 40
1.0
 40
1.0
 10
-19.9716
 20
96.3586
 30
0.0
 10
-19.9716
 20
96.3586
 30
0.0
 10
-19.9716
 20
117.6011
 30
0.0
 10
-19.9716
 20
117.6011
 30
0.0
 10
-19.9716
 20
117.6011
 30
0.0
 10
-19.9716
 20
117.6011
 30
0.0
 10
-11.544
 20
95.9802
 30
0.0
 10
-11.544
 20
95.9802
 30
0.0
 10
-11.544
 20
95.9802
 30
0.0
 10
-11.544
 20
95.9802
 30
0.0
 10
-19.9716
 20
96.3586
 30
0.0
 10
-19.9716
 20
96.3586
 30
0.0
  0
SPLINE
  5
96
330
1F
100
AcDbEntity
  8
layer 1
 62
     7
100
AcDbSpline
210
0.0
220
0.0
230
1.0
 70
    11
 71
     3
 72
    20
 73
    16
 74
     0
 42
0.0000000001
 43
0.0000000001
 12
1.0
 22
0.0
 32
0.0
 13
1.0
 23
0.0
 33
0.0
 40
0.0
 40
0.0
 40
0.0
 40
0.0
 40
0.2
 40
0.2
 40
0.2
 40
0.2
 40
0.4
 40
0.4
 40
0.4
 40
0.4
 40
0.6
 40
0.6
 40
0.6
 40
0.6
 40
1.0
 40
1.0
 40
1.0
 40
1.0
 10
-1.5007
 20
24.4486
 30
0.0
 10
-1.5007
 20
24.4486
 30
0.0
 10
-4.6622
 20
31.8782
 30
0.0
 10
-4.6622
 20
31.8782
 30
0.0
 10
-4.6622
 20
31.8782
 30
0.0
 10
-4.6622
 20
31.8782
 30
0.0
 10
-9.5769
 20
29.1282
 30
0.0
 10
-9.5769
 20
29.1282
 30
0.0
 10
-9.5769
 20
29.1282
 30
0.0
 10
-9.5769
 20
29.1282
 30
0.0
 10
-9.5566
 20
24.1674
 30
0.0
 10
-9.5566
 20
24.1674
 30
0.0
 10
-9.5566
 20
24.1674
 30
0.0
 10
-9.5566
 20
24.1674
 30
0.0
 10
-1.5007
 20
24.4486
 30
0.0
 10
-1.5007
 20
24.4486
 30
0.0
  0
SPLINE
  5
97
330
1F
100
AcDbEntity
  8
layer 1
 62
     7
100
AcDbSpline
210
0.0
220
0.0
230
1.0
 70
    11
 71
     3
 72
    20
 73
    16
 74
     0
 42
0.0000000001
 43
0.0000000001
 12
1.0
 22
0.0
 32
0.0
 13
1.0
 23
0.0
 33
0.0
 40
0.0
 40
0.0
 40
0.0
 40
0.0
 40
0.2
 40
0.2
 40
0.2
 40
0.2
 40
0.4
 40
0.4
 40
0.4
 40
0.4
 40
0.6
 40
0.6
 40
0.6
 40
0.6
 40
1.0
 40
1.0
 40
1.0
 40
1.0
 10
3.6098
 20
22.3304
 30
0.0
 10
3.6098
 20
22.3304
 30
0.0
 10
-9.5471
 20
21.8711
 30
0.0
 10
-9.5471
 20
21.8711
 30
0.0
 10
-9.5471
 20
21.8711
 30
0.0
 10
-9.5471
 20
21.8711
 30
0.0
 10
-9.5263
 20
16.7998
 30
0.0
 10
-9.5263
 20
16.7998
 30
0.0
 10
-9.5263
 20
16.7998
 30
0.0
 10
-9.5263
 20
16.7998
 30
0.0
 10
2.7646
 20
15.5416
 30
0.0
 10
2.7646
 20
15.5416
 30
0.0
 10
2.7646
 20
15.5416
 30
0.0
 10
2.7646
 20
15.5416
 30
0.0
 10
3.6098
 20
22.3304
 30
0.0
 10
3.6098
 20
22.3304
 30
0.0
  0
SPLINE
  5
98
330
1F
100
AcDbEntity
  8
layer 1
 62
     7
100
AcDbSpline
210
0.0
220
0.0
230
1.0
 70
    11
 71
     3
 72
    20
 73
    16
 74
     0
 42
0.0000000001
 43
0.0000000001
 12
1.0
 22
0.0
 32
0.0
 13
1.0
 23
0.0
 33
0.0
 40
0.0
 40
0.0
 40
0.0
 40
0.0
 40
0.2
 40
0.2
 40
0.2
 40
0.2
 40
0.4
 40
0.4
 40
0.4
 40
0.4
 40
0.6
 40
0.6
 40
0.6
 40
0.6
 40
1.0
 40
1.0
 40
1.0
 40
1.0
 10
-8.1127
 20
8.2018
 30
0.0
 10
-8.1127
 20
8.2018
 30
0.0
 10
1.346
 20
4.1488
 30
0.0
 10
1.346
 20
4.1488
 30
0.0
 10
1.346
 20
4.1488
 30
0.0
 10
1.346
 20
4.1488
 30
0.0
 10
2.481
 20
13.2635
 30
0.0
 10
2.481
 20
13.2635
 30
0.0
 10
2.481
 20
13.2635
 30
0.0
 10
2.481
 20
13.2635
 30
0.0
 10
-3.8611
 20
13.9129
 30
0.0
 10
-3.8611
 20
13.9129
 30
0.0
 10
-3.8611
 20
13.9129
 30
0.0
 10
-3.8611
 20
13.9129
 30
0.0
 10
-8.1127
 20
8.2018
 30
0.0
 10
-8.1127
 20
8.2018
 30
0.0
  0
SPLINE
  5
99
330
1F
100
AcDbEntity
  8
layer 1
 62
     7
100
AcDbSpline
210
0.0
220
0.0
230
1.0
 70
    11
 71
     3
 72
    20
 73
    16
 74
     0
 42
0.0000000001
 43
0.0000000001
 12
1.0
 22
0.0
 32
0.0
 13
1.0
 23
0.0
 33
0.0
 40
0.0
 40
0.0
 40
0.0
 40
0.0
 40
0.2
 40
0.2
 40
0.2
 40
0.2
 40
0.4
 40
0.4
 40
0.4
 40
0.4
 40
0.6
 40
0.6
 40
0.6
 40
0.6
 40
1.0
 40
1.0
 40
1.0
 40
1.0
 10
13.1961
 20
22.6651
 30
0.0
 10
13.1961
 20
22.6651
 30
0.0
 10
5.9329
 20
22.4115
 30
0.0
 10
5.9329
 20
22.4115
 30
0.0
 10
5.9329
 20
22.4115
 30
0.0
 10
5.9329
 20
22.4115
 30
0.0
 10
4.6998
 20
12.509
 30
0.0
 10
4.6998
 20
12.509
 30
0.0
 10
4.6998
 20
12.509
 30
0.0
 10
4.6998
 20
12.509
 30
0.0
 10
15.91
 20
16.1363
 30
0.0
 10
15.91
 20
16.1363
 30
0.0
 10
15.91
 20
16.1363
 30
0.0
 10
15.91
 20
16.1363
 30
0.0
 10
13.1961
 20
22.6651
 30
0.0
 10
13.1961
 20
22.6651
 30
0.0
  0
SPLINE
  5
9A
330
1F
100
AcDbEntity
  8
layer 1
 62
     7
100
AcDbSpline
210
0.0
220
0.0
230
1.0
 70
    11
 71
     3
 72
    24
 73
    20
 74
     0
 42
0.0000000001
 43
0.0000000001
 12
1.0
 22
0.0
 32
0.0
 13
1.0
 23
0.0
 33
0.0
 40
0.0
 40
0.0
 40
0.0
 40
0.0
 40
0.1666666666666667
 40
0.1666666666666667
 40
0.1666666666666667
 40
0.1666666666666667
 40
0.3333333333333333
 40
0.3333333333333333
 40
0.3333333333333333
 40
0.3333333333333333
 40
0.5
 40
0.5
 40
0.5
 40
0.5
 40
0.6666666666666666
 40
0.6666666666666666
 40
0.6666666666666666
 40
0.6666666666666666
 40
1.0
 40
1.0
 40
1.0
 40
1.0
 10
9.778
 20
30.8873
 30
0.0
 10
9.778
 20
30.8873
 30
0.0
 10
3.5322
 20
31.881
 30
0.0
 10
3.5322
 20
31.881
 30
0.0
 10
3.5322
 20
31.881
 30
0.0
 10
3.5322
 20
31.881
 30
0.0
 10
-0.6433
 20
28.2971
 30
0.0
 10
-0.6433
 20
28.2971
 30
0.0
 10
-0.6433
 20
28.2971
 30
0.0
 10
-0.6433
 20
28.2971
 30
0.0
 10
0.9578
 20
24.5346
 30
0.0
 10
0.9578
 20
24.5346
 30
0.0
 10
0.9578
 20
24.5346
 30
0.0
 10
0.9578
 20
24.5346
 30
0.0
 10
12.2551
 20
24.9288
 30
0.0
 10
12.2551
 20
24.9288
 30
0.0
 10
12.2551
 20
24.9288
 30
0.0
 10
12.2551
 20
24.9288
 30
0.0
 10
9.778
 20
30.8873
 30
0.0
 10
9.778
 20
30.8873
 30
0.0
  0
SPLINE
  5
9B
330
1F
100
AcDbEntity
  8
layer 1
 62
     7
100
AcDbSpline
210
0.0
220
0.0
230
1.0
 70
    11
 71
     3
 72
    16
 73
    12
 74
     0
 42
0.0000000001
 43
0.0000000001
 12
1.0
 22
0.0
 32
0.0
 13
1.0
 23
0.0
 33
0.0
 40
0.0
 40
0.0
 40
0.0
 40
0.0
 40
0.25
 40
0.25
 40
0.25
 40
0.25
 40
0.5
 40
0.5
 40
0.5
 40
0.5
 40
1.0
 40
1.0
 40
1.0
 40
1.0
 10
-6.8354
 20
107.4306
 30
0.0
 10
-6.8354
 20
107.4306
 30
0.0
 10
3.0866
 20
98.5172
 30
0.0
 10
3.0866
 20
98.5172
 30
0.0
 10
3.0866
 20
98.5172
 30
0.0
 10
3.0866
 20
98.5172
 30
0.0
 10
6.0546
 20
107.1137
 30
0.0
 10
6.0546
 20
107.1137
 30
0.0
 10
6.0546
 20
107.1137
 30
0.0
 10
6.0546
 20
107.1137
 30
0.0
 10
-6.8354
 20
107.4306
 30
0.0
 10
-6.8354
 20
107.4306
 30
0.0
  0
SPLINE
  5
9C
330
1F
100
AcDbEntity
  8
layer 1
 62
     7
100
AcDbSpline
210
0.0
220
0.0
230
1.0
 70
    11
 71
     3
 72
    20
 73
    16
 74
     0
 42
0.0000000001
 43
0.0000000001
 12
1.0
 22
0.0
 32
0.0
 13
1.0
 23
0.0
 33
0.0
 40
0.0
 40
0.0
 40
0.0
 40
0.0
 40
0.2
 40
0.2
 40
0.2
 40
0.2
 40
0.4
 40
0.4
 40
0.4
 40
0.4
 40
0.6
 40
0.6
 40
0.6
 40
0.6
 40
1.0
 40
1.0
 40
1.0
 40
1.0
 10
-0.801
 20
98.9255
 30
0.0
 10
-0.801
 20
98.9255
 30
0.0
 10
-2.0926
 20
83.9739
 30
0.0
 10
-2.0926
 20
83.9739
 30
0.0
 10
-2.0926
 20
83.9739
 30
0.0
 10
-2.0926
 20
83.9739
 30
0.0
 10
5.9725
 20
84.4019
 30
0.0
 10
5.9725
 20
84.4019
 30
0.0
 10
5.9725
 20
84.4019
 30
0.0
 10
5.9725
 20
84.4019
 30
0.0
 10
9.6712
 20
89.518
 30
0.0
 10
9.6712
 20
89.518
 30
0.0
 10
9.6712
 20
89.518
 30
0.0
 10
9.6712
 20
89.518
 30
0.0
 10
-0.801
 20
98.9255
 30
0.0
 10
-0.801
 20
98.9255
 30
0.0
  0
SPLINE
  5
9D
330
1F
100
AcDbEntity
  8
layer 1
 62
     7
100
AcDbSpline
210
0.0
220
0.0
230
1.0
 70
    11
 71
     3
 72
    16
 73
    12
 74
     0
 42
0.0000000001
 43
0.0000000001
 12
1.0
 22
0.0
 32
0.0
 13
1.0
 23
0.0
 33
0.0
 40
0.0
 40
0.0
 40
0.0
 40
0.0
 40
0.25
 40
0.25
 40
0.25
 40
0.25
 40
0.5
 40
0.5
 40
0.5
 40
0.5
 40
1.0
 40
1.0
 40
1.0
 40
1.0
 10
-13.75
 20
93.7842
 30
0.0
 10
-13.75
 20
93.7842
 30
0.0
 10
-4.7427
 20
79.9298
 30
0.0
 10
-4.7427
 20
79.9298
 30
0.0
 10
-4.7427
 20
79.9298
 30
0.0
 10
-4.7427
 20
79.9298
 30
0.0
 10
-3.5856
 20
93.328
 30
0.0
 10
-3.5856
 20
93.328
 30
0.0
 10
-3.5856
 20
93.328
 30
0.0
 10
-3.5856
 20
93.328
 30
0.0
 10
-13.75
 20
93.7842
 30
0.0
 10
-13.75
 20
93.7842
 30
0.0
  0
SPLINE
  5
9E
330
1F
100
AcDbEntity
  8
layer 1
 62
     7
100
AcDbSpline
210
0.0
220
0.0
230
1.0
 70
    11
 71
     3
 72
    20
 73
    16
 74
     0
 42
0.0000000001
 43
0.0000000001
 12
1.0
 22
0.0
 32
0.0
 13
1.0
 23
0.0
 33
0.0
 40
0.0
 40
0.0
 40
0.0
 40
0.0
 40
0.2
 40
0.2
 40
0.2
 40
0.2
 40
0.4
 40
0.4
 40
0.4
 40
0.4
 40
0.6
 40
0.6
 40
0.6
 40
0.6
 40
1.0
 40
1.0
 40
1.0
 40
1.0
 10
-1.0193
 20
31.1471
 30
0.0
 10
-1.0193
 20
31.1471
 30
0.0
 10
7.6181
 20
38.414
 30
0.0
 10
7.6181
 20
38.414
 30
0.0
 10
7.6181
 20
38.414
 30
0.0
 10
7.6181
 20
38.414
 30
0.0
 10
-6.8228
 20
55.0876
 30
0.0
 10
-6.8228
 20
55.0876
 30
0.0
 10
-6.8228
 20
55.0876
 30
0.0
 10
-6.8228
 20
55.0876
 30
0.0
 10
-11.4787
 20
51.766
 30
0.0
 10
-11.4787
 20
51.766
 30
0.0
 10
-11.4787
 20
51.766
 30
0.0
 10
-7.71
 20
44.2121
 30
0.0
 10
-4.9141
 20
38.9906
 30
0.0
 10
-1.0193
 20
31.1471
 30
0.0
  0
SPLINE
  5
9F
330
1F
100
AcDbEntity
  8
layer 1
 62
     7
100
AcDbSpline
210
0.0
220
0.0
230
1.0
 70
    11
 71
     3
 72
    20
 73
    16
 74
     0
 42
0.0000000001
 43
0.0000000001
 12
1.0
 22
0.0
 32
0.0
 13
1.0
 23
0.0
 33
0.0
 40
0.0
 40
0.0
 40
0.0
 40
0.0
 40
0.2
 40
0.2
 40
0.2
 40
0.2
 40
0.4
 40
0.4
 40
0.4
 40
0.4
 40
0.6
 40
0.6
 40
0.6
 40
0.6
 40
1.0
 40
1.0
 40
1.0
 40
1.0
 10
7.2373
 20
60.5682
 30
0.0
 10
7.2373
 20
60.5682
 30
0.0
 10
7.7815
 20
53.9516
 30
0.0
 10
7.7815
 20
53.9516
 30
0.0
 10
7.7815
 20
53.9516
 30
0.0
 10
7.7815
 20
53.9516
 30
0.0
 10
15.778
 20
55.1908
 30
0.0
 10
15.778
 20
55.1908
 30
0.0
 10
15.778
 20
55.1908
 30
0.0
 10
15.778
 20
55.1908
 30
0.0
 10
10.3292
 20
62.1967
 30
0.0
 10
10.3292
 20
62.1967
 30
0.0
 10
10.3292
 20
62.1967
 30
0.0
 10
10.3292
 20
62.1967
 30
0.0
 10
7.2373
 20
60.5682
 30
0.0
 10
7.2373
 20
60.5682
 30
0.0
  0
SPLINE
  5
A0
330
1F
100
AcDbEntity
  8
layer 1
 62
     7
100
AcDbSpline
210
0.0
220
0.0
230
1.0
 70
    11
 71
     3
 72
    20
 73
    16
 74
     0
 42
0.0000000001
 43
0.0000000001
 12
1.0
 22
0.0
 32
0.0
 13
1.0
 23
0.0
 33
0.0
 40
0.0
 40
0.0
 40
0.0
 40
0.0
 40
0.2
 40
0.2
 40
0.2
 40
0.2
 40
0.4
 40
0.4
 40
0.4
 40
0.4
 40
0.6
 40
0.6
 40
0.6
 40
0.6
 40
1.0
 40
1.0
 40
1.0
 40
1.0
 10
5.4682
 20
82.0775
 30
0.0
 10
5.4682
 20
82.0775
 30
0.0
 10
7.033
 20
63.0513
 30
0.0
 10
7.033
 20
63.0513
 30
0.0
 10
7.033
 20
63.0513
 30
0.0
 10
7.033
 20
63.0513
 30
0.0
 10
14.8729
 20
67.1805
 30
0.0
 10
14.8729
 20
67.1805
 30
0.0
 10
14.8729
 20
67.1805
 30
0.0
 10
14.8729
 20
67.1805
 30
0.0
 10
9.9477
 20
82.3153
 30
0.0
 10
9.9477
 20
82.3153
 30
0.0
 10
9.9477
 20
82.3153
 30
0.0
 10
9.9477
 20
82.3153
 30
0.0
 10
5.4682
 20
82.0775
 30
0.0
 10
5.4682
 20
82.0775
 30
0.0
  0
SPLINE
  5
A1
330
1F
100
AcDbEntity
  8
layer 1
 62
     7
100
AcDbSpline
210
0.0
220
0.0
230
1.0
 70
    11
 71
     3
 72
    20
 73
    16
 74
     0
 42
0.0000000001
 43
0.0000000001
 12
1.0
 22
0.0
 32
0.0
 13
1.0
 23
0.0
 33
0.0
 40
0.0
 40
0.0
 40
0.0
 40
0.0
 40
0.2
 40
0.2
 40
0.2
 40
0.2
 40
0.4
 40
0.4
 40
0.4
 40
0.4
 40
0.6
 40
0.6
 40
0.6
 40
0.6
 40
1.0
 40
1.0
 40
1.0
 40
1.0
 10
4.5132
 20
65.6928
 30
0.0
 10
4.5132
 20
65.6928
 30
0.0
 10
3.1756
 20
81.9558
 30
0.0
 10
3.1756
 20
81.9558
 30
0.0
 10
3.1756
 20
81.9558
 30
0.0
 10
3.1756
 20
81.9558
 30
0.0
 10
-2.292
 20
81.6655
 30
0.0
 10
-2.292
 20
81.6655
 30
0.0
 10
-2.292
 20
81.6655
 30
0.0
 10
-2.292
 20
81.6655
 30
0.0
 10
-2.7117
 20
76.8058
 30
0.0
 10
-2.7117
 20
76.8058
 30
0.0
 10
-2.7117
 20
76.8058
 30
0.0
 10
-2.7117
 20
76.8058
 30
0.0
 10
4.5132
 20
65.6928
 30
0.0
 10
4.5132
 20
65.6928
 30
0.0
  0
SPLINE
  5
A2
330
1F
100
AcDbEntity
  8
layer 1
 62
     7
100
AcDbSpline
210
0.0
220
0.0
230
1.0
 70
    11
 71
     3
 72
    20
 73
    16
 74
     0
 42
0.0000000001
 43
0.0000000001
 12
1.0
 22
0.0
 32
0.0
 13
1.0
 23
0.0
 33
0.0
 40
0.0
 40
0.0
 40
0.0
 40
0.0
 40
0.2
 40
0.2
 40
0.2
 40
0.2
 40
0.4
 40
0.4
 40
0.4
 40
0.4
 40
0.6
 40
0.6
 40
0.6
 40
0.6
 40
1.0
 40
1.0
 40
1.0
 40
1.0
 10
5.5078
 20
53.5991
 30
0.0
 10
5.5078
 20
53.5991
 30
0.0
 10
4.7089
 20
63.314
 30
0.0
 10
4.7089
 20
63.314
 30
0.0
 10
4.7089
 20
63.314
 30
0.0
 10
4.7089
 20
63.314
 30
0.0
 10
-4.9549
 20
56.4201
 30
0.0
 10
-4.9549
 20
56.4201
 30
0.0
 10
-4.9549
 20
56.4201
 30
0.0
 10
-4.9549
 20
56.4201
 30
0.0
 10
-1.6184
 20
52.4947
 30
0.0
 10
-1.6184
 20
52.4947
 30
0.0
 10
-1.6184
 20
52.4947
 30
0.0
 10
-1.6184
 20
52.4947
 30
0.0
 10
5.5078
 20
53.5991
 30
0.0
 10
5.5078
 20
53.5991
 30
0.0
  0
SPLINE
  5
A3
330
1F
100
AcDbEntity
  8
layer 1
 62
     7
100
AcDbSpline
210
0.0
220
0.0
230
1.0
 70
    11
 71
     3
 72
    24
 73
    20
 74
     0
 42
0.0000000001
 43
0.0000000001
 12
1.0
 22
0.0
 32
0.0
 13
1.0
 23
0.0
 33
0.0
 40
0.0
 40
0.0
 40
0.0
 40
0.0
 40
0.1666666666666667
 40
0.1666666666666667
 40
0.1666666666666667
 40
0.1666666666666667
 40
0.3333333333333333
 40
0.3333333333333333
 40
0.3333333333333333
 40
0.3333333333333333
 40
0.5
 40
0.5
 40
0.5
 40
0.5
 40
0.6666666666666666
 40
0.6666666666666666
 40
0.6666666666666666
 40
0.6666666666666666
 40
1.0
 40
1.0
 40
1.0
 40
1.0
 10
12.2736
 20
104.7413
 30
0.0
 10
12.2736
 20
104.7413
 30
0.0
 10
6.326
 20
100.875
 30
0.0
 10
6.326
 20
100.875
 30
0.0
 10
6.326
 20
100.875
 30
0.0
 10
6.326
 20
100.875
 30
0.0
 10
4.9378
 20
96.8542
 30
0.0
 10
4.9378
 20
96.8542
 30
0.0
 10
4.9378
 20
96.8542
 30
0.0
 10
4.9378
 20
96.8542
 30
0.0
 10
11.0231
 20
91.3878
 30
0.0
 10
11.0231
 20
91.3878
 30
0.0
 10
11.0231
 20
91.3878
 30
0.0
 10
11.0231
 20
91.3878
 30
0.0
 10
17.0661
 20
99.7464
 30
0.0
 10
17.0661
 20
99.7464
 30
0.0
 10
17.0661
 20
99.7464
 30
0.0
 10
17.0661
 20
99.7464
 30
0.0
 10
12.2736
 20
104.7413
 30
0.0
 10
12.2736
 20
104.7413
 30
0.0
  0
SPLINE
  5
A4
330
1F
100
AcDbEntity
  8
layer 1
 62
     7
100
AcDbSpline
210
0.0
220
0.0
230
1.0
 70
    11
 71
     3
 72
    20
 73
    16
 74
     0
 42
0.0000000001
 43
0.0000000001
 12
1.0
 22
0.0
 32
0.0
 13
1.0
 23
0.0
 33
0.0
 40
0.0
 40
0.0
 40
0.0
 40
0.0
 40
0.2
 40
0.2
 40
0.2
 40
0.2
 40
0.4
 40
0.4
 40
0.4
 40
0.4
 40
0.6
 40
0.6
 40
0.6
 40
0.6
 40
1.0
 40
1.0
 40
1.0
 40
1.0
 10
-1.2801
 20
61.856
 30
0.0
 10
-1.2801
 20
61.856
 30
0.0
 10
2.5115
 20
64.5609
 30
0.0
 10
2.5115
 20
64.5609
 30
0.0
 10
2.5115
 20
64.5609
 30
0.0
 10
2.5115
 20
64.5609
 30
0.0
 10
-8.1067
 20
80.8935
 30
0.0
 10
-8.1067
 20
80.8935
 30
0.0
 10
-8.1067
 20
80.8935
 30
0.0
 10
-8.1067
 20
80.8935
 30
0.0
 10
-14.4321
 20
75.5634
 30
0.0
 10
-14.4321
 20
75.5634
 30
0.0
 10
-14.4321
 20
75.5634
 30
0.0
 10
-14.4321
 20
75.5634
 30
0.0
 10
-1.2801
 20
61.856
 30
0.0
 10
-1.2801
 20
61.856
 30
0.0
  0
SPLINE
  5
A5
330
1F
100
AcDbEntity
  8
layer 1
 62
     7
100
AcDbSpline
210
0.0
220
0.0
230
1.0
 70
    11
 71
     3
 72
    20
 73
    16
 74
     0
 42
0.0000000001
 43
0.0000000001
 12
1.0
 22
0.0
 32
0.0
 13
1.0
 23
0.0
 33
0.0
 40
0.0
 40
0.0
 40
0.0
 40
0.0
 40
0.2
 40
0.2
 40
0.2
 40
0.2
 40
0.4
 40
0.4
 40
0.4
 40
0.4
 40
0.6
 40
0.6
 40
0.6
 40
0.6
 40
1.0
 40
1.0
 40
1.0
 40
1.0
 10
-10.164
 20
67.8026
 30
0.0
 10
-10.164
 20
67.8026
 30
0.0
 10
-15.3744
 20
59.5742
 30
0.0
 10
-15.3744
 20
59.5742
 30
0.0
 10
-15.3744
 20
59.5742
 30
0.0
 10
-15.3744
 20
59.5742
 30
0.0
 10
-12.5143
 20
53.8415
 30
0.0
 10
-12.5143
 20
53.8415
 30
0.0
 10
-12.5143
 20
53.8415
 30
0.0
 10
-12.5143
 20
53.8415
 30
0.0
 10
-3.1668
 20
60.51
 30
0.0
 10
-3.1668
 20
60.51
 30
0.0
 10
-3.1668
 20
60.51
 30
0.0
 10
-3.1668
 20
60.51
 30
0.0
 10
-10.164
 20
67.8026
 30
0.0
 10
-10.164
 20
67.8026
 30
0.0
  0
SPLINE
  5
A6
330
1F
100
AcDbEntity
  8
layer 1
 62
     7
100
AcDbSpline
210
0.0
220
0.0
230
1.0
 70
    11
 71
     3
 72
    24
 73
    20
 74
     0
 42
0.0000000001
 43
0.0000000001
 12
1.0
 22
0.0
 32
0.0
 13
1.0
 23
0.0
 33
0.0
 40
0.0
 40
0.0
 40
0.0
 40
0.0
 40
0.1666666666666667
 40
0.1666666666666667
 40
0.1666666666666667
 40
0.1666666666666667
 40
0.3333333333333333
 40
0.3333333333333333
 40
0.3333333333333333
 40
0.3333333333333333
 40
0.5
 40
0.5
 40
0.5
 40
0.5
 40
0.6666666666666666
 40
0.6666666666666666
 40
0.6666666666666666
 40
0.6666666666666666
 40
1.0
 40
1.0
 40
1.0
 40
1.0
 10
10.9455
 20
12.1168
 30
0.0
 10
10.9455
 20
12.1168
 30
0.0
 10
4.3868
 20
9.9946
 30
0.0
 10
4.3868
 20
9.9946
 30
0.0
 10
4.3868
 20
9.9946
 30
0.0
 10
4.3868
 20
9.9946
 30
0.0
 10
3.5418
 20
3.2081
 30
0.0
 10
3.5418
 20
3.2081
 30
0.0
 10
3.5418
 20
3.2081
 30
0.0
 10
3.5418
 20
3.2081
 30
0.0
 10
8.2762
 20
1.1794
 30
0.0
 10
8.2762
 20
1.1794
 30
0.0
 10
8.2762
 20
1.1794
 30
0.0
 10
8.2762
 20
1.1794
 30
0.0
 10
13.8333
 20
5.7924
 30
0.0
 10
13.8333
 20
5.7924
 30
0.0
 10
13.8333
 20
5.7924
 30
0.0
 10
13.8333
 20
5.7924
 30
0.0
 10
10.9455
 20
12.1168
 30
0.0
 10
10.9455
 20
12.1168
 30
0.0
  0
SPLINE
  5
A7
330
1F
100
AcDbEntity
  8
layer 1
 62
     7
100
AcDbSpline
210
0.0
220
0.0
230
1.0
 70
    11
 71
     3
 72
    20
 73
    16
 74
     0
 42
0.0000000001
 43
0.0000000001
 12
1.0
 22
0.0
 32
0.0
 13
1.0
 23
0.0
 33
0.0
 40
0.0
 40
0.0
 40
0.0
 40
0.0
 40
0.2
 40
0.2
 40
0.2
 40
0.2
 40
0.4
 40
0.4
 40
0.4
 40
0.4
 40
0.6
 40
0.6
 40
0.6
 40
0.6
 40
1.0
 40
1.0
 40
1.0
 40
1.0
 10
-7.0427
 20
5.2468
 30
0.0
 10
-7.0427
 20
5.2468
 30
0.0
 10
-9.5218
 20
6.3091
 30
0.0
 10
-9.5218
 20
6.3091
 30
0.0
 10
-9.5218
 20
6.3091
 30
0.0
 10
-9.5218
 20
6.3091
 30
0.0
 10
-15.2661
 20
-1.4071
 30
0.0
 10
-15.2661
 20
-1.4071
 30
0.0
 10
-15.2661
 20
-1.4071
 30
0.0
 10
-15.2661
 20
-1.4071
 30
0.0
 10
-10.3763
 20
-5.5486
 30
0.0
 10
-10.3763
 20
-5.5486
 30
0.0
 10
-10.3763
 20
-5.5486
 30
0.0
 10
-10.3763
 20
-5.5486
 30
0.0
 10
-7.0427
 20
5.2468
 30
0.0
 10
-7.0427
 20
5.2468
 30
0.0
  0
SPLINE
  5
A8
330
1F
100
AcDbEntity
  8
layer 1
 62
     7
100
AcDbSpline
210
0.0
220
0.0
230
1.0
 70
    11
 71
     3
 72
    20
 73
    16
 74
     0
 42
0.0000000001
 43
0.0000000001
 12
1.0
 22
0.0
 32
0.0
 13
1.0
 23
0.0
 33
0.0
 40
0.0
 40
0.0
 40
0.0
 40
0.0
 40
0.2
 40
0.2
 40
0.2
 40
0.2
 40
0.4
 40
0.4
 40
0.4
 40
0.4
 40
0.6
 40
0.6
 40
0.6
 40
0.6
 40
1.0
 40
1.0
 40
1.0
 40
1.0
 10
-1.7433
 20
-7.1379
 30
0.0
 10
-1.7433
 20
-7.1379
 30
0.0
 10
6.2926
 20
-0.4672
 30
0.0
 10
6.2926
 20
-0.4672
 30
0.0
 10
6.2926
 20
-0.4672
 30
0.0
 10
6.2926
 20
-0.4672
 30
0.0
 10
-4.9212
 20
4.3378
 30
0.0
 10
-4.9212
 20
4.3378
 30
0.0
 10
-4.9212
 20
4.3378
 30
0.0
 10
-4.9212
 20
4.3378
 30
0.0
 10
-6.6407
 20
-1.2301
 30
0.0
 10
-6.6407
 20
-1.2301
 30
0.0
 10
-6.6407
 20
-1.2301
 30
0.0
 10
-6.6407
 20
-1.2301
 30
0.0
 10
-1.7433
 20
-7.1379
 30
0.0
 10
-1.7433
 20
-7.1379
 30
0.0
  0
SPLINE
  5
A9
330
1F
100
AcDbEntity
  8
layer 1
 62
     7
100
AcDbSpline
210
0.0
220
0.0
230
1.0
 70
    11
 71
     3
 72
    16
 73
    12
 74
     0
 42
0.0000000001
 43
0.0000000001
 12
1.0
 22
0.0
 32
0.0
 13
1.0
 23
0.0
 33
0.0
 40
0.0
 40
0.0
 40
0.0
 40
0.0
 40
0.25
 40
0.25
 40
0.25
 40
0.25
 40
0.5
 40
0.5
 40
0.5
 40
0.5
 40
1.0
 40
1.0
 40
1.0
 40
1.0
 10
-0.1267
 20
-12.6839
 30
0.0
 10
-0.1267
 20
-12.6839
 30
0.0
 10
-7.4497
 20
-3.8501
 30
0.0
 10
-7.4497
 20
-3.8501
 30
0.0
 10
-7.4497
 20
-3.8501
 30
0.0
 10
-7.4497
 20
-3.8501
 30
0.0
 10
-11.789
 20
-17.902
 30
0.0
 10
-11.789
 20
-17.902
 30
0.0
 10
-11.789
 20
-17.902
 30
0.0
 10
-11.789
 20
-17.902
 30
0.0
 10
-0.1267
 20
-12.6839
 30
0.0
 10
-0.1267
 20
-12.6839
 30
0.0
  0
SPLINE
  5
AA
330
1F
100
AcDbEntity
  8
layer 1
 62
     7
100
AcDbSpline
210
0.0
220
0.0
230
1.0
 70
    11
 71
     3
 72
    20
 73
    16
 74
     0
 42
0.0000000001
 43
0.0000000001
 12
1.0
 22
0.0
 32
0.0
 13
1.0
 23
0.0
 33
0.0
 40
0.0
 40
0.0
 40
0.0
 40
0.0
 40
0.2
 40
0.2
 40
0.2
 40
0.2
 40
0.4
 40
0.4
 40
0.4
 40
0.4
 40
0.6
 40
0.6
 40
0.6
 40
0.6
 40
1.0
 40
1.0
 40
1.0
 40
1.0
 10
4.3634
 20
-18.1005
 30
0.0
 10
4.3634
 20
-18.1005
 30
0.0
 10
1.3937
 20
-14.5181
 30
0.0
 10
1.3937
 20
-14.5181
 30
0.0
 10
1.3937
 20
-14.5181
 30
0.0
 10
1.3937
 20
-14.5181
 30
0.0
 10
-8.2022
 20
-18.8116
 30
0.0
 10
-8.2022
 20
-18.8116
 30
0.0
 10
-8.2022
 20
-18.8116
 30
0.0
 10
-8.2022
 20
-18.8116
 30
0.0
 10
-6.4536
 20
-25.329
 30
0.0
 10
-6.4536
 20
-25.329
 30
0.0
 10
-6.4536
 20
-25.329
 30
0.0
 10
-6.4536
 20
-25.329
 30
0.0
 10
4.3634
 20
-18.1005
 30
0.0
 10
4.3634
 20
-18.1005
 30
0.0
  0
SPLINE
  5
AB
330
1F
100
AcDbEntity
  8
layer 1
 62
     7
100
AcDbSpline
210
0.0
220
0.0
230
1.0
 70
    11
 71
     3
 72
    16
 73
    12
 74
     0
 42
0.0000000001
 43
0.0000000001
 12
1.0
 22
0.0
 32
0.0
 13
1.0
 23
0.0
 33
0.0
 40
0.0
 40
0.0
 40
0.0
 40
0.0
 40
0.25
 40
0.25
 40
0.25
 40
0.25
 40
0.5
 40
0.5
 40
0.5
 40
0.5
 40
1.0
 40
1.0
 40
1.0
 40
1.0
 10
7.3572
 20
-42.2299
 30
0.0
 10
7.3572
 20
-42.2299
 30
0.0
 10
18.8975
 20
-34.7281
 30
0.0
 10
18.8975
 20
-34.7281
 30
0.0
 10
18.8975
 20
-34.7281
 30
0.0
 10
18.8975
 20
-34.7281
 30
0.0
 10
11.6731
 20
-29.7287
 30
0.0
 10
11.6731
 20
-29.7287
 30
0.0
 10
11.6731
 20
-29.7287
 30
0.0
 10
11.6731
 20
-29.7287
 30
0.0
 10
7.3572
 20
-42.2299
 30
0.0
 10
7.3572
 20
-42.2299
 30
0.0
  0
SPLINE
  5
AC
330
1F
100
AcDbEntity
  8
layer 1
 62
     7
100
AcDbSpline
210
0.0
220
0.0
230
1.0
 70
    11
 71
     3
 72
    20
 73
    16
 74
     0
 42
0.0000000001
 43
0.0000000001
 12
1.0
 22
0.0
 32
0.0
 13
1.0
 23
0.0
 33
0.0
 40
0.0
 40
0.0
 40
0.0
 40
0.0
 40
0.2
 40
0.2
 40
0.2
 40
0.2
 40
0.4
 40
0.4
 40
0.4
 40
0.4
 40
0.6
 40
0.6
 40
0.6
 40
0.6
 40
1.0
 40
1.0
 40
1.0
 40
1.0
 10
-5.713
 20
-36.9367
 30
0.0
 10
-5.713
 20
-36.9367
 30
0.0
 10
-10.3215
 20
-19.7599
 30
0.0
 10
-10.3215
 20
-19.7599
 30
0.0
 10
-10.3215
 20
-19.7599
 30
0.0
 10
-10.3215
 20
-19.7599
 30
0.0
 10
-19.6778
 20
-23.9462
 30
0.0
 10
-19.6778
 20
-23.9462
 30
0.0
 10
-19.6778
 20
-23.9462
 30
0.0
 10
-19.6778
 20
-23.9462
 30
0.0
 10
-14.7003
 20
-36.716
 30
0.0
 10
-14.7003
 20
-36.716
 30
0.0
 10
-14.7003
 20
-36.716
 30
0.0
 10
-14.7003
 20
-36.716
 30
0.0
 10
-5.713
 20
-36.9367
 30
0.0
 10
-5.713
 20
-36.9367
 30
0.0
  0
SPLINE
  5
AD
330
1F
100
AcDbEntity
  8
layer 1
 62
     7
100
AcDbSpline
210
0.0
220
0.0
230
1.0
 70
    11
 71
     3
 72
    24
 73
    20
 74
     0
 42
0.0000000001
 43
0.0000000001
 12
1.0
 22
0.0
 32
0.0
 13
1.0
 23
0.0
 33
0.0
 40
0.0
 40
0.0
 40
0.0
 40
0.0
 40
0.1666666666666667
 40
0.1666666666666667
 40
0.1666666666666667
 40
0.1666666666666667
 40
0.3333333333333333
 40
0.3333333333333333
 40
0.3333333333333333
 40
0.3333333333333333
 40
0.5
 40
0.5
 40
0.5
 40
0.5
 40
0.6666666666666666
 40
0.6666666666666666
 40
0.6666666666666666
 40
0.6666666666666666
 40
1.0
 40
1.0
 40
1.0
 40
1.0
 10
6.6544
 20
-37.2406
 30
0.0
 10
6.6544
 20
-37.2406
 30
0.0
 10
9.7155
 20
-28.374
 30
0.0
 10
9.7155
 20
-28.374
 30
0.0
 10
9.7155
 20
-28.374
 30
0.0
 10
9.7155
 20
-28.374
 30
0.0
 10
1.5614
 20
-22.7314
 30
0.0
 10
1.5614
 20
-22.7314
 30
0.0
 10
1.5614
 20
-22.7314
 30
0.0
 10
1.5614
 20
-22.7314
 30
0.0
 10
-5.8259
 20
-27.6681
 30
0.0
 10
-5.8259
 20
-27.6681
 30
0.0
 10
-5.8259
 20
-27.6681
 30
0.0
 10
-5.8259
 20
-27.6681
 30
0.0
 10
-3.3235
 20
-36.9954
 30
0.0
 10
-3.3235
 20
-36.9954
 30
0.0
 10
-3.3235
 20
-36.9954
 30
0.0
 10
-3.3235
 20
-36.9954
 30
0.0
 10
6.6544
 20
-37.2406
 30
0.0
 10
6.6544
 20
-37.2406
 30
0.0
  0
SPLINE
  5
AE
330
1F
100
AcDbEntity
  8
layer 1
 62
     7
100
AcDbSpline
210
0.0
220
0.0
230
1.0
 70
    11
 71
     3
 72
    16
 73
    12
 74
     0
 42
0.0000000001
 43
0.0000000001
 12
1.0
 22
0.0
 32
0.0
 13
1.0
 23
0.0
 33
0.0
 40
0.0
 40
0.0
 40
0.0
 40
0.0
 40
0.25
 40
0.25
 40
0.25
 40
0.25
 40
0.5
 40
0.5
 40
0.5
 40
0.5
 40
1.0
 40
1.0
 40
1.0
 40
1.0
 10
2.9008
 20
-48.1133
 30
0.0
 10
2.9008
 20
-48.1133
 30
0.0
 10
5.8687
 20
-39.5166
 30
0.0
 10
5.8687
 20
-39.5166
 30
0.0
 10
5.8687
 20
-39.5166
 30
0.0
 10
5.8687
 20
-39.5166
 30
0.0
 10
-7.0213
 20
-39.1999
 30
0.0
 10
-7.0213
 20
-39.1999
 30
0.0
 10
-7.0213
 20
-39.1999
 30
0.0
 10
-7.0213
 20
-39.1999
 30
0.0
 10
2.9008
 20
-48.1133
 30
0.0
 10
2.9008
 20
-48.1133
 30
0.0
  0
SPLINE
  5
AF
330
1F
100
AcDbEntity
  8
layer 1
 62
     7
100
AcDbSpline
210
0.0
220
0.0
230
1.0
 70
    11
 71
     3
 72
    28
 73
    24
 74
     0
 42
0.0000000001
 43
0.0000000001
 12
1.0
 22
0.0
 32
0.0
 13
1.0
 23
0.0
 33
0.0
 40
0.0
 40
0.0
 40
0.0
 40
0.0
 40
0.1428571428571428
 40
0.1428571428571428
 40
0.1428571428571428
 40
0.1428571428571428
 40
0.2857142857142857
 40
0.2857142857142857
 40
0.2857142857142857
 40
0.2857142857142857
 40
0.4285714285714285
 40
0.4285714285714285
 40
0.4285714285714285
 40
0.4285714285714285
 40
0.5714285714285714
 40
0.5714285714285714
 40
0.5714285714285714
 40
0.5714285714285714
 40
0.7142857142857143
 40
0.7142857142857143
 40
0.7142857142857143
 40
0.7142857142857143
 40
1.0
 40
1.0
 40
1.0
 40
1.0
 10
-3.5739
 20
-51.0163
 30
0.0
 10
-3.5739
 20
-51.0163
 30
0.0
 10
-3.1223
 20
-45.7868
 30
0.0
 10
-3.1223
 20
-45.7868
 30
0.0
 10
-3.1223
 20
-45.7868
 30
0.0
 10
-3.1223
 20
-45.7868
 30
0.0
 10
-10.496
 20
-39.1628
 30
0.0
 10
-10.496
 20
-39.1628
 30
0.0
 10
-10.496
 20
-39.1628
 30
0.0
 10
-10.496
 20
-39.1628
 30
0.0
 10
-10.4505
 20
-39.1158
 30
0.0
 10
-10.4505
 20
-39.1158
 30
0.0
 10
-10.4505
 20
-39.1158
 30
0.0
 10
-10.4505
 20
-39.1158
 30
0.0
 10
-13.7969
 20
-39.0335
 30
0.0
 10
-13.7969
 20
-39.0335
 30
0.0
 10
-13.7969
 20
-39.0335
 30
0.0
 10
-13.7969
 20
-39.0335
 30
0.0
 10
-9.225
 20
-50.7626
 30
0.0
 10
-9.225
 20
-50.7626
 30
0.0
 10
-9.225
 20
-50.7626
 30
0.0
 10
-9.225
 20
-50.7626
 30
0.0
 10
-3.5739
 20
-51.0163
 30
0.0
 10
-3.5739
 20
-51.0163
 30
0.0
  0
SPLINE
  5
B0
330
1F
100
AcDbEntity
  8
layer 1
 62
     7
100
AcDbSpline
210
0.0
220
0.0
230
1.0
 70
    11
 71
     3
 72
    20
 73
    16
 74
     0
 42
0.0000000001
 43
0.0000000001
 12
1.0
 22
0.0
 32
0.0
 13
1.0
 23
0.0
 33
0.0
 40
0.0
 40
0.0
 40
0.0
 40
0.0
 40
0.2
 40
0.2
 40
0.2
 40
0.2
 40
0.4
 40
0.4
 40
0.4
 40
0.4
 40
0.6
 40
0.6
 40
0.6
 40
0.6
 40
1.0
 40
1.0
 40
1.0
 40
1.0
 10
13.0528
 20
-15.0522
 30
0.0
 10
13.0528
 20
-15.0522
 30
0.0
 10
3.6131
 20
-21.3604
 30
0.0
 10
3.6131
 20
-21.3604
 30
0.0
 10
3.6131
 20
-21.3604
 30
0.0
 10
3.6131
 20
-21.3604
 30
0.0
 10
7.7787
 20
-24.2429
 30
0.0
 10
7.7787
 20
-24.2429
 30
0.0
 10
7.7787
 20
-24.2429
 30
0.0
 10
7.7787
 20
-24.2429
 30
0.0
 10
18.4712
 20
-20.783
 30
0.0
 10
18.4712
 20
-20.783
 30
0.0
 10
18.4712
 20
-20.783
 30
0.0
 10
18.4712
 20
-20.783
 30
0.0
 10
13.0528
 20
-15.0522
 30
0.0
 10
13.0528
 20
-15.0522
 30
0.0
  0
SPLINE
  5
B1
330
1F
100
AcDbEntity
  8
layer 1
 62
     7
100
AcDbSpline
210
0.0
220
0.0
230
1.0
 70
    11
 71
     3
 72
    20
 73
    16
 74
     0
 42
0.0000000001
 43
0.0000000001
 12
1.0
 22
0.0
 32
0.0
 13
1.0
 23
0.0
 33
0.0
 40
0.0
 40
0.0
 40
0.0
 40
0.0
 40
0.2
 40
0.2
 40
0.2
 40
0.2
 40
0.4
 40
0.4
 40
0.4
 40
0.4
 40
0.6
 40
0.6
 40
0.6
 40
0.6
 40
1.0
 40
1.0
 40
1.0
 40
1.0
 10
3.9333
 20
-5.4073
 30
0.0
 10
3.9333
 20
-5.4073
 30
0.0
 10
-0.2792
 20
-8.9041
 30
0.0
 10
-0.2792
 20
-8.9041
 30
0.0
 10
-0.2792
 20
-8.9041
 30
0.0
 10
-0.2792
 20
-8.9041
 30
0.0
 10
6.2817
 20
-16.8186
 30
0.0
 10
6.2817
 20
-16.8186
 30
0.0
 10
6.2817
 20
-16.8186
 30
0.0
 10
6.2817
 20
-16.8186
 30
0.0
 10
11.4545
 20
-13.3618
 30
0.0
 10
11.4545
 20
-13.3618
 30
0.0
 10
11.4545
 20
-13.3618
 30
0.0
 10
11.4545
 20
-13.3618
 30
0.0
 10
3.9333
 20
-5.4073
 30
0.0
 10
3.9333
 20
-5.4073
 30
0.0
  0
SPLINE
  5
B2
330
1F
100
AcDbEntity
  8
layer 1
 62
     7
100
AcDbSpline
210
0.0
220
0.0
230
1.0
 70
    11
 71
     3
 72
    20
 73
    16
 74
     0
 42
0.0000000001
 43
0.0000000001
 12
1.0
 22
0.0
 32
0.0
 13
1.0
 23
0.0
 33
0.0
 40
0.0
 40
0.0
 40
0.0
 40
0.0
 40
0.2
 40
0.2
 40
0.2
 40
0.2
 40
0.4
 40
0.4
 40
0.4
 40
0.4
 40
0.6
 40
0.6
 40
0.6
 40
0.6
 40
1.0
 40
1.0
 40
1.0
 40
1.0
 10
9.5833
 20
-8.044
 30
0.0
 10
9.5833
 20
-8.044
 30
0.0
 10
18.7908
 20
-5.0646
 30
0.0
 10
18.7908
 20
-5.0646
 30
0.0
 10
18.7908
 20
-5.0646
 30
0.0
 10
18.7908
 20
-5.0646
 30
0.0
 10
14.8205
 20
3.6304
 30
0.0
 10
14.8205
 20
3.6304
 30
0.0
 10
14.8205
 20
3.6304
 30
0.0
 10
14.8205
 20
3.6304
 30
0.0
 10
5.7021
 20
-3.939
 30
0.0
 10
5.7021
 20
-3.939
 30
0.0
 10
5.7021
 20
-3.939
 30
0.0
 10
5.7021
 20
-3.939
 30
0.0
 10
9.5833
 20
-8.044
 30
0.0
 10
9.5833
 20
-8.044
 30
0.0
  0
SPLINE
  5
B3
330
1F
100
AcDbEntity
  8
layer 1
 62
     7
100
AcDbSpline
210
0.0
220
0.0
230
1.0
 70
    11
 71
     3
 72
    24
 73
    20
 74
     0
 42
0.0000000001
 43
0.0000000001
 12
1.0
 22
0.0
 32
0.0
 13
1.0
 23
0.0
 33
0.0
 40
0.0
 40
0.0
 40
0.0
 40
0.0
 40
0.1666666666666667
 40
0.1666666666666667
 40
0.1666666666666667
 40
0.1666666666666667
 40
0.3333333333333333
 40
0.3333333333333333
 40
0.3333333333333333
 40
0.3333333333333333
 40
0.5
 40
0.5
 40
0.5
 40
0.5
 40
0.6666666666666666
 40
0.6666666666666666
 40
0.6666666666666666
 40
0.6666666666666666
 40
1.0
 40
1.0
 40
1.0
 40
1.0
 10
12.0877
 20
-41.8891
 30
0.0
 10
12.0877
 20
-41.8891
 30
0.0
 10
6.1401
 20
-45.7553
 30
0.0
 10
6.1401
 20
-45.7553
 30
0.0
 10
6.1401
 20
-45.7553
 30
0.0
 10
6.1401
 20
-45.7553
 30
0.0
 10
4.752
 20
-49.7762
 30
0.0
 10
4.752
 20
-49.7762
 30
0.0
 10
4.752
 20
-49.7762
 30
0.0
 10
4.752
 20
-49.7762
 30
0.0
 10
10.8372
 20
-55.2427
 30
0.0
 10
10.8372
 20
-55.2427
 30
0.0
 10
10.8372
 20
-55.2427
 30
0.0
 10
10.8372
 20
-55.2427
 30
0.0
 10
16.8802
 20
-46.8841
 30
0.0
 10
16.8802
 20
-46.8841
 30
0.0
 10
16.8802
 20
-46.8841
 30
0.0
 10
16.8802
 20
-46.8841
 30
0.0
 10
12.0877
 20
-41.8891
 30
0.0
 10
12.0877
 20
-41.8891
 30
0.0
  0
SPLINE
  5
B4
330
1F
100
AcDbEntity
  8
layer 1
 62
     7
100
AcDbSpline
210
0.0
220
0.0
230
1.0
 70
    11
 71
     3
 72
    28
 73
    24
 74
     0
 42
0.0000000001
 43
0.0000000001
 12
1.0
 22
0.0
 32
0.0
 13
1.0
 23
0.0
 33
0.0
 40
0.0
 40
0.0
 40
0.0
 40
0.0
 40
0.1428571428571428
 40
0.1428571428571428
 40
0.1428571428571428
 40
0.1428571428571428
 40
0.2857142857142857
 40
0.2857142857142857
 40
0.2857142857142857
 40
0.2857142857142857
 40
0.4285714285714285
 40
0.4285714285714285
 40
0.4285714285714285
 40
0.4285714285714285
 40
0.5714285714285714
 40
0.5714285714285714
 40
0.5714285714285714
 40
0.5714285714285714
 40
0.7142857142857143
 40
0.7142857142857143
 40
0.7142857142857143
 40
0.7142857142857143
 40
1.0
 40
1.0
 40
1.0
 40
1.0
 10
-9.0391
 20
95.8677
 30
0.0
 10
-9.0391
 20
95.8677
 30
0.0
 10
-3.3881
 20
95.6141
 30
0.0
 10
-3.3881
 20
95.6141
 30
0.0
 10
-3.3881
 20
95.6141
 30
0.0
 10
-3.3881
 20
95.6141
 30
0.0
 10
-2.9364
 20
100.8436
 30
0.0
 10
-2.9364
 20
100.8436
 30
0.0
 10
-2.9364
 20
100.8436
 30
0.0
 10
-2.9364
 20
100.8436
 30
0.0
 10
-10.3101
 20
107.4677
 30
0.0
 10
-10.3101
 20
107.4677
 30
0.0
 10
-10.3101
 20
107.4677
 30
0.0
 10
-10.3101
 20
107.4677
 30
0.0
 10
-10.2646
 20
107.5147
 30
0.0
 10
-10.2646
 20
107.5147
 30
0.0
 10
-10.2646
 20
107.5147
 30
0.0
 10
-10.2646
 20
107.5147
 30
0.0
 10
-13.611
 20
107.5969
 30
0.0
 10
-13.611
 20
107.5969
 30
0.0
 10
-13.611
 20
107.5969
 30
0.0
 10
-13.611
 20
107.5969
 30
0.0
 10
-9.0391
 20
95.8677
 30
0.0
 10
-9.0391
 20
95.8677
 30
0.0
  0
SPLINE
  5
B5
330
1F
100
AcDbEntity
  8
layer 1
 62
     7
100
AcDbSpline
210
0.0
220
0.0
230
1.0
 70
    11
 71
     3
 72
    20
 73
    16
 74
     0
 42
0.0000000001
 43
0.0000000001
 12
1.0
 22
0.0
 32
0.0
 13
1.0
 23
0.0
 33
0.0
 40
0.0
 40
0.0
 40
0.0
 40
0.0
 40
0.2
 40
0.2
 40
0.2
 40
0.2
 40
0.4
 40
0.4
 40
0.4
 40
0.4
 40
0.6
 40
0.6
 40
0.6
 40
0.6
 40
1.0
 40
1.0
 40
1.0
 40
1.0
 10
-14.5145
 20
109.9145
 30
0.0
 10
-14.5145
 20
109.9145
 30
0.0
 10
-5.5271
 20
109.6938
 30
0.0
 10
-5.5271
 20
109.6938
 30
0.0
 10
-5.5271
 20
109.6938
 30
0.0
 10
-5.5271
 20
109.6938
 30
0.0
 10
-10.1356
 20
126.8706
 30
0.0
 10
-10.1356
 20
126.8706
 30
0.0
 10
-10.1356
 20
126.8706
 30
0.0
 10
-10.1356
 20
126.8706
 30
0.0
 10
-19.4921
 20
122.6843
 30
0.0
 10
-19.4921
 20
122.6843
 30
0.0
 10
-19.4921
 20
122.6843
 30
0.0
 10
-19.4921
 20
122.6843
 30
0.0
 10
-14.5145
 20
109.9145
 30
0.0
 10
-14.5145
 20
109.9145
 30
0.0
  0
SPLINE
  5
B6
330
1F
100
AcDbEntity
  8
layer 1
 62
     7
100
AcDbSpline
210
0.0
220
0.0
230
1.0
 70
    11
 71
     3
 72
    24
 73
    20
 74
     0
 42
0.0000000001
 43
0.0000000001
 12
1.0
 22
0.0
 32
0.0
 13
1.0
 23
0.0
 33
0.0
 40
0.0
 40
0.0
 40
0.0
 40
0.0
 40
0.1666666666666667
 40
0.1666666666666667
 40
0.1666666666666667
 40
0.1666666666666667
 40
0.3333333333333333
 40
0.3333333333333333
 40
0.3333333333333333
 40
0.3333333333333333
 40
0.5
 40
0.5
 40
0.5
 40
0.5
 40
0.6666666666666666
 40
0.6666666666666666
 40
0.6666666666666666
 40
0.6666666666666666
 40
1.0
 40
1.0
 40
1.0
 40
1.0
 10
-3.1375
 20
109.635
 30
0.0
 10
-3.1375
 20
109.635
 30
0.0
 10
6.8403
 20
109.3898
 30
0.0
 10
6.8403
 20
109.3898
 30
0.0
 10
6.8403
 20
109.3898
 30
0.0
 10
6.8403
 20
109.3898
 30
0.0
 10
9.9014
 20
118.2565
 30
0.0
 10
9.9014
 20
118.2565
 30
0.0
 10
9.9014
 20
118.2565
 30
0.0
 10
9.9014
 20
118.2565
 30
0.0
 10
1.7474
 20
123.8991
 30
0.0
 10
1.7474
 20
123.8991
 30
0.0
 10
1.7474
 20
123.8991
 30
0.0
 10
1.7474
 20
123.8991
 30
0.0
 10
-5.64
 20
118.9623
 30
0.0
 10
-5.64
 20
118.9623
 30
0.0
 10
-5.64
 20
118.9623
 30
0.0
 10
-5.64
 20
118.9623
 30
0.0
 10
-3.1375
 20
109.635
 30
0.0
 10
-3.1375
 20
109.635
 30
0.0
  0
SPLINE
  5
B7
330
1F
100
AcDbEntity
  8
layer 1
 62
     7
100
AcDbSpline
210
0.0
220
0.0
230
1.0
 70
    11
 71
     3
 72
    16
 73
    12
 74
     0
 42
0.0000000001
 43
0.0000000001
 12
1.0
 22
0.0
 32
0.0
 13
1.0
 23
0.0
 33
0.0
 40
0.0
 40
0.0
 40
0.0
 40
0.0
 40
0.25
 40
0.25
 40
0.25
 40
0.25
 40
0.5
 40
0.5
 40
0.5
 40
0.5
 40
1.0
 40
1.0
 40
1.0
 40
1.0
 10
11.859
 20
116.9017
 30
0.0
 10
11.859
 20
116.9017
 30
0.0
 10
7.5432
 20
104.4006
 30
0.0
 10
7.5432
 20
104.4006
 30
0.0
 10
7.5432
 20
104.4006
 30
0.0
 10
7.5432
 20
104.4006
 30
0.0
 10
19.0833
 20
111.9024
 30
0.0
 10
19.0833
 20
111.9024
 30
0.0
 10
19.0833
 20
111.9024
 30
0.0
 10
19.0833
 20
111.9024
 30
0.0
 10
11.859
 20
116.9017
 30
0.0
 10
11.859
 20
116.9017
 30
0.0
  0
SPLINE
  5
B8
330
1F
100
AcDbEntity
  8
layer 1
 62
     7
100
AcDbSpline
210
0.0
220
0.0
230
1.0
 70
    11
 71
     3
 72
    20
 73
    16
 74
     0
 42
0.0000000001
 43
0.0000000001
 12
1.0
 22
0.0
 32
0.0
 13
1.0
 23
0.0
 33
0.0
 40
0.0
 40
0.0
 40
0.0
 40
0.0
 40
0.2
 40
0.2
 40
0.2
 40
0.2
 40
0.4
 40
0.4
 40
0.4
 40
0.4
 40
0.6
 40
0.6
 40
0.6
 40
0.6
 40
1.0
 40
1.0
 40
1.0
 40
1.0
 10
-2.2785
 20
-62.6566
 30
0.0
 10
-2.2785
 20
-62.6566
 30
0.0
 10
5.7866
 20
-62.2284
 30
0.0
 10
5.7866
 20
-62.2284
 30
0.0
 10
5.7866
 20
-62.2284
 30
0.0
 10
5.7866
 20
-62.2284
 30
0.0
 10
9.4854
 20
-57.1125
 30
0.0
 10
9.4854
 20
-57.1125
 30
0.0
 10
9.4854
 20
-57.1125
 30
0.0
 10
9.4854
 20
-57.1125
 30
0.0
 10
-0.987
 20
-47.7049
 30
0.0
 10
-0.987
 20
-47.7049
 30
0.0
 10
-0.987
 20
-47.7049
 30
0.0
 10
-0.987
 20
-47.7049
 30
0.0
 10
-2.2785
 20
-62.6566
 30
0.0
 10
-2.2785
 20
-62.6566
 30
0.0
  0
SPLINE
  5
B9
330
1F
100
AcDbEntity
  8
layer 1
 62
     7
100
AcDbSpline
210
0.0
220
0.0
230
1.0
 70
    11
 71
     3
 72
    16
 73
    12
 74
     0
 42
0.0000000001
 43
0.0000000001
 12
1.0
 22
0.0
 32
0.0
 13
1.0
 23
0.0
 33
0.0
 40
0.0
 40
0.0
 40
0.0
 40
0.0
 40
0.25
 40
0.25
 40
0.25
 40
0.25
 40
0.5
 40
0.5
 40
0.5
 40
0.5
 40
1.0
 40
1.0
 40
1.0
 40
1.0
 10
-4.89
 20
-66.2537
 30
0.0
 10
-4.89
 20
-66.2537
 30
0.0
 10
-3.7713
 20
-53.3024
 30
0.0
 10
-3.7713
 20
-53.3024
 30
0.0
 10
-3.7713
 20
-53.3024
 30
0.0
 10
-3.7713
 20
-53.3024
 30
0.0
 10
-14.0418
 20
-52.8414
 30
0.0
 10
-14.0418
 20
-52.8414
 30
0.0
 10
-14.0418
 20
-52.8414
 30
0.0
 10
-14.0418
 20
-52.8414
 30
0.0
 10
-4.89
 20
-66.2537
 30
0.0
 10
-4.89
 20
-66.2537
 30
0.0
  0
SPLINE
  5
BA
330
1F
100
AcDbEntity
  8
layer 1
 62
     7
100
AcDbSpline
210
0.0
220
0.0
230
1.0
 70
    11
 71
     3
 72
    24
 73
    20
 74
     0
 42
0.0000000001
 43
0.0000000001
 12
1.0
 22
0.0
 32
0.0
 13
1.0
 23
0.0
 33
0.0
 40
0.0
 40
0.0
 40
0.0
 40
0.0
 40
0.1666666666666667
 40
0.1666666666666667
 40
0.1666666666666667
 40
0.1666666666666667
 40
0.3333333333333333
 40
0.3333333333333333
 40
0.3333333333333333
 40
0.3333333333333333
 40
0.5
 40
0.5
 40
0.5
 40
0.5
 40
0.6666666666666666
 40
0.6666666666666666
 40
0.6666666666666666
 40
0.6666666666666666
 40
1.0
 40
1.0
 40
1.0
 40
1.0
 10
11.8493
 20
-70.7295
 30
0.0
 10
11.8493
 20
-70.7295
 30
0.0
 10
9.7618
 20
-64.3152
 30
0.0
 10
9.7618
 20
-64.3152
 30
0.0
 10
9.7618
 20
-64.3152
 30
0.0
 10
9.7618
 20
-64.3152
 30
0.0
 10
-2.4779
 20
-64.9649
 30
0.0
 10
-2.4779
 20
-64.9649
 30
0.0
 10
-2.4779
 20
-64.9649
 30
0.0
 10
-2.4779
 20
-64.9649
 30
0.0
 10
-2.8477
 20
-69.2468
 30
0.0
 10
-2.8477
 20
-69.2468
 30
0.0
 10
-2.8477
 20
-69.2468
 30
0.0
 10
-2.8477
 20
-69.2468
 30
0.0
 10
0.7688
 20
-74.5469
 30
0.0
 10
0.7688
 20
-74.5469
 30
0.0
 10
0.7688
 20
-74.5469
 30
0.0
 10
0.7688
 20
-74.5469
 30
0.0
 10
11.8493
 20
-70.7295
 30
0.0
 10
11.8493
 20
-70.7295
 30
0.0
  0
SPLINE
  5
BB
330
1F
100
AcDbEntity
  8
layer 1
 62
     7
100
AcDbSpline
210
0.0
220
0.0
230
1.0
 70
    11
 71
     3
 72
    20
 73
    16
 74
     0
 42
0.0000000001
 43
0.0000000001
 12
1.0
 22
0.0
 32
0.0
 13
1.0
 23
0.0
 33
0.0
 40
0.0
 40
0.0
 40
0.0
 40
0.0
 40
0.2
 40
0.2
 40
0.2
 40
0.2
 40
0.4
 40
0.4
 40
0.4
 40
0.4
 40
0.6
 40
0.6
 40
0.6
 40
0.6
 40
1.0
 40
1.0
 40
1.0
 40
1.0
 10
6.014
 20
-84.018
 30
0.0
 10
6.014
 20
-84.018
 30
0.0
 10
14.6871
 20
-79.4499
 30
0.0
 10
14.6871
 20
-79.4499
 30
0.0
 10
14.6871
 20
-79.4499
 30
0.0
 10
14.6871
 20
-79.4499
 30
0.0
 10
12.5588
 20
-72.9101
 30
0.0
 10
12.5588
 20
-72.9101
 30
0.0
 10
12.5588
 20
-72.9101
 30
0.0
 10
12.5588
 20
-72.9101
 30
0.0
 10
4.6108
 20
-75.6484
 30
0.0
 10
4.6108
 20
-75.6484
 30
0.0
 10
4.6108
 20
-75.6484
 30
0.0
 10
4.6108
 20
-75.6484
 30
0.0
 10
6.014
 20
-84.018
 30
0.0
 10
6.014
 20
-84.018
 30
0.0
  0
SPLINE
  5
BC
330
1F
100
AcDbEntity
  8
layer 1
 62
     7
100
AcDbSpline
210
0.0
220
0.0
230
1.0
 70
    11
 71
     3
 72
    20
 73
    16
 74
     0
 42
0.0000000001
 43
0.0000000001
 12
1.0
 22
0.0
 32
0.0
 13
1.0
 23
0.0
 33
0.0
 40
0.0
 40
0.0
 40
0.0
 40
0.0
 40
0.2
 40
0.2
 40
0.2
 40
0.2
 40
0.4
 40
0.4
 40
0.4
 40
0.4
 40
0.6
 40
0.6
 40
0.6
 40
0.6
 40
1.0
 40
1.0
 40
1.0
 40
1.0
 10
7.4692
 20
-92.6986
 30
0.0
 10
7.4692
 20
-92.6986
 30
0.0
 10
15.5923
 20
-91.4396
 30
0.0
 10
15.5923
 20
-91.4396
 30
0.0
 10
15.5923
 20
-91.4396
 30
0.0
 10
15.5923
 20
-91.4396
 30
0.0
 10
10.1434
 20
-84.4337
 30
0.0
 10
10.1434
 20
-84.4337
 30
0.0
 10
10.1434
 20
-84.4337
 30
0.0
 10
10.1434
 20
-84.4337
 30
0.0
 10
6.4131
 20
-86.3985
 30
0.0
 10
6.4131
 20
-86.3985
 30
0.0
 10
6.4131
 20
-86.3985
 30
0.0
 10
6.4131
 20
-86.3985
 30
0.0
 10
7.4692
 20
-92.6986
 30
0.0
 10
7.4692
 20
-92.6986
 30
0.0
  0
SPLINE
  5
BD
330
1F
100
AcDbEntity
  8
layer 1
 62
     7
100
AcDbSpline
210
0.0
220
0.0
230
1.0
 70
    11
 71
     3
 72
    20
 73
    16
 74
     0
 42
0.0000000001
 43
0.0000000001
 12
1.0
 22
0.0
 32
0.0
 13
1.0
 23
0.0
 33
0.0
 40
0.0
 40
0.0
 40
0.0
 40
0.0
 40
0.2
 40
0.2
 40
0.2
 40
0.2
 40
0.4
 40
0.4
 40
0.4
 40
0.4
 40
0.6
 40
0.6
 40
0.6
 40
0.6
 40
1.0
 40
1.0
 40
1.0
 40
1.0
 10
3.6732
 20
-83.9224
 30
0.0
 10
3.6732
 20
-83.9224
 30
0.0
 10
-5.1408
 20
-90.2104
 30
0.0
 10
-5.1408
 20
-90.2104
 30
0.0
 10
-5.1408
 20
-90.2104
 30
0.0
 10
-5.1408
 20
-90.2104
 30
0.0
 10
-1.8043
 20
-94.1357
 30
0.0
 10
-1.8043
 20
-94.1357
 30
0.0
 10
-1.8043
 20
-94.1357
 30
0.0
 10
-1.8043
 20
-94.1357
 30
0.0
 10
5.2034
 20
-93.0497
 30
0.0
 10
5.2034
 20
-93.0497
 30
0.0
 10
5.2034
 20
-93.0497
 30
0.0
 10
5.2034
 20
-93.0497
 30
0.0
 10
3.6732
 20
-83.9224
 30
0.0
 10
3.6732
 20
-83.9224
 30
0.0
  0
SPLINE
  5
BE
330
1F
100
AcDbEntity
  8
layer 1
 62
     7
100
AcDbSpline
210
0.0
220
0.0
230
1.0
 70
    11
 71
     3
 72
    20
 73
    16
 74
     0
 42
0.0000000001
 43
0.0000000001
 12
1.0
 22
0.0
 32
0.0
 13
1.0
 23
0.0
 33
0.0
 40
0.0
 40
0.0
 40
0.0
 40
0.0
 40
0.2
 40
0.2
 40
0.2
 40
0.2
 40
0.4
 40
0.4
 40
0.4
 40
0.4
 40
0.6
 40
0.6
 40
0.6
 40
0.6
 40
1.0
 40
1.0
 40
1.0
 40
1.0
 10
-8.2861
 20
-77.6664
 30
0.0
 10
-8.2861
 20
-77.6664
 30
0.0
 10
-1.479
 20
-75.3212
 30
0.0
 10
-1.479
 20
-75.3212
 30
0.0
 10
-1.479
 20
-75.3212
 30
0.0
 10
-1.479
 20
-75.3212
 30
0.0
 10
-8.1187
 20
-65.5903
 30
0.0
 10
-8.1187
 20
-65.5903
 30
0.0
 10
-8.1187
 20
-65.5903
 30
0.0
 10
-8.1187
 20
-65.5903
 30
0.0
 10
-14.618
 20
-71.0671
 30
0.0
 10
-14.618
 20
-71.0671
 30
0.0
 10
-14.618
 20
-71.0671
 30
0.0
 10
-14.618
 20
-71.0671
 30
0.0
 10
-8.2861
 20
-77.6664
 30
0.0
 10
-8.2861
 20
-77.6664
 30
0.0
  0
SPLINE
  5
BF
330
1F
100
AcDbEntity
  8
layer 1
 62
     7
100
AcDbSpline
210
0.0
220
0.0
230
1.0
 70
    11
 71
     3
 72
    20
 73
    16
 74
     0
 42
0.0000000001
 43
0.0000000001
 12
1.0
 22
0.0
 32
0.0
 13
1.0
 23
0.0
 33
0.0
 40
0.0
 40
0.0
 40
0.0
 40
0.0
 40
0.2
 40
0.2
 40
0.2
 40
0.2
 40
0.4
 40
0.4
 40
0.4
 40
0.4
 40
0.6
 40
0.6
 40
0.6
 40
0.6
 40
1.0
 40
1.0
 40
1.0
 40
1.0
 10
-1.4659
 20
-84.7745
 30
0.0
 10
-1.4659
 20
-84.7745
 30
0.0
 10
3.2519
 20
-81.4088
 30
0.0
 10
3.2519
 20
-81.4088
 30
0.0
 10
3.2519
 20
-81.4088
 30
0.0
 10
3.2519
 20
-81.4088
 30
0.0
 10
2.4131
 20
-76.4055
 30
0.0
 10
2.4131
 20
-76.4055
 30
0.0
 10
2.4131
 20
-76.4055
 30
0.0
 10
2.4131
 20
-76.4055
 30
0.0
 10
-6.5373
 20
-79.489
 30
0.0
 10
-6.5373
 20
-79.489
 30
0.0
 10
-6.5373
 20
-79.489
 30
0.0
 10
-6.5373
 20
-79.489
 30
0.0
 10
-1.4659
 20
-84.7745
 30
0.0
 10
-1.4659
 20
-84.7745
 30
0.0
  0
SPLINE
  5
C0
330
1F
100
AcDbEntity
  8
layer 1
 62
     7
100
AcDbSpline
210
0.0
220
0.0
230
1.0
 70
    11
 71
     3
 72
    20
 73
    16
 74
     0
 42
0.0000000001
 43
0.0000000001
 12
1.0
 22
0.0
 32
0.0
 13
1.0
 23
0.0
 33
0.0
 40
0.0
 40
0.0
 40
0.0
 40
0.0
 40
0.2
 40
0.2
 40
0.2
 40
0.2
 40
0.4
 40
0.4
 40
0.4
 40
0.4
 40
0.6
 40
0.6
 40
0.6
 40
0.6
 40
1.0
 40
1.0
 40
1.0
 40
1.0
 10
-10.3499
 20
-78.8277
 30
0.0
 10
-10.3499
 20
-78.8277
 30
0.0
 10
-15.5603
 20
-87.0563
 30
0.0
 10
-15.5603
 20
-87.0563
 30
0.0
 10
-15.5603
 20
-87.0563
 30
0.0
 10
-15.5603
 20
-87.0563
 30
0.0
 10
-12.7001
 20
-92.7889
 30
0.0
 10
-12.7001
 20
-92.7889
 30
0.0
 10
-12.7001
 20
-92.7889
 30
0.0
 10
-12.7001
 20
-92.7889
 30
0.0
 10
-3.3526
 20
-86.1205
 30
0.0
 10
-3.3526
 20
-86.1205
 30
0.0
 10
-3.3526
 20
-86.1205
 30
0.0
 10
-3.3526
 20
-86.1205
 30
0.0
 10
-10.3499
 20
-78.8277
 30
0.0
 10
-10.3499
 20
-78.8277
 30
0.0
  0
SPLINE
  5
C1
330
1F
100
AcDbEntity
  8
layer 1
 62
   250
100
AcDbSpline
210
0.0
220
0.0
230
1.0
 70
    11
 71
     3
 72
    20
 73
    16
 74
     0
 42
0.0000000001
 43
0.0000000001
 12
1.0
 22
0.0
 32
0.0
 13
1.0
 23
0.0
 33
0.0
 40
0.0
 40
0.0
 40
0.0
 40
0.0
 40
0.2
 40
0.2
 40
0.2
 40
0.2
 40
0.4
 40
0.4
 40
0.4
 40
0.4
 40
0.6
 40
0.6
 40
0.6
 40
0.6
 40
1.0
 40
1.0
 40
1.0
 40
1.0
 10
31.9737
 20
132.4529
 30
0.0
 10
31.9737
 20
132.4529
 30
0.0
 10
128.2499
 20
132.4529
 30
0.0
 10
128.2499
 20
132.4529
 30
0.0
 10
128.2499
 20
132.4529
 30
0.0
 10
128.2499
 20
132.4529
 30
0.0
 10
128.2499
 20
-105.7635
 30
0.0
 10
128.2499
 20
-105.7635
 30
0.0
 10
128.2499
 20
-105.7635
 30
0.0
 10
128.2499
 20
-105.7635
 30
0.0
 10
31.9737
 20
-105.7635
 30
0.0
 10
31.9737
 20
-105.7635
 30
0.0
 10
31.9737
 20
-105.7635
 30
0.0
 10
31.9737
 20
-105.7635
 30
0.0
 10
31.9737
 20
132.4529
 30
0.0
 10
31.9737
 20
132.4529
 30
0.0
  0
SPLINE
  5
C2
330
1F
100
AcDbEntity
  8
layer 1
 62
     7
100
AcDbSpline
210
0.0
220
0.0
230
1.0
 70
    11
 71
     3
 72
    20
 73
    16
 74
     0
 42
0.0000000001
 43
0.0000000001
 12
1.0
 22
0.0
 32
0.0
 13
1.0
 23
0.0
 33
0.0
 40
0.0
 40
0.0
 40
0.0
 40
0.0
 40
0.2
 40
0.2
 40
0.2
 40
0.2
 40
0.4
 40
0.4
 40
0.4
 40
0.4
 40
0.6
 40
0.6
 40
0.6
 40
0.6
 40
1.0
 40
1.0
 40
1.0
 40
1.0
 10
110.2582
 20
-13.5816
 30
0.0
 10
110.2582
 20
-13.5816
 30
0.0
 10
101.1462
 20
-23.9911
 30
0.0
 10
101.1462
 20
-23.9911
 30
0.0
 10
101.1462
 20
-23.9911
 30
0.0
 10
101.1462
 20
-23.9911
 30
0.0
 10
118.193
 20
-26.633
 30
0.0
 10
118.193
 20
-26.633
 30
0.0
 10
118.193
 20
-26.633
 30
0.0
 10
118.193
 20
-26.633
 30
0.0
 10
121.1037
 20
-22.8907
 30
0.0
 10
121.1037
 20
-22.8907
 30
0.0
 10
121.1037
 20
-22.8907
 30
0.0
 10
117.48
 20
-19.7804
 30
0.0
 10
113.886
 20
-16.6954
 30
0.0
 10
110.2582
 20
-13.5816
 30
0.0
  0
SPLINE
  5
C3
330
1F
100
AcDbEntity
  8
layer 1
 62
     7
100
AcDbSpline
210
0.0
220
0.0
230
1.0
 70
    11
 71
     3
 72
    20
 73
    16
 74
     0
 42
0.0000000001
 43
0.0000000001
 12
1.0
 22
0.0
 32
0.0
 13
1.0
 23
0.0
 33
0.0
 40
0.0
 40
0.0
 40
0.0
 40
0.0
 40
0.2
 40
0.2
 40
0.2
 40
0.2
 40
0.4
 40
0.4
 40
0.4
 40
0.4
 40
0.6
 40
0.6
 40
0.6
 40
0.6
 40
1.0
 40
1.0
 40
1.0
 40
1.0
 10
124.0667
 20
-19.0811
 30
0.0
 10
124.0667
 20
-19.0811
 30
0.0
 10
124.0667
 20
-12.1636
 30
0.0
 10
124.0667
 20
-12.1636
 30
0.0
 10
124.0667
 20
-12.1636
 30
0.0
 10
124.0667
 20
-12.1636
 30
0.0
 10
117.3278
 20
-16.6623
 30
0.0
 10
117.3278
 20
-16.6623
 30
0.0
 10
117.3278
 20
-16.6623
 30
0.0
 10
117.3278
 20
-16.6623
 30
0.0
 10
122.497
 20
-21.0993
 30
0.0
 10
122.497
 20
-21.0993
 30
0.0
 10
122.497
 20
-21.0993
 30
0.0
 10
122.497
 20
-21.0993
 30
0.0
 10
124.0667
 20
-19.0811
 30
0.0
 10
124.0667
 20
-19.0811
 30
0.0
  0
SPLINE
  5
C4
330
1F
100
AcDbEntity
  8
layer 1
 62
     7
100
AcDbSpline
210
0.0
220
0.0
230
1.0
 70
    11
 71
     3
 72
    20
 73
    16
 74
     0
 42
0.0000000001
 43
0.0000000001
 12
1.0
 22
0.0
 32
0.0
 13
1.0
 23
0.0
 33
0.0
 40
0.0
 40
0.0
 40
0.0
 40
0.0
 40
0.2
 40
0.2
 40
0.2
 40
0.2
 40
0.4
 40
0.4
 40
0.4
 40
0.4
 40
0.6
 40
0.6
 40
0.6
 40
0.6
 40
1.0
 40
1.0
 40
1.0
 40
1.0
 10
92.8477
 20
-92.6267
 30
0.0
 10
92.8477
 20
-92.6267
 30
0.0
 10
91.016
 20
-99.4539
 30
0.0
 10
91.016
 20
-99.4539
 30
0.0
 10
91.016
 20
-99.4539
 30
0.0
 10
91.016
 20
-99.4539
 30
0.0
 10
81.7775
 20
-95.3203
 30
0.0
 10
81.7775
 20
-95.3203
 30
0.0
 10
81.7775
 20
-95.3203
 30
0.0
 10
81.7775
 20
-95.3203
 30
0.0
 10
84.8982
 20
-87.3144
 30
0.0
 10
84.8982
 20
-87.3144
 30
0.0
 10
84.8982
 20
-87.3144
 30
0.0
 10
84.8982
 20
-87.3144
 30
0.0
 10
92.8477
 20
-92.6267
 30
0.0
 10
92.8477
 20
-92.6267
 30
0.0
  0
SPLINE
  5
C5
330
1F
100
AcDbEntity
  8
layer 1
 62
     7
100
AcDbSpline
210
0.0
220
0.0
230
1.0
 70
    11
 71
     3
 72
    16
 73
    12
 74
     0
 42
0.0000000001
 43
0.0000000001
 12
1.0
 22
0.0
 32
0.0
 13
1.0
 23
0.0
 33
0.0
 40
0.0
 40
0.0
 40
0.0
 40
0.0
 40
0.25
 40
0.25
 40
0.25
 40
0.25
 40
0.5
 40
0.5
 40
0.5
 40
0.5
 40
1.0
 40
1.0
 40
1.0
 40
1.0
 10
82.2496
 20
-82.8206
 30
0.0
 10
82.2496
 20
-82.8206
 30
0.0
 10
95.5664
 20
-82.4934
 30
0.0
 10
95.5664
 20
-82.4934
 30
0.0
 10
95.5664
 20
-82.4934
 30
0.0
 10
95.5664
 20
-82.4934
 30
0.0
 10
93.4674
 20
-90.3171
 30
0.0
 10
93.4674
 20
-90.3171
 30
0.0
 10
93.4674
 20
-90.3171
 30
0.0
 10
93.4674
 20
-90.3171
 30
0.0
 10
82.2496
 20
-82.8206
 30
0.0
 10
82.2496
 20
-82.8206
 30
0.0
  0
SPLINE
  5
C6
330
1F
100
AcDbEntity
  8
layer 1
 62
     7
100
AcDbSpline
210
0.0
220
0.0
230
1.0
 70
    11
 71
     3
 72
    20
 73
    16
 74
     0
 42
0.0000000001
 43
0.0000000001
 12
1.0
 22
0.0
 32
0.0
 13
1.0
 23
0.0
 33
0.0
 40
0.0
 40
0.0
 40
0.0
 40
0.0
 40
0.2
 40
0.2
 40
0.2
 40
0.2
 40
0.4
 40
0.4
 40
0.4
 40
0.4
 40
0.6
 40
0.6
 40
0.6
 40
0.6
 40
1.0
 40
1.0
 40
1.0
 40
1.0
 10
82.9703
 20
-86.0261
 30
0.0
 10
82.9703
 20
-86.0261
 30
0.0
 10
79.1422
 20
-95.8467
 30
0.0
 10
79.1422
 20
-95.8467
 30
0.0
 10
79.1422
 20
-95.8467
 30
0.0
 10
75.8479
 20
-91.6111
 30
0.0
 10
72.5535
 20
-87.3754
 30
0.0
 10
69.2594
 20
-83.1398
 30
0.0
 10
69.2594
 20
-83.1398
 30
0.0
 10
69.2594
 20
-83.1398
 30
0.0
 10
78.3181
 20
-82.9172
 30
0.0
 10
78.3181
 20
-82.9172
 30
0.0
 10
78.3181
 20
-82.9172
 30
0.0
 10
78.3181
 20
-82.9172
 30
0.0
 10
82.9703
 20
-86.0261
 30
0.0
 10
82.9703
 20
-86.0261
 30
0.0
  0
SPLINE
  5
C7
330
1F
100
AcDbEntity
  8
layer 1
 62
     7
100
AcDbSpline
210
0.0
220
0.0
230
1.0
 70
    11
 71
     3
 72
    16
 73
    12
 74
     0
 42
0.0000000001
 43
0.0000000001
 12
1.0
 22
0.0
 32
0.0
 13
1.0
 23
0.0
 33
0.0
 40
0.0
 40
0.0
 40
0.0
 40
0.0
 40
0.25
 40
0.25
 40
0.25
 40
0.25
 40
0.5
 40
0.5
 40
0.5
 40
0.5
 40
1.0
 40
1.0
 40
1.0
 40
1.0
 10
68.9634
 20
-80.8806
 30
0.0
 10
68.9634
 20
-80.8806
 30
0.0
 10
89.1125
 20
-70.2682
 30
0.0
 10
89.1125
 20
-70.2682
 30
0.0
 10
89.1125
 20
-70.2682
 30
0.0
 10
89.1125
 20
-70.2682
 30
0.0
 10
85.1307
 20
-80.4834
 30
0.0
 10
85.1307
 20
-80.4834
 30
0.0
 10
85.1307
 20
-80.4834
 30
0.0
 10
85.1307
 20
-80.4834
 30
0.0
 10
68.9634
 20
-80.8806
 30
0.0
 10
68.9634
 20
-80.8806
 30
0.0
  0
SPLINE
  5
C8
330
1F
100
AcDbEntity
  8
layer 1
 62
     7
100
AcDbSpline
210
0.0
220
0.0
230
1.0
 70
    11
 71
     3
 72
    20
 73
    16
 74
     0
 42
0.0000000001
 43
0.0000000001
 12
1.0
 22
0.0
 32
0.0
 13
1.0
 23
0.0
 33
0.0
 40
0.0
 40
0.0
 40
0.0
 40
0.0
 40
0.2
 40
0.2
 40
0.2
 40
0.2
 40
0.4
 40
0.4
 40
0.4
 40
0.4
 40
0.6
 40
0.6
 40
0.6
 40
0.6
 40
1.0
 40
1.0
 40
1.0
 40
1.0
 10
85.2031
 20
-50.43
 30
0.0
 10
85.2031
 20
-50.43
 30
0.0
 10
91.7758
 20
-55.9687
 30
0.0
 10
91.7758
 20
-55.9687
 30
0.0
 10
91.7758
 20
-55.9687
 30
0.0
 10
91.7758
 20
-55.9687
 30
0.0
 10
89.7546
 20
-59.0776
 30
0.0
 10
89.7546
 20
-59.0776
 30
0.0
 10
89.7546
 20
-59.0776
 30
0.0
 10
89.7546
 20
-59.0776
 30
0.0
 10
76.2164
 20
-59.7963
 30
0.0
 10
76.2164
 20
-59.7963
 30
0.0
 10
76.2164
 20
-59.7963
 30
0.0
 10
76.2164
 20
-59.7963
 30
0.0
 10
85.2031
 20
-50.43
 30
0.0
 10
85.2031
 20
-50.43
 30
0.0
  0
SPLINE
  5
C9
330
1F
100
AcDbEntity
  8
layer 1
 62
     7
100
AcDbSpline
210
0.0
220
0.0
230
1.0
 70
    11
 71
     3
 72
    28
 73
    24
 74
     0
 42
0.0000000001
 43
0.0000000001
 12
1.0
 22
0.0
 32
0.0
 13
1.0
 23
0.0
 33
0.0
 40
0.0
 40
0.0
 40
0.0
 40
0.0
 40
0.1428571428571428
 40
0.1428571428571428
 40
0.1428571428571428
 40
0.1428571428571428
 40
0.2857142857142857
 40
0.2857142857142857
 40
0.2857142857142857
 40
0.2857142857142857
 40
0.4285714285714285
 40
0.4285714285714285
 40
0.4285714285714285
 40
0.4285714285714285
 40
0.5714285714285714
 40
0.5714285714285714
 40
0.5714285714285714
 40
0.5714285714285714
 40
0.7142857142857143
 40
0.7142857142857143
 40
0.7142857142857143
 40
0.7142857142857143
 40
1.0
 40
1.0
 40
1.0
 40
1.0
 10
73.2234
 20
-59.645
 30
0.0
 10
73.2234
 20
-59.645
 30
0.0
 10
68.2707
 20
-55.1958
 30
0.0
 10
68.2707
 20
-55.1958
 30
0.0
 10
68.2707
 20
-55.1958
 30
0.0
 10
68.2707
 20
-55.1958
 30
0.0
 10
68.273
 20
-55.1925
 30
0.0
 10
68.273
 20
-55.1925
 30
0.0
 10
68.273
 20
-55.1925
 30
0.0
 10
68.273
 20
-55.1925
 30
0.0
 10
76.8222
 20
-43.3677
 30
0.0
 10
76.8222
 20
-43.3677
 30
0.0
 10
76.8222
 20
-43.3677
 30
0.0
 10
76.8222
 20
-43.3677
 30
0.0
 10
76.8237
 20
-43.369
 30
0.0
 10
76.8237
 20
-43.369
 30
0.0
 10
76.8237
 20
-43.369
 30
0.0
 10
76.8237
 20
-43.369
 30
0.0
 10
83.4679
 20
-48.9679
 30
0.0
 10
83.4679
 20
-48.9679
 30
0.0
 10
83.4679
 20
-48.9679
 30
0.0
 10
83.4679
 20
-48.9679
 30
0.0
 10
73.2234
 20
-59.645
 30
0.0
 10
73.2234
 20
-59.645
 30
0.0
  0
SPLINE
  5
CA
330
1F
100
AcDbEntity
  8
layer 1
 62
     7
100
AcDbSpline
210
0.0
220
0.0
230
1.0
 70
    11
 71
     3
 72
    16
 73
    12
 74
     0
 42
0.0000000001
 43
0.0000000001
 12
1.0
 22
0.0
 32
0.0
 13
1.0
 23
0.0
 33
0.0
 40
0.0
 40
0.0
 40
0.0
 40
0.0
 40
0.25
 40
0.25
 40
0.25
 40
0.25
 40
0.5
 40
0.5
 40
0.5
 40
0.5
 40
1.0
 40
1.0
 40
1.0
 40
1.0
 10
72.4105
 20
-76.5071
 30
0.0
 10
72.4105
 20
-76.5071
 30
0.0
 10
70.2354
 20
-69.8231
 30
0.0
 10
70.2354
 20
-69.8231
 30
0.0
 10
70.2354
 20
-69.8231
 30
0.0
 10
70.2354
 20
-69.8231
 30
0.0
 10
86.4858
 20
-69.0937
 30
0.0
 10
86.4858
 20
-69.0937
 30
0.0
 10
86.4858
 20
-69.0937
 30
0.0
 10
86.4858
 20
-69.0937
 30
0.0
 10
72.4105
 20
-76.5071
 30
0.0
 10
72.4105
 20
-76.5071
 30
0.0
  0
SPLINE
  5
CB
330
1F
100
AcDbEntity
  8
layer 1
 62
     7
100
AcDbSpline
210
0.0
220
0.0
230
1.0
 70
    11
 71
     3
 72
    20
 73
    16
 74
     0
 42
0.0000000001
 43
0.0000000001
 12
1.0
 22
0.0
 32
0.0
 13
1.0
 23
0.0
 33
0.0
 40
0.0
 40
0.0
 40
0.0
 40
0.0
 40
0.2
 40
0.2
 40
0.2
 40
0.2
 40
0.4
 40
0.4
 40
0.4
 40
0.4
 40
0.6
 40
0.6
 40
0.6
 40
0.6
 40
1.0
 40
1.0
 40
1.0
 40
1.0
 10
69.5086
 20
-67.5897
 30
0.0
 10
69.5086
 20
-67.5897
 30
0.0
 10
67.8551
 20
-62.5087
 30
0.0
 10
67.8551
 20
-62.5087
 30
0.0
 10
67.8551
 20
-62.5087
 30
0.0
 10
67.8551
 20
-62.5087
 30
0.0
 10
88.2268
 20
-61.4275
 30
0.0
 10
88.2268
 20
-61.4275
 30
0.0
 10
88.2268
 20
-61.4275
 30
0.0
 10
88.2268
 20
-61.4275
 30
0.0
 10
84.6629
 20
-66.9094
 30
0.0
 10
84.6629
 20
-66.9094
 30
0.0
 10
84.6629
 20
-66.9094
 30
0.0
 10
84.6629
 20
-66.9094
 30
0.0
 10
69.5086
 20
-67.5897
 30
0.0
 10
69.5086
 20
-67.5897
 30
0.0
  0
SPLINE
  5
CC
330
1F
100
AcDbEntity
  8
layer 1
 62
     7
100
AcDbSpline
210
0.0
220
0.0
230
1.0
 70
    11
 71
     3
 72
    24
 73
    20
 74
     0
 42
0.0000000001
 43
0.0000000001
 12
1.0
 22
0.0
 32
0.0
 13
1.0
 23
0.0
 33
0.0
 40
0.0
 40
0.0
 40
0.0
 40
0.0
 40
0.1666666666666667
 40
0.1666666666666667
 40
0.1666666666666667
 40
0.1666666666666667
 40
0.3333333333333333
 40
0.3333333333333333
 40
0.3333333333333333
 40
0.3333333333333333
 40
0.5
 40
0.5
 40
0.5
 40
0.5
 40
0.6666666666666666
 40
0.6666666666666666
 40
0.6666666666666666
 40
0.6666666666666666
 40
1.0
 40
1.0
 40
1.0
 40
1.0
 10
66.5775
 20
-53.6748
 30
0.0
 10
66.5775
 20
-53.6748
 30
0.0
 10
60.569
 20
-48.2774
 30
0.0
 10
60.569
 20
-48.2774
 30
0.0
 10
60.569
 20
-48.2774
 30
0.0
 10
60.569
 20
-48.2774
 30
0.0
 10
61.9397
 20
-44.3073
 30
0.0
 10
61.9397
 20
-44.3073
 30
0.0
 10
61.9397
 20
-44.3073
 30
0.0
 10
61.9397
 20
-44.3073
 30
0.0
 10
70.9706
 20
-38.4368
 30
0.0
 10
70.9706
 20
-38.4368
 30
0.0
 10
70.9706
 20
-38.4368
 30
0.0
 10
70.9706
 20
-38.4368
 30
0.0
 10
75.0867
 20
-41.9054
 30
0.0
 10
75.0867
 20
-41.9054
 30
0.0
 10
75.0867
 20
-41.9054
 30
0.0
 10
75.0867
 20
-41.9054
 30
0.0
 10
66.5775
 20
-53.6748
 30
0.0
 10
66.5775
 20
-53.6748
 30
0.0
  0
SPLINE
  5
CD
330
1F
100
AcDbEntity
  8
layer 1
 62
     7
100
AcDbSpline
210
0.0
220
0.0
230
1.0
 70
    11
 71
     3
 72
    24
 73
    20
 74
     0
 42
0.0000000001
 43
0.0000000001
 12
1.0
 22
0.0
 32
0.0
 13
1.0
 23
0.0
 33
0.0
 40
0.0
 40
0.0
 40
0.0
 40
0.0
 40
0.1666666666666667
 40
0.1666666666666667
 40
0.1666666666666667
 40
0.1666666666666667
 40
0.3333333333333333
 40
0.3333333333333333
 40
0.3333333333333333
 40
0.3333333333333333
 40
0.5
 40
0.5
 40
0.5
 40
0.5
 40
0.6666666666666666
 40
0.6666666666666666
 40
0.6666666666666666
 40
0.6666666666666666
 40
1.0
 40
1.0
 40
1.0
 40
1.0
 10
72.9537
 20
-37.1475
 30
0.0
 10
72.9537
 20
-37.1475
 30
0.0
 10
82.0575
 20
-31.2296
 30
0.0
 10
82.0575
 20
-31.2296
 30
0.0
 10
82.0575
 20
-31.2296
 30
0.0
 10
82.0575
 20
-31.2296
 30
0.0
 10
82.058
 20
-31.2305
 30
0.0
 10
82.058
 20
-31.2305
 30
0.0
 10
82.058
 20
-31.2305
 30
0.0
 10
82.058
 20
-31.2305
 30
0.0
 10
89.3745
 20
-42.812
 30
0.0
 10
89.3745
 20
-42.812
 30
0.0
 10
89.3745
 20
-42.812
 30
0.0
 10
89.3745
 20
-42.812
 30
0.0
 10
85.0386
 20
-47.3311
 30
0.0
 10
85.0386
 20
-47.3311
 30
0.0
 10
85.0386
 20
-47.3311
 30
0.0
 10
85.0386
 20
-47.3311
 30
0.0
 10
72.9537
 20
-37.1475
 30
0.0
 10
72.9537
 20
-37.1475
 30
0.0
  0
SPLINE
  5
CE
330
1F
100
AcDbEntity
  8
layer 1
 62
     7
100
AcDbSpline
210
0.0
220
0.0
230
1.0
 70
    11
 71
     3
 72
    16
 73
    12
 74
     0
 42
0.0000000001
 43
0.0000000001
 12
1.0
 22
0.0
 32
0.0
 13
1.0
 23
0.0
 33
0.0
 40
0.0
 40
0.0
 40
0.0
 40
0.0
 40
0.25
 40
0.25
 40
0.25
 40
0.25
 40
0.5
 40
0.5
 40
0.5
 40
0.5
 40
1.0
 40
1.0
 40
1.0
 40
1.0
 10
78.105
 20
-20.7413
 30
0.0
 10
78.105
 20
-20.7413
 30
0.0
 10
91.612
 20
-16.3706
 30
0.0
 10
91.612
 20
-16.3706
 30
0.0
 10
91.612
 20
-16.3706
 30
0.0
 10
91.612
 20
-16.3706
 30
0.0
 10
84.4278
 20
-30.7706
 30
0.0
 10
84.4278
 20
-30.7706
 30
0.0
 10
84.4278
 20
-30.7706
 30
0.0
 10
84.4278
 20
-30.7706
 30
0.0
 10
78.105
 20
-20.7413
 30
0.0
 10
78.105
 20
-20.7413
 30
0.0
  0
SPLINE
  5
CF
330
1F
100
AcDbEntity
  8
layer 1
 62
     7
100
AcDbSpline
210
0.0
220
0.0
230
1.0
 70
    11
 71
     3
 72
    20
 73
    16
 74
     0
 42
0.0000000001
 43
0.0000000001
 12
1.0
 22
0.0
 32
0.0
 13
1.0
 23
0.0
 33
0.0
 40
0.0
 40
0.0
 40
0.0
 40
0.0
 40
0.2
 40
0.2
 40
0.2
 40
0.2
 40
0.4
 40
0.4
 40
0.4
 40
0.4
 40
0.6
 40
0.6
 40
0.6
 40
0.6
 40
1.0
 40
1.0
 40
1.0
 40
1.0
 10
80.8483
 20
-29.3158
 30
0.0
 10
80.8483
 20
-29.3158
 30
0.0
 10
76.5896
 20
-32.0841
 30
0.0
 10
76.5896
 20
-32.0841
 30
0.0
 10
76.5896
 20
-32.0841
 30
0.0
 10
76.5896
 20
-32.0841
 30
0.0
 10
65.9038
 20
-24.6895
 30
0.0
 10
65.9038
 20
-24.6895
 30
0.0
 10
65.9038
 20
-24.6895
 30
0.0
 10
65.9038
 20
-24.6895
 30
0.0
 10
75.8853
 20
-21.4596
 30
0.0
 10
75.8853
 20
-21.4596
 30
0.0
 10
75.8853
 20
-21.4596
 30
0.0
 10
75.8853
 20
-21.4596
 30
0.0
 10
80.8483
 20
-29.3158
 30
0.0
 10
80.8483
 20
-29.3158
 30
0.0
  0
SPLINE
  5
D0
330
1F
100
AcDbEntity
  8
layer 1
 62
     7
100
AcDbSpline
210
0.0
220
0.0
230
1.0
 70
    11
 71
     3
 72
    24
 73
    20
 74
     0
 42
0.0000000001
 43
0.0000000001
 12
1.0
 22
0.0
 32
0.0
 13
1.0
 23
0.0
 33
0.0
 40
0.0
 40
0.0
 40
0.0
 40
0.0
 40
0.1666666666666667
 40
0.1666666666666667
 40
0.1666666666666667
 40
0.1666666666666667
 40
0.3333333333333333
 40
0.3333333333333333
 40
0.3333333333333333
 40
0.3333333333333333
 40
0.5
 40
0.5
 40
0.5
 40
0.5
 40
0.6666666666666666
 40
0.6666666666666666
 40
0.6666666666666666
 40
0.6666666666666666
 40
1.0
 40
1.0
 40
1.0
 40
1.0
 10
76.5025
 20
-18.8771
 30
0.0
 10
76.5025
 20
-18.8771
 30
0.0
 10
67.0646
 20
-8.8954
 30
0.0
 10
67.0646
 20
-8.8954
 30
0.0
 10
67.0646
 20
-8.8954
 30
0.0
 10
67.0646
 20
-8.8954
 30
0.0
 10
70.4955
 20
-7.7853
 30
0.0
 10
70.4955
 20
-7.7853
 30
0.0
 10
70.4955
 20
-7.7853
 30
0.0
 10
70.4955
 20
-7.7853
 30
0.0
 10
85.0666
 20
-12.8295
 30
0.0
 10
85.0666
 20
-12.8295
 30
0.0
 10
85.0666
 20
-12.8295
 30
0.0
 10
85.0666
 20
-12.8295
 30
0.0
 10
83.842
 20
-16.5022
 30
0.0
 10
83.842
 20
-16.5022
 30
0.0
 10
83.842
 20
-16.5022
 30
0.0
 10
83.842
 20
-16.5022
 30
0.0
 10
76.5025
 20
-18.8771
 30
0.0
 10
76.5025
 20
-18.8771
 30
0.0
  0
SPLINE
  5
D1
330
1F
100
AcDbEntity
  8
layer 1
 62
     7
100
AcDbSpline
210
0.0
220
0.0
230
1.0
 70
    11
 71
     3
 72
    24
 73
    20
 74
     0
 42
0.0000000001
 43
0.0000000001
 12
1.0
 22
0.0
 32
0.0
 13
1.0
 23
0.0
 33
0.0
 40
0.0
 40
0.0
 40
0.0
 40
0.0
 40
0.1666666666666667
 40
0.1666666666666667
 40
0.1666666666666667
 40
0.1666666666666667
 40
0.3333333333333333
 40
0.3333333333333333
 40
0.3333333333333333
 40
0.3333333333333333
 40
0.5
 40
0.5
 40
0.5
 40
0.5
 40
0.6666666666666666
 40
0.6666666666666666
 40
0.6666666666666666
 40
0.6666666666666666
 40
1.0
 40
1.0
 40
1.0
 40
1.0
 10
92.8134
 20
-13.5992
 30
0.0
 10
92.8134
 20
-13.5992
 30
0.0
 10
98.0568
 20
-3.1664
 30
0.0
 10
98.0568
 20
-3.1664
 30
0.0
 10
98.0568
 20
-3.1664
 30
0.0
 10
98.0568
 20
-3.1664
 30
0.0
 10
94.2942
 20
-0.0845
 30
0.0
 10
94.2942
 20
-0.0845
 30
0.0
 10
94.2942
 20
-0.0845
 30
0.0
 10
94.2942
 20
-0.0845
 30
0.0
 10
91.3876
 20
-1.0252
 30
0.0
 10
91.3876
 20
-1.0252
 30
0.0
 10
91.3876
 20
-1.0252
 30
0.0
 10
91.3876
 20
-1.0252
 30
0.0
 10
86.5153
 20
-15.6372
 30
0.0
 10
86.5153
 20
-15.6372
 30
0.0
 10
86.5153
 20
-15.6372
 30
0.0
 10
86.5153
 20
-15.6372
 30
0.0
 10
92.8134
 20
-13.5992
 30
0.0
 10
92.8134
 20
-13.5992
 30
0.0
  0
SPLINE
  5
D2
330
1F
100
AcDbEntity
  8
layer 1
 62
     7
100
AcDbSpline
210
0.0
220
0.0
230
1.0
 70
    11
 71
     3
 72
    16
 73
    12
 74
     0
 42
0.0000000001
 43
0.0000000001
 12
1.0
 22
0.0
 32
0.0
 13
1.0
 23
0.0
 33
0.0
 40
0.0
 40
0.0
 40
0.0
 40
0.0
 40
0.25
 40
0.25
 40
0.25
 40
0.25
 40
0.5
 40
0.5
 40
0.5
 40
0.5
 40
1.0
 40
1.0
 40
1.0
 40
1.0
 10
74.1359
 20
-6.6073
 30
0.0
 10
74.1359
 20
-6.6073
 30
0.0
 10
88.7142
 20
-1.89
 30
0.0
 10
88.7142
 20
-1.89
 30
0.0
 10
88.7142
 20
-1.89
 30
0.0
 10
88.7142
 20
-1.89
 30
0.0
 10
85.7748
 20
-10.7057
 30
0.0
 10
85.7748
 20
-10.7057
 30
0.0
 10
85.7748
 20
-10.7057
 30
0.0
 10
85.7748
 20
-10.7057
 30
0.0
 10
74.1359
 20
-6.6073
 30
0.0
 10
74.1359
 20
-6.6073
 30
0.0
  0
SPLINE
  5
D3
330
1F
100
AcDbEntity
  8
layer 1
 62
     7
100
AcDbSpline
210
0.0
220
0.0
230
1.0
 70
    11
 71
     3
 72
    24
 73
    20
 74
     0
 42
0.0000000001
 43
0.0000000001
 12
1.0
 22
0.0
 32
0.0
 13
1.0
 23
0.0
 33
0.0
 40
0.0
 40
0.0
 40
0.0
 40
0.0
 40
0.1666666666666667
 40
0.1666666666666667
 40
0.1666666666666667
 40
0.1666666666666667
 40
0.3333333333333333
 40
0.3333333333333333
 40
0.3333333333333333
 40
0.3333333333333333
 40
0.5
 40
0.5
 40
0.5
 40
0.5
 40
0.6666666666666666
 40
0.6666666666666666
 40
0.6666666666666666
 40
0.6666666666666666
 40
1.0
 40
1.0
 40
1.0
 40
1.0
 10
73.9534
 20
2.3703
 30
0.0
 10
73.9534
 20
2.3703
 30
0.0
 10
76.6009
 20
-3.427
 30
0.0
 10
76.6009
 20
-3.427
 30
0.0
 10
76.6009
 20
-3.427
 30
0.0
 10
76.6009
 20
-3.427
 30
0.0
 10
92.2087
 20
1.6234
 30
0.0
 10
92.2087
 20
1.6234
 30
0.0
 10
92.2087
 20
1.6234
 30
0.0
 10
92.2087
 20
1.6234
 30
0.0
 10
92.2558
 20
1.6357
 30
0.0
 10
92.2558
 20
1.6357
 30
0.0
 10
92.2558
 20
1.6357
 30
0.0
 10
92.2558
 20
1.6357
 30
0.0
 10
92.0231
 20
1.8319
 30
0.0
 10
92.0231
 20
1.8319
 30
0.0
 10
92.0231
 20
1.8319
 30
0.0
 10
92.0231
 20
1.8319
 30
0.0
 10
73.9534
 20
2.3703
 30
0.0
 10
73.9534
 20
2.3703
 30
0.0
  0
SPLINE
  5
D4
330
1F
100
AcDbEntity
  8
layer 1
 62
     7
100
AcDbSpline
210
0.0
220
0.0
230
1.0
 70
    11
 71
     3
 72
    20
 73
    16
 74
     0
 42
0.0000000001
 43
0.0000000001
 12
1.0
 22
0.0
 32
0.0
 13
1.0
 23
0.0
 33
0.0
 40
0.0
 40
0.0
 40
0.0
 40
0.0
 40
0.2
 40
0.2
 40
0.2
 40
0.2
 40
0.4
 40
0.4
 40
0.4
 40
0.4
 40
0.6
 40
0.6
 40
0.6
 40
0.6
 40
1.0
 40
1.0
 40
1.0
 40
1.0
 10
72.3166
 20
5.9553
 30
0.0
 10
72.3166
 20
5.9553
 30
0.0
 10
72.8376
 20
4.8143
 30
0.0
 10
72.8376
 20
4.8143
 30
0.0
 10
72.8376
 20
4.8143
 30
0.0
 10
72.8376
 20
4.8143
 30
0.0
 10
89.1272
 20
4.2758
 30
0.0
 10
89.1272
 20
4.2758
 30
0.0
 10
89.1272
 20
4.2758
 30
0.0
 10
89.1272
 20
4.2758
 30
0.0
 10
79.788
 20
12.1573
 30
0.0
 10
79.788
 20
12.1573
 30
0.0
 10
79.788
 20
12.1573
 30
0.0
 10
79.788
 20
12.1573
 30
0.0
 10
72.3166
 20
5.9553
 30
0.0
 10
72.3166
 20
5.9553
 30
0.0
  0
SPLINE
  5
D5
330
1F
100
AcDbEntity
  8
layer 1
 62
     7
100
AcDbSpline
210
0.0
220
0.0
230
1.0
 70
    11
 71
     3
 72
    44
 73
    40
 74
     0
 42
0.0000000001
 43
0.0000000001
 12
1.0
 22
0.0
 32
0.0
 13
1.0
 23
0.0
 33
0.0
 40
0.0
 40
0.0
 40
0.0
 40
0.0
 40
0.0909090909090909
 40
0.0909090909090909
 40
0.0909090909090909
 40
0.0909090909090909
 40
0.1818181818181818
 40
0.1818181818181818
 40
0.1818181818181818
 40
0.1818181818181818
 40
0.2727272727272727
 40
0.2727272727272727
 40
0.2727272727272727
 40
0.2727272727272727
 40
0.3636363636363636
 40
0.3636363636363636
 40
0.3636363636363636
 40
0.3636363636363636
 40
0.4545454545454545
 40
0.4545454545454545
 40
0.4545454545454545
 40
0.4545454545454545
 40
0.5454545454545454
 40
0.5454545454545454
 40
0.5454545454545454
 40
0.5454545454545454
 40
0.6363636363636364
 40
0.6363636363636364
 40
0.6363636363636364
 40
0.6363636363636364
 40
0.7272727272727273
 40
0.7272727272727273
 40
0.7272727272727273
 40
0.7272727272727273
 40
0.8181818181818182
 40
0.8181818181818182
 40
0.8181818181818182
 40
0.8181818181818182
 40
1.0
 40
1.0
 40
1.0
 40
1.0
 10
100.7107
 20
3.8879
 30
0.0
 10
100.7107
 20
3.8879
 30
0.0
 10
100.7105
 20
3.8879
 30
0.0
 10
100.7105
 20
3.8879
 30
0.0
 10
100.7105
 20
3.8879
 30
0.0
 10
100.7105
 20
3.8879
 30
0.0
 10
88.7795
 20
19.6161
 30
0.0
 10
88.7795
 20
19.6161
 30
0.0
 10
88.7795
 20
19.6161
 30
0.0
 10
88.7795
 20
19.6161
 30
0.0
 10
88.7775
 20
19.619
 30
0.0
 10
88.7775
 20
19.619
 30
0.0
 10
88.7775
 20
19.619
 30
0.0
 10
88.7775
 20
19.619
 30
0.0
 10
88.7772
 20
19.6194
 30
0.0
 10
88.7772
 20
19.6194
 30
0.0
 10
88.7772
 20
19.6194
 30
0.0
 10
88.7772
 20
19.6194
 30
0.0
 10
81.4715
 20
13.555
 30
0.0
 10
81.4715
 20
13.555
 30
0.0
 10
81.4715
 20
13.555
 30
0.0
 10
81.4715
 20
13.555
 30
0.0
 10
81.4719
 20
13.5547
 30
0.0
 10
81.4719
 20
13.5547
 30
0.0
 10
81.4719
 20
13.5547
 30
0.0
 10
81.4719
 20
13.5547
 30
0.0
 10
81.4749
 20
13.5524
 30
0.0
 10
81.4749
 20
13.5524
 30
0.0
 10
81.4749
 20
13.5524
 30
0.0
 10
81.4749
 20
13.5524
 30
0.0
 10
92.7401
 20
4.1564
 30
0.0
 10
92.7401
 20
4.1564
 30
0.0
 10
92.7401
 20
4.1564
 30
0.0
 10
92.7401
 20
4.1564
 30
0.0
 10
92.7401
 20
4.1564
 30
0.0
 10
92.7401
 20
4.1564
 30
0.0
 10
92.7401
 20
4.1564
 30
0.0
 10
92.7401
 20
4.1564
 30
0.0
 10
100.7107
 20
3.8879
 30
0.0
 10
100.7107
 20
3.8879
 30
0.0
  0
SPLINE
  5
D6
330
1F
100
AcDbEntity
  8
layer 1
 62
     7
100
AcDbSpline
210
0.0
220
0.0
230
1.0
 70
    11
 71
     3
 72
    20
 73
    16
 74
     0
 42
0.0000000001
 43
0.0000000001
 12
1.0
 22
0.0
 32
0.0
 13
1.0
 23
0.0
 33
0.0
 40
0.0
 40
0.0
 40
0.0
 40
0.0
 40
0.2
 40
0.2
 40
0.2
 40
0.2
 40
0.4
 40
0.4
 40
0.4
 40
0.4
 40
0.6
 40
0.6
 40
0.6
 40
0.6
 40
1.0
 40
1.0
 40
1.0
 40
1.0
 10
64.0488
 20
2.0362
 30
0.0
 10
64.0488
 20
2.0362
 30
0.0
 10
59.3741
 20
4.0391
 30
0.0
 10
59.3741
 20
4.0391
 30
0.0
 10
59.3741
 20
4.0391
 30
0.0
 10
59.3741
 20
4.0391
 30
0.0
 10
60.2084
 20
10.7401
 30
0.0
 10
60.2084
 20
10.7401
 30
0.0
 10
60.2084
 20
10.7401
 30
0.0
 10
60.2084
 20
10.7401
 30
0.0
 10
83.6857
 20
18.3369
 30
0.0
 10
83.6857
 20
18.3369
 30
0.0
 10
83.6857
 20
18.3369
 30
0.0
 10
83.6857
 20
18.3369
 30
0.0
 10
64.0488
 20
2.0362
 30
0.0
 10
64.0488
 20
2.0362
 30
0.0
  0
SPLINE
  5
D7
330
1F
100
AcDbEntity
  8
layer 1
 62
     7
100
AcDbSpline
210
0.0
220
0.0
230
1.0
 70
    11
 71
     3
 72
    20
 73
    16
 74
     0
 42
0.0000000001
 43
0.0000000001
 12
1.0
 22
0.0
 32
0.0
 13
1.0
 23
0.0
 33
0.0
 40
0.0
 40
0.0
 40
0.0
 40
0.0
 40
0.2
 40
0.2
 40
0.2
 40
0.2
 40
0.4
 40
0.4
 40
0.4
 40
0.4
 40
0.6
 40
0.6
 40
0.6
 40
0.6
 40
1.0
 40
1.0
 40
1.0
 40
1.0
 10
104.5882
 20
3.7688
 30
0.0
 10
104.5882
 20
3.7688
 30
0.0
 10
103.646
 20
3.7891
 30
0.0
 10
103.646
 20
3.7891
 30
0.0
 10
103.646
 20
3.7891
 30
0.0
 10
103.646
 20
3.7891
 30
0.0
 10
93.0134
 20
17.7195
 30
0.0
 10
93.0134
 20
17.7195
 30
0.0
 10
93.0134
 20
17.7195
 30
0.0
 10
93.0134
 20
17.7195
 30
0.0
 10
102.3528
 20
21.7212
 30
0.0
 10
102.3528
 20
21.7212
 30
0.0
 10
102.3528
 20
21.7212
 30
0.0
 10
102.3528
 20
21.7212
 30
0.0
 10
104.5882
 20
3.7688
 30
0.0
 10
104.5882
 20
3.7688
 30
0.0
  0
SPLINE
  5
D8
330
1F
100
AcDbEntity
  8
layer 1
 62
     7
100
AcDbSpline
210
0.0
220
0.0
230
1.0
 70
    11
 71
     3
 72
    20
 73
    16
 74
     0
 42
0.0000000001
 43
0.0000000001
 12
1.0
 22
0.0
 32
0.0
 13
1.0
 23
0.0
 33
0.0
 40
0.0
 40
0.0
 40
0.0
 40
0.0
 40
0.2
 40
0.2
 40
0.2
 40
0.2
 40
0.4
 40
0.4
 40
0.4
 40
0.4
 40
0.6
 40
0.6
 40
0.6
 40
0.6
 40
1.0
 40
1.0
 40
1.0
 40
1.0
 10
95.657
 20
1.7237
 30
0.0
 10
95.657
 20
1.7237
 30
0.0
 10
104.5113
 20
-5.6614
 30
0.0
 10
104.5113
 20
-5.6614
 30
0.0
 10
104.5113
 20
-5.6614
 30
0.0
 10
104.5113
 20
-5.6614
 30
0.0
 10
110.6786
 20
-4.6802
 30
0.0
 10
110.6786
 20
-4.6802
 30
0.0
 10
110.6786
 20
-4.6802
 30
0.0
 10
110.6786
 20
-4.6802
 30
0.0
 10
113.1244
 20
1.2032
 30
0.0
 10
113.1244
 20
1.2032
 30
0.0
 10
113.1244
 20
1.2032
 30
0.0
 10
113.1244
 20
1.2032
 30
0.0
 10
95.657
 20
1.7237
 30
0.0
 10
95.657
 20
1.7237
 30
0.0
  0
SPLINE
  5
D9
330
1F
100
AcDbEntity
  8
layer 1
 62
     7
100
AcDbSpline
210
0.0
220
0.0
230
1.0
 70
    11
 71
     3
 72
    20
 73
    16
 74
     0
 42
0.0000000001
 43
0.0000000001
 12
1.0
 22
0.0
 32
0.0
 13
1.0
 23
0.0
 33
0.0
 40
0.0
 40
0.0
 40
0.0
 40
0.0
 40
0.2
 40
0.2
 40
0.2
 40
0.2
 40
0.4
 40
0.4
 40
0.4
 40
0.4
 40
0.6
 40
0.6
 40
0.6
 40
0.6
 40
1.0
 40
1.0
 40
1.0
 40
1.0
 10
73.7505
 20
17.5048
 30
0.0
 10
73.7505
 20
17.5048
 30
0.0
 10
68.1607
 20
30.9513
 30
0.0
 10
68.1607
 20
30.9513
 30
0.0
 10
68.1607
 20
30.9513
 30
0.0
 10
68.1607
 20
30.9513
 30
0.0
 10
81.9727
 20
28.7538
 30
0.0
 10
81.9727
 20
28.7538
 30
0.0
 10
81.9727
 20
28.7538
 30
0.0
 10
81.9727
 20
28.7538
 30
0.0
 10
87.1252
 20
21.8326
 30
0.0
 10
87.1252
 20
21.8326
 30
0.0
 10
87.1252
 20
21.8326
 30
0.0
 10
87.1252
 20
21.8326
 30
0.0
 10
73.7505
 20
17.5048
 30
0.0
 10
73.7505
 20
17.5048
 30
0.0
  0
SPLINE
  5
DA
330
1F
100
AcDbEntity
  8
layer 1
 62
     7
100
AcDbSpline
210
0.0
220
0.0
230
1.0
 70
    11
 71
     3
 72
    20
 73
    16
 74
     0
 42
0.0000000001
 43
0.0000000001
 12
1.0
 22
0.0
 32
0.0
 13
1.0
 23
0.0
 33
0.0
 40
0.0
 40
0.0
 40
0.0
 40
0.0
 40
0.2
 40
0.2
 40
0.2
 40
0.2
 40
0.4
 40
0.4
 40
0.4
 40
0.4
 40
0.6
 40
0.6
 40
0.6
 40
0.6
 40
1.0
 40
1.0
 40
1.0
 40
1.0
 10
59.0939
 20
43.7722
 30
0.0
 10
59.0939
 20
43.7722
 30
0.0
 10
49.14
 20
55.2648
 30
0.0
 10
49.14
 20
55.2648
 30
0.0
 10
49.14
 20
55.2648
 30
0.0
 10
49.14
 20
55.2648
 30
0.0
 10
44.543
 20
51.9851
 30
0.0
 10
44.543
 20
51.9851
 30
0.0
 10
44.543
 20
51.9851
 30
0.0
 10
44.543
 20
51.9851
 30
0.0
 10
47.3723
 20
46.4074
 30
0.0
 10
47.3723
 20
46.4074
 30
0.0
 10
47.3723
 20
46.4074
 30
0.0
 10
47.3723
 20
46.4074
 30
0.0
 10
59.0939
 20
43.7722
 30
0.0
 10
59.0939
 20
43.7722
 30
0.0
  0
SPLINE
  5
DB
330
1F
100
AcDbEntity
  8
layer 1
 62
     7
100
AcDbSpline
210
0.0
220
0.0
230
1.0
 70
    11
 71
     3
 72
    20
 73
    16
 74
     0
 42
0.0000000001
 43
0.0000000001
 12
1.0
 22
0.0
 32
0.0
 13
1.0
 23
0.0
 33
0.0
 40
0.0
 40
0.0
 40
0.0
 40
0.0
 40
0.2
 40
0.2
 40
0.2
 40
0.2
 40
0.4
 40
0.4
 40
0.4
 40
0.4
 40
0.6
 40
0.6
 40
0.6
 40
0.6
 40
1.0
 40
1.0
 40
1.0
 40
1.0
 10
54.8707
 20
31.6262
 30
0.0
 10
54.8707
 20
31.6262
 30
0.0
 10
63.3992
 20
38.8014
 30
0.0
 10
63.3992
 20
38.8014
 30
0.0
 10
63.3992
 20
38.8014
 30
0.0
 10
63.3992
 20
38.8014
 30
0.0
 10
61.5673
 20
40.9163
 30
0.0
 10
61.5673
 20
40.9163
 30
0.0
 10
61.5673
 20
40.9163
 30
0.0
 10
61.5673
 20
40.9163
 30
0.0
 10
48.6975
 20
43.7952
 30
0.0
 10
48.6975
 20
43.7952
 30
0.0
 10
48.6975
 20
43.7952
 30
0.0
 10
48.6975
 20
43.7952
 30
0.0
 10
54.8707
 20
31.6262
 30
0.0
 10
54.8707
 20
31.6262
 30
0.0
  0
SPLINE
  5
DC
330
1F
100
AcDbEntity
  8
layer 1
 62
     7
100
AcDbSpline
210
0.0
220
0.0
230
1.0
 70
    11
 71
     3
 72
    20
 73
    16
 74
     0
 42
0.0000000001
 43
0.0000000001
 12
1.0
 22
0.0
 32
0.0
 13
1.0
 23
0.0
 33
0.0
 40
0.0
 40
0.0
 40
0.0
 40
0.0
 40
0.2
 40
0.2
 40
0.2
 40
0.2
 40
0.4
 40
0.4
 40
0.4
 40
0.4
 40
0.6
 40
0.6
 40
0.6
 40
0.6
 40
1.0
 40
1.0
 40
1.0
 40
1.0
 10
67.3349
 20
42.1672
 30
0.0
 10
67.3349
 20
42.1672
 30
0.0
 10
65.1112
 20
40.271
 30
0.0
 10
65.1112
 20
40.271
 30
0.0
 10
65.1112
 20
40.271
 30
0.0
 10
65.1112
 20
40.271
 30
0.0
 10
55.9995
 20
50.6807
 30
0.0
 10
55.9995
 20
50.6807
 30
0.0
 10
55.9995
 20
50.6807
 30
0.0
 10
55.9995
 20
50.6807
 30
0.0
 10
65.0777
 20
52.1626
 30
0.0
 10
65.0777
 20
52.1626
 30
0.0
 10
65.0777
 20
52.1626
 30
0.0
 10
65.0777
 20
52.1626
 30
0.0
 10
67.3349
 20
42.1672
 30
0.0
 10
67.3349
 20
42.1672
 30
0.0
  0
SPLINE
  5
DD
330
1F
100
AcDbEntity
  8
layer 1
 62
     7
100
AcDbSpline
210
0.0
220
0.0
230
1.0
 70
    11
 71
     3
 72
    20
 73
    16
 74
     0
 42
0.0000000001
 43
0.0000000001
 12
1.0
 22
0.0
 32
0.0
 13
1.0
 23
0.0
 33
0.0
 40
0.0
 40
0.0
 40
0.0
 40
0.0
 40
0.2
 40
0.2
 40
0.2
 40
0.2
 40
0.4
 40
0.4
 40
0.4
 40
0.4
 40
0.6
 40
0.6
 40
0.6
 40
0.6
 40
1.0
 40
1.0
 40
1.0
 40
1.0
 10
75.9244
 20
49.4918
 30
0.0
 10
75.9244
 20
49.4918
 30
0.0
 10
69.3061
 20
43.8483
 30
0.0
 10
69.3061
 20
43.8483
 30
0.0
 10
69.3061
 20
43.8483
 30
0.0
 10
69.3061
 20
43.8483
 30
0.0
 10
67.3186
 20
52.5286
 30
0.0
 10
67.3186
 20
52.5286
 30
0.0
 10
67.3186
 20
52.5286
 30
0.0
 10
67.3186
 20
52.5286
 30
0.0
 10
68.6235
 20
52.7418
 30
0.0
 10
68.6235
 20
52.7418
 30
0.0
 10
68.6235
 20
52.7418
 30
0.0
 10
68.6235
 20
52.7418
 30
0.0
 10
75.9244
 20
49.4918
 30
0.0
 10
75.9244
 20
49.4918
 30
0.0
  0
SPLINE
  5
DE
330
1F
100
AcDbEntity
  8
layer 1
 62
     7
100
AcDbSpline
210
0.0
220
0.0
230
1.0
 70
    11
 71
     3
 72
    16
 73
    12
 74
     0
 42
0.0000000001
 43
0.0000000001
 12
1.0
 22
0.0
 32
0.0
 13
1.0
 23
0.0
 33
0.0
 40
0.0
 40
0.0
 40
0.0
 40
0.0
 40
0.25
 40
0.25
 40
0.25
 40
0.25
 40
0.5
 40
0.5
 40
0.5
 40
0.5
 40
1.0
 40
1.0
 40
1.0
 40
1.0
 10
72.7562
 20
53.4165
 30
0.0
 10
72.7562
 20
53.4165
 30
0.0
 10
93.8355
 20
56.522
 30
0.0
 10
93.8355
 20
56.522
 30
0.0
 10
93.8355
 20
56.522
 30
0.0
 10
93.8355
 20
56.522
 30
0.0
 10
90.8324
 20
45.3286
 30
0.0
 10
90.8324
 20
45.3286
 30
0.0
 10
90.8324
 20
45.3286
 30
0.0
 10
90.8324
 20
45.3286
 30
0.0
 10
72.7562
 20
53.4165
 30
0.0
 10
72.7562
 20
53.4165
 30
0.0
  0
SPLINE
  5
DF
330
1F
100
AcDbEntity
  8
layer 1
 62
     7
100
AcDbSpline
210
0.0
220
0.0
230
1.0
 70
    11
 71
     3
 72
    24
 73
    20
 74
     0
 42
0.0000000001
 43
0.0000000001
 12
1.0
 22
0.0
 32
0.0
 13
1.0
 23
0.0
 33
0.0
 40
0.0
 40
0.0
 40
0.0
 40
0.0
 40
0.1666666666666667
 40
0.1666666666666667
 40
0.1666666666666667
 40
0.1666666666666667
 40
0.3333333333333333
 40
0.3333333333333333
 40
0.3333333333333333
 40
0.3333333333333333
 40
0.5
 40
0.5
 40
0.5
 40
0.5
 40
0.6666666666666666
 40
0.6666666666666666
 40
0.6666666666666666
 40
0.6666666666666666
 40
1.0
 40
1.0
 40
1.0
 40
1.0
 10
87.6857
 20
41.3118
 30
0.0
 10
87.6857
 20
41.3118
 30
0.0
 10
86.6314
 20
44.7256
 30
0.0
 10
86.6314
 20
44.7256
 30
0.0
 10
86.6314
 20
44.7256
 30
0.0
 10
86.6314
 20
44.7256
 30
0.0
 10
78.2246
 20
48.4679
 30
0.0
 10
78.2246
 20
48.4679
 30
0.0
 10
78.2246
 20
48.4679
 30
0.0
 10
78.2246
 20
48.4679
 30
0.0
 10
73.3194
 20
44.2786
 30
0.0
 10
73.3194
 20
44.2786
 30
0.0
 10
73.3194
 20
44.2786
 30
0.0
 10
73.3194
 20
44.2786
 30
0.0
 10
79.8262
 20
35.4686
 30
0.0
 10
79.8262
 20
35.4686
 30
0.0
 10
79.8262
 20
35.4686
 30
0.0
 10
79.8262
 20
35.4686
 30
0.0
 10
87.6857
 20
41.3118
 30
0.0
 10
87.6857
 20
41.3118
 30
0.0
  0
SPLINE
  5
E0
330
1F
100
AcDbEntity
  8
layer 1
 62
     7
100
AcDbSpline
210
0.0
220
0.0
230
1.0
 70
    11
 71
     3
 72
    20
 73
    16
 74
     0
 42
0.0000000001
 43
0.0000000001
 12
1.0
 22
0.0
 32
0.0
 13
1.0
 23
0.0
 33
0.0
 40
0.0
 40
0.0
 40
0.0
 40
0.0
 40
0.2
 40
0.2
 40
0.2
 40
0.2
 40
0.4
 40
0.4
 40
0.4
 40
0.4
 40
0.6
 40
0.6
 40
0.6
 40
0.6
 40
1.0
 40
1.0
 40
1.0
 40
1.0
 10
88.3936
 20
39.019
 30
0.0
 10
88.3936
 20
39.019
 30
0.0
 10
81.1703
 20
33.6486
 30
0.0
 10
81.1703
 20
33.6486
 30
0.0
 10
81.1703
 20
33.6486
 30
0.0
 10
81.1703
 20
33.6486
 30
0.0
 10
91.622
 20
19.5883
 30
0.0
 10
91.622
 20
19.5883
 30
0.0
 10
91.622
 20
19.5883
 30
0.0
 10
91.622
 20
19.5883
 30
0.0
 10
94.07
 20
20.6372
 30
0.0
 10
94.07
 20
20.6372
 30
0.0
 10
94.07
 20
20.6372
 30
0.0
 10
94.07
 20
20.6372
 30
0.0
 10
88.3936
 20
39.019
 30
0.0
 10
88.3936
 20
39.019
 30
0.0
  0
SPLINE
  5
E1
330
1F
100
AcDbEntity
  8
layer 1
 62
     7
100
AcDbSpline
210
0.0
220
0.0
230
1.0
 70
    11
 71
     3
 72
    16
 73
    12
 74
     0
 42
0.0000000001
 43
0.0000000001
 12
1.0
 22
0.0
 32
0.0
 13
1.0
 23
0.0
 33
0.0
 40
0.0
 40
0.0
 40
0.0
 40
0.0
 40
0.25
 40
0.25
 40
0.25
 40
0.25
 40
0.5
 40
0.5
 40
0.5
 40
0.5
 40
1.0
 40
1.0
 40
1.0
 40
1.0
 10
61.6206
 20
34.2873
 30
0.0
 10
61.6206
 20
34.2873
 30
0.0
 10
80.0919
 20
31.3004
 30
0.0
 10
80.0919
 20
31.3004
 30
0.0
 10
80.0919
 20
31.3004
 30
0.0
 10
80.0919
 20
31.3004
 30
0.0
 10
71.5948
 20
42.8059
 30
0.0
 10
71.5948
 20
42.8059
 30
0.0
 10
71.5948
 20
42.8059
 30
0.0
 10
71.5948
 20
42.8059
 30
0.0
 10
61.6206
 20
34.2873
 30
0.0
 10
61.6206
 20
34.2873
 30
0.0
  0
SPLINE
  5
E2
330
1F
100
AcDbEntity
  8
layer 1
 62
     7
100
AcDbSpline
210
0.0
220
0.0
230
1.0
 70
    11
 71
     3
 72
    20
 73
    16
 74
     0
 42
0.0000000001
 43
0.0000000001
 12
1.0
 22
0.0
 32
0.0
 13
1.0
 23
0.0
 33
0.0
 40
0.0
 40
0.0
 40
0.0
 40
0.0
 40
0.2
 40
0.2
 40
0.2
 40
0.2
 40
0.4
 40
0.4
 40
0.4
 40
0.4
 40
0.6
 40
0.6
 40
0.6
 40
0.6
 40
1.0
 40
1.0
 40
1.0
 40
1.0
 10
95.3828
 20
62.289
 30
0.0
 10
95.3828
 20
62.289
 30
0.0
 10
94.4302
 20
58.7385
 30
0.0
 10
94.4302
 20
58.7385
 30
0.0
 10
94.4302
 20
58.7385
 30
0.0
 10
94.4302
 20
58.7385
 30
0.0
 10
84.6417
 20
57.2815
 30
0.0
 10
84.6417
 20
57.2815
 30
0.0
 10
84.6417
 20
57.2815
 30
0.0
 10
84.6417
 20
57.2815
 30
0.0
 10
86.5087
 20
62.071
 30
0.0
 10
86.5087
 20
62.071
 30
0.0
 10
86.5087
 20
62.071
 30
0.0
 10
86.5087
 20
62.071
 30
0.0
 10
95.3828
 20
62.289
 30
0.0
 10
95.3828
 20
62.289
 30
0.0
  0
SPLINE
  5
E3
330
1F
100
AcDbEntity
  8
layer 1
 62
     7
100
AcDbSpline
210
0.0
220
0.0
230
1.0
 70
    11
 71
     3
 72
    20
 73
    16
 74
     0
 42
0.0000000001
 43
0.0000000001
 12
1.0
 22
0.0
 32
0.0
 13
1.0
 23
0.0
 33
0.0
 40
0.0
 40
0.0
 40
0.0
 40
0.0
 40
0.2
 40
0.2
 40
0.2
 40
0.2
 40
0.4
 40
0.4
 40
0.4
 40
0.4
 40
0.6
 40
0.6
 40
0.6
 40
0.6
 40
1.0
 40
1.0
 40
1.0
 40
1.0
 10
82.0617
 20
56.8967
 30
0.0
 10
82.0617
 20
56.8967
 30
0.0
 10
89.4417
 20
75.8297
 30
0.0
 10
89.4417
 20
75.8297
 30
0.0
 10
89.4417
 20
75.8297
 30
0.0
 10
89.4417
 20
75.8297
 30
0.0
 10
81.3038
 20
75.4645
 30
0.0
 10
81.3038
 20
75.4645
 30
0.0
 10
81.3038
 20
75.4645
 30
0.0
 10
81.3038
 20
75.4645
 30
0.0
 10
81.3038
 20
56.7838
 30
0.0
 10
81.3038
 20
56.7838
 30
0.0
 10
81.3038
 20
56.7838
 30
0.0
 10
81.3038
 20
56.7838
 30
0.0
 10
82.0617
 20
56.8967
 30
0.0
 10
82.0617
 20
56.8967
 30
0.0
  0
SPLINE
  5
E4
330
1F
100
AcDbEntity
  8
layer 1
 62
     7
100
AcDbSpline
210
0.0
220
0.0
230
1.0
 70
    11
 71
     3
 72
    20
 73
    16
 74
     0
 42
0.0000000001
 43
0.0000000001
 12
1.0
 22
0.0
 32
0.0
 13
1.0
 23
0.0
 33
0.0
 40
0.0
 40
0.0
 40
0.0
 40
0.0
 40
0.2
 40
0.2
 40
0.2
 40
0.2
 40
0.4
 40
0.4
 40
0.4
 40
0.4
 40
0.6
 40
0.6
 40
0.6
 40
0.6
 40
1.0
 40
1.0
 40
1.0
 40
1.0
 10
45.6575
 20
-76.9627
 30
0.0
 10
45.6575
 20
-76.9627
 30
0.0
 10
40.5128
 20
-85.0874
 30
0.0
 10
40.5128
 20
-85.0874
 30
0.0
 10
40.5128
 20
-85.0874
 30
0.0
 10
40.5128
 20
-85.0874
 30
0.0
 10
43.3369
 20
-90.7478
 30
0.0
 10
43.3369
 20
-90.7478
 30
0.0
 10
43.3369
 20
-90.7478
 30
0.0
 10
43.3369
 20
-90.7478
 30
0.0
 10
52.5666
 20
-84.1634
 30
0.0
 10
52.5666
 20
-84.1634
 30
0.0
 10
52.5666
 20
-84.1634
 30
0.0
 10
52.5666
 20
-84.1634
 30
0.0
 10
45.6575
 20
-76.9627
 30
0.0
 10
45.6575
 20
-76.9627
 30
0.0
  0
SPLINE
  5
E5
330
1F
100
AcDbEntity
  8
layer 1
 62
     7
100
AcDbSpline
210
0.0
220
0.0
230
1.0
 70
    11
 71
     3
 72
    20
 73
    16
 74
     0
 42
0.0000000001
 43
0.0000000001
 12
1.0
 22
0.0
 32
0.0
 13
1.0
 23
0.0
 33
0.0
 40
0.0
 40
0.0
 40
0.0
 40
0.0
 40
0.2
 40
0.2
 40
0.2
 40
0.2
 40
0.4
 40
0.4
 40
0.4
 40
0.4
 40
0.6
 40
0.6
 40
0.6
 40
0.6
 40
1.0
 40
1.0
 40
1.0
 40
1.0
 10
54.4294
 20
-82.8345
 30
0.0
 10
54.4294
 20
-82.8345
 30
0.0
 10
59.0878
 20
-79.5112
 30
0.0
 10
59.0878
 20
-79.5112
 30
0.0
 10
59.0878
 20
-79.5112
 30
0.0
 10
59.0878
 20
-79.5112
 30
0.0
 10
58.2596
 20
-74.571
 30
0.0
 10
58.2596
 20
-74.571
 30
0.0
 10
58.2596
 20
-74.571
 30
0.0
 10
58.2596
 20
-74.571
 30
0.0
 10
49.4221
 20
-77.6157
 30
0.0
 10
49.4221
 20
-77.6157
 30
0.0
 10
49.4221
 20
-77.6157
 30
0.0
 10
49.4221
 20
-77.6157
 30
0.0
 10
54.4294
 20
-82.8345
 30
0.0
 10
54.4294
 20
-82.8345
 30
0.0
  0
SPLINE
  5
E6
330
1F
100
AcDbEntity
  8
layer 1
 62
     7
100
AcDbSpline
210
0.0
220
0.0
230
1.0
 70
    11
 71
     3
 72
    20
 73
    16
 74
     0
 42
0.0000000001
 43
0.0000000001
 12
1.0
 22
0.0
 32
0.0
 13
1.0
 23
0.0
 33
0.0
 40
0.0
 40
0.0
 40
0.0
 40
0.0
 40
0.2
 40
0.2
 40
0.2
 40
0.2
 40
0.4
 40
0.4
 40
0.4
 40
0.4
 40
0.6
 40
0.6
 40
0.6
 40
0.6
 40
1.0
 40
1.0
 40
1.0
 40
1.0
 10
47.6953
 20
-75.8161
 30
0.0
 10
47.6953
 20
-75.8161
 30
0.0
 10
54.4167
 20
-73.5004
 30
0.0
 10
54.4167
 20
-73.5004
 30
0.0
 10
54.4167
 20
-73.5004
 30
0.0
 10
54.4167
 20
-73.5004
 30
0.0
 10
47.8605
 20
-63.8922
 30
0.0
 10
47.8605
 20
-63.8922
 30
0.0
 10
47.8605
 20
-63.8922
 30
0.0
 10
47.8605
 20
-63.8922
 30
0.0
 10
41.4433
 20
-69.2998
 30
0.0
 10
41.4433
 20
-69.2998
 30
0.0
 10
41.4433
 20
-69.2998
 30
0.0
 10
41.4433
 20
-69.2998
 30
0.0
 10
47.6953
 20
-75.8161
 30
0.0
 10
47.6953
 20
-75.8161
 30
0.0
  0
SPLINE
  5
E7
330
1F
100
AcDbEntity
  8
layer 1
 62
     7
100
AcDbSpline
210
0.0
220
0.0
230
1.0
 70
    11
 71
     3
 72
    20
 73
    16
 74
     0
 42
0.0000000001
 43
0.0000000001
 12
1.0
 22
0.0
 32
0.0
 13
1.0
 23
0.0
 33
0.0
 40
0.0
 40
0.0
 40
0.0
 40
0.0
 40
0.2
 40
0.2
 40
0.2
 40
0.2
 40
0.4
 40
0.4
 40
0.4
 40
0.4
 40
0.6
 40
0.6
 40
0.6
 40
0.6
 40
1.0
 40
1.0
 40
1.0
 40
1.0
 10
59.5039
 20
-81.9933
 30
0.0
 10
59.5039
 20
-81.9933
 30
0.0
 10
50.8009
 20
-88.202
 30
0.0
 10
50.8009
 20
-88.202
 30
0.0
 10
50.8009
 20
-88.202
 30
0.0
 10
50.8009
 20
-88.202
 30
0.0
 10
54.0953
 20
-92.0778
 30
0.0
 10
54.0953
 20
-92.0778
 30
0.0
 10
54.0953
 20
-92.0778
 30
0.0
 10
54.0953
 20
-92.0778
 30
0.0
 10
61.0149
 20
-91.0054
 30
0.0
 10
61.0149
 20
-91.0054
 30
0.0
 10
61.0149
 20
-91.0054
 30
0.0
 10
61.0149
 20
-91.0054
 30
0.0
 10
59.5039
 20
-81.9933
 30
0.0
 10
59.5039
 20
-81.9933
 30
0.0
  0
SPLINE
  5
E8
330
1F
100
AcDbEntity
  8
layer 1
 62
     7
100
AcDbSpline
210
0.0
220
0.0
230
1.0
 70
    11
 71
     3
 72
    20
 73
    16
 74
     0
 42
0.0000000001
 43
0.0000000001
 12
1.0
 22
0.0
 32
0.0
 13
1.0
 23
0.0
 33
0.0
 40
0.0
 40
0.0
 40
0.0
 40
0.0
 40
0.2
 40
0.2
 40
0.2
 40
0.2
 40
0.4
 40
0.4
 40
0.4
 40
0.4
 40
0.6
 40
0.6
 40
0.6
 40
0.6
 40
1.0
 40
1.0
 40
1.0
 40
1.0
 10
63.252
 20
-90.6587
 30
0.0
 10
63.252
 20
-90.6587
 30
0.0
 10
71.2727
 20
-89.4156
 30
0.0
 10
71.2727
 20
-89.4156
 30
0.0
 10
71.2727
 20
-89.4156
 30
0.0
 10
71.2727
 20
-89.4156
 30
0.0
 10
65.8924
 20
-82.4981
 30
0.0
 10
65.8924
 20
-82.4981
 30
0.0
 10
65.8924
 20
-82.4981
 30
0.0
 10
65.8924
 20
-82.4981
 30
0.0
 10
62.2092
 20
-84.438
 30
0.0
 10
62.2092
 20
-84.438
 30
0.0
 10
62.2092
 20
-84.438
 30
0.0
 10
62.2092
 20
-84.438
 30
0.0
 10
63.252
 20
-90.6587
 30
0.0
 10
63.252
 20
-90.6587
 30
0.0
  0
SPLINE
  5
E9
330
1F
100
AcDbEntity
  8
layer 1
 62
     7
100
AcDbSpline
210
0.0
220
0.0
230
1.0
 70
    11
 71
     3
 72
    20
 73
    16
 74
     0
 42
0.0000000001
 43
0.0000000001
 12
1.0
 22
0.0
 32
0.0
 13
1.0
 23
0.0
 33
0.0
 40
0.0
 40
0.0
 40
0.0
 40
0.0
 40
0.2
 40
0.2
 40
0.2
 40
0.2
 40
0.4
 40
0.4
 40
0.4
 40
0.4
 40
0.6
 40
0.6
 40
0.6
 40
0.6
 40
1.0
 40
1.0
 40
1.0
 40
1.0
 10
61.8151
 20
-82.0876
 30
0.0
 10
61.8151
 20
-82.0876
 30
0.0
 10
70.379
 20
-77.5771
 30
0.0
 10
70.379
 20
-77.5771
 30
0.0
 10
70.379
 20
-77.5771
 30
0.0
 10
70.379
 20
-77.5771
 30
0.0
 10
68.2774
 20
-71.1197
 30
0.0
 10
68.2774
 20
-71.1197
 30
0.0
 10
68.2774
 20
-71.1197
 30
0.0
 10
68.2774
 20
-71.1197
 30
0.0
 10
60.4296
 20
-73.8233
 30
0.0
 10
60.4296
 20
-73.8233
 30
0.0
 10
60.4296
 20
-73.8233
 30
0.0
 10
60.4296
 20
-73.8233
 30
0.0
 10
61.8151
 20
-82.0876
 30
0.0
 10
61.8151
 20
-82.0876
 30
0.0
  0
SPLINE
  5
EA
330
1F
100
AcDbEntity
  8
layer 1
 62
     7
100
AcDbSpline
210
0.0
220
0.0
230
1.0
 70
    11
 71
     3
 72
    24
 73
    20
 74
     0
 42
0.0000000001
 43
0.0000000001
 12
1.0
 22
0.0
 32
0.0
 13
1.0
 23
0.0
 33
0.0
 40
0.0
 40
0.0
 40
0.0
 40
0.0
 40
0.1666666666666667
 40
0.1666666666666667
 40
0.1666666666666667
 40
0.1666666666666667
 40
0.3333333333333333
 40
0.3333333333333333
 40
0.3333333333333333
 40
0.3333333333333333
 40
0.5
 40
0.5
 40
0.5
 40
0.5
 40
0.6666666666666666
 40
0.6666666666666666
 40
0.6666666666666666
 40
0.6666666666666666
 40
1.0
 40
1.0
 40
1.0
 40
1.0
 10
67.5768
 20
-68.9665
 30
0.0
 10
67.5768
 20
-68.9665
 30
0.0
 10
65.5157
 20
-62.633
 30
0.0
 10
65.5157
 20
-62.633
 30
0.0
 10
65.5157
 20
-62.633
 30
0.0
 10
65.5157
 20
-62.633
 30
0.0
 10
53.4304
 20
-63.2746
 30
0.0
 10
53.4304
 20
-63.2746
 30
0.0
 10
53.4304
 20
-63.2746
 30
0.0
 10
53.4304
 20
-63.2746
 30
0.0
 10
53.0651
 20
-67.5027
 30
0.0
 10
53.0651
 20
-67.5027
 30
0.0
 10
53.0651
 20
-67.5027
 30
0.0
 10
53.0651
 20
-67.5027
 30
0.0
 10
56.6361
 20
-72.7359
 30
0.0
 10
56.6361
 20
-72.7359
 30
0.0
 10
56.6361
 20
-72.7359
 30
0.0
 10
56.6361
 20
-72.7359
 30
0.0
 10
67.5768
 20
-68.9665
 30
0.0
 10
67.5768
 20
-68.9665
 30
0.0
  0
SPLINE
  5
EB
330
1F
100
AcDbEntity
  8
layer 1
 62
     7
100
AcDbSpline
210
0.0
220
0.0
230
1.0
 70
    11
 71
     3
 72
    16
 73
    12
 74
     0
 42
0.0000000001
 43
0.0000000001
 12
1.0
 22
0.0
 32
0.0
 13
1.0
 23
0.0
 33
0.0
 40
0.0
 40
0.0
 40
0.0
 40
0.0
 40
0.25
 40
0.25
 40
0.25
 40
0.25
 40
0.5
 40
0.5
 40
0.5
 40
0.5
 40
1.0
 40
1.0
 40
1.0
 40
1.0
 10
51.0486
 20
-64.5473
 30
0.0
 10
51.0486
 20
-64.5473
 30
0.0
 10
52.1532
 20
-51.7591
 30
0.0
 10
52.1532
 20
-51.7591
 30
0.0
 10
52.1532
 20
-51.7591
 30
0.0
 10
52.1532
 20
-51.7591
 30
0.0
 10
42.012
 20
-51.3039
 30
0.0
 10
42.012
 20
-51.3039
 30
0.0
 10
42.012
 20
-51.3039
 30
0.0
 10
42.012
 20
-51.3039
 30
0.0
 10
51.0486
 20
-64.5473
 30
0.0
 10
51.0486
 20
-64.5473
 30
0.0
  0
SPLINE
  5
EC
330
1F
100
AcDbEntity
  8
layer 1
 62
     7
100
AcDbSpline
210
0.0
220
0.0
230
1.0
 70
    11
 71
     3
 72
    16
 73
    12
 74
     0
 42
0.0000000001
 43
0.0000000001
 12
1.0
 22
0.0
 32
0.0
 13
1.0
 23
0.0
 33
0.0
 40
0.0
 40
0.0
 40
0.0
 40
0.0
 40
0.25
 40
0.25
 40
0.25
 40
0.25
 40
0.5
 40
0.5
 40
0.5
 40
0.5
 40
1.0
 40
1.0
 40
1.0
 40
1.0
 10
53.6272
 20
-60.9953
 30
0.0
 10
53.6272
 20
-60.9953
 30
0.0
 10
54.9025
 20
-46.2321
 30
0.0
 10
54.9025
 20
-46.2321
 30
0.0
 10
54.9025
 20
-46.2321
 30
0.0
 10
54.9025
 20
-46.2321
 30
0.0
 10
70.3486
 20
-60.1077
 30
0.0
 10
70.3486
 20
-60.1077
 30
0.0
 10
70.3486
 20
-60.1077
 30
0.0
 10
70.3486
 20
-60.1077
 30
0.0
 10
53.6272
 20
-60.9953
 30
0.0
 10
53.6272
 20
-60.9953
 30
0.0
  0
SPLINE
  5
ED
330
1F
100
AcDbEntity
  8
layer 1
 62
     7
100
AcDbSpline
210
0.0
220
0.0
230
1.0
 70
    11
 71
     3
 72
    16
 73
    12
 74
     0
 42
0.0000000001
 43
0.0000000001
 12
1.0
 22
0.0
 32
0.0
 13
1.0
 23
0.0
 33
0.0
 40
0.0
 40
0.0
 40
0.0
 40
0.0
 40
0.25
 40
0.25
 40
0.25
 40
0.25
 40
0.5
 40
0.5
 40
0.5
 40
0.5
 40
1.0
 40
1.0
 40
1.0
 40
1.0
 10
67.5865
 20
116.3
 30
0.0
 10
67.5865
 20
116.3
 30
0.0
 10
63.325
 20
103.9565
 30
0.0
 10
63.325
 20
103.9565
 30
0.0
 10
63.325
 20
103.9565
 30
0.0
 10
63.325
 20
103.9565
 30
0.0
 10
74.7199
 20
111.3637
 30
0.0
 10
74.7199
 20
111.3637
 30
0.0
 10
74.7199
 20
111.3637
 30
0.0
 10
74.7199
 20
111.3637
 30
0.0
 10
67.5865
 20
116.3
 30
0.0
 10
67.5865
 20
116.3
 30
0.0
  0
SPLINE
  5
EE
330
1F
100
AcDbEntity
  8
layer 1
 62
     7
100
AcDbSpline
210
0.0
220
0.0
230
1.0
 70
    11
 71
     3
 72
    24
 73
    20
 74
     0
 42
0.0000000001
 43
0.0000000001
 12
1.0
 22
0.0
 32
0.0
 13
1.0
 23
0.0
 33
0.0
 40
0.0
 40
0.0
 40
0.0
 40
0.0
 40
0.1666666666666667
 40
0.1666666666666667
 40
0.1666666666666667
 40
0.1666666666666667
 40
0.3333333333333333
 40
0.3333333333333333
 40
0.3333333333333333
 40
0.3333333333333333
 40
0.5
 40
0.5
 40
0.5
 40
0.5
 40
0.6666666666666666
 40
0.6666666666666666
 40
0.6666666666666666
 40
0.6666666666666666
 40
1.0
 40
1.0
 40
1.0
 40
1.0
 10
52.7789
 20
109.1248
 30
0.0
 10
52.7789
 20
109.1248
 30
0.0
 10
62.6311
 20
108.8828
 30
0.0
 10
62.6311
 20
108.8828
 30
0.0
 10
62.6311
 20
108.8828
 30
0.0
 10
62.6311
 20
108.8828
 30
0.0
 10
65.6535
 20
117.6376
 30
0.0
 10
65.6535
 20
117.6376
 30
0.0
 10
65.6535
 20
117.6376
 30
0.0
 10
65.6535
 20
117.6376
 30
0.0
 10
57.6023
 20
123.2092
 30
0.0
 10
57.6023
 20
123.2092
 30
0.0
 10
57.6023
 20
123.2092
 30
0.0
 10
57.6023
 20
123.2092
 30
0.0
 10
50.308
 20
118.3346
 30
0.0
 10
50.308
 20
118.3346
 30
0.0
 10
50.308
 20
118.3346
 30
0.0
 10
50.308
 20
118.3346
 30
0.0
 10
52.7789
 20
109.1248
 30
0.0
 10
52.7789
 20
109.1248
 30
0.0
  0
SPLINE
  5
EF
330
1F
100
AcDbEntity
  8
layer 1
 62
     7
100
AcDbSpline
210
0.0
220
0.0
230
1.0
 70
    11
 71
     3
 72
    20
 73
    16
 74
     0
 42
0.0000000001
 43
0.0000000001
 12
1.0
 22
0.0
 32
0.0
 13
1.0
 23
0.0
 33
0.0
 40
0.0
 40
0.0
 40
0.0
 40
0.0
 40
0.2
 40
0.2
 40
0.2
 40
0.2
 40
0.4
 40
0.4
 40
0.4
 40
0.4
 40
0.6
 40
0.6
 40
0.6
 40
0.6
 40
1.0
 40
1.0
 40
1.0
 40
1.0
 10
41.5455
 20
109.4008
 30
0.0
 10
41.5455
 20
109.4008
 30
0.0
 10
50.4196
 20
109.1828
 30
0.0
 10
50.4196
 20
109.1828
 30
0.0
 10
50.4196
 20
109.1828
 30
0.0
 10
50.4196
 20
109.1828
 30
0.0
 10
45.8691
 20
126.1433
 30
0.0
 10
45.8691
 20
126.1433
 30
0.0
 10
45.8691
 20
126.1433
 30
0.0
 10
45.8691
 20
126.1433
 30
0.0
 10
36.6307
 20
122.0097
 30
0.0
 10
36.6307
 20
122.0097
 30
0.0
 10
36.6307
 20
122.0097
 30
0.0
 10
36.6307
 20
122.0097
 30
0.0
 10
41.5455
 20
109.4008
 30
0.0
 10
41.5455
 20
109.4008
 30
0.0
  0
SPLINE
  5
F0
330
1F
100
AcDbEntity
  8
layer 1
 62
     7
100
AcDbSpline
210
0.0
220
0.0
230
1.0
 70
    11
 71
     3
 72
    28
 73
    24
 74
     0
 42
0.0000000001
 43
0.0000000001
 12
1.0
 22
0.0
 32
0.0
 13
1.0
 23
0.0
 33
0.0
 40
0.0
 40
0.0
 40
0.0
 40
0.0
 40
0.1428571428571428
 40
0.1428571428571428
 40
0.1428571428571428
 40
0.1428571428571428
 40
0.2857142857142857
 40
0.2857142857142857
 40
0.2857142857142857
 40
0.2857142857142857
 40
0.4285714285714285
 40
0.4285714285714285
 40
0.4285714285714285
 40
0.4285714285714285
 40
0.5714285714285714
 40
0.5714285714285714
 40
0.5714285714285714
 40
0.5714285714285714
 40
0.7142857142857143
 40
0.7142857142857143
 40
0.7142857142857143
 40
0.7142857142857143
 40
1.0
 40
1.0
 40
1.0
 40
1.0
 10
46.9517
 20
95.5312
 30
0.0
 10
46.9517
 20
95.5312
 30
0.0
 10
52.5317
 20
95.2806
 30
0.0
 10
52.5317
 20
95.2806
 30
0.0
 10
52.5317
 20
95.2806
 30
0.0
 10
52.5317
 20
95.2806
 30
0.0
 10
52.9775
 20
100.4442
 30
0.0
 10
52.9775
 20
100.4442
 30
0.0
 10
52.9775
 20
100.4442
 30
0.0
 10
52.9775
 20
100.4442
 30
0.0
 10
45.6968
 20
106.9849
 30
0.0
 10
45.6968
 20
106.9849
 30
0.0
 10
45.6968
 20
106.9849
 30
0.0
 10
45.6968
 20
106.9849
 30
0.0
 10
45.7416
 20
107.0313
 30
0.0
 10
45.7416
 20
107.0313
 30
0.0
 10
45.7416
 20
107.0313
 30
0.0
 10
45.7416
 20
107.0313
 30
0.0
 10
42.4375
 20
107.1125
 30
0.0
 10
42.4375
 20
107.1125
 30
0.0
 10
42.4375
 20
107.1125
 30
0.0
 10
42.4375
 20
107.1125
 30
0.0
 10
46.9517
 20
95.5312
 30
0.0
 10
46.9517
 20
95.5312
 30
0.0
  0
SPLINE
  5
F1
330
1F
100
AcDbEntity
  8
layer 1
 62
     7
100
AcDbSpline
210
0.0
220
0.0
230
1.0
 70
    11
 71
     3
 72
    20
 73
    16
 74
     0
 42
0.0000000001
 43
0.0000000001
 12
1.0
 22
0.0
 32
0.0
 13
1.0
 23
0.0
 33
0.0
 40
0.0
 40
0.0
 40
0.0
 40
0.0
 40
0.2
 40
0.2
 40
0.2
 40
0.2
 40
0.4
 40
0.4
 40
0.4
 40
0.4
 40
0.6
 40
0.6
 40
0.6
 40
0.6
 40
1.0
 40
1.0
 40
1.0
 40
1.0
 10
65.3396
 20
-7.071
 30
0.0
 10
65.3396
 20
-7.071
 30
0.0
 10
74.431
 20
-4.1292
 30
0.0
 10
74.431
 20
-4.1292
 30
0.0
 10
74.431
 20
-4.1292
 30
0.0
 10
74.431
 20
-4.1292
 30
0.0
 10
70.5107
 20
4.4562
 30
0.0
 10
70.5107
 20
4.4562
 30
0.0
 10
70.5107
 20
4.4562
 30
0.0
 10
70.5107
 20
4.4562
 30
0.0
 10
61.5072
 20
-3.0179
 30
0.0
 10
61.5072
 20
-3.0179
 30
0.0
 10
61.5072
 20
-3.0179
 30
0.0
 10
61.5072
 20
-3.0179
 30
0.0
 10
65.3396
 20
-7.071
 30
0.0
 10
65.3396
 20
-7.071
 30
0.0
  0
SPLINE
  5
F2
330
1F
100
AcDbEntity
  8
layer 1
 62
     7
100
AcDbSpline
210
0.0
220
0.0
230
1.0
 70
    11
 71
     3
 72
    20
 73
    16
 74
     0
 42
0.0000000001
 43
0.0000000001
 12
1.0
 22
0.0
 32
0.0
 13
1.0
 23
0.0
 33
0.0
 40
0.0
 40
0.0
 40
0.0
 40
0.0
 40
0.2
 40
0.2
 40
0.2
 40
0.2
 40
0.4
 40
0.4
 40
0.4
 40
0.4
 40
0.6
 40
0.6
 40
0.6
 40
0.6
 40
1.0
 40
1.0
 40
1.0
 40
1.0
 10
59.7608
 20
-4.4675
 30
0.0
 10
59.7608
 20
-4.4675
 30
0.0
 10
55.6014
 20
-7.9202
 30
0.0
 10
55.6014
 20
-7.9202
 30
0.0
 10
55.6014
 20
-7.9202
 30
0.0
 10
55.6014
 20
-7.9202
 30
0.0
 10
62.0795
 20
-15.735
 30
0.0
 10
62.0795
 20
-15.735
 30
0.0
 10
62.0795
 20
-15.735
 30
0.0
 10
62.0795
 20
-15.735
 30
0.0
 10
67.187
 20
-12.3219
 30
0.0
 10
67.187
 20
-12.3219
 30
0.0
 10
67.187
 20
-12.3219
 30
0.0
 10
67.187
 20
-12.3219
 30
0.0
 10
59.7608
 20
-4.4675
 30
0.0
 10
59.7608
 20
-4.4675
 30
0.0
  0
SPLINE
  5
F3
330
1F
100
AcDbEntity
  8
layer 1
 62
     7
100
AcDbSpline
210
0.0
220
0.0
230
1.0
 70
    11
 71
     3
 72
    20
 73
    16
 74
     0
 42
0.0000000001
 43
0.0000000001
 12
1.0
 22
0.0
 32
0.0
 13
1.0
 23
0.0
 33
0.0
 40
0.0
 40
0.0
 40
0.0
 40
0.0
 40
0.2
 40
0.2
 40
0.2
 40
0.2
 40
0.4
 40
0.4
 40
0.4
 40
0.4
 40
0.6
 40
0.6
 40
0.6
 40
0.6
 40
1.0
 40
1.0
 40
1.0
 40
1.0
 10
68.7651
 20
-13.991
 30
0.0
 10
68.7651
 20
-13.991
 30
0.0
 10
59.4446
 20
-20.2197
 30
0.0
 10
59.4446
 20
-20.2197
 30
0.0
 10
59.4446
 20
-20.2197
 30
0.0
 10
59.4446
 20
-20.2197
 30
0.0
 10
63.5576
 20
-23.0657
 30
0.0
 10
63.5576
 20
-23.0657
 30
0.0
 10
63.5576
 20
-23.0657
 30
0.0
 10
63.5576
 20
-23.0657
 30
0.0
 10
74.1155
 20
-19.6495
 30
0.0
 10
74.1155
 20
-19.6495
 30
0.0
 10
74.1155
 20
-19.6495
 30
0.0
 10
74.1155
 20
-19.6495
 30
0.0
 10
68.7651
 20
-13.991
 30
0.0
 10
68.7651
 20
-13.991
 30
0.0
  0
SPLINE
  5
F4
330
1F
100
AcDbEntity
  8
layer 1
 62
     7
100
AcDbSpline
210
0.0
220
0.0
230
1.0
 70
    11
 71
     3
 72
    28
 73
    24
 74
     0
 42
0.0000000001
 43
0.0000000001
 12
1.0
 22
0.0
 32
0.0
 13
1.0
 23
0.0
 33
0.0
 40
0.0
 40
0.0
 40
0.0
 40
0.0
 40
0.1428571428571428
 40
0.1428571428571428
 40
0.1428571428571428
 40
0.1428571428571428
 40
0.2857142857142857
 40
0.2857142857142857
 40
0.2857142857142857
 40
0.2857142857142857
 40
0.4285714285714285
 40
0.4285714285714285
 40
0.4285714285714285
 40
0.4285714285714285
 40
0.5714285714285714
 40
0.5714285714285714
 40
0.5714285714285714
 40
0.5714285714285714
 40
0.7142857142857143
 40
0.7142857142857143
 40
0.7142857142857143
 40
0.7142857142857143
 40
1.0
 40
1.0
 40
1.0
 40
1.0
 10
52.3481
 20
-49.5019
 30
0.0
 10
52.3481
 20
-49.5019
 30
0.0
 10
52.7941
 20
-44.3382
 30
0.0
 10
52.7941
 20
-44.3382
 30
0.0
 10
52.7941
 20
-44.3382
 30
0.0
 10
52.7941
 20
-44.3382
 30
0.0
 10
45.5132
 20
-37.7975
 30
0.0
 10
45.5132
 20
-37.7975
 30
0.0
 10
45.5132
 20
-37.7975
 30
0.0
 10
45.5132
 20
-37.7975
 30
0.0
 10
45.558
 20
-37.7511
 30
0.0
 10
45.558
 20
-37.7511
 30
0.0
 10
45.558
 20
-37.7511
 30
0.0
 10
45.558
 20
-37.7511
 30
0.0
 10
42.2539
 20
-37.6701
 30
0.0
 10
42.2539
 20
-37.6701
 30
0.0
 10
42.2539
 20
-37.6701
 30
0.0
 10
42.2539
 20
-37.6701
 30
0.0
 10
46.7683
 20
-49.2512
 30
0.0
 10
46.7683
 20
-49.2512
 30
0.0
 10
46.7683
 20
-49.2512
 30
0.0
 10
46.7683
 20
-49.2512
 30
0.0
 10
52.3481
 20
-49.5019
 30
0.0
 10
52.3481
 20
-49.5019
 30
0.0
  0
SPLINE
  5
F5
330
1F
100
AcDbEntity
  8
layer 1
 62
     7
100
AcDbSpline
210
0.0
220
0.0
230
1.0
 70
    11
 71
     3
 72
    16
 73
    12
 74
     0
 42
0.0000000001
 43
0.0000000001
 12
1.0
 22
0.0
 32
0.0
 13
1.0
 23
0.0
 33
0.0
 40
0.0
 40
0.0
 40
0.0
 40
0.0
 40
0.25
 40
0.25
 40
0.25
 40
0.25
 40
0.5
 40
0.5
 40
0.5
 40
0.5
 40
1.0
 40
1.0
 40
1.0
 40
1.0
 10
58.7412
 20
-46.6353
 30
0.0
 10
58.7412
 20
-46.6353
 30
0.0
 10
61.6716
 20
-38.1471
 30
0.0
 10
61.6716
 20
-38.1471
 30
0.0
 10
61.6716
 20
-38.1471
 30
0.0
 10
61.6716
 20
-38.1471
 30
0.0
 10
48.9442
 20
-37.8344
 30
0.0
 10
48.9442
 20
-37.8344
 30
0.0
 10
48.9442
 20
-37.8344
 30
0.0
 10
48.9442
 20
-37.8344
 30
0.0
 10
58.7412
 20
-46.6353
 30
0.0
 10
58.7412
 20
-46.6353
 30
0.0
  0
SPLINE
  5
F6
330
1F
100
AcDbEntity
  8
layer 1
 62
     7
100
AcDbSpline
210
0.0
220
0.0
230
1.0
 70
    11
 71
     3
 72
    24
 73
    20
 74
     0
 42
0.0000000001
 43
0.0000000001
 12
1.0
 22
0.0
 32
0.0
 13
1.0
 23
0.0
 33
0.0
 40
0.0
 40
0.0
 40
0.0
 40
0.0
 40
0.1666666666666667
 40
0.1666666666666667
 40
0.1666666666666667
 40
0.1666666666666667
 40
0.3333333333333333
 40
0.3333333333333333
 40
0.3333333333333333
 40
0.3333333333333333
 40
0.5
 40
0.5
 40
0.5
 40
0.5
 40
0.6666666666666666
 40
0.6666666666666666
 40
0.6666666666666666
 40
0.6666666666666666
 40
1.0
 40
1.0
 40
1.0
 40
1.0
 10
62.4475
 20
-35.8997
 30
0.0
 10
62.4475
 20
-35.8997
 30
0.0
 10
65.47
 20
-27.1449
 30
0.0
 10
65.47
 20
-27.1449
 30
0.0
 10
65.47
 20
-27.1449
 30
0.0
 10
65.47
 20
-27.1449
 30
0.0
 10
57.4187
 20
-21.5733
 30
0.0
 10
57.4187
 20
-21.5733
 30
0.0
 10
57.4187
 20
-21.5733
 30
0.0
 10
57.4187
 20
-21.5733
 30
0.0
 10
50.1244
 20
-26.4477
 30
0.0
 10
50.1244
 20
-26.4477
 30
0.0
 10
50.1244
 20
-26.4477
 30
0.0
 10
50.1244
 20
-26.4477
 30
0.0
 10
52.5953
 20
-35.6577
 30
0.0
 10
52.5953
 20
-35.6577
 30
0.0
 10
52.5953
 20
-35.6577
 30
0.0
 10
52.5953
 20
-35.6577
 30
0.0
 10
62.4475
 20
-35.8997
 30
0.0
 10
62.4475
 20
-35.8997
 30
0.0
  0
SPLINE
  5
F7
330
1F
100
AcDbEntity
  8
layer 1
 62
     7
100
AcDbSpline
210
0.0
220
0.0
230
1.0
 70
    11
 71
     3
 72
    20
 73
    16
 74
     0
 42
0.0000000001
 43
0.0000000001
 12
1.0
 22
0.0
 32
0.0
 13
1.0
 23
0.0
 33
0.0
 40
0.0
 40
0.0
 40
0.0
 40
0.0
 40
0.2
 40
0.2
 40
0.2
 40
0.2
 40
0.4
 40
0.4
 40
0.4
 40
0.4
 40
0.6
 40
0.6
 40
0.6
 40
0.6
 40
1.0
 40
1.0
 40
1.0
 40
1.0
 10
50.236
 20
-35.5996
 30
0.0
 10
50.236
 20
-35.5996
 30
0.0
 10
45.6855
 20
-18.6392
 30
0.0
 10
45.6855
 20
-18.6392
 30
0.0
 10
45.6855
 20
-18.6392
 30
0.0
 10
45.6855
 20
-18.6392
 30
0.0
 10
36.4472
 20
-22.7728
 30
0.0
 10
36.4472
 20
-22.7728
 30
0.0
 10
36.4472
 20
-22.7728
 30
0.0
 10
36.4472
 20
-22.7728
 30
0.0
 10
41.3617
 20
-35.3816
 30
0.0
 10
41.3617
 20
-35.3816
 30
0.0
 10
41.3617
 20
-35.3816
 30
0.0
 10
41.3617
 20
-35.3816
 30
0.0
 10
50.236
 20
-35.5996
 30
0.0
 10
50.236
 20
-35.5996
 30
0.0
  0
SPLINE
  5
F8
330
1F
100
AcDbEntity
  8
layer 1
 62
     7
100
AcDbSpline
210
0.0
220
0.0
230
1.0
 70
    11
 71
     3
 72
    16
 73
    12
 74
     0
 42
0.0000000001
 43
0.0000000001
 12
1.0
 22
0.0
 32
0.0
 13
1.0
 23
0.0
 33
0.0
 40
0.0
 40
0.0
 40
0.0
 40
0.0
 40
0.25
 40
0.25
 40
0.25
 40
0.25
 40
0.5
 40
0.5
 40
0.5
 40
0.5
 40
1.0
 40
1.0
 40
1.0
 40
1.0
 10
63.1416
 20
-40.8261
 30
0.0
 10
63.1416
 20
-40.8261
 30
0.0
 10
74.5363
 20
-33.4189
 30
0.0
 10
74.5363
 20
-33.4189
 30
0.0
 10
74.5363
 20
-33.4189
 30
0.0
 10
74.5363
 20
-33.4189
 30
0.0
 10
67.4029
 20
-28.4824
 30
0.0
 10
67.4029
 20
-28.4824
 30
0.0
 10
67.4029
 20
-28.4824
 30
0.0
 10
67.4029
 20
-28.4824
 30
0.0
 10
63.1416
 20
-40.8261
 30
0.0
 10
63.1416
 20
-40.8261
 30
0.0
  0
SPLINE
  5
F9
330
1F
100
AcDbEntity
  8
layer 1
 62
     7
100
AcDbSpline
210
0.0
220
0.0
230
1.0
 70
    11
 71
     3
 72
    20
 73
    16
 74
     0
 42
0.0000000001
 43
0.0000000001
 12
1.0
 22
0.0
 32
0.0
 13
1.0
 23
0.0
 33
0.0
 40
0.0
 40
0.0
 40
0.0
 40
0.0
 40
0.2
 40
0.2
 40
0.2
 40
0.2
 40
0.4
 40
0.4
 40
0.4
 40
0.4
 40
0.6
 40
0.6
 40
0.6
 40
0.6
 40
1.0
 40
1.0
 40
1.0
 40
1.0
 10
60.1855
 20
-17.0007
 30
0.0
 10
60.1855
 20
-17.0007
 30
0.0
 10
57.2532
 20
-13.4635
 30
0.0
 10
57.2532
 20
-13.4635
 30
0.0
 10
57.2532
 20
-13.4635
 30
0.0
 10
57.2532
 20
-13.4635
 30
0.0
 10
47.7782
 20
-17.7029
 30
0.0
 10
47.7782
 20
-17.7029
 30
0.0
 10
47.7782
 20
-17.7029
 30
0.0
 10
47.7782
 20
-17.7029
 30
0.0
 10
49.5047
 20
-24.1382
 30
0.0
 10
49.5047
 20
-24.1382
 30
0.0
 10
49.5047
 20
-24.1382
 30
0.0
 10
49.5047
 20
-24.1382
 30
0.0
 10
60.1855
 20
-17.0007
 30
0.0
 10
60.1855
 20
-17.0007
 30
0.0
  0
SPLINE
  5
FA
330
1F
100
AcDbEntity
  8
layer 1
 62
     7
100
AcDbSpline
210
0.0
220
0.0
230
1.0
 70
    11
 71
     3
 72
    16
 73
    12
 74
     0
 42
0.0000000001
 43
0.0000000001
 12
1.0
 22
0.0
 32
0.0
 13
1.0
 23
0.0
 33
0.0
 40
0.0
 40
0.0
 40
0.0
 40
0.0
 40
0.25
 40
0.25
 40
0.25
 40
0.25
 40
0.5
 40
0.5
 40
0.5
 40
0.5
 40
1.0
 40
1.0
 40
1.0
 40
1.0
 10
55.7519
 20
-11.6525
 30
0.0
 10
55.7519
 20
-11.6525
 30
0.0
 10
48.5212
 20
-2.93
 30
0.0
 10
48.5212
 20
-2.93
 30
0.0
 10
48.5212
 20
-2.93
 30
0.0
 10
48.5212
 20
-2.93
 30
0.0
 10
44.2366
 20
-16.8048
 30
0.0
 10
44.2366
 20
-16.8048
 30
0.0
 10
44.2366
 20
-16.8048
 30
0.0
 10
44.2366
 20
-16.8048
 30
0.0
 10
55.7519
 20
-11.6525
 30
0.0
 10
55.7519
 20
-11.6525
 30
0.0
  0
SPLINE
  5
FB
330
1F
100
AcDbEntity
  8
layer 1
 62
     7
100
AcDbSpline
210
0.0
220
0.0
230
1.0
 70
    11
 71
     3
 72
    20
 73
    16
 74
     0
 42
0.0000000001
 43
0.0000000001
 12
1.0
 22
0.0
 32
0.0
 13
1.0
 23
0.0
 33
0.0
 40
0.0
 40
0.0
 40
0.0
 40
0.0
 40
0.2
 40
0.2
 40
0.2
 40
0.2
 40
0.4
 40
0.4
 40
0.4
 40
0.4
 40
0.6
 40
0.6
 40
0.6
 40
0.6
 40
1.0
 40
1.0
 40
1.0
 40
1.0
 10
54.1557
 20
-6.1763
 30
0.0
 10
54.1557
 20
-6.1763
 30
0.0
 10
62.0903
 20
0.4103
 30
0.0
 10
62.0903
 20
0.4103
 30
0.0
 10
62.0903
 20
0.4103
 30
0.0
 10
62.0903
 20
0.4103
 30
0.0
 10
51.0176
 20
5.1547
 30
0.0
 10
51.0176
 20
5.1547
 30
0.0
 10
51.0176
 20
5.1547
 30
0.0
 10
51.0176
 20
5.1547
 30
0.0
 10
49.32
 20
-0.343
 30
0.0
 10
49.32
 20
-0.343
 30
0.0
 10
49.32
 20
-0.343
 30
0.0
 10
49.32
 20
-0.343
 30
0.0
 10
54.1557
 20
-6.1763
 30
0.0
 10
54.1557
 20
-6.1763
 30
0.0
  0
SPLINE
  5
FC
330
1F
100
AcDbEntity
  8
layer 1
 62
     7
100
AcDbSpline
210
0.0
220
0.0
230
1.0
 70
    11
 71
     3
 72
    20
 73
    16
 74
     0
 42
0.0000000001
 43
0.0000000001
 12
1.0
 22
0.0
 32
0.0
 13
1.0
 23
0.0
 33
0.0
 40
0.0
 40
0.0
 40
0.0
 40
0.0
 40
0.2
 40
0.2
 40
0.2
 40
0.2
 40
0.4
 40
0.4
 40
0.4
 40
0.4
 40
0.6
 40
0.6
 40
0.6
 40
0.6
 40
1.0
 40
1.0
 40
1.0
 40
1.0
 10
48.9231
 20
6.0522
 30
0.0
 10
48.9231
 20
6.0522
 30
0.0
 10
46.4752
 20
7.1011
 30
0.0
 10
46.4752
 20
7.1011
 30
0.0
 10
46.4752
 20
7.1011
 30
0.0
 10
46.4752
 20
7.1011
 30
0.0
 10
40.8033
 20
-0.518
 30
0.0
 10
40.8033
 20
-0.518
 30
0.0
 10
40.8033
 20
-0.518
 30
0.0
 10
40.8033
 20
-0.518
 30
0.0
 10
45.6315
 20
-4.6071
 30
0.0
 10
45.6315
 20
-4.6071
 30
0.0
 10
45.6315
 20
-4.6071
 30
0.0
 10
45.6315
 20
-4.6071
 30
0.0
 10
48.9231
 20
6.0522
 30
0.0
 10
48.9231
 20
6.0522
 30
0.0
  0
SPLINE
  5
FD
330
1F
100
AcDbEntity
  8
layer 1
 62
     7
100
AcDbSpline
210
0.0
220
0.0
230
1.0
 70
    11
 71
     3
 72
    20
 73
    16
 74
     0
 42
0.0000000001
 43
0.0000000001
 12
1.0
 22
0.0
 32
0.0
 13
1.0
 23
0.0
 33
0.0
 40
0.0
 40
0.0
 40
0.0
 40
0.0
 40
0.2
 40
0.2
 40
0.2
 40
0.2
 40
0.4
 40
0.4
 40
0.4
 40
0.4
 40
0.6
 40
0.6
 40
0.6
 40
0.6
 40
1.0
 40
1.0
 40
1.0
 40
1.0
 10
45.8411
 20
67.8197
 30
0.0
 10
45.8411
 20
67.8197
 30
0.0
 10
40.6964
 20
59.6949
 30
0.0
 10
40.6964
 20
59.6949
 30
0.0
 10
40.6964
 20
59.6949
 30
0.0
 10
40.6964
 20
59.6949
 30
0.0
 10
43.5205
 20
54.0346
 30
0.0
 10
43.5205
 20
54.0346
 30
0.0
 10
43.5205
 20
54.0346
 30
0.0
 10
43.5205
 20
54.0346
 30
0.0
 10
52.7501
 20
60.6189
 30
0.0
 10
52.7501
 20
60.6189
 30
0.0
 10
52.7501
 20
60.6189
 30
0.0
 10
52.7501
 20
60.6189
 30
0.0
 10
45.8411
 20
67.8197
 30
0.0
 10
45.8411
 20
67.8197
 30
0.0
  0
SPLINE
  5
FE
330
1F
100
AcDbEntity
  8
layer 1
 62
     7
100
AcDbSpline
210
0.0
220
0.0
230
1.0
 70
    11
 71
     3
 72
    20
 73
    16
 74
     0
 42
0.0000000001
 43
0.0000000001
 12
1.0
 22
0.0
 32
0.0
 13
1.0
 23
0.0
 33
0.0
 40
0.0
 40
0.0
 40
0.0
 40
0.0
 40
0.2
 40
0.2
 40
0.2
 40
0.2
 40
0.4
 40
0.4
 40
0.4
 40
0.4
 40
0.6
 40
0.6
 40
0.6
 40
0.6
 40
1.0
 40
1.0
 40
1.0
 40
1.0
 10
54.613
 20
61.948
 30
0.0
 10
54.613
 20
61.948
 30
0.0
 10
58.3569
 20
64.6188
 30
0.0
 10
58.3569
 20
64.6188
 30
0.0
 10
58.3569
 20
64.6188
 30
0.0
 10
58.3569
 20
64.6188
 30
0.0
 10
47.8723
 20
80.7457
 30
0.0
 10
47.8723
 20
80.7457
 30
0.0
 10
47.8723
 20
80.7457
 30
0.0
 10
47.8723
 20
80.7457
 30
0.0
 10
41.6268
 20
75.4825
 30
0.0
 10
41.6268
 20
75.4825
 30
0.0
 10
41.6268
 20
75.4825
 30
0.0
 10
41.6268
 20
75.4825
 30
0.0
 10
54.613
 20
61.948
 30
0.0
 10
54.613
 20
61.948
 30
0.0
  0
SPLINE
  5
FF
330
1F
100
AcDbEntity
  8
layer 1
 62
     7
100
AcDbSpline
210
0.0
220
0.0
230
1.0
 70
    11
 71
     3
 72
    16
 73
    12
 74
     0
 42
0.0000000001
 43
0.0000000001
 12
1.0
 22
0.0
 32
0.0
 13
1.0
 23
0.0
 33
0.0
 40
0.0
 40
0.0
 40
0.0
 40
0.0
 40
0.25
 40
0.25
 40
0.25
 40
0.25
 40
0.5
 40
0.5
 40
0.5
 40
0.5
 40
1.0
 40
1.0
 40
1.0
 40
1.0
 10
78.8777
 20
79.947
 30
0.0
 10
78.8777
 20
79.947
 30
0.0
 10
63.7827
 20
93.737
 30
0.0
 10
63.7827
 20
93.737
 30
0.0
 10
63.7827
 20
93.737
 30
0.0
 10
63.7827
 20
93.737
 30
0.0
 10
77.3615
 20
91.2903
 30
0.0
 10
77.3615
 20
91.2903
 30
0.0
 10
77.3615
 20
91.2903
 30
0.0
 10
77.3615
 20
91.2903
 30
0.0
 10
78.8777
 20
79.947
 30
0.0
 10
78.8777
 20
79.947
 30
0.0
  0
SPLINE
  5
100
330
1F
100
AcDbEntity
  8
layer 1
 62
     7
100
AcDbSpline
210
0.0
220
0.0
230
1.0
 70
    11
 71
     3
 72
    20
 73
    16
 74
     0
 42
0.0000000001
 43
0.0000000001
 12
1.0
 22
0.0
 32
0.0
 13
1.0
 23
0.0
 33
0.0
 40
0.0
 40
0.0
 40
0.0
 40
0.0
 40
0.2
 40
0.2
 40
0.2
 40
0.2
 40
0.4
 40
0.4
 40
0.4
 40
0.4
 40
0.6
 40
0.6
 40
0.6
 40
0.6
 40
1.0
 40
1.0
 40
1.0
 40
1.0
 10
79.5439
 20
90.897
 30
0.0
 10
79.5439
 20
90.897
 30
0.0
 10
91.7249
 20
88.7021
 30
0.0
 10
91.7249
 20
88.7021
 30
0.0
 10
91.7249
 20
88.7021
 30
0.0
 10
91.7249
 20
88.7021
 30
0.0
 10
84.3312
 20
77.8663
 30
0.0
 10
84.3312
 20
77.8663
 30
0.0
 10
84.3312
 20
77.8663
 30
0.0
 10
84.3312
 20
77.8663
 30
0.0
 10
81.3038
 20
77.7305
 30
0.0
 10
81.3038
 20
77.7305
 30
0.0
 10
81.3038
 20
77.7305
 30
0.0
 10
81.3038
 20
77.7305
 30
0.0
 10
79.5439
 20
90.897
 30
0.0
 10
79.5439
 20
90.897
 30
0.0
  0
SPLINE
  5
101
330
1F
100
AcDbEntity
  8
layer 1
 62
     7
100
AcDbSpline
210
0.0
220
0.0
230
1.0
 70
    11
 71
     3
 72
    28
 73
    24
 74
     0
 42
0.0000000001
 43
0.0000000001
 12
1.0
 22
0.0
 32
0.0
 13
1.0
 23
0.0
 33
0.0
 40
0.0
 40
0.0
 40
0.0
 40
0.0
 40
0.1428571428571428
 40
0.1428571428571428
 40
0.1428571428571428
 40
0.1428571428571428
 40
0.2857142857142857
 40
0.2857142857142857
 40
0.2857142857142857
 40
0.2857142857142857
 40
0.4285714285714285
 40
0.4285714285714285
 40
0.4285714285714285
 40
0.4285714285714285
 40
0.5714285714285714
 40
0.5714285714285714
 40
0.5714285714285714
 40
0.5714285714285714
 40
0.7142857142857143
 40
0.7142857142857143
 40
0.7142857142857143
 40
0.7142857142857143
 40
1.0
 40
1.0
 40
1.0
 40
1.0
 10
60.7526
 20
96.5051
 30
0.0
 10
60.7526
 20
96.5051
 30
0.0
 10
60.7526
 20
96.5051
 30
0.0
 10
60.7526
 20
96.5051
 30
0.0
 10
60.7526
 20
96.5051
 30
0.0
 10
60.7526
 20
96.5051
 30
0.0
 10
62.1233
 20
100.4753
 30
0.0
 10
62.1233
 20
100.4753
 30
0.0
 10
62.1233
 20
100.4753
 30
0.0
 10
62.1233
 20
100.4753
 30
0.0
 10
67.8277
 20
104.1999
 30
0.0
 10
67.8277
 20
104.1999
 30
0.0
 10
67.8277
 20
104.1999
 30
0.0
 10
67.8277
 20
104.1999
 30
0.0
 10
86.9799
 20
91.7792
 30
0.0
 10
86.9799
 20
91.7792
 30
0.0
 10
86.9799
 20
91.7792
 30
0.0
 10
86.9799
 20
91.7792
 30
0.0
 10
60.7526
 20
96.5052
 30
0.0
 10
60.7526
 20
96.5052
 30
0.0
 10
60.7526
 20
96.5052
 30
0.0
 10
60.7526
 20
96.5052
 30
0.0
 10
60.7526
 20
96.5051
 30
0.0
 10
60.7526
 20
96.5051
 30
0.0
  0
SPLINE
  5
102
330
1F
100
AcDbEntity
  8
layer 1
 62
     7
100
AcDbSpline
210
0.0
220
0.0
230
1.0
 70
    11
 71
     3
 72
    16
 73
    12
 74
     0
 42
0.0000000001
 43
0.0000000001
 12
1.0
 22
0.0
 32
0.0
 13
1.0
 23
0.0
 33
0.0
 40
0.0
 40
0.0
 40
0.0
 40
0.0
 40
0.25
 40
0.25
 40
0.25
 40
0.25
 40
0.5
 40
0.5
 40
0.5
 40
0.5
 40
1.0
 40
1.0
 40
1.0
 40
1.0
 10
80.4972
 20
98.6949
 30
0.0
 10
80.4972
 20
98.6949
 30
0.0
 10
99.5636
 20
100.1898
 30
0.0
 10
99.5636
 20
100.1898
 30
0.0
 10
99.5636
 20
100.1898
 30
0.0
 10
99.5636
 20
100.1898
 30
0.0
 10
93.0073
 20
90.5816
 30
0.0
 10
93.0073
 20
90.5816
 30
0.0
 10
93.0073
 20
90.5816
 30
0.0
 10
93.0073
 20
90.5816
 30
0.0
 10
80.4972
 20
98.6949
 30
0.0
 10
80.4972
 20
98.6949
 30
0.0
  0
SPLINE
  5
103
330
1F
100
AcDbEntity
  8
layer 1
 62
     7
100
AcDbSpline
210
0.0
220
0.0
230
1.0
 70
    11
 71
     3
 72
    20
 73
    16
 74
     0
 42
0.0000000001
 43
0.0000000001
 12
1.0
 22
0.0
 32
0.0
 13
1.0
 23
0.0
 33
0.0
 40
0.0
 40
0.0
 40
0.0
 40
0.0
 40
0.2
 40
0.2
 40
0.2
 40
0.2
 40
0.4
 40
0.4
 40
0.4
 40
0.4
 40
0.6
 40
0.6
 40
0.6
 40
0.6
 40
1.0
 40
1.0
 40
1.0
 40
1.0
 10
77.5046
 20
100.6358
 30
0.0
 10
77.5046
 20
100.6358
 30
0.0
 10
69.9286
 20
105.5492
 30
0.0
 10
69.9286
 20
105.5492
 30
0.0
 10
69.9286
 20
105.5492
 30
0.0
 10
69.9286
 20
105.5492
 30
0.0
 10
81.9104
 20
113.3184
 30
0.0
 10
81.9104
 20
113.3184
 30
0.0
 10
81.9104
 20
113.3184
 30
0.0
 10
81.9104
 20
113.3184
 30
0.0
 10
89.4273
 20
101.5569
 30
0.0
 10
89.4273
 20
101.5569
 30
0.0
 10
89.4273
 20
101.5569
 30
0.0
 10
89.4273
 20
101.5569
 30
0.0
 10
77.5046
 20
100.6358
 30
0.0
 10
77.5046
 20
100.6358
 30
0.0
  0
SPLINE
  5
104
330
1F
100
AcDbEntity
  8
layer 1
 62
     7
100
AcDbSpline
210
0.0
220
0.0
230
1.0
 70
    11
 71
     3
 72
    20
 73
    16
 74
     0
 42
0.0000000001
 43
0.0000000001
 12
1.0
 22
0.0
 32
0.0
 13
1.0
 23
0.0
 33
0.0
 40
0.0
 40
0.0
 40
0.0
 40
0.0
 40
0.2
 40
0.2
 40
0.2
 40
0.2
 40
0.4
 40
0.4
 40
0.4
 40
0.4
 40
0.6
 40
0.6
 40
0.6
 40
0.6
 40
1.0
 40
1.0
 40
1.0
 40
1.0
 10
61.3155
 20
53.7952
 30
0.0
 10
61.3155
 20
53.7952
 30
0.0
 10
60.5265
 20
63.3877
 30
0.0
 10
60.5265
 20
63.3877
 30
0.0
 10
60.5265
 20
63.3877
 30
0.0
 10
60.5265
 20
63.3877
 30
0.0
 10
50.9844
 20
56.5805
 30
0.0
 10
50.9844
 20
56.5805
 30
0.0
 10
50.9844
 20
56.5805
 30
0.0
 10
50.9844
 20
56.5805
 30
0.0
 10
54.2789
 20
52.7046
 30
0.0
 10
54.2789
 20
52.7046
 30
0.0
 10
54.2789
 20
52.7046
 30
0.0
 10
54.2789
 20
52.7046
 30
0.0
 10
61.3155
 20
53.7952
 30
0.0
 10
61.3155
 20
53.7952
 30
0.0
  0
SPLINE
  5
105
330
1F
100
AcDbEntity
  8
layer 1
 62
     7
100
AcDbSpline
210
0.0
220
0.0
230
1.0
 70
    11
 71
     3
 72
    20
 73
    16
 74
     0
 42
0.0000000001
 43
0.0000000001
 12
1.0
 22
0.0
 32
0.0
 13
1.0
 23
0.0
 33
0.0
 40
0.0
 40
0.0
 40
0.0
 40
0.0
 40
0.2
 40
0.2
 40
0.2
 40
0.2
 40
0.4
 40
0.4
 40
0.4
 40
0.4
 40
0.6
 40
0.6
 40
0.6
 40
0.6
 40
1.0
 40
1.0
 40
1.0
 40
1.0
 10
60.3333
 20
65.7364
 30
0.0
 10
60.3333
 20
65.7364
 30
0.0
 10
59.0127
 20
81.7945
 30
0.0
 10
59.0127
 20
81.7945
 30
0.0
 10
59.0127
 20
81.7945
 30
0.0
 10
59.0127
 20
81.7945
 30
0.0
 10
53.6138
 20
81.508
 30
0.0
 10
53.6138
 20
81.508
 30
0.0
 10
53.6138
 20
81.508
 30
0.0
 10
53.6138
 20
81.508
 30
0.0
 10
53.1995
 20
76.7093
 30
0.0
 10
53.1995
 20
76.7093
 30
0.0
 10
53.1995
 20
76.7093
 30
0.0
 10
53.1995
 20
76.7093
 30
0.0
 10
60.3333
 20
65.7364
 30
0.0
 10
60.3333
 20
65.7364
 30
0.0
  0
SPLINE
  5
106
330
1F
100
AcDbEntity
  8
layer 1
 62
     7
100
AcDbSpline
210
0.0
220
0.0
230
1.0
 70
    11
 71
     3
 72
    20
 73
    16
 74
     0
 42
0.0000000001
 43
0.0000000001
 12
1.0
 22
0.0
 32
0.0
 13
1.0
 23
0.0
 33
0.0
 40
0.0
 40
0.0
 40
0.0
 40
0.0
 40
0.2
 40
0.2
 40
0.2
 40
0.2
 40
0.4
 40
0.4
 40
0.4
 40
0.4
 40
0.6
 40
0.6
 40
0.6
 40
0.6
 40
1.0
 40
1.0
 40
1.0
 40
1.0
 10
61.2762
 20
81.9147
 30
0.0
 10
61.2762
 20
81.9147
 30
0.0
 10
62.8213
 20
63.1282
 30
0.0
 10
62.8213
 20
63.1282
 30
0.0
 10
62.8213
 20
63.1282
 30
0.0
 10
62.8213
 20
63.1282
 30
0.0
 10
70.5626
 20
67.2054
 30
0.0
 10
70.5626
 20
67.2054
 30
0.0
 10
70.5626
 20
67.2054
 30
0.0
 10
70.5626
 20
67.2054
 30
0.0
 10
65.6994
 20
82.1494
 30
0.0
 10
65.6994
 20
82.1494
 30
0.0
 10
65.6994
 20
82.1494
 30
0.0
 10
65.6994
 20
82.1494
 30
0.0
 10
61.2762
 20
81.9147
 30
0.0
 10
61.2762
 20
81.9147
 30
0.0
  0
SPLINE
  5
107
330
1F
100
AcDbEntity
  8
layer 1
 62
     7
100
AcDbSpline
210
0.0
220
0.0
230
1.0
 70
    11
 71
     3
 72
    20
 73
    16
 74
     0
 42
0.0000000001
 43
0.0000000001
 12
1.0
 22
0.0
 32
0.0
 13
1.0
 23
0.0
 33
0.0
 40
0.0
 40
0.0
 40
0.0
 40
0.0
 40
0.2
 40
0.2
 40
0.2
 40
0.2
 40
0.4
 40
0.4
 40
0.4
 40
0.4
 40
0.6
 40
0.6
 40
0.6
 40
0.6
 40
1.0
 40
1.0
 40
1.0
 40
1.0
 10
63.023
 20
60.6765
 30
0.0
 10
63.023
 20
60.6765
 30
0.0
 10
63.5603
 20
54.1431
 30
0.0
 10
63.5603
 20
54.1431
 30
0.0
 10
63.5603
 20
54.1431
 30
0.0
 10
63.5603
 20
54.1431
 30
0.0
 10
71.4562
 20
55.3668
 30
0.0
 10
71.4562
 20
55.3668
 30
0.0
 10
71.4562
 20
55.3668
 30
0.0
 10
71.4562
 20
55.3668
 30
0.0
 10
66.0761
 20
62.2845
 30
0.0
 10
66.0761
 20
62.2845
 30
0.0
 10
66.0761
 20
62.2845
 30
0.0
 10
66.0761
 20
62.2845
 30
0.0
 10
63.023
 20
60.6765
 30
0.0
 10
63.023
 20
60.6765
 30
0.0
  0
SPLINE
  5
108
330
1F
100
AcDbEntity
  8
layer 1
 62
     7
100
AcDbSpline
210
0.0
220
0.0
230
1.0
 70
    11
 71
     3
 72
    16
 73
    12
 74
     0
 42
0.0000000001
 43
0.0000000001
 12
1.0
 22
0.0
 32
0.0
 13
1.0
 23
0.0
 33
0.0
 40
0.0
 40
0.0
 40
0.0
 40
0.0
 40
0.25
 40
0.25
 40
0.25
 40
0.25
 40
0.5
 40
0.5
 40
0.5
 40
0.5
 40
1.0
 40
1.0
 40
1.0
 40
1.0
 10
42.3002
 20
93.4739
 30
0.0
 10
42.3002
 20
93.4739
 30
0.0
 10
51.194
 20
79.794
 30
0.0
 10
51.194
 20
79.794
 30
0.0
 10
51.194
 20
79.794
 30
0.0
 10
51.194
 20
79.794
 30
0.0
 10
52.3367
 20
93.0234
 30
0.0
 10
52.3367
 20
93.0234
 30
0.0
 10
52.3367
 20
93.0234
 30
0.0
 10
52.3367
 20
93.0234
 30
0.0
 10
42.3002
 20
93.4739
 30
0.0
 10
42.3002
 20
93.4739
 30
0.0
  0
SPLINE
  5
109
330
1F
100
AcDbEntity
  8
layer 1
 62
     7
100
AcDbSpline
210
0.0
220
0.0
230
1.0
 70
    11
 71
     3
 72
    16
 73
    12
 74
     0
 42
0.0000000001
 43
0.0000000001
 12
1.0
 22
0.0
 32
0.0
 13
1.0
 23
0.0
 33
0.0
 40
0.0
 40
0.0
 40
0.0
 40
0.0
 40
0.25
 40
0.25
 40
0.25
 40
0.25
 40
0.5
 40
0.5
 40
0.5
 40
0.5
 40
1.0
 40
1.0
 40
1.0
 40
1.0
 10
70.5093
 20
84.6736
 30
0.0
 10
70.5093
 20
84.6736
 30
0.0
 10
55.0859
 20
98.5504
 30
0.0
 10
55.0859
 20
98.5504
 30
0.0
 10
55.0859
 20
98.5504
 30
0.0
 10
55.0859
 20
98.5504
 30
0.0
 10
53.8108
 20
83.7872
 30
0.0
 10
53.8108
 20
83.7872
 30
0.0
 10
53.8108
 20
83.7872
 30
0.0
 10
53.8108
 20
83.7872
 30
0.0
 10
70.5093
 20
84.6736
 30
0.0
 10
70.5093
 20
84.6736
 30
0.0
  0
SPLINE
  5
10A
330
1F
100
AcDbEntity
  8
layer 1
 62
     7
100
AcDbSpline
210
0.0
220
0.0
230
1.0
 70
    11
 71
     3
 72
    16
 73
    12
 74
     0
 42
0.0000000001
 43
0.0000000001
 12
1.0
 22
0.0
 32
0.0
 13
1.0
 23
0.0
 33
0.0
 40
0.0
 40
0.0
 40
0.0
 40
0.0
 40
0.25
 40
0.25
 40
0.25
 40
0.25
 40
0.5
 40
0.5
 40
0.5
 40
0.5
 40
1.0
 40
1.0
 40
1.0
 40
1.0
 10
49.1276
 20
106.9482
 30
0.0
 10
49.1276
 20
106.9482
 30
0.0
 10
58.9248
 20
98.1472
 30
0.0
 10
58.9248
 20
98.1472
 30
0.0
 10
58.9248
 20
98.1472
 30
0.0
 10
58.9248
 20
98.1472
 30
0.0
 10
61.8552
 20
106.6355
 30
0.0
 10
61.8552
 20
106.6355
 30
0.0
 10
61.8552
 20
106.6355
 30
0.0
 10
61.8552
 20
106.6355
 30
0.0
 10
49.1276
 20
106.9482
 30
0.0
 10
49.1276
 20
106.9482
 30
0.0
  0
SPLINE
  5
10B
330
1F
100
AcDbEntity
  8
layer 1
 62
     7
100
AcDbSpline
210
0.0
220
0.0
230
1.0
 70
    11
 71
     3
 72
    24
 73
    20
 74
     0
 42
0.0000000001
 43
0.0000000001
 12
1.0
 22
0.0
 32
0.0
 13
1.0
 23
0.0
 33
0.0
 40
0.0
 40
0.0
 40
0.0
 40
0.0
 40
0.1666666666666667
 40
0.1666666666666667
 40
0.1666666666666667
 40
0.1666666666666667
 40
0.3333333333333333
 40
0.3333333333333333
 40
0.3333333333333333
 40
0.3333333333333333
 40
0.5
 40
0.5
 40
0.5
 40
0.5
 40
0.6666666666666666
 40
0.6666666666666666
 40
0.6666666666666666
 40
0.6666666666666666
 40
1.0
 40
1.0
 40
1.0
 40
1.0
 10
65.5318
 20
31.3696
 30
0.0
 10
65.5318
 20
31.3696
 30
0.0
 10
59.3646
 20
32.3508
 30
0.0
 10
59.3646
 20
32.3508
 30
0.0
 10
59.3646
 20
32.3508
 30
0.0
 10
59.3646
 20
32.3508
 30
0.0
 10
55.2417
 20
28.8121
 30
0.0
 10
55.2417
 20
28.8121
 30
0.0
 10
55.2417
 20
28.8121
 30
0.0
 10
55.2417
 20
28.8121
 30
0.0
 10
56.8226
 20
25.0969
 30
0.0
 10
56.8226
 20
25.0969
 30
0.0
 10
56.8226
 20
25.0969
 30
0.0
 10
56.8226
 20
25.0969
 30
0.0
 10
67.9775
 20
25.4864
 30
0.0
 10
67.9775
 20
25.4864
 30
0.0
 10
67.9775
 20
25.4864
 30
0.0
 10
67.9775
 20
25.4864
 30
0.0
 10
65.5318
 20
31.3696
 30
0.0
 10
65.5318
 20
31.3696
 30
0.0
  0
SPLINE
  5
10C
330
1F
100
AcDbEntity
  8
layer 1
 62
     7
100
AcDbSpline
210
0.0
220
0.0
230
1.0
 70
    11
 71
     3
 72
    20
 73
    16
 74
     0
 42
0.0000000001
 43
0.0000000001
 12
1.0
 22
0.0
 32
0.0
 13
1.0
 23
0.0
 33
0.0
 40
0.0
 40
0.0
 40
0.0
 40
0.0
 40
0.2
 40
0.2
 40
0.2
 40
0.2
 40
0.4
 40
0.4
 40
0.4
 40
0.4
 40
0.6
 40
0.6
 40
0.6
 40
0.6
 40
1.0
 40
1.0
 40
1.0
 40
1.0
 10
68.9068
 20
23.251
 30
0.0
 10
68.9068
 20
23.251
 30
0.0
 10
61.735
 20
23.0006
 30
0.0
 10
61.735
 20
23.0006
 30
0.0
 10
61.735
 20
23.0006
 30
0.0
 10
61.735
 20
23.0006
 30
0.0
 10
60.5176
 20
13.2229
 30
0.0
 10
60.5176
 20
13.2229
 30
0.0
 10
60.5176
 20
13.2229
 30
0.0
 10
60.5176
 20
13.2229
 30
0.0
 10
71.5866
 20
16.8046
 30
0.0
 10
71.5866
 20
16.8046
 30
0.0
 10
71.5866
 20
16.8046
 30
0.0
 10
71.5866
 20
16.8046
 30
0.0
 10
68.9068
 20
23.251
 30
0.0
 10
68.9068
 20
23.251
 30
0.0
  0
SPLINE
  5
10D
330
1F
100
AcDbEntity
  8
layer 1
 62
     7
100
AcDbSpline
210
0.0
220
0.0
230
1.0
 70
    11
 71
     3
 72
    20
 73
    16
 74
     0
 42
0.0000000001
 43
0.0000000001
 12
1.0
 22
0.0
 32
0.0
 13
1.0
 23
0.0
 33
0.0
 40
0.0
 40
0.0
 40
0.0
 40
0.0
 40
0.2
 40
0.2
 40
0.2
 40
0.2
 40
0.4
 40
0.4
 40
0.4
 40
0.4
 40
0.6
 40
0.6
 40
0.6
 40
0.6
 40
1.0
 40
1.0
 40
1.0
 40
1.0
 10
47.8665
 20
8.9699
 30
0.0
 10
47.8665
 20
8.9699
 30
0.0
 10
57.206
 20
4.9682
 30
0.0
 10
57.206
 20
4.9682
 30
0.0
 10
57.206
 20
4.9682
 30
0.0
 10
57.206
 20
4.9682
 30
0.0
 10
58.3267
 20
13.968
 30
0.0
 10
58.3267
 20
13.968
 30
0.0
 10
58.3267
 20
13.968
 30
0.0
 10
58.3267
 20
13.968
 30
0.0
 10
52.0645
 20
14.6091
 30
0.0
 10
52.0645
 20
14.6091
 30
0.0
 10
52.0645
 20
14.6091
 30
0.0
 10
52.0645
 20
14.6091
 30
0.0
 10
47.8665
 20
8.9699
 30
0.0
 10
47.8665
 20
8.9699
 30
0.0
  0
SPLINE
  5
10E
330
1F
100
AcDbEntity
  8
layer 1
 62
     7
100
AcDbSpline
210
0.0
220
0.0
230
1.0
 70
    11
 71
     3
 72
    20
 73
    16
 74
     0
 42
0.0000000001
 43
0.0000000001
 12
1.0
 22
0.0
 32
0.0
 13
1.0
 23
0.0
 33
0.0
 40
0.0
 40
0.0
 40
0.0
 40
0.0
 40
0.2
 40
0.2
 40
0.2
 40
0.2
 40
0.4
 40
0.4
 40
0.4
 40
0.4
 40
0.6
 40
0.6
 40
0.6
 40
0.6
 40
1.0
 40
1.0
 40
1.0
 40
1.0
 10
59.4413
 20
22.9206
 30
0.0
 10
59.4413
 20
22.9206
 30
0.0
 10
46.4502
 20
22.4671
 30
0.0
 10
46.4502
 20
22.4671
 30
0.0
 10
46.4502
 20
22.4671
 30
0.0
 10
46.4502
 20
22.4671
 30
0.0
 10
46.4707
 20
17.4597
 30
0.0
 10
46.4707
 20
17.4597
 30
0.0
 10
46.4707
 20
17.4597
 30
0.0
 10
46.4707
 20
17.4597
 30
0.0
 10
58.6067
 20
16.2173
 30
0.0
 10
58.6067
 20
16.2173
 30
0.0
 10
58.6067
 20
16.2173
 30
0.0
 10
58.6067
 20
16.2173
 30
0.0
 10
59.4413
 20
22.9206
 30
0.0
 10
59.4413
 20
22.9206
 30
0.0
  0
SPLINE
  5
10F
330
1F
100
AcDbEntity
  8
layer 1
 62
     7
100
AcDbSpline
210
0.0
220
0.0
230
1.0
 70
    11
 71
     3
 72
    20
 73
    16
 74
     0
 42
0.0000000001
 43
0.0000000001
 12
1.0
 22
0.0
 32
0.0
 13
1.0
 23
0.0
 33
0.0
 40
0.0
 40
0.0
 40
0.0
 40
0.0
 40
0.2
 40
0.2
 40
0.2
 40
0.2
 40
0.4
 40
0.4
 40
0.4
 40
0.4
 40
0.6
 40
0.6
 40
0.6
 40
0.6
 40
1.0
 40
1.0
 40
1.0
 40
1.0
 10
54.3953
 20
25.0122
 30
0.0
 10
54.3953
 20
25.0122
 30
0.0
 10
51.2736
 20
32.348
 30
0.0
 10
51.2736
 20
32.348
 30
0.0
 10
51.2736
 20
32.348
 30
0.0
 10
51.2736
 20
32.348
 30
0.0
 10
46.4207
 20
29.6326
 30
0.0
 10
46.4207
 20
29.6326
 30
0.0
 10
46.4207
 20
29.6326
 30
0.0
 10
46.4207
 20
29.6326
 30
0.0
 10
46.4408
 20
24.7344
 30
0.0
 10
46.4408
 20
24.7344
 30
0.0
 10
46.4408
 20
24.7344
 30
0.0
 10
46.4408
 20
24.7344
 30
0.0
 10
54.3953
 20
25.0122
 30
0.0
 10
54.3953
 20
25.0122
 30
0.0
  0
SPLINE
  5
110
330
1F
100
AcDbEntity
  8
layer 1
 62
     7
100
AcDbSpline
210
0.0
220
0.0
230
1.0
 70
    11
 71
     3
 72
    16
 73
    12
 74
     0
 42
0.0000000001
 43
0.0000000001
 12
1.0
 22
0.0
 32
0.0
 13
1.0
 23
0.0
 33
0.0
 40
0.0
 40
0.0
 40
0.0
 40
0.0
 40
0.25
 40
0.25
 40
0.25
 40
0.25
 40
0.5
 40
0.5
 40
0.5
 40
0.5
 40
1.0
 40
1.0
 40
1.0
 40
1.0
 10
36.157
 20
96.0158
 30
0.0
 10
36.157
 20
96.0158
 30
0.0
 10
36.157
 20
116.9906
 30
0.0
 10
36.157
 20
116.9906
 30
0.0
 10
36.157
 20
116.9906
 30
0.0
 10
36.157
 20
116.9906
 30
0.0
 10
44.4785
 20
95.6421
 30
0.0
 10
44.4785
 20
95.6421
 30
0.0
 10
44.4785
 20
95.6421
 30
0.0
 10
44.4785
 20
95.6421
 30
0.0
 10
36.157
 20
96.0158
 30
0.0
 10
36.157
 20
96.0158
 30
0.0
  0
SPLINE
  5
111
330
1F
100
AcDbEntity
  8
layer 1
 62
     7
100
AcDbSpline
210
0.0
220
0.0
230
1.0
 70
    11
 71
     3
 72
    20
 73
    16
 74
     0
 42
0.0000000001
 43
0.0000000001
 12
1.0
 22
0.0
 32
0.0
 13
1.0
 23
0.0
 33
0.0
 40
0.0
 40
0.0
 40
0.0
 40
0.0
 40
0.2
 40
0.2
 40
0.2
 40
0.2
 40
0.4
 40
0.4
 40
0.4
 40
0.4
 40
0.6
 40
0.6
 40
0.6
 40
0.6
 40
1.0
 40
1.0
 40
1.0
 40
1.0
 10
36.157
 20
73.8338
 30
0.0
 10
36.157
 20
73.8338
 30
0.0
 10
36.157
 20
93.7497
 30
0.0
 10
36.157
 20
93.7497
 30
0.0
 10
36.157
 20
93.7497
 30
0.0
 10
36.157
 20
93.7497
 30
0.0
 10
39.5162
 20
93.5989
 30
0.0
 10
39.5162
 20
93.5989
 30
0.0
 10
39.5162
 20
93.5989
 30
0.0
 10
39.5162
 20
93.5989
 30
0.0
 10
46.6288
 20
82.6581
 30
0.0
 10
46.6288
 20
82.6581
 30
0.0
 10
46.6288
 20
82.6581
 30
0.0
 10
46.6288
 20
82.6581
 30
0.0
 10
36.157
 20
73.8338
 30
0.0
 10
36.157
 20
73.8338
 30
0.0
  0
SPLINE
  5
112
330
1F
100
AcDbEntity
  8
layer 1
 62
     7
100
AcDbSpline
210
0.0
220
0.0
230
1.0
 70
    11
 71
     3
 72
    20
 73
    16
 74
     0
 42
0.0000000001
 43
0.0000000001
 12
1.0
 22
0.0
 32
0.0
 13
1.0
 23
0.0
 33
0.0
 40
0.0
 40
0.0
 40
0.0
 40
0.0
 40
0.2
 40
0.2
 40
0.2
 40
0.2
 40
0.4
 40
0.4
 40
0.4
 40
0.4
 40
0.6
 40
0.6
 40
0.6
 40
0.6
 40
1.0
 40
1.0
 40
1.0
 40
1.0
 10
36.157
 20
56.7261
 30
0.0
 10
36.157
 20
56.7261
 30
0.0
 10
36.157
 20
70.8733
 30
0.0
 10
36.157
 20
70.8733
 30
0.0
 10
36.157
 20
70.8733
 30
0.0
 10
36.157
 20
70.8733
 30
0.0
 10
39.8916
 20
74.0205
 30
0.0
 10
39.8916
 20
74.0205
 30
0.0
 10
39.8916
 20
74.0205
 30
0.0
 10
39.8916
 20
74.0205
 30
0.0
 10
44.2276
 20
69.5014
 30
0.0
 10
44.2276
 20
69.5014
 30
0.0
 10
44.2276
 20
69.5014
 30
0.0
 10
44.2276
 20
69.5014
 30
0.0
 10
36.157
 20
56.7261
 30
0.0
 10
36.157
 20
56.7261
 30
0.0
  0
SPLINE
  5
113
330
1F
100
AcDbEntity
  8
layer 1
 62
     7
100
AcDbSpline
210
0.0
220
0.0
230
1.0
 70
    11
 71
     3
 72
    20
 73
    16
 74
     0
 42
0.0000000001
 43
0.0000000001
 12
1.0
 22
0.0
 32
0.0
 13
1.0
 23
0.0
 33
0.0
 40
0.0
 40
0.0
 40
0.0
 40
0.0
 40
0.2
 40
0.2
 40
0.2
 40
0.2
 40
0.4
 40
0.4
 40
0.4
 40
0.4
 40
0.6
 40
0.6
 40
0.6
 40
0.6
 40
1.0
 40
1.0
 40
1.0
 40
1.0
 10
36.157
 20
38.2164
 30
0.0
 10
36.157
 20
38.2164
 30
0.0
 10
36.157
 20
52.4934
 30
0.0
 10
36.157
 20
52.4934
 30
0.0
 10
36.157
 20
52.4934
 30
0.0
 10
36.157
 20
52.4934
 30
0.0
 10
39.281
 20
57.46
 30
0.0
 10
39.281
 20
57.46
 30
0.0
 10
39.281
 20
57.46
 30
0.0
 10
39.281
 20
57.46
 30
0.0
 10
47.0078
 20
41.9726
 30
0.0
 10
47.0078
 20
41.9726
 30
0.0
 10
47.0078
 20
41.9726
 30
0.0
 10
47.0078
 20
41.9726
 30
0.0
 10
36.157
 20
38.2164
 30
0.0
 10
36.157
 20
38.2164
 30
0.0
  0
SPLINE
  5
114
330
1F
100
AcDbEntity
  8
layer 1
 62
     7
100
AcDbSpline
210
0.0
220
0.0
230
1.0
 70
    11
 71
     3
 72
    20
 73
    16
 74
     0
 42
0.0000000001
 43
0.0000000001
 12
1.0
 22
0.0
 32
0.0
 13
1.0
 23
0.0
 33
0.0
 40
0.0
 40
0.0
 40
0.0
 40
0.0
 40
0.2
 40
0.2
 40
0.2
 40
0.2
 40
0.4
 40
0.4
 40
0.4
 40
0.4
 40
0.6
 40
0.6
 40
0.6
 40
0.6
 40
1.0
 40
1.0
 40
1.0
 40
1.0
 10
36.157
 20
26.4869
 30
0.0
 10
36.157
 20
26.4869
 30
0.0
 10
36.157
 20
35.8208
 30
0.0
 10
36.157
 20
35.8208
 30
0.0
 10
36.157
 20
35.8208
 30
0.0
 10
36.157
 20
35.8208
 30
0.0
 10
48.0448
 20
39.9361
 30
0.0
 10
48.0448
 20
39.9361
 30
0.0
 10
48.0448
 20
39.9361
 30
0.0
 10
48.0448
 20
39.9361
 30
0.0
 10
50.381
 20
34.4456
 30
0.0
 10
50.381
 20
34.4456
 30
0.0
 10
50.381
 20
34.4456
 30
0.0
 10
50.381
 20
34.4456
 30
0.0
 10
36.157
 20
26.4869
 30
0.0
 10
36.157
 20
26.4869
 30
0.0
  0
SPLINE
  5
115
330
1F
100
AcDbEntity
  8
layer 1
 62
     7
100
AcDbSpline
210
0.0
220
0.0
230
1.0
 70
    11
 71
     3
 72
    20
 73
    16
 74
     0
 42
0.0000000001
 43
0.0000000001
 12
1.0
 22
0.0
 32
0.0
 13
1.0
 23
0.0
 33
0.0
 40
0.0
 40
0.0
 40
0.0
 40
0.0
 40
0.2
 40
0.2
 40
0.2
 40
0.2
 40
0.4
 40
0.4
 40
0.4
 40
0.4
 40
0.6
 40
0.6
 40
0.6
 40
0.6
 40
1.0
 40
1.0
 40
1.0
 40
1.0
 10
36.157
 20
18.5156
 30
0.0
 10
36.157
 20
18.5156
 30
0.0
 10
36.157
 20
23.8898
 30
0.0
 10
36.157
 20
23.8898
 30
0.0
 10
36.157
 20
23.8898
 30
0.0
 10
36.157
 20
23.8898
 30
0.0
 10
44.1607
 20
28.3681
 30
0.0
 10
44.1607
 20
28.3681
 30
0.0
 10
44.1607
 20
28.3681
 30
0.0
 10
44.1607
 20
28.3681
 30
0.0
 10
44.2045
 20
17.6917
 30
0.0
 10
44.2045
 20
17.6917
 30
0.0
 10
44.2045
 20
17.6917
 30
0.0
 10
44.2045
 20
17.6917
 30
0.0
 10
36.157
 20
18.5156
 30
0.0
 10
36.157
 20
18.5156
 30
0.0
  0
SPLINE
  5
116
330
1F
100
AcDbEntity
  8
layer 1
 62
     7
100
AcDbSpline
210
0.0
220
0.0
230
1.0
 70
    11
 71
     3
 72
    20
 73
    16
 74
     0
 42
0.0000000001
 43
0.0000000001
 12
1.0
 22
0.0
 32
0.0
 13
1.0
 23
0.0
 33
0.0
 40
0.0
 40
0.0
 40
0.0
 40
0.0
 40
0.2
 40
0.2
 40
0.2
 40
0.2
 40
0.4
 40
0.4
 40
0.4
 40
0.4
 40
0.6
 40
0.6
 40
0.6
 40
0.6
 40
1.0
 40
1.0
 40
1.0
 40
1.0
 10
36.157
 20
3.417
 30
0.0
 10
36.157
 20
3.417
 30
0.0
 10
36.157
 20
16.2375
 30
0.0
 10
36.157
 20
16.2375
 30
0.0
 10
36.157
 20
16.2375
 30
0.0
 10
36.157
 20
16.2375
 30
0.0
 10
49.4387
 20
14.8778
 30
0.0
 10
49.4387
 20
14.8778
 30
0.0
 10
49.4387
 20
14.8778
 30
0.0
 10
49.4387
 20
14.8778
 30
0.0
 10
39.07
 20
0.95
 30
0.0
 10
39.07
 20
0.95
 30
0.0
 10
39.07
 20
0.95
 30
0.0
 10
39.07
 20
0.95
 30
0.0
 10
36.157
 20
3.417
 30
0.0
 10
36.157
 20
3.417
 30
0.0
  0
SPLINE
  5
117
330
1F
100
AcDbEntity
  8
layer 1
 62
     7
100
AcDbSpline
210
0.0
220
0.0
230
1.0
 70
    11
 71
     3
 72
    20
 73
    16
 74
     0
 42
0.0000000001
 43
0.0000000001
 12
1.0
 22
0.0
 32
0.0
 13
1.0
 23
0.0
 33
0.0
 40
0.0
 40
0.0
 40
0.0
 40
0.0
 40
0.2
 40
0.2
 40
0.2
 40
0.2
 40
0.4
 40
0.4
 40
0.4
 40
0.4
 40
0.6
 40
0.6
 40
0.6
 40
0.6
 40
1.0
 40
1.0
 40
1.0
 40
1.0
 10
36.157
 20
-20.4199
 30
0.0
 10
36.157
 20
-20.4199
 30
0.0
 10
36.157
 20
0.4464
 30
0.0
 10
36.157
 20
0.4464
 30
0.0
 10
36.157
 20
0.4464
 30
0.0
 10
36.157
 20
0.4464
 30
0.0
 10
44.9044
 20
-6.962
 30
0.0
 10
44.9044
 20
-6.962
 30
0.0
 10
44.9044
 20
-6.962
 30
0.0
 10
44.9044
 20
-6.962
 30
0.0
 10
41.4847
 20
-18.0362
 30
0.0
 10
41.4847
 20
-18.0362
 30
0.0
 10
41.4847
 20
-18.0362
 30
0.0
 10
41.4847
 20
-18.0362
 30
0.0
 10
36.157
 20
-20.4199
 30
0.0
 10
36.157
 20
-20.4199
 30
0.0
  0
SPLINE
  5
118
330
1F
100
AcDbEntity
  8
layer 1
 62
     7
100
AcDbSpline
210
0.0
220
0.0
230
1.0
 70
    11
 71
     3
 72
    16
 73
    12
 74
     0
 42
0.0000000001
 43
0.0000000001
 12
1.0
 22
0.0
 32
0.0
 13
1.0
 23
0.0
 33
0.0
 40
0.0
 40
0.0
 40
0.0
 40
0.0
 40
0.25
 40
0.25
 40
0.25
 40
0.25
 40
0.5
 40
0.5
 40
0.5
 40
0.5
 40
1.0
 40
1.0
 40
1.0
 40
1.0
 10
36.157
 20
-48.7751
 30
0.0
 10
36.157
 20
-48.7751
 30
0.0
 10
36.157
 20
-28.2628
 30
0.0
 10
36.157
 20
-28.2628
 30
0.0
 10
36.157
 20
-28.2628
 30
0.0
 10
36.157
 20
-28.2628
 30
0.0
 10
44.2949
 20
-49.1403
 30
0.0
 10
44.2949
 20
-49.1403
 30
0.0
 10
44.2949
 20
-49.1403
 30
0.0
 10
44.2949
 20
-49.1403
 30
0.0
 10
36.157
 20
-48.7751
 30
0.0
 10
36.157
 20
-48.7751
 30
0.0
  0
SPLINE
  5
119
330
1F
100
AcDbEntity
  8
layer 1
 62
     7
100
AcDbSpline
210
0.0
220
0.0
230
1.0
 70
    11
 71
     3
 72
    20
 73
    16
 74
     0
 42
0.0000000001
 43
0.0000000001
 12
1.0
 22
0.0
 32
0.0
 13
1.0
 23
0.0
 33
0.0
 40
0.0
 40
0.0
 40
0.0
 40
0.0
 40
0.2
 40
0.2
 40
0.2
 40
0.2
 40
0.4
 40
0.4
 40
0.4
 40
0.4
 40
0.6
 40
0.6
 40
0.6
 40
0.6
 40
1.0
 40
1.0
 40
1.0
 40
1.0
 10
36.157
 20
-70.7941
 30
0.0
 10
36.157
 20
-70.7941
 30
0.0
 10
36.157
 20
-51.0412
 30
0.0
 10
36.157
 20
-51.0412
 30
0.0
 10
36.157
 20
-51.0412
 30
0.0
 10
36.157
 20
-51.0412
 30
0.0
 10
39.1844
 20
-51.1769
 30
0.0
 10
39.1844
 20
-51.1769
 30
0.0
 10
39.1844
 20
-51.1769
 30
0.0
 10
39.1844
 20
-51.1769
 30
0.0
 10
46.5779
 20
-62.0127
 30
0.0
 10
46.5779
 20
-62.0127
 30
0.0
 10
46.5779
 20
-62.0127
 30
0.0
 10
46.5779
 20
-62.0127
 30
0.0
 10
36.157
 20
-70.7941
 30
0.0
 10
36.157
 20
-70.7941
 30
0.0
  0
SPLINE
  5
11A
330
1F
100
AcDbEntity
  8
layer 1
 62
     7
100
AcDbSpline
210
0.0
220
0.0
230
1.0
 70
    11
 71
     3
 72
    20
 73
    16
 74
     0
 42
0.0000000001
 43
0.0000000001
 12
1.0
 22
0.0
 32
0.0
 13
1.0
 23
0.0
 33
0.0
 40
0.0
 40
0.0
 40
0.0
 40
0.0
 40
0.2
 40
0.2
 40
0.2
 40
0.2
 40
0.4
 40
0.4
 40
0.4
 40
0.4
 40
0.6
 40
0.6
 40
0.6
 40
0.6
 40
1.0
 40
1.0
 40
1.0
 40
1.0
 10
36.157
 20
-87.7657
 30
0.0
 10
36.157
 20
-87.7657
 30
0.0
 10
36.157
 20
-73.7544
 30
0.0
 10
36.157
 20
-73.7544
 30
0.0
 10
36.157
 20
-73.7544
 30
0.0
 10
36.157
 20
-73.7544
 30
0.0
 10
39.7081
 20
-70.762
 30
0.0
 10
39.7081
 20
-70.762
 30
0.0
 10
39.7081
 20
-70.762
 30
0.0
 10
39.7081
 20
-70.762
 30
0.0
 10
44.044
 20
-75.2811
 30
0.0
 10
44.044
 20
-75.2811
 30
0.0
 10
44.044
 20
-75.2811
 30
0.0
 10
44.044
 20
-75.2811
 30
0.0
 10
36.157
 20
-87.7657
 30
0.0
 10
36.157
 20
-87.7657
 30
0.0
  0
SPLINE
  5
11B
330
1F
100
AcDbEntity
  8
layer 1
 62
     7
100
AcDbSpline
210
0.0
220
0.0
230
1.0
 70
    11
 71
     3
 72
    20
 73
    16
 74
     0
 42
0.0000000001
 43
0.0000000001
 12
1.0
 22
0.0
 32
0.0
 13
1.0
 23
0.0
 33
0.0
 40
0.0
 40
0.0
 40
0.0
 40
0.0
 40
0.2
 40
0.2
 40
0.2
 40
0.2
 40
0.4
 40
0.4
 40
0.4
 40
0.4
 40
0.6
 40
0.6
 40
0.6
 40
0.6
 40
1.0
 40
1.0
 40
1.0
 40
1.0
 10
46.2106
 20
-101.5801
 30
0.0
 10
46.2106
 20
-101.5801
 30
0.0
 10
36.157
 20
-101.5801
 30
0.0
 10
36.157
 20
-101.5801
 30
0.0
 10
36.157
 20
-101.5801
 30
0.0
 10
36.157
 20
-101.5801
 30
0.0
 10
36.157
 20
-91.9974
 30
0.0
 10
36.157
 20
-91.9974
 30
0.0
 10
36.157
 20
-91.9974
 30
0.0
 10
36.157
 20
-91.9974
 30
0.0
 10
39.0975
 20
-87.3226
 30
0.0
 10
39.0975
 20
-87.3226
 30
0.0
 10
39.0975
 20
-87.3226
 30
0.0
 10
39.0975
 20
-87.3226
 30
0.0
 10
46.2106
 20
-101.5801
 30
0.0
 10
46.2106
 20
-101.5801
 30
0.0
  0
SPLINE
  5
11C
330
1F
100
AcDbEntity
  8
layer 1
 62
     7
100
AcDbSpline
210
0.0
220
0.0
230
1.0
 70
    11
 71
     3
 72
    20
 73
    16
 74
     0
 42
0.0000000001
 43
0.0000000001
 12
1.0
 22
0.0
 32
0.0
 13
1.0
 23
0.0
 33
0.0
 40
0.0
 40
0.0
 40
0.0
 40
0.0
 40
0.2
 40
0.2
 40
0.2
 40
0.2
 40
0.4
 40
0.4
 40
0.4
 40
0.4
 40
0.6
 40
0.6
 40
0.6
 40
0.6
 40
1.0
 40
1.0
 40
1.0
 40
1.0
 10
59.2007
 20
-101.5801
 30
0.0
 10
59.2007
 20
-101.5801
 30
0.0
 10
48.7412
 20
-101.5801
 30
0.0
 10
48.7412
 20
-101.5801
 30
0.0
 10
48.7412
 20
-101.5801
 30
0.0
 10
48.7412
 20
-101.5801
 30
0.0
 10
44.3592
 20
-92.7974
 30
0.0
 10
44.3592
 20
-92.7974
 30
0.0
 10
44.3592
 20
-92.7974
 30
0.0
 10
44.3592
 20
-92.7974
 30
0.0
 10
48.9509
 20
-89.5217
 30
0.0
 10
48.9509
 20
-89.5217
 30
0.0
 10
48.9509
 20
-89.5217
 30
0.0
 10
48.9509
 20
-89.5217
 30
0.0
 10
59.2007
 20
-101.5801
 30
0.0
 10
59.2007
 20
-101.5801
 30
0.0
  0
SPLINE
  5
11D
330
1F
100
AcDbEntity
  8
layer 1
 62
     7
100
AcDbSpline
210
0.0
220
0.0
230
1.0
 70
    11
 71
     3
 72
    24
 73
    20
 74
     0
 42
0.0000000001
 43
0.0000000001
 12
1.0
 22
0.0
 32
0.0
 13
1.0
 23
0.0
 33
0.0
 40
0.0
 40
0.0
 40
0.0
 40
0.0
 40
0.1666666666666667
 40
0.1666666666666667
 40
0.1666666666666667
 40
0.1666666666666667
 40
0.3333333333333333
 40
0.3333333333333333
 40
0.3333333333333333
 40
0.3333333333333333
 40
0.5
 40
0.5
 40
0.5
 40
0.5
 40
0.6666666666666666
 40
0.6666666666666666
 40
0.6666666666666666
 40
0.6666666666666666
 40
1.0
 40
1.0
 40
1.0
 40
1.0
 10
78.9198
 20
-99.248
 30
0.0
 10
78.9198
 20
-99.248
 30
0.0
 10
78.9198
 20
-101.5801
 30
0.0
 10
78.9198
 20
-101.5801
 30
0.0
 10
78.9198
 20
-101.5801
 30
0.0
 10
78.9198
 20
-101.5801
 30
0.0
 10
62.1724
 20
-101.5801
 30
0.0
 10
62.1724
 20
-101.5801
 30
0.0
 10
62.1724
 20
-101.5801
 30
0.0
 10
62.1724
 20
-101.5801
 30
0.0
 10
55.8159
 20
-94.1019
 30
0.0
 10
55.8159
 20
-94.1019
 30
0.0
 10
55.8159
 20
-94.1019
 30
0.0
 10
55.8159
 20
-94.1019
 30
0.0
 10
72.8627
 20
-91.4601
 30
0.0
 10
72.8627
 20
-91.4601
 30
0.0
 10
72.8627
 20
-91.4601
 30
0.0
 10
72.8627
 20
-91.4601
 30
0.0
 10
78.9198
 20
-99.248
 30
0.0
 10
78.9198
 20
-99.248
 30
0.0
  0
SPLINE
  5
11E
330
1F
100
AcDbEntity
  8
layer 1
 62
     7
100
AcDbSpline
210
0.0
220
0.0
230
1.0
 70
    11
 71
     3
 72
    20
 73
    16
 74
     0
 42
0.0000000001
 43
0.0000000001
 12
1.0
 22
0.0
 32
0.0
 13
1.0
 23
0.0
 33
0.0
 40
0.0
 40
0.0
 40
0.0
 40
0.0
 40
0.2
 40
0.2
 40
0.2
 40
0.2
 40
0.4
 40
0.4
 40
0.4
 40
0.4
 40
0.6
 40
0.6
 40
0.6
 40
0.6
 40
1.0
 40
1.0
 40
1.0
 40
1.0
 10
78.9198
 20
69.0492
 30
0.0
 10
78.9198
 20
69.0492
 30
0.0
 10
78.9198
 20
56.4296
 30
0.0
 10
78.9198
 20
56.4296
 30
0.0
 10
78.9198
 20
56.4296
 30
0.0
 10
78.9198
 20
56.4296
 30
0.0
 10
74.0601
 20
55.7061
 30
0.0
 10
74.0601
 20
55.7061
 30
0.0
 10
74.0601
 20
55.7061
 30
0.0
 10
74.0601
 20
55.7061
 30
0.0
 10
68.1105
 20
63.3559
 30
0.0
 10
68.1105
 20
63.3559
 30
0.0
 10
68.1105
 20
63.3559
 30
0.0
 10
68.1105
 20
63.3559
 30
0.0
 10
78.9198
 20
69.0492
 30
0.0
 10
78.9198
 20
69.0492
 30
0.0
  0
SPLINE
  5
11F
330
1F
100
AcDbEntity
  8
layer 1
 62
     7
100
AcDbSpline
210
0.0
220
0.0
230
1.0
 70
    11
 71
     3
 72
    24
 73
    20
 74
     0
 42
0.0000000001
 43
0.0000000001
 12
1.0
 22
0.0
 32
0.0
 13
1.0
 23
0.0
 33
0.0
 40
0.0
 40
0.0
 40
0.0
 40
0.0
 40
0.1666666666666667
 40
0.1666666666666667
 40
0.1666666666666667
 40
0.1666666666666667
 40
0.3333333333333333
 40
0.3333333333333333
 40
0.3333333333333333
 40
0.3333333333333333
 40
0.5
 40
0.5
 40
0.5
 40
0.5
 40
0.6666666666666666
 40
0.6666666666666666
 40
0.6666666666666666
 40
0.6666666666666666
 40
1.0
 40
1.0
 40
1.0
 40
1.0
 10
78.9198
 20
77.2147
 30
0.0
 10
78.9198
 20
77.2147
 30
0.0
 10
78.9198
 20
71.6072
 30
0.0
 10
78.9198
 20
71.6072
 30
0.0
 10
78.9198
 20
71.6072
 30
0.0
 10
78.9198
 20
71.6072
 30
0.0
 10
72.5941
 20
68.2755
 30
0.0
 10
72.5941
 20
68.2755
 30
0.0
 10
72.5941
 20
68.2755
 30
0.0
 10
72.5941
 20
68.2755
 30
0.0
 10
68.0387
 20
82.2736
 30
0.0
 10
68.0387
 20
82.2736
 30
0.0
 10
68.0387
 20
82.2736
 30
0.0
 10
68.0387
 20
82.2736
 30
0.0
 10
73.013
 20
82.5377
 30
0.0
 10
73.013
 20
82.5377
 30
0.0
 10
73.013
 20
82.5377
 30
0.0
 10
73.013
 20
82.5377
 30
0.0
 10
78.9198
 20
77.2147
 30
0.0
 10
78.9198
 20
77.2147
 30
0.0
  0
SPLINE
  5
120
330
1F
100
AcDbEntity
  8
layer 1
 62
     7
100
AcDbSpline
210
0.0
220
0.0
230
1.0
 70
    11
 71
     3
 72
    20
 73
    16
 74
     0
 42
0.0000000001
 43
0.0000000001
 12
1.0
 22
0.0
 32
0.0
 13
1.0
 23
0.0
 33
0.0
 40
0.0
 40
0.0
 40
0.0
 40
0.0
 40
0.2
 40
0.2
 40
0.2
 40
0.2
 40
0.4
 40
0.4
 40
0.4
 40
0.4
 40
0.6
 40
0.6
 40
0.6
 40
0.6
 40
1.0
 40
1.0
 40
1.0
 40
1.0
 10
75.5672
 20
123.1603
 30
0.0
 10
75.5672
 20
123.1603
 30
0.0
 10
66.0874
 20
120.0931
 30
0.0
 10
66.0874
 20
120.0931
 30
0.0
 10
66.0874
 20
120.0931
 30
0.0
 10
66.0874
 20
120.0931
 30
0.0
 10
76.7731
 20
112.6983
 30
0.0
 10
76.7731
 20
112.6983
 30
0.0
 10
76.7731
 20
112.6983
 30
0.0
 10
76.7731
 20
112.6983
 30
0.0
 10
80.6682
 20
115.2251
 30
0.0
 10
80.6682
 20
115.2251
 30
0.0
 10
80.6682
 20
115.2251
 30
0.0
 10
80.6682
 20
115.2251
 30
0.0
 10
75.5672
 20
123.1603
 30
0.0
 10
75.5672
 20
123.1603
 30
0.0
  0
SPLINE
  5
121
330
1F
100
AcDbEntity
  8
layer 1
 62
     7
100
AcDbSpline
210
0.0
220
0.0
230
1.0
 70
    11
 71
     3
 72
    16
 73
    12
 74
     0
 42
0.0000000001
 43
0.0000000001
 12
1.0
 22
0.0
 32
0.0
 13
1.0
 23
0.0
 33
0.0
 40
0.0
 40
0.0
 40
0.0
 40
0.0
 40
0.25
 40
0.25
 40
0.25
 40
0.25
 40
0.5
 40
0.5
 40
0.5
 40
0.5
 40
1.0
 40
1.0
 40
1.0
 40
1.0
 10
77.9776
 20
123.9404
 30
0.0
 10
77.9776
 20
123.9404
 30
0.0
 10
91.3576
 20
128.2695
 30
0.0
 10
91.3576
 20
128.2695
 30
0.0
 10
91.3576
 20
128.2695
 30
0.0
 10
91.3576
 20
128.2695
 30
0.0
 10
84.2444
 20
114.0122
 30
0.0
 10
84.2444
 20
114.0122
 30
0.0
 10
84.2444
 20
114.0122
 30
0.0
 10
84.2444
 20
114.0122
 30
0.0
 10
77.9776
 20
123.9404
 30
0.0
 10
77.9776
 20
123.9404
 30
0.0
  0
SPLINE
  5
122
330
1F
100
AcDbEntity
  8
layer 1
 62
     7
100
AcDbSpline
210
0.0
220
0.0
230
1.0
 70
    11
 71
     3
 72
    16
 73
    12
 74
     0
 42
0.0000000001
 43
0.0000000001
 12
1.0
 22
0.0
 32
0.0
 13
1.0
 23
0.0
 33
0.0
 40
0.0
 40
0.0
 40
0.0
 40
0.0
 40
0.25
 40
0.25
 40
0.25
 40
0.25
 40
0.5
 40
0.5
 40
0.5
 40
0.5
 40
1.0
 40
1.0
 40
1.0
 40
1.0
 10
84.0056
 20
128.2695
 30
0.0
 10
84.0056
 20
128.2695
 30
0.0
 10
76.686
 20
125.9055
 30
0.0
 10
76.686
 20
125.9055
 30
0.0
 10
76.686
 20
125.9055
 30
0.0
 10
76.686
 20
125.9055
 30
0.0
 10
74.4505
 20
128.2695
 30
0.0
 10
74.4505
 20
128.2695
 30
0.0
 10
74.4505
 20
128.2695
 30
0.0
 10
74.4505
 20
128.2695
 30
0.0
 10
84.0056
 20
128.2695
 30
0.0
 10
84.0056
 20
128.2695
 30
0.0
  0
SPLINE
  5
123
330
1F
100
AcDbEntity
  8
layer 1
 62
     7
100
AcDbSpline
210
0.0
220
0.0
230
1.0
 70
    11
 71
     3
 72
    24
 73
    20
 74
     0
 42
0.0000000001
 43
0.0000000001
 12
1.0
 22
0.0
 32
0.0
 13
1.0
 23
0.0
 33
0.0
 40
0.0
 40
0.0
 40
0.0
 40
0.0
 40
0.1666666666666667
 40
0.1666666666666667
 40
0.1666666666666667
 40
0.1666666666666667
 40
0.3333333333333333
 40
0.3333333333333333
 40
0.3333333333333333
 40
0.3333333333333333
 40
0.5
 40
0.5
 40
0.5
 40
0.5
 40
0.6666666666666666
 40
0.6666666666666666
 40
0.6666666666666666
 40
0.6666666666666666
 40
1.0
 40
1.0
 40
1.0
 40
1.0
 10
65.1749
 20
128.2695
 30
0.0
 10
65.1749
 20
128.2695
 30
0.0
 10
71.3333
 20
128.2695
 30
0.0
 10
71.3333
 20
128.2695
 30
0.0
 10
71.3333
 20
128.2695
 30
0.0
 10
71.3333
 20
128.2695
 30
0.0
 10
74.299
 20
125.133
 30
0.0
 10
74.299
 20
125.133
 30
0.0
 10
74.299
 20
125.133
 30
0.0
 10
74.299
 20
125.133
 30
0.0
 10
63.7412
 20
121.7166
 30
0.0
 10
63.7412
 20
121.7166
 30
0.0
 10
63.7412
 20
121.7166
 30
0.0
 10
63.7412
 20
121.7166
 30
0.0
 10
59.6281
 20
124.563
 30
0.0
 10
59.6281
 20
124.563
 30
0.0
 10
59.6281
 20
124.563
 30
0.0
 10
59.6281
 20
124.563
 30
0.0
 10
65.1749
 20
128.2695
 30
0.0
 10
65.1749
 20
128.2695
 30
0.0
  0
SPLINE
  5
124
330
1F
100
AcDbEntity
  8
layer 1
 62
     7
100
AcDbSpline
210
0.0
220
0.0
230
1.0
 70
    11
 71
     3
 72
    24
 73
    20
 74
     0
 42
0.0000000001
 43
0.0000000001
 12
1.0
 22
0.0
 32
0.0
 13
1.0
 23
0.0
 33
0.0
 40
0.0
 40
0.0
 40
0.0
 40
0.0
 40
0.1666666666666667
 40
0.1666666666666667
 40
0.1666666666666667
 40
0.1666666666666667
 40
0.3333333333333333
 40
0.3333333333333333
 40
0.3333333333333333
 40
0.3333333333333333
 40
0.5
 40
0.5
 40
0.5
 40
0.5
 40
0.6666666666666666
 40
0.6666666666666666
 40
0.6666666666666666
 40
0.6666666666666666
 40
1.0
 40
1.0
 40
1.0
 40
1.0
 10
50.6213
 20
128.2695
 30
0.0
 10
50.6213
 20
128.2695
 30
0.0
 10
59.9646
 20
128.2695
 30
0.0
 10
59.9646
 20
128.2695
 30
0.0
 10
59.9646
 20
128.2695
 30
0.0
 10
59.9646
 20
128.2695
 30
0.0
 10
60.3688
 20
127.7817
 30
0.0
 10
60.3688
 20
127.7817
 30
0.0
 10
60.3688
 20
127.7817
 30
0.0
 10
60.3688
 20
127.7817
 30
0.0
 10
49.6883
 20
120.6442
 30
0.0
 10
49.6883
 20
120.6442
 30
0.0
 10
49.6883
 20
120.6442
 30
0.0
 10
49.6883
 20
120.6442
 30
0.0
 10
47.9617
 20
127.0797
 30
0.0
 10
47.9617
 20
127.0797
 30
0.0
 10
47.9617
 20
127.0797
 30
0.0
 10
47.9617
 20
127.0797
 30
0.0
 10
50.6213
 20
128.2695
 30
0.0
 10
50.6213
 20
128.2695
 30
0.0
  0
SPLINE
  5
125
330
1F
100
AcDbEntity
  8
layer 1
 62
     7
100
AcDbSpline
210
0.0
220
0.0
230
1.0
 70
    11
 71
     3
 72
    16
 73
    12
 74
     0
 42
0.0000000001
 43
0.0000000001
 12
1.0
 22
0.0
 32
0.0
 13
1.0
 23
0.0
 33
0.0
 40
0.0
 40
0.0
 40
0.0
 40
0.0
 40
0.25
 40
0.25
 40
0.25
 40
0.25
 40
0.5
 40
0.5
 40
0.5
 40
0.5
 40
1.0
 40
1.0
 40
1.0
 40
1.0
 10
44.5102
 20
128.2695
 30
0.0
 10
44.5102
 20
128.2695
 30
0.0
 10
45.0724
 20
128.2695
 30
0.0
 10
45.0724
 20
128.2695
 30
0.0
 10
45.0724
 20
128.2695
 30
0.0
 10
45.0724
 20
128.2695
 30
0.0
 10
44.4202
 20
127.9778
 30
0.0
 10
44.4202
 20
127.9778
 30
0.0
 10
44.4202
 20
127.9778
 30
0.0
 10
44.4202
 20
127.9778
 30
0.0
 10
44.5102
 20
128.2695
 30
0.0
 10
44.5102
 20
128.2695
 30
0.0
  0
SPLINE
  5
126
330
1F
100
AcDbEntity
  8
layer 1
 62
     7
100
AcDbSpline
210
0.0
220
0.0
230
1.0
 70
    11
 71
     3
 72
    20
 73
    16
 74
     0
 42
0.0000000001
 43
0.0000000001
 12
1.0
 22
0.0
 32
0.0
 13
1.0
 23
0.0
 33
0.0
 40
0.0
 40
0.0
 40
0.0
 40
0.0
 40
0.2
 40
0.2
 40
0.2
 40
0.2
 40
0.4
 40
0.4
 40
0.4
 40
0.4
 40
0.6
 40
0.6
 40
0.6
 40
0.6
 40
1.0
 40
1.0
 40
1.0
 40
1.0
 10
36.157
 20
128.2695
 30
0.0
 10
36.157
 20
128.2695
 30
0.0
 10
42.1386
 20
128.2695
 30
0.0
 10
42.1386
 20
128.2695
 30
0.0
 10
42.1386
 20
128.2695
 30
0.0
 10
42.1386
 20
128.2695
 30
0.0
 10
41.6681
 20
126.7462
 30
0.0
 10
41.6681
 20
126.7462
 30
0.0
 10
41.6681
 20
126.7462
 30
0.0
 10
41.6681
 20
126.7462
 30
0.0
 10
36.157
 20
124.2805
 30
0.0
 10
36.157
 20
124.2805
 30
0.0
 10
36.157
 20
124.2805
 30
0.0
 10
36.157
 20
124.2805
 30
0.0
 10
36.157
 20
128.2695
 30
0.0
 10
36.157
 20
128.2695
 30
0.0
  0
SPLINE
  5
127
330
1F
100
AcDbEntity
  8
layer 1
 62
     7
100
AcDbSpline
210
0.0
220
0.0
230
1.0
 70
    11
 71
     3
 72
    20
 73
    16
 74
     0
 42
0.0000000001
 43
0.0000000001
 12
1.0
 22
0.0
 32
0.0
 13
1.0
 23
0.0
 33
0.0
 40
0.0
 40
0.0
 40
0.0
 40
0.0
 40
0.2
 40
0.2
 40
0.2
 40
0.2
 40
0.4
 40
0.4
 40
0.4
 40
0.4
 40
0.6
 40
0.6
 40
0.6
 40
0.6
 40
1.0
 40
1.0
 40
1.0
 40
1.0
 10
90.8045
 20
103.6521
 30
0.0
 10
90.8045
 20
103.6521
 30
0.0
 10
85.6596
 20
111.7768
 30
0.0
 10
85.6596
 20
111.7768
 30
0.0
 10
85.6596
 20
111.7768
 30
0.0
 10
85.6596
 20
111.7768
 30
0.0
 10
88.4837
 20
117.4372
 30
0.0
 10
88.4837
 20
117.4372
 30
0.0
 10
88.4837
 20
117.4372
 30
0.0
 10
88.4837
 20
117.4372
 30
0.0
 10
97.7133
 20
110.8529
 30
0.0
 10
97.7133
 20
110.8529
 30
0.0
 10
97.7133
 20
110.8529
 30
0.0
 10
97.7133
 20
110.8529
 30
0.0
 10
90.8045
 20
103.6521
 30
0.0
 10
90.8045
 20
103.6521
 30
0.0
  0
SPLINE
  5
128
330
1F
100
AcDbEntity
  8
layer 1
 62
     7
100
AcDbSpline
210
0.0
220
0.0
230
1.0
 70
    11
 71
     3
 72
    20
 73
    16
 74
     0
 42
0.0000000001
 43
0.0000000001
 12
1.0
 22
0.0
 32
0.0
 13
1.0
 23
0.0
 33
0.0
 40
0.0
 40
0.0
 40
0.0
 40
0.0
 40
0.2
 40
0.2
 40
0.2
 40
0.2
 40
0.4
 40
0.4
 40
0.4
 40
0.4
 40
0.6
 40
0.6
 40
0.6
 40
0.6
 40
1.0
 40
1.0
 40
1.0
 40
1.0
 10
99.5764
 20
109.5239
 30
0.0
 10
99.5764
 20
109.5239
 30
0.0
 10
104.2347
 20
106.2006
 30
0.0
 10
104.2347
 20
106.2006
 30
0.0
 10
104.2347
 20
106.2006
 30
0.0
 10
104.2347
 20
106.2006
 30
0.0
 10
103.6549
 20
102.669
 30
0.0
 10
103.6549
 20
102.669
 30
0.0
 10
103.6549
 20
102.669
 30
0.0
 10
103.6549
 20
102.669
 30
0.0
 10
92.1662
 20
101.8196
 30
0.0
 10
92.1662
 20
101.8196
 30
0.0
 10
92.1662
 20
101.8196
 30
0.0
 10
92.1662
 20
101.8196
 30
0.0
 10
99.5764
 20
109.5239
 30
0.0
 10
99.5764
 20
109.5239
 30
0.0
  0
SPLINE
  5
129
330
1F
100
AcDbEntity
  8
layer 1
 62
     7
100
AcDbSpline
210
0.0
220
0.0
230
1.0
 70
    11
 71
     3
 72
    20
 73
    16
 74
     0
 42
0.0000000001
 43
0.0000000001
 12
1.0
 22
0.0
 32
0.0
 13
1.0
 23
0.0
 33
0.0
 40
0.0
 40
0.0
 40
0.0
 40
0.0
 40
0.2
 40
0.2
 40
0.2
 40
0.2
 40
0.4
 40
0.4
 40
0.4
 40
0.4
 40
0.6
 40
0.6
 40
0.6
 40
0.6
 40
1.0
 40
1.0
 40
1.0
 40
1.0
 10
104.6507
 20
108.6827
 30
0.0
 10
104.6507
 20
108.6827
 30
0.0
 10
95.9478
 20
114.8914
 30
0.0
 10
95.9478
 20
114.8914
 30
0.0
 10
95.9478
 20
114.8914
 30
0.0
 10
95.9478
 20
114.8914
 30
0.0
 10
99.2422
 20
118.7672
 30
0.0
 10
99.2422
 20
118.7672
 30
0.0
 10
99.2422
 20
118.7672
 30
0.0
 10
99.2422
 20
118.7672
 30
0.0
 10
106.1616
 20
117.6948
 30
0.0
 10
106.1616
 20
117.6948
 30
0.0
 10
106.1616
 20
117.6948
 30
0.0
 10
106.1616
 20
117.6948
 30
0.0
 10
104.6507
 20
108.6827
 30
0.0
 10
104.6507
 20
108.6827
 30
0.0
  0
SPLINE
  5
12A
330
1F
100
AcDbEntity
  8
layer 1
 62
     7
100
AcDbSpline
210
0.0
220
0.0
230
1.0
 70
    11
 71
     3
 72
    20
 73
    16
 74
     0
 42
0.0000000001
 43
0.0000000001
 12
1.0
 22
0.0
 32
0.0
 13
1.0
 23
0.0
 33
0.0
 40
0.0
 40
0.0
 40
0.0
 40
0.0
 40
0.2
 40
0.2
 40
0.2
 40
0.2
 40
0.4
 40
0.4
 40
0.4
 40
0.4
 40
0.6
 40
0.6
 40
0.6
 40
0.6
 40
1.0
 40
1.0
 40
1.0
 40
1.0
 10
108.3989
 20
117.3481
 30
0.0
 10
108.3989
 20
117.3481
 30
0.0
 10
116.4196
 20
116.105
 30
0.0
 10
116.4196
 20
116.105
 30
0.0
 10
116.4196
 20
116.105
 30
0.0
 10
116.4196
 20
116.105
 30
0.0
 10
111.0393
 20
109.1875
 30
0.0
 10
111.0393
 20
109.1875
 30
0.0
 10
111.0393
 20
109.1875
 30
0.0
 10
111.0393
 20
109.1875
 30
0.0
 10
107.356
 20
111.1274
 30
0.0
 10
107.356
 20
111.1274
 30
0.0
 10
107.356
 20
111.1274
 30
0.0
 10
107.356
 20
111.1274
 30
0.0
 10
108.3989
 20
117.3481
 30
0.0
 10
108.3989
 20
117.3481
 30
0.0
  0
SPLINE
  5
12B
330
1F
100
AcDbEntity
  8
layer 1
 62
     7
100
AcDbSpline
210
0.0
220
0.0
230
1.0
 70
    11
 71
     3
 72
    20
 73
    16
 74
     0
 42
0.0000000001
 43
0.0000000001
 12
1.0
 22
0.0
 32
0.0
 13
1.0
 23
0.0
 33
0.0
 40
0.0
 40
0.0
 40
0.0
 40
0.0
 40
0.2
 40
0.2
 40
0.2
 40
0.2
 40
0.4
 40
0.4
 40
0.4
 40
0.4
 40
0.6
 40
0.6
 40
0.6
 40
0.6
 40
1.0
 40
1.0
 40
1.0
 40
1.0
 10
106.9619
 20
108.777
 30
0.0
 10
106.9619
 20
108.777
 30
0.0
 10
115.5258
 20
104.2665
 30
0.0
 10
115.5258
 20
104.2665
 30
0.0
 10
115.5258
 20
104.2665
 30
0.0
 10
115.5258
 20
104.2665
 30
0.0
 10
115.2348
 20
103.3723
 30
0.0
 10
115.2348
 20
103.3723
 30
0.0
 10
115.2348
 20
103.3723
 30
0.0
 10
115.2348
 20
103.3723
 30
0.0
 10
105.9614
 20
102.809
 30
0.0
 10
105.9614
 20
102.809
 30
0.0
 10
105.9614
 20
102.809
 30
0.0
 10
105.9614
 20
102.809
 30
0.0
 10
106.9619
 20
108.777
 30
0.0
 10
106.9619
 20
108.777
 30
0.0
  0
SPLINE
  5
12C
330
1F
100
AcDbEntity
  8
layer 1
 62
     7
100
AcDbSpline
210
0.0
220
0.0
230
1.0
 70
    11
 71
     3
 72
    24
 73
    20
 74
     0
 42
0.0000000001
 43
0.0000000001
 12
1.0
 22
0.0
 32
0.0
 13
1.0
 23
0.0
 33
0.0
 40
0.0
 40
0.0
 40
0.0
 40
0.0
 40
0.1666666666666667
 40
0.1666666666666667
 40
0.1666666666666667
 40
0.1666666666666667
 40
0.3333333333333333
 40
0.3333333333333333
 40
0.3333333333333333
 40
0.3333333333333333
 40
0.5
 40
0.5
 40
0.5
 40
0.5
 40
0.6666666666666666
 40
0.6666666666666666
 40
0.6666666666666666
 40
0.6666666666666666
 40
1.0
 40
1.0
 40
1.0
 40
1.0
 10
114.498
 20
101.1082
 30
0.0
 10
114.498
 20
101.1082
 30
0.0
 10
102.6019
 20
100.3944
 30
0.0
 10
102.6019
 20
100.3944
 30
0.0
 10
102.6019
 20
100.3944
 30
0.0
 10
102.6019
 20
100.3944
 30
0.0
 10
98.212
 20
94.1921
 30
0.0
 10
98.212
 20
94.1921
 30
0.0
 10
98.212
 20
94.1921
 30
0.0
 10
98.212
 20
94.1921
 30
0.0
 10
98.5771
 20
89.964
 30
0.0
 10
98.5771
 20
89.964
 30
0.0
 10
98.5771
 20
89.964
 30
0.0
 10
98.5771
 20
89.964
 30
0.0
 10
110.6627
 20
89.3224
 30
0.0
 10
110.6627
 20
89.3224
 30
0.0
 10
110.6627
 20
89.3224
 30
0.0
 10
110.6627
 20
89.3224
 30
0.0
 10
114.498
 20
101.1082
 30
0.0
 10
114.498
 20
101.1082
 30
0.0
  0
SPLINE
  5
12D
330
1F
100
AcDbEntity
  8
layer 1
 62
     7
100
AcDbSpline
210
0.0
220
0.0
230
1.0
 70
    11
 71
     3
 72
    16
 73
    12
 74
     0
 42
0.0000000001
 43
0.0000000001
 12
1.0
 22
0.0
 32
0.0
 13
1.0
 23
0.0
 33
0.0
 40
0.0
 40
0.0
 40
0.0
 40
0.0
 40
0.25
 40
0.25
 40
0.25
 40
0.25
 40
0.5
 40
0.5
 40
0.5
 40
0.5
 40
1.0
 40
1.0
 40
1.0
 40
1.0
 10
96.1954
 20
91.2367
 30
0.0
 10
96.1954
 20
91.2367
 30
0.0
 10
97.2999
 20
78.4486
 30
0.0
 10
97.2999
 20
78.4486
 30
0.0
 10
97.2999
 20
78.4486
 30
0.0
 10
97.2999
 20
78.4486
 30
0.0
 10
87.1588
 20
77.9934
 30
0.0
 10
87.1588
 20
77.9934
 30
0.0
 10
87.1588
 20
77.9934
 30
0.0
 10
87.1588
 20
77.9934
 30
0.0
 10
96.1954
 20
91.2367
 30
0.0
 10
96.1954
 20
91.2367
 30
0.0
  0
SPLINE
  5
12E
330
1F
100
AcDbEntity
  8
layer 1
 62
     7
100
AcDbSpline
210
0.0
220
0.0
230
1.0
 70
    11
 71
     3
 72
    20
 73
    16
 74
     0
 42
0.0000000001
 43
0.0000000001
 12
1.0
 22
0.0
 32
0.0
 13
1.0
 23
0.0
 33
0.0
 40
0.0
 40
0.0
 40
0.0
 40
0.0
 40
0.2
 40
0.2
 40
0.2
 40
0.2
 40
0.4
 40
0.4
 40
0.4
 40
0.4
 40
0.6
 40
0.6
 40
0.6
 40
0.6
 40
1.0
 40
1.0
 40
1.0
 40
1.0
 10
98.774
 20
87.6847
 30
0.0
 10
98.774
 20
87.6847
 30
0.0
 10
106.7374
 20
87.262
 30
0.0
 10
106.7374
 20
87.262
 30
0.0
 10
106.7374
 20
87.262
 30
0.0
 10
106.7374
 20
87.262
 30
0.0
 10
110.3897
 20
82.2106
 30
0.0
 10
110.3897
 20
82.2106
 30
0.0
 10
110.3897
 20
82.2106
 30
0.0
 10
110.3897
 20
82.2106
 30
0.0
 10
100.0492
 20
72.9215
 30
0.0
 10
100.0492
 20
72.9215
 30
0.0
 10
100.0492
 20
72.9215
 30
0.0
 10
100.0492
 20
72.9215
 30
0.0
 10
98.774
 20
87.6847
 30
0.0
 10
98.774
 20
87.6847
 30
0.0
  0
SPLINE
  5
12F
330
1F
100
AcDbEntity
  8
layer 1
 62
     7
100
AcDbSpline
210
0.0
220
0.0
230
1.0
 70
    11
 71
     3
 72
    16
 73
    12
 74
     0
 42
0.0000000001
 43
0.0000000001
 12
1.0
 22
0.0
 32
0.0
 13
1.0
 23
0.0
 33
0.0
 40
0.0
 40
0.0
 40
0.0
 40
0.0
 40
0.25
 40
0.25
 40
0.25
 40
0.25
 40
0.5
 40
0.5
 40
0.5
 40
0.5
 40
1.0
 40
1.0
 40
1.0
 40
1.0
 10
112.7334
 20
-89.6105
 30
0.0
 10
112.7334
 20
-89.6105
 30
0.0
 10
108.4719
 20
-77.2671
 30
0.0
 10
108.4719
 20
-77.2671
 30
0.0
 10
108.4719
 20
-77.2671
 30
0.0
 10
108.4719
 20
-77.2671
 30
0.0
 10
119.8667
 20
-84.6743
 30
0.0
 10
119.8667
 20
-84.6743
 30
0.0
 10
119.8667
 20
-84.6743
 30
0.0
 10
119.8667
 20
-84.6743
 30
0.0
 10
112.7334
 20
-89.6105
 30
0.0
 10
112.7334
 20
-89.6105
 30
0.0
  0
SPLINE
  5
130
330
1F
100
AcDbEntity
  8
layer 1
 62
     7
100
AcDbSpline
210
0.0
220
0.0
230
1.0
 70
    11
 71
     3
 72
    24
 73
    20
 74
     0
 42
0.0000000001
 43
0.0000000001
 12
1.0
 22
0.0
 32
0.0
 13
1.0
 23
0.0
 33
0.0
 40
0.0
 40
0.0
 40
0.0
 40
0.0
 40
0.1666666666666667
 40
0.1666666666666667
 40
0.1666666666666667
 40
0.1666666666666667
 40
0.3333333333333333
 40
0.3333333333333333
 40
0.3333333333333333
 40
0.3333333333333333
 40
0.5
 40
0.5
 40
0.5
 40
0.5
 40
0.6666666666666666
 40
0.6666666666666666
 40
0.6666666666666666
 40
0.6666666666666666
 40
1.0
 40
1.0
 40
1.0
 40
1.0
 10
97.9258
 20
-82.4354
 30
0.0
 10
97.9258
 20
-82.4354
 30
0.0
 10
107.7778
 20
-82.1934
 30
0.0
 10
107.7778
 20
-82.1934
 30
0.0
 10
107.7778
 20
-82.1934
 30
0.0
 10
107.7778
 20
-82.1934
 30
0.0
 10
110.8005
 20
-90.9482
 30
0.0
 10
110.8005
 20
-90.9482
 30
0.0
 10
110.8005
 20
-90.9482
 30
0.0
 10
110.8005
 20
-90.9482
 30
0.0
 10
102.7492
 20
-96.5198
 30
0.0
 10
102.7492
 20
-96.5198
 30
0.0
 10
102.7492
 20
-96.5198
 30
0.0
 10
102.7492
 20
-96.5198
 30
0.0
 10
95.4547
 20
-91.6452
 30
0.0
 10
95.4547
 20
-91.6452
 30
0.0
 10
95.4547
 20
-91.6452
 30
0.0
 10
95.4547
 20
-91.6452
 30
0.0
 10
97.9258
 20
-82.4354
 30
0.0
 10
97.9258
 20
-82.4354
 30
0.0
  0
SPLINE
  5
131
330
1F
100
AcDbEntity
  8
layer 1
 62
     7
100
AcDbSpline
210
0.0
220
0.0
230
1.0
 70
    11
 71
     3
 72
    28
 73
    24
 74
     0
 42
0.0000000001
 43
0.0000000001
 12
1.0
 22
0.0
 32
0.0
 13
1.0
 23
0.0
 33
0.0
 40
0.0
 40
0.0
 40
0.0
 40
0.0
 40
0.1428571428571428
 40
0.1428571428571428
 40
0.1428571428571428
 40
0.1428571428571428
 40
0.2857142857142857
 40
0.2857142857142857
 40
0.2857142857142857
 40
0.2857142857142857
 40
0.4285714285714285
 40
0.4285714285714285
 40
0.4285714285714285
 40
0.4285714285714285
 40
0.5714285714285714
 40
0.5714285714285714
 40
0.5714285714285714
 40
0.5714285714285714
 40
0.7142857142857143
 40
0.7142857142857143
 40
0.7142857142857143
 40
0.7142857142857143
 40
1.0
 40
1.0
 40
1.0
 40
1.0
 10
92.0987
 20
-68.8418
 30
0.0
 10
92.0987
 20
-68.8418
 30
0.0
 10
97.6784
 20
-68.5912
 30
0.0
 10
97.6784
 20
-68.5912
 30
0.0
 10
97.6784
 20
-68.5912
 30
0.0
 10
97.6784
 20
-68.5912
 30
0.0
 10
98.1245
 20
-73.7548
 30
0.0
 10
98.1245
 20
-73.7548
 30
0.0
 10
98.1245
 20
-73.7548
 30
0.0
 10
98.1245
 20
-73.7548
 30
0.0
 10
90.8437
 20
-80.2955
 30
0.0
 10
90.8437
 20
-80.2955
 30
0.0
 10
90.8437
 20
-80.2955
 30
0.0
 10
90.8437
 20
-80.2955
 30
0.0
 10
90.8886
 20
-80.3419
 30
0.0
 10
90.8886
 20
-80.3419
 30
0.0
 10
90.8886
 20
-80.3419
 30
0.0
 10
90.8886
 20
-80.3419
 30
0.0
 10
87.5843
 20
-80.4231
 30
0.0
 10
87.5843
 20
-80.4231
 30
0.0
 10
87.5843
 20
-80.4231
 30
0.0
 10
87.5843
 20
-80.4231
 30
0.0
 10
92.0987
 20
-68.8418
 30
0.0
 10
92.0987
 20
-68.8418
 30
0.0
  0
SPLINE
  5
132
330
1F
100
AcDbEntity
  8
layer 1
 62
     7
100
AcDbSpline
210
0.0
220
0.0
230
1.0
 70
    11
 71
     3
 72
    24
 73
    20
 74
     0
 42
0.0000000001
 43
0.0000000001
 12
1.0
 22
0.0
 32
0.0
 13
1.0
 23
0.0
 33
0.0
 40
0.0
 40
0.0
 40
0.0
 40
0.0
 40
0.1666666666666667
 40
0.1666666666666667
 40
0.1666666666666667
 40
0.1666666666666667
 40
0.3333333333333333
 40
0.3333333333333333
 40
0.3333333333333333
 40
0.3333333333333333
 40
0.5
 40
0.5
 40
0.5
 40
0.5
 40
0.6666666666666666
 40
0.6666666666666666
 40
0.6666666666666666
 40
0.6666666666666666
 40
1.0
 40
1.0
 40
1.0
 40
1.0
 10
112.9592
 20
67.179
 30
0.0
 10
112.9592
 20
67.179
 30
0.0
 10
107.0865
 20
70.9967
 30
0.0
 10
107.0865
 20
70.9967
 30
0.0
 10
107.0865
 20
70.9967
 30
0.0
 10
107.0865
 20
70.9967
 30
0.0
 10
105.716
 20
74.9669
 30
0.0
 10
105.716
 20
74.9669
 30
0.0
 10
105.716
 20
74.9669
 30
0.0
 10
105.716
 20
74.9669
 30
0.0
 10
111.7243
 20
80.3643
 30
0.0
 10
111.7243
 20
80.3643
 30
0.0
 10
111.7243
 20
80.3643
 30
0.0
 10
111.7243
 20
80.3643
 30
0.0
 10
117.6913
 20
72.1111
 30
0.0
 10
117.6913
 20
72.1111
 30
0.0
 10
117.6913
 20
72.1111
 30
0.0
 10
117.6913
 20
72.1111
 30
0.0
 10
112.9592
 20
67.179
 30
0.0
 10
112.9592
 20
67.179
 30
0.0
  0
SPLINE
  5
133
330
1F
100
AcDbEntity
  8
layer 1
 62
     7
100
AcDbSpline
210
0.0
220
0.0
230
1.0
 70
    11
 71
     3
 72
    20
 73
    16
 74
     0
 42
0.0000000001
 43
0.0000000001
 12
1.0
 22
0.0
 32
0.0
 13
1.0
 23
0.0
 33
0.0
 40
0.0
 40
0.0
 40
0.0
 40
0.0
 40
0.2
 40
0.2
 40
0.2
 40
0.2
 40
0.4
 40
0.4
 40
0.4
 40
0.4
 40
0.6
 40
0.6
 40
0.6
 40
0.6
 40
1.0
 40
1.0
 40
1.0
 40
1.0
 10
110.4863
 20
33.7604
 30
0.0
 10
110.4863
 20
33.7604
 30
0.0
 10
119.5778
 20
30.8186
 30
0.0
 10
119.5778
 20
30.8186
 30
0.0
 10
119.5778
 20
30.8186
 30
0.0
 10
119.5778
 20
30.8186
 30
0.0
 10
115.6576
 20
22.2331
 30
0.0
 10
115.6576
 20
22.2331
 30
0.0
 10
115.6576
 20
22.2331
 30
0.0
 10
115.6576
 20
22.2331
 30
0.0
 10
106.6541
 20
29.7073
 30
0.0
 10
106.6541
 20
29.7073
 30
0.0
 10
106.6541
 20
29.7073
 30
0.0
 10
106.6541
 20
29.7073
 30
0.0
 10
110.4863
 20
33.7604
 30
0.0
 10
110.4863
 20
33.7604
 30
0.0
  0
SPLINE
  5
134
330
1F
100
AcDbEntity
  8
layer 1
 62
     7
100
AcDbSpline
210
0.0
220
0.0
230
1.0
 70
    11
 71
     3
 72
    20
 73
    16
 74
     0
 42
0.0000000001
 43
0.0000000001
 12
1.0
 22
0.0
 32
0.0
 13
1.0
 23
0.0
 33
0.0
 40
0.0
 40
0.0
 40
0.0
 40
0.0
 40
0.2
 40
0.2
 40
0.2
 40
0.2
 40
0.4
 40
0.4
 40
0.4
 40
0.4
 40
0.6
 40
0.6
 40
0.6
 40
0.6
 40
1.0
 40
1.0
 40
1.0
 40
1.0
 10
104.9075
 20
31.1569
 30
0.0
 10
104.9075
 20
31.1569
 30
0.0
 10
100.7482
 20
34.6098
 30
0.0
 10
100.7482
 20
34.6098
 30
0.0
 10
100.7482
 20
34.6098
 30
0.0
 10
100.7482
 20
34.6098
 30
0.0
 10
107.2263
 20
42.4244
 30
0.0
 10
107.2263
 20
42.4244
 30
0.0
 10
107.2263
 20
42.4244
 30
0.0
 10
107.2263
 20
42.4244
 30
0.0
 10
112.3337
 20
39.0113
 30
0.0
 10
112.3337
 20
39.0113
 30
0.0
 10
112.3337
 20
39.0113
 30
0.0
 10
112.3337
 20
39.0113
 30
0.0
 10
104.9075
 20
31.1569
 30
0.0
 10
104.9075
 20
31.1569
 30
0.0
  0
SPLINE
  5
135
330
1F
100
AcDbEntity
  8
layer 1
 62
     7
100
AcDbSpline
210
0.0
220
0.0
230
1.0
 70
    11
 71
     3
 72
    20
 73
    16
 74
     0
 42
0.0000000001
 43
0.0000000001
 12
1.0
 22
0.0
 32
0.0
 13
1.0
 23
0.0
 33
0.0
 40
0.0
 40
0.0
 40
0.0
 40
0.0
 40
0.2
 40
0.2
 40
0.2
 40
0.2
 40
0.4
 40
0.4
 40
0.4
 40
0.4
 40
0.6
 40
0.6
 40
0.6
 40
0.6
 40
1.0
 40
1.0
 40
1.0
 40
1.0
 10
113.9122
 20
40.6804
 30
0.0
 10
113.9122
 20
40.6804
 30
0.0
 10
104.5913
 20
46.9091
 30
0.0
 10
104.5913
 20
46.9091
 30
0.0
 10
104.5913
 20
46.9091
 30
0.0
 10
104.5913
 20
46.9091
 30
0.0
 10
108.7044
 20
49.7551
 30
0.0
 10
108.7044
 20
49.7551
 30
0.0
 10
108.7044
 20
49.7551
 30
0.0
 10
108.7044
 20
49.7551
 30
0.0
 10
119.2624
 20
46.3389
 30
0.0
 10
119.2624
 20
46.3389
 30
0.0
 10
119.2624
 20
46.3389
 30
0.0
 10
119.2624
 20
46.3389
 30
0.0
 10
113.9122
 20
40.6804
 30
0.0
 10
113.9122
 20
40.6804
 30
0.0
  0
SPLINE
  5
136
330
1F
100
AcDbEntity
  8
layer 1
 62
     7
100
AcDbSpline
210
0.0
220
0.0
230
1.0
 70
    11
 71
     3
 72
    28
 73
    24
 74
     0
 42
0.0000000001
 43
0.0000000001
 12
1.0
 22
0.0
 32
0.0
 13
1.0
 23
0.0
 33
0.0
 40
0.0
 40
0.0
 40
0.0
 40
0.0
 40
0.1428571428571428
 40
0.1428571428571428
 40
0.1428571428571428
 40
0.1428571428571428
 40
0.2857142857142857
 40
0.2857142857142857
 40
0.2857142857142857
 40
0.2857142857142857
 40
0.4285714285714285
 40
0.4285714285714285
 40
0.4285714285714285
 40
0.4285714285714285
 40
0.5714285714285714
 40
0.5714285714285714
 40
0.5714285714285714
 40
0.5714285714285714
 40
0.7142857142857143
 40
0.7142857142857143
 40
0.7142857142857143
 40
0.7142857142857143
 40
1.0
 40
1.0
 40
1.0
 40
1.0
 10
97.4948
 20
76.1913
 30
0.0
 10
97.4948
 20
76.1913
 30
0.0
 10
97.9409
 20
71.0276
 30
0.0
 10
97.9409
 20
71.0276
 30
0.0
 10
97.9409
 20
71.0276
 30
0.0
 10
97.9409
 20
71.0276
 30
0.0
 10
90.6601
 20
64.4869
 30
0.0
 10
90.6601
 20
64.4869
 30
0.0
 10
90.6601
 20
64.4869
 30
0.0
 10
90.6601
 20
64.4869
 30
0.0
 10
90.7049
 20
64.4405
 30
0.0
 10
90.7049
 20
64.4405
 30
0.0
 10
90.7049
 20
64.4405
 30
0.0
 10
90.7049
 20
64.4405
 30
0.0
 10
87.4007
 20
64.3593
 30
0.0
 10
87.4007
 20
64.3593
 30
0.0
 10
87.4007
 20
64.3593
 30
0.0
 10
87.4007
 20
64.3593
 30
0.0
 10
91.9151
 20
75.9407
 30
0.0
 10
91.9151
 20
75.9407
 30
0.0
 10
91.9151
 20
75.9407
 30
0.0
 10
91.9151
 20
75.9407
 30
0.0
 10
97.4948
 20
76.1913
 30
0.0
 10
97.4948
 20
76.1913
 30
0.0
  0
SPLINE
  5
137
330
1F
100
AcDbEntity
  8
layer 1
 62
     7
100
AcDbSpline
210
0.0
220
0.0
230
1.0
 70
    11
 71
     3
 72
    16
 73
    12
 74
     0
 42
0.0000000001
 43
0.0000000001
 12
1.0
 22
0.0
 32
0.0
 13
1.0
 23
0.0
 33
0.0
 40
0.0
 40
0.0
 40
0.0
 40
0.0
 40
0.25
 40
0.25
 40
0.25
 40
0.25
 40
0.5
 40
0.5
 40
0.5
 40
0.5
 40
1.0
 40
1.0
 40
1.0
 40
1.0
 10
103.888
 20
73.3247
 30
0.0
 10
103.888
 20
73.3247
 30
0.0
 10
106.8184
 20
64.8365
 30
0.0
 10
106.8184
 20
64.8365
 30
0.0
 10
106.8184
 20
64.8365
 30
0.0
 10
106.8184
 20
64.8365
 30
0.0
 10
94.091
 20
64.5238
 30
0.0
 10
94.091
 20
64.5238
 30
0.0
 10
94.091
 20
64.5238
 30
0.0
 10
94.091
 20
64.5238
 30
0.0
 10
103.888
 20
73.3247
 30
0.0
 10
103.888
 20
73.3247
 30
0.0
  0
SPLINE
  5
138
330
1F
100
AcDbEntity
  8
layer 1
 62
     7
100
AcDbSpline
210
0.0
220
0.0
230
1.0
 70
    11
 71
     3
 72
    24
 73
    20
 74
     0
 42
0.0000000001
 43
0.0000000001
 12
1.0
 22
0.0
 32
0.0
 13
1.0
 23
0.0
 33
0.0
 40
0.0
 40
0.0
 40
0.0
 40
0.0
 40
0.1666666666666667
 40
0.1666666666666667
 40
0.1666666666666667
 40
0.1666666666666667
 40
0.3333333333333333
 40
0.3333333333333333
 40
0.3333333333333333
 40
0.3333333333333333
 40
0.5
 40
0.5
 40
0.5
 40
0.5
 40
0.6666666666666666
 40
0.6666666666666666
 40
0.6666666666666666
 40
0.6666666666666666
 40
1.0
 40
1.0
 40
1.0
 40
1.0
 10
107.5942
 20
62.5891
 30
0.0
 10
107.5942
 20
62.5891
 30
0.0
 10
110.6167
 20
53.8343
 30
0.0
 10
110.6167
 20
53.8343
 30
0.0
 10
110.6167
 20
53.8343
 30
0.0
 10
110.6167
 20
53.8343
 30
0.0
 10
102.5656
 20
48.2627
 30
0.0
 10
102.5656
 20
48.2627
 30
0.0
 10
102.5656
 20
48.2627
 30
0.0
 10
102.5656
 20
48.2627
 30
0.0
 10
95.2713
 20
53.1373
 30
0.0
 10
95.2713
 20
53.1373
 30
0.0
 10
95.2713
 20
53.1373
 30
0.0
 10
95.2713
 20
53.1373
 30
0.0
 10
97.7422
 20
62.3471
 30
0.0
 10
97.7422
 20
62.3471
 30
0.0
 10
97.7422
 20
62.3471
 30
0.0
 10
97.7422
 20
62.3471
 30
0.0
 10
107.5942
 20
62.5891
 30
0.0
 10
107.5942
 20
62.5891
 30
0.0
  0
SPLINE
  5
139
330
1F
100
AcDbEntity
  8
layer 1
 62
     7
100
AcDbSpline
210
0.0
220
0.0
230
1.0
 70
    11
 71
     3
 72
    16
 73
    12
 74
     0
 42
0.0000000001
 43
0.0000000001
 12
1.0
 22
0.0
 32
0.0
 13
1.0
 23
0.0
 33
0.0
 40
0.0
 40
0.0
 40
0.0
 40
0.0
 40
0.25
 40
0.25
 40
0.25
 40
0.25
 40
0.5
 40
0.5
 40
0.5
 40
0.5
 40
1.0
 40
1.0
 40
1.0
 40
1.0
 10
108.2883
 20
67.5155
 30
0.0
 10
108.2883
 20
67.5155
 30
0.0
 10
119.6832
 20
60.1083
 30
0.0
 10
119.6832
 20
60.1083
 30
0.0
 10
119.6832
 20
60.1083
 30
0.0
 10
119.6832
 20
60.1083
 30
0.0
 10
112.5498
 20
55.1718
 30
0.0
 10
112.5498
 20
55.1718
 30
0.0
 10
112.5498
 20
55.1718
 30
0.0
 10
112.5498
 20
55.1718
 30
0.0
 10
108.2883
 20
67.5155
 30
0.0
 10
108.2883
 20
67.5155
 30
0.0
  0
SPLINE
  5
13A
330
1F
100
AcDbEntity
  8
layer 1
 62
     7
100
AcDbSpline
210
0.0
220
0.0
230
1.0
 70
    11
 71
     3
 72
    20
 73
    16
 74
     0
 42
0.0000000001
 43
0.0000000001
 12
1.0
 22
0.0
 32
0.0
 13
1.0
 23
0.0
 33
0.0
 40
0.0
 40
0.0
 40
0.0
 40
0.0
 40
0.2
 40
0.2
 40
0.2
 40
0.2
 40
0.4
 40
0.4
 40
0.4
 40
0.4
 40
0.6
 40
0.6
 40
0.6
 40
0.6
 40
1.0
 40
1.0
 40
1.0
 40
1.0
 10
105.3323
 20
43.6901
 30
0.0
 10
105.3323
 20
43.6901
 30
0.0
 10
102.4
 20
40.1529
 30
0.0
 10
102.4
 20
40.1529
 30
0.0
 10
102.4
 20
40.1529
 30
0.0
 10
102.4
 20
40.1529
 30
0.0
 10
92.925
 20
44.3923
 30
0.0
 10
92.925
 20
44.3923
 30
0.0
 10
92.925
 20
44.3923
 30
0.0
 10
92.925
 20
44.3923
 30
0.0
 10
94.6516
 20
50.8277
 30
0.0
 10
94.6516
 20
50.8277
 30
0.0
 10
94.6516
 20
50.8277
 30
0.0
 10
94.6516
 20
50.8277
 30
0.0
 10
105.3323
 20
43.6901
 30
0.0
 10
105.3323
 20
43.6901
 30
0.0
  0
SPLINE
  5
13B
330
1F
100
AcDbEntity
  8
layer 1
 62
     7
100
AcDbSpline
210
0.0
220
0.0
230
1.0
 70
    11
 71
     3
 72
    16
 73
    12
 74
     0
 42
0.0000000001
 43
0.0000000001
 12
1.0
 22
0.0
 32
0.0
 13
1.0
 23
0.0
 33
0.0
 40
0.0
 40
0.0
 40
0.0
 40
0.0
 40
0.25
 40
0.25
 40
0.25
 40
0.25
 40
0.5
 40
0.5
 40
0.5
 40
0.5
 40
1.0
 40
1.0
 40
1.0
 40
1.0
 10
100.8987
 20
38.3419
 30
0.0
 10
100.8987
 20
38.3419
 30
0.0
 10
93.668
 20
29.6194
 30
0.0
 10
93.668
 20
29.6194
 30
0.0
 10
93.668
 20
29.6194
 30
0.0
 10
93.668
 20
29.6194
 30
0.0
 10
89.3834
 20
43.4943
 30
0.0
 10
89.3834
 20
43.4943
 30
0.0
 10
89.3834
 20
43.4943
 30
0.0
 10
89.3834
 20
43.4943
 30
0.0
 10
100.8987
 20
38.3419
 30
0.0
 10
100.8987
 20
38.3419
 30
0.0
  0
SPLINE
  5
13C
330
1F
100
AcDbEntity
  8
layer 1
 62
     7
100
AcDbSpline
210
0.0
220
0.0
230
1.0
 70
    11
 71
     3
 72
    20
 73
    16
 74
     0
 42
0.0000000001
 43
0.0000000001
 12
1.0
 22
0.0
 32
0.0
 13
1.0
 23
0.0
 33
0.0
 40
0.0
 40
0.0
 40
0.0
 40
0.0
 40
0.2
 40
0.2
 40
0.2
 40
0.2
 40
0.4
 40
0.4
 40
0.4
 40
0.4
 40
0.6
 40
0.6
 40
0.6
 40
0.6
 40
1.0
 40
1.0
 40
1.0
 40
1.0
 10
99.3024
 20
32.8658
 30
0.0
 10
99.3024
 20
32.8658
 30
0.0
 10
107.237
 20
26.2792
 30
0.0
 10
107.237
 20
26.2792
 30
0.0
 10
107.237
 20
26.2792
 30
0.0
 10
107.237
 20
26.2792
 30
0.0
 10
96.1645
 20
21.5349
 30
0.0
 10
96.1645
 20
21.5349
 30
0.0
 10
96.1645
 20
21.5349
 30
0.0
 10
96.1645
 20
21.5349
 30
0.0
 10
94.4669
 20
27.0326
 30
0.0
 10
94.4669
 20
27.0326
 30
0.0
 10
94.4669
 20
27.0326
 30
0.0
 10
94.4669
 20
27.0326
 30
0.0
 10
99.3024
 20
32.8658
 30
0.0
 10
99.3024
 20
32.8658
 30
0.0
  0
SPLINE
  5
13D
330
1F
100
AcDbEntity
  8
layer 1
 62
     7
100
AcDbSpline
210
0.0
220
0.0
230
1.0
 70
    11
 71
     3
 72
    24
 73
    20
 74
     0
 42
0.0000000001
 43
0.0000000001
 12
1.0
 22
0.0
 32
0.0
 13
1.0
 23
0.0
 33
0.0
 40
0.0
 40
0.0
 40
0.0
 40
0.0
 40
0.1666666666666667
 40
0.1666666666666667
 40
0.1666666666666667
 40
0.1666666666666667
 40
0.3333333333333333
 40
0.3333333333333333
 40
0.3333333333333333
 40
0.3333333333333333
 40
0.5
 40
0.5
 40
0.5
 40
0.5
 40
0.6666666666666666
 40
0.6666666666666666
 40
0.6666666666666666
 40
0.6666666666666666
 40
1.0
 40
1.0
 40
1.0
 40
1.0
 10
111.8313
 20
13.8537
 30
0.0
 10
111.8313
 20
13.8537
 30
0.0
 10
105.3553
 20
15.9493
 30
0.0
 10
105.3553
 20
15.9493
 30
0.0
 10
105.3553
 20
15.9493
 30
0.0
 10
105.3553
 20
15.9493
 30
0.0
 10
104.5209
 20
22.6503
 30
0.0
 10
104.5209
 20
22.6503
 30
0.0
 10
104.5209
 20
22.6503
 30
0.0
 10
104.5209
 20
22.6503
 30
0.0
 10
109.1957
 20
24.6532
 30
0.0
 10
109.1957
 20
24.6532
 30
0.0
 10
109.1957
 20
24.6532
 30
0.0
 10
109.1957
 20
24.6532
 30
0.0
 10
114.6828
 20
20.0984
 30
0.0
 10
114.6828
 20
20.0984
 30
0.0
 10
114.6828
 20
20.0984
 30
0.0
 10
114.6828
 20
20.0984
 30
0.0
 10
111.8313
 20
13.8537
 30
0.0
 10
111.8313
 20
13.8537
 30
0.0
  0
SPLINE
  5
13E
330
1F
100
AcDbEntity
  8
layer 1
 62
     7
100
AcDbSpline
210
0.0
220
0.0
230
1.0
 70
    11
 71
     3
 72
    20
 73
    16
 74
     0
 42
0.0000000001
 43
0.0000000001
 12
1.0
 22
0.0
 32
0.0
 13
1.0
 23
0.0
 33
0.0
 40
0.0
 40
0.0
 40
0.0
 40
0.0
 40
0.2
 40
0.2
 40
0.2
 40
0.2
 40
0.4
 40
0.4
 40
0.4
 40
0.4
 40
0.6
 40
0.6
 40
0.6
 40
0.6
 40
1.0
 40
1.0
 40
1.0
 40
1.0
 10
90.9878
 20
-41.1303
 30
0.0
 10
90.9878
 20
-41.1303
 30
0.0
 10
85.8432
 20
-33.0055
 30
0.0
 10
85.8432
 20
-33.0055
 30
0.0
 10
85.8432
 20
-33.0055
 30
0.0
 10
85.8432
 20
-33.0055
 30
0.0
 10
88.6673
 20
-27.3452
 30
0.0
 10
88.6673
 20
-27.3452
 30
0.0
 10
88.6673
 20
-27.3452
 30
0.0
 10
88.6673
 20
-27.3452
 30
0.0
 10
97.8969
 20
-33.9295
 30
0.0
 10
97.8969
 20
-33.9295
 30
0.0
 10
97.8969
 20
-33.9295
 30
0.0
 10
97.8969
 20
-33.9295
 30
0.0
 10
90.9878
 20
-41.1303
 30
0.0
 10
90.9878
 20
-41.1303
 30
0.0
  0
SPLINE
  5
13F
330
1F
100
AcDbEntity
  8
layer 1
 62
     7
100
AcDbSpline
210
0.0
220
0.0
230
1.0
 70
    11
 71
     3
 72
    20
 73
    16
 74
     0
 42
0.0000000001
 43
0.0000000001
 12
1.0
 22
0.0
 32
0.0
 13
1.0
 23
0.0
 33
0.0
 40
0.0
 40
0.0
 40
0.0
 40
0.0
 40
0.2
 40
0.2
 40
0.2
 40
0.2
 40
0.4
 40
0.4
 40
0.4
 40
0.4
 40
0.6
 40
0.6
 40
0.6
 40
0.6
 40
1.0
 40
1.0
 40
1.0
 40
1.0
 10
99.7598
 20
-35.2586
 30
0.0
 10
99.7598
 20
-35.2586
 30
0.0
 10
103.5038
 20
-37.9294
 30
0.0
 10
103.5038
 20
-37.9294
 30
0.0
 10
103.5038
 20
-37.9294
 30
0.0
 10
103.5038
 20
-37.9294
 30
0.0
 10
93.019
 20
-54.0563
 30
0.0
 10
93.019
 20
-54.0563
 30
0.0
 10
93.019
 20
-54.0563
 30
0.0
 10
93.019
 20
-54.0563
 30
0.0
 10
86.7736
 20
-48.7931
 30
0.0
 10
86.7736
 20
-48.7931
 30
0.0
 10
86.7736
 20
-48.7931
 30
0.0
 10
86.7736
 20
-48.7931
 30
0.0
 10
99.7598
 20
-35.2586
 30
0.0
 10
99.7598
 20
-35.2586
 30
0.0
  0
SPLINE
  5
140
330
1F
100
AcDbEntity
  8
layer 1
 62
     7
100
AcDbSpline
210
0.0
220
0.0
230
1.0
 70
    11
 71
     3
 72
    24
 73
    20
 74
     0
 42
0.0000000001
 43
0.0000000001
 12
1.0
 22
0.0
 32
0.0
 13
1.0
 23
0.0
 33
0.0
 40
0.0
 40
0.0
 40
0.0
 40
0.0
 40
0.1666666666666667
 40
0.1666666666666667
 40
0.1666666666666667
 40
0.1666666666666667
 40
0.3333333333333333
 40
0.3333333333333333
 40
0.3333333333333333
 40
0.3333333333333333
 40
0.5
 40
0.5
 40
0.5
 40
0.5
 40
0.6666666666666666
 40
0.6666666666666666
 40
0.6666666666666666
 40
0.6666666666666666
 40
1.0
 40
1.0
 40
1.0
 40
1.0
 10
113.1428
 20
-77.6035
 30
0.0
 10
113.1428
 20
-77.6035
 30
0.0
 10
107.2699
 20
-73.7859
 30
0.0
 10
107.2699
 20
-73.7859
 30
0.0
 10
107.2699
 20
-73.7859
 30
0.0
 10
107.2699
 20
-73.7859
 30
0.0
 10
105.8995
 20
-69.8157
 30
0.0
 10
105.8995
 20
-69.8157
 30
0.0
 10
105.8995
 20
-69.8157
 30
0.0
 10
105.8995
 20
-69.8157
 30
0.0
 10
111.9079
 20
-64.4181
 30
0.0
 10
111.9079
 20
-64.4181
 30
0.0
 10
111.9079
 20
-64.4181
 30
0.0
 10
111.9079
 20
-64.4181
 30
0.0
 10
117.8749
 20
-72.6715
 30
0.0
 10
117.8749
 20
-72.6715
 30
0.0
 10
117.8749
 20
-72.6715
 30
0.0
 10
117.8749
 20
-72.6715
 30
0.0
 10
113.1428
 20
-77.6035
 30
0.0
 10
113.1428
 20
-77.6035
 30
0.0
  0
SPLINE
  5
141
330
1F
100
AcDbEntity
  8
layer 1
 62
     7
100
AcDbSpline
210
0.0
220
0.0
230
1.0
 70
    11
 71
     3
 72
    20
 73
    16
 74
     0
 42
0.0000000001
 43
0.0000000001
 12
1.0
 22
0.0
 32
0.0
 13
1.0
 23
0.0
 33
0.0
 40
0.0
 40
0.0
 40
0.0
 40
0.0
 40
0.2
 40
0.2
 40
0.2
 40
0.2
 40
0.4
 40
0.4
 40
0.4
 40
0.4
 40
0.6
 40
0.6
 40
0.6
 40
0.6
 40
1.0
 40
1.0
 40
1.0
 40
1.0
 10
106.4624
 20
-27.1058
 30
0.0
 10
106.4624
 20
-27.1058
 30
0.0
 10
105.6732
 20
-36.6983
 30
0.0
 10
105.6732
 20
-36.6983
 30
0.0
 10
105.6732
 20
-36.6983
 30
0.0
 10
105.6732
 20
-36.6983
 30
0.0
 10
96.1312
 20
-29.8911
 30
0.0
 10
96.1312
 20
-29.8911
 30
0.0
 10
96.1312
 20
-29.8911
 30
0.0
 10
96.1312
 20
-29.8911
 30
0.0
 10
99.4258
 20
-26.0152
 30
0.0
 10
99.4258
 20
-26.0152
 30
0.0
 10
99.4258
 20
-26.0152
 30
0.0
 10
99.4258
 20
-26.0152
 30
0.0
 10
106.4624
 20
-27.1058
 30
0.0
 10
106.4624
 20
-27.1058
 30
0.0
  0
SPLINE
  5
142
330
1F
100
AcDbEntity
  8
layer 1
 62
     7
100
AcDbSpline
210
0.0
220
0.0
230
1.0
 70
    11
 71
     3
 72
    20
 73
    16
 74
     0
 42
0.0000000001
 43
0.0000000001
 12
1.0
 22
0.0
 32
0.0
 13
1.0
 23
0.0
 33
0.0
 40
0.0
 40
0.0
 40
0.0
 40
0.0
 40
0.2
 40
0.2
 40
0.2
 40
0.2
 40
0.4
 40
0.4
 40
0.4
 40
0.4
 40
0.6
 40
0.6
 40
0.6
 40
0.6
 40
1.0
 40
1.0
 40
1.0
 40
1.0
 10
105.4802
 20
-39.047
 30
0.0
 10
105.4802
 20
-39.047
 30
0.0
 10
104.1595
 20
-55.1051
 30
0.0
 10
104.1595
 20
-55.1051
 30
0.0
 10
104.1595
 20
-55.1051
 30
0.0
 10
104.1595
 20
-55.1051
 30
0.0
 10
98.7607
 20
-54.8185
 30
0.0
 10
98.7607
 20
-54.8185
 30
0.0
 10
98.7607
 20
-54.8185
 30
0.0
 10
98.7607
 20
-54.8185
 30
0.0
 10
98.3463
 20
-50.0199
 30
0.0
 10
98.3463
 20
-50.0199
 30
0.0
 10
98.3463
 20
-50.0199
 30
0.0
 10
98.3463
 20
-50.0199
 30
0.0
 10
105.4802
 20
-39.047
 30
0.0
 10
105.4802
 20
-39.047
 30
0.0
  0
SPLINE
  5
143
330
1F
100
AcDbEntity
  8
layer 1
 62
     7
100
AcDbSpline
210
0.0
220
0.0
230
1.0
 70
    11
 71
     3
 72
    20
 73
    16
 74
     0
 42
0.0000000001
 43
0.0000000001
 12
1.0
 22
0.0
 32
0.0
 13
1.0
 23
0.0
 33
0.0
 40
0.0
 40
0.0
 40
0.0
 40
0.0
 40
0.2
 40
0.2
 40
0.2
 40
0.2
 40
0.4
 40
0.4
 40
0.4
 40
0.4
 40
0.6
 40
0.6
 40
0.6
 40
0.6
 40
1.0
 40
1.0
 40
1.0
 40
1.0
 10
106.4232
 20
-55.2253
 30
0.0
 10
106.4232
 20
-55.2253
 30
0.0
 10
107.9681
 20
-36.4388
 30
0.0
 10
107.9681
 20
-36.4388
 30
0.0
 10
107.9681
 20
-36.4388
 30
0.0
 10
107.9681
 20
-36.4388
 30
0.0
 10
115.7094
 20
-40.516
 30
0.0
 10
115.7094
 20
-40.516
 30
0.0
 10
115.7094
 20
-40.516
 30
0.0
 10
115.7094
 20
-40.516
 30
0.0
 10
110.846
 20
-55.46
 30
0.0
 10
110.846
 20
-55.46
 30
0.0
 10
110.846
 20
-55.46
 30
0.0
 10
110.846
 20
-55.46
 30
0.0
 10
106.4232
 20
-55.2253
 30
0.0
 10
106.4232
 20
-55.2253
 30
0.0
  0
SPLINE
  5
144
330
1F
100
AcDbEntity
  8
layer 1
 62
     7
100
AcDbSpline
210
0.0
220
0.0
230
1.0
 70
    11
 71
     3
 72
    20
 73
    16
 74
     0
 42
0.0000000001
 43
0.0000000001
 12
1.0
 22
0.0
 32
0.0
 13
1.0
 23
0.0
 33
0.0
 40
0.0
 40
0.0
 40
0.0
 40
0.0
 40
0.2
 40
0.2
 40
0.2
 40
0.2
 40
0.4
 40
0.4
 40
0.4
 40
0.4
 40
0.6
 40
0.6
 40
0.6
 40
0.6
 40
1.0
 40
1.0
 40
1.0
 40
1.0
 10
108.1699
 20
-33.9871
 30
0.0
 10
108.1699
 20
-33.9871
 30
0.0
 10
108.7073
 20
-27.4537
 30
0.0
 10
108.7073
 20
-27.4537
 30
0.0
 10
108.7073
 20
-27.4537
 30
0.0
 10
108.7073
 20
-27.4537
 30
0.0
 10
116.603
 20
-28.6774
 30
0.0
 10
116.603
 20
-28.6774
 30
0.0
 10
116.603
 20
-28.6774
 30
0.0
 10
116.603
 20
-28.6774
 30
0.0
 10
111.2229
 20
-35.5951
 30
0.0
 10
111.2229
 20
-35.5951
 30
0.0
 10
111.2229
 20
-35.5951
 30
0.0
 10
111.2229
 20
-35.5951
 30
0.0
 10
108.1699
 20
-33.9871
 30
0.0
 10
108.1699
 20
-33.9871
 30
0.0
  0
SPLINE
  5
145
330
1F
100
AcDbEntity
  8
layer 1
 62
     7
100
AcDbSpline
210
0.0
220
0.0
230
1.0
 70
    11
 71
     3
 72
    20
 73
    16
 74
     0
 42
0.0000000001
 43
0.0000000001
 12
1.0
 22
0.0
 32
0.0
 13
1.0
 23
0.0
 33
0.0
 40
0.0
 40
0.0
 40
0.0
 40
0.0
 40
0.2
 40
0.2
 40
0.2
 40
0.2
 40
0.4
 40
0.4
 40
0.4
 40
0.4
 40
0.6
 40
0.6
 40
0.6
 40
0.6
 40
1.0
 40
1.0
 40
1.0
 40
1.0
 10
100.0173
 20
-4.9368
 30
0.0
 10
100.0173
 20
-4.9368
 30
0.0
 10
108.5459
 20
-12.112
 30
0.0
 10
108.5459
 20
-12.112
 30
0.0
 10
108.5459
 20
-12.112
 30
0.0
 10
108.5459
 20
-12.112
 30
0.0
 10
94.287
 20
-28.5754
 30
0.0
 10
94.287
 20
-28.5754
 30
0.0
 10
94.287
 20
-28.5754
 30
0.0
 10
94.287
 20
-28.5754
 30
0.0
 10
89.6897
 20
-25.2957
 30
0.0
 10
89.6897
 20
-25.2957
 30
0.0
 10
89.6897
 20
-25.2957
 30
0.0
 10
89.6897
 20
-25.2957
 30
0.0
 10
100.0173
 20
-4.9368
 30
0.0
 10
100.0173
 20
-4.9368
 30
0.0
  0
SPLINE
  5
146
330
1F
100
AcDbEntity
  8
layer 1
 62
     7
100
AcDbSpline
210
0.0
220
0.0
230
1.0
 70
    11
 71
     3
 72
    16
 73
    12
 74
     0
 42
0.0000000001
 43
0.0000000001
 12
1.0
 22
0.0
 32
0.0
 13
1.0
 23
0.0
 33
0.0
 40
0.0
 40
0.0
 40
0.0
 40
0.0
 40
0.25
 40
0.25
 40
0.25
 40
0.25
 40
0.5
 40
0.5
 40
0.5
 40
0.5
 40
1.0
 40
1.0
 40
1.0
 40
1.0
 10
87.4471
 20
-66.7845
 30
0.0
 10
87.4471
 20
-66.7845
 30
0.0
 10
96.3408
 20
-53.1046
 30
0.0
 10
96.3408
 20
-53.1046
 30
0.0
 10
96.3408
 20
-53.1046
 30
0.0
 10
96.3408
 20
-53.1046
 30
0.0
 10
97.4835
 20
-66.334
 30
0.0
 10
97.4835
 20
-66.334
 30
0.0
 10
97.4835
 20
-66.334
 30
0.0
 10
97.4835
 20
-66.334
 30
0.0
 10
87.4471
 20
-66.7845
 30
0.0
 10
87.4471
 20
-66.7845
 30
0.0
  0
SPLINE
  5
147
330
1F
100
AcDbEntity
  8
layer 1
 62
     7
100
AcDbSpline
210
0.0
220
0.0
230
1.0
 70
    11
 71
     3
 72
    20
 73
    16
 74
     0
 42
0.0000000001
 43
0.0000000001
 12
1.0
 22
0.0
 32
0.0
 13
1.0
 23
0.0
 33
0.0
 40
0.0
 40
0.0
 40
0.0
 40
0.0
 40
0.2
 40
0.2
 40
0.2
 40
0.2
 40
0.4
 40
0.4
 40
0.4
 40
0.4
 40
0.6
 40
0.6
 40
0.6
 40
0.6
 40
1.0
 40
1.0
 40
1.0
 40
1.0
 10
100.2328
 20
-71.861
 30
0.0
 10
100.2328
 20
-71.861
 30
0.0
 10
98.9575
 20
-57.0978
 30
0.0
 10
98.9575
 20
-57.0978
 30
0.0
 10
98.9575
 20
-57.0978
 30
0.0
 10
98.9575
 20
-57.0978
 30
0.0
 10
106.921
 20
-57.5204
 30
0.0
 10
106.921
 20
-57.5204
 30
0.0
 10
106.921
 20
-57.5204
 30
0.0
 10
106.921
 20
-57.5204
 30
0.0
 10
110.5731
 20
-62.572
 30
0.0
 10
110.5731
 20
-62.572
 30
0.0
 10
110.5731
 20
-62.572
 30
0.0
 10
110.5731
 20
-62.572
 30
0.0
 10
100.2328
 20
-71.861
 30
0.0
 10
100.2328
 20
-71.861
 30
0.0
  0
SPLINE
  5
148
330
1F
100
AcDbEntity
  8
layer 1
 62
     7
100
AcDbSpline
210
0.0
220
0.0
230
1.0
 70
    11
 71
     3
 72
    16
 73
    12
 74
     0
 42
0.0000000001
 43
0.0000000001
 12
1.0
 22
0.0
 32
0.0
 13
1.0
 23
0.0
 33
0.0
 40
0.0
 40
0.0
 40
0.0
 40
0.0
 40
0.25
 40
0.25
 40
0.25
 40
0.25
 40
0.5
 40
0.5
 40
0.5
 40
0.5
 40
1.0
 40
1.0
 40
1.0
 40
1.0
 10
94.2745
 20
-80.2588
 30
0.0
 10
94.2745
 20
-80.2588
 30
0.0
 10
104.0716
 20
-71.4578
 30
0.0
 10
104.0716
 20
-71.4578
 30
0.0
 10
104.0716
 20
-71.4578
 30
0.0
 10
104.0716
 20
-71.4578
 30
0.0
 10
107.002
 20
-79.9461
 30
0.0
 10
107.002
 20
-79.9461
 30
0.0
 10
107.002
 20
-79.9461
 30
0.0
 10
107.002
 20
-79.9461
 30
0.0
 10
94.2745
 20
-80.2588
 30
0.0
 10
94.2745
 20
-80.2588
 30
0.0
  0
SPLINE
  5
149
330
1F
100
AcDbEntity
  8
layer 1
 62
     7
100
AcDbSpline
210
0.0
220
0.0
230
1.0
 70
    11
 71
     3
 72
    20
 73
    16
 74
     0
 42
0.0000000001
 43
0.0000000001
 12
1.0
 22
0.0
 32
0.0
 13
1.0
 23
0.0
 33
0.0
 40
0.0
 40
0.0
 40
0.0
 40
0.0
 40
0.2
 40
0.2
 40
0.2
 40
0.2
 40
0.4
 40
0.4
 40
0.4
 40
0.4
 40
0.6
 40
0.6
 40
0.6
 40
0.6
 40
1.0
 40
1.0
 40
1.0
 40
1.0
 10
114.0536
 20
3.4384
 30
0.0
 10
114.0536
 20
3.4384
 30
0.0
 10
106.8818
 20
3.6888
 30
0.0
 10
106.8818
 20
3.6888
 30
0.0
 10
106.8818
 20
3.6888
 30
0.0
 10
106.8818
 20
3.6888
 30
0.0
 10
105.6643
 20
13.4665
 30
0.0
 10
105.6643
 20
13.4665
 30
0.0
 10
105.6643
 20
13.4665
 30
0.0
 10
105.6643
 20
13.4665
 30
0.0
 10
116.7333
 20
9.8848
 30
0.0
 10
116.7333
 20
9.8848
 30
0.0
 10
116.7333
 20
9.8848
 30
0.0
 10
116.7333
 20
9.8848
 30
0.0
 10
114.0536
 20
3.4384
 30
0.0
 10
114.0536
 20
3.4384
 30
0.0
  0
SPLINE
  5
14A
330
1F
100
AcDbEntity
  8
layer 1
 62
     7
100
AcDbSpline
210
0.0
220
0.0
230
1.0
 70
    11
 71
     3
 72
    20
 73
    16
 74
     0
 42
0.0000000001
 43
0.0000000001
 12
1.0
 22
0.0
 32
0.0
 13
1.0
 23
0.0
 33
0.0
 40
0.0
 40
0.0
 40
0.0
 40
0.0
 40
0.2
 40
0.2
 40
0.2
 40
0.2
 40
0.4
 40
0.4
 40
0.4
 40
0.4
 40
0.6
 40
0.6
 40
0.6
 40
0.6
 40
1.0
 40
1.0
 40
1.0
 40
1.0
 10
104.3474
 20
128.2695
 30
0.0
 10
104.3474
 20
128.2695
 30
0.0
 10
93.888
 20
128.2695
 30
0.0
 10
93.888
 20
128.2695
 30
0.0
 10
93.888
 20
128.2695
 30
0.0
 10
93.888
 20
128.2695
 30
0.0
 10
89.5062
 20
119.4868
 30
0.0
 10
89.5062
 20
119.4868
 30
0.0
 10
89.5062
 20
119.4868
 30
0.0
 10
89.5062
 20
119.4868
 30
0.0
 10
94.0976
 20
116.2111
 30
0.0
 10
94.0976
 20
116.2111
 30
0.0
 10
94.0976
 20
116.2111
 30
0.0
 10
94.0976
 20
116.2111
 30
0.0
 10
104.3474
 20
128.2695
 30
0.0
 10
104.3474
 20
128.2695
 30
0.0
  0
SPLINE
  5
14B
330
1F
100
AcDbEntity
  8
layer 1
 62
     7
100
AcDbSpline
210
0.0
220
0.0
230
1.0
 70
    11
 71
     3
 72
    24
 73
    20
 74
     0
 42
0.0000000001
 43
0.0000000001
 12
1.0
 22
0.0
 32
0.0
 13
1.0
 23
0.0
 33
0.0
 40
0.0
 40
0.0
 40
0.0
 40
0.0
 40
0.1666666666666667
 40
0.1666666666666667
 40
0.1666666666666667
 40
0.1666666666666667
 40
0.3333333333333333
 40
0.3333333333333333
 40
0.3333333333333333
 40
0.3333333333333333
 40
0.5
 40
0.5
 40
0.5
 40
0.5
 40
0.6666666666666666
 40
0.6666666666666666
 40
0.6666666666666666
 40
0.6666666666666666
 40
1.0
 40
1.0
 40
1.0
 40
1.0
 10
124.0667
 20
125.9374
 30
0.0
 10
124.0667
 20
125.9374
 30
0.0
 10
124.0667
 20
128.2695
 30
0.0
 10
124.0667
 20
128.2695
 30
0.0
 10
124.0667
 20
128.2695
 30
0.0
 10
124.0667
 20
128.2695
 30
0.0
 10
107.3193
 20
128.2695
 30
0.0
 10
107.3193
 20
128.2695
 30
0.0
 10
107.3193
 20
128.2695
 30
0.0
 10
107.3193
 20
128.2695
 30
0.0
 10
100.9627
 20
120.7915
 30
0.0
 10
100.9627
 20
120.7915
 30
0.0
 10
100.9627
 20
120.7915
 30
0.0
 10
100.9627
 20
120.7915
 30
0.0
 10
118.0095
 20
118.1495
 30
0.0
 10
118.0095
 20
118.1495
 30
0.0
 10
118.0095
 20
118.1495
 30
0.0
 10
118.0095
 20
118.1495
 30
0.0
 10
124.0667
 20
125.9374
 30
0.0
 10
124.0667
 20
125.9374
 30
0.0
  0
SPLINE
  5
14C
330
1F
100
AcDbEntity
  8
layer 1
 62
     7
100
AcDbSpline
210
0.0
220
0.0
230
1.0
 70
    11
 71
     3
 72
    16
 73
    12
 74
     0
 42
0.0000000001
 43
0.0000000001
 12
1.0
 22
0.0
 32
0.0
 13
1.0
 23
0.0
 33
0.0
 40
0.0
 40
0.0
 40
0.0
 40
0.0
 40
0.25
 40
0.25
 40
0.25
 40
0.25
 40
0.5
 40
0.5
 40
0.5
 40
0.5
 40
1.0
 40
1.0
 40
1.0
 40
1.0
 10
124.0667
 20
102.326
 30
0.0
 10
124.0667
 20
102.326
 30
0.0
 10
124.0667
 20
122.2501
 30
0.0
 10
124.0667
 20
122.2501
 30
0.0
 10
124.0667
 20
122.2501
 30
0.0
 10
124.0667
 20
122.2501
 30
0.0
 10
113.0737
 20
108.1161
 30
0.0
 10
113.0737
 20
108.1161
 30
0.0
 10
113.0737
 20
108.1161
 30
0.0
 10
113.0737
 20
108.1161
 30
0.0
 10
124.0667
 20
102.326
 30
0.0
 10
124.0667
 20
102.326
 30
0.0
  0
SPLINE
  5
14D
330
1F
100
AcDbEntity
  8
layer 1
 62
     7
100
AcDbSpline
210
0.0
220
0.0
230
1.0
 70
    11
 71
     3
 72
    20
 73
    16
 74
     0
 42
0.0000000001
 43
0.0000000001
 12
1.0
 22
0.0
 32
0.0
 13
1.0
 23
0.0
 33
0.0
 40
0.0
 40
0.0
 40
0.0
 40
0.0
 40
0.2
 40
0.2
 40
0.2
 40
0.2
 40
0.4
 40
0.4
 40
0.4
 40
0.4
 40
0.6
 40
0.6
 40
0.6
 40
0.6
 40
1.0
 40
1.0
 40
1.0
 40
1.0
 10
124.0667
 20
88.6109
 30
0.0
 10
124.0667
 20
88.6109
 30
0.0
 10
124.0667
 20
99.768
 30
0.0
 10
124.0667
 20
99.768
 30
0.0
 10
124.0667
 20
99.768
 30
0.0
 10
124.0667
 20
99.768
 30
0.0
 10
117.5573
 20
103.1965
 30
0.0
 10
117.5573
 20
103.1965
 30
0.0
 10
117.5573
 20
103.1965
 30
0.0
 10
117.5573
 20
103.1965
 30
0.0
 10
113.0021
 20
89.1981
 30
0.0
 10
113.0021
 20
89.1981
 30
0.0
 10
113.0021
 20
89.1981
 30
0.0
 10
113.0021
 20
89.1981
 30
0.0
 10
124.0667
 20
88.6109
 30
0.0
 10
124.0667
 20
88.6109
 30
0.0
  0
SPLINE
  5
14E
330
1F
100
AcDbEntity
  8
layer 1
 62
     7
100
AcDbSpline
210
0.0
220
0.0
230
1.0
 70
    11
 71
     3
 72
    20
 73
    16
 74
     0
 42
0.0000000001
 43
0.0000000001
 12
1.0
 22
0.0
 32
0.0
 13
1.0
 23
0.0
 33
0.0
 40
0.0
 40
0.0
 40
0.0
 40
0.0
 40
0.2
 40
0.2
 40
0.2
 40
0.2
 40
0.4
 40
0.4
 40
0.4
 40
0.4
 40
0.6
 40
0.6
 40
0.6
 40
0.6
 40
1.0
 40
1.0
 40
1.0
 40
1.0
 10
124.0667
 20
78.7556
 30
0.0
 10
124.0667
 20
78.7556
 30
0.0
 10
124.0667
 20
86.3421
 30
0.0
 10
124.0667
 20
86.3421
 30
0.0
 10
124.0667
 20
86.3421
 30
0.0
 10
124.0667
 20
86.3421
 30
0.0
 10
109.6415
 20
87.1079
 30
0.0
 10
109.6415
 20
87.1079
 30
0.0
 10
109.6415
 20
87.1079
 30
0.0
 10
109.6415
 20
87.1079
 30
0.0
 10
119.284
 20
73.7708
 30
0.0
 10
119.284
 20
73.7708
 30
0.0
 10
119.284
 20
73.7708
 30
0.0
 10
119.284
 20
73.7708
 30
0.0
 10
124.0667
 20
78.7556
 30
0.0
 10
124.0667
 20
78.7556
 30
0.0
  0
SPLINE
  5
14F
330
1F
100
AcDbEntity
  8
layer 1
 62
     7
100
AcDbSpline
210
0.0
220
0.0
230
1.0
 70
    11
 71
     3
 72
    16
 73
    12
 74
     0
 42
0.0000000001
 43
0.0000000001
 12
1.0
 22
0.0
 32
0.0
 13
1.0
 23
0.0
 33
0.0
 40
0.0
 40
0.0
 40
0.0
 40
0.0
 40
0.25
 40
0.25
 40
0.25
 40
0.25
 40
0.5
 40
0.5
 40
0.5
 40
0.5
 40
1.0
 40
1.0
 40
1.0
 40
1.0
 10
124.0667
 20
59.9587
 30
0.0
 10
124.0667
 20
59.9587
 30
0.0
 10
124.0667
 20
75.4848
 30
0.0
 10
124.0667
 20
75.4848
 30
0.0
 10
124.0667
 20
75.4848
 30
0.0
 10
124.0667
 20
75.4848
 30
0.0
 10
114.8918
 20
65.9228
 30
0.0
 10
114.8918
 20
65.9228
 30
0.0
 10
114.8918
 20
65.9228
 30
0.0
 10
114.8918
 20
65.9228
 30
0.0
 10
124.0667
 20
59.9587
 30
0.0
 10
124.0667
 20
59.9587
 30
0.0
  0
SPLINE
  5
150
330
1F
100
AcDbEntity
  8
layer 1
 62
     7
100
AcDbSpline
210
0.0
220
0.0
230
1.0
 70
    11
 71
     3
 72
    20
 73
    16
 74
     0
 42
0.0000000001
 43
0.0000000001
 12
1.0
 22
0.0
 32
0.0
 13
1.0
 23
0.0
 33
0.0
 40
0.0
 40
0.0
 40
0.0
 40
0.0
 40
0.2
 40
0.2
 40
0.2
 40
0.2
 40
0.4
 40
0.4
 40
0.4
 40
0.4
 40
0.6
 40
0.6
 40
0.6
 40
0.6
 40
1.0
 40
1.0
 40
1.0
 40
1.0
 10
124.0667
 20
47.167
 30
0.0
 10
124.0667
 20
47.167
 30
0.0
 10
124.0667
 20
57.2588
 30
0.0
 10
124.0667
 20
57.2588
 30
0.0
 10
124.0667
 20
57.2588
 30
0.0
 10
124.0667
 20
57.2588
 30
0.0
 10
121.7364
 20
58.7735
 30
0.0
 10
121.7364
 20
58.7735
 30
0.0
 10
121.7364
 20
58.7735
 30
0.0
 10
121.7364
 20
58.7735
 30
0.0
 10
111.0505
 20
51.3789
 30
0.0
 10
111.0505
 20
51.3789
 30
0.0
 10
111.0505
 20
51.3789
 30
0.0
 10
111.0505
 20
51.3789
 30
0.0
 10
124.0667
 20
47.167
 30
0.0
 10
124.0667
 20
47.167
 30
0.0
  0
SPLINE
  5
151
330
1F
100
AcDbEntity
  8
layer 1
 62
     7
100
AcDbSpline
210
0.0
220
0.0
230
1.0
 70
    11
 71
     3
 72
    20
 73
    16
 74
     0
 42
0.0000000001
 43
0.0000000001
 12
1.0
 22
0.0
 32
0.0
 13
1.0
 23
0.0
 33
0.0
 40
0.0
 40
0.0
 40
0.0
 40
0.0
 40
0.2
 40
0.2
 40
0.2
 40
0.2
 40
0.4
 40
0.4
 40
0.4
 40
0.4
 40
0.6
 40
0.6
 40
0.6
 40
0.6
 40
1.0
 40
1.0
 40
1.0
 40
1.0
 10
124.0667
 20
31.7488
 30
0.0
 10
124.0667
 20
31.7488
 30
0.0
 10
124.0667
 20
44.7844
 30
0.0
 10
124.0667
 20
44.7844
 30
0.0
 10
124.0667
 20
44.7844
 30
0.0
 10
124.0667
 20
44.7844
 30
0.0
 10
121.6493
 20
45.5665
 30
0.0
 10
121.6493
 20
45.5665
 30
0.0
 10
121.6493
 20
45.5665
 30
0.0
 10
121.6493
 20
45.5665
 30
0.0
 10
112.2115
 20
35.5848
 30
0.0
 10
112.2115
 20
35.5848
 30
0.0
 10
112.2115
 20
35.5848
 30
0.0
 10
112.2115
 20
35.5848
 30
0.0
 10
124.0667
 20
31.7488
 30
0.0
 10
124.0667
 20
31.7488
 30
0.0
  0
SPLINE
  5
152
330
1F
100
AcDbEntity
  8
layer 1
 62
     7
100
AcDbSpline
210
0.0
220
0.0
230
1.0
 70
    11
 71
     3
 72
    20
 73
    16
 74
     0
 42
0.0000000001
 43
0.0000000001
 12
1.0
 22
0.0
 32
0.0
 13
1.0
 23
0.0
 33
0.0
 40
0.0
 40
0.0
 40
0.0
 40
0.0
 40
0.2
 40
0.2
 40
0.2
 40
0.2
 40
0.4
 40
0.4
 40
0.4
 40
0.4
 40
0.6
 40
0.6
 40
0.6
 40
0.6
 40
1.0
 40
1.0
 40
1.0
 40
1.0
 10
124.0667
 20
9.8946
 30
0.0
 10
124.0667
 20
9.8946
 30
0.0
 10
124.0667
 20
29.3661
 30
0.0
 10
124.0667
 20
29.3661
 30
0.0
 10
124.0667
 20
29.3661
 30
0.0
 10
124.0667
 20
29.3661
 30
0.0
 10
121.7476
 20
30.1164
 30
0.0
 10
121.7476
 20
30.1164
 30
0.0
 10
121.7476
 20
30.1164
 30
0.0
 10
121.7476
 20
30.1164
 30
0.0
 10
114.0011
 20
13.1516
 30
0.0
 10
114.0011
 20
13.1516
 30
0.0
 10
114.0011
 20
13.1516
 30
0.0
 10
114.0011
 20
13.1516
 30
0.0
 10
124.0667
 20
9.8946
 30
0.0
 10
124.0667
 20
9.8946
 30
0.0
  0
SPLINE
  5
153
330
1F
100
AcDbEntity
  8
layer 1
 62
     7
100
AcDbSpline
210
0.0
220
0.0
230
1.0
 70
    11
 71
     3
 72
    20
 73
    16
 74
     0
 42
0.0000000001
 43
0.0000000001
 12
1.0
 22
0.0
 32
0.0
 13
1.0
 23
0.0
 33
0.0
 40
0.0
 40
0.0
 40
0.0
 40
0.0
 40
0.2
 40
0.2
 40
0.2
 40
0.2
 40
0.4
 40
0.4
 40
0.4
 40
0.4
 40
0.6
 40
0.6
 40
0.6
 40
0.6
 40
1.0
 40
1.0
 40
1.0
 40
1.0
 10
124.0667
 20
-2.5502
 30
0.0
 10
124.0667
 20
-2.5502
 30
0.0
 10
124.0667
 20
7.512
 30
0.0
 10
124.0667
 20
7.512
 30
0.0
 10
124.0667
 20
7.512
 30
0.0
 10
124.0667
 20
7.512
 30
0.0
 10
118.8974
 20
9.1846
 30
0.0
 10
118.8974
 20
9.1846
 30
0.0
 10
118.8974
 20
9.1846
 30
0.0
 10
118.8974
 20
9.1846
 30
0.0
 10
113.3075
 20
-4.2619
 30
0.0
 10
113.3075
 20
-4.2619
 30
0.0
 10
113.3075
 20
-4.2619
 30
0.0
 10
113.3075
 20
-4.2619
 30
0.0
 10
124.0667
 20
-2.5502
 30
0.0
 10
124.0667
 20
-2.5502
 30
0.0
  0
SPLINE
  5
154
330
1F
100
AcDbEntity
  8
layer 1
 62
     7
100
AcDbSpline
210
0.0
220
0.0
230
1.0
 70
    11
 71
     3
 72
    20
 73
    16
 74
     0
 42
0.0000000001
 43
0.0000000001
 12
1.0
 22
0.0
 32
0.0
 13
1.0
 23
0.0
 33
0.0
 40
0.0
 40
0.0
 40
0.0
 40
0.0
 40
0.2
 40
0.2
 40
0.2
 40
0.2
 40
0.4
 40
0.4
 40
0.4
 40
0.4
 40
0.6
 40
0.6
 40
0.6
 40
0.6
 40
1.0
 40
1.0
 40
1.0
 40
1.0
 10
124.0667
 20
-9.4417
 30
0.0
 10
124.0667
 20
-9.4417
 30
0.0
 10
124.0667
 20
-4.8456
 30
0.0
 10
124.0667
 20
-4.8456
 30
0.0
 10
124.0667
 20
-4.8456
 30
0.0
 10
124.0667
 20
-4.8456
 30
0.0
 10
106.7674
 20
-7.5977
 30
0.0
 10
106.7674
 20
-7.5977
 30
0.0
 10
106.7674
 20
-7.5977
 30
0.0
 10
106.7674
 20
-7.5977
 30
0.0
 10
115.544
 20
-15.1312
 30
0.0
 10
115.544
 20
-15.1312
 30
0.0
 10
115.544
 20
-15.1312
 30
0.0
 10
115.544
 20
-15.1312
 30
0.0
 10
124.0667
 20
-9.4417
 30
0.0
 10
124.0667
 20
-9.4417
 30
0.0
  0
SPLINE
  5
155
330
1F
100
AcDbEntity
  8
layer 1
 62
     7
100
AcDbSpline
210
0.0
220
0.0
230
1.0
 70
    11
 71
     3
 72
    16
 73
    12
 74
     0
 42
0.0000000001
 43
0.0000000001
 12
1.0
 22
0.0
 32
0.0
 13
1.0
 23
0.0
 33
0.0
 40
0.0
 40
0.0
 40
0.0
 40
0.0
 40
0.25
 40
0.25
 40
0.25
 40
0.25
 40
0.5
 40
0.5
 40
0.5
 40
0.5
 40
1.0
 40
1.0
 40
1.0
 40
1.0
 10
124.0667
 20
-42.3598
 30
0.0
 10
124.0667
 20
-42.3598
 30
0.0
 10
124.0667
 20
-22.7684
 30
0.0
 10
124.0667
 20
-22.7684
 30
0.0
 10
124.0667
 20
-22.7684
 30
0.0
 10
124.0667
 20
-22.7684
 30
0.0
 10
113.2573
 20
-36.6665
 30
0.0
 10
113.2573
 20
-36.6665
 30
0.0
 10
113.2573
 20
-36.6665
 30
0.0
 10
113.2573
 20
-36.6665
 30
0.0
 10
124.0667
 20
-42.3598
 30
0.0
 10
124.0667
 20
-42.3598
 30
0.0
  0
SPLINE
  5
156
330
1F
100
AcDbEntity
  8
layer 1
 62
     7
100
AcDbSpline
210
0.0
220
0.0
230
1.0
 70
    11
 71
     3
 72
    20
 73
    16
 74
     0
 42
0.0000000001
 43
0.0000000001
 12
1.0
 22
0.0
 32
0.0
 13
1.0
 23
0.0
 33
0.0
 40
0.0
 40
0.0
 40
0.0
 40
0.0
 40
0.2
 40
0.2
 40
0.2
 40
0.2
 40
0.4
 40
0.4
 40
0.4
 40
0.4
 40
0.6
 40
0.6
 40
0.6
 40
0.6
 40
1.0
 40
1.0
 40
1.0
 40
1.0
 10
124.0667
 20
-56.1618
 30
0.0
 10
124.0667
 20
-56.1618
 30
0.0
 10
124.0667
 20
-44.9178
 30
0.0
 10
124.0667
 20
-44.9178
 30
0.0
 10
124.0667
 20
-44.9178
 30
0.0
 10
124.0667
 20
-44.9178
 30
0.0
 10
117.7409
 20
-41.5861
 30
0.0
 10
117.7409
 20
-41.5861
 30
0.0
 10
117.7409
 20
-41.5861
 30
0.0
 10
117.7409
 20
-41.5861
 30
0.0
 10
113.1854
 20
-55.5842
 30
0.0
 10
113.1854
 20
-55.5842
 30
0.0
 10
113.1854
 20
-55.5842
 30
0.0
 10
113.1854
 20
-55.5842
 30
0.0
 10
124.0667
 20
-56.1618
 30
0.0
 10
124.0667
 20
-56.1618
 30
0.0
  0
SPLINE
  5
157
330
1F
100
AcDbEntity
  8
layer 1
 62
     7
100
AcDbSpline
210
0.0
220
0.0
230
1.0
 70
    11
 71
     3
 72
    20
 73
    16
 74
     0
 42
0.0000000001
 43
0.0000000001
 12
1.0
 22
0.0
 32
0.0
 13
1.0
 23
0.0
 33
0.0
 40
0.0
 40
0.0
 40
0.0
 40
0.0
 40
0.2
 40
0.2
 40
0.2
 40
0.2
 40
0.4
 40
0.4
 40
0.4
 40
0.4
 40
0.6
 40
0.6
 40
0.6
 40
0.6
 40
1.0
 40
1.0
 40
1.0
 40
1.0
 10
124.0667
 20
-66.2182
 30
0.0
 10
124.0667
 20
-66.2182
 30
0.0
 10
124.0667
 20
-58.4306
 30
0.0
 10
124.0667
 20
-58.4306
 30
0.0
 10
124.0667
 20
-58.4306
 30
0.0
 10
124.0667
 20
-58.4306
 30
0.0
 10
109.8251
 20
-57.6746
 30
0.0
 10
109.8251
 20
-57.6746
 30
0.0
 10
109.8251
 20
-57.6746
 30
0.0
 10
109.8251
 20
-57.6746
 30
0.0
 10
119.4674
 20
-71.0116
 30
0.0
 10
119.4674
 20
-71.0116
 30
0.0
 10
119.4674
 20
-71.0116
 30
0.0
 10
119.4674
 20
-71.0116
 30
0.0
 10
124.0667
 20
-66.2182
 30
0.0
 10
124.0667
 20
-66.2182
 30
0.0
  0
SPLINE
  5
158
330
1F
100
AcDbEntity
  8
layer 1
 62
     7
100
AcDbSpline
210
0.0
220
0.0
230
1.0
 70
    11
 71
     3
 72
    16
 73
    12
 74
     0
 42
0.0000000001
 43
0.0000000001
 12
1.0
 22
0.0
 32
0.0
 13
1.0
 23
0.0
 33
0.0
 40
0.0
 40
0.0
 40
0.0
 40
0.0
 40
0.25
 40
0.25
 40
0.25
 40
0.25
 40
0.5
 40
0.5
 40
0.5
 40
0.5
 40
1.0
 40
1.0
 40
1.0
 40
1.0
 10
124.0667
 20
-84.7046
 30
0.0
 10
124.0667
 20
-84.7046
 30
0.0
 10
124.0667
 20
-69.4888
 30
0.0
 10
124.0667
 20
-69.4888
 30
0.0
 10
124.0667
 20
-69.4888
 30
0.0
 10
124.0667
 20
-69.4888
 30
0.0
 10
115.0754
 20
-78.8598
 30
0.0
 10
115.0754
 20
-78.8598
 30
0.0
 10
115.0754
 20
-78.8598
 30
0.0
 10
115.0754
 20
-78.8598
 30
0.0
 10
124.0667
 20
-84.7046
 30
0.0
 10
124.0667
 20
-84.7046
 30
0.0
  0
SPLINE
  5
159
330
1F
100
AcDbEntity
  8
layer 1
 62
     7
100
AcDbSpline
210
0.0
220
0.0
230
1.0
 70
    11
 71
     3
 72
    20
 73
    16
 74
     0
 42
0.0000000001
 43
0.0000000001
 12
1.0
 22
0.0
 32
0.0
 13
1.0
 23
0.0
 33
0.0
 40
0.0
 40
0.0
 40
0.0
 40
0.0
 40
0.2
 40
0.2
 40
0.2
 40
0.2
 40
0.4
 40
0.4
 40
0.4
 40
0.4
 40
0.6
 40
0.6
 40
0.6
 40
0.6
 40
1.0
 40
1.0
 40
1.0
 40
1.0
 10
124.0667
 20
-97.556
 30
0.0
 10
124.0667
 20
-97.556
 30
0.0
 10
124.0667
 20
-87.4043
 30
0.0
 10
124.0667
 20
-87.4043
 30
0.0
 10
124.0667
 20
-87.4043
 30
0.0
 10
124.0667
 20
-87.4043
 30
0.0
 10
121.9199
 20
-86.0089
 30
0.0
 10
121.9199
 20
-86.0089
 30
0.0
 10
121.9199
 20
-86.0089
 30
0.0
 10
121.9199
 20
-86.0089
 30
0.0
 10
111.2341
 20
-93.4037
 30
0.0
 10
111.2341
 20
-93.4037
 30
0.0
 10
111.2341
 20
-93.4037
 30
0.0
 10
111.2341
 20
-93.4037
 30
0.0
 10
124.0667
 20
-97.556
 30
0.0
 10
124.0667
 20
-97.556
 30
0.0
  0
SPLINE
  5
15A
330
1F
100
AcDbEntity
  8
layer 1
 62
     7
100
AcDbSpline
210
0.0
220
0.0
230
1.0
 70
    11
 71
     3
 72
    20
 73
    16
 74
     0
 42
0.0000000001
 43
0.0000000001
 12
1.0
 22
0.0
 32
0.0
 13
1.0
 23
0.0
 33
0.0
 40
0.0
 40
0.0
 40
0.0
 40
0.0
 40
0.2
 40
0.2
 40
0.2
 40
0.2
 40
0.4
 40
0.4
 40
0.4
 40
0.4
 40
0.6
 40
0.6
 40
0.6
 40
0.6
 40
1.0
 40
1.0
 40
1.0
 40
1.0
 10
119.5974
 20
-101.5801
 30
0.0
 10
119.5974
 20
-101.5801
 30
0.0
 10
124.0667
 20
-101.5801
 30
0.0
 10
124.0667
 20
-101.5801
 30
0.0
 10
124.0667
 20
-101.5801
 30
0.0
 10
124.0667
 20
-101.5801
 30
0.0
 10
124.0667
 20
-99.9388
 30
0.0
 10
124.0667
 20
-99.9388
 30
0.0
 10
124.0667
 20
-99.9388
 30
0.0
 10
124.0667
 20
-99.9388
 30
0.0
 10
121.8328
 20
-99.2159
 30
0.0
 10
121.8328
 20
-99.2159
 30
0.0
 10
121.8328
 20
-99.2159
 30
0.0
 10
121.8328
 20
-99.2159
 30
0.0
 10
119.5974
 20
-101.5801
 30
0.0
 10
119.5974
 20
-101.5801
 30
0.0
  0
SPLINE
  5
15B
330
1F
100
AcDbEntity
  8
layer 1
 62
     7
100
AcDbSpline
210
0.0
220
0.0
230
1.0
 70
    11
 71
     3
 72
    24
 73
    20
 74
     0
 42
0.0000000001
 43
0.0000000001
 12
1.0
 22
0.0
 32
0.0
 13
1.0
 23
0.0
 33
0.0
 40
0.0
 40
0.0
 40
0.0
 40
0.0
 40
0.1666666666666667
 40
0.1666666666666667
 40
0.1666666666666667
 40
0.1666666666666667
 40
0.3333333333333333
 40
0.3333333333333333
 40
0.3333333333333333
 40
0.3333333333333333
 40
0.5
 40
0.5
 40
0.5
 40
0.5
 40
0.6666666666666666
 40
0.6666666666666666
 40
0.6666666666666666
 40
0.6666666666666666
 40
1.0
 40
1.0
 40
1.0
 40
1.0
 10
110.3217
 20
-101.5801
 30
0.0
 10
110.3217
 20
-101.5801
 30
0.0
 10
116.4801
 20
-101.5801
 30
0.0
 10
116.4801
 20
-101.5801
 30
0.0
 10
116.4801
 20
-101.5801
 30
0.0
 10
116.4801
 20
-101.5801
 30
0.0
 10
119.4458
 20
-98.4437
 30
0.0
 10
119.4458
 20
-98.4437
 30
0.0
 10
119.4458
 20
-98.4437
 30
0.0
 10
119.4458
 20
-98.4437
 30
0.0
 10
108.8879
 20
-95.0272
 30
0.0
 10
108.8879
 20
-95.0272
 30
0.0
 10
108.8879
 20
-95.0272
 30
0.0
 10
108.8879
 20
-95.0272
 30
0.0
 10
104.7748
 20
-97.8736
 30
0.0
 10
104.7748
 20
-97.8736
 30
0.0
 10
104.7748
 20
-97.8736
 30
0.0
 10
104.7748
 20
-97.8736
 30
0.0
 10
110.3217
 20
-101.5801
 30
0.0
 10
110.3217
 20
-101.5801
 30
0.0
  0
SPLINE
  5
15C
330
1F
100
AcDbEntity
  8
layer 1
 62
     7
100
AcDbSpline
210
0.0
220
0.0
230
1.0
 70
    11
 71
     3
 72
    24
 73
    20
 74
     0
 42
0.0000000001
 43
0.0000000001
 12
1.0
 22
0.0
 32
0.0
 13
1.0
 23
0.0
 33
0.0
 40
0.0
 40
0.0
 40
0.0
 40
0.0
 40
0.1666666666666667
 40
0.1666666666666667
 40
0.1666666666666667
 40
0.1666666666666667
 40
0.3333333333333333
 40
0.3333333333333333
 40
0.3333333333333333
 40
0.3333333333333333
 40
0.5
 40
0.5
 40
0.5
 40
0.5
 40
0.6666666666666666
 40
0.6666666666666666
 40
0.6666666666666666
 40
0.6666666666666666
 40
1.0
 40
1.0
 40
1.0
 40
1.0
 10
95.7681
 20
-101.5801
 30
0.0
 10
95.7681
 20
-101.5801
 30
0.0
 10
105.1113
 20
-101.5801
 30
0.0
 10
105.1113
 20
-101.5801
 30
0.0
 10
105.1113
 20
-101.5801
 30
0.0
 10
105.1113
 20
-101.5801
 30
0.0
 10
105.5158
 20
-101.0923
 30
0.0
 10
105.5158
 20
-101.0923
 30
0.0
 10
105.5158
 20
-101.0923
 30
0.0
 10
105.5158
 20
-101.0923
 30
0.0
 10
94.835
 20
-93.9548
 30
0.0
 10
94.835
 20
-93.9548
 30
0.0
 10
94.835
 20
-93.9548
 30
0.0
 10
94.835
 20
-93.9548
 30
0.0
 10
93.1085
 20
-100.3903
 30
0.0
 10
93.1085
 20
-100.3903
 30
0.0
 10
93.1085
 20
-100.3903
 30
0.0
 10
93.1085
 20
-100.3903
 30
0.0
 10
95.7681
 20
-101.5801
 30
0.0
 10
95.7681
 20
-101.5801
 30
0.0
  0
SPLINE
  5
15D
330
1F
100
AcDbEntity
  8
layer 1
 62
     7
100
AcDbSpline
210
0.0
220
0.0
230
1.0
 70
    11
 71
     3
 72
    16
 73
    12
 74
     0
 42
0.0000000001
 43
0.0000000001
 12
1.0
 22
0.0
 32
0.0
 13
1.0
 23
0.0
 33
0.0
 40
0.0
 40
0.0
 40
0.0
 40
0.0
 40
0.25
 40
0.25
 40
0.25
 40
0.25
 40
0.5
 40
0.5
 40
0.5
 40
0.5
 40
1.0
 40
1.0
 40
1.0
 40
1.0
 10
89.6571
 20
-101.5801
 30
0.0
 10
89.6571
 20
-101.5801
 30
0.0
 10
90.2194
 20
-101.5801
 30
0.0
 10
90.2194
 20
-101.5801
 30
0.0
 10
90.2194
 20
-101.5801
 30
0.0
 10
90.2194
 20
-101.5801
 30
0.0
 10
89.567
 20
-101.2883
 30
0.0
 10
89.567
 20
-101.2883
 30
0.0
 10
89.567
 20
-101.2883
 30
0.0
 10
89.567
 20
-101.2883
 30
0.0
 10
89.6571
 20
-101.5801
 30
0.0
 10
89.6571
 20
-101.5801
 30
0.0
  0
SPLINE
  5
15E
330
1F
100
AcDbEntity
  8
layer 1
 62
     7
100
AcDbSpline
210
0.0
220
0.0
230
1.0
 70
    11
 71
     3
 72
    20
 73
    16
 74
     0
 42
0.0000000001
 43
0.0000000001
 12
1.0
 22
0.0
 32
0.0
 13
1.0
 23
0.0
 33
0.0
 40
0.0
 40
0.0
 40
0.0
 40
0.0
 40
0.2
 40
0.2
 40
0.2
 40
0.2
 40
0.4
 40
0.4
 40
0.4
 40
0.4
 40
0.6
 40
0.6
 40
0.6
 40
0.6
 40
1.0
 40
1.0
 40
1.0
 40
1.0
 10
81.3038
 20
-101.5801
 30
0.0
 10
81.3038
 20
-101.5801
 30
0.0
 10
87.2853
 20
-101.5801
 30
0.0
 10
87.2853
 20
-101.5801
 30
0.0
 10
87.2853
 20
-101.5801
 30
0.0
 10
87.2853
 20
-101.5801
 30
0.0
 10
86.815
 20
-100.0568
 30
0.0
 10
86.815
 20
-100.0568
 30
0.0
 10
86.815
 20
-100.0568
 30
0.0
 10
86.815
 20
-100.0568
 30
0.0
 10
81.3038
 20
-97.5911
 30
0.0
 10
81.3038
 20
-97.5911
 30
0.0
 10
81.3038
 20
-97.5911
 30
0.0
 10
81.3038
 20
-97.5911
 30
0.0
 10
81.3038
 20
-101.5801
 30
0.0
 10
81.3038
 20
-101.5801
 30
0.0
  0
ENDSEC
  0
SECTION
  2
OBJECTS
  0
DICTIONARY
  5
C
330
0
100
AcDbDictionary
281
     1
  3
ACAD_GROUP
350
D
  3
ACAD_LAYOUT
350
1A
  3
ACAD_MATERIAL
350
3B
  3
ACAD_MLEADERSTYLE
350
181
  3
ACAD_MLINESTYLE
350
17
  3
ACAD_PLOTSETTINGS
350
19
  3
ACAD_PLOTSTYLENAME
350
E
  3
ACAD_TABLESTYLE
350
180
  3
ACAD_VISUALSTYLE
350
2A
  0
DICTIONARY
  5
D
102
{ACAD_REACTORS
330
C
102
}
330
C
100
AcDbDictionary
281
     1
  0
DICTIONARY
  5
1A
102
{ACAD_REACTORS
330
C
102
}
330
C
100
AcDbDictionary
281
     1
  3
Layout1
350
1E
  3
Layout2
350
26
  3
Model
350
22
  0
DICTIONARY
  5
3B
102
{ACAD_REACTORS
330
C
102
}
330
C
100
AcDbDictionary
281
     1
  3
ByBlock
350
3D
  3
ByLayer
350
3C
  3
Global
350
3E
  0
DICTIONARY
  5
181
102
{ACAD_REACTORS
330
C
102
}
330
C
100
AcDbDictionary
281
     1
  0
DICTIONARY
  5
17
102
{ACAD_REACTORS
330
C
102
}
330
C
100
AcDbDictionary
281
     1
  3
Standard
350
18
  0
DICTIONARY
  5
19
102
{ACAD_REACTORS
330
C
102
}
330
C
100
AcDbDictionary
281
     1
  0
ACDBDICTIONARYWDFLT
  5
E
102
{ACAD_REACTORS
330
C
102
}
330
C
100
AcDbDictionary
281
     1
  3
Normal
350
F
100
AcDbDictionaryWithDefault
340
F
  0
DICTIONARY
  5
180
102
{ACAD_REACTORS
330
C
102
}
330
C
100
AcDbDictionary
281
     1
  0
DICTIONARY
  5
2A
102
{ACAD_REACTORS
330
C
102
}
330
C
100
AcDbDictionary
281
     1
  3
2dWireframe
350
2F
  3
3D Hidden
350
31
  3
3dWireframe
350
30
  3
Basic
350
32
  3
Brighten
350
36
  3
ColorChange
350
3A
  3
Conceptual
350
34
  3
Dim
350
35
  3
Facepattern
350
39
  3
Flat
350
2B
  3
FlatWithEdges
350
2C
  3
Gouraud
350
2D
  3
GouraudWithEdges
350
2E
  3
Linepattern
350
38
  3
Realistic
350
33
  3
Thicken
350
37
  0
LAYOUT
  5
1E
102
{ACAD_REACTORS
330
1A
102
}
330
1A
100
AcDbPlotSettings
  1

  2
none_device
  4

  6

 40
0.0
 41
0.0
 42
0.0
 43
0.0
 44
0.0
 45
0.0
 46
0.0
 47
0.0
 48
0.0
 49
0.0
140
0.0
141
0.0
142
1.0
143
1.0
 70
   688
 72
     0
 73
     0
 74
     5
  7

 75
    16
 76
     0
 77
     2
 78
   300
147
1.0
148
0.0
149
0.0
100
AcDbLayout
  1
Layout1
 70
     1
 71
     1
 10
0.0
 20
0.0
 11
12.0
 21
9.0
 12
0.0
 22
0.0
 32
0.0
 14
1.000000000000000E+20
 24
1.000000000000000E+20
 34
1.000000000000000E+20
 15
-1.000000000000000E+20
 25
-1.000000000000000E+20
 35
-1.000000000000000E+20
146
0.0
 13
0.0
 23
0.0
 33
0.0
 16
1.0
 26
0.0
 36
0.0
 17
0.0
 27
1.0
 37
0.0
 76
     0
330
1B
  0
LAYOUT
  5
26
102
{ACAD_REACTORS
330
1A
102
}
330
1A
100
AcDbPlotSettings
  1

  2
none_device
  4

  6

 40
0.0
 41
0.0
 42
0.0
 43
0.0
 44
0.0
 45
0.0
 46
0.0
 47
0.0
 48
0.0
 49
0.0
140
0.0
141
0.0
142
1.0
143
1.0
 70
   688
 72
     0
 73
     0
 74
     5
  7

 75
    16
 76
     0
 77
     2
 78
   300
147
1.0
148
0.0
149
0.0
100
AcDbLayout
  1
Layout2
 70
     1
 71
     2
 10
0.0
 20
0.0
 11
0.0
 21
0.0
 12
0.0
 22
0.0
 32
0.0
 14
0.0
 24
0.0
 34
0.0
 15
0.0
 25
0.0
 35
0.0
146
0.0
 13
0.0
 23
0.0
 33
0.0
 16
1.0
 26
0.0
 36
0.0
 17
0.0
 27
1.0
 37
0.0
 76
     0
330
23
  0
LAYOUT
  5
22
102
{ACAD_REACTORS
330
1A
102
}
330
1A
100
AcDbPlotSettings
  1

  2
none_device
  4

  6

 40
0.0
 41
0.0
 42
0.0
 43
0.0
 44
0.0
 45
0.0
 46
0.0
 47
0.0
 48
0.0
 49
0.0
140
0.0
141
0.0
142
1.0
143
1.0
 70
  1712
 72
     0
 73
     0
 74
     0
  7

 75
     0
 76
     0
 77
     2
 78
   300
147
1.0
148
0.0
149
0.0
100
AcDbLayout
  1
Model
 70
     1
 71
     0
 10
0.0
 20
0.0
 11
12.0
 21
9.0
 12
0.0
 22
0.0
 32
0.0
 14
-121.2364
 24
-106.4662
 34
0.0
 15
128.2499
 25
132.4529
 35
0.0
146
0.0
 13
0.0
 23
0.0
 33
0.0
 16
1.0
 26
0.0
 36
0.0
 17
0.0
 27
1.0
 37
0.0
 76
     0
330
1F
331
29
  0
MATERIAL
  5
3D
102
{ACAD_REACTORS
330
3B
102
}
330
3B
100
AcDbMaterial
  1
ByBlock
 72
     1
 94
      127
  0
MATERIAL
  5
3C
102
{ACAD_REACTORS
330
3B
102
}
330
3B
100
AcDbMaterial
  1
ByLayer
 72
     1
 94
      127
  0
MATERIAL
  5
3E
102
{ACAD_REACTORS
330
3B
102
}
330
3B
100
AcDbMaterial
  1
Global
 72
     1
 94
      127
  0
MLINESTYLE
  5
18
102
{ACAD_REACTORS
330
17
102
}
330
17
100
AcDbMlineStyle
  2
Standard
 70
     0
  3

 62
   256
 51
90.0
 52
90.0
 71
     2
 49
0.5
 62
   256
  6
BYLAYER
 49
-0.5
 62
   256
  6
BYLAYER
  0
ACDBPLACEHOLDER
  5
F
102
{ACAD_REACTORS
330
E
102
}
330
E
  0
VISUALSTYLE
  5
2F
102
{ACAD_REACTORS
330
2A
102
}
102
{ACAD_XDICTIONARY
360
168
102
}
330
2A
100
AcDbVisualStyle
  2
2dWireframe
 70
     4
 71
     0
 72
     2
 73
     0
 90
        0
 40
-0.6
 41
-30.0
 62
     5
 63
     7
421
 16777215
 74
     1
 91
        4
 64
     7
 65
   257
 75
     1
175
     1
 42
1.0
 92
        0
 66
   257
 43
1.0
 76
     1
 77
     6
 78
     2
 67
     7
 79
     5
170
     0
171
     0
290
     0
174
     0
 93
        1
 44
0.0
173
     0
291
     0
 45
0.0
  0
VISUALSTYLE
  5
31
102
{ACAD_REACTORS
330
2A
102
}
102
{ACAD_XDICTIONARY
360
16C
102
}
330
2A
100
AcDbVisualStyle
  2
3D Hidden
 70
     6
 71
     1
 72
     2
 73
     2
 90
        0
 40
-0.6
 41
-30.0
 62
     5
 63
     7
421
 16777215
 74
     2
 91
        2
 64
     7
 65
   257
 75
     2
175
     1
 42
40.0
 92
        0
 66
   257
 43
1.0
 76
     1
 77
     6
 78
     2
 67
     7
 79
     3
170
     0
171
     0
290
     0
174
     0
 93
        1
 44
0.0
173
     0
291
     0
 45
0.0
  0
VISUALSTYLE
  5
30
102
{ACAD_REACTORS
330
2A
102
}
102
{ACAD_XDICTIONARY
360
16A
102
}
330
2A
100
AcDbVisualStyle
  2
3dWireframe
 70
     5
 71
     0
 72
     2
 73
     0
 90
        0
 40
-0.6
 41
-30.0
 62
     5
 63
     7
421
 16777215
 74
     1
 91
        4
 64
     7
 65
   257
 75
     1
175
     1
 42
1.0
 92
        0
 66
   257
 43
1.0
 76
     1
 77
     6
 78
     2
 67
     7
 79
     5
170
     0
171
     0
290
     0
174
     0
 93
        1
 44
0.0
173
     0
291
     0
 45
0.0
  0
VISUALSTYLE
  5
32
102
{ACAD_REACTORS
330
2A
102
}
102
{ACAD_XDICTIONARY
360
16E
102
}
330
2A
100
AcDbVisualStyle
  2
Basic
 70
     7
 71
     1
 72
     0
 73
     1
 90
        0
 40
-0.6
 41
-30.0
 62
     5
 63
     7
421
 16777215
 74
     0
 91
        4
 64
     7
 65
   257
 75
     1
175
     1
 42
1.0
 92
        8
 66
     7
 43
1.0
 76
     1
 77
     6
 78
     2
 67
     7
 79
     5
170
     0
171
     0
290
     0
174
     0
 93
        1
 44
0.0
173
     0
291
     1
 45
0.0
  0
VISUALSTYLE
  5
36
102
{ACAD_REACTORS
330
2A
102
}
102
{ACAD_XDICTIONARY
360
176
102
}
330
2A
100
AcDbVisualStyle
  2
Brighten
 70
    12
 71
     2
 72
     2
 73
     0
 90
        0
 40
-0.6
 41
-30.0
 62
     5
 63
     7
421
 16777215
 74
     1
 91
        4
 64
     7
 65
   257
 75
     1
175
     1
 42
1.0
 92
        8
 66
     7
 43
1.0
 76
     1
 77
     6
 78
     2
 67
     7
 79
     5
170
     0
171
     0
290
     0
174
     0
 93
        1
 44
50.0
173
     0
291
     1
 45
0.0
  0
VISUALSTYLE
  5
3A
102
{ACAD_REACTORS
330
2A
102
}
102
{ACAD_XDICTIONARY
360
17E
102
}
330
2A
100
AcDbVisualStyle
  2
ColorChange
 70
    16
 71
     2
 72
     2
 73
     3
 90
        0
 40
-0.6
 41
-30.0
 62
     5
 63
     8
421
  8421504
 74
     1
 91
        4
 64
     7
 65
   257
 75
     1
175
     1
 42
1.0
 92
        8
 66
     8
424
  8421504
 43
1.0
 76
     1
 77
     6
 78
     2
 67
     7
 79
     5
170
     0
171
     0
290
     0
174
     0
 93
        1
 44
0.0
173
     0
291
     1
 45
0.0
  0
VISUALSTYLE
  5
34
102
{ACAD_REACTORS
330
2A
102
}
102
{ACAD_XDICTIONARY
360
172
102
}
330
2A
100
AcDbVisualStyle
  2
Conceptual
 70
     9
 71
     3
 72
     2
 73
     0
 90
        0
 40
-0.6
 41
-30.0
 62
     5
 63
     7
421
 16777215
 74
     2
 91
        2
 64
     7
 65
   257
 75
     1
175
     1
 42
40.0
 92
        8
 66
     7
 43
1.0
 76
     1
 77
     6
 78
     2
 67
     7
 79
     3
170
     0
171
     0
290
     0
174
     0
 93
        1
 44
0.0
173
     0
291
     0
 45
0.0
  0
VISUALSTYLE
  5
35
102
{ACAD_REACTORS
330
2A
102
}
102
{ACAD_XDICTIONARY
360
174
102
}
330
2A
100
AcDbVisualStyle
  2
Dim
 70
    11
 71
     2
 72
     2
 73
     0
 90
        0
 40
-0.6
 41
-30.0
 62
     5
 63
     7
421
 16777215
 74
     1
 91
        4
 64
     7
 65
   257
 75
     1
175
     1
 42
1.0
 92
        8
 66
     7
 43
1.0
 76
     1
 77
     6
 78
     2
 67
     7
 79
     5
170
     0
171
     0
290
     0
174
     0
 93
        1
 44
-50.0
173
     0
291
     1
 45
0.0
  0
VISUALSTYLE
  5
39
102
{ACAD_REACTORS
330
2A
102
}
102
{ACAD_XDICTIONARY
360
17C
102
}
330
2A
100
AcDbVisualStyle
  2
Facepattern
 70
    15
 71
     2
 72
     2
 73
     0
 90
        0
 40
-0.6
 41
-30.0
 62
     5
 63
     7
421
 16777215
 74
     1
 91
        4
 64
     7
 65
   257
 75
     1
175
     1
 42
1.0
 92
        8
 66
     7
 43
1.0
 76
     1
 77
     6
 78
     2
 67
     7
 79
     5
170
     0
171
     0
290
     0
174
     0
 93
        1
 44
0.0
173
     0
291
     1
 45
0.0
  0
VISUALSTYLE
  5
2B
102
{ACAD_REACTORS
330
2A
102
}
102
{ACAD_XDICTIONARY
360
160
102
}
330
2A
100
AcDbVisualStyle
  2
Flat
 70
     0
 71
     2
 72
     1
 73
     1
 90
        2
 40
-0.6
 41
30.0
 62
     5
 63
     7
421
 16777215
 74
     0
 91
        4
 64
     7
 65
   257
 75
     1
175
     1
 42
1.0
 92
        8
 66
     7
 43
1.0
 76
     1
 77
     6
 78
     2
 67
     7
 79
     5
170
     0
171
     0
290
     0
174
     0
 93
       13
 44
0.0
173
     0
291
     1
 45
0.0
  0
VISUALSTYLE
  5
2C
102
{ACAD_REACTORS
330
2A
102
}
102
{ACAD_XDICTIONARY
360
162
102
}
330
2A
100
AcDbVisualStyle
  2
FlatWithEdges
 70
     1
 71
     2
 72
     1
 73
     1
 90
        2
 40
-0.6
 41
30.0
 62
     5
 63
     7
421
 16777215
 74
     1
 91
        4
 64
     7
 65
   257
 75
     1
175
     1
 42
1.0
 92
        0
 66
   257
 43
1.0
 76
     1
 77
     6
 78
     2
 67
     7
 79
     5
170
     0
171
     0
290
     0
174
     0
 93
       13
 44
0.0
173
     0
291
     1
 45
0.0
  0
VISUALSTYLE
  5
2D
102
{ACAD_REACTORS
330
2A
102
}
102
{ACAD_XDICTIONARY
360
164
102
}
330
2A
100
AcDbVisualStyle
  2
Gouraud
 70
     2
 71
     2
 72
     2
 73
     1
 90
        2
 40
-0.6
 41
30.0
 62
     5
 63
     7
421
 16777215
 74
     0
 91
        4
 64
     7
 65
   257
 75
     1
175
     1
 42
1.0
 92
        0
 66
     7
 43
1.0
 76
     1
 77
     6
 78
     2
 67
     7
 79
     5
170
     0
171
     0
290
     0
174
     0
 93
       13
 44
0.0
173
     0
291
     1
 45
0.0
  0
VISUALSTYLE
  5
2E
102
{ACAD_REACTORS
330
2A
102
}
102
{ACAD_XDICTIONARY
360
166
102
}
330
2A
100
AcDbVisualStyle
  2
GouraudWithEdges
 70
     3
 71
     2
 72
     2
 73
     1
 90
        2
 40
-0.6
 41
30.0
 62
     5
 63
     7
421
 16777215
 74
     1
 91
        4
 64
     7
 65
   257
 75
     1
175
     1
 42
1.0
 92
        0
 66
   257
 43
1.0
 76
     1
 77
     6
 78
     2
 67
     7
 79
     5
170
     0
171
     0
290
     0
174
     0
 93
       13
 44
0.0
173
     0
291
     1
 45
0.0
  0
VISUALSTYLE
  5
38
102
{ACAD_REACTORS
330
2A
102
}
102
{ACAD_XDICTIONARY
360
17A
102
}
330
2A
100
AcDbVisualStyle
  2
Linepattern
 70
    14
 71
     2
 72
     2
 73
     0
 90
        0
 40
-0.6
 41
-30.0
 62
     5
 63
     7
421
 16777215
 74
     1
 91
        4
 64
     7
 65
   257
 75
     7
175
     7
 42
1.0
 92
        8
 66
     7
 43
1.0
 76
     1
 77
     6
 78
     2
 67
     7
 79
     5
170
     0
171
     0
290
     0
174
     0
 93
        1
 44
0.0
173
     0
291
     1
 45
0.0
  0
VISUALSTYLE
  5
33
102
{ACAD_REACTORS
330
2A
102
}
102
{ACAD_XDICTIONARY
360
170
102
}
330
2A
100
AcDbVisualStyle
  2
Realistic
 70
     8
 71
     2
 72
     2
 73
     0
 90
        0
 40
-0.6
 41
-30.0
 62
     5
 63
     7
421
 16777215
 74
     1
 91
        0
 64
     7
 65
   257
 75
     1
175
     1
 42
1.0
 92
        8
 66
     8
424
  7895160
 43
1.0
 76
     1
 77
     6
 78
     2
 67
     7
 79
     5
170
     0
171
     0
290
     0
174
     0
 93
       13
 44
0.0
173
     0
291
     0
 45
0.0
  0
VISUALSTYLE
  5
37
102
{ACAD_REACTORS
330
2A
102
}
102
{ACAD_XDICTIONARY
360
178
102
}
330
2A
100
AcDbVisualStyle
  2
Thicken
 70
    13
 71
     2
 72
     2
 73
     0
 90
        0
 40
-0.6
 41
-30.0
 62
     5
 63
     7
421
 16777215
 74
     1
 91
        4
 64
     7
 65
   257
 75
     1
175
     1
 42
1.0
 92
       12
 66
     7
 43
1.0
 76
     1
 77
     6
 78
     2
 67
     7
 79
     5
170
     0
171
     0
290
     0
174
     0
 93
        1
 44
0.0
173
     0
291
     1
 45
0.0
  0
DICTIONARY
  5
168
330
2F
100
AcDbDictionary
280
     1
281
     1
  3
ACAD_XREC_ROUNDTRIP
360
169
  0
DICTIONARY
  5
16C
330
31
100
AcDbDictionary
280
     1
281
     1
  3
ACAD_XREC_ROUNDTRIP
360
16D
  0
DICTIONARY
  5
16A
330
30
100
AcDbDictionary
280
     1
281
     1
  3
ACAD_XREC_ROUNDTRIP
360
16B
  0
DICTIONARY
  5
16E
330
32
100
AcDbDictionary
280
     1
281
     1
  3
ACAD_XREC_ROUNDTRIP
360
16F
  0
DICTIONARY
  5
176
330
36
100
AcDbDictionary
280
     1
281
     1
  3
ACAD_XREC_ROUNDTRIP
360
177
  0
DICTIONARY
  5
17E
330
3A
100
AcDbDictionary
280
     1
281
     1
  3
ACAD_XREC_ROUNDTRIP
360
17F
  0
DICTIONARY
  5
172
330
34
100
AcDbDictionary
280
     1
281
     1
  3
ACAD_XREC_ROUNDTRIP
360
173
  0
DICTIONARY
  5
174
330
35
100
AcDbDictionary
280
     1
281
     1
  3
ACAD_XREC_ROUNDTRIP
360
175
  0
DICTIONARY
  5
17C
330
39
100
AcDbDictionary
280
     1
281
     1
  3
ACAD_XREC_ROUNDTRIP
360
17D
  0
DICTIONARY
  5
160
330
2B
100
AcDbDictionary
280
     1
281
     1
  3
ACAD_XREC_ROUNDTRIP
360
161
  0
DICTIONARY
  5
162
330
2C
100
AcDbDictionary
280
     1
281
     1
  3
ACAD_XREC_ROUNDTRIP
360
163
  0
DICTIONARY
  5
164
330
2D
100
AcDbDictionary
280
     1
281
     1
  3
ACAD_XREC_ROUNDTRIP
360
165
  0
DICTIONARY
  5
166
330
2E
100
AcDbDictionary
280
     1
281
     1
  3
ACAD_XREC_ROUNDTRIP
360
167
  0
DICTIONARY
  5
17A
330
38
100
AcDbDictionary
280
     1
281
     1
  3
ACAD_XREC_ROUNDTRIP
360
17B
  0
DICTIONARY
  5
170
330
33
100
AcDbDictionary
280
     1
281
     1
  3
ACAD_XREC_ROUNDTRIP
360
171
  0
DICTIONARY
  5
178
330
37
100
AcDbDictionary
280
     1
281
     1
  3
ACAD_XREC_ROUNDTRIP
360
179
  0
XRECORD
  5
169
102
{ACAD_REACTORS
330
168
102
}
330
168
100
AcDbXrecord
280
     1
102
RTVSPropertyOp0
 70
     1
102
RTVSPropertyOp1
 70
     1
102
RTVSPropertyOp2
 70
     1
102
RTVSPropertyOp3
 70
     1
102
RTVSPropertyOp4
 70
     1
102
RTVSPropertyOp5
 70
     1
102
RTVSPropertyOp6
 70
     1
102
RTVSPropertyOp7
 70
     1
102
RTVSPropertyOp8
 70
     1
102
RTVSPropertyOp9
 70
     1
102
RTVSPropertyOp10
 70
     1
102
RTVSPropertyOp11
 70
     1
102
RTVSPropertyOp12
 70
     1
102
RTVSPropertyOp13
 70
     1
102
RTVSPropertyOp14
 70
     1
102
RTVSPropertyOp15
 70
     1
102
RTVSPropertyOp16
 70
     1
102
RTVSPropertyOp17
 70
     1
102
RTVSPropertyOp18
 70
     1
102
RTVSPropertyOp19
 70
     1
102
RTVSPropertyOp20
 70
     1
102
RTVSPropertyOp21
 70
     1
102
RTVSPropertyOp22
 70
     1
102
RTVSPropertyOp23
 70
     1
102
RTVSPropertyOp24
 70
     1
102
RTVSPropertyOp25
 70
     1
102
RTVSPropertyOp26
 70
     1
102
RTVSPropertyOp27
 70
     1
102
RTVSPropertyOp28
 70
     1
102
RTVSPropertyOp29
 70
     1
102
RTVSPropertyOp30
 70
     1
102
RTVSPropertyOp31
 70
     1
102
RTVSPropertyOp32
 70
     1
  0
XRECORD
  5
16D
102
{ACAD_REACTORS
330
16C
102
}
330
16C
100
AcDbXrecord
280
     1
102
RTVSPropertyOp0
 70
     1
102
RTVSPropertyOp1
 70
     1
102
RTVSPropertyOp2
 70
     1
102
RTVSPropertyOp3
 70
     1
102
RTVSPropertyOp4
 70
     1
102
RTVSPropertyOp5
 70
     1
102
RTVSPropertyOp6
 70
     1
102
RTVSPropertyOp7
 70
     1
102
RTVSPropertyOp8
 70
     1
102
RTVSPropertyOp9
 70
     1
102
RTVSPropertyOp10
 70
     1
102
RTVSPropertyOp11
 70
     1
102
RTVSPropertyOp12
 70
     1
102
RTVSPropertyOp13
 70
     1
102
RTVSPropertyOp14
 70
     1
102
RTVSPropertyOp15
 70
     1
102
RTVSPropertyOp16
 70
     1
102
RTVSPropertyOp17
 70
     1
102
RTVSPropertyOp18
 70
     1
102
RTVSPropertyOp19
 70
     1
102
RTVSPropertyOp20
 70
     1
102
RTVSPropertyOp21
 70
     1
102
RTVSPropertyOp22
 70
     1
102
RTVSPropertyOp23
 70
     1
102
RTVSPropertyOp24
 70
     1
102
RTVSPropertyOp25
 70
     1
102
RTVSPropertyOp26
 70
     1
102
RTVSPropertyOp27
 70
     1
102
RTVSPropertyOp28
 70
     1
102
RTVSPropertyOp29
 70
     1
102
RTVSPropertyOp30
 70
     1
102
RTVSPropertyOp31
 70
     1
102
RTVSPropertyOp32
 70
     1
  0
XRECORD
  5
16B
102
{ACAD_REACTORS
330
16A
102
}
330
16A
100
AcDbXrecord
280
     1
102
RTVSPropertyOp0
 70
     1
102
RTVSPropertyOp1
 70
     1
102
RTVSPropertyOp2
 70
     1
102
RTVSPropertyOp3
 70
     1
102
RTVSPropertyOp4
 70
     1
102
RTVSPropertyOp5
 70
     1
102
RTVSPropertyOp6
 70
     1
102
RTVSPropertyOp7
 70
     1
102
RTVSPropertyOp8
 70
     1
102
RTVSPropertyOp9
 70
     1
102
RTVSPropertyOp10
 70
     1
102
RTVSPropertyOp11
 70
     1
102
RTVSPropertyOp12
 70
     1
102
RTVSPropertyOp13
 70
     1
102
RTVSPropertyOp14
 70
     1
102
RTVSPropertyOp15
 70
     1
102
RTVSPropertyOp16
 70
     1
102
RTVSPropertyOp17
 70
     1
102
RTVSPropertyOp18
 70
     1
102
RTVSPropertyOp19
 70
     1
102
RTVSPropertyOp20
 70
     1
102
RTVSPropertyOp21
 70
     1
102
RTVSPropertyOp22
 70
     1
102
RTVSPropertyOp23
 70
     1
102
RTVSPropertyOp24
 70
     1
102
RTVSPropertyOp25
 70
     1
102
RTVSPropertyOp26
 70
     1
102
RTVSPropertyOp27
 70
     1
102
RTVSPropertyOp28
 70
     1
102
RTVSPropertyOp29
 70
     1
102
RTVSPropertyOp30
 70
     1
102
RTVSPropertyOp31
 70
     1
102
RTVSPropertyOp32
 70
     1
  0
XRECORD
  5
16F
102
{ACAD_REACTORS
330
16E
102
}
330
16E
100
AcDbXrecord
280
     1
102
RTVSPropertyOp0
 70
     1
102
RTVSPropertyOp1
 70
     1
102
RTVSPropertyOp2
 70
     1
102
RTVSPropertyOp3
 70
     1
102
RTVSPropertyOp4
 70
     1
102
RTVSPropertyOp5
 70
     1
102
RTVSPropertyOp6
 70
     1
102
RTVSPropertyOp7
 70
     1
102
RTVSPropertyOp8
 70
     1
102
RTVSPropertyOp9
 70
     1
102
RTVSPropertyOp10
 70
     1
102
RTVSPropertyOp11
 70
     1
102
RTVSPropertyOp12
 70
     1
102
RTVSPropertyOp13
 70
     1
102
RTVSPropertyOp14
 70
     1
102
RTVSPropertyOp15
 70
     1
102
RTVSPropertyOp16
 70
     1
102
RTVSPropertyOp17
 70
     1
102
RTVSPropertyOp18
 70
     1
102
RTVSPropertyOp19
 70
     1
102
RTVSPropertyOp20
 70
     1
102
RTVSPropertyOp21
 70
     1
102
RTVSPropertyOp22
 70
     1
102
RTVSPropertyOp23
 70
     1
102
RTVSPropertyOp24
 70
     1
102
RTVSPropertyOp25
 70
     1
102
RTVSPropertyOp26
 70
     1
102
RTVSPropertyOp27
 70
     1
102
RTVSPropertyOp28
 70
     1
102
RTVSPropertyOp29
 70
     1
102
RTVSPropertyOp30
 70
     1
102
RTVSPropertyOp31
 70
     1
102
RTVSPropertyOp32
 70
     1
  0
XRECORD
  5
177
102
{ACAD_REACTORS
330
176
102
}
330
176
100
AcDbXrecord
280
     1
102
RTVSPropertyOp0
 70
     1
102
RTVSPropertyOp1
 70
     1
102
RTVSPropertyOp2
 70
     1
102
RTVSPropertyOp3
 70
     1
102
RTVSPropertyOp4
 70
     1
102
RTVSPropertyOp5
 70
     1
102
RTVSPropertyOp6
 70
     1
102
RTVSPropertyOp7
 70
     1
102
RTVSPropertyOp8
 70
     1
102
RTVSPropertyOp9
 70
     1
102
RTVSPropertyOp10
 70
     1
102
RTVSPropertyOp11
 70
     1
102
RTVSPropertyOp12
 70
     1
102
RTVSPropertyOp13
 70
     1
102
RTVSPropertyOp14
 70
     1
102
RTVSPropertyOp15
 70
     1
102
RTVSPropertyOp16
 70
     1
102
RTVSPropertyOp17
 70
     1
102
RTVSPropertyOp18
 70
     1
102
RTVSPropertyOp19
 70
     1
102
RTVSPropertyOp20
 70
     1
102
RTVSPropertyOp21
 70
     1
102
RTVSPropertyOp22
 70
     1
102
RTVSPropertyOp23
 70
     1
102
RTVSPropertyOp24
 70
     1
102
RTVSPropertyOp25
 70
     1
102
RTVSPropertyOp26
 70
     1
102
RTVSPropertyOp27
 70
     1
102
RTVSPropertyOp28
 70
     1
102
RTVSPropertyOp29
 70
     1
102
RTVSPropertyOp30
 70
     1
102
RTVSPropertyOp31
 70
     1
102
RTVSPropertyOp32
 70
     1
  0
XRECORD
  5
17F
102
{ACAD_REACTORS
330
17E
102
}
330
17E
100
AcDbXrecord
280
     1
102
RTVSPropertyOp0
 70
     1
102
RTVSPropertyOp1
 70
     1
102
RTVSPropertyOp2
 70
     1
102
RTVSPropertyOp3
 70
     1
102
RTVSPropertyOp4
 70
     1
102
RTVSPropertyOp5
 70
     1
102
RTVSPropertyOp6
 70
     1
102
RTVSPropertyOp7
 70
     1
102
RTVSPropertyOp8
 70
     1
102
RTVSPropertyOp9
 70
     1
102
RTVSPropertyOp10
 70
     1
102
RTVSPropertyOp11
 70
     1
102
RTVSPropertyOp12
 70
     1
102
RTVSPropertyOp13
 70
     1
102
RTVSPropertyOp14
 70
     1
102
RTVSPropertyOp15
 70
     1
102
RTVSPropertyOp16
 70
     1
102
RTVSPropertyOp17
 70
     1
102
RTVSPropertyOp18
 70
     1
102
RTVSPropertyOp19
 70
     1
102
RTVSPropertyOp20
 70
     1
102
RTVSPropertyOp21
 70
     1
102
RTVSPropertyOp22
 70
     1
102
RTVSPropertyOp23
 70
     1
102
RTVSPropertyOp24
 70
     1
102
RTVSPropertyOp25
 70
     1
102
RTVSPropertyOp26
 70
     1
102
RTVSPropertyOp27
 70
     1
102
RTVSPropertyOp28
 70
     1
102
RTVSPropertyOp29
 70
     1
102
RTVSPropertyOp30
 70
     1
102
RTVSPropertyOp31
 70
     1
102
RTVSPropertyOp32
 70
     1
  0
XRECORD
  5
173
102
{ACAD_REACTORS
330
172
102
}
330
172
100
AcDbXrecord
280
     1
102
RTVSPropertyOp0
 70
     1
102
RTVSPropertyOp1
 70
     1
102
RTVSPropertyOp2
 70
     1
102
RTVSPropertyOp3
 70
     1
102
RTVSPropertyOp4
 70
     1
102
RTVSPropertyOp5
 70
     1
102
RTVSPropertyOp6
 70
     1
102
RTVSPropertyOp7
 70
     1
102
RTVSPropertyOp8
 70
     1
102
RTVSPropertyOp9
 70
     1
102
RTVSPropertyOp10
 70
     1
102
RTVSPropertyOp11
 70
     1
102
RTVSPropertyOp12
 70
     1
102
RTVSPropertyOp13
 70
     1
102
RTVSPropertyOp14
 70
     1
102
RTVSPropertyOp15
 70
     1
102
RTVSPropertyOp16
 70
     1
102
RTVSPropertyOp17
 70
     1
102
RTVSPropertyOp18
 70
     1
102
RTVSPropertyOp19
 70
     1
102
RTVSPropertyOp20
 70
     1
102
RTVSPropertyOp21
 70
     1
102
RTVSPropertyOp22
 70
     1
102
RTVSPropertyOp23
 70
     1
102
RTVSPropertyOp24
 70
     1
102
RTVSPropertyOp25
 70
     1
102
RTVSPropertyOp26
 70
     1
102
RTVSPropertyOp27
 70
     1
102
RTVSPropertyOp28
 70
     1
102
RTVSPropertyOp29
 70
     1
102
RTVSPropertyOp30
 70
     1
102
RTVSPropertyOp31
 70
     1
102
RTVSPropertyOp32
 70
     1
  0
XRECORD
  5
175
102
{ACAD_REACTORS
330
174
102
}
330
174
100
AcDbXrecord
280
     1
102
RTVSPropertyOp0
 70
     1
102
RTVSPropertyOp1
 70
     1
102
RTVSPropertyOp2
 70
     1
102
RTVSPropertyOp3
 70
     1
102
RTVSPropertyOp4
 70
     1
102
RTVSPropertyOp5
 70
     1
102
RTVSPropertyOp6
 70
     1
102
RTVSPropertyOp7
 70
     1
102
RTVSPropertyOp8
 70
     1
102
RTVSPropertyOp9
 70
     1
102
RTVSPropertyOp10
 70
     1
102
RTVSPropertyOp11
 70
     1
102
RTVSPropertyOp12
 70
     1
102
RTVSPropertyOp13
 70
     1
102
RTVSPropertyOp14
 70
     1
102
RTVSPropertyOp15
 70
     1
102
RTVSPropertyOp16
 70
     1
102
RTVSPropertyOp17
 70
     1
102
RTVSPropertyOp18
 70
     1
102
RTVSPropertyOp19
 70
     1
102
RTVSPropertyOp20
 70
     1
102
RTVSPropertyOp21
 70
     1
102
RTVSPropertyOp22
 70
     1
102
RTVSPropertyOp23
 70
     1
102
RTVSPropertyOp24
 70
     1
102
RTVSPropertyOp25
 70
     1
102
RTVSPropertyOp26
 70
     1
102
RTVSPropertyOp27
 70
     1
102
RTVSPropertyOp28
 70
     1
102
RTVSPropertyOp29
 70
     1
102
RTVSPropertyOp30
 70
     1
102
RTVSPropertyOp31
 70
     1
102
RTVSPropertyOp32
 70
     1
  0
XRECORD
  5
17D
102
{ACAD_REACTORS
330
17C
102
}
330
17C
100
AcDbXrecord
280
     1
102
RTVSPropertyOp0
 70
     1
102
RTVSPropertyOp1
 70
     1
102
RTVSPropertyOp2
 70
     1
102
RTVSPropertyOp3
 70
     1
102
RTVSPropertyOp4
 70
     1
102
RTVSPropertyOp5
 70
     1
102
RTVSPropertyOp6
 70
     1
102
RTVSPropertyOp7
 70
     1
102
RTVSPropertyOp8
 70
     1
102
RTVSPropertyOp9
 70
     1
102
RTVSPropertyOp10
 70
     1
102
RTVSPropertyOp11
 70
     1
102
RTVSPropertyOp12
 70
     1
102
RTVSPropertyOp13
 70
     1
102
RTVSPropertyOp14
 70
     1
102
RTVSPropertyOp15
 70
     1
102
RTVSPropertyOp16
 70
     1
102
RTVSPropertyOp17
 70
     1
102
RTVSPropertyOp18
 70
     1
102
RTVSPropertyOp19
 70
     1
102
RTVSPropertyOp20
 70
     1
102
RTVSPropertyOp21
 70
     1
102
RTVSPropertyOp22
 70
     1
102
RTVSPropertyOp23
 70
     1
102
RTVSPropertyOp24
 70
     1
102
RTVSPropertyOp25
 70
     1
102
RTVSPropertyOp26
 70
     1
102
RTVSPropertyOp27
 70
     1
102
RTVSPropertyOp28
 70
     1
102
RTVSPropertyOp29
 70
     1
102
RTVSPropertyOp30
 70
     1
102
RTVSPropertyOp31
 70
     1
102
RTVSPropertyOp32
 70
     1
  0
XRECORD
  5
161
102
{ACAD_REACTORS
330
160
102
}
330
160
100
AcDbXrecord
280
     1
102
RTVSPropertyOp0
 70
     1
102
RTVSPropertyOp1
 70
     1
102
RTVSPropertyOp2
 70
     1
102
RTVSPropertyOp3
 70
     1
102
RTVSPropertyOp4
 70
     1
102
RTVSPropertyOp5
 70
     1
102
RTVSPropertyOp6
 70
     1
102
RTVSPropertyOp7
 70
     1
102
RTVSPropertyOp8
 70
     1
102
RTVSPropertyOp9
 70
     1
102
RTVSPropertyOp10
 70
     1
102
RTVSPropertyOp11
 70
     1
102
RTVSPropertyOp12
 70
     1
102
RTVSPropertyOp13
 70
     1
102
RTVSPropertyOp14
 70
     1
102
RTVSPropertyOp15
 70
     1
102
RTVSPropertyOp16
 70
     1
102
RTVSPropertyOp17
 70
     1
102
RTVSPropertyOp18
 70
     1
102
RTVSPropertyOp19
 70
     1
102
RTVSPropertyOp20
 70
     1
102
RTVSPropertyOp21
 70
     1
102
RTVSPropertyOp22
 70
     1
102
RTVSPropertyOp23
 70
     1
102
RTVSPropertyOp24
 70
     1
102
RTVSPropertyOp25
 70
     1
102
RTVSPropertyOp26
 70
     1
102
RTVSPropertyOp27
 70
     1
102
RTVSPropertyOp28
 70
     1
102
RTVSPropertyOp29
 70
     1
102
RTVSPropertyOp30
 70
     1
102
RTVSPropertyOp31
 70
     1
102
RTVSPropertyOp32
 70
     1
  0
XRECORD
  5
163
102
{ACAD_REACTORS
330
162
102
}
330
162
100
AcDbXrecord
280
     1
102
RTVSPropertyOp0
 70
     1
102
RTVSPropertyOp1
 70
     1
102
RTVSPropertyOp2
 70
     1
102
RTVSPropertyOp3
 70
     1
102
RTVSPropertyOp4
 70
     1
102
RTVSPropertyOp5
 70
     1
102
RTVSPropertyOp6
 70
     1
102
RTVSPropertyOp7
 70
     1
102
RTVSPropertyOp8
 70
     1
102
RTVSPropertyOp9
 70
     1
102
RTVSPropertyOp10
 70
     1
102
RTVSPropertyOp11
 70
     1
102
RTVSPropertyOp12
 70
     1
102
RTVSPropertyOp13
 70
     1
102
RTVSPropertyOp14
 70
     1
102
RTVSPropertyOp15
 70
     1
102
RTVSPropertyOp16
 70
     1
102
RTVSPropertyOp17
 70
     1
102
RTVSPropertyOp18
 70
     1
102
RTVSPropertyOp19
 70
     1
102
RTVSPropertyOp20
 70
     1
102
RTVSPropertyOp21
 70
     1
102
RTVSPropertyOp22
 70
     1
102
RTVSPropertyOp23
 70
     1
102
RTVSPropertyOp24
 70
     1
102
RTVSPropertyOp25
 70
     1
102
RTVSPropertyOp26
 70
     1
102
RTVSPropertyOp27
 70
     1
102
RTVSPropertyOp28
 70
     1
102
RTVSPropertyOp29
 70
     1
102
RTVSPropertyOp30
 70
     1
102
RTVSPropertyOp31
 70
     1
102
RTVSPropertyOp32
 70
     1
  0
XRECORD
  5
165
102
{ACAD_REACTORS
330
164
102
}
330
164
100
AcDbXrecord
280
     1
102
RTVSPropertyOp0
 70
     1
102
RTVSPropertyOp1
 70
     1
102
RTVSPropertyOp2
 70
     1
102
RTVSPropertyOp3
 70
     1
102
RTVSPropertyOp4
 70
     1
102
RTVSPropertyOp5
 70
     1
102
RTVSPropertyOp6
 70
     1
102
RTVSPropertyOp7
 70
     1
102
RTVSPropertyOp8
 70
     1
102
RTVSPropertyOp9
 70
     1
102
RTVSPropertyOp10
 70
     1
102
RTVSPropertyOp11
 70
     1
102
RTVSPropertyOp12
 70
     1
102
RTVSPropertyOp13
 70
     1
102
RTVSPropertyOp14
 70
     1
102
RTVSPropertyOp15
 70
     1
102
RTVSPropertyOp16
 70
     1
102
RTVSPropertyOp17
 70
     1
102
RTVSPropertyOp18
 70
     1
102
RTVSPropertyOp19
 70
     1
102
RTVSPropertyOp20
 70
     1
102
RTVSPropertyOp21
 70
     1
102
RTVSPropertyOp22
 70
     1
102
RTVSPropertyOp23
 70
     1
102
RTVSPropertyOp24
 70
     1
102
RTVSPropertyOp25
 70
     1
102
RTVSPropertyOp26
 70
     1
102
RTVSPropertyOp27
 70
     1
102
RTVSPropertyOp28
 70
     1
102
RTVSPropertyOp29
 70
     1
102
RTVSPropertyOp30
 70
     1
102
RTVSPropertyOp31
 70
     1
102
RTVSPropertyOp32
 70
     1
  0
XRECORD
  5
167
102
{ACAD_REACTORS
330
166
102
}
330
166
100
AcDbXrecord
280
     1
102
RTVSPropertyOp0
 70
     1
102
RTVSPropertyOp1
 70
     1
102
RTVSPropertyOp2
 70
     1
102
RTVSPropertyOp3
 70
     1
102
RTVSPropertyOp4
 70
     1
102
RTVSPropertyOp5
 70
     1
102
RTVSPropertyOp6
 70
     1
102
RTVSPropertyOp7
 70
     1
102
RTVSPropertyOp8
 70
     1
102
RTVSPropertyOp9
 70
     1
102
RTVSPropertyOp10
 70
     1
102
RTVSPropertyOp11
 70
     1
102
RTVSPropertyOp12
 70
     1
102
RTVSPropertyOp13
 70
     1
102
RTVSPropertyOp14
 70
     1
102
RTVSPropertyOp15
 70
     1
102
RTVSPropertyOp16
 70
     1
102
RTVSPropertyOp17
 70
     1
102
RTVSPropertyOp18
 70
     1
102
RTVSPropertyOp19
 70
     1
102
RTVSPropertyOp20
 70
     1
102
RTVSPropertyOp21
 70
     1
102
RTVSPropertyOp22
 70
     1
102
RTVSPropertyOp23
 70
     1
102
RTVSPropertyOp24
 70
     1
102
RTVSPropertyOp25
 70
     1
102
RTVSPropertyOp26
 70
     1
102
RTVSPropertyOp27
 70
     1
102
RTVSPropertyOp28
 70
     1
102
RTVSPropertyOp29
 70
     1
102
RTVSPropertyOp30
 70
     1
102
RTVSPropertyOp31
 70
     1
102
RTVSPropertyOp32
 70
     1
  0
XRECORD
  5
17B
102
{ACAD_REACTORS
330
17A
102
}
330
17A
100
AcDbXrecord
280
     1
102
RTVSPropertyOp0
 70
     1
102
RTVSPropertyOp1
 70
     1
102
RTVSPropertyOp2
 70
     1
102
RTVSPropertyOp3
 70
     1
102
RTVSPropertyOp4
 70
     1
102
RTVSPropertyOp5
 70
     1
102
RTVSPropertyOp6
 70
     1
102
RTVSPropertyOp7
 70
     1
102
RTVSPropertyOp8
 70
     1
102
RTVSPropertyOp9
 70
     1
102
RTVSPropertyOp10
 70
     1
102
RTVSPropertyOp11
 70
     1
102
RTVSPropertyOp12
 70
     1
102
RTVSPropertyOp13
 70
     1
102
RTVSPropertyOp14
 70
     1
102
RTVSPropertyOp15
 70
     1
102
RTVSPropertyOp16
 70
     1
102
RTVSPropertyOp17
 70
     1
102
RTVSPropertyOp18
 70
     1
102
RTVSPropertyOp19
 70
     1
102
RTVSPropertyOp20
 70
     1
102
RTVSPropertyOp21
 70
     1
102
RTVSPropertyOp22
 70
     1
102
RTVSPropertyOp23
 70
     1
102
RTVSPropertyOp24
 70
     1
102
RTVSPropertyOp25
 70
     1
102
RTVSPropertyOp26
 70
     1
102
RTVSPropertyOp27
 70
     1
102
RTVSPropertyOp28
 70
     1
102
RTVSPropertyOp29
 70
     1
102
RTVSPropertyOp30
 70
     1
102
RTVSPropertyOp31
 70
     1
102
RTVSPropertyOp32
 70
     1
  0
XRECORD
  5
171
102
{ACAD_REACTORS
330
170
102
}
330
170
100
AcDbXrecord
280
     1
102
RTVSPropertyOp0
 70
     1
102
RTVSPropertyOp1
 70
     1
102
RTVSPropertyOp2
 70
     1
102
RTVSPropertyOp3
 70
     1
102
RTVSPropertyOp4
 70
     1
102
RTVSPropertyOp5
 70
     1
102
RTVSPropertyOp6
 70
     1
102
RTVSPropertyOp7
 70
     1
102
RTVSPropertyOp8
 70
     1
102
RTVSPropertyOp9
 70
     1
102
RTVSPropertyOp10
 70
     1
102
RTVSPropertyOp11
 70
     1
102
RTVSPropertyOp12
 70
     1
102
RTVSPropertyOp13
 70
     1
102
RTVSPropertyOp14
 70
     1
102
RTVSPropertyOp15
 70
     1
102
RTVSPropertyOp16
 70
     1
102
RTVSPropertyOp17
 70
     1
102
RTVSPropertyOp18
 70
     1
102
RTVSPropertyOp19
 70
     1
102
RTVSPropertyOp20
 70
     1
102
RTVSPropertyOp21
 70
     1
102
RTVSPropertyOp22
 70
     1
102
RTVSPropertyOp23
 70
     1
102
RTVSPropertyOp24
 70
     1
102
RTVSPropertyOp25
 70
     1
102
RTVSPropertyOp26
 70
     1
102
RTVSPropertyOp27
 70
     1
102
RTVSPropertyOp28
 70
     1
102
RTVSPropertyOp29
 70
     1
102
RTVSPropertyOp30
 70
     1
102
RTVSPropertyOp31
 70
     1
102
RTVSPropertyOp32
 70
     1
  0
XRECORD
  5
179
102
{ACAD_REACTORS
330
178
102
}
330
178
100
AcDbXrecord
280
     1
102
RTVSPropertyOp0
 70
     1
102
RTVSPropertyOp1
 70
     1
102
RTVSPropertyOp2
 70
     1
102
RTVSPropertyOp3
 70
     1
102
RTVSPropertyOp4
 70
     1
102
RTVSPropertyOp5
 70
     1
102
RTVSPropertyOp6
 70
     1
102
RTVSPropertyOp7
 70
     1
102
RTVSPropertyOp8
 70
     1
102
RTVSPropertyOp9
 70
     1
102
RTVSPropertyOp10
 70
     1
102
RTVSPropertyOp11
 70
     1
102
RTVSPropertyOp12
 70
     1
102
RTVSPropertyOp13
 70
     1
102
RTVSPropertyOp14
 70
     1
102
RTVSPropertyOp15
 70
     1
102
RTVSPropertyOp16
 70
     1
102
RTVSPropertyOp17
 70
     1
102
RTVSPropertyOp18
 70
     1
102
RTVSPropertyOp19
 70
     1
102
RTVSPropertyOp20
 70
     1
102
RTVSPropertyOp21
 70
     1
102
RTVSPropertyOp22
 70
     1
102
RTVSPropertyOp23
 70
     1
102
RTVSPropertyOp24
 70
     1
102
RTVSPropertyOp25
 70
     1
102
RTVSPropertyOp26
 70
     1
102
RTVSPropertyOp27
 70
     1
102
RTVSPropertyOp28
 70
     1
102
RTVSPropertyOp29
 70
     1
102
RTVSPropertyOp30
 70
     1
102
RTVSPropertyOp31
 70
     1
102
RTVSPropertyOp32
 70
     1
  0
ENDSEC
  0
EOF
