  0
SECTION
  2
HEADER
  9
$ACADVER
  1
AC1021
  9
$ACADMAINTVER
 70
    25
  9
$DWGCODEPAGE
  3
ANSI_1252
  9
$INSBASE
 10
0.0
 20
0.0
 30
0.0
  9
$EXTMIN
 10
-187.5995
 20
-114.2445
 30
0.0
  9
$EXTMAX
 10
-15.9648
 20
132.6055
 30
0.0
  9
$LIMMIN
 10
0.0
 20
0.0
  9
$LIMMAX
 10
12.0
 20
9.0
  9
$ORTHOMODE
 70
     0
  9
$REGENMODE
 70
     1
  9
$FILLMODE
 70
     1
  9
$QTEXTMODE
 70
     0
  9
$MIRRTEXT
 70
     1
  9
$LTSCALE
 40
1.0
  9
$ATTMODE
 70
     1
  9
$TEXTSIZE
 40
0.2
  9
$TRACEWID
 40
0.05
  9
$TEXTSTYLE
  7
Standard
  9
$CLAYER
  8
0
  9
$CELTYPE
  6
ByLayer
  9
$CECOLOR
 62
   256
  9
$CELTSCALE
 40
1.0
  9
$DISPSILH
 70
     0
  9
$DIMSCALE
 40
1.0
  9
$DIMASZ
 40
0.18
  9
$DIMEXO
 40
0.0625
  9
$DIMDLI
 40
0.38
  9
$DIMRND
 40
0.0
  9
$DIMDLE
 40
0.0
  9
$DIMEXE
 40
0.18
  9
$DIMTP
 40
0.0
  9
$DIMTM
 40
0.0
  9
$DIMTXT
 40
0.18
  9
$DIMCEN
 40
0.09
  9
$DIMTSZ
 40
0.0
  9
$DIMTOL
 70
     0
  9
$DIMLIM
 70
     0
  9
$DIMTIH
 70
     1
  9
$DIMTOH
 70
     1
  9
$DIMSE1
 70
     0
  9
$DIMSE2
 70
     0
  9
$DIMTAD
 70
     0
  9
$DIMZIN
 70
     0
  9
$DIMBLK
  1

  9
$DIMASO
 70
     1
  9
$DIMSHO
 70
     1
  9
$DIMPOST
  1

  9
$DIMAPOST
  1

  9
$DIMALT
 70
     0
  9
$DIMALTD
 70
     2
  9
$DIMALTF
 40
25.4
  9
$DIMLFAC
 40
1.0
  9
$DIMTOFL
 70
     0
  9
$DIMTVP
 40
0.0
  9
$DIMTIX
 70
     0
  9
$DIMSOXD
 70
     0
  9
$DIMSAH
 70
     0
  9
$DIMBLK1
  1

  9
$DIMBLK2
  1

  9
$DIMSTYLE
  2
Standard
  9
$DIMCLRD
 70
     0
  9
$DIMCLRE
 70
     0
  9
$DIMCLRT
 70
     0
  9
$DIMTFAC
 40
1.0
  9
$DIMGAP
 40
0.09
  9
$DIMJUST
 70
     0
  9
$DIMSD1
 70
     0
  9
$DIMSD2
 70
     0
  9
$DIMTOLJ
 70
     1
  9
$DIMTZIN
 70
     0
  9
$DIMALTZ
 70
     0
  9
$DIMALTTZ
 70
     0
  9
$DIMUPT
 70
     0
  9
$DIMDEC
 70
     4
  9
$DIMTDEC
 70
     4
  9
$DIMALTU
 70
     2
  9
$DIMALTTD
 70
     2
  9
$DIMTXSTY
  7
Standard
  9
$DIMAUNIT
 70
     0
  9
$DIMADEC
 70
     0
  9
$DIMALTRND
 40
0.0
  9
$DIMAZIN
 70
     0
  9
$DIMDSEP
 70
    46
  9
$DIMATFIT
 70
     3
  9
$DIMFRAC
 70
     0
  9
$DIMLDRBLK
  1

  9
$DIMLUNIT
 70
     2
  9
$DIMLWD
 70
    -2
  9
$DIMLWE
 70
    -2
  9
$DIMTMOVE
 70
     0
  9
$DIMFXL
 40
1.0
  9
$DIMFXLON
 70
     0
  9
$DIMJOGANG
 40
0.7853981633974483
  9
$DIMTFILL
 70
     0
  9
$DIMTFILLCLR
 70
     0
  9
$DIMARCSYM
 70
     0
  9
$DIMLTYPE
  6

  9
$DIMLTEX1
  6

  9
$DIMLTEX2
  6

  9
$LUNITS
 70
     2
  9
$LUPREC
 70
     4
  9
$SKETCHINC
 40
0.1
  9
$FILLETRAD
 40
0.5
  9
$AUNITS
 70
     0
  9
$AUPREC
 70
     0
  9
$MENU
  1
.
  9
$ELEVATION
 40
0.0
  9
$PELEVATION
 40
0.0
  9
$THICKNESS
 40
0.0
  9
$LIMCHECK
 70
     0
  9
$CHAMFERA
 40
0.5
  9
$CHAMFERB
 40
0.5
  9
$CHAMFERC
 40
1.0
  9
$CHAMFERD
 40
0.0
  9
$SKPOLY
 70
     0
  9
$TDCREATE
 40
2458492.845190104
  9
$TDUCREATE
 40
2458492.845190104
  9
$TDUPDATE
 40
2458492.845190255
  9
$TDUUPDATE
 40
2458492.845190255
  9
$TDINDWG
 40
0.0000000116
  9
$TDUSRTIMER
 40
0.0000000116
  9
$USRTIMER
 70
     1
  9
$ANGBASE
 50
0.0
  9
$ANGDIR
 70
     0
  9
$PDMODE
 70
     0
  9
$PDSIZE
 40
0.0
  9
$PLINEWID
 40
0.0
  9
$SPLFRAME
 70
     0
  9
$SPLINETYPE
 70
     6
  9
$SPLINESEGS
 70
     8
  9
$HANDSEED
  5
90
  9
$SURFTAB1
 70
     6
  9
$SURFTAB2
 70
     6
  9
$SURFTYPE
 70
     6
  9
$SURFU
 70
     6
  9
$SURFV
 70
     6
  9
$UCSBASE
  2

  9
$UCSNAME
  2

  9
$UCSORG
 10
0.0
 20
0.0
 30
0.0
  9
$UCSXDIR
 10
1.0
 20
0.0
 30
0.0
  9
$UCSYDIR
 10
0.0
 20
1.0
 30
0.0
  9
$UCSORTHOREF
  2

  9
$UCSORTHOVIEW
 70
     0
  9
$UCSORGTOP
 10
0.0
 20
0.0
 30
0.0
  9
$UCSORGBOTTOM
 10
0.0
 20
0.0
 30
0.0
  9
$UCSORGLEFT
 10
0.0
 20
0.0
 30
0.0
  9
$UCSORGRIGHT
 10
0.0
 20
0.0
 30
0.0
  9
$UCSORGFRONT
 10
0.0
 20
0.0
 30
0.0
  9
$UCSORGBACK
 10
0.0
 20
0.0
 30
0.0
  9
$PUCSBASE
  2

  9
$PUCSNAME
  2

  9
$PUCSORG
 10
0.0
 20
0.0
 30
0.0
  9
$PUCSXDIR
 10
1.0
 20
0.0
 30
0.0
  9
$PUCSYDIR
 10
0.0
 20
1.0
 30
0.0
  9
$PUCSORTHOREF
  2

  9
$PUCSORTHOVIEW
 70
     0
  9
$PUCSORGTOP
 10
0.0
 20
0.0
 30
0.0
  9
$PUCSORGBOTTOM
 10
0.0
 20
0.0
 30
0.0
  9
$PUCSORGLEFT
 10
0.0
 20
0.0
 30
0.0
  9
$PUCSORGRIGHT
 10
0.0
 20
0.0
 30
0.0
  9
$PUCSORGFRONT
 10
0.0
 20
0.0
 30
0.0
  9
$PUCSORGBACK
 10
0.0
 20
0.0
 30
0.0
  9
$USERI1
 70
     0
  9
$USERI2
 70
     0
  9
$USERI3
 70
     0
  9
$USERI4
 70
     0
  9
$USERI5
 70
     0
  9
$USERR1
 40
0.0
  9
$USERR2
 40
0.0
  9
$USERR3
 40
0.0
  9
$USERR4
 40
0.0
  9
$USERR5
 40
0.0
  9
$WORLDVIEW
 70
     1
  9
$SHADEDGE
 70
     3
  9
$SHADEDIF
 70
    70
  9
$TILEMODE
 70
     1
  9
$MAXACTVP
 70
    64
  9
$PINSBASE
 10
0.0
 20
0.0
 30
0.0
  9
$PLIMCHECK
 70
     0
  9
$PEXTMIN
 10
1.000000000000000E+20
 20
1.000000000000000E+20
 30
1.000000000000000E+20
  9
$PEXTMAX
 10
-1.000000000000000E+20
 20
-1.000000000000000E+20
 30
-1.000000000000000E+20
  9
$PLIMMIN
 10
0.0
 20
0.0
  9
$PLIMMAX
 10
12.0
 20
9.0
  9
$UNITMODE
 70
     0
  9
$VISRETAIN
 70
     1
  9
$PLINEGEN
 70
     0
  9
$PSLTSCALE
 70
     1
  9
$TREEDEPTH
 70
  3020
  9
$CMLSTYLE
  2
Standard
  9
$CMLJUST
 70
     0
  9
$CMLSCALE
 40
1.0
  9
$PROXYGRAPHICS
 70
     1
  9
$MEASUREMENT
 70
     0
  9
$CELWEIGHT
370
    -1
  9
$ENDCAPS
280
     0
  9
$JOINSTYLE
280
     0
  9
$LWDISPLAY
290
     0
  9
$INSUNITS
 70
     4
  9
$HYPERLINKBASE
  1

  9
$STYLESHEET
  1

  9
$XEDIT
290
     1
  9
$CEPSNTYPE
380
     0
  9
$PSTYLEMODE
290
     1
  9
$FINGERPRINTGUID
  2
{B379A744-0741-44CB-BE47-A66A8D15DF83}
  9
$VERSIONGUID
  2
{FAEB1C32-E019-11D5-929B-00C0DF256EC4}
  9
$EXTNAMES
290
     1
  9
$PSVPSCALE
 40
0.0
  9
$OLESTARTUP
290
     0
  9
$SORTENTS
280
   127
  9
$INDEXCTL
280
     0
  9
$HIDETEXT
280
     1
  9
$XCLIPFRAME
290
     0
  9
$HALOGAP
280
     0
  9
$OBSCOLOR
 70
   257
  9
$OBSLTYPE
280
     0
  9
$INTERSECTIONDISPLAY
280
     0
  9
$INTERSECTIONCOLOR
 70
   257
  9
$DIMASSOC
280
     2
  9
$PROJECTNAME
  1

  9
$CAMERADISPLAY
290
     0
  9
$LENSLENGTH
 40
50.0
  9
$CAMERAHEIGHT
 40
0.0
  9
$STEPSPERSEC
 40
2.0
  9
$STEPSIZE
 40
6.0
  9
$3DDWFPREC
 40
2.0
  9
$PSOLWIDTH
 40
0.25
  9
$PSOLHEIGHT
 40
4.0
  9
$LOFTANG1
 40
1.570796326794897
  9
$LOFTANG2
 40
1.570796326794897
  9
$LOFTMAG1
 40
0.0
  9
$LOFTMAG2
 40
0.0
  9
$LOFTPARAM
 70
     7
  9
$LOFTNORMALS
280
     1
  9
$LATITUDE
 40
37.795
  9
$LONGITUDE
 40
-122.394
  9
$NORTHDIRECTION
 40
0.0
  9
$TIMEZONE
 70
 -8000
  9
$LIGHTGLYPHDISPLAY
280
     1
  9
$TILEMODELIGHTSYNCH
280
     1
  9
$SOLIDHIST
280
     1
  9
$SHOWHIST
280
     1
  9
$DWFFRAME
280
     2
  9
$DGNFRAME
280
     2
  9
$REALWORLDSCALE
290
     1
  9
$INTERFERECOLOR
 62
   256
  9
$CSHADOW
280
     0
  9
$SHADOWPLANELOCATION
 40
0.0
  0
ENDSEC
  0
SECTION
  2
CLASSES
  0
CLASS
  1
ACDBDICTIONARYWDFLT
  2
AcDbDictionaryWithDefault
  3
ObjectDBX Classes
 90
        0
 91
        4
280
     0
281
     0
  0
CLASS
  1
VISUALSTYLE
  2
AcDbVisualStyle
  3
ObjectDBX Classes
 90
     4095
 91
        4
280
     0
281
     0
  0
CLASS
  1
MATERIAL
  2
AcDbMaterial
  3
ObjectDBX Classes
 90
     1153
 91
        4
280
     0
281
     0
  0
ENDSEC
  0
SECTION
  2
TABLES
  0
TABLE
  2
VPORT
  5
8
330
0
100
AcDbSymbolTable
 70
     1
  0
VPORT
  5
29
330
8
100
AcDbSymbolTableRecord
100
AcDbViewportTableRecord
  2
*Active
 70
     0
 10
0.0
 20
0.0
 11
1.0
 21
1.0
 12
10.42990654205607
 22
4.5
 13
0.0
 23
0.0
 14
0.5
 24
0.5
 15
0.5
 25
0.5
 16
0.0
 26
0.0
 36
1.0
 17
0.0
 27
0.0
 37
0.0
 40
9.0
 41
1.972972972850329
 42
50.0
 43
0.0
 44
0.0
 50
0.0
 51
0.0
 71
     0
 72
   100
 73
     1
 74
     3
 75
     0
 76
     0
 77
     0
 78
     0
281
     0
 65
     1
110
0.0
120
0.0
130
0.0
111
1.0
121
0.0
131
0.0
112
0.0
122
1.0
132
0.0
 79
     0
146
0.0
 60
     3
 61
     5
292
     1
282
     1
141
0.0
142
0.0
 63
   250
  0
ENDTAB
  0
TABLE
  2
LTYPE
  5
5
330
0
100
AcDbSymbolTable
 70
     1
  0
LTYPE
  5
14
330
5
100
AcDbSymbolTableRecord
100
AcDbLinetypeTableRecord
  2
ByBlock
 70
     0
  3

 72
    65
 73
     0
 40
0.0
  0
LTYPE
  5
15
330
5
100
AcDbSymbolTableRecord
100
AcDbLinetypeTableRecord
  2
ByLayer
 70
     0
  3

 72
    65
 73
     0
 40
0.0
  0
LTYPE
  5
16
330
5
100
AcDbSymbolTableRecord
100
AcDbLinetypeTableRecord
  2
Continuous
 70
     0
  3
Solid line
 72
    65
 73
     0
 40
0.0
  0
ENDTAB
  0
TABLE
  2
LAYER
  5
2
330
0
100
AcDbSymbolTable
 70
     2
  0
LAYER
  5
10
330
2
100
AcDbSymbolTableRecord
100
AcDbLayerTableRecord
  2
0
 70
     0
 62
     7
  6
Continuous
370
    -3
390
F
347
3E
  0
LAYER
  5
40
330
2
100
AcDbSymbolTableRecord
100
AcDbLayerTableRecord
  2
layer 1
 70
     0
 62
     7
  6
Continuous
370
    -3
390
F
347
3E
  0
ENDTAB
  0
TABLE
  2
STYLE
  5
3
330
0
100
AcDbSymbolTable
 70
     1
  0
STYLE
  5
11
330
3
100
AcDbSymbolTableRecord
100
AcDbTextStyleTableRecord
  2
Standard
 70
     0
 40
0.0
 41
1.0
 50
0.0
 71
     0
 42
0.2
  3
txt
  4

  0
ENDTAB
  0
TABLE
  2
VIEW
  5
6
330
0
100
AcDbSymbolTable
 70
     0
  0
ENDTAB
  0
TABLE
  2
UCS
  5
7
330
0
100
AcDbSymbolTable
 70
     0
  0
ENDTAB
  0
TABLE
  2
APPID
  5
9
330
0
100
AcDbSymbolTable
 70
     2
  0
APPID
  5
12
330
9
100
AcDbSymbolTableRecord
100
AcDbRegAppTableRecord
  2
ACAD
 70
     0
  0
APPID
  5
3F
330
9
100
AcDbSymbolTableRecord
100
AcDbRegAppTableRecord
  2
ODA
 70
     0
  0
ENDTAB
  0
TABLE
  2
DIMSTYLE
  5
A
330
0
100
AcDbSymbolTable
 70
     1
100
AcDbDimStyleTable
  0
DIMSTYLE
105
27
330
A
100
AcDbSymbolTableRecord
100
AcDbDimStyleTableRecord
  2
Standard
 70
     0
178
     0
340
11
  0
ENDTAB
  0
TABLE
  2
BLOCK_RECORD
  5
1
330
0
100
AcDbSymbolTable
 70
     1
  0
BLOCK_RECORD
  5
1F
330
1
100
AcDbSymbolTableRecord
100
AcDbBlockTableRecord
  2
*Model_Space
340
22
 70
     0
280
     1
281
     0
  0
BLOCK_RECORD
  5
1B
330
1
100
AcDbSymbolTableRecord
100
AcDbBlockTableRecord
  2
*Paper_Space
340
1E
 70
     0
280
     1
281
     0
  0
BLOCK_RECORD
  5
23
330
1
100
AcDbSymbolTableRecord
100
AcDbBlockTableRecord
  2
*Paper_Space0
340
26
 70
     0
280
     1
281
     0
  0
ENDTAB
  0
ENDSEC
  0
SECTION
  2
BLOCKS
  0
BLOCK
  5
20
330
1F
100
AcDbEntity
  8
0
100
AcDbBlockBegin
  2
*Model_Space
 70
     0
 10
0.0
 20
0.0
 30
0.0
  3
*Model_Space
  1

  0
ENDBLK
  5
21
330
1F
100
AcDbEntity
  8
0
100
AcDbBlockEnd
  0
BLOCK
  5
1C
330
1B
100
AcDbEntity
 67
     1
  8
0
100
AcDbBlockBegin
  2
*Paper_Space
 70
     0
 10
0.0
 20
0.0
 30
0.0
  3
*Paper_Space
  1

  0
ENDBLK
  5
1D
330
1B
100
AcDbEntity
 67
     1
  8
0
100
AcDbBlockEnd
  0
BLOCK
  5
24
330
23
100
AcDbEntity
  8
0
100
AcDbBlockBegin
  2
*Paper_Space0
 70
     0
 10
0.0
 20
0.0
 30
0.0
  3
*Paper_Space0
  1

  0
ENDBLK
  5
25
330
23
100
AcDbEntity
  8
0
100
AcDbBlockEnd
  0
ENDSEC
  0
SECTION
  2
ENTITIES
  0
LWPOLYLINE
  5
41
330
1F
100
AcDbEntity
  8
layer 1
 62
   250
370
     9
100
AcDbPolyline
 90
        5
 70
     1
 43
0.0
 10
-187.5614
 20
-114.2064
 10
-16.003
 20
-114.2064
 10
-16.003
 20
132.5674
 10
-187.5614
 20
132.5674
 10
-187.5614
 20
-114.2064
  0
SPLINE
  5
42
330
1F
100
AcDbEntity
  8
layer 1
 62
     7
370
     9
100
AcDbSpline
210
0.0
220
0.0
230
1.0
 70
    11
 71
     3
 72
    52
 73
    48
 74
     0
 42
0.0000000001
 43
0.0000000001
 12
1.0
 22
0.0
 32
0.0
 13
1.0
 23
0.0
 33
0.0
 40
0.0
 40
0.0
 40
0.0
 40
0.0
 40
0.0769230769230769
 40
0.0769230769230769
 40
0.0769230769230769
 40
0.0769230769230769
 40
0.1538461538461539
 40
0.1538461538461539
 40
0.1538461538461539
 40
0.1538461538461539
 40
0.2307692307692308
 40
0.2307692307692308
 40
0.2307692307692308
 40
0.2307692307692308
 40
0.3076923076923077
 40
0.3076923076923077
 40
0.3076923076923077
 40
0.3076923076923077
 40
0.3846153846153846
 40
0.3846153846153846
 40
0.3846153846153846
 40
0.3846153846153846
 40
0.4615384615384616
 40
0.4615384615384616
 40
0.4615384615384616
 40
0.4615384615384616
 40
0.5384615384615384
 40
0.5384615384615384
 40
0.5384615384615384
 40
0.5384615384615384
 40
0.6153846153846154
 40
0.6153846153846154
 40
0.6153846153846154
 40
0.6153846153846154
 40
0.6923076923076923
 40
0.6923076923076923
 40
0.6923076923076923
 40
0.6923076923076923
 40
0.7692307692307693
 40
0.7692307692307693
 40
0.7692307692307693
 40
0.7692307692307693
 40
0.8461538461538461
 40
0.8461538461538461
 40
0.8461538461538461
 40
0.8461538461538461
 40
1.0
 40
1.0
 40
1.0
 40
1.0
 10
-24.0033
 20
92.9464
 30
0.0
 10
-25.3545
 20
95.9509
 30
0.0
 10
-26.7467
 20
98.8878
 30
0.0
 10
-29.1982
 20
101.241
 30
0.0
 10
-29.1982
 20
101.241
 30
0.0
 10
-30.0952
 20
102.4892
 30
0.0
 10
-31.36
 20
103.4273
 30
0.0
 10
-32.619
 20
104.3316
 30
0.0
 10
-32.619
 20
104.3316
 30
0.0
 10
-30.2762
 20
107.2502
 30
0.0
 10
-30.7582
 20
111.834
 30
0.0
 10
-33.7389
 20
114.1976
 30
0.0
 10
-33.7389
 20
114.1976
 30
0.0
 10
-35.6416
 20
115.6152
 30
0.0
 10
-38.1767
 20
115.8759
 30
0.0
 10
-40.5056
 20
115.472
 30
0.0
 10
-40.5056
 20
115.472
 30
0.0
 10
-39.9429
 20
114.7684
 30
0.0
 10
-39.0625
 20
114.3175
 30
0.0
 10
-38.6558
 20
113.4966
 30
0.0
 10
-38.6558
 20
113.4966
 30
0.0
 10
-38.1962
 20
112.7983
 30
0.0
 10
-38.068
 20
111.8888
 30
0.0
 10
-38.5416
 20
111.1644
 30
0.0
 10
-38.5416
 20
111.1644
 30
0.0
 10
-39.004
 20
110.0333
 30
0.0
 10
-40.2576
 20
109.4913
 30
0.0
 10
-41.3888
 20
109.0952
 30
0.0
 10
-41.3888
 20
109.0952
 30
0.0
 10
-44.5867
 20
108.204
 30
0.0
 10
-47.966
 20
109.004
 30
0.0
 10
-51.0079
 20
110.0308
 30
0.0
 10
-51.0079
 20
110.0308
 30
0.0
 10
-53.6265
 20
110.9115
 30
0.0
 10
-56.4291
 20
110.5363
 30
0.0
 10
-59.1424
 20
110.6431
 30
0.0
 10
-59.1424
 20
110.6431
 30
0.0
 10
-53.1411
 20
113.4485
 30
0.0
 10
-45.0593
 20
118.8222
 30
0.0
 10
-39.1326
 20
124.3477
 30
0.0
 10
-39.1326
 20
124.3477
 30
0.0
 10
-39.1326
 20
124.3477
 30
0.0
 10
-23.8932
 20
124.3477
 30
0.0
 10
-23.8932
 20
124.3477
 30
0.0
 10
-23.8932
 20
124.3477
 30
0.0
 10
-23.8932
 20
124.3477
 30
0.0
 10
-24.0033
 20
92.9464
 30
0.0
 10
-24.0033
 20
92.9464
 30
0.0
  0
SPLINE
  5
43
330
1F
100
AcDbEntity
  8
layer 1
 62
     7
370
     9
100
AcDbSpline
210
0.0
220
0.0
230
1.0
 70
    11
 71
     3
 72
    24
 73
    20
 74
     0
 42
0.0000000001
 43
0.0000000001
 12
1.0
 22
0.0
 32
0.0
 13
1.0
 23
0.0
 33
0.0
 40
0.0
 40
0.0
 40
0.0
 40
0.0
 40
0.1666666666666667
 40
0.1666666666666667
 40
0.1666666666666667
 40
0.1666666666666667
 40
0.3333333333333333
 40
0.3333333333333333
 40
0.3333333333333333
 40
0.3333333333333333
 40
0.5
 40
0.5
 40
0.5
 40
0.5
 40
0.6666666666666666
 40
0.6666666666666666
 40
0.6666666666666666
 40
0.6666666666666666
 40
1.0
 40
1.0
 40
1.0
 40
1.0
 10
-131.5047
 20
124.3477
 30
0.0
 10
-131.6296
 20
123.4946
 30
0.0
 10
-131.6659
 20
122.6282
 30
0.0
 10
-131.597
 20
121.7548
 30
0.0
 10
-131.597
 20
121.7548
 30
0.0
 10
-131.5161
 20
118.969
 30
0.0
 10
-130.2513
 20
116.3944
 30
0.0
 10
-128.9671
 20
113.9345
 30
0.0
 10
-128.9671
 20
113.9345
 30
0.0
 10
-127.4963
 20
111.4978
 30
0.0
 10
-126.0561
 20
109.0196
 30
0.0
 10
-125.1006
 20
106.3565
 30
0.0
 10
-125.1006
 20
106.3565
 30
0.0
 10
-133.7007
 20
112.1227
 30
0.0
 10
-141.5898
 20
113.692
 30
0.0
 10
-144.097
 20
124.3477
 30
0.0
 10
-144.097
 20
124.3477
 30
0.0
 10
-144.097
 20
124.3477
 30
0.0
 10
-131.5047
 20
124.3477
 30
0.0
 10
-131.5047
 20
124.3477
 30
0.0
  0
SPLINE
  5
44
330
1F
100
AcDbEntity
  8
layer 1
 62
     7
370
     9
100
AcDbSpline
210
0.0
220
0.0
230
1.0
 70
    11
 71
     3
 72
    36
 73
    32
 74
     0
 42
0.0000000001
 43
0.0000000001
 12
1.0
 22
0.0
 32
0.0
 13
1.0
 23
0.0
 33
0.0
 40
0.0
 40
0.0
 40
0.0
 40
0.0
 40
0.1111111111111111
 40
0.1111111111111111
 40
0.1111111111111111
 40
0.1111111111111111
 40
0.2222222222222222
 40
0.2222222222222222
 40
0.2222222222222222
 40
0.2222222222222222
 40
0.3333333333333333
 40
0.3333333333333333
 40
0.3333333333333333
 40
0.3333333333333333
 40
0.4444444444444444
 40
0.4444444444444444
 40
0.4444444444444444
 40
0.4444444444444444
 40
0.5555555555555556
 40
0.5555555555555556
 40
0.5555555555555556
 40
0.5555555555555556
 40
0.6666666666666666
 40
0.6666666666666666
 40
0.6666666666666666
 40
0.6666666666666666
 40
0.7777777777777778
 40
0.7777777777777778
 40
0.7777777777777778
 40
0.7777777777777778
 40
1.0
 40
1.0
 40
1.0
 40
1.0
 10
-154.2285
 20
82.7547
 30
0.0
 10
-154.8777
 20
84.0237
 30
0.0
 10
-154.7049
 20
85.4621
 30
0.0
 10
-154.5766
 20
86.8146
 30
0.0
 10
-154.5766
 20
86.8146
 30
0.0
 10
-157.6105
 20
87.0596
 30
0.0
 10
-160.8475
 20
87.7607
 30
0.0
 10
-163.0287
 20
89.8922
 30
0.0
 10
-163.0287
 20
89.8922
 30
0.0
 10
-165.6725
 20
92.1697
 30
0.0
 10
-166.9371
 20
95.5209
 30
0.0
 10
-167.2353
 20
98.8071
 30
0.0
 10
-167.2353
 20
98.8071
 30
0.0
 10
-171.0016
 20
96.7093
 30
0.0
 10
-173.8542
 20
93.0454
 30
0.0
 10
-174.3473
 20
88.9203
 30
0.0
 10
-174.3473
 20
88.9203
 30
0.0
 10
-175.08
 20
81.8843
 30
0.0
 10
-169.7451
 20
74.8353
 30
0.0
 10
-162.5079
 20
72.9329
 30
0.0
 10
-162.5079
 20
72.9329
 30
0.0
 10
-159.4546
 20
72.1302
 30
0.0
 10
-156.1089
 20
72.5211
 30
0.0
 10
-153.2953
 20
73.8684
 30
0.0
 10
-153.2953
 20
73.8684
 30
0.0
 10
-151.2949
 20
74.7361
 30
0.0
 10
-149.6655
 20
76.1408
 30
0.0
 10
-148.0136
 20
77.4697
 30
0.0
 10
-148.0136
 20
77.4697
 30
0.0
 10
-150.5234
 20
78.6477
 30
0.0
 10
-153.1895
 20
80.1775
 30
0.0
 10
-154.2285
 20
82.7547
 30
0.0
  0
SPLINE
  5
45
330
1F
100
AcDbEntity
  8
layer 1
 62
     7
370
     9
100
AcDbSpline
210
0.0
220
0.0
230
1.0
 70
    11
 71
     3
 72
    40
 73
    36
 74
     0
 42
0.0000000001
 43
0.0000000001
 12
1.0
 22
0.0
 32
0.0
 13
1.0
 23
0.0
 33
0.0
 40
0.0
 40
0.0
 40
0.0
 40
0.0
 40
0.1
 40
0.1
 40
0.1
 40
0.1
 40
0.2
 40
0.2
 40
0.2
 40
0.2
 40
0.3
 40
0.3
 40
0.3
 40
0.3
 40
0.4
 40
0.4
 40
0.4
 40
0.4
 40
0.5
 40
0.5
 40
0.5
 40
0.5
 40
0.6
 40
0.6
 40
0.6
 40
0.6
 40
0.7
 40
0.7
 40
0.7
 40
0.7
 40
0.8
 40
0.8
 40
0.8
 40
0.8
 40
1.0
 40
1.0
 40
1.0
 40
1.0
 10
-154.8218
 20
67.119
 30
0.0
 10
-157.7301
 20
66.577
 30
0.0
 10
-160.7248
 20
66.6943
 30
0.0
 10
-163.6111
 20
67.3171
 30
0.0
 10
-163.6111
 20
67.3171
 30
0.0
 10
-162.1261
 20
65.9385
 30
0.0
 10
-160.672
 20
64.3359
 30
0.0
 10
-160.399
 20
62.3189
 30
0.0
 10
-160.399
 20
62.3189
 30
0.0
 10
-159.8502
 20
59.9424
 30
0.0
 10
-160.6358
 20
57.5632
 30
0.0
 10
-161.0537
 20
55.2256
 30
0.0
 10
-161.0537
 20
55.2256
 30
0.0
 10
-158.9169
 20
55.851
 30
0.0
 10
-156.6411
 20
56.01
 30
0.0
 10
-154.4458
 20
55.5515
 30
0.0
 10
-154.4458
 20
55.5515
 30
0.0
 10
-154.1087
 20
56.2054
 30
0.0
 10
-153.8413
 20
56.922
 30
0.0
 10
-153.273
 20
57.4354
 30
0.0
 10
-153.273
 20
57.4354
 30
0.0
 10
-151.9218
 20
58.8139
 30
0.0
 10
-149.7797
 20
59.2309
 30
0.0
 10
-147.8601
 20
58.973
 30
0.0
 10
-147.8601
 20
58.973
 30
0.0
 10
-152.3006
 20
54.4801
 30
0.0
 10
-148.5136
 20
51.4013
 30
0.0
 10
-144.5284
 20
48.1558
 30
0.0
 10
-144.5284
 20
48.1558
 30
0.0
 10
-143.2609
 20
50.5454
 30
0.0
 10
-141.5061
 20
52.6745
 30
0.0
 10
-139.4499
 20
54.5142
 30
0.0
 10
-139.4499
 20
54.5142
 30
0.0
 10
-144.3734
 20
67.6002
 30
0.0
 10
-146.1108
 20
60.6481
 30
0.0
 10
-154.8218
 20
67.119
 30
0.0
  0
SPLINE
  5
46
330
1F
100
AcDbEntity
  8
layer 1
 62
     7
370
     9
100
AcDbSpline
210
0.0
220
0.0
230
1.0
 70
    11
 71
     3
 72
    76
 73
    72
 74
     0
 42
0.0000000001
 43
0.0000000001
 12
1.0
 22
0.0
 32
0.0
 13
1.0
 23
0.0
 33
0.0
 40
0.0
 40
0.0
 40
0.0
 40
0.0
 40
0.0526315789473684
 40
0.0526315789473684
 40
0.0526315789473684
 40
0.0526315789473684
 40
0.1052631578947368
 40
0.1052631578947368
 40
0.1052631578947368
 40
0.1052631578947368
 40
0.1578947368421053
 40
0.1578947368421053
 40
0.1578947368421053
 40
0.1578947368421053
 40
0.2105263157894737
 40
0.2105263157894737
 40
0.2105263157894737
 40
0.2105263157894737
 40
0.2631578947368421
 40
0.2631578947368421
 40
0.2631578947368421
 40
0.2631578947368421
 40
0.3157894736842105
 40
0.3157894736842105
 40
0.3157894736842105
 40
0.3157894736842105
 40
0.3684210526315789
 40
0.3684210526315789
 40
0.3684210526315789
 40
0.3684210526315789
 40
0.4210526315789473
 40
0.4210526315789473
 40
0.4210526315789473
 40
0.4210526315789473
 40
0.4736842105263158
 40
0.4736842105263158
 40
0.4736842105263158
 40
0.4736842105263158
 40
0.5263157894736842
 40
0.5263157894736842
 40
0.5263157894736842
 40
0.5263157894736842
 40
0.5789473684210527
 40
0.5789473684210527
 40
0.5789473684210527
 40
0.5789473684210527
 40
0.631578947368421
 40
0.631578947368421
 40
0.631578947368421
 40
0.631578947368421
 40
0.6842105263157895
 40
0.6842105263157895
 40
0.6842105263157895
 40
0.6842105263157895
 40
0.7368421052631579
 40
0.7368421052631579
 40
0.7368421052631579
 40
0.7368421052631579
 40
0.7894736842105263
 40
0.7894736842105263
 40
0.7894736842105263
 40
0.7894736842105263
 40
0.8421052631578947
 40
0.8421052631578947
 40
0.8421052631578947
 40
0.8421052631578947
 40
0.8947368421052632
 40
0.8947368421052632
 40
0.8947368421052632
 40
0.8947368421052632
 40
1.0
 40
1.0
 40
1.0
 40
1.0
 10
-116.0244
 20
60.8805
 30
0.0
 10
-116.888
 20
63.0825
 30
0.0
 10
-118.5985
 20
64.865
 30
0.0
 10
-120.3898
 20
66.4545
 30
0.0
 10
-120.3898
 20
66.4545
 30
0.0
 10
-124.2955
 20
70.2565
 30
0.0
 10
-129.7639
 20
71.953
 30
0.0
 10
-134.4913
 20
74.6267
 30
0.0
 10
-134.4913
 20
74.6267
 30
0.0
 10
-136.8312
 20
75.8906
 30
0.0
 10
-139.1157
 20
77.4906
 30
0.0
 10
-140.2969
 20
79.8361
 30
0.0
 10
-140.2969
 20
79.8361
 30
0.0
 10
-141.6898
 20
76.7062
 30
0.0
 10
-143.6593
 20
73.7954
 30
0.0
 10
-146.1859
 20
71.359
 30
0.0
 10
-146.1859
 20
71.359
 30
0.0
 10
-143.6037
 20
71.4945
 30
0.0
 10
-140.79
 20
70.6317
 30
0.0
 10
-139.3915
 20
68.4768
 30
0.0
 10
-139.3915
 20
68.4768
 30
0.0
 10
-137.8955
 20
65.9671
 30
0.0
 10
-138.2743
 20
63.0071
 30
0.0
 10
-138.1685
 20
60.2499
 30
0.0
 10
-138.1685
 20
60.2499
 30
0.0
 10
-138.1573
 20
59.1033
 30
0.0
 10
-138.2214
 20
57.6517
 30
0.0
 10
-137.0291
 20
56.9639
 30
0.0
 10
-137.0291
 20
56.9639
 30
0.0
 10
-136.2631
 20
56.664
 30
0.0
 10
-135.6363
 20
57.2634
 30
0.0
 10
-134.9955
 20
57.5475
 30
0.0
 10
-134.9955
 20
57.5475
 30
0.0
 10
-132.9704
 20
58.5429
 30
0.0
 10
-130.8002
 20
59.3587
 30
0.0
 10
-128.5187
 20
59.6376
 30
0.0
 10
-128.5187
 20
59.6376
 30
0.0
 10
-130.1985
 20
57.0341
 30
0.0
 10
-131.544
 20
54.1728
 30
0.0
 10
-131.7196
 20
51.0979
 30
0.0
 10
-131.7196
 20
51.0979
 30
0.0
 10
-131.7837
 20
48.4033
 30
0.0
 10
-131.8643
 20
45.7089
 30
0.0
 10
-131.778
 20
43.0143
 30
0.0
 10
-131.778
 20
43.0143
 30
0.0
 10
-132.1736
 20
37.8155
 30
0.0
 10
-133.7921
 20
32.6401
 30
0.0
 10
-136.8231
 20
28.2414
 30
0.0
 10
-136.8231
 20
28.2414
 30
0.0
 10
-137.6253
 20
26.933
 30
0.0
 10
-138.6644
 20
25.7684
 30
0.0
 10
-139.5587
 20
24.5122
 30
0.0
 10
-139.5587
 20
24.5122
 30
0.0
 10
-137.1237
 20
26.4328
 30
0.0
 10
-134.3993
 20
28.0095
 30
0.0
 10
-132.0817
 20
30.0628
 30
0.0
 10
-132.0817
 20
30.0628
 30
0.0
 10
-129.8503
 20
31.689
 30
0.0
 10
-127.9893
 20
33.706
 30
0.0
 10
-125.9584
 20
35.5404
 30
0.0
 10
-125.9584
 20
35.5404
 30
0.0
 10
-124.3483
 20
37.3386
 30
0.0
 10
-122.6768
 20
39.1029
 30
0.0
 10
-121.2785
 20
41.0572
 30
0.0
 10
-121.2785
 20
41.0572
 30
0.0
 10
-118.7823
 20
44.187
 30
0.0
 10
-116.8936
 20
47.7494
 30
0.0
 10
-115.718
 20
51.4966
 30
0.0
 10
-115.718
 20
51.4966
 30
0.0
 10
-114.8097
 20
54.5456
 30
0.0
 10
-114.6678
 20
57.928
 30
0.0
 10
-116.0244
 20
60.8805
 30
0.0
  0
SPLINE
  5
47
330
1F
100
AcDbEntity
  8
layer 1
 62
     7
370
     9
100
AcDbSpline
210
0.0
220
0.0
230
1.0
 70
    11
 71
     3
 72
    60
 73
    56
 74
     0
 42
0.0000000001
 43
0.0000000001
 12
1.0
 22
0.0
 32
0.0
 13
1.0
 23
0.0
 33
0.0
 40
0.0
 40
0.0
 40
0.0
 40
0.0
 40
0.0666666666666667
 40
0.0666666666666667
 40
0.0666666666666667
 40
0.0666666666666667
 40
0.1333333333333333
 40
0.1333333333333333
 40
0.1333333333333333
 40
0.1333333333333333
 40
0.2
 40
0.2
 40
0.2
 40
0.2
 40
0.2666666666666667
 40
0.2666666666666667
 40
0.2666666666666667
 40
0.2666666666666667
 40
0.3333333333333333
 40
0.3333333333333333
 40
0.3333333333333333
 40
0.3333333333333333
 40
0.4
 40
0.4
 40
0.4
 40
0.4
 40
0.4666666666666667
 40
0.4666666666666667
 40
0.4666666666666667
 40
0.4666666666666667
 40
0.5333333333333333
 40
0.5333333333333333
 40
0.5333333333333333
 40
0.5333333333333333
 40
0.6
 40
0.6
 40
0.6
 40
0.6
 40
0.6666666666666666
 40
0.6666666666666666
 40
0.6666666666666666
 40
0.6666666666666666
 40
0.7333333333333333
 40
0.7333333333333333
 40
0.7333333333333333
 40
0.7333333333333333
 40
0.8
 40
0.8
 40
0.8
 40
0.8
 40
0.8666666666666667
 40
0.8666666666666667
 40
0.8666666666666667
 40
0.8666666666666667
 40
1.0
 40
1.0
 40
1.0
 40
1.0
 10
-111.0601
 20
70.7568
 30
0.0
 10
-111.6342
 20
76.8939
 30
0.0
 10
-114.2417
 20
82.8354
 30
0.0
 10
-118.3813
 20
87.6198
 30
0.0
 10
-118.3813
 20
87.6198
 30
0.0
 10
-125.0726
 20
95.4089
 30
0.0
 10
-134.2658
 20
101.7753
 30
0.0
 10
-144.9239
 20
103.6776
 30
0.0
 10
-144.9239
 20
103.6776
 30
0.0
 10
-148.2113
 20
104.368
 30
0.0
 10
-152.0418
 20
104.1909
 30
0.0
 10
-154.6548
 20
101.9862
 30
0.0
 10
-154.6548
 20
101.9862
 30
0.0
 10
-156.3038
 20
100.5243
 30
0.0
 10
-157.2455
 20
98.3484
 30
0.0
 10
-157.0701
 20
96.2167
 30
0.0
 10
-157.0701
 20
96.2167
 30
0.0
 10
-156.9168
 20
93.4597
 30
0.0
 10
-155.2371
 20
90.9867
 30
0.0
 10
-153.1113
 20
89.1574
 30
0.0
 10
-153.1113
 20
89.1574
 30
0.0
 10
-151.075
 20
91.4714
 30
0.0
 10
-147.4118
 20
92.3627
 30
0.0
 10
-144.4811
 20
91.0857
 30
0.0
 10
-144.4811
 20
91.0857
 30
0.0
 10
-141.8039
 20
89.7905
 30
0.0
 10
-140.2661
 20
87.1612
 30
0.0
 10
-139.5139
 20
84.5267
 30
0.0
 10
-139.5139
 20
84.5267
 30
0.0
 10
-139.2271
 20
83.9403
 30
0.0
 10
-139.3582
 20
83.062
 30
0.0
 10
-138.6366
 20
82.7467
 30
0.0
 10
-138.6366
 20
82.7467
 30
0.0
 10
-137.3717
 20
82.0743
 30
0.0
 10
-136.0012
 20
81.5558
 30
0.0
 10
-134.5637
 20
81.3317
 30
0.0
 10
-134.5637
 20
81.3317
 30
0.0
 10
-132.4633
 20
80.92
 30
0.0
 10
-130.3099
 20
81.423
 30
0.0
 10
-128.3182
 20
82.0484
 30
0.0
 10
-128.3182
 20
82.0484
 30
0.0
 10
-126.4404
 20
82.7076
 30
0.0
 10
-124.2229
 20
82.6868
 30
0.0
 10
-122.4735
 20
81.707
 30
0.0
 10
-122.4735
 20
81.707
 30
0.0
 10
-119.1751
 20
79.8151
 30
0.0
 10
-116.5845
 20
76.9981
 30
0.0
 10
-114.7124
 20
73.8555
 30
0.0
 10
-114.7124
 20
73.8555
 30
0.0
 10
-112.361
 20
69.678
 30
0.0
 10
-111.4614
 20
64.878
 30
0.0
 10
-111.6202
 20
60.1874
 30
0.0
 10
-111.6202
 20
60.1874
 30
0.0
 10
-110.9515
 20
63.661
 30
0.0
 10
-110.5198
 20
67.2389
 30
0.0
 10
-111.0601
 20
70.7568
 30
0.0
  0
SPLINE
  5
48
330
1F
100
AcDbEntity
  8
layer 1
 62
     7
370
     9
100
AcDbSpline
210
0.0
220
0.0
230
1.0
 70
    11
 71
     3
 72
    36
 73
    32
 74
     0
 42
0.0000000001
 43
0.0000000001
 12
1.0
 22
0.0
 32
0.0
 13
1.0
 23
0.0
 33
0.0
 40
0.0
 40
0.0
 40
0.0
 40
0.0
 40
0.1111111111111111
 40
0.1111111111111111
 40
0.1111111111111111
 40
0.1111111111111111
 40
0.2222222222222222
 40
0.2222222222222222
 40
0.2222222222222222
 40
0.2222222222222222
 40
0.3333333333333333
 40
0.3333333333333333
 40
0.3333333333333333
 40
0.3333333333333333
 40
0.4444444444444444
 40
0.4444444444444444
 40
0.4444444444444444
 40
0.4444444444444444
 40
0.5555555555555556
 40
0.5555555555555556
 40
0.5555555555555556
 40
0.5555555555555556
 40
0.6666666666666666
 40
0.6666666666666666
 40
0.6666666666666666
 40
0.6666666666666666
 40
0.7777777777777778
 40
0.7777777777777778
 40
0.7777777777777778
 40
0.7777777777777778
 40
1.0
 40
1.0
 40
1.0
 40
1.0
 10
-104.7588
 20
38.3393
 30
0.0
 10
-105.4218
 20
39.8168
 30
0.0
 10
-106.9178
 20
41.0285
 30
0.0
 10
-108.6366
 20
41.2684
 30
0.0
 10
-108.6366
 20
41.2684
 30
0.0
 10
-112.5481
 20
42.0403
 30
0.0
 10
-120.5184
 20
34.9048
 30
0.0
 10
-122.649
 20
32.3509
 30
0.0
 10
-122.649
 20
32.3509
 30
0.0
 10
-120.5458
 20
32.489
 30
0.0
 10
-118.554
 20
31.6003
 30
0.0
 10
-116.9103
 20
30.4486
 30
0.0
 10
-116.9103
 20
30.4486
 30
0.0
 10
-116.3115
 20
31.2591
 30
0.0
 10
-115.6819
 20
32.158
 30
0.0
 10
-114.6621
 20
32.5334
 30
0.0
 10
-114.6621
 20
32.5334
 30
0.0
 10
-113.2386
 20
32.9397
 30
0.0
 10
-111.6843
 20
32.6767
 30
0.0
 10
-110.3972
 20
32.0199
 30
0.0
 10
-110.3972
 20
32.0199
 30
0.0
 10
-109.6673
 20
31.3787
 30
0.0
 10
-109.4557
 20
30.3939
 30
0.0
 10
-109.3135
 20
29.5026
 30
0.0
 10
-109.3135
 20
29.5026
 30
0.0
 10
-107.5278
 20
29.9561
 30
0.0
 10
-105.7894
 20
30.9984
 30
0.0
 10
-104.9956
 20
32.6115
 30
0.0
 10
-104.9956
 20
32.6115
 30
0.0
 10
-103.9564
 20
34.3547
 30
0.0
 10
-104.1543
 20
36.4969
 30
0.0
 10
-104.7588
 20
38.3393
 30
0.0
  0
SPLINE
  5
49
330
1F
100
AcDbEntity
  8
layer 1
 62
     7
370
     9
100
AcDbSpline
210
0.0
220
0.0
230
1.0
 70
    11
 71
     3
 72
    36
 73
    32
 74
     0
 42
0.0000000001
 43
0.0000000001
 12
1.0
 22
0.0
 32
0.0
 13
1.0
 23
0.0
 33
0.0
 40
0.0
 40
0.0
 40
0.0
 40
0.0
 40
0.1111111111111111
 40
0.1111111111111111
 40
0.1111111111111111
 40
0.1111111111111111
 40
0.2222222222222222
 40
0.2222222222222222
 40
0.2222222222222222
 40
0.2222222222222222
 40
0.3333333333333333
 40
0.3333333333333333
 40
0.3333333333333333
 40
0.3333333333333333
 40
0.4444444444444444
 40
0.4444444444444444
 40
0.4444444444444444
 40
0.4444444444444444
 40
0.5555555555555556
 40
0.5555555555555556
 40
0.5555555555555556
 40
0.5555555555555556
 40
0.6666666666666666
 40
0.6666666666666666
 40
0.6666666666666666
 40
0.6666666666666666
 40
0.7777777777777778
 40
0.7777777777777778
 40
0.7777777777777778
 40
0.7777777777777778
 40
1.0
 40
1.0
 40
1.0
 40
1.0
 10
-154.2285
 20
-64.2439
 30
0.0
 10
-154.8777
 20
-65.5129
 30
0.0
 10
-154.7049
 20
-66.9513
 30
0.0
 10
-154.5766
 20
-68.3038
 30
0.0
 10
-154.5766
 20
-68.3038
 30
0.0
 10
-157.6105
 20
-68.5487
 30
0.0
 10
-160.8475
 20
-69.2499
 30
0.0
 10
-163.0287
 20
-71.3814
 30
0.0
 10
-163.0287
 20
-71.3814
 30
0.0
 10
-165.6725
 20
-73.6589
 30
0.0
 10
-166.9371
 20
-77.0101
 30
0.0
 10
-167.2353
 20
-80.2963
 30
0.0
 10
-167.2353
 20
-80.2963
 30
0.0
 10
-171.0016
 20
-78.1985
 30
0.0
 10
-173.8542
 20
-74.5346
 30
0.0
 10
-174.3473
 20
-70.4095
 30
0.0
 10
-174.3473
 20
-70.4095
 30
0.0
 10
-175.08
 20
-63.3735
 30
0.0
 10
-169.7451
 20
-56.3244
 30
0.0
 10
-162.5079
 20
-54.4221
 30
0.0
 10
-162.5079
 20
-54.4221
 30
0.0
 10
-159.4546
 20
-53.6193
 30
0.0
 10
-156.1089
 20
-54.0103
 30
0.0
 10
-153.2953
 20
-55.3575
 30
0.0
 10
-153.2953
 20
-55.3575
 30
0.0
 10
-151.2949
 20
-56.2252
 30
0.0
 10
-149.6655
 20
-57.63
 30
0.0
 10
-148.0136
 20
-58.9589
 30
0.0
 10
-148.0136
 20
-58.9589
 30
0.0
 10
-150.5234
 20
-60.1369
 30
0.0
 10
-153.1895
 20
-61.6666
 30
0.0
 10
-154.2285
 20
-64.2439
 30
0.0
  0
SPLINE
  5
4A
330
1F
100
AcDbEntity
  8
layer 1
 62
     7
370
     9
100
AcDbSpline
210
0.0
220
0.0
230
1.0
 70
    11
 71
     3
 72
    40
 73
    36
 74
     0
 42
0.0000000001
 43
0.0000000001
 12
1.0
 22
0.0
 32
0.0
 13
1.0
 23
0.0
 33
0.0
 40
0.0
 40
0.0
 40
0.0
 40
0.0
 40
0.1
 40
0.1
 40
0.1
 40
0.1
 40
0.2
 40
0.2
 40
0.2
 40
0.2
 40
0.3
 40
0.3
 40
0.3
 40
0.3
 40
0.4
 40
0.4
 40
0.4
 40
0.4
 40
0.5
 40
0.5
 40
0.5
 40
0.5
 40
0.6
 40
0.6
 40
0.6
 40
0.6
 40
0.7
 40
0.7
 40
0.7
 40
0.7
 40
0.8
 40
0.8
 40
0.8
 40
0.8
 40
1.0
 40
1.0
 40
1.0
 40
1.0
 10
-154.8218
 20
-48.6082
 30
0.0
 10
-157.7301
 20
-48.0662
 30
0.0
 10
-160.7248
 20
-48.1835
 30
0.0
 10
-163.6111
 20
-48.8063
 30
0.0
 10
-163.6111
 20
-48.8063
 30
0.0
 10
-162.1261
 20
-47.4277
 30
0.0
 10
-160.672
 20
-45.8251
 30
0.0
 10
-160.399
 20
-43.8081
 30
0.0
 10
-160.399
 20
-43.8081
 30
0.0
 10
-159.8502
 20
-41.4316
 30
0.0
 10
-160.6358
 20
-39.0524
 30
0.0
 10
-161.0537
 20
-36.7148
 30
0.0
 10
-161.0537
 20
-36.7148
 30
0.0
 10
-158.9169
 20
-37.3402
 30
0.0
 10
-156.6411
 20
-37.4992
 30
0.0
 10
-154.4458
 20
-37.0407
 30
0.0
 10
-154.4458
 20
-37.0407
 30
0.0
 10
-154.1087
 20
-37.6946
 30
0.0
 10
-153.8413
 20
-38.4112
 30
0.0
 10
-153.273
 20
-38.9246
 30
0.0
 10
-153.273
 20
-38.9246
 30
0.0
 10
-151.9218
 20
-40.303
 30
0.0
 10
-149.7797
 20
-40.7201
 30
0.0
 10
-147.8601
 20
-40.4621
 30
0.0
 10
-147.8601
 20
-40.4621
 30
0.0
 10
-152.3006
 20
-35.9693
 30
0.0
 10
-148.5136
 20
-32.8905
 30
0.0
 10
-144.5284
 20
-29.645
 30
0.0
 10
-144.5284
 20
-29.645
 30
0.0
 10
-143.2609
 20
-32.0345
 30
0.0
 10
-141.5061
 20
-34.1637
 30
0.0
 10
-139.4499
 20
-36.0034
 30
0.0
 10
-139.4499
 20
-36.0034
 30
0.0
 10
-144.3734
 20
-49.0893
 30
0.0
 10
-146.1108
 20
-42.1372
 30
0.0
 10
-154.8218
 20
-48.6082
 30
0.0
  0
SPLINE
  5
4B
330
1F
100
AcDbEntity
  8
layer 1
 62
     7
370
     9
100
AcDbSpline
210
0.0
220
0.0
230
1.0
 70
    11
 71
     3
 72
    76
 73
    72
 74
     0
 42
0.0000000001
 43
0.0000000001
 12
1.0
 22
0.0
 32
0.0
 13
1.0
 23
0.0
 33
0.0
 40
0.0
 40
0.0
 40
0.0
 40
0.0
 40
0.0526315789473684
 40
0.0526315789473684
 40
0.0526315789473684
 40
0.0526315789473684
 40
0.1052631578947368
 40
0.1052631578947368
 40
0.1052631578947368
 40
0.1052631578947368
 40
0.1578947368421053
 40
0.1578947368421053
 40
0.1578947368421053
 40
0.1578947368421053
 40
0.2105263157894737
 40
0.2105263157894737
 40
0.2105263157894737
 40
0.2105263157894737
 40
0.2631578947368421
 40
0.2631578947368421
 40
0.2631578947368421
 40
0.2631578947368421
 40
0.3157894736842105
 40
0.3157894736842105
 40
0.3157894736842105
 40
0.3157894736842105
 40
0.3684210526315789
 40
0.3684210526315789
 40
0.3684210526315789
 40
0.3684210526315789
 40
0.4210526315789473
 40
0.4210526315789473
 40
0.4210526315789473
 40
0.4210526315789473
 40
0.4736842105263158
 40
0.4736842105263158
 40
0.4736842105263158
 40
0.4736842105263158
 40
0.5263157894736842
 40
0.5263157894736842
 40
0.5263157894736842
 40
0.5263157894736842
 40
0.5789473684210527
 40
0.5789473684210527
 40
0.5789473684210527
 40
0.5789473684210527
 40
0.631578947368421
 40
0.631578947368421
 40
0.631578947368421
 40
0.631578947368421
 40
0.6842105263157895
 40
0.6842105263157895
 40
0.6842105263157895
 40
0.6842105263157895
 40
0.7368421052631579
 40
0.7368421052631579
 40
0.7368421052631579
 40
0.7368421052631579
 40
0.7894736842105263
 40
0.7894736842105263
 40
0.7894736842105263
 40
0.7894736842105263
 40
0.8421052631578947
 40
0.8421052631578947
 40
0.8421052631578947
 40
0.8421052631578947
 40
0.8947368421052632
 40
0.8947368421052632
 40
0.8947368421052632
 40
0.8947368421052632
 40
1.0
 40
1.0
 40
1.0
 40
1.0
 10
-116.0244
 20
-42.3696
 30
0.0
 10
-116.888
 20
-44.5717
 30
0.0
 10
-118.5985
 20
-46.3542
 30
0.0
 10
-120.3898
 20
-47.9437
 30
0.0
 10
-120.3898
 20
-47.9437
 30
0.0
 10
-124.2955
 20
-51.7457
 30
0.0
 10
-129.7639
 20
-53.4421
 30
0.0
 10
-134.4913
 20
-56.1159
 30
0.0
 10
-134.4913
 20
-56.1159
 30
0.0
 10
-136.8312
 20
-57.3798
 30
0.0
 10
-139.1157
 20
-58.9798
 30
0.0
 10
-140.2969
 20
-61.3252
 30
0.0
 10
-140.2969
 20
-61.3252
 30
0.0
 10
-141.6898
 20
-58.1954
 30
0.0
 10
-143.6593
 20
-55.2845
 30
0.0
 10
-146.1859
 20
-52.8482
 30
0.0
 10
-146.1859
 20
-52.8482
 30
0.0
 10
-143.6037
 20
-52.9837
 30
0.0
 10
-140.79
 20
-52.1209
 30
0.0
 10
-139.3915
 20
-49.966
 30
0.0
 10
-139.3915
 20
-49.966
 30
0.0
 10
-137.8955
 20
-47.4563
 30
0.0
 10
-138.2743
 20
-44.4962
 30
0.0
 10
-138.1685
 20
-41.739
 30
0.0
 10
-138.1685
 20
-41.739
 30
0.0
 10
-138.1573
 20
-40.5925
 30
0.0
 10
-138.2214
 20
-39.1409
 30
0.0
 10
-137.0291
 20
-38.4531
 30
0.0
 10
-137.0291
 20
-38.4531
 30
0.0
 10
-136.2631
 20
-38.1532
 30
0.0
 10
-135.6363
 20
-38.7526
 30
0.0
 10
-134.9955
 20
-39.0367
 30
0.0
 10
-134.9955
 20
-39.0367
 30
0.0
 10
-132.9704
 20
-40.0321
 30
0.0
 10
-130.8002
 20
-40.8479
 30
0.0
 10
-128.5187
 20
-41.1267
 30
0.0
 10
-128.5187
 20
-41.1267
 30
0.0
 10
-130.1985
 20
-38.5233
 30
0.0
 10
-131.544
 20
-35.662
 30
0.0
 10
-131.7196
 20
-32.587
 30
0.0
 10
-131.7196
 20
-32.587
 30
0.0
 10
-131.7837
 20
-29.8925
 30
0.0
 10
-131.8643
 20
-27.1981
 30
0.0
 10
-131.778
 20
-24.5035
 30
0.0
 10
-131.778
 20
-24.5035
 30
0.0
 10
-132.1736
 20
-19.3047
 30
0.0
 10
-133.7921
 20
-14.1293
 30
0.0
 10
-136.8231
 20
-9.7306
 30
0.0
 10
-136.8231
 20
-9.7306
 30
0.0
 10
-137.6253
 20
-8.4222
 30
0.0
 10
-138.6644
 20
-7.2575
 30
0.0
 10
-139.5587
 20
-6.0014
 30
0.0
 10
-139.5587
 20
-6.0014
 30
0.0
 10
-137.1237
 20
-7.9219
 30
0.0
 10
-134.3993
 20
-9.4987
 30
0.0
 10
-132.0817
 20
-11.552
 30
0.0
 10
-132.0817
 20
-11.552
 30
0.0
 10
-129.8503
 20
-13.1781
 30
0.0
 10
-127.9893
 20
-15.1952
 30
0.0
 10
-125.9584
 20
-17.0296
 30
0.0
 10
-125.9584
 20
-17.0296
 30
0.0
 10
-124.3483
 20
-18.8278
 30
0.0
 10
-122.6768
 20
-20.5921
 30
0.0
 10
-121.2785
 20
-22.5463
 30
0.0
 10
-121.2785
 20
-22.5463
 30
0.0
 10
-118.7823
 20
-25.6762
 30
0.0
 10
-116.8936
 20
-29.2385
 30
0.0
 10
-115.718
 20
-32.9858
 30
0.0
 10
-115.718
 20
-32.9858
 30
0.0
 10
-114.8097
 20
-36.0347
 30
0.0
 10
-114.6678
 20
-39.4172
 30
0.0
 10
-116.0244
 20
-42.3696
 30
0.0
  0
SPLINE
  5
4C
330
1F
100
AcDbEntity
  8
layer 1
 62
     7
370
     9
100
AcDbSpline
210
0.0
220
0.0
230
1.0
 70
    11
 71
     3
 72
    60
 73
    56
 74
     0
 42
0.0000000001
 43
0.0000000001
 12
1.0
 22
0.0
 32
0.0
 13
1.0
 23
0.0
 33
0.0
 40
0.0
 40
0.0
 40
0.0
 40
0.0
 40
0.0666666666666667
 40
0.0666666666666667
 40
0.0666666666666667
 40
0.0666666666666667
 40
0.1333333333333333
 40
0.1333333333333333
 40
0.1333333333333333
 40
0.1333333333333333
 40
0.2
 40
0.2
 40
0.2
 40
0.2
 40
0.2666666666666667
 40
0.2666666666666667
 40
0.2666666666666667
 40
0.2666666666666667
 40
0.3333333333333333
 40
0.3333333333333333
 40
0.3333333333333333
 40
0.3333333333333333
 40
0.4
 40
0.4
 40
0.4
 40
0.4
 40
0.4666666666666667
 40
0.4666666666666667
 40
0.4666666666666667
 40
0.4666666666666667
 40
0.5333333333333333
 40
0.5333333333333333
 40
0.5333333333333333
 40
0.5333333333333333
 40
0.6
 40
0.6
 40
0.6
 40
0.6
 40
0.6666666666666666
 40
0.6666666666666666
 40
0.6666666666666666
 40
0.6666666666666666
 40
0.7333333333333333
 40
0.7333333333333333
 40
0.7333333333333333
 40
0.7333333333333333
 40
0.8
 40
0.8
 40
0.8
 40
0.8
 40
0.8666666666666667
 40
0.8666666666666667
 40
0.8666666666666667
 40
0.8666666666666667
 40
1.0
 40
1.0
 40
1.0
 40
1.0
 10
-111.0601
 20
-52.246
 30
0.0
 10
-111.6342
 20
-58.383
 30
0.0
 10
-114.2417
 20
-64.3245
 30
0.0
 10
-118.3813
 20
-69.109
 30
0.0
 10
-118.3813
 20
-69.109
 30
0.0
 10
-125.0726
 20
-76.8981
 30
0.0
 10
-134.2658
 20
-83.2645
 30
0.0
 10
-144.9239
 20
-85.1667
 30
0.0
 10
-144.9239
 20
-85.1667
 30
0.0
 10
-148.2113
 20
-85.8571
 30
0.0
 10
-152.0418
 20
-85.68
 30
0.0
 10
-154.6548
 20
-83.4753
 30
0.0
 10
-154.6548
 20
-83.4753
 30
0.0
 10
-156.3038
 20
-82.0135
 30
0.0
 10
-157.2455
 20
-79.8375
 30
0.0
 10
-157.0701
 20
-77.7058
 30
0.0
 10
-157.0701
 20
-77.7058
 30
0.0
 10
-156.9168
 20
-74.9489
 30
0.0
 10
-155.2371
 20
-72.4758
 30
0.0
 10
-153.1113
 20
-70.6466
 30
0.0
 10
-153.1113
 20
-70.6466
 30
0.0
 10
-151.075
 20
-72.9606
 30
0.0
 10
-147.4118
 20
-73.8518
 30
0.0
 10
-144.4811
 20
-72.5748
 30
0.0
 10
-144.4811
 20
-72.5748
 30
0.0
 10
-141.8039
 20
-71.2797
 30
0.0
 10
-140.2661
 20
-68.6504
 30
0.0
 10
-139.5139
 20
-66.0158
 30
0.0
 10
-139.5139
 20
-66.0158
 30
0.0
 10
-139.2271
 20
-65.4294
 30
0.0
 10
-139.3582
 20
-64.5512
 30
0.0
 10
-138.6366
 20
-64.2359
 30
0.0
 10
-138.6366
 20
-64.2359
 30
0.0
 10
-137.3717
 20
-63.5635
 30
0.0
 10
-136.0012
 20
-63.045
 30
0.0
 10
-134.5637
 20
-62.8209
 30
0.0
 10
-134.5637
 20
-62.8209
 30
0.0
 10
-132.4633
 20
-62.4091
 30
0.0
 10
-130.3099
 20
-62.9122
 30
0.0
 10
-128.3182
 20
-63.5376
 30
0.0
 10
-128.3182
 20
-63.5376
 30
0.0
 10
-126.4404
 20
-64.1968
 30
0.0
 10
-124.2229
 20
-64.176
 30
0.0
 10
-122.4735
 20
-63.1962
 30
0.0
 10
-122.4735
 20
-63.1962
 30
0.0
 10
-119.1751
 20
-61.3042
 30
0.0
 10
-116.5845
 20
-58.4873
 30
0.0
 10
-114.7124
 20
-55.3446
 30
0.0
 10
-114.7124
 20
-55.3446
 30
0.0
 10
-112.361
 20
-51.1672
 30
0.0
 10
-111.4614
 20
-46.3672
 30
0.0
 10
-111.6202
 20
-41.6766
 30
0.0
 10
-111.6202
 20
-41.6766
 30
0.0
 10
-110.9515
 20
-45.1502
 30
0.0
 10
-110.5198
 20
-48.7281
 30
0.0
 10
-111.0601
 20
-52.246
 30
0.0
  0
SPLINE
  5
4D
330
1F
100
AcDbEntity
  8
layer 1
 62
     7
370
     9
100
AcDbSpline
210
0.0
220
0.0
230
1.0
 70
    11
 71
     3
 72
    36
 73
    32
 74
     0
 42
0.0000000001
 43
0.0000000001
 12
1.0
 22
0.0
 32
0.0
 13
1.0
 23
0.0
 33
0.0
 40
0.0
 40
0.0
 40
0.0
 40
0.0
 40
0.1111111111111111
 40
0.1111111111111111
 40
0.1111111111111111
 40
0.1111111111111111
 40
0.2222222222222222
 40
0.2222222222222222
 40
0.2222222222222222
 40
0.2222222222222222
 40
0.3333333333333333
 40
0.3333333333333333
 40
0.3333333333333333
 40
0.3333333333333333
 40
0.4444444444444444
 40
0.4444444444444444
 40
0.4444444444444444
 40
0.4444444444444444
 40
0.5555555555555556
 40
0.5555555555555556
 40
0.5555555555555556
 40
0.5555555555555556
 40
0.6666666666666666
 40
0.6666666666666666
 40
0.6666666666666666
 40
0.6666666666666666
 40
0.7777777777777778
 40
0.7777777777777778
 40
0.7777777777777778
 40
0.7777777777777778
 40
1.0
 40
1.0
 40
1.0
 40
1.0
 10
-104.7588
 20
-19.8285
 30
0.0
 10
-105.4218
 20
-21.306
 30
0.0
 10
-106.9178
 20
-22.5177
 30
0.0
 10
-108.6366
 20
-22.7575
 30
0.0
 10
-108.6366
 20
-22.7575
 30
0.0
 10
-112.5481
 20
-23.5295
 30
0.0
 10
-120.5184
 20
-16.394
 30
0.0
 10
-122.649
 20
-13.8401
 30
0.0
 10
-122.649
 20
-13.8401
 30
0.0
 10
-120.5458
 20
-13.9782
 30
0.0
 10
-118.554
 20
-13.0895
 30
0.0
 10
-116.9103
 20
-11.9378
 30
0.0
 10
-116.9103
 20
-11.9378
 30
0.0
 10
-116.3115
 20
-12.7483
 30
0.0
 10
-115.6819
 20
-13.6472
 30
0.0
 10
-114.6621
 20
-14.0226
 30
0.0
 10
-114.6621
 20
-14.0226
 30
0.0
 10
-113.2386
 20
-14.4289
 30
0.0
 10
-111.6843
 20
-14.1658
 30
0.0
 10
-110.3972
 20
-13.5091
 30
0.0
 10
-110.3972
 20
-13.5091
 30
0.0
 10
-109.6673
 20
-12.8678
 30
0.0
 10
-109.4557
 20
-11.883
 30
0.0
 10
-109.3135
 20
-10.9918
 30
0.0
 10
-109.3135
 20
-10.9918
 30
0.0
 10
-107.5278
 20
-11.4453
 30
0.0
 10
-105.7894
 20
-12.4875
 30
0.0
 10
-104.9956
 20
-14.1007
 30
0.0
 10
-104.9956
 20
-14.1007
 30
0.0
 10
-103.9564
 20
-15.8439
 30
0.0
 10
-104.1543
 20
-17.9861
 30
0.0
 10
-104.7588
 20
-19.8285
 30
0.0
  0
SPLINE
  5
4E
330
1F
100
AcDbEntity
  8
layer 1
 62
     7
370
     9
100
AcDbSpline
210
0.0
220
0.0
230
1.0
 70
    11
 71
     3
 72
    36
 73
    32
 74
     0
 42
0.0000000001
 43
0.0000000001
 12
1.0
 22
0.0
 32
0.0
 13
1.0
 23
0.0
 33
0.0
 40
0.0
 40
0.0
 40
0.0
 40
0.0
 40
0.1111111111111111
 40
0.1111111111111111
 40
0.1111111111111111
 40
0.1111111111111111
 40
0.2222222222222222
 40
0.2222222222222222
 40
0.2222222222222222
 40
0.2222222222222222
 40
0.3333333333333333
 40
0.3333333333333333
 40
0.3333333333333333
 40
0.3333333333333333
 40
0.4444444444444444
 40
0.4444444444444444
 40
0.4444444444444444
 40
0.4444444444444444
 40
0.5555555555555556
 40
0.5555555555555556
 40
0.5555555555555556
 40
0.5555555555555556
 40
0.6666666666666666
 40
0.6666666666666666
 40
0.6666666666666666
 40
0.6666666666666666
 40
0.7777777777777778
 40
0.7777777777777778
 40
0.7777777777777778
 40
0.7777777777777778
 40
1.0
 40
1.0
 40
1.0
 40
1.0
 10
-49.3683
 20
82.7547
 30
0.0
 10
-48.7191
 20
84.0237
 30
0.0
 10
-48.8919
 20
85.4621
 30
0.0
 10
-49.0202
 20
86.8146
 30
0.0
 10
-49.0202
 20
86.8146
 30
0.0
 10
-45.9863
 20
87.0596
 30
0.0
 10
-42.7493
 20
87.7607
 30
0.0
 10
-40.5681
 20
89.8922
 30
0.0
 10
-40.5681
 20
89.8922
 30
0.0
 10
-37.9243
 20
92.1697
 30
0.0
 10
-36.6597
 20
95.5209
 30
0.0
 10
-36.3615
 20
98.8071
 30
0.0
 10
-36.3615
 20
98.8071
 30
0.0
 10
-32.5952
 20
96.7093
 30
0.0
 10
-29.7426
 20
93.0454
 30
0.0
 10
-29.2495
 20
88.9203
 30
0.0
 10
-29.2495
 20
88.9203
 30
0.0
 10
-28.5168
 20
81.8843
 30
0.0
 10
-33.8517
 20
74.8353
 30
0.0
 10
-41.0889
 20
72.9329
 30
0.0
 10
-41.0889
 20
72.9329
 30
0.0
 10
-44.1422
 20
72.1302
 30
0.0
 10
-47.4879
 20
72.5211
 30
0.0
 10
-50.3015
 20
73.8684
 30
0.0
 10
-50.3015
 20
73.8684
 30
0.0
 10
-52.3019
 20
74.7361
 30
0.0
 10
-53.9313
 20
76.1408
 30
0.0
 10
-55.5832
 20
77.4697
 30
0.0
 10
-55.5832
 20
77.4697
 30
0.0
 10
-53.0734
 20
78.6477
 30
0.0
 10
-50.4073
 20
80.1775
 30
0.0
 10
-49.3683
 20
82.7547
 30
0.0
  0
SPLINE
  5
4F
330
1F
100
AcDbEntity
  8
layer 1
 62
     7
370
     9
100
AcDbSpline
210
0.0
220
0.0
230
1.0
 70
    11
 71
     3
 72
    40
 73
    36
 74
     0
 42
0.0000000001
 43
0.0000000001
 12
1.0
 22
0.0
 32
0.0
 13
1.0
 23
0.0
 33
0.0
 40
0.0
 40
0.0
 40
0.0
 40
0.0
 40
0.1
 40
0.1
 40
0.1
 40
0.1
 40
0.2
 40
0.2
 40
0.2
 40
0.2
 40
0.3
 40
0.3
 40
0.3
 40
0.3
 40
0.4
 40
0.4
 40
0.4
 40
0.4
 40
0.5
 40
0.5
 40
0.5
 40
0.5
 40
0.6
 40
0.6
 40
0.6
 40
0.6
 40
0.7
 40
0.7
 40
0.7
 40
0.7
 40
0.8
 40
0.8
 40
0.8
 40
0.8
 40
1.0
 40
1.0
 40
1.0
 40
1.0
 10
-48.775
 20
67.119
 30
0.0
 10
-45.8667
 20
66.577
 30
0.0
 10
-42.872
 20
66.6943
 30
0.0
 10
-39.9857
 20
67.3171
 30
0.0
 10
-39.9857
 20
67.3171
 30
0.0
 10
-41.4707
 20
65.9385
 30
0.0
 10
-42.9248
 20
64.3359
 30
0.0
 10
-43.1978
 20
62.3189
 30
0.0
 10
-43.1978
 20
62.3189
 30
0.0
 10
-43.7466
 20
59.9424
 30
0.0
 10
-42.961
 20
57.5632
 30
0.0
 10
-42.5431
 20
55.2256
 30
0.0
 10
-42.5431
 20
55.2256
 30
0.0
 10
-44.6799
 20
55.851
 30
0.0
 10
-46.9557
 20
56.01
 30
0.0
 10
-49.151
 20
55.5515
 30
0.0
 10
-49.151
 20
55.5515
 30
0.0
 10
-49.4881
 20
56.2054
 30
0.0
 10
-49.7555
 20
56.922
 30
0.0
 10
-50.3238
 20
57.4354
 30
0.0
 10
-50.3238
 20
57.4354
 30
0.0
 10
-51.675
 20
58.8139
 30
0.0
 10
-53.8171
 20
59.2309
 30
0.0
 10
-55.7367
 20
58.973
 30
0.0
 10
-55.7367
 20
58.973
 30
0.0
 10
-51.2962
 20
54.4801
 30
0.0
 10
-55.0832
 20
51.4013
 30
0.0
 10
-59.0684
 20
48.1558
 30
0.0
 10
-59.0684
 20
48.1558
 30
0.0
 10
-60.3359
 20
50.5454
 30
0.0
 10
-62.0907
 20
52.6745
 30
0.0
 10
-64.1469
 20
54.5142
 30
0.0
 10
-64.1469
 20
54.5142
 30
0.0
 10
-59.2234
 20
67.6002
 30
0.0
 10
-57.486
 20
60.6481
 30
0.0
 10
-48.775
 20
67.119
 30
0.0
  0
SPLINE
  5
50
330
1F
100
AcDbEntity
  8
layer 1
 62
     7
370
     9
100
AcDbSpline
210
0.0
220
0.0
230
1.0
 70
    11
 71
     3
 72
    76
 73
    72
 74
     0
 42
0.0000000001
 43
0.0000000001
 12
1.0
 22
0.0
 32
0.0
 13
1.0
 23
0.0
 33
0.0
 40
0.0
 40
0.0
 40
0.0
 40
0.0
 40
0.0526315789473684
 40
0.0526315789473684
 40
0.0526315789473684
 40
0.0526315789473684
 40
0.1052631578947368
 40
0.1052631578947368
 40
0.1052631578947368
 40
0.1052631578947368
 40
0.1578947368421053
 40
0.1578947368421053
 40
0.1578947368421053
 40
0.1578947368421053
 40
0.2105263157894737
 40
0.2105263157894737
 40
0.2105263157894737
 40
0.2105263157894737
 40
0.2631578947368421
 40
0.2631578947368421
 40
0.2631578947368421
 40
0.2631578947368421
 40
0.3157894736842105
 40
0.3157894736842105
 40
0.3157894736842105
 40
0.3157894736842105
 40
0.3684210526315789
 40
0.3684210526315789
 40
0.3684210526315789
 40
0.3684210526315789
 40
0.4210526315789473
 40
0.4210526315789473
 40
0.4210526315789473
 40
0.4210526315789473
 40
0.4736842105263158
 40
0.4736842105263158
 40
0.4736842105263158
 40
0.4736842105263158
 40
0.5263157894736842
 40
0.5263157894736842
 40
0.5263157894736842
 40
0.5263157894736842
 40
0.5789473684210527
 40
0.5789473684210527
 40
0.5789473684210527
 40
0.5789473684210527
 40
0.631578947368421
 40
0.631578947368421
 40
0.631578947368421
 40
0.631578947368421
 40
0.6842105263157895
 40
0.6842105263157895
 40
0.6842105263157895
 40
0.6842105263157895
 40
0.7368421052631579
 40
0.7368421052631579
 40
0.7368421052631579
 40
0.7368421052631579
 40
0.7894736842105263
 40
0.7894736842105263
 40
0.7894736842105263
 40
0.7894736842105263
 40
0.8421052631578947
 40
0.8421052631578947
 40
0.8421052631578947
 40
0.8421052631578947
 40
0.8947368421052632
 40
0.8947368421052632
 40
0.8947368421052632
 40
0.8947368421052632
 40
1.0
 40
1.0
 40
1.0
 40
1.0
 10
-87.5724
 20
60.8805
 30
0.0
 10
-86.7088
 20
63.0825
 30
0.0
 10
-84.9983
 20
64.865
 30
0.0
 10
-83.207
 20
66.4545
 30
0.0
 10
-83.207
 20
66.4545
 30
0.0
 10
-79.3013
 20
70.2565
 30
0.0
 10
-73.8329
 20
71.953
 30
0.0
 10
-69.1055
 20
74.6267
 30
0.0
 10
-69.1055
 20
74.6267
 30
0.0
 10
-66.7656
 20
75.8906
 30
0.0
 10
-64.4811
 20
77.4906
 30
0.0
 10
-63.2999
 20
79.8361
 30
0.0
 10
-63.2999
 20
79.8361
 30
0.0
 10
-61.907
 20
76.7062
 30
0.0
 10
-59.9375
 20
73.7954
 30
0.0
 10
-57.4109
 20
71.359
 30
0.0
 10
-57.4109
 20
71.359
 30
0.0
 10
-59.9931
 20
71.4945
 30
0.0
 10
-62.8068
 20
70.6317
 30
0.0
 10
-64.2053
 20
68.4768
 30
0.0
 10
-64.2053
 20
68.4768
 30
0.0
 10
-65.7013
 20
65.9671
 30
0.0
 10
-65.3225
 20
63.0071
 30
0.0
 10
-65.4283
 20
60.2499
 30
0.0
 10
-65.4283
 20
60.2499
 30
0.0
 10
-65.4395
 20
59.1033
 30
0.0
 10
-65.3754
 20
57.6517
 30
0.0
 10
-66.5677
 20
56.9639
 30
0.0
 10
-66.5677
 20
56.9639
 30
0.0
 10
-67.3337
 20
56.664
 30
0.0
 10
-67.9605
 20
57.2634
 30
0.0
 10
-68.6013
 20
57.5475
 30
0.0
 10
-68.6013
 20
57.5475
 30
0.0
 10
-70.6264
 20
58.5429
 30
0.0
 10
-72.7966
 20
59.3587
 30
0.0
 10
-75.0781
 20
59.6376
 30
0.0
 10
-75.0781
 20
59.6376
 30
0.0
 10
-73.3983
 20
57.0341
 30
0.0
 10
-72.0528
 20
54.1728
 30
0.0
 10
-71.8772
 20
51.0979
 30
0.0
 10
-71.8772
 20
51.0979
 30
0.0
 10
-71.8131
 20
48.4033
 30
0.0
 10
-71.7325
 20
45.7089
 30
0.0
 10
-71.8188
 20
43.0143
 30
0.0
 10
-71.8188
 20
43.0143
 30
0.0
 10
-71.4232
 20
37.8155
 30
0.0
 10
-69.8047
 20
32.6401
 30
0.0
 10
-66.7737
 20
28.2414
 30
0.0
 10
-66.7737
 20
28.2414
 30
0.0
 10
-65.9715
 20
26.933
 30
0.0
 10
-64.9324
 20
25.7684
 30
0.0
 10
-64.0381
 20
24.5122
 30
0.0
 10
-64.0381
 20
24.5122
 30
0.0
 10
-66.4731
 20
26.4328
 30
0.0
 10
-69.1975
 20
28.0095
 30
0.0
 10
-71.5151
 20
30.0628
 30
0.0
 10
-71.5151
 20
30.0628
 30
0.0
 10
-73.7465
 20
31.689
 30
0.0
 10
-75.6075
 20
33.706
 30
0.0
 10
-77.6384
 20
35.5404
 30
0.0
 10
-77.6384
 20
35.5404
 30
0.0
 10
-79.2485
 20
37.3386
 30
0.0
 10
-80.92
 20
39.1029
 30
0.0
 10
-82.3183
 20
41.0572
 30
0.0
 10
-82.3183
 20
41.0572
 30
0.0
 10
-84.8145
 20
44.187
 30
0.0
 10
-86.7032
 20
47.7494
 30
0.0
 10
-87.8788
 20
51.4966
 30
0.0
 10
-87.8788
 20
51.4966
 30
0.0
 10
-88.7871
 20
54.5456
 30
0.0
 10
-88.929
 20
57.928
 30
0.0
 10
-87.5724
 20
60.8805
 30
0.0
  0
SPLINE
  5
51
330
1F
100
AcDbEntity
  8
layer 1
 62
     7
370
     9
100
AcDbSpline
210
0.0
220
0.0
230
1.0
 70
    11
 71
     3
 72
    60
 73
    56
 74
     0
 42
0.0000000001
 43
0.0000000001
 12
1.0
 22
0.0
 32
0.0
 13
1.0
 23
0.0
 33
0.0
 40
0.0
 40
0.0
 40
0.0
 40
0.0
 40
0.0666666666666667
 40
0.0666666666666667
 40
0.0666666666666667
 40
0.0666666666666667
 40
0.1333333333333333
 40
0.1333333333333333
 40
0.1333333333333333
 40
0.1333333333333333
 40
0.2
 40
0.2
 40
0.2
 40
0.2
 40
0.2666666666666667
 40
0.2666666666666667
 40
0.2666666666666667
 40
0.2666666666666667
 40
0.3333333333333333
 40
0.3333333333333333
 40
0.3333333333333333
 40
0.3333333333333333
 40
0.4
 40
0.4
 40
0.4
 40
0.4
 40
0.4666666666666667
 40
0.4666666666666667
 40
0.4666666666666667
 40
0.4666666666666667
 40
0.5333333333333333
 40
0.5333333333333333
 40
0.5333333333333333
 40
0.5333333333333333
 40
0.6
 40
0.6
 40
0.6
 40
0.6
 40
0.6666666666666666
 40
0.6666666666666666
 40
0.6666666666666666
 40
0.6666666666666666
 40
0.7333333333333333
 40
0.7333333333333333
 40
0.7333333333333333
 40
0.7333333333333333
 40
0.8
 40
0.8
 40
0.8
 40
0.8
 40
0.8666666666666667
 40
0.8666666666666667
 40
0.8666666666666667
 40
0.8666666666666667
 40
1.0
 40
1.0
 40
1.0
 40
1.0
 10
-92.5367
 20
70.7568
 30
0.0
 10
-91.9626
 20
76.8939
 30
0.0
 10
-89.3551
 20
82.8354
 30
0.0
 10
-85.2155
 20
87.6198
 30
0.0
 10
-85.2155
 20
87.6198
 30
0.0
 10
-78.5242
 20
95.4089
 30
0.0
 10
-69.331
 20
101.7753
 30
0.0
 10
-58.6729
 20
103.6776
 30
0.0
 10
-58.6729
 20
103.6776
 30
0.0
 10
-55.3856
 20
104.368
 30
0.0
 10
-51.555
 20
104.1909
 30
0.0
 10
-48.942
 20
101.9862
 30
0.0
 10
-48.942
 20
101.9862
 30
0.0
 10
-47.293
 20
100.5243
 30
0.0
 10
-46.3513
 20
98.3484
 30
0.0
 10
-46.5267
 20
96.2167
 30
0.0
 10
-46.5267
 20
96.2167
 30
0.0
 10
-46.68
 20
93.4597
 30
0.0
 10
-48.3597
 20
90.9867
 30
0.0
 10
-50.4855
 20
89.1574
 30
0.0
 10
-50.4855
 20
89.1574
 30
0.0
 10
-52.5218
 20
91.4714
 30
0.0
 10
-56.185
 20
92.3627
 30
0.0
 10
-59.1157
 20
91.0857
 30
0.0
 10
-59.1157
 20
91.0857
 30
0.0
 10
-61.7929
 20
89.7905
 30
0.0
 10
-63.3307
 20
87.1612
 30
0.0
 10
-64.0829
 20
84.5267
 30
0.0
 10
-64.0829
 20
84.5267
 30
0.0
 10
-64.3697
 20
83.9403
 30
0.0
 10
-64.2386
 20
83.062
 30
0.0
 10
-64.9602
 20
82.7467
 30
0.0
 10
-64.9602
 20
82.7467
 30
0.0
 10
-66.2251
 20
82.0743
 30
0.0
 10
-67.5956
 20
81.5558
 30
0.0
 10
-69.0331
 20
81.3317
 30
0.0
 10
-69.0331
 20
81.3317
 30
0.0
 10
-71.1335
 20
80.92
 30
0.0
 10
-73.2869
 20
81.423
 30
0.0
 10
-75.2786
 20
82.0484
 30
0.0
 10
-75.2786
 20
82.0484
 30
0.0
 10
-77.1564
 20
82.7076
 30
0.0
 10
-79.3739
 20
82.6868
 30
0.0
 10
-81.1233
 20
81.707
 30
0.0
 10
-81.1233
 20
81.707
 30
0.0
 10
-84.4217
 20
79.8151
 30
0.0
 10
-87.0123
 20
76.9981
 30
0.0
 10
-88.8844
 20
73.8555
 30
0.0
 10
-88.8844
 20
73.8555
 30
0.0
 10
-91.2358
 20
69.678
 30
0.0
 10
-92.1354
 20
64.878
 30
0.0
 10
-91.9766
 20
60.1874
 30
0.0
 10
-91.9766
 20
60.1874
 30
0.0
 10
-92.6453
 20
63.661
 30
0.0
 10
-93.077
 20
67.2389
 30
0.0
 10
-92.5367
 20
70.7568
 30
0.0
  0
SPLINE
  5
52
330
1F
100
AcDbEntity
  8
layer 1
 62
     7
370
     9
100
AcDbSpline
210
0.0
220
0.0
230
1.0
 70
    11
 71
     3
 72
    36
 73
    32
 74
     0
 42
0.0000000001
 43
0.0000000001
 12
1.0
 22
0.0
 32
0.0
 13
1.0
 23
0.0
 33
0.0
 40
0.0
 40
0.0
 40
0.0
 40
0.0
 40
0.1111111111111111
 40
0.1111111111111111
 40
0.1111111111111111
 40
0.1111111111111111
 40
0.2222222222222222
 40
0.2222222222222222
 40
0.2222222222222222
 40
0.2222222222222222
 40
0.3333333333333333
 40
0.3333333333333333
 40
0.3333333333333333
 40
0.3333333333333333
 40
0.4444444444444444
 40
0.4444444444444444
 40
0.4444444444444444
 40
0.4444444444444444
 40
0.5555555555555556
 40
0.5555555555555556
 40
0.5555555555555556
 40
0.5555555555555556
 40
0.6666666666666666
 40
0.6666666666666666
 40
0.6666666666666666
 40
0.6666666666666666
 40
0.7777777777777778
 40
0.7777777777777778
 40
0.7777777777777778
 40
0.7777777777777778
 40
1.0
 40
1.0
 40
1.0
 40
1.0
 10
-98.838
 20
38.3393
 30
0.0
 10
-98.175
 20
39.8168
 30
0.0
 10
-96.679
 20
41.0285
 30
0.0
 10
-94.9602
 20
41.2684
 30
0.0
 10
-94.9602
 20
41.2684
 30
0.0
 10
-91.0487
 20
42.0403
 30
0.0
 10
-83.0784
 20
34.9048
 30
0.0
 10
-80.9478
 20
32.3509
 30
0.0
 10
-80.9478
 20
32.3509
 30
0.0
 10
-83.051
 20
32.489
 30
0.0
 10
-85.0428
 20
31.6003
 30
0.0
 10
-86.6865
 20
30.4486
 30
0.0
 10
-86.6865
 20
30.4486
 30
0.0
 10
-87.2853
 20
31.2591
 30
0.0
 10
-87.9149
 20
32.158
 30
0.0
 10
-88.9347
 20
32.5334
 30
0.0
 10
-88.9347
 20
32.5334
 30
0.0
 10
-90.3582
 20
32.9397
 30
0.0
 10
-91.9125
 20
32.6767
 30
0.0
 10
-93.1996
 20
32.0199
 30
0.0
 10
-93.1996
 20
32.0199
 30
0.0
 10
-93.9295
 20
31.3787
 30
0.0
 10
-94.1411
 20
30.3939
 30
0.0
 10
-94.2833
 20
29.5026
 30
0.0
 10
-94.2833
 20
29.5026
 30
0.0
 10
-96.069
 20
29.9561
 30
0.0
 10
-97.8074
 20
30.9984
 30
0.0
 10
-98.6012
 20
32.6115
 30
0.0
 10
-98.6012
 20
32.6115
 30
0.0
 10
-99.6404
 20
34.3547
 30
0.0
 10
-99.4425
 20
36.4969
 30
0.0
 10
-98.838
 20
38.3393
 30
0.0
  0
SPLINE
  5
53
330
1F
100
AcDbEntity
  8
layer 1
 62
     7
370
     9
100
AcDbSpline
210
0.0
220
0.0
230
1.0
 70
    11
 71
     3
 72
    36
 73
    32
 74
     0
 42
0.0000000001
 43
0.0000000001
 12
1.0
 22
0.0
 32
0.0
 13
1.0
 23
0.0
 33
0.0
 40
0.0
 40
0.0
 40
0.0
 40
0.0
 40
0.1111111111111111
 40
0.1111111111111111
 40
0.1111111111111111
 40
0.1111111111111111
 40
0.2222222222222222
 40
0.2222222222222222
 40
0.2222222222222222
 40
0.2222222222222222
 40
0.3333333333333333
 40
0.3333333333333333
 40
0.3333333333333333
 40
0.3333333333333333
 40
0.4444444444444444
 40
0.4444444444444444
 40
0.4444444444444444
 40
0.4444444444444444
 40
0.5555555555555556
 40
0.5555555555555556
 40
0.5555555555555556
 40
0.5555555555555556
 40
0.6666666666666666
 40
0.6666666666666666
 40
0.6666666666666666
 40
0.6666666666666666
 40
0.7777777777777778
 40
0.7777777777777778
 40
0.7777777777777778
 40
0.7777777777777778
 40
1.0
 40
1.0
 40
1.0
 40
1.0
 10
-49.3683
 20
-64.2439
 30
0.0
 10
-48.7191
 20
-65.5129
 30
0.0
 10
-48.8919
 20
-66.9513
 30
0.0
 10
-49.0202
 20
-68.3038
 30
0.0
 10
-49.0202
 20
-68.3038
 30
0.0
 10
-45.9863
 20
-68.5487
 30
0.0
 10
-42.7493
 20
-69.2499
 30
0.0
 10
-40.5681
 20
-71.3814
 30
0.0
 10
-40.5681
 20
-71.3814
 30
0.0
 10
-37.9243
 20
-73.6589
 30
0.0
 10
-36.6597
 20
-77.0101
 30
0.0
 10
-36.3615
 20
-80.2963
 30
0.0
 10
-36.3615
 20
-80.2963
 30
0.0
 10
-32.5952
 20
-78.1985
 30
0.0
 10
-29.7426
 20
-74.5346
 30
0.0
 10
-29.2495
 20
-70.4095
 30
0.0
 10
-29.2495
 20
-70.4095
 30
0.0
 10
-28.5168
 20
-63.3735
 30
0.0
 10
-33.8517
 20
-56.3244
 30
0.0
 10
-41.0889
 20
-54.4221
 30
0.0
 10
-41.0889
 20
-54.4221
 30
0.0
 10
-44.1422
 20
-53.6193
 30
0.0
 10
-47.4879
 20
-54.0103
 30
0.0
 10
-50.3015
 20
-55.3575
 30
0.0
 10
-50.3015
 20
-55.3575
 30
0.0
 10
-52.3019
 20
-56.2252
 30
0.0
 10
-53.9313
 20
-57.63
 30
0.0
 10
-55.5832
 20
-58.9589
 30
0.0
 10
-55.5832
 20
-58.9589
 30
0.0
 10
-53.0734
 20
-60.1369
 30
0.0
 10
-50.4073
 20
-61.6666
 30
0.0
 10
-49.3683
 20
-64.2439
 30
0.0
  0
SPLINE
  5
54
330
1F
100
AcDbEntity
  8
layer 1
 62
     7
370
     9
100
AcDbSpline
210
0.0
220
0.0
230
1.0
 70
    11
 71
     3
 72
    40
 73
    36
 74
     0
 42
0.0000000001
 43
0.0000000001
 12
1.0
 22
0.0
 32
0.0
 13
1.0
 23
0.0
 33
0.0
 40
0.0
 40
0.0
 40
0.0
 40
0.0
 40
0.1
 40
0.1
 40
0.1
 40
0.1
 40
0.2
 40
0.2
 40
0.2
 40
0.2
 40
0.3
 40
0.3
 40
0.3
 40
0.3
 40
0.4
 40
0.4
 40
0.4
 40
0.4
 40
0.5
 40
0.5
 40
0.5
 40
0.5
 40
0.6
 40
0.6
 40
0.6
 40
0.6
 40
0.7
 40
0.7
 40
0.7
 40
0.7
 40
0.8
 40
0.8
 40
0.8
 40
0.8
 40
1.0
 40
1.0
 40
1.0
 40
1.0
 10
-48.775
 20
-48.6082
 30
0.0
 10
-45.8667
 20
-48.0662
 30
0.0
 10
-42.872
 20
-48.1835
 30
0.0
 10
-39.9857
 20
-48.8063
 30
0.0
 10
-39.9857
 20
-48.8063
 30
0.0
 10
-41.4707
 20
-47.4277
 30
0.0
 10
-42.9248
 20
-45.8251
 30
0.0
 10
-43.1978
 20
-43.8081
 30
0.0
 10
-43.1978
 20
-43.8081
 30
0.0
 10
-43.7466
 20
-41.4316
 30
0.0
 10
-42.961
 20
-39.0524
 30
0.0
 10
-42.5431
 20
-36.7148
 30
0.0
 10
-42.5431
 20
-36.7148
 30
0.0
 10
-44.6799
 20
-37.3402
 30
0.0
 10
-46.9557
 20
-37.4992
 30
0.0
 10
-49.151
 20
-37.0407
 30
0.0
 10
-49.151
 20
-37.0407
 30
0.0
 10
-49.4881
 20
-37.6946
 30
0.0
 10
-49.7555
 20
-38.4112
 30
0.0
 10
-50.3238
 20
-38.9246
 30
0.0
 10
-50.3238
 20
-38.9246
 30
0.0
 10
-51.675
 20
-40.303
 30
0.0
 10
-53.8171
 20
-40.7201
 30
0.0
 10
-55.7367
 20
-40.4621
 30
0.0
 10
-55.7367
 20
-40.4621
 30
0.0
 10
-51.2962
 20
-35.9693
 30
0.0
 10
-55.0832
 20
-32.8905
 30
0.0
 10
-59.0684
 20
-29.645
 30
0.0
 10
-59.0684
 20
-29.645
 30
0.0
 10
-60.3359
 20
-32.0345
 30
0.0
 10
-62.0907
 20
-34.1637
 30
0.0
 10
-64.1469
 20
-36.0034
 30
0.0
 10
-64.1469
 20
-36.0034
 30
0.0
 10
-59.2234
 20
-49.0893
 30
0.0
 10
-57.486
 20
-42.1372
 30
0.0
 10
-48.775
 20
-48.6082
 30
0.0
  0
SPLINE
  5
55
330
1F
100
AcDbEntity
  8
layer 1
 62
     7
370
     9
100
AcDbSpline
210
0.0
220
0.0
230
1.0
 70
    11
 71
     3
 72
    76
 73
    72
 74
     0
 42
0.0000000001
 43
0.0000000001
 12
1.0
 22
0.0
 32
0.0
 13
1.0
 23
0.0
 33
0.0
 40
0.0
 40
0.0
 40
0.0
 40
0.0
 40
0.0526315789473684
 40
0.0526315789473684
 40
0.0526315789473684
 40
0.0526315789473684
 40
0.1052631578947368
 40
0.1052631578947368
 40
0.1052631578947368
 40
0.1052631578947368
 40
0.1578947368421053
 40
0.1578947368421053
 40
0.1578947368421053
 40
0.1578947368421053
 40
0.2105263157894737
 40
0.2105263157894737
 40
0.2105263157894737
 40
0.2105263157894737
 40
0.2631578947368421
 40
0.2631578947368421
 40
0.2631578947368421
 40
0.2631578947368421
 40
0.3157894736842105
 40
0.3157894736842105
 40
0.3157894736842105
 40
0.3157894736842105
 40
0.3684210526315789
 40
0.3684210526315789
 40
0.3684210526315789
 40
0.3684210526315789
 40
0.4210526315789473
 40
0.4210526315789473
 40
0.4210526315789473
 40
0.4210526315789473
 40
0.4736842105263158
 40
0.4736842105263158
 40
0.4736842105263158
 40
0.4736842105263158
 40
0.5263157894736842
 40
0.5263157894736842
 40
0.5263157894736842
 40
0.5263157894736842
 40
0.5789473684210527
 40
0.5789473684210527
 40
0.5789473684210527
 40
0.5789473684210527
 40
0.631578947368421
 40
0.631578947368421
 40
0.631578947368421
 40
0.631578947368421
 40
0.6842105263157895
 40
0.6842105263157895
 40
0.6842105263157895
 40
0.6842105263157895
 40
0.7368421052631579
 40
0.7368421052631579
 40
0.7368421052631579
 40
0.7368421052631579
 40
0.7894736842105263
 40
0.7894736842105263
 40
0.7894736842105263
 40
0.7894736842105263
 40
0.8421052631578947
 40
0.8421052631578947
 40
0.8421052631578947
 40
0.8421052631578947
 40
0.8947368421052632
 40
0.8947368421052632
 40
0.8947368421052632
 40
0.8947368421052632
 40
1.0
 40
1.0
 40
1.0
 40
1.0
 10
-87.5724
 20
-42.3696
 30
0.0
 10
-86.7088
 20
-44.5717
 30
0.0
 10
-84.9983
 20
-46.3542
 30
0.0
 10
-83.207
 20
-47.9437
 30
0.0
 10
-83.207
 20
-47.9437
 30
0.0
 10
-79.3013
 20
-51.7457
 30
0.0
 10
-73.8329
 20
-53.4421
 30
0.0
 10
-69.1055
 20
-56.1159
 30
0.0
 10
-69.1055
 20
-56.1159
 30
0.0
 10
-66.7656
 20
-57.3798
 30
0.0
 10
-64.4811
 20
-58.9798
 30
0.0
 10
-63.2999
 20
-61.3252
 30
0.0
 10
-63.2999
 20
-61.3252
 30
0.0
 10
-61.907
 20
-58.1954
 30
0.0
 10
-59.9375
 20
-55.2845
 30
0.0
 10
-57.4109
 20
-52.8482
 30
0.0
 10
-57.4109
 20
-52.8482
 30
0.0
 10
-59.9931
 20
-52.9837
 30
0.0
 10
-62.8068
 20
-52.1209
 30
0.0
 10
-64.2053
 20
-49.966
 30
0.0
 10
-64.2053
 20
-49.966
 30
0.0
 10
-65.7013
 20
-47.4563
 30
0.0
 10
-65.3225
 20
-44.4962
 30
0.0
 10
-65.4283
 20
-41.739
 30
0.0
 10
-65.4283
 20
-41.739
 30
0.0
 10
-65.4395
 20
-40.5925
 30
0.0
 10
-65.3754
 20
-39.1409
 30
0.0
 10
-66.5677
 20
-38.4531
 30
0.0
 10
-66.5677
 20
-38.4531
 30
0.0
 10
-67.3337
 20
-38.1532
 30
0.0
 10
-67.9605
 20
-38.7526
 30
0.0
 10
-68.6013
 20
-39.0367
 30
0.0
 10
-68.6013
 20
-39.0367
 30
0.0
 10
-70.6264
 20
-40.0321
 30
0.0
 10
-72.7966
 20
-40.8479
 30
0.0
 10
-75.0781
 20
-41.1267
 30
0.0
 10
-75.0781
 20
-41.1267
 30
0.0
 10
-73.3983
 20
-38.5233
 30
0.0
 10
-72.0528
 20
-35.662
 30
0.0
 10
-71.8772
 20
-32.587
 30
0.0
 10
-71.8772
 20
-32.587
 30
0.0
 10
-71.8131
 20
-29.8925
 30
0.0
 10
-71.7325
 20
-27.1981
 30
0.0
 10
-71.8188
 20
-24.5035
 30
0.0
 10
-71.8188
 20
-24.5035
 30
0.0
 10
-71.4232
 20
-19.3047
 30
0.0
 10
-69.8047
 20
-14.1293
 30
0.0
 10
-66.7737
 20
-9.7306
 30
0.0
 10
-66.7737
 20
-9.7306
 30
0.0
 10
-65.9715
 20
-8.4222
 30
0.0
 10
-64.9324
 20
-7.2575
 30
0.0
 10
-64.0381
 20
-6.0014
 30
0.0
 10
-64.0381
 20
-6.0014
 30
0.0
 10
-66.4731
 20
-7.9219
 30
0.0
 10
-69.1975
 20
-9.4987
 30
0.0
 10
-71.5151
 20
-11.552
 30
0.0
 10
-71.5151
 20
-11.552
 30
0.0
 10
-73.7465
 20
-13.1781
 30
0.0
 10
-75.6075
 20
-15.1952
 30
0.0
 10
-77.6384
 20
-17.0296
 30
0.0
 10
-77.6384
 20
-17.0296
 30
0.0
 10
-79.2485
 20
-18.8278
 30
0.0
 10
-80.92
 20
-20.5921
 30
0.0
 10
-82.3183
 20
-22.5463
 30
0.0
 10
-82.3183
 20
-22.5463
 30
0.0
 10
-84.8145
 20
-25.6762
 30
0.0
 10
-86.7032
 20
-29.2385
 30
0.0
 10
-87.8788
 20
-32.9858
 30
0.0
 10
-87.8788
 20
-32.9858
 30
0.0
 10
-88.7871
 20
-36.0347
 30
0.0
 10
-88.929
 20
-39.4172
 30
0.0
 10
-87.5724
 20
-42.3696
 30
0.0
  0
SPLINE
  5
56
330
1F
100
AcDbEntity
  8
layer 1
 62
     7
370
     9
100
AcDbSpline
210
0.0
220
0.0
230
1.0
 70
    11
 71
     3
 72
    60
 73
    56
 74
     0
 42
0.0000000001
 43
0.0000000001
 12
1.0
 22
0.0
 32
0.0
 13
1.0
 23
0.0
 33
0.0
 40
0.0
 40
0.0
 40
0.0
 40
0.0
 40
0.0666666666666667
 40
0.0666666666666667
 40
0.0666666666666667
 40
0.0666666666666667
 40
0.1333333333333333
 40
0.1333333333333333
 40
0.1333333333333333
 40
0.1333333333333333
 40
0.2
 40
0.2
 40
0.2
 40
0.2
 40
0.2666666666666667
 40
0.2666666666666667
 40
0.2666666666666667
 40
0.2666666666666667
 40
0.3333333333333333
 40
0.3333333333333333
 40
0.3333333333333333
 40
0.3333333333333333
 40
0.4
 40
0.4
 40
0.4
 40
0.4
 40
0.4666666666666667
 40
0.4666666666666667
 40
0.4666666666666667
 40
0.4666666666666667
 40
0.5333333333333333
 40
0.5333333333333333
 40
0.5333333333333333
 40
0.5333333333333333
 40
0.6
 40
0.6
 40
0.6
 40
0.6
 40
0.6666666666666666
 40
0.6666666666666666
 40
0.6666666666666666
 40
0.6666666666666666
 40
0.7333333333333333
 40
0.7333333333333333
 40
0.7333333333333333
 40
0.7333333333333333
 40
0.8
 40
0.8
 40
0.8
 40
0.8
 40
0.8666666666666667
 40
0.8666666666666667
 40
0.8666666666666667
 40
0.8666666666666667
 40
1.0
 40
1.0
 40
1.0
 40
1.0
 10
-92.5367
 20
-52.246
 30
0.0
 10
-91.9626
 20
-58.383
 30
0.0
 10
-89.3551
 20
-64.3245
 30
0.0
 10
-85.2155
 20
-69.109
 30
0.0
 10
-85.2155
 20
-69.109
 30
0.0
 10
-78.5242
 20
-76.8981
 30
0.0
 10
-69.331
 20
-83.2645
 30
0.0
 10
-58.6729
 20
-85.1667
 30
0.0
 10
-58.6729
 20
-85.1667
 30
0.0
 10
-55.3856
 20
-85.8571
 30
0.0
 10
-51.555
 20
-85.68
 30
0.0
 10
-48.942
 20
-83.4753
 30
0.0
 10
-48.942
 20
-83.4753
 30
0.0
 10
-47.293
 20
-82.0135
 30
0.0
 10
-46.3513
 20
-79.8375
 30
0.0
 10
-46.5267
 20
-77.7058
 30
0.0
 10
-46.5267
 20
-77.7058
 30
0.0
 10
-46.68
 20
-74.9489
 30
0.0
 10
-48.3597
 20
-72.4758
 30
0.0
 10
-50.4855
 20
-70.6466
 30
0.0
 10
-50.4855
 20
-70.6466
 30
0.0
 10
-52.5218
 20
-72.9606
 30
0.0
 10
-56.185
 20
-73.8518
 30
0.0
 10
-59.1157
 20
-72.5748
 30
0.0
 10
-59.1157
 20
-72.5748
 30
0.0
 10
-61.7929
 20
-71.2797
 30
0.0
 10
-63.3307
 20
-68.6504
 30
0.0
 10
-64.0829
 20
-66.0158
 30
0.0
 10
-64.0829
 20
-66.0158
 30
0.0
 10
-64.3697
 20
-65.4294
 30
0.0
 10
-64.2386
 20
-64.5512
 30
0.0
 10
-64.9602
 20
-64.2359
 30
0.0
 10
-64.9602
 20
-64.2359
 30
0.0
 10
-66.2251
 20
-63.5635
 30
0.0
 10
-67.5956
 20
-63.045
 30
0.0
 10
-69.0331
 20
-62.8209
 30
0.0
 10
-69.0331
 20
-62.8209
 30
0.0
 10
-71.1335
 20
-62.4091
 30
0.0
 10
-73.2869
 20
-62.9122
 30
0.0
 10
-75.2786
 20
-63.5376
 30
0.0
 10
-75.2786
 20
-63.5376
 30
0.0
 10
-77.1564
 20
-64.1968
 30
0.0
 10
-79.3739
 20
-64.176
 30
0.0
 10
-81.1233
 20
-63.1962
 30
0.0
 10
-81.1233
 20
-63.1962
 30
0.0
 10
-84.4217
 20
-61.3042
 30
0.0
 10
-87.0123
 20
-58.4873
 30
0.0
 10
-88.8844
 20
-55.3446
 30
0.0
 10
-88.8844
 20
-55.3446
 30
0.0
 10
-91.2358
 20
-51.1672
 30
0.0
 10
-92.1354
 20
-46.3672
 30
0.0
 10
-91.9766
 20
-41.6766
 30
0.0
 10
-91.9766
 20
-41.6766
 30
0.0
 10
-92.6453
 20
-45.1502
 30
0.0
 10
-93.077
 20
-48.7281
 30
0.0
 10
-92.5367
 20
-52.246
 30
0.0
  0
SPLINE
  5
57
330
1F
100
AcDbEntity
  8
layer 1
 62
     7
370
     9
100
AcDbSpline
210
0.0
220
0.0
230
1.0
 70
    11
 71
     3
 72
    36
 73
    32
 74
     0
 42
0.0000000001
 43
0.0000000001
 12
1.0
 22
0.0
 32
0.0
 13
1.0
 23
0.0
 33
0.0
 40
0.0
 40
0.0
 40
0.0
 40
0.0
 40
0.1111111111111111
 40
0.1111111111111111
 40
0.1111111111111111
 40
0.1111111111111111
 40
0.2222222222222222
 40
0.2222222222222222
 40
0.2222222222222222
 40
0.2222222222222222
 40
0.3333333333333333
 40
0.3333333333333333
 40
0.3333333333333333
 40
0.3333333333333333
 40
0.4444444444444444
 40
0.4444444444444444
 40
0.4444444444444444
 40
0.4444444444444444
 40
0.5555555555555556
 40
0.5555555555555556
 40
0.5555555555555556
 40
0.5555555555555556
 40
0.6666666666666666
 40
0.6666666666666666
 40
0.6666666666666666
 40
0.6666666666666666
 40
0.7777777777777778
 40
0.7777777777777778
 40
0.7777777777777778
 40
0.7777777777777778
 40
1.0
 40
1.0
 40
1.0
 40
1.0
 10
-98.838
 20
-19.8285
 30
0.0
 10
-98.175
 20
-21.306
 30
0.0
 10
-96.679
 20
-22.5177
 30
0.0
 10
-94.9602
 20
-22.7575
 30
0.0
 10
-94.9602
 20
-22.7575
 30
0.0
 10
-91.0487
 20
-23.5295
 30
0.0
 10
-83.0784
 20
-16.394
 30
0.0
 10
-80.9478
 20
-13.8401
 30
0.0
 10
-80.9478
 20
-13.8401
 30
0.0
 10
-83.051
 20
-13.9782
 30
0.0
 10
-85.0428
 20
-13.0895
 30
0.0
 10
-86.6865
 20
-11.9378
 30
0.0
 10
-86.6865
 20
-11.9378
 30
0.0
 10
-87.2853
 20
-12.7483
 30
0.0
 10
-87.9149
 20
-13.6472
 30
0.0
 10
-88.9347
 20
-14.0226
 30
0.0
 10
-88.9347
 20
-14.0226
 30
0.0
 10
-90.3582
 20
-14.4289
 30
0.0
 10
-91.9125
 20
-14.1658
 30
0.0
 10
-93.1996
 20
-13.5091
 30
0.0
 10
-93.1996
 20
-13.5091
 30
0.0
 10
-93.9295
 20
-12.8678
 30
0.0
 10
-94.1411
 20
-11.883
 30
0.0
 10
-94.2833
 20
-10.9918
 30
0.0
 10
-94.2833
 20
-10.9918
 30
0.0
 10
-96.069
 20
-11.4453
 30
0.0
 10
-97.8074
 20
-12.4875
 30
0.0
 10
-98.6012
 20
-14.1007
 30
0.0
 10
-98.6012
 20
-14.1007
 30
0.0
 10
-99.6404
 20
-15.8439
 30
0.0
 10
-99.4425
 20
-17.9861
 30
0.0
 10
-98.838
 20
-19.8285
 30
0.0
  0
SPLINE
  5
58
330
1F
100
AcDbEntity
  8
layer 1
 62
     7
370
     9
100
AcDbSpline
210
0.0
220
0.0
230
1.0
 70
    11
 71
     3
 72
    16
 73
    12
 74
     0
 42
0.0000000001
 43
0.0000000001
 12
1.0
 22
0.0
 32
0.0
 13
1.0
 23
0.0
 33
0.0
 40
0.0
 40
0.0
 40
0.0
 40
0.0
 40
0.25
 40
0.25
 40
0.25
 40
0.25
 40
0.5
 40
0.5
 40
0.5
 40
0.5
 40
1.0
 40
1.0
 40
1.0
 40
1.0
 10
-150.4805
 20
124.3477
 30
0.0
 10
-150.4805
 20
124.3477
 30
0.0
 10
-154.8512
 20
124.3477
 30
0.0
 10
-154.8512
 20
124.3477
 30
0.0
 10
-154.8512
 20
124.3477
 30
0.0
 10
-152.0232
 20
120.7538
 30
0.0
 10
-148.4964
 20
117.7946
 30
0.0
 10
-144.7066
 20
116.2303
 30
0.0
 10
-144.7066
 20
116.2303
 30
0.0
 10
-146.4317
 20
118.2976
 30
0.0
 10
-148.7968
 20
121.0671
 30
0.0
 10
-150.4805
 20
124.3477
 30
0.0
  0
SPLINE
  5
59
330
1F
100
AcDbEntity
  8
layer 1
 62
     7
370
     9
100
AcDbSpline
210
0.0
220
0.0
230
1.0
 70
    11
 71
     3
 72
    16
 73
    12
 74
     0
 42
0.0000000001
 43
0.0000000001
 12
1.0
 22
0.0
 32
0.0
 13
1.0
 23
0.0
 33
0.0
 40
0.0
 40
0.0
 40
0.0
 40
0.0
 40
0.25
 40
0.25
 40
0.25
 40
0.25
 40
0.5
 40
0.5
 40
0.5
 40
0.5
 40
1.0
 40
1.0
 40
1.0
 40
1.0
 10
-48.7456
 20
124.3477
 30
0.0
 10
-48.7456
 20
124.3477
 30
0.0
 10
-53.1163
 20
124.3477
 30
0.0
 10
-53.1163
 20
124.3477
 30
0.0
 10
-53.1163
 20
124.3477
 30
0.0
 10
-54.8
 20
121.0671
 30
0.0
 10
-57.1651
 20
118.2976
 30
0.0
 10
-58.8902
 20
116.2303
 30
0.0
 10
-58.8902
 20
116.2303
 30
0.0
 10
-55.1004
 20
117.7946
 30
0.0
 10
-51.5736
 20
120.7538
 30
0.0
 10
-48.7456
 20
124.3477
 30
0.0
  0
SPLINE
  5
5A
330
1F
100
AcDbEntity
  8
layer 1
 62
     7
370
     9
100
AcDbSpline
210
0.0
220
0.0
230
1.0
 70
    11
 71
     3
 72
   112
 73
   108
 74
     0
 42
0.0000000001
 43
0.0000000001
 12
1.0
 22
0.0
 32
0.0
 13
1.0
 23
0.0
 33
0.0
 40
0.0
 40
0.0
 40
0.0
 40
0.0
 40
0.0357142857142857
 40
0.0357142857142857
 40
0.0357142857142857
 40
0.0357142857142857
 40
0.0714285714285714
 40
0.0714285714285714
 40
0.0714285714285714
 40
0.0714285714285714
 40
0.1071428571428571
 40
0.1071428571428571
 40
0.1071428571428571
 40
0.1071428571428571
 40
0.1428571428571428
 40
0.1428571428571428
 40
0.1428571428571428
 40
0.1428571428571428
 40
0.1785714285714286
 40
0.1785714285714286
 40
0.1785714285714286
 40
0.1785714285714286
 40
0.2142857142857143
 40
0.2142857142857143
 40
0.2142857142857143
 40
0.2142857142857143
 40
0.25
 40
0.25
 40
0.25
 40
0.25
 40
0.2857142857142857
 40
0.2857142857142857
 40
0.2857142857142857
 40
0.2857142857142857
 40
0.3214285714285715
 40
0.3214285714285715
 40
0.3214285714285715
 40
0.3214285714285715
 40
0.3571428571428572
 40
0.3571428571428572
 40
0.3571428571428572
 40
0.3571428571428572
 40
0.3928571428571428
 40
0.3928571428571428
 40
0.3928571428571428
 40
0.3928571428571428
 40
0.4285714285714285
 40
0.4285714285714285
 40
0.4285714285714285
 40
0.4285714285714285
 40
0.4642857142857143
 40
0.4642857142857143
 40
0.4642857142857143
 40
0.4642857142857143
 40
0.5
 40
0.5
 40
0.5
 40
0.5
 40
0.5357142857142857
 40
0.5357142857142857
 40
0.5357142857142857
 40
0.5357142857142857
 40
0.5714285714285714
 40
0.5714285714285714
 40
0.5714285714285714
 40
0.5714285714285714
 40
0.6071428571428571
 40
0.6071428571428571
 40
0.6071428571428571
 40
0.6071428571428571
 40
0.6428571428571429
 40
0.6428571428571429
 40
0.6428571428571429
 40
0.6428571428571429
 40
0.6785714285714286
 40
0.6785714285714286
 40
0.6785714285714286
 40
0.6785714285714286
 40
0.7142857142857143
 40
0.7142857142857143
 40
0.7142857142857143
 40
0.7142857142857143
 40
0.75
 40
0.75
 40
0.75
 40
0.75
 40
0.7857142857142857
 40
0.7857142857142857
 40
0.7857142857142857
 40
0.7857142857142857
 40
0.8214285714285714
 40
0.8214285714285714
 40
0.8214285714285714
 40
0.8214285714285714
 40
0.8571428571428571
 40
0.8571428571428571
 40
0.8571428571428571
 40
0.8571428571428571
 40
0.8928571428571429
 40
0.8928571428571429
 40
0.8928571428571429
 40
0.8928571428571429
 40
0.9285714285714286
 40
0.9285714285714286
 40
0.9285714285714286
 40
0.9285714285714286
 40
1.0
 40
1.0
 40
1.0
 40
1.0
 10
-23.9258
 20
12.8336
 30
0.0
 10
-23.9258
 20
12.8336
 30
0.0
 10
-23.9258
 20
47.7302
 30
0.0
 10
-23.9258
 20
47.7302
 30
0.0
 10
-23.9258
 20
47.7302
 30
0.0
 10
-23.9284
 20
49.7579
 30
0.0
 10
-23.932
 20
51.7856
 30
0.0
 10
-23.9369
 20
53.8133
 30
0.0
 10
-23.9369
 20
53.8133
 30
0.0
 10
-27.0598
 20
53.1149
 30
0.0
 10
-30.4418
 20
53.133
 30
0.0
 10
-33.3974
 20
54.41
 30
0.0
 10
-33.3974
 20
54.41
 30
0.0
 10
-30.5227
 20
55.2464
 30
0.0
 10
-27.7591
 20
56.7293
 30
0.0
 10
-26.0319
 20
59.0954
 30
0.0
 10
-26.0319
 20
59.0954
 30
0.0
 10
-25.007
 20
60.6074
 30
0.0
 10
-24.0686
 20
62.3085
 30
0.0
 10
-23.9258
 20
64.1164
 30
0.0
 10
-23.9258
 20
64.1164
 30
0.0
 10
-23.9258
 20
64.1164
 30
0.0
 10
-23.9258
 20
78.951
 30
0.0
 10
-23.9258
 20
78.951
 30
0.0
 10
-23.9258
 20
78.951
 30
0.0
 10
-23.9313
 20
79.6089
 30
0.0
 10
-23.9526
 20
80.2664
 30
0.0
 10
-24.0346
 20
80.92
 30
0.0
 10
-24.0346
 20
80.92
 30
0.0
 10
-25.3149
 20
66.9766
 30
0.0
 10
-37.5278
 20
63.5422
 30
0.0
 10
-40.8634
 20
54.5326
 30
0.0
 10
-40.8634
 20
54.5326
 30
0.0
 10
-38.2892
 20
53.378
 30
0.0
 10
-36.3783
 20
51.0927
 30
0.0
 10
-35.7181
 20
48.5024
 30
0.0
 10
-35.7181
 20
48.5024
 30
0.0
 10
-33.7749
 20
40.9995
 30
0.0
 10
-40.3095
 20
36.7374
 30
0.0
 10
-44.1935
 20
37.5171
 30
0.0
 10
-44.1935
 20
37.5171
 30
0.0
 10
-47.9007
 20
38.261
 30
0.0
 10
-47.7616
 20
43.8805
 30
0.0
 10
-44.4431
 20
45.0653
 30
0.0
 10
-44.4431
 20
45.0653
 30
0.0
 10
-43.0446
 20
45.7271
 30
0.0
 10
-41.4457
 20
45.3206
 30
0.0
 10
-40.1418
 20
44.664
 30
0.0
 10
-40.1418
 20
44.664
 30
0.0
 10
-39.9107
 20
45.589
 30
0.0
 10
-39.5456
 20
46.5271
 30
0.0
 10
-39.7128
 20
47.4862
 30
0.0
 10
-39.7128
 20
47.4862
 30
0.0
 10
-40.0471
 20
49.8602
 30
0.0
 10
-42.2034
 20
51.976
 30
0.0
 10
-44.7996
 20
52.1533
 30
0.0
 10
-44.7996
 20
52.1533
 30
0.0
 10
-45.9419
 20
52.1871
 30
0.0
 10
-47.1063
 20
52.2444
 30
0.0
 10
-48.2206
 20
51.9683
 30
0.0
 10
-48.2206
 20
51.9683
 30
0.0
 10
-49.3153
 20
51.7571
 30
0.0
 10
-50.2598
 20
51.1656
 30
0.0
 10
-51.2543
 20
50.7252
 30
0.0
 10
-51.2543
 20
50.7252
 30
0.0
 10
-48.9226
 20
50.8347
 30
0.0
 10
-46.3736
 20
49.1278
 30
0.0
 10
-46.4879
 20
46.8084
 30
0.0
 10
-46.4879
 20
46.8084
 30
0.0
 10
-52.2267
 20
48.9644
 30
0.0
 10
-53.6477
 20
44.8451
 30
0.0
 10
-56.8286
 20
42.4228
 30
0.0
 10
-56.8286
 20
42.4228
 30
0.0
 10
-56.1155
 20
39.0169
 30
0.0
 10
-56.0151
 20
35.5013
 30
0.0
 10
-56.7312
 20
32.085
 30
0.0
 10
-56.7312
 20
32.085
 30
0.0
 10
-56.8453
 20
28.8929
 30
0.0
 10
-56.4693
 20
25.6303
 30
0.0
 10
-55.2102
 20
22.6386
 30
0.0
 10
-55.2102
 20
22.6386
 30
0.0
 10
-54.4162
 20
20.8927
 30
0.0
 10
-53.1375
 20
19.2849
 30
0.0
 10
-51.3712
 20
18.3101
 30
0.0
 10
-51.3712
 20
18.3101
 30
0.0
 10
-50.7249
 20
21.8204
 30
0.0
 10
-49.1232
 20
25.2992
 30
0.0
 10
-46.2704
 20
27.7305
 30
0.0
 10
-46.2704
 20
27.7305
 30
0.0
 10
-41.2139
 20
32.6054
 30
0.0
 10
-35.9419
 20
32.1592
 30
0.0
 10
-32.35
 20
40.776
 30
0.0
 10
-32.35
 20
40.776
 30
0.0
 10
-31.9348
 20
41.5993
 30
0.0
 10
-31.6173
 20
42.4644
 30
0.0
 10
-31.1661
 20
43.275
 30
0.0
 10
-31.1661
 20
43.275
 30
0.0
 10
-29.2467
 20
40.0618
 30
0.0
 10
-28.7508
 20
36.2494
 30
0.0
 10
-29.1964
 20
32.6271
 30
0.0
 10
-29.1964
 20
32.6271
 30
0.0
 10
-30.2077
 20
26.0221
 30
0.0
 10
-37.658
 20
20.0058
 30
0.0
 10
-36.7181
 20
17.0646
 30
0.0
 10
-36.7181
 20
17.0646
 30
0.0
 10
-32.298
 20
16.1084
 30
0.0
 10
-28.0896
 20
14.4906
 30
0.0
 10
-23.9258
 20
12.8336
 30
0.0
  0
SPLINE
  5
5B
330
1F
100
AcDbEntity
  8
layer 1
 62
     7
370
     9
100
AcDbSpline
210
0.0
220
0.0
230
1.0
 70
    11
 71
     3
 72
   112
 73
   108
 74
     0
 42
0.0000000001
 43
0.0000000001
 12
1.0
 22
0.0
 32
0.0
 13
1.0
 23
0.0
 33
0.0
 40
0.0
 40
0.0
 40
0.0
 40
0.0
 40
0.0357142857142857
 40
0.0357142857142857
 40
0.0357142857142857
 40
0.0357142857142857
 40
0.0714285714285714
 40
0.0714285714285714
 40
0.0714285714285714
 40
0.0714285714285714
 40
0.1071428571428571
 40
0.1071428571428571
 40
0.1071428571428571
 40
0.1071428571428571
 40
0.1428571428571428
 40
0.1428571428571428
 40
0.1428571428571428
 40
0.1428571428571428
 40
0.1785714285714286
 40
0.1785714285714286
 40
0.1785714285714286
 40
0.1785714285714286
 40
0.2142857142857143
 40
0.2142857142857143
 40
0.2142857142857143
 40
0.2142857142857143
 40
0.25
 40
0.25
 40
0.25
 40
0.25
 40
0.2857142857142857
 40
0.2857142857142857
 40
0.2857142857142857
 40
0.2857142857142857
 40
0.3214285714285715
 40
0.3214285714285715
 40
0.3214285714285715
 40
0.3214285714285715
 40
0.3571428571428572
 40
0.3571428571428572
 40
0.3571428571428572
 40
0.3571428571428572
 40
0.3928571428571428
 40
0.3928571428571428
 40
0.3928571428571428
 40
0.3928571428571428
 40
0.4285714285714285
 40
0.4285714285714285
 40
0.4285714285714285
 40
0.4285714285714285
 40
0.4642857142857143
 40
0.4642857142857143
 40
0.4642857142857143
 40
0.4642857142857143
 40
0.5
 40
0.5
 40
0.5
 40
0.5
 40
0.5357142857142857
 40
0.5357142857142857
 40
0.5357142857142857
 40
0.5357142857142857
 40
0.5714285714285714
 40
0.5714285714285714
 40
0.5714285714285714
 40
0.5714285714285714
 40
0.6071428571428571
 40
0.6071428571428571
 40
0.6071428571428571
 40
0.6071428571428571
 40
0.6428571428571429
 40
0.6428571428571429
 40
0.6428571428571429
 40
0.6428571428571429
 40
0.6785714285714286
 40
0.6785714285714286
 40
0.6785714285714286
 40
0.6785714285714286
 40
0.7142857142857143
 40
0.7142857142857143
 40
0.7142857142857143
 40
0.7142857142857143
 40
0.75
 40
0.75
 40
0.75
 40
0.75
 40
0.7857142857142857
 40
0.7857142857142857
 40
0.7857142857142857
 40
0.7857142857142857
 40
0.8214285714285714
 40
0.8214285714285714
 40
0.8214285714285714
 40
0.8214285714285714
 40
0.8571428571428571
 40
0.8571428571428571
 40
0.8571428571428571
 40
0.8571428571428571
 40
0.8928571428571429
 40
0.8928571428571429
 40
0.8928571428571429
 40
0.8928571428571429
 40
0.9285714285714286
 40
0.9285714285714286
 40
0.9285714285714286
 40
0.9285714285714286
 40
1.0
 40
1.0
 40
1.0
 40
1.0
 10
-23.9258
 20
-60.4402
 30
0.0
 10
-23.9258
 20
-60.4402
 30
0.0
 10
-23.9258
 20
-45.6056
 30
0.0
 10
-23.9258
 20
-45.6056
 30
0.0
 10
-23.9258
 20
-45.6056
 30
0.0
 10
-24.0686
 20
-43.7976
 30
0.0
 10
-25.007
 20
-42.0965
 30
0.0
 10
-26.0319
 20
-40.5846
 30
0.0
 10
-26.0319
 20
-40.5846
 30
0.0
 10
-27.7591
 20
-38.2184
 30
0.0
 10
-30.5227
 20
-36.7356
 30
0.0
 10
-33.3974
 20
-35.8992
 30
0.0
 10
-33.3974
 20
-35.8992
 30
0.0
 10
-30.4418
 20
-34.6222
 30
0.0
 10
-27.0598
 20
-34.6041
 30
0.0
 10
-23.9369
 20
-35.3025
 30
0.0
 10
-23.9369
 20
-35.3025
 30
0.0
 10
-23.932
 20
-33.2748
 30
0.0
 10
-23.9284
 20
-31.2472
 30
0.0
 10
-23.9258
 20
-29.2195
 30
0.0
 10
-23.9258
 20
-29.2195
 30
0.0
 10
-23.9258
 20
-29.2195
 30
0.0
 10
-23.9258
 20
5.6772
 30
0.0
 10
-23.9258
 20
5.6772
 30
0.0
 10
-23.9258
 20
5.6772
 30
0.0
 10
-28.0896
 20
4.0202
 30
0.0
 10
-32.298
 20
2.4024
 30
0.0
 10
-36.7181
 20
1.4463
 30
0.0
 10
-36.7181
 20
1.4463
 30
0.0
 10
-37.658
 20
-1.495
 30
0.0
 10
-30.2077
 20
-7.5113
 30
0.0
 10
-29.1964
 20
-14.1163
 30
0.0
 10
-29.1964
 20
-14.1163
 30
0.0
 10
-28.7508
 20
-17.7385
 30
0.0
 10
-29.2467
 20
-21.551
 30
0.0
 10
-31.1661
 20
-24.7641
 30
0.0
 10
-31.1661
 20
-24.7641
 30
0.0
 10
-31.6173
 20
-23.9536
 30
0.0
 10
-31.9348
 20
-23.0885
 30
0.0
 10
-32.35
 20
-22.2651
 30
0.0
 10
-32.35
 20
-22.2651
 30
0.0
 10
-35.9419
 20
-13.6484
 30
0.0
 10
-41.2139
 20
-14.0945
 30
0.0
 10
-46.2704
 20
-9.2197
 30
0.0
 10
-46.2704
 20
-9.2197
 30
0.0
 10
-49.1232
 20
-6.7884
 30
0.0
 10
-50.7249
 20
-3.3095
 30
0.0
 10
-51.3712
 20
0.2007
 30
0.0
 10
-51.3712
 20
0.2007
 30
0.0
 10
-53.1375
 20
-0.7741
 30
0.0
 10
-54.4162
 20
-2.3818
 30
0.0
 10
-55.2102
 20
-4.1278
 30
0.0
 10
-55.2102
 20
-4.1278
 30
0.0
 10
-56.4693
 20
-7.1194
 30
0.0
 10
-56.8453
 20
-10.3821
 30
0.0
 10
-56.7312
 20
-13.5742
 30
0.0
 10
-56.7312
 20
-13.5742
 30
0.0
 10
-56.0151
 20
-16.9905
 30
0.0
 10
-56.1155
 20
-20.5061
 30
0.0
 10
-56.8286
 20
-23.912
 30
0.0
 10
-56.8286
 20
-23.912
 30
0.0
 10
-53.6477
 20
-26.3343
 30
0.0
 10
-52.2267
 20
-30.4536
 30
0.0
 10
-46.4879
 20
-28.2976
 30
0.0
 10
-46.4879
 20
-28.2976
 30
0.0
 10
-46.3736
 20
-30.617
 30
0.0
 10
-48.9226
 20
-32.3238
 30
0.0
 10
-51.2543
 20
-32.2144
 30
0.0
 10
-51.2543
 20
-32.2144
 30
0.0
 10
-50.2598
 20
-32.6548
 30
0.0
 10
-49.3153
 20
-33.2463
 30
0.0
 10
-48.2206
 20
-33.4575
 30
0.0
 10
-48.2206
 20
-33.4575
 30
0.0
 10
-47.1063
 20
-33.7336
 30
0.0
 10
-45.9419
 20
-33.6763
 30
0.0
 10
-44.7996
 20
-33.6425
 30
0.0
 10
-44.7996
 20
-33.6425
 30
0.0
 10
-42.2034
 20
-33.4652
 30
0.0
 10
-40.0471
 20
-31.3494
 30
0.0
 10
-39.7128
 20
-28.9753
 30
0.0
 10
-39.7128
 20
-28.9753
 30
0.0
 10
-39.5456
 20
-28.0163
 30
0.0
 10
-39.9107
 20
-27.0782
 30
0.0
 10
-40.1418
 20
-26.1531
 30
0.0
 10
-40.1418
 20
-26.1531
 30
0.0
 10
-41.4457
 20
-26.8098
 30
0.0
 10
-43.0446
 20
-27.2163
 30
0.0
 10
-44.4431
 20
-26.5544
 30
0.0
 10
-44.4431
 20
-26.5544
 30
0.0
 10
-47.7616
 20
-25.3697
 30
0.0
 10
-47.9007
 20
-19.7501
 30
0.0
 10
-44.1935
 20
-19.0063
 30
0.0
 10
-44.1935
 20
-19.0063
 30
0.0
 10
-40.3095
 20
-18.2266
 30
0.0
 10
-33.7749
 20
-22.4887
 30
0.0
 10
-35.7181
 20
-29.9916
 30
0.0
 10
-35.7181
 20
-29.9916
 30
0.0
 10
-36.3783
 20
-32.5819
 30
0.0
 10
-38.2892
 20
-34.8672
 30
0.0
 10
-40.8634
 20
-36.0217
 30
0.0
 10
-40.8634
 20
-36.0217
 30
0.0
 10
-37.5278
 20
-45.0314
 30
0.0
 10
-25.3149
 20
-48.4658
 30
0.0
 10
-24.0346
 20
-62.4091
 30
0.0
 10
-24.0346
 20
-62.4091
 30
0.0
 10
-23.9526
 20
-61.7556
 30
0.0
 10
-23.9313
 20
-61.0981
 30
0.0
 10
-23.9258
 20
-60.4402
 30
0.0
  0
SPLINE
  5
5C
330
1F
100
AcDbEntity
  8
layer 1
 62
     7
370
     9
100
AcDbSpline
210
0.0
220
0.0
230
1.0
 70
    11
 71
     3
 72
    16
 73
    12
 74
     0
 42
0.0000000001
 43
0.0000000001
 12
1.0
 22
0.0
 32
0.0
 13
1.0
 23
0.0
 33
0.0
 40
0.0
 40
0.0
 40
0.0
 40
0.0
 40
0.25
 40
0.25
 40
0.25
 40
0.25
 40
0.5
 40
0.5
 40
0.5
 40
0.5
 40
1.0
 40
1.0
 40
1.0
 40
1.0
 10
-53.0399
 20
-105.9868
 30
0.0
 10
-53.0399
 20
-105.9868
 30
0.0
 10
-48.627
 20
-105.9868
 30
0.0
 10
-48.627
 20
-105.9868
 30
0.0
 10
-48.627
 20
-105.9868
 30
0.0
 10
-51.4746
 20
-102.3249
 30
0.0
 10
-55.0477
 20
-99.3055
 30
0.0
 10
-58.8902
 20
-97.7195
 30
0.0
 10
-58.8902
 20
-97.7195
 30
0.0
 10
-57.1389
 20
-99.8182
 30
0.0
 10
-54.7278
 20
-102.6405
 30
0.0
 10
-53.0399
 20
-105.9868
 30
0.0
  0
SPLINE
  5
5D
330
1F
100
AcDbEntity
  8
layer 1
 62
     7
370
     9
100
AcDbSpline
210
0.0
220
0.0
230
1.0
 70
    11
 71
     3
 72
    16
 73
    12
 74
     0
 42
0.0000000001
 43
0.0000000001
 12
1.0
 22
0.0
 32
0.0
 13
1.0
 23
0.0
 33
0.0
 40
0.0
 40
0.0
 40
0.0
 40
0.0
 40
0.25
 40
0.25
 40
0.25
 40
0.25
 40
0.5
 40
0.5
 40
0.5
 40
0.5
 40
1.0
 40
1.0
 40
1.0
 40
1.0
 10
-154.9698
 20
-105.9868
 30
0.0
 10
-154.9698
 20
-105.9868
 30
0.0
 10
-150.5569
 20
-105.9868
 30
0.0
 10
-150.5569
 20
-105.9868
 30
0.0
 10
-150.5569
 20
-105.9868
 30
0.0
 10
-148.869
 20
-102.6405
 30
0.0
 10
-146.4579
 20
-99.8182
 30
0.0
 10
-144.7066
 20
-97.7195
 30
0.0
 10
-144.7066
 20
-97.7195
 30
0.0
 10
-148.5491
 20
-99.3055
 30
0.0
 10
-152.1222
 20
-102.3249
 30
0.0
 10
-154.9698
 20
-105.9868
 30
0.0
  0
SPLINE
  5
5E
330
1F
100
AcDbEntity
  8
layer 1
 62
     7
370
     9
100
AcDbSpline
210
0.0
220
0.0
230
1.0
 70
    11
 71
     3
 72
   112
 73
   108
 74
     0
 42
0.0000000001
 43
0.0000000001
 12
1.0
 22
0.0
 32
0.0
 13
1.0
 23
0.0
 33
0.0
 40
0.0
 40
0.0
 40
0.0
 40
0.0
 40
0.0357142857142857
 40
0.0357142857142857
 40
0.0357142857142857
 40
0.0357142857142857
 40
0.0714285714285714
 40
0.0714285714285714
 40
0.0714285714285714
 40
0.0714285714285714
 40
0.1071428571428571
 40
0.1071428571428571
 40
0.1071428571428571
 40
0.1071428571428571
 40
0.1428571428571428
 40
0.1428571428571428
 40
0.1428571428571428
 40
0.1428571428571428
 40
0.1785714285714286
 40
0.1785714285714286
 40
0.1785714285714286
 40
0.1785714285714286
 40
0.2142857142857143
 40
0.2142857142857143
 40
0.2142857142857143
 40
0.2142857142857143
 40
0.25
 40
0.25
 40
0.25
 40
0.25
 40
0.2857142857142857
 40
0.2857142857142857
 40
0.2857142857142857
 40
0.2857142857142857
 40
0.3214285714285715
 40
0.3214285714285715
 40
0.3214285714285715
 40
0.3214285714285715
 40
0.3571428571428572
 40
0.3571428571428572
 40
0.3571428571428572
 40
0.3571428571428572
 40
0.3928571428571428
 40
0.3928571428571428
 40
0.3928571428571428
 40
0.3928571428571428
 40
0.4285714285714285
 40
0.4285714285714285
 40
0.4285714285714285
 40
0.4285714285714285
 40
0.4642857142857143
 40
0.4642857142857143
 40
0.4642857142857143
 40
0.4642857142857143
 40
0.5
 40
0.5
 40
0.5
 40
0.5
 40
0.5357142857142857
 40
0.5357142857142857
 40
0.5357142857142857
 40
0.5357142857142857
 40
0.5714285714285714
 40
0.5714285714285714
 40
0.5714285714285714
 40
0.5714285714285714
 40
0.6071428571428571
 40
0.6071428571428571
 40
0.6071428571428571
 40
0.6071428571428571
 40
0.6428571428571429
 40
0.6428571428571429
 40
0.6428571428571429
 40
0.6428571428571429
 40
0.6785714285714286
 40
0.6785714285714286
 40
0.6785714285714286
 40
0.6785714285714286
 40
0.7142857142857143
 40
0.7142857142857143
 40
0.7142857142857143
 40
0.7142857142857143
 40
0.75
 40
0.75
 40
0.75
 40
0.75
 40
0.7857142857142857
 40
0.7857142857142857
 40
0.7857142857142857
 40
0.7857142857142857
 40
0.8214285714285714
 40
0.8214285714285714
 40
0.8214285714285714
 40
0.8214285714285714
 40
0.8571428571428571
 40
0.8571428571428571
 40
0.8571428571428571
 40
0.8571428571428571
 40
0.8928571428571429
 40
0.8928571428571429
 40
0.8928571428571429
 40
0.8928571428571429
 40
0.9285714285714286
 40
0.9285714285714286
 40
0.9285714285714286
 40
0.9285714285714286
 40
1.0
 40
1.0
 40
1.0
 40
1.0
 10
-179.671
 20
5.6772
 30
0.0
 10
-179.671
 20
5.6772
 30
0.0
 10
-179.671
 20
-29.2195
 30
0.0
 10
-179.671
 20
-29.2195
 30
0.0
 10
-179.671
 20
-29.2195
 30
0.0
 10
-179.6684
 20
-31.2472
 30
0.0
 10
-179.6648
 20
-33.2748
 30
0.0
 10
-179.6599
 20
-35.3025
 30
0.0
 10
-179.6599
 20
-35.3025
 30
0.0
 10
-176.537
 20
-34.6041
 30
0.0
 10
-173.155
 20
-34.6222
 30
0.0
 10
-170.1994
 20
-35.8992
 30
0.0
 10
-170.1994
 20
-35.8992
 30
0.0
 10
-173.0741
 20
-36.7356
 30
0.0
 10
-175.8377
 20
-38.2184
 30
0.0
 10
-177.5649
 20
-40.5846
 30
0.0
 10
-177.5649
 20
-40.5846
 30
0.0
 10
-178.5898
 20
-42.0965
 30
0.0
 10
-179.5282
 20
-43.7976
 30
0.0
 10
-179.671
 20
-45.6056
 30
0.0
 10
-179.671
 20
-45.6056
 30
0.0
 10
-179.671
 20
-45.6056
 30
0.0
 10
-179.671
 20
-60.4402
 30
0.0
 10
-179.671
 20
-60.4402
 30
0.0
 10
-179.671
 20
-60.4402
 30
0.0
 10
-179.6655
 20
-61.0981
 30
0.0
 10
-179.6442
 20
-61.7556
 30
0.0
 10
-179.5622
 20
-62.4091
 30
0.0
 10
-179.5622
 20
-62.4091
 30
0.0
 10
-178.2819
 20
-48.4658
 30
0.0
 10
-166.069
 20
-45.0314
 30
0.0
 10
-162.7334
 20
-36.0217
 30
0.0
 10
-162.7334
 20
-36.0217
 30
0.0
 10
-165.3076
 20
-34.8672
 30
0.0
 10
-167.2185
 20
-32.5819
 30
0.0
 10
-167.8787
 20
-29.9916
 30
0.0
 10
-167.8787
 20
-29.9916
 30
0.0
 10
-169.8219
 20
-22.4887
 30
0.0
 10
-163.2873
 20
-18.2266
 30
0.0
 10
-159.4033
 20
-19.0063
 30
0.0
 10
-159.4033
 20
-19.0063
 30
0.0
 10
-155.6961
 20
-19.7501
 30
0.0
 10
-155.8352
 20
-25.3697
 30
0.0
 10
-159.1537
 20
-26.5544
 30
0.0
 10
-159.1537
 20
-26.5544
 30
0.0
 10
-160.5522
 20
-27.2163
 30
0.0
 10
-162.1511
 20
-26.8098
 30
0.0
 10
-163.455
 20
-26.1531
 30
0.0
 10
-163.455
 20
-26.1531
 30
0.0
 10
-163.6861
 20
-27.0782
 30
0.0
 10
-164.0512
 20
-28.0163
 30
0.0
 10
-163.884
 20
-28.9753
 30
0.0
 10
-163.884
 20
-28.9753
 30
0.0
 10
-163.5497
 20
-31.3494
 30
0.0
 10
-161.3934
 20
-33.4652
 30
0.0
 10
-158.7972
 20
-33.6425
 30
0.0
 10
-158.7972
 20
-33.6425
 30
0.0
 10
-157.6549
 20
-33.6763
 30
0.0
 10
-156.4905
 20
-33.7336
 30
0.0
 10
-155.3762
 20
-33.4575
 30
0.0
 10
-155.3762
 20
-33.4575
 30
0.0
 10
-154.2815
 20
-33.2463
 30
0.0
 10
-153.337
 20
-32.6548
 30
0.0
 10
-152.3425
 20
-32.2144
 30
0.0
 10
-152.3425
 20
-32.2144
 30
0.0
 10
-154.6742
 20
-32.3238
 30
0.0
 10
-157.2232
 20
-30.617
 30
0.0
 10
-157.1089
 20
-28.2976
 30
0.0
 10
-157.1089
 20
-28.2976
 30
0.0
 10
-151.3701
 20
-30.4536
 30
0.0
 10
-149.9491
 20
-26.3343
 30
0.0
 10
-146.7682
 20
-23.912
 30
0.0
 10
-146.7682
 20
-23.912
 30
0.0
 10
-147.4813
 20
-20.5061
 30
0.0
 10
-147.5817
 20
-16.9905
 30
0.0
 10
-146.8656
 20
-13.5742
 30
0.0
 10
-146.8656
 20
-13.5742
 30
0.0
 10
-146.7515
 20
-10.3821
 30
0.0
 10
-147.1275
 20
-7.1194
 30
0.0
 10
-148.3866
 20
-4.1278
 30
0.0
 10
-148.3866
 20
-4.1278
 30
0.0
 10
-149.1806
 20
-2.3818
 30
0.0
 10
-150.4593
 20
-0.7741
 30
0.0
 10
-152.2256
 20
0.2007
 30
0.0
 10
-152.2256
 20
0.2007
 30
0.0
 10
-152.8719
 20
-3.3095
 30
0.0
 10
-154.4736
 20
-6.7884
 30
0.0
 10
-157.3264
 20
-9.2197
 30
0.0
 10
-157.3264
 20
-9.2197
 30
0.0
 10
-162.3829
 20
-14.0945
 30
0.0
 10
-167.6549
 20
-13.6484
 30
0.0
 10
-171.2468
 20
-22.2651
 30
0.0
 10
-171.2468
 20
-22.2651
 30
0.0
 10
-171.662
 20
-23.0885
 30
0.0
 10
-171.9795
 20
-23.9536
 30
0.0
 10
-172.4307
 20
-24.7641
 30
0.0
 10
-172.4307
 20
-24.7641
 30
0.0
 10
-174.3501
 20
-21.551
 30
0.0
 10
-174.846
 20
-17.7385
 30
0.0
 10
-174.4004
 20
-14.1163
 30
0.0
 10
-174.4004
 20
-14.1163
 30
0.0
 10
-173.3891
 20
-7.5113
 30
0.0
 10
-165.9388
 20
-1.495
 30
0.0
 10
-166.8787
 20
1.4463
 30
0.0
 10
-166.8787
 20
1.4463
 30
0.0
 10
-171.2988
 20
2.4024
 30
0.0
 10
-175.5072
 20
4.0202
 30
0.0
 10
-179.671
 20
5.6772
 30
0.0
  0
SPLINE
  5
5F
330
1F
100
AcDbEntity
  8
layer 1
 62
     7
370
     9
100
AcDbSpline
210
0.0
220
0.0
230
1.0
 70
    11
 71
     3
 72
   112
 73
   108
 74
     0
 42
0.0000000001
 43
0.0000000001
 12
1.0
 22
0.0
 32
0.0
 13
1.0
 23
0.0
 33
0.0
 40
0.0
 40
0.0
 40
0.0
 40
0.0
 40
0.0357142857142857
 40
0.0357142857142857
 40
0.0357142857142857
 40
0.0357142857142857
 40
0.0714285714285714
 40
0.0714285714285714
 40
0.0714285714285714
 40
0.0714285714285714
 40
0.1071428571428571
 40
0.1071428571428571
 40
0.1071428571428571
 40
0.1071428571428571
 40
0.1428571428571428
 40
0.1428571428571428
 40
0.1428571428571428
 40
0.1428571428571428
 40
0.1785714285714286
 40
0.1785714285714286
 40
0.1785714285714286
 40
0.1785714285714286
 40
0.2142857142857143
 40
0.2142857142857143
 40
0.2142857142857143
 40
0.2142857142857143
 40
0.25
 40
0.25
 40
0.25
 40
0.25
 40
0.2857142857142857
 40
0.2857142857142857
 40
0.2857142857142857
 40
0.2857142857142857
 40
0.3214285714285715
 40
0.3214285714285715
 40
0.3214285714285715
 40
0.3214285714285715
 40
0.3571428571428572
 40
0.3571428571428572
 40
0.3571428571428572
 40
0.3571428571428572
 40
0.3928571428571428
 40
0.3928571428571428
 40
0.3928571428571428
 40
0.3928571428571428
 40
0.4285714285714285
 40
0.4285714285714285
 40
0.4285714285714285
 40
0.4285714285714285
 40
0.4642857142857143
 40
0.4642857142857143
 40
0.4642857142857143
 40
0.4642857142857143
 40
0.5
 40
0.5
 40
0.5
 40
0.5
 40
0.5357142857142857
 40
0.5357142857142857
 40
0.5357142857142857
 40
0.5357142857142857
 40
0.5714285714285714
 40
0.5714285714285714
 40
0.5714285714285714
 40
0.5714285714285714
 40
0.6071428571428571
 40
0.6071428571428571
 40
0.6071428571428571
 40
0.6071428571428571
 40
0.6428571428571429
 40
0.6428571428571429
 40
0.6428571428571429
 40
0.6428571428571429
 40
0.6785714285714286
 40
0.6785714285714286
 40
0.6785714285714286
 40
0.6785714285714286
 40
0.7142857142857143
 40
0.7142857142857143
 40
0.7142857142857143
 40
0.7142857142857143
 40
0.75
 40
0.75
 40
0.75
 40
0.75
 40
0.7857142857142857
 40
0.7857142857142857
 40
0.7857142857142857
 40
0.7857142857142857
 40
0.8214285714285714
 40
0.8214285714285714
 40
0.8214285714285714
 40
0.8214285714285714
 40
0.8571428571428571
 40
0.8571428571428571
 40
0.8571428571428571
 40
0.8571428571428571
 40
0.8928571428571429
 40
0.8928571428571429
 40
0.8928571428571429
 40
0.8928571428571429
 40
0.9285714285714286
 40
0.9285714285714286
 40
0.9285714285714286
 40
0.9285714285714286
 40
1.0
 40
1.0
 40
1.0
 40
1.0
 10
-179.671
 20
78.951
 30
0.0
 10
-179.671
 20
78.951
 30
0.0
 10
-179.671
 20
64.1164
 30
0.0
 10
-179.671
 20
64.1164
 30
0.0
 10
-179.671
 20
64.1164
 30
0.0
 10
-179.5282
 20
62.3085
 30
0.0
 10
-178.5898
 20
60.6074
 30
0.0
 10
-177.5649
 20
59.0954
 30
0.0
 10
-177.5649
 20
59.0954
 30
0.0
 10
-175.8377
 20
56.7293
 30
0.0
 10
-173.0741
 20
55.2464
 30
0.0
 10
-170.1994
 20
54.41
 30
0.0
 10
-170.1994
 20
54.41
 30
0.0
 10
-173.155
 20
53.133
 30
0.0
 10
-176.537
 20
53.1149
 30
0.0
 10
-179.6599
 20
53.8133
 30
0.0
 10
-179.6599
 20
53.8133
 30
0.0
 10
-179.6648
 20
51.7856
 30
0.0
 10
-179.6684
 20
49.7579
 30
0.0
 10
-179.671
 20
47.7302
 30
0.0
 10
-179.671
 20
47.7302
 30
0.0
 10
-179.671
 20
47.7302
 30
0.0
 10
-179.671
 20
12.8336
 30
0.0
 10
-179.671
 20
12.8336
 30
0.0
 10
-179.671
 20
12.8336
 30
0.0
 10
-175.5072
 20
14.4906
 30
0.0
 10
-171.2988
 20
16.1084
 30
0.0
 10
-166.8787
 20
17.0646
 30
0.0
 10
-166.8787
 20
17.0646
 30
0.0
 10
-165.9388
 20
20.0058
 30
0.0
 10
-173.3891
 20
26.0221
 30
0.0
 10
-174.4004
 20
32.6271
 30
0.0
 10
-174.4004
 20
32.6271
 30
0.0
 10
-174.846
 20
36.2494
 30
0.0
 10
-174.3501
 20
40.0618
 30
0.0
 10
-172.4307
 20
43.275
 30
0.0
 10
-172.4307
 20
43.275
 30
0.0
 10
-171.9795
 20
42.4644
 30
0.0
 10
-171.662
 20
41.5993
 30
0.0
 10
-171.2468
 20
40.776
 30
0.0
 10
-171.2468
 20
40.776
 30
0.0
 10
-167.6549
 20
32.1592
 30
0.0
 10
-162.3829
 20
32.6054
 30
0.0
 10
-157.3264
 20
27.7305
 30
0.0
 10
-157.3264
 20
27.7305
 30
0.0
 10
-154.4736
 20
25.2992
 30
0.0
 10
-152.8719
 20
21.8204
 30
0.0
 10
-152.2256
 20
18.3101
 30
0.0
 10
-152.2256
 20
18.3101
 30
0.0
 10
-150.4593
 20
19.2849
 30
0.0
 10
-149.1806
 20
20.8927
 30
0.0
 10
-148.3866
 20
22.6386
 30
0.0
 10
-148.3866
 20
22.6386
 30
0.0
 10
-147.1275
 20
25.6303
 30
0.0
 10
-146.7515
 20
28.8929
 30
0.0
 10
-146.8656
 20
32.085
 30
0.0
 10
-146.8656
 20
32.085
 30
0.0
 10
-147.5817
 20
35.5013
 30
0.0
 10
-147.4813
 20
39.0169
 30
0.0
 10
-146.7682
 20
42.4228
 30
0.0
 10
-146.7682
 20
42.4228
 30
0.0
 10
-149.9491
 20
44.8451
 30
0.0
 10
-151.3701
 20
48.9644
 30
0.0
 10
-157.1089
 20
46.8084
 30
0.0
 10
-157.1089
 20
46.8084
 30
0.0
 10
-157.2232
 20
49.1278
 30
0.0
 10
-154.6742
 20
50.8347
 30
0.0
 10
-152.3425
 20
50.7252
 30
0.0
 10
-152.3425
 20
50.7252
 30
0.0
 10
-153.337
 20
51.1656
 30
0.0
 10
-154.2815
 20
51.7571
 30
0.0
 10
-155.3762
 20
51.9683
 30
0.0
 10
-155.3762
 20
51.9683
 30
0.0
 10
-156.4905
 20
52.2444
 30
0.0
 10
-157.6549
 20
52.1871
 30
0.0
 10
-158.7972
 20
52.1533
 30
0.0
 10
-158.7972
 20
52.1533
 30
0.0
 10
-161.3934
 20
51.976
 30
0.0
 10
-163.5497
 20
49.8602
 30
0.0
 10
-163.884
 20
47.4862
 30
0.0
 10
-163.884
 20
47.4862
 30
0.0
 10
-164.0512
 20
46.5271
 30
0.0
 10
-163.6861
 20
45.589
 30
0.0
 10
-163.455
 20
44.664
 30
0.0
 10
-163.455
 20
44.664
 30
0.0
 10
-162.1511
 20
45.3206
 30
0.0
 10
-160.5522
 20
45.7271
 30
0.0
 10
-159.1537
 20
45.0653
 30
0.0
 10
-159.1537
 20
45.0653
 30
0.0
 10
-155.8352
 20
43.8805
 30
0.0
 10
-155.6961
 20
38.261
 30
0.0
 10
-159.4033
 20
37.5171
 30
0.0
 10
-159.4033
 20
37.5171
 30
0.0
 10
-163.2873
 20
36.7374
 30
0.0
 10
-169.8219
 20
40.9995
 30
0.0
 10
-167.8787
 20
48.5024
 30
0.0
 10
-167.8787
 20
48.5024
 30
0.0
 10
-167.2185
 20
51.0927
 30
0.0
 10
-165.3076
 20
53.378
 30
0.0
 10
-162.7334
 20
54.5326
 30
0.0
 10
-162.7334
 20
54.5326
 30
0.0
 10
-166.069
 20
63.5422
 30
0.0
 10
-178.2819
 20
66.9766
 30
0.0
 10
-179.5622
 20
80.92
 30
0.0
 10
-179.5622
 20
80.92
 30
0.0
 10
-179.6442
 20
80.2664
 30
0.0
 10
-179.6655
 20
79.6089
 30
0.0
 10
-179.671
 20
78.951
 30
0.0
  0
SPLINE
  5
60
330
1F
100
AcDbEntity
  8
layer 1
 62
     7
370
     9
100
AcDbSpline
210
0.0
220
0.0
230
1.0
 70
    11
 71
     3
 72
    48
 73
    44
 74
     0
 42
0.0000000001
 43
0.0000000001
 12
1.0
 22
0.0
 32
0.0
 13
1.0
 23
0.0
 33
0.0
 40
0.0
 40
0.0
 40
0.0
 40
0.0
 40
0.0833333333333333
 40
0.0833333333333333
 40
0.0833333333333333
 40
0.0833333333333333
 40
0.1666666666666667
 40
0.1666666666666667
 40
0.1666666666666667
 40
0.1666666666666667
 40
0.25
 40
0.25
 40
0.25
 40
0.25
 40
0.3333333333333333
 40
0.3333333333333333
 40
0.3333333333333333
 40
0.3333333333333333
 40
0.4166666666666667
 40
0.4166666666666667
 40
0.4166666666666667
 40
0.4166666666666667
 40
0.5
 40
0.5
 40
0.5
 40
0.5
 40
0.5833333333333334
 40
0.5833333333333334
 40
0.5833333333333334
 40
0.5833333333333334
 40
0.6666666666666666
 40
0.6666666666666666
 40
0.6666666666666666
 40
0.6666666666666666
 40
0.75
 40
0.75
 40
0.75
 40
0.75
 40
0.8333333333333334
 40
0.8333333333333334
 40
0.8333333333333334
 40
0.8333333333333334
 40
1.0
 40
1.0
 40
1.0
 40
1.0
 10
-179.6599
 20
92.9464
 30
0.0
 10
-177.6521
 20
97.411
 30
0.0
 10
-174.7656
 20
101.4618
 30
0.0
 10
-170.7704
 20
104.3316
 30
0.0
 10
-170.7704
 20
104.3316
 30
0.0
 10
-173.1132
 20
107.2502
 30
0.0
 10
-172.6313
 20
111.834
 30
0.0
 10
-169.6505
 20
114.1976
 30
0.0
 10
-169.6505
 20
114.1976
 30
0.0
 10
-167.7478
 20
115.6152
 30
0.0
 10
-165.2128
 20
115.8759
 30
0.0
 10
-162.8838
 20
115.472
 30
0.0
 10
-162.8838
 20
115.472
 30
0.0
 10
-163.4466
 20
114.7684
 30
0.0
 10
-164.327
 20
114.3175
 30
0.0
 10
-164.7337
 20
113.4966
 30
0.0
 10
-164.7337
 20
113.4966
 30
0.0
 10
-165.1933
 20
112.7983
 30
0.0
 10
-165.3215
 20
111.8888
 30
0.0
 10
-164.8478
 20
111.1644
 30
0.0
 10
-164.8478
 20
111.1644
 30
0.0
 10
-164.3855
 20
110.0333
 30
0.0
 10
-163.1318
 20
109.4913
 30
0.0
 10
-162.0007
 20
109.0952
 30
0.0
 10
-162.0007
 20
109.0952
 30
0.0
 10
-158.8027
 20
108.204
 30
0.0
 10
-155.4235
 20
109.004
 30
0.0
 10
-152.3815
 20
110.0308
 30
0.0
 10
-152.3815
 20
110.0308
 30
0.0
 10
-149.763
 20
110.9115
 30
0.0
 10
-146.9604
 20
110.5363
 30
0.0
 10
-144.2471
 20
110.6431
 30
0.0
 10
-144.2471
 20
110.6431
 30
0.0
 10
-150.2483
 20
113.4485
 30
0.0
 10
-158.3302
 20
118.8222
 30
0.0
 10
-164.2568
 20
124.3477
 30
0.0
 10
-164.2568
 20
124.3477
 30
0.0
 10
-164.2568
 20
124.3477
 30
0.0
 10
-179.6321
 20
124.3477
 30
0.0
 10
-179.6321
 20
124.3477
 30
0.0
 10
-179.6321
 20
124.3477
 30
0.0
 10
-179.6321
 20
124.3477
 30
0.0
 10
-179.6599
 20
92.9464
 30
0.0
 10
-179.6599
 20
92.9464
 30
0.0
  0
SPLINE
  5
61
330
1F
100
AcDbEntity
  8
layer 1
 62
     7
370
     9
100
AcDbSpline
210
0.0
220
0.0
230
1.0
 70
    11
 71
     3
 72
    24
 73
    20
 74
     0
 42
0.0000000001
 43
0.0000000001
 12
1.0
 22
0.0
 32
0.0
 13
1.0
 23
0.0
 33
0.0
 40
0.0
 40
0.0
 40
0.0
 40
0.0
 40
0.1666666666666667
 40
0.1666666666666667
 40
0.1666666666666667
 40
0.1666666666666667
 40
0.3333333333333333
 40
0.3333333333333333
 40
0.3333333333333333
 40
0.3333333333333333
 40
0.5
 40
0.5
 40
0.5
 40
0.5
 40
0.6666666666666666
 40
0.6666666666666666
 40
0.6666666666666666
 40
0.6666666666666666
 40
1.0
 40
1.0
 40
1.0
 40
1.0
 10
-72.0921
 20
124.3477
 30
0.0
 10
-72.0921
 20
124.3477
 30
0.0
 10
-59.4998
 20
124.3477
 30
0.0
 10
-59.4998
 20
124.3477
 30
0.0
 10
-59.4998
 20
124.3477
 30
0.0
 10
-62.007
 20
113.692
 30
0.0
 10
-69.8961
 20
112.1227
 30
0.0
 10
-78.4962
 20
106.3565
 30
0.0
 10
-78.4962
 20
106.3565
 30
0.0
 10
-77.5407
 20
109.0196
 30
0.0
 10
-76.1005
 20
111.4978
 30
0.0
 10
-74.6297
 20
113.9345
 30
0.0
 10
-74.6297
 20
113.9345
 30
0.0
 10
-73.3455
 20
116.3944
 30
0.0
 10
-72.0807
 20
118.969
 30
0.0
 10
-71.9998
 20
121.7548
 30
0.0
 10
-71.9998
 20
121.7548
 30
0.0
 10
-71.9309
 20
122.6282
 30
0.0
 10
-71.9672
 20
123.4946
 30
0.0
 10
-72.0921
 20
124.3477
 30
0.0
  0
SPLINE
  5
62
330
1F
100
AcDbEntity
  8
layer 1
 62
     7
370
     9
100
AcDbSpline
210
0.0
220
0.0
230
1.0
 70
    11
 71
     3
 72
    24
 73
    20
 74
     0
 42
0.0000000001
 43
0.0000000001
 12
1.0
 22
0.0
 32
0.0
 13
1.0
 23
0.0
 33
0.0
 40
0.0
 40
0.0
 40
0.0
 40
0.0
 40
0.1666666666666667
 40
0.1666666666666667
 40
0.1666666666666667
 40
0.1666666666666667
 40
0.3333333333333333
 40
0.3333333333333333
 40
0.3333333333333333
 40
0.3333333333333333
 40
0.5
 40
0.5
 40
0.5
 40
0.5
 40
0.6666666666666666
 40
0.6666666666666666
 40
0.6666666666666666
 40
0.6666666666666666
 40
1.0
 40
1.0
 40
1.0
 40
1.0
 10
-72.115
 20
-105.9868
 30
0.0
 10
-72.115
 20
-105.9868
 30
0.0
 10
-59.4646
 20
-105.9868
 30
0.0
 10
-59.4646
 20
-105.9868
 30
0.0
 10
-59.4646
 20
-105.9868
 30
0.0
 10
-61.9327
 20
-95.1953
 30
0.0
 10
-69.8558
 20
-93.6389
 30
0.0
 10
-78.4962
 20
-87.8456
 30
0.0
 10
-78.4962
 20
-87.8456
 30
0.0
 10
-77.5407
 20
-90.5087
 30
0.0
 10
-76.1005
 20
-92.987
 30
0.0
 10
-74.6297
 20
-95.4236
 30
0.0
 10
-74.6297
 20
-95.4236
 30
0.0
 10
-73.3455
 20
-97.8836
 30
0.0
 10
-72.0807
 20
-100.4582
 30
0.0
 10
-71.9998
 20
-103.244
 30
0.0
 10
-71.9998
 20
-103.244
 30
0.0
 10
-71.9268
 20
-104.1686
 30
0.0
 10
-71.9718
 20
-105.0853
 30
0.0
 10
-72.115
 20
-105.9868
 30
0.0
  0
SPLINE
  5
63
330
1F
100
AcDbEntity
  8
layer 1
 62
     7
370
     9
100
AcDbSpline
210
0.0
220
0.0
230
1.0
 70
    11
 71
     3
 72
   108
 73
   104
 74
     0
 42
0.0000000001
 43
0.0000000001
 12
1.0
 22
0.0
 32
0.0
 13
1.0
 23
0.0
 33
0.0
 40
0.0
 40
0.0
 40
0.0
 40
0.0
 40
0.037037037037037
 40
0.037037037037037
 40
0.037037037037037
 40
0.037037037037037
 40
0.0740740740740741
 40
0.0740740740740741
 40
0.0740740740740741
 40
0.0740740740740741
 40
0.1111111111111111
 40
0.1111111111111111
 40
0.1111111111111111
 40
0.1111111111111111
 40
0.1481481481481481
 40
0.1481481481481481
 40
0.1481481481481481
 40
0.1481481481481481
 40
0.1851851851851852
 40
0.1851851851851852
 40
0.1851851851851852
 40
0.1851851851851852
 40
0.2222222222222222
 40
0.2222222222222222
 40
0.2222222222222222
 40
0.2222222222222222
 40
0.2592592592592592
 40
0.2592592592592592
 40
0.2592592592592592
 40
0.2592592592592592
 40
0.2962962962962963
 40
0.2962962962962963
 40
0.2962962962962963
 40
0.2962962962962963
 40
0.3333333333333333
 40
0.3333333333333333
 40
0.3333333333333333
 40
0.3333333333333333
 40
0.3703703703703703
 40
0.3703703703703703
 40
0.3703703703703703
 40
0.3703703703703703
 40
0.4074074074074074
 40
0.4074074074074074
 40
0.4074074074074074
 40
0.4074074074074074
 40
0.4444444444444444
 40
0.4444444444444444
 40
0.4444444444444444
 40
0.4444444444444444
 40
0.4814814814814815
 40
0.4814814814814815
 40
0.4814814814814815
 40
0.4814814814814815
 40
0.5185185185185185
 40
0.5185185185185185
 40
0.5185185185185185
 40
0.5185185185185185
 40
0.5555555555555556
 40
0.5555555555555556
 40
0.5555555555555556
 40
0.5555555555555556
 40
0.5925925925925926
 40
0.5925925925925926
 40
0.5925925925925926
 40
0.5925925925925926
 40
0.6296296296296297
 40
0.6296296296296297
 40
0.6296296296296297
 40
0.6296296296296297
 40
0.6666666666666666
 40
0.6666666666666666
 40
0.6666666666666666
 40
0.6666666666666666
 40
0.7037037037037037
 40
0.7037037037037037
 40
0.7037037037037037
 40
0.7037037037037037
 40
0.7407407407407407
 40
0.7407407407407407
 40
0.7407407407407407
 40
0.7407407407407407
 40
0.7777777777777778
 40
0.7777777777777778
 40
0.7777777777777778
 40
0.7777777777777778
 40
0.8148148148148148
 40
0.8148148148148148
 40
0.8148148148148148
 40
0.8148148148148148
 40
0.8518518518518519
 40
0.8518518518518519
 40
0.8518518518518519
 40
0.8518518518518519
 40
0.8888888888888888
 40
0.8888888888888888
 40
0.8888888888888888
 40
0.8888888888888888
 40
0.9259259259259259
 40
0.9259259259259259
 40
0.9259259259259259
 40
0.9259259259259259
 40
1.0
 40
1.0
 40
1.0
 40
1.0
 10
-101.7984
 20
10.6815
 30
0.0
 10
-106.6032
 20
10.6815
 30
0.0
 10
-111.4084
 20
11.7199
 30
0.0
 10
-115.1051
 20
13.7968
 30
0.0
 10
-115.1051
 20
13.7968
 30
0.0
 10
-116.7599
 20
14.8182
 30
0.0
 10
-118.4257
 20
15.8813
 30
0.0
 10
-119.6988
 20
17.32
 30
0.0
 10
-119.6988
 20
17.32
 30
0.0
 10
-119.7165
 20
17.3417
 30
0.0
 10
-119.7343
 20
17.3636
 30
0.0
 10
-119.752
 20
17.3852
 30
0.0
 10
-119.752
 20
17.3852
 30
0.0
 10
-120.2817
 20
18.0328
 30
0.0
 10
-120.9947
 20
18.4061
 30
0.0
 10
-121.8618
 20
18.4897
 30
0.0
 10
-121.8618
 20
18.4897
 30
0.0
 10
-122.7291
 20
18.5731
 30
0.0
 10
-123.5084
 20
18.3437
 30
0.0
 10
-124.1681
 20
17.8107
 30
0.0
 10
-124.1681
 20
17.8107
 30
0.0
 10
-133.1318
 20
10.5686
 30
0.0
 10
-134.7633
 20
12.4043
 30
0.0
 10
-143.4922
 20
15.8241
 30
0.0
 10
-143.4922
 20
15.8241
 30
0.0
 10
-135.856
 20
21.0327
 30
0.0
 10
-124.3041
 20
33.3645
 30
0.0
 10
-115.7486
 20
22.0627
 30
0.0
 10
-115.7486
 20
22.0627
 30
0.0
 10
-115.0746
 20
21.3149
 30
0.0
 10
-114.6595
 20
20.4105
 30
0.0
 10
-114.0633
 20
19.6106
 30
0.0
 10
-114.0633
 20
19.6106
 30
0.0
 10
-113.6815
 20
22.9843
 30
0.0
 10
-113.0868
 20
24.909
 30
0.0
 10
-110.0127
 20
25.3722
 30
0.0
 10
-110.0127
 20
25.3722
 30
0.0
 10
-109.9153
 20
24.4133
 30
0.0
 10
-110.1743
 20
23.3917
 30
0.0
 10
-109.7174
 20
22.485
 30
0.0
 10
-109.7174
 20
22.485
 30
0.0
 10
-109.1296
 20
21.3774
 30
0.0
 10
-108.1797
 20
20.3064
 30
0.0
 10
-106.8174
 20
20.051
 30
0.0
 10
-106.8174
 20
20.051
 30
0.0
 10
-107.7229
 20
22.8784
 30
0.0
 10
-106.7032
 20
26.1251
 30
0.0
 10
-104.3103
 20
28.0432
 30
0.0
 10
-104.3103
 20
28.0432
 30
0.0
 10
-103.5876
 20
28.6251
 30
0.0
 10
-101.8356
 20
31.5823
 30
0.0
 10
-101.7984
 20
31.518
 30
0.0
 10
-101.7984
 20
31.518
 30
0.0
 10
-101.7612
 20
31.5823
 30
0.0
 10
-100.0092
 20
28.6251
 30
0.0
 10
-99.2865
 20
28.0432
 30
0.0
 10
-99.2865
 20
28.0432
 30
0.0
 10
-96.8936
 20
26.1251
 30
0.0
 10
-95.8739
 20
22.8784
 30
0.0
 10
-96.7794
 20
20.051
 30
0.0
 10
-96.7794
 20
20.051
 30
0.0
 10
-95.4171
 20
20.3064
 30
0.0
 10
-94.4672
 20
21.3774
 30
0.0
 10
-93.8794
 20
22.485
 30
0.0
 10
-93.8794
 20
22.485
 30
0.0
 10
-93.4225
 20
23.3917
 30
0.0
 10
-93.6815
 20
24.4133
 30
0.0
 10
-93.5841
 20
25.3722
 30
0.0
 10
-93.5841
 20
25.3722
 30
0.0
 10
-90.51
 20
24.909
 30
0.0
 10
-89.9153
 20
22.9843
 30
0.0
 10
-89.5335
 20
19.6106
 30
0.0
 10
-89.5335
 20
19.6106
 30
0.0
 10
-88.9373
 20
20.4105
 30
0.0
 10
-88.5222
 20
21.3149
 30
0.0
 10
-87.8482
 20
22.0627
 30
0.0
 10
-87.8482
 20
22.0627
 30
0.0
 10
-79.2927
 20
33.3645
 30
0.0
 10
-67.7408
 20
21.0327
 30
0.0
 10
-60.1046
 20
15.8241
 30
0.0
 10
-60.1046
 20
15.8241
 30
0.0
 10
-68.8335
 20
12.4043
 30
0.0
 10
-70.465
 20
10.5686
 30
0.0
 10
-79.4287
 20
17.8107
 30
0.0
 10
-79.4287
 20
17.8107
 30
0.0
 10
-80.0884
 20
18.3437
 30
0.0
 10
-80.8677
 20
18.5731
 30
0.0
 10
-81.735
 20
18.4897
 30
0.0
 10
-81.735
 20
18.4897
 30
0.0
 10
-82.6021
 20
18.4061
 30
0.0
 10
-83.3151
 20
18.0328
 30
0.0
 10
-83.8448
 20
17.3852
 30
0.0
 10
-83.8448
 20
17.3852
 30
0.0
 10
-83.8625
 20
17.3636
 30
0.0
 10
-83.8803
 20
17.3417
 30
0.0
 10
-83.898
 20
17.32
 30
0.0
 10
-83.898
 20
17.32
 30
0.0
 10
-85.1711
 20
15.8813
 30
0.0
 10
-86.8369
 20
14.8182
 30
0.0
 10
-88.4917
 20
13.7968
 30
0.0
 10
-88.4917
 20
13.7968
 30
0.0
 10
-92.1884
 20
11.7199
 30
0.0
 10
-96.9936
 20
10.6815
 30
0.0
 10
-101.7984
 20
10.6815
 30
0.0
  0
SPLINE
  5
64
330
1F
100
AcDbEntity
  8
layer 1
 62
     7
370
     9
100
AcDbSpline
210
0.0
220
0.0
230
1.0
 70
    11
 71
     3
 72
    36
 73
    32
 74
     0
 42
0.0000000001
 43
0.0000000001
 12
1.0
 22
0.0
 32
0.0
 13
1.0
 23
0.0
 33
0.0
 40
0.0
 40
0.0
 40
0.0
 40
0.0
 40
0.1111111111111111
 40
0.1111111111111111
 40
0.1111111111111111
 40
0.1111111111111111
 40
0.2222222222222222
 40
0.2222222222222222
 40
0.2222222222222222
 40
0.2222222222222222
 40
0.3333333333333333
 40
0.3333333333333333
 40
0.3333333333333333
 40
0.3333333333333333
 40
0.4444444444444444
 40
0.4444444444444444
 40
0.4444444444444444
 40
0.4444444444444444
 40
0.5555555555555556
 40
0.5555555555555556
 40
0.5555555555555556
 40
0.5555555555555556
 40
0.6666666666666666
 40
0.6666666666666666
 40
0.6666666666666666
 40
0.6666666666666666
 40
0.7777777777777778
 40
0.7777777777777778
 40
0.7777777777777778
 40
0.7777777777777778
 40
1.0
 40
1.0
 40
1.0
 40
1.0
 10
-101.7982
 20
39.6183
 30
0.0
 10
-102.0669
 20
39.8539
 30
0.0
 10
-103.6824
 20
42.3418
 30
0.0
 10
-104.7421
 20
43.043
 30
0.0
 10
-104.7421
 20
43.043
 30
0.0
 10
-106.9374
 20
44.3068
 30
0.0
 10
-109.5948
 20
44.4528
 30
0.0
 10
-112.105
 20
44.4633
 30
0.0
 10
-112.105
 20
44.4633
 30
0.0
 10
-108.0961
 20
50.1129
 30
0.0
 10
-104.7336
 20
56.255
 30
0.0
 10
-103.1014
 20
62.9001
 30
0.0
 10
-103.1014
 20
62.9001
 30
0.0
 10
-102.7146
 20
64.1121
 30
0.0
 10
-102.2563
 20
64.7181
 30
0.0
 10
-101.7984
 20
64.7176
 30
0.0
 10
-101.7984
 20
64.7176
 30
0.0
 10
-101.3405
 20
64.7181
 30
0.0
 10
-100.8822
 20
64.1121
 30
0.0
 10
-100.4954
 20
62.9001
 30
0.0
 10
-100.4954
 20
62.9001
 30
0.0
 10
-98.8632
 20
56.255
 30
0.0
 10
-95.5007
 20
50.1129
 30
0.0
 10
-91.4918
 20
44.4633
 30
0.0
 10
-91.4918
 20
44.4633
 30
0.0
 10
-94.002
 20
44.4528
 30
0.0
 10
-96.6594
 20
44.3068
 30
0.0
 10
-98.8547
 20
43.043
 30
0.0
 10
-98.8547
 20
43.043
 30
0.0
 10
-99.9144
 20
42.3418
 30
0.0
 10
-101.5294
 20
39.8539
 30
0.0
 10
-101.7982
 20
39.6183
 30
0.0
  0
SPLINE
  5
65
330
1F
100
AcDbEntity
  8
layer 1
 62
     7
370
     9
100
AcDbSpline
210
0.0
220
0.0
230
1.0
 70
    11
 71
     3
 72
    68
 73
    64
 74
     0
 42
0.0000000001
 43
0.0000000001
 12
1.0
 22
0.0
 32
0.0
 13
1.0
 23
0.0
 33
0.0
 40
0.0
 40
0.0
 40
0.0
 40
0.0
 40
0.0588235294117647
 40
0.0588235294117647
 40
0.0588235294117647
 40
0.0588235294117647
 40
0.1176470588235294
 40
0.1176470588235294
 40
0.1176470588235294
 40
0.1176470588235294
 40
0.1764705882352941
 40
0.1764705882352941
 40
0.1764705882352941
 40
0.1764705882352941
 40
0.2352941176470588
 40
0.2352941176470588
 40
0.2352941176470588
 40
0.2352941176470588
 40
0.2941176470588235
 40
0.2941176470588235
 40
0.2941176470588235
 40
0.2941176470588235
 40
0.3529411764705883
 40
0.3529411764705883
 40
0.3529411764705883
 40
0.3529411764705883
 40
0.4117647058823529
 40
0.4117647058823529
 40
0.4117647058823529
 40
0.4117647058823529
 40
0.4705882352941176
 40
0.4705882352941176
 40
0.4705882352941176
 40
0.4705882352941176
 40
0.5294117647058824
 40
0.5294117647058824
 40
0.5294117647058824
 40
0.5294117647058824
 40
0.5882352941176471
 40
0.5882352941176471
 40
0.5882352941176471
 40
0.5882352941176471
 40
0.6470588235294118
 40
0.6470588235294118
 40
0.6470588235294118
 40
0.6470588235294118
 40
0.7058823529411765
 40
0.7058823529411765
 40
0.7058823529411765
 40
0.7058823529411765
 40
0.7647058823529411
 40
0.7647058823529411
 40
0.7647058823529411
 40
0.7647058823529411
 40
0.8235294117647058
 40
0.8235294117647058
 40
0.8235294117647058
 40
0.8235294117647058
 40
0.8823529411764706
 40
0.8823529411764706
 40
0.8823529411764706
 40
0.8823529411764706
 40
1.0
 40
1.0
 40
1.0
 40
1.0
 10
-101.7984
 20
118.6936
 30
0.0
 10
-101.7984
 20
118.6936
 30
0.0
 10
-101.9061
 20
118.7397
 30
0.0
 10
-101.9061
 20
118.7397
 30
0.0
 10
-101.9061
 20
118.7397
 30
0.0
 10
-101.9061
 20
118.7397
 30
0.0
 10
-101.9065
 20
118.6457
 30
0.0
 10
-101.9065
 20
118.6457
 30
0.0
 10
-101.9065
 20
118.6457
 30
0.0
 10
-103.3003
 20
118.0191
 30
0.0
 10
-104.5813
 20
117.1053
 30
0.0
 10
-105.4164
 20
115.8732
 30
0.0
 10
-105.4164
 20
115.8732
 30
0.0
 10
-107.0765
 20
113.6504
 30
0.0
 10
-107.5724
 20
110.8595
 30
0.0
 10
-107.5251
 20
108.1962
 30
0.0
 10
-107.5251
 20
108.1962
 30
0.0
 10
-107.6616
 20
103.4873
 30
0.0
 10
-106.7061
 20
98.8357
 30
0.0
 10
-106.4246
 20
94.1503
 30
0.0
 10
-106.4246
 20
94.1503
 30
0.0
 10
-106.5138
 20
92.162
 30
0.0
 10
-106.408
 20
90.1684
 30
0.0
 10
-106.4804
 20
88.1828
 30
0.0
 10
-106.4804
 20
88.1828
 30
0.0
 10
-104.951
 20
85.3865
 30
0.0
 10
-103.6669
 20
82.4497
 30
0.0
 10
-102.9453
 20
79.3747
 30
0.0
 10
-102.9453
 20
79.3747
 30
0.0
 10
-102.8025
 20
78.6323
 30
0.0
 10
-102.3004
 20
78.2613
 30
0.0
 10
-101.7984
 20
78.2614
 30
0.0
 10
-101.7984
 20
78.2614
 30
0.0
 10
-101.2964
 20
78.2613
 30
0.0
 10
-100.7943
 20
78.6323
 30
0.0
 10
-100.6515
 20
79.3747
 30
0.0
 10
-100.6515
 20
79.3747
 30
0.0
 10
-99.9299
 20
82.4497
 30
0.0
 10
-98.6458
 20
85.3865
 30
0.0
 10
-97.1164
 20
88.1828
 30
0.0
 10
-97.1164
 20
88.1828
 30
0.0
 10
-97.1888
 20
90.1684
 30
0.0
 10
-97.083
 20
92.162
 30
0.0
 10
-97.1722
 20
94.1503
 30
0.0
 10
-97.1722
 20
94.1503
 30
0.0
 10
-96.8907
 20
98.8357
 30
0.0
 10
-95.9352
 20
103.4873
 30
0.0
 10
-96.0717
 20
108.1962
 30
0.0
 10
-96.0717
 20
108.1962
 30
0.0
 10
-96.0244
 20
110.8595
 30
0.0
 10
-96.5203
 20
113.6504
 30
0.0
 10
-98.1804
 20
115.8732
 30
0.0
 10
-98.1804
 20
115.8732
 30
0.0
 10
-99.0155
 20
117.1053
 30
0.0
 10
-100.2965
 20
118.0191
 30
0.0
 10
-101.6904
 20
118.6457
 30
0.0
 10
-101.6904
 20
118.6457
 30
0.0
 10
-101.6904
 20
118.6457
 30
0.0
 10
-101.6907
 20
118.7397
 30
0.0
 10
-101.6907
 20
118.7397
 30
0.0
 10
-101.6907
 20
118.7397
 30
0.0
 10
-101.6907
 20
118.7397
 30
0.0
 10
-101.7984
 20
118.6936
 30
0.0
 10
-101.7984
 20
118.6936
 30
0.0
  0
SPLINE
  5
66
330
1F
100
AcDbEntity
  8
layer 1
 62
     7
370
     9
100
AcDbSpline
210
0.0
220
0.0
230
1.0
 70
    11
 71
     3
 72
    36
 73
    32
 74
     0
 42
0.0000000001
 43
0.0000000001
 12
1.0
 22
0.0
 32
0.0
 13
1.0
 23
0.0
 33
0.0
 40
0.0
 40
0.0
 40
0.0
 40
0.0
 40
0.1111111111111111
 40
0.1111111111111111
 40
0.1111111111111111
 40
0.1111111111111111
 40
0.2222222222222222
 40
0.2222222222222222
 40
0.2222222222222222
 40
0.2222222222222222
 40
0.3333333333333333
 40
0.3333333333333333
 40
0.3333333333333333
 40
0.3333333333333333
 40
0.4444444444444444
 40
0.4444444444444444
 40
0.4444444444444444
 40
0.4444444444444444
 40
0.5555555555555556
 40
0.5555555555555556
 40
0.5555555555555556
 40
0.5555555555555556
 40
0.6666666666666666
 40
0.6666666666666666
 40
0.6666666666666666
 40
0.6666666666666666
 40
0.7777777777777778
 40
0.7777777777777778
 40
0.7777777777777778
 40
0.7777777777777778
 40
1.0
 40
1.0
 40
1.0
 40
1.0
 10
-101.7982
 20
-21.1075
 30
0.0
 10
-102.0669
 20
-21.3431
 30
0.0
 10
-103.6824
 20
-23.831
 30
0.0
 10
-104.7421
 20
-24.5322
 30
0.0
 10
-104.7421
 20
-24.5322
 30
0.0
 10
-106.9374
 20
-25.796
 30
0.0
 10
-109.5948
 20
-25.9419
 30
0.0
 10
-112.105
 20
-25.9525
 30
0.0
 10
-112.105
 20
-25.9525
 30
0.0
 10
-108.0961
 20
-31.6021
 30
0.0
 10
-104.7336
 20
-37.7442
 30
0.0
 10
-103.1014
 20
-44.3892
 30
0.0
 10
-103.1014
 20
-44.3892
 30
0.0
 10
-102.7146
 20
-45.6012
 30
0.0
 10
-102.2563
 20
-46.2072
 30
0.0
 10
-101.7984
 20
-46.2068
 30
0.0
 10
-101.7984
 20
-46.2068
 30
0.0
 10
-101.3405
 20
-46.2072
 30
0.0
 10
-100.8822
 20
-45.6012
 30
0.0
 10
-100.4954
 20
-44.3892
 30
0.0
 10
-100.4954
 20
-44.3892
 30
0.0
 10
-98.8632
 20
-37.7442
 30
0.0
 10
-95.5007
 20
-31.6021
 30
0.0
 10
-91.4918
 20
-25.9525
 30
0.0
 10
-91.4918
 20
-25.9525
 30
0.0
 10
-94.002
 20
-25.9419
 30
0.0
 10
-96.6594
 20
-25.796
 30
0.0
 10
-98.8547
 20
-24.5322
 30
0.0
 10
-98.8547
 20
-24.5322
 30
0.0
 10
-99.9144
 20
-23.831
 30
0.0
 10
-101.5294
 20
-21.3431
 30
0.0
 10
-101.7982
 20
-21.1075
 30
0.0
  0
SPLINE
  5
67
330
1F
100
AcDbEntity
  8
layer 1
 62
     7
370
     9
100
AcDbSpline
210
0.0
220
0.0
230
1.0
 70
    11
 71
     3
 72
    52
 73
    48
 74
     0
 42
0.0000000001
 43
0.0000000001
 12
1.0
 22
0.0
 32
0.0
 13
1.0
 23
0.0
 33
0.0
 40
0.0
 40
0.0
 40
0.0
 40
0.0
 40
0.0769230769230769
 40
0.0769230769230769
 40
0.0769230769230769
 40
0.0769230769230769
 40
0.1538461538461539
 40
0.1538461538461539
 40
0.1538461538461539
 40
0.1538461538461539
 40
0.2307692307692308
 40
0.2307692307692308
 40
0.2307692307692308
 40
0.2307692307692308
 40
0.3076923076923077
 40
0.3076923076923077
 40
0.3076923076923077
 40
0.3076923076923077
 40
0.3846153846153846
 40
0.3846153846153846
 40
0.3846153846153846
 40
0.3846153846153846
 40
0.4615384615384616
 40
0.4615384615384616
 40
0.4615384615384616
 40
0.4615384615384616
 40
0.5384615384615384
 40
0.5384615384615384
 40
0.5384615384615384
 40
0.5384615384615384
 40
0.6153846153846154
 40
0.6153846153846154
 40
0.6153846153846154
 40
0.6153846153846154
 40
0.6923076923076923
 40
0.6923076923076923
 40
0.6923076923076923
 40
0.6923076923076923
 40
0.7692307692307693
 40
0.7692307692307693
 40
0.7692307692307693
 40
0.7692307692307693
 40
0.8461538461538461
 40
0.8461538461538461
 40
0.8461538461538461
 40
0.8461538461538461
 40
1.0
 40
1.0
 40
1.0
 40
1.0
 10
-101.7984
 20
-59.7506
 30
0.0
 10
-102.3004
 20
-59.7505
 30
0.0
 10
-102.8025
 20
-60.1214
 30
0.0
 10
-102.9453
 20
-60.8638
 30
0.0
 10
-102.9453
 20
-60.8638
 30
0.0
 10
-103.6669
 20
-63.9389
 30
0.0
 10
-104.951
 20
-66.8757
 30
0.0
 10
-106.4804
 20
-69.672
 30
0.0
 10
-106.4804
 20
-69.672
 30
0.0
 10
-106.408
 20
-71.6576
 30
0.0
 10
-106.5138
 20
-73.6512
 30
0.0
 10
-106.4246
 20
-75.6395
 30
0.0
 10
-106.4246
 20
-75.6395
 30
0.0
 10
-106.7061
 20
-80.3248
 30
0.0
 10
-107.6616
 20
-84.9764
 30
0.0
 10
-107.5251
 20
-89.6854
 30
0.0
 10
-107.5251
 20
-89.6854
 30
0.0
 10
-107.5724
 20
-92.3487
 30
0.0
 10
-107.0765
 20
-95.1396
 30
0.0
 10
-105.4164
 20
-97.3624
 30
0.0
 10
-105.4164
 20
-97.3624
 30
0.0
 10
-104.5813
 20
-98.5945
 30
0.0
 10
-103.1383
 20
-99.5321
 30
0.0
 10
-101.7444
 20
-100.1588
 30
0.0
 10
-101.7444
 20
-100.1588
 30
0.0
 10
-100.359
 20
-99.5467
 30
0.0
 10
-99.0414
 20
-98.6328
 30
0.0
 10
-98.1804
 20
-97.3624
 30
0.0
 10
-98.1804
 20
-97.3624
 30
0.0
 10
-96.5203
 20
-95.1396
 30
0.0
 10
-96.0244
 20
-92.3487
 30
0.0
 10
-96.0717
 20
-89.6854
 30
0.0
 10
-96.0717
 20
-89.6854
 30
0.0
 10
-95.9352
 20
-84.9764
 30
0.0
 10
-96.8907
 20
-80.3248
 30
0.0
 10
-97.1722
 20
-75.6395
 30
0.0
 10
-97.1722
 20
-75.6395
 30
0.0
 10
-97.083
 20
-73.6512
 30
0.0
 10
-97.1888
 20
-71.6576
 30
0.0
 10
-97.1164
 20
-69.672
 30
0.0
 10
-97.1164
 20
-69.672
 30
0.0
 10
-98.6458
 20
-66.8757
 30
0.0
 10
-99.9299
 20
-63.9389
 30
0.0
 10
-100.6515
 20
-60.8638
 30
0.0
 10
-100.6515
 20
-60.8638
 30
0.0
 10
-100.7943
 20
-60.1214
 30
0.0
 10
-101.2964
 20
-59.7505
 30
0.0
 10
-101.7984
 20
-59.7506
 30
0.0
  0
SPLINE
  5
68
330
1F
100
AcDbEntity
  8
layer 1
 62
     7
370
     9
100
AcDbSpline
210
0.0
220
0.0
230
1.0
 70
    11
 71
     3
 72
   104
 73
   100
 74
     0
 42
0.0000000001
 43
0.0000000001
 12
1.0
 22
0.0
 32
0.0
 13
1.0
 23
0.0
 33
0.0
 40
0.0
 40
0.0
 40
0.0
 40
0.0
 40
0.0384615384615385
 40
0.0384615384615385
 40
0.0384615384615385
 40
0.0384615384615385
 40
0.0769230769230769
 40
0.0769230769230769
 40
0.0769230769230769
 40
0.0769230769230769
 40
0.1153846153846154
 40
0.1153846153846154
 40
0.1153846153846154
 40
0.1153846153846154
 40
0.1538461538461539
 40
0.1538461538461539
 40
0.1538461538461539
 40
0.1538461538461539
 40
0.1923076923076923
 40
0.1923076923076923
 40
0.1923076923076923
 40
0.1923076923076923
 40
0.2307692307692308
 40
0.2307692307692308
 40
0.2307692307692308
 40
0.2307692307692308
 40
0.2692307692307692
 40
0.2692307692307692
 40
0.2692307692307692
 40
0.2692307692307692
 40
0.3076923076923077
 40
0.3076923076923077
 40
0.3076923076923077
 40
0.3076923076923077
 40
0.3461538461538461
 40
0.3461538461538461
 40
0.3461538461538461
 40
0.3461538461538461
 40
0.3846153846153846
 40
0.3846153846153846
 40
0.3846153846153846
 40
0.3846153846153846
 40
0.4230769230769231
 40
0.4230769230769231
 40
0.4230769230769231
 40
0.4230769230769231
 40
0.4615384615384616
 40
0.4615384615384616
 40
0.4615384615384616
 40
0.4615384615384616
 40
0.5
 40
0.5
 40
0.5
 40
0.5
 40
0.5384615384615384
 40
0.5384615384615384
 40
0.5384615384615384
 40
0.5384615384615384
 40
0.5769230769230769
 40
0.5769230769230769
 40
0.5769230769230769
 40
0.5769230769230769
 40
0.6153846153846154
 40
0.6153846153846154
 40
0.6153846153846154
 40
0.6153846153846154
 40
0.6538461538461539
 40
0.6538461538461539
 40
0.6538461538461539
 40
0.6538461538461539
 40
0.6923076923076923
 40
0.6923076923076923
 40
0.6923076923076923
 40
0.6923076923076923
 40
0.7307692307692307
 40
0.7307692307692307
 40
0.7307692307692307
 40
0.7307692307692307
 40
0.7692307692307693
 40
0.7692307692307693
 40
0.7692307692307693
 40
0.7692307692307693
 40
0.8076923076923077
 40
0.8076923076923077
 40
0.8076923076923077
 40
0.8076923076923077
 40
0.8461538461538461
 40
0.8461538461538461
 40
0.8461538461538461
 40
0.8461538461538461
 40
0.8846153846153846
 40
0.8846153846153846
 40
0.8846153846153846
 40
0.8846153846153846
 40
0.9230769230769231
 40
0.9230769230769231
 40
0.9230769230769231
 40
0.9230769230769231
 40
1.0
 40
1.0
 40
1.0
 40
1.0
 10
-101.7982
 20
121.7383
 30
0.0
 10
-103.2073
 20
121.5134
 30
0.0
 10
-104.6537
 20
121.3823
 30
0.0
 10
-105.9735
 20
120.8322
 30
0.0
 10
-105.9735
 20
120.8322
 30
0.0
 10
-107.4082
 20
120.3867
 30
0.0
 10
-108.606
 20
119.5059
 30
0.0
 10
-109.7956
 20
118.6642
 30
0.0
 10
-109.7956
 20
118.6642
 30
0.0
 10
-110.4808
 20
118.1352
 30
0.0
 10
-110.8874
 20
117.3715
 30
0.0
 10
-111.4892
 20
116.7671
 30
0.0
 10
-111.4892
 20
116.7671
 30
0.0
 10
-112.6286
 20
117.9813
 30
0.0
 10
-114.3306
 20
118.8023
 30
0.0
 10
-116.0914
 20
118.4608
 30
0.0
 10
-116.0914
 20
118.4608
 30
0.0
 10
-116.4368
 20
118.3384
 30
0.0
 10
-117.2279
 20
118.4531
 30
0.0
 10
-117.1164
 20
117.932
 30
0.0
 10
-117.1164
 20
117.932
 30
0.0
 10
-116.4368
 20
117.1867
 30
0.0
 10
-115.6985
 20
116.4699
 30
0.0
 10
-115.2222
 20
115.584
 30
0.0
 10
-115.2222
 20
115.584
 30
0.0
 10
-114.3306
 20
114.0727
 30
0.0
 10
-114.1051
 20
112.3239
 30
0.0
 10
-114.0549
 20
110.6275
 30
0.0
 10
-114.0549
 20
110.6275
 30
0.0
 10
-114.8294
 20
105.3504
 30
0.0
 10
-114.3167
 20
99.7504
 30
0.0
 10
-111.662
 20
94.9685
 30
0.0
 10
-111.662
 20
94.9685
 30
0.0
 10
-112.9545
 20
97.2279
 30
0.0
 10
-115.4115
 20
98.5908
 30
0.0
 10
-116.9633
 20
100.6651
 30
0.0
 10
-116.9633
 20
100.6651
 30
0.0
 10
-119.2476
 20
103.1588
 30
0.0
 10
-121.0946
 20
105.9786
 30
0.0
 10
-122.6045
 20
108.9361
 30
0.0
 10
-122.6045
 20
108.9361
 30
0.0
 10
-124.3345
 20
112.5298
 30
0.0
 10
-125.833
 20
116.4491
 30
0.0
 10
-125.3818
 20
120.4519
 30
0.0
 10
-125.3818
 20
120.4519
 30
0.0
 10
-125.2494
 20
121.8609
 30
0.0
 10
-124.6863
 20
123.2242
 30
0.0
 10
-123.786
 20
124.3477
 30
0.0
 10
-123.786
 20
124.3477
 30
0.0
 10
-123.786
 20
124.3477
 30
0.0
 10
-79.8108
 20
124.3477
 30
0.0
 10
-79.8108
 20
124.3477
 30
0.0
 10
-79.8108
 20
124.3477
 30
0.0
 10
-78.9105
 20
123.2242
 30
0.0
 10
-78.3474
 20
121.8609
 30
0.0
 10
-78.215
 20
120.4519
 30
0.0
 10
-78.215
 20
120.4519
 30
0.0
 10
-77.7638
 20
116.4491
 30
0.0
 10
-79.2623
 20
112.5298
 30
0.0
 10
-80.9923
 20
108.9361
 30
0.0
 10
-80.9923
 20
108.9361
 30
0.0
 10
-82.5022
 20
105.9786
 30
0.0
 10
-84.3492
 20
103.1588
 30
0.0
 10
-86.6335
 20
100.6651
 30
0.0
 10
-86.6335
 20
100.6651
 30
0.0
 10
-88.1853
 20
98.5908
 30
0.0
 10
-90.6423
 20
97.2279
 30
0.0
 10
-91.9348
 20
94.9685
 30
0.0
 10
-91.9348
 20
94.9685
 30
0.0
 10
-89.2801
 20
99.7504
 30
0.0
 10
-88.7674
 20
105.3504
 30
0.0
 10
-89.5419
 20
110.6275
 30
0.0
 10
-89.5419
 20
110.6275
 30
0.0
 10
-89.4917
 20
112.3239
 30
0.0
 10
-89.2662
 20
114.0727
 30
0.0
 10
-88.3746
 20
115.584
 30
0.0
 10
-88.3746
 20
115.584
 30
0.0
 10
-87.8983
 20
116.4699
 30
0.0
 10
-87.16
 20
117.1867
 30
0.0
 10
-86.4804
 20
117.932
 30
0.0
 10
-86.4804
 20
117.932
 30
0.0
 10
-86.3689
 20
118.4531
 30
0.0
 10
-87.16
 20
118.3384
 30
0.0
 10
-87.5054
 20
118.4608
 30
0.0
 10
-87.5054
 20
118.4608
 30
0.0
 10
-89.2662
 20
118.8023
 30
0.0
 10
-90.9682
 20
117.9813
 30
0.0
 10
-92.1076
 20
116.7671
 30
0.0
 10
-92.1076
 20
116.7671
 30
0.0
 10
-92.7094
 20
117.3715
 30
0.0
 10
-93.116
 20
118.1352
 30
0.0
 10
-93.8012
 20
118.6642
 30
0.0
 10
-93.8012
 20
118.6642
 30
0.0
 10
-94.9908
 20
119.5059
 30
0.0
 10
-96.1886
 20
120.3867
 30
0.0
 10
-97.6233
 20
120.8322
 30
0.0
 10
-97.6233
 20
120.8322
 30
0.0
 10
-98.9431
 20
121.3823
 30
0.0
 10
-100.3891
 20
121.5134
 30
0.0
 10
-101.7982
 20
121.7383
 30
0.0
  0
SPLINE
  5
69
330
1F
100
AcDbEntity
  8
layer 1
 62
     7
370
     9
100
AcDbSpline
210
0.0
220
0.0
230
1.0
 70
    11
 71
     3
 72
   108
 73
   104
 74
     0
 42
0.0000000001
 43
0.0000000001
 12
1.0
 22
0.0
 32
0.0
 13
1.0
 23
0.0
 33
0.0
 40
0.0
 40
0.0
 40
0.0
 40
0.0
 40
0.037037037037037
 40
0.037037037037037
 40
0.037037037037037
 40
0.037037037037037
 40
0.0740740740740741
 40
0.0740740740740741
 40
0.0740740740740741
 40
0.0740740740740741
 40
0.1111111111111111
 40
0.1111111111111111
 40
0.1111111111111111
 40
0.1111111111111111
 40
0.1481481481481481
 40
0.1481481481481481
 40
0.1481481481481481
 40
0.1481481481481481
 40
0.1851851851851852
 40
0.1851851851851852
 40
0.1851851851851852
 40
0.1851851851851852
 40
0.2222222222222222
 40
0.2222222222222222
 40
0.2222222222222222
 40
0.2222222222222222
 40
0.2592592592592592
 40
0.2592592592592592
 40
0.2592592592592592
 40
0.2592592592592592
 40
0.2962962962962963
 40
0.2962962962962963
 40
0.2962962962962963
 40
0.2962962962962963
 40
0.3333333333333333
 40
0.3333333333333333
 40
0.3333333333333333
 40
0.3333333333333333
 40
0.3703703703703703
 40
0.3703703703703703
 40
0.3703703703703703
 40
0.3703703703703703
 40
0.4074074074074074
 40
0.4074074074074074
 40
0.4074074074074074
 40
0.4074074074074074
 40
0.4444444444444444
 40
0.4444444444444444
 40
0.4444444444444444
 40
0.4444444444444444
 40
0.4814814814814815
 40
0.4814814814814815
 40
0.4814814814814815
 40
0.4814814814814815
 40
0.5185185185185185
 40
0.5185185185185185
 40
0.5185185185185185
 40
0.5185185185185185
 40
0.5555555555555556
 40
0.5555555555555556
 40
0.5555555555555556
 40
0.5555555555555556
 40
0.5925925925925926
 40
0.5925925925925926
 40
0.5925925925925926
 40
0.5925925925925926
 40
0.6296296296296297
 40
0.6296296296296297
 40
0.6296296296296297
 40
0.6296296296296297
 40
0.6666666666666666
 40
0.6666666666666666
 40
0.6666666666666666
 40
0.6666666666666666
 40
0.7037037037037037
 40
0.7037037037037037
 40
0.7037037037037037
 40
0.7037037037037037
 40
0.7407407407407407
 40
0.7407407407407407
 40
0.7407407407407407
 40
0.7407407407407407
 40
0.7777777777777778
 40
0.7777777777777778
 40
0.7777777777777778
 40
0.7777777777777778
 40
0.8148148148148148
 40
0.8148148148148148
 40
0.8148148148148148
 40
0.8148148148148148
 40
0.8518518518518519
 40
0.8518518518518519
 40
0.8518518518518519
 40
0.8518518518518519
 40
0.8888888888888888
 40
0.8888888888888888
 40
0.8888888888888888
 40
0.8888888888888888
 40
0.9259259259259259
 40
0.9259259259259259
 40
0.9259259259259259
 40
0.9259259259259259
 40
1.0
 40
1.0
 40
1.0
 40
1.0
 10
-101.7984
 20
-13.0072
 30
0.0
 10
-101.7612
 20
-13.0715
 30
0.0
 10
-100.0092
 20
-10.1143
 30
0.0
 10
-99.2865
 20
-9.5324
 30
0.0
 10
-99.2865
 20
-9.5324
 30
0.0
 10
-96.8936
 20
-7.6143
 30
0.0
 10
-95.8739
 20
-4.3676
 30
0.0
 10
-96.7794
 20
-1.5401
 30
0.0
 10
-96.7794
 20
-1.5401
 30
0.0
 10
-95.4171
 20
-1.7956
 30
0.0
 10
-94.4672
 20
-2.8666
 30
0.0
 10
-93.8794
 20
-3.9742
 30
0.0
 10
-93.8794
 20
-3.9742
 30
0.0
 10
-93.4225
 20
-4.8809
 30
0.0
 10
-93.6815
 20
-5.9024
 30
0.0
 10
-93.5841
 20
-6.8614
 30
0.0
 10
-93.5841
 20
-6.8614
 30
0.0
 10
-90.51
 20
-6.3981
 30
0.0
 10
-89.9153
 20
-4.4735
 30
0.0
 10
-89.5335
 20
-1.0997
 30
0.0
 10
-89.5335
 20
-1.0997
 30
0.0
 10
-88.9373
 20
-1.8997
 30
0.0
 10
-88.5222
 20
-2.804
 30
0.0
 10
-87.8482
 20
-3.5519
 30
0.0
 10
-87.8482
 20
-3.5519
 30
0.0
 10
-79.2927
 20
-14.8537
 30
0.0
 10
-67.7408
 20
-2.5219
 30
0.0
 10
-60.1046
 20
2.6867
 30
0.0
 10
-60.1046
 20
2.6867
 30
0.0
 10
-68.8335
 20
6.1065
 30
0.0
 10
-70.465
 20
7.9422
 30
0.0
 10
-79.4287
 20
0.7001
 30
0.0
 10
-79.4287
 20
0.7001
 30
0.0
 10
-80.0884
 20
0.1671
 30
0.0
 10
-80.8677
 20
-0.0623
 30
0.0
 10
-81.735
 20
0.0212
 30
0.0
 10
-81.735
 20
0.0212
 30
0.0
 10
-82.6021
 20
0.1047
 30
0.0
 10
-83.3151
 20
0.478
 30
0.0
 10
-83.8448
 20
1.1256
 30
0.0
 10
-83.8448
 20
1.1256
 30
0.0
 10
-83.8625
 20
1.1473
 30
0.0
 10
-83.8803
 20
1.1691
 30
0.0
 10
-83.898
 20
1.1908
 30
0.0
 10
-83.898
 20
1.1908
 30
0.0
 10
-85.1711
 20
2.6295
 30
0.0
 10
-86.8369
 20
3.6926
 30
0.0
 10
-88.4917
 20
4.714
 30
0.0
 10
-88.4917
 20
4.714
 30
0.0
 10
-92.1884
 20
6.7909
 30
0.0
 10
-96.9936
 20
7.8293
 30
0.0
 10
-101.7984
 20
7.8293
 30
0.0
 10
-101.7984
 20
7.8293
 30
0.0
 10
-106.6032
 20
7.8293
 30
0.0
 10
-111.4084
 20
6.7909
 30
0.0
 10
-115.1051
 20
4.714
 30
0.0
 10
-115.1051
 20
4.714
 30
0.0
 10
-116.7599
 20
3.6926
 30
0.0
 10
-118.4257
 20
2.6295
 30
0.0
 10
-119.6988
 20
1.1908
 30
0.0
 10
-119.6988
 20
1.1908
 30
0.0
 10
-119.7165
 20
1.1691
 30
0.0
 10
-119.7343
 20
1.1473
 30
0.0
 10
-119.752
 20
1.1256
 30
0.0
 10
-119.752
 20
1.1256
 30
0.0
 10
-120.2817
 20
0.478
 30
0.0
 10
-120.9947
 20
0.1047
 30
0.0
 10
-121.8618
 20
0.0212
 30
0.0
 10
-121.8618
 20
0.0212
 30
0.0
 10
-122.7291
 20
-0.0623
 30
0.0
 10
-123.5084
 20
0.1671
 30
0.0
 10
-124.1681
 20
0.7001
 30
0.0
 10
-124.1681
 20
0.7001
 30
0.0
 10
-133.1318
 20
7.9422
 30
0.0
 10
-134.7633
 20
6.1065
 30
0.0
 10
-143.4922
 20
2.6867
 30
0.0
 10
-143.4922
 20
2.6867
 30
0.0
 10
-135.856
 20
-2.5219
 30
0.0
 10
-124.3041
 20
-14.8537
 30
0.0
 10
-115.7486
 20
-3.5519
 30
0.0
 10
-115.7486
 20
-3.5519
 30
0.0
 10
-115.0746
 20
-2.804
 30
0.0
 10
-114.6595
 20
-1.8997
 30
0.0
 10
-114.0633
 20
-1.0997
 30
0.0
 10
-114.0633
 20
-1.0997
 30
0.0
 10
-113.6815
 20
-4.4735
 30
0.0
 10
-113.0868
 20
-6.3981
 30
0.0
 10
-110.0127
 20
-6.8614
 30
0.0
 10
-110.0127
 20
-6.8614
 30
0.0
 10
-109.9153
 20
-5.9024
 30
0.0
 10
-110.1743
 20
-4.8809
 30
0.0
 10
-109.7174
 20
-3.9742
 30
0.0
 10
-109.7174
 20
-3.9742
 30
0.0
 10
-109.1296
 20
-2.8666
 30
0.0
 10
-108.1797
 20
-1.7956
 30
0.0
 10
-106.8174
 20
-1.5401
 30
0.0
 10
-106.8174
 20
-1.5401
 30
0.0
 10
-107.7229
 20
-4.3676
 30
0.0
 10
-106.7032
 20
-7.6143
 30
0.0
 10
-104.3103
 20
-9.5324
 30
0.0
 10
-104.3103
 20
-9.5324
 30
0.0
 10
-103.5876
 20
-10.1143
 30
0.0
 10
-101.8356
 20
-13.0715
 30
0.0
 10
-101.7984
 20
-13.0072
 30
0.0
  0
SPLINE
  5
6A
330
1F
100
AcDbEntity
  8
layer 1
 62
     7
370
     9
100
AcDbSpline
210
0.0
220
0.0
230
1.0
 70
    11
 71
     3
 72
    24
 73
    20
 74
     0
 42
0.0000000001
 43
0.0000000001
 12
1.0
 22
0.0
 32
0.0
 13
1.0
 23
0.0
 33
0.0
 40
0.0
 40
0.0
 40
0.0
 40
0.0
 40
0.1666666666666667
 40
0.1666666666666667
 40
0.1666666666666667
 40
0.1666666666666667
 40
0.3333333333333333
 40
0.3333333333333333
 40
0.3333333333333333
 40
0.3333333333333333
 40
0.5
 40
0.5
 40
0.5
 40
0.5
 40
0.6666666666666666
 40
0.6666666666666666
 40
0.6666666666666666
 40
0.6666666666666666
 40
1.0
 40
1.0
 40
1.0
 40
1.0
 10
-144.1322
 20
-105.9868
 30
0.0
 10
-144.1322
 20
-105.9868
 30
0.0
 10
-131.4818
 20
-105.9868
 30
0.0
 10
-131.4818
 20
-105.9868
 30
0.0
 10
-131.4818
 20
-105.9868
 30
0.0
 10
-131.625
 20
-105.0853
 30
0.0
 10
-131.67
 20
-104.1686
 30
0.0
 10
-131.597
 20
-103.244
 30
0.0
 10
-131.597
 20
-103.244
 30
0.0
 10
-131.5161
 20
-100.4582
 30
0.0
 10
-130.2513
 20
-97.8836
 30
0.0
 10
-128.9671
 20
-95.4236
 30
0.0
 10
-128.9671
 20
-95.4236
 30
0.0
 10
-127.4963
 20
-92.987
 30
0.0
 10
-126.0561
 20
-90.5087
 30
0.0
 10
-125.1006
 20
-87.8456
 30
0.0
 10
-125.1006
 20
-87.8456
 30
0.0
 10
-133.741
 20
-93.6389
 30
0.0
 10
-141.6641
 20
-95.1953
 30
0.0
 10
-144.1322
 20
-105.9868
 30
0.0
  0
SPLINE
  5
6B
330
1F
100
AcDbEntity
  8
layer 1
 62
     7
370
     9
100
AcDbSpline
210
0.0
220
0.0
230
1.0
 70
    11
 71
     3
 72
   104
 73
   100
 74
     0
 42
0.0000000001
 43
0.0000000001
 12
1.0
 22
0.0
 32
0.0
 13
1.0
 23
0.0
 33
0.0
 40
0.0
 40
0.0
 40
0.0
 40
0.0
 40
0.0384615384615385
 40
0.0384615384615385
 40
0.0384615384615385
 40
0.0384615384615385
 40
0.0769230769230769
 40
0.0769230769230769
 40
0.0769230769230769
 40
0.0769230769230769
 40
0.1153846153846154
 40
0.1153846153846154
 40
0.1153846153846154
 40
0.1153846153846154
 40
0.1538461538461539
 40
0.1538461538461539
 40
0.1538461538461539
 40
0.1538461538461539
 40
0.1923076923076923
 40
0.1923076923076923
 40
0.1923076923076923
 40
0.1923076923076923
 40
0.2307692307692308
 40
0.2307692307692308
 40
0.2307692307692308
 40
0.2307692307692308
 40
0.2692307692307692
 40
0.2692307692307692
 40
0.2692307692307692
 40
0.2692307692307692
 40
0.3076923076923077
 40
0.3076923076923077
 40
0.3076923076923077
 40
0.3076923076923077
 40
0.3461538461538461
 40
0.3461538461538461
 40
0.3461538461538461
 40
0.3461538461538461
 40
0.3846153846153846
 40
0.3846153846153846
 40
0.3846153846153846
 40
0.3846153846153846
 40
0.4230769230769231
 40
0.4230769230769231
 40
0.4230769230769231
 40
0.4230769230769231
 40
0.4615384615384616
 40
0.4615384615384616
 40
0.4615384615384616
 40
0.4615384615384616
 40
0.5
 40
0.5
 40
0.5
 40
0.5
 40
0.5384615384615384
 40
0.5384615384615384
 40
0.5384615384615384
 40
0.5384615384615384
 40
0.5769230769230769
 40
0.5769230769230769
 40
0.5769230769230769
 40
0.5769230769230769
 40
0.6153846153846154
 40
0.6153846153846154
 40
0.6153846153846154
 40
0.6153846153846154
 40
0.6538461538461539
 40
0.6538461538461539
 40
0.6538461538461539
 40
0.6538461538461539
 40
0.6923076923076923
 40
0.6923076923076923
 40
0.6923076923076923
 40
0.6923076923076923
 40
0.7307692307692307
 40
0.7307692307692307
 40
0.7307692307692307
 40
0.7307692307692307
 40
0.7692307692307693
 40
0.7692307692307693
 40
0.7692307692307693
 40
0.7692307692307693
 40
0.8076923076923077
 40
0.8076923076923077
 40
0.8076923076923077
 40
0.8076923076923077
 40
0.8461538461538461
 40
0.8461538461538461
 40
0.8461538461538461
 40
0.8461538461538461
 40
0.8846153846153846
 40
0.8846153846153846
 40
0.8846153846153846
 40
0.8846153846153846
 40
0.9230769230769231
 40
0.9230769230769231
 40
0.9230769230769231
 40
0.9230769230769231
 40
1.0
 40
1.0
 40
1.0
 40
1.0
 10
-101.7982
 20
-103.2275
 30
0.0
 10
-103.2073
 20
-103.0026
 30
0.0
 10
-104.6537
 20
-102.8715
 30
0.0
 10
-105.9735
 20
-102.3214
 30
0.0
 10
-105.9735
 20
-102.3214
 30
0.0
 10
-107.4082
 20
-101.8759
 30
0.0
 10
-108.606
 20
-100.9951
 30
0.0
 10
-109.7956
 20
-100.1534
 30
0.0
 10
-109.7956
 20
-100.1534
 30
0.0
 10
-110.4808
 20
-99.6244
 30
0.0
 10
-110.8874
 20
-98.8607
 30
0.0
 10
-111.4892
 20
-98.2563
 30
0.0
 10
-111.4892
 20
-98.2563
 30
0.0
 10
-112.6286
 20
-99.4705
 30
0.0
 10
-114.3306
 20
-100.2915
 30
0.0
 10
-116.0914
 20
-99.9499
 30
0.0
 10
-116.0914
 20
-99.9499
 30
0.0
 10
-116.4368
 20
-99.8276
 30
0.0
 10
-117.2279
 20
-99.9423
 30
0.0
 10
-117.1164
 20
-99.4212
 30
0.0
 10
-117.1164
 20
-99.4212
 30
0.0
 10
-116.4368
 20
-98.6759
 30
0.0
 10
-115.6985
 20
-97.9591
 30
0.0
 10
-115.2222
 20
-97.0732
 30
0.0
 10
-115.2222
 20
-97.0732
 30
0.0
 10
-114.3306
 20
-95.5619
 30
0.0
 10
-114.1051
 20
-93.8131
 30
0.0
 10
-114.0549
 20
-92.1167
 30
0.0
 10
-114.0549
 20
-92.1167
 30
0.0
 10
-114.8294
 20
-86.8396
 30
0.0
 10
-114.3167
 20
-81.2395
 30
0.0
 10
-111.662
 20
-76.4577
 30
0.0
 10
-111.662
 20
-76.4577
 30
0.0
 10
-112.9545
 20
-78.7171
 30
0.0
 10
-115.4115
 20
-80.08
 30
0.0
 10
-116.9633
 20
-82.1542
 30
0.0
 10
-116.9633
 20
-82.1542
 30
0.0
 10
-119.2476
 20
-84.648
 30
0.0
 10
-121.0946
 20
-87.4678
 30
0.0
 10
-122.6045
 20
-90.4253
 30
0.0
 10
-122.6045
 20
-90.4253
 30
0.0
 10
-124.3345
 20
-94.019
 30
0.0
 10
-125.833
 20
-97.9383
 30
0.0
 10
-125.3818
 20
-101.9411
 30
0.0
 10
-125.3818
 20
-101.9411
 30
0.0
 10
-125.2434
 20
-103.4134
 30
0.0
 10
-124.6349
 20
-104.8359
 30
0.0
 10
-123.6626
 20
-105.9868
 30
0.0
 10
-123.6626
 20
-105.9868
 30
0.0
 10
-123.6626
 20
-105.9868
 30
0.0
 10
-79.9342
 20
-105.9868
 30
0.0
 10
-79.9342
 20
-105.9868
 30
0.0
 10
-79.9342
 20
-105.9868
 30
0.0
 10
-78.9619
 20
-104.8359
 30
0.0
 10
-78.3534
 20
-103.4134
 30
0.0
 10
-78.215
 20
-101.9411
 30
0.0
 10
-78.215
 20
-101.9411
 30
0.0
 10
-77.7638
 20
-97.9383
 30
0.0
 10
-79.2623
 20
-94.019
 30
0.0
 10
-80.9923
 20
-90.4253
 30
0.0
 10
-80.9923
 20
-90.4253
 30
0.0
 10
-82.5022
 20
-87.4678
 30
0.0
 10
-84.3492
 20
-84.648
 30
0.0
 10
-86.6335
 20
-82.1542
 30
0.0
 10
-86.6335
 20
-82.1542
 30
0.0
 10
-88.1853
 20
-80.08
 30
0.0
 10
-90.6423
 20
-78.7171
 30
0.0
 10
-91.9348
 20
-76.4577
 30
0.0
 10
-91.9348
 20
-76.4577
 30
0.0
 10
-89.2801
 20
-81.2395
 30
0.0
 10
-88.7674
 20
-86.8396
 30
0.0
 10
-89.5419
 20
-92.1167
 30
0.0
 10
-89.5419
 20
-92.1167
 30
0.0
 10
-89.4917
 20
-93.8131
 30
0.0
 10
-89.2662
 20
-95.5619
 30
0.0
 10
-88.3746
 20
-97.0732
 30
0.0
 10
-88.3746
 20
-97.0732
 30
0.0
 10
-87.8983
 20
-97.9591
 30
0.0
 10
-87.16
 20
-98.6759
 30
0.0
 10
-86.4804
 20
-99.4212
 30
0.0
 10
-86.4804
 20
-99.4212
 30
0.0
 10
-86.3689
 20
-99.9423
 30
0.0
 10
-87.16
 20
-99.8276
 30
0.0
 10
-87.5054
 20
-99.9499
 30
0.0
 10
-87.5054
 20
-99.9499
 30
0.0
 10
-89.2662
 20
-100.2915
 30
0.0
 10
-90.9682
 20
-99.4705
 30
0.0
 10
-92.1076
 20
-98.2563
 30
0.0
 10
-92.1076
 20
-98.2563
 30
0.0
 10
-92.7094
 20
-98.8607
 30
0.0
 10
-93.116
 20
-99.6244
 30
0.0
 10
-93.8012
 20
-100.1534
 30
0.0
 10
-93.8012
 20
-100.1534
 30
0.0
 10
-94.9908
 20
-100.9951
 30
0.0
 10
-96.1886
 20
-101.8759
 30
0.0
 10
-97.6233
 20
-102.3214
 30
0.0
 10
-97.6233
 20
-102.3214
 30
0.0
 10
-98.9431
 20
-102.8715
 30
0.0
 10
-100.3891
 20
-103.0026
 30
0.0
 10
-101.7982
 20
-103.2275
 30
0.0
  0
SPLINE
  5
6C
330
1F
100
AcDbEntity
  8
layer 1
 62
     7
370
     9
100
AcDbSpline
210
0.0
220
0.0
230
1.0
 70
    11
 71
     3
 72
    48
 73
    44
 74
     0
 42
0.0000000001
 43
0.0000000001
 12
1.0
 22
0.0
 32
0.0
 13
1.0
 23
0.0
 33
0.0
 40
0.0
 40
0.0
 40
0.0
 40
0.0
 40
0.0833333333333333
 40
0.0833333333333333
 40
0.0833333333333333
 40
0.0833333333333333
 40
0.1666666666666667
 40
0.1666666666666667
 40
0.1666666666666667
 40
0.1666666666666667
 40
0.25
 40
0.25
 40
0.25
 40
0.25
 40
0.3333333333333333
 40
0.3333333333333333
 40
0.3333333333333333
 40
0.3333333333333333
 40
0.4166666666666667
 40
0.4166666666666667
 40
0.4166666666666667
 40
0.4166666666666667
 40
0.5
 40
0.5
 40
0.5
 40
0.5
 40
0.5833333333333334
 40
0.5833333333333334
 40
0.5833333333333334
 40
0.5833333333333334
 40
0.6666666666666666
 40
0.6666666666666666
 40
0.6666666666666666
 40
0.6666666666666666
 40
0.75
 40
0.75
 40
0.75
 40
0.75
 40
0.8333333333333334
 40
0.8333333333333334
 40
0.8333333333333334
 40
0.8333333333333334
 40
1.0
 40
1.0
 40
1.0
 40
1.0
 10
-179.6599
 20
-74.4392
 30
0.0
 10
-177.6521
 20
-78.9038
 30
0.0
 10
-174.7656
 20
-82.9546
 30
0.0
 10
-170.7704
 20
-85.8244
 30
0.0
 10
-170.7704
 20
-85.8244
 30
0.0
 10
-173.1132
 20
-88.743
 30
0.0
 10
-172.6313
 20
-93.3268
 30
0.0
 10
-169.6505
 20
-95.6904
 30
0.0
 10
-169.6505
 20
-95.6904
 30
0.0
 10
-167.7478
 20
-97.108
 30
0.0
 10
-165.2128
 20
-97.3687
 30
0.0
 10
-162.8838
 20
-96.9648
 30
0.0
 10
-162.8838
 20
-96.9648
 30
0.0
 10
-163.4466
 20
-96.2612
 30
0.0
 10
-164.327
 20
-95.8103
 30
0.0
 10
-164.7337
 20
-94.9894
 30
0.0
 10
-164.7337
 20
-94.9894
 30
0.0
 10
-165.1933
 20
-94.2911
 30
0.0
 10
-165.3215
 20
-93.3816
 30
0.0
 10
-164.8478
 20
-92.6572
 30
0.0
 10
-164.8478
 20
-92.6572
 30
0.0
 10
-164.3855
 20
-91.5261
 30
0.0
 10
-163.1318
 20
-90.9841
 30
0.0
 10
-162.0007
 20
-90.588
 30
0.0
 10
-162.0007
 20
-90.588
 30
0.0
 10
-158.8027
 20
-89.6968
 30
0.0
 10
-155.4235
 20
-90.4968
 30
0.0
 10
-152.3815
 20
-91.5236
 30
0.0
 10
-152.3815
 20
-91.5236
 30
0.0
 10
-149.763
 20
-92.4043
 30
0.0
 10
-146.9604
 20
-92.0291
 30
0.0
 10
-144.2471
 20
-92.1359
 30
0.0
 10
-144.2471
 20
-92.1359
 30
0.0
 10
-150.2483
 20
-94.9413
 30
0.0
 10
-158.3302
 20
-100.315
 30
0.0
 10
-164.2568
 20
-105.8405
 30
0.0
 10
-164.2568
 20
-105.8405
 30
0.0
 10
-164.2568
 20
-105.8405
 30
0.0
 10
-179.6321
 20
-105.8405
 30
0.0
 10
-179.6321
 20
-105.8405
 30
0.0
 10
-179.6321
 20
-105.8405
 30
0.0
 10
-179.6321
 20
-105.8405
 30
0.0
 10
-179.6599
 20
-74.4392
 30
0.0
 10
-179.6599
 20
-74.4392
 30
0.0
  0
SPLINE
  5
6D
330
1F
100
AcDbEntity
  8
layer 1
 62
     7
370
     9
100
AcDbSpline
210
0.0
220
0.0
230
1.0
 70
    11
 71
     3
 72
    48
 73
    44
 74
     0
 42
0.0000000001
 43
0.0000000001
 12
1.0
 22
0.0
 32
0.0
 13
1.0
 23
0.0
 33
0.0
 40
0.0
 40
0.0
 40
0.0
 40
0.0
 40
0.0833333333333333
 40
0.0833333333333333
 40
0.0833333333333333
 40
0.0833333333333333
 40
0.1666666666666667
 40
0.1666666666666667
 40
0.1666666666666667
 40
0.1666666666666667
 40
0.25
 40
0.25
 40
0.25
 40
0.25
 40
0.3333333333333333
 40
0.3333333333333333
 40
0.3333333333333333
 40
0.3333333333333333
 40
0.4166666666666667
 40
0.4166666666666667
 40
0.4166666666666667
 40
0.4166666666666667
 40
0.5
 40
0.5
 40
0.5
 40
0.5
 40
0.5833333333333334
 40
0.5833333333333334
 40
0.5833333333333334
 40
0.5833333333333334
 40
0.6666666666666666
 40
0.6666666666666666
 40
0.6666666666666666
 40
0.6666666666666666
 40
0.75
 40
0.75
 40
0.75
 40
0.75
 40
0.8333333333333334
 40
0.8333333333333334
 40
0.8333333333333334
 40
0.8333333333333334
 40
1.0
 40
1.0
 40
1.0
 40
1.0
 10
-23.9773
 20
-74.4392
 30
0.0
 10
-25.9851
 20
-78.9038
 30
0.0
 10
-28.8715
 20
-82.9546
 30
0.0
 10
-32.8667
 20
-85.8244
 30
0.0
 10
-32.8667
 20
-85.8244
 30
0.0
 10
-30.524
 20
-88.743
 30
0.0
 10
-31.0059
 20
-93.3268
 30
0.0
 10
-33.9867
 20
-95.6904
 30
0.0
 10
-33.9867
 20
-95.6904
 30
0.0
 10
-35.8894
 20
-97.108
 30
0.0
 10
-38.4244
 20
-97.3687
 30
0.0
 10
-40.7534
 20
-96.9648
 30
0.0
 10
-40.7534
 20
-96.9648
 30
0.0
 10
-40.1906
 20
-96.2612
 30
0.0
 10
-39.3102
 20
-95.8103
 30
0.0
 10
-38.9035
 20
-94.9894
 30
0.0
 10
-38.9035
 20
-94.9894
 30
0.0
 10
-38.4439
 20
-94.2911
 30
0.0
 10
-38.3157
 20
-93.3816
 30
0.0
 10
-38.7894
 20
-92.6572
 30
0.0
 10
-38.7894
 20
-92.6572
 30
0.0
 10
-39.2517
 20
-91.5261
 30
0.0
 10
-40.5054
 20
-90.9841
 30
0.0
 10
-41.6365
 20
-90.588
 30
0.0
 10
-41.6365
 20
-90.588
 30
0.0
 10
-44.8344
 20
-89.6968
 30
0.0
 10
-48.2137
 20
-90.4968
 30
0.0
 10
-51.2557
 20
-91.5236
 30
0.0
 10
-51.2557
 20
-91.5236
 30
0.0
 10
-53.8742
 20
-92.4043
 30
0.0
 10
-56.6768
 20
-92.0291
 30
0.0
 10
-59.3901
 20
-92.1359
 30
0.0
 10
-59.3901
 20
-92.1359
 30
0.0
 10
-53.3889
 20
-94.9413
 30
0.0
 10
-45.307
 20
-100.315
 30
0.0
 10
-39.3804
 20
-105.8405
 30
0.0
 10
-39.3804
 20
-105.8405
 30
0.0
 10
-39.3804
 20
-105.8405
 30
0.0
 10
-24.0051
 20
-105.8405
 30
0.0
 10
-24.0051
 20
-105.8405
 30
0.0
 10
-24.0051
 20
-105.8405
 30
0.0
 10
-24.0051
 20
-105.8405
 30
0.0
 10
-23.9773
 20
-74.4392
 30
0.0
 10
-23.9773
 20
-74.4392
 30
0.0
  0
ENDSEC
  0
SECTION
  2
OBJECTS
  0
DICTIONARY
  5
C
330
0
100
AcDbDictionary
281
     1
  3
ACAD_GROUP
350
D
  3
ACAD_LAYOUT
350
1A
  3
ACAD_MATERIAL
350
3B
  3
ACAD_MLEADERSTYLE
350
8F
  3
ACAD_MLINESTYLE
350
17
  3
ACAD_PLOTSETTINGS
350
19
  3
ACAD_PLOTSTYLENAME
350
E
  3
ACAD_TABLESTYLE
350
8E
  3
ACAD_VISUALSTYLE
350
2A
  0
DICTIONARY
  5
D
102
{ACAD_REACTORS
330
C
102
}
330
C
100
AcDbDictionary
281
     1
  0
DICTIONARY
  5
1A
102
{ACAD_REACTORS
330
C
102
}
330
C
100
AcDbDictionary
281
     1
  3
Layout1
350
1E
  3
Layout2
350
26
  3
Model
350
22
  0
DICTIONARY
  5
3B
102
{ACAD_REACTORS
330
C
102
}
330
C
100
AcDbDictionary
281
     1
  3
ByBlock
350
3D
  3
ByLayer
350
3C
  3
Global
350
3E
  0
DICTIONARY
  5
8F
102
{ACAD_REACTORS
330
C
102
}
330
C
100
AcDbDictionary
281
     1
  0
DICTIONARY
  5
17
102
{ACAD_REACTORS
330
C
102
}
330
C
100
AcDbDictionary
281
     1
  3
Standard
350
18
  0
DICTIONARY
  5
19
102
{ACAD_REACTORS
330
C
102
}
330
C
100
AcDbDictionary
281
     1
  0
ACDBDICTIONARYWDFLT
  5
E
102
{ACAD_REACTORS
330
C
102
}
330
C
100
AcDbDictionary
281
     1
  3
Normal
350
F
100
AcDbDictionaryWithDefault
340
F
  0
DICTIONARY
  5
8E
102
{ACAD_REACTORS
330
C
102
}
330
C
100
AcDbDictionary
281
     1
  0
DICTIONARY
  5
2A
102
{ACAD_REACTORS
330
C
102
}
330
C
100
AcDbDictionary
281
     1
  3
2dWireframe
350
2F
  3
3D Hidden
350
31
  3
3dWireframe
350
30
  3
Basic
350
32
  3
Brighten
350
36
  3
ColorChange
350
3A
  3
Conceptual
350
34
  3
Dim
350
35
  3
Facepattern
350
39
  3
Flat
350
2B
  3
FlatWithEdges
350
2C
  3
Gouraud
350
2D
  3
GouraudWithEdges
350
2E
  3
Linepattern
350
38
  3
Realistic
350
33
  3
Thicken
350
37
  0
LAYOUT
  5
1E
102
{ACAD_REACTORS
330
1A
102
}
330
1A
100
AcDbPlotSettings
  1

  2
none_device
  4

  6

 40
0.0
 41
0.0
 42
0.0
 43
0.0
 44
0.0
 45
0.0
 46
0.0
 47
0.0
 48
0.0
 49
0.0
140
0.0
141
0.0
142
1.0
143
1.0
 70
   688
 72
     0
 73
     0
 74
     5
  7

 75
    16
 76
     0
 77
     2
 78
   300
147
1.0
148
0.0
149
0.0
100
AcDbLayout
  1
Layout1
 70
     1
 71
     1
 10
0.0
 20
0.0
 11
12.0
 21
9.0
 12
0.0
 22
0.0
 32
0.0
 14
1.000000000000000E+20
 24
1.000000000000000E+20
 34
1.000000000000000E+20
 15
-1.000000000000000E+20
 25
-1.000000000000000E+20
 35
-1.000000000000000E+20
146
0.0
 13
0.0
 23
0.0
 33
0.0
 16
1.0
 26
0.0
 36
0.0
 17
0.0
 27
1.0
 37
0.0
 76
     0
330
1B
  0
LAYOUT
  5
26
102
{ACAD_REACTORS
330
1A
102
}
330
1A
100
AcDbPlotSettings
  1

  2
none_device
  4

  6

 40
0.0
 41
0.0
 42
0.0
 43
0.0
 44
0.0
 45
0.0
 46
0.0
 47
0.0
 48
0.0
 49
0.0
140
0.0
141
0.0
142
1.0
143
1.0
 70
   688
 72
     0
 73
     0
 74
     5
  7

 75
    16
 76
     0
 77
     2
 78
   300
147
1.0
148
0.0
149
0.0
100
AcDbLayout
  1
Layout2
 70
     1
 71
     2
 10
0.0
 20
0.0
 11
0.0
 21
0.0
 12
0.0
 22
0.0
 32
0.0
 14
0.0
 24
0.0
 34
0.0
 15
0.0
 25
0.0
 35
0.0
146
0.0
 13
0.0
 23
0.0
 33
0.0
 16
1.0
 26
0.0
 36
0.0
 17
0.0
 27
1.0
 37
0.0
 76
     0
330
23
  0
LAYOUT
  5
22
102
{ACAD_REACTORS
330
1A
102
}
330
1A
100
AcDbPlotSettings
  1

  2
none_device
  4

  6

 40
0.0
 41
0.0
 42
0.0
 43
0.0
 44
0.0
 45
0.0
 46
0.0
 47
0.0
 48
0.0
 49
0.0
140
0.0
141
0.0
142
1.0
143
1.0
 70
  1712
 72
     0
 73
     0
 74
     0
  7

 75
     0
 76
     0
 77
     2
 78
   300
147
1.0
148
0.0
149
0.0
100
AcDbLayout
  1
Model
 70
     1
 71
     0
 10
0.0
 20
0.0
 11
12.0
 21
9.0
 12
0.0
 22
0.0
 32
0.0
 14
-187.5995
 24
-114.2445
 34
0.0
 15
-15.9648
 25
132.6055
 35
0.0
146
0.0
 13
0.0
 23
0.0
 33
0.0
 16
1.0
 26
0.0
 36
0.0
 17
0.0
 27
1.0
 37
0.0
 76
     0
330
1F
331
29
  0
MATERIAL
  5
3D
102
{ACAD_REACTORS
330
3B
102
}
330
3B
100
AcDbMaterial
  1
ByBlock
 72
     1
 94
      127
  0
MATERIAL
  5
3C
102
{ACAD_REACTORS
330
3B
102
}
330
3B
100
AcDbMaterial
  1
ByLayer
 72
     1
 94
      127
  0
MATERIAL
  5
3E
102
{ACAD_REACTORS
330
3B
102
}
330
3B
100
AcDbMaterial
  1
Global
 72
     1
 94
      127
  0
MLINESTYLE
  5
18
102
{ACAD_REACTORS
330
17
102
}
330
17
100
AcDbMlineStyle
  2
Standard
 70
     0
  3

 62
   256
 51
90.0
 52
90.0
 71
     2
 49
0.5
 62
   256
  6
BYLAYER
 49
-0.5
 62
   256
  6
BYLAYER
  0
ACDBPLACEHOLDER
  5
F
102
{ACAD_REACTORS
330
E
102
}
330
E
  0
VISUALSTYLE
  5
2F
102
{ACAD_REACTORS
330
2A
102
}
102
{ACAD_XDICTIONARY
360
76
102
}
330
2A
100
AcDbVisualStyle
  2
2dWireframe
 70
     4
 71
     0
 72
     2
 73
     0
 90
        0
 40
-0.6
 41
-30.0
 62
     5
 63
     7
421
 16777215
 74
     1
 91
        4
 64
     7
 65
   257
 75
     1
175
     1
 42
1.0
 92
        0
 66
   257
 43
1.0
 76
     1
 77
     6
 78
     2
 67
     7
 79
     5
170
     0
171
     0
290
     0
174
     0
 93
        1
 44
0.0
173
     0
291
     0
 45
0.0
  0
VISUALSTYLE
  5
31
102
{ACAD_REACTORS
330
2A
102
}
102
{ACAD_XDICTIONARY
360
7A
102
}
330
2A
100
AcDbVisualStyle
  2
3D Hidden
 70
     6
 71
     1
 72
     2
 73
     2
 90
        0
 40
-0.6
 41
-30.0
 62
     5
 63
     7
421
 16777215
 74
     2
 91
        2
 64
     7
 65
   257
 75
     2
175
     1
 42
40.0
 92
        0
 66
   257
 43
1.0
 76
     1
 77
     6
 78
     2
 67
     7
 79
     3
170
     0
171
     0
290
     0
174
     0
 93
        1
 44
0.0
173
     0
291
     0
 45
0.0
  0
VISUALSTYLE
  5
30
102
{ACAD_REACTORS
330
2A
102
}
102
{ACAD_XDICTIONARY
360
78
102
}
330
2A
100
AcDbVisualStyle
  2
3dWireframe
 70
     5
 71
     0
 72
     2
 73
     0
 90
        0
 40
-0.6
 41
-30.0
 62
     5
 63
     7
421
 16777215
 74
     1
 91
        4
 64
     7
 65
   257
 75
     1
175
     1
 42
1.0
 92
        0
 66
   257
 43
1.0
 76
     1
 77
     6
 78
     2
 67
     7
 79
     5
170
     0
171
     0
290
     0
174
     0
 93
        1
 44
0.0
173
     0
291
     0
 45
0.0
  0
VISUALSTYLE
  5
32
102
{ACAD_REACTORS
330
2A
102
}
102
{ACAD_XDICTIONARY
360
7C
102
}
330
2A
100
AcDbVisualStyle
  2
Basic
 70
     7
 71
     1
 72
     0
 73
     1
 90
        0
 40
-0.6
 41
-30.0
 62
     5
 63
     7
421
 16777215
 74
     0
 91
        4
 64
     7
 65
   257
 75
     1
175
     1
 42
1.0
 92
        8
 66
     7
 43
1.0
 76
     1
 77
     6
 78
     2
 67
     7
 79
     5
170
     0
171
     0
290
     0
174
     0
 93
        1
 44
0.0
173
     0
291
     1
 45
0.0
  0
VISUALSTYLE
  5
36
102
{ACAD_REACTORS
330
2A
102
}
102
{ACAD_XDICTIONARY
360
84
102
}
330
2A
100
AcDbVisualStyle
  2
Brighten
 70
    12
 71
     2
 72
     2
 73
     0
 90
        0
 40
-0.6
 41
-30.0
 62
     5
 63
     7
421
 16777215
 74
     1
 91
        4
 64
     7
 65
   257
 75
     1
175
     1
 42
1.0
 92
        8
 66
     7
 43
1.0
 76
     1
 77
     6
 78
     2
 67
     7
 79
     5
170
     0
171
     0
290
     0
174
     0
 93
        1
 44
50.0
173
     0
291
     1
 45
0.0
  0
VISUALSTYLE
  5
3A
102
{ACAD_REACTORS
330
2A
102
}
102
{ACAD_XDICTIONARY
360
8C
102
}
330
2A
100
AcDbVisualStyle
  2
ColorChange
 70
    16
 71
     2
 72
     2
 73
     3
 90
        0
 40
-0.6
 41
-30.0
 62
     5
 63
     8
421
  8421504
 74
     1
 91
        4
 64
     7
 65
   257
 75
     1
175
     1
 42
1.0
 92
        8
 66
     8
424
  8421504
 43
1.0
 76
     1
 77
     6
 78
     2
 67
     7
 79
     5
170
     0
171
     0
290
     0
174
     0
 93
        1
 44
0.0
173
     0
291
     1
 45
0.0
  0
VISUALSTYLE
  5
34
102
{ACAD_REACTORS
330
2A
102
}
102
{ACAD_XDICTIONARY
360
80
102
}
330
2A
100
AcDbVisualStyle
  2
Conceptual
 70
     9
 71
     3
 72
     2
 73
     0
 90
        0
 40
-0.6
 41
-30.0
 62
     5
 63
     7
421
 16777215
 74
     2
 91
        2
 64
     7
 65
   257
 75
     1
175
     1
 42
40.0
 92
        8
 66
     7
 43
1.0
 76
     1
 77
     6
 78
     2
 67
     7
 79
     3
170
     0
171
     0
290
     0
174
     0
 93
        1
 44
0.0
173
     0
291
     0
 45
0.0
  0
VISUALSTYLE
  5
35
102
{ACAD_REACTORS
330
2A
102
}
102
{ACAD_XDICTIONARY
360
82
102
}
330
2A
100
AcDbVisualStyle
  2
Dim
 70
    11
 71
     2
 72
     2
 73
     0
 90
        0
 40
-0.6
 41
-30.0
 62
     5
 63
     7
421
 16777215
 74
     1
 91
        4
 64
     7
 65
   257
 75
     1
175
     1
 42
1.0
 92
        8
 66
     7
 43
1.0
 76
     1
 77
     6
 78
     2
 67
     7
 79
     5
170
     0
171
     0
290
     0
174
     0
 93
        1
 44
-50.0
173
     0
291
     1
 45
0.0
  0
VISUALSTYLE
  5
39
102
{ACAD_REACTORS
330
2A
102
}
102
{ACAD_XDICTIONARY
360
8A
102
}
330
2A
100
AcDbVisualStyle
  2
Facepattern
 70
    15
 71
     2
 72
     2
 73
     0
 90
        0
 40
-0.6
 41
-30.0
 62
     5
 63
     7
421
 16777215
 74
     1
 91
        4
 64
     7
 65
   257
 75
     1
175
     1
 42
1.0
 92
        8
 66
     7
 43
1.0
 76
     1
 77
     6
 78
     2
 67
     7
 79
     5
170
     0
171
     0
290
     0
174
     0
 93
        1
 44
0.0
173
     0
291
     1
 45
0.0
  0
VISUALSTYLE
  5
2B
102
{ACAD_REACTORS
330
2A
102
}
102
{ACAD_XDICTIONARY
360
6E
102
}
330
2A
100
AcDbVisualStyle
  2
Flat
 70
     0
 71
     2
 72
     1
 73
     1
 90
        2
 40
-0.6
 41
30.0
 62
     5
 63
     7
421
 16777215
 74
     0
 91
        4
 64
     7
 65
   257
 75
     1
175
     1
 42
1.0
 92
        8
 66
     7
 43
1.0
 76
     1
 77
     6
 78
     2
 67
     7
 79
     5
170
     0
171
     0
290
     0
174
     0
 93
       13
 44
0.0
173
     0
291
     1
 45
0.0
  0
VISUALSTYLE
  5
2C
102
{ACAD_REACTORS
330
2A
102
}
102
{ACAD_XDICTIONARY
360
70
102
}
330
2A
100
AcDbVisualStyle
  2
FlatWithEdges
 70
     1
 71
     2
 72
     1
 73
     1
 90
        2
 40
-0.6
 41
30.0
 62
     5
 63
     7
421
 16777215
 74
     1
 91
        4
 64
     7
 65
   257
 75
     1
175
     1
 42
1.0
 92
        0
 66
   257
 43
1.0
 76
     1
 77
     6
 78
     2
 67
     7
 79
     5
170
     0
171
     0
290
     0
174
     0
 93
       13
 44
0.0
173
     0
291
     1
 45
0.0
  0
VISUALSTYLE
  5
2D
102
{ACAD_REACTORS
330
2A
102
}
102
{ACAD_XDICTIONARY
360
72
102
}
330
2A
100
AcDbVisualStyle
  2
Gouraud
 70
     2
 71
     2
 72
     2
 73
     1
 90
        2
 40
-0.6
 41
30.0
 62
     5
 63
     7
421
 16777215
 74
     0
 91
        4
 64
     7
 65
   257
 75
     1
175
     1
 42
1.0
 92
        0
 66
     7
 43
1.0
 76
     1
 77
     6
 78
     2
 67
     7
 79
     5
170
     0
171
     0
290
     0
174
     0
 93
       13
 44
0.0
173
     0
291
     1
 45
0.0
  0
VISUALSTYLE
  5
2E
102
{ACAD_REACTORS
330
2A
102
}
102
{ACAD_XDICTIONARY
360
74
102
}
330
2A
100
AcDbVisualStyle
  2
GouraudWithEdges
 70
     3
 71
     2
 72
     2
 73
     1
 90
        2
 40
-0.6
 41
30.0
 62
     5
 63
     7
421
 16777215
 74
     1
 91
        4
 64
     7
 65
   257
 75
     1
175
     1
 42
1.0
 92
        0
 66
   257
 43
1.0
 76
     1
 77
     6
 78
     2
 67
     7
 79
     5
170
     0
171
     0
290
     0
174
     0
 93
       13
 44
0.0
173
     0
291
     1
 45
0.0
  0
VISUALSTYLE
  5
38
102
{ACAD_REACTORS
330
2A
102
}
102
{ACAD_XDICTIONARY
360
88
102
}
330
2A
100
AcDbVisualStyle
  2
Linepattern
 70
    14
 71
     2
 72
     2
 73
     0
 90
        0
 40
-0.6
 41
-30.0
 62
     5
 63
     7
421
 16777215
 74
     1
 91
        4
 64
     7
 65
   257
 75
     7
175
     7
 42
1.0
 92
        8
 66
     7
 43
1.0
 76
     1
 77
     6
 78
     2
 67
     7
 79
     5
170
     0
171
     0
290
     0
174
     0
 93
        1
 44
0.0
173
     0
291
     1
 45
0.0
  0
VISUALSTYLE
  5
33
102
{ACAD_REACTORS
330
2A
102
}
102
{ACAD_XDICTIONARY
360
7E
102
}
330
2A
100
AcDbVisualStyle
  2
Realistic
 70
     8
 71
     2
 72
     2
 73
     0
 90
        0
 40
-0.6
 41
-30.0
 62
     5
 63
     7
421
 16777215
 74
     1
 91
        0
 64
     7
 65
   257
 75
     1
175
     1
 42
1.0
 92
        8
 66
     8
424
  7895160
 43
1.0
 76
     1
 77
     6
 78
     2
 67
     7
 79
     5
170
     0
171
     0
290
     0
174
     0
 93
       13
 44
0.0
173
     0
291
     0
 45
0.0
  0
VISUALSTYLE
  5
37
102
{ACAD_REACTORS
330
2A
102
}
102
{ACAD_XDICTIONARY
360
86
102
}
330
2A
100
AcDbVisualStyle
  2
Thicken
 70
    13
 71
     2
 72
     2
 73
     0
 90
        0
 40
-0.6
 41
-30.0
 62
     5
 63
     7
421
 16777215
 74
     1
 91
        4
 64
     7
 65
   257
 75
     1
175
     1
 42
1.0
 92
       12
 66
     7
 43
1.0
 76
     1
 77
     6
 78
     2
 67
     7
 79
     5
170
     0
171
     0
290
     0
174
     0
 93
        1
 44
0.0
173
     0
291
     1
 45
0.0
  0
DICTIONARY
  5
76
330
2F
100
AcDbDictionary
280
     1
281
     1
  3
ACAD_XREC_ROUNDTRIP
360
77
  0
DICTIONARY
  5
7A
330
31
100
AcDbDictionary
280
     1
281
     1
  3
ACAD_XREC_ROUNDTRIP
360
7B
  0
DICTIONARY
  5
78
330
30
100
AcDbDictionary
280
     1
281
     1
  3
ACAD_XREC_ROUNDTRIP
360
79
  0
DICTIONARY
  5
7C
330
32
100
AcDbDictionary
280
     1
281
     1
  3
ACAD_XREC_ROUNDTRIP
360
7D
  0
DICTIONARY
  5
84
330
36
100
AcDbDictionary
280
     1
281
     1
  3
ACAD_XREC_ROUNDTRIP
360
85
  0
DICTIONARY
  5
8C
330
3A
100
AcDbDictionary
280
     1
281
     1
  3
ACAD_XREC_ROUNDTRIP
360
8D
  0
DICTIONARY
  5
80
330
34
100
AcDbDictionary
280
     1
281
     1
  3
ACAD_XREC_ROUNDTRIP
360
81
  0
DICTIONARY
  5
82
330
35
100
AcDbDictionary
280
     1
281
     1
  3
ACAD_XREC_ROUNDTRIP
360
83
  0
DICTIONARY
  5
8A
330
39
100
AcDbDictionary
280
     1
281
     1
  3
ACAD_XREC_ROUNDTRIP
360
8B
  0
DICTIONARY
  5
6E
330
2B
100
AcDbDictionary
280
     1
281
     1
  3
ACAD_XREC_ROUNDTRIP
360
6F
  0
DICTIONARY
  5
70
330
2C
100
AcDbDictionary
280
     1
281
     1
  3
ACAD_XREC_ROUNDTRIP
360
71
  0
DICTIONARY
  5
72
330
2D
100
AcDbDictionary
280
     1
281
     1
  3
ACAD_XREC_ROUNDTRIP
360
73
  0
DICTIONARY
  5
74
330
2E
100
AcDbDictionary
280
     1
281
     1
  3
ACAD_XREC_ROUNDTRIP
360
75
  0
DICTIONARY
  5
88
330
38
100
AcDbDictionary
280
     1
281
     1
  3
ACAD_XREC_ROUNDTRIP
360
89
  0
DICTIONARY
  5
7E
330
33
100
AcDbDictionary
280
     1
281
     1
  3
ACAD_XREC_ROUNDTRIP
360
7F
  0
DICTIONARY
  5
86
330
37
100
AcDbDictionary
280
     1
281
     1
  3
ACAD_XREC_ROUNDTRIP
360
87
  0
XRECORD
  5
77
102
{ACAD_REACTORS
330
76
102
}
330
76
100
AcDbXrecord
280
     1
102
RTVSPropertyOp0
 70
     1
102
RTVSPropertyOp1
 70
     1
102
RTVSPropertyOp2
 70
     1
102
RTVSPropertyOp3
 70
     1
102
RTVSPropertyOp4
 70
     1
102
RTVSPropertyOp5
 70
     1
102
RTVSPropertyOp6
 70
     1
102
RTVSPropertyOp7
 70
     1
102
RTVSPropertyOp8
 70
     1
102
RTVSPropertyOp9
 70
     1
102
RTVSPropertyOp10
 70
     1
102
RTVSPropertyOp11
 70
     1
102
RTVSPropertyOp12
 70
     1
102
RTVSPropertyOp13
 70
     1
102
RTVSPropertyOp14
 70
     1
102
RTVSPropertyOp15
 70
     1
102
RTVSPropertyOp16
 70
     1
102
RTVSPropertyOp17
 70
     1
102
RTVSPropertyOp18
 70
     1
102
RTVSPropertyOp19
 70
     1
102
RTVSPropertyOp20
 70
     1
102
RTVSPropertyOp21
 70
     1
102
RTVSPropertyOp22
 70
     1
102
RTVSPropertyOp23
 70
     1
102
RTVSPropertyOp24
 70
     1
102
RTVSPropertyOp25
 70
     1
102
RTVSPropertyOp26
 70
     1
102
RTVSPropertyOp27
 70
     1
102
RTVSPropertyOp28
 70
     1
102
RTVSPropertyOp29
 70
     1
102
RTVSPropertyOp30
 70
     1
102
RTVSPropertyOp31
 70
     1
102
RTVSPropertyOp32
 70
     1
  0
XRECORD
  5
7B
102
{ACAD_REACTORS
330
7A
102
}
330
7A
100
AcDbXrecord
280
     1
102
RTVSPropertyOp0
 70
     1
102
RTVSPropertyOp1
 70
     1
102
RTVSPropertyOp2
 70
     1
102
RTVSPropertyOp3
 70
     1
102
RTVSPropertyOp4
 70
     1
102
RTVSPropertyOp5
 70
     1
102
RTVSPropertyOp6
 70
     1
102
RTVSPropertyOp7
 70
     1
102
RTVSPropertyOp8
 70
     1
102
RTVSPropertyOp9
 70
     1
102
RTVSPropertyOp10
 70
     1
102
RTVSPropertyOp11
 70
     1
102
RTVSPropertyOp12
 70
     1
102
RTVSPropertyOp13
 70
     1
102
RTVSPropertyOp14
 70
     1
102
RTVSPropertyOp15
 70
     1
102
RTVSPropertyOp16
 70
     1
102
RTVSPropertyOp17
 70
     1
102
RTVSPropertyOp18
 70
     1
102
RTVSPropertyOp19
 70
     1
102
RTVSPropertyOp20
 70
     1
102
RTVSPropertyOp21
 70
     1
102
RTVSPropertyOp22
 70
     1
102
RTVSPropertyOp23
 70
     1
102
RTVSPropertyOp24
 70
     1
102
RTVSPropertyOp25
 70
     1
102
RTVSPropertyOp26
 70
     1
102
RTVSPropertyOp27
 70
     1
102
RTVSPropertyOp28
 70
     1
102
RTVSPropertyOp29
 70
     1
102
RTVSPropertyOp30
 70
     1
102
RTVSPropertyOp31
 70
     1
102
RTVSPropertyOp32
 70
     1
  0
XRECORD
  5
79
102
{ACAD_REACTORS
330
78
102
}
330
78
100
AcDbXrecord
280
     1
102
RTVSPropertyOp0
 70
     1
102
RTVSPropertyOp1
 70
     1
102
RTVSPropertyOp2
 70
     1
102
RTVSPropertyOp3
 70
     1
102
RTVSPropertyOp4
 70
     1
102
RTVSPropertyOp5
 70
     1
102
RTVSPropertyOp6
 70
     1
102
RTVSPropertyOp7
 70
     1
102
RTVSPropertyOp8
 70
     1
102
RTVSPropertyOp9
 70
     1
102
RTVSPropertyOp10
 70
     1
102
RTVSPropertyOp11
 70
     1
102
RTVSPropertyOp12
 70
     1
102
RTVSPropertyOp13
 70
     1
102
RTVSPropertyOp14
 70
     1
102
RTVSPropertyOp15
 70
     1
102
RTVSPropertyOp16
 70
     1
102
RTVSPropertyOp17
 70
     1
102
RTVSPropertyOp18
 70
     1
102
RTVSPropertyOp19
 70
     1
102
RTVSPropertyOp20
 70
     1
102
RTVSPropertyOp21
 70
     1
102
RTVSPropertyOp22
 70
     1
102
RTVSPropertyOp23
 70
     1
102
RTVSPropertyOp24
 70
     1
102
RTVSPropertyOp25
 70
     1
102
RTVSPropertyOp26
 70
     1
102
RTVSPropertyOp27
 70
     1
102
RTVSPropertyOp28
 70
     1
102
RTVSPropertyOp29
 70
     1
102
RTVSPropertyOp30
 70
     1
102
RTVSPropertyOp31
 70
     1
102
RTVSPropertyOp32
 70
     1
  0
XRECORD
  5
7D
102
{ACAD_REACTORS
330
7C
102
}
330
7C
100
AcDbXrecord
280
     1
102
RTVSPropertyOp0
 70
     1
102
RTVSPropertyOp1
 70
     1
102
RTVSPropertyOp2
 70
     1
102
RTVSPropertyOp3
 70
     1
102
RTVSPropertyOp4
 70
     1
102
RTVSPropertyOp5
 70
     1
102
RTVSPropertyOp6
 70
     1
102
RTVSPropertyOp7
 70
     1
102
RTVSPropertyOp8
 70
     1
102
RTVSPropertyOp9
 70
     1
102
RTVSPropertyOp10
 70
     1
102
RTVSPropertyOp11
 70
     1
102
RTVSPropertyOp12
 70
     1
102
RTVSPropertyOp13
 70
     1
102
RTVSPropertyOp14
 70
     1
102
RTVSPropertyOp15
 70
     1
102
RTVSPropertyOp16
 70
     1
102
RTVSPropertyOp17
 70
     1
102
RTVSPropertyOp18
 70
     1
102
RTVSPropertyOp19
 70
     1
102
RTVSPropertyOp20
 70
     1
102
RTVSPropertyOp21
 70
     1
102
RTVSPropertyOp22
 70
     1
102
RTVSPropertyOp23
 70
     1
102
RTVSPropertyOp24
 70
     1
102
RTVSPropertyOp25
 70
     1
102
RTVSPropertyOp26
 70
     1
102
RTVSPropertyOp27
 70
     1
102
RTVSPropertyOp28
 70
     1
102
RTVSPropertyOp29
 70
     1
102
RTVSPropertyOp30
 70
     1
102
RTVSPropertyOp31
 70
     1
102
RTVSPropertyOp32
 70
     1
  0
XRECORD
  5
85
102
{ACAD_REACTORS
330
84
102
}
330
84
100
AcDbXrecord
280
     1
102
RTVSPropertyOp0
 70
     1
102
RTVSPropertyOp1
 70
     1
102
RTVSPropertyOp2
 70
     1
102
RTVSPropertyOp3
 70
     1
102
RTVSPropertyOp4
 70
     1
102
RTVSPropertyOp5
 70
     1
102
RTVSPropertyOp6
 70
     1
102
RTVSPropertyOp7
 70
     1
102
RTVSPropertyOp8
 70
     1
102
RTVSPropertyOp9
 70
     1
102
RTVSPropertyOp10
 70
     1
102
RTVSPropertyOp11
 70
     1
102
RTVSPropertyOp12
 70
     1
102
RTVSPropertyOp13
 70
     1
102
RTVSPropertyOp14
 70
     1
102
RTVSPropertyOp15
 70
     1
102
RTVSPropertyOp16
 70
     1
102
RTVSPropertyOp17
 70
     1
102
RTVSPropertyOp18
 70
     1
102
RTVSPropertyOp19
 70
     1
102
RTVSPropertyOp20
 70
     1
102
RTVSPropertyOp21
 70
     1
102
RTVSPropertyOp22
 70
     1
102
RTVSPropertyOp23
 70
     1
102
RTVSPropertyOp24
 70
     1
102
RTVSPropertyOp25
 70
     1
102
RTVSPropertyOp26
 70
     1
102
RTVSPropertyOp27
 70
     1
102
RTVSPropertyOp28
 70
     1
102
RTVSPropertyOp29
 70
     1
102
RTVSPropertyOp30
 70
     1
102
RTVSPropertyOp31
 70
     1
102
RTVSPropertyOp32
 70
     1
  0
XRECORD
  5
8D
102
{ACAD_REACTORS
330
8C
102
}
330
8C
100
AcDbXrecord
280
     1
102
RTVSPropertyOp0
 70
     1
102
RTVSPropertyOp1
 70
     1
102
RTVSPropertyOp2
 70
     1
102
RTVSPropertyOp3
 70
     1
102
RTVSPropertyOp4
 70
     1
102
RTVSPropertyOp5
 70
     1
102
RTVSPropertyOp6
 70
     1
102
RTVSPropertyOp7
 70
     1
102
RTVSPropertyOp8
 70
     1
102
RTVSPropertyOp9
 70
     1
102
RTVSPropertyOp10
 70
     1
102
RTVSPropertyOp11
 70
     1
102
RTVSPropertyOp12
 70
     1
102
RTVSPropertyOp13
 70
     1
102
RTVSPropertyOp14
 70
     1
102
RTVSPropertyOp15
 70
     1
102
RTVSPropertyOp16
 70
     1
102
RTVSPropertyOp17
 70
     1
102
RTVSPropertyOp18
 70
     1
102
RTVSPropertyOp19
 70
     1
102
RTVSPropertyOp20
 70
     1
102
RTVSPropertyOp21
 70
     1
102
RTVSPropertyOp22
 70
     1
102
RTVSPropertyOp23
 70
     1
102
RTVSPropertyOp24
 70
     1
102
RTVSPropertyOp25
 70
     1
102
RTVSPropertyOp26
 70
     1
102
RTVSPropertyOp27
 70
     1
102
RTVSPropertyOp28
 70
     1
102
RTVSPropertyOp29
 70
     1
102
RTVSPropertyOp30
 70
     1
102
RTVSPropertyOp31
 70
     1
102
RTVSPropertyOp32
 70
     1
  0
XRECORD
  5
81
102
{ACAD_REACTORS
330
80
102
}
330
80
100
AcDbXrecord
280
     1
102
RTVSPropertyOp0
 70
     1
102
RTVSPropertyOp1
 70
     1
102
RTVSPropertyOp2
 70
     1
102
RTVSPropertyOp3
 70
     1
102
RTVSPropertyOp4
 70
     1
102
RTVSPropertyOp5
 70
     1
102
RTVSPropertyOp6
 70
     1
102
RTVSPropertyOp7
 70
     1
102
RTVSPropertyOp8
 70
     1
102
RTVSPropertyOp9
 70
     1
102
RTVSPropertyOp10
 70
     1
102
RTVSPropertyOp11
 70
     1
102
RTVSPropertyOp12
 70
     1
102
RTVSPropertyOp13
 70
     1
102
RTVSPropertyOp14
 70
     1
102
RTVSPropertyOp15
 70
     1
102
RTVSPropertyOp16
 70
     1
102
RTVSPropertyOp17
 70
     1
102
RTVSPropertyOp18
 70
     1
102
RTVSPropertyOp19
 70
     1
102
RTVSPropertyOp20
 70
     1
102
RTVSPropertyOp21
 70
     1
102
RTVSPropertyOp22
 70
     1
102
RTVSPropertyOp23
 70
     1
102
RTVSPropertyOp24
 70
     1
102
RTVSPropertyOp25
 70
     1
102
RTVSPropertyOp26
 70
     1
102
RTVSPropertyOp27
 70
     1
102
RTVSPropertyOp28
 70
     1
102
RTVSPropertyOp29
 70
     1
102
RTVSPropertyOp30
 70
     1
102
RTVSPropertyOp31
 70
     1
102
RTVSPropertyOp32
 70
     1
  0
XRECORD
  5
83
102
{ACAD_REACTORS
330
82
102
}
330
82
100
AcDbXrecord
280
     1
102
RTVSPropertyOp0
 70
     1
102
RTVSPropertyOp1
 70
     1
102
RTVSPropertyOp2
 70
     1
102
RTVSPropertyOp3
 70
     1
102
RTVSPropertyOp4
 70
     1
102
RTVSPropertyOp5
 70
     1
102
RTVSPropertyOp6
 70
     1
102
RTVSPropertyOp7
 70
     1
102
RTVSPropertyOp8
 70
     1
102
RTVSPropertyOp9
 70
     1
102
RTVSPropertyOp10
 70
     1
102
RTVSPropertyOp11
 70
     1
102
RTVSPropertyOp12
 70
     1
102
RTVSPropertyOp13
 70
     1
102
RTVSPropertyOp14
 70
     1
102
RTVSPropertyOp15
 70
     1
102
RTVSPropertyOp16
 70
     1
102
RTVSPropertyOp17
 70
     1
102
RTVSPropertyOp18
 70
     1
102
RTVSPropertyOp19
 70
     1
102
RTVSPropertyOp20
 70
     1
102
RTVSPropertyOp21
 70
     1
102
RTVSPropertyOp22
 70
     1
102
RTVSPropertyOp23
 70
     1
102
RTVSPropertyOp24
 70
     1
102
RTVSPropertyOp25
 70
     1
102
RTVSPropertyOp26
 70
     1
102
RTVSPropertyOp27
 70
     1
102
RTVSPropertyOp28
 70
     1
102
RTVSPropertyOp29
 70
     1
102
RTVSPropertyOp30
 70
     1
102
RTVSPropertyOp31
 70
     1
102
RTVSPropertyOp32
 70
     1
  0
XRECORD
  5
8B
102
{ACAD_REACTORS
330
8A
102
}
330
8A
100
AcDbXrecord
280
     1
102
RTVSPropertyOp0
 70
     1
102
RTVSPropertyOp1
 70
     1
102
RTVSPropertyOp2
 70
     1
102
RTVSPropertyOp3
 70
     1
102
RTVSPropertyOp4
 70
     1
102
RTVSPropertyOp5
 70
     1
102
RTVSPropertyOp6
 70
     1
102
RTVSPropertyOp7
 70
     1
102
RTVSPropertyOp8
 70
     1
102
RTVSPropertyOp9
 70
     1
102
RTVSPropertyOp10
 70
     1
102
RTVSPropertyOp11
 70
     1
102
RTVSPropertyOp12
 70
     1
102
RTVSPropertyOp13
 70
     1
102
RTVSPropertyOp14
 70
     1
102
RTVSPropertyOp15
 70
     1
102
RTVSPropertyOp16
 70
     1
102
RTVSPropertyOp17
 70
     1
102
RTVSPropertyOp18
 70
     1
102
RTVSPropertyOp19
 70
     1
102
RTVSPropertyOp20
 70
     1
102
RTVSPropertyOp21
 70
     1
102
RTVSPropertyOp22
 70
     1
102
RTVSPropertyOp23
 70
     1
102
RTVSPropertyOp24
 70
     1
102
RTVSPropertyOp25
 70
     1
102
RTVSPropertyOp26
 70
     1
102
RTVSPropertyOp27
 70
     1
102
RTVSPropertyOp28
 70
     1
102
RTVSPropertyOp29
 70
     1
102
RTVSPropertyOp30
 70
     1
102
RTVSPropertyOp31
 70
     1
102
RTVSPropertyOp32
 70
     1
  0
XRECORD
  5
6F
102
{ACAD_REACTORS
330
6E
102
}
330
6E
100
AcDbXrecord
280
     1
102
RTVSPropertyOp0
 70
     1
102
RTVSPropertyOp1
 70
     1
102
RTVSPropertyOp2
 70
     1
102
RTVSPropertyOp3
 70
     1
102
RTVSPropertyOp4
 70
     1
102
RTVSPropertyOp5
 70
     1
102
RTVSPropertyOp6
 70
     1
102
RTVSPropertyOp7
 70
     1
102
RTVSPropertyOp8
 70
     1
102
RTVSPropertyOp9
 70
     1
102
RTVSPropertyOp10
 70
     1
102
RTVSPropertyOp11
 70
     1
102
RTVSPropertyOp12
 70
     1
102
RTVSPropertyOp13
 70
     1
102
RTVSPropertyOp14
 70
     1
102
RTVSPropertyOp15
 70
     1
102
RTVSPropertyOp16
 70
     1
102
RTVSPropertyOp17
 70
     1
102
RTVSPropertyOp18
 70
     1
102
RTVSPropertyOp19
 70
     1
102
RTVSPropertyOp20
 70
     1
102
RTVSPropertyOp21
 70
     1
102
RTVSPropertyOp22
 70
     1
102
RTVSPropertyOp23
 70
     1
102
RTVSPropertyOp24
 70
     1
102
RTVSPropertyOp25
 70
     1
102
RTVSPropertyOp26
 70
     1
102
RTVSPropertyOp27
 70
     1
102
RTVSPropertyOp28
 70
     1
102
RTVSPropertyOp29
 70
     1
102
RTVSPropertyOp30
 70
     1
102
RTVSPropertyOp31
 70
     1
102
RTVSPropertyOp32
 70
     1
  0
XRECORD
  5
71
102
{ACAD_REACTORS
330
70
102
}
330
70
100
AcDbXrecord
280
     1
102
RTVSPropertyOp0
 70
     1
102
RTVSPropertyOp1
 70
     1
102
RTVSPropertyOp2
 70
     1
102
RTVSPropertyOp3
 70
     1
102
RTVSPropertyOp4
 70
     1
102
RTVSPropertyOp5
 70
     1
102
RTVSPropertyOp6
 70
     1
102
RTVSPropertyOp7
 70
     1
102
RTVSPropertyOp8
 70
     1
102
RTVSPropertyOp9
 70
     1
102
RTVSPropertyOp10
 70
     1
102
RTVSPropertyOp11
 70
     1
102
RTVSPropertyOp12
 70
     1
102
RTVSPropertyOp13
 70
     1
102
RTVSPropertyOp14
 70
     1
102
RTVSPropertyOp15
 70
     1
102
RTVSPropertyOp16
 70
     1
102
RTVSPropertyOp17
 70
     1
102
RTVSPropertyOp18
 70
     1
102
RTVSPropertyOp19
 70
     1
102
RTVSPropertyOp20
 70
     1
102
RTVSPropertyOp21
 70
     1
102
RTVSPropertyOp22
 70
     1
102
RTVSPropertyOp23
 70
     1
102
RTVSPropertyOp24
 70
     1
102
RTVSPropertyOp25
 70
     1
102
RTVSPropertyOp26
 70
     1
102
RTVSPropertyOp27
 70
     1
102
RTVSPropertyOp28
 70
     1
102
RTVSPropertyOp29
 70
     1
102
RTVSPropertyOp30
 70
     1
102
RTVSPropertyOp31
 70
     1
102
RTVSPropertyOp32
 70
     1
  0
XRECORD
  5
73
102
{ACAD_REACTORS
330
72
102
}
330
72
100
AcDbXrecord
280
     1
102
RTVSPropertyOp0
 70
     1
102
RTVSPropertyOp1
 70
     1
102
RTVSPropertyOp2
 70
     1
102
RTVSPropertyOp3
 70
     1
102
RTVSPropertyOp4
 70
     1
102
RTVSPropertyOp5
 70
     1
102
RTVSPropertyOp6
 70
     1
102
RTVSPropertyOp7
 70
     1
102
RTVSPropertyOp8
 70
     1
102
RTVSPropertyOp9
 70
     1
102
RTVSPropertyOp10
 70
     1
102
RTVSPropertyOp11
 70
     1
102
RTVSPropertyOp12
 70
     1
102
RTVSPropertyOp13
 70
     1
102
RTVSPropertyOp14
 70
     1
102
RTVSPropertyOp15
 70
     1
102
RTVSPropertyOp16
 70
     1
102
RTVSPropertyOp17
 70
     1
102
RTVSPropertyOp18
 70
     1
102
RTVSPropertyOp19
 70
     1
102
RTVSPropertyOp20
 70
     1
102
RTVSPropertyOp21
 70
     1
102
RTVSPropertyOp22
 70
     1
102
RTVSPropertyOp23
 70
     1
102
RTVSPropertyOp24
 70
     1
102
RTVSPropertyOp25
 70
     1
102
RTVSPropertyOp26
 70
     1
102
RTVSPropertyOp27
 70
     1
102
RTVSPropertyOp28
 70
     1
102
RTVSPropertyOp29
 70
     1
102
RTVSPropertyOp30
 70
     1
102
RTVSPropertyOp31
 70
     1
102
RTVSPropertyOp32
 70
     1
  0
XRECORD
  5
75
102
{ACAD_REACTORS
330
74
102
}
330
74
100
AcDbXrecord
280
     1
102
RTVSPropertyOp0
 70
     1
102
RTVSPropertyOp1
 70
     1
102
RTVSPropertyOp2
 70
     1
102
RTVSPropertyOp3
 70
     1
102
RTVSPropertyOp4
 70
     1
102
RTVSPropertyOp5
 70
     1
102
RTVSPropertyOp6
 70
     1
102
RTVSPropertyOp7
 70
     1
102
RTVSPropertyOp8
 70
     1
102
RTVSPropertyOp9
 70
     1
102
RTVSPropertyOp10
 70
     1
102
RTVSPropertyOp11
 70
     1
102
RTVSPropertyOp12
 70
     1
102
RTVSPropertyOp13
 70
     1
102
RTVSPropertyOp14
 70
     1
102
RTVSPropertyOp15
 70
     1
102
RTVSPropertyOp16
 70
     1
102
RTVSPropertyOp17
 70
     1
102
RTVSPropertyOp18
 70
     1
102
RTVSPropertyOp19
 70
     1
102
RTVSPropertyOp20
 70
     1
102
RTVSPropertyOp21
 70
     1
102
RTVSPropertyOp22
 70
     1
102
RTVSPropertyOp23
 70
     1
102
RTVSPropertyOp24
 70
     1
102
RTVSPropertyOp25
 70
     1
102
RTVSPropertyOp26
 70
     1
102
RTVSPropertyOp27
 70
     1
102
RTVSPropertyOp28
 70
     1
102
RTVSPropertyOp29
 70
     1
102
RTVSPropertyOp30
 70
     1
102
RTVSPropertyOp31
 70
     1
102
RTVSPropertyOp32
 70
     1
  0
XRECORD
  5
89
102
{ACAD_REACTORS
330
88
102
}
330
88
100
AcDbXrecord
280
     1
102
RTVSPropertyOp0
 70
     1
102
RTVSPropertyOp1
 70
     1
102
RTVSPropertyOp2
 70
     1
102
RTVSPropertyOp3
 70
     1
102
RTVSPropertyOp4
 70
     1
102
RTVSPropertyOp5
 70
     1
102
RTVSPropertyOp6
 70
     1
102
RTVSPropertyOp7
 70
     1
102
RTVSPropertyOp8
 70
     1
102
RTVSPropertyOp9
 70
     1
102
RTVSPropertyOp10
 70
     1
102
RTVSPropertyOp11
 70
     1
102
RTVSPropertyOp12
 70
     1
102
RTVSPropertyOp13
 70
     1
102
RTVSPropertyOp14
 70
     1
102
RTVSPropertyOp15
 70
     1
102
RTVSPropertyOp16
 70
     1
102
RTVSPropertyOp17
 70
     1
102
RTVSPropertyOp18
 70
     1
102
RTVSPropertyOp19
 70
     1
102
RTVSPropertyOp20
 70
     1
102
RTVSPropertyOp21
 70
     1
102
RTVSPropertyOp22
 70
     1
102
RTVSPropertyOp23
 70
     1
102
RTVSPropertyOp24
 70
     1
102
RTVSPropertyOp25
 70
     1
102
RTVSPropertyOp26
 70
     1
102
RTVSPropertyOp27
 70
     1
102
RTVSPropertyOp28
 70
     1
102
RTVSPropertyOp29
 70
     1
102
RTVSPropertyOp30
 70
     1
102
RTVSPropertyOp31
 70
     1
102
RTVSPropertyOp32
 70
     1
  0
XRECORD
  5
7F
102
{ACAD_REACTORS
330
7E
102
}
330
7E
100
AcDbXrecord
280
     1
102
RTVSPropertyOp0
 70
     1
102
RTVSPropertyOp1
 70
     1
102
RTVSPropertyOp2
 70
     1
102
RTVSPropertyOp3
 70
     1
102
RTVSPropertyOp4
 70
     1
102
RTVSPropertyOp5
 70
     1
102
RTVSPropertyOp6
 70
     1
102
RTVSPropertyOp7
 70
     1
102
RTVSPropertyOp8
 70
     1
102
RTVSPropertyOp9
 70
     1
102
RTVSPropertyOp10
 70
     1
102
RTVSPropertyOp11
 70
     1
102
RTVSPropertyOp12
 70
     1
102
RTVSPropertyOp13
 70
     1
102
RTVSPropertyOp14
 70
     1
102
RTVSPropertyOp15
 70
     1
102
RTVSPropertyOp16
 70
     1
102
RTVSPropertyOp17
 70
     1
102
RTVSPropertyOp18
 70
     1
102
RTVSPropertyOp19
 70
     1
102
RTVSPropertyOp20
 70
     1
102
RTVSPropertyOp21
 70
     1
102
RTVSPropertyOp22
 70
     1
102
RTVSPropertyOp23
 70
     1
102
RTVSPropertyOp24
 70
     1
102
RTVSPropertyOp25
 70
     1
102
RTVSPropertyOp26
 70
     1
102
RTVSPropertyOp27
 70
     1
102
RTVSPropertyOp28
 70
     1
102
RTVSPropertyOp29
 70
     1
102
RTVSPropertyOp30
 70
     1
102
RTVSPropertyOp31
 70
     1
102
RTVSPropertyOp32
 70
     1
  0
XRECORD
  5
87
102
{ACAD_REACTORS
330
86
102
}
330
86
100
AcDbXrecord
280
     1
102
RTVSPropertyOp0
 70
     1
102
RTVSPropertyOp1
 70
     1
102
RTVSPropertyOp2
 70
     1
102
RTVSPropertyOp3
 70
     1
102
RTVSPropertyOp4
 70
     1
102
RTVSPropertyOp5
 70
     1
102
RTVSPropertyOp6
 70
     1
102
RTVSPropertyOp7
 70
     1
102
RTVSPropertyOp8
 70
     1
102
RTVSPropertyOp9
 70
     1
102
RTVSPropertyOp10
 70
     1
102
RTVSPropertyOp11
 70
     1
102
RTVSPropertyOp12
 70
     1
102
RTVSPropertyOp13
 70
     1
102
RTVSPropertyOp14
 70
     1
102
RTVSPropertyOp15
 70
     1
102
RTVSPropertyOp16
 70
     1
102
RTVSPropertyOp17
 70
     1
102
RTVSPropertyOp18
 70
     1
102
RTVSPropertyOp19
 70
     1
102
RTVSPropertyOp20
 70
     1
102
RTVSPropertyOp21
 70
     1
102
RTVSPropertyOp22
 70
     1
102
RTVSPropertyOp23
 70
     1
102
RTVSPropertyOp24
 70
     1
102
RTVSPropertyOp25
 70
     1
102
RTVSPropertyOp26
 70
     1
102
RTVSPropertyOp27
 70
     1
102
RTVSPropertyOp28
 70
     1
102
RTVSPropertyOp29
 70
     1
102
RTVSPropertyOp30
 70
     1
102
RTVSPropertyOp31
 70
     1
102
RTVSPropertyOp32
 70
     1
  0
ENDSEC
  0
EOF
