  0
SECTION
  2
HEADER
  9
$ACADVER
  1
AC1021
  9
$ACADMAINTVER
 70
    25
  9
$DWGCODEPAGE
  3
ANSI_1252
  9
$INSBASE
 10
0.0
 20
0.0
 30
0.0
  9
$EXTMIN
 10
-187.1438
 20
-106.6867
 30
0.0
  9
$EXTMAX
 10
-68.6515
 20
131.5863
 30
0.0
  9
$LIMMIN
 10
0.0
 20
0.0
  9
$LIMMAX
 10
12.0
 20
9.0
  9
$ORTHOMODE
 70
     0
  9
$REGENMODE
 70
     1
  9
$FILLMODE
 70
     1
  9
$QTEXTMODE
 70
     0
  9
$MIRRTEXT
 70
     1
  9
$LTSCALE
 40
1.0
  9
$ATTMODE
 70
     1
  9
$TEXTSIZE
 40
0.2
  9
$TRACEWID
 40
0.05
  9
$TEXTSTYLE
  7
Standard
  9
$CLAYER
  8
0
  9
$CELTYPE
  6
ByLayer
  9
$CECOLOR
 62
   256
  9
$CELTSCALE
 40
1.0
  9
$DISPSILH
 70
     0
  9
$DIMSCALE
 40
1.0
  9
$DIMASZ
 40
0.18
  9
$DIMEXO
 40
0.0625
  9
$DIMDLI
 40
0.38
  9
$DIMRND
 40
0.0
  9
$DIMDLE
 40
0.0
  9
$DIMEXE
 40
0.18
  9
$DIMTP
 40
0.0
  9
$DIMTM
 40
0.0
  9
$DIMTXT
 40
0.18
  9
$DIMCEN
 40
0.09
  9
$DIMTSZ
 40
0.0
  9
$DIMTOL
 70
     0
  9
$DIMLIM
 70
     0
  9
$DIMTIH
 70
     1
  9
$DIMTOH
 70
     1
  9
$DIMSE1
 70
     0
  9
$DIMSE2
 70
     0
  9
$DIMTAD
 70
     0
  9
$DIMZIN
 70
     0
  9
$DIMBLK
  1

  9
$DIMASO
 70
     1
  9
$DIMSHO
 70
     1
  9
$DIMPOST
  1

  9
$DIMAPOST
  1

  9
$DIMALT
 70
     0
  9
$DIMALTD
 70
     2
  9
$DIMALTF
 40
25.4
  9
$DIMLFAC
 40
1.0
  9
$DIMTOFL
 70
     0
  9
$DIMTVP
 40
0.0
  9
$DIMTIX
 70
     0
  9
$DIMSOXD
 70
     0
  9
$DIMSAH
 70
     0
  9
$DIMBLK1
  1

  9
$DIMBLK2
  1

  9
$DIMSTYLE
  2
Standard
  9
$DIMCLRD
 70
     0
  9
$DIMCLRE
 70
     0
  9
$DIMCLRT
 70
     0
  9
$DIMTFAC
 40
1.0
  9
$DIMGAP
 40
0.09
  9
$DIMJUST
 70
     0
  9
$DIMSD1
 70
     0
  9
$DIMSD2
 70
     0
  9
$DIMTOLJ
 70
     1
  9
$DIMTZIN
 70
     0
  9
$DIMALTZ
 70
     0
  9
$DIMALTTZ
 70
     0
  9
$DIMUPT
 70
     0
  9
$DIMDEC
 70
     4
  9
$DIMTDEC
 70
     4
  9
$DIMALTU
 70
     2
  9
$DIMALTTD
 70
     2
  9
$DIMTXSTY
  7
Standard
  9
$DIMAUNIT
 70
     0
  9
$DIMADEC
 70
     0
  9
$DIMALTRND
 40
0.0
  9
$DIMAZIN
 70
     0
  9
$DIMDSEP
 70
    46
  9
$DIMATFIT
 70
     3
  9
$DIMFRAC
 70
     0
  9
$DIMLDRBLK
  1

  9
$DIMLUNIT
 70
     2
  9
$DIMLWD
 70
    -2
  9
$DIMLWE
 70
    -2
  9
$DIMTMOVE
 70
     0
  9
$DIMFXL
 40
1.0
  9
$DIMFXLON
 70
     0
  9
$DIMJOGANG
 40
0.7853981633974483
  9
$DIMTFILL
 70
     0
  9
$DIMTFILLCLR
 70
     0
  9
$DIMARCSYM
 70
     0
  9
$DIMLTYPE
  6

  9
$DIMLTEX1
  6

  9
$DIMLTEX2
  6

  9
$LUNITS
 70
     2
  9
$LUPREC
 70
     4
  9
$SKETCHINC
 40
0.1
  9
$FILLETRAD
 40
0.5
  9
$AUNITS
 70
     0
  9
$AUPREC
 70
     0
  9
$MENU
  1
.
  9
$ELEVATION
 40
0.0
  9
$PELEVATION
 40
0.0
  9
$THICKNESS
 40
0.0
  9
$LIMCHECK
 70
     0
  9
$CHAMFERA
 40
0.5
  9
$CHAMFERB
 40
0.5
  9
$CHAMFERC
 40
1.0
  9
$CHAMFERD
 40
0.0
  9
$SKPOLY
 70
     0
  9
$TDCREATE
 40
2458493.677895498
  9
$TDUCREATE
 40
2458493.677895498
  9
$TDUPDATE
 40
2458493.67789566
  9
$TDUUPDATE
 40
2458493.67789566
  9
$TDINDWG
 40
0.0000000116
  9
$TDUSRTIMER
 40
0.0000000116
  9
$USRTIMER
 70
     1
  9
$ANGBASE
 50
0.0
  9
$ANGDIR
 70
     0
  9
$PDMODE
 70
     0
  9
$PDSIZE
 40
0.0
  9
$PLINEWID
 40
0.0
  9
$SPLFRAME
 70
     0
  9
$SPLINETYPE
 70
     6
  9
$SPLINESEGS
 70
     8
  9
$HANDSEED
  5
B9
  9
$SURFTAB1
 70
     6
  9
$SURFTAB2
 70
     6
  9
$SURFTYPE
 70
     6
  9
$SURFU
 70
     6
  9
$SURFV
 70
     6
  9
$UCSBASE
  2

  9
$UCSNAME
  2

  9
$UCSORG
 10
0.0
 20
0.0
 30
0.0
  9
$UCSXDIR
 10
1.0
 20
0.0
 30
0.0
  9
$UCSYDIR
 10
0.0
 20
1.0
 30
0.0
  9
$UCSORTHOREF
  2

  9
$UCSORTHOVIEW
 70
     0
  9
$UCSORGTOP
 10
0.0
 20
0.0
 30
0.0
  9
$UCSORGBOTTOM
 10
0.0
 20
0.0
 30
0.0
  9
$UCSORGLEFT
 10
0.0
 20
0.0
 30
0.0
  9
$UCSORGRIGHT
 10
0.0
 20
0.0
 30
0.0
  9
$UCSORGFRONT
 10
0.0
 20
0.0
 30
0.0
  9
$UCSORGBACK
 10
0.0
 20
0.0
 30
0.0
  9
$PUCSBASE
  2

  9
$PUCSNAME
  2

  9
$PUCSORG
 10
0.0
 20
0.0
 30
0.0
  9
$PUCSXDIR
 10
1.0
 20
0.0
 30
0.0
  9
$PUCSYDIR
 10
0.0
 20
1.0
 30
0.0
  9
$PUCSORTHOREF
  2

  9
$PUCSORTHOVIEW
 70
     0
  9
$PUCSORGTOP
 10
0.0
 20
0.0
 30
0.0
  9
$PUCSORGBOTTOM
 10
0.0
 20
0.0
 30
0.0
  9
$PUCSORGLEFT
 10
0.0
 20
0.0
 30
0.0
  9
$PUCSORGRIGHT
 10
0.0
 20
0.0
 30
0.0
  9
$PUCSORGFRONT
 10
0.0
 20
0.0
 30
0.0
  9
$PUCSORGBACK
 10
0.0
 20
0.0
 30
0.0
  9
$USERI1
 70
     0
  9
$USERI2
 70
     0
  9
$USERI3
 70
     0
  9
$USERI4
 70
     0
  9
$USERI5
 70
     0
  9
$USERR1
 40
0.0
  9
$USERR2
 40
0.0
  9
$USERR3
 40
0.0
  9
$USERR4
 40
0.0
  9
$USERR5
 40
0.0
  9
$WORLDVIEW
 70
     1
  9
$SHADEDGE
 70
     3
  9
$SHADEDIF
 70
    70
  9
$TILEMODE
 70
     1
  9
$MAXACTVP
 70
    64
  9
$PINSBASE
 10
0.0
 20
0.0
 30
0.0
  9
$PLIMCHECK
 70
     0
  9
$PEXTMIN
 10
1.000000000000000E+20
 20
1.000000000000000E+20
 30
1.000000000000000E+20
  9
$PEXTMAX
 10
-1.000000000000000E+20
 20
-1.000000000000000E+20
 30
-1.000000000000000E+20
  9
$PLIMMIN
 10
0.0
 20
0.0
  9
$PLIMMAX
 10
12.0
 20
9.0
  9
$UNITMODE
 70
     0
  9
$VISRETAIN
 70
     1
  9
$PLINEGEN
 70
     0
  9
$PSLTSCALE
 70
     1
  9
$TREEDEPTH
 70
  3020
  9
$CMLSTYLE
  2
Standard
  9
$CMLJUST
 70
     0
  9
$CMLSCALE
 40
1.0
  9
$PROXYGRAPHICS
 70
     1
  9
$MEASUREMENT
 70
     0
  9
$CELWEIGHT
370
    -1
  9
$ENDCAPS
280
     0
  9
$JOINSTYLE
280
     0
  9
$LWDISPLAY
290
     0
  9
$INSUNITS
 70
     4
  9
$HYPERLINKBASE
  1

  9
$STYLESHEET
  1

  9
$XEDIT
290
     1
  9
$CEPSNTYPE
380
     0
  9
$PSTYLEMODE
290
     1
  9
$FINGERPRINTGUID
  2
{F21C21BC-5E82-4257-887C-E71DC936F8AD}
  9
$VERSIONGUID
  2
{FAEB1C32-E019-11D5-929B-00C0DF256EC4}
  9
$EXTNAMES
290
     1
  9
$PSVPSCALE
 40
0.0
  9
$OLESTARTUP
290
     0
  9
$SORTENTS
280
   127
  9
$INDEXCTL
280
     0
  9
$HIDETEXT
280
     1
  9
$XCLIPFRAME
290
     0
  9
$HALOGAP
280
     0
  9
$OBSCOLOR
 70
   257
  9
$OBSLTYPE
280
     0
  9
$INTERSECTIONDISPLAY
280
     0
  9
$INTERSECTIONCOLOR
 70
   257
  9
$DIMASSOC
280
     2
  9
$PROJECTNAME
  1

  9
$CAMERADISPLAY
290
     0
  9
$LENSLENGTH
 40
50.0
  9
$CAMERAHEIGHT
 40
0.0
  9
$STEPSPERSEC
 40
2.0
  9
$STEPSIZE
 40
6.0
  9
$3DDWFPREC
 40
2.0
  9
$PSOLWIDTH
 40
0.25
  9
$PSOLHEIGHT
 40
4.0
  9
$LOFTANG1
 40
1.570796326794897
  9
$LOFTANG2
 40
1.570796326794897
  9
$LOFTMAG1
 40
0.0
  9
$LOFTMAG2
 40
0.0
  9
$LOFTPARAM
 70
     7
  9
$LOFTNORMALS
280
     1
  9
$LATITUDE
 40
37.795
  9
$LONGITUDE
 40
-122.394
  9
$NORTHDIRECTION
 40
0.0
  9
$TIMEZONE
 70
 -8000
  9
$LIGHTGLYPHDISPLAY
280
     1
  9
$TILEMODELIGHTSYNCH
280
     1
  9
$SOLIDHIST
280
     1
  9
$SHOWHIST
280
     1
  9
$DWFFRAME
280
     2
  9
$DGNFRAME
280
     2
  9
$REALWORLDSCALE
290
     1
  9
$INTERFERECOLOR
 62
   256
  9
$CSHADOW
280
     0
  9
$SHADOWPLANELOCATION
 40
0.0
  0
ENDSEC
  0
SECTION
  2
CLASSES
  0
CLASS
  1
ACDBDICTIONARYWDFLT
  2
AcDbDictionaryWithDefault
  3
ObjectDBX Classes
 90
        0
 91
        4
280
     0
281
     0
  0
CLASS
  1
VISUALSTYLE
  2
AcDbVisualStyle
  3
ObjectDBX Classes
 90
     4095
 91
        4
280
     0
281
     0
  0
CLASS
  1
MATERIAL
  2
AcDbMaterial
  3
ObjectDBX Classes
 90
     1153
 91
        4
280
     0
281
     0
  0
ENDSEC
  0
SECTION
  2
TABLES
  0
TABLE
  2
VPORT
  5
8
330
0
100
AcDbSymbolTable
 70
     1
  0
VPORT
  5
29
330
8
100
AcDbSymbolTableRecord
100
AcDbViewportTableRecord
  2
*Active
 70
     0
 10
0.0
 20
0.0
 11
1.0
 21
1.0
 12
10.42990654205607
 22
4.5
 13
0.0
 23
0.0
 14
0.5
 24
0.5
 15
0.5
 25
0.5
 16
0.0
 26
0.0
 36
1.0
 17
0.0
 27
0.0
 37
0.0
 40
9.0
 41
1.972972972850329
 42
50.0
 43
0.0
 44
0.0
 50
0.0
 51
0.0
 71
     0
 72
   100
 73
     1
 74
     3
 75
     0
 76
     0
 77
     0
 78
     0
281
     0
 65
     1
110
0.0
120
0.0
130
0.0
111
1.0
121
0.0
131
0.0
112
0.0
122
1.0
132
0.0
 79
     0
146
0.0
 60
     3
 61
     5
292
     1
282
     1
141
0.0
142
0.0
 63
   250
  0
ENDTAB
  0
TABLE
  2
LTYPE
  5
5
330
0
100
AcDbSymbolTable
 70
     1
  0
LTYPE
  5
14
330
5
100
AcDbSymbolTableRecord
100
AcDbLinetypeTableRecord
  2
ByBlock
 70
     0
  3

 72
    65
 73
     0
 40
0.0
  0
LTYPE
  5
15
330
5
100
AcDbSymbolTableRecord
100
AcDbLinetypeTableRecord
  2
ByLayer
 70
     0
  3

 72
    65
 73
     0
 40
0.0
  0
LTYPE
  5
16
330
5
100
AcDbSymbolTableRecord
100
AcDbLinetypeTableRecord
  2
Continuous
 70
     0
  3
Solid line
 72
    65
 73
     0
 40
0.0
  0
ENDTAB
  0
TABLE
  2
LAYER
  5
2
330
0
100
AcDbSymbolTable
 70
     3
  0
LAYER
  5
10
330
2
100
AcDbSymbolTableRecord
100
AcDbLayerTableRecord
  2
0
 70
     0
 62
     7
  6
Continuous
370
    -3
390
F
347
3E
  0
LAYER
  5
40
330
2
100
AcDbSymbolTableRecord
100
AcDbLayerTableRecord
  2
layer 1
 70
     0
 62
     7
  6
Continuous
370
    -3
390
F
347
3E
  0
LAYER
  5
96
330
2
100
AcDbSymbolTableRecord
100
AcDbLayerTableRecord
  2
Master Guides
 70
     0
 62
     7
  6
Continuous
370
    -3
390
F
347
3E
  0
ENDTAB
  0
TABLE
  2
STYLE
  5
3
330
0
100
AcDbSymbolTable
 70
     1
  0
STYLE
  5
11
330
3
100
AcDbSymbolTableRecord
100
AcDbTextStyleTableRecord
  2
Standard
 70
     0
 40
0.0
 41
1.0
 50
0.0
 71
     0
 42
0.2
  3
txt
  4

  0
ENDTAB
  0
TABLE
  2
VIEW
  5
6
330
0
100
AcDbSymbolTable
 70
     0
  0
ENDTAB
  0
TABLE
  2
UCS
  5
7
330
0
100
AcDbSymbolTable
 70
     0
  0
ENDTAB
  0
TABLE
  2
APPID
  5
9
330
0
100
AcDbSymbolTable
 70
     2
  0
APPID
  5
12
330
9
100
AcDbSymbolTableRecord
100
AcDbRegAppTableRecord
  2
ACAD
 70
     0
  0
APPID
  5
3F
330
9
100
AcDbSymbolTableRecord
100
AcDbRegAppTableRecord
  2
ODA
 70
     0
  0
ENDTAB
  0
TABLE
  2
DIMSTYLE
  5
A
330
0
100
AcDbSymbolTable
 70
     1
100
AcDbDimStyleTable
  0
DIMSTYLE
105
27
330
A
100
AcDbSymbolTableRecord
100
AcDbDimStyleTableRecord
  2
Standard
 70
     0
178
     0
340
11
  0
ENDTAB
  0
TABLE
  2
BLOCK_RECORD
  5
1
330
0
100
AcDbSymbolTable
 70
     1
  0
BLOCK_RECORD
  5
1F
330
1
100
AcDbSymbolTableRecord
100
AcDbBlockTableRecord
  2
*Model_Space
340
22
 70
     0
280
     1
281
     0
  0
BLOCK_RECORD
  5
1B
330
1
100
AcDbSymbolTableRecord
100
AcDbBlockTableRecord
  2
*Paper_Space
340
1E
 70
     0
280
     1
281
     0
  0
BLOCK_RECORD
  5
23
330
1
100
AcDbSymbolTableRecord
100
AcDbBlockTableRecord
  2
*Paper_Space0
340
26
 70
     0
280
     1
281
     0
  0
ENDTAB
  0
ENDSEC
  0
SECTION
  2
BLOCKS
  0
BLOCK
  5
20
330
1F
100
AcDbEntity
  8
0
100
AcDbBlockBegin
  2
*Model_Space
 70
     0
 10
0.0
 20
0.0
 30
0.0
  3
*Model_Space
  1

  0
ENDBLK
  5
21
330
1F
100
AcDbEntity
  8
0
100
AcDbBlockEnd
  0
BLOCK
  5
1C
330
1B
100
AcDbEntity
 67
     1
  8
0
100
AcDbBlockBegin
  2
*Paper_Space
 70
     0
 10
0.0
 20
0.0
 30
0.0
  3
*Paper_Space
  1

  0
ENDBLK
  5
1D
330
1B
100
AcDbEntity
 67
     1
  8
0
100
AcDbBlockEnd
  0
BLOCK
  5
24
330
23
100
AcDbEntity
  8
0
100
AcDbBlockBegin
  2
*Paper_Space0
 70
     0
 10
0.0
 20
0.0
 30
0.0
  3
*Paper_Space0
  1

  0
ENDBLK
  5
25
330
23
100
AcDbEntity
  8
0
100
AcDbBlockEnd
  0
ENDSEC
  0
SECTION
  2
ENTITIES
  0
SPLINE
  5
41
330
1F
100
AcDbEntity
  8
layer 1
 62
   250
100
AcDbSpline
210
0.0
220
0.0
230
1.0
 70
    11
 71
     3
 72
    20
 73
    16
 74
     0
 42
0.0000000001
 43
0.0000000001
 12
1.0
 22
0.0
 32
0.0
 13
1.0
 23
0.0
 33
0.0
 40
0.0
 40
0.0
 40
0.0
 40
0.0
 40
0.2
 40
0.2
 40
0.2
 40
0.2
 40
0.4
 40
0.4
 40
0.4
 40
0.4
 40
0.6
 40
0.6
 40
0.6
 40
0.6
 40
1.0
 40
1.0
 40
1.0
 40
1.0
 10
-187.1438
 20
131.5863
 30
0.0
 10
-187.1438
 20
131.5863
 30
0.0
 10
-68.6515
 20
131.5863
 30
0.0
 10
-68.6515
 20
131.5863
 30
0.0
 10
-68.6515
 20
131.5863
 30
0.0
 10
-68.6515
 20
131.5863
 30
0.0
 10
-68.6515
 20
-106.6867
 30
0.0
 10
-68.6515
 20
-106.6867
 30
0.0
 10
-68.6515
 20
-106.6867
 30
0.0
 10
-68.6515
 20
-106.6867
 30
0.0
 10
-187.1438
 20
-106.6867
 30
0.0
 10
-187.1438
 20
-106.6867
 30
0.0
 10
-187.1438
 20
-106.6867
 30
0.0
 10
-187.1438
 20
-106.6867
 30
0.0
 10
-187.1438
 20
131.5863
 30
0.0
 10
-187.1438
 20
131.5863
 30
0.0
  0
SPLINE
  5
42
330
1F
100
AcDbEntity
  8
layer 1
 62
     7
100
AcDbSpline
210
0.0
220
0.0
230
1.0
 70
    11
 71
     3
 72
    28
 73
    24
 74
     0
 42
0.0000000001
 43
0.0000000001
 12
1.0
 22
0.0
 32
0.0
 13
1.0
 23
0.0
 33
0.0
 40
0.0
 40
0.0
 40
0.0
 40
0.0
 40
0.1428571428571428
 40
0.1428571428571428
 40
0.1428571428571428
 40
0.1428571428571428
 40
0.2857142857142857
 40
0.2857142857142857
 40
0.2857142857142857
 40
0.2857142857142857
 40
0.4285714285714285
 40
0.4285714285714285
 40
0.4285714285714285
 40
0.4285714285714285
 40
0.5714285714285714
 40
0.5714285714285714
 40
0.5714285714285714
 40
0.5714285714285714
 40
0.7142857142857143
 40
0.7142857142857143
 40
0.7142857142857143
 40
0.7142857142857143
 40
1.0
 40
1.0
 40
1.0
 40
1.0
 10
-129.1892
 20
33.1648
 30
0.0
 10
-129.1892
 20
33.1648
 30
0.0
 10
-129.1892
 20
21.7927
 30
0.0
 10
-129.1892
 20
21.7927
 30
0.0
 10
-129.1892
 20
21.7927
 30
0.0
 10
-129.1892
 20
21.4344
 30
0.0
 10
-129.6492
 20
21.4547
 30
0.0
 10
-129.8094
 20
21.4654
 30
0.0
 10
-129.8094
 20
21.4654
 30
0.0
 10
-135.9907
 20
21.7883
 30
0.0
 10
-140.9052
 20
26.9037
 30
0.0
 10
-140.9052
 20
33.1648
 30
0.0
 10
-140.9052
 20
33.1648
 30
0.0
 10
-140.9052
 20
39.3817
 30
0.0
 10
-136.0605
 20
44.4687
 30
0.0
 10
-129.9415
 20
44.8571
 30
0.0
 10
-129.9415
 20
44.8571
 30
0.0
 10
-129.5265
 20
44.892
 30
0.0
 10
-129.1967
 20
44.9468
 30
0.0
 10
-129.1892
 20
44.3421
 30
0.0
 10
-129.1892
 20
44.3421
 30
0.0
 10
-129.1892
 20
44.3421
 30
0.0
 10
-129.1892
 20
33.1648
 30
0.0
 10
-129.1892
 20
33.1648
 30
0.0
  0
SPLINE
  5
43
330
1F
100
AcDbEntity
  8
layer 1
 62
     7
100
AcDbSpline
210
0.0
220
0.0
230
1.0
 70
    11
 71
     3
 72
    28
 73
    24
 74
     0
 42
0.0000000001
 43
0.0000000001
 12
1.0
 22
0.0
 32
0.0
 13
1.0
 23
0.0
 33
0.0
 40
0.0
 40
0.0
 40
0.0
 40
0.0
 40
0.1428571428571428
 40
0.1428571428571428
 40
0.1428571428571428
 40
0.1428571428571428
 40
0.2857142857142857
 40
0.2857142857142857
 40
0.2857142857142857
 40
0.2857142857142857
 40
0.4285714285714285
 40
0.4285714285714285
 40
0.4285714285714285
 40
0.4285714285714285
 40
0.5714285714285714
 40
0.5714285714285714
 40
0.5714285714285714
 40
0.5714285714285714
 40
0.7142857142857143
 40
0.7142857142857143
 40
0.7142857142857143
 40
0.7142857142857143
 40
1.0
 40
1.0
 40
1.0
 40
1.0
 10
-126.5815
 20
33.1648
 30
0.0
 10
-126.5815
 20
33.1648
 30
0.0
 10
-126.5815
 20
21.7927
 30
0.0
 10
-126.5815
 20
21.7927
 30
0.0
 10
-126.5815
 20
21.7927
 30
0.0
 10
-126.5815
 20
21.4344
 30
0.0
 10
-126.1215
 20
21.4547
 30
0.0
 10
-125.9613
 20
21.4654
 30
0.0
 10
-125.9613
 20
21.4654
 30
0.0
 10
-119.7802
 20
21.7883
 30
0.0
 10
-114.8657
 20
26.9037
 30
0.0
 10
-114.8657
 20
33.1648
 30
0.0
 10
-114.8657
 20
33.1648
 30
0.0
 10
-114.8657
 20
39.3817
 30
0.0
 10
-119.7102
 20
44.4687
 30
0.0
 10
-125.8294
 20
44.8571
 30
0.0
 10
-125.8294
 20
44.8571
 30
0.0
 10
-126.2444
 20
44.892
 30
0.0
 10
-126.574
 20
44.9468
 30
0.0
 10
-126.5815
 20
44.3421
 30
0.0
 10
-126.5815
 20
44.3421
 30
0.0
 10
-126.5815
 20
44.3421
 30
0.0
 10
-126.5815
 20
33.1648
 30
0.0
 10
-126.5815
 20
33.1648
 30
0.0
  0
SPLINE
  5
44
330
1F
100
AcDbEntity
  8
layer 1
 62
     7
100
AcDbSpline
210
0.0
220
0.0
230
1.0
 70
    11
 71
     3
 72
    16
 73
    12
 74
     0
 42
0.0000000001
 43
0.0000000001
 12
1.0
 22
0.0
 32
0.0
 13
1.0
 23
0.0
 33
0.0
 40
0.0
 40
0.0
 40
0.0
 40
0.0
 40
0.25
 40
0.25
 40
0.25
 40
0.25
 40
0.5
 40
0.5
 40
0.5
 40
0.5
 40
1.0
 40
1.0
 40
1.0
 40
1.0
 10
-70.9884
 20
123.9129
 30
0.0
 10
-73.0947
 20
125.142
 30
0.0
 10
-74.7834
 20
127.0093
 30
0.0
 10
-75.7886
 20
129.2496
 30
0.0
 10
-75.7886
 20
129.2496
 30
0.0
 10
-75.7886
 20
129.2496
 30
0.0
 10
-70.9884
 20
129.2496
 30
0.0
 10
-70.9884
 20
129.2496
 30
0.0
 10
-70.9884
 20
129.2496
 30
0.0
 10
-70.9884
 20
129.2496
 30
0.0
 10
-70.9884
 20
123.9129
 30
0.0
 10
-70.9884
 20
123.9129
 30
0.0
  0
SPLINE
  5
45
330
1F
100
AcDbEntity
  8
layer 1
 62
     7
100
AcDbSpline
210
0.0
220
0.0
230
1.0
 70
    11
 71
     3
 72
    20
 73
    16
 74
     0
 42
0.0000000001
 43
0.0000000001
 12
1.0
 22
0.0
 32
0.0
 13
1.0
 23
0.0
 33
0.0
 40
0.0
 40
0.0
 40
0.0
 40
0.0
 40
0.2
 40
0.2
 40
0.2
 40
0.2
 40
0.4
 40
0.4
 40
0.4
 40
0.4
 40
0.6
 40
0.6
 40
0.6
 40
0.6
 40
1.0
 40
1.0
 40
1.0
 40
1.0
 10
-70.9884
 20
105.8091
 30
0.0
 10
-74.2662
 20
103.8967
 30
0.0
 10
-76.5321
 20
100.4387
 30
0.0
 10
-76.7861
 20
96.4349
 30
0.0
 10
-76.7861
 20
96.4349
 30
0.0
 10
-76.8211
 20
96.0199
 30
0.0
 10
-76.876
 20
95.6901
 30
0.0
 10
-76.2711
 20
95.6827
 30
0.0
 10
-76.2711
 20
95.6827
 30
0.0
 10
-76.2711
 20
95.6827
 30
0.0
 10
-70.9884
 20
95.6827
 30
0.0
 10
-70.9884
 20
95.6827
 30
0.0
 10
-70.9884
 20
95.6827
 30
0.0
 10
-70.9884
 20
95.6827
 30
0.0
 10
-70.9884
 20
105.8091
 30
0.0
 10
-70.9884
 20
105.8091
 30
0.0
  0
SPLINE
  5
46
330
1F
100
AcDbEntity
  8
layer 1
 62
     7
100
AcDbSpline
210
0.0
220
0.0
230
1.0
 70
    11
 71
     3
 72
    20
 73
    16
 74
     0
 42
0.0000000001
 43
0.0000000001
 12
1.0
 22
0.0
 32
0.0
 13
1.0
 23
0.0
 33
0.0
 40
0.0
 40
0.0
 40
0.0
 40
0.0
 40
0.2
 40
0.2
 40
0.2
 40
0.2
 40
0.4
 40
0.4
 40
0.4
 40
0.4
 40
0.6
 40
0.6
 40
0.6
 40
0.6
 40
1.0
 40
1.0
 40
1.0
 40
1.0
 10
-70.9884
 20
82.9485
 30
0.0
 10
-74.2662
 20
84.8609
 30
0.0
 10
-76.5321
 20
88.3189
 30
0.0
 10
-76.7861
 20
92.3227
 30
0.0
 10
-76.7861
 20
92.3227
 30
0.0
 10
-76.8211
 20
92.7377
 30
0.0
 10
-76.876
 20
93.0674
 30
0.0
 10
-76.2711
 20
93.0749
 30
0.0
 10
-76.2711
 20
93.0749
 30
0.0
 10
-76.2711
 20
93.0749
 30
0.0
 10
-70.9884
 20
93.0749
 30
0.0
 10
-70.9884
 20
93.0749
 30
0.0
 10
-70.9884
 20
93.0749
 30
0.0
 10
-70.9884
 20
93.0749
 30
0.0
 10
-70.9884
 20
82.9485
 30
0.0
 10
-70.9884
 20
82.9485
 30
0.0
  0
SPLINE
  5
47
330
1F
100
AcDbEntity
  8
layer 1
 62
     7
100
AcDbSpline
210
0.0
220
0.0
230
1.0
 70
    11
 71
     3
 72
    16
 73
    12
 74
     0
 42
0.0000000001
 43
0.0000000001
 12
1.0
 22
0.0
 32
0.0
 13
1.0
 23
0.0
 33
0.0
 40
0.0
 40
0.0
 40
0.0
 40
0.0
 40
0.25
 40
0.25
 40
0.25
 40
0.25
 40
0.5
 40
0.5
 40
0.5
 40
0.5
 40
1.0
 40
1.0
 40
1.0
 40
1.0
 10
-70.9884
 20
-99.0133
 30
0.0
 10
-73.0947
 20
-100.2424
 30
0.0
 10
-74.7834
 20
-102.1097
 30
0.0
 10
-75.7886
 20
-104.35
 30
0.0
 10
-75.7886
 20
-104.35
 30
0.0
 10
-75.7886
 20
-104.35
 30
0.0
 10
-70.9884
 20
-104.35
 30
0.0
 10
-70.9884
 20
-104.35
 30
0.0
 10
-70.9884
 20
-104.35
 30
0.0
 10
-70.9884
 20
-104.35
 30
0.0
 10
-70.9884
 20
-99.0133
 30
0.0
 10
-70.9884
 20
-99.0133
 30
0.0
  0
SPLINE
  5
48
330
1F
100
AcDbEntity
  8
layer 1
 62
     7
100
AcDbSpline
210
0.0
220
0.0
230
1.0
 70
    11
 71
     3
 72
    20
 73
    16
 74
     0
 42
0.0000000001
 43
0.0000000001
 12
1.0
 22
0.0
 32
0.0
 13
1.0
 23
0.0
 33
0.0
 40
0.0
 40
0.0
 40
0.0
 40
0.0
 40
0.2
 40
0.2
 40
0.2
 40
0.2
 40
0.4
 40
0.4
 40
0.4
 40
0.4
 40
0.6
 40
0.6
 40
0.6
 40
0.6
 40
1.0
 40
1.0
 40
1.0
 40
1.0
 10
-70.9884
 20
-58.0489
 30
0.0
 10
-74.2662
 20
-59.9613
 30
0.0
 10
-76.5321
 20
-63.4193
 30
0.0
 10
-76.7861
 20
-67.4233
 30
0.0
 10
-76.7861
 20
-67.4233
 30
0.0
 10
-76.8211
 20
-67.8381
 30
0.0
 10
-76.876
 20
-68.1678
 30
0.0
 10
-76.2711
 20
-68.1753
 30
0.0
 10
-76.2711
 20
-68.1753
 30
0.0
 10
-76.2711
 20
-68.1753
 30
0.0
 10
-70.9884
 20
-68.1753
 30
0.0
 10
-70.9884
 20
-68.1753
 30
0.0
 10
-70.9884
 20
-68.1753
 30
0.0
 10
-70.9884
 20
-68.1753
 30
0.0
 10
-70.9884
 20
-58.0489
 30
0.0
 10
-70.9884
 20
-58.0489
 30
0.0
  0
SPLINE
  5
49
330
1F
100
AcDbEntity
  8
layer 1
 62
     7
100
AcDbSpline
210
0.0
220
0.0
230
1.0
 70
    11
 71
     3
 72
    20
 73
    16
 74
     0
 42
0.0000000001
 43
0.0000000001
 12
1.0
 22
0.0
 32
0.0
 13
1.0
 23
0.0
 33
0.0
 40
0.0
 40
0.0
 40
0.0
 40
0.0
 40
0.2
 40
0.2
 40
0.2
 40
0.2
 40
0.4
 40
0.4
 40
0.4
 40
0.4
 40
0.6
 40
0.6
 40
0.6
 40
0.6
 40
1.0
 40
1.0
 40
1.0
 40
1.0
 10
-70.9884
 20
-80.9095
 30
0.0
 10
-74.2662
 20
-78.9971
 30
0.0
 10
-76.5321
 20
-75.5391
 30
0.0
 10
-76.7861
 20
-71.5353
 30
0.0
 10
-76.7861
 20
-71.5353
 30
0.0
 10
-76.8211
 20
-71.1203
 30
0.0
 10
-76.876
 20
-70.7905
 30
0.0
 10
-76.2711
 20
-70.7831
 30
0.0
 10
-76.2711
 20
-70.7831
 30
0.0
 10
-76.2711
 20
-70.7831
 30
0.0
 10
-70.9884
 20
-70.7831
 30
0.0
 10
-70.9884
 20
-70.7831
 30
0.0
 10
-70.9884
 20
-70.7831
 30
0.0
 10
-70.9884
 20
-70.7831
 30
0.0
 10
-70.9884
 20
-80.9095
 30
0.0
 10
-70.9884
 20
-80.9095
 30
0.0
  0
SPLINE
  5
4A
330
1F
100
AcDbEntity
  8
layer 1
 62
     7
100
AcDbSpline
210
0.0
220
0.0
230
1.0
 70
    11
 71
     3
 72
    20
 73
    16
 74
     0
 42
0.0000000001
 43
0.0000000001
 12
1.0
 22
0.0
 32
0.0
 13
1.0
 23
0.0
 33
0.0
 40
0.0
 40
0.0
 40
0.0
 40
0.0
 40
0.2
 40
0.2
 40
0.2
 40
0.2
 40
0.4
 40
0.4
 40
0.4
 40
0.4
 40
0.6
 40
0.6
 40
0.6
 40
0.6
 40
1.0
 40
1.0
 40
1.0
 40
1.0
 10
-70.9884
 20
-17.0843
 30
0.0
 10
-74.2662
 20
-18.9967
 30
0.0
 10
-76.5321
 20
-22.4549
 30
0.0
 10
-76.7861
 20
-26.4587
 30
0.0
 10
-76.7861
 20
-26.4587
 30
0.0
 10
-76.8211
 20
-26.8737
 30
0.0
 10
-76.876
 20
-27.2034
 30
0.0
 10
-76.2711
 20
-27.2109
 30
0.0
 10
-76.2711
 20
-27.2109
 30
0.0
 10
-76.2711
 20
-27.2109
 30
0.0
 10
-70.9884
 20
-27.2109
 30
0.0
 10
-70.9884
 20
-27.2109
 30
0.0
 10
-70.9884
 20
-27.2109
 30
0.0
 10
-70.9884
 20
-27.2109
 30
0.0
 10
-70.9884
 20
-17.0843
 30
0.0
 10
-70.9884
 20
-17.0843
 30
0.0
  0
SPLINE
  5
4B
330
1F
100
AcDbEntity
  8
layer 1
 62
     7
100
AcDbSpline
210
0.0
220
0.0
230
1.0
 70
    11
 71
     3
 72
    20
 73
    16
 74
     0
 42
0.0000000001
 43
0.0000000001
 12
1.0
 22
0.0
 32
0.0
 13
1.0
 23
0.0
 33
0.0
 40
0.0
 40
0.0
 40
0.0
 40
0.0
 40
0.2
 40
0.2
 40
0.2
 40
0.2
 40
0.4
 40
0.4
 40
0.4
 40
0.4
 40
0.6
 40
0.6
 40
0.6
 40
0.6
 40
1.0
 40
1.0
 40
1.0
 40
1.0
 10
-70.9884
 20
-39.9449
 30
0.0
 10
-74.2662
 20
-38.0325
 30
0.0
 10
-76.5321
 20
-34.5745
 30
0.0
 10
-76.7861
 20
-30.5707
 30
0.0
 10
-76.7861
 20
-30.5707
 30
0.0
 10
-76.8211
 20
-30.1557
 30
0.0
 10
-76.876
 20
-29.8259
 30
0.0
 10
-76.2711
 20
-29.8185
 30
0.0
 10
-76.2711
 20
-29.8185
 30
0.0
 10
-76.2711
 20
-29.8185
 30
0.0
 10
-70.9884
 20
-29.8185
 30
0.0
 10
-70.9884
 20
-29.8185
 30
0.0
 10
-70.9884
 20
-29.8185
 30
0.0
 10
-70.9884
 20
-29.8185
 30
0.0
 10
-70.9884
 20
-39.9449
 30
0.0
 10
-70.9884
 20
-39.9449
 30
0.0
  0
SPLINE
  5
4C
330
1F
100
AcDbEntity
  8
layer 1
 62
     7
100
AcDbSpline
210
0.0
220
0.0
230
1.0
 70
    11
 71
     3
 72
    20
 73
    16
 74
     0
 42
0.0000000001
 43
0.0000000001
 12
1.0
 22
0.0
 32
0.0
 13
1.0
 23
0.0
 33
0.0
 40
0.0
 40
0.0
 40
0.0
 40
0.0
 40
0.2
 40
0.2
 40
0.2
 40
0.2
 40
0.4
 40
0.4
 40
0.4
 40
0.4
 40
0.6
 40
0.6
 40
0.6
 40
0.6
 40
1.0
 40
1.0
 40
1.0
 40
1.0
 10
-70.9884
 20
23.8801
 30
0.0
 10
-74.2662
 20
21.9677
 30
0.0
 10
-76.5321
 20
18.5097
 30
0.0
 10
-76.7861
 20
14.5059
 30
0.0
 10
-76.7861
 20
14.5059
 30
0.0
 10
-76.8211
 20
14.0909
 30
0.0
 10
-76.876
 20
13.7612
 30
0.0
 10
-76.2711
 20
13.7537
 30
0.0
 10
-76.2711
 20
13.7537
 30
0.0
 10
-76.2711
 20
13.7537
 30
0.0
 10
-70.9884
 20
13.7537
 30
0.0
 10
-70.9884
 20
13.7537
 30
0.0
 10
-70.9884
 20
13.7537
 30
0.0
 10
-70.9884
 20
13.7537
 30
0.0
 10
-70.9884
 20
23.8801
 30
0.0
 10
-70.9884
 20
23.8801
 30
0.0
  0
SPLINE
  5
4D
330
1F
100
AcDbEntity
  8
layer 1
 62
     7
100
AcDbSpline
210
0.0
220
0.0
230
1.0
 70
    11
 71
     3
 72
    20
 73
    16
 74
     0
 42
0.0000000001
 43
0.0000000001
 12
1.0
 22
0.0
 32
0.0
 13
1.0
 23
0.0
 33
0.0
 40
0.0
 40
0.0
 40
0.0
 40
0.0
 40
0.2
 40
0.2
 40
0.2
 40
0.2
 40
0.4
 40
0.4
 40
0.4
 40
0.4
 40
0.6
 40
0.6
 40
0.6
 40
0.6
 40
1.0
 40
1.0
 40
1.0
 40
1.0
 10
-70.9884
 20
1.0195
 30
0.0
 10
-74.2662
 20
2.9319
 30
0.0
 10
-76.5321
 20
6.3899
 30
0.0
 10
-76.7861
 20
10.3937
 30
0.0
 10
-76.7861
 20
10.3937
 30
0.0
 10
-76.8211
 20
10.8087
 30
0.0
 10
-76.876
 20
11.1384
 30
0.0
 10
-76.2711
 20
11.1459
 30
0.0
 10
-76.2711
 20
11.1459
 30
0.0
 10
-76.2711
 20
11.1459
 30
0.0
 10
-70.9884
 20
11.1459
 30
0.0
 10
-70.9884
 20
11.1459
 30
0.0
 10
-70.9884
 20
11.1459
 30
0.0
 10
-70.9884
 20
11.1459
 30
0.0
 10
-70.9884
 20
1.0195
 30
0.0
 10
-70.9884
 20
1.0195
 30
0.0
  0
SPLINE
  5
4E
330
1F
100
AcDbEntity
  8
layer 1
 62
     7
100
AcDbSpline
210
0.0
220
0.0
230
1.0
 70
    11
 71
     3
 72
    20
 73
    16
 74
     0
 42
0.0000000001
 43
0.0000000001
 12
1.0
 22
0.0
 32
0.0
 13
1.0
 23
0.0
 33
0.0
 40
0.0
 40
0.0
 40
0.0
 40
0.0
 40
0.2
 40
0.2
 40
0.2
 40
0.2
 40
0.4
 40
0.4
 40
0.4
 40
0.4
 40
0.6
 40
0.6
 40
0.6
 40
0.6
 40
1.0
 40
1.0
 40
1.0
 40
1.0
 10
-70.9884
 20
64.8445
 30
0.0
 10
-74.2662
 20
62.9321
 30
0.0
 10
-76.5321
 20
59.4741
 30
0.0
 10
-76.7861
 20
55.4703
 30
0.0
 10
-76.7861
 20
55.4703
 30
0.0
 10
-76.8211
 20
55.0553
 30
0.0
 10
-76.876
 20
54.7256
 30
0.0
 10
-76.2711
 20
54.7181
 30
0.0
 10
-76.2711
 20
54.7181
 30
0.0
 10
-76.2711
 20
54.7181
 30
0.0
 10
-70.9884
 20
54.7181
 30
0.0
 10
-70.9884
 20
54.7181
 30
0.0
 10
-70.9884
 20
54.7181
 30
0.0
 10
-70.9884
 20
54.7181
 30
0.0
 10
-70.9884
 20
64.8445
 30
0.0
 10
-70.9884
 20
64.8445
 30
0.0
  0
SPLINE
  5
4F
330
1F
100
AcDbEntity
  8
layer 1
 62
     7
100
AcDbSpline
210
0.0
220
0.0
230
1.0
 70
    11
 71
     3
 72
    20
 73
    16
 74
     0
 42
0.0000000001
 43
0.0000000001
 12
1.0
 22
0.0
 32
0.0
 13
1.0
 23
0.0
 33
0.0
 40
0.0
 40
0.0
 40
0.0
 40
0.0
 40
0.2
 40
0.2
 40
0.2
 40
0.2
 40
0.4
 40
0.4
 40
0.4
 40
0.4
 40
0.6
 40
0.6
 40
0.6
 40
0.6
 40
1.0
 40
1.0
 40
1.0
 40
1.0
 10
-70.9884
 20
41.9839
 30
0.0
 10
-74.2662
 20
43.8963
 30
0.0
 10
-76.5321
 20
47.3543
 30
0.0
 10
-76.7861
 20
51.3583
 30
0.0
 10
-76.7861
 20
51.3583
 30
0.0
 10
-76.8211
 20
51.7733
 30
0.0
 10
-76.876
 20
52.103
 30
0.0
 10
-76.2711
 20
52.1103
 30
0.0
 10
-76.2711
 20
52.1103
 30
0.0
 10
-76.2711
 20
52.1103
 30
0.0
 10
-70.9884
 20
52.1103
 30
0.0
 10
-70.9884
 20
52.1103
 30
0.0
 10
-70.9884
 20
52.1103
 30
0.0
 10
-70.9884
 20
52.1103
 30
0.0
 10
-70.9884
 20
41.9839
 30
0.0
 10
-70.9884
 20
41.9839
 30
0.0
  0
SPLINE
  5
50
330
1F
100
AcDbEntity
  8
layer 1
 62
     7
100
AcDbSpline
210
0.0
220
0.0
230
1.0
 70
    11
 71
     3
 72
    16
 73
    12
 74
     0
 42
0.0000000001
 43
0.0000000001
 12
1.0
 22
0.0
 32
0.0
 13
1.0
 23
0.0
 33
0.0
 40
0.0
 40
0.0
 40
0.0
 40
0.0
 40
0.25
 40
0.25
 40
0.25
 40
0.25
 40
0.5
 40
0.5
 40
0.5
 40
0.5
 40
1.0
 40
1.0
 40
1.0
 40
1.0
 10
-96.2669
 20
129.2496
 30
0.0
 10
-98.0985
 20
125.1676
 30
0.0
 10
-102.1976
 20
122.3236
 30
0.0
 10
-106.9605
 20
122.3236
 30
0.0
 10
-106.9605
 20
122.3236
 30
0.0
 10
-111.7238
 20
122.3236
 30
0.0
 10
-115.8238
 20
125.1676
 30
0.0
 10
-117.6553
 20
129.2496
 30
0.0
 10
-117.6553
 20
129.2496
 30
0.0
 10
-117.6553
 20
129.2496
 30
0.0
 10
-96.2669
 20
129.2496
 30
0.0
 10
-96.2669
 20
129.2496
 30
0.0
  0
SPLINE
  5
51
330
1F
100
AcDbEntity
  8
layer 1
 62
     7
100
AcDbSpline
210
0.0
220
0.0
230
1.0
 70
    11
 71
     3
 72
    28
 73
    24
 74
     0
 42
0.0000000001
 43
0.0000000001
 12
1.0
 22
0.0
 32
0.0
 13
1.0
 23
0.0
 33
0.0
 40
0.0
 40
0.0
 40
0.0
 40
0.0
 40
0.1428571428571428
 40
0.1428571428571428
 40
0.1428571428571428
 40
0.1428571428571428
 40
0.2857142857142857
 40
0.2857142857142857
 40
0.2857142857142857
 40
0.2857142857142857
 40
0.4285714285714285
 40
0.4285714285714285
 40
0.4285714285714285
 40
0.4285714285714285
 40
0.5714285714285714
 40
0.5714285714285714
 40
0.5714285714285714
 40
0.5714285714285714
 40
0.7142857142857143
 40
0.7142857142857143
 40
0.7142857142857143
 40
0.7142857142857143
 40
1.0
 40
1.0
 40
1.0
 40
1.0
 10
-106.9605
 20
95.6827
 30
0.0
 10
-106.9605
 20
95.6827
 30
0.0
 10
-95.5883
 20
95.6827
 30
0.0
 10
-95.5883
 20
95.6827
 30
0.0
 10
-95.5883
 20
95.6827
 30
0.0
 10
-95.2301
 20
95.6827
 30
0.0
 10
-95.2502
 20
96.1427
 30
0.0
 10
-95.2611
 20
96.3029
 30
0.0
 10
-95.2611
 20
96.3029
 30
0.0
 10
-95.584
 20
102.4842
 30
0.0
 10
-100.6994
 20
107.3986
 30
0.0
 10
-106.9605
 20
107.3986
 30
0.0
 10
-106.9605
 20
107.3986
 30
0.0
 10
-113.1775
 20
107.3986
 30
0.0
 10
-118.2645
 20
102.5539
 30
0.0
 10
-118.6527
 20
96.4349
 30
0.0
 10
-118.6527
 20
96.4349
 30
0.0
 10
-118.6877
 20
96.0199
 30
0.0
 10
-118.7426
 20
95.6901
 30
0.0
 10
-118.1377
 20
95.6827
 30
0.0
 10
-118.1377
 20
95.6827
 30
0.0
 10
-118.1377
 20
95.6827
 30
0.0
 10
-106.9605
 20
95.6827
 30
0.0
 10
-106.9605
 20
95.6827
 30
0.0
  0
SPLINE
  5
52
330
1F
100
AcDbEntity
  8
layer 1
 62
     7
100
AcDbSpline
210
0.0
220
0.0
230
1.0
 70
    11
 71
     3
 72
    28
 73
    24
 74
     0
 42
0.0000000001
 43
0.0000000001
 12
1.0
 22
0.0
 32
0.0
 13
1.0
 23
0.0
 33
0.0
 40
0.0
 40
0.0
 40
0.0
 40
0.0
 40
0.1428571428571428
 40
0.1428571428571428
 40
0.1428571428571428
 40
0.1428571428571428
 40
0.2857142857142857
 40
0.2857142857142857
 40
0.2857142857142857
 40
0.2857142857142857
 40
0.4285714285714285
 40
0.4285714285714285
 40
0.4285714285714285
 40
0.4285714285714285
 40
0.5714285714285714
 40
0.5714285714285714
 40
0.5714285714285714
 40
0.5714285714285714
 40
0.7142857142857143
 40
0.7142857142857143
 40
0.7142857142857143
 40
0.7142857142857143
 40
1.0
 40
1.0
 40
1.0
 40
1.0
 10
-106.9605
 20
93.0749
 30
0.0
 10
-106.9605
 20
93.0749
 30
0.0
 10
-95.5883
 20
93.0749
 30
0.0
 10
-95.5883
 20
93.0749
 30
0.0
 10
-95.5883
 20
93.0749
 30
0.0
 10
-95.2301
 20
93.0749
 30
0.0
 10
-95.2502
 20
92.6149
 30
0.0
 10
-95.2611
 20
92.4547
 30
0.0
 10
-95.2611
 20
92.4547
 30
0.0
 10
-95.584
 20
86.2734
 30
0.0
 10
-100.6994
 20
81.359
 30
0.0
 10
-106.9605
 20
81.359
 30
0.0
 10
-106.9605
 20
81.359
 30
0.0
 10
-113.1775
 20
81.359
 30
0.0
 10
-118.2645
 20
86.2037
 30
0.0
 10
-118.6527
 20
92.3227
 30
0.0
 10
-118.6527
 20
92.3227
 30
0.0
 10
-118.6877
 20
92.7377
 30
0.0
 10
-118.7426
 20
93.0674
 30
0.0
 10
-118.1377
 20
93.0749
 30
0.0
 10
-118.1377
 20
93.0749
 30
0.0
 10
-118.1377
 20
93.0749
 30
0.0
 10
-106.9605
 20
93.0749
 30
0.0
 10
-106.9605
 20
93.0749
 30
0.0
  0
SPLINE
  5
53
330
1F
100
AcDbEntity
  8
layer 1
 62
     7
100
AcDbSpline
210
0.0
220
0.0
230
1.0
 70
    11
 71
     3
 72
    16
 73
    12
 74
     0
 42
0.0000000001
 43
0.0000000001
 12
1.0
 22
0.0
 32
0.0
 13
1.0
 23
0.0
 33
0.0
 40
0.0
 40
0.0
 40
0.0
 40
0.0
 40
0.25
 40
0.25
 40
0.25
 40
0.25
 40
0.5
 40
0.5
 40
0.5
 40
0.5
 40
1.0
 40
1.0
 40
1.0
 40
1.0
 10
-96.2669
 20
-104.35
 30
0.0
 10
-98.0985
 20
-100.268
 30
0.0
 10
-102.1976
 20
-97.424
 30
0.0
 10
-106.9605
 20
-97.424
 30
0.0
 10
-106.9605
 20
-97.424
 30
0.0
 10
-111.7238
 20
-97.424
 30
0.0
 10
-115.8238
 20
-100.268
 30
0.0
 10
-117.6553
 20
-104.35
 30
0.0
 10
-117.6553
 20
-104.35
 30
0.0
 10
-117.6553
 20
-104.35
 30
0.0
 10
-96.2669
 20
-104.35
 30
0.0
 10
-96.2669
 20
-104.35
 30
0.0
  0
SPLINE
  5
54
330
1F
100
AcDbEntity
  8
layer 1
 62
     7
100
AcDbSpline
210
0.0
220
0.0
230
1.0
 70
    11
 71
     3
 72
    28
 73
    24
 74
     0
 42
0.0000000001
 43
0.0000000001
 12
1.0
 22
0.0
 32
0.0
 13
1.0
 23
0.0
 33
0.0
 40
0.0
 40
0.0
 40
0.0
 40
0.0
 40
0.1428571428571428
 40
0.1428571428571428
 40
0.1428571428571428
 40
0.1428571428571428
 40
0.2857142857142857
 40
0.2857142857142857
 40
0.2857142857142857
 40
0.2857142857142857
 40
0.4285714285714285
 40
0.4285714285714285
 40
0.4285714285714285
 40
0.4285714285714285
 40
0.5714285714285714
 40
0.5714285714285714
 40
0.5714285714285714
 40
0.5714285714285714
 40
0.7142857142857143
 40
0.7142857142857143
 40
0.7142857142857143
 40
0.7142857142857143
 40
1.0
 40
1.0
 40
1.0
 40
1.0
 10
-106.9605
 20
-68.1753
 30
0.0
 10
-106.9605
 20
-68.1753
 30
0.0
 10
-95.5883
 20
-68.1753
 30
0.0
 10
-95.5883
 20
-68.1753
 30
0.0
 10
-95.5883
 20
-68.1753
 30
0.0
 10
-95.2301
 20
-68.1753
 30
0.0
 10
-95.2502
 20
-67.7153
 30
0.0
 10
-95.2611
 20
-67.5551
 30
0.0
 10
-95.2611
 20
-67.5551
 30
0.0
 10
-95.584
 20
-61.374
 30
0.0
 10
-100.6994
 20
-56.4594
 30
0.0
 10
-106.9605
 20
-56.4594
 30
0.0
 10
-106.9605
 20
-56.4594
 30
0.0
 10
-113.1775
 20
-56.4594
 30
0.0
 10
-118.2645
 20
-61.3041
 30
0.0
 10
-118.6527
 20
-67.4233
 30
0.0
 10
-118.6527
 20
-67.4233
 30
0.0
 10
-118.6877
 20
-67.8381
 30
0.0
 10
-118.7426
 20
-68.1678
 30
0.0
 10
-118.1377
 20
-68.1753
 30
0.0
 10
-118.1377
 20
-68.1753
 30
0.0
 10
-118.1377
 20
-68.1753
 30
0.0
 10
-106.9605
 20
-68.1753
 30
0.0
 10
-106.9605
 20
-68.1753
 30
0.0
  0
SPLINE
  5
55
330
1F
100
AcDbEntity
  8
layer 1
 62
     7
100
AcDbSpline
210
0.0
220
0.0
230
1.0
 70
    11
 71
     3
 72
    28
 73
    24
 74
     0
 42
0.0000000001
 43
0.0000000001
 12
1.0
 22
0.0
 32
0.0
 13
1.0
 23
0.0
 33
0.0
 40
0.0
 40
0.0
 40
0.0
 40
0.0
 40
0.1428571428571428
 40
0.1428571428571428
 40
0.1428571428571428
 40
0.1428571428571428
 40
0.2857142857142857
 40
0.2857142857142857
 40
0.2857142857142857
 40
0.2857142857142857
 40
0.4285714285714285
 40
0.4285714285714285
 40
0.4285714285714285
 40
0.4285714285714285
 40
0.5714285714285714
 40
0.5714285714285714
 40
0.5714285714285714
 40
0.5714285714285714
 40
0.7142857142857143
 40
0.7142857142857143
 40
0.7142857142857143
 40
0.7142857142857143
 40
1.0
 40
1.0
 40
1.0
 40
1.0
 10
-106.9605
 20
-70.7831
 30
0.0
 10
-106.9605
 20
-70.7831
 30
0.0
 10
-95.5883
 20
-70.7831
 30
0.0
 10
-95.5883
 20
-70.7831
 30
0.0
 10
-95.5883
 20
-70.7831
 30
0.0
 10
-95.2301
 20
-70.7831
 30
0.0
 10
-95.2502
 20
-71.2431
 30
0.0
 10
-95.2611
 20
-71.4033
 30
0.0
 10
-95.2611
 20
-71.4033
 30
0.0
 10
-95.584
 20
-77.5846
 30
0.0
 10
-100.6994
 20
-82.499
 30
0.0
 10
-106.9605
 20
-82.499
 30
0.0
 10
-106.9605
 20
-82.499
 30
0.0
 10
-113.1775
 20
-82.499
 30
0.0
 10
-118.2645
 20
-77.6543
 30
0.0
 10
-118.6527
 20
-71.5353
 30
0.0
 10
-118.6527
 20
-71.5353
 30
0.0
 10
-118.6877
 20
-71.1203
 30
0.0
 10
-118.7426
 20
-70.7905
 30
0.0
 10
-118.1377
 20
-70.7831
 30
0.0
 10
-118.1377
 20
-70.7831
 30
0.0
 10
-118.1377
 20
-70.7831
 30
0.0
 10
-106.9605
 20
-70.7831
 30
0.0
 10
-106.9605
 20
-70.7831
 30
0.0
  0
SPLINE
  5
56
330
1F
100
AcDbEntity
  8
layer 1
 62
     7
100
AcDbSpline
210
0.0
220
0.0
230
1.0
 70
    11
 71
     3
 72
    28
 73
    24
 74
     0
 42
0.0000000001
 43
0.0000000001
 12
1.0
 22
0.0
 32
0.0
 13
1.0
 23
0.0
 33
0.0
 40
0.0
 40
0.0
 40
0.0
 40
0.0
 40
0.1428571428571428
 40
0.1428571428571428
 40
0.1428571428571428
 40
0.1428571428571428
 40
0.2857142857142857
 40
0.2857142857142857
 40
0.2857142857142857
 40
0.2857142857142857
 40
0.4285714285714285
 40
0.4285714285714285
 40
0.4285714285714285
 40
0.4285714285714285
 40
0.5714285714285714
 40
0.5714285714285714
 40
0.5714285714285714
 40
0.5714285714285714
 40
0.7142857142857143
 40
0.7142857142857143
 40
0.7142857142857143
 40
0.7142857142857143
 40
1.0
 40
1.0
 40
1.0
 40
1.0
 10
-106.9605
 20
-27.2109
 30
0.0
 10
-106.9605
 20
-27.2109
 30
0.0
 10
-95.5883
 20
-27.2109
 30
0.0
 10
-95.5883
 20
-27.2109
 30
0.0
 10
-95.5883
 20
-27.2109
 30
0.0
 10
-95.2301
 20
-27.2109
 30
0.0
 10
-95.2502
 20
-26.7509
 30
0.0
 10
-95.2611
 20
-26.5907
 30
0.0
 10
-95.2611
 20
-26.5907
 30
0.0
 10
-95.584
 20
-20.4094
 30
0.0
 10
-100.6994
 20
-15.495
 30
0.0
 10
-106.9605
 20
-15.495
 30
0.0
 10
-106.9605
 20
-15.495
 30
0.0
 10
-113.1775
 20
-15.495
 30
0.0
 10
-118.2645
 20
-20.3397
 30
0.0
 10
-118.6527
 20
-26.4587
 30
0.0
 10
-118.6527
 20
-26.4587
 30
0.0
 10
-118.6877
 20
-26.8737
 30
0.0
 10
-118.7426
 20
-27.2034
 30
0.0
 10
-118.1377
 20
-27.2109
 30
0.0
 10
-118.1377
 20
-27.2109
 30
0.0
 10
-118.1377
 20
-27.2109
 30
0.0
 10
-106.9605
 20
-27.2109
 30
0.0
 10
-106.9605
 20
-27.2109
 30
0.0
  0
SPLINE
  5
57
330
1F
100
AcDbEntity
  8
layer 1
 62
     7
100
AcDbSpline
210
0.0
220
0.0
230
1.0
 70
    11
 71
     3
 72
    28
 73
    24
 74
     0
 42
0.0000000001
 43
0.0000000001
 12
1.0
 22
0.0
 32
0.0
 13
1.0
 23
0.0
 33
0.0
 40
0.0
 40
0.0
 40
0.0
 40
0.0
 40
0.1428571428571428
 40
0.1428571428571428
 40
0.1428571428571428
 40
0.1428571428571428
 40
0.2857142857142857
 40
0.2857142857142857
 40
0.2857142857142857
 40
0.2857142857142857
 40
0.4285714285714285
 40
0.4285714285714285
 40
0.4285714285714285
 40
0.4285714285714285
 40
0.5714285714285714
 40
0.5714285714285714
 40
0.5714285714285714
 40
0.5714285714285714
 40
0.7142857142857143
 40
0.7142857142857143
 40
0.7142857142857143
 40
0.7142857142857143
 40
1.0
 40
1.0
 40
1.0
 40
1.0
 10
-106.9605
 20
-29.8185
 30
0.0
 10
-106.9605
 20
-29.8185
 30
0.0
 10
-95.5883
 20
-29.8185
 30
0.0
 10
-95.5883
 20
-29.8185
 30
0.0
 10
-95.5883
 20
-29.8185
 30
0.0
 10
-95.2301
 20
-29.8185
 30
0.0
 10
-95.2502
 20
-30.2787
 30
0.0
 10
-95.2611
 20
-30.4387
 30
0.0
 10
-95.2611
 20
-30.4387
 30
0.0
 10
-95.584
 20
-36.62
 30
0.0
 10
-100.6994
 20
-41.5344
 30
0.0
 10
-106.9605
 20
-41.5344
 30
0.0
 10
-106.9605
 20
-41.5344
 30
0.0
 10
-113.1775
 20
-41.5344
 30
0.0
 10
-118.2645
 20
-36.6897
 30
0.0
 10
-118.6527
 20
-30.5707
 30
0.0
 10
-118.6527
 20
-30.5707
 30
0.0
 10
-118.6877
 20
-30.1557
 30
0.0
 10
-118.7426
 20
-29.8259
 30
0.0
 10
-118.1377
 20
-29.8185
 30
0.0
 10
-118.1377
 20
-29.8185
 30
0.0
 10
-118.1377
 20
-29.8185
 30
0.0
 10
-106.9605
 20
-29.8185
 30
0.0
 10
-106.9605
 20
-29.8185
 30
0.0
  0
SPLINE
  5
58
330
1F
100
AcDbEntity
  8
layer 1
 62
     7
100
AcDbSpline
210
0.0
220
0.0
230
1.0
 70
    11
 71
     3
 72
    28
 73
    24
 74
     0
 42
0.0000000001
 43
0.0000000001
 12
1.0
 22
0.0
 32
0.0
 13
1.0
 23
0.0
 33
0.0
 40
0.0
 40
0.0
 40
0.0
 40
0.0
 40
0.1428571428571428
 40
0.1428571428571428
 40
0.1428571428571428
 40
0.1428571428571428
 40
0.2857142857142857
 40
0.2857142857142857
 40
0.2857142857142857
 40
0.2857142857142857
 40
0.4285714285714285
 40
0.4285714285714285
 40
0.4285714285714285
 40
0.4285714285714285
 40
0.5714285714285714
 40
0.5714285714285714
 40
0.5714285714285714
 40
0.5714285714285714
 40
0.7142857142857143
 40
0.7142857142857143
 40
0.7142857142857143
 40
0.7142857142857143
 40
1.0
 40
1.0
 40
1.0
 40
1.0
 10
-106.9605
 20
13.7537
 30
0.0
 10
-106.9605
 20
13.7537
 30
0.0
 10
-95.5883
 20
13.7537
 30
0.0
 10
-95.5883
 20
13.7537
 30
0.0
 10
-95.5883
 20
13.7537
 30
0.0
 10
-95.2301
 20
13.7537
 30
0.0
 10
-95.2502
 20
14.2137
 30
0.0
 10
-95.2611
 20
14.3739
 30
0.0
 10
-95.2611
 20
14.3739
 30
0.0
 10
-95.584
 20
20.5552
 30
0.0
 10
-100.6994
 20
25.4696
 30
0.0
 10
-106.9605
 20
25.4696
 30
0.0
 10
-106.9605
 20
25.4696
 30
0.0
 10
-113.1775
 20
25.4696
 30
0.0
 10
-118.2645
 20
20.6249
 30
0.0
 10
-118.6527
 20
14.5059
 30
0.0
 10
-118.6527
 20
14.5059
 30
0.0
 10
-118.6877
 20
14.0909
 30
0.0
 10
-118.7426
 20
13.7612
 30
0.0
 10
-118.1377
 20
13.7537
 30
0.0
 10
-118.1377
 20
13.7537
 30
0.0
 10
-118.1377
 20
13.7537
 30
0.0
 10
-106.9605
 20
13.7537
 30
0.0
 10
-106.9605
 20
13.7537
 30
0.0
  0
SPLINE
  5
59
330
1F
100
AcDbEntity
  8
layer 1
 62
     7
100
AcDbSpline
210
0.0
220
0.0
230
1.0
 70
    11
 71
     3
 72
    28
 73
    24
 74
     0
 42
0.0000000001
 43
0.0000000001
 12
1.0
 22
0.0
 32
0.0
 13
1.0
 23
0.0
 33
0.0
 40
0.0
 40
0.0
 40
0.0
 40
0.0
 40
0.1428571428571428
 40
0.1428571428571428
 40
0.1428571428571428
 40
0.1428571428571428
 40
0.2857142857142857
 40
0.2857142857142857
 40
0.2857142857142857
 40
0.2857142857142857
 40
0.4285714285714285
 40
0.4285714285714285
 40
0.4285714285714285
 40
0.4285714285714285
 40
0.5714285714285714
 40
0.5714285714285714
 40
0.5714285714285714
 40
0.5714285714285714
 40
0.7142857142857143
 40
0.7142857142857143
 40
0.7142857142857143
 40
0.7142857142857143
 40
1.0
 40
1.0
 40
1.0
 40
1.0
 10
-106.9605
 20
11.1459
 30
0.0
 10
-106.9605
 20
11.1459
 30
0.0
 10
-95.5883
 20
11.1459
 30
0.0
 10
-95.5883
 20
11.1459
 30
0.0
 10
-95.5883
 20
11.1459
 30
0.0
 10
-95.2301
 20
11.1459
 30
0.0
 10
-95.2502
 20
10.6859
 30
0.0
 10
-95.2611
 20
10.5257
 30
0.0
 10
-95.2611
 20
10.5257
 30
0.0
 10
-95.584
 20
4.3444
 30
0.0
 10
-100.6994
 20
-0.57
 30
0.0
 10
-106.9605
 20
-0.57
 30
0.0
 10
-106.9605
 20
-0.57
 30
0.0
 10
-113.1775
 20
-0.57
 30
0.0
 10
-118.2645
 20
4.2747
 30
0.0
 10
-118.6527
 20
10.3937
 30
0.0
 10
-118.6527
 20
10.3937
 30
0.0
 10
-118.6877
 20
10.8087
 30
0.0
 10
-118.7426
 20
11.1384
 30
0.0
 10
-118.1377
 20
11.1459
 30
0.0
 10
-118.1377
 20
11.1459
 30
0.0
 10
-118.1377
 20
11.1459
 30
0.0
 10
-106.9605
 20
11.1459
 30
0.0
 10
-106.9605
 20
11.1459
 30
0.0
  0
SPLINE
  5
5A
330
1F
100
AcDbEntity
  8
layer 1
 62
     7
100
AcDbSpline
210
0.0
220
0.0
230
1.0
 70
    11
 71
     3
 72
    28
 73
    24
 74
     0
 42
0.0000000001
 43
0.0000000001
 12
1.0
 22
0.0
 32
0.0
 13
1.0
 23
0.0
 33
0.0
 40
0.0
 40
0.0
 40
0.0
 40
0.0
 40
0.1428571428571428
 40
0.1428571428571428
 40
0.1428571428571428
 40
0.1428571428571428
 40
0.2857142857142857
 40
0.2857142857142857
 40
0.2857142857142857
 40
0.2857142857142857
 40
0.4285714285714285
 40
0.4285714285714285
 40
0.4285714285714285
 40
0.4285714285714285
 40
0.5714285714285714
 40
0.5714285714285714
 40
0.5714285714285714
 40
0.5714285714285714
 40
0.7142857142857143
 40
0.7142857142857143
 40
0.7142857142857143
 40
0.7142857142857143
 40
1.0
 40
1.0
 40
1.0
 40
1.0
 10
-106.9605
 20
54.7181
 30
0.0
 10
-106.9605
 20
54.7181
 30
0.0
 10
-95.5883
 20
54.7181
 30
0.0
 10
-95.5883
 20
54.7181
 30
0.0
 10
-95.5883
 20
54.7181
 30
0.0
 10
-95.2301
 20
54.7181
 30
0.0
 10
-95.2502
 20
55.1783
 30
0.0
 10
-95.2611
 20
55.3383
 30
0.0
 10
-95.2611
 20
55.3383
 30
0.0
 10
-95.584
 20
61.5196
 30
0.0
 10
-100.6994
 20
66.434
 30
0.0
 10
-106.9605
 20
66.434
 30
0.0
 10
-106.9605
 20
66.434
 30
0.0
 10
-113.1775
 20
66.434
 30
0.0
 10
-118.2645
 20
61.5893
 30
0.0
 10
-118.6527
 20
55.4703
 30
0.0
 10
-118.6527
 20
55.4703
 30
0.0
 10
-118.6877
 20
55.0553
 30
0.0
 10
-118.7426
 20
54.7256
 30
0.0
 10
-118.1377
 20
54.7181
 30
0.0
 10
-118.1377
 20
54.7181
 30
0.0
 10
-118.1377
 20
54.7181
 30
0.0
 10
-106.9605
 20
54.7181
 30
0.0
 10
-106.9605
 20
54.7181
 30
0.0
  0
SPLINE
  5
5B
330
1F
100
AcDbEntity
  8
layer 1
 62
     7
100
AcDbSpline
210
0.0
220
0.0
230
1.0
 70
    11
 71
     3
 72
    28
 73
    24
 74
     0
 42
0.0000000001
 43
0.0000000001
 12
1.0
 22
0.0
 32
0.0
 13
1.0
 23
0.0
 33
0.0
 40
0.0
 40
0.0
 40
0.0
 40
0.0
 40
0.1428571428571428
 40
0.1428571428571428
 40
0.1428571428571428
 40
0.1428571428571428
 40
0.2857142857142857
 40
0.2857142857142857
 40
0.2857142857142857
 40
0.2857142857142857
 40
0.4285714285714285
 40
0.4285714285714285
 40
0.4285714285714285
 40
0.4285714285714285
 40
0.5714285714285714
 40
0.5714285714285714
 40
0.5714285714285714
 40
0.5714285714285714
 40
0.7142857142857143
 40
0.7142857142857143
 40
0.7142857142857143
 40
0.7142857142857143
 40
1.0
 40
1.0
 40
1.0
 40
1.0
 10
-106.9605
 20
52.1103
 30
0.0
 10
-106.9605
 20
52.1103
 30
0.0
 10
-95.5883
 20
52.1103
 30
0.0
 10
-95.5883
 20
52.1103
 30
0.0
 10
-95.5883
 20
52.1103
 30
0.0
 10
-95.2301
 20
52.1103
 30
0.0
 10
-95.2502
 20
51.6503
 30
0.0
 10
-95.2611
 20
51.4901
 30
0.0
 10
-95.2611
 20
51.4901
 30
0.0
 10
-95.584
 20
45.309
 30
0.0
 10
-100.6994
 20
40.3946
 30
0.0
 10
-106.9605
 20
40.3946
 30
0.0
 10
-106.9605
 20
40.3946
 30
0.0
 10
-113.1775
 20
40.3946
 30
0.0
 10
-118.2645
 20
45.2393
 30
0.0
 10
-118.6527
 20
51.3583
 30
0.0
 10
-118.6527
 20
51.3583
 30
0.0
 10
-118.6877
 20
51.7733
 30
0.0
 10
-118.7426
 20
52.103
 30
0.0
 10
-118.1377
 20
52.1103
 30
0.0
 10
-118.1377
 20
52.1103
 30
0.0
 10
-118.1377
 20
52.1103
 30
0.0
 10
-106.9605
 20
52.1103
 30
0.0
 10
-106.9605
 20
52.1103
 30
0.0
  0
SPLINE
  5
5C
330
1F
100
AcDbEntity
  8
layer 1
 62
     7
100
AcDbSpline
210
0.0
220
0.0
230
1.0
 70
    11
 71
     3
 72
    16
 73
    12
 74
     0
 42
0.0000000001
 43
0.0000000001
 12
1.0
 22
0.0
 32
0.0
 13
1.0
 23
0.0
 33
0.0
 40
0.0
 40
0.0
 40
0.0
 40
0.0
 40
0.25
 40
0.25
 40
0.25
 40
0.25
 40
0.5
 40
0.5
 40
0.5
 40
0.5
 40
1.0
 40
1.0
 40
1.0
 40
1.0
 10
-179.9997
 20
129.2496
 30
0.0
 10
-181.0061
 20
127.0066
 30
0.0
 10
-182.6972
 20
125.1374
 30
0.0
 10
-184.8071
 20
123.9084
 30
0.0
 10
-184.8071
 20
123.9084
 30
0.0
 10
-184.8071
 20
123.9084
 30
0.0
 10
-184.8071
 20
129.2496
 30
0.0
 10
-184.8071
 20
129.2496
 30
0.0
 10
-184.8071
 20
129.2496
 30
0.0
 10
-184.8071
 20
129.2496
 30
0.0
 10
-179.9997
 20
129.2496
 30
0.0
 10
-179.9997
 20
129.2496
 30
0.0
  0
SPLINE
  5
5D
330
1F
100
AcDbEntity
  8
layer 1
 62
     7
100
AcDbSpline
210
0.0
220
0.0
230
1.0
 70
    11
 71
     3
 72
    20
 73
    16
 74
     0
 42
0.0000000001
 43
0.0000000001
 12
1.0
 22
0.0
 32
0.0
 13
1.0
 23
0.0
 33
0.0
 40
0.0
 40
0.0
 40
0.0
 40
0.0
 40
0.2
 40
0.2
 40
0.2
 40
0.2
 40
0.4
 40
0.4
 40
0.4
 40
0.4
 40
0.6
 40
0.6
 40
0.6
 40
0.6
 40
1.0
 40
1.0
 40
1.0
 40
1.0
 10
-184.8071
 20
95.6827
 30
0.0
 10
-184.8071
 20
95.6827
 30
0.0
 10
-179.3216
 20
95.6827
 30
0.0
 10
-179.3216
 20
95.6827
 30
0.0
 10
-179.3216
 20
95.6827
 30
0.0
 10
-178.9635
 20
95.6827
 30
0.0
 10
-178.9836
 20
96.1427
 30
0.0
 10
-178.9945
 20
96.3029
 30
0.0
 10
-178.9945
 20
96.3029
 30
0.0
 10
-179.2067
 20
100.3658
 30
0.0
 10
-181.4894
 20
103.8812
 30
0.0
 10
-184.8071
 20
105.8135
 30
0.0
 10
-184.8071
 20
105.8135
 30
0.0
 10
-184.8071
 20
105.8135
 30
0.0
 10
-184.8071
 20
95.6827
 30
0.0
 10
-184.8071
 20
95.6827
 30
0.0
  0
SPLINE
  5
5E
330
1F
100
AcDbEntity
  8
layer 1
 62
     7
100
AcDbSpline
210
0.0
220
0.0
230
1.0
 70
    11
 71
     3
 72
    20
 73
    16
 74
     0
 42
0.0000000001
 43
0.0000000001
 12
1.0
 22
0.0
 32
0.0
 13
1.0
 23
0.0
 33
0.0
 40
0.0
 40
0.0
 40
0.0
 40
0.0
 40
0.2
 40
0.2
 40
0.2
 40
0.2
 40
0.4
 40
0.4
 40
0.4
 40
0.4
 40
0.6
 40
0.6
 40
0.6
 40
0.6
 40
1.0
 40
1.0
 40
1.0
 40
1.0
 10
-184.8071
 20
93.0749
 30
0.0
 10
-184.8071
 20
93.0749
 30
0.0
 10
-179.3216
 20
93.0749
 30
0.0
 10
-179.3216
 20
93.0749
 30
0.0
 10
-179.3216
 20
93.0749
 30
0.0
 10
-178.9635
 20
93.0749
 30
0.0
 10
-178.9836
 20
92.6149
 30
0.0
 10
-178.9945
 20
92.4547
 30
0.0
 10
-178.9945
 20
92.4547
 30
0.0
 10
-179.2067
 20
88.3918
 30
0.0
 10
-181.4894
 20
84.8764
 30
0.0
 10
-184.8071
 20
82.9439
 30
0.0
 10
-184.8071
 20
82.9439
 30
0.0
 10
-184.8071
 20
82.9439
 30
0.0
 10
-184.8071
 20
93.0749
 30
0.0
 10
-184.8071
 20
93.0749
 30
0.0
  0
SPLINE
  5
5F
330
1F
100
AcDbEntity
  8
layer 1
 62
     7
100
AcDbSpline
210
0.0
220
0.0
230
1.0
 70
    11
 71
     3
 72
    16
 73
    12
 74
     0
 42
0.0000000001
 43
0.0000000001
 12
1.0
 22
0.0
 32
0.0
 13
1.0
 23
0.0
 33
0.0
 40
0.0
 40
0.0
 40
0.0
 40
0.0
 40
0.25
 40
0.25
 40
0.25
 40
0.25
 40
0.5
 40
0.5
 40
0.5
 40
0.5
 40
1.0
 40
1.0
 40
1.0
 40
1.0
 10
-179.9997
 20
-104.35
 30
0.0
 10
-181.0061
 20
-102.107
 30
0.0
 10
-182.6972
 20
-100.2378
 30
0.0
 10
-184.8071
 20
-99.0088
 30
0.0
 10
-184.8071
 20
-99.0088
 30
0.0
 10
-184.8071
 20
-99.0088
 30
0.0
 10
-184.8071
 20
-104.35
 30
0.0
 10
-184.8071
 20
-104.35
 30
0.0
 10
-184.8071
 20
-104.35
 30
0.0
 10
-184.8071
 20
-104.35
 30
0.0
 10
-179.9997
 20
-104.35
 30
0.0
 10
-179.9997
 20
-104.35
 30
0.0
  0
SPLINE
  5
60
330
1F
100
AcDbEntity
  8
layer 1
 62
     7
100
AcDbSpline
210
0.0
220
0.0
230
1.0
 70
    11
 71
     3
 72
    20
 73
    16
 74
     0
 42
0.0000000001
 43
0.0000000001
 12
1.0
 22
0.0
 32
0.0
 13
1.0
 23
0.0
 33
0.0
 40
0.0
 40
0.0
 40
0.0
 40
0.0
 40
0.2
 40
0.2
 40
0.2
 40
0.2
 40
0.4
 40
0.4
 40
0.4
 40
0.4
 40
0.6
 40
0.6
 40
0.6
 40
0.6
 40
1.0
 40
1.0
 40
1.0
 40
1.0
 10
-184.8071
 20
-68.1753
 30
0.0
 10
-184.8071
 20
-68.1753
 30
0.0
 10
-179.3216
 20
-68.1753
 30
0.0
 10
-179.3216
 20
-68.1753
 30
0.0
 10
-179.3216
 20
-68.1753
 30
0.0
 10
-178.9635
 20
-68.1753
 30
0.0
 10
-178.9836
 20
-67.7153
 30
0.0
 10
-178.9945
 20
-67.5551
 30
0.0
 10
-178.9945
 20
-67.5551
 30
0.0
 10
-179.2067
 20
-63.4922
 30
0.0
 10
-181.4894
 20
-59.9768
 30
0.0
 10
-184.8071
 20
-58.0443
 30
0.0
 10
-184.8071
 20
-58.0443
 30
0.0
 10
-184.8071
 20
-58.0443
 30
0.0
 10
-184.8071
 20
-68.1753
 30
0.0
 10
-184.8071
 20
-68.1753
 30
0.0
  0
SPLINE
  5
61
330
1F
100
AcDbEntity
  8
layer 1
 62
     7
100
AcDbSpline
210
0.0
220
0.0
230
1.0
 70
    11
 71
     3
 72
    20
 73
    16
 74
     0
 42
0.0000000001
 43
0.0000000001
 12
1.0
 22
0.0
 32
0.0
 13
1.0
 23
0.0
 33
0.0
 40
0.0
 40
0.0
 40
0.0
 40
0.0
 40
0.2
 40
0.2
 40
0.2
 40
0.2
 40
0.4
 40
0.4
 40
0.4
 40
0.4
 40
0.6
 40
0.6
 40
0.6
 40
0.6
 40
1.0
 40
1.0
 40
1.0
 40
1.0
 10
-184.8071
 20
-70.7831
 30
0.0
 10
-184.8071
 20
-70.7831
 30
0.0
 10
-179.3216
 20
-70.7831
 30
0.0
 10
-179.3216
 20
-70.7831
 30
0.0
 10
-179.3216
 20
-70.7831
 30
0.0
 10
-178.9635
 20
-70.7831
 30
0.0
 10
-178.9836
 20
-71.2431
 30
0.0
 10
-178.9945
 20
-71.4033
 30
0.0
 10
-178.9945
 20
-71.4033
 30
0.0
 10
-179.2067
 20
-75.4662
 30
0.0
 10
-181.4894
 20
-78.9816
 30
0.0
 10
-184.8071
 20
-80.9139
 30
0.0
 10
-184.8071
 20
-80.9139
 30
0.0
 10
-184.8071
 20
-80.9139
 30
0.0
 10
-184.8071
 20
-70.7831
 30
0.0
 10
-184.8071
 20
-70.7831
 30
0.0
  0
SPLINE
  5
62
330
1F
100
AcDbEntity
  8
layer 1
 62
     7
100
AcDbSpline
210
0.0
220
0.0
230
1.0
 70
    11
 71
     3
 72
    20
 73
    16
 74
     0
 42
0.0000000001
 43
0.0000000001
 12
1.0
 22
0.0
 32
0.0
 13
1.0
 23
0.0
 33
0.0
 40
0.0
 40
0.0
 40
0.0
 40
0.0
 40
0.2
 40
0.2
 40
0.2
 40
0.2
 40
0.4
 40
0.4
 40
0.4
 40
0.4
 40
0.6
 40
0.6
 40
0.6
 40
0.6
 40
1.0
 40
1.0
 40
1.0
 40
1.0
 10
-184.8071
 20
-27.2109
 30
0.0
 10
-184.8071
 20
-27.2109
 30
0.0
 10
-179.3216
 20
-27.2109
 30
0.0
 10
-179.3216
 20
-27.2109
 30
0.0
 10
-179.3216
 20
-27.2109
 30
0.0
 10
-178.9635
 20
-27.2109
 30
0.0
 10
-178.9836
 20
-26.7509
 30
0.0
 10
-178.9945
 20
-26.5907
 30
0.0
 10
-178.9945
 20
-26.5907
 30
0.0
 10
-179.2067
 20
-22.5278
 30
0.0
 10
-181.4894
 20
-19.0122
 30
0.0
 10
-184.8071
 20
-17.0799
 30
0.0
 10
-184.8071
 20
-17.0799
 30
0.0
 10
-184.8071
 20
-17.0799
 30
0.0
 10
-184.8071
 20
-27.2109
 30
0.0
 10
-184.8071
 20
-27.2109
 30
0.0
  0
SPLINE
  5
63
330
1F
100
AcDbEntity
  8
layer 1
 62
     7
100
AcDbSpline
210
0.0
220
0.0
230
1.0
 70
    11
 71
     3
 72
    20
 73
    16
 74
     0
 42
0.0000000001
 43
0.0000000001
 12
1.0
 22
0.0
 32
0.0
 13
1.0
 23
0.0
 33
0.0
 40
0.0
 40
0.0
 40
0.0
 40
0.0
 40
0.2
 40
0.2
 40
0.2
 40
0.2
 40
0.4
 40
0.4
 40
0.4
 40
0.4
 40
0.6
 40
0.6
 40
0.6
 40
0.6
 40
1.0
 40
1.0
 40
1.0
 40
1.0
 10
-184.8071
 20
-29.8185
 30
0.0
 10
-184.8071
 20
-29.8185
 30
0.0
 10
-179.3216
 20
-29.8185
 30
0.0
 10
-179.3216
 20
-29.8185
 30
0.0
 10
-179.3216
 20
-29.8185
 30
0.0
 10
-178.9635
 20
-29.8185
 30
0.0
 10
-178.9836
 20
-30.2787
 30
0.0
 10
-178.9945
 20
-30.4387
 30
0.0
 10
-178.9945
 20
-30.4387
 30
0.0
 10
-179.2067
 20
-34.5016
 30
0.0
 10
-181.4894
 20
-38.017
 30
0.0
 10
-184.8071
 20
-39.9495
 30
0.0
 10
-184.8071
 20
-39.9495
 30
0.0
 10
-184.8071
 20
-39.9495
 30
0.0
 10
-184.8071
 20
-29.8185
 30
0.0
 10
-184.8071
 20
-29.8185
 30
0.0
  0
SPLINE
  5
64
330
1F
100
AcDbEntity
  8
layer 1
 62
     7
100
AcDbSpline
210
0.0
220
0.0
230
1.0
 70
    11
 71
     3
 72
    20
 73
    16
 74
     0
 42
0.0000000001
 43
0.0000000001
 12
1.0
 22
0.0
 32
0.0
 13
1.0
 23
0.0
 33
0.0
 40
0.0
 40
0.0
 40
0.0
 40
0.0
 40
0.2
 40
0.2
 40
0.2
 40
0.2
 40
0.4
 40
0.4
 40
0.4
 40
0.4
 40
0.6
 40
0.6
 40
0.6
 40
0.6
 40
1.0
 40
1.0
 40
1.0
 40
1.0
 10
-184.8071
 20
13.7537
 30
0.0
 10
-184.8071
 20
13.7537
 30
0.0
 10
-179.3216
 20
13.7537
 30
0.0
 10
-179.3216
 20
13.7537
 30
0.0
 10
-179.3216
 20
13.7537
 30
0.0
 10
-178.9635
 20
13.7537
 30
0.0
 10
-178.9836
 20
14.2137
 30
0.0
 10
-178.9945
 20
14.3739
 30
0.0
 10
-178.9945
 20
14.3739
 30
0.0
 10
-179.2067
 20
18.4368
 30
0.0
 10
-181.4894
 20
21.9522
 30
0.0
 10
-184.8071
 20
23.8847
 30
0.0
 10
-184.8071
 20
23.8847
 30
0.0
 10
-184.8071
 20
23.8847
 30
0.0
 10
-184.8071
 20
13.7537
 30
0.0
 10
-184.8071
 20
13.7537
 30
0.0
  0
SPLINE
  5
65
330
1F
100
AcDbEntity
  8
layer 1
 62
     7
100
AcDbSpline
210
0.0
220
0.0
230
1.0
 70
    11
 71
     3
 72
    20
 73
    16
 74
     0
 42
0.0000000001
 43
0.0000000001
 12
1.0
 22
0.0
 32
0.0
 13
1.0
 23
0.0
 33
0.0
 40
0.0
 40
0.0
 40
0.0
 40
0.0
 40
0.2
 40
0.2
 40
0.2
 40
0.2
 40
0.4
 40
0.4
 40
0.4
 40
0.4
 40
0.6
 40
0.6
 40
0.6
 40
0.6
 40
1.0
 40
1.0
 40
1.0
 40
1.0
 10
-184.8071
 20
11.1459
 30
0.0
 10
-184.8071
 20
11.1459
 30
0.0
 10
-179.3216
 20
11.1459
 30
0.0
 10
-179.3216
 20
11.1459
 30
0.0
 10
-179.3216
 20
11.1459
 30
0.0
 10
-178.9635
 20
11.1459
 30
0.0
 10
-178.9836
 20
10.6859
 30
0.0
 10
-178.9945
 20
10.5257
 30
0.0
 10
-178.9945
 20
10.5257
 30
0.0
 10
-179.2067
 20
6.4628
 30
0.0
 10
-181.4894
 20
2.9474
 30
0.0
 10
-184.8071
 20
1.0151
 30
0.0
 10
-184.8071
 20
1.0151
 30
0.0
 10
-184.8071
 20
1.0151
 30
0.0
 10
-184.8071
 20
11.1459
 30
0.0
 10
-184.8071
 20
11.1459
 30
0.0
  0
SPLINE
  5
66
330
1F
100
AcDbEntity
  8
layer 1
 62
     7
100
AcDbSpline
210
0.0
220
0.0
230
1.0
 70
    11
 71
     3
 72
    20
 73
    16
 74
     0
 42
0.0000000001
 43
0.0000000001
 12
1.0
 22
0.0
 32
0.0
 13
1.0
 23
0.0
 33
0.0
 40
0.0
 40
0.0
 40
0.0
 40
0.0
 40
0.2
 40
0.2
 40
0.2
 40
0.2
 40
0.4
 40
0.4
 40
0.4
 40
0.4
 40
0.6
 40
0.6
 40
0.6
 40
0.6
 40
1.0
 40
1.0
 40
1.0
 40
1.0
 10
-184.8071
 20
54.7181
 30
0.0
 10
-184.8071
 20
54.7181
 30
0.0
 10
-179.3216
 20
54.7181
 30
0.0
 10
-179.3216
 20
54.7181
 30
0.0
 10
-179.3216
 20
54.7181
 30
0.0
 10
-178.9635
 20
54.7181
 30
0.0
 10
-178.9836
 20
55.1783
 30
0.0
 10
-178.9945
 20
55.3383
 30
0.0
 10
-178.9945
 20
55.3383
 30
0.0
 10
-179.2067
 20
59.4012
 30
0.0
 10
-181.4894
 20
62.9166
 30
0.0
 10
-184.8071
 20
64.8491
 30
0.0
 10
-184.8071
 20
64.8491
 30
0.0
 10
-184.8071
 20
64.8491
 30
0.0
 10
-184.8071
 20
54.7181
 30
0.0
 10
-184.8071
 20
54.7181
 30
0.0
  0
SPLINE
  5
67
330
1F
100
AcDbEntity
  8
layer 1
 62
     7
100
AcDbSpline
210
0.0
220
0.0
230
1.0
 70
    11
 71
     3
 72
    20
 73
    16
 74
     0
 42
0.0000000001
 43
0.0000000001
 12
1.0
 22
0.0
 32
0.0
 13
1.0
 23
0.0
 33
0.0
 40
0.0
 40
0.0
 40
0.0
 40
0.0
 40
0.2
 40
0.2
 40
0.2
 40
0.2
 40
0.4
 40
0.4
 40
0.4
 40
0.4
 40
0.6
 40
0.6
 40
0.6
 40
0.6
 40
1.0
 40
1.0
 40
1.0
 40
1.0
 10
-184.8071
 20
52.1103
 30
0.0
 10
-184.8071
 20
52.1103
 30
0.0
 10
-179.3216
 20
52.1103
 30
0.0
 10
-179.3216
 20
52.1103
 30
0.0
 10
-179.3216
 20
52.1103
 30
0.0
 10
-178.9635
 20
52.1103
 30
0.0
 10
-178.9836
 20
51.6503
 30
0.0
 10
-178.9945
 20
51.4901
 30
0.0
 10
-178.9945
 20
51.4901
 30
0.0
 10
-179.2067
 20
47.4274
 30
0.0
 10
-181.4894
 20
43.9118
 30
0.0
 10
-184.8071
 20
41.9795
 30
0.0
 10
-184.8071
 20
41.9795
 30
0.0
 10
-184.8071
 20
41.9795
 30
0.0
 10
-184.8071
 20
52.1103
 30
0.0
 10
-184.8071
 20
52.1103
 30
0.0
  0
SPLINE
  5
68
330
1F
100
AcDbEntity
  8
layer 1
 62
     7
100
AcDbSpline
210
0.0
220
0.0
230
1.0
 70
    11
 71
     3
 72
    16
 73
    12
 74
     0
 42
0.0000000001
 43
0.0000000001
 12
1.0
 22
0.0
 32
0.0
 13
1.0
 23
0.0
 33
0.0
 40
0.0
 40
0.0
 40
0.0
 40
0.0
 40
0.25
 40
0.25
 40
0.25
 40
0.25
 40
0.5
 40
0.5
 40
0.5
 40
0.5
 40
1.0
 40
1.0
 40
1.0
 40
1.0
 10
-138.1335
 20
129.2496
 30
0.0
 10
-139.9651
 20
125.1676
 30
0.0
 10
-144.0642
 20
122.3236
 30
0.0
 10
-148.8273
 20
122.3236
 30
0.0
 10
-148.8273
 20
122.3236
 30
0.0
 10
-153.5904
 20
122.3236
 30
0.0
 10
-157.6903
 20
125.1676
 30
0.0
 10
-159.5219
 20
129.2496
 30
0.0
 10
-159.5219
 20
129.2496
 30
0.0
 10
-159.5219
 20
129.2496
 30
0.0
 10
-138.1335
 20
129.2496
 30
0.0
 10
-138.1335
 20
129.2496
 30
0.0
  0
SPLINE
  5
69
330
1F
100
AcDbEntity
  8
layer 1
 62
     7
100
AcDbSpline
210
0.0
220
0.0
230
1.0
 70
    11
 71
     3
 72
    28
 73
    24
 74
     0
 42
0.0000000001
 43
0.0000000001
 12
1.0
 22
0.0
 32
0.0
 13
1.0
 23
0.0
 33
0.0
 40
0.0
 40
0.0
 40
0.0
 40
0.0
 40
0.1428571428571428
 40
0.1428571428571428
 40
0.1428571428571428
 40
0.1428571428571428
 40
0.2857142857142857
 40
0.2857142857142857
 40
0.2857142857142857
 40
0.2857142857142857
 40
0.4285714285714285
 40
0.4285714285714285
 40
0.4285714285714285
 40
0.4285714285714285
 40
0.5714285714285714
 40
0.5714285714285714
 40
0.5714285714285714
 40
0.5714285714285714
 40
0.7142857142857143
 40
0.7142857142857143
 40
0.7142857142857143
 40
0.7142857142857143
 40
1.0
 40
1.0
 40
1.0
 40
1.0
 10
-148.8273
 20
95.6827
 30
0.0
 10
-148.8273
 20
95.6827
 30
0.0
 10
-137.455
 20
95.6827
 30
0.0
 10
-137.455
 20
95.6827
 30
0.0
 10
-137.455
 20
95.6827
 30
0.0
 10
-137.0969
 20
95.6827
 30
0.0
 10
-137.117
 20
96.1427
 30
0.0
 10
-137.1279
 20
96.3029
 30
0.0
 10
-137.1279
 20
96.3029
 30
0.0
 10
-137.4506
 20
102.4842
 30
0.0
 10
-142.566
 20
107.3986
 30
0.0
 10
-148.8273
 20
107.3986
 30
0.0
 10
-148.8273
 20
107.3986
 30
0.0
 10
-155.044
 20
107.3986
 30
0.0
 10
-160.1312
 20
102.5539
 30
0.0
 10
-160.5194
 20
96.4349
 30
0.0
 10
-160.5194
 20
96.4349
 30
0.0
 10
-160.5543
 20
96.0199
 30
0.0
 10
-160.6091
 20
95.6901
 30
0.0
 10
-160.0045
 20
95.6827
 30
0.0
 10
-160.0045
 20
95.6827
 30
0.0
 10
-160.0045
 20
95.6827
 30
0.0
 10
-148.8273
 20
95.6827
 30
0.0
 10
-148.8273
 20
95.6827
 30
0.0
  0
SPLINE
  5
6A
330
1F
100
AcDbEntity
  8
layer 1
 62
     7
100
AcDbSpline
210
0.0
220
0.0
230
1.0
 70
    11
 71
     3
 72
    28
 73
    24
 74
     0
 42
0.0000000001
 43
0.0000000001
 12
1.0
 22
0.0
 32
0.0
 13
1.0
 23
0.0
 33
0.0
 40
0.0
 40
0.0
 40
0.0
 40
0.0
 40
0.1428571428571428
 40
0.1428571428571428
 40
0.1428571428571428
 40
0.1428571428571428
 40
0.2857142857142857
 40
0.2857142857142857
 40
0.2857142857142857
 40
0.2857142857142857
 40
0.4285714285714285
 40
0.4285714285714285
 40
0.4285714285714285
 40
0.4285714285714285
 40
0.5714285714285714
 40
0.5714285714285714
 40
0.5714285714285714
 40
0.5714285714285714
 40
0.7142857142857143
 40
0.7142857142857143
 40
0.7142857142857143
 40
0.7142857142857143
 40
1.0
 40
1.0
 40
1.0
 40
1.0
 10
-148.8273
 20
93.0749
 30
0.0
 10
-148.8273
 20
93.0749
 30
0.0
 10
-137.455
 20
93.0749
 30
0.0
 10
-137.455
 20
93.0749
 30
0.0
 10
-137.455
 20
93.0749
 30
0.0
 10
-137.0969
 20
93.0749
 30
0.0
 10
-137.117
 20
92.6149
 30
0.0
 10
-137.1279
 20
92.4547
 30
0.0
 10
-137.1279
 20
92.4547
 30
0.0
 10
-137.4506
 20
86.2734
 30
0.0
 10
-142.566
 20
81.359
 30
0.0
 10
-148.8273
 20
81.359
 30
0.0
 10
-148.8273
 20
81.359
 30
0.0
 10
-155.044
 20
81.359
 30
0.0
 10
-160.1312
 20
86.2037
 30
0.0
 10
-160.5194
 20
92.3227
 30
0.0
 10
-160.5194
 20
92.3227
 30
0.0
 10
-160.5543
 20
92.7377
 30
0.0
 10
-160.6091
 20
93.0674
 30
0.0
 10
-160.0045
 20
93.0749
 30
0.0
 10
-160.0045
 20
93.0749
 30
0.0
 10
-160.0045
 20
93.0749
 30
0.0
 10
-148.8273
 20
93.0749
 30
0.0
 10
-148.8273
 20
93.0749
 30
0.0
  0
SPLINE
  5
6B
330
1F
100
AcDbEntity
  8
layer 1
 62
     7
100
AcDbSpline
210
0.0
220
0.0
230
1.0
 70
    11
 71
     3
 72
    16
 73
    12
 74
     0
 42
0.0000000001
 43
0.0000000001
 12
1.0
 22
0.0
 32
0.0
 13
1.0
 23
0.0
 33
0.0
 40
0.0
 40
0.0
 40
0.0
 40
0.0
 40
0.25
 40
0.25
 40
0.25
 40
0.25
 40
0.5
 40
0.5
 40
0.5
 40
0.5
 40
1.0
 40
1.0
 40
1.0
 40
1.0
 10
-138.1335
 20
-104.35
 30
0.0
 10
-139.9651
 20
-100.268
 30
0.0
 10
-144.0642
 20
-97.424
 30
0.0
 10
-148.8273
 20
-97.424
 30
0.0
 10
-148.8273
 20
-97.424
 30
0.0
 10
-153.5904
 20
-97.424
 30
0.0
 10
-157.6903
 20
-100.268
 30
0.0
 10
-159.5219
 20
-104.35
 30
0.0
 10
-159.5219
 20
-104.35
 30
0.0
 10
-159.5219
 20
-104.35
 30
0.0
 10
-138.1335
 20
-104.35
 30
0.0
 10
-138.1335
 20
-104.35
 30
0.0
  0
SPLINE
  5
6C
330
1F
100
AcDbEntity
  8
layer 1
 62
     7
100
AcDbSpline
210
0.0
220
0.0
230
1.0
 70
    11
 71
     3
 72
    28
 73
    24
 74
     0
 42
0.0000000001
 43
0.0000000001
 12
1.0
 22
0.0
 32
0.0
 13
1.0
 23
0.0
 33
0.0
 40
0.0
 40
0.0
 40
0.0
 40
0.0
 40
0.1428571428571428
 40
0.1428571428571428
 40
0.1428571428571428
 40
0.1428571428571428
 40
0.2857142857142857
 40
0.2857142857142857
 40
0.2857142857142857
 40
0.2857142857142857
 40
0.4285714285714285
 40
0.4285714285714285
 40
0.4285714285714285
 40
0.4285714285714285
 40
0.5714285714285714
 40
0.5714285714285714
 40
0.5714285714285714
 40
0.5714285714285714
 40
0.7142857142857143
 40
0.7142857142857143
 40
0.7142857142857143
 40
0.7142857142857143
 40
1.0
 40
1.0
 40
1.0
 40
1.0
 10
-148.8273
 20
-68.1753
 30
0.0
 10
-148.8273
 20
-68.1753
 30
0.0
 10
-137.455
 20
-68.1753
 30
0.0
 10
-137.455
 20
-68.1753
 30
0.0
 10
-137.455
 20
-68.1753
 30
0.0
 10
-137.0969
 20
-68.1753
 30
0.0
 10
-137.117
 20
-67.7153
 30
0.0
 10
-137.1279
 20
-67.5551
 30
0.0
 10
-137.1279
 20
-67.5551
 30
0.0
 10
-137.4506
 20
-61.374
 30
0.0
 10
-142.566
 20
-56.4594
 30
0.0
 10
-148.8273
 20
-56.4594
 30
0.0
 10
-148.8273
 20
-56.4594
 30
0.0
 10
-155.044
 20
-56.4594
 30
0.0
 10
-160.1312
 20
-61.3041
 30
0.0
 10
-160.5194
 20
-67.4233
 30
0.0
 10
-160.5194
 20
-67.4233
 30
0.0
 10
-160.5543
 20
-67.8381
 30
0.0
 10
-160.6091
 20
-68.1678
 30
0.0
 10
-160.0045
 20
-68.1753
 30
0.0
 10
-160.0045
 20
-68.1753
 30
0.0
 10
-160.0045
 20
-68.1753
 30
0.0
 10
-148.8273
 20
-68.1753
 30
0.0
 10
-148.8273
 20
-68.1753
 30
0.0
  0
SPLINE
  5
6D
330
1F
100
AcDbEntity
  8
layer 1
 62
     7
100
AcDbSpline
210
0.0
220
0.0
230
1.0
 70
    11
 71
     3
 72
    28
 73
    24
 74
     0
 42
0.0000000001
 43
0.0000000001
 12
1.0
 22
0.0
 32
0.0
 13
1.0
 23
0.0
 33
0.0
 40
0.0
 40
0.0
 40
0.0
 40
0.0
 40
0.1428571428571428
 40
0.1428571428571428
 40
0.1428571428571428
 40
0.1428571428571428
 40
0.2857142857142857
 40
0.2857142857142857
 40
0.2857142857142857
 40
0.2857142857142857
 40
0.4285714285714285
 40
0.4285714285714285
 40
0.4285714285714285
 40
0.4285714285714285
 40
0.5714285714285714
 40
0.5714285714285714
 40
0.5714285714285714
 40
0.5714285714285714
 40
0.7142857142857143
 40
0.7142857142857143
 40
0.7142857142857143
 40
0.7142857142857143
 40
1.0
 40
1.0
 40
1.0
 40
1.0
 10
-148.8273
 20
-70.7831
 30
0.0
 10
-148.8273
 20
-70.7831
 30
0.0
 10
-137.455
 20
-70.7831
 30
0.0
 10
-137.455
 20
-70.7831
 30
0.0
 10
-137.455
 20
-70.7831
 30
0.0
 10
-137.0969
 20
-70.7831
 30
0.0
 10
-137.117
 20
-71.2431
 30
0.0
 10
-137.1279
 20
-71.4033
 30
0.0
 10
-137.1279
 20
-71.4033
 30
0.0
 10
-137.4506
 20
-77.5846
 30
0.0
 10
-142.566
 20
-82.499
 30
0.0
 10
-148.8273
 20
-82.499
 30
0.0
 10
-148.8273
 20
-82.499
 30
0.0
 10
-155.044
 20
-82.499
 30
0.0
 10
-160.1312
 20
-77.6543
 30
0.0
 10
-160.5194
 20
-71.5353
 30
0.0
 10
-160.5194
 20
-71.5353
 30
0.0
 10
-160.5543
 20
-71.1203
 30
0.0
 10
-160.6091
 20
-70.7905
 30
0.0
 10
-160.0045
 20
-70.7831
 30
0.0
 10
-160.0045
 20
-70.7831
 30
0.0
 10
-160.0045
 20
-70.7831
 30
0.0
 10
-148.8273
 20
-70.7831
 30
0.0
 10
-148.8273
 20
-70.7831
 30
0.0
  0
SPLINE
  5
6E
330
1F
100
AcDbEntity
  8
layer 1
 62
     7
100
AcDbSpline
210
0.0
220
0.0
230
1.0
 70
    11
 71
     3
 72
    28
 73
    24
 74
     0
 42
0.0000000001
 43
0.0000000001
 12
1.0
 22
0.0
 32
0.0
 13
1.0
 23
0.0
 33
0.0
 40
0.0
 40
0.0
 40
0.0
 40
0.0
 40
0.1428571428571428
 40
0.1428571428571428
 40
0.1428571428571428
 40
0.1428571428571428
 40
0.2857142857142857
 40
0.2857142857142857
 40
0.2857142857142857
 40
0.2857142857142857
 40
0.4285714285714285
 40
0.4285714285714285
 40
0.4285714285714285
 40
0.4285714285714285
 40
0.5714285714285714
 40
0.5714285714285714
 40
0.5714285714285714
 40
0.5714285714285714
 40
0.7142857142857143
 40
0.7142857142857143
 40
0.7142857142857143
 40
0.7142857142857143
 40
1.0
 40
1.0
 40
1.0
 40
1.0
 10
-148.8273
 20
-27.2109
 30
0.0
 10
-148.8273
 20
-27.2109
 30
0.0
 10
-137.455
 20
-27.2109
 30
0.0
 10
-137.455
 20
-27.2109
 30
0.0
 10
-137.455
 20
-27.2109
 30
0.0
 10
-137.0969
 20
-27.2109
 30
0.0
 10
-137.117
 20
-26.7509
 30
0.0
 10
-137.1279
 20
-26.5907
 30
0.0
 10
-137.1279
 20
-26.5907
 30
0.0
 10
-137.4506
 20
-20.4094
 30
0.0
 10
-142.566
 20
-15.495
 30
0.0
 10
-148.8273
 20
-15.495
 30
0.0
 10
-148.8273
 20
-15.495
 30
0.0
 10
-155.044
 20
-15.495
 30
0.0
 10
-160.1312
 20
-20.3397
 30
0.0
 10
-160.5194
 20
-26.4587
 30
0.0
 10
-160.5194
 20
-26.4587
 30
0.0
 10
-160.5543
 20
-26.8737
 30
0.0
 10
-160.6091
 20
-27.2034
 30
0.0
 10
-160.0045
 20
-27.2109
 30
0.0
 10
-160.0045
 20
-27.2109
 30
0.0
 10
-160.0045
 20
-27.2109
 30
0.0
 10
-148.8273
 20
-27.2109
 30
0.0
 10
-148.8273
 20
-27.2109
 30
0.0
  0
SPLINE
  5
6F
330
1F
100
AcDbEntity
  8
layer 1
 62
     7
100
AcDbSpline
210
0.0
220
0.0
230
1.0
 70
    11
 71
     3
 72
    28
 73
    24
 74
     0
 42
0.0000000001
 43
0.0000000001
 12
1.0
 22
0.0
 32
0.0
 13
1.0
 23
0.0
 33
0.0
 40
0.0
 40
0.0
 40
0.0
 40
0.0
 40
0.1428571428571428
 40
0.1428571428571428
 40
0.1428571428571428
 40
0.1428571428571428
 40
0.2857142857142857
 40
0.2857142857142857
 40
0.2857142857142857
 40
0.2857142857142857
 40
0.4285714285714285
 40
0.4285714285714285
 40
0.4285714285714285
 40
0.4285714285714285
 40
0.5714285714285714
 40
0.5714285714285714
 40
0.5714285714285714
 40
0.5714285714285714
 40
0.7142857142857143
 40
0.7142857142857143
 40
0.7142857142857143
 40
0.7142857142857143
 40
1.0
 40
1.0
 40
1.0
 40
1.0
 10
-148.8273
 20
-29.8185
 30
0.0
 10
-148.8273
 20
-29.8185
 30
0.0
 10
-137.455
 20
-29.8185
 30
0.0
 10
-137.455
 20
-29.8185
 30
0.0
 10
-137.455
 20
-29.8185
 30
0.0
 10
-137.0969
 20
-29.8185
 30
0.0
 10
-137.117
 20
-30.2787
 30
0.0
 10
-137.1279
 20
-30.4387
 30
0.0
 10
-137.1279
 20
-30.4387
 30
0.0
 10
-137.4506
 20
-36.62
 30
0.0
 10
-142.566
 20
-41.5344
 30
0.0
 10
-148.8273
 20
-41.5344
 30
0.0
 10
-148.8273
 20
-41.5344
 30
0.0
 10
-155.044
 20
-41.5344
 30
0.0
 10
-160.1312
 20
-36.6897
 30
0.0
 10
-160.5194
 20
-30.5707
 30
0.0
 10
-160.5194
 20
-30.5707
 30
0.0
 10
-160.5543
 20
-30.1557
 30
0.0
 10
-160.6091
 20
-29.8259
 30
0.0
 10
-160.0045
 20
-29.8185
 30
0.0
 10
-160.0045
 20
-29.8185
 30
0.0
 10
-160.0045
 20
-29.8185
 30
0.0
 10
-148.8273
 20
-29.8185
 30
0.0
 10
-148.8273
 20
-29.8185
 30
0.0
  0
SPLINE
  5
70
330
1F
100
AcDbEntity
  8
layer 1
 62
     7
100
AcDbSpline
210
0.0
220
0.0
230
1.0
 70
    11
 71
     3
 72
    28
 73
    24
 74
     0
 42
0.0000000001
 43
0.0000000001
 12
1.0
 22
0.0
 32
0.0
 13
1.0
 23
0.0
 33
0.0
 40
0.0
 40
0.0
 40
0.0
 40
0.0
 40
0.1428571428571428
 40
0.1428571428571428
 40
0.1428571428571428
 40
0.1428571428571428
 40
0.2857142857142857
 40
0.2857142857142857
 40
0.2857142857142857
 40
0.2857142857142857
 40
0.4285714285714285
 40
0.4285714285714285
 40
0.4285714285714285
 40
0.4285714285714285
 40
0.5714285714285714
 40
0.5714285714285714
 40
0.5714285714285714
 40
0.5714285714285714
 40
0.7142857142857143
 40
0.7142857142857143
 40
0.7142857142857143
 40
0.7142857142857143
 40
1.0
 40
1.0
 40
1.0
 40
1.0
 10
-148.8273
 20
13.7537
 30
0.0
 10
-148.8273
 20
13.7537
 30
0.0
 10
-137.455
 20
13.7537
 30
0.0
 10
-137.455
 20
13.7537
 30
0.0
 10
-137.455
 20
13.7537
 30
0.0
 10
-137.0969
 20
13.7537
 30
0.0
 10
-137.117
 20
14.2137
 30
0.0
 10
-137.1279
 20
14.3739
 30
0.0
 10
-137.1279
 20
14.3739
 30
0.0
 10
-137.4506
 20
20.5552
 30
0.0
 10
-142.566
 20
25.4696
 30
0.0
 10
-148.8273
 20
25.4696
 30
0.0
 10
-148.8273
 20
25.4696
 30
0.0
 10
-155.044
 20
25.4696
 30
0.0
 10
-160.1312
 20
20.6249
 30
0.0
 10
-160.5194
 20
14.5059
 30
0.0
 10
-160.5194
 20
14.5059
 30
0.0
 10
-160.5543
 20
14.0909
 30
0.0
 10
-160.6091
 20
13.7612
 30
0.0
 10
-160.0045
 20
13.7537
 30
0.0
 10
-160.0045
 20
13.7537
 30
0.0
 10
-160.0045
 20
13.7537
 30
0.0
 10
-148.8273
 20
13.7537
 30
0.0
 10
-148.8273
 20
13.7537
 30
0.0
  0
SPLINE
  5
71
330
1F
100
AcDbEntity
  8
layer 1
 62
     7
100
AcDbSpline
210
0.0
220
0.0
230
1.0
 70
    11
 71
     3
 72
    28
 73
    24
 74
     0
 42
0.0000000001
 43
0.0000000001
 12
1.0
 22
0.0
 32
0.0
 13
1.0
 23
0.0
 33
0.0
 40
0.0
 40
0.0
 40
0.0
 40
0.0
 40
0.1428571428571428
 40
0.1428571428571428
 40
0.1428571428571428
 40
0.1428571428571428
 40
0.2857142857142857
 40
0.2857142857142857
 40
0.2857142857142857
 40
0.2857142857142857
 40
0.4285714285714285
 40
0.4285714285714285
 40
0.4285714285714285
 40
0.4285714285714285
 40
0.5714285714285714
 40
0.5714285714285714
 40
0.5714285714285714
 40
0.5714285714285714
 40
0.7142857142857143
 40
0.7142857142857143
 40
0.7142857142857143
 40
0.7142857142857143
 40
1.0
 40
1.0
 40
1.0
 40
1.0
 10
-148.8273
 20
11.1459
 30
0.0
 10
-148.8273
 20
11.1459
 30
0.0
 10
-137.455
 20
11.1459
 30
0.0
 10
-137.455
 20
11.1459
 30
0.0
 10
-137.455
 20
11.1459
 30
0.0
 10
-137.0969
 20
11.1459
 30
0.0
 10
-137.117
 20
10.6859
 30
0.0
 10
-137.1279
 20
10.5257
 30
0.0
 10
-137.1279
 20
10.5257
 30
0.0
 10
-137.4506
 20
4.3444
 30
0.0
 10
-142.566
 20
-0.57
 30
0.0
 10
-148.8273
 20
-0.57
 30
0.0
 10
-148.8273
 20
-0.57
 30
0.0
 10
-155.044
 20
-0.57
 30
0.0
 10
-160.1312
 20
4.2747
 30
0.0
 10
-160.5194
 20
10.3937
 30
0.0
 10
-160.5194
 20
10.3937
 30
0.0
 10
-160.5543
 20
10.8087
 30
0.0
 10
-160.6091
 20
11.1384
 30
0.0
 10
-160.0045
 20
11.1459
 30
0.0
 10
-160.0045
 20
11.1459
 30
0.0
 10
-160.0045
 20
11.1459
 30
0.0
 10
-148.8273
 20
11.1459
 30
0.0
 10
-148.8273
 20
11.1459
 30
0.0
  0
SPLINE
  5
72
330
1F
100
AcDbEntity
  8
layer 1
 62
     7
100
AcDbSpline
210
0.0
220
0.0
230
1.0
 70
    11
 71
     3
 72
    28
 73
    24
 74
     0
 42
0.0000000001
 43
0.0000000001
 12
1.0
 22
0.0
 32
0.0
 13
1.0
 23
0.0
 33
0.0
 40
0.0
 40
0.0
 40
0.0
 40
0.0
 40
0.1428571428571428
 40
0.1428571428571428
 40
0.1428571428571428
 40
0.1428571428571428
 40
0.2857142857142857
 40
0.2857142857142857
 40
0.2857142857142857
 40
0.2857142857142857
 40
0.4285714285714285
 40
0.4285714285714285
 40
0.4285714285714285
 40
0.4285714285714285
 40
0.5714285714285714
 40
0.5714285714285714
 40
0.5714285714285714
 40
0.5714285714285714
 40
0.7142857142857143
 40
0.7142857142857143
 40
0.7142857142857143
 40
0.7142857142857143
 40
1.0
 40
1.0
 40
1.0
 40
1.0
 10
-148.8273
 20
54.7181
 30
0.0
 10
-148.8273
 20
54.7181
 30
0.0
 10
-137.455
 20
54.7181
 30
0.0
 10
-137.455
 20
54.7181
 30
0.0
 10
-137.455
 20
54.7181
 30
0.0
 10
-137.0969
 20
54.7181
 30
0.0
 10
-137.117
 20
55.1783
 30
0.0
 10
-137.1279
 20
55.3383
 30
0.0
 10
-137.1279
 20
55.3383
 30
0.0
 10
-137.4506
 20
61.5196
 30
0.0
 10
-142.566
 20
66.434
 30
0.0
 10
-148.8273
 20
66.434
 30
0.0
 10
-148.8273
 20
66.434
 30
0.0
 10
-155.044
 20
66.434
 30
0.0
 10
-160.1312
 20
61.5893
 30
0.0
 10
-160.5194
 20
55.4703
 30
0.0
 10
-160.5194
 20
55.4703
 30
0.0
 10
-160.5543
 20
55.0553
 30
0.0
 10
-160.6091
 20
54.7256
 30
0.0
 10
-160.0045
 20
54.7181
 30
0.0
 10
-160.0045
 20
54.7181
 30
0.0
 10
-160.0045
 20
54.7181
 30
0.0
 10
-148.8273
 20
54.7181
 30
0.0
 10
-148.8273
 20
54.7181
 30
0.0
  0
SPLINE
  5
73
330
1F
100
AcDbEntity
  8
layer 1
 62
     7
100
AcDbSpline
210
0.0
220
0.0
230
1.0
 70
    11
 71
     3
 72
    28
 73
    24
 74
     0
 42
0.0000000001
 43
0.0000000001
 12
1.0
 22
0.0
 32
0.0
 13
1.0
 23
0.0
 33
0.0
 40
0.0
 40
0.0
 40
0.0
 40
0.0
 40
0.1428571428571428
 40
0.1428571428571428
 40
0.1428571428571428
 40
0.1428571428571428
 40
0.2857142857142857
 40
0.2857142857142857
 40
0.2857142857142857
 40
0.2857142857142857
 40
0.4285714285714285
 40
0.4285714285714285
 40
0.4285714285714285
 40
0.4285714285714285
 40
0.5714285714285714
 40
0.5714285714285714
 40
0.5714285714285714
 40
0.5714285714285714
 40
0.7142857142857143
 40
0.7142857142857143
 40
0.7142857142857143
 40
0.7142857142857143
 40
1.0
 40
1.0
 40
1.0
 40
1.0
 10
-148.8273
 20
52.1103
 30
0.0
 10
-148.8273
 20
52.1103
 30
0.0
 10
-137.455
 20
52.1103
 30
0.0
 10
-137.455
 20
52.1103
 30
0.0
 10
-137.455
 20
52.1103
 30
0.0
 10
-137.0969
 20
52.1103
 30
0.0
 10
-137.117
 20
51.6503
 30
0.0
 10
-137.1279
 20
51.4901
 30
0.0
 10
-137.1279
 20
51.4901
 30
0.0
 10
-137.4506
 20
45.309
 30
0.0
 10
-142.566
 20
40.3946
 30
0.0
 10
-148.8273
 20
40.3946
 30
0.0
 10
-148.8273
 20
40.3946
 30
0.0
 10
-155.044
 20
40.3946
 30
0.0
 10
-160.1312
 20
45.2393
 30
0.0
 10
-160.5194
 20
51.3583
 30
0.0
 10
-160.5194
 20
51.3583
 30
0.0
 10
-160.5543
 20
51.7733
 30
0.0
 10
-160.6091
 20
52.103
 30
0.0
 10
-160.0045
 20
52.1103
 30
0.0
 10
-160.0045
 20
52.1103
 30
0.0
 10
-160.0045
 20
52.1103
 30
0.0
 10
-148.8273
 20
52.1103
 30
0.0
 10
-148.8273
 20
52.1103
 30
0.0
  0
SPLINE
  5
74
330
1F
100
AcDbEntity
  8
layer 1
 62
     7
100
AcDbSpline
210
0.0
220
0.0
230
1.0
 70
    11
 71
     3
 72
    28
 73
    24
 74
     0
 42
0.0000000001
 43
0.0000000001
 12
1.0
 22
0.0
 32
0.0
 13
1.0
 23
0.0
 33
0.0
 40
0.0
 40
0.0
 40
0.0
 40
0.0
 40
0.1428571428571428
 40
0.1428571428571428
 40
0.1428571428571428
 40
0.1428571428571428
 40
0.2857142857142857
 40
0.2857142857142857
 40
0.2857142857142857
 40
0.2857142857142857
 40
0.4285714285714285
 40
0.4285714285714285
 40
0.4285714285714285
 40
0.4285714285714285
 40
0.5714285714285714
 40
0.5714285714285714
 40
0.5714285714285714
 40
0.5714285714285714
 40
0.7142857142857143
 40
0.7142857142857143
 40
0.7142857142857143
 40
0.7142857142857143
 40
1.0
 40
1.0
 40
1.0
 40
1.0
 10
-84.7149
 20
-89.7286
 30
0.0
 10
-84.7149
 20
-89.7286
 30
0.0
 10
-84.7149
 20
-101.1008
 30
0.0
 10
-84.7149
 20
-101.1008
 30
0.0
 10
-84.7149
 20
-101.1008
 30
0.0
 10
-84.7149
 20
-101.459
 30
0.0
 10
-84.2549
 20
-101.4389
 30
0.0
 10
-84.0947
 20
-101.428
 30
0.0
 10
-84.0947
 20
-101.428
 30
0.0
 10
-77.9134
 20
-101.1051
 30
0.0
 10
-72.999
 20
-95.9899
 30
0.0
 10
-72.999
 20
-89.7286
 30
0.0
 10
-72.999
 20
-89.7286
 30
0.0
 10
-72.999
 20
-83.5119
 30
0.0
 10
-77.8437
 20
-78.4247
 30
0.0
 10
-83.9626
 20
-78.0365
 30
0.0
 10
-83.9626
 20
-78.0365
 30
0.0
 10
-84.3777
 20
-78.0014
 30
0.0
 10
-84.7074
 20
-77.9468
 30
0.0
 10
-84.7149
 20
-78.5514
 30
0.0
 10
-84.7149
 20
-78.5514
 30
0.0
 10
-84.7149
 20
-78.5514
 30
0.0
 10
-84.7149
 20
-89.7286
 30
0.0
 10
-84.7149
 20
-89.7286
 30
0.0
  0
SPLINE
  5
75
330
1F
100
AcDbEntity
  8
layer 1
 62
     7
100
AcDbSpline
210
0.0
220
0.0
230
1.0
 70
    11
 71
     3
 72
    28
 73
    24
 74
     0
 42
0.0000000001
 43
0.0000000001
 12
1.0
 22
0.0
 32
0.0
 13
1.0
 23
0.0
 33
0.0
 40
0.0
 40
0.0
 40
0.0
 40
0.0
 40
0.1428571428571428
 40
0.1428571428571428
 40
0.1428571428571428
 40
0.1428571428571428
 40
0.2857142857142857
 40
0.2857142857142857
 40
0.2857142857142857
 40
0.2857142857142857
 40
0.4285714285714285
 40
0.4285714285714285
 40
0.4285714285714285
 40
0.4285714285714285
 40
0.5714285714285714
 40
0.5714285714285714
 40
0.5714285714285714
 40
0.5714285714285714
 40
0.7142857142857143
 40
0.7142857142857143
 40
0.7142857142857143
 40
0.7142857142857143
 40
1.0
 40
1.0
 40
1.0
 40
1.0
 10
-87.3227
 20
-89.7286
 30
0.0
 10
-87.3227
 20
-89.7286
 30
0.0
 10
-87.3227
 20
-101.1008
 30
0.0
 10
-87.3227
 20
-101.1008
 30
0.0
 10
-87.3227
 20
-101.1008
 30
0.0
 10
-87.3227
 20
-101.459
 30
0.0
 10
-87.7826
 20
-101.4389
 30
0.0
 10
-87.9429
 20
-101.428
 30
0.0
 10
-87.9429
 20
-101.428
 30
0.0
 10
-94.1239
 20
-101.1051
 30
0.0
 10
-99.0386
 20
-95.9899
 30
0.0
 10
-99.0386
 20
-89.7286
 30
0.0
 10
-99.0386
 20
-89.7286
 30
0.0
 10
-99.0386
 20
-83.5119
 30
0.0
 10
-94.1939
 20
-78.4247
 30
0.0
 10
-88.0749
 20
-78.0365
 30
0.0
 10
-88.0749
 20
-78.0365
 30
0.0
 10
-87.6599
 20
-78.0014
 30
0.0
 10
-87.3301
 20
-77.9468
 30
0.0
 10
-87.3227
 20
-78.5514
 30
0.0
 10
-87.3227
 20
-78.5514
 30
0.0
 10
-87.3227
 20
-78.5514
 30
0.0
 10
-87.3227
 20
-89.7286
 30
0.0
 10
-87.3227
 20
-89.7286
 30
0.0
  0
SPLINE
  5
76
330
1F
100
AcDbEntity
  8
layer 1
 62
     7
100
AcDbSpline
210
0.0
220
0.0
230
1.0
 70
    11
 71
     3
 72
    28
 73
    24
 74
     0
 42
0.0000000001
 43
0.0000000001
 12
1.0
 22
0.0
 32
0.0
 13
1.0
 23
0.0
 33
0.0
 40
0.0
 40
0.0
 40
0.0
 40
0.0
 40
0.1428571428571428
 40
0.1428571428571428
 40
0.1428571428571428
 40
0.1428571428571428
 40
0.2857142857142857
 40
0.2857142857142857
 40
0.2857142857142857
 40
0.2857142857142857
 40
0.4285714285714285
 40
0.4285714285714285
 40
0.4285714285714285
 40
0.4285714285714285
 40
0.5714285714285714
 40
0.5714285714285714
 40
0.5714285714285714
 40
0.5714285714285714
 40
0.7142857142857143
 40
0.7142857142857143
 40
0.7142857142857143
 40
0.7142857142857143
 40
1.0
 40
1.0
 40
1.0
 40
1.0
 10
-84.7149
 20
-48.7642
 30
0.0
 10
-84.7149
 20
-48.7642
 30
0.0
 10
-84.7149
 20
-60.1365
 30
0.0
 10
-84.7149
 20
-60.1365
 30
0.0
 10
-84.7149
 20
-60.1365
 30
0.0
 10
-84.7149
 20
-60.4946
 30
0.0
 10
-84.2549
 20
-60.4745
 30
0.0
 10
-84.0947
 20
-60.4636
 30
0.0
 10
-84.0947
 20
-60.4636
 30
0.0
 10
-77.9134
 20
-60.1407
 30
0.0
 10
-72.999
 20
-55.0253
 30
0.0
 10
-72.999
 20
-48.7642
 30
0.0
 10
-72.999
 20
-48.7642
 30
0.0
 10
-72.999
 20
-42.5473
 30
0.0
 10
-77.8437
 20
-37.4603
 30
0.0
 10
-83.9626
 20
-37.0719
 30
0.0
 10
-83.9626
 20
-37.0719
 30
0.0
 10
-84.3777
 20
-37.037
 30
0.0
 10
-84.7074
 20
-36.9822
 30
0.0
 10
-84.7149
 20
-37.5868
 30
0.0
 10
-84.7149
 20
-37.5868
 30
0.0
 10
-84.7149
 20
-37.5868
 30
0.0
 10
-84.7149
 20
-48.7642
 30
0.0
 10
-84.7149
 20
-48.7642
 30
0.0
  0
SPLINE
  5
77
330
1F
100
AcDbEntity
  8
layer 1
 62
     7
100
AcDbSpline
210
0.0
220
0.0
230
1.0
 70
    11
 71
     3
 72
    28
 73
    24
 74
     0
 42
0.0000000001
 43
0.0000000001
 12
1.0
 22
0.0
 32
0.0
 13
1.0
 23
0.0
 33
0.0
 40
0.0
 40
0.0
 40
0.0
 40
0.0
 40
0.1428571428571428
 40
0.1428571428571428
 40
0.1428571428571428
 40
0.1428571428571428
 40
0.2857142857142857
 40
0.2857142857142857
 40
0.2857142857142857
 40
0.2857142857142857
 40
0.4285714285714285
 40
0.4285714285714285
 40
0.4285714285714285
 40
0.4285714285714285
 40
0.5714285714285714
 40
0.5714285714285714
 40
0.5714285714285714
 40
0.5714285714285714
 40
0.7142857142857143
 40
0.7142857142857143
 40
0.7142857142857143
 40
0.7142857142857143
 40
1.0
 40
1.0
 40
1.0
 40
1.0
 10
-87.3227
 20
-48.7642
 30
0.0
 10
-87.3227
 20
-48.7642
 30
0.0
 10
-87.3227
 20
-60.1365
 30
0.0
 10
-87.3227
 20
-60.1365
 30
0.0
 10
-87.3227
 20
-60.1365
 30
0.0
 10
-87.3227
 20
-60.4946
 30
0.0
 10
-87.7826
 20
-60.4745
 30
0.0
 10
-87.9429
 20
-60.4636
 30
0.0
 10
-87.9429
 20
-60.4636
 30
0.0
 10
-94.1239
 20
-60.1407
 30
0.0
 10
-99.0386
 20
-55.0253
 30
0.0
 10
-99.0386
 20
-48.7642
 30
0.0
 10
-99.0386
 20
-48.7642
 30
0.0
 10
-99.0386
 20
-42.5473
 30
0.0
 10
-94.1939
 20
-37.4603
 30
0.0
 10
-88.0749
 20
-37.0719
 30
0.0
 10
-88.0749
 20
-37.0719
 30
0.0
 10
-87.6599
 20
-37.037
 30
0.0
 10
-87.3301
 20
-36.9822
 30
0.0
 10
-87.3227
 20
-37.5868
 30
0.0
 10
-87.3227
 20
-37.5868
 30
0.0
 10
-87.3227
 20
-37.5868
 30
0.0
 10
-87.3227
 20
-48.7642
 30
0.0
 10
-87.3227
 20
-48.7642
 30
0.0
  0
SPLINE
  5
78
330
1F
100
AcDbEntity
  8
layer 1
 62
     7
100
AcDbSpline
210
0.0
220
0.0
230
1.0
 70
    11
 71
     3
 72
    28
 73
    24
 74
     0
 42
0.0000000001
 43
0.0000000001
 12
1.0
 22
0.0
 32
0.0
 13
1.0
 23
0.0
 33
0.0
 40
0.0
 40
0.0
 40
0.0
 40
0.0
 40
0.1428571428571428
 40
0.1428571428571428
 40
0.1428571428571428
 40
0.1428571428571428
 40
0.2857142857142857
 40
0.2857142857142857
 40
0.2857142857142857
 40
0.2857142857142857
 40
0.4285714285714285
 40
0.4285714285714285
 40
0.4285714285714285
 40
0.4285714285714285
 40
0.5714285714285714
 40
0.5714285714285714
 40
0.5714285714285714
 40
0.5714285714285714
 40
0.7142857142857143
 40
0.7142857142857143
 40
0.7142857142857143
 40
0.7142857142857143
 40
1.0
 40
1.0
 40
1.0
 40
1.0
 10
-84.7149
 20
-7.7996
 30
0.0
 10
-84.7149
 20
-7.7996
 30
0.0
 10
-84.7149
 20
-19.1719
 30
0.0
 10
-84.7149
 20
-19.1719
 30
0.0
 10
-84.7149
 20
-19.1719
 30
0.0
 10
-84.7149
 20
-19.53
 30
0.0
 10
-84.2549
 20
-19.5099
 30
0.0
 10
-84.0947
 20
-19.499
 30
0.0
 10
-84.0947
 20
-19.499
 30
0.0
 10
-77.9134
 20
-19.1761
 30
0.0
 10
-72.999
 20
-14.0609
 30
0.0
 10
-72.999
 20
-7.7996
 30
0.0
 10
-72.999
 20
-7.7996
 30
0.0
 10
-72.999
 20
-1.5829
 30
0.0
 10
-77.8437
 20
3.5043
 30
0.0
 10
-83.9626
 20
3.8925
 30
0.0
 10
-83.9626
 20
3.8925
 30
0.0
 10
-84.3777
 20
3.9276
 30
0.0
 10
-84.7074
 20
3.9822
 30
0.0
 10
-84.7149
 20
3.3776
 30
0.0
 10
-84.7149
 20
3.3776
 30
0.0
 10
-84.7149
 20
3.3776
 30
0.0
 10
-84.7149
 20
-7.7996
 30
0.0
 10
-84.7149
 20
-7.7996
 30
0.0
  0
SPLINE
  5
79
330
1F
100
AcDbEntity
  8
layer 1
 62
     7
100
AcDbSpline
210
0.0
220
0.0
230
1.0
 70
    11
 71
     3
 72
    28
 73
    24
 74
     0
 42
0.0000000001
 43
0.0000000001
 12
1.0
 22
0.0
 32
0.0
 13
1.0
 23
0.0
 33
0.0
 40
0.0
 40
0.0
 40
0.0
 40
0.0
 40
0.1428571428571428
 40
0.1428571428571428
 40
0.1428571428571428
 40
0.1428571428571428
 40
0.2857142857142857
 40
0.2857142857142857
 40
0.2857142857142857
 40
0.2857142857142857
 40
0.4285714285714285
 40
0.4285714285714285
 40
0.4285714285714285
 40
0.4285714285714285
 40
0.5714285714285714
 40
0.5714285714285714
 40
0.5714285714285714
 40
0.5714285714285714
 40
0.7142857142857143
 40
0.7142857142857143
 40
0.7142857142857143
 40
0.7142857142857143
 40
1.0
 40
1.0
 40
1.0
 40
1.0
 10
-87.3227
 20
-7.7996
 30
0.0
 10
-87.3227
 20
-7.7996
 30
0.0
 10
-87.3227
 20
-19.1719
 30
0.0
 10
-87.3227
 20
-19.1719
 30
0.0
 10
-87.3227
 20
-19.1719
 30
0.0
 10
-87.3227
 20
-19.53
 30
0.0
 10
-87.7826
 20
-19.5099
 30
0.0
 10
-87.9429
 20
-19.499
 30
0.0
 10
-87.9429
 20
-19.499
 30
0.0
 10
-94.1239
 20
-19.1761
 30
0.0
 10
-99.0386
 20
-14.0609
 30
0.0
 10
-99.0386
 20
-7.7996
 30
0.0
 10
-99.0386
 20
-7.7996
 30
0.0
 10
-99.0386
 20
-1.5829
 30
0.0
 10
-94.1939
 20
3.5043
 30
0.0
 10
-88.0749
 20
3.8925
 30
0.0
 10
-88.0749
 20
3.8925
 30
0.0
 10
-87.6599
 20
3.9276
 30
0.0
 10
-87.3301
 20
3.9822
 30
0.0
 10
-87.3227
 20
3.3776
 30
0.0
 10
-87.3227
 20
3.3776
 30
0.0
 10
-87.3227
 20
3.3776
 30
0.0
 10
-87.3227
 20
-7.7996
 30
0.0
 10
-87.3227
 20
-7.7996
 30
0.0
  0
SPLINE
  5
7A
330
1F
100
AcDbEntity
  8
layer 1
 62
     7
100
AcDbSpline
210
0.0
220
0.0
230
1.0
 70
    11
 71
     3
 72
    28
 73
    24
 74
     0
 42
0.0000000001
 43
0.0000000001
 12
1.0
 22
0.0
 32
0.0
 13
1.0
 23
0.0
 33
0.0
 40
0.0
 40
0.0
 40
0.0
 40
0.0
 40
0.1428571428571428
 40
0.1428571428571428
 40
0.1428571428571428
 40
0.1428571428571428
 40
0.2857142857142857
 40
0.2857142857142857
 40
0.2857142857142857
 40
0.2857142857142857
 40
0.4285714285714285
 40
0.4285714285714285
 40
0.4285714285714285
 40
0.4285714285714285
 40
0.5714285714285714
 40
0.5714285714285714
 40
0.5714285714285714
 40
0.5714285714285714
 40
0.7142857142857143
 40
0.7142857142857143
 40
0.7142857142857143
 40
0.7142857142857143
 40
1.0
 40
1.0
 40
1.0
 40
1.0
 10
-84.7149
 20
115.0938
 30
0.0
 10
-84.7149
 20
115.0938
 30
0.0
 10
-84.7149
 20
103.7217
 30
0.0
 10
-84.7149
 20
103.7217
 30
0.0
 10
-84.7149
 20
103.7217
 30
0.0
 10
-84.7149
 20
103.3634
 30
0.0
 10
-84.2549
 20
103.3837
 30
0.0
 10
-84.0947
 20
103.3944
 30
0.0
 10
-84.0947
 20
103.3944
 30
0.0
 10
-77.9134
 20
103.7173
 30
0.0
 10
-72.999
 20
108.8327
 30
0.0
 10
-72.999
 20
115.0938
 30
0.0
 10
-72.999
 20
115.0938
 30
0.0
 10
-72.999
 20
121.3107
 30
0.0
 10
-77.8437
 20
126.3977
 30
0.0
 10
-83.9626
 20
126.7859
 30
0.0
 10
-83.9626
 20
126.7859
 30
0.0
 10
-84.3777
 20
126.821
 30
0.0
 10
-84.7074
 20
126.8758
 30
0.0
 10
-84.7149
 20
126.2709
 30
0.0
 10
-84.7149
 20
126.2709
 30
0.0
 10
-84.7149
 20
126.2709
 30
0.0
 10
-84.7149
 20
115.0938
 30
0.0
 10
-84.7149
 20
115.0938
 30
0.0
  0
SPLINE
  5
7B
330
1F
100
AcDbEntity
  8
layer 1
 62
     7
100
AcDbSpline
210
0.0
220
0.0
230
1.0
 70
    11
 71
     3
 72
    28
 73
    24
 74
     0
 42
0.0000000001
 43
0.0000000001
 12
1.0
 22
0.0
 32
0.0
 13
1.0
 23
0.0
 33
0.0
 40
0.0
 40
0.0
 40
0.0
 40
0.0
 40
0.1428571428571428
 40
0.1428571428571428
 40
0.1428571428571428
 40
0.1428571428571428
 40
0.2857142857142857
 40
0.2857142857142857
 40
0.2857142857142857
 40
0.2857142857142857
 40
0.4285714285714285
 40
0.4285714285714285
 40
0.4285714285714285
 40
0.4285714285714285
 40
0.5714285714285714
 40
0.5714285714285714
 40
0.5714285714285714
 40
0.5714285714285714
 40
0.7142857142857143
 40
0.7142857142857143
 40
0.7142857142857143
 40
0.7142857142857143
 40
1.0
 40
1.0
 40
1.0
 40
1.0
 10
-87.3227
 20
115.0938
 30
0.0
 10
-87.3227
 20
115.0938
 30
0.0
 10
-87.3227
 20
103.7217
 30
0.0
 10
-87.3227
 20
103.7217
 30
0.0
 10
-87.3227
 20
103.7217
 30
0.0
 10
-87.3227
 20
103.3634
 30
0.0
 10
-87.7826
 20
103.3837
 30
0.0
 10
-87.9429
 20
103.3944
 30
0.0
 10
-87.9429
 20
103.3944
 30
0.0
 10
-94.1239
 20
103.7173
 30
0.0
 10
-99.0386
 20
108.8327
 30
0.0
 10
-99.0386
 20
115.0938
 30
0.0
 10
-99.0386
 20
115.0938
 30
0.0
 10
-99.0386
 20
121.3107
 30
0.0
 10
-94.1939
 20
126.3977
 30
0.0
 10
-88.0749
 20
126.7859
 30
0.0
 10
-88.0749
 20
126.7859
 30
0.0
 10
-87.6599
 20
126.821
 30
0.0
 10
-87.3301
 20
126.8758
 30
0.0
 10
-87.3227
 20
126.2709
 30
0.0
 10
-87.3227
 20
126.2709
 30
0.0
 10
-87.3227
 20
126.2709
 30
0.0
 10
-87.3227
 20
115.0938
 30
0.0
 10
-87.3227
 20
115.0938
 30
0.0
  0
SPLINE
  5
7C
330
1F
100
AcDbEntity
  8
layer 1
 62
     7
100
AcDbSpline
210
0.0
220
0.0
230
1.0
 70
    11
 71
     3
 72
    28
 73
    24
 74
     0
 42
0.0000000001
 43
0.0000000001
 12
1.0
 22
0.0
 32
0.0
 13
1.0
 23
0.0
 33
0.0
 40
0.0
 40
0.0
 40
0.0
 40
0.0
 40
0.1428571428571428
 40
0.1428571428571428
 40
0.1428571428571428
 40
0.1428571428571428
 40
0.2857142857142857
 40
0.2857142857142857
 40
0.2857142857142857
 40
0.2857142857142857
 40
0.4285714285714285
 40
0.4285714285714285
 40
0.4285714285714285
 40
0.4285714285714285
 40
0.5714285714285714
 40
0.5714285714285714
 40
0.5714285714285714
 40
0.5714285714285714
 40
0.7142857142857143
 40
0.7142857142857143
 40
0.7142857142857143
 40
0.7142857142857143
 40
1.0
 40
1.0
 40
1.0
 40
1.0
 10
-84.7149
 20
74.1294
 30
0.0
 10
-84.7149
 20
74.1294
 30
0.0
 10
-84.7149
 20
62.7571
 30
0.0
 10
-84.7149
 20
62.7571
 30
0.0
 10
-84.7149
 20
62.7571
 30
0.0
 10
-84.7149
 20
62.399
 30
0.0
 10
-84.2549
 20
62.4191
 30
0.0
 10
-84.0947
 20
62.43
 30
0.0
 10
-84.0947
 20
62.43
 30
0.0
 10
-77.9134
 20
62.7529
 30
0.0
 10
-72.999
 20
67.8681
 30
0.0
 10
-72.999
 20
74.1294
 30
0.0
 10
-72.999
 20
74.1294
 30
0.0
 10
-72.999
 20
80.3461
 30
0.0
 10
-77.8437
 20
85.4333
 30
0.0
 10
-83.9626
 20
85.8215
 30
0.0
 10
-83.9626
 20
85.8215
 30
0.0
 10
-84.3777
 20
85.8566
 30
0.0
 10
-84.7074
 20
85.9114
 30
0.0
 10
-84.7149
 20
85.3065
 30
0.0
 10
-84.7149
 20
85.3065
 30
0.0
 10
-84.7149
 20
85.3065
 30
0.0
 10
-84.7149
 20
74.1294
 30
0.0
 10
-84.7149
 20
74.1294
 30
0.0
  0
SPLINE
  5
7D
330
1F
100
AcDbEntity
  8
layer 1
 62
     7
100
AcDbSpline
210
0.0
220
0.0
230
1.0
 70
    11
 71
     3
 72
    28
 73
    24
 74
     0
 42
0.0000000001
 43
0.0000000001
 12
1.0
 22
0.0
 32
0.0
 13
1.0
 23
0.0
 33
0.0
 40
0.0
 40
0.0
 40
0.0
 40
0.0
 40
0.1428571428571428
 40
0.1428571428571428
 40
0.1428571428571428
 40
0.1428571428571428
 40
0.2857142857142857
 40
0.2857142857142857
 40
0.2857142857142857
 40
0.2857142857142857
 40
0.4285714285714285
 40
0.4285714285714285
 40
0.4285714285714285
 40
0.4285714285714285
 40
0.5714285714285714
 40
0.5714285714285714
 40
0.5714285714285714
 40
0.5714285714285714
 40
0.7142857142857143
 40
0.7142857142857143
 40
0.7142857142857143
 40
0.7142857142857143
 40
1.0
 40
1.0
 40
1.0
 40
1.0
 10
-87.3227
 20
74.1294
 30
0.0
 10
-87.3227
 20
74.1294
 30
0.0
 10
-87.3227
 20
62.7571
 30
0.0
 10
-87.3227
 20
62.7571
 30
0.0
 10
-87.3227
 20
62.7571
 30
0.0
 10
-87.3227
 20
62.399
 30
0.0
 10
-87.7826
 20
62.4191
 30
0.0
 10
-87.9429
 20
62.43
 30
0.0
 10
-87.9429
 20
62.43
 30
0.0
 10
-94.1239
 20
62.7529
 30
0.0
 10
-99.0386
 20
67.8681
 30
0.0
 10
-99.0386
 20
74.1294
 30
0.0
 10
-99.0386
 20
74.1294
 30
0.0
 10
-99.0386
 20
80.3461
 30
0.0
 10
-94.1939
 20
85.4333
 30
0.0
 10
-88.0749
 20
85.8215
 30
0.0
 10
-88.0749
 20
85.8215
 30
0.0
 10
-87.6599
 20
85.8566
 30
0.0
 10
-87.3301
 20
85.9114
 30
0.0
 10
-87.3227
 20
85.3065
 30
0.0
 10
-87.3227
 20
85.3065
 30
0.0
 10
-87.3227
 20
85.3065
 30
0.0
 10
-87.3227
 20
74.1294
 30
0.0
 10
-87.3227
 20
74.1294
 30
0.0
  0
SPLINE
  5
7E
330
1F
100
AcDbEntity
  8
layer 1
 62
     7
100
AcDbSpline
210
0.0
220
0.0
230
1.0
 70
    11
 71
     3
 72
    28
 73
    24
 74
     0
 42
0.0000000001
 43
0.0000000001
 12
1.0
 22
0.0
 32
0.0
 13
1.0
 23
0.0
 33
0.0
 40
0.0
 40
0.0
 40
0.0
 40
0.0
 40
0.1428571428571428
 40
0.1428571428571428
 40
0.1428571428571428
 40
0.1428571428571428
 40
0.2857142857142857
 40
0.2857142857142857
 40
0.2857142857142857
 40
0.2857142857142857
 40
0.4285714285714285
 40
0.4285714285714285
 40
0.4285714285714285
 40
0.4285714285714285
 40
0.5714285714285714
 40
0.5714285714285714
 40
0.5714285714285714
 40
0.5714285714285714
 40
0.7142857142857143
 40
0.7142857142857143
 40
0.7142857142857143
 40
0.7142857142857143
 40
1.0
 40
1.0
 40
1.0
 40
1.0
 10
-84.7149
 20
33.1648
 30
0.0
 10
-84.7149
 20
33.1648
 30
0.0
 10
-84.7149
 20
21.7927
 30
0.0
 10
-84.7149
 20
21.7927
 30
0.0
 10
-84.7149
 20
21.7927
 30
0.0
 10
-84.7149
 20
21.4344
 30
0.0
 10
-84.2549
 20
21.4547
 30
0.0
 10
-84.0947
 20
21.4654
 30
0.0
 10
-84.0947
 20
21.4654
 30
0.0
 10
-77.9134
 20
21.7883
 30
0.0
 10
-72.999
 20
26.9037
 30
0.0
 10
-72.999
 20
33.1648
 30
0.0
 10
-72.999
 20
33.1648
 30
0.0
 10
-72.999
 20
39.3817
 30
0.0
 10
-77.8437
 20
44.4687
 30
0.0
 10
-83.9626
 20
44.8571
 30
0.0
 10
-83.9626
 20
44.8571
 30
0.0
 10
-84.3777
 20
44.892
 30
0.0
 10
-84.7074
 20
44.9468
 30
0.0
 10
-84.7149
 20
44.3421
 30
0.0
 10
-84.7149
 20
44.3421
 30
0.0
 10
-84.7149
 20
44.3421
 30
0.0
 10
-84.7149
 20
33.1648
 30
0.0
 10
-84.7149
 20
33.1648
 30
0.0
  0
SPLINE
  5
7F
330
1F
100
AcDbEntity
  8
layer 1
 62
     7
100
AcDbSpline
210
0.0
220
0.0
230
1.0
 70
    11
 71
     3
 72
    28
 73
    24
 74
     0
 42
0.0000000001
 43
0.0000000001
 12
1.0
 22
0.0
 32
0.0
 13
1.0
 23
0.0
 33
0.0
 40
0.0
 40
0.0
 40
0.0
 40
0.0
 40
0.1428571428571428
 40
0.1428571428571428
 40
0.1428571428571428
 40
0.1428571428571428
 40
0.2857142857142857
 40
0.2857142857142857
 40
0.2857142857142857
 40
0.2857142857142857
 40
0.4285714285714285
 40
0.4285714285714285
 40
0.4285714285714285
 40
0.4285714285714285
 40
0.5714285714285714
 40
0.5714285714285714
 40
0.5714285714285714
 40
0.5714285714285714
 40
0.7142857142857143
 40
0.7142857142857143
 40
0.7142857142857143
 40
0.7142857142857143
 40
1.0
 40
1.0
 40
1.0
 40
1.0
 10
-87.3227
 20
33.1648
 30
0.0
 10
-87.3227
 20
33.1648
 30
0.0
 10
-87.3227
 20
21.7927
 30
0.0
 10
-87.3227
 20
21.7927
 30
0.0
 10
-87.3227
 20
21.7927
 30
0.0
 10
-87.3227
 20
21.4344
 30
0.0
 10
-87.7826
 20
21.4547
 30
0.0
 10
-87.9429
 20
21.4654
 30
0.0
 10
-87.9429
 20
21.4654
 30
0.0
 10
-94.1239
 20
21.7883
 30
0.0
 10
-99.0386
 20
26.9037
 30
0.0
 10
-99.0386
 20
33.1648
 30
0.0
 10
-99.0386
 20
33.1648
 30
0.0
 10
-99.0386
 20
39.3817
 30
0.0
 10
-94.1939
 20
44.4687
 30
0.0
 10
-88.0749
 20
44.8571
 30
0.0
 10
-88.0749
 20
44.8571
 30
0.0
 10
-87.6599
 20
44.892
 30
0.0
 10
-87.3301
 20
44.9468
 30
0.0
 10
-87.3227
 20
44.3421
 30
0.0
 10
-87.3227
 20
44.3421
 30
0.0
 10
-87.3227
 20
44.3421
 30
0.0
 10
-87.3227
 20
33.1648
 30
0.0
 10
-87.3227
 20
33.1648
 30
0.0
  0
SPLINE
  5
80
330
1F
100
AcDbEntity
  8
layer 1
 62
     7
100
AcDbSpline
210
0.0
220
0.0
230
1.0
 70
    11
 71
     3
 72
    28
 73
    24
 74
     0
 42
0.0000000001
 43
0.0000000001
 12
1.0
 22
0.0
 32
0.0
 13
1.0
 23
0.0
 33
0.0
 40
0.0
 40
0.0
 40
0.0
 40
0.0
 40
0.1428571428571428
 40
0.1428571428571428
 40
0.1428571428571428
 40
0.1428571428571428
 40
0.2857142857142857
 40
0.2857142857142857
 40
0.2857142857142857
 40
0.2857142857142857
 40
0.4285714285714285
 40
0.4285714285714285
 40
0.4285714285714285
 40
0.4285714285714285
 40
0.5714285714285714
 40
0.5714285714285714
 40
0.5714285714285714
 40
0.5714285714285714
 40
0.7142857142857143
 40
0.7142857142857143
 40
0.7142857142857143
 40
0.7142857142857143
 40
1.0
 40
1.0
 40
1.0
 40
1.0
 10
-168.4482
 20
-89.7286
 30
0.0
 10
-168.4482
 20
-89.7286
 30
0.0
 10
-168.4482
 20
-101.1008
 30
0.0
 10
-168.4482
 20
-101.1008
 30
0.0
 10
-168.4482
 20
-101.1008
 30
0.0
 10
-168.4482
 20
-101.459
 30
0.0
 10
-167.9883
 20
-101.4389
 30
0.0
 10
-167.828
 20
-101.428
 30
0.0
 10
-167.828
 20
-101.428
 30
0.0
 10
-161.6468
 20
-101.1051
 30
0.0
 10
-156.7323
 20
-95.9899
 30
0.0
 10
-156.7323
 20
-89.7286
 30
0.0
 10
-156.7323
 20
-89.7286
 30
0.0
 10
-156.7323
 20
-83.5119
 30
0.0
 10
-161.577
 20
-78.4247
 30
0.0
 10
-167.696
 20
-78.0365
 30
0.0
 10
-167.696
 20
-78.0365
 30
0.0
 10
-168.111
 20
-78.0014
 30
0.0
 10
-168.4408
 20
-77.9468
 30
0.0
 10
-168.4482
 20
-78.5514
 30
0.0
 10
-168.4482
 20
-78.5514
 30
0.0
 10
-168.4482
 20
-78.5514
 30
0.0
 10
-168.4482
 20
-89.7286
 30
0.0
 10
-168.4482
 20
-89.7286
 30
0.0
  0
SPLINE
  5
81
330
1F
100
AcDbEntity
  8
layer 1
 62
     7
100
AcDbSpline
210
0.0
220
0.0
230
1.0
 70
    11
 71
     3
 72
    28
 73
    24
 74
     0
 42
0.0000000001
 43
0.0000000001
 12
1.0
 22
0.0
 32
0.0
 13
1.0
 23
0.0
 33
0.0
 40
0.0
 40
0.0
 40
0.0
 40
0.0
 40
0.1428571428571428
 40
0.1428571428571428
 40
0.1428571428571428
 40
0.1428571428571428
 40
0.2857142857142857
 40
0.2857142857142857
 40
0.2857142857142857
 40
0.2857142857142857
 40
0.4285714285714285
 40
0.4285714285714285
 40
0.4285714285714285
 40
0.4285714285714285
 40
0.5714285714285714
 40
0.5714285714285714
 40
0.5714285714285714
 40
0.5714285714285714
 40
0.7142857142857143
 40
0.7142857142857143
 40
0.7142857142857143
 40
0.7142857142857143
 40
1.0
 40
1.0
 40
1.0
 40
1.0
 10
-171.056
 20
-89.7286
 30
0.0
 10
-171.056
 20
-89.7286
 30
0.0
 10
-171.056
 20
-101.1008
 30
0.0
 10
-171.056
 20
-101.1008
 30
0.0
 10
-171.056
 20
-101.1008
 30
0.0
 10
-171.056
 20
-101.459
 30
0.0
 10
-171.516
 20
-101.4389
 30
0.0
 10
-171.6762
 20
-101.428
 30
0.0
 10
-171.6762
 20
-101.428
 30
0.0
 10
-177.8573
 20
-101.1051
 30
0.0
 10
-182.7719
 20
-95.9899
 30
0.0
 10
-182.7719
 20
-89.7286
 30
0.0
 10
-182.7719
 20
-89.7286
 30
0.0
 10
-182.7719
 20
-83.5119
 30
0.0
 10
-177.927
 20
-78.4247
 30
0.0
 10
-171.8081
 20
-78.0365
 30
0.0
 10
-171.8081
 20
-78.0365
 30
0.0
 10
-171.393
 20
-78.0014
 30
0.0
 10
-171.0633
 20
-77.9468
 30
0.0
 10
-171.056
 20
-78.5514
 30
0.0
 10
-171.056
 20
-78.5514
 30
0.0
 10
-171.056
 20
-78.5514
 30
0.0
 10
-171.056
 20
-89.7286
 30
0.0
 10
-171.056
 20
-89.7286
 30
0.0
  0
SPLINE
  5
82
330
1F
100
AcDbEntity
  8
layer 1
 62
     7
100
AcDbSpline
210
0.0
220
0.0
230
1.0
 70
    11
 71
     3
 72
    28
 73
    24
 74
     0
 42
0.0000000001
 43
0.0000000001
 12
1.0
 22
0.0
 32
0.0
 13
1.0
 23
0.0
 33
0.0
 40
0.0
 40
0.0
 40
0.0
 40
0.0
 40
0.1428571428571428
 40
0.1428571428571428
 40
0.1428571428571428
 40
0.1428571428571428
 40
0.2857142857142857
 40
0.2857142857142857
 40
0.2857142857142857
 40
0.2857142857142857
 40
0.4285714285714285
 40
0.4285714285714285
 40
0.4285714285714285
 40
0.4285714285714285
 40
0.5714285714285714
 40
0.5714285714285714
 40
0.5714285714285714
 40
0.5714285714285714
 40
0.7142857142857143
 40
0.7142857142857143
 40
0.7142857142857143
 40
0.7142857142857143
 40
1.0
 40
1.0
 40
1.0
 40
1.0
 10
-168.4482
 20
-48.7642
 30
0.0
 10
-168.4482
 20
-48.7642
 30
0.0
 10
-168.4482
 20
-60.1365
 30
0.0
 10
-168.4482
 20
-60.1365
 30
0.0
 10
-168.4482
 20
-60.1365
 30
0.0
 10
-168.4482
 20
-60.4946
 30
0.0
 10
-167.9883
 20
-60.4745
 30
0.0
 10
-167.828
 20
-60.4636
 30
0.0
 10
-167.828
 20
-60.4636
 30
0.0
 10
-161.6468
 20
-60.1407
 30
0.0
 10
-156.7323
 20
-55.0253
 30
0.0
 10
-156.7323
 20
-48.7642
 30
0.0
 10
-156.7323
 20
-48.7642
 30
0.0
 10
-156.7323
 20
-42.5473
 30
0.0
 10
-161.577
 20
-37.4603
 30
0.0
 10
-167.696
 20
-37.0719
 30
0.0
 10
-167.696
 20
-37.0719
 30
0.0
 10
-168.111
 20
-37.037
 30
0.0
 10
-168.4408
 20
-36.9822
 30
0.0
 10
-168.4482
 20
-37.5868
 30
0.0
 10
-168.4482
 20
-37.5868
 30
0.0
 10
-168.4482
 20
-37.5868
 30
0.0
 10
-168.4482
 20
-48.7642
 30
0.0
 10
-168.4482
 20
-48.7642
 30
0.0
  0
SPLINE
  5
83
330
1F
100
AcDbEntity
  8
layer 1
 62
     7
100
AcDbSpline
210
0.0
220
0.0
230
1.0
 70
    11
 71
     3
 72
    28
 73
    24
 74
     0
 42
0.0000000001
 43
0.0000000001
 12
1.0
 22
0.0
 32
0.0
 13
1.0
 23
0.0
 33
0.0
 40
0.0
 40
0.0
 40
0.0
 40
0.0
 40
0.1428571428571428
 40
0.1428571428571428
 40
0.1428571428571428
 40
0.1428571428571428
 40
0.2857142857142857
 40
0.2857142857142857
 40
0.2857142857142857
 40
0.2857142857142857
 40
0.4285714285714285
 40
0.4285714285714285
 40
0.4285714285714285
 40
0.4285714285714285
 40
0.5714285714285714
 40
0.5714285714285714
 40
0.5714285714285714
 40
0.5714285714285714
 40
0.7142857142857143
 40
0.7142857142857143
 40
0.7142857142857143
 40
0.7142857142857143
 40
1.0
 40
1.0
 40
1.0
 40
1.0
 10
-171.056
 20
-48.7642
 30
0.0
 10
-171.056
 20
-48.7642
 30
0.0
 10
-171.056
 20
-60.1365
 30
0.0
 10
-171.056
 20
-60.1365
 30
0.0
 10
-171.056
 20
-60.1365
 30
0.0
 10
-171.056
 20
-60.4946
 30
0.0
 10
-171.516
 20
-60.4745
 30
0.0
 10
-171.6762
 20
-60.4636
 30
0.0
 10
-171.6762
 20
-60.4636
 30
0.0
 10
-177.8573
 20
-60.1407
 30
0.0
 10
-182.7719
 20
-55.0253
 30
0.0
 10
-182.7719
 20
-48.7642
 30
0.0
 10
-182.7719
 20
-48.7642
 30
0.0
 10
-182.7719
 20
-42.5473
 30
0.0
 10
-177.927
 20
-37.4603
 30
0.0
 10
-171.8081
 20
-37.0719
 30
0.0
 10
-171.8081
 20
-37.0719
 30
0.0
 10
-171.393
 20
-37.037
 30
0.0
 10
-171.0633
 20
-36.9822
 30
0.0
 10
-171.056
 20
-37.5868
 30
0.0
 10
-171.056
 20
-37.5868
 30
0.0
 10
-171.056
 20
-37.5868
 30
0.0
 10
-171.056
 20
-48.7642
 30
0.0
 10
-171.056
 20
-48.7642
 30
0.0
  0
SPLINE
  5
84
330
1F
100
AcDbEntity
  8
layer 1
 62
     7
100
AcDbSpline
210
0.0
220
0.0
230
1.0
 70
    11
 71
     3
 72
    28
 73
    24
 74
     0
 42
0.0000000001
 43
0.0000000001
 12
1.0
 22
0.0
 32
0.0
 13
1.0
 23
0.0
 33
0.0
 40
0.0
 40
0.0
 40
0.0
 40
0.0
 40
0.1428571428571428
 40
0.1428571428571428
 40
0.1428571428571428
 40
0.1428571428571428
 40
0.2857142857142857
 40
0.2857142857142857
 40
0.2857142857142857
 40
0.2857142857142857
 40
0.4285714285714285
 40
0.4285714285714285
 40
0.4285714285714285
 40
0.4285714285714285
 40
0.5714285714285714
 40
0.5714285714285714
 40
0.5714285714285714
 40
0.5714285714285714
 40
0.7142857142857143
 40
0.7142857142857143
 40
0.7142857142857143
 40
0.7142857142857143
 40
1.0
 40
1.0
 40
1.0
 40
1.0
 10
-168.4482
 20
-7.7996
 30
0.0
 10
-168.4482
 20
-7.7996
 30
0.0
 10
-168.4482
 20
-19.1719
 30
0.0
 10
-168.4482
 20
-19.1719
 30
0.0
 10
-168.4482
 20
-19.1719
 30
0.0
 10
-168.4482
 20
-19.53
 30
0.0
 10
-167.9883
 20
-19.5099
 30
0.0
 10
-167.828
 20
-19.499
 30
0.0
 10
-167.828
 20
-19.499
 30
0.0
 10
-161.6468
 20
-19.1761
 30
0.0
 10
-156.7323
 20
-14.0609
 30
0.0
 10
-156.7323
 20
-7.7996
 30
0.0
 10
-156.7323
 20
-7.7996
 30
0.0
 10
-156.7323
 20
-1.5829
 30
0.0
 10
-161.577
 20
3.5043
 30
0.0
 10
-167.696
 20
3.8925
 30
0.0
 10
-167.696
 20
3.8925
 30
0.0
 10
-168.111
 20
3.9276
 30
0.0
 10
-168.4408
 20
3.9822
 30
0.0
 10
-168.4482
 20
3.3776
 30
0.0
 10
-168.4482
 20
3.3776
 30
0.0
 10
-168.4482
 20
3.3776
 30
0.0
 10
-168.4482
 20
-7.7996
 30
0.0
 10
-168.4482
 20
-7.7996
 30
0.0
  0
SPLINE
  5
85
330
1F
100
AcDbEntity
  8
layer 1
 62
     7
100
AcDbSpline
210
0.0
220
0.0
230
1.0
 70
    11
 71
     3
 72
    28
 73
    24
 74
     0
 42
0.0000000001
 43
0.0000000001
 12
1.0
 22
0.0
 32
0.0
 13
1.0
 23
0.0
 33
0.0
 40
0.0
 40
0.0
 40
0.0
 40
0.0
 40
0.1428571428571428
 40
0.1428571428571428
 40
0.1428571428571428
 40
0.1428571428571428
 40
0.2857142857142857
 40
0.2857142857142857
 40
0.2857142857142857
 40
0.2857142857142857
 40
0.4285714285714285
 40
0.4285714285714285
 40
0.4285714285714285
 40
0.4285714285714285
 40
0.5714285714285714
 40
0.5714285714285714
 40
0.5714285714285714
 40
0.5714285714285714
 40
0.7142857142857143
 40
0.7142857142857143
 40
0.7142857142857143
 40
0.7142857142857143
 40
1.0
 40
1.0
 40
1.0
 40
1.0
 10
-171.056
 20
-7.7996
 30
0.0
 10
-171.056
 20
-7.7996
 30
0.0
 10
-171.056
 20
-19.1719
 30
0.0
 10
-171.056
 20
-19.1719
 30
0.0
 10
-171.056
 20
-19.1719
 30
0.0
 10
-171.056
 20
-19.53
 30
0.0
 10
-171.516
 20
-19.5099
 30
0.0
 10
-171.6762
 20
-19.499
 30
0.0
 10
-171.6762
 20
-19.499
 30
0.0
 10
-177.8573
 20
-19.1761
 30
0.0
 10
-182.7719
 20
-14.0609
 30
0.0
 10
-182.7719
 20
-7.7996
 30
0.0
 10
-182.7719
 20
-7.7996
 30
0.0
 10
-182.7719
 20
-1.5829
 30
0.0
 10
-177.927
 20
3.5043
 30
0.0
 10
-171.8081
 20
3.8925
 30
0.0
 10
-171.8081
 20
3.8925
 30
0.0
 10
-171.393
 20
3.9276
 30
0.0
 10
-171.0633
 20
3.9822
 30
0.0
 10
-171.056
 20
3.3776
 30
0.0
 10
-171.056
 20
3.3776
 30
0.0
 10
-171.056
 20
3.3776
 30
0.0
 10
-171.056
 20
-7.7996
 30
0.0
 10
-171.056
 20
-7.7996
 30
0.0
  0
SPLINE
  5
86
330
1F
100
AcDbEntity
  8
layer 1
 62
     7
100
AcDbSpline
210
0.0
220
0.0
230
1.0
 70
    11
 71
     3
 72
    28
 73
    24
 74
     0
 42
0.0000000001
 43
0.0000000001
 12
1.0
 22
0.0
 32
0.0
 13
1.0
 23
0.0
 33
0.0
 40
0.0
 40
0.0
 40
0.0
 40
0.0
 40
0.1428571428571428
 40
0.1428571428571428
 40
0.1428571428571428
 40
0.1428571428571428
 40
0.2857142857142857
 40
0.2857142857142857
 40
0.2857142857142857
 40
0.2857142857142857
 40
0.4285714285714285
 40
0.4285714285714285
 40
0.4285714285714285
 40
0.4285714285714285
 40
0.5714285714285714
 40
0.5714285714285714
 40
0.5714285714285714
 40
0.5714285714285714
 40
0.7142857142857143
 40
0.7142857142857143
 40
0.7142857142857143
 40
0.7142857142857143
 40
1.0
 40
1.0
 40
1.0
 40
1.0
 10
-168.4482
 20
115.0938
 30
0.0
 10
-168.4482
 20
115.0938
 30
0.0
 10
-168.4482
 20
103.7217
 30
0.0
 10
-168.4482
 20
103.7217
 30
0.0
 10
-168.4482
 20
103.7217
 30
0.0
 10
-168.4482
 20
103.3634
 30
0.0
 10
-167.9883
 20
103.3837
 30
0.0
 10
-167.828
 20
103.3944
 30
0.0
 10
-167.828
 20
103.3944
 30
0.0
 10
-161.6468
 20
103.7173
 30
0.0
 10
-156.7323
 20
108.8327
 30
0.0
 10
-156.7323
 20
115.0938
 30
0.0
 10
-156.7323
 20
115.0938
 30
0.0
 10
-156.7323
 20
121.3107
 30
0.0
 10
-161.577
 20
126.3977
 30
0.0
 10
-167.696
 20
126.7859
 30
0.0
 10
-167.696
 20
126.7859
 30
0.0
 10
-168.111
 20
126.821
 30
0.0
 10
-168.4408
 20
126.8758
 30
0.0
 10
-168.4482
 20
126.2709
 30
0.0
 10
-168.4482
 20
126.2709
 30
0.0
 10
-168.4482
 20
126.2709
 30
0.0
 10
-168.4482
 20
115.0938
 30
0.0
 10
-168.4482
 20
115.0938
 30
0.0
  0
SPLINE
  5
87
330
1F
100
AcDbEntity
  8
layer 1
 62
     7
100
AcDbSpline
210
0.0
220
0.0
230
1.0
 70
    11
 71
     3
 72
    28
 73
    24
 74
     0
 42
0.0000000001
 43
0.0000000001
 12
1.0
 22
0.0
 32
0.0
 13
1.0
 23
0.0
 33
0.0
 40
0.0
 40
0.0
 40
0.0
 40
0.0
 40
0.1428571428571428
 40
0.1428571428571428
 40
0.1428571428571428
 40
0.1428571428571428
 40
0.2857142857142857
 40
0.2857142857142857
 40
0.2857142857142857
 40
0.2857142857142857
 40
0.4285714285714285
 40
0.4285714285714285
 40
0.4285714285714285
 40
0.4285714285714285
 40
0.5714285714285714
 40
0.5714285714285714
 40
0.5714285714285714
 40
0.5714285714285714
 40
0.7142857142857143
 40
0.7142857142857143
 40
0.7142857142857143
 40
0.7142857142857143
 40
1.0
 40
1.0
 40
1.0
 40
1.0
 10
-171.056
 20
115.0938
 30
0.0
 10
-171.056
 20
115.0938
 30
0.0
 10
-171.056
 20
103.7217
 30
0.0
 10
-171.056
 20
103.7217
 30
0.0
 10
-171.056
 20
103.7217
 30
0.0
 10
-171.056
 20
103.3634
 30
0.0
 10
-171.516
 20
103.3837
 30
0.0
 10
-171.6762
 20
103.3944
 30
0.0
 10
-171.6762
 20
103.3944
 30
0.0
 10
-177.8573
 20
103.7173
 30
0.0
 10
-182.7719
 20
108.8327
 30
0.0
 10
-182.7719
 20
115.0938
 30
0.0
 10
-182.7719
 20
115.0938
 30
0.0
 10
-182.7719
 20
121.3107
 30
0.0
 10
-177.927
 20
126.3977
 30
0.0
 10
-171.8081
 20
126.7859
 30
0.0
 10
-171.8081
 20
126.7859
 30
0.0
 10
-171.393
 20
126.821
 30
0.0
 10
-171.0633
 20
126.8758
 30
0.0
 10
-171.056
 20
126.2709
 30
0.0
 10
-171.056
 20
126.2709
 30
0.0
 10
-171.056
 20
126.2709
 30
0.0
 10
-171.056
 20
115.0938
 30
0.0
 10
-171.056
 20
115.0938
 30
0.0
  0
SPLINE
  5
88
330
1F
100
AcDbEntity
  8
layer 1
 62
     7
100
AcDbSpline
210
0.0
220
0.0
230
1.0
 70
    11
 71
     3
 72
    28
 73
    24
 74
     0
 42
0.0000000001
 43
0.0000000001
 12
1.0
 22
0.0
 32
0.0
 13
1.0
 23
0.0
 33
0.0
 40
0.0
 40
0.0
 40
0.0
 40
0.0
 40
0.1428571428571428
 40
0.1428571428571428
 40
0.1428571428571428
 40
0.1428571428571428
 40
0.2857142857142857
 40
0.2857142857142857
 40
0.2857142857142857
 40
0.2857142857142857
 40
0.4285714285714285
 40
0.4285714285714285
 40
0.4285714285714285
 40
0.4285714285714285
 40
0.5714285714285714
 40
0.5714285714285714
 40
0.5714285714285714
 40
0.5714285714285714
 40
0.7142857142857143
 40
0.7142857142857143
 40
0.7142857142857143
 40
0.7142857142857143
 40
1.0
 40
1.0
 40
1.0
 40
1.0
 10
-168.4482
 20
74.1294
 30
0.0
 10
-168.4482
 20
74.1294
 30
0.0
 10
-168.4482
 20
62.7571
 30
0.0
 10
-168.4482
 20
62.7571
 30
0.0
 10
-168.4482
 20
62.7571
 30
0.0
 10
-168.4482
 20
62.399
 30
0.0
 10
-167.9883
 20
62.4191
 30
0.0
 10
-167.828
 20
62.43
 30
0.0
 10
-167.828
 20
62.43
 30
0.0
 10
-161.6468
 20
62.7529
 30
0.0
 10
-156.7323
 20
67.8681
 30
0.0
 10
-156.7323
 20
74.1294
 30
0.0
 10
-156.7323
 20
74.1294
 30
0.0
 10
-156.7323
 20
80.3461
 30
0.0
 10
-161.577
 20
85.4333
 30
0.0
 10
-167.696
 20
85.8215
 30
0.0
 10
-167.696
 20
85.8215
 30
0.0
 10
-168.111
 20
85.8566
 30
0.0
 10
-168.4408
 20
85.9114
 30
0.0
 10
-168.4482
 20
85.3065
 30
0.0
 10
-168.4482
 20
85.3065
 30
0.0
 10
-168.4482
 20
85.3065
 30
0.0
 10
-168.4482
 20
74.1294
 30
0.0
 10
-168.4482
 20
74.1294
 30
0.0
  0
SPLINE
  5
89
330
1F
100
AcDbEntity
  8
layer 1
 62
     7
100
AcDbSpline
210
0.0
220
0.0
230
1.0
 70
    11
 71
     3
 72
    28
 73
    24
 74
     0
 42
0.0000000001
 43
0.0000000001
 12
1.0
 22
0.0
 32
0.0
 13
1.0
 23
0.0
 33
0.0
 40
0.0
 40
0.0
 40
0.0
 40
0.0
 40
0.1428571428571428
 40
0.1428571428571428
 40
0.1428571428571428
 40
0.1428571428571428
 40
0.2857142857142857
 40
0.2857142857142857
 40
0.2857142857142857
 40
0.2857142857142857
 40
0.4285714285714285
 40
0.4285714285714285
 40
0.4285714285714285
 40
0.4285714285714285
 40
0.5714285714285714
 40
0.5714285714285714
 40
0.5714285714285714
 40
0.5714285714285714
 40
0.7142857142857143
 40
0.7142857142857143
 40
0.7142857142857143
 40
0.7142857142857143
 40
1.0
 40
1.0
 40
1.0
 40
1.0
 10
-171.056
 20
74.1294
 30
0.0
 10
-171.056
 20
74.1294
 30
0.0
 10
-171.056
 20
62.7571
 30
0.0
 10
-171.056
 20
62.7571
 30
0.0
 10
-171.056
 20
62.7571
 30
0.0
 10
-171.056
 20
62.399
 30
0.0
 10
-171.516
 20
62.4191
 30
0.0
 10
-171.6762
 20
62.43
 30
0.0
 10
-171.6762
 20
62.43
 30
0.0
 10
-177.8573
 20
62.7529
 30
0.0
 10
-182.7719
 20
67.8681
 30
0.0
 10
-182.7719
 20
74.1294
 30
0.0
 10
-182.7719
 20
74.1294
 30
0.0
 10
-182.7719
 20
80.3461
 30
0.0
 10
-177.927
 20
85.4333
 30
0.0
 10
-171.8081
 20
85.8215
 30
0.0
 10
-171.8081
 20
85.8215
 30
0.0
 10
-171.393
 20
85.8566
 30
0.0
 10
-171.0633
 20
85.9114
 30
0.0
 10
-171.056
 20
85.3065
 30
0.0
 10
-171.056
 20
85.3065
 30
0.0
 10
-171.056
 20
85.3065
 30
0.0
 10
-171.056
 20
74.1294
 30
0.0
 10
-171.056
 20
74.1294
 30
0.0
  0
SPLINE
  5
8A
330
1F
100
AcDbEntity
  8
layer 1
 62
     7
100
AcDbSpline
210
0.0
220
0.0
230
1.0
 70
    11
 71
     3
 72
    28
 73
    24
 74
     0
 42
0.0000000001
 43
0.0000000001
 12
1.0
 22
0.0
 32
0.0
 13
1.0
 23
0.0
 33
0.0
 40
0.0
 40
0.0
 40
0.0
 40
0.0
 40
0.1428571428571428
 40
0.1428571428571428
 40
0.1428571428571428
 40
0.1428571428571428
 40
0.2857142857142857
 40
0.2857142857142857
 40
0.2857142857142857
 40
0.2857142857142857
 40
0.4285714285714285
 40
0.4285714285714285
 40
0.4285714285714285
 40
0.4285714285714285
 40
0.5714285714285714
 40
0.5714285714285714
 40
0.5714285714285714
 40
0.5714285714285714
 40
0.7142857142857143
 40
0.7142857142857143
 40
0.7142857142857143
 40
0.7142857142857143
 40
1.0
 40
1.0
 40
1.0
 40
1.0
 10
-168.4482
 20
33.1648
 30
0.0
 10
-168.4482
 20
33.1648
 30
0.0
 10
-168.4482
 20
21.7927
 30
0.0
 10
-168.4482
 20
21.7927
 30
0.0
 10
-168.4482
 20
21.7927
 30
0.0
 10
-168.4482
 20
21.4344
 30
0.0
 10
-167.9883
 20
21.4547
 30
0.0
 10
-167.828
 20
21.4654
 30
0.0
 10
-167.828
 20
21.4654
 30
0.0
 10
-161.6468
 20
21.7883
 30
0.0
 10
-156.7323
 20
26.9037
 30
0.0
 10
-156.7323
 20
33.1648
 30
0.0
 10
-156.7323
 20
33.1648
 30
0.0
 10
-156.7323
 20
39.3817
 30
0.0
 10
-161.577
 20
44.4687
 30
0.0
 10
-167.696
 20
44.8571
 30
0.0
 10
-167.696
 20
44.8571
 30
0.0
 10
-168.111
 20
44.892
 30
0.0
 10
-168.4408
 20
44.9468
 30
0.0
 10
-168.4482
 20
44.3421
 30
0.0
 10
-168.4482
 20
44.3421
 30
0.0
 10
-168.4482
 20
44.3421
 30
0.0
 10
-168.4482
 20
33.1648
 30
0.0
 10
-168.4482
 20
33.1648
 30
0.0
  0
SPLINE
  5
8B
330
1F
100
AcDbEntity
  8
layer 1
 62
     7
100
AcDbSpline
210
0.0
220
0.0
230
1.0
 70
    11
 71
     3
 72
    28
 73
    24
 74
     0
 42
0.0000000001
 43
0.0000000001
 12
1.0
 22
0.0
 32
0.0
 13
1.0
 23
0.0
 33
0.0
 40
0.0
 40
0.0
 40
0.0
 40
0.0
 40
0.1428571428571428
 40
0.1428571428571428
 40
0.1428571428571428
 40
0.1428571428571428
 40
0.2857142857142857
 40
0.2857142857142857
 40
0.2857142857142857
 40
0.2857142857142857
 40
0.4285714285714285
 40
0.4285714285714285
 40
0.4285714285714285
 40
0.4285714285714285
 40
0.5714285714285714
 40
0.5714285714285714
 40
0.5714285714285714
 40
0.5714285714285714
 40
0.7142857142857143
 40
0.7142857142857143
 40
0.7142857142857143
 40
0.7142857142857143
 40
1.0
 40
1.0
 40
1.0
 40
1.0
 10
-171.056
 20
33.1648
 30
0.0
 10
-171.056
 20
33.1648
 30
0.0
 10
-171.056
 20
21.7927
 30
0.0
 10
-171.056
 20
21.7927
 30
0.0
 10
-171.056
 20
21.7927
 30
0.0
 10
-171.056
 20
21.4344
 30
0.0
 10
-171.516
 20
21.4547
 30
0.0
 10
-171.6762
 20
21.4654
 30
0.0
 10
-171.6762
 20
21.4654
 30
0.0
 10
-177.8573
 20
21.7883
 30
0.0
 10
-182.7719
 20
26.9037
 30
0.0
 10
-182.7719
 20
33.1648
 30
0.0
 10
-182.7719
 20
33.1648
 30
0.0
 10
-182.7719
 20
39.3817
 30
0.0
 10
-177.927
 20
44.4687
 30
0.0
 10
-171.8081
 20
44.8571
 30
0.0
 10
-171.8081
 20
44.8571
 30
0.0
 10
-171.393
 20
44.892
 30
0.0
 10
-171.0633
 20
44.9468
 30
0.0
 10
-171.056
 20
44.3421
 30
0.0
 10
-171.056
 20
44.3421
 30
0.0
 10
-171.056
 20
44.3421
 30
0.0
 10
-171.056
 20
33.1648
 30
0.0
 10
-171.056
 20
33.1648
 30
0.0
  0
SPLINE
  5
8C
330
1F
100
AcDbEntity
  8
layer 1
 62
     7
100
AcDbSpline
210
0.0
220
0.0
230
1.0
 70
    11
 71
     3
 72
    28
 73
    24
 74
     0
 42
0.0000000001
 43
0.0000000001
 12
1.0
 22
0.0
 32
0.0
 13
1.0
 23
0.0
 33
0.0
 40
0.0
 40
0.0
 40
0.0
 40
0.0
 40
0.1428571428571428
 40
0.1428571428571428
 40
0.1428571428571428
 40
0.1428571428571428
 40
0.2857142857142857
 40
0.2857142857142857
 40
0.2857142857142857
 40
0.2857142857142857
 40
0.4285714285714285
 40
0.4285714285714285
 40
0.4285714285714285
 40
0.4285714285714285
 40
0.5714285714285714
 40
0.5714285714285714
 40
0.5714285714285714
 40
0.5714285714285714
 40
0.7142857142857143
 40
0.7142857142857143
 40
0.7142857142857143
 40
0.7142857142857143
 40
1.0
 40
1.0
 40
1.0
 40
1.0
 10
-126.5815
 20
-89.7286
 30
0.0
 10
-126.5815
 20
-89.7286
 30
0.0
 10
-126.5815
 20
-101.1008
 30
0.0
 10
-126.5815
 20
-101.1008
 30
0.0
 10
-126.5815
 20
-101.1008
 30
0.0
 10
-126.5815
 20
-101.459
 30
0.0
 10
-126.1215
 20
-101.4389
 30
0.0
 10
-125.9613
 20
-101.428
 30
0.0
 10
-125.9613
 20
-101.428
 30
0.0
 10
-119.7802
 20
-101.1051
 30
0.0
 10
-114.8657
 20
-95.9899
 30
0.0
 10
-114.8657
 20
-89.7286
 30
0.0
 10
-114.8657
 20
-89.7286
 30
0.0
 10
-114.8657
 20
-83.5119
 30
0.0
 10
-119.7102
 20
-78.4247
 30
0.0
 10
-125.8294
 20
-78.0365
 30
0.0
 10
-125.8294
 20
-78.0365
 30
0.0
 10
-126.2444
 20
-78.0014
 30
0.0
 10
-126.574
 20
-77.9468
 30
0.0
 10
-126.5815
 20
-78.5514
 30
0.0
 10
-126.5815
 20
-78.5514
 30
0.0
 10
-126.5815
 20
-78.5514
 30
0.0
 10
-126.5815
 20
-89.7286
 30
0.0
 10
-126.5815
 20
-89.7286
 30
0.0
  0
SPLINE
  5
8D
330
1F
100
AcDbEntity
  8
layer 1
 62
     7
100
AcDbSpline
210
0.0
220
0.0
230
1.0
 70
    11
 71
     3
 72
    28
 73
    24
 74
     0
 42
0.0000000001
 43
0.0000000001
 12
1.0
 22
0.0
 32
0.0
 13
1.0
 23
0.0
 33
0.0
 40
0.0
 40
0.0
 40
0.0
 40
0.0
 40
0.1428571428571428
 40
0.1428571428571428
 40
0.1428571428571428
 40
0.1428571428571428
 40
0.2857142857142857
 40
0.2857142857142857
 40
0.2857142857142857
 40
0.2857142857142857
 40
0.4285714285714285
 40
0.4285714285714285
 40
0.4285714285714285
 40
0.4285714285714285
 40
0.5714285714285714
 40
0.5714285714285714
 40
0.5714285714285714
 40
0.5714285714285714
 40
0.7142857142857143
 40
0.7142857142857143
 40
0.7142857142857143
 40
0.7142857142857143
 40
1.0
 40
1.0
 40
1.0
 40
1.0
 10
-129.1892
 20
-89.7286
 30
0.0
 10
-129.1892
 20
-89.7286
 30
0.0
 10
-129.1892
 20
-101.1008
 30
0.0
 10
-129.1892
 20
-101.1008
 30
0.0
 10
-129.1892
 20
-101.1008
 30
0.0
 10
-129.1892
 20
-101.459
 30
0.0
 10
-129.6492
 20
-101.4389
 30
0.0
 10
-129.8094
 20
-101.428
 30
0.0
 10
-129.8094
 20
-101.428
 30
0.0
 10
-135.9907
 20
-101.1051
 30
0.0
 10
-140.9052
 20
-95.9899
 30
0.0
 10
-140.9052
 20
-89.7286
 30
0.0
 10
-140.9052
 20
-89.7286
 30
0.0
 10
-140.9052
 20
-83.5119
 30
0.0
 10
-136.0605
 20
-78.4247
 30
0.0
 10
-129.9415
 20
-78.0365
 30
0.0
 10
-129.9415
 20
-78.0365
 30
0.0
 10
-129.5265
 20
-78.0014
 30
0.0
 10
-129.1967
 20
-77.9468
 30
0.0
 10
-129.1892
 20
-78.5514
 30
0.0
 10
-129.1892
 20
-78.5514
 30
0.0
 10
-129.1892
 20
-78.5514
 30
0.0
 10
-129.1892
 20
-89.7286
 30
0.0
 10
-129.1892
 20
-89.7286
 30
0.0
  0
SPLINE
  5
8E
330
1F
100
AcDbEntity
  8
layer 1
 62
     7
100
AcDbSpline
210
0.0
220
0.0
230
1.0
 70
    11
 71
     3
 72
    28
 73
    24
 74
     0
 42
0.0000000001
 43
0.0000000001
 12
1.0
 22
0.0
 32
0.0
 13
1.0
 23
0.0
 33
0.0
 40
0.0
 40
0.0
 40
0.0
 40
0.0
 40
0.1428571428571428
 40
0.1428571428571428
 40
0.1428571428571428
 40
0.1428571428571428
 40
0.2857142857142857
 40
0.2857142857142857
 40
0.2857142857142857
 40
0.2857142857142857
 40
0.4285714285714285
 40
0.4285714285714285
 40
0.4285714285714285
 40
0.4285714285714285
 40
0.5714285714285714
 40
0.5714285714285714
 40
0.5714285714285714
 40
0.5714285714285714
 40
0.7142857142857143
 40
0.7142857142857143
 40
0.7142857142857143
 40
0.7142857142857143
 40
1.0
 40
1.0
 40
1.0
 40
1.0
 10
-126.5815
 20
-48.7642
 30
0.0
 10
-126.5815
 20
-48.7642
 30
0.0
 10
-126.5815
 20
-60.1365
 30
0.0
 10
-126.5815
 20
-60.1365
 30
0.0
 10
-126.5815
 20
-60.1365
 30
0.0
 10
-126.5815
 20
-60.4946
 30
0.0
 10
-126.1215
 20
-60.4745
 30
0.0
 10
-125.9613
 20
-60.4636
 30
0.0
 10
-125.9613
 20
-60.4636
 30
0.0
 10
-119.7802
 20
-60.1407
 30
0.0
 10
-114.8657
 20
-55.0253
 30
0.0
 10
-114.8657
 20
-48.7642
 30
0.0
 10
-114.8657
 20
-48.7642
 30
0.0
 10
-114.8657
 20
-42.5473
 30
0.0
 10
-119.7102
 20
-37.4603
 30
0.0
 10
-125.8294
 20
-37.0719
 30
0.0
 10
-125.8294
 20
-37.0719
 30
0.0
 10
-126.2444
 20
-37.037
 30
0.0
 10
-126.574
 20
-36.9822
 30
0.0
 10
-126.5815
 20
-37.5868
 30
0.0
 10
-126.5815
 20
-37.5868
 30
0.0
 10
-126.5815
 20
-37.5868
 30
0.0
 10
-126.5815
 20
-48.7642
 30
0.0
 10
-126.5815
 20
-48.7642
 30
0.0
  0
SPLINE
  5
8F
330
1F
100
AcDbEntity
  8
layer 1
 62
     7
100
AcDbSpline
210
0.0
220
0.0
230
1.0
 70
    11
 71
     3
 72
    28
 73
    24
 74
     0
 42
0.0000000001
 43
0.0000000001
 12
1.0
 22
0.0
 32
0.0
 13
1.0
 23
0.0
 33
0.0
 40
0.0
 40
0.0
 40
0.0
 40
0.0
 40
0.1428571428571428
 40
0.1428571428571428
 40
0.1428571428571428
 40
0.1428571428571428
 40
0.2857142857142857
 40
0.2857142857142857
 40
0.2857142857142857
 40
0.2857142857142857
 40
0.4285714285714285
 40
0.4285714285714285
 40
0.4285714285714285
 40
0.4285714285714285
 40
0.5714285714285714
 40
0.5714285714285714
 40
0.5714285714285714
 40
0.5714285714285714
 40
0.7142857142857143
 40
0.7142857142857143
 40
0.7142857142857143
 40
0.7142857142857143
 40
1.0
 40
1.0
 40
1.0
 40
1.0
 10
-129.1892
 20
-48.7642
 30
0.0
 10
-129.1892
 20
-48.7642
 30
0.0
 10
-129.1892
 20
-60.1365
 30
0.0
 10
-129.1892
 20
-60.1365
 30
0.0
 10
-129.1892
 20
-60.1365
 30
0.0
 10
-129.1892
 20
-60.4946
 30
0.0
 10
-129.6492
 20
-60.4745
 30
0.0
 10
-129.8094
 20
-60.4636
 30
0.0
 10
-129.8094
 20
-60.4636
 30
0.0
 10
-135.9907
 20
-60.1407
 30
0.0
 10
-140.9052
 20
-55.0253
 30
0.0
 10
-140.9052
 20
-48.7642
 30
0.0
 10
-140.9052
 20
-48.7642
 30
0.0
 10
-140.9052
 20
-42.5473
 30
0.0
 10
-136.0605
 20
-37.4603
 30
0.0
 10
-129.9415
 20
-37.0719
 30
0.0
 10
-129.9415
 20
-37.0719
 30
0.0
 10
-129.5265
 20
-37.037
 30
0.0
 10
-129.1967
 20
-36.9822
 30
0.0
 10
-129.1892
 20
-37.5868
 30
0.0
 10
-129.1892
 20
-37.5868
 30
0.0
 10
-129.1892
 20
-37.5868
 30
0.0
 10
-129.1892
 20
-48.7642
 30
0.0
 10
-129.1892
 20
-48.7642
 30
0.0
  0
SPLINE
  5
90
330
1F
100
AcDbEntity
  8
layer 1
 62
     7
100
AcDbSpline
210
0.0
220
0.0
230
1.0
 70
    11
 71
     3
 72
    28
 73
    24
 74
     0
 42
0.0000000001
 43
0.0000000001
 12
1.0
 22
0.0
 32
0.0
 13
1.0
 23
0.0
 33
0.0
 40
0.0
 40
0.0
 40
0.0
 40
0.0
 40
0.1428571428571428
 40
0.1428571428571428
 40
0.1428571428571428
 40
0.1428571428571428
 40
0.2857142857142857
 40
0.2857142857142857
 40
0.2857142857142857
 40
0.2857142857142857
 40
0.4285714285714285
 40
0.4285714285714285
 40
0.4285714285714285
 40
0.4285714285714285
 40
0.5714285714285714
 40
0.5714285714285714
 40
0.5714285714285714
 40
0.5714285714285714
 40
0.7142857142857143
 40
0.7142857142857143
 40
0.7142857142857143
 40
0.7142857142857143
 40
1.0
 40
1.0
 40
1.0
 40
1.0
 10
-126.5815
 20
-7.7996
 30
0.0
 10
-126.5815
 20
-7.7996
 30
0.0
 10
-126.5815
 20
-19.1719
 30
0.0
 10
-126.5815
 20
-19.1719
 30
0.0
 10
-126.5815
 20
-19.1719
 30
0.0
 10
-126.5815
 20
-19.53
 30
0.0
 10
-126.1215
 20
-19.5099
 30
0.0
 10
-125.9613
 20
-19.499
 30
0.0
 10
-125.9613
 20
-19.499
 30
0.0
 10
-119.7802
 20
-19.1761
 30
0.0
 10
-114.8657
 20
-14.0609
 30
0.0
 10
-114.8657
 20
-7.7996
 30
0.0
 10
-114.8657
 20
-7.7996
 30
0.0
 10
-114.8657
 20
-1.5829
 30
0.0
 10
-119.7102
 20
3.5043
 30
0.0
 10
-125.8294
 20
3.8925
 30
0.0
 10
-125.8294
 20
3.8925
 30
0.0
 10
-126.2444
 20
3.9276
 30
0.0
 10
-126.574
 20
3.9822
 30
0.0
 10
-126.5815
 20
3.3776
 30
0.0
 10
-126.5815
 20
3.3776
 30
0.0
 10
-126.5815
 20
3.3776
 30
0.0
 10
-126.5815
 20
-7.7996
 30
0.0
 10
-126.5815
 20
-7.7996
 30
0.0
  0
SPLINE
  5
91
330
1F
100
AcDbEntity
  8
layer 1
 62
     7
100
AcDbSpline
210
0.0
220
0.0
230
1.0
 70
    11
 71
     3
 72
    28
 73
    24
 74
     0
 42
0.0000000001
 43
0.0000000001
 12
1.0
 22
0.0
 32
0.0
 13
1.0
 23
0.0
 33
0.0
 40
0.0
 40
0.0
 40
0.0
 40
0.0
 40
0.1428571428571428
 40
0.1428571428571428
 40
0.1428571428571428
 40
0.1428571428571428
 40
0.2857142857142857
 40
0.2857142857142857
 40
0.2857142857142857
 40
0.2857142857142857
 40
0.4285714285714285
 40
0.4285714285714285
 40
0.4285714285714285
 40
0.4285714285714285
 40
0.5714285714285714
 40
0.5714285714285714
 40
0.5714285714285714
 40
0.5714285714285714
 40
0.7142857142857143
 40
0.7142857142857143
 40
0.7142857142857143
 40
0.7142857142857143
 40
1.0
 40
1.0
 40
1.0
 40
1.0
 10
-129.1892
 20
-7.7996
 30
0.0
 10
-129.1892
 20
-7.7996
 30
0.0
 10
-129.1892
 20
-19.1719
 30
0.0
 10
-129.1892
 20
-19.1719
 30
0.0
 10
-129.1892
 20
-19.1719
 30
0.0
 10
-129.1892
 20
-19.53
 30
0.0
 10
-129.6492
 20
-19.5099
 30
0.0
 10
-129.8094
 20
-19.499
 30
0.0
 10
-129.8094
 20
-19.499
 30
0.0
 10
-135.9907
 20
-19.1761
 30
0.0
 10
-140.9052
 20
-14.0609
 30
0.0
 10
-140.9052
 20
-7.7996
 30
0.0
 10
-140.9052
 20
-7.7996
 30
0.0
 10
-140.9052
 20
-1.5829
 30
0.0
 10
-136.0605
 20
3.5043
 30
0.0
 10
-129.9415
 20
3.8925
 30
0.0
 10
-129.9415
 20
3.8925
 30
0.0
 10
-129.5265
 20
3.9276
 30
0.0
 10
-129.1967
 20
3.9822
 30
0.0
 10
-129.1892
 20
3.3776
 30
0.0
 10
-129.1892
 20
3.3776
 30
0.0
 10
-129.1892
 20
3.3776
 30
0.0
 10
-129.1892
 20
-7.7996
 30
0.0
 10
-129.1892
 20
-7.7996
 30
0.0
  0
SPLINE
  5
92
330
1F
100
AcDbEntity
  8
layer 1
 62
     7
100
AcDbSpline
210
0.0
220
0.0
230
1.0
 70
    11
 71
     3
 72
    28
 73
    24
 74
     0
 42
0.0000000001
 43
0.0000000001
 12
1.0
 22
0.0
 32
0.0
 13
1.0
 23
0.0
 33
0.0
 40
0.0
 40
0.0
 40
0.0
 40
0.0
 40
0.1428571428571428
 40
0.1428571428571428
 40
0.1428571428571428
 40
0.1428571428571428
 40
0.2857142857142857
 40
0.2857142857142857
 40
0.2857142857142857
 40
0.2857142857142857
 40
0.4285714285714285
 40
0.4285714285714285
 40
0.4285714285714285
 40
0.4285714285714285
 40
0.5714285714285714
 40
0.5714285714285714
 40
0.5714285714285714
 40
0.5714285714285714
 40
0.7142857142857143
 40
0.7142857142857143
 40
0.7142857142857143
 40
0.7142857142857143
 40
1.0
 40
1.0
 40
1.0
 40
1.0
 10
-126.5815
 20
115.0938
 30
0.0
 10
-126.5815
 20
115.0938
 30
0.0
 10
-126.5815
 20
103.7217
 30
0.0
 10
-126.5815
 20
103.7217
 30
0.0
 10
-126.5815
 20
103.7217
 30
0.0
 10
-126.5815
 20
103.3634
 30
0.0
 10
-126.1215
 20
103.3837
 30
0.0
 10
-125.9613
 20
103.3944
 30
0.0
 10
-125.9613
 20
103.3944
 30
0.0
 10
-119.7802
 20
103.7173
 30
0.0
 10
-114.8657
 20
108.8327
 30
0.0
 10
-114.8657
 20
115.0938
 30
0.0
 10
-114.8657
 20
115.0938
 30
0.0
 10
-114.8657
 20
121.3107
 30
0.0
 10
-119.7102
 20
126.3977
 30
0.0
 10
-125.8294
 20
126.7859
 30
0.0
 10
-125.8294
 20
126.7859
 30
0.0
 10
-126.2444
 20
126.821
 30
0.0
 10
-126.574
 20
126.8758
 30
0.0
 10
-126.5815
 20
126.2709
 30
0.0
 10
-126.5815
 20
126.2709
 30
0.0
 10
-126.5815
 20
126.2709
 30
0.0
 10
-126.5815
 20
115.0938
 30
0.0
 10
-126.5815
 20
115.0938
 30
0.0
  0
SPLINE
  5
93
330
1F
100
AcDbEntity
  8
layer 1
 62
     7
100
AcDbSpline
210
0.0
220
0.0
230
1.0
 70
    11
 71
     3
 72
    28
 73
    24
 74
     0
 42
0.0000000001
 43
0.0000000001
 12
1.0
 22
0.0
 32
0.0
 13
1.0
 23
0.0
 33
0.0
 40
0.0
 40
0.0
 40
0.0
 40
0.0
 40
0.1428571428571428
 40
0.1428571428571428
 40
0.1428571428571428
 40
0.1428571428571428
 40
0.2857142857142857
 40
0.2857142857142857
 40
0.2857142857142857
 40
0.2857142857142857
 40
0.4285714285714285
 40
0.4285714285714285
 40
0.4285714285714285
 40
0.4285714285714285
 40
0.5714285714285714
 40
0.5714285714285714
 40
0.5714285714285714
 40
0.5714285714285714
 40
0.7142857142857143
 40
0.7142857142857143
 40
0.7142857142857143
 40
0.7142857142857143
 40
1.0
 40
1.0
 40
1.0
 40
1.0
 10
-129.1892
 20
115.0938
 30
0.0
 10
-129.1892
 20
115.0938
 30
0.0
 10
-129.1892
 20
103.7217
 30
0.0
 10
-129.1892
 20
103.7217
 30
0.0
 10
-129.1892
 20
103.7217
 30
0.0
 10
-129.1892
 20
103.3634
 30
0.0
 10
-129.6492
 20
103.3837
 30
0.0
 10
-129.8094
 20
103.3944
 30
0.0
 10
-129.8094
 20
103.3944
 30
0.0
 10
-135.9907
 20
103.7173
 30
0.0
 10
-140.9052
 20
108.8327
 30
0.0
 10
-140.9052
 20
115.0938
 30
0.0
 10
-140.9052
 20
115.0938
 30
0.0
 10
-140.9052
 20
121.3107
 30
0.0
 10
-136.0605
 20
126.3977
 30
0.0
 10
-129.9415
 20
126.7859
 30
0.0
 10
-129.9415
 20
126.7859
 30
0.0
 10
-129.5265
 20
126.821
 30
0.0
 10
-129.1967
 20
126.8758
 30
0.0
 10
-129.1892
 20
126.2709
 30
0.0
 10
-129.1892
 20
126.2709
 30
0.0
 10
-129.1892
 20
126.2709
 30
0.0
 10
-129.1892
 20
115.0938
 30
0.0
 10
-129.1892
 20
115.0938
 30
0.0
  0
SPLINE
  5
94
330
1F
100
AcDbEntity
  8
layer 1
 62
     7
100
AcDbSpline
210
0.0
220
0.0
230
1.0
 70
    11
 71
     3
 72
    28
 73
    24
 74
     0
 42
0.0000000001
 43
0.0000000001
 12
1.0
 22
0.0
 32
0.0
 13
1.0
 23
0.0
 33
0.0
 40
0.0
 40
0.0
 40
0.0
 40
0.0
 40
0.1428571428571428
 40
0.1428571428571428
 40
0.1428571428571428
 40
0.1428571428571428
 40
0.2857142857142857
 40
0.2857142857142857
 40
0.2857142857142857
 40
0.2857142857142857
 40
0.4285714285714285
 40
0.4285714285714285
 40
0.4285714285714285
 40
0.4285714285714285
 40
0.5714285714285714
 40
0.5714285714285714
 40
0.5714285714285714
 40
0.5714285714285714
 40
0.7142857142857143
 40
0.7142857142857143
 40
0.7142857142857143
 40
0.7142857142857143
 40
1.0
 40
1.0
 40
1.0
 40
1.0
 10
-126.5815
 20
74.1294
 30
0.0
 10
-126.5815
 20
74.1294
 30
0.0
 10
-126.5815
 20
62.7571
 30
0.0
 10
-126.5815
 20
62.7571
 30
0.0
 10
-126.5815
 20
62.7571
 30
0.0
 10
-126.5815
 20
62.399
 30
0.0
 10
-126.1215
 20
62.4191
 30
0.0
 10
-125.9613
 20
62.43
 30
0.0
 10
-125.9613
 20
62.43
 30
0.0
 10
-119.7802
 20
62.7529
 30
0.0
 10
-114.8657
 20
67.8681
 30
0.0
 10
-114.8657
 20
74.1294
 30
0.0
 10
-114.8657
 20
74.1294
 30
0.0
 10
-114.8657
 20
80.3461
 30
0.0
 10
-119.7102
 20
85.4333
 30
0.0
 10
-125.8294
 20
85.8215
 30
0.0
 10
-125.8294
 20
85.8215
 30
0.0
 10
-126.2444
 20
85.8566
 30
0.0
 10
-126.574
 20
85.9114
 30
0.0
 10
-126.5815
 20
85.3065
 30
0.0
 10
-126.5815
 20
85.3065
 30
0.0
 10
-126.5815
 20
85.3065
 30
0.0
 10
-126.5815
 20
74.1294
 30
0.0
 10
-126.5815
 20
74.1294
 30
0.0
  0
SPLINE
  5
95
330
1F
100
AcDbEntity
  8
layer 1
 62
     7
100
AcDbSpline
210
0.0
220
0.0
230
1.0
 70
    11
 71
     3
 72
    28
 73
    24
 74
     0
 42
0.0000000001
 43
0.0000000001
 12
1.0
 22
0.0
 32
0.0
 13
1.0
 23
0.0
 33
0.0
 40
0.0
 40
0.0
 40
0.0
 40
0.0
 40
0.1428571428571428
 40
0.1428571428571428
 40
0.1428571428571428
 40
0.1428571428571428
 40
0.2857142857142857
 40
0.2857142857142857
 40
0.2857142857142857
 40
0.2857142857142857
 40
0.4285714285714285
 40
0.4285714285714285
 40
0.4285714285714285
 40
0.4285714285714285
 40
0.5714285714285714
 40
0.5714285714285714
 40
0.5714285714285714
 40
0.5714285714285714
 40
0.7142857142857143
 40
0.7142857142857143
 40
0.7142857142857143
 40
0.7142857142857143
 40
1.0
 40
1.0
 40
1.0
 40
1.0
 10
-129.1892
 20
74.1294
 30
0.0
 10
-129.1892
 20
74.1294
 30
0.0
 10
-129.1892
 20
62.7571
 30
0.0
 10
-129.1892
 20
62.7571
 30
0.0
 10
-129.1892
 20
62.7571
 30
0.0
 10
-129.1892
 20
62.399
 30
0.0
 10
-129.6492
 20
62.4191
 30
0.0
 10
-129.8094
 20
62.43
 30
0.0
 10
-129.8094
 20
62.43
 30
0.0
 10
-135.9907
 20
62.7529
 30
0.0
 10
-140.9052
 20
67.8681
 30
0.0
 10
-140.9052
 20
74.1294
 30
0.0
 10
-140.9052
 20
74.1294
 30
0.0
 10
-140.9052
 20
80.3461
 30
0.0
 10
-136.0605
 20
85.4333
 30
0.0
 10
-129.9415
 20
85.8215
 30
0.0
 10
-129.9415
 20
85.8215
 30
0.0
 10
-129.5265
 20
85.8566
 30
0.0
 10
-129.1967
 20
85.9114
 30
0.0
 10
-129.1892
 20
85.3065
 30
0.0
 10
-129.1892
 20
85.3065
 30
0.0
 10
-129.1892
 20
85.3065
 30
0.0
 10
-129.1892
 20
74.1294
 30
0.0
 10
-129.1892
 20
74.1294
 30
0.0
  0
ENDSEC
  0
SECTION
  2
OBJECTS
  0
DICTIONARY
  5
C
330
0
100
AcDbDictionary
281
     1
  3
ACAD_GROUP
350
D
  3
ACAD_LAYOUT
350
1A
  3
ACAD_MATERIAL
350
3B
  3
ACAD_MLEADERSTYLE
350
B8
  3
ACAD_MLINESTYLE
350
17
  3
ACAD_PLOTSETTINGS
350
19
  3
ACAD_PLOTSTYLENAME
350
E
  3
ACAD_TABLESTYLE
350
B7
  3
ACAD_VISUALSTYLE
350
2A
  0
DICTIONARY
  5
D
102
{ACAD_REACTORS
330
C
102
}
330
C
100
AcDbDictionary
281
     1
  0
DICTIONARY
  5
1A
102
{ACAD_REACTORS
330
C
102
}
330
C
100
AcDbDictionary
281
     1
  3
Layout1
350
1E
  3
Layout2
350
26
  3
Model
350
22
  0
DICTIONARY
  5
3B
102
{ACAD_REACTORS
330
C
102
}
330
C
100
AcDbDictionary
281
     1
  3
ByBlock
350
3D
  3
ByLayer
350
3C
  3
Global
350
3E
  0
DICTIONARY
  5
B8
102
{ACAD_REACTORS
330
C
102
}
330
C
100
AcDbDictionary
281
     1
  0
DICTIONARY
  5
17
102
{ACAD_REACTORS
330
C
102
}
330
C
100
AcDbDictionary
281
     1
  3
Standard
350
18
  0
DICTIONARY
  5
19
102
{ACAD_REACTORS
330
C
102
}
330
C
100
AcDbDictionary
281
     1
  0
ACDBDICTIONARYWDFLT
  5
E
102
{ACAD_REACTORS
330
C
102
}
330
C
100
AcDbDictionary
281
     1
  3
Normal
350
F
100
AcDbDictionaryWithDefault
340
F
  0
DICTIONARY
  5
B7
102
{ACAD_REACTORS
330
C
102
}
330
C
100
AcDbDictionary
281
     1
  0
DICTIONARY
  5
2A
102
{ACAD_REACTORS
330
C
102
}
330
C
100
AcDbDictionary
281
     1
  3
2dWireframe
350
2F
  3
3D Hidden
350
31
  3
3dWireframe
350
30
  3
Basic
350
32
  3
Brighten
350
36
  3
ColorChange
350
3A
  3
Conceptual
350
34
  3
Dim
350
35
  3
Facepattern
350
39
  3
Flat
350
2B
  3
FlatWithEdges
350
2C
  3
Gouraud
350
2D
  3
GouraudWithEdges
350
2E
  3
Linepattern
350
38
  3
Realistic
350
33
  3
Thicken
350
37
  0
LAYOUT
  5
1E
102
{ACAD_REACTORS
330
1A
102
}
330
1A
100
AcDbPlotSettings
  1

  2
none_device
  4

  6

 40
0.0
 41
0.0
 42
0.0
 43
0.0
 44
0.0
 45
0.0
 46
0.0
 47
0.0
 48
0.0
 49
0.0
140
0.0
141
0.0
142
1.0
143
1.0
 70
   688
 72
     0
 73
     0
 74
     5
  7

 75
    16
 76
     0
 77
     2
 78
   300
147
1.0
148
0.0
149
0.0
100
AcDbLayout
  1
Layout1
 70
     1
 71
     1
 10
0.0
 20
0.0
 11
12.0
 21
9.0
 12
0.0
 22
0.0
 32
0.0
 14
1.000000000000000E+20
 24
1.000000000000000E+20
 34
1.000000000000000E+20
 15
-1.000000000000000E+20
 25
-1.000000000000000E+20
 35
-1.000000000000000E+20
146
0.0
 13
0.0
 23
0.0
 33
0.0
 16
1.0
 26
0.0
 36
0.0
 17
0.0
 27
1.0
 37
0.0
 76
     0
330
1B
  0
LAYOUT
  5
26
102
{ACAD_REACTORS
330
1A
102
}
330
1A
100
AcDbPlotSettings
  1

  2
none_device
  4

  6

 40
0.0
 41
0.0
 42
0.0
 43
0.0
 44
0.0
 45
0.0
 46
0.0
 47
0.0
 48
0.0
 49
0.0
140
0.0
141
0.0
142
1.0
143
1.0
 70
   688
 72
     0
 73
     0
 74
     5
  7

 75
    16
 76
     0
 77
     2
 78
   300
147
1.0
148
0.0
149
0.0
100
AcDbLayout
  1
Layout2
 70
     1
 71
     2
 10
0.0
 20
0.0
 11
0.0
 21
0.0
 12
0.0
 22
0.0
 32
0.0
 14
0.0
 24
0.0
 34
0.0
 15
0.0
 25
0.0
 35
0.0
146
0.0
 13
0.0
 23
0.0
 33
0.0
 16
1.0
 26
0.0
 36
0.0
 17
0.0
 27
1.0
 37
0.0
 76
     0
330
23
  0
LAYOUT
  5
22
102
{ACAD_REACTORS
330
1A
102
}
330
1A
100
AcDbPlotSettings
  1

  2
none_device
  4

  6

 40
0.0
 41
0.0
 42
0.0
 43
0.0
 44
0.0
 45
0.0
 46
0.0
 47
0.0
 48
0.0
 49
0.0
140
0.0
141
0.0
142
1.0
143
1.0
 70
  1712
 72
     0
 73
     0
 74
     0
  7

 75
     0
 76
     0
 77
     2
 78
   300
147
1.0
148
0.0
149
0.0
100
AcDbLayout
  1
Model
 70
     1
 71
     0
 10
0.0
 20
0.0
 11
12.0
 21
9.0
 12
0.0
 22
0.0
 32
0.0
 14
-187.1438
 24
-106.6867
 34
0.0
 15
-68.6515
 25
131.5863
 35
0.0
146
0.0
 13
0.0
 23
0.0
 33
0.0
 16
1.0
 26
0.0
 36
0.0
 17
0.0
 27
1.0
 37
0.0
 76
     0
330
1F
331
29
  0
MATERIAL
  5
3D
102
{ACAD_REACTORS
330
3B
102
}
330
3B
100
AcDbMaterial
  1
ByBlock
 72
     1
 94
      127
  0
MATERIAL
  5
3C
102
{ACAD_REACTORS
330
3B
102
}
330
3B
100
AcDbMaterial
  1
ByLayer
 72
     1
 94
      127
  0
MATERIAL
  5
3E
102
{ACAD_REACTORS
330
3B
102
}
330
3B
100
AcDbMaterial
  1
Global
 72
     1
 94
      127
  0
MLINESTYLE
  5
18
102
{ACAD_REACTORS
330
17
102
}
330
17
100
AcDbMlineStyle
  2
Standard
 70
     0
  3

 62
   256
 51
90.0
 52
90.0
 71
     2
 49
0.5
 62
   256
  6
BYLAYER
 49
-0.5
 62
   256
  6
BYLAYER
  0
ACDBPLACEHOLDER
  5
F
102
{ACAD_REACTORS
330
E
102
}
330
E
  0
VISUALSTYLE
  5
2F
102
{ACAD_REACTORS
330
2A
102
}
102
{ACAD_XDICTIONARY
360
9F
102
}
330
2A
100
AcDbVisualStyle
  2
2dWireframe
 70
     4
 71
     0
 72
     2
 73
     0
 90
        0
 40
-0.6
 41
-30.0
 62
     5
 63
     7
421
 16777215
 74
     1
 91
        4
 64
     7
 65
   257
 75
     1
175
     1
 42
1.0
 92
        0
 66
   257
 43
1.0
 76
     1
 77
     6
 78
     2
 67
     7
 79
     5
170
     0
171
     0
290
     0
174
     0
 93
        1
 44
0.0
173
     0
291
     0
 45
0.0
  0
VISUALSTYLE
  5
31
102
{ACAD_REACTORS
330
2A
102
}
102
{ACAD_XDICTIONARY
360
A3
102
}
330
2A
100
AcDbVisualStyle
  2
3D Hidden
 70
     6
 71
     1
 72
     2
 73
     2
 90
        0
 40
-0.6
 41
-30.0
 62
     5
 63
     7
421
 16777215
 74
     2
 91
        2
 64
     7
 65
   257
 75
     2
175
     1
 42
40.0
 92
        0
 66
   257
 43
1.0
 76
     1
 77
     6
 78
     2
 67
     7
 79
     3
170
     0
171
     0
290
     0
174
     0
 93
        1
 44
0.0
173
     0
291
     0
 45
0.0
  0
VISUALSTYLE
  5
30
102
{ACAD_REACTORS
330
2A
102
}
102
{ACAD_XDICTIONARY
360
A1
102
}
330
2A
100
AcDbVisualStyle
  2
3dWireframe
 70
     5
 71
     0
 72
     2
 73
     0
 90
        0
 40
-0.6
 41
-30.0
 62
     5
 63
     7
421
 16777215
 74
     1
 91
        4
 64
     7
 65
   257
 75
     1
175
     1
 42
1.0
 92
        0
 66
   257
 43
1.0
 76
     1
 77
     6
 78
     2
 67
     7
 79
     5
170
     0
171
     0
290
     0
174
     0
 93
        1
 44
0.0
173
     0
291
     0
 45
0.0
  0
VISUALSTYLE
  5
32
102
{ACAD_REACTORS
330
2A
102
}
102
{ACAD_XDICTIONARY
360
A5
102
}
330
2A
100
AcDbVisualStyle
  2
Basic
 70
     7
 71
     1
 72
     0
 73
     1
 90
        0
 40
-0.6
 41
-30.0
 62
     5
 63
     7
421
 16777215
 74
     0
 91
        4
 64
     7
 65
   257
 75
     1
175
     1
 42
1.0
 92
        8
 66
     7
 43
1.0
 76
     1
 77
     6
 78
     2
 67
     7
 79
     5
170
     0
171
     0
290
     0
174
     0
 93
        1
 44
0.0
173
     0
291
     1
 45
0.0
  0
VISUALSTYLE
  5
36
102
{ACAD_REACTORS
330
2A
102
}
102
{ACAD_XDICTIONARY
360
AD
102
}
330
2A
100
AcDbVisualStyle
  2
Brighten
 70
    12
 71
     2
 72
     2
 73
     0
 90
        0
 40
-0.6
 41
-30.0
 62
     5
 63
     7
421
 16777215
 74
     1
 91
        4
 64
     7
 65
   257
 75
     1
175
     1
 42
1.0
 92
        8
 66
     7
 43
1.0
 76
     1
 77
     6
 78
     2
 67
     7
 79
     5
170
     0
171
     0
290
     0
174
     0
 93
        1
 44
50.0
173
     0
291
     1
 45
0.0
  0
VISUALSTYLE
  5
3A
102
{ACAD_REACTORS
330
2A
102
}
102
{ACAD_XDICTIONARY
360
B5
102
}
330
2A
100
AcDbVisualStyle
  2
ColorChange
 70
    16
 71
     2
 72
     2
 73
     3
 90
        0
 40
-0.6
 41
-30.0
 62
     5
 63
     8
421
  8421504
 74
     1
 91
        4
 64
     7
 65
   257
 75
     1
175
     1
 42
1.0
 92
        8
 66
     8
424
  8421504
 43
1.0
 76
     1
 77
     6
 78
     2
 67
     7
 79
     5
170
     0
171
     0
290
     0
174
     0
 93
        1
 44
0.0
173
     0
291
     1
 45
0.0
  0
VISUALSTYLE
  5
34
102
{ACAD_REACTORS
330
2A
102
}
102
{ACAD_XDICTIONARY
360
A9
102
}
330
2A
100
AcDbVisualStyle
  2
Conceptual
 70
     9
 71
     3
 72
     2
 73
     0
 90
        0
 40
-0.6
 41
-30.0
 62
     5
 63
     7
421
 16777215
 74
     2
 91
        2
 64
     7
 65
   257
 75
     1
175
     1
 42
40.0
 92
        8
 66
     7
 43
1.0
 76
     1
 77
     6
 78
     2
 67
     7
 79
     3
170
     0
171
     0
290
     0
174
     0
 93
        1
 44
0.0
173
     0
291
     0
 45
0.0
  0
VISUALSTYLE
  5
35
102
{ACAD_REACTORS
330
2A
102
}
102
{ACAD_XDICTIONARY
360
AB
102
}
330
2A
100
AcDbVisualStyle
  2
Dim
 70
    11
 71
     2
 72
     2
 73
     0
 90
        0
 40
-0.6
 41
-30.0
 62
     5
 63
     7
421
 16777215
 74
     1
 91
        4
 64
     7
 65
   257
 75
     1
175
     1
 42
1.0
 92
        8
 66
     7
 43
1.0
 76
     1
 77
     6
 78
     2
 67
     7
 79
     5
170
     0
171
     0
290
     0
174
     0
 93
        1
 44
-50.0
173
     0
291
     1
 45
0.0
  0
VISUALSTYLE
  5
39
102
{ACAD_REACTORS
330
2A
102
}
102
{ACAD_XDICTIONARY
360
B3
102
}
330
2A
100
AcDbVisualStyle
  2
Facepattern
 70
    15
 71
     2
 72
     2
 73
     0
 90
        0
 40
-0.6
 41
-30.0
 62
     5
 63
     7
421
 16777215
 74
     1
 91
        4
 64
     7
 65
   257
 75
     1
175
     1
 42
1.0
 92
        8
 66
     7
 43
1.0
 76
     1
 77
     6
 78
     2
 67
     7
 79
     5
170
     0
171
     0
290
     0
174
     0
 93
        1
 44
0.0
173
     0
291
     1
 45
0.0
  0
VISUALSTYLE
  5
2B
102
{ACAD_REACTORS
330
2A
102
}
102
{ACAD_XDICTIONARY
360
97
102
}
330
2A
100
AcDbVisualStyle
  2
Flat
 70
     0
 71
     2
 72
     1
 73
     1
 90
        2
 40
-0.6
 41
30.0
 62
     5
 63
     7
421
 16777215
 74
     0
 91
        4
 64
     7
 65
   257
 75
     1
175
     1
 42
1.0
 92
        8
 66
     7
 43
1.0
 76
     1
 77
     6
 78
     2
 67
     7
 79
     5
170
     0
171
     0
290
     0
174
     0
 93
       13
 44
0.0
173
     0
291
     1
 45
0.0
  0
VISUALSTYLE
  5
2C
102
{ACAD_REACTORS
330
2A
102
}
102
{ACAD_XDICTIONARY
360
99
102
}
330
2A
100
AcDbVisualStyle
  2
FlatWithEdges
 70
     1
 71
     2
 72
     1
 73
     1
 90
        2
 40
-0.6
 41
30.0
 62
     5
 63
     7
421
 16777215
 74
     1
 91
        4
 64
     7
 65
   257
 75
     1
175
     1
 42
1.0
 92
        0
 66
   257
 43
1.0
 76
     1
 77
     6
 78
     2
 67
     7
 79
     5
170
     0
171
     0
290
     0
174
     0
 93
       13
 44
0.0
173
     0
291
     1
 45
0.0
  0
VISUALSTYLE
  5
2D
102
{ACAD_REACTORS
330
2A
102
}
102
{ACAD_XDICTIONARY
360
9B
102
}
330
2A
100
AcDbVisualStyle
  2
Gouraud
 70
     2
 71
     2
 72
     2
 73
     1
 90
        2
 40
-0.6
 41
30.0
 62
     5
 63
     7
421
 16777215
 74
     0
 91
        4
 64
     7
 65
   257
 75
     1
175
     1
 42
1.0
 92
        0
 66
     7
 43
1.0
 76
     1
 77
     6
 78
     2
 67
     7
 79
     5
170
     0
171
     0
290
     0
174
     0
 93
       13
 44
0.0
173
     0
291
     1
 45
0.0
  0
VISUALSTYLE
  5
2E
102
{ACAD_REACTORS
330
2A
102
}
102
{ACAD_XDICTIONARY
360
9D
102
}
330
2A
100
AcDbVisualStyle
  2
GouraudWithEdges
 70
     3
 71
     2
 72
     2
 73
     1
 90
        2
 40
-0.6
 41
30.0
 62
     5
 63
     7
421
 16777215
 74
     1
 91
        4
 64
     7
 65
   257
 75
     1
175
     1
 42
1.0
 92
        0
 66
   257
 43
1.0
 76
     1
 77
     6
 78
     2
 67
     7
 79
     5
170
     0
171
     0
290
     0
174
     0
 93
       13
 44
0.0
173
     0
291
     1
 45
0.0
  0
VISUALSTYLE
  5
38
102
{ACAD_REACTORS
330
2A
102
}
102
{ACAD_XDICTIONARY
360
B1
102
}
330
2A
100
AcDbVisualStyle
  2
Linepattern
 70
    14
 71
     2
 72
     2
 73
     0
 90
        0
 40
-0.6
 41
-30.0
 62
     5
 63
     7
421
 16777215
 74
     1
 91
        4
 64
     7
 65
   257
 75
     7
175
     7
 42
1.0
 92
        8
 66
     7
 43
1.0
 76
     1
 77
     6
 78
     2
 67
     7
 79
     5
170
     0
171
     0
290
     0
174
     0
 93
        1
 44
0.0
173
     0
291
     1
 45
0.0
  0
VISUALSTYLE
  5
33
102
{ACAD_REACTORS
330
2A
102
}
102
{ACAD_XDICTIONARY
360
A7
102
}
330
2A
100
AcDbVisualStyle
  2
Realistic
 70
     8
 71
     2
 72
     2
 73
     0
 90
        0
 40
-0.6
 41
-30.0
 62
     5
 63
     7
421
 16777215
 74
     1
 91
        0
 64
     7
 65
   257
 75
     1
175
     1
 42
1.0
 92
        8
 66
     8
424
  7895160
 43
1.0
 76
     1
 77
     6
 78
     2
 67
     7
 79
     5
170
     0
171
     0
290
     0
174
     0
 93
       13
 44
0.0
173
     0
291
     0
 45
0.0
  0
VISUALSTYLE
  5
37
102
{ACAD_REACTORS
330
2A
102
}
102
{ACAD_XDICTIONARY
360
AF
102
}
330
2A
100
AcDbVisualStyle
  2
Thicken
 70
    13
 71
     2
 72
     2
 73
     0
 90
        0
 40
-0.6
 41
-30.0
 62
     5
 63
     7
421
 16777215
 74
     1
 91
        4
 64
     7
 65
   257
 75
     1
175
     1
 42
1.0
 92
       12
 66
     7
 43
1.0
 76
     1
 77
     6
 78
     2
 67
     7
 79
     5
170
     0
171
     0
290
     0
174
     0
 93
        1
 44
0.0
173
     0
291
     1
 45
0.0
  0
DICTIONARY
  5
9F
330
2F
100
AcDbDictionary
280
     1
281
     1
  3
ACAD_XREC_ROUNDTRIP
360
A0
  0
DICTIONARY
  5
A3
330
31
100
AcDbDictionary
280
     1
281
     1
  3
ACAD_XREC_ROUNDTRIP
360
A4
  0
DICTIONARY
  5
A1
330
30
100
AcDbDictionary
280
     1
281
     1
  3
ACAD_XREC_ROUNDTRIP
360
A2
  0
DICTIONARY
  5
A5
330
32
100
AcDbDictionary
280
     1
281
     1
  3
ACAD_XREC_ROUNDTRIP
360
A6
  0
DICTIONARY
  5
AD
330
36
100
AcDbDictionary
280
     1
281
     1
  3
ACAD_XREC_ROUNDTRIP
360
AE
  0
DICTIONARY
  5
B5
330
3A
100
AcDbDictionary
280
     1
281
     1
  3
ACAD_XREC_ROUNDTRIP
360
B6
  0
DICTIONARY
  5
A9
330
34
100
AcDbDictionary
280
     1
281
     1
  3
ACAD_XREC_ROUNDTRIP
360
AA
  0
DICTIONARY
  5
AB
330
35
100
AcDbDictionary
280
     1
281
     1
  3
ACAD_XREC_ROUNDTRIP
360
AC
  0
DICTIONARY
  5
B3
330
39
100
AcDbDictionary
280
     1
281
     1
  3
ACAD_XREC_ROUNDTRIP
360
B4
  0
DICTIONARY
  5
97
330
2B
100
AcDbDictionary
280
     1
281
     1
  3
ACAD_XREC_ROUNDTRIP
360
98
  0
DICTIONARY
  5
99
330
2C
100
AcDbDictionary
280
     1
281
     1
  3
ACAD_XREC_ROUNDTRIP
360
9A
  0
DICTIONARY
  5
9B
330
2D
100
AcDbDictionary
280
     1
281
     1
  3
ACAD_XREC_ROUNDTRIP
360
9C
  0
DICTIONARY
  5
9D
330
2E
100
AcDbDictionary
280
     1
281
     1
  3
ACAD_XREC_ROUNDTRIP
360
9E
  0
DICTIONARY
  5
B1
330
38
100
AcDbDictionary
280
     1
281
     1
  3
ACAD_XREC_ROUNDTRIP
360
B2
  0
DICTIONARY
  5
A7
330
33
100
AcDbDictionary
280
     1
281
     1
  3
ACAD_XREC_ROUNDTRIP
360
A8
  0
DICTIONARY
  5
AF
330
37
100
AcDbDictionary
280
     1
281
     1
  3
ACAD_XREC_ROUNDTRIP
360
B0
  0
XRECORD
  5
A0
102
{ACAD_REACTORS
330
9F
102
}
330
9F
100
AcDbXrecord
280
     1
102
RTVSPropertyOp0
 70
     1
102
RTVSPropertyOp1
 70
     1
102
RTVSPropertyOp2
 70
     1
102
RTVSPropertyOp3
 70
     1
102
RTVSPropertyOp4
 70
     1
102
RTVSPropertyOp5
 70
     1
102
RTVSPropertyOp6
 70
     1
102
RTVSPropertyOp7
 70
     1
102
RTVSPropertyOp8
 70
     1
102
RTVSPropertyOp9
 70
     1
102
RTVSPropertyOp10
 70
     1
102
RTVSPropertyOp11
 70
     1
102
RTVSPropertyOp12
 70
     1
102
RTVSPropertyOp13
 70
     1
102
RTVSPropertyOp14
 70
     1
102
RTVSPropertyOp15
 70
     1
102
RTVSPropertyOp16
 70
     1
102
RTVSPropertyOp17
 70
     1
102
RTVSPropertyOp18
 70
     1
102
RTVSPropertyOp19
 70
     1
102
RTVSPropertyOp20
 70
     1
102
RTVSPropertyOp21
 70
     1
102
RTVSPropertyOp22
 70
     1
102
RTVSPropertyOp23
 70
     1
102
RTVSPropertyOp24
 70
     1
102
RTVSPropertyOp25
 70
     1
102
RTVSPropertyOp26
 70
     1
102
RTVSPropertyOp27
 70
     1
102
RTVSPropertyOp28
 70
     1
102
RTVSPropertyOp29
 70
     1
102
RTVSPropertyOp30
 70
     1
102
RTVSPropertyOp31
 70
     1
102
RTVSPropertyOp32
 70
     1
  0
XRECORD
  5
A4
102
{ACAD_REACTORS
330
A3
102
}
330
A3
100
AcDbXrecord
280
     1
102
RTVSPropertyOp0
 70
     1
102
RTVSPropertyOp1
 70
     1
102
RTVSPropertyOp2
 70
     1
102
RTVSPropertyOp3
 70
     1
102
RTVSPropertyOp4
 70
     1
102
RTVSPropertyOp5
 70
     1
102
RTVSPropertyOp6
 70
     1
102
RTVSPropertyOp7
 70
     1
102
RTVSPropertyOp8
 70
     1
102
RTVSPropertyOp9
 70
     1
102
RTVSPropertyOp10
 70
     1
102
RTVSPropertyOp11
 70
     1
102
RTVSPropertyOp12
 70
     1
102
RTVSPropertyOp13
 70
     1
102
RTVSPropertyOp14
 70
     1
102
RTVSPropertyOp15
 70
     1
102
RTVSPropertyOp16
 70
     1
102
RTVSPropertyOp17
 70
     1
102
RTVSPropertyOp18
 70
     1
102
RTVSPropertyOp19
 70
     1
102
RTVSPropertyOp20
 70
     1
102
RTVSPropertyOp21
 70
     1
102
RTVSPropertyOp22
 70
     1
102
RTVSPropertyOp23
 70
     1
102
RTVSPropertyOp24
 70
     1
102
RTVSPropertyOp25
 70
     1
102
RTVSPropertyOp26
 70
     1
102
RTVSPropertyOp27
 70
     1
102
RTVSPropertyOp28
 70
     1
102
RTVSPropertyOp29
 70
     1
102
RTVSPropertyOp30
 70
     1
102
RTVSPropertyOp31
 70
     1
102
RTVSPropertyOp32
 70
     1
  0
XRECORD
  5
A2
102
{ACAD_REACTORS
330
A1
102
}
330
A1
100
AcDbXrecord
280
     1
102
RTVSPropertyOp0
 70
     1
102
RTVSPropertyOp1
 70
     1
102
RTVSPropertyOp2
 70
     1
102
RTVSPropertyOp3
 70
     1
102
RTVSPropertyOp4
 70
     1
102
RTVSPropertyOp5
 70
     1
102
RTVSPropertyOp6
 70
     1
102
RTVSPropertyOp7
 70
     1
102
RTVSPropertyOp8
 70
     1
102
RTVSPropertyOp9
 70
     1
102
RTVSPropertyOp10
 70
     1
102
RTVSPropertyOp11
 70
     1
102
RTVSPropertyOp12
 70
     1
102
RTVSPropertyOp13
 70
     1
102
RTVSPropertyOp14
 70
     1
102
RTVSPropertyOp15
 70
     1
102
RTVSPropertyOp16
 70
     1
102
RTVSPropertyOp17
 70
     1
102
RTVSPropertyOp18
 70
     1
102
RTVSPropertyOp19
 70
     1
102
RTVSPropertyOp20
 70
     1
102
RTVSPropertyOp21
 70
     1
102
RTVSPropertyOp22
 70
     1
102
RTVSPropertyOp23
 70
     1
102
RTVSPropertyOp24
 70
     1
102
RTVSPropertyOp25
 70
     1
102
RTVSPropertyOp26
 70
     1
102
RTVSPropertyOp27
 70
     1
102
RTVSPropertyOp28
 70
     1
102
RTVSPropertyOp29
 70
     1
102
RTVSPropertyOp30
 70
     1
102
RTVSPropertyOp31
 70
     1
102
RTVSPropertyOp32
 70
     1
  0
XRECORD
  5
A6
102
{ACAD_REACTORS
330
A5
102
}
330
A5
100
AcDbXrecord
280
     1
102
RTVSPropertyOp0
 70
     1
102
RTVSPropertyOp1
 70
     1
102
RTVSPropertyOp2
 70
     1
102
RTVSPropertyOp3
 70
     1
102
RTVSPropertyOp4
 70
     1
102
RTVSPropertyOp5
 70
     1
102
RTVSPropertyOp6
 70
     1
102
RTVSPropertyOp7
 70
     1
102
RTVSPropertyOp8
 70
     1
102
RTVSPropertyOp9
 70
     1
102
RTVSPropertyOp10
 70
     1
102
RTVSPropertyOp11
 70
     1
102
RTVSPropertyOp12
 70
     1
102
RTVSPropertyOp13
 70
     1
102
RTVSPropertyOp14
 70
     1
102
RTVSPropertyOp15
 70
     1
102
RTVSPropertyOp16
 70
     1
102
RTVSPropertyOp17
 70
     1
102
RTVSPropertyOp18
 70
     1
102
RTVSPropertyOp19
 70
     1
102
RTVSPropertyOp20
 70
     1
102
RTVSPropertyOp21
 70
     1
102
RTVSPropertyOp22
 70
     1
102
RTVSPropertyOp23
 70
     1
102
RTVSPropertyOp24
 70
     1
102
RTVSPropertyOp25
 70
     1
102
RTVSPropertyOp26
 70
     1
102
RTVSPropertyOp27
 70
     1
102
RTVSPropertyOp28
 70
     1
102
RTVSPropertyOp29
 70
     1
102
RTVSPropertyOp30
 70
     1
102
RTVSPropertyOp31
 70
     1
102
RTVSPropertyOp32
 70
     1
  0
XRECORD
  5
AE
102
{ACAD_REACTORS
330
AD
102
}
330
AD
100
AcDbXrecord
280
     1
102
RTVSPropertyOp0
 70
     1
102
RTVSPropertyOp1
 70
     1
102
RTVSPropertyOp2
 70
     1
102
RTVSPropertyOp3
 70
     1
102
RTVSPropertyOp4
 70
     1
102
RTVSPropertyOp5
 70
     1
102
RTVSPropertyOp6
 70
     1
102
RTVSPropertyOp7
 70
     1
102
RTVSPropertyOp8
 70
     1
102
RTVSPropertyOp9
 70
     1
102
RTVSPropertyOp10
 70
     1
102
RTVSPropertyOp11
 70
     1
102
RTVSPropertyOp12
 70
     1
102
RTVSPropertyOp13
 70
     1
102
RTVSPropertyOp14
 70
     1
102
RTVSPropertyOp15
 70
     1
102
RTVSPropertyOp16
 70
     1
102
RTVSPropertyOp17
 70
     1
102
RTVSPropertyOp18
 70
     1
102
RTVSPropertyOp19
 70
     1
102
RTVSPropertyOp20
 70
     1
102
RTVSPropertyOp21
 70
     1
102
RTVSPropertyOp22
 70
     1
102
RTVSPropertyOp23
 70
     1
102
RTVSPropertyOp24
 70
     1
102
RTVSPropertyOp25
 70
     1
102
RTVSPropertyOp26
 70
     1
102
RTVSPropertyOp27
 70
     1
102
RTVSPropertyOp28
 70
     1
102
RTVSPropertyOp29
 70
     1
102
RTVSPropertyOp30
 70
     1
102
RTVSPropertyOp31
 70
     1
102
RTVSPropertyOp32
 70
     1
  0
XRECORD
  5
B6
102
{ACAD_REACTORS
330
B5
102
}
330
B5
100
AcDbXrecord
280
     1
102
RTVSPropertyOp0
 70
     1
102
RTVSPropertyOp1
 70
     1
102
RTVSPropertyOp2
 70
     1
102
RTVSPropertyOp3
 70
     1
102
RTVSPropertyOp4
 70
     1
102
RTVSPropertyOp5
 70
     1
102
RTVSPropertyOp6
 70
     1
102
RTVSPropertyOp7
 70
     1
102
RTVSPropertyOp8
 70
     1
102
RTVSPropertyOp9
 70
     1
102
RTVSPropertyOp10
 70
     1
102
RTVSPropertyOp11
 70
     1
102
RTVSPropertyOp12
 70
     1
102
RTVSPropertyOp13
 70
     1
102
RTVSPropertyOp14
 70
     1
102
RTVSPropertyOp15
 70
     1
102
RTVSPropertyOp16
 70
     1
102
RTVSPropertyOp17
 70
     1
102
RTVSPropertyOp18
 70
     1
102
RTVSPropertyOp19
 70
     1
102
RTVSPropertyOp20
 70
     1
102
RTVSPropertyOp21
 70
     1
102
RTVSPropertyOp22
 70
     1
102
RTVSPropertyOp23
 70
     1
102
RTVSPropertyOp24
 70
     1
102
RTVSPropertyOp25
 70
     1
102
RTVSPropertyOp26
 70
     1
102
RTVSPropertyOp27
 70
     1
102
RTVSPropertyOp28
 70
     1
102
RTVSPropertyOp29
 70
     1
102
RTVSPropertyOp30
 70
     1
102
RTVSPropertyOp31
 70
     1
102
RTVSPropertyOp32
 70
     1
  0
XRECORD
  5
AA
102
{ACAD_REACTORS
330
A9
102
}
330
A9
100
AcDbXrecord
280
     1
102
RTVSPropertyOp0
 70
     1
102
RTVSPropertyOp1
 70
     1
102
RTVSPropertyOp2
 70
     1
102
RTVSPropertyOp3
 70
     1
102
RTVSPropertyOp4
 70
     1
102
RTVSPropertyOp5
 70
     1
102
RTVSPropertyOp6
 70
     1
102
RTVSPropertyOp7
 70
     1
102
RTVSPropertyOp8
 70
     1
102
RTVSPropertyOp9
 70
     1
102
RTVSPropertyOp10
 70
     1
102
RTVSPropertyOp11
 70
     1
102
RTVSPropertyOp12
 70
     1
102
RTVSPropertyOp13
 70
     1
102
RTVSPropertyOp14
 70
     1
102
RTVSPropertyOp15
 70
     1
102
RTVSPropertyOp16
 70
     1
102
RTVSPropertyOp17
 70
     1
102
RTVSPropertyOp18
 70
     1
102
RTVSPropertyOp19
 70
     1
102
RTVSPropertyOp20
 70
     1
102
RTVSPropertyOp21
 70
     1
102
RTVSPropertyOp22
 70
     1
102
RTVSPropertyOp23
 70
     1
102
RTVSPropertyOp24
 70
     1
102
RTVSPropertyOp25
 70
     1
102
RTVSPropertyOp26
 70
     1
102
RTVSPropertyOp27
 70
     1
102
RTVSPropertyOp28
 70
     1
102
RTVSPropertyOp29
 70
     1
102
RTVSPropertyOp30
 70
     1
102
RTVSPropertyOp31
 70
     1
102
RTVSPropertyOp32
 70
     1
  0
XRECORD
  5
AC
102
{ACAD_REACTORS
330
AB
102
}
330
AB
100
AcDbXrecord
280
     1
102
RTVSPropertyOp0
 70
     1
102
RTVSPropertyOp1
 70
     1
102
RTVSPropertyOp2
 70
     1
102
RTVSPropertyOp3
 70
     1
102
RTVSPropertyOp4
 70
     1
102
RTVSPropertyOp5
 70
     1
102
RTVSPropertyOp6
 70
     1
102
RTVSPropertyOp7
 70
     1
102
RTVSPropertyOp8
 70
     1
102
RTVSPropertyOp9
 70
     1
102
RTVSPropertyOp10
 70
     1
102
RTVSPropertyOp11
 70
     1
102
RTVSPropertyOp12
 70
     1
102
RTVSPropertyOp13
 70
     1
102
RTVSPropertyOp14
 70
     1
102
RTVSPropertyOp15
 70
     1
102
RTVSPropertyOp16
 70
     1
102
RTVSPropertyOp17
 70
     1
102
RTVSPropertyOp18
 70
     1
102
RTVSPropertyOp19
 70
     1
102
RTVSPropertyOp20
 70
     1
102
RTVSPropertyOp21
 70
     1
102
RTVSPropertyOp22
 70
     1
102
RTVSPropertyOp23
 70
     1
102
RTVSPropertyOp24
 70
     1
102
RTVSPropertyOp25
 70
     1
102
RTVSPropertyOp26
 70
     1
102
RTVSPropertyOp27
 70
     1
102
RTVSPropertyOp28
 70
     1
102
RTVSPropertyOp29
 70
     1
102
RTVSPropertyOp30
 70
     1
102
RTVSPropertyOp31
 70
     1
102
RTVSPropertyOp32
 70
     1
  0
XRECORD
  5
B4
102
{ACAD_REACTORS
330
B3
102
}
330
B3
100
AcDbXrecord
280
     1
102
RTVSPropertyOp0
 70
     1
102
RTVSPropertyOp1
 70
     1
102
RTVSPropertyOp2
 70
     1
102
RTVSPropertyOp3
 70
     1
102
RTVSPropertyOp4
 70
     1
102
RTVSPropertyOp5
 70
     1
102
RTVSPropertyOp6
 70
     1
102
RTVSPropertyOp7
 70
     1
102
RTVSPropertyOp8
 70
     1
102
RTVSPropertyOp9
 70
     1
102
RTVSPropertyOp10
 70
     1
102
RTVSPropertyOp11
 70
     1
102
RTVSPropertyOp12
 70
     1
102
RTVSPropertyOp13
 70
     1
102
RTVSPropertyOp14
 70
     1
102
RTVSPropertyOp15
 70
     1
102
RTVSPropertyOp16
 70
     1
102
RTVSPropertyOp17
 70
     1
102
RTVSPropertyOp18
 70
     1
102
RTVSPropertyOp19
 70
     1
102
RTVSPropertyOp20
 70
     1
102
RTVSPropertyOp21
 70
     1
102
RTVSPropertyOp22
 70
     1
102
RTVSPropertyOp23
 70
     1
102
RTVSPropertyOp24
 70
     1
102
RTVSPropertyOp25
 70
     1
102
RTVSPropertyOp26
 70
     1
102
RTVSPropertyOp27
 70
     1
102
RTVSPropertyOp28
 70
     1
102
RTVSPropertyOp29
 70
     1
102
RTVSPropertyOp30
 70
     1
102
RTVSPropertyOp31
 70
     1
102
RTVSPropertyOp32
 70
     1
  0
XRECORD
  5
98
102
{ACAD_REACTORS
330
97
102
}
330
97
100
AcDbXrecord
280
     1
102
RTVSPropertyOp0
 70
     1
102
RTVSPropertyOp1
 70
     1
102
RTVSPropertyOp2
 70
     1
102
RTVSPropertyOp3
 70
     1
102
RTVSPropertyOp4
 70
     1
102
RTVSPropertyOp5
 70
     1
102
RTVSPropertyOp6
 70
     1
102
RTVSPropertyOp7
 70
     1
102
RTVSPropertyOp8
 70
     1
102
RTVSPropertyOp9
 70
     1
102
RTVSPropertyOp10
 70
     1
102
RTVSPropertyOp11
 70
     1
102
RTVSPropertyOp12
 70
     1
102
RTVSPropertyOp13
 70
     1
102
RTVSPropertyOp14
 70
     1
102
RTVSPropertyOp15
 70
     1
102
RTVSPropertyOp16
 70
     1
102
RTVSPropertyOp17
 70
     1
102
RTVSPropertyOp18
 70
     1
102
RTVSPropertyOp19
 70
     1
102
RTVSPropertyOp20
 70
     1
102
RTVSPropertyOp21
 70
     1
102
RTVSPropertyOp22
 70
     1
102
RTVSPropertyOp23
 70
     1
102
RTVSPropertyOp24
 70
     1
102
RTVSPropertyOp25
 70
     1
102
RTVSPropertyOp26
 70
     1
102
RTVSPropertyOp27
 70
     1
102
RTVSPropertyOp28
 70
     1
102
RTVSPropertyOp29
 70
     1
102
RTVSPropertyOp30
 70
     1
102
RTVSPropertyOp31
 70
     1
102
RTVSPropertyOp32
 70
     1
  0
XRECORD
  5
9A
102
{ACAD_REACTORS
330
99
102
}
330
99
100
AcDbXrecord
280
     1
102
RTVSPropertyOp0
 70
     1
102
RTVSPropertyOp1
 70
     1
102
RTVSPropertyOp2
 70
     1
102
RTVSPropertyOp3
 70
     1
102
RTVSPropertyOp4
 70
     1
102
RTVSPropertyOp5
 70
     1
102
RTVSPropertyOp6
 70
     1
102
RTVSPropertyOp7
 70
     1
102
RTVSPropertyOp8
 70
     1
102
RTVSPropertyOp9
 70
     1
102
RTVSPropertyOp10
 70
     1
102
RTVSPropertyOp11
 70
     1
102
RTVSPropertyOp12
 70
     1
102
RTVSPropertyOp13
 70
     1
102
RTVSPropertyOp14
 70
     1
102
RTVSPropertyOp15
 70
     1
102
RTVSPropertyOp16
 70
     1
102
RTVSPropertyOp17
 70
     1
102
RTVSPropertyOp18
 70
     1
102
RTVSPropertyOp19
 70
     1
102
RTVSPropertyOp20
 70
     1
102
RTVSPropertyOp21
 70
     1
102
RTVSPropertyOp22
 70
     1
102
RTVSPropertyOp23
 70
     1
102
RTVSPropertyOp24
 70
     1
102
RTVSPropertyOp25
 70
     1
102
RTVSPropertyOp26
 70
     1
102
RTVSPropertyOp27
 70
     1
102
RTVSPropertyOp28
 70
     1
102
RTVSPropertyOp29
 70
     1
102
RTVSPropertyOp30
 70
     1
102
RTVSPropertyOp31
 70
     1
102
RTVSPropertyOp32
 70
     1
  0
XRECORD
  5
9C
102
{ACAD_REACTORS
330
9B
102
}
330
9B
100
AcDbXrecord
280
     1
102
RTVSPropertyOp0
 70
     1
102
RTVSPropertyOp1
 70
     1
102
RTVSPropertyOp2
 70
     1
102
RTVSPropertyOp3
 70
     1
102
RTVSPropertyOp4
 70
     1
102
RTVSPropertyOp5
 70
     1
102
RTVSPropertyOp6
 70
     1
102
RTVSPropertyOp7
 70
     1
102
RTVSPropertyOp8
 70
     1
102
RTVSPropertyOp9
 70
     1
102
RTVSPropertyOp10
 70
     1
102
RTVSPropertyOp11
 70
     1
102
RTVSPropertyOp12
 70
     1
102
RTVSPropertyOp13
 70
     1
102
RTVSPropertyOp14
 70
     1
102
RTVSPropertyOp15
 70
     1
102
RTVSPropertyOp16
 70
     1
102
RTVSPropertyOp17
 70
     1
102
RTVSPropertyOp18
 70
     1
102
RTVSPropertyOp19
 70
     1
102
RTVSPropertyOp20
 70
     1
102
RTVSPropertyOp21
 70
     1
102
RTVSPropertyOp22
 70
     1
102
RTVSPropertyOp23
 70
     1
102
RTVSPropertyOp24
 70
     1
102
RTVSPropertyOp25
 70
     1
102
RTVSPropertyOp26
 70
     1
102
RTVSPropertyOp27
 70
     1
102
RTVSPropertyOp28
 70
     1
102
RTVSPropertyOp29
 70
     1
102
RTVSPropertyOp30
 70
     1
102
RTVSPropertyOp31
 70
     1
102
RTVSPropertyOp32
 70
     1
  0
XRECORD
  5
9E
102
{ACAD_REACTORS
330
9D
102
}
330
9D
100
AcDbXrecord
280
     1
102
RTVSPropertyOp0
 70
     1
102
RTVSPropertyOp1
 70
     1
102
RTVSPropertyOp2
 70
     1
102
RTVSPropertyOp3
 70
     1
102
RTVSPropertyOp4
 70
     1
102
RTVSPropertyOp5
 70
     1
102
RTVSPropertyOp6
 70
     1
102
RTVSPropertyOp7
 70
     1
102
RTVSPropertyOp8
 70
     1
102
RTVSPropertyOp9
 70
     1
102
RTVSPropertyOp10
 70
     1
102
RTVSPropertyOp11
 70
     1
102
RTVSPropertyOp12
 70
     1
102
RTVSPropertyOp13
 70
     1
102
RTVSPropertyOp14
 70
     1
102
RTVSPropertyOp15
 70
     1
102
RTVSPropertyOp16
 70
     1
102
RTVSPropertyOp17
 70
     1
102
RTVSPropertyOp18
 70
     1
102
RTVSPropertyOp19
 70
     1
102
RTVSPropertyOp20
 70
     1
102
RTVSPropertyOp21
 70
     1
102
RTVSPropertyOp22
 70
     1
102
RTVSPropertyOp23
 70
     1
102
RTVSPropertyOp24
 70
     1
102
RTVSPropertyOp25
 70
     1
102
RTVSPropertyOp26
 70
     1
102
RTVSPropertyOp27
 70
     1
102
RTVSPropertyOp28
 70
     1
102
RTVSPropertyOp29
 70
     1
102
RTVSPropertyOp30
 70
     1
102
RTVSPropertyOp31
 70
     1
102
RTVSPropertyOp32
 70
     1
  0
XRECORD
  5
B2
102
{ACAD_REACTORS
330
B1
102
}
330
B1
100
AcDbXrecord
280
     1
102
RTVSPropertyOp0
 70
     1
102
RTVSPropertyOp1
 70
     1
102
RTVSPropertyOp2
 70
     1
102
RTVSPropertyOp3
 70
     1
102
RTVSPropertyOp4
 70
     1
102
RTVSPropertyOp5
 70
     1
102
RTVSPropertyOp6
 70
     1
102
RTVSPropertyOp7
 70
     1
102
RTVSPropertyOp8
 70
     1
102
RTVSPropertyOp9
 70
     1
102
RTVSPropertyOp10
 70
     1
102
RTVSPropertyOp11
 70
     1
102
RTVSPropertyOp12
 70
     1
102
RTVSPropertyOp13
 70
     1
102
RTVSPropertyOp14
 70
     1
102
RTVSPropertyOp15
 70
     1
102
RTVSPropertyOp16
 70
     1
102
RTVSPropertyOp17
 70
     1
102
RTVSPropertyOp18
 70
     1
102
RTVSPropertyOp19
 70
     1
102
RTVSPropertyOp20
 70
     1
102
RTVSPropertyOp21
 70
     1
102
RTVSPropertyOp22
 70
     1
102
RTVSPropertyOp23
 70
     1
102
RTVSPropertyOp24
 70
     1
102
RTVSPropertyOp25
 70
     1
102
RTVSPropertyOp26
 70
     1
102
RTVSPropertyOp27
 70
     1
102
RTVSPropertyOp28
 70
     1
102
RTVSPropertyOp29
 70
     1
102
RTVSPropertyOp30
 70
     1
102
RTVSPropertyOp31
 70
     1
102
RTVSPropertyOp32
 70
     1
  0
XRECORD
  5
A8
102
{ACAD_REACTORS
330
A7
102
}
330
A7
100
AcDbXrecord
280
     1
102
RTVSPropertyOp0
 70
     1
102
RTVSPropertyOp1
 70
     1
102
RTVSPropertyOp2
 70
     1
102
RTVSPropertyOp3
 70
     1
102
RTVSPropertyOp4
 70
     1
102
RTVSPropertyOp5
 70
     1
102
RTVSPropertyOp6
 70
     1
102
RTVSPropertyOp7
 70
     1
102
RTVSPropertyOp8
 70
     1
102
RTVSPropertyOp9
 70
     1
102
RTVSPropertyOp10
 70
     1
102
RTVSPropertyOp11
 70
     1
102
RTVSPropertyOp12
 70
     1
102
RTVSPropertyOp13
 70
     1
102
RTVSPropertyOp14
 70
     1
102
RTVSPropertyOp15
 70
     1
102
RTVSPropertyOp16
 70
     1
102
RTVSPropertyOp17
 70
     1
102
RTVSPropertyOp18
 70
     1
102
RTVSPropertyOp19
 70
     1
102
RTVSPropertyOp20
 70
     1
102
RTVSPropertyOp21
 70
     1
102
RTVSPropertyOp22
 70
     1
102
RTVSPropertyOp23
 70
     1
102
RTVSPropertyOp24
 70
     1
102
RTVSPropertyOp25
 70
     1
102
RTVSPropertyOp26
 70
     1
102
RTVSPropertyOp27
 70
     1
102
RTVSPropertyOp28
 70
     1
102
RTVSPropertyOp29
 70
     1
102
RTVSPropertyOp30
 70
     1
102
RTVSPropertyOp31
 70
     1
102
RTVSPropertyOp32
 70
     1
  0
XRECORD
  5
B0
102
{ACAD_REACTORS
330
AF
102
}
330
AF
100
AcDbXrecord
280
     1
102
RTVSPropertyOp0
 70
     1
102
RTVSPropertyOp1
 70
     1
102
RTVSPropertyOp2
 70
     1
102
RTVSPropertyOp3
 70
     1
102
RTVSPropertyOp4
 70
     1
102
RTVSPropertyOp5
 70
     1
102
RTVSPropertyOp6
 70
     1
102
RTVSPropertyOp7
 70
     1
102
RTVSPropertyOp8
 70
     1
102
RTVSPropertyOp9
 70
     1
102
RTVSPropertyOp10
 70
     1
102
RTVSPropertyOp11
 70
     1
102
RTVSPropertyOp12
 70
     1
102
RTVSPropertyOp13
 70
     1
102
RTVSPropertyOp14
 70
     1
102
RTVSPropertyOp15
 70
     1
102
RTVSPropertyOp16
 70
     1
102
RTVSPropertyOp17
 70
     1
102
RTVSPropertyOp18
 70
     1
102
RTVSPropertyOp19
 70
     1
102
RTVSPropertyOp20
 70
     1
102
RTVSPropertyOp21
 70
     1
102
RTVSPropertyOp22
 70
     1
102
RTVSPropertyOp23
 70
     1
102
RTVSPropertyOp24
 70
     1
102
RTVSPropertyOp25
 70
     1
102
RTVSPropertyOp26
 70
     1
102
RTVSPropertyOp27
 70
     1
102
RTVSPropertyOp28
 70
     1
102
RTVSPropertyOp29
 70
     1
102
RTVSPropertyOp30
 70
     1
102
RTVSPropertyOp31
 70
     1
102
RTVSPropertyOp32
 70
     1
  0
ENDSEC
  0
EOF
