  0
SECTION
  2
HEADER
  9
$ACADVER
  1
AC1021
  9
$ACADMAINTVER
 70
    25
  9
$DWGCODEPAGE
  3
ANSI_1252
  9
$INSBASE
 10
0.0
 20
0.0
 30
0.0
  9
$EXTMIN
 10
77.1148
 20
-108.825
 30
0.0
  9
$EXTMAX
 10
196.2224
 20
129.3901
 30
0.0
  9
$LIMMIN
 10
0.0
 20
0.0
  9
$LIMMAX
 10
12.0
 20
9.0
  9
$ORTHOMODE
 70
     0
  9
$REGENMODE
 70
     1
  9
$FILLMODE
 70
     1
  9
$QTEXTMODE
 70
     0
  9
$MIRRTEXT
 70
     1
  9
$LTSCALE
 40
1.0
  9
$ATTMODE
 70
     1
  9
$TEXTSIZE
 40
0.2
  9
$TRACEWID
 40
0.05
  9
$TEXTSTYLE
  7
Standard
  9
$CLAYER
  8
0
  9
$CELTYPE
  6
ByLayer
  9
$CECOLOR
 62
   256
  9
$CELTSCALE
 40
1.0
  9
$DISPSILH
 70
     0
  9
$DIMSCALE
 40
1.0
  9
$DIMASZ
 40
0.18
  9
$DIMEXO
 40
0.0625
  9
$DIMDLI
 40
0.38
  9
$DIMRND
 40
0.0
  9
$DIMDLE
 40
0.0
  9
$DIMEXE
 40
0.18
  9
$DIMTP
 40
0.0
  9
$DIMTM
 40
0.0
  9
$DIMTXT
 40
0.18
  9
$DIMCEN
 40
0.09
  9
$DIMTSZ
 40
0.0
  9
$DIMTOL
 70
     0
  9
$DIMLIM
 70
     0
  9
$DIMTIH
 70
     1
  9
$DIMTOH
 70
     1
  9
$DIMSE1
 70
     0
  9
$DIMSE2
 70
     0
  9
$DIMTAD
 70
     0
  9
$DIMZIN
 70
     0
  9
$DIMBLK
  1

  9
$DIMASO
 70
     1
  9
$DIMSHO
 70
     1
  9
$DIMPOST
  1

  9
$DIMAPOST
  1

  9
$DIMALT
 70
     0
  9
$DIMALTD
 70
     2
  9
$DIMALTF
 40
25.4
  9
$DIMLFAC
 40
1.0
  9
$DIMTOFL
 70
     0
  9
$DIMTVP
 40
0.0
  9
$DIMTIX
 70
     0
  9
$DIMSOXD
 70
     0
  9
$DIMSAH
 70
     0
  9
$DIMBLK1
  1

  9
$DIMBLK2
  1

  9
$DIMSTYLE
  2
Standard
  9
$DIMCLRD
 70
     0
  9
$DIMCLRE
 70
     0
  9
$DIMCLRT
 70
     0
  9
$DIMTFAC
 40
1.0
  9
$DIMGAP
 40
0.09
  9
$DIMJUST
 70
     0
  9
$DIMSD1
 70
     0
  9
$DIMSD2
 70
     0
  9
$DIMTOLJ
 70
     1
  9
$DIMTZIN
 70
     0
  9
$DIMALTZ
 70
     0
  9
$DIMALTTZ
 70
     0
  9
$DIMUPT
 70
     0
  9
$DIMDEC
 70
     4
  9
$DIMTDEC
 70
     4
  9
$DIMALTU
 70
     2
  9
$DIMALTTD
 70
     2
  9
$DIMTXSTY
  7
Standard
  9
$DIMAUNIT
 70
     0
  9
$DIMADEC
 70
     0
  9
$DIMALTRND
 40
0.0
  9
$DIMAZIN
 70
     0
  9
$DIMDSEP
 70
    46
  9
$DIMATFIT
 70
     3
  9
$DIMFRAC
 70
     0
  9
$DIMLDRBLK
  1

  9
$DIMLUNIT
 70
     2
  9
$DIMLWD
 70
    -2
  9
$DIMLWE
 70
    -2
  9
$DIMTMOVE
 70
     0
  9
$DIMFXL
 40
1.0
  9
$DIMFXLON
 70
     0
  9
$DIMJOGANG
 40
0.7853981633974483
  9
$DIMTFILL
 70
     0
  9
$DIMTFILLCLR
 70
     0
  9
$DIMARCSYM
 70
     0
  9
$DIMLTYPE
  6

  9
$DIMLTEX1
  6

  9
$DIMLTEX2
  6

  9
$LUNITS
 70
     2
  9
$LUPREC
 70
     4
  9
$SKETCHINC
 40
0.1
  9
$FILLETRAD
 40
0.5
  9
$AUNITS
 70
     0
  9
$AUPREC
 70
     0
  9
$MENU
  1
.
  9
$ELEVATION
 40
0.0
  9
$PELEVATION
 40
0.0
  9
$THICKNESS
 40
0.0
  9
$LIMCHECK
 70
     0
  9
$CHAMFERA
 40
0.5
  9
$CHAMFERB
 40
0.5
  9
$CHAMFERC
 40
1.0
  9
$CHAMFERD
 40
0.0
  9
$SKPOLY
 70
     0
  9
$TDCREATE
 40
2458493.673370602
  9
$TDUCREATE
 40
2458493.673370602
  9
$TDUPDATE
 40
2458493.673370671
  9
$TDUUPDATE
 40
2458493.673370671
  9
$TDINDWG
 40
0.0000000116
  9
$TDUSRTIMER
 40
0.0000000116
  9
$USRTIMER
 70
     1
  9
$ANGBASE
 50
0.0
  9
$ANGDIR
 70
     0
  9
$PDMODE
 70
     0
  9
$PDSIZE
 40
0.0
  9
$PLINEWID
 40
0.0
  9
$SPLFRAME
 70
     0
  9
$SPLINETYPE
 70
     6
  9
$SPLINESEGS
 70
     8
  9
$HANDSEED
  5
87
  9
$SURFTAB1
 70
     6
  9
$SURFTAB2
 70
     6
  9
$SURFTYPE
 70
     6
  9
$SURFU
 70
     6
  9
$SURFV
 70
     6
  9
$UCSBASE
  2

  9
$UCSNAME
  2

  9
$UCSORG
 10
0.0
 20
0.0
 30
0.0
  9
$UCSXDIR
 10
1.0
 20
0.0
 30
0.0
  9
$UCSYDIR
 10
0.0
 20
1.0
 30
0.0
  9
$UCSORTHOREF
  2

  9
$UCSORTHOVIEW
 70
     0
  9
$UCSORGTOP
 10
0.0
 20
0.0
 30
0.0
  9
$UCSORGBOTTOM
 10
0.0
 20
0.0
 30
0.0
  9
$UCSORGLEFT
 10
0.0
 20
0.0
 30
0.0
  9
$UCSORGRIGHT
 10
0.0
 20
0.0
 30
0.0
  9
$UCSORGFRONT
 10
0.0
 20
0.0
 30
0.0
  9
$UCSORGBACK
 10
0.0
 20
0.0
 30
0.0
  9
$PUCSBASE
  2

  9
$PUCSNAME
  2

  9
$PUCSORG
 10
0.0
 20
0.0
 30
0.0
  9
$PUCSXDIR
 10
1.0
 20
0.0
 30
0.0
  9
$PUCSYDIR
 10
0.0
 20
1.0
 30
0.0
  9
$PUCSORTHOREF
  2

  9
$PUCSORTHOVIEW
 70
     0
  9
$PUCSORGTOP
 10
0.0
 20
0.0
 30
0.0
  9
$PUCSORGBOTTOM
 10
0.0
 20
0.0
 30
0.0
  9
$PUCSORGLEFT
 10
0.0
 20
0.0
 30
0.0
  9
$PUCSORGRIGHT
 10
0.0
 20
0.0
 30
0.0
  9
$PUCSORGFRONT
 10
0.0
 20
0.0
 30
0.0
  9
$PUCSORGBACK
 10
0.0
 20
0.0
 30
0.0
  9
$USERI1
 70
     0
  9
$USERI2
 70
     0
  9
$USERI3
 70
     0
  9
$USERI4
 70
     0
  9
$USERI5
 70
     0
  9
$USERR1
 40
0.0
  9
$USERR2
 40
0.0
  9
$USERR3
 40
0.0
  9
$USERR4
 40
0.0
  9
$USERR5
 40
0.0
  9
$WORLDVIEW
 70
     1
  9
$SHADEDGE
 70
     3
  9
$SHADEDIF
 70
    70
  9
$TILEMODE
 70
     1
  9
$MAXACTVP
 70
    64
  9
$PINSBASE
 10
0.0
 20
0.0
 30
0.0
  9
$PLIMCHECK
 70
     0
  9
$PEXTMIN
 10
1.000000000000000E+20
 20
1.000000000000000E+20
 30
1.000000000000000E+20
  9
$PEXTMAX
 10
-1.000000000000000E+20
 20
-1.000000000000000E+20
 30
-1.000000000000000E+20
  9
$PLIMMIN
 10
0.0
 20
0.0
  9
$PLIMMAX
 10
12.0
 20
9.0
  9
$UNITMODE
 70
     0
  9
$VISRETAIN
 70
     1
  9
$PLINEGEN
 70
     0
  9
$PSLTSCALE
 70
     1
  9
$TREEDEPTH
 70
  3020
  9
$CMLSTYLE
  2
Standard
  9
$CMLJUST
 70
     0
  9
$CMLSCALE
 40
1.0
  9
$PROXYGRAPHICS
 70
     1
  9
$MEASUREMENT
 70
     0
  9
$CELWEIGHT
370
    -1
  9
$ENDCAPS
280
     0
  9
$JOINSTYLE
280
     0
  9
$LWDISPLAY
290
     0
  9
$INSUNITS
 70
     4
  9
$HYPERLINKBASE
  1

  9
$STYLESHEET
  1

  9
$XEDIT
290
     1
  9
$CEPSNTYPE
380
     0
  9
$PSTYLEMODE
290
     1
  9
$FINGERPRINTGUID
  2
{F43346BF-CD8E-485D-86C1-1588BA311422}
  9
$VERSIONGUID
  2
{FAEB1C32-E019-11D5-929B-00C0DF256EC4}
  9
$EXTNAMES
290
     1
  9
$PSVPSCALE
 40
0.0
  9
$OLESTARTUP
290
     0
  9
$SORTENTS
280
   127
  9
$INDEXCTL
280
     0
  9
$HIDETEXT
280
     1
  9
$XCLIPFRAME
290
     0
  9
$HALOGAP
280
     0
  9
$OBSCOLOR
 70
   257
  9
$OBSLTYPE
280
     0
  9
$INTERSECTIONDISPLAY
280
     0
  9
$INTERSECTIONCOLOR
 70
   257
  9
$DIMASSOC
280
     2
  9
$PROJECTNAME
  1

  9
$CAMERADISPLAY
290
     0
  9
$LENSLENGTH
 40
50.0
  9
$CAMERAHEIGHT
 40
0.0
  9
$STEPSPERSEC
 40
2.0
  9
$STEPSIZE
 40
6.0
  9
$3DDWFPREC
 40
2.0
  9
$PSOLWIDTH
 40
0.25
  9
$PSOLHEIGHT
 40
4.0
  9
$LOFTANG1
 40
1.570796326794897
  9
$LOFTANG2
 40
1.570796326794897
  9
$LOFTMAG1
 40
0.0
  9
$LOFTMAG2
 40
0.0
  9
$LOFTPARAM
 70
     7
  9
$LOFTNORMALS
280
     1
  9
$LATITUDE
 40
37.795
  9
$LONGITUDE
 40
-122.394
  9
$NORTHDIRECTION
 40
0.0
  9
$TIMEZONE
 70
 -8000
  9
$LIGHTGLYPHDISPLAY
280
     1
  9
$TILEMODELIGHTSYNCH
280
     1
  9
$SOLIDHIST
280
     1
  9
$SHOWHIST
280
     1
  9
$DWFFRAME
280
     2
  9
$DGNFRAME
280
     2
  9
$REALWORLDSCALE
290
     1
  9
$INTERFERECOLOR
 62
   256
  9
$CSHADOW
280
     0
  9
$SHADOWPLANELOCATION
 40
0.0
  0
ENDSEC
  0
SECTION
  2
CLASSES
  0
CLASS
  1
ACDBDICTIONARYWDFLT
  2
AcDbDictionaryWithDefault
  3
ObjectDBX Classes
 90
        0
 91
        4
280
     0
281
     0
  0
CLASS
  1
VISUALSTYLE
  2
AcDbVisualStyle
  3
ObjectDBX Classes
 90
     4095
 91
        4
280
     0
281
     0
  0
CLASS
  1
MATERIAL
  2
AcDbMaterial
  3
ObjectDBX Classes
 90
     1153
 91
        4
280
     0
281
     0
  0
ENDSEC
  0
SECTION
  2
TABLES
  0
TABLE
  2
VPORT
  5
8
330
0
100
AcDbSymbolTable
 70
     1
  0
VPORT
  5
29
330
8
100
AcDbSymbolTableRecord
100
AcDbViewportTableRecord
  2
*Active
 70
     0
 10
0.0
 20
0.0
 11
1.0
 21
1.0
 12
10.42990654205607
 22
4.5
 13
0.0
 23
0.0
 14
0.5
 24
0.5
 15
0.5
 25
0.5
 16
0.0
 26
0.0
 36
1.0
 17
0.0
 27
0.0
 37
0.0
 40
9.0
 41
1.972972972850329
 42
50.0
 43
0.0
 44
0.0
 50
0.0
 51
0.0
 71
     0
 72
   100
 73
     1
 74
     3
 75
     0
 76
     0
 77
     0
 78
     0
281
     0
 65
     1
110
0.0
120
0.0
130
0.0
111
1.0
121
0.0
131
0.0
112
0.0
122
1.0
132
0.0
 79
     0
146
0.0
 60
     3
 61
     5
292
     1
282
     1
141
0.0
142
0.0
 63
   250
  0
ENDTAB
  0
TABLE
  2
LTYPE
  5
5
330
0
100
AcDbSymbolTable
 70
     1
  0
LTYPE
  5
14
330
5
100
AcDbSymbolTableRecord
100
AcDbLinetypeTableRecord
  2
ByBlock
 70
     0
  3

 72
    65
 73
     0
 40
0.0
  0
LTYPE
  5
15
330
5
100
AcDbSymbolTableRecord
100
AcDbLinetypeTableRecord
  2
ByLayer
 70
     0
  3

 72
    65
 73
     0
 40
0.0
  0
LTYPE
  5
16
330
5
100
AcDbSymbolTableRecord
100
AcDbLinetypeTableRecord
  2
Continuous
 70
     0
  3
Solid line
 72
    65
 73
     0
 40
0.0
  0
ENDTAB
  0
TABLE
  2
LAYER
  5
2
330
0
100
AcDbSymbolTable
 70
     3
  0
LAYER
  5
10
330
2
100
AcDbSymbolTableRecord
100
AcDbLayerTableRecord
  2
0
 70
     0
 62
     7
  6
Continuous
370
    -3
390
F
347
3E
  0
LAYER
  5
40
330
2
100
AcDbSymbolTableRecord
100
AcDbLayerTableRecord
  2
layer 1
 70
     0
 62
     7
  6
Continuous
370
    -3
390
F
347
3E
  0
LAYER
  5
64
330
2
100
AcDbSymbolTableRecord
100
AcDbLayerTableRecord
  2
Master Guides
 70
     0
 62
     7
  6
Continuous
370
    -3
390
F
347
3E
  0
ENDTAB
  0
TABLE
  2
STYLE
  5
3
330
0
100
AcDbSymbolTable
 70
     1
  0
STYLE
  5
11
330
3
100
AcDbSymbolTableRecord
100
AcDbTextStyleTableRecord
  2
Standard
 70
     0
 40
0.0
 41
1.0
 50
0.0
 71
     0
 42
0.2
  3
txt
  4

  0
ENDTAB
  0
TABLE
  2
VIEW
  5
6
330
0
100
AcDbSymbolTable
 70
     0
  0
ENDTAB
  0
TABLE
  2
UCS
  5
7
330
0
100
AcDbSymbolTable
 70
     0
  0
ENDTAB
  0
TABLE
  2
APPID
  5
9
330
0
100
AcDbSymbolTable
 70
     2
  0
APPID
  5
12
330
9
100
AcDbSymbolTableRecord
100
AcDbRegAppTableRecord
  2
ACAD
 70
     0
  0
APPID
  5
3F
330
9
100
AcDbSymbolTableRecord
100
AcDbRegAppTableRecord
  2
ODA
 70
     0
  0
ENDTAB
  0
TABLE
  2
DIMSTYLE
  5
A
330
0
100
AcDbSymbolTable
 70
     1
100
AcDbDimStyleTable
  0
DIMSTYLE
105
27
330
A
100
AcDbSymbolTableRecord
100
AcDbDimStyleTableRecord
  2
Standard
 70
     0
178
     0
340
11
  0
ENDTAB
  0
TABLE
  2
BLOCK_RECORD
  5
1
330
0
100
AcDbSymbolTable
 70
     1
  0
BLOCK_RECORD
  5
1F
330
1
100
AcDbSymbolTableRecord
100
AcDbBlockTableRecord
  2
*Model_Space
340
22
 70
     0
280
     1
281
     0
  0
BLOCK_RECORD
  5
1B
330
1
100
AcDbSymbolTableRecord
100
AcDbBlockTableRecord
  2
*Paper_Space
340
1E
 70
     0
280
     1
281
     0
  0
BLOCK_RECORD
  5
23
330
1
100
AcDbSymbolTableRecord
100
AcDbBlockTableRecord
  2
*Paper_Space0
340
26
 70
     0
280
     1
281
     0
  0
ENDTAB
  0
ENDSEC
  0
SECTION
  2
BLOCKS
  0
BLOCK
  5
20
330
1F
100
AcDbEntity
  8
0
100
AcDbBlockBegin
  2
*Model_Space
 70
     0
 10
0.0
 20
0.0
 30
0.0
  3
*Model_Space
  1

  0
ENDBLK
  5
21
330
1F
100
AcDbEntity
  8
0
100
AcDbBlockEnd
  0
BLOCK
  5
1C
330
1B
100
AcDbEntity
 67
     1
  8
0
100
AcDbBlockBegin
  2
*Paper_Space
 70
     0
 10
0.0
 20
0.0
 30
0.0
  3
*Paper_Space
  1

  0
ENDBLK
  5
1D
330
1B
100
AcDbEntity
 67
     1
  8
0
100
AcDbBlockEnd
  0
BLOCK
  5
24
330
23
100
AcDbEntity
  8
0
100
AcDbBlockBegin
  2
*Paper_Space0
 70
     0
 10
0.0
 20
0.0
 30
0.0
  3
*Paper_Space0
  1

  0
ENDBLK
  5
25
330
23
100
AcDbEntity
  8
0
100
AcDbBlockEnd
  0
ENDSEC
  0
SECTION
  2
ENTITIES
  0
SPLINE
  5
41
330
1F
100
AcDbEntity
  8
layer 1
 62
   250
100
AcDbSpline
210
0.0
220
0.0
230
1.0
 70
    11
 71
     3
 72
    20
 73
    16
 74
     0
 42
0.0000000001
 43
0.0000000001
 12
1.0
 22
0.0
 32
0.0
 13
1.0
 23
0.0
 33
0.0
 40
0.0
 40
0.0
 40
0.0
 40
0.0
 40
0.2
 40
0.2
 40
0.2
 40
0.2
 40
0.4
 40
0.4
 40
0.4
 40
0.4
 40
0.6
 40
0.6
 40
0.6
 40
0.6
 40
1.0
 40
1.0
 40
1.0
 40
1.0
 10
77.1148
 20
129.3901
 30
0.0
 10
77.1148
 20
129.3901
 30
0.0
 10
196.2224
 20
129.3901
 30
0.0
 10
196.2224
 20
129.3901
 30
0.0
 10
196.2224
 20
129.3901
 30
0.0
 10
196.2224
 20
129.3901
 30
0.0
 10
196.2224
 20
-108.825
 30
0.0
 10
196.2224
 20
-108.825
 30
0.0
 10
196.2224
 20
-108.825
 30
0.0
 10
196.2224
 20
-108.825
 30
0.0
 10
77.1148
 20
-108.825
 30
0.0
 10
77.1148
 20
-108.825
 30
0.0
 10
77.1148
 20
-108.825
 30
0.0
 10
77.1148
 20
-108.825
 30
0.0
 10
77.1148
 20
129.3901
 30
0.0
 10
77.1148
 20
129.3901
 30
0.0
  0
SPLINE
  5
42
330
1F
100
AcDbEntity
  8
layer 1
 62
     7
100
AcDbSpline
210
0.0
220
0.0
230
1.0
 70
    11
 71
     3
 72
    20
 73
    16
 74
     0
 42
0.0000000001
 43
0.0000000001
 12
1.0
 22
0.0
 32
0.0
 13
1.0
 23
0.0
 33
0.0
 40
0.0
 40
0.0
 40
0.0
 40
0.0
 40
0.2
 40
0.2
 40
0.2
 40
0.2
 40
0.4
 40
0.4
 40
0.4
 40
0.4
 40
0.6
 40
0.6
 40
0.6
 40
0.6
 40
1.0
 40
1.0
 40
1.0
 40
1.0
 10
112.9645
 20
12.0259
 30
0.0
 10
116.3403
 20
11.8756
 30
0.0
 10
119.4506
 20
14.5739
 30
0.0
 10
121.0399
 20
16.2093
 30
0.0
 10
121.0399
 20
16.2093
 30
0.0
 10
123.9891
 20
19.2527
 30
0.0
 10
120.1912
 20
22.5956
 30
0.0
 10
118.0906
 20
19.0984
 30
0.0
 10
118.0906
 20
19.0984
 30
0.0
 10
117.112
 20
17.5039
 30
0.0
 10
114.6432
 20
15.9819
 30
0.0
 10
113.5211
 20
16.2819
 30
0.0
 10
113.5211
 20
16.2819
 30
0.0
 10
111.1374
 20
16.8176
 30
0.0
 10
110.0153
 20
12.4846
 30
0.0
 10
112.9645
 20
12.0259
 30
0.0
  0
SPLINE
  5
43
330
1F
100
AcDbEntity
  8
layer 1
 62
     7
100
AcDbSpline
210
0.0
220
0.0
230
1.0
 70
    11
 71
     3
 72
    28
 73
    24
 74
     0
 42
0.0000000001
 43
0.0000000001
 12
1.0
 22
0.0
 32
0.0
 13
1.0
 23
0.0
 33
0.0
 40
0.0
 40
0.0
 40
0.0
 40
0.0
 40
0.1428571428571428
 40
0.1428571428571428
 40
0.1428571428571428
 40
0.1428571428571428
 40
0.2857142857142857
 40
0.2857142857142857
 40
0.2857142857142857
 40
0.2857142857142857
 40
0.4285714285714285
 40
0.4285714285714285
 40
0.4285714285714285
 40
0.4285714285714285
 40
0.5714285714285714
 40
0.5714285714285714
 40
0.5714285714285714
 40
0.5714285714285714
 40
0.7142857142857143
 40
0.7142857142857143
 40
0.7142857142857143
 40
0.7142857142857143
 40
1.0
 40
1.0
 40
1.0
 40
1.0
 10
111.2814
 20
21.3057
 30
0.0
 10
111.9097
 20
24.272
 30
0.0
 10
111.4875
 20
28.1511
 30
0.0
 10
108.5383
 20
31.1901
 30
0.0
 10
108.5383
 20
31.1901
 30
0.0
 10
105.3782
 20
34.4511
 30
0.0
 10
102.4963
 20
30.1272
 30
0.0
 10
105.5621
 20
28.1011
 30
0.0
 10
105.5621
 20
28.1011
 30
0.0
 10
108.0224
 20
26.4567
 30
0.0
 10
108.1523
 20
22.7731
 30
0.0
 10
107.0345
 20
20.6426
 30
0.0
 10
107.0345
 20
20.6426
 30
0.0
 10
100.9835
 20
9.1781
 30
0.0
 10
81.2369
 20
19.3252
 30
0.0
 10
86.8479
 20
38.2669
 30
0.0
 10
86.8479
 20
38.2669
 30
0.0
 10
88.6033
 20
42.9272
 30
0.0
 10
84.3931
 20
43.5087
 30
0.0
 10
83.5531
 20
40.8467
 30
0.0
 10
83.5531
 20
40.8467
 30
0.0
 10
74.6115
 20
12.621
 30
0.0
 10
107.3487
 20
2.873
 30
0.0
 10
111.2814
 20
21.3057
 30
0.0
  0
SPLINE
  5
44
330
1F
100
AcDbEntity
  8
layer 1
 62
     7
100
AcDbSpline
210
0.0
220
0.0
230
1.0
 70
    11
 71
     3
 72
    20
 73
    16
 74
     0
 42
0.0000000001
 43
0.0000000001
 12
1.0
 22
0.0
 32
0.0
 13
1.0
 23
0.0
 33
0.0
 40
0.0
 40
0.0
 40
0.0
 40
0.0
 40
0.2
 40
0.2
 40
0.2
 40
0.2
 40
0.4
 40
0.4
 40
0.4
 40
0.4
 40
0.6
 40
0.6
 40
0.6
 40
0.6
 40
1.0
 40
1.0
 40
1.0
 40
1.0
 10
108.4709
 20
50.9671
 30
0.0
 10
107.1066
 20
48.0873
 30
0.0
 10
111.0207
 20
46.4975
 30
0.0
 10
112.053
 20
48.832
 30
0.0
 10
112.053
 20
48.832
 30
0.0
 10
116.2636
 20
58.4166
 30
0.0
 10
115.7698
 20
65.6389
 30
0.0
 10
106.9269
 20
71.1171
 30
0.0
 10
106.9269
 20
71.1171
 30
0.0
 10
105.0818
 20
72.148
 30
0.0
 10
103.0262
 20
68.6732
 30
0.0
 10
105.3107
 20
67.238
 30
0.0
 10
105.3107
 20
67.238
 30
0.0
 10
111.6894
 20
63.2042
 30
0.0
 10
111.7705
 20
57.9621
 30
0.0
 10
108.4709
 20
50.9671
 30
0.0
  0
SPLINE
  5
45
330
1F
100
AcDbEntity
  8
layer 1
 62
     7
100
AcDbSpline
210
0.0
220
0.0
230
1.0
 70
    11
 71
     3
 72
    20
 73
    16
 74
     0
 42
0.0000000001
 43
0.0000000001
 12
1.0
 22
0.0
 32
0.0
 13
1.0
 23
0.0
 33
0.0
 40
0.0
 40
0.0
 40
0.0
 40
0.0
 40
0.2
 40
0.2
 40
0.2
 40
0.2
 40
0.4
 40
0.4
 40
0.4
 40
0.4
 40
0.6
 40
0.6
 40
0.6
 40
0.6
 40
1.0
 40
1.0
 40
1.0
 40
1.0
 10
105.4499
 20
57.3492
 30
0.0
 10
101.4864
 20
58.0896
 30
0.0
 10
95.9696
 20
56.5905
 30
0.0
 10
92.7463
 20
53.7015
 30
0.0
 10
92.7463
 20
53.7015
 30
0.0
 10
90.2915
 20
51.1128
 30
0.0
 10
93.3029
 20
48.5325
 30
0.0
 10
94.9239
 20
49.8952
 30
0.0
 10
94.9239
 20
49.8952
 30
0.0
 10
96.6337
 20
51.5579
 30
0.0
 10
101.5222
 20
53.4746
 30
0.0
 10
105.1401
 20
53.0201
 30
0.0
 10
105.1401
 20
53.0201
 30
0.0
 10
106.9939
 20
52.7114
 30
0.0
 10
108.3274
 20
56.8175
 30
0.0
 10
105.4499
 20
57.3492
 30
0.0
  0
SPLINE
  5
46
330
1F
100
AcDbEntity
  8
layer 1
 62
     7
100
AcDbSpline
210
0.0
220
0.0
230
1.0
 70
    11
 71
     3
 72
    20
 73
    16
 74
     0
 42
0.0000000001
 43
0.0000000001
 12
1.0
 22
0.0
 32
0.0
 13
1.0
 23
0.0
 33
0.0
 40
0.0
 40
0.0
 40
0.0
 40
0.0
 40
0.2
 40
0.2
 40
0.2
 40
0.2
 40
0.4
 40
0.4
 40
0.4
 40
0.4
 40
0.6
 40
0.6
 40
0.6
 40
0.6
 40
1.0
 40
1.0
 40
1.0
 40
1.0
 10
101.4191
 20
71.2804
 30
0.0
 10
101.5581
 20
75.114
 30
0.0
 10
97.9133
 20
74.787
 30
0.0
 10
97.3117
 20
71.3439
 30
0.0
 10
97.3117
 20
71.3439
 30
0.0
 10
96.6562
 20
67.6468
 30
0.0
 10
96.8001
 20
64.6847
 30
0.0
 10
97.644
 20
61.9506
 30
0.0
 10
97.644
 20
61.9506
 30
0.0
 10
98.51
 20
59.1162
 30
0.0
 10
101.9441
 20
60.2427
 30
0.0
 10
101.3789
 20
62.6682
 30
0.0
 10
101.3789
 20
62.6682
 30
0.0
 10
101.0465
 20
64.1128
 30
0.0
 10
101.006
 20
68.5371
 30
0.0
 10
101.4191
 20
71.2804
 30
0.0
  0
SPLINE
  5
47
330
1F
100
AcDbEntity
  8
layer 1
 62
     7
100
AcDbSpline
210
0.0
220
0.0
230
1.0
 70
    11
 71
     3
 72
    20
 73
    16
 74
     0
 42
0.0000000001
 43
0.0000000001
 12
1.0
 22
0.0
 32
0.0
 13
1.0
 23
0.0
 33
0.0
 40
0.0
 40
0.0
 40
0.0
 40
0.0
 40
0.2
 40
0.2
 40
0.2
 40
0.2
 40
0.4
 40
0.4
 40
0.4
 40
0.4
 40
0.6
 40
0.6
 40
0.6
 40
0.6
 40
1.0
 40
1.0
 40
1.0
 40
1.0
 10
92.8138
 20
67.6193
 30
0.0
 10
94.843
 20
68.7184
 30
0.0
 10
94.7082
 20
72.6338
 30
0.0
 10
91.8352
 20
71.7981
 30
0.0
 10
91.8352
 20
71.7981
 30
0.0
 10
74.2837
 20
62.8272
 30
0.0
 10
88.3785
 20
40.7834
 30
0.0
 10
93.074
 20
37.9765
 30
0.0
 10
93.074
 20
37.9765
 30
0.0
 10
95.8845
 20
36.3047
 30
0.0
 10
97.954
 20
39.4386
 30
0.0
 10
95.1973
 20
41.8371
 30
0.0
 10
95.1973
 20
41.8371
 30
0.0
 10
87.0908
 20
48.9232
 30
0.0
 10
83.2393
 20
62.432
 30
0.0
 10
92.8138
 20
67.6193
 30
0.0
  0
SPLINE
  5
48
330
1F
100
AcDbEntity
  8
layer 1
 62
     7
100
AcDbSpline
210
0.0
220
0.0
230
1.0
 70
    11
 71
     3
 72
    20
 73
    16
 74
     0
 42
0.0000000001
 43
0.0000000001
 12
1.0
 22
0.0
 32
0.0
 13
1.0
 23
0.0
 33
0.0
 40
0.0
 40
0.0
 40
0.0
 40
0.0
 40
0.2
 40
0.2
 40
0.2
 40
0.2
 40
0.4
 40
0.4
 40
0.4
 40
0.4
 40
0.6
 40
0.6
 40
0.6
 40
0.6
 40
1.0
 40
1.0
 40
1.0
 40
1.0
 10
99.5563
 20
38.7211
 30
0.0
 10
95.2557
 20
32.1393
 30
0.0
 10
95.4307
 20
23.7858
 30
0.0
 10
98.0164
 20
20.697
 30
0.0
 10
98.0164
 20
20.697
 30
0.0
 10
100.0497
 20
18.2626
 30
0.0
 10
102.4557
 20
21.8054
 30
0.0
 10
101.1719
 20
23.5134
 30
0.0
 10
101.1719
 20
23.5134
 30
0.0
 10
98.0164
 20
27.6922
 30
0.0
 10
101.7021
 20
34.4058
 30
0.0
 10
102.5366
 20
35.3962
 30
0.0
 10
102.5366
 20
35.3962
 30
0.0
 10
105.1629
 20
38.4846
 30
0.0
 10
101.9441
 20
42.3733
 30
0.0
 10
99.5563
 20
38.7211
 30
0.0
  0
SPLINE
  5
49
330
1F
100
AcDbEntity
  8
layer 1
 62
     7
100
AcDbSpline
210
0.0
220
0.0
230
1.0
 70
    11
 71
     3
 72
    12
 73
     8
 74
     0
 42
0.0000000001
 43
0.0000000001
 12
1.0
 22
0.0
 32
0.0
 13
1.0
 23
0.0
 33
0.0
 40
0.0
 40
0.0
 40
0.0
 40
0.0
 40
0.3333333333333333
 40
0.3333333333333333
 40
0.3333333333333333
 40
0.3333333333333333
 40
1.0
 40
1.0
 40
1.0
 40
1.0
 10
84.1099
 20
72.6841
 30
0.0
 10
88.8729
 20
72.1525
 30
0.0
 10
90.1428
 20
79.0659
 30
0.0
 10
84.671
 20
80.0111
 30
0.0
 10
84.671
 20
80.0111
 30
0.0
 10
80.972
 20
80.7193
 30
0.0
 10
79.76
 20
73.1608
 30
0.0
 10
84.1099
 20
72.6841
 30
0.0
  0
SPLINE
  5
4A
330
1F
100
AcDbEntity
  8
layer 1
 62
     7
100
AcDbSpline
210
0.0
220
0.0
230
1.0
 70
    11
 71
     3
 72
   108
 73
   104
 74
     0
 42
0.0000000001
 43
0.0000000001
 12
1.0
 22
0.0
 32
0.0
 13
1.0
 23
0.0
 33
0.0
 40
0.0
 40
0.0
 40
0.0
 40
0.0
 40
0.037037037037037
 40
0.037037037037037
 40
0.037037037037037
 40
0.037037037037037
 40
0.0740740740740741
 40
0.0740740740740741
 40
0.0740740740740741
 40
0.0740740740740741
 40
0.1111111111111111
 40
0.1111111111111111
 40
0.1111111111111111
 40
0.1111111111111111
 40
0.1481481481481481
 40
0.1481481481481481
 40
0.1481481481481481
 40
0.1481481481481481
 40
0.1851851851851852
 40
0.1851851851851852
 40
0.1851851851851852
 40
0.1851851851851852
 40
0.2222222222222222
 40
0.2222222222222222
 40
0.2222222222222222
 40
0.2222222222222222
 40
0.2592592592592592
 40
0.2592592592592592
 40
0.2592592592592592
 40
0.2592592592592592
 40
0.2962962962962963
 40
0.2962962962962963
 40
0.2962962962962963
 40
0.2962962962962963
 40
0.3333333333333333
 40
0.3333333333333333
 40
0.3333333333333333
 40
0.3333333333333333
 40
0.3703703703703703
 40
0.3703703703703703
 40
0.3703703703703703
 40
0.3703703703703703
 40
0.4074074074074074
 40
0.4074074074074074
 40
0.4074074074074074
 40
0.4074074074074074
 40
0.4444444444444444
 40
0.4444444444444444
 40
0.4444444444444444
 40
0.4444444444444444
 40
0.4814814814814815
 40
0.4814814814814815
 40
0.4814814814814815
 40
0.4814814814814815
 40
0.5185185185185185
 40
0.5185185185185185
 40
0.5185185185185185
 40
0.5185185185185185
 40
0.5555555555555556
 40
0.5555555555555556
 40
0.5555555555555556
 40
0.5555555555555556
 40
0.5925925925925926
 40
0.5925925925925926
 40
0.5925925925925926
 40
0.5925925925925926
 40
0.6296296296296297
 40
0.6296296296296297
 40
0.6296296296296297
 40
0.6296296296296297
 40
0.6666666666666666
 40
0.6666666666666666
 40
0.6666666666666666
 40
0.6666666666666666
 40
0.7037037037037037
 40
0.7037037037037037
 40
0.7037037037037037
 40
0.7037037037037037
 40
0.7407407407407407
 40
0.7407407407407407
 40
0.7407407407407407
 40
0.7407407407407407
 40
0.7777777777777778
 40
0.7777777777777778
 40
0.7777777777777778
 40
0.7777777777777778
 40
0.8148148148148148
 40
0.8148148148148148
 40
0.8148148148148148
 40
0.8148148148148148
 40
0.8518518518518519
 40
0.8518518518518519
 40
0.8518518518518519
 40
0.8518518518518519
 40
0.8888888888888888
 40
0.8888888888888888
 40
0.8888888888888888
 40
0.8888888888888888
 40
0.9259259259259259
 40
0.9259259259259259
 40
0.9259259259259259
 40
0.9259259259259259
 40
1.0
 40
1.0
 40
1.0
 40
1.0
 10
117.5471
 20
118.9021
 30
0.0
 10
114.6386
 20
119.9015
 30
0.0
 10
114.594
 20
118.1938
 30
0.0
 10
115.7698
 20
117.3487
 30
0.0
 10
115.7698
 20
117.3487
 30
0.0
 10
118.3647
 20
115.9046
 30
0.0
 10
118.2344
 20
114.1555
 30
0.0
 10
116.816
 20
113.2425
 30
0.0
 10
116.816
 20
113.2425
 30
0.0
 10
115.4557
 20
112.5341
 30
0.0
 10
114.3693
 20
113.5515
 30
0.0
 10
114.7553
 20
115.7771
 30
0.0
 10
114.7553
 20
115.7771
 30
0.0
 10
115.2091
 20
117.5757
 30
0.0
 10
111.9858
 20
119.4837
 30
0.0
 10
110.0467
 20
113.1928
 30
0.0
 10
110.0467
 20
113.1928
 30
0.0
 10
109.4137
 20
111.117
 30
0.0
 10
107.0345
 20
111.8979
 30
0.0
 10
107.4787
 20
114.1965
 30
0.0
 10
107.4787
 20
114.1965
 30
0.0
 10
108.0851
 20
118.2121
 30
0.0
 10
106.0471
 20
125.1342
 30
0.0
 10
85.9729
 20
122.3909
 30
0.0
 10
85.9729
 20
122.3909
 30
0.0
 10
84.716
 20
122.223
 30
0.0
 10
83.8676
 20
122.1637
 30
0.0
 10
83.5128
 20
121.328
 30
0.0
 10
83.5128
 20
121.328
 30
0.0
 10
83.0912
 20
119.7334
 30
0.0
 10
85.5149
 20
120.7191
 30
0.0
 10
84.4601
 20
117.0762
 30
0.0
 10
84.4601
 20
117.0762
 30
0.0
 10
83.5847
 20
114.0239
 30
0.0
 10
84.285
 20
101.2509
 30
0.0
 10
93.8332
 20
100.3425
 30
0.0
 10
93.8332
 20
100.3425
 30
0.0
 10
96.3555
 20
100.188
 30
0.0
 10
95.9471
 20
98.0532
 30
0.0
 10
93.9763
 20
98.0532
 30
0.0
 10
93.9763
 20
98.0532
 30
0.0
 10
89.2678
 20
98.0532
 30
0.0
 10
82.8845
 20
97.4488
 30
0.0
 10
82.7231
 20
93.0565
 30
0.0
 10
82.7231
 20
93.0565
 30
0.0
 10
82.6063
 20
82.3911
 30
0.0
 10
97.4916
 20
75.5503
 30
0.0
 10
106.617
 20
77.2221
 30
0.0
 10
106.617
 20
77.2221
 30
0.0
 10
114.6118
 20
79.0477
 30
0.0
 10
111.9858
 20
87.3151
 30
0.0
 10
106.4378
 20
86.1703
 30
0.0
 10
106.4378
 20
86.1703
 30
0.0
 10
101.4864
 20
85.1572
 30
0.0
 10
96.2255
 20
83.3088
 30
0.0
 10
91.6112
 20
87.4694
 30
0.0
 10
91.6112
 20
87.4694
 30
0.0
 10
90.4527
 20
88.5096
 30
0.0
 10
91.6601
 20
89.8267
 30
0.0
 10
92.715
 20
89.4224
 30
0.0
 10
92.715
 20
89.4224
 30
0.0
 10
95.5522
 20
88.3051
 30
0.0
 10
100.292
 20
87.0243
 30
0.0
 10
104.0447
 20
89.2137
 30
0.0
 10
104.0447
 20
89.2137
 30
0.0
 10
109.813
 20
92.484
 30
0.0
 10
100.1892
 20
100.615
 30
0.0
 10
97.7336
 20
103.5854
 30
0.0
 10
97.7336
 20
103.5854
 30
0.0
 10
96.3961
 20
105.257
 30
0.0
 10
96.2344
 20
107.8278
 30
0.0
 10
97.7158
 20
109.5813
 30
0.0
 10
97.7158
 20
109.5813
 30
0.0
 10
99.7852
 20
112.0342
 30
0.0
 10
103.9957
 20
108.5912
 30
0.0
 10
104.9608
 20
107.1469
 30
0.0
 10
104.9608
 20
107.1469
 30
0.0
 10
105.9304
 20
105.7205
 30
0.0
 10
111.631
 20
100.17
 30
0.0
 10
113.9471
 20
97.1991
 30
0.0
 10
113.9471
 20
97.1991
 30
0.0
 10
114.3693
 20
96.5903
 30
0.0
 10
115.635
 20
96.5175
 30
0.0
 10
116.3403
 20
97.426
 30
0.0
 10
116.3403
 20
97.426
 30
0.0
 10
117.5294
 20
99.4065
 30
0.0
 10
118.3016
 20
102.904
 30
0.0
 10
117.4577
 20
105.7927
 30
0.0
 10
117.4577
 20
105.7927
 30
0.0
 10
116.9549
 20
107.2376
 30
0.0
 10
118.8895
 20
107.4828
 30
0.0
 10
119.3923
 20
106.5742
 30
0.0
 10
119.3923
 20
106.5742
 30
0.0
 10
120.4069
 20
104.4984
 30
0.0
 10
120.3304
 20
101.0054
 30
0.0
 10
119.0739
 20
96.0544
 30
0.0
 10
119.0739
 20
96.0544
 30
0.0
 10
116.1199
 20
85.8703
 30
0.0
 10
123.2844
 20
85.1799
 30
0.0
 10
124.5994
 20
91.9933
 30
0.0
 10
124.5994
 20
91.9933
 30
0.0
 10
127.9347
 20
108.9545
 30
0.0
 10
120.0431
 20
117.5394
 30
0.0
 10
117.5471
 20
118.9021
 30
0.0
  0
SPLINE
  5
4B
330
1F
100
AcDbEntity
  8
layer 1
 62
     7
100
AcDbSpline
210
0.0
220
0.0
230
1.0
 70
    11
 71
     3
 72
   152
 73
   148
 74
     0
 42
0.0000000001
 43
0.0000000001
 12
1.0
 22
0.0
 32
0.0
 13
1.0
 23
0.0
 33
0.0
 40
0.0
 40
0.0
 40
0.0
 40
0.0
 40
0.0263157894736842
 40
0.0263157894736842
 40
0.0263157894736842
 40
0.0263157894736842
 40
0.0526315789473684
 40
0.0526315789473684
 40
0.0526315789473684
 40
0.0526315789473684
 40
0.0789473684210526
 40
0.0789473684210526
 40
0.0789473684210526
 40
0.0789473684210526
 40
0.1052631578947368
 40
0.1052631578947368
 40
0.1052631578947368
 40
0.1052631578947368
 40
0.131578947368421
 40
0.131578947368421
 40
0.131578947368421
 40
0.131578947368421
 40
0.1578947368421053
 40
0.1578947368421053
 40
0.1578947368421053
 40
0.1578947368421053
 40
0.1842105263157895
 40
0.1842105263157895
 40
0.1842105263157895
 40
0.1842105263157895
 40
0.2105263157894737
 40
0.2105263157894737
 40
0.2105263157894737
 40
0.2105263157894737
 40
0.2368421052631579
 40
0.2368421052631579
 40
0.2368421052631579
 40
0.2368421052631579
 40
0.2631578947368421
 40
0.2631578947368421
 40
0.2631578947368421
 40
0.2631578947368421
 40
0.2894736842105263
 40
0.2894736842105263
 40
0.2894736842105263
 40
0.2894736842105263
 40
0.3157894736842105
 40
0.3157894736842105
 40
0.3157894736842105
 40
0.3157894736842105
 40
0.3421052631578947
 40
0.3421052631578947
 40
0.3421052631578947
 40
0.3421052631578947
 40
0.3684210526315789
 40
0.3684210526315789
 40
0.3684210526315789
 40
0.3684210526315789
 40
0.3947368421052632
 40
0.3947368421052632
 40
0.3947368421052632
 40
0.3947368421052632
 40
0.4210526315789473
 40
0.4210526315789473
 40
0.4210526315789473
 40
0.4210526315789473
 40
0.4473684210526316
 40
0.4473684210526316
 40
0.4473684210526316
 40
0.4473684210526316
 40
0.4736842105263158
 40
0.4736842105263158
 40
0.4736842105263158
 40
0.4736842105263158
 40
0.5
 40
0.5
 40
0.5
 40
0.5
 40
0.5263157894736842
 40
0.5263157894736842
 40
0.5263157894736842
 40
0.5263157894736842
 40
0.5526315789473685
 40
0.5526315789473685
 40
0.5526315789473685
 40
0.5526315789473685
 40
0.5789473684210527
 40
0.5789473684210527
 40
0.5789473684210527
 40
0.5789473684210527
 40
0.6052631578947368
 40
0.6052631578947368
 40
0.6052631578947368
 40
0.6052631578947368
 40
0.631578947368421
 40
0.631578947368421
 40
0.631578947368421
 40
0.631578947368421
 40
0.6578947368421053
 40
0.6578947368421053
 40
0.6578947368421053
 40
0.6578947368421053
 40
0.6842105263157895
 40
0.6842105263157895
 40
0.6842105263157895
 40
0.6842105263157895
 40
0.7105263157894737
 40
0.7105263157894737
 40
0.7105263157894737
 40
0.7105263157894737
 40
0.7368421052631579
 40
0.7368421052631579
 40
0.7368421052631579
 40
0.7368421052631579
 40
0.7631578947368421
 40
0.7631578947368421
 40
0.7631578947368421
 40
0.7631578947368421
 40
0.7894736842105263
 40
0.7894736842105263
 40
0.7894736842105263
 40
0.7894736842105263
 40
0.8157894736842105
 40
0.8157894736842105
 40
0.8157894736842105
 40
0.8157894736842105
 40
0.8421052631578947
 40
0.8421052631578947
 40
0.8421052631578947
 40
0.8421052631578947
 40
0.868421052631579
 40
0.868421052631579
 40
0.868421052631579
 40
0.868421052631579
 40
0.8947368421052632
 40
0.8947368421052632
 40
0.8947368421052632
 40
0.8947368421052632
 40
0.9210526315789473
 40
0.9210526315789473
 40
0.9210526315789473
 40
0.9210526315789473
 40
0.9473684210526315
 40
0.9473684210526315
 40
0.9473684210526315
 40
0.9473684210526315
 40
1.0
 40
1.0
 40
1.0
 40
1.0
 10
124.7296
 20
68.2464
 30
0.0
 10
123.181
 20
77.9848
 30
0.0
 10
116.2998
 20
92.9747
 30
0.0
 10
104.2245
 20
104.2259
 30
0.0
 10
104.2245
 20
104.2259
 30
0.0
 10
103.4841
 20
104.8528
 30
0.0
 10
102.2314
 20
106.0565
 30
0.0
 10
101.7872
 20
106.7744
 30
0.0
 10
101.7872
 20
106.7744
 30
0.0
 10
101.7872
 20
106.7744
 30
0.0
 10
99.87
 20
107.9641
 30
0.0
 10
98.9547
 20
108.019
 30
0.0
 10
98.9547
 20
108.019
 30
0.0
 10
97.2042
 20
108.1005
 30
0.0
 10
99.0355
 20
105.8155
 30
0.0
 10
99.8077
 20
105.13
 30
0.0
 10
99.8077
 20
105.13
 30
0.0
 10
119.8056
 20
82.3911
 30
0.0
 10
121.3541
 20
65.8112
 30
0.0
 10
123.886
 20
50.6038
 30
0.0
 10
123.886
 20
50.6038
 30
0.0
 10
124.312
 20
47.5149
 30
0.0
 10
123.6029
 20
47.2607
 30
0.0
 10
122.6111
 20
48.6232
 30
0.0
 10
122.6111
 20
48.6232
 30
0.0
 10
121.8524
 20
49.8404
 30
0.0
 10
120.1912
 20
51.1128
 30
0.0
 10
119.0739
 20
52.0258
 30
0.0
 10
119.0739
 20
52.0258
 30
0.0
 10
116.7576
 20
53.8561
 30
0.0
 10
114.2928
 20
50.5856
 30
0.0
 10
116.816
 20
48.605
 30
0.0
 10
116.816
 20
48.605
 30
0.0
 10
118.2344
 20
47.5421
 30
0.0
 10
120.6537
 20
44.2989
 30
0.0
 10
121.9196
 20
42.9997
 30
0.0
 10
121.9196
 20
42.9997
 30
0.0
 10
125.7439
 20
39.0801
 30
0.0
 10
125.2907
 20
35.2418
 30
0.0
 10
131.1891
 20
30.5267
 30
0.0
 10
131.1891
 20
30.5267
 30
0.0
 10
132.4372
 20
29.4638
 30
0.0
 10
133.1285
 20
27.2834
 30
0.0
 10
128.7965
 20
28.855
 30
0.0
 10
128.7965
 20
28.855
 30
0.0
 10
119.6346
 20
32.1802
 30
0.0
 10
110.0823
 20
37.5038
 30
0.0
 10
105.0325
 20
49.1369
 30
0.0
 10
105.0325
 20
49.1369
 30
0.0
 10
104.1436
 20
51.185
 30
0.0
 10
100.3284
 20
49.7043
 30
0.0
 10
101.8724
 20
46.779
 30
0.0
 10
101.8724
 20
46.779
 30
0.0
 10
106.9939
 20
37.0493
 30
0.0
 10
113.0315
 20
29.8997
 30
0.0
 10
124.1595
 20
25.966
 30
0.0
 10
124.1595
 20
25.966
 30
0.0
 10
126.6826
 20
25.0577
 30
0.0
 10
131.3192
 20
23.377
 30
0.0
 10
131.8849
 20
22.9226
 30
0.0
 10
131.8849
 20
22.9226
 30
0.0
 10
136.5176
 20
21.0971
 30
0.0
 10
138.4794
 20
29.3142
 30
0.0
 10
140.0231
 20
32.8069
 30
0.0
 10
140.0231
 20
32.8069
 30
0.0
 10
140.306
 20
34.1789
 30
0.0
 10
140.7101
 20
34.2602
 30
0.0
 10
139.6105
 20
34.4831
 30
0.0
 10
139.6105
 20
34.4831
 30
0.0
 10
138.8338
 20
34.633
 30
0.0
 10
136.2394
 20
35.0875
 30
0.0
 10
134.9734
 20
36.3134
 30
0.0
 10
134.9734
 20
36.3134
 30
0.0
 10
130.7225
 20
40.8877
 30
0.0
 10
130.3405
 20
44.3719
 30
0.0
 10
129.847
 20
49.6134
 30
0.0
 10
129.847
 20
49.6134
 30
0.0
 10
129.5284
 20
52.9751
 30
0.0
 10
130.5069
 20
55.0509
 30
0.0
 10
132.6302
 20
55.1462
 30
0.0
 10
132.6302
 20
55.1462
 30
0.0
 10
134.1653
 20
55.2096
 30
0.0
 10
137.7787
 20
53.3658
 30
0.0
 10
140.7957
 20
56.3273
 30
0.0
 10
140.7957
 20
56.3273
 30
0.0
 10
144.7141
 20
60.1744
 30
0.0
 10
145.2888
 20
67.9826
 30
0.0
 10
150.0201
 20
71.0897
 30
0.0
 10
150.0201
 20
71.0897
 30
0.0
 10
156.0261
 20
75.0326
 30
0.0
 10
160.2368
 20
70.4265
 30
0.0
 10
160.0703
 20
73.2517
 30
0.0
 10
160.0703
 20
73.2517
 30
0.0
 10
159.8866
 20
76.0774
 30
0.0
 10
148.3008
 20
80.2286
 30
0.0
 10
145.2888
 20
72.2708
 30
0.0
 10
145.2888
 20
72.2708
 30
0.0
 10
144.7678
 20
70.6264
 30
0.0
 10
143.4708
 20
70.6809
 30
0.0
 10
142.7661
 20
71.5166
 30
0.0
 10
142.7661
 20
71.5166
 30
0.0
 10
142.0748
 20
72.3391
 30
0.0
 10
141.8141
 20
75.6047
 30
0.0
 10
138.5776
 20
72.1026
 30
0.0
 10
138.5776
 20
72.1026
 30
0.0
 10
136.3379
 20
69.7448
 30
0.0
 10
134.937
 20
63.5856
 30
0.0
 10
135.0718
 20
60.9968
 30
0.0
 10
135.0718
 20
60.9968
 30
0.0
 10
134.87
 20
57.6534
 30
0.0
 10
129.5012
 20
58.2079
 30
0.0
 10
131.0457
 20
63.6856
 30
0.0
 10
131.0457
 20
63.6856
 30
0.0
 10
133.6984
 20
73.1245
 30
0.0
 10
140.5931
 20
81.6324
 30
0.0
 10
155.0473
 20
88.9317
 30
0.0
 10
155.0473
 20
88.9317
 30
0.0
 10
159.6844
 20
91.3668
 30
0.0
 10
170.6237
 20
99.1523
 30
0.0
 10
176.1046
 20
107.4828
 30
0.0
 10
176.1046
 20
107.4828
 30
0.0
 10
178.6815
 20
111.3802
 30
0.0
 10
175.9747
 20
109.9176
 30
0.0
 10
175.9747
 20
109.9176
 30
0.0
 10
175.9747
 20
109.9176
 30
0.0
 10
163.3341
 20
91.3668
 30
0.0
 10
140.3013
 20
90.7673
 30
0.0
 10
131.4584
 20
74.0244
 30
0.0
 10
131.4584
 20
74.0244
 30
0.0
 10
130.9064
 20
72.9609
 30
0.0
 10
130.2735
 20
73.1152
 30
0.0
 10
130.4753
 20
74.1787
 30
0.0
 10
130.4753
 20
74.1787
 30
0.0
 10
132.4372
 20
83.6855
 30
0.0
 10
135.844
 20
89.5225
 30
0.0
 10
139.8528
 20
98.4164
 30
0.0
 10
139.8528
 20
98.4164
 30
0.0
 10
140.8359
 20
101.4551
 30
0.0
 10
137.6036
 20
102.3681
 30
0.0
 10
136.4814
 20
100.0881
 30
0.0
 10
136.4814
 20
100.0881
 30
0.0
 10
130.9334
 20
89.2137
 30
0.0
 10
126.7947
 20
80.1654
 30
0.0
 10
125.704
 20
68.2464
 30
0.0
 10
125.704
 20
68.2464
 30
0.0
 10
125.6364
 20
67.1833
 30
0.0
 10
124.9225
 20
67.0378
 30
0.0
 10
124.7296
 20
68.2464
 30
0.0
  0
SPLINE
  5
4C
330
1F
100
AcDbEntity
  8
layer 1
 62
     7
100
AcDbSpline
210
0.0
220
0.0
230
1.0
 70
    11
 71
     3
 72
    12
 73
     8
 74
     0
 42
0.0000000001
 43
0.0000000001
 12
1.0
 22
0.0
 32
0.0
 13
1.0
 23
0.0
 33
0.0
 40
0.0
 40
0.0
 40
0.0
 40
0.0
 40
0.3333333333333333
 40
0.3333333333333333
 40
0.3333333333333333
 40
0.3333333333333333
 40
1.0
 40
1.0
 40
1.0
 40
1.0
 10
139.1661
 20
47.2972
 30
0.0
 10
134.8164
 20
48.5143
 30
0.0
 10
133.5954
 20
42.632
 30
0.0
 10
137.0289
 20
41.0378
 30
0.0
 10
137.0289
 20
41.0378
 30
0.0
 10
141.5585
 20
38.9297
 30
0.0
 10
143.61
 20
45.6525
 30
0.0
 10
139.1661
 20
47.2972
 30
0.0
  0
SPLINE
  5
4D
330
1F
100
AcDbEntity
  8
layer 1
 62
     7
100
AcDbSpline
210
0.0
220
0.0
230
1.0
 70
    11
 71
     3
 72
    20
 73
    16
 74
     0
 42
0.0000000001
 43
0.0000000001
 12
1.0
 22
0.0
 32
0.0
 13
1.0
 23
0.0
 33
0.0
 40
0.0
 40
0.0
 40
0.0
 40
0.0
 40
0.2
 40
0.2
 40
0.2
 40
0.2
 40
0.4
 40
0.4
 40
0.4
 40
0.4
 40
0.6
 40
0.6
 40
0.6
 40
0.6
 40
1.0
 40
1.0
 40
1.0
 40
1.0
 10
130.3768
 20
102.7497
 30
0.0
 10
134.237
 20
104.3486
 30
0.0
 10
138.8157
 20
104.4669
 30
0.0
 10
141.4642
 20
103.7672
 30
0.0
 10
141.4642
 20
103.7672
 30
0.0
 10
143.502
 20
103.2403
 30
0.0
 10
144.7591
 20
107.4238
 30
0.0
 10
141.9533
 20
108.028
 30
0.0
 10
141.9533
 20
108.028
 30
0.0
 10
138.4748
 20
108.7867
 30
0.0
 10
132.7556
 20
108.2278
 30
0.0
 10
129.5284
 20
107.0831
 30
0.0
 10
129.5284
 20
107.0831
 30
0.0
 10
126.651
 20
106.093
 30
0.0
 10
128.258
 20
101.8774
 30
0.0
 10
130.3768
 20
102.7497
 30
0.0
  0
SPLINE
  5
4E
330
1F
100
AcDbEntity
  8
layer 1
 62
     7
100
AcDbSpline
210
0.0
220
0.0
230
1.0
 70
    11
 71
     3
 72
    28
 73
    24
 74
     0
 42
0.0000000001
 43
0.0000000001
 12
1.0
 22
0.0
 32
0.0
 13
1.0
 23
0.0
 33
0.0
 40
0.0
 40
0.0
 40
0.0
 40
0.0
 40
0.1428571428571428
 40
0.1428571428571428
 40
0.1428571428571428
 40
0.1428571428571428
 40
0.2857142857142857
 40
0.2857142857142857
 40
0.2857142857142857
 40
0.2857142857142857
 40
0.4285714285714285
 40
0.4285714285714285
 40
0.4285714285714285
 40
0.4285714285714285
 40
0.5714285714285714
 40
0.5714285714285714
 40
0.5714285714285714
 40
0.5714285714285714
 40
0.7142857142857143
 40
0.7142857142857143
 40
0.7142857142857143
 40
0.7142857142857143
 40
1.0
 40
1.0
 40
1.0
 40
1.0
 10
138.9372
 20
124.7982
 30
0.0
 10
135.3996
 20
125.9429
 30
0.0
 10
130.0267
 20
124.1216
 30
0.0
 10
128.4825
 20
118.8748
 30
0.0
 10
128.4825
 20
118.8748
 30
0.0
 10
126.633
 20
112.6154
 30
0.0
 10
131.2389
 20
110.735
 30
0.0
 10
133.0429
 20
113.5515
 30
0.0
 10
133.0429
 20
113.5515
 30
0.0
 10
134.7939
 20
116.2858
 30
0.0
 10
131.3776
 20
117.5394
 30
0.0
 10
133.3261
 20
120.0106
 30
0.0
 10
133.3261
 20
120.0106
 30
0.0
 10
136.4814
 20
124.0443
 30
0.0
 10
142.8692
 20
120.7734
 30
0.0
 10
140.5575
 20
113.0881
 30
0.0
 10
140.5575
 20
113.0881
 30
0.0
 10
139.7494
 20
110.2899
 30
0.0
 10
143.4125
 20
108.9637
 30
0.0
 10
144.2742
 20
111.7982
 30
0.0
 10
144.2742
 20
111.7982
 30
0.0
 10
145.9621
 20
117.3487
 30
0.0
 10
144.4493
 20
123.0359
 30
0.0
 10
138.9372
 20
124.7982
 30
0.0
  0
SPLINE
  5
4F
330
1F
100
AcDbEntity
  8
layer 1
 62
     7
100
AcDbSpline
210
0.0
220
0.0
230
1.0
 70
    11
 71
     3
 72
   108
 73
   104
 74
     0
 42
0.0000000001
 43
0.0000000001
 12
1.0
 22
0.0
 32
0.0
 13
1.0
 23
0.0
 33
0.0
 40
0.0
 40
0.0
 40
0.0
 40
0.0
 40
0.037037037037037
 40
0.037037037037037
 40
0.037037037037037
 40
0.037037037037037
 40
0.0740740740740741
 40
0.0740740740740741
 40
0.0740740740740741
 40
0.0740740740740741
 40
0.1111111111111111
 40
0.1111111111111111
 40
0.1111111111111111
 40
0.1111111111111111
 40
0.1481481481481481
 40
0.1481481481481481
 40
0.1481481481481481
 40
0.1481481481481481
 40
0.1851851851851852
 40
0.1851851851851852
 40
0.1851851851851852
 40
0.1851851851851852
 40
0.2222222222222222
 40
0.2222222222222222
 40
0.2222222222222222
 40
0.2222222222222222
 40
0.2592592592592592
 40
0.2592592592592592
 40
0.2592592592592592
 40
0.2592592592592592
 40
0.2962962962962963
 40
0.2962962962962963
 40
0.2962962962962963
 40
0.2962962962962963
 40
0.3333333333333333
 40
0.3333333333333333
 40
0.3333333333333333
 40
0.3333333333333333
 40
0.3703703703703703
 40
0.3703703703703703
 40
0.3703703703703703
 40
0.3703703703703703
 40
0.4074074074074074
 40
0.4074074074074074
 40
0.4074074074074074
 40
0.4074074074074074
 40
0.4444444444444444
 40
0.4444444444444444
 40
0.4444444444444444
 40
0.4444444444444444
 40
0.4814814814814815
 40
0.4814814814814815
 40
0.4814814814814815
 40
0.4814814814814815
 40
0.5185185185185185
 40
0.5185185185185185
 40
0.5185185185185185
 40
0.5185185185185185
 40
0.5555555555555556
 40
0.5555555555555556
 40
0.5555555555555556
 40
0.5555555555555556
 40
0.5925925925925926
 40
0.5925925925925926
 40
0.5925925925925926
 40
0.5925925925925926
 40
0.6296296296296297
 40
0.6296296296296297
 40
0.6296296296296297
 40
0.6296296296296297
 40
0.6666666666666666
 40
0.6666666666666666
 40
0.6666666666666666
 40
0.6666666666666666
 40
0.7037037037037037
 40
0.7037037037037037
 40
0.7037037037037037
 40
0.7037037037037037
 40
0.7407407407407407
 40
0.7407407407407407
 40
0.7407407407407407
 40
0.7407407407407407
 40
0.7777777777777778
 40
0.7777777777777778
 40
0.7777777777777778
 40
0.7777777777777778
 40
0.8148148148148148
 40
0.8148148148148148
 40
0.8148148148148148
 40
0.8148148148148148
 40
0.8518518518518519
 40
0.8518518518518519
 40
0.8518518518518519
 40
0.8518518518518519
 40
0.8888888888888888
 40
0.8888888888888888
 40
0.8888888888888888
 40
0.8888888888888888
 40
0.9259259259259259
 40
0.9259259259259259
 40
0.9259259259259259
 40
0.9259259259259259
 40
1.0
 40
1.0
 40
1.0
 40
1.0
 10
191.3984
 20
93.3923
 30
0.0
 10
189.5038
 20
98.262
 30
0.0
 10
184.2165
 20
95.0145
 30
0.0
 10
180.9886
 20
96.9808
 30
0.0
 10
180.9886
 20
96.9808
 30
0.0
 10
179.0945
 20
98.1349
 30
0.0
 10
180.1852
 20
100.188
 30
0.0
 10
182.0031
 20
99.9242
 30
0.0
 10
182.0031
 20
99.9242
 30
0.0
 10
185.069
 20
99.4886
 30
0.0
 10
188.1172
 20
103.9034
 30
0.0
 10
188.714
 20
106.9333
 30
0.0
 10
188.714
 20
106.9333
 30
0.0
 10
189.5488
 20
111.1895
 30
0.0
 10
189.4055
 20
113.4742
 30
0.0
 10
188.427
 20
119.4018
 30
0.0
 10
188.427
 20
119.4018
 30
0.0
 10
187.0621
 20
125.2617
 30
0.0
 10
183.8302
 20
123.1541
 30
0.0
 10
182.7079
 20
122.0907
 30
0.0
 10
182.7079
 20
122.0907
 30
0.0
 10
180.3244
 20
120.4149
 30
0.0
 10
179.476
 20
122.9997
 30
0.0
 10
173.6584
 20
121.328
 30
0.0
 10
173.6584
 20
121.328
 30
0.0
 10
162.9571
 20
118.2526
 30
0.0
 10
164.1781
 20
112.3612
 30
0.0
 10
162.4902
 20
112.6609
 30
0.0
 10
162.4902
 20
112.6609
 30
0.0
 10
160.353
 20
113.0471
 30
0.0
 10
160.7618
 20
114.3872
 30
0.0
 10
161.6549
 20
119.3472
 30
0.0
 10
161.6549
 20
119.3472
 30
0.0
 10
162.7681
 20
125.5839
 30
0.0
 10
154.7873
 20
126.4244
 30
0.0
 10
149.4321
 20
116.1222
 30
0.0
 10
149.4321
 20
116.1222
 30
0.0
 10
145.639
 20
108.8544
 30
0.0
 10
143.8165
 20
102.922
 30
0.0
 10
145.2257
 20
96.5358
 30
0.0
 10
145.2257
 20
96.5358
 30
0.0
 10
148.036
 20
89.2365
 30
0.0
 10
153.6109
 20
95.073
 30
0.0
 10
152.4888
 20
98.1074
 30
0.0
 10
152.4888
 20
98.1074
 30
0.0
 10
150.6934
 20
103.5947
 30
0.0
 10
151.8199
 20
105.0751
 30
0.0
 10
151.8199
 20
106.1197
 30
0.0
 10
151.8199
 20
106.1197
 30
0.0
 10
151.8199
 20
110.4536
 30
0.0
 10
156.2461
 20
112.8063
 30
0.0
 10
155.0114
 20
107.0831
 30
0.0
 10
155.0114
 20
107.0831
 30
0.0
 10
153.6109
 20
98.262
 30
0.0
 10
159.8866
 20
94.746
 30
0.0
 10
174.8031
 20
111.9526
 30
0.0
 10
174.8031
 20
111.9526
 30
0.0
 10
175.7862
 20
113.3968
 30
0.0
 10
177.4019
 20
115.0686
 30
0.0
 10
177.8239
 20
115.5319
 30
0.0
 10
177.8239
 20
115.5319
 30
0.0
 10
179.5836
 20
117.1216
 30
0.0
 10
180.9798
 20
116.3947
 30
0.0
 10
181.1281
 20
114.2329
 30
0.0
 10
181.1281
 20
114.2329
 30
0.0
 10
181.1998
 20
113.2425
 30
0.0
 10
180.2885
 20
110.9032
 30
0.0
 10
179.763
 20
109.8628
 30
0.0
 10
179.763
 20
109.8628
 30
0.0
 10
179.2517
 20
108.8274
 30
0.0
 10
177.7926
 20
106.3475
 30
0.0
 10
177.7926
 20
106.3475
 30
0.0
 10
177.7926
 20
106.3475
 30
0.0
 10
175.9747
 20
102.1681
 30
0.0
 10
171.3065
 20
96.6266
 30
0.0
 10
166.6648
 20
93.3923
 30
0.0
 10
166.6648
 20
93.3923
 30
0.0
 10
164.6941
 20
92.0253
 30
0.0
 10
164.8553
 20
90.3672
 30
0.0
 10
166.9879
 20
89.6952
 30
0.0
 10
166.9879
 20
89.6952
 30
0.0
 10
170.229
 20
88.9002
 30
0.0
 10
175.8535
 20
89.4817
 30
0.0
 10
178.0755
 20
89.9952
 30
0.0
 10
178.0755
 20
89.9952
 30
0.0
 10
180.1852
 20
90.7581
 30
0.0
 10
181.0697
 20
89.068
 30
0.0
 10
178.2191
 20
87.9416
 30
0.0
 10
178.2191
 20
87.9416
 30
0.0
 10
174.125
 20
86.3112
 30
0.0
 10
164.5238
 20
85.489
 30
0.0
 10
162.3063
 20
86.7335
 30
0.0
 10
162.3063
 20
86.7335
 30
0.0
 10
159.3656
 20
88.3778
 30
0.0
 10
153.6109
 20
86.2521
 30
0.0
 10
155.6762
 20
83.1449
 30
0.0
 10
155.6762
 20
83.1449
 30
0.0
 10
158.6746
 20
78.6528
 30
0.0
 10
173.0255
 20
78.589
 30
0.0
 10
179.763
 20
80.1108
 30
0.0
 10
179.763
 20
80.1108
 30
0.0
 10
188.3281
 20
82.5454
 30
0.0
 10
193.2928
 20
88.5228
 30
0.0
 10
191.3984
 20
93.3923
 30
0.0
  0
SPLINE
  5
50
330
1F
100
AcDbEntity
  8
layer 1
 62
     7
100
AcDbSpline
210
0.0
220
0.0
230
1.0
 70
    11
 71
     3
 72
    20
 73
    16
 74
     0
 42
0.0000000001
 43
0.0000000001
 12
1.0
 22
0.0
 32
0.0
 13
1.0
 23
0.0
 33
0.0
 40
0.0
 40
0.0
 40
0.0
 40
0.0
 40
0.2
 40
0.2
 40
0.2
 40
0.2
 40
0.4
 40
0.4
 40
0.4
 40
0.4
 40
0.6
 40
0.6
 40
0.6
 40
0.6
 40
1.0
 40
1.0
 40
1.0
 40
1.0
 10
163.2936
 20
33.1657
 30
0.0
 10
159.2356
 20
29.7632
 30
0.0
 10
161.6549
 20
29.2
 30
0.0
 10
163.7785
 20
30.7354
 30
0.0
 10
163.7785
 20
30.7354
 30
0.0
 10
174.2509
 20
39.4024
 30
0.0
 10
180.854
 20
51.5759
 30
0.0
 10
178.1789
 20
73.2429
 30
0.0
 10
178.1789
 20
73.2429
 30
0.0
 10
177.622
 20
76.8219
 30
0.0
 10
173.8244
 20
74.7326
 30
0.0
 10
174.1523
 20
72.8835
 30
0.0
 10
174.1523
 20
72.8835
 30
0.0
 10
177.052
 20
56.5905
 30
0.0
 10
174.7358
 20
45.3348
 30
0.0
 10
163.2936
 20
33.1657
 30
0.0
  0
SPLINE
  5
51
330
1F
100
AcDbEntity
  8
layer 1
 62
     7
100
AcDbSpline
210
0.0
220
0.0
230
1.0
 70
    11
 71
     3
 72
    28
 73
    24
 74
     0
 42
0.0000000001
 43
0.0000000001
 12
1.0
 22
0.0
 32
0.0
 13
1.0
 23
0.0
 33
0.0
 40
0.0
 40
0.0
 40
0.0
 40
0.0
 40
0.1428571428571428
 40
0.1428571428571428
 40
0.1428571428571428
 40
0.1428571428571428
 40
0.2857142857142857
 40
0.2857142857142857
 40
0.2857142857142857
 40
0.2857142857142857
 40
0.4285714285714285
 40
0.4285714285714285
 40
0.4285714285714285
 40
0.4285714285714285
 40
0.5714285714285714
 40
0.5714285714285714
 40
0.5714285714285714
 40
0.5714285714285714
 40
0.7142857142857143
 40
0.7142857142857143
 40
0.7142857142857143
 40
0.7142857142857143
 40
1.0
 40
1.0
 40
1.0
 40
1.0
 10
189.1182
 20
70.4855
 30
0.0
 10
192.2872
 20
71.0259
 30
0.0
 10
192.3547
 20
77.4215
 30
0.0
 10
189.2748
 20
75.9047
 30
0.0
 10
189.2748
 20
75.9047
 30
0.0
 10
187.6725
 20
75.1188
 30
0.0
 10
187.264
 20
73.9785
 30
0.0
 10
183.6637
 20
75.1415
 30
0.0
 10
183.6637
 20
75.1415
 30
0.0
 10
182.2455
 20
75.6047
 30
0.0
 10
179.3325
 20
74.0606
 30
0.0
 10
181.4465
 20
72.1254
 30
0.0
 10
181.4465
 20
72.1254
 30
0.0
 10
182.5013
 20
71.2166
 30
0.0
 10
182.0031
 20
69.7678
 30
0.0
 10
182.4522
 20
68.6004
 30
0.0
 10
182.4522
 20
68.6004
 30
0.0
 10
184.1801
 20
63.6083
 30
0.0
 10
189.6523
 20
65.6616
 30
0.0
 10
187.7357
 20
69.3911
 30
0.0
 10
187.7357
 20
69.3911
 30
0.0
 10
187.6548
 20
69.8813
 30
0.0
 10
188.1841
 20
70.3812
 30
0.0
 10
189.1182
 20
70.4855
 30
0.0
  0
SPLINE
  5
52
330
1F
100
AcDbEntity
  8
layer 1
 62
     7
100
AcDbSpline
210
0.0
220
0.0
230
1.0
 70
    11
 71
     3
 72
    88
 73
    84
 74
     0
 42
0.0000000001
 43
0.0000000001
 12
1.0
 22
0.0
 32
0.0
 13
1.0
 23
0.0
 33
0.0
 40
0.0
 40
0.0
 40
0.0
 40
0.0
 40
0.0454545454545455
 40
0.0454545454545455
 40
0.0454545454545455
 40
0.0454545454545455
 40
0.0909090909090909
 40
0.0909090909090909
 40
0.0909090909090909
 40
0.0909090909090909
 40
0.1363636363636364
 40
0.1363636363636364
 40
0.1363636363636364
 40
0.1363636363636364
 40
0.1818181818181818
 40
0.1818181818181818
 40
0.1818181818181818
 40
0.1818181818181818
 40
0.2272727272727273
 40
0.2272727272727273
 40
0.2272727272727273
 40
0.2272727272727273
 40
0.2727272727272727
 40
0.2727272727272727
 40
0.2727272727272727
 40
0.2727272727272727
 40
0.3181818181818182
 40
0.3181818181818182
 40
0.3181818181818182
 40
0.3181818181818182
 40
0.3636363636363636
 40
0.3636363636363636
 40
0.3636363636363636
 40
0.3636363636363636
 40
0.4090909090909091
 40
0.4090909090909091
 40
0.4090909090909091
 40
0.4090909090909091
 40
0.4545454545454545
 40
0.4545454545454545
 40
0.4545454545454545
 40
0.4545454545454545
 40
0.5
 40
0.5
 40
0.5
 40
0.5
 40
0.5454545454545454
 40
0.5454545454545454
 40
0.5454545454545454
 40
0.5454545454545454
 40
0.5909090909090909
 40
0.5909090909090909
 40
0.5909090909090909
 40
0.5909090909090909
 40
0.6363636363636364
 40
0.6363636363636364
 40
0.6363636363636364
 40
0.6363636363636364
 40
0.6818181818181818
 40
0.6818181818181818
 40
0.6818181818181818
 40
0.6818181818181818
 40
0.7272727272727273
 40
0.7272727272727273
 40
0.7272727272727273
 40
0.7272727272727273
 40
0.7727272727272727
 40
0.7727272727272727
 40
0.7727272727272727
 40
0.7727272727272727
 40
0.8181818181818182
 40
0.8181818181818182
 40
0.8181818181818182
 40
0.8181818181818182
 40
0.8636363636363636
 40
0.8636363636363636
 40
0.8636363636363636
 40
0.8636363636363636
 40
0.9090909090909091
 40
0.9090909090909091
 40
0.9090909090909091
 40
0.9090909090909091
 40
1.0
 40
1.0
 40
1.0
 40
1.0
 10
188.9922
 20
56.8267
 30
0.0
 10
185.7423
 20
63.4494
 30
0.0
 10
178.8297
 20
57.5626
 30
0.0
 10
181.7789
 20
52.6661
 30
0.0
 10
181.7789
 20
52.6661
 30
0.0
 10
185.2082
 20
47.0064
 30
0.0
 10
187.3044
 20
40.9239
 30
0.0
 10
186.4562
 20
32.8612
 30
0.0
 10
186.4562
 20
32.8612
 30
0.0
 10
185.9401
 20
27.8646
 30
0.0
 10
181.4737
 20
29.155
 30
0.0
 10
182.9952
 20
33.6702
 30
0.0
 10
182.9952
 20
33.6702
 30
0.0
 10
185.482
 20
41.0741
 30
0.0
 10
180.4275
 20
48.6777
 30
0.0
 10
177.1956
 20
42.5956
 30
0.0
 10
177.1956
 20
42.5956
 30
0.0
 10
169.5913
 20
28.2736
 30
0.0
 10
161.2959
 20
25.966
 30
0.0
 10
158.064
 20
27.2927
 30
0.0
 10
158.064
 20
27.2927
 30
0.0
 10
157.5074
 20
27.4834
 30
0.0
 10
158.001
 20
28.7006
 30
0.0
 10
156.0397
 20
27.2604
 30
0.0
 10
156.0397
 20
27.2604
 30
0.0
 10
153.9071
 20
25.4666
 30
0.0
 10
151.4923
 20
23.3315
 30
0.0
 10
150.7828
 20
24.8761
 30
0.0
 10
150.7828
 20
24.8761
 30
0.0
 10
150.0693
 20
26.4111
 30
0.0
 10
167.2302
 20
37.4265
 30
0.0
 10
169.7531
 20
49.4411
 30
0.0
 10
169.7531
 20
49.4411
 30
0.0
 10
171.2792
 20
56.6813
 30
0.0
 10
161.1166
 20
56.0548
 30
0.0
 10
156.0397
 20
51.6667
 30
0.0
 10
156.0397
 20
51.6667
 30
0.0
 10
154.5357
 20
50.3766
 30
0.0
 10
152.9599
 20
52.3254
 30
0.0
 10
155.2899
 20
54.5375
 30
0.0
 10
155.2899
 20
54.5375
 30
0.0
 10
157.2292
 20
56.218
 30
0.0
 10
160.8201
 20
58.7751
 30
0.0
 10
166.6648
 20
58.0352
 30
0.0
 10
166.6648
 20
58.0352
 30
0.0
 10
171.9075
 20
57.3989
 30
0.0
 10
171.6205
 20
63.9856
 30
0.0
 10
167.9843
 20
65.4662
 30
0.0
 10
167.9843
 20
65.4662
 30
0.0
 10
155.438
 20
70.0722
 30
0.0
 10
132.0284
 20
43.9356
 30
0.0
 10
149.0506
 20
44.7078
 30
0.0
 10
149.0506
 20
44.7078
 30
0.0
 10
154.7333
 20
44.9621
 30
0.0
 10
155.3305
 20
40.6332
 30
0.0
 10
151.9592
 20
38.6665
 30
0.0
 10
151.9592
 20
38.6665
 30
0.0
 10
138.7215
 20
30.8853
 30
0.0
 10
141.9533
 20
19.7887
 30
0.0
 10
136.0552
 20
19.6341
 30
0.0
 10
136.0552
 20
19.6341
 30
0.0
 10
130.8526
 20
19.4979
 30
0.0
 10
132.1272
 20
15.528
 30
0.0
 10
136.3379
 20
14.4603
 30
0.0
 10
136.3379
 20
14.4603
 30
0.0
 10
154.7155
 20
9.8138
 30
0.0
 10
168.285
 20
16.6452
 30
0.0
 10
171.9348
 20
26.3796
 30
0.0
 10
171.9348
 20
26.3796
 30
0.0
 10
172.6395
 20
28.0553
 30
0.0
 10
174.4573
 20
28.3553
 30
0.0
 10
175.4447
 20
27.1383
 30
0.0
 10
175.4447
 20
27.1383
 30
0.0
 10
177.5458
 20
24.2493
 30
0.0
 10
176.787
 20
20.6514
 30
0.0
 10
176.217
 20
18.721
 30
0.0
 10
176.217
 20
18.721
 30
0.0
 10
174.2509
 20
12.0259
 30
0.0
 10
183.2377
 20
12.6753
 30
0.0
 10
186.7521
 20
18.417
 30
0.0
 10
186.7521
 20
18.417
 30
0.0
 10
191.9414
 20
26.9293
 30
0.0
 10
194.3251
 20
45.943
 30
0.0
 10
188.9922
 20
56.8267
 30
0.0
  0
SPLINE
  5
53
330
1F
100
AcDbEntity
  8
layer 1
 62
     7
100
AcDbSpline
210
0.0
220
0.0
230
1.0
 70
    11
 71
     3
 72
    20
 73
    16
 74
     0
 42
0.0000000001
 43
0.0000000001
 12
1.0
 22
0.0
 32
0.0
 13
1.0
 23
0.0
 33
0.0
 40
0.0
 40
0.0
 40
0.0
 40
0.0
 40
0.2
 40
0.2
 40
0.2
 40
0.2
 40
0.4
 40
0.4
 40
0.4
 40
0.4
 40
0.6
 40
0.6
 40
0.6
 40
0.6
 40
1.0
 40
1.0
 40
1.0
 40
1.0
 10
112.9645
 20
-104.4279
 30
0.0
 10
116.3403
 20
-104.5784
 30
0.0
 10
119.4506
 20
-101.88
 30
0.0
 10
121.0399
 20
-100.2446
 30
0.0
 10
121.0399
 20
-100.2446
 30
0.0
 10
123.9891
 20
-97.2013
 30
0.0
 10
120.1912
 20
-93.8584
 30
0.0
 10
118.0906
 20
-97.3556
 30
0.0
 10
118.0906
 20
-97.3556
 30
0.0
 10
117.112
 20
-98.9499
 30
0.0
 10
114.6432
 20
-100.472
 30
0.0
 10
113.5211
 20
-100.172
 30
0.0
 10
113.5211
 20
-100.172
 30
0.0
 10
111.1374
 20
-99.6364
 30
0.0
 10
110.0153
 20
-103.9693
 30
0.0
 10
112.9645
 20
-104.4279
 30
0.0
  0
SPLINE
  5
54
330
1F
100
AcDbEntity
  8
layer 1
 62
     7
100
AcDbSpline
210
0.0
220
0.0
230
1.0
 70
    11
 71
     3
 72
    28
 73
    24
 74
     0
 42
0.0000000001
 43
0.0000000001
 12
1.0
 22
0.0
 32
0.0
 13
1.0
 23
0.0
 33
0.0
 40
0.0
 40
0.0
 40
0.0
 40
0.0
 40
0.1428571428571428
 40
0.1428571428571428
 40
0.1428571428571428
 40
0.1428571428571428
 40
0.2857142857142857
 40
0.2857142857142857
 40
0.2857142857142857
 40
0.2857142857142857
 40
0.4285714285714285
 40
0.4285714285714285
 40
0.4285714285714285
 40
0.4285714285714285
 40
0.5714285714285714
 40
0.5714285714285714
 40
0.5714285714285714
 40
0.5714285714285714
 40
0.7142857142857143
 40
0.7142857142857143
 40
0.7142857142857143
 40
0.7142857142857143
 40
1.0
 40
1.0
 40
1.0
 40
1.0
 10
111.2814
 20
-95.1482
 30
0.0
 10
111.9097
 20
-92.1818
 30
0.0
 10
111.4875
 20
-88.3028
 30
0.0
 10
108.5383
 20
-85.2639
 30
0.0
 10
108.5383
 20
-85.2639
 30
0.0
 10
105.3782
 20
-82.0028
 30
0.0
 10
102.4963
 20
-86.3268
 30
0.0
 10
105.5621
 20
-88.3529
 30
0.0
 10
105.5621
 20
-88.3529
 30
0.0
 10
108.0224
 20
-89.9972
 30
0.0
 10
108.1523
 20
-93.6809
 30
0.0
 10
107.0345
 20
-95.8112
 30
0.0
 10
107.0345
 20
-95.8112
 30
0.0
 10
100.9835
 20
-107.2759
 30
0.0
 10
81.2369
 20
-97.1286
 30
0.0
 10
86.8479
 20
-78.187
 30
0.0
 10
86.8479
 20
-78.187
 30
0.0
 10
88.6033
 20
-73.5268
 30
0.0
 10
84.3931
 20
-72.9453
 30
0.0
 10
83.5531
 20
-75.6073
 30
0.0
 10
83.5531
 20
-75.6073
 30
0.0
 10
74.6115
 20
-103.8329
 30
0.0
 10
107.3487
 20
-113.5808
 30
0.0
 10
111.2814
 20
-95.1482
 30
0.0
  0
SPLINE
  5
55
330
1F
100
AcDbEntity
  8
layer 1
 62
     7
100
AcDbSpline
210
0.0
220
0.0
230
1.0
 70
    11
 71
     3
 72
    20
 73
    16
 74
     0
 42
0.0000000001
 43
0.0000000001
 12
1.0
 22
0.0
 32
0.0
 13
1.0
 23
0.0
 33
0.0
 40
0.0
 40
0.0
 40
0.0
 40
0.0
 40
0.2
 40
0.2
 40
0.2
 40
0.2
 40
0.4
 40
0.4
 40
0.4
 40
0.4
 40
0.6
 40
0.6
 40
0.6
 40
0.6
 40
1.0
 40
1.0
 40
1.0
 40
1.0
 10
108.4709
 20
-65.4868
 30
0.0
 10
107.1066
 20
-68.3665
 30
0.0
 10
111.0207
 20
-69.9564
 30
0.0
 10
112.053
 20
-67.6219
 30
0.0
 10
112.053
 20
-67.6219
 30
0.0
 10
116.2636
 20
-58.0374
 30
0.0
 10
115.7698
 20
-50.8151
 30
0.0
 10
106.9269
 20
-45.3369
 30
0.0
 10
106.9269
 20
-45.3369
 30
0.0
 10
105.0818
 20
-44.306
 30
0.0
 10
103.0262
 20
-47.7808
 30
0.0
 10
105.3107
 20
-49.216
 30
0.0
 10
105.3107
 20
-49.216
 30
0.0
 10
111.6894
 20
-53.2497
 30
0.0
 10
111.7705
 20
-58.4917
 30
0.0
 10
108.4709
 20
-65.4868
 30
0.0
  0
SPLINE
  5
56
330
1F
100
AcDbEntity
  8
layer 1
 62
     7
100
AcDbSpline
210
0.0
220
0.0
230
1.0
 70
    11
 71
     3
 72
    20
 73
    16
 74
     0
 42
0.0000000001
 43
0.0000000001
 12
1.0
 22
0.0
 32
0.0
 13
1.0
 23
0.0
 33
0.0
 40
0.0
 40
0.0
 40
0.0
 40
0.0
 40
0.2
 40
0.2
 40
0.2
 40
0.2
 40
0.4
 40
0.4
 40
0.4
 40
0.4
 40
0.6
 40
0.6
 40
0.6
 40
0.6
 40
1.0
 40
1.0
 40
1.0
 40
1.0
 10
105.4499
 20
-59.1048
 30
0.0
 10
101.4864
 20
-58.3644
 30
0.0
 10
95.9696
 20
-59.8635
 30
0.0
 10
92.7463
 20
-62.7525
 30
0.0
 10
92.7463
 20
-62.7525
 30
0.0
 10
90.2915
 20
-65.3412
 30
0.0
 10
93.3029
 20
-67.9215
 30
0.0
 10
94.9239
 20
-66.5587
 30
0.0
 10
94.9239
 20
-66.5587
 30
0.0
 10
96.6337
 20
-64.896
 30
0.0
 10
101.5222
 20
-62.9794
 30
0.0
 10
105.1401
 20
-63.4337
 30
0.0
 10
105.1401
 20
-63.4337
 30
0.0
 10
106.9939
 20
-63.7426
 30
0.0
 10
108.3274
 20
-59.6365
 30
0.0
 10
105.4499
 20
-59.1048
 30
0.0
  0
SPLINE
  5
57
330
1F
100
AcDbEntity
  8
layer 1
 62
     7
100
AcDbSpline
210
0.0
220
0.0
230
1.0
 70
    11
 71
     3
 72
    20
 73
    16
 74
     0
 42
0.0000000001
 43
0.0000000001
 12
1.0
 22
0.0
 32
0.0
 13
1.0
 23
0.0
 33
0.0
 40
0.0
 40
0.0
 40
0.0
 40
0.0
 40
0.2
 40
0.2
 40
0.2
 40
0.2
 40
0.4
 40
0.4
 40
0.4
 40
0.4
 40
0.6
 40
0.6
 40
0.6
 40
0.6
 40
1.0
 40
1.0
 40
1.0
 40
1.0
 10
101.4191
 20
-45.1736
 30
0.0
 10
101.5581
 20
-41.34
 30
0.0
 10
97.9133
 20
-41.667
 30
0.0
 10
97.3117
 20
-45.1099
 30
0.0
 10
97.3117
 20
-45.1099
 30
0.0
 10
96.6562
 20
-48.8071
 30
0.0
 10
96.8001
 20
-51.7692
 30
0.0
 10
97.644
 20
-54.5033
 30
0.0
 10
97.644
 20
-54.5033
 30
0.0
 10
98.51
 20
-57.3377
 30
0.0
 10
101.9441
 20
-56.2113
 30
0.0
 10
101.3789
 20
-53.7856
 30
0.0
 10
101.3789
 20
-53.7856
 30
0.0
 10
101.0465
 20
-52.3412
 30
0.0
 10
101.006
 20
-47.9168
 30
0.0
 10
101.4191
 20
-45.1736
 30
0.0
  0
SPLINE
  5
58
330
1F
100
AcDbEntity
  8
layer 1
 62
     7
100
AcDbSpline
210
0.0
220
0.0
230
1.0
 70
    11
 71
     3
 72
    20
 73
    16
 74
     0
 42
0.0000000001
 43
0.0000000001
 12
1.0
 22
0.0
 32
0.0
 13
1.0
 23
0.0
 33
0.0
 40
0.0
 40
0.0
 40
0.0
 40
0.0
 40
0.2
 40
0.2
 40
0.2
 40
0.2
 40
0.4
 40
0.4
 40
0.4
 40
0.4
 40
0.6
 40
0.6
 40
0.6
 40
0.6
 40
1.0
 40
1.0
 40
1.0
 40
1.0
 10
92.8138
 20
-48.8346
 30
0.0
 10
94.843
 20
-47.7354
 30
0.0
 10
94.7082
 20
-43.82
 30
0.0
 10
91.8352
 20
-44.6559
 30
0.0
 10
91.8352
 20
-44.6559
 30
0.0
 10
74.2837
 20
-53.6268
 30
0.0
 10
88.3785
 20
-75.6706
 30
0.0
 10
93.074
 20
-78.4775
 30
0.0
 10
93.074
 20
-78.4775
 30
0.0
 10
95.8845
 20
-80.1492
 30
0.0
 10
97.954
 20
-77.0152
 30
0.0
 10
95.1973
 20
-74.6169
 30
0.0
 10
95.1973
 20
-74.6169
 30
0.0
 10
87.0908
 20
-67.5308
 30
0.0
 10
83.2393
 20
-54.0218
 30
0.0
 10
92.8138
 20
-48.8346
 30
0.0
  0
SPLINE
  5
59
330
1F
100
AcDbEntity
  8
layer 1
 62
     7
100
AcDbSpline
210
0.0
220
0.0
230
1.0
 70
    11
 71
     3
 72
    20
 73
    16
 74
     0
 42
0.0000000001
 43
0.0000000001
 12
1.0
 22
0.0
 32
0.0
 13
1.0
 23
0.0
 33
0.0
 40
0.0
 40
0.0
 40
0.0
 40
0.0
 40
0.2
 40
0.2
 40
0.2
 40
0.2
 40
0.4
 40
0.4
 40
0.4
 40
0.4
 40
0.6
 40
0.6
 40
0.6
 40
0.6
 40
1.0
 40
1.0
 40
1.0
 40
1.0
 10
99.5563
 20
-77.7329
 30
0.0
 10
95.2557
 20
-84.3145
 30
0.0
 10
95.4307
 20
-92.668
 30
0.0
 10
98.0164
 20
-95.757
 30
0.0
 10
98.0164
 20
-95.757
 30
0.0
 10
100.0497
 20
-98.1913
 30
0.0
 10
102.4557
 20
-94.6485
 30
0.0
 10
101.1719
 20
-92.9405
 30
0.0
 10
101.1719
 20
-92.9405
 30
0.0
 10
98.0164
 20
-88.7616
 30
0.0
 10
101.7021
 20
-82.0482
 30
0.0
 10
102.5366
 20
-81.0578
 30
0.0
 10
102.5366
 20
-81.0578
 30
0.0
 10
105.1629
 20
-77.9694
 30
0.0
 10
101.9441
 20
-74.0807
 30
0.0
 10
99.5563
 20
-77.7329
 30
0.0
  0
SPLINE
  5
5A
330
1F
100
AcDbEntity
  8
layer 1
 62
     7
100
AcDbSpline
210
0.0
220
0.0
230
1.0
 70
    11
 71
     3
 72
    12
 73
     8
 74
     0
 42
0.0000000001
 43
0.0000000001
 12
1.0
 22
0.0
 32
0.0
 13
1.0
 23
0.0
 33
0.0
 40
0.0
 40
0.0
 40
0.0
 40
0.0
 40
0.3333333333333333
 40
0.3333333333333333
 40
0.3333333333333333
 40
0.3333333333333333
 40
1.0
 40
1.0
 40
1.0
 40
1.0
 10
84.1099
 20
-43.7697
 30
0.0
 10
88.8729
 20
-44.3015
 30
0.0
 10
90.1428
 20
-37.388
 30
0.0
 10
84.671
 20
-36.4429
 30
0.0
 10
84.671
 20
-36.4429
 30
0.0
 10
80.972
 20
-35.7345
 30
0.0
 10
79.76
 20
-43.2931
 30
0.0
 10
84.1099
 20
-43.7697
 30
0.0
  0
SPLINE
  5
5B
330
1F
100
AcDbEntity
  8
layer 1
 62
     7
100
AcDbSpline
210
0.0
220
0.0
230
1.0
 70
    11
 71
     3
 72
   108
 73
   104
 74
     0
 42
0.0000000001
 43
0.0000000001
 12
1.0
 22
0.0
 32
0.0
 13
1.0
 23
0.0
 33
0.0
 40
0.0
 40
0.0
 40
0.0
 40
0.0
 40
0.037037037037037
 40
0.037037037037037
 40
0.037037037037037
 40
0.037037037037037
 40
0.0740740740740741
 40
0.0740740740740741
 40
0.0740740740740741
 40
0.0740740740740741
 40
0.1111111111111111
 40
0.1111111111111111
 40
0.1111111111111111
 40
0.1111111111111111
 40
0.1481481481481481
 40
0.1481481481481481
 40
0.1481481481481481
 40
0.1481481481481481
 40
0.1851851851851852
 40
0.1851851851851852
 40
0.1851851851851852
 40
0.1851851851851852
 40
0.2222222222222222
 40
0.2222222222222222
 40
0.2222222222222222
 40
0.2222222222222222
 40
0.2592592592592592
 40
0.2592592592592592
 40
0.2592592592592592
 40
0.2592592592592592
 40
0.2962962962962963
 40
0.2962962962962963
 40
0.2962962962962963
 40
0.2962962962962963
 40
0.3333333333333333
 40
0.3333333333333333
 40
0.3333333333333333
 40
0.3333333333333333
 40
0.3703703703703703
 40
0.3703703703703703
 40
0.3703703703703703
 40
0.3703703703703703
 40
0.4074074074074074
 40
0.4074074074074074
 40
0.4074074074074074
 40
0.4074074074074074
 40
0.4444444444444444
 40
0.4444444444444444
 40
0.4444444444444444
 40
0.4444444444444444
 40
0.4814814814814815
 40
0.4814814814814815
 40
0.4814814814814815
 40
0.4814814814814815
 40
0.5185185185185185
 40
0.5185185185185185
 40
0.5185185185185185
 40
0.5185185185185185
 40
0.5555555555555556
 40
0.5555555555555556
 40
0.5555555555555556
 40
0.5555555555555556
 40
0.5925925925925926
 40
0.5925925925925926
 40
0.5925925925925926
 40
0.5925925925925926
 40
0.6296296296296297
 40
0.6296296296296297
 40
0.6296296296296297
 40
0.6296296296296297
 40
0.6666666666666666
 40
0.6666666666666666
 40
0.6666666666666666
 40
0.6666666666666666
 40
0.7037037037037037
 40
0.7037037037037037
 40
0.7037037037037037
 40
0.7037037037037037
 40
0.7407407407407407
 40
0.7407407407407407
 40
0.7407407407407407
 40
0.7407407407407407
 40
0.7777777777777778
 40
0.7777777777777778
 40
0.7777777777777778
 40
0.7777777777777778
 40
0.8148148148148148
 40
0.8148148148148148
 40
0.8148148148148148
 40
0.8148148148148148
 40
0.8518518518518519
 40
0.8518518518518519
 40
0.8518518518518519
 40
0.8518518518518519
 40
0.8888888888888888
 40
0.8888888888888888
 40
0.8888888888888888
 40
0.8888888888888888
 40
0.9259259259259259
 40
0.9259259259259259
 40
0.9259259259259259
 40
0.9259259259259259
 40
1.0
 40
1.0
 40
1.0
 40
1.0
 10
117.5471
 20
2.4482
 30
0.0
 10
114.6386
 20
3.4476
 30
0.0
 10
114.594
 20
1.7398
 30
0.0
 10
115.7698
 20
0.8949
 30
0.0
 10
115.7698
 20
0.8949
 30
0.0
 10
118.3647
 20
-0.5494
 30
0.0
 10
118.2344
 20
-2.2984
 30
0.0
 10
116.816
 20
-3.2115
 30
0.0
 10
116.816
 20
-3.2115
 30
0.0
 10
115.4557
 20
-3.9199
 30
0.0
 10
114.3693
 20
-2.9025
 30
0.0
 10
114.7553
 20
-0.6767
 30
0.0
 10
114.7553
 20
-0.6767
 30
0.0
 10
115.2091
 20
1.1218
 30
0.0
 10
111.9858
 20
3.0297
 30
0.0
 10
110.0467
 20
-3.2612
 30
0.0
 10
110.0467
 20
-3.2612
 30
0.0
 10
109.4137
 20
-5.337
 30
0.0
 10
107.0345
 20
-4.5561
 30
0.0
 10
107.4787
 20
-2.2573
 30
0.0
 10
107.4787
 20
-2.2573
 30
0.0
 10
108.0851
 20
1.7581
 30
0.0
 10
106.0471
 20
8.6804
 30
0.0
 10
85.9729
 20
5.9369
 30
0.0
 10
85.9729
 20
5.9369
 30
0.0
 10
84.716
 20
5.769
 30
0.0
 10
83.8676
 20
5.7097
 30
0.0
 10
83.5128
 20
4.874
 30
0.0
 10
83.5128
 20
4.874
 30
0.0
 10
83.0912
 20
3.2794
 30
0.0
 10
85.5149
 20
4.2653
 30
0.0
 10
84.4601
 20
0.6224
 30
0.0
 10
84.4601
 20
0.6224
 30
0.0
 10
83.5847
 20
-2.43
 30
0.0
 10
84.285
 20
-15.2031
 30
0.0
 10
93.8332
 20
-16.1113
 30
0.0
 10
93.8332
 20
-16.1113
 30
0.0
 10
96.3555
 20
-16.266
 30
0.0
 10
95.9471
 20
-18.4008
 30
0.0
 10
93.9763
 20
-18.4008
 30
0.0
 10
93.9763
 20
-18.4008
 30
0.0
 10
89.2678
 20
-18.4008
 30
0.0
 10
82.8845
 20
-19.0051
 30
0.0
 10
82.7231
 20
-23.3974
 30
0.0
 10
82.7231
 20
-23.3974
 30
0.0
 10
82.6063
 20
-34.0629
 30
0.0
 10
97.4916
 20
-40.9035
 30
0.0
 10
106.617
 20
-39.2319
 30
0.0
 10
106.617
 20
-39.2319
 30
0.0
 10
114.6118
 20
-37.4063
 30
0.0
 10
111.9858
 20
-29.1388
 30
0.0
 10
106.4378
 20
-30.2837
 30
0.0
 10
106.4378
 20
-30.2837
 30
0.0
 10
101.4864
 20
-31.2967
 30
0.0
 10
96.2255
 20
-33.1451
 30
0.0
 10
91.6112
 20
-28.9845
 30
0.0
 10
91.6112
 20
-28.9845
 30
0.0
 10
90.4527
 20
-27.9444
 30
0.0
 10
91.6601
 20
-26.6273
 30
0.0
 10
92.715
 20
-27.0316
 30
0.0
 10
92.715
 20
-27.0316
 30
0.0
 10
95.5522
 20
-28.1487
 30
0.0
 10
100.292
 20
-29.4296
 30
0.0
 10
104.0447
 20
-27.2402
 30
0.0
 10
104.0447
 20
-27.2402
 30
0.0
 10
109.813
 20
-23.9699
 30
0.0
 10
100.1892
 20
-15.8388
 30
0.0
 10
97.7336
 20
-12.8686
 30
0.0
 10
97.7336
 20
-12.8686
 30
0.0
 10
96.3961
 20
-11.1968
 30
0.0
 10
96.2344
 20
-8.6262
 30
0.0
 10
97.7158
 20
-6.8726
 30
0.0
 10
97.7158
 20
-6.8726
 30
0.0
 10
99.7852
 20
-4.4198
 30
0.0
 10
103.9957
 20
-7.8628
 30
0.0
 10
104.9608
 20
-9.3069
 30
0.0
 10
104.9608
 20
-9.3069
 30
0.0
 10
105.9304
 20
-10.7335
 30
0.0
 10
111.631
 20
-16.284
 30
0.0
 10
113.9471
 20
-19.2548
 30
0.0
 10
113.9471
 20
-19.2548
 30
0.0
 10
114.3693
 20
-19.8637
 30
0.0
 10
115.635
 20
-19.9364
 30
0.0
 10
116.3403
 20
-19.028
 30
0.0
 10
116.3403
 20
-19.028
 30
0.0
 10
117.5294
 20
-17.0474
 30
0.0
 10
118.3016
 20
-13.55
 30
0.0
 10
117.4577
 20
-10.6611
 30
0.0
 10
117.4577
 20
-10.6611
 30
0.0
 10
116.9549
 20
-9.2164
 30
0.0
 10
118.8895
 20
-8.9712
 30
0.0
 10
119.3923
 20
-9.8797
 30
0.0
 10
119.3923
 20
-9.8797
 30
0.0
 10
120.4069
 20
-11.9555
 30
0.0
 10
120.3304
 20
-15.4486
 30
0.0
 10
119.0739
 20
-20.3996
 30
0.0
 10
119.0739
 20
-20.3996
 30
0.0
 10
116.1199
 20
-30.5837
 30
0.0
 10
123.2844
 20
-31.2739
 30
0.0
 10
124.5994
 20
-24.4606
 30
0.0
 10
124.5994
 20
-24.4606
 30
0.0
 10
127.9347
 20
-7.4994
 30
0.0
 10
120.0431
 20
1.0856
 30
0.0
 10
117.5471
 20
2.4482
 30
0.0
  0
SPLINE
  5
5C
330
1F
100
AcDbEntity
  8
layer 1
 62
     7
100
AcDbSpline
210
0.0
220
0.0
230
1.0
 70
    11
 71
     3
 72
   152
 73
   148
 74
     0
 42
0.0000000001
 43
0.0000000001
 12
1.0
 22
0.0
 32
0.0
 13
1.0
 23
0.0
 33
0.0
 40
0.0
 40
0.0
 40
0.0
 40
0.0
 40
0.0263157894736842
 40
0.0263157894736842
 40
0.0263157894736842
 40
0.0263157894736842
 40
0.0526315789473684
 40
0.0526315789473684
 40
0.0526315789473684
 40
0.0526315789473684
 40
0.0789473684210526
 40
0.0789473684210526
 40
0.0789473684210526
 40
0.0789473684210526
 40
0.1052631578947368
 40
0.1052631578947368
 40
0.1052631578947368
 40
0.1052631578947368
 40
0.131578947368421
 40
0.131578947368421
 40
0.131578947368421
 40
0.131578947368421
 40
0.1578947368421053
 40
0.1578947368421053
 40
0.1578947368421053
 40
0.1578947368421053
 40
0.1842105263157895
 40
0.1842105263157895
 40
0.1842105263157895
 40
0.1842105263157895
 40
0.2105263157894737
 40
0.2105263157894737
 40
0.2105263157894737
 40
0.2105263157894737
 40
0.2368421052631579
 40
0.2368421052631579
 40
0.2368421052631579
 40
0.2368421052631579
 40
0.2631578947368421
 40
0.2631578947368421
 40
0.2631578947368421
 40
0.2631578947368421
 40
0.2894736842105263
 40
0.2894736842105263
 40
0.2894736842105263
 40
0.2894736842105263
 40
0.3157894736842105
 40
0.3157894736842105
 40
0.3157894736842105
 40
0.3157894736842105
 40
0.3421052631578947
 40
0.3421052631578947
 40
0.3421052631578947
 40
0.3421052631578947
 40
0.3684210526315789
 40
0.3684210526315789
 40
0.3684210526315789
 40
0.3684210526315789
 40
0.3947368421052632
 40
0.3947368421052632
 40
0.3947368421052632
 40
0.3947368421052632
 40
0.4210526315789473
 40
0.4210526315789473
 40
0.4210526315789473
 40
0.4210526315789473
 40
0.4473684210526316
 40
0.4473684210526316
 40
0.4473684210526316
 40
0.4473684210526316
 40
0.4736842105263158
 40
0.4736842105263158
 40
0.4736842105263158
 40
0.4736842105263158
 40
0.5
 40
0.5
 40
0.5
 40
0.5
 40
0.5263157894736842
 40
0.5263157894736842
 40
0.5263157894736842
 40
0.5263157894736842
 40
0.5526315789473685
 40
0.5526315789473685
 40
0.5526315789473685
 40
0.5526315789473685
 40
0.5789473684210527
 40
0.5789473684210527
 40
0.5789473684210527
 40
0.5789473684210527
 40
0.6052631578947368
 40
0.6052631578947368
 40
0.6052631578947368
 40
0.6052631578947368
 40
0.631578947368421
 40
0.631578947368421
 40
0.631578947368421
 40
0.631578947368421
 40
0.6578947368421053
 40
0.6578947368421053
 40
0.6578947368421053
 40
0.6578947368421053
 40
0.6842105263157895
 40
0.6842105263157895
 40
0.6842105263157895
 40
0.6842105263157895
 40
0.7105263157894737
 40
0.7105263157894737
 40
0.7105263157894737
 40
0.7105263157894737
 40
0.7368421052631579
 40
0.7368421052631579
 40
0.7368421052631579
 40
0.7368421052631579
 40
0.7631578947368421
 40
0.7631578947368421
 40
0.7631578947368421
 40
0.7631578947368421
 40
0.7894736842105263
 40
0.7894736842105263
 40
0.7894736842105263
 40
0.7894736842105263
 40
0.8157894736842105
 40
0.8157894736842105
 40
0.8157894736842105
 40
0.8157894736842105
 40
0.8421052631578947
 40
0.8421052631578947
 40
0.8421052631578947
 40
0.8421052631578947
 40
0.868421052631579
 40
0.868421052631579
 40
0.868421052631579
 40
0.868421052631579
 40
0.8947368421052632
 40
0.8947368421052632
 40
0.8947368421052632
 40
0.8947368421052632
 40
0.9210526315789473
 40
0.9210526315789473
 40
0.9210526315789473
 40
0.9210526315789473
 40
0.9473684210526315
 40
0.9473684210526315
 40
0.9473684210526315
 40
0.9473684210526315
 40
1.0
 40
1.0
 40
1.0
 40
1.0
 10
124.7296
 20
-48.2076
 30
0.0
 10
123.181
 20
-38.4692
 30
0.0
 10
116.2998
 20
-23.4792
 30
0.0
 10
104.2245
 20
-12.2279
 30
0.0
 10
104.2245
 20
-12.2279
 30
0.0
 10
103.4841
 20
-11.6012
 30
0.0
 10
102.2314
 20
-10.3974
 30
0.0
 10
101.7872
 20
-9.6796
 30
0.0
 10
101.7872
 20
-9.6796
 30
0.0
 10
101.7872
 20
-9.6796
 30
0.0
 10
99.87
 20
-8.4898
 30
0.0
 10
98.9547
 20
-8.435
 30
0.0
 10
98.9547
 20
-8.435
 30
0.0
 10
97.2042
 20
-8.3535
 30
0.0
 10
99.0355
 20
-10.6383
 30
0.0
 10
99.8077
 20
-11.324
 30
0.0
 10
99.8077
 20
-11.324
 30
0.0
 10
119.8056
 20
-34.0629
 30
0.0
 10
121.3541
 20
-50.6427
 30
0.0
 10
123.886
 20
-65.8502
 30
0.0
 10
123.886
 20
-65.8502
 30
0.0
 10
124.312
 20
-68.939
 30
0.0
 10
123.6029
 20
-69.1932
 30
0.0
 10
122.6111
 20
-67.8308
 30
0.0
 10
122.6111
 20
-67.8308
 30
0.0
 10
121.8524
 20
-66.6136
 30
0.0
 10
120.1912
 20
-65.3412
 30
0.0
 10
119.0739
 20
-64.4281
 30
0.0
 10
119.0739
 20
-64.4281
 30
0.0
 10
116.7576
 20
-62.5978
 30
0.0
 10
114.2928
 20
-65.8684
 30
0.0
 10
116.816
 20
-67.8488
 30
0.0
 10
116.816
 20
-67.8488
 30
0.0
 10
118.2344
 20
-68.9117
 30
0.0
 10
120.6537
 20
-72.1551
 30
0.0
 10
121.9196
 20
-73.4542
 30
0.0
 10
121.9196
 20
-73.4542
 30
0.0
 10
125.7439
 20
-77.3739
 30
0.0
 10
125.2907
 20
-81.2121
 30
0.0
 10
131.1891
 20
-85.9272
 30
0.0
 10
131.1891
 20
-85.9272
 30
0.0
 10
132.4372
 20
-86.9901
 30
0.0
 10
133.1285
 20
-89.1705
 30
0.0
 10
128.7965
 20
-87.5989
 30
0.0
 10
128.7965
 20
-87.5989
 30
0.0
 10
119.6346
 20
-84.2738
 30
0.0
 10
110.0823
 20
-78.9502
 30
0.0
 10
105.0325
 20
-67.3171
 30
0.0
 10
105.0325
 20
-67.3171
 30
0.0
 10
104.1436
 20
-65.2688
 30
0.0
 10
100.3284
 20
-66.7496
 30
0.0
 10
101.8724
 20
-69.6749
 30
0.0
 10
101.8724
 20
-69.6749
 30
0.0
 10
106.9939
 20
-79.4045
 30
0.0
 10
113.0315
 20
-86.5543
 30
0.0
 10
124.1595
 20
-90.4879
 30
0.0
 10
124.1595
 20
-90.4879
 30
0.0
 10
126.6826
 20
-91.3961
 30
0.0
 10
131.3192
 20
-93.0769
 30
0.0
 10
131.8849
 20
-93.5312
 30
0.0
 10
131.8849
 20
-93.5312
 30
0.0
 10
136.5176
 20
-95.3568
 30
0.0
 10
138.4794
 20
-87.1397
 30
0.0
 10
140.0231
 20
-83.647
 30
0.0
 10
140.0231
 20
-83.647
 30
0.0
 10
140.306
 20
-82.275
 30
0.0
 10
140.7101
 20
-82.1937
 30
0.0
 10
139.6105
 20
-81.9708
 30
0.0
 10
139.6105
 20
-81.9708
 30
0.0
 10
138.8338
 20
-81.821
 30
0.0
 10
136.2394
 20
-81.3665
 30
0.0
 10
134.9734
 20
-80.1404
 30
0.0
 10
134.9734
 20
-80.1404
 30
0.0
 10
130.7225
 20
-75.5663
 30
0.0
 10
130.3405
 20
-72.0819
 30
0.0
 10
129.847
 20
-66.8404
 30
0.0
 10
129.847
 20
-66.8404
 30
0.0
 10
129.5284
 20
-63.4789
 30
0.0
 10
130.5069
 20
-61.4031
 30
0.0
 10
132.6302
 20
-61.3076
 30
0.0
 10
132.6302
 20
-61.3076
 30
0.0
 10
134.1653
 20
-61.2444
 30
0.0
 10
137.7787
 20
-63.0882
 30
0.0
 10
140.7957
 20
-60.1267
 30
0.0
 10
140.7957
 20
-60.1267
 30
0.0
 10
144.7141
 20
-56.2796
 30
0.0
 10
145.2888
 20
-48.4713
 30
0.0
 10
150.0201
 20
-45.3641
 30
0.0
 10
150.0201
 20
-45.3641
 30
0.0
 10
156.0261
 20
-41.4212
 30
0.0
 10
160.2368
 20
-46.0275
 30
0.0
 10
160.0703
 20
-43.2023
 30
0.0
 10
160.0703
 20
-43.2023
 30
0.0
 10
159.8866
 20
-40.3766
 30
0.0
 10
148.3008
 20
-36.2252
 30
0.0
 10
145.2888
 20
-44.1832
 30
0.0
 10
145.2888
 20
-44.1832
 30
0.0
 10
144.7678
 20
-45.8276
 30
0.0
 10
143.4708
 20
-45.773
 30
0.0
 10
142.7661
 20
-44.9373
 30
0.0
 10
142.7661
 20
-44.9373
 30
0.0
 10
142.0748
 20
-44.1147
 30
0.0
 10
141.8141
 20
-40.8493
 30
0.0
 10
138.5776
 20
-44.3512
 30
0.0
 10
138.5776
 20
-44.3512
 30
0.0
 10
136.3379
 20
-46.709
 30
0.0
 10
134.937
 20
-52.8684
 30
0.0
 10
135.0718
 20
-55.4571
 30
0.0
 10
135.0718
 20
-55.4571
 30
0.0
 10
134.87
 20
-58.8006
 30
0.0
 10
129.5012
 20
-58.2461
 30
0.0
 10
131.0457
 20
-52.7684
 30
0.0
 10
131.0457
 20
-52.7684
 30
0.0
 10
133.6984
 20
-43.3293
 30
0.0
 10
140.5931
 20
-34.8216
 30
0.0
 10
155.0473
 20
-27.5222
 30
0.0
 10
155.0473
 20
-27.5222
 30
0.0
 10
159.6844
 20
-25.0872
 30
0.0
 10
170.6237
 20
-17.3017
 30
0.0
 10
176.1046
 20
-8.9712
 30
0.0
 10
176.1046
 20
-8.9712
 30
0.0
 10
178.6815
 20
-5.0738
 30
0.0
 10
175.9747
 20
-6.5364
 30
0.0
 10
175.9747
 20
-6.5364
 30
0.0
 10
175.9747
 20
-6.5364
 30
0.0
 10
163.3341
 20
-25.0872
 30
0.0
 10
140.3013
 20
-25.6866
 30
0.0
 10
131.4584
 20
-42.4296
 30
0.0
 10
131.4584
 20
-42.4296
 30
0.0
 10
130.9064
 20
-43.493
 30
0.0
 10
130.2735
 20
-43.3386
 30
0.0
 10
130.4753
 20
-42.2752
 30
0.0
 10
130.4753
 20
-42.2752
 30
0.0
 10
132.4372
 20
-32.7685
 30
0.0
 10
135.844
 20
-26.9315
 30
0.0
 10
139.8528
 20
-18.0376
 30
0.0
 10
139.8528
 20
-18.0376
 30
0.0
 10
140.8359
 20
-14.9989
 30
0.0
 10
137.6036
 20
-14.0859
 30
0.0
 10
136.4814
 20
-16.3658
 30
0.0
 10
136.4814
 20
-16.3658
 30
0.0
 10
130.9334
 20
-27.2402
 30
0.0
 10
126.7947
 20
-36.2885
 30
0.0
 10
125.704
 20
-48.2076
 30
0.0
 10
125.704
 20
-48.2076
 30
0.0
 10
125.6364
 20
-49.2705
 30
0.0
 10
124.9225
 20
-49.4162
 30
0.0
 10
124.7296
 20
-48.2076
 30
0.0
  0
SPLINE
  5
5D
330
1F
100
AcDbEntity
  8
layer 1
 62
     7
100
AcDbSpline
210
0.0
220
0.0
230
1.0
 70
    11
 71
     3
 72
    12
 73
     8
 74
     0
 42
0.0000000001
 43
0.0000000001
 12
1.0
 22
0.0
 32
0.0
 13
1.0
 23
0.0
 33
0.0
 40
0.0
 40
0.0
 40
0.0
 40
0.0
 40
0.3333333333333333
 40
0.3333333333333333
 40
0.3333333333333333
 40
0.3333333333333333
 40
1.0
 40
1.0
 40
1.0
 40
1.0
 10
139.1661
 20
-69.1567
 30
0.0
 10
134.8164
 20
-67.9397
 30
0.0
 10
133.5954
 20
-73.822
 30
0.0
 10
137.0289
 20
-75.4161
 30
0.0
 10
137.0289
 20
-75.4161
 30
0.0
 10
141.5585
 20
-77.5242
 30
0.0
 10
143.61
 20
-70.8015
 30
0.0
 10
139.1661
 20
-69.1567
 30
0.0
  0
SPLINE
  5
5E
330
1F
100
AcDbEntity
  8
layer 1
 62
     7
100
AcDbSpline
210
0.0
220
0.0
230
1.0
 70
    11
 71
     3
 72
    20
 73
    16
 74
     0
 42
0.0000000001
 43
0.0000000001
 12
1.0
 22
0.0
 32
0.0
 13
1.0
 23
0.0
 33
0.0
 40
0.0
 40
0.0
 40
0.0
 40
0.0
 40
0.2
 40
0.2
 40
0.2
 40
0.2
 40
0.4
 40
0.4
 40
0.4
 40
0.4
 40
0.6
 40
0.6
 40
0.6
 40
0.6
 40
1.0
 40
1.0
 40
1.0
 40
1.0
 10
130.3768
 20
-13.7043
 30
0.0
 10
134.237
 20
-12.1054
 30
0.0
 10
138.8157
 20
-11.9871
 30
0.0
 10
141.4642
 20
-12.6866
 30
0.0
 10
141.4642
 20
-12.6866
 30
0.0
 10
143.502
 20
-13.2136
 30
0.0
 10
144.7591
 20
-9.0302
 30
0.0
 10
141.9533
 20
-8.426
 30
0.0
 10
141.9533
 20
-8.426
 30
0.0
 10
138.4748
 20
-7.6673
 30
0.0
 10
132.7556
 20
-8.226
 30
0.0
 10
129.5284
 20
-9.3708
 30
0.0
 10
129.5284
 20
-9.3708
 30
0.0
 10
126.651
 20
-10.3608
 30
0.0
 10
128.258
 20
-14.5765
 30
0.0
 10
130.3768
 20
-13.7043
 30
0.0
  0
SPLINE
  5
5F
330
1F
100
AcDbEntity
  8
layer 1
 62
     7
100
AcDbSpline
210
0.0
220
0.0
230
1.0
 70
    11
 71
     3
 72
    28
 73
    24
 74
     0
 42
0.0000000001
 43
0.0000000001
 12
1.0
 22
0.0
 32
0.0
 13
1.0
 23
0.0
 33
0.0
 40
0.0
 40
0.0
 40
0.0
 40
0.0
 40
0.1428571428571428
 40
0.1428571428571428
 40
0.1428571428571428
 40
0.1428571428571428
 40
0.2857142857142857
 40
0.2857142857142857
 40
0.2857142857142857
 40
0.2857142857142857
 40
0.4285714285714285
 40
0.4285714285714285
 40
0.4285714285714285
 40
0.4285714285714285
 40
0.5714285714285714
 40
0.5714285714285714
 40
0.5714285714285714
 40
0.5714285714285714
 40
0.7142857142857143
 40
0.7142857142857143
 40
0.7142857142857143
 40
0.7142857142857143
 40
1.0
 40
1.0
 40
1.0
 40
1.0
 10
138.9372
 20
8.3442
 30
0.0
 10
135.3996
 20
9.4891
 30
0.0
 10
130.0267
 20
7.6678
 30
0.0
 10
128.4825
 20
2.421
 30
0.0
 10
128.4825
 20
2.421
 30
0.0
 10
126.633
 20
-3.8385
 30
0.0
 10
131.2389
 20
-5.7189
 30
0.0
 10
133.0429
 20
-2.9025
 30
0.0
 10
133.0429
 20
-2.9025
 30
0.0
 10
134.7939
 20
-0.168
 30
0.0
 10
131.3776
 20
1.0856
 30
0.0
 10
133.3261
 20
3.5566
 30
0.0
 10
133.3261
 20
3.5566
 30
0.0
 10
136.4814
 20
7.5903
 30
0.0
 10
142.8692
 20
4.3196
 30
0.0
 10
140.5575
 20
-3.3659
 30
0.0
 10
140.5575
 20
-3.3659
 30
0.0
 10
139.7494
 20
-6.164
 30
0.0
 10
143.4125
 20
-7.4901
 30
0.0
 10
144.2742
 20
-4.6556
 30
0.0
 10
144.2742
 20
-4.6556
 30
0.0
 10
145.9621
 20
0.8949
 30
0.0
 10
144.4493
 20
6.5821
 30
0.0
 10
138.9372
 20
8.3442
 30
0.0
  0
SPLINE
  5
60
330
1F
100
AcDbEntity
  8
layer 1
 62
     7
100
AcDbSpline
210
0.0
220
0.0
230
1.0
 70
    11
 71
     3
 72
   108
 73
   104
 74
     0
 42
0.0000000001
 43
0.0000000001
 12
1.0
 22
0.0
 32
0.0
 13
1.0
 23
0.0
 33
0.0
 40
0.0
 40
0.0
 40
0.0
 40
0.0
 40
0.037037037037037
 40
0.037037037037037
 40
0.037037037037037
 40
0.037037037037037
 40
0.0740740740740741
 40
0.0740740740740741
 40
0.0740740740740741
 40
0.0740740740740741
 40
0.1111111111111111
 40
0.1111111111111111
 40
0.1111111111111111
 40
0.1111111111111111
 40
0.1481481481481481
 40
0.1481481481481481
 40
0.1481481481481481
 40
0.1481481481481481
 40
0.1851851851851852
 40
0.1851851851851852
 40
0.1851851851851852
 40
0.1851851851851852
 40
0.2222222222222222
 40
0.2222222222222222
 40
0.2222222222222222
 40
0.2222222222222222
 40
0.2592592592592592
 40
0.2592592592592592
 40
0.2592592592592592
 40
0.2592592592592592
 40
0.2962962962962963
 40
0.2962962962962963
 40
0.2962962962962963
 40
0.2962962962962963
 40
0.3333333333333333
 40
0.3333333333333333
 40
0.3333333333333333
 40
0.3333333333333333
 40
0.3703703703703703
 40
0.3703703703703703
 40
0.3703703703703703
 40
0.3703703703703703
 40
0.4074074074074074
 40
0.4074074074074074
 40
0.4074074074074074
 40
0.4074074074074074
 40
0.4444444444444444
 40
0.4444444444444444
 40
0.4444444444444444
 40
0.4444444444444444
 40
0.4814814814814815
 40
0.4814814814814815
 40
0.4814814814814815
 40
0.4814814814814815
 40
0.5185185185185185
 40
0.5185185185185185
 40
0.5185185185185185
 40
0.5185185185185185
 40
0.5555555555555556
 40
0.5555555555555556
 40
0.5555555555555556
 40
0.5555555555555556
 40
0.5925925925925926
 40
0.5925925925925926
 40
0.5925925925925926
 40
0.5925925925925926
 40
0.6296296296296297
 40
0.6296296296296297
 40
0.6296296296296297
 40
0.6296296296296297
 40
0.6666666666666666
 40
0.6666666666666666
 40
0.6666666666666666
 40
0.6666666666666666
 40
0.7037037037037037
 40
0.7037037037037037
 40
0.7037037037037037
 40
0.7037037037037037
 40
0.7407407407407407
 40
0.7407407407407407
 40
0.7407407407407407
 40
0.7407407407407407
 40
0.7777777777777778
 40
0.7777777777777778
 40
0.7777777777777778
 40
0.7777777777777778
 40
0.8148148148148148
 40
0.8148148148148148
 40
0.8148148148148148
 40
0.8148148148148148
 40
0.8518518518518519
 40
0.8518518518518519
 40
0.8518518518518519
 40
0.8518518518518519
 40
0.8888888888888888
 40
0.8888888888888888
 40
0.8888888888888888
 40
0.8888888888888888
 40
0.9259259259259259
 40
0.9259259259259259
 40
0.9259259259259259
 40
0.9259259259259259
 40
1.0
 40
1.0
 40
1.0
 40
1.0
 10
191.3984
 20
-23.0616
 30
0.0
 10
189.5038
 20
-18.1919
 30
0.0
 10
184.2165
 20
-21.4395
 30
0.0
 10
180.9886
 20
-19.473
 30
0.0
 10
180.9886
 20
-19.473
 30
0.0
 10
179.0945
 20
-18.319
 30
0.0
 10
180.1852
 20
-16.266
 30
0.0
 10
182.0031
 20
-16.5297
 30
0.0
 10
182.0031
 20
-16.5297
 30
0.0
 10
185.069
 20
-16.9654
 30
0.0
 10
188.1172
 20
-12.5506
 30
0.0
 10
188.714
 20
-9.5206
 30
0.0
 10
188.714
 20
-9.5206
 30
0.0
 10
189.5488
 20
-5.2645
 30
0.0
 10
189.4055
 20
-2.9798
 30
0.0
 10
188.427
 20
2.9479
 30
0.0
 10
188.427
 20
2.9479
 30
0.0
 10
187.0621
 20
8.8077
 30
0.0
 10
183.8302
 20
6.7001
 30
0.0
 10
182.7079
 20
5.6367
 30
0.0
 10
182.7079
 20
5.6367
 30
0.0
 10
180.3244
 20
3.9611
 30
0.0
 10
179.476
 20
6.5457
 30
0.0
 10
173.6584
 20
4.874
 30
0.0
 10
173.6584
 20
4.874
 30
0.0
 10
162.9571
 20
1.7986
 30
0.0
 10
164.1781
 20
-4.0927
 30
0.0
 10
162.4902
 20
-3.7929
 30
0.0
 10
162.4902
 20
-3.7929
 30
0.0
 10
160.353
 20
-3.4069
 30
0.0
 10
160.7618
 20
-2.0668
 30
0.0
 10
161.6549
 20
2.8933
 30
0.0
 10
161.6549
 20
2.8933
 30
0.0
 10
162.7681
 20
9.1299
 30
0.0
 10
154.7873
 20
9.9704
 30
0.0
 10
149.4321
 20
-0.3317
 30
0.0
 10
149.4321
 20
-0.3317
 30
0.0
 10
145.639
 20
-7.5995
 30
0.0
 10
143.8165
 20
-13.5318
 30
0.0
 10
145.2257
 20
-19.9182
 30
0.0
 10
145.2257
 20
-19.9182
 30
0.0
 10
148.036
 20
-27.2175
 30
0.0
 10
153.6109
 20
-21.381
 30
0.0
 10
152.4888
 20
-18.3466
 30
0.0
 10
152.4888
 20
-18.3466
 30
0.0
 10
150.6934
 20
-12.8593
 30
0.0
 10
151.8199
 20
-11.3788
 30
0.0
 10
151.8199
 20
-10.3341
 30
0.0
 10
151.8199
 20
-10.3341
 30
0.0
 10
151.8199
 20
-6.0004
 30
0.0
 10
156.2461
 20
-3.6476
 30
0.0
 10
155.0114
 20
-9.3708
 30
0.0
 10
155.0114
 20
-9.3708
 30
0.0
 10
153.6109
 20
-18.1919
 30
0.0
 10
159.8866
 20
-21.708
 30
0.0
 10
174.8031
 20
-4.5013
 30
0.0
 10
174.8031
 20
-4.5013
 30
0.0
 10
175.7862
 20
-3.057
 30
0.0
 10
177.4019
 20
-1.3854
 30
0.0
 10
177.8239
 20
-0.9219
 30
0.0
 10
177.8239
 20
-0.9219
 30
0.0
 10
179.5836
 20
0.6677
 30
0.0
 10
180.9798
 20
-0.0593
 30
0.0
 10
181.1281
 20
-2.2211
 30
0.0
 10
181.1281
 20
-2.2211
 30
0.0
 10
181.1998
 20
-3.2115
 30
0.0
 10
180.2885
 20
-5.5507
 30
0.0
 10
179.763
 20
-6.5912
 30
0.0
 10
179.763
 20
-6.5912
 30
0.0
 10
179.2517
 20
-7.6265
 30
0.0
 10
177.7926
 20
-10.1064
 30
0.0
 10
177.7926
 20
-10.1064
 30
0.0
 10
177.7926
 20
-10.1064
 30
0.0
 10
175.9747
 20
-14.2858
 30
0.0
 10
171.3065
 20
-19.8274
 30
0.0
 10
166.6648
 20
-23.0616
 30
0.0
 10
166.6648
 20
-23.0616
 30
0.0
 10
164.6941
 20
-24.4285
 30
0.0
 10
164.8553
 20
-26.0868
 30
0.0
 10
166.9879
 20
-26.7588
 30
0.0
 10
166.9879
 20
-26.7588
 30
0.0
 10
170.229
 20
-27.5537
 30
0.0
 10
175.8535
 20
-26.9723
 30
0.0
 10
178.0755
 20
-26.4588
 30
0.0
 10
178.0755
 20
-26.4588
 30
0.0
 10
180.1852
 20
-25.6959
 30
0.0
 10
181.0697
 20
-27.3858
 30
0.0
 10
178.2191
 20
-28.5124
 30
0.0
 10
178.2191
 20
-28.5124
 30
0.0
 10
174.125
 20
-30.1427
 30
0.0
 10
164.5238
 20
-30.9649
 30
0.0
 10
162.3063
 20
-29.7203
 30
0.0
 10
162.3063
 20
-29.7203
 30
0.0
 10
159.3656
 20
-28.0762
 30
0.0
 10
153.6109
 20
-30.2018
 30
0.0
 10
155.6762
 20
-33.309
 30
0.0
 10
155.6762
 20
-33.309
 30
0.0
 10
158.6746
 20
-37.8011
 30
0.0
 10
173.0255
 20
-37.865
 30
0.0
 10
179.763
 20
-36.3431
 30
0.0
 10
179.763
 20
-36.3431
 30
0.0
 10
188.3281
 20
-33.9084
 30
0.0
 10
193.2928
 20
-27.9312
 30
0.0
 10
191.3984
 20
-23.0616
 30
0.0
  0
SPLINE
  5
61
330
1F
100
AcDbEntity
  8
layer 1
 62
     7
100
AcDbSpline
210
0.0
220
0.0
230
1.0
 70
    11
 71
     3
 72
    20
 73
    16
 74
     0
 42
0.0000000001
 43
0.0000000001
 12
1.0
 22
0.0
 32
0.0
 13
1.0
 23
0.0
 33
0.0
 40
0.0
 40
0.0
 40
0.0
 40
0.0
 40
0.2
 40
0.2
 40
0.2
 40
0.2
 40
0.4
 40
0.4
 40
0.4
 40
0.4
 40
0.6
 40
0.6
 40
0.6
 40
0.6
 40
1.0
 40
1.0
 40
1.0
 40
1.0
 10
163.2936
 20
-83.2881
 30
0.0
 10
159.2356
 20
-86.6906
 30
0.0
 10
161.6549
 20
-87.2539
 30
0.0
 10
163.7785
 20
-85.7186
 30
0.0
 10
163.7785
 20
-85.7186
 30
0.0
 10
174.2509
 20
-77.0515
 30
0.0
 10
180.854
 20
-64.878
 30
0.0
 10
178.1789
 20
-43.211
 30
0.0
 10
178.1789
 20
-43.211
 30
0.0
 10
177.622
 20
-39.6319
 30
0.0
 10
173.8244
 20
-41.7212
 30
0.0
 10
174.1523
 20
-43.5703
 30
0.0
 10
174.1523
 20
-43.5703
 30
0.0
 10
177.052
 20
-59.8635
 30
0.0
 10
174.7358
 20
-71.1192
 30
0.0
 10
163.2936
 20
-83.2881
 30
0.0
  0
SPLINE
  5
62
330
1F
100
AcDbEntity
  8
layer 1
 62
     7
100
AcDbSpline
210
0.0
220
0.0
230
1.0
 70
    11
 71
     3
 72
    28
 73
    24
 74
     0
 42
0.0000000001
 43
0.0000000001
 12
1.0
 22
0.0
 32
0.0
 13
1.0
 23
0.0
 33
0.0
 40
0.0
 40
0.0
 40
0.0
 40
0.0
 40
0.1428571428571428
 40
0.1428571428571428
 40
0.1428571428571428
 40
0.1428571428571428
 40
0.2857142857142857
 40
0.2857142857142857
 40
0.2857142857142857
 40
0.2857142857142857
 40
0.4285714285714285
 40
0.4285714285714285
 40
0.4285714285714285
 40
0.4285714285714285
 40
0.5714285714285714
 40
0.5714285714285714
 40
0.5714285714285714
 40
0.5714285714285714
 40
0.7142857142857143
 40
0.7142857142857143
 40
0.7142857142857143
 40
0.7142857142857143
 40
1.0
 40
1.0
 40
1.0
 40
1.0
 10
189.1182
 20
-45.9685
 30
0.0
 10
192.2872
 20
-45.4279
 30
0.0
 10
192.3547
 20
-39.0324
 30
0.0
 10
189.2748
 20
-40.5493
 30
0.0
 10
189.2748
 20
-40.5493
 30
0.0
 10
187.6725
 20
-41.3352
 30
0.0
 10
187.264
 20
-42.4754
 30
0.0
 10
183.6637
 20
-41.3124
 30
0.0
 10
183.6637
 20
-41.3124
 30
0.0
 10
182.2455
 20
-40.8493
 30
0.0
 10
179.3325
 20
-42.3933
 30
0.0
 10
181.4465
 20
-44.3285
 30
0.0
 10
181.4465
 20
-44.3285
 30
0.0
 10
182.5013
 20
-45.2373
 30
0.0
 10
182.0031
 20
-46.686
 30
0.0
 10
182.4522
 20
-47.8536
 30
0.0
 10
182.4522
 20
-47.8536
 30
0.0
 10
184.1801
 20
-52.8456
 30
0.0
 10
189.6523
 20
-50.7923
 30
0.0
 10
187.7357
 20
-47.0629
 30
0.0
 10
187.7357
 20
-47.0629
 30
0.0
 10
187.6548
 20
-46.5727
 30
0.0
 10
188.1841
 20
-46.0728
 30
0.0
 10
189.1182
 20
-45.9685
 30
0.0
  0
SPLINE
  5
63
330
1F
100
AcDbEntity
  8
layer 1
 62
     7
100
AcDbSpline
210
0.0
220
0.0
230
1.0
 70
    11
 71
     3
 72
    88
 73
    84
 74
     0
 42
0.0000000001
 43
0.0000000001
 12
1.0
 22
0.0
 32
0.0
 13
1.0
 23
0.0
 33
0.0
 40
0.0
 40
0.0
 40
0.0
 40
0.0
 40
0.0454545454545455
 40
0.0454545454545455
 40
0.0454545454545455
 40
0.0454545454545455
 40
0.0909090909090909
 40
0.0909090909090909
 40
0.0909090909090909
 40
0.0909090909090909
 40
0.1363636363636364
 40
0.1363636363636364
 40
0.1363636363636364
 40
0.1363636363636364
 40
0.1818181818181818
 40
0.1818181818181818
 40
0.1818181818181818
 40
0.1818181818181818
 40
0.2272727272727273
 40
0.2272727272727273
 40
0.2272727272727273
 40
0.2272727272727273
 40
0.2727272727272727
 40
0.2727272727272727
 40
0.2727272727272727
 40
0.2727272727272727
 40
0.3181818181818182
 40
0.3181818181818182
 40
0.3181818181818182
 40
0.3181818181818182
 40
0.3636363636363636
 40
0.3636363636363636
 40
0.3636363636363636
 40
0.3636363636363636
 40
0.4090909090909091
 40
0.4090909090909091
 40
0.4090909090909091
 40
0.4090909090909091
 40
0.4545454545454545
 40
0.4545454545454545
 40
0.4545454545454545
 40
0.4545454545454545
 40
0.5
 40
0.5
 40
0.5
 40
0.5
 40
0.5454545454545454
 40
0.5454545454545454
 40
0.5454545454545454
 40
0.5454545454545454
 40
0.5909090909090909
 40
0.5909090909090909
 40
0.5909090909090909
 40
0.5909090909090909
 40
0.6363636363636364
 40
0.6363636363636364
 40
0.6363636363636364
 40
0.6363636363636364
 40
0.6818181818181818
 40
0.6818181818181818
 40
0.6818181818181818
 40
0.6818181818181818
 40
0.7272727272727273
 40
0.7272727272727273
 40
0.7272727272727273
 40
0.7272727272727273
 40
0.7727272727272727
 40
0.7727272727272727
 40
0.7727272727272727
 40
0.7727272727272727
 40
0.8181818181818182
 40
0.8181818181818182
 40
0.8181818181818182
 40
0.8181818181818182
 40
0.8636363636363636
 40
0.8636363636363636
 40
0.8636363636363636
 40
0.8636363636363636
 40
0.9090909090909091
 40
0.9090909090909091
 40
0.9090909090909091
 40
0.9090909090909091
 40
1.0
 40
1.0
 40
1.0
 40
1.0
 10
188.9922
 20
-59.6273
 30
0.0
 10
185.7423
 20
-53.0044
 30
0.0
 10
178.8297
 20
-58.8914
 30
0.0
 10
181.7789
 20
-63.7879
 30
0.0
 10
181.7789
 20
-63.7879
 30
0.0
 10
185.2082
 20
-69.4474
 30
0.0
 10
187.3044
 20
-75.53
 30
0.0
 10
186.4562
 20
-83.5926
 30
0.0
 10
186.4562
 20
-83.5926
 30
0.0
 10
185.9401
 20
-88.5893
 30
0.0
 10
181.4737
 20
-87.2989
 30
0.0
 10
182.9952
 20
-82.7837
 30
0.0
 10
182.9952
 20
-82.7837
 30
0.0
 10
185.482
 20
-75.3798
 30
0.0
 10
180.4275
 20
-67.7763
 30
0.0
 10
177.1956
 20
-73.8583
 30
0.0
 10
177.1956
 20
-73.8583
 30
0.0
 10
169.5913
 20
-88.1804
 30
0.0
 10
161.2959
 20
-90.4879
 30
0.0
 10
158.064
 20
-89.1613
 30
0.0
 10
158.064
 20
-89.1613
 30
0.0
 10
157.5074
 20
-88.9706
 30
0.0
 10
158.001
 20
-87.7532
 30
0.0
 10
156.0397
 20
-89.1936
 30
0.0
 10
156.0397
 20
-89.1936
 30
0.0
 10
153.9071
 20
-90.9874
 30
0.0
 10
151.4923
 20
-93.1225
 30
0.0
 10
150.7828
 20
-91.5778
 30
0.0
 10
150.7828
 20
-91.5778
 30
0.0
 10
150.0693
 20
-90.0428
 30
0.0
 10
167.2302
 20
-79.0275
 30
0.0
 10
169.7531
 20
-67.0129
 30
0.0
 10
169.7531
 20
-67.0129
 30
0.0
 10
171.2792
 20
-59.7726
 30
0.0
 10
161.1166
 20
-60.3992
 30
0.0
 10
156.0397
 20
-64.7873
 30
0.0
 10
156.0397
 20
-64.7873
 30
0.0
 10
154.5357
 20
-66.0774
 30
0.0
 10
152.9599
 20
-64.1286
 30
0.0
 10
155.2899
 20
-61.9164
 30
0.0
 10
155.2899
 20
-61.9164
 30
0.0
 10
157.2292
 20
-60.236
 30
0.0
 10
160.8201
 20
-57.6788
 30
0.0
 10
166.6648
 20
-58.4187
 30
0.0
 10
166.6648
 20
-58.4187
 30
0.0
 10
171.9075
 20
-59.055
 30
0.0
 10
171.6205
 20
-52.4682
 30
0.0
 10
167.9843
 20
-50.9878
 30
0.0
 10
167.9843
 20
-50.9878
 30
0.0
 10
155.438
 20
-46.3818
 30
0.0
 10
132.0284
 20
-72.5184
 30
0.0
 10
149.0506
 20
-71.7462
 30
0.0
 10
149.0506
 20
-71.7462
 30
0.0
 10
154.7333
 20
-71.4917
 30
0.0
 10
155.3305
 20
-75.8208
 30
0.0
 10
151.9592
 20
-77.7874
 30
0.0
 10
151.9592
 20
-77.7874
 30
0.0
 10
138.7215
 20
-85.5687
 30
0.0
 10
141.9533
 20
-96.6653
 30
0.0
 10
136.0552
 20
-96.8199
 30
0.0
 10
136.0552
 20
-96.8199
 30
0.0
 10
130.8526
 20
-96.9561
 30
0.0
 10
132.1272
 20
-100.926
 30
0.0
 10
136.3379
 20
-101.9936
 30
0.0
 10
136.3379
 20
-101.9936
 30
0.0
 10
154.7155
 20
-106.6402
 30
0.0
 10
168.285
 20
-99.8088
 30
0.0
 10
171.9348
 20
-90.0743
 30
0.0
 10
171.9348
 20
-90.0743
 30
0.0
 10
172.6395
 20
-88.3986
 30
0.0
 10
174.4573
 20
-88.0986
 30
0.0
 10
175.4447
 20
-89.3156
 30
0.0
 10
175.4447
 20
-89.3156
 30
0.0
 10
177.5458
 20
-92.2046
 30
0.0
 10
176.787
 20
-95.8025
 30
0.0
 10
176.217
 20
-97.733
 30
0.0
 10
176.217
 20
-97.733
 30
0.0
 10
174.2509
 20
-104.4279
 30
0.0
 10
183.2377
 20
-103.7787
 30
0.0
 10
186.7521
 20
-98.037
 30
0.0
 10
186.7521
 20
-98.037
 30
0.0
 10
191.9414
 20
-89.5245
 30
0.0
 10
194.3251
 20
-70.5109
 30
0.0
 10
188.9922
 20
-59.6273
 30
0.0
  0
ENDSEC
  0
SECTION
  2
OBJECTS
  0
DICTIONARY
  5
C
330
0
100
AcDbDictionary
281
     1
  3
ACAD_GROUP
350
D
  3
ACAD_LAYOUT
350
1A
  3
ACAD_MATERIAL
350
3B
  3
ACAD_MLEADERSTYLE
350
86
  3
ACAD_MLINESTYLE
350
17
  3
ACAD_PLOTSETTINGS
350
19
  3
ACAD_PLOTSTYLENAME
350
E
  3
ACAD_TABLESTYLE
350
85
  3
ACAD_VISUALSTYLE
350
2A
  0
DICTIONARY
  5
D
102
{ACAD_REACTORS
330
C
102
}
330
C
100
AcDbDictionary
281
     1
  0
DICTIONARY
  5
1A
102
{ACAD_REACTORS
330
C
102
}
330
C
100
AcDbDictionary
281
     1
  3
Layout1
350
1E
  3
Layout2
350
26
  3
Model
350
22
  0
DICTIONARY
  5
3B
102
{ACAD_REACTORS
330
C
102
}
330
C
100
AcDbDictionary
281
     1
  3
ByBlock
350
3D
  3
ByLayer
350
3C
  3
Global
350
3E
  0
DICTIONARY
  5
86
102
{ACAD_REACTORS
330
C
102
}
330
C
100
AcDbDictionary
281
     1
  0
DICTIONARY
  5
17
102
{ACAD_REACTORS
330
C
102
}
330
C
100
AcDbDictionary
281
     1
  3
Standard
350
18
  0
DICTIONARY
  5
19
102
{ACAD_REACTORS
330
C
102
}
330
C
100
AcDbDictionary
281
     1
  0
ACDBDICTIONARYWDFLT
  5
E
102
{ACAD_REACTORS
330
C
102
}
330
C
100
AcDbDictionary
281
     1
  3
Normal
350
F
100
AcDbDictionaryWithDefault
340
F
  0
DICTIONARY
  5
85
102
{ACAD_REACTORS
330
C
102
}
330
C
100
AcDbDictionary
281
     1
  0
DICTIONARY
  5
2A
102
{ACAD_REACTORS
330
C
102
}
330
C
100
AcDbDictionary
281
     1
  3
2dWireframe
350
2F
  3
3D Hidden
350
31
  3
3dWireframe
350
30
  3
Basic
350
32
  3
Brighten
350
36
  3
ColorChange
350
3A
  3
Conceptual
350
34
  3
Dim
350
35
  3
Facepattern
350
39
  3
Flat
350
2B
  3
FlatWithEdges
350
2C
  3
Gouraud
350
2D
  3
GouraudWithEdges
350
2E
  3
Linepattern
350
38
  3
Realistic
350
33
  3
Thicken
350
37
  0
LAYOUT
  5
1E
102
{ACAD_REACTORS
330
1A
102
}
330
1A
100
AcDbPlotSettings
  1

  2
none_device
  4

  6

 40
0.0
 41
0.0
 42
0.0
 43
0.0
 44
0.0
 45
0.0
 46
0.0
 47
0.0
 48
0.0
 49
0.0
140
0.0
141
0.0
142
1.0
143
1.0
 70
   688
 72
     0
 73
     0
 74
     5
  7

 75
    16
 76
     0
 77
     2
 78
   300
147
1.0
148
0.0
149
0.0
100
AcDbLayout
  1
Layout1
 70
     1
 71
     1
 10
0.0
 20
0.0
 11
12.0
 21
9.0
 12
0.0
 22
0.0
 32
0.0
 14
1.000000000000000E+20
 24
1.000000000000000E+20
 34
1.000000000000000E+20
 15
-1.000000000000000E+20
 25
-1.000000000000000E+20
 35
-1.000000000000000E+20
146
0.0
 13
0.0
 23
0.0
 33
0.0
 16
1.0
 26
0.0
 36
0.0
 17
0.0
 27
1.0
 37
0.0
 76
     0
330
1B
  0
LAYOUT
  5
26
102
{ACAD_REACTORS
330
1A
102
}
330
1A
100
AcDbPlotSettings
  1

  2
none_device
  4

  6

 40
0.0
 41
0.0
 42
0.0
 43
0.0
 44
0.0
 45
0.0
 46
0.0
 47
0.0
 48
0.0
 49
0.0
140
0.0
141
0.0
142
1.0
143
1.0
 70
   688
 72
     0
 73
     0
 74
     5
  7

 75
    16
 76
     0
 77
     2
 78
   300
147
1.0
148
0.0
149
0.0
100
AcDbLayout
  1
Layout2
 70
     1
 71
     2
 10
0.0
 20
0.0
 11
0.0
 21
0.0
 12
0.0
 22
0.0
 32
0.0
 14
0.0
 24
0.0
 34
0.0
 15
0.0
 25
0.0
 35
0.0
146
0.0
 13
0.0
 23
0.0
 33
0.0
 16
1.0
 26
0.0
 36
0.0
 17
0.0
 27
1.0
 37
0.0
 76
     0
330
23
  0
LAYOUT
  5
22
102
{ACAD_REACTORS
330
1A
102
}
330
1A
100
AcDbPlotSettings
  1

  2
none_device
  4

  6

 40
0.0
 41
0.0
 42
0.0
 43
0.0
 44
0.0
 45
0.0
 46
0.0
 47
0.0
 48
0.0
 49
0.0
140
0.0
141
0.0
142
1.0
143
1.0
 70
  1712
 72
     0
 73
     0
 74
     0
  7

 75
     0
 76
     0
 77
     2
 78
   300
147
1.0
148
0.0
149
0.0
100
AcDbLayout
  1
Model
 70
     1
 71
     0
 10
0.0
 20
0.0
 11
12.0
 21
9.0
 12
0.0
 22
0.0
 32
0.0
 14
77.1148
 24
-108.825
 34
0.0
 15
196.2224
 25
129.3901
 35
0.0
146
0.0
 13
0.0
 23
0.0
 33
0.0
 16
1.0
 26
0.0
 36
0.0
 17
0.0
 27
1.0
 37
0.0
 76
     0
330
1F
331
29
  0
MATERIAL
  5
3D
102
{ACAD_REACTORS
330
3B
102
}
330
3B
100
AcDbMaterial
  1
ByBlock
 72
     1
 94
      127
  0
MATERIAL
  5
3C
102
{ACAD_REACTORS
330
3B
102
}
330
3B
100
AcDbMaterial
  1
ByLayer
 72
     1
 94
      127
  0
MATERIAL
  5
3E
102
{ACAD_REACTORS
330
3B
102
}
330
3B
100
AcDbMaterial
  1
Global
 72
     1
 94
      127
  0
MLINESTYLE
  5
18
102
{ACAD_REACTORS
330
17
102
}
330
17
100
AcDbMlineStyle
  2
Standard
 70
     0
  3

 62
   256
 51
90.0
 52
90.0
 71
     2
 49
0.5
 62
   256
  6
BYLAYER
 49
-0.5
 62
   256
  6
BYLAYER
  0
ACDBPLACEHOLDER
  5
F
102
{ACAD_REACTORS
330
E
102
}
330
E
  0
VISUALSTYLE
  5
2F
102
{ACAD_REACTORS
330
2A
102
}
102
{ACAD_XDICTIONARY
360
6D
102
}
330
2A
100
AcDbVisualStyle
  2
2dWireframe
 70
     4
 71
     0
 72
     2
 73
     0
 90
        0
 40
-0.6
 41
-30.0
 62
     5
 63
     7
421
 16777215
 74
     1
 91
        4
 64
     7
 65
   257
 75
     1
175
     1
 42
1.0
 92
        0
 66
   257
 43
1.0
 76
     1
 77
     6
 78
     2
 67
     7
 79
     5
170
     0
171
     0
290
     0
174
     0
 93
        1
 44
0.0
173
     0
291
     0
 45
0.0
  0
VISUALSTYLE
  5
31
102
{ACAD_REACTORS
330
2A
102
}
102
{ACAD_XDICTIONARY
360
71
102
}
330
2A
100
AcDbVisualStyle
  2
3D Hidden
 70
     6
 71
     1
 72
     2
 73
     2
 90
        0
 40
-0.6
 41
-30.0
 62
     5
 63
     7
421
 16777215
 74
     2
 91
        2
 64
     7
 65
   257
 75
     2
175
     1
 42
40.0
 92
        0
 66
   257
 43
1.0
 76
     1
 77
     6
 78
     2
 67
     7
 79
     3
170
     0
171
     0
290
     0
174
     0
 93
        1
 44
0.0
173
     0
291
     0
 45
0.0
  0
VISUALSTYLE
  5
30
102
{ACAD_REACTORS
330
2A
102
}
102
{ACAD_XDICTIONARY
360
6F
102
}
330
2A
100
AcDbVisualStyle
  2
3dWireframe
 70
     5
 71
     0
 72
     2
 73
     0
 90
        0
 40
-0.6
 41
-30.0
 62
     5
 63
     7
421
 16777215
 74
     1
 91
        4
 64
     7
 65
   257
 75
     1
175
     1
 42
1.0
 92
        0
 66
   257
 43
1.0
 76
     1
 77
     6
 78
     2
 67
     7
 79
     5
170
     0
171
     0
290
     0
174
     0
 93
        1
 44
0.0
173
     0
291
     0
 45
0.0
  0
VISUALSTYLE
  5
32
102
{ACAD_REACTORS
330
2A
102
}
102
{ACAD_XDICTIONARY
360
73
102
}
330
2A
100
AcDbVisualStyle
  2
Basic
 70
     7
 71
     1
 72
     0
 73
     1
 90
        0
 40
-0.6
 41
-30.0
 62
     5
 63
     7
421
 16777215
 74
     0
 91
        4
 64
     7
 65
   257
 75
     1
175
     1
 42
1.0
 92
        8
 66
     7
 43
1.0
 76
     1
 77
     6
 78
     2
 67
     7
 79
     5
170
     0
171
     0
290
     0
174
     0
 93
        1
 44
0.0
173
     0
291
     1
 45
0.0
  0
VISUALSTYLE
  5
36
102
{ACAD_REACTORS
330
2A
102
}
102
{ACAD_XDICTIONARY
360
7B
102
}
330
2A
100
AcDbVisualStyle
  2
Brighten
 70
    12
 71
     2
 72
     2
 73
     0
 90
        0
 40
-0.6
 41
-30.0
 62
     5
 63
     7
421
 16777215
 74
     1
 91
        4
 64
     7
 65
   257
 75
     1
175
     1
 42
1.0
 92
        8
 66
     7
 43
1.0
 76
     1
 77
     6
 78
     2
 67
     7
 79
     5
170
     0
171
     0
290
     0
174
     0
 93
        1
 44
50.0
173
     0
291
     1
 45
0.0
  0
VISUALSTYLE
  5
3A
102
{ACAD_REACTORS
330
2A
102
}
102
{ACAD_XDICTIONARY
360
83
102
}
330
2A
100
AcDbVisualStyle
  2
ColorChange
 70
    16
 71
     2
 72
     2
 73
     3
 90
        0
 40
-0.6
 41
-30.0
 62
     5
 63
     8
421
  8421504
 74
     1
 91
        4
 64
     7
 65
   257
 75
     1
175
     1
 42
1.0
 92
        8
 66
     8
424
  8421504
 43
1.0
 76
     1
 77
     6
 78
     2
 67
     7
 79
     5
170
     0
171
     0
290
     0
174
     0
 93
        1
 44
0.0
173
     0
291
     1
 45
0.0
  0
VISUALSTYLE
  5
34
102
{ACAD_REACTORS
330
2A
102
}
102
{ACAD_XDICTIONARY
360
77
102
}
330
2A
100
AcDbVisualStyle
  2
Conceptual
 70
     9
 71
     3
 72
     2
 73
     0
 90
        0
 40
-0.6
 41
-30.0
 62
     5
 63
     7
421
 16777215
 74
     2
 91
        2
 64
     7
 65
   257
 75
     1
175
     1
 42
40.0
 92
        8
 66
     7
 43
1.0
 76
     1
 77
     6
 78
     2
 67
     7
 79
     3
170
     0
171
     0
290
     0
174
     0
 93
        1
 44
0.0
173
     0
291
     0
 45
0.0
  0
VISUALSTYLE
  5
35
102
{ACAD_REACTORS
330
2A
102
}
102
{ACAD_XDICTIONARY
360
79
102
}
330
2A
100
AcDbVisualStyle
  2
Dim
 70
    11
 71
     2
 72
     2
 73
     0
 90
        0
 40
-0.6
 41
-30.0
 62
     5
 63
     7
421
 16777215
 74
     1
 91
        4
 64
     7
 65
   257
 75
     1
175
     1
 42
1.0
 92
        8
 66
     7
 43
1.0
 76
     1
 77
     6
 78
     2
 67
     7
 79
     5
170
     0
171
     0
290
     0
174
     0
 93
        1
 44
-50.0
173
     0
291
     1
 45
0.0
  0
VISUALSTYLE
  5
39
102
{ACAD_REACTORS
330
2A
102
}
102
{ACAD_XDICTIONARY
360
81
102
}
330
2A
100
AcDbVisualStyle
  2
Facepattern
 70
    15
 71
     2
 72
     2
 73
     0
 90
        0
 40
-0.6
 41
-30.0
 62
     5
 63
     7
421
 16777215
 74
     1
 91
        4
 64
     7
 65
   257
 75
     1
175
     1
 42
1.0
 92
        8
 66
     7
 43
1.0
 76
     1
 77
     6
 78
     2
 67
     7
 79
     5
170
     0
171
     0
290
     0
174
     0
 93
        1
 44
0.0
173
     0
291
     1
 45
0.0
  0
VISUALSTYLE
  5
2B
102
{ACAD_REACTORS
330
2A
102
}
102
{ACAD_XDICTIONARY
360
65
102
}
330
2A
100
AcDbVisualStyle
  2
Flat
 70
     0
 71
     2
 72
     1
 73
     1
 90
        2
 40
-0.6
 41
30.0
 62
     5
 63
     7
421
 16777215
 74
     0
 91
        4
 64
     7
 65
   257
 75
     1
175
     1
 42
1.0
 92
        8
 66
     7
 43
1.0
 76
     1
 77
     6
 78
     2
 67
     7
 79
     5
170
     0
171
     0
290
     0
174
     0
 93
       13
 44
0.0
173
     0
291
     1
 45
0.0
  0
VISUALSTYLE
  5
2C
102
{ACAD_REACTORS
330
2A
102
}
102
{ACAD_XDICTIONARY
360
67
102
}
330
2A
100
AcDbVisualStyle
  2
FlatWithEdges
 70
     1
 71
     2
 72
     1
 73
     1
 90
        2
 40
-0.6
 41
30.0
 62
     5
 63
     7
421
 16777215
 74
     1
 91
        4
 64
     7
 65
   257
 75
     1
175
     1
 42
1.0
 92
        0
 66
   257
 43
1.0
 76
     1
 77
     6
 78
     2
 67
     7
 79
     5
170
     0
171
     0
290
     0
174
     0
 93
       13
 44
0.0
173
     0
291
     1
 45
0.0
  0
VISUALSTYLE
  5
2D
102
{ACAD_REACTORS
330
2A
102
}
102
{ACAD_XDICTIONARY
360
69
102
}
330
2A
100
AcDbVisualStyle
  2
Gouraud
 70
     2
 71
     2
 72
     2
 73
     1
 90
        2
 40
-0.6
 41
30.0
 62
     5
 63
     7
421
 16777215
 74
     0
 91
        4
 64
     7
 65
   257
 75
     1
175
     1
 42
1.0
 92
        0
 66
     7
 43
1.0
 76
     1
 77
     6
 78
     2
 67
     7
 79
     5
170
     0
171
     0
290
     0
174
     0
 93
       13
 44
0.0
173
     0
291
     1
 45
0.0
  0
VISUALSTYLE
  5
2E
102
{ACAD_REACTORS
330
2A
102
}
102
{ACAD_XDICTIONARY
360
6B
102
}
330
2A
100
AcDbVisualStyle
  2
GouraudWithEdges
 70
     3
 71
     2
 72
     2
 73
     1
 90
        2
 40
-0.6
 41
30.0
 62
     5
 63
     7
421
 16777215
 74
     1
 91
        4
 64
     7
 65
   257
 75
     1
175
     1
 42
1.0
 92
        0
 66
   257
 43
1.0
 76
     1
 77
     6
 78
     2
 67
     7
 79
     5
170
     0
171
     0
290
     0
174
     0
 93
       13
 44
0.0
173
     0
291
     1
 45
0.0
  0
VISUALSTYLE
  5
38
102
{ACAD_REACTORS
330
2A
102
}
102
{ACAD_XDICTIONARY
360
7F
102
}
330
2A
100
AcDbVisualStyle
  2
Linepattern
 70
    14
 71
     2
 72
     2
 73
     0
 90
        0
 40
-0.6
 41
-30.0
 62
     5
 63
     7
421
 16777215
 74
     1
 91
        4
 64
     7
 65
   257
 75
     7
175
     7
 42
1.0
 92
        8
 66
     7
 43
1.0
 76
     1
 77
     6
 78
     2
 67
     7
 79
     5
170
     0
171
     0
290
     0
174
     0
 93
        1
 44
0.0
173
     0
291
     1
 45
0.0
  0
VISUALSTYLE
  5
33
102
{ACAD_REACTORS
330
2A
102
}
102
{ACAD_XDICTIONARY
360
75
102
}
330
2A
100
AcDbVisualStyle
  2
Realistic
 70
     8
 71
     2
 72
     2
 73
     0
 90
        0
 40
-0.6
 41
-30.0
 62
     5
 63
     7
421
 16777215
 74
     1
 91
        0
 64
     7
 65
   257
 75
     1
175
     1
 42
1.0
 92
        8
 66
     8
424
  7895160
 43
1.0
 76
     1
 77
     6
 78
     2
 67
     7
 79
     5
170
     0
171
     0
290
     0
174
     0
 93
       13
 44
0.0
173
     0
291
     0
 45
0.0
  0
VISUALSTYLE
  5
37
102
{ACAD_REACTORS
330
2A
102
}
102
{ACAD_XDICTIONARY
360
7D
102
}
330
2A
100
AcDbVisualStyle
  2
Thicken
 70
    13
 71
     2
 72
     2
 73
     0
 90
        0
 40
-0.6
 41
-30.0
 62
     5
 63
     7
421
 16777215
 74
     1
 91
        4
 64
     7
 65
   257
 75
     1
175
     1
 42
1.0
 92
       12
 66
     7
 43
1.0
 76
     1
 77
     6
 78
     2
 67
     7
 79
     5
170
     0
171
     0
290
     0
174
     0
 93
        1
 44
0.0
173
     0
291
     1
 45
0.0
  0
DICTIONARY
  5
6D
330
2F
100
AcDbDictionary
280
     1
281
     1
  3
ACAD_XREC_ROUNDTRIP
360
6E
  0
DICTIONARY
  5
71
330
31
100
AcDbDictionary
280
     1
281
     1
  3
ACAD_XREC_ROUNDTRIP
360
72
  0
DICTIONARY
  5
6F
330
30
100
AcDbDictionary
280
     1
281
     1
  3
ACAD_XREC_ROUNDTRIP
360
70
  0
DICTIONARY
  5
73
330
32
100
AcDbDictionary
280
     1
281
     1
  3
ACAD_XREC_ROUNDTRIP
360
74
  0
DICTIONARY
  5
7B
330
36
100
AcDbDictionary
280
     1
281
     1
  3
ACAD_XREC_ROUNDTRIP
360
7C
  0
DICTIONARY
  5
83
330
3A
100
AcDbDictionary
280
     1
281
     1
  3
ACAD_XREC_ROUNDTRIP
360
84
  0
DICTIONARY
  5
77
330
34
100
AcDbDictionary
280
     1
281
     1
  3
ACAD_XREC_ROUNDTRIP
360
78
  0
DICTIONARY
  5
79
330
35
100
AcDbDictionary
280
     1
281
     1
  3
ACAD_XREC_ROUNDTRIP
360
7A
  0
DICTIONARY
  5
81
330
39
100
AcDbDictionary
280
     1
281
     1
  3
ACAD_XREC_ROUNDTRIP
360
82
  0
DICTIONARY
  5
65
330
2B
100
AcDbDictionary
280
     1
281
     1
  3
ACAD_XREC_ROUNDTRIP
360
66
  0
DICTIONARY
  5
67
330
2C
100
AcDbDictionary
280
     1
281
     1
  3
ACAD_XREC_ROUNDTRIP
360
68
  0
DICTIONARY
  5
69
330
2D
100
AcDbDictionary
280
     1
281
     1
  3
ACAD_XREC_ROUNDTRIP
360
6A
  0
DICTIONARY
  5
6B
330
2E
100
AcDbDictionary
280
     1
281
     1
  3
ACAD_XREC_ROUNDTRIP
360
6C
  0
DICTIONARY
  5
7F
330
38
100
AcDbDictionary
280
     1
281
     1
  3
ACAD_XREC_ROUNDTRIP
360
80
  0
DICTIONARY
  5
75
330
33
100
AcDbDictionary
280
     1
281
     1
  3
ACAD_XREC_ROUNDTRIP
360
76
  0
DICTIONARY
  5
7D
330
37
100
AcDbDictionary
280
     1
281
     1
  3
ACAD_XREC_ROUNDTRIP
360
7E
  0
XRECORD
  5
6E
102
{ACAD_REACTORS
330
6D
102
}
330
6D
100
AcDbXrecord
280
     1
102
RTVSPropertyOp0
 70
     1
102
RTVSPropertyOp1
 70
     1
102
RTVSPropertyOp2
 70
     1
102
RTVSPropertyOp3
 70
     1
102
RTVSPropertyOp4
 70
     1
102
RTVSPropertyOp5
 70
     1
102
RTVSPropertyOp6
 70
     1
102
RTVSPropertyOp7
 70
     1
102
RTVSPropertyOp8
 70
     1
102
RTVSPropertyOp9
 70
     1
102
RTVSPropertyOp10
 70
     1
102
RTVSPropertyOp11
 70
     1
102
RTVSPropertyOp12
 70
     1
102
RTVSPropertyOp13
 70
     1
102
RTVSPropertyOp14
 70
     1
102
RTVSPropertyOp15
 70
     1
102
RTVSPropertyOp16
 70
     1
102
RTVSPropertyOp17
 70
     1
102
RTVSPropertyOp18
 70
     1
102
RTVSPropertyOp19
 70
     1
102
RTVSPropertyOp20
 70
     1
102
RTVSPropertyOp21
 70
     1
102
RTVSPropertyOp22
 70
     1
102
RTVSPropertyOp23
 70
     1
102
RTVSPropertyOp24
 70
     1
102
RTVSPropertyOp25
 70
     1
102
RTVSPropertyOp26
 70
     1
102
RTVSPropertyOp27
 70
     1
102
RTVSPropertyOp28
 70
     1
102
RTVSPropertyOp29
 70
     1
102
RTVSPropertyOp30
 70
     1
102
RTVSPropertyOp31
 70
     1
102
RTVSPropertyOp32
 70
     1
  0
XRECORD
  5
72
102
{ACAD_REACTORS
330
71
102
}
330
71
100
AcDbXrecord
280
     1
102
RTVSPropertyOp0
 70
     1
102
RTVSPropertyOp1
 70
     1
102
RTVSPropertyOp2
 70
     1
102
RTVSPropertyOp3
 70
     1
102
RTVSPropertyOp4
 70
     1
102
RTVSPropertyOp5
 70
     1
102
RTVSPropertyOp6
 70
     1
102
RTVSPropertyOp7
 70
     1
102
RTVSPropertyOp8
 70
     1
102
RTVSPropertyOp9
 70
     1
102
RTVSPropertyOp10
 70
     1
102
RTVSPropertyOp11
 70
     1
102
RTVSPropertyOp12
 70
     1
102
RTVSPropertyOp13
 70
     1
102
RTVSPropertyOp14
 70
     1
102
RTVSPropertyOp15
 70
     1
102
RTVSPropertyOp16
 70
     1
102
RTVSPropertyOp17
 70
     1
102
RTVSPropertyOp18
 70
     1
102
RTVSPropertyOp19
 70
     1
102
RTVSPropertyOp20
 70
     1
102
RTVSPropertyOp21
 70
     1
102
RTVSPropertyOp22
 70
     1
102
RTVSPropertyOp23
 70
     1
102
RTVSPropertyOp24
 70
     1
102
RTVSPropertyOp25
 70
     1
102
RTVSPropertyOp26
 70
     1
102
RTVSPropertyOp27
 70
     1
102
RTVSPropertyOp28
 70
     1
102
RTVSPropertyOp29
 70
     1
102
RTVSPropertyOp30
 70
     1
102
RTVSPropertyOp31
 70
     1
102
RTVSPropertyOp32
 70
     1
  0
XRECORD
  5
70
102
{ACAD_REACTORS
330
6F
102
}
330
6F
100
AcDbXrecord
280
     1
102
RTVSPropertyOp0
 70
     1
102
RTVSPropertyOp1
 70
     1
102
RTVSPropertyOp2
 70
     1
102
RTVSPropertyOp3
 70
     1
102
RTVSPropertyOp4
 70
     1
102
RTVSPropertyOp5
 70
     1
102
RTVSPropertyOp6
 70
     1
102
RTVSPropertyOp7
 70
     1
102
RTVSPropertyOp8
 70
     1
102
RTVSPropertyOp9
 70
     1
102
RTVSPropertyOp10
 70
     1
102
RTVSPropertyOp11
 70
     1
102
RTVSPropertyOp12
 70
     1
102
RTVSPropertyOp13
 70
     1
102
RTVSPropertyOp14
 70
     1
102
RTVSPropertyOp15
 70
     1
102
RTVSPropertyOp16
 70
     1
102
RTVSPropertyOp17
 70
     1
102
RTVSPropertyOp18
 70
     1
102
RTVSPropertyOp19
 70
     1
102
RTVSPropertyOp20
 70
     1
102
RTVSPropertyOp21
 70
     1
102
RTVSPropertyOp22
 70
     1
102
RTVSPropertyOp23
 70
     1
102
RTVSPropertyOp24
 70
     1
102
RTVSPropertyOp25
 70
     1
102
RTVSPropertyOp26
 70
     1
102
RTVSPropertyOp27
 70
     1
102
RTVSPropertyOp28
 70
     1
102
RTVSPropertyOp29
 70
     1
102
RTVSPropertyOp30
 70
     1
102
RTVSPropertyOp31
 70
     1
102
RTVSPropertyOp32
 70
     1
  0
XRECORD
  5
74
102
{ACAD_REACTORS
330
73
102
}
330
73
100
AcDbXrecord
280
     1
102
RTVSPropertyOp0
 70
     1
102
RTVSPropertyOp1
 70
     1
102
RTVSPropertyOp2
 70
     1
102
RTVSPropertyOp3
 70
     1
102
RTVSPropertyOp4
 70
     1
102
RTVSPropertyOp5
 70
     1
102
RTVSPropertyOp6
 70
     1
102
RTVSPropertyOp7
 70
     1
102
RTVSPropertyOp8
 70
     1
102
RTVSPropertyOp9
 70
     1
102
RTVSPropertyOp10
 70
     1
102
RTVSPropertyOp11
 70
     1
102
RTVSPropertyOp12
 70
     1
102
RTVSPropertyOp13
 70
     1
102
RTVSPropertyOp14
 70
     1
102
RTVSPropertyOp15
 70
     1
102
RTVSPropertyOp16
 70
     1
102
RTVSPropertyOp17
 70
     1
102
RTVSPropertyOp18
 70
     1
102
RTVSPropertyOp19
 70
     1
102
RTVSPropertyOp20
 70
     1
102
RTVSPropertyOp21
 70
     1
102
RTVSPropertyOp22
 70
     1
102
RTVSPropertyOp23
 70
     1
102
RTVSPropertyOp24
 70
     1
102
RTVSPropertyOp25
 70
     1
102
RTVSPropertyOp26
 70
     1
102
RTVSPropertyOp27
 70
     1
102
RTVSPropertyOp28
 70
     1
102
RTVSPropertyOp29
 70
     1
102
RTVSPropertyOp30
 70
     1
102
RTVSPropertyOp31
 70
     1
102
RTVSPropertyOp32
 70
     1
  0
XRECORD
  5
7C
102
{ACAD_REACTORS
330
7B
102
}
330
7B
100
AcDbXrecord
280
     1
102
RTVSPropertyOp0
 70
     1
102
RTVSPropertyOp1
 70
     1
102
RTVSPropertyOp2
 70
     1
102
RTVSPropertyOp3
 70
     1
102
RTVSPropertyOp4
 70
     1
102
RTVSPropertyOp5
 70
     1
102
RTVSPropertyOp6
 70
     1
102
RTVSPropertyOp7
 70
     1
102
RTVSPropertyOp8
 70
     1
102
RTVSPropertyOp9
 70
     1
102
RTVSPropertyOp10
 70
     1
102
RTVSPropertyOp11
 70
     1
102
RTVSPropertyOp12
 70
     1
102
RTVSPropertyOp13
 70
     1
102
RTVSPropertyOp14
 70
     1
102
RTVSPropertyOp15
 70
     1
102
RTVSPropertyOp16
 70
     1
102
RTVSPropertyOp17
 70
     1
102
RTVSPropertyOp18
 70
     1
102
RTVSPropertyOp19
 70
     1
102
RTVSPropertyOp20
 70
     1
102
RTVSPropertyOp21
 70
     1
102
RTVSPropertyOp22
 70
     1
102
RTVSPropertyOp23
 70
     1
102
RTVSPropertyOp24
 70
     1
102
RTVSPropertyOp25
 70
     1
102
RTVSPropertyOp26
 70
     1
102
RTVSPropertyOp27
 70
     1
102
RTVSPropertyOp28
 70
     1
102
RTVSPropertyOp29
 70
     1
102
RTVSPropertyOp30
 70
     1
102
RTVSPropertyOp31
 70
     1
102
RTVSPropertyOp32
 70
     1
  0
XRECORD
  5
84
102
{ACAD_REACTORS
330
83
102
}
330
83
100
AcDbXrecord
280
     1
102
RTVSPropertyOp0
 70
     1
102
RTVSPropertyOp1
 70
     1
102
RTVSPropertyOp2
 70
     1
102
RTVSPropertyOp3
 70
     1
102
RTVSPropertyOp4
 70
     1
102
RTVSPropertyOp5
 70
     1
102
RTVSPropertyOp6
 70
     1
102
RTVSPropertyOp7
 70
     1
102
RTVSPropertyOp8
 70
     1
102
RTVSPropertyOp9
 70
     1
102
RTVSPropertyOp10
 70
     1
102
RTVSPropertyOp11
 70
     1
102
RTVSPropertyOp12
 70
     1
102
RTVSPropertyOp13
 70
     1
102
RTVSPropertyOp14
 70
     1
102
RTVSPropertyOp15
 70
     1
102
RTVSPropertyOp16
 70
     1
102
RTVSPropertyOp17
 70
     1
102
RTVSPropertyOp18
 70
     1
102
RTVSPropertyOp19
 70
     1
102
RTVSPropertyOp20
 70
     1
102
RTVSPropertyOp21
 70
     1
102
RTVSPropertyOp22
 70
     1
102
RTVSPropertyOp23
 70
     1
102
RTVSPropertyOp24
 70
     1
102
RTVSPropertyOp25
 70
     1
102
RTVSPropertyOp26
 70
     1
102
RTVSPropertyOp27
 70
     1
102
RTVSPropertyOp28
 70
     1
102
RTVSPropertyOp29
 70
     1
102
RTVSPropertyOp30
 70
     1
102
RTVSPropertyOp31
 70
     1
102
RTVSPropertyOp32
 70
     1
  0
XRECORD
  5
78
102
{ACAD_REACTORS
330
77
102
}
330
77
100
AcDbXrecord
280
     1
102
RTVSPropertyOp0
 70
     1
102
RTVSPropertyOp1
 70
     1
102
RTVSPropertyOp2
 70
     1
102
RTVSPropertyOp3
 70
     1
102
RTVSPropertyOp4
 70
     1
102
RTVSPropertyOp5
 70
     1
102
RTVSPropertyOp6
 70
     1
102
RTVSPropertyOp7
 70
     1
102
RTVSPropertyOp8
 70
     1
102
RTVSPropertyOp9
 70
     1
102
RTVSPropertyOp10
 70
     1
102
RTVSPropertyOp11
 70
     1
102
RTVSPropertyOp12
 70
     1
102
RTVSPropertyOp13
 70
     1
102
RTVSPropertyOp14
 70
     1
102
RTVSPropertyOp15
 70
     1
102
RTVSPropertyOp16
 70
     1
102
RTVSPropertyOp17
 70
     1
102
RTVSPropertyOp18
 70
     1
102
RTVSPropertyOp19
 70
     1
102
RTVSPropertyOp20
 70
     1
102
RTVSPropertyOp21
 70
     1
102
RTVSPropertyOp22
 70
     1
102
RTVSPropertyOp23
 70
     1
102
RTVSPropertyOp24
 70
     1
102
RTVSPropertyOp25
 70
     1
102
RTVSPropertyOp26
 70
     1
102
RTVSPropertyOp27
 70
     1
102
RTVSPropertyOp28
 70
     1
102
RTVSPropertyOp29
 70
     1
102
RTVSPropertyOp30
 70
     1
102
RTVSPropertyOp31
 70
     1
102
RTVSPropertyOp32
 70
     1
  0
XRECORD
  5
7A
102
{ACAD_REACTORS
330
79
102
}
330
79
100
AcDbXrecord
280
     1
102
RTVSPropertyOp0
 70
     1
102
RTVSPropertyOp1
 70
     1
102
RTVSPropertyOp2
 70
     1
102
RTVSPropertyOp3
 70
     1
102
RTVSPropertyOp4
 70
     1
102
RTVSPropertyOp5
 70
     1
102
RTVSPropertyOp6
 70
     1
102
RTVSPropertyOp7
 70
     1
102
RTVSPropertyOp8
 70
     1
102
RTVSPropertyOp9
 70
     1
102
RTVSPropertyOp10
 70
     1
102
RTVSPropertyOp11
 70
     1
102
RTVSPropertyOp12
 70
     1
102
RTVSPropertyOp13
 70
     1
102
RTVSPropertyOp14
 70
     1
102
RTVSPropertyOp15
 70
     1
102
RTVSPropertyOp16
 70
     1
102
RTVSPropertyOp17
 70
     1
102
RTVSPropertyOp18
 70
     1
102
RTVSPropertyOp19
 70
     1
102
RTVSPropertyOp20
 70
     1
102
RTVSPropertyOp21
 70
     1
102
RTVSPropertyOp22
 70
     1
102
RTVSPropertyOp23
 70
     1
102
RTVSPropertyOp24
 70
     1
102
RTVSPropertyOp25
 70
     1
102
RTVSPropertyOp26
 70
     1
102
RTVSPropertyOp27
 70
     1
102
RTVSPropertyOp28
 70
     1
102
RTVSPropertyOp29
 70
     1
102
RTVSPropertyOp30
 70
     1
102
RTVSPropertyOp31
 70
     1
102
RTVSPropertyOp32
 70
     1
  0
XRECORD
  5
82
102
{ACAD_REACTORS
330
81
102
}
330
81
100
AcDbXrecord
280
     1
102
RTVSPropertyOp0
 70
     1
102
RTVSPropertyOp1
 70
     1
102
RTVSPropertyOp2
 70
     1
102
RTVSPropertyOp3
 70
     1
102
RTVSPropertyOp4
 70
     1
102
RTVSPropertyOp5
 70
     1
102
RTVSPropertyOp6
 70
     1
102
RTVSPropertyOp7
 70
     1
102
RTVSPropertyOp8
 70
     1
102
RTVSPropertyOp9
 70
     1
102
RTVSPropertyOp10
 70
     1
102
RTVSPropertyOp11
 70
     1
102
RTVSPropertyOp12
 70
     1
102
RTVSPropertyOp13
 70
     1
102
RTVSPropertyOp14
 70
     1
102
RTVSPropertyOp15
 70
     1
102
RTVSPropertyOp16
 70
     1
102
RTVSPropertyOp17
 70
     1
102
RTVSPropertyOp18
 70
     1
102
RTVSPropertyOp19
 70
     1
102
RTVSPropertyOp20
 70
     1
102
RTVSPropertyOp21
 70
     1
102
RTVSPropertyOp22
 70
     1
102
RTVSPropertyOp23
 70
     1
102
RTVSPropertyOp24
 70
     1
102
RTVSPropertyOp25
 70
     1
102
RTVSPropertyOp26
 70
     1
102
RTVSPropertyOp27
 70
     1
102
RTVSPropertyOp28
 70
     1
102
RTVSPropertyOp29
 70
     1
102
RTVSPropertyOp30
 70
     1
102
RTVSPropertyOp31
 70
     1
102
RTVSPropertyOp32
 70
     1
  0
XRECORD
  5
66
102
{ACAD_REACTORS
330
65
102
}
330
65
100
AcDbXrecord
280
     1
102
RTVSPropertyOp0
 70
     1
102
RTVSPropertyOp1
 70
     1
102
RTVSPropertyOp2
 70
     1
102
RTVSPropertyOp3
 70
     1
102
RTVSPropertyOp4
 70
     1
102
RTVSPropertyOp5
 70
     1
102
RTVSPropertyOp6
 70
     1
102
RTVSPropertyOp7
 70
     1
102
RTVSPropertyOp8
 70
     1
102
RTVSPropertyOp9
 70
     1
102
RTVSPropertyOp10
 70
     1
102
RTVSPropertyOp11
 70
     1
102
RTVSPropertyOp12
 70
     1
102
RTVSPropertyOp13
 70
     1
102
RTVSPropertyOp14
 70
     1
102
RTVSPropertyOp15
 70
     1
102
RTVSPropertyOp16
 70
     1
102
RTVSPropertyOp17
 70
     1
102
RTVSPropertyOp18
 70
     1
102
RTVSPropertyOp19
 70
     1
102
RTVSPropertyOp20
 70
     1
102
RTVSPropertyOp21
 70
     1
102
RTVSPropertyOp22
 70
     1
102
RTVSPropertyOp23
 70
     1
102
RTVSPropertyOp24
 70
     1
102
RTVSPropertyOp25
 70
     1
102
RTVSPropertyOp26
 70
     1
102
RTVSPropertyOp27
 70
     1
102
RTVSPropertyOp28
 70
     1
102
RTVSPropertyOp29
 70
     1
102
RTVSPropertyOp30
 70
     1
102
RTVSPropertyOp31
 70
     1
102
RTVSPropertyOp32
 70
     1
  0
XRECORD
  5
68
102
{ACAD_REACTORS
330
67
102
}
330
67
100
AcDbXrecord
280
     1
102
RTVSPropertyOp0
 70
     1
102
RTVSPropertyOp1
 70
     1
102
RTVSPropertyOp2
 70
     1
102
RTVSPropertyOp3
 70
     1
102
RTVSPropertyOp4
 70
     1
102
RTVSPropertyOp5
 70
     1
102
RTVSPropertyOp6
 70
     1
102
RTVSPropertyOp7
 70
     1
102
RTVSPropertyOp8
 70
     1
102
RTVSPropertyOp9
 70
     1
102
RTVSPropertyOp10
 70
     1
102
RTVSPropertyOp11
 70
     1
102
RTVSPropertyOp12
 70
     1
102
RTVSPropertyOp13
 70
     1
102
RTVSPropertyOp14
 70
     1
102
RTVSPropertyOp15
 70
     1
102
RTVSPropertyOp16
 70
     1
102
RTVSPropertyOp17
 70
     1
102
RTVSPropertyOp18
 70
     1
102
RTVSPropertyOp19
 70
     1
102
RTVSPropertyOp20
 70
     1
102
RTVSPropertyOp21
 70
     1
102
RTVSPropertyOp22
 70
     1
102
RTVSPropertyOp23
 70
     1
102
RTVSPropertyOp24
 70
     1
102
RTVSPropertyOp25
 70
     1
102
RTVSPropertyOp26
 70
     1
102
RTVSPropertyOp27
 70
     1
102
RTVSPropertyOp28
 70
     1
102
RTVSPropertyOp29
 70
     1
102
RTVSPropertyOp30
 70
     1
102
RTVSPropertyOp31
 70
     1
102
RTVSPropertyOp32
 70
     1
  0
XRECORD
  5
6A
102
{ACAD_REACTORS
330
69
102
}
330
69
100
AcDbXrecord
280
     1
102
RTVSPropertyOp0
 70
     1
102
RTVSPropertyOp1
 70
     1
102
RTVSPropertyOp2
 70
     1
102
RTVSPropertyOp3
 70
     1
102
RTVSPropertyOp4
 70
     1
102
RTVSPropertyOp5
 70
     1
102
RTVSPropertyOp6
 70
     1
102
RTVSPropertyOp7
 70
     1
102
RTVSPropertyOp8
 70
     1
102
RTVSPropertyOp9
 70
     1
102
RTVSPropertyOp10
 70
     1
102
RTVSPropertyOp11
 70
     1
102
RTVSPropertyOp12
 70
     1
102
RTVSPropertyOp13
 70
     1
102
RTVSPropertyOp14
 70
     1
102
RTVSPropertyOp15
 70
     1
102
RTVSPropertyOp16
 70
     1
102
RTVSPropertyOp17
 70
     1
102
RTVSPropertyOp18
 70
     1
102
RTVSPropertyOp19
 70
     1
102
RTVSPropertyOp20
 70
     1
102
RTVSPropertyOp21
 70
     1
102
RTVSPropertyOp22
 70
     1
102
RTVSPropertyOp23
 70
     1
102
RTVSPropertyOp24
 70
     1
102
RTVSPropertyOp25
 70
     1
102
RTVSPropertyOp26
 70
     1
102
RTVSPropertyOp27
 70
     1
102
RTVSPropertyOp28
 70
     1
102
RTVSPropertyOp29
 70
     1
102
RTVSPropertyOp30
 70
     1
102
RTVSPropertyOp31
 70
     1
102
RTVSPropertyOp32
 70
     1
  0
XRECORD
  5
6C
102
{ACAD_REACTORS
330
6B
102
}
330
6B
100
AcDbXrecord
280
     1
102
RTVSPropertyOp0
 70
     1
102
RTVSPropertyOp1
 70
     1
102
RTVSPropertyOp2
 70
     1
102
RTVSPropertyOp3
 70
     1
102
RTVSPropertyOp4
 70
     1
102
RTVSPropertyOp5
 70
     1
102
RTVSPropertyOp6
 70
     1
102
RTVSPropertyOp7
 70
     1
102
RTVSPropertyOp8
 70
     1
102
RTVSPropertyOp9
 70
     1
102
RTVSPropertyOp10
 70
     1
102
RTVSPropertyOp11
 70
     1
102
RTVSPropertyOp12
 70
     1
102
RTVSPropertyOp13
 70
     1
102
RTVSPropertyOp14
 70
     1
102
RTVSPropertyOp15
 70
     1
102
RTVSPropertyOp16
 70
     1
102
RTVSPropertyOp17
 70
     1
102
RTVSPropertyOp18
 70
     1
102
RTVSPropertyOp19
 70
     1
102
RTVSPropertyOp20
 70
     1
102
RTVSPropertyOp21
 70
     1
102
RTVSPropertyOp22
 70
     1
102
RTVSPropertyOp23
 70
     1
102
RTVSPropertyOp24
 70
     1
102
RTVSPropertyOp25
 70
     1
102
RTVSPropertyOp26
 70
     1
102
RTVSPropertyOp27
 70
     1
102
RTVSPropertyOp28
 70
     1
102
RTVSPropertyOp29
 70
     1
102
RTVSPropertyOp30
 70
     1
102
RTVSPropertyOp31
 70
     1
102
RTVSPropertyOp32
 70
     1
  0
XRECORD
  5
80
102
{ACAD_REACTORS
330
7F
102
}
330
7F
100
AcDbXrecord
280
     1
102
RTVSPropertyOp0
 70
     1
102
RTVSPropertyOp1
 70
     1
102
RTVSPropertyOp2
 70
     1
102
RTVSPropertyOp3
 70
     1
102
RTVSPropertyOp4
 70
     1
102
RTVSPropertyOp5
 70
     1
102
RTVSPropertyOp6
 70
     1
102
RTVSPropertyOp7
 70
     1
102
RTVSPropertyOp8
 70
     1
102
RTVSPropertyOp9
 70
     1
102
RTVSPropertyOp10
 70
     1
102
RTVSPropertyOp11
 70
     1
102
RTVSPropertyOp12
 70
     1
102
RTVSPropertyOp13
 70
     1
102
RTVSPropertyOp14
 70
     1
102
RTVSPropertyOp15
 70
     1
102
RTVSPropertyOp16
 70
     1
102
RTVSPropertyOp17
 70
     1
102
RTVSPropertyOp18
 70
     1
102
RTVSPropertyOp19
 70
     1
102
RTVSPropertyOp20
 70
     1
102
RTVSPropertyOp21
 70
     1
102
RTVSPropertyOp22
 70
     1
102
RTVSPropertyOp23
 70
     1
102
RTVSPropertyOp24
 70
     1
102
RTVSPropertyOp25
 70
     1
102
RTVSPropertyOp26
 70
     1
102
RTVSPropertyOp27
 70
     1
102
RTVSPropertyOp28
 70
     1
102
RTVSPropertyOp29
 70
     1
102
RTVSPropertyOp30
 70
     1
102
RTVSPropertyOp31
 70
     1
102
RTVSPropertyOp32
 70
     1
  0
XRECORD
  5
76
102
{ACAD_REACTORS
330
75
102
}
330
75
100
AcDbXrecord
280
     1
102
RTVSPropertyOp0
 70
     1
102
RTVSPropertyOp1
 70
     1
102
RTVSPropertyOp2
 70
     1
102
RTVSPropertyOp3
 70
     1
102
RTVSPropertyOp4
 70
     1
102
RTVSPropertyOp5
 70
     1
102
RTVSPropertyOp6
 70
     1
102
RTVSPropertyOp7
 70
     1
102
RTVSPropertyOp8
 70
     1
102
RTVSPropertyOp9
 70
     1
102
RTVSPropertyOp10
 70
     1
102
RTVSPropertyOp11
 70
     1
102
RTVSPropertyOp12
 70
     1
102
RTVSPropertyOp13
 70
     1
102
RTVSPropertyOp14
 70
     1
102
RTVSPropertyOp15
 70
     1
102
RTVSPropertyOp16
 70
     1
102
RTVSPropertyOp17
 70
     1
102
RTVSPropertyOp18
 70
     1
102
RTVSPropertyOp19
 70
     1
102
RTVSPropertyOp20
 70
     1
102
RTVSPropertyOp21
 70
     1
102
RTVSPropertyOp22
 70
     1
102
RTVSPropertyOp23
 70
     1
102
RTVSPropertyOp24
 70
     1
102
RTVSPropertyOp25
 70
     1
102
RTVSPropertyOp26
 70
     1
102
RTVSPropertyOp27
 70
     1
102
RTVSPropertyOp28
 70
     1
102
RTVSPropertyOp29
 70
     1
102
RTVSPropertyOp30
 70
     1
102
RTVSPropertyOp31
 70
     1
102
RTVSPropertyOp32
 70
     1
  0
XRECORD
  5
7E
102
{ACAD_REACTORS
330
7D
102
}
330
7D
100
AcDbXrecord
280
     1
102
RTVSPropertyOp0
 70
     1
102
RTVSPropertyOp1
 70
     1
102
RTVSPropertyOp2
 70
     1
102
RTVSPropertyOp3
 70
     1
102
RTVSPropertyOp4
 70
     1
102
RTVSPropertyOp5
 70
     1
102
RTVSPropertyOp6
 70
     1
102
RTVSPropertyOp7
 70
     1
102
RTVSPropertyOp8
 70
     1
102
RTVSPropertyOp9
 70
     1
102
RTVSPropertyOp10
 70
     1
102
RTVSPropertyOp11
 70
     1
102
RTVSPropertyOp12
 70
     1
102
RTVSPropertyOp13
 70
     1
102
RTVSPropertyOp14
 70
     1
102
RTVSPropertyOp15
 70
     1
102
RTVSPropertyOp16
 70
     1
102
RTVSPropertyOp17
 70
     1
102
RTVSPropertyOp18
 70
     1
102
RTVSPropertyOp19
 70
     1
102
RTVSPropertyOp20
 70
     1
102
RTVSPropertyOp21
 70
     1
102
RTVSPropertyOp22
 70
     1
102
RTVSPropertyOp23
 70
     1
102
RTVSPropertyOp24
 70
     1
102
RTVSPropertyOp25
 70
     1
102
RTVSPropertyOp26
 70
     1
102
RTVSPropertyOp27
 70
     1
102
RTVSPropertyOp28
 70
     1
102
RTVSPropertyOp29
 70
     1
102
RTVSPropertyOp30
 70
     1
102
RTVSPropertyOp31
 70
     1
102
RTVSPropertyOp32
 70
     1
  0
ENDSEC
  0
EOF
