  0
SECTION
  2
HEADER
  9
$ACADVER
  1
AC1021
  9
$ACADMAINTVER
 70
    25
  9
$DWGCODEPAGE
  3
ANSI_1252
  9
$INSBASE
 10
0.0
 20
0.0
 30
0.0
  9
$EXTMIN
 10
79.8608
 20
-115.0892
 30
0.0
  9
$EXTMAX
 10
195.8009
 20
131.7202
 30
0.0
  9
$LIMMIN
 10
0.0
 20
0.0
  9
$LIMMAX
 10
12.0
 20
9.0
  9
$ORTHOMODE
 70
     0
  9
$REGENMODE
 70
     1
  9
$FILLMODE
 70
     1
  9
$QTEXTMODE
 70
     0
  9
$MIRRTEXT
 70
     1
  9
$LTSCALE
 40
1.0
  9
$ATTMODE
 70
     1
  9
$TEXTSIZE
 40
0.2
  9
$TRACEWID
 40
0.05
  9
$TEXTSTYLE
  7
Standard
  9
$CLAYER
  8
0
  9
$CELTYPE
  6
ByLayer
  9
$CECOLOR
 62
   256
  9
$CELTSCALE
 40
1.0
  9
$DISPSILH
 70
     0
  9
$DIMSCALE
 40
1.0
  9
$DIMASZ
 40
0.18
  9
$DIMEXO
 40
0.0625
  9
$DIMDLI
 40
0.38
  9
$DIMRND
 40
0.0
  9
$DIMDLE
 40
0.0
  9
$DIMEXE
 40
0.18
  9
$DIMTP
 40
0.0
  9
$DIMTM
 40
0.0
  9
$DIMTXT
 40
0.18
  9
$DIMCEN
 40
0.09
  9
$DIMTSZ
 40
0.0
  9
$DIMTOL
 70
     0
  9
$DIMLIM
 70
     0
  9
$DIMTIH
 70
     1
  9
$DIMTOH
 70
     1
  9
$DIMSE1
 70
     0
  9
$DIMSE2
 70
     0
  9
$DIMTAD
 70
     0
  9
$DIMZIN
 70
     0
  9
$DIMBLK
  1

  9
$DIMASO
 70
     1
  9
$DIMSHO
 70
     1
  9
$DIMPOST
  1

  9
$DIMAPOST
  1

  9
$DIMALT
 70
     0
  9
$DIMALTD
 70
     2
  9
$DIMALTF
 40
25.4
  9
$DIMLFAC
 40
1.0
  9
$DIMTOFL
 70
     0
  9
$DIMTVP
 40
0.0
  9
$DIMTIX
 70
     0
  9
$DIMSOXD
 70
     0
  9
$DIMSAH
 70
     0
  9
$DIMBLK1
  1

  9
$DIMBLK2
  1

  9
$DIMSTYLE
  2
Standard
  9
$DIMCLRD
 70
     0
  9
$DIMCLRE
 70
     0
  9
$DIMCLRT
 70
     0
  9
$DIMTFAC
 40
1.0
  9
$DIMGAP
 40
0.09
  9
$DIMJUST
 70
     0
  9
$DIMSD1
 70
     0
  9
$DIMSD2
 70
     0
  9
$DIMTOLJ
 70
     1
  9
$DIMTZIN
 70
     0
  9
$DIMALTZ
 70
     0
  9
$DIMALTTZ
 70
     0
  9
$DIMUPT
 70
     0
  9
$DIMDEC
 70
     4
  9
$DIMTDEC
 70
     4
  9
$DIMALTU
 70
     2
  9
$DIMALTTD
 70
     2
  9
$DIMTXSTY
  7
Standard
  9
$DIMAUNIT
 70
     0
  9
$DIMADEC
 70
     0
  9
$DIMALTRND
 40
0.0
  9
$DIMAZIN
 70
     0
  9
$DIMDSEP
 70
    46
  9
$DIMATFIT
 70
     3
  9
$DIMFRAC
 70
     0
  9
$DIMLDRBLK
  1

  9
$DIMLUNIT
 70
     2
  9
$DIMLWD
 70
    -2
  9
$DIMLWE
 70
    -2
  9
$DIMTMOVE
 70
     0
  9
$DIMFXL
 40
1.0
  9
$DIMFXLON
 70
     0
  9
$DIMJOGANG
 40
0.7853981633974483
  9
$DIMTFILL
 70
     0
  9
$DIMTFILLCLR
 70
     0
  9
$DIMARCSYM
 70
     0
  9
$DIMLTYPE
  6

  9
$DIMLTEX1
  6

  9
$DIMLTEX2
  6

  9
$LUNITS
 70
     2
  9
$LUPREC
 70
     4
  9
$SKETCHINC
 40
0.1
  9
$FILLETRAD
 40
0.5
  9
$AUNITS
 70
     0
  9
$AUPREC
 70
     0
  9
$MENU
  1
.
  9
$ELEVATION
 40
0.0
  9
$PELEVATION
 40
0.0
  9
$THICKNESS
 40
0.0
  9
$LIMCHECK
 70
     0
  9
$CHAMFERA
 40
0.5
  9
$CHAMFERB
 40
0.5
  9
$CHAMFERC
 40
1.0
  9
$CHAMFERD
 40
0.0
  9
$SKPOLY
 70
     0
  9
$TDCREATE
 40
2458493.614120394
  9
$TDUCREATE
 40
2458493.614120394
  9
$TDUPDATE
 40
2458493.614120787
  9
$TDUUPDATE
 40
2458493.614120787
  9
$TDINDWG
 40
0.0000000116
  9
$TDUSRTIMER
 40
0.0000000116
  9
$USRTIMER
 70
     1
  9
$ANGBASE
 50
0.0
  9
$ANGDIR
 70
     0
  9
$PDMODE
 70
     0
  9
$PDSIZE
 40
0.0
  9
$PLINEWID
 40
0.0
  9
$SPLFRAME
 70
     0
  9
$SPLINETYPE
 70
     6
  9
$SPLINESEGS
 70
     8
  9
$HANDSEED
  5
A5
  9
$SURFTAB1
 70
     6
  9
$SURFTAB2
 70
     6
  9
$SURFTYPE
 70
     6
  9
$SURFU
 70
     6
  9
$SURFV
 70
     6
  9
$UCSBASE
  2

  9
$UCSNAME
  2

  9
$UCSORG
 10
0.0
 20
0.0
 30
0.0
  9
$UCSXDIR
 10
1.0
 20
0.0
 30
0.0
  9
$UCSYDIR
 10
0.0
 20
1.0
 30
0.0
  9
$UCSORTHOREF
  2

  9
$UCSORTHOVIEW
 70
     0
  9
$UCSORGTOP
 10
0.0
 20
0.0
 30
0.0
  9
$UCSORGBOTTOM
 10
0.0
 20
0.0
 30
0.0
  9
$UCSORGLEFT
 10
0.0
 20
0.0
 30
0.0
  9
$UCSORGRIGHT
 10
0.0
 20
0.0
 30
0.0
  9
$UCSORGFRONT
 10
0.0
 20
0.0
 30
0.0
  9
$UCSORGBACK
 10
0.0
 20
0.0
 30
0.0
  9
$PUCSBASE
  2

  9
$PUCSNAME
  2

  9
$PUCSORG
 10
0.0
 20
0.0
 30
0.0
  9
$PUCSXDIR
 10
1.0
 20
0.0
 30
0.0
  9
$PUCSYDIR
 10
0.0
 20
1.0
 30
0.0
  9
$PUCSORTHOREF
  2

  9
$PUCSORTHOVIEW
 70
     0
  9
$PUCSORGTOP
 10
0.0
 20
0.0
 30
0.0
  9
$PUCSORGBOTTOM
 10
0.0
 20
0.0
 30
0.0
  9
$PUCSORGLEFT
 10
0.0
 20
0.0
 30
0.0
  9
$PUCSORGRIGHT
 10
0.0
 20
0.0
 30
0.0
  9
$PUCSORGFRONT
 10
0.0
 20
0.0
 30
0.0
  9
$PUCSORGBACK
 10
0.0
 20
0.0
 30
0.0
  9
$USERI1
 70
     0
  9
$USERI2
 70
     0
  9
$USERI3
 70
     0
  9
$USERI4
 70
     0
  9
$USERI5
 70
     0
  9
$USERR1
 40
0.0
  9
$USERR2
 40
0.0
  9
$USERR3
 40
0.0
  9
$USERR4
 40
0.0
  9
$USERR5
 40
0.0
  9
$WORLDVIEW
 70
     1
  9
$SHADEDGE
 70
     3
  9
$SHADEDIF
 70
    70
  9
$TILEMODE
 70
     1
  9
$MAXACTVP
 70
    64
  9
$PINSBASE
 10
0.0
 20
0.0
 30
0.0
  9
$PLIMCHECK
 70
     0
  9
$PEXTMIN
 10
1.000000000000000E+20
 20
1.000000000000000E+20
 30
1.000000000000000E+20
  9
$PEXTMAX
 10
-1.000000000000000E+20
 20
-1.000000000000000E+20
 30
-1.000000000000000E+20
  9
$PLIMMIN
 10
0.0
 20
0.0
  9
$PLIMMAX
 10
12.0
 20
9.0
  9
$UNITMODE
 70
     0
  9
$VISRETAIN
 70
     1
  9
$PLINEGEN
 70
     0
  9
$PSLTSCALE
 70
     1
  9
$TREEDEPTH
 70
  3020
  9
$CMLSTYLE
  2
Standard
  9
$CMLJUST
 70
     0
  9
$CMLSCALE
 40
1.0
  9
$PROXYGRAPHICS
 70
     1
  9
$MEASUREMENT
 70
     0
  9
$CELWEIGHT
370
    -1
  9
$ENDCAPS
280
     0
  9
$JOINSTYLE
280
     0
  9
$LWDISPLAY
290
     0
  9
$INSUNITS
 70
     4
  9
$HYPERLINKBASE
  1

  9
$STYLESHEET
  1

  9
$XEDIT
290
     1
  9
$CEPSNTYPE
380
     0
  9
$PSTYLEMODE
290
     1
  9
$FINGERPRINTGUID
  2
{7DF30EA6-E96B-4814-92EC-EF266E53D38A}
  9
$VERSIONGUID
  2
{FAEB1C32-E019-11D5-929B-00C0DF256EC4}
  9
$EXTNAMES
290
     1
  9
$PSVPSCALE
 40
0.0
  9
$OLESTARTUP
290
     0
  9
$SORTENTS
280
   127
  9
$INDEXCTL
280
     0
  9
$HIDETEXT
280
     1
  9
$XCLIPFRAME
290
     0
  9
$HALOGAP
280
     0
  9
$OBSCOLOR
 70
   257
  9
$OBSLTYPE
280
     0
  9
$INTERSECTIONDISPLAY
280
     0
  9
$INTERSECTIONCOLOR
 70
   257
  9
$DIMASSOC
280
     2
  9
$PROJECTNAME
  1

  9
$CAMERADISPLAY
290
     0
  9
$LENSLENGTH
 40
50.0
  9
$CAMERAHEIGHT
 40
0.0
  9
$STEPSPERSEC
 40
2.0
  9
$STEPSIZE
 40
6.0
  9
$3DDWFPREC
 40
2.0
  9
$PSOLWIDTH
 40
0.25
  9
$PSOLHEIGHT
 40
4.0
  9
$LOFTANG1
 40
1.570796326794897
  9
$LOFTANG2
 40
1.570796326794897
  9
$LOFTMAG1
 40
0.0
  9
$LOFTMAG2
 40
0.0
  9
$LOFTPARAM
 70
     7
  9
$LOFTNORMALS
280
     1
  9
$LATITUDE
 40
37.795
  9
$LONGITUDE
 40
-122.394
  9
$NORTHDIRECTION
 40
0.0
  9
$TIMEZONE
 70
 -8000
  9
$LIGHTGLYPHDISPLAY
280
     1
  9
$TILEMODELIGHTSYNCH
280
     1
  9
$SOLIDHIST
280
     1
  9
$SHOWHIST
280
     1
  9
$DWFFRAME
280
     2
  9
$DGNFRAME
280
     2
  9
$REALWORLDSCALE
290
     1
  9
$INTERFERECOLOR
 62
   256
  9
$CSHADOW
280
     0
  9
$SHADOWPLANELOCATION
 40
0.0
  0
ENDSEC
  0
SECTION
  2
CLASSES
  0
CLASS
  1
ACDBDICTIONARYWDFLT
  2
AcDbDictionaryWithDefault
  3
ObjectDBX Classes
 90
        0
 91
        4
280
     0
281
     0
  0
CLASS
  1
VISUALSTYLE
  2
AcDbVisualStyle
  3
ObjectDBX Classes
 90
     4095
 91
        4
280
     0
281
     0
  0
CLASS
  1
MATERIAL
  2
AcDbMaterial
  3
ObjectDBX Classes
 90
     1153
 91
        4
280
     0
281
     0
  0
ENDSEC
  0
SECTION
  2
TABLES
  0
TABLE
  2
VPORT
  5
8
330
0
100
AcDbSymbolTable
 70
     1
  0
VPORT
  5
29
330
8
100
AcDbSymbolTableRecord
100
AcDbViewportTableRecord
  2
*Active
 70
     0
 10
0.0
 20
0.0
 11
1.0
 21
1.0
 12
10.42990654205607
 22
4.5
 13
0.0
 23
0.0
 14
0.5
 24
0.5
 15
0.5
 25
0.5
 16
0.0
 26
0.0
 36
1.0
 17
0.0
 27
0.0
 37
0.0
 40
9.0
 41
1.972972972850329
 42
50.0
 43
0.0
 44
0.0
 50
0.0
 51
0.0
 71
     0
 72
   100
 73
     1
 74
     3
 75
     0
 76
     0
 77
     0
 78
     0
281
     0
 65
     1
110
0.0
120
0.0
130
0.0
111
1.0
121
0.0
131
0.0
112
0.0
122
1.0
132
0.0
 79
     0
146
0.0
 60
     3
 61
     5
292
     1
282
     1
141
0.0
142
0.0
 63
   250
  0
ENDTAB
  0
TABLE
  2
LTYPE
  5
5
330
0
100
AcDbSymbolTable
 70
     1
  0
LTYPE
  5
14
330
5
100
AcDbSymbolTableRecord
100
AcDbLinetypeTableRecord
  2
ByBlock
 70
     0
  3

 72
    65
 73
     0
 40
0.0
  0
LTYPE
  5
15
330
5
100
AcDbSymbolTableRecord
100
AcDbLinetypeTableRecord
  2
ByLayer
 70
     0
  3

 72
    65
 73
     0
 40
0.0
  0
LTYPE
  5
16
330
5
100
AcDbSymbolTableRecord
100
AcDbLinetypeTableRecord
  2
Continuous
 70
     0
  3
Solid line
 72
    65
 73
     0
 40
0.0
  0
ENDTAB
  0
TABLE
  2
LAYER
  5
2
330
0
100
AcDbSymbolTable
 70
     3
  0
LAYER
  5
10
330
2
100
AcDbSymbolTableRecord
100
AcDbLayerTableRecord
  2
0
 70
     0
 62
     7
  6
Continuous
370
    -3
390
F
347
3E
  0
LAYER
  5
40
330
2
100
AcDbSymbolTableRecord
100
AcDbLayerTableRecord
  2
layer 1
 70
     0
 62
     7
  6
Continuous
370
    -3
390
F
347
3E
  0
LAYER
  5
82
330
2
100
AcDbSymbolTableRecord
100
AcDbLayerTableRecord
  2
Master Guides
 70
     0
 62
     7
  6
Continuous
370
    -3
390
F
347
3E
  0
ENDTAB
  0
TABLE
  2
STYLE
  5
3
330
0
100
AcDbSymbolTable
 70
     1
  0
STYLE
  5
11
330
3
100
AcDbSymbolTableRecord
100
AcDbTextStyleTableRecord
  2
Standard
 70
     0
 40
0.0
 41
1.0
 50
0.0
 71
     0
 42
0.2
  3
txt
  4

  0
ENDTAB
  0
TABLE
  2
VIEW
  5
6
330
0
100
AcDbSymbolTable
 70
     0
  0
ENDTAB
  0
TABLE
  2
UCS
  5
7
330
0
100
AcDbSymbolTable
 70
     0
  0
ENDTAB
  0
TABLE
  2
APPID
  5
9
330
0
100
AcDbSymbolTable
 70
     2
  0
APPID
  5
12
330
9
100
AcDbSymbolTableRecord
100
AcDbRegAppTableRecord
  2
ACAD
 70
     0
  0
APPID
  5
3F
330
9
100
AcDbSymbolTableRecord
100
AcDbRegAppTableRecord
  2
ODA
 70
     0
  0
ENDTAB
  0
TABLE
  2
DIMSTYLE
  5
A
330
0
100
AcDbSymbolTable
 70
     1
100
AcDbDimStyleTable
  0
DIMSTYLE
105
27
330
A
100
AcDbSymbolTableRecord
100
AcDbDimStyleTableRecord
  2
Standard
 70
     0
178
     0
340
11
  0
ENDTAB
  0
TABLE
  2
BLOCK_RECORD
  5
1
330
0
100
AcDbSymbolTable
 70
     1
  0
BLOCK_RECORD
  5
1F
330
1
100
AcDbSymbolTableRecord
100
AcDbBlockTableRecord
  2
*Model_Space
340
22
 70
     0
280
     1
281
     0
  0
BLOCK_RECORD
  5
1B
330
1
100
AcDbSymbolTableRecord
100
AcDbBlockTableRecord
  2
*Paper_Space
340
1E
 70
     0
280
     1
281
     0
  0
BLOCK_RECORD
  5
23
330
1
100
AcDbSymbolTableRecord
100
AcDbBlockTableRecord
  2
*Paper_Space0
340
26
 70
     0
280
     1
281
     0
  0
ENDTAB
  0
ENDSEC
  0
SECTION
  2
BLOCKS
  0
BLOCK
  5
20
330
1F
100
AcDbEntity
  8
0
100
AcDbBlockBegin
  2
*Model_Space
 70
     0
 10
0.0
 20
0.0
 30
0.0
  3
*Model_Space
  1

  0
ENDBLK
  5
21
330
1F
100
AcDbEntity
  8
0
100
AcDbBlockEnd
  0
BLOCK
  5
1C
330
1B
100
AcDbEntity
 67
     1
  8
0
100
AcDbBlockBegin
  2
*Paper_Space
 70
     0
 10
0.0
 20
0.0
 30
0.0
  3
*Paper_Space
  1

  0
ENDBLK
  5
1D
330
1B
100
AcDbEntity
 67
     1
  8
0
100
AcDbBlockEnd
  0
BLOCK
  5
24
330
23
100
AcDbEntity
  8
0
100
AcDbBlockBegin
  2
*Paper_Space0
 70
     0
 10
0.0
 20
0.0
 30
0.0
  3
*Paper_Space0
  1

  0
ENDBLK
  5
25
330
23
100
AcDbEntity
  8
0
100
AcDbBlockEnd
  0
ENDSEC
  0
SECTION
  2
ENTITIES
  0
LWPOLYLINE
  5
41
330
1F
100
AcDbEntity
  8
layer 1
 62
   250
100
AcDbPolyline
 90
        5
 70
     1
 43
0.0
 10
79.8608
 20
-115.0892
 10
195.8008
 20
-115.0892
 10
195.8008
 20
131.7202
 10
79.8608
 20
131.7202
 10
79.8608
 20
-115.0892
  0
SPLINE
  5
42
330
1F
100
AcDbEntity
  8
layer 1
 62
     7
100
AcDbSpline
210
0.0
220
0.0
230
1.0
 70
    11
 71
     3
 72
    28
 73
    24
 74
     0
 42
0.0000000001
 43
0.0000000001
 12
1.0
 22
0.0
 32
0.0
 13
1.0
 23
0.0
 33
0.0
 40
0.0
 40
0.0
 40
0.0
 40
0.0
 40
0.1428571428571428
 40
0.1428571428571428
 40
0.1428571428571428
 40
0.1428571428571428
 40
0.2857142857142857
 40
0.2857142857142857
 40
0.2857142857142857
 40
0.2857142857142857
 40
0.4285714285714285
 40
0.4285714285714285
 40
0.4285714285714285
 40
0.4285714285714285
 40
0.5714285714285714
 40
0.5714285714285714
 40
0.5714285714285714
 40
0.5714285714285714
 40
0.7142857142857143
 40
0.7142857142857143
 40
0.7142857142857143
 40
0.7142857142857143
 40
1.0
 40
1.0
 40
1.0
 40
1.0
 10
87.701
 20
-27.1648
 30
0.0
 10
88.3798
 20
-24.647
 30
0.0
 10
89.4875
 20
-21.6744
 30
0.0
 10
90.0573
 20
-19.1765
 30
0.0
 10
90.0573
 20
-19.1765
 30
0.0
 10
90.5599
 20
-16.9737
 30
0.0
 10
90.5713
 20
-15.1402
 30
0.0
 10
90.536
 20
-14.3133
 30
0.0
 10
90.536
 20
-14.3133
 30
0.0
 10
90.3906
 20
-10.9087
 30
0.0
 10
88.1589
 20
-8.7939
 30
0.0
 10
85.893
 20
-8.7801
 30
0.0
 10
85.893
 20
-8.7801
 30
0.0
 10
85.893
 20
-8.7801
 30
0.0
 10
85.893
 20
-33.8702
 30
0.0
 10
85.893
 20
-33.8702
 30
0.0
 10
85.893
 20
-33.8702
 30
0.0
 10
85.893
 20
-33.8702
 30
0.0
 10
87.022
 20
-29.6827
 30
0.0
 10
87.701
 20
-27.1649
 30
0.0
 10
87.701
 20
-27.1649
 30
0.0
 10
87.701
 20
-27.1649
 30
0.0
 10
87.701
 20
-27.1648
 30
0.0
 10
87.701
 20
-27.1648
 30
0.0
  0
SPLINE
  5
43
330
1F
100
AcDbEntity
  8
layer 1
 62
     7
100
AcDbSpline
210
0.0
220
0.0
230
1.0
 70
    11
 71
     3
 72
    40
 73
    36
 74
     0
 42
0.0000000001
 43
0.0000000001
 12
1.0
 22
0.0
 32
0.0
 13
1.0
 23
0.0
 33
0.0
 40
0.0
 40
0.0
 40
0.0
 40
0.0
 40
0.1
 40
0.1
 40
0.1
 40
0.1
 40
0.2
 40
0.2
 40
0.2
 40
0.2
 40
0.3
 40
0.3
 40
0.3
 40
0.3
 40
0.4
 40
0.4
 40
0.4
 40
0.4
 40
0.5
 40
0.5
 40
0.5
 40
0.5
 40
0.6
 40
0.6
 40
0.6
 40
0.6
 40
0.7
 40
0.7
 40
0.7
 40
0.7
 40
0.8
 40
0.8
 40
0.8
 40
0.8
 40
1.0
 40
1.0
 40
1.0
 40
1.0
 10
95.3791
 20
-33.4549
 30
0.0
 10
97.899
 20
-32.7839
 30
0.0
 10
101.0272
 20
-32.2569
 30
0.0
 10
103.4753
 20
-31.5015
 30
0.0
 10
103.4753
 20
-31.5015
 30
0.0
 10
105.6343
 20
-30.8353
 30
0.0
 10
107.2279
 20
-29.9283
 30
0.0
 10
107.9263
 20
-29.4844
 30
0.0
 10
107.9263
 20
-29.4844
 30
0.0
 10
110.8021
 20
-27.6563
 30
0.0
 10
111.5178
 20
-24.6661
 30
0.0
 10
110.3968
 20
-22.6969
 30
0.0
 10
110.3968
 20
-22.6969
 30
0.0
 10
109.0297
 20
-20.1761
 30
0.0
 10
105.4267
 20
-20.0447
 30
0.0
 10
103.3868
 20
-21.2985
 30
0.0
 10
103.3868
 20
-21.2985
 30
0.0
 10
102.2959
 20
-21.9507
 30
0.0
 10
100.7588
 20
-22.8976
 30
0.0
 10
99.3659
 20
-24.1824
 30
0.0
 10
99.3659
 20
-24.1824
 30
0.0
 10
97.3782
 20
-26.0158
 30
0.0
 10
95.4469
 20
-28.399
 30
0.0
 10
93.5011
 20
-30.4149
 30
0.0
 10
93.5011
 20
-30.4149
 30
0.0
 10
91.8979
 20
-32.0719
 30
0.0
 10
90.3515
 20
-33.5779
 30
0.0
 10
88.6682
 20
-35.2419
 30
0.0
 10
88.6682
 20
-35.2419
 30
0.0
 10
88.6682
 20
-35.2419
 30
0.0
 10
92.8592
 20
-34.126
 30
0.0
 10
95.3791
 20
-33.4549
 30
0.0
 10
95.3791
 20
-33.4549
 30
0.0
 10
95.3791
 20
-33.4549
 30
0.0
 10
95.3791
 20
-33.4549
 30
0.0
 10
95.3791
 20
-33.4549
 30
0.0
  0
SPLINE
  5
44
330
1F
100
AcDbEntity
  8
layer 1
 62
     7
100
AcDbSpline
210
0.0
220
0.0
230
1.0
 70
    11
 71
     3
 72
    40
 73
    36
 74
     0
 42
0.0000000001
 43
0.0000000001
 12
1.0
 22
0.0
 32
0.0
 13
1.0
 23
0.0
 33
0.0
 40
0.0
 40
0.0
 40
0.0
 40
0.0
 40
0.1
 40
0.1
 40
0.1
 40
0.1
 40
0.2
 40
0.2
 40
0.2
 40
0.2
 40
0.3
 40
0.3
 40
0.3
 40
0.3
 40
0.4
 40
0.4
 40
0.4
 40
0.4
 40
0.5
 40
0.5
 40
0.5
 40
0.5
 40
0.6
 40
0.6
 40
0.6
 40
0.6
 40
0.7
 40
0.7
 40
0.7
 40
0.7
 40
0.8
 40
0.8
 40
0.8
 40
0.8
 40
1.0
 40
1.0
 40
1.0
 40
1.0
 10
93.4985
 20
-43.1281
 30
0.0
 10
95.3396
 20
-44.9749
 30
0.0
 10
97.3601
 20
-47.4204
 30
0.0
 10
99.2384
 20
-49.163
 30
0.0
 10
99.2384
 20
-49.163
 30
0.0
 10
100.8948
 20
-50.6996
 30
0.0
 10
102.477
 20
-51.6262
 30
0.0
 10
103.2108
 20
-52.0091
 30
0.0
 10
103.2108
 20
-52.0091
 30
0.0
 10
106.232
 20
-53.5855
 30
0.0
 10
109.1792
 20
-52.7102
 30
0.0
 10
110.3242
 20
-50.7548
 30
0.0
 10
110.3242
 20
-50.7548
 30
0.0
 10
111.8237
 20
-48.3105
 30
0.0
 10
110.136
 20
-45.1244
 30
0.0
 10
108.0302
 20
-43.9847
 30
0.0
 10
108.0302
 20
-43.9847
 30
0.0
 10
106.9199
 20
-43.3661
 30
0.0
 10
105.3313
 20
-42.5084
 30
0.0
 10
103.5223
 20
-41.9445
 30
0.0
 10
103.5223
 20
-41.9445
 30
0.0
 10
100.9406
 20
-41.1398
 30
0.0
 10
97.9111
 20
-40.6588
 30
0.0
 10
95.1923
 20
-39.9817
 30
0.0
 10
95.1923
 20
-39.9817
 30
0.0
 10
92.9558
 20
-39.4218
 30
0.0
 10
90.8783
 20
-38.8356
 30
0.0
 10
88.5956
 20
-38.2098
 30
0.0
 10
88.5956
 20
-38.2098
 30
0.0
 10
88.5956
 20
-38.2098
 30
0.0
 10
91.6575
 20
-41.2814
 30
0.0
 10
93.4986
 20
-43.1282
 30
0.0
 10
93.4986
 20
-43.1282
 30
0.0
 10
93.4986
 20
-43.1282
 30
0.0
 10
93.4985
 20
-43.1281
 30
0.0
 10
93.4985
 20
-43.1281
 30
0.0
  0
SPLINE
  5
45
330
1F
100
AcDbEntity
  8
layer 1
 62
     7
100
AcDbSpline
210
0.0
220
0.0
230
1.0
 70
    11
 71
     3
 72
    28
 73
    24
 74
     0
 42
0.0000000001
 43
0.0000000001
 12
1.0
 22
0.0
 32
0.0
 13
1.0
 23
0.0
 33
0.0
 40
0.0
 40
0.0
 40
0.0
 40
0.0
 40
0.1428571428571428
 40
0.1428571428571428
 40
0.1428571428571428
 40
0.1428571428571428
 40
0.2857142857142857
 40
0.2857142857142857
 40
0.2857142857142857
 40
0.2857142857142857
 40
0.4285714285714285
 40
0.4285714285714285
 40
0.4285714285714285
 40
0.4285714285714285
 40
0.5714285714285714
 40
0.5714285714285714
 40
0.5714285714285714
 40
0.5714285714285714
 40
0.7142857142857143
 40
0.7142857142857143
 40
0.7142857142857143
 40
0.7142857142857143
 40
1.0
 40
1.0
 40
1.0
 40
1.0
 10
87.701
 20
-46.4182
 30
0.0
 10
88.3798
 20
-48.9361
 30
0.0
 10
89.4875
 20
-51.9087
 30
0.0
 10
90.0573
 20
-54.4065
 30
0.0
 10
90.0573
 20
-54.4065
 30
0.0
 10
90.5599
 20
-56.6093
 30
0.0
 10
90.5713
 20
-58.4428
 30
0.0
 10
90.536
 20
-59.2697
 30
0.0
 10
90.536
 20
-59.2697
 30
0.0
 10
90.3906
 20
-62.6743
 30
0.0
 10
88.1589
 20
-64.7891
 30
0.0
 10
85.893
 20
-64.8029
 30
0.0
 10
85.893
 20
-64.8029
 30
0.0
 10
85.893
 20
-64.8029
 30
0.0
 10
85.893
 20
-39.7128
 30
0.0
 10
85.893
 20
-39.7128
 30
0.0
 10
85.893
 20
-39.7128
 30
0.0
 10
85.893
 20
-39.7128
 30
0.0
 10
87.022
 20
-43.9003
 30
0.0
 10
87.701
 20
-46.4182
 30
0.0
 10
87.701
 20
-46.4182
 30
0.0
 10
87.701
 20
-46.4182
 30
0.0
 10
87.701
 20
-46.4182
 30
0.0
 10
87.701
 20
-46.4182
 30
0.0
  0
SPLINE
  5
46
330
1F
100
AcDbEntity
  8
layer 1
 62
     7
100
AcDbSpline
210
0.0
220
0.0
230
1.0
 70
    11
 71
     3
 72
    40
 73
    36
 74
     0
 42
0.0000000001
 43
0.0000000001
 12
1.0
 22
0.0
 32
0.0
 13
1.0
 23
0.0
 33
0.0
 40
0.0
 40
0.0
 40
0.0
 40
0.0
 40
0.1
 40
0.1
 40
0.1
 40
0.1
 40
0.2
 40
0.2
 40
0.2
 40
0.2
 40
0.3
 40
0.3
 40
0.3
 40
0.3
 40
0.4
 40
0.4
 40
0.4
 40
0.4
 40
0.5
 40
0.5
 40
0.5
 40
0.5
 40
0.6
 40
0.6
 40
0.6
 40
0.6
 40
0.7
 40
0.7
 40
0.7
 40
0.7
 40
0.8
 40
0.8
 40
0.8
 40
0.8
 40
1.0
 40
1.0
 40
1.0
 40
1.0
 10
109.9209
 20
17.7312
 30
0.0
 10
109.2421
 20
20.249
 30
0.0
 10
108.1344
 20
23.2216
 30
0.0
 10
107.5646
 20
25.7195
 30
0.0
 10
107.5646
 20
25.7195
 30
0.0
 10
107.062
 20
27.9223
 30
0.0
 10
107.0506
 20
29.7558
 30
0.0
 10
107.0859
 20
30.5827
 30
0.0
 10
107.0859
 20
30.5827
 30
0.0
 10
107.2313
 20
33.9873
 30
0.0
 10
109.463
 20
36.1021
 30
0.0
 10
111.7289
 20
36.1159
 30
0.0
 10
111.7289
 20
36.1159
 30
0.0
 10
114.5955
 20
36.1923
 30
0.0
 10
116.5108
 20
33.1377
 30
0.0
 10
116.4449
 20
30.7441
 30
0.0
 10
116.4449
 20
30.7441
 30
0.0
 10
116.4254
 20
29.4733
 30
0.0
 10
116.374
 20
27.6687
 30
0.0
 10
115.9578
 20
25.82
 30
0.0
 10
115.9578
 20
25.82
 30
0.0
 10
115.3639
 20
23.1819
 30
0.0
 10
114.2656
 20
20.3178
 30
0.0
 10
113.4927
 20
17.6247
 30
0.0
 10
113.4927
 20
17.6247
 30
0.0
 10
112.8593
 20
15.4078
 30
0.0
 10
112.3283
 20
13.3156
 30
0.0
 10
111.7289
 20
11.0258
 30
0.0
 10
111.7289
 20
11.0258
 30
0.0
 10
111.7289
 20
11.0258
 30
0.0
 10
110.5999
 20
15.2133
 30
0.0
 10
109.9209
 20
17.7311
 30
0.0
 10
109.9209
 20
17.7311
 30
0.0
 10
109.9209
 20
17.7311
 30
0.0
 10
109.9209
 20
17.7312
 30
0.0
 10
109.9209
 20
17.7312
 30
0.0
  0
SPLINE
  5
47
330
1F
100
AcDbEntity
  8
layer 1
 62
     7
100
AcDbSpline
210
0.0
220
0.0
230
1.0
 70
    11
 71
     3
 72
    40
 73
    36
 74
     0
 42
0.0000000001
 43
0.0000000001
 12
1.0
 22
0.0
 32
0.0
 13
1.0
 23
0.0
 33
0.0
 40
0.0
 40
0.0
 40
0.0
 40
0.0
 40
0.1
 40
0.1
 40
0.1
 40
0.1
 40
0.2
 40
0.2
 40
0.2
 40
0.2
 40
0.3
 40
0.3
 40
0.3
 40
0.3
 40
0.4
 40
0.4
 40
0.4
 40
0.4
 40
0.5
 40
0.5
 40
0.5
 40
0.5
 40
0.6
 40
0.6
 40
0.6
 40
0.6
 40
0.7
 40
0.7
 40
0.7
 40
0.7
 40
0.8
 40
0.8
 40
0.8
 40
0.8
 40
1.0
 40
1.0
 40
1.0
 40
1.0
 10
102.2429
 20
11.4411
 30
0.0
 10
99.723
 20
12.1121
 30
0.0
 10
96.5948
 20
12.6392
 30
0.0
 10
94.1466
 20
13.3946
 30
0.0
 10
94.1466
 20
13.3946
 30
0.0
 10
91.9877
 20
14.0608
 30
0.0
 10
90.3941
 20
14.9677
 30
0.0
 10
89.6956
 20
15.4117
 30
0.0
 10
89.6956
 20
15.4117
 30
0.0
 10
86.8198
 20
17.2398
 30
0.0
 10
86.1042
 20
20.2299
 30
0.0
 10
87.2252
 20
22.1992
 30
0.0
 10
87.2252
 20
22.1992
 30
0.0
 10
88.5923
 20
24.72
 30
0.0
 10
92.1953
 20
24.8514
 30
0.0
 10
94.2352
 20
23.5976
 30
0.0
 10
94.2352
 20
23.5976
 30
0.0
 10
95.3261
 20
22.9454
 30
0.0
 10
96.8632
 20
21.9985
 30
0.0
 10
98.2561
 20
20.7137
 30
0.0
 10
98.2561
 20
20.7137
 30
0.0
 10
100.2438
 20
18.8803
 30
0.0
 10
102.1751
 20
16.4971
 30
0.0
 10
104.1209
 20
14.4811
 30
0.0
 10
104.1209
 20
14.4811
 30
0.0
 10
105.7241
 20
12.8242
 30
0.0
 10
107.2705
 20
11.3182
 30
0.0
 10
108.9538
 20
9.6542
 30
0.0
 10
108.9538
 20
9.6542
 30
0.0
 10
108.9538
 20
9.6542
 30
0.0
 10
104.7627
 20
10.7701
 30
0.0
 10
102.2428
 20
11.4411
 30
0.0
 10
102.2428
 20
11.4411
 30
0.0
 10
102.2428
 20
11.4411
 30
0.0
 10
102.2429
 20
11.4411
 30
0.0
 10
102.2429
 20
11.4411
 30
0.0
  0
SPLINE
  5
48
330
1F
100
AcDbEntity
  8
layer 1
 62
     7
100
AcDbSpline
210
0.0
220
0.0
230
1.0
 70
    11
 71
     3
 72
    40
 73
    36
 74
     0
 42
0.0000000001
 43
0.0000000001
 12
1.0
 22
0.0
 32
0.0
 13
1.0
 23
0.0
 33
0.0
 40
0.0
 40
0.0
 40
0.0
 40
0.0
 40
0.1
 40
0.1
 40
0.1
 40
0.1
 40
0.2
 40
0.2
 40
0.2
 40
0.2
 40
0.3
 40
0.3
 40
0.3
 40
0.3
 40
0.4
 40
0.4
 40
0.4
 40
0.4
 40
0.5
 40
0.5
 40
0.5
 40
0.5
 40
0.6
 40
0.6
 40
0.6
 40
0.6
 40
0.7
 40
0.7
 40
0.7
 40
0.7
 40
0.8
 40
0.8
 40
0.8
 40
0.8
 40
1.0
 40
1.0
 40
1.0
 40
1.0
 10
104.1235
 20
1.768
 30
0.0
 10
102.2824
 20
-0.0788
 30
0.0
 10
100.2619
 20
-2.5244
 30
0.0
 10
98.3836
 20
-4.2669
 30
0.0
 10
98.3836
 20
-4.2669
 30
0.0
 10
96.7272
 20
-5.8035
 30
0.0
 10
95.1449
 20
-6.7302
 30
0.0
 10
94.4112
 20
-7.113
 30
0.0
 10
94.4112
 20
-7.113
 30
0.0
 10
91.39
 20
-8.6895
 30
0.0
 10
88.4428
 20
-7.8142
 30
0.0
 10
87.2978
 20
-5.8588
 30
0.0
 10
87.2978
 20
-5.8588
 30
0.0
 10
85.7983
 20
-3.4144
 30
0.0
 10
87.486
 20
-0.2284
 30
0.0
 10
89.5918
 20
0.9113
 30
0.0
 10
89.5918
 20
0.9113
 30
0.0
 10
90.7021
 20
1.53
 30
0.0
 10
92.2907
 20
2.3877
 30
0.0
 10
94.0997
 20
2.9516
 30
0.0
 10
94.0997
 20
2.9516
 30
0.0
 10
96.6814
 20
3.7562
 30
0.0
 10
99.7109
 20
4.2372
 30
0.0
 10
102.4297
 20
4.9143
 30
0.0
 10
102.4297
 20
4.9143
 30
0.0
 10
104.6662
 20
5.4742
 30
0.0
 10
106.7436
 20
6.0605
 30
0.0
 10
109.0264
 20
6.6863
 30
0.0
 10
109.0264
 20
6.6863
 30
0.0
 10
109.0264
 20
6.6863
 30
0.0
 10
105.9644
 20
3.6147
 30
0.0
 10
104.1234
 20
1.7679
 30
0.0
 10
104.1234
 20
1.7679
 30
0.0
 10
104.1234
 20
1.7679
 30
0.0
 10
104.1235
 20
1.768
 30
0.0
 10
104.1235
 20
1.768
 30
0.0
  0
SPLINE
  5
49
330
1F
100
AcDbEntity
  8
layer 1
 62
     7
100
AcDbSpline
210
0.0
220
0.0
230
1.0
 70
    11
 71
     3
 72
    40
 73
    36
 74
     0
 42
0.0000000001
 43
0.0000000001
 12
1.0
 22
0.0
 32
0.0
 13
1.0
 23
0.0
 33
0.0
 40
0.0
 40
0.0
 40
0.0
 40
0.0
 40
0.1
 40
0.1
 40
0.1
 40
0.1
 40
0.2
 40
0.2
 40
0.2
 40
0.2
 40
0.3
 40
0.3
 40
0.3
 40
0.3
 40
0.4
 40
0.4
 40
0.4
 40
0.4
 40
0.5
 40
0.5
 40
0.5
 40
0.5
 40
0.6
 40
0.6
 40
0.6
 40
0.6
 40
0.7
 40
0.7
 40
0.7
 40
0.7
 40
0.8
 40
0.8
 40
0.8
 40
0.8
 40
1.0
 40
1.0
 40
1.0
 40
1.0
 10
109.9209
 20
-1.5222
 30
0.0
 10
109.2421
 20
-4.04
 30
0.0
 10
108.1344
 20
-7.0126
 30
0.0
 10
107.5646
 20
-9.5105
 30
0.0
 10
107.5646
 20
-9.5105
 30
0.0
 10
107.062
 20
-11.7132
 30
0.0
 10
107.0506
 20
-13.5468
 30
0.0
 10
107.0859
 20
-14.3737
 30
0.0
 10
107.0859
 20
-14.3737
 30
0.0
 10
107.2313
 20
-17.7782
 30
0.0
 10
109.463
 20
-19.8931
 30
0.0
 10
111.7289
 20
-19.9068
 30
0.0
 10
111.7289
 20
-19.9068
 30
0.0
 10
114.5955
 20
-19.9833
 30
0.0
 10
116.5108
 20
-16.9287
 30
0.0
 10
116.4449
 20
-14.5351
 30
0.0
 10
116.4449
 20
-14.5351
 30
0.0
 10
116.4254
 20
-13.2643
 30
0.0
 10
116.374
 20
-11.4597
 30
0.0
 10
115.9578
 20
-9.611
 30
0.0
 10
115.9578
 20
-9.611
 30
0.0
 10
115.3639
 20
-6.9729
 30
0.0
 10
114.2656
 20
-4.1088
 30
0.0
 10
113.4927
 20
-1.4157
 30
0.0
 10
113.4927
 20
-1.4157
 30
0.0
 10
112.8593
 20
0.8013
 30
0.0
 10
112.3283
 20
2.8934
 30
0.0
 10
111.7289
 20
5.1832
 30
0.0
 10
111.7289
 20
5.1832
 30
0.0
 10
111.7289
 20
5.1832
 30
0.0
 10
110.5999
 20
0.9957
 30
0.0
 10
109.9209
 20
-1.5221
 30
0.0
 10
109.9209
 20
-1.5221
 30
0.0
 10
109.9209
 20
-1.5221
 30
0.0
 10
109.9209
 20
-1.5222
 30
0.0
 10
109.9209
 20
-1.5222
 30
0.0
  0
SPLINE
  5
4A
330
1F
100
AcDbEntity
  8
layer 1
 62
     7
100
AcDbSpline
210
0.0
220
0.0
230
1.0
 70
    11
 71
     3
 72
    40
 73
    36
 74
     0
 42
0.0000000001
 43
0.0000000001
 12
1.0
 22
0.0
 32
0.0
 13
1.0
 23
0.0
 33
0.0
 40
0.0
 40
0.0
 40
0.0
 40
0.0
 40
0.1
 40
0.1
 40
0.1
 40
0.1
 40
0.2
 40
0.2
 40
0.2
 40
0.2
 40
0.3
 40
0.3
 40
0.3
 40
0.3
 40
0.4
 40
0.4
 40
0.4
 40
0.4
 40
0.5
 40
0.5
 40
0.5
 40
0.5
 40
0.6
 40
0.6
 40
0.6
 40
0.6
 40
0.7
 40
0.7
 40
0.7
 40
0.7
 40
0.8
 40
0.8
 40
0.8
 40
0.8
 40
1.0
 40
1.0
 40
1.0
 40
1.0
 10
121.1255
 20
11.3792
 30
0.0
 10
123.6454
 20
12.0502
 30
0.0
 10
126.7736
 20
12.5772
 30
0.0
 10
129.2218
 20
13.3327
 30
0.0
 10
129.2218
 20
13.3327
 30
0.0
 10
131.3807
 20
13.9988
 30
0.0
 10
132.9743
 20
14.9058
 30
0.0
 10
133.6728
 20
15.3497
 30
0.0
 10
133.6728
 20
15.3497
 30
0.0
 10
136.5486
 20
17.1779
 30
0.0
 10
137.2642
 20
20.168
 30
0.0
 10
136.1432
 20
22.1373
 30
0.0
 10
136.1432
 20
22.1373
 30
0.0
 10
134.7761
 20
24.658
 30
0.0
 10
131.1731
 20
24.7895
 30
0.0
 10
129.1332
 20
23.5356
 30
0.0
 10
129.1332
 20
23.5356
 30
0.0
 10
128.0424
 20
22.8834
 30
0.0
 10
126.5052
 20
21.9366
 30
0.0
 10
125.1123
 20
20.6518
 30
0.0
 10
125.1123
 20
20.6518
 30
0.0
 10
123.1246
 20
18.8183
 30
0.0
 10
121.1933
 20
16.4351
 30
0.0
 10
119.2476
 20
14.4192
 30
0.0
 10
119.2476
 20
14.4192
 30
0.0
 10
117.6443
 20
12.7623
 30
0.0
 10
116.0979
 20
11.2563
 30
0.0
 10
114.4146
 20
9.5922
 30
0.0
 10
114.4146
 20
9.5922
 30
0.0
 10
114.4146
 20
9.5922
 30
0.0
 10
118.6057
 20
10.7082
 30
0.0
 10
121.1256
 20
11.3792
 30
0.0
 10
121.1256
 20
11.3792
 30
0.0
 10
121.1256
 20
11.3792
 30
0.0
 10
121.1255
 20
11.3792
 30
0.0
 10
121.1255
 20
11.3792
 30
0.0
  0
SPLINE
  5
4B
330
1F
100
AcDbEntity
  8
layer 1
 62
     7
100
AcDbSpline
210
0.0
220
0.0
230
1.0
 70
    11
 71
     3
 72
    40
 73
    36
 74
     0
 42
0.0000000001
 43
0.0000000001
 12
1.0
 22
0.0
 32
0.0
 13
1.0
 23
0.0
 33
0.0
 40
0.0
 40
0.0
 40
0.0
 40
0.0
 40
0.1
 40
0.1
 40
0.1
 40
0.1
 40
0.2
 40
0.2
 40
0.2
 40
0.2
 40
0.3
 40
0.3
 40
0.3
 40
0.3
 40
0.4
 40
0.4
 40
0.4
 40
0.4
 40
0.5
 40
0.5
 40
0.5
 40
0.5
 40
0.6
 40
0.6
 40
0.6
 40
0.6
 40
0.7
 40
0.7
 40
0.7
 40
0.7
 40
0.8
 40
0.8
 40
0.8
 40
0.8
 40
1.0
 40
1.0
 40
1.0
 40
1.0
 10
119.1829
 20
1.8299
 30
0.0
 10
121.024
 20
-0.0169
 30
0.0
 10
123.0445
 20
-2.4624
 30
0.0
 10
124.9228
 20
-4.205
 30
0.0
 10
124.9228
 20
-4.205
 30
0.0
 10
126.5792
 20
-5.7416
 30
0.0
 10
128.1615
 20
-6.6682
 30
0.0
 10
128.8952
 20
-7.0511
 30
0.0
 10
128.8952
 20
-7.0511
 30
0.0
 10
131.9164
 20
-8.6275
 30
0.0
 10
134.8636
 20
-7.7522
 30
0.0
 10
136.0086
 20
-5.7968
 30
0.0
 10
136.0086
 20
-5.7968
 30
0.0
 10
137.5081
 20
-3.3525
 30
0.0
 10
135.8204
 20
-0.1664
 30
0.0
 10
133.7146
 20
0.9733
 30
0.0
 10
133.7146
 20
0.9733
 30
0.0
 10
132.6043
 20
1.5919
 30
0.0
 10
131.0157
 20
2.4496
 30
0.0
 10
129.2067
 20
3.0135
 30
0.0
 10
129.2067
 20
3.0135
 30
0.0
 10
126.625
 20
3.8182
 30
0.0
 10
123.5955
 20
4.2992
 30
0.0
 10
120.8767
 20
4.9763
 30
0.0
 10
120.8767
 20
4.9763
 30
0.0
 10
118.6402
 20
5.5362
 30
0.0
 10
116.5628
 20
6.1224
 30
0.0
 10
114.28
 20
6.7482
 30
0.0
 10
114.28
 20
6.7482
 30
0.0
 10
114.28
 20
6.7482
 30
0.0
 10
117.342
 20
3.6766
 30
0.0
 10
119.183
 20
1.8298
 30
0.0
 10
119.183
 20
1.8298
 30
0.0
 10
119.183
 20
1.8298
 30
0.0
 10
119.1829
 20
1.8299
 30
0.0
 10
119.1829
 20
1.8299
 30
0.0
  0
SPLINE
  5
4C
330
1F
100
AcDbEntity
  8
layer 1
 62
     7
100
AcDbSpline
210
0.0
220
0.0
230
1.0
 70
    11
 71
     3
 72
    40
 73
    36
 74
     0
 42
0.0000000001
 43
0.0000000001
 12
1.0
 22
0.0
 32
0.0
 13
1.0
 23
0.0
 33
0.0
 40
0.0
 40
0.0
 40
0.0
 40
0.0
 40
0.1
 40
0.1
 40
0.1
 40
0.1
 40
0.2
 40
0.2
 40
0.2
 40
0.2
 40
0.3
 40
0.3
 40
0.3
 40
0.3
 40
0.4
 40
0.4
 40
0.4
 40
0.4
 40
0.5
 40
0.5
 40
0.5
 40
0.5
 40
0.6
 40
0.6
 40
0.6
 40
0.6
 40
0.7
 40
0.7
 40
0.7
 40
0.7
 40
0.8
 40
0.8
 40
0.8
 40
0.8
 40
1.0
 40
1.0
 40
1.0
 40
1.0
 10
161.9998
 20
17.7312
 30
0.0
 10
161.321
 20
20.249
 30
0.0
 10
160.2133
 20
23.2216
 30
0.0
 10
159.6434
 20
25.7195
 30
0.0
 10
159.6434
 20
25.7195
 30
0.0
 10
159.1409
 20
27.9223
 30
0.0
 10
159.1295
 20
29.7558
 30
0.0
 10
159.1648
 20
30.5827
 30
0.0
 10
159.1648
 20
30.5827
 30
0.0
 10
159.3102
 20
33.9873
 30
0.0
 10
161.5418
 20
36.1021
 30
0.0
 10
163.8078
 20
36.1159
 30
0.0
 10
163.8078
 20
36.1159
 30
0.0
 10
166.6744
 20
36.1923
 30
0.0
 10
168.5897
 20
33.1377
 30
0.0
 10
168.5238
 20
30.7441
 30
0.0
 10
168.5238
 20
30.7441
 30
0.0
 10
168.5043
 20
29.4733
 30
0.0
 10
168.4529
 20
27.6687
 30
0.0
 10
168.0367
 20
25.82
 30
0.0
 10
168.0367
 20
25.82
 30
0.0
 10
167.4428
 20
23.1819
 30
0.0
 10
166.3445
 20
20.3178
 30
0.0
 10
165.5715
 20
17.6247
 30
0.0
 10
165.5715
 20
17.6247
 30
0.0
 10
164.9382
 20
15.4078
 30
0.0
 10
164.4072
 20
13.3156
 30
0.0
 10
163.8078
 20
11.0258
 30
0.0
 10
163.8078
 20
11.0258
 30
0.0
 10
163.8078
 20
11.0258
 30
0.0
 10
162.6787
 20
15.2133
 30
0.0
 10
161.9998
 20
17.7311
 30
0.0
 10
161.9998
 20
17.7311
 30
0.0
 10
161.9998
 20
17.7311
 30
0.0
 10
161.9998
 20
17.7312
 30
0.0
 10
161.9998
 20
17.7312
 30
0.0
  0
SPLINE
  5
4D
330
1F
100
AcDbEntity
  8
layer 1
 62
     7
100
AcDbSpline
210
0.0
220
0.0
230
1.0
 70
    11
 71
     3
 72
    40
 73
    36
 74
     0
 42
0.0000000001
 43
0.0000000001
 12
1.0
 22
0.0
 32
0.0
 13
1.0
 23
0.0
 33
0.0
 40
0.0
 40
0.0
 40
0.0
 40
0.0
 40
0.1
 40
0.1
 40
0.1
 40
0.1
 40
0.2
 40
0.2
 40
0.2
 40
0.2
 40
0.3
 40
0.3
 40
0.3
 40
0.3
 40
0.4
 40
0.4
 40
0.4
 40
0.4
 40
0.5
 40
0.5
 40
0.5
 40
0.5
 40
0.6
 40
0.6
 40
0.6
 40
0.6
 40
0.7
 40
0.7
 40
0.7
 40
0.7
 40
0.8
 40
0.8
 40
0.8
 40
0.8
 40
1.0
 40
1.0
 40
1.0
 40
1.0
 10
154.3218
 20
11.4411
 30
0.0
 10
151.8019
 20
12.1121
 30
0.0
 10
148.6737
 20
12.6392
 30
0.0
 10
146.2255
 20
13.3946
 30
0.0
 10
146.2255
 20
13.3946
 30
0.0
 10
144.0666
 20
14.0608
 30
0.0
 10
142.473
 20
14.9677
 30
0.0
 10
141.7745
 20
15.4117
 30
0.0
 10
141.7745
 20
15.4117
 30
0.0
 10
138.8987
 20
17.2398
 30
0.0
 10
138.1831
 20
20.2299
 30
0.0
 10
139.3041
 20
22.1992
 30
0.0
 10
139.3041
 20
22.1992
 30
0.0
 10
140.6712
 20
24.72
 30
0.0
 10
144.2742
 20
24.8514
 30
0.0
 10
146.3141
 20
23.5976
 30
0.0
 10
146.3141
 20
23.5976
 30
0.0
 10
147.4049
 20
22.9454
 30
0.0
 10
148.9421
 20
21.9985
 30
0.0
 10
150.335
 20
20.7137
 30
0.0
 10
150.335
 20
20.7137
 30
0.0
 10
152.3227
 20
18.8803
 30
0.0
 10
154.254
 20
16.4971
 30
0.0
 10
156.1997
 20
14.4811
 30
0.0
 10
156.1997
 20
14.4811
 30
0.0
 10
157.803
 20
12.8242
 30
0.0
 10
159.3494
 20
11.3182
 30
0.0
 10
161.0327
 20
9.6542
 30
0.0
 10
161.0327
 20
9.6542
 30
0.0
 10
161.0327
 20
9.6542
 30
0.0
 10
156.8416
 20
10.7701
 30
0.0
 10
154.3217
 20
11.4411
 30
0.0
 10
154.3217
 20
11.4411
 30
0.0
 10
154.3217
 20
11.4411
 30
0.0
 10
154.3218
 20
11.4411
 30
0.0
 10
154.3218
 20
11.4411
 30
0.0
  0
SPLINE
  5
4E
330
1F
100
AcDbEntity
  8
layer 1
 62
     7
100
AcDbSpline
210
0.0
220
0.0
230
1.0
 70
    11
 71
     3
 72
    40
 73
    36
 74
     0
 42
0.0000000001
 43
0.0000000001
 12
1.0
 22
0.0
 32
0.0
 13
1.0
 23
0.0
 33
0.0
 40
0.0
 40
0.0
 40
0.0
 40
0.0
 40
0.1
 40
0.1
 40
0.1
 40
0.1
 40
0.2
 40
0.2
 40
0.2
 40
0.2
 40
0.3
 40
0.3
 40
0.3
 40
0.3
 40
0.4
 40
0.4
 40
0.4
 40
0.4
 40
0.5
 40
0.5
 40
0.5
 40
0.5
 40
0.6
 40
0.6
 40
0.6
 40
0.6
 40
0.7
 40
0.7
 40
0.7
 40
0.7
 40
0.8
 40
0.8
 40
0.8
 40
0.8
 40
1.0
 40
1.0
 40
1.0
 40
1.0
 10
156.2023
 20
1.768
 30
0.0
 10
154.3613
 20
-0.0788
 30
0.0
 10
152.3407
 20
-2.5244
 30
0.0
 10
150.4625
 20
-4.2669
 30
0.0
 10
150.4625
 20
-4.2669
 30
0.0
 10
148.8061
 20
-5.8035
 30
0.0
 10
147.2238
 20
-6.7302
 30
0.0
 10
146.4901
 20
-7.113
 30
0.0
 10
146.4901
 20
-7.113
 30
0.0
 10
143.4689
 20
-8.6895
 30
0.0
 10
140.5216
 20
-7.8142
 30
0.0
 10
139.3767
 20
-5.8588
 30
0.0
 10
139.3767
 20
-5.8588
 30
0.0
 10
137.8772
 20
-3.4144
 30
0.0
 10
139.5649
 20
-0.2284
 30
0.0
 10
141.6707
 20
0.9113
 30
0.0
 10
141.6707
 20
0.9113
 30
0.0
 10
142.781
 20
1.53
 30
0.0
 10
144.3695
 20
2.3877
 30
0.0
 10
146.1786
 20
2.9516
 30
0.0
 10
146.1786
 20
2.9516
 30
0.0
 10
148.7603
 20
3.7562
 30
0.0
 10
151.7898
 20
4.2372
 30
0.0
 10
154.5086
 20
4.9143
 30
0.0
 10
154.5086
 20
4.9143
 30
0.0
 10
156.7451
 20
5.4742
 30
0.0
 10
158.8225
 20
6.0605
 30
0.0
 10
161.1053
 20
6.6863
 30
0.0
 10
161.1053
 20
6.6863
 30
0.0
 10
161.1053
 20
6.6863
 30
0.0
 10
158.0433
 20
3.6147
 30
0.0
 10
156.2023
 20
1.7679
 30
0.0
 10
156.2023
 20
1.7679
 30
0.0
 10
156.2023
 20
1.7679
 30
0.0
 10
156.2023
 20
1.768
 30
0.0
 10
156.2023
 20
1.768
 30
0.0
  0
SPLINE
  5
4F
330
1F
100
AcDbEntity
  8
layer 1
 62
     7
100
AcDbSpline
210
0.0
220
0.0
230
1.0
 70
    11
 71
     3
 72
    40
 73
    36
 74
     0
 42
0.0000000001
 43
0.0000000001
 12
1.0
 22
0.0
 32
0.0
 13
1.0
 23
0.0
 33
0.0
 40
0.0
 40
0.0
 40
0.0
 40
0.0
 40
0.1
 40
0.1
 40
0.1
 40
0.1
 40
0.2
 40
0.2
 40
0.2
 40
0.2
 40
0.3
 40
0.3
 40
0.3
 40
0.3
 40
0.4
 40
0.4
 40
0.4
 40
0.4
 40
0.5
 40
0.5
 40
0.5
 40
0.5
 40
0.6
 40
0.6
 40
0.6
 40
0.6
 40
0.7
 40
0.7
 40
0.7
 40
0.7
 40
0.8
 40
0.8
 40
0.8
 40
0.8
 40
1.0
 40
1.0
 40
1.0
 40
1.0
 10
161.9998
 20
-1.5222
 30
0.0
 10
161.321
 20
-4.04
 30
0.0
 10
160.2133
 20
-7.0126
 30
0.0
 10
159.6434
 20
-9.5105
 30
0.0
 10
159.6434
 20
-9.5105
 30
0.0
 10
159.1409
 20
-11.7132
 30
0.0
 10
159.1295
 20
-13.5468
 30
0.0
 10
159.1648
 20
-14.3737
 30
0.0
 10
159.1648
 20
-14.3737
 30
0.0
 10
159.3102
 20
-17.7782
 30
0.0
 10
161.5418
 20
-19.8931
 30
0.0
 10
163.8078
 20
-19.9068
 30
0.0
 10
163.8078
 20
-19.9068
 30
0.0
 10
166.6744
 20
-19.9833
 30
0.0
 10
168.5897
 20
-16.9287
 30
0.0
 10
168.5238
 20
-14.5351
 30
0.0
 10
168.5238
 20
-14.5351
 30
0.0
 10
168.5043
 20
-13.2643
 30
0.0
 10
168.4529
 20
-11.4597
 30
0.0
 10
168.0367
 20
-9.611
 30
0.0
 10
168.0367
 20
-9.611
 30
0.0
 10
167.4428
 20
-6.9729
 30
0.0
 10
166.3445
 20
-4.1088
 30
0.0
 10
165.5715
 20
-1.4157
 30
0.0
 10
165.5715
 20
-1.4157
 30
0.0
 10
164.9382
 20
0.8013
 30
0.0
 10
164.4072
 20
2.8934
 30
0.0
 10
163.8078
 20
5.1832
 30
0.0
 10
163.8078
 20
5.1832
 30
0.0
 10
163.8078
 20
5.1832
 30
0.0
 10
162.6787
 20
0.9957
 30
0.0
 10
161.9998
 20
-1.5221
 30
0.0
 10
161.9998
 20
-1.5221
 30
0.0
 10
161.9998
 20
-1.5221
 30
0.0
 10
161.9998
 20
-1.5222
 30
0.0
 10
161.9998
 20
-1.5222
 30
0.0
  0
SPLINE
  5
50
330
1F
100
AcDbEntity
  8
layer 1
 62
     7
100
AcDbSpline
210
0.0
220
0.0
230
1.0
 70
    11
 71
     3
 72
    40
 73
    36
 74
     0
 42
0.0000000001
 43
0.0000000001
 12
1.0
 22
0.0
 32
0.0
 13
1.0
 23
0.0
 33
0.0
 40
0.0
 40
0.0
 40
0.0
 40
0.0
 40
0.1
 40
0.1
 40
0.1
 40
0.1
 40
0.2
 40
0.2
 40
0.2
 40
0.2
 40
0.3
 40
0.3
 40
0.3
 40
0.3
 40
0.4
 40
0.4
 40
0.4
 40
0.4
 40
0.5
 40
0.5
 40
0.5
 40
0.5
 40
0.6
 40
0.6
 40
0.6
 40
0.6
 40
0.7
 40
0.7
 40
0.7
 40
0.7
 40
0.8
 40
0.8
 40
0.8
 40
0.8
 40
1.0
 40
1.0
 40
1.0
 40
1.0
 10
173.2044
 20
11.3792
 30
0.0
 10
175.7243
 20
12.0502
 30
0.0
 10
178.8525
 20
12.5772
 30
0.0
 10
181.3007
 20
13.3327
 30
0.0
 10
181.3007
 20
13.3327
 30
0.0
 10
183.4596
 20
13.9988
 30
0.0
 10
185.0532
 20
14.9058
 30
0.0
 10
185.7517
 20
15.3497
 30
0.0
 10
185.7517
 20
15.3497
 30
0.0
 10
188.6275
 20
17.1779
 30
0.0
 10
189.3431
 20
20.168
 30
0.0
 10
188.2221
 20
22.1373
 30
0.0
 10
188.2221
 20
22.1373
 30
0.0
 10
186.855
 20
24.658
 30
0.0
 10
183.252
 20
24.7895
 30
0.0
 10
181.2121
 20
23.5356
 30
0.0
 10
181.2121
 20
23.5356
 30
0.0
 10
180.1212
 20
22.8834
 30
0.0
 10
178.5841
 20
21.9366
 30
0.0
 10
177.1912
 20
20.6518
 30
0.0
 10
177.1912
 20
20.6518
 30
0.0
 10
175.2035
 20
18.8183
 30
0.0
 10
173.2722
 20
16.4351
 30
0.0
 10
171.3264
 20
14.4192
 30
0.0
 10
171.3264
 20
14.4192
 30
0.0
 10
169.7232
 20
12.7623
 30
0.0
 10
168.1768
 20
11.2563
 30
0.0
 10
166.4935
 20
9.5922
 30
0.0
 10
166.4935
 20
9.5922
 30
0.0
 10
166.4935
 20
9.5922
 30
0.0
 10
170.6846
 20
10.7082
 30
0.0
 10
173.2045
 20
11.3792
 30
0.0
 10
173.2045
 20
11.3792
 30
0.0
 10
173.2045
 20
11.3792
 30
0.0
 10
173.2044
 20
11.3792
 30
0.0
 10
173.2044
 20
11.3792
 30
0.0
  0
SPLINE
  5
51
330
1F
100
AcDbEntity
  8
layer 1
 62
     7
100
AcDbSpline
210
0.0
220
0.0
230
1.0
 70
    11
 71
     3
 72
    40
 73
    36
 74
     0
 42
0.0000000001
 43
0.0000000001
 12
1.0
 22
0.0
 32
0.0
 13
1.0
 23
0.0
 33
0.0
 40
0.0
 40
0.0
 40
0.0
 40
0.0
 40
0.1
 40
0.1
 40
0.1
 40
0.1
 40
0.2
 40
0.2
 40
0.2
 40
0.2
 40
0.3
 40
0.3
 40
0.3
 40
0.3
 40
0.4
 40
0.4
 40
0.4
 40
0.4
 40
0.5
 40
0.5
 40
0.5
 40
0.5
 40
0.6
 40
0.6
 40
0.6
 40
0.6
 40
0.7
 40
0.7
 40
0.7
 40
0.7
 40
0.8
 40
0.8
 40
0.8
 40
0.8
 40
1.0
 40
1.0
 40
1.0
 40
1.0
 10
171.2618
 20
1.8299
 30
0.0
 10
173.1029
 20
-0.0169
 30
0.0
 10
175.1234
 20
-2.4624
 30
0.0
 10
177.0017
 20
-4.205
 30
0.0
 10
177.0017
 20
-4.205
 30
0.0
 10
178.6581
 20
-5.7416
 30
0.0
 10
180.2403
 20
-6.6682
 30
0.0
 10
180.9741
 20
-7.0511
 30
0.0
 10
180.9741
 20
-7.0511
 30
0.0
 10
183.9952
 20
-8.6275
 30
0.0
 10
186.9425
 20
-7.7522
 30
0.0
 10
188.0875
 20
-5.7968
 30
0.0
 10
188.0875
 20
-5.7968
 30
0.0
 10
189.587
 20
-3.3525
 30
0.0
 10
187.8993
 20
-0.1664
 30
0.0
 10
185.7935
 20
0.9733
 30
0.0
 10
185.7935
 20
0.9733
 30
0.0
 10
184.6832
 20
1.5919
 30
0.0
 10
183.0946
 20
2.4496
 30
0.0
 10
181.2856
 20
3.0135
 30
0.0
 10
181.2856
 20
3.0135
 30
0.0
 10
178.7039
 20
3.8182
 30
0.0
 10
175.6744
 20
4.2992
 30
0.0
 10
172.9556
 20
4.9763
 30
0.0
 10
172.9556
 20
4.9763
 30
0.0
 10
170.7191
 20
5.5362
 30
0.0
 10
168.6416
 20
6.1224
 30
0.0
 10
166.3589
 20
6.7482
 30
0.0
 10
166.3589
 20
6.7482
 30
0.0
 10
166.3589
 20
6.7482
 30
0.0
 10
169.4208
 20
3.6766
 30
0.0
 10
171.2619
 20
1.8298
 30
0.0
 10
171.2619
 20
1.8298
 30
0.0
 10
171.2619
 20
1.8298
 30
0.0
 10
171.2618
 20
1.8299
 30
0.0
 10
171.2618
 20
1.8299
 30
0.0
  0
SPLINE
  5
52
330
1F
100
AcDbEntity
  8
layer 1
 62
     7
100
AcDbSpline
210
0.0
220
0.0
230
1.0
 70
    11
 71
     3
 72
    28
 73
    24
 74
     0
 42
0.0000000001
 43
0.0000000001
 12
1.0
 22
0.0
 32
0.0
 13
1.0
 23
0.0
 33
0.0
 40
0.0
 40
0.0
 40
0.0
 40
0.0
 40
0.1428571428571428
 40
0.1428571428571428
 40
0.1428571428571428
 40
0.1428571428571428
 40
0.2857142857142857
 40
0.2857142857142857
 40
0.2857142857142857
 40
0.2857142857142857
 40
0.4285714285714285
 40
0.4285714285714285
 40
0.4285714285714285
 40
0.4285714285714285
 40
0.5714285714285714
 40
0.5714285714285714
 40
0.5714285714285714
 40
0.5714285714285714
 40
0.7142857142857143
 40
0.7142857142857143
 40
0.7142857142857143
 40
0.7142857142857143
 40
1.0
 40
1.0
 40
1.0
 40
1.0
 10
187.9607
 20
-27.1648
 30
0.0
 10
187.2818
 20
-24.647
 30
0.0
 10
186.1742
 20
-21.6744
 30
0.0
 10
185.6043
 20
-19.1765
 30
0.0
 10
185.6043
 20
-19.1765
 30
0.0
 10
185.1017
 20
-16.9737
 30
0.0
 10
185.0903
 20
-15.1402
 30
0.0
 10
185.1257
 20
-14.3133
 30
0.0
 10
185.1257
 20
-14.3133
 30
0.0
 10
185.271
 20
-10.9087
 30
0.0
 10
187.5027
 20
-8.7939
 30
0.0
 10
189.7686
 20
-8.7801
 30
0.0
 10
189.7686
 20
-8.7801
 30
0.0
 10
189.7686
 20
-8.7801
 30
0.0
 10
189.7686
 20
-33.8702
 30
0.0
 10
189.7686
 20
-33.8702
 30
0.0
 10
189.7686
 20
-33.8702
 30
0.0
 10
189.7686
 20
-33.8702
 30
0.0
 10
188.6396
 20
-29.6827
 30
0.0
 10
187.9607
 20
-27.1649
 30
0.0
 10
187.9607
 20
-27.1649
 30
0.0
 10
187.9607
 20
-27.1649
 30
0.0
 10
187.9607
 20
-27.1648
 30
0.0
 10
187.9607
 20
-27.1648
 30
0.0
  0
SPLINE
  5
53
330
1F
100
AcDbEntity
  8
layer 1
 62
     7
100
AcDbSpline
210
0.0
220
0.0
230
1.0
 70
    11
 71
     3
 72
    40
 73
    36
 74
     0
 42
0.0000000001
 43
0.0000000001
 12
1.0
 22
0.0
 32
0.0
 13
1.0
 23
0.0
 33
0.0
 40
0.0
 40
0.0
 40
0.0
 40
0.0
 40
0.1
 40
0.1
 40
0.1
 40
0.1
 40
0.2
 40
0.2
 40
0.2
 40
0.2
 40
0.3
 40
0.3
 40
0.3
 40
0.3
 40
0.4
 40
0.4
 40
0.4
 40
0.4
 40
0.5
 40
0.5
 40
0.5
 40
0.5
 40
0.6
 40
0.6
 40
0.6
 40
0.6
 40
0.7
 40
0.7
 40
0.7
 40
0.7
 40
0.8
 40
0.8
 40
0.8
 40
0.8
 40
1.0
 40
1.0
 40
1.0
 40
1.0
 10
180.2826
 20
-33.4549
 30
0.0
 10
177.7627
 20
-32.7839
 30
0.0
 10
174.6345
 20
-32.2569
 30
0.0
 10
172.1863
 20
-31.5015
 30
0.0
 10
172.1863
 20
-31.5015
 30
0.0
 10
170.0273
 20
-30.8353
 30
0.0
 10
168.4337
 20
-29.9283
 30
0.0
 10
167.7353
 20
-29.4844
 30
0.0
 10
167.7353
 20
-29.4844
 30
0.0
 10
164.8595
 20
-27.6563
 30
0.0
 10
164.1439
 20
-24.6661
 30
0.0
 10
165.2648
 20
-22.6969
 30
0.0
 10
165.2648
 20
-22.6969
 30
0.0
 10
166.6319
 20
-20.1761
 30
0.0
 10
170.235
 20
-20.0447
 30
0.0
 10
172.2749
 20
-21.2985
 30
0.0
 10
172.2749
 20
-21.2985
 30
0.0
 10
173.3657
 20
-21.9507
 30
0.0
 10
174.9028
 20
-22.8976
 30
0.0
 10
176.2957
 20
-24.1824
 30
0.0
 10
176.2957
 20
-24.1824
 30
0.0
 10
178.2835
 20
-26.0158
 30
0.0
 10
180.2147
 20
-28.399
 30
0.0
 10
182.1605
 20
-30.4149
 30
0.0
 10
182.1605
 20
-30.4149
 30
0.0
 10
183.7637
 20
-32.0719
 30
0.0
 10
185.3101
 20
-33.5779
 30
0.0
 10
186.9934
 20
-35.2419
 30
0.0
 10
186.9934
 20
-35.2419
 30
0.0
 10
186.9934
 20
-35.2419
 30
0.0
 10
182.8024
 20
-34.126
 30
0.0
 10
180.2825
 20
-33.4549
 30
0.0
 10
180.2825
 20
-33.4549
 30
0.0
 10
180.2825
 20
-33.4549
 30
0.0
 10
180.2826
 20
-33.4549
 30
0.0
 10
180.2826
 20
-33.4549
 30
0.0
  0
SPLINE
  5
54
330
1F
100
AcDbEntity
  8
layer 1
 62
     7
100
AcDbSpline
210
0.0
220
0.0
230
1.0
 70
    11
 71
     3
 72
    40
 73
    36
 74
     0
 42
0.0000000001
 43
0.0000000001
 12
1.0
 22
0.0
 32
0.0
 13
1.0
 23
0.0
 33
0.0
 40
0.0
 40
0.0
 40
0.0
 40
0.0
 40
0.1
 40
0.1
 40
0.1
 40
0.1
 40
0.2
 40
0.2
 40
0.2
 40
0.2
 40
0.3
 40
0.3
 40
0.3
 40
0.3
 40
0.4
 40
0.4
 40
0.4
 40
0.4
 40
0.5
 40
0.5
 40
0.5
 40
0.5
 40
0.6
 40
0.6
 40
0.6
 40
0.6
 40
0.7
 40
0.7
 40
0.7
 40
0.7
 40
0.8
 40
0.8
 40
0.8
 40
0.8
 40
1.0
 40
1.0
 40
1.0
 40
1.0
 10
182.1632
 20
-43.1281
 30
0.0
 10
180.3221
 20
-44.9749
 30
0.0
 10
178.3016
 20
-47.4204
 30
0.0
 10
176.4233
 20
-49.163
 30
0.0
 10
176.4233
 20
-49.163
 30
0.0
 10
174.7669
 20
-50.6996
 30
0.0
 10
173.1847
 20
-51.6262
 30
0.0
 10
172.4509
 20
-52.0091
 30
0.0
 10
172.4509
 20
-52.0091
 30
0.0
 10
169.4298
 20
-53.5855
 30
0.0
 10
166.4825
 20
-52.7102
 30
0.0
 10
165.3375
 20
-50.7548
 30
0.0
 10
165.3375
 20
-50.7548
 30
0.0
 10
163.838
 20
-48.3105
 30
0.0
 10
165.5257
 20
-45.1244
 30
0.0
 10
167.6315
 20
-43.9847
 30
0.0
 10
167.6315
 20
-43.9847
 30
0.0
 10
168.7418
 20
-43.3661
 30
0.0
 10
170.3304
 20
-42.5084
 30
0.0
 10
172.1395
 20
-41.9445
 30
0.0
 10
172.1395
 20
-41.9445
 30
0.0
 10
174.7211
 20
-41.1398
 30
0.0
 10
177.7506
 20
-40.6588
 30
0.0
 10
180.4694
 20
-39.9817
 30
0.0
 10
180.4694
 20
-39.9817
 30
0.0
 10
182.7059
 20
-39.4218
 30
0.0
 10
184.7834
 20
-38.8356
 30
0.0
 10
187.0661
 20
-38.2098
 30
0.0
 10
187.0661
 20
-38.2098
 30
0.0
 10
187.0661
 20
-38.2098
 30
0.0
 10
184.0042
 20
-41.2814
 30
0.0
 10
182.1631
 20
-43.1282
 30
0.0
 10
182.1631
 20
-43.1282
 30
0.0
 10
182.1631
 20
-43.1282
 30
0.0
 10
182.1632
 20
-43.1281
 30
0.0
 10
182.1632
 20
-43.1281
 30
0.0
  0
SPLINE
  5
55
330
1F
100
AcDbEntity
  8
layer 1
 62
     7
100
AcDbSpline
210
0.0
220
0.0
230
1.0
 70
    11
 71
     3
 72
    28
 73
    24
 74
     0
 42
0.0000000001
 43
0.0000000001
 12
1.0
 22
0.0
 32
0.0
 13
1.0
 23
0.0
 33
0.0
 40
0.0
 40
0.0
 40
0.0
 40
0.0
 40
0.1428571428571428
 40
0.1428571428571428
 40
0.1428571428571428
 40
0.1428571428571428
 40
0.2857142857142857
 40
0.2857142857142857
 40
0.2857142857142857
 40
0.2857142857142857
 40
0.4285714285714285
 40
0.4285714285714285
 40
0.4285714285714285
 40
0.4285714285714285
 40
0.5714285714285714
 40
0.5714285714285714
 40
0.5714285714285714
 40
0.5714285714285714
 40
0.7142857142857143
 40
0.7142857142857143
 40
0.7142857142857143
 40
0.7142857142857143
 40
1.0
 40
1.0
 40
1.0
 40
1.0
 10
187.9607
 20
-46.4182
 30
0.0
 10
187.2818
 20
-48.9361
 30
0.0
 10
186.1742
 20
-51.9087
 30
0.0
 10
185.6043
 20
-54.4065
 30
0.0
 10
185.6043
 20
-54.4065
 30
0.0
 10
185.1017
 20
-56.6093
 30
0.0
 10
185.0903
 20
-58.4428
 30
0.0
 10
185.1257
 20
-59.2697
 30
0.0
 10
185.1257
 20
-59.2697
 30
0.0
 10
185.271
 20
-62.6743
 30
0.0
 10
187.5027
 20
-64.7891
 30
0.0
 10
189.7686
 20
-64.8029
 30
0.0
 10
189.7686
 20
-64.8029
 30
0.0
 10
189.7686
 20
-64.8029
 30
0.0
 10
189.7686
 20
-39.7128
 30
0.0
 10
189.7686
 20
-39.7128
 30
0.0
 10
189.7686
 20
-39.7128
 30
0.0
 10
189.7686
 20
-39.7128
 30
0.0
 10
188.6396
 20
-43.9003
 30
0.0
 10
187.9607
 20
-46.4182
 30
0.0
 10
187.9607
 20
-46.4182
 30
0.0
 10
187.9607
 20
-46.4182
 30
0.0
 10
187.9607
 20
-46.4182
 30
0.0
 10
187.9607
 20
-46.4182
 30
0.0
  0
SPLINE
  5
56
330
1F
100
AcDbEntity
  8
layer 1
 62
     7
100
AcDbSpline
210
0.0
220
0.0
230
1.0
 70
    11
 71
     3
 72
    40
 73
    36
 74
     0
 42
0.0000000001
 43
0.0000000001
 12
1.0
 22
0.0
 32
0.0
 13
1.0
 23
0.0
 33
0.0
 40
0.0
 40
0.0
 40
0.0
 40
0.0
 40
0.1
 40
0.1
 40
0.1
 40
0.1
 40
0.2
 40
0.2
 40
0.2
 40
0.2
 40
0.3
 40
0.3
 40
0.3
 40
0.3
 40
0.4
 40
0.4
 40
0.4
 40
0.4
 40
0.5
 40
0.5
 40
0.5
 40
0.5
 40
0.6
 40
0.6
 40
0.6
 40
0.6
 40
0.7
 40
0.7
 40
0.7
 40
0.7
 40
0.8
 40
0.8
 40
0.8
 40
0.8
 40
1.0
 40
1.0
 40
1.0
 40
1.0
 10
109.9761
 20
-72.1032
 30
0.0
 10
109.2973
 20
-69.5854
 30
0.0
 10
108.1896
 20
-66.6128
 30
0.0
 10
107.6197
 20
-64.1149
 30
0.0
 10
107.6197
 20
-64.1149
 30
0.0
 10
107.1171
 20
-61.9121
 30
0.0
 10
107.1058
 20
-60.0786
 30
0.0
 10
107.1411
 20
-59.2517
 30
0.0
 10
107.1411
 20
-59.2517
 30
0.0
 10
107.2865
 20
-55.8471
 30
0.0
 10
109.5181
 20
-53.7323
 30
0.0
 10
111.784
 20
-53.7185
 30
0.0
 10
111.784
 20
-53.7185
 30
0.0
 10
114.6507
 20
-53.6421
 30
0.0
 10
116.566
 20
-56.6967
 30
0.0
 10
116.5
 20
-59.0903
 30
0.0
 10
116.5
 20
-59.0903
 30
0.0
 10
116.4806
 20
-60.3611
 30
0.0
 10
116.4292
 20
-62.1657
 30
0.0
 10
116.013
 20
-64.0144
 30
0.0
 10
116.013
 20
-64.0144
 30
0.0
 10
115.4191
 20
-66.6525
 30
0.0
 10
114.3208
 20
-69.5166
 30
0.0
 10
113.5478
 20
-72.2097
 30
0.0
 10
113.5478
 20
-72.2097
 30
0.0
 10
112.9145
 20
-74.4266
 30
0.0
 10
112.3835
 20
-76.5188
 30
0.0
 10
111.784
 20
-78.8086
 30
0.0
 10
111.784
 20
-78.8086
 30
0.0
 10
111.784
 20
-78.8086
 30
0.0
 10
110.655
 20
-74.6211
 30
0.0
 10
109.9761
 20
-72.1033
 30
0.0
 10
109.9761
 20
-72.1033
 30
0.0
 10
109.9761
 20
-72.1033
 30
0.0
 10
109.9761
 20
-72.1032
 30
0.0
 10
109.9761
 20
-72.1032
 30
0.0
  0
SPLINE
  5
57
330
1F
100
AcDbEntity
  8
layer 1
 62
     7
100
AcDbSpline
210
0.0
220
0.0
230
1.0
 70
    11
 71
     3
 72
    40
 73
    36
 74
     0
 42
0.0000000001
 43
0.0000000001
 12
1.0
 22
0.0
 32
0.0
 13
1.0
 23
0.0
 33
0.0
 40
0.0
 40
0.0
 40
0.0
 40
0.0
 40
0.1
 40
0.1
 40
0.1
 40
0.1
 40
0.2
 40
0.2
 40
0.2
 40
0.2
 40
0.3
 40
0.3
 40
0.3
 40
0.3
 40
0.4
 40
0.4
 40
0.4
 40
0.4
 40
0.5
 40
0.5
 40
0.5
 40
0.5
 40
0.6
 40
0.6
 40
0.6
 40
0.6
 40
0.7
 40
0.7
 40
0.7
 40
0.7
 40
0.8
 40
0.8
 40
0.8
 40
0.8
 40
1.0
 40
1.0
 40
1.0
 40
1.0
 10
102.298
 20
-78.3933
 30
0.0
 10
99.7781
 20
-77.7222
 30
0.0
 10
96.6499
 20
-77.1952
 30
0.0
 10
94.2017
 20
-76.4398
 30
0.0
 10
94.2017
 20
-76.4398
 30
0.0
 10
92.0428
 20
-75.7736
 30
0.0
 10
90.4492
 20
-74.8666
 30
0.0
 10
89.7507
 20
-74.4227
 30
0.0
 10
89.7507
 20
-74.4227
 30
0.0
 10
86.8749
 20
-72.5946
 30
0.0
 10
86.1593
 20
-69.6044
 30
0.0
 10
87.2803
 20
-67.6352
 30
0.0
 10
87.2803
 20
-67.6352
 30
0.0
 10
88.6474
 20
-65.1144
 30
0.0
 10
92.2504
 20
-64.983
 30
0.0
 10
94.2903
 20
-66.2368
 30
0.0
 10
94.2903
 20
-66.2368
 30
0.0
 10
95.3811
 20
-66.889
 30
0.0
 10
96.9183
 20
-67.8359
 30
0.0
 10
98.3112
 20
-69.1207
 30
0.0
 10
98.3112
 20
-69.1207
 30
0.0
 10
100.2989
 20
-70.9541
 30
0.0
 10
102.2302
 20
-73.3373
 30
0.0
 10
104.1759
 20
-75.3533
 30
0.0
 10
104.1759
 20
-75.3533
 30
0.0
 10
105.7792
 20
-77.0102
 30
0.0
 10
107.3256
 20
-78.5162
 30
0.0
 10
109.0089
 20
-80.1802
 30
0.0
 10
109.0089
 20
-80.1802
 30
0.0
 10
109.0089
 20
-80.1802
 30
0.0
 10
104.8178
 20
-79.0643
 30
0.0
 10
102.2979
 20
-78.3933
 30
0.0
 10
102.2979
 20
-78.3933
 30
0.0
 10
102.2979
 20
-78.3933
 30
0.0
 10
102.298
 20
-78.3933
 30
0.0
 10
102.298
 20
-78.3933
 30
0.0
  0
SPLINE
  5
58
330
1F
100
AcDbEntity
  8
layer 1
 62
     7
100
AcDbSpline
210
0.0
220
0.0
230
1.0
 70
    11
 71
     3
 72
    40
 73
    36
 74
     0
 42
0.0000000001
 43
0.0000000001
 12
1.0
 22
0.0
 32
0.0
 13
1.0
 23
0.0
 33
0.0
 40
0.0
 40
0.0
 40
0.0
 40
0.0
 40
0.1
 40
0.1
 40
0.1
 40
0.1
 40
0.2
 40
0.2
 40
0.2
 40
0.2
 40
0.3
 40
0.3
 40
0.3
 40
0.3
 40
0.4
 40
0.4
 40
0.4
 40
0.4
 40
0.5
 40
0.5
 40
0.5
 40
0.5
 40
0.6
 40
0.6
 40
0.6
 40
0.6
 40
0.7
 40
0.7
 40
0.7
 40
0.7
 40
0.8
 40
0.8
 40
0.8
 40
0.8
 40
1.0
 40
1.0
 40
1.0
 40
1.0
 10
104.1785
 20
-88.0665
 30
0.0
 10
102.3375
 20
-89.9133
 30
0.0
 10
100.3169
 20
-92.3588
 30
0.0
 10
98.4387
 20
-94.1014
 30
0.0
 10
98.4387
 20
-94.1014
 30
0.0
 10
96.7823
 20
-95.638
 30
0.0
 10
95.2
 20
-96.5646
 30
0.0
 10
94.4663
 20
-96.9475
 30
0.0
 10
94.4663
 20
-96.9475
 30
0.0
 10
91.4451
 20
-98.5239
 30
0.0
 10
88.4978
 20
-97.6486
 30
0.0
 10
87.3529
 20
-95.6932
 30
0.0
 10
87.3529
 20
-95.6932
 30
0.0
 10
85.8534
 20
-93.2489
 30
0.0
 10
87.5411
 20
-90.0628
 30
0.0
 10
89.6469
 20
-88.9231
 30
0.0
 10
89.6469
 20
-88.9231
 30
0.0
 10
90.7572
 20
-88.3045
 30
0.0
 10
92.3457
 20
-87.4468
 30
0.0
 10
94.1548
 20
-86.8829
 30
0.0
 10
94.1548
 20
-86.8829
 30
0.0
 10
96.7365
 20
-86.0782
 30
0.0
 10
99.766
 20
-85.5972
 30
0.0
 10
102.4848
 20
-84.9201
 30
0.0
 10
102.4848
 20
-84.9201
 30
0.0
 10
104.7213
 20
-84.3602
 30
0.0
 10
106.7987
 20
-83.7739
 30
0.0
 10
109.0815
 20
-83.1482
 30
0.0
 10
109.0815
 20
-83.1482
 30
0.0
 10
109.0815
 20
-83.1482
 30
0.0
 10
106.0195
 20
-86.2198
 30
0.0
 10
104.1785
 20
-88.0666
 30
0.0
 10
104.1785
 20
-88.0666
 30
0.0
 10
104.1785
 20
-88.0666
 30
0.0
 10
104.1785
 20
-88.0665
 30
0.0
 10
104.1785
 20
-88.0665
 30
0.0
  0
SPLINE
  5
59
330
1F
100
AcDbEntity
  8
layer 1
 62
     7
100
AcDbSpline
210
0.0
220
0.0
230
1.0
 70
    11
 71
     3
 72
    40
 73
    36
 74
     0
 42
0.0000000001
 43
0.0000000001
 12
1.0
 22
0.0
 32
0.0
 13
1.0
 23
0.0
 33
0.0
 40
0.0
 40
0.0
 40
0.0
 40
0.0
 40
0.1
 40
0.1
 40
0.1
 40
0.1
 40
0.2
 40
0.2
 40
0.2
 40
0.2
 40
0.3
 40
0.3
 40
0.3
 40
0.3
 40
0.4
 40
0.4
 40
0.4
 40
0.4
 40
0.5
 40
0.5
 40
0.5
 40
0.5
 40
0.6
 40
0.6
 40
0.6
 40
0.6
 40
0.7
 40
0.7
 40
0.7
 40
0.7
 40
0.8
 40
0.8
 40
0.8
 40
0.8
 40
1.0
 40
1.0
 40
1.0
 40
1.0
 10
109.9761
 20
-91.3566
 30
0.0
 10
109.2973
 20
-93.8745
 30
0.0
 10
108.1896
 20
-96.8471
 30
0.0
 10
107.6197
 20
-99.3449
 30
0.0
 10
107.6197
 20
-99.3449
 30
0.0
 10
107.1171
 20
-101.5477
 30
0.0
 10
107.1058
 20
-103.3812
 30
0.0
 10
107.1411
 20
-104.2081
 30
0.0
 10
107.1411
 20
-104.2081
 30
0.0
 10
107.2865
 20
-107.6127
 30
0.0
 10
109.5181
 20
-109.7275
 30
0.0
 10
111.784
 20
-109.7413
 30
0.0
 10
111.784
 20
-109.7413
 30
0.0
 10
114.6507
 20
-109.8177
 30
0.0
 10
116.566
 20
-106.7632
 30
0.0
 10
116.5
 20
-104.3695
 30
0.0
 10
116.5
 20
-104.3695
 30
0.0
 10
116.4806
 20
-103.0987
 30
0.0
 10
116.4292
 20
-101.2942
 30
0.0
 10
116.013
 20
-99.4455
 30
0.0
 10
116.013
 20
-99.4455
 30
0.0
 10
115.4191
 20
-96.8073
 30
0.0
 10
114.3208
 20
-93.9432
 30
0.0
 10
113.5478
 20
-91.2501
 30
0.0
 10
113.5478
 20
-91.2501
 30
0.0
 10
112.9145
 20
-89.0332
 30
0.0
 10
112.3835
 20
-86.941
 30
0.0
 10
111.784
 20
-84.6512
 30
0.0
 10
111.784
 20
-84.6512
 30
0.0
 10
111.784
 20
-84.6512
 30
0.0
 10
110.655
 20
-88.8387
 30
0.0
 10
109.9761
 20
-91.3566
 30
0.0
 10
109.9761
 20
-91.3566
 30
0.0
 10
109.9761
 20
-91.3566
 30
0.0
 10
109.9761
 20
-91.3566
 30
0.0
 10
109.9761
 20
-91.3566
 30
0.0
  0
SPLINE
  5
5A
330
1F
100
AcDbEntity
  8
layer 1
 62
     7
100
AcDbSpline
210
0.0
220
0.0
230
1.0
 70
    11
 71
     3
 72
    40
 73
    36
 74
     0
 42
0.0000000001
 43
0.0000000001
 12
1.0
 22
0.0
 32
0.0
 13
1.0
 23
0.0
 33
0.0
 40
0.0
 40
0.0
 40
0.0
 40
0.0
 40
0.1
 40
0.1
 40
0.1
 40
0.1
 40
0.2
 40
0.2
 40
0.2
 40
0.2
 40
0.3
 40
0.3
 40
0.3
 40
0.3
 40
0.4
 40
0.4
 40
0.4
 40
0.4
 40
0.5
 40
0.5
 40
0.5
 40
0.5
 40
0.6
 40
0.6
 40
0.6
 40
0.6
 40
0.7
 40
0.7
 40
0.7
 40
0.7
 40
0.8
 40
0.8
 40
0.8
 40
0.8
 40
1.0
 40
1.0
 40
1.0
 40
1.0
 10
121.1806
 20
-78.4552
 30
0.0
 10
123.7005
 20
-77.7842
 30
0.0
 10
126.8287
 20
-77.2571
 30
0.0
 10
129.2768
 20
-76.5017
 30
0.0
 10
129.2768
 20
-76.5017
 30
0.0
 10
131.4358
 20
-75.8355
 30
0.0
 10
133.0294
 20
-74.9286
 30
0.0
 10
133.7279
 20
-74.4846
 30
0.0
 10
133.7279
 20
-74.4846
 30
0.0
 10
136.6037
 20
-72.6565
 30
0.0
 10
137.3193
 20
-69.6664
 30
0.0
 10
136.1983
 20
-67.6971
 30
0.0
 10
136.1983
 20
-67.6971
 30
0.0
 10
134.8312
 20
-65.1763
 30
0.0
 10
131.2282
 20
-65.0449
 30
0.0
 10
129.1883
 20
-66.2988
 30
0.0
 10
129.1883
 20
-66.2988
 30
0.0
 10
128.0974
 20
-66.951
 30
0.0
 10
126.5603
 20
-67.8978
 30
0.0
 10
125.1674
 20
-69.1826
 30
0.0
 10
125.1674
 20
-69.1826
 30
0.0
 10
123.1797
 20
-71.0161
 30
0.0
 10
121.2484
 20
-73.3993
 30
0.0
 10
119.3026
 20
-75.4152
 30
0.0
 10
119.3026
 20
-75.4152
 30
0.0
 10
117.6994
 20
-77.0721
 30
0.0
 10
116.153
 20
-78.5781
 30
0.0
 10
114.4697
 20
-80.2421
 30
0.0
 10
114.4697
 20
-80.2421
 30
0.0
 10
114.4697
 20
-80.2421
 30
0.0
 10
118.6608
 20
-79.1262
 30
0.0
 10
121.1807
 20
-78.4552
 30
0.0
 10
121.1807
 20
-78.4552
 30
0.0
 10
121.1807
 20
-78.4552
 30
0.0
 10
121.1806
 20
-78.4552
 30
0.0
 10
121.1806
 20
-78.4552
 30
0.0
  0
SPLINE
  5
5B
330
1F
100
AcDbEntity
  8
layer 1
 62
     7
100
AcDbSpline
210
0.0
220
0.0
230
1.0
 70
    11
 71
     3
 72
    40
 73
    36
 74
     0
 42
0.0000000001
 43
0.0000000001
 12
1.0
 22
0.0
 32
0.0
 13
1.0
 23
0.0
 33
0.0
 40
0.0
 40
0.0
 40
0.0
 40
0.0
 40
0.1
 40
0.1
 40
0.1
 40
0.1
 40
0.2
 40
0.2
 40
0.2
 40
0.2
 40
0.3
 40
0.3
 40
0.3
 40
0.3
 40
0.4
 40
0.4
 40
0.4
 40
0.4
 40
0.5
 40
0.5
 40
0.5
 40
0.5
 40
0.6
 40
0.6
 40
0.6
 40
0.6
 40
0.7
 40
0.7
 40
0.7
 40
0.7
 40
0.8
 40
0.8
 40
0.8
 40
0.8
 40
1.0
 40
1.0
 40
1.0
 40
1.0
 10
119.2381
 20
-88.0045
 30
0.0
 10
121.0792
 20
-89.8513
 30
0.0
 10
123.0997
 20
-92.2969
 30
0.0
 10
124.978
 20
-94.0394
 30
0.0
 10
124.978
 20
-94.0394
 30
0.0
 10
126.6344
 20
-95.576
 30
0.0
 10
128.2166
 20
-96.5027
 30
0.0
 10
128.9504
 20
-96.8856
 30
0.0
 10
128.9504
 20
-96.8856
 30
0.0
 10
131.9715
 20
-98.462
 30
0.0
 10
134.9188
 20
-97.5867
 30
0.0
 10
136.0638
 20
-95.6313
 30
0.0
 10
136.0638
 20
-95.6313
 30
0.0
 10
137.5633
 20
-93.187
 30
0.0
 10
135.8756
 20
-90.0009
 30
0.0
 10
133.7698
 20
-88.8612
 30
0.0
 10
133.7698
 20
-88.8612
 30
0.0
 10
132.6595
 20
-88.2426
 30
0.0
 10
131.0709
 20
-87.3849
 30
0.0
 10
129.2618
 20
-86.821
 30
0.0
 10
129.2618
 20
-86.821
 30
0.0
 10
126.6802
 20
-86.0163
 30
0.0
 10
123.6507
 20
-85.5353
 30
0.0
 10
120.9319
 20
-84.8582
 30
0.0
 10
120.9319
 20
-84.8582
 30
0.0
 10
118.6954
 20
-84.2983
 30
0.0
 10
116.6179
 20
-83.712
 30
0.0
 10
114.3352
 20
-83.0863
 30
0.0
 10
114.3352
 20
-83.0863
 30
0.0
 10
114.3352
 20
-83.0863
 30
0.0
 10
117.3971
 20
-86.1578
 30
0.0
 10
119.2382
 20
-88.0046
 30
0.0
 10
119.2382
 20
-88.0046
 30
0.0
 10
119.2382
 20
-88.0046
 30
0.0
 10
119.2381
 20
-88.0045
 30
0.0
 10
119.2381
 20
-88.0045
 30
0.0
  0
SPLINE
  5
5C
330
1F
100
AcDbEntity
  8
layer 1
 62
     7
100
AcDbSpline
210
0.0
220
0.0
230
1.0
 70
    11
 71
     3
 72
    40
 73
    36
 74
     0
 42
0.0000000001
 43
0.0000000001
 12
1.0
 22
0.0
 32
0.0
 13
1.0
 23
0.0
 33
0.0
 40
0.0
 40
0.0
 40
0.0
 40
0.0
 40
0.1
 40
0.1
 40
0.1
 40
0.1
 40
0.2
 40
0.2
 40
0.2
 40
0.2
 40
0.3
 40
0.3
 40
0.3
 40
0.3
 40
0.4
 40
0.4
 40
0.4
 40
0.4
 40
0.5
 40
0.5
 40
0.5
 40
0.5
 40
0.6
 40
0.6
 40
0.6
 40
0.6
 40
0.7
 40
0.7
 40
0.7
 40
0.7
 40
0.8
 40
0.8
 40
0.8
 40
0.8
 40
1.0
 40
1.0
 40
1.0
 40
1.0
 10
161.9056
 20
-72.1032
 30
0.0
 10
161.2268
 20
-69.5854
 30
0.0
 10
160.1191
 20
-66.6128
 30
0.0
 10
159.5492
 20
-64.1149
 30
0.0
 10
159.5492
 20
-64.1149
 30
0.0
 10
159.0467
 20
-61.9121
 30
0.0
 10
159.0353
 20
-60.0786
 30
0.0
 10
159.0706
 20
-59.2517
 30
0.0
 10
159.0706
 20
-59.2517
 30
0.0
 10
159.216
 20
-55.8471
 30
0.0
 10
161.4476
 20
-53.7323
 30
0.0
 10
163.7136
 20
-53.7185
 30
0.0
 10
163.7136
 20
-53.7185
 30
0.0
 10
166.5802
 20
-53.6421
 30
0.0
 10
168.4955
 20
-56.6967
 30
0.0
 10
168.4296
 20
-59.0903
 30
0.0
 10
168.4296
 20
-59.0903
 30
0.0
 10
168.4101
 20
-60.3611
 30
0.0
 10
168.3587
 20
-62.1657
 30
0.0
 10
167.9425
 20
-64.0144
 30
0.0
 10
167.9425
 20
-64.0144
 30
0.0
 10
167.3486
 20
-66.6525
 30
0.0
 10
166.2503
 20
-69.5166
 30
0.0
 10
165.4773
 20
-72.2097
 30
0.0
 10
165.4773
 20
-72.2097
 30
0.0
 10
164.844
 20
-74.4266
 30
0.0
 10
164.313
 20
-76.5188
 30
0.0
 10
163.7136
 20
-78.8086
 30
0.0
 10
163.7136
 20
-78.8086
 30
0.0
 10
163.7136
 20
-78.8086
 30
0.0
 10
162.5845
 20
-74.6211
 30
0.0
 10
161.9056
 20
-72.1033
 30
0.0
 10
161.9056
 20
-72.1033
 30
0.0
 10
161.9056
 20
-72.1033
 30
0.0
 10
161.9056
 20
-72.1032
 30
0.0
 10
161.9056
 20
-72.1032
 30
0.0
  0
SPLINE
  5
5D
330
1F
100
AcDbEntity
  8
layer 1
 62
     7
100
AcDbSpline
210
0.0
220
0.0
230
1.0
 70
    11
 71
     3
 72
    40
 73
    36
 74
     0
 42
0.0000000001
 43
0.0000000001
 12
1.0
 22
0.0
 32
0.0
 13
1.0
 23
0.0
 33
0.0
 40
0.0
 40
0.0
 40
0.0
 40
0.0
 40
0.1
 40
0.1
 40
0.1
 40
0.1
 40
0.2
 40
0.2
 40
0.2
 40
0.2
 40
0.3
 40
0.3
 40
0.3
 40
0.3
 40
0.4
 40
0.4
 40
0.4
 40
0.4
 40
0.5
 40
0.5
 40
0.5
 40
0.5
 40
0.6
 40
0.6
 40
0.6
 40
0.6
 40
0.7
 40
0.7
 40
0.7
 40
0.7
 40
0.8
 40
0.8
 40
0.8
 40
0.8
 40
1.0
 40
1.0
 40
1.0
 40
1.0
 10
154.2275
 20
-78.3933
 30
0.0
 10
151.7076
 20
-77.7222
 30
0.0
 10
148.5794
 20
-77.1952
 30
0.0
 10
146.1312
 20
-76.4398
 30
0.0
 10
146.1312
 20
-76.4398
 30
0.0
 10
143.9723
 20
-75.7736
 30
0.0
 10
142.3787
 20
-74.8666
 30
0.0
 10
141.6802
 20
-74.4227
 30
0.0
 10
141.6802
 20
-74.4227
 30
0.0
 10
138.8044
 20
-72.5946
 30
0.0
 10
138.0888
 20
-69.6044
 30
0.0
 10
139.2098
 20
-67.6352
 30
0.0
 10
139.2098
 20
-67.6352
 30
0.0
 10
140.5769
 20
-65.1144
 30
0.0
 10
144.1799
 20
-64.983
 30
0.0
 10
146.2198
 20
-66.2368
 30
0.0
 10
146.2198
 20
-66.2368
 30
0.0
 10
147.3107
 20
-66.889
 30
0.0
 10
148.8478
 20
-67.8359
 30
0.0
 10
150.2407
 20
-69.1207
 30
0.0
 10
150.2407
 20
-69.1207
 30
0.0
 10
152.2284
 20
-70.9541
 30
0.0
 10
154.1597
 20
-73.3373
 30
0.0
 10
156.1055
 20
-75.3533
 30
0.0
 10
156.1055
 20
-75.3533
 30
0.0
 10
157.7087
 20
-77.0102
 30
0.0
 10
159.2551
 20
-78.5162
 30
0.0
 10
160.9384
 20
-80.1802
 30
0.0
 10
160.9384
 20
-80.1802
 30
0.0
 10
160.9384
 20
-80.1802
 30
0.0
 10
156.7473
 20
-79.0643
 30
0.0
 10
154.2274
 20
-78.3933
 30
0.0
 10
154.2274
 20
-78.3933
 30
0.0
 10
154.2274
 20
-78.3933
 30
0.0
 10
154.2275
 20
-78.3933
 30
0.0
 10
154.2275
 20
-78.3933
 30
0.0
  0
SPLINE
  5
5E
330
1F
100
AcDbEntity
  8
layer 1
 62
     7
100
AcDbSpline
210
0.0
220
0.0
230
1.0
 70
    11
 71
     3
 72
    40
 73
    36
 74
     0
 42
0.0000000001
 43
0.0000000001
 12
1.0
 22
0.0
 32
0.0
 13
1.0
 23
0.0
 33
0.0
 40
0.0
 40
0.0
 40
0.0
 40
0.0
 40
0.1
 40
0.1
 40
0.1
 40
0.1
 40
0.2
 40
0.2
 40
0.2
 40
0.2
 40
0.3
 40
0.3
 40
0.3
 40
0.3
 40
0.4
 40
0.4
 40
0.4
 40
0.4
 40
0.5
 40
0.5
 40
0.5
 40
0.5
 40
0.6
 40
0.6
 40
0.6
 40
0.6
 40
0.7
 40
0.7
 40
0.7
 40
0.7
 40
0.8
 40
0.8
 40
0.8
 40
0.8
 40
1.0
 40
1.0
 40
1.0
 40
1.0
 10
156.1081
 20
-88.0665
 30
0.0
 10
154.267
 20
-89.9133
 30
0.0
 10
152.2465
 20
-92.3588
 30
0.0
 10
150.3682
 20
-94.1014
 30
0.0
 10
150.3682
 20
-94.1014
 30
0.0
 10
148.7118
 20
-95.638
 30
0.0
 10
147.1295
 20
-96.5646
 30
0.0
 10
146.3958
 20
-96.9475
 30
0.0
 10
146.3958
 20
-96.9475
 30
0.0
 10
143.3746
 20
-98.5239
 30
0.0
 10
140.4274
 20
-97.6486
 30
0.0
 10
139.2824
 20
-95.6932
 30
0.0
 10
139.2824
 20
-95.6932
 30
0.0
 10
137.7829
 20
-93.2489
 30
0.0
 10
139.4706
 20
-90.0628
 30
0.0
 10
141.5764
 20
-88.9231
 30
0.0
 10
141.5764
 20
-88.9231
 30
0.0
 10
142.6867
 20
-88.3045
 30
0.0
 10
144.2753
 20
-87.4468
 30
0.0
 10
146.0843
 20
-86.8829
 30
0.0
 10
146.0843
 20
-86.8829
 30
0.0
 10
148.666
 20
-86.0782
 30
0.0
 10
151.6955
 20
-85.5972
 30
0.0
 10
154.4143
 20
-84.9201
 30
0.0
 10
154.4143
 20
-84.9201
 30
0.0
 10
156.6508
 20
-84.3602
 30
0.0
 10
158.7282
 20
-83.7739
 30
0.0
 10
161.011
 20
-83.1482
 30
0.0
 10
161.011
 20
-83.1482
 30
0.0
 10
161.011
 20
-83.1482
 30
0.0
 10
157.949
 20
-86.2198
 30
0.0
 10
156.108
 20
-88.0666
 30
0.0
 10
156.108
 20
-88.0666
 30
0.0
 10
156.108
 20
-88.0666
 30
0.0
 10
156.1081
 20
-88.0665
 30
0.0
 10
156.1081
 20
-88.0665
 30
0.0
  0
SPLINE
  5
5F
330
1F
100
AcDbEntity
  8
layer 1
 62
     7
100
AcDbSpline
210
0.0
220
0.0
230
1.0
 70
    11
 71
     3
 72
    40
 73
    36
 74
     0
 42
0.0000000001
 43
0.0000000001
 12
1.0
 22
0.0
 32
0.0
 13
1.0
 23
0.0
 33
0.0
 40
0.0
 40
0.0
 40
0.0
 40
0.0
 40
0.1
 40
0.1
 40
0.1
 40
0.1
 40
0.2
 40
0.2
 40
0.2
 40
0.2
 40
0.3
 40
0.3
 40
0.3
 40
0.3
 40
0.4
 40
0.4
 40
0.4
 40
0.4
 40
0.5
 40
0.5
 40
0.5
 40
0.5
 40
0.6
 40
0.6
 40
0.6
 40
0.6
 40
0.7
 40
0.7
 40
0.7
 40
0.7
 40
0.8
 40
0.8
 40
0.8
 40
0.8
 40
1.0
 40
1.0
 40
1.0
 40
1.0
 10
161.9056
 20
-91.3566
 30
0.0
 10
161.2268
 20
-93.8745
 30
0.0
 10
160.1191
 20
-96.8471
 30
0.0
 10
159.5492
 20
-99.3449
 30
0.0
 10
159.5492
 20
-99.3449
 30
0.0
 10
159.0467
 20
-101.5477
 30
0.0
 10
159.0353
 20
-103.3812
 30
0.0
 10
159.0706
 20
-104.2081
 30
0.0
 10
159.0706
 20
-104.2081
 30
0.0
 10
159.216
 20
-107.6127
 30
0.0
 10
161.4476
 20
-109.7275
 30
0.0
 10
163.7136
 20
-109.7413
 30
0.0
 10
163.7136
 20
-109.7413
 30
0.0
 10
166.5802
 20
-109.8177
 30
0.0
 10
168.4955
 20
-106.7632
 30
0.0
 10
168.4296
 20
-104.3695
 30
0.0
 10
168.4296
 20
-104.3695
 30
0.0
 10
168.4101
 20
-103.0987
 30
0.0
 10
168.3587
 20
-101.2942
 30
0.0
 10
167.9425
 20
-99.4455
 30
0.0
 10
167.9425
 20
-99.4455
 30
0.0
 10
167.3486
 20
-96.8073
 30
0.0
 10
166.2503
 20
-93.9432
 30
0.0
 10
165.4773
 20
-91.2501
 30
0.0
 10
165.4773
 20
-91.2501
 30
0.0
 10
164.844
 20
-89.0332
 30
0.0
 10
164.313
 20
-86.941
 30
0.0
 10
163.7136
 20
-84.6512
 30
0.0
 10
163.7136
 20
-84.6512
 30
0.0
 10
163.7136
 20
-84.6512
 30
0.0
 10
162.5845
 20
-88.8387
 30
0.0
 10
161.9056
 20
-91.3566
 30
0.0
 10
161.9056
 20
-91.3566
 30
0.0
 10
161.9056
 20
-91.3566
 30
0.0
 10
161.9056
 20
-91.3566
 30
0.0
 10
161.9056
 20
-91.3566
 30
0.0
  0
SPLINE
  5
60
330
1F
100
AcDbEntity
  8
layer 1
 62
     7
100
AcDbSpline
210
0.0
220
0.0
230
1.0
 70
    11
 71
     3
 72
    40
 73
    36
 74
     0
 42
0.0000000001
 43
0.0000000001
 12
1.0
 22
0.0
 32
0.0
 13
1.0
 23
0.0
 33
0.0
 40
0.0
 40
0.0
 40
0.0
 40
0.0
 40
0.1
 40
0.1
 40
0.1
 40
0.1
 40
0.2
 40
0.2
 40
0.2
 40
0.2
 40
0.3
 40
0.3
 40
0.3
 40
0.3
 40
0.4
 40
0.4
 40
0.4
 40
0.4
 40
0.5
 40
0.5
 40
0.5
 40
0.5
 40
0.6
 40
0.6
 40
0.6
 40
0.6
 40
0.7
 40
0.7
 40
0.7
 40
0.7
 40
0.8
 40
0.8
 40
0.8
 40
0.8
 40
1.0
 40
1.0
 40
1.0
 40
1.0
 10
173.1101
 20
-78.4552
 30
0.0
 10
175.63
 20
-77.7842
 30
0.0
 10
178.7582
 20
-77.2571
 30
0.0
 10
181.2064
 20
-76.5017
 30
0.0
 10
181.2064
 20
-76.5017
 30
0.0
 10
183.3653
 20
-75.8355
 30
0.0
 10
184.9589
 20
-74.9286
 30
0.0
 10
185.6574
 20
-74.4846
 30
0.0
 10
185.6574
 20
-74.4846
 30
0.0
 10
188.5332
 20
-72.6565
 30
0.0
 10
189.2488
 20
-69.6664
 30
0.0
 10
188.1278
 20
-67.6971
 30
0.0
 10
188.1278
 20
-67.6971
 30
0.0
 10
186.7607
 20
-65.1763
 30
0.0
 10
183.1577
 20
-65.0449
 30
0.0
 10
181.1178
 20
-66.2988
 30
0.0
 10
181.1178
 20
-66.2988
 30
0.0
 10
180.027
 20
-66.951
 30
0.0
 10
178.4898
 20
-67.8978
 30
0.0
 10
177.0969
 20
-69.1826
 30
0.0
 10
177.0969
 20
-69.1826
 30
0.0
 10
175.1092
 20
-71.0161
 30
0.0
 10
173.1779
 20
-73.3993
 30
0.0
 10
171.2321
 20
-75.4152
 30
0.0
 10
171.2321
 20
-75.4152
 30
0.0
 10
169.6289
 20
-77.0721
 30
0.0
 10
168.0825
 20
-78.5781
 30
0.0
 10
166.3992
 20
-80.2421
 30
0.0
 10
166.3992
 20
-80.2421
 30
0.0
 10
166.3992
 20
-80.2421
 30
0.0
 10
170.5903
 20
-79.1262
 30
0.0
 10
173.1102
 20
-78.4552
 30
0.0
 10
173.1102
 20
-78.4552
 30
0.0
 10
173.1102
 20
-78.4552
 30
0.0
 10
173.1101
 20
-78.4552
 30
0.0
 10
173.1101
 20
-78.4552
 30
0.0
  0
SPLINE
  5
61
330
1F
100
AcDbEntity
  8
layer 1
 62
     7
100
AcDbSpline
210
0.0
220
0.0
230
1.0
 70
    11
 71
     3
 72
    40
 73
    36
 74
     0
 42
0.0000000001
 43
0.0000000001
 12
1.0
 22
0.0
 32
0.0
 13
1.0
 23
0.0
 33
0.0
 40
0.0
 40
0.0
 40
0.0
 40
0.0
 40
0.1
 40
0.1
 40
0.1
 40
0.1
 40
0.2
 40
0.2
 40
0.2
 40
0.2
 40
0.3
 40
0.3
 40
0.3
 40
0.3
 40
0.4
 40
0.4
 40
0.4
 40
0.4
 40
0.5
 40
0.5
 40
0.5
 40
0.5
 40
0.6
 40
0.6
 40
0.6
 40
0.6
 40
0.7
 40
0.7
 40
0.7
 40
0.7
 40
0.8
 40
0.8
 40
0.8
 40
0.8
 40
1.0
 40
1.0
 40
1.0
 40
1.0
 10
171.1676
 20
-88.0045
 30
0.0
 10
173.0087
 20
-89.8513
 30
0.0
 10
175.0292
 20
-92.2969
 30
0.0
 10
176.9075
 20
-94.0394
 30
0.0
 10
176.9075
 20
-94.0394
 30
0.0
 10
178.5639
 20
-95.576
 30
0.0
 10
180.1461
 20
-96.5027
 30
0.0
 10
180.8799
 20
-96.8856
 30
0.0
 10
180.8799
 20
-96.8856
 30
0.0
 10
183.901
 20
-98.462
 30
0.0
 10
186.8483
 20
-97.5867
 30
0.0
 10
187.9933
 20
-95.6313
 30
0.0
 10
187.9933
 20
-95.6313
 30
0.0
 10
189.4928
 20
-93.187
 30
0.0
 10
187.8051
 20
-90.0009
 30
0.0
 10
185.6993
 20
-88.8612
 30
0.0
 10
185.6993
 20
-88.8612
 30
0.0
 10
184.589
 20
-88.2426
 30
0.0
 10
183.0004
 20
-87.3849
 30
0.0
 10
181.1914
 20
-86.821
 30
0.0
 10
181.1914
 20
-86.821
 30
0.0
 10
178.6097
 20
-86.0163
 30
0.0
 10
175.5802
 20
-85.5353
 30
0.0
 10
172.8614
 20
-84.8582
 30
0.0
 10
172.8614
 20
-84.8582
 30
0.0
 10
170.6249
 20
-84.2983
 30
0.0
 10
168.5474
 20
-83.712
 30
0.0
 10
166.2647
 20
-83.0863
 30
0.0
 10
166.2647
 20
-83.0863
 30
0.0
 10
166.2647
 20
-83.0863
 30
0.0
 10
169.3266
 20
-86.1578
 30
0.0
 10
171.1677
 20
-88.0046
 30
0.0
 10
171.1677
 20
-88.0046
 30
0.0
 10
171.1677
 20
-88.0046
 30
0.0
 10
171.1676
 20
-88.0045
 30
0.0
 10
171.1676
 20
-88.0045
 30
0.0
  0
SPLINE
  5
62
330
1F
100
AcDbEntity
  8
layer 1
 62
     7
100
AcDbSpline
210
0.0
220
0.0
230
1.0
 70
    11
 71
     3
 72
    40
 73
    36
 74
     0
 42
0.0000000001
 43
0.0000000001
 12
1.0
 22
0.0
 32
0.0
 13
1.0
 23
0.0
 33
0.0
 40
0.0
 40
0.0
 40
0.0
 40
0.0
 40
0.1
 40
0.1
 40
0.1
 40
0.1
 40
0.2
 40
0.2
 40
0.2
 40
0.2
 40
0.3
 40
0.3
 40
0.3
 40
0.3
 40
0.4
 40
0.4
 40
0.4
 40
0.4
 40
0.5
 40
0.5
 40
0.5
 40
0.5
 40
0.6
 40
0.6
 40
0.6
 40
0.6
 40
0.7
 40
0.7
 40
0.7
 40
0.7
 40
0.8
 40
0.8
 40
0.8
 40
0.8
 40
1.0
 40
1.0
 40
1.0
 40
1.0
 10
135.9611
 20
-27.0569
 30
0.0
 10
135.2822
 20
-24.5391
 30
0.0
 10
134.1746
 20
-21.5665
 30
0.0
 10
133.6047
 20
-19.0686
 30
0.0
 10
133.6047
 20
-19.0686
 30
0.0
 10
133.1021
 20
-16.8658
 30
0.0
 10
133.0907
 20
-15.0323
 30
0.0
 10
133.1261
 20
-14.2054
 30
0.0
 10
133.1261
 20
-14.2054
 30
0.0
 10
133.2714
 20
-10.8008
 30
0.0
 10
135.5031
 20
-8.686
 30
0.0
 10
137.769
 20
-8.6722
 30
0.0
 10
137.769
 20
-8.6722
 30
0.0
 10
140.6356
 20
-8.5958
 30
0.0
 10
142.5509
 20
-11.6504
 30
0.0
 10
142.485
 20
-14.044
 30
0.0
 10
142.485
 20
-14.044
 30
0.0
 10
142.4656
 20
-15.3148
 30
0.0
 10
142.4141
 20
-17.1194
 30
0.0
 10
141.998
 20
-18.9681
 30
0.0
 10
141.998
 20
-18.9681
 30
0.0
 10
141.4041
 20
-21.6062
 30
0.0
 10
140.3057
 20
-24.4703
 30
0.0
 10
139.5328
 20
-27.1634
 30
0.0
 10
139.5328
 20
-27.1634
 30
0.0
 10
138.8994
 20
-29.3803
 30
0.0
 10
138.3685
 20
-31.4725
 30
0.0
 10
137.769
 20
-33.7623
 30
0.0
 10
137.769
 20
-33.7623
 30
0.0
 10
137.769
 20
-33.7623
 30
0.0
 10
136.64
 20
-29.5748
 30
0.0
 10
135.9611
 20
-27.057
 30
0.0
 10
135.9611
 20
-27.057
 30
0.0
 10
135.9611
 20
-27.057
 30
0.0
 10
135.9611
 20
-27.0569
 30
0.0
 10
135.9611
 20
-27.0569
 30
0.0
  0
SPLINE
  5
63
330
1F
100
AcDbEntity
  8
layer 1
 62
     7
100
AcDbSpline
210
0.0
220
0.0
230
1.0
 70
    11
 71
     3
 72
    40
 73
    36
 74
     0
 42
0.0000000001
 43
0.0000000001
 12
1.0
 22
0.0
 32
0.0
 13
1.0
 23
0.0
 33
0.0
 40
0.0
 40
0.0
 40
0.0
 40
0.0
 40
0.1
 40
0.1
 40
0.1
 40
0.1
 40
0.2
 40
0.2
 40
0.2
 40
0.2
 40
0.3
 40
0.3
 40
0.3
 40
0.3
 40
0.4
 40
0.4
 40
0.4
 40
0.4
 40
0.5
 40
0.5
 40
0.5
 40
0.5
 40
0.6
 40
0.6
 40
0.6
 40
0.6
 40
0.7
 40
0.7
 40
0.7
 40
0.7
 40
0.8
 40
0.8
 40
0.8
 40
0.8
 40
1.0
 40
1.0
 40
1.0
 40
1.0
 10
128.2831
 20
-33.347
 30
0.0
 10
125.7632
 20
-32.6759
 30
0.0
 10
122.6349
 20
-32.1489
 30
0.0
 10
120.1868
 20
-31.3935
 30
0.0
 10
120.1868
 20
-31.3935
 30
0.0
 10
118.0278
 20
-30.7273
 30
0.0
 10
116.4342
 20
-29.8203
 30
0.0
 10
115.7358
 20
-29.3764
 30
0.0
 10
115.7358
 20
-29.3764
 30
0.0
 10
112.86
 20
-27.5483
 30
0.0
 10
112.1444
 20
-24.5581
 30
0.0
 10
113.2653
 20
-22.5889
 30
0.0
 10
113.2653
 20
-22.5889
 30
0.0
 10
114.6324
 20
-20.0681
 30
0.0
 10
118.2355
 20
-19.9367
 30
0.0
 10
120.2753
 20
-21.1905
 30
0.0
 10
120.2753
 20
-21.1905
 30
0.0
 10
121.3662
 20
-21.8427
 30
0.0
 10
122.9033
 20
-22.7896
 30
0.0
 10
124.2962
 20
-24.0744
 30
0.0
 10
124.2962
 20
-24.0744
 30
0.0
 10
126.284
 20
-25.9078
 30
0.0
 10
128.2152
 20
-28.291
 30
0.0
 10
130.161
 20
-30.307
 30
0.0
 10
130.161
 20
-30.307
 30
0.0
 10
131.7642
 20
-31.9639
 30
0.0
 10
133.3106
 20
-33.4699
 30
0.0
 10
134.9939
 20
-35.1339
 30
0.0
 10
134.9939
 20
-35.1339
 30
0.0
 10
134.9939
 20
-35.1339
 30
0.0
 10
130.8029
 20
-34.018
 30
0.0
 10
128.283
 20
-33.347
 30
0.0
 10
128.283
 20
-33.347
 30
0.0
 10
128.283
 20
-33.347
 30
0.0
 10
128.2831
 20
-33.347
 30
0.0
 10
128.2831
 20
-33.347
 30
0.0
  0
SPLINE
  5
64
330
1F
100
AcDbEntity
  8
layer 1
 62
     7
100
AcDbSpline
210
0.0
220
0.0
230
1.0
 70
    11
 71
     3
 72
    40
 73
    36
 74
     0
 42
0.0000000001
 43
0.0000000001
 12
1.0
 22
0.0
 32
0.0
 13
1.0
 23
0.0
 33
0.0
 40
0.0
 40
0.0
 40
0.0
 40
0.0
 40
0.1
 40
0.1
 40
0.1
 40
0.1
 40
0.2
 40
0.2
 40
0.2
 40
0.2
 40
0.3
 40
0.3
 40
0.3
 40
0.3
 40
0.4
 40
0.4
 40
0.4
 40
0.4
 40
0.5
 40
0.5
 40
0.5
 40
0.5
 40
0.6
 40
0.6
 40
0.6
 40
0.6
 40
0.7
 40
0.7
 40
0.7
 40
0.7
 40
0.8
 40
0.8
 40
0.8
 40
0.8
 40
1.0
 40
1.0
 40
1.0
 40
1.0
 10
130.1636
 20
-43.0201
 30
0.0
 10
128.3225
 20
-44.8669
 30
0.0
 10
126.302
 20
-47.3125
 30
0.0
 10
124.4237
 20
-49.055
 30
0.0
 10
124.4237
 20
-49.055
 30
0.0
 10
122.7673
 20
-50.5916
 30
0.0
 10
121.1851
 20
-51.5182
 30
0.0
 10
120.4513
 20
-51.9011
 30
0.0
 10
120.4513
 20
-51.9011
 30
0.0
 10
117.4302
 20
-53.4775
 30
0.0
 10
114.4829
 20
-52.6022
 30
0.0
 10
113.3379
 20
-50.6468
 30
0.0
 10
113.3379
 20
-50.6468
 30
0.0
 10
111.8384
 20
-48.2025
 30
0.0
 10
113.5261
 20
-45.0164
 30
0.0
 10
115.6319
 20
-43.8767
 30
0.0
 10
115.6319
 20
-43.8767
 30
0.0
 10
116.7422
 20
-43.2581
 30
0.0
 10
118.3308
 20
-42.4004
 30
0.0
 10
120.1399
 20
-41.8365
 30
0.0
 10
120.1399
 20
-41.8365
 30
0.0
 10
122.7215
 20
-41.0318
 30
0.0
 10
125.751
 20
-40.5508
 30
0.0
 10
128.4698
 20
-39.8738
 30
0.0
 10
128.4698
 20
-39.8738
 30
0.0
 10
130.7063
 20
-39.3138
 30
0.0
 10
132.7838
 20
-38.7276
 30
0.0
 10
135.0665
 20
-38.1018
 30
0.0
 10
135.0665
 20
-38.1018
 30
0.0
 10
135.0665
 20
-38.1018
 30
0.0
 10
132.0046
 20
-41.1734
 30
0.0
 10
130.1635
 20
-43.0202
 30
0.0
 10
130.1635
 20
-43.0202
 30
0.0
 10
130.1635
 20
-43.0202
 30
0.0
 10
130.1636
 20
-43.0201
 30
0.0
 10
130.1636
 20
-43.0201
 30
0.0
  0
SPLINE
  5
65
330
1F
100
AcDbEntity
  8
layer 1
 62
     7
100
AcDbSpline
210
0.0
220
0.0
230
1.0
 70
    11
 71
     3
 72
    40
 73
    36
 74
     0
 42
0.0000000001
 43
0.0000000001
 12
1.0
 22
0.0
 32
0.0
 13
1.0
 23
0.0
 33
0.0
 40
0.0
 40
0.0
 40
0.0
 40
0.0
 40
0.1
 40
0.1
 40
0.1
 40
0.1
 40
0.2
 40
0.2
 40
0.2
 40
0.2
 40
0.3
 40
0.3
 40
0.3
 40
0.3
 40
0.4
 40
0.4
 40
0.4
 40
0.4
 40
0.5
 40
0.5
 40
0.5
 40
0.5
 40
0.6
 40
0.6
 40
0.6
 40
0.6
 40
0.7
 40
0.7
 40
0.7
 40
0.7
 40
0.8
 40
0.8
 40
0.8
 40
0.8
 40
1.0
 40
1.0
 40
1.0
 40
1.0
 10
135.9611
 20
-46.3103
 30
0.0
 10
135.2822
 20
-48.8281
 30
0.0
 10
134.1746
 20
-51.8007
 30
0.0
 10
133.6047
 20
-54.2985
 30
0.0
 10
133.6047
 20
-54.2985
 30
0.0
 10
133.1021
 20
-56.5013
 30
0.0
 10
133.0907
 20
-58.3348
 30
0.0
 10
133.1261
 20
-59.1617
 30
0.0
 10
133.1261
 20
-59.1617
 30
0.0
 10
133.2714
 20
-62.5663
 30
0.0
 10
135.5031
 20
-64.6811
 30
0.0
 10
137.769
 20
-64.6949
 30
0.0
 10
137.769
 20
-64.6949
 30
0.0
 10
140.6356
 20
-64.7713
 30
0.0
 10
142.5509
 20
-61.7168
 30
0.0
 10
142.485
 20
-59.3232
 30
0.0
 10
142.485
 20
-59.3232
 30
0.0
 10
142.4656
 20
-58.0523
 30
0.0
 10
142.4141
 20
-56.2478
 30
0.0
 10
141.998
 20
-54.3991
 30
0.0
 10
141.998
 20
-54.3991
 30
0.0
 10
141.4041
 20
-51.7609
 30
0.0
 10
140.3057
 20
-48.8969
 30
0.0
 10
139.5328
 20
-46.2037
 30
0.0
 10
139.5328
 20
-46.2037
 30
0.0
 10
138.8994
 20
-43.9868
 30
0.0
 10
138.3685
 20
-41.8946
 30
0.0
 10
137.769
 20
-39.6049
 30
0.0
 10
137.769
 20
-39.6049
 30
0.0
 10
137.769
 20
-39.6049
 30
0.0
 10
136.64
 20
-43.7923
 30
0.0
 10
135.9611
 20
-46.3102
 30
0.0
 10
135.9611
 20
-46.3102
 30
0.0
 10
135.9611
 20
-46.3102
 30
0.0
 10
135.9611
 20
-46.3103
 30
0.0
 10
135.9611
 20
-46.3103
 30
0.0
  0
SPLINE
  5
66
330
1F
100
AcDbEntity
  8
layer 1
 62
     7
100
AcDbSpline
210
0.0
220
0.0
230
1.0
 70
    11
 71
     3
 72
    40
 73
    36
 74
     0
 42
0.0000000001
 43
0.0000000001
 12
1.0
 22
0.0
 32
0.0
 13
1.0
 23
0.0
 33
0.0
 40
0.0
 40
0.0
 40
0.0
 40
0.0
 40
0.1
 40
0.1
 40
0.1
 40
0.1
 40
0.2
 40
0.2
 40
0.2
 40
0.2
 40
0.3
 40
0.3
 40
0.3
 40
0.3
 40
0.4
 40
0.4
 40
0.4
 40
0.4
 40
0.5
 40
0.5
 40
0.5
 40
0.5
 40
0.6
 40
0.6
 40
0.6
 40
0.6
 40
0.7
 40
0.7
 40
0.7
 40
0.7
 40
0.8
 40
0.8
 40
0.8
 40
0.8
 40
1.0
 40
1.0
 40
1.0
 40
1.0
 10
147.1656
 20
-33.4089
 30
0.0
 10
149.6855
 20
-32.7379
 30
0.0
 10
152.8137
 20
-32.2108
 30
0.0
 10
155.2619
 20
-31.4554
 30
0.0
 10
155.2619
 20
-31.4554
 30
0.0
 10
157.4209
 20
-30.7892
 30
0.0
 10
159.0145
 20
-29.8823
 30
0.0
 10
159.7129
 20
-29.4383
 30
0.0
 10
159.7129
 20
-29.4383
 30
0.0
 10
162.5887
 20
-27.6102
 30
0.0
 10
163.3043
 20
-24.6201
 30
0.0
 10
162.1834
 20
-22.6508
 30
0.0
 10
162.1834
 20
-22.6508
 30
0.0
 10
160.8163
 20
-20.13
 30
0.0
 10
157.2132
 20
-19.9986
 30
0.0
 10
155.1733
 20
-21.2525
 30
0.0
 10
155.1733
 20
-21.2525
 30
0.0
 10
154.0825
 20
-21.9047
 30
0.0
 10
152.5454
 20
-22.8515
 30
0.0
 10
151.1525
 20
-24.1363
 30
0.0
 10
151.1525
 20
-24.1363
 30
0.0
 10
149.1647
 20
-25.9698
 30
0.0
 10
147.2335
 20
-28.353
 30
0.0
 10
145.2877
 20
-30.3689
 30
0.0
 10
145.2877
 20
-30.3689
 30
0.0
 10
143.6845
 20
-32.0258
 30
0.0
 10
142.1381
 20
-33.5318
 30
0.0
 10
140.4548
 20
-35.1958
 30
0.0
 10
140.4548
 20
-35.1958
 30
0.0
 10
140.4548
 20
-35.1958
 30
0.0
 10
144.6458
 20
-34.0799
 30
0.0
 10
147.1657
 20
-33.4089
 30
0.0
 10
147.1657
 20
-33.4089
 30
0.0
 10
147.1657
 20
-33.4089
 30
0.0
 10
147.1656
 20
-33.4089
 30
0.0
 10
147.1656
 20
-33.4089
 30
0.0
  0
SPLINE
  5
67
330
1F
100
AcDbEntity
  8
layer 1
 62
     7
100
AcDbSpline
210
0.0
220
0.0
230
1.0
 70
    11
 71
     3
 72
    40
 73
    36
 74
     0
 42
0.0000000001
 43
0.0000000001
 12
1.0
 22
0.0
 32
0.0
 13
1.0
 23
0.0
 33
0.0
 40
0.0
 40
0.0
 40
0.0
 40
0.0
 40
0.1
 40
0.1
 40
0.1
 40
0.1
 40
0.2
 40
0.2
 40
0.2
 40
0.2
 40
0.3
 40
0.3
 40
0.3
 40
0.3
 40
0.4
 40
0.4
 40
0.4
 40
0.4
 40
0.5
 40
0.5
 40
0.5
 40
0.5
 40
0.6
 40
0.6
 40
0.6
 40
0.6
 40
0.7
 40
0.7
 40
0.7
 40
0.7
 40
0.8
 40
0.8
 40
0.8
 40
0.8
 40
1.0
 40
1.0
 40
1.0
 40
1.0
 10
145.2231
 20
-42.9582
 30
0.0
 10
147.0641
 20
-44.805
 30
0.0
 10
149.0847
 20
-47.2505
 30
0.0
 10
150.963
 20
-48.9931
 30
0.0
 10
150.963
 20
-48.9931
 30
0.0
 10
152.6194
 20
-50.5297
 30
0.0
 10
154.2016
 20
-51.4563
 30
0.0
 10
154.9353
 20
-51.8392
 30
0.0
 10
154.9353
 20
-51.8392
 30
0.0
 10
157.9565
 20
-53.4156
 30
0.0
 10
160.9038
 20
-52.5403
 30
0.0
 10
162.0487
 20
-50.5849
 30
0.0
 10
162.0487
 20
-50.5849
 30
0.0
 10
163.5482
 20
-48.1406
 30
0.0
 10
161.8605
 20
-44.9545
 30
0.0
 10
159.7547
 20
-43.8148
 30
0.0
 10
159.7547
 20
-43.8148
 30
0.0
 10
158.6444
 20
-43.1962
 30
0.0
 10
157.0559
 20
-42.3385
 30
0.0
 10
155.2468
 20
-41.7746
 30
0.0
 10
155.2468
 20
-41.7746
 30
0.0
 10
152.6652
 20
-40.9699
 30
0.0
 10
149.6356
 20
-40.4889
 30
0.0
 10
146.9169
 20
-39.8118
 30
0.0
 10
146.9169
 20
-39.8118
 30
0.0
 10
144.6803
 20
-39.2519
 30
0.0
 10
142.6029
 20
-38.6656
 30
0.0
 10
140.3201
 20
-38.0399
 30
0.0
 10
140.3201
 20
-38.0399
 30
0.0
 10
140.3201
 20
-38.0399
 30
0.0
 10
143.3821
 20
-41.1115
 30
0.0
 10
145.2232
 20
-42.9582
 30
0.0
 10
145.2232
 20
-42.9582
 30
0.0
 10
145.2232
 20
-42.9582
 30
0.0
 10
145.2231
 20
-42.9582
 30
0.0
 10
145.2231
 20
-42.9582
 30
0.0
  0
SPLINE
  5
68
330
1F
100
AcDbEntity
  8
layer 1
 62
     7
100
AcDbSpline
210
0.0
220
0.0
230
1.0
 70
    11
 71
     3
 72
    40
 73
    36
 74
     0
 42
0.0000000001
 43
0.0000000001
 12
1.0
 22
0.0
 32
0.0
 13
1.0
 23
0.0
 33
0.0
 40
0.0
 40
0.0
 40
0.0
 40
0.0
 40
0.1
 40
0.1
 40
0.1
 40
0.1
 40
0.2
 40
0.2
 40
0.2
 40
0.2
 40
0.3
 40
0.3
 40
0.3
 40
0.3
 40
0.4
 40
0.4
 40
0.4
 40
0.4
 40
0.5
 40
0.5
 40
0.5
 40
0.5
 40
0.6
 40
0.6
 40
0.6
 40
0.6
 40
0.7
 40
0.7
 40
0.7
 40
0.7
 40
0.8
 40
0.8
 40
0.8
 40
0.8
 40
1.0
 40
1.0
 40
1.0
 40
1.0
 10
109.9209
 20
107.9877
 30
0.0
 10
109.2421
 20
110.5055
 30
0.0
 10
108.1344
 20
113.4781
 30
0.0
 10
107.5646
 20
115.9759
 30
0.0
 10
107.5646
 20
115.9759
 30
0.0
 10
107.062
 20
118.1787
 30
0.0
 10
107.0506
 20
120.0122
 30
0.0
 10
107.0859
 20
120.8391
 30
0.0
 10
107.0859
 20
120.8391
 30
0.0
 10
107.2313
 20
124.2437
 30
0.0
 10
109.463
 20
126.3585
 30
0.0
 10
111.7289
 20
126.3723
 30
0.0
 10
111.7289
 20
126.3723
 30
0.0
 10
114.5955
 20
126.4487
 30
0.0
 10
116.5108
 20
123.3942
 30
0.0
 10
116.4449
 20
121.0006
 30
0.0
 10
116.4449
 20
121.0006
 30
0.0
 10
116.4254
 20
119.7297
 30
0.0
 10
116.374
 20
117.9252
 30
0.0
 10
115.9578
 20
116.0765
 30
0.0
 10
115.9578
 20
116.0765
 30
0.0
 10
115.3639
 20
113.4383
 30
0.0
 10
114.2656
 20
110.5743
 30
0.0
 10
113.4927
 20
107.8811
 30
0.0
 10
113.4927
 20
107.8811
 30
0.0
 10
112.8593
 20
105.6642
 30
0.0
 10
112.3283
 20
103.572
 30
0.0
 10
111.7289
 20
101.2823
 30
0.0
 10
111.7289
 20
101.2823
 30
0.0
 10
111.7289
 20
101.2823
 30
0.0
 10
110.5999
 20
105.4697
 30
0.0
 10
109.9209
 20
107.9876
 30
0.0
 10
109.9209
 20
107.9876
 30
0.0
 10
109.9209
 20
107.9876
 30
0.0
 10
109.9209
 20
107.9877
 30
0.0
 10
109.9209
 20
107.9877
 30
0.0
  0
SPLINE
  5
69
330
1F
100
AcDbEntity
  8
layer 1
 62
     7
100
AcDbSpline
210
0.0
220
0.0
230
1.0
 70
    11
 71
     3
 72
    40
 73
    36
 74
     0
 42
0.0000000001
 43
0.0000000001
 12
1.0
 22
0.0
 32
0.0
 13
1.0
 23
0.0
 33
0.0
 40
0.0
 40
0.0
 40
0.0
 40
0.0
 40
0.1
 40
0.1
 40
0.1
 40
0.1
 40
0.2
 40
0.2
 40
0.2
 40
0.2
 40
0.3
 40
0.3
 40
0.3
 40
0.3
 40
0.4
 40
0.4
 40
0.4
 40
0.4
 40
0.5
 40
0.5
 40
0.5
 40
0.5
 40
0.6
 40
0.6
 40
0.6
 40
0.6
 40
0.7
 40
0.7
 40
0.7
 40
0.7
 40
0.8
 40
0.8
 40
0.8
 40
0.8
 40
1.0
 40
1.0
 40
1.0
 40
1.0
 10
102.2429
 20
101.6976
 30
0.0
 10
99.723
 20
102.3686
 30
0.0
 10
96.5948
 20
102.8956
 30
0.0
 10
94.1466
 20
103.6511
 30
0.0
 10
94.1466
 20
103.6511
 30
0.0
 10
91.9877
 20
104.3172
 30
0.0
 10
90.3941
 20
105.2242
 30
0.0
 10
89.6956
 20
105.6681
 30
0.0
 10
89.6956
 20
105.6681
 30
0.0
 10
86.8198
 20
107.4963
 30
0.0
 10
86.1042
 20
110.4864
 30
0.0
 10
87.2252
 20
112.4557
 30
0.0
 10
87.2252
 20
112.4557
 30
0.0
 10
88.5923
 20
114.9764
 30
0.0
 10
92.1953
 20
115.1078
 30
0.0
 10
94.2352
 20
113.854
 30
0.0
 10
94.2352
 20
113.854
 30
0.0
 10
95.3261
 20
113.2018
 30
0.0
 10
96.8632
 20
112.2549
 30
0.0
 10
98.2561
 20
110.9701
 30
0.0
 10
98.2561
 20
110.9701
 30
0.0
 10
100.2438
 20
109.1367
 30
0.0
 10
102.1751
 20
106.7535
 30
0.0
 10
104.1209
 20
104.7376
 30
0.0
 10
104.1209
 20
104.7376
 30
0.0
 10
105.7241
 20
103.0807
 30
0.0
 10
107.2705
 20
101.5747
 30
0.0
 10
108.9538
 20
99.9106
 30
0.0
 10
108.9538
 20
99.9106
 30
0.0
 10
108.9538
 20
99.9106
 30
0.0
 10
104.7627
 20
101.0265
 30
0.0
 10
102.2428
 20
101.6976
 30
0.0
 10
102.2428
 20
101.6976
 30
0.0
 10
102.2428
 20
101.6976
 30
0.0
 10
102.2429
 20
101.6976
 30
0.0
 10
102.2429
 20
101.6976
 30
0.0
  0
SPLINE
  5
6A
330
1F
100
AcDbEntity
  8
layer 1
 62
     7
100
AcDbSpline
210
0.0
220
0.0
230
1.0
 70
    11
 71
     3
 72
    40
 73
    36
 74
     0
 42
0.0000000001
 43
0.0000000001
 12
1.0
 22
0.0
 32
0.0
 13
1.0
 23
0.0
 33
0.0
 40
0.0
 40
0.0
 40
0.0
 40
0.0
 40
0.1
 40
0.1
 40
0.1
 40
0.1
 40
0.2
 40
0.2
 40
0.2
 40
0.2
 40
0.3
 40
0.3
 40
0.3
 40
0.3
 40
0.4
 40
0.4
 40
0.4
 40
0.4
 40
0.5
 40
0.5
 40
0.5
 40
0.5
 40
0.6
 40
0.6
 40
0.6
 40
0.6
 40
0.7
 40
0.7
 40
0.7
 40
0.7
 40
0.8
 40
0.8
 40
0.8
 40
0.8
 40
1.0
 40
1.0
 40
1.0
 40
1.0
 10
104.1235
 20
92.0244
 30
0.0
 10
102.2824
 20
90.1776
 30
0.0
 10
100.2619
 20
87.7321
 30
0.0
 10
98.3836
 20
85.9895
 30
0.0
 10
98.3836
 20
85.9895
 30
0.0
 10
96.7272
 20
84.4529
 30
0.0
 10
95.1449
 20
83.5263
 30
0.0
 10
94.4112
 20
83.1434
 30
0.0
 10
94.4112
 20
83.1434
 30
0.0
 10
91.39
 20
81.567
 30
0.0
 10
88.4428
 20
82.4423
 30
0.0
 10
87.2978
 20
84.3977
 30
0.0
 10
87.2978
 20
84.3977
 30
0.0
 10
85.7983
 20
86.842
 30
0.0
 10
87.486
 20
90.0281
 30
0.0
 10
89.5918
 20
91.1678
 30
0.0
 10
89.5918
 20
91.1678
 30
0.0
 10
90.7021
 20
91.7864
 30
0.0
 10
92.2907
 20
92.6441
 30
0.0
 10
94.0997
 20
93.208
 30
0.0
 10
94.0997
 20
93.208
 30
0.0
 10
96.6814
 20
94.0127
 30
0.0
 10
99.7109
 20
94.4937
 30
0.0
 10
102.4297
 20
95.1708
 30
0.0
 10
102.4297
 20
95.1708
 30
0.0
 10
104.6662
 20
95.7307
 30
0.0
 10
106.7436
 20
96.317
 30
0.0
 10
109.0264
 20
96.9427
 30
0.0
 10
109.0264
 20
96.9427
 30
0.0
 10
109.0264
 20
96.9427
 30
0.0
 10
105.9644
 20
93.8711
 30
0.0
 10
104.1234
 20
92.0243
 30
0.0
 10
104.1234
 20
92.0243
 30
0.0
 10
104.1234
 20
92.0243
 30
0.0
 10
104.1235
 20
92.0244
 30
0.0
 10
104.1235
 20
92.0244
 30
0.0
  0
SPLINE
  5
6B
330
1F
100
AcDbEntity
  8
layer 1
 62
     7
100
AcDbSpline
210
0.0
220
0.0
230
1.0
 70
    11
 71
     3
 72
    40
 73
    36
 74
     0
 42
0.0000000001
 43
0.0000000001
 12
1.0
 22
0.0
 32
0.0
 13
1.0
 23
0.0
 33
0.0
 40
0.0
 40
0.0
 40
0.0
 40
0.0
 40
0.1
 40
0.1
 40
0.1
 40
0.1
 40
0.2
 40
0.2
 40
0.2
 40
0.2
 40
0.3
 40
0.3
 40
0.3
 40
0.3
 40
0.4
 40
0.4
 40
0.4
 40
0.4
 40
0.5
 40
0.5
 40
0.5
 40
0.5
 40
0.6
 40
0.6
 40
0.6
 40
0.6
 40
0.7
 40
0.7
 40
0.7
 40
0.7
 40
0.8
 40
0.8
 40
0.8
 40
0.8
 40
1.0
 40
1.0
 40
1.0
 40
1.0
 10
109.9209
 20
88.7343
 30
0.0
 10
109.2421
 20
86.2165
 30
0.0
 10
108.1344
 20
83.2439
 30
0.0
 10
107.5646
 20
80.746
 30
0.0
 10
107.5646
 20
80.746
 30
0.0
 10
107.062
 20
78.5432
 30
0.0
 10
107.0506
 20
76.7097
 30
0.0
 10
107.0859
 20
75.8828
 30
0.0
 10
107.0859
 20
75.8828
 30
0.0
 10
107.2313
 20
72.4782
 30
0.0
 10
109.463
 20
70.3634
 30
0.0
 10
111.7289
 20
70.3496
 30
0.0
 10
111.7289
 20
70.3496
 30
0.0
 10
114.5955
 20
70.2732
 30
0.0
 10
116.5108
 20
73.3278
 30
0.0
 10
116.4449
 20
75.7214
 30
0.0
 10
116.4449
 20
75.7214
 30
0.0
 10
116.4254
 20
76.9922
 30
0.0
 10
116.374
 20
78.7968
 30
0.0
 10
115.9578
 20
80.6455
 30
0.0
 10
115.9578
 20
80.6455
 30
0.0
 10
115.3639
 20
83.2836
 30
0.0
 10
114.2656
 20
86.1477
 30
0.0
 10
113.4927
 20
88.8408
 30
0.0
 10
113.4927
 20
88.8408
 30
0.0
 10
112.8593
 20
91.0577
 30
0.0
 10
112.3283
 20
93.1499
 30
0.0
 10
111.7289
 20
95.4397
 30
0.0
 10
111.7289
 20
95.4397
 30
0.0
 10
111.7289
 20
95.4397
 30
0.0
 10
110.5999
 20
91.2522
 30
0.0
 10
109.9209
 20
88.7344
 30
0.0
 10
109.9209
 20
88.7344
 30
0.0
 10
109.9209
 20
88.7344
 30
0.0
 10
109.9209
 20
88.7343
 30
0.0
 10
109.9209
 20
88.7343
 30
0.0
  0
SPLINE
  5
6C
330
1F
100
AcDbEntity
  8
layer 1
 62
     7
100
AcDbSpline
210
0.0
220
0.0
230
1.0
 70
    11
 71
     3
 72
    40
 73
    36
 74
     0
 42
0.0000000001
 43
0.0000000001
 12
1.0
 22
0.0
 32
0.0
 13
1.0
 23
0.0
 33
0.0
 40
0.0
 40
0.0
 40
0.0
 40
0.0
 40
0.1
 40
0.1
 40
0.1
 40
0.1
 40
0.2
 40
0.2
 40
0.2
 40
0.2
 40
0.3
 40
0.3
 40
0.3
 40
0.3
 40
0.4
 40
0.4
 40
0.4
 40
0.4
 40
0.5
 40
0.5
 40
0.5
 40
0.5
 40
0.6
 40
0.6
 40
0.6
 40
0.6
 40
0.7
 40
0.7
 40
0.7
 40
0.7
 40
0.8
 40
0.8
 40
0.8
 40
0.8
 40
1.0
 40
1.0
 40
1.0
 40
1.0
 10
121.1255
 20
101.6356
 30
0.0
 10
123.6454
 20
102.3067
 30
0.0
 10
126.7736
 20
102.8337
 30
0.0
 10
129.2218
 20
103.5891
 30
0.0
 10
129.2218
 20
103.5891
 30
0.0
 10
131.3807
 20
104.2553
 30
0.0
 10
132.9743
 20
105.1623
 30
0.0
 10
133.6728
 20
105.6062
 30
0.0
 10
133.6728
 20
105.6062
 30
0.0
 10
136.5486
 20
107.4343
 30
0.0
 10
137.2642
 20
110.4245
 30
0.0
 10
136.1432
 20
112.3937
 30
0.0
 10
136.1432
 20
112.3937
 30
0.0
 10
134.7761
 20
114.9145
 30
0.0
 10
131.1731
 20
115.0459
 30
0.0
 10
129.1332
 20
113.7921
 30
0.0
 10
129.1332
 20
113.7921
 30
0.0
 10
128.0424
 20
113.1399
 30
0.0
 10
126.5052
 20
112.193
 30
0.0
 10
125.1123
 20
110.9082
 30
0.0
 10
125.1123
 20
110.9082
 30
0.0
 10
123.1246
 20
109.0748
 30
0.0
 10
121.1933
 20
106.6916
 30
0.0
 10
119.2476
 20
104.6756
 30
0.0
 10
119.2476
 20
104.6756
 30
0.0
 10
117.6443
 20
103.0187
 30
0.0
 10
116.0979
 20
101.5127
 30
0.0
 10
114.4146
 20
99.8487
 30
0.0
 10
114.4146
 20
99.8487
 30
0.0
 10
114.4146
 20
99.8487
 30
0.0
 10
118.6057
 20
100.9646
 30
0.0
 10
121.1256
 20
101.6356
 30
0.0
 10
121.1256
 20
101.6356
 30
0.0
 10
121.1256
 20
101.6356
 30
0.0
 10
121.1255
 20
101.6356
 30
0.0
 10
121.1255
 20
101.6356
 30
0.0
  0
SPLINE
  5
6D
330
1F
100
AcDbEntity
  8
layer 1
 62
     7
100
AcDbSpline
210
0.0
220
0.0
230
1.0
 70
    11
 71
     3
 72
    40
 73
    36
 74
     0
 42
0.0000000001
 43
0.0000000001
 12
1.0
 22
0.0
 32
0.0
 13
1.0
 23
0.0
 33
0.0
 40
0.0
 40
0.0
 40
0.0
 40
0.0
 40
0.1
 40
0.1
 40
0.1
 40
0.1
 40
0.2
 40
0.2
 40
0.2
 40
0.2
 40
0.3
 40
0.3
 40
0.3
 40
0.3
 40
0.4
 40
0.4
 40
0.4
 40
0.4
 40
0.5
 40
0.5
 40
0.5
 40
0.5
 40
0.6
 40
0.6
 40
0.6
 40
0.6
 40
0.7
 40
0.7
 40
0.7
 40
0.7
 40
0.8
 40
0.8
 40
0.8
 40
0.8
 40
1.0
 40
1.0
 40
1.0
 40
1.0
 10
119.1829
 20
92.0864
 30
0.0
 10
121.024
 20
90.2396
 30
0.0
 10
123.0445
 20
87.794
 30
0.0
 10
124.9228
 20
86.0515
 30
0.0
 10
124.9228
 20
86.0515
 30
0.0
 10
126.5792
 20
84.5149
 30
0.0
 10
128.1615
 20
83.5882
 30
0.0
 10
128.8952
 20
83.2053
 30
0.0
 10
128.8952
 20
83.2053
 30
0.0
 10
131.9164
 20
81.6289
 30
0.0
 10
134.8636
 20
82.5042
 30
0.0
 10
136.0086
 20
84.4596
 30
0.0
 10
136.0086
 20
84.4596
 30
0.0
 10
137.5081
 20
86.904
 30
0.0
 10
135.8204
 20
90.09
 30
0.0
 10
133.7146
 20
91.2297
 30
0.0
 10
133.7146
 20
91.2297
 30
0.0
 10
132.6043
 20
91.8484
 30
0.0
 10
131.0157
 20
92.706
 30
0.0
 10
129.2067
 20
93.2699
 30
0.0
 10
129.2067
 20
93.2699
 30
0.0
 10
126.625
 20
94.0746
 30
0.0
 10
123.5955
 20
94.5556
 30
0.0
 10
120.8767
 20
95.2327
 30
0.0
 10
120.8767
 20
95.2327
 30
0.0
 10
118.6402
 20
95.7926
 30
0.0
 10
116.5628
 20
96.3789
 30
0.0
 10
114.28
 20
97.0046
 30
0.0
 10
114.28
 20
97.0046
 30
0.0
 10
114.28
 20
97.0046
 30
0.0
 10
117.342
 20
93.9331
 30
0.0
 10
119.183
 20
92.0863
 30
0.0
 10
119.183
 20
92.0863
 30
0.0
 10
119.183
 20
92.0863
 30
0.0
 10
119.1829
 20
92.0864
 30
0.0
 10
119.1829
 20
92.0864
 30
0.0
  0
SPLINE
  5
6E
330
1F
100
AcDbEntity
  8
layer 1
 62
     7
100
AcDbSpline
210
0.0
220
0.0
230
1.0
 70
    11
 71
     3
 72
    40
 73
    36
 74
     0
 42
0.0000000001
 43
0.0000000001
 12
1.0
 22
0.0
 32
0.0
 13
1.0
 23
0.0
 33
0.0
 40
0.0
 40
0.0
 40
0.0
 40
0.0
 40
0.1
 40
0.1
 40
0.1
 40
0.1
 40
0.2
 40
0.2
 40
0.2
 40
0.2
 40
0.3
 40
0.3
 40
0.3
 40
0.3
 40
0.4
 40
0.4
 40
0.4
 40
0.4
 40
0.5
 40
0.5
 40
0.5
 40
0.5
 40
0.6
 40
0.6
 40
0.6
 40
0.6
 40
0.7
 40
0.7
 40
0.7
 40
0.7
 40
0.8
 40
0.8
 40
0.8
 40
0.8
 40
1.0
 40
1.0
 40
1.0
 40
1.0
 10
161.9998
 20
107.9877
 30
0.0
 10
161.321
 20
110.5055
 30
0.0
 10
160.2133
 20
113.4781
 30
0.0
 10
159.6434
 20
115.9759
 30
0.0
 10
159.6434
 20
115.9759
 30
0.0
 10
159.1409
 20
118.1787
 30
0.0
 10
159.1295
 20
120.0122
 30
0.0
 10
159.1648
 20
120.8391
 30
0.0
 10
159.1648
 20
120.8391
 30
0.0
 10
159.3102
 20
124.2437
 30
0.0
 10
161.5418
 20
126.3585
 30
0.0
 10
163.8078
 20
126.3723
 30
0.0
 10
163.8078
 20
126.3723
 30
0.0
 10
166.6744
 20
126.4487
 30
0.0
 10
168.5897
 20
123.3942
 30
0.0
 10
168.5238
 20
121.0006
 30
0.0
 10
168.5238
 20
121.0006
 30
0.0
 10
168.5043
 20
119.7297
 30
0.0
 10
168.4529
 20
117.9252
 30
0.0
 10
168.0367
 20
116.0765
 30
0.0
 10
168.0367
 20
116.0765
 30
0.0
 10
167.4428
 20
113.4383
 30
0.0
 10
166.3445
 20
110.5743
 30
0.0
 10
165.5715
 20
107.8811
 30
0.0
 10
165.5715
 20
107.8811
 30
0.0
 10
164.9382
 20
105.6642
 30
0.0
 10
164.4072
 20
103.572
 30
0.0
 10
163.8078
 20
101.2823
 30
0.0
 10
163.8078
 20
101.2823
 30
0.0
 10
163.8078
 20
101.2823
 30
0.0
 10
162.6787
 20
105.4697
 30
0.0
 10
161.9998
 20
107.9876
 30
0.0
 10
161.9998
 20
107.9876
 30
0.0
 10
161.9998
 20
107.9876
 30
0.0
 10
161.9998
 20
107.9877
 30
0.0
 10
161.9998
 20
107.9877
 30
0.0
  0
SPLINE
  5
6F
330
1F
100
AcDbEntity
  8
layer 1
 62
     7
100
AcDbSpline
210
0.0
220
0.0
230
1.0
 70
    11
 71
     3
 72
    40
 73
    36
 74
     0
 42
0.0000000001
 43
0.0000000001
 12
1.0
 22
0.0
 32
0.0
 13
1.0
 23
0.0
 33
0.0
 40
0.0
 40
0.0
 40
0.0
 40
0.0
 40
0.1
 40
0.1
 40
0.1
 40
0.1
 40
0.2
 40
0.2
 40
0.2
 40
0.2
 40
0.3
 40
0.3
 40
0.3
 40
0.3
 40
0.4
 40
0.4
 40
0.4
 40
0.4
 40
0.5
 40
0.5
 40
0.5
 40
0.5
 40
0.6
 40
0.6
 40
0.6
 40
0.6
 40
0.7
 40
0.7
 40
0.7
 40
0.7
 40
0.8
 40
0.8
 40
0.8
 40
0.8
 40
1.0
 40
1.0
 40
1.0
 40
1.0
 10
154.3218
 20
101.6976
 30
0.0
 10
151.8019
 20
102.3686
 30
0.0
 10
148.6737
 20
102.8956
 30
0.0
 10
146.2255
 20
103.6511
 30
0.0
 10
146.2255
 20
103.6511
 30
0.0
 10
144.0666
 20
104.3172
 30
0.0
 10
142.473
 20
105.2242
 30
0.0
 10
141.7745
 20
105.6681
 30
0.0
 10
141.7745
 20
105.6681
 30
0.0
 10
138.8987
 20
107.4963
 30
0.0
 10
138.1831
 20
110.4864
 30
0.0
 10
139.3041
 20
112.4557
 30
0.0
 10
139.3041
 20
112.4557
 30
0.0
 10
140.6712
 20
114.9764
 30
0.0
 10
144.2742
 20
115.1078
 30
0.0
 10
146.3141
 20
113.854
 30
0.0
 10
146.3141
 20
113.854
 30
0.0
 10
147.4049
 20
113.2018
 30
0.0
 10
148.9421
 20
112.2549
 30
0.0
 10
150.335
 20
110.9701
 30
0.0
 10
150.335
 20
110.9701
 30
0.0
 10
152.3227
 20
109.1367
 30
0.0
 10
154.254
 20
106.7535
 30
0.0
 10
156.1997
 20
104.7376
 30
0.0
 10
156.1997
 20
104.7376
 30
0.0
 10
157.803
 20
103.0807
 30
0.0
 10
159.3494
 20
101.5747
 30
0.0
 10
161.0327
 20
99.9106
 30
0.0
 10
161.0327
 20
99.9106
 30
0.0
 10
161.0327
 20
99.9106
 30
0.0
 10
156.8416
 20
101.0265
 30
0.0
 10
154.3217
 20
101.6976
 30
0.0
 10
154.3217
 20
101.6976
 30
0.0
 10
154.3217
 20
101.6976
 30
0.0
 10
154.3218
 20
101.6976
 30
0.0
 10
154.3218
 20
101.6976
 30
0.0
  0
SPLINE
  5
70
330
1F
100
AcDbEntity
  8
layer 1
 62
     7
100
AcDbSpline
210
0.0
220
0.0
230
1.0
 70
    11
 71
     3
 72
    40
 73
    36
 74
     0
 42
0.0000000001
 43
0.0000000001
 12
1.0
 22
0.0
 32
0.0
 13
1.0
 23
0.0
 33
0.0
 40
0.0
 40
0.0
 40
0.0
 40
0.0
 40
0.1
 40
0.1
 40
0.1
 40
0.1
 40
0.2
 40
0.2
 40
0.2
 40
0.2
 40
0.3
 40
0.3
 40
0.3
 40
0.3
 40
0.4
 40
0.4
 40
0.4
 40
0.4
 40
0.5
 40
0.5
 40
0.5
 40
0.5
 40
0.6
 40
0.6
 40
0.6
 40
0.6
 40
0.7
 40
0.7
 40
0.7
 40
0.7
 40
0.8
 40
0.8
 40
0.8
 40
0.8
 40
1.0
 40
1.0
 40
1.0
 40
1.0
 10
156.2023
 20
92.0244
 30
0.0
 10
154.3613
 20
90.1776
 30
0.0
 10
152.3407
 20
87.7321
 30
0.0
 10
150.4625
 20
85.9895
 30
0.0
 10
150.4625
 20
85.9895
 30
0.0
 10
148.8061
 20
84.4529
 30
0.0
 10
147.2238
 20
83.5263
 30
0.0
 10
146.4901
 20
83.1434
 30
0.0
 10
146.4901
 20
83.1434
 30
0.0
 10
143.4689
 20
81.567
 30
0.0
 10
140.5216
 20
82.4423
 30
0.0
 10
139.3767
 20
84.3977
 30
0.0
 10
139.3767
 20
84.3977
 30
0.0
 10
137.8772
 20
86.842
 30
0.0
 10
139.5649
 20
90.0281
 30
0.0
 10
141.6707
 20
91.1678
 30
0.0
 10
141.6707
 20
91.1678
 30
0.0
 10
142.781
 20
91.7864
 30
0.0
 10
144.3695
 20
92.6441
 30
0.0
 10
146.1786
 20
93.208
 30
0.0
 10
146.1786
 20
93.208
 30
0.0
 10
148.7603
 20
94.0127
 30
0.0
 10
151.7898
 20
94.4937
 30
0.0
 10
154.5086
 20
95.1708
 30
0.0
 10
154.5086
 20
95.1708
 30
0.0
 10
156.7451
 20
95.7307
 30
0.0
 10
158.8225
 20
96.317
 30
0.0
 10
161.1053
 20
96.9427
 30
0.0
 10
161.1053
 20
96.9427
 30
0.0
 10
161.1053
 20
96.9427
 30
0.0
 10
158.0433
 20
93.8711
 30
0.0
 10
156.2023
 20
92.0243
 30
0.0
 10
156.2023
 20
92.0243
 30
0.0
 10
156.2023
 20
92.0243
 30
0.0
 10
156.2023
 20
92.0244
 30
0.0
 10
156.2023
 20
92.0244
 30
0.0
  0
SPLINE
  5
71
330
1F
100
AcDbEntity
  8
layer 1
 62
     7
100
AcDbSpline
210
0.0
220
0.0
230
1.0
 70
    11
 71
     3
 72
    40
 73
    36
 74
     0
 42
0.0000000001
 43
0.0000000001
 12
1.0
 22
0.0
 32
0.0
 13
1.0
 23
0.0
 33
0.0
 40
0.0
 40
0.0
 40
0.0
 40
0.0
 40
0.1
 40
0.1
 40
0.1
 40
0.1
 40
0.2
 40
0.2
 40
0.2
 40
0.2
 40
0.3
 40
0.3
 40
0.3
 40
0.3
 40
0.4
 40
0.4
 40
0.4
 40
0.4
 40
0.5
 40
0.5
 40
0.5
 40
0.5
 40
0.6
 40
0.6
 40
0.6
 40
0.6
 40
0.7
 40
0.7
 40
0.7
 40
0.7
 40
0.8
 40
0.8
 40
0.8
 40
0.8
 40
1.0
 40
1.0
 40
1.0
 40
1.0
 10
161.9998
 20
88.7343
 30
0.0
 10
161.321
 20
86.2165
 30
0.0
 10
160.2133
 20
83.2439
 30
0.0
 10
159.6434
 20
80.746
 30
0.0
 10
159.6434
 20
80.746
 30
0.0
 10
159.1409
 20
78.5432
 30
0.0
 10
159.1295
 20
76.7097
 30
0.0
 10
159.1648
 20
75.8828
 30
0.0
 10
159.1648
 20
75.8828
 30
0.0
 10
159.3102
 20
72.4782
 30
0.0
 10
161.5418
 20
70.3634
 30
0.0
 10
163.8078
 20
70.3496
 30
0.0
 10
163.8078
 20
70.3496
 30
0.0
 10
166.6744
 20
70.2732
 30
0.0
 10
168.5897
 20
73.3278
 30
0.0
 10
168.5238
 20
75.7214
 30
0.0
 10
168.5238
 20
75.7214
 30
0.0
 10
168.5043
 20
76.9922
 30
0.0
 10
168.4529
 20
78.7968
 30
0.0
 10
168.0367
 20
80.6455
 30
0.0
 10
168.0367
 20
80.6455
 30
0.0
 10
167.4428
 20
83.2836
 30
0.0
 10
166.3445
 20
86.1477
 30
0.0
 10
165.5715
 20
88.8408
 30
0.0
 10
165.5715
 20
88.8408
 30
0.0
 10
164.9382
 20
91.0577
 30
0.0
 10
164.4072
 20
93.1499
 30
0.0
 10
163.8078
 20
95.4397
 30
0.0
 10
163.8078
 20
95.4397
 30
0.0
 10
163.8078
 20
95.4397
 30
0.0
 10
162.6787
 20
91.2522
 30
0.0
 10
161.9998
 20
88.7344
 30
0.0
 10
161.9998
 20
88.7344
 30
0.0
 10
161.9998
 20
88.7344
 30
0.0
 10
161.9998
 20
88.7343
 30
0.0
 10
161.9998
 20
88.7343
 30
0.0
  0
SPLINE
  5
72
330
1F
100
AcDbEntity
  8
layer 1
 62
     7
100
AcDbSpline
210
0.0
220
0.0
230
1.0
 70
    11
 71
     3
 72
    40
 73
    36
 74
     0
 42
0.0000000001
 43
0.0000000001
 12
1.0
 22
0.0
 32
0.0
 13
1.0
 23
0.0
 33
0.0
 40
0.0
 40
0.0
 40
0.0
 40
0.0
 40
0.1
 40
0.1
 40
0.1
 40
0.1
 40
0.2
 40
0.2
 40
0.2
 40
0.2
 40
0.3
 40
0.3
 40
0.3
 40
0.3
 40
0.4
 40
0.4
 40
0.4
 40
0.4
 40
0.5
 40
0.5
 40
0.5
 40
0.5
 40
0.6
 40
0.6
 40
0.6
 40
0.6
 40
0.7
 40
0.7
 40
0.7
 40
0.7
 40
0.8
 40
0.8
 40
0.8
 40
0.8
 40
1.0
 40
1.0
 40
1.0
 40
1.0
 10
173.2044
 20
101.6356
 30
0.0
 10
175.7243
 20
102.3067
 30
0.0
 10
178.8525
 20
102.8337
 30
0.0
 10
181.3007
 20
103.5891
 30
0.0
 10
181.3007
 20
103.5891
 30
0.0
 10
183.4596
 20
104.2553
 30
0.0
 10
185.0532
 20
105.1623
 30
0.0
 10
185.7517
 20
105.6062
 30
0.0
 10
185.7517
 20
105.6062
 30
0.0
 10
188.6275
 20
107.4343
 30
0.0
 10
189.3431
 20
110.4245
 30
0.0
 10
188.2221
 20
112.3937
 30
0.0
 10
188.2221
 20
112.3937
 30
0.0
 10
186.855
 20
114.9145
 30
0.0
 10
183.252
 20
115.0459
 30
0.0
 10
181.2121
 20
113.7921
 30
0.0
 10
181.2121
 20
113.7921
 30
0.0
 10
180.1212
 20
113.1399
 30
0.0
 10
178.5841
 20
112.193
 30
0.0
 10
177.1912
 20
110.9082
 30
0.0
 10
177.1912
 20
110.9082
 30
0.0
 10
175.2035
 20
109.0748
 30
0.0
 10
173.2722
 20
106.6916
 30
0.0
 10
171.3264
 20
104.6756
 30
0.0
 10
171.3264
 20
104.6756
 30
0.0
 10
169.7232
 20
103.0187
 30
0.0
 10
168.1768
 20
101.5127
 30
0.0
 10
166.4935
 20
99.8487
 30
0.0
 10
166.4935
 20
99.8487
 30
0.0
 10
166.4935
 20
99.8487
 30
0.0
 10
170.6846
 20
100.9646
 30
0.0
 10
173.2045
 20
101.6356
 30
0.0
 10
173.2045
 20
101.6356
 30
0.0
 10
173.2045
 20
101.6356
 30
0.0
 10
173.2044
 20
101.6356
 30
0.0
 10
173.2044
 20
101.6356
 30
0.0
  0
SPLINE
  5
73
330
1F
100
AcDbEntity
  8
layer 1
 62
     7
100
AcDbSpline
210
0.0
220
0.0
230
1.0
 70
    11
 71
     3
 72
    40
 73
    36
 74
     0
 42
0.0000000001
 43
0.0000000001
 12
1.0
 22
0.0
 32
0.0
 13
1.0
 23
0.0
 33
0.0
 40
0.0
 40
0.0
 40
0.0
 40
0.0
 40
0.1
 40
0.1
 40
0.1
 40
0.1
 40
0.2
 40
0.2
 40
0.2
 40
0.2
 40
0.3
 40
0.3
 40
0.3
 40
0.3
 40
0.4
 40
0.4
 40
0.4
 40
0.4
 40
0.5
 40
0.5
 40
0.5
 40
0.5
 40
0.6
 40
0.6
 40
0.6
 40
0.6
 40
0.7
 40
0.7
 40
0.7
 40
0.7
 40
0.8
 40
0.8
 40
0.8
 40
0.8
 40
1.0
 40
1.0
 40
1.0
 40
1.0
 10
171.2618
 20
92.0864
 30
0.0
 10
173.1029
 20
90.2396
 30
0.0
 10
175.1234
 20
87.794
 30
0.0
 10
177.0017
 20
86.0515
 30
0.0
 10
177.0017
 20
86.0515
 30
0.0
 10
178.6581
 20
84.5149
 30
0.0
 10
180.2403
 20
83.5882
 30
0.0
 10
180.9741
 20
83.2053
 30
0.0
 10
180.9741
 20
83.2053
 30
0.0
 10
183.9952
 20
81.6289
 30
0.0
 10
186.9425
 20
82.5042
 30
0.0
 10
188.0875
 20
84.4596
 30
0.0
 10
188.0875
 20
84.4596
 30
0.0
 10
189.587
 20
86.904
 30
0.0
 10
187.8993
 20
90.09
 30
0.0
 10
185.7935
 20
91.2297
 30
0.0
 10
185.7935
 20
91.2297
 30
0.0
 10
184.6832
 20
91.8484
 30
0.0
 10
183.0946
 20
92.706
 30
0.0
 10
181.2856
 20
93.2699
 30
0.0
 10
181.2856
 20
93.2699
 30
0.0
 10
178.7039
 20
94.0746
 30
0.0
 10
175.6744
 20
94.5556
 30
0.0
 10
172.9556
 20
95.2327
 30
0.0
 10
172.9556
 20
95.2327
 30
0.0
 10
170.7191
 20
95.7926
 30
0.0
 10
168.6416
 20
96.3789
 30
0.0
 10
166.3589
 20
97.0046
 30
0.0
 10
166.3589
 20
97.0046
 30
0.0
 10
166.3589
 20
97.0046
 30
0.0
 10
169.4208
 20
93.9331
 30
0.0
 10
171.2619
 20
92.0863
 30
0.0
 10
171.2619
 20
92.0863
 30
0.0
 10
171.2619
 20
92.0863
 30
0.0
 10
171.2618
 20
92.0864
 30
0.0
 10
171.2618
 20
92.0864
 30
0.0
  0
SPLINE
  5
74
330
1F
100
AcDbEntity
  8
layer 1
 62
     7
100
AcDbSpline
210
0.0
220
0.0
230
1.0
 70
    11
 71
     3
 72
    28
 73
    24
 74
     0
 42
0.0000000001
 43
0.0000000001
 12
1.0
 22
0.0
 32
0.0
 13
1.0
 23
0.0
 33
0.0
 40
0.0
 40
0.0
 40
0.0
 40
0.0
 40
0.1428571428571428
 40
0.1428571428571428
 40
0.1428571428571428
 40
0.1428571428571428
 40
0.2857142857142857
 40
0.2857142857142857
 40
0.2857142857142857
 40
0.2857142857142857
 40
0.4285714285714285
 40
0.4285714285714285
 40
0.4285714285714285
 40
0.4285714285714285
 40
0.5714285714285714
 40
0.5714285714285714
 40
0.5714285714285714
 40
0.5714285714285714
 40
0.7142857142857143
 40
0.7142857142857143
 40
0.7142857142857143
 40
0.7142857142857143
 40
1.0
 40
1.0
 40
1.0
 40
1.0
 10
187.9607
 20
63.0917
 30
0.0
 10
187.2818
 20
65.6095
 30
0.0
 10
186.1742
 20
68.5821
 30
0.0
 10
185.6043
 20
71.08
 30
0.0
 10
185.6043
 20
71.08
 30
0.0
 10
185.1017
 20
73.2827
 30
0.0
 10
185.0903
 20
75.1163
 30
0.0
 10
185.1257
 20
75.9432
 30
0.0
 10
185.1257
 20
75.9432
 30
0.0
 10
185.271
 20
79.3477
 30
0.0
 10
187.5027
 20
81.4626
 30
0.0
 10
189.7686
 20
81.4763
 30
0.0
 10
189.7686
 20
81.4763
 30
0.0
 10
189.7686
 20
81.4763
 30
0.0
 10
189.7686
 20
56.3863
 30
0.0
 10
189.7686
 20
56.3863
 30
0.0
 10
189.7686
 20
56.3863
 30
0.0
 10
189.7686
 20
56.3863
 30
0.0
 10
188.6396
 20
60.5738
 30
0.0
 10
187.9607
 20
63.0916
 30
0.0
 10
187.9607
 20
63.0916
 30
0.0
 10
187.9607
 20
63.0916
 30
0.0
 10
187.9607
 20
63.0917
 30
0.0
 10
187.9607
 20
63.0917
 30
0.0
  0
SPLINE
  5
75
330
1F
100
AcDbEntity
  8
layer 1
 62
     7
100
AcDbSpline
210
0.0
220
0.0
230
1.0
 70
    11
 71
     3
 72
    40
 73
    36
 74
     0
 42
0.0000000001
 43
0.0000000001
 12
1.0
 22
0.0
 32
0.0
 13
1.0
 23
0.0
 33
0.0
 40
0.0
 40
0.0
 40
0.0
 40
0.0
 40
0.1
 40
0.1
 40
0.1
 40
0.1
 40
0.2
 40
0.2
 40
0.2
 40
0.2
 40
0.3
 40
0.3
 40
0.3
 40
0.3
 40
0.4
 40
0.4
 40
0.4
 40
0.4
 40
0.5
 40
0.5
 40
0.5
 40
0.5
 40
0.6
 40
0.6
 40
0.6
 40
0.6
 40
0.7
 40
0.7
 40
0.7
 40
0.7
 40
0.8
 40
0.8
 40
0.8
 40
0.8
 40
1.0
 40
1.0
 40
1.0
 40
1.0
 10
180.2826
 20
56.8015
 30
0.0
 10
177.7627
 20
57.4725
 30
0.0
 10
174.6345
 20
57.9996
 30
0.0
 10
172.1863
 20
58.755
 30
0.0
 10
172.1863
 20
58.755
 30
0.0
 10
170.0273
 20
59.4212
 30
0.0
 10
168.4337
 20
60.3281
 30
0.0
 10
167.7353
 20
60.7721
 30
0.0
 10
167.7353
 20
60.7721
 30
0.0
 10
164.8595
 20
62.6002
 30
0.0
 10
164.1439
 20
65.5903
 30
0.0
 10
165.2648
 20
67.5596
 30
0.0
 10
165.2648
 20
67.5596
 30
0.0
 10
166.6319
 20
70.0804
 30
0.0
 10
170.235
 20
70.2118
 30
0.0
 10
172.2749
 20
68.9579
 30
0.0
 10
172.2749
 20
68.9579
 30
0.0
 10
173.3657
 20
68.3057
 30
0.0
 10
174.9028
 20
67.3589
 30
0.0
 10
176.2957
 20
66.0741
 30
0.0
 10
176.2957
 20
66.0741
 30
0.0
 10
178.2835
 20
64.2406
 30
0.0
 10
180.2147
 20
61.8574
 30
0.0
 10
182.1605
 20
59.8415
 30
0.0
 10
182.1605
 20
59.8415
 30
0.0
 10
183.7637
 20
58.1846
 30
0.0
 10
185.3101
 20
56.6786
 30
0.0
 10
186.9934
 20
55.0146
 30
0.0
 10
186.9934
 20
55.0146
 30
0.0
 10
186.9934
 20
55.0146
 30
0.0
 10
182.8024
 20
56.1305
 30
0.0
 10
180.2825
 20
56.8015
 30
0.0
 10
180.2825
 20
56.8015
 30
0.0
 10
180.2825
 20
56.8015
 30
0.0
 10
180.2826
 20
56.8015
 30
0.0
 10
180.2826
 20
56.8015
 30
0.0
  0
SPLINE
  5
76
330
1F
100
AcDbEntity
  8
layer 1
 62
     7
100
AcDbSpline
210
0.0
220
0.0
230
1.0
 70
    11
 71
     3
 72
    40
 73
    36
 74
     0
 42
0.0000000001
 43
0.0000000001
 12
1.0
 22
0.0
 32
0.0
 13
1.0
 23
0.0
 33
0.0
 40
0.0
 40
0.0
 40
0.0
 40
0.0
 40
0.1
 40
0.1
 40
0.1
 40
0.1
 40
0.2
 40
0.2
 40
0.2
 40
0.2
 40
0.3
 40
0.3
 40
0.3
 40
0.3
 40
0.4
 40
0.4
 40
0.4
 40
0.4
 40
0.5
 40
0.5
 40
0.5
 40
0.5
 40
0.6
 40
0.6
 40
0.6
 40
0.6
 40
0.7
 40
0.7
 40
0.7
 40
0.7
 40
0.8
 40
0.8
 40
0.8
 40
0.8
 40
1.0
 40
1.0
 40
1.0
 40
1.0
 10
182.1632
 20
47.1284
 30
0.0
 10
180.3221
 20
45.2816
 30
0.0
 10
178.3016
 20
42.836
 30
0.0
 10
176.4233
 20
41.0935
 30
0.0
 10
176.4233
 20
41.0935
 30
0.0
 10
174.7669
 20
39.5569
 30
0.0
 10
173.1847
 20
38.6302
 30
0.0
 10
172.4509
 20
38.2473
 30
0.0
 10
172.4509
 20
38.2473
 30
0.0
 10
169.4298
 20
36.6709
 30
0.0
 10
166.4825
 20
37.5462
 30
0.0
 10
165.3375
 20
39.5016
 30
0.0
 10
165.3375
 20
39.5016
 30
0.0
 10
163.838
 20
41.946
 30
0.0
 10
165.5257
 20
45.132
 30
0.0
 10
167.6315
 20
46.2717
 30
0.0
 10
167.6315
 20
46.2717
 30
0.0
 10
168.7418
 20
46.8904
 30
0.0
 10
170.3304
 20
47.748
 30
0.0
 10
172.1395
 20
48.3119
 30
0.0
 10
172.1395
 20
48.3119
 30
0.0
 10
174.7211
 20
49.1166
 30
0.0
 10
177.7506
 20
49.5976
 30
0.0
 10
180.4694
 20
50.2747
 30
0.0
 10
180.4694
 20
50.2747
 30
0.0
 10
182.7059
 20
50.8346
 30
0.0
 10
184.7834
 20
51.4209
 30
0.0
 10
187.0661
 20
52.0466
 30
0.0
 10
187.0661
 20
52.0466
 30
0.0
 10
187.0661
 20
52.0466
 30
0.0
 10
184.0042
 20
48.9751
 30
0.0
 10
182.1631
 20
47.1283
 30
0.0
 10
182.1631
 20
47.1283
 30
0.0
 10
182.1631
 20
47.1283
 30
0.0
 10
182.1632
 20
47.1284
 30
0.0
 10
182.1632
 20
47.1284
 30
0.0
  0
SPLINE
  5
77
330
1F
100
AcDbEntity
  8
layer 1
 62
     7
100
AcDbSpline
210
0.0
220
0.0
230
1.0
 70
    11
 71
     3
 72
    28
 73
    24
 74
     0
 42
0.0000000001
 43
0.0000000001
 12
1.0
 22
0.0
 32
0.0
 13
1.0
 23
0.0
 33
0.0
 40
0.0
 40
0.0
 40
0.0
 40
0.0
 40
0.1428571428571428
 40
0.1428571428571428
 40
0.1428571428571428
 40
0.1428571428571428
 40
0.2857142857142857
 40
0.2857142857142857
 40
0.2857142857142857
 40
0.2857142857142857
 40
0.4285714285714285
 40
0.4285714285714285
 40
0.4285714285714285
 40
0.4285714285714285
 40
0.5714285714285714
 40
0.5714285714285714
 40
0.5714285714285714
 40
0.5714285714285714
 40
0.7142857142857143
 40
0.7142857142857143
 40
0.7142857142857143
 40
0.7142857142857143
 40
1.0
 40
1.0
 40
1.0
 40
1.0
 10
187.9607
 20
43.8382
 30
0.0
 10
187.2818
 20
41.3204
 30
0.0
 10
186.1742
 20
38.3478
 30
0.0
 10
185.6043
 20
35.8499
 30
0.0
 10
185.6043
 20
35.8499
 30
0.0
 10
185.1017
 20
33.6471
 30
0.0
 10
185.0903
 20
31.8136
 30
0.0
 10
185.1257
 20
30.9867
 30
0.0
 10
185.1257
 20
30.9867
 30
0.0
 10
185.271
 20
27.5822
 30
0.0
 10
187.5027
 20
25.4673
 30
0.0
 10
189.7686
 20
25.4535
 30
0.0
 10
189.7686
 20
25.4535
 30
0.0
 10
189.7686
 20
25.4535
 30
0.0
 10
189.7686
 20
50.5436
 30
0.0
 10
189.7686
 20
50.5436
 30
0.0
 10
189.7686
 20
50.5436
 30
0.0
 10
189.7686
 20
50.5436
 30
0.0
 10
188.6396
 20
46.3561
 30
0.0
 10
187.9607
 20
43.8383
 30
0.0
 10
187.9607
 20
43.8383
 30
0.0
 10
187.9607
 20
43.8383
 30
0.0
 10
187.9607
 20
43.8382
 30
0.0
 10
187.9607
 20
43.8382
 30
0.0
  0
SPLINE
  5
78
330
1F
100
AcDbEntity
  8
layer 1
 62
     7
100
AcDbSpline
210
0.0
220
0.0
230
1.0
 70
    11
 71
     3
 72
    40
 73
    36
 74
     0
 42
0.0000000001
 43
0.0000000001
 12
1.0
 22
0.0
 32
0.0
 13
1.0
 23
0.0
 33
0.0
 40
0.0
 40
0.0
 40
0.0
 40
0.0
 40
0.1
 40
0.1
 40
0.1
 40
0.1
 40
0.2
 40
0.2
 40
0.2
 40
0.2
 40
0.3
 40
0.3
 40
0.3
 40
0.3
 40
0.4
 40
0.4
 40
0.4
 40
0.4
 40
0.5
 40
0.5
 40
0.5
 40
0.5
 40
0.6
 40
0.6
 40
0.6
 40
0.6
 40
0.7
 40
0.7
 40
0.7
 40
0.7
 40
0.8
 40
0.8
 40
0.8
 40
0.8
 40
1.0
 40
1.0
 40
1.0
 40
1.0
 10
135.9611
 20
63.1996
 30
0.0
 10
135.2822
 20
65.7174
 30
0.0
 10
134.1746
 20
68.69
 30
0.0
 10
133.6047
 20
71.1879
 30
0.0
 10
133.6047
 20
71.1879
 30
0.0
 10
133.1021
 20
73.3906
 30
0.0
 10
133.0907
 20
75.2242
 30
0.0
 10
133.1261
 20
76.0511
 30
0.0
 10
133.1261
 20
76.0511
 30
0.0
 10
133.2714
 20
79.4556
 30
0.0
 10
135.5031
 20
81.5705
 30
0.0
 10
137.769
 20
81.5843
 30
0.0
 10
137.769
 20
81.5843
 30
0.0
 10
140.6356
 20
81.6607
 30
0.0
 10
142.5509
 20
78.6061
 30
0.0
 10
142.485
 20
76.2125
 30
0.0
 10
142.485
 20
76.2125
 30
0.0
 10
142.4656
 20
74.9417
 30
0.0
 10
142.4141
 20
73.1371
 30
0.0
 10
141.998
 20
71.2884
 30
0.0
 10
141.998
 20
71.2884
 30
0.0
 10
141.4041
 20
68.6503
 30
0.0
 10
140.3057
 20
65.7862
 30
0.0
 10
139.5328
 20
63.0931
 30
0.0
 10
139.5328
 20
63.0931
 30
0.0
 10
138.8994
 20
60.8761
 30
0.0
 10
138.3685
 20
58.784
 30
0.0
 10
137.769
 20
56.4942
 30
0.0
 10
137.769
 20
56.4942
 30
0.0
 10
137.769
 20
56.4942
 30
0.0
 10
136.64
 20
60.6817
 30
0.0
 10
135.9611
 20
63.1995
 30
0.0
 10
135.9611
 20
63.1995
 30
0.0
 10
135.9611
 20
63.1995
 30
0.0
 10
135.9611
 20
63.1996
 30
0.0
 10
135.9611
 20
63.1996
 30
0.0
  0
SPLINE
  5
79
330
1F
100
AcDbEntity
  8
layer 1
 62
     7
100
AcDbSpline
210
0.0
220
0.0
230
1.0
 70
    11
 71
     3
 72
    40
 73
    36
 74
     0
 42
0.0000000001
 43
0.0000000001
 12
1.0
 22
0.0
 32
0.0
 13
1.0
 23
0.0
 33
0.0
 40
0.0
 40
0.0
 40
0.0
 40
0.0
 40
0.1
 40
0.1
 40
0.1
 40
0.1
 40
0.2
 40
0.2
 40
0.2
 40
0.2
 40
0.3
 40
0.3
 40
0.3
 40
0.3
 40
0.4
 40
0.4
 40
0.4
 40
0.4
 40
0.5
 40
0.5
 40
0.5
 40
0.5
 40
0.6
 40
0.6
 40
0.6
 40
0.6
 40
0.7
 40
0.7
 40
0.7
 40
0.7
 40
0.8
 40
0.8
 40
0.8
 40
0.8
 40
1.0
 40
1.0
 40
1.0
 40
1.0
 10
128.2831
 20
56.9095
 30
0.0
 10
125.7632
 20
57.5805
 30
0.0
 10
122.6349
 20
58.1076
 30
0.0
 10
120.1868
 20
58.863
 30
0.0
 10
120.1868
 20
58.863
 30
0.0
 10
118.0278
 20
59.5292
 30
0.0
 10
116.4342
 20
60.4361
 30
0.0
 10
115.7358
 20
60.8801
 30
0.0
 10
115.7358
 20
60.8801
 30
0.0
 10
112.86
 20
62.7082
 30
0.0
 10
112.1444
 20
65.6983
 30
0.0
 10
113.2653
 20
67.6676
 30
0.0
 10
113.2653
 20
67.6676
 30
0.0
 10
114.6324
 20
70.1884
 30
0.0
 10
118.2355
 20
70.3198
 30
0.0
 10
120.2753
 20
69.0659
 30
0.0
 10
120.2753
 20
69.0659
 30
0.0
 10
121.3662
 20
68.4137
 30
0.0
 10
122.9033
 20
67.4669
 30
0.0
 10
124.2962
 20
66.1821
 30
0.0
 10
124.2962
 20
66.1821
 30
0.0
 10
126.284
 20
64.3486
 30
0.0
 10
128.2152
 20
61.9654
 30
0.0
 10
130.161
 20
59.9495
 30
0.0
 10
130.161
 20
59.9495
 30
0.0
 10
131.7642
 20
58.2926
 30
0.0
 10
133.3106
 20
56.7866
 30
0.0
 10
134.9939
 20
55.1226
 30
0.0
 10
134.9939
 20
55.1226
 30
0.0
 10
134.9939
 20
55.1226
 30
0.0
 10
130.8029
 20
56.2385
 30
0.0
 10
128.283
 20
56.9095
 30
0.0
 10
128.283
 20
56.9095
 30
0.0
 10
128.283
 20
56.9095
 30
0.0
 10
128.2831
 20
56.9095
 30
0.0
 10
128.2831
 20
56.9095
 30
0.0
  0
SPLINE
  5
7A
330
1F
100
AcDbEntity
  8
layer 1
 62
     7
100
AcDbSpline
210
0.0
220
0.0
230
1.0
 70
    11
 71
     3
 72
    40
 73
    36
 74
     0
 42
0.0000000001
 43
0.0000000001
 12
1.0
 22
0.0
 32
0.0
 13
1.0
 23
0.0
 33
0.0
 40
0.0
 40
0.0
 40
0.0
 40
0.0
 40
0.1
 40
0.1
 40
0.1
 40
0.1
 40
0.2
 40
0.2
 40
0.2
 40
0.2
 40
0.3
 40
0.3
 40
0.3
 40
0.3
 40
0.4
 40
0.4
 40
0.4
 40
0.4
 40
0.5
 40
0.5
 40
0.5
 40
0.5
 40
0.6
 40
0.6
 40
0.6
 40
0.6
 40
0.7
 40
0.7
 40
0.7
 40
0.7
 40
0.8
 40
0.8
 40
0.8
 40
0.8
 40
1.0
 40
1.0
 40
1.0
 40
1.0
 10
130.1636
 20
47.2364
 30
0.0
 10
128.3225
 20
45.3896
 30
0.0
 10
126.302
 20
42.944
 30
0.0
 10
124.4237
 20
41.2015
 30
0.0
 10
124.4237
 20
41.2015
 30
0.0
 10
122.7673
 20
39.6649
 30
0.0
 10
121.1851
 20
38.7382
 30
0.0
 10
120.4513
 20
38.3553
 30
0.0
 10
120.4513
 20
38.3553
 30
0.0
 10
117.4302
 20
36.7789
 30
0.0
 10
114.4829
 20
37.6542
 30
0.0
 10
113.3379
 20
39.6096
 30
0.0
 10
113.3379
 20
39.6096
 30
0.0
 10
111.8384
 20
42.054
 30
0.0
 10
113.5261
 20
45.24
 30
0.0
 10
115.6319
 20
46.3797
 30
0.0
 10
115.6319
 20
46.3797
 30
0.0
 10
116.7422
 20
46.9983
 30
0.0
 10
118.3308
 20
47.856
 30
0.0
 10
120.1399
 20
48.4199
 30
0.0
 10
120.1399
 20
48.4199
 30
0.0
 10
122.7215
 20
49.2246
 30
0.0
 10
125.751
 20
49.7056
 30
0.0
 10
128.4698
 20
50.3827
 30
0.0
 10
128.4698
 20
50.3827
 30
0.0
 10
130.7063
 20
50.9426
 30
0.0
 10
132.7838
 20
51.5289
 30
0.0
 10
135.0665
 20
52.1546
 30
0.0
 10
135.0665
 20
52.1546
 30
0.0
 10
135.0665
 20
52.1546
 30
0.0
 10
132.0046
 20
49.0831
 30
0.0
 10
130.1635
 20
47.2363
 30
0.0
 10
130.1635
 20
47.2363
 30
0.0
 10
130.1635
 20
47.2363
 30
0.0
 10
130.1636
 20
47.2364
 30
0.0
 10
130.1636
 20
47.2364
 30
0.0
  0
SPLINE
  5
7B
330
1F
100
AcDbEntity
  8
layer 1
 62
     7
100
AcDbSpline
210
0.0
220
0.0
230
1.0
 70
    11
 71
     3
 72
    40
 73
    36
 74
     0
 42
0.0000000001
 43
0.0000000001
 12
1.0
 22
0.0
 32
0.0
 13
1.0
 23
0.0
 33
0.0
 40
0.0
 40
0.0
 40
0.0
 40
0.0
 40
0.1
 40
0.1
 40
0.1
 40
0.1
 40
0.2
 40
0.2
 40
0.2
 40
0.2
 40
0.3
 40
0.3
 40
0.3
 40
0.3
 40
0.4
 40
0.4
 40
0.4
 40
0.4
 40
0.5
 40
0.5
 40
0.5
 40
0.5
 40
0.6
 40
0.6
 40
0.6
 40
0.6
 40
0.7
 40
0.7
 40
0.7
 40
0.7
 40
0.8
 40
0.8
 40
0.8
 40
0.8
 40
1.0
 40
1.0
 40
1.0
 40
1.0
 10
135.9611
 20
43.9462
 30
0.0
 10
135.2822
 20
41.4284
 30
0.0
 10
134.1746
 20
38.4558
 30
0.0
 10
133.6047
 20
35.9579
 30
0.0
 10
133.6047
 20
35.9579
 30
0.0
 10
133.1021
 20
33.7551
 30
0.0
 10
133.0907
 20
31.9216
 30
0.0
 10
133.1261
 20
31.0947
 30
0.0
 10
133.1261
 20
31.0947
 30
0.0
 10
133.2714
 20
27.6901
 30
0.0
 10
135.5031
 20
25.5753
 30
0.0
 10
137.769
 20
25.5615
 30
0.0
 10
137.769
 20
25.5615
 30
0.0
 10
140.6356
 20
25.4851
 30
0.0
 10
142.5509
 20
28.5397
 30
0.0
 10
142.485
 20
30.9333
 30
0.0
 10
142.485
 20
30.9333
 30
0.0
 10
142.4656
 20
32.2041
 30
0.0
 10
142.4141
 20
34.0087
 30
0.0
 10
141.998
 20
35.8574
 30
0.0
 10
141.998
 20
35.8574
 30
0.0
 10
141.4041
 20
38.4955
 30
0.0
 10
140.3057
 20
41.3596
 30
0.0
 10
139.5328
 20
44.0527
 30
0.0
 10
139.5328
 20
44.0527
 30
0.0
 10
138.8994
 20
46.2696
 30
0.0
 10
138.3685
 20
48.3618
 30
0.0
 10
137.769
 20
50.6516
 30
0.0
 10
137.769
 20
50.6516
 30
0.0
 10
137.769
 20
50.6516
 30
0.0
 10
136.64
 20
46.4641
 30
0.0
 10
135.9611
 20
43.9463
 30
0.0
 10
135.9611
 20
43.9463
 30
0.0
 10
135.9611
 20
43.9463
 30
0.0
 10
135.9611
 20
43.9462
 30
0.0
 10
135.9611
 20
43.9462
 30
0.0
  0
SPLINE
  5
7C
330
1F
100
AcDbEntity
  8
layer 1
 62
     7
100
AcDbSpline
210
0.0
220
0.0
230
1.0
 70
    11
 71
     3
 72
    40
 73
    36
 74
     0
 42
0.0000000001
 43
0.0000000001
 12
1.0
 22
0.0
 32
0.0
 13
1.0
 23
0.0
 33
0.0
 40
0.0
 40
0.0
 40
0.0
 40
0.0
 40
0.1
 40
0.1
 40
0.1
 40
0.1
 40
0.2
 40
0.2
 40
0.2
 40
0.2
 40
0.3
 40
0.3
 40
0.3
 40
0.3
 40
0.4
 40
0.4
 40
0.4
 40
0.4
 40
0.5
 40
0.5
 40
0.5
 40
0.5
 40
0.6
 40
0.6
 40
0.6
 40
0.6
 40
0.7
 40
0.7
 40
0.7
 40
0.7
 40
0.8
 40
0.8
 40
0.8
 40
0.8
 40
1.0
 40
1.0
 40
1.0
 40
1.0
 10
147.1656
 20
56.8476
 30
0.0
 10
149.6855
 20
57.5186
 30
0.0
 10
152.8137
 20
58.0456
 30
0.0
 10
155.2619
 20
58.8011
 30
0.0
 10
155.2619
 20
58.8011
 30
0.0
 10
157.4209
 20
59.4672
 30
0.0
 10
159.0145
 20
60.3742
 30
0.0
 10
159.7129
 20
60.8181
 30
0.0
 10
159.7129
 20
60.8181
 30
0.0
 10
162.5887
 20
62.6463
 30
0.0
 10
163.3043
 20
65.6364
 30
0.0
 10
162.1834
 20
67.6057
 30
0.0
 10
162.1834
 20
67.6057
 30
0.0
 10
160.8163
 20
70.1264
 30
0.0
 10
157.2132
 20
70.2578
 30
0.0
 10
155.1733
 20
69.004
 30
0.0
 10
155.1733
 20
69.004
 30
0.0
 10
154.0825
 20
68.3518
 30
0.0
 10
152.5454
 20
67.4049
 30
0.0
 10
151.1525
 20
66.1201
 30
0.0
 10
151.1525
 20
66.1201
 30
0.0
 10
149.1647
 20
64.2867
 30
0.0
 10
147.2335
 20
61.9035
 30
0.0
 10
145.2877
 20
59.8876
 30
0.0
 10
145.2877
 20
59.8876
 30
0.0
 10
143.6845
 20
58.2306
 30
0.0
 10
142.1381
 20
56.7247
 30
0.0
 10
140.4548
 20
55.0606
 30
0.0
 10
140.4548
 20
55.0606
 30
0.0
 10
140.4548
 20
55.0606
 30
0.0
 10
144.6458
 20
56.1765
 30
0.0
 10
147.1657
 20
56.8476
 30
0.0
 10
147.1657
 20
56.8476
 30
0.0
 10
147.1657
 20
56.8476
 30
0.0
 10
147.1656
 20
56.8476
 30
0.0
 10
147.1656
 20
56.8476
 30
0.0
  0
SPLINE
  5
7D
330
1F
100
AcDbEntity
  8
layer 1
 62
     7
100
AcDbSpline
210
0.0
220
0.0
230
1.0
 70
    11
 71
     3
 72
    40
 73
    36
 74
     0
 42
0.0000000001
 43
0.0000000001
 12
1.0
 22
0.0
 32
0.0
 13
1.0
 23
0.0
 33
0.0
 40
0.0
 40
0.0
 40
0.0
 40
0.0
 40
0.1
 40
0.1
 40
0.1
 40
0.1
 40
0.2
 40
0.2
 40
0.2
 40
0.2
 40
0.3
 40
0.3
 40
0.3
 40
0.3
 40
0.4
 40
0.4
 40
0.4
 40
0.4
 40
0.5
 40
0.5
 40
0.5
 40
0.5
 40
0.6
 40
0.6
 40
0.6
 40
0.6
 40
0.7
 40
0.7
 40
0.7
 40
0.7
 40
0.8
 40
0.8
 40
0.8
 40
0.8
 40
1.0
 40
1.0
 40
1.0
 40
1.0
 10
145.2231
 20
47.2983
 30
0.0
 10
147.0641
 20
45.4515
 30
0.0
 10
149.0847
 20
43.0059
 30
0.0
 10
150.963
 20
41.2634
 30
0.0
 10
150.963
 20
41.2634
 30
0.0
 10
152.6194
 20
39.7268
 30
0.0
 10
154.2016
 20
38.8001
 30
0.0
 10
154.9353
 20
38.4173
 30
0.0
 10
154.9353
 20
38.4173
 30
0.0
 10
157.9565
 20
36.8408
 30
0.0
 10
160.9038
 20
37.7161
 30
0.0
 10
162.0487
 20
39.6715
 30
0.0
 10
162.0487
 20
39.6715
 30
0.0
 10
163.5482
 20
42.1159
 30
0.0
 10
161.8605
 20
45.302
 30
0.0
 10
159.7547
 20
46.4416
 30
0.0
 10
159.7547
 20
46.4416
 30
0.0
 10
158.6444
 20
47.0603
 30
0.0
 10
157.0559
 20
47.918
 30
0.0
 10
155.2468
 20
48.4819
 30
0.0
 10
155.2468
 20
48.4819
 30
0.0
 10
152.6652
 20
49.2866
 30
0.0
 10
149.6356
 20
49.7675
 30
0.0
 10
146.9169
 20
50.4446
 30
0.0
 10
146.9169
 20
50.4446
 30
0.0
 10
144.6803
 20
51.0045
 30
0.0
 10
142.6029
 20
51.5908
 30
0.0
 10
140.3201
 20
52.2166
 30
0.0
 10
140.3201
 20
52.2166
 30
0.0
 10
140.3201
 20
52.2166
 30
0.0
 10
143.3821
 20
49.145
 30
0.0
 10
145.2232
 20
47.2982
 30
0.0
 10
145.2232
 20
47.2982
 30
0.0
 10
145.2232
 20
47.2982
 30
0.0
 10
145.2231
 20
47.2983
 30
0.0
 10
145.2231
 20
47.2983
 30
0.0
  0
SPLINE
  5
7E
330
1F
100
AcDbEntity
  8
layer 1
 62
     7
100
AcDbSpline
210
0.0
220
0.0
230
1.0
 70
    11
 71
     3
 72
    28
 73
    24
 74
     0
 42
0.0000000001
 43
0.0000000001
 12
1.0
 22
0.0
 32
0.0
 13
1.0
 23
0.0
 33
0.0
 40
0.0
 40
0.0
 40
0.0
 40
0.0
 40
0.1428571428571428
 40
0.1428571428571428
 40
0.1428571428571428
 40
0.1428571428571428
 40
0.2857142857142857
 40
0.2857142857142857
 40
0.2857142857142857
 40
0.2857142857142857
 40
0.4285714285714285
 40
0.4285714285714285
 40
0.4285714285714285
 40
0.4285714285714285
 40
0.5714285714285714
 40
0.5714285714285714
 40
0.5714285714285714
 40
0.5714285714285714
 40
0.7142857142857143
 40
0.7142857142857143
 40
0.7142857142857143
 40
0.7142857142857143
 40
1.0
 40
1.0
 40
1.0
 40
1.0
 10
87.701
 20
63.0917
 30
0.0
 10
88.3798
 20
65.6095
 30
0.0
 10
89.4875
 20
68.5821
 30
0.0
 10
90.0573
 20
71.08
 30
0.0
 10
90.0573
 20
71.08
 30
0.0
 10
90.5599
 20
73.2827
 30
0.0
 10
90.5713
 20
75.1163
 30
0.0
 10
90.536
 20
75.9432
 30
0.0
 10
90.536
 20
75.9432
 30
0.0
 10
90.3906
 20
79.3477
 30
0.0
 10
88.1589
 20
81.4626
 30
0.0
 10
85.893
 20
81.4763
 30
0.0
 10
85.893
 20
81.4763
 30
0.0
 10
85.893
 20
81.4763
 30
0.0
 10
85.893
 20
56.3863
 30
0.0
 10
85.893
 20
56.3863
 30
0.0
 10
85.893
 20
56.3863
 30
0.0
 10
85.893
 20
56.3863
 30
0.0
 10
87.022
 20
60.5738
 30
0.0
 10
87.701
 20
63.0916
 30
0.0
 10
87.701
 20
63.0916
 30
0.0
 10
87.701
 20
63.0916
 30
0.0
 10
87.701
 20
63.0917
 30
0.0
 10
87.701
 20
63.0917
 30
0.0
  0
SPLINE
  5
7F
330
1F
100
AcDbEntity
  8
layer 1
 62
     7
100
AcDbSpline
210
0.0
220
0.0
230
1.0
 70
    11
 71
     3
 72
    40
 73
    36
 74
     0
 42
0.0000000001
 43
0.0000000001
 12
1.0
 22
0.0
 32
0.0
 13
1.0
 23
0.0
 33
0.0
 40
0.0
 40
0.0
 40
0.0
 40
0.0
 40
0.1
 40
0.1
 40
0.1
 40
0.1
 40
0.2
 40
0.2
 40
0.2
 40
0.2
 40
0.3
 40
0.3
 40
0.3
 40
0.3
 40
0.4
 40
0.4
 40
0.4
 40
0.4
 40
0.5
 40
0.5
 40
0.5
 40
0.5
 40
0.6
 40
0.6
 40
0.6
 40
0.6
 40
0.7
 40
0.7
 40
0.7
 40
0.7
 40
0.8
 40
0.8
 40
0.8
 40
0.8
 40
1.0
 40
1.0
 40
1.0
 40
1.0
 10
95.3791
 20
56.8015
 30
0.0
 10
97.899
 20
57.4725
 30
0.0
 10
101.0272
 20
57.9996
 30
0.0
 10
103.4753
 20
58.755
 30
0.0
 10
103.4753
 20
58.755
 30
0.0
 10
105.6343
 20
59.4212
 30
0.0
 10
107.2279
 20
60.3281
 30
0.0
 10
107.9263
 20
60.7721
 30
0.0
 10
107.9263
 20
60.7721
 30
0.0
 10
110.8021
 20
62.6002
 30
0.0
 10
111.5178
 20
65.5903
 30
0.0
 10
110.3968
 20
67.5596
 30
0.0
 10
110.3968
 20
67.5596
 30
0.0
 10
109.0297
 20
70.0804
 30
0.0
 10
105.4267
 20
70.2118
 30
0.0
 10
103.3868
 20
68.9579
 30
0.0
 10
103.3868
 20
68.9579
 30
0.0
 10
102.2959
 20
68.3057
 30
0.0
 10
100.7588
 20
67.3589
 30
0.0
 10
99.3659
 20
66.0741
 30
0.0
 10
99.3659
 20
66.0741
 30
0.0
 10
97.3782
 20
64.2406
 30
0.0
 10
95.4469
 20
61.8574
 30
0.0
 10
93.5011
 20
59.8415
 30
0.0
 10
93.5011
 20
59.8415
 30
0.0
 10
91.8979
 20
58.1846
 30
0.0
 10
90.3515
 20
56.6786
 30
0.0
 10
88.6682
 20
55.0146
 30
0.0
 10
88.6682
 20
55.0146
 30
0.0
 10
88.6682
 20
55.0146
 30
0.0
 10
92.8592
 20
56.1305
 30
0.0
 10
95.3791
 20
56.8015
 30
0.0
 10
95.3791
 20
56.8015
 30
0.0
 10
95.3791
 20
56.8015
 30
0.0
 10
95.3791
 20
56.8015
 30
0.0
 10
95.3791
 20
56.8015
 30
0.0
  0
SPLINE
  5
80
330
1F
100
AcDbEntity
  8
layer 1
 62
     7
100
AcDbSpline
210
0.0
220
0.0
230
1.0
 70
    11
 71
     3
 72
    40
 73
    36
 74
     0
 42
0.0000000001
 43
0.0000000001
 12
1.0
 22
0.0
 32
0.0
 13
1.0
 23
0.0
 33
0.0
 40
0.0
 40
0.0
 40
0.0
 40
0.0
 40
0.1
 40
0.1
 40
0.1
 40
0.1
 40
0.2
 40
0.2
 40
0.2
 40
0.2
 40
0.3
 40
0.3
 40
0.3
 40
0.3
 40
0.4
 40
0.4
 40
0.4
 40
0.4
 40
0.5
 40
0.5
 40
0.5
 40
0.5
 40
0.6
 40
0.6
 40
0.6
 40
0.6
 40
0.7
 40
0.7
 40
0.7
 40
0.7
 40
0.8
 40
0.8
 40
0.8
 40
0.8
 40
1.0
 40
1.0
 40
1.0
 40
1.0
 10
93.4985
 20
47.1284
 30
0.0
 10
95.3396
 20
45.2816
 30
0.0
 10
97.3601
 20
42.836
 30
0.0
 10
99.2384
 20
41.0935
 30
0.0
 10
99.2384
 20
41.0935
 30
0.0
 10
100.8948
 20
39.5569
 30
0.0
 10
102.477
 20
38.6302
 30
0.0
 10
103.2108
 20
38.2473
 30
0.0
 10
103.2108
 20
38.2473
 30
0.0
 10
106.232
 20
36.6709
 30
0.0
 10
109.1792
 20
37.5462
 30
0.0
 10
110.3242
 20
39.5016
 30
0.0
 10
110.3242
 20
39.5016
 30
0.0
 10
111.8237
 20
41.946
 30
0.0
 10
110.136
 20
45.132
 30
0.0
 10
108.0302
 20
46.2717
 30
0.0
 10
108.0302
 20
46.2717
 30
0.0
 10
106.9199
 20
46.8904
 30
0.0
 10
105.3313
 20
47.748
 30
0.0
 10
103.5223
 20
48.3119
 30
0.0
 10
103.5223
 20
48.3119
 30
0.0
 10
100.9406
 20
49.1166
 30
0.0
 10
97.9111
 20
49.5976
 30
0.0
 10
95.1923
 20
50.2747
 30
0.0
 10
95.1923
 20
50.2747
 30
0.0
 10
92.9558
 20
50.8346
 30
0.0
 10
90.8783
 20
51.4209
 30
0.0
 10
88.5956
 20
52.0466
 30
0.0
 10
88.5956
 20
52.0466
 30
0.0
 10
88.5956
 20
52.0466
 30
0.0
 10
91.6575
 20
48.9751
 30
0.0
 10
93.4986
 20
47.1283
 30
0.0
 10
93.4986
 20
47.1283
 30
0.0
 10
93.4986
 20
47.1283
 30
0.0
 10
93.4985
 20
47.1284
 30
0.0
 10
93.4985
 20
47.1284
 30
0.0
  0
SPLINE
  5
81
330
1F
100
AcDbEntity
  8
layer 1
 62
     7
100
AcDbSpline
210
0.0
220
0.0
230
1.0
 70
    11
 71
     3
 72
    28
 73
    24
 74
     0
 42
0.0000000001
 43
0.0000000001
 12
1.0
 22
0.0
 32
0.0
 13
1.0
 23
0.0
 33
0.0
 40
0.0
 40
0.0
 40
0.0
 40
0.0
 40
0.1428571428571428
 40
0.1428571428571428
 40
0.1428571428571428
 40
0.1428571428571428
 40
0.2857142857142857
 40
0.2857142857142857
 40
0.2857142857142857
 40
0.2857142857142857
 40
0.4285714285714285
 40
0.4285714285714285
 40
0.4285714285714285
 40
0.4285714285714285
 40
0.5714285714285714
 40
0.5714285714285714
 40
0.5714285714285714
 40
0.5714285714285714
 40
0.7142857142857143
 40
0.7142857142857143
 40
0.7142857142857143
 40
0.7142857142857143
 40
1.0
 40
1.0
 40
1.0
 40
1.0
 10
87.701
 20
43.8382
 30
0.0
 10
88.3798
 20
41.3204
 30
0.0
 10
89.4875
 20
38.3478
 30
0.0
 10
90.0573
 20
35.8499
 30
0.0
 10
90.0573
 20
35.8499
 30
0.0
 10
90.5599
 20
33.6471
 30
0.0
 10
90.5713
 20
31.8136
 30
0.0
 10
90.536
 20
30.9867
 30
0.0
 10
90.536
 20
30.9867
 30
0.0
 10
90.3906
 20
27.5822
 30
0.0
 10
88.1589
 20
25.4673
 30
0.0
 10
85.893
 20
25.4535
 30
0.0
 10
85.893
 20
25.4535
 30
0.0
 10
85.893
 20
25.4535
 30
0.0
 10
85.893
 20
50.5436
 30
0.0
 10
85.893
 20
50.5436
 30
0.0
 10
85.893
 20
50.5436
 30
0.0
 10
85.893
 20
50.5436
 30
0.0
 10
87.022
 20
46.3561
 30
0.0
 10
87.701
 20
43.8383
 30
0.0
 10
87.701
 20
43.8383
 30
0.0
 10
87.701
 20
43.8383
 30
0.0
 10
87.701
 20
43.8382
 30
0.0
 10
87.701
 20
43.8382
 30
0.0
  0
ENDSEC
  0
SECTION
  2
OBJECTS
  0
DICTIONARY
  5
C
330
0
100
AcDbDictionary
281
     1
  3
ACAD_GROUP
350
D
  3
ACAD_LAYOUT
350
1A
  3
ACAD_MATERIAL
350
3B
  3
ACAD_MLEADERSTYLE
350
A4
  3
ACAD_MLINESTYLE
350
17
  3
ACAD_PLOTSETTINGS
350
19
  3
ACAD_PLOTSTYLENAME
350
E
  3
ACAD_TABLESTYLE
350
A3
  3
ACAD_VISUALSTYLE
350
2A
  0
DICTIONARY
  5
D
102
{ACAD_REACTORS
330
C
102
}
330
C
100
AcDbDictionary
281
     1
  0
DICTIONARY
  5
1A
102
{ACAD_REACTORS
330
C
102
}
330
C
100
AcDbDictionary
281
     1
  3
Layout1
350
1E
  3
Layout2
350
26
  3
Model
350
22
  0
DICTIONARY
  5
3B
102
{ACAD_REACTORS
330
C
102
}
330
C
100
AcDbDictionary
281
     1
  3
ByBlock
350
3D
  3
ByLayer
350
3C
  3
Global
350
3E
  0
DICTIONARY
  5
A4
102
{ACAD_REACTORS
330
C
102
}
330
C
100
AcDbDictionary
281
     1
  0
DICTIONARY
  5
17
102
{ACAD_REACTORS
330
C
102
}
330
C
100
AcDbDictionary
281
     1
  3
Standard
350
18
  0
DICTIONARY
  5
19
102
{ACAD_REACTORS
330
C
102
}
330
C
100
AcDbDictionary
281
     1
  0
ACDBDICTIONARYWDFLT
  5
E
102
{ACAD_REACTORS
330
C
102
}
330
C
100
AcDbDictionary
281
     1
  3
Normal
350
F
100
AcDbDictionaryWithDefault
340
F
  0
DICTIONARY
  5
A3
102
{ACAD_REACTORS
330
C
102
}
330
C
100
AcDbDictionary
281
     1
  0
DICTIONARY
  5
2A
102
{ACAD_REACTORS
330
C
102
}
330
C
100
AcDbDictionary
281
     1
  3
2dWireframe
350
2F
  3
3D Hidden
350
31
  3
3dWireframe
350
30
  3
Basic
350
32
  3
Brighten
350
36
  3
ColorChange
350
3A
  3
Conceptual
350
34
  3
Dim
350
35
  3
Facepattern
350
39
  3
Flat
350
2B
  3
FlatWithEdges
350
2C
  3
Gouraud
350
2D
  3
GouraudWithEdges
350
2E
  3
Linepattern
350
38
  3
Realistic
350
33
  3
Thicken
350
37
  0
LAYOUT
  5
1E
102
{ACAD_REACTORS
330
1A
102
}
330
1A
100
AcDbPlotSettings
  1

  2
none_device
  4

  6

 40
0.0
 41
0.0
 42
0.0
 43
0.0
 44
0.0
 45
0.0
 46
0.0
 47
0.0
 48
0.0
 49
0.0
140
0.0
141
0.0
142
1.0
143
1.0
 70
   688
 72
     0
 73
     0
 74
     5
  7

 75
    16
 76
     0
 77
     2
 78
   300
147
1.0
148
0.0
149
0.0
100
AcDbLayout
  1
Layout1
 70
     1
 71
     1
 10
0.0
 20
0.0
 11
12.0
 21
9.0
 12
0.0
 22
0.0
 32
0.0
 14
1.000000000000000E+20
 24
1.000000000000000E+20
 34
1.000000000000000E+20
 15
-1.000000000000000E+20
 25
-1.000000000000000E+20
 35
-1.000000000000000E+20
146
0.0
 13
0.0
 23
0.0
 33
0.0
 16
1.0
 26
0.0
 36
0.0
 17
0.0
 27
1.0
 37
0.0
 76
     0
330
1B
  0
LAYOUT
  5
26
102
{ACAD_REACTORS
330
1A
102
}
330
1A
100
AcDbPlotSettings
  1

  2
none_device
  4

  6

 40
0.0
 41
0.0
 42
0.0
 43
0.0
 44
0.0
 45
0.0
 46
0.0
 47
0.0
 48
0.0
 49
0.0
140
0.0
141
0.0
142
1.0
143
1.0
 70
   688
 72
     0
 73
     0
 74
     5
  7

 75
    16
 76
     0
 77
     2
 78
   300
147
1.0
148
0.0
149
0.0
100
AcDbLayout
  1
Layout2
 70
     1
 71
     2
 10
0.0
 20
0.0
 11
0.0
 21
0.0
 12
0.0
 22
0.0
 32
0.0
 14
0.0
 24
0.0
 34
0.0
 15
0.0
 25
0.0
 35
0.0
146
0.0
 13
0.0
 23
0.0
 33
0.0
 16
1.0
 26
0.0
 36
0.0
 17
0.0
 27
1.0
 37
0.0
 76
     0
330
23
  0
LAYOUT
  5
22
102
{ACAD_REACTORS
330
1A
102
}
330
1A
100
AcDbPlotSettings
  1

  2
none_device
  4

  6

 40
0.0
 41
0.0
 42
0.0
 43
0.0
 44
0.0
 45
0.0
 46
0.0
 47
0.0
 48
0.0
 49
0.0
140
0.0
141
0.0
142
1.0
143
1.0
 70
  1712
 72
     0
 73
     0
 74
     0
  7

 75
     0
 76
     0
 77
     2
 78
   300
147
1.0
148
0.0
149
0.0
100
AcDbLayout
  1
Model
 70
     1
 71
     0
 10
0.0
 20
0.0
 11
12.0
 21
9.0
 12
0.0
 22
0.0
 32
0.0
 14
79.8608
 24
-115.0892
 34
0.0
 15
195.8009
 25
131.7202
 35
0.0
146
0.0
 13
0.0
 23
0.0
 33
0.0
 16
1.0
 26
0.0
 36
0.0
 17
0.0
 27
1.0
 37
0.0
 76
     0
330
1F
331
29
  0
MATERIAL
  5
3D
102
{ACAD_REACTORS
330
3B
102
}
330
3B
100
AcDbMaterial
  1
ByBlock
 72
     1
 94
      127
  0
MATERIAL
  5
3C
102
{ACAD_REACTORS
330
3B
102
}
330
3B
100
AcDbMaterial
  1
ByLayer
 72
     1
 94
      127
  0
MATERIAL
  5
3E
102
{ACAD_REACTORS
330
3B
102
}
330
3B
100
AcDbMaterial
  1
Global
 72
     1
 94
      127
  0
MLINESTYLE
  5
18
102
{ACAD_REACTORS
330
17
102
}
330
17
100
AcDbMlineStyle
  2
Standard
 70
     0
  3

 62
   256
 51
90.0
 52
90.0
 71
     2
 49
0.5
 62
   256
  6
BYLAYER
 49
-0.5
 62
   256
  6
BYLAYER
  0
ACDBPLACEHOLDER
  5
F
102
{ACAD_REACTORS
330
E
102
}
330
E
  0
VISUALSTYLE
  5
2F
102
{ACAD_REACTORS
330
2A
102
}
102
{ACAD_XDICTIONARY
360
8B
102
}
330
2A
100
AcDbVisualStyle
  2
2dWireframe
 70
     4
 71
     0
 72
     2
 73
     0
 90
        0
 40
-0.6
 41
-30.0
 62
     5
 63
     7
421
 16777215
 74
     1
 91
        4
 64
     7
 65
   257
 75
     1
175
     1
 42
1.0
 92
        0
 66
   257
 43
1.0
 76
     1
 77
     6
 78
     2
 67
     7
 79
     5
170
     0
171
     0
290
     0
174
     0
 93
        1
 44
0.0
173
     0
291
     0
 45
0.0
  0
VISUALSTYLE
  5
31
102
{ACAD_REACTORS
330
2A
102
}
102
{ACAD_XDICTIONARY
360
8F
102
}
330
2A
100
AcDbVisualStyle
  2
3D Hidden
 70
     6
 71
     1
 72
     2
 73
     2
 90
        0
 40
-0.6
 41
-30.0
 62
     5
 63
     7
421
 16777215
 74
     2
 91
        2
 64
     7
 65
   257
 75
     2
175
     1
 42
40.0
 92
        0
 66
   257
 43
1.0
 76
     1
 77
     6
 78
     2
 67
     7
 79
     3
170
     0
171
     0
290
     0
174
     0
 93
        1
 44
0.0
173
     0
291
     0
 45
0.0
  0
VISUALSTYLE
  5
30
102
{ACAD_REACTORS
330
2A
102
}
102
{ACAD_XDICTIONARY
360
8D
102
}
330
2A
100
AcDbVisualStyle
  2
3dWireframe
 70
     5
 71
     0
 72
     2
 73
     0
 90
        0
 40
-0.6
 41
-30.0
 62
     5
 63
     7
421
 16777215
 74
     1
 91
        4
 64
     7
 65
   257
 75
     1
175
     1
 42
1.0
 92
        0
 66
   257
 43
1.0
 76
     1
 77
     6
 78
     2
 67
     7
 79
     5
170
     0
171
     0
290
     0
174
     0
 93
        1
 44
0.0
173
     0
291
     0
 45
0.0
  0
VISUALSTYLE
  5
32
102
{ACAD_REACTORS
330
2A
102
}
102
{ACAD_XDICTIONARY
360
91
102
}
330
2A
100
AcDbVisualStyle
  2
Basic
 70
     7
 71
     1
 72
     0
 73
     1
 90
        0
 40
-0.6
 41
-30.0
 62
     5
 63
     7
421
 16777215
 74
     0
 91
        4
 64
     7
 65
   257
 75
     1
175
     1
 42
1.0
 92
        8
 66
     7
 43
1.0
 76
     1
 77
     6
 78
     2
 67
     7
 79
     5
170
     0
171
     0
290
     0
174
     0
 93
        1
 44
0.0
173
     0
291
     1
 45
0.0
  0
VISUALSTYLE
  5
36
102
{ACAD_REACTORS
330
2A
102
}
102
{ACAD_XDICTIONARY
360
99
102
}
330
2A
100
AcDbVisualStyle
  2
Brighten
 70
    12
 71
     2
 72
     2
 73
     0
 90
        0
 40
-0.6
 41
-30.0
 62
     5
 63
     7
421
 16777215
 74
     1
 91
        4
 64
     7
 65
   257
 75
     1
175
     1
 42
1.0
 92
        8
 66
     7
 43
1.0
 76
     1
 77
     6
 78
     2
 67
     7
 79
     5
170
     0
171
     0
290
     0
174
     0
 93
        1
 44
50.0
173
     0
291
     1
 45
0.0
  0
VISUALSTYLE
  5
3A
102
{ACAD_REACTORS
330
2A
102
}
102
{ACAD_XDICTIONARY
360
A1
102
}
330
2A
100
AcDbVisualStyle
  2
ColorChange
 70
    16
 71
     2
 72
     2
 73
     3
 90
        0
 40
-0.6
 41
-30.0
 62
     5
 63
     8
421
  8421504
 74
     1
 91
        4
 64
     7
 65
   257
 75
     1
175
     1
 42
1.0
 92
        8
 66
     8
424
  8421504
 43
1.0
 76
     1
 77
     6
 78
     2
 67
     7
 79
     5
170
     0
171
     0
290
     0
174
     0
 93
        1
 44
0.0
173
     0
291
     1
 45
0.0
  0
VISUALSTYLE
  5
34
102
{ACAD_REACTORS
330
2A
102
}
102
{ACAD_XDICTIONARY
360
95
102
}
330
2A
100
AcDbVisualStyle
  2
Conceptual
 70
     9
 71
     3
 72
     2
 73
     0
 90
        0
 40
-0.6
 41
-30.0
 62
     5
 63
     7
421
 16777215
 74
     2
 91
        2
 64
     7
 65
   257
 75
     1
175
     1
 42
40.0
 92
        8
 66
     7
 43
1.0
 76
     1
 77
     6
 78
     2
 67
     7
 79
     3
170
     0
171
     0
290
     0
174
     0
 93
        1
 44
0.0
173
     0
291
     0
 45
0.0
  0
VISUALSTYLE
  5
35
102
{ACAD_REACTORS
330
2A
102
}
102
{ACAD_XDICTIONARY
360
97
102
}
330
2A
100
AcDbVisualStyle
  2
Dim
 70
    11
 71
     2
 72
     2
 73
     0
 90
        0
 40
-0.6
 41
-30.0
 62
     5
 63
     7
421
 16777215
 74
     1
 91
        4
 64
     7
 65
   257
 75
     1
175
     1
 42
1.0
 92
        8
 66
     7
 43
1.0
 76
     1
 77
     6
 78
     2
 67
     7
 79
     5
170
     0
171
     0
290
     0
174
     0
 93
        1
 44
-50.0
173
     0
291
     1
 45
0.0
  0
VISUALSTYLE
  5
39
102
{ACAD_REACTORS
330
2A
102
}
102
{ACAD_XDICTIONARY
360
9F
102
}
330
2A
100
AcDbVisualStyle
  2
Facepattern
 70
    15
 71
     2
 72
     2
 73
     0
 90
        0
 40
-0.6
 41
-30.0
 62
     5
 63
     7
421
 16777215
 74
     1
 91
        4
 64
     7
 65
   257
 75
     1
175
     1
 42
1.0
 92
        8
 66
     7
 43
1.0
 76
     1
 77
     6
 78
     2
 67
     7
 79
     5
170
     0
171
     0
290
     0
174
     0
 93
        1
 44
0.0
173
     0
291
     1
 45
0.0
  0
VISUALSTYLE
  5
2B
102
{ACAD_REACTORS
330
2A
102
}
102
{ACAD_XDICTIONARY
360
83
102
}
330
2A
100
AcDbVisualStyle
  2
Flat
 70
     0
 71
     2
 72
     1
 73
     1
 90
        2
 40
-0.6
 41
30.0
 62
     5
 63
     7
421
 16777215
 74
     0
 91
        4
 64
     7
 65
   257
 75
     1
175
     1
 42
1.0
 92
        8
 66
     7
 43
1.0
 76
     1
 77
     6
 78
     2
 67
     7
 79
     5
170
     0
171
     0
290
     0
174
     0
 93
       13
 44
0.0
173
     0
291
     1
 45
0.0
  0
VISUALSTYLE
  5
2C
102
{ACAD_REACTORS
330
2A
102
}
102
{ACAD_XDICTIONARY
360
85
102
}
330
2A
100
AcDbVisualStyle
  2
FlatWithEdges
 70
     1
 71
     2
 72
     1
 73
     1
 90
        2
 40
-0.6
 41
30.0
 62
     5
 63
     7
421
 16777215
 74
     1
 91
        4
 64
     7
 65
   257
 75
     1
175
     1
 42
1.0
 92
        0
 66
   257
 43
1.0
 76
     1
 77
     6
 78
     2
 67
     7
 79
     5
170
     0
171
     0
290
     0
174
     0
 93
       13
 44
0.0
173
     0
291
     1
 45
0.0
  0
VISUALSTYLE
  5
2D
102
{ACAD_REACTORS
330
2A
102
}
102
{ACAD_XDICTIONARY
360
87
102
}
330
2A
100
AcDbVisualStyle
  2
Gouraud
 70
     2
 71
     2
 72
     2
 73
     1
 90
        2
 40
-0.6
 41
30.0
 62
     5
 63
     7
421
 16777215
 74
     0
 91
        4
 64
     7
 65
   257
 75
     1
175
     1
 42
1.0
 92
        0
 66
     7
 43
1.0
 76
     1
 77
     6
 78
     2
 67
     7
 79
     5
170
     0
171
     0
290
     0
174
     0
 93
       13
 44
0.0
173
     0
291
     1
 45
0.0
  0
VISUALSTYLE
  5
2E
102
{ACAD_REACTORS
330
2A
102
}
102
{ACAD_XDICTIONARY
360
89
102
}
330
2A
100
AcDbVisualStyle
  2
GouraudWithEdges
 70
     3
 71
     2
 72
     2
 73
     1
 90
        2
 40
-0.6
 41
30.0
 62
     5
 63
     7
421
 16777215
 74
     1
 91
        4
 64
     7
 65
   257
 75
     1
175
     1
 42
1.0
 92
        0
 66
   257
 43
1.0
 76
     1
 77
     6
 78
     2
 67
     7
 79
     5
170
     0
171
     0
290
     0
174
     0
 93
       13
 44
0.0
173
     0
291
     1
 45
0.0
  0
VISUALSTYLE
  5
38
102
{ACAD_REACTORS
330
2A
102
}
102
{ACAD_XDICTIONARY
360
9D
102
}
330
2A
100
AcDbVisualStyle
  2
Linepattern
 70
    14
 71
     2
 72
     2
 73
     0
 90
        0
 40
-0.6
 41
-30.0
 62
     5
 63
     7
421
 16777215
 74
     1
 91
        4
 64
     7
 65
   257
 75
     7
175
     7
 42
1.0
 92
        8
 66
     7
 43
1.0
 76
     1
 77
     6
 78
     2
 67
     7
 79
     5
170
     0
171
     0
290
     0
174
     0
 93
        1
 44
0.0
173
     0
291
     1
 45
0.0
  0
VISUALSTYLE
  5
33
102
{ACAD_REACTORS
330
2A
102
}
102
{ACAD_XDICTIONARY
360
93
102
}
330
2A
100
AcDbVisualStyle
  2
Realistic
 70
     8
 71
     2
 72
     2
 73
     0
 90
        0
 40
-0.6
 41
-30.0
 62
     5
 63
     7
421
 16777215
 74
     1
 91
        0
 64
     7
 65
   257
 75
     1
175
     1
 42
1.0
 92
        8
 66
     8
424
  7895160
 43
1.0
 76
     1
 77
     6
 78
     2
 67
     7
 79
     5
170
     0
171
     0
290
     0
174
     0
 93
       13
 44
0.0
173
     0
291
     0
 45
0.0
  0
VISUALSTYLE
  5
37
102
{ACAD_REACTORS
330
2A
102
}
102
{ACAD_XDICTIONARY
360
9B
102
}
330
2A
100
AcDbVisualStyle
  2
Thicken
 70
    13
 71
     2
 72
     2
 73
     0
 90
        0
 40
-0.6
 41
-30.0
 62
     5
 63
     7
421
 16777215
 74
     1
 91
        4
 64
     7
 65
   257
 75
     1
175
     1
 42
1.0
 92
       12
 66
     7
 43
1.0
 76
     1
 77
     6
 78
     2
 67
     7
 79
     5
170
     0
171
     0
290
     0
174
     0
 93
        1
 44
0.0
173
     0
291
     1
 45
0.0
  0
DICTIONARY
  5
8B
330
2F
100
AcDbDictionary
280
     1
281
     1
  3
ACAD_XREC_ROUNDTRIP
360
8C
  0
DICTIONARY
  5
8F
330
31
100
AcDbDictionary
280
     1
281
     1
  3
ACAD_XREC_ROUNDTRIP
360
90
  0
DICTIONARY
  5
8D
330
30
100
AcDbDictionary
280
     1
281
     1
  3
ACAD_XREC_ROUNDTRIP
360
8E
  0
DICTIONARY
  5
91
330
32
100
AcDbDictionary
280
     1
281
     1
  3
ACAD_XREC_ROUNDTRIP
360
92
  0
DICTIONARY
  5
99
330
36
100
AcDbDictionary
280
     1
281
     1
  3
ACAD_XREC_ROUNDTRIP
360
9A
  0
DICTIONARY
  5
A1
330
3A
100
AcDbDictionary
280
     1
281
     1
  3
ACAD_XREC_ROUNDTRIP
360
A2
  0
DICTIONARY
  5
95
330
34
100
AcDbDictionary
280
     1
281
     1
  3
ACAD_XREC_ROUNDTRIP
360
96
  0
DICTIONARY
  5
97
330
35
100
AcDbDictionary
280
     1
281
     1
  3
ACAD_XREC_ROUNDTRIP
360
98
  0
DICTIONARY
  5
9F
330
39
100
AcDbDictionary
280
     1
281
     1
  3
ACAD_XREC_ROUNDTRIP
360
A0
  0
DICTIONARY
  5
83
330
2B
100
AcDbDictionary
280
     1
281
     1
  3
ACAD_XREC_ROUNDTRIP
360
84
  0
DICTIONARY
  5
85
330
2C
100
AcDbDictionary
280
     1
281
     1
  3
ACAD_XREC_ROUNDTRIP
360
86
  0
DICTIONARY
  5
87
330
2D
100
AcDbDictionary
280
     1
281
     1
  3
ACAD_XREC_ROUNDTRIP
360
88
  0
DICTIONARY
  5
89
330
2E
100
AcDbDictionary
280
     1
281
     1
  3
ACAD_XREC_ROUNDTRIP
360
8A
  0
DICTIONARY
  5
9D
330
38
100
AcDbDictionary
280
     1
281
     1
  3
ACAD_XREC_ROUNDTRIP
360
9E
  0
DICTIONARY
  5
93
330
33
100
AcDbDictionary
280
     1
281
     1
  3
ACAD_XREC_ROUNDTRIP
360
94
  0
DICTIONARY
  5
9B
330
37
100
AcDbDictionary
280
     1
281
     1
  3
ACAD_XREC_ROUNDTRIP
360
9C
  0
XRECORD
  5
8C
102
{ACAD_REACTORS
330
8B
102
}
330
8B
100
AcDbXrecord
280
     1
102
RTVSPropertyOp0
 70
     1
102
RTVSPropertyOp1
 70
     1
102
RTVSPropertyOp2
 70
     1
102
RTVSPropertyOp3
 70
     1
102
RTVSPropertyOp4
 70
     1
102
RTVSPropertyOp5
 70
     1
102
RTVSPropertyOp6
 70
     1
102
RTVSPropertyOp7
 70
     1
102
RTVSPropertyOp8
 70
     1
102
RTVSPropertyOp9
 70
     1
102
RTVSPropertyOp10
 70
     1
102
RTVSPropertyOp11
 70
     1
102
RTVSPropertyOp12
 70
     1
102
RTVSPropertyOp13
 70
     1
102
RTVSPropertyOp14
 70
     1
102
RTVSPropertyOp15
 70
     1
102
RTVSPropertyOp16
 70
     1
102
RTVSPropertyOp17
 70
     1
102
RTVSPropertyOp18
 70
     1
102
RTVSPropertyOp19
 70
     1
102
RTVSPropertyOp20
 70
     1
102
RTVSPropertyOp21
 70
     1
102
RTVSPropertyOp22
 70
     1
102
RTVSPropertyOp23
 70
     1
102
RTVSPropertyOp24
 70
     1
102
RTVSPropertyOp25
 70
     1
102
RTVSPropertyOp26
 70
     1
102
RTVSPropertyOp27
 70
     1
102
RTVSPropertyOp28
 70
     1
102
RTVSPropertyOp29
 70
     1
102
RTVSPropertyOp30
 70
     1
102
RTVSPropertyOp31
 70
     1
102
RTVSPropertyOp32
 70
     1
  0
XRECORD
  5
90
102
{ACAD_REACTORS
330
8F
102
}
330
8F
100
AcDbXrecord
280
     1
102
RTVSPropertyOp0
 70
     1
102
RTVSPropertyOp1
 70
     1
102
RTVSPropertyOp2
 70
     1
102
RTVSPropertyOp3
 70
     1
102
RTVSPropertyOp4
 70
     1
102
RTVSPropertyOp5
 70
     1
102
RTVSPropertyOp6
 70
     1
102
RTVSPropertyOp7
 70
     1
102
RTVSPropertyOp8
 70
     1
102
RTVSPropertyOp9
 70
     1
102
RTVSPropertyOp10
 70
     1
102
RTVSPropertyOp11
 70
     1
102
RTVSPropertyOp12
 70
     1
102
RTVSPropertyOp13
 70
     1
102
RTVSPropertyOp14
 70
     1
102
RTVSPropertyOp15
 70
     1
102
RTVSPropertyOp16
 70
     1
102
RTVSPropertyOp17
 70
     1
102
RTVSPropertyOp18
 70
     1
102
RTVSPropertyOp19
 70
     1
102
RTVSPropertyOp20
 70
     1
102
RTVSPropertyOp21
 70
     1
102
RTVSPropertyOp22
 70
     1
102
RTVSPropertyOp23
 70
     1
102
RTVSPropertyOp24
 70
     1
102
RTVSPropertyOp25
 70
     1
102
RTVSPropertyOp26
 70
     1
102
RTVSPropertyOp27
 70
     1
102
RTVSPropertyOp28
 70
     1
102
RTVSPropertyOp29
 70
     1
102
RTVSPropertyOp30
 70
     1
102
RTVSPropertyOp31
 70
     1
102
RTVSPropertyOp32
 70
     1
  0
XRECORD
  5
8E
102
{ACAD_REACTORS
330
8D
102
}
330
8D
100
AcDbXrecord
280
     1
102
RTVSPropertyOp0
 70
     1
102
RTVSPropertyOp1
 70
     1
102
RTVSPropertyOp2
 70
     1
102
RTVSPropertyOp3
 70
     1
102
RTVSPropertyOp4
 70
     1
102
RTVSPropertyOp5
 70
     1
102
RTVSPropertyOp6
 70
     1
102
RTVSPropertyOp7
 70
     1
102
RTVSPropertyOp8
 70
     1
102
RTVSPropertyOp9
 70
     1
102
RTVSPropertyOp10
 70
     1
102
RTVSPropertyOp11
 70
     1
102
RTVSPropertyOp12
 70
     1
102
RTVSPropertyOp13
 70
     1
102
RTVSPropertyOp14
 70
     1
102
RTVSPropertyOp15
 70
     1
102
RTVSPropertyOp16
 70
     1
102
RTVSPropertyOp17
 70
     1
102
RTVSPropertyOp18
 70
     1
102
RTVSPropertyOp19
 70
     1
102
RTVSPropertyOp20
 70
     1
102
RTVSPropertyOp21
 70
     1
102
RTVSPropertyOp22
 70
     1
102
RTVSPropertyOp23
 70
     1
102
RTVSPropertyOp24
 70
     1
102
RTVSPropertyOp25
 70
     1
102
RTVSPropertyOp26
 70
     1
102
RTVSPropertyOp27
 70
     1
102
RTVSPropertyOp28
 70
     1
102
RTVSPropertyOp29
 70
     1
102
RTVSPropertyOp30
 70
     1
102
RTVSPropertyOp31
 70
     1
102
RTVSPropertyOp32
 70
     1
  0
XRECORD
  5
92
102
{ACAD_REACTORS
330
91
102
}
330
91
100
AcDbXrecord
280
     1
102
RTVSPropertyOp0
 70
     1
102
RTVSPropertyOp1
 70
     1
102
RTVSPropertyOp2
 70
     1
102
RTVSPropertyOp3
 70
     1
102
RTVSPropertyOp4
 70
     1
102
RTVSPropertyOp5
 70
     1
102
RTVSPropertyOp6
 70
     1
102
RTVSPropertyOp7
 70
     1
102
RTVSPropertyOp8
 70
     1
102
RTVSPropertyOp9
 70
     1
102
RTVSPropertyOp10
 70
     1
102
RTVSPropertyOp11
 70
     1
102
RTVSPropertyOp12
 70
     1
102
RTVSPropertyOp13
 70
     1
102
RTVSPropertyOp14
 70
     1
102
RTVSPropertyOp15
 70
     1
102
RTVSPropertyOp16
 70
     1
102
RTVSPropertyOp17
 70
     1
102
RTVSPropertyOp18
 70
     1
102
RTVSPropertyOp19
 70
     1
102
RTVSPropertyOp20
 70
     1
102
RTVSPropertyOp21
 70
     1
102
RTVSPropertyOp22
 70
     1
102
RTVSPropertyOp23
 70
     1
102
RTVSPropertyOp24
 70
     1
102
RTVSPropertyOp25
 70
     1
102
RTVSPropertyOp26
 70
     1
102
RTVSPropertyOp27
 70
     1
102
RTVSPropertyOp28
 70
     1
102
RTVSPropertyOp29
 70
     1
102
RTVSPropertyOp30
 70
     1
102
RTVSPropertyOp31
 70
     1
102
RTVSPropertyOp32
 70
     1
  0
XRECORD
  5
9A
102
{ACAD_REACTORS
330
99
102
}
330
99
100
AcDbXrecord
280
     1
102
RTVSPropertyOp0
 70
     1
102
RTVSPropertyOp1
 70
     1
102
RTVSPropertyOp2
 70
     1
102
RTVSPropertyOp3
 70
     1
102
RTVSPropertyOp4
 70
     1
102
RTVSPropertyOp5
 70
     1
102
RTVSPropertyOp6
 70
     1
102
RTVSPropertyOp7
 70
     1
102
RTVSPropertyOp8
 70
     1
102
RTVSPropertyOp9
 70
     1
102
RTVSPropertyOp10
 70
     1
102
RTVSPropertyOp11
 70
     1
102
RTVSPropertyOp12
 70
     1
102
RTVSPropertyOp13
 70
     1
102
RTVSPropertyOp14
 70
     1
102
RTVSPropertyOp15
 70
     1
102
RTVSPropertyOp16
 70
     1
102
RTVSPropertyOp17
 70
     1
102
RTVSPropertyOp18
 70
     1
102
RTVSPropertyOp19
 70
     1
102
RTVSPropertyOp20
 70
     1
102
RTVSPropertyOp21
 70
     1
102
RTVSPropertyOp22
 70
     1
102
RTVSPropertyOp23
 70
     1
102
RTVSPropertyOp24
 70
     1
102
RTVSPropertyOp25
 70
     1
102
RTVSPropertyOp26
 70
     1
102
RTVSPropertyOp27
 70
     1
102
RTVSPropertyOp28
 70
     1
102
RTVSPropertyOp29
 70
     1
102
RTVSPropertyOp30
 70
     1
102
RTVSPropertyOp31
 70
     1
102
RTVSPropertyOp32
 70
     1
  0
XRECORD
  5
A2
102
{ACAD_REACTORS
330
A1
102
}
330
A1
100
AcDbXrecord
280
     1
102
RTVSPropertyOp0
 70
     1
102
RTVSPropertyOp1
 70
     1
102
RTVSPropertyOp2
 70
     1
102
RTVSPropertyOp3
 70
     1
102
RTVSPropertyOp4
 70
     1
102
RTVSPropertyOp5
 70
     1
102
RTVSPropertyOp6
 70
     1
102
RTVSPropertyOp7
 70
     1
102
RTVSPropertyOp8
 70
     1
102
RTVSPropertyOp9
 70
     1
102
RTVSPropertyOp10
 70
     1
102
RTVSPropertyOp11
 70
     1
102
RTVSPropertyOp12
 70
     1
102
RTVSPropertyOp13
 70
     1
102
RTVSPropertyOp14
 70
     1
102
RTVSPropertyOp15
 70
     1
102
RTVSPropertyOp16
 70
     1
102
RTVSPropertyOp17
 70
     1
102
RTVSPropertyOp18
 70
     1
102
RTVSPropertyOp19
 70
     1
102
RTVSPropertyOp20
 70
     1
102
RTVSPropertyOp21
 70
     1
102
RTVSPropertyOp22
 70
     1
102
RTVSPropertyOp23
 70
     1
102
RTVSPropertyOp24
 70
     1
102
RTVSPropertyOp25
 70
     1
102
RTVSPropertyOp26
 70
     1
102
RTVSPropertyOp27
 70
     1
102
RTVSPropertyOp28
 70
     1
102
RTVSPropertyOp29
 70
     1
102
RTVSPropertyOp30
 70
     1
102
RTVSPropertyOp31
 70
     1
102
RTVSPropertyOp32
 70
     1
  0
XRECORD
  5
96
102
{ACAD_REACTORS
330
95
102
}
330
95
100
AcDbXrecord
280
     1
102
RTVSPropertyOp0
 70
     1
102
RTVSPropertyOp1
 70
     1
102
RTVSPropertyOp2
 70
     1
102
RTVSPropertyOp3
 70
     1
102
RTVSPropertyOp4
 70
     1
102
RTVSPropertyOp5
 70
     1
102
RTVSPropertyOp6
 70
     1
102
RTVSPropertyOp7
 70
     1
102
RTVSPropertyOp8
 70
     1
102
RTVSPropertyOp9
 70
     1
102
RTVSPropertyOp10
 70
     1
102
RTVSPropertyOp11
 70
     1
102
RTVSPropertyOp12
 70
     1
102
RTVSPropertyOp13
 70
     1
102
RTVSPropertyOp14
 70
     1
102
RTVSPropertyOp15
 70
     1
102
RTVSPropertyOp16
 70
     1
102
RTVSPropertyOp17
 70
     1
102
RTVSPropertyOp18
 70
     1
102
RTVSPropertyOp19
 70
     1
102
RTVSPropertyOp20
 70
     1
102
RTVSPropertyOp21
 70
     1
102
RTVSPropertyOp22
 70
     1
102
RTVSPropertyOp23
 70
     1
102
RTVSPropertyOp24
 70
     1
102
RTVSPropertyOp25
 70
     1
102
RTVSPropertyOp26
 70
     1
102
RTVSPropertyOp27
 70
     1
102
RTVSPropertyOp28
 70
     1
102
RTVSPropertyOp29
 70
     1
102
RTVSPropertyOp30
 70
     1
102
RTVSPropertyOp31
 70
     1
102
RTVSPropertyOp32
 70
     1
  0
XRECORD
  5
98
102
{ACAD_REACTORS
330
97
102
}
330
97
100
AcDbXrecord
280
     1
102
RTVSPropertyOp0
 70
     1
102
RTVSPropertyOp1
 70
     1
102
RTVSPropertyOp2
 70
     1
102
RTVSPropertyOp3
 70
     1
102
RTVSPropertyOp4
 70
     1
102
RTVSPropertyOp5
 70
     1
102
RTVSPropertyOp6
 70
     1
102
RTVSPropertyOp7
 70
     1
102
RTVSPropertyOp8
 70
     1
102
RTVSPropertyOp9
 70
     1
102
RTVSPropertyOp10
 70
     1
102
RTVSPropertyOp11
 70
     1
102
RTVSPropertyOp12
 70
     1
102
RTVSPropertyOp13
 70
     1
102
RTVSPropertyOp14
 70
     1
102
RTVSPropertyOp15
 70
     1
102
RTVSPropertyOp16
 70
     1
102
RTVSPropertyOp17
 70
     1
102
RTVSPropertyOp18
 70
     1
102
RTVSPropertyOp19
 70
     1
102
RTVSPropertyOp20
 70
     1
102
RTVSPropertyOp21
 70
     1
102
RTVSPropertyOp22
 70
     1
102
RTVSPropertyOp23
 70
     1
102
RTVSPropertyOp24
 70
     1
102
RTVSPropertyOp25
 70
     1
102
RTVSPropertyOp26
 70
     1
102
RTVSPropertyOp27
 70
     1
102
RTVSPropertyOp28
 70
     1
102
RTVSPropertyOp29
 70
     1
102
RTVSPropertyOp30
 70
     1
102
RTVSPropertyOp31
 70
     1
102
RTVSPropertyOp32
 70
     1
  0
XRECORD
  5
A0
102
{ACAD_REACTORS
330
9F
102
}
330
9F
100
AcDbXrecord
280
     1
102
RTVSPropertyOp0
 70
     1
102
RTVSPropertyOp1
 70
     1
102
RTVSPropertyOp2
 70
     1
102
RTVSPropertyOp3
 70
     1
102
RTVSPropertyOp4
 70
     1
102
RTVSPropertyOp5
 70
     1
102
RTVSPropertyOp6
 70
     1
102
RTVSPropertyOp7
 70
     1
102
RTVSPropertyOp8
 70
     1
102
RTVSPropertyOp9
 70
     1
102
RTVSPropertyOp10
 70
     1
102
RTVSPropertyOp11
 70
     1
102
RTVSPropertyOp12
 70
     1
102
RTVSPropertyOp13
 70
     1
102
RTVSPropertyOp14
 70
     1
102
RTVSPropertyOp15
 70
     1
102
RTVSPropertyOp16
 70
     1
102
RTVSPropertyOp17
 70
     1
102
RTVSPropertyOp18
 70
     1
102
RTVSPropertyOp19
 70
     1
102
RTVSPropertyOp20
 70
     1
102
RTVSPropertyOp21
 70
     1
102
RTVSPropertyOp22
 70
     1
102
RTVSPropertyOp23
 70
     1
102
RTVSPropertyOp24
 70
     1
102
RTVSPropertyOp25
 70
     1
102
RTVSPropertyOp26
 70
     1
102
RTVSPropertyOp27
 70
     1
102
RTVSPropertyOp28
 70
     1
102
RTVSPropertyOp29
 70
     1
102
RTVSPropertyOp30
 70
     1
102
RTVSPropertyOp31
 70
     1
102
RTVSPropertyOp32
 70
     1
  0
XRECORD
  5
84
102
{ACAD_REACTORS
330
83
102
}
330
83
100
AcDbXrecord
280
     1
102
RTVSPropertyOp0
 70
     1
102
RTVSPropertyOp1
 70
     1
102
RTVSPropertyOp2
 70
     1
102
RTVSPropertyOp3
 70
     1
102
RTVSPropertyOp4
 70
     1
102
RTVSPropertyOp5
 70
     1
102
RTVSPropertyOp6
 70
     1
102
RTVSPropertyOp7
 70
     1
102
RTVSPropertyOp8
 70
     1
102
RTVSPropertyOp9
 70
     1
102
RTVSPropertyOp10
 70
     1
102
RTVSPropertyOp11
 70
     1
102
RTVSPropertyOp12
 70
     1
102
RTVSPropertyOp13
 70
     1
102
RTVSPropertyOp14
 70
     1
102
RTVSPropertyOp15
 70
     1
102
RTVSPropertyOp16
 70
     1
102
RTVSPropertyOp17
 70
     1
102
RTVSPropertyOp18
 70
     1
102
RTVSPropertyOp19
 70
     1
102
RTVSPropertyOp20
 70
     1
102
RTVSPropertyOp21
 70
     1
102
RTVSPropertyOp22
 70
     1
102
RTVSPropertyOp23
 70
     1
102
RTVSPropertyOp24
 70
     1
102
RTVSPropertyOp25
 70
     1
102
RTVSPropertyOp26
 70
     1
102
RTVSPropertyOp27
 70
     1
102
RTVSPropertyOp28
 70
     1
102
RTVSPropertyOp29
 70
     1
102
RTVSPropertyOp30
 70
     1
102
RTVSPropertyOp31
 70
     1
102
RTVSPropertyOp32
 70
     1
  0
XRECORD
  5
86
102
{ACAD_REACTORS
330
85
102
}
330
85
100
AcDbXrecord
280
     1
102
RTVSPropertyOp0
 70
     1
102
RTVSPropertyOp1
 70
     1
102
RTVSPropertyOp2
 70
     1
102
RTVSPropertyOp3
 70
     1
102
RTVSPropertyOp4
 70
     1
102
RTVSPropertyOp5
 70
     1
102
RTVSPropertyOp6
 70
     1
102
RTVSPropertyOp7
 70
     1
102
RTVSPropertyOp8
 70
     1
102
RTVSPropertyOp9
 70
     1
102
RTVSPropertyOp10
 70
     1
102
RTVSPropertyOp11
 70
     1
102
RTVSPropertyOp12
 70
     1
102
RTVSPropertyOp13
 70
     1
102
RTVSPropertyOp14
 70
     1
102
RTVSPropertyOp15
 70
     1
102
RTVSPropertyOp16
 70
     1
102
RTVSPropertyOp17
 70
     1
102
RTVSPropertyOp18
 70
     1
102
RTVSPropertyOp19
 70
     1
102
RTVSPropertyOp20
 70
     1
102
RTVSPropertyOp21
 70
     1
102
RTVSPropertyOp22
 70
     1
102
RTVSPropertyOp23
 70
     1
102
RTVSPropertyOp24
 70
     1
102
RTVSPropertyOp25
 70
     1
102
RTVSPropertyOp26
 70
     1
102
RTVSPropertyOp27
 70
     1
102
RTVSPropertyOp28
 70
     1
102
RTVSPropertyOp29
 70
     1
102
RTVSPropertyOp30
 70
     1
102
RTVSPropertyOp31
 70
     1
102
RTVSPropertyOp32
 70
     1
  0
XRECORD
  5
88
102
{ACAD_REACTORS
330
87
102
}
330
87
100
AcDbXrecord
280
     1
102
RTVSPropertyOp0
 70
     1
102
RTVSPropertyOp1
 70
     1
102
RTVSPropertyOp2
 70
     1
102
RTVSPropertyOp3
 70
     1
102
RTVSPropertyOp4
 70
     1
102
RTVSPropertyOp5
 70
     1
102
RTVSPropertyOp6
 70
     1
102
RTVSPropertyOp7
 70
     1
102
RTVSPropertyOp8
 70
     1
102
RTVSPropertyOp9
 70
     1
102
RTVSPropertyOp10
 70
     1
102
RTVSPropertyOp11
 70
     1
102
RTVSPropertyOp12
 70
     1
102
RTVSPropertyOp13
 70
     1
102
RTVSPropertyOp14
 70
     1
102
RTVSPropertyOp15
 70
     1
102
RTVSPropertyOp16
 70
     1
102
RTVSPropertyOp17
 70
     1
102
RTVSPropertyOp18
 70
     1
102
RTVSPropertyOp19
 70
     1
102
RTVSPropertyOp20
 70
     1
102
RTVSPropertyOp21
 70
     1
102
RTVSPropertyOp22
 70
     1
102
RTVSPropertyOp23
 70
     1
102
RTVSPropertyOp24
 70
     1
102
RTVSPropertyOp25
 70
     1
102
RTVSPropertyOp26
 70
     1
102
RTVSPropertyOp27
 70
     1
102
RTVSPropertyOp28
 70
     1
102
RTVSPropertyOp29
 70
     1
102
RTVSPropertyOp30
 70
     1
102
RTVSPropertyOp31
 70
     1
102
RTVSPropertyOp32
 70
     1
  0
XRECORD
  5
8A
102
{ACAD_REACTORS
330
89
102
}
330
89
100
AcDbXrecord
280
     1
102
RTVSPropertyOp0
 70
     1
102
RTVSPropertyOp1
 70
     1
102
RTVSPropertyOp2
 70
     1
102
RTVSPropertyOp3
 70
     1
102
RTVSPropertyOp4
 70
     1
102
RTVSPropertyOp5
 70
     1
102
RTVSPropertyOp6
 70
     1
102
RTVSPropertyOp7
 70
     1
102
RTVSPropertyOp8
 70
     1
102
RTVSPropertyOp9
 70
     1
102
RTVSPropertyOp10
 70
     1
102
RTVSPropertyOp11
 70
     1
102
RTVSPropertyOp12
 70
     1
102
RTVSPropertyOp13
 70
     1
102
RTVSPropertyOp14
 70
     1
102
RTVSPropertyOp15
 70
     1
102
RTVSPropertyOp16
 70
     1
102
RTVSPropertyOp17
 70
     1
102
RTVSPropertyOp18
 70
     1
102
RTVSPropertyOp19
 70
     1
102
RTVSPropertyOp20
 70
     1
102
RTVSPropertyOp21
 70
     1
102
RTVSPropertyOp22
 70
     1
102
RTVSPropertyOp23
 70
     1
102
RTVSPropertyOp24
 70
     1
102
RTVSPropertyOp25
 70
     1
102
RTVSPropertyOp26
 70
     1
102
RTVSPropertyOp27
 70
     1
102
RTVSPropertyOp28
 70
     1
102
RTVSPropertyOp29
 70
     1
102
RTVSPropertyOp30
 70
     1
102
RTVSPropertyOp31
 70
     1
102
RTVSPropertyOp32
 70
     1
  0
XRECORD
  5
9E
102
{ACAD_REACTORS
330
9D
102
}
330
9D
100
AcDbXrecord
280
     1
102
RTVSPropertyOp0
 70
     1
102
RTVSPropertyOp1
 70
     1
102
RTVSPropertyOp2
 70
     1
102
RTVSPropertyOp3
 70
     1
102
RTVSPropertyOp4
 70
     1
102
RTVSPropertyOp5
 70
     1
102
RTVSPropertyOp6
 70
     1
102
RTVSPropertyOp7
 70
     1
102
RTVSPropertyOp8
 70
     1
102
RTVSPropertyOp9
 70
     1
102
RTVSPropertyOp10
 70
     1
102
RTVSPropertyOp11
 70
     1
102
RTVSPropertyOp12
 70
     1
102
RTVSPropertyOp13
 70
     1
102
RTVSPropertyOp14
 70
     1
102
RTVSPropertyOp15
 70
     1
102
RTVSPropertyOp16
 70
     1
102
RTVSPropertyOp17
 70
     1
102
RTVSPropertyOp18
 70
     1
102
RTVSPropertyOp19
 70
     1
102
RTVSPropertyOp20
 70
     1
102
RTVSPropertyOp21
 70
     1
102
RTVSPropertyOp22
 70
     1
102
RTVSPropertyOp23
 70
     1
102
RTVSPropertyOp24
 70
     1
102
RTVSPropertyOp25
 70
     1
102
RTVSPropertyOp26
 70
     1
102
RTVSPropertyOp27
 70
     1
102
RTVSPropertyOp28
 70
     1
102
RTVSPropertyOp29
 70
     1
102
RTVSPropertyOp30
 70
     1
102
RTVSPropertyOp31
 70
     1
102
RTVSPropertyOp32
 70
     1
  0
XRECORD
  5
94
102
{ACAD_REACTORS
330
93
102
}
330
93
100
AcDbXrecord
280
     1
102
RTVSPropertyOp0
 70
     1
102
RTVSPropertyOp1
 70
     1
102
RTVSPropertyOp2
 70
     1
102
RTVSPropertyOp3
 70
     1
102
RTVSPropertyOp4
 70
     1
102
RTVSPropertyOp5
 70
     1
102
RTVSPropertyOp6
 70
     1
102
RTVSPropertyOp7
 70
     1
102
RTVSPropertyOp8
 70
     1
102
RTVSPropertyOp9
 70
     1
102
RTVSPropertyOp10
 70
     1
102
RTVSPropertyOp11
 70
     1
102
RTVSPropertyOp12
 70
     1
102
RTVSPropertyOp13
 70
     1
102
RTVSPropertyOp14
 70
     1
102
RTVSPropertyOp15
 70
     1
102
RTVSPropertyOp16
 70
     1
102
RTVSPropertyOp17
 70
     1
102
RTVSPropertyOp18
 70
     1
102
RTVSPropertyOp19
 70
     1
102
RTVSPropertyOp20
 70
     1
102
RTVSPropertyOp21
 70
     1
102
RTVSPropertyOp22
 70
     1
102
RTVSPropertyOp23
 70
     1
102
RTVSPropertyOp24
 70
     1
102
RTVSPropertyOp25
 70
     1
102
RTVSPropertyOp26
 70
     1
102
RTVSPropertyOp27
 70
     1
102
RTVSPropertyOp28
 70
     1
102
RTVSPropertyOp29
 70
     1
102
RTVSPropertyOp30
 70
     1
102
RTVSPropertyOp31
 70
     1
102
RTVSPropertyOp32
 70
     1
  0
XRECORD
  5
9C
102
{ACAD_REACTORS
330
9B
102
}
330
9B
100
AcDbXrecord
280
     1
102
RTVSPropertyOp0
 70
     1
102
RTVSPropertyOp1
 70
     1
102
RTVSPropertyOp2
 70
     1
102
RTVSPropertyOp3
 70
     1
102
RTVSPropertyOp4
 70
     1
102
RTVSPropertyOp5
 70
     1
102
RTVSPropertyOp6
 70
     1
102
RTVSPropertyOp7
 70
     1
102
RTVSPropertyOp8
 70
     1
102
RTVSPropertyOp9
 70
     1
102
RTVSPropertyOp10
 70
     1
102
RTVSPropertyOp11
 70
     1
102
RTVSPropertyOp12
 70
     1
102
RTVSPropertyOp13
 70
     1
102
RTVSPropertyOp14
 70
     1
102
RTVSPropertyOp15
 70
     1
102
RTVSPropertyOp16
 70
     1
102
RTVSPropertyOp17
 70
     1
102
RTVSPropertyOp18
 70
     1
102
RTVSPropertyOp19
 70
     1
102
RTVSPropertyOp20
 70
     1
102
RTVSPropertyOp21
 70
     1
102
RTVSPropertyOp22
 70
     1
102
RTVSPropertyOp23
 70
     1
102
RTVSPropertyOp24
 70
     1
102
RTVSPropertyOp25
 70
     1
102
RTVSPropertyOp26
 70
     1
102
RTVSPropertyOp27
 70
     1
102
RTVSPropertyOp28
 70
     1
102
RTVSPropertyOp29
 70
     1
102
RTVSPropertyOp30
 70
     1
102
RTVSPropertyOp31
 70
     1
102
RTVSPropertyOp32
 70
     1
  0
ENDSEC
  0
EOF
