  0
SECTION
  2
HEADER
  9
$ACADVER
  1
AC1021
  9
$ACADMAINTVER
 70
    25
  9
$DWGCODEPAGE
  3
ANSI_1252
  9
$INSBASE
 10
0.0
 20
0.0
 30
0.0
  9
$EXTMIN
 10
-187.8617
 20
-115.8454
 30
0.0
  9
$EXTMAX
 10
23.6023
 20
131.7294
 30
0.0
  9
$LIMMIN
 10
0.0
 20
0.0
  9
$LIMMAX
 10
12.0
 20
9.0
  9
$ORTHOMODE
 70
     0
  9
$REGENMODE
 70
     1
  9
$FILLMODE
 70
     1
  9
$QTEXTMODE
 70
     0
  9
$MIRRTEXT
 70
     1
  9
$LTSCALE
 40
1.0
  9
$ATTMODE
 70
     1
  9
$TEXTSIZE
 40
0.2
  9
$TRACEWID
 40
0.05
  9
$TEXTSTYLE
  7
Standard
  9
$CLAYER
  8
0
  9
$CELTYPE
  6
ByLayer
  9
$CECOLOR
 62
   256
  9
$CELTSCALE
 40
1.0
  9
$DISPSILH
 70
     0
  9
$DIMSCALE
 40
1.0
  9
$DIMASZ
 40
0.18
  9
$DIMEXO
 40
0.0625
  9
$DIMDLI
 40
0.38
  9
$DIMRND
 40
0.0
  9
$DIMDLE
 40
0.0
  9
$DIMEXE
 40
0.18
  9
$DIMTP
 40
0.0
  9
$DIMTM
 40
0.0
  9
$DIMTXT
 40
0.18
  9
$DIMCEN
 40
0.09
  9
$DIMTSZ
 40
0.0
  9
$DIMTOL
 70
     0
  9
$DIMLIM
 70
     0
  9
$DIMTIH
 70
     1
  9
$DIMTOH
 70
     1
  9
$DIMSE1
 70
     0
  9
$DIMSE2
 70
     0
  9
$DIMTAD
 70
     0
  9
$DIMZIN
 70
     0
  9
$DIMBLK
  1

  9
$DIMASO
 70
     1
  9
$DIMSHO
 70
     1
  9
$DIMPOST
  1

  9
$DIMAPOST
  1

  9
$DIMALT
 70
     0
  9
$DIMALTD
 70
     2
  9
$DIMALTF
 40
25.4
  9
$DIMLFAC
 40
1.0
  9
$DIMTOFL
 70
     0
  9
$DIMTVP
 40
0.0
  9
$DIMTIX
 70
     0
  9
$DIMSOXD
 70
     0
  9
$DIMSAH
 70
     0
  9
$DIMBLK1
  1

  9
$DIMBLK2
  1

  9
$DIMSTYLE
  2
Standard
  9
$DIMCLRD
 70
     0
  9
$DIMCLRE
 70
     0
  9
$DIMCLRT
 70
     0
  9
$DIMTFAC
 40
1.0
  9
$DIMGAP
 40
0.09
  9
$DIMJUST
 70
     0
  9
$DIMSD1
 70
     0
  9
$DIMSD2
 70
     0
  9
$DIMTOLJ
 70
     1
  9
$DIMTZIN
 70
     0
  9
$DIMALTZ
 70
     0
  9
$DIMALTTZ
 70
     0
  9
$DIMUPT
 70
     0
  9
$DIMDEC
 70
     4
  9
$DIMTDEC
 70
     4
  9
$DIMALTU
 70
     2
  9
$DIMALTTD
 70
     2
  9
$DIMTXSTY
  7
Standard
  9
$DIMAUNIT
 70
     0
  9
$DIMADEC
 70
     0
  9
$DIMALTRND
 40
0.0
  9
$DIMAZIN
 70
     0
  9
$DIMDSEP
 70
    46
  9
$DIMATFIT
 70
     3
  9
$DIMFRAC
 70
     0
  9
$DIMLDRBLK
  1

  9
$DIMLUNIT
 70
     2
  9
$DIMLWD
 70
    -2
  9
$DIMLWE
 70
    -2
  9
$DIMTMOVE
 70
     0
  9
$DIMFXL
 40
1.0
  9
$DIMFXLON
 70
     0
  9
$DIMJOGANG
 40
0.7853981633974483
  9
$DIMTFILL
 70
     0
  9
$DIMTFILLCLR
 70
     0
  9
$DIMARCSYM
 70
     0
  9
$DIMLTYPE
  6

  9
$DIMLTEX1
  6

  9
$DIMLTEX2
  6

  9
$LUNITS
 70
     2
  9
$LUPREC
 70
     4
  9
$SKETCHINC
 40
0.1
  9
$FILLETRAD
 40
0.5
  9
$AUNITS
 70
     0
  9
$AUPREC
 70
     0
  9
$MENU
  1
.
  9
$ELEVATION
 40
0.0
  9
$PELEVATION
 40
0.0
  9
$THICKNESS
 40
0.0
  9
$LIMCHECK
 70
     0
  9
$CHAMFERA
 40
0.5
  9
$CHAMFERB
 40
0.5
  9
$CHAMFERC
 40
1.0
  9
$CHAMFERD
 40
0.0
  9
$SKPOLY
 70
     0
  9
$TDCREATE
 40
2458493.612835798
  9
$TDUCREATE
 40
2458493.612835798
  9
$TDUPDATE
 40
2458493.612835949
  9
$TDUUPDATE
 40
2458493.612835949
  9
$TDINDWG
 40
0.0000000116
  9
$TDUSRTIMER
 40
0.0000000116
  9
$USRTIMER
 70
     1
  9
$ANGBASE
 50
0.0
  9
$ANGDIR
 70
     0
  9
$PDMODE
 70
     0
  9
$PDSIZE
 40
0.0
  9
$PLINEWID
 40
0.0
  9
$SPLFRAME
 70
     0
  9
$SPLINETYPE
 70
     6
  9
$SPLINESEGS
 70
     8
  9
$HANDSEED
  5
10C
  9
$SURFTAB1
 70
     6
  9
$SURFTAB2
 70
     6
  9
$SURFTYPE
 70
     6
  9
$SURFU
 70
     6
  9
$SURFV
 70
     6
  9
$UCSBASE
  2

  9
$UCSNAME
  2

  9
$UCSORG
 10
0.0
 20
0.0
 30
0.0
  9
$UCSXDIR
 10
1.0
 20
0.0
 30
0.0
  9
$UCSYDIR
 10
0.0
 20
1.0
 30
0.0
  9
$UCSORTHOREF
  2

  9
$UCSORTHOVIEW
 70
     0
  9
$UCSORGTOP
 10
0.0
 20
0.0
 30
0.0
  9
$UCSORGBOTTOM
 10
0.0
 20
0.0
 30
0.0
  9
$UCSORGLEFT
 10
0.0
 20
0.0
 30
0.0
  9
$UCSORGRIGHT
 10
0.0
 20
0.0
 30
0.0
  9
$UCSORGFRONT
 10
0.0
 20
0.0
 30
0.0
  9
$UCSORGBACK
 10
0.0
 20
0.0
 30
0.0
  9
$PUCSBASE
  2

  9
$PUCSNAME
  2

  9
$PUCSORG
 10
0.0
 20
0.0
 30
0.0
  9
$PUCSXDIR
 10
1.0
 20
0.0
 30
0.0
  9
$PUCSYDIR
 10
0.0
 20
1.0
 30
0.0
  9
$PUCSORTHOREF
  2

  9
$PUCSORTHOVIEW
 70
     0
  9
$PUCSORGTOP
 10
0.0
 20
0.0
 30
0.0
  9
$PUCSORGBOTTOM
 10
0.0
 20
0.0
 30
0.0
  9
$PUCSORGLEFT
 10
0.0
 20
0.0
 30
0.0
  9
$PUCSORGRIGHT
 10
0.0
 20
0.0
 30
0.0
  9
$PUCSORGFRONT
 10
0.0
 20
0.0
 30
0.0
  9
$PUCSORGBACK
 10
0.0
 20
0.0
 30
0.0
  9
$USERI1
 70
     0
  9
$USERI2
 70
     0
  9
$USERI3
 70
     0
  9
$USERI4
 70
     0
  9
$USERI5
 70
     0
  9
$USERR1
 40
0.0
  9
$USERR2
 40
0.0
  9
$USERR3
 40
0.0
  9
$USERR4
 40
0.0
  9
$USERR5
 40
0.0
  9
$WORLDVIEW
 70
     1
  9
$SHADEDGE
 70
     3
  9
$SHADEDIF
 70
    70
  9
$TILEMODE
 70
     1
  9
$MAXACTVP
 70
    64
  9
$PINSBASE
 10
0.0
 20
0.0
 30
0.0
  9
$PLIMCHECK
 70
     0
  9
$PEXTMIN
 10
1.000000000000000E+20
 20
1.000000000000000E+20
 30
1.000000000000000E+20
  9
$PEXTMAX
 10
-1.000000000000000E+20
 20
-1.000000000000000E+20
 30
-1.000000000000000E+20
  9
$PLIMMIN
 10
0.0
 20
0.0
  9
$PLIMMAX
 10
12.0
 20
9.0
  9
$UNITMODE
 70
     0
  9
$VISRETAIN
 70
     1
  9
$PLINEGEN
 70
     0
  9
$PSLTSCALE
 70
     1
  9
$TREEDEPTH
 70
  3020
  9
$CMLSTYLE
  2
Standard
  9
$CMLJUST
 70
     0
  9
$CMLSCALE
 40
1.0
  9
$PROXYGRAPHICS
 70
     1
  9
$MEASUREMENT
 70
     0
  9
$CELWEIGHT
370
    -1
  9
$ENDCAPS
280
     0
  9
$JOINSTYLE
280
     0
  9
$LWDISPLAY
290
     0
  9
$INSUNITS
 70
     4
  9
$HYPERLINKBASE
  1

  9
$STYLESHEET
  1

  9
$XEDIT
290
     1
  9
$CEPSNTYPE
380
     0
  9
$PSTYLEMODE
290
     1
  9
$FINGERPRINTGUID
  2
{4BF1A0DB-A4DC-40B4-A028-17B00A852B3B}
  9
$VERSIONGUID
  2
{FAEB1C32-E019-11D5-929B-00C0DF256EC4}
  9
$EXTNAMES
290
     1
  9
$PSVPSCALE
 40
0.0
  9
$OLESTARTUP
290
     0
  9
$SORTENTS
280
   127
  9
$INDEXCTL
280
     0
  9
$HIDETEXT
280
     1
  9
$XCLIPFRAME
290
     0
  9
$HALOGAP
280
     0
  9
$OBSCOLOR
 70
   257
  9
$OBSLTYPE
280
     0
  9
$INTERSECTIONDISPLAY
280
     0
  9
$INTERSECTIONCOLOR
 70
   257
  9
$DIMASSOC
280
     2
  9
$PROJECTNAME
  1

  9
$CAMERADISPLAY
290
     0
  9
$LENSLENGTH
 40
50.0
  9
$CAMERAHEIGHT
 40
0.0
  9
$STEPSPERSEC
 40
2.0
  9
$STEPSIZE
 40
6.0
  9
$3DDWFPREC
 40
2.0
  9
$PSOLWIDTH
 40
0.25
  9
$PSOLHEIGHT
 40
4.0
  9
$LOFTANG1
 40
1.570796326794897
  9
$LOFTANG2
 40
1.570796326794897
  9
$LOFTMAG1
 40
0.0
  9
$LOFTMAG2
 40
0.0
  9
$LOFTPARAM
 70
     7
  9
$LOFTNORMALS
280
     1
  9
$LATITUDE
 40
37.795
  9
$LONGITUDE
 40
-122.394
  9
$NORTHDIRECTION
 40
0.0
  9
$TIMEZONE
 70
 -8000
  9
$LIGHTGLYPHDISPLAY
280
     1
  9
$TILEMODELIGHTSYNCH
280
     1
  9
$SOLIDHIST
280
     1
  9
$SHOWHIST
280
     1
  9
$DWFFRAME
280
     2
  9
$DGNFRAME
280
     2
  9
$REALWORLDSCALE
290
     1
  9
$INTERFERECOLOR
 62
   256
  9
$CSHADOW
280
     0
  9
$SHADOWPLANELOCATION
 40
0.0
  0
ENDSEC
  0
SECTION
  2
CLASSES
  0
CLASS
  1
ACDBDICTIONARYWDFLT
  2
AcDbDictionaryWithDefault
  3
ObjectDBX Classes
 90
        0
 91
        4
280
     0
281
     0
  0
CLASS
  1
VISUALSTYLE
  2
AcDbVisualStyle
  3
ObjectDBX Classes
 90
     4095
 91
        4
280
     0
281
     0
  0
CLASS
  1
MATERIAL
  2
AcDbMaterial
  3
ObjectDBX Classes
 90
     1153
 91
        4
280
     0
281
     0
  0
ENDSEC
  0
SECTION
  2
TABLES
  0
TABLE
  2
VPORT
  5
8
330
0
100
AcDbSymbolTable
 70
     1
  0
VPORT
  5
29
330
8
100
AcDbSymbolTableRecord
100
AcDbViewportTableRecord
  2
*Active
 70
     0
 10
0.0
 20
0.0
 11
1.0
 21
1.0
 12
10.42990654205607
 22
4.5
 13
0.0
 23
0.0
 14
0.5
 24
0.5
 15
0.5
 25
0.5
 16
0.0
 26
0.0
 36
1.0
 17
0.0
 27
0.0
 37
0.0
 40
9.0
 41
1.972972972850329
 42
50.0
 43
0.0
 44
0.0
 50
0.0
 51
0.0
 71
     0
 72
   100
 73
     1
 74
     3
 75
     0
 76
     0
 77
     0
 78
     0
281
     0
 65
     1
110
0.0
120
0.0
130
0.0
111
1.0
121
0.0
131
0.0
112
0.0
122
1.0
132
0.0
 79
     0
146
0.0
 60
     3
 61
     5
292
     1
282
     1
141
0.0
142
0.0
 63
   250
  0
ENDTAB
  0
TABLE
  2
LTYPE
  5
5
330
0
100
AcDbSymbolTable
 70
     1
  0
LTYPE
  5
14
330
5
100
AcDbSymbolTableRecord
100
AcDbLinetypeTableRecord
  2
ByBlock
 70
     0
  3

 72
    65
 73
     0
 40
0.0
  0
LTYPE
  5
15
330
5
100
AcDbSymbolTableRecord
100
AcDbLinetypeTableRecord
  2
ByLayer
 70
     0
  3

 72
    65
 73
     0
 40
0.0
  0
LTYPE
  5
16
330
5
100
AcDbSymbolTableRecord
100
AcDbLinetypeTableRecord
  2
Continuous
 70
     0
  3
Solid line
 72
    65
 73
     0
 40
0.0
  0
ENDTAB
  0
TABLE
  2
LAYER
  5
2
330
0
100
AcDbSymbolTable
 70
     3
  0
LAYER
  5
10
330
2
100
AcDbSymbolTableRecord
100
AcDbLayerTableRecord
  2
0
 70
     0
 62
     7
  6
Continuous
370
    -3
390
F
347
3E
  0
LAYER
  5
40
330
2
100
AcDbSymbolTableRecord
100
AcDbLayerTableRecord
  2
layer 1
 70
     0
 62
     7
  6
Continuous
370
    -3
390
F
347
3E
  0
LAYER
  5
E9
330
2
100
AcDbSymbolTableRecord
100
AcDbLayerTableRecord
  2
Master Guides
 70
     0
 62
     7
  6
Continuous
370
    -3
390
F
347
3E
  0
ENDTAB
  0
TABLE
  2
STYLE
  5
3
330
0
100
AcDbSymbolTable
 70
     1
  0
STYLE
  5
11
330
3
100
AcDbSymbolTableRecord
100
AcDbTextStyleTableRecord
  2
Standard
 70
     0
 40
0.0
 41
1.0
 50
0.0
 71
     0
 42
0.2
  3
txt
  4

  0
ENDTAB
  0
TABLE
  2
VIEW
  5
6
330
0
100
AcDbSymbolTable
 70
     0
  0
ENDTAB
  0
TABLE
  2
UCS
  5
7
330
0
100
AcDbSymbolTable
 70
     0
  0
ENDTAB
  0
TABLE
  2
APPID
  5
9
330
0
100
AcDbSymbolTable
 70
     2
  0
APPID
  5
12
330
9
100
AcDbSymbolTableRecord
100
AcDbRegAppTableRecord
  2
ACAD
 70
     0
  0
APPID
  5
3F
330
9
100
AcDbSymbolTableRecord
100
AcDbRegAppTableRecord
  2
ODA
 70
     0
  0
ENDTAB
  0
TABLE
  2
DIMSTYLE
  5
A
330
0
100
AcDbSymbolTable
 70
     1
100
AcDbDimStyleTable
  0
DIMSTYLE
105
27
330
A
100
AcDbSymbolTableRecord
100
AcDbDimStyleTableRecord
  2
Standard
 70
     0
178
     0
340
11
  0
ENDTAB
  0
TABLE
  2
BLOCK_RECORD
  5
1
330
0
100
AcDbSymbolTable
 70
     1
  0
BLOCK_RECORD
  5
1F
330
1
100
AcDbSymbolTableRecord
100
AcDbBlockTableRecord
  2
*Model_Space
340
22
 70
     0
280
     1
281
     0
  0
BLOCK_RECORD
  5
1B
330
1
100
AcDbSymbolTableRecord
100
AcDbBlockTableRecord
  2
*Paper_Space
340
1E
 70
     0
280
     1
281
     0
  0
BLOCK_RECORD
  5
23
330
1
100
AcDbSymbolTableRecord
100
AcDbBlockTableRecord
  2
*Paper_Space0
340
26
 70
     0
280
     1
281
     0
  0
ENDTAB
  0
ENDSEC
  0
SECTION
  2
BLOCKS
  0
BLOCK
  5
20
330
1F
100
AcDbEntity
  8
0
100
AcDbBlockBegin
  2
*Model_Space
 70
     0
 10
0.0
 20
0.0
 30
0.0
  3
*Model_Space
  1

  0
ENDBLK
  5
21
330
1F
100
AcDbEntity
  8
0
100
AcDbBlockEnd
  0
BLOCK
  5
1C
330
1B
100
AcDbEntity
 67
     1
  8
0
100
AcDbBlockBegin
  2
*Paper_Space
 70
     0
 10
0.0
 20
0.0
 30
0.0
  3
*Paper_Space
  1

  0
ENDBLK
  5
1D
330
1B
100
AcDbEntity
 67
     1
  8
0
100
AcDbBlockEnd
  0
BLOCK
  5
24
330
23
100
AcDbEntity
  8
0
100
AcDbBlockBegin
  2
*Paper_Space0
 70
     0
 10
0.0
 20
0.0
 30
0.0
  3
*Paper_Space0
  1

  0
ENDBLK
  5
25
330
23
100
AcDbEntity
  8
0
100
AcDbBlockEnd
  0
ENDSEC
  0
SECTION
  2
ENTITIES
  0
SPLINE
  5
41
330
1F
100
AcDbEntity
  8
layer 1
100
AcDbSpline
210
0.0
220
0.0
230
1.0
 70
    11
 71
     3
 72
    24
 73
    20
 74
     0
 42
0.0000000001
 43
0.0000000001
 12
1.0
 22
0.0
 32
0.0
 13
1.0
 23
0.0
 33
0.0
 40
0.0
 40
0.0
 40
0.0
 40
0.0
 40
0.1666666666666667
 40
0.1666666666666667
 40
0.1666666666666667
 40
0.1666666666666667
 40
0.3333333333333333
 40
0.3333333333333333
 40
0.3333333333333333
 40
0.3333333333333333
 40
0.5
 40
0.5
 40
0.5
 40
0.5
 40
0.6666666666666666
 40
0.6666666666666666
 40
0.6666666666666666
 40
0.6666666666666666
 40
1.0
 40
1.0
 40
1.0
 40
1.0
 10
-164.9134
 20
124.7736
 30
0.0
 10
-164.9134
 20
124.7736
 30
0.0
 10
-140.3643
 20
124.7736
 30
0.0
 10
-140.3643
 20
124.7736
 30
0.0
 10
-140.3643
 20
124.7736
 30
0.0
 10
-140.3643
 20
124.7736
 30
0.0
 10
-145.0103
 20
118.2532
 30
0.0
 10
-145.0103
 20
118.2532
 30
0.0
 10
-145.0103
 20
118.2532
 30
0.0
 10
-145.0103
 20
118.2532
 30
0.0
 10
-152.6181
 20
122.6096
 30
0.0
 10
-152.6181
 20
122.6096
 30
0.0
 10
-152.6181
 20
122.6096
 30
0.0
 10
-152.6181
 20
122.6096
 30
0.0
 10
-160.3212
 20
118.1475
 30
0.0
 10
-160.3212
 20
118.1475
 30
0.0
 10
-160.3212
 20
118.1475
 30
0.0
 10
-160.3212
 20
118.1475
 30
0.0
 10
-164.9134
 20
124.7736
 30
0.0
 10
-164.9134
 20
124.7736
 30
0.0
  0
SPLINE
  5
42
330
1F
100
AcDbEntity
  8
layer 1
100
AcDbSpline
210
0.0
220
0.0
230
1.0
 70
    11
 71
     3
 72
    20
 73
    16
 74
     0
 42
0.0000000001
 43
0.0000000001
 12
1.0
 22
0.0
 32
0.0
 13
1.0
 23
0.0
 33
0.0
 40
0.0
 40
0.0
 40
0.0
 40
0.0
 40
0.2
 40
0.2
 40
0.2
 40
0.2
 40
0.4
 40
0.4
 40
0.4
 40
0.4
 40
0.6
 40
0.6
 40
0.6
 40
0.6
 40
1.0
 40
1.0
 40
1.0
 40
1.0
 10
-180.6697
 20
124.7671
 30
0.0
 10
-180.6697
 20
124.7671
 30
0.0
 10
-170.586
 20
124.7671
 30
0.0
 10
-170.586
 20
124.7671
 30
0.0
 10
-170.586
 20
124.7671
 30
0.0
 10
-170.586
 20
124.7671
 30
0.0
 10
-164.6525
 20
115.5487
 30
0.0
 10
-164.6525
 20
115.5487
 30
0.0
 10
-164.6525
 20
115.5487
 30
0.0
 10
-164.7222
 20
115.494
 30
0.0
 10
-180.272
 20
106.3326
 30
0.0
 10
-180.6684
 20
106.1105
 30
0.0
 10
-180.6684
 20
106.1105
 30
0.0
 10
-180.6684
 20
106.1105
 30
0.0
 10
-180.6697
 20
124.7671
 30
0.0
 10
-180.6697
 20
124.7671
 30
0.0
  0
SPLINE
  5
43
330
1F
100
AcDbEntity
  8
layer 1
100
AcDbSpline
210
0.0
220
0.0
230
1.0
 70
    11
 71
     3
 72
    24
 73
    20
 74
     0
 42
0.0000000001
 43
0.0000000001
 12
1.0
 22
0.0
 32
0.0
 13
1.0
 23
0.0
 33
0.0
 40
0.0
 40
0.0
 40
0.0
 40
0.0
 40
0.1666666666666667
 40
0.1666666666666667
 40
0.1666666666666667
 40
0.1666666666666667
 40
0.3333333333333333
 40
0.3333333333333333
 40
0.3333333333333333
 40
0.3333333333333333
 40
0.5
 40
0.5
 40
0.5
 40
0.5
 40
0.6666666666666666
 40
0.6666666666666666
 40
0.6666666666666666
 40
0.6666666666666666
 40
1.0
 40
1.0
 40
1.0
 40
1.0
 10
-155.1362
 20
87.8443
 30
0.0
 10
-155.1362
 20
87.8443
 30
0.0
 10
-157.6073
 20
89.5019
 30
0.0
 10
-157.6073
 20
89.5019
 30
0.0
 10
-157.6073
 20
89.5019
 30
0.0
 10
-157.6073
 20
89.5019
 30
0.0
 10
-152.6305
 20
97.1979
 30
0.0
 10
-152.6305
 20
97.1979
 30
0.0
 10
-152.6305
 20
97.1979
 30
0.0
 10
-152.6305
 20
97.1979
 30
0.0
 10
-147.5866
 20
89.5342
 30
0.0
 10
-147.5866
 20
89.5342
 30
0.0
 10
-147.5866
 20
89.5342
 30
0.0
 10
-147.5866
 20
89.5342
 30
0.0
 10
-152.6375
 20
86.4118
 30
0.0
 10
-152.6375
 20
86.4118
 30
0.0
 10
-152.6375
 20
86.4118
 30
0.0
 10
-152.6375
 20
86.4118
 30
0.0
 10
-155.1362
 20
87.8443
 30
0.0
 10
-155.1362
 20
87.8443
 30
0.0
  0
SPLINE
  5
44
330
1F
100
AcDbEntity
  8
layer 1
100
AcDbSpline
210
0.0
220
0.0
230
1.0
 70
    11
 71
     3
 72
    20
 73
    16
 74
     0
 42
0.0000000001
 43
0.0000000001
 12
1.0
 22
0.0
 32
0.0
 13
1.0
 23
0.0
 33
0.0
 40
0.0
 40
0.0
 40
0.0
 40
0.0
 40
0.2
 40
0.2
 40
0.2
 40
0.2
 40
0.4
 40
0.4
 40
0.4
 40
0.4
 40
0.6
 40
0.6
 40
0.6
 40
0.6
 40
1.0
 40
1.0
 40
1.0
 40
1.0
 10
-178.2724
 20
101.7579
 30
0.0
 10
-178.2724
 20
101.7579
 30
0.0
 10
-161.8754
 20
111.5452
 30
0.0
 10
-161.8754
 20
111.5452
 30
0.0
 10
-161.8754
 20
111.5452
 30
0.0
 10
-161.8754
 20
111.5452
 30
0.0
 10
-155.4823
 20
101.7634
 30
0.0
 10
-155.4823
 20
101.7634
 30
0.0
 10
-155.4823
 20
101.7634
 30
0.0
 10
-155.4823
 20
101.7634
 30
0.0
 10
-162.0205
 20
91.9358
 30
0.0
 10
-162.0205
 20
91.9358
 30
0.0
 10
-162.0205
 20
91.9358
 30
0.0
 10
-162.0205
 20
91.9358
 30
0.0
 10
-178.2724
 20
101.7579
 30
0.0
 10
-178.2724
 20
101.7579
 30
0.0
  0
SPLINE
  5
45
330
1F
100
AcDbEntity
  8
layer 1
100
AcDbSpline
210
0.0
220
0.0
230
1.0
 70
    11
 71
     3
 72
    20
 73
    16
 74
     0
 42
0.0000000001
 43
0.0000000001
 12
1.0
 22
0.0
 32
0.0
 13
1.0
 23
0.0
 33
0.0
 40
0.0
 40
0.0
 40
0.0
 40
0.0
 40
0.2
 40
0.2
 40
0.2
 40
0.2
 40
0.4
 40
0.4
 40
0.4
 40
0.4
 40
0.6
 40
0.6
 40
0.6
 40
0.6
 40
1.0
 40
1.0
 40
1.0
 40
1.0
 10
-149.8011
 20
101.7444
 30
0.0
 10
-149.8011
 20
101.7444
 30
0.0
 10
-143.3805
 20
111.5438
 30
0.0
 10
-143.3805
 20
111.5438
 30
0.0
 10
-143.3805
 20
111.5438
 30
0.0
 10
-143.3805
 20
111.5438
 30
0.0
 10
-126.9698
 20
101.7596
 30
0.0
 10
-126.9698
 20
101.7596
 30
0.0
 10
-126.9698
 20
101.7596
 30
0.0
 10
-126.9698
 20
101.7596
 30
0.0
 10
-143.2306
 20
91.9924
 30
0.0
 10
-143.2306
 20
91.9924
 30
0.0
 10
-143.2306
 20
91.9924
 30
0.0
 10
-143.2306
 20
91.9924
 30
0.0
 10
-149.8011
 20
101.7444
 30
0.0
 10
-149.8011
 20
101.7444
 30
0.0
  0
SPLINE
  5
46
330
1F
100
AcDbEntity
  8
layer 1
100
AcDbSpline
210
0.0
220
0.0
230
1.0
 70
    11
 71
     3
 72
    20
 73
    16
 74
     0
 42
0.0000000001
 43
0.0000000001
 12
1.0
 22
0.0
 32
0.0
 13
1.0
 23
0.0
 33
0.0
 40
0.0
 40
0.0
 40
0.0
 40
0.0
 40
0.2
 40
0.2
 40
0.2
 40
0.2
 40
0.4
 40
0.4
 40
0.4
 40
0.4
 40
0.6
 40
0.6
 40
0.6
 40
0.6
 40
1.0
 40
1.0
 40
1.0
 40
1.0
 10
-187.8617
 20
107.3154
 30
0.0
 10
-187.8617
 20
107.3154
 30
0.0
 10
-187.8617
 20
124.7672
 30
0.0
 10
-187.8617
 20
124.7672
 30
0.0
 10
-187.8617
 20
124.7672
 30
0.0
 10
-187.8617
 20
124.7672
 30
0.0
 10
-185.4644
 20
124.7672
 30
0.0
 10
-185.4644
 20
124.7672
 30
0.0
 10
-185.4644
 20
124.7672
 30
0.0
 10
-185.4644
 20
124.7672
 30
0.0
 10
-185.6442
 20
106.0774
 30
0.0
 10
-185.6442
 20
106.0774
 30
0.0
 10
-185.6442
 20
106.0774
 30
0.0
 10
-185.6442
 20
106.0774
 30
0.0
 10
-187.8617
 20
107.3154
 30
0.0
 10
-187.8617
 20
107.3154
 30
0.0
  0
SPLINE
  5
47
330
1F
100
AcDbEntity
  8
layer 1
100
AcDbSpline
210
0.0
220
0.0
230
1.0
 70
    11
 71
     3
 72
    20
 73
    16
 74
     0
 42
0.0000000001
 43
0.0000000001
 12
1.0
 22
0.0
 32
0.0
 13
1.0
 23
0.0
 33
0.0
 40
0.0
 40
0.0
 40
0.0
 40
0.0
 40
0.2
 40
0.2
 40
0.2
 40
0.2
 40
0.4
 40
0.4
 40
0.4
 40
0.4
 40
0.6
 40
0.6
 40
0.6
 40
0.6
 40
1.0
 40
1.0
 40
1.0
 40
1.0
 10
-140.6275
 20
115.6572
 30
0.0
 10
-138.593
 20
118.9009
 30
0.0
 10
-136.9428
 20
121.3384
 30
0.0
 10
-134.6777
 20
124.7735
 30
0.0
 10
-134.6777
 20
124.7735
 30
0.0
 10
-134.6777
 20
124.7735
 30
0.0
 10
-124.5724
 20
124.7766
 30
0.0
 10
-124.5724
 20
124.7766
 30
0.0
 10
-124.5724
 20
124.7766
 30
0.0
 10
-124.5724
 20
124.7766
 30
0.0
 10
-124.6323
 20
106.0714
 30
0.0
 10
-124.6323
 20
106.0714
 30
0.0
 10
-124.6323
 20
106.0714
 30
0.0
 10
-124.6323
 20
106.0714
 30
0.0
 10
-140.6275
 20
115.6572
 30
0.0
 10
-140.6275
 20
115.6572
 30
0.0
  0
SPLINE
  5
48
330
1F
100
AcDbEntity
  8
layer 1
100
AcDbSpline
210
0.0
220
0.0
230
1.0
 70
    11
 71
     3
 72
    20
 73
    16
 74
     0
 42
0.0000000001
 43
0.0000000001
 12
1.0
 22
0.0
 32
0.0
 13
1.0
 23
0.0
 33
0.0
 40
0.0
 40
0.0
 40
0.0
 40
0.0
 40
0.2
 40
0.2
 40
0.2
 40
0.2
 40
0.4
 40
0.4
 40
0.4
 40
0.4
 40
0.6
 40
0.6
 40
0.6
 40
0.6
 40
1.0
 40
1.0
 40
1.0
 40
1.0
 10
-119.7777
 20
124.7671
 30
0.0
 10
-119.7777
 20
124.7671
 30
0.0
 10
-117.3804
 20
124.7671
 30
0.0
 10
-117.3804
 20
124.7671
 30
0.0
 10
-117.3804
 20
124.7671
 30
0.0
 10
-117.3804
 20
124.7671
 30
0.0
 10
-117.3804
 20
107.3122
 30
0.0
 10
-117.3804
 20
107.3122
 30
0.0
 10
-117.3804
 20
107.3122
 30
0.0
 10
-117.3804
 20
107.3122
 30
0.0
 10
-119.7575
 20
106.068
 30
0.0
 10
-119.7575
 20
106.068
 30
0.0
 10
-119.7575
 20
106.068
 30
0.0
 10
-119.7575
 20
106.068
 30
0.0
 10
-119.7777
 20
124.7671
 30
0.0
 10
-119.7777
 20
124.7671
 30
0.0
  0
SPLINE
  5
49
330
1F
100
AcDbEntity
  8
layer 1
100
AcDbSpline
210
0.0
220
0.0
230
1.0
 70
    11
 71
     3
 72
    20
 73
    16
 74
     0
 42
0.0000000001
 43
0.0000000001
 12
1.0
 22
0.0
 32
0.0
 13
1.0
 23
0.0
 33
0.0
 40
0.0
 40
0.0
 40
0.0
 40
0.0
 40
0.2
 40
0.2
 40
0.2
 40
0.2
 40
0.4
 40
0.4
 40
0.4
 40
0.4
 40
0.6
 40
0.6
 40
0.6
 40
0.6
 40
1.0
 40
1.0
 40
1.0
 40
1.0
 10
-157.6554
 20
113.9867
 30
0.0
 10
-157.6554
 20
113.9867
 30
0.0
 10
-152.5972
 20
117.0336
 30
0.0
 10
-152.5972
 20
117.0336
 30
0.0
 10
-152.5972
 20
117.0336
 30
0.0
 10
-152.5972
 20
117.0336
 30
0.0
 10
-147.5866
 20
113.9807
 30
0.0
 10
-147.5866
 20
113.9807
 30
0.0
 10
-147.5866
 20
113.9807
 30
0.0
 10
-147.5866
 20
113.9807
 30
0.0
 10
-152.5918
 20
106.3591
 30
0.0
 10
-152.5918
 20
106.3591
 30
0.0
 10
-152.5918
 20
106.3591
 30
0.0
 10
-152.5918
 20
106.3591
 30
0.0
 10
-157.6554
 20
113.9867
 30
0.0
 10
-157.6554
 20
113.9867
 30
0.0
  0
SPLINE
  5
4A
330
1F
100
AcDbEntity
  8
layer 1
100
AcDbSpline
210
0.0
220
0.0
230
1.0
 70
    11
 71
     3
 72
    36
 73
    32
 74
     0
 42
0.0000000001
 43
0.0000000001
 12
1.0
 22
0.0
 32
0.0
 13
1.0
 23
0.0
 33
0.0
 40
0.0
 40
0.0
 40
0.0
 40
0.0
 40
0.1111111111111111
 40
0.1111111111111111
 40
0.1111111111111111
 40
0.1111111111111111
 40
0.2222222222222222
 40
0.2222222222222222
 40
0.2222222222222222
 40
0.2222222222222222
 40
0.3333333333333333
 40
0.3333333333333333
 40
0.3333333333333333
 40
0.3333333333333333
 40
0.4444444444444444
 40
0.4444444444444444
 40
0.4444444444444444
 40
0.4444444444444444
 40
0.5555555555555556
 40
0.5555555555555556
 40
0.5555555555555556
 40
0.5555555555555556
 40
0.6666666666666666
 40
0.6666666666666666
 40
0.6666666666666666
 40
0.6666666666666666
 40
0.7777777777777778
 40
0.7777777777777778
 40
0.7777777777777778
 40
0.7777777777777778
 40
1.0
 40
1.0
 40
1.0
 40
1.0
 10
-187.8617
 20
130.6406
 30
0.0
 10
-187.8617
 20
130.6406
 30
0.0
 10
-187.8617
 20
131.7193
 30
0.0
 10
-187.8617
 20
131.7193
 30
0.0
 10
-187.8617
 20
131.7193
 30
0.0
 10
-187.8617
 20
131.7193
 30
0.0
 10
-186.6631
 20
131.7193
 30
0.0
 10
-186.6631
 20
131.7193
 30
0.0
 10
-186.6631
 20
131.7193
 30
0.0
 10
-186.6631
 20
131.7193
 30
0.0
 10
-185.4644
 20
131.7193
 30
0.0
 10
-185.4644
 20
131.7193
 30
0.0
 10
-185.4644
 20
131.7193
 30
0.0
 10
-185.4644
 20
131.7193
 30
0.0
 10
-185.4644
 20
130.6406
 30
0.0
 10
-185.4644
 20
130.6406
 30
0.0
 10
-185.4644
 20
130.6406
 30
0.0
 10
-185.4644
 20
130.6406
 30
0.0
 10
-185.4644
 20
129.5618
 30
0.0
 10
-185.4644
 20
129.5618
 30
0.0
 10
-185.4644
 20
129.5618
 30
0.0
 10
-185.4644
 20
129.5618
 30
0.0
 10
-186.6631
 20
129.5618
 30
0.0
 10
-186.6631
 20
129.5618
 30
0.0
 10
-186.6631
 20
129.5618
 30
0.0
 10
-186.6631
 20
129.5618
 30
0.0
 10
-187.8617
 20
129.5618
 30
0.0
 10
-187.8617
 20
129.5618
 30
0.0
 10
-187.8617
 20
129.5618
 30
0.0
 10
-187.8617
 20
129.5618
 30
0.0
 10
-187.8617
 20
130.6406
 30
0.0
 10
-187.8617
 20
130.6406
 30
0.0
  0
SPLINE
  5
4B
330
1F
100
AcDbEntity
  8
layer 1
100
AcDbSpline
210
0.0
220
0.0
230
1.0
 70
    11
 71
     3
 72
    36
 73
    32
 74
     0
 42
0.0000000001
 43
0.0000000001
 12
1.0
 22
0.0
 32
0.0
 13
1.0
 23
0.0
 33
0.0
 40
0.0
 40
0.0
 40
0.0
 40
0.0
 40
0.1111111111111111
 40
0.1111111111111111
 40
0.1111111111111111
 40
0.1111111111111111
 40
0.2222222222222222
 40
0.2222222222222222
 40
0.2222222222222222
 40
0.2222222222222222
 40
0.3333333333333333
 40
0.3333333333333333
 40
0.3333333333333333
 40
0.3333333333333333
 40
0.4444444444444444
 40
0.4444444444444444
 40
0.4444444444444444
 40
0.4444444444444444
 40
0.5555555555555556
 40
0.5555555555555556
 40
0.5555555555555556
 40
0.5555555555555556
 40
0.6666666666666666
 40
0.6666666666666666
 40
0.6666666666666666
 40
0.6666666666666666
 40
0.7777777777777778
 40
0.7777777777777778
 40
0.7777777777777778
 40
0.7777777777777778
 40
1.0
 40
1.0
 40
1.0
 40
1.0
 10
-180.6697
 20
130.6406
 30
0.0
 10
-180.6697
 20
130.6406
 30
0.0
 10
-180.6697
 20
131.7193
 30
0.0
 10
-180.6697
 20
131.7193
 30
0.0
 10
-180.6697
 20
131.7193
 30
0.0
 10
-180.6697
 20
131.7193
 30
0.0
 10
-175.036
 20
131.7193
 30
0.0
 10
-175.036
 20
131.7193
 30
0.0
 10
-175.036
 20
131.7193
 30
0.0
 10
-171.9375
 20
131.7193
 30
0.0
 10
-169.4023
 20
131.6633
 30
0.0
 10
-169.4023
 20
131.5948
 30
0.0
 10
-169.4023
 20
131.5948
 30
0.0
 10
-169.4023
 20
131.5262
 30
0.0
 10
-169.6734
 20
131.0408
 30
0.0
 10
-170.0047
 20
130.516
 30
0.0
 10
-170.0047
 20
130.516
 30
0.0
 10
-170.0047
 20
130.516
 30
0.0
 10
-170.607
 20
129.5618
 30
0.0
 10
-170.607
 20
129.5618
 30
0.0
 10
-170.607
 20
129.5618
 30
0.0
 10
-170.607
 20
129.5618
 30
0.0
 10
-175.6384
 20
129.5618
 30
0.0
 10
-175.6384
 20
129.5618
 30
0.0
 10
-175.6384
 20
129.5618
 30
0.0
 10
-175.6384
 20
129.5618
 30
0.0
 10
-180.6697
 20
129.5618
 30
0.0
 10
-180.6697
 20
129.5618
 30
0.0
 10
-180.6697
 20
129.5618
 30
0.0
 10
-180.6697
 20
129.5618
 30
0.0
 10
-180.6697
 20
130.6406
 30
0.0
 10
-180.6697
 20
130.6406
 30
0.0
  0
SPLINE
  5
4C
330
1F
100
AcDbEntity
  8
layer 1
100
AcDbSpline
210
0.0
220
0.0
230
1.0
 70
    11
 71
     3
 72
    20
 73
    16
 74
     0
 42
0.0000000001
 43
0.0000000001
 12
1.0
 22
0.0
 32
0.0
 13
1.0
 23
0.0
 33
0.0
 40
0.0
 40
0.0
 40
0.0
 40
0.0
 40
0.2
 40
0.2
 40
0.2
 40
0.2
 40
0.4
 40
0.4
 40
0.4
 40
0.4
 40
0.6
 40
0.6
 40
0.6
 40
0.6
 40
1.0
 40
1.0
 40
1.0
 40
1.0
 10
-163.538
 20
131.7294
 30
0.0
 10
-163.538
 20
131.7294
 30
0.0
 10
-141.7087
 20
131.7194
 30
0.0
 10
-141.7087
 20
131.7194
 30
0.0
 10
-141.7087
 20
131.7194
 30
0.0
 10
-141.7087
 20
131.7194
 30
0.0
 10
-140.3396
 20
129.5618
 30
0.0
 10
-140.3396
 20
129.5618
 30
0.0
 10
-140.3396
 20
129.5618
 30
0.0
 10
-140.3396
 20
129.5618
 30
0.0
 10
-164.8597
 20
129.5618
 30
0.0
 10
-164.8597
 20
129.5618
 30
0.0
 10
-164.8597
 20
129.5618
 30
0.0
 10
-164.8597
 20
129.5618
 30
0.0
 10
-163.538
 20
131.7294
 30
0.0
 10
-163.538
 20
131.7294
 30
0.0
  0
SPLINE
  5
4D
330
1F
100
AcDbEntity
  8
layer 1
100
AcDbSpline
210
0.0
220
0.0
230
1.0
 70
    11
 71
     3
 72
    20
 73
    16
 74
     0
 42
0.0000000001
 43
0.0000000001
 12
1.0
 22
0.0
 32
0.0
 13
1.0
 23
0.0
 33
0.0
 40
0.0
 40
0.0
 40
0.0
 40
0.0
 40
0.2
 40
0.2
 40
0.2
 40
0.2
 40
0.4
 40
0.4
 40
0.4
 40
0.4
 40
0.6
 40
0.6
 40
0.6
 40
0.6
 40
1.0
 40
1.0
 40
1.0
 40
1.0
 10
-135.9018
 20
131.7294
 30
0.0
 10
-135.9018
 20
131.7294
 30
0.0
 10
-124.5724
 20
131.7194
 30
0.0
 10
-124.5724
 20
131.7194
 30
0.0
 10
-124.5724
 20
131.7194
 30
0.0
 10
-124.5724
 20
131.7194
 30
0.0
 10
-124.5724
 20
129.5618
 30
0.0
 10
-124.5724
 20
129.5618
 30
0.0
 10
-124.5724
 20
129.5618
 30
0.0
 10
-124.5724
 20
129.5618
 30
0.0
 10
-134.6239
 20
129.5618
 30
0.0
 10
-134.6239
 20
129.5618
 30
0.0
 10
-134.6239
 20
129.5618
 30
0.0
 10
-134.6239
 20
129.5618
 30
0.0
 10
-135.9018
 20
131.7294
 30
0.0
 10
-135.9018
 20
131.7294
 30
0.0
  0
SPLINE
  5
4E
330
1F
100
AcDbEntity
  8
layer 1
100
AcDbSpline
210
0.0
220
0.0
230
1.0
 70
    11
 71
     3
 72
    20
 73
    16
 74
     0
 42
0.0000000001
 43
0.0000000001
 12
1.0
 22
0.0
 32
0.0
 13
1.0
 23
0.0
 33
0.0
 40
0.0
 40
0.0
 40
0.0
 40
0.0
 40
0.2
 40
0.2
 40
0.2
 40
0.2
 40
0.4
 40
0.4
 40
0.4
 40
0.4
 40
0.6
 40
0.6
 40
0.6
 40
0.6
 40
1.0
 40
1.0
 40
1.0
 40
1.0
 10
-119.7777
 20
131.7193
 30
0.0
 10
-119.7777
 20
131.7193
 30
0.0
 10
-117.3804
 20
131.7193
 30
0.0
 10
-117.3804
 20
131.7193
 30
0.0
 10
-117.3804
 20
131.7193
 30
0.0
 10
-117.3804
 20
131.7193
 30
0.0
 10
-117.3804
 20
129.5617
 30
0.0
 10
-117.3804
 20
129.5617
 30
0.0
 10
-117.3804
 20
129.5617
 30
0.0
 10
-117.3804
 20
129.5617
 30
0.0
 10
-119.7777
 20
129.5617
 30
0.0
 10
-119.7777
 20
129.5617
 30
0.0
 10
-119.7777
 20
129.5617
 30
0.0
 10
-119.7777
 20
129.5617
 30
0.0
 10
-119.7777
 20
131.7193
 30
0.0
 10
-119.7777
 20
131.7193
 30
0.0
  0
SPLINE
  5
4F
330
1F
100
AcDbEntity
  8
layer 1
100
AcDbSpline
210
0.0
220
0.0
230
1.0
 70
    11
 71
     3
 72
    20
 73
    16
 74
     0
 42
0.0000000001
 43
0.0000000001
 12
1.0
 22
0.0
 32
0.0
 13
1.0
 23
0.0
 33
0.0
 40
0.0
 40
0.0
 40
0.0
 40
0.0
 40
0.2
 40
0.2
 40
0.2
 40
0.2
 40
0.4
 40
0.4
 40
0.4
 40
0.4
 40
0.6
 40
0.6
 40
0.6
 40
0.6
 40
1.0
 40
1.0
 40
1.0
 40
1.0
 10
-180.6697
 20
131.7193
 30
0.0
 10
-180.6697
 20
131.7193
 30
0.0
 10
-169.3173
 20
131.7293
 30
0.0
 10
-169.3173
 20
131.7293
 30
0.0
 10
-169.3173
 20
131.7293
 30
0.0
 10
-169.3173
 20
131.7293
 30
0.0
 10
-170.607
 20
129.5617
 30
0.0
 10
-170.607
 20
129.5617
 30
0.0
 10
-170.607
 20
129.5617
 30
0.0
 10
-170.607
 20
129.5617
 30
0.0
 10
-180.6698
 20
129.5617
 30
0.0
 10
-180.6698
 20
129.5617
 30
0.0
 10
-180.6698
 20
129.5617
 30
0.0
 10
-180.6698
 20
129.5617
 30
0.0
 10
-180.6697
 20
131.7193
 30
0.0
 10
-180.6697
 20
131.7193
 30
0.0
  0
SPLINE
  5
50
330
1F
100
AcDbEntity
  8
layer 1
100
AcDbSpline
210
0.0
220
0.0
230
1.0
 70
    11
 71
     3
 72
    24
 73
    20
 74
     0
 42
0.0000000001
 43
0.0000000001
 12
1.0
 22
0.0
 32
0.0
 13
1.0
 23
0.0
 33
0.0
 40
0.0
 40
0.0
 40
0.0
 40
0.0
 40
0.1666666666666667
 40
0.1666666666666667
 40
0.1666666666666667
 40
0.1666666666666667
 40
0.3333333333333333
 40
0.3333333333333333
 40
0.3333333333333333
 40
0.3333333333333333
 40
0.5
 40
0.5
 40
0.5
 40
0.5
 40
0.6666666666666666
 40
0.6666666666666666
 40
0.6666666666666666
 40
0.6666666666666666
 40
1.0
 40
1.0
 40
1.0
 40
1.0
 10
-164.9122
 20
78.7238
 30
0.0
 10
-164.9122
 20
78.7238
 30
0.0
 10
-140.363
 20
78.7238
 30
0.0
 10
-140.363
 20
78.7238
 30
0.0
 10
-140.363
 20
78.7238
 30
0.0
 10
-140.363
 20
78.7238
 30
0.0
 10
-145.009
 20
85.2442
 30
0.0
 10
-145.009
 20
85.2442
 30
0.0
 10
-145.009
 20
85.2442
 30
0.0
 10
-145.009
 20
85.2442
 30
0.0
 10
-152.6168
 20
80.8879
 30
0.0
 10
-152.6168
 20
80.8879
 30
0.0
 10
-152.6168
 20
80.8879
 30
0.0
 10
-152.6168
 20
80.8879
 30
0.0
 10
-160.3199
 20
85.3499
 30
0.0
 10
-160.3199
 20
85.3499
 30
0.0
 10
-160.3199
 20
85.3499
 30
0.0
 10
-160.3199
 20
85.3499
 30
0.0
 10
-164.9122
 20
78.7238
 30
0.0
 10
-164.9122
 20
78.7238
 30
0.0
  0
SPLINE
  5
51
330
1F
100
AcDbEntity
  8
layer 1
100
AcDbSpline
210
0.0
220
0.0
230
1.0
 70
    11
 71
     3
 72
    20
 73
    16
 74
     0
 42
0.0000000001
 43
0.0000000001
 12
1.0
 22
0.0
 32
0.0
 13
1.0
 23
0.0
 33
0.0
 40
0.0
 40
0.0
 40
0.0
 40
0.0
 40
0.2
 40
0.2
 40
0.2
 40
0.2
 40
0.4
 40
0.4
 40
0.4
 40
0.4
 40
0.6
 40
0.6
 40
0.6
 40
0.6
 40
1.0
 40
1.0
 40
1.0
 40
1.0
 10
-180.6685
 20
78.7303
 30
0.0
 10
-180.6685
 20
78.7303
 30
0.0
 10
-170.5847
 20
78.7303
 30
0.0
 10
-170.5847
 20
78.7303
 30
0.0
 10
-170.5847
 20
78.7303
 30
0.0
 10
-170.5847
 20
78.7303
 30
0.0
 10
-164.6512
 20
87.9487
 30
0.0
 10
-164.6512
 20
87.9487
 30
0.0
 10
-164.6512
 20
87.9487
 30
0.0
 10
-164.721
 20
88.0034
 30
0.0
 10
-180.2707
 20
97.1648
 30
0.0
 10
-180.6671
 20
97.387
 30
0.0
 10
-180.6671
 20
97.387
 30
0.0
 10
-180.6671
 20
97.387
 30
0.0
 10
-180.6685
 20
78.7303
 30
0.0
 10
-180.6685
 20
78.7303
 30
0.0
  0
SPLINE
  5
52
330
1F
100
AcDbEntity
  8
layer 1
100
AcDbSpline
210
0.0
220
0.0
230
1.0
 70
    11
 71
     3
 72
    20
 73
    16
 74
     0
 42
0.0000000001
 43
0.0000000001
 12
1.0
 22
0.0
 32
0.0
 13
1.0
 23
0.0
 33
0.0
 40
0.0
 40
0.0
 40
0.0
 40
0.0
 40
0.2
 40
0.2
 40
0.2
 40
0.2
 40
0.4
 40
0.4
 40
0.4
 40
0.4
 40
0.6
 40
0.6
 40
0.6
 40
0.6
 40
1.0
 40
1.0
 40
1.0
 40
1.0
 10
-187.8604
 20
96.1821
 30
0.0
 10
-187.8604
 20
96.1821
 30
0.0
 10
-187.8604
 20
78.7302
 30
0.0
 10
-187.8604
 20
78.7302
 30
0.0
 10
-187.8604
 20
78.7302
 30
0.0
 10
-187.8604
 20
78.7302
 30
0.0
 10
-185.4631
 20
78.7302
 30
0.0
 10
-185.4631
 20
78.7302
 30
0.0
 10
-185.4631
 20
78.7302
 30
0.0
 10
-185.4631
 20
78.7302
 30
0.0
 10
-185.6429
 20
97.42
 30
0.0
 10
-185.6429
 20
97.42
 30
0.0
 10
-185.6429
 20
97.42
 30
0.0
 10
-185.6429
 20
97.42
 30
0.0
 10
-187.8604
 20
96.1821
 30
0.0
 10
-187.8604
 20
96.1821
 30
0.0
  0
SPLINE
  5
53
330
1F
100
AcDbEntity
  8
layer 1
100
AcDbSpline
210
0.0
220
0.0
230
1.0
 70
    11
 71
     3
 72
    20
 73
    16
 74
     0
 42
0.0000000001
 43
0.0000000001
 12
1.0
 22
0.0
 32
0.0
 13
1.0
 23
0.0
 33
0.0
 40
0.0
 40
0.0
 40
0.0
 40
0.0
 40
0.2
 40
0.2
 40
0.2
 40
0.2
 40
0.4
 40
0.4
 40
0.4
 40
0.4
 40
0.6
 40
0.6
 40
0.6
 40
0.6
 40
1.0
 40
1.0
 40
1.0
 40
1.0
 10
-140.6262
 20
87.8401
 30
0.0
 10
-138.5917
 20
84.5964
 30
0.0
 10
-136.9414
 20
82.1589
 30
0.0
 10
-134.6763
 20
78.7238
 30
0.0
 10
-134.6763
 20
78.7238
 30
0.0
 10
-134.6763
 20
78.7238
 30
0.0
 10
-124.571
 20
78.7207
 30
0.0
 10
-124.571
 20
78.7207
 30
0.0
 10
-124.571
 20
78.7207
 30
0.0
 10
-124.571
 20
78.7207
 30
0.0
 10
-124.6309
 20
97.4259
 30
0.0
 10
-124.6309
 20
97.4259
 30
0.0
 10
-124.6309
 20
97.4259
 30
0.0
 10
-124.6309
 20
97.4259
 30
0.0
 10
-140.6262
 20
87.8401
 30
0.0
 10
-140.6262
 20
87.8401
 30
0.0
  0
SPLINE
  5
54
330
1F
100
AcDbEntity
  8
layer 1
100
AcDbSpline
210
0.0
220
0.0
230
1.0
 70
    11
 71
     3
 72
    20
 73
    16
 74
     0
 42
0.0000000001
 43
0.0000000001
 12
1.0
 22
0.0
 32
0.0
 13
1.0
 23
0.0
 33
0.0
 40
0.0
 40
0.0
 40
0.0
 40
0.0
 40
0.2
 40
0.2
 40
0.2
 40
0.2
 40
0.4
 40
0.4
 40
0.4
 40
0.4
 40
0.6
 40
0.6
 40
0.6
 40
0.6
 40
1.0
 40
1.0
 40
1.0
 40
1.0
 10
-119.7764
 20
78.7303
 30
0.0
 10
-119.7764
 20
78.7303
 30
0.0
 10
-117.3791
 20
78.7303
 30
0.0
 10
-117.3791
 20
78.7303
 30
0.0
 10
-117.3791
 20
78.7303
 30
0.0
 10
-117.3791
 20
78.7303
 30
0.0
 10
-117.3791
 20
96.1852
 30
0.0
 10
-117.3791
 20
96.1852
 30
0.0
 10
-117.3791
 20
96.1852
 30
0.0
 10
-117.3791
 20
96.1852
 30
0.0
 10
-119.7561
 20
97.4294
 30
0.0
 10
-119.7561
 20
97.4294
 30
0.0
 10
-119.7561
 20
97.4294
 30
0.0
 10
-119.7561
 20
97.4294
 30
0.0
 10
-119.7764
 20
78.7303
 30
0.0
 10
-119.7764
 20
78.7303
 30
0.0
  0
SPLINE
  5
55
330
1F
100
AcDbEntity
  8
layer 1
100
AcDbSpline
210
0.0
220
0.0
230
1.0
 70
    11
 71
     3
 72
    36
 73
    32
 74
     0
 42
0.0000000001
 43
0.0000000001
 12
1.0
 22
0.0
 32
0.0
 13
1.0
 23
0.0
 33
0.0
 40
0.0
 40
0.0
 40
0.0
 40
0.0
 40
0.1111111111111111
 40
0.1111111111111111
 40
0.1111111111111111
 40
0.1111111111111111
 40
0.2222222222222222
 40
0.2222222222222222
 40
0.2222222222222222
 40
0.2222222222222222
 40
0.3333333333333333
 40
0.3333333333333333
 40
0.3333333333333333
 40
0.3333333333333333
 40
0.4444444444444444
 40
0.4444444444444444
 40
0.4444444444444444
 40
0.4444444444444444
 40
0.5555555555555556
 40
0.5555555555555556
 40
0.5555555555555556
 40
0.5555555555555556
 40
0.6666666666666666
 40
0.6666666666666666
 40
0.6666666666666666
 40
0.6666666666666666
 40
0.7777777777777778
 40
0.7777777777777778
 40
0.7777777777777778
 40
0.7777777777777778
 40
1.0
 40
1.0
 40
1.0
 40
1.0
 10
-187.8604
 20
72.8569
 30
0.0
 10
-187.8604
 20
72.8569
 30
0.0
 10
-187.8604
 20
71.7781
 30
0.0
 10
-187.8604
 20
71.7781
 30
0.0
 10
-187.8604
 20
71.7781
 30
0.0
 10
-187.8604
 20
71.7781
 30
0.0
 10
-186.6618
 20
71.7781
 30
0.0
 10
-186.6618
 20
71.7781
 30
0.0
 10
-186.6618
 20
71.7781
 30
0.0
 10
-186.6618
 20
71.7781
 30
0.0
 10
-185.4631
 20
71.7781
 30
0.0
 10
-185.4631
 20
71.7781
 30
0.0
 10
-185.4631
 20
71.7781
 30
0.0
 10
-185.4631
 20
71.7781
 30
0.0
 10
-185.4631
 20
72.8569
 30
0.0
 10
-185.4631
 20
72.8569
 30
0.0
 10
-185.4631
 20
72.8569
 30
0.0
 10
-185.4631
 20
72.8569
 30
0.0
 10
-185.4631
 20
73.9356
 30
0.0
 10
-185.4631
 20
73.9356
 30
0.0
 10
-185.4631
 20
73.9356
 30
0.0
 10
-185.4631
 20
73.9356
 30
0.0
 10
-186.6618
 20
73.9356
 30
0.0
 10
-186.6618
 20
73.9356
 30
0.0
 10
-186.6618
 20
73.9356
 30
0.0
 10
-186.6618
 20
73.9356
 30
0.0
 10
-187.8604
 20
73.9356
 30
0.0
 10
-187.8604
 20
73.9356
 30
0.0
 10
-187.8604
 20
73.9356
 30
0.0
 10
-187.8604
 20
73.9356
 30
0.0
 10
-187.8604
 20
72.8569
 30
0.0
 10
-187.8604
 20
72.8569
 30
0.0
  0
SPLINE
  5
56
330
1F
100
AcDbEntity
  8
layer 1
100
AcDbSpline
210
0.0
220
0.0
230
1.0
 70
    11
 71
     3
 72
    36
 73
    32
 74
     0
 42
0.0000000001
 43
0.0000000001
 12
1.0
 22
0.0
 32
0.0
 13
1.0
 23
0.0
 33
0.0
 40
0.0
 40
0.0
 40
0.0
 40
0.0
 40
0.1111111111111111
 40
0.1111111111111111
 40
0.1111111111111111
 40
0.1111111111111111
 40
0.2222222222222222
 40
0.2222222222222222
 40
0.2222222222222222
 40
0.2222222222222222
 40
0.3333333333333333
 40
0.3333333333333333
 40
0.3333333333333333
 40
0.3333333333333333
 40
0.4444444444444444
 40
0.4444444444444444
 40
0.4444444444444444
 40
0.4444444444444444
 40
0.5555555555555556
 40
0.5555555555555556
 40
0.5555555555555556
 40
0.5555555555555556
 40
0.6666666666666666
 40
0.6666666666666666
 40
0.6666666666666666
 40
0.6666666666666666
 40
0.7777777777777778
 40
0.7777777777777778
 40
0.7777777777777778
 40
0.7777777777777778
 40
1.0
 40
1.0
 40
1.0
 40
1.0
 10
-180.6685
 20
72.8569
 30
0.0
 10
-180.6685
 20
72.8569
 30
0.0
 10
-180.6685
 20
71.7781
 30
0.0
 10
-180.6685
 20
71.7781
 30
0.0
 10
-180.6685
 20
71.7781
 30
0.0
 10
-180.6685
 20
71.7781
 30
0.0
 10
-175.0347
 20
71.7781
 30
0.0
 10
-175.0347
 20
71.7781
 30
0.0
 10
-175.0347
 20
71.7781
 30
0.0
 10
-171.9362
 20
71.7781
 30
0.0
 10
-169.401
 20
71.8342
 30
0.0
 10
-169.401
 20
71.9027
 30
0.0
 10
-169.401
 20
71.9027
 30
0.0
 10
-169.401
 20
71.9713
 30
0.0
 10
-169.6721
 20
72.4566
 30
0.0
 10
-170.0034
 20
72.9814
 30
0.0
 10
-170.0034
 20
72.9814
 30
0.0
 10
-170.0034
 20
72.9814
 30
0.0
 10
-170.6058
 20
73.9356
 30
0.0
 10
-170.6058
 20
73.9356
 30
0.0
 10
-170.6058
 20
73.9356
 30
0.0
 10
-170.6058
 20
73.9356
 30
0.0
 10
-175.6371
 20
73.9356
 30
0.0
 10
-175.6371
 20
73.9356
 30
0.0
 10
-175.6371
 20
73.9356
 30
0.0
 10
-175.6371
 20
73.9356
 30
0.0
 10
-180.6685
 20
73.9356
 30
0.0
 10
-180.6685
 20
73.9356
 30
0.0
 10
-180.6685
 20
73.9356
 30
0.0
 10
-180.6685
 20
73.9356
 30
0.0
 10
-180.6685
 20
72.8569
 30
0.0
 10
-180.6685
 20
72.8569
 30
0.0
  0
SPLINE
  5
57
330
1F
100
AcDbEntity
  8
layer 1
100
AcDbSpline
210
0.0
220
0.0
230
1.0
 70
    11
 71
     3
 72
    20
 73
    16
 74
     0
 42
0.0000000001
 43
0.0000000001
 12
1.0
 22
0.0
 32
0.0
 13
1.0
 23
0.0
 33
0.0
 40
0.0
 40
0.0
 40
0.0
 40
0.0
 40
0.2
 40
0.2
 40
0.2
 40
0.2
 40
0.4
 40
0.4
 40
0.4
 40
0.4
 40
0.6
 40
0.6
 40
0.6
 40
0.6
 40
1.0
 40
1.0
 40
1.0
 40
1.0
 10
-163.5366
 20
71.768
 30
0.0
 10
-163.5366
 20
71.768
 30
0.0
 10
-141.7074
 20
71.778
 30
0.0
 10
-141.7074
 20
71.778
 30
0.0
 10
-141.7074
 20
71.778
 30
0.0
 10
-141.7074
 20
71.778
 30
0.0
 10
-140.3382
 20
73.9356
 30
0.0
 10
-140.3382
 20
73.9356
 30
0.0
 10
-140.3382
 20
73.9356
 30
0.0
 10
-140.3382
 20
73.9356
 30
0.0
 10
-164.8583
 20
73.9356
 30
0.0
 10
-164.8583
 20
73.9356
 30
0.0
 10
-164.8583
 20
73.9356
 30
0.0
 10
-164.8583
 20
73.9356
 30
0.0
 10
-163.5366
 20
71.768
 30
0.0
 10
-163.5366
 20
71.768
 30
0.0
  0
SPLINE
  5
58
330
1F
100
AcDbEntity
  8
layer 1
100
AcDbSpline
210
0.0
220
0.0
230
1.0
 70
    11
 71
     3
 72
    20
 73
    16
 74
     0
 42
0.0000000001
 43
0.0000000001
 12
1.0
 22
0.0
 32
0.0
 13
1.0
 23
0.0
 33
0.0
 40
0.0
 40
0.0
 40
0.0
 40
0.0
 40
0.2
 40
0.2
 40
0.2
 40
0.2
 40
0.4
 40
0.4
 40
0.4
 40
0.4
 40
0.6
 40
0.6
 40
0.6
 40
0.6
 40
1.0
 40
1.0
 40
1.0
 40
1.0
 10
-135.9004
 20
71.768
 30
0.0
 10
-135.9004
 20
71.768
 30
0.0
 10
-124.571
 20
71.778
 30
0.0
 10
-124.571
 20
71.778
 30
0.0
 10
-124.571
 20
71.778
 30
0.0
 10
-124.571
 20
71.778
 30
0.0
 10
-124.571
 20
73.9356
 30
0.0
 10
-124.571
 20
73.9356
 30
0.0
 10
-124.571
 20
73.9356
 30
0.0
 10
-124.571
 20
73.9356
 30
0.0
 10
-134.6225
 20
73.9356
 30
0.0
 10
-134.6225
 20
73.9356
 30
0.0
 10
-134.6225
 20
73.9356
 30
0.0
 10
-134.6225
 20
73.9356
 30
0.0
 10
-135.9004
 20
71.768
 30
0.0
 10
-135.9004
 20
71.768
 30
0.0
  0
SPLINE
  5
59
330
1F
100
AcDbEntity
  8
layer 1
100
AcDbSpline
210
0.0
220
0.0
230
1.0
 70
    11
 71
     3
 72
    20
 73
    16
 74
     0
 42
0.0000000001
 43
0.0000000001
 12
1.0
 22
0.0
 32
0.0
 13
1.0
 23
0.0
 33
0.0
 40
0.0
 40
0.0
 40
0.0
 40
0.0
 40
0.2
 40
0.2
 40
0.2
 40
0.2
 40
0.4
 40
0.4
 40
0.4
 40
0.4
 40
0.6
 40
0.6
 40
0.6
 40
0.6
 40
1.0
 40
1.0
 40
1.0
 40
1.0
 10
-119.7969
 20
71.8864
 30
0.0
 10
-119.7969
 20
71.8864
 30
0.0
 10
-117.3996
 20
71.8864
 30
0.0
 10
-117.3996
 20
71.8864
 30
0.0
 10
-117.3996
 20
71.8864
 30
0.0
 10
-117.3996
 20
71.8864
 30
0.0
 10
-117.3996
 20
74.0441
 30
0.0
 10
-117.3996
 20
74.0441
 30
0.0
 10
-117.3996
 20
74.0441
 30
0.0
 10
-117.3996
 20
74.0441
 30
0.0
 10
-119.7969
 20
74.0441
 30
0.0
 10
-119.7969
 20
74.0441
 30
0.0
 10
-119.7969
 20
74.0441
 30
0.0
 10
-119.7969
 20
74.0441
 30
0.0
 10
-119.7969
 20
71.8864
 30
0.0
 10
-119.7969
 20
71.8864
 30
0.0
  0
SPLINE
  5
5A
330
1F
100
AcDbEntity
  8
layer 1
100
AcDbSpline
210
0.0
220
0.0
230
1.0
 70
    11
 71
     3
 72
    20
 73
    16
 74
     0
 42
0.0000000001
 43
0.0000000001
 12
1.0
 22
0.0
 32
0.0
 13
1.0
 23
0.0
 33
0.0
 40
0.0
 40
0.0
 40
0.0
 40
0.0
 40
0.2
 40
0.2
 40
0.2
 40
0.2
 40
0.4
 40
0.4
 40
0.4
 40
0.4
 40
0.6
 40
0.6
 40
0.6
 40
0.6
 40
1.0
 40
1.0
 40
1.0
 40
1.0
 10
-180.6685
 20
71.778
 30
0.0
 10
-180.6685
 20
71.778
 30
0.0
 10
-169.316
 20
71.768
 30
0.0
 10
-169.316
 20
71.768
 30
0.0
 10
-169.316
 20
71.768
 30
0.0
 10
-169.316
 20
71.768
 30
0.0
 10
-170.6058
 20
73.9356
 30
0.0
 10
-170.6058
 20
73.9356
 30
0.0
 10
-170.6058
 20
73.9356
 30
0.0
 10
-170.6058
 20
73.9356
 30
0.0
 10
-180.6685
 20
73.9356
 30
0.0
 10
-180.6685
 20
73.9356
 30
0.0
 10
-180.6685
 20
73.9356
 30
0.0
 10
-180.6685
 20
73.9356
 30
0.0
 10
-180.6685
 20
71.778
 30
0.0
 10
-180.6685
 20
71.778
 30
0.0
  0
SPLINE
  5
5B
330
1F
100
AcDbEntity
  8
layer 1
100
AcDbSpline
210
0.0
220
0.0
230
1.0
 70
    11
 71
     3
 72
    24
 73
    20
 74
     0
 42
0.0000000001
 43
0.0000000001
 12
1.0
 22
0.0
 32
0.0
 13
1.0
 23
0.0
 33
0.0
 40
0.0
 40
0.0
 40
0.0
 40
0.0
 40
0.1666666666666667
 40
0.1666666666666667
 40
0.1666666666666667
 40
0.1666666666666667
 40
0.3333333333333333
 40
0.3333333333333333
 40
0.3333333333333333
 40
0.3333333333333333
 40
0.5
 40
0.5
 40
0.5
 40
0.5
 40
0.6666666666666666
 40
0.6666666666666666
 40
0.6666666666666666
 40
0.6666666666666666
 40
1.0
 40
1.0
 40
1.0
 40
1.0
 10
-171.5033
 20
68.3087
 30
0.0
 10
-171.5033
 20
68.3087
 30
0.0
 10
-146.9542
 20
68.3087
 30
0.0
 10
-146.9542
 20
68.3087
 30
0.0
 10
-146.9542
 20
68.3087
 30
0.0
 10
-146.9542
 20
68.3087
 30
0.0
 10
-151.6002
 20
61.7883
 30
0.0
 10
-151.6002
 20
61.7883
 30
0.0
 10
-151.6002
 20
61.7883
 30
0.0
 10
-151.6002
 20
61.7883
 30
0.0
 10
-159.208
 20
66.1446
 30
0.0
 10
-159.208
 20
66.1446
 30
0.0
 10
-159.208
 20
66.1446
 30
0.0
 10
-159.208
 20
66.1446
 30
0.0
 10
-166.9111
 20
61.6826
 30
0.0
 10
-166.9111
 20
61.6826
 30
0.0
 10
-166.9111
 20
61.6826
 30
0.0
 10
-166.9111
 20
61.6826
 30
0.0
 10
-171.5033
 20
68.3087
 30
0.0
 10
-171.5033
 20
68.3087
 30
0.0
  0
SPLINE
  5
5C
330
1F
100
AcDbEntity
  8
layer 1
100
AcDbSpline
210
0.0
220
0.0
230
1.0
 70
    11
 71
     3
 72
    20
 73
    16
 74
     0
 42
0.0000000001
 43
0.0000000001
 12
1.0
 22
0.0
 32
0.0
 13
1.0
 23
0.0
 33
0.0
 40
0.0
 40
0.0
 40
0.0
 40
0.0
 40
0.2
 40
0.2
 40
0.2
 40
0.2
 40
0.4
 40
0.4
 40
0.4
 40
0.4
 40
0.6
 40
0.6
 40
0.6
 40
0.6
 40
1.0
 40
1.0
 40
1.0
 40
1.0
 10
-187.2596
 20
68.3022
 30
0.0
 10
-187.2596
 20
68.3022
 30
0.0
 10
-177.1759
 20
68.3022
 30
0.0
 10
-177.1759
 20
68.3022
 30
0.0
 10
-177.1759
 20
68.3022
 30
0.0
 10
-177.1759
 20
68.3022
 30
0.0
 10
-171.2424
 20
59.0838
 30
0.0
 10
-171.2424
 20
59.0838
 30
0.0
 10
-171.2424
 20
59.0838
 30
0.0
 10
-171.3121
 20
59.029
 30
0.0
 10
-186.8618
 20
49.8677
 30
0.0
 10
-187.2583
 20
49.6455
 30
0.0
 10
-187.2583
 20
49.6455
 30
0.0
 10
-187.2583
 20
49.6455
 30
0.0
 10
-187.2596
 20
68.3022
 30
0.0
 10
-187.2596
 20
68.3022
 30
0.0
  0
SPLINE
  5
5D
330
1F
100
AcDbEntity
  8
layer 1
100
AcDbSpline
210
0.0
220
0.0
230
1.0
 70
    11
 71
     3
 72
    24
 73
    20
 74
     0
 42
0.0000000001
 43
0.0000000001
 12
1.0
 22
0.0
 32
0.0
 13
1.0
 23
0.0
 33
0.0
 40
0.0
 40
0.0
 40
0.0
 40
0.0
 40
0.1666666666666667
 40
0.1666666666666667
 40
0.1666666666666667
 40
0.1666666666666667
 40
0.3333333333333333
 40
0.3333333333333333
 40
0.3333333333333333
 40
0.3333333333333333
 40
0.5
 40
0.5
 40
0.5
 40
0.5
 40
0.6666666666666666
 40
0.6666666666666666
 40
0.6666666666666666
 40
0.6666666666666666
 40
1.0
 40
1.0
 40
1.0
 40
1.0
 10
-161.7261
 20
31.3794
 30
0.0
 10
-161.7261
 20
31.3794
 30
0.0
 10
-164.1972
 20
33.037
 30
0.0
 10
-164.1972
 20
33.037
 30
0.0
 10
-164.1972
 20
33.037
 30
0.0
 10
-164.1972
 20
33.037
 30
0.0
 10
-159.2204
 20
40.7329
 30
0.0
 10
-159.2204
 20
40.7329
 30
0.0
 10
-159.2204
 20
40.7329
 30
0.0
 10
-159.2204
 20
40.7329
 30
0.0
 10
-154.1765
 20
33.0693
 30
0.0
 10
-154.1765
 20
33.0693
 30
0.0
 10
-154.1765
 20
33.0693
 30
0.0
 10
-154.1765
 20
33.0693
 30
0.0
 10
-159.2274
 20
29.9469
 30
0.0
 10
-159.2274
 20
29.9469
 30
0.0
 10
-159.2274
 20
29.9469
 30
0.0
 10
-159.2274
 20
29.9469
 30
0.0
 10
-161.7261
 20
31.3794
 30
0.0
 10
-161.7261
 20
31.3794
 30
0.0
  0
SPLINE
  5
5E
330
1F
100
AcDbEntity
  8
layer 1
100
AcDbSpline
210
0.0
220
0.0
230
1.0
 70
    11
 71
     3
 72
    20
 73
    16
 74
     0
 42
0.0000000001
 43
0.0000000001
 12
1.0
 22
0.0
 32
0.0
 13
1.0
 23
0.0
 33
0.0
 40
0.0
 40
0.0
 40
0.0
 40
0.0
 40
0.2
 40
0.2
 40
0.2
 40
0.2
 40
0.4
 40
0.4
 40
0.4
 40
0.4
 40
0.6
 40
0.6
 40
0.6
 40
0.6
 40
1.0
 40
1.0
 40
1.0
 40
1.0
 10
-184.8623
 20
45.2929
 30
0.0
 10
-184.8623
 20
45.2929
 30
0.0
 10
-168.4653
 20
55.0803
 30
0.0
 10
-168.4653
 20
55.0803
 30
0.0
 10
-168.4653
 20
55.0803
 30
0.0
 10
-168.4653
 20
55.0803
 30
0.0
 10
-162.0722
 20
45.2985
 30
0.0
 10
-162.0722
 20
45.2985
 30
0.0
 10
-162.0722
 20
45.2985
 30
0.0
 10
-162.0722
 20
45.2985
 30
0.0
 10
-168.6104
 20
35.4709
 30
0.0
 10
-168.6104
 20
35.4709
 30
0.0
 10
-168.6104
 20
35.4709
 30
0.0
 10
-168.6104
 20
35.4709
 30
0.0
 10
-184.8623
 20
45.2929
 30
0.0
 10
-184.8623
 20
45.2929
 30
0.0
  0
SPLINE
  5
5F
330
1F
100
AcDbEntity
  8
layer 1
100
AcDbSpline
210
0.0
220
0.0
230
1.0
 70
    11
 71
     3
 72
    20
 73
    16
 74
     0
 42
0.0000000001
 43
0.0000000001
 12
1.0
 22
0.0
 32
0.0
 13
1.0
 23
0.0
 33
0.0
 40
0.0
 40
0.0
 40
0.0
 40
0.0
 40
0.2
 40
0.2
 40
0.2
 40
0.2
 40
0.4
 40
0.4
 40
0.4
 40
0.4
 40
0.6
 40
0.6
 40
0.6
 40
0.6
 40
1.0
 40
1.0
 40
1.0
 40
1.0
 10
-156.391
 20
45.2794
 30
0.0
 10
-156.391
 20
45.2794
 30
0.0
 10
-149.9704
 20
55.0789
 30
0.0
 10
-149.9704
 20
55.0789
 30
0.0
 10
-149.9704
 20
55.0789
 30
0.0
 10
-149.9704
 20
55.0789
 30
0.0
 10
-133.5597
 20
45.2947
 30
0.0
 10
-133.5597
 20
45.2947
 30
0.0
 10
-133.5597
 20
45.2947
 30
0.0
 10
-133.5597
 20
45.2947
 30
0.0
 10
-149.8205
 20
35.5274
 30
0.0
 10
-149.8205
 20
35.5274
 30
0.0
 10
-149.8205
 20
35.5274
 30
0.0
 10
-149.8205
 20
35.5274
 30
0.0
 10
-156.391
 20
45.2794
 30
0.0
 10
-156.391
 20
45.2794
 30
0.0
  0
SPLINE
  5
60
330
1F
100
AcDbEntity
  8
layer 1
100
AcDbSpline
210
0.0
220
0.0
230
1.0
 70
    11
 71
     3
 72
    20
 73
    16
 74
     0
 42
0.0000000001
 43
0.0000000001
 12
1.0
 22
0.0
 32
0.0
 13
1.0
 23
0.0
 33
0.0
 40
0.0
 40
0.0
 40
0.0
 40
0.0
 40
0.2
 40
0.2
 40
0.2
 40
0.2
 40
0.4
 40
0.4
 40
0.4
 40
0.4
 40
0.6
 40
0.6
 40
0.6
 40
0.6
 40
1.0
 40
1.0
 40
1.0
 40
1.0
 10
-147.2174
 20
59.1923
 30
0.0
 10
-145.1829
 20
62.436
 30
0.0
 10
-143.5327
 20
64.8735
 30
0.0
 10
-141.2676
 20
68.3086
 30
0.0
 10
-141.2676
 20
68.3086
 30
0.0
 10
-141.2676
 20
68.3086
 30
0.0
 10
-131.1623
 20
68.3117
 30
0.0
 10
-131.1623
 20
68.3117
 30
0.0
 10
-131.1623
 20
68.3117
 30
0.0
 10
-131.1623
 20
68.3117
 30
0.0
 10
-131.2222
 20
49.6065
 30
0.0
 10
-131.2222
 20
49.6065
 30
0.0
 10
-131.2222
 20
49.6065
 30
0.0
 10
-131.2222
 20
49.6065
 30
0.0
 10
-147.2174
 20
59.1923
 30
0.0
 10
-147.2174
 20
59.1923
 30
0.0
  0
SPLINE
  5
61
330
1F
100
AcDbEntity
  8
layer 1
100
AcDbSpline
210
0.0
220
0.0
230
1.0
 70
    11
 71
     3
 72
    20
 73
    16
 74
     0
 42
0.0000000001
 43
0.0000000001
 12
1.0
 22
0.0
 32
0.0
 13
1.0
 23
0.0
 33
0.0
 40
0.0
 40
0.0
 40
0.0
 40
0.0
 40
0.2
 40
0.2
 40
0.2
 40
0.2
 40
0.4
 40
0.4
 40
0.4
 40
0.4
 40
0.6
 40
0.6
 40
0.6
 40
0.6
 40
1.0
 40
1.0
 40
1.0
 40
1.0
 10
-164.2453
 20
57.5218
 30
0.0
 10
-164.2453
 20
57.5218
 30
0.0
 10
-159.1871
 20
60.5687
 30
0.0
 10
-159.1871
 20
60.5687
 30
0.0
 10
-159.1871
 20
60.5687
 30
0.0
 10
-159.1871
 20
60.5687
 30
0.0
 10
-154.1765
 20
57.5158
 30
0.0
 10
-154.1765
 20
57.5158
 30
0.0
 10
-154.1765
 20
57.5158
 30
0.0
 10
-154.1765
 20
57.5158
 30
0.0
 10
-159.1817
 20
49.8942
 30
0.0
 10
-159.1817
 20
49.8942
 30
0.0
 10
-159.1817
 20
49.8942
 30
0.0
 10
-159.1817
 20
49.8942
 30
0.0
 10
-164.2453
 20
57.5218
 30
0.0
 10
-164.2453
 20
57.5218
 30
0.0
  0
SPLINE
  5
62
330
1F
100
AcDbEntity
  8
layer 1
100
AcDbSpline
210
0.0
220
0.0
230
1.0
 70
    11
 71
     3
 72
    24
 73
    20
 74
     0
 42
0.0000000001
 43
0.0000000001
 12
1.0
 22
0.0
 32
0.0
 13
1.0
 23
0.0
 33
0.0
 40
0.0
 40
0.0
 40
0.0
 40
0.0
 40
0.1666666666666667
 40
0.1666666666666667
 40
0.1666666666666667
 40
0.1666666666666667
 40
0.3333333333333333
 40
0.3333333333333333
 40
0.3333333333333333
 40
0.3333333333333333
 40
0.5
 40
0.5
 40
0.5
 40
0.5
 40
0.6666666666666666
 40
0.6666666666666666
 40
0.6666666666666666
 40
0.6666666666666666
 40
1.0
 40
1.0
 40
1.0
 40
1.0
 10
-171.502
 20
22.2589
 30
0.0
 10
-171.502
 20
22.2589
 30
0.0
 10
-146.9529
 20
22.2589
 30
0.0
 10
-146.9529
 20
22.2589
 30
0.0
 10
-146.9529
 20
22.2589
 30
0.0
 10
-146.9529
 20
22.2589
 30
0.0
 10
-151.5989
 20
28.7793
 30
0.0
 10
-151.5989
 20
28.7793
 30
0.0
 10
-151.5989
 20
28.7793
 30
0.0
 10
-151.5989
 20
28.7793
 30
0.0
 10
-159.2067
 20
24.4229
 30
0.0
 10
-159.2067
 20
24.4229
 30
0.0
 10
-159.2067
 20
24.4229
 30
0.0
 10
-159.2067
 20
24.4229
 30
0.0
 10
-166.9098
 20
28.885
 30
0.0
 10
-166.9098
 20
28.885
 30
0.0
 10
-166.9098
 20
28.885
 30
0.0
 10
-166.9098
 20
28.885
 30
0.0
 10
-171.502
 20
22.2589
 30
0.0
 10
-171.502
 20
22.2589
 30
0.0
  0
SPLINE
  5
63
330
1F
100
AcDbEntity
  8
layer 1
100
AcDbSpline
210
0.0
220
0.0
230
1.0
 70
    11
 71
     3
 72
    20
 73
    16
 74
     0
 42
0.0000000001
 43
0.0000000001
 12
1.0
 22
0.0
 32
0.0
 13
1.0
 23
0.0
 33
0.0
 40
0.0
 40
0.0
 40
0.0
 40
0.0
 40
0.2
 40
0.2
 40
0.2
 40
0.2
 40
0.4
 40
0.4
 40
0.4
 40
0.4
 40
0.6
 40
0.6
 40
0.6
 40
0.6
 40
1.0
 40
1.0
 40
1.0
 40
1.0
 10
-187.2583
 20
22.2654
 30
0.0
 10
-187.2583
 20
22.2654
 30
0.0
 10
-177.1746
 20
22.2654
 30
0.0
 10
-177.1746
 20
22.2654
 30
0.0
 10
-177.1746
 20
22.2654
 30
0.0
 10
-177.1746
 20
22.2654
 30
0.0
 10
-171.2411
 20
31.4838
 30
0.0
 10
-171.2411
 20
31.4838
 30
0.0
 10
-171.2411
 20
31.4838
 30
0.0
 10
-171.3109
 20
31.5385
 30
0.0
 10
-186.8606
 20
40.6999
 30
0.0
 10
-187.257
 20
40.922
 30
0.0
 10
-187.257
 20
40.922
 30
0.0
 10
-187.257
 20
40.922
 30
0.0
 10
-187.2583
 20
22.2654
 30
0.0
 10
-187.2583
 20
22.2654
 30
0.0
  0
SPLINE
  5
64
330
1F
100
AcDbEntity
  8
layer 1
100
AcDbSpline
210
0.0
220
0.0
230
1.0
 70
    11
 71
     3
 72
    20
 73
    16
 74
     0
 42
0.0000000001
 43
0.0000000001
 12
1.0
 22
0.0
 32
0.0
 13
1.0
 23
0.0
 33
0.0
 40
0.0
 40
0.0
 40
0.0
 40
0.0
 40
0.2
 40
0.2
 40
0.2
 40
0.2
 40
0.4
 40
0.4
 40
0.4
 40
0.4
 40
0.6
 40
0.6
 40
0.6
 40
0.6
 40
1.0
 40
1.0
 40
1.0
 40
1.0
 10
-147.216
 20
31.3752
 30
0.0
 10
-145.1815
 20
28.1315
 30
0.0
 10
-143.5313
 20
25.694
 30
0.0
 10
-141.2662
 20
22.2589
 30
0.0
 10
-141.2662
 20
22.2589
 30
0.0
 10
-141.2662
 20
22.2589
 30
0.0
 10
-131.1609
 20
22.2558
 30
0.0
 10
-131.1609
 20
22.2558
 30
0.0
 10
-131.1609
 20
22.2558
 30
0.0
 10
-131.1609
 20
22.2558
 30
0.0
 10
-131.2208
 20
40.961
 30
0.0
 10
-131.2208
 20
40.961
 30
0.0
 10
-131.2208
 20
40.961
 30
0.0
 10
-131.2208
 20
40.961
 30
0.0
 10
-147.216
 20
31.3752
 30
0.0
 10
-147.216
 20
31.3752
 30
0.0
  0
SPLINE
  5
65
330
1F
100
AcDbEntity
  8
layer 1
100
AcDbSpline
210
0.0
220
0.0
230
1.0
 70
    11
 71
     3
 72
    24
 73
    20
 74
     0
 42
0.0000000001
 43
0.0000000001
 12
1.0
 22
0.0
 32
0.0
 13
1.0
 23
0.0
 33
0.0
 40
0.0
 40
0.0
 40
0.0
 40
0.0
 40
0.1666666666666667
 40
0.1666666666666667
 40
0.1666666666666667
 40
0.1666666666666667
 40
0.3333333333333333
 40
0.3333333333333333
 40
0.3333333333333333
 40
0.3333333333333333
 40
0.5
 40
0.5
 40
0.5
 40
0.5
 40
0.6666666666666666
 40
0.6666666666666666
 40
0.6666666666666666
 40
0.6666666666666666
 40
1.0
 40
1.0
 40
1.0
 40
1.0
 10
-171.5033
 20
22.283
 30
0.0
 10
-171.5033
 20
22.283
 30
0.0
 10
-146.9542
 20
22.283
 30
0.0
 10
-146.9542
 20
22.283
 30
0.0
 10
-146.9542
 20
22.283
 30
0.0
 10
-146.9542
 20
22.283
 30
0.0
 10
-151.6002
 20
15.7626
 30
0.0
 10
-151.6002
 20
15.7626
 30
0.0
 10
-151.6002
 20
15.7626
 30
0.0
 10
-151.6002
 20
15.7626
 30
0.0
 10
-159.208
 20
20.1189
 30
0.0
 10
-159.208
 20
20.1189
 30
0.0
 10
-159.208
 20
20.1189
 30
0.0
 10
-159.208
 20
20.1189
 30
0.0
 10
-166.9111
 20
15.6568
 30
0.0
 10
-166.9111
 20
15.6568
 30
0.0
 10
-166.9111
 20
15.6568
 30
0.0
 10
-166.9111
 20
15.6568
 30
0.0
 10
-171.5033
 20
22.283
 30
0.0
 10
-171.5033
 20
22.283
 30
0.0
  0
SPLINE
  5
66
330
1F
100
AcDbEntity
  8
layer 1
100
AcDbSpline
210
0.0
220
0.0
230
1.0
 70
    11
 71
     3
 72
    20
 73
    16
 74
     0
 42
0.0000000001
 43
0.0000000001
 12
1.0
 22
0.0
 32
0.0
 13
1.0
 23
0.0
 33
0.0
 40
0.0
 40
0.0
 40
0.0
 40
0.0
 40
0.2
 40
0.2
 40
0.2
 40
0.2
 40
0.4
 40
0.4
 40
0.4
 40
0.4
 40
0.6
 40
0.6
 40
0.6
 40
0.6
 40
1.0
 40
1.0
 40
1.0
 40
1.0
 10
-187.2596
 20
22.2764
 30
0.0
 10
-187.2596
 20
22.2764
 30
0.0
 10
-177.1759
 20
22.2764
 30
0.0
 10
-177.1759
 20
22.2764
 30
0.0
 10
-177.1759
 20
22.2764
 30
0.0
 10
-177.1759
 20
22.2764
 30
0.0
 10
-171.2424
 20
13.058
 30
0.0
 10
-171.2424
 20
13.058
 30
0.0
 10
-171.2424
 20
13.058
 30
0.0
 10
-171.3121
 20
13.0033
 30
0.0
 10
-186.8618
 20
3.842
 30
0.0
 10
-187.2583
 20
3.6198
 30
0.0
 10
-187.2583
 20
3.6198
 30
0.0
 10
-187.2583
 20
3.6198
 30
0.0
 10
-187.2596
 20
22.2764
 30
0.0
 10
-187.2596
 20
22.2764
 30
0.0
  0
SPLINE
  5
67
330
1F
100
AcDbEntity
  8
layer 1
100
AcDbSpline
210
0.0
220
0.0
230
1.0
 70
    11
 71
     3
 72
    24
 73
    20
 74
     0
 42
0.0000000001
 43
0.0000000001
 12
1.0
 22
0.0
 32
0.0
 13
1.0
 23
0.0
 33
0.0
 40
0.0
 40
0.0
 40
0.0
 40
0.0
 40
0.1666666666666667
 40
0.1666666666666667
 40
0.1666666666666667
 40
0.1666666666666667
 40
0.3333333333333333
 40
0.3333333333333333
 40
0.3333333333333333
 40
0.3333333333333333
 40
0.5
 40
0.5
 40
0.5
 40
0.5
 40
0.6666666666666666
 40
0.6666666666666666
 40
0.6666666666666666
 40
0.6666666666666666
 40
1.0
 40
1.0
 40
1.0
 40
1.0
 10
-161.7261
 20
-14.6463
 30
0.0
 10
-161.7261
 20
-14.6463
 30
0.0
 10
-164.1972
 20
-12.9888
 30
0.0
 10
-164.1972
 20
-12.9888
 30
0.0
 10
-164.1972
 20
-12.9888
 30
0.0
 10
-164.1972
 20
-12.9888
 30
0.0
 10
-159.2204
 20
-5.2928
 30
0.0
 10
-159.2204
 20
-5.2928
 30
0.0
 10
-159.2204
 20
-5.2928
 30
0.0
 10
-159.2204
 20
-5.2928
 30
0.0
 10
-154.1765
 20
-12.9565
 30
0.0
 10
-154.1765
 20
-12.9565
 30
0.0
 10
-154.1765
 20
-12.9565
 30
0.0
 10
-154.1765
 20
-12.9565
 30
0.0
 10
-159.2274
 20
-16.0788
 30
0.0
 10
-159.2274
 20
-16.0788
 30
0.0
 10
-159.2274
 20
-16.0788
 30
0.0
 10
-159.2274
 20
-16.0788
 30
0.0
 10
-161.7261
 20
-14.6463
 30
0.0
 10
-161.7261
 20
-14.6463
 30
0.0
  0
SPLINE
  5
68
330
1F
100
AcDbEntity
  8
layer 1
100
AcDbSpline
210
0.0
220
0.0
230
1.0
 70
    11
 71
     3
 72
    20
 73
    16
 74
     0
 42
0.0000000001
 43
0.0000000001
 12
1.0
 22
0.0
 32
0.0
 13
1.0
 23
0.0
 33
0.0
 40
0.0
 40
0.0
 40
0.0
 40
0.0
 40
0.2
 40
0.2
 40
0.2
 40
0.2
 40
0.4
 40
0.4
 40
0.4
 40
0.4
 40
0.6
 40
0.6
 40
0.6
 40
0.6
 40
1.0
 40
1.0
 40
1.0
 40
1.0
 10
-184.8623
 20
-0.7328
 30
0.0
 10
-184.8623
 20
-0.7328
 30
0.0
 10
-168.4653
 20
9.0545
 30
0.0
 10
-168.4653
 20
9.0545
 30
0.0
 10
-168.4653
 20
9.0545
 30
0.0
 10
-168.4653
 20
9.0545
 30
0.0
 10
-162.0722
 20
-0.7273
 30
0.0
 10
-162.0722
 20
-0.7273
 30
0.0
 10
-162.0722
 20
-0.7273
 30
0.0
 10
-162.0722
 20
-0.7273
 30
0.0
 10
-168.6104
 20
-10.5549
 30
0.0
 10
-168.6104
 20
-10.5549
 30
0.0
 10
-168.6104
 20
-10.5549
 30
0.0
 10
-168.6104
 20
-10.5549
 30
0.0
 10
-184.8623
 20
-0.7328
 30
0.0
 10
-184.8623
 20
-0.7328
 30
0.0
  0
SPLINE
  5
69
330
1F
100
AcDbEntity
  8
layer 1
100
AcDbSpline
210
0.0
220
0.0
230
1.0
 70
    11
 71
     3
 72
    20
 73
    16
 74
     0
 42
0.0000000001
 43
0.0000000001
 12
1.0
 22
0.0
 32
0.0
 13
1.0
 23
0.0
 33
0.0
 40
0.0
 40
0.0
 40
0.0
 40
0.0
 40
0.2
 40
0.2
 40
0.2
 40
0.2
 40
0.4
 40
0.4
 40
0.4
 40
0.4
 40
0.6
 40
0.6
 40
0.6
 40
0.6
 40
1.0
 40
1.0
 40
1.0
 40
1.0
 10
-156.391
 20
-0.7463
 30
0.0
 10
-156.391
 20
-0.7463
 30
0.0
 10
-149.9704
 20
9.0532
 30
0.0
 10
-149.9704
 20
9.0532
 30
0.0
 10
-149.9704
 20
9.0532
 30
0.0
 10
-149.9704
 20
9.0532
 30
0.0
 10
-133.5597
 20
-0.7311
 30
0.0
 10
-133.5597
 20
-0.7311
 30
0.0
 10
-133.5597
 20
-0.7311
 30
0.0
 10
-133.5597
 20
-0.7311
 30
0.0
 10
-149.8205
 20
-10.4983
 30
0.0
 10
-149.8205
 20
-10.4983
 30
0.0
 10
-149.8205
 20
-10.4983
 30
0.0
 10
-149.8205
 20
-10.4983
 30
0.0
 10
-156.391
 20
-0.7463
 30
0.0
 10
-156.391
 20
-0.7463
 30
0.0
  0
SPLINE
  5
6A
330
1F
100
AcDbEntity
  8
layer 1
100
AcDbSpline
210
0.0
220
0.0
230
1.0
 70
    11
 71
     3
 72
    20
 73
    16
 74
     0
 42
0.0000000001
 43
0.0000000001
 12
1.0
 22
0.0
 32
0.0
 13
1.0
 23
0.0
 33
0.0
 40
0.0
 40
0.0
 40
0.0
 40
0.0
 40
0.2
 40
0.2
 40
0.2
 40
0.2
 40
0.4
 40
0.4
 40
0.4
 40
0.4
 40
0.6
 40
0.6
 40
0.6
 40
0.6
 40
1.0
 40
1.0
 40
1.0
 40
1.0
 10
-147.2174
 20
13.1666
 30
0.0
 10
-145.1829
 20
16.4102
 30
0.0
 10
-143.5327
 20
18.8478
 30
0.0
 10
-141.2676
 20
22.2829
 30
0.0
 10
-141.2676
 20
22.2829
 30
0.0
 10
-141.2676
 20
22.2829
 30
0.0
 10
-131.1623
 20
22.286
 30
0.0
 10
-131.1623
 20
22.286
 30
0.0
 10
-131.1623
 20
22.286
 30
0.0
 10
-131.1623
 20
22.286
 30
0.0
 10
-131.2222
 20
3.5807
 30
0.0
 10
-131.2222
 20
3.5807
 30
0.0
 10
-131.2222
 20
3.5807
 30
0.0
 10
-131.2222
 20
3.5807
 30
0.0
 10
-147.2174
 20
13.1666
 30
0.0
 10
-147.2174
 20
13.1666
 30
0.0
  0
SPLINE
  5
6B
330
1F
100
AcDbEntity
  8
layer 1
100
AcDbSpline
210
0.0
220
0.0
230
1.0
 70
    11
 71
     3
 72
    20
 73
    16
 74
     0
 42
0.0000000001
 43
0.0000000001
 12
1.0
 22
0.0
 32
0.0
 13
1.0
 23
0.0
 33
0.0
 40
0.0
 40
0.0
 40
0.0
 40
0.0
 40
0.2
 40
0.2
 40
0.2
 40
0.2
 40
0.4
 40
0.4
 40
0.4
 40
0.4
 40
0.6
 40
0.6
 40
0.6
 40
0.6
 40
1.0
 40
1.0
 40
1.0
 40
1.0
 10
-164.2453
 20
11.496
 30
0.0
 10
-164.2453
 20
11.496
 30
0.0
 10
-159.1871
 20
14.5429
 30
0.0
 10
-159.1871
 20
14.5429
 30
0.0
 10
-159.1871
 20
14.5429
 30
0.0
 10
-159.1871
 20
14.5429
 30
0.0
 10
-154.1765
 20
11.4901
 30
0.0
 10
-154.1765
 20
11.4901
 30
0.0
 10
-154.1765
 20
11.4901
 30
0.0
 10
-154.1765
 20
11.4901
 30
0.0
 10
-159.1817
 20
3.8684
 30
0.0
 10
-159.1817
 20
3.8684
 30
0.0
 10
-159.1817
 20
3.8684
 30
0.0
 10
-159.1817
 20
3.8684
 30
0.0
 10
-164.2453
 20
11.496
 30
0.0
 10
-164.2453
 20
11.496
 30
0.0
  0
SPLINE
  5
6C
330
1F
100
AcDbEntity
  8
layer 1
100
AcDbSpline
210
0.0
220
0.0
230
1.0
 70
    11
 71
     3
 72
    24
 73
    20
 74
     0
 42
0.0000000001
 43
0.0000000001
 12
1.0
 22
0.0
 32
0.0
 13
1.0
 23
0.0
 33
0.0
 40
0.0
 40
0.0
 40
0.0
 40
0.0
 40
0.1666666666666667
 40
0.1666666666666667
 40
0.1666666666666667
 40
0.1666666666666667
 40
0.3333333333333333
 40
0.3333333333333333
 40
0.3333333333333333
 40
0.3333333333333333
 40
0.5
 40
0.5
 40
0.5
 40
0.5
 40
0.6666666666666666
 40
0.6666666666666666
 40
0.6666666666666666
 40
0.6666666666666666
 40
1.0
 40
1.0
 40
1.0
 40
1.0
 10
-171.502
 20
-23.7669
 30
0.0
 10
-171.502
 20
-23.7669
 30
0.0
 10
-146.9529
 20
-23.7669
 30
0.0
 10
-146.9529
 20
-23.7669
 30
0.0
 10
-146.9529
 20
-23.7669
 30
0.0
 10
-146.9529
 20
-23.7669
 30
0.0
 10
-151.5989
 20
-17.2465
 30
0.0
 10
-151.5989
 20
-17.2465
 30
0.0
 10
-151.5989
 20
-17.2465
 30
0.0
 10
-151.5989
 20
-17.2465
 30
0.0
 10
-159.2067
 20
-21.6028
 30
0.0
 10
-159.2067
 20
-21.6028
 30
0.0
 10
-159.2067
 20
-21.6028
 30
0.0
 10
-159.2067
 20
-21.6028
 30
0.0
 10
-166.9098
 20
-17.1408
 30
0.0
 10
-166.9098
 20
-17.1408
 30
0.0
 10
-166.9098
 20
-17.1408
 30
0.0
 10
-166.9098
 20
-17.1408
 30
0.0
 10
-171.502
 20
-23.7669
 30
0.0
 10
-171.502
 20
-23.7669
 30
0.0
  0
SPLINE
  5
6D
330
1F
100
AcDbEntity
  8
layer 1
100
AcDbSpline
210
0.0
220
0.0
230
1.0
 70
    11
 71
     3
 72
    20
 73
    16
 74
     0
 42
0.0000000001
 43
0.0000000001
 12
1.0
 22
0.0
 32
0.0
 13
1.0
 23
0.0
 33
0.0
 40
0.0
 40
0.0
 40
0.0
 40
0.0
 40
0.2
 40
0.2
 40
0.2
 40
0.2
 40
0.4
 40
0.4
 40
0.4
 40
0.4
 40
0.6
 40
0.6
 40
0.6
 40
0.6
 40
1.0
 40
1.0
 40
1.0
 40
1.0
 10
-187.2583
 20
-23.7604
 30
0.0
 10
-187.2583
 20
-23.7604
 30
0.0
 10
-177.1746
 20
-23.7604
 30
0.0
 10
-177.1746
 20
-23.7604
 30
0.0
 10
-177.1746
 20
-23.7604
 30
0.0
 10
-177.1746
 20
-23.7604
 30
0.0
 10
-171.2411
 20
-14.542
 30
0.0
 10
-171.2411
 20
-14.542
 30
0.0
 10
-171.2411
 20
-14.542
 30
0.0
 10
-171.3109
 20
-14.4872
 30
0.0
 10
-186.8606
 20
-5.3259
 30
0.0
 10
-187.257
 20
-5.1037
 30
0.0
 10
-187.257
 20
-5.1037
 30
0.0
 10
-187.257
 20
-5.1037
 30
0.0
 10
-187.2583
 20
-23.7604
 30
0.0
 10
-187.2583
 20
-23.7604
 30
0.0
  0
SPLINE
  5
6E
330
1F
100
AcDbEntity
  8
layer 1
100
AcDbSpline
210
0.0
220
0.0
230
1.0
 70
    11
 71
     3
 72
    20
 73
    16
 74
     0
 42
0.0000000001
 43
0.0000000001
 12
1.0
 22
0.0
 32
0.0
 13
1.0
 23
0.0
 33
0.0
 40
0.0
 40
0.0
 40
0.0
 40
0.0
 40
0.2
 40
0.2
 40
0.2
 40
0.2
 40
0.4
 40
0.4
 40
0.4
 40
0.4
 40
0.6
 40
0.6
 40
0.6
 40
0.6
 40
1.0
 40
1.0
 40
1.0
 40
1.0
 10
-147.216
 20
-14.6506
 30
0.0
 10
-145.1815
 20
-17.8943
 30
0.0
 10
-143.5313
 20
-20.3318
 30
0.0
 10
-141.2662
 20
-23.7669
 30
0.0
 10
-141.2662
 20
-23.7669
 30
0.0
 10
-141.2662
 20
-23.7669
 30
0.0
 10
-131.1609
 20
-23.77
 30
0.0
 10
-131.1609
 20
-23.77
 30
0.0
 10
-131.1609
 20
-23.77
 30
0.0
 10
-131.1609
 20
-23.77
 30
0.0
 10
-131.2208
 20
-5.0648
 30
0.0
 10
-131.2208
 20
-5.0648
 30
0.0
 10
-131.2208
 20
-5.0648
 30
0.0
 10
-131.2208
 20
-5.0648
 30
0.0
 10
-147.216
 20
-14.6506
 30
0.0
 10
-147.216
 20
-14.6506
 30
0.0
  0
SPLINE
  5
6F
330
1F
100
AcDbEntity
  8
layer 1
100
AcDbSpline
210
0.0
220
0.0
230
1.0
 70
    11
 71
     3
 72
    24
 73
    20
 74
     0
 42
0.0000000001
 43
0.0000000001
 12
1.0
 22
0.0
 32
0.0
 13
1.0
 23
0.0
 33
0.0
 40
0.0
 40
0.0
 40
0.0
 40
0.0
 40
0.1666666666666667
 40
0.1666666666666667
 40
0.1666666666666667
 40
0.1666666666666667
 40
0.3333333333333333
 40
0.3333333333333333
 40
0.3333333333333333
 40
0.3333333333333333
 40
0.5
 40
0.5
 40
0.5
 40
0.5
 40
0.6666666666666666
 40
0.6666666666666666
 40
0.6666666666666666
 40
0.6666666666666666
 40
1.0
 40
1.0
 40
1.0
 40
1.0
 10
-171.5033
 20
-23.7667
 30
0.0
 10
-171.5033
 20
-23.7667
 30
0.0
 10
-146.9542
 20
-23.7667
 30
0.0
 10
-146.9542
 20
-23.7667
 30
0.0
 10
-146.9542
 20
-23.7667
 30
0.0
 10
-146.9542
 20
-23.7667
 30
0.0
 10
-151.6002
 20
-30.2871
 30
0.0
 10
-151.6002
 20
-30.2871
 30
0.0
 10
-151.6002
 20
-30.2871
 30
0.0
 10
-151.6002
 20
-30.2871
 30
0.0
 10
-159.208
 20
-25.9308
 30
0.0
 10
-159.208
 20
-25.9308
 30
0.0
 10
-159.208
 20
-25.9308
 30
0.0
 10
-159.208
 20
-25.9308
 30
0.0
 10
-166.9111
 20
-30.3928
 30
0.0
 10
-166.9111
 20
-30.3928
 30
0.0
 10
-166.9111
 20
-30.3928
 30
0.0
 10
-166.9111
 20
-30.3928
 30
0.0
 10
-171.5033
 20
-23.7667
 30
0.0
 10
-171.5033
 20
-23.7667
 30
0.0
  0
SPLINE
  5
70
330
1F
100
AcDbEntity
  8
layer 1
100
AcDbSpline
210
0.0
220
0.0
230
1.0
 70
    11
 71
     3
 72
    20
 73
    16
 74
     0
 42
0.0000000001
 43
0.0000000001
 12
1.0
 22
0.0
 32
0.0
 13
1.0
 23
0.0
 33
0.0
 40
0.0
 40
0.0
 40
0.0
 40
0.0
 40
0.2
 40
0.2
 40
0.2
 40
0.2
 40
0.4
 40
0.4
 40
0.4
 40
0.4
 40
0.6
 40
0.6
 40
0.6
 40
0.6
 40
1.0
 40
1.0
 40
1.0
 40
1.0
 10
-187.2596
 20
-23.7732
 30
0.0
 10
-187.2596
 20
-23.7732
 30
0.0
 10
-177.1759
 20
-23.7732
 30
0.0
 10
-177.1759
 20
-23.7732
 30
0.0
 10
-177.1759
 20
-23.7732
 30
0.0
 10
-177.1759
 20
-23.7732
 30
0.0
 10
-171.2424
 20
-32.9917
 30
0.0
 10
-171.2424
 20
-32.9917
 30
0.0
 10
-171.2424
 20
-32.9917
 30
0.0
 10
-171.3121
 20
-33.0464
 30
0.0
 10
-186.8618
 20
-42.2077
 30
0.0
 10
-187.2583
 20
-42.4299
 30
0.0
 10
-187.2583
 20
-42.4299
 30
0.0
 10
-187.2583
 20
-42.4299
 30
0.0
 10
-187.2596
 20
-23.7732
 30
0.0
 10
-187.2596
 20
-23.7732
 30
0.0
  0
SPLINE
  5
71
330
1F
100
AcDbEntity
  8
layer 1
100
AcDbSpline
210
0.0
220
0.0
230
1.0
 70
    11
 71
     3
 72
    24
 73
    20
 74
     0
 42
0.0000000001
 43
0.0000000001
 12
1.0
 22
0.0
 32
0.0
 13
1.0
 23
0.0
 33
0.0
 40
0.0
 40
0.0
 40
0.0
 40
0.0
 40
0.1666666666666667
 40
0.1666666666666667
 40
0.1666666666666667
 40
0.1666666666666667
 40
0.3333333333333333
 40
0.3333333333333333
 40
0.3333333333333333
 40
0.3333333333333333
 40
0.5
 40
0.5
 40
0.5
 40
0.5
 40
0.6666666666666666
 40
0.6666666666666666
 40
0.6666666666666666
 40
0.6666666666666666
 40
1.0
 40
1.0
 40
1.0
 40
1.0
 10
-161.7261
 20
-60.696
 30
0.0
 10
-161.7261
 20
-60.696
 30
0.0
 10
-164.1972
 20
-59.0384
 30
0.0
 10
-164.1972
 20
-59.0384
 30
0.0
 10
-164.1972
 20
-59.0384
 30
0.0
 10
-164.1972
 20
-59.0384
 30
0.0
 10
-159.2204
 20
-51.3425
 30
0.0
 10
-159.2204
 20
-51.3425
 30
0.0
 10
-159.2204
 20
-51.3425
 30
0.0
 10
-159.2204
 20
-51.3425
 30
0.0
 10
-154.1765
 20
-59.0062
 30
0.0
 10
-154.1765
 20
-59.0062
 30
0.0
 10
-154.1765
 20
-59.0062
 30
0.0
 10
-154.1765
 20
-59.0062
 30
0.0
 10
-159.2274
 20
-62.1285
 30
0.0
 10
-159.2274
 20
-62.1285
 30
0.0
 10
-159.2274
 20
-62.1285
 30
0.0
 10
-159.2274
 20
-62.1285
 30
0.0
 10
-161.7261
 20
-60.696
 30
0.0
 10
-161.7261
 20
-60.696
 30
0.0
  0
SPLINE
  5
72
330
1F
100
AcDbEntity
  8
layer 1
100
AcDbSpline
210
0.0
220
0.0
230
1.0
 70
    11
 71
     3
 72
    20
 73
    16
 74
     0
 42
0.0000000001
 43
0.0000000001
 12
1.0
 22
0.0
 32
0.0
 13
1.0
 23
0.0
 33
0.0
 40
0.0
 40
0.0
 40
0.0
 40
0.0
 40
0.2
 40
0.2
 40
0.2
 40
0.2
 40
0.4
 40
0.4
 40
0.4
 40
0.4
 40
0.6
 40
0.6
 40
0.6
 40
0.6
 40
1.0
 40
1.0
 40
1.0
 40
1.0
 10
-184.8623
 20
-46.7825
 30
0.0
 10
-184.8623
 20
-46.7825
 30
0.0
 10
-168.4653
 20
-36.9951
 30
0.0
 10
-168.4653
 20
-36.9951
 30
0.0
 10
-168.4653
 20
-36.9951
 30
0.0
 10
-168.4653
 20
-36.9951
 30
0.0
 10
-162.0722
 20
-46.777
 30
0.0
 10
-162.0722
 20
-46.777
 30
0.0
 10
-162.0722
 20
-46.777
 30
0.0
 10
-162.0722
 20
-46.777
 30
0.0
 10
-168.6104
 20
-56.6045
 30
0.0
 10
-168.6104
 20
-56.6045
 30
0.0
 10
-168.6104
 20
-56.6045
 30
0.0
 10
-168.6104
 20
-56.6045
 30
0.0
 10
-184.8623
 20
-46.7825
 30
0.0
 10
-184.8623
 20
-46.7825
 30
0.0
  0
SPLINE
  5
73
330
1F
100
AcDbEntity
  8
layer 1
100
AcDbSpline
210
0.0
220
0.0
230
1.0
 70
    11
 71
     3
 72
    20
 73
    16
 74
     0
 42
0.0000000001
 43
0.0000000001
 12
1.0
 22
0.0
 32
0.0
 13
1.0
 23
0.0
 33
0.0
 40
0.0
 40
0.0
 40
0.0
 40
0.0
 40
0.2
 40
0.2
 40
0.2
 40
0.2
 40
0.4
 40
0.4
 40
0.4
 40
0.4
 40
0.6
 40
0.6
 40
0.6
 40
0.6
 40
1.0
 40
1.0
 40
1.0
 40
1.0
 10
-156.391
 20
-46.796
 30
0.0
 10
-156.391
 20
-46.796
 30
0.0
 10
-149.9704
 20
-36.9965
 30
0.0
 10
-149.9704
 20
-36.9965
 30
0.0
 10
-149.9704
 20
-36.9965
 30
0.0
 10
-149.9704
 20
-36.9965
 30
0.0
 10
-133.5597
 20
-46.7808
 30
0.0
 10
-133.5597
 20
-46.7808
 30
0.0
 10
-133.5597
 20
-46.7808
 30
0.0
 10
-133.5597
 20
-46.7808
 30
0.0
 10
-149.8205
 20
-56.548
 30
0.0
 10
-149.8205
 20
-56.548
 30
0.0
 10
-149.8205
 20
-56.548
 30
0.0
 10
-149.8205
 20
-56.548
 30
0.0
 10
-156.391
 20
-46.796
 30
0.0
 10
-156.391
 20
-46.796
 30
0.0
  0
SPLINE
  5
74
330
1F
100
AcDbEntity
  8
layer 1
100
AcDbSpline
210
0.0
220
0.0
230
1.0
 70
    11
 71
     3
 72
    20
 73
    16
 74
     0
 42
0.0000000001
 43
0.0000000001
 12
1.0
 22
0.0
 32
0.0
 13
1.0
 23
0.0
 33
0.0
 40
0.0
 40
0.0
 40
0.0
 40
0.0
 40
0.2
 40
0.2
 40
0.2
 40
0.2
 40
0.4
 40
0.4
 40
0.4
 40
0.4
 40
0.6
 40
0.6
 40
0.6
 40
0.6
 40
1.0
 40
1.0
 40
1.0
 40
1.0
 10
-147.2174
 20
-32.8831
 30
0.0
 10
-145.1829
 20
-29.6394
 30
0.0
 10
-143.5327
 20
-27.2019
 30
0.0
 10
-141.2676
 20
-23.7668
 30
0.0
 10
-141.2676
 20
-23.7668
 30
0.0
 10
-141.2676
 20
-23.7668
 30
0.0
 10
-131.1623
 20
-23.7637
 30
0.0
 10
-131.1623
 20
-23.7637
 30
0.0
 10
-131.1623
 20
-23.7637
 30
0.0
 10
-131.1623
 20
-23.7637
 30
0.0
 10
-131.2222
 20
-42.4689
 30
0.0
 10
-131.2222
 20
-42.4689
 30
0.0
 10
-131.2222
 20
-42.4689
 30
0.0
 10
-131.2222
 20
-42.4689
 30
0.0
 10
-147.2174
 20
-32.8831
 30
0.0
 10
-147.2174
 20
-32.8831
 30
0.0
  0
SPLINE
  5
75
330
1F
100
AcDbEntity
  8
layer 1
100
AcDbSpline
210
0.0
220
0.0
230
1.0
 70
    11
 71
     3
 72
    20
 73
    16
 74
     0
 42
0.0000000001
 43
0.0000000001
 12
1.0
 22
0.0
 32
0.0
 13
1.0
 23
0.0
 33
0.0
 40
0.0
 40
0.0
 40
0.0
 40
0.0
 40
0.2
 40
0.2
 40
0.2
 40
0.2
 40
0.4
 40
0.4
 40
0.4
 40
0.4
 40
0.6
 40
0.6
 40
0.6
 40
0.6
 40
1.0
 40
1.0
 40
1.0
 40
1.0
 10
-164.2453
 20
-34.5536
 30
0.0
 10
-164.2453
 20
-34.5536
 30
0.0
 10
-159.1871
 20
-31.5068
 30
0.0
 10
-159.1871
 20
-31.5068
 30
0.0
 10
-159.1871
 20
-31.5068
 30
0.0
 10
-159.1871
 20
-31.5068
 30
0.0
 10
-154.1765
 20
-34.5596
 30
0.0
 10
-154.1765
 20
-34.5596
 30
0.0
 10
-154.1765
 20
-34.5596
 30
0.0
 10
-154.1765
 20
-34.5596
 30
0.0
 10
-159.1817
 20
-42.1813
 30
0.0
 10
-159.1817
 20
-42.1813
 30
0.0
 10
-159.1817
 20
-42.1813
 30
0.0
 10
-159.1817
 20
-42.1813
 30
0.0
 10
-164.2453
 20
-34.5536
 30
0.0
 10
-164.2453
 20
-34.5536
 30
0.0
  0
SPLINE
  5
76
330
1F
100
AcDbEntity
  8
layer 1
100
AcDbSpline
210
0.0
220
0.0
230
1.0
 70
    11
 71
     3
 72
    24
 73
    20
 74
     0
 42
0.0000000001
 43
0.0000000001
 12
1.0
 22
0.0
 32
0.0
 13
1.0
 23
0.0
 33
0.0
 40
0.0
 40
0.0
 40
0.0
 40
0.0
 40
0.1666666666666667
 40
0.1666666666666667
 40
0.1666666666666667
 40
0.1666666666666667
 40
0.3333333333333333
 40
0.3333333333333333
 40
0.3333333333333333
 40
0.3333333333333333
 40
0.5
 40
0.5
 40
0.5
 40
0.5
 40
0.6666666666666666
 40
0.6666666666666666
 40
0.6666666666666666
 40
0.6666666666666666
 40
1.0
 40
1.0
 40
1.0
 40
1.0
 10
-171.502
 20
-69.8166
 30
0.0
 10
-171.502
 20
-69.8166
 30
0.0
 10
-146.9529
 20
-69.8166
 30
0.0
 10
-146.9529
 20
-69.8166
 30
0.0
 10
-146.9529
 20
-69.8166
 30
0.0
 10
-146.9529
 20
-69.8166
 30
0.0
 10
-151.5989
 20
-63.2962
 30
0.0
 10
-151.5989
 20
-63.2962
 30
0.0
 10
-151.5989
 20
-63.2962
 30
0.0
 10
-151.5989
 20
-63.2962
 30
0.0
 10
-159.2067
 20
-67.6525
 30
0.0
 10
-159.2067
 20
-67.6525
 30
0.0
 10
-159.2067
 20
-67.6525
 30
0.0
 10
-159.2067
 20
-67.6525
 30
0.0
 10
-166.9098
 20
-63.1904
 30
0.0
 10
-166.9098
 20
-63.1904
 30
0.0
 10
-166.9098
 20
-63.1904
 30
0.0
 10
-166.9098
 20
-63.1904
 30
0.0
 10
-171.502
 20
-69.8166
 30
0.0
 10
-171.502
 20
-69.8166
 30
0.0
  0
SPLINE
  5
77
330
1F
100
AcDbEntity
  8
layer 1
100
AcDbSpline
210
0.0
220
0.0
230
1.0
 70
    11
 71
     3
 72
    20
 73
    16
 74
     0
 42
0.0000000001
 43
0.0000000001
 12
1.0
 22
0.0
 32
0.0
 13
1.0
 23
0.0
 33
0.0
 40
0.0
 40
0.0
 40
0.0
 40
0.0
 40
0.2
 40
0.2
 40
0.2
 40
0.2
 40
0.4
 40
0.4
 40
0.4
 40
0.4
 40
0.6
 40
0.6
 40
0.6
 40
0.6
 40
1.0
 40
1.0
 40
1.0
 40
1.0
 10
-187.2583
 20
-69.81
 30
0.0
 10
-187.2583
 20
-69.81
 30
0.0
 10
-177.1746
 20
-69.81
 30
0.0
 10
-177.1746
 20
-69.81
 30
0.0
 10
-177.1746
 20
-69.81
 30
0.0
 10
-177.1746
 20
-69.81
 30
0.0
 10
-171.2411
 20
-60.5916
 30
0.0
 10
-171.2411
 20
-60.5916
 30
0.0
 10
-171.2411
 20
-60.5916
 30
0.0
 10
-171.3109
 20
-60.5369
 30
0.0
 10
-186.8606
 20
-51.3756
 30
0.0
 10
-187.257
 20
-51.1534
 30
0.0
 10
-187.257
 20
-51.1534
 30
0.0
 10
-187.257
 20
-51.1534
 30
0.0
 10
-187.2583
 20
-69.81
 30
0.0
 10
-187.2583
 20
-69.81
 30
0.0
  0
SPLINE
  5
78
330
1F
100
AcDbEntity
  8
layer 1
100
AcDbSpline
210
0.0
220
0.0
230
1.0
 70
    11
 71
     3
 72
    20
 73
    16
 74
     0
 42
0.0000000001
 43
0.0000000001
 12
1.0
 22
0.0
 32
0.0
 13
1.0
 23
0.0
 33
0.0
 40
0.0
 40
0.0
 40
0.0
 40
0.0
 40
0.2
 40
0.2
 40
0.2
 40
0.2
 40
0.4
 40
0.4
 40
0.4
 40
0.4
 40
0.6
 40
0.6
 40
0.6
 40
0.6
 40
1.0
 40
1.0
 40
1.0
 40
1.0
 10
-147.216
 20
-60.7003
 30
0.0
 10
-145.1815
 20
-63.9439
 30
0.0
 10
-143.5313
 20
-66.3815
 30
0.0
 10
-141.2662
 20
-69.8166
 30
0.0
 10
-141.2662
 20
-69.8166
 30
0.0
 10
-141.2662
 20
-69.8166
 30
0.0
 10
-131.1609
 20
-69.8196
 30
0.0
 10
-131.1609
 20
-69.8196
 30
0.0
 10
-131.1609
 20
-69.8196
 30
0.0
 10
-131.1609
 20
-69.8196
 30
0.0
 10
-131.2208
 20
-51.1144
 30
0.0
 10
-131.2208
 20
-51.1144
 30
0.0
 10
-131.2208
 20
-51.1144
 30
0.0
 10
-131.2208
 20
-51.1144
 30
0.0
 10
-147.216
 20
-60.7003
 30
0.0
 10
-147.216
 20
-60.7003
 30
0.0
  0
SPLINE
  5
79
330
1F
100
AcDbEntity
  8
layer 1
100
AcDbSpline
210
0.0
220
0.0
230
1.0
 70
    11
 71
     3
 72
    24
 73
    20
 74
     0
 42
0.0000000001
 43
0.0000000001
 12
1.0
 22
0.0
 32
0.0
 13
1.0
 23
0.0
 33
0.0
 40
0.0
 40
0.0
 40
0.0
 40
0.0
 40
0.1666666666666667
 40
0.1666666666666667
 40
0.1666666666666667
 40
0.1666666666666667
 40
0.3333333333333333
 40
0.3333333333333333
 40
0.3333333333333333
 40
0.3333333333333333
 40
0.5
 40
0.5
 40
0.5
 40
0.5
 40
0.6666666666666666
 40
0.6666666666666666
 40
0.6666666666666666
 40
0.6666666666666666
 40
1.0
 40
1.0
 40
1.0
 40
1.0
 10
-171.5033
 20
-69.7925
 30
0.0
 10
-171.5033
 20
-69.7925
 30
0.0
 10
-146.9542
 20
-69.7925
 30
0.0
 10
-146.9542
 20
-69.7925
 30
0.0
 10
-146.9542
 20
-69.7925
 30
0.0
 10
-146.9542
 20
-69.7925
 30
0.0
 10
-151.6002
 20
-76.3129
 30
0.0
 10
-151.6002
 20
-76.3129
 30
0.0
 10
-151.6002
 20
-76.3129
 30
0.0
 10
-151.6002
 20
-76.3129
 30
0.0
 10
-159.208
 20
-71.9565
 30
0.0
 10
-159.208
 20
-71.9565
 30
0.0
 10
-159.208
 20
-71.9565
 30
0.0
 10
-159.208
 20
-71.9565
 30
0.0
 10
-166.9111
 20
-76.4186
 30
0.0
 10
-166.9111
 20
-76.4186
 30
0.0
 10
-166.9111
 20
-76.4186
 30
0.0
 10
-166.9111
 20
-76.4186
 30
0.0
 10
-171.5033
 20
-69.7925
 30
0.0
 10
-171.5033
 20
-69.7925
 30
0.0
  0
SPLINE
  5
7A
330
1F
100
AcDbEntity
  8
layer 1
100
AcDbSpline
210
0.0
220
0.0
230
1.0
 70
    11
 71
     3
 72
    20
 73
    16
 74
     0
 42
0.0000000001
 43
0.0000000001
 12
1.0
 22
0.0
 32
0.0
 13
1.0
 23
0.0
 33
0.0
 40
0.0
 40
0.0
 40
0.0
 40
0.0
 40
0.2
 40
0.2
 40
0.2
 40
0.2
 40
0.4
 40
0.4
 40
0.4
 40
0.4
 40
0.6
 40
0.6
 40
0.6
 40
0.6
 40
1.0
 40
1.0
 40
1.0
 40
1.0
 10
-187.2596
 20
-69.799
 30
0.0
 10
-187.2596
 20
-69.799
 30
0.0
 10
-177.1759
 20
-69.799
 30
0.0
 10
-177.1759
 20
-69.799
 30
0.0
 10
-177.1759
 20
-69.799
 30
0.0
 10
-177.1759
 20
-69.799
 30
0.0
 10
-171.2424
 20
-79.0174
 30
0.0
 10
-171.2424
 20
-79.0174
 30
0.0
 10
-171.2424
 20
-79.0174
 30
0.0
 10
-171.3121
 20
-79.0721
 30
0.0
 10
-186.8618
 20
-88.2335
 30
0.0
 10
-187.2583
 20
-88.4556
 30
0.0
 10
-187.2583
 20
-88.4556
 30
0.0
 10
-187.2583
 20
-88.4556
 30
0.0
 10
-187.2596
 20
-69.799
 30
0.0
 10
-187.2596
 20
-69.799
 30
0.0
  0
SPLINE
  5
7B
330
1F
100
AcDbEntity
  8
layer 1
100
AcDbSpline
210
0.0
220
0.0
230
1.0
 70
    11
 71
     3
 72
    24
 73
    20
 74
     0
 42
0.0000000001
 43
0.0000000001
 12
1.0
 22
0.0
 32
0.0
 13
1.0
 23
0.0
 33
0.0
 40
0.0
 40
0.0
 40
0.0
 40
0.0
 40
0.1666666666666667
 40
0.1666666666666667
 40
0.1666666666666667
 40
0.1666666666666667
 40
0.3333333333333333
 40
0.3333333333333333
 40
0.3333333333333333
 40
0.3333333333333333
 40
0.5
 40
0.5
 40
0.5
 40
0.5
 40
0.6666666666666666
 40
0.6666666666666666
 40
0.6666666666666666
 40
0.6666666666666666
 40
1.0
 40
1.0
 40
1.0
 40
1.0
 10
-161.7261
 20
-106.7218
 30
0.0
 10
-161.7261
 20
-106.7218
 30
0.0
 10
-164.1972
 20
-105.0642
 30
0.0
 10
-164.1972
 20
-105.0642
 30
0.0
 10
-164.1972
 20
-105.0642
 30
0.0
 10
-164.1972
 20
-105.0642
 30
0.0
 10
-159.2204
 20
-97.3682
 30
0.0
 10
-159.2204
 20
-97.3682
 30
0.0
 10
-159.2204
 20
-97.3682
 30
0.0
 10
-159.2204
 20
-97.3682
 30
0.0
 10
-154.1765
 20
-105.0319
 30
0.0
 10
-154.1765
 20
-105.0319
 30
0.0
 10
-154.1765
 20
-105.0319
 30
0.0
 10
-154.1765
 20
-105.0319
 30
0.0
 10
-159.2274
 20
-108.1543
 30
0.0
 10
-159.2274
 20
-108.1543
 30
0.0
 10
-159.2274
 20
-108.1543
 30
0.0
 10
-159.2274
 20
-108.1543
 30
0.0
 10
-161.7261
 20
-106.7218
 30
0.0
 10
-161.7261
 20
-106.7218
 30
0.0
  0
SPLINE
  5
7C
330
1F
100
AcDbEntity
  8
layer 1
100
AcDbSpline
210
0.0
220
0.0
230
1.0
 70
    11
 71
     3
 72
    20
 73
    16
 74
     0
 42
0.0000000001
 43
0.0000000001
 12
1.0
 22
0.0
 32
0.0
 13
1.0
 23
0.0
 33
0.0
 40
0.0
 40
0.0
 40
0.0
 40
0.0
 40
0.2
 40
0.2
 40
0.2
 40
0.2
 40
0.4
 40
0.4
 40
0.4
 40
0.4
 40
0.6
 40
0.6
 40
0.6
 40
0.6
 40
1.0
 40
1.0
 40
1.0
 40
1.0
 10
-184.8623
 20
-92.8082
 30
0.0
 10
-184.8623
 20
-92.8082
 30
0.0
 10
-168.4653
 20
-83.0209
 30
0.0
 10
-168.4653
 20
-83.0209
 30
0.0
 10
-168.4653
 20
-83.0209
 30
0.0
 10
-168.4653
 20
-83.0209
 30
0.0
 10
-162.0722
 20
-92.8027
 30
0.0
 10
-162.0722
 20
-92.8027
 30
0.0
 10
-162.0722
 20
-92.8027
 30
0.0
 10
-162.0722
 20
-92.8027
 30
0.0
 10
-168.6104
 20
-102.6303
 30
0.0
 10
-168.6104
 20
-102.6303
 30
0.0
 10
-168.6104
 20
-102.6303
 30
0.0
 10
-168.6104
 20
-102.6303
 30
0.0
 10
-184.8623
 20
-92.8082
 30
0.0
 10
-184.8623
 20
-92.8082
 30
0.0
  0
SPLINE
  5
7D
330
1F
100
AcDbEntity
  8
layer 1
100
AcDbSpline
210
0.0
220
0.0
230
1.0
 70
    11
 71
     3
 72
    20
 73
    16
 74
     0
 42
0.0000000001
 43
0.0000000001
 12
1.0
 22
0.0
 32
0.0
 13
1.0
 23
0.0
 33
0.0
 40
0.0
 40
0.0
 40
0.0
 40
0.0
 40
0.2
 40
0.2
 40
0.2
 40
0.2
 40
0.4
 40
0.4
 40
0.4
 40
0.4
 40
0.6
 40
0.6
 40
0.6
 40
0.6
 40
1.0
 40
1.0
 40
1.0
 40
1.0
 10
-156.391
 20
-92.8217
 30
0.0
 10
-156.391
 20
-92.8217
 30
0.0
 10
-149.9704
 20
-83.0223
 30
0.0
 10
-149.9704
 20
-83.0223
 30
0.0
 10
-149.9704
 20
-83.0223
 30
0.0
 10
-149.9704
 20
-83.0223
 30
0.0
 10
-133.5597
 20
-92.8065
 30
0.0
 10
-133.5597
 20
-92.8065
 30
0.0
 10
-133.5597
 20
-92.8065
 30
0.0
 10
-133.5597
 20
-92.8065
 30
0.0
 10
-149.8205
 20
-102.5737
 30
0.0
 10
-149.8205
 20
-102.5737
 30
0.0
 10
-149.8205
 20
-102.5737
 30
0.0
 10
-149.8205
 20
-102.5737
 30
0.0
 10
-156.391
 20
-92.8217
 30
0.0
 10
-156.391
 20
-92.8217
 30
0.0
  0
SPLINE
  5
7E
330
1F
100
AcDbEntity
  8
layer 1
100
AcDbSpline
210
0.0
220
0.0
230
1.0
 70
    11
 71
     3
 72
    20
 73
    16
 74
     0
 42
0.0000000001
 43
0.0000000001
 12
1.0
 22
0.0
 32
0.0
 13
1.0
 23
0.0
 33
0.0
 40
0.0
 40
0.0
 40
0.0
 40
0.0
 40
0.2
 40
0.2
 40
0.2
 40
0.2
 40
0.4
 40
0.4
 40
0.4
 40
0.4
 40
0.6
 40
0.6
 40
0.6
 40
0.6
 40
1.0
 40
1.0
 40
1.0
 40
1.0
 10
-147.2174
 20
-78.9089
 30
0.0
 10
-145.1829
 20
-75.6652
 30
0.0
 10
-143.5327
 20
-73.2277
 30
0.0
 10
-141.2676
 20
-69.7926
 30
0.0
 10
-141.2676
 20
-69.7926
 30
0.0
 10
-141.2676
 20
-69.7926
 30
0.0
 10
-131.1623
 20
-69.7895
 30
0.0
 10
-131.1623
 20
-69.7895
 30
0.0
 10
-131.1623
 20
-69.7895
 30
0.0
 10
-131.1623
 20
-69.7895
 30
0.0
 10
-131.2222
 20
-88.4947
 30
0.0
 10
-131.2222
 20
-88.4947
 30
0.0
 10
-131.2222
 20
-88.4947
 30
0.0
 10
-131.2222
 20
-88.4947
 30
0.0
 10
-147.2174
 20
-78.9089
 30
0.0
 10
-147.2174
 20
-78.9089
 30
0.0
  0
SPLINE
  5
7F
330
1F
100
AcDbEntity
  8
layer 1
100
AcDbSpline
210
0.0
220
0.0
230
1.0
 70
    11
 71
     3
 72
    20
 73
    16
 74
     0
 42
0.0000000001
 43
0.0000000001
 12
1.0
 22
0.0
 32
0.0
 13
1.0
 23
0.0
 33
0.0
 40
0.0
 40
0.0
 40
0.0
 40
0.0
 40
0.2
 40
0.2
 40
0.2
 40
0.2
 40
0.4
 40
0.4
 40
0.4
 40
0.4
 40
0.6
 40
0.6
 40
0.6
 40
0.6
 40
1.0
 40
1.0
 40
1.0
 40
1.0
 10
-164.2453
 20
-80.5794
 30
0.0
 10
-164.2453
 20
-80.5794
 30
0.0
 10
-159.1871
 20
-77.5325
 30
0.0
 10
-159.1871
 20
-77.5325
 30
0.0
 10
-159.1871
 20
-77.5325
 30
0.0
 10
-159.1871
 20
-77.5325
 30
0.0
 10
-154.1765
 20
-80.5854
 30
0.0
 10
-154.1765
 20
-80.5854
 30
0.0
 10
-154.1765
 20
-80.5854
 30
0.0
 10
-154.1765
 20
-80.5854
 30
0.0
 10
-159.1817
 20
-88.207
 30
0.0
 10
-159.1817
 20
-88.207
 30
0.0
 10
-159.1817
 20
-88.207
 30
0.0
 10
-159.1817
 20
-88.207
 30
0.0
 10
-164.2453
 20
-80.5794
 30
0.0
 10
-164.2453
 20
-80.5794
 30
0.0
  0
SPLINE
  5
80
330
1F
100
AcDbEntity
  8
layer 1
100
AcDbSpline
210
0.0
220
0.0
230
1.0
 70
    11
 71
     3
 72
    24
 73
    20
 74
     0
 42
0.0000000001
 43
0.0000000001
 12
1.0
 22
0.0
 32
0.0
 13
1.0
 23
0.0
 33
0.0
 40
0.0
 40
0.0
 40
0.0
 40
0.0
 40
0.1666666666666667
 40
0.1666666666666667
 40
0.1666666666666667
 40
0.1666666666666667
 40
0.3333333333333333
 40
0.3333333333333333
 40
0.3333333333333333
 40
0.3333333333333333
 40
0.5
 40
0.5
 40
0.5
 40
0.5
 40
0.6666666666666666
 40
0.6666666666666666
 40
0.6666666666666666
 40
0.6666666666666666
 40
1.0
 40
1.0
 40
1.0
 40
1.0
 10
-171.502
 20
-115.8423
 30
0.0
 10
-171.502
 20
-115.8423
 30
0.0
 10
-146.9529
 20
-115.8423
 30
0.0
 10
-146.9529
 20
-115.8423
 30
0.0
 10
-146.9529
 20
-115.8423
 30
0.0
 10
-146.9529
 20
-115.8423
 30
0.0
 10
-151.5989
 20
-109.3219
 30
0.0
 10
-151.5989
 20
-109.3219
 30
0.0
 10
-151.5989
 20
-109.3219
 30
0.0
 10
-151.5989
 20
-109.3219
 30
0.0
 10
-159.2067
 20
-113.6782
 30
0.0
 10
-159.2067
 20
-113.6782
 30
0.0
 10
-159.2067
 20
-113.6782
 30
0.0
 10
-159.2067
 20
-113.6782
 30
0.0
 10
-166.9098
 20
-109.2162
 30
0.0
 10
-166.9098
 20
-109.2162
 30
0.0
 10
-166.9098
 20
-109.2162
 30
0.0
 10
-166.9098
 20
-109.2162
 30
0.0
 10
-171.502
 20
-115.8423
 30
0.0
 10
-171.502
 20
-115.8423
 30
0.0
  0
SPLINE
  5
81
330
1F
100
AcDbEntity
  8
layer 1
100
AcDbSpline
210
0.0
220
0.0
230
1.0
 70
    11
 71
     3
 72
    20
 73
    16
 74
     0
 42
0.0000000001
 43
0.0000000001
 12
1.0
 22
0.0
 32
0.0
 13
1.0
 23
0.0
 33
0.0
 40
0.0
 40
0.0
 40
0.0
 40
0.0
 40
0.2
 40
0.2
 40
0.2
 40
0.2
 40
0.4
 40
0.4
 40
0.4
 40
0.4
 40
0.6
 40
0.6
 40
0.6
 40
0.6
 40
1.0
 40
1.0
 40
1.0
 40
1.0
 10
-187.2583
 20
-115.8358
 30
0.0
 10
-187.2583
 20
-115.8358
 30
0.0
 10
-177.1746
 20
-115.8358
 30
0.0
 10
-177.1746
 20
-115.8358
 30
0.0
 10
-177.1746
 20
-115.8358
 30
0.0
 10
-177.1746
 20
-115.8358
 30
0.0
 10
-171.2411
 20
-106.6174
 30
0.0
 10
-171.2411
 20
-106.6174
 30
0.0
 10
-171.2411
 20
-106.6174
 30
0.0
 10
-171.3109
 20
-106.5627
 30
0.0
 10
-186.8606
 20
-97.4013
 30
0.0
 10
-187.257
 20
-97.1791
 30
0.0
 10
-187.257
 20
-97.1791
 30
0.0
 10
-187.257
 20
-97.1791
 30
0.0
 10
-187.2583
 20
-115.8358
 30
0.0
 10
-187.2583
 20
-115.8358
 30
0.0
  0
SPLINE
  5
82
330
1F
100
AcDbEntity
  8
layer 1
100
AcDbSpline
210
0.0
220
0.0
230
1.0
 70
    11
 71
     3
 72
    20
 73
    16
 74
     0
 42
0.0000000001
 43
0.0000000001
 12
1.0
 22
0.0
 32
0.0
 13
1.0
 23
0.0
 33
0.0
 40
0.0
 40
0.0
 40
0.0
 40
0.0
 40
0.2
 40
0.2
 40
0.2
 40
0.2
 40
0.4
 40
0.4
 40
0.4
 40
0.4
 40
0.6
 40
0.6
 40
0.6
 40
0.6
 40
1.0
 40
1.0
 40
1.0
 40
1.0
 10
-147.216
 20
-106.726
 30
0.0
 10
-145.1815
 20
-109.9697
 30
0.0
 10
-143.5313
 20
-112.4072
 30
0.0
 10
-141.2662
 20
-115.8423
 30
0.0
 10
-141.2662
 20
-115.8423
 30
0.0
 10
-141.2662
 20
-115.8423
 30
0.0
 10
-131.1609
 20
-115.8454
 30
0.0
 10
-131.1609
 20
-115.8454
 30
0.0
 10
-131.1609
 20
-115.8454
 30
0.0
 10
-131.1609
 20
-115.8454
 30
0.0
 10
-131.2208
 20
-97.1402
 30
0.0
 10
-131.2208
 20
-97.1402
 30
0.0
 10
-131.2208
 20
-97.1402
 30
0.0
 10
-131.2208
 20
-97.1402
 30
0.0
 10
-147.216
 20
-106.726
 30
0.0
 10
-147.216
 20
-106.726
 30
0.0
  0
SPLINE
  5
83
330
1F
100
AcDbEntity
  8
layer 1
100
AcDbSpline
210
0.0
220
0.0
230
1.0
 70
    11
 71
     3
 72
    24
 73
    20
 74
     0
 42
0.0000000001
 43
0.0000000001
 12
1.0
 22
0.0
 32
0.0
 13
1.0
 23
0.0
 33
0.0
 40
0.0
 40
0.0
 40
0.0
 40
0.0
 40
0.1666666666666667
 40
0.1666666666666667
 40
0.1666666666666667
 40
0.1666666666666667
 40
0.3333333333333333
 40
0.3333333333333333
 40
0.3333333333333333
 40
0.3333333333333333
 40
0.5
 40
0.5
 40
0.5
 40
0.5
 40
0.6666666666666666
 40
0.6666666666666666
 40
0.6666666666666666
 40
0.6666666666666666
 40
1.0
 40
1.0
 40
1.0
 40
1.0
 10
-115.448
 20
68.3087
 30
0.0
 10
-115.448
 20
68.3087
 30
0.0
 10
-90.8989
 20
68.3087
 30
0.0
 10
-90.8989
 20
68.3087
 30
0.0
 10
-90.8989
 20
68.3087
 30
0.0
 10
-90.8989
 20
68.3087
 30
0.0
 10
-95.5449
 20
61.7883
 30
0.0
 10
-95.5449
 20
61.7883
 30
0.0
 10
-95.5449
 20
61.7883
 30
0.0
 10
-95.5449
 20
61.7883
 30
0.0
 10
-103.1527
 20
66.1446
 30
0.0
 10
-103.1527
 20
66.1446
 30
0.0
 10
-103.1527
 20
66.1446
 30
0.0
 10
-103.1527
 20
66.1446
 30
0.0
 10
-110.8558
 20
61.6826
 30
0.0
 10
-110.8558
 20
61.6826
 30
0.0
 10
-110.8558
 20
61.6826
 30
0.0
 10
-110.8558
 20
61.6826
 30
0.0
 10
-115.448
 20
68.3087
 30
0.0
 10
-115.448
 20
68.3087
 30
0.0
  0
SPLINE
  5
84
330
1F
100
AcDbEntity
  8
layer 1
100
AcDbSpline
210
0.0
220
0.0
230
1.0
 70
    11
 71
     3
 72
    20
 73
    16
 74
     0
 42
0.0000000001
 43
0.0000000001
 12
1.0
 22
0.0
 32
0.0
 13
1.0
 23
0.0
 33
0.0
 40
0.0
 40
0.0
 40
0.0
 40
0.0
 40
0.2
 40
0.2
 40
0.2
 40
0.2
 40
0.4
 40
0.4
 40
0.4
 40
0.4
 40
0.6
 40
0.6
 40
0.6
 40
0.6
 40
1.0
 40
1.0
 40
1.0
 40
1.0
 10
-131.2043
 20
68.3022
 30
0.0
 10
-131.2043
 20
68.3022
 30
0.0
 10
-121.1206
 20
68.3022
 30
0.0
 10
-121.1206
 20
68.3022
 30
0.0
 10
-121.1206
 20
68.3022
 30
0.0
 10
-121.1206
 20
68.3022
 30
0.0
 10
-115.1871
 20
59.0838
 30
0.0
 10
-115.1871
 20
59.0838
 30
0.0
 10
-115.1871
 20
59.0838
 30
0.0
 10
-115.2568
 20
59.029
 30
0.0
 10
-130.8066
 20
49.8677
 30
0.0
 10
-131.203
 20
49.6455
 30
0.0
 10
-131.203
 20
49.6455
 30
0.0
 10
-131.203
 20
49.6455
 30
0.0
 10
-131.2043
 20
68.3022
 30
0.0
 10
-131.2043
 20
68.3022
 30
0.0
  0
SPLINE
  5
85
330
1F
100
AcDbEntity
  8
layer 1
100
AcDbSpline
210
0.0
220
0.0
230
1.0
 70
    11
 71
     3
 72
    24
 73
    20
 74
     0
 42
0.0000000001
 43
0.0000000001
 12
1.0
 22
0.0
 32
0.0
 13
1.0
 23
0.0
 33
0.0
 40
0.0
 40
0.0
 40
0.0
 40
0.0
 40
0.1666666666666667
 40
0.1666666666666667
 40
0.1666666666666667
 40
0.1666666666666667
 40
0.3333333333333333
 40
0.3333333333333333
 40
0.3333333333333333
 40
0.3333333333333333
 40
0.5
 40
0.5
 40
0.5
 40
0.5
 40
0.6666666666666666
 40
0.6666666666666666
 40
0.6666666666666666
 40
0.6666666666666666
 40
1.0
 40
1.0
 40
1.0
 40
1.0
 10
-105.6708
 20
31.3794
 30
0.0
 10
-105.6708
 20
31.3794
 30
0.0
 10
-108.1419
 20
33.037
 30
0.0
 10
-108.1419
 20
33.037
 30
0.0
 10
-108.1419
 20
33.037
 30
0.0
 10
-108.1419
 20
33.037
 30
0.0
 10
-103.1651
 20
40.7329
 30
0.0
 10
-103.1651
 20
40.7329
 30
0.0
 10
-103.1651
 20
40.7329
 30
0.0
 10
-103.1651
 20
40.7329
 30
0.0
 10
-98.1212
 20
33.0693
 30
0.0
 10
-98.1212
 20
33.0693
 30
0.0
 10
-98.1212
 20
33.0693
 30
0.0
 10
-98.1212
 20
33.0693
 30
0.0
 10
-103.1722
 20
29.9469
 30
0.0
 10
-103.1722
 20
29.9469
 30
0.0
 10
-103.1722
 20
29.9469
 30
0.0
 10
-103.1722
 20
29.9469
 30
0.0
 10
-105.6708
 20
31.3794
 30
0.0
 10
-105.6708
 20
31.3794
 30
0.0
  0
SPLINE
  5
86
330
1F
100
AcDbEntity
  8
layer 1
100
AcDbSpline
210
0.0
220
0.0
230
1.0
 70
    11
 71
     3
 72
    20
 73
    16
 74
     0
 42
0.0000000001
 43
0.0000000001
 12
1.0
 22
0.0
 32
0.0
 13
1.0
 23
0.0
 33
0.0
 40
0.0
 40
0.0
 40
0.0
 40
0.0
 40
0.2
 40
0.2
 40
0.2
 40
0.2
 40
0.4
 40
0.4
 40
0.4
 40
0.4
 40
0.6
 40
0.6
 40
0.6
 40
0.6
 40
1.0
 40
1.0
 40
1.0
 40
1.0
 10
-128.807
 20
45.2929
 30
0.0
 10
-128.807
 20
45.2929
 30
0.0
 10
-112.41
 20
55.0803
 30
0.0
 10
-112.41
 20
55.0803
 30
0.0
 10
-112.41
 20
55.0803
 30
0.0
 10
-112.41
 20
55.0803
 30
0.0
 10
-106.0169
 20
45.2985
 30
0.0
 10
-106.0169
 20
45.2985
 30
0.0
 10
-106.0169
 20
45.2985
 30
0.0
 10
-106.0169
 20
45.2985
 30
0.0
 10
-112.5551
 20
35.4709
 30
0.0
 10
-112.5551
 20
35.4709
 30
0.0
 10
-112.5551
 20
35.4709
 30
0.0
 10
-112.5551
 20
35.4709
 30
0.0
 10
-128.807
 20
45.2929
 30
0.0
 10
-128.807
 20
45.2929
 30
0.0
  0
SPLINE
  5
87
330
1F
100
AcDbEntity
  8
layer 1
100
AcDbSpline
210
0.0
220
0.0
230
1.0
 70
    11
 71
     3
 72
    20
 73
    16
 74
     0
 42
0.0000000001
 43
0.0000000001
 12
1.0
 22
0.0
 32
0.0
 13
1.0
 23
0.0
 33
0.0
 40
0.0
 40
0.0
 40
0.0
 40
0.0
 40
0.2
 40
0.2
 40
0.2
 40
0.2
 40
0.4
 40
0.4
 40
0.4
 40
0.4
 40
0.6
 40
0.6
 40
0.6
 40
0.6
 40
1.0
 40
1.0
 40
1.0
 40
1.0
 10
-100.3357
 20
45.2794
 30
0.0
 10
-100.3357
 20
45.2794
 30
0.0
 10
-93.9151
 20
55.0789
 30
0.0
 10
-93.9151
 20
55.0789
 30
0.0
 10
-93.9151
 20
55.0789
 30
0.0
 10
-93.9151
 20
55.0789
 30
0.0
 10
-77.5044
 20
45.2947
 30
0.0
 10
-77.5044
 20
45.2947
 30
0.0
 10
-77.5044
 20
45.2947
 30
0.0
 10
-77.5044
 20
45.2947
 30
0.0
 10
-93.7652
 20
35.5274
 30
0.0
 10
-93.7652
 20
35.5274
 30
0.0
 10
-93.7652
 20
35.5274
 30
0.0
 10
-93.7652
 20
35.5274
 30
0.0
 10
-100.3357
 20
45.2794
 30
0.0
 10
-100.3357
 20
45.2794
 30
0.0
  0
SPLINE
  5
88
330
1F
100
AcDbEntity
  8
layer 1
100
AcDbSpline
210
0.0
220
0.0
230
1.0
 70
    11
 71
     3
 72
    20
 73
    16
 74
     0
 42
0.0000000001
 43
0.0000000001
 12
1.0
 22
0.0
 32
0.0
 13
1.0
 23
0.0
 33
0.0
 40
0.0
 40
0.0
 40
0.0
 40
0.0
 40
0.2
 40
0.2
 40
0.2
 40
0.2
 40
0.4
 40
0.4
 40
0.4
 40
0.4
 40
0.6
 40
0.6
 40
0.6
 40
0.6
 40
1.0
 40
1.0
 40
1.0
 40
1.0
 10
-91.1621
 20
59.1923
 30
0.0
 10
-89.1276
 20
62.436
 30
0.0
 10
-87.4774
 20
64.8735
 30
0.0
 10
-85.2123
 20
68.3086
 30
0.0
 10
-85.2123
 20
68.3086
 30
0.0
 10
-85.2123
 20
68.3086
 30
0.0
 10
-75.107
 20
68.3117
 30
0.0
 10
-75.107
 20
68.3117
 30
0.0
 10
-75.107
 20
68.3117
 30
0.0
 10
-75.107
 20
68.3117
 30
0.0
 10
-75.1669
 20
49.6065
 30
0.0
 10
-75.1669
 20
49.6065
 30
0.0
 10
-75.1669
 20
49.6065
 30
0.0
 10
-75.1669
 20
49.6065
 30
0.0
 10
-91.1621
 20
59.1923
 30
0.0
 10
-91.1621
 20
59.1923
 30
0.0
  0
SPLINE
  5
89
330
1F
100
AcDbEntity
  8
layer 1
100
AcDbSpline
210
0.0
220
0.0
230
1.0
 70
    11
 71
     3
 72
    20
 73
    16
 74
     0
 42
0.0000000001
 43
0.0000000001
 12
1.0
 22
0.0
 32
0.0
 13
1.0
 23
0.0
 33
0.0
 40
0.0
 40
0.0
 40
0.0
 40
0.0
 40
0.2
 40
0.2
 40
0.2
 40
0.2
 40
0.4
 40
0.4
 40
0.4
 40
0.4
 40
0.6
 40
0.6
 40
0.6
 40
0.6
 40
1.0
 40
1.0
 40
1.0
 40
1.0
 10
-108.19
 20
57.5218
 30
0.0
 10
-108.19
 20
57.5218
 30
0.0
 10
-103.1318
 20
60.5687
 30
0.0
 10
-103.1318
 20
60.5687
 30
0.0
 10
-103.1318
 20
60.5687
 30
0.0
 10
-103.1318
 20
60.5687
 30
0.0
 10
-98.1212
 20
57.5158
 30
0.0
 10
-98.1212
 20
57.5158
 30
0.0
 10
-98.1212
 20
57.5158
 30
0.0
 10
-98.1212
 20
57.5158
 30
0.0
 10
-103.1264
 20
49.8942
 30
0.0
 10
-103.1264
 20
49.8942
 30
0.0
 10
-103.1264
 20
49.8942
 30
0.0
 10
-103.1264
 20
49.8942
 30
0.0
 10
-108.19
 20
57.5218
 30
0.0
 10
-108.19
 20
57.5218
 30
0.0
  0
SPLINE
  5
8A
330
1F
100
AcDbEntity
  8
layer 1
100
AcDbSpline
210
0.0
220
0.0
230
1.0
 70
    11
 71
     3
 72
    24
 73
    20
 74
     0
 42
0.0000000001
 43
0.0000000001
 12
1.0
 22
0.0
 32
0.0
 13
1.0
 23
0.0
 33
0.0
 40
0.0
 40
0.0
 40
0.0
 40
0.0
 40
0.1666666666666667
 40
0.1666666666666667
 40
0.1666666666666667
 40
0.1666666666666667
 40
0.3333333333333333
 40
0.3333333333333333
 40
0.3333333333333333
 40
0.3333333333333333
 40
0.5
 40
0.5
 40
0.5
 40
0.5
 40
0.6666666666666666
 40
0.6666666666666666
 40
0.6666666666666666
 40
0.6666666666666666
 40
1.0
 40
1.0
 40
1.0
 40
1.0
 10
-115.4468
 20
22.2589
 30
0.0
 10
-115.4468
 20
22.2589
 30
0.0
 10
-90.8976
 20
22.2589
 30
0.0
 10
-90.8976
 20
22.2589
 30
0.0
 10
-90.8976
 20
22.2589
 30
0.0
 10
-90.8976
 20
22.2589
 30
0.0
 10
-95.5436
 20
28.7793
 30
0.0
 10
-95.5436
 20
28.7793
 30
0.0
 10
-95.5436
 20
28.7793
 30
0.0
 10
-95.5436
 20
28.7793
 30
0.0
 10
-103.1514
 20
24.4229
 30
0.0
 10
-103.1514
 20
24.4229
 30
0.0
 10
-103.1514
 20
24.4229
 30
0.0
 10
-103.1514
 20
24.4229
 30
0.0
 10
-110.8545
 20
28.885
 30
0.0
 10
-110.8545
 20
28.885
 30
0.0
 10
-110.8545
 20
28.885
 30
0.0
 10
-110.8545
 20
28.885
 30
0.0
 10
-115.4468
 20
22.2589
 30
0.0
 10
-115.4468
 20
22.2589
 30
0.0
  0
SPLINE
  5
8B
330
1F
100
AcDbEntity
  8
layer 1
100
AcDbSpline
210
0.0
220
0.0
230
1.0
 70
    11
 71
     3
 72
    20
 73
    16
 74
     0
 42
0.0000000001
 43
0.0000000001
 12
1.0
 22
0.0
 32
0.0
 13
1.0
 23
0.0
 33
0.0
 40
0.0
 40
0.0
 40
0.0
 40
0.0
 40
0.2
 40
0.2
 40
0.2
 40
0.2
 40
0.4
 40
0.4
 40
0.4
 40
0.4
 40
0.6
 40
0.6
 40
0.6
 40
0.6
 40
1.0
 40
1.0
 40
1.0
 40
1.0
 10
-131.2031
 20
22.2654
 30
0.0
 10
-131.2031
 20
22.2654
 30
0.0
 10
-121.1193
 20
22.2654
 30
0.0
 10
-121.1193
 20
22.2654
 30
0.0
 10
-121.1193
 20
22.2654
 30
0.0
 10
-121.1193
 20
22.2654
 30
0.0
 10
-115.1858
 20
31.4838
 30
0.0
 10
-115.1858
 20
31.4838
 30
0.0
 10
-115.1858
 20
31.4838
 30
0.0
 10
-115.2556
 20
31.5385
 30
0.0
 10
-130.8053
 20
40.6999
 30
0.0
 10
-131.2017
 20
40.922
 30
0.0
 10
-131.2017
 20
40.922
 30
0.0
 10
-131.2017
 20
40.922
 30
0.0
 10
-131.2031
 20
22.2654
 30
0.0
 10
-131.2031
 20
22.2654
 30
0.0
  0
SPLINE
  5
8C
330
1F
100
AcDbEntity
  8
layer 1
100
AcDbSpline
210
0.0
220
0.0
230
1.0
 70
    11
 71
     3
 72
    20
 73
    16
 74
     0
 42
0.0000000001
 43
0.0000000001
 12
1.0
 22
0.0
 32
0.0
 13
1.0
 23
0.0
 33
0.0
 40
0.0
 40
0.0
 40
0.0
 40
0.0
 40
0.2
 40
0.2
 40
0.2
 40
0.2
 40
0.4
 40
0.4
 40
0.4
 40
0.4
 40
0.6
 40
0.6
 40
0.6
 40
0.6
 40
1.0
 40
1.0
 40
1.0
 40
1.0
 10
-91.1608
 20
31.3752
 30
0.0
 10
-89.1263
 20
28.1315
 30
0.0
 10
-87.476
 20
25.694
 30
0.0
 10
-85.2109
 20
22.2589
 30
0.0
 10
-85.2109
 20
22.2589
 30
0.0
 10
-85.2109
 20
22.2589
 30
0.0
 10
-75.1056
 20
22.2558
 30
0.0
 10
-75.1056
 20
22.2558
 30
0.0
 10
-75.1056
 20
22.2558
 30
0.0
 10
-75.1056
 20
22.2558
 30
0.0
 10
-75.1655
 20
40.961
 30
0.0
 10
-75.1655
 20
40.961
 30
0.0
 10
-75.1655
 20
40.961
 30
0.0
 10
-75.1655
 20
40.961
 30
0.0
 10
-91.1608
 20
31.3752
 30
0.0
 10
-91.1608
 20
31.3752
 30
0.0
  0
SPLINE
  5
8D
330
1F
100
AcDbEntity
  8
layer 1
100
AcDbSpline
210
0.0
220
0.0
230
1.0
 70
    11
 71
     3
 72
    24
 73
    20
 74
     0
 42
0.0000000001
 43
0.0000000001
 12
1.0
 22
0.0
 32
0.0
 13
1.0
 23
0.0
 33
0.0
 40
0.0
 40
0.0
 40
0.0
 40
0.0
 40
0.1666666666666667
 40
0.1666666666666667
 40
0.1666666666666667
 40
0.1666666666666667
 40
0.3333333333333333
 40
0.3333333333333333
 40
0.3333333333333333
 40
0.3333333333333333
 40
0.5
 40
0.5
 40
0.5
 40
0.5
 40
0.6666666666666666
 40
0.6666666666666666
 40
0.6666666666666666
 40
0.6666666666666666
 40
1.0
 40
1.0
 40
1.0
 40
1.0
 10
-115.448
 20
22.283
 30
0.0
 10
-115.448
 20
22.283
 30
0.0
 10
-90.8989
 20
22.283
 30
0.0
 10
-90.8989
 20
22.283
 30
0.0
 10
-90.8989
 20
22.283
 30
0.0
 10
-90.8989
 20
22.283
 30
0.0
 10
-95.5449
 20
15.7626
 30
0.0
 10
-95.5449
 20
15.7626
 30
0.0
 10
-95.5449
 20
15.7626
 30
0.0
 10
-95.5449
 20
15.7626
 30
0.0
 10
-103.1527
 20
20.1189
 30
0.0
 10
-103.1527
 20
20.1189
 30
0.0
 10
-103.1527
 20
20.1189
 30
0.0
 10
-103.1527
 20
20.1189
 30
0.0
 10
-110.8558
 20
15.6568
 30
0.0
 10
-110.8558
 20
15.6568
 30
0.0
 10
-110.8558
 20
15.6568
 30
0.0
 10
-110.8558
 20
15.6568
 30
0.0
 10
-115.448
 20
22.283
 30
0.0
 10
-115.448
 20
22.283
 30
0.0
  0
SPLINE
  5
8E
330
1F
100
AcDbEntity
  8
layer 1
100
AcDbSpline
210
0.0
220
0.0
230
1.0
 70
    11
 71
     3
 72
    20
 73
    16
 74
     0
 42
0.0000000001
 43
0.0000000001
 12
1.0
 22
0.0
 32
0.0
 13
1.0
 23
0.0
 33
0.0
 40
0.0
 40
0.0
 40
0.0
 40
0.0
 40
0.2
 40
0.2
 40
0.2
 40
0.2
 40
0.4
 40
0.4
 40
0.4
 40
0.4
 40
0.6
 40
0.6
 40
0.6
 40
0.6
 40
1.0
 40
1.0
 40
1.0
 40
1.0
 10
-131.2043
 20
22.2764
 30
0.0
 10
-131.2043
 20
22.2764
 30
0.0
 10
-121.1206
 20
22.2764
 30
0.0
 10
-121.1206
 20
22.2764
 30
0.0
 10
-121.1206
 20
22.2764
 30
0.0
 10
-121.1206
 20
22.2764
 30
0.0
 10
-115.1871
 20
13.058
 30
0.0
 10
-115.1871
 20
13.058
 30
0.0
 10
-115.1871
 20
13.058
 30
0.0
 10
-115.2568
 20
13.0033
 30
0.0
 10
-130.8066
 20
3.842
 30
0.0
 10
-131.203
 20
3.6198
 30
0.0
 10
-131.203
 20
3.6198
 30
0.0
 10
-131.203
 20
3.6198
 30
0.0
 10
-131.2043
 20
22.2764
 30
0.0
 10
-131.2043
 20
22.2764
 30
0.0
  0
SPLINE
  5
8F
330
1F
100
AcDbEntity
  8
layer 1
100
AcDbSpline
210
0.0
220
0.0
230
1.0
 70
    11
 71
     3
 72
    24
 73
    20
 74
     0
 42
0.0000000001
 43
0.0000000001
 12
1.0
 22
0.0
 32
0.0
 13
1.0
 23
0.0
 33
0.0
 40
0.0
 40
0.0
 40
0.0
 40
0.0
 40
0.1666666666666667
 40
0.1666666666666667
 40
0.1666666666666667
 40
0.1666666666666667
 40
0.3333333333333333
 40
0.3333333333333333
 40
0.3333333333333333
 40
0.3333333333333333
 40
0.5
 40
0.5
 40
0.5
 40
0.5
 40
0.6666666666666666
 40
0.6666666666666666
 40
0.6666666666666666
 40
0.6666666666666666
 40
1.0
 40
1.0
 40
1.0
 40
1.0
 10
-105.6708
 20
-14.6463
 30
0.0
 10
-105.6708
 20
-14.6463
 30
0.0
 10
-108.1419
 20
-12.9888
 30
0.0
 10
-108.1419
 20
-12.9888
 30
0.0
 10
-108.1419
 20
-12.9888
 30
0.0
 10
-108.1419
 20
-12.9888
 30
0.0
 10
-103.1651
 20
-5.2928
 30
0.0
 10
-103.1651
 20
-5.2928
 30
0.0
 10
-103.1651
 20
-5.2928
 30
0.0
 10
-103.1651
 20
-5.2928
 30
0.0
 10
-98.1212
 20
-12.9565
 30
0.0
 10
-98.1212
 20
-12.9565
 30
0.0
 10
-98.1212
 20
-12.9565
 30
0.0
 10
-98.1212
 20
-12.9565
 30
0.0
 10
-103.1722
 20
-16.0788
 30
0.0
 10
-103.1722
 20
-16.0788
 30
0.0
 10
-103.1722
 20
-16.0788
 30
0.0
 10
-103.1722
 20
-16.0788
 30
0.0
 10
-105.6708
 20
-14.6463
 30
0.0
 10
-105.6708
 20
-14.6463
 30
0.0
  0
SPLINE
  5
90
330
1F
100
AcDbEntity
  8
layer 1
100
AcDbSpline
210
0.0
220
0.0
230
1.0
 70
    11
 71
     3
 72
    20
 73
    16
 74
     0
 42
0.0000000001
 43
0.0000000001
 12
1.0
 22
0.0
 32
0.0
 13
1.0
 23
0.0
 33
0.0
 40
0.0
 40
0.0
 40
0.0
 40
0.0
 40
0.2
 40
0.2
 40
0.2
 40
0.2
 40
0.4
 40
0.4
 40
0.4
 40
0.4
 40
0.6
 40
0.6
 40
0.6
 40
0.6
 40
1.0
 40
1.0
 40
1.0
 40
1.0
 10
-128.807
 20
-0.7328
 30
0.0
 10
-128.807
 20
-0.7328
 30
0.0
 10
-112.41
 20
9.0545
 30
0.0
 10
-112.41
 20
9.0545
 30
0.0
 10
-112.41
 20
9.0545
 30
0.0
 10
-112.41
 20
9.0545
 30
0.0
 10
-106.0169
 20
-0.7273
 30
0.0
 10
-106.0169
 20
-0.7273
 30
0.0
 10
-106.0169
 20
-0.7273
 30
0.0
 10
-106.0169
 20
-0.7273
 30
0.0
 10
-112.5551
 20
-10.5549
 30
0.0
 10
-112.5551
 20
-10.5549
 30
0.0
 10
-112.5551
 20
-10.5549
 30
0.0
 10
-112.5551
 20
-10.5549
 30
0.0
 10
-128.807
 20
-0.7328
 30
0.0
 10
-128.807
 20
-0.7328
 30
0.0
  0
SPLINE
  5
91
330
1F
100
AcDbEntity
  8
layer 1
100
AcDbSpline
210
0.0
220
0.0
230
1.0
 70
    11
 71
     3
 72
    20
 73
    16
 74
     0
 42
0.0000000001
 43
0.0000000001
 12
1.0
 22
0.0
 32
0.0
 13
1.0
 23
0.0
 33
0.0
 40
0.0
 40
0.0
 40
0.0
 40
0.0
 40
0.2
 40
0.2
 40
0.2
 40
0.2
 40
0.4
 40
0.4
 40
0.4
 40
0.4
 40
0.6
 40
0.6
 40
0.6
 40
0.6
 40
1.0
 40
1.0
 40
1.0
 40
1.0
 10
-100.3357
 20
-0.7463
 30
0.0
 10
-100.3357
 20
-0.7463
 30
0.0
 10
-93.9151
 20
9.0532
 30
0.0
 10
-93.9151
 20
9.0532
 30
0.0
 10
-93.9151
 20
9.0532
 30
0.0
 10
-93.9151
 20
9.0532
 30
0.0
 10
-77.5044
 20
-0.7311
 30
0.0
 10
-77.5044
 20
-0.7311
 30
0.0
 10
-77.5044
 20
-0.7311
 30
0.0
 10
-77.5044
 20
-0.7311
 30
0.0
 10
-93.7652
 20
-10.4983
 30
0.0
 10
-93.7652
 20
-10.4983
 30
0.0
 10
-93.7652
 20
-10.4983
 30
0.0
 10
-93.7652
 20
-10.4983
 30
0.0
 10
-100.3357
 20
-0.7463
 30
0.0
 10
-100.3357
 20
-0.7463
 30
0.0
  0
SPLINE
  5
92
330
1F
100
AcDbEntity
  8
layer 1
100
AcDbSpline
210
0.0
220
0.0
230
1.0
 70
    11
 71
     3
 72
    20
 73
    16
 74
     0
 42
0.0000000001
 43
0.0000000001
 12
1.0
 22
0.0
 32
0.0
 13
1.0
 23
0.0
 33
0.0
 40
0.0
 40
0.0
 40
0.0
 40
0.0
 40
0.2
 40
0.2
 40
0.2
 40
0.2
 40
0.4
 40
0.4
 40
0.4
 40
0.4
 40
0.6
 40
0.6
 40
0.6
 40
0.6
 40
1.0
 40
1.0
 40
1.0
 40
1.0
 10
-91.1621
 20
13.1666
 30
0.0
 10
-89.1276
 20
16.4102
 30
0.0
 10
-87.4774
 20
18.8478
 30
0.0
 10
-85.2123
 20
22.2829
 30
0.0
 10
-85.2123
 20
22.2829
 30
0.0
 10
-85.2123
 20
22.2829
 30
0.0
 10
-75.107
 20
22.286
 30
0.0
 10
-75.107
 20
22.286
 30
0.0
 10
-75.107
 20
22.286
 30
0.0
 10
-75.107
 20
22.286
 30
0.0
 10
-75.1669
 20
3.5807
 30
0.0
 10
-75.1669
 20
3.5807
 30
0.0
 10
-75.1669
 20
3.5807
 30
0.0
 10
-75.1669
 20
3.5807
 30
0.0
 10
-91.1621
 20
13.1666
 30
0.0
 10
-91.1621
 20
13.1666
 30
0.0
  0
SPLINE
  5
93
330
1F
100
AcDbEntity
  8
layer 1
100
AcDbSpline
210
0.0
220
0.0
230
1.0
 70
    11
 71
     3
 72
    20
 73
    16
 74
     0
 42
0.0000000001
 43
0.0000000001
 12
1.0
 22
0.0
 32
0.0
 13
1.0
 23
0.0
 33
0.0
 40
0.0
 40
0.0
 40
0.0
 40
0.0
 40
0.2
 40
0.2
 40
0.2
 40
0.2
 40
0.4
 40
0.4
 40
0.4
 40
0.4
 40
0.6
 40
0.6
 40
0.6
 40
0.6
 40
1.0
 40
1.0
 40
1.0
 40
1.0
 10
-108.19
 20
11.496
 30
0.0
 10
-108.19
 20
11.496
 30
0.0
 10
-103.1318
 20
14.5429
 30
0.0
 10
-103.1318
 20
14.5429
 30
0.0
 10
-103.1318
 20
14.5429
 30
0.0
 10
-103.1318
 20
14.5429
 30
0.0
 10
-98.1212
 20
11.4901
 30
0.0
 10
-98.1212
 20
11.4901
 30
0.0
 10
-98.1212
 20
11.4901
 30
0.0
 10
-98.1212
 20
11.4901
 30
0.0
 10
-103.1264
 20
3.8684
 30
0.0
 10
-103.1264
 20
3.8684
 30
0.0
 10
-103.1264
 20
3.8684
 30
0.0
 10
-103.1264
 20
3.8684
 30
0.0
 10
-108.19
 20
11.496
 30
0.0
 10
-108.19
 20
11.496
 30
0.0
  0
SPLINE
  5
94
330
1F
100
AcDbEntity
  8
layer 1
100
AcDbSpline
210
0.0
220
0.0
230
1.0
 70
    11
 71
     3
 72
    24
 73
    20
 74
     0
 42
0.0000000001
 43
0.0000000001
 12
1.0
 22
0.0
 32
0.0
 13
1.0
 23
0.0
 33
0.0
 40
0.0
 40
0.0
 40
0.0
 40
0.0
 40
0.1666666666666667
 40
0.1666666666666667
 40
0.1666666666666667
 40
0.1666666666666667
 40
0.3333333333333333
 40
0.3333333333333333
 40
0.3333333333333333
 40
0.3333333333333333
 40
0.5
 40
0.5
 40
0.5
 40
0.5
 40
0.6666666666666666
 40
0.6666666666666666
 40
0.6666666666666666
 40
0.6666666666666666
 40
1.0
 40
1.0
 40
1.0
 40
1.0
 10
-115.4468
 20
-23.7669
 30
0.0
 10
-115.4468
 20
-23.7669
 30
0.0
 10
-90.8976
 20
-23.7669
 30
0.0
 10
-90.8976
 20
-23.7669
 30
0.0
 10
-90.8976
 20
-23.7669
 30
0.0
 10
-90.8976
 20
-23.7669
 30
0.0
 10
-95.5436
 20
-17.2465
 30
0.0
 10
-95.5436
 20
-17.2465
 30
0.0
 10
-95.5436
 20
-17.2465
 30
0.0
 10
-95.5436
 20
-17.2465
 30
0.0
 10
-103.1514
 20
-21.6028
 30
0.0
 10
-103.1514
 20
-21.6028
 30
0.0
 10
-103.1514
 20
-21.6028
 30
0.0
 10
-103.1514
 20
-21.6028
 30
0.0
 10
-110.8545
 20
-17.1408
 30
0.0
 10
-110.8545
 20
-17.1408
 30
0.0
 10
-110.8545
 20
-17.1408
 30
0.0
 10
-110.8545
 20
-17.1408
 30
0.0
 10
-115.4468
 20
-23.7669
 30
0.0
 10
-115.4468
 20
-23.7669
 30
0.0
  0
SPLINE
  5
95
330
1F
100
AcDbEntity
  8
layer 1
100
AcDbSpline
210
0.0
220
0.0
230
1.0
 70
    11
 71
     3
 72
    20
 73
    16
 74
     0
 42
0.0000000001
 43
0.0000000001
 12
1.0
 22
0.0
 32
0.0
 13
1.0
 23
0.0
 33
0.0
 40
0.0
 40
0.0
 40
0.0
 40
0.0
 40
0.2
 40
0.2
 40
0.2
 40
0.2
 40
0.4
 40
0.4
 40
0.4
 40
0.4
 40
0.6
 40
0.6
 40
0.6
 40
0.6
 40
1.0
 40
1.0
 40
1.0
 40
1.0
 10
-131.2031
 20
-23.7604
 30
0.0
 10
-131.2031
 20
-23.7604
 30
0.0
 10
-121.1193
 20
-23.7604
 30
0.0
 10
-121.1193
 20
-23.7604
 30
0.0
 10
-121.1193
 20
-23.7604
 30
0.0
 10
-121.1193
 20
-23.7604
 30
0.0
 10
-115.1858
 20
-14.542
 30
0.0
 10
-115.1858
 20
-14.542
 30
0.0
 10
-115.1858
 20
-14.542
 30
0.0
 10
-115.2556
 20
-14.4872
 30
0.0
 10
-130.8053
 20
-5.3259
 30
0.0
 10
-131.2017
 20
-5.1037
 30
0.0
 10
-131.2017
 20
-5.1037
 30
0.0
 10
-131.2017
 20
-5.1037
 30
0.0
 10
-131.2031
 20
-23.7604
 30
0.0
 10
-131.2031
 20
-23.7604
 30
0.0
  0
SPLINE
  5
96
330
1F
100
AcDbEntity
  8
layer 1
100
AcDbSpline
210
0.0
220
0.0
230
1.0
 70
    11
 71
     3
 72
    20
 73
    16
 74
     0
 42
0.0000000001
 43
0.0000000001
 12
1.0
 22
0.0
 32
0.0
 13
1.0
 23
0.0
 33
0.0
 40
0.0
 40
0.0
 40
0.0
 40
0.0
 40
0.2
 40
0.2
 40
0.2
 40
0.2
 40
0.4
 40
0.4
 40
0.4
 40
0.4
 40
0.6
 40
0.6
 40
0.6
 40
0.6
 40
1.0
 40
1.0
 40
1.0
 40
1.0
 10
-91.1608
 20
-14.6506
 30
0.0
 10
-89.1263
 20
-17.8943
 30
0.0
 10
-87.476
 20
-20.3318
 30
0.0
 10
-85.2109
 20
-23.7669
 30
0.0
 10
-85.2109
 20
-23.7669
 30
0.0
 10
-85.2109
 20
-23.7669
 30
0.0
 10
-75.1056
 20
-23.77
 30
0.0
 10
-75.1056
 20
-23.77
 30
0.0
 10
-75.1056
 20
-23.77
 30
0.0
 10
-75.1056
 20
-23.77
 30
0.0
 10
-75.1655
 20
-5.0648
 30
0.0
 10
-75.1655
 20
-5.0648
 30
0.0
 10
-75.1655
 20
-5.0648
 30
0.0
 10
-75.1655
 20
-5.0648
 30
0.0
 10
-91.1608
 20
-14.6506
 30
0.0
 10
-91.1608
 20
-14.6506
 30
0.0
  0
SPLINE
  5
97
330
1F
100
AcDbEntity
  8
layer 1
100
AcDbSpline
210
0.0
220
0.0
230
1.0
 70
    11
 71
     3
 72
    24
 73
    20
 74
     0
 42
0.0000000001
 43
0.0000000001
 12
1.0
 22
0.0
 32
0.0
 13
1.0
 23
0.0
 33
0.0
 40
0.0
 40
0.0
 40
0.0
 40
0.0
 40
0.1666666666666667
 40
0.1666666666666667
 40
0.1666666666666667
 40
0.1666666666666667
 40
0.3333333333333333
 40
0.3333333333333333
 40
0.3333333333333333
 40
0.3333333333333333
 40
0.5
 40
0.5
 40
0.5
 40
0.5
 40
0.6666666666666666
 40
0.6666666666666666
 40
0.6666666666666666
 40
0.6666666666666666
 40
1.0
 40
1.0
 40
1.0
 40
1.0
 10
-115.448
 20
-23.7667
 30
0.0
 10
-115.448
 20
-23.7667
 30
0.0
 10
-90.8989
 20
-23.7667
 30
0.0
 10
-90.8989
 20
-23.7667
 30
0.0
 10
-90.8989
 20
-23.7667
 30
0.0
 10
-90.8989
 20
-23.7667
 30
0.0
 10
-95.5449
 20
-30.2871
 30
0.0
 10
-95.5449
 20
-30.2871
 30
0.0
 10
-95.5449
 20
-30.2871
 30
0.0
 10
-95.5449
 20
-30.2871
 30
0.0
 10
-103.1527
 20
-25.9308
 30
0.0
 10
-103.1527
 20
-25.9308
 30
0.0
 10
-103.1527
 20
-25.9308
 30
0.0
 10
-103.1527
 20
-25.9308
 30
0.0
 10
-110.8558
 20
-30.3928
 30
0.0
 10
-110.8558
 20
-30.3928
 30
0.0
 10
-110.8558
 20
-30.3928
 30
0.0
 10
-110.8558
 20
-30.3928
 30
0.0
 10
-115.448
 20
-23.7667
 30
0.0
 10
-115.448
 20
-23.7667
 30
0.0
  0
SPLINE
  5
98
330
1F
100
AcDbEntity
  8
layer 1
100
AcDbSpline
210
0.0
220
0.0
230
1.0
 70
    11
 71
     3
 72
    20
 73
    16
 74
     0
 42
0.0000000001
 43
0.0000000001
 12
1.0
 22
0.0
 32
0.0
 13
1.0
 23
0.0
 33
0.0
 40
0.0
 40
0.0
 40
0.0
 40
0.0
 40
0.2
 40
0.2
 40
0.2
 40
0.2
 40
0.4
 40
0.4
 40
0.4
 40
0.4
 40
0.6
 40
0.6
 40
0.6
 40
0.6
 40
1.0
 40
1.0
 40
1.0
 40
1.0
 10
-131.2043
 20
-23.7732
 30
0.0
 10
-131.2043
 20
-23.7732
 30
0.0
 10
-121.1206
 20
-23.7732
 30
0.0
 10
-121.1206
 20
-23.7732
 30
0.0
 10
-121.1206
 20
-23.7732
 30
0.0
 10
-121.1206
 20
-23.7732
 30
0.0
 10
-115.1871
 20
-32.9917
 30
0.0
 10
-115.1871
 20
-32.9917
 30
0.0
 10
-115.1871
 20
-32.9917
 30
0.0
 10
-115.2568
 20
-33.0464
 30
0.0
 10
-130.8066
 20
-42.2077
 30
0.0
 10
-131.203
 20
-42.4299
 30
0.0
 10
-131.203
 20
-42.4299
 30
0.0
 10
-131.203
 20
-42.4299
 30
0.0
 10
-131.2043
 20
-23.7732
 30
0.0
 10
-131.2043
 20
-23.7732
 30
0.0
  0
SPLINE
  5
99
330
1F
100
AcDbEntity
  8
layer 1
100
AcDbSpline
210
0.0
220
0.0
230
1.0
 70
    11
 71
     3
 72
    24
 73
    20
 74
     0
 42
0.0000000001
 43
0.0000000001
 12
1.0
 22
0.0
 32
0.0
 13
1.0
 23
0.0
 33
0.0
 40
0.0
 40
0.0
 40
0.0
 40
0.0
 40
0.1666666666666667
 40
0.1666666666666667
 40
0.1666666666666667
 40
0.1666666666666667
 40
0.3333333333333333
 40
0.3333333333333333
 40
0.3333333333333333
 40
0.3333333333333333
 40
0.5
 40
0.5
 40
0.5
 40
0.5
 40
0.6666666666666666
 40
0.6666666666666666
 40
0.6666666666666666
 40
0.6666666666666666
 40
1.0
 40
1.0
 40
1.0
 40
1.0
 10
-105.6708
 20
-60.696
 30
0.0
 10
-105.6708
 20
-60.696
 30
0.0
 10
-108.1419
 20
-59.0384
 30
0.0
 10
-108.1419
 20
-59.0384
 30
0.0
 10
-108.1419
 20
-59.0384
 30
0.0
 10
-108.1419
 20
-59.0384
 30
0.0
 10
-103.1651
 20
-51.3425
 30
0.0
 10
-103.1651
 20
-51.3425
 30
0.0
 10
-103.1651
 20
-51.3425
 30
0.0
 10
-103.1651
 20
-51.3425
 30
0.0
 10
-98.1212
 20
-59.0062
 30
0.0
 10
-98.1212
 20
-59.0062
 30
0.0
 10
-98.1212
 20
-59.0062
 30
0.0
 10
-98.1212
 20
-59.0062
 30
0.0
 10
-103.1722
 20
-62.1285
 30
0.0
 10
-103.1722
 20
-62.1285
 30
0.0
 10
-103.1722
 20
-62.1285
 30
0.0
 10
-103.1722
 20
-62.1285
 30
0.0
 10
-105.6708
 20
-60.696
 30
0.0
 10
-105.6708
 20
-60.696
 30
0.0
  0
SPLINE
  5
9A
330
1F
100
AcDbEntity
  8
layer 1
100
AcDbSpline
210
0.0
220
0.0
230
1.0
 70
    11
 71
     3
 72
    20
 73
    16
 74
     0
 42
0.0000000001
 43
0.0000000001
 12
1.0
 22
0.0
 32
0.0
 13
1.0
 23
0.0
 33
0.0
 40
0.0
 40
0.0
 40
0.0
 40
0.0
 40
0.2
 40
0.2
 40
0.2
 40
0.2
 40
0.4
 40
0.4
 40
0.4
 40
0.4
 40
0.6
 40
0.6
 40
0.6
 40
0.6
 40
1.0
 40
1.0
 40
1.0
 40
1.0
 10
-128.807
 20
-46.7825
 30
0.0
 10
-128.807
 20
-46.7825
 30
0.0
 10
-112.41
 20
-36.9951
 30
0.0
 10
-112.41
 20
-36.9951
 30
0.0
 10
-112.41
 20
-36.9951
 30
0.0
 10
-112.41
 20
-36.9951
 30
0.0
 10
-106.0169
 20
-46.777
 30
0.0
 10
-106.0169
 20
-46.777
 30
0.0
 10
-106.0169
 20
-46.777
 30
0.0
 10
-106.0169
 20
-46.777
 30
0.0
 10
-112.5551
 20
-56.6045
 30
0.0
 10
-112.5551
 20
-56.6045
 30
0.0
 10
-112.5551
 20
-56.6045
 30
0.0
 10
-112.5551
 20
-56.6045
 30
0.0
 10
-128.807
 20
-46.7825
 30
0.0
 10
-128.807
 20
-46.7825
 30
0.0
  0
SPLINE
  5
9B
330
1F
100
AcDbEntity
  8
layer 1
100
AcDbSpline
210
0.0
220
0.0
230
1.0
 70
    11
 71
     3
 72
    20
 73
    16
 74
     0
 42
0.0000000001
 43
0.0000000001
 12
1.0
 22
0.0
 32
0.0
 13
1.0
 23
0.0
 33
0.0
 40
0.0
 40
0.0
 40
0.0
 40
0.0
 40
0.2
 40
0.2
 40
0.2
 40
0.2
 40
0.4
 40
0.4
 40
0.4
 40
0.4
 40
0.6
 40
0.6
 40
0.6
 40
0.6
 40
1.0
 40
1.0
 40
1.0
 40
1.0
 10
-100.3357
 20
-46.796
 30
0.0
 10
-100.3357
 20
-46.796
 30
0.0
 10
-93.9151
 20
-36.9965
 30
0.0
 10
-93.9151
 20
-36.9965
 30
0.0
 10
-93.9151
 20
-36.9965
 30
0.0
 10
-93.9151
 20
-36.9965
 30
0.0
 10
-77.5044
 20
-46.7808
 30
0.0
 10
-77.5044
 20
-46.7808
 30
0.0
 10
-77.5044
 20
-46.7808
 30
0.0
 10
-77.5044
 20
-46.7808
 30
0.0
 10
-93.7652
 20
-56.548
 30
0.0
 10
-93.7652
 20
-56.548
 30
0.0
 10
-93.7652
 20
-56.548
 30
0.0
 10
-93.7652
 20
-56.548
 30
0.0
 10
-100.3357
 20
-46.796
 30
0.0
 10
-100.3357
 20
-46.796
 30
0.0
  0
SPLINE
  5
9C
330
1F
100
AcDbEntity
  8
layer 1
100
AcDbSpline
210
0.0
220
0.0
230
1.0
 70
    11
 71
     3
 72
    20
 73
    16
 74
     0
 42
0.0000000001
 43
0.0000000001
 12
1.0
 22
0.0
 32
0.0
 13
1.0
 23
0.0
 33
0.0
 40
0.0
 40
0.0
 40
0.0
 40
0.0
 40
0.2
 40
0.2
 40
0.2
 40
0.2
 40
0.4
 40
0.4
 40
0.4
 40
0.4
 40
0.6
 40
0.6
 40
0.6
 40
0.6
 40
1.0
 40
1.0
 40
1.0
 40
1.0
 10
-91.1621
 20
-32.8831
 30
0.0
 10
-89.1276
 20
-29.6394
 30
0.0
 10
-87.4774
 20
-27.2019
 30
0.0
 10
-85.2123
 20
-23.7668
 30
0.0
 10
-85.2123
 20
-23.7668
 30
0.0
 10
-85.2123
 20
-23.7668
 30
0.0
 10
-75.107
 20
-23.7637
 30
0.0
 10
-75.107
 20
-23.7637
 30
0.0
 10
-75.107
 20
-23.7637
 30
0.0
 10
-75.107
 20
-23.7637
 30
0.0
 10
-75.1669
 20
-42.4689
 30
0.0
 10
-75.1669
 20
-42.4689
 30
0.0
 10
-75.1669
 20
-42.4689
 30
0.0
 10
-75.1669
 20
-42.4689
 30
0.0
 10
-91.1621
 20
-32.8831
 30
0.0
 10
-91.1621
 20
-32.8831
 30
0.0
  0
SPLINE
  5
9D
330
1F
100
AcDbEntity
  8
layer 1
100
AcDbSpline
210
0.0
220
0.0
230
1.0
 70
    11
 71
     3
 72
    20
 73
    16
 74
     0
 42
0.0000000001
 43
0.0000000001
 12
1.0
 22
0.0
 32
0.0
 13
1.0
 23
0.0
 33
0.0
 40
0.0
 40
0.0
 40
0.0
 40
0.0
 40
0.2
 40
0.2
 40
0.2
 40
0.2
 40
0.4
 40
0.4
 40
0.4
 40
0.4
 40
0.6
 40
0.6
 40
0.6
 40
0.6
 40
1.0
 40
1.0
 40
1.0
 40
1.0
 10
-108.19
 20
-34.5536
 30
0.0
 10
-108.19
 20
-34.5536
 30
0.0
 10
-103.1318
 20
-31.5068
 30
0.0
 10
-103.1318
 20
-31.5068
 30
0.0
 10
-103.1318
 20
-31.5068
 30
0.0
 10
-103.1318
 20
-31.5068
 30
0.0
 10
-98.1212
 20
-34.5596
 30
0.0
 10
-98.1212
 20
-34.5596
 30
0.0
 10
-98.1212
 20
-34.5596
 30
0.0
 10
-98.1212
 20
-34.5596
 30
0.0
 10
-103.1264
 20
-42.1813
 30
0.0
 10
-103.1264
 20
-42.1813
 30
0.0
 10
-103.1264
 20
-42.1813
 30
0.0
 10
-103.1264
 20
-42.1813
 30
0.0
 10
-108.19
 20
-34.5536
 30
0.0
 10
-108.19
 20
-34.5536
 30
0.0
  0
SPLINE
  5
9E
330
1F
100
AcDbEntity
  8
layer 1
100
AcDbSpline
210
0.0
220
0.0
230
1.0
 70
    11
 71
     3
 72
    24
 73
    20
 74
     0
 42
0.0000000001
 43
0.0000000001
 12
1.0
 22
0.0
 32
0.0
 13
1.0
 23
0.0
 33
0.0
 40
0.0
 40
0.0
 40
0.0
 40
0.0
 40
0.1666666666666667
 40
0.1666666666666667
 40
0.1666666666666667
 40
0.1666666666666667
 40
0.3333333333333333
 40
0.3333333333333333
 40
0.3333333333333333
 40
0.3333333333333333
 40
0.5
 40
0.5
 40
0.5
 40
0.5
 40
0.6666666666666666
 40
0.6666666666666666
 40
0.6666666666666666
 40
0.6666666666666666
 40
1.0
 40
1.0
 40
1.0
 40
1.0
 10
-115.4468
 20
-69.8166
 30
0.0
 10
-115.4468
 20
-69.8166
 30
0.0
 10
-90.8976
 20
-69.8166
 30
0.0
 10
-90.8976
 20
-69.8166
 30
0.0
 10
-90.8976
 20
-69.8166
 30
0.0
 10
-90.8976
 20
-69.8166
 30
0.0
 10
-95.5436
 20
-63.2962
 30
0.0
 10
-95.5436
 20
-63.2962
 30
0.0
 10
-95.5436
 20
-63.2962
 30
0.0
 10
-95.5436
 20
-63.2962
 30
0.0
 10
-103.1514
 20
-67.6525
 30
0.0
 10
-103.1514
 20
-67.6525
 30
0.0
 10
-103.1514
 20
-67.6525
 30
0.0
 10
-103.1514
 20
-67.6525
 30
0.0
 10
-110.8545
 20
-63.1904
 30
0.0
 10
-110.8545
 20
-63.1904
 30
0.0
 10
-110.8545
 20
-63.1904
 30
0.0
 10
-110.8545
 20
-63.1904
 30
0.0
 10
-115.4468
 20
-69.8166
 30
0.0
 10
-115.4468
 20
-69.8166
 30
0.0
  0
SPLINE
  5
9F
330
1F
100
AcDbEntity
  8
layer 1
100
AcDbSpline
210
0.0
220
0.0
230
1.0
 70
    11
 71
     3
 72
    20
 73
    16
 74
     0
 42
0.0000000001
 43
0.0000000001
 12
1.0
 22
0.0
 32
0.0
 13
1.0
 23
0.0
 33
0.0
 40
0.0
 40
0.0
 40
0.0
 40
0.0
 40
0.2
 40
0.2
 40
0.2
 40
0.2
 40
0.4
 40
0.4
 40
0.4
 40
0.4
 40
0.6
 40
0.6
 40
0.6
 40
0.6
 40
1.0
 40
1.0
 40
1.0
 40
1.0
 10
-131.2031
 20
-69.81
 30
0.0
 10
-131.2031
 20
-69.81
 30
0.0
 10
-121.1193
 20
-69.81
 30
0.0
 10
-121.1193
 20
-69.81
 30
0.0
 10
-121.1193
 20
-69.81
 30
0.0
 10
-121.1193
 20
-69.81
 30
0.0
 10
-115.1858
 20
-60.5916
 30
0.0
 10
-115.1858
 20
-60.5916
 30
0.0
 10
-115.1858
 20
-60.5916
 30
0.0
 10
-115.2556
 20
-60.5369
 30
0.0
 10
-130.8053
 20
-51.3756
 30
0.0
 10
-131.2017
 20
-51.1534
 30
0.0
 10
-131.2017
 20
-51.1534
 30
0.0
 10
-131.2017
 20
-51.1534
 30
0.0
 10
-131.2031
 20
-69.81
 30
0.0
 10
-131.2031
 20
-69.81
 30
0.0
  0
SPLINE
  5
A0
330
1F
100
AcDbEntity
  8
layer 1
100
AcDbSpline
210
0.0
220
0.0
230
1.0
 70
    11
 71
     3
 72
    20
 73
    16
 74
     0
 42
0.0000000001
 43
0.0000000001
 12
1.0
 22
0.0
 32
0.0
 13
1.0
 23
0.0
 33
0.0
 40
0.0
 40
0.0
 40
0.0
 40
0.0
 40
0.2
 40
0.2
 40
0.2
 40
0.2
 40
0.4
 40
0.4
 40
0.4
 40
0.4
 40
0.6
 40
0.6
 40
0.6
 40
0.6
 40
1.0
 40
1.0
 40
1.0
 40
1.0
 10
-91.1608
 20
-60.7003
 30
0.0
 10
-89.1263
 20
-63.9439
 30
0.0
 10
-87.476
 20
-66.3815
 30
0.0
 10
-85.2109
 20
-69.8166
 30
0.0
 10
-85.2109
 20
-69.8166
 30
0.0
 10
-85.2109
 20
-69.8166
 30
0.0
 10
-75.1056
 20
-69.8196
 30
0.0
 10
-75.1056
 20
-69.8196
 30
0.0
 10
-75.1056
 20
-69.8196
 30
0.0
 10
-75.1056
 20
-69.8196
 30
0.0
 10
-75.1655
 20
-51.1144
 30
0.0
 10
-75.1655
 20
-51.1144
 30
0.0
 10
-75.1655
 20
-51.1144
 30
0.0
 10
-75.1655
 20
-51.1144
 30
0.0
 10
-91.1608
 20
-60.7003
 30
0.0
 10
-91.1608
 20
-60.7003
 30
0.0
  0
SPLINE
  5
A1
330
1F
100
AcDbEntity
  8
layer 1
100
AcDbSpline
210
0.0
220
0.0
230
1.0
 70
    11
 71
     3
 72
    24
 73
    20
 74
     0
 42
0.0000000001
 43
0.0000000001
 12
1.0
 22
0.0
 32
0.0
 13
1.0
 23
0.0
 33
0.0
 40
0.0
 40
0.0
 40
0.0
 40
0.0
 40
0.1666666666666667
 40
0.1666666666666667
 40
0.1666666666666667
 40
0.1666666666666667
 40
0.3333333333333333
 40
0.3333333333333333
 40
0.3333333333333333
 40
0.3333333333333333
 40
0.5
 40
0.5
 40
0.5
 40
0.5
 40
0.6666666666666666
 40
0.6666666666666666
 40
0.6666666666666666
 40
0.6666666666666666
 40
1.0
 40
1.0
 40
1.0
 40
1.0
 10
-115.448
 20
-69.7925
 30
0.0
 10
-115.448
 20
-69.7925
 30
0.0
 10
-90.8989
 20
-69.7925
 30
0.0
 10
-90.8989
 20
-69.7925
 30
0.0
 10
-90.8989
 20
-69.7925
 30
0.0
 10
-90.8989
 20
-69.7925
 30
0.0
 10
-95.5449
 20
-76.3129
 30
0.0
 10
-95.5449
 20
-76.3129
 30
0.0
 10
-95.5449
 20
-76.3129
 30
0.0
 10
-95.5449
 20
-76.3129
 30
0.0
 10
-103.1527
 20
-71.9565
 30
0.0
 10
-103.1527
 20
-71.9565
 30
0.0
 10
-103.1527
 20
-71.9565
 30
0.0
 10
-103.1527
 20
-71.9565
 30
0.0
 10
-110.8558
 20
-76.4186
 30
0.0
 10
-110.8558
 20
-76.4186
 30
0.0
 10
-110.8558
 20
-76.4186
 30
0.0
 10
-110.8558
 20
-76.4186
 30
0.0
 10
-115.448
 20
-69.7925
 30
0.0
 10
-115.448
 20
-69.7925
 30
0.0
  0
SPLINE
  5
A2
330
1F
100
AcDbEntity
  8
layer 1
100
AcDbSpline
210
0.0
220
0.0
230
1.0
 70
    11
 71
     3
 72
    20
 73
    16
 74
     0
 42
0.0000000001
 43
0.0000000001
 12
1.0
 22
0.0
 32
0.0
 13
1.0
 23
0.0
 33
0.0
 40
0.0
 40
0.0
 40
0.0
 40
0.0
 40
0.2
 40
0.2
 40
0.2
 40
0.2
 40
0.4
 40
0.4
 40
0.4
 40
0.4
 40
0.6
 40
0.6
 40
0.6
 40
0.6
 40
1.0
 40
1.0
 40
1.0
 40
1.0
 10
-131.2043
 20
-69.799
 30
0.0
 10
-131.2043
 20
-69.799
 30
0.0
 10
-121.1206
 20
-69.799
 30
0.0
 10
-121.1206
 20
-69.799
 30
0.0
 10
-121.1206
 20
-69.799
 30
0.0
 10
-121.1206
 20
-69.799
 30
0.0
 10
-115.1871
 20
-79.0174
 30
0.0
 10
-115.1871
 20
-79.0174
 30
0.0
 10
-115.1871
 20
-79.0174
 30
0.0
 10
-115.2568
 20
-79.0721
 30
0.0
 10
-130.8066
 20
-88.2335
 30
0.0
 10
-131.203
 20
-88.4556
 30
0.0
 10
-131.203
 20
-88.4556
 30
0.0
 10
-131.203
 20
-88.4556
 30
0.0
 10
-131.2043
 20
-69.799
 30
0.0
 10
-131.2043
 20
-69.799
 30
0.0
  0
SPLINE
  5
A3
330
1F
100
AcDbEntity
  8
layer 1
100
AcDbSpline
210
0.0
220
0.0
230
1.0
 70
    11
 71
     3
 72
    24
 73
    20
 74
     0
 42
0.0000000001
 43
0.0000000001
 12
1.0
 22
0.0
 32
0.0
 13
1.0
 23
0.0
 33
0.0
 40
0.0
 40
0.0
 40
0.0
 40
0.0
 40
0.1666666666666667
 40
0.1666666666666667
 40
0.1666666666666667
 40
0.1666666666666667
 40
0.3333333333333333
 40
0.3333333333333333
 40
0.3333333333333333
 40
0.3333333333333333
 40
0.5
 40
0.5
 40
0.5
 40
0.5
 40
0.6666666666666666
 40
0.6666666666666666
 40
0.6666666666666666
 40
0.6666666666666666
 40
1.0
 40
1.0
 40
1.0
 40
1.0
 10
-105.6708
 20
-106.7218
 30
0.0
 10
-105.6708
 20
-106.7218
 30
0.0
 10
-108.1419
 20
-105.0642
 30
0.0
 10
-108.1419
 20
-105.0642
 30
0.0
 10
-108.1419
 20
-105.0642
 30
0.0
 10
-108.1419
 20
-105.0642
 30
0.0
 10
-103.1651
 20
-97.3682
 30
0.0
 10
-103.1651
 20
-97.3682
 30
0.0
 10
-103.1651
 20
-97.3682
 30
0.0
 10
-103.1651
 20
-97.3682
 30
0.0
 10
-98.1212
 20
-105.0319
 30
0.0
 10
-98.1212
 20
-105.0319
 30
0.0
 10
-98.1212
 20
-105.0319
 30
0.0
 10
-98.1212
 20
-105.0319
 30
0.0
 10
-103.1722
 20
-108.1543
 30
0.0
 10
-103.1722
 20
-108.1543
 30
0.0
 10
-103.1722
 20
-108.1543
 30
0.0
 10
-103.1722
 20
-108.1543
 30
0.0
 10
-105.6708
 20
-106.7218
 30
0.0
 10
-105.6708
 20
-106.7218
 30
0.0
  0
SPLINE
  5
A4
330
1F
100
AcDbEntity
  8
layer 1
100
AcDbSpline
210
0.0
220
0.0
230
1.0
 70
    11
 71
     3
 72
    20
 73
    16
 74
     0
 42
0.0000000001
 43
0.0000000001
 12
1.0
 22
0.0
 32
0.0
 13
1.0
 23
0.0
 33
0.0
 40
0.0
 40
0.0
 40
0.0
 40
0.0
 40
0.2
 40
0.2
 40
0.2
 40
0.2
 40
0.4
 40
0.4
 40
0.4
 40
0.4
 40
0.6
 40
0.6
 40
0.6
 40
0.6
 40
1.0
 40
1.0
 40
1.0
 40
1.0
 10
-128.807
 20
-92.8082
 30
0.0
 10
-128.807
 20
-92.8082
 30
0.0
 10
-112.41
 20
-83.0209
 30
0.0
 10
-112.41
 20
-83.0209
 30
0.0
 10
-112.41
 20
-83.0209
 30
0.0
 10
-112.41
 20
-83.0209
 30
0.0
 10
-106.0169
 20
-92.8027
 30
0.0
 10
-106.0169
 20
-92.8027
 30
0.0
 10
-106.0169
 20
-92.8027
 30
0.0
 10
-106.0169
 20
-92.8027
 30
0.0
 10
-112.5551
 20
-102.6303
 30
0.0
 10
-112.5551
 20
-102.6303
 30
0.0
 10
-112.5551
 20
-102.6303
 30
0.0
 10
-112.5551
 20
-102.6303
 30
0.0
 10
-128.807
 20
-92.8082
 30
0.0
 10
-128.807
 20
-92.8082
 30
0.0
  0
SPLINE
  5
A5
330
1F
100
AcDbEntity
  8
layer 1
100
AcDbSpline
210
0.0
220
0.0
230
1.0
 70
    11
 71
     3
 72
    20
 73
    16
 74
     0
 42
0.0000000001
 43
0.0000000001
 12
1.0
 22
0.0
 32
0.0
 13
1.0
 23
0.0
 33
0.0
 40
0.0
 40
0.0
 40
0.0
 40
0.0
 40
0.2
 40
0.2
 40
0.2
 40
0.2
 40
0.4
 40
0.4
 40
0.4
 40
0.4
 40
0.6
 40
0.6
 40
0.6
 40
0.6
 40
1.0
 40
1.0
 40
1.0
 40
1.0
 10
-100.3357
 20
-92.8217
 30
0.0
 10
-100.3357
 20
-92.8217
 30
0.0
 10
-93.9151
 20
-83.0223
 30
0.0
 10
-93.9151
 20
-83.0223
 30
0.0
 10
-93.9151
 20
-83.0223
 30
0.0
 10
-93.9151
 20
-83.0223
 30
0.0
 10
-77.5044
 20
-92.8065
 30
0.0
 10
-77.5044
 20
-92.8065
 30
0.0
 10
-77.5044
 20
-92.8065
 30
0.0
 10
-77.5044
 20
-92.8065
 30
0.0
 10
-93.7652
 20
-102.5737
 30
0.0
 10
-93.7652
 20
-102.5737
 30
0.0
 10
-93.7652
 20
-102.5737
 30
0.0
 10
-93.7652
 20
-102.5737
 30
0.0
 10
-100.3357
 20
-92.8217
 30
0.0
 10
-100.3357
 20
-92.8217
 30
0.0
  0
SPLINE
  5
A6
330
1F
100
AcDbEntity
  8
layer 1
100
AcDbSpline
210
0.0
220
0.0
230
1.0
 70
    11
 71
     3
 72
    20
 73
    16
 74
     0
 42
0.0000000001
 43
0.0000000001
 12
1.0
 22
0.0
 32
0.0
 13
1.0
 23
0.0
 33
0.0
 40
0.0
 40
0.0
 40
0.0
 40
0.0
 40
0.2
 40
0.2
 40
0.2
 40
0.2
 40
0.4
 40
0.4
 40
0.4
 40
0.4
 40
0.6
 40
0.6
 40
0.6
 40
0.6
 40
1.0
 40
1.0
 40
1.0
 40
1.0
 10
-91.1621
 20
-78.9089
 30
0.0
 10
-89.1276
 20
-75.6652
 30
0.0
 10
-87.4774
 20
-73.2277
 30
0.0
 10
-85.2123
 20
-69.7926
 30
0.0
 10
-85.2123
 20
-69.7926
 30
0.0
 10
-85.2123
 20
-69.7926
 30
0.0
 10
-75.107
 20
-69.7895
 30
0.0
 10
-75.107
 20
-69.7895
 30
0.0
 10
-75.107
 20
-69.7895
 30
0.0
 10
-75.107
 20
-69.7895
 30
0.0
 10
-75.1669
 20
-88.4947
 30
0.0
 10
-75.1669
 20
-88.4947
 30
0.0
 10
-75.1669
 20
-88.4947
 30
0.0
 10
-75.1669
 20
-88.4947
 30
0.0
 10
-91.1621
 20
-78.9089
 30
0.0
 10
-91.1621
 20
-78.9089
 30
0.0
  0
SPLINE
  5
A7
330
1F
100
AcDbEntity
  8
layer 1
100
AcDbSpline
210
0.0
220
0.0
230
1.0
 70
    11
 71
     3
 72
    20
 73
    16
 74
     0
 42
0.0000000001
 43
0.0000000001
 12
1.0
 22
0.0
 32
0.0
 13
1.0
 23
0.0
 33
0.0
 40
0.0
 40
0.0
 40
0.0
 40
0.0
 40
0.2
 40
0.2
 40
0.2
 40
0.2
 40
0.4
 40
0.4
 40
0.4
 40
0.4
 40
0.6
 40
0.6
 40
0.6
 40
0.6
 40
1.0
 40
1.0
 40
1.0
 40
1.0
 10
-108.19
 20
-80.5794
 30
0.0
 10
-108.19
 20
-80.5794
 30
0.0
 10
-103.1318
 20
-77.5325
 30
0.0
 10
-103.1318
 20
-77.5325
 30
0.0
 10
-103.1318
 20
-77.5325
 30
0.0
 10
-103.1318
 20
-77.5325
 30
0.0
 10
-98.1212
 20
-80.5854
 30
0.0
 10
-98.1212
 20
-80.5854
 30
0.0
 10
-98.1212
 20
-80.5854
 30
0.0
 10
-98.1212
 20
-80.5854
 30
0.0
 10
-103.1264
 20
-88.207
 30
0.0
 10
-103.1264
 20
-88.207
 30
0.0
 10
-103.1264
 20
-88.207
 30
0.0
 10
-103.1264
 20
-88.207
 30
0.0
 10
-108.19
 20
-80.5794
 30
0.0
 10
-108.19
 20
-80.5794
 30
0.0
  0
SPLINE
  5
A8
330
1F
100
AcDbEntity
  8
layer 1
100
AcDbSpline
210
0.0
220
0.0
230
1.0
 70
    11
 71
     3
 72
    24
 73
    20
 74
     0
 42
0.0000000001
 43
0.0000000001
 12
1.0
 22
0.0
 32
0.0
 13
1.0
 23
0.0
 33
0.0
 40
0.0
 40
0.0
 40
0.0
 40
0.0
 40
0.1666666666666667
 40
0.1666666666666667
 40
0.1666666666666667
 40
0.1666666666666667
 40
0.3333333333333333
 40
0.3333333333333333
 40
0.3333333333333333
 40
0.3333333333333333
 40
0.5
 40
0.5
 40
0.5
 40
0.5
 40
0.6666666666666666
 40
0.6666666666666666
 40
0.6666666666666666
 40
0.6666666666666666
 40
1.0
 40
1.0
 40
1.0
 40
1.0
 10
-115.4468
 20
-115.8423
 30
0.0
 10
-115.4468
 20
-115.8423
 30
0.0
 10
-90.8976
 20
-115.8423
 30
0.0
 10
-90.8976
 20
-115.8423
 30
0.0
 10
-90.8976
 20
-115.8423
 30
0.0
 10
-90.8976
 20
-115.8423
 30
0.0
 10
-95.5436
 20
-109.3219
 30
0.0
 10
-95.5436
 20
-109.3219
 30
0.0
 10
-95.5436
 20
-109.3219
 30
0.0
 10
-95.5436
 20
-109.3219
 30
0.0
 10
-103.1514
 20
-113.6782
 30
0.0
 10
-103.1514
 20
-113.6782
 30
0.0
 10
-103.1514
 20
-113.6782
 30
0.0
 10
-103.1514
 20
-113.6782
 30
0.0
 10
-110.8545
 20
-109.2162
 30
0.0
 10
-110.8545
 20
-109.2162
 30
0.0
 10
-110.8545
 20
-109.2162
 30
0.0
 10
-110.8545
 20
-109.2162
 30
0.0
 10
-115.4468
 20
-115.8423
 30
0.0
 10
-115.4468
 20
-115.8423
 30
0.0
  0
SPLINE
  5
A9
330
1F
100
AcDbEntity
  8
layer 1
100
AcDbSpline
210
0.0
220
0.0
230
1.0
 70
    11
 71
     3
 72
    20
 73
    16
 74
     0
 42
0.0000000001
 43
0.0000000001
 12
1.0
 22
0.0
 32
0.0
 13
1.0
 23
0.0
 33
0.0
 40
0.0
 40
0.0
 40
0.0
 40
0.0
 40
0.2
 40
0.2
 40
0.2
 40
0.2
 40
0.4
 40
0.4
 40
0.4
 40
0.4
 40
0.6
 40
0.6
 40
0.6
 40
0.6
 40
1.0
 40
1.0
 40
1.0
 40
1.0
 10
-131.2031
 20
-115.8358
 30
0.0
 10
-131.2031
 20
-115.8358
 30
0.0
 10
-121.1193
 20
-115.8358
 30
0.0
 10
-121.1193
 20
-115.8358
 30
0.0
 10
-121.1193
 20
-115.8358
 30
0.0
 10
-121.1193
 20
-115.8358
 30
0.0
 10
-115.1858
 20
-106.6174
 30
0.0
 10
-115.1858
 20
-106.6174
 30
0.0
 10
-115.1858
 20
-106.6174
 30
0.0
 10
-115.2556
 20
-106.5627
 30
0.0
 10
-130.8053
 20
-97.4013
 30
0.0
 10
-131.2017
 20
-97.1791
 30
0.0
 10
-131.2017
 20
-97.1791
 30
0.0
 10
-131.2017
 20
-97.1791
 30
0.0
 10
-131.2031
 20
-115.8358
 30
0.0
 10
-131.2031
 20
-115.8358
 30
0.0
  0
SPLINE
  5
AA
330
1F
100
AcDbEntity
  8
layer 1
100
AcDbSpline
210
0.0
220
0.0
230
1.0
 70
    11
 71
     3
 72
    20
 73
    16
 74
     0
 42
0.0000000001
 43
0.0000000001
 12
1.0
 22
0.0
 32
0.0
 13
1.0
 23
0.0
 33
0.0
 40
0.0
 40
0.0
 40
0.0
 40
0.0
 40
0.2
 40
0.2
 40
0.2
 40
0.2
 40
0.4
 40
0.4
 40
0.4
 40
0.4
 40
0.6
 40
0.6
 40
0.6
 40
0.6
 40
1.0
 40
1.0
 40
1.0
 40
1.0
 10
-91.1608
 20
-106.726
 30
0.0
 10
-89.1263
 20
-109.9697
 30
0.0
 10
-87.476
 20
-112.4072
 30
0.0
 10
-85.2109
 20
-115.8423
 30
0.0
 10
-85.2109
 20
-115.8423
 30
0.0
 10
-85.2109
 20
-115.8423
 30
0.0
 10
-75.1056
 20
-115.8454
 30
0.0
 10
-75.1056
 20
-115.8454
 30
0.0
 10
-75.1056
 20
-115.8454
 30
0.0
 10
-75.1056
 20
-115.8454
 30
0.0
 10
-75.1655
 20
-97.1402
 30
0.0
 10
-75.1655
 20
-97.1402
 30
0.0
 10
-75.1655
 20
-97.1402
 30
0.0
 10
-75.1655
 20
-97.1402
 30
0.0
 10
-91.1608
 20
-106.726
 30
0.0
 10
-91.1608
 20
-106.726
 30
0.0
  0
SPLINE
  5
AB
330
1F
100
AcDbEntity
  8
layer 1
100
AcDbSpline
210
0.0
220
0.0
230
1.0
 70
    11
 71
     3
 72
    24
 73
    20
 74
     0
 42
0.0000000001
 43
0.0000000001
 12
1.0
 22
0.0
 32
0.0
 13
1.0
 23
0.0
 33
0.0
 40
0.0
 40
0.0
 40
0.0
 40
0.0
 40
0.1666666666666667
 40
0.1666666666666667
 40
0.1666666666666667
 40
0.1666666666666667
 40
0.3333333333333333
 40
0.3333333333333333
 40
0.3333333333333333
 40
0.3333333333333333
 40
0.5
 40
0.5
 40
0.5
 40
0.5
 40
0.6666666666666666
 40
0.6666666666666666
 40
0.6666666666666666
 40
0.6666666666666666
 40
1.0
 40
1.0
 40
1.0
 40
1.0
 10
-68.6036
 20
11.7194
 30
0.0
 10
-68.6036
 20
11.7194
 30
0.0
 10
-68.6036
 20
36.2685
 30
0.0
 10
-68.6036
 20
36.2685
 30
0.0
 10
-68.6036
 20
36.2685
 30
0.0
 10
-68.6036
 20
36.2685
 30
0.0
 10
-62.0832
 20
31.6226
 30
0.0
 10
-62.0832
 20
31.6226
 30
0.0
 10
-62.0832
 20
31.6226
 30
0.0
 10
-62.0832
 20
31.6226
 30
0.0
 10
-66.4395
 20
24.0148
 30
0.0
 10
-66.4395
 20
24.0148
 30
0.0
 10
-66.4395
 20
24.0148
 30
0.0
 10
-66.4395
 20
24.0148
 30
0.0
 10
-61.9775
 20
16.3117
 30
0.0
 10
-61.9775
 20
16.3117
 30
0.0
 10
-61.9775
 20
16.3117
 30
0.0
 10
-61.9775
 20
16.3117
 30
0.0
 10
-68.6036
 20
11.7194
 30
0.0
 10
-68.6036
 20
11.7194
 30
0.0
  0
SPLINE
  5
AC
330
1F
100
AcDbEntity
  8
layer 1
100
AcDbSpline
210
0.0
220
0.0
230
1.0
 70
    11
 71
     3
 72
    20
 73
    16
 74
     0
 42
0.0000000001
 43
0.0000000001
 12
1.0
 22
0.0
 32
0.0
 13
1.0
 23
0.0
 33
0.0
 40
0.0
 40
0.0
 40
0.0
 40
0.0
 40
0.2
 40
0.2
 40
0.2
 40
0.2
 40
0.4
 40
0.4
 40
0.4
 40
0.4
 40
0.6
 40
0.6
 40
0.6
 40
0.6
 40
1.0
 40
1.0
 40
1.0
 40
1.0
 10
-68.5971
 20
-4.0369
 30
0.0
 10
-68.5971
 20
-4.0369
 30
0.0
 10
-68.5971
 20
6.0468
 30
0.0
 10
-68.5971
 20
6.0468
 30
0.0
 10
-68.5971
 20
6.0468
 30
0.0
 10
-68.5971
 20
6.0468
 30
0.0
 10
-59.3787
 20
11.9804
 30
0.0
 10
-59.3787
 20
11.9804
 30
0.0
 10
-59.3787
 20
11.9804
 30
0.0
 10
-59.3239
 20
11.9106
 30
0.0
 10
-50.1626
 20
-3.6391
 30
0.0
 10
-49.9404
 20
-4.0355
 30
0.0
 10
-49.9404
 20
-4.0355
 30
0.0
 10
-49.9404
 20
-4.0355
 30
0.0
 10
-68.5971
 20
-4.0369
 30
0.0
 10
-68.5971
 20
-4.0369
 30
0.0
  0
SPLINE
  5
AD
330
1F
100
AcDbEntity
  8
layer 1
100
AcDbSpline
210
0.0
220
0.0
230
1.0
 70
    11
 71
     3
 72
    24
 73
    20
 74
     0
 42
0.0000000001
 43
0.0000000001
 12
1.0
 22
0.0
 32
0.0
 13
1.0
 23
0.0
 33
0.0
 40
0.0
 40
0.0
 40
0.0
 40
0.0
 40
0.1666666666666667
 40
0.1666666666666667
 40
0.1666666666666667
 40
0.1666666666666667
 40
0.3333333333333333
 40
0.3333333333333333
 40
0.3333333333333333
 40
0.3333333333333333
 40
0.5
 40
0.5
 40
0.5
 40
0.5
 40
0.6666666666666666
 40
0.6666666666666666
 40
0.6666666666666666
 40
0.6666666666666666
 40
1.0
 40
1.0
 40
1.0
 40
1.0
 10
-31.6743
 20
21.4966
 30
0.0
 10
-31.6743
 20
21.4966
 30
0.0
 10
-33.3319
 20
19.0256
 30
0.0
 10
-33.3319
 20
19.0256
 30
0.0
 10
-33.3319
 20
19.0256
 30
0.0
 10
-33.3319
 20
19.0256
 30
0.0
 10
-41.0278
 20
24.0024
 30
0.0
 10
-41.0278
 20
24.0024
 30
0.0
 10
-41.0278
 20
24.0024
 30
0.0
 10
-41.0278
 20
24.0024
 30
0.0
 10
-33.3642
 20
29.0462
 30
0.0
 10
-33.3642
 20
29.0462
 30
0.0
 10
-33.3642
 20
29.0462
 30
0.0
 10
-33.3642
 20
29.0462
 30
0.0
 10
-30.2418
 20
23.9953
 30
0.0
 10
-30.2418
 20
23.9953
 30
0.0
 10
-30.2418
 20
23.9953
 30
0.0
 10
-30.2418
 20
23.9953
 30
0.0
 10
-31.6743
 20
21.4966
 30
0.0
 10
-31.6743
 20
21.4966
 30
0.0
  0
SPLINE
  5
AE
330
1F
100
AcDbEntity
  8
layer 1
100
AcDbSpline
210
0.0
220
0.0
230
1.0
 70
    11
 71
     3
 72
    20
 73
    16
 74
     0
 42
0.0000000001
 43
0.0000000001
 12
1.0
 22
0.0
 32
0.0
 13
1.0
 23
0.0
 33
0.0
 40
0.0
 40
0.0
 40
0.0
 40
0.0
 40
0.2
 40
0.2
 40
0.2
 40
0.2
 40
0.4
 40
0.4
 40
0.4
 40
0.4
 40
0.6
 40
0.6
 40
0.6
 40
0.6
 40
1.0
 40
1.0
 40
1.0
 40
1.0
 10
-45.5878
 20
-1.6396
 30
0.0
 10
-45.5878
 20
-1.6396
 30
0.0
 10
-55.3752
 20
14.7574
 30
0.0
 10
-55.3752
 20
14.7574
 30
0.0
 10
-55.3752
 20
14.7574
 30
0.0
 10
-55.3752
 20
14.7574
 30
0.0
 10
-45.5934
 20
21.1506
 30
0.0
 10
-45.5934
 20
21.1506
 30
0.0
 10
-45.5934
 20
21.1506
 30
0.0
 10
-45.5934
 20
21.1506
 30
0.0
 10
-35.7658
 20
14.6123
 30
0.0
 10
-35.7658
 20
14.6123
 30
0.0
 10
-35.7658
 20
14.6123
 30
0.0
 10
-35.7658
 20
14.6123
 30
0.0
 10
-45.5878
 20
-1.6396
 30
0.0
 10
-45.5878
 20
-1.6396
 30
0.0
  0
SPLINE
  5
AF
330
1F
100
AcDbEntity
  8
layer 1
100
AcDbSpline
210
0.0
220
0.0
230
1.0
 70
    11
 71
     3
 72
    20
 73
    16
 74
     0
 42
0.0000000001
 43
0.0000000001
 12
1.0
 22
0.0
 32
0.0
 13
1.0
 23
0.0
 33
0.0
 40
0.0
 40
0.0
 40
0.0
 40
0.0
 40
0.2
 40
0.2
 40
0.2
 40
0.2
 40
0.4
 40
0.4
 40
0.4
 40
0.4
 40
0.6
 40
0.6
 40
0.6
 40
0.6
 40
1.0
 40
1.0
 40
1.0
 40
1.0
 10
-45.5743
 20
26.8318
 30
0.0
 10
-45.5743
 20
26.8318
 30
0.0
 10
-55.3738
 20
33.2523
 30
0.0
 10
-55.3738
 20
33.2523
 30
0.0
 10
-55.3738
 20
33.2523
 30
0.0
 10
-55.3738
 20
33.2523
 30
0.0
 10
-45.5896
 20
49.6631
 30
0.0
 10
-45.5896
 20
49.6631
 30
0.0
 10
-45.5896
 20
49.6631
 30
0.0
 10
-45.5896
 20
49.6631
 30
0.0
 10
-35.8223
 20
33.4023
 30
0.0
 10
-35.8223
 20
33.4023
 30
0.0
 10
-35.8223
 20
33.4023
 30
0.0
 10
-35.8223
 20
33.4023
 30
0.0
 10
-45.5743
 20
26.8318
 30
0.0
 10
-45.5743
 20
26.8318
 30
0.0
  0
SPLINE
  5
B0
330
1F
100
AcDbEntity
  8
layer 1
100
AcDbSpline
210
0.0
220
0.0
230
1.0
 70
    11
 71
     3
 72
    20
 73
    16
 74
     0
 42
0.0000000001
 43
0.0000000001
 12
1.0
 22
0.0
 32
0.0
 13
1.0
 23
0.0
 33
0.0
 40
0.0
 40
0.0
 40
0.0
 40
0.0
 40
0.2
 40
0.2
 40
0.2
 40
0.2
 40
0.4
 40
0.4
 40
0.4
 40
0.4
 40
0.6
 40
0.6
 40
0.6
 40
0.6
 40
1.0
 40
1.0
 40
1.0
 40
1.0
 10
-59.4872
 20
36.0053
 30
0.0
 10
-62.7309
 20
38.0398
 30
0.0
 10
-65.1684
 20
39.6901
 30
0.0
 10
-68.6035
 20
41.9552
 30
0.0
 10
-68.6035
 20
41.9552
 30
0.0
 10
-68.6035
 20
41.9552
 30
0.0
 10
-68.6066
 20
52.0605
 30
0.0
 10
-68.6066
 20
52.0605
 30
0.0
 10
-68.6066
 20
52.0605
 30
0.0
 10
-68.6066
 20
52.0605
 30
0.0
 10
-49.9014
 20
52.0006
 30
0.0
 10
-49.9014
 20
52.0006
 30
0.0
 10
-49.9014
 20
52.0006
 30
0.0
 10
-49.9014
 20
52.0006
 30
0.0
 10
-59.4872
 20
36.0053
 30
0.0
 10
-59.4872
 20
36.0053
 30
0.0
  0
SPLINE
  5
B1
330
1F
100
AcDbEntity
  8
layer 1
100
AcDbSpline
210
0.0
220
0.0
230
1.0
 70
    11
 71
     3
 72
    20
 73
    16
 74
     0
 42
0.0000000001
 43
0.0000000001
 12
1.0
 22
0.0
 32
0.0
 13
1.0
 23
0.0
 33
0.0
 40
0.0
 40
0.0
 40
0.0
 40
0.0
 40
0.2
 40
0.2
 40
0.2
 40
0.2
 40
0.4
 40
0.4
 40
0.4
 40
0.4
 40
0.6
 40
0.6
 40
0.6
 40
0.6
 40
1.0
 40
1.0
 40
1.0
 40
1.0
 10
-57.8167
 20
18.9774
 30
0.0
 10
-57.8167
 20
18.9774
 30
0.0
 10
-60.8636
 20
24.0356
 30
0.0
 10
-60.8636
 20
24.0356
 30
0.0
 10
-60.8636
 20
24.0356
 30
0.0
 10
-60.8636
 20
24.0356
 30
0.0
 10
-57.8107
 20
29.0462
 30
0.0
 10
-57.8107
 20
29.0462
 30
0.0
 10
-57.8107
 20
29.0462
 30
0.0
 10
-57.8107
 20
29.0462
 30
0.0
 10
-50.1891
 20
24.0411
 30
0.0
 10
-50.1891
 20
24.0411
 30
0.0
 10
-50.1891
 20
24.0411
 30
0.0
 10
-50.1891
 20
24.0411
 30
0.0
 10
-57.8167
 20
18.9774
 30
0.0
 10
-57.8167
 20
18.9774
 30
0.0
  0
SPLINE
  5
B2
330
1F
100
AcDbEntity
  8
layer 1
100
AcDbSpline
210
0.0
220
0.0
230
1.0
 70
    11
 71
     3
 72
    24
 73
    20
 74
     0
 42
0.0000000001
 43
0.0000000001
 12
1.0
 22
0.0
 32
0.0
 13
1.0
 23
0.0
 33
0.0
 40
0.0
 40
0.0
 40
0.0
 40
0.0
 40
0.1666666666666667
 40
0.1666666666666667
 40
0.1666666666666667
 40
0.1666666666666667
 40
0.3333333333333333
 40
0.3333333333333333
 40
0.3333333333333333
 40
0.3333333333333333
 40
0.5
 40
0.5
 40
0.5
 40
0.5
 40
0.6666666666666666
 40
0.6666666666666666
 40
0.6666666666666666
 40
0.6666666666666666
 40
1.0
 40
1.0
 40
1.0
 40
1.0
 10
-22.5538
 20
11.7207
 30
0.0
 10
-22.5538
 20
11.7207
 30
0.0
 10
-22.5538
 20
36.2698
 30
0.0
 10
-22.5538
 20
36.2698
 30
0.0
 10
-22.5538
 20
36.2698
 30
0.0
 10
-22.5538
 20
36.2698
 30
0.0
 10
-29.0742
 20
31.6238
 30
0.0
 10
-29.0742
 20
31.6238
 30
0.0
 10
-29.0742
 20
31.6238
 30
0.0
 10
-29.0742
 20
31.6238
 30
0.0
 10
-24.7178
 20
24.016
 30
0.0
 10
-24.7178
 20
24.016
 30
0.0
 10
-24.7178
 20
24.016
 30
0.0
 10
-24.7178
 20
24.016
 30
0.0
 10
-29.1799
 20
16.313
 30
0.0
 10
-29.1799
 20
16.313
 30
0.0
 10
-29.1799
 20
16.313
 30
0.0
 10
-29.1799
 20
16.313
 30
0.0
 10
-22.5538
 20
11.7207
 30
0.0
 10
-22.5538
 20
11.7207
 30
0.0
  0
SPLINE
  5
B3
330
1F
100
AcDbEntity
  8
layer 1
100
AcDbSpline
210
0.0
220
0.0
230
1.0
 70
    11
 71
     3
 72
    20
 73
    16
 74
     0
 42
0.0000000001
 43
0.0000000001
 12
1.0
 22
0.0
 32
0.0
 13
1.0
 23
0.0
 33
0.0
 40
0.0
 40
0.0
 40
0.0
 40
0.0
 40
0.2
 40
0.2
 40
0.2
 40
0.2
 40
0.4
 40
0.4
 40
0.4
 40
0.4
 40
0.6
 40
0.6
 40
0.6
 40
0.6
 40
1.0
 40
1.0
 40
1.0
 40
1.0
 10
-22.5603
 20
-4.0356
 30
0.0
 10
-22.5603
 20
-4.0356
 30
0.0
 10
-22.5603
 20
6.0481
 30
0.0
 10
-22.5603
 20
6.0481
 30
0.0
 10
-22.5603
 20
6.0481
 30
0.0
 10
-22.5603
 20
6.0481
 30
0.0
 10
-31.7787
 20
11.9816
 30
0.0
 10
-31.7787
 20
11.9816
 30
0.0
 10
-31.7787
 20
11.9816
 30
0.0
 10
-31.8334
 20
11.9119
 30
0.0
 10
-40.9948
 20
-3.6378
 30
0.0
 10
-41.2169
 20
-4.0342
 30
0.0
 10
-41.2169
 20
-4.0342
 30
0.0
 10
-41.2169
 20
-4.0342
 30
0.0
 10
-22.5603
 20
-4.0356
 30
0.0
 10
-22.5603
 20
-4.0356
 30
0.0
  0
SPLINE
  5
B4
330
1F
100
AcDbEntity
  8
layer 1
100
AcDbSpline
210
0.0
220
0.0
230
1.0
 70
    11
 71
     3
 72
    20
 73
    16
 74
     0
 42
0.0000000001
 43
0.0000000001
 12
1.0
 22
0.0
 32
0.0
 13
1.0
 23
0.0
 33
0.0
 40
0.0
 40
0.0
 40
0.0
 40
0.0
 40
0.2
 40
0.2
 40
0.2
 40
0.2
 40
0.4
 40
0.4
 40
0.4
 40
0.4
 40
0.6
 40
0.6
 40
0.6
 40
0.6
 40
1.0
 40
1.0
 40
1.0
 40
1.0
 10
-31.6701
 20
36.0067
 30
0.0
 10
-28.4264
 20
38.0412
 30
0.0
 10
-25.9889
 20
39.6914
 30
0.0
 10
-22.5538
 20
41.9565
 30
0.0
 10
-22.5538
 20
41.9565
 30
0.0
 10
-22.5538
 20
41.9565
 30
0.0
 10
-22.5507
 20
52.0618
 30
0.0
 10
-22.5507
 20
52.0618
 30
0.0
 10
-22.5507
 20
52.0618
 30
0.0
 10
-22.5507
 20
52.0618
 30
0.0
 10
-41.2559
 20
52.0019
 30
0.0
 10
-41.2559
 20
52.0019
 30
0.0
 10
-41.2559
 20
52.0019
 30
0.0
 10
-41.2559
 20
52.0019
 30
0.0
 10
-31.6701
 20
36.0067
 30
0.0
 10
-31.6701
 20
36.0067
 30
0.0
  0
SPLINE
  5
B5
330
1F
100
AcDbEntity
  8
layer 1
100
AcDbSpline
210
0.0
220
0.0
230
1.0
 70
    11
 71
     3
 72
    24
 73
    20
 74
     0
 42
0.0000000001
 43
0.0000000001
 12
1.0
 22
0.0
 32
0.0
 13
1.0
 23
0.0
 33
0.0
 40
0.0
 40
0.0
 40
0.0
 40
0.0
 40
0.1666666666666667
 40
0.1666666666666667
 40
0.1666666666666667
 40
0.1666666666666667
 40
0.3333333333333333
 40
0.3333333333333333
 40
0.3333333333333333
 40
0.3333333333333333
 40
0.5
 40
0.5
 40
0.5
 40
0.5
 40
0.6666666666666666
 40
0.6666666666666666
 40
0.6666666666666666
 40
0.6666666666666666
 40
1.0
 40
1.0
 40
1.0
 40
1.0
 10
-22.4507
 20
11.7194
 30
0.0
 10
-22.4507
 20
11.7194
 30
0.0
 10
-22.4507
 20
36.2685
 30
0.0
 10
-22.4507
 20
36.2685
 30
0.0
 10
-22.4507
 20
36.2685
 30
0.0
 10
-22.4507
 20
36.2685
 30
0.0
 10
-15.9303
 20
31.6226
 30
0.0
 10
-15.9303
 20
31.6226
 30
0.0
 10
-15.9303
 20
31.6226
 30
0.0
 10
-15.9303
 20
31.6226
 30
0.0
 10
-20.2866
 20
24.0148
 30
0.0
 10
-20.2866
 20
24.0148
 30
0.0
 10
-20.2866
 20
24.0148
 30
0.0
 10
-20.2866
 20
24.0148
 30
0.0
 10
-15.8245
 20
16.3117
 30
0.0
 10
-15.8245
 20
16.3117
 30
0.0
 10
-15.8245
 20
16.3117
 30
0.0
 10
-15.8245
 20
16.3117
 30
0.0
 10
-22.4507
 20
11.7194
 30
0.0
 10
-22.4507
 20
11.7194
 30
0.0
  0
SPLINE
  5
B6
330
1F
100
AcDbEntity
  8
layer 1
100
AcDbSpline
210
0.0
220
0.0
230
1.0
 70
    11
 71
     3
 72
    20
 73
    16
 74
     0
 42
0.0000000001
 43
0.0000000001
 12
1.0
 22
0.0
 32
0.0
 13
1.0
 23
0.0
 33
0.0
 40
0.0
 40
0.0
 40
0.0
 40
0.0
 40
0.2
 40
0.2
 40
0.2
 40
0.2
 40
0.4
 40
0.4
 40
0.4
 40
0.4
 40
0.6
 40
0.6
 40
0.6
 40
0.6
 40
1.0
 40
1.0
 40
1.0
 40
1.0
 10
-22.4441
 20
-4.0369
 30
0.0
 10
-22.4441
 20
-4.0369
 30
0.0
 10
-22.4441
 20
6.0468
 30
0.0
 10
-22.4441
 20
6.0468
 30
0.0
 10
-22.4441
 20
6.0468
 30
0.0
 10
-22.4441
 20
6.0468
 30
0.0
 10
-13.2257
 20
11.9804
 30
0.0
 10
-13.2257
 20
11.9804
 30
0.0
 10
-13.2257
 20
11.9804
 30
0.0
 10
-13.171
 20
11.9106
 30
0.0
 10
-4.0097
 20
-3.6391
 30
0.0
 10
-3.7875
 20
-4.0355
 30
0.0
 10
-3.7875
 20
-4.0355
 30
0.0
 10
-3.7875
 20
-4.0355
 30
0.0
 10
-22.4441
 20
-4.0369
 30
0.0
 10
-22.4441
 20
-4.0369
 30
0.0
  0
SPLINE
  5
B7
330
1F
100
AcDbEntity
  8
layer 1
100
AcDbSpline
210
0.0
220
0.0
230
1.0
 70
    11
 71
     3
 72
    24
 73
    20
 74
     0
 42
0.0000000001
 43
0.0000000001
 12
1.0
 22
0.0
 32
0.0
 13
1.0
 23
0.0
 33
0.0
 40
0.0
 40
0.0
 40
0.0
 40
0.0
 40
0.1666666666666667
 40
0.1666666666666667
 40
0.1666666666666667
 40
0.1666666666666667
 40
0.3333333333333333
 40
0.3333333333333333
 40
0.3333333333333333
 40
0.3333333333333333
 40
0.5
 40
0.5
 40
0.5
 40
0.5
 40
0.6666666666666666
 40
0.6666666666666666
 40
0.6666666666666666
 40
0.6666666666666666
 40
1.0
 40
1.0
 40
1.0
 40
1.0
 10
14.4786
 20
21.4966
 30
0.0
 10
14.4786
 20
21.4966
 30
0.0
 10
12.8211
 20
19.0256
 30
0.0
 10
12.8211
 20
19.0256
 30
0.0
 10
12.8211
 20
19.0256
 30
0.0
 10
12.8211
 20
19.0256
 30
0.0
 10
5.1251
 20
24.0024
 30
0.0
 10
5.1251
 20
24.0024
 30
0.0
 10
5.1251
 20
24.0024
 30
0.0
 10
5.1251
 20
24.0024
 30
0.0
 10
12.7888
 20
29.0462
 30
0.0
 10
12.7888
 20
29.0462
 30
0.0
 10
12.7888
 20
29.0462
 30
0.0
 10
12.7888
 20
29.0462
 30
0.0
 10
15.9111
 20
23.9953
 30
0.0
 10
15.9111
 20
23.9953
 30
0.0
 10
15.9111
 20
23.9953
 30
0.0
 10
15.9111
 20
23.9953
 30
0.0
 10
14.4786
 20
21.4966
 30
0.0
 10
14.4786
 20
21.4966
 30
0.0
  0
SPLINE
  5
B8
330
1F
100
AcDbEntity
  8
layer 1
100
AcDbSpline
210
0.0
220
0.0
230
1.0
 70
    11
 71
     3
 72
    20
 73
    16
 74
     0
 42
0.0000000001
 43
0.0000000001
 12
1.0
 22
0.0
 32
0.0
 13
1.0
 23
0.0
 33
0.0
 40
0.0
 40
0.0
 40
0.0
 40
0.0
 40
0.2
 40
0.2
 40
0.2
 40
0.2
 40
0.4
 40
0.4
 40
0.4
 40
0.4
 40
0.6
 40
0.6
 40
0.6
 40
0.6
 40
1.0
 40
1.0
 40
1.0
 40
1.0
 10
0.5651
 20
-1.6396
 30
0.0
 10
0.5651
 20
-1.6396
 30
0.0
 10
-9.2222
 20
14.7574
 30
0.0
 10
-9.2222
 20
14.7574
 30
0.0
 10
-9.2222
 20
14.7574
 30
0.0
 10
-9.2222
 20
14.7574
 30
0.0
 10
0.5596
 20
21.1506
 30
0.0
 10
0.5596
 20
21.1506
 30
0.0
 10
0.5596
 20
21.1506
 30
0.0
 10
0.5596
 20
21.1506
 30
0.0
 10
10.3872
 20
14.6123
 30
0.0
 10
10.3872
 20
14.6123
 30
0.0
 10
10.3872
 20
14.6123
 30
0.0
 10
10.3872
 20
14.6123
 30
0.0
 10
0.5651
 20
-1.6396
 30
0.0
 10
0.5651
 20
-1.6396
 30
0.0
  0
SPLINE
  5
B9
330
1F
100
AcDbEntity
  8
layer 1
100
AcDbSpline
210
0.0
220
0.0
230
1.0
 70
    11
 71
     3
 72
    20
 73
    16
 74
     0
 42
0.0000000001
 43
0.0000000001
 12
1.0
 22
0.0
 32
0.0
 13
1.0
 23
0.0
 33
0.0
 40
0.0
 40
0.0
 40
0.0
 40
0.0
 40
0.2
 40
0.2
 40
0.2
 40
0.2
 40
0.4
 40
0.4
 40
0.4
 40
0.4
 40
0.6
 40
0.6
 40
0.6
 40
0.6
 40
1.0
 40
1.0
 40
1.0
 40
1.0
 10
0.5786
 20
26.8318
 30
0.0
 10
0.5786
 20
26.8318
 30
0.0
 10
-9.2209
 20
33.2523
 30
0.0
 10
-9.2209
 20
33.2523
 30
0.0
 10
-9.2209
 20
33.2523
 30
0.0
 10
-9.2209
 20
33.2523
 30
0.0
 10
0.5634
 20
49.6631
 30
0.0
 10
0.5634
 20
49.6631
 30
0.0
 10
0.5634
 20
49.6631
 30
0.0
 10
0.5634
 20
49.6631
 30
0.0
 10
10.3306
 20
33.4023
 30
0.0
 10
10.3306
 20
33.4023
 30
0.0
 10
10.3306
 20
33.4023
 30
0.0
 10
10.3306
 20
33.4023
 30
0.0
 10
0.5786
 20
26.8318
 30
0.0
 10
0.5786
 20
26.8318
 30
0.0
  0
SPLINE
  5
BA
330
1F
100
AcDbEntity
  8
layer 1
100
AcDbSpline
210
0.0
220
0.0
230
1.0
 70
    11
 71
     3
 72
    20
 73
    16
 74
     0
 42
0.0000000001
 43
0.0000000001
 12
1.0
 22
0.0
 32
0.0
 13
1.0
 23
0.0
 33
0.0
 40
0.0
 40
0.0
 40
0.0
 40
0.0
 40
0.2
 40
0.2
 40
0.2
 40
0.2
 40
0.4
 40
0.4
 40
0.4
 40
0.4
 40
0.6
 40
0.6
 40
0.6
 40
0.6
 40
1.0
 40
1.0
 40
1.0
 40
1.0
 10
-13.3343
 20
36.0053
 30
0.0
 10
-16.5779
 20
38.0398
 30
0.0
 10
-19.0154
 20
39.6901
 30
0.0
 10
-22.4506
 20
41.9552
 30
0.0
 10
-22.4506
 20
41.9552
 30
0.0
 10
-22.4506
 20
41.9552
 30
0.0
 10
-22.4536
 20
52.0605
 30
0.0
 10
-22.4536
 20
52.0605
 30
0.0
 10
-22.4536
 20
52.0605
 30
0.0
 10
-22.4536
 20
52.0605
 30
0.0
 10
-3.7484
 20
52.0006
 30
0.0
 10
-3.7484
 20
52.0006
 30
0.0
 10
-3.7484
 20
52.0006
 30
0.0
 10
-3.7484
 20
52.0006
 30
0.0
 10
-13.3343
 20
36.0053
 30
0.0
 10
-13.3343
 20
36.0053
 30
0.0
  0
SPLINE
  5
BB
330
1F
100
AcDbEntity
  8
layer 1
100
AcDbSpline
210
0.0
220
0.0
230
1.0
 70
    11
 71
     3
 72
    20
 73
    16
 74
     0
 42
0.0000000001
 43
0.0000000001
 12
1.0
 22
0.0
 32
0.0
 13
1.0
 23
0.0
 33
0.0
 40
0.0
 40
0.0
 40
0.0
 40
0.0
 40
0.2
 40
0.2
 40
0.2
 40
0.2
 40
0.4
 40
0.4
 40
0.4
 40
0.4
 40
0.6
 40
0.6
 40
0.6
 40
0.6
 40
1.0
 40
1.0
 40
1.0
 40
1.0
 10
-11.6637
 20
18.9774
 30
0.0
 10
-11.6637
 20
18.9774
 30
0.0
 10
-14.7106
 20
24.0356
 30
0.0
 10
-14.7106
 20
24.0356
 30
0.0
 10
-14.7106
 20
24.0356
 30
0.0
 10
-14.7106
 20
24.0356
 30
0.0
 10
-11.6577
 20
29.0462
 30
0.0
 10
-11.6577
 20
29.0462
 30
0.0
 10
-11.6577
 20
29.0462
 30
0.0
 10
-11.6577
 20
29.0462
 30
0.0
 10
-4.0361
 20
24.0411
 30
0.0
 10
-4.0361
 20
24.0411
 30
0.0
 10
-4.0361
 20
24.0411
 30
0.0
 10
-4.0361
 20
24.0411
 30
0.0
 10
-11.6637
 20
18.9774
 30
0.0
 10
-11.6637
 20
18.9774
 30
0.0
  0
SPLINE
  5
BC
330
1F
100
AcDbEntity
  8
layer 1
100
AcDbSpline
210
0.0
220
0.0
230
1.0
 70
    11
 71
     3
 72
    24
 73
    20
 74
     0
 42
0.0000000001
 43
0.0000000001
 12
1.0
 22
0.0
 32
0.0
 13
1.0
 23
0.0
 33
0.0
 40
0.0
 40
0.0
 40
0.0
 40
0.0
 40
0.1666666666666667
 40
0.1666666666666667
 40
0.1666666666666667
 40
0.1666666666666667
 40
0.3333333333333333
 40
0.3333333333333333
 40
0.3333333333333333
 40
0.3333333333333333
 40
0.5
 40
0.5
 40
0.5
 40
0.5
 40
0.6666666666666666
 40
0.6666666666666666
 40
0.6666666666666666
 40
0.6666666666666666
 40
1.0
 40
1.0
 40
1.0
 40
1.0
 10
23.5992
 20
11.7207
 30
0.0
 10
23.5992
 20
11.7207
 30
0.0
 10
23.5992
 20
36.2698
 30
0.0
 10
23.5992
 20
36.2698
 30
0.0
 10
23.5992
 20
36.2698
 30
0.0
 10
23.5992
 20
36.2698
 30
0.0
 10
17.0788
 20
31.6238
 30
0.0
 10
17.0788
 20
31.6238
 30
0.0
 10
17.0788
 20
31.6238
 30
0.0
 10
17.0788
 20
31.6238
 30
0.0
 10
21.4351
 20
24.016
 30
0.0
 10
21.4351
 20
24.016
 30
0.0
 10
21.4351
 20
24.016
 30
0.0
 10
21.4351
 20
24.016
 30
0.0
 10
16.9731
 20
16.313
 30
0.0
 10
16.9731
 20
16.313
 30
0.0
 10
16.9731
 20
16.313
 30
0.0
 10
16.9731
 20
16.313
 30
0.0
 10
23.5992
 20
11.7207
 30
0.0
 10
23.5992
 20
11.7207
 30
0.0
  0
SPLINE
  5
BD
330
1F
100
AcDbEntity
  8
layer 1
100
AcDbSpline
210
0.0
220
0.0
230
1.0
 70
    11
 71
     3
 72
    20
 73
    16
 74
     0
 42
0.0000000001
 43
0.0000000001
 12
1.0
 22
0.0
 32
0.0
 13
1.0
 23
0.0
 33
0.0
 40
0.0
 40
0.0
 40
0.0
 40
0.0
 40
0.2
 40
0.2
 40
0.2
 40
0.2
 40
0.4
 40
0.4
 40
0.4
 40
0.4
 40
0.6
 40
0.6
 40
0.6
 40
0.6
 40
1.0
 40
1.0
 40
1.0
 40
1.0
 10
23.5927
 20
-4.0356
 30
0.0
 10
23.5927
 20
-4.0356
 30
0.0
 10
23.5927
 20
6.0481
 30
0.0
 10
23.5927
 20
6.0481
 30
0.0
 10
23.5927
 20
6.0481
 30
0.0
 10
23.5927
 20
6.0481
 30
0.0
 10
14.3743
 20
11.9816
 30
0.0
 10
14.3743
 20
11.9816
 30
0.0
 10
14.3743
 20
11.9816
 30
0.0
 10
14.3195
 20
11.9119
 30
0.0
 10
5.1582
 20
-3.6378
 30
0.0
 10
4.936
 20
-4.0342
 30
0.0
 10
4.936
 20
-4.0342
 30
0.0
 10
4.936
 20
-4.0342
 30
0.0
 10
23.5927
 20
-4.0356
 30
0.0
 10
23.5927
 20
-4.0356
 30
0.0
  0
SPLINE
  5
BE
330
1F
100
AcDbEntity
  8
layer 1
100
AcDbSpline
210
0.0
220
0.0
230
1.0
 70
    11
 71
     3
 72
    20
 73
    16
 74
     0
 42
0.0000000001
 43
0.0000000001
 12
1.0
 22
0.0
 32
0.0
 13
1.0
 23
0.0
 33
0.0
 40
0.0
 40
0.0
 40
0.0
 40
0.0
 40
0.2
 40
0.2
 40
0.2
 40
0.2
 40
0.4
 40
0.4
 40
0.4
 40
0.4
 40
0.6
 40
0.6
 40
0.6
 40
0.6
 40
1.0
 40
1.0
 40
1.0
 40
1.0
 10
14.4829
 20
36.0067
 30
0.0
 10
17.7266
 20
38.0412
 30
0.0
 10
20.1641
 20
39.6914
 30
0.0
 10
23.5992
 20
41.9565
 30
0.0
 10
23.5992
 20
41.9565
 30
0.0
 10
23.5992
 20
41.9565
 30
0.0
 10
23.6023
 20
52.0618
 30
0.0
 10
23.6023
 20
52.0618
 30
0.0
 10
23.6023
 20
52.0618
 30
0.0
 10
23.6023
 20
52.0618
 30
0.0
 10
4.8971
 20
52.0019
 30
0.0
 10
4.8971
 20
52.0019
 30
0.0
 10
4.8971
 20
52.0019
 30
0.0
 10
4.8971
 20
52.0019
 30
0.0
 10
14.4829
 20
36.0067
 30
0.0
 10
14.4829
 20
36.0067
 30
0.0
  0
SPLINE
  5
BF
330
1F
100
AcDbEntity
  8
layer 1
100
AcDbSpline
210
0.0
220
0.0
230
1.0
 70
    11
 71
     3
 72
    20
 73
    16
 74
     0
 42
0.0000000001
 43
0.0000000001
 12
1.0
 22
0.0
 32
0.0
 13
1.0
 23
0.0
 33
0.0
 40
0.0
 40
0.0
 40
0.0
 40
0.0
 40
0.2
 40
0.2
 40
0.2
 40
0.2
 40
0.4
 40
0.4
 40
0.4
 40
0.4
 40
0.6
 40
0.6
 40
0.6
 40
0.6
 40
1.0
 40
1.0
 40
1.0
 40
1.0
 10
-61.4955
 20
-1.589
 30
0.0
 10
-61.4955
 20
-1.589
 30
0.0
 10
-59.0982
 20
-1.589
 30
0.0
 10
-59.0982
 20
-1.589
 30
0.0
 10
-59.0982
 20
-1.589
 30
0.0
 10
-59.0982
 20
-1.589
 30
0.0
 10
-59.0982
 20
0.5686
 30
0.0
 10
-59.0982
 20
0.5686
 30
0.0
 10
-59.0982
 20
0.5686
 30
0.0
 10
-59.0982
 20
0.5686
 30
0.0
 10
-61.4955
 20
0.5686
 30
0.0
 10
-61.4955
 20
0.5686
 30
0.0
 10
-61.4955
 20
0.5686
 30
0.0
 10
-61.4955
 20
0.5686
 30
0.0
 10
-61.4955
 20
-1.589
 30
0.0
 10
-61.4955
 20
-1.589
 30
0.0
  0
SPLINE
  5
C0
330
1F
100
AcDbEntity
  8
layer 1
100
AcDbSpline
210
0.0
220
0.0
230
1.0
 70
    11
 71
     3
 72
    24
 73
    20
 74
     0
 42
0.0000000001
 43
0.0000000001
 12
1.0
 22
0.0
 32
0.0
 13
1.0
 23
0.0
 33
0.0
 40
0.0
 40
0.0
 40
0.0
 40
0.0
 40
0.1666666666666667
 40
0.1666666666666667
 40
0.1666666666666667
 40
0.1666666666666667
 40
0.3333333333333333
 40
0.3333333333333333
 40
0.3333333333333333
 40
0.3333333333333333
 40
0.5
 40
0.5
 40
0.5
 40
0.5
 40
0.6666666666666666
 40
0.6666666666666666
 40
0.6666666666666666
 40
0.6666666666666666
 40
1.0
 40
1.0
 40
1.0
 40
1.0
 10
-68.6036
 20
-43.8186
 30
0.0
 10
-68.6036
 20
-43.8186
 30
0.0
 10
-68.6036
 20
-19.2695
 30
0.0
 10
-68.6036
 20
-19.2695
 30
0.0
 10
-68.6036
 20
-19.2695
 30
0.0
 10
-68.6036
 20
-19.2695
 30
0.0
 10
-62.0832
 20
-23.9155
 30
0.0
 10
-62.0832
 20
-23.9155
 30
0.0
 10
-62.0832
 20
-23.9155
 30
0.0
 10
-62.0832
 20
-23.9155
 30
0.0
 10
-66.4395
 20
-31.5232
 30
0.0
 10
-66.4395
 20
-31.5232
 30
0.0
 10
-66.4395
 20
-31.5232
 30
0.0
 10
-66.4395
 20
-31.5232
 30
0.0
 10
-61.9775
 20
-39.2263
 30
0.0
 10
-61.9775
 20
-39.2263
 30
0.0
 10
-61.9775
 20
-39.2263
 30
0.0
 10
-61.9775
 20
-39.2263
 30
0.0
 10
-68.6036
 20
-43.8186
 30
0.0
 10
-68.6036
 20
-43.8186
 30
0.0
  0
SPLINE
  5
C1
330
1F
100
AcDbEntity
  8
layer 1
100
AcDbSpline
210
0.0
220
0.0
230
1.0
 70
    11
 71
     3
 72
    20
 73
    16
 74
     0
 42
0.0000000001
 43
0.0000000001
 12
1.0
 22
0.0
 32
0.0
 13
1.0
 23
0.0
 33
0.0
 40
0.0
 40
0.0
 40
0.0
 40
0.0
 40
0.2
 40
0.2
 40
0.2
 40
0.2
 40
0.4
 40
0.4
 40
0.4
 40
0.4
 40
0.6
 40
0.6
 40
0.6
 40
0.6
 40
1.0
 40
1.0
 40
1.0
 40
1.0
 10
-68.5971
 20
-59.5749
 30
0.0
 10
-68.5971
 20
-59.5749
 30
0.0
 10
-68.5971
 20
-49.4912
 30
0.0
 10
-68.5971
 20
-49.4912
 30
0.0
 10
-68.5971
 20
-49.4912
 30
0.0
 10
-68.5971
 20
-49.4912
 30
0.0
 10
-59.3787
 20
-43.5576
 30
0.0
 10
-59.3787
 20
-43.5576
 30
0.0
 10
-59.3787
 20
-43.5576
 30
0.0
 10
-59.3239
 20
-43.6274
 30
0.0
 10
-50.1626
 20
-59.1771
 30
0.0
 10
-49.9404
 20
-59.5735
 30
0.0
 10
-49.9404
 20
-59.5735
 30
0.0
 10
-49.9404
 20
-59.5735
 30
0.0
 10
-68.5971
 20
-59.5749
 30
0.0
 10
-68.5971
 20
-59.5749
 30
0.0
  0
SPLINE
  5
C2
330
1F
100
AcDbEntity
  8
layer 1
100
AcDbSpline
210
0.0
220
0.0
230
1.0
 70
    11
 71
     3
 72
    24
 73
    20
 74
     0
 42
0.0000000001
 43
0.0000000001
 12
1.0
 22
0.0
 32
0.0
 13
1.0
 23
0.0
 33
0.0
 40
0.0
 40
0.0
 40
0.0
 40
0.0
 40
0.1666666666666667
 40
0.1666666666666667
 40
0.1666666666666667
 40
0.1666666666666667
 40
0.3333333333333333
 40
0.3333333333333333
 40
0.3333333333333333
 40
0.3333333333333333
 40
0.5
 40
0.5
 40
0.5
 40
0.5
 40
0.6666666666666666
 40
0.6666666666666666
 40
0.6666666666666666
 40
0.6666666666666666
 40
1.0
 40
1.0
 40
1.0
 40
1.0
 10
-31.6743
 20
-34.0414
 30
0.0
 10
-31.6743
 20
-34.0414
 30
0.0
 10
-33.3319
 20
-36.5124
 30
0.0
 10
-33.3319
 20
-36.5124
 30
0.0
 10
-33.3319
 20
-36.5124
 30
0.0
 10
-33.3319
 20
-36.5124
 30
0.0
 10
-41.0278
 20
-31.5356
 30
0.0
 10
-41.0278
 20
-31.5356
 30
0.0
 10
-41.0278
 20
-31.5356
 30
0.0
 10
-41.0278
 20
-31.5356
 30
0.0
 10
-33.3642
 20
-26.4918
 30
0.0
 10
-33.3642
 20
-26.4918
 30
0.0
 10
-33.3642
 20
-26.4918
 30
0.0
 10
-33.3642
 20
-26.4918
 30
0.0
 10
-30.2418
 20
-31.5427
 30
0.0
 10
-30.2418
 20
-31.5427
 30
0.0
 10
-30.2418
 20
-31.5427
 30
0.0
 10
-30.2418
 20
-31.5427
 30
0.0
 10
-31.6743
 20
-34.0414
 30
0.0
 10
-31.6743
 20
-34.0414
 30
0.0
  0
SPLINE
  5
C3
330
1F
100
AcDbEntity
  8
layer 1
100
AcDbSpline
210
0.0
220
0.0
230
1.0
 70
    11
 71
     3
 72
    20
 73
    16
 74
     0
 42
0.0000000001
 43
0.0000000001
 12
1.0
 22
0.0
 32
0.0
 13
1.0
 23
0.0
 33
0.0
 40
0.0
 40
0.0
 40
0.0
 40
0.0
 40
0.2
 40
0.2
 40
0.2
 40
0.2
 40
0.4
 40
0.4
 40
0.4
 40
0.4
 40
0.6
 40
0.6
 40
0.6
 40
0.6
 40
1.0
 40
1.0
 40
1.0
 40
1.0
 10
-45.5878
 20
-57.1776
 30
0.0
 10
-45.5878
 20
-57.1776
 30
0.0
 10
-55.3752
 20
-40.7806
 30
0.0
 10
-55.3752
 20
-40.7806
 30
0.0
 10
-55.3752
 20
-40.7806
 30
0.0
 10
-55.3752
 20
-40.7806
 30
0.0
 10
-45.5934
 20
-34.3874
 30
0.0
 10
-45.5934
 20
-34.3874
 30
0.0
 10
-45.5934
 20
-34.3874
 30
0.0
 10
-45.5934
 20
-34.3874
 30
0.0
 10
-35.7658
 20
-40.9257
 30
0.0
 10
-35.7658
 20
-40.9257
 30
0.0
 10
-35.7658
 20
-40.9257
 30
0.0
 10
-35.7658
 20
-40.9257
 30
0.0
 10
-45.5878
 20
-57.1776
 30
0.0
 10
-45.5878
 20
-57.1776
 30
0.0
  0
SPLINE
  5
C4
330
1F
100
AcDbEntity
  8
layer 1
100
AcDbSpline
210
0.0
220
0.0
230
1.0
 70
    11
 71
     3
 72
    20
 73
    16
 74
     0
 42
0.0000000001
 43
0.0000000001
 12
1.0
 22
0.0
 32
0.0
 13
1.0
 23
0.0
 33
0.0
 40
0.0
 40
0.0
 40
0.0
 40
0.0
 40
0.2
 40
0.2
 40
0.2
 40
0.2
 40
0.4
 40
0.4
 40
0.4
 40
0.4
 40
0.6
 40
0.6
 40
0.6
 40
0.6
 40
1.0
 40
1.0
 40
1.0
 40
1.0
 10
-45.5743
 20
-28.7062
 30
0.0
 10
-45.5743
 20
-28.7062
 30
0.0
 10
-55.3738
 20
-22.2857
 30
0.0
 10
-55.3738
 20
-22.2857
 30
0.0
 10
-55.3738
 20
-22.2857
 30
0.0
 10
-55.3738
 20
-22.2857
 30
0.0
 10
-45.5896
 20
-5.8749
 30
0.0
 10
-45.5896
 20
-5.8749
 30
0.0
 10
-45.5896
 20
-5.8749
 30
0.0
 10
-45.5896
 20
-5.8749
 30
0.0
 10
-35.8223
 20
-22.1357
 30
0.0
 10
-35.8223
 20
-22.1357
 30
0.0
 10
-35.8223
 20
-22.1357
 30
0.0
 10
-35.8223
 20
-22.1357
 30
0.0
 10
-45.5743
 20
-28.7062
 30
0.0
 10
-45.5743
 20
-28.7062
 30
0.0
  0
SPLINE
  5
C5
330
1F
100
AcDbEntity
  8
layer 1
100
AcDbSpline
210
0.0
220
0.0
230
1.0
 70
    11
 71
     3
 72
    20
 73
    16
 74
     0
 42
0.0000000001
 43
0.0000000001
 12
1.0
 22
0.0
 32
0.0
 13
1.0
 23
0.0
 33
0.0
 40
0.0
 40
0.0
 40
0.0
 40
0.0
 40
0.2
 40
0.2
 40
0.2
 40
0.2
 40
0.4
 40
0.4
 40
0.4
 40
0.4
 40
0.6
 40
0.6
 40
0.6
 40
0.6
 40
1.0
 40
1.0
 40
1.0
 40
1.0
 10
-59.4872
 20
-19.5327
 30
0.0
 10
-62.7309
 20
-17.4982
 30
0.0
 10
-65.1684
 20
-15.8479
 30
0.0
 10
-68.6035
 20
-13.5828
 30
0.0
 10
-68.6035
 20
-13.5828
 30
0.0
 10
-68.6035
 20
-13.5828
 30
0.0
 10
-68.6066
 20
-3.4776
 30
0.0
 10
-68.6066
 20
-3.4776
 30
0.0
 10
-68.6066
 20
-3.4776
 30
0.0
 10
-68.6066
 20
-3.4776
 30
0.0
 10
-49.9014
 20
-3.5374
 30
0.0
 10
-49.9014
 20
-3.5374
 30
0.0
 10
-49.9014
 20
-3.5374
 30
0.0
 10
-49.9014
 20
-3.5374
 30
0.0
 10
-59.4872
 20
-19.5327
 30
0.0
 10
-59.4872
 20
-19.5327
 30
0.0
  0
SPLINE
  5
C6
330
1F
100
AcDbEntity
  8
layer 1
100
AcDbSpline
210
0.0
220
0.0
230
1.0
 70
    11
 71
     3
 72
    20
 73
    16
 74
     0
 42
0.0000000001
 43
0.0000000001
 12
1.0
 22
0.0
 32
0.0
 13
1.0
 23
0.0
 33
0.0
 40
0.0
 40
0.0
 40
0.0
 40
0.0
 40
0.2
 40
0.2
 40
0.2
 40
0.2
 40
0.4
 40
0.4
 40
0.4
 40
0.4
 40
0.6
 40
0.6
 40
0.6
 40
0.6
 40
1.0
 40
1.0
 40
1.0
 40
1.0
 10
-57.8167
 20
-36.5606
 30
0.0
 10
-57.8167
 20
-36.5606
 30
0.0
 10
-60.8636
 20
-31.5024
 30
0.0
 10
-60.8636
 20
-31.5024
 30
0.0
 10
-60.8636
 20
-31.5024
 30
0.0
 10
-60.8636
 20
-31.5024
 30
0.0
 10
-57.8107
 20
-26.4918
 30
0.0
 10
-57.8107
 20
-26.4918
 30
0.0
 10
-57.8107
 20
-26.4918
 30
0.0
 10
-57.8107
 20
-26.4918
 30
0.0
 10
-50.1891
 20
-31.497
 30
0.0
 10
-50.1891
 20
-31.497
 30
0.0
 10
-50.1891
 20
-31.497
 30
0.0
 10
-50.1891
 20
-31.497
 30
0.0
 10
-57.8167
 20
-36.5606
 30
0.0
 10
-57.8167
 20
-36.5606
 30
0.0
  0
SPLINE
  5
C7
330
1F
100
AcDbEntity
  8
layer 1
100
AcDbSpline
210
0.0
220
0.0
230
1.0
 70
    11
 71
     3
 72
    24
 73
    20
 74
     0
 42
0.0000000001
 43
0.0000000001
 12
1.0
 22
0.0
 32
0.0
 13
1.0
 23
0.0
 33
0.0
 40
0.0
 40
0.0
 40
0.0
 40
0.0
 40
0.1666666666666667
 40
0.1666666666666667
 40
0.1666666666666667
 40
0.1666666666666667
 40
0.3333333333333333
 40
0.3333333333333333
 40
0.3333333333333333
 40
0.3333333333333333
 40
0.5
 40
0.5
 40
0.5
 40
0.5
 40
0.6666666666666666
 40
0.6666666666666666
 40
0.6666666666666666
 40
0.6666666666666666
 40
1.0
 40
1.0
 40
1.0
 40
1.0
 10
-22.5538
 20
-43.8173
 30
0.0
 10
-22.5538
 20
-43.8173
 30
0.0
 10
-22.5538
 20
-19.2682
 30
0.0
 10
-22.5538
 20
-19.2682
 30
0.0
 10
-22.5538
 20
-19.2682
 30
0.0
 10
-22.5538
 20
-19.2682
 30
0.0
 10
-29.0742
 20
-23.9142
 30
0.0
 10
-29.0742
 20
-23.9142
 30
0.0
 10
-29.0742
 20
-23.9142
 30
0.0
 10
-29.0742
 20
-23.9142
 30
0.0
 10
-24.7178
 20
-31.522
 30
0.0
 10
-24.7178
 20
-31.522
 30
0.0
 10
-24.7178
 20
-31.522
 30
0.0
 10
-24.7178
 20
-31.522
 30
0.0
 10
-29.1799
 20
-39.2251
 30
0.0
 10
-29.1799
 20
-39.2251
 30
0.0
 10
-29.1799
 20
-39.2251
 30
0.0
 10
-29.1799
 20
-39.2251
 30
0.0
 10
-22.5538
 20
-43.8173
 30
0.0
 10
-22.5538
 20
-43.8173
 30
0.0
  0
SPLINE
  5
C8
330
1F
100
AcDbEntity
  8
layer 1
100
AcDbSpline
210
0.0
220
0.0
230
1.0
 70
    11
 71
     3
 72
    20
 73
    16
 74
     0
 42
0.0000000001
 43
0.0000000001
 12
1.0
 22
0.0
 32
0.0
 13
1.0
 23
0.0
 33
0.0
 40
0.0
 40
0.0
 40
0.0
 40
0.0
 40
0.2
 40
0.2
 40
0.2
 40
0.2
 40
0.4
 40
0.4
 40
0.4
 40
0.4
 40
0.6
 40
0.6
 40
0.6
 40
0.6
 40
1.0
 40
1.0
 40
1.0
 40
1.0
 10
-22.5603
 20
-59.5736
 30
0.0
 10
-22.5603
 20
-59.5736
 30
0.0
 10
-22.5603
 20
-49.4899
 30
0.0
 10
-22.5603
 20
-49.4899
 30
0.0
 10
-22.5603
 20
-49.4899
 30
0.0
 10
-22.5603
 20
-49.4899
 30
0.0
 10
-31.7787
 20
-43.5564
 30
0.0
 10
-31.7787
 20
-43.5564
 30
0.0
 10
-31.7787
 20
-43.5564
 30
0.0
 10
-31.8334
 20
-43.6261
 30
0.0
 10
-40.9948
 20
-59.1758
 30
0.0
 10
-41.2169
 20
-59.5723
 30
0.0
 10
-41.2169
 20
-59.5723
 30
0.0
 10
-41.2169
 20
-59.5723
 30
0.0
 10
-22.5603
 20
-59.5736
 30
0.0
 10
-22.5603
 20
-59.5736
 30
0.0
  0
SPLINE
  5
C9
330
1F
100
AcDbEntity
  8
layer 1
100
AcDbSpline
210
0.0
220
0.0
230
1.0
 70
    11
 71
     3
 72
    20
 73
    16
 74
     0
 42
0.0000000001
 43
0.0000000001
 12
1.0
 22
0.0
 32
0.0
 13
1.0
 23
0.0
 33
0.0
 40
0.0
 40
0.0
 40
0.0
 40
0.0
 40
0.2
 40
0.2
 40
0.2
 40
0.2
 40
0.4
 40
0.4
 40
0.4
 40
0.4
 40
0.6
 40
0.6
 40
0.6
 40
0.6
 40
1.0
 40
1.0
 40
1.0
 40
1.0
 10
-31.6701
 20
-19.5313
 30
0.0
 10
-28.4264
 20
-17.4968
 30
0.0
 10
-25.9889
 20
-15.8466
 30
0.0
 10
-22.5538
 20
-13.5815
 30
0.0
 10
-22.5538
 20
-13.5815
 30
0.0
 10
-22.5538
 20
-13.5815
 30
0.0
 10
-22.5507
 20
-3.4762
 30
0.0
 10
-22.5507
 20
-3.4762
 30
0.0
 10
-22.5507
 20
-3.4762
 30
0.0
 10
-22.5507
 20
-3.4762
 30
0.0
 10
-41.2559
 20
-3.5361
 30
0.0
 10
-41.2559
 20
-3.5361
 30
0.0
 10
-41.2559
 20
-3.5361
 30
0.0
 10
-41.2559
 20
-3.5361
 30
0.0
 10
-31.6701
 20
-19.5313
 30
0.0
 10
-31.6701
 20
-19.5313
 30
0.0
  0
SPLINE
  5
CA
330
1F
100
AcDbEntity
  8
layer 1
100
AcDbSpline
210
0.0
220
0.0
230
1.0
 70
    11
 71
     3
 72
    24
 73
    20
 74
     0
 42
0.0000000001
 43
0.0000000001
 12
1.0
 22
0.0
 32
0.0
 13
1.0
 23
0.0
 33
0.0
 40
0.0
 40
0.0
 40
0.0
 40
0.0
 40
0.1666666666666667
 40
0.1666666666666667
 40
0.1666666666666667
 40
0.1666666666666667
 40
0.3333333333333333
 40
0.3333333333333333
 40
0.3333333333333333
 40
0.3333333333333333
 40
0.5
 40
0.5
 40
0.5
 40
0.5
 40
0.6666666666666666
 40
0.6666666666666666
 40
0.6666666666666666
 40
0.6666666666666666
 40
1.0
 40
1.0
 40
1.0
 40
1.0
 10
-22.4507
 20
-43.8186
 30
0.0
 10
-22.4507
 20
-43.8186
 30
0.0
 10
-22.4507
 20
-19.2695
 30
0.0
 10
-22.4507
 20
-19.2695
 30
0.0
 10
-22.4507
 20
-19.2695
 30
0.0
 10
-22.4507
 20
-19.2695
 30
0.0
 10
-15.9303
 20
-23.9155
 30
0.0
 10
-15.9303
 20
-23.9155
 30
0.0
 10
-15.9303
 20
-23.9155
 30
0.0
 10
-15.9303
 20
-23.9155
 30
0.0
 10
-20.2866
 20
-31.5232
 30
0.0
 10
-20.2866
 20
-31.5232
 30
0.0
 10
-20.2866
 20
-31.5232
 30
0.0
 10
-20.2866
 20
-31.5232
 30
0.0
 10
-15.8245
 20
-39.2263
 30
0.0
 10
-15.8245
 20
-39.2263
 30
0.0
 10
-15.8245
 20
-39.2263
 30
0.0
 10
-15.8245
 20
-39.2263
 30
0.0
 10
-22.4507
 20
-43.8186
 30
0.0
 10
-22.4507
 20
-43.8186
 30
0.0
  0
SPLINE
  5
CB
330
1F
100
AcDbEntity
  8
layer 1
100
AcDbSpline
210
0.0
220
0.0
230
1.0
 70
    11
 71
     3
 72
    20
 73
    16
 74
     0
 42
0.0000000001
 43
0.0000000001
 12
1.0
 22
0.0
 32
0.0
 13
1.0
 23
0.0
 33
0.0
 40
0.0
 40
0.0
 40
0.0
 40
0.0
 40
0.2
 40
0.2
 40
0.2
 40
0.2
 40
0.4
 40
0.4
 40
0.4
 40
0.4
 40
0.6
 40
0.6
 40
0.6
 40
0.6
 40
1.0
 40
1.0
 40
1.0
 40
1.0
 10
-22.4441
 20
-59.5749
 30
0.0
 10
-22.4441
 20
-59.5749
 30
0.0
 10
-22.4441
 20
-49.4912
 30
0.0
 10
-22.4441
 20
-49.4912
 30
0.0
 10
-22.4441
 20
-49.4912
 30
0.0
 10
-22.4441
 20
-49.4912
 30
0.0
 10
-13.2257
 20
-43.5576
 30
0.0
 10
-13.2257
 20
-43.5576
 30
0.0
 10
-13.2257
 20
-43.5576
 30
0.0
 10
-13.171
 20
-43.6274
 30
0.0
 10
-4.0097
 20
-59.1771
 30
0.0
 10
-3.7875
 20
-59.5735
 30
0.0
 10
-3.7875
 20
-59.5735
 30
0.0
 10
-3.7875
 20
-59.5735
 30
0.0
 10
-22.4441
 20
-59.5749
 30
0.0
 10
-22.4441
 20
-59.5749
 30
0.0
  0
SPLINE
  5
CC
330
1F
100
AcDbEntity
  8
layer 1
100
AcDbSpline
210
0.0
220
0.0
230
1.0
 70
    11
 71
     3
 72
    24
 73
    20
 74
     0
 42
0.0000000001
 43
0.0000000001
 12
1.0
 22
0.0
 32
0.0
 13
1.0
 23
0.0
 33
0.0
 40
0.0
 40
0.0
 40
0.0
 40
0.0
 40
0.1666666666666667
 40
0.1666666666666667
 40
0.1666666666666667
 40
0.1666666666666667
 40
0.3333333333333333
 40
0.3333333333333333
 40
0.3333333333333333
 40
0.3333333333333333
 40
0.5
 40
0.5
 40
0.5
 40
0.5
 40
0.6666666666666666
 40
0.6666666666666666
 40
0.6666666666666666
 40
0.6666666666666666
 40
1.0
 40
1.0
 40
1.0
 40
1.0
 10
14.4786
 20
-34.0414
 30
0.0
 10
14.4786
 20
-34.0414
 30
0.0
 10
12.8211
 20
-36.5124
 30
0.0
 10
12.8211
 20
-36.5124
 30
0.0
 10
12.8211
 20
-36.5124
 30
0.0
 10
12.8211
 20
-36.5124
 30
0.0
 10
5.1251
 20
-31.5356
 30
0.0
 10
5.1251
 20
-31.5356
 30
0.0
 10
5.1251
 20
-31.5356
 30
0.0
 10
5.1251
 20
-31.5356
 30
0.0
 10
12.7888
 20
-26.4918
 30
0.0
 10
12.7888
 20
-26.4918
 30
0.0
 10
12.7888
 20
-26.4918
 30
0.0
 10
12.7888
 20
-26.4918
 30
0.0
 10
15.9111
 20
-31.5427
 30
0.0
 10
15.9111
 20
-31.5427
 30
0.0
 10
15.9111
 20
-31.5427
 30
0.0
 10
15.9111
 20
-31.5427
 30
0.0
 10
14.4786
 20
-34.0414
 30
0.0
 10
14.4786
 20
-34.0414
 30
0.0
  0
SPLINE
  5
CD
330
1F
100
AcDbEntity
  8
layer 1
100
AcDbSpline
210
0.0
220
0.0
230
1.0
 70
    11
 71
     3
 72
    20
 73
    16
 74
     0
 42
0.0000000001
 43
0.0000000001
 12
1.0
 22
0.0
 32
0.0
 13
1.0
 23
0.0
 33
0.0
 40
0.0
 40
0.0
 40
0.0
 40
0.0
 40
0.2
 40
0.2
 40
0.2
 40
0.2
 40
0.4
 40
0.4
 40
0.4
 40
0.4
 40
0.6
 40
0.6
 40
0.6
 40
0.6
 40
1.0
 40
1.0
 40
1.0
 40
1.0
 10
0.5651
 20
-57.1776
 30
0.0
 10
0.5651
 20
-57.1776
 30
0.0
 10
-9.2222
 20
-40.7806
 30
0.0
 10
-9.2222
 20
-40.7806
 30
0.0
 10
-9.2222
 20
-40.7806
 30
0.0
 10
-9.2222
 20
-40.7806
 30
0.0
 10
0.5596
 20
-34.3874
 30
0.0
 10
0.5596
 20
-34.3874
 30
0.0
 10
0.5596
 20
-34.3874
 30
0.0
 10
0.5596
 20
-34.3874
 30
0.0
 10
10.3872
 20
-40.9257
 30
0.0
 10
10.3872
 20
-40.9257
 30
0.0
 10
10.3872
 20
-40.9257
 30
0.0
 10
10.3872
 20
-40.9257
 30
0.0
 10
0.5651
 20
-57.1776
 30
0.0
 10
0.5651
 20
-57.1776
 30
0.0
  0
SPLINE
  5
CE
330
1F
100
AcDbEntity
  8
layer 1
100
AcDbSpline
210
0.0
220
0.0
230
1.0
 70
    11
 71
     3
 72
    20
 73
    16
 74
     0
 42
0.0000000001
 43
0.0000000001
 12
1.0
 22
0.0
 32
0.0
 13
1.0
 23
0.0
 33
0.0
 40
0.0
 40
0.0
 40
0.0
 40
0.0
 40
0.2
 40
0.2
 40
0.2
 40
0.2
 40
0.4
 40
0.4
 40
0.4
 40
0.4
 40
0.6
 40
0.6
 40
0.6
 40
0.6
 40
1.0
 40
1.0
 40
1.0
 40
1.0
 10
0.5786
 20
-28.7062
 30
0.0
 10
0.5786
 20
-28.7062
 30
0.0
 10
-9.2209
 20
-22.2857
 30
0.0
 10
-9.2209
 20
-22.2857
 30
0.0
 10
-9.2209
 20
-22.2857
 30
0.0
 10
-9.2209
 20
-22.2857
 30
0.0
 10
0.5634
 20
-5.8749
 30
0.0
 10
0.5634
 20
-5.8749
 30
0.0
 10
0.5634
 20
-5.8749
 30
0.0
 10
0.5634
 20
-5.8749
 30
0.0
 10
10.3306
 20
-22.1357
 30
0.0
 10
10.3306
 20
-22.1357
 30
0.0
 10
10.3306
 20
-22.1357
 30
0.0
 10
10.3306
 20
-22.1357
 30
0.0
 10
0.5786
 20
-28.7062
 30
0.0
 10
0.5786
 20
-28.7062
 30
0.0
  0
SPLINE
  5
CF
330
1F
100
AcDbEntity
  8
layer 1
100
AcDbSpline
210
0.0
220
0.0
230
1.0
 70
    11
 71
     3
 72
    20
 73
    16
 74
     0
 42
0.0000000001
 43
0.0000000001
 12
1.0
 22
0.0
 32
0.0
 13
1.0
 23
0.0
 33
0.0
 40
0.0
 40
0.0
 40
0.0
 40
0.0
 40
0.2
 40
0.2
 40
0.2
 40
0.2
 40
0.4
 40
0.4
 40
0.4
 40
0.4
 40
0.6
 40
0.6
 40
0.6
 40
0.6
 40
1.0
 40
1.0
 40
1.0
 40
1.0
 10
-13.3343
 20
-19.5327
 30
0.0
 10
-16.5779
 20
-17.4982
 30
0.0
 10
-19.0154
 20
-15.8479
 30
0.0
 10
-22.4506
 20
-13.5828
 30
0.0
 10
-22.4506
 20
-13.5828
 30
0.0
 10
-22.4506
 20
-13.5828
 30
0.0
 10
-22.4536
 20
-3.4776
 30
0.0
 10
-22.4536
 20
-3.4776
 30
0.0
 10
-22.4536
 20
-3.4776
 30
0.0
 10
-22.4536
 20
-3.4776
 30
0.0
 10
-3.7484
 20
-3.5374
 30
0.0
 10
-3.7484
 20
-3.5374
 30
0.0
 10
-3.7484
 20
-3.5374
 30
0.0
 10
-3.7484
 20
-3.5374
 30
0.0
 10
-13.3343
 20
-19.5327
 30
0.0
 10
-13.3343
 20
-19.5327
 30
0.0
  0
SPLINE
  5
D0
330
1F
100
AcDbEntity
  8
layer 1
100
AcDbSpline
210
0.0
220
0.0
230
1.0
 70
    11
 71
     3
 72
    20
 73
    16
 74
     0
 42
0.0000000001
 43
0.0000000001
 12
1.0
 22
0.0
 32
0.0
 13
1.0
 23
0.0
 33
0.0
 40
0.0
 40
0.0
 40
0.0
 40
0.0
 40
0.2
 40
0.2
 40
0.2
 40
0.2
 40
0.4
 40
0.4
 40
0.4
 40
0.4
 40
0.6
 40
0.6
 40
0.6
 40
0.6
 40
1.0
 40
1.0
 40
1.0
 40
1.0
 10
-11.6637
 20
-36.5606
 30
0.0
 10
-11.6637
 20
-36.5606
 30
0.0
 10
-14.7106
 20
-31.5024
 30
0.0
 10
-14.7106
 20
-31.5024
 30
0.0
 10
-14.7106
 20
-31.5024
 30
0.0
 10
-14.7106
 20
-31.5024
 30
0.0
 10
-11.6577
 20
-26.4918
 30
0.0
 10
-11.6577
 20
-26.4918
 30
0.0
 10
-11.6577
 20
-26.4918
 30
0.0
 10
-11.6577
 20
-26.4918
 30
0.0
 10
-4.0361
 20
-31.497
 30
0.0
 10
-4.0361
 20
-31.497
 30
0.0
 10
-4.0361
 20
-31.497
 30
0.0
 10
-4.0361
 20
-31.497
 30
0.0
 10
-11.6637
 20
-36.5606
 30
0.0
 10
-11.6637
 20
-36.5606
 30
0.0
  0
SPLINE
  5
D1
330
1F
100
AcDbEntity
  8
layer 1
100
AcDbSpline
210
0.0
220
0.0
230
1.0
 70
    11
 71
     3
 72
    24
 73
    20
 74
     0
 42
0.0000000001
 43
0.0000000001
 12
1.0
 22
0.0
 32
0.0
 13
1.0
 23
0.0
 33
0.0
 40
0.0
 40
0.0
 40
0.0
 40
0.0
 40
0.1666666666666667
 40
0.1666666666666667
 40
0.1666666666666667
 40
0.1666666666666667
 40
0.3333333333333333
 40
0.3333333333333333
 40
0.3333333333333333
 40
0.3333333333333333
 40
0.5
 40
0.5
 40
0.5
 40
0.5
 40
0.6666666666666666
 40
0.6666666666666666
 40
0.6666666666666666
 40
0.6666666666666666
 40
1.0
 40
1.0
 40
1.0
 40
1.0
 10
23.5992
 20
-43.8173
 30
0.0
 10
23.5992
 20
-43.8173
 30
0.0
 10
23.5992
 20
-19.2682
 30
0.0
 10
23.5992
 20
-19.2682
 30
0.0
 10
23.5992
 20
-19.2682
 30
0.0
 10
23.5992
 20
-19.2682
 30
0.0
 10
17.0788
 20
-23.9142
 30
0.0
 10
17.0788
 20
-23.9142
 30
0.0
 10
17.0788
 20
-23.9142
 30
0.0
 10
17.0788
 20
-23.9142
 30
0.0
 10
21.4351
 20
-31.522
 30
0.0
 10
21.4351
 20
-31.522
 30
0.0
 10
21.4351
 20
-31.522
 30
0.0
 10
21.4351
 20
-31.522
 30
0.0
 10
16.9731
 20
-39.2251
 30
0.0
 10
16.9731
 20
-39.2251
 30
0.0
 10
16.9731
 20
-39.2251
 30
0.0
 10
16.9731
 20
-39.2251
 30
0.0
 10
23.5992
 20
-43.8173
 30
0.0
 10
23.5992
 20
-43.8173
 30
0.0
  0
SPLINE
  5
D2
330
1F
100
AcDbEntity
  8
layer 1
100
AcDbSpline
210
0.0
220
0.0
230
1.0
 70
    11
 71
     3
 72
    20
 73
    16
 74
     0
 42
0.0000000001
 43
0.0000000001
 12
1.0
 22
0.0
 32
0.0
 13
1.0
 23
0.0
 33
0.0
 40
0.0
 40
0.0
 40
0.0
 40
0.0
 40
0.2
 40
0.2
 40
0.2
 40
0.2
 40
0.4
 40
0.4
 40
0.4
 40
0.4
 40
0.6
 40
0.6
 40
0.6
 40
0.6
 40
1.0
 40
1.0
 40
1.0
 40
1.0
 10
23.5927
 20
-59.5736
 30
0.0
 10
23.5927
 20
-59.5736
 30
0.0
 10
23.5927
 20
-49.4899
 30
0.0
 10
23.5927
 20
-49.4899
 30
0.0
 10
23.5927
 20
-49.4899
 30
0.0
 10
23.5927
 20
-49.4899
 30
0.0
 10
14.3743
 20
-43.5564
 30
0.0
 10
14.3743
 20
-43.5564
 30
0.0
 10
14.3743
 20
-43.5564
 30
0.0
 10
14.3195
 20
-43.6261
 30
0.0
 10
5.1582
 20
-59.1758
 30
0.0
 10
4.936
 20
-59.5723
 30
0.0
 10
4.936
 20
-59.5723
 30
0.0
 10
4.936
 20
-59.5723
 30
0.0
 10
23.5927
 20
-59.5736
 30
0.0
 10
23.5927
 20
-59.5736
 30
0.0
  0
SPLINE
  5
D3
330
1F
100
AcDbEntity
  8
layer 1
100
AcDbSpline
210
0.0
220
0.0
230
1.0
 70
    11
 71
     3
 72
    20
 73
    16
 74
     0
 42
0.0000000001
 43
0.0000000001
 12
1.0
 22
0.0
 32
0.0
 13
1.0
 23
0.0
 33
0.0
 40
0.0
 40
0.0
 40
0.0
 40
0.0
 40
0.2
 40
0.2
 40
0.2
 40
0.2
 40
0.4
 40
0.4
 40
0.4
 40
0.4
 40
0.6
 40
0.6
 40
0.6
 40
0.6
 40
1.0
 40
1.0
 40
1.0
 40
1.0
 10
14.4829
 20
-19.5313
 30
0.0
 10
17.7266
 20
-17.4968
 30
0.0
 10
20.1641
 20
-15.8466
 30
0.0
 10
23.5992
 20
-13.5815
 30
0.0
 10
23.5992
 20
-13.5815
 30
0.0
 10
23.5992
 20
-13.5815
 30
0.0
 10
23.6023
 20
-3.4762
 30
0.0
 10
23.6023
 20
-3.4762
 30
0.0
 10
23.6023
 20
-3.4762
 30
0.0
 10
23.6023
 20
-3.4762
 30
0.0
 10
4.8971
 20
-3.5361
 30
0.0
 10
4.8971
 20
-3.5361
 30
0.0
 10
4.8971
 20
-3.5361
 30
0.0
 10
4.8971
 20
-3.5361
 30
0.0
 10
14.4829
 20
-19.5313
 30
0.0
 10
14.4829
 20
-19.5313
 30
0.0
  0
SPLINE
  5
D4
330
1F
100
AcDbEntity
  8
layer 1
100
AcDbSpline
210
0.0
220
0.0
230
1.0
 70
    11
 71
     3
 72
    20
 73
    16
 74
     0
 42
0.0000000001
 43
0.0000000001
 12
1.0
 22
0.0
 32
0.0
 13
1.0
 23
0.0
 33
0.0
 40
0.0
 40
0.0
 40
0.0
 40
0.0
 40
0.2
 40
0.2
 40
0.2
 40
0.2
 40
0.4
 40
0.4
 40
0.4
 40
0.4
 40
0.6
 40
0.6
 40
0.6
 40
0.6
 40
1.0
 40
1.0
 40
1.0
 40
1.0
 10
-61.4955
 20
-57.2779
 30
0.0
 10
-61.4955
 20
-57.2779
 30
0.0
 10
-59.0982
 20
-57.2779
 30
0.0
 10
-59.0982
 20
-57.2779
 30
0.0
 10
-59.0982
 20
-57.2779
 30
0.0
 10
-59.0982
 20
-57.2779
 30
0.0
 10
-59.0982
 20
-55.1203
 30
0.0
 10
-59.0982
 20
-55.1203
 30
0.0
 10
-59.0982
 20
-55.1203
 30
0.0
 10
-59.0982
 20
-55.1203
 30
0.0
 10
-61.4955
 20
-55.1203
 30
0.0
 10
-61.4955
 20
-55.1203
 30
0.0
 10
-61.4955
 20
-55.1203
 30
0.0
 10
-61.4955
 20
-55.1203
 30
0.0
 10
-61.4955
 20
-57.2779
 30
0.0
 10
-61.4955
 20
-57.2779
 30
0.0
  0
SPLINE
  5
D5
330
1F
100
AcDbEntity
  8
layer 1
100
AcDbSpline
210
0.0
220
0.0
230
1.0
 70
    11
 71
     3
 72
    24
 73
    20
 74
     0
 42
0.0000000001
 43
0.0000000001
 12
1.0
 22
0.0
 32
0.0
 13
1.0
 23
0.0
 33
0.0
 40
0.0
 40
0.0
 40
0.0
 40
0.0
 40
0.1666666666666667
 40
0.1666666666666667
 40
0.1666666666666667
 40
0.1666666666666667
 40
0.3333333333333333
 40
0.3333333333333333
 40
0.3333333333333333
 40
0.3333333333333333
 40
0.5
 40
0.5
 40
0.5
 40
0.5
 40
0.6666666666666666
 40
0.6666666666666666
 40
0.6666666666666666
 40
0.6666666666666666
 40
1.0
 40
1.0
 40
1.0
 40
1.0
 10
-68.6036
 20
-99.5075
 30
0.0
 10
-68.6036
 20
-99.5075
 30
0.0
 10
-68.6036
 20
-74.9583
 30
0.0
 10
-68.6036
 20
-74.9583
 30
0.0
 10
-68.6036
 20
-74.9583
 30
0.0
 10
-68.6036
 20
-74.9583
 30
0.0
 10
-62.0832
 20
-79.6043
 30
0.0
 10
-62.0832
 20
-79.6043
 30
0.0
 10
-62.0832
 20
-79.6043
 30
0.0
 10
-62.0832
 20
-79.6043
 30
0.0
 10
-66.4395
 20
-87.2121
 30
0.0
 10
-66.4395
 20
-87.2121
 30
0.0
 10
-66.4395
 20
-87.2121
 30
0.0
 10
-66.4395
 20
-87.2121
 30
0.0
 10
-61.9775
 20
-94.9152
 30
0.0
 10
-61.9775
 20
-94.9152
 30
0.0
 10
-61.9775
 20
-94.9152
 30
0.0
 10
-61.9775
 20
-94.9152
 30
0.0
 10
-68.6036
 20
-99.5075
 30
0.0
 10
-68.6036
 20
-99.5075
 30
0.0
  0
SPLINE
  5
D6
330
1F
100
AcDbEntity
  8
layer 1
100
AcDbSpline
210
0.0
220
0.0
230
1.0
 70
    11
 71
     3
 72
    20
 73
    16
 74
     0
 42
0.0000000001
 43
0.0000000001
 12
1.0
 22
0.0
 32
0.0
 13
1.0
 23
0.0
 33
0.0
 40
0.0
 40
0.0
 40
0.0
 40
0.0
 40
0.2
 40
0.2
 40
0.2
 40
0.2
 40
0.4
 40
0.4
 40
0.4
 40
0.4
 40
0.6
 40
0.6
 40
0.6
 40
0.6
 40
1.0
 40
1.0
 40
1.0
 40
1.0
 10
-68.5971
 20
-115.2638
 30
0.0
 10
-68.5971
 20
-115.2638
 30
0.0
 10
-68.5971
 20
-105.18
 30
0.0
 10
-68.5971
 20
-105.18
 30
0.0
 10
-68.5971
 20
-105.18
 30
0.0
 10
-68.5971
 20
-105.18
 30
0.0
 10
-59.3787
 20
-99.2465
 30
0.0
 10
-59.3787
 20
-99.2465
 30
0.0
 10
-59.3787
 20
-99.2465
 30
0.0
 10
-59.3239
 20
-99.3163
 30
0.0
 10
-50.1626
 20
-114.866
 30
0.0
 10
-49.9404
 20
-115.2624
 30
0.0
 10
-49.9404
 20
-115.2624
 30
0.0
 10
-49.9404
 20
-115.2624
 30
0.0
 10
-68.5971
 20
-115.2638
 30
0.0
 10
-68.5971
 20
-115.2638
 30
0.0
  0
SPLINE
  5
D7
330
1F
100
AcDbEntity
  8
layer 1
100
AcDbSpline
210
0.0
220
0.0
230
1.0
 70
    11
 71
     3
 72
    24
 73
    20
 74
     0
 42
0.0000000001
 43
0.0000000001
 12
1.0
 22
0.0
 32
0.0
 13
1.0
 23
0.0
 33
0.0
 40
0.0
 40
0.0
 40
0.0
 40
0.0
 40
0.1666666666666667
 40
0.1666666666666667
 40
0.1666666666666667
 40
0.1666666666666667
 40
0.3333333333333333
 40
0.3333333333333333
 40
0.3333333333333333
 40
0.3333333333333333
 40
0.5
 40
0.5
 40
0.5
 40
0.5
 40
0.6666666666666666
 40
0.6666666666666666
 40
0.6666666666666666
 40
0.6666666666666666
 40
1.0
 40
1.0
 40
1.0
 40
1.0
 10
-31.6743
 20
-89.7303
 30
0.0
 10
-31.6743
 20
-89.7303
 30
0.0
 10
-33.3319
 20
-92.2013
 30
0.0
 10
-33.3319
 20
-92.2013
 30
0.0
 10
-33.3319
 20
-92.2013
 30
0.0
 10
-33.3319
 20
-92.2013
 30
0.0
 10
-41.0278
 20
-87.2245
 30
0.0
 10
-41.0278
 20
-87.2245
 30
0.0
 10
-41.0278
 20
-87.2245
 30
0.0
 10
-41.0278
 20
-87.2245
 30
0.0
 10
-33.3642
 20
-82.1807
 30
0.0
 10
-33.3642
 20
-82.1807
 30
0.0
 10
-33.3642
 20
-82.1807
 30
0.0
 10
-33.3642
 20
-82.1807
 30
0.0
 10
-30.2418
 20
-87.2316
 30
0.0
 10
-30.2418
 20
-87.2316
 30
0.0
 10
-30.2418
 20
-87.2316
 30
0.0
 10
-30.2418
 20
-87.2316
 30
0.0
 10
-31.6743
 20
-89.7303
 30
0.0
 10
-31.6743
 20
-89.7303
 30
0.0
  0
SPLINE
  5
D8
330
1F
100
AcDbEntity
  8
layer 1
100
AcDbSpline
210
0.0
220
0.0
230
1.0
 70
    11
 71
     3
 72
    20
 73
    16
 74
     0
 42
0.0000000001
 43
0.0000000001
 12
1.0
 22
0.0
 32
0.0
 13
1.0
 23
0.0
 33
0.0
 40
0.0
 40
0.0
 40
0.0
 40
0.0
 40
0.2
 40
0.2
 40
0.2
 40
0.2
 40
0.4
 40
0.4
 40
0.4
 40
0.4
 40
0.6
 40
0.6
 40
0.6
 40
0.6
 40
1.0
 40
1.0
 40
1.0
 40
1.0
 10
-45.5878
 20
-112.8665
 30
0.0
 10
-45.5878
 20
-112.8665
 30
0.0
 10
-55.3752
 20
-96.4695
 30
0.0
 10
-55.3752
 20
-96.4695
 30
0.0
 10
-55.3752
 20
-96.4695
 30
0.0
 10
-55.3752
 20
-96.4695
 30
0.0
 10
-45.5934
 20
-90.0763
 30
0.0
 10
-45.5934
 20
-90.0763
 30
0.0
 10
-45.5934
 20
-90.0763
 30
0.0
 10
-45.5934
 20
-90.0763
 30
0.0
 10
-35.7658
 20
-96.6145
 30
0.0
 10
-35.7658
 20
-96.6145
 30
0.0
 10
-35.7658
 20
-96.6145
 30
0.0
 10
-35.7658
 20
-96.6145
 30
0.0
 10
-45.5878
 20
-112.8665
 30
0.0
 10
-45.5878
 20
-112.8665
 30
0.0
  0
SPLINE
  5
D9
330
1F
100
AcDbEntity
  8
layer 1
100
AcDbSpline
210
0.0
220
0.0
230
1.0
 70
    11
 71
     3
 72
    20
 73
    16
 74
     0
 42
0.0000000001
 43
0.0000000001
 12
1.0
 22
0.0
 32
0.0
 13
1.0
 23
0.0
 33
0.0
 40
0.0
 40
0.0
 40
0.0
 40
0.0
 40
0.2
 40
0.2
 40
0.2
 40
0.2
 40
0.4
 40
0.4
 40
0.4
 40
0.4
 40
0.6
 40
0.6
 40
0.6
 40
0.6
 40
1.0
 40
1.0
 40
1.0
 40
1.0
 10
-45.5743
 20
-84.3951
 30
0.0
 10
-45.5743
 20
-84.3951
 30
0.0
 10
-55.3738
 20
-77.9746
 30
0.0
 10
-55.3738
 20
-77.9746
 30
0.0
 10
-55.3738
 20
-77.9746
 30
0.0
 10
-55.3738
 20
-77.9746
 30
0.0
 10
-45.5896
 20
-61.5638
 30
0.0
 10
-45.5896
 20
-61.5638
 30
0.0
 10
-45.5896
 20
-61.5638
 30
0.0
 10
-45.5896
 20
-61.5638
 30
0.0
 10
-35.8223
 20
-77.8246
 30
0.0
 10
-35.8223
 20
-77.8246
 30
0.0
 10
-35.8223
 20
-77.8246
 30
0.0
 10
-35.8223
 20
-77.8246
 30
0.0
 10
-45.5743
 20
-84.3951
 30
0.0
 10
-45.5743
 20
-84.3951
 30
0.0
  0
SPLINE
  5
DA
330
1F
100
AcDbEntity
  8
layer 1
100
AcDbSpline
210
0.0
220
0.0
230
1.0
 70
    11
 71
     3
 72
    20
 73
    16
 74
     0
 42
0.0000000001
 43
0.0000000001
 12
1.0
 22
0.0
 32
0.0
 13
1.0
 23
0.0
 33
0.0
 40
0.0
 40
0.0
 40
0.0
 40
0.0
 40
0.2
 40
0.2
 40
0.2
 40
0.2
 40
0.4
 40
0.4
 40
0.4
 40
0.4
 40
0.6
 40
0.6
 40
0.6
 40
0.6
 40
1.0
 40
1.0
 40
1.0
 40
1.0
 10
-59.4872
 20
-75.2215
 30
0.0
 10
-62.7309
 20
-73.187
 30
0.0
 10
-65.1684
 20
-71.5368
 30
0.0
 10
-68.6035
 20
-69.2717
 30
0.0
 10
-68.6035
 20
-69.2717
 30
0.0
 10
-68.6035
 20
-69.2717
 30
0.0
 10
-68.6066
 20
-59.1664
 30
0.0
 10
-68.6066
 20
-59.1664
 30
0.0
 10
-68.6066
 20
-59.1664
 30
0.0
 10
-68.6066
 20
-59.1664
 30
0.0
 10
-49.9014
 20
-59.2263
 30
0.0
 10
-49.9014
 20
-59.2263
 30
0.0
 10
-49.9014
 20
-59.2263
 30
0.0
 10
-49.9014
 20
-59.2263
 30
0.0
 10
-59.4872
 20
-75.2215
 30
0.0
 10
-59.4872
 20
-75.2215
 30
0.0
  0
SPLINE
  5
DB
330
1F
100
AcDbEntity
  8
layer 1
100
AcDbSpline
210
0.0
220
0.0
230
1.0
 70
    11
 71
     3
 72
    20
 73
    16
 74
     0
 42
0.0000000001
 43
0.0000000001
 12
1.0
 22
0.0
 32
0.0
 13
1.0
 23
0.0
 33
0.0
 40
0.0
 40
0.0
 40
0.0
 40
0.0
 40
0.2
 40
0.2
 40
0.2
 40
0.2
 40
0.4
 40
0.4
 40
0.4
 40
0.4
 40
0.6
 40
0.6
 40
0.6
 40
0.6
 40
1.0
 40
1.0
 40
1.0
 40
1.0
 10
-57.8167
 20
-92.2494
 30
0.0
 10
-57.8167
 20
-92.2494
 30
0.0
 10
-60.8636
 20
-87.1913
 30
0.0
 10
-60.8636
 20
-87.1913
 30
0.0
 10
-60.8636
 20
-87.1913
 30
0.0
 10
-60.8636
 20
-87.1913
 30
0.0
 10
-57.8107
 20
-82.1807
 30
0.0
 10
-57.8107
 20
-82.1807
 30
0.0
 10
-57.8107
 20
-82.1807
 30
0.0
 10
-57.8107
 20
-82.1807
 30
0.0
 10
-50.1891
 20
-87.1858
 30
0.0
 10
-50.1891
 20
-87.1858
 30
0.0
 10
-50.1891
 20
-87.1858
 30
0.0
 10
-50.1891
 20
-87.1858
 30
0.0
 10
-57.8167
 20
-92.2494
 30
0.0
 10
-57.8167
 20
-92.2494
 30
0.0
  0
SPLINE
  5
DC
330
1F
100
AcDbEntity
  8
layer 1
100
AcDbSpline
210
0.0
220
0.0
230
1.0
 70
    11
 71
     3
 72
    24
 73
    20
 74
     0
 42
0.0000000001
 43
0.0000000001
 12
1.0
 22
0.0
 32
0.0
 13
1.0
 23
0.0
 33
0.0
 40
0.0
 40
0.0
 40
0.0
 40
0.0
 40
0.1666666666666667
 40
0.1666666666666667
 40
0.1666666666666667
 40
0.1666666666666667
 40
0.3333333333333333
 40
0.3333333333333333
 40
0.3333333333333333
 40
0.3333333333333333
 40
0.5
 40
0.5
 40
0.5
 40
0.5
 40
0.6666666666666666
 40
0.6666666666666666
 40
0.6666666666666666
 40
0.6666666666666666
 40
1.0
 40
1.0
 40
1.0
 40
1.0
 10
-22.5538
 20
-99.5062
 30
0.0
 10
-22.5538
 20
-99.5062
 30
0.0
 10
-22.5538
 20
-74.9571
 30
0.0
 10
-22.5538
 20
-74.9571
 30
0.0
 10
-22.5538
 20
-74.9571
 30
0.0
 10
-22.5538
 20
-74.9571
 30
0.0
 10
-29.0742
 20
-79.6031
 30
0.0
 10
-29.0742
 20
-79.6031
 30
0.0
 10
-29.0742
 20
-79.6031
 30
0.0
 10
-29.0742
 20
-79.6031
 30
0.0
 10
-24.7178
 20
-87.2108
 30
0.0
 10
-24.7178
 20
-87.2108
 30
0.0
 10
-24.7178
 20
-87.2108
 30
0.0
 10
-24.7178
 20
-87.2108
 30
0.0
 10
-29.1799
 20
-94.9139
 30
0.0
 10
-29.1799
 20
-94.9139
 30
0.0
 10
-29.1799
 20
-94.9139
 30
0.0
 10
-29.1799
 20
-94.9139
 30
0.0
 10
-22.5538
 20
-99.5062
 30
0.0
 10
-22.5538
 20
-99.5062
 30
0.0
  0
SPLINE
  5
DD
330
1F
100
AcDbEntity
  8
layer 1
100
AcDbSpline
210
0.0
220
0.0
230
1.0
 70
    11
 71
     3
 72
    20
 73
    16
 74
     0
 42
0.0000000001
 43
0.0000000001
 12
1.0
 22
0.0
 32
0.0
 13
1.0
 23
0.0
 33
0.0
 40
0.0
 40
0.0
 40
0.0
 40
0.0
 40
0.2
 40
0.2
 40
0.2
 40
0.2
 40
0.4
 40
0.4
 40
0.4
 40
0.4
 40
0.6
 40
0.6
 40
0.6
 40
0.6
 40
1.0
 40
1.0
 40
1.0
 40
1.0
 10
-22.5603
 20
-115.2625
 30
0.0
 10
-22.5603
 20
-115.2625
 30
0.0
 10
-22.5603
 20
-105.1788
 30
0.0
 10
-22.5603
 20
-105.1788
 30
0.0
 10
-22.5603
 20
-105.1788
 30
0.0
 10
-22.5603
 20
-105.1788
 30
0.0
 10
-31.7787
 20
-99.2452
 30
0.0
 10
-31.7787
 20
-99.2452
 30
0.0
 10
-31.7787
 20
-99.2452
 30
0.0
 10
-31.8334
 20
-99.315
 30
0.0
 10
-40.9948
 20
-114.8647
 30
0.0
 10
-41.2169
 20
-115.2611
 30
0.0
 10
-41.2169
 20
-115.2611
 30
0.0
 10
-41.2169
 20
-115.2611
 30
0.0
 10
-22.5603
 20
-115.2625
 30
0.0
 10
-22.5603
 20
-115.2625
 30
0.0
  0
SPLINE
  5
DE
330
1F
100
AcDbEntity
  8
layer 1
100
AcDbSpline
210
0.0
220
0.0
230
1.0
 70
    11
 71
     3
 72
    20
 73
    16
 74
     0
 42
0.0000000001
 43
0.0000000001
 12
1.0
 22
0.0
 32
0.0
 13
1.0
 23
0.0
 33
0.0
 40
0.0
 40
0.0
 40
0.0
 40
0.0
 40
0.2
 40
0.2
 40
0.2
 40
0.2
 40
0.4
 40
0.4
 40
0.4
 40
0.4
 40
0.6
 40
0.6
 40
0.6
 40
0.6
 40
1.0
 40
1.0
 40
1.0
 40
1.0
 10
-31.6701
 20
-75.2202
 30
0.0
 10
-28.4264
 20
-73.1857
 30
0.0
 10
-25.9889
 20
-71.5354
 30
0.0
 10
-22.5538
 20
-69.2703
 30
0.0
 10
-22.5538
 20
-69.2703
 30
0.0
 10
-22.5538
 20
-69.2703
 30
0.0
 10
-22.5507
 20
-59.1651
 30
0.0
 10
-22.5507
 20
-59.1651
 30
0.0
 10
-22.5507
 20
-59.1651
 30
0.0
 10
-22.5507
 20
-59.1651
 30
0.0
 10
-41.2559
 20
-59.225
 30
0.0
 10
-41.2559
 20
-59.225
 30
0.0
 10
-41.2559
 20
-59.225
 30
0.0
 10
-41.2559
 20
-59.225
 30
0.0
 10
-31.6701
 20
-75.2202
 30
0.0
 10
-31.6701
 20
-75.2202
 30
0.0
  0
SPLINE
  5
DF
330
1F
100
AcDbEntity
  8
layer 1
100
AcDbSpline
210
0.0
220
0.0
230
1.0
 70
    11
 71
     3
 72
    24
 73
    20
 74
     0
 42
0.0000000001
 43
0.0000000001
 12
1.0
 22
0.0
 32
0.0
 13
1.0
 23
0.0
 33
0.0
 40
0.0
 40
0.0
 40
0.0
 40
0.0
 40
0.1666666666666667
 40
0.1666666666666667
 40
0.1666666666666667
 40
0.1666666666666667
 40
0.3333333333333333
 40
0.3333333333333333
 40
0.3333333333333333
 40
0.3333333333333333
 40
0.5
 40
0.5
 40
0.5
 40
0.5
 40
0.6666666666666666
 40
0.6666666666666666
 40
0.6666666666666666
 40
0.6666666666666666
 40
1.0
 40
1.0
 40
1.0
 40
1.0
 10
-22.4507
 20
-99.5075
 30
0.0
 10
-22.4507
 20
-99.5075
 30
0.0
 10
-22.4507
 20
-74.9583
 30
0.0
 10
-22.4507
 20
-74.9583
 30
0.0
 10
-22.4507
 20
-74.9583
 30
0.0
 10
-22.4507
 20
-74.9583
 30
0.0
 10
-15.9303
 20
-79.6043
 30
0.0
 10
-15.9303
 20
-79.6043
 30
0.0
 10
-15.9303
 20
-79.6043
 30
0.0
 10
-15.9303
 20
-79.6043
 30
0.0
 10
-20.2866
 20
-87.2121
 30
0.0
 10
-20.2866
 20
-87.2121
 30
0.0
 10
-20.2866
 20
-87.2121
 30
0.0
 10
-20.2866
 20
-87.2121
 30
0.0
 10
-15.8245
 20
-94.9152
 30
0.0
 10
-15.8245
 20
-94.9152
 30
0.0
 10
-15.8245
 20
-94.9152
 30
0.0
 10
-15.8245
 20
-94.9152
 30
0.0
 10
-22.4507
 20
-99.5075
 30
0.0
 10
-22.4507
 20
-99.5075
 30
0.0
  0
SPLINE
  5
E0
330
1F
100
AcDbEntity
  8
layer 1
100
AcDbSpline
210
0.0
220
0.0
230
1.0
 70
    11
 71
     3
 72
    20
 73
    16
 74
     0
 42
0.0000000001
 43
0.0000000001
 12
1.0
 22
0.0
 32
0.0
 13
1.0
 23
0.0
 33
0.0
 40
0.0
 40
0.0
 40
0.0
 40
0.0
 40
0.2
 40
0.2
 40
0.2
 40
0.2
 40
0.4
 40
0.4
 40
0.4
 40
0.4
 40
0.6
 40
0.6
 40
0.6
 40
0.6
 40
1.0
 40
1.0
 40
1.0
 40
1.0
 10
-22.4441
 20
-115.2638
 30
0.0
 10
-22.4441
 20
-115.2638
 30
0.0
 10
-22.4441
 20
-105.18
 30
0.0
 10
-22.4441
 20
-105.18
 30
0.0
 10
-22.4441
 20
-105.18
 30
0.0
 10
-22.4441
 20
-105.18
 30
0.0
 10
-13.2257
 20
-99.2465
 30
0.0
 10
-13.2257
 20
-99.2465
 30
0.0
 10
-13.2257
 20
-99.2465
 30
0.0
 10
-13.171
 20
-99.3163
 30
0.0
 10
-4.0097
 20
-114.866
 30
0.0
 10
-3.7875
 20
-115.2624
 30
0.0
 10
-3.7875
 20
-115.2624
 30
0.0
 10
-3.7875
 20
-115.2624
 30
0.0
 10
-22.4441
 20
-115.2638
 30
0.0
 10
-22.4441
 20
-115.2638
 30
0.0
  0
SPLINE
  5
E1
330
1F
100
AcDbEntity
  8
layer 1
100
AcDbSpline
210
0.0
220
0.0
230
1.0
 70
    11
 71
     3
 72
    24
 73
    20
 74
     0
 42
0.0000000001
 43
0.0000000001
 12
1.0
 22
0.0
 32
0.0
 13
1.0
 23
0.0
 33
0.0
 40
0.0
 40
0.0
 40
0.0
 40
0.0
 40
0.1666666666666667
 40
0.1666666666666667
 40
0.1666666666666667
 40
0.1666666666666667
 40
0.3333333333333333
 40
0.3333333333333333
 40
0.3333333333333333
 40
0.3333333333333333
 40
0.5
 40
0.5
 40
0.5
 40
0.5
 40
0.6666666666666666
 40
0.6666666666666666
 40
0.6666666666666666
 40
0.6666666666666666
 40
1.0
 40
1.0
 40
1.0
 40
1.0
 10
14.4786
 20
-89.7303
 30
0.0
 10
14.4786
 20
-89.7303
 30
0.0
 10
12.8211
 20
-92.2013
 30
0.0
 10
12.8211
 20
-92.2013
 30
0.0
 10
12.8211
 20
-92.2013
 30
0.0
 10
12.8211
 20
-92.2013
 30
0.0
 10
5.1251
 20
-87.2245
 30
0.0
 10
5.1251
 20
-87.2245
 30
0.0
 10
5.1251
 20
-87.2245
 30
0.0
 10
5.1251
 20
-87.2245
 30
0.0
 10
12.7888
 20
-82.1807
 30
0.0
 10
12.7888
 20
-82.1807
 30
0.0
 10
12.7888
 20
-82.1807
 30
0.0
 10
12.7888
 20
-82.1807
 30
0.0
 10
15.9111
 20
-87.2316
 30
0.0
 10
15.9111
 20
-87.2316
 30
0.0
 10
15.9111
 20
-87.2316
 30
0.0
 10
15.9111
 20
-87.2316
 30
0.0
 10
14.4786
 20
-89.7303
 30
0.0
 10
14.4786
 20
-89.7303
 30
0.0
  0
SPLINE
  5
E2
330
1F
100
AcDbEntity
  8
layer 1
100
AcDbSpline
210
0.0
220
0.0
230
1.0
 70
    11
 71
     3
 72
    20
 73
    16
 74
     0
 42
0.0000000001
 43
0.0000000001
 12
1.0
 22
0.0
 32
0.0
 13
1.0
 23
0.0
 33
0.0
 40
0.0
 40
0.0
 40
0.0
 40
0.0
 40
0.2
 40
0.2
 40
0.2
 40
0.2
 40
0.4
 40
0.4
 40
0.4
 40
0.4
 40
0.6
 40
0.6
 40
0.6
 40
0.6
 40
1.0
 40
1.0
 40
1.0
 40
1.0
 10
0.5651
 20
-112.8665
 30
0.0
 10
0.5651
 20
-112.8665
 30
0.0
 10
-9.2222
 20
-96.4695
 30
0.0
 10
-9.2222
 20
-96.4695
 30
0.0
 10
-9.2222
 20
-96.4695
 30
0.0
 10
-9.2222
 20
-96.4695
 30
0.0
 10
0.5596
 20
-90.0763
 30
0.0
 10
0.5596
 20
-90.0763
 30
0.0
 10
0.5596
 20
-90.0763
 30
0.0
 10
0.5596
 20
-90.0763
 30
0.0
 10
10.3872
 20
-96.6145
 30
0.0
 10
10.3872
 20
-96.6145
 30
0.0
 10
10.3872
 20
-96.6145
 30
0.0
 10
10.3872
 20
-96.6145
 30
0.0
 10
0.5651
 20
-112.8665
 30
0.0
 10
0.5651
 20
-112.8665
 30
0.0
  0
SPLINE
  5
E3
330
1F
100
AcDbEntity
  8
layer 1
100
AcDbSpline
210
0.0
220
0.0
230
1.0
 70
    11
 71
     3
 72
    20
 73
    16
 74
     0
 42
0.0000000001
 43
0.0000000001
 12
1.0
 22
0.0
 32
0.0
 13
1.0
 23
0.0
 33
0.0
 40
0.0
 40
0.0
 40
0.0
 40
0.0
 40
0.2
 40
0.2
 40
0.2
 40
0.2
 40
0.4
 40
0.4
 40
0.4
 40
0.4
 40
0.6
 40
0.6
 40
0.6
 40
0.6
 40
1.0
 40
1.0
 40
1.0
 40
1.0
 10
0.5786
 20
-84.3951
 30
0.0
 10
0.5786
 20
-84.3951
 30
0.0
 10
-9.2209
 20
-77.9746
 30
0.0
 10
-9.2209
 20
-77.9746
 30
0.0
 10
-9.2209
 20
-77.9746
 30
0.0
 10
-9.2209
 20
-77.9746
 30
0.0
 10
0.5634
 20
-61.5638
 30
0.0
 10
0.5634
 20
-61.5638
 30
0.0
 10
0.5634
 20
-61.5638
 30
0.0
 10
0.5634
 20
-61.5638
 30
0.0
 10
10.3306
 20
-77.8246
 30
0.0
 10
10.3306
 20
-77.8246
 30
0.0
 10
10.3306
 20
-77.8246
 30
0.0
 10
10.3306
 20
-77.8246
 30
0.0
 10
0.5786
 20
-84.3951
 30
0.0
 10
0.5786
 20
-84.3951
 30
0.0
  0
SPLINE
  5
E4
330
1F
100
AcDbEntity
  8
layer 1
100
AcDbSpline
210
0.0
220
0.0
230
1.0
 70
    11
 71
     3
 72
    20
 73
    16
 74
     0
 42
0.0000000001
 43
0.0000000001
 12
1.0
 22
0.0
 32
0.0
 13
1.0
 23
0.0
 33
0.0
 40
0.0
 40
0.0
 40
0.0
 40
0.0
 40
0.2
 40
0.2
 40
0.2
 40
0.2
 40
0.4
 40
0.4
 40
0.4
 40
0.4
 40
0.6
 40
0.6
 40
0.6
 40
0.6
 40
1.0
 40
1.0
 40
1.0
 40
1.0
 10
-13.3343
 20
-75.2215
 30
0.0
 10
-16.5779
 20
-73.187
 30
0.0
 10
-19.0154
 20
-71.5368
 30
0.0
 10
-22.4506
 20
-69.2717
 30
0.0
 10
-22.4506
 20
-69.2717
 30
0.0
 10
-22.4506
 20
-69.2717
 30
0.0
 10
-22.4536
 20
-59.1664
 30
0.0
 10
-22.4536
 20
-59.1664
 30
0.0
 10
-22.4536
 20
-59.1664
 30
0.0
 10
-22.4536
 20
-59.1664
 30
0.0
 10
-3.7484
 20
-59.2263
 30
0.0
 10
-3.7484
 20
-59.2263
 30
0.0
 10
-3.7484
 20
-59.2263
 30
0.0
 10
-3.7484
 20
-59.2263
 30
0.0
 10
-13.3343
 20
-75.2215
 30
0.0
 10
-13.3343
 20
-75.2215
 30
0.0
  0
SPLINE
  5
E5
330
1F
100
AcDbEntity
  8
layer 1
100
AcDbSpline
210
0.0
220
0.0
230
1.0
 70
    11
 71
     3
 72
    20
 73
    16
 74
     0
 42
0.0000000001
 43
0.0000000001
 12
1.0
 22
0.0
 32
0.0
 13
1.0
 23
0.0
 33
0.0
 40
0.0
 40
0.0
 40
0.0
 40
0.0
 40
0.2
 40
0.2
 40
0.2
 40
0.2
 40
0.4
 40
0.4
 40
0.4
 40
0.4
 40
0.6
 40
0.6
 40
0.6
 40
0.6
 40
1.0
 40
1.0
 40
1.0
 40
1.0
 10
-11.6637
 20
-92.2494
 30
0.0
 10
-11.6637
 20
-92.2494
 30
0.0
 10
-14.7106
 20
-87.1913
 30
0.0
 10
-14.7106
 20
-87.1913
 30
0.0
 10
-14.7106
 20
-87.1913
 30
0.0
 10
-14.7106
 20
-87.1913
 30
0.0
 10
-11.6577
 20
-82.1807
 30
0.0
 10
-11.6577
 20
-82.1807
 30
0.0
 10
-11.6577
 20
-82.1807
 30
0.0
 10
-11.6577
 20
-82.1807
 30
0.0
 10
-4.0361
 20
-87.1858
 30
0.0
 10
-4.0361
 20
-87.1858
 30
0.0
 10
-4.0361
 20
-87.1858
 30
0.0
 10
-4.0361
 20
-87.1858
 30
0.0
 10
-11.6637
 20
-92.2494
 30
0.0
 10
-11.6637
 20
-92.2494
 30
0.0
  0
SPLINE
  5
E6
330
1F
100
AcDbEntity
  8
layer 1
100
AcDbSpline
210
0.0
220
0.0
230
1.0
 70
    11
 71
     3
 72
    24
 73
    20
 74
     0
 42
0.0000000001
 43
0.0000000001
 12
1.0
 22
0.0
 32
0.0
 13
1.0
 23
0.0
 33
0.0
 40
0.0
 40
0.0
 40
0.0
 40
0.0
 40
0.1666666666666667
 40
0.1666666666666667
 40
0.1666666666666667
 40
0.1666666666666667
 40
0.3333333333333333
 40
0.3333333333333333
 40
0.3333333333333333
 40
0.3333333333333333
 40
0.5
 40
0.5
 40
0.5
 40
0.5
 40
0.6666666666666666
 40
0.6666666666666666
 40
0.6666666666666666
 40
0.6666666666666666
 40
1.0
 40
1.0
 40
1.0
 40
1.0
 10
23.5992
 20
-99.5062
 30
0.0
 10
23.5992
 20
-99.5062
 30
0.0
 10
23.5992
 20
-74.9571
 30
0.0
 10
23.5992
 20
-74.9571
 30
0.0
 10
23.5992
 20
-74.9571
 30
0.0
 10
23.5992
 20
-74.9571
 30
0.0
 10
17.0788
 20
-79.6031
 30
0.0
 10
17.0788
 20
-79.6031
 30
0.0
 10
17.0788
 20
-79.6031
 30
0.0
 10
17.0788
 20
-79.6031
 30
0.0
 10
21.4351
 20
-87.2108
 30
0.0
 10
21.4351
 20
-87.2108
 30
0.0
 10
21.4351
 20
-87.2108
 30
0.0
 10
21.4351
 20
-87.2108
 30
0.0
 10
16.9731
 20
-94.9139
 30
0.0
 10
16.9731
 20
-94.9139
 30
0.0
 10
16.9731
 20
-94.9139
 30
0.0
 10
16.9731
 20
-94.9139
 30
0.0
 10
23.5992
 20
-99.5062
 30
0.0
 10
23.5992
 20
-99.5062
 30
0.0
  0
SPLINE
  5
E7
330
1F
100
AcDbEntity
  8
layer 1
100
AcDbSpline
210
0.0
220
0.0
230
1.0
 70
    11
 71
     3
 72
    20
 73
    16
 74
     0
 42
0.0000000001
 43
0.0000000001
 12
1.0
 22
0.0
 32
0.0
 13
1.0
 23
0.0
 33
0.0
 40
0.0
 40
0.0
 40
0.0
 40
0.0
 40
0.2
 40
0.2
 40
0.2
 40
0.2
 40
0.4
 40
0.4
 40
0.4
 40
0.4
 40
0.6
 40
0.6
 40
0.6
 40
0.6
 40
1.0
 40
1.0
 40
1.0
 40
1.0
 10
23.5927
 20
-115.2625
 30
0.0
 10
23.5927
 20
-115.2625
 30
0.0
 10
23.5927
 20
-105.1788
 30
0.0
 10
23.5927
 20
-105.1788
 30
0.0
 10
23.5927
 20
-105.1788
 30
0.0
 10
23.5927
 20
-105.1788
 30
0.0
 10
14.3743
 20
-99.2452
 30
0.0
 10
14.3743
 20
-99.2452
 30
0.0
 10
14.3743
 20
-99.2452
 30
0.0
 10
14.3195
 20
-99.315
 30
0.0
 10
5.1582
 20
-114.8647
 30
0.0
 10
4.936
 20
-115.2611
 30
0.0
 10
4.936
 20
-115.2611
 30
0.0
 10
4.936
 20
-115.2611
 30
0.0
 10
23.5927
 20
-115.2625
 30
0.0
 10
23.5927
 20
-115.2625
 30
0.0
  0
SPLINE
  5
E8
330
1F
100
AcDbEntity
  8
layer 1
100
AcDbSpline
210
0.0
220
0.0
230
1.0
 70
    11
 71
     3
 72
    20
 73
    16
 74
     0
 42
0.0000000001
 43
0.0000000001
 12
1.0
 22
0.0
 32
0.0
 13
1.0
 23
0.0
 33
0.0
 40
0.0
 40
0.0
 40
0.0
 40
0.0
 40
0.2
 40
0.2
 40
0.2
 40
0.2
 40
0.4
 40
0.4
 40
0.4
 40
0.4
 40
0.6
 40
0.6
 40
0.6
 40
0.6
 40
1.0
 40
1.0
 40
1.0
 40
1.0
 10
14.4829
 20
-75.2202
 30
0.0
 10
17.7266
 20
-73.1857
 30
0.0
 10
20.1641
 20
-71.5354
 30
0.0
 10
23.5992
 20
-69.2703
 30
0.0
 10
23.5992
 20
-69.2703
 30
0.0
 10
23.5992
 20
-69.2703
 30
0.0
 10
23.6023
 20
-59.1651
 30
0.0
 10
23.6023
 20
-59.1651
 30
0.0
 10
23.6023
 20
-59.1651
 30
0.0
 10
23.6023
 20
-59.1651
 30
0.0
 10
4.8971
 20
-59.225
 30
0.0
 10
4.8971
 20
-59.225
 30
0.0
 10
4.8971
 20
-59.225
 30
0.0
 10
4.8971
 20
-59.225
 30
0.0
 10
14.4829
 20
-75.2202
 30
0.0
 10
14.4829
 20
-75.2202
 30
0.0
  0
ENDSEC
  0
SECTION
  2
OBJECTS
  0
DICTIONARY
  5
C
330
0
100
AcDbDictionary
281
     1
  3
ACAD_GROUP
350
D
  3
ACAD_LAYOUT
350
1A
  3
ACAD_MATERIAL
350
3B
  3
ACAD_MLEADERSTYLE
350
10B
  3
ACAD_MLINESTYLE
350
17
  3
ACAD_PLOTSETTINGS
350
19
  3
ACAD_PLOTSTYLENAME
350
E
  3
ACAD_TABLESTYLE
350
10A
  3
ACAD_VISUALSTYLE
350
2A
  0
DICTIONARY
  5
D
102
{ACAD_REACTORS
330
C
102
}
330
C
100
AcDbDictionary
281
     1
  0
DICTIONARY
  5
1A
102
{ACAD_REACTORS
330
C
102
}
330
C
100
AcDbDictionary
281
     1
  3
Layout1
350
1E
  3
Layout2
350
26
  3
Model
350
22
  0
DICTIONARY
  5
3B
102
{ACAD_REACTORS
330
C
102
}
330
C
100
AcDbDictionary
281
     1
  3
ByBlock
350
3D
  3
ByLayer
350
3C
  3
Global
350
3E
  0
DICTIONARY
  5
10B
102
{ACAD_REACTORS
330
C
102
}
330
C
100
AcDbDictionary
281
     1
  0
DICTIONARY
  5
17
102
{ACAD_REACTORS
330
C
102
}
330
C
100
AcDbDictionary
281
     1
  3
Standard
350
18
  0
DICTIONARY
  5
19
102
{ACAD_REACTORS
330
C
102
}
330
C
100
AcDbDictionary
281
     1
  0
ACDBDICTIONARYWDFLT
  5
E
102
{ACAD_REACTORS
330
C
102
}
330
C
100
AcDbDictionary
281
     1
  3
Normal
350
F
100
AcDbDictionaryWithDefault
340
F
  0
DICTIONARY
  5
10A
102
{ACAD_REACTORS
330
C
102
}
330
C
100
AcDbDictionary
281
     1
  0
DICTIONARY
  5
2A
102
{ACAD_REACTORS
330
C
102
}
330
C
100
AcDbDictionary
281
     1
  3
2dWireframe
350
2F
  3
3D Hidden
350
31
  3
3dWireframe
350
30
  3
Basic
350
32
  3
Brighten
350
36
  3
ColorChange
350
3A
  3
Conceptual
350
34
  3
Dim
350
35
  3
Facepattern
350
39
  3
Flat
350
2B
  3
FlatWithEdges
350
2C
  3
Gouraud
350
2D
  3
GouraudWithEdges
350
2E
  3
Linepattern
350
38
  3
Realistic
350
33
  3
Thicken
350
37
  0
LAYOUT
  5
1E
102
{ACAD_REACTORS
330
1A
102
}
330
1A
100
AcDbPlotSettings
  1

  2
none_device
  4

  6

 40
0.0
 41
0.0
 42
0.0
 43
0.0
 44
0.0
 45
0.0
 46
0.0
 47
0.0
 48
0.0
 49
0.0
140
0.0
141
0.0
142
1.0
143
1.0
 70
   688
 72
     0
 73
     0
 74
     5
  7

 75
    16
 76
     0
 77
     2
 78
   300
147
1.0
148
0.0
149
0.0
100
AcDbLayout
  1
Layout1
 70
     1
 71
     1
 10
0.0
 20
0.0
 11
12.0
 21
9.0
 12
0.0
 22
0.0
 32
0.0
 14
1.000000000000000E+20
 24
1.000000000000000E+20
 34
1.000000000000000E+20
 15
-1.000000000000000E+20
 25
-1.000000000000000E+20
 35
-1.000000000000000E+20
146
0.0
 13
0.0
 23
0.0
 33
0.0
 16
1.0
 26
0.0
 36
0.0
 17
0.0
 27
1.0
 37
0.0
 76
     0
330
1B
  0
LAYOUT
  5
26
102
{ACAD_REACTORS
330
1A
102
}
330
1A
100
AcDbPlotSettings
  1

  2
none_device
  4

  6

 40
0.0
 41
0.0
 42
0.0
 43
0.0
 44
0.0
 45
0.0
 46
0.0
 47
0.0
 48
0.0
 49
0.0
140
0.0
141
0.0
142
1.0
143
1.0
 70
   688
 72
     0
 73
     0
 74
     5
  7

 75
    16
 76
     0
 77
     2
 78
   300
147
1.0
148
0.0
149
0.0
100
AcDbLayout
  1
Layout2
 70
     1
 71
     2
 10
0.0
 20
0.0
 11
0.0
 21
0.0
 12
0.0
 22
0.0
 32
0.0
 14
0.0
 24
0.0
 34
0.0
 15
0.0
 25
0.0
 35
0.0
146
0.0
 13
0.0
 23
0.0
 33
0.0
 16
1.0
 26
0.0
 36
0.0
 17
0.0
 27
1.0
 37
0.0
 76
     0
330
23
  0
LAYOUT
  5
22
102
{ACAD_REACTORS
330
1A
102
}
330
1A
100
AcDbPlotSettings
  1

  2
none_device
  4

  6

 40
0.0
 41
0.0
 42
0.0
 43
0.0
 44
0.0
 45
0.0
 46
0.0
 47
0.0
 48
0.0
 49
0.0
140
0.0
141
0.0
142
1.0
143
1.0
 70
  1712
 72
     0
 73
     0
 74
     0
  7

 75
     0
 76
     0
 77
     2
 78
   300
147
1.0
148
0.0
149
0.0
100
AcDbLayout
  1
Model
 70
     1
 71
     0
 10
0.0
 20
0.0
 11
12.0
 21
9.0
 12
0.0
 22
0.0
 32
0.0
 14
-187.8617
 24
-115.8454
 34
0.0
 15
23.6023
 25
131.7294
 35
0.0
146
0.0
 13
0.0
 23
0.0
 33
0.0
 16
1.0
 26
0.0
 36
0.0
 17
0.0
 27
1.0
 37
0.0
 76
     0
330
1F
331
29
  0
MATERIAL
  5
3D
102
{ACAD_REACTORS
330
3B
102
}
330
3B
100
AcDbMaterial
  1
ByBlock
 72
     1
 94
      127
  0
MATERIAL
  5
3C
102
{ACAD_REACTORS
330
3B
102
}
330
3B
100
AcDbMaterial
  1
ByLayer
 72
     1
 94
      127
  0
MATERIAL
  5
3E
102
{ACAD_REACTORS
330
3B
102
}
330
3B
100
AcDbMaterial
  1
Global
 72
     1
 94
      127
  0
MLINESTYLE
  5
18
102
{ACAD_REACTORS
330
17
102
}
330
17
100
AcDbMlineStyle
  2
Standard
 70
     0
  3

 62
   256
 51
90.0
 52
90.0
 71
     2
 49
0.5
 62
   256
  6
BYLAYER
 49
-0.5
 62
   256
  6
BYLAYER
  0
ACDBPLACEHOLDER
  5
F
102
{ACAD_REACTORS
330
E
102
}
330
E
  0
VISUALSTYLE
  5
2F
102
{ACAD_REACTORS
330
2A
102
}
102
{ACAD_XDICTIONARY
360
F2
102
}
330
2A
100
AcDbVisualStyle
  2
2dWireframe
 70
     4
 71
     0
 72
     2
 73
     0
 90
        0
 40
-0.6
 41
-30.0
 62
     5
 63
     7
421
 16777215
 74
     1
 91
        4
 64
     7
 65
   257
 75
     1
175
     1
 42
1.0
 92
        0
 66
   257
 43
1.0
 76
     1
 77
     6
 78
     2
 67
     7
 79
     5
170
     0
171
     0
290
     0
174
     0
 93
        1
 44
0.0
173
     0
291
     0
 45
0.0
  0
VISUALSTYLE
  5
31
102
{ACAD_REACTORS
330
2A
102
}
102
{ACAD_XDICTIONARY
360
F6
102
}
330
2A
100
AcDbVisualStyle
  2
3D Hidden
 70
     6
 71
     1
 72
     2
 73
     2
 90
        0
 40
-0.6
 41
-30.0
 62
     5
 63
     7
421
 16777215
 74
     2
 91
        2
 64
     7
 65
   257
 75
     2
175
     1
 42
40.0
 92
        0
 66
   257
 43
1.0
 76
     1
 77
     6
 78
     2
 67
     7
 79
     3
170
     0
171
     0
290
     0
174
     0
 93
        1
 44
0.0
173
     0
291
     0
 45
0.0
  0
VISUALSTYLE
  5
30
102
{ACAD_REACTORS
330
2A
102
}
102
{ACAD_XDICTIONARY
360
F4
102
}
330
2A
100
AcDbVisualStyle
  2
3dWireframe
 70
     5
 71
     0
 72
     2
 73
     0
 90
        0
 40
-0.6
 41
-30.0
 62
     5
 63
     7
421
 16777215
 74
     1
 91
        4
 64
     7
 65
   257
 75
     1
175
     1
 42
1.0
 92
        0
 66
   257
 43
1.0
 76
     1
 77
     6
 78
     2
 67
     7
 79
     5
170
     0
171
     0
290
     0
174
     0
 93
        1
 44
0.0
173
     0
291
     0
 45
0.0
  0
VISUALSTYLE
  5
32
102
{ACAD_REACTORS
330
2A
102
}
102
{ACAD_XDICTIONARY
360
F8
102
}
330
2A
100
AcDbVisualStyle
  2
Basic
 70
     7
 71
     1
 72
     0
 73
     1
 90
        0
 40
-0.6
 41
-30.0
 62
     5
 63
     7
421
 16777215
 74
     0
 91
        4
 64
     7
 65
   257
 75
     1
175
     1
 42
1.0
 92
        8
 66
     7
 43
1.0
 76
     1
 77
     6
 78
     2
 67
     7
 79
     5
170
     0
171
     0
290
     0
174
     0
 93
        1
 44
0.0
173
     0
291
     1
 45
0.0
  0
VISUALSTYLE
  5
36
102
{ACAD_REACTORS
330
2A
102
}
102
{ACAD_XDICTIONARY
360
100
102
}
330
2A
100
AcDbVisualStyle
  2
Brighten
 70
    12
 71
     2
 72
     2
 73
     0
 90
        0
 40
-0.6
 41
-30.0
 62
     5
 63
     7
421
 16777215
 74
     1
 91
        4
 64
     7
 65
   257
 75
     1
175
     1
 42
1.0
 92
        8
 66
     7
 43
1.0
 76
     1
 77
     6
 78
     2
 67
     7
 79
     5
170
     0
171
     0
290
     0
174
     0
 93
        1
 44
50.0
173
     0
291
     1
 45
0.0
  0
VISUALSTYLE
  5
3A
102
{ACAD_REACTORS
330
2A
102
}
102
{ACAD_XDICTIONARY
360
108
102
}
330
2A
100
AcDbVisualStyle
  2
ColorChange
 70
    16
 71
     2
 72
     2
 73
     3
 90
        0
 40
-0.6
 41
-30.0
 62
     5
 63
     8
421
  8421504
 74
     1
 91
        4
 64
     7
 65
   257
 75
     1
175
     1
 42
1.0
 92
        8
 66
     8
424
  8421504
 43
1.0
 76
     1
 77
     6
 78
     2
 67
     7
 79
     5
170
     0
171
     0
290
     0
174
     0
 93
        1
 44
0.0
173
     0
291
     1
 45
0.0
  0
VISUALSTYLE
  5
34
102
{ACAD_REACTORS
330
2A
102
}
102
{ACAD_XDICTIONARY
360
FC
102
}
330
2A
100
AcDbVisualStyle
  2
Conceptual
 70
     9
 71
     3
 72
     2
 73
     0
 90
        0
 40
-0.6
 41
-30.0
 62
     5
 63
     7
421
 16777215
 74
     2
 91
        2
 64
     7
 65
   257
 75
     1
175
     1
 42
40.0
 92
        8
 66
     7
 43
1.0
 76
     1
 77
     6
 78
     2
 67
     7
 79
     3
170
     0
171
     0
290
     0
174
     0
 93
        1
 44
0.0
173
     0
291
     0
 45
0.0
  0
VISUALSTYLE
  5
35
102
{ACAD_REACTORS
330
2A
102
}
102
{ACAD_XDICTIONARY
360
FE
102
}
330
2A
100
AcDbVisualStyle
  2
Dim
 70
    11
 71
     2
 72
     2
 73
     0
 90
        0
 40
-0.6
 41
-30.0
 62
     5
 63
     7
421
 16777215
 74
     1
 91
        4
 64
     7
 65
   257
 75
     1
175
     1
 42
1.0
 92
        8
 66
     7
 43
1.0
 76
     1
 77
     6
 78
     2
 67
     7
 79
     5
170
     0
171
     0
290
     0
174
     0
 93
        1
 44
-50.0
173
     0
291
     1
 45
0.0
  0
VISUALSTYLE
  5
39
102
{ACAD_REACTORS
330
2A
102
}
102
{ACAD_XDICTIONARY
360
106
102
}
330
2A
100
AcDbVisualStyle
  2
Facepattern
 70
    15
 71
     2
 72
     2
 73
     0
 90
        0
 40
-0.6
 41
-30.0
 62
     5
 63
     7
421
 16777215
 74
     1
 91
        4
 64
     7
 65
   257
 75
     1
175
     1
 42
1.0
 92
        8
 66
     7
 43
1.0
 76
     1
 77
     6
 78
     2
 67
     7
 79
     5
170
     0
171
     0
290
     0
174
     0
 93
        1
 44
0.0
173
     0
291
     1
 45
0.0
  0
VISUALSTYLE
  5
2B
102
{ACAD_REACTORS
330
2A
102
}
102
{ACAD_XDICTIONARY
360
EA
102
}
330
2A
100
AcDbVisualStyle
  2
Flat
 70
     0
 71
     2
 72
     1
 73
     1
 90
        2
 40
-0.6
 41
30.0
 62
     5
 63
     7
421
 16777215
 74
     0
 91
        4
 64
     7
 65
   257
 75
     1
175
     1
 42
1.0
 92
        8
 66
     7
 43
1.0
 76
     1
 77
     6
 78
     2
 67
     7
 79
     5
170
     0
171
     0
290
     0
174
     0
 93
       13
 44
0.0
173
     0
291
     1
 45
0.0
  0
VISUALSTYLE
  5
2C
102
{ACAD_REACTORS
330
2A
102
}
102
{ACAD_XDICTIONARY
360
EC
102
}
330
2A
100
AcDbVisualStyle
  2
FlatWithEdges
 70
     1
 71
     2
 72
     1
 73
     1
 90
        2
 40
-0.6
 41
30.0
 62
     5
 63
     7
421
 16777215
 74
     1
 91
        4
 64
     7
 65
   257
 75
     1
175
     1
 42
1.0
 92
        0
 66
   257
 43
1.0
 76
     1
 77
     6
 78
     2
 67
     7
 79
     5
170
     0
171
     0
290
     0
174
     0
 93
       13
 44
0.0
173
     0
291
     1
 45
0.0
  0
VISUALSTYLE
  5
2D
102
{ACAD_REACTORS
330
2A
102
}
102
{ACAD_XDICTIONARY
360
EE
102
}
330
2A
100
AcDbVisualStyle
  2
Gouraud
 70
     2
 71
     2
 72
     2
 73
     1
 90
        2
 40
-0.6
 41
30.0
 62
     5
 63
     7
421
 16777215
 74
     0
 91
        4
 64
     7
 65
   257
 75
     1
175
     1
 42
1.0
 92
        0
 66
     7
 43
1.0
 76
     1
 77
     6
 78
     2
 67
     7
 79
     5
170
     0
171
     0
290
     0
174
     0
 93
       13
 44
0.0
173
     0
291
     1
 45
0.0
  0
VISUALSTYLE
  5
2E
102
{ACAD_REACTORS
330
2A
102
}
102
{ACAD_XDICTIONARY
360
F0
102
}
330
2A
100
AcDbVisualStyle
  2
GouraudWithEdges
 70
     3
 71
     2
 72
     2
 73
     1
 90
        2
 40
-0.6
 41
30.0
 62
     5
 63
     7
421
 16777215
 74
     1
 91
        4
 64
     7
 65
   257
 75
     1
175
     1
 42
1.0
 92
        0
 66
   257
 43
1.0
 76
     1
 77
     6
 78
     2
 67
     7
 79
     5
170
     0
171
     0
290
     0
174
     0
 93
       13
 44
0.0
173
     0
291
     1
 45
0.0
  0
VISUALSTYLE
  5
38
102
{ACAD_REACTORS
330
2A
102
}
102
{ACAD_XDICTIONARY
360
104
102
}
330
2A
100
AcDbVisualStyle
  2
Linepattern
 70
    14
 71
     2
 72
     2
 73
     0
 90
        0
 40
-0.6
 41
-30.0
 62
     5
 63
     7
421
 16777215
 74
     1
 91
        4
 64
     7
 65
   257
 75
     7
175
     7
 42
1.0
 92
        8
 66
     7
 43
1.0
 76
     1
 77
     6
 78
     2
 67
     7
 79
     5
170
     0
171
     0
290
     0
174
     0
 93
        1
 44
0.0
173
     0
291
     1
 45
0.0
  0
VISUALSTYLE
  5
33
102
{ACAD_REACTORS
330
2A
102
}
102
{ACAD_XDICTIONARY
360
FA
102
}
330
2A
100
AcDbVisualStyle
  2
Realistic
 70
     8
 71
     2
 72
     2
 73
     0
 90
        0
 40
-0.6
 41
-30.0
 62
     5
 63
     7
421
 16777215
 74
     1
 91
        0
 64
     7
 65
   257
 75
     1
175
     1
 42
1.0
 92
        8
 66
     8
424
  7895160
 43
1.0
 76
     1
 77
     6
 78
     2
 67
     7
 79
     5
170
     0
171
     0
290
     0
174
     0
 93
       13
 44
0.0
173
     0
291
     0
 45
0.0
  0
VISUALSTYLE
  5
37
102
{ACAD_REACTORS
330
2A
102
}
102
{ACAD_XDICTIONARY
360
102
102
}
330
2A
100
AcDbVisualStyle
  2
Thicken
 70
    13
 71
     2
 72
     2
 73
     0
 90
        0
 40
-0.6
 41
-30.0
 62
     5
 63
     7
421
 16777215
 74
     1
 91
        4
 64
     7
 65
   257
 75
     1
175
     1
 42
1.0
 92
       12
 66
     7
 43
1.0
 76
     1
 77
     6
 78
     2
 67
     7
 79
     5
170
     0
171
     0
290
     0
174
     0
 93
        1
 44
0.0
173
     0
291
     1
 45
0.0
  0
DICTIONARY
  5
F2
330
2F
100
AcDbDictionary
280
     1
281
     1
  3
ACAD_XREC_ROUNDTRIP
360
F3
  0
DICTIONARY
  5
F6
330
31
100
AcDbDictionary
280
     1
281
     1
  3
ACAD_XREC_ROUNDTRIP
360
F7
  0
DICTIONARY
  5
F4
330
30
100
AcDbDictionary
280
     1
281
     1
  3
ACAD_XREC_ROUNDTRIP
360
F5
  0
DICTIONARY
  5
F8
330
32
100
AcDbDictionary
280
     1
281
     1
  3
ACAD_XREC_ROUNDTRIP
360
F9
  0
DICTIONARY
  5
100
330
36
100
AcDbDictionary
280
     1
281
     1
  3
ACAD_XREC_ROUNDTRIP
360
101
  0
DICTIONARY
  5
108
330
3A
100
AcDbDictionary
280
     1
281
     1
  3
ACAD_XREC_ROUNDTRIP
360
109
  0
DICTIONARY
  5
FC
330
34
100
AcDbDictionary
280
     1
281
     1
  3
ACAD_XREC_ROUNDTRIP
360
FD
  0
DICTIONARY
  5
FE
330
35
100
AcDbDictionary
280
     1
281
     1
  3
ACAD_XREC_ROUNDTRIP
360
FF
  0
DICTIONARY
  5
106
330
39
100
AcDbDictionary
280
     1
281
     1
  3
ACAD_XREC_ROUNDTRIP
360
107
  0
DICTIONARY
  5
EA
330
2B
100
AcDbDictionary
280
     1
281
     1
  3
ACAD_XREC_ROUNDTRIP
360
EB
  0
DICTIONARY
  5
EC
330
2C
100
AcDbDictionary
280
     1
281
     1
  3
ACAD_XREC_ROUNDTRIP
360
ED
  0
DICTIONARY
  5
EE
330
2D
100
AcDbDictionary
280
     1
281
     1
  3
ACAD_XREC_ROUNDTRIP
360
EF
  0
DICTIONARY
  5
F0
330
2E
100
AcDbDictionary
280
     1
281
     1
  3
ACAD_XREC_ROUNDTRIP
360
F1
  0
DICTIONARY
  5
104
330
38
100
AcDbDictionary
280
     1
281
     1
  3
ACAD_XREC_ROUNDTRIP
360
105
  0
DICTIONARY
  5
FA
330
33
100
AcDbDictionary
280
     1
281
     1
  3
ACAD_XREC_ROUNDTRIP
360
FB
  0
DICTIONARY
  5
102
330
37
100
AcDbDictionary
280
     1
281
     1
  3
ACAD_XREC_ROUNDTRIP
360
103
  0
XRECORD
  5
F3
102
{ACAD_REACTORS
330
F2
102
}
330
F2
100
AcDbXrecord
280
     1
102
RTVSPropertyOp0
 70
     1
102
RTVSPropertyOp1
 70
     1
102
RTVSPropertyOp2
 70
     1
102
RTVSPropertyOp3
 70
     1
102
RTVSPropertyOp4
 70
     1
102
RTVSPropertyOp5
 70
     1
102
RTVSPropertyOp6
 70
     1
102
RTVSPropertyOp7
 70
     1
102
RTVSPropertyOp8
 70
     1
102
RTVSPropertyOp9
 70
     1
102
RTVSPropertyOp10
 70
     1
102
RTVSPropertyOp11
 70
     1
102
RTVSPropertyOp12
 70
     1
102
RTVSPropertyOp13
 70
     1
102
RTVSPropertyOp14
 70
     1
102
RTVSPropertyOp15
 70
     1
102
RTVSPropertyOp16
 70
     1
102
RTVSPropertyOp17
 70
     1
102
RTVSPropertyOp18
 70
     1
102
RTVSPropertyOp19
 70
     1
102
RTVSPropertyOp20
 70
     1
102
RTVSPropertyOp21
 70
     1
102
RTVSPropertyOp22
 70
     1
102
RTVSPropertyOp23
 70
     1
102
RTVSPropertyOp24
 70
     1
102
RTVSPropertyOp25
 70
     1
102
RTVSPropertyOp26
 70
     1
102
RTVSPropertyOp27
 70
     1
102
RTVSPropertyOp28
 70
     1
102
RTVSPropertyOp29
 70
     1
102
RTVSPropertyOp30
 70
     1
102
RTVSPropertyOp31
 70
     1
102
RTVSPropertyOp32
 70
     1
  0
XRECORD
  5
F7
102
{ACAD_REACTORS
330
F6
102
}
330
F6
100
AcDbXrecord
280
     1
102
RTVSPropertyOp0
 70
     1
102
RTVSPropertyOp1
 70
     1
102
RTVSPropertyOp2
 70
     1
102
RTVSPropertyOp3
 70
     1
102
RTVSPropertyOp4
 70
     1
102
RTVSPropertyOp5
 70
     1
102
RTVSPropertyOp6
 70
     1
102
RTVSPropertyOp7
 70
     1
102
RTVSPropertyOp8
 70
     1
102
RTVSPropertyOp9
 70
     1
102
RTVSPropertyOp10
 70
     1
102
RTVSPropertyOp11
 70
     1
102
RTVSPropertyOp12
 70
     1
102
RTVSPropertyOp13
 70
     1
102
RTVSPropertyOp14
 70
     1
102
RTVSPropertyOp15
 70
     1
102
RTVSPropertyOp16
 70
     1
102
RTVSPropertyOp17
 70
     1
102
RTVSPropertyOp18
 70
     1
102
RTVSPropertyOp19
 70
     1
102
RTVSPropertyOp20
 70
     1
102
RTVSPropertyOp21
 70
     1
102
RTVSPropertyOp22
 70
     1
102
RTVSPropertyOp23
 70
     1
102
RTVSPropertyOp24
 70
     1
102
RTVSPropertyOp25
 70
     1
102
RTVSPropertyOp26
 70
     1
102
RTVSPropertyOp27
 70
     1
102
RTVSPropertyOp28
 70
     1
102
RTVSPropertyOp29
 70
     1
102
RTVSPropertyOp30
 70
     1
102
RTVSPropertyOp31
 70
     1
102
RTVSPropertyOp32
 70
     1
  0
XRECORD
  5
F5
102
{ACAD_REACTORS
330
F4
102
}
330
F4
100
AcDbXrecord
280
     1
102
RTVSPropertyOp0
 70
     1
102
RTVSPropertyOp1
 70
     1
102
RTVSPropertyOp2
 70
     1
102
RTVSPropertyOp3
 70
     1
102
RTVSPropertyOp4
 70
     1
102
RTVSPropertyOp5
 70
     1
102
RTVSPropertyOp6
 70
     1
102
RTVSPropertyOp7
 70
     1
102
RTVSPropertyOp8
 70
     1
102
RTVSPropertyOp9
 70
     1
102
RTVSPropertyOp10
 70
     1
102
RTVSPropertyOp11
 70
     1
102
RTVSPropertyOp12
 70
     1
102
RTVSPropertyOp13
 70
     1
102
RTVSPropertyOp14
 70
     1
102
RTVSPropertyOp15
 70
     1
102
RTVSPropertyOp16
 70
     1
102
RTVSPropertyOp17
 70
     1
102
RTVSPropertyOp18
 70
     1
102
RTVSPropertyOp19
 70
     1
102
RTVSPropertyOp20
 70
     1
102
RTVSPropertyOp21
 70
     1
102
RTVSPropertyOp22
 70
     1
102
RTVSPropertyOp23
 70
     1
102
RTVSPropertyOp24
 70
     1
102
RTVSPropertyOp25
 70
     1
102
RTVSPropertyOp26
 70
     1
102
RTVSPropertyOp27
 70
     1
102
RTVSPropertyOp28
 70
     1
102
RTVSPropertyOp29
 70
     1
102
RTVSPropertyOp30
 70
     1
102
RTVSPropertyOp31
 70
     1
102
RTVSPropertyOp32
 70
     1
  0
XRECORD
  5
F9
102
{ACAD_REACTORS
330
F8
102
}
330
F8
100
AcDbXrecord
280
     1
102
RTVSPropertyOp0
 70
     1
102
RTVSPropertyOp1
 70
     1
102
RTVSPropertyOp2
 70
     1
102
RTVSPropertyOp3
 70
     1
102
RTVSPropertyOp4
 70
     1
102
RTVSPropertyOp5
 70
     1
102
RTVSPropertyOp6
 70
     1
102
RTVSPropertyOp7
 70
     1
102
RTVSPropertyOp8
 70
     1
102
RTVSPropertyOp9
 70
     1
102
RTVSPropertyOp10
 70
     1
102
RTVSPropertyOp11
 70
     1
102
RTVSPropertyOp12
 70
     1
102
RTVSPropertyOp13
 70
     1
102
RTVSPropertyOp14
 70
     1
102
RTVSPropertyOp15
 70
     1
102
RTVSPropertyOp16
 70
     1
102
RTVSPropertyOp17
 70
     1
102
RTVSPropertyOp18
 70
     1
102
RTVSPropertyOp19
 70
     1
102
RTVSPropertyOp20
 70
     1
102
RTVSPropertyOp21
 70
     1
102
RTVSPropertyOp22
 70
     1
102
RTVSPropertyOp23
 70
     1
102
RTVSPropertyOp24
 70
     1
102
RTVSPropertyOp25
 70
     1
102
RTVSPropertyOp26
 70
     1
102
RTVSPropertyOp27
 70
     1
102
RTVSPropertyOp28
 70
     1
102
RTVSPropertyOp29
 70
     1
102
RTVSPropertyOp30
 70
     1
102
RTVSPropertyOp31
 70
     1
102
RTVSPropertyOp32
 70
     1
  0
XRECORD
  5
101
102
{ACAD_REACTORS
330
100
102
}
330
100
100
AcDbXrecord
280
     1
102
RTVSPropertyOp0
 70
     1
102
RTVSPropertyOp1
 70
     1
102
RTVSPropertyOp2
 70
     1
102
RTVSPropertyOp3
 70
     1
102
RTVSPropertyOp4
 70
     1
102
RTVSPropertyOp5
 70
     1
102
RTVSPropertyOp6
 70
     1
102
RTVSPropertyOp7
 70
     1
102
RTVSPropertyOp8
 70
     1
102
RTVSPropertyOp9
 70
     1
102
RTVSPropertyOp10
 70
     1
102
RTVSPropertyOp11
 70
     1
102
RTVSPropertyOp12
 70
     1
102
RTVSPropertyOp13
 70
     1
102
RTVSPropertyOp14
 70
     1
102
RTVSPropertyOp15
 70
     1
102
RTVSPropertyOp16
 70
     1
102
RTVSPropertyOp17
 70
     1
102
RTVSPropertyOp18
 70
     1
102
RTVSPropertyOp19
 70
     1
102
RTVSPropertyOp20
 70
     1
102
RTVSPropertyOp21
 70
     1
102
RTVSPropertyOp22
 70
     1
102
RTVSPropertyOp23
 70
     1
102
RTVSPropertyOp24
 70
     1
102
RTVSPropertyOp25
 70
     1
102
RTVSPropertyOp26
 70
     1
102
RTVSPropertyOp27
 70
     1
102
RTVSPropertyOp28
 70
     1
102
RTVSPropertyOp29
 70
     1
102
RTVSPropertyOp30
 70
     1
102
RTVSPropertyOp31
 70
     1
102
RTVSPropertyOp32
 70
     1
  0
XRECORD
  5
109
102
{ACAD_REACTORS
330
108
102
}
330
108
100
AcDbXrecord
280
     1
102
RTVSPropertyOp0
 70
     1
102
RTVSPropertyOp1
 70
     1
102
RTVSPropertyOp2
 70
     1
102
RTVSPropertyOp3
 70
     1
102
RTVSPropertyOp4
 70
     1
102
RTVSPropertyOp5
 70
     1
102
RTVSPropertyOp6
 70
     1
102
RTVSPropertyOp7
 70
     1
102
RTVSPropertyOp8
 70
     1
102
RTVSPropertyOp9
 70
     1
102
RTVSPropertyOp10
 70
     1
102
RTVSPropertyOp11
 70
     1
102
RTVSPropertyOp12
 70
     1
102
RTVSPropertyOp13
 70
     1
102
RTVSPropertyOp14
 70
     1
102
RTVSPropertyOp15
 70
     1
102
RTVSPropertyOp16
 70
     1
102
RTVSPropertyOp17
 70
     1
102
RTVSPropertyOp18
 70
     1
102
RTVSPropertyOp19
 70
     1
102
RTVSPropertyOp20
 70
     1
102
RTVSPropertyOp21
 70
     1
102
RTVSPropertyOp22
 70
     1
102
RTVSPropertyOp23
 70
     1
102
RTVSPropertyOp24
 70
     1
102
RTVSPropertyOp25
 70
     1
102
RTVSPropertyOp26
 70
     1
102
RTVSPropertyOp27
 70
     1
102
RTVSPropertyOp28
 70
     1
102
RTVSPropertyOp29
 70
     1
102
RTVSPropertyOp30
 70
     1
102
RTVSPropertyOp31
 70
     1
102
RTVSPropertyOp32
 70
     1
  0
XRECORD
  5
FD
102
{ACAD_REACTORS
330
FC
102
}
330
FC
100
AcDbXrecord
280
     1
102
RTVSPropertyOp0
 70
     1
102
RTVSPropertyOp1
 70
     1
102
RTVSPropertyOp2
 70
     1
102
RTVSPropertyOp3
 70
     1
102
RTVSPropertyOp4
 70
     1
102
RTVSPropertyOp5
 70
     1
102
RTVSPropertyOp6
 70
     1
102
RTVSPropertyOp7
 70
     1
102
RTVSPropertyOp8
 70
     1
102
RTVSPropertyOp9
 70
     1
102
RTVSPropertyOp10
 70
     1
102
RTVSPropertyOp11
 70
     1
102
RTVSPropertyOp12
 70
     1
102
RTVSPropertyOp13
 70
     1
102
RTVSPropertyOp14
 70
     1
102
RTVSPropertyOp15
 70
     1
102
RTVSPropertyOp16
 70
     1
102
RTVSPropertyOp17
 70
     1
102
RTVSPropertyOp18
 70
     1
102
RTVSPropertyOp19
 70
     1
102
RTVSPropertyOp20
 70
     1
102
RTVSPropertyOp21
 70
     1
102
RTVSPropertyOp22
 70
     1
102
RTVSPropertyOp23
 70
     1
102
RTVSPropertyOp24
 70
     1
102
RTVSPropertyOp25
 70
     1
102
RTVSPropertyOp26
 70
     1
102
RTVSPropertyOp27
 70
     1
102
RTVSPropertyOp28
 70
     1
102
RTVSPropertyOp29
 70
     1
102
RTVSPropertyOp30
 70
     1
102
RTVSPropertyOp31
 70
     1
102
RTVSPropertyOp32
 70
     1
  0
XRECORD
  5
FF
102
{ACAD_REACTORS
330
FE
102
}
330
FE
100
AcDbXrecord
280
     1
102
RTVSPropertyOp0
 70
     1
102
RTVSPropertyOp1
 70
     1
102
RTVSPropertyOp2
 70
     1
102
RTVSPropertyOp3
 70
     1
102
RTVSPropertyOp4
 70
     1
102
RTVSPropertyOp5
 70
     1
102
RTVSPropertyOp6
 70
     1
102
RTVSPropertyOp7
 70
     1
102
RTVSPropertyOp8
 70
     1
102
RTVSPropertyOp9
 70
     1
102
RTVSPropertyOp10
 70
     1
102
RTVSPropertyOp11
 70
     1
102
RTVSPropertyOp12
 70
     1
102
RTVSPropertyOp13
 70
     1
102
RTVSPropertyOp14
 70
     1
102
RTVSPropertyOp15
 70
     1
102
RTVSPropertyOp16
 70
     1
102
RTVSPropertyOp17
 70
     1
102
RTVSPropertyOp18
 70
     1
102
RTVSPropertyOp19
 70
     1
102
RTVSPropertyOp20
 70
     1
102
RTVSPropertyOp21
 70
     1
102
RTVSPropertyOp22
 70
     1
102
RTVSPropertyOp23
 70
     1
102
RTVSPropertyOp24
 70
     1
102
RTVSPropertyOp25
 70
     1
102
RTVSPropertyOp26
 70
     1
102
RTVSPropertyOp27
 70
     1
102
RTVSPropertyOp28
 70
     1
102
RTVSPropertyOp29
 70
     1
102
RTVSPropertyOp30
 70
     1
102
RTVSPropertyOp31
 70
     1
102
RTVSPropertyOp32
 70
     1
  0
XRECORD
  5
107
102
{ACAD_REACTORS
330
106
102
}
330
106
100
AcDbXrecord
280
     1
102
RTVSPropertyOp0
 70
     1
102
RTVSPropertyOp1
 70
     1
102
RTVSPropertyOp2
 70
     1
102
RTVSPropertyOp3
 70
     1
102
RTVSPropertyOp4
 70
     1
102
RTVSPropertyOp5
 70
     1
102
RTVSPropertyOp6
 70
     1
102
RTVSPropertyOp7
 70
     1
102
RTVSPropertyOp8
 70
     1
102
RTVSPropertyOp9
 70
     1
102
RTVSPropertyOp10
 70
     1
102
RTVSPropertyOp11
 70
     1
102
RTVSPropertyOp12
 70
     1
102
RTVSPropertyOp13
 70
     1
102
RTVSPropertyOp14
 70
     1
102
RTVSPropertyOp15
 70
     1
102
RTVSPropertyOp16
 70
     1
102
RTVSPropertyOp17
 70
     1
102
RTVSPropertyOp18
 70
     1
102
RTVSPropertyOp19
 70
     1
102
RTVSPropertyOp20
 70
     1
102
RTVSPropertyOp21
 70
     1
102
RTVSPropertyOp22
 70
     1
102
RTVSPropertyOp23
 70
     1
102
RTVSPropertyOp24
 70
     1
102
RTVSPropertyOp25
 70
     1
102
RTVSPropertyOp26
 70
     1
102
RTVSPropertyOp27
 70
     1
102
RTVSPropertyOp28
 70
     1
102
RTVSPropertyOp29
 70
     1
102
RTVSPropertyOp30
 70
     1
102
RTVSPropertyOp31
 70
     1
102
RTVSPropertyOp32
 70
     1
  0
XRECORD
  5
EB
102
{ACAD_REACTORS
330
EA
102
}
330
EA
100
AcDbXrecord
280
     1
102
RTVSPropertyOp0
 70
     1
102
RTVSPropertyOp1
 70
     1
102
RTVSPropertyOp2
 70
     1
102
RTVSPropertyOp3
 70
     1
102
RTVSPropertyOp4
 70
     1
102
RTVSPropertyOp5
 70
     1
102
RTVSPropertyOp6
 70
     1
102
RTVSPropertyOp7
 70
     1
102
RTVSPropertyOp8
 70
     1
102
RTVSPropertyOp9
 70
     1
102
RTVSPropertyOp10
 70
     1
102
RTVSPropertyOp11
 70
     1
102
RTVSPropertyOp12
 70
     1
102
RTVSPropertyOp13
 70
     1
102
RTVSPropertyOp14
 70
     1
102
RTVSPropertyOp15
 70
     1
102
RTVSPropertyOp16
 70
     1
102
RTVSPropertyOp17
 70
     1
102
RTVSPropertyOp18
 70
     1
102
RTVSPropertyOp19
 70
     1
102
RTVSPropertyOp20
 70
     1
102
RTVSPropertyOp21
 70
     1
102
RTVSPropertyOp22
 70
     1
102
RTVSPropertyOp23
 70
     1
102
RTVSPropertyOp24
 70
     1
102
RTVSPropertyOp25
 70
     1
102
RTVSPropertyOp26
 70
     1
102
RTVSPropertyOp27
 70
     1
102
RTVSPropertyOp28
 70
     1
102
RTVSPropertyOp29
 70
     1
102
RTVSPropertyOp30
 70
     1
102
RTVSPropertyOp31
 70
     1
102
RTVSPropertyOp32
 70
     1
  0
XRECORD
  5
ED
102
{ACAD_REACTORS
330
EC
102
}
330
EC
100
AcDbXrecord
280
     1
102
RTVSPropertyOp0
 70
     1
102
RTVSPropertyOp1
 70
     1
102
RTVSPropertyOp2
 70
     1
102
RTVSPropertyOp3
 70
     1
102
RTVSPropertyOp4
 70
     1
102
RTVSPropertyOp5
 70
     1
102
RTVSPropertyOp6
 70
     1
102
RTVSPropertyOp7
 70
     1
102
RTVSPropertyOp8
 70
     1
102
RTVSPropertyOp9
 70
     1
102
RTVSPropertyOp10
 70
     1
102
RTVSPropertyOp11
 70
     1
102
RTVSPropertyOp12
 70
     1
102
RTVSPropertyOp13
 70
     1
102
RTVSPropertyOp14
 70
     1
102
RTVSPropertyOp15
 70
     1
102
RTVSPropertyOp16
 70
     1
102
RTVSPropertyOp17
 70
     1
102
RTVSPropertyOp18
 70
     1
102
RTVSPropertyOp19
 70
     1
102
RTVSPropertyOp20
 70
     1
102
RTVSPropertyOp21
 70
     1
102
RTVSPropertyOp22
 70
     1
102
RTVSPropertyOp23
 70
     1
102
RTVSPropertyOp24
 70
     1
102
RTVSPropertyOp25
 70
     1
102
RTVSPropertyOp26
 70
     1
102
RTVSPropertyOp27
 70
     1
102
RTVSPropertyOp28
 70
     1
102
RTVSPropertyOp29
 70
     1
102
RTVSPropertyOp30
 70
     1
102
RTVSPropertyOp31
 70
     1
102
RTVSPropertyOp32
 70
     1
  0
XRECORD
  5
EF
102
{ACAD_REACTORS
330
EE
102
}
330
EE
100
AcDbXrecord
280
     1
102
RTVSPropertyOp0
 70
     1
102
RTVSPropertyOp1
 70
     1
102
RTVSPropertyOp2
 70
     1
102
RTVSPropertyOp3
 70
     1
102
RTVSPropertyOp4
 70
     1
102
RTVSPropertyOp5
 70
     1
102
RTVSPropertyOp6
 70
     1
102
RTVSPropertyOp7
 70
     1
102
RTVSPropertyOp8
 70
     1
102
RTVSPropertyOp9
 70
     1
102
RTVSPropertyOp10
 70
     1
102
RTVSPropertyOp11
 70
     1
102
RTVSPropertyOp12
 70
     1
102
RTVSPropertyOp13
 70
     1
102
RTVSPropertyOp14
 70
     1
102
RTVSPropertyOp15
 70
     1
102
RTVSPropertyOp16
 70
     1
102
RTVSPropertyOp17
 70
     1
102
RTVSPropertyOp18
 70
     1
102
RTVSPropertyOp19
 70
     1
102
RTVSPropertyOp20
 70
     1
102
RTVSPropertyOp21
 70
     1
102
RTVSPropertyOp22
 70
     1
102
RTVSPropertyOp23
 70
     1
102
RTVSPropertyOp24
 70
     1
102
RTVSPropertyOp25
 70
     1
102
RTVSPropertyOp26
 70
     1
102
RTVSPropertyOp27
 70
     1
102
RTVSPropertyOp28
 70
     1
102
RTVSPropertyOp29
 70
     1
102
RTVSPropertyOp30
 70
     1
102
RTVSPropertyOp31
 70
     1
102
RTVSPropertyOp32
 70
     1
  0
XRECORD
  5
F1
102
{ACAD_REACTORS
330
F0
102
}
330
F0
100
AcDbXrecord
280
     1
102
RTVSPropertyOp0
 70
     1
102
RTVSPropertyOp1
 70
     1
102
RTVSPropertyOp2
 70
     1
102
RTVSPropertyOp3
 70
     1
102
RTVSPropertyOp4
 70
     1
102
RTVSPropertyOp5
 70
     1
102
RTVSPropertyOp6
 70
     1
102
RTVSPropertyOp7
 70
     1
102
RTVSPropertyOp8
 70
     1
102
RTVSPropertyOp9
 70
     1
102
RTVSPropertyOp10
 70
     1
102
RTVSPropertyOp11
 70
     1
102
RTVSPropertyOp12
 70
     1
102
RTVSPropertyOp13
 70
     1
102
RTVSPropertyOp14
 70
     1
102
RTVSPropertyOp15
 70
     1
102
RTVSPropertyOp16
 70
     1
102
RTVSPropertyOp17
 70
     1
102
RTVSPropertyOp18
 70
     1
102
RTVSPropertyOp19
 70
     1
102
RTVSPropertyOp20
 70
     1
102
RTVSPropertyOp21
 70
     1
102
RTVSPropertyOp22
 70
     1
102
RTVSPropertyOp23
 70
     1
102
RTVSPropertyOp24
 70
     1
102
RTVSPropertyOp25
 70
     1
102
RTVSPropertyOp26
 70
     1
102
RTVSPropertyOp27
 70
     1
102
RTVSPropertyOp28
 70
     1
102
RTVSPropertyOp29
 70
     1
102
RTVSPropertyOp30
 70
     1
102
RTVSPropertyOp31
 70
     1
102
RTVSPropertyOp32
 70
     1
  0
XRECORD
  5
105
102
{ACAD_REACTORS
330
104
102
}
330
104
100
AcDbXrecord
280
     1
102
RTVSPropertyOp0
 70
     1
102
RTVSPropertyOp1
 70
     1
102
RTVSPropertyOp2
 70
     1
102
RTVSPropertyOp3
 70
     1
102
RTVSPropertyOp4
 70
     1
102
RTVSPropertyOp5
 70
     1
102
RTVSPropertyOp6
 70
     1
102
RTVSPropertyOp7
 70
     1
102
RTVSPropertyOp8
 70
     1
102
RTVSPropertyOp9
 70
     1
102
RTVSPropertyOp10
 70
     1
102
RTVSPropertyOp11
 70
     1
102
RTVSPropertyOp12
 70
     1
102
RTVSPropertyOp13
 70
     1
102
RTVSPropertyOp14
 70
     1
102
RTVSPropertyOp15
 70
     1
102
RTVSPropertyOp16
 70
     1
102
RTVSPropertyOp17
 70
     1
102
RTVSPropertyOp18
 70
     1
102
RTVSPropertyOp19
 70
     1
102
RTVSPropertyOp20
 70
     1
102
RTVSPropertyOp21
 70
     1
102
RTVSPropertyOp22
 70
     1
102
RTVSPropertyOp23
 70
     1
102
RTVSPropertyOp24
 70
     1
102
RTVSPropertyOp25
 70
     1
102
RTVSPropertyOp26
 70
     1
102
RTVSPropertyOp27
 70
     1
102
RTVSPropertyOp28
 70
     1
102
RTVSPropertyOp29
 70
     1
102
RTVSPropertyOp30
 70
     1
102
RTVSPropertyOp31
 70
     1
102
RTVSPropertyOp32
 70
     1
  0
XRECORD
  5
FB
102
{ACAD_REACTORS
330
FA
102
}
330
FA
100
AcDbXrecord
280
     1
102
RTVSPropertyOp0
 70
     1
102
RTVSPropertyOp1
 70
     1
102
RTVSPropertyOp2
 70
     1
102
RTVSPropertyOp3
 70
     1
102
RTVSPropertyOp4
 70
     1
102
RTVSPropertyOp5
 70
     1
102
RTVSPropertyOp6
 70
     1
102
RTVSPropertyOp7
 70
     1
102
RTVSPropertyOp8
 70
     1
102
RTVSPropertyOp9
 70
     1
102
RTVSPropertyOp10
 70
     1
102
RTVSPropertyOp11
 70
     1
102
RTVSPropertyOp12
 70
     1
102
RTVSPropertyOp13
 70
     1
102
RTVSPropertyOp14
 70
     1
102
RTVSPropertyOp15
 70
     1
102
RTVSPropertyOp16
 70
     1
102
RTVSPropertyOp17
 70
     1
102
RTVSPropertyOp18
 70
     1
102
RTVSPropertyOp19
 70
     1
102
RTVSPropertyOp20
 70
     1
102
RTVSPropertyOp21
 70
     1
102
RTVSPropertyOp22
 70
     1
102
RTVSPropertyOp23
 70
     1
102
RTVSPropertyOp24
 70
     1
102
RTVSPropertyOp25
 70
     1
102
RTVSPropertyOp26
 70
     1
102
RTVSPropertyOp27
 70
     1
102
RTVSPropertyOp28
 70
     1
102
RTVSPropertyOp29
 70
     1
102
RTVSPropertyOp30
 70
     1
102
RTVSPropertyOp31
 70
     1
102
RTVSPropertyOp32
 70
     1
  0
XRECORD
  5
103
102
{ACAD_REACTORS
330
102
102
}
330
102
100
AcDbXrecord
280
     1
102
RTVSPropertyOp0
 70
     1
102
RTVSPropertyOp1
 70
     1
102
RTVSPropertyOp2
 70
     1
102
RTVSPropertyOp3
 70
     1
102
RTVSPropertyOp4
 70
     1
102
RTVSPropertyOp5
 70
     1
102
RTVSPropertyOp6
 70
     1
102
RTVSPropertyOp7
 70
     1
102
RTVSPropertyOp8
 70
     1
102
RTVSPropertyOp9
 70
     1
102
RTVSPropertyOp10
 70
     1
102
RTVSPropertyOp11
 70
     1
102
RTVSPropertyOp12
 70
     1
102
RTVSPropertyOp13
 70
     1
102
RTVSPropertyOp14
 70
     1
102
RTVSPropertyOp15
 70
     1
102
RTVSPropertyOp16
 70
     1
102
RTVSPropertyOp17
 70
     1
102
RTVSPropertyOp18
 70
     1
102
RTVSPropertyOp19
 70
     1
102
RTVSPropertyOp20
 70
     1
102
RTVSPropertyOp21
 70
     1
102
RTVSPropertyOp22
 70
     1
102
RTVSPropertyOp23
 70
     1
102
RTVSPropertyOp24
 70
     1
102
RTVSPropertyOp25
 70
     1
102
RTVSPropertyOp26
 70
     1
102
RTVSPropertyOp27
 70
     1
102
RTVSPropertyOp28
 70
     1
102
RTVSPropertyOp29
 70
     1
102
RTVSPropertyOp30
 70
     1
102
RTVSPropertyOp31
 70
     1
102
RTVSPropertyOp32
 70
     1
  0
ENDSEC
  0
EOF
